  0
SECTION
  2
HEADER
  9
$ACADVER
  1
AC1024
  9
$DWGCODEPAGE
  3
ANSI_1252
  9
$EXTMAX
 10
297.0
 20
210.0
 30
0.0
  9
$EXTMIN
 10
0.0
 20
0.0
 30
0.0
  9
$LIMMIN
 10
0.0
 20
0.0
  9
$LIMMAX
 10
297.0
 20
210.0
  9
$VIEWCTR
 10
148.5
 20
105.0
  9
$VIEWSIZE
 40
210.0
  9
$CLAYER
  8
0
  9
$LTSCALE
 40
16.335
  9
$CELTYPE
  6
BYLAYER
  9
$DIMSCALE
 40
1.0
  9
$DIMASZ
 40
3.0
  9
$DIMEXO
 40
0.5
  9
$DIMDLI
 40
11.286
  9
$DIMEXE
 40
1.5
  9
$DIMCEN
 40
2.673
  9
$DIMLFAC
 40
1.0
  9
$DIMBLK
  1
_FILLED
  9
$DIMALT
 70
0
  9
$DIMALTF
 40
0.0393700787
  9
$DIMTXT
 40
3.0
  9
$DIMTOL
 70
1
  9
$DIMLIM
 70
0
  9
$DIMTFAC
 40
1.0
  9
$DIMTP
 40
0.01
  9
$DIMTM
 40
0.01
  9
$DIMGAP
 40
0.625
  9
$DIMDSEP
 70
44
  9
$AUNITS
 70
0
  9
$PDMODE
 70
3
  9
$PDSIZE
 40
3.0
  9
$HANDSEED
  5
43A
  9
$TILEMODE
 70
1
  9
$MEASUREMENT
 70
1
  9
$INSUNITS
 70
4
  0
ENDSEC
  0
SECTION
  2
CLASSES
  0
CLASS
  1
ACDBDICTIONARYWDFLT
  2
AcDbDictionaryWithDefault
  3
AutoCAD 2000
 90
0
 91
1
280
0
281
0
  0
CLASS
  1
ACDBPLACEHOLDER
  2
AcDbPlaceHolder
  3
AutoCAD 2000
 90
0
 91
1
280
0
281
0
  0
CLASS
  1
LAYOUT
  2
AcDbLayout
  3
AutoCAD 2000
 90
0
 91
0
280
0
281
0
  0
ENDSEC
  0
SECTION
  2
TABLES
  0
TABLE
  2
VPORT
  5
8
100
AcDbSymbolTable
 70
2
  0
VPORT
  5
1F4
100
AcDbSymbolTableRecord
100
AcDbViewportTableRecord
  2
*ACTIVE
 70
0
 10
0.0
 20
0.0
 11
1.0
 21
1.0
 12
148.5
 22
105.0
 13
0.0
 23
0.0
 14
1.0
 24
1.0
 15
0.0
 25
0.0
 16
0.0
 26
0.0
 36
1.0
 17
0.0
 27
0.0
 37
0.0
 40
210.0
 41
1.4142857143
 42
50.0
 43
0.0
 44
0.0
 50
0.0
 51
0.0
 71
0
 72
100
 73
1
 74
1
 75
0
 76
0
 77
0
 78
0
  0
ENDTAB
  0
TABLE
  2
LTYPE
  5
5
100
AcDbSymbolTable
 70
6
  0
LTYPE
  5
14
100
AcDbSymbolTableRecord
100
AcDbLinetypeTableRecord
  2
BYBLOCK
 70
0
  3

 72
65
 73
0
 40
0.0
  0
LTYPE
  5
15
100
AcDbSymbolTableRecord
100
AcDbLinetypeTableRecord
  2
BYLAYER
 70
0
  3

 72
65
 73
0
 40
0.0
  0
LTYPE
  5
16
100
AcDbSymbolTableRecord
100
AcDbLinetypeTableRecord
  2
CONTINUOUS
 70
64
  3
Solid line
 72
65
 73
0
 40
0.0
  0
LTYPE
  5
1F5
100
AcDbSymbolTableRecord
100
AcDbLinetypeTableRecord
  2
CENTER
 70
64
  3
____ _ ____ _ ____ _ ____ _ ____ _ ____ _ ____
 72
65
 73
4
 40
0.6
 49
0.375
 74
0
 49
-0.075
 74
0
 49
0.075
 74
0
 49
-0.075
 74
0
  0
LTYPE
  5
1F6
100
AcDbSymbolTableRecord
100
AcDbLinetypeTableRecord
  2
HIDDEN
 70
64
  3
- - - - - - - - - - - - - - - - - - - -
 72
65
 73
2
 40
0.2
 49
0.1
 74
0
 49
-0.1
 74
0
  0
LTYPE
  5
1F7
100
AcDbSymbolTableRecord
100
AcDbLinetypeTableRecord
  2
PHANTOM
 70
64
  3
_____ _ _ _____ _ _ _____ _ _ _____
 72
65
 73
6
 40
0.8
 49
0.45
 74
0
 49
-0.05
 74
0
 49
0.1
 74
0
 49
-0.05
 74
0
 49
0.1
 74
0
 49
-0.05
 74
0
  0
LTYPE
  5
1F8
100
AcDbSymbolTableRecord
100
AcDbLinetypeTableRecord
  2
DOT
 70
64
  3
. . . . . . . . . . . . . . . . . . . .
 72
65
 73
2
 40
0.2
 49
0.1
 74
0
 49
-0.1
 74
0
  0
LTYPE
  5
1F9
100
AcDbSymbolTableRecord
100
AcDbLinetypeTableRecord
  2
DASHED
 70
64
  3
- - - - - - - - - - - - - - - - - - - -
 72
65
 73
2
 40
0.2
 49
0.1
 74
0
 49
-0.1
 74
0
  0
ENDTAB
  0
TABLE
  2
LAYER
  5
2
100
AcDbSymbolTable
 70
36
  0
LAYER
  5
10
100
AcDbSymbolTableRecord
100
AcDbLayerTableRecord
  2
0
 70
0
 62
7
  6
CONTINUOUS
370
-3
390
F
  0
LAYER
  5
1FA
100
AcDbSymbolTableRecord
100
AcDbLayerTableRecord
  2
DEFAULT_1
 70
0
 62
7
  6
CENTER
370
-3
390
F
  0
LAYER
  5
1FB
100
AcDbSymbolTableRecord
100
AcDbLayerTableRecord
  2
DEFAULT_2
 70
0
 62
7
  6
HIDDEN
370
-3
390
F
  0
LAYER
  5
1FC
100
AcDbSymbolTableRecord
100
AcDbLayerTableRecord
  2
DEFAULT_3
 70
0
 62
7
  6
PHANTOM
370
-3
390
F
  0
LAYER
  5
1FD
100
AcDbSymbolTableRecord
100
AcDbLayerTableRecord
  2
ASSI
 70
0
 62
7
  6
CONTINUOUS
370
-3
390
F
  0
LAYER
  5
1FE
100
AcDbSymbolTableRecord
100
AcDbLayerTableRecord
  2
COLOR5
 70
0
 62
7
  6
CONTINUOUS
370
-3
390
F
  0
LAYER
  5
1FF
100
AcDbSymbolTableRecord
100
AcDbLayerTableRecord
  2
COORDINATE
 70
0
 62
7
  6
CONTINUOUS
370
-3
390
F
  0
LAYER
  5
200
100
AcDbSymbolTableRecord
100
AcDbLayerTableRecord
  2
COORD_ORIGINE
 70
0
 62
7
  6
CONTINUOUS
370
-3
390
F
  0
LAYER
  5
201
100
AcDbSymbolTableRecord
100
AcDbLayerTableRecord
  2
CURVE
 70
0
 62
7
  6
CONTINUOUS
370
-3
390
F
  0
LAYER
  5
202
100
AcDbSymbolTableRecord
100
AcDbLayerTableRecord
  2
DRAFT
 70
0
 62
7
  6
CONTINUOUS
370
-3
390
F
  0
LAYER
  5
203
100
AcDbSymbolTableRecord
100
AcDbLayerTableRecord
  2
IGES_INCISIONI
 70
0
 62
7
  6
CONTINUOUS
370
-3
390
F
  0
LAYER
  5
204
100
AcDbSymbolTableRecord
100
AcDbLayerTableRecord
  2
IMPORT_FEATURE
 70
0
 62
7
  6
CONTINUOUS
370
-3
390
F
  0
LAYER
  5
205
100
AcDbSymbolTableRecord
100
AcDbLayerTableRecord
  2
IMPORT_IGS
 70
0
 62
7
  6
CONTINUOUS
370
-3
390
F
  0
LAYER
  5
206
100
AcDbSymbolTableRecord
100
AcDbLayerTableRecord
  2
INTF_1
 70
0
 62
7
  6
CONTINUOUS
370
-3
390
F
  0
LAYER
  5
207
100
AcDbSymbolTableRecord
100
AcDbLayerTableRecord
  2
INTF_7
 70
0
 62
7
  6
CONTINUOUS
370
-3
390
F
  0
LAYER
  5
208
100
AcDbSymbolTableRecord
100
AcDbLayerTableRecord
  2
NOTE
 70
0
 62
7
  6
CONTINUOUS
370
-3
390
F
  0
LAYER
  5
209
100
AcDbSymbolTableRecord
100
AcDbLayerTableRecord
  2
PIANI
 70
0
 62
7
  6
CONTINUOUS
370
-3
390
F
  0
LAYER
  5
20A
100
AcDbSymbolTableRecord
100
AcDbLayerTableRecord
  2
PIANI_ORIGINE
 70
0
 62
7
  6
CONTINUOUS
370
-3
390
F
  0
LAYER
  5
20B
100
AcDbSymbolTableRecord
100
AcDbLayerTableRecord
  2
PIANI_PATTERN
 70
0
 62
7
  6
CONTINUOUS
370
-3
390
F
  0
LAYER
  5
20C
100
AcDbSymbolTableRecord
100
AcDbLayerTableRecord
  2
PUNTI
 70
0
 62
7
  6
CONTINUOUS
370
-3
390
F
  0
LAYER
  5
20D
100
AcDbSymbolTableRecord
100
AcDbLayerTableRecord
  2
RACCORDO
 70
0
 62
7
  6
CONTINUOUS
370
-3
390
F
  0
LAYER
  5
20E
100
AcDbSymbolTableRecord
100
AcDbLayerTableRecord
  2
RGB__255__255__255__
 70
0
 62
7
  6
CONTINUOUS
370
-3
390
F
  0
LAYER
  5
20F
100
AcDbSymbolTableRecord
100
AcDbLayerTableRecord
  2
RGB____0____0____0__
 70
0
 62
7
  6
CONTINUOUS
370
-3
390
F
  0
LAYER
  5
210
100
AcDbSymbolTableRecord
100
AcDbLayerTableRecord
  2
SKELETON
 70
0
 62
7
  6
CONTINUOUS
370
-3
390
F
  0
LAYER
  5
211
100
AcDbSymbolTableRecord
100
AcDbLayerTableRecord
  2
SMUSSO
 70
0
 62
7
  6
CONTINUOUS
370
-3
390
F
  0
LAYER
  5
212
100
AcDbSymbolTableRecord
100
AcDbLayerTableRecord
  2
SNAPLINE
 70
0
 62
7
  6
CONTINUOUS
370
-3
390
F
  0
LAYER
  5
213
100
AcDbSymbolTableRecord
100
AcDbLayerTableRecord
  2
SUPERFICI
 70
0
 62
7
  6
CONTINUOUS
370
-3
390
F
  0
LAYER
  5
214
100
AcDbSymbolTableRecord
100
AcDbLayerTableRecord
  2
TRASH
 70
0
 62
7
  6
CONTINUOUS
370
-3
390
F
  0
LAYER
  5
215
100
AcDbSymbolTableRecord
100
AcDbLayerTableRecord
  2
XSEC_DATUMS
 70
0
 62
7
  6
CONTINUOUS
370
-3
390
F
  0
LAYER
  5
216
100
AcDbSymbolTableRecord
100
AcDbLayerTableRecord
  2
___SHELL
 70
0
 62
7
  6
CONTINUOUS
370
-3
390
F
  0
ENDTAB
  0
TABLE
  2
STYLE
  5
3
100
AcDbSymbolTable
 70
1
  0
STYLE
  5
11
100
AcDbSymbolTableRecord
100
AcDbTextStyleTableRecord
  2
STANDARD
 70
0
 40
0.0
 41
0.8
 50
0.0
 71
0
 42
0.2
  3
txt
  4

  0
STYLE
  5
217
100
AcDbSymbolTableRecord
100
AcDbTextStyleTableRecord
  2
TEXTSTYLE_1
 70
0
 40
0.0
 41
0.8
 50
0.0
 71
0
 42
0.2
  3
gdt
  4

  0
ENDTAB
  0
TABLE
  2
VIEW
  5
6
100
AcDbSymbolTable
 70
0
  0
ENDTAB
  0
TABLE
  2
UCS
  5
7
100
AcDbSymbolTable
 70
0
  0
ENDTAB
  0
TABLE
  2
APPID
  5
9
100
AcDbSymbolTable
 70
1
  0
APPID
  5
218
100
AcDbSymbolTableRecord
100
AcDbRegAppTableRecord
  2
ACAD
 70
0
  0
ENDTAB
  0
TABLE
  2
BLOCK_RECORD
  5
1
100
AcDbSymbolTable
 70
0
  0
BLOCK_RECORD
  5
219
100
AcDbSymbolTableRecord
100
AcDbBlockTableRecord
  2
*Model_Space
  0
BLOCK_RECORD
  5
21A
100
AcDbSymbolTableRecord
100
AcDbBlockTableRecord
  2
*Paper_Space
  0
BLOCK_RECORD
  5
21B
100
AcDbSymbolTableRecord
100
AcDbBlockTableRecord
  2
_FILLED
  0
ENDTAB
  0
TABLE
  2
DIMSTYLE
  5
A
100
AcDbSymbolTable
 70
1
100
AcDbDimStyleTable
 71
0
  0
DIMSTYLE
105
21C
100
AcDbSymbolTableRecord
100
AcDbDimStyleTableRecord
  2
STANDARD
 70
0
  3

  4

 40
1.0
 41
3.0
 42
0.5
 43
0.38
 44
1.5
 45
0.0
 46
0.0
 47
0.01
 48
0.01
140
3.0
141
0.09
142
0.0
143
25.4
144
1.0
145
0.0
146
1.0
147
0.625
 71
1.0
 72
0.0
 73
0
 74
0
 75
0
 76
0
 77
1
 78
8
 79
2
170
0
171
1
172
0
173
0
174
0
175
0
176
0
177
0
178
0
270
2
179
2
271
2
272
2
273
2
274
2
275
0
280
0
281
0
282
0
283
1
284
8
285
0
286
0
287
3
288
0
340
11
278
44
341
21B
342
21B
343
21B
344
21B
  0
ENDTAB
  0
ENDSEC
  0
SECTION
  2
BLOCKS
  0
BLOCK
  5
20
100
AcDbEntity
  8
0
100
AcDbBlockBegin
  2
*Model_Space
 70
0
 10
0.0
 20
0.0
 30
0.0
  3
*Model_Space
  1

  0
ENDBLK
  5
21
100
AcDbEntity
  8
0
100
AcDbBlockEnd
  0
BLOCK
  5
1C
100
AcDbEntity
  8
0
100
AcDbBlockBegin
  2
*Paper_Space
 70
0
 10
0.0
 20
0.0
 30
0.0
  3
*Paper_Space
  1

  0
ENDBLK
  5
1D
100
AcDbEntity
  8
0
100
AcDbBlockEnd
  0
BLOCK
  5
21D
100
AcDbEntity
  8
0
100
AcDbBlockBegin
  2
_FILLED
 70
64
 10
0.0
 20
0.0
  3
_FILLED
  1

  0
SOLID
  5
21E
100
AcDbEntity
  8
0
  6
BYBLOCK
 62
0
100
AcDbTrace
 10
0.0
 20
0.0
 11
-1.0
 21
0.3166666667
 12
-1.0
 22
-0.3166666667
 13
-1.0
 23
-0.3166666667
  0
ENDBLK
  5
21F
100
AcDbEntity
  8
0
  6
BYBLOCK
 62
0
100
AcDbBlockEnd
  0
ENDSEC
  0
SECTION
  2
ENTITIES
  0
LINE
  5
220
100
AcDbEntity
  8
SUPERFICI
100
AcDbLine
 62
7
  6
CONTINUOUS
 10
-102.0000003491
 20
35.5000000145
 11
-102.0000003491
 21
-35.5000000243
  0
LINE
  5
221
100
AcDbEntity
  8
DRAFT
100
AcDbLine
 62
7
  6
CONTINUOUS
 10
-102.0
 20
35.5
 11
-102.0
 21
-35.5
  0
LINE
  5
222
100
AcDbEntity
  8
RACCORDO
100
AcDbLine
 62
250
  6
CONTINUOUS
 10
-101.4639771903
 20
-26.7913486316
 11
-101.4639771903
 21
-31.6086513684
  0
LINE
  5
223
100
AcDbEntity
  8
RACCORDO
100
AcDbLine
 62
250
  6
CONTINUOUS
 10
-101.3747431161
 20
35.5
 11
-101.3747431161
 21
-25.7194172943
  0
LINE
  5
224
100
AcDbEntity
  8
RACCORDO
100
AcDbLine
 62
250
  6
CONTINUOUS
 10
-101.3747431161
 20
-32.6805827057
 11
-101.3747431161
 21
-35.5
  0
LINE
  5
225
100
AcDbEntity
  8
RACCORDO
100
AcDbLine
 62
250
  6
CONTINUOUS
 10
-100.9640533427
 20
-26.7913486316
 11
-100.9640533427
 21
-31.6086513684
  0
LINE
  5
226
100
AcDbEntity
  8
0
100
AcDbLine
 62
7
  6
CONTINUOUS
 10
-100.4751240074
 20
35.5
 11
-100.4751240074
 21
33.7248759926
  0
LINE
  5
227
100
AcDbEntity
  8
0
100
AcDbLine
 62
7
  6
CONTINUOUS
 10
-100.4751240074
 20
-33.7248759926
 11
-100.4751240074
 21
-35.5
  0
LINE
  5
228
100
AcDbEntity
  8
RACCORDO
100
AcDbLine
 62
7
  6
CONTINUOUS
 10
-100.4748344851
 20
-26.7913486316
 11
-100.4748344851
 21
-31.6086513684
  0
LINE
  5
229
100
AcDbEntity
  8
RACCORDO
100
AcDbLine
 62
250
  6
CONTINUOUS
 10
-100.3821703245
 20
-26.2064316619
 11
-100.3821703245
 21
-32.1935683378
  0
LINE
  5
22A
100
AcDbEntity
  8
DRAFT
100
AcDbLine
 62
7
  6
CONTINUOUS
 10
-100.2
 20
-35.5
 11
-100.2
 21
-34.0
  0
LINE
  5
22B
100
AcDbEntity
  8
DRAFT
100
AcDbLine
 62
7
  6
CONTINUOUS
 10
-100.2
 20
34.0
 11
-100.2
 21
35.5
  0
LINE
  5
22C
100
AcDbEntity
  8
RACCORDO
100
AcDbLine
 62
250
  6
CONTINUOUS
 10
-100.1749258633
 20
-26.0000746359
 11
-100.1749258819
 21
33.7242099741
  0
LINE
  5
22D
100
AcDbEntity
  8
RACCORDO
100
AcDbLine
 62
250
  6
CONTINUOUS
 10
-100.174925864
 20
-32.3999253618
 11
-100.1749258819
 21
-33.7242099741
  0
LINE
  5
22E
100
AcDbEntity
  8
RACCORDO
100
AcDbLine
 62
250
  6
CONTINUOUS
 10
-99.8822464769
 20
-25.7074119919
 11
-99.8822464769
 21
-32.6925880081
  0
LINE
  5
22F
100
AcDbEntity
  8
DRAFT
100
AcDbLine
 62
250
  6
CONTINUOUS
 10
-96.0
 20
34.0
 11
-96.0
 21
33.7242099741
  0
LINE
  5
230
100
AcDbEntity
  8
DRAFT
100
AcDbLine
 62
250
  6
CONTINUOUS
 10
-96.0
 20
-34.0
 11
-96.0
 21
-33.7242099741
  0
LINE
  5
231
100
AcDbEntity
  8
0
100
AcDbLine
 62
250
  6
CONTINUOUS
 10
-96.0
 20
-39.7
 11
-96.0
 21
-41.5
  0
LINE
  5
232
100
AcDbEntity
  8
0
100
AcDbLine
 62
250
  6
CONTINUOUS
 10
-96.0
 20
39.7
 11
-96.0
 21
41.5
  0
LINE
  5
233
100
AcDbEntity
  8
DRAFT
100
AcDbLine
 62
7
  6
CONTINUOUS
 10
-94.5
 20
39.7
 11
-94.5
 21
35.5
  0
LINE
  5
234
100
AcDbEntity
  8
DRAFT
100
AcDbLine
 62
7
  6
CONTINUOUS
 10
-94.5
 20
-35.5
 11
-94.5
 21
-39.7
  0
LINE
  5
235
100
AcDbEntity
  8
0
100
AcDbLine
 62
7
  6
CONTINUOUS
 10
-94.5
 20
39.7
 11
-94.2248759926
 21
39.9751240074
  0
LINE
  5
236
100
AcDbEntity
  8
0
100
AcDbLine
 62
7
  6
CONTINUOUS
 10
-100.2
 20
34.0
 11
-100.4751240074
 21
33.7248759926
  0
LINE
  5
237
100
AcDbEntity
  8
0
100
AcDbLine
 62
7
  6
CONTINUOUS
 10
-94.5
 20
-39.7
 11
-94.2248759926
 21
-39.9751240074
  0
LINE
  5
238
100
AcDbEntity
  8
0
100
AcDbLine
 62
7
  6
CONTINUOUS
 10
-100.2
 20
-34.0
 11
-100.4751240074
 21
-33.7248759926
  0
LINE
  5
239
100
AcDbEntity
  8
RACCORDO
100
AcDbLine
 62
250
  6
CONTINUOUS
 10
-101.4468267582
 20
-32.6084990636
 11
-101.3747431161
 21
-32.6805827057
  0
LINE
  5
23A
100
AcDbEntity
  8
0
100
AcDbLine
 62
7
  6
CONTINUOUS
 10
-94.2242099741
 20
39.6749258819
 11
-94.2242099741
 21
35.5
  0
LINE
  5
23B
100
AcDbEntity
  8
0
100
AcDbLine
 62
7
  6
CONTINUOUS
 10
-94.2242099741
 20
-35.5
 11
-94.2242099741
 21
-39.6749258819
  0
LINE
  5
23C
100
AcDbEntity
  8
0
100
AcDbLine
 62
7
  6
CONTINUOUS
 10
-89.2
 20
1.4375
 11
-89.2
 21
1.3125001192
  0
LINE
  5
23D
100
AcDbEntity
  8
0
100
AcDbLine
 62
7
  6
CONTINUOUS
 10
-89.2
 20
-0.3750000596
 11
-89.2
 21
-2.5
  0
LINE
  5
23E
100
AcDbEntity
  8
RACCORDO
100
AcDbLine
 62
250
  6
CONTINUOUS
 10
-88.9425880081
 20
39.6749258819
 11
-88.9425880081
 21
39.382246477
  0
LINE
  5
23F
100
AcDbEntity
  8
0
100
AcDbLine
 62
7
  6
CONTINUOUS
 10
-88.8808511019
 20
-2.1875000074
 11
-88.8808511019
 21
-0.3750000596
  0
LINE
  5
240
100
AcDbEntity
  8
0
100
AcDbLine
 62
7
  6
CONTINUOUS
 10
-88.8808511019
 20
1.25
 11
-88.8808511019
 21
1.5000001192
  0
LINE
  5
241
100
AcDbEntity
  8
0
100
AcDbLine
 62
7
  6
CONTINUOUS
 10
-88.4978724241
 20
0.3125
 11
-88.4978724241
 21
0.6249998808
  0
LINE
  5
242
100
AcDbEntity
  8
RACCORDO
100
AcDbLine
 62
250
  6
CONTINUOUS
 10
-88.358575216
 20
39.9662592691
 11
-88.358575216
 21
40.4469029106
  0
LINE
  5
243
100
AcDbEntity
  8
0
100
AcDbLine
 62
7
  6
CONTINUOUS
 10
-88.1148935676
 20
-1.1875
 11
-88.1148935676
 21
-1.5625
  0
LINE
  5
244
100
AcDbEntity
  8
0
100
AcDbLine
 62
7
  6
CONTINUOUS
 10
-87.8595744491
 20
1.5000001192
 11
-87.8595744491
 21
1.25
  0
LINE
  5
245
100
AcDbEntity
  8
RACCORDO
100
AcDbLine
 62
250
  6
CONTINUOUS
 10
-87.8586513684
 20
39.9748344851
 11
-87.8586513685
 21
40.9639771903
  0
LINE
  5
246
100
AcDbEntity
  8
0
100
AcDbLine
 62
7
  6
CONTINUOUS
 10
-87.7957446694
 20
-1.5625
 11
-87.7957446694
 21
-1.1875
  0
LINE
  5
247
100
AcDbEntity
  8
0
100
AcDbLine
 62
7
  6
CONTINUOUS
 10
-87.6042553306
 20
1.25
 11
-87.6042553306
 21
1.5000001192
  0
LINE
  5
248
100
AcDbEntity
  8
0
100
AcDbLine
 62
7
  6
CONTINUOUS
 10
-87.5404255509
 20
-2.5
 11
-87.5404255509
 21
-2.0625000149
  0
LINE
  5
249
100
AcDbEntity
  8
0
100
AcDbLine
 62
7
  6
CONTINUOUS
 10
-89.1361702204
 20
1.8750001192
 11
-89.2
 21
1.4375
  0
LINE
  5
24A
100
AcDbEntity
  8
0
100
AcDbLine
 62
7
  6
CONTINUOUS
 10
-88.8808511019
 20
1.5000001192
 11
-88.8170213223
 21
1.8125
  0
LINE
  5
24B
100
AcDbEntity
  8
RACCORDO
100
AcDbLine
 62
250
  6
CONTINUOUS
 10
-88.8584990636
 20
40.9468267582
 11
-88.9305827057
 21
40.8747431161
  0
LINE
  5
24C
100
AcDbEntity
  8
RACCORDO
100
AcDbLine
 62
250
  6
CONTINUOUS
 10
-88.358575216
 20
40.4469029106
 11
-88.4306588581
 21
40.3748192685
  0
LINE
  5
24D
100
AcDbEntity
  8
RACCORDO
100
AcDbLine
 62
7
  6
CONTINUOUS
 10
-88.358575216
 20
39.9662592691
 11
-88.4421133401
 21
39.882721145
  0
LINE
  5
24E
100
AcDbEntity
  8
RACCORDO
100
AcDbLine
 62
250
  6
CONTINUOUS
 10
-100.9469029106
 20
-32.108575216
 11
-100.8748192685
 21
-32.1806588581
  0
LINE
  5
24F
100
AcDbEntity
  8
RACCORDO
100
AcDbLine
 62
7
  6
CONTINUOUS
 10
-100.4662592691
 20
-32.108575216
 11
-100.382721145
 21
-32.1921133401
  0
LINE
  5
250
100
AcDbEntity
  8
0
100
AcDbLine
 62
7
  6
CONTINUOUS
 10
-89.2
 20
1.3125001192
 11
-89.1361702204
 21
0.875
  0
LINE
  5
251
100
AcDbEntity
  8
0
100
AcDbLine
 62
7
  6
CONTINUOUS
 10
-86.9659574449
 20
-2.125
 11
-86.9659574449
 21
-2.5
  0
LINE
  5
252
100
AcDbEntity
  8
0
100
AcDbLine
 62
7
  6
CONTINUOUS
 10
-86.9021276653
 20
0.5625001192
 11
-86.9021276653
 21
0.2500000596
  0
LINE
  5
253
100
AcDbEntity
  8
0
100
AcDbLine
 62
7
  6
CONTINUOUS
 10
-86.5191489428
 20
1.5624998808
 11
-86.5191489428
 21
1.1874998808
  0
LINE
  5
254
100
AcDbEntity
  8
0
100
AcDbLine
 62
7
  6
CONTINUOUS
 10
-86.5191489428
 20
-1.1875
 11
-86.5191489428
 21
-1.5625
  0
LINE
  5
255
100
AcDbEntity
  8
0
100
AcDbLine
 62
7
  6
CONTINUOUS
 10
-86.2
 20
-1.5625
 11
-86.2
 21
-1.1875
  0
LINE
  5
256
100
AcDbEntity
  8
0
100
AcDbLine
 62
7
  6
CONTINUOUS
 10
-86.2
 20
1.1250001192
 11
-86.2
 21
1.625
  0
LINE
  5
257
100
AcDbEntity
  8
0
100
AcDbLine
 62
7
  6
CONTINUOUS
 10
-85.6
 20
-16.0
 11
-85.6
 21
16.0
  0
LINE
  5
258
100
AcDbEntity
  8
0
100
AcDbLine
 62
7
  6
CONTINUOUS
 10
-85.4
 20
16.0
 11
-85.4
 21
-16.0
  0
LINE
  5
259
100
AcDbEntity
  8
RACCORDO
100
AcDbLine
 62
250
  6
CONTINUOUS
 10
-83.0413486316
 20
39.9748344851
 11
-83.0413486316
 21
40.9639771903
  0
LINE
  5
25A
100
AcDbEntity
  8
RACCORDO
100
AcDbLine
 62
250
  6
CONTINUOUS
 10
-82.541424784
 20
40.4469029106
 11
-82.541424784
 21
39.9662592691
  0
LINE
  5
25B
100
AcDbEntity
  8
RACCORDO
100
AcDbLine
 62
250
  6
CONTINUOUS
 10
-81.9574119919
 20
39.382246477
 11
-81.9574119919
 21
39.6749258819
  0
LINE
  5
25C
100
AcDbEntity
  8
0
100
AcDbLine
 62
7
  6
CONTINUOUS
 10
-87.6042553306
 20
1.5000001192
 11
-87.5404255509
 21
1.8750001192
  0
LINE
  5
25D
100
AcDbEntity
  8
0
100
AcDbLine
 62
7
  6
CONTINUOUS
 10
-88.0510637879
 20
-0.8749999404
 11
-88.1148935676
 21
-1.1875
  0
LINE
  5
25E
100
AcDbEntity
  8
0
100
AcDbLine
 62
7
  6
CONTINUOUS
 10
-86.5191489428
 20
1.1874998808
 11
-86.5829787225
 21
0.875
  0
LINE
  5
25F
100
AcDbEntity
  8
0
100
AcDbLine
 62
7
  6
CONTINUOUS
 10
-86.2638297852
 20
-1.8750000149
 11
-86.2
 21
-1.5625
  0
LINE
  5
260
100
AcDbEntity
  8
0
100
AcDbLine
 62
7
  6
CONTINUOUS
 10
-87.7957446694
 20
-1.1875
 11
-87.7319148898
 21
-0.9375000596
  0
LINE
  5
261
100
AcDbEntity
  8
0
100
AcDbLine
 62
7
  6
CONTINUOUS
 10
-86.2638297852
 20
0.875
 11
-86.2
 21
1.1250001192
  0
LINE
  5
262
100
AcDbEntity
  8
0
100
AcDbLine
 62
7
  6
CONTINUOUS
 10
-86.5191489428
 20
-1.5625
 11
-86.5829787225
 21
-1.8124999851
  0
LINE
  5
263
100
AcDbEntity
  8
0
100
AcDbLine
 62
7
  6
CONTINUOUS
 10
-87.6042553306
 20
2.3124998808
 11
-87.7319148898
 21
2.0
  0
LINE
  5
264
100
AcDbEntity
  8
0
100
AcDbLine
 62
7
  6
CONTINUOUS
 10
-89.0085106611
 20
2.1249998808
 11
-89.1361702204
 21
1.8750001192
  0
LINE
  5
265
100
AcDbEntity
  8
0
100
AcDbLine
 62
7
  6
CONTINUOUS
 10
-87.9872340083
 20
1.8750001192
 11
-87.8595744491
 21
1.5000001192
  0
LINE
  5
266
100
AcDbEntity
  8
0
100
AcDbLine
 62
7
  6
CONTINUOUS
 10
-87.7319148898
 20
-1.8124999851
 11
-87.7957446694
 21
-1.5625
  0
LINE
  5
267
100
AcDbEntity
  8
0
100
AcDbLine
 62
7
  6
CONTINUOUS
 10
-86.5829787225
 20
-0.9375000596
 11
-86.5191489428
 21
-1.1875
  0
LINE
  5
268
100
AcDbEntity
  8
0
100
AcDbLine
 62
7
  6
CONTINUOUS
 10
-86.2
 20
1.625
 11
-86.2638297852
 21
1.8750001192
  0
LINE
  5
269
100
AcDbEntity
  8
0
100
AcDbLine
 62
7
  6
CONTINUOUS
 10
-88.8170213223
 20
0.9375001192
 11
-88.8808511019
 21
1.25
  0
LINE
  5
26A
100
AcDbEntity
  8
0
100
AcDbLine
 62
7
  6
CONTINUOUS
 10
-88.1148935676
 20
-1.5625
 11
-88.0510637879
 21
-1.8750000149
  0
LINE
  5
26B
100
AcDbEntity
  8
0
100
AcDbLine
 62
7
  6
CONTINUOUS
 10
-86.2
 20
-1.1875
 11
-86.2638297852
 21
-0.8749999404
  0
LINE
  5
26C
100
AcDbEntity
  8
0
100
AcDbLine
 62
7
  6
CONTINUOUS
 10
-86.5829787225
 20
1.8750001192
 11
-86.5191489428
 21
1.5624998808
  0
LINE
  5
26D
100
AcDbEntity
  8
0
100
AcDbLine
 62
7
  6
CONTINUOUS
 10
-75.0
 20
26.4
 11
-75.0
 21
26.6
  0
LINE
  5
26E
100
AcDbEntity
  8
0
100
AcDbLine
 62
7
  6
CONTINUOUS
 10
-86.5829787225
 20
0.875
 11
-86.6468085021
 21
0.7500001192
  0
LINE
  5
26F
100
AcDbEntity
  8
0
100
AcDbLine
 62
7
  6
CONTINUOUS
 10
-86.3914893612
 20
0.6249998808
 11
-86.2638297852
 21
0.875
  0
LINE
  5
270
100
AcDbEntity
  8
0
100
AcDbLine
 62
7
  6
CONTINUOUS
 10
-87.8595744491
 20
-0.5625000596
 11
-88.0510637879
 21
-0.8749999404
  0
LINE
  5
271
100
AcDbEntity
  8
0
100
AcDbLine
 62
7
  6
CONTINUOUS
 10
-86.4553191409
 20
-2.1875000074
 11
-86.2638297852
 21
-1.8750000149
  0
LINE
  5
272
100
AcDbEntity
  8
0
100
AcDbLine
 62
7
  6
CONTINUOUS
 10
-88.8170213223
 20
1.8125
 11
-88.689361763
 21
2.0
  0
LINE
  5
273
100
AcDbEntity
  8
0
100
AcDbLine
 62
7
  6
CONTINUOUS
 10
-87.5404255509
 20
1.8750001192
 11
-87.4127659917
 21
2.0625001192
  0
LINE
  5
274
100
AcDbEntity
  8
0
100
AcDbLine
 62
7
  6
CONTINUOUS
 10
-88.689361763
 20
0.7500001192
 11
-88.8170213223
 21
0.9375001192
  0
LINE
  5
275
100
AcDbEntity
  8
0
100
AcDbLine
 62
7
  6
CONTINUOUS
 10
-88.0510637879
 20
-1.8750000149
 11
-87.8595744491
 21
-2.1875000074
  0
LINE
  5
276
100
AcDbEntity
  8
0
100
AcDbLine
 62
7
  6
CONTINUOUS
 10
-86.2638297852
 20
-0.8749999404
 11
-86.4553191409
 21
-0.5625000596
  0
LINE
  5
277
100
AcDbEntity
  8
0
100
AcDbLine
 62
7
  6
CONTINUOUS
 10
-89.1361702204
 20
0.875
 11
-89.0085106611
 21
0.6249998808
  0
LINE
  5
278
100
AcDbEntity
  8
0
100
AcDbLine
 62
7
  6
CONTINUOUS
 10
-86.6468085021
 20
2.0
 11
-86.5829787225
 21
1.8750001192
  0
LINE
  5
279
100
AcDbEntity
  8
0
100
AcDbLine
 62
7
  6
CONTINUOUS
 10
-86.2638297852
 20
1.8750001192
 11
-86.3914893612
 21
2.1249998808
  0
LINE
  5
27A
100
AcDbEntity
  8
0
100
AcDbLine
 62
7
  6
CONTINUOUS
 10
-68.75
 20
-11.4816392509
 11
-68.75
 21
-10.398724427
  0
LINE
  5
27B
100
AcDbEntity
  8
0
100
AcDbLine
 62
7
  6
CONTINUOUS
 10
-68.75
 20
10.398724427
 11
-68.75
 21
11.481639251
  0
LINE
  5
27C
100
AcDbEntity
  8
0
100
AcDbLine
 62
7
  6
CONTINUOUS
 10
-67.25
 20
11.481639251
 11
-67.25
 21
10.398724427
  0
LINE
  5
27D
100
AcDbEntity
  8
0
100
AcDbLine
 62
7
  6
CONTINUOUS
 10
-67.25
 20
-10.398724427
 11
-67.25
 21
-11.4816392509
  0
LINE
  5
27E
100
AcDbEntity
  8
0
100
AcDbLine
 62
7
  6
CONTINUOUS
 10
-87.7319148898
 20
-0.9375000596
 11
-87.6042553306
 21
-0.7500000596
  0
LINE
  5
27F
100
AcDbEntity
  8
0
100
AcDbLine
 62
7
  6
CONTINUOUS
 10
-86.5191489428
 20
0.4375000596
 11
-86.3914893612
 21
0.6249998808
  0
LINE
  5
280
100
AcDbEntity
  8
0
100
AcDbLine
 62
7
  6
CONTINUOUS
 10
-86.5829787225
 20
-1.8124999851
 11
-86.7106382817
 21
-1.9999999851
  0
LINE
  5
281
100
AcDbEntity
  8
0
100
AcDbLine
 62
7
  6
CONTINUOUS
 10
-87.5404255509
 20
-2.0625000149
 11
-87.7319148898
 21
-1.8124999851
  0
LINE
  5
282
100
AcDbEntity
  8
0
100
AcDbLine
 62
7
  6
CONTINUOUS
 10
-87.7319148898
 20
2.0
 11
-87.9234042287
 21
2.2500001192
  0
LINE
  5
283
100
AcDbEntity
  8
0
100
AcDbLine
 62
7
  6
CONTINUOUS
 10
-86.7106382817
 20
-0.7500000596
 11
-86.5829787225
 21
-0.9375000596
  0
LINE
  5
284
100
AcDbEntity
  8
0
100
AcDbLine
 62
7
  6
CONTINUOUS
 10
-86.3914893612
 20
2.1249998808
 11
-86.5191489428
 21
2.3124998808
  0
LINE
  5
285
100
AcDbEntity
  8
0
100
AcDbLine
 62
7
  6
CONTINUOUS
 10
-88.7531915426
 20
2.375
 11
-89.0085106611
 21
2.1249998808
  0
LINE
  5
286
100
AcDbEntity
  8
0
100
AcDbLine
 62
7
  6
CONTINUOUS
 10
-86.6468085021
 20
0.7500001192
 11
-86.774468106
 21
0.6249998808
  0
LINE
  5
287
100
AcDbEntity
  8
0
100
AcDbLine
 62
7
  6
CONTINUOUS
 10
-89.0085106611
 20
0.6249998808
 11
-88.7531915426
 21
0.3749999404
  0
LINE
  5
288
100
AcDbEntity
  8
0
100
AcDbLine
 62
7
  6
CONTINUOUS
 10
-88.1148935676
 20
2.0
 11
-87.9872340083
 21
1.8750001192
  0
LINE
  5
289
100
AcDbEntity
  8
0
100
AcDbLine
 62
7
  6
CONTINUOUS
 10
-86.774468106
 20
2.1249998808
 11
-86.6468085021
 21
2.0
  0
LINE
  5
28A
100
AcDbEntity
  8
RACCORDO
100
AcDbLine
 62
250
  6
CONTINUOUS
 10
-101.3747431161
 20
-25.7194172943
 11
-101.4468267582
 21
-25.7915009364
  0
LINE
  5
28B
100
AcDbEntity
  8
RACCORDO
100
AcDbLine
 62
250
  6
CONTINUOUS
 10
-100.8748192685
 20
-26.2193411419
 11
-100.9469029106
 21
-26.291424784
  0
LINE
  5
28C
100
AcDbEntity
  8
RACCORDO
100
AcDbLine
 62
7
  6
CONTINUOUS
 10
-100.4662592691
 20
-26.291424784
 11
-100.3827210873
 21
-26.2078866022
  0
LINE
  5
28D
100
AcDbEntity
  8
0
100
AcDbLine
 62
7
  6
CONTINUOUS
 10
-87.6042553306
 20
-0.3750000596
 11
-87.8595744491
 21
-0.5625000596
  0
LINE
  5
28E
100
AcDbEntity
  8
0
100
AcDbLine
 62
7
  6
CONTINUOUS
 10
-86.4553191409
 20
-0.5625000596
 11
-86.7106382817
 21
-0.3750000596
  0
LINE
  5
28F
100
AcDbEntity
  8
0
100
AcDbLine
 62
7
  6
CONTINUOUS
 10
-86.7106382817
 20
-2.3749999963
 11
-86.4553191409
 21
-2.1875000074
  0
LINE
  5
290
100
AcDbEntity
  8
0
100
AcDbLine
 62
7
  6
CONTINUOUS
 10
-88.689361763
 20
2.0
 11
-88.4978724241
 21
2.1249998808
  0
LINE
  5
291
100
AcDbEntity
  8
0
100
AcDbLine
 62
7
  6
CONTINUOUS
 10
-87.4127659917
 20
2.4375001192
 11
-87.6042553306
 21
2.3124998808
  0
LINE
  5
292
100
AcDbEntity
  8
0
100
AcDbLine
 62
7
  6
CONTINUOUS
 10
-86.7106382817
 20
0.3125
 11
-86.5191489428
 21
0.4375000596
  0
LINE
  5
293
100
AcDbEntity
  8
0
100
AcDbLine
 62
7
  6
CONTINUOUS
 10
-87.6042553306
 20
-0.7500000596
 11
-87.4127659917
 21
-0.625
  0
LINE
  5
294
100
AcDbEntity
  8
0
100
AcDbLine
 62
7
  6
CONTINUOUS
 10
-86.9021276653
 20
-0.625
 11
-86.7106382817
 21
-0.7500000596
  0
LINE
  5
295
100
AcDbEntity
  8
0
100
AcDbLine
 62
7
  6
CONTINUOUS
 10
-88.4978724241
 20
0.6249998808
 11
-88.689361763
 21
0.7500001192
  0
LINE
  5
296
100
AcDbEntity
  8
0
100
AcDbLine
 62
7
  6
CONTINUOUS
 10
-87.9234042287
 20
2.2500001192
 11
-88.1148935676
 21
2.375
  0
LINE
  5
297
100
AcDbEntity
  8
0
100
AcDbLine
 62
7
  6
CONTINUOUS
 10
-86.5191489428
 20
2.3124998808
 11
-86.7106382817
 21
2.4375001192
  0
LINE
  5
298
100
AcDbEntity
  8
0
100
AcDbLine
 62
7
  6
CONTINUOUS
 10
-87.4127659917
 20
2.0625001192
 11
-87.1574467838
 21
2.1875
  0
LINE
  5
299
100
AcDbEntity
  8
0
100
AcDbLine
 62
7
  6
CONTINUOUS
 10
-86.774468106
 20
0.6249998808
 11
-86.9021276653
 21
0.5625001192
  0
LINE
  5
29A
100
AcDbEntity
  8
0
100
AcDbLine
 62
7
  6
CONTINUOUS
 10
-86.7106382817
 20
-1.9999999851
 11
-86.9659574449
 21
-2.125
  0
LINE
  5
29B
100
AcDbEntity
  8
0
100
AcDbLine
 62
7
  6
CONTINUOUS
 10
-86.9659574449
 20
-2.5
 11
-86.7106382817
 21
-2.3749999963
  0
LINE
  5
29C
100
AcDbEntity
  8
DRAFT
100
AcDbLine
 62
7
  6
CONTINUOUS
 10
-96.0
 20
-41.5
 11
96.0
 21
-41.5
  0
LINE
  5
29D
100
AcDbEntity
  8
SUPERFICI
100
AcDbLine
 62
7
  6
CONTINUOUS
 10
96.0000000088
 20
-41.5000003491
 11
-96.0000000088
 21
-41.5000003491
  0
LINE
  5
29E
100
AcDbEntity
  8
RACCORDO
100
AcDbLine
 62
250
  6
CONTINUOUS
 10
83.0413486316
 20
-40.9639771903
 11
87.8586513684
 21
-40.9639771903
  0
LINE
  5
29F
100
AcDbEntity
  8
RACCORDO
100
AcDbLine
 62
250
  6
CONTINUOUS
 10
-96.0
 20
-40.8747431161
 11
81.9694172943
 21
-40.8747431161
  0
LINE
  5
2A0
100
AcDbEntity
  8
RACCORDO
100
AcDbLine
 62
250
  6
CONTINUOUS
 10
88.9305827057
 20
-40.8747431161
 11
96.0
 21
-40.8747431161
  0
LINE
  5
2A1
100
AcDbEntity
  8
RACCORDO
100
AcDbLine
 62
250
  6
CONTINUOUS
 10
83.0413486316
 20
-40.4640533427
 11
87.8586513684
 21
-40.4640533427
  0
LINE
  5
2A2
100
AcDbEntity
  8
0
100
AcDbLine
 62
7
  6
CONTINUOUS
 10
-96.0
 20
-39.9751240074
 11
-94.2248759926
 21
-39.9751240074
  0
LINE
  5
2A3
100
AcDbEntity
  8
0
100
AcDbLine
 62
7
  6
CONTINUOUS
 10
94.2248759926
 20
-39.9751240074
 11
96.0
 21
-39.9751240074
  0
LINE
  5
2A4
100
AcDbEntity
  8
RACCORDO
100
AcDbLine
 62
7
  6
CONTINUOUS
 10
83.0413486316
 20
-39.9748344851
 11
87.8586513684
 21
-39.9748344851
  0
LINE
  5
2A5
100
AcDbEntity
  8
RACCORDO
100
AcDbLine
 62
250
  6
CONTINUOUS
 10
82.4564316619
 20
-39.8821703245
 11
88.4435683378
 21
-39.8821703245
  0
LINE
  5
2A6
100
AcDbEntity
  8
DRAFT
100
AcDbLine
 62
7
  6
CONTINUOUS
 10
96.0
 20
-39.7
 11
94.5
 21
-39.7
  0
LINE
  5
2A7
100
AcDbEntity
  8
DRAFT
100
AcDbLine
 62
7
  6
CONTINUOUS
 10
-94.5
 20
-39.7
 11
-96.0
 21
-39.7
  0
LINE
  5
2A8
100
AcDbEntity
  8
RACCORDO
100
AcDbLine
 62
250
  6
CONTINUOUS
 10
-94.2242099741
 20
-39.6749258819
 11
82.2500746359
 21
-39.6749258633
  0
LINE
  5
2A9
100
AcDbEntity
  8
RACCORDO
100
AcDbLine
 62
250
  6
CONTINUOUS
 10
88.6499253618
 20
-39.674925864
 11
94.2242099741
 21
-39.6749258819
  0
LINE
  5
2AA
100
AcDbEntity
  8
RACCORDO
100
AcDbLine
 62
250
  6
CONTINUOUS
 10
81.9574119919
 20
-39.3822464769
 11
88.9425880081
 21
-39.3822464769
  0
LINE
  5
2AB
100
AcDbEntity
  8
0
100
AcDbLine
 62
7
  6
CONTINUOUS
 10
-88.3702126861
 20
2.1249998808
 11
-88.1148935676
 21
2.0
  0
LINE
  5
2AC
100
AcDbEntity
  8
0
100
AcDbLine
 62
7
  6
CONTINUOUS
 10
-86.9021276653
 20
2.1875
 11
-86.774468106
 21
2.1249998808
  0
LINE
  5
2AD
100
AcDbEntity
  8
0
100
AcDbLine
 62
7
  6
CONTINUOUS
 10
-87.285106343
 20
-0.25
 11
-87.6042553306
 21
-0.3750000596
  0
LINE
  5
2AE
100
AcDbEntity
  8
DRAFT
100
AcDbLine
 62
250
  6
CONTINUOUS
 10
-94.5
 20
-35.5
 11
-94.2242099741
 21
-35.5
  0
LINE
  5
2AF
100
AcDbEntity
  8
DRAFT
100
AcDbLine
 62
250
  6
CONTINUOUS
 10
94.5
 20
-35.5
 11
94.2242099741
 21
-35.5
  0
LINE
  5
2B0
100
AcDbEntity
  8
0
100
AcDbLine
 62
250
  6
CONTINUOUS
 10
100.2
 20
-35.5
 11
102.0
 21
-35.5
  0
LINE
  5
2B1
100
AcDbEntity
  8
0
100
AcDbLine
 62
250
  6
CONTINUOUS
 10
-100.2
 20
-35.5
 11
-102.0
 21
-35.5
  0
LINE
  5
2B2
100
AcDbEntity
  8
DRAFT
100
AcDbLine
 62
7
  6
CONTINUOUS
 10
-100.2
 20
-34.0
 11
-96.0
 21
-34.0
  0
LINE
  5
2B3
100
AcDbEntity
  8
DRAFT
100
AcDbLine
 62
7
  6
CONTINUOUS
 10
96.0
 20
-34.0
 11
100.2
 21
-34.0
  0
LINE
  5
2B4
100
AcDbEntity
  8
0
100
AcDbLine
 62
7
  6
CONTINUOUS
 10
-100.1749258819
 20
-33.7242099741
 11
-96.0
 21
-33.7242099741
  0
LINE
  5
2B5
100
AcDbEntity
  8
0
100
AcDbLine
 62
7
  6
CONTINUOUS
 10
96.0
 20
-33.7242099741
 11
100.1749258819
 21
-33.7242099741
  0
LINE
  5
2B6
100
AcDbEntity
  8
RACCORDO
100
AcDbLine
 62
250
  6
CONTINUOUS
 10
-100.1749258819
 20
-32.6925880081
 11
-99.8822464769
 21
-32.6925880081
  0
LINE
  5
2B7
100
AcDbEntity
  8
RACCORDO
100
AcDbLine
 62
250
  6
CONTINUOUS
 10
-100.4662592691
 20
-32.108575216
 11
-100.9469029106
 21
-32.108575216
  0
LINE
  5
2B8
100
AcDbEntity
  8
RACCORDO
100
AcDbLine
 62
250
  6
CONTINUOUS
 10
-100.4748344851
 20
-31.6086513684
 11
-101.4639771903
 21
-31.6086513684
  0
LINE
  5
2B9
100
AcDbEntity
  8
0
100
AcDbLine
 62
7
  6
CONTINUOUS
 10
-86.7106382817
 20
-0.3750000596
 11
-87.0297872245
 21
-0.25
  0
LINE
  5
2BA
100
AcDbEntity
  8
RACCORDO
100
AcDbLine
 62
7
  6
CONTINUOUS
 10
-82.541424784
 20
39.9662592691
 11
-82.4578866022
 21
39.8827210873
  0
LINE
  5
2BB
100
AcDbEntity
  8
RACCORDO
100
AcDbLine
 62
250
  6
CONTINUOUS
 10
-82.4693411419
 20
40.3748192685
 11
-82.541424784
 21
40.4469029106
  0
LINE
  5
2BC
100
AcDbEntity
  8
RACCORDO
100
AcDbLine
 62
250
  6
CONTINUOUS
 10
-81.9694172943
 20
40.8747431161
 11
-82.0415009364
 21
40.9468267582
  0
LINE
  5
2BD
100
AcDbEntity
  8
0
100
AcDbLine
 62
7
  6
CONTINUOUS
 10
-2.125
 20
30.2
 11
-2.5
 21
29.7531915426
  0
LINE
  5
2BE
100
AcDbEntity
  8
0
100
AcDbLine
 62
7
  6
CONTINUOUS
 10
-86.9021276653
 20
0.2500000596
 11
-86.7106382817
 21
0.3125
  0
LINE
  5
2BF
100
AcDbEntity
  8
0
100
AcDbLine
 62
7
  6
CONTINUOUS
 10
-87.4127659917
 20
-0.625
 11
-87.2212765634
 21
-0.5625000596
  0
LINE
  5
2C0
100
AcDbEntity
  8
RACCORDO
100
AcDbLine
 62
250
  6
CONTINUOUS
 10
-100.4748344851
 20
-26.7913486316
 11
-101.4639771903
 21
-26.7913486316
  0
LINE
  5
2C1
100
AcDbEntity
  8
RACCORDO
100
AcDbLine
 62
250
  6
CONTINUOUS
 10
-100.9469029106
 20
-26.291424784
 11
-100.4662592691
 21
-26.291424784
  0
LINE
  5
2C2
100
AcDbEntity
  8
RACCORDO
100
AcDbLine
 62
250
  6
CONTINUOUS
 10
-99.8822464769
 20
-25.7074119919
 11
-100.1749258819
 21
-25.7074119919
  0
LINE
  5
2C3
100
AcDbEntity
  8
0
100
AcDbLine
 62
7
  6
CONTINUOUS
 10
-87.0936170042
 20
-0.5625000596
 11
-86.9021276653
 21
-0.625
  0
LINE
  5
2C4
100
AcDbEntity
  8
0
100
AcDbLine
 62
7
  6
CONTINUOUS
 10
-86.7106382817
 20
2.4375001192
 11
-86.9021276653
 21
2.4999998808
  0
LINE
  5
2C5
100
AcDbEntity
  8
0
100
AcDbLine
 62
7
  6
CONTINUOUS
 10
-2.5
 20
29.2425531268
 11
-2.125
 21
29.689361763
  0
LINE
  5
2C6
100
AcDbEntity
  8
0
100
AcDbLine
 62
7
  6
CONTINUOUS
 10
1.8750001192
 20
30.2
 11
1.5000001192
 21
29.7531915426
  0
LINE
  5
2C7
100
AcDbEntity
  8
0
100
AcDbLine
 62
7
  6
CONTINUOUS
 10
1.5000001192
 20
29.2425531268
 11
1.8750001192
 21
29.689361763
  0
LINE
  5
2C8
100
AcDbEntity
  8
0
100
AcDbLine
 62
7
  6
CONTINUOUS
 10
-85.4
 20
-16.0
 11
-85.6
 21
-16.0
  0
LINE
  5
2C9
100
AcDbEntity
  8
0
100
AcDbLine
 62
7
  6
CONTINUOUS
 10
-88.7531915426
 20
0.3749999404
 11
-88.4978724241
 21
0.3125
  0
LINE
  5
2CA
100
AcDbEntity
  8
0
100
AcDbLine
 62
7
  6
CONTINUOUS
 10
-88.1148935676
 20
2.375
 11
-88.3702126861
 21
2.4375001192
  0
LINE
  5
2CB
100
AcDbEntity
  8
0
100
AcDbLine
 62
7
  6
CONTINUOUS
 10
0.6249998808
 20
29.8808511019
 11
-0.625
 21
27.2
  0
LINE
  5
2CC
100
AcDbEntity
  8
0
100
AcDbLine
 62
7
  6
CONTINUOUS
 10
-0.25
 20
27.2
 11
0.9999998808
 21
29.8808511019
  0
LINE
  5
2CD
100
AcDbEntity
  8
0
100
AcDbLine
 62
7
  6
CONTINUOUS
 10
-2.5
 20
29.7531915426
 11
-2.5
 21
29.2425531268
  0
LINE
  5
2CE
100
AcDbEntity
  8
0
100
AcDbLine
 62
7
  6
CONTINUOUS
 10
-2.125
 20
29.689361763
 11
-2.125
 21
27.2
  0
LINE
  5
2CF
100
AcDbEntity
  8
0
100
AcDbLine
 62
7
  6
CONTINUOUS
 10
-1.75
 20
27.2
 11
-1.75
 21
30.2
  0
LINE
  5
2D0
100
AcDbEntity
  8
0
100
AcDbLine
 62
7
  6
CONTINUOUS
 10
-1.2500000298
 20
30.2
 11
-1.2500000298
 21
29.8808511019
  0
LINE
  5
2D1
100
AcDbEntity
  8
0
100
AcDbLine
 62
7
  6
CONTINUOUS
 10
-0.75
 20
-11.4816392509
 11
-0.75
 21
-10.398724427
  0
LINE
  5
2D2
100
AcDbEntity
  8
0
100
AcDbLine
 62
7
  6
CONTINUOUS
 10
-0.75
 20
10.398724427
 11
-0.75
 21
11.481639251
  0
LINE
  5
2D3
100
AcDbEntity
  8
0
100
AcDbLine
 62
7
  6
CONTINUOUS
 10
0.75
 20
11.481639251
 11
0.75
 21
10.398724427
  0
LINE
  5
2D4
100
AcDbEntity
  8
0
100
AcDbLine
 62
7
  6
CONTINUOUS
 10
0.75
 20
-10.398724427
 11
0.75
 21
-11.4816392509
  0
LINE
  5
2D5
100
AcDbEntity
  8
0
100
AcDbLine
 62
7
  6
CONTINUOUS
 10
-89.2
 20
-2.5
 11
-87.5404255509
 21
-2.5
  0
LINE
  5
2D6
100
AcDbEntity
  8
0
100
AcDbLine
 62
7
  6
CONTINUOUS
 10
-87.8595744491
 20
-2.1875000074
 11
-88.8808511019
 21
-2.1875000074
  0
LINE
  5
2D7
100
AcDbEntity
  8
0
100
AcDbLine
 62
7
  6
CONTINUOUS
 10
79.481639251
 20
-0.75
 11
78.398724427
 21
-0.75
  0
LINE
  5
2D8
100
AcDbEntity
  8
0
100
AcDbLine
 62
7
  6
CONTINUOUS
 10
57.601275573
 20
-0.75
 11
56.518360749
 21
-0.75
  0
LINE
  5
2D9
100
AcDbEntity
  8
0
100
AcDbLine
 62
7
  6
CONTINUOUS
 10
11.481639251
 20
-0.75
 11
10.398724427
 21
-0.75
  0
LINE
  5
2DA
100
AcDbEntity
  8
0
100
AcDbLine
 62
7
  6
CONTINUOUS
 10
-10.398724427
 20
-0.75
 11
-11.481639251
 21
-0.75
  0
LINE
  5
2DB
100
AcDbEntity
  8
0
100
AcDbLine
 62
7
  6
CONTINUOUS
 10
-56.518360749
 20
-0.75
 11
-57.601275573
 21
-0.75
  0
LINE
  5
2DC
100
AcDbEntity
  8
0
100
AcDbLine
 62
7
  6
CONTINUOUS
 10
-78.398724427
 20
-0.75
 11
-79.481639251
 21
-0.75
  0
LINE
  5
2DD
100
AcDbEntity
  8
0
100
AcDbLine
 62
7
  6
CONTINUOUS
 10
-87.2212765634
 20
-0.5625000596
 11
-87.0936170042
 21
-0.5625000596
  0
LINE
  5
2DE
100
AcDbEntity
  8
0
100
AcDbLine
 62
7
  6
CONTINUOUS
 10
-88.8808511019
 20
-0.3750000596
 11
-89.2
 21
-0.3750000596
  0
LINE
  5
2DF
100
AcDbEntity
  8
0
100
AcDbLine
 62
7
  6
CONTINUOUS
 10
-87.0297872245
 20
-0.25
 11
-87.285106343
 21
-0.25
  0
LINE
  5
2E0
100
AcDbEntity
  8
0
100
AcDbLine
 62
7
  6
CONTINUOUS
 10
-79.481639251
 20
0.75
 11
-78.398724427
 21
0.75
  0
LINE
  5
2E1
100
AcDbEntity
  8
0
100
AcDbLine
 62
7
  6
CONTINUOUS
 10
-57.601275573
 20
0.75
 11
-56.518360749
 21
0.75
  0
LINE
  5
2E2
100
AcDbEntity
  8
0
100
AcDbLine
 62
7
  6
CONTINUOUS
 10
-11.481639251
 20
0.75
 11
-10.398724427
 21
0.75
  0
LINE
  5
2E3
100
AcDbEntity
  8
0
100
AcDbLine
 62
7
  6
CONTINUOUS
 10
10.398724427
 20
0.75
 11
11.481639251
 21
0.75
  0
LINE
  5
2E4
100
AcDbEntity
  8
0
100
AcDbLine
 62
7
  6
CONTINUOUS
 10
56.518360749
 20
0.75
 11
57.601275573
 21
0.75
  0
LINE
  5
2E5
100
AcDbEntity
  8
0
100
AcDbLine
 62
7
  6
CONTINUOUS
 10
78.398724427
 20
0.75
 11
79.481639251
 21
0.75
  0
LINE
  5
2E6
100
AcDbEntity
  8
0
100
AcDbLine
 62
7
  6
CONTINUOUS
 10
0.9999998808
 20
29.8808511019
 11
0.9999998808
 21
30.2
  0
LINE
  5
2E7
100
AcDbEntity
  8
0
100
AcDbLine
 62
7
  6
CONTINUOUS
 10
1.5000001192
 20
29.7531915426
 11
1.5000001192
 21
29.2425531268
  0
LINE
  5
2E8
100
AcDbEntity
  8
0
100
AcDbLine
 62
7
  6
CONTINUOUS
 10
1.8750001192
 20
29.689361763
 11
1.8750001192
 21
27.2
  0
LINE
  5
2E9
100
AcDbEntity
  8
0
100
AcDbLine
 62
7
  6
CONTINUOUS
 10
2.2500001192
 20
27.2
 11
2.2500001192
 21
30.2
  0
LINE
  5
2EA
100
AcDbEntity
  8
0
100
AcDbLine
 62
7
  6
CONTINUOUS
 10
-87.8595744491
 20
1.25
 11
-87.6042553306
 21
1.25
  0
LINE
  5
2EB
100
AcDbEntity
  8
0
100
AcDbLine
 62
7
  6
CONTINUOUS
 10
-88.4978724241
 20
2.1249998808
 11
-88.3702126861
 21
2.1249998808
  0
LINE
  5
2EC
100
AcDbEntity
  8
0
100
AcDbLine
 62
7
  6
CONTINUOUS
 10
-87.1574467838
 20
2.1875
 11
-86.9021276653
 21
2.1875
  0
LINE
  5
2ED
100
AcDbEntity
  8
0
100
AcDbLine
 62
7
  6
CONTINUOUS
 10
-88.3702126861
 20
2.4375001192
 11
-88.4978724241
 21
2.4375001192
  0
LINE
  5
2EE
100
AcDbEntity
  8
0
100
AcDbLine
 62
7
  6
CONTINUOUS
 10
-86.9021276653
 20
2.4999998808
 11
-87.1574467838
 21
2.4999998808
  0
LINE
  5
2EF
100
AcDbEntity
  8
0
100
AcDbLine
 62
7
  6
CONTINUOUS
 10
-85.6
 20
16.0
 11
-85.4
 21
16.0
  0
LINE
  5
2F0
100
AcDbEntity
  8
0
100
AcDbLine
 62
7
  6
CONTINUOUS
 10
-87.1574467838
 20
2.4999998808
 11
-87.4127659917
 21
2.4375001192
  0
LINE
  5
2F1
100
AcDbEntity
  8
0
100
AcDbLine
 62
7
  6
CONTINUOUS
 10
-88.4978724241
 20
2.4375001192
 11
-88.7531915426
 21
2.375
  0
LINE
  5
2F2
100
AcDbEntity
  8
RACCORDO
100
AcDbLine
 62
250
  6
CONTINUOUS
 10
99.8822464769
 20
25.7074119919
 11
100.1749258819
 21
25.7074119919
  0
LINE
  5
2F3
100
AcDbEntity
  8
RACCORDO
100
AcDbLine
 62
250
  6
CONTINUOUS
 10
100.9469029106
 20
26.291424784
 11
100.4662592691
 21
26.291424784
  0
LINE
  5
2F4
100
AcDbEntity
  8
0
100
AcDbLine
 62
7
  6
CONTINUOUS
 10
75.0
 20
26.4
 11
-75.0
 21
26.4
  0
LINE
  5
2F5
100
AcDbEntity
  8
0
100
AcDbLine
 62
7
  6
CONTINUOUS
 10
-75.0
 20
26.6
 11
75.0
 21
26.6
  0
LINE
  5
2F6
100
AcDbEntity
  8
RACCORDO
100
AcDbLine
 62
250
  6
CONTINUOUS
 10
100.4748344851
 20
26.7913486316
 11
101.4639771903
 21
26.7913486316
  0
LINE
  5
2F7
100
AcDbEntity
  8
0
100
AcDbLine
 62
7
  6
CONTINUOUS
 10
-2.125
 20
27.2
 11
-1.75
 21
27.2
  0
LINE
  5
2F8
100
AcDbEntity
  8
0
100
AcDbLine
 62
7
  6
CONTINUOUS
 10
-0.625
 20
27.2
 11
-0.25
 21
27.2
  0
LINE
  5
2F9
100
AcDbEntity
  8
0
100
AcDbLine
 62
7
  6
CONTINUOUS
 10
1.8750001192
 20
27.2
 11
2.2500001192
 21
27.2
  0
LINE
  5
2FA
100
AcDbEntity
  8
0
100
AcDbLine
 62
7
  6
CONTINUOUS
 10
-1.2500000298
 20
29.8808511019
 11
0.6249998808
 21
29.8808511019
  0
LINE
  5
2FB
100
AcDbEntity
  8
0
100
AcDbLine
 62
7
  6
CONTINUOUS
 10
2.2500001192
 20
30.2
 11
1.8750001192
 21
30.2
  0
LINE
  5
2FC
100
AcDbEntity
  8
0
100
AcDbLine
 62
7
  6
CONTINUOUS
 10
0.9999998808
 20
30.2
 11
-1.2500000298
 21
30.2
  0
LINE
  5
2FD
100
AcDbEntity
  8
0
100
AcDbLine
 62
7
  6
CONTINUOUS
 10
-1.75
 20
30.2
 11
-2.125
 21
30.2
  0
LINE
  5
2FE
100
AcDbEntity
  8
RACCORDO
100
AcDbLine
 62
250
  6
CONTINUOUS
 10
81.9694172943
 20
-40.8747431161
 11
82.0415009364
 21
-40.9468267582
  0
LINE
  5
2FF
100
AcDbEntity
  8
RACCORDO
100
AcDbLine
 62
250
  6
CONTINUOUS
 10
82.4693411419
 20
-40.3748192685
 11
82.541424784
 21
-40.4469029106
  0
LINE
  5
300
100
AcDbEntity
  8
RACCORDO
100
AcDbLine
 62
7
  6
CONTINUOUS
 10
82.541424784
 20
-39.9662592691
 11
82.4578866022
 21
-39.8827210873
  0
LINE
  5
301
100
AcDbEntity
  8
RACCORDO
100
AcDbLine
 62
250
  6
CONTINUOUS
 10
100.4748344851
 20
31.6086513684
 11
101.4639771903
 21
31.6086513685
  0
LINE
  5
302
100
AcDbEntity
  8
RACCORDO
100
AcDbLine
 62
250
  6
CONTINUOUS
 10
100.4662592691
 20
32.108575216
 11
100.9469029106
 21
32.108575216
  0
LINE
  5
303
100
AcDbEntity
  8
RACCORDO
100
AcDbLine
 62
250
  6
CONTINUOUS
 10
100.1749258819
 20
32.6925880081
 11
99.8822464769
 21
32.6925880081
  0
LINE
  5
304
100
AcDbEntity
  8
0
100
AcDbLine
 62
7
  6
CONTINUOUS
 10
100.1749258819
 20
33.7242099741
 11
96.0
 21
33.7242099741
  0
LINE
  5
305
100
AcDbEntity
  8
0
100
AcDbLine
 62
7
  6
CONTINUOUS
 10
-96.0
 20
33.7242099741
 11
-100.1749258819
 21
33.7242099741
  0
LINE
  5
306
100
AcDbEntity
  8
DRAFT
100
AcDbLine
 62
7
  6
CONTINUOUS
 10
100.2
 20
34.0
 11
96.0
 21
34.0
  0
LINE
  5
307
100
AcDbEntity
  8
DRAFT
100
AcDbLine
 62
7
  6
CONTINUOUS
 10
-96.0
 20
34.0
 11
-100.2
 21
34.0
  0
LINE
  5
308
100
AcDbEntity
  8
DRAFT
100
AcDbLine
 62
250
  6
CONTINUOUS
 10
-94.5
 20
35.5
 11
-94.2242099741
 21
35.5
  0
LINE
  5
309
100
AcDbEntity
  8
DRAFT
100
AcDbLine
 62
250
  6
CONTINUOUS
 10
94.5
 20
35.5
 11
94.2242099741
 21
35.5
  0
LINE
  5
30A
100
AcDbEntity
  8
0
100
AcDbLine
 62
250
  6
CONTINUOUS
 10
100.2
 20
35.5
 11
102.0
 21
35.5
  0
LINE
  5
30B
100
AcDbEntity
  8
0
100
AcDbLine
 62
250
  6
CONTINUOUS
 10
-100.2
 20
35.5
 11
-102.0
 21
35.5
  0
LINE
  5
30C
100
AcDbEntity
  8
RACCORDO
100
AcDbLine
 62
250
  6
CONTINUOUS
 10
-81.9574119919
 20
39.382246477
 11
-88.9425880081
 21
39.382246477
  0
LINE
  5
30D
100
AcDbEntity
  8
RACCORDO
100
AcDbLine
 62
250
  6
CONTINUOUS
 10
-88.6499253618
 20
39.674925864
 11
-94.2242099741
 21
39.6749258819
  0
LINE
  5
30E
100
AcDbEntity
  8
RACCORDO
100
AcDbLine
 62
250
  6
CONTINUOUS
 10
-82.2500746359
 20
39.6749258633
 11
94.2242099741
 21
39.6749258819
  0
LINE
  5
30F
100
AcDbEntity
  8
DRAFT
100
AcDbLine
 62
7
  6
CONTINUOUS
 10
-96.0
 20
39.7
 11
-94.5
 21
39.7
  0
LINE
  5
310
100
AcDbEntity
  8
DRAFT
100
AcDbLine
 62
7
  6
CONTINUOUS
 10
94.5
 20
39.7
 11
96.0
 21
39.7
  0
LINE
  5
311
100
AcDbEntity
  8
RACCORDO
100
AcDbLine
 62
250
  6
CONTINUOUS
 10
-82.4564316619
 20
39.8821703245
 11
-88.4435683378
 21
39.8821703245
  0
LINE
  5
312
100
AcDbEntity
  8
RACCORDO
100
AcDbLine
 62
7
  6
CONTINUOUS
 10
-83.0413486316
 20
39.9748344851
 11
-87.8586513684
 21
39.9748344851
  0
LINE
  5
313
100
AcDbEntity
  8
0
100
AcDbLine
 62
7
  6
CONTINUOUS
 10
96.0
 20
39.9751240074
 11
94.2248759926
 21
39.9751240074
  0
LINE
  5
314
100
AcDbEntity
  8
0
100
AcDbLine
 62
7
  6
CONTINUOUS
 10
-94.2248759926
 20
39.9751240074
 11
-96.0
 21
39.9751240074
  0
LINE
  5
315
100
AcDbEntity
  8
RACCORDO
100
AcDbLine
 62
250
  6
CONTINUOUS
 10
-83.0413486316
 20
40.4640533427
 11
-87.8586513684
 21
40.4640533427
  0
LINE
  5
316
100
AcDbEntity
  8
RACCORDO
100
AcDbLine
 62
250
  6
CONTINUOUS
 10
96.0
 20
40.8747431161
 11
-81.9694172943
 21
40.8747431161
  0
LINE
  5
317
100
AcDbEntity
  8
RACCORDO
100
AcDbLine
 62
250
  6
CONTINUOUS
 10
-88.9305827057
 20
40.8747431161
 11
-96.0
 21
40.8747431161
  0
LINE
  5
318
100
AcDbEntity
  8
RACCORDO
100
AcDbLine
 62
250
  6
CONTINUOUS
 10
-83.0413486316
 20
40.9639771903
 11
-87.8586513684
 21
40.9639771903
  0
LINE
  5
319
100
AcDbEntity
  8
SUPERFICI
100
AcDbLine
 62
7
  6
CONTINUOUS
 10
96.0000001209
 20
41.5000003491
 11
-96.0000001209
 21
41.5000003491
  0
LINE
  5
31A
100
AcDbEntity
  8
DRAFT
100
AcDbLine
 62
7
  6
CONTINUOUS
 10
96.0
 20
41.5
 11
-96.0
 21
41.5
  0
LINE
  5
31B
100
AcDbEntity
  8
RACCORDO
100
AcDbLine
 62
7
  6
CONTINUOUS
 10
100.4662592691
 20
26.291424784
 11
100.3827210873
 21
26.2078866022
  0
LINE
  5
31C
100
AcDbEntity
  8
RACCORDO
100
AcDbLine
 62
250
  6
CONTINUOUS
 10
100.8748192685
 20
26.2193411419
 11
100.9469029106
 21
26.291424784
  0
LINE
  5
31D
100
AcDbEntity
  8
RACCORDO
100
AcDbLine
 62
250
  6
CONTINUOUS
 10
101.3747431161
 20
25.7194172943
 11
101.4468267582
 21
25.7915009364
  0
LINE
  5
31E
100
AcDbEntity
  8
0
100
AcDbLine
 62
7
  6
CONTINUOUS
 10
67.25
 20
-11.4816392509
 11
67.25
 21
-10.398724427
  0
LINE
  5
31F
100
AcDbEntity
  8
0
100
AcDbLine
 62
7
  6
CONTINUOUS
 10
67.25
 20
10.398724427
 11
67.25
 21
11.481639251
  0
LINE
  5
320
100
AcDbEntity
  8
0
100
AcDbLine
 62
7
  6
CONTINUOUS
 10
68.75
 20
11.481639251
 11
68.75
 21
10.398724427
  0
LINE
  5
321
100
AcDbEntity
  8
0
100
AcDbLine
 62
7
  6
CONTINUOUS
 10
68.75
 20
-10.398724427
 11
68.75
 21
-11.4816392509
  0
LINE
  5
322
100
AcDbEntity
  8
0
100
AcDbLine
 62
7
  6
CONTINUOUS
 10
75.0
 20
26.6
 11
75.0
 21
26.4
  0
LINE
  5
323
100
AcDbEntity
  8
RACCORDO
100
AcDbLine
 62
250
  6
CONTINUOUS
 10
81.9574119919
 20
-39.3822464769
 11
81.9574119919
 21
-39.6749258819
  0
LINE
  5
324
100
AcDbEntity
  8
RACCORDO
100
AcDbLine
 62
250
  6
CONTINUOUS
 10
82.541424784
 20
-40.4469029106
 11
82.541424784
 21
-39.9662592691
  0
LINE
  5
325
100
AcDbEntity
  8
RACCORDO
100
AcDbLine
 62
250
  6
CONTINUOUS
 10
83.0413486316
 20
-39.9748344851
 11
83.0413486316
 21
-40.9639771903
  0
LINE
  5
326
100
AcDbEntity
  8
RACCORDO
100
AcDbLine
 62
250
  6
CONTINUOUS
 10
87.8586513684
 20
-39.9748344851
 11
87.8586513685
 21
-40.9639771903
  0
LINE
  5
327
100
AcDbEntity
  8
RACCORDO
100
AcDbLine
 62
250
  6
CONTINUOUS
 10
88.358575216
 20
-39.9662592691
 11
88.358575216
 21
-40.4469029106
  0
LINE
  5
328
100
AcDbEntity
  8
RACCORDO
100
AcDbLine
 62
250
  6
CONTINUOUS
 10
88.9425880081
 20
-39.6749258819
 11
88.9425880081
 21
-39.3822464769
  0
LINE
  5
329
100
AcDbEntity
  8
0
100
AcDbLine
 62
7
  6
CONTINUOUS
 10
94.2242099741
 20
-39.6749258819
 11
94.2242099741
 21
-35.5
  0
LINE
  5
32A
100
AcDbEntity
  8
0
100
AcDbLine
 62
7
  6
CONTINUOUS
 10
94.2242099741
 20
35.5
 11
94.2242099741
 21
39.6749258819
  0
LINE
  5
32B
100
AcDbEntity
  8
DRAFT
100
AcDbLine
 62
7
  6
CONTINUOUS
 10
94.5
 20
-39.7
 11
94.5
 21
-35.5
  0
LINE
  5
32C
100
AcDbEntity
  8
DRAFT
100
AcDbLine
 62
7
  6
CONTINUOUS
 10
94.5
 20
35.5
 11
94.5
 21
39.7
  0
LINE
  5
32D
100
AcDbEntity
  8
DRAFT
100
AcDbLine
 62
250
  6
CONTINUOUS
 10
96.0
 20
34.0
 11
96.0
 21
33.7242099741
  0
LINE
  5
32E
100
AcDbEntity
  8
DRAFT
100
AcDbLine
 62
250
  6
CONTINUOUS
 10
96.0
 20
-34.0
 11
96.0
 21
-33.7242099741
  0
LINE
  5
32F
100
AcDbEntity
  8
0
100
AcDbLine
 62
250
  6
CONTINUOUS
 10
96.0
 20
-39.7
 11
96.0
 21
-41.5
  0
LINE
  5
330
100
AcDbEntity
  8
0
100
AcDbLine
 62
250
  6
CONTINUOUS
 10
96.0
 20
39.7
 11
96.0
 21
41.5
  0
LINE
  5
331
100
AcDbEntity
  8
RACCORDO
100
AcDbLine
 62
7
  6
CONTINUOUS
 10
88.358575216
 20
-39.9662592691
 11
88.4421133401
 21
-39.882721145
  0
LINE
  5
332
100
AcDbEntity
  8
RACCORDO
100
AcDbLine
 62
250
  6
CONTINUOUS
 10
88.358575216
 20
-40.4469029106
 11
88.4306588581
 21
-40.3748192685
  0
LINE
  5
333
100
AcDbEntity
  8
RACCORDO
100
AcDbLine
 62
250
  6
CONTINUOUS
 10
88.8584990636
 20
-40.9468267582
 11
88.9305827057
 21
-40.8747431161
  0
LINE
  5
334
100
AcDbEntity
  8
0
100
AcDbLine
 62
7
  6
CONTINUOUS
 10
94.5
 20
-39.7
 11
94.2248759926
 21
-39.9751240074
  0
LINE
  5
335
100
AcDbEntity
  8
0
100
AcDbLine
 62
7
  6
CONTINUOUS
 10
100.2
 20
-34.0
 11
100.4751240074
 21
-33.7248759926
  0
LINE
  5
336
100
AcDbEntity
  8
RACCORDO
100
AcDbLine
 62
7
  6
CONTINUOUS
 10
100.4662592691
 20
32.108575216
 11
100.382721145
 21
32.1921133401
  0
LINE
  5
337
100
AcDbEntity
  8
RACCORDO
100
AcDbLine
 62
250
  6
CONTINUOUS
 10
100.9469029106
 20
32.108575216
 11
100.8748192685
 21
32.1806588581
  0
LINE
  5
338
100
AcDbEntity
  8
RACCORDO
100
AcDbLine
 62
250
  6
CONTINUOUS
 10
101.4468267582
 20
32.6084990636
 11
101.3747431161
 21
32.6805827057
  0
LINE
  5
339
100
AcDbEntity
  8
0
100
AcDbLine
 62
7
  6
CONTINUOUS
 10
94.5
 20
39.7
 11
94.2248759926
 21
39.9751240074
  0
LINE
  5
33A
100
AcDbEntity
  8
0
100
AcDbLine
 62
7
  6
CONTINUOUS
 10
100.2
 20
34.0
 11
100.4751240074
 21
33.7248759926
  0
LINE
  5
33B
100
AcDbEntity
  8
RACCORDO
100
AcDbLine
 62
250
  6
CONTINUOUS
 10
99.8822464769
 20
25.7074119919
 11
99.8822464769
 21
32.6925880081
  0
LINE
  5
33C
100
AcDbEntity
  8
RACCORDO
100
AcDbLine
 62
250
  6
CONTINUOUS
 10
100.1749258819
 20
-33.7242099741
 11
100.1749258633
 21
26.0000746359
  0
LINE
  5
33D
100
AcDbEntity
  8
RACCORDO
100
AcDbLine
 62
250
  6
CONTINUOUS
 10
100.174925864
 20
32.3999253618
 11
100.1749258819
 21
33.7242099741
  0
LINE
  5
33E
100
AcDbEntity
  8
DRAFT
100
AcDbLine
 62
7
  6
CONTINUOUS
 10
100.2
 20
35.5
 11
100.2
 21
34.0
  0
LINE
  5
33F
100
AcDbEntity
  8
DRAFT
100
AcDbLine
 62
7
  6
CONTINUOUS
 10
100.2
 20
-34.0
 11
100.2
 21
-35.5
  0
LINE
  5
340
100
AcDbEntity
  8
RACCORDO
100
AcDbLine
 62
250
  6
CONTINUOUS
 10
100.3821703245
 20
26.2064316619
 11
100.3821703245
 21
32.1935683378
  0
LINE
  5
341
100
AcDbEntity
  8
RACCORDO
100
AcDbLine
 62
7
  6
CONTINUOUS
 10
100.4748344851
 20
26.7913486316
 11
100.4748344851
 21
31.6086513684
  0
LINE
  5
342
100
AcDbEntity
  8
0
100
AcDbLine
 62
7
  6
CONTINUOUS
 10
100.4751240074
 20
-35.5
 11
100.4751240074
 21
-33.7248759926
  0
LINE
  5
343
100
AcDbEntity
  8
0
100
AcDbLine
 62
7
  6
CONTINUOUS
 10
100.4751240074
 20
33.7248759926
 11
100.4751240074
 21
35.5
  0
LINE
  5
344
100
AcDbEntity
  8
RACCORDO
100
AcDbLine
 62
250
  6
CONTINUOUS
 10
100.9640533427
 20
26.7913486316
 11
100.9640533427
 21
31.6086513684
  0
LINE
  5
345
100
AcDbEntity
  8
RACCORDO
100
AcDbLine
 62
250
  6
CONTINUOUS
 10
101.3747431161
 20
-35.5
 11
101.3747431161
 21
25.7194172943
  0
LINE
  5
346
100
AcDbEntity
  8
RACCORDO
100
AcDbLine
 62
250
  6
CONTINUOUS
 10
101.3747431161
 20
32.6805827057
 11
101.3747431161
 21
35.5
  0
LINE
  5
347
100
AcDbEntity
  8
RACCORDO
100
AcDbLine
 62
250
  6
CONTINUOUS
 10
101.4639771903
 20
26.7913486316
 11
101.4639771903
 21
31.6086513684
  0
LINE
  5
348
100
AcDbEntity
  8
SUPERFICI
100
AcDbLine
 62
7
  6
CONTINUOUS
 10
102.0000003491
 20
35.5000000145
 11
102.0000003491
 21
-35.5000000243
  0
LINE
  5
349
100
AcDbEntity
  8
DRAFT
100
AcDbLine
 62
7
  6
CONTINUOUS
 10
102.0
 20
-35.5
 11
102.0
 21
35.5
  0
CIRCLE
  5
34A
100
AcDbEntity
  8
RACCORDO
100
AcDbCircle
 62
7
  6
CONTINUOUS
 10
-85.5
 20
-26.5
 40
9.5
  0
CIRCLE
  5
34B
100
AcDbEntity
  8
RACCORDO
100
AcDbCircle
 62
250
  6
CONTINUOUS
 10
-85.5
 20
-26.5
 40
8.9999982989
  0
ARC
  5
34C
100
AcDbEntity
  8
SUPERFICI
100
AcDbCircle
 62
7
  6
CONTINUOUS
 10
-96.0
 20
-35.5
 40
6.0000004289
100
AcDbArc
 50
180.0000165401
 51
269.9999818696
  0
ARC
  5
34D
100
AcDbEntity
  8
DRAFT
100
AcDbCircle
 62
7
  6
CONTINUOUS
 10
-96.0
 20
-35.5
 40
6.0
100
AcDbArc
 50
180.0
 51
270.0
  0
ARC
  5
34E
100
AcDbEntity
  8
0
100
AcDbCircle
 62
250
  6
CONTINUOUS
 10
-96.0
 20
-35.5
 40
5.3747431161
100
AcDbArc
 50
180.0
 51
270.0
  0
ARC
  5
34F
100
AcDbEntity
  8
0
100
AcDbCircle
 62
7
  6
CONTINUOUS
 10
-96.0
 20
-35.5
 40
4.4751240074
100
AcDbArc
 50
180.0
 51
270.0
  0
ARC
  5
350
100
AcDbEntity
  8
DRAFT
100
AcDbCircle
 62
7
  6
CONTINUOUS
 10
-96.0
 20
-35.5
 40
4.2
100
AcDbArc
 50
180.0
 51
270.0
  0
CIRCLE
  5
351
100
AcDbEntity
  8
0
100
AcDbCircle
 62
7
  6
CONTINUOUS
 10
-85.5
 20
-26.5
 40
2.0
  0
CIRCLE
  5
352
100
AcDbEntity
  8
0
100
AcDbCircle
 62
7
  6
CONTINUOUS
 10
-85.5
 20
-26.5
 40
1.8
  0
ARC
  5
353
100
AcDbEntity
  8
DRAFT
100
AcDbCircle
 62
7
  6
CONTINUOUS
 10
-96.0
 20
-35.5
 40
1.7757900259
100
AcDbArc
 50
0.0
 51
90.0
  0
CIRCLE
  5
354
100
AcDbEntity
  8
0
100
AcDbCircle
 62
7
  6
CONTINUOUS
 10
-85.5
 20
-26.5
 40
1.5
  0
ARC
  5
355
100
AcDbEntity
  8
DRAFT
100
AcDbCircle
 62
7
  6
CONTINUOUS
 10
-96.0
 20
-35.5
 40
1.5
100
AcDbArc
 50
0.0
 51
90.0
  0
ARC
  5
356
100
AcDbEntity
  8
RACCORDO
100
AcDbCircle
 62
250
  6
CONTINUOUS
 10
-100.8746111344
 20
-25.7192091602
 40
0.5001348226
100
AcDbArc
 50
180.0238441194
 51
269.9761558806
  0
ARC
  5
357
100
AcDbEntity
  8
RACCORDO
100
AcDbCircle
 62
250
  6
CONTINUOUS
 10
-100.9466947766
 20
-25.7912928023
 40
0.5001348226
100
AcDbArc
 50
180.0238441127
 51
269.9761558876
  0
ARC
  5
358
100
AcDbEntity
  8
RACCORDO
100
AcDbCircle
 62
250
  6
CONTINUOUS
 10
-100.9466947766
 20
-32.6087071976
 40
0.5001348225
100
AcDbArc
 50
90.0238441094
 51
179.9761558906
  0
ARC
  5
359
100
AcDbEntity
  8
RACCORDO
100
AcDbCircle
 62
250
  6
CONTINUOUS
 10
-100.8746111357
 20
-32.6807908385
 40
0.5001348213
100
AcDbArc
 50
90.0238439715
 51
179.9761560378
  0
CIRCLE
  5
35A
100
AcDbEntity
  8
RACCORDO
100
AcDbCircle
 62
7
  6
CONTINUOUS
 10
-85.5
 20
26.5
 40
9.5
  0
CIRCLE
  5
35B
100
AcDbEntity
  8
RACCORDO
100
AcDbCircle
 62
250
  6
CONTINUOUS
 10
-85.5
 20
26.5
 40
8.9999982989
  0
ARC
  5
35C
100
AcDbEntity
  8
SUPERFICI
100
AcDbCircle
 62
7
  6
CONTINUOUS
 10
-96.0
 20
35.5
 40
6.0000004289
100
AcDbArc
 50
90.0000192217
 51
179.9999834907
  0
ARC
  5
35D
100
AcDbEntity
  8
DRAFT
100
AcDbCircle
 62
7
  6
CONTINUOUS
 10
-96.0
 20
35.5
 40
6.0
100
AcDbArc
 50
90.0
 51
180.0
  0
ARC
  5
35E
100
AcDbEntity
  8
0
100
AcDbCircle
 62
250
  6
CONTINUOUS
 10
-96.0
 20
35.5
 40
5.3747431161
100
AcDbArc
 50
90.0
 51
180.0
  0
ARC
  5
35F
100
AcDbEntity
  8
0
100
AcDbCircle
 62
7
  6
CONTINUOUS
 10
-96.0
 20
35.5
 40
4.4751240074
100
AcDbArc
 50
90.0
 51
180.0
  0
ARC
  5
360
100
AcDbEntity
  8
DRAFT
100
AcDbCircle
 62
7
  6
CONTINUOUS
 10
-96.0
 20
35.5
 40
4.2
100
AcDbArc
 50
90.0
 51
180.0
  0
CIRCLE
  5
361
100
AcDbEntity
  8
0
100
AcDbCircle
 62
7
  6
CONTINUOUS
 10
-85.5
 20
26.5
 40
2.0
  0
CIRCLE
  5
362
100
AcDbEntity
  8
0
100
AcDbCircle
 62
7
  6
CONTINUOUS
 10
-85.5
 20
26.5
 40
1.8
  0
ARC
  5
363
100
AcDbEntity
  8
DRAFT
100
AcDbCircle
 62
7
  6
CONTINUOUS
 10
-96.0
 20
35.5
 40
1.7757900259
100
AcDbArc
 50
270.0
 51
360.0
  0
CIRCLE
  5
364
100
AcDbEntity
  8
0
100
AcDbCircle
 62
7
  6
CONTINUOUS
 10
-85.5
 20
26.5
 40
1.5
  0
ARC
  5
365
100
AcDbEntity
  8
DRAFT
100
AcDbCircle
 62
7
  6
CONTINUOUS
 10
-96.0
 20
35.5
 40
1.5
100
AcDbArc
 50
270.0
 51
360.0
  0
ARC
  5
366
100
AcDbEntity
  8
RACCORDO
100
AcDbCircle
 62
250
  6
CONTINUOUS
 10
-81.9692091602
 20
40.3746111344
 40
0.5001348226
100
AcDbArc
 50
90.0238441135
 51
179.9761558865
  0
ARC
  5
367
100
AcDbEntity
  8
RACCORDO
100
AcDbCircle
 62
250
  6
CONTINUOUS
 10
-82.0412928023
 20
40.4466947766
 40
0.5001348226
100
AcDbArc
 50
90.0238441138
 51
179.9761558865
  0
ARC
  5
368
100
AcDbEntity
  8
RACCORDO
100
AcDbCircle
 62
250
  6
CONTINUOUS
 10
-88.8587071977
 20
40.4466947766
 40
0.5001348226
100
AcDbArc
 50
0.0238441144
 51
89.9761558856
  0
ARC
  5
369
100
AcDbEntity
  8
RACCORDO
100
AcDbCircle
 62
250
  6
CONTINUOUS
 10
-88.9307908385
 20
40.3746111357
 40
0.5001348213
100
AcDbArc
 50
0.0238439693
 51
89.97615604
  0
CIRCLE
  5
36A
100
AcDbEntity
  8
RACCORDO
100
AcDbCircle
 62
250
  6
CONTINUOUS
 10
-68.0
 20
0.0
 40
11.8078644445
  0
CIRCLE
  5
36B
100
AcDbEntity
  8
RACCORDO
100
AcDbCircle
 62
7
  6
CONTINUOUS
 10
-68.0
 20
0.0
 40
11.5078770275
  0
ARC
  5
36C
100
AcDbEntity
  8
0
100
AcDbCircle
 62
7
  6
CONTINUOUS
 10
-68.0
 20
0.0
 40
11.5061088075
100
AcDbArc
 50
266.2626528724
 51
273.7373471276
  0
ARC
  5
36D
100
AcDbEntity
  8
0
100
AcDbCircle
 62
7
  6
CONTINUOUS
 10
-68.0
 20
0.0
 40
11.5061088075
100
AcDbArc
 50
86.2626528724
 51
93.7373471276
  0
ARC
  5
36E
100
AcDbEntity
  8
0
100
AcDbCircle
 62
7
  6
CONTINUOUS
 10
-68.0
 20
0.0
 40
11.5061088075
100
AcDbArc
 50
356.2626528724
 51
3.7373471276
  0
ARC
  5
36F
100
AcDbEntity
  8
0
100
AcDbCircle
 62
7
  6
CONTINUOUS
 10
-68.0
 20
0.0
 40
11.5061088075
100
AcDbArc
 50
176.2626528724
 51
183.7373471276
  0
ARC
  5
370
100
AcDbEntity
  8
0
100
AcDbCircle
 62
7
  6
CONTINUOUS
 10
-68.0
 20
0.0
 40
11.5
100
AcDbArc
 50
3.7393352315
 51
86.2606647685
  0
ARC
  5
371
100
AcDbEntity
  8
0
100
AcDbCircle
 62
7
  6
CONTINUOUS
 10
-68.0
 20
0.0
 40
11.5
100
AcDbArc
 50
93.7393352315
 51
176.2606647685
  0
ARC
  5
372
100
AcDbEntity
  8
0
100
AcDbCircle
 62
7
  6
CONTINUOUS
 10
-68.0
 20
0.0
 40
11.5
100
AcDbArc
 50
273.7393352315
 51
356.2606647685
  0
ARC
  5
373
100
AcDbEntity
  8
0
100
AcDbCircle
 62
7
  6
CONTINUOUS
 10
-68.0
 20
0.0
 40
11.5
100
AcDbArc
 50
183.7393352315
 51
266.2606647685
  0
ARC
  5
374
100
AcDbEntity
  8
0
100
AcDbCircle
 62
7
  6
CONTINUOUS
 10
-68.0
 20
0.0
 40
11.25
100
AcDbArc
 50
273.8225537293
 51
356.1774462707
  0
ARC
  5
375
100
AcDbEntity
  8
0
100
AcDbCircle
 62
7
  6
CONTINUOUS
 10
-68.0
 20
0.0
 40
11.25
100
AcDbArc
 50
183.8225537293
 51
266.1774462707
  0
ARC
  5
376
100
AcDbEntity
  8
0
100
AcDbCircle
 62
7
  6
CONTINUOUS
 10
-68.0
 20
0.0
 40
11.25
100
AcDbArc
 50
3.8225537293
 51
86.1774462707
  0
ARC
  5
377
100
AcDbEntity
  8
0
100
AcDbCircle
 62
7
  6
CONTINUOUS
 10
-68.0
 20
0.0
 40
11.25
100
AcDbArc
 50
93.8225537293
 51
176.1774462707
  0
ARC
  5
378
100
AcDbEntity
  8
0
100
AcDbCircle
 62
250
  6
CONTINUOUS
 10
-68.0
 20
0.0
 40
10.6378679656
100
AcDbArc
 50
274.0428697094
 51
355.9571302906
  0
ARC
  5
379
100
AcDbEntity
  8
0
100
AcDbCircle
 62
250
  6
CONTINUOUS
 10
-68.0
 20
0.0
 40
10.6378679656
100
AcDbArc
 50
184.0428697094
 51
265.9571302906
  0
ARC
  5
37A
100
AcDbEntity
  8
0
100
AcDbCircle
 62
250
  6
CONTINUOUS
 10
-68.0
 20
0.0
 40
10.6378679656
100
AcDbArc
 50
4.0428697094
 51
85.9571302906
  0
ARC
  5
37B
100
AcDbEntity
  8
0
100
AcDbCircle
 62
250
  6
CONTINUOUS
 10
-68.0
 20
0.0
 40
10.6378679656
100
AcDbArc
 50
94.0428697094
 51
175.9571302906
  0
ARC
  5
37C
100
AcDbEntity
  8
0
100
AcDbCircle
 62
250
  6
CONTINUOUS
 10
-68.0
 20
0.0
 40
10.4257359313
100
AcDbArc
 50
184.1252708293
 51
265.8747291707
  0
ARC
  5
37D
100
AcDbEntity
  8
0
100
AcDbCircle
 62
250
  6
CONTINUOUS
 10
-68.0
 20
0.0
 40
10.4257359313
100
AcDbArc
 50
274.1252708293
 51
355.8747291707
  0
ARC
  5
37E
100
AcDbEntity
  8
0
100
AcDbCircle
 62
250
  6
CONTINUOUS
 10
-68.0
 20
0.0
 40
10.4257359313
100
AcDbArc
 50
4.1252708293
 51
85.8747291707
  0
ARC
  5
37F
100
AcDbEntity
  8
0
100
AcDbCircle
 62
250
  6
CONTINUOUS
 10
-68.0
 20
0.0
 40
10.4257359313
100
AcDbArc
 50
94.1252708293
 51
175.8747291707
  0
CIRCLE
  5
380
100
AcDbEntity
  8
RACCORDO
100
AcDbCircle
 62
7
  6
CONTINUOUS
 10
-45.3
 20
0.0
 40
4.8
  0
CIRCLE
  5
381
100
AcDbEntity
  8
RACCORDO
100
AcDbCircle
 62
250
  6
CONTINUOUS
 10
-45.3
 20
0.0
 40
4.2999972742
  0
CIRCLE
  5
382
100
AcDbEntity
  8
RACCORDO
100
AcDbCircle
 62
7
  6
CONTINUOUS
 10
85.5
 20
-26.5
 40
9.5
  0
CIRCLE
  5
383
100
AcDbEntity
  8
RACCORDO
100
AcDbCircle
 62
250
  6
CONTINUOUS
 10
85.5
 20
-26.5
 40
8.9999982989
  0
ARC
  5
384
100
AcDbEntity
  8
SUPERFICI
100
AcDbCircle
 62
7
  6
CONTINUOUS
 10
96.0
 20
-35.5
 40
6.0000004289
100
AcDbArc
 50
270.0000181304
 51
359.9999834599
  0
ARC
  5
385
100
AcDbEntity
  8
DRAFT
100
AcDbCircle
 62
7
  6
CONTINUOUS
 10
96.0
 20
-35.5
 40
6.0
100
AcDbArc
 50
270.0
 51
360.0
  0
ARC
  5
386
100
AcDbEntity
  8
0
100
AcDbCircle
 62
250
  6
CONTINUOUS
 10
96.0
 20
-35.5
 40
5.3747431161
100
AcDbArc
 50
270.0
 51
360.0
  0
ARC
  5
387
100
AcDbEntity
  8
0
100
AcDbCircle
 62
7
  6
CONTINUOUS
 10
96.0
 20
-35.5
 40
4.4751240074
100
AcDbArc
 50
270.0
 51
360.0
  0
ARC
  5
388
100
AcDbEntity
  8
DRAFT
100
AcDbCircle
 62
7
  6
CONTINUOUS
 10
96.0
 20
-35.5
 40
4.2
100
AcDbArc
 50
270.0
 51
360.0
  0
CIRCLE
  5
389
100
AcDbEntity
  8
0
100
AcDbCircle
 62
7
  6
CONTINUOUS
 10
85.5
 20
-26.5
 40
2.0
  0
CIRCLE
  5
38A
100
AcDbEntity
  8
0
100
AcDbCircle
 62
7
  6
CONTINUOUS
 10
85.5
 20
-26.5
 40
1.8
  0
ARC
  5
38B
100
AcDbEntity
  8
DRAFT
100
AcDbCircle
 62
7
  6
CONTINUOUS
 10
96.0
 20
-35.5
 40
1.7757900259
100
AcDbArc
 50
90.0
 51
180.0
  0
CIRCLE
  5
38C
100
AcDbEntity
  8
0
100
AcDbCircle
 62
7
  6
CONTINUOUS
 10
85.5
 20
-26.5
 40
1.5
  0
ARC
  5
38D
100
AcDbEntity
  8
DRAFT
100
AcDbCircle
 62
7
  6
CONTINUOUS
 10
96.0
 20
-35.5
 40
1.5
100
AcDbArc
 50
90.0
 51
180.0
  0
ARC
  5
38E
100
AcDbEntity
  8
RACCORDO
100
AcDbCircle
 62
250
  6
CONTINUOUS
 10
81.9692091602
 20
-40.3746111344
 40
0.5001348226
100
AcDbArc
 50
270.0238441194
 51
359.9761558806
  0
ARC
  5
38F
100
AcDbEntity
  8
RACCORDO
100
AcDbCircle
 62
250
  6
CONTINUOUS
 10
82.0412928023
 20
-40.4466947765
 40
0.5001348226
100
AcDbArc
 50
270.0238441161
 51
359.9761558842
  0
ARC
  5
390
100
AcDbEntity
  8
RACCORDO
100
AcDbCircle
 62
250
  6
CONTINUOUS
 10
88.8587071977
 20
-40.4466947766
 40
0.5001348225
100
AcDbArc
 50
180.0238441101
 51
269.9761558899
  0
ARC
  5
391
100
AcDbEntity
  8
RACCORDO
100
AcDbCircle
 62
250
  6
CONTINUOUS
 10
88.9307908385
 20
-40.3746111357
 40
0.5001348212
100
AcDbArc
 50
180.0238439669
 51
269.9761560424
  0
CIRCLE
  5
392
100
AcDbEntity
  8
RACCORDO
100
AcDbCircle
 62
250
  6
CONTINUOUS
 10
-0.0
 20
0.0
 40
11.8078644445
  0
CIRCLE
  5
393
100
AcDbEntity
  8
RACCORDO
100
AcDbCircle
 62
7
  6
CONTINUOUS
 10
-0.0
 20
0.0
 40
11.5078770275
  0
ARC
  5
394
100
AcDbEntity
  8
0
100
AcDbCircle
 62
7
  6
CONTINUOUS
 10
-0.0
 20
0.0
 40
11.5061088075
100
AcDbArc
 50
356.2626528724
 51
3.7373471276
  0
ARC
  5
395
100
AcDbEntity
  8
0
100
AcDbCircle
 62
7
  6
CONTINUOUS
 10
-0.0
 20
0.0
 40
11.5061088075
100
AcDbArc
 50
86.2626528724
 51
93.7373471276
  0
ARC
  5
396
100
AcDbEntity
  8
0
100
AcDbCircle
 62
7
  6
CONTINUOUS
 10
-0.0
 20
0.0
 40
11.5061088075
100
AcDbArc
 50
176.2626528724
 51
183.7373471276
  0
ARC
  5
397
100
AcDbEntity
  8
0
100
AcDbCircle
 62
7
  6
CONTINUOUS
 10
-0.0
 20
0.0
 40
11.5061088075
100
AcDbArc
 50
266.2626528724
 51
273.7373471276
  0
ARC
  5
398
100
AcDbEntity
  8
0
100
AcDbCircle
 62
7
  6
CONTINUOUS
 10
-0.0
 20
0.0
 40
11.5
100
AcDbArc
 50
3.7393352315
 51
86.2606647685
  0
ARC
  5
399
100
AcDbEntity
  8
0
100
AcDbCircle
 62
7
  6
CONTINUOUS
 10
-0.0
 20
0.0
 40
11.5
100
AcDbArc
 50
93.7393352315
 51
176.2606647685
  0
ARC
  5
39A
100
AcDbEntity
  8
0
100
AcDbCircle
 62
7
  6
CONTINUOUS
 10
-0.0
 20
0.0
 40
11.5
100
AcDbArc
 50
273.7393352315
 51
356.2606647685
  0
ARC
  5
39B
100
AcDbEntity
  8
0
100
AcDbCircle
 62
7
  6
CONTINUOUS
 10
-0.0
 20
0.0
 40
11.5
100
AcDbArc
 50
183.7393352315
 51
266.2606647685
  0
ARC
  5
39C
100
AcDbEntity
  8
0
100
AcDbCircle
 62
7
  6
CONTINUOUS
 10
-0.0
 20
0.0
 40
11.25
100
AcDbArc
 50
273.8225537293
 51
356.1774462707
  0
ARC
  5
39D
100
AcDbEntity
  8
0
100
AcDbCircle
 62
7
  6
CONTINUOUS
 10
-0.0
 20
0.0
 40
11.25
100
AcDbArc
 50
183.8225537293
 51
266.1774462707
  0
ARC
  5
39E
100
AcDbEntity
  8
0
100
AcDbCircle
 62
7
  6
CONTINUOUS
 10
-0.0
 20
0.0
 40
11.25
100
AcDbArc
 50
3.8225537293
 51
86.1774462707
  0
ARC
  5
39F
100
AcDbEntity
  8
0
100
AcDbCircle
 62
7
  6
CONTINUOUS
 10
-0.0
 20
0.0
 40
11.25
100
AcDbArc
 50
93.8225537293
 51
176.1774462707
  0
ARC
  5
3A0
100
AcDbEntity
  8
0
100
AcDbCircle
 62
250
  6
CONTINUOUS
 10
-0.0
 20
0.0
 40
10.6378679656
100
AcDbArc
 50
274.0428697094
 51
355.9571302906
  0
ARC
  5
3A1
100
AcDbEntity
  8
0
100
AcDbCircle
 62
250
  6
CONTINUOUS
 10
-0.0
 20
0.0
 40
10.6378679656
100
AcDbArc
 50
184.0428697094
 51
265.9571302906
  0
ARC
  5
3A2
100
AcDbEntity
  8
0
100
AcDbCircle
 62
250
  6
CONTINUOUS
 10
-0.0
 20
0.0
 40
10.6378679656
100
AcDbArc
 50
4.0428697094
 51
85.9571302906
  0
ARC
  5
3A3
100
AcDbEntity
  8
0
100
AcDbCircle
 62
250
  6
CONTINUOUS
 10
-0.0
 20
0.0
 40
10.6378679656
100
AcDbArc
 50
94.0428697094
 51
175.9571302906
  0
ARC
  5
3A4
100
AcDbEntity
  8
0
100
AcDbCircle
 62
250
  6
CONTINUOUS
 10
-0.0
 20
0.0
 40
10.4257359313
100
AcDbArc
 50
4.1252708293
 51
85.8747291707
  0
ARC
  5
3A5
100
AcDbEntity
  8
0
100
AcDbCircle
 62
250
  6
CONTINUOUS
 10
-0.0
 20
0.0
 40
10.4257359313
100
AcDbArc
 50
94.1252708293
 51
175.8747291707
  0
ARC
  5
3A6
100
AcDbEntity
  8
0
100
AcDbCircle
 62
250
  6
CONTINUOUS
 10
-0.0
 20
0.0
 40
10.4257359313
100
AcDbArc
 50
184.1252708293
 51
265.8747291707
  0
ARC
  5
3A7
100
AcDbEntity
  8
0
100
AcDbCircle
 62
250
  6
CONTINUOUS
 10
-0.0
 20
0.0
 40
10.4257359313
100
AcDbArc
 50
274.1252708293
 51
355.8747291707
  0
CIRCLE
  5
3A8
100
AcDbEntity
  8
RACCORDO
100
AcDbCircle
 62
7
  6
CONTINUOUS
 10
45.3
 20
0.0
 40
4.8
  0
CIRCLE
  5
3A9
100
AcDbEntity
  8
RACCORDO
100
AcDbCircle
 62
250
  6
CONTINUOUS
 10
45.3
 20
0.0
 40
4.2999972742
  0
CIRCLE
  5
3AA
100
AcDbEntity
  8
RACCORDO
100
AcDbCircle
 62
250
  6
CONTINUOUS
 10
68.0
 20
0.0
 40
11.8078644445
  0
CIRCLE
  5
3AB
100
AcDbEntity
  8
RACCORDO
100
AcDbCircle
 62
7
  6
CONTINUOUS
 10
68.0
 20
0.0
 40
11.5078770275
  0
ARC
  5
3AC
100
AcDbEntity
  8
0
100
AcDbCircle
 62
7
  6
CONTINUOUS
 10
68.0
 20
0.0
 40
11.5061088075
100
AcDbArc
 50
266.2626528724
 51
273.7373471276
  0
ARC
  5
3AD
100
AcDbEntity
  8
0
100
AcDbCircle
 62
7
  6
CONTINUOUS
 10
68.0
 20
0.0
 40
11.5061088075
100
AcDbArc
 50
356.2626528724
 51
3.7373471276
  0
ARC
  5
3AE
100
AcDbEntity
  8
0
100
AcDbCircle
 62
7
  6
CONTINUOUS
 10
68.0
 20
0.0
 40
11.5061088075
100
AcDbArc
 50
176.2626528724
 51
183.7373471276
  0
ARC
  5
3AF
100
AcDbEntity
  8
0
100
AcDbCircle
 62
7
  6
CONTINUOUS
 10
68.0
 20
0.0
 40
11.5061088075
100
AcDbArc
 50
86.2626528724
 51
93.7373471276
  0
ARC
  5
3B0
100
AcDbEntity
  8
0
100
AcDbCircle
 62
7
  6
CONTINUOUS
 10
68.0
 20
0.0
 40
11.5
100
AcDbArc
 50
93.7393352315
 51
176.2606647685
  0
ARC
  5
3B1
100
AcDbEntity
  8
0
100
AcDbCircle
 62
7
  6
CONTINUOUS
 10
68.0
 20
0.0
 40
11.5
100
AcDbArc
 50
3.7393352315
 51
86.2606647685
  0
ARC
  5
3B2
100
AcDbEntity
  8
0
100
AcDbCircle
 62
7
  6
CONTINUOUS
 10
68.0
 20
0.0
 40
11.5
100
AcDbArc
 50
273.7393352315
 51
356.2606647685
  0
ARC
  5
3B3
100
AcDbEntity
  8
0
100
AcDbCircle
 62
7
  6
CONTINUOUS
 10
68.0
 20
0.0
 40
11.5
100
AcDbArc
 50
183.7393352315
 51
266.2606647685
  0
ARC
  5
3B4
100
AcDbEntity
  8
0
100
AcDbCircle
 62
7
  6
CONTINUOUS
 10
68.0
 20
0.0
 40
11.25
100
AcDbArc
 50
273.8225537293
 51
356.1774462707
  0
ARC
  5
3B5
100
AcDbEntity
  8
0
100
AcDbCircle
 62
7
  6
CONTINUOUS
 10
68.0
 20
0.0
 40
11.25
100
AcDbArc
 50
183.8225537293
 51
266.1774462707
  0
ARC
  5
3B6
100
AcDbEntity
  8
0
100
AcDbCircle
 62
7
  6
CONTINUOUS
 10
68.0
 20
0.0
 40
11.25
100
AcDbArc
 50
93.8225537293
 51
176.1774462707
  0
ARC
  5
3B7
100
AcDbEntity
  8
0
100
AcDbCircle
 62
7
  6
CONTINUOUS
 10
68.0
 20
0.0
 40
11.25
100
AcDbArc
 50
3.8225537293
 51
86.1774462707
  0
ARC
  5
3B8
100
AcDbEntity
  8
0
100
AcDbCircle
 62
250
  6
CONTINUOUS
 10
68.0
 20
0.0
 40
10.6378679656
100
AcDbArc
 50
274.0428697094
 51
355.9571302906
  0
ARC
  5
3B9
100
AcDbEntity
  8
0
100
AcDbCircle
 62
250
  6
CONTINUOUS
 10
68.0
 20
0.0
 40
10.6378679656
100
AcDbArc
 50
184.0428697094
 51
265.9571302906
  0
ARC
  5
3BA
100
AcDbEntity
  8
0
100
AcDbCircle
 62
250
  6
CONTINUOUS
 10
68.0
 20
0.0
 40
10.6378679656
100
AcDbArc
 50
94.0428697094
 51
175.9571302906
  0
ARC
  5
3BB
100
AcDbEntity
  8
0
100
AcDbCircle
 62
250
  6
CONTINUOUS
 10
68.0
 20
0.0
 40
10.6378679656
100
AcDbArc
 50
4.0428697094
 51
85.9571302906
  0
ARC
  5
3BC
100
AcDbEntity
  8
0
100
AcDbCircle
 62
250
  6
CONTINUOUS
 10
68.0
 20
0.0
 40
10.4257359313
100
AcDbArc
 50
4.1252708293
 51
85.8747291707
  0
ARC
  5
3BD
100
AcDbEntity
  8
0
100
AcDbCircle
 62
250
  6
CONTINUOUS
 10
68.0
 20
0.0
 40
10.4257359313
100
AcDbArc
 50
94.1252708293
 51
175.8747291707
  0
ARC
  5
3BE
100
AcDbEntity
  8
0
100
AcDbCircle
 62
250
  6
CONTINUOUS
 10
68.0
 20
0.0
 40
10.4257359313
100
AcDbArc
 50
184.1252708293
 51
265.8747291707
  0
ARC
  5
3BF
100
AcDbEntity
  8
0
100
AcDbCircle
 62
250
  6
CONTINUOUS
 10
68.0
 20
0.0
 40
10.4257359313
100
AcDbArc
 50
274.1252708293
 51
355.8747291707
  0
CIRCLE
  5
3C0
100
AcDbEntity
  8
RACCORDO
100
AcDbCircle
 62
7
  6
CONTINUOUS
 10
85.5
 20
26.5
 40
9.5
  0
CIRCLE
  5
3C1
100
AcDbEntity
  8
RACCORDO
100
AcDbCircle
 62
250
  6
CONTINUOUS
 10
85.5
 20
26.5
 40
8.9999982989
  0
ARC
  5
3C2
100
AcDbEntity
  8
SUPERFICI
100
AcDbCircle
 62
7
  6
CONTINUOUS
 10
96.0
 20
35.5
 40
6.0000004289
100
AcDbArc
 50
0.0000165093
 51
89.9999807783
  0
ARC
  5
3C3
100
AcDbEntity
  8
DRAFT
100
AcDbCircle
 62
7
  6
CONTINUOUS
 10
96.0
 20
35.5
 40
6.0
100
AcDbArc
 50
0.0
 51
90.0
  0
ARC
  5
3C4
100
AcDbEntity
  8
0
100
AcDbCircle
 62
250
  6
CONTINUOUS
 10
96.0
 20
35.5
 40
5.3747431161
100
AcDbArc
 50
0.0
 51
90.0
  0
ARC
  5
3C5
100
AcDbEntity
  8
0
100
AcDbCircle
 62
7
  6
CONTINUOUS
 10
96.0
 20
35.5
 40
4.4751240074
100
AcDbArc
 50
0.0
 51
90.0
  0
ARC
  5
3C6
100
AcDbEntity
  8
DRAFT
100
AcDbCircle
 62
7
  6
CONTINUOUS
 10
96.0
 20
35.5
 40
4.2
100
AcDbArc
 50
0.0
 51
90.0
  0
CIRCLE
  5
3C7
100
AcDbEntity
  8
0
100
AcDbCircle
 62
7
  6
CONTINUOUS
 10
85.5
 20
26.5
 40
2.0
  0
CIRCLE
  5
3C8
100
AcDbEntity
  8
0
100
AcDbCircle
 62
7
  6
CONTINUOUS
 10
85.5
 20
26.5
 40
1.8
  0
ARC
  5
3C9
100
AcDbEntity
  8
DRAFT
100
AcDbCircle
 62
7
  6
CONTINUOUS
 10
96.0
 20
35.5
 40
1.7757900259
100
AcDbArc
 50
180.0
 51
270.0
  0
CIRCLE
  5
3CA
100
AcDbEntity
  8
0
100
AcDbCircle
 62
7
  6
CONTINUOUS
 10
85.5
 20
26.5
 40
1.5
  0
ARC
  5
3CB
100
AcDbEntity
  8
DRAFT
100
AcDbCircle
 62
7
  6
CONTINUOUS
 10
96.0
 20
35.5
 40
1.5
100
AcDbArc
 50
180.0
 51
270.0
  0
ARC
  5
3CC
100
AcDbEntity
  8
RACCORDO
100
AcDbCircle
 62
250
  6
CONTINUOUS
 10
100.8746111344
 20
25.7192091601
 40
0.5001348227
100
AcDbArc
 50
0.023844124
 51
89.976155876
  0
ARC
  5
3CD
100
AcDbEntity
  8
RACCORDO
100
AcDbCircle
 62
250
  6
CONTINUOUS
 10
100.9466947766
 20
25.7912928024
 40
0.5001348225
100
AcDbArc
 50
0.0238441082
 51
89.9761558922
  0
ARC
  5
3CE
100
AcDbEntity
  8
RACCORDO
100
AcDbCircle
 62
250
  6
CONTINUOUS
 10
100.9466947766
 20
32.6087071976
 40
0.5001348225
100
AcDbArc
 50
270.0238441097
 51
359.9761558903
  0
ARC
  5
3CF
100
AcDbEntity
  8
RACCORDO
100
AcDbCircle
 62
250
  6
CONTINUOUS
 10
100.8746111357
 20
32.6807908385
 40
0.5001348213
100
AcDbArc
 50
270.02384397
 51
359.9761560393
  0
SPLINE
  5
3D0
100
AcDbEntity
  8
DRAFT
100
AcDbSpline
 62
7
  6
CONTINUOUS
 70
0
 71
3
 72
27
 73
23
 74
0
 42
0.0000001
 43
0.0000001
 44
0.0000000001
 40
0.0
 40
0.0
 40
0.0
 40
0.0
 40
0.000529389
 40
0.0015373812
 40
0.0052648238
 40
0.011348074
 40
0.0197919407
 40
0.0305860658
 40
0.0437085389
 40
0.0591269681
 40
0.0768075252
 40
0.0967092274
 40
0.1187818581
 40
0.1692297527
 40
0.2276666355
 40
0.2935345348
 40
0.3661983782
 40
0.4449586111
 40
0.5290602271
 40
0.6176944044
 40
0.8050988982
 40
1.0
 40
1.0
 40
1.0
 40
1.0
 10
101.6158964872
 20
11.5314075345
 30
0.0
 10
101.6138608608
 20
11.531354214
 30
0.0
 10
101.6091806876
 20
11.5262567482
 30
0.0
 10
101.602434114
 20
11.5078336655
 30
0.0
 10
101.5938974879
 20
11.4662956172
 30
0.0
 10
101.5849110318
 20
11.3970477772
 30
0.0
 10
101.575460349
 20
11.2999187764
 30
0.0
 10
101.5660878415
 20
11.1758585953
 30
0.0
 10
101.5567217205
 20
11.0248167578
 30
0.0
 10
101.5474666041
 20
10.8472706011
 30
0.0
 10
101.5383438559
 20
10.6436005842
 30
0.0
 10
101.5293897523
 20
10.4143093366
 30
0.0
 10
101.517156362
 20
10.0590112681
 30
0.0
 10
101.5027742809
 20
9.5554777607
 30
0.0
 10
101.4871719592
 20
8.8834607348
 30
0.0
 10
101.4727469203
 20
8.1259453716
 30
0.0
 10
101.4596467855
 20
7.2902209933
 30
0.0
 10
101.4480119546
 20
6.3843318808
 30
0.0
 10
101.4379616099
 20
5.4169896497
 30
0.0
 10
101.4266022302
 20
4.0317354983
 30
0.0
 10
101.417218963
 20
2.2202590594
 30
0.0
 10
101.4147374887
 20
0.7496980178
 30
0.0
 10
101.4147374887
 20
0.0
 30
0.0
  0
SPLINE
  5
3D1
100
AcDbEntity
  8
DRAFT
100
AcDbSpline
 62
7
  6
CONTINUOUS
 70
0
 71
3
 72
27
 73
23
 74
0
 42
0.0000001
 43
0.0000001
 44
0.0000000001
 40
0.0
 40
0.0
 40
0.0
 40
0.0
 40
0.000529389
 40
0.0015373812
 40
0.0052648238
 40
0.011348074
 40
0.0197919407
 40
0.0305860658
 40
0.0437085389
 40
0.0591269681
 40
0.0768075252
 40
0.0967092274
 40
0.1187818581
 40
0.1692297527
 40
0.2276666355
 40
0.2935345348
 40
0.3661983782
 40
0.4449586111
 40
0.5290602271
 40
0.6176944044
 40
0.8050988982
 40
1.0
 40
1.0
 40
1.0
 40
1.0
 10
-101.6158964872
 20
11.5314075345
 30
0.0
 10
-101.6138608608
 20
11.531354214
 30
0.0
 10
-101.6091806876
 20
11.5262567482
 30
0.0
 10
-101.602434114
 20
11.5078336655
 30
0.0
 10
-101.5938974879
 20
11.4662956172
 30
0.0
 10
-101.5849110318
 20
11.3970477772
 30
0.0
 10
-101.575460349
 20
11.2999187764
 30
0.0
 10
-101.5660878415
 20
11.1758585953
 30
0.0
 10
-101.5567217205
 20
11.0248167578
 30
0.0
 10
-101.5474666041
 20
10.8472706011
 30
0.0
 10
-101.5383438559
 20
10.6436005842
 30
0.0
 10
-101.5293897523
 20
10.4143093366
 30
0.0
 10
-101.517156362
 20
10.0590112681
 30
0.0
 10
-101.5027742809
 20
9.5554777607
 30
0.0
 10
-101.4871719592
 20
8.8834607348
 30
0.0
 10
-101.4727469203
 20
8.1259453716
 30
0.0
 10
-101.4596467855
 20
7.2902209933
 30
0.0
 10
-101.4480119546
 20
6.3843318808
 30
0.0
 10
-101.4379616099
 20
5.4169896497
 30
0.0
 10
-101.4266022302
 20
4.0317354983
 30
0.0
 10
-101.417218963
 20
2.2202590594
 30
0.0
 10
-101.4147374887
 20
0.7496980178
 30
0.0
 10
-101.4147374887
 20
0.0
 30
0.0
  0
SPLINE
  5
3D2
100
AcDbEntity
  8
DRAFT
100
AcDbSpline
 62
7
  6
CONTINUOUS
 70
0
 71
3
 72
27
 73
23
 74
0
 42
0.0000001
 43
0.0000001
 44
0.0000000001
 40
0.0
 40
0.0
 40
0.0
 40
0.0
 40
0.000529389
 40
0.0015373812
 40
0.0052648238
 40
0.011348074
 40
0.0197919407
 40
0.0305860658
 40
0.0437085389
 40
0.0591269681
 40
0.0768075252
 40
0.0967092274
 40
0.1187818581
 40
0.1692297527
 40
0.2276666355
 40
0.2935345348
 40
0.3661983782
 40
0.4449586111
 40
0.5290602271
 40
0.6176944044
 40
0.8050988982
 40
1.0
 40
1.0
 40
1.0
 40
1.0
 10
79.5314075345
 20
41.1158964873
 30
0.0
 10
79.531354214
 20
41.1138608608
 30
0.0
 10
79.5262567482
 20
41.1091806877
 30
0.0
 10
79.5078336655
 20
41.102434114
 30
0.0
 10
79.4662956172
 20
41.0938974879
 30
0.0
 10
79.3970477772
 20
41.0849110318
 30
0.0
 10
79.2999187764
 20
41.075460349
 30
0.0
 10
79.1758585953
 20
41.0660878415
 30
0.0
 10
79.0248167577
 20
41.0567217205
 30
0.0
 10
78.8472706011
 20
41.0474666041
 30
0.0
 10
78.6436005842
 20
41.0383438559
 30
0.0
 10
78.4143093366
 20
41.0293897523
 30
0.0
 10
78.0590112681
 20
41.017156362
 30
0.0
 10
77.5554777607
 20
41.0027742809
 30
0.0
 10
76.8834607348
 20
40.9871719592
 30
0.0
 10
76.1259453716
 20
40.9727469203
 30
0.0
 10
75.2902209933
 20
40.9596467855
 30
0.0
 10
74.3843318808
 20
40.9480119546
 30
0.0
 10
73.4169896497
 20
40.93796161
 30
0.0
 10
72.0317354983
 20
40.9266022302
 30
0.0
 10
70.2202590594
 20
40.917218963
 30
0.0
 10
68.7496980178
 20
40.9147374887
 30
0.0
 10
68.0
 20
40.9147374887
 30
0.0
  0
SPLINE
  5
3D3
100
AcDbEntity
  8
DRAFT
100
AcDbSpline
 62
7
  6
CONTINUOUS
 70
0
 71
3
 72
27
 73
23
 74
0
 42
0.0000001
 43
0.0000001
 44
0.0000000001
 40
0.0
 40
0.0
 40
0.0
 40
0.0
 40
0.000529389
 40
0.0015373812
 40
0.0052648238
 40
0.011348074
 40
0.0197919407
 40
0.0305860658
 40
0.0437085389
 40
0.0591269681
 40
0.0768075252
 40
0.0967092274
 40
0.1187818581
 40
0.1692297527
 40
0.2276666355
 40
0.2935345348
 40
0.3661983782
 40
0.4449586111
 40
0.5290602271
 40
0.6176944044
 40
0.8050988982
 40
1.0
 40
1.0
 40
1.0
 40
1.0
 10
11.5314075345
 20
41.1158964873
 30
0.0
 10
11.531354214
 20
41.1138608608
 30
0.0
 10
11.5262567482
 20
41.1091806877
 30
0.0
 10
11.5078336655
 20
41.102434114
 30
0.0
 10
11.4662956172
 20
41.0938974879
 30
0.0
 10
11.3970477772
 20
41.0849110318
 30
0.0
 10
11.2999187764
 20
41.075460349
 30
0.0
 10
11.1758585953
 20
41.0660878415
 30
0.0
 10
11.0248167577
 20
41.0567217205
 30
0.0
 10
10.8472706011
 20
41.0474666041
 30
0.0
 10
10.6436005842
 20
41.0383438559
 30
0.0
 10
10.4143093366
 20
41.0293897523
 30
0.0
 10
10.0590112681
 20
41.017156362
 30
0.0
 10
9.5554777607
 20
41.0027742809
 30
0.0
 10
8.8834607348
 20
40.9871719592
 30
0.0
 10
8.1259453716
 20
40.9727469203
 30
0.0
 10
7.2902209933
 20
40.9596467855
 30
0.0
 10
6.3843318808
 20
40.9480119546
 30
0.0
 10
5.4169896497
 20
40.93796161
 30
0.0
 10
4.0317354983
 20
40.9266022302
 30
0.0
 10
2.2202590594
 20
40.917218963
 30
0.0
 10
0.7496980178
 20
40.9147374887
 30
0.0
 10
-0.0
 20
40.9147374887
 30
0.0
  0
SPLINE
  5
3D4
100
AcDbEntity
  8
DRAFT
100
AcDbSpline
 62
7
  6
CONTINUOUS
 70
0
 71
3
 72
27
 73
23
 74
0
 42
0.0000001
 43
0.0000001
 44
0.0000000001
 40
0.0
 40
0.0
 40
0.0
 40
0.0
 40
0.000529389
 40
0.0015373812
 40
0.0052648238
 40
0.011348074
 40
0.0197919407
 40
0.0305860658
 40
0.0437085389
 40
0.0591269681
 40
0.0768075252
 40
0.0967092274
 40
0.1187818581
 40
0.1692297527
 40
0.2276666355
 40
0.2935345348
 40
0.3661983782
 40
0.4449586111
 40
0.5290602271
 40
0.6176944044
 40
0.8050988982
 40
1.0
 40
1.0
 40
1.0
 40
1.0
 10
-56.4685924655
 20
41.1158964873
 30
0.0
 10
-56.468645786
 20
41.1138608608
 30
0.0
 10
-56.4737432518
 20
41.1091806877
 30
0.0
 10
-56.4921663345
 20
41.102434114
 30
0.0
 10
-56.5337043828
 20
41.0938974879
 30
0.0
 10
-56.6029522228
 20
41.0849110318
 30
0.0
 10
-56.7000812236
 20
41.075460349
 30
0.0
 10
-56.8241414047
 20
41.0660878415
 30
0.0
 10
-56.9751832423
 20
41.0567217205
 30
0.0
 10
-57.1527293989
 20
41.0474666041
 30
0.0
 10
-57.3563994158
 20
41.0383438559
 30
0.0
 10
-57.5856906634
 20
41.0293897523
 30
0.0
 10
-57.9409887319
 20
41.017156362
 30
0.0
 10
-58.4445222393
 20
41.0027742809
 30
0.0
 10
-59.1165392652
 20
40.9871719592
 30
0.0
 10
-59.8740546284
 20
40.9727469203
 30
0.0
 10
-60.7097790067
 20
40.9596467855
 30
0.0
 10
-61.6156681192
 20
40.9480119546
 30
0.0
 10
-62.5830103503
 20
40.93796161
 30
0.0
 10
-63.9682645017
 20
40.9266022302
 30
0.0
 10
-65.7797409406
 20
40.917218963
 30
0.0
 10
-67.2503019822
 20
40.9147374887
 30
0.0
 10
-68.0
 20
40.9147374887
 30
0.0
  0
SPLINE
  5
3D5
100
AcDbEntity
  8
DRAFT
100
AcDbSpline
 62
7
  6
CONTINUOUS
 70
0
 71
3
 72
27
 73
23
 74
0
 42
0.0000001
 43
0.0000001
 44
0.0000000001
 40
0.0
 40
0.0
 40
0.0
 40
0.0
 40
0.000529389
 40
0.0015373812
 40
0.0052648238
 40
0.011348074
 40
0.0197919407
 40
0.0305860658
 40
0.0437085389
 40
0.0591269681
 40
0.0768075252
 40
0.0967092274
 40
0.1187818581
 40
0.1692297527
 40
0.2276666355
 40
0.2935345348
 40
0.3661983782
 40
0.4449586111
 40
0.5290602271
 40
0.6176944044
 40
0.8050988982
 40
1.0
 40
1.0
 40
1.0
 40
1.0
 10
79.5314075345
 20
-41.1158964872
 30
0.0
 10
79.531354214
 20
-41.1138608608
 30
0.0
 10
79.5262567482
 20
-41.1091806876
 30
0.0
 10
79.5078336655
 20
-41.102434114
 30
0.0
 10
79.4662956172
 20
-41.0938974879
 30
0.0
 10
79.3970477772
 20
-41.0849110318
 30
0.0
 10
79.2999187764
 20
-41.075460349
 30
0.0
 10
79.1758585953
 20
-41.0660878415
 30
0.0
 10
79.0248167577
 20
-41.0567217205
 30
0.0
 10
78.8472706011
 20
-41.0474666041
 30
0.0
 10
78.6436005842
 20
-41.0383438559
 30
0.0
 10
78.4143093366
 20
-41.0293897523
 30
0.0
 10
78.0590112681
 20
-41.017156362
 30
0.0
 10
77.5554777607
 20
-41.0027742809
 30
0.0
 10
76.8834607348
 20
-40.9871719592
 30
0.0
 10
76.1259453716
 20
-40.9727469203
 30
0.0
 10
75.2902209933
 20
-40.9596467855
 30
0.0
 10
74.3843318808
 20
-40.9480119546
 30
0.0
 10
73.4169896497
 20
-40.9379616099
 30
0.0
 10
72.0317354983
 20
-40.9266022302
 30
0.0
 10
70.2202590594
 20
-40.917218963
 30
0.0
 10
68.7496980178
 20
-40.9147374887
 30
0.0
 10
68.0
 20
-40.9147374887
 30
0.0
  0
SPLINE
  5
3D6
100
AcDbEntity
  8
DRAFT
100
AcDbSpline
 62
7
  6
CONTINUOUS
 70
0
 71
3
 72
27
 73
23
 74
0
 42
0.0000001
 43
0.0000001
 44
0.0000000001
 40
0.0
 40
0.0
 40
0.0
 40
0.0
 40
0.000529389
 40
0.0015373812
 40
0.0052648238
 40
0.011348074
 40
0.0197919407
 40
0.0305860658
 40
0.0437085389
 40
0.0591269681
 40
0.0768075252
 40
0.0967092274
 40
0.1187818581
 40
0.1692297527
 40
0.2276666355
 40
0.2935345348
 40
0.3661983782
 40
0.4449586111
 40
0.5290602271
 40
0.6176944044
 40
0.8050988982
 40
1.0
 40
1.0
 40
1.0
 40
1.0
 10
11.5314075345
 20
-41.1158964872
 30
0.0
 10
11.531354214
 20
-41.1138608608
 30
0.0
 10
11.5262567482
 20
-41.1091806876
 30
0.0
 10
11.5078336655
 20
-41.102434114
 30
0.0
 10
11.4662956172
 20
-41.0938974879
 30
0.0
 10
11.3970477772
 20
-41.0849110318
 30
0.0
 10
11.2999187764
 20
-41.075460349
 30
0.0
 10
11.1758585953
 20
-41.0660878415
 30
0.0
 10
11.0248167577
 20
-41.0567217205
 30
0.0
 10
10.8472706011
 20
-41.0474666041
 30
0.0
 10
10.6436005842
 20
-41.0383438559
 30
0.0
 10
10.4143093366
 20
-41.0293897523
 30
0.0
 10
10.0590112681
 20
-41.017156362
 30
0.0
 10
9.5554777607
 20
-41.0027742809
 30
0.0
 10
8.8834607348
 20
-40.9871719592
 30
0.0
 10
8.1259453716
 20
-40.9727469203
 30
0.0
 10
7.2902209933
 20
-40.9596467855
 30
0.0
 10
6.3843318808
 20
-40.9480119546
 30
0.0
 10
5.4169896497
 20
-40.9379616099
 30
0.0
 10
4.0317354983
 20
-40.9266022302
 30
0.0
 10
2.2202590594
 20
-40.917218963
 30
0.0
 10
0.7496980178
 20
-40.9147374887
 30
0.0
 10
-0.0
 20
-40.9147374887
 30
0.0
  0
SPLINE
  5
3D7
100
AcDbEntity
  8
DRAFT
100
AcDbSpline
 62
7
  6
CONTINUOUS
 70
0
 71
3
 72
27
 73
23
 74
0
 42
0.0000001
 43
0.0000001
 44
0.0000000001
 40
0.0
 40
0.0
 40
0.0
 40
0.0
 40
0.000529389
 40
0.0015373812
 40
0.0052648238
 40
0.011348074
 40
0.0197919407
 40
0.0305860658
 40
0.0437085389
 40
0.0591269681
 40
0.0768075252
 40
0.0967092274
 40
0.1187818581
 40
0.1692297527
 40
0.2276666355
 40
0.2935345348
 40
0.3661983782
 40
0.4449586111
 40
0.5290602271
 40
0.6176944044
 40
0.8050988982
 40
1.0
 40
1.0
 40
1.0
 40
1.0
 10
-56.4685924655
 20
-41.1158964872
 30
0.0
 10
-56.468645786
 20
-41.1138608608
 30
0.0
 10
-56.4737432518
 20
-41.1091806876
 30
0.0
 10
-56.4921663345
 20
-41.102434114
 30
0.0
 10
-56.5337043828
 20
-41.0938974879
 30
0.0
 10
-56.6029522228
 20
-41.0849110318
 30
0.0
 10
-56.7000812236
 20
-41.075460349
 30
0.0
 10
-56.8241414047
 20
-41.0660878415
 30
0.0
 10
-56.9751832423
 20
-41.0567217205
 30
0.0
 10
-57.1527293989
 20
-41.0474666041
 30
0.0
 10
-57.3563994158
 20
-41.0383438559
 30
0.0
 10
-57.5856906634
 20
-41.0293897523
 30
0.0
 10
-57.9409887319
 20
-41.017156362
 30
0.0
 10
-58.4445222393
 20
-41.0027742809
 30
0.0
 10
-59.1165392652
 20
-40.9871719592
 30
0.0
 10
-59.8740546284
 20
-40.9727469203
 30
0.0
 10
-60.7097790067
 20
-40.9596467855
 30
0.0
 10
-61.6156681192
 20
-40.9480119546
 30
0.0
 10
-62.5830103503
 20
-40.9379616099
 30
0.0
 10
-63.9682645017
 20
-40.9266022302
 30
0.0
 10
-65.7797409406
 20
-40.917218963
 30
0.0
 10
-67.2503019822
 20
-40.9147374887
 30
0.0
 10
-68.0
 20
-40.9147374887
 30
0.0
  0
SPLINE
  5
3D8
100
AcDbEntity
  8
DRAFT
100
AcDbSpline
 62
7
  6
CONTINUOUS
 70
0
 71
3
 72
27
 73
23
 74
0
 42
0.0000001
 43
0.0000001
 44
0.0000000001
 40
0.0
 40
0.0
 40
0.0
 40
0.0
 40
0.1949011018
 40
0.3823055956
 40
0.4709397729
 40
0.5550413889
 40
0.6338016218
 40
0.7064654652
 40
0.7723333645
 40
0.8307702473
 40
0.8812181419
 40
0.9032907726
 40
0.9231924748
 40
0.9408730319
 40
0.9562914611
 40
0.9694139342
 40
0.9802080593
 40
0.988651926
 40
0.9947351762
 40
0.9984626188
 40
0.999470611
 40
1.0
 40
1.0
 40
1.0
 40
1.0
 10
-68.0
 20
-40.9147374887
 30
0.0
 10
-68.7496980178
 20
-40.9147374887
 30
0.0
 10
-70.2202590594
 20
-40.917218963
 30
0.0
 10
-72.0317354983
 20
-40.9266022302
 30
0.0
 10
-73.4169896497
 20
-40.9379616099
 30
0.0
 10
-74.3843318808
 20
-40.9480119546
 30
0.0
 10
-75.2902209933
 20
-40.9596467855
 30
0.0
 10
-76.1259453716
 20
-40.9727469203
 30
0.0
 10
-76.8834607348
 20
-40.9871719592
 30
0.0
 10
-77.5554777607
 20
-41.0027742809
 30
0.0
 10
-78.0590112681
 20
-41.017156362
 30
0.0
 10
-78.4143093366
 20
-41.0293897523
 30
0.0
 10
-78.6436005842
 20
-41.0383438559
 30
0.0
 10
-78.8472706011
 20
-41.0474666041
 30
0.0
 10
-79.0248167577
 20
-41.0567217205
 30
0.0
 10
-79.1758585953
 20
-41.0660878415
 30
0.0
 10
-79.2999187764
 20
-41.075460349
 30
0.0
 10
-79.3970477772
 20
-41.0849110318
 30
0.0
 10
-79.4662956172
 20
-41.0938974879
 30
0.0
 10
-79.5078336655
 20
-41.102434114
 30
0.0
 10
-79.5262567482
 20
-41.1091806876
 30
0.0
 10
-79.531354214
 20
-41.1138608608
 30
0.0
 10
-79.5314075345
 20
-41.1158964872
 30
0.0
  0
SPLINE
  5
3D9
100
AcDbEntity
  8
DRAFT
100
AcDbSpline
 62
7
  6
CONTINUOUS
 70
0
 71
3
 72
27
 73
23
 74
0
 42
0.0000001
 43
0.0000001
 44
0.0000000001
 40
0.0
 40
0.0
 40
0.0
 40
0.0
 40
0.1949011018
 40
0.3823055956
 40
0.4709397729
 40
0.5550413889
 40
0.6338016218
 40
0.7064654652
 40
0.7723333645
 40
0.8307702473
 40
0.8812181419
 40
0.9032907726
 40
0.9231924748
 40
0.9408730319
 40
0.9562914611
 40
0.9694139342
 40
0.9802080593
 40
0.988651926
 40
0.9947351762
 40
0.9984626188
 40
0.999470611
 40
1.0
 40
1.0
 40
1.0
 40
1.0
 10
-0.0
 20
-40.9147374887
 30
0.0
 10
-0.7496980178
 20
-40.9147374887
 30
0.0
 10
-2.2202590594
 20
-40.917218963
 30
0.0
 10
-4.0317354983
 20
-40.9266022302
 30
0.0
 10
-5.4169896497
 20
-40.9379616099
 30
0.0
 10
-6.3843318808
 20
-40.9480119546
 30
0.0
 10
-7.2902209933
 20
-40.9596467855
 30
0.0
 10
-8.1259453716
 20
-40.9727469203
 30
0.0
 10
-8.8834607348
 20
-40.9871719592
 30
0.0
 10
-9.5554777607
 20
-41.0027742809
 30
0.0
 10
-10.0590112681
 20
-41.017156362
 30
0.0
 10
-10.4143093366
 20
-41.0293897523
 30
0.0
 10
-10.6436005842
 20
-41.0383438559
 30
0.0
 10
-10.8472706011
 20
-41.0474666041
 30
0.0
 10
-11.0248167577
 20
-41.0567217205
 30
0.0
 10
-11.1758585953
 20
-41.0660878415
 30
0.0
 10
-11.2999187764
 20
-41.075460349
 30
0.0
 10
-11.3970477772
 20
-41.0849110318
 30
0.0
 10
-11.4662956172
 20
-41.0938974879
 30
0.0
 10
-11.5078336655
 20
-41.102434114
 30
0.0
 10
-11.5262567482
 20
-41.1091806876
 30
0.0
 10
-11.531354214
 20
-41.1138608608
 30
0.0
 10
-11.5314075345
 20
-41.1158964872
 30
0.0
  0
SPLINE
  5
3DA
100
AcDbEntity
  8
DRAFT
100
AcDbSpline
 62
7
  6
CONTINUOUS
 70
0
 71
3
 72
27
 73
23
 74
0
 42
0.0000001
 43
0.0000001
 44
0.0000000001
 40
0.0
 40
0.0
 40
0.0
 40
0.0
 40
0.1949011018
 40
0.3823055956
 40
0.4709397729
 40
0.5550413889
 40
0.6338016218
 40
0.7064654652
 40
0.7723333645
 40
0.8307702473
 40
0.8812181419
 40
0.9032907726
 40
0.9231924748
 40
0.9408730319
 40
0.9562914611
 40
0.9694139342
 40
0.9802080593
 40
0.988651926
 40
0.9947351762
 40
0.9984626188
 40
0.999470611
 40
1.0
 40
1.0
 40
1.0
 40
1.0
 10
68.0
 20
-40.9147374887
 30
0.0
 10
67.2503019822
 20
-40.9147374887
 30
0.0
 10
65.7797409406
 20
-40.917218963
 30
0.0
 10
63.9682645017
 20
-40.9266022302
 30
0.0
 10
62.5830103503
 20
-40.9379616099
 30
0.0
 10
61.6156681192
 20
-40.9480119546
 30
0.0
 10
60.7097790067
 20
-40.9596467855
 30
0.0
 10
59.8740546284
 20
-40.9727469203
 30
0.0
 10
59.1165392652
 20
-40.9871719592
 30
0.0
 10
58.4445222393
 20
-41.0027742809
 30
0.0
 10
57.9409887319
 20
-41.017156362
 30
0.0
 10
57.5856906634
 20
-41.0293897523
 30
0.0
 10
57.3563994158
 20
-41.0383438559
 30
0.0
 10
57.1527293989
 20
-41.0474666041
 30
0.0
 10
56.9751832423
 20
-41.0567217205
 30
0.0
 10
56.8241414047
 20
-41.0660878415
 30
0.0
 10
56.7000812236
 20
-41.075460349
 30
0.0
 10
56.6029522228
 20
-41.0849110318
 30
0.0
 10
56.5337043828
 20
-41.0938974879
 30
0.0
 10
56.4921663345
 20
-41.102434114
 30
0.0
 10
56.4737432518
 20
-41.1091806876
 30
0.0
 10
56.468645786
 20
-41.1138608608
 30
0.0
 10
56.4685924655
 20
-41.1158964872
 30
0.0
  0
SPLINE
  5
3DB
100
AcDbEntity
  8
DRAFT
100
AcDbSpline
 62
7
  6
CONTINUOUS
 70
0
 71
3
 72
27
 73
23
 74
0
 42
0.0000001
 43
0.0000001
 44
0.0000000001
 40
0.0
 40
0.0
 40
0.0
 40
0.0
 40
0.1949011018
 40
0.3823055956
 40
0.4709397729
 40
0.5550413889
 40
0.6338016218
 40
0.7064654652
 40
0.7723333645
 40
0.8307702473
 40
0.8812181419
 40
0.9032907726
 40
0.9231924748
 40
0.9408730319
 40
0.9562914611
 40
0.9694139342
 40
0.9802080593
 40
0.988651926
 40
0.9947351762
 40
0.9984626188
 40
0.999470611
 40
1.0
 40
1.0
 40
1.0
 40
1.0
 10
-101.4147374887
 20
0.0
 30
0.0
 10
-101.4147374887
 20
-0.7496980178
 30
0.0
 10
-101.417218963
 20
-2.2202590594
 30
0.0
 10
-101.4266022302
 20
-4.0317354983
 30
0.0
 10
-101.4379616099
 20
-5.4169896497
 30
0.0
 10
-101.4480119546
 20
-6.3843318808
 30
0.0
 10
-101.4596467855
 20
-7.2902209933
 30
0.0
 10
-101.4727469203
 20
-8.1259453716
 30
0.0
 10
-101.4871719592
 20
-8.8834607348
 30
0.0
 10
-101.5027742809
 20
-9.5554777607
 30
0.0
 10
-101.517156362
 20
-10.0590112681
 30
0.0
 10
-101.5293897523
 20
-10.4143093366
 30
0.0
 10
-101.5383438559
 20
-10.6436005842
 30
0.0
 10
-101.5474666041
 20
-10.8472706011
 30
0.0
 10
-101.5567217205
 20
-11.0248167577
 30
0.0
 10
-101.5660878415
 20
-11.1758585953
 30
0.0
 10
-101.575460349
 20
-11.2999187764
 30
0.0
 10
-101.5849110318
 20
-11.3970477772
 30
0.0
 10
-101.5938974879
 20
-11.4662956172
 30
0.0
 10
-101.602434114
 20
-11.5078336655
 30
0.0
 10
-101.6091806876
 20
-11.5262567482
 30
0.0
 10
-101.6138608608
 20
-11.531354214
 30
0.0
 10
-101.6158964872
 20
-11.5314075345
 30
0.0
  0
SPLINE
  5
3DC
100
AcDbEntity
  8
DRAFT
100
AcDbSpline
 62
7
  6
CONTINUOUS
 70
0
 71
3
 72
27
 73
23
 74
0
 42
0.0000001
 43
0.0000001
 44
0.0000000001
 40
0.0
 40
0.0
 40
0.0
 40
0.0
 40
0.1949011018
 40
0.3823055956
 40
0.4709397729
 40
0.5550413889
 40
0.6338016218
 40
0.7064654652
 40
0.7723333645
 40
0.8307702473
 40
0.8812181419
 40
0.9032907726
 40
0.9231924748
 40
0.9408730319
 40
0.9562914611
 40
0.9694139342
 40
0.9802080593
 40
0.988651926
 40
0.9947351762
 40
0.9984626188
 40
0.999470611
 40
1.0
 40
1.0
 40
1.0
 40
1.0
 10
-68.0
 20
40.9147374887
 30
0.0
 10
-68.7496980178
 20
40.9147374887
 30
0.0
 10
-70.2202590594
 20
40.917218963
 30
0.0
 10
-72.0317354983
 20
40.9266022302
 30
0.0
 10
-73.4169896497
 20
40.93796161
 30
0.0
 10
-74.3843318808
 20
40.9480119546
 30
0.0
 10
-75.2902209933
 20
40.9596467855
 30
0.0
 10
-76.1259453716
 20
40.9727469203
 30
0.0
 10
-76.8834607348
 20
40.9871719592
 30
0.0
 10
-77.5554777607
 20
41.0027742809
 30
0.0
 10
-78.0590112681
 20
41.017156362
 30
0.0
 10
-78.4143093366
 20
41.0293897523
 30
0.0
 10
-78.6436005842
 20
41.0383438559
 30
0.0
 10
-78.8472706011
 20
41.0474666041
 30
0.0
 10
-79.0248167577
 20
41.0567217205
 30
0.0
 10
-79.1758585953
 20
41.0660878415
 30
0.0
 10
-79.2999187764
 20
41.075460349
 30
0.0
 10
-79.3970477772
 20
41.0849110318
 30
0.0
 10
-79.4662956172
 20
41.0938974879
 30
0.0
 10
-79.5078336655
 20
41.102434114
 30
0.0
 10
-79.5262567482
 20
41.1091806877
 30
0.0
 10
-79.531354214
 20
41.1138608608
 30
0.0
 10
-79.5314075345
 20
41.1158964873
 30
0.0
  0
SPLINE
  5
3DD
100
AcDbEntity
  8
DRAFT
100
AcDbSpline
 62
7
  6
CONTINUOUS
 70
0
 71
3
 72
27
 73
23
 74
0
 42
0.0000001
 43
0.0000001
 44
0.0000000001
 40
0.0
 40
0.0
 40
0.0
 40
0.0
 40
0.1949011018
 40
0.3823055956
 40
0.4709397729
 40
0.5550413889
 40
0.6338016218
 40
0.7064654652
 40
0.7723333645
 40
0.8307702473
 40
0.8812181419
 40
0.9032907726
 40
0.9231924748
 40
0.9408730319
 40
0.9562914611
 40
0.9694139342
 40
0.9802080593
 40
0.988651926
 40
0.9947351762
 40
0.9984626188
 40
0.999470611
 40
1.0
 40
1.0
 40
1.0
 40
1.0
 10
-0.0
 20
40.9147374887
 30
0.0
 10
-0.7496980178
 20
40.9147374887
 30
0.0
 10
-2.2202590594
 20
40.917218963
 30
0.0
 10
-4.0317354983
 20
40.9266022302
 30
0.0
 10
-5.4169896497
 20
40.93796161
 30
0.0
 10
-6.3843318808
 20
40.9480119546
 30
0.0
 10
-7.2902209933
 20
40.9596467855
 30
0.0
 10
-8.1259453716
 20
40.9727469203
 30
0.0
 10
-8.8834607348
 20
40.9871719592
 30
0.0
 10
-9.5554777607
 20
41.0027742809
 30
0.0
 10
-10.0590112681
 20
41.017156362
 30
0.0
 10
-10.4143093366
 20
41.0293897523
 30
0.0
 10
-10.6436005842
 20
41.0383438559
 30
0.0
 10
-10.8472706011
 20
41.0474666041
 30
0.0
 10
-11.0248167577
 20
41.0567217205
 30
0.0
 10
-11.1758585953
 20
41.0660878415
 30
0.0
 10
-11.2999187764
 20
41.075460349
 30
0.0
 10
-11.3970477772
 20
41.0849110318
 30
0.0
 10
-11.4662956172
 20
41.0938974879
 30
0.0
 10
-11.5078336655
 20
41.102434114
 30
0.0
 10
-11.5262567482
 20
41.1091806877
 30
0.0
 10
-11.531354214
 20
41.1138608608
 30
0.0
 10
-11.5314075345
 20
41.1158964873
 30
0.0
  0
SPLINE
  5
3DE
100
AcDbEntity
  8
DRAFT
100
AcDbSpline
 62
7
  6
CONTINUOUS
 70
0
 71
3
 72
27
 73
23
 74
0
 42
0.0000001
 43
0.0000001
 44
0.0000000001
 40
0.0
 40
0.0
 40
0.0
 40
0.0
 40
0.1949011018
 40
0.3823055956
 40
0.4709397729
 40
0.5550413889
 40
0.6338016218
 40
0.7064654652
 40
0.7723333645
 40
0.8307702473
 40
0.8812181419
 40
0.9032907726
 40
0.9231924748
 40
0.9408730319
 40
0.9562914611
 40
0.9694139342
 40
0.9802080593
 40
0.988651926
 40
0.9947351762
 40
0.9984626188
 40
0.999470611
 40
1.0
 40
1.0
 40
1.0
 40
1.0
 10
68.0
 20
40.9147374887
 30
0.0
 10
67.2503019822
 20
40.9147374887
 30
0.0
 10
65.7797409406
 20
40.917218963
 30
0.0
 10
63.9682645017
 20
40.9266022302
 30
0.0
 10
62.5830103503
 20
40.93796161
 30
0.0
 10
61.6156681192
 20
40.9480119546
 30
0.0
 10
60.7097790067
 20
40.9596467855
 30
0.0
 10
59.8740546284
 20
40.9727469203
 30
0.0
 10
59.1165392652
 20
40.9871719592
 30
0.0
 10
58.4445222393
 20
41.0027742809
 30
0.0
 10
57.9409887319
 20
41.017156362
 30
0.0
 10
57.5856906634
 20
41.0293897523
 30
0.0
 10
57.3563994158
 20
41.0383438559
 30
0.0
 10
57.1527293989
 20
41.0474666041
 30
0.0
 10
56.9751832423
 20
41.0567217205
 30
0.0
 10
56.8241414047
 20
41.0660878415
 30
0.0
 10
56.7000812236
 20
41.075460349
 30
0.0
 10
56.6029522228
 20
41.0849110318
 30
0.0
 10
56.5337043828
 20
41.0938974879
 30
0.0
 10
56.4921663345
 20
41.102434114
 30
0.0
 10
56.4737432518
 20
41.1091806877
 30
0.0
 10
56.468645786
 20
41.1138608608
 30
0.0
 10
56.4685924655
 20
41.1158964873
 30
0.0
  0
SPLINE
  5
3DF
100
AcDbEntity
  8
DRAFT
100
AcDbSpline
 62
7
  6
CONTINUOUS
 70
0
 71
3
 72
27
 73
23
 74
0
 42
0.0000001
 43
0.0000001
 44
0.0000000001
 40
0.0
 40
0.0
 40
0.0
 40
0.0
 40
0.1949011018
 40
0.3823055956
 40
0.4709397729
 40
0.5550413889
 40
0.6338016218
 40
0.7064654652
 40
0.7723333645
 40
0.8307702473
 40
0.8812181419
 40
0.9032907726
 40
0.9231924748
 40
0.9408730319
 40
0.9562914611
 40
0.9694139342
 40
0.9802080593
 40
0.988651926
 40
0.9947351762
 40
0.9984626188
 40
0.999470611
 40
1.0
 40
1.0
 40
1.0
 40
1.0
 10
101.4147374887
 20
0.0
 30
0.0
 10
101.4147374887
 20
-0.7496980178
 30
0.0
 10
101.417218963
 20
-2.2202590594
 30
0.0
 10
101.4266022302
 20
-4.0317354983
 30
0.0
 10
101.4379616099
 20
-5.4169896497
 30
0.0
 10
101.4480119546
 20
-6.3843318808
 30
0.0
 10
101.4596467855
 20
-7.2902209933
 30
0.0
 10
101.4727469203
 20
-8.1259453716
 30
0.0
 10
101.4871719592
 20
-8.8834607348
 30
0.0
 10
101.5027742809
 20
-9.5554777607
 30
0.0
 10
101.517156362
 20
-10.0590112681
 30
0.0
 10
101.5293897523
 20
-10.4143093366
 30
0.0
 10
101.5383438559
 20
-10.6436005842
 30
0.0
 10
101.5474666041
 20
-10.8472706011
 30
0.0
 10
101.5567217205
 20
-11.0248167577
 30
0.0
 10
101.5660878415
 20
-11.1758585953
 30
0.0
 10
101.575460349
 20
-11.2999187764
 30
0.0
 10
101.5849110318
 20
-11.3970477772
 30
0.0
 10
101.5938974879
 20
-11.4662956172
 30
0.0
 10
101.602434114
 20
-11.5078336655
 30
0.0
 10
101.6091806876
 20
-11.5262567482
 30
0.0
 10
101.6138608608
 20
-11.531354214
 30
0.0
 10
101.6158964872
 20
-11.5314075345
 30
0.0
  0
SPLINE
  5
3E0
100
AcDbEntity
  8
DRAFT
100
AcDbSpline
 62
7
  6
CONTINUOUS
 70
0
 71
3
 72
27
 73
23
 74
0
 42
0.0000001
 43
0.0000001
 44
0.0000000001
 40
0.0
 40
0.0
 40
0.0
 40
0.0
 40
0.0005169019
 40
0.0015056811
 40
0.0051936814
 40
0.0112397479
 40
0.0196492503
 40
0.0304119514
 40
0.0435061453
 40
0.0588994453
 40
0.0765579898
 40
0.0964409025
 40
0.118497927
 40
0.168923967
 40
0.227351254
 40
0.2932212642
 40
0.3658981247
 40
0.4446813825
 40
0.528814913
 40
0.617488636
 40
0.8049895644
 40
1.0
 40
1.0
 40
1.0
 40
1.0
 10
101.6158964872
 20
-11.5314075345
 30
0.0
 10
101.617884126
 20
-11.5314595981
 30
0.0
 10
101.6226757585
 20
-11.5265835421
 30
0.0
 10
101.6293352402
 20
-11.5083946109
 30
0.0
 10
101.6379621399
 20
-11.4672777306
 30
0.0
 10
101.6468934645
 20
-11.3984336649
 30
0.0
 10
101.6563714417
 20
-11.3017119849
 30
0.0
 10
101.6657401636
 20
-11.1780092787
 30
0.0
 10
101.6751160343
 20
-11.0272939942
 30
0.0
 10
101.6843770133
 20
-10.850035685
 30
0.0
 10
101.6935075607
 20
-10.6466171008
 30
0.0
 10
101.7024691396
 20
-10.4175399654
 30
0.0
 10
101.7147145877
 20
-10.0624537507
 30
0.0
 10
101.7291104268
 20
-9.559094499
 30
0.0
 10
101.7447275731
 20
-8.88718111
 30
0.0
 10
101.7591669606
 20
-8.1296339171
 30
0.0
 10
101.7722806783
 20
-7.2937510452
 30
0.0
 10
101.7839279262
 20
-6.3875877395
 30
0.0
 10
101.7939892621
 20
-5.4198683512
 30
0.0
 10
101.8053615773
 20
-4.0339486914
 30
0.0
 10
101.8147554002
 20
-2.2215028131
 30
0.0
 10
101.8172396544
 20
-0.7501292783
 30
0.0
 10
101.8172396544
 20
0.0
 30
0.0
  0
SPLINE
  5
3E1
100
AcDbEntity
  8
DRAFT
100
AcDbSpline
 62
7
  6
CONTINUOUS
 70
0
 71
3
 72
27
 73
23
 74
0
 42
0.0000001
 43
0.0000001
 44
0.0000000001
 40
0.0
 40
0.0
 40
0.0
 40
0.0
 40
0.0005169019
 40
0.0015056811
 40
0.0051936814
 40
0.0112397479
 40
0.0196492503
 40
0.0304119514
 40
0.0435061453
 40
0.0588994453
 40
0.0765579898
 40
0.0964409025
 40
0.118497927
 40
0.168923967
 40
0.227351254
 40
0.2932212642
 40
0.3658981247
 40
0.4446813825
 40
0.528814913
 40
0.617488636
 40
0.8049895644
 40
1.0
 40
1.0
 40
1.0
 40
1.0
 10
-101.6158964872
 20
-11.5314075345
 30
0.0
 10
-101.617884126
 20
-11.5314595981
 30
0.0
 10
-101.6226757585
 20
-11.5265835421
 30
0.0
 10
-101.6293352402
 20
-11.5083946109
 30
0.0
 10
-101.6379621399
 20
-11.4672777306
 30
0.0
 10
-101.6468934645
 20
-11.3984336649
 30
0.0
 10
-101.6563714417
 20
-11.3017119849
 30
0.0
 10
-101.6657401636
 20
-11.1780092787
 30
0.0
 10
-101.6751160343
 20
-11.0272939942
 30
0.0
 10
-101.6843770133
 20
-10.850035685
 30
0.0
 10
-101.6935075607
 20
-10.6466171008
 30
0.0
 10
-101.7024691396
 20
-10.4175399654
 30
0.0
 10
-101.7147145877
 20
-10.0624537507
 30
0.0
 10
-101.7291104268
 20
-9.559094499
 30
0.0
 10
-101.7447275731
 20
-8.88718111
 30
0.0
 10
-101.7591669606
 20
-8.1296339171
 30
0.0
 10
-101.7722806783
 20
-7.2937510452
 30
0.0
 10
-101.7839279262
 20
-6.3875877395
 30
0.0
 10
-101.7939892621
 20
-5.4198683512
 30
0.0
 10
-101.8053615773
 20
-4.0339486914
 30
0.0
 10
-101.8147554002
 20
-2.2215028131
 30
0.0
 10
-101.8172396544
 20
-0.7501292783
 30
0.0
 10
-101.8172396544
 20
0.0
 30
0.0
  0
SPLINE
  5
3E2
100
AcDbEntity
  8
DRAFT
100
AcDbSpline
 62
7
  6
CONTINUOUS
 70
0
 71
3
 72
27
 73
23
 74
0
 42
0.0000001
 43
0.0000001
 44
0.0000000001
 40
0.0
 40
0.0
 40
0.0
 40
0.0
 40
0.0005169019
 40
0.0015056811
 40
0.0051936814
 40
0.0112397479
 40
0.0196492503
 40
0.0304119514
 40
0.0435061453
 40
0.0588994453
 40
0.0765579898
 40
0.0964409025
 40
0.118497927
 40
0.168923967
 40
0.227351254
 40
0.2932212642
 40
0.3658981247
 40
0.4446813825
 40
0.528814913
 40
0.617488636
 40
0.8049895644
 40
1.0
 40
1.0
 40
1.0
 40
1.0
 10
56.4685924655
 20
41.1158964873
 30
0.0
 10
56.4685404019
 20
41.117884126
 30
0.0
 10
56.4734164579
 20
41.1226757585
 30
0.0
 10
56.4916053891
 20
41.1293352402
 30
0.0
 10
56.5327222694
 20
41.1379621399
 30
0.0
 10
56.6015663351
 20
41.1468934645
 30
0.0
 10
56.6982880151
 20
41.1563714417
 30
0.0
 10
56.8219907213
 20
41.1657401636
 30
0.0
 10
56.9727060058
 20
41.1751160343
 30
0.0
 10
57.149964315
 20
41.1843770133
 30
0.0
 10
57.3533828992
 20
41.1935075607
 30
0.0
 10
57.5824600346
 20
41.2024691396
 30
0.0
 10
57.9375462493
 20
41.2147145877
 30
0.0
 10
58.440905501
 20
41.2291104268
 30
0.0
 10
59.11281889
 20
41.2447275731
 30
0.0
 10
59.8703660829
 20
41.2591669606
 30
0.0
 10
60.7062489547
 20
41.2722806783
 30
0.0
 10
61.6124122605
 20
41.2839279262
 30
0.0
 10
62.5801316488
 20
41.2939892621
 30
0.0
 10
63.9660513086
 20
41.3053615773
 30
0.0
 10
65.7784971869
 20
41.3147554002
 30
0.0
 10
67.2498707217
 20
41.3172396544
 30
0.0
 10
68.0
 20
41.3172396544
 30
0.0
  0
SPLINE
  5
3E3
100
AcDbEntity
  8
DRAFT
100
AcDbSpline
 62
7
  6
CONTINUOUS
 70
0
 71
3
 72
27
 73
23
 74
0
 42
0.0000001
 43
0.0000001
 44
0.0000000001
 40
0.0
 40
0.0
 40
0.0
 40
0.0
 40
0.0005169019
 40
0.0015056811
 40
0.0051936814
 40
0.0112397479
 40
0.0196492503
 40
0.0304119514
 40
0.0435061453
 40
0.0588994453
 40
0.0765579898
 40
0.0964409025
 40
0.118497927
 40
0.168923967
 40
0.227351254
 40
0.2932212642
 40
0.3658981247
 40
0.4446813825
 40
0.528814913
 40
0.617488636
 40
0.8049895644
 40
1.0
 40
1.0
 40
1.0
 40
1.0
 10
-11.5314075345
 20
41.1158964873
 30
0.0
 10
-11.5314595981
 20
41.117884126
 30
0.0
 10
-11.5265835421
 20
41.1226757585
 30
0.0
 10
-11.5083946109
 20
41.1293352402
 30
0.0
 10
-11.4672777306
 20
41.1379621399
 30
0.0
 10
-11.3984336649
 20
41.1468934645
 30
0.0
 10
-11.3017119849
 20
41.1563714417
 30
0.0
 10
-11.1780092787
 20
41.1657401636
 30
0.0
 10
-11.0272939942
 20
41.1751160343
 30
0.0
 10
-10.850035685
 20
41.1843770133
 30
0.0
 10
-10.6466171008
 20
41.1935075607
 30
0.0
 10
-10.4175399654
 20
41.2024691396
 30
0.0
 10
-10.0624537507
 20
41.2147145877
 30
0.0
 10
-9.559094499
 20
41.2291104268
 30
0.0
 10
-8.88718111
 20
41.2447275731
 30
0.0
 10
-8.1296339171
 20
41.2591669606
 30
0.0
 10
-7.2937510453
 20
41.2722806783
 30
0.0
 10
-6.3875877395
 20
41.2839279262
 30
0.0
 10
-5.4198683512
 20
41.2939892621
 30
0.0
 10
-4.0339486914
 20
41.3053615773
 30
0.0
 10
-2.2215028131
 20
41.3147554002
 30
0.0
 10
-0.7501292783
 20
41.3172396544
 30
0.0
 10
-0.0
 20
41.3172396544
 30
0.0
  0
SPLINE
  5
3E4
100
AcDbEntity
  8
DRAFT
100
AcDbSpline
 62
7
  6
CONTINUOUS
 70
0
 71
3
 72
27
 73
23
 74
0
 42
0.0000001
 43
0.0000001
 44
0.0000000001
 40
0.0
 40
0.0
 40
0.0
 40
0.0
 40
0.0005169019
 40
0.0015056811
 40
0.0051936814
 40
0.0112397479
 40
0.0196492503
 40
0.0304119514
 40
0.0435061453
 40
0.0588994453
 40
0.0765579898
 40
0.0964409025
 40
0.118497927
 40
0.168923967
 40
0.227351254
 40
0.2932212642
 40
0.3658981247
 40
0.4446813825
 40
0.528814913
 40
0.617488636
 40
0.8049895644
 40
1.0
 40
1.0
 40
1.0
 40
1.0
 10
-79.5314075345
 20
41.1158964873
 30
0.0
 10
-79.5314595981
 20
41.117884126
 30
0.0
 10
-79.5265835421
 20
41.1226757585
 30
0.0
 10
-79.5083946109
 20
41.1293352402
 30
0.0
 10
-79.4672777306
 20
41.1379621399
 30
0.0
 10
-79.3984336649
 20
41.1468934645
 30
0.0
 10
-79.3017119849
 20
41.1563714417
 30
0.0
 10
-79.1780092787
 20
41.1657401636
 30
0.0
 10
-79.0272939942
 20
41.1751160343
 30
0.0
 10
-78.850035685
 20
41.1843770133
 30
0.0
 10
-78.6466171008
 20
41.1935075607
 30
0.0
 10
-78.4175399654
 20
41.2024691396
 30
0.0
 10
-78.0624537507
 20
41.2147145877
 30
0.0
 10
-77.559094499
 20
41.2291104268
 30
0.0
 10
-76.88718111
 20
41.2447275731
 30
0.0
 10
-76.1296339171
 20
41.2591669606
 30
0.0
 10
-75.2937510453
 20
41.2722806783
 30
0.0
 10
-74.3875877395
 20
41.2839279262
 30
0.0
 10
-73.4198683512
 20
41.2939892621
 30
0.0
 10
-72.0339486914
 20
41.3053615773
 30
0.0
 10
-70.2215028131
 20
41.3147554002
 30
0.0
 10
-68.7501292783
 20
41.3172396544
 30
0.0
 10
-68.0
 20
41.3172396544
 30
0.0
  0
SPLINE
  5
3E5
100
AcDbEntity
  8
DRAFT
100
AcDbSpline
 62
7
  6
CONTINUOUS
 70
0
 71
3
 72
27
 73
23
 74
0
 42
0.0000001
 43
0.0000001
 44
0.0000000001
 40
0.0
 40
0.0
 40
0.0
 40
0.0
 40
0.0005169019
 40
0.0015056811
 40
0.0051936814
 40
0.0112397479
 40
0.0196492503
 40
0.0304119514
 40
0.0435061453
 40
0.0588994453
 40
0.0765579898
 40
0.0964409025
 40
0.118497927
 40
0.168923967
 40
0.227351254
 40
0.2932212642
 40
0.3658981247
 40
0.4446813825
 40
0.528814913
 40
0.617488636
 40
0.8049895644
 40
1.0
 40
1.0
 40
1.0
 40
1.0
 10
56.4685924655
 20
-41.1158964872
 30
0.0
 10
56.4685404019
 20
-41.117884126
 30
0.0
 10
56.4734164579
 20
-41.1226757585
 30
0.0
 10
56.4916053891
 20
-41.1293352402
 30
0.0
 10
56.5327222694
 20
-41.1379621399
 30
0.0
 10
56.6015663351
 20
-41.1468934645
 30
0.0
 10
56.6982880151
 20
-41.1563714417
 30
0.0
 10
56.8219907213
 20
-41.1657401636
 30
0.0
 10
56.9727060058
 20
-41.1751160343
 30
0.0
 10
57.149964315
 20
-41.1843770133
 30
0.0
 10
57.3533828992
 20
-41.1935075607
 30
0.0
 10
57.5824600346
 20
-41.2024691396
 30
0.0
 10
57.9375462493
 20
-41.2147145877
 30
0.0
 10
58.440905501
 20
-41.2291104268
 30
0.0
 10
59.11281889
 20
-41.2447275731
 30
0.0
 10
59.8703660829
 20
-41.2591669606
 30
0.0
 10
60.7062489547
 20
-41.2722806783
 30
0.0
 10
61.6124122605
 20
-41.2839279262
 30
0.0
 10
62.5801316488
 20
-41.293989262
 30
0.0
 10
63.9660513086
 20
-41.3053615773
 30
0.0
 10
65.7784971869
 20
-41.3147554002
 30
0.0
 10
67.2498707217
 20
-41.3172396544
 30
0.0
 10
68.0
 20
-41.3172396544
 30
0.0
  0
SPLINE
  5
3E6
100
AcDbEntity
  8
DRAFT
100
AcDbSpline
 62
7
  6
CONTINUOUS
 70
0
 71
3
 72
27
 73
23
 74
0
 42
0.0000001
 43
0.0000001
 44
0.0000000001
 40
0.0
 40
0.0
 40
0.0
 40
0.0
 40
0.1950104356
 40
0.382511364
 40
0.471185087
 40
0.5553186175
 40
0.6341018753
 40
0.7067787358
 40
0.772648746
 40
0.831076033
 40
0.881502073
 40
0.9035590975
 40
0.9234420102
 40
0.9411005547
 40
0.9564938547
 40
0.9695880486
 40
0.9803507497
 40
0.9887602521
 40
0.9948063186
 40
0.9984943189
 40
0.9994830981
 40
1.0
 40
1.0
 40
1.0
 40
1.0
 10
-68.0
 20
-41.3172396544
 30
0.0
 10
-67.2498707217
 20
-41.3172396544
 30
0.0
 10
-65.7784971869
 20
-41.3147554002
 30
0.0
 10
-63.9660513086
 20
-41.3053615773
 30
0.0
 10
-62.5801316488
 20
-41.293989262
 30
0.0
 10
-61.6124122605
 20
-41.2839279262
 30
0.0
 10
-60.7062489547
 20
-41.2722806783
 30
0.0
 10
-59.8703660829
 20
-41.2591669606
 30
0.0
 10
-59.11281889
 20
-41.2447275731
 30
0.0
 10
-58.440905501
 20
-41.2291104268
 30
0.0
 10
-57.9375462493
 20
-41.2147145877
 30
0.0
 10
-57.5824600346
 20
-41.2024691396
 30
0.0
 10
-57.3533828992
 20
-41.1935075607
 30
0.0
 10
-57.149964315
 20
-41.1843770133
 30
0.0
 10
-56.9727060058
 20
-41.1751160343
 30
0.0
 10
-56.8219907213
 20
-41.1657401636
 30
0.0
 10
-56.6982880151
 20
-41.1563714417
 30
0.0
 10
-56.6015663351
 20
-41.1468934645
 30
0.0
 10
-56.5327222694
 20
-41.1379621399
 30
0.0
 10
-56.4916053891
 20
-41.1293352402
 30
0.0
 10
-56.4734164579
 20
-41.1226757585
 30
0.0
 10
-56.4685404019
 20
-41.117884126
 30
0.0
 10
-56.4685924655
 20
-41.1158964872
 30
0.0
  0
SPLINE
  5
3E7
100
AcDbEntity
  8
DRAFT
100
AcDbSpline
 62
7
  6
CONTINUOUS
 70
0
 71
3
 72
27
 73
23
 74
0
 42
0.0000001
 43
0.0000001
 44
0.0000000001
 40
0.0
 40
0.0
 40
0.0
 40
0.0
 40
0.1950104356
 40
0.382511364
 40
0.471185087
 40
0.5553186175
 40
0.6341018753
 40
0.7067787358
 40
0.772648746
 40
0.831076033
 40
0.881502073
 40
0.9035590975
 40
0.9234420102
 40
0.9411005547
 40
0.9564938547
 40
0.9695880486
 40
0.9803507497
 40
0.9887602521
 40
0.9948063186
 40
0.9984943189
 40
0.9994830981
 40
1.0
 40
1.0
 40
1.0
 40
1.0
 10
-0.0
 20
-41.3172396544
 30
0.0
 10
0.7501292783
 20
-41.3172396544
 30
0.0
 10
2.2215028131
 20
-41.3147554002
 30
0.0
 10
4.0339486914
 20
-41.3053615773
 30
0.0
 10
5.4198683512
 20
-41.293989262
 30
0.0
 10
6.3875877395
 20
-41.2839279262
 30
0.0
 10
7.2937510453
 20
-41.2722806783
 30
0.0
 10
8.1296339171
 20
-41.2591669606
 30
0.0
 10
8.88718111
 20
-41.2447275731
 30
0.0
 10
9.559094499
 20
-41.2291104268
 30
0.0
 10
10.0624537507
 20
-41.2147145877
 30
0.0
 10
10.4175399654
 20
-41.2024691396
 30
0.0
 10
10.6466171008
 20
-41.1935075607
 30
0.0
 10
10.850035685
 20
-41.1843770133
 30
0.0
 10
11.0272939942
 20
-41.1751160343
 30
0.0
 10
11.1780092787
 20
-41.1657401636
 30
0.0
 10
11.3017119849
 20
-41.1563714417
 30
0.0
 10
11.3984336649
 20
-41.1468934645
 30
0.0
 10
11.4672777306
 20
-41.1379621399
 30
0.0
 10
11.5083946109
 20
-41.1293352402
 30
0.0
 10
11.5265835421
 20
-41.1226757585
 30
0.0
 10
11.5314595981
 20
-41.117884126
 30
0.0
 10
11.5314075345
 20
-41.1158964872
 30
0.0
  0
SPLINE
  5
3E8
100
AcDbEntity
  8
DRAFT
100
AcDbSpline
 62
7
  6
CONTINUOUS
 70
0
 71
3
 72
27
 73
23
 74
0
 42
0.0000001
 43
0.0000001
 44
0.0000000001
 40
0.0
 40
0.0
 40
0.0
 40
0.0
 40
0.1950104356
 40
0.382511364
 40
0.471185087
 40
0.5553186175
 40
0.6341018753
 40
0.7067787358
 40
0.772648746
 40
0.831076033
 40
0.881502073
 40
0.9035590975
 40
0.9234420102
 40
0.9411005547
 40
0.9564938547
 40
0.9695880486
 40
0.9803507497
 40
0.9887602521
 40
0.9948063186
 40
0.9984943189
 40
0.9994830981
 40
1.0
 40
1.0
 40
1.0
 40
1.0
 10
68.0
 20
-41.3172396544
 30
0.0
 10
68.7501292783
 20
-41.3172396544
 30
0.0
 10
70.2215028131
 20
-41.3147554002
 30
0.0
 10
72.0339486914
 20
-41.3053615773
 30
0.0
 10
73.4198683512
 20
-41.293989262
 30
0.0
 10
74.3875877395
 20
-41.2839279262
 30
0.0
 10
75.2937510453
 20
-41.2722806783
 30
0.0
 10
76.1296339171
 20
-41.2591669606
 30
0.0
 10
76.88718111
 20
-41.2447275731
 30
0.0
 10
77.559094499
 20
-41.2291104268
 30
0.0
 10
78.0624537507
 20
-41.2147145877
 30
0.0
 10
78.4175399654
 20
-41.2024691396
 30
0.0
 10
78.6466171008
 20
-41.1935075607
 30
0.0
 10
78.850035685
 20
-41.1843770133
 30
0.0
 10
79.0272939942
 20
-41.1751160343
 30
0.0
 10
79.1780092787
 20
-41.1657401636
 30
0.0
 10
79.3017119849
 20
-41.1563714417
 30
0.0
 10
79.3984336649
 20
-41.1468934645
 30
0.0
 10
79.4672777306
 20
-41.1379621399
 30
0.0
 10
79.5083946109
 20
-41.1293352402
 30
0.0
 10
79.5265835421
 20
-41.1226757585
 30
0.0
 10
79.5314595981
 20
-41.117884126
 30
0.0
 10
79.5314075345
 20
-41.1158964872
 30
0.0
  0
SPLINE
  5
3E9
100
AcDbEntity
  8
DRAFT
100
AcDbSpline
 62
7
  6
CONTINUOUS
 70
0
 71
3
 72
27
 73
23
 74
0
 42
0.0000001
 43
0.0000001
 44
0.0000000001
 40
0.0
 40
0.0
 40
0.0
 40
0.0
 40
0.0005169019
 40
0.0015056811
 40
0.0051936814
 40
0.0112397479
 40
0.0196492503
 40
0.0304119514
 40
0.0435061453
 40
0.0588994453
 40
0.0765579898
 40
0.0964409025
 40
0.118497927
 40
0.168923967
 40
0.227351254
 40
0.2932212642
 40
0.3658981247
 40
0.4446813825
 40
0.528814913
 40
0.617488636
 40
0.8049895644
 40
1.0
 40
1.0
 40
1.0
 40
1.0
 10
-11.5314075345
 20
-41.1158964872
 30
0.0
 10
-11.5314595981
 20
-41.117884126
 30
0.0
 10
-11.5265835421
 20
-41.1226757585
 30
0.0
 10
-11.5083946109
 20
-41.1293352402
 30
0.0
 10
-11.4672777306
 20
-41.1379621399
 30
0.0
 10
-11.3984336649
 20
-41.1468934645
 30
0.0
 10
-11.3017119849
 20
-41.1563714417
 30
0.0
 10
-11.1780092787
 20
-41.1657401636
 30
0.0
 10
-11.0272939942
 20
-41.1751160343
 30
0.0
 10
-10.850035685
 20
-41.1843770133
 30
0.0
 10
-10.6466171008
 20
-41.1935075607
 30
0.0
 10
-10.4175399654
 20
-41.2024691396
 30
0.0
 10
-10.0624537507
 20
-41.2147145877
 30
0.0
 10
-9.559094499
 20
-41.2291104268
 30
0.0
 10
-8.88718111
 20
-41.2447275731
 30
0.0
 10
-8.1296339171
 20
-41.2591669606
 30
0.0
 10
-7.2937510453
 20
-41.2722806783
 30
0.0
 10
-6.3875877395
 20
-41.2839279262
 30
0.0
 10
-5.4198683512
 20
-41.293989262
 30
0.0
 10
-4.0339486914
 20
-41.3053615773
 30
0.0
 10
-2.2215028131
 20
-41.3147554002
 30
0.0
 10
-0.7501292783
 20
-41.3172396544
 30
0.0
 10
-0.0
 20
-41.3172396544
 30
0.0
  0
SPLINE
  5
3EA
100
AcDbEntity
  8
RACCORDO
100
AcDbSpline
 62
250
  6
CONTINUOUS
 70
0
 71
3
 72
20
 73
16
 74
0
 42
0.0000001
 43
0.0000001
 44
0.0000000001
 40
0.0
 40
0.0
 40
0.0
 40
0.0
 40
0.0021925206
 40
0.0066443609
 40
0.0224752704
 40
0.0474715193
 40
0.0814246252
 40
0.1240175046
 40
0.1748617378
 40
0.2334712425
 40
0.2993051012
 40
0.450082085
 40
0.6215227005
 40
0.8071527591
 40
1.0
 40
1.0
 40
1.0
 40
1.0
 10
82.0415009364
 20
-40.9468267582
 30
0.0
 10
82.0420176076
 20
-40.9473440409
 30
0.0
 10
82.0443323636
 20
-40.9478584055
 30
0.0
 10
82.0515201527
 20
-40.9492621078
 30
0.0
 10
82.0667645295
 20
-40.9504558786
 30
0.0
 10
82.0915416695
 20
-40.9520993326
 30
0.0
 10
82.1254164041
 20
-40.9535788468
 30
0.0
 10
82.1678523064
 20
-40.9550791499
 30
0.0
 10
82.2185405189
 20
-40.9564874709
 30
0.0
 10
82.2769747424
 20
-40.9578191616
 30
0.0
 10
82.3687344619
 20
-40.9595341908
 30
0.0
 10
82.498121947
 20
-40.961302399
 30
0.0
 10
82.6674621099
 20
-40.9628266915
 30
0.0
 10
82.8508351656
 20
-40.9637660413
 30
0.0
 10
82.9770419704
 20
-40.9639779817
 30
0.0
 10
83.0413486316
 20
-40.9639771903
 30
0.0
  0
SPLINE
  5
3EB
100
AcDbEntity
  8
RACCORDO
100
AcDbSpline
 62
250
  6
CONTINUOUS
 70
0
 71
3
 72
20
 73
16
 74
0
 42
0.0000001
 43
0.0000001
 44
0.0000000001
 40
0.0
 40
0.0
 40
0.0
 40
0.0
 40
0.1928473721
 40
0.3784774327
 40
0.549917994
 40
0.7006949058
 40
0.7665287329
 40
0.8251382189
 40
0.8759824385
 40
0.9185753255
 40
0.952528434
 40
0.9775246972
 40
0.9933556135
 40
0.9978074652
 40
1.0
 40
1.0
 40
1.0
 40
1.0
 10
87.8586513684
 20
-40.9639771903
 30
0.0
 10
87.9229580731
 20
-40.9639779991
 30
0.0
 10
88.0491649219
 20
-40.963766029
 30
0.0
 10
88.2325380034
 20
-40.9628266944
 30
0.0
 10
88.4018781243
 20
-40.9613023971
 30
0.0
 10
88.5312655564
 20
-40.9595341912
 30
0.0
 10
88.6230252348
 20
-40.9578191624
 30
0.0
 10
88.681459437
 20
-40.9564874732
 30
0.0
 10
88.7321476406
 20
-40.9550791519
 30
0.0
 10
88.7745835429
 20
-40.9535788493
 30
0.0
 10
88.8084582823
 20
-40.9520993338
 30
0.0
 10
88.8332354379
 20
-40.9504558884
 30
0.0
 10
88.8484798119
 20
-40.9492621055
 30
0.0
 10
88.8556676242
 20
-40.9478583962
 30
0.0
 10
88.8579823777
 20
-40.9473440328
 30
0.0
 10
88.8584990636
 20
-40.9468267582
 30
0.0
  0
SPLINE
  5
3EC
100
AcDbEntity
  8
DRAFT
100
AcDbSpline
 62
7
  6
CONTINUOUS
 70
0
 71
3
 72
27
 73
23
 74
0
 42
0.0000001
 43
0.0000001
 44
0.0000000001
 40
0.0
 40
0.0
 40
0.0
 40
0.0
 40
0.1950104356
 40
0.382511364
 40
0.471185087
 40
0.5553186175
 40
0.6341018753
 40
0.7067787358
 40
0.772648746
 40
0.831076033
 40
0.881502073
 40
0.9035590975
 40
0.9234420102
 40
0.9411005547
 40
0.9564938547
 40
0.9695880486
 40
0.9803507497
 40
0.9887602521
 40
0.9948063186
 40
0.9984943189
 40
0.9994830981
 40
1.0
 40
1.0
 40
1.0
 40
1.0
 10
-101.8172396544
 20
0.0
 30
0.0
 10
-101.8172396544
 20
0.7501292783
 30
0.0
 10
-101.8147554002
 20
2.2215028131
 30
0.0
 10
-101.8053615773
 20
4.0339486914
 30
0.0
 10
-101.7939892621
 20
5.4198683512
 30
0.0
 10
-101.7839279262
 20
6.3875877395
 30
0.0
 10
-101.7722806783
 20
7.2937510453
 30
0.0
 10
-101.7591669606
 20
8.1296339172
 30
0.0
 10
-101.7447275731
 20
8.88718111
 30
0.0
 10
-101.7291104268
 20
9.559094499
 30
0.0
 10
-101.7147145877
 20
10.0624537507
 30
0.0
 10
-101.7024691396
 20
10.4175399654
 30
0.0
 10
-101.6935075607
 20
10.6466171008
 30
0.0
 10
-101.6843770133
 20
10.850035685
 30
0.0
 10
-101.6751160343
 20
11.0272939942
 30
0.0
 10
-101.6657401636
 20
11.1780092787
 30
0.0
 10
-101.6563714417
 20
11.3017119849
 30
0.0
 10
-101.6468934645
 20
11.3984336649
 30
0.0
 10
-101.6379621399
 20
11.4672777306
 30
0.0
 10
-101.6293352402
 20
11.5083946109
 30
0.0
 10
-101.6226757585
 20
11.5265835421
 30
0.0
 10
-101.617884126
 20
11.5314595981
 30
0.0
 10
-101.6158964872
 20
11.5314075345
 30
0.0
  0
LINE
  5
3ED
100
AcDbEntity
  8
RACCORDO
100
AcDbLine
 62
7
  6
CONTINUOUS
 10
-100.174925864
 20
-32.3999253618
 11
-99.8822464769
 21
-32.6925880081
  0
LINE
  5
3EE
100
AcDbEntity
  8
RACCORDO
100
AcDbLine
 62
7
  6
CONTINUOUS
 10
-99.8822464769
 20
-25.7074119919
 11
-100.1749258633
 21
-26.0000746359
  0
SPLINE
  5
3EF
100
AcDbEntity
  8
RACCORDO
100
AcDbSpline
 62
7
  6
CONTINUOUS
 70
0
 71
3
 72
14
 73
10
 74
0
 42
0.0000001
 43
0.0000001
 44
0.0000000001
 40
0.0
 40
0.0
 40
0.0
 40
0.0
 40
0.3690438619
 40
0.5325879683
 40
0.6779477356
 40
0.8013991096
 40
0.89892259
 40
0.9663034805
 40
1.0
 40
1.0
 40
1.0
 40
1.0
 10
-100.1749258634
 20
-26.0000659117
 30
0.0
 10
-100.2003954381
 20
-26.0255402275
 30
0.0
 10
-100.2380082707
 20
-26.0614479573
 30
0.0
 10
-100.2861825987
 20
-26.1067993169
 30
0.0
 10
-100.3168540207
 20
-26.1358259269
 30
0.0
 10
-100.3423841614
 20
-26.1607603998
 30
0.0
 10
-100.3623966388
 20
-26.1808247159
 30
0.0
 10
-100.3746630073
 20
-26.195377913
 30
0.0
 10
-100.3814244783
 20
-26.2032281879
 30
0.0
 10
-100.3821703245
 20
-26.2064316619
 30
0.0
  0
SPLINE
  5
3F0
100
AcDbEntity
  8
RACCORDO
100
AcDbSpline
 62
7
  6
CONTINUOUS
 70
0
 71
3
 72
14
 73
10
 74
0
 42
0.0000001
 43
0.0000001
 44
0.0000000001
 40
0.0
 40
0.0
 40
0.0
 40
0.0
 40
0.0336969884
 40
0.1010804472
 40
0.1986096754
 40
0.3220639522
 40
0.4674241039
 40
0.6309673833
 40
1.0
 40
1.0
 40
1.0
 40
1.0
 10
-100.3821703245
 20
-32.1935683378
 30
0.0
 10
-100.3814244679
 20
-32.1967718561
 30
0.0
 10
-100.3746626459
 20
-32.2046222708
 30
0.0
 10
-100.3623958741
 20
-32.2191762073
 30
0.0
 10
-100.3423822719
 20
-32.2392409847
 30
0.0
 10
-100.3168519225
 20
-32.2641764881
 30
0.0
 10
-100.2861800712
 20
-32.2932029992
 30
0.0
 10
-100.2380064589
 20
-32.3385534455
 30
0.0
 10
-100.2003946657
 20
-32.3744605519
 30
0.0
 10
-100.1749258642
 20
-32.3999340851
 30
0.0
  0
LINE
  5
3F1
100
AcDbEntity
  8
RACCORDO
100
AcDbLine
 62
7
  6
CONTINUOUS
 10
-88.6499253618
 20
39.674925864
 11
-88.9425880081
 21
39.382246477
  0
LINE
  5
3F2
100
AcDbEntity
  8
RACCORDO
100
AcDbLine
 62
7
  6
CONTINUOUS
 10
-81.9574119919
 20
39.382246477
 11
-82.2500746359
 21
39.6749258633
  0
SPLINE
  5
3F3
100
AcDbEntity
  8
RACCORDO
100
AcDbSpline
 62
7
  6
CONTINUOUS
 70
0
 71
3
 72
14
 73
10
 74
0
 42
0.0000001
 43
0.0000001
 44
0.0000000001
 40
0.0
 40
0.0
 40
0.0
 40
0.0
 40
0.3690438619
 40
0.5325879683
 40
0.6779477356
 40
0.8013991096
 40
0.89892259
 40
0.9663034805
 40
1.0
 40
1.0
 40
1.0
 40
1.0
 10
-82.2500659117
 20
39.6749258634
 30
0.0
 10
-82.2755402275
 20
39.7003954381
 30
0.0
 10
-82.3114479573
 20
39.7380082707
 30
0.0
 10
-82.3567993169
 20
39.7861825987
 30
0.0
 10
-82.3858259269
 20
39.8168540207
 30
0.0
 10
-82.4107603999
 20
39.8423841614
 30
0.0
 10
-82.4308247159
 20
39.8623966388
 30
0.0
 10
-82.445377913
 20
39.8746630073
 30
0.0
 10
-82.4532281879
 20
39.8814244783
 30
0.0
 10
-82.4564316619
 20
39.8821703245
 30
0.0
  0
SPLINE
  5
3F4
100
AcDbEntity
  8
RACCORDO
100
AcDbSpline
 62
7
  6
CONTINUOUS
 70
0
 71
3
 72
14
 73
10
 74
0
 42
0.0000001
 43
0.0000001
 44
0.0000000001
 40
0.0
 40
0.0
 40
0.0
 40
0.0
 40
0.0336969884
 40
0.1010804472
 40
0.1986096754
 40
0.3220639522
 40
0.4674241039
 40
0.6309673833
 40
1.0
 40
1.0
 40
1.0
 40
1.0
 10
-88.4435683378
 20
39.8821703245
 30
0.0
 10
-88.4467718561
 20
39.8814244679
 30
0.0
 10
-88.4546222708
 20
39.8746626459
 30
0.0
 10
-88.4691762074
 20
39.8623958741
 30
0.0
 10
-88.4892409847
 20
39.8423822719
 30
0.0
 10
-88.5141764881
 20
39.8168519225
 30
0.0
 10
-88.5432029992
 20
39.7861800712
 30
0.0
 10
-88.5885534455
 20
39.7380064589
 30
0.0
 10
-88.6244605519
 20
39.7003946657
 30
0.0
 10
-88.6499340851
 20
39.6749258642
 30
0.0
  0
LINE
  5
3F5
100
AcDbEntity
  8
RACCORDO
100
AcDbLine
 62
7
  6
CONTINUOUS
 10
100.174925864
 20
32.3999253618
 11
99.8822464769
 21
32.6925880081
  0
LINE
  5
3F6
100
AcDbEntity
  8
RACCORDO
100
AcDbLine
 62
7
  6
CONTINUOUS
 10
99.8822464769
 20
25.7074119919
 11
100.1749258633
 21
26.0000746359
  0
SPLINE
  5
3F7
100
AcDbEntity
  8
RACCORDO
100
AcDbSpline
 62
7
  6
CONTINUOUS
 70
0
 71
3
 72
14
 73
10
 74
0
 42
0.0000001
 43
0.0000001
 44
0.0000000001
 40
0.0
 40
0.0
 40
0.0
 40
0.0
 40
0.3690438619
 40
0.5325879683
 40
0.6779477356
 40
0.8013991096
 40
0.89892259
 40
0.9663034805
 40
1.0
 40
1.0
 40
1.0
 40
1.0
 10
100.1749258634
 20
26.0000659117
 30
0.0
 10
100.2003954381
 20
26.0255402275
 30
0.0
 10
100.2380082707
 20
26.0614479573
 30
0.0
 10
100.2861825987
 20
26.1067993169
 30
0.0
 10
100.3168540207
 20
26.1358259269
 30
0.0
 10
100.3423841614
 20
26.1607603999
 30
0.0
 10
100.3623966388
 20
26.1808247159
 30
0.0
 10
100.3746630073
 20
26.195377913
 30
0.0
 10
100.3814244783
 20
26.2032281879
 30
0.0
 10
100.3821703245
 20
26.2064316619
 30
0.0
  0
SPLINE
  5
3F8
100
AcDbEntity
  8
RACCORDO
100
AcDbSpline
 62
7
  6
CONTINUOUS
 70
0
 71
3
 72
14
 73
10
 74
0
 42
0.0000001
 43
0.0000001
 44
0.0000000001
 40
0.0
 40
0.0
 40
0.0
 40
0.0
 40
0.0336969884
 40
0.1010804472
 40
0.1986096754
 40
0.3220639522
 40
0.4674241039
 40
0.6309673833
 40
1.0
 40
1.0
 40
1.0
 40
1.0
 10
100.3821703245
 20
32.1935683378
 30
0.0
 10
100.3814244679
 20
32.1967718561
 30
0.0
 10
100.3746626459
 20
32.2046222708
 30
0.0
 10
100.3623958741
 20
32.2191762074
 30
0.0
 10
100.3423822719
 20
32.2392409847
 30
0.0
 10
100.3168519225
 20
32.2641764882
 30
0.0
 10
100.2861800712
 20
32.2932029992
 30
0.0
 10
100.2380064589
 20
32.3385534455
 30
0.0
 10
100.2003946657
 20
32.3744605519
 30
0.0
 10
100.1749258642
 20
32.3999340851
 30
0.0
  0
LINE
  5
3F9
100
AcDbEntity
  8
RACCORDO
100
AcDbLine
 62
7
  6
CONTINUOUS
 10
88.6499253618
 20
-39.674925864
 11
88.9425880081
 21
-39.3822464769
  0
LINE
  5
3FA
100
AcDbEntity
  8
RACCORDO
100
AcDbLine
 62
7
  6
CONTINUOUS
 10
81.9574119919
 20
-39.3822464769
 11
82.2500746359
 21
-39.6749258633
  0
SPLINE
  5
3FB
100
AcDbEntity
  8
RACCORDO
100
AcDbSpline
 62
7
  6
CONTINUOUS
 70
0
 71
3
 72
14
 73
10
 74
0
 42
0.0000001
 43
0.0000001
 44
0.0000000001
 40
0.0
 40
0.0
 40
0.0
 40
0.0
 40
0.3690438619
 40
0.5325879683
 40
0.6779477356
 40
0.8013991096
 40
0.89892259
 40
0.9663034805
 40
1.0
 40
1.0
 40
1.0
 40
1.0
 10
82.2500659117
 20
-39.6749258634
 30
0.0
 10
82.2755402275
 20
-39.7003954381
 30
0.0
 10
82.3114479573
 20
-39.7380082707
 30
0.0
 10
82.3567993169
 20
-39.7861825987
 30
0.0
 10
82.3858259269
 20
-39.8168540207
 30
0.0
 10
82.4107603999
 20
-39.8423841614
 30
0.0
 10
82.4308247159
 20
-39.8623966388
 30
0.0
 10
82.445377913
 20
-39.8746630073
 30
0.0
 10
82.4532281879
 20
-39.8814244783
 30
0.0
 10
82.4564316619
 20
-39.8821703245
 30
0.0
  0
SPLINE
  5
3FC
100
AcDbEntity
  8
RACCORDO
100
AcDbSpline
 62
7
  6
CONTINUOUS
 70
0
 71
3
 72
14
 73
10
 74
0
 42
0.0000001
 43
0.0000001
 44
0.0000000001
 40
0.0
 40
0.0
 40
0.0
 40
0.0
 40
0.0336969884
 40
0.1010804472
 40
0.1986096754
 40
0.3220639522
 40
0.4674241039
 40
0.6309673833
 40
1.0
 40
1.0
 40
1.0
 40
1.0
 10
88.4435683378
 20
-39.8821703245
 30
0.0
 10
88.4467718561
 20
-39.8814244679
 30
0.0
 10
88.4546222708
 20
-39.8746626459
 30
0.0
 10
88.4691762074
 20
-39.8623958741
 30
0.0
 10
88.4892409847
 20
-39.8423822719
 30
0.0
 10
88.5141764881
 20
-39.8168519224
 30
0.0
 10
88.5432029992
 20
-39.7861800712
 30
0.0
 10
88.5885534455
 20
-39.7380064589
 30
0.0
 10
88.6244605519
 20
-39.7003946657
 30
0.0
 10
88.6499340851
 20
-39.6749258642
 30
0.0
  0
SPLINE
  5
3FD
100
AcDbEntity
  8
RACCORDO
100
AcDbSpline
 62
250
  6
CONTINUOUS
 70
0
 71
3
 72
20
 73
16
 74
0
 42
0.0000001
 43
0.0000001
 44
0.0000000001
 40
0.0
 40
0.0
 40
0.0
 40
0.0
 40
0.1929491851
 40
0.3786450726
 40
0.5501124996
 40
0.7009058864
 40
0.7667397707
 40
0.825360099
 40
0.876202862
 40
0.9188019892
 40
0.9527440756
 40
0.9777288006
 40
0.9935139344
 40
0.9979179586
 40
1.0
 40
1.0
 40
1.0
 40
1.0
 10
-100.1749258819
 20
-25.7074135063
 30
0.0
 10
-100.2521078468
 20
-25.7074134728
 30
0.0
 10
-100.4035704254
 20
-25.7075587699
 30
0.0
 10
-100.6236210981
 20
-25.7082176999
 30
0.0
 10
-100.8268073126
 20
-25.7092841205
 30
0.0
 10
-100.982044847
 20
-25.7105220419
 30
0.0
 10
-101.0921412643
 20
-25.7117224087
 30
0.0
 10
-101.162254604
 20
-25.7126551152
 30
0.0
 10
-101.2230777294
 20
-25.7136377694
 30
0.0
 10
-101.2740099444
 20
-25.7146972096
 30
0.0
 10
-101.3146410837
 20
-25.7157062283
 30
0.0
 10
-101.3444297208
 20
-25.7169189217
 30
0.0
 10
-101.3626171082
 20
-25.7176399706
 30
0.0
 10
-101.371339438
 20
-25.718740574
 30
0.0
 10
-101.3740248567
 20
-25.7189957163
 30
0.0
 10
-101.3747431161
 20
-25.7194172943
 30
0.0
  0
SPLINE
  5
3FE
100
AcDbEntity
  8
RACCORDO
100
AcDbSpline
 62
250
  6
CONTINUOUS
 70
0
 71
3
 72
20
 73
16
 74
0
 42
0.0000001
 43
0.0000001
 44
0.0000000001
 40
0.0
 40
0.0
 40
0.0
 40
0.0
 40
0.0020820416
 40
0.0064860659
 40
0.0222711993
 40
0.0472559243
 40
0.0811980108
 40
0.123797138
 40
0.174639901
 40
0.2332602292
 40
0.2990941136
 40
0.4498875004
 40
0.6213549274
 40
0.8070508148
 40
1.0
 40
1.0
 40
1.0
 40
1.0
 10
-101.3747431161
 20
-32.6805827057
 30
0.0
 10
-101.3740248563
 20
-32.6810042832
 30
0.0
 10
-101.3713394379
 20
-32.6812594257
 30
0.0
 10
-101.3626171076
 20
-32.6823600289
 30
0.0
 10
-101.3444297209
 20
-32.6830810788
 30
0.0
 10
-101.3146410837
 20
-32.6842937719
 30
0.0
 10
-101.2740099445
 20
-32.6853027904
 30
0.0
 10
-101.2230777293
 20
-32.6863622304
 30
0.0
 10
-101.162254604
 20
-32.6873448846
 30
0.0
 10
-101.0921412643
 20
-32.6882775913
 30
0.0
 10
-100.9820448471
 20
-32.6894779584
 30
0.0
 10
-100.8268073126
 20
-32.6907158792
 30
0.0
 10
-100.6236210981
 20
-32.6917822998
 30
0.0
 10
-100.4035704254
 20
-32.6924412314
 30
0.0
 10
-100.2521078468
 20
-32.6925865267
 30
0.0
 10
-100.1749258819
 20
-32.6925864934
 30
0.0
  0
SPLINE
  5
3FF
100
AcDbEntity
  8
RACCORDO
100
AcDbSpline
 62
250
  6
CONTINUOUS
 70
0
 71
3
 72
20
 73
16
 74
0
 42
0.0000001
 43
0.0000001
 44
0.0000000001
 40
0.0
 40
0.0
 40
0.0
 40
0.0
 40
0.1929491851
 40
0.3786450726
 40
0.5501124996
 40
0.7009058864
 40
0.7667397707
 40
0.825360099
 40
0.876202862
 40
0.9188019892
 40
0.9527440756
 40
0.9777288006
 40
0.9935139344
 40
0.9979179586
 40
1.0
 40
1.0
 40
1.0
 40
1.0
 10
-81.9574135063
 20
39.6749258819
 30
0.0
 10
-81.9574134728
 20
39.7521078468
 30
0.0
 10
-81.9575587699
 20
39.9035704254
 30
0.0
 10
-81.9582176999
 20
40.1236210981
 30
0.0
 10
-81.9592841205
 20
40.3268073126
 30
0.0
 10
-81.9605220419
 20
40.482044847
 30
0.0
 10
-81.9617224087
 20
40.5921412643
 30
0.0
 10
-81.9626551152
 20
40.662254604
 30
0.0
 10
-81.9636377694
 20
40.7230777294
 30
0.0
 10
-81.9646972096
 20
40.7740099444
 30
0.0
 10
-81.9657062283
 20
40.8146410837
 30
0.0
 10
-81.9669189217
 20
40.8444297208
 30
0.0
 10
-81.9676399706
 20
40.8626171082
 30
0.0
 10
-81.968740574
 20
40.871339438
 30
0.0
 10
-81.9689957163
 20
40.8740248567
 30
0.0
 10
-81.9694172943
 20
40.8747431161
 30
0.0
  0
SPLINE
  5
400
100
AcDbEntity
  8
RACCORDO
100
AcDbSpline
 62
250
  6
CONTINUOUS
 70
0
 71
3
 72
20
 73
16
 74
0
 42
0.0000001
 43
0.0000001
 44
0.0000000001
 40
0.0
 40
0.0
 40
0.0
 40
0.0
 40
0.0020820416
 40
0.0064860659
 40
0.0222711993
 40
0.0472559243
 40
0.0811980108
 40
0.123797138
 40
0.174639901
 40
0.2332602292
 40
0.2990941136
 40
0.4498875004
 40
0.6213549274
 40
0.8070508148
 40
1.0
 40
1.0
 40
1.0
 40
1.0
 10
-88.9305827057
 20
40.8747431161
 30
0.0
 10
-88.9310042832
 20
40.8740248563
 30
0.0
 10
-88.9312594257
 20
40.8713394379
 30
0.0
 10
-88.9323600289
 20
40.8626171076
 30
0.0
 10
-88.9330810788
 20
40.8444297209
 30
0.0
 10
-88.9342937719
 20
40.8146410837
 30
0.0
 10
-88.9353027904
 20
40.7740099445
 30
0.0
 10
-88.9363622304
 20
40.7230777293
 30
0.0
 10
-88.9373448846
 20
40.662254604
 30
0.0
 10
-88.9382775913
 20
40.5921412643
 30
0.0
 10
-88.9394779584
 20
40.4820448471
 30
0.0
 10
-88.9407158792
 20
40.3268073126
 30
0.0
 10
-88.9417822998
 20
40.1236210981
 30
0.0
 10
-88.9424412314
 20
39.9035704254
 30
0.0
 10
-88.9425865267
 20
39.7521078468
 30
0.0
 10
-88.9425864934
 20
39.6749258819
 30
0.0
  0
SPLINE
  5
401
100
AcDbEntity
  8
RACCORDO
100
AcDbSpline
 62
250
  6
CONTINUOUS
 70
0
 71
3
 72
20
 73
16
 74
0
 42
0.0000001
 43
0.0000001
 44
0.0000000001
 40
0.0
 40
0.0
 40
0.0
 40
0.0
 40
0.1929491851
 40
0.3786450726
 40
0.5501124996
 40
0.7009058864
 40
0.7667397707
 40
0.825360099
 40
0.876202862
 40
0.9188019892
 40
0.9527440756
 40
0.9777288006
 40
0.9935139344
 40
0.9979179586
 40
1.0
 40
1.0
 40
1.0
 40
1.0
 10
100.1749258819
 20
25.7074135063
 30
0.0
 10
100.2521078468
 20
25.7074134728
 30
0.0
 10
100.4035704254
 20
25.7075587699
 30
0.0
 10
100.6236210981
 20
25.7082176999
 30
0.0
 10
100.8268073126
 20
25.7092841205
 30
0.0
 10
100.982044847
 20
25.7105220419
 30
0.0
 10
101.0921412643
 20
25.7117224087
 30
0.0
 10
101.162254604
 20
25.7126551153
 30
0.0
 10
101.2230777294
 20
25.7136377694
 30
0.0
 10
101.2740099444
 20
25.7146972096
 30
0.0
 10
101.3146410837
 20
25.7157062283
 30
0.0
 10
101.3444297208
 20
25.7169189217
 30
0.0
 10
101.3626171082
 20
25.7176399706
 30
0.0
 10
101.371339438
 20
25.718740574
 30
0.0
 10
101.3740248567
 20
25.7189957163
 30
0.0
 10
101.3747431161
 20
25.7194172943
 30
0.0
  0
SPLINE
  5
402
100
AcDbEntity
  8
RACCORDO
100
AcDbSpline
 62
250
  6
CONTINUOUS
 70
0
 71
3
 72
20
 73
16
 74
0
 42
0.0000001
 43
0.0000001
 44
0.0000000001
 40
0.0
 40
0.0
 40
0.0
 40
0.0
 40
0.0020820416
 40
0.0064860659
 40
0.0222711993
 40
0.0472559243
 40
0.0811980108
 40
0.123797138
 40
0.174639901
 40
0.2332602292
 40
0.2990941136
 40
0.4498875004
 40
0.6213549274
 40
0.8070508148
 40
1.0
 40
1.0
 40
1.0
 40
1.0
 10
101.3747431161
 20
32.6805827057
 30
0.0
 10
101.3740248563
 20
32.6810042832
 30
0.0
 10
101.3713394379
 20
32.6812594257
 30
0.0
 10
101.3626171076
 20
32.6823600289
 30
0.0
 10
101.3444297209
 20
32.6830810788
 30
0.0
 10
101.3146410837
 20
32.6842937719
 30
0.0
 10
101.2740099445
 20
32.6853027904
 30
0.0
 10
101.2230777293
 20
32.6863622304
 30
0.0
 10
101.162254604
 20
32.6873448846
 30
0.0
 10
101.0921412643
 20
32.6882775913
 30
0.0
 10
100.9820448471
 20
32.6894779584
 30
0.0
 10
100.8268073126
 20
32.6907158792
 30
0.0
 10
100.6236210981
 20
32.6917822998
 30
0.0
 10
100.4035704254
 20
32.6924412314
 30
0.0
 10
100.2521078468
 20
32.6925865267
 30
0.0
 10
100.1749258819
 20
32.6925864934
 30
0.0
  0
SPLINE
  5
403
100
AcDbEntity
  8
RACCORDO
100
AcDbSpline
 62
250
  6
CONTINUOUS
 70
0
 71
3
 72
20
 73
16
 74
0
 42
0.0000001
 43
0.0000001
 44
0.0000000001
 40
0.0
 40
0.0
 40
0.0
 40
0.0
 40
0.1929491851
 40
0.3786450726
 40
0.5501124996
 40
0.7009058864
 40
0.7667397707
 40
0.825360099
 40
0.876202862
 40
0.9188019892
 40
0.9527440756
 40
0.9777288006
 40
0.9935139344
 40
0.9979179586
 40
1.0
 40
1.0
 40
1.0
 40
1.0
 10
81.9574135063
 20
-39.6749258819
 30
0.0
 10
81.9574134728
 20
-39.7521078468
 30
0.0
 10
81.9575587699
 20
-39.9035704254
 30
0.0
 10
81.9582176999
 20
-40.1236210981
 30
0.0
 10
81.9592841205
 20
-40.3268073126
 30
0.0
 10
81.9605220419
 20
-40.482044847
 30
0.0
 10
81.9617224087
 20
-40.5921412643
 30
0.0
 10
81.9626551152
 20
-40.662254604
 30
0.0
 10
81.9636377694
 20
-40.7230777294
 30
0.0
 10
81.9646972096
 20
-40.7740099444
 30
0.0
 10
81.9657062283
 20
-40.8146410837
 30
0.0
 10
81.9669189217
 20
-40.8444297208
 30
0.0
 10
81.9676399706
 20
-40.8626171082
 30
0.0
 10
81.968740574
 20
-40.871339438
 30
0.0
 10
81.9689957163
 20
-40.8740248567
 30
0.0
 10
81.9694172943
 20
-40.8747431161
 30
0.0
  0
SPLINE
  5
404
100
AcDbEntity
  8
RACCORDO
100
AcDbSpline
 62
250
  6
CONTINUOUS
 70
0
 71
3
 72
20
 73
16
 74
0
 42
0.0000001
 43
0.0000001
 44
0.0000000001
 40
0.0
 40
0.0
 40
0.0
 40
0.0
 40
0.0020820416
 40
0.0064860659
 40
0.0222711993
 40
0.0472559243
 40
0.0811980108
 40
0.123797138
 40
0.174639901
 40
0.2332602292
 40
0.2990941136
 40
0.4498875004
 40
0.6213549274
 40
0.8070508148
 40
1.0
 40
1.0
 40
1.0
 40
1.0
 10
88.9305827057
 20
-40.8747431161
 30
0.0
 10
88.9310042832
 20
-40.8740248563
 30
0.0
 10
88.9312594257
 20
-40.8713394379
 30
0.0
 10
88.9323600289
 20
-40.8626171076
 30
0.0
 10
88.9330810788
 20
-40.8444297209
 30
0.0
 10
88.9342937719
 20
-40.8146410837
 30
0.0
 10
88.9353027904
 20
-40.7740099445
 30
0.0
 10
88.9363622304
 20
-40.7230777293
 30
0.0
 10
88.9373448846
 20
-40.662254604
 30
0.0
 10
88.9382775913
 20
-40.5921412643
 30
0.0
 10
88.9394779584
 20
-40.482044847
 30
0.0
 10
88.9407158792
 20
-40.3268073126
 30
0.0
 10
88.9417822998
 20
-40.1236210981
 30
0.0
 10
88.9424412314
 20
-39.9035704254
 30
0.0
 10
88.9425865267
 20
-39.7521078468
 30
0.0
 10
88.9425864934
 20
-39.6749258819
 30
0.0
  0
SPLINE
  5
405
100
AcDbEntity
  8
RACCORDO
100
AcDbSpline
 62
250
  6
CONTINUOUS
 70
0
 71
3
 72
18
 73
14
 74
0
 42
0.0000001
 43
0.0000001
 44
0.0000000001
 40
0.0
 40
0.0
 40
0.0
 40
0.0
 40
0.1926173617
 40
0.3780239158
 40
0.5492573389
 40
0.6998597987
 40
0.8241864807
 40
0.875006317
 40
0.9176062728
 40
0.9516094238
 40
0.9767197896
 40
0.992782253
 40
1.0
 40
1.0
 40
1.0
 40
1.0
 10
100.9640533427
 20
31.6086513684
 30
0.0
 10
100.9640533771
 20
31.6408119579
 30
0.0
 10
100.963842749
 20
31.7039295353
 30
0.0
 10
100.9629013624
 20
31.7956322958
 30
0.0
 10
100.9613795299
 20
31.88031385
 30
0.0
 10
100.9593349771
 20
31.9547755458
 30
0.0
 10
100.9571763826
 20
32.0091376669
 30
0.0
 10
100.9551449605
 20
32.0454172002
 30
0.0
 10
100.9536775116
 20
32.0666883575
 30
0.0
 10
100.9521079748
 20
32.0834790072
 30
0.0
 10
100.9506728258
 20
32.0962369517
 30
0.0
 10
100.9489994017
 20
32.1036149097
 30
0.0
 10
100.9479809799
 20
32.1080366249
 30
0.0
 10
100.9469029106
 20
32.108575216
 30
0.0
  0
SPLINE
  5
406
100
AcDbEntity
  8
RACCORDO
100
AcDbSpline
 62
250
  6
CONTINUOUS
 70
0
 71
3
 72
18
 73
14
 74
0
 42
0.0000001
 43
0.0000001
 44
0.0000000001
 40
0.0
 40
0.0
 40
0.0
 40
0.0
 40
0.0072177308
 40
0.0232801869
 40
0.0483905236
 40
0.0823936632
 40
0.1249936103
 40
0.1758134587
 40
0.3001401931
 40
0.4507427341
 40
0.6219762201
 40
0.8073827733
 40
1.0
 40
1.0
 40
1.0
 40
1.0
 10
100.9469029106
 20
26.291424784
 30
0.0
 10
100.9479809803
 20
26.2919633682
 30
0.0
 10
100.9489994035
 20
26.2963850858
 30
0.0
 10
100.9506728309
 20
26.3037630284
 30
0.0
 10
100.9521079781
 20
26.3165209684
 30
0.0
 10
100.9536775131
 20
26.3333116085
 30
0.0
 10
100.9551449619
 20
26.3545827652
 30
0.0
 10
100.9571763822
 20
26.3908623078
 30
0.0
 10
100.9593349758
 20
26.4452244537
 30
0.0
 10
100.9613795281
 20
26.5196861825
 30
0.0
 10
100.9629013619
 20
26.604367761
 30
0.0
 10
100.9638427498
 20
26.6960705095
 30
0.0
 10
100.9640533764
 20
26.7591880645
 30
0.0
 10
100.9640533427
 20
26.7913486316
 30
0.0
  0
SPLINE
  5
407
100
AcDbEntity
  8
RACCORDO
100
AcDbSpline
 62
250
  6
CONTINUOUS
 70
0
 71
3
 72
18
 73
14
 74
0
 42
0.0000001
 43
0.0000001
 44
0.0000000001
 40
0.0
 40
0.0
 40
0.0
 40
0.0
 40
0.1926173617
 40
0.3780239158
 40
0.5492573389
 40
0.6998597987
 40
0.8241864807
 40
0.875006317
 40
0.9176062728
 40
0.9516094238
 40
0.9767197896
 40
0.992782253
 40
1.0
 40
1.0
 40
1.0
 40
1.0
 10
-87.8586513684
 20
40.4640533427
 30
0.0
 10
-87.8908119579
 20
40.4640533771
 30
0.0
 10
-87.9539295353
 20
40.463842749
 30
0.0
 10
-88.0456322958
 20
40.4629013624
 30
0.0
 10
-88.13031385
 20
40.4613795299
 30
0.0
 10
-88.2047755458
 20
40.4593349771
 30
0.0
 10
-88.2591376669
 20
40.4571763826
 30
0.0
 10
-88.2954172001
 20
40.4551449605
 30
0.0
 10
-88.3166883575
 20
40.4536775116
 30
0.0
 10
-88.3334790072
 20
40.4521079748
 30
0.0
 10
-88.3462369517
 20
40.4506728258
 30
0.0
 10
-88.3536149097
 20
40.4489994017
 30
0.0
 10
-88.3580366249
 20
40.4479809799
 30
0.0
 10
-88.358575216
 20
40.4469029106
 30
0.0
  0
SPLINE
  5
408
100
AcDbEntity
  8
RACCORDO
100
AcDbSpline
 62
250
  6
CONTINUOUS
 70
0
 71
3
 72
18
 73
14
 74
0
 42
0.0000001
 43
0.0000001
 44
0.0000000001
 40
0.0
 40
0.0
 40
0.0
 40
0.0
 40
0.0072177308
 40
0.0232801869
 40
0.0483905236
 40
0.0823936632
 40
0.1249936103
 40
0.1758134587
 40
0.3001401931
 40
0.4507427341
 40
0.6219762201
 40
0.8073827733
 40
1.0
 40
1.0
 40
1.0
 40
1.0
 10
-82.541424784
 20
40.4469029106
 30
0.0
 10
-82.5419633682
 20
40.4479809804
 30
0.0
 10
-82.5463850858
 20
40.4489994035
 30
0.0
 10
-82.5537630284
 20
40.4506728309
 30
0.0
 10
-82.5665209684
 20
40.4521079781
 30
0.0
 10
-82.5833116085
 20
40.4536775131
 30
0.0
 10
-82.6045827652
 20
40.4551449619
 30
0.0
 10
-82.6408623078
 20
40.4571763822
 30
0.0
 10
-82.6952244537
 20
40.4593349758
 30
0.0
 10
-82.7696861825
 20
40.4613795281
 30
0.0
 10
-82.854367761
 20
40.4629013619
 30
0.0
 10
-82.9460705095
 20
40.4638427498
 30
0.0
 10
-83.0091880645
 20
40.4640533764
 30
0.0
 10
-83.0413486316
 20
40.4640533427
 30
0.0
  0
SPLINE
  5
409
100
AcDbEntity
  8
RACCORDO
100
AcDbSpline
 62
250
  6
CONTINUOUS
 70
0
 71
3
 72
18
 73
14
 74
0
 42
0.0000001
 43
0.0000001
 44
0.0000000001
 40
0.0
 40
0.0
 40
0.0
 40
0.0
 40
0.0072177308
 40
0.0232801869
 40
0.0483905236
 40
0.0823936632
 40
0.1249936103
 40
0.1758134587
 40
0.3001401931
 40
0.4507427341
 40
0.6219762201
 40
0.8073827733
 40
1.0
 40
1.0
 40
1.0
 40
1.0
 10
-100.9469029106
 20
-26.291424784
 30
0.0
 10
-100.9479809803
 20
-26.2919633682
 30
0.0
 10
-100.9489994035
 20
-26.2963850858
 30
0.0
 10
-100.9506728309
 20
-26.3037630284
 30
0.0
 10
-100.9521079781
 20
-26.3165209683
 30
0.0
 10
-100.9536775131
 20
-26.3333116085
 30
0.0
 10
-100.9551449619
 20
-26.3545827652
 30
0.0
 10
-100.9571763822
 20
-26.3908623078
 30
0.0
 10
-100.9593349758
 20
-26.4452244537
 30
0.0
 10
-100.9613795281
 20
-26.5196861825
 30
0.0
 10
-100.9629013619
 20
-26.604367761
 30
0.0
 10
-100.9638427498
 20
-26.6960705095
 30
0.0
 10
-100.9640533764
 20
-26.7591880645
 30
0.0
 10
-100.9640533427
 20
-26.7913486316
 30
0.0
  0
SPLINE
  5
40A
100
AcDbEntity
  8
RACCORDO
100
AcDbSpline
 62
250
  6
CONTINUOUS
 70
0
 71
3
 72
18
 73
14
 74
0
 42
0.0000001
 43
0.0000001
 44
0.0000000001
 40
0.0
 40
0.0
 40
0.0
 40
0.0
 40
0.1926173617
 40
0.3780239158
 40
0.5492573389
 40
0.6998597987
 40
0.8241864807
 40
0.875006317
 40
0.9176062728
 40
0.9516094238
 40
0.9767197896
 40
0.992782253
 40
1.0
 40
1.0
 40
1.0
 40
1.0
 10
-100.9640533427
 20
-31.6086513684
 30
0.0
 10
-100.9640533771
 20
-31.6408119579
 30
0.0
 10
-100.963842749
 20
-31.7039295353
 30
0.0
 10
-100.9629013624
 20
-31.7956322958
 30
0.0
 10
-100.9613795299
 20
-31.88031385
 30
0.0
 10
-100.9593349771
 20
-31.9547755458
 30
0.0
 10
-100.9571763826
 20
-32.0091376669
 30
0.0
 10
-100.9551449605
 20
-32.0454172001
 30
0.0
 10
-100.9536775116
 20
-32.0666883575
 30
0.0
 10
-100.9521079748
 20
-32.0834790072
 30
0.0
 10
-100.9506728258
 20
-32.0962369517
 30
0.0
 10
-100.9489994017
 20
-32.1036149097
 30
0.0
 10
-100.9479809799
 20
-32.1080366249
 30
0.0
 10
-100.9469029106
 20
-32.108575216
 30
0.0
  0
SPLINE
  5
40B
100
AcDbEntity
  8
RACCORDO
100
AcDbSpline
 62
250
  6
CONTINUOUS
 70
0
 71
3
 72
18
 73
14
 74
0
 42
0.0000001
 43
0.0000001
 44
0.0000000001
 40
0.0
 40
0.0
 40
0.0
 40
0.0
 40
0.1926173617
 40
0.3780239158
 40
0.5492573389
 40
0.6998597987
 40
0.8241864807
 40
0.875006317
 40
0.9176062728
 40
0.9516094238
 40
0.9767197896
 40
0.992782253
 40
1.0
 40
1.0
 40
1.0
 40
1.0
 10
87.8586513684
 20
-40.4640533427
 30
0.0
 10
87.8908119579
 20
-40.4640533771
 30
0.0
 10
87.9539295353
 20
-40.463842749
 30
0.0
 10
88.0456322958
 20
-40.4629013624
 30
0.0
 10
88.13031385
 20
-40.4613795299
 30
0.0
 10
88.2047755458
 20
-40.4593349771
 30
0.0
 10
88.2591376669
 20
-40.4571763826
 30
0.0
 10
88.2954172001
 20
-40.4551449605
 30
0.0
 10
88.3166883575
 20
-40.4536775116
 30
0.0
 10
88.3334790072
 20
-40.4521079748
 30
0.0
 10
88.3462369517
 20
-40.4506728258
 30
0.0
 10
88.3536149097
 20
-40.4489994017
 30
0.0
 10
88.3580366249
 20
-40.4479809799
 30
0.0
 10
88.358575216
 20
-40.4469029106
 30
0.0
  0
SPLINE
  5
40C
100
AcDbEntity
  8
RACCORDO
100
AcDbSpline
 62
250
  6
CONTINUOUS
 70
0
 71
3
 72
18
 73
14
 74
0
 42
0.0000001
 43
0.0000001
 44
0.0000000001
 40
0.0
 40
0.0
 40
0.0
 40
0.0
 40
0.0072177308
 40
0.0232801869
 40
0.0483905236
 40
0.0823936632
 40
0.1249936103
 40
0.1758134587
 40
0.3001401931
 40
0.4507427341
 40
0.6219762201
 40
0.8073827733
 40
1.0
 40
1.0
 40
1.0
 40
1.0
 10
82.541424784
 20
-40.4469029106
 30
0.0
 10
82.5419633682
 20
-40.4479809803
 30
0.0
 10
82.5463850858
 20
-40.4489994035
 30
0.0
 10
82.5537630284
 20
-40.4506728309
 30
0.0
 10
82.5665209684
 20
-40.4521079781
 30
0.0
 10
82.5833116085
 20
-40.4536775131
 30
0.0
 10
82.6045827652
 20
-40.4551449619
 30
0.0
 10
82.6408623078
 20
-40.4571763822
 30
0.0
 10
82.6952244537
 20
-40.4593349758
 30
0.0
 10
82.7696861825
 20
-40.4613795281
 30
0.0
 10
82.854367761
 20
-40.4629013619
 30
0.0
 10
82.9460705095
 20
-40.4638427498
 30
0.0
 10
83.0091880645
 20
-40.4640533764
 30
0.0
 10
83.0413486316
 20
-40.4640533427
 30
0.0
  0
SPLINE
  5
40D
100
AcDbEntity
  8
RACCORDO
100
AcDbSpline
 62
250
  6
CONTINUOUS
 70
0
 71
3
 72
18
 73
14
 74
0
 42
0.0000001
 43
0.0000001
 44
0.0000000001
 40
0.0
 40
0.0
 40
0.0
 40
0.0
 40
0.2063714157
 40
0.397492079
 40
0.5685002569
 40
0.7153413522
 40
0.834387984
 40
0.8825633254
 40
0.9227617064
 40
0.9547610668
 40
0.9783564434
 40
0.9934282579
 40
1.0
 40
1.0
 40
1.0
 40
1.0
 10
82.45788666
 20
-39.882721145
 30
0.0
 10
82.4580704607
 20
-39.9165968747
 30
0.0
 10
82.4585185967
 20
-39.9818445778
 30
0.0
 10
82.4594711931
 20
-40.0751598206
 30
0.0
 10
82.4606554014
 20
-40.1587012398
 30
0.0
 10
82.4620453723
 20
-40.2304017943
 30
0.0
 10
82.4633950044
 20
-40.2819473686
 30
0.0
 10
82.4646239686
 20
-40.315960814
 30
0.0
 10
82.4654641724
 20
-40.3357309254
 30
0.0
 10
82.4664266172
 20
-40.3513525472
 30
0.0
 10
82.4671156535
 20
-40.3631071405
 30
0.0
 10
82.4683154367
 20
-40.3701300511
 30
0.0
 10
82.4685735963
 20
-40.3740612426
 30
0.0
 10
82.4693411419
 20
-40.3748192685
 30
0.0
  0
SPLINE
  5
40E
100
AcDbEntity
  8
RACCORDO
100
AcDbSpline
 62
250
  6
CONTINUOUS
 70
0
 71
3
 72
18
 73
14
 74
0
 42
0.0000001
 43
0.0000001
 44
0.0000000001
 40
0.0
 40
0.0
 40
0.0
 40
0.0
 40
0.0065717374
 40
0.021643561
 40
0.0452389429
 40
0.0772382975
 40
0.1174366703
 40
0.1656120107
 40
0.2846586528
 40
0.4314997432
 40
0.6025079225
 40
0.7936285905
 40
1.0
 40
1.0
 40
1.0
 40
1.0
 10
88.4306588581
 20
-40.3748192685
 30
0.0
 10
88.4314264068
 20
-40.3740612468
 30
0.0
 10
88.4316845604
 20
-40.3701300474
 30
0.0
 10
88.4328843479
 20
-40.3631071412
 30
0.0
 10
88.4335733819
 20
-40.3513525434
 30
0.0
 10
88.4345358279
 20
-40.3357309243
 30
0.0
 10
88.4353760315
 20
-40.3159608149
 30
0.0
 10
88.4366049958
 20
-40.2819473695
 30
0.0
 10
88.4379546275
 20
-40.2304017943
 30
0.0
 10
88.4393445988
 20
-40.1587012387
 30
0.0
 10
88.4405288069
 20
-40.0751598194
 30
0.0
 10
88.4414814032
 20
-39.9818445765
 30
0.0
 10
88.4419295393
 20
-39.9165968736
 30
0.0
 10
88.4421133401
 20
-39.882721145
 30
0.0
  0
LINE
  5
40F
100
AcDbEntity
  8
RACCORDO
100
AcDbLine
 62
7
  6
CONTINUOUS
 10
82.4564316619
 20
-39.8821703245
 11
82.4578866022
 21
-39.8827210873
  0
LINE
  5
410
100
AcDbEntity
  8
RACCORDO
100
AcDbLine
 62
7
  6
CONTINUOUS
 10
88.4421133978
 20
-39.8827210873
 11
88.4435683378
 21
-39.8821703245
  0
SPLINE
  5
411
100
AcDbEntity
  8
RACCORDO
100
AcDbSpline
 62
250
  6
CONTINUOUS
 70
0
 71
3
 72
18
 73
14
 74
0
 42
0.0000001
 43
0.0000001
 44
0.0000000001
 40
0.0
 40
0.0
 40
0.0
 40
0.0
 40
0.0065717374
 40
0.021643561
 40
0.0452389429
 40
0.0772382975
 40
0.1174366703
 40
0.1656120107
 40
0.2846586528
 40
0.4314997432
 40
0.6025079225
 40
0.7936285905
 40
1.0
 40
1.0
 40
1.0
 40
1.0
 10
-88.4306588581
 20
40.3748192685
 30
0.0
 10
-88.4314264068
 20
40.3740612468
 30
0.0
 10
-88.4316845604
 20
40.3701300474
 30
0.0
 10
-88.4328843479
 20
40.3631071412
 30
0.0
 10
-88.4335733819
 20
40.3513525434
 30
0.0
 10
-88.4345358279
 20
40.3357309243
 30
0.0
 10
-88.4353760315
 20
40.3159608149
 30
0.0
 10
-88.4366049958
 20
40.2819473695
 30
0.0
 10
-88.4379546275
 20
40.2304017943
 30
0.0
 10
-88.4393445988
 20
40.1587012387
 30
0.0
 10
-88.4405288069
 20
40.0751598194
 30
0.0
 10
-88.4414814032
 20
39.9818445765
 30
0.0
 10
-88.4419295393
 20
39.9165968736
 30
0.0
 10
-88.4421133401
 20
39.882721145
 30
0.0
  0
LINE
  5
412
100
AcDbEntity
  8
RACCORDO
100
AcDbLine
 62
7
  6
CONTINUOUS
 10
-82.4564316619
 20
39.8821703245
 11
-82.4578866022
 21
39.8827210873
  0
LINE
  5
413
100
AcDbEntity
  8
RACCORDO
100
AcDbLine
 62
7
  6
CONTINUOUS
 10
-88.4421133978
 20
39.8827210873
 11
-88.4435683378
 21
39.8821703245
  0
SPLINE
  5
414
100
AcDbEntity
  8
RACCORDO
100
AcDbSpline
 62
250
  6
CONTINUOUS
 70
0
 71
3
 72
18
 73
14
 74
0
 42
0.0000001
 43
0.0000001
 44
0.0000000001
 40
0.0
 40
0.0
 40
0.0
 40
0.0
 40
0.2063714157
 40
0.397492079
 40
0.5685002569
 40
0.7153413522
 40
0.834387984
 40
0.8825633254
 40
0.9227617064
 40
0.9547610668
 40
0.9783564434
 40
0.9934282579
 40
1.0
 40
1.0
 40
1.0
 40
1.0
 10
-82.45788666
 20
39.882721145
 30
0.0
 10
-82.4580704607
 20
39.9165968747
 30
0.0
 10
-82.4585185967
 20
39.9818445778
 30
0.0
 10
-82.4594711931
 20
40.0751598206
 30
0.0
 10
-82.4606554014
 20
40.1587012398
 30
0.0
 10
-82.4620453723
 20
40.2304017943
 30
0.0
 10
-82.4633950044
 20
40.2819473686
 30
0.0
 10
-82.4646239686
 20
40.315960814
 30
0.0
 10
-82.4654641724
 20
40.3357309254
 30
0.0
 10
-82.4664266172
 20
40.3513525472
 30
0.0
 10
-82.4671156535
 20
40.3631071406
 30
0.0
 10
-82.4683154367
 20
40.3701300511
 30
0.0
 10
-82.4685735963
 20
40.3740612426
 30
0.0
 10
-82.4693411419
 20
40.3748192685
 30
0.0
  0
SPLINE
  5
415
100
AcDbEntity
  8
RACCORDO
100
AcDbSpline
 62
250
  6
CONTINUOUS
 70
0
 71
3
 72
18
 73
14
 74
0
 42
0.0000001
 43
0.0000001
 44
0.0000000001
 40
0.0
 40
0.0
 40
0.0
 40
0.0
 40
0.0065717374
 40
0.021643561
 40
0.0452389429
 40
0.0772382975
 40
0.1174366703
 40
0.1656120107
 40
0.2846586528
 40
0.4314997432
 40
0.6025079225
 40
0.7936285905
 40
1.0
 40
1.0
 40
1.0
 40
1.0
 10
-100.8748192685
 20
-32.1806588581
 30
0.0
 10
-100.8740612468
 20
-32.1814264068
 30
0.0
 10
-100.8701300474
 20
-32.1816845604
 30
0.0
 10
-100.8631071412
 20
-32.1828843479
 30
0.0
 10
-100.8513525434
 20
-32.1835733819
 30
0.0
 10
-100.8357309243
 20
-32.1845358279
 30
0.0
 10
-100.8159608149
 20
-32.1853760315
 30
0.0
 10
-100.7819473695
 20
-32.1866049958
 30
0.0
 10
-100.7304017943
 20
-32.1879546275
 30
0.0
 10
-100.6587012387
 20
-32.1893445988
 30
0.0
 10
-100.5751598194
 20
-32.1905288069
 30
0.0
 10
-100.4818445765
 20
-32.1914814032
 30
0.0
 10
-100.4165968736
 20
-32.1919295393
 30
0.0
 10
-100.382721145
 20
-32.1921133401
 30
0.0
  0
LINE
  5
416
100
AcDbEntity
  8
RACCORDO
100
AcDbLine
 62
7
  6
CONTINUOUS
 10
-100.3821703245
 20
-26.2064316619
 11
-100.3827210873
 21
-26.2078866022
  0
LINE
  5
417
100
AcDbEntity
  8
RACCORDO
100
AcDbLine
 62
7
  6
CONTINUOUS
 10
-100.3827210873
 20
-32.1921133978
 11
-100.3821703245
 21
-32.1935683378
  0
SPLINE
  5
418
100
AcDbEntity
  8
RACCORDO
100
AcDbSpline
 62
250
  6
CONTINUOUS
 70
0
 71
3
 72
18
 73
14
 74
0
 42
0.0000001
 43
0.0000001
 44
0.0000000001
 40
0.0
 40
0.0
 40
0.0
 40
0.0
 40
0.2063714157
 40
0.397492079
 40
0.5685002569
 40
0.7153413522
 40
0.834387984
 40
0.8825633254
 40
0.9227617064
 40
0.9547610668
 40
0.9783564434
 40
0.9934282579
 40
1.0
 40
1.0
 40
1.0
 40
1.0
 10
-100.382721145
 20
-26.20788666
 30
0.0
 10
-100.4165968747
 20
-26.2080704607
 30
0.0
 10
-100.4818445778
 20
-26.2085185967
 30
0.0
 10
-100.5751598206
 20
-26.2094711931
 30
0.0
 10
-100.6587012398
 20
-26.2106554014
 30
0.0
 10
-100.7304017943
 20
-26.2120453723
 30
0.0
 10
-100.7819473686
 20
-26.2133950044
 30
0.0
 10
-100.815960814
 20
-26.2146239685
 30
0.0
 10
-100.8357309254
 20
-26.2154641724
 30
0.0
 10
-100.8513525472
 20
-26.2164266172
 30
0.0
 10
-100.8631071405
 20
-26.2171156535
 30
0.0
 10
-100.8701300511
 20
-26.2183154367
 30
0.0
 10
-100.8740612426
 20
-26.2185735963
 30
0.0
 10
-100.8748192685
 20
-26.2193411419
 30
0.0
  0
SPLINE
  5
419
100
AcDbEntity
  8
RACCORDO
100
AcDbSpline
 62
250
  6
CONTINUOUS
 70
0
 71
3
 72
18
 73
14
 74
0
 42
0.0000001
 43
0.0000001
 44
0.0000000001
 40
0.0
 40
0.0
 40
0.0
 40
0.0
 40
0.0065717374
 40
0.021643561
 40
0.0452389429
 40
0.0772382975
 40
0.1174366703
 40
0.1656120107
 40
0.2846586528
 40
0.4314997432
 40
0.6025079225
 40
0.7936285905
 40
1.0
 40
1.0
 40
1.0
 40
1.0
 10
100.8748192685
 20
32.1806588581
 30
0.0
 10
100.8740612468
 20
32.1814264068
 30
0.0
 10
100.8701300474
 20
32.1816845604
 30
0.0
 10
100.8631071412
 20
32.1828843479
 30
0.0
 10
100.8513525434
 20
32.1835733819
 30
0.0
 10
100.8357309243
 20
32.1845358279
 30
0.0
 10
100.8159608149
 20
32.1853760315
 30
0.0
 10
100.7819473695
 20
32.1866049958
 30
0.0
 10
100.7304017943
 20
32.1879546275
 30
0.0
 10
100.6587012387
 20
32.1893445988
 30
0.0
 10
100.5751598194
 20
32.1905288069
 30
0.0
 10
100.4818445765
 20
32.1914814032
 30
0.0
 10
100.4165968736
 20
32.1919295393
 30
0.0
 10
100.382721145
 20
32.1921133401
 30
0.0
  0
LINE
  5
41A
100
AcDbEntity
  8
RACCORDO
100
AcDbLine
 62
7
  6
CONTINUOUS
 10
100.3821703245
 20
26.2064316619
 11
100.3827210873
 21
26.2078866022
  0
LINE
  5
41B
100
AcDbEntity
  8
RACCORDO
100
AcDbLine
 62
7
  6
CONTINUOUS
 10
100.3827210873
 20
32.1921133978
 11
100.3821703245
 21
32.1935683378
  0
SPLINE
  5
41C
100
AcDbEntity
  8
RACCORDO
100
AcDbSpline
 62
250
  6
CONTINUOUS
 70
0
 71
3
 72
18
 73
14
 74
0
 42
0.0000001
 43
0.0000001
 44
0.0000000001
 40
0.0
 40
0.0
 40
0.0
 40
0.0
 40
0.2063714157
 40
0.397492079
 40
0.5685002569
 40
0.7153413522
 40
0.834387984
 40
0.8825633254
 40
0.9227617064
 40
0.9547610668
 40
0.9783564434
 40
0.9934282579
 40
1.0
 40
1.0
 40
1.0
 40
1.0
 10
100.382721145
 20
26.20788666
 30
0.0
 10
100.4165968747
 20
26.2080704607
 30
0.0
 10
100.4818445778
 20
26.2085185967
 30
0.0
 10
100.5751598206
 20
26.2094711931
 30
0.0
 10
100.6587012398
 20
26.2106554014
 30
0.0
 10
100.7304017943
 20
26.2120453723
 30
0.0
 10
100.7819473686
 20
26.2133950044
 30
0.0
 10
100.815960814
 20
26.2146239686
 30
0.0
 10
100.8357309254
 20
26.2154641724
 30
0.0
 10
100.8513525472
 20
26.2164266172
 30
0.0
 10
100.8631071405
 20
26.2171156536
 30
0.0
 10
100.8701300511
 20
26.2183154367
 30
0.0
 10
100.8740612426
 20
26.2185735963
 30
0.0
 10
100.8748192685
 20
26.2193411419
 30
0.0
  0
SPLINE
  5
41D
100
AcDbEntity
  8
RACCORDO
100
AcDbSpline
 62
250
  6
CONTINUOUS
 70
0
 71
3
 72
20
 73
16
 74
0
 42
0.0000001
 43
0.0000001
 44
0.0000000001
 40
0.0
 40
0.0
 40
0.0
 40
0.0
 40
0.0021925206
 40
0.0066443609
 40
0.0224752704
 40
0.0474715193
 40
0.0814246252
 40
0.1240175046
 40
0.1748617378
 40
0.2334712425
 40
0.2993051012
 40
0.450082085
 40
0.6215227005
 40
0.8071527591
 40
1.0
 40
1.0
 40
1.0
 40
1.0
 10
-101.4468267582
 20
-25.7915009364
 30
0.0
 10
-101.4473440409
 20
-25.7920176076
 30
0.0
 10
-101.4478584055
 20
-25.7943323636
 30
0.0
 10
-101.4492621078
 20
-25.8015201527
 30
0.0
 10
-101.4504558786
 20
-25.8167645294
 30
0.0
 10
-101.4520993326
 20
-25.8415416695
 30
0.0
 10
-101.4535788468
 20
-25.8754164041
 30
0.0
 10
-101.4550791499
 20
-25.9178523064
 30
0.0
 10
-101.4564874709
 20
-25.9685405189
 30
0.0
 10
-101.4578191616
 20
-26.0269747424
 30
0.0
 10
-101.4595341908
 20
-26.1187344619
 30
0.0
 10
-101.461302399
 20
-26.248121947
 30
0.0
 10
-101.4628266915
 20
-26.4174621099
 30
0.0
 10
-101.4637660413
 20
-26.6008351656
 30
0.0
 10
-101.4639779818
 20
-26.7270419704
 30
0.0
 10
-101.4639771903
 20
-26.7913486316
 30
0.0
  0
SPLINE
  5
41E
100
AcDbEntity
  8
RACCORDO
100
AcDbSpline
 62
250
  6
CONTINUOUS
 70
0
 71
3
 72
20
 73
16
 74
0
 42
0.0000001
 43
0.0000001
 44
0.0000000001
 40
0.0
 40
0.0
 40
0.0
 40
0.0
 40
0.1928473721
 40
0.3784774327
 40
0.549917994
 40
0.7006949058
 40
0.7665287329
 40
0.8251382189
 40
0.8759824385
 40
0.9185753255
 40
0.952528434
 40
0.9775246972
 40
0.9933556135
 40
0.9978074652
 40
1.0
 40
1.0
 40
1.0
 40
1.0
 10
-101.4639771903
 20
-31.6086513684
 30
0.0
 10
-101.4639779992
 20
-31.6729580731
 30
0.0
 10
-101.463766029
 20
-31.7991649219
 30
0.0
 10
-101.4628266944
 20
-31.9825380034
 30
0.0
 10
-101.4613023971
 20
-32.1518781243
 30
0.0
 10
-101.4595341912
 20
-32.2812655564
 30
0.0
 10
-101.4578191625
 20
-32.3730252348
 30
0.0
 10
-101.4564874732
 20
-32.431459437
 30
0.0
 10
-101.4550791519
 20
-32.4821476406
 30
0.0
 10
-101.4535788493
 20
-32.5245835429
 30
0.0
 10
-101.4520993338
 20
-32.5584582823
 30
0.0
 10
-101.4504558884
 20
-32.5832354379
 30
0.0
 10
-101.4492621055
 20
-32.5984798119
 30
0.0
 10
-101.4478583962
 20
-32.6056676242
 30
0.0
 10
-101.4473440328
 20
-32.6079823777
 30
0.0
 10
-101.4468267582
 20
-32.6084990636
 30
0.0
  0
SPLINE
  5
41F
100
AcDbEntity
  8
DRAFT
100
AcDbSpline
 62
7
  6
CONTINUOUS
 70
0
 71
3
 72
27
 73
23
 74
0
 42
0.0000001
 43
0.0000001
 44
0.0000000001
 40
0.0
 40
0.0
 40
0.0
 40
0.0
 40
0.1950104356
 40
0.382511364
 40
0.471185087
 40
0.5553186175
 40
0.6341018753
 40
0.7067787358
 40
0.772648746
 40
0.831076033
 40
0.881502073
 40
0.9035590975
 40
0.9234420102
 40
0.9411005547
 40
0.9564938547
 40
0.9695880486
 40
0.9803507497
 40
0.9887602521
 40
0.9948063186
 40
0.9984943189
 40
0.9994830981
 40
1.0
 40
1.0
 40
1.0
 40
1.0
 10
-68.0
 20
41.3172396544
 30
0.0
 10
-67.2498707217
 20
41.3172396544
 30
0.0
 10
-65.7784971869
 20
41.3147554002
 30
0.0
 10
-63.9660513086
 20
41.3053615773
 30
0.0
 10
-62.5801316488
 20
41.2939892621
 30
0.0
 10
-61.6124122605
 20
41.2839279262
 30
0.0
 10
-60.7062489547
 20
41.2722806783
 30
0.0
 10
-59.8703660829
 20
41.2591669606
 30
0.0
 10
-59.11281889
 20
41.2447275731
 30
0.0
 10
-58.440905501
 20
41.2291104268
 30
0.0
 10
-57.9375462493
 20
41.2147145877
 30
0.0
 10
-57.5824600346
 20
41.2024691396
 30
0.0
 10
-57.3533828992
 20
41.1935075607
 30
0.0
 10
-57.149964315
 20
41.1843770133
 30
0.0
 10
-56.9727060058
 20
41.1751160343
 30
0.0
 10
-56.8219907213
 20
41.1657401636
 30
0.0
 10
-56.6982880151
 20
41.1563714417
 30
0.0
 10
-56.6015663351
 20
41.1468934645
 30
0.0
 10
-56.5327222694
 20
41.1379621399
 30
0.0
 10
-56.4916053891
 20
41.1293352402
 30
0.0
 10
-56.4734164579
 20
41.1226757585
 30
0.0
 10
-56.4685404019
 20
41.117884126
 30
0.0
 10
-56.4685924655
 20
41.1158964873
 30
0.0
  0
SPLINE
  5
420
100
AcDbEntity
  8
DRAFT
100
AcDbSpline
 62
7
  6
CONTINUOUS
 70
0
 71
3
 72
27
 73
23
 74
0
 42
0.0000001
 43
0.0000001
 44
0.0000000001
 40
0.0
 40
0.0
 40
0.0
 40
0.0
 40
0.1950104356
 40
0.382511364
 40
0.471185087
 40
0.5553186175
 40
0.6341018753
 40
0.7067787358
 40
0.772648746
 40
0.831076033
 40
0.881502073
 40
0.9035590975
 40
0.9234420102
 40
0.9411005547
 40
0.9564938547
 40
0.9695880486
 40
0.9803507497
 40
0.9887602521
 40
0.9948063186
 40
0.9984943189
 40
0.9994830981
 40
1.0
 40
1.0
 40
1.0
 40
1.0
 10
-0.0
 20
41.3172396544
 30
0.0
 10
0.7501292783
 20
41.3172396544
 30
0.0
 10
2.2215028131
 20
41.3147554002
 30
0.0
 10
4.0339486914
 20
41.3053615773
 30
0.0
 10
5.4198683512
 20
41.2939892621
 30
0.0
 10
6.3875877395
 20
41.2839279262
 30
0.0
 10
7.2937510453
 20
41.2722806783
 30
0.0
 10
8.1296339171
 20
41.2591669606
 30
0.0
 10
8.88718111
 20
41.2447275731
 30
0.0
 10
9.559094499
 20
41.2291104268
 30
0.0
 10
10.0624537507
 20
41.2147145877
 30
0.0
 10
10.4175399654
 20
41.2024691396
 30
0.0
 10
10.6466171008
 20
41.1935075607
 30
0.0
 10
10.850035685
 20
41.1843770133
 30
0.0
 10
11.0272939942
 20
41.1751160343
 30
0.0
 10
11.1780092787
 20
41.1657401636
 30
0.0
 10
11.3017119849
 20
41.1563714417
 30
0.0
 10
11.3984336649
 20
41.1468934645
 30
0.0
 10
11.4672777306
 20
41.1379621399
 30
0.0
 10
11.5083946109
 20
41.1293352402
 30
0.0
 10
11.5265835421
 20
41.1226757585
 30
0.0
 10
11.5314595981
 20
41.117884126
 30
0.0
 10
11.5314075345
 20
41.1158964873
 30
0.0
  0
SPLINE
  5
421
100
AcDbEntity
  8
DRAFT
100
AcDbSpline
 62
7
  6
CONTINUOUS
 70
0
 71
3
 72
27
 73
23
 74
0
 42
0.0000001
 43
0.0000001
 44
0.0000000001
 40
0.0
 40
0.0
 40
0.0
 40
0.0
 40
0.1950104356
 40
0.382511364
 40
0.471185087
 40
0.5553186175
 40
0.6341018753
 40
0.7067787358
 40
0.772648746
 40
0.831076033
 40
0.881502073
 40
0.9035590975
 40
0.9234420102
 40
0.9411005547
 40
0.9564938547
 40
0.9695880486
 40
0.9803507497
 40
0.9887602521
 40
0.9948063186
 40
0.9984943189
 40
0.9994830981
 40
1.0
 40
1.0
 40
1.0
 40
1.0
 10
68.0
 20
41.3172396544
 30
0.0
 10
68.7501292783
 20
41.3172396544
 30
0.0
 10
70.2215028131
 20
41.3147554002
 30
0.0
 10
72.0339486914
 20
41.3053615773
 30
0.0
 10
73.4198683512
 20
41.2939892621
 30
0.0
 10
74.3875877395
 20
41.2839279262
 30
0.0
 10
75.2937510453
 20
41.2722806783
 30
0.0
 10
76.1296339171
 20
41.2591669606
 30
0.0
 10
76.88718111
 20
41.2447275731
 30
0.0
 10
77.559094499
 20
41.2291104268
 30
0.0
 10
78.0624537507
 20
41.2147145877
 30
0.0
 10
78.4175399654
 20
41.2024691396
 30
0.0
 10
78.6466171008
 20
41.1935075607
 30
0.0
 10
78.850035685
 20
41.1843770133
 30
0.0
 10
79.0272939942
 20
41.1751160343
 30
0.0
 10
79.1780092787
 20
41.1657401636
 30
0.0
 10
79.3017119849
 20
41.1563714417
 30
0.0
 10
79.3984336649
 20
41.1468934645
 30
0.0
 10
79.4672777306
 20
41.1379621399
 30
0.0
 10
79.5083946109
 20
41.1293352402
 30
0.0
 10
79.5265835421
 20
41.1226757585
 30
0.0
 10
79.5314595981
 20
41.117884126
 30
0.0
 10
79.5314075345
 20
41.1158964873
 30
0.0
  0
SPLINE
  5
422
100
AcDbEntity
  8
RACCORDO
100
AcDbSpline
 62
250
  6
CONTINUOUS
 70
0
 71
3
 72
20
 73
16
 74
0
 42
0.0000001
 43
0.0000001
 44
0.0000000001
 40
0.0
 40
0.0
 40
0.0
 40
0.0
 40
0.0021925206
 40
0.0066443609
 40
0.0224752704
 40
0.0474715193
 40
0.0814246252
 40
0.1240175046
 40
0.1748617378
 40
0.2334712425
 40
0.2993051012
 40
0.450082085
 40
0.6215227005
 40
0.8071527591
 40
1.0
 40
1.0
 40
1.0
 40
1.0
 10
-82.0415009364
 20
40.9468267582
 30
0.0
 10
-82.0420176076
 20
40.9473440409
 30
0.0
 10
-82.0443323636
 20
40.9478584055
 30
0.0
 10
-82.0515201527
 20
40.9492621078
 30
0.0
 10
-82.0667645295
 20
40.9504558786
 30
0.0
 10
-82.0915416695
 20
40.9520993326
 30
0.0
 10
-82.1254164041
 20
40.9535788468
 30
0.0
 10
-82.1678523064
 20
40.9550791499
 30
0.0
 10
-82.2185405189
 20
40.9564874709
 30
0.0
 10
-82.2769747424
 20
40.9578191616
 30
0.0
 10
-82.3687344619
 20
40.9595341908
 30
0.0
 10
-82.498121947
 20
40.961302399
 30
0.0
 10
-82.6674621099
 20
40.9628266915
 30
0.0
 10
-82.8508351656
 20
40.9637660413
 30
0.0
 10
-82.9770419704
 20
40.9639779818
 30
0.0
 10
-83.0413486316
 20
40.9639771903
 30
0.0
  0
SPLINE
  5
423
100
AcDbEntity
  8
RACCORDO
100
AcDbSpline
 62
250
  6
CONTINUOUS
 70
0
 71
3
 72
20
 73
16
 74
0
 42
0.0000001
 43
0.0000001
 44
0.0000000001
 40
0.0
 40
0.0
 40
0.0
 40
0.0
 40
0.1928473721
 40
0.3784774327
 40
0.549917994
 40
0.7006949058
 40
0.7665287329
 40
0.8251382189
 40
0.8759824385
 40
0.9185753255
 40
0.952528434
 40
0.9775246972
 40
0.9933556135
 40
0.9978074652
 40
1.0
 40
1.0
 40
1.0
 40
1.0
 10
-87.8586513684
 20
40.9639771903
 30
0.0
 10
-87.9229580731
 20
40.9639779992
 30
0.0
 10
-88.0491649219
 20
40.963766029
 30
0.0
 10
-88.2325380034
 20
40.9628266944
 30
0.0
 10
-88.4018781243
 20
40.9613023971
 30
0.0
 10
-88.5312655564
 20
40.9595341912
 30
0.0
 10
-88.6230252348
 20
40.9578191625
 30
0.0
 10
-88.681459437
 20
40.9564874732
 30
0.0
 10
-88.7321476406
 20
40.9550791519
 30
0.0
 10
-88.7745835429
 20
40.9535788493
 30
0.0
 10
-88.8084582823
 20
40.9520993338
 30
0.0
 10
-88.8332354379
 20
40.9504558884
 30
0.0
 10
-88.8484798119
 20
40.9492621055
 30
0.0
 10
-88.8556676242
 20
40.9478583962
 30
0.0
 10
-88.8579823777
 20
40.9473440328
 30
0.0
 10
-88.8584990636
 20
40.9468267582
 30
0.0
  0
SPLINE
  5
424
100
AcDbEntity
  8
DRAFT
100
AcDbSpline
 62
7
  6
CONTINUOUS
 70
0
 71
3
 72
27
 73
23
 74
0
 42
0.0000001
 43
0.0000001
 44
0.0000000001
 40
0.0
 40
0.0
 40
0.0
 40
0.0
 40
0.1950104356
 40
0.382511364
 40
0.471185087
 40
0.5553186175
 40
0.6341018753
 40
0.7067787358
 40
0.772648746
 40
0.831076033
 40
0.881502073
 40
0.9035590975
 40
0.9234420102
 40
0.9411005547
 40
0.9564938547
 40
0.9695880486
 40
0.9803507497
 40
0.9887602521
 40
0.9948063186
 40
0.9984943189
 40
0.9994830981
 40
1.0
 40
1.0
 40
1.0
 40
1.0
 10
101.8172396544
 20
0.0
 30
0.0
 10
101.8172396544
 20
0.7501292783
 30
0.0
 10
101.8147554002
 20
2.2215028131
 30
0.0
 10
101.8053615773
 20
4.0339486914
 30
0.0
 10
101.7939892621
 20
5.4198683512
 30
0.0
 10
101.7839279262
 20
6.3875877395
 30
0.0
 10
101.7722806783
 20
7.2937510453
 30
0.0
 10
101.7591669606
 20
8.1296339172
 30
0.0
 10
101.7447275731
 20
8.88718111
 30
0.0
 10
101.7291104268
 20
9.559094499
 30
0.0
 10
101.7147145877
 20
10.0624537507
 30
0.0
 10
101.7024691396
 20
10.4175399654
 30
0.0
 10
101.6935075607
 20
10.6466171008
 30
0.0
 10
101.6843770133
 20
10.850035685
 30
0.0
 10
101.6751160343
 20
11.0272939942
 30
0.0
 10
101.6657401636
 20
11.1780092787
 30
0.0
 10
101.6563714417
 20
11.3017119849
 30
0.0
 10
101.6468934645
 20
11.3984336649
 30
0.0
 10
101.6379621399
 20
11.4672777306
 30
0.0
 10
101.6293352402
 20
11.5083946109
 30
0.0
 10
101.6226757585
 20
11.5265835421
 30
0.0
 10
101.617884126
 20
11.5314595981
 30
0.0
 10
101.6158964872
 20
11.5314075345
 30
0.0
  0
SPLINE
  5
425
100
AcDbEntity
  8
RACCORDO
100
AcDbSpline
 62
250
  6
CONTINUOUS
 70
0
 71
3
 72
20
 73
16
 74
0
 42
0.0000001
 43
0.0000001
 44
0.0000000001
 40
0.0
 40
0.0
 40
0.0
 40
0.0
 40
0.0021925206
 40
0.0066443609
 40
0.0224752704
 40
0.0474715193
 40
0.0814246252
 40
0.1240175046
 40
0.1748617378
 40
0.2334712425
 40
0.2993051012
 40
0.450082085
 40
0.6215227005
 40
0.8071527591
 40
1.0
 40
1.0
 40
1.0
 40
1.0
 10
101.4468267582
 20
25.7915009364
 30
0.0
 10
101.4473440409
 20
25.7920176076
 30
0.0
 10
101.4478584055
 20
25.7943323636
 30
0.0
 10
101.4492621078
 20
25.8015201527
 30
0.0
 10
101.4504558786
 20
25.8167645295
 30
0.0
 10
101.4520993326
 20
25.8415416695
 30
0.0
 10
101.4535788468
 20
25.8754164041
 30
0.0
 10
101.4550791499
 20
25.9178523064
 30
0.0
 10
101.4564874709
 20
25.9685405189
 30
0.0
 10
101.4578191616
 20
26.0269747424
 30
0.0
 10
101.4595341908
 20
26.1187344619
 30
0.0
 10
101.461302399
 20
26.248121947
 30
0.0
 10
101.4628266915
 20
26.4174621099
 30
0.0
 10
101.4637660413
 20
26.6008351656
 30
0.0
 10
101.4639779818
 20
26.7270419704
 30
0.0
 10
101.4639771903
 20
26.7913486316
 30
0.0
  0
SPLINE
  5
426
100
AcDbEntity
  8
RACCORDO
100
AcDbSpline
 62
250
  6
CONTINUOUS
 70
0
 71
3
 72
20
 73
16
 74
0
 42
0.0000001
 43
0.0000001
 44
0.0000000001
 40
0.0
 40
0.0
 40
0.0
 40
0.0
 40
0.1928473721
 40
0.3784774327
 40
0.549917994
 40
0.7006949058
 40
0.7665287329
 40
0.8251382189
 40
0.8759824385
 40
0.9185753255
 40
0.952528434
 40
0.9775246972
 40
0.9933556135
 40
0.9978074652
 40
1.0
 40
1.0
 40
1.0
 40
1.0
 10
101.4639771903
 20
31.6086513684
 30
0.0
 10
101.4639779992
 20
31.6729580731
 30
0.0
 10
101.463766029
 20
31.7991649219
 30
0.0
 10
101.4628266944
 20
31.9825380034
 30
0.0
 10
101.4613023971
 20
32.1518781243
 30
0.0
 10
101.4595341912
 20
32.2812655564
 30
0.0
 10
101.4578191625
 20
32.3730252348
 30
0.0
 10
101.4564874732
 20
32.431459437
 30
0.0
 10
101.4550791519
 20
32.4821476406
 30
0.0
 10
101.4535788493
 20
32.5245835429
 30
0.0
 10
101.4520993338
 20
32.5584582823
 30
0.0
 10
101.4504558884
 20
32.5832354379
 30
0.0
 10
101.4492621055
 20
32.5984798119
 30
0.0
 10
101.4478583962
 20
32.6056676242
 30
0.0
 10
101.4473440328
 20
32.6079823777
 30
0.0
 10
101.4468267582
 20
32.6084990636
 30
0.0
  0
SPLINE
  5
427
100
AcDbEntity
  8
DRAFT
100
AcDbSpline
 62
7
  6
CONTINUOUS
 70
0
 71
3
 72
27
 73
23
 74
0
 42
0.0000001
 43
0.0000001
 44
0.0000000001
 40
0.0
 40
0.0
 40
0.0
 40
0.0
 40
0.0005169019
 40
0.0015056811
 40
0.0051936814
 40
0.0112397479
 40
0.0196492503
 40
0.0304119514
 40
0.0435061453
 40
0.0588994453
 40
0.0765579898
 40
0.0964409025
 40
0.118497927
 40
0.168923967
 40
0.227351254
 40
0.2932212642
 40
0.3658981247
 40
0.4446813825
 40
0.528814913
 40
0.617488636
 40
0.8049895644
 40
1.0
 40
1.0
 40
1.0
 40
1.0
 10
-79.5314075345
 20
-41.1158964872
 30
0.0
 10
-79.5314595981
 20
-41.117884126
 30
0.0
 10
-79.5265835421
 20
-41.1226757585
 30
0.0
 10
-79.5083946109
 20
-41.1293352402
 30
0.0
 10
-79.4672777306
 20
-41.1379621399
 30
0.0
 10
-79.3984336649
 20
-41.1468934645
 30
0.0
 10
-79.3017119849
 20
-41.1563714417
 30
0.0
 10
-79.1780092787
 20
-41.1657401636
 30
0.0
 10
-79.0272939942
 20
-41.1751160343
 30
0.0
 10
-78.850035685
 20
-41.1843770133
 30
0.0
 10
-78.6466171008
 20
-41.1935075607
 30
0.0
 10
-78.4175399654
 20
-41.2024691396
 30
0.0
 10
-78.0624537507
 20
-41.2147145877
 30
0.0
 10
-77.559094499
 20
-41.2291104268
 30
0.0
 10
-76.88718111
 20
-41.2447275731
 30
0.0
 10
-76.1296339171
 20
-41.2591669606
 30
0.0
 10
-75.2937510453
 20
-41.2722806783
 30
0.0
 10
-74.3875877395
 20
-41.2839279262
 30
0.0
 10
-73.4198683512
 20
-41.293989262
 30
0.0
 10
-72.0339486914
 20
-41.3053615773
 30
0.0
 10
-70.2215028131
 20
-41.3147554002
 30
0.0
 10
-68.7501292783
 20
-41.3172396544
 30
0.0
 10
-68.0
 20
-41.3172396544
 30
0.0
  0
ELLIPSE
  5
428
100
AcDbEntity
  8
RACCORDO
100
AcDbEllipse
 62
7
  6
CONTINUOUS
 10
83.0413486316
 20
-39.9661069526
 30
0.0
 11
0.5
 21
0.0
 31
0.0
 40
0.0174550649
 41
-3.1241393611
 42
-1.5707963268
  0
ELLIPSE
  5
429
100
AcDbEntity
  8
RACCORDO
100
AcDbEllipse
 62
7
  6
CONTINUOUS
 10
87.8586513684
 20
-39.9661069526
 30
0.0
 11
0.5
 21
0.0
 31
0.0
 40
0.0174550649
 41
-1.5707963268
 42
-0.0174532925
  0
ELLIPSE
  5
42A
100
AcDbEntity
  8
RACCORDO
100
AcDbEllipse
 62
7
  6
CONTINUOUS
 10
-83.0413486316
 20
39.9661069526
 30
0.0
 11
0.5
 21
0.0
 31
0.0
 40
0.0174550649
 41
0.0174532925
 42
1.5707963268
  0
ELLIPSE
  5
42B
100
AcDbEntity
  8
RACCORDO
100
AcDbEllipse
 62
7
  6
CONTINUOUS
 10
-87.8586513684
 20
39.9661069526
 30
0.0
 11
0.5
 21
0.0
 31
0.0
 40
0.0174550649
 41
1.5707963268
 42
3.1241393611
  0
ELLIPSE
  5
42C
100
AcDbEntity
  8
RACCORDO
100
AcDbEllipse
 62
7
  6
CONTINUOUS
 10
-100.4661069526
 20
-26.7913486316
 30
0.0
 11
-0.0
 21
0.5
 31
0.0
 40
0.0174550649
 41
0.0174532925
 42
1.5707963268
  0
ELLIPSE
  5
42D
100
AcDbEntity
  8
RACCORDO
100
AcDbEllipse
 62
7
  6
CONTINUOUS
 10
-100.4661069526
 20
-31.6086513684
 30
0.0
 11
0.0
 21
0.5
 31
0.0
 40
0.0174550649
 41
-4.7123889804
 42
-3.1590459461
  0
ELLIPSE
  5
42E
100
AcDbEntity
  8
RACCORDO
100
AcDbEllipse
 62
7
  6
CONTINUOUS
 10
100.4661069526
 20
26.7913486316
 30
0.0
 11
0.0
 21
0.5
 31
0.0
 40
0.0174550649
 41
-3.1241393611
 42
-1.5707963268
  0
ELLIPSE
  5
42F
100
AcDbEntity
  8
RACCORDO
100
AcDbEllipse
 62
7
  6
CONTINUOUS
 10
100.4661069526
 20
31.6086513684
 30
0.0
 11
-0.0
 21
0.5
 31
0.0
 40
0.0174550649
 41
-1.5707963268
 42
-0.0174532925
  0
ELLIPSE
  5
430
100
AcDbEntity
  8
0
100
AcDbEllipse
 62
7
  6
CONTINUOUS
 10
94.245156052
 20
-39.6749258819
 30
0.0
 11
-0.0
 21
1.2
 31
0.0
 40
0.0174550649
 41
-4.7123889804
 42
-4.4595382022
  0
ELLIPSE
  5
431
100
AcDbEntity
  8
0
100
AcDbEllipse
 62
7
  6
CONTINUOUS
 10
100.1749258819
 20
-33.745156052
 30
0.0
 11
1.2
 21
-0.0
 31
0.0
 40
0.0174550649
 41
1.3179455486
 42
1.5707963268
  0
ELLIPSE
  5
432
100
AcDbEntity
  8
0
100
AcDbEllipse
 62
7
  6
CONTINUOUS
 10
100.1749258819
 20
33.7451560521
 30
0.0
 11
1.2
 21
-0.0
 31
0.0
 40
0.0174550649
 41
-1.5707963268
 42
-1.3179455486
  0
ELLIPSE
  5
433
100
AcDbEntity
  8
0
100
AcDbEllipse
 62
7
  6
CONTINUOUS
 10
94.245156052
 20
39.6749258819
 30
0.0
 11
-0.0
 21
1.2
 31
0.0
 40
0.0174550649
 41
1.3179455486
 42
1.5707963268
  0
ELLIPSE
  5
434
100
AcDbEntity
  8
0
100
AcDbEllipse
 62
7
  6
CONTINUOUS
 10
-100.1749258819
 20
-33.745156052
 30
0.0
 11
1.2
 21
0.0
 31
0.0
 40
0.0174550649
 41
1.5707963268
 42
1.823647105
  0
ELLIPSE
  5
435
100
AcDbEntity
  8
0
100
AcDbEllipse
 62
7
  6
CONTINUOUS
 10
-94.245156052
 20
-39.6749258819
 30
0.0
 11
-0.0
 21
1.2
 31
0.0
 40
0.0174550649
 41
-1.823647105
 42
-1.5707963268
  0
ELLIPSE
  5
436
100
AcDbEntity
  8
0
100
AcDbEllipse
 62
7
  6
CONTINUOUS
 10
-94.245156052
 20
39.6749258819
 30
0.0
 11
0.0
 21
1.2
 31
0.0
 40
0.0174550649
 41
-1.5707963268
 42
-1.3179455486
  0
ELLIPSE
  5
437
100
AcDbEntity
  8
0
100
AcDbEllipse
 62
7
  6
CONTINUOUS
 10
-100.1749258819
 20
33.7451560521
 30
0.0
 11
1.2
 21
0.0
 31
0.0
 40
0.0174550649
 41
-1.823647105
 42
-1.5707963268
  0
ENDSEC
  0
SECTION
  2
OBJECTS
  0
DICTIONARY
  5
C
100
AcDbDictionary
280
0
281
1
  3
ACAD_GROUP
350
D
  3
ACAD_MLINESTYLE
350
17
  3
ACAD_LAYOUT
350
1A
  3
ACAD_PLOTSETTINGS
350
19
  3
ACAD_PLOTSTYLENAME
350
E
  0
DICTIONARY
  5
D
102
{ACAD_REACTORS
330
C
102
}
100
AcDbDictionary
280
0
281
1
  0
ACDBDICTIONARYWDFLT
  5
E
102
{ACAD_REACTORS
330
C
102
}
100
AcDbDictionary
281
1
  3
Normal
350
F
100
AcDbDictionaryWithDefault
340
F
  0
DICTIONARY
  5
17
102
{ACAD_REACTORS
330
C
102
}
100
AcDbDictionary
280
0
281
1
  3
Standard
350
18
  0
DICTIONARY
  5
19
102
{ACAD_REACTORS
330
C
102
}
100
AcDbDictionary
281
1
  0
DICTIONARY
  5
1A
102
{ACAD_REACTORS
330
C
102
}
100
AcDbDictionary
281
1
  3
Model
350
438
  3
Layout1
350
439
  0
ACDBPLACEHOLDER
  5
F
102
{ACAD_REACTORS
330
E
102
}
  0
MLINESTYLE
  5
18
102
{ACAD_REACTORS
330
17
102
}
100
AcDbMlineStyle
  2
STANDARD
 70
0
  3

 62
256
 51
90.0
 52
90.0
 71
2
 49
0.5
 62
256
  6
BYLAYER
 49
-0.5
 62
256
  6
BYLAYER
  0
LAYOUT
  5
438
102
{ACAD_REACTORS
330
1A
102
}
100
AcDbPlotSettings
  1

  2
none_device
  4
ISO_A4_(297.00_x_210.00_MM)
  6

 40
0.0
 41
0.0
 42
0.0
 43
0.0
 44
297.0
 45
210.0
 46
0.0
 47
0.0
 48
0.0
 49
0.0
140
0.0
141
0.0
142
1.0
143
1.0
 70
1024
 72
1
 73
0
 74
0
  7

 75
0
147
1.0
148
0.0
149
0.0
100
AcDbLayout
  1
Model
 70
0
 71
0
 10
0.0
 20
0.0
 11
297.0
 21
210.0
 12
0.0
 22
0.0
 32
0.0
 14
0.0
 24
0.0
 34
0.0
 15
0.0
 25
0.0
 35
0.0
146
0.0
 13
0.0
 23
0.0
 33
0.0
 16
1.0
 26
0.0
 36
0.0
 17
0.0
 27
1.0
 37
0.0
 76
0
330
219
345
0
346
0
  0
LAYOUT
  5
439
102
{ACAD_REACTORS
330
1A
102
}
100
AcDbPlotSettings
  1

  2
none_device
  4
ISO_A4_(297.00_x_210.00_MM)
  6

 40
0.0
 41
0.0
 42
0.0
 43
0.0
 44
297.0
 45
210.0
 46
0.0
 47
0.0
 48
0.0
 49
0.0
140
0.0
141
0.0
142
1.0
143
1.0
 70
0
 72
1
 73
0
 74
0
  7

 75
0
147
1.0
148
0.0
149
0.0
100
AcDbLayout
  1
Layout1
 70
0
 71
1
 10
0.0
 20
0.0
 11
297.0
 21
210.0
 12
0.0
 22
0.0
 32
0.0
 14
0.0
 24
0.0
 34
0.0
 15
0.0
 25
0.0
 35
0.0
146
0.0
 13
0.0
 23
0.0
 33
0.0
 16
1.0
 26
0.0
 36
0.0
 17
0.0
 27
1.0
 37
0.0
 76
0
330
21A
345
0
346
0
  0
ENDSEC
  0
EOF
