  0
SECTION
  2
HEADER
  9
$ACADVER
  1
AC1024
  9
$DWGCODEPAGE
  3
ANSI_1252
  9
$EXTMAX
 10
297.0
 20
210.0
 30
0.0
  9
$EXTMIN
 10
0.0
 20
0.0
 30
0.0
  9
$LIMMIN
 10
0.0
 20
0.0
  9
$LIMMAX
 10
297.0
 20
210.0
  9
$VIEWCTR
 10
148.5
 20
105.0
  9
$VIEWSIZE
 40
210.0
  9
$CLAYER
  8
0
  9
$LTSCALE
 40
16.335
  9
$CELTYPE
  6
BYLAYER
  9
$DIMSCALE
 40
1.0
  9
$DIMASZ
 40
3.0
  9
$DIMEXO
 40
0.5
  9
$DIMDLI
 40
11.286
  9
$DIMEXE
 40
1.5
  9
$DIMCEN
 40
2.673
  9
$DIMLFAC
 40
1.0
  9
$DIMBLK
  1
_FILLED
  9
$DIMALT
 70
0
  9
$DIMALTF
 40
0.0393700787
  9
$DIMTXT
 40
3.0
  9
$DIMTOL
 70
1
  9
$DIMLIM
 70
0
  9
$DIMTFAC
 40
1.0
  9
$DIMTP
 40
0.01
  9
$DIMTM
 40
0.01
  9
$DIMGAP
 40
0.625
  9
$DIMDSEP
 70
44
  9
$AUNITS
 70
0
  9
$PDMODE
 70
3
  9
$PDSIZE
 40
3.0
  9
$HANDSEED
  5
76B
  9
$TILEMODE
 70
1
  9
$MEASUREMENT
 70
1
  9
$INSUNITS
 70
4
  0
ENDSEC
  0
SECTION
  2
CLASSES
  0
CLASS
  1
ACDBDICTIONARYWDFLT
  2
AcDbDictionaryWithDefault
  3
AutoCAD 2000
 90
0
 91
1
280
0
281
0
  0
CLASS
  1
ACDBPLACEHOLDER
  2
AcDbPlaceHolder
  3
AutoCAD 2000
 90
0
 91
1
280
0
281
0
  0
CLASS
  1
LAYOUT
  2
AcDbLayout
  3
AutoCAD 2000
 90
0
 91
0
280
0
281
0
  0
ENDSEC
  0
SECTION
  2
TABLES
  0
TABLE
  2
VPORT
  5
8
100
AcDbSymbolTable
 70
2
  0
VPORT
  5
1F4
100
AcDbSymbolTableRecord
100
AcDbViewportTableRecord
  2
*ACTIVE
 70
0
 10
0.0
 20
0.0
 11
1.0
 21
1.0
 12
148.5
 22
105.0
 13
0.0
 23
0.0
 14
1.0
 24
1.0
 15
0.0
 25
0.0
 16
0.0
 26
0.0
 36
1.0
 17
0.0
 27
0.0
 37
0.0
 40
210.0
 41
1.4142857143
 42
50.0
 43
0.0
 44
0.0
 50
0.0
 51
0.0
 71
0
 72
100
 73
1
 74
1
 75
0
 76
0
 77
0
 78
0
  0
ENDTAB
  0
TABLE
  2
LTYPE
  5
5
100
AcDbSymbolTable
 70
6
  0
LTYPE
  5
14
100
AcDbSymbolTableRecord
100
AcDbLinetypeTableRecord
  2
BYBLOCK
 70
0
  3

 72
65
 73
0
 40
0.0
  0
LTYPE
  5
15
100
AcDbSymbolTableRecord
100
AcDbLinetypeTableRecord
  2
BYLAYER
 70
0
  3

 72
65
 73
0
 40
0.0
  0
LTYPE
  5
16
100
AcDbSymbolTableRecord
100
AcDbLinetypeTableRecord
  2
CONTINUOUS
 70
64
  3
Solid line
 72
65
 73
0
 40
0.0
  0
LTYPE
  5
1F5
100
AcDbSymbolTableRecord
100
AcDbLinetypeTableRecord
  2
CENTER
 70
64
  3
____ _ ____ _ ____ _ ____ _ ____ _ ____ _ ____
 72
65
 73
4
 40
0.6
 49
0.375
 74
0
 49
-0.075
 74
0
 49
0.075
 74
0
 49
-0.075
 74
0
  0
LTYPE
  5
1F6
100
AcDbSymbolTableRecord
100
AcDbLinetypeTableRecord
  2
HIDDEN
 70
64
  3
- - - - - - - - - - - - - - - - - - - -
 72
65
 73
2
 40
0.2
 49
0.1
 74
0
 49
-0.1
 74
0
  0
LTYPE
  5
1F7
100
AcDbSymbolTableRecord
100
AcDbLinetypeTableRecord
  2
PHANTOM
 70
64
  3
_____ _ _ _____ _ _ _____ _ _ _____
 72
65
 73
6
 40
0.8
 49
0.45
 74
0
 49
-0.05
 74
0
 49
0.1
 74
0
 49
-0.05
 74
0
 49
0.1
 74
0
 49
-0.05
 74
0
  0
LTYPE
  5
1F8
100
AcDbSymbolTableRecord
100
AcDbLinetypeTableRecord
  2
DOT
 70
64
  3
. . . . . . . . . . . . . . . . . . . .
 72
65
 73
2
 40
0.2
 49
0.1
 74
0
 49
-0.1
 74
0
  0
LTYPE
  5
1F9
100
AcDbSymbolTableRecord
100
AcDbLinetypeTableRecord
  2
DASHED
 70
64
  3
- - - - - - - - - - - - - - - - - - - -
 72
65
 73
2
 40
0.2
 49
0.1
 74
0
 49
-0.1
 74
0
  0
ENDTAB
  0
TABLE
  2
LAYER
  5
2
100
AcDbSymbolTable
 70
36
  0
LAYER
  5
10
100
AcDbSymbolTableRecord
100
AcDbLayerTableRecord
  2
0
 70
0
 62
7
  6
CONTINUOUS
370
-3
390
F
  0
LAYER
  5
1FA
100
AcDbSymbolTableRecord
100
AcDbLayerTableRecord
  2
DEFAULT_1
 70
0
 62
7
  6
CENTER
370
-3
390
F
  0
LAYER
  5
1FB
100
AcDbSymbolTableRecord
100
AcDbLayerTableRecord
  2
DEFAULT_2
 70
0
 62
7
  6
HIDDEN
370
-3
390
F
  0
LAYER
  5
1FC
100
AcDbSymbolTableRecord
100
AcDbLayerTableRecord
  2
DEFAULT_3
 70
0
 62
7
  6
PHANTOM
370
-3
390
F
  0
LAYER
  5
1FD
100
AcDbSymbolTableRecord
100
AcDbLayerTableRecord
  2
ASSI
 70
0
 62
7
  6
CONTINUOUS
370
-3
390
F
  0
LAYER
  5
1FE
100
AcDbSymbolTableRecord
100
AcDbLayerTableRecord
  2
COLOR5
 70
0
 62
7
  6
CONTINUOUS
370
-3
390
F
  0
LAYER
  5
1FF
100
AcDbSymbolTableRecord
100
AcDbLayerTableRecord
  2
COORDINATE
 70
0
 62
7
  6
CONTINUOUS
370
-3
390
F
  0
LAYER
  5
200
100
AcDbSymbolTableRecord
100
AcDbLayerTableRecord
  2
COORD_ORIGINE
 70
0
 62
7
  6
CONTINUOUS
370
-3
390
F
  0
LAYER
  5
201
100
AcDbSymbolTableRecord
100
AcDbLayerTableRecord
  2
CURVE
 70
0
 62
7
  6
CONTINUOUS
370
-3
390
F
  0
LAYER
  5
202
100
AcDbSymbolTableRecord
100
AcDbLayerTableRecord
  2
DRAFT
 70
0
 62
7
  6
CONTINUOUS
370
-3
390
F
  0
LAYER
  5
203
100
AcDbSymbolTableRecord
100
AcDbLayerTableRecord
  2
IGES_INCISIONI
 70
0
 62
7
  6
CONTINUOUS
370
-3
390
F
  0
LAYER
  5
204
100
AcDbSymbolTableRecord
100
AcDbLayerTableRecord
  2
IMPORT_FEATURE
 70
0
 62
7
  6
CONTINUOUS
370
-3
390
F
  0
LAYER
  5
205
100
AcDbSymbolTableRecord
100
AcDbLayerTableRecord
  2
IMPORT_IGS
 70
0
 62
7
  6
CONTINUOUS
370
-3
390
F
  0
LAYER
  5
206
100
AcDbSymbolTableRecord
100
AcDbLayerTableRecord
  2
INTF_1
 70
0
 62
7
  6
CONTINUOUS
370
-3
390
F
  0
LAYER
  5
207
100
AcDbSymbolTableRecord
100
AcDbLayerTableRecord
  2
INTF_7
 70
0
 62
7
  6
CONTINUOUS
370
-3
390
F
  0
LAYER
  5
208
100
AcDbSymbolTableRecord
100
AcDbLayerTableRecord
  2
NOTE
 70
0
 62
7
  6
CONTINUOUS
370
-3
390
F
  0
LAYER
  5
209
100
AcDbSymbolTableRecord
100
AcDbLayerTableRecord
  2
PIANI
 70
0
 62
7
  6
CONTINUOUS
370
-3
390
F
  0
LAYER
  5
20A
100
AcDbSymbolTableRecord
100
AcDbLayerTableRecord
  2
PIANI_ORIGINE
 70
0
 62
7
  6
CONTINUOUS
370
-3
390
F
  0
LAYER
  5
20B
100
AcDbSymbolTableRecord
100
AcDbLayerTableRecord
  2
PUNTI
 70
0
 62
7
  6
CONTINUOUS
370
-3
390
F
  0
LAYER
  5
20C
100
AcDbSymbolTableRecord
100
AcDbLayerTableRecord
  2
RACCORDO
 70
0
 62
7
  6
CONTINUOUS
370
-3
390
F
  0
LAYER
  5
20D
100
AcDbSymbolTableRecord
100
AcDbLayerTableRecord
  2
RGB__255__255__255__
 70
0
 62
7
  6
CONTINUOUS
370
-3
390
F
  0
LAYER
  5
20E
100
AcDbSymbolTableRecord
100
AcDbLayerTableRecord
  2
RGB____0____0____0__
 70
0
 62
7
  6
CONTINUOUS
370
-3
390
F
  0
LAYER
  5
20F
100
AcDbSymbolTableRecord
100
AcDbLayerTableRecord
  2
SKEL
 70
0
 62
7
  6
CONTINUOUS
370
-3
390
F
  0
LAYER
  5
210
100
AcDbSymbolTableRecord
100
AcDbLayerTableRecord
  2
SKELETON
 70
0
 62
7
  6
CONTINUOUS
370
-3
390
F
  0
LAYER
  5
211
100
AcDbSymbolTableRecord
100
AcDbLayerTableRecord
  2
SMUSSO
 70
0
 62
7
  6
CONTINUOUS
370
-3
390
F
  0
LAYER
  5
212
100
AcDbSymbolTableRecord
100
AcDbLayerTableRecord
  2
SNAPLINE
 70
0
 62
7
  6
CONTINUOUS
370
-3
390
F
  0
LAYER
  5
213
100
AcDbSymbolTableRecord
100
AcDbLayerTableRecord
  2
SUPERFICI
 70
0
 62
7
  6
CONTINUOUS
370
-3
390
F
  0
LAYER
  5
214
100
AcDbSymbolTableRecord
100
AcDbLayerTableRecord
  2
TRASH
 70
0
 62
7
  6
CONTINUOUS
370
-3
390
F
  0
LAYER
  5
215
100
AcDbSymbolTableRecord
100
AcDbLayerTableRecord
  2
XSEC_DATUMS
 70
0
 62
7
  6
CONTINUOUS
370
-3
390
F
  0
LAYER
  5
216
100
AcDbSymbolTableRecord
100
AcDbLayerTableRecord
  2
___SHELL
 70
0
 62
7
  6
CONTINUOUS
370
-3
390
F
  0
ENDTAB
  0
TABLE
  2
STYLE
  5
3
100
AcDbSymbolTable
 70
1
  0
STYLE
  5
11
100
AcDbSymbolTableRecord
100
AcDbTextStyleTableRecord
  2
STANDARD
 70
0
 40
0.0
 41
0.8
 50
0.0
 71
0
 42
0.2
  3
txt
  4

  0
STYLE
  5
217
100
AcDbSymbolTableRecord
100
AcDbTextStyleTableRecord
  2
TEXTSTYLE_1
 70
0
 40
0.0
 41
0.8
 50
0.0
 71
0
 42
0.2
  3
gdt
  4

  0
ENDTAB
  0
TABLE
  2
VIEW
  5
6
100
AcDbSymbolTable
 70
0
  0
ENDTAB
  0
TABLE
  2
UCS
  5
7
100
AcDbSymbolTable
 70
0
  0
ENDTAB
  0
TABLE
  2
APPID
  5
9
100
AcDbSymbolTable
 70
1
  0
APPID
  5
218
100
AcDbSymbolTableRecord
100
AcDbRegAppTableRecord
  2
ACAD
 70
0
  0
ENDTAB
  0
TABLE
  2
BLOCK_RECORD
  5
1
100
AcDbSymbolTable
 70
0
  0
BLOCK_RECORD
  5
219
100
AcDbSymbolTableRecord
100
AcDbBlockTableRecord
  2
*Model_Space
  0
BLOCK_RECORD
  5
21A
100
AcDbSymbolTableRecord
100
AcDbBlockTableRecord
  2
*Paper_Space
  0
BLOCK_RECORD
  5
21B
100
AcDbSymbolTableRecord
100
AcDbBlockTableRecord
  2
_FILLED
  0
ENDTAB
  0
TABLE
  2
DIMSTYLE
  5
A
100
AcDbSymbolTable
 70
1
100
AcDbDimStyleTable
 71
0
  0
DIMSTYLE
105
21C
100
AcDbSymbolTableRecord
100
AcDbDimStyleTableRecord
  2
STANDARD
 70
0
  3

  4

 40
1.0
 41
3.0
 42
0.5
 43
0.38
 44
1.5
 45
0.0
 46
0.0
 47
0.01
 48
0.01
140
3.0
141
0.09
142
0.0
143
25.4
144
1.0
145
0.0
146
1.0
147
0.625
 71
1
 72
0
 73
0
 74
0
 75
0
 76
0
 77
1
 78
8
 79
2
170
0
171
1
172
0
173
0
174
0
175
0
176
0
177
0
178
0
270
2
179
2
271
2
272
2
273
2
274
2
275
0
280
0
281
0
282
0
283
1
284
8
285
0
286
0
287
3
288
0
340
11
278
44
341
21B
342
21B
343
21B
344
21B
  0
ENDTAB
  0
ENDSEC
  0
SECTION
  2
BLOCKS
  0
BLOCK
  5
20
100
AcDbEntity
  8
0
100
AcDbBlockBegin
  2
*Model_Space
 70
0
 10
0.0
 20
0.0
 30
0.0
  3
*Model_Space
  1

  0
ENDBLK
  5
21
100
AcDbEntity
  8
0
100
AcDbBlockEnd
  0
BLOCK
  5
1C
100
AcDbEntity
  8
0
100
AcDbBlockBegin
  2
*Paper_Space
 70
0
 10
0.0
 20
0.0
 30
0.0
  3
*Paper_Space
  1

  0
ENDBLK
  5
1D
100
AcDbEntity
  8
0
100
AcDbBlockEnd
  0
BLOCK
  5
21D
100
AcDbEntity
  8
0
100
AcDbBlockBegin
  2
_FILLED
 70
64
 10
0.0
 20
0.0
  3
_FILLED
  1

  0
SOLID
  5
21E
100
AcDbEntity
  8
0
  6
BYBLOCK
 62
0
100
AcDbTrace
 10
0.0
 20
0.0
 11
-1.0
 21
0.3166666667
 12
-1.0
 22
-0.3166666667
 13
-1.0
 23
-0.3166666667
  0
ENDBLK
  5
21F
100
AcDbEntity
  8
0
  6
BYBLOCK
 62
0
100
AcDbBlockEnd
  0
ENDSEC
  0
SECTION
  2
ENTITIES
  0
LWPOLYLINE
  5
220
100
AcDbEntity
  8
RACCORDO
100
AcDbPolyline
 62
250
  6
CONTINUOUS
 90
14
 70
0
 10
-168.9586269291
 20
-31.970914202
 10
-168.9578184513
 20
-31.9916622018
 10
-168.9569681372
 20
-32.0108629545
 10
-168.956077827
 20
-32.0284516457
 10
-168.9551671762
 20
-32.0442545491
 10
-168.9542352941
 20
-32.0582738167
 10
-168.9532830714
 20
-32.0705130727
 10
-168.9523328358
 20
-32.0808980406
 10
-168.9513851744
 20
-32.0894971659
 10
-168.9504395001
 20
-32.0963897081
 10
-168.9495163798
 20
-32.101615297
 10
-168.9486226694
 20
-32.1052921753
 10
-168.947751513
 20
-32.1075689148
 10
-168.9469029106
 20
-32.108575216
  0
LINE
  5
221
100
AcDbEntity
  8
DRAFT
100
AcDbLine
 62
7
  6
CONTINUOUS
 10
-169.6930042769
 20
-10.6536398515
 11
-169.7089209292
 21
-10.2282781291
  0
LINE
  5
222
100
AcDbEntity
  8
DRAFT
100
AcDbLine
 62
7
  6
CONTINUOUS
 10
-169.5389728663
 20
10.6536398515
 11
-169.5230562139
 21
10.2282781291
  0
LWPOLYLINE
  5
223
100
AcDbEntity
  8
RACCORDO
100
AcDbPolyline
 62
250
  6
CONTINUOUS
 90
10
 70
0
 10
-169.4550907153
 20
-32.4798663599
 10
-169.4541589403
 20
-32.5078324194
 10
-169.4532068271
 20
-32.5322556172
 10
-169.4522566766
 20
-32.553141011
 10
-169.4513090644
 20
-32.5703299366
 10
-169.4503634149
 20
-32.5839810583
 10
-169.4494403021
 20
-32.5945754267
 10
-169.4485465841
 20
-32.6022733922
 10
-169.4476754028
 20
-32.6069146045
 10
-169.4468267582
 20
-32.6084990636
  0
LINE
  5
224
100
AcDbEntity
  8
RACCORDO
100
AcDbLine
 62
250
  6
CONTINUOUS
 10
-168.9601097619
 20
-31.9251910773
 11
-168.9586269291
 21
-31.970914202
  0
LINE
  5
225
100
AcDbEntity
  8
DRAFT
100
AcDbLine
 62
7
  6
CONTINUOUS
 10
-169.7089209292
 20
-10.2282781291
 11
-169.7241159177
 21
-9.7256049568
  0
LINE
  5
226
100
AcDbEntity
  8
DRAFT
100
AcDbLine
 62
7
  6
CONTINUOUS
 10
-169.5230562139
 20
10.2282781291
 11
-169.5078612254
 21
9.7256049568
  0
LINE
  5
227
100
AcDbEntity
  8
RACCORDO
100
AcDbLine
 62
250
  6
CONTINUOUS
 10
-169.4568914738
 20
-32.4129963243
 11
-169.4550907153
 21
-32.4798663599
  0
LINE
  5
228
100
AcDbEntity
  8
DRAFT
100
AcDbLine
 62
7
  6
CONTINUOUS
 10
-169.7241159177
 20
-9.7256049568
 11
-169.7385027512
 21
-9.1484806035
  0
LINE
  5
229
100
AcDbEntity
  8
DRAFT
100
AcDbLine
 62
7
  6
CONTINUOUS
 10
-169.5078612254
 20
9.7256049568
 11
-169.493474392
 21
9.1484806035
  0
LINE
  5
22A
100
AcDbEntity
  8
RACCORDO
100
AcDbLine
 62
250
  6
CONTINUOUS
 10
-168.9613718314
 20
-31.8748856988
 11
-168.9601097619
 21
-31.9251910773
  0
LINE
  5
22B
100
AcDbEntity
  8
DRAFT
100
AcDbLine
 62
7
  6
CONTINUOUS
 10
-169.7385027512
 20
-9.1484806035
 11
-169.7519556752
 21
-8.5015690036
  0
LINE
  5
22C
100
AcDbEntity
  8
DRAFT
100
AcDbLine
 62
7
  6
CONTINUOUS
 10
-169.493474392
 20
9.1484806035
 11
-169.4800214679
 21
8.5015690036
  0
LINE
  5
22D
100
AcDbEntity
  8
RACCORDO
100
AcDbLine
 62
250
  6
CONTINUOUS
 10
-169.4585501363
 20
-32.3332147384
 11
-169.4568914738
 21
-32.4129963243
  0
LINE
  5
22E
100
AcDbEntity
  8
RACCORDO
100
AcDbLine
 62
250
  6
CONTINUOUS
 10
-168.9623915075
 20
-31.8214916087
 11
-168.9613718314
 21
-31.8748856988
  0
LINE
  5
22F
100
AcDbEntity
  8
DRAFT
100
AcDbLine
 62
7
  6
CONTINUOUS
 10
-169.7519556752
 20
-8.5015690036
 11
-169.7643623041
 21
-7.7906834415
  0
LINE
  5
230
100
AcDbEntity
  8
DRAFT
100
AcDbLine
 62
7
  6
CONTINUOUS
 10
-169.4800214679
 20
8.5015690036
 11
-169.4676148391
 21
7.7906834415
  0
LINE
  5
231
100
AcDbEntity
  8
DRAFT
100
AcDbLine
 62
7
  6
CONTINUOUS
 10
-169.7643623041
 20
-7.7906834415
 11
-169.7756519972
 21
-7.0198701687
  0
LINE
  5
232
100
AcDbEntity
  8
DRAFT
100
AcDbLine
 62
7
  6
CONTINUOUS
 10
-169.4676148391
 20
7.7906834415
 11
-169.456325146
 21
7.0198701687
  0
LINE
  5
233
100
AcDbEntity
  8
RACCORDO
100
AcDbLine
 62
250
  6
CONTINUOUS
 10
-169.4606910514
 20
-32.1925734674
 11
-169.4585501363
 21
-32.3332147384
  0
LINE
  5
234
100
AcDbEntity
  8
RACCORDO
100
AcDbLine
 62
250
  6
CONTINUOUS
 10
-168.96316091
 20
-31.7664677955
 11
-168.9623915075
 21
-31.8214916087
  0
LINE
  5
235
100
AcDbEntity
  8
DRAFT
100
AcDbLine
 62
7
  6
CONTINUOUS
 10
-169.7756519972
 20
-7.0198701687
 11
-169.7857243697
 21
-6.1954992121
  0
LINE
  5
236
100
AcDbEntity
  8
DRAFT
100
AcDbLine
 62
7
  6
CONTINUOUS
 10
-169.456325146
 20
7.0198701687
 11
-169.4462527735
 21
6.1954992121
  0
LINE
  5
237
100
AcDbEntity
  8
DRAFT
100
AcDbLine
 62
7
  6
CONTINUOUS
 10
-169.7857243697
 20
-6.1954992121
 11
-169.7944971644
 21
-5.3248475401
  0
LINE
  5
238
100
AcDbEntity
  8
DRAFT
100
AcDbLine
 62
7
  6
CONTINUOUS
 10
-169.4462527735
 20
6.1954992121
 11
-169.4374799787
 21
5.3248475401
  0
LINE
  5
239
100
AcDbEntity
  8
DRAFT
100
AcDbLine
 62
7
  6
CONTINUOUS
 10
-169.7944971644
 20
-5.3248475401
 11
-169.8019204181
 21
-4.4128720919
  0
LINE
  5
23A
100
AcDbEntity
  8
DRAFT
100
AcDbLine
 62
7
  6
CONTINUOUS
 10
-169.4374799787
 20
5.3248475401
 11
-169.430056725
 21
4.4128720919
  0
LINE
  5
23B
100
AcDbEntity
  8
RACCORDO
100
AcDbLine
 62
250
  6
CONTINUOUS
 10
-169.4627306658
 20
-31.9793895426
 11
-169.4606910514
 21
-32.1925734674
  0
LINE
  5
23C
100
AcDbEntity
  8
RACCORDO
100
AcDbLine
 62
250
  6
CONTINUOUS
 10
-168.9638498248
 20
-31.6847696193
 11
-168.96316091
 21
-31.7664677955
  0
LINE
  5
23D
100
AcDbEntity
  8
DRAFT
100
AcDbLine
 62
7
  6
CONTINUOUS
 10
-169.8019204181
 20
-4.4128720919
 11
-169.8079258613
 21
-3.4672250981
  0
LINE
  5
23E
100
AcDbEntity
  8
DRAFT
100
AcDbLine
 62
7
  6
CONTINUOUS
 10
-169.430056725
 20
4.4128720919
 11
-169.4240512818
 21
3.4672250981
  0
LINE
  5
23F
100
AcDbEntity
  8
DRAFT
100
AcDbLine
 62
7
  6
CONTINUOUS
 10
-169.8079258613
 20
-3.4672250981
 11
-169.8124669891
 21
-2.4961405331
  0
LINE
  5
240
100
AcDbEntity
  8
DRAFT
100
AcDbLine
 62
7
  6
CONTINUOUS
 10
-169.4240512818
 20
3.4672250981
 11
-169.4195101541
 21
2.4961405331
  0
LINE
  5
241
100
AcDbEntity
  8
DRAFT
100
AcDbLine
 62
7
  6
CONTINUOUS
 10
-169.8124669891
 20
-2.4961405331
 11
-169.8155179343
 21
-1.5051480353
  0
LINE
  5
242
100
AcDbEntity
  8
DRAFT
100
AcDbLine
 62
7
  6
CONTINUOUS
 10
-169.4195101541
 20
2.4961405331
 11
-169.4164592088
 21
1.5051480353
  0
LINE
  5
243
100
AcDbEntity
  8
RACCORDO
100
AcDbLine
 62
250
  6
CONTINUOUS
 10
-169.463895415
 20
-31.7089333037
 11
-169.4627306658
 21
-31.9793895426
  0
LINE
  5
244
100
AcDbEntity
  8
DRAFT
100
AcDbLine
 62
7
  6
CONTINUOUS
 10
-169.8155179343
 20
-1.5051480353
 11
-169.8170450742
 21
-0.504578505
  0
LINE
  5
245
100
AcDbEntity
  8
DRAFT
100
AcDbLine
 62
7
  6
CONTINUOUS
 10
-169.4164592088
 20
1.5051480353
 11
-169.4149320689
 21
0.504578505
  0
LINE
  5
246
100
AcDbEntity
  8
RACCORDO
100
AcDbLine
 62
250
  6
CONTINUOUS
 10
-168.9640533427
 20
-31.6086513684
 11
-168.9638498248
 21
-31.6847696193
  0
LINE
  5
247
100
AcDbEntity
  8
DRAFT
100
AcDbLine
 62
7
  6
CONTINUOUS
 10
-170.0
 20
35.5
 11
-170.0
 21
-35.5
  0
LINE
  5
248
100
AcDbEntity
  8
SUPERFICI
100
AcDbLine
 62
7
  6
CONTINUOUS
 10
-170.0000003491
 20
-35.5000000145
 11
-170.0000003491
 21
35.5000000243
  0
LINE
  5
249
100
AcDbEntity
  8
RACCORDO
100
AcDbLine
 62
250
  6
CONTINUOUS
 10
-169.3747431161
 20
35.5
 11
-169.3747431161
 21
-25.7194172943
  0
LINE
  5
24A
100
AcDbEntity
  8
RACCORDO
100
AcDbLine
 62
250
  6
CONTINUOUS
 10
-169.3747431161
 20
-32.6805827057
 11
-169.3747431161
 21
-35.5
  0
LINE
  5
24B
100
AcDbEntity
  8
0
100
AcDbLine
 62
7
  6
CONTINUOUS
 10
-168.4751240074
 20
35.5
 11
-168.4751240074
 21
33.7248759926
  0
LINE
  5
24C
100
AcDbEntity
  8
0
100
AcDbLine
 62
7
  6
CONTINUOUS
 10
-168.4751240074
 20
-33.7248759926
 11
-168.4751240074
 21
-35.5
  0
LINE
  5
24D
100
AcDbEntity
  8
RACCORDO
100
AcDbLine
 62
7
  6
CONTINUOUS
 10
-168.4748344851
 20
-26.7913486316
 11
-168.4748344851
 21
-31.6086513684
  0
LINE
  5
24E
100
AcDbEntity
  8
RACCORDO
100
AcDbLine
 62
250
  6
CONTINUOUS
 10
-168.3821703245
 20
-26.2064316543
 11
-168.3821703245
 21
-32.1935683455
  0
LINE
  5
24F
100
AcDbEntity
  8
DRAFT
100
AcDbLine
 62
7
  6
CONTINUOUS
 10
-168.2
 20
-35.5
 11
-168.2
 21
-34.0
  0
LINE
  5
250
100
AcDbEntity
  8
DRAFT
100
AcDbLine
 62
7
  6
CONTINUOUS
 10
-168.2
 20
34.0
 11
-168.2
 21
35.5
  0
LINE
  5
251
100
AcDbEntity
  8
RACCORDO
100
AcDbLine
 62
250
  6
CONTINUOUS
 10
-168.1749258623
 20
-26.0000749007
 11
-168.1749258819
 21
33.7242099741
  0
LINE
  5
252
100
AcDbEntity
  8
RACCORDO
100
AcDbLine
 62
250
  6
CONTINUOUS
 10
-168.1749258628
 20
-32.399925098
 11
-168.1749258819
 21
-33.7242099741
  0
LINE
  5
253
100
AcDbEntity
  8
RACCORDO
100
AcDbLine
 62
250
  6
CONTINUOUS
 10
-167.8822464769
 20
-25.7074119919
 11
-167.8822464769
 21
-32.6925880081
  0
LINE
  5
254
100
AcDbEntity
  8
DRAFT
100
AcDbLine
 62
250
  6
CONTINUOUS
 10
-164.0
 20
34.0
 11
-164.0
 21
33.7242099741
  0
LINE
  5
255
100
AcDbEntity
  8
DRAFT
100
AcDbLine
 62
250
  6
CONTINUOUS
 10
-164.0
 20
-34.0
 11
-164.0
 21
-33.7242099741
  0
LINE
  5
256
100
AcDbEntity
  8
0
100
AcDbLine
 62
250
  6
CONTINUOUS
 10
-164.0
 20
-39.7
 11
-164.0
 21
-41.5
  0
LINE
  5
257
100
AcDbEntity
  8
0
100
AcDbLine
 62
250
  6
CONTINUOUS
 10
-164.0
 20
39.7
 11
-164.0
 21
41.5
  0
LINE
  5
258
100
AcDbEntity
  8
DRAFT
100
AcDbLine
 62
7
  6
CONTINUOUS
 10
-162.5
 20
39.7
 11
-162.5
 21
35.5
  0
LINE
  5
259
100
AcDbEntity
  8
DRAFT
100
AcDbLine
 62
7
  6
CONTINUOUS
 10
-162.5
 20
-35.5
 11
-162.5
 21
-39.7
  0
LINE
  5
25A
100
AcDbEntity
  8
0
100
AcDbLine
 62
7
  6
CONTINUOUS
 10
-162.2242099741
 20
39.6749258819
 11
-162.2242099741
 21
35.5
  0
LINE
  5
25B
100
AcDbEntity
  8
0
100
AcDbLine
 62
7
  6
CONTINUOUS
 10
-162.2242099741
 20
-35.5
 11
-162.2242099741
 21
-39.6749258819
  0
LINE
  5
25C
100
AcDbEntity
  8
DRAFT
100
AcDbLine
 62
7
  6
CONTINUOUS
 10
-169.8170450742
 20
-0.504578505
 11
-169.8170450742
 21
0.504578505
  0
LINE
  5
25D
100
AcDbEntity
  8
DRAFT
100
AcDbLine
 62
7
  6
CONTINUOUS
 10
-169.4149320689
 20
0.504578505
 11
-169.4149320689
 21
-0.504578505
  0
LINE
  5
25E
100
AcDbEntity
  8
DRAFT
100
AcDbLine
 62
7
  6
CONTINUOUS
 10
-169.8170450742
 20
0.504578505
 11
-169.8155179343
 21
1.5051480353
  0
LINE
  5
25F
100
AcDbEntity
  8
DRAFT
100
AcDbLine
 62
7
  6
CONTINUOUS
 10
-169.4149320689
 20
-0.504578505
 11
-169.4164592088
 21
-1.5051480353
  0
LINE
  5
260
100
AcDbEntity
  8
RACCORDO
100
AcDbLine
 62
250
  6
CONTINUOUS
 10
-169.4637736005
 20
-26.6390681544
 11
-169.463895415
 21
-31.7089333037
  0
LINE
  5
261
100
AcDbEntity
  8
RACCORDO
100
AcDbLine
 62
250
  6
CONTINUOUS
 10
-168.9639715969
 20
-26.7413477611
 11
-168.9640533427
 21
-31.6086513684
  0
LINE
  5
262
100
AcDbEntity
  8
DRAFT
100
AcDbLine
 62
7
  6
CONTINUOUS
 10
-169.8155179343
 20
1.5051480353
 11
-169.8124669891
 21
2.4961405331
  0
LINE
  5
263
100
AcDbEntity
  8
DRAFT
100
AcDbLine
 62
7
  6
CONTINUOUS
 10
-169.4164592088
 20
-1.5051480353
 11
-169.4195101541
 21
-2.4961405331
  0
LINE
  5
264
100
AcDbEntity
  8
DRAFT
100
AcDbLine
 62
7
  6
CONTINUOUS
 10
-169.8124669891
 20
2.4961405331
 11
-169.8079258613
 21
3.4672250981
  0
LINE
  5
265
100
AcDbEntity
  8
DRAFT
100
AcDbLine
 62
7
  6
CONTINUOUS
 10
-169.4195101541
 20
-2.4961405331
 11
-169.4240512818
 21
-3.4672250981
  0
LINE
  5
266
100
AcDbEntity
  8
DRAFT
100
AcDbLine
 62
7
  6
CONTINUOUS
 10
-169.8079258613
 20
3.4672250981
 11
-169.8019204181
 21
4.4128720919
  0
LINE
  5
267
100
AcDbEntity
  8
DRAFT
100
AcDbLine
 62
7
  6
CONTINUOUS
 10
-169.4240512818
 20
-3.4672250981
 11
-169.430056725
 21
-4.4128720919
  0
LINE
  5
268
100
AcDbEntity
  8
RACCORDO
100
AcDbLine
 62
250
  6
CONTINUOUS
 10
-169.4623148691
 20
-26.3655094918
 11
-169.4637736005
 21
-26.6390681544
  0
LINE
  5
269
100
AcDbEntity
  8
RACCORDO
100
AcDbLine
 62
250
  6
CONTINUOUS
 10
-168.9634498665
 20
-26.6610465265
 11
-168.9639715969
 21
-26.7413477611
  0
LINE
  5
26A
100
AcDbEntity
  8
DRAFT
100
AcDbLine
 62
7
  6
CONTINUOUS
 10
-169.8019204181
 20
4.4128720919
 11
-169.7944971644
 21
5.3248475401
  0
LINE
  5
26B
100
AcDbEntity
  8
DRAFT
100
AcDbLine
 62
7
  6
CONTINUOUS
 10
-169.430056725
 20
-4.4128720919
 11
-169.4374799787
 21
-5.3248475401
  0
LINE
  5
26C
100
AcDbEntity
  8
DRAFT
100
AcDbLine
 62
7
  6
CONTINUOUS
 10
-169.7944971644
 20
5.3248475401
 11
-169.7857243697
 21
6.1954992121
  0
LINE
  5
26D
100
AcDbEntity
  8
DRAFT
100
AcDbLine
 62
7
  6
CONTINUOUS
 10
-169.4374799787
 20
-5.3248475401
 11
-169.4462527735
 21
-6.1954992121
  0
LINE
  5
26E
100
AcDbEntity
  8
RACCORDO
100
AcDbLine
 62
250
  6
CONTINUOUS
 10
-169.4606910514
 20
-26.2074265325
 11
-169.4623148691
 21
-26.3655094918
  0
LINE
  5
26F
100
AcDbEntity
  8
DRAFT
100
AcDbLine
 62
7
  6
CONTINUOUS
 10
-169.7857243697
 20
6.1954992121
 11
-169.7756519972
 21
7.0198701687
  0
LINE
  5
270
100
AcDbEntity
  8
DRAFT
100
AcDbLine
 62
7
  6
CONTINUOUS
 10
-169.4462527735
 20
-6.1954992121
 11
-169.456325146
 21
-7.0198701687
  0
LINE
  5
271
100
AcDbEntity
  8
RACCORDO
100
AcDbLine
 62
250
  6
CONTINUOUS
 10
-168.9628072143
 20
-26.6059744478
 11
-168.9634498665
 21
-26.6610465265
  0
LINE
  5
272
100
AcDbEntity
  8
DRAFT
100
AcDbLine
 62
7
  6
CONTINUOUS
 10
-169.7756519972
 20
7.0198701687
 11
-169.7643623041
 21
7.7906834415
  0
LINE
  5
273
100
AcDbEntity
  8
DRAFT
100
AcDbLine
 62
7
  6
CONTINUOUS
 10
-169.456325146
 20
-7.0198701687
 11
-169.4676148391
 21
-7.7906834415
  0
LINE
  5
274
100
AcDbEntity
  8
RACCORDO
100
AcDbLine
 62
250
  6
CONTINUOUS
 10
-169.4585501363
 20
-26.0667852619
 11
-169.4606910514
 21
-26.2074265325
  0
LINE
  5
275
100
AcDbEntity
  8
RACCORDO
100
AcDbLine
 62
250
  6
CONTINUOUS
 10
-168.9619138981
 20
-26.5515096549
 11
-168.9628072143
 21
-26.6059744478
  0
LINE
  5
276
100
AcDbEntity
  8
DRAFT
100
AcDbLine
 62
7
  6
CONTINUOUS
 10
-169.7643623041
 20
7.7906834415
 11
-169.7519556752
 21
8.5015690036
  0
LINE
  5
277
100
AcDbEntity
  8
DRAFT
100
AcDbLine
 62
7
  6
CONTINUOUS
 10
-169.4676148391
 20
-7.7906834415
 11
-169.4800214679
 21
-8.5015690036
  0
LINE
  5
278
100
AcDbEntity
  8
DRAFT
100
AcDbLine
 62
7
  6
CONTINUOUS
 10
-169.7519556752
 20
8.5015690036
 11
-169.7385027512
 21
9.1484806035
  0
LINE
  5
279
100
AcDbEntity
  8
DRAFT
100
AcDbLine
 62
7
  6
CONTINUOUS
 10
-169.4800214679
 20
-8.5015690036
 11
-169.493474392
 21
-9.1484806035
  0
LINE
  5
27A
100
AcDbEntity
  8
RACCORDO
100
AcDbLine
 62
250
  6
CONTINUOUS
 10
-169.4568914738
 20
-25.9870036755
 11
-169.4585501363
 21
-26.0667852619
  0
LINE
  5
27B
100
AcDbEntity
  8
RACCORDO
100
AcDbLine
 62
250
  6
CONTINUOUS
 10
-168.9607678619
 20
-26.4994426772
 11
-168.9619138981
 21
-26.5515096549
  0
LINE
  5
27C
100
AcDbEntity
  8
DRAFT
100
AcDbLine
 62
7
  6
CONTINUOUS
 10
-169.7385027512
 20
9.1484806035
 11
-169.7241159177
 21
9.7256049568
  0
LINE
  5
27D
100
AcDbEntity
  8
DRAFT
100
AcDbLine
 62
7
  6
CONTINUOUS
 10
-169.493474392
 20
-9.1484806035
 11
-169.5078612254
 21
-9.7256049568
  0
LINE
  5
27E
100
AcDbEntity
  8
DRAFT
100
AcDbLine
 62
7
  6
CONTINUOUS
 10
-169.7241159177
 20
9.7256049568
 11
-169.7089209292
 21
10.2282781291
  0
LINE
  5
27F
100
AcDbEntity
  8
DRAFT
100
AcDbLine
 62
7
  6
CONTINUOUS
 10
-169.5078612254
 20
-9.7256049568
 11
-169.5230562139
 21
-10.2282781291
  0
LWPOLYLINE
  5
280
100
AcDbEntity
  8
DRAFT
100
AcDbPolyline
 62
7
  6
CONTINUOUS
 90
11
 70
0
 10
-169.7089209292
 20
10.2282781291
 10
-169.6930042769
 20
10.6536398515
 10
-169.6848256435
 20
10.8358198593
 10
-169.6765006457
 20
10.9977442761
 10
-169.6680765743
 20
11.1384934103
 10
-169.6595528081
 20
11.2579475426
 10
-169.6509299683
 20
11.3562263924
 10
-169.6422572093
 20
11.4327694269
 10
-169.6335342762
 20
11.48745221
 10
-169.6247614239
 20
11.5203991778
 10
-169.6158968441
 20
11.5314218928
  0
LWPOLYLINE
  5
281
100
AcDbEntity
  8
DRAFT
100
AcDbPolyline
 62
7
  6
CONTINUOUS
 90
11
 70
0
 10
-169.5230562139
 20
-10.2282781291
 10
-169.5389728663
 20
-10.6536398515
 10
-169.5471514996
 20
-10.8358198593
 10
-169.5554764975
 20
-10.9977442761
 10
-169.5639005689
 20
-11.1384934103
 10
-169.5724243351
 20
-11.2579475426
 10
-169.5810471749
 20
-11.3562263924
 10
-169.5897199339
 20
-11.4327694269
 10
-169.598442867
 20
-11.48745221
 10
-169.6072157193
 20
-11.5203991778
 10
-169.6158968441
 20
-11.5314218928
  0
LWPOLYLINE
  5
282
100
AcDbEntity
  8
RACCORDO
100
AcDbPolyline
 62
250
  6
CONTINUOUS
 90
8
 70
0
 10
-156.9305827057
 20
40.8747431161
 10
-156.9313770883
 20
40.8708827825
 10
-156.9321608873
 20
40.8620220641
 10
-156.9329341027
 20
40.8481950845
 10
-156.9336998434
 20
40.8294575891
 10
-156.9344550005
 20
40.8058846833
 10
-156.9351902475
 20
40.7775687165
 10
-156.9366007325
 20
40.7071728764
  0
LWPOLYLINE
  5
283
100
AcDbEntity
  8
RACCORDO
100
AcDbPolyline
 62
7
  6
CONTINUOUS
 90
9
 70
0
 10
-168.3821703245
 20
-32.1935683455
 10
-168.3804626151
 20
-32.197140064
 10
-168.3764886698
 20
-32.2026297917
 10
-168.3702298221
 20
-32.2100375283
 10
-168.3616034081
 20
-32.2195291741
 10
-168.350653441
 20
-32.230938829
 10
-168.33772285
 20
-32.2437687925
 10
-168.3230288661
 20
-32.2580681462
 10
-168.3067122819
 20
-32.2737878086
  0
LWPOLYLINE
  5
284
100
AcDbEntity
  8
RACCORDO
100
AcDbPolyline
 62
250
  6
CONTINUOUS
 90
16
 70
0
 10
-156.4306588581
 20
40.3748192685
 10
-156.4334122776
 20
40.4270648015
 10
-156.4416105767
 20
40.4787382586
 10
-156.4551640018
 20
40.5292737206
 10
-156.4739241509
 20
40.5781177284
 10
-156.497685596
 20
40.6247353367
 10
-156.5261881289
 20
40.6686159746
 10
-156.5591196197
 20
40.7092790514
 10
-156.596119426
 20
40.7462792058
 10
-156.6367823334
 20
40.7792111811
 10
-156.6806630184
 20
40.8077142881
 10
-156.7272809089
 20
40.8314763369
 10
-156.776125429
 20
40.850237054
 10
-156.8266616259
 20
40.8637909527
 10
-156.8783360325
 20
40.8719895764
 10
-156.9305827058
 20
40.8747431161
  0
LWPOLYLINE
  5
285
100
AcDbEntity
  8
RACCORDO
100
AcDbPolyline
 62
250
  6
CONTINUOUS
 90
16
 70
0
 10
-156.358575216
 20
40.4469029106
 10
-156.3613287036
 20
40.4991490889
 10
-156.3695271835
 20
40.5508230688
 10
-156.383080866
 20
40.6013589188
 10
-156.4018413118
 20
40.6502031721
 10
-156.4256030572
 20
40.6968208882
 10
-156.4541058643
 20
40.7407015113
 10
-156.4870375714
 20
40.7813644626
 10
-156.5240375116
 20
40.8183644029
 10
-156.5647004629
 20
40.85129611
 10
-156.6085810861
 20
40.8797989171
 10
-156.6551988021
 20
40.9035606624
 10
-156.7040430554
 20
40.9223211082
 10
-156.7545789054
 20
40.9358747908
 10
-156.8062528854
 20
40.9440732706
 10
-156.8584990636
 20
40.9468267582
  0
LINE
  5
286
100
AcDbEntity
  8
RACCORDO
100
AcDbLine
 62
250
  6
CONTINUOUS
 10
-150.4578866415
 20
39.8827211266
 11
-150.458504985
 21
39.9736912048
  0
LINE
  5
287
100
AcDbEntity
  8
0
100
AcDbLine
 62
7
  6
CONTINUOUS
 10
-157.2
 20
1.4375
 11
-157.2
 21
1.3125001192
  0
LINE
  5
288
100
AcDbEntity
  8
0
100
AcDbLine
 62
7
  6
CONTINUOUS
 10
-157.2
 20
-0.3750000596
 11
-157.2
 21
-2.5
  0
LINE
  5
289
100
AcDbEntity
  8
0
100
AcDbLine
 62
7
  6
CONTINUOUS
 10
-156.8808511019
 20
-2.1875000075
 11
-156.8808511019
 21
-0.3750000596
  0
LINE
  5
28A
100
AcDbEntity
  8
0
100
AcDbLine
 62
7
  6
CONTINUOUS
 10
-156.8808511019
 20
1.25
 11
-156.8808511019
 21
1.5000001192
  0
LINE
  5
28B
100
AcDbEntity
  8
0
100
AcDbLine
 62
7
  6
CONTINUOUS
 10
-156.4978724241
 20
0.3125
 11
-156.4978724241
 21
0.6249998808
  0
LINE
  5
28C
100
AcDbEntity
  8
RACCORDO
100
AcDbLine
 62
250
  6
CONTINUOUS
 10
-156.358575216
 20
39.9662592691
 11
-156.358575216
 21
40.4469029106
  0
LINE
  5
28D
100
AcDbEntity
  8
0
100
AcDbLine
 62
7
  6
CONTINUOUS
 10
-156.1148935676
 20
-1.1875
 11
-156.1148935676
 21
-1.5625
  0
LINE
  5
28E
100
AcDbEntity
  8
0
100
AcDbLine
 62
7
  6
CONTINUOUS
 10
-155.8595744491
 20
1.5000001192
 11
-155.8595744491
 21
1.25
  0
LINE
  5
28F
100
AcDbEntity
  8
RACCORDO
100
AcDbLine
 62
250
  6
CONTINUOUS
 10
-155.8586513684
 20
39.9748344851
 11
-155.8586513685
 21
40.9639771903
  0
LINE
  5
290
100
AcDbEntity
  8
0
100
AcDbLine
 62
7
  6
CONTINUOUS
 10
-155.7957446694
 20
-1.5625
 11
-155.7957446694
 21
-1.1875
  0
LINE
  5
291
100
AcDbEntity
  8
0
100
AcDbLine
 62
7
  6
CONTINUOUS
 10
-155.6042553306
 20
1.25
 11
-155.6042553306
 21
1.5000001192
  0
LINE
  5
292
100
AcDbEntity
  8
0
100
AcDbLine
 62
7
  6
CONTINUOUS
 10
-155.5404255509
 20
-2.5
 11
-155.5404255509
 21
-2.0625000149
  0
LINE
  5
293
100
AcDbEntity
  8
0
100
AcDbLine
 62
7
  6
CONTINUOUS
 10
-154.9659574449
 20
-2.125
 11
-154.9659574449
 21
-2.5
  0
LINE
  5
294
100
AcDbEntity
  8
0
100
AcDbLine
 62
7
  6
CONTINUOUS
 10
-154.9021276653
 20
0.5625001192
 11
-154.9021276653
 21
0.2500000596
  0
LINE
  5
295
100
AcDbEntity
  8
0
100
AcDbLine
 62
7
  6
CONTINUOUS
 10
-154.5191489428
 20
1.5624998808
 11
-154.5191489428
 21
1.1874998808
  0
LINE
  5
296
100
AcDbEntity
  8
0
100
AcDbLine
 62
7
  6
CONTINUOUS
 10
-154.5191489428
 20
-1.1875
 11
-154.5191489428
 21
-1.5625
  0
LINE
  5
297
100
AcDbEntity
  8
0
100
AcDbLine
 62
7
  6
CONTINUOUS
 10
-154.2
 20
-1.5625
 11
-154.2
 21
-1.1875
  0
LINE
  5
298
100
AcDbEntity
  8
0
100
AcDbLine
 62
7
  6
CONTINUOUS
 10
-154.2
 20
1.1250001192
 11
-154.2
 21
1.625
  0
LINE
  5
299
100
AcDbEntity
  8
0
100
AcDbLine
 62
7
  6
CONTINUOUS
 10
-153.6
 20
-16.0
 11
-153.6
 21
16.0
  0
LINE
  5
29A
100
AcDbEntity
  8
0
100
AcDbLine
 62
7
  6
CONTINUOUS
 10
-153.4
 20
16.0
 11
-153.4
 21
-16.0
  0
LINE
  5
29B
100
AcDbEntity
  8
RACCORDO
100
AcDbLine
 62
250
  6
CONTINUOUS
 10
-151.0413486316
 20
39.9748344851
 11
-151.0413486316
 21
40.9639771903
  0
LINE
  5
29C
100
AcDbEntity
  8
RACCORDO
100
AcDbLine
 62
250
  6
CONTINUOUS
 10
-150.541424784
 20
40.4469029106
 11
-150.541424784
 21
39.9662592691
  0
LINE
  5
29D
100
AcDbEntity
  8
RACCORDO
100
AcDbLine
 62
250
  6
CONTINUOUS
 10
-156.941679759
 20
40.1289401815
 11
-156.9425880081
 21
39.3822464769
  0
LINE
  5
29E
100
AcDbEntity
  8
RACCORDO
100
AcDbLine
 62
250
  6
CONTINUOUS
 10
-156.9396199405
 20
40.4587787745
 11
-156.941679759
 21
40.1289401815
  0
LINE
  5
29F
100
AcDbEntity
  8
RACCORDO
100
AcDbLine
 62
250
  6
CONTINUOUS
 10
-156.4411085886
 20
40.0167122494
 11
-156.4421133586
 21
39.8827211265
  0
LINE
  5
2A0
100
AcDbEntity
  8
RACCORDO
100
AcDbLine
 62
250
  6
CONTINUOUS
 10
-156.9379044168
 20
40.6194728646
 11
-156.9396199405
 21
40.4587787745
  0
LINE
  5
2A1
100
AcDbEntity
  8
RACCORDO
100
AcDbLine
 62
250
  6
CONTINUOUS
 10
-156.4396402915
 20
40.1359194139
 11
-156.4411085886
 21
40.0167122494
  0
LINE
  5
2A2
100
AcDbEntity
  8
RACCORDO
100
AcDbLine
 62
250
  6
CONTINUOUS
 10
-156.9366007325
 20
40.7071728764
 11
-156.9379044168
 21
40.6194728646
  0
LINE
  5
2A3
100
AcDbEntity
  8
RACCORDO
100
AcDbLine
 62
250
  6
CONTINUOUS
 10
-156.4384338169
 20
40.2045696602
 11
-156.4396402915
 21
40.1359194139
  0
LWPOLYLINE
  5
2A4
100
AcDbEntity
  8
RACCORDO
100
AcDbPolyline
 62
250
  6
CONTINUOUS
 90
16
 70
0
 10
-150.541424784
 20
40.4469029106
 10
-150.5386713037
 20
40.4991490196
 10
-150.530472844
 20
40.5508229397
 10
-150.5169191918
 20
40.601358741
 10
-150.4981587842
 20
40.6502029566
 10
-150.4743970817
 20
40.6968206477
 10
-150.4458943171
 20
40.7407012618
 10
-150.412962648
 20
40.781364219
 10
-150.3759627384
 20
40.8183641778
 10
-150.3352998051
 20
40.8512959152
 10
-150.2914191844
 20
40.8797987609
 10
-150.2448014534
 20
40.9035605486
 10
-150.1959571655
 20
40.9223210364
 10
-150.1454212605
 20
40.9358747555
 10
-150.0937472064
 20
40.9440732609
 10
-150.0415009364
 20
40.9468267582
  0
LWPOLYLINE
  5
2A5
100
AcDbEntity
  8
RACCORDO
100
AcDbPolyline
 62
250
  6
CONTINUOUS
 90
16
 70
0
 10
-150.4693411419
 20
40.3748192685
 10
-150.4665876542
 20
40.4270654467
 10
-150.4583891744
 20
40.4787394267
 10
-150.4448354919
 20
40.5292752767
 10
-150.4260750461
 20
40.57811953
 10
-150.4023133007
 20
40.624737246
 10
-150.3738104936
 20
40.6686178692
 10
-150.3408787865
 20
40.7092808205
 10
-150.3038788463
 20
40.7462807607
 10
-150.263215895
 20
40.7792124678
 10
-150.2193352718
 20
40.8077152749
 10
-150.1727175558
 20
40.8314770203
 10
-150.1238733025
 20
40.8502374661
 10
-150.0733374525
 20
40.8637911486
 10
-150.0216634725
 20
40.8719896285
 10
-149.9694172943
 20
40.8747431161
  0
LINE
  5
2A6
100
AcDbEntity
  8
0
100
AcDbLine
 62
7
  6
CONTINUOUS
 10
-157.1361702204
 20
1.8750001192
 11
-157.2
 21
1.4375
  0
LINE
  5
2A7
100
AcDbEntity
  8
0
100
AcDbLine
 62
7
  6
CONTINUOUS
 10
-155.6042553306
 20
1.5000001192
 11
-155.5404255509
 21
1.8750001192
  0
LINE
  5
2A8
100
AcDbEntity
  8
0
100
AcDbLine
 62
7
  6
CONTINUOUS
 10
-156.8808511019
 20
1.5000001192
 11
-156.8170213223
 21
1.8125
  0
LINE
  5
2A9
100
AcDbEntity
  8
0
100
AcDbLine
 62
7
  6
CONTINUOUS
 10
-156.0510637879
 20
-0.8749999404
 11
-156.1148935676
 21
-1.1875
  0
LINE
  5
2AA
100
AcDbEntity
  8
0
100
AcDbLine
 62
7
  6
CONTINUOUS
 10
-154.5191489428
 20
1.1874998808
 11
-154.5829787225
 21
0.875
  0
LINE
  5
2AB
100
AcDbEntity
  8
0
100
AcDbLine
 62
7
  6
CONTINUOUS
 10
-154.2638297852
 20
-1.8750000149
 11
-154.2
 21
-1.5625
  0
LWPOLYLINE
  5
2AC
100
AcDbEntity
  8
RACCORDO
100
AcDbPolyline
 62
7
  6
CONTINUOUS
 90
7
 70
0
 10
-168.3821703245
 20
-26.2064316543
 10
-168.3822618009
 20
-26.2067993138
 10
-168.3823534042
 20
-26.2071169061
 10
-168.3824451345
 20
-26.207384431
 10
-168.3825369918
 20
-26.2076018887
 10
-168.3826289761
 20
-26.2077692791
 10
-168.3827210873
 20
-26.2078866022
  0
LINE
  5
2AD
100
AcDbEntity
  8
0
100
AcDbLine
 62
7
  6
CONTINUOUS
 10
-155.7957446694
 20
-1.1875
 11
-155.7319148898
 21
-0.9375000596
  0
LWPOLYLINE
  5
2AE
100
AcDbEntity
  8
RACCORDO
100
AcDbPolyline
 62
250
  6
CONTINUOUS
 90
10
 70
0
 10
-156.4306588581
 20
40.3748192685
 10
-156.431512088
 20
40.3722230363
 10
-156.4323525885
 20
40.3663388477
 10
-156.4331803597
 20
40.3571667026
 10
-156.4339993514
 20
40.3446328061
 10
-156.4348056137
 20
40.3288109532
 10
-156.4355872976
 20
40.3099225286
 10
-156.4363440556
 20
40.2879197471
 10
-156.4370762353
 20
40.2628503938
 10
-156.4384338169
 20
40.2045696602
  0
LWPOLYLINE
  5
2AF
100
AcDbEntity
  8
RACCORDO
100
AcDbPolyline
 62
7
  6
CONTINUOUS
 90
7
 70
0
 10
-168.3827210873
 20
-32.1921133978
 10
-168.3826289275
 20
-32.1922308492
 10
-168.3825369141
 20
-32.1923983166
 10
-168.3824450471
 20
-32.1926157999
 10
-168.3823533265
 20
-32.1928832992
 10
-168.3822617523
 20
-32.1932008144
 10
-168.3821703245
 20
-32.1935683455
  0
LINE
  5
2B0
100
AcDbEntity
  8
0
100
AcDbLine
 62
7
  6
CONTINUOUS
 10
-155.7319148898
 20
-1.8124999851
 11
-155.7957446694
 21
-1.5625
  0
LINE
  5
2B1
100
AcDbEntity
  8
0
100
AcDbLine
 62
7
  6
CONTINUOUS
 10
-156.8170213223
 20
0.9375001192
 11
-156.8808511019
 21
1.25
  0
LINE
  5
2B2
100
AcDbEntity
  8
0
100
AcDbLine
 62
7
  6
CONTINUOUS
 10
-156.1148935676
 20
-1.5625
 11
-156.0510637879
 21
-1.8750000149
  0
LINE
  5
2B3
100
AcDbEntity
  8
0
100
AcDbLine
 62
7
  6
CONTINUOUS
 10
-154.2
 20
-1.1875
 11
-154.2638297852
 21
-0.8749999404
  0
LINE
  5
2B4
100
AcDbEntity
  8
0
100
AcDbLine
 62
7
  6
CONTINUOUS
 10
-154.5829787225
 20
1.8750001192
 11
-154.5191489428
 21
1.5624998808
  0
LINE
  5
2B5
100
AcDbEntity
  8
0
100
AcDbLine
 62
7
  6
CONTINUOUS
 10
-157.2
 20
1.3125001192
 11
-157.1361702204
 21
0.875
  0
LWPOLYLINE
  5
2B6
100
AcDbEntity
  8
RACCORDO
100
AcDbPolyline
 62
250
  6
CONTINUOUS
 90
8
 70
0
 10
-150.4636559444
 20
40.2879197458
 10
-150.4644127024
 20
40.3099225267
 10
-150.4651943863
 20
40.3288109525
 10
-150.4660006486
 20
40.3446328074
 10
-150.4668196403
 20
40.3571667052
 10
-150.4676474115
 20
40.3663388502
 10
-150.468487912
 20
40.372223038
 10
-150.4693411419
 20
40.3748192685
  0
LWPOLYLINE
  5
2B7
100
AcDbEntity
  8
RACCORDO
100
AcDbPolyline
 62
250
  6
CONTINUOUS
 90
6
 70
0
 10
-149.9655449996
 20
40.8058846833
 10
-149.9663001567
 20
40.8294575891
 10
-149.9670658974
 20
40.8481950845
 10
-149.9678391128
 20
40.8620220641
 10
-149.9686229118
 20
40.8708827825
 10
-149.9694172943
 20
40.8747431161
  0
LINE
  5
2B8
100
AcDbEntity
  8
RACCORDO
100
AcDbLine
 62
250
  6
CONTINUOUS
 10
-150.4622269706
 20
40.2350792109
 11
-150.4636559444
 21
40.2879197458
  0
LINE
  5
2B9
100
AcDbEntity
  8
RACCORDO
100
AcDbLine
 62
250
  6
CONTINUOUS
 10
-149.964094555
 20
40.7446189184
 11
-149.9655449996
 21
40.8058846833
  0
LINE
  5
2BA
100
AcDbEntity
  8
RACCORDO
100
AcDbLine
 62
250
  6
CONTINUOUS
 10
-150.4609407811
 20
40.1713582794
 11
-150.4622269706
 21
40.2350792109
  0
LINE
  5
2BB
100
AcDbEntity
  8
RACCORDO
100
AcDbLine
 62
250
  6
CONTINUOUS
 10
-149.9627327979
 20
40.665397269
 11
-149.964094555
 21
40.7446189184
  0
LINE
  5
2BC
100
AcDbEntity
  8
RACCORDO
100
AcDbLine
 62
250
  6
CONTINUOUS
 10
-150.4593317319
 20
40.0582855745
 11
-150.4609407811
 21
40.1713582794
  0
LINE
  5
2BD
100
AcDbEntity
  8
RACCORDO
100
AcDbLine
 62
250
  6
CONTINUOUS
 10
-149.9609152049
 20
40.515949244
 11
-149.9627327979
 21
40.665397269
  0
LINE
  5
2BE
100
AcDbEntity
  8
RACCORDO
100
AcDbLine
 62
250
  6
CONTINUOUS
 10
-150.458504985
 20
39.9736912048
 11
-150.4593317319
 21
40.0582855745
  0
LINE
  5
2BF
100
AcDbEntity
  8
RACCORDO
100
AcDbLine
 62
250
  6
CONTINUOUS
 10
-149.9586427745
 20
40.1998324295
 11
-149.9609152049
 21
40.515949244
  0
LINE
  5
2C0
100
AcDbEntity
  8
RACCORDO
100
AcDbLine
 62
250
  6
CONTINUOUS
 10
-149.9574130812
 20
39.6749258819
 11
-149.9586427745
 21
40.1998324295
  0
LINE
  5
2C1
100
AcDbEntity
  8
RACCORDO
100
AcDbLine
 62
250
  6
CONTINUOUS
 10
-149.9574119919
 20
39.3822464769
 11
-149.9574119919
 21
39.6749258819
  0
LINE
  5
2C2
100
AcDbEntity
  8
0
100
AcDbLine
 62
7
  6
CONTINUOUS
 10
-143.0
 20
26.4
 11
-143.0
 21
26.6
  0
LINE
  5
2C3
100
AcDbEntity
  8
0
100
AcDbLine
 62
7
  6
CONTINUOUS
 10
-154.2638297852
 20
0.875
 11
-154.2
 21
1.1250001192
  0
LINE
  5
2C4
100
AcDbEntity
  8
0
100
AcDbLine
 62
7
  6
CONTINUOUS
 10
-154.5191489428
 20
-1.5625
 11
-154.5829787225
 21
-1.8124999851
  0
LINE
  5
2C5
100
AcDbEntity
  8
0
100
AcDbLine
 62
7
  6
CONTINUOUS
 10
-155.6042553306
 20
2.3124998808
 11
-155.7319148898
 21
2.0
  0
LINE
  5
2C6
100
AcDbEntity
  8
0
100
AcDbLine
 62
7
  6
CONTINUOUS
 10
-157.0085106611
 20
2.1249998808
 11
-157.1361702204
 21
1.8750001192
  0
LWPOLYLINE
  5
2C7
100
AcDbEntity
  8
RACCORDO
100
AcDbPolyline
 62
7
  6
CONTINUOUS
 90
3
 70
0
 10
-156.5237878086
 20
39.8067122819
 10
-156.6121984132
 20
39.7132800759
 10
-156.6309179212
 20
39.693976295
  0
LINE
  5
2C8
100
AcDbEntity
  8
0
100
AcDbLine
 62
7
  6
CONTINUOUS
 10
-162.5
 20
39.7
 11
-162.2248759926
 21
39.9751240074
  0
LINE
  5
2C9
100
AcDbEntity
  8
0
100
AcDbLine
 62
7
  6
CONTINUOUS
 10
-168.2
 20
34.0
 11
-168.4751240074
 21
33.7248759926
  0
LINE
  5
2CA
100
AcDbEntity
  8
RACCORDO
100
AcDbLine
 62
250
  6
CONTINUOUS
 10
-156.8584990636
 20
40.9468267582
 11
-156.9305827057
 21
40.8747431161
  0
LINE
  5
2CB
100
AcDbEntity
  8
RACCORDO
100
AcDbLine
 62
250
  6
CONTINUOUS
 10
-156.358575216
 20
40.4469029106
 11
-156.4306588581
 21
40.3748192685
  0
LINE
  5
2CC
100
AcDbEntity
  8
RACCORDO
100
AcDbLine
 62
7
  6
CONTINUOUS
 10
-156.358575216
 20
39.9662592691
 11
-156.4421133586
 21
39.8827211265
  0
LINE
  5
2CD
100
AcDbEntity
  8
RACCORDO
100
AcDbLine
 62
7
  6
CONTINUOUS
 10
-156.6309179212
 20
39.693976295
 11
-156.7052779318
 21
39.6194330007
  0
LWPOLYLINE
  5
2CE
100
AcDbEntity
  8
RACCORDO
100
AcDbPolyline
 62
7
  6
CONTINUOUS
 90
3
 70
0
 10
-156.7052779318
 20
39.6194330007
 10
-156.8680764168
 20
39.456949027
 10
-156.9425880081
 20
39.3822464769
  0
LWPOLYLINE
  5
2CF
100
AcDbEntity
  8
RACCORDO
100
AcDbPolyline
 62
7
  6
CONTINUOUS
 90
3
 70
0
 10
-168.3067122819
 20
-32.2737878086
 10
-168.2132800759
 20
-32.3621984132
 10
-168.193976295
 20
-32.3809179212
  0
LINE
  5
2D0
100
AcDbEntity
  8
0
100
AcDbLine
 62
7
  6
CONTINUOUS
 10
-162.5
 20
-39.7
 11
-162.2248759926
 21
-39.9751240074
  0
LINE
  5
2D1
100
AcDbEntity
  8
0
100
AcDbLine
 62
7
  6
CONTINUOUS
 10
-168.2
 20
-34.0
 11
-168.4751240074
 21
-33.7248759926
  0
LINE
  5
2D2
100
AcDbEntity
  8
RACCORDO
100
AcDbLine
 62
250
  6
CONTINUOUS
 10
-169.4468267582
 20
-32.6084990636
 11
-169.3747431161
 21
-32.6805827057
  0
LINE
  5
2D3
100
AcDbEntity
  8
RACCORDO
100
AcDbLine
 62
250
  6
CONTINUOUS
 10
-168.9469029106
 20
-32.108575216
 11
-168.8748192685
 21
-32.1806588581
  0
LINE
  5
2D4
100
AcDbEntity
  8
RACCORDO
100
AcDbLine
 62
7
  6
CONTINUOUS
 10
-168.4662592691
 20
-32.108575216
 11
-168.3827211265
 21
-32.1921133586
  0
LINE
  5
2D5
100
AcDbEntity
  8
RACCORDO
100
AcDbLine
 62
7
  6
CONTINUOUS
 10
-168.193976295
 20
-32.3809179212
 11
-168.1194330007
 21
-32.4552779318
  0
LWPOLYLINE
  5
2D6
100
AcDbEntity
  8
RACCORDO
100
AcDbPolyline
 62
7
  6
CONTINUOUS
 90
3
 70
0
 10
-168.1194330007
 20
-32.4552779318
 10
-167.956949027
 20
-32.6180764168
 10
-167.8822464769
 20
-32.6925880081
  0
LWPOLYLINE
  5
2D7
100
AcDbEntity
  8
DRAFT
100
AcDbPolyline
 62
7
  6
CONTINUOUS
 90
10
 70
0
 10
-169.6158968441
 20
-11.5314218928
 10
-169.6247614239
 20
-11.5203991778
 10
-169.6335342762
 20
-11.48745221
 10
-169.6422572093
 20
-11.4327694269
 10
-169.6509299683
 20
-11.3562263924
 10
-169.6595528081
 20
-11.2579475426
 10
-169.6680765743
 20
-11.1384934103
 10
-169.6765006457
 20
-10.9977442761
 10
-169.6848256435
 20
-10.8358198593
 10
-169.6930042769
 20
-10.6536398515
  0
LINE
  5
2D8
100
AcDbEntity
  8
0
100
AcDbLine
 62
7
  6
CONTINUOUS
 10
-157.1361702204
 20
0.875
 11
-157.0085106611
 21
0.6249998808
  0
LINE
  5
2D9
100
AcDbEntity
  8
0
100
AcDbLine
 62
7
  6
CONTINUOUS
 10
-155.9872340083
 20
1.8750001192
 11
-155.8595744491
 21
1.5000001192
  0
LINE
  5
2DA
100
AcDbEntity
  8
0
100
AcDbLine
 62
7
  6
CONTINUOUS
 10
-154.5829787225
 20
-0.9375000596
 11
-154.5191489428
 21
-1.1875
  0
LINE
  5
2DB
100
AcDbEntity
  8
0
100
AcDbLine
 62
7
  6
CONTINUOUS
 10
-154.2
 20
1.625
 11
-154.2638297852
 21
1.8750001192
  0
LINE
  5
2DC
100
AcDbEntity
  8
0
100
AcDbLine
 62
7
  6
CONTINUOUS
 10
-154.5829787225
 20
0.875
 11
-154.6468085021
 21
0.7500001192
  0
LINE
  5
2DD
100
AcDbEntity
  8
0
100
AcDbLine
 62
7
  6
CONTINUOUS
 10
-154.3914893612
 20
0.6249998808
 11
-154.2638297852
 21
0.875
  0
LWPOLYLINE
  5
2DE
100
AcDbEntity
  8
RACCORDO
100
AcDbPolyline
 62
250
  6
CONTINUOUS
 90
11
 70
0
 10
-169.4468267582
 20
-25.7915009364
 10
-169.4476754028
 20
-25.7930853908
 10
-169.4485465841
 20
-25.7977266006
 10
-169.4494403022
 20
-25.8054245656
 10
-169.4503634149
 20
-25.8160189369
 10
-169.4513090644
 20
-25.8296700635
 10
-169.4522566765
 20
-25.8468589923
 10
-169.4532068271
 20
-25.8677443856
 10
-169.4541589403
 20
-25.892167581
 10
-169.4550907153
 20
-25.9201336389
 10
-169.4568914738
 20
-25.9870036755
  0
LINE
  5
2DF
100
AcDbEntity
  8
0
100
AcDbLine
 62
7
  6
CONTINUOUS
 10
-155.8595744491
 20
-0.5625000596
 11
-156.0510637879
 21
-0.8749999404
  0
LINE
  5
2E0
100
AcDbEntity
  8
0
100
AcDbLine
 62
7
  6
CONTINUOUS
 10
-154.4553191409
 20
-2.1875000075
 11
-154.2638297852
 21
-1.8750000149
  0
LINE
  5
2E1
100
AcDbEntity
  8
0
100
AcDbLine
 62
7
  6
CONTINUOUS
 10
-156.8170213223
 20
1.8125
 11
-156.689361763
 21
2.0
  0
LINE
  5
2E2
100
AcDbEntity
  8
0
100
AcDbLine
 62
7
  6
CONTINUOUS
 10
-155.5404255509
 20
1.8750001192
 11
-155.4127659917
 21
2.0625001192
  0
LINE
  5
2E3
100
AcDbEntity
  8
0
100
AcDbLine
 62
7
  6
CONTINUOUS
 10
-155.7319148898
 20
-0.9375000596
 11
-155.6042553306
 21
-0.7500000596
  0
LINE
  5
2E4
100
AcDbEntity
  8
0
100
AcDbLine
 62
7
  6
CONTINUOUS
 10
-154.5191489428
 20
0.4375000596
 11
-154.3914893612
 21
0.6249998808
  0
LWPOLYLINE
  5
2E5
100
AcDbEntity
  8
RACCORDO
100
AcDbPolyline
 62
7
  6
CONTINUOUS
 90
7
 70
0
 10
-156.4421133978
 20
39.8827210873
 10
-156.4422308492
 20
39.8826289275
 10
-156.4423983166
 20
39.8825369141
 10
-156.4426157999
 20
39.8824450471
 10
-156.4428832992
 20
39.8823533265
 10
-156.4432008144
 20
39.8822617523
 10
-156.4435683455
 20
39.8821703245
  0
LINE
  5
2E6
100
AcDbEntity
  8
0
100
AcDbLine
 62
7
  6
CONTINUOUS
 10
-156.689361763
 20
0.7500001192
 11
-156.8170213223
 21
0.9375001192
  0
LINE
  5
2E7
100
AcDbEntity
  8
0
100
AcDbLine
 62
7
  6
CONTINUOUS
 10
-154.7106382817
 20
-0.7500000596
 11
-154.5829787225
 21
-0.9375000596
  0
LINE
  5
2E8
100
AcDbEntity
  8
0
100
AcDbLine
 62
7
  6
CONTINUOUS
 10
-156.0510637879
 20
-1.8750000149
 11
-155.8595744491
 21
-2.1875000075
  0
LINE
  5
2E9
100
AcDbEntity
  8
0
100
AcDbLine
 62
7
  6
CONTINUOUS
 10
-154.2638297852
 20
-0.8749999404
 11
-154.4553191409
 21
-0.5625000596
  0
LINE
  5
2EA
100
AcDbEntity
  8
0
100
AcDbLine
 62
7
  6
CONTINUOUS
 10
-154.6468085021
 20
2.0
 11
-154.5829787225
 21
1.8750001192
  0
LINE
  5
2EB
100
AcDbEntity
  8
0
100
AcDbLine
 62
7
  6
CONTINUOUS
 10
-154.2638297852
 20
1.8750001192
 11
-154.3914893612
 21
2.1249998808
  0
LINE
  5
2EC
100
AcDbEntity
  8
0
100
AcDbLine
 62
7
  6
CONTINUOUS
 10
-154.5829787225
 20
-1.8124999851
 11
-154.7106382817
 21
-1.9999999851
  0
LWPOLYLINE
  5
2ED
100
AcDbEntity
  8
DRAFT
100
AcDbPolyline
 62
7
  6
CONTINUOUS
 90
10
 70
0
 10
-147.5314218928
 20
41.1158968441
 10
-147.5203991778
 20
41.1247614239
 10
-147.48745221
 20
41.1335342762
 10
-147.4327694269
 20
41.1422572093
 10
-147.3562263924
 20
41.1509299683
 10
-147.2579475426
 20
41.1595528081
 10
-147.1384934103
 20
41.1680765743
 10
-146.9977442761
 20
41.1765006457
 10
-146.8358198593
 20
41.1848256435
 10
-146.6536398515
 20
41.1930042769
  0
LWPOLYLINE
  5
2EE
100
AcDbEntity
  8
DRAFT
100
AcDbPolyline
 62
7
  6
CONTINUOUS
 90
11
 70
0
 10
-147.5314218928
 20
-41.1158968441
 10
-147.5203991778
 20
-41.1247614239
 10
-147.48745221
 20
-41.1335342762
 10
-147.4327694269
 20
-41.1422572093
 10
-147.3562263924
 20
-41.1509299683
 10
-147.2579475426
 20
-41.1595528081
 10
-147.1384934103
 20
-41.1680765743
 10
-146.9977442761
 20
-41.1765006457
 10
-146.8358198593
 20
-41.1848256435
 10
-146.6536398515
 20
-41.1930042769
 10
-146.2282781291
 20
-41.2089209292
  0
LWPOLYLINE
  5
2EF
100
AcDbEntity
  8
DRAFT
100
AcDbPolyline
 62
7
  6
CONTINUOUS
 90
10
 70
0
 10
-169.6158968441
 20
11.5314218928
 10
-169.6072157193
 20
11.5203991778
 10
-169.598442867
 20
11.48745221
 10
-169.5897199339
 20
11.4327694269
 10
-169.5810471749
 20
11.3562263924
 10
-169.5724243351
 20
11.2579475426
 10
-169.5639005689
 20
11.1384934103
 10
-169.5554764975
 20
10.9977442761
 10
-169.5471514996
 20
10.8358198593
 10
-169.5389728663
 20
10.6536398515
  0
LINE
  5
2F0
100
AcDbEntity
  8
0
100
AcDbLine
 62
7
  6
CONTINUOUS
 10
-155.5404255509
 20
-2.0625000149
 11
-155.7319148898
 21
-1.8124999851
  0
LINE
  5
2F1
100
AcDbEntity
  8
0
100
AcDbLine
 62
7
  6
CONTINUOUS
 10
-155.7319148898
 20
2.0
 11
-155.9234042287
 21
2.2500001192
  0
LINE
  5
2F2
100
AcDbEntity
  8
0
100
AcDbLine
 62
7
  6
CONTINUOUS
 10
-154.3914893612
 20
2.1249998808
 11
-154.5191489428
 21
2.3124998808
  0
LWPOLYLINE
  5
2F3
100
AcDbEntity
  8
RACCORDO
100
AcDbPolyline
 62
250
  6
CONTINUOUS
 90
16
 70
0
 10
-168.9469029106
 20
-26.291424784
 10
-168.9477515127
 20
-26.2924310852
 10
-168.9486226689
 20
-26.2947078247
 10
-168.9495163794
 20
-26.2983847031
 10
-168.9504394997
 20
-26.3036102919
 10
-168.9513851743
 20
-26.3105028341
 10
-168.952332836
 20
-26.3191019594
 10
-168.9532830715
 20
-26.3294869273
 10
-168.9542352941
 20
-26.3417261833
 10
-168.9551671762
 20
-26.3557454509
 10
-168.956077827
 20
-26.3715483543
 10
-168.9569681372
 20
-26.3891370455
 10
-168.9578184513
 20
-26.4083377982
 10
-168.9586269291
 20
-26.429085798
 10
-168.9593954108
 20
-26.4513233111
 10
-168.9607678619
 20
-26.4994426772
  0
LINE
  5
2F4
100
AcDbEntity
  8
0
100
AcDbLine
 62
7
  6
CONTINUOUS
 10
-156.7531915426
 20
2.375
 11
-157.0085106611
 21
2.1249998808
  0
LINE
  5
2F5
100
AcDbEntity
  8
0
100
AcDbLine
 62
7
  6
CONTINUOUS
 10
-154.6468085021
 20
0.7500001192
 11
-154.774468106
 21
0.6249998808
  0
LWPOLYLINE
  5
2F6
100
AcDbEntity
  8
DRAFT
100
AcDbPolyline
 62
7
  6
CONTINUOUS
 90
10
 70
0
 10
-124.4685781072
 20
41.1158968441
 10
-124.4796008222
 20
41.1072157193
 10
-124.51254779
 20
41.098442867
 10
-124.5672305731
 20
41.0897199339
 10
-124.6437736076
 20
41.0810471749
 10
-124.7420524574
 20
41.0724243351
 10
-124.8615065897
 20
41.0639005689
 10
-125.0022557239
 20
41.0554764975
 10
-125.1641801407
 20
41.0471514996
 10
-125.3463601485
 20
41.0389728663
  0
LWPOLYLINE
  5
2F7
100
AcDbEntity
  8
RACCORDO
100
AcDbPolyline
 62
7
  6
CONTINUOUS
 90
9
 70
0
 10
-156.4435683455
 20
39.8821703245
 10
-156.447140064
 20
39.8804626151
 10
-156.4526297917
 20
39.8764886698
 10
-156.4600375283
 20
39.8702298221
 10
-156.4695291741
 20
39.8616034081
 10
-156.480938829
 20
39.850653441
 10
-156.4937687925
 20
39.83772285
 10
-156.5080681462
 20
39.8230288661
 10
-156.5237878086
 20
39.8067122819
  0
LWPOLYLINE
  5
2F8
100
AcDbEntity
  8
DRAFT
100
AcDbPolyline
 62
7
  6
CONTINUOUS
 90
11
 70
0
 10
-124.4685781072
 20
-41.1158968441
 10
-124.4796008222
 20
-41.1072157193
 10
-124.51254779
 20
-41.098442867
 10
-124.5672305731
 20
-41.0897199339
 10
-124.6437736076
 20
-41.0810471749
 10
-124.7420524574
 20
-41.0724243351
 10
-124.8615065897
 20
-41.0639005689
 10
-125.0022557239
 20
-41.0554764975
 10
-125.1641801407
 20
-41.0471514996
 10
-125.3463601485
 20
-41.0389728663
 10
-125.7717218709
 20
-41.0230562139
  0
LINE
  5
2F9
100
AcDbEntity
  8
0
100
AcDbLine
 62
7
  6
CONTINUOUS
 10
-157.0085106611
 20
0.6249998808
 11
-156.7531915426
 21
0.3749999404
  0
LINE
  5
2FA
100
AcDbEntity
  8
0
100
AcDbLine
 62
7
  6
CONTINUOUS
 10
-156.1148935676
 20
2.0
 11
-155.9872340083
 21
1.8750001192
  0
LINE
  5
2FB
100
AcDbEntity
  8
0
100
AcDbLine
 62
7
  6
CONTINUOUS
 10
-154.774468106
 20
2.1249998808
 11
-154.6468085021
 21
2.0
  0
LINE
  5
2FC
100
AcDbEntity
  8
RACCORDO
100
AcDbLine
 62
250
  6
CONTINUOUS
 10
-169.3747431161
 20
-25.7194172943
 11
-169.4468267582
 21
-25.7915009364
  0
LINE
  5
2FD
100
AcDbEntity
  8
RACCORDO
100
AcDbLine
 62
250
  6
CONTINUOUS
 10
-168.8748192685
 20
-26.2193411419
 11
-168.9469029106
 21
-26.291424784
  0
LINE
  5
2FE
100
AcDbEntity
  8
RACCORDO
100
AcDbLine
 62
7
  6
CONTINUOUS
 10
-168.4662592691
 20
-26.291424784
 11
-168.3827210873
 21
-26.2078866022
  0
LINE
  5
2FF
100
AcDbEntity
  8
RACCORDO
100
AcDbLine
 62
7
  6
CONTINUOUS
 10
-167.9202934525
 20
-25.7452083704
 11
-168.147855851
 21
-25.9731649676
  0
LINE
  5
300
100
AcDbEntity
  8
RACCORDO
100
AcDbLine
 62
7
  6
CONTINUOUS
 10
-168.147855851
 20
-25.9731649676
 11
-168.1945191344
 21
-26.0195998059
  0
LINE
  5
301
100
AcDbEntity
  8
RACCORDO
100
AcDbLine
 62
7
  6
CONTINUOUS
 10
-167.8822464769
 20
-25.7074119919
 11
-167.9202934525
 21
-25.7452083704
  0
LINE
  5
302
100
AcDbEntity
  8
RACCORDO
100
AcDbLine
 62
7
  6
CONTINUOUS
 10
-168.1945191344
 20
-26.0195998059
 11
-168.214272042
 21
-26.0387467355
  0
LWPOLYLINE
  5
303
100
AcDbEntity
  8
RACCORDO
100
AcDbPolyline
 62
7
  6
CONTINUOUS
 90
9
 70
0
 10
-168.3084561674
 20
-26.127883594
 10
-168.3245670177
 20
-26.1434178863
 10
-168.3390158805
 20
-26.1575073833
 10
-168.3516961482
 20
-26.1701173948
 10
-168.3623837908
 20
-26.1812826109
 10
-168.3707389686
 20
-26.19054268
 10
-168.3767502016
 20
-26.1977441517
 10
-168.3805428116
 20
-26.2030404765
 10
-168.3821703245
 20
-26.2064316543
  0
LINE
  5
304
100
AcDbEntity
  8
RACCORDO
100
AcDbLine
 62
7
  6
CONTINUOUS
 10
-168.214272042
 20
-26.0387467355
 11
-168.3084561674
 21
-26.127883594
  0
LWPOLYLINE
  5
305
100
AcDbEntity
  8
DRAFT
100
AcDbPolyline
 62
7
  6
CONTINUOUS
 90
10
 70
0
 10
-113.5314218928
 20
41.1158968441
 10
-113.5203991778
 20
41.1247614239
 10
-113.48745221
 20
41.1335342762
 10
-113.4327694269
 20
41.1422572093
 10
-113.3562263924
 20
41.1509299683
 10
-113.2579475426
 20
41.1595528081
 10
-113.1384934103
 20
41.1680765743
 10
-112.9977442761
 20
41.1765006457
 10
-112.8358198593
 20
41.1848256435
 10
-112.6536398515
 20
41.1930042769
  0
LINE
  5
306
100
AcDbEntity
  8
0
100
AcDbLine
 62
7
  6
CONTINUOUS
 10
-155.6042553306
 20
-0.3750000596
 11
-155.8595744491
 21
-0.5625000596
  0
LINE
  5
307
100
AcDbEntity
  8
0
100
AcDbLine
 62
7
  6
CONTINUOUS
 10
-154.4553191409
 20
-0.5625000596
 11
-154.7106382817
 21
-0.3750000596
  0
LWPOLYLINE
  5
308
100
AcDbEntity
  8
DRAFT
100
AcDbPolyline
 62
7
  6
CONTINUOUS
 90
11
 70
0
 10
-113.5314218928
 20
-41.1158968441
 10
-113.5203991778
 20
-41.1247614239
 10
-113.48745221
 20
-41.1335342762
 10
-113.4327694269
 20
-41.1422572093
 10
-113.3562263924
 20
-41.1509299683
 10
-113.2579475426
 20
-41.1595528081
 10
-113.1384934103
 20
-41.1680765743
 10
-112.9977442761
 20
-41.1765006457
 10
-112.8358198593
 20
-41.1848256435
 10
-112.6536398515
 20
-41.1930042769
 10
-112.2282781291
 20
-41.2089209292
  0
LWPOLYLINE
  5
309
100
AcDbEntity
  8
DRAFT
100
AcDbPolyline
 62
7
  6
CONTINUOUS
 90
10
 70
0
 10
-90.4685781072
 20
41.1158968441
 10
-90.4796008222
 20
41.1072157193
 10
-90.51254779
 20
41.098442867
 10
-90.5672305731
 20
41.0897199339
 10
-90.6437736076
 20
41.0810471749
 10
-90.7420524574
 20
41.0724243351
 10
-90.8615065897
 20
41.0639005689
 10
-91.0022557239
 20
41.0554764975
 10
-91.1641801407
 20
41.0471514996
 10
-91.3463601485
 20
41.0389728663
  0
LINE
  5
30A
100
AcDbEntity
  8
0
100
AcDbLine
 62
7
  6
CONTINUOUS
 10
-154.7106382817
 20
-2.3749999963
 11
-154.4553191409
 21
-2.1875000075
  0
LINE
  5
30B
100
AcDbEntity
  8
0
100
AcDbLine
 62
7
  6
CONTINUOUS
 10
-156.689361763
 20
2.0
 11
-156.4978724241
 21
2.1249998808
  0
LINE
  5
30C
100
AcDbEntity
  8
0
100
AcDbLine
 62
7
  6
CONTINUOUS
 10
-155.4127659917
 20
2.4375001192
 11
-155.6042553306
 21
2.3124998808
  0
LINE
  5
30D
100
AcDbEntity
  8
0
100
AcDbLine
 62
7
  6
CONTINUOUS
 10
-154.7106382817
 20
0.3125
 11
-154.5191489428
 21
0.4375000596
  0
LINE
  5
30E
100
AcDbEntity
  8
0
100
AcDbLine
 62
7
  6
CONTINUOUS
 10
-155.6042553306
 20
-0.7500000596
 11
-155.4127659917
 21
-0.625
  0
LWPOLYLINE
  5
30F
100
AcDbEntity
  8
RACCORDO
100
AcDbPolyline
 62
250
  6
CONTINUOUS
 90
9
 70
0
 10
-168.8748192685
 20
-32.1806588581
 10
-168.8722230363
 20
-32.181512088
 10
-168.8663388477
 20
-32.1823525885
 10
-168.8571667026
 20
-32.1831803597
 10
-168.8446328061
 20
-32.1839993514
 10
-168.8288109532
 20
-32.1848056137
 10
-168.8099225286
 20
-32.1855872976
 10
-168.7879197471
 20
-32.1863440556
 10
-168.7350792099
 20
-32.1877730293
  0
LINE
  5
310
100
AcDbEntity
  8
0
100
AcDbLine
 62
7
  6
CONTINUOUS
 10
-154.9021276653
 20
-0.625
 11
-154.7106382817
 21
-0.7500000596
  0
LINE
  5
311
100
AcDbEntity
  8
0
100
AcDbLine
 62
7
  6
CONTINUOUS
 10
-156.4978724241
 20
0.6249998808
 11
-156.689361763
 21
0.7500001192
  0
LINE
  5
312
100
AcDbEntity
  8
0
100
AcDbLine
 62
7
  6
CONTINUOUS
 10
-155.9234042287
 20
2.2500001192
 11
-156.1148935676
 21
2.375
  0
LINE
  5
313
100
AcDbEntity
  8
0
100
AcDbLine
 62
7
  6
CONTINUOUS
 10
-154.5191489428
 20
2.3124998808
 11
-154.7106382817
 21
2.4375001192
  0
LWPOLYLINE
  5
314
100
AcDbEntity
  8
DRAFT
100
AcDbPolyline
 62
7
  6
CONTINUOUS
 90
11
 70
0
 10
-90.4685781072
 20
-41.1158968441
 10
-90.4796008222
 20
-41.1072157193
 10
-90.51254779
 20
-41.098442867
 10
-90.5672305731
 20
-41.0897199339
 10
-90.6437736076
 20
-41.0810471749
 10
-90.7420524574
 20
-41.0724243351
 10
-90.8615065897
 20
-41.0639005689
 10
-91.0022557239
 20
-41.0554764975
 10
-91.1641801407
 20
-41.0471514996
 10
-91.3463601485
 20
-41.0389728663
 10
-91.7717218709
 20
-41.0230562139
  0
LINE
  5
315
100
AcDbEntity
  8
RACCORDO
100
AcDbLine
 62
7
  6
CONTINUOUS
 10
-150.2695998059
 20
39.6945191344
 11
-150.2887467355
 21
39.714272042
  0
LWPOLYLINE
  5
316
100
AcDbEntity
  8
RACCORDO
100
AcDbPolyline
 62
7
  6
CONTINUOUS
 90
9
 70
0
 10
-150.377883594
 20
39.8084561674
 10
-150.3934178863
 20
39.8245670177
 10
-150.4075073833
 20
39.8390158805
 10
-150.4201173948
 20
39.8516961482
 10
-150.4312826109
 20
39.8623837908
 10
-150.44054268
 20
39.8707389686
 10
-150.4477441517
 20
39.8767502016
 10
-150.4530404765
 20
39.8805428116
 10
-150.4564316543
 20
39.8821703245
  0
LINE
  5
317
100
AcDbEntity
  8
RACCORDO
100
AcDbLine
 62
7
  6
CONTINUOUS
 10
-150.2887467355
 20
39.714272042
 11
-150.377883594
 21
39.8084561674
  0
LINE
  5
318
100
AcDbEntity
  8
0
100
AcDbLine
 62
7
  6
CONTINUOUS
 10
-155.4127659917
 20
2.0625001192
 11
-155.1574467838
 21
2.1875
  0
LINE
  5
319
100
AcDbEntity
  8
0
100
AcDbLine
 62
7
  6
CONTINUOUS
 10
-154.774468106
 20
0.6249998808
 11
-154.9021276653
 21
0.5625001192
  0
LINE
  5
31A
100
AcDbEntity
  8
RACCORDO
100
AcDbLine
 62
7
  6
CONTINUOUS
 10
-150.541424784
 20
39.9662592691
 11
-150.4578866022
 21
39.8827210873
  0
LINE
  5
31B
100
AcDbEntity
  8
RACCORDO
100
AcDbLine
 62
250
  6
CONTINUOUS
 10
-150.4693411419
 20
40.3748192685
 11
-150.541424784
 21
40.4469029106
  0
LINE
  5
31C
100
AcDbEntity
  8
RACCORDO
100
AcDbLine
 62
250
  6
CONTINUOUS
 10
-149.9694172943
 20
40.8747431161
 11
-150.0415009364
 21
40.9468267582
  0
LINE
  5
31D
100
AcDbEntity
  8
RACCORDO
100
AcDbLine
 62
7
  6
CONTINUOUS
 10
-149.9952083704
 20
39.4202934525
 11
-150.2231649676
 21
39.647855851
  0
LINE
  5
31E
100
AcDbEntity
  8
RACCORDO
100
AcDbLine
 62
7
  6
CONTINUOUS
 10
-150.2231649676
 20
39.647855851
 11
-150.2695998059
 21
39.6945191344
  0
LINE
  5
31F
100
AcDbEntity
  8
RACCORDO
100
AcDbLine
 62
7
  6
CONTINUOUS
 10
-149.9574119919
 20
39.3822464769
 11
-149.9952083704
 21
39.4202934525
  0
LINE
  5
320
100
AcDbEntity
  8
0
100
AcDbLine
 62
7
  6
CONTINUOUS
 10
-154.7106382817
 20
-1.9999999851
 11
-154.9659574449
 21
-2.125
  0
LINE
  5
321
100
AcDbEntity
  8
0
100
AcDbLine
 62
7
  6
CONTINUOUS
 10
-154.9659574449
 20
-2.5
 11
-154.7106382817
 21
-2.3749999963
  0
LWPOLYLINE
  5
322
100
AcDbEntity
  8
RACCORDO
100
AcDbPolyline
 62
250
  6
CONTINUOUS
 90
8
 70
0
 10
-169.3747431161
 20
-32.6805827057
 10
-169.3708827825
 20
-32.6813770883
 10
-169.3620220641
 20
-32.6821608873
 10
-169.3481950845
 20
-32.6829341027
 10
-169.3294575891
 20
-32.6836998434
 10
-169.3058846833
 20
-32.6844550005
 10
-169.2775687165
 20
-32.6851902475
 10
-169.2071728764
 20
-32.6866007325
  0
LINE
  5
323
100
AcDbEntity
  8
0
100
AcDbLine
 62
7
  6
CONTINUOUS
 10
-154.7106382817
 20
-0.3750000596
 11
-155.0297872245
 21
-0.25
  0
LINE
  5
324
100
AcDbEntity
  8
0
100
AcDbLine
 62
7
  6
CONTINUOUS
 10
-156.3702126861
 20
2.1249998808
 11
-156.1148935676
 21
2.0
  0
LINE
  5
325
100
AcDbEntity
  8
0
100
AcDbLine
 62
7
  6
CONTINUOUS
 10
-154.9021276653
 20
2.1875
 11
-154.774468106
 21
2.1249998808
  0
LWPOLYLINE
  5
326
100
AcDbEntity
  8
RACCORDO
100
AcDbPolyline
 62
250
  6
CONTINUOUS
 90
16
 70
0
 10
-150.541424784
 20
40.4469029106
 10
-150.5424310852
 20
40.4477515127
 10
-150.5447078247
 20
40.4486226689
 10
-150.5483847031
 20
40.4495163794
 10
-150.5536102919
 20
40.4504394997
 10
-150.5605028341
 20
40.4513851743
 10
-150.5691019594
 20
40.452332836
 10
-150.5794869273
 20
40.4532830715
 10
-150.5917261833
 20
40.4542352941
 10
-150.6057454509
 20
40.4551671762
 10
-150.6215483543
 20
40.456077827
 10
-150.6391370455
 20
40.4569681372
 10
-150.6583377982
 20
40.4578184513
 10
-150.679085798
 20
40.4586269291
 10
-150.7013233111
 20
40.4593954108
 10
-150.7494426772
 20
40.4607678619
  0
LINE
  5
327
100
AcDbEntity
  8
0
100
AcDbLine
 62
7
  6
CONTINUOUS
 10
-155.285106343
 20
-0.25
 11
-155.6042553306
 21
-0.3750000596
  0
LINE
  5
328
100
AcDbEntity
  8
0
100
AcDbLine
 62
7
  6
CONTINUOUS
 10
-154.9021276653
 20
0.2500000596
 11
-154.7106382817
 21
0.3125
  0
LINE
  5
329
100
AcDbEntity
  8
0
100
AcDbLine
 62
7
  6
CONTINUOUS
 10
-155.4127659917
 20
-0.625
 11
-155.2212765634
 21
-0.5625000596
  0
LWPOLYLINE
  5
32A
100
AcDbEntity
  8
0
100
AcDbPolyline
 62
7
  6
CONTINUOUS
 90
10
 70
0
 10
146.6536398515
 20
-41.1930042769
 10
146.8358198593
 20
-41.1848256435
 10
146.9977442761
 20
-41.1765006457
 10
147.1384934103
 20
-41.1680765743
 10
147.2579475426
 20
-41.1595528081
 10
147.3562263924
 20
-41.1509299683
 10
147.4327694269
 20
-41.1422572093
 10
147.48745221
 20
-41.1335342762
 10
147.5203991778
 20
-41.1247614239
 10
147.5314218928
 20
-41.1158968441
  0
LWPOLYLINE
  5
32B
100
AcDbEntity
  8
0
100
AcDbPolyline
 62
7
  6
CONTINUOUS
 90
10
 70
0
 10
125.3463601485
 20
-41.0389728663
 10
125.1641801407
 20
-41.0471514996
 10
125.0022557239
 20
-41.0554764975
 10
124.8615065897
 20
-41.0639005689
 10
124.7420524574
 20
-41.0724243351
 10
124.6437736076
 20
-41.0810471749
 10
124.5672305731
 20
-41.0897199339
 10
124.51254779
 20
-41.098442867
 10
124.4796008222
 20
-41.1072157193
 10
124.4685781072
 20
-41.1158968441
  0
LWPOLYLINE
  5
32C
100
AcDbEntity
  8
0
100
AcDbPolyline
 62
7
  6
CONTINUOUS
 90
10
 70
0
 10
112.6536398515
 20
-41.1930042769
 10
112.8358198593
 20
-41.1848256435
 10
112.9977442761
 20
-41.1765006457
 10
113.1384934103
 20
-41.1680765743
 10
113.2579475426
 20
-41.1595528081
 10
113.3562263924
 20
-41.1509299683
 10
113.4327694269
 20
-41.1422572093
 10
113.48745221
 20
-41.1335342762
 10
113.5203991778
 20
-41.1247614239
 10
113.5314218928
 20
-41.1158968441
  0
LWPOLYLINE
  5
32D
100
AcDbEntity
  8
RACCORDO
100
AcDbPolyline
 62
250
  6
CONTINUOUS
 90
14
 70
0
 10
156.220914202
 20
-40.4586269291
 10
156.2416622018
 20
-40.4578184513
 10
156.2608629545
 20
-40.4569681372
 10
156.2784516457
 20
-40.456077827
 10
156.2942545491
 20
-40.4551671762
 10
156.3082738167
 20
-40.4542352941
 10
156.3205130727
 20
-40.4532830714
 10
156.3308980406
 20
-40.4523328358
 10
156.3394971659
 20
-40.4513851744
 10
156.3463897081
 20
-40.4504395001
 10
156.351615297
 20
-40.4495163798
 10
156.3552921753
 20
-40.4486226694
 10
156.3575689148
 20
-40.447751513
 10
156.358575216
 20
-40.4469029106
  0
LINE
  5
32E
100
AcDbEntity
  8
0
100
AcDbLine
 62
7
  6
CONTINUOUS
 10
146.2282781291
 20
-41.2089209292
 11
146.6536398515
 21
-41.1930042769
  0
LINE
  5
32F
100
AcDbEntity
  8
0
100
AcDbLine
 62
7
  6
CONTINUOUS
 10
125.7717218709
 20
-41.0230562139
 11
125.3463601485
 21
-41.0389728663
  0
LINE
  5
330
100
AcDbEntity
  8
0
100
AcDbLine
 62
7
  6
CONTINUOUS
 10
112.2282781291
 20
-41.2089209292
 11
112.6536398515
 21
-41.1930042769
  0
LINE
  5
331
100
AcDbEntity
  8
RACCORDO
100
AcDbLine
 62
250
  6
CONTINUOUS
 10
156.1751910773
 20
-40.4601097619
 11
156.220914202
 21
-40.4586269291
  0
LWPOLYLINE
  5
332
100
AcDbEntity
  8
RACCORDO
100
AcDbPolyline
 62
250
  6
CONTINUOUS
 90
11
 70
0
 10
156.698202773
 20
-40.9560012637
 10
156.7298663599
 20
-40.9550907153
 10
156.7578324194
 20
-40.9541589403
 10
156.7822556172
 20
-40.9532068271
 10
156.803141011
 20
-40.9522566766
 10
156.8203299366
 20
-40.9513090644
 10
156.8339810583
 20
-40.9503634149
 10
156.8445754267
 20
-40.9494403021
 10
156.8522733922
 20
-40.9485465841
 10
156.8569146045
 20
-40.9476754028
 10
156.8584990636
 20
-40.9468267582
  0
LINE
  5
333
100
AcDbEntity
  8
0
100
AcDbLine
 62
7
  6
CONTINUOUS
 10
145.7256049568
 20
-41.2241159177
 11
146.2282781291
 21
-41.2089209292
  0
LINE
  5
334
100
AcDbEntity
  8
DRAFT
100
AcDbLine
 62
7
  6
CONTINUOUS
 10
-146.2282781291
 20
-41.2089209292
 11
-145.7256049568
 21
-41.2241159177
  0
LINE
  5
335
100
AcDbEntity
  8
0
100
AcDbLine
 62
7
  6
CONTINUOUS
 10
-155.0936170042
 20
-0.5625000596
 11
-154.9021276653
 21
-0.625
  0
LINE
  5
336
100
AcDbEntity
  8
0
100
AcDbLine
 62
7
  6
CONTINUOUS
 10
-154.7106382817
 20
2.4375001192
 11
-154.9021276653
 21
2.4999998808
  0
LINE
  5
337
100
AcDbEntity
  8
0
100
AcDbLine
 62
7
  6
CONTINUOUS
 10
-18.1
 20
39.7
 11
-17.8248759926
 21
39.9751240074
  0
LWPOLYLINE
  5
338
100
AcDbEntity
  8
DRAFT
100
AcDbPolyline
 62
7
  6
CONTINUOUS
 90
10
 70
0
 10
-11.5314218928
 20
41.1158968441
 10
-11.5203991778
 20
41.1247614239
 10
-11.48745221
 20
41.1335342762
 10
-11.4327694269
 20
41.1422572093
 10
-11.3562263924
 20
41.1509299683
 10
-11.2579475426
 20
41.1595528081
 10
-11.1384934103
 20
41.1680765743
 10
-10.9977442761
 20
41.1765006457
 10
-10.8358198593
 20
41.1848256435
 10
-10.6536398515
 20
41.1930042769
  0
LWPOLYLINE
  5
339
100
AcDbEntity
  8
0
100
AcDbPolyline
 62
7
  6
CONTINUOUS
 90
10
 70
0
 10
91.3463601485
 20
-41.0389728663
 10
91.1641801407
 20
-41.0471514996
 10
91.0022557239
 20
-41.0554764975
 10
90.8615065897
 20
-41.0639005689
 10
90.7420524574
 20
-41.0724243351
 10
90.6437736076
 20
-41.0810471749
 10
90.5672305731
 20
-41.0897199339
 10
90.51254779
 20
-41.098442867
 10
90.4796008222
 20
-41.1072157193
 10
90.4685781072
 20
-41.1158968441
  0
LWPOLYLINE
  5
33A
100
AcDbEntity
  8
DRAFT
100
AcDbPolyline
 62
7
  6
CONTINUOUS
 90
10
 70
0
 10
10.6536398515
 20
-41.1930042769
 10
10.8358198593
 20
-41.1848256435
 10
10.9977442761
 20
-41.1765006457
 10
11.1384934103
 20
-41.1680765743
 10
11.2579475426
 20
-41.1595528081
 10
11.3562263924
 20
-41.1509299683
 10
11.4327694269
 20
-41.1422572093
 10
11.48745221
 20
-41.1335342762
 10
11.5203991778
 20
-41.1247614239
 10
11.5314218928
 20
-41.1158968441
  0
LWPOLYLINE
  5
33B
100
AcDbEntity
  8
DRAFT
100
AcDbPolyline
 62
7
  6
CONTINUOUS
 90
10
 70
0
 10
-10.6536398515
 20
-41.0389728663
 10
-10.8358198593
 20
-41.0471514996
 10
-10.9977442761
 20
-41.0554764975
 10
-11.1384934103
 20
-41.0639005689
 10
-11.2579475426
 20
-41.0724243351
 10
-11.3562263924
 20
-41.0810471749
 10
-11.4327694269
 20
-41.0897199339
 10
-11.48745221
 20
-41.098442867
 10
-11.5203991778
 20
-41.1072157193
 10
-11.5314218928
 20
-41.1158968441
  0
LWPOLYLINE
  5
33C
100
AcDbEntity
  8
DRAFT
100
AcDbPolyline
 62
7
  6
CONTINUOUS
 90
10
 70
0
 10
-91.3463601485
 20
-41.1930042769
 10
-91.1641801407
 20
-41.1848256435
 10
-91.0022557239
 20
-41.1765006457
 10
-90.8615065897
 20
-41.1680765743
 10
-90.7420524574
 20
-41.1595528081
 10
-90.6437736076
 20
-41.1509299683
 10
-90.5672305731
 20
-41.1422572093
 10
-90.51254779
 20
-41.1335342762
 10
-90.4796008222
 20
-41.1247614239
 10
-90.4685781072
 20
-41.1158968441
  0
LWPOLYLINE
  5
33D
100
AcDbEntity
  8
DRAFT
100
AcDbPolyline
 62
7
  6
CONTINUOUS
 90
10
 70
0
 10
-112.6536398515
 20
-41.0389728663
 10
-112.8358198593
 20
-41.0471514996
 10
-112.9977442761
 20
-41.0554764975
 10
-113.1384934103
 20
-41.0639005689
 10
-113.2579475426
 20
-41.0724243351
 10
-113.3562263924
 20
-41.0810471749
 10
-113.4327694269
 20
-41.0897199339
 10
-113.48745221
 20
-41.098442867
 10
-113.5203991778
 20
-41.1072157193
 10
-113.5314218928
 20
-41.1158968441
  0
LWPOLYLINE
  5
33E
100
AcDbEntity
  8
DRAFT
100
AcDbPolyline
 62
7
  6
CONTINUOUS
 90
10
 70
0
 10
-125.3463601485
 20
-41.1930042769
 10
-125.1641801407
 20
-41.1848256435
 10
-125.0022557239
 20
-41.1765006457
 10
-124.8615065897
 20
-41.1680765743
 10
-124.7420524574
 20
-41.1595528081
 10
-124.6437736076
 20
-41.1509299683
 10
-124.5672305731
 20
-41.1422572093
 10
-124.51254779
 20
-41.1335342762
 10
-124.4796008222
 20
-41.1247614239
 10
-124.4685781072
 20
-41.1158968441
  0
LWPOLYLINE
  5
33F
100
AcDbEntity
  8
DRAFT
100
AcDbPolyline
 62
7
  6
CONTINUOUS
 90
10
 70
0
 10
-146.6536398515
 20
-41.0389728663
 10
-146.8358198593
 20
-41.0471514996
 10
-146.9977442761
 20
-41.0554764975
 10
-147.1384934103
 20
-41.0639005689
 10
-147.2579475426
 20
-41.0724243351
 10
-147.3562263924
 20
-41.0810471749
 10
-147.4327694269
 20
-41.0897199339
 10
-147.48745221
 20
-41.098442867
 10
-147.5203991778
 20
-41.1072157193
 10
-147.5314218928
 20
-41.1158968441
  0
LINE
  5
340
100
AcDbEntity
  8
0
100
AcDbLine
 62
7
  6
CONTINUOUS
 10
91.7717218709
 20
-41.0230562139
 11
91.3463601485
 21
-41.0389728663
  0
LINE
  5
341
100
AcDbEntity
  8
DRAFT
100
AcDbLine
 62
7
  6
CONTINUOUS
 10
10.2282781291
 20
-41.2089209292
 11
10.6536398515
 21
-41.1930042769
  0
LINE
  5
342
100
AcDbEntity
  8
DRAFT
100
AcDbLine
 62
7
  6
CONTINUOUS
 10
-10.2282781291
 20
-41.0230562139
 11
-10.6536398515
 21
-41.0389728663
  0
LINE
  5
343
100
AcDbEntity
  8
DRAFT
100
AcDbLine
 62
7
  6
CONTINUOUS
 10
-91.7717218709
 20
-41.2089209292
 11
-91.3463601485
 21
-41.1930042769
  0
LINE
  5
344
100
AcDbEntity
  8
DRAFT
100
AcDbLine
 62
7
  6
CONTINUOUS
 10
-112.2282781291
 20
-41.0230562139
 11
-112.6536398515
 21
-41.0389728663
  0
LINE
  5
345
100
AcDbEntity
  8
DRAFT
100
AcDbLine
 62
7
  6
CONTINUOUS
 10
-125.7717218709
 20
-41.2089209292
 11
-125.3463601485
 21
-41.1930042769
  0
LINE
  5
346
100
AcDbEntity
  8
DRAFT
100
AcDbLine
 62
7
  6
CONTINUOUS
 10
-146.2282781291
 20
-41.0230562139
 11
-146.6536398515
 21
-41.0389728663
  0
LINE
  5
347
100
AcDbEntity
  8
0
100
AcDbLine
 62
7
  6
CONTINUOUS
 10
126.2743950432
 20
-41.0078612254
 11
125.7717218709
 21
-41.0230562139
  0
LINE
  5
348
100
AcDbEntity
  8
0
100
AcDbLine
 62
7
  6
CONTINUOUS
 10
111.7256049568
 20
-41.2241159177
 11
112.2282781291
 21
-41.2089209292
  0
LINE
  5
349
100
AcDbEntity
  8
0
100
AcDbLine
 62
7
  6
CONTINUOUS
 10
92.2743950432
 20
-41.0078612254
 11
91.7717218709
 21
-41.0230562139
  0
LINE
  5
34A
100
AcDbEntity
  8
DRAFT
100
AcDbLine
 62
7
  6
CONTINUOUS
 10
9.7256049568
 20
-41.2241159177
 11
10.2282781291
 21
-41.2089209292
  0
LINE
  5
34B
100
AcDbEntity
  8
DRAFT
100
AcDbLine
 62
7
  6
CONTINUOUS
 10
-9.7256049568
 20
-41.0078612254
 11
-10.2282781291
 21
-41.0230562139
  0
LINE
  5
34C
100
AcDbEntity
  8
DRAFT
100
AcDbLine
 62
7
  6
CONTINUOUS
 10
-92.2743950432
 20
-41.2241159177
 11
-91.7717218709
 21
-41.2089209292
  0
LINE
  5
34D
100
AcDbEntity
  8
DRAFT
100
AcDbLine
 62
7
  6
CONTINUOUS
 10
-111.7256049568
 20
-41.0078612254
 11
-112.2282781291
 21
-41.0230562139
  0
LINE
  5
34E
100
AcDbEntity
  8
DRAFT
100
AcDbLine
 62
7
  6
CONTINUOUS
 10
-126.2743950432
 20
-41.2241159177
 11
-125.7717218709
 21
-41.2089209292
  0
LINE
  5
34F
100
AcDbEntity
  8
DRAFT
100
AcDbLine
 62
7
  6
CONTINUOUS
 10
-145.7256049568
 20
-41.0078612254
 11
-146.2282781291
 21
-41.0230562139
  0
LINE
  5
350
100
AcDbEntity
  8
0
100
AcDbLine
 62
7
  6
CONTINUOUS
 10
145.1484806035
 20
-41.2385027512
 11
145.7256049568
 21
-41.2241159177
  0
LINE
  5
351
100
AcDbEntity
  8
0
100
AcDbLine
 62
7
  6
CONTINUOUS
 10
126.8515193965
 20
-40.993474392
 11
126.2743950432
 21
-41.0078612254
  0
LINE
  5
352
100
AcDbEntity
  8
0
100
AcDbLine
 62
7
  6
CONTINUOUS
 10
111.1484806035
 20
-41.2385027512
 11
111.7256049568
 21
-41.2241159177
  0
LINE
  5
353
100
AcDbEntity
  8
0
100
AcDbLine
 62
7
  6
CONTINUOUS
 10
92.8515193965
 20
-40.993474392
 11
92.2743950432
 21
-41.0078612254
  0
LINE
  5
354
100
AcDbEntity
  8
DRAFT
100
AcDbLine
 62
7
  6
CONTINUOUS
 10
9.1484806035
 20
-41.2385027512
 11
9.7256049568
 21
-41.2241159177
  0
LINE
  5
355
100
AcDbEntity
  8
DRAFT
100
AcDbLine
 62
7
  6
CONTINUOUS
 10
-9.1484806035
 20
-40.993474392
 11
-9.7256049568
 21
-41.0078612254
  0
LINE
  5
356
100
AcDbEntity
  8
DRAFT
100
AcDbLine
 62
7
  6
CONTINUOUS
 10
-92.8515193965
 20
-41.2385027512
 11
-92.2743950432
 21
-41.2241159177
  0
LINE
  5
357
100
AcDbEntity
  8
DRAFT
100
AcDbLine
 62
7
  6
CONTINUOUS
 10
-111.1484806035
 20
-40.993474392
 11
-111.7256049568
 21
-41.0078612254
  0
LINE
  5
358
100
AcDbEntity
  8
DRAFT
100
AcDbLine
 62
7
  6
CONTINUOUS
 10
-126.8515193965
 20
-41.2385027512
 11
-126.2743950432
 21
-41.2241159177
  0
LINE
  5
359
100
AcDbEntity
  8
DRAFT
100
AcDbLine
 62
7
  6
CONTINUOUS
 10
-145.1484806035
 20
-40.993474392
 11
-145.7256049568
 21
-41.0078612254
  0
LINE
  5
35A
100
AcDbEntity
  8
RACCORDO
100
AcDbLine
 62
250
  6
CONTINUOUS
 10
156.1248856988
 20
-40.4613718314
 11
156.1751910773
 21
-40.4601097619
  0
LINE
  5
35B
100
AcDbEntity
  8
RACCORDO
100
AcDbLine
 62
250
  6
CONTINUOUS
 10
156.6247059525
 20
-40.9577417095
 11
156.698202773
 21
-40.9560012637
  0
LINE
  5
35C
100
AcDbEntity
  8
0
100
AcDbLine
 62
7
  6
CONTINUOUS
 10
144.5015690036
 20
-41.2519556752
 11
145.1484806035
 21
-41.2385027512
  0
LINE
  5
35D
100
AcDbEntity
  8
0
100
AcDbLine
 62
7
  6
CONTINUOUS
 10
127.4984309964
 20
-40.9800214679
 11
126.8515193965
 21
-40.993474392
  0
LINE
  5
35E
100
AcDbEntity
  8
0
100
AcDbLine
 62
7
  6
CONTINUOUS
 10
110.5015690036
 20
-41.2519556752
 11
111.1484806035
 21
-41.2385027512
  0
LINE
  5
35F
100
AcDbEntity
  8
0
100
AcDbLine
 62
7
  6
CONTINUOUS
 10
93.4984309964
 20
-40.9800214679
 11
92.8515193965
 21
-40.993474392
  0
LINE
  5
360
100
AcDbEntity
  8
DRAFT
100
AcDbLine
 62
7
  6
CONTINUOUS
 10
8.5015690036
 20
-41.2519556752
 11
9.1484806035
 21
-41.2385027512
  0
LINE
  5
361
100
AcDbEntity
  8
DRAFT
100
AcDbLine
 62
7
  6
CONTINUOUS
 10
-8.5015690036
 20
-40.9800214679
 11
-9.1484806035
 21
-40.993474392
  0
LINE
  5
362
100
AcDbEntity
  8
DRAFT
100
AcDbLine
 62
7
  6
CONTINUOUS
 10
-93.4984309964
 20
-41.2519556752
 11
-92.8515193965
 21
-41.2385027512
  0
LINE
  5
363
100
AcDbEntity
  8
DRAFT
100
AcDbLine
 62
7
  6
CONTINUOUS
 10
-110.5015690036
 20
-40.9800214679
 11
-111.1484806035
 21
-40.993474392
  0
LINE
  5
364
100
AcDbEntity
  8
DRAFT
100
AcDbLine
 62
7
  6
CONTINUOUS
 10
-127.4984309964
 20
-41.2519556752
 11
-126.8515193965
 21
-41.2385027512
  0
LINE
  5
365
100
AcDbEntity
  8
DRAFT
100
AcDbLine
 62
7
  6
CONTINUOUS
 10
-144.5015690036
 20
-40.9800214679
 11
-145.1484806035
 21
-40.993474392
  0
LINE
  5
366
100
AcDbEntity
  8
RACCORDO
100
AcDbLine
 62
250
  6
CONTINUOUS
 10
156.0714916087
 20
-40.4623915075
 11
156.1248856988
 21
-40.4613718314
  0
LINE
  5
367
100
AcDbEntity
  8
0
100
AcDbLine
 62
7
  6
CONTINUOUS
 10
143.7906834415
 20
-41.2643623041
 11
144.5015690036
 21
-41.2519556752
  0
LINE
  5
368
100
AcDbEntity
  8
0
100
AcDbLine
 62
7
  6
CONTINUOUS
 10
128.2093165585
 20
-40.9676148391
 11
127.4984309964
 21
-40.9800214679
  0
LINE
  5
369
100
AcDbEntity
  8
0
100
AcDbLine
 62
7
  6
CONTINUOUS
 10
109.7906834415
 20
-41.2643623041
 11
110.5015690036
 21
-41.2519556752
  0
LINE
  5
36A
100
AcDbEntity
  8
0
100
AcDbLine
 62
7
  6
CONTINUOUS
 10
94.2093165585
 20
-40.9676148391
 11
93.4984309964
 21
-40.9800214679
  0
LINE
  5
36B
100
AcDbEntity
  8
DRAFT
100
AcDbLine
 62
7
  6
CONTINUOUS
 10
7.7906834415
 20
-41.2643623041
 11
8.5015690036
 21
-41.2519556752
  0
LINE
  5
36C
100
AcDbEntity
  8
DRAFT
100
AcDbLine
 62
7
  6
CONTINUOUS
 10
-7.7906834415
 20
-40.9676148391
 11
-8.5015690036
 21
-40.9800214679
  0
LINE
  5
36D
100
AcDbEntity
  8
DRAFT
100
AcDbLine
 62
7
  6
CONTINUOUS
 10
-94.2093165585
 20
-41.2643623041
 11
-93.4984309964
 21
-41.2519556752
  0
LINE
  5
36E
100
AcDbEntity
  8
DRAFT
100
AcDbLine
 62
7
  6
CONTINUOUS
 10
-109.7906834415
 20
-40.9676148391
 11
-110.5015690036
 21
-40.9800214679
  0
LINE
  5
36F
100
AcDbEntity
  8
DRAFT
100
AcDbLine
 62
7
  6
CONTINUOUS
 10
-128.2093165585
 20
-41.2643623041
 11
-127.4984309964
 21
-41.2519556752
  0
LINE
  5
370
100
AcDbEntity
  8
DRAFT
100
AcDbLine
 62
7
  6
CONTINUOUS
 10
-143.7906834415
 20
-40.9676148391
 11
-144.5015690036
 21
-40.9800214679
  0
LINE
  5
371
100
AcDbEntity
  8
RACCORDO
100
AcDbLine
 62
250
  6
CONTINUOUS
 10
156.4917902372
 20
-40.9600329329
 11
156.6247059525
 21
-40.9577417095
  0
LINE
  5
372
100
AcDbEntity
  8
0
100
AcDbLine
 62
7
  6
CONTINUOUS
 10
143.0198701687
 20
-41.2756519972
 11
143.7906834415
 21
-41.2643623041
  0
LINE
  5
373
100
AcDbEntity
  8
0
100
AcDbLine
 62
7
  6
CONTINUOUS
 10
109.0198701687
 20
-41.2756519972
 11
109.7906834415
 21
-41.2643623041
  0
LINE
  5
374
100
AcDbEntity
  8
0
100
AcDbLine
 62
7
  6
CONTINUOUS
 10
128.9801298313
 20
-40.956325146
 11
128.2093165585
 21
-40.9676148391
  0
LINE
  5
375
100
AcDbEntity
  8
0
100
AcDbLine
 62
7
  6
CONTINUOUS
 10
94.9801298313
 20
-40.956325146
 11
94.2093165585
 21
-40.9676148391
  0
LINE
  5
376
100
AcDbEntity
  8
DRAFT
100
AcDbLine
 62
7
  6
CONTINUOUS
 10
7.0198701687
 20
-41.2756519972
 11
7.7906834415
 21
-41.2643623041
  0
LINE
  5
377
100
AcDbEntity
  8
DRAFT
100
AcDbLine
 62
7
  6
CONTINUOUS
 10
-7.0198701687
 20
-40.956325146
 11
-7.7906834415
 21
-40.9676148391
  0
LINE
  5
378
100
AcDbEntity
  8
DRAFT
100
AcDbLine
 62
7
  6
CONTINUOUS
 10
-94.9801298313
 20
-41.2756519972
 11
-94.2093165585
 21
-41.2643623041
  0
LINE
  5
379
100
AcDbEntity
  8
DRAFT
100
AcDbLine
 62
7
  6
CONTINUOUS
 10
-128.9801298313
 20
-41.2756519972
 11
-128.2093165585
 21
-41.2643623041
  0
LINE
  5
37A
100
AcDbEntity
  8
DRAFT
100
AcDbLine
 62
7
  6
CONTINUOUS
 10
-109.0198701687
 20
-40.956325146
 11
-109.7906834415
 21
-40.9676148391
  0
LINE
  5
37B
100
AcDbEntity
  8
DRAFT
100
AcDbLine
 62
7
  6
CONTINUOUS
 10
-143.0198701687
 20
-40.956325146
 11
-143.7906834415
 21
-40.9676148391
  0
LINE
  5
37C
100
AcDbEntity
  8
RACCORDO
100
AcDbLine
 62
250
  6
CONTINUOUS
 10
156.0164677955
 20
-40.46316091
 11
156.0714916087
 21
-40.4623915075
  0
LINE
  5
37D
100
AcDbEntity
  8
0
100
AcDbLine
 62
7
  6
CONTINUOUS
 10
141.7656813678
 20
-41.290277426
 11
143.0198701687
 21
-41.2756519972
  0
LINE
  5
37E
100
AcDbEntity
  8
0
100
AcDbLine
 62
7
  6
CONTINUOUS
 10
107.7656813678
 20
-41.290277426
 11
109.0198701687
 21
-41.2756519972
  0
LINE
  5
37F
100
AcDbEntity
  8
0
100
AcDbLine
 62
7
  6
CONTINUOUS
 10
130.2343186322
 20
-40.9416997171
 11
128.9801298313
 21
-40.956325146
  0
LINE
  5
380
100
AcDbEntity
  8
0
100
AcDbLine
 62
7
  6
CONTINUOUS
 10
96.2343186322
 20
-40.9416997171
 11
94.9801298313
 21
-40.956325146
  0
LINE
  5
381
100
AcDbEntity
  8
DRAFT
100
AcDbLine
 62
7
  6
CONTINUOUS
 10
5.7656813678
 20
-41.290277426
 11
7.0198701687
 21
-41.2756519972
  0
LINE
  5
382
100
AcDbEntity
  8
DRAFT
100
AcDbLine
 62
7
  6
CONTINUOUS
 10
-5.7656813678
 20
-40.9416997171
 11
-7.0198701687
 21
-40.956325146
  0
LINE
  5
383
100
AcDbEntity
  8
DRAFT
100
AcDbLine
 62
7
  6
CONTINUOUS
 10
-96.2343186322
 20
-41.290277426
 11
-94.9801298313
 21
-41.2756519972
  0
LINE
  5
384
100
AcDbEntity
  8
DRAFT
100
AcDbLine
 62
7
  6
CONTINUOUS
 10
-130.2343186322
 20
-41.290277426
 11
-128.9801298313
 21
-41.2756519972
  0
LINE
  5
385
100
AcDbEntity
  8
DRAFT
100
AcDbLine
 62
7
  6
CONTINUOUS
 10
-107.7656813678
 20
-40.9416997171
 11
-109.0198701687
 21
-40.956325146
  0
LINE
  5
386
100
AcDbEntity
  8
DRAFT
100
AcDbLine
 62
7
  6
CONTINUOUS
 10
-141.7656813678
 20
-40.9416997171
 11
-143.0198701687
 21
-40.956325146
  0
LINE
  5
387
100
AcDbEntity
  8
RACCORDO
100
AcDbLine
 62
250
  6
CONTINUOUS
 10
156.3384064799
 20
-40.961837185
 11
156.4917902372
 21
-40.9600329329
  0
LINE
  5
388
100
AcDbEntity
  8
0
100
AcDbLine
 62
7
  6
CONTINUOUS
 10
140.4128720919
 20
-41.3019204181
 11
141.7656813678
 21
-41.290277426
  0
LINE
  5
389
100
AcDbEntity
  8
0
100
AcDbLine
 62
7
  6
CONTINUOUS
 10
106.4128720919
 20
-41.3019204181
 11
107.7656813678
 21
-41.290277426
  0
LINE
  5
38A
100
AcDbEntity
  8
0
100
AcDbLine
 62
7
  6
CONTINUOUS
 10
131.5871279081
 20
-40.930056725
 11
130.2343186322
 21
-40.9416997171
  0
LINE
  5
38B
100
AcDbEntity
  8
0
100
AcDbLine
 62
7
  6
CONTINUOUS
 10
97.5871279081
 20
-40.930056725
 11
96.2343186322
 21
-40.9416997171
  0
LINE
  5
38C
100
AcDbEntity
  8
DRAFT
100
AcDbLine
 62
7
  6
CONTINUOUS
 10
4.4128720919
 20
-41.3019204181
 11
5.7656813678
 21
-41.290277426
  0
LINE
  5
38D
100
AcDbEntity
  8
DRAFT
100
AcDbLine
 62
7
  6
CONTINUOUS
 10
-4.4128720919
 20
-40.930056725
 11
-5.7656813678
 21
-40.9416997171
  0
LINE
  5
38E
100
AcDbEntity
  8
DRAFT
100
AcDbLine
 62
7
  6
CONTINUOUS
 10
-97.5871279081
 20
-41.3019204181
 11
-96.2343186322
 21
-41.290277426
  0
LINE
  5
38F
100
AcDbEntity
  8
DRAFT
100
AcDbLine
 62
7
  6
CONTINUOUS
 10
-131.5871279081
 20
-41.3019204181
 11
-130.2343186322
 21
-41.290277426
  0
LINE
  5
390
100
AcDbEntity
  8
DRAFT
100
AcDbLine
 62
7
  6
CONTINUOUS
 10
-106.4128720919
 20
-40.930056725
 11
-107.7656813678
 21
-40.9416997171
  0
LINE
  5
391
100
AcDbEntity
  8
DRAFT
100
AcDbLine
 62
7
  6
CONTINUOUS
 10
-140.4128720919
 20
-40.930056725
 11
-141.7656813678
 21
-40.9416997171
  0
LINE
  5
392
100
AcDbEntity
  8
RACCORDO
100
AcDbLine
 62
250
  6
CONTINUOUS
 10
155.9347696193
 20
-40.4638498248
 11
156.0164677955
 21
-40.46316091
  0
LINE
  5
393
100
AcDbEntity
  8
RACCORDO
100
AcDbLine
 62
250
  6
CONTINUOUS
 10
156.1194235389
 20
-40.9633734922
 11
156.3384064799
 21
-40.961837185
  0
LINE
  5
394
100
AcDbEntity
  8
0
100
AcDbLine
 62
7
  6
CONTINUOUS
 10
138.9845336314
 20
-41.3103822756
 11
140.4128720919
 21
-41.3019204181
  0
LINE
  5
395
100
AcDbEntity
  8
0
100
AcDbLine
 62
7
  6
CONTINUOUS
 10
104.9845336314
 20
-41.3103822756
 11
106.4128720919
 21
-41.3019204181
  0
LINE
  5
396
100
AcDbEntity
  8
0
100
AcDbLine
 62
7
  6
CONTINUOUS
 10
133.0154663686
 20
-40.9215948676
 11
131.5871279081
 21
-40.930056725
  0
LINE
  5
397
100
AcDbEntity
  8
0
100
AcDbLine
 62
7
  6
CONTINUOUS
 10
99.0154663686
 20
-40.9215948676
 11
97.5871279081
 21
-40.930056725
  0
LINE
  5
398
100
AcDbEntity
  8
DRAFT
100
AcDbLine
 62
7
  6
CONTINUOUS
 10
2.9845336314
 20
-41.3103822756
 11
4.4128720919
 21
-41.3019204181
  0
LINE
  5
399
100
AcDbEntity
  8
DRAFT
100
AcDbLine
 62
7
  6
CONTINUOUS
 10
-2.9845336314
 20
-40.9215948676
 11
-4.4128720919
 21
-40.930056725
  0
LINE
  5
39A
100
AcDbEntity
  8
DRAFT
100
AcDbLine
 62
7
  6
CONTINUOUS
 10
-99.0154663686
 20
-41.3103822756
 11
-97.5871279081
 21
-41.3019204181
  0
LINE
  5
39B
100
AcDbEntity
  8
DRAFT
100
AcDbLine
 62
7
  6
CONTINUOUS
 10
-133.0154663686
 20
-41.3103822756
 11
-131.5871279081
 21
-41.3019204181
  0
LINE
  5
39C
100
AcDbEntity
  8
DRAFT
100
AcDbLine
 62
7
  6
CONTINUOUS
 10
-104.9845336314
 20
-40.9215948676
 11
-106.4128720919
 21
-40.930056725
  0
LINE
  5
39D
100
AcDbEntity
  8
DRAFT
100
AcDbLine
 62
7
  6
CONTINUOUS
 10
-138.9845336314
 20
-40.9215948676
 11
-140.4128720919
 21
-40.930056725
  0
LINE
  5
39E
100
AcDbEntity
  8
0
100
AcDbLine
 62
7
  6
CONTINUOUS
 10
137.5051480353
 20
-41.3155179343
 11
138.9845336314
 21
-41.3103822756
  0
LINE
  5
39F
100
AcDbEntity
  8
0
100
AcDbLine
 62
7
  6
CONTINUOUS
 10
103.5051480353
 20
-41.3155179343
 11
104.9845336314
 21
-41.3103822756
  0
LINE
  5
3A0
100
AcDbEntity
  8
DRAFT
100
AcDbLine
 62
7
  6
CONTINUOUS
 10
1.5051480353
 20
-41.3155179343
 11
2.9845336314
 21
-41.3103822756
  0
LINE
  5
3A1
100
AcDbEntity
  8
0
100
AcDbLine
 62
7
  6
CONTINUOUS
 10
134.4948519647
 20
-40.9164592088
 11
133.0154663686
 21
-40.9215948676
  0
LINE
  5
3A2
100
AcDbEntity
  8
0
100
AcDbLine
 62
7
  6
CONTINUOUS
 10
100.4948519647
 20
-40.9164592088
 11
99.0154663686
 21
-40.9215948676
  0
LINE
  5
3A3
100
AcDbEntity
  8
DRAFT
100
AcDbLine
 62
7
  6
CONTINUOUS
 10
-100.4948519647
 20
-41.3155179343
 11
-99.0154663686
 21
-41.3103822756
  0
LINE
  5
3A4
100
AcDbEntity
  8
DRAFT
100
AcDbLine
 62
7
  6
CONTINUOUS
 10
-134.4948519647
 20
-41.3155179343
 11
-133.0154663686
 21
-41.3103822756
  0
LINE
  5
3A5
100
AcDbEntity
  8
DRAFT
100
AcDbLine
 62
7
  6
CONTINUOUS
 10
-1.5051480353
 20
-40.9164592088
 11
-2.9845336314
 21
-40.9215948676
  0
LINE
  5
3A6
100
AcDbEntity
  8
DRAFT
100
AcDbLine
 62
7
  6
CONTINUOUS
 10
-103.5051480353
 20
-40.9164592088
 11
-104.9845336314
 21
-40.9215948676
  0
LINE
  5
3A7
100
AcDbEntity
  8
DRAFT
100
AcDbLine
 62
7
  6
CONTINUOUS
 10
-137.5051480353
 20
-40.9164592088
 11
-138.9845336314
 21
-40.9215948676
  0
LINE
  5
3A8
100
AcDbEntity
  8
RACCORDO
100
AcDbLine
 62
250
  6
CONTINUOUS
 10
155.8586513684
 20
-40.4640533427
 11
155.9347696193
 21
-40.4638498248
  0
LINE
  5
3A9
100
AcDbEntity
  8
0
100
AcDbLine
 62
7
  6
CONTINUOUS
 10
136.0
 20
-41.3172396544
 11
137.5051480353
 21
-41.3155179343
  0
LINE
  5
3AA
100
AcDbEntity
  8
0
100
AcDbLine
 62
7
  6
CONTINUOUS
 10
102.0
 20
-41.3172396544
 11
103.5051480353
 21
-41.3155179343
  0
LINE
  5
3AB
100
AcDbEntity
  8
DRAFT
100
AcDbLine
 62
7
  6
CONTINUOUS
 10
-0.0
 20
-41.3172396544
 11
1.5051480353
 21
-41.3155179343
  0
LINE
  5
3AC
100
AcDbEntity
  8
DRAFT
100
AcDbLine
 62
7
  6
CONTINUOUS
 10
-102.0
 20
-41.3172396544
 11
-100.4948519647
 21
-41.3155179343
  0
LINE
  5
3AD
100
AcDbEntity
  8
DRAFT
100
AcDbLine
 62
7
  6
CONTINUOUS
 10
-136.0
 20
-41.3172396544
 11
-134.4948519647
 21
-41.3155179343
  0
LINE
  5
3AE
100
AcDbEntity
  8
0
100
AcDbLine
 62
7
  6
CONTINUOUS
 10
136.0
 20
-40.9147374887
 11
134.4948519647
 21
-40.9164592088
  0
LINE
  5
3AF
100
AcDbEntity
  8
0
100
AcDbLine
 62
7
  6
CONTINUOUS
 10
102.0
 20
-40.9147374887
 11
100.4948519647
 21
-40.9164592088
  0
LINE
  5
3B0
100
AcDbEntity
  8
DRAFT
100
AcDbLine
 62
7
  6
CONTINUOUS
 10
-0.0
 20
-40.9147374887
 11
-1.5051480353
 21
-40.9164592088
  0
LINE
  5
3B1
100
AcDbEntity
  8
DRAFT
100
AcDbLine
 62
7
  6
CONTINUOUS
 10
-102.0
 20
-40.9147374887
 11
-103.5051480353
 21
-40.9164592088
  0
LINE
  5
3B2
100
AcDbEntity
  8
DRAFT
100
AcDbLine
 62
7
  6
CONTINUOUS
 10
-136.0
 20
-40.9147374887
 11
-137.5051480353
 21
-40.9164592088
  0
LINE
  5
3B3
100
AcDbEntity
  8
SUPERFICI
100
AcDbLine
 62
7
  6
CONTINUOUS
 10
-164.0000001209
 20
-41.5000003491
 11
164.0000001209
 21
-41.5000003491
  0
LINE
  5
3B4
100
AcDbEntity
  8
DRAFT
100
AcDbLine
 62
7
  6
CONTINUOUS
 10
-164.0
 20
-41.5
 11
164.0
 21
-41.5
  0
LINE
  5
3B5
100
AcDbEntity
  8
RACCORDO
100
AcDbLine
 62
250
  6
CONTINUOUS
 10
151.0413486316
 20
-40.9639771903
 11
156.1194235389
 21
-40.9633734922
  0
LINE
  5
3B6
100
AcDbEntity
  8
RACCORDO
100
AcDbLine
 62
250
  6
CONTINUOUS
 10
-164.0
 20
-40.8747431161
 11
149.9694172943
 21
-40.8747431161
  0
LINE
  5
3B7
100
AcDbEntity
  8
RACCORDO
100
AcDbLine
 62
250
  6
CONTINUOUS
 10
156.9305827057
 20
-40.8747431161
 11
164.0
 21
-40.8747431161
  0
LINE
  5
3B8
100
AcDbEntity
  8
0
100
AcDbLine
 62
7
  6
CONTINUOUS
 10
-164.0
 20
-39.9751240074
 11
-162.2248759926
 21
-39.9751240074
  0
LINE
  5
3B9
100
AcDbEntity
  8
0
100
AcDbLine
 62
7
  6
CONTINUOUS
 10
17.8248759926
 20
-39.9751240074
 11
21.1751240074
 21
-39.9751240074
  0
LINE
  5
3BA
100
AcDbEntity
  8
0
100
AcDbLine
 62
7
  6
CONTINUOUS
 10
162.2248759926
 20
-39.9751240074
 11
164.0
 21
-39.9751240074
  0
LINE
  5
3BB
100
AcDbEntity
  8
RACCORDO
100
AcDbLine
 62
7
  6
CONTINUOUS
 10
151.0413486316
 20
-39.9748344851
 11
155.8586513684
 21
-39.9748344851
  0
LINE
  5
3BC
100
AcDbEntity
  8
RACCORDO
100
AcDbLine
 62
250
  6
CONTINUOUS
 10
150.4564316543
 20
-39.8821703245
 11
156.4435683455
 21
-39.8821703245
  0
LINE
  5
3BD
100
AcDbEntity
  8
DRAFT
100
AcDbLine
 62
7
  6
CONTINUOUS
 10
164.0
 20
-39.7
 11
162.5
 21
-39.7
  0
LINE
  5
3BE
100
AcDbEntity
  8
DRAFT
100
AcDbLine
 62
7
  6
CONTINUOUS
 10
20.9
 20
-39.7
 11
18.1
 21
-39.7
  0
LINE
  5
3BF
100
AcDbEntity
  8
DRAFT
100
AcDbLine
 62
7
  6
CONTINUOUS
 10
-162.5
 20
-39.7
 11
-164.0
 21
-39.7
  0
LINE
  5
3C0
100
AcDbEntity
  8
0
100
AcDbLine
 62
250
  6
CONTINUOUS
 10
-162.2242099741
 20
-39.6749258819
 11
17.8242099741
 21
-39.6749258819
  0
LINE
  5
3C1
100
AcDbEntity
  8
RACCORDO
100
AcDbLine
 62
250
  6
CONTINUOUS
 10
21.1757900259
 20
-39.6749258819
 11
150.2500749007
 21
-39.6749258624
  0
LINE
  5
3C2
100
AcDbEntity
  8
RACCORDO
100
AcDbLine
 62
250
  6
CONTINUOUS
 10
156.649925098
 20
-39.6749258628
 11
162.2242099741
 21
-39.6749258819
  0
LINE
  5
3C3
100
AcDbEntity
  8
RACCORDO
100
AcDbLine
 62
250
  6
CONTINUOUS
 10
149.9574119919
 20
-39.3822464769
 11
156.9425880081
 21
-39.3822464769
  0
LINE
  5
3C4
100
AcDbEntity
  8
DRAFT
100
AcDbLine
 62
250
  6
CONTINUOUS
 10
-162.5
 20
-35.5
 11
-162.2242099741
 21
-35.5
  0
LINE
  5
3C5
100
AcDbEntity
  8
DRAFT
100
AcDbLine
 62
250
  6
CONTINUOUS
 10
162.5
 20
-35.5
 11
162.2242099741
 21
-35.5
  0
LINE
  5
3C6
100
AcDbEntity
  8
DRAFT
100
AcDbLine
 62
250
  6
CONTINUOUS
 10
18.1
 20
-35.5
 11
17.8242099741
 21
-35.5
  0
LINE
  5
3C7
100
AcDbEntity
  8
DRAFT
100
AcDbLine
 62
250
  6
CONTINUOUS
 10
20.9
 20
-35.5
 11
21.1757900259
 21
-35.5
  0
LINE
  5
3C8
100
AcDbEntity
  8
0
100
AcDbLine
 62
250
  6
CONTINUOUS
 10
168.2
 20
-35.5
 11
170.0
 21
-35.5
  0
LINE
  5
3C9
100
AcDbEntity
  8
0
100
AcDbLine
 62
250
  6
CONTINUOUS
 10
-168.2
 20
-35.5
 11
-170.0
 21
-35.5
  0
LINE
  5
3CA
100
AcDbEntity
  8
DRAFT
100
AcDbLine
 62
7
  6
CONTINUOUS
 10
-168.2
 20
-34.0
 11
-164.0
 21
-34.0
  0
LINE
  5
3CB
100
AcDbEntity
  8
DRAFT
100
AcDbLine
 62
7
  6
CONTINUOUS
 10
164.0
 20
-34.0
 11
168.2
 21
-34.0
  0
LINE
  5
3CC
100
AcDbEntity
  8
0
100
AcDbLine
 62
7
  6
CONTINUOUS
 10
-168.1749258819
 20
-33.7242099741
 11
-164.0
 21
-33.7242099741
  0
LINE
  5
3CD
100
AcDbEntity
  8
0
100
AcDbLine
 62
7
  6
CONTINUOUS
 10
164.0
 20
-33.7242099741
 11
168.1749258819
 21
-33.7242099741
  0
LINE
  5
3CE
100
AcDbEntity
  8
DRAFT
100
AcDbLine
 62
7
  6
CONTINUOUS
 10
-137.5051480353
 20
-41.3155179343
 11
-136.0
 21
-41.3172396544
  0
LINE
  5
3CF
100
AcDbEntity
  8
DRAFT
100
AcDbLine
 62
7
  6
CONTINUOUS
 10
-103.5051480353
 20
-41.3155179343
 11
-102.0
 21
-41.3172396544
  0
LINE
  5
3D0
100
AcDbEntity
  8
DRAFT
100
AcDbLine
 62
7
  6
CONTINUOUS
 10
-1.5051480353
 20
-41.3155179343
 11
-0.0
 21
-41.3172396544
  0
LINE
  5
3D1
100
AcDbEntity
  8
DRAFT
100
AcDbLine
 62
7
  6
CONTINUOUS
 10
-134.4948519647
 20
-40.9164592088
 11
-136.0
 21
-40.9147374887
  0
LINE
  5
3D2
100
AcDbEntity
  8
0
100
AcDbLine
 62
7
  6
CONTINUOUS
 10
100.4948519647
 20
-41.3155179343
 11
102.0
 21
-41.3172396544
  0
LINE
  5
3D3
100
AcDbEntity
  8
DRAFT
100
AcDbLine
 62
7
  6
CONTINUOUS
 10
-100.4948519647
 20
-40.9164592088
 11
-102.0
 21
-40.9147374887
  0
LINE
  5
3D4
100
AcDbEntity
  8
0
100
AcDbLine
 62
7
  6
CONTINUOUS
 10
134.4948519647
 20
-41.3155179343
 11
136.0
 21
-41.3172396544
  0
LINE
  5
3D5
100
AcDbEntity
  8
DRAFT
100
AcDbLine
 62
7
  6
CONTINUOUS
 10
1.5051480353
 20
-40.9164592088
 11
-0.0
 21
-40.9147374887
  0
LINE
  5
3D6
100
AcDbEntity
  8
0
100
AcDbLine
 62
7
  6
CONTINUOUS
 10
103.5051480353
 20
-40.9164592088
 11
102.0
 21
-40.9147374887
  0
LINE
  5
3D7
100
AcDbEntity
  8
0
100
AcDbLine
 62
7
  6
CONTINUOUS
 10
137.5051480353
 20
-40.9164592088
 11
136.0
 21
-40.9147374887
  0
LINE
  5
3D8
100
AcDbEntity
  8
RACCORDO
100
AcDbLine
 62
250
  6
CONTINUOUS
 10
150.9913477611
 20
-40.4639715969
 11
155.8586513684
 21
-40.4640533427
  0
LINE
  5
3D9
100
AcDbEntity
  8
RACCORDO
100
AcDbLine
 62
250
  6
CONTINUOUS
 10
150.7805764608
 20
-40.9633734922
 11
151.0413486316
 21
-40.9639771903
  0
LINE
  5
3DA
100
AcDbEntity
  8
DRAFT
100
AcDbLine
 62
7
  6
CONTINUOUS
 10
-138.9845336314
 20
-41.3103822756
 11
-137.5051480353
 21
-41.3155179343
  0
LINE
  5
3DB
100
AcDbEntity
  8
DRAFT
100
AcDbLine
 62
7
  6
CONTINUOUS
 10
-104.9845336314
 20
-41.3103822756
 11
-103.5051480353
 21
-41.3155179343
  0
LINE
  5
3DC
100
AcDbEntity
  8
DRAFT
100
AcDbLine
 62
7
  6
CONTINUOUS
 10
-133.0154663686
 20
-40.9215948676
 11
-134.4948519647
 21
-40.9164592088
  0
LINE
  5
3DD
100
AcDbEntity
  8
DRAFT
100
AcDbLine
 62
7
  6
CONTINUOUS
 10
-99.0154663686
 20
-40.9215948676
 11
-100.4948519647
 21
-40.9164592088
  0
LINE
  5
3DE
100
AcDbEntity
  8
DRAFT
100
AcDbLine
 62
7
  6
CONTINUOUS
 10
-2.9845336314
 20
-41.3103822756
 11
-1.5051480353
 21
-41.3155179343
  0
LINE
  5
3DF
100
AcDbEntity
  8
DRAFT
100
AcDbLine
 62
7
  6
CONTINUOUS
 10
2.9845336314
 20
-40.9215948676
 11
1.5051480353
 21
-40.9164592088
  0
LINE
  5
3E0
100
AcDbEntity
  8
0
100
AcDbLine
 62
7
  6
CONTINUOUS
 10
99.0154663686
 20
-41.3103822756
 11
100.4948519647
 21
-41.3155179343
  0
LINE
  5
3E1
100
AcDbEntity
  8
0
100
AcDbLine
 62
7
  6
CONTINUOUS
 10
133.0154663686
 20
-41.3103822756
 11
134.4948519647
 21
-41.3155179343
  0
LINE
  5
3E2
100
AcDbEntity
  8
0
100
AcDbLine
 62
7
  6
CONTINUOUS
 10
104.9845336314
 20
-40.9215948676
 11
103.5051480353
 21
-40.9164592088
  0
LINE
  5
3E3
100
AcDbEntity
  8
0
100
AcDbLine
 62
7
  6
CONTINUOUS
 10
138.9845336314
 20
-40.9215948676
 11
137.5051480353
 21
-40.9164592088
  0
LINE
  5
3E4
100
AcDbEntity
  8
DRAFT
100
AcDbLine
 62
7
  6
CONTINUOUS
 10
-140.4128720919
 20
-41.3019204181
 11
-138.9845336314
 21
-41.3103822756
  0
LINE
  5
3E5
100
AcDbEntity
  8
DRAFT
100
AcDbLine
 62
7
  6
CONTINUOUS
 10
-106.4128720919
 20
-41.3019204181
 11
-104.9845336314
 21
-41.3103822756
  0
LINE
  5
3E6
100
AcDbEntity
  8
DRAFT
100
AcDbLine
 62
7
  6
CONTINUOUS
 10
-131.5871279081
 20
-40.930056725
 11
-133.0154663686
 21
-40.9215948676
  0
LINE
  5
3E7
100
AcDbEntity
  8
DRAFT
100
AcDbLine
 62
7
  6
CONTINUOUS
 10
-97.5871279081
 20
-40.930056725
 11
-99.0154663686
 21
-40.9215948676
  0
LINE
  5
3E8
100
AcDbEntity
  8
DRAFT
100
AcDbLine
 62
7
  6
CONTINUOUS
 10
-4.4128720919
 20
-41.3019204181
 11
-2.9845336314
 21
-41.3103822756
  0
LINE
  5
3E9
100
AcDbEntity
  8
DRAFT
100
AcDbLine
 62
7
  6
CONTINUOUS
 10
4.4128720919
 20
-40.930056725
 11
2.9845336314
 21
-40.9215948676
  0
LINE
  5
3EA
100
AcDbEntity
  8
0
100
AcDbLine
 62
7
  6
CONTINUOUS
 10
97.5871279081
 20
-41.3019204181
 11
99.0154663686
 21
-41.3103822756
  0
LINE
  5
3EB
100
AcDbEntity
  8
0
100
AcDbLine
 62
7
  6
CONTINUOUS
 10
131.5871279081
 20
-41.3019204181
 11
133.0154663686
 21
-41.3103822756
  0
LINE
  5
3EC
100
AcDbEntity
  8
0
100
AcDbLine
 62
7
  6
CONTINUOUS
 10
106.4128720919
 20
-40.930056725
 11
104.9845336314
 21
-40.9215948676
  0
LINE
  5
3ED
100
AcDbEntity
  8
0
100
AcDbLine
 62
7
  6
CONTINUOUS
 10
140.4128720919
 20
-40.930056725
 11
138.9845336314
 21
-40.9215948676
  0
LINE
  5
3EE
100
AcDbEntity
  8
RACCORDO
100
AcDbLine
 62
250
  6
CONTINUOUS
 10
-168.9587787745
 20
-32.6896199405
 11
-168.6289401815
 21
-32.691679759
  0
LINE
  5
3EF
100
AcDbEntity
  8
RACCORDO
100
AcDbLine
 62
250
  6
CONTINUOUS
 10
150.9110465265
 20
-40.4634498665
 11
150.9913477611
 21
-40.4639715969
  0
LINE
  5
3F0
100
AcDbEntity
  8
RACCORDO
100
AcDbLine
 62
250
  6
CONTINUOUS
 10
150.5615935206
 20
-40.961837185
 11
150.7805764608
 21
-40.9633734922
  0
LINE
  5
3F1
100
AcDbEntity
  8
DRAFT
100
AcDbLine
 62
7
  6
CONTINUOUS
 10
-141.7656813678
 20
-41.290277426
 11
-140.4128720919
 21
-41.3019204181
  0
LINE
  5
3F2
100
AcDbEntity
  8
DRAFT
100
AcDbLine
 62
7
  6
CONTINUOUS
 10
-107.7656813678
 20
-41.290277426
 11
-106.4128720919
 21
-41.3019204181
  0
LINE
  5
3F3
100
AcDbEntity
  8
DRAFT
100
AcDbLine
 62
7
  6
CONTINUOUS
 10
-130.2343186322
 20
-40.9416997171
 11
-131.5871279081
 21
-40.930056725
  0
LINE
  5
3F4
100
AcDbEntity
  8
DRAFT
100
AcDbLine
 62
7
  6
CONTINUOUS
 10
-96.2343186322
 20
-40.9416997171
 11
-97.5871279081
 21
-40.930056725
  0
LINE
  5
3F5
100
AcDbEntity
  8
DRAFT
100
AcDbLine
 62
7
  6
CONTINUOUS
 10
-5.7656813678
 20
-41.290277426
 11
-4.4128720919
 21
-41.3019204181
  0
LINE
  5
3F6
100
AcDbEntity
  8
DRAFT
100
AcDbLine
 62
7
  6
CONTINUOUS
 10
5.7656813678
 20
-40.9416997171
 11
4.4128720919
 21
-40.930056725
  0
LINE
  5
3F7
100
AcDbEntity
  8
0
100
AcDbLine
 62
7
  6
CONTINUOUS
 10
96.2343186322
 20
-41.290277426
 11
97.5871279081
 21
-41.3019204181
  0
LINE
  5
3F8
100
AcDbEntity
  8
0
100
AcDbLine
 62
7
  6
CONTINUOUS
 10
130.2343186322
 20
-41.290277426
 11
131.5871279081
 21
-41.3019204181
  0
LINE
  5
3F9
100
AcDbEntity
  8
0
100
AcDbLine
 62
7
  6
CONTINUOUS
 10
107.7656813678
 20
-40.9416997171
 11
106.4128720919
 21
-40.930056725
  0
LINE
  5
3FA
100
AcDbEntity
  8
0
100
AcDbLine
 62
7
  6
CONTINUOUS
 10
141.7656813678
 20
-40.9416997171
 11
140.4128720919
 21
-40.930056725
  0
LINE
  5
3FB
100
AcDbEntity
  8
RACCORDO
100
AcDbLine
 62
250
  6
CONTINUOUS
 10
-168.5582855741
 20
-32.1906682681
 11
-168.4290274962
 21
-32.1918299383
  0
LINE
  5
3FC
100
AcDbEntity
  8
RACCORDO
100
AcDbLine
 62
250
  6
CONTINUOUS
 10
-169.1194728646
 20
-32.6879044168
 11
-168.9587787745
 21
-32.6896199405
  0
LINE
  5
3FD
100
AcDbEntity
  8
DRAFT
100
AcDbLine
 62
7
  6
CONTINUOUS
 10
-143.0198701687
 20
-41.2756519972
 11
-141.7656813678
 21
-41.290277426
  0
LINE
  5
3FE
100
AcDbEntity
  8
DRAFT
100
AcDbLine
 62
7
  6
CONTINUOUS
 10
-109.0198701687
 20
-41.2756519972
 11
-107.7656813678
 21
-41.290277426
  0
LINE
  5
3FF
100
AcDbEntity
  8
DRAFT
100
AcDbLine
 62
7
  6
CONTINUOUS
 10
-128.9801298313
 20
-40.956325146
 11
-130.2343186322
 21
-40.9416997171
  0
LINE
  5
400
100
AcDbEntity
  8
DRAFT
100
AcDbLine
 62
7
  6
CONTINUOUS
 10
-94.9801298313
 20
-40.956325146
 11
-96.2343186322
 21
-40.9416997171
  0
LINE
  5
401
100
AcDbEntity
  8
DRAFT
100
AcDbLine
 62
7
  6
CONTINUOUS
 10
-7.0198701687
 20
-41.2756519972
 11
-5.7656813678
 21
-41.290277426
  0
LINE
  5
402
100
AcDbEntity
  8
DRAFT
100
AcDbLine
 62
7
  6
CONTINUOUS
 10
7.0198701687
 20
-40.956325146
 11
5.7656813678
 21
-40.9416997171
  0
LINE
  5
403
100
AcDbEntity
  8
0
100
AcDbLine
 62
7
  6
CONTINUOUS
 10
94.9801298313
 20
-41.2756519972
 11
96.2343186322
 21
-41.290277426
  0
LINE
  5
404
100
AcDbEntity
  8
0
100
AcDbLine
 62
7
  6
CONTINUOUS
 10
128.9801298313
 20
-41.2756519972
 11
130.2343186322
 21
-41.290277426
  0
LINE
  5
405
100
AcDbEntity
  8
0
100
AcDbLine
 62
7
  6
CONTINUOUS
 10
109.0198701687
 20
-40.956325146
 11
107.7656813678
 21
-40.9416997171
  0
LINE
  5
406
100
AcDbEntity
  8
0
100
AcDbLine
 62
7
  6
CONTINUOUS
 10
143.0198701687
 20
-40.956325146
 11
141.7656813678
 21
-40.9416997171
  0
LINE
  5
407
100
AcDbEntity
  8
RACCORDO
100
AcDbLine
 62
250
  6
CONTINUOUS
 10
150.8559744478
 20
-40.4628072143
 11
150.9110465265
 21
-40.4634498665
  0
LINE
  5
408
100
AcDbEntity
  8
RACCORDO
100
AcDbLine
 62
250
  6
CONTINUOUS
 10
150.4082097625
 20
-40.9600329329
 11
150.5615935206
 21
-40.961837185
  0
LINE
  5
409
100
AcDbEntity
  8
DRAFT
100
AcDbLine
 62
7
  6
CONTINUOUS
 10
-143.7906834415
 20
-41.2643623041
 11
-143.0198701687
 21
-41.2756519972
  0
LINE
  5
40A
100
AcDbEntity
  8
DRAFT
100
AcDbLine
 62
7
  6
CONTINUOUS
 10
-109.7906834415
 20
-41.2643623041
 11
-109.0198701687
 21
-41.2756519972
  0
LINE
  5
40B
100
AcDbEntity
  8
DRAFT
100
AcDbLine
 62
7
  6
CONTINUOUS
 10
-128.2093165585
 20
-40.9676148391
 11
-128.9801298313
 21
-40.956325146
  0
LINE
  5
40C
100
AcDbEntity
  8
DRAFT
100
AcDbLine
 62
7
  6
CONTINUOUS
 10
-94.2093165585
 20
-40.9676148391
 11
-94.9801298313
 21
-40.956325146
  0
LINE
  5
40D
100
AcDbEntity
  8
DRAFT
100
AcDbLine
 62
7
  6
CONTINUOUS
 10
-7.7906834415
 20
-41.2643623041
 11
-7.0198701687
 21
-41.2756519972
  0
LINE
  5
40E
100
AcDbEntity
  8
DRAFT
100
AcDbLine
 62
7
  6
CONTINUOUS
 10
7.7906834415
 20
-40.9676148391
 11
7.0198701687
 21
-40.956325146
  0
LINE
  5
40F
100
AcDbEntity
  8
0
100
AcDbLine
 62
7
  6
CONTINUOUS
 10
94.2093165585
 20
-41.2643623041
 11
94.9801298313
 21
-41.2756519972
  0
LINE
  5
410
100
AcDbEntity
  8
0
100
AcDbLine
 62
7
  6
CONTINUOUS
 10
128.2093165585
 20
-41.2643623041
 11
128.9801298313
 21
-41.2756519972
  0
LINE
  5
411
100
AcDbEntity
  8
0
100
AcDbLine
 62
7
  6
CONTINUOUS
 10
109.7906834415
 20
-40.9676148391
 11
109.0198701687
 21
-40.956325146
  0
LINE
  5
412
100
AcDbEntity
  8
0
100
AcDbLine
 62
7
  6
CONTINUOUS
 10
143.7906834415
 20
-40.9676148391
 11
143.0198701687
 21
-40.956325146
  0
LINE
  5
413
100
AcDbEntity
  8
RACCORDO
100
AcDbLine
 62
250
  6
CONTINUOUS
 10
-169.2071728764
 20
-32.6866007325
 11
-169.1194728646
 21
-32.6879044168
  0
LINE
  5
414
100
AcDbEntity
  8
RACCORDO
100
AcDbLine
 62
250
  6
CONTINUOUS
 10
-168.6713582797
 20
-32.1890592189
 11
-168.5582855741
 21
-32.1906682681
  0
LINE
  5
415
100
AcDbEntity
  8
RACCORDO
100
AcDbLine
 62
250
  6
CONTINUOUS
 10
150.8015096549
 20
-40.4619138981
 11
150.8559744478
 21
-40.4628072143
  0
LINE
  5
416
100
AcDbEntity
  8
DRAFT
100
AcDbLine
 62
7
  6
CONTINUOUS
 10
-144.5015690036
 20
-41.2519556752
 11
-143.7906834415
 21
-41.2643623041
  0
LINE
  5
417
100
AcDbEntity
  8
DRAFT
100
AcDbLine
 62
7
  6
CONTINUOUS
 10
-127.4984309964
 20
-40.9800214679
 11
-128.2093165585
 21
-40.9676148391
  0
LINE
  5
418
100
AcDbEntity
  8
DRAFT
100
AcDbLine
 62
7
  6
CONTINUOUS
 10
-110.5015690036
 20
-41.2519556752
 11
-109.7906834415
 21
-41.2643623041
  0
LINE
  5
419
100
AcDbEntity
  8
DRAFT
100
AcDbLine
 62
7
  6
CONTINUOUS
 10
-93.4984309964
 20
-40.9800214679
 11
-94.2093165585
 21
-40.9676148391
  0
LINE
  5
41A
100
AcDbEntity
  8
DRAFT
100
AcDbLine
 62
7
  6
CONTINUOUS
 10
-8.5015690036
 20
-41.2519556752
 11
-7.7906834415
 21
-41.2643623041
  0
LINE
  5
41B
100
AcDbEntity
  8
DRAFT
100
AcDbLine
 62
7
  6
CONTINUOUS
 10
8.5015690036
 20
-40.9800214679
 11
7.7906834415
 21
-40.9676148391
  0
LINE
  5
41C
100
AcDbEntity
  8
0
100
AcDbLine
 62
7
  6
CONTINUOUS
 10
93.4984309964
 20
-41.2519556752
 11
94.2093165585
 21
-41.2643623041
  0
LINE
  5
41D
100
AcDbEntity
  8
0
100
AcDbLine
 62
7
  6
CONTINUOUS
 10
110.5015690036
 20
-40.9800214679
 11
109.7906834415
 21
-40.9676148391
  0
LINE
  5
41E
100
AcDbEntity
  8
0
100
AcDbLine
 62
7
  6
CONTINUOUS
 10
127.4984309964
 20
-41.2519556752
 11
128.2093165585
 21
-41.2643623041
  0
LINE
  5
41F
100
AcDbEntity
  8
0
100
AcDbLine
 62
7
  6
CONTINUOUS
 10
144.5015690036
 20
-40.9800214679
 11
143.7906834415
 21
-40.9676148391
  0
LINE
  5
420
100
AcDbEntity
  8
RACCORDO
100
AcDbLine
 62
250
  6
CONTINUOUS
 10
150.2752940479
 20
-40.9577417095
 11
150.4082097625
 21
-40.9600329329
  0
LINE
  5
421
100
AcDbEntity
  8
RACCORDO
100
AcDbLine
 62
250
  6
CONTINUOUS
 10
-168.7350792099
 20
-32.1877730293
 11
-168.6713582797
 21
-32.1890592189
  0
LINE
  5
422
100
AcDbEntity
  8
DRAFT
100
AcDbLine
 62
7
  6
CONTINUOUS
 10
-145.1484806035
 20
-41.2385027512
 11
-144.5015690036
 21
-41.2519556752
  0
LINE
  5
423
100
AcDbEntity
  8
DRAFT
100
AcDbLine
 62
7
  6
CONTINUOUS
 10
-126.8515193965
 20
-40.993474392
 11
-127.4984309964
 21
-40.9800214679
  0
LINE
  5
424
100
AcDbEntity
  8
DRAFT
100
AcDbLine
 62
7
  6
CONTINUOUS
 10
-111.1484806035
 20
-41.2385027512
 11
-110.5015690036
 21
-41.2519556752
  0
LINE
  5
425
100
AcDbEntity
  8
DRAFT
100
AcDbLine
 62
7
  6
CONTINUOUS
 10
-92.8515193965
 20
-40.993474392
 11
-93.4984309964
 21
-40.9800214679
  0
LINE
  5
426
100
AcDbEntity
  8
DRAFT
100
AcDbLine
 62
7
  6
CONTINUOUS
 10
-9.1484806035
 20
-41.2385027512
 11
-8.5015690036
 21
-41.2519556752
  0
LINE
  5
427
100
AcDbEntity
  8
DRAFT
100
AcDbLine
 62
7
  6
CONTINUOUS
 10
9.1484806035
 20
-40.993474392
 11
8.5015690036
 21
-40.9800214679
  0
LINE
  5
428
100
AcDbEntity
  8
0
100
AcDbLine
 62
7
  6
CONTINUOUS
 10
92.8515193965
 20
-41.2385027512
 11
93.4984309964
 21
-41.2519556752
  0
LINE
  5
429
100
AcDbEntity
  8
0
100
AcDbLine
 62
7
  6
CONTINUOUS
 10
111.1484806035
 20
-40.993474392
 11
110.5015690036
 21
-40.9800214679
  0
LINE
  5
42A
100
AcDbEntity
  8
0
100
AcDbLine
 62
7
  6
CONTINUOUS
 10
126.8515193965
 20
-41.2385027512
 11
127.4984309964
 21
-41.2519556752
  0
LINE
  5
42B
100
AcDbEntity
  8
0
100
AcDbLine
 62
7
  6
CONTINUOUS
 10
145.1484806035
 20
-40.993474392
 11
144.5015690036
 21
-40.9800214679
  0
LINE
  5
42C
100
AcDbEntity
  8
RACCORDO
100
AcDbLine
 62
250
  6
CONTINUOUS
 10
150.7494426772
 20
-40.4607678619
 11
150.8015096549
 21
-40.4619138981
  0
LINE
  5
42D
100
AcDbEntity
  8
DRAFT
100
AcDbLine
 62
7
  6
CONTINUOUS
 10
-145.7256049568
 20
-41.2241159177
 11
-145.1484806035
 21
-41.2385027512
  0
LINE
  5
42E
100
AcDbEntity
  8
DRAFT
100
AcDbLine
 62
7
  6
CONTINUOUS
 10
-126.2743950432
 20
-41.0078612254
 11
-126.8515193965
 21
-40.993474392
  0
LINE
  5
42F
100
AcDbEntity
  8
DRAFT
100
AcDbLine
 62
7
  6
CONTINUOUS
 10
-111.7256049568
 20
-41.2241159177
 11
-111.1484806035
 21
-41.2385027512
  0
LINE
  5
430
100
AcDbEntity
  8
DRAFT
100
AcDbLine
 62
7
  6
CONTINUOUS
 10
-92.2743950432
 20
-41.0078612254
 11
-92.8515193965
 21
-40.993474392
  0
LINE
  5
431
100
AcDbEntity
  8
DRAFT
100
AcDbLine
 62
7
  6
CONTINUOUS
 10
-9.7256049568
 20
-41.2241159177
 11
-9.1484806035
 21
-41.2385027512
  0
LINE
  5
432
100
AcDbEntity
  8
DRAFT
100
AcDbLine
 62
7
  6
CONTINUOUS
 10
9.7256049568
 20
-41.0078612254
 11
9.1484806035
 21
-40.993474392
  0
LINE
  5
433
100
AcDbEntity
  8
0
100
AcDbLine
 62
7
  6
CONTINUOUS
 10
92.2743950432
 20
-41.2241159177
 11
92.8515193965
 21
-41.2385027512
  0
LINE
  5
434
100
AcDbEntity
  8
0
100
AcDbLine
 62
7
  6
CONTINUOUS
 10
111.7256049568
 20
-41.0078612254
 11
111.1484806035
 21
-40.993474392
  0
LINE
  5
435
100
AcDbEntity
  8
0
100
AcDbLine
 62
7
  6
CONTINUOUS
 10
126.2743950432
 20
-41.2241159177
 11
126.8515193965
 21
-41.2385027512
  0
LINE
  5
436
100
AcDbEntity
  8
0
100
AcDbLine
 62
7
  6
CONTINUOUS
 10
145.7256049568
 20
-41.0078612254
 11
145.1484806035
 21
-40.993474392
  0
LINE
  5
437
100
AcDbEntity
  8
DRAFT
100
AcDbLine
 62
7
  6
CONTINUOUS
 10
-125.7717218709
 20
-41.0230562139
 11
-126.2743950432
 21
-41.0078612254
  0
LINE
  5
438
100
AcDbEntity
  8
DRAFT
100
AcDbLine
 62
7
  6
CONTINUOUS
 10
-112.2282781291
 20
-41.2089209292
 11
-111.7256049568
 21
-41.2241159177
  0
LINE
  5
439
100
AcDbEntity
  8
DRAFT
100
AcDbLine
 62
7
  6
CONTINUOUS
 10
-91.7717218709
 20
-41.0230562139
 11
-92.2743950432
 21
-41.0078612254
  0
LINE
  5
43A
100
AcDbEntity
  8
DRAFT
100
AcDbLine
 62
7
  6
CONTINUOUS
 10
-10.2282781291
 20
-41.2089209292
 11
-9.7256049568
 21
-41.2241159177
  0
LINE
  5
43B
100
AcDbEntity
  8
DRAFT
100
AcDbLine
 62
7
  6
CONTINUOUS
 10
10.2282781291
 20
-41.0230562139
 11
9.7256049568
 21
-41.0078612254
  0
LINE
  5
43C
100
AcDbEntity
  8
0
100
AcDbLine
 62
7
  6
CONTINUOUS
 10
91.7717218709
 20
-41.2089209292
 11
92.2743950432
 21
-41.2241159177
  0
LINE
  5
43D
100
AcDbEntity
  8
0
100
AcDbLine
 62
7
  6
CONTINUOUS
 10
112.2282781291
 20
-41.0230562139
 11
111.7256049568
 21
-41.0078612254
  0
LINE
  5
43E
100
AcDbEntity
  8
0
100
AcDbLine
 62
7
  6
CONTINUOUS
 10
125.7717218709
 20
-41.2089209292
 11
126.2743950432
 21
-41.2241159177
  0
LINE
  5
43F
100
AcDbEntity
  8
0
100
AcDbLine
 62
7
  6
CONTINUOUS
 10
146.2282781291
 20
-41.0230562139
 11
145.7256049568
 21
-41.0078612254
  0
LWPOLYLINE
  5
440
100
AcDbEntity
  8
RACCORDO
100
AcDbPolyline
 62
250
  6
CONTINUOUS
 90
16
 70
0
 10
-168.9469029106
 20
-26.291424784
 10
-168.9991490196
 20
-26.2886713037
 10
-169.0508229397
 20
-26.280472844
 10
-169.101358741
 20
-26.2669191918
 10
-169.1502029566
 20
-26.2481587842
 10
-169.1968206477
 20
-26.2243970817
 10
-169.2407012618
 20
-26.1958943171
 10
-169.281364219
 20
-26.162962648
 10
-169.3183641778
 20
-26.1259627384
 10
-169.3512959152
 20
-26.0852998051
 10
-169.3797987609
 20
-26.0414191844
 10
-169.4035605486
 20
-25.9948014534
 10
-169.4223210364
 20
-25.9459571655
 10
-169.4358747555
 20
-25.8954212605
 10
-169.4440732609
 20
-25.8437472064
 10
-169.4468267582
 20
-25.7915009364
  0
LWPOLYLINE
  5
441
100
AcDbEntity
  8
RACCORDO
100
AcDbPolyline
 62
250
  6
CONTINUOUS
 90
16
 70
0
 10
-168.8748192685
 20
-26.2193411419
 10
-168.9270654467
 20
-26.2165876542
 10
-168.9787394267
 20
-26.2083891744
 10
-169.0292752767
 20
-26.1948354919
 10
-169.07811953
 20
-26.1760750461
 10
-169.124737246
 20
-26.1523133007
 10
-169.1686178692
 20
-26.1238104936
 10
-169.2092808205
 20
-26.0908787865
 10
-169.2462807607
 20
-26.0538788463
 10
-169.2792124678
 20
-26.013215895
 10
-169.3077152749
 20
-25.9693352718
 10
-169.3314770203
 20
-25.9227175558
 10
-169.3502374661
 20
-25.8738733025
 10
-169.3637911486
 20
-25.8233374525
 10
-169.3719896285
 20
-25.7716634725
 10
-169.3747431161
 20
-25.7194172943
  0
LINE
  5
442
100
AcDbEntity
  8
0
100
AcDbLine
 62
7
  6
CONTINUOUS
 10
-156.7531915426
 20
0.3749999404
 11
-156.4978724241
 21
0.3125
  0
LINE
  5
443
100
AcDbEntity
  8
0
100
AcDbLine
 62
7
  6
CONTINUOUS
 10
-156.1148935676
 20
2.375
 11
-156.3702126861
 21
2.4375001192
  0
LWPOLYLINE
  5
444
100
AcDbEntity
  8
RACCORDO
100
AcDbPolyline
 62
250
  6
CONTINUOUS
 90
11
 70
0
 10
-150.0415009364
 20
40.9468267582
 10
-150.0430853908
 20
40.9476754028
 10
-150.0477266006
 20
40.9485465841
 10
-150.0554245656
 20
40.9494403022
 10
-150.0660189369
 20
40.9503634149
 10
-150.0796700635
 20
40.9513090644
 10
-150.0968589923
 20
40.9522566765
 10
-150.1177443856
 20
40.9532068271
 10
-150.142167581
 20
40.9541589403
 10
-150.1701336389
 20
40.9550907153
 10
-150.2370036755
 20
40.9568914738
  0
LWPOLYLINE
  5
445
100
AcDbEntity
  8
DRAFT
100
AcDbPolyline
 62
7
  6
CONTINUOUS
 90
11
 70
0
 10
-11.5314218928
 20
-41.1158968441
 10
-11.5203991778
 20
-41.1247614239
 10
-11.48745221
 20
-41.1335342762
 10
-11.4327694269
 20
-41.1422572093
 10
-11.3562263924
 20
-41.1509299683
 10
-11.2579475426
 20
-41.1595528081
 10
-11.1384934103
 20
-41.1680765743
 10
-10.9977442761
 20
-41.1765006457
 10
-10.8358198593
 20
-41.1848256435
 10
-10.6536398515
 20
-41.1930042769
 10
-10.2282781291
 20
-41.2089209292
  0
LINE
  5
446
100
AcDbEntity
  8
0
100
AcDbLine
 62
7
  6
CONTINUOUS
 10
-3.525
 20
30.0085106611
 11
-3.7749999963
 21
29.7531915426
  0
LINE
  5
447
100
AcDbEntity
  8
0
100
AcDbLine
 62
7
  6
CONTINUOUS
 10
-2.1500000596
 20
29.1148935676
 11
-2.2749999404
 21
28.9872340083
  0
LWPOLYLINE
  5
448
100
AcDbEntity
  8
DRAFT
100
AcDbPolyline
 62
7
  6
CONTINUOUS
 90
10
 70
0
 10
11.5314218928
 20
41.1158968441
 10
11.5203991778
 20
41.1072157193
 10
11.48745221
 20
41.098442867
 10
11.4327694269
 20
41.0897199339
 10
11.3562263924
 20
41.0810471749
 10
11.2579475426
 20
41.0724243351
 10
11.1384934103
 20
41.0639005689
 10
10.9977442761
 20
41.0554764975
 10
10.8358198593
 20
41.0471514996
 10
10.6536398515
 20
41.0389728663
  0
LINE
  5
449
100
AcDbEntity
  8
0
100
AcDbLine
 62
7
  6
CONTINUOUS
 10
-2.1500000596
 20
28.7319148898
 11
-1.8999999404
 21
28.9234042287
  0
LINE
  5
44A
100
AcDbEntity
  8
0
100
AcDbLine
 62
7
  6
CONTINUOUS
 10
-3.3999999851
 20
29.689361763
 11
-3.2124999851
 21
29.8170213223
  0
LINE
  5
44B
100
AcDbEntity
  8
0
100
AcDbLine
 62
7
  6
CONTINUOUS
 10
-0.525
 20
29.689361763
 11
-0.3375
 21
29.8170213223
  0
LINE
  5
44C
100
AcDbEntity
  8
0
100
AcDbLine
 62
7
  6
CONTINUOUS
 10
-2.025
 20
27.3914893612
 11
-1.8375
 21
27.5191489428
  0
LINE
  5
44D
100
AcDbEntity
  8
0
100
AcDbLine
 62
7
  6
CONTINUOUS
 10
0.4750001192
 20
27.7106382817
 11
0.2875001192
 21
27.5829787225
  0
LINE
  5
44E
100
AcDbEntity
  8
0
100
AcDbLine
 62
7
  6
CONTINUOUS
 10
-0.4000001192
 20
30.1361702204
 11
-0.7125
 21
29.9446808815
  0
LINE
  5
44F
100
AcDbEntity
  8
0
100
AcDbLine
 62
7
  6
CONTINUOUS
 10
0.3499998808
 20
27.2638297852
 11
0.6625001192
 21
27.4553191409
  0
LINE
  5
450
100
AcDbEntity
  8
0
100
AcDbLine
 62
7
  6
CONTINUOUS
 10
-3.2750000149
 20
30.1361702204
 11
-3.525
 21
30.0085106611
  0
LINE
  5
451
100
AcDbEntity
  8
0
100
AcDbLine
 62
7
  6
CONTINUOUS
 10
-2.1500000596
 20
27.6468085021
 11
-2.2749999404
 21
27.5829787225
  0
LINE
  5
452
100
AcDbEntity
  8
0
100
AcDbLine
 62
7
  6
CONTINUOUS
 10
-2.2749999404
 20
27.2638297852
 11
-2.025
 21
27.3914893612
  0
LINE
  5
453
100
AcDbEntity
  8
0
100
AcDbLine
 62
7
  6
CONTINUOUS
 10
-2.2749999404
 20
28.9872340083
 11
-2.6500000298
 21
28.8595744491
  0
LWPOLYLINE
  5
454
100
AcDbEntity
  8
RACCORDO
100
AcDbPolyline
 62
250
  6
CONTINUOUS
 90
16
 70
0
 10
-168.8748192685
 20
-32.1806588581
 10
-168.9270648015
 20
-32.1834122776
 10
-168.9787382586
 20
-32.1916105767
 10
-169.0292737206
 20
-32.2051640018
 10
-169.0781177284
 20
-32.2239241509
 10
-169.1247353367
 20
-32.247685596
 10
-169.1686159746
 20
-32.2761881289
 10
-169.2092790514
 20
-32.3091196197
 10
-169.2462792058
 20
-32.346119426
 10
-169.2792111811
 20
-32.3867823334
 10
-169.3077142881
 20
-32.4306630184
 10
-169.3314763369
 20
-32.4772809089
 10
-169.350237054
 20
-32.526125429
 10
-169.3637909527
 20
-32.5766616259
 10
-169.3719895764
 20
-32.6283360325
 10
-169.3747431161
 20
-32.6805827058
  0
LWPOLYLINE
  5
455
100
AcDbEntity
  8
RACCORDO
100
AcDbPolyline
 62
250
  6
CONTINUOUS
 90
16
 70
0
 10
-168.9469029106
 20
-32.108575216
 10
-168.9991490889
 20
-32.1113287036
 10
-169.0508230688
 20
-32.1195271835
 10
-169.1013589188
 20
-32.133080866
 10
-169.1502031721
 20
-32.1518413118
 10
-169.1968208882
 20
-32.1756030572
 10
-169.2407015113
 20
-32.2041058643
 10
-169.2813644626
 20
-32.2370375714
 10
-169.3183644029
 20
-32.2740375116
 10
-169.35129611
 20
-32.3147004629
 10
-169.3797989171
 20
-32.3585810861
 10
-169.4035606624
 20
-32.4051988021
 10
-169.4223211082
 20
-32.4540430554
 10
-169.4358747908
 20
-32.5045789054
 10
-169.4440732706
 20
-32.5562528854
 10
-169.4468267582
 20
-32.6084990636
  0
LINE
  5
456
100
AcDbEntity
  8
RACCORDO
100
AcDbLine
 62
250
  6
CONTINUOUS
 10
-168.7045696608
 20
-26.2115661831
 11
-168.762850394
 21
-26.2129237647
  0
LINE
  5
457
100
AcDbEntity
  8
RACCORDO
100
AcDbLine
 62
250
  6
CONTINUOUS
 10
-169.2071728764
 20
-25.7133992675
 11
-169.2775687165
 21
-25.7148097525
  0
LINE
  5
458
100
AcDbEntity
  8
RACCORDO
100
AcDbLine
 62
250
  6
CONTINUOUS
 10
-168.635919413
 20
-26.2103597085
 11
-168.7045696608
 21
-26.2115661831
  0
LINE
  5
459
100
AcDbEntity
  8
RACCORDO
100
AcDbLine
 62
250
  6
CONTINUOUS
 10
-169.069587718
 20
-25.7114871864
 11
-169.2071728764
 21
-25.7133992675
  0
LINE
  5
45A
100
AcDbEntity
  8
RACCORDO
100
AcDbLine
 62
250
  6
CONTINUOUS
 10
-168.5167122504
 20
-26.2088914114
 11
-168.635919413
 21
-26.2103597085
  0
LINE
  5
45B
100
AcDbEntity
  8
RACCORDO
100
AcDbLine
 62
250
  6
CONTINUOUS
 10
-168.8348310526
 20
-25.7094253489
 11
-169.069587718
 21
-25.7114871864
  0
LINE
  5
45C
100
AcDbEntity
  8
RACCORDO
100
AcDbLine
 62
250
  6
CONTINUOUS
 10
-168.3827211266
 20
-26.2078866415
 11
-168.5167122504
 21
-26.2088914114
  0
LINE
  5
45D
100
AcDbEntity
  8
RACCORDO
100
AcDbLine
 62
250
  6
CONTINUOUS
 10
-168.4064406133
 20
-25.7076415415
 11
-168.8348310526
 21
-25.7094253489
  0
LINE
  5
45E
100
AcDbEntity
  8
RACCORDO
100
AcDbLine
 62
250
  6
CONTINUOUS
 10
-168.4662592691
 20
-32.108575216
 11
-168.9469029106
 21
-32.108575216
  0
LINE
  5
45F
100
AcDbEntity
  8
RACCORDO
100
AcDbLine
 62
250
  6
CONTINUOUS
 10
-168.4748344851
 20
-31.6086513684
 11
-169.4639771903
 21
-31.6086513685
  0
LINE
  5
460
100
AcDbEntity
  8
RACCORDO
100
AcDbLine
 62
250
  6
CONTINUOUS
 10
-168.4748344851
 20
-26.7913486316
 11
-169.4639771903
 21
-26.7913486316
  0
LINE
  5
461
100
AcDbEntity
  8
RACCORDO
100
AcDbLine
 62
250
  6
CONTINUOUS
 10
-168.9469029106
 20
-26.291424784
 11
-168.4662592691
 21
-26.291424784
  0
LINE
  5
462
100
AcDbEntity
  8
RACCORDO
100
AcDbLine
 62
250
  6
CONTINUOUS
 10
-167.8822464769
 20
-25.7074119919
 11
-168.4064406133
 21
-25.7076415415
  0
LINE
  5
463
100
AcDbEntity
  8
RACCORDO
100
AcDbLine
 62
250
  6
CONTINUOUS
 10
-168.6289401815
 20
-32.691679759
 11
-167.8822464769
 21
-32.6925880081
  0
LINE
  5
464
100
AcDbEntity
  8
RACCORDO
100
AcDbLine
 62
250
  6
CONTINUOUS
 10
-168.4290274962
 20
-32.1918299383
 11
-168.3827211265
 21
-32.1921133586
  0
LWPOLYLINE
  5
465
100
AcDbEntity
  8
DRAFT
100
AcDbPolyline
 62
7
  6
CONTINUOUS
 90
11
 70
0
 10
11.5314218928
 20
-41.1158968441
 10
11.5203991778
 20
-41.1072157193
 10
11.48745221
 20
-41.098442867
 10
11.4327694269
 20
-41.0897199339
 10
11.3562263924
 20
-41.0810471749
 10
11.2579475426
 20
-41.0724243351
 10
11.1384934103
 20
-41.0639005689
 10
10.9977442761
 20
-41.0554764975
 10
10.8358198593
 20
-41.0471514996
 10
10.6536398515
 20
-41.0389728663
 10
10.2282781291
 20
-41.0230562139
  0
LINE
  5
466
100
AcDbEntity
  8
0
100
AcDbLine
 62
7
  6
CONTINUOUS
 10
-21.1757900259
 20
35.5
 11
-21.1757900259
 21
39.6749258819
  0
LINE
  5
467
100
AcDbEntity
  8
DRAFT
100
AcDbLine
 62
7
  6
CONTINUOUS
 10
-20.9
 20
35.5
 11
-20.9
 21
39.7
  0
LINE
  5
468
100
AcDbEntity
  8
DRAFT
100
AcDbLine
 62
7
  6
CONTINUOUS
 10
-18.1
 20
39.7
 11
-18.1
 21
35.5
  0
LINE
  5
469
100
AcDbEntity
  8
0
100
AcDbLine
 62
7
  6
CONTINUOUS
 10
-17.8242099741
 20
39.6749258819
 11
-17.8242099741
 21
35.5
  0
LINE
  5
46A
100
AcDbEntity
  8
0
100
AcDbLine
 62
7
  6
CONTINUOUS
 10
-3.7749999963
 20
29.7531915426
 11
-3.8374999981
 21
29.4978724241
  0
LINE
  5
46B
100
AcDbEntity
  8
0
100
AcDbLine
 62
7
  6
CONTINUOUS
 10
-1.7124999404
 20
27.7106382817
 11
-1.65
 21
27.9021276653
  0
LINE
  5
46C
100
AcDbEntity
  8
0
100
AcDbLine
 62
7
  6
CONTINUOUS
 10
-1.0250000596
 20
29.4978724241
 11
-1.0875
 21
29.3063829064
  0
LINE
  5
46D
100
AcDbEntity
  8
0
100
AcDbLine
 62
7
  6
CONTINUOUS
 10
-2.025
 20
29.3702126861
 11
-2.1500000596
 21
29.1148935676
  0
LINE
  5
46E
100
AcDbEntity
  8
0
100
AcDbLine
 62
7
  6
CONTINUOUS
 10
-1.9625000596
 20
27.9021276653
 11
-2.025
 21
27.774468106
  0
LINE
  5
46F
100
AcDbEntity
  8
0
100
AcDbLine
 62
7
  6
CONTINUOUS
 10
-0.9
 20
29.7531915426
 11
-1.0250000596
 21
29.4978724241
  0
LINE
  5
470
100
AcDbEntity
  8
0
100
AcDbLine
 62
7
  6
CONTINUOUS
 10
0.8500001192
 20
27.6468085021
 11
0.975
 21
27.9021276653
  0
LINE
  5
471
100
AcDbEntity
  8
0
100
AcDbLine
 62
7
  6
CONTINUOUS
 10
-3.525
 20
29.4978724241
 11
-3.3999999851
 21
29.689361763
  0
LINE
  5
472
100
AcDbEntity
  8
0
100
AcDbLine
 62
7
  6
CONTINUOUS
 10
-1.8999999404
 20
28.9234042287
 11
-1.7750000596
 21
29.1148935676
  0
LINE
  5
473
100
AcDbEntity
  8
0
100
AcDbLine
 62
7
  6
CONTINUOUS
 10
-0.7750001192
 20
29.3063829064
 11
-0.525
 21
29.689361763
  0
LINE
  5
474
100
AcDbEntity
  8
0
100
AcDbLine
 62
7
  6
CONTINUOUS
 10
-1.8375
 20
27.5191489428
 11
-1.7124999404
 21
27.7106382817
  0
LINE
  5
475
100
AcDbEntity
  8
0
100
AcDbLine
 62
7
  6
CONTINUOUS
 10
0.7249998808
 20
28.0936170042
 11
0.4750001192
 21
27.7106382817
  0
LINE
  5
476
100
AcDbEntity
  8
0
100
AcDbLine
 62
7
  6
CONTINUOUS
 10
-0.7125
 20
29.9446808815
 11
-0.9
 21
29.7531915426
  0
LINE
  5
477
100
AcDbEntity
  8
0
100
AcDbLine
 62
7
  6
CONTINUOUS
 10
-2.025
 20
27.774468106
 11
-2.1500000596
 21
27.6468085021
  0
LINE
  5
478
100
AcDbEntity
  8
0
100
AcDbLine
 62
7
  6
CONTINUOUS
 10
0.6625001192
 20
27.4553191409
 11
0.8500001192
 21
27.6468085021
  0
LWPOLYLINE
  5
479
100
AcDbEntity
  8
RACCORDO
100
AcDbPolyline
 62
250
  6
CONTINUOUS
 90
9
 70
0
 10
-168.762850394
 20
-26.2129237647
 10
-168.7879197458
 20
-26.2136559444
 10
-168.8099225267
 20
-26.2144127024
 10
-168.8288109525
 20
-26.2151943863
 10
-168.8446328074
 20
-26.2160006486
 10
-168.8571667052
 20
-26.2168196403
 10
-168.8663388502
 20
-26.2176474115
 10
-168.872223038
 20
-26.218487912
 10
-168.8748192685
 20
-26.2193411419
  0
LWPOLYLINE
  5
47A
100
AcDbEntity
  8
RACCORDO
100
AcDbPolyline
 62
250
  6
CONTINUOUS
 90
7
 70
0
 10
-169.2775687165
 20
-25.7148097525
 10
-169.3058846833
 20
-25.7155449996
 10
-169.3294575891
 20
-25.7163001567
 10
-169.3481950845
 20
-25.7170658974
 10
-169.3620220641
 20
-25.7178391128
 10
-169.3708827825
 20
-25.7186229118
 10
-169.3747431161
 20
-25.7194172943
  0
LINE
  5
47B
100
AcDbEntity
  8
0
100
AcDbLine
 62
7
  6
CONTINUOUS
 10
-153.4
 20
-16.0
 11
-153.6
 21
-16.0
  0
LINE
  5
47C
100
AcDbEntity
  8
0
100
AcDbLine
 62
7
  6
CONTINUOUS
 10
20.9
 20
-39.7
 11
21.1751240074
 21
-39.9751240074
  0
LINE
  5
47D
100
AcDbEntity
  8
0
100
AcDbLine
 62
7
  6
CONTINUOUS
 10
-2.8999999702
 20
28.8595744491
 11
-2.8999999702
 21
28.6042553306
  0
LINE
  5
47E
100
AcDbEntity
  8
0
100
AcDbLine
 62
7
  6
CONTINUOUS
 10
-2.025
 20
29.4978724241
 11
-2.025
 21
29.3702126861
  0
LINE
  5
47F
100
AcDbEntity
  8
0
100
AcDbLine
 62
7
  6
CONTINUOUS
 10
-1.9625000596
 20
28.1574467838
 11
-1.9625000596
 21
27.9021276653
  0
LINE
  5
480
100
AcDbEntity
  8
0
100
AcDbLine
 62
7
  6
CONTINUOUS
 10
-1.7124999404
 20
29.3702126861
 11
-1.7124999404
 21
29.4978724241
  0
LINE
  5
481
100
AcDbEntity
  8
0
100
AcDbLine
 62
7
  6
CONTINUOUS
 10
-1.65
 20
27.9021276653
 11
-1.65
 21
28.1574467838
  0
LINE
  5
482
100
AcDbEntity
  8
0
100
AcDbLine
 62
7
  6
CONTINUOUS
 10
-1.1499999404
 20
28.9872340083
 11
-1.1499999404
 21
28.4127659917
  0
LINE
  5
483
100
AcDbEntity
  8
0
100
AcDbLine
 62
7
  6
CONTINUOUS
 10
-0.8374998808
 20
28.4765957713
 11
-0.8374998808
 21
28.9234042287
  0
LINE
  5
484
100
AcDbEntity
  8
0
100
AcDbLine
 62
7
  6
CONTINUOUS
 10
-0.75
 20
-11.481639251
 11
-0.75
 21
-10.398724427
  0
LINE
  5
485
100
AcDbEntity
  8
0
100
AcDbLine
 62
7
  6
CONTINUOUS
 10
-0.75
 20
10.398724427
 11
-0.75
 21
11.481639251
  0
LINE
  5
486
100
AcDbEntity
  8
0
100
AcDbLine
 62
7
  6
CONTINUOUS
 10
0.75
 20
11.481639251
 11
0.75
 21
10.398724427
  0
LINE
  5
487
100
AcDbEntity
  8
0
100
AcDbLine
 62
7
  6
CONTINUOUS
 10
0.75
 20
-10.398724427
 11
0.75
 21
-11.481639251
  0
LINE
  5
488
100
AcDbEntity
  8
0
100
AcDbLine
 62
7
  6
CONTINUOUS
 10
0.7875
 20
28.9234042287
 11
0.7875
 21
28.4765957713
  0
LINE
  5
489
100
AcDbEntity
  8
0
100
AcDbLine
 62
7
  6
CONTINUOUS
 10
1.0999998808
 20
28.4127659917
 11
1.0999998808
 21
28.9872340083
  0
LINE
  5
48A
100
AcDbEntity
  8
0
100
AcDbLine
 62
7
  6
CONTINUOUS
 10
-0.8374998808
 20
28.9234042287
 11
-0.7750001192
 21
29.3063829064
  0
LINE
  5
48B
100
AcDbEntity
  8
0
100
AcDbLine
 62
7
  6
CONTINUOUS
 10
0.7875
 20
28.4765957713
 11
0.7249998808
 21
28.0936170042
  0
LINE
  5
48C
100
AcDbEntity
  8
0
100
AcDbLine
 62
7
  6
CONTINUOUS
 10
-1.0875
 20
29.3063829064
 11
-1.1499999404
 21
28.9872340083
  0
LINE
  5
48D
100
AcDbEntity
  8
0
100
AcDbLine
 62
7
  6
CONTINUOUS
 10
1.0375001192
 20
28.0936170042
 11
1.0999998808
 21
28.4127659917
  0
LINE
  5
48E
100
AcDbEntity
  8
0
100
AcDbLine
 62
7
  6
CONTINUOUS
 10
-1.7750000596
 20
29.1148935676
 11
-1.7124999404
 21
29.3702126861
  0
LINE
  5
48F
100
AcDbEntity
  8
0
100
AcDbLine
 62
7
  6
CONTINUOUS
 10
0.975
 20
27.9021276653
 11
1.0375001192
 21
28.0936170042
  0
LINE
  5
490
100
AcDbEntity
  8
0
100
AcDbLine
 62
7
  6
CONTINUOUS
 10
3.4749997616
 20
29.8808511019
 11
2.2250002384
 21
27.2
  0
LINE
  5
491
100
AcDbEntity
  8
0
100
AcDbLine
 62
7
  6
CONTINUOUS
 10
2.6000002384
 20
27.2
 11
3.8499997616
 21
29.8808511019
  0
LINE
  5
492
100
AcDbEntity
  8
0
100
AcDbLine
 62
7
  6
CONTINUOUS
 10
-157.2
 20
-2.5
 11
-155.5404255509
 21
-2.5
  0
LINE
  5
493
100
AcDbEntity
  8
0
100
AcDbLine
 62
7
  6
CONTINUOUS
 10
-155.8595744491
 20
-2.1875000075
 11
-156.8808511019
 21
-2.1875000075
  0
LINE
  5
494
100
AcDbEntity
  8
0
100
AcDbLine
 62
7
  6
CONTINUOUS
 10
11.481639251
 20
-0.75
 11
10.398724427
 21
-0.75
  0
LINE
  5
495
100
AcDbEntity
  8
0
100
AcDbLine
 62
7
  6
CONTINUOUS
 10
-10.398724427
 20
-0.75
 11
-11.481639251
 21
-0.75
  0
LINE
  5
496
100
AcDbEntity
  8
0
100
AcDbLine
 62
7
  6
CONTINUOUS
 10
-155.2212765634
 20
-0.5625000596
 11
-155.0936170042
 21
-0.5625000596
  0
LINE
  5
497
100
AcDbEntity
  8
0
100
AcDbLine
 62
7
  6
CONTINUOUS
 10
-156.8808511019
 20
-0.3750000596
 11
-157.2
 21
-0.3750000596
  0
LINE
  5
498
100
AcDbEntity
  8
0
100
AcDbLine
 62
7
  6
CONTINUOUS
 10
-155.0297872245
 20
-0.25
 11
-155.285106343
 21
-0.25
  0
LINE
  5
499
100
AcDbEntity
  8
0
100
AcDbLine
 62
7
  6
CONTINUOUS
 10
-11.481639251
 20
0.75
 11
-10.398724427
 21
0.75
  0
LINE
  5
49A
100
AcDbEntity
  8
0
100
AcDbLine
 62
7
  6
CONTINUOUS
 10
10.398724427
 20
0.75
 11
11.481639251
 21
0.75
  0
LINE
  5
49B
100
AcDbEntity
  8
0
100
AcDbLine
 62
7
  6
CONTINUOUS
 10
-155.8595744491
 20
1.25
 11
-155.6042553306
 21
1.25
  0
LWPOLYLINE
  5
49C
100
AcDbEntity
  8
RACCORDO
100
AcDbPolyline
 62
7
  6
CONTINUOUS
 90
7
 70
0
 10
150.4564316543
 20
-39.8821703245
 10
150.4567993138
 20
-39.8822618009
 10
150.4571169061
 20
-39.8823534042
 10
150.457384431
 20
-39.8824451345
 10
150.4576018887
 20
-39.8825369918
 10
150.4577692791
 20
-39.8826289761
 10
150.4578866022
 20
-39.8827210873
  0
LINE
  5
49D
100
AcDbEntity
  8
0
100
AcDbLine
 62
7
  6
CONTINUOUS
 10
1.6000001192
 20
30.2
 11
1.6000001192
 21
29.8808511019
  0
LINE
  5
49E
100
AcDbEntity
  8
0
100
AcDbLine
 62
7
  6
CONTINUOUS
 10
3.8499997616
 20
29.8808511019
 11
3.8499997616
 21
30.2
  0
LINE
  5
49F
100
AcDbEntity
  8
0
100
AcDbLine
 62
7
  6
CONTINUOUS
 10
-156.4978724241
 20
2.1249998808
 11
-156.3702126861
 21
2.1249998808
  0
LINE
  5
4A0
100
AcDbEntity
  8
0
100
AcDbLine
 62
7
  6
CONTINUOUS
 10
-155.1574467838
 20
2.1875
 11
-154.9021276653
 21
2.1875
  0
LINE
  5
4A1
100
AcDbEntity
  8
0
100
AcDbLine
 62
7
  6
CONTINUOUS
 10
-156.3702126861
 20
2.4375001192
 11
-156.4978724241
 21
2.4375001192
  0
LINE
  5
4A2
100
AcDbEntity
  8
0
100
AcDbLine
 62
7
  6
CONTINUOUS
 10
-154.9021276653
 20
2.4999998808
 11
-155.1574467838
 21
2.4999998808
  0
LWPOLYLINE
  5
4A3
100
AcDbEntity
  8
RACCORDO
100
AcDbPolyline
 62
7
  6
CONTINUOUS
 90
7
 70
0
 10
-150.4564316543
 20
39.8821703245
 10
-150.4567993138
 20
39.8822618009
 10
-150.4571169061
 20
39.8823534042
 10
-150.457384431
 20
39.8824451345
 10
-150.4576018887
 20
39.8825369918
 10
-150.4577692791
 20
39.8826289761
 10
-150.4578866022
 20
39.8827210873
  0
LINE
  5
4A4
100
AcDbEntity
  8
0
100
AcDbLine
 62
7
  6
CONTINUOUS
 10
-3.8374999981
 20
27.7106382817
 11
-3.7125
 21
27.5191489428
  0
LINE
  5
4A5
100
AcDbEntity
  8
0
100
AcDbLine
 62
7
  6
CONTINUOUS
 10
-3.525
 20
27.774468106
 11
-3.5875000075
 21
27.9021276653
  0
LINE
  5
4A6
100
AcDbEntity
  8
0
100
AcDbLine
 62
7
  6
CONTINUOUS
 10
-2.0874999404
 20
28.4127659917
 11
-1.9625000596
 21
28.1574467838
  0
LINE
  5
4A7
100
AcDbEntity
  8
0
100
AcDbLine
 62
7
  6
CONTINUOUS
 10
-1.0250000596
 20
27.9021276653
 11
-0.9
 21
27.6468085021
  0
LINE
  5
4A8
100
AcDbEntity
  8
0
100
AcDbLine
 62
7
  6
CONTINUOUS
 10
-3.9
 20
27.9021276653
 11
-3.8374999981
 21
27.7106382817
  0
LINE
  5
4A9
100
AcDbEntity
  8
0
100
AcDbLine
 62
7
  6
CONTINUOUS
 10
-1.0875
 20
28.0936170042
 11
-1.0250000596
 21
27.9021276653
  0
LINE
  5
4AA
100
AcDbEntity
  8
0
100
AcDbLine
 62
7
  6
CONTINUOUS
 10
1.0375001192
 20
29.3063829064
 11
0.975
 21
29.4978724241
  0
LINE
  5
4AB
100
AcDbEntity
  8
0
100
AcDbLine
 62
7
  6
CONTINUOUS
 10
-1.65
 20
28.1574467838
 11
-1.7124999404
 21
28.4127659917
  0
LINE
  5
4AC
100
AcDbEntity
  8
0
100
AcDbLine
 62
7
  6
CONTINUOUS
 10
-1.7124999404
 20
29.4978724241
 11
-1.7750000596
 21
29.7531915426
  0
LINE
  5
4AD
100
AcDbEntity
  8
0
100
AcDbLine
 62
7
  6
CONTINUOUS
 10
-1.1499999404
 20
28.4127659917
 11
-1.0875
 21
28.0936170042
  0
LINE
  5
4AE
100
AcDbEntity
  8
0
100
AcDbLine
 62
7
  6
CONTINUOUS
 10
1.0999998808
 20
28.9872340083
 11
1.0375001192
 21
29.3063829064
  0
LINE
  5
4AF
100
AcDbEntity
  8
0
100
AcDbLine
 62
7
  6
CONTINUOUS
 10
-0.7750001192
 20
28.0936170042
 11
-0.8374998808
 21
28.4765957713
  0
LINE
  5
4B0
100
AcDbEntity
  8
0
100
AcDbLine
 62
7
  6
CONTINUOUS
 10
0.7249998808
 20
29.3063829064
 11
0.7875
 21
28.9234042287
  0
LINE
  5
4B1
100
AcDbEntity
  8
0
100
AcDbLine
 62
7
  6
CONTINUOUS
 10
17.8242099741
 20
-39.6749258819
 11
17.8242099741
 21
-35.5
  0
LINE
  5
4B2
100
AcDbEntity
  8
DRAFT
100
AcDbLine
 62
7
  6
CONTINUOUS
 10
18.1
 20
-39.7
 11
18.1
 21
-35.5
  0
LINE
  5
4B3
100
AcDbEntity
  8
DRAFT
100
AcDbLine
 62
7
  6
CONTINUOUS
 10
20.9
 20
-35.5
 11
20.9
 21
-39.7
  0
LINE
  5
4B4
100
AcDbEntity
  8
0
100
AcDbLine
 62
7
  6
CONTINUOUS
 10
21.1757900259
 20
-35.5
 11
21.1757900259
 21
-39.6749258819
  0
LWPOLYLINE
  5
4B5
100
AcDbEntity
  8
0
100
AcDbPolyline
 62
7
  6
CONTINUOUS
 90
10
 70
0
 10
90.4685781072
 20
41.1158968441
 10
90.4796008222
 20
41.1247614239
 10
90.51254779
 20
41.1335342762
 10
90.5672305731
 20
41.1422572093
 10
90.6437736076
 20
41.1509299683
 10
90.7420524574
 20
41.1595528081
 10
90.8615065897
 20
41.1680765743
 10
91.0022557239
 20
41.1765006457
 10
91.1641801407
 20
41.1848256435
 10
91.3463601485
 20
41.1930042769
  0
LWPOLYLINE
  5
4B6
100
AcDbEntity
  8
RACCORDO
100
AcDbPolyline
 62
250
  6
CONTINUOUS
 90
16
 70
0
 10
168.9469029106
 20
32.108575216
 10
168.9991490889
 20
32.1113287036
 10
169.0508230688
 20
32.1195271835
 10
169.1013589188
 20
32.133080866
 10
169.1502031721
 20
32.1518413118
 10
169.1968208882
 20
32.1756030572
 10
169.2407015113
 20
32.2041058643
 10
169.2813644626
 20
32.2370375714
 10
169.3183644029
 20
32.2740375116
 10
169.35129611
 20
32.3147004629
 10
169.3797989171
 20
32.3585810861
 10
169.4035606624
 20
32.4051988021
 10
169.4223211082
 20
32.4540430554
 10
169.4358747908
 20
32.5045789054
 10
169.4440732706
 20
32.5562528854
 10
169.4468267582
 20
32.6084990636
  0
LWPOLYLINE
  5
4B7
100
AcDbEntity
  8
RACCORDO
100
AcDbPolyline
 62
250
  6
CONTINUOUS
 90
16
 70
0
 10
168.8748192685
 20
32.1806588581
 10
168.9270648015
 20
32.1834122776
 10
168.9787382586
 20
32.1916105767
 10
169.0292737206
 20
32.2051640018
 10
169.0781177284
 20
32.2239241509
 10
169.1247353367
 20
32.247685596
 10
169.1686159746
 20
32.2761881289
 10
169.2092790514
 20
32.3091196197
 10
169.2462792058
 20
32.346119426
 10
169.2792111811
 20
32.3867823334
 10
169.3077142881
 20
32.4306630184
 10
169.3314763369
 20
32.4772809089
 10
169.350237054
 20
32.526125429
 10
169.3637909527
 20
32.5766616259
 10
169.3719895764
 20
32.6283360325
 10
169.3747431161
 20
32.6805827058
  0
LWPOLYLINE
  5
4B8
100
AcDbEntity
  8
RACCORDO
100
AcDbPolyline
 62
250
  6
CONTINUOUS
 90
8
 70
0
 10
168.7879197458
 20
26.2136559444
 10
168.8099225267
 20
26.2144127024
 10
168.8288109525
 20
26.2151943863
 10
168.8446328074
 20
26.2160006486
 10
168.8571667052
 20
26.2168196403
 10
168.8663388502
 20
26.2176474115
 10
168.872223038
 20
26.218487912
 10
168.8748192685
 20
26.2193411419
  0
LWPOLYLINE
  5
4B9
100
AcDbEntity
  8
RACCORDO
100
AcDbPolyline
 62
250
  6
CONTINUOUS
 90
6
 70
0
 10
169.3058846833
 20
25.7155449996
 10
169.3294575891
 20
25.7163001567
 10
169.3481950845
 20
25.7170658974
 10
169.3620220641
 20
25.7178391128
 10
169.3708827825
 20
25.7186229118
 10
169.3747431161
 20
25.7194172943
  0
LINE
  5
4BA
100
AcDbEntity
  8
RACCORDO
100
AcDbLine
 62
250
  6
CONTINUOUS
 10
168.7350792109
 20
26.2122269706
 11
168.7879197458
 21
26.2136559444
  0
LINE
  5
4BB
100
AcDbEntity
  8
RACCORDO
100
AcDbLine
 62
250
  6
CONTINUOUS
 10
169.2446189184
 20
25.714094555
 11
169.3058846833
 21
25.7155449996
  0
LINE
  5
4BC
100
AcDbEntity
  8
RACCORDO
100
AcDbLine
 62
250
  6
CONTINUOUS
 10
168.6713582794
 20
26.2109407811
 11
168.7350792109
 21
26.2122269706
  0
LINE
  5
4BD
100
AcDbEntity
  8
RACCORDO
100
AcDbLine
 62
250
  6
CONTINUOUS
 10
169.165397269
 20
25.7127327979
 11
169.2446189184
 21
25.714094555
  0
LINE
  5
4BE
100
AcDbEntity
  8
RACCORDO
100
AcDbLine
 62
250
  6
CONTINUOUS
 10
168.5582855745
 20
26.2093317319
 11
168.6713582794
 21
26.2109407811
  0
LINE
  5
4BF
100
AcDbEntity
  8
RACCORDO
100
AcDbLine
 62
250
  6
CONTINUOUS
 10
169.015949244
 20
25.7109152049
 11
169.165397269
 21
25.7127327979
  0
LINE
  5
4C0
100
AcDbEntity
  8
RACCORDO
100
AcDbLine
 62
250
  6
CONTINUOUS
 10
168.4736912048
 20
26.208504985
 11
168.5582855745
 21
26.2093317319
  0
LINE
  5
4C1
100
AcDbEntity
  8
RACCORDO
100
AcDbLine
 62
250
  6
CONTINUOUS
 10
168.6998324295
 20
25.7086427745
 11
169.015949244
 21
25.7109152049
  0
LINE
  5
4C2
100
AcDbEntity
  8
0
100
AcDbLine
 62
7
  6
CONTINUOUS
 10
-153.6
 20
16.0
 11
-153.4
 21
16.0
  0
LINE
  5
4C3
100
AcDbEntity
  8
0
100
AcDbLine
 62
7
  6
CONTINUOUS
 10
-3.525
 20
27.3914893612
 11
-3.2750000149
 21
27.2638297852
  0
LINE
  5
4C4
100
AcDbEntity
  8
0
100
AcDbLine
 62
7
  6
CONTINUOUS
 10
-3.2750000149
 20
27.5829787225
 11
-3.3999999851
 21
27.6468085021
  0
LINE
  5
4C5
100
AcDbEntity
  8
0
100
AcDbLine
 62
7
  6
CONTINUOUS
 10
-0.7125
 20
27.4553191409
 11
-0.4000001192
 21
27.2638297852
  0
LINE
  5
4C6
100
AcDbEntity
  8
0
100
AcDbLine
 62
7
  6
CONTINUOUS
 10
-3.7125
 20
27.5191489428
 11
-3.525
 21
27.3914893612
  0
LINE
  5
4C7
100
AcDbEntity
  8
0
100
AcDbLine
 62
7
  6
CONTINUOUS
 10
-2.2749999404
 20
28.5404255509
 11
-2.0874999404
 21
28.4127659917
  0
LINE
  5
4C8
100
AcDbEntity
  8
0
100
AcDbLine
 62
7
  6
CONTINUOUS
 10
-0.3375
 20
27.5829787225
 11
-0.525
 21
27.7106382817
  0
LINE
  5
4C9
100
AcDbEntity
  8
0
100
AcDbLine
 62
7
  6
CONTINUOUS
 10
-2.3375000596
 20
29.8170213223
 11
-2.1500000596
 21
29.689361763
  0
LINE
  5
4CA
100
AcDbEntity
  8
0
100
AcDbLine
 62
7
  6
CONTINUOUS
 10
0.2875001192
 20
29.8170213223
 11
0.4750001192
 21
29.689361763
  0
LWPOLYLINE
  5
4CB
100
AcDbEntity
  8
0
100
AcDbPolyline
 62
7
  6
CONTINUOUS
 90
11
 70
0
 10
90.4685781072
 20
-41.1158968441
 10
90.4796008222
 20
-41.1247614239
 10
90.51254779
 20
-41.1335342762
 10
90.5672305731
 20
-41.1422572093
 10
90.6437736076
 20
-41.1509299683
 10
90.7420524574
 20
-41.1595528081
 10
90.8615065897
 20
-41.1680765743
 10
91.0022557239
 20
-41.1765006457
 10
91.1641801407
 20
-41.1848256435
 10
91.3463601485
 20
-41.1930042769
 10
91.7717218709
 20
-41.2089209292
  0
LINE
  5
4CC
100
AcDbEntity
  8
0
100
AcDbLine
 62
7
  6
CONTINUOUS
 10
-20.9
 20
39.7
 11
-21.1751240074
 21
39.9751240074
  0
LINE
  5
4CD
100
AcDbEntity
  8
0
100
AcDbLine
 62
7
  6
CONTINUOUS
 10
-3.3999999851
 20
27.6468085021
 11
-3.525
 21
27.774468106
  0
LINE
  5
4CE
100
AcDbEntity
  8
0
100
AcDbLine
 62
7
  6
CONTINUOUS
 10
-0.9
 20
27.6468085021
 11
-0.7125
 21
27.4553191409
  0
LINE
  5
4CF
100
AcDbEntity
  8
0
100
AcDbLine
 62
7
  6
CONTINUOUS
 10
-1.7750000596
 20
29.7531915426
 11
-2.025
 21
30.0085106611
  0
LINE
  5
4D0
100
AcDbEntity
  8
0
100
AcDbLine
 62
7
  6
CONTINUOUS
 10
0.8500001192
 20
29.7531915426
 11
0.6625001192
 21
29.9446808815
  0
LINE
  5
4D1
100
AcDbEntity
  8
0
100
AcDbLine
 62
7
  6
CONTINUOUS
 10
-1.7124999404
 20
28.4127659917
 11
-1.8375
 21
28.6042553306
  0
LINE
  5
4D2
100
AcDbEntity
  8
0
100
AcDbLine
 62
7
  6
CONTINUOUS
 10
-2.1500000596
 20
29.689361763
 11
-2.025
 21
29.4978724241
  0
LINE
  5
4D3
100
AcDbEntity
  8
0
100
AcDbLine
 62
7
  6
CONTINUOUS
 10
-0.525
 20
27.7106382817
 11
-0.7750001192
 21
28.0936170042
  0
LINE
  5
4D4
100
AcDbEntity
  8
0
100
AcDbLine
 62
7
  6
CONTINUOUS
 10
0.4750001192
 20
29.689361763
 11
0.7249998808
 21
29.3063829064
  0
LINE
  5
4D5
100
AcDbEntity
  8
0
100
AcDbLine
 62
7
  6
CONTINUOUS
 10
0.975
 20
29.4978724241
 11
0.8500001192
 21
29.7531915426
  0
LINE
  5
4D6
100
AcDbEntity
  8
0
100
AcDbLine
 62
7
  6
CONTINUOUS
 10
-2.5249999702
 20
27.2
 11
-2.2749999404
 21
27.2638297852
  0
LINE
  5
4D7
100
AcDbEntity
  8
0
100
AcDbLine
 62
7
  6
CONTINUOUS
 10
0.2875001192
 20
27.5829787225
 11
-0.0250001192
 21
27.5191489428
  0
LINE
  5
4D8
100
AcDbEntity
  8
0
100
AcDbLine
 62
7
  6
CONTINUOUS
 10
-2.2749999404
 20
27.5829787225
 11
-2.5875
 21
27.5191489428
  0
LINE
  5
4D9
100
AcDbEntity
  8
0
100
AcDbLine
 62
7
  6
CONTINUOUS
 10
-0.3375
 20
29.8170213223
 11
-0.0250001192
 21
29.8808511019
  0
LINE
  5
4DA
100
AcDbEntity
  8
0
100
AcDbLine
 62
7
  6
CONTINUOUS
 10
-3.2124999851
 20
29.8170213223
 11
-2.8999999702
 21
29.8808511019
  0
LINE
  5
4DB
100
AcDbEntity
  8
0
100
AcDbLine
 62
7
  6
CONTINUOUS
 10
-0.0250001192
 20
27.2
 11
0.3499998808
 21
27.2638297852
  0
LINE
  5
4DC
100
AcDbEntity
  8
0
100
AcDbLine
 62
7
  6
CONTINUOUS
 10
-0.0250001192
 20
30.2
 11
-0.4000001192
 21
30.1361702204
  0
LINE
  5
4DD
100
AcDbEntity
  8
0
100
AcDbLine
 62
7
  6
CONTINUOUS
 10
-2.8375000298
 20
30.2
 11
-3.2750000149
 21
30.1361702204
  0
LWPOLYLINE
  5
4DE
100
AcDbEntity
  8
0
100
AcDbPolyline
 62
7
  6
CONTINUOUS
 90
3
 70
0
 10
146.6536398515
 20
41.0389728663
 10
146.2282781291
 20
41.0230562139
 10
145.9864859733
 20
41.0153624444
  0
LINE
  5
4DF
100
AcDbEntity
  8
RACCORDO
100
AcDbLine
 62
250
  6
CONTINUOUS
 10
168.3827211266
 20
26.2078866415
 11
168.4736912048
 21
26.208504985
  0
LINE
  5
4E0
100
AcDbEntity
  8
RACCORDO
100
AcDbLine
 62
250
  6
CONTINUOUS
 10
168.1749258819
 20
25.7074130812
 11
168.6998324295
 21
25.7086427745
  0
LINE
  5
4E1
100
AcDbEntity
  8
RACCORDO
100
AcDbLine
 62
250
  6
CONTINUOUS
 10
167.8822464769
 20
25.7074119919
 11
168.1749258819
 21
25.7074119919
  0
LINE
  5
4E2
100
AcDbEntity
  8
RACCORDO
100
AcDbLine
 62
250
  6
CONTINUOUS
 10
168.9469029106
 20
26.291424784
 11
168.4662592691
 21
26.291424784
  0
LINE
  5
4E3
100
AcDbEntity
  8
0
100
AcDbLine
 62
7
  6
CONTINUOUS
 10
143.0
 20
26.4
 11
-143.0
 21
26.4
  0
LINE
  5
4E4
100
AcDbEntity
  8
0
100
AcDbLine
 62
7
  6
CONTINUOUS
 10
-143.0
 20
26.6
 11
143.0
 21
26.6
  0
LINE
  5
4E5
100
AcDbEntity
  8
RACCORDO
100
AcDbLine
 62
250
  6
CONTINUOUS
 10
168.4748344851
 20
26.7913486316
 11
169.4639771903
 21
26.7913486316
  0
LINE
  5
4E6
100
AcDbEntity
  8
0
100
AcDbLine
 62
7
  6
CONTINUOUS
 10
-3.0250000298
 20
27.2
 11
-2.5249999702
 21
27.2
  0
LINE
  5
4E7
100
AcDbEntity
  8
0
100
AcDbLine
 62
7
  6
CONTINUOUS
 10
2.2250002384
 20
27.2
 11
2.6000002384
 21
27.2
  0
LINE
  5
4E8
100
AcDbEntity
  8
0
100
AcDbLine
 62
7
  6
CONTINUOUS
 10
-2.5875
 20
27.5191489428
 11
-2.9625
 21
27.5191489428
  0
LINE
  5
4E9
100
AcDbEntity
  8
0
100
AcDbLine
 62
7
  6
CONTINUOUS
 10
-3.5875000075
 20
27.9021276653
 11
-3.9
 21
27.9021276653
  0
LINE
  5
4EA
100
AcDbEntity
  8
0
100
AcDbLine
 62
7
  6
CONTINUOUS
 10
-2.8999999702
 20
28.6042553306
 11
-2.6500000298
 21
28.6042553306
  0
LINE
  5
4EB
100
AcDbEntity
  8
0
100
AcDbLine
 62
7
  6
CONTINUOUS
 10
-2.6500000298
 20
28.8595744491
 11
-2.8999999702
 21
28.8595744491
  0
LINE
  5
4EC
100
AcDbEntity
  8
0
100
AcDbLine
 62
7
  6
CONTINUOUS
 10
-3.8374999981
 20
29.4978724241
 11
-3.525
 21
29.4978724241
  0
LINE
  5
4ED
100
AcDbEntity
  8
0
100
AcDbLine
 62
7
  6
CONTINUOUS
 10
-2.8999999702
 20
29.8808511019
 11
-2.6500000298
 21
29.8808511019
  0
LINE
  5
4EE
100
AcDbEntity
  8
0
100
AcDbLine
 62
7
  6
CONTINUOUS
 10
1.6000001192
 20
29.8808511019
 11
3.4749997616
 21
29.8808511019
  0
LINE
  5
4EF
100
AcDbEntity
  8
0
100
AcDbLine
 62
7
  6
CONTINUOUS
 10
3.8499997616
 20
30.2
 11
1.6000001192
 21
30.2
  0
LINE
  5
4F0
100
AcDbEntity
  8
0
100
AcDbLine
 62
7
  6
CONTINUOUS
 10
-2.7124999702
 20
30.2
 11
-2.8375000298
 21
30.2
  0
LINE
  5
4F1
100
AcDbEntity
  8
RACCORDO
100
AcDbLine
 62
250
  6
CONTINUOUS
 10
168.4748344851
 20
31.6086513684
 11
169.4639771903
 21
31.6086513685
  0
LINE
  5
4F2
100
AcDbEntity
  8
RACCORDO
100
AcDbLine
 62
250
  6
CONTINUOUS
 10
168.4662592691
 20
32.108575216
 11
168.9469029106
 21
32.108575216
  0
LINE
  5
4F3
100
AcDbEntity
  8
0
100
AcDbLine
 62
7
  6
CONTINUOUS
 10
168.1749258819
 20
33.7242099741
 11
164.0
 21
33.7242099741
  0
LINE
  5
4F4
100
AcDbEntity
  8
0
100
AcDbLine
 62
7
  6
CONTINUOUS
 10
-164.0
 20
33.7242099741
 11
-168.1749258819
 21
33.7242099741
  0
LINE
  5
4F5
100
AcDbEntity
  8
DRAFT
100
AcDbLine
 62
7
  6
CONTINUOUS
 10
168.2
 20
34.0
 11
164.0
 21
34.0
  0
LINE
  5
4F6
100
AcDbEntity
  8
DRAFT
100
AcDbLine
 62
7
  6
CONTINUOUS
 10
-164.0
 20
34.0
 11
-168.2
 21
34.0
  0
LINE
  5
4F7
100
AcDbEntity
  8
DRAFT
100
AcDbLine
 62
250
  6
CONTINUOUS
 10
-162.5
 20
35.5
 11
-162.2242099741
 21
35.5
  0
LINE
  5
4F8
100
AcDbEntity
  8
DRAFT
100
AcDbLine
 62
250
  6
CONTINUOUS
 10
162.5
 20
35.5
 11
162.2242099741
 21
35.5
  0
LINE
  5
4F9
100
AcDbEntity
  8
DRAFT
100
AcDbLine
 62
250
  6
CONTINUOUS
 10
-18.1
 20
35.5
 11
-17.8242099741
 21
35.5
  0
LINE
  5
4FA
100
AcDbEntity
  8
DRAFT
100
AcDbLine
 62
250
  6
CONTINUOUS
 10
-20.9
 20
35.5
 11
-21.1757900259
 21
35.5
  0
LINE
  5
4FB
100
AcDbEntity
  8
0
100
AcDbLine
 62
250
  6
CONTINUOUS
 10
168.2
 20
35.5
 11
170.0
 21
35.5
  0
LINE
  5
4FC
100
AcDbEntity
  8
0
100
AcDbLine
 62
250
  6
CONTINUOUS
 10
-168.2
 20
35.5
 11
-170.0
 21
35.5
  0
LINE
  5
4FD
100
AcDbEntity
  8
RACCORDO
100
AcDbLine
 62
250
  6
CONTINUOUS
 10
168.6289401815
 20
32.691679759
 11
167.8822464769
 21
32.6925880081
  0
LINE
  5
4FE
100
AcDbEntity
  8
RACCORDO
100
AcDbLine
 62
250
  6
CONTINUOUS
 10
168.9587787745
 20
32.6896199405
 11
168.6289401815
 21
32.691679759
  0
LINE
  5
4FF
100
AcDbEntity
  8
RACCORDO
100
AcDbLine
 62
250
  6
CONTINUOUS
 10
168.5167122494
 20
32.1911085886
 11
168.3827211265
 21
32.1921133586
  0
LINE
  5
500
100
AcDbEntity
  8
RACCORDO
100
AcDbLine
 62
250
  6
CONTINUOUS
 10
169.1194728646
 20
32.6879044168
 11
168.9587787745
 21
32.6896199405
  0
LINE
  5
501
100
AcDbEntity
  8
RACCORDO
100
AcDbLine
 62
250
  6
CONTINUOUS
 10
168.6359194139
 20
32.1896402915
 11
168.5167122494
 21
32.1911085886
  0
LINE
  5
502
100
AcDbEntity
  8
RACCORDO
100
AcDbLine
 62
250
  6
CONTINUOUS
 10
169.2071728764
 20
32.6866007325
 11
169.1194728646
 21
32.6879044168
  0
LINE
  5
503
100
AcDbEntity
  8
RACCORDO
100
AcDbLine
 62
250
  6
CONTINUOUS
 10
168.7045696602
 20
32.1884338169
 11
168.6359194139
 21
32.1896402915
  0
LWPOLYLINE
  5
504
100
AcDbEntity
  8
DRAFT
100
AcDbPolyline
 62
7
  6
CONTINUOUS
 90
12
 70
0
 10
-145.9864859733
 20
41.0153624444
 10
-146.4510867858
 20
41.0309413578
 10
-146.6536398515
 20
41.0389728663
 10
-146.8358198593
 20
41.0471514996
 10
-146.9977442761
 20
41.0554764975
 10
-147.1384934103
 20
41.0639005689
 10
-147.2579475426
 20
41.0724243351
 10
-147.3562263924
 20
41.0810471749
 10
-147.4327694269
 20
41.0897199339
 10
-147.48745221
 20
41.098442867
 10
-147.5203991778
 20
41.1072157193
 10
-147.5314218928
 20
41.1158968441
  0
LWPOLYLINE
  5
505
100
AcDbEntity
  8
RACCORDO
100
AcDbPolyline
 62
250
  6
CONTINUOUS
 90
16
 70
0
 10
168.8748192685
 20
26.2193411419
 10
168.9270654467
 20
26.2165876542
 10
168.9787394267
 20
26.2083891744
 10
169.0292752767
 20
26.1948354919
 10
169.07811953
 20
26.1760750461
 10
169.124737246
 20
26.1523133007
 10
169.1686178692
 20
26.1238104936
 10
169.2092808205
 20
26.0908787865
 10
169.2462807607
 20
26.0538788463
 10
169.2792124678
 20
26.013215895
 10
169.3077152749
 20
25.9693352718
 10
169.3314770203
 20
25.9227175558
 10
169.3502374661
 20
25.8738733025
 10
169.3637911486
 20
25.8233374525
 10
169.3719896285
 20
25.7716634725
 10
169.3747431161
 20
25.7194172943
  0
LWPOLYLINE
  5
506
100
AcDbEntity
  8
RACCORDO
100
AcDbPolyline
 62
250
  6
CONTINUOUS
 90
16
 70
0
 10
168.9469029106
 20
26.291424784
 10
168.9991490196
 20
26.2886713037
 10
169.0508229397
 20
26.280472844
 10
169.101358741
 20
26.2669191918
 10
169.1502029566
 20
26.2481587842
 10
169.1968206477
 20
26.2243970817
 10
169.2407012618
 20
26.1958943171
 10
169.281364219
 20
26.162962648
 10
169.3183641778
 20
26.1259627384
 10
169.3512959152
 20
26.0852998051
 10
169.3797987609
 20
26.0414191844
 10
169.4035605486
 20
25.9948014534
 10
169.4223210364
 20
25.9459571655
 10
169.4358747555
 20
25.8954212605
 10
169.4440732609
 20
25.8437472064
 10
169.4468267582
 20
25.7915009364
  0
LINE
  5
507
100
AcDbEntity
  8
0
100
AcDbLine
 62
7
  6
CONTINUOUS
 10
-2.2749999404
 20
30.1361702204
 11
-2.7124999702
 21
30.2
  0
LINE
  5
508
100
AcDbEntity
  8
0
100
AcDbLine
 62
7
  6
CONTINUOUS
 10
-0.4000001192
 20
27.2638297852
 11
-0.0250001192
 21
27.2
  0
LINE
  5
509
100
AcDbEntity
  8
0
100
AcDbLine
 62
7
  6
CONTINUOUS
 10
-2.6500000298
 20
28.6042553306
 11
-2.2749999404
 21
28.5404255509
  0
LINE
  5
50A
100
AcDbEntity
  8
0
100
AcDbLine
 62
7
  6
CONTINUOUS
 10
0.3499998808
 20
30.1361702204
 11
-0.0250001192
 21
30.2
  0
LINE
  5
50B
100
AcDbEntity
  8
0
100
AcDbLine
 62
7
  6
CONTINUOUS
 10
-2.9625
 20
27.5191489428
 11
-3.2750000149
 21
27.5829787225
  0
LINE
  5
50C
100
AcDbEntity
  8
0
100
AcDbLine
 62
7
  6
CONTINUOUS
 10
-0.0250001192
 20
27.5191489428
 11
-0.3375
 21
27.5829787225
  0
LINE
  5
50D
100
AcDbEntity
  8
0
100
AcDbLine
 62
7
  6
CONTINUOUS
 10
-2.6500000298
 20
29.8808511019
 11
-2.3375000596
 21
29.8170213223
  0
LINE
  5
50E
100
AcDbEntity
  8
0
100
AcDbLine
 62
7
  6
CONTINUOUS
 10
-0.0250001192
 20
29.8808511019
 11
0.2875001192
 21
29.8170213223
  0
LINE
  5
50F
100
AcDbEntity
  8
0
100
AcDbLine
 62
7
  6
CONTINUOUS
 10
-3.2750000149
 20
27.2638297852
 11
-3.0250000298
 21
27.2
  0
LINE
  5
510
100
AcDbEntity
  8
0
100
AcDbLine
 62
7
  6
CONTINUOUS
 10
-1.8375
 20
28.6042553306
 11
-2.1500000596
 21
28.7319148898
  0
LINE
  5
511
100
AcDbEntity
  8
0
100
AcDbLine
 62
7
  6
CONTINUOUS
 10
-2.025
 20
30.0085106611
 11
-2.2749999404
 21
30.1361702204
  0
LWPOLYLINE
  5
512
100
AcDbEntity
  8
RACCORDO
100
AcDbPolyline
 62
250
  6
CONTINUOUS
 90
12
 70
0
 10
150.0415009364
 20
-40.9468267582
 10
150.0430853908
 20
-40.9476754028
 10
150.0477266006
 20
-40.9485465841
 10
150.0554245656
 20
-40.9494403022
 10
150.0660189369
 20
-40.9503634149
 10
150.0796700635
 20
-40.9513090644
 10
150.0968589923
 20
-40.9522566765
 10
150.1177443856
 20
-40.9532068271
 10
150.142167581
 20
-40.9541589403
 10
150.1701336389
 20
-40.9550907153
 10
150.201797226
 20
-40.9560012637
 10
150.2752940479
 20
-40.9577417095
  0
LINE
  5
513
100
AcDbEntity
  8
0
100
AcDbLine
 62
7
  6
CONTINUOUS
 10
0.6625001192
 20
29.9446808815
 11
0.3499998808
 21
30.1361702204
  0
LINE
  5
514
100
AcDbEntity
  8
0
100
AcDbLine
 62
7
  6
CONTINUOUS
 10
18.1
 20
-39.7
 11
17.8248759926
 21
-39.9751240074
  0
LWPOLYLINE
  5
515
100
AcDbEntity
  8
0
100
AcDbPolyline
 62
7
  6
CONTINUOUS
 90
11
 70
0
 10
124.4685781072
 20
41.1158968441
 10
124.4796008222
 20
41.1247614239
 10
124.51254779
 20
41.1335342762
 10
124.5672305731
 20
41.1422572093
 10
124.6437736076
 20
41.1509299683
 10
124.7420524574
 20
41.1595528081
 10
124.8615065897
 20
41.1680765743
 10
125.0022557239
 20
41.1765006457
 10
125.1641801407
 20
41.1848256435
 10
125.3463601485
 20
41.1930042769
 10
125.5489132142
 20
41.2010357853
  0
LWPOLYLINE
  5
516
100
AcDbEntity
  8
0
100
AcDbPolyline
 62
7
  6
CONTINUOUS
 90
11
 70
0
 10
113.5314218928
 20
41.1158968441
 10
113.5203991778
 20
41.1072157193
 10
113.48745221
 20
41.098442867
 10
113.4327694269
 20
41.0897199339
 10
113.3562263924
 20
41.0810471749
 10
113.2579475426
 20
41.0724243351
 10
113.1384934103
 20
41.0639005689
 10
112.9977442761
 20
41.0554764975
 10
112.8358198593
 20
41.0471514996
 10
112.6536398515
 20
41.0389728663
 10
112.4510867858
 20
41.0309413578
  0
LINE
  5
517
100
AcDbEntity
  8
0
100
AcDbLine
 62
7
  6
CONTINUOUS
 10
-155.1574467838
 20
2.4999998808
 11
-155.4127659917
 21
2.4375001192
  0
LINE
  5
518
100
AcDbEntity
  8
0
100
AcDbLine
 62
7
  6
CONTINUOUS
 10
-156.4978724241
 20
2.4375001192
 11
-156.7531915426
 21
2.375
  0
LWPOLYLINE
  5
519
100
AcDbEntity
  8
RACCORDO
100
AcDbPolyline
 62
250
  6
CONTINUOUS
 90
14
 70
0
 10
-156.220914202
 20
40.4586269291
 10
-156.2416622018
 20
40.4578184513
 10
-156.2608629545
 20
40.4569681372
 10
-156.2784516457
 20
40.456077827
 10
-156.2942545491
 20
40.4551671762
 10
-156.3082738167
 20
40.4542352941
 10
-156.3205130727
 20
40.4532830714
 10
-156.3308980406
 20
40.4523328358
 10
-156.3394971659
 20
40.4513851744
 10
-156.3463897081
 20
40.4504395001
 10
-156.351615297
 20
40.4495163798
 10
-156.3552921753
 20
40.4486226694
 10
-156.3575689148
 20
40.447751513
 10
-156.358575216
 20
40.4469029106
  0
LINE
  5
51A
100
AcDbEntity
  8
0
100
AcDbLine
 62
7
  6
CONTINUOUS
 10
91.3463601485
 20
41.1930042769
 11
91.7717218709
 21
41.2089209292
  0
LINE
  5
51B
100
AcDbEntity
  8
DRAFT
100
AcDbLine
 62
7
  6
CONTINUOUS
 10
10.6536398515
 20
41.0389728663
 11
10.2282781291
 21
41.0230562139
  0
LINE
  5
51C
100
AcDbEntity
  8
DRAFT
100
AcDbLine
 62
7
  6
CONTINUOUS
 10
-10.6536398515
 20
41.1930042769
 11
-10.2282781291
 21
41.2089209292
  0
LINE
  5
51D
100
AcDbEntity
  8
DRAFT
100
AcDbLine
 62
7
  6
CONTINUOUS
 10
-91.3463601485
 20
41.0389728663
 11
-91.7717218709
 21
41.0230562139
  0
LINE
  5
51E
100
AcDbEntity
  8
DRAFT
100
AcDbLine
 62
7
  6
CONTINUOUS
 10
-112.6536398515
 20
41.1930042769
 11
-112.2282781291
 21
41.2089209292
  0
LINE
  5
51F
100
AcDbEntity
  8
DRAFT
100
AcDbLine
 62
7
  6
CONTINUOUS
 10
-125.3463601485
 20
41.0389728663
 11
-125.7717218709
 21
41.0230562139
  0
LINE
  5
520
100
AcDbEntity
  8
DRAFT
100
AcDbLine
 62
7
  6
CONTINUOUS
 10
-146.6536398515
 20
41.1930042769
 11
-146.2282781291
 21
41.2089209292
  0
LWPOLYLINE
  5
521
100
AcDbEntity
  8
RACCORDO
100
AcDbPolyline
 62
250
  6
CONTINUOUS
 90
10
 70
0
 10
-156.7298663599
 20
40.9550907153
 10
-156.7578324194
 20
40.9541589403
 10
-156.7822556172
 20
40.9532068271
 10
-156.803141011
 20
40.9522566766
 10
-156.8203299366
 20
40.9513090644
 10
-156.8339810583
 20
40.9503634149
 10
-156.8445754267
 20
40.9494403021
 10
-156.8522733922
 20
40.9485465841
 10
-156.8569146045
 20
40.9476754028
 10
-156.8584990636
 20
40.9468267582
  0
LINE
  5
522
100
AcDbEntity
  8
0
100
AcDbLine
 62
7
  6
CONTINUOUS
 10
125.5489132142
 20
41.2010357853
 11
126.0135140267
 21
41.2166146988
  0
LINE
  5
523
100
AcDbEntity
  8
0
100
AcDbLine
 62
7
  6
CONTINUOUS
 10
112.4510867858
 20
41.0309413578
 11
111.9864859733
 21
41.0153624444
  0
LINE
  5
524
100
AcDbEntity
  8
RACCORDO
100
AcDbLine
 62
250
  6
CONTINUOUS
 10
-156.1751910773
 20
40.4601097619
 11
-156.220914202
 21
40.4586269291
  0
LINE
  5
525
100
AcDbEntity
  8
0
100
AcDbLine
 62
7
  6
CONTINUOUS
 10
91.7717218709
 20
41.2089209292
 11
92.2743950432
 21
41.2241159177
  0
LINE
  5
526
100
AcDbEntity
  8
DRAFT
100
AcDbLine
 62
7
  6
CONTINUOUS
 10
10.2282781291
 20
41.0230562139
 11
9.7256049568
 21
41.0078612254
  0
LINE
  5
527
100
AcDbEntity
  8
DRAFT
100
AcDbLine
 62
7
  6
CONTINUOUS
 10
-10.2282781291
 20
41.2089209292
 11
-9.7256049568
 21
41.2241159177
  0
LINE
  5
528
100
AcDbEntity
  8
DRAFT
100
AcDbLine
 62
7
  6
CONTINUOUS
 10
-91.7717218709
 20
41.0230562139
 11
-92.2743950432
 21
41.0078612254
  0
LINE
  5
529
100
AcDbEntity
  8
DRAFT
100
AcDbLine
 62
7
  6
CONTINUOUS
 10
-112.2282781291
 20
41.2089209292
 11
-111.7256049568
 21
41.2241159177
  0
LINE
  5
52A
100
AcDbEntity
  8
DRAFT
100
AcDbLine
 62
7
  6
CONTINUOUS
 10
-125.7717218709
 20
41.0230562139
 11
-126.2743950432
 21
41.0078612254
  0
LINE
  5
52B
100
AcDbEntity
  8
DRAFT
100
AcDbLine
 62
7
  6
CONTINUOUS
 10
-146.2282781291
 20
41.2089209292
 11
-145.7256049568
 21
41.2241159177
  0
LINE
  5
52C
100
AcDbEntity
  8
0
100
AcDbLine
 62
7
  6
CONTINUOUS
 10
145.9864859733
 20
41.0153624444
 11
145.4457404413
 21
41.0005513809
  0
LINE
  5
52D
100
AcDbEntity
  8
0
100
AcDbLine
 62
7
  6
CONTINUOUS
 10
126.0135140267
 20
41.2166146988
 11
126.5542595587
 21
41.2314257623
  0
LINE
  5
52E
100
AcDbEntity
  8
0
100
AcDbLine
 62
7
  6
CONTINUOUS
 10
111.9864859733
 20
41.0153624444
 11
111.4457404413
 21
41.0005513809
  0
LINE
  5
52F
100
AcDbEntity
  8
RACCORDO
100
AcDbLine
 62
250
  6
CONTINUOUS
 10
-156.6629963243
 20
40.9568914738
 11
-156.7298663599
 21
40.9550907153
  0
LINE
  5
530
100
AcDbEntity
  8
0
100
AcDbLine
 62
7
  6
CONTINUOUS
 10
92.2743950432
 20
41.2241159177
 11
92.8515193965
 21
41.2385027512
  0
LINE
  5
531
100
AcDbEntity
  8
DRAFT
100
AcDbLine
 62
7
  6
CONTINUOUS
 10
9.7256049568
 20
41.0078612254
 11
9.1484806035
 21
40.993474392
  0
LINE
  5
532
100
AcDbEntity
  8
DRAFT
100
AcDbLine
 62
7
  6
CONTINUOUS
 10
-9.7256049568
 20
41.2241159177
 11
-9.1484806035
 21
41.2385027512
  0
LINE
  5
533
100
AcDbEntity
  8
DRAFT
100
AcDbLine
 62
7
  6
CONTINUOUS
 10
-92.2743950432
 20
41.0078612254
 11
-92.8515193965
 21
40.993474392
  0
LINE
  5
534
100
AcDbEntity
  8
DRAFT
100
AcDbLine
 62
7
  6
CONTINUOUS
 10
-111.7256049568
 20
41.2241159177
 11
-111.1484806035
 21
41.2385027512
  0
LINE
  5
535
100
AcDbEntity
  8
DRAFT
100
AcDbLine
 62
7
  6
CONTINUOUS
 10
-126.2743950432
 20
41.0078612254
 11
-126.8515193965
 21
40.993474392
  0
LINE
  5
536
100
AcDbEntity
  8
DRAFT
100
AcDbLine
 62
7
  6
CONTINUOUS
 10
-145.7256049568
 20
41.2241159177
 11
-145.1484806035
 21
41.2385027512
  0
LINE
  5
537
100
AcDbEntity
  8
RACCORDO
100
AcDbLine
 62
250
  6
CONTINUOUS
 10
-156.1248856988
 20
40.4613718314
 11
-156.1751910773
 21
40.4601097619
  0
LINE
  5
538
100
AcDbEntity
  8
0
100
AcDbLine
 62
7
  6
CONTINUOUS
 10
145.4457404413
 20
41.0005513809
 11
144.8337224647
 21
40.9866315021
  0
LINE
  5
539
100
AcDbEntity
  8
0
100
AcDbLine
 62
7
  6
CONTINUOUS
 10
126.5542595587
 20
41.2314257623
 11
127.1662775353
 21
41.245345641
  0
LINE
  5
53A
100
AcDbEntity
  8
0
100
AcDbLine
 62
7
  6
CONTINUOUS
 10
111.4457404413
 20
41.0005513809
 11
110.8337224647
 21
40.9866315021
  0
LINE
  5
53B
100
AcDbEntity
  8
0
100
AcDbLine
 62
7
  6
CONTINUOUS
 10
92.8515193965
 20
41.2385027512
 11
93.4984309964
 21
41.2519556752
  0
LINE
  5
53C
100
AcDbEntity
  8
DRAFT
100
AcDbLine
 62
7
  6
CONTINUOUS
 10
9.1484806035
 20
40.993474392
 11
8.5015690036
 21
40.9800214679
  0
LINE
  5
53D
100
AcDbEntity
  8
DRAFT
100
AcDbLine
 62
7
  6
CONTINUOUS
 10
-9.1484806035
 20
41.2385027512
 11
-8.5015690036
 21
41.2519556752
  0
LINE
  5
53E
100
AcDbEntity
  8
DRAFT
100
AcDbLine
 62
7
  6
CONTINUOUS
 10
-92.8515193965
 20
40.993474392
 11
-93.4984309964
 21
40.9800214679
  0
LINE
  5
53F
100
AcDbEntity
  8
DRAFT
100
AcDbLine
 62
7
  6
CONTINUOUS
 10
-111.1484806035
 20
41.2385027512
 11
-110.5015690036
 21
41.2519556752
  0
LINE
  5
540
100
AcDbEntity
  8
DRAFT
100
AcDbLine
 62
7
  6
CONTINUOUS
 10
-126.8515193965
 20
40.993474392
 11
-127.4984309964
 21
40.9800214679
  0
LINE
  5
541
100
AcDbEntity
  8
DRAFT
100
AcDbLine
 62
7
  6
CONTINUOUS
 10
-145.1484806035
 20
41.2385027512
 11
-144.5015690036
 21
41.2519556752
  0
LINE
  5
542
100
AcDbEntity
  8
RACCORDO
100
AcDbLine
 62
250
  6
CONTINUOUS
 10
-156.5832147384
 20
40.9585501363
 11
-156.6629963243
 21
40.9568914738
  0
LINE
  5
543
100
AcDbEntity
  8
0
100
AcDbLine
 62
7
  6
CONTINUOUS
 10
144.8337224647
 20
40.9866315021
 11
144.1539173323
 21
40.9736820401
  0
LINE
  5
544
100
AcDbEntity
  8
0
100
AcDbLine
 62
7
  6
CONTINUOUS
 10
127.1662775353
 20
41.245345641
 11
127.8460826677
 21
41.258295103
  0
LINE
  5
545
100
AcDbEntity
  8
0
100
AcDbLine
 62
7
  6
CONTINUOUS
 10
110.8337224647
 20
40.9866315021
 11
110.1539173323
 21
40.9736820401
  0
LINE
  5
546
100
AcDbEntity
  8
RACCORDO
100
AcDbLine
 62
250
  6
CONTINUOUS
 10
-156.0714916087
 20
40.4623915075
 11
-156.1248856988
 21
40.4613718314
  0
LINE
  5
547
100
AcDbEntity
  8
0
100
AcDbLine
 62
7
  6
CONTINUOUS
 10
93.4984309964
 20
41.2519556752
 11
94.2093165585
 21
41.2643623041
  0
LINE
  5
548
100
AcDbEntity
  8
DRAFT
100
AcDbLine
 62
7
  6
CONTINUOUS
 10
8.5015690036
 20
40.9800214679
 11
7.7906834415
 21
40.9676148391
  0
LINE
  5
549
100
AcDbEntity
  8
DRAFT
100
AcDbLine
 62
7
  6
CONTINUOUS
 10
-8.5015690036
 20
41.2519556752
 11
-7.7906834415
 21
41.2643623041
  0
LINE
  5
54A
100
AcDbEntity
  8
DRAFT
100
AcDbLine
 62
7
  6
CONTINUOUS
 10
-93.4984309964
 20
40.9800214679
 11
-94.2093165585
 21
40.9676148391
  0
LINE
  5
54B
100
AcDbEntity
  8
DRAFT
100
AcDbLine
 62
7
  6
CONTINUOUS
 10
-110.5015690036
 20
41.2519556752
 11
-109.7906834415
 21
41.2643623041
  0
LINE
  5
54C
100
AcDbEntity
  8
DRAFT
100
AcDbLine
 62
7
  6
CONTINUOUS
 10
-127.4984309964
 20
40.9800214679
 11
-128.2093165585
 21
40.9676148391
  0
LINE
  5
54D
100
AcDbEntity
  8
DRAFT
100
AcDbLine
 62
7
  6
CONTINUOUS
 10
-144.5015690036
 20
41.2519556752
 11
-143.7906834415
 21
41.2643623041
  0
LINE
  5
54E
100
AcDbEntity
  8
0
100
AcDbLine
 62
7
  6
CONTINUOUS
 10
144.1539173323
 20
40.9736820401
 11
143.4119513405
 21
40.9618182445
  0
LINE
  5
54F
100
AcDbEntity
  8
0
100
AcDbLine
 62
7
  6
CONTINUOUS
 10
110.1539173323
 20
40.9736820401
 11
109.4119513405
 21
40.9618182445
  0
LINE
  5
550
100
AcDbEntity
  8
0
100
AcDbLine
 62
7
  6
CONTINUOUS
 10
127.8460826677
 20
41.258295103
 11
128.5880486595
 21
41.2701588987
  0
LINE
  5
551
100
AcDbEntity
  8
0
100
AcDbLine
 62
7
  6
CONTINUOUS
 10
94.2093165585
 20
41.2643623041
 11
94.9801298313
 21
41.2756519972
  0
LINE
  5
552
100
AcDbEntity
  8
DRAFT
100
AcDbLine
 62
7
  6
CONTINUOUS
 10
7.7906834415
 20
40.9676148391
 11
7.0198701687
 21
40.956325146
  0
LINE
  5
553
100
AcDbEntity
  8
DRAFT
100
AcDbLine
 62
7
  6
CONTINUOUS
 10
-7.7906834415
 20
41.2643623041
 11
-7.0198701687
 21
41.2756519972
  0
LINE
  5
554
100
AcDbEntity
  8
DRAFT
100
AcDbLine
 62
7
  6
CONTINUOUS
 10
-94.2093165585
 20
40.9676148391
 11
-94.9801298313
 21
40.956325146
  0
LINE
  5
555
100
AcDbEntity
  8
DRAFT
100
AcDbLine
 62
7
  6
CONTINUOUS
 10
-128.2093165585
 20
40.9676148391
 11
-128.9801298313
 21
40.956325146
  0
LINE
  5
556
100
AcDbEntity
  8
DRAFT
100
AcDbLine
 62
7
  6
CONTINUOUS
 10
-109.7906834415
 20
41.2643623041
 11
-109.0198701687
 21
41.2756519972
  0
LINE
  5
557
100
AcDbEntity
  8
DRAFT
100
AcDbLine
 62
7
  6
CONTINUOUS
 10
-143.7906834415
 20
41.2643623041
 11
-143.0198701687
 21
41.2756519972
  0
LINE
  5
558
100
AcDbEntity
  8
RACCORDO
100
AcDbLine
 62
250
  6
CONTINUOUS
 10
-156.4425734674
 20
40.9606910514
 11
-156.5832147384
 21
40.9585501363
  0
LINE
  5
559
100
AcDbEntity
  8
0
100
AcDbLine
 62
7
  6
CONTINUOUS
 10
143.4119513405
 20
40.9618182445
 11
142.6143592258
 21
40.9511372117
  0
LINE
  5
55A
100
AcDbEntity
  8
0
100
AcDbLine
 62
7
  6
CONTINUOUS
 10
109.4119513405
 20
40.9618182445
 11
108.6143592258
 21
40.9511372117
  0
LINE
  5
55B
100
AcDbEntity
  8
0
100
AcDbLine
 62
7
  6
CONTINUOUS
 10
128.5880486595
 20
41.2701588987
 11
129.3856407742
 21
41.2808399315
  0
LINE
  5
55C
100
AcDbEntity
  8
RACCORDO
100
AcDbLine
 62
250
  6
CONTINUOUS
 10
-156.0164677955
 20
40.46316091
 11
-156.0714916087
 21
40.4623915075
  0
LINE
  5
55D
100
AcDbEntity
  8
0
100
AcDbLine
 62
7
  6
CONTINUOUS
 10
94.9801298313
 20
41.2756519972
 11
95.8045007879
 21
41.2857243697
  0
LINE
  5
55E
100
AcDbEntity
  8
DRAFT
100
AcDbLine
 62
7
  6
CONTINUOUS
 10
7.0198701687
 20
40.956325146
 11
6.1954992121
 21
40.9462527735
  0
LINE
  5
55F
100
AcDbEntity
  8
DRAFT
100
AcDbLine
 62
7
  6
CONTINUOUS
 10
-7.0198701687
 20
41.2756519972
 11
-6.1954992121
 21
41.2857243697
  0
LINE
  5
560
100
AcDbEntity
  8
DRAFT
100
AcDbLine
 62
7
  6
CONTINUOUS
 10
-94.9801298313
 20
40.956325146
 11
-95.8045007879
 21
40.9462527735
  0
LINE
  5
561
100
AcDbEntity
  8
DRAFT
100
AcDbLine
 62
7
  6
CONTINUOUS
 10
-128.9801298313
 20
40.956325146
 11
-129.8045007879
 21
40.9462527735
  0
LINE
  5
562
100
AcDbEntity
  8
DRAFT
100
AcDbLine
 62
7
  6
CONTINUOUS
 10
-109.0198701687
 20
41.2756519972
 11
-108.1954992121
 21
41.2857243697
  0
LINE
  5
563
100
AcDbEntity
  8
DRAFT
100
AcDbLine
 62
7
  6
CONTINUOUS
 10
-143.0198701687
 20
41.2756519972
 11
-142.1954992121
 21
41.2857243697
  0
LINE
  5
564
100
AcDbEntity
  8
0
100
AcDbLine
 62
7
  6
CONTINUOUS
 10
142.6143592258
 20
40.9511372117
 11
141.7656813678
 21
40.9416997171
  0
LINE
  5
565
100
AcDbEntity
  8
0
100
AcDbLine
 62
7
  6
CONTINUOUS
 10
108.6143592258
 20
40.9511372117
 11
107.7656813678
 21
40.9416997171
  0
LINE
  5
566
100
AcDbEntity
  8
0
100
AcDbLine
 62
7
  6
CONTINUOUS
 10
129.3856407742
 20
41.2808399315
 11
130.2343186322
 21
41.290277426
  0
LINE
  5
567
100
AcDbEntity
  8
0
100
AcDbLine
 62
7
  6
CONTINUOUS
 10
95.8045007879
 20
41.2857243697
 11
96.6751524599
 21
41.2944971644
  0
LINE
  5
568
100
AcDbEntity
  8
DRAFT
100
AcDbLine
 62
7
  6
CONTINUOUS
 10
6.1954992121
 20
40.9462527735
 11
5.3248475401
 21
40.9374799787
  0
LINE
  5
569
100
AcDbEntity
  8
DRAFT
100
AcDbLine
 62
7
  6
CONTINUOUS
 10
-6.1954992121
 20
41.2857243697
 11
-5.3248475401
 21
41.2944971644
  0
LINE
  5
56A
100
AcDbEntity
  8
DRAFT
100
AcDbLine
 62
7
  6
CONTINUOUS
 10
-95.8045007879
 20
40.9462527735
 11
-96.6751524599
 21
40.9374799787
  0
LINE
  5
56B
100
AcDbEntity
  8
DRAFT
100
AcDbLine
 62
7
  6
CONTINUOUS
 10
-129.8045007879
 20
40.9462527735
 11
-130.6751524599
 21
40.9374799787
  0
LINE
  5
56C
100
AcDbEntity
  8
DRAFT
100
AcDbLine
 62
7
  6
CONTINUOUS
 10
-108.1954992121
 20
41.2857243697
 11
-107.3248475401
 21
41.2944971644
  0
LINE
  5
56D
100
AcDbEntity
  8
DRAFT
100
AcDbLine
 62
7
  6
CONTINUOUS
 10
-142.1954992121
 20
41.2857243697
 11
-141.3248475401
 21
41.2944971644
  0
LINE
  5
56E
100
AcDbEntity
  8
0
100
AcDbLine
 62
7
  6
CONTINUOUS
 10
141.7656813678
 20
40.9416997171
 11
140.8730558818
 21
40.9335916222
  0
LINE
  5
56F
100
AcDbEntity
  8
0
100
AcDbLine
 62
7
  6
CONTINUOUS
 10
107.7656813678
 20
40.9416997171
 11
106.8730558818
 21
40.9335916222
  0
LINE
  5
570
100
AcDbEntity
  8
0
100
AcDbLine
 62
7
  6
CONTINUOUS
 10
130.2343186322
 20
41.290277426
 11
131.1269441182
 21
41.298385521
  0
LINE
  5
571
100
AcDbEntity
  8
0
100
AcDbLine
 62
7
  6
CONTINUOUS
 10
96.6751524599
 20
41.2944971644
 11
97.5871279081
 21
41.3019204181
  0
LINE
  5
572
100
AcDbEntity
  8
DRAFT
100
AcDbLine
 62
7
  6
CONTINUOUS
 10
5.3248475401
 20
40.9374799787
 11
4.4128720919
 21
40.930056725
  0
LINE
  5
573
100
AcDbEntity
  8
DRAFT
100
AcDbLine
 62
7
  6
CONTINUOUS
 10
-5.3248475401
 20
41.2944971644
 11
-4.4128720919
 21
41.3019204181
  0
LINE
  5
574
100
AcDbEntity
  8
DRAFT
100
AcDbLine
 62
7
  6
CONTINUOUS
 10
-96.6751524599
 20
40.9374799787
 11
-97.5871279081
 21
40.930056725
  0
LINE
  5
575
100
AcDbEntity
  8
DRAFT
100
AcDbLine
 62
7
  6
CONTINUOUS
 10
-130.6751524599
 20
40.9374799787
 11
-131.5871279081
 21
40.930056725
  0
LINE
  5
576
100
AcDbEntity
  8
DRAFT
100
AcDbLine
 62
7
  6
CONTINUOUS
 10
-107.3248475401
 20
41.2944971644
 11
-106.4128720919
 21
41.3019204181
  0
LINE
  5
577
100
AcDbEntity
  8
DRAFT
100
AcDbLine
 62
7
  6
CONTINUOUS
 10
-141.3248475401
 20
41.2944971644
 11
-140.4128720919
 21
41.3019204181
  0
LINE
  5
578
100
AcDbEntity
  8
RACCORDO
100
AcDbLine
 62
250
  6
CONTINUOUS
 10
-156.2293895426
 20
40.9627306658
 11
-156.4425734674
 21
40.9606910514
  0
LINE
  5
579
100
AcDbEntity
  8
0
100
AcDbLine
 62
7
  6
CONTINUOUS
 10
140.8730558818
 20
40.9335916222
 11
139.9442446608
 21
40.9268772737
  0
LINE
  5
57A
100
AcDbEntity
  8
0
100
AcDbLine
 62
7
  6
CONTINUOUS
 10
106.8730558818
 20
40.9335916222
 11
105.9442446608
 21
40.9268772737
  0
LINE
  5
57B
100
AcDbEntity
  8
0
100
AcDbLine
 62
7
  6
CONTINUOUS
 10
131.1269441182
 20
41.298385521
 11
132.0557553392
 21
41.3050998694
  0
LINE
  5
57C
100
AcDbEntity
  8
RACCORDO
100
AcDbLine
 62
250
  6
CONTINUOUS
 10
-155.9347696193
 20
40.4638498248
 11
-156.0164677955
 21
40.46316091
  0
LINE
  5
57D
100
AcDbEntity
  8
0
100
AcDbLine
 62
7
  6
CONTINUOUS
 10
97.5871279081
 20
41.3019204181
 11
98.5327749019
 21
41.3079258613
  0
LINE
  5
57E
100
AcDbEntity
  8
DRAFT
100
AcDbLine
 62
7
  6
CONTINUOUS
 10
4.4128720919
 20
40.930056725
 11
3.4672250981
 21
40.9240512818
  0
LINE
  5
57F
100
AcDbEntity
  8
DRAFT
100
AcDbLine
 62
7
  6
CONTINUOUS
 10
-4.4128720919
 20
41.3019204181
 11
-3.4672250981
 21
41.3079258613
  0
LINE
  5
580
100
AcDbEntity
  8
DRAFT
100
AcDbLine
 62
7
  6
CONTINUOUS
 10
-97.5871279081
 20
40.930056725
 11
-98.5327749019
 21
40.9240512818
  0
LINE
  5
581
100
AcDbEntity
  8
DRAFT
100
AcDbLine
 62
7
  6
CONTINUOUS
 10
-131.5871279081
 20
40.930056725
 11
-132.5327749019
 21
40.9240512818
  0
LINE
  5
582
100
AcDbEntity
  8
DRAFT
100
AcDbLine
 62
7
  6
CONTINUOUS
 10
-106.4128720919
 20
41.3019204181
 11
-105.4672250981
 21
41.3079258613
  0
LINE
  5
583
100
AcDbEntity
  8
DRAFT
100
AcDbLine
 62
7
  6
CONTINUOUS
 10
-140.4128720919
 20
41.3019204181
 11
-139.4672250981
 21
41.3079258613
  0
LINE
  5
584
100
AcDbEntity
  8
0
100
AcDbLine
 62
7
  6
CONTINUOUS
 10
139.9442446608
 20
40.9268772737
 11
138.9845336314
 21
40.9215948676
  0
LINE
  5
585
100
AcDbEntity
  8
0
100
AcDbLine
 62
7
  6
CONTINUOUS
 10
105.9442446608
 20
40.9268772737
 11
104.9845336314
 21
40.9215948676
  0
LINE
  5
586
100
AcDbEntity
  8
0
100
AcDbLine
 62
7
  6
CONTINUOUS
 10
132.0557553392
 20
41.3050998694
 11
133.0154663686
 21
41.3103822756
  0
LINE
  5
587
100
AcDbEntity
  8
0
100
AcDbLine
 62
7
  6
CONTINUOUS
 10
98.5327749019
 20
41.3079258613
 11
99.5038594669
 21
41.3124669891
  0
LINE
  5
588
100
AcDbEntity
  8
DRAFT
100
AcDbLine
 62
7
  6
CONTINUOUS
 10
3.4672250981
 20
40.9240512818
 11
2.4961405331
 21
40.9195101541
  0
LINE
  5
589
100
AcDbEntity
  8
DRAFT
100
AcDbLine
 62
7
  6
CONTINUOUS
 10
-3.4672250981
 20
41.3079258613
 11
-2.4961405331
 21
41.3124669891
  0
LINE
  5
58A
100
AcDbEntity
  8
DRAFT
100
AcDbLine
 62
7
  6
CONTINUOUS
 10
-98.5327749019
 20
40.9240512818
 11
-99.5038594669
 21
40.9195101541
  0
LINE
  5
58B
100
AcDbEntity
  8
DRAFT
100
AcDbLine
 62
7
  6
CONTINUOUS
 10
-132.5327749019
 20
40.9240512818
 11
-133.5038594669
 21
40.9195101541
  0
LINE
  5
58C
100
AcDbEntity
  8
DRAFT
100
AcDbLine
 62
7
  6
CONTINUOUS
 10
-105.4672250981
 20
41.3079258613
 11
-104.4961405331
 21
41.3124669891
  0
LINE
  5
58D
100
AcDbEntity
  8
DRAFT
100
AcDbLine
 62
7
  6
CONTINUOUS
 10
-139.4672250981
 20
41.3079258613
 11
-138.4961405331
 21
41.3124669891
  0
LINE
  5
58E
100
AcDbEntity
  8
0
100
AcDbLine
 62
7
  6
CONTINUOUS
 10
138.9845336314
 20
40.9215948676
 11
138.0020755308
 21
40.9177950182
  0
LINE
  5
58F
100
AcDbEntity
  8
0
100
AcDbLine
 62
7
  6
CONTINUOUS
 10
104.9845336314
 20
40.9215948676
 11
104.0020755308
 21
40.9177950182
  0
LINE
  5
590
100
AcDbEntity
  8
0
100
AcDbLine
 62
7
  6
CONTINUOUS
 10
133.0154663686
 20
41.3103822756
 11
133.9979244692
 21
41.314182125
  0
LINE
  5
591
100
AcDbEntity
  8
DRAFT
100
AcDbLine
 62
7
  6
CONTINUOUS
 10
2.4961405331
 20
40.9195101541
 11
1.5051480353
 21
40.9164592088
  0
LINE
  5
592
100
AcDbEntity
  8
0
100
AcDbLine
 62
7
  6
CONTINUOUS
 10
99.5038594669
 20
41.3124669891
 11
100.4948519647
 21
41.3155179343
  0
LINE
  5
593
100
AcDbEntity
  8
DRAFT
100
AcDbLine
 62
7
  6
CONTINUOUS
 10
-99.5038594669
 20
40.9195101541
 11
-100.4948519647
 21
40.9164592088
  0
LINE
  5
594
100
AcDbEntity
  8
DRAFT
100
AcDbLine
 62
7
  6
CONTINUOUS
 10
-133.5038594669
 20
40.9195101541
 11
-134.4948519647
 21
40.9164592088
  0
LINE
  5
595
100
AcDbEntity
  8
DRAFT
100
AcDbLine
 62
7
  6
CONTINUOUS
 10
-2.4961405331
 20
41.3124669891
 11
-1.5051480353
 21
41.3155179343
  0
LINE
  5
596
100
AcDbEntity
  8
DRAFT
100
AcDbLine
 62
7
  6
CONTINUOUS
 10
-104.4961405331
 20
41.3124669891
 11
-103.5051480353
 21
41.3155179343
  0
LINE
  5
597
100
AcDbEntity
  8
DRAFT
100
AcDbLine
 62
7
  6
CONTINUOUS
 10
-138.4961405331
 20
41.3124669891
 11
-137.5051480353
 21
41.3155179343
  0
LINE
  5
598
100
AcDbEntity
  8
RACCORDO
100
AcDbLine
 62
250
  6
CONTINUOUS
 10
-155.9589333037
 20
40.963895415
 11
-156.2293895426
 21
40.9627306658
  0
LINE
  5
599
100
AcDbEntity
  8
0
100
AcDbLine
 62
7
  6
CONTINUOUS
 10
138.0020755308
 20
40.9177950182
 11
137.0062945168
 21
40.9155059756
  0
LINE
  5
59A
100
AcDbEntity
  8
0
100
AcDbLine
 62
7
  6
CONTINUOUS
 10
104.0020755308
 20
40.9177950182
 11
103.0062945168
 21
40.9155059756
  0
LINE
  5
59B
100
AcDbEntity
  8
0
100
AcDbLine
 62
7
  6
CONTINUOUS
 10
133.9979244692
 20
41.314182125
 11
134.9937054832
 21
41.3164711676
  0
LINE
  5
59C
100
AcDbEntity
  8
DRAFT
100
AcDbLine
 62
7
  6
CONTINUOUS
 10
1.5051480353
 20
40.9164592088
 11
0.504578505
 21
40.9149320689
  0
LINE
  5
59D
100
AcDbEntity
  8
DRAFT
100
AcDbLine
 62
7
  6
CONTINUOUS
 10
-100.4948519647
 20
40.9164592088
 11
-101.495421495
 21
40.9149320689
  0
LINE
  5
59E
100
AcDbEntity
  8
DRAFT
100
AcDbLine
 62
7
  6
CONTINUOUS
 10
-134.4948519647
 20
40.9164592088
 11
-135.495421495
 21
40.9149320689
  0
LINE
  5
59F
100
AcDbEntity
  8
0
100
AcDbLine
 62
7
  6
CONTINUOUS
 10
100.4948519647
 20
41.3155179343
 11
101.495421495
 21
41.3170450742
  0
LINE
  5
5A0
100
AcDbEntity
  8
DRAFT
100
AcDbLine
 62
7
  6
CONTINUOUS
 10
-1.5051480353
 20
41.3155179343
 11
-0.504578505
 21
41.3170450742
  0
LINE
  5
5A1
100
AcDbEntity
  8
DRAFT
100
AcDbLine
 62
7
  6
CONTINUOUS
 10
-103.5051480353
 20
41.3155179343
 11
-102.504578505
 21
41.3170450742
  0
LINE
  5
5A2
100
AcDbEntity
  8
DRAFT
100
AcDbLine
 62
7
  6
CONTINUOUS
 10
-137.5051480353
 20
41.3155179343
 11
-136.504578505
 21
41.3170450742
  0
LINE
  5
5A3
100
AcDbEntity
  8
RACCORDO
100
AcDbLine
 62
250
  6
CONTINUOUS
 10
-155.8586513684
 20
40.4640533427
 11
-155.9347696193
 21
40.4638498248
  0
LINE
  5
5A4
100
AcDbEntity
  8
0
100
AcDbLine
 62
7
  6
CONTINUOUS
 10
137.0062945168
 20
40.9155059756
 11
136.0
 21
40.9147374887
  0
LINE
  5
5A5
100
AcDbEntity
  8
0
100
AcDbLine
 62
7
  6
CONTINUOUS
 10
103.0062945168
 20
40.9155059756
 11
102.0
 21
40.9147374887
  0
LINE
  5
5A6
100
AcDbEntity
  8
0
100
AcDbLine
 62
7
  6
CONTINUOUS
 10
134.9937054832
 20
41.3164711676
 11
136.0
 21
41.3172396544
  0
LINE
  5
5A7
100
AcDbEntity
  8
RACCORDO
100
AcDbLine
 62
250
  6
CONTINUOUS
 10
-149.9574119919
 20
39.3822464769
 11
-156.9425880081
 21
39.3822464769
  0
LINE
  5
5A8
100
AcDbEntity
  8
0
100
AcDbLine
 62
250
  6
CONTINUOUS
 10
162.2242099741
 20
39.6749258819
 11
-17.8242099741
 21
39.6749258819
  0
LINE
  5
5A9
100
AcDbEntity
  8
RACCORDO
100
AcDbLine
 62
250
  6
CONTINUOUS
 10
-156.649925098
 20
39.6749258628
 11
-162.2242099741
 21
39.6749258819
  0
LINE
  5
5AA
100
AcDbEntity
  8
RACCORDO
100
AcDbLine
 62
250
  6
CONTINUOUS
 10
-150.2500749007
 20
39.6749258623
 11
-21.1757900259
 21
39.6749258819
  0
LINE
  5
5AB
100
AcDbEntity
  8
DRAFT
100
AcDbLine
 62
7
  6
CONTINUOUS
 10
-164.0
 20
39.7
 11
-162.5
 21
39.7
  0
LINE
  5
5AC
100
AcDbEntity
  8
DRAFT
100
AcDbLine
 62
7
  6
CONTINUOUS
 10
-20.9
 20
39.7
 11
-18.1
 21
39.7
  0
LINE
  5
5AD
100
AcDbEntity
  8
DRAFT
100
AcDbLine
 62
7
  6
CONTINUOUS
 10
162.5
 20
39.7
 11
164.0
 21
39.7
  0
LINE
  5
5AE
100
AcDbEntity
  8
RACCORDO
100
AcDbLine
 62
250
  6
CONTINUOUS
 10
-150.4564316543
 20
39.8821703245
 11
-156.4435683455
 21
39.8821703245
  0
LINE
  5
5AF
100
AcDbEntity
  8
RACCORDO
100
AcDbLine
 62
7
  6
CONTINUOUS
 10
-151.0413486316
 20
39.9748344851
 11
-155.8586513684
 21
39.9748344851
  0
LINE
  5
5B0
100
AcDbEntity
  8
0
100
AcDbLine
 62
7
  6
CONTINUOUS
 10
164.0
 20
39.9751240074
 11
162.2248759926
 21
39.9751240074
  0
LINE
  5
5B1
100
AcDbEntity
  8
0
100
AcDbLine
 62
7
  6
CONTINUOUS
 10
-17.8248759926
 20
39.9751240074
 11
-21.1751240074
 21
39.9751240074
  0
LINE
  5
5B2
100
AcDbEntity
  8
0
100
AcDbLine
 62
7
  6
CONTINUOUS
 10
-162.2248759926
 20
39.9751240074
 11
-164.0
 21
39.9751240074
  0
LINE
  5
5B3
100
AcDbEntity
  8
RACCORDO
100
AcDbLine
 62
250
  6
CONTINUOUS
 10
164.0
 20
40.8747431161
 11
-149.9694172943
 21
40.8747431161
  0
LINE
  5
5B4
100
AcDbEntity
  8
RACCORDO
100
AcDbLine
 62
250
  6
CONTINUOUS
 10
-156.9305827057
 20
40.8747431161
 11
-164.0
 21
40.8747431161
  0
LINE
  5
5B5
100
AcDbEntity
  8
SUPERFICI
100
AcDbLine
 62
7
  6
CONTINUOUS
 10
-164.0000000088
 20
41.5000003491
 11
164.0000000088
 21
41.5000003491
  0
LINE
  5
5B6
100
AcDbEntity
  8
DRAFT
100
AcDbLine
 62
7
  6
CONTINUOUS
 10
164.0
 20
41.5
 11
-164.0
 21
41.5
  0
LINE
  5
5B7
100
AcDbEntity
  8
DRAFT
100
AcDbLine
 62
7
  6
CONTINUOUS
 10
-135.495421495
 20
40.9149320689
 11
-136.504578505
 21
40.9149320689
  0
LINE
  5
5B8
100
AcDbEntity
  8
DRAFT
100
AcDbLine
 62
7
  6
CONTINUOUS
 10
-101.495421495
 20
40.9149320689
 11
-102.504578505
 21
40.9149320689
  0
LINE
  5
5B9
100
AcDbEntity
  8
DRAFT
100
AcDbLine
 62
7
  6
CONTINUOUS
 10
0.504578505
 20
40.9149320689
 11
-0.504578505
 21
40.9149320689
  0
LINE
  5
5BA
100
AcDbEntity
  8
DRAFT
100
AcDbLine
 62
7
  6
CONTINUOUS
 10
-136.504578505
 20
41.3170450742
 11
-135.495421495
 21
41.3170450742
  0
LINE
  5
5BB
100
AcDbEntity
  8
DRAFT
100
AcDbLine
 62
7
  6
CONTINUOUS
 10
-102.504578505
 20
41.3170450742
 11
-101.495421495
 21
41.3170450742
  0
LINE
  5
5BC
100
AcDbEntity
  8
DRAFT
100
AcDbLine
 62
7
  6
CONTINUOUS
 10
-0.504578505
 20
41.3170450742
 11
0.504578505
 21
41.3170450742
  0
LINE
  5
5BD
100
AcDbEntity
  8
0
100
AcDbLine
 62
7
  6
CONTINUOUS
 10
101.495421495
 20
41.3170450742
 11
102.504578505
 21
41.3170450742
  0
LINE
  5
5BE
100
AcDbEntity
  8
0
100
AcDbLine
 62
7
  6
CONTINUOUS
 10
102.0
 20
40.9147374887
 11
100.9937054832
 21
40.9155059756
  0
LINE
  5
5BF
100
AcDbEntity
  8
0
100
AcDbLine
 62
7
  6
CONTINUOUS
 10
136.0
 20
40.9147374887
 11
134.9937054832
 21
40.9155059756
  0
LINE
  5
5C0
100
AcDbEntity
  8
0
100
AcDbLine
 62
7
  6
CONTINUOUS
 10
136.0
 20
41.3172396544
 11
137.0062945168
 21
41.3164711676
  0
LINE
  5
5C1
100
AcDbEntity
  8
DRAFT
100
AcDbLine
 62
7
  6
CONTINUOUS
 10
-136.504578505
 20
40.9149320689
 11
-137.5051480353
 21
40.9164592088
  0
LINE
  5
5C2
100
AcDbEntity
  8
DRAFT
100
AcDbLine
 62
7
  6
CONTINUOUS
 10
-102.504578505
 20
40.9149320689
 11
-103.5051480353
 21
40.9164592088
  0
LINE
  5
5C3
100
AcDbEntity
  8
DRAFT
100
AcDbLine
 62
7
  6
CONTINUOUS
 10
-0.504578505
 20
40.9149320689
 11
-1.5051480353
 21
40.9164592088
  0
LINE
  5
5C4
100
AcDbEntity
  8
DRAFT
100
AcDbLine
 62
7
  6
CONTINUOUS
 10
-135.495421495
 20
41.3170450742
 11
-134.4948519647
 21
41.3155179343
  0
LINE
  5
5C5
100
AcDbEntity
  8
DRAFT
100
AcDbLine
 62
7
  6
CONTINUOUS
 10
-101.495421495
 20
41.3170450742
 11
-100.4948519647
 21
41.3155179343
  0
LINE
  5
5C6
100
AcDbEntity
  8
DRAFT
100
AcDbLine
 62
7
  6
CONTINUOUS
 10
0.504578505
 20
41.3170450742
 11
1.5051480353
 21
41.3155179343
  0
LINE
  5
5C7
100
AcDbEntity
  8
0
100
AcDbLine
 62
7
  6
CONTINUOUS
 10
102.504578505
 20
41.3170450742
 11
103.5051480353
 21
41.3155179343
  0
LINE
  5
5C8
100
AcDbEntity
  8
RACCORDO
100
AcDbLine
 62
250
  6
CONTINUOUS
 10
-150.8890681544
 20
40.9637736005
 11
-155.9589333037
 21
40.963895415
  0
LINE
  5
5C9
100
AcDbEntity
  8
RACCORDO
100
AcDbLine
 62
250
  6
CONTINUOUS
 10
-150.9913477611
 20
40.4639715969
 11
-155.8586513684
 21
40.4640533427
  0
LINE
  5
5CA
100
AcDbEntity
  8
0
100
AcDbLine
 62
7
  6
CONTINUOUS
 10
100.9937054832
 20
40.9155059756
 11
99.9979244692
 21
40.9177950182
  0
LINE
  5
5CB
100
AcDbEntity
  8
0
100
AcDbLine
 62
7
  6
CONTINUOUS
 10
134.9937054832
 20
40.9155059756
 11
133.9979244692
 21
40.9177950182
  0
LINE
  5
5CC
100
AcDbEntity
  8
0
100
AcDbLine
 62
7
  6
CONTINUOUS
 10
137.0062945168
 20
41.3164711676
 11
138.0020755308
 21
41.314182125
  0
LINE
  5
5CD
100
AcDbEntity
  8
DRAFT
100
AcDbLine
 62
7
  6
CONTINUOUS
 10
-137.5051480353
 20
40.9164592088
 11
-138.4961405331
 21
40.9195101541
  0
LINE
  5
5CE
100
AcDbEntity
  8
DRAFT
100
AcDbLine
 62
7
  6
CONTINUOUS
 10
-103.5051480353
 20
40.9164592088
 11
-104.4961405331
 21
40.9195101541
  0
LINE
  5
5CF
100
AcDbEntity
  8
DRAFT
100
AcDbLine
 62
7
  6
CONTINUOUS
 10
-134.4948519647
 20
41.3155179343
 11
-133.5038594669
 21
41.3124669891
  0
LINE
  5
5D0
100
AcDbEntity
  8
DRAFT
100
AcDbLine
 62
7
  6
CONTINUOUS
 10
-1.5051480353
 20
40.9164592088
 11
-2.4961405331
 21
40.9195101541
  0
LINE
  5
5D1
100
AcDbEntity
  8
DRAFT
100
AcDbLine
 62
7
  6
CONTINUOUS
 10
-100.4948519647
 20
41.3155179343
 11
-99.5038594669
 21
41.3124669891
  0
LINE
  5
5D2
100
AcDbEntity
  8
DRAFT
100
AcDbLine
 62
7
  6
CONTINUOUS
 10
1.5051480353
 20
41.3155179343
 11
2.4961405331
 21
41.3124669891
  0
LINE
  5
5D3
100
AcDbEntity
  8
0
100
AcDbLine
 62
7
  6
CONTINUOUS
 10
103.5051480353
 20
41.3155179343
 11
104.4961405331
 21
41.3124669891
  0
LINE
  5
5D4
100
AcDbEntity
  8
0
100
AcDbLine
 62
7
  6
CONTINUOUS
 10
99.9979244692
 20
40.9177950182
 11
99.0154663686
 21
40.9215948676
  0
LINE
  5
5D5
100
AcDbEntity
  8
0
100
AcDbLine
 62
7
  6
CONTINUOUS
 10
133.9979244692
 20
40.9177950182
 11
133.0154663686
 21
40.9215948676
  0
LINE
  5
5D6
100
AcDbEntity
  8
0
100
AcDbLine
 62
7
  6
CONTINUOUS
 10
138.0020755308
 20
41.314182125
 11
138.9845336314
 21
41.3103822756
  0
LINE
  5
5D7
100
AcDbEntity
  8
DRAFT
100
AcDbLine
 62
7
  6
CONTINUOUS
 10
-138.4961405331
 20
40.9195101541
 11
-139.4672250981
 21
40.9240512818
  0
LINE
  5
5D8
100
AcDbEntity
  8
DRAFT
100
AcDbLine
 62
7
  6
CONTINUOUS
 10
-104.4961405331
 20
40.9195101541
 11
-105.4672250981
 21
40.9240512818
  0
LINE
  5
5D9
100
AcDbEntity
  8
DRAFT
100
AcDbLine
 62
7
  6
CONTINUOUS
 10
-133.5038594669
 20
41.3124669891
 11
-132.5327749019
 21
41.3079258613
  0
LINE
  5
5DA
100
AcDbEntity
  8
DRAFT
100
AcDbLine
 62
7
  6
CONTINUOUS
 10
-99.5038594669
 20
41.3124669891
 11
-98.5327749019
 21
41.3079258613
  0
LINE
  5
5DB
100
AcDbEntity
  8
DRAFT
100
AcDbLine
 62
7
  6
CONTINUOUS
 10
-2.4961405331
 20
40.9195101541
 11
-3.4672250981
 21
40.9240512818
  0
LINE
  5
5DC
100
AcDbEntity
  8
DRAFT
100
AcDbLine
 62
7
  6
CONTINUOUS
 10
2.4961405331
 20
41.3124669891
 11
3.4672250981
 21
41.3079258613
  0
LINE
  5
5DD
100
AcDbEntity
  8
0
100
AcDbLine
 62
7
  6
CONTINUOUS
 10
104.4961405331
 20
41.3124669891
 11
105.4672250981
 21
41.3079258613
  0
LINE
  5
5DE
100
AcDbEntity
  8
0
100
AcDbLine
 62
7
  6
CONTINUOUS
 10
99.0154663686
 20
40.9215948676
 11
98.0557553392
 21
40.9268772737
  0
LINE
  5
5DF
100
AcDbEntity
  8
0
100
AcDbLine
 62
7
  6
CONTINUOUS
 10
133.0154663686
 20
40.9215948676
 11
132.0557553392
 21
40.9268772737
  0
LINE
  5
5E0
100
AcDbEntity
  8
0
100
AcDbLine
 62
7
  6
CONTINUOUS
 10
138.9845336314
 20
41.3103822756
 11
139.9442446608
 21
41.3050998694
  0
LINE
  5
5E1
100
AcDbEntity
  8
DRAFT
100
AcDbLine
 62
7
  6
CONTINUOUS
 10
-139.4672250981
 20
40.9240512818
 11
-140.4128720919
 21
40.930056725
  0
LINE
  5
5E2
100
AcDbEntity
  8
DRAFT
100
AcDbLine
 62
7
  6
CONTINUOUS
 10
-105.4672250981
 20
40.9240512818
 11
-106.4128720919
 21
40.930056725
  0
LINE
  5
5E3
100
AcDbEntity
  8
DRAFT
100
AcDbLine
 62
7
  6
CONTINUOUS
 10
-132.5327749019
 20
41.3079258613
 11
-131.5871279081
 21
41.3019204181
  0
LINE
  5
5E4
100
AcDbEntity
  8
DRAFT
100
AcDbLine
 62
7
  6
CONTINUOUS
 10
-98.5327749019
 20
41.3079258613
 11
-97.5871279081
 21
41.3019204181
  0
LINE
  5
5E5
100
AcDbEntity
  8
DRAFT
100
AcDbLine
 62
7
  6
CONTINUOUS
 10
-3.4672250981
 20
40.9240512818
 11
-4.4128720919
 21
40.930056725
  0
LINE
  5
5E6
100
AcDbEntity
  8
DRAFT
100
AcDbLine
 62
7
  6
CONTINUOUS
 10
3.4672250981
 20
41.3079258613
 11
4.4128720919
 21
41.3019204181
  0
LINE
  5
5E7
100
AcDbEntity
  8
0
100
AcDbLine
 62
7
  6
CONTINUOUS
 10
105.4672250981
 20
41.3079258613
 11
106.4128720919
 21
41.3019204181
  0
LINE
  5
5E8
100
AcDbEntity
  8
RACCORDO
100
AcDbLine
 62
250
  6
CONTINUOUS
 10
-150.6155094918
 20
40.9623148691
 11
-150.8890681544
 21
40.9637736005
  0
LINE
  5
5E9
100
AcDbEntity
  8
0
100
AcDbLine
 62
7
  6
CONTINUOUS
 10
98.0557553392
 20
40.9268772737
 11
97.1269441182
 21
40.9335916222
  0
LINE
  5
5EA
100
AcDbEntity
  8
0
100
AcDbLine
 62
7
  6
CONTINUOUS
 10
132.0557553392
 20
40.9268772737
 11
131.1269441182
 21
40.9335916222
  0
LINE
  5
5EB
100
AcDbEntity
  8
0
100
AcDbLine
 62
7
  6
CONTINUOUS
 10
139.9442446608
 20
41.3050998694
 11
140.8730558818
 21
41.298385521
  0
LINE
  5
5EC
100
AcDbEntity
  8
RACCORDO
100
AcDbLine
 62
250
  6
CONTINUOUS
 10
-150.9110465265
 20
40.4634498665
 11
-150.9913477611
 21
40.4639715969
  0
LINE
  5
5ED
100
AcDbEntity
  8
DRAFT
100
AcDbLine
 62
7
  6
CONTINUOUS
 10
-140.4128720919
 20
40.930056725
 11
-141.3248475401
 21
40.9374799787
  0
LINE
  5
5EE
100
AcDbEntity
  8
DRAFT
100
AcDbLine
 62
7
  6
CONTINUOUS
 10
-106.4128720919
 20
40.930056725
 11
-107.3248475401
 21
40.9374799787
  0
LINE
  5
5EF
100
AcDbEntity
  8
DRAFT
100
AcDbLine
 62
7
  6
CONTINUOUS
 10
-131.5871279081
 20
41.3019204181
 11
-130.6751524599
 21
41.2944971644
  0
LINE
  5
5F0
100
AcDbEntity
  8
DRAFT
100
AcDbLine
 62
7
  6
CONTINUOUS
 10
-97.5871279081
 20
41.3019204181
 11
-96.6751524599
 21
41.2944971644
  0
LINE
  5
5F1
100
AcDbEntity
  8
DRAFT
100
AcDbLine
 62
7
  6
CONTINUOUS
 10
-4.4128720919
 20
40.930056725
 11
-5.3248475401
 21
40.9374799787
  0
LINE
  5
5F2
100
AcDbEntity
  8
DRAFT
100
AcDbLine
 62
7
  6
CONTINUOUS
 10
4.4128720919
 20
41.3019204181
 11
5.3248475401
 21
41.2944971644
  0
LINE
  5
5F3
100
AcDbEntity
  8
0
100
AcDbLine
 62
7
  6
CONTINUOUS
 10
106.4128720919
 20
41.3019204181
 11
107.3248475401
 21
41.2944971644
  0
LINE
  5
5F4
100
AcDbEntity
  8
0
100
AcDbLine
 62
7
  6
CONTINUOUS
 10
97.1269441182
 20
40.9335916222
 11
96.2343186322
 21
40.9416997171
  0
LINE
  5
5F5
100
AcDbEntity
  8
0
100
AcDbLine
 62
7
  6
CONTINUOUS
 10
131.1269441182
 20
40.9335916222
 11
130.2343186322
 21
40.9416997171
  0
LINE
  5
5F6
100
AcDbEntity
  8
0
100
AcDbLine
 62
7
  6
CONTINUOUS
 10
140.8730558818
 20
41.298385521
 11
141.7656813678
 21
41.290277426
  0
LINE
  5
5F7
100
AcDbEntity
  8
DRAFT
100
AcDbLine
 62
7
  6
CONTINUOUS
 10
-141.3248475401
 20
40.9374799787
 11
-142.1954992121
 21
40.9462527735
  0
LINE
  5
5F8
100
AcDbEntity
  8
DRAFT
100
AcDbLine
 62
7
  6
CONTINUOUS
 10
-107.3248475401
 20
40.9374799787
 11
-108.1954992121
 21
40.9462527735
  0
LINE
  5
5F9
100
AcDbEntity
  8
DRAFT
100
AcDbLine
 62
7
  6
CONTINUOUS
 10
-130.6751524599
 20
41.2944971644
 11
-129.8045007879
 21
41.2857243697
  0
LINE
  5
5FA
100
AcDbEntity
  8
DRAFT
100
AcDbLine
 62
7
  6
CONTINUOUS
 10
-96.6751524599
 20
41.2944971644
 11
-95.8045007879
 21
41.2857243697
  0
LINE
  5
5FB
100
AcDbEntity
  8
DRAFT
100
AcDbLine
 62
7
  6
CONTINUOUS
 10
-5.3248475401
 20
40.9374799787
 11
-6.1954992121
 21
40.9462527735
  0
LINE
  5
5FC
100
AcDbEntity
  8
DRAFT
100
AcDbLine
 62
7
  6
CONTINUOUS
 10
5.3248475401
 20
41.2944971644
 11
6.1954992121
 21
41.2857243697
  0
LINE
  5
5FD
100
AcDbEntity
  8
0
100
AcDbLine
 62
7
  6
CONTINUOUS
 10
107.3248475401
 20
41.2944971644
 11
108.1954992121
 21
41.2857243697
  0
LINE
  5
5FE
100
AcDbEntity
  8
RACCORDO
100
AcDbLine
 62
250
  6
CONTINUOUS
 10
-150.4574265325
 20
40.9606910514
 11
-150.6155094918
 21
40.9623148691
  0
LINE
  5
5FF
100
AcDbEntity
  8
0
100
AcDbLine
 62
7
  6
CONTINUOUS
 10
96.2343186322
 20
40.9416997171
 11
95.3856407742
 21
40.9511372117
  0
LINE
  5
600
100
AcDbEntity
  8
0
100
AcDbLine
 62
7
  6
CONTINUOUS
 10
130.2343186322
 20
40.9416997171
 11
129.3856407742
 21
40.9511372117
  0
LINE
  5
601
100
AcDbEntity
  8
0
100
AcDbLine
 62
7
  6
CONTINUOUS
 10
141.7656813678
 20
41.290277426
 11
142.6143592258
 21
41.2808399315
  0
LINE
  5
602
100
AcDbEntity
  8
RACCORDO
100
AcDbLine
 62
250
  6
CONTINUOUS
 10
-150.8559744478
 20
40.4628072143
 11
-150.9110465265
 21
40.4634498665
  0
LINE
  5
603
100
AcDbEntity
  8
DRAFT
100
AcDbLine
 62
7
  6
CONTINUOUS
 10
-142.1954992121
 20
40.9462527735
 11
-143.0198701687
 21
40.956325146
  0
LINE
  5
604
100
AcDbEntity
  8
DRAFT
100
AcDbLine
 62
7
  6
CONTINUOUS
 10
-108.1954992121
 20
40.9462527735
 11
-109.0198701687
 21
40.956325146
  0
LINE
  5
605
100
AcDbEntity
  8
DRAFT
100
AcDbLine
 62
7
  6
CONTINUOUS
 10
-129.8045007879
 20
41.2857243697
 11
-128.9801298313
 21
41.2756519972
  0
LINE
  5
606
100
AcDbEntity
  8
DRAFT
100
AcDbLine
 62
7
  6
CONTINUOUS
 10
-95.8045007879
 20
41.2857243697
 11
-94.9801298313
 21
41.2756519972
  0
LINE
  5
607
100
AcDbEntity
  8
DRAFT
100
AcDbLine
 62
7
  6
CONTINUOUS
 10
-6.1954992121
 20
40.9462527735
 11
-7.0198701687
 21
40.956325146
  0
LINE
  5
608
100
AcDbEntity
  8
DRAFT
100
AcDbLine
 62
7
  6
CONTINUOUS
 10
6.1954992121
 20
41.2857243697
 11
7.0198701687
 21
41.2756519972
  0
LINE
  5
609
100
AcDbEntity
  8
0
100
AcDbLine
 62
7
  6
CONTINUOUS
 10
108.1954992121
 20
41.2857243697
 11
109.0198701687
 21
41.2756519972
  0
LINE
  5
60A
100
AcDbEntity
  8
0
100
AcDbLine
 62
7
  6
CONTINUOUS
 10
95.3856407742
 20
40.9511372117
 11
94.5880486595
 21
40.9618182445
  0
LINE
  5
60B
100
AcDbEntity
  8
0
100
AcDbLine
 62
7
  6
CONTINUOUS
 10
129.3856407742
 20
40.9511372117
 11
128.5880486595
 21
40.9618182445
  0
LINE
  5
60C
100
AcDbEntity
  8
0
100
AcDbLine
 62
7
  6
CONTINUOUS
 10
142.6143592258
 20
41.2808399315
 11
143.4119513405
 21
41.2701588987
  0
LINE
  5
60D
100
AcDbEntity
  8
DRAFT
100
AcDbLine
 62
7
  6
CONTINUOUS
 10
-143.0198701687
 20
40.956325146
 11
-143.7906834415
 21
40.9676148391
  0
LINE
  5
60E
100
AcDbEntity
  8
DRAFT
100
AcDbLine
 62
7
  6
CONTINUOUS
 10
-109.0198701687
 20
40.956325146
 11
-109.7906834415
 21
40.9676148391
  0
LINE
  5
60F
100
AcDbEntity
  8
DRAFT
100
AcDbLine
 62
7
  6
CONTINUOUS
 10
-128.9801298313
 20
41.2756519972
 11
-128.2093165585
 21
41.2643623041
  0
LINE
  5
610
100
AcDbEntity
  8
DRAFT
100
AcDbLine
 62
7
  6
CONTINUOUS
 10
-94.9801298313
 20
41.2756519972
 11
-94.2093165585
 21
41.2643623041
  0
LINE
  5
611
100
AcDbEntity
  8
DRAFT
100
AcDbLine
 62
7
  6
CONTINUOUS
 10
-7.0198701687
 20
40.956325146
 11
-7.7906834415
 21
40.9676148391
  0
LINE
  5
612
100
AcDbEntity
  8
DRAFT
100
AcDbLine
 62
7
  6
CONTINUOUS
 10
7.0198701687
 20
41.2756519972
 11
7.7906834415
 21
41.2643623041
  0
LINE
  5
613
100
AcDbEntity
  8
0
100
AcDbLine
 62
7
  6
CONTINUOUS
 10
109.0198701687
 20
41.2756519972
 11
109.7906834415
 21
41.2643623041
  0
LINE
  5
614
100
AcDbEntity
  8
0
100
AcDbLine
 62
7
  6
CONTINUOUS
 10
94.5880486595
 20
40.9618182445
 11
93.8460826677
 21
40.9736820401
  0
LINE
  5
615
100
AcDbEntity
  8
0
100
AcDbLine
 62
7
  6
CONTINUOUS
 10
128.5880486595
 20
40.9618182445
 11
127.8460826677
 21
40.9736820401
  0
LINE
  5
616
100
AcDbEntity
  8
0
100
AcDbLine
 62
7
  6
CONTINUOUS
 10
143.4119513405
 20
41.2701588987
 11
144.1539173323
 21
41.258295103
  0
LINE
  5
617
100
AcDbEntity
  8
RACCORDO
100
AcDbLine
 62
250
  6
CONTINUOUS
 10
-150.3167852619
 20
40.9585501363
 11
-150.4574265325
 21
40.9606910514
  0
LINE
  5
618
100
AcDbEntity
  8
RACCORDO
100
AcDbLine
 62
250
  6
CONTINUOUS
 10
-150.8015096549
 20
40.4619138981
 11
-150.8559744478
 21
40.4628072143
  0
LINE
  5
619
100
AcDbEntity
  8
DRAFT
100
AcDbLine
 62
7
  6
CONTINUOUS
 10
-143.7906834415
 20
40.9676148391
 11
-144.5015690036
 21
40.9800214679
  0
LINE
  5
61A
100
AcDbEntity
  8
DRAFT
100
AcDbLine
 62
7
  6
CONTINUOUS
 10
-128.2093165585
 20
41.2643623041
 11
-127.4984309964
 21
41.2519556752
  0
LINE
  5
61B
100
AcDbEntity
  8
DRAFT
100
AcDbLine
 62
7
  6
CONTINUOUS
 10
-109.7906834415
 20
40.9676148391
 11
-110.5015690036
 21
40.9800214679
  0
LINE
  5
61C
100
AcDbEntity
  8
DRAFT
100
AcDbLine
 62
7
  6
CONTINUOUS
 10
-94.2093165585
 20
41.2643623041
 11
-93.4984309964
 21
41.2519556752
  0
LINE
  5
61D
100
AcDbEntity
  8
DRAFT
100
AcDbLine
 62
7
  6
CONTINUOUS
 10
-7.7906834415
 20
40.9676148391
 11
-8.5015690036
 21
40.9800214679
  0
LINE
  5
61E
100
AcDbEntity
  8
DRAFT
100
AcDbLine
 62
7
  6
CONTINUOUS
 10
7.7906834415
 20
41.2643623041
 11
8.5015690036
 21
41.2519556752
  0
LINE
  5
61F
100
AcDbEntity
  8
0
100
AcDbLine
 62
7
  6
CONTINUOUS
 10
109.7906834415
 20
41.2643623041
 11
110.5015690036
 21
41.2519556752
  0
LINE
  5
620
100
AcDbEntity
  8
0
100
AcDbLine
 62
7
  6
CONTINUOUS
 10
93.8460826677
 20
40.9736820401
 11
93.1662775353
 21
40.9866315021
  0
LINE
  5
621
100
AcDbEntity
  8
0
100
AcDbLine
 62
7
  6
CONTINUOUS
 10
127.8460826677
 20
40.9736820401
 11
127.1662775353
 21
40.9866315021
  0
LINE
  5
622
100
AcDbEntity
  8
0
100
AcDbLine
 62
7
  6
CONTINUOUS
 10
144.1539173323
 20
41.258295103
 11
144.8337224647
 21
41.245345641
  0
LINE
  5
623
100
AcDbEntity
  8
DRAFT
100
AcDbLine
 62
7
  6
CONTINUOUS
 10
-144.5015690036
 20
40.9800214679
 11
-145.1484806035
 21
40.993474392
  0
LINE
  5
624
100
AcDbEntity
  8
DRAFT
100
AcDbLine
 62
7
  6
CONTINUOUS
 10
-127.4984309964
 20
41.2519556752
 11
-126.8515193965
 21
41.2385027512
  0
LINE
  5
625
100
AcDbEntity
  8
DRAFT
100
AcDbLine
 62
7
  6
CONTINUOUS
 10
-110.5015690036
 20
40.9800214679
 11
-111.1484806035
 21
40.993474392
  0
LINE
  5
626
100
AcDbEntity
  8
DRAFT
100
AcDbLine
 62
7
  6
CONTINUOUS
 10
-93.4984309964
 20
41.2519556752
 11
-92.8515193965
 21
41.2385027512
  0
LINE
  5
627
100
AcDbEntity
  8
DRAFT
100
AcDbLine
 62
7
  6
CONTINUOUS
 10
-8.5015690036
 20
40.9800214679
 11
-9.1484806035
 21
40.993474392
  0
LINE
  5
628
100
AcDbEntity
  8
DRAFT
100
AcDbLine
 62
7
  6
CONTINUOUS
 10
8.5015690036
 20
41.2519556752
 11
9.1484806035
 21
41.2385027512
  0
LINE
  5
629
100
AcDbEntity
  8
0
100
AcDbLine
 62
7
  6
CONTINUOUS
 10
110.5015690036
 20
41.2519556752
 11
111.1484806035
 21
41.2385027512
  0
LINE
  5
62A
100
AcDbEntity
  8
RACCORDO
100
AcDbLine
 62
250
  6
CONTINUOUS
 10
-150.2370036755
 20
40.9568914738
 11
-150.3167852619
 21
40.9585501363
  0
LINE
  5
62B
100
AcDbEntity
  8
RACCORDO
100
AcDbLine
 62
250
  6
CONTINUOUS
 10
-150.7494426772
 20
40.4607678619
 11
-150.8015096549
 21
40.4619138981
  0
LINE
  5
62C
100
AcDbEntity
  8
0
100
AcDbLine
 62
7
  6
CONTINUOUS
 10
93.1662775353
 20
40.9866315021
 11
92.5542595587
 21
41.0005513809
  0
LINE
  5
62D
100
AcDbEntity
  8
0
100
AcDbLine
 62
7
  6
CONTINUOUS
 10
127.1662775353
 20
40.9866315021
 11
126.5542595587
 21
41.0005513809
  0
LINE
  5
62E
100
AcDbEntity
  8
0
100
AcDbLine
 62
7
  6
CONTINUOUS
 10
144.8337224647
 20
41.245345641
 11
145.4457404413
 21
41.2314257623
  0
LWPOLYLINE
  5
62F
100
AcDbEntity
  8
DRAFT
100
AcDbPolyline
 62
7
  6
CONTINUOUS
 90
3
 70
0
 10
-145.1484806035
 20
40.993474392
 10
-145.7256049568
 20
41.0078612254
 10
-145.9864859733
 20
41.0153624444
  0
LINE
  5
630
100
AcDbEntity
  8
DRAFT
100
AcDbLine
 62
7
  6
CONTINUOUS
 10
-126.8515193965
 20
41.2385027512
 11
-126.2743950432
 21
41.2241159177
  0
LINE
  5
631
100
AcDbEntity
  8
DRAFT
100
AcDbLine
 62
7
  6
CONTINUOUS
 10
-111.1484806035
 20
40.993474392
 11
-111.7256049568
 21
41.0078612254
  0
LINE
  5
632
100
AcDbEntity
  8
DRAFT
100
AcDbLine
 62
7
  6
CONTINUOUS
 10
-92.8515193965
 20
41.2385027512
 11
-92.2743950432
 21
41.2241159177
  0
LINE
  5
633
100
AcDbEntity
  8
DRAFT
100
AcDbLine
 62
7
  6
CONTINUOUS
 10
-9.1484806035
 20
40.993474392
 11
-9.7256049568
 21
41.0078612254
  0
LINE
  5
634
100
AcDbEntity
  8
DRAFT
100
AcDbLine
 62
7
  6
CONTINUOUS
 10
9.1484806035
 20
41.2385027512
 11
9.7256049568
 21
41.2241159177
  0
LINE
  5
635
100
AcDbEntity
  8
0
100
AcDbLine
 62
7
  6
CONTINUOUS
 10
111.1484806035
 20
41.2385027512
 11
111.7256049568
 21
41.2241159177
  0
LINE
  5
636
100
AcDbEntity
  8
0
100
AcDbLine
 62
7
  6
CONTINUOUS
 10
92.5542595587
 20
41.0005513809
 11
92.0135140267
 21
41.0153624444
  0
LINE
  5
637
100
AcDbEntity
  8
0
100
AcDbLine
 62
7
  6
CONTINUOUS
 10
126.5542595587
 20
41.0005513809
 11
126.0135140267
 21
41.0153624444
  0
LINE
  5
638
100
AcDbEntity
  8
0
100
AcDbLine
 62
7
  6
CONTINUOUS
 10
145.4457404413
 20
41.2314257623
 11
145.9864859733
 21
41.2166146988
  0
LWPOLYLINE
  5
639
100
AcDbEntity
  8
DRAFT
100
AcDbPolyline
 62
7
  6
CONTINUOUS
 90
13
 70
0
 10
-126.2743950432
 20
41.2241159177
 10
-125.7717218709
 20
41.2089209292
 10
-125.5489132142
 20
41.2010357853
 10
-125.3463601485
 20
41.1930042769
 10
-125.1641801407
 20
41.1848256435
 10
-125.0022557239
 20
41.1765006457
 10
-124.8615065897
 20
41.1680765743
 10
-124.7420524574
 20
41.1595528081
 10
-124.6437736076
 20
41.1509299683
 10
-124.5672305731
 20
41.1422572093
 10
-124.51254779
 20
41.1335342762
 10
-124.4796008222
 20
41.1247614239
 10
-124.4685781072
 20
41.1158968441
  0
LWPOLYLINE
  5
63A
100
AcDbEntity
  8
DRAFT
100
AcDbPolyline
 62
7
  6
CONTINUOUS
 90
13
 70
0
 10
-111.7256049568
 20
41.0078612254
 10
-112.2282781291
 20
41.0230562139
 10
-112.4510867858
 20
41.0309413578
 10
-112.6536398515
 20
41.0389728663
 10
-112.8358198593
 20
41.0471514996
 10
-112.9977442761
 20
41.0554764975
 10
-113.1384934103
 20
41.0639005689
 10
-113.2579475426
 20
41.0724243351
 10
-113.3562263924
 20
41.0810471749
 10
-113.4327694269
 20
41.0897199339
 10
-113.48745221
 20
41.098442867
 10
-113.5203991778
 20
41.1072157193
 10
-113.5314218928
 20
41.1158968441
  0
LINE
  5
63B
100
AcDbEntity
  8
DRAFT
100
AcDbLine
 62
7
  6
CONTINUOUS
 10
-92.2743950432
 20
41.2241159177
 11
-91.7717218709
 21
41.2089209292
  0
LINE
  5
63C
100
AcDbEntity
  8
DRAFT
100
AcDbLine
 62
7
  6
CONTINUOUS
 10
-9.7256049568
 20
41.0078612254
 11
-10.2282781291
 21
41.0230562139
  0
LINE
  5
63D
100
AcDbEntity
  8
DRAFT
100
AcDbLine
 62
7
  6
CONTINUOUS
 10
9.7256049568
 20
41.2241159177
 11
10.2282781291
 21
41.2089209292
  0
LINE
  5
63E
100
AcDbEntity
  8
0
100
AcDbLine
 62
7
  6
CONTINUOUS
 10
111.7256049568
 20
41.2241159177
 11
112.2282781291
 21
41.2089209292
  0
LWPOLYLINE
  5
63F
100
AcDbEntity
  8
0
100
AcDbPolyline
 62
7
  6
CONTINUOUS
 90
12
 70
0
 10
92.0135140267
 20
41.0153624444
 10
91.5489132142
 20
41.0309413578
 10
91.3463601485
 20
41.0389728663
 10
91.1641801407
 20
41.0471514996
 10
91.0022557239
 20
41.0554764975
 10
90.8615065897
 20
41.0639005689
 10
90.7420524574
 20
41.0724243351
 10
90.6437736076
 20
41.0810471749
 10
90.5672305731
 20
41.0897199339
 10
90.51254779
 20
41.098442867
 10
90.4796008222
 20
41.1072157193
 10
90.4685781072
 20
41.1158968441
  0
LWPOLYLINE
  5
640
100
AcDbEntity
  8
0
100
AcDbPolyline
 62
7
  6
CONTINUOUS
 90
12
 70
0
 10
126.0135140267
 20
41.0153624444
 10
125.5489132142
 20
41.0309413578
 10
125.3463601485
 20
41.0389728663
 10
125.1641801407
 20
41.0471514996
 10
125.0022557239
 20
41.0554764975
 10
124.8615065897
 20
41.0639005689
 10
124.7420524574
 20
41.0724243351
 10
124.6437736076
 20
41.0810471749
 10
124.5672305731
 20
41.0897199339
 10
124.51254779
 20
41.098442867
 10
124.4796008222
 20
41.1072157193
 10
124.4685781072
 20
41.1158968441
  0
LWPOLYLINE
  5
641
100
AcDbEntity
  8
0
100
AcDbPolyline
 62
7
  6
CONTINUOUS
 90
12
 70
0
 10
145.9864859733
 20
41.2166146988
 10
146.4510867858
 20
41.2010357853
 10
146.6536398515
 20
41.1930042769
 10
146.8358198593
 20
41.1848256435
 10
146.9977442761
 20
41.1765006457
 10
147.1384934103
 20
41.1680765743
 10
147.2579475426
 20
41.1595528081
 10
147.3562263924
 20
41.1509299683
 10
147.4327694269
 20
41.1422572093
 10
147.48745221
 20
41.1335342762
 10
147.5203991778
 20
41.1247614239
 10
147.5314218928
 20
41.1158968441
  0
LWPOLYLINE
  5
642
100
AcDbEntity
  8
DRAFT
100
AcDbPolyline
 62
7
  6
CONTINUOUS
 90
11
 70
0
 10
-91.7717218709
 20
41.2089209292
 10
-91.3463601485
 20
41.1930042769
 10
-91.1641801407
 20
41.1848256435
 10
-91.0022557239
 20
41.1765006457
 10
-90.8615065897
 20
41.1680765743
 10
-90.7420524574
 20
41.1595528081
 10
-90.6437736076
 20
41.1509299683
 10
-90.5672305731
 20
41.1422572093
 10
-90.51254779
 20
41.1335342762
 10
-90.4796008222
 20
41.1247614239
 10
-90.4685781072
 20
41.1158968441
  0
LWPOLYLINE
  5
643
100
AcDbEntity
  8
DRAFT
100
AcDbPolyline
 62
7
  6
CONTINUOUS
 90
11
 70
0
 10
-10.2282781291
 20
41.0230562139
 10
-10.6536398515
 20
41.0389728663
 10
-10.8358198593
 20
41.0471514996
 10
-10.9977442761
 20
41.0554764975
 10
-11.1384934103
 20
41.0639005689
 10
-11.2579475426
 20
41.0724243351
 10
-11.3562263924
 20
41.0810471749
 10
-11.4327694269
 20
41.0897199339
 10
-11.48745221
 20
41.098442867
 10
-11.5203991778
 20
41.1072157193
 10
-11.5314218928
 20
41.1158968441
  0
LWPOLYLINE
  5
644
100
AcDbEntity
  8
DRAFT
100
AcDbPolyline
 62
7
  6
CONTINUOUS
 90
11
 70
0
 10
10.2282781291
 20
41.2089209292
 10
10.6536398515
 20
41.1930042769
 10
10.8358198593
 20
41.1848256435
 10
10.9977442761
 20
41.1765006457
 10
11.1384934103
 20
41.1680765743
 10
11.2579475426
 20
41.1595528081
 10
11.3562263924
 20
41.1509299683
 10
11.4327694269
 20
41.1422572093
 10
11.48745221
 20
41.1335342762
 10
11.5203991778
 20
41.1247614239
 10
11.5314218928
 20
41.1158968441
  0
LWPOLYLINE
  5
645
100
AcDbEntity
  8
0
100
AcDbPolyline
 62
7
  6
CONTINUOUS
 90
11
 70
0
 10
112.2282781291
 20
41.2089209292
 10
112.6536398515
 20
41.1930042769
 10
112.8358198593
 20
41.1848256435
 10
112.9977442761
 20
41.1765006457
 10
113.1384934103
 20
41.1680765743
 10
113.2579475426
 20
41.1595528081
 10
113.3562263924
 20
41.1509299683
 10
113.4327694269
 20
41.1422572093
 10
113.48745221
 20
41.1335342762
 10
113.5203991778
 20
41.1247614239
 10
113.5314218928
 20
41.1158968441
  0
LWPOLYLINE
  5
646
100
AcDbEntity
  8
0
100
AcDbPolyline
 62
7
  6
CONTINUOUS
 90
11
 70
0
 10
113.5314218928
 20
-41.1158968441
 10
113.5203991778
 20
-41.1072157193
 10
113.48745221
 20
-41.098442867
 10
113.4327694269
 20
-41.0897199339
 10
113.3562263924
 20
-41.0810471749
 10
113.2579475426
 20
-41.0724243351
 10
113.1384934103
 20
-41.0639005689
 10
112.9977442761
 20
-41.0554764975
 10
112.8358198593
 20
-41.0471514996
 10
112.6536398515
 20
-41.0389728663
 10
112.2282781291
 20
-41.0230562139
  0
LWPOLYLINE
  5
647
100
AcDbEntity
  8
0
100
AcDbPolyline
 62
7
  6
CONTINUOUS
 90
11
 70
0
 10
124.4685781072
 20
-41.1158968441
 10
124.4796008222
 20
-41.1247614239
 10
124.51254779
 20
-41.1335342762
 10
124.5672305731
 20
-41.1422572093
 10
124.6437736076
 20
-41.1509299683
 10
124.7420524574
 20
-41.1595528081
 10
124.8615065897
 20
-41.1680765743
 10
125.0022557239
 20
-41.1765006457
 10
125.1641801407
 20
-41.1848256435
 10
125.3463601485
 20
-41.1930042769
 10
125.7717218709
 20
-41.2089209292
  0
LWPOLYLINE
  5
648
100
AcDbEntity
  8
0
100
AcDbPolyline
 62
7
  6
CONTINUOUS
 90
10
 70
0
 10
147.5314218928
 20
41.1158968441
 10
147.5203991778
 20
41.1072157193
 10
147.48745221
 20
41.098442867
 10
147.4327694269
 20
41.0897199339
 10
147.3562263924
 20
41.0810471749
 10
147.2579475426
 20
41.0724243351
 10
147.1384934103
 20
41.0639005689
 10
146.9977442761
 20
41.0554764975
 10
146.8358198593
 20
41.0471514996
 10
146.6536398515
 20
41.0389728663
  0
LWPOLYLINE
  5
649
100
AcDbEntity
  8
0
100
AcDbPolyline
 62
7
  6
CONTINUOUS
 90
11
 70
0
 10
147.5314218928
 20
-41.1158968441
 10
147.5203991778
 20
-41.1072157193
 10
147.48745221
 20
-41.098442867
 10
147.4327694269
 20
-41.0897199339
 10
147.3562263924
 20
-41.0810471749
 10
147.2579475426
 20
-41.0724243351
 10
147.1384934103
 20
-41.0639005689
 10
146.9977442761
 20
-41.0554764975
 10
146.8358198593
 20
-41.0471514996
 10
146.6536398515
 20
-41.0389728663
 10
146.2282781291
 20
-41.0230562139
  0
LWPOLYLINE
  5
64A
100
AcDbEntity
  8
RACCORDO
100
AcDbPolyline
 62
250
  6
CONTINUOUS
 90
8
 70
0
 10
169.3747431161
 20
32.6805827057
 10
169.3708827825
 20
32.6813770883
 10
169.3620220641
 20
32.6821608873
 10
169.3481950845
 20
32.6829341027
 10
169.3294575891
 20
32.6836998434
 10
169.3058846833
 20
32.6844550005
 10
169.2775687165
 20
32.6851902475
 10
169.2071728764
 20
32.6866007325
  0
LWPOLYLINE
  5
64B
100
AcDbEntity
  8
RACCORDO
100
AcDbPolyline
 62
250
  6
CONTINUOUS
 90
16
 70
0
 10
150.541424784
 20
-40.4469029106
 10
150.5424310852
 20
-40.4477515127
 10
150.5447078247
 20
-40.4486226689
 10
150.5483847031
 20
-40.4495163794
 10
150.5536102919
 20
-40.4504394997
 10
150.5605028341
 20
-40.4513851743
 10
150.5691019594
 20
-40.452332836
 10
150.5794869273
 20
-40.4532830715
 10
150.5917261833
 20
-40.4542352941
 10
150.6057454509
 20
-40.4551671762
 10
150.6215483543
 20
-40.456077827
 10
150.6391370455
 20
-40.4569681372
 10
150.6583377982
 20
-40.4578184513
 10
150.679085798
 20
-40.4586269291
 10
150.7013233111
 20
-40.4593954108
 10
150.7494426772
 20
-40.4607678619
  0
LINE
  5
64C
100
AcDbEntity
  8
RACCORDO
100
AcDbLine
 62
250
  6
CONTINUOUS
 10
149.9694172943
 20
-40.8747431161
 11
150.0415009364
 21
-40.9468267582
  0
LINE
  5
64D
100
AcDbEntity
  8
RACCORDO
100
AcDbLine
 62
250
  6
CONTINUOUS
 10
150.4693411419
 20
-40.3748192685
 11
150.541424784
 21
-40.4469029106
  0
LINE
  5
64E
100
AcDbEntity
  8
RACCORDO
100
AcDbLine
 62
7
  6
CONTINUOUS
 10
150.541424784
 20
-39.9662592691
 11
150.4578866022
 21
-39.8827210873
  0
LINE
  5
64F
100
AcDbEntity
  8
RACCORDO
100
AcDbLine
 62
7
  6
CONTINUOUS
 10
149.9952083704
 20
-39.4202934525
 11
150.2231649676
 21
-39.647855851
  0
LINE
  5
650
100
AcDbEntity
  8
RACCORDO
100
AcDbLine
 62
7
  6
CONTINUOUS
 10
150.2231649676
 20
-39.647855851
 11
150.2695998059
 21
-39.6945191344
  0
LINE
  5
651
100
AcDbEntity
  8
RACCORDO
100
AcDbLine
 62
7
  6
CONTINUOUS
 10
149.9574119919
 20
-39.3822464769
 11
149.9952083704
 21
-39.4202934525
  0
LINE
  5
652
100
AcDbEntity
  8
RACCORDO
100
AcDbLine
 62
7
  6
CONTINUOUS
 10
150.2695998059
 20
-39.6945191344
 11
150.2887467355
 21
-39.714272042
  0
LWPOLYLINE
  5
653
100
AcDbEntity
  8
RACCORDO
100
AcDbPolyline
 62
7
  6
CONTINUOUS
 90
9
 70
0
 10
150.377883594
 20
-39.8084561674
 10
150.3934178863
 20
-39.8245670177
 10
150.4075073833
 20
-39.8390158805
 10
150.4201173948
 20
-39.8516961482
 10
150.4312826109
 20
-39.8623837908
 10
150.44054268
 20
-39.8707389686
 10
150.4477441517
 20
-39.8767502016
 10
150.4530404765
 20
-39.8805428116
 10
150.4564316543
 20
-39.8821703245
  0
LINE
  5
654
100
AcDbEntity
  8
RACCORDO
100
AcDbLine
 62
7
  6
CONTINUOUS
 10
150.2887467355
 20
-39.714272042
 11
150.377883594
 21
-39.8084561674
  0
LWPOLYLINE
  5
655
100
AcDbEntity
  8
RACCORDO
100
AcDbPolyline
 62
250
  6
CONTINUOUS
 90
10
 70
0
 10
168.8748192685
 20
32.1806588581
 10
168.8722230363
 20
32.181512088
 10
168.8663388477
 20
32.1823525885
 10
168.8571667026
 20
32.1831803597
 10
168.8446328061
 20
32.1839993514
 10
168.8288109532
 20
32.1848056137
 10
168.8099225286
 20
32.1855872976
 10
168.7879197471
 20
32.1863440556
 10
168.7628503938
 20
32.1870762353
 10
168.7045696602
 20
32.1884338169
  0
LINE
  5
656
100
AcDbEntity
  8
RACCORDO
100
AcDbLine
 62
7
  6
CONTINUOUS
 10
168.4662592691
 20
26.291424784
 11
168.3827210873
 21
26.2078866022
  0
LINE
  5
657
100
AcDbEntity
  8
RACCORDO
100
AcDbLine
 62
250
  6
CONTINUOUS
 10
168.8748192685
 20
26.2193411419
 11
168.9469029106
 21
26.291424784
  0
LINE
  5
658
100
AcDbEntity
  8
RACCORDO
100
AcDbLine
 62
250
  6
CONTINUOUS
 10
169.3747431161
 20
25.7194172943
 11
169.4468267582
 21
25.7915009364
  0
LINE
  5
659
100
AcDbEntity
  8
RACCORDO
100
AcDbLine
 62
7
  6
CONTINUOUS
 10
167.9202934525
 20
25.7452083704
 11
168.147855851
 21
25.9731649676
  0
LINE
  5
65A
100
AcDbEntity
  8
RACCORDO
100
AcDbLine
 62
7
  6
CONTINUOUS
 10
168.147855851
 20
25.9731649676
 11
168.1945191344
 21
26.0195998059
  0
LINE
  5
65B
100
AcDbEntity
  8
RACCORDO
100
AcDbLine
 62
7
  6
CONTINUOUS
 10
167.8822464769
 20
25.7074119919
 11
167.9202934525
 21
25.7452083704
  0
LINE
  5
65C
100
AcDbEntity
  8
RACCORDO
100
AcDbLine
 62
7
  6
CONTINUOUS
 10
168.1945191344
 20
26.0195998059
 11
168.214272042
 21
26.0387467355
  0
LWPOLYLINE
  5
65D
100
AcDbEntity
  8
RACCORDO
100
AcDbPolyline
 62
7
  6
CONTINUOUS
 90
9
 70
0
 10
168.3084561674
 20
26.127883594
 10
168.3245670177
 20
26.1434178863
 10
168.3390158805
 20
26.1575073833
 10
168.3516961482
 20
26.1701173948
 10
168.3623837908
 20
26.1812826109
 10
168.3707389686
 20
26.19054268
 10
168.3767502016
 20
26.1977441517
 10
168.3805428116
 20
26.2030404765
 10
168.3821703245
 20
26.2064316543
  0
LINE
  5
65E
100
AcDbEntity
  8
RACCORDO
100
AcDbLine
 62
7
  6
CONTINUOUS
 10
168.214272042
 20
26.0387467355
 11
168.3084561674
 21
26.127883594
  0
LWPOLYLINE
  5
65F
100
AcDbEntity
  8
RACCORDO
100
AcDbPolyline
 62
7
  6
CONTINUOUS
 90
9
 70
0
 10
156.4435683455
 20
-39.8821703245
 10
156.447140064
 20
-39.8804626151
 10
156.4526297917
 20
-39.8764886698
 10
156.4600375283
 20
-39.8702298221
 10
156.4695291741
 20
-39.8616034081
 10
156.480938829
 20
-39.850653441
 10
156.4937687925
 20
-39.83772285
 10
156.5080681462
 20
-39.8230288661
 10
156.5237878086
 20
-39.8067122819
  0
LWPOLYLINE
  5
660
100
AcDbEntity
  8
RACCORDO
100
AcDbPolyline
 62
250
  6
CONTINUOUS
 90
16
 70
0
 10
168.9469029106
 20
26.291424784
 10
168.9477515127
 20
26.2924310852
 10
168.9486226689
 20
26.2947078247
 10
168.9495163794
 20
26.2983847031
 10
168.9504394997
 20
26.3036102919
 10
168.9513851743
 20
26.3105028341
 10
168.952332836
 20
26.3191019594
 10
168.9532830715
 20
26.3294869273
 10
168.9542352941
 20
26.3417261833
 10
168.9551671762
 20
26.3557454509
 10
168.956077827
 20
26.3715483543
 10
168.9569681372
 20
26.3891370455
 10
168.9578184513
 20
26.4083377982
 10
168.9586269291
 20
26.429085798
 10
168.9593954108
 20
26.4513233111
 10
168.9607678619
 20
26.4994426772
  0
LWPOLYLINE
  5
661
100
AcDbEntity
  8
DRAFT
100
AcDbPolyline
 62
7
  6
CONTINUOUS
 90
11
 70
0
 10
169.6158968441
 20
11.5314218928
 10
169.6072157193
 20
11.5203991778
 10
169.598442867
 20
11.48745221
 10
169.5897199339
 20
11.4327694269
 10
169.5810471749
 20
11.3562263924
 10
169.5724243351
 20
11.2579475426
 10
169.5639005689
 20
11.1384934103
 10
169.5554764975
 20
10.9977442761
 10
169.5471514996
 20
10.8358198593
 10
169.5389728663
 20
10.6536398515
 10
169.5230562139
 20
10.2282781291
  0
LWPOLYLINE
  5
662
100
AcDbEntity
  8
RACCORDO
100
AcDbPolyline
 62
7
  6
CONTINUOUS
 90
7
 70
0
 10
156.4421133978
 20
-39.8827210873
 10
156.4422308492
 20
-39.8826289275
 10
156.4423983166
 20
-39.8825369141
 10
156.4426157999
 20
-39.8824450471
 10
156.4428832992
 20
-39.8823533265
 10
156.4432008144
 20
-39.8822617523
 10
156.4435683455
 20
-39.8821703245
  0
LWPOLYLINE
  5
663
100
AcDbEntity
  8
RACCORDO
100
AcDbPolyline
 62
250
  6
CONTINUOUS
 90
11
 70
0
 10
169.4468267582
 20
25.7915009364
 10
169.4476754028
 20
25.7930853908
 10
169.4485465841
 20
25.7977266006
 10
169.4494403022
 20
25.8054245656
 10
169.4503634149
 20
25.8160189369
 10
169.4513090644
 20
25.8296700635
 10
169.4522566765
 20
25.8468589923
 10
169.4532068271
 20
25.8677443856
 10
169.4541589403
 20
25.892167581
 10
169.4550907153
 20
25.9201336389
 10
169.4568914738
 20
25.9870036755
  0
LWPOLYLINE
  5
664
100
AcDbEntity
  8
DRAFT
100
AcDbPolyline
 62
7
  6
CONTINUOUS
 90
11
 70
0
 10
169.6158968441
 20
-11.5314218928
 10
169.6247614239
 20
-11.5203991778
 10
169.6335342762
 20
-11.48745221
 10
169.6422572093
 20
-11.4327694269
 10
169.6509299683
 20
-11.3562263924
 10
169.6595528081
 20
-11.2579475426
 10
169.6680765743
 20
-11.1384934103
 10
169.6765006457
 20
-10.9977442761
 10
169.6848256435
 20
-10.8358198593
 10
169.6930042769
 20
-10.6536398515
 10
169.7089209292
 20
-10.2282781291
  0
LWPOLYLINE
  5
665
100
AcDbEntity
  8
RACCORDO
100
AcDbPolyline
 62
7
  6
CONTINUOUS
 90
3
 70
0
 10
156.5237878086
 20
-39.8067122819
 10
156.6121984132
 20
-39.7132800759
 10
156.6309179212
 20
-39.693976295
  0
LINE
  5
666
100
AcDbEntity
  8
RACCORDO
100
AcDbLine
 62
7
  6
CONTINUOUS
 10
156.358575216
 20
-39.9662592691
 11
156.4421133586
 21
-39.8827211265
  0
LINE
  5
667
100
AcDbEntity
  8
RACCORDO
100
AcDbLine
 62
250
  6
CONTINUOUS
 10
156.358575216
 20
-40.4469029106
 11
156.4306588581
 21
-40.3748192685
  0
LINE
  5
668
100
AcDbEntity
  8
RACCORDO
100
AcDbLine
 62
250
  6
CONTINUOUS
 10
156.8584990636
 20
-40.9468267582
 11
156.9305827057
 21
-40.8747431161
  0
LINE
  5
669
100
AcDbEntity
  8
RACCORDO
100
AcDbLine
 62
7
  6
CONTINUOUS
 10
156.6309179212
 20
-39.693976295
 11
156.7052779318
 21
-39.6194330007
  0
LWPOLYLINE
  5
66A
100
AcDbEntity
  8
RACCORDO
100
AcDbPolyline
 62
7
  6
CONTINUOUS
 90
3
 70
0
 10
156.7052779318
 20
-39.6194330007
 10
156.8680764168
 20
-39.456949027
 10
156.9425880081
 20
-39.3822464769
  0
LWPOLYLINE
  5
66B
100
AcDbEntity
  8
RACCORDO
100
AcDbPolyline
 62
7
  6
CONTINUOUS
 90
4
 70
0
 10
168.3067122819
 20
32.2737878086
 10
168.2132800759
 20
32.3621984132
 10
168.193976295
 20
32.3809179212
 10
168.1749258629
 20
32.3999336745
  0
LINE
  5
66C
100
AcDbEntity
  8
RACCORDO
100
AcDbLine
 62
7
  6
CONTINUOUS
 10
167.9202934527
 20
32.6547916294
 11
167.8822464769
 21
32.6925880081
  0
LINE
  5
66D
100
AcDbEntity
  8
RACCORDO
100
AcDbLine
 62
7
  6
CONTINUOUS
 10
168.1749258628
 20
32.399925098
 11
168.1478558516
 21
32.4268350314
  0
LWPOLYLINE
  5
66E
100
AcDbEntity
  8
RACCORDO
100
AcDbPolyline
 62
250
  6
CONTINUOUS
 90
8
 70
0
 10
150.4636559444
 20
-40.2879197458
 10
150.4644127024
 20
-40.3099225267
 10
150.4651943863
 20
-40.3288109525
 10
150.4660006486
 20
-40.3446328074
 10
150.4668196403
 20
-40.3571667052
 10
150.4676474115
 20
-40.3663388502
 10
150.468487912
 20
-40.372223038
 10
150.4693411419
 20
-40.3748192685
  0
LWPOLYLINE
  5
66F
100
AcDbEntity
  8
RACCORDO
100
AcDbPolyline
 62
250
  6
CONTINUOUS
 90
6
 70
0
 10
149.9655449996
 20
-40.8058846833
 10
149.9663001567
 20
-40.8294575891
 10
149.9670658974
 20
-40.8481950845
 10
149.9678391128
 20
-40.8620220641
 10
149.9686229118
 20
-40.8708827825
 10
149.9694172943
 20
-40.8747431161
  0
LINE
  5
670
100
AcDbEntity
  8
RACCORDO
100
AcDbLine
 62
250
  6
CONTINUOUS
 10
150.4622269706
 20
-40.2350792109
 11
150.4636559444
 21
-40.2879197458
  0
LINE
  5
671
100
AcDbEntity
  8
RACCORDO
100
AcDbLine
 62
250
  6
CONTINUOUS
 10
149.964094555
 20
-40.7446189184
 11
149.9655449996
 21
-40.8058846833
  0
LINE
  5
672
100
AcDbEntity
  8
RACCORDO
100
AcDbLine
 62
250
  6
CONTINUOUS
 10
150.4609407811
 20
-40.1713582794
 11
150.4622269706
 21
-40.2350792109
  0
LINE
  5
673
100
AcDbEntity
  8
RACCORDO
100
AcDbLine
 62
250
  6
CONTINUOUS
 10
149.9627327979
 20
-40.665397269
 11
149.964094555
 21
-40.7446189184
  0
LINE
  5
674
100
AcDbEntity
  8
RACCORDO
100
AcDbLine
 62
250
  6
CONTINUOUS
 10
150.4593317319
 20
-40.0582855745
 11
150.4609407811
 21
-40.1713582794
  0
LINE
  5
675
100
AcDbEntity
  8
RACCORDO
100
AcDbLine
 62
250
  6
CONTINUOUS
 10
149.9609152049
 20
-40.515949244
 11
149.9627327979
 21
-40.665397269
  0
LWPOLYLINE
  5
676
100
AcDbEntity
  8
RACCORDO
100
AcDbPolyline
 62
250
  6
CONTINUOUS
 90
3
 70
0
 10
150.4578866415
 20
-39.8827211266
 10
150.4581700617
 20
-39.9290274969
 10
150.4593317319
 20
-40.0582855745
  0
LINE
  5
677
100
AcDbEntity
  8
RACCORDO
100
AcDbLine
 62
250
  6
CONTINUOUS
 10
149.9586427745
 20
-40.1998324295
 11
149.9609152049
 21
-40.515949244
  0
LINE
  5
678
100
AcDbEntity
  8
RACCORDO
100
AcDbLine
 62
250
  6
CONTINUOUS
 10
149.9574130812
 20
-39.6749258819
 11
149.9586427745
 21
-40.1998324295
  0
LINE
  5
679
100
AcDbEntity
  8
0
100
AcDbLine
 62
7
  6
CONTINUOUS
 10
143.0
 20
26.6
 11
143.0
 21
26.4
  0
LINE
  5
67A
100
AcDbEntity
  8
RACCORDO
100
AcDbLine
 62
250
  6
CONTINUOUS
 10
149.9574119919
 20
-39.3822464769
 11
149.9574119919
 21
-39.6749258819
  0
LINE
  5
67B
100
AcDbEntity
  8
RACCORDO
100
AcDbLine
 62
250
  6
CONTINUOUS
 10
150.541424784
 20
-40.4469029106
 11
150.541424784
 21
-39.9662592691
  0
LINE
  5
67C
100
AcDbEntity
  8
RACCORDO
100
AcDbLine
 62
250
  6
CONTINUOUS
 10
151.0413486316
 20
-39.9748344851
 11
151.0413486316
 21
-40.9639771903
  0
LWPOLYLINE
  5
67D
100
AcDbEntity
  8
RACCORDO
100
AcDbPolyline
 62
250
  6
CONTINUOUS
 90
16
 70
0
 10
150.4693411419
 20
-40.3748192685
 10
150.4665876542
 20
-40.4270654467
 10
150.4583891744
 20
-40.4787394267
 10
150.4448354919
 20
-40.5292752767
 10
150.4260750461
 20
-40.57811953
 10
150.4023133007
 20
-40.624737246
 10
150.3738104936
 20
-40.6686178692
 10
150.3408787866
 20
-40.7092808205
 10
150.3038788463
 20
-40.7462807607
 10
150.263215895
 20
-40.7792124678
 10
150.2193352718
 20
-40.8077152749
 10
150.1727175558
 20
-40.8314770203
 10
150.1238733025
 20
-40.8502374661
 10
150.0733374525
 20
-40.8637911486
 10
150.0216634725
 20
-40.8719896285
 10
149.9694172943
 20
-40.8747431161
  0
LWPOLYLINE
  5
67E
100
AcDbEntity
  8
RACCORDO
100
AcDbPolyline
 62
250
  6
CONTINUOUS
 90
16
 70
0
 10
150.541424784
 20
-40.4469029106
 10
150.5386713037
 20
-40.4991490196
 10
150.530472844
 20
-40.5508229397
 10
150.5169191918
 20
-40.601358741
 10
150.4981587842
 20
-40.6502029566
 10
150.4743970817
 20
-40.6968206477
 10
150.4458943171
 20
-40.7407012618
 10
150.412962648
 20
-40.781364219
 10
150.3759627384
 20
-40.8183641778
 10
150.3352998051
 20
-40.8512959152
 10
150.2914191844
 20
-40.8797987609
 10
150.2448014534
 20
-40.9035605486
 10
150.1959571655
 20
-40.9223210364
 10
150.1454212605
 20
-40.9358747555
 10
150.0937472064
 20
-40.9440732609
 10
150.0415009364
 20
-40.9468267582
  0
LINE
  5
67F
100
AcDbEntity
  8
0
100
AcDbLine
 62
7
  6
CONTINUOUS
 10
162.5
 20
-39.7
 11
162.2248759926
 21
-39.9751240074
  0
LINE
  5
680
100
AcDbEntity
  8
0
100
AcDbLine
 62
7
  6
CONTINUOUS
 10
168.2
 20
-34.0
 11
168.4751240074
 21
-33.7248759926
  0
LINE
  5
681
100
AcDbEntity
  8
RACCORDO
100
AcDbLine
 62
7
  6
CONTINUOUS
 10
168.4662592691
 20
32.108575216
 11
168.3827211265
 21
32.1921133586
  0
LINE
  5
682
100
AcDbEntity
  8
RACCORDO
100
AcDbLine
 62
250
  6
CONTINUOUS
 10
168.9469029106
 20
32.108575216
 11
168.8748192685
 21
32.1806588581
  0
LINE
  5
683
100
AcDbEntity
  8
RACCORDO
100
AcDbLine
 62
250
  6
CONTINUOUS
 10
169.4468267582
 20
32.6084990636
 11
169.3747431161
 21
32.6805827057
  0
LINE
  5
684
100
AcDbEntity
  8
0
100
AcDbLine
 62
7
  6
CONTINUOUS
 10
162.5
 20
39.7
 11
162.2248759926
 21
39.9751240074
  0
LINE
  5
685
100
AcDbEntity
  8
0
100
AcDbLine
 62
7
  6
CONTINUOUS
 10
168.2
 20
34.0
 11
168.4751240074
 21
33.7248759926
  0
LINE
  5
686
100
AcDbEntity
  8
RACCORDO
100
AcDbLine
 62
7
  6
CONTINUOUS
 10
168.1478558516
 20
32.4268350314
 11
167.9202934527
 21
32.6547916294
  0
LWPOLYLINE
  5
687
100
AcDbEntity
  8
RACCORDO
100
AcDbPolyline
 62
7
  6
CONTINUOUS
 90
7
 70
0
 10
168.3827210873
 20
32.1921133978
 10
168.3826289275
 20
32.1922308492
 10
168.3825369141
 20
32.1923983166
 10
168.3824450471
 20
32.1926157999
 10
168.3823533265
 20
32.1928832992
 10
168.3822617523
 20
32.1932008144
 10
168.3821703245
 20
32.1935683455
  0
LWPOLYLINE
  5
688
100
AcDbEntity
  8
RACCORDO
100
AcDbPolyline
 62
250
  6
CONTINUOUS
 90
16
 70
0
 10
156.358575216
 20
-40.4469029106
 10
156.3613287036
 20
-40.4991490889
 10
156.3695271835
 20
-40.5508230688
 10
156.383080866
 20
-40.6013589188
 10
156.4018413118
 20
-40.6502031721
 10
156.4256030572
 20
-40.6968208882
 10
156.4541058643
 20
-40.7407015113
 10
156.4870375714
 20
-40.7813644626
 10
156.5240375116
 20
-40.8183644029
 10
156.5647004629
 20
-40.85129611
 10
156.6085810861
 20
-40.8797989171
 10
156.6551988021
 20
-40.9035606624
 10
156.7040430554
 20
-40.9223211082
 10
156.7545789054
 20
-40.9358747908
 10
156.8062528854
 20
-40.9440732706
 10
156.8584990636
 20
-40.9468267582
  0
LWPOLYLINE
  5
689
100
AcDbEntity
  8
RACCORDO
100
AcDbPolyline
 62
250
  6
CONTINUOUS
 90
16
 70
0
 10
156.4306588581
 20
-40.3748192685
 10
156.4334122776
 20
-40.4270648015
 10
156.4416105767
 20
-40.4787382586
 10
156.4551640018
 20
-40.5292737206
 10
156.4739241509
 20
-40.5781177284
 10
156.497685596
 20
-40.6247353367
 10
156.5261881289
 20
-40.6686159746
 10
156.5591196197
 20
-40.7092790514
 10
156.596119426
 20
-40.7462792058
 10
156.6367823334
 20
-40.7792111811
 10
156.6806630184
 20
-40.8077142881
 10
156.7272809089
 20
-40.8314763369
 10
156.776125429
 20
-40.850237054
 10
156.8266616259
 20
-40.8637909527
 10
156.8783360325
 20
-40.8719895764
 10
156.9305827058
 20
-40.8747431161
  0
LWPOLYLINE
  5
68A
100
AcDbEntity
  8
DRAFT
100
AcDbPolyline
 62
7
  6
CONTINUOUS
 90
10
 70
0
 10
169.5389728663
 20
-10.6536398515
 10
169.5471514996
 20
-10.8358198593
 10
169.5554764975
 20
-10.9977442761
 10
169.5639005689
 20
-11.1384934103
 10
169.5724243351
 20
-11.2579475426
 10
169.5810471749
 20
-11.3562263924
 10
169.5897199339
 20
-11.4327694269
 10
169.598442867
 20
-11.48745221
 10
169.6072157193
 20
-11.5203991778
 10
169.6158968441
 20
-11.5314218928
  0
LWPOLYLINE
  5
68B
100
AcDbEntity
  8
DRAFT
100
AcDbPolyline
 62
7
  6
CONTINUOUS
 90
10
 70
0
 10
169.6930042769
 20
10.6536398515
 10
169.6848256435
 20
10.8358198593
 10
169.6765006457
 20
10.9977442761
 10
169.6680765743
 20
11.1384934103
 10
169.6595528081
 20
11.2579475426
 10
169.6509299683
 20
11.3562263924
 10
169.6422572093
 20
11.4327694269
 10
169.6335342762
 20
11.48745221
 10
169.6247614239
 20
11.5203991778
 10
169.6158968441
 20
11.5314218928
  0
LWPOLYLINE
  5
68C
100
AcDbEntity
  8
RACCORDO
100
AcDbPolyline
 62
250
  6
CONTINUOUS
 90
14
 70
0
 10
168.9586269291
 20
31.970914202
 10
168.9578184513
 20
31.9916622018
 10
168.9569681372
 20
32.0108629545
 10
168.956077827
 20
32.0284516457
 10
168.9551671762
 20
32.0442545491
 10
168.9542352941
 20
32.0582738167
 10
168.9532830714
 20
32.0705130727
 10
168.9523328358
 20
32.0808980406
 10
168.9513851744
 20
32.0894971659
 10
168.9504395001
 20
32.0963897081
 10
168.9495163798
 20
32.101615297
 10
168.9486226694
 20
32.1052921753
 10
168.947751513
 20
32.1075689148
 10
168.9469029106
 20
32.108575216
  0
LINE
  5
68D
100
AcDbEntity
  8
DRAFT
100
AcDbLine
 62
7
  6
CONTINUOUS
 10
169.5230562139
 20
-10.2282781291
 11
169.5389728663
 21
-10.6536398515
  0
LINE
  5
68E
100
AcDbEntity
  8
DRAFT
100
AcDbLine
 62
7
  6
CONTINUOUS
 10
169.7089209292
 20
10.2282781291
 11
169.6930042769
 21
10.6536398515
  0
LWPOLYLINE
  5
68F
100
AcDbEntity
  8
RACCORDO
100
AcDbPolyline
 62
250
  6
CONTINUOUS
 90
10
 70
0
 10
169.4550907153
 20
32.4798663599
 10
169.4541589403
 20
32.5078324194
 10
169.4532068271
 20
32.5322556172
 10
169.4522566766
 20
32.553141011
 10
169.4513090644
 20
32.5703299366
 10
169.4503634149
 20
32.5839810583
 10
169.4494403021
 20
32.5945754267
 10
169.4485465841
 20
32.6022733922
 10
169.4476754028
 20
32.6069146045
 10
169.4468267582
 20
32.6084990636
  0
LINE
  5
690
100
AcDbEntity
  8
RACCORDO
100
AcDbLine
 62
250
  6
CONTINUOUS
 10
168.9601097619
 20
31.9251910773
 11
168.9586269291
 21
31.970914202
  0
LINE
  5
691
100
AcDbEntity
  8
DRAFT
100
AcDbLine
 62
7
  6
CONTINUOUS
 10
169.5078612254
 20
-9.7256049568
 11
169.5230562139
 21
-10.2282781291
  0
LINE
  5
692
100
AcDbEntity
  8
DRAFT
100
AcDbLine
 62
7
  6
CONTINUOUS
 10
169.7241159177
 20
9.7256049568
 11
169.7089209292
 21
10.2282781291
  0
LINE
  5
693
100
AcDbEntity
  8
RACCORDO
100
AcDbLine
 62
250
  6
CONTINUOUS
 10
169.4568914738
 20
32.4129963243
 11
169.4550907153
 21
32.4798663599
  0
LINE
  5
694
100
AcDbEntity
  8
DRAFT
100
AcDbLine
 62
7
  6
CONTINUOUS
 10
169.493474392
 20
-9.1484806035
 11
169.5078612254
 21
-9.7256049568
  0
LINE
  5
695
100
AcDbEntity
  8
DRAFT
100
AcDbLine
 62
7
  6
CONTINUOUS
 10
169.7385027512
 20
9.1484806035
 11
169.7241159177
 21
9.7256049568
  0
LINE
  5
696
100
AcDbEntity
  8
RACCORDO
100
AcDbLine
 62
250
  6
CONTINUOUS
 10
168.9613718314
 20
31.8748856988
 11
168.9601097619
 21
31.9251910773
  0
LINE
  5
697
100
AcDbEntity
  8
DRAFT
100
AcDbLine
 62
7
  6
CONTINUOUS
 10
169.4800214679
 20
-8.5015690036
 11
169.493474392
 21
-9.1484806035
  0
LINE
  5
698
100
AcDbEntity
  8
DRAFT
100
AcDbLine
 62
7
  6
CONTINUOUS
 10
169.7519556752
 20
8.5015690036
 11
169.7385027512
 21
9.1484806035
  0
LINE
  5
699
100
AcDbEntity
  8
RACCORDO
100
AcDbLine
 62
250
  6
CONTINUOUS
 10
169.4585501363
 20
32.3332147384
 11
169.4568914738
 21
32.4129963243
  0
LINE
  5
69A
100
AcDbEntity
  8
RACCORDO
100
AcDbLine
 62
250
  6
CONTINUOUS
 10
168.9623915075
 20
31.8214916087
 11
168.9613718314
 21
31.8748856988
  0
LINE
  5
69B
100
AcDbEntity
  8
DRAFT
100
AcDbLine
 62
7
  6
CONTINUOUS
 10
169.4676148391
 20
-7.7906834415
 11
169.4800214679
 21
-8.5015690036
  0
LINE
  5
69C
100
AcDbEntity
  8
DRAFT
100
AcDbLine
 62
7
  6
CONTINUOUS
 10
169.7643623041
 20
7.7906834415
 11
169.7519556752
 21
8.5015690036
  0
LINE
  5
69D
100
AcDbEntity
  8
DRAFT
100
AcDbLine
 62
7
  6
CONTINUOUS
 10
169.456325146
 20
-7.0198701687
 11
169.4676148391
 21
-7.7906834415
  0
LINE
  5
69E
100
AcDbEntity
  8
DRAFT
100
AcDbLine
 62
7
  6
CONTINUOUS
 10
169.7756519972
 20
7.0198701687
 11
169.7643623041
 21
7.7906834415
  0
LINE
  5
69F
100
AcDbEntity
  8
RACCORDO
100
AcDbLine
 62
250
  6
CONTINUOUS
 10
169.4606910514
 20
32.1925734674
 11
169.4585501363
 21
32.3332147384
  0
LINE
  5
6A0
100
AcDbEntity
  8
RACCORDO
100
AcDbLine
 62
250
  6
CONTINUOUS
 10
168.96316091
 20
31.7664677955
 11
168.9623915075
 21
31.8214916087
  0
LINE
  5
6A1
100
AcDbEntity
  8
DRAFT
100
AcDbLine
 62
7
  6
CONTINUOUS
 10
169.4416997171
 20
-5.7656813678
 11
169.456325146
 21
-7.0198701687
  0
LINE
  5
6A2
100
AcDbEntity
  8
DRAFT
100
AcDbLine
 62
7
  6
CONTINUOUS
 10
169.790277426
 20
5.7656813678
 11
169.7756519972
 21
7.0198701687
  0
LINE
  5
6A3
100
AcDbEntity
  8
DRAFT
100
AcDbLine
 62
7
  6
CONTINUOUS
 10
169.430056725
 20
-4.4128720919
 11
169.4416997171
 21
-5.7656813678
  0
LINE
  5
6A4
100
AcDbEntity
  8
DRAFT
100
AcDbLine
 62
7
  6
CONTINUOUS
 10
169.8019204181
 20
4.4128720919
 11
169.790277426
 21
5.7656813678
  0
LINE
  5
6A5
100
AcDbEntity
  8
RACCORDO
100
AcDbLine
 62
250
  6
CONTINUOUS
 10
169.4627306658
 20
31.9793895426
 11
169.4606910514
 21
32.1925734674
  0
LINE
  5
6A6
100
AcDbEntity
  8
RACCORDO
100
AcDbLine
 62
250
  6
CONTINUOUS
 10
168.9638498248
 20
31.6847696193
 11
168.96316091
 21
31.7664677955
  0
LINE
  5
6A7
100
AcDbEntity
  8
DRAFT
100
AcDbLine
 62
7
  6
CONTINUOUS
 10
169.4215948676
 20
-2.9845336314
 11
169.430056725
 21
-4.4128720919
  0
LINE
  5
6A8
100
AcDbEntity
  8
DRAFT
100
AcDbLine
 62
7
  6
CONTINUOUS
 10
169.8103822756
 20
2.9845336314
 11
169.8019204181
 21
4.4128720919
  0
LINE
  5
6A9
100
AcDbEntity
  8
DRAFT
100
AcDbLine
 62
7
  6
CONTINUOUS
 10
169.4164592088
 20
-1.5051480353
 11
169.4215948676
 21
-2.9845336314
  0
LINE
  5
6AA
100
AcDbEntity
  8
DRAFT
100
AcDbLine
 62
7
  6
CONTINUOUS
 10
169.8155179343
 20
1.5051480353
 11
169.8103822756
 21
2.9845336314
  0
LINE
  5
6AB
100
AcDbEntity
  8
RACCORDO
100
AcDbLine
 62
250
  6
CONTINUOUS
 10
169.463895415
 20
31.7089333037
 11
169.4627306658
 21
31.9793895426
  0
LINE
  5
6AC
100
AcDbEntity
  8
RACCORDO
100
AcDbLine
 62
250
  6
CONTINUOUS
 10
168.9640533427
 20
31.6086513684
 11
168.9638498248
 21
31.6847696193
  0
LINE
  5
6AD
100
AcDbEntity
  8
DRAFT
100
AcDbLine
 62
7
  6
CONTINUOUS
 10
169.4147374887
 20
-0.0
 11
169.4164592088
 21
-1.5051480353
  0
LINE
  5
6AE
100
AcDbEntity
  8
DRAFT
100
AcDbLine
 62
7
  6
CONTINUOUS
 10
169.8172396544
 20
-0.0
 11
169.8155179343
 21
1.5051480353
  0
LINE
  5
6AF
100
AcDbEntity
  8
RACCORDO
100
AcDbLine
 62
250
  6
CONTINUOUS
 10
155.8586513684
 20
-39.9748344851
 11
155.8586513685
 21
-40.9639771903
  0
LINE
  5
6B0
100
AcDbEntity
  8
RACCORDO
100
AcDbLine
 62
250
  6
CONTINUOUS
 10
156.358575216
 20
-39.9662592691
 11
156.358575216
 21
-40.4469029106
  0
LINE
  5
6B1
100
AcDbEntity
  8
0
100
AcDbLine
 62
7
  6
CONTINUOUS
 10
162.2242099741
 20
-39.6749258819
 11
162.2242099741
 21
-35.5
  0
LINE
  5
6B2
100
AcDbEntity
  8
0
100
AcDbLine
 62
7
  6
CONTINUOUS
 10
162.2242099741
 20
35.5
 11
162.2242099741
 21
39.6749258819
  0
LINE
  5
6B3
100
AcDbEntity
  8
DRAFT
100
AcDbLine
 62
7
  6
CONTINUOUS
 10
162.5
 20
-39.7
 11
162.5
 21
-35.5
  0
LINE
  5
6B4
100
AcDbEntity
  8
DRAFT
100
AcDbLine
 62
7
  6
CONTINUOUS
 10
162.5
 20
35.5
 11
162.5
 21
39.7
  0
LINE
  5
6B5
100
AcDbEntity
  8
DRAFT
100
AcDbLine
 62
250
  6
CONTINUOUS
 10
164.0
 20
34.0
 11
164.0
 21
33.7242099741
  0
LINE
  5
6B6
100
AcDbEntity
  8
DRAFT
100
AcDbLine
 62
250
  6
CONTINUOUS
 10
164.0
 20
-34.0
 11
164.0
 21
-33.7242099741
  0
LINE
  5
6B7
100
AcDbEntity
  8
0
100
AcDbLine
 62
250
  6
CONTINUOUS
 10
164.0
 20
-39.7
 11
164.0
 21
-41.5
  0
LINE
  5
6B8
100
AcDbEntity
  8
0
100
AcDbLine
 62
250
  6
CONTINUOUS
 10
164.0
 20
39.7
 11
164.0
 21
41.5
  0
LINE
  5
6B9
100
AcDbEntity
  8
RACCORDO
100
AcDbLine
 62
250
  6
CONTINUOUS
 10
167.8822464769
 20
25.7074119919
 11
167.8822464769
 21
32.6925880081
  0
LINE
  5
6BA
100
AcDbEntity
  8
RACCORDO
100
AcDbLine
 62
250
  6
CONTINUOUS
 10
168.1749258819
 20
-33.7242099741
 11
168.1749258623
 21
26.0000749007
  0
LINE
  5
6BB
100
AcDbEntity
  8
RACCORDO
100
AcDbLine
 62
250
  6
CONTINUOUS
 10
168.1749258628
 20
32.399925098
 11
168.1749258819
 21
33.7242099741
  0
LINE
  5
6BC
100
AcDbEntity
  8
DRAFT
100
AcDbLine
 62
7
  6
CONTINUOUS
 10
168.2
 20
35.5
 11
168.2
 21
34.0
  0
LINE
  5
6BD
100
AcDbEntity
  8
DRAFT
100
AcDbLine
 62
7
  6
CONTINUOUS
 10
168.2
 20
-34.0
 11
168.2
 21
-35.5
  0
LINE
  5
6BE
100
AcDbEntity
  8
RACCORDO
100
AcDbLine
 62
250
  6
CONTINUOUS
 10
168.3821703245
 20
26.2064316543
 11
168.3821703245
 21
32.1935683455
  0
LINE
  5
6BF
100
AcDbEntity
  8
RACCORDO
100
AcDbLine
 62
7
  6
CONTINUOUS
 10
168.4748344851
 20
26.7913486316
 11
168.4748344851
 21
31.6086513684
  0
LINE
  5
6C0
100
AcDbEntity
  8
0
100
AcDbLine
 62
7
  6
CONTINUOUS
 10
168.4751240074
 20
-35.5
 11
168.4751240074
 21
-33.7248759926
  0
LINE
  5
6C1
100
AcDbEntity
  8
0
100
AcDbLine
 62
7
  6
CONTINUOUS
 10
168.4751240074
 20
33.7248759926
 11
168.4751240074
 21
35.5
  0
LINE
  5
6C2
100
AcDbEntity
  8
RACCORDO
100
AcDbLine
 62
250
  6
CONTINUOUS
 10
169.3747431161
 20
-35.5
 11
169.3747431161
 21
25.7194172943
  0
LINE
  5
6C3
100
AcDbEntity
  8
RACCORDO
100
AcDbLine
 62
250
  6
CONTINUOUS
 10
169.3747431161
 20
32.6805827057
 11
169.3747431161
 21
35.5
  0
LINE
  5
6C4
100
AcDbEntity
  8
SUPERFICI
100
AcDbLine
 62
7
  6
CONTINUOUS
 10
170.0000003491
 20
-35.5000000145
 11
170.0000003491
 21
35.5000000243
  0
LINE
  5
6C5
100
AcDbEntity
  8
DRAFT
100
AcDbLine
 62
7
  6
CONTINUOUS
 10
170.0
 20
-35.5
 11
170.0
 21
35.5
  0
LINE
  5
6C6
100
AcDbEntity
  8
DRAFT
100
AcDbLine
 62
7
  6
CONTINUOUS
 10
169.4164592088
 20
1.5051480353
 11
169.4147374887
 21
-0.0
  0
LINE
  5
6C7
100
AcDbEntity
  8
DRAFT
100
AcDbLine
 62
7
  6
CONTINUOUS
 10
169.8155179343
 20
-1.5051480353
 11
169.8172396544
 21
-0.0
  0
LINE
  5
6C8
100
AcDbEntity
  8
RACCORDO
100
AcDbLine
 62
250
  6
CONTINUOUS
 10
169.4637736005
 20
26.6390681544
 11
169.463895415
 21
31.7089333037
  0
LINE
  5
6C9
100
AcDbEntity
  8
RACCORDO
100
AcDbLine
 62
250
  6
CONTINUOUS
 10
168.9639715969
 20
26.7413477611
 11
168.9640533427
 21
31.6086513684
  0
LINE
  5
6CA
100
AcDbEntity
  8
RACCORDO
100
AcDbLine
 62
250
  6
CONTINUOUS
 10
156.941679759
 20
-40.1289401815
 11
156.9425880081
 21
-39.3822464769
  0
LINE
  5
6CB
100
AcDbEntity
  8
DRAFT
100
AcDbLine
 62
7
  6
CONTINUOUS
 10
169.4215948676
 20
2.9845336314
 11
169.4164592088
 21
1.5051480353
  0
LINE
  5
6CC
100
AcDbEntity
  8
DRAFT
100
AcDbLine
 62
7
  6
CONTINUOUS
 10
169.8103822756
 20
-2.9845336314
 11
169.8155179343
 21
-1.5051480353
  0
LINE
  5
6CD
100
AcDbEntity
  8
DRAFT
100
AcDbLine
 62
7
  6
CONTINUOUS
 10
169.430056725
 20
4.4128720919
 11
169.4215948676
 21
2.9845336314
  0
LINE
  5
6CE
100
AcDbEntity
  8
DRAFT
100
AcDbLine
 62
7
  6
CONTINUOUS
 10
169.8019204181
 20
-4.4128720919
 11
169.8103822756
 21
-2.9845336314
  0
LINE
  5
6CF
100
AcDbEntity
  8
RACCORDO
100
AcDbLine
 62
250
  6
CONTINUOUS
 10
169.4623148691
 20
26.3655094918
 11
169.4637736005
 21
26.6390681544
  0
LINE
  5
6D0
100
AcDbEntity
  8
RACCORDO
100
AcDbLine
 62
250
  6
CONTINUOUS
 10
156.9396199405
 20
-40.4587787745
 11
156.941679759
 21
-40.1289401815
  0
LINE
  5
6D1
100
AcDbEntity
  8
RACCORDO
100
AcDbLine
 62
250
  6
CONTINUOUS
 10
168.9634498665
 20
26.6610465265
 11
168.9639715969
 21
26.7413477611
  0
LINE
  5
6D2
100
AcDbEntity
  8
RACCORDO
100
AcDbLine
 62
250
  6
CONTINUOUS
 10
156.4411085886
 20
-40.0167122494
 11
156.4421133586
 21
-39.8827211265
  0
LINE
  5
6D3
100
AcDbEntity
  8
DRAFT
100
AcDbLine
 62
7
  6
CONTINUOUS
 10
169.4416997171
 20
5.7656813678
 11
169.430056725
 21
4.4128720919
  0
LINE
  5
6D4
100
AcDbEntity
  8
DRAFT
100
AcDbLine
 62
7
  6
CONTINUOUS
 10
169.790277426
 20
-5.7656813678
 11
169.8019204181
 21
-4.4128720919
  0
LINE
  5
6D5
100
AcDbEntity
  8
RACCORDO
100
AcDbLine
 62
250
  6
CONTINUOUS
 10
169.4606910514
 20
26.2074265325
 11
169.4623148691
 21
26.3655094918
  0
LINE
  5
6D6
100
AcDbEntity
  8
RACCORDO
100
AcDbLine
 62
250
  6
CONTINUOUS
 10
156.9379044168
 20
-40.6194728646
 11
156.9396199405
 21
-40.4587787745
  0
LINE
  5
6D7
100
AcDbEntity
  8
RACCORDO
100
AcDbLine
 62
250
  6
CONTINUOUS
 10
168.9628072143
 20
26.6059744478
 11
168.9634498665
 21
26.6610465265
  0
LINE
  5
6D8
100
AcDbEntity
  8
DRAFT
100
AcDbLine
 62
7
  6
CONTINUOUS
 10
169.456325146
 20
7.0198701687
 11
169.4416997171
 21
5.7656813678
  0
LINE
  5
6D9
100
AcDbEntity
  8
DRAFT
100
AcDbLine
 62
7
  6
CONTINUOUS
 10
169.7756519972
 20
-7.0198701687
 11
169.790277426
 21
-5.7656813678
  0
LINE
  5
6DA
100
AcDbEntity
  8
RACCORDO
100
AcDbLine
 62
250
  6
CONTINUOUS
 10
156.4396402915
 20
-40.1359194139
 11
156.4411085886
 21
-40.0167122494
  0
LINE
  5
6DB
100
AcDbEntity
  8
DRAFT
100
AcDbLine
 62
7
  6
CONTINUOUS
 10
169.4676148391
 20
7.7906834415
 11
169.456325146
 21
7.0198701687
  0
LINE
  5
6DC
100
AcDbEntity
  8
DRAFT
100
AcDbLine
 62
7
  6
CONTINUOUS
 10
169.7643623041
 20
-7.7906834415
 11
169.7756519972
 21
-7.0198701687
  0
LINE
  5
6DD
100
AcDbEntity
  8
RACCORDO
100
AcDbLine
 62
250
  6
CONTINUOUS
 10
156.9366007325
 20
-40.7071728764
 11
156.9379044168
 21
-40.6194728646
  0
LINE
  5
6DE
100
AcDbEntity
  8
RACCORDO
100
AcDbLine
 62
250
  6
CONTINUOUS
 10
169.4585501363
 20
26.0667852619
 11
169.4606910514
 21
26.2074265325
  0
LINE
  5
6DF
100
AcDbEntity
  8
RACCORDO
100
AcDbLine
 62
250
  6
CONTINUOUS
 10
168.9619138981
 20
26.5515096549
 11
168.9628072143
 21
26.6059744478
  0
LINE
  5
6E0
100
AcDbEntity
  8
DRAFT
100
AcDbLine
 62
7
  6
CONTINUOUS
 10
169.4800214679
 20
8.5015690036
 11
169.4676148391
 21
7.7906834415
  0
LINE
  5
6E1
100
AcDbEntity
  8
DRAFT
100
AcDbLine
 62
7
  6
CONTINUOUS
 10
169.7519556752
 20
-8.5015690036
 11
169.7643623041
 21
-7.7906834415
  0
LINE
  5
6E2
100
AcDbEntity
  8
RACCORDO
100
AcDbLine
 62
250
  6
CONTINUOUS
 10
156.4384338169
 20
-40.2045696602
 11
156.4396402915
 21
-40.1359194139
  0
LINE
  5
6E3
100
AcDbEntity
  8
DRAFT
100
AcDbLine
 62
7
  6
CONTINUOUS
 10
169.493474392
 20
9.1484806035
 11
169.4800214679
 21
8.5015690036
  0
LINE
  5
6E4
100
AcDbEntity
  8
DRAFT
100
AcDbLine
 62
7
  6
CONTINUOUS
 10
169.7385027512
 20
-9.1484806035
 11
169.7519556752
 21
-8.5015690036
  0
LINE
  5
6E5
100
AcDbEntity
  8
RACCORDO
100
AcDbLine
 62
250
  6
CONTINUOUS
 10
169.4568914738
 20
25.9870036755
 11
169.4585501363
 21
26.0667852619
  0
LINE
  5
6E6
100
AcDbEntity
  8
RACCORDO
100
AcDbLine
 62
250
  6
CONTINUOUS
 10
168.9607678619
 20
26.4994426772
 11
168.9619138981
 21
26.5515096549
  0
LINE
  5
6E7
100
AcDbEntity
  8
DRAFT
100
AcDbLine
 62
7
  6
CONTINUOUS
 10
169.5078612254
 20
9.7256049568
 11
169.493474392
 21
9.1484806035
  0
LINE
  5
6E8
100
AcDbEntity
  8
DRAFT
100
AcDbLine
 62
7
  6
CONTINUOUS
 10
169.7241159177
 20
-9.7256049568
 11
169.7385027512
 21
-9.1484806035
  0
LINE
  5
6E9
100
AcDbEntity
  8
DRAFT
100
AcDbLine
 62
7
  6
CONTINUOUS
 10
169.5230562139
 20
10.2282781291
 11
169.5078612254
 21
9.7256049568
  0
LINE
  5
6EA
100
AcDbEntity
  8
DRAFT
100
AcDbLine
 62
7
  6
CONTINUOUS
 10
169.7089209292
 20
-10.2282781291
 11
169.7241159177
 21
-9.7256049568
  0
LWPOLYLINE
  5
6EB
100
AcDbEntity
  8
RACCORDO
100
AcDbPolyline
 62
250
  6
CONTINUOUS
 90
8
 70
0
 10
156.9305827057
 20
-40.8747431161
 10
156.9313770883
 20
-40.8708827825
 10
156.9321608873
 20
-40.8620220641
 10
156.9329341027
 20
-40.8481950845
 10
156.9336998434
 20
-40.8294575891
 10
156.9344550005
 20
-40.8058846833
 10
156.9351902475
 20
-40.7775687165
 10
156.9366007325
 20
-40.7071728764
  0
LWPOLYLINE
  5
6EC
100
AcDbEntity
  8
RACCORDO
100
AcDbPolyline
 62
7
  6
CONTINUOUS
 90
7
 70
0
 10
168.3821703245
 20
26.2064316543
 10
168.3822618009
 20
26.2067993138
 10
168.3823534042
 20
26.2071169061
 10
168.3824451345
 20
26.207384431
 10
168.3825369918
 20
26.2076018887
 10
168.3826289761
 20
26.2077692791
 10
168.3827210873
 20
26.2078866022
  0
LWPOLYLINE
  5
6ED
100
AcDbEntity
  8
RACCORDO
100
AcDbPolyline
 62
250
  6
CONTINUOUS
 90
10
 70
0
 10
156.4306588581
 20
-40.3748192685
 10
156.431512088
 20
-40.3722230363
 10
156.4323525885
 20
-40.3663388477
 10
156.4331803597
 20
-40.3571667026
 10
156.4339993514
 20
-40.3446328061
 10
156.4348056137
 20
-40.3288109532
 10
156.4355872976
 20
-40.3099225286
 10
156.4363440556
 20
-40.2879197471
 10
156.4370762353
 20
-40.2628503938
 10
156.4384338169
 20
-40.2045696602
  0
LWPOLYLINE
  5
6EE
100
AcDbEntity
  8
RACCORDO
100
AcDbPolyline
 62
7
  6
CONTINUOUS
 90
9
 70
0
 10
168.3821703245
 20
32.1935683455
 10
168.3804626151
 20
32.197140064
 10
168.3764886698
 20
32.2026297917
 10
168.3702298221
 20
32.2100375283
 10
168.3616034081
 20
32.2195291741
 10
168.350653441
 20
32.230938829
 10
168.33772285
 20
32.2437687925
 10
168.3230288661
 20
32.2580681462
 10
168.3067122819
 20
32.2737878086
  0
CIRCLE
  5
6EF
100
AcDbEntity
  8
RACCORDO
100
AcDbCircle
 62
7
  6
CONTINUOUS
 10
-153.5
 20
-26.5
 40
9.5
  0
CIRCLE
  5
6F0
100
AcDbEntity
  8
RACCORDO
100
AcDbCircle
 62
250
  6
CONTINUOUS
 10
-153.5
 20
-26.5
 40
8.9999993631
  0
ARC
  5
6F1
100
AcDbEntity
  8
SUPERFICI
100
AcDbCircle
 62
7
  6
CONTINUOUS
 10
-164.0
 20
-35.5
 40
6.0000004289
100
AcDbArc
 50
180.0000165093
 51
269.9999807783
  0
ARC
  5
6F2
100
AcDbEntity
  8
DRAFT
100
AcDbCircle
 62
7
  6
CONTINUOUS
 10
-164.0
 20
-35.5
 40
6.0
100
AcDbArc
 50
180.0
 51
270.0
  0
ARC
  5
6F3
100
AcDbEntity
  8
0
100
AcDbCircle
 62
250
  6
CONTINUOUS
 10
-164.0
 20
-35.5
 40
5.3747431161
100
AcDbArc
 50
180.0
 51
270.0
  0
ARC
  5
6F4
100
AcDbEntity
  8
0
100
AcDbCircle
 62
7
  6
CONTINUOUS
 10
-164.0
 20
-35.5
 40
4.4751240074
100
AcDbArc
 50
180.0
 51
270.0
  0
ARC
  5
6F5
100
AcDbEntity
  8
DRAFT
100
AcDbCircle
 62
7
  6
CONTINUOUS
 10
-164.0
 20
-35.5
 40
4.2
100
AcDbArc
 50
180.0
 51
270.0
  0
CIRCLE
  5
6F6
100
AcDbEntity
  8
0
100
AcDbCircle
 62
7
  6
CONTINUOUS
 10
-153.5
 20
-26.5
 40
2.0
  0
CIRCLE
  5
6F7
100
AcDbEntity
  8
0
100
AcDbCircle
 62
7
  6
CONTINUOUS
 10
-153.5
 20
-26.5
 40
1.8
  0
ARC
  5
6F8
100
AcDbEntity
  8
DRAFT
100
AcDbCircle
 62
7
  6
CONTINUOUS
 10
-164.0
 20
-35.5
 40
1.7757900259
100
AcDbArc
 50
0.0
 51
90.0
  0
CIRCLE
  5
6F9
100
AcDbEntity
  8
0
100
AcDbCircle
 62
7
  6
CONTINUOUS
 10
-153.5
 20
-26.5
 40
1.5
  0
ARC
  5
6FA
100
AcDbEntity
  8
DRAFT
100
AcDbCircle
 62
7
  6
CONTINUOUS
 10
-164.0
 20
-35.5
 40
1.5
100
AcDbArc
 50
0.0
 51
90.0
  0
CIRCLE
  5
6FB
100
AcDbEntity
  8
RACCORDO
100
AcDbCircle
 62
250
  6
CONTINUOUS
 10
-136.0
 20
0.0
 40
11.8078645265
  0
CIRCLE
  5
6FC
100
AcDbEntity
  8
RACCORDO
100
AcDbCircle
 62
7
  6
CONTINUOUS
 10
-136.0
 20
0.0
 40
11.5078770275
  0
CIRCLE
  5
6FD
100
AcDbEntity
  8
DRAFT
100
AcDbCircle
 62
7
  6
CONTINUOUS
 10
-136.0
 20
0.0
 40
11.5
  0
CIRCLE
  5
6FE
100
AcDbEntity
  8
0
100
AcDbCircle
 62
7
  6
CONTINUOUS
 10
-136.0
 20
0.0
 40
11.25
  0
CIRCLE
  5
6FF
100
AcDbEntity
  8
RACCORDO
100
AcDbCircle
 62
250
  6
CONTINUOUS
 10
-136.0
 20
0.0
 40
10.6378677511
  0
CIRCLE
  5
700
100
AcDbEntity
  8
RACCORDO
100
AcDbCircle
 62
250
  6
CONTINUOUS
 10
-136.0
 20
0.0
 40
10.4257355271
  0
CIRCLE
  5
701
100
AcDbEntity
  8
RACCORDO
100
AcDbCircle
 62
7
  6
CONTINUOUS
 10
-113.3
 20
0.0
 40
4.8
  0
CIRCLE
  5
702
100
AcDbEntity
  8
RACCORDO
100
AcDbCircle
 62
250
  6
CONTINUOUS
 10
-113.3
 20
0.0
 40
4.2999987556
  0
CIRCLE
  5
703
100
AcDbEntity
  8
RACCORDO
100
AcDbCircle
 62
7
  6
CONTINUOUS
 10
-153.5
 20
26.5
 40
9.5
  0
CIRCLE
  5
704
100
AcDbEntity
  8
RACCORDO
100
AcDbCircle
 62
250
  6
CONTINUOUS
 10
-153.5
 20
26.5
 40
8.9999993631
  0
ARC
  5
705
100
AcDbEntity
  8
SUPERFICI
100
AcDbCircle
 62
7
  6
CONTINUOUS
 10
-164.0
 20
35.5
 40
6.0000004289
100
AcDbArc
 50
90.0000181304
 51
179.9999834599
  0
ARC
  5
706
100
AcDbEntity
  8
DRAFT
100
AcDbCircle
 62
7
  6
CONTINUOUS
 10
-164.0
 20
35.5
 40
6.0
100
AcDbArc
 50
90.0
 51
180.0
  0
ARC
  5
707
100
AcDbEntity
  8
0
100
AcDbCircle
 62
250
  6
CONTINUOUS
 10
-164.0
 20
35.5
 40
5.3747431161
100
AcDbArc
 50
90.0
 51
180.0
  0
ARC
  5
708
100
AcDbEntity
  8
0
100
AcDbCircle
 62
7
  6
CONTINUOUS
 10
-164.0
 20
35.5
 40
4.4751240074
100
AcDbArc
 50
90.0
 51
180.0
  0
ARC
  5
709
100
AcDbEntity
  8
DRAFT
100
AcDbCircle
 62
7
  6
CONTINUOUS
 10
-164.0
 20
35.5
 40
4.2
100
AcDbArc
 50
90.0
 51
180.0
  0
CIRCLE
  5
70A
100
AcDbEntity
  8
0
100
AcDbCircle
 62
7
  6
CONTINUOUS
 10
-153.5
 20
26.5
 40
2.0
  0
CIRCLE
  5
70B
100
AcDbEntity
  8
0
100
AcDbCircle
 62
7
  6
CONTINUOUS
 10
-153.5
 20
26.5
 40
1.8
  0
ARC
  5
70C
100
AcDbEntity
  8
DRAFT
100
AcDbCircle
 62
7
  6
CONTINUOUS
 10
-164.0
 20
35.5
 40
1.7757900259
100
AcDbArc
 50
270.0
 51
360.0
  0
CIRCLE
  5
70D
100
AcDbEntity
  8
0
100
AcDbCircle
 62
7
  6
CONTINUOUS
 10
-153.5
 20
26.5
 40
1.5
  0
ARC
  5
70E
100
AcDbEntity
  8
DRAFT
100
AcDbCircle
 62
7
  6
CONTINUOUS
 10
-164.0
 20
35.5
 40
1.5
100
AcDbArc
 50
270.0
 51
360.0
  0
CIRCLE
  5
70F
100
AcDbEntity
  8
RACCORDO
100
AcDbCircle
 62
250
  6
CONTINUOUS
 10
-68.0
 20
0.0
 40
11.8078645265
  0
CIRCLE
  5
710
100
AcDbEntity
  8
RACCORDO
100
AcDbCircle
 62
7
  6
CONTINUOUS
 10
-68.0
 20
0.0
 40
11.5078770275
  0
CIRCLE
  5
711
100
AcDbEntity
  8
DRAFT
100
AcDbCircle
 62
7
  6
CONTINUOUS
 10
-68.0
 20
0.0
 40
11.5
  0
CIRCLE
  5
712
100
AcDbEntity
  8
ASSI
100
AcDbCircle
 62
7
  6
CONTINUOUS
 10
-68.0
 20
0.0
 40
11.25
  0
CIRCLE
  5
713
100
AcDbEntity
  8
RACCORDO
100
AcDbCircle
 62
250
  6
CONTINUOUS
 10
-68.0
 20
0.0
 40
10.6378677511
  0
CIRCLE
  5
714
100
AcDbEntity
  8
RACCORDO
100
AcDbCircle
 62
250
  6
CONTINUOUS
 10
-68.0
 20
0.0
 40
10.4257355271
  0
ARC
  5
715
100
AcDbEntity
  8
DRAFT
100
AcDbCircle
 62
7
  6
CONTINUOUS
 10
-19.5
 20
35.5
 40
1.6757900259
100
AcDbArc
 50
180.0
 51
360.0
  0
ARC
  5
716
100
AcDbEntity
  8
DRAFT
100
AcDbCircle
 62
7
  6
CONTINUOUS
 10
-19.5
 20
35.5
 40
1.4
100
AcDbArc
 50
180.0
 51
360.0
  0
CIRCLE
  5
717
100
AcDbEntity
  8
RACCORDO
100
AcDbCircle
 62
7
  6
CONTINUOUS
 10
153.5
 20
-26.5
 40
9.5
  0
CIRCLE
  5
718
100
AcDbEntity
  8
RACCORDO
100
AcDbCircle
 62
250
  6
CONTINUOUS
 10
153.5
 20
-26.5
 40
8.9999993631
  0
ARC
  5
719
100
AcDbEntity
  8
SUPERFICI
100
AcDbCircle
 62
7
  6
CONTINUOUS
 10
164.0
 20
-35.5
 40
6.0000004289
100
AcDbArc
 50
270.0000192217
 51
359.9999834907
  0
ARC
  5
71A
100
AcDbEntity
  8
DRAFT
100
AcDbCircle
 62
7
  6
CONTINUOUS
 10
164.0
 20
-35.5
 40
6.0
100
AcDbArc
 50
270.0
 51
360.0
  0
ARC
  5
71B
100
AcDbEntity
  8
0
100
AcDbCircle
 62
250
  6
CONTINUOUS
 10
164.0
 20
-35.5
 40
5.3747431161
100
AcDbArc
 50
270.0
 51
360.0
  0
ARC
  5
71C
100
AcDbEntity
  8
0
100
AcDbCircle
 62
7
  6
CONTINUOUS
 10
164.0
 20
-35.5
 40
4.4751240074
100
AcDbArc
 50
270.0
 51
360.0
  0
ARC
  5
71D
100
AcDbEntity
  8
DRAFT
100
AcDbCircle
 62
7
  6
CONTINUOUS
 10
164.0
 20
-35.5
 40
4.2
100
AcDbArc
 50
270.0
 51
360.0
  0
CIRCLE
  5
71E
100
AcDbEntity
  8
0
100
AcDbCircle
 62
7
  6
CONTINUOUS
 10
153.5
 20
-26.5
 40
2.0
  0
CIRCLE
  5
71F
100
AcDbEntity
  8
0
100
AcDbCircle
 62
7
  6
CONTINUOUS
 10
153.5
 20
-26.5
 40
1.8
  0
ARC
  5
720
100
AcDbEntity
  8
DRAFT
100
AcDbCircle
 62
7
  6
CONTINUOUS
 10
164.0
 20
-35.5
 40
1.7757900259
100
AcDbArc
 50
90.0
 51
180.0
  0
ARC
  5
721
100
AcDbEntity
  8
DRAFT
100
AcDbCircle
 62
7
  6
CONTINUOUS
 10
19.5
 20
-35.5
 40
1.6757900259
100
AcDbArc
 50
0.0
 51
180.0
  0
CIRCLE
  5
722
100
AcDbEntity
  8
0
100
AcDbCircle
 62
7
  6
CONTINUOUS
 10
153.5
 20
-26.5
 40
1.5
  0
ARC
  5
723
100
AcDbEntity
  8
DRAFT
100
AcDbCircle
 62
7
  6
CONTINUOUS
 10
164.0
 20
-35.5
 40
1.5
100
AcDbArc
 50
90.0
 51
180.0
  0
ARC
  5
724
100
AcDbEntity
  8
DRAFT
100
AcDbCircle
 62
7
  6
CONTINUOUS
 10
19.5
 20
-35.5
 40
1.4
100
AcDbArc
 50
0.0
 51
180.0
  0
CIRCLE
  5
725
100
AcDbEntity
  8
RACCORDO
100
AcDbCircle
 62
250
  6
CONTINUOUS
 10
-0.0
 20
-0.0
 40
11.8078645265
  0
CIRCLE
  5
726
100
AcDbEntity
  8
0
100
AcDbCircle
 62
250
  6
CONTINUOUS
 10
68.0
 20
-0.0
 40
11.8078645265
  0
CIRCLE
  5
727
100
AcDbEntity
  8
0
100
AcDbCircle
 62
7
  6
CONTINUOUS
 10
68.0
 20
-0.0
 40
11.5078770275
  0
CIRCLE
  5
728
100
AcDbEntity
  8
RACCORDO
100
AcDbCircle
 62
7
  6
CONTINUOUS
 10
-0.0
 20
-0.0
 40
11.5078770275
  0
ARC
  5
729
100
AcDbEntity
  8
0
100
AcDbCircle
 62
7
  6
CONTINUOUS
 10
-0.0
 20
-0.0
 40
11.5061088075
100
AcDbArc
 50
356.2626528724
 51
3.7373471276
  0
ARC
  5
72A
100
AcDbEntity
  8
0
100
AcDbCircle
 62
7
  6
CONTINUOUS
 10
-0.0
 20
-0.0
 40
11.5061088075
100
AcDbArc
 50
86.2626528724
 51
93.7373471276
  0
ARC
  5
72B
100
AcDbEntity
  8
0
100
AcDbCircle
 62
7
  6
CONTINUOUS
 10
-0.0
 20
-0.0
 40
11.5061088075
100
AcDbArc
 50
176.2626528724
 51
183.7373471276
  0
ARC
  5
72C
100
AcDbEntity
  8
0
100
AcDbCircle
 62
7
  6
CONTINUOUS
 10
-0.0
 20
-0.0
 40
11.5061088075
100
AcDbArc
 50
266.2626528724
 51
273.7373471276
  0
CIRCLE
  5
72D
100
AcDbEntity
  8
0
100
AcDbCircle
 62
7
  6
CONTINUOUS
 10
68.0
 20
-0.0
 40
11.5
  0
ARC
  5
72E
100
AcDbEntity
  8
0
100
AcDbCircle
 62
7
  6
CONTINUOUS
 10
-0.0
 20
-0.0
 40
11.5
100
AcDbArc
 50
3.7393352315
 51
86.2606647685
  0
ARC
  5
72F
100
AcDbEntity
  8
0
100
AcDbCircle
 62
7
  6
CONTINUOUS
 10
-0.0
 20
-0.0
 40
11.5
100
AcDbArc
 50
93.7393352315
 51
176.2606647685
  0
ARC
  5
730
100
AcDbEntity
  8
0
100
AcDbCircle
 62
7
  6
CONTINUOUS
 10
-0.0
 20
-0.0
 40
11.5
100
AcDbArc
 50
273.7393352315
 51
356.2606647685
  0
ARC
  5
731
100
AcDbEntity
  8
0
100
AcDbCircle
 62
7
  6
CONTINUOUS
 10
-0.0
 20
-0.0
 40
11.5
100
AcDbArc
 50
183.7393352315
 51
266.2606647685
  0
CIRCLE
  5
732
100
AcDbEntity
  8
0
100
AcDbCircle
 62
7
  6
CONTINUOUS
 10
68.0
 20
-0.0
 40
11.25
  0
ARC
  5
733
100
AcDbEntity
  8
0
100
AcDbCircle
 62
7
  6
CONTINUOUS
 10
-0.0
 20
-0.0
 40
11.25
100
AcDbArc
 50
273.8225537293
 51
356.1774462707
  0
ARC
  5
734
100
AcDbEntity
  8
0
100
AcDbCircle
 62
7
  6
CONTINUOUS
 10
-0.0
 20
-0.0
 40
11.25
100
AcDbArc
 50
183.8225537293
 51
266.1774462707
  0
ARC
  5
735
100
AcDbEntity
  8
0
100
AcDbCircle
 62
7
  6
CONTINUOUS
 10
-0.0
 20
-0.0
 40
11.25
100
AcDbArc
 50
3.8225537293
 51
86.1774462707
  0
ARC
  5
736
100
AcDbEntity
  8
0
100
AcDbCircle
 62
7
  6
CONTINUOUS
 10
-0.0
 20
-0.0
 40
11.25
100
AcDbArc
 50
93.8225537293
 51
176.1774462707
  0
ARC
  5
737
100
AcDbEntity
  8
0
100
AcDbCircle
 62
250
  6
CONTINUOUS
 10
-0.0
 20
-0.0
 40
10.6378679656
100
AcDbArc
 50
274.0428697094
 51
355.9571302906
  0
ARC
  5
738
100
AcDbEntity
  8
0
100
AcDbCircle
 62
250
  6
CONTINUOUS
 10
-0.0
 20
-0.0
 40
10.6378679656
100
AcDbArc
 50
184.0428697094
 51
265.9571302906
  0
ARC
  5
739
100
AcDbEntity
  8
0
100
AcDbCircle
 62
250
  6
CONTINUOUS
 10
-0.0
 20
-0.0
 40
10.6378679656
100
AcDbArc
 50
4.0428697094
 51
85.9571302906
  0
ARC
  5
73A
100
AcDbEntity
  8
0
100
AcDbCircle
 62
250
  6
CONTINUOUS
 10
-0.0
 20
-0.0
 40
10.6378679656
100
AcDbArc
 50
94.0428697094
 51
175.9571302906
  0
CIRCLE
  5
73B
100
AcDbEntity
  8
0
100
AcDbCircle
 62
250
  6
CONTINUOUS
 10
68.0
 20
-0.0
 40
10.6378677511
  0
ARC
  5
73C
100
AcDbEntity
  8
0
100
AcDbCircle
 62
250
  6
CONTINUOUS
 10
-0.0
 20
-0.0
 40
10.4257359313
100
AcDbArc
 50
4.1252708293
 51
85.8747291707
  0
ARC
  5
73D
100
AcDbEntity
  8
0
100
AcDbCircle
 62
250
  6
CONTINUOUS
 10
-0.0
 20
-0.0
 40
10.4257359313
100
AcDbArc
 50
94.1252708293
 51
175.8747291707
  0
ARC
  5
73E
100
AcDbEntity
  8
0
100
AcDbCircle
 62
250
  6
CONTINUOUS
 10
-0.0
 20
-0.0
 40
10.4257359313
100
AcDbArc
 50
184.1252708293
 51
265.8747291707
  0
ARC
  5
73F
100
AcDbEntity
  8
0
100
AcDbCircle
 62
250
  6
CONTINUOUS
 10
-0.0
 20
-0.0
 40
10.4257359313
100
AcDbArc
 50
274.1252708293
 51
355.8747291707
  0
CIRCLE
  5
740
100
AcDbEntity
  8
0
100
AcDbCircle
 62
250
  6
CONTINUOUS
 10
68.0
 20
-0.0
 40
10.4257355271
  0
CIRCLE
  5
741
100
AcDbEntity
  8
0
100
AcDbCircle
 62
250
  6
CONTINUOUS
 10
136.0
 20
-0.0
 40
11.8078645265
  0
CIRCLE
  5
742
100
AcDbEntity
  8
0
100
AcDbCircle
 62
7
  6
CONTINUOUS
 10
136.0
 20
-0.0
 40
11.5078770275
  0
CIRCLE
  5
743
100
AcDbEntity
  8
0
100
AcDbCircle
 62
7
  6
CONTINUOUS
 10
136.0
 20
-0.0
 40
11.5
  0
CIRCLE
  5
744
100
AcDbEntity
  8
0
100
AcDbCircle
 62
7
  6
CONTINUOUS
 10
136.0
 20
-0.0
 40
11.25
  0
CIRCLE
  5
745
100
AcDbEntity
  8
0
100
AcDbCircle
 62
250
  6
CONTINUOUS
 10
136.0
 20
-0.0
 40
10.6378677511
  0
CIRCLE
  5
746
100
AcDbEntity
  8
0
100
AcDbCircle
 62
250
  6
CONTINUOUS
 10
136.0
 20
-0.0
 40
10.4257355271
  0
CIRCLE
  5
747
100
AcDbEntity
  8
RACCORDO
100
AcDbCircle
 62
7
  6
CONTINUOUS
 10
113.3
 20
-0.0
 40
4.8
  0
CIRCLE
  5
748
100
AcDbEntity
  8
RACCORDO
100
AcDbCircle
 62
250
  6
CONTINUOUS
 10
113.3
 20
-0.0
 40
4.2999987556
  0
CIRCLE
  5
749
100
AcDbEntity
  8
RACCORDO
100
AcDbCircle
 62
7
  6
CONTINUOUS
 10
153.5
 20
26.5
 40
9.5
  0
CIRCLE
  5
74A
100
AcDbEntity
  8
RACCORDO
100
AcDbCircle
 62
250
  6
CONTINUOUS
 10
153.5
 20
26.5
 40
8.9999993631
  0
ARC
  5
74B
100
AcDbEntity
  8
SUPERFICI
100
AcDbCircle
 62
7
  6
CONTINUOUS
 10
164.0
 20
35.5
 40
6.0000004289
100
AcDbArc
 50
0.0000165401
 51
89.9999818696
  0
ARC
  5
74C
100
AcDbEntity
  8
DRAFT
100
AcDbCircle
 62
7
  6
CONTINUOUS
 10
164.0
 20
35.5
 40
6.0
100
AcDbArc
 50
0.0
 51
90.0
  0
ARC
  5
74D
100
AcDbEntity
  8
0
100
AcDbCircle
 62
250
  6
CONTINUOUS
 10
164.0
 20
35.5
 40
5.3747431161
100
AcDbArc
 50
0.0
 51
90.0
  0
ARC
  5
74E
100
AcDbEntity
  8
0
100
AcDbCircle
 62
7
  6
CONTINUOUS
 10
164.0
 20
35.5
 40
4.4751240074
100
AcDbArc
 50
0.0
 51
90.0
  0
ARC
  5
74F
100
AcDbEntity
  8
DRAFT
100
AcDbCircle
 62
7
  6
CONTINUOUS
 10
164.0
 20
35.5
 40
4.2
100
AcDbArc
 50
0.0
 51
90.0
  0
CIRCLE
  5
750
100
AcDbEntity
  8
0
100
AcDbCircle
 62
7
  6
CONTINUOUS
 10
153.5
 20
26.5
 40
2.0
  0
CIRCLE
  5
751
100
AcDbEntity
  8
0
100
AcDbCircle
 62
7
  6
CONTINUOUS
 10
153.5
 20
26.5
 40
1.8
  0
ARC
  5
752
100
AcDbEntity
  8
DRAFT
100
AcDbCircle
 62
7
  6
CONTINUOUS
 10
164.0
 20
35.5
 40
1.7757900259
100
AcDbArc
 50
180.0
 51
270.0
  0
CIRCLE
  5
753
100
AcDbEntity
  8
0
100
AcDbCircle
 62
7
  6
CONTINUOUS
 10
153.5
 20
26.5
 40
1.5
  0
ARC
  5
754
100
AcDbEntity
  8
DRAFT
100
AcDbCircle
 62
7
  6
CONTINUOUS
 10
164.0
 20
35.5
 40
1.5
100
AcDbArc
 50
180.0
 51
270.0
  0
ELLIPSE
  5
755
100
AcDbEntity
  8
RACCORDO
100
AcDbEllipse
 62
7
  6
CONTINUOUS
 10
151.0413486316
 20
-39.9661069526
 30
0.0
 11
0.5
 21
0.0
 31
0.0
 40
0.0174550649
 41
-3.1241393611
 42
-1.5707963268
  0
ELLIPSE
  5
756
100
AcDbEntity
  8
RACCORDO
100
AcDbEllipse
 62
7
  6
CONTINUOUS
 10
155.8586513684
 20
-39.9661069526
 30
0.0
 11
0.5
 21
-0.0
 31
0.0
 40
0.0174550649
 41
-1.5707963268
 42
-0.0174532925
  0
ELLIPSE
  5
757
100
AcDbEntity
  8
RACCORDO
100
AcDbEllipse
 62
7
  6
CONTINUOUS
 10
-151.0413486316
 20
39.9661069526
 30
0.0
 11
0.5
 21
0.0
 31
0.0
 40
0.0174550649
 41
0.0174532925
 42
1.5707963268
  0
ELLIPSE
  5
758
100
AcDbEntity
  8
RACCORDO
100
AcDbEllipse
 62
7
  6
CONTINUOUS
 10
-155.8586513684
 20
39.9661069526
 30
0.0
 11
0.5
 21
0.0
 31
0.0
 40
0.0174550649
 41
1.5707963268
 42
3.1241393611
  0
ELLIPSE
  5
759
100
AcDbEntity
  8
RACCORDO
100
AcDbEllipse
 62
7
  6
CONTINUOUS
 10
-168.4661069526
 20
-26.7913486316
 30
0.0
 11
0.0
 21
0.5
 31
0.0
 40
0.0174550649
 41
0.0174532925
 42
1.5707963268
  0
ELLIPSE
  5
75A
100
AcDbEntity
  8
RACCORDO
100
AcDbEllipse
 62
7
  6
CONTINUOUS
 10
-168.4661069526
 20
-31.6086513684
 30
0.0
 11
-0.0
 21
0.5
 31
0.0
 40
0.0174550649
 41
-4.7123889804
 42
-3.1590459461
  0
ELLIPSE
  5
75B
100
AcDbEntity
  8
RACCORDO
100
AcDbEllipse
 62
7
  6
CONTINUOUS
 10
168.4661069526
 20
26.7913486316
 30
0.0
 11
-0.0
 21
0.5
 31
0.0
 40
0.0174550649
 41
-3.1241393611
 42
-1.5707963268
  0
ELLIPSE
  5
75C
100
AcDbEntity
  8
RACCORDO
100
AcDbEllipse
 62
7
  6
CONTINUOUS
 10
168.4661069526
 20
31.6086513684
 30
0.0
 11
-0.0
 21
0.5
 31
0.0
 40
0.0174550649
 41
-1.5707963268
 42
-0.0174532925
  0
ELLIPSE
  5
75D
100
AcDbEntity
  8
0
100
AcDbEllipse
 62
7
  6
CONTINUOUS
 10
-17.845156052
 20
39.6749258819
 30
0.0
 11
-0.0
 21
1.2
 31
0.0
 40
0.0174550649
 41
-1.5707963268
 42
-1.3179455486
  0
ELLIPSE
  5
75E
100
AcDbEntity
  8
0
100
AcDbEllipse
 62
7
  6
CONTINUOUS
 10
-21.154843948
 20
39.6749258819
 30
0.0
 11
0.0
 21
1.2
 31
0.0
 40
0.0174550649
 41
1.3179455486
 42
1.5707963268
  0
ELLIPSE
  5
75F
100
AcDbEntity
  8
0
100
AcDbEllipse
 62
7
  6
CONTINUOUS
 10
17.845156052
 20
-39.6749258819
 30
0.0
 11
0.0
 21
1.2
 31
0.0
 40
0.0174550649
 41
1.5707963268
 42
1.823647105
  0
ELLIPSE
  5
760
100
AcDbEntity
  8
0
100
AcDbEllipse
 62
7
  6
CONTINUOUS
 10
21.154843948
 20
-39.6749258819
 30
0.0
 11
0.0
 21
1.2
 31
0.0
 40
0.0174550649
 41
-1.823647105
 42
-1.5707963268
  0
ELLIPSE
  5
761
100
AcDbEntity
  8
0
100
AcDbEllipse
 62
7
  6
CONTINUOUS
 10
162.245156052
 20
-39.6749258819
 30
0.0
 11
0.0
 21
1.2
 31
0.0
 40
0.0174550649
 41
1.5707963268
 42
1.823647105
  0
ELLIPSE
  5
762
100
AcDbEntity
  8
0
100
AcDbEllipse
 62
7
  6
CONTINUOUS
 10
168.1749258819
 20
-33.745156052
 30
0.0
 11
1.2
 21
-0.0
 31
0.0
 40
0.0174550649
 41
1.3179455486
 42
1.5707963268
  0
ELLIPSE
  5
763
100
AcDbEntity
  8
0
100
AcDbEllipse
 62
7
  6
CONTINUOUS
 10
168.1749258819
 20
33.745156052
 30
0.0
 11
1.2
 21
0.0
 31
0.0
 40
0.0174550649
 41
-1.5707963268
 42
-1.3179455486
  0
ELLIPSE
  5
764
100
AcDbEntity
  8
0
100
AcDbEllipse
 62
7
  6
CONTINUOUS
 10
162.245156052
 20
39.6749258819
 30
0.0
 11
0.0
 21
1.2
 31
0.0
 40
0.0174550649
 41
1.3179455486
 42
1.5707963268
  0
ELLIPSE
  5
765
100
AcDbEntity
  8
0
100
AcDbEllipse
 62
7
  6
CONTINUOUS
 10
-168.1749258819
 20
-33.745156052
 30
0.0
 11
1.2
 21
-0.0
 31
0.0
 40
0.0174550649
 41
1.5707963268
 42
1.823647105
  0
ELLIPSE
  5
766
100
AcDbEntity
  8
0
100
AcDbEllipse
 62
7
  6
CONTINUOUS
 10
-162.245156052
 20
-39.6749258819
 30
0.0
 11
-0.0
 21
1.2
 31
0.0
 40
0.0174550649
 41
-1.823647105
 42
-1.5707963268
  0
ELLIPSE
  5
767
100
AcDbEntity
  8
0
100
AcDbEllipse
 62
7
  6
CONTINUOUS
 10
-162.245156052
 20
39.6749258819
 30
0.0
 11
0.0
 21
1.2
 31
0.0
 40
0.0174550649
 41
-1.5707963268
 42
-1.3179455486
  0
ELLIPSE
  5
768
100
AcDbEntity
  8
0
100
AcDbEllipse
 62
7
  6
CONTINUOUS
 10
-168.1749258819
 20
33.745156052
 30
0.0
 11
1.2
 21
-0.0
 31
0.0
 40
0.0174550649
 41
-1.823647105
 42
-1.5707963268
  0
ENDSEC
  0
SECTION
  2
OBJECTS
  0
DICTIONARY
  5
C
100
AcDbDictionary
280
0
281
1
  3
ACAD_GROUP
350
D
  3
ACAD_MLINESTYLE
350
17
  3
ACAD_LAYOUT
350
1A
  3
ACAD_PLOTSETTINGS
350
19
  3
ACAD_PLOTSTYLENAME
350
E
  0
DICTIONARY
  5
D
102
{ACAD_REACTORS
330
C
102
}
100
AcDbDictionary
280
0
281
1
  0
ACDBDICTIONARYWDFLT
  5
E
102
{ACAD_REACTORS
330
C
102
}
100
AcDbDictionary
281
1
  3
Normal
350
F
100
AcDbDictionaryWithDefault
340
F
  0
DICTIONARY
  5
17
102
{ACAD_REACTORS
330
C
102
}
100
AcDbDictionary
280
0
281
1
  3
Standard
350
18
  0
DICTIONARY
  5
19
102
{ACAD_REACTORS
330
C
102
}
100
AcDbDictionary
281
1
  0
DICTIONARY
  5
1A
102
{ACAD_REACTORS
330
C
102
}
100
AcDbDictionary
281
1
  3
Model
350
769
  3
Layout1
350
76A
  0
ACDBPLACEHOLDER
  5
F
102
{ACAD_REACTORS
330
E
102
}
  0
MLINESTYLE
  5
18
102
{ACAD_REACTORS
330
17
102
}
100
AcDbMlineStyle
  2
STANDARD
 70
0
  3

 62
256
 51
90.0
 52
90.0
 71
2
 49
0.5
 62
256
  6
BYLAYER
 49
-0.5
 62
256
  6
BYLAYER
  0
LAYOUT
  5
769
102
{ACAD_REACTORS
330
1A
102
}
100
AcDbPlotSettings
  1

  2
none_device
  4
ISO_A4_(297.00_x_210.00_MM)
  6

 40
0.0
 41
0.0
 42
0.0
 43
0.0
 44
297.0
 45
210.0
 46
0.0
 47
0.0
 48
0.0
 49
0.0
140
0.0
141
0.0
142
1.0
143
1.0
 70
1024
 72
1
 73
0
 74
0
  7

 75
0
147
1.0
148
0.0
149
0.0
100
AcDbLayout
  1
Model
 70
0
 71
0
 10
0.0
 20
0.0
 11
297.0
 21
210.0
 12
0.0
 22
0.0
 32
0.0
 14
0.0
 24
0.0
 34
0.0
 15
0.0
 25
0.0
 35
0.0
146
0.0
 13
0.0
 23
0.0
 33
0.0
 16
1.0
 26
0.0
 36
0.0
 17
0.0
 27
1.0
 37
0.0
 76
0
330
219
345
0
346
0
  0
LAYOUT
  5
76A
102
{ACAD_REACTORS
330
1A
102
}
100
AcDbPlotSettings
  1

  2
none_device
  4
ISO_A4_(297.00_x_210.00_MM)
  6

 40
0.0
 41
0.0
 42
0.0
 43
0.0
 44
297.0
 45
210.0
 46
0.0
 47
0.0
 48
0.0
 49
0.0
140
0.0
141
0.0
142
1.0
143
1.0
 70
0
 72
1
 73
0
 74
0
  7

 75
0
147
1.0
148
0.0
149
0.0
100
AcDbLayout
  1
Layout1
 70
0
 71
1
 10
0.0
 20
0.0
 11
297.0
 21
210.0
 12
0.0
 22
0.0
 32
0.0
 14
0.0
 24
0.0
 34
0.0
 15
0.0
 25
0.0
 35
0.0
146
0.0
 13
0.0
 23
0.0
 33
0.0
 16
1.0
 26
0.0
 36
0.0
 17
0.0
 27
1.0
 37
0.0
 76
0
330
21A
345
0
346
0
  0
ENDSEC
  0
EOF
