  0
SECTION
  2
HEADER
  9
$ACADVER
  1
AC1024
  9
$DWGCODEPAGE
  3
ANSI_1252
  9
$EXTMAX
 10
297.0
 20
210.0
 30
0.0
  9
$EXTMIN
 10
0.0
 20
0.0
 30
0.0
  9
$LIMMIN
 10
0.0
 20
0.0
  9
$LIMMAX
 10
297.0
 20
210.0
  9
$VIEWCTR
 10
148.5
 20
105.0
  9
$VIEWSIZE
 40
210.0
  9
$CLAYER
  8
0
  9
$LTSCALE
 40
16.335
  9
$CELTYPE
  6
BYLAYER
  9
$DIMSCALE
 40
1.0
  9
$DIMASZ
 40
3.0
  9
$DIMEXO
 40
0.5
  9
$DIMDLI
 40
11.286
  9
$DIMEXE
 40
1.5
  9
$DIMCEN
 40
2.673
  9
$DIMLFAC
 40
1.0
  9
$DIMBLK
  1
_FILLED
  9
$DIMALT
 70
0
  9
$DIMALTF
 40
0.0393700787
  9
$DIMTXT
 40
3.0
  9
$DIMTOL
 70
1
  9
$DIMLIM
 70
0
  9
$DIMTFAC
 40
1.0
  9
$DIMTP
 40
0.01
  9
$DIMTM
 40
0.01
  9
$DIMGAP
 40
0.625
  9
$DIMDSEP
 70
44
  9
$AUNITS
 70
0
  9
$PDMODE
 70
3
  9
$PDSIZE
 40
3.0
  9
$HANDSEED
  5
785
  9
$TILEMODE
 70
1
  9
$MEASUREMENT
 70
1
  9
$INSUNITS
 70
4
  0
ENDSEC
  0
SECTION
  2
CLASSES
  0
CLASS
  1
ACDBDICTIONARYWDFLT
  2
AcDbDictionaryWithDefault
  3
AutoCAD 2000
 90
0
 91
1
280
0
281
0
  0
CLASS
  1
ACDBPLACEHOLDER
  2
AcDbPlaceHolder
  3
AutoCAD 2000
 90
0
 91
1
280
0
281
0
  0
CLASS
  1
LAYOUT
  2
AcDbLayout
  3
AutoCAD 2000
 90
0
 91
0
280
0
281
0
  0
ENDSEC
  0
SECTION
  2
TABLES
  0
TABLE
  2
VPORT
  5
8
100
AcDbSymbolTable
 70
2
  0
VPORT
  5
1F4
100
AcDbSymbolTableRecord
100
AcDbViewportTableRecord
  2
*ACTIVE
 70
0
 10
0.0
 20
0.0
 11
1.0
 21
1.0
 12
148.5
 22
105.0
 13
0.0
 23
0.0
 14
1.0
 24
1.0
 15
0.0
 25
0.0
 16
0.0
 26
0.0
 36
1.0
 17
0.0
 27
0.0
 37
0.0
 40
210.0
 41
1.4142857143
 42
50.0
 43
0.0
 44
0.0
 50
0.0
 51
0.0
 71
0
 72
100
 73
1
 74
1
 75
0
 76
0
 77
0
 78
0
  0
ENDTAB
  0
TABLE
  2
LTYPE
  5
5
100
AcDbSymbolTable
 70
6
  0
LTYPE
  5
14
100
AcDbSymbolTableRecord
100
AcDbLinetypeTableRecord
  2
BYBLOCK
 70
0
  3

 72
65
 73
0
 40
0.0
  0
LTYPE
  5
15
100
AcDbSymbolTableRecord
100
AcDbLinetypeTableRecord
  2
BYLAYER
 70
0
  3

 72
65
 73
0
 40
0.0
  0
LTYPE
  5
16
100
AcDbSymbolTableRecord
100
AcDbLinetypeTableRecord
  2
CONTINUOUS
 70
64
  3
Solid line
 72
65
 73
0
 40
0.0
  0
LTYPE
  5
1F5
100
AcDbSymbolTableRecord
100
AcDbLinetypeTableRecord
  2
CENTER
 70
64
  3
____ _ ____ _ ____ _ ____ _ ____ _ ____ _ ____
 72
65
 73
4
 40
0.6
 49
0.375
 74
0
 49
-0.075
 74
0
 49
0.075
 74
0
 49
-0.075
 74
0
  0
LTYPE
  5
1F6
100
AcDbSymbolTableRecord
100
AcDbLinetypeTableRecord
  2
HIDDEN
 70
64
  3
- - - - - - - - - - - - - - - - - - - -
 72
65
 73
2
 40
0.2
 49
0.1
 74
0
 49
-0.1
 74
0
  0
LTYPE
  5
1F7
100
AcDbSymbolTableRecord
100
AcDbLinetypeTableRecord
  2
PHANTOM
 70
64
  3
_____ _ _ _____ _ _ _____ _ _ _____
 72
65
 73
6
 40
0.8
 49
0.45
 74
0
 49
-0.05
 74
0
 49
0.1
 74
0
 49
-0.05
 74
0
 49
0.1
 74
0
 49
-0.05
 74
0
  0
LTYPE
  5
1F8
100
AcDbSymbolTableRecord
100
AcDbLinetypeTableRecord
  2
DOT
 70
64
  3
. . . . . . . . . . . . . . . . . . . .
 72
65
 73
2
 40
0.2
 49
0.1
 74
0
 49
-0.1
 74
0
  0
LTYPE
  5
1F9
100
AcDbSymbolTableRecord
100
AcDbLinetypeTableRecord
  2
DASHED
 70
64
  3
- - - - - - - - - - - - - - - - - - - -
 72
65
 73
2
 40
0.2
 49
0.1
 74
0
 49
-0.1
 74
0
  0
ENDTAB
  0
TABLE
  2
LAYER
  5
2
100
AcDbSymbolTable
 70
36
  0
LAYER
  5
10
100
AcDbSymbolTableRecord
100
AcDbLayerTableRecord
  2
0
 70
0
 62
7
  6
CONTINUOUS
370
-3
390
F
  0
LAYER
  5
1FA
100
AcDbSymbolTableRecord
100
AcDbLayerTableRecord
  2
DEFAULT_1
 70
0
 62
7
  6
CENTER
370
-3
390
F
  0
LAYER
  5
1FB
100
AcDbSymbolTableRecord
100
AcDbLayerTableRecord
  2
DEFAULT_2
 70
0
 62
7
  6
HIDDEN
370
-3
390
F
  0
LAYER
  5
1FC
100
AcDbSymbolTableRecord
100
AcDbLayerTableRecord
  2
DEFAULT_3
 70
0
 62
7
  6
PHANTOM
370
-3
390
F
  0
LAYER
  5
1FD
100
AcDbSymbolTableRecord
100
AcDbLayerTableRecord
  2
ASSI
 70
0
 62
7
  6
CONTINUOUS
370
-3
390
F
  0
LAYER
  5
1FE
100
AcDbSymbolTableRecord
100
AcDbLayerTableRecord
  2
COLOR5
 70
0
 62
7
  6
CONTINUOUS
370
-3
390
F
  0
LAYER
  5
1FF
100
AcDbSymbolTableRecord
100
AcDbLayerTableRecord
  2
COORDINATE
 70
0
 62
7
  6
CONTINUOUS
370
-3
390
F
  0
LAYER
  5
200
100
AcDbSymbolTableRecord
100
AcDbLayerTableRecord
  2
COORD_ORIGINE
 70
0
 62
7
  6
CONTINUOUS
370
-3
390
F
  0
LAYER
  5
201
100
AcDbSymbolTableRecord
100
AcDbLayerTableRecord
  2
CURVE
 70
0
 62
7
  6
CONTINUOUS
370
-3
390
F
  0
LAYER
  5
202
100
AcDbSymbolTableRecord
100
AcDbLayerTableRecord
  2
DRAFT
 70
0
 62
7
  6
CONTINUOUS
370
-3
390
F
  0
LAYER
  5
203
100
AcDbSymbolTableRecord
100
AcDbLayerTableRecord
  2
IGES_INCISIONI
 70
0
 62
7
  6
CONTINUOUS
370
-3
390
F
  0
LAYER
  5
204
100
AcDbSymbolTableRecord
100
AcDbLayerTableRecord
  2
IMPORT_FEATURE
 70
0
 62
7
  6
CONTINUOUS
370
-3
390
F
  0
LAYER
  5
205
100
AcDbSymbolTableRecord
100
AcDbLayerTableRecord
  2
IMPORT_IGS
 70
0
 62
7
  6
CONTINUOUS
370
-3
390
F
  0
LAYER
  5
206
100
AcDbSymbolTableRecord
100
AcDbLayerTableRecord
  2
INTF_1
 70
0
 62
7
  6
CONTINUOUS
370
-3
390
F
  0
LAYER
  5
207
100
AcDbSymbolTableRecord
100
AcDbLayerTableRecord
  2
INTF_7
 70
0
 62
7
  6
CONTINUOUS
370
-3
390
F
  0
LAYER
  5
208
100
AcDbSymbolTableRecord
100
AcDbLayerTableRecord
  2
NOTE
 70
0
 62
7
  6
CONTINUOUS
370
-3
390
F
  0
LAYER
  5
209
100
AcDbSymbolTableRecord
100
AcDbLayerTableRecord
  2
PIANI
 70
0
 62
7
  6
CONTINUOUS
370
-3
390
F
  0
LAYER
  5
20A
100
AcDbSymbolTableRecord
100
AcDbLayerTableRecord
  2
PIANI_ORIGINE
 70
0
 62
7
  6
CONTINUOUS
370
-3
390
F
  0
LAYER
  5
20B
100
AcDbSymbolTableRecord
100
AcDbLayerTableRecord
  2
PUNTI
 70
0
 62
7
  6
CONTINUOUS
370
-3
390
F
  0
LAYER
  5
20C
100
AcDbSymbolTableRecord
100
AcDbLayerTableRecord
  2
RACCORDO
 70
0
 62
7
  6
CONTINUOUS
370
-3
390
F
  0
LAYER
  5
20D
100
AcDbSymbolTableRecord
100
AcDbLayerTableRecord
  2
RGB__255__255__255__
 70
0
 62
7
  6
CONTINUOUS
370
-3
390
F
  0
LAYER
  5
20E
100
AcDbSymbolTableRecord
100
AcDbLayerTableRecord
  2
RGB____0____0____0__
 70
0
 62
7
  6
CONTINUOUS
370
-3
390
F
  0
LAYER
  5
20F
100
AcDbSymbolTableRecord
100
AcDbLayerTableRecord
  2
SKEL
 70
0
 62
7
  6
CONTINUOUS
370
-3
390
F
  0
LAYER
  5
210
100
AcDbSymbolTableRecord
100
AcDbLayerTableRecord
  2
SKELETON
 70
0
 62
7
  6
CONTINUOUS
370
-3
390
F
  0
LAYER
  5
211
100
AcDbSymbolTableRecord
100
AcDbLayerTableRecord
  2
SMUSSO
 70
0
 62
7
  6
CONTINUOUS
370
-3
390
F
  0
LAYER
  5
212
100
AcDbSymbolTableRecord
100
AcDbLayerTableRecord
  2
SNAPLINE
 70
0
 62
7
  6
CONTINUOUS
370
-3
390
F
  0
LAYER
  5
213
100
AcDbSymbolTableRecord
100
AcDbLayerTableRecord
  2
SUPERFICI
 70
0
 62
7
  6
CONTINUOUS
370
-3
390
F
  0
LAYER
  5
214
100
AcDbSymbolTableRecord
100
AcDbLayerTableRecord
  2
TRASH
 70
0
 62
7
  6
CONTINUOUS
370
-3
390
F
  0
LAYER
  5
215
100
AcDbSymbolTableRecord
100
AcDbLayerTableRecord
  2
XSEC_DATUMS
 70
0
 62
7
  6
CONTINUOUS
370
-3
390
F
  0
LAYER
  5
216
100
AcDbSymbolTableRecord
100
AcDbLayerTableRecord
  2
___SHELL
 70
0
 62
7
  6
CONTINUOUS
370
-3
390
F
  0
ENDTAB
  0
TABLE
  2
STYLE
  5
3
100
AcDbSymbolTable
 70
1
  0
STYLE
  5
11
100
AcDbSymbolTableRecord
100
AcDbTextStyleTableRecord
  2
STANDARD
 70
0
 40
0.0
 41
0.8
 50
0.0
 71
0
 42
0.2
  3
txt
  4

  0
STYLE
  5
217
100
AcDbSymbolTableRecord
100
AcDbTextStyleTableRecord
  2
TEXTSTYLE_1
 70
0
 40
0.0
 41
0.8
 50
0.0
 71
0
 42
0.2
  3
gdt
  4

  0
ENDTAB
  0
TABLE
  2
VIEW
  5
6
100
AcDbSymbolTable
 70
0
  0
ENDTAB
  0
TABLE
  2
UCS
  5
7
100
AcDbSymbolTable
 70
0
  0
ENDTAB
  0
TABLE
  2
APPID
  5
9
100
AcDbSymbolTable
 70
1
  0
APPID
  5
218
100
AcDbSymbolTableRecord
100
AcDbRegAppTableRecord
  2
ACAD
 70
0
  0
ENDTAB
  0
TABLE
  2
BLOCK_RECORD
  5
1
100
AcDbSymbolTable
 70
0
  0
BLOCK_RECORD
  5
219
100
AcDbSymbolTableRecord
100
AcDbBlockTableRecord
  2
*Model_Space
  0
BLOCK_RECORD
  5
21A
100
AcDbSymbolTableRecord
100
AcDbBlockTableRecord
  2
*Paper_Space
  0
BLOCK_RECORD
  5
21B
100
AcDbSymbolTableRecord
100
AcDbBlockTableRecord
  2
_FILLED
  0
ENDTAB
  0
TABLE
  2
DIMSTYLE
  5
A
100
AcDbSymbolTable
 70
1
100
AcDbDimStyleTable
 71
0
  0
DIMSTYLE
105
21C
100
AcDbSymbolTableRecord
100
AcDbDimStyleTableRecord
  2
STANDARD
 70
0
  3

  4

 40
1.0
 41
3.0
 42
0.5
 43
0.38
 44
1.5
 45
0.0
 46
0.0
 47
0.01
 48
0.01
140
3.0
141
0.09
142
0.0
143
25.4
144
1.0
145
0.0
146
1.0
147
0.625
 71
1
 72
0
 73
0
 74
0
 75
0
 76
0
 77
1
 78
8
 79
2
170
0
171
1
172
0
173
0
174
0
175
0
176
0
177
0
178
0
270
2
179
2
271
2
272
2
273
2
274
2
275
0
280
0
281
0
282
0
283
1
284
8
285
0
286
0
287
3
288
0
340
11
278
44
341
21B
342
21B
343
21B
344
21B
  0
ENDTAB
  0
ENDSEC
  0
SECTION
  2
BLOCKS
  0
BLOCK
  5
20
100
AcDbEntity
  8
0
100
AcDbBlockBegin
  2
*Model_Space
 70
0
 10
0.0
 20
0.0
 30
0.0
  3
*Model_Space
  1

  0
ENDBLK
  5
21
100
AcDbEntity
  8
0
100
AcDbBlockEnd
  0
BLOCK
  5
1C
100
AcDbEntity
  8
0
100
AcDbBlockBegin
  2
*Paper_Space
 70
0
 10
0.0
 20
0.0
 30
0.0
  3
*Paper_Space
  1

  0
ENDBLK
  5
1D
100
AcDbEntity
  8
0
100
AcDbBlockEnd
  0
BLOCK
  5
21D
100
AcDbEntity
  8
0
100
AcDbBlockBegin
  2
_FILLED
 70
64
 10
0.0
 20
0.0
  3
_FILLED
  1

  0
SOLID
  5
21E
100
AcDbEntity
  8
0
  6
BYBLOCK
 62
0
100
AcDbTrace
 10
0.0
 20
0.0
 11
-1.0
 21
0.3166666667
 12
-1.0
 22
-0.3166666667
 13
-1.0
 23
-0.3166666667
  0
ENDBLK
  5
21F
100
AcDbEntity
  8
0
  6
BYBLOCK
 62
0
100
AcDbBlockEnd
  0
ENDSEC
  0
SECTION
  2
ENTITIES
  0
LWPOLYLINE
  5
220
100
AcDbEntity
  8
RACCORDO
100
AcDbPolyline
 62
250
  6
CONTINUOUS
 90
8
 70
0
 10
-110.2272257956
 20
-16.2497306003
 10
-110.2267120813
 20
-16.2635755774
 10
-110.2261824802
 20
-16.2754450002
 10
-110.225637755
 20
-16.2853856087
 10
-110.2250875207
 20
-16.2932510059
 10
-110.2245349825
 20
-16.2989923926
 10
-110.2239769353
 20
-16.3026585679
 10
-110.2234133791
 20
-16.3042495318
  0
LWPOLYLINE
  5
221
100
AcDbEntity
  8
RACCORDO
100
AcDbPolyline
 62
250
  6
CONTINUOUS
 90
13
 70
0
 10
-109.979524268
 20
-15.9795506195
 10
-109.9791203211
 20
-15.9906076769
 10
-109.9786907321
 20
-16.00090239
 10
-109.9782386696
 20
-16.0104291429
 10
-109.9777627691
 20
-16.0191572995
 10
-109.9772643949
 20
-16.0270154077
 10
-109.9767508087
 20
-16.0339391464
 10
-109.9762212054
 20
-16.0398993023
 10
-109.9756763899
 20
-16.0448618304
 10
-109.9751260395
 20
-16.0487846604
 10
-109.9745733798
 20
-16.0516589131
 10
-109.9740151851
 20
-16.0534918078
 10
-109.9734514553
 20
-16.054287608
  0
LINE
  5
222
100
AcDbEntity
  8
DRAFT
100
AcDbLine
 62
7
  6
CONTINUOUS
 10
-110.347432969
 20
-5.3043629232
 11
-110.3547635419
 21
-5.1050965072
  0
LINE
  5
223
100
AcDbEntity
  8
DRAFT
100
AcDbLine
 62
7
  6
CONTINUOUS
 10
-110.2685556026
 20
5.3043629232
 11
-110.2612250296
 21
5.1050965072
  0
LINE
  5
224
100
AcDbEntity
  8
DRAFT
100
AcDbLine
 62
7
  6
CONTINUOUS
 10
-110.3547635419
 20
-5.1050965072
 11
-110.3617748014
 21
-4.8731433194
  0
LINE
  5
225
100
AcDbEntity
  8
DRAFT
100
AcDbLine
 62
7
  6
CONTINUOUS
 10
-110.2612250296
 20
5.1050965072
 11
-110.2542137702
 21
4.8731433194
  0
LINE
  5
226
100
AcDbEntity
  8
RACCORDO
100
AcDbLine
 62
250
  6
CONTINUOUS
 10
-109.9802553769
 20
-15.9553361478
 11
-109.979524268
 21
-15.9795506195
  0
LINE
  5
227
100
AcDbEntity
  8
RACCORDO
100
AcDbLine
 62
250
  6
CONTINUOUS
 10
-110.2282005241
 20
-16.2165408205
 11
-110.2272257956
 21
-16.2497306003
  0
LINE
  5
228
100
AcDbEntity
  8
DRAFT
100
AcDbLine
 62
7
  6
CONTINUOUS
 10
-110.3617748014
 20
-4.8731433194
 11
-110.3684400364
 21
-4.6094740391
  0
LINE
  5
229
100
AcDbEntity
  8
DRAFT
100
AcDbLine
 62
7
  6
CONTINUOUS
 10
-110.2542137702
 20
4.8731433194
 11
-110.2475485352
 21
4.6094740391
  0
LINE
  5
22A
100
AcDbEntity
  8
RACCORDO
100
AcDbLine
 62
250
  6
CONTINUOUS
 10
-109.9808742108
 20
-15.9284563767
 11
-109.9802553769
 21
-15.9553361478
  0
LINE
  5
22B
100
AcDbEntity
  8
RACCORDO
100
AcDbLine
 62
250
  6
CONTINUOUS
 10
-110.2290827341
 20
-16.1768328633
 11
-110.2282005241
 21
-16.2165408205
  0
LINE
  5
22C
100
AcDbEntity
  8
DRAFT
100
AcDbLine
 62
7
  6
CONTINUOUS
 10
-110.3684400364
 20
-4.6094740391
 11
-110.374726947
 21
-4.3154135568
  0
LINE
  5
22D
100
AcDbEntity
  8
DRAFT
100
AcDbLine
 62
7
  6
CONTINUOUS
 10
-110.2475485352
 20
4.6094740391
 11
-110.2412616246
 21
4.3154135568
  0
LINE
  5
22E
100
AcDbEntity
  8
DRAFT
100
AcDbLine
 62
7
  6
CONTINUOUS
 10
-110.374726947
 20
-4.3154135568
 11
-110.3805650787
 21
-3.9940960051
  0
LINE
  5
22F
100
AcDbEntity
  8
DRAFT
100
AcDbLine
 62
7
  6
CONTINUOUS
 10
-110.2412616246
 20
4.3154135568
 11
-110.2354234929
 21
3.9940960051
  0
LINE
  5
230
100
AcDbEntity
  8
RACCORDO
100
AcDbLine
 62
250
  6
CONTINUOUS
 10
-109.9813727134
 20
-15.8992818622
 11
-109.9808742108
 21
-15.9284563767
  0
LINE
  5
231
100
AcDbEntity
  8
DRAFT
100
AcDbLine
 62
7
  6
CONTINUOUS
 10
-110.3805650787
 20
-3.9940960051
 11
-110.3859349388
 21
-3.6467219965
  0
LINE
  5
232
100
AcDbEntity
  8
DRAFT
100
AcDbLine
 62
7
  6
CONTINUOUS
 10
-110.2354234929
 20
3.9940960051
 11
-110.2300536328
 21
3.6467219965
  0
LINE
  5
233
100
AcDbEntity
  8
RACCORDO
100
AcDbLine
 62
250
  6
CONTINUOUS
 10
-110.2302181687
 20
-16.1062338817
 11
-110.2290827341
 21
-16.1768328633
  0
LINE
  5
234
100
AcDbEntity
  8
DRAFT
100
AcDbLine
 62
7
  6
CONTINUOUS
 10
-110.3859349388
 20
-3.6467219965
 11
-110.3908111087
 21
-3.2749964673
  0
LINE
  5
235
100
AcDbEntity
  8
DRAFT
100
AcDbLine
 62
7
  6
CONTINUOUS
 10
-110.2300536328
 20
3.6467219965
 11
-110.2251774629
 21
3.2749964673
  0
LINE
  5
236
100
AcDbEntity
  8
DRAFT
100
AcDbLine
 62
7
  6
CONTINUOUS
 10
-110.3908111087
 20
-3.2749964673
 11
-110.3951382069
 21
-2.8829003571
  0
LINE
  5
237
100
AcDbEntity
  8
DRAFT
100
AcDbLine
 62
7
  6
CONTINUOUS
 10
-110.2251774629
 20
3.2749964673
 11
-110.2208503647
 21
2.8829003571
  0
LINE
  5
238
100
AcDbEntity
  8
RACCORDO
100
AcDbLine
 62
250
  6
CONTINUOUS
 10
-109.9817350408
 20
-15.8683678328
 11
-109.9813727134
 21
-15.8992818622
  0
LINE
  5
239
100
AcDbEntity
  8
RACCORDO
100
AcDbLine
 62
250
  6
CONTINUOUS
 10
-110.2311029412
 20
-16.0237474089
 11
-110.2302181687
 21
-16.1062338817
  0
LINE
  5
23A
100
AcDbEntity
  8
DRAFT
100
AcDbLine
 62
7
  6
CONTINUOUS
 10
-110.3951382069
 20
-2.8829003571
 11
-110.3989010719
 21
-2.4720183205
  0
LINE
  5
23B
100
AcDbEntity
  8
DRAFT
100
AcDbLine
 62
7
  6
CONTINUOUS
 10
-110.2208503647
 20
2.8829003571
 11
-110.2170874997
 21
2.4720183205
  0
LINE
  5
23C
100
AcDbEntity
  8
DRAFT
100
AcDbLine
 62
7
  6
CONTINUOUS
 10
-110.3989010719
 20
-2.4720183205
 11
-110.4020823076
 21
-2.0443219208
  0
LINE
  5
23D
100
AcDbEntity
  8
DRAFT
100
AcDbLine
 62
7
  6
CONTINUOUS
 10
-110.2170874997
 20
2.4720183205
 11
-110.213906264
 21
2.0443219208
  0
LINE
  5
23E
100
AcDbEntity
  8
RACCORDO
100
AcDbLine
 62
250
  6
CONTINUOUS
 10
-109.9819538947
 20
-15.8365071898
 11
-109.9817350408
 21
-15.8683678328
  0
LINE
  5
23F
100
AcDbEntity
  8
DRAFT
100
AcDbLine
 62
7
  6
CONTINUOUS
 10
-110.4020823076
 20
-2.0443219208
 11
-110.4046469574
 21
-1.6041020053
  0
LINE
  5
240
100
AcDbEntity
  8
DRAFT
100
AcDbLine
 62
7
  6
CONTINUOUS
 10
-110.213906264
 20
2.0443219208
 11
-110.2113416142
 21
1.6041020053
  0
LINE
  5
241
100
AcDbEntity
  8
RACCORDO
100
AcDbLine
 62
250
  6
CONTINUOUS
 10
-110.2318251483
 20
-15.900617957
 11
-110.2311029412
 21
-16.0237474089
  0
LINE
  5
242
100
AcDbEntity
  8
DRAFT
100
AcDbLine
 62
7
  6
CONTINUOUS
 10
-110.4046469574
 20
-1.6041020053
 11
-110.4065845564
 21
-1.1535871878
  0
LINE
  5
243
100
AcDbEntity
  8
DRAFT
100
AcDbLine
 62
7
  6
CONTINUOUS
 10
-110.2113416142
 20
1.6041020053
 11
-110.2094040152
 21
1.1535871878
  0
LINE
  5
244
100
AcDbEntity
  8
DRAFT
100
AcDbLine
 62
7
  6
CONTINUOUS
 10
-110.4065845564
 20
-1.1535871878
 11
-110.4078863327
 21
-0.6948952523
  0
LINE
  5
245
100
AcDbEntity
  8
DRAFT
100
AcDbLine
 62
7
  6
CONTINUOUS
 10
-110.2094040152
 20
1.1535871878
 11
-110.2081022389
 21
0.6948952523
  0
LINE
  5
246
100
AcDbEntity
  8
DRAFT
100
AcDbLine
 62
7
  6
CONTINUOUS
 10
-110.4078863327
 20
-0.6948952523
 11
-110.408537335
 21
-0.2327119621
  0
LINE
  5
247
100
AcDbEntity
  8
DRAFT
100
AcDbLine
 62
7
  6
CONTINUOUS
 10
-110.2081022389
 20
0.6948952523
 11
-110.2074512365
 21
0.2327119621
  0
LINE
  5
248
100
AcDbEntity
  8
SUPERFICI
100
AcDbLine
 62
7
  6
CONTINUOUS
 10
-110.5000001746
 20
17.7500000072
 11
-110.5000001746
 21
-17.7500000122
  0
LINE
  5
249
100
AcDbEntity
  8
DRAFT
100
AcDbLine
 62
7
  6
CONTINUOUS
 10
-110.5
 20
17.75
 11
-110.5
 21
-17.75
  0
LINE
  5
24A
100
AcDbEntity
  8
RACCORDO
100
AcDbLine
 62
250
  6
CONTINUOUS
 10
-110.1873715581
 20
17.75
 11
-110.1873715581
 21
-12.8597086471
  0
LINE
  5
24B
100
AcDbEntity
  8
RACCORDO
100
AcDbLine
 62
250
  6
CONTINUOUS
 10
-110.1873715581
 20
-16.3402913529
 11
-110.1873715581
 21
-17.75
  0
LINE
  5
24C
100
AcDbEntity
  8
RACCORDO
100
AcDbLine
 62
250
  6
CONTINUOUS
 10
-109.9820266713
 20
-13.3956743158
 11
-109.9819538947
 21
-15.8365071898
  0
LINE
  5
24D
100
AcDbEntity
  8
0
100
AcDbLine
 62
7
  6
CONTINUOUS
 10
-109.7375620037
 20
17.75
 11
-109.7375620037
 21
16.8624379963
  0
LINE
  5
24E
100
AcDbEntity
  8
0
100
AcDbLine
 62
7
  6
CONTINUOUS
 10
-109.7375620037
 20
-16.8624379963
 11
-109.7375620037
 21
-17.75
  0
LINE
  5
24F
100
AcDbEntity
  8
RACCORDO
100
AcDbLine
 62
7
  6
CONTINUOUS
 10
-109.7374172425
 20
-13.3956743158
 11
-109.7374172425
 21
-15.8043256842
  0
LINE
  5
250
100
AcDbEntity
  8
RACCORDO
100
AcDbLine
 62
250
  6
CONTINUOUS
 10
-109.6910851623
 20
-13.103215826
 11
-109.6910851623
 21
-16.096784174
  0
LINE
  5
251
100
AcDbEntity
  8
DRAFT
100
AcDbLine
 62
7
  6
CONTINUOUS
 10
-109.6
 20
-17.75
 11
-109.6
 21
-17.0
  0
LINE
  5
252
100
AcDbEntity
  8
DRAFT
100
AcDbLine
 62
7
  6
CONTINUOUS
 10
-109.6
 20
17.0
 11
-109.6
 21
17.75
  0
LINE
  5
253
100
AcDbEntity
  8
RACCORDO
100
AcDbLine
 62
250
  6
CONTINUOUS
 10
-109.5874629349
 20
-16.1999591314
 11
-109.587462941
 21
-16.8621049871
  0
LINE
  5
254
100
AcDbEntity
  8
RACCORDO
100
AcDbLine
 62
250
  6
CONTINUOUS
 10
-109.5874629348
 20
-13.0000408689
 11
-109.587462941
 21
16.8621049871
  0
LINE
  5
255
100
AcDbEntity
  8
RACCORDO
100
AcDbLine
 62
250
  6
CONTINUOUS
 10
-109.4411232385
 20
-12.8537059959
 11
-109.4411232385
 21
-16.3462940041
  0
LINE
  5
256
100
AcDbEntity
  8
DRAFT
100
AcDbLine
 62
250
  6
CONTINUOUS
 10
-107.5
 20
17.0
 11
-107.5
 21
16.8621049871
  0
LINE
  5
257
100
AcDbEntity
  8
0
100
AcDbLine
 62
250
  6
CONTINUOUS
 10
-107.5
 20
-20.75
 11
-107.5
 21
-19.85
  0
LINE
  5
258
100
AcDbEntity
  8
DRAFT
100
AcDbLine
 62
250
  6
CONTINUOUS
 10
-107.5
 20
-17.0
 11
-107.5
 21
-16.8621049871
  0
LINE
  5
259
100
AcDbEntity
  8
0
100
AcDbLine
 62
250
  6
CONTINUOUS
 10
-107.5
 20
19.85
 11
-107.5
 21
20.75
  0
LINE
  5
25A
100
AcDbEntity
  8
DRAFT
100
AcDbLine
 62
7
  6
CONTINUOUS
 10
-106.75
 20
19.85
 11
-106.75
 21
17.75
  0
LINE
  5
25B
100
AcDbEntity
  8
DRAFT
100
AcDbLine
 62
7
  6
CONTINUOUS
 10
-106.75
 20
-17.75
 11
-106.75
 21
-19.85
  0
LINE
  5
25C
100
AcDbEntity
  8
0
100
AcDbLine
 62
7
  6
CONTINUOUS
 10
-106.6121049871
 20
19.837462941
 11
-106.6121049871
 21
17.75
  0
LINE
  5
25D
100
AcDbEntity
  8
0
100
AcDbLine
 62
7
  6
CONTINUOUS
 10
-106.6121049871
 20
-17.75
 11
-106.6121049871
 21
-19.837462941
  0
LINE
  5
25E
100
AcDbEntity
  8
0
100
AcDbLine
 62
7
  6
CONTINUOUS
 10
-104.1
 20
0.71875
 11
-104.1
 21
0.6562500596
  0
LINE
  5
25F
100
AcDbEntity
  8
0
100
AcDbLine
 62
7
  6
CONTINUOUS
 10
-104.1
 20
-0.1875000298
 11
-104.1
 21
-1.25
  0
LINE
  5
260
100
AcDbEntity
  8
0
100
AcDbLine
 62
7
  6
CONTINUOUS
 10
-103.9404255509
 20
-1.0937500037
 11
-103.9404255509
 21
-0.1875000298
  0
LINE
  5
261
100
AcDbEntity
  8
0
100
AcDbLine
 62
7
  6
CONTINUOUS
 10
-103.9404255509
 20
0.625
 11
-103.9404255509
 21
0.7500000596
  0
LINE
  5
262
100
AcDbEntity
  8
DRAFT
100
AcDbLine
 62
7
  6
CONTINUOUS
 10
-110.408537335
 20
-0.2327119621
 11
-110.408537335
 21
0.2327119621
  0
LINE
  5
263
100
AcDbEntity
  8
DRAFT
100
AcDbLine
 62
7
  6
CONTINUOUS
 10
-110.2074512365
 20
0.2327119621
 11
-110.2074512365
 21
-0.2327119621
  0
LINE
  5
264
100
AcDbEntity
  8
RACCORDO
100
AcDbLine
 62
250
  6
CONTINUOUS
 10
-110.2319703881
 20
-13.3632688101
 11
-110.2318251483
 21
-15.900617957
  0
LINE
  5
265
100
AcDbEntity
  8
DRAFT
100
AcDbLine
 62
7
  6
CONTINUOUS
 10
-110.408537335
 20
0.2327119621
 11
-110.4078863327
 21
0.6948952523
  0
LINE
  5
266
100
AcDbEntity
  8
DRAFT
100
AcDbLine
 62
7
  6
CONTINUOUS
 10
-110.2074512365
 20
-0.2327119621
 11
-110.2081022389
 21
-0.6948952523
  0
LINE
  5
267
100
AcDbEntity
  8
DRAFT
100
AcDbLine
 62
7
  6
CONTINUOUS
 10
-110.4078863327
 20
0.6948952523
 11
-110.4065845564
 21
1.1535871878
  0
LINE
  5
268
100
AcDbEntity
  8
DRAFT
100
AcDbLine
 62
7
  6
CONTINUOUS
 10
-110.2081022389
 20
-0.6948952523
 11
-110.2094040152
 21
-1.1535871878
  0
LINE
  5
269
100
AcDbEntity
  8
RACCORDO
100
AcDbLine
 62
250
  6
CONTINUOUS
 10
-109.9819538949
 20
-13.3634928102
 11
-109.9820266713
 21
-13.3956743158
  0
LINE
  5
26A
100
AcDbEntity
  8
RACCORDO
100
AcDbLine
 62
250
  6
CONTINUOUS
 10
-103.9708060843
 20
20.0724319547
 11
-103.9712940041
 21
19.6911232385
  0
LINE
  5
26B
100
AcDbEntity
  8
DRAFT
100
AcDbLine
 62
7
  6
CONTINUOUS
 10
-110.4065845564
 20
1.1535871878
 11
-110.4046469574
 21
1.6041020053
  0
LINE
  5
26C
100
AcDbEntity
  8
DRAFT
100
AcDbLine
 62
7
  6
CONTINUOUS
 10
-110.2094040152
 20
-1.1535871878
 11
-110.2113416142
 21
-1.6041020053
  0
LINE
  5
26D
100
AcDbEntity
  8
RACCORDO
100
AcDbLine
 62
250
  6
CONTINUOUS
 10
-110.2315331002
 20
-13.2363678889
 11
-110.2319703881
 21
-13.3632688101
  0
LINE
  5
26E
100
AcDbEntity
  8
DRAFT
100
AcDbLine
 62
7
  6
CONTINUOUS
 10
-110.4046469574
 20
1.6041020053
 11
-110.4020823076
 21
2.0443219208
  0
LINE
  5
26F
100
AcDbEntity
  8
DRAFT
100
AcDbLine
 62
7
  6
CONTINUOUS
 10
-110.2113416142
 20
-1.6041020053
 11
-110.213906264
 21
-2.0443219208
  0
LINE
  5
270
100
AcDbEntity
  8
DRAFT
100
AcDbLine
 62
7
  6
CONTINUOUS
 10
-110.4020823076
 20
2.0443219208
 11
-110.3989010719
 21
2.4720183205
  0
LINE
  5
271
100
AcDbEntity
  8
DRAFT
100
AcDbLine
 62
7
  6
CONTINUOUS
 10
-110.213906264
 20
-2.0443219208
 11
-110.2170874997
 21
-2.4720183205
  0
LINE
  5
272
100
AcDbEntity
  8
RACCORDO
100
AcDbLine
 62
250
  6
CONTINUOUS
 10
-109.9817350409
 20
-13.3316321672
 11
-109.9819538949
 21
-13.3634928102
  0
LINE
  5
273
100
AcDbEntity
  8
RACCORDO
100
AcDbLine
 62
250
  6
CONTINUOUS
 10
-103.9696641636
 20
20.2454724054
 11
-103.9708060843
 21
20.0724319547
  0
LINE
  5
274
100
AcDbEntity
  8
DRAFT
100
AcDbLine
 62
7
  6
CONTINUOUS
 10
-110.3989010719
 20
2.4720183205
 11
-110.3951382069
 21
2.8829003571
  0
LINE
  5
275
100
AcDbEntity
  8
DRAFT
100
AcDbLine
 62
7
  6
CONTINUOUS
 10
-110.2170874997
 20
-2.4720183205
 11
-110.2208503647
 21
-2.8829003571
  0
LINE
  5
276
100
AcDbEntity
  8
RACCORDO
100
AcDbLine
 62
250
  6
CONTINUOUS
 10
-110.2305418768
 20
-13.119971712
 11
-110.2315331002
 21
-13.2363678889
  0
LINE
  5
277
100
AcDbEntity
  8
DRAFT
100
AcDbLine
 62
7
  6
CONTINUOUS
 10
-110.3951382069
 20
2.8829003571
 11
-110.3908111087
 21
3.2749964673
  0
LINE
  5
278
100
AcDbEntity
  8
DRAFT
100
AcDbLine
 62
7
  6
CONTINUOUS
 10
-110.2208503647
 20
-2.8829003571
 11
-110.2251774629
 21
-3.2749964673
  0
LINE
  5
279
100
AcDbEntity
  8
RACCORDO
100
AcDbLine
 62
250
  6
CONTINUOUS
 10
-109.9813727134
 20
-13.3007181378
 11
-109.9817350409
 21
-13.3316321672
  0
LINE
  5
27A
100
AcDbEntity
  8
DRAFT
100
AcDbLine
 62
7
  6
CONTINUOUS
 10
-110.3908111087
 20
3.2749964673
 11
-110.3859349388
 21
3.6467219965
  0
LINE
  5
27B
100
AcDbEntity
  8
DRAFT
100
AcDbLine
 62
7
  6
CONTINUOUS
 10
-110.2251774629
 20
-3.2749964673
 11
-110.2300536328
 21
-3.6467219965
  0
LINE
  5
27C
100
AcDbEntity
  8
RACCORDO
100
AcDbLine
 62
250
  6
CONTINUOUS
 10
-103.9685971953
 20
20.3351042344
 11
-103.9696641636
 21
20.2454724054
  0
LINE
  5
27D
100
AcDbEntity
  8
RACCORDO
100
AcDbLine
 62
250
  6
CONTINUOUS
 10
-103.7198209703
 20
20.0678979243
 11
-103.720463307
 21
20.0173477451
  0
LINE
  5
27E
100
AcDbEntity
  8
DRAFT
100
AcDbLine
 62
7
  6
CONTINUOUS
 10
-110.3859349388
 20
3.6467219965
 11
-110.3805650787
 21
3.9940960051
  0
LINE
  5
27F
100
AcDbEntity
  8
DRAFT
100
AcDbLine
 62
7
  6
CONTINUOUS
 10
-110.2300536328
 20
-3.6467219965
 11
-110.2354234929
 21
-3.9940960051
  0
LINE
  5
280
100
AcDbEntity
  8
RACCORDO
100
AcDbLine
 62
250
  6
CONTINUOUS
 10
-110.2294869019
 20
-13.0452737108
 11
-110.2305418768
 21
-13.119971712
  0
LINE
  5
281
100
AcDbEntity
  8
RACCORDO
100
AcDbLine
 62
250
  6
CONTINUOUS
 10
-103.9679932464
 20
20.3703154362
 11
-103.9685971953
 21
20.3351042344
  0
LINE
  5
282
100
AcDbEntity
  8
RACCORDO
100
AcDbLine
 62
250
  6
CONTINUOUS
 10
-103.7193095672
 20
20.0976205413
 11
-103.7198209703
 21
20.0678979243
  0
LINE
  5
283
100
AcDbEntity
  8
RACCORDO
100
AcDbLine
 62
250
  6
CONTINUOUS
 10
-109.9808742107
 20
-13.2715436233
 11
-109.9813727134
 21
-13.3007181378
  0
LINE
  5
284
100
AcDbEntity
  8
DRAFT
100
AcDbLine
 62
7
  6
CONTINUOUS
 10
-110.3805650787
 20
3.9940960051
 11
-110.374726947
 21
4.3154135568
  0
LINE
  5
285
100
AcDbEntity
  8
DRAFT
100
AcDbLine
 62
7
  6
CONTINUOUS
 10
-110.2354234929
 20
-3.9940960051
 11
-110.2412616246
 21
-4.3154135568
  0
LINE
  5
286
100
AcDbEntity
  8
RACCORDO
100
AcDbLine
 62
250
  6
CONTINUOUS
 10
-110.2286528549
 20
-13.00249206
 11
-110.2294869019
 21
-13.0452737108
  0
LINE
  5
287
100
AcDbEntity
  8
DRAFT
100
AcDbLine
 62
7
  6
CONTINUOUS
 10
-110.374726947
 20
4.3154135568
 11
-110.3684400364
 21
4.6094740391
  0
LINE
  5
288
100
AcDbEntity
  8
DRAFT
100
AcDbLine
 62
7
  6
CONTINUOUS
 10
-110.2412616246
 20
-4.3154135568
 11
-110.2475485352
 21
-4.6094740391
  0
LINE
  5
289
100
AcDbEntity
  8
RACCORDO
100
AcDbLine
 62
250
  6
CONTINUOUS
 10
-103.7187398808
 20
20.1236360156
 11
-103.7193095672
 21
20.0976205413
  0
LINE
  5
28A
100
AcDbEntity
  8
RACCORDO
100
AcDbLine
 62
250
  6
CONTINUOUS
 10
-109.9802553768
 20
-13.2446638522
 11
-109.9808742107
 21
-13.2715436233
  0
LINE
  5
28B
100
AcDbEntity
  8
DRAFT
100
AcDbLine
 62
7
  6
CONTINUOUS
 10
-110.3684400364
 20
4.6094740391
 11
-110.3617748014
 21
4.8731433194
  0
LINE
  5
28C
100
AcDbEntity
  8
DRAFT
100
AcDbLine
 62
7
  6
CONTINUOUS
 10
-110.2475485352
 20
-4.6094740391
 11
-110.2542137702
 21
-4.8731433194
  0
LINE
  5
28D
100
AcDbEntity
  8
DRAFT
100
AcDbLine
 62
7
  6
CONTINUOUS
 10
-110.3617748014
 20
4.8731433194
 11
-110.3547635419
 21
5.1050965072
  0
LINE
  5
28E
100
AcDbEntity
  8
DRAFT
100
AcDbLine
 62
7
  6
CONTINUOUS
 10
-110.2542137702
 20
-4.8731433194
 11
-110.2612250296
 21
-5.1050965072
  0
LWPOLYLINE
  5
28F
100
AcDbEntity
  8
DRAFT
100
AcDbPolyline
 62
7
  6
CONTINUOUS
 90
12
 70
0
 10
-110.3547635419
 20
5.1050965072
 10
-110.347432969
 20
5.3043629232
 10
-110.3436728412
 20
5.3911155094
 10
-110.339859318
 20
5.4689816777
 10
-110.3359900132
 20
5.5380669171
 10
-110.3320801067
 20
5.598106151
 10
-110.3281274034
 20
5.6490900475
 10
-110.3241340984
 20
5.6910279385
 10
-110.3201219575
 20
5.7236827427
 10
-110.3160919575
 20
5.7469943158
 10
-110.3120431217
 20
5.7610228022
 10
-110.3079484028
 20
5.7657109478
  0
LWPOLYLINE
  5
290
100
AcDbEntity
  8
DRAFT
100
AcDbPolyline
 62
7
  6
CONTINUOUS
 90
12
 70
0
 10
-110.2612250296
 20
-5.1050965072
 10
-110.2685556026
 20
-5.3043629232
 10
-110.2723157304
 20
-5.3911155094
 10
-110.2761292536
 20
-5.4689816777
 10
-110.2799985584
 20
-5.5380669171
 10
-110.2839084648
 20
-5.598106151
 10
-110.2878611682
 20
-5.6490900475
 10
-110.2918544732
 20
-5.6910279385
 10
-110.295866614
 20
-5.7236827427
 10
-110.2998966141
 20
-5.7469943158
 10
-110.3039454499
 20
-5.7610228022
 10
-110.3079484028
 20
-5.7657109478
  0
LWPOLYLINE
  5
291
100
AcDbEntity
  8
RACCORDO
100
AcDbPolyline
 62
250
  6
CONTINUOUS
 90
8
 70
0
 10
-103.9652913529
 20
20.4373715581
 10
-103.9656438928
 20
20.4357802154
 10
-103.9659927394
 20
20.4322125196
 10
-103.9663378925
 20
20.4266781838
 10
-103.9666804937
 20
20.4191928693
 10
-103.9670194015
 20
20.4097796131
 10
-103.967351191
 20
20.3984700677
 10
-103.9679932464
 20
20.3703154362
  0
LWPOLYLINE
  5
292
100
AcDbEntity
  8
RACCORDO
100
AcDbPolyline
 62
250
  6
CONTINUOUS
 90
10
 70
0
 10
-103.7153294291
 20
20.1874096343
 10
-103.7156948478
 20
20.1864078981
 10
-103.7160561686
 20
20.1841887646
 10
-103.7164133914
 20
20.1807522338
 10
-103.7167677864
 20
20.1760775702
 10
-103.7171180834
 20
20.1701855093
 10
-103.717460472
 20
20.1631382576
 10
-103.7177948504
 20
20.1549232028
 10
-103.7181213204
 20
20.1455529572
 10
-103.7187398808
 20
20.1236360156
  0
LWPOLYLINE
  5
293
100
AcDbEntity
  8
RACCORDO
100
AcDbPolyline
 62
7
  6
CONTINUOUS
 90
9
 70
0
 10
-109.6910851623
 20
-16.096784174
 10
-109.6902540954
 20
-16.0985204933
 10
-109.6883196741
 20
-16.1012087652
 10
-109.6852639573
 20
-16.1048489895
 10
-109.6810406415
 20
-16.1095102259
 10
-109.6756606678
 20
-16.1151234148
 10
-109.669270142
 20
-16.1214813776
 10
-109.6619464336
 20
-16.1286266325
 10
-109.6537581563
 20
-16.1365166613
  0
LWPOLYLINE
  5
294
100
AcDbEntity
  8
RACCORDO
100
AcDbPolyline
 62
250
  6
CONTINUOUS
 90
19
 70
0
 10
-103.7153294291
 20
20.1874096343
 10
-103.7162868678
 20
20.2091909526
 10
-103.7191386336
 20
20.2308065788
 10
-103.7238630342
 20
20.2520920692
 10
-103.7304241314
 20
20.2728854918
 10
-103.7387720135
 20
20.293028657
 10
-103.7488431755
 20
20.3123683216
 10
-103.7605610023
 20
20.3307573554
 10
-103.7738363512
 20
20.3480558595
 10
-103.7885682294
 20
20.3641322304
 10
-103.8046445638
 20
20.3788641628
 10
-103.8219430527
 20
20.3921395794
 10
-103.8403320948
 20
20.4038574821
 10
-103.8596717934
 20
20.4139287233
 10
-103.8798150192
 20
20.4222766823
 10
-103.9006085271
 20
20.4288378481
 10
-103.9218941263
 20
20.4335623037
 10
-103.9435098835
 20
20.4364141061
 10
-103.9652913529
 20
20.437371558
  0
LWPOLYLINE
  5
295
100
AcDbEntity
  8
RACCORDO
100
AcDbPolyline
 62
250
  6
CONTINUOUS
 90
19
 70
0
 10
-103.679287608
 20
20.2234514553
 10
-103.6802450543
 20
20.2452328598
 10
-103.6830968406
 20
20.2668485589
 10
-103.6878212716
 20
20.2881341079
 10
-103.6943824053
 20
20.3089275735
 10
-103.702730327
 20
20.3290707664
 10
-103.7128015286
 20
20.3484104441
 10
-103.7245193918
 20
20.3667994769
 10
-103.7377947711
 20
20.3840979676
 10
-103.7525266721
 20
20.400174315
 10
-103.7686030196
 20
20.414906216
 10
-103.7859015102
 20
20.4281815954
 10
-103.804290543
 20
20.4398994585
 10
-103.8236302207
 20
20.4499706601
 10
-103.8437734136
 20
20.4583185818
 10
-103.8645668793
 20
20.4648797155
 10
-103.8858524282
 20
20.4696041465
 10
-103.9074681273
 20
20.4724559328
 10
-103.9292495318
 20
20.4734133791
  0
LWPOLYLINE
  5
296
100
AcDbEntity
  8
RACCORDO
100
AcDbPolyline
 62
250
  6
CONTINUOUS
 90
9
 70
0
 10
-100.7318786796
 20
20.1455529571
 10
-100.7322051496
 20
20.1549232025
 10
-100.732539528
 20
20.1631382572
 10
-100.7328819166
 20
20.1701855092
 10
-100.7332322136
 20
20.1760775705
 10
-100.7335866086
 20
20.1807522343
 10
-100.7339438314
 20
20.1841887651
 10
-100.7343051522
 20
20.1864078984
 10
-100.7346705709
 20
20.1874096343
  0
LWPOLYLINE
  5
297
100
AcDbEntity
  8
RACCORDO
100
AcDbPolyline
 62
250
  6
CONTINUOUS
 90
7
 70
0
 10
-100.482648809
 20
20.3984700677
 10
-100.4829805985
 20
20.4097796131
 10
-100.4833195063
 20
20.4191928693
 10
-100.4836621076
 20
20.4266781838
 10
-100.4840072607
 20
20.4322125196
 10
-100.4843561072
 20
20.4357802154
 10
-100.4847086471
 20
20.4373715581
  0
LINE
  5
298
100
AcDbEntity
  8
RACCORDO
100
AcDbLine
 62
250
  6
CONTINUOUS
 10
-100.7312601192
 20
20.1236360158
 11
-100.7318786796
 21
20.1455529571
  0
LINE
  5
299
100
AcDbEntity
  8
RACCORDO
100
AcDbLine
 62
250
  6
CONTINUOUS
 10
-100.4820067536
 20
20.3703154362
 11
-100.482648809
 21
20.3984700677
  0
LINE
  5
29A
100
AcDbEntity
  8
RACCORDO
100
AcDbLine
 62
250
  6
CONTINUOUS
 10
-100.7306904328
 20
20.0976205413
 11
-100.7312601192
 21
20.1236360158
  0
LINE
  5
29B
100
AcDbEntity
  8
RACCORDO
100
AcDbLine
 62
250
  6
CONTINUOUS
 10
-100.7299476913
 20
20.051814775
 11
-100.7306904328
 21
20.0976205413
  0
LINE
  5
29C
100
AcDbEntity
  8
RACCORDO
100
AcDbLine
 62
250
  6
CONTINUOUS
 10
-100.4811163243
 20
20.3149955168
 11
-100.4820067536
 21
20.3703154362
  0
LINE
  5
29D
100
AcDbEntity
  8
RACCORDO
100
AcDbLine
 62
250
  6
CONTINUOUS
 10
-100.4801044024
 20
20.2194873762
 11
-100.4811163243
 21
20.3149955168
  0
LINE
  5
29E
100
AcDbEntity
  8
RACCORDO
100
AcDbLine
 62
250
  6
CONTINUOUS
 10
-100.7292012467
 20
19.9804667989
 11
-100.7299476913
 21
20.051814775
  0
LINE
  5
29F
100
AcDbEntity
  8
RACCORDO
100
AcDbLine
 62
250
  6
CONTINUOUS
 10
-100.7289434784
 20
19.941360721
 11
-100.7292012467
 21
19.9804667989
  0
LINE
  5
2A0
100
AcDbEntity
  8
RACCORDO
100
AcDbLine
 62
250
  6
CONTINUOUS
 10
-100.4790656985
 20
20.040298343
 11
-100.4801044024
 21
20.2194873762
  0
LINE
  5
2A1
100
AcDbEntity
  8
0
100
AcDbLine
 62
7
  6
CONTINUOUS
 10
-103.7489362121
 20
0.15625
 11
-103.7489362121
 21
0.3124999404
  0
LINE
  5
2A2
100
AcDbEntity
  8
RACCORDO
100
AcDbLine
 62
250
  6
CONTINUOUS
 10
-103.679287608
 20
19.9831296345
 11
-103.679287608
 21
20.2234514553
  0
LINE
  5
2A3
100
AcDbEntity
  8
0
100
AcDbLine
 62
7
  6
CONTINUOUS
 10
-103.5574467838
 20
-0.59375
 11
-103.5574467838
 21
-0.78125
  0
LINE
  5
2A4
100
AcDbEntity
  8
0
100
AcDbLine
 62
7
  6
CONTINUOUS
 10
-103.4297872245
 20
0.7500000596
 11
-103.4297872245
 21
0.625
  0
LINE
  5
2A5
100
AcDbEntity
  8
RACCORDO
100
AcDbLine
 62
250
  6
CONTINUOUS
 10
-103.4293256842
 20
19.9874172425
 11
-103.4293256842
 21
20.4819885951
  0
LINE
  5
2A6
100
AcDbEntity
  8
0
100
AcDbLine
 62
7
  6
CONTINUOUS
 10
-103.3978723347
 20
-0.78125
 11
-103.3978723347
 21
-0.59375
  0
LINE
  5
2A7
100
AcDbEntity
  8
0
100
AcDbLine
 62
7
  6
CONTINUOUS
 10
-103.3021276653
 20
0.625
 11
-103.3021276653
 21
0.7500000596
  0
LINE
  5
2A8
100
AcDbEntity
  8
0
100
AcDbLine
 62
7
  6
CONTINUOUS
 10
-103.2702127755
 20
-1.25
 11
-103.2702127755
 21
-1.0312500074
  0
LINE
  5
2A9
100
AcDbEntity
  8
0
100
AcDbLine
 62
7
  6
CONTINUOUS
 10
-102.9829787225
 20
-1.0625
 11
-102.9829787225
 21
-1.25
  0
LINE
  5
2AA
100
AcDbEntity
  8
0
100
AcDbLine
 62
7
  6
CONTINUOUS
 10
-102.9510638326
 20
0.2812500596
 11
-102.9510638326
 21
0.1250000298
  0
LINE
  5
2AB
100
AcDbEntity
  8
0
100
AcDbLine
 62
7
  6
CONTINUOUS
 10
-102.7595744714
 20
0.7812499404
 11
-102.7595744714
 21
0.5937499404
  0
LINE
  5
2AC
100
AcDbEntity
  8
0
100
AcDbLine
 62
7
  6
CONTINUOUS
 10
-102.7595744714
 20
-0.59375
 11
-102.7595744714
 21
-0.78125
  0
LINE
  5
2AD
100
AcDbEntity
  8
0
100
AcDbLine
 62
7
  6
CONTINUOUS
 10
-102.6
 20
-0.78125
 11
-102.6
 21
-0.59375
  0
LINE
  5
2AE
100
AcDbEntity
  8
0
100
AcDbLine
 62
7
  6
CONTINUOUS
 10
-102.6
 20
0.5625000596
 11
-102.6
 21
0.8125
  0
LINE
  5
2AF
100
AcDbEntity
  8
0
100
AcDbLine
 62
7
  6
CONTINUOUS
 10
-102.3
 20
-8.0
 11
-102.3
 21
8.0
  0
LINE
  5
2B0
100
AcDbEntity
  8
0
100
AcDbLine
 62
7
  6
CONTINUOUS
 10
-102.2
 20
8.0
 11
-102.2
 21
-8.0
  0
LINE
  5
2B1
100
AcDbEntity
  8
RACCORDO
100
AcDbLine
 62
250
  6
CONTINUOUS
 10
-101.0206743158
 20
19.9874172425
 11
-101.0206743158
 21
20.4819885951
  0
LINE
  5
2B2
100
AcDbEntity
  8
RACCORDO
100
AcDbLine
 62
250
  6
CONTINUOUS
 10
-100.770712392
 20
20.2234514553
 11
-100.770712392
 21
19.9831296345
  0
LINE
  5
2B3
100
AcDbEntity
  8
RACCORDO
100
AcDbLine
 62
250
  6
CONTINUOUS
 10
-100.4787059959
 20
19.6911232385
 11
-100.4790656985
 21
20.040298343
  0
LINE
  5
2B4
100
AcDbEntity
  8
0
100
AcDbLine
 62
7
  6
CONTINUOUS
 10
-97.0
 20
13.2
 11
-97.0
 21
13.3
  0
LINE
  5
2B5
100
AcDbEntity
  8
RACCORDO
100
AcDbLine
 62
250
  6
CONTINUOUS
 10
-103.720463307
 20
20.0173477451
 11
-103.7210565216
 21
19.941360721
  0
LWPOLYLINE
  5
2B6
100
AcDbEntity
  8
RACCORDO
100
AcDbPolyline
 62
250
  6
CONTINUOUS
 90
19
 70
0
 10
-100.770712392
 20
20.2234514553
 10
-100.7697549494
 20
20.2452328176
 10
-100.7669031735
 20
20.2668484791
 10
-100.7621787585
 20
20.2881339956
 10
-100.7556176454
 20
20.3089274343
 10
-100.7472697476
 20
20.3290706064
 10
-100.7371985714
 20
20.3484102709
 10
-100.7254807334
 20
20.3667992983
 10
-100.7122053775
 20
20.3840977905
 10
-100.6974734963
 20
20.4001741466
 10
-100.6813971633
 20
20.4149060625
 10
-100.6640986809
 20
20.4281814616
 10
-100.6457096482
 20
20.4398993481
 10
-100.626369962
 20
20.4499705749
 10
-100.6062267512
 20
20.4583185218
 10
-100.5854332581
 20
20.4648796787
 10
-100.5641476721
 20
20.4696041288
 10
-100.5425319269
 20
20.4724559281
 10
-100.5207504682
 20
20.4734133791
  0
LWPOLYLINE
  5
2B7
100
AcDbEntity
  8
RACCORDO
100
AcDbPolyline
 62
250
  6
CONTINUOUS
 90
19
 70
0
 10
-100.7346705709
 20
20.1874096343
 10
-100.7337131246
 20
20.2091910388
 10
-100.7308613383
 20
20.2308067379
 10
-100.7261369073
 20
20.2520922868
 10
-100.7195757736
 20
20.2728857525
 10
-100.7112278519
 20
20.2930289454
 10
-100.7011566504
 20
20.312368623
 10
-100.6894387872
 20
20.3307576559
 10
-100.6761634079
 20
20.3480561465
 10
-100.6614315068
 20
20.364132494
 10
-100.6453551594
 20
20.378864395
 10
-100.6280566688
 20
20.3921397743
 10
-100.6096676359
 20
20.4038576375
 10
-100.5903279582
 20
20.413928839
 10
-100.5701847654
 20
20.4222767607
 10
-100.5493912997
 20
20.4288378945
 10
-100.5281057508
 20
20.4335623254
 10
-100.5064900516
 20
20.4364141118
 10
-100.4847086471
 20
20.4373715581
  0
LINE
  5
2B8
100
AcDbEntity
  8
0
100
AcDbLine
 62
7
  6
CONTINUOUS
 10
-104.0680851102
 20
0.9375000596
 11
-104.1
 21
0.71875
  0
LINE
  5
2B9
100
AcDbEntity
  8
0
100
AcDbLine
 62
7
  6
CONTINUOUS
 10
-103.3021276653
 20
0.7500000596
 11
-103.2702127755
 21
0.9375000596
  0
LINE
  5
2BA
100
AcDbEntity
  8
0
100
AcDbLine
 62
7
  6
CONTINUOUS
 10
-103.9404255509
 20
0.7500000596
 11
-103.9085106611
 21
0.90625
  0
LINE
  5
2BB
100
AcDbEntity
  8
0
100
AcDbLine
 62
7
  6
CONTINUOUS
 10
-103.525531894
 20
-0.4374999702
 11
-103.5574467838
 21
-0.59375
  0
LINE
  5
2BC
100
AcDbEntity
  8
0
100
AcDbLine
 62
7
  6
CONTINUOUS
 10
-102.7595744714
 20
0.5937499404
 11
-102.7914893612
 21
0.4375
  0
LINE
  5
2BD
100
AcDbEntity
  8
0
100
AcDbLine
 62
7
  6
CONTINUOUS
 10
-102.6319148926
 20
-0.9375000074
 11
-102.6
 21
-0.78125
  0
LWPOLYLINE
  5
2BE
100
AcDbEntity
  8
RACCORDO
100
AcDbPolyline
 62
7
  6
CONTINUOUS
 90
7
 70
0
 10
-109.6910851623
 20
-13.103215826
 10
-109.6911309008
 20
-13.1033996533
 10
-109.6911767027
 20
-13.103558448
 10
-109.6912225679
 20
-13.1036922101
 10
-109.6912684965
 20
-13.1038009397
 10
-109.6913144884
 20
-13.1038846367
 10
-109.6913605437
 20
-13.1039433011
  0
LINE
  5
2BF
100
AcDbEntity
  8
0
100
AcDbLine
 62
7
  6
CONTINUOUS
 10
-103.3978723347
 20
-0.59375
 11
-103.3659574449
 21
-0.4687500298
  0
LINE
  5
2C0
100
AcDbEntity
  8
0
100
AcDbLine
 62
7
  6
CONTINUOUS
 10
-102.6319148926
 20
0.4375
 11
-102.6
 21
0.5625000596
  0
LINE
  5
2C1
100
AcDbEntity
  8
0
100
AcDbLine
 62
7
  6
CONTINUOUS
 10
-102.7595744714
 20
-0.78125
 11
-102.7914893612
 21
-0.9062499925
  0
LWPOLYLINE
  5
2C2
100
AcDbEntity
  8
RACCORDO
100
AcDbPolyline
 62
250
  6
CONTINUOUS
 90
10
 70
0
 10
-110.2234133791
 20
-12.8957504682
 10
-110.2239769353
 20
-12.8973414366
 10
-110.2245349825
 20
-12.9010076144
 10
-110.2250875207
 20
-12.9067490017
 10
-110.225637755
 20
-12.9146143964
 10
-110.2261824802
 20
-12.9245550006
 10
-110.2267120813
 20
-12.9364244204
 10
-110.2272257956
 20
-12.9502693975
 10
-110.2277243857
 20
-12.9660431902
 10
-110.2286528549
 20
-13.00249206
  0
LINE
  5
2C3
100
AcDbEntity
  8
0
100
AcDbLine
 62
7
  6
CONTINUOUS
 10
-103.4936170042
 20
0.9375000596
 11
-103.4297872245
 21
0.7500000596
  0
LINE
  5
2C4
100
AcDbEntity
  8
0
100
AcDbLine
 62
7
  6
CONTINUOUS
 10
-103.3659574449
 20
-0.9062499925
 11
-103.3978723347
 21
-0.78125
  0
LINE
  5
2C5
100
AcDbEntity
  8
0
100
AcDbLine
 62
7
  6
CONTINUOUS
 10
-102.7914893612
 20
-0.4687500298
 11
-102.7595744714
 21
-0.59375
  0
LINE
  5
2C6
100
AcDbEntity
  8
0
100
AcDbLine
 62
7
  6
CONTINUOUS
 10
-102.6
 20
0.8125
 11
-102.6319148926
 21
0.9375000596
  0
LINE
  5
2C7
100
AcDbEntity
  8
0
100
AcDbLine
 62
7
  6
CONTINUOUS
 10
-103.9085106611
 20
0.4687500596
 11
-103.9404255509
 21
0.625
  0
LINE
  5
2C8
100
AcDbEntity
  8
0
100
AcDbLine
 62
7
  6
CONTINUOUS
 10
-103.5574467838
 20
-0.78125
 11
-103.525531894
 21
-0.9375000074
  0
LINE
  5
2C9
100
AcDbEntity
  8
0
100
AcDbLine
 62
7
  6
CONTINUOUS
 10
-102.6
 20
-0.59375
 11
-102.6319148926
 21
-0.4374999702
  0
LINE
  5
2CA
100
AcDbEntity
  8
0
100
AcDbLine
 62
7
  6
CONTINUOUS
 10
-102.7914893612
 20
0.9375000596
 11
-102.7595744714
 21
0.7812499404
  0
LINE
  5
2CB
100
AcDbEntity
  8
0
100
AcDbLine
 62
7
  6
CONTINUOUS
 10
-104.1
 20
0.6562500596
 11
-104.0680851102
 21
0.4375
  0
LINE
  5
2CC
100
AcDbEntity
  8
0
100
AcDbLine
 62
7
  6
CONTINUOUS
 10
-103.3021276653
 20
1.1562499404
 11
-103.3659574449
 21
1.0
  0
LINE
  5
2CD
100
AcDbEntity
  8
0
100
AcDbLine
 62
7
  6
CONTINUOUS
 10
-104.0042553306
 20
1.0624999404
 11
-104.0680851102
 21
0.9375000596
  0
LINE
  5
2CE
100
AcDbEntity
  8
0
100
AcDbLine
 62
7
  6
CONTINUOUS
 10
-102.7914893612
 20
0.4375
 11
-102.823404251
 21
0.3750000596
  0
LINE
  5
2CF
100
AcDbEntity
  8
0
100
AcDbLine
 62
7
  6
CONTINUOUS
 10
-102.6957446806
 20
0.3124999404
 11
-102.6319148926
 21
0.4375
  0
LWPOLYLINE
  5
2D0
100
AcDbEntity
  8
RACCORDO
100
AcDbPolyline
 62
7
  6
CONTINUOUS
 90
3
 70
0
 10
-103.7615166613
 20
19.9037581563
 10
-103.8060940084
 20
19.8566315125
 10
-103.8154670759
 20
19.8469632867
  0
LINE
  5
2D1
100
AcDbEntity
  8
0
100
AcDbLine
 62
7
  6
CONTINUOUS
 10
-106.75
 20
19.85
 11
-106.6124379963
 21
19.9875620037
  0
LINE
  5
2D2
100
AcDbEntity
  8
0
100
AcDbLine
 62
7
  6
CONTINUOUS
 10
-109.6
 20
17.0
 11
-109.7375620037
 21
16.8624379963
  0
LINE
  5
2D3
100
AcDbEntity
  8
0
100
AcDbLine
 62
7
  6
CONTINUOUS
 10
-106.75
 20
-19.85
 11
-106.6124379963
 21
-19.9875620037
  0
LINE
  5
2D4
100
AcDbEntity
  8
0
100
AcDbLine
 62
7
  6
CONTINUOUS
 10
-109.6
 20
-17.0
 11
-109.7375620037
 21
-16.8624379963
  0
LINE
  5
2D5
100
AcDbEntity
  8
RACCORDO
100
AcDbLine
 62
250
  6
CONTINUOUS
 10
-110.2234133791
 20
-16.3042495318
 11
-110.1873715581
 21
-16.3402913529
  0
LINE
  5
2D6
100
AcDbEntity
  8
RACCORDO
100
AcDbLine
 62
250
  6
CONTINUOUS
 10
-109.9734514553
 20
-16.054287608
 11
-109.9374096343
 21
-16.0903294291
  0
LINE
  5
2D7
100
AcDbEntity
  8
RACCORDO
100
AcDbLine
 62
7
  6
CONTINUOUS
 10
-109.7331296345
 20
-16.054287608
 11
-109.691360721
 21
-16.0960565216
  0
LINE
  5
2D8
100
AcDbEntity
  8
RACCORDO
100
AcDbLine
 62
7
  6
CONTINUOUS
 10
-109.5741339455
 20
-16.2132227628
 11
-109.5296264316
 21
-16.2577952531
  0
LINE
  5
2D9
100
AcDbEntity
  8
RACCORDO
100
AcDbLine
 62
7
  6
CONTINUOUS
 10
-109.5132762249
 20
-16.274108027
 11
-109.460178821
 21
-16.3273662852
  0
LWPOLYLINE
  5
2DA
100
AcDbEntity
  8
RACCORDO
100
AcDbPolyline
 62
7
  6
CONTINUOUS
 90
7
 70
0
 10
-109.6913605437
 20
-16.0960566989
 10
-109.6913144641
 20
-16.0961154274
 10
-109.6912684577
 20
-16.0961991628
 10
-109.6912225242
 20
-16.0963079052
 10
-109.6911766639
 20
-16.0964416545
 10
-109.6911308765
 20
-16.0966004108
 10
-109.6910851623
 20
-16.096784174
  0
LINE
  5
2DB
100
AcDbEntity
  8
0
100
AcDbLine
 62
7
  6
CONTINUOUS
 10
-104.0680851102
 20
0.4375
 11
-104.0042553306
 21
0.3124999404
  0
LINE
  5
2DC
100
AcDbEntity
  8
0
100
AcDbLine
 62
7
  6
CONTINUOUS
 10
-102.823404251
 20
1.0
 11
-102.7914893612
 21
0.9375000596
  0
LINE
  5
2DD
100
AcDbEntity
  8
0
100
AcDbLine
 62
7
  6
CONTINUOUS
 10
-102.6319148926
 20
0.9375000596
 11
-102.6957446806
 21
1.0624999404
  0
LINE
  5
2DE
100
AcDbEntity
  8
0
100
AcDbLine
 62
7
  6
CONTINUOUS
 10
-103.4297872245
 20
-0.2812500298
 11
-103.525531894
 21
-0.4374999702
  0
LINE
  5
2DF
100
AcDbEntity
  8
0
100
AcDbLine
 62
7
  6
CONTINUOUS
 10
-102.7276595704
 20
-1.0937500037
 11
-102.6319148926
 21
-0.9375000074
  0
LINE
  5
2E0
100
AcDbEntity
  8
0
100
AcDbLine
 62
7
  6
CONTINUOUS
 10
-103.9085106611
 20
0.90625
 11
-103.8446808815
 21
1.0
  0
LINE
  5
2E1
100
AcDbEntity
  8
0
100
AcDbLine
 62
7
  6
CONTINUOUS
 10
-103.2702127755
 20
0.9375000596
 11
-103.2063829958
 21
1.0312500596
  0
LINE
  5
2E2
100
AcDbEntity
  8
0
100
AcDbLine
 62
7
  6
CONTINUOUS
 10
-103.3659574449
 20
-0.4687500298
 11
-103.3021276653
 21
-0.3750000298
  0
LINE
  5
2E3
100
AcDbEntity
  8
0
100
AcDbLine
 62
7
  6
CONTINUOUS
 10
-102.7595744714
 20
0.2187500298
 11
-102.6957446806
 21
0.3124999404
  0
LINE
  5
2E4
100
AcDbEntity
  8
0
100
AcDbLine
 62
7
  6
CONTINUOUS
 10
-102.7914893612
 20
-0.9062499925
 11
-102.8553191409
 21
-0.9999999925
  0
LWPOLYLINE
  5
2E5
100
AcDbEntity
  8
RACCORDO
100
AcDbPolyline
 62
250
  6
CONTINUOUS
 90
14
 70
0
 10
-109.9734514553
 20
-13.145712392
 10
-109.9740151847
 20
-13.1465081922
 10
-109.9745733792
 20
-13.1483410869
 10
-109.975126039
 20
-13.1512153396
 10
-109.9756763896
 20
-13.1551381696
 10
-109.9762212055
 20
-13.1601006977
 10
-109.9767508091
 20
-13.1660608536
 10
-109.9772643952
 20
-13.1729845923
 10
-109.977762769
 20
-13.1808427005
 10
-109.9782386694
 20
-13.1895708571
 10
-109.978690732
 20
-13.19909761
 10
-109.9791203211
 20
-13.2093923231
 10
-109.9795242681
 20
-13.2204493805
 10
-109.9802553768
 20
-13.2446638522
  0
LINE
  5
2E6
100
AcDbEntity
  8
RACCORDO
100
AcDbLine
 62
250
  6
CONTINUOUS
 10
-103.9292495318
 20
20.4734133791
 11
-103.9652913529
 21
20.4373715581
  0
LINE
  5
2E7
100
AcDbEntity
  8
RACCORDO
100
AcDbLine
 62
250
  6
CONTINUOUS
 10
-103.679287608
 20
20.2234514553
 11
-103.7153294291
 21
20.1874096343
  0
LINE
  5
2E8
100
AcDbEntity
  8
RACCORDO
100
AcDbLine
 62
7
  6
CONTINUOUS
 10
-103.679287608
 20
19.9831296345
 11
-103.7210565216
 21
19.941360721
  0
LWPOLYLINE
  5
2E9
100
AcDbEntity
  8
RACCORDO
100
AcDbPolyline
 62
7
  6
CONTINUOUS
 90
3
 70
0
 10
-103.8154670759
 20
19.8469632867
 10
-103.9339624867
 20
19.7285524196
 10
-103.9712940041
 20
19.6911232385
  0
LWPOLYLINE
  5
2EA
100
AcDbEntity
  8
RACCORDO
100
AcDbPolyline
 62
7
  6
CONTINUOUS
 90
4
 70
0
 10
-109.6537581563
 20
-16.1365166613
 10
-109.6066315125
 20
-16.1810940084
 10
-109.5969632867
 20
-16.1904670759
 10
-109.5741339455
 20
-16.2132227628
  0
LINE
  5
2EB
100
AcDbEntity
  8
RACCORDO
100
AcDbLine
 62
7
  6
CONTINUOUS
 10
-109.460178821
 20
-16.3273662852
 11
-109.4411232385
 21
-16.3462940041
  0
LINE
  5
2EC
100
AcDbEntity
  8
RACCORDO
100
AcDbLine
 62
7
  6
CONTINUOUS
 10
-109.5296264316
 20
-16.2577952531
 11
-109.5132762249
 21
-16.274108027
  0
LWPOLYLINE
  5
2ED
100
AcDbEntity
  8
DRAFT
100
AcDbPolyline
 62
7
  6
CONTINUOUS
 90
11
 70
0
 10
-110.3079484028
 20
-5.7657109478
 10
-110.3120431217
 20
-5.7610228022
 10
-110.3160919575
 20
-5.7469943158
 10
-110.3201219575
 20
-5.7236827427
 10
-110.3241340984
 20
-5.6910279385
 10
-110.3281274034
 20
-5.6490900475
 10
-110.3320801067
 20
-5.598106151
 10
-110.3359900132
 20
-5.5380669171
 10
-110.339859318
 20
-5.4689816777
 10
-110.3436728412
 20
-5.3911155094
 10
-110.347432969
 20
-5.3043629232
  0
LINE
  5
2EE
100
AcDbEntity
  8
0
100
AcDbLine
 62
7
  6
CONTINUOUS
 10
-103.2702127755
 20
-1.0312500074
 11
-103.3659574449
 21
-0.9062499925
  0
LINE
  5
2EF
100
AcDbEntity
  8
0
100
AcDbLine
 62
7
  6
CONTINUOUS
 10
-103.3659574449
 20
1.0
 11
-103.4617021143
 21
1.1250000596
  0
LINE
  5
2F0
100
AcDbEntity
  8
0
100
AcDbLine
 62
7
  6
CONTINUOUS
 10
-103.8446808815
 20
0.3750000596
 11
-103.9085106611
 21
0.4687500596
  0
LINE
  5
2F1
100
AcDbEntity
  8
0
100
AcDbLine
 62
7
  6
CONTINUOUS
 10
-102.8553191409
 20
-0.3750000298
 11
-102.7914893612
 21
-0.4687500298
  0
LINE
  5
2F2
100
AcDbEntity
  8
0
100
AcDbLine
 62
7
  6
CONTINUOUS
 10
-102.6957446806
 20
1.0624999404
 11
-102.7595744714
 21
1.1562499404
  0
LINE
  5
2F3
100
AcDbEntity
  8
0
100
AcDbLine
 62
7
  6
CONTINUOUS
 10
-103.525531894
 20
-0.9375000074
 11
-103.4297872245
 21
-1.0937500037
  0
LINE
  5
2F4
100
AcDbEntity
  8
0
100
AcDbLine
 62
7
  6
CONTINUOUS
 10
-102.6319148926
 20
-0.4374999702
 11
-102.7276595704
 21
-0.2812500298
  0
LWPOLYLINE
  5
2F5
100
AcDbEntity
  8
DRAFT
100
AcDbPolyline
 62
7
  6
CONTINUOUS
 90
11
 70
0
 10
-99.2657109478
 20
20.5579484028
 10
-99.2610228022
 20
20.5620431217
 10
-99.2469943158
 20
20.5660919575
 10
-99.2236827427
 20
20.5701219575
 10
-99.1910279385
 20
20.5741340984
 10
-99.1490900475
 20
20.5781274034
 10
-99.098106151
 20
20.5820801067
 10
-99.0380669171
 20
20.5859900132
 10
-98.9689816777
 20
20.589859318
 10
-98.8911155094
 20
20.5936728412
 10
-98.8043629232
 20
20.597432969
  0
LWPOLYLINE
  5
2F6
100
AcDbEntity
  8
RACCORDO
100
AcDbPolyline
 62
7
  6
CONTINUOUS
 90
7
 70
0
 10
-103.7210566989
 20
19.9413605437
 10
-103.7211154274
 20
19.9413144641
 10
-103.7211991628
 20
19.9412684577
 10
-103.7213079052
 20
19.9412225242
 10
-103.7214416545
 20
19.9411766639
 10
-103.7216004108
 20
19.9411308765
 10
-103.721784174
 20
19.9410851623
  0
LWPOLYLINE
  5
2F7
100
AcDbEntity
  8
DRAFT
100
AcDbPolyline
 62
7
  6
CONTINUOUS
 90
13
 70
0
 10
-99.2657109478
 20
-20.5579484028
 10
-99.2610228022
 20
-20.5620431216
 10
-99.2469943158
 20
-20.5660919575
 10
-99.2236827427
 20
-20.5701219575
 10
-99.1910279385
 20
-20.5741340984
 10
-99.1490900475
 20
-20.5781274034
 10
-99.098106151
 20
-20.5820801067
 10
-99.0380669171
 20
-20.5859900132
 10
-98.9689816777
 20
-20.589859318
 10
-98.8911155094
 20
-20.5936728412
 10
-98.8043629232
 20
-20.597432969
 10
-98.7088294082
 20
-20.6011373153
 10
-98.4932196062
 20
-20.6083082314
  0
LWPOLYLINE
  5
2F8
100
AcDbEntity
  8
DRAFT
100
AcDbPolyline
 62
7
  6
CONTINUOUS
 90
11
 70
0
 10
-110.3079484028
 20
5.7657109478
 10
-110.3039454499
 20
5.7610228022
 10
-110.2998966141
 20
5.7469943158
 10
-110.295866614
 20
5.7236827427
 10
-110.2918544732
 20
5.6910279385
 10
-110.2878611682
 20
5.6490900475
 10
-110.2839084648
 20
5.598106151
 10
-110.2799985584
 20
5.5380669171
 10
-110.2761292536
 20
5.4689816777
 10
-110.2723157304
 20
5.3911155094
 10
-110.2685556026
 20
5.3043629232
  0
LINE
  5
2F9
100
AcDbEntity
  8
RACCORDO
100
AcDbLine
 62
250
  6
CONTINUOUS
 10
-110.1873715581
 20
-12.8597086471
 11
-110.2234133791
 21
-12.8957504682
  0
LINE
  5
2FA
100
AcDbEntity
  8
RACCORDO
100
AcDbLine
 62
250
  6
CONTINUOUS
 10
-109.9374096343
 20
-13.1096705709
 11
-109.9734514553
 21
-13.145712392
  0
LINE
  5
2FB
100
AcDbEntity
  8
RACCORDO
100
AcDbLine
 62
7
  6
CONTINUOUS
 10
-109.7331296345
 20
-13.145712392
 11
-109.6913605437
 21
-13.1039433011
  0
LINE
  5
2FC
100
AcDbEntity
  8
RACCORDO
100
AcDbLine
 62
7
  6
CONTINUOUS
 10
-109.4411232385
 20
-12.8537059959
 11
-109.597293333
 21
-13.0098480516
  0
LINE
  5
2FD
100
AcDbEntity
  8
0
100
AcDbLine
 62
7
  6
CONTINUOUS
 10
-103.8765957713
 20
1.1875
 11
-104.0042553306
 21
1.0624999404
  0
LINE
  5
2FE
100
AcDbEntity
  8
0
100
AcDbLine
 62
7
  6
CONTINUOUS
 10
-102.823404251
 20
0.3750000596
 11
-102.887234053
 21
0.3124999404
  0
LINE
  5
2FF
100
AcDbEntity
  8
RACCORDO
100
AcDbLine
 62
7
  6
CONTINUOUS
 10
-109.597293333
 20
-13.0098480516
 11
-109.6072352799
 21
-13.0194814651
  0
LWPOLYLINE
  5
300
100
AcDbEntity
  8
RACCORDO
100
AcDbPolyline
 62
7
  6
CONTINUOUS
 90
9
 70
0
 10
-109.654820443
 20
-13.0644981708
 10
-109.6628770728
 20
-13.0722657997
 10
-109.6700220089
 20
-13.0792620186
 10
-109.6761892915
 20
-13.0854349333
 10
-109.6813509654
 20
-13.0908364379
 10
-109.6854198155
 20
-13.0953290298
 10
-109.6883852882
 20
-13.0988668746
 10
-109.6902705921
 20
-13.1014958067
 10
-109.6910851623
 20
-13.103215826
  0
LWPOLYLINE
  5
301
100
AcDbEntity
  8
DRAFT
100
AcDbPolyline
 62
7
  6
CONTINUOUS
 90
12
 70
0
 10
-82.2657109478
 20
20.5579484028
 10
-82.2610228022
 20
20.5620431217
 10
-82.2469943158
 20
20.5660919575
 10
-82.2236827427
 20
20.5701219575
 10
-82.1910279385
 20
20.5741340984
 10
-82.1490900475
 20
20.5781274034
 10
-82.098106151
 20
20.5820801067
 10
-82.0380669171
 20
20.5859900132
 10
-81.9689816777
 20
20.589859318
 10
-81.8911155094
 20
20.5936728412
 10
-81.8043629232
 20
20.597432969
 10
-81.7088294082
 20
20.6011373153
  0
LWPOLYLINE
  5
302
100
AcDbEntity
  8
DRAFT
100
AcDbPolyline
 62
7
  6
CONTINUOUS
 90
11
 70
0
 10
-87.7342890522
 20
20.5579484028
 10
-87.7389771978
 20
20.5539454499
 10
-87.7530056842
 20
20.5498966141
 10
-87.7763172573
 20
20.545866614
 10
-87.8089720615
 20
20.5418544732
 10
-87.8509099525
 20
20.5378611682
 10
-87.901893849
 20
20.5339084648
 10
-87.9619330829
 20
20.5299985584
 10
-88.0310183223
 20
20.5261292536
 10
-88.1088844906
 20
20.5223157304
 10
-88.1956370768
 20
20.5185556026
  0
LWPOLYLINE
  5
303
100
AcDbEntity
  8
DRAFT
100
AcDbPolyline
 62
7
  6
CONTINUOUS
 90
13
 70
0
 10
-87.7342890522
 20
-20.5579484028
 10
-87.7389771978
 20
-20.5539454499
 10
-87.7530056842
 20
-20.5498966141
 10
-87.7763172573
 20
-20.545866614
 10
-87.8089720615
 20
-20.5418544732
 10
-87.8509099525
 20
-20.5378611682
 10
-87.901893849
 20
-20.5339084648
 10
-87.9619330829
 20
-20.5299985584
 10
-88.0310183223
 20
-20.5261292536
 10
-88.1088844906
 20
-20.5223157304
 10
-88.1956370768
 20
-20.5185556026
 10
-88.2911705918
 20
-20.5148512563
 10
-88.5067803938
 20
-20.5076803401
  0
LWPOLYLINE
  5
304
100
AcDbEntity
  8
DRAFT
100
AcDbPolyline
 62
7
  6
CONTINUOUS
 90
13
 70
0
 10
-82.2657109478
 20
-20.5579484028
 10
-82.2610228022
 20
-20.5620431216
 10
-82.2469943158
 20
-20.5660919575
 10
-82.2236827427
 20
-20.5701219575
 10
-82.1910279385
 20
-20.5741340984
 10
-82.1490900475
 20
-20.5781274034
 10
-82.098106151
 20
-20.5820801067
 10
-82.0380669171
 20
-20.5859900132
 10
-81.9689816777
 20
-20.589859318
 10
-81.8911155094
 20
-20.5936728412
 10
-81.8043629232
 20
-20.597432969
 10
-81.7088294082
 20
-20.6011373153
 10
-81.4932196062
 20
-20.6083082314
  0
LINE
  5
305
100
AcDbEntity
  8
0
100
AcDbLine
 62
7
  6
CONTINUOUS
 10
-104.0042553306
 20
0.3124999404
 11
-103.8765957713
 21
0.1874999702
  0
LINE
  5
306
100
AcDbEntity
  8
0
100
AcDbLine
 62
7
  6
CONTINUOUS
 10
-103.5574467838
 20
1.0
 11
-103.4936170042
 21
0.9375000596
  0
LINE
  5
307
100
AcDbEntity
  8
0
100
AcDbLine
 62
7
  6
CONTINUOUS
 10
-102.887234053
 20
1.0624999404
 11
-102.823404251
 21
1.0
  0
LINE
  5
308
100
AcDbEntity
  8
RACCORDO
100
AcDbLine
 62
7
  6
CONTINUOUS
 10
-109.6072352799
 20
-13.0194814651
 11
-109.654820443
 21
-13.0644981708
  0
LWPOLYLINE
  5
309
100
AcDbEntity
  8
DRAFT
100
AcDbPolyline
 62
7
  6
CONTINUOUS
 90
11
 70
0
 10
-70.7342890522
 20
20.5579484028
 10
-70.7389771978
 20
20.5539454499
 10
-70.7530056842
 20
20.5498966141
 10
-70.7763172573
 20
20.545866614
 10
-70.8089720615
 20
20.5418544732
 10
-70.8509099525
 20
20.5378611682
 10
-70.901893849
 20
20.5339084648
 10
-70.9619330829
 20
20.5299985584
 10
-71.0310183223
 20
20.5261292536
 10
-71.1088844906
 20
20.5223157304
 10
-71.1956370768
 20
20.5185556026
  0
LINE
  5
30A
100
AcDbEntity
  8
0
100
AcDbLine
 62
7
  6
CONTINUOUS
 10
-103.3021276653
 20
-0.1875000298
 11
-103.4297872245
 21
-0.2812500298
  0
LINE
  5
30B
100
AcDbEntity
  8
0
100
AcDbLine
 62
7
  6
CONTINUOUS
 10
-102.8553191409
 20
-1.1874999981
 11
-102.7276595704
 21
-1.0937500037
  0
LWPOLYLINE
  5
30C
100
AcDbEntity
  8
RACCORDO
100
AcDbPolyline
 62
7
  6
CONTINUOUS
 90
9
 70
0
 10
-103.721784174
 20
19.9410851623
 10
-103.7235204933
 20
19.9402540954
 10
-103.7262087652
 20
19.9383196741
 10
-103.7298489895
 20
19.9352639573
 10
-103.7345102259
 20
19.9310406415
 10
-103.7401234148
 20
19.9256606678
 10
-103.7464813776
 20
19.919270142
 10
-103.7536266325
 20
19.9119464336
 10
-103.7615166613
 20
19.9037581563
  0
LINE
  5
30D
100
AcDbEntity
  8
0
100
AcDbLine
 62
7
  6
CONTINUOUS
 10
-102.7276595704
 20
-0.2812500298
 11
-102.8553191409
 21
-0.1875000298
  0
LWPOLYLINE
  5
30E
100
AcDbEntity
  8
DRAFT
100
AcDbPolyline
 62
7
  6
CONTINUOUS
 90
13
 70
0
 10
-70.7342890522
 20
-20.5579484028
 10
-70.7389771978
 20
-20.5539454499
 10
-70.7530056842
 20
-20.5498966141
 10
-70.7763172573
 20
-20.545866614
 10
-70.8089720615
 20
-20.5418544732
 10
-70.8509099525
 20
-20.5378611682
 10
-70.901893849
 20
-20.5339084648
 10
-70.9619330829
 20
-20.5299985584
 10
-71.0310183223
 20
-20.5261292536
 10
-71.1088844906
 20
-20.5223157304
 10
-71.1956370768
 20
-20.5185556026
 10
-71.2911705918
 20
-20.5148512563
 10
-71.5067803938
 20
-20.5076803401
  0
LINE
  5
30F
100
AcDbEntity
  8
RACCORDO
100
AcDbLine
 62
7
  6
CONTINUOUS
 10
-100.6444814651
 20
19.8572352799
 11
-100.6894981708
 21
19.904820443
  0
LINE
  5
310
100
AcDbEntity
  8
0
100
AcDbLine
 62
7
  6
CONTINUOUS
 10
-103.8446808815
 20
1.0
 11
-103.7489362121
 21
1.0624999404
  0
LINE
  5
311
100
AcDbEntity
  8
0
100
AcDbLine
 62
7
  6
CONTINUOUS
 10
-103.2063829958
 20
1.2187500596
 11
-103.3021276653
 21
1.1562499404
  0
LINE
  5
312
100
AcDbEntity
  8
0
100
AcDbLine
 62
7
  6
CONTINUOUS
 10
-102.8553191409
 20
0.15625
 11
-102.7595744714
 21
0.2187500298
  0
LINE
  5
313
100
AcDbEntity
  8
0
100
AcDbLine
 62
7
  6
CONTINUOUS
 10
-103.3021276653
 20
-0.3750000298
 11
-103.2063829958
 21
-0.3125
  0
LWPOLYLINE
  5
314
100
AcDbEntity
  8
RACCORDO
100
AcDbPolyline
 62
250
  6
CONTINUOUS
 90
10
 70
0
 10
-109.9374096343
 20
-16.0903294291
 10
-109.9364078981
 20
-16.0906948478
 10
-109.9341887646
 20
-16.0910561686
 10
-109.9307522338
 20
-16.0914133914
 10
-109.9260775702
 20
-16.0917677864
 10
-109.9201855093
 20
-16.0921180834
 10
-109.9131382576
 20
-16.092460472
 10
-109.9049232028
 20
-16.0927948504
 10
-109.8955529572
 20
-16.0931213204
 10
-109.8736360156
 20
-16.0937398808
  0
LINE
  5
315
100
AcDbEntity
  8
0
100
AcDbLine
 62
7
  6
CONTINUOUS
 10
-102.9510638326
 20
-0.3125
 11
-102.8553191409
 21
-0.3750000298
  0
LINE
  5
316
100
AcDbEntity
  8
0
100
AcDbLine
 62
7
  6
CONTINUOUS
 10
-103.7489362121
 20
0.3124999404
 11
-103.8446808815
 21
0.3750000596
  0
LINE
  5
317
100
AcDbEntity
  8
0
100
AcDbLine
 62
7
  6
CONTINUOUS
 10
-103.4617021143
 20
1.1250000596
 11
-103.5574467838
 21
1.1875
  0
LINE
  5
318
100
AcDbEntity
  8
0
100
AcDbLine
 62
7
  6
CONTINUOUS
 10
-102.7595744714
 20
1.1562499404
 11
-102.8553191409
 21
1.2187500596
  0
LINE
  5
319
100
AcDbEntity
  8
RACCORDO
100
AcDbLine
 62
7
  6
CONTINUOUS
 10
-100.770712392
 20
19.9831296345
 11
-100.7289433011
 21
19.9413605437
  0
LINE
  5
31A
100
AcDbEntity
  8
RACCORDO
100
AcDbLine
 62
250
  6
CONTINUOUS
 10
-100.7346705709
 20
20.1874096343
 11
-100.770712392
 21
20.2234514553
  0
LINE
  5
31B
100
AcDbEntity
  8
RACCORDO
100
AcDbLine
 62
250
  6
CONTINUOUS
 10
-100.4847086471
 20
20.4373715581
 11
-100.5207504682
 21
20.4734133791
  0
LINE
  5
31C
100
AcDbEntity
  8
RACCORDO
100
AcDbLine
 62
7
  6
CONTINUOUS
 10
-100.4787059959
 20
19.6911232385
 11
-100.6348480516
 21
19.847293333
  0
LINE
  5
31D
100
AcDbEntity
  8
RACCORDO
100
AcDbLine
 62
7
  6
CONTINUOUS
 10
-100.6348480516
 20
19.847293333
 11
-100.6444814651
 21
19.8572352799
  0
LWPOLYLINE
  5
31E
100
AcDbEntity
  8
RACCORDO
100
AcDbPolyline
 62
7
  6
CONTINUOUS
 90
9
 70
0
 10
-100.6894981708
 20
19.904820443
 10
-100.6972657997
 20
19.9128770728
 10
-100.7042620186
 20
19.9200220089
 10
-100.7104349333
 20
19.9261892915
 10
-100.7158364379
 20
19.9313509654
 10
-100.7203290298
 20
19.9354198155
 10
-100.7238668746
 20
19.9383852882
 10
-100.7264958067
 20
19.9402705921
 10
-100.728215826
 20
19.9410851623
  0
LINE
  5
31F
100
AcDbEntity
  8
0
100
AcDbLine
 62
7
  6
CONTINUOUS
 10
-103.2063829958
 20
1.0312500596
 11
-103.0787233919
 21
1.09375
  0
LINE
  5
320
100
AcDbEntity
  8
0
100
AcDbLine
 62
7
  6
CONTINUOUS
 10
-102.887234053
 20
0.3124999404
 11
-102.9510638326
 21
0.2812500596
  0
LINE
  5
321
100
AcDbEntity
  8
0
100
AcDbLine
 62
7
  6
CONTINUOUS
 10
-102.8553191409
 20
-0.9999999925
 11
-102.9829787225
 21
-1.0625
  0
LINE
  5
322
100
AcDbEntity
  8
0
100
AcDbLine
 62
7
  6
CONTINUOUS
 10
-102.9829787225
 20
-1.25
 11
-102.8553191409
 21
-1.1874999981
  0
LINE
  5
323
100
AcDbEntity
  8
0
100
AcDbLine
 62
7
  6
CONTINUOUS
 10
-103.685106343
 20
1.0624999404
 11
-103.5574467838
 21
1.0
  0
LINE
  5
324
100
AcDbEntity
  8
0
100
AcDbLine
 62
7
  6
CONTINUOUS
 10
-102.9510638326
 20
1.09375
 11
-102.887234053
 21
1.0624999404
  0
LINE
  5
325
100
AcDbEntity
  8
0
100
AcDbLine
 62
7
  6
CONTINUOUS
 10
-103.1425531715
 20
-0.125
 11
-103.3021276653
 21
-0.1875000298
  0
LWPOLYLINE
  5
326
100
AcDbEntity
  8
RACCORDO
100
AcDbPolyline
 62
250
  6
CONTINUOUS
 90
8
 70
0
 10
-110.1873715581
 20
-16.3402913529
 10
-110.1857802154
 20
-16.3406438928
 10
-110.1822125196
 20
-16.3409927394
 10
-110.1766781838
 20
-16.3413378925
 10
-110.1691928693
 20
-16.3416804937
 10
-110.1597796131
 20
-16.3420194015
 10
-110.1484700677
 20
-16.342351191
 10
-110.1203154362
 20
-16.3429932464
  0
LINE
  5
327
100
AcDbEntity
  8
0
100
AcDbLine
 62
7
  6
CONTINUOUS
 10
-102.8553191409
 20
-0.1875000298
 11
-103.0148936123
 21
-0.125
  0
LWPOLYLINE
  5
328
100
AcDbEntity
  8
RACCORDO
100
AcDbPolyline
 62
250
  6
CONTINUOUS
 90
15
 70
0
 10
-100.770712392
 20
20.2234514553
 10
-100.7715081922
 20
20.2240151847
 10
-100.7733410869
 20
20.2245733792
 10
-100.7762153396
 20
20.225126039
 10
-100.7801381696
 20
20.2256763896
 10
-100.7851006977
 20
20.2262212055
 10
-100.7910608536
 20
20.2267508091
 10
-100.7979845923
 20
20.2272643952
 10
-100.8058427005
 20
20.227762769
 10
-100.8145708571
 20
20.2282386694
 10
-100.82409761
 20
20.228690732
 10
-100.8343923231
 20
20.2291203211
 10
-100.8454493805
 20
20.2295242681
 10
-100.8572227313
 20
20.2299026435
 10
-100.8827767744
 20
20.2305790885
  0
LINE
  5
329
100
AcDbEntity
  8
0
100
AcDbLine
 62
7
  6
CONTINUOUS
 10
-102.9510638326
 20
0.1250000298
 11
-102.8553191409
 21
0.15625
  0
LINE
  5
32A
100
AcDbEntity
  8
0
100
AcDbLine
 62
7
  6
CONTINUOUS
 10
-103.2063829958
 20
-0.3125
 11
-103.1106382817
 21
-0.2812500298
  0
LINE
  5
32B
100
AcDbEntity
  8
0
100
AcDbLine
 62
7
  6
CONTINUOUS
 10
-103.0468085021
 20
-0.2812500298
 11
-102.9510638326
 21
-0.3125
  0
LINE
  5
32C
100
AcDbEntity
  8
0
100
AcDbLine
 62
7
  6
CONTINUOUS
 10
-102.8553191409
 20
1.2187500596
 11
-102.9510638326
 21
1.2499999404
  0
LWPOLYLINE
  5
32D
100
AcDbEntity
  8
0
100
AcDbPolyline
 62
7
  6
CONTINUOUS
 90
11
 70
0
 10
98.8043629232
 20
-20.597432969
 10
98.8911155094
 20
-20.5936728412
 10
98.9689816777
 20
-20.589859318
 10
99.0380669171
 20
-20.5859900132
 10
99.098106151
 20
-20.5820801067
 10
99.1490900475
 20
-20.5781274034
 10
99.1910279385
 20
-20.5741340984
 10
99.2236827427
 20
-20.5701219575
 10
99.2469943158
 20
-20.5660919575
 10
99.2610228022
 20
-20.5620431216
 10
99.2657109478
 20
-20.5579484028
  0
LWPOLYLINE
  5
32E
100
AcDbEntity
  8
0
100
AcDbPolyline
 62
7
  6
CONTINUOUS
 90
11
 70
0
 10
88.1956370768
 20
-20.5185556026
 10
88.1088844906
 20
-20.5223157304
 10
88.0310183223
 20
-20.5261292536
 10
87.9619330829
 20
-20.5299985584
 10
87.901893849
 20
-20.5339084648
 10
87.8509099525
 20
-20.5378611682
 10
87.8089720615
 20
-20.5418544732
 10
87.7763172573
 20
-20.545866614
 10
87.7530056842
 20
-20.5498966141
 10
87.7389771978
 20
-20.5539454499
 10
87.7342890522
 20
-20.5579484028
  0
LWPOLYLINE
  5
32F
100
AcDbEntity
  8
0
100
AcDbPolyline
 62
7
  6
CONTINUOUS
 90
11
 70
0
 10
81.8043629232
 20
-20.597432969
 10
81.8911155094
 20
-20.5936728412
 10
81.9689816777
 20
-20.589859318
 10
82.0380669171
 20
-20.5859900132
 10
82.098106151
 20
-20.5820801067
 10
82.1490900475
 20
-20.5781274034
 10
82.1910279385
 20
-20.5741340984
 10
82.2236827427
 20
-20.5701219575
 10
82.2469943158
 20
-20.5660919575
 10
82.2610228022
 20
-20.5620431216
 10
82.2657109478
 20
-20.5579484028
  0
LWPOLYLINE
  5
330
100
AcDbEntity
  8
0
100
AcDbPolyline
 62
7
  6
CONTINUOUS
 90
11
 70
0
 10
71.1956370768
 20
-20.5185556026
 10
71.1088844906
 20
-20.5223157304
 10
71.0310183223
 20
-20.5261292536
 10
70.9619330829
 20
-20.5299985584
 10
70.901893849
 20
-20.5339084648
 10
70.8509099525
 20
-20.5378611682
 10
70.8089720615
 20
-20.5418544732
 10
70.7763172573
 20
-20.545866614
 10
70.7530056842
 20
-20.5498966141
 10
70.7389771978
 20
-20.5539454499
 10
70.7342890522
 20
-20.5579484028
  0
LWPOLYLINE
  5
331
100
AcDbEntity
  8
RACCORDO
100
AcDbPolyline
 62
250
  6
CONTINUOUS
 90
8
 70
0
 10
103.8747306003
 20
-20.4772257956
 10
103.8885755774
 20
-20.4767120813
 10
103.9004450002
 20
-20.4761824802
 10
103.9103856087
 20
-20.475637755
 10
103.9182510059
 20
-20.4750875207
 10
103.9239923926
 20
-20.4745349825
 10
103.9276585679
 20
-20.4739769353
 10
103.9292495318
 20
-20.4734133791
  0
LWPOLYLINE
  5
332
100
AcDbEntity
  8
RACCORDO
100
AcDbPolyline
 62
250
  6
CONTINUOUS
 90
13
 70
0
 10
103.6045506195
 20
-20.229524268
 10
103.6156076769
 20
-20.2291203211
 10
103.62590239
 20
-20.2286907321
 10
103.6354291429
 20
-20.2282386696
 10
103.6441572995
 20
-20.2277627691
 10
103.6520154077
 20
-20.2272643949
 10
103.6589391464
 20
-20.2267508087
 10
103.6648993023
 20
-20.2262212054
 10
103.6698618304
 20
-20.2256763899
 10
103.6737846604
 20
-20.2251260395
 10
103.6766589131
 20
-20.2245733798
 10
103.6784918078
 20
-20.2240151851
 10
103.679287608
 20
-20.2234514553
  0
LINE
  5
333
100
AcDbEntity
  8
0
100
AcDbLine
 62
7
  6
CONTINUOUS
 10
98.6050965072
 20
-20.6047635419
 11
98.8043629232
 21
-20.597432969
  0
LINE
  5
334
100
AcDbEntity
  8
0
100
AcDbLine
 62
7
  6
CONTINUOUS
 10
88.3949034928
 20
-20.5112250296
 11
88.1956370768
 21
-20.5185556026
  0
LINE
  5
335
100
AcDbEntity
  8
0
100
AcDbLine
 62
7
  6
CONTINUOUS
 10
81.6050965072
 20
-20.6047635419
 11
81.8043629232
 21
-20.597432969
  0
LINE
  5
336
100
AcDbEntity
  8
0
100
AcDbLine
 62
7
  6
CONTINUOUS
 10
71.3949034928
 20
-20.5112250296
 11
71.1956370768
 21
-20.5185556026
  0
LINE
  5
337
100
AcDbEntity
  8
0
100
AcDbLine
 62
7
  6
CONTINUOUS
 10
98.3731433194
 20
-20.6117748014
 11
98.6050965072
 21
-20.6047635419
  0
LINE
  5
338
100
AcDbEntity
  8
0
100
AcDbLine
 62
7
  6
CONTINUOUS
 10
88.6268566806
 20
-20.5042137702
 11
88.3949034928
 21
-20.5112250296
  0
LINE
  5
339
100
AcDbEntity
  8
0
100
AcDbLine
 62
7
  6
CONTINUOUS
 10
81.3731433194
 20
-20.6117748014
 11
81.6050965072
 21
-20.6047635419
  0
LINE
  5
33A
100
AcDbEntity
  8
0
100
AcDbLine
 62
7
  6
CONTINUOUS
 10
71.6268566806
 20
-20.5042137702
 11
71.3949034928
 21
-20.5112250296
  0
LINE
  5
33B
100
AcDbEntity
  8
RACCORDO
100
AcDbLine
 62
250
  6
CONTINUOUS
 10
103.5803361478
 20
-20.2302553768
 11
103.6045506195
 21
-20.229524268
  0
LINE
  5
33C
100
AcDbEntity
  8
RACCORDO
100
AcDbLine
 62
250
  6
CONTINUOUS
 10
103.8415408205
 20
-20.4782005241
 11
103.8747306003
 21
-20.4772257956
  0
LINE
  5
33D
100
AcDbEntity
  8
0
100
AcDbLine
 62
7
  6
CONTINUOUS
 10
98.1094740391
 20
-20.6184400364
 11
98.3731433194
 21
-20.6117748014
  0
LINE
  5
33E
100
AcDbEntity
  8
0
100
AcDbLine
 62
7
  6
CONTINUOUS
 10
88.8905259609
 20
-20.4975485352
 11
88.6268566806
 21
-20.5042137702
  0
LINE
  5
33F
100
AcDbEntity
  8
0
100
AcDbLine
 62
7
  6
CONTINUOUS
 10
81.1094740391
 20
-20.6184400364
 11
81.3731433194
 21
-20.6117748014
  0
LINE
  5
340
100
AcDbEntity
  8
0
100
AcDbLine
 62
7
  6
CONTINUOUS
 10
71.8905259609
 20
-20.4975485352
 11
71.6268566806
 21
-20.5042137702
  0
LINE
  5
341
100
AcDbEntity
  8
RACCORDO
100
AcDbLine
 62
250
  6
CONTINUOUS
 10
103.5534563767
 20
-20.2308742108
 11
103.5803361478
 21
-20.2302553768
  0
LINE
  5
342
100
AcDbEntity
  8
RACCORDO
100
AcDbLine
 62
250
  6
CONTINUOUS
 10
103.8018328633
 20
-20.4790827341
 11
103.8415408205
 21
-20.4782005241
  0
LINE
  5
343
100
AcDbEntity
  8
0
100
AcDbLine
 62
7
  6
CONTINUOUS
 10
97.8154135568
 20
-20.624726947
 11
98.1094740391
 21
-20.6184400364
  0
LINE
  5
344
100
AcDbEntity
  8
0
100
AcDbLine
 62
7
  6
CONTINUOUS
 10
89.1845864432
 20
-20.4912616246
 11
88.8905259609
 21
-20.4975485352
  0
LINE
  5
345
100
AcDbEntity
  8
0
100
AcDbLine
 62
7
  6
CONTINUOUS
 10
80.8154135568
 20
-20.624726947
 11
81.1094740391
 21
-20.6184400364
  0
LINE
  5
346
100
AcDbEntity
  8
0
100
AcDbLine
 62
7
  6
CONTINUOUS
 10
72.1845864432
 20
-20.4912616246
 11
71.8905259609
 21
-20.4975485352
  0
LINE
  5
347
100
AcDbEntity
  8
0
100
AcDbLine
 62
7
  6
CONTINUOUS
 10
97.3236736235
 20
-20.6333089517
 11
97.8154135568
 21
-20.624726947
  0
LINE
  5
348
100
AcDbEntity
  8
0
100
AcDbLine
 62
7
  6
CONTINUOUS
 10
80.3236736235
 20
-20.6333089517
 11
80.8154135568
 21
-20.624726947
  0
LINE
  5
349
100
AcDbEntity
  8
0
100
AcDbLine
 62
7
  6
CONTINUOUS
 10
89.6763263765
 20
-20.4826796199
 11
89.1845864432
 21
-20.4912616246
  0
LWPOLYLINE
  5
34A
100
AcDbEntity
  8
0
100
AcDbPolyline
 62
7
  6
CONTINUOUS
 90
3
 70
0
 10
72.8532780035
 20
-20.4800536328
 10
72.6763263765
 20
-20.4826796199
 10
72.1845864432
 20
-20.4912616246
  0
LINE
  5
34B
100
AcDbEntity
  8
RACCORDO
100
AcDbLine
 62
250
  6
CONTINUOUS
 10
103.7312338817
 20
-20.4802181687
 11
103.8018328633
 21
-20.4790827341
  0
LWPOLYLINE
  5
34C
100
AcDbEntity
  8
RACCORDO
100
AcDbPolyline
 62
250
  6
CONTINUOUS
 90
3
 70
0
 10
103.5090079906
 20
-20.2315707262
 10
103.5242818622
 20
-20.2313727134
 10
103.5534563767
 20
-20.2308742108
  0
LINE
  5
34D
100
AcDbEntity
  8
0
100
AcDbLine
 62
7
  6
CONTINUOUS
 10
96.7749964673
 20
-20.6408111087
 11
97.3236736235
 21
-20.6333089517
  0
LINE
  5
34E
100
AcDbEntity
  8
0
100
AcDbLine
 62
7
  6
CONTINUOUS
 10
79.7749964673
 20
-20.6408111087
 11
80.3236736235
 21
-20.6333089517
  0
LWPOLYLINE
  5
34F
100
AcDbEntity
  8
0
100
AcDbPolyline
 62
7
  6
CONTINUOUS
 90
3
 70
0
 10
90.4184668084
 20
-20.4729459947
 10
90.2250035327
 20
-20.4751774629
 10
89.6763263765
 20
-20.4826796199
  0
LINE
  5
350
100
AcDbEntity
  8
RACCORDO
100
AcDbLine
 62
250
  6
CONTINUOUS
 10
103.6775096692
 20
-20.4808369438
 11
103.7312338817
 21
-20.4802181687
  0
LINE
  5
351
100
AcDbEntity
  8
0
100
AcDbLine
 62
7
  6
CONTINUOUS
 10
79.3829003571
 20
-20.6451382069
 11
79.7749964673
 21
-20.6408111087
  0
LWPOLYLINE
  5
352
100
AcDbEntity
  8
0
100
AcDbPolyline
 62
7
  6
CONTINUOUS
 90
3
 70
0
 10
95.9720183205
 20
-20.6489010719
 10
96.1797932811
 20
-20.6470907226
 10
96.7749964673
 20
-20.6408111087
  0
LINE
  5
353
100
AcDbEntity
  8
DRAFT
100
AcDbLine
 62
7
  6
CONTINUOUS
 10
-96.5815331916
 20
-20.6430425769
 11
-95.9720183205
 21
-20.6489010719
  0
LINE
  5
354
100
AcDbEntity
  8
DRAFT
100
AcDbLine
 62
7
  6
CONTINUOUS
 10
-79.9634440113
 20
-20.6384409428
 11
-79.3829003571
 21
-20.6451382069
  0
LINE
  5
355
100
AcDbEntity
  8
DRAFT
100
AcDbLine
 62
7
  6
CONTINUOUS
 10
-97.1467219965
 20
-20.6359349388
 11
-96.5815331916
 21
-20.6430425769
  0
LINE
  5
356
100
AcDbEntity
  8
DRAFT
100
AcDbLine
 62
7
  6
CONTINUOUS
 10
-89.8532780035
 20
-20.4800536328
 11
-90.4184668084
 21
-20.4729459947
  0
LINE
  5
357
100
AcDbEntity
  8
DRAFT
100
AcDbLine
 62
7
  6
CONTINUOUS
 10
-80.4940960051
 20
-20.6305650787
 11
-79.9634440113
 21
-20.6384409428
  0
LINE
  5
358
100
AcDbEntity
  8
DRAFT
100
AcDbLine
 62
7
  6
CONTINUOUS
 10
-97.6581920286
 20
-20.6277012226
 11
-97.1467219965
 21
-20.6359349388
  0
LINE
  5
359
100
AcDbEntity
  8
DRAFT
100
AcDbLine
 62
7
  6
CONTINUOUS
 10
-89.3418079714
 20
-20.488287349
 11
-89.8532780035
 21
-20.4800536328
  0
LINE
  5
35A
100
AcDbEntity
  8
DRAFT
100
AcDbLine
 62
7
  6
CONTINUOUS
 10
-72.3418079714
 20
-20.488287349
 11
-72.8532780035
 21
-20.4800536328
  0
LINE
  5
35B
100
AcDbEntity
  8
DRAFT
100
AcDbLine
 62
7
  6
CONTINUOUS
 10
-97.9658810456
 20
-20.6216387014
 11
-97.6581920286
 21
-20.6277012226
  0
LINE
  5
35C
100
AcDbEntity
  8
DRAFT
100
AcDbLine
 62
7
  6
CONTINUOUS
 10
-89.0341189544
 20
-20.4943498701
 11
-89.3418079714
 21
-20.488287349
  0
LINE
  5
35D
100
AcDbEntity
  8
DRAFT
100
AcDbLine
 62
7
  6
CONTINUOUS
 10
-80.9658810456
 20
-20.6216387014
 11
-80.4940960051
 21
-20.6305650787
  0
LINE
  5
35E
100
AcDbEntity
  8
DRAFT
100
AcDbLine
 62
7
  6
CONTINUOUS
 10
-72.0341189544
 20
-20.4943498701
 11
-72.3418079714
 21
-20.488287349
  0
LINE
  5
35F
100
AcDbEntity
  8
DRAFT
100
AcDbLine
 62
7
  6
CONTINUOUS
 10
-98.2452830325
 20
-20.6151511664
 11
-97.9658810456
 21
-20.6216387014
  0
LINE
  5
360
100
AcDbEntity
  8
DRAFT
100
AcDbLine
 62
7
  6
CONTINUOUS
 10
-88.7547169675
 20
-20.5008374052
 11
-89.0341189544
 21
-20.4943498701
  0
LINE
  5
361
100
AcDbEntity
  8
DRAFT
100
AcDbLine
 62
7
  6
CONTINUOUS
 10
-81.2452830325
 20
-20.6151511664
 11
-80.9658810456
 21
-20.6216387014
  0
LINE
  5
362
100
AcDbEntity
  8
DRAFT
100
AcDbLine
 62
7
  6
CONTINUOUS
 10
-71.7547169675
 20
-20.5008374052
 11
-72.0341189544
 21
-20.4943498701
  0
LINE
  5
363
100
AcDbEntity
  8
DRAFT
100
AcDbLine
 62
7
  6
CONTINUOUS
 10
-98.4932196062
 20
-20.6083082314
 11
-98.2452830325
 21
-20.6151511664
  0
LINE
  5
364
100
AcDbEntity
  8
DRAFT
100
AcDbLine
 62
7
  6
CONTINUOUS
 10
-88.5067803938
 20
-20.5076803401
 11
-88.7547169675
 21
-20.5008374052
  0
LINE
  5
365
100
AcDbEntity
  8
DRAFT
100
AcDbLine
 62
7
  6
CONTINUOUS
 10
-81.4932196062
 20
-20.6083082314
 11
-81.2452830325
 21
-20.6151511664
  0
LINE
  5
366
100
AcDbEntity
  8
DRAFT
100
AcDbLine
 62
7
  6
CONTINUOUS
 10
-71.5067803938
 20
-20.5076803401
 11
-71.7547169675
 21
-20.5008374052
  0
LINE
  5
367
100
AcDbEntity
  8
0
100
AcDbLine
 62
7
  6
CONTINUOUS
 10
-103.8765957713
 20
0.1874999702
 11
-103.7489362121
 21
0.15625
  0
LINE
  5
368
100
AcDbEntity
  8
0
100
AcDbLine
 62
7
  6
CONTINUOUS
 10
-103.5574467838
 20
1.1875
 11
-103.685106343
 21
1.2187500596
  0
LINE
  5
369
100
AcDbEntity
  8
0
100
AcDbLine
 62
7
  6
CONTINUOUS
 10
-9.05
 20
19.85
 11
-8.9124379963
 21
19.9875620037
  0
LWPOLYLINE
  5
36A
100
AcDbEntity
  8
DRAFT
100
AcDbPolyline
 62
7
  6
CONTINUOUS
 90
11
 70
0
 10
-5.7657109478
 20
20.5579484028
 10
-5.7610228022
 20
20.5620431217
 10
-5.7469943158
 20
20.5660919575
 10
-5.7236827427
 20
20.5701219575
 10
-5.6910279385
 20
20.5741340984
 10
-5.6490900475
 20
20.5781274034
 10
-5.598106151
 20
20.5820801067
 10
-5.5380669171
 20
20.5859900132
 10
-5.4689816777
 20
20.589859318
 10
-5.3911155094
 20
20.5936728412
 10
-5.3043629232
 20
20.597432969
  0
LWPOLYLINE
  5
36B
100
AcDbEntity
  8
DRAFT
100
AcDbPolyline
 62
7
  6
CONTINUOUS
 90
11
 70
0
 10
5.3043629232
 20
-20.597432969
 10
5.3911155094
 20
-20.5936728412
 10
5.4689816777
 20
-20.589859318
 10
5.5380669171
 20
-20.5859900132
 10
5.598106151
 20
-20.5820801067
 10
5.6490900475
 20
-20.5781274034
 10
5.6910279385
 20
-20.5741340984
 10
5.7236827427
 20
-20.5701219575
 10
5.7469943158
 20
-20.5660919575
 10
5.7610228022
 20
-20.5620431216
 10
5.7657109478
 20
-20.5579484028
  0
LWPOLYLINE
  5
36C
100
AcDbEntity
  8
DRAFT
100
AcDbPolyline
 62
7
  6
CONTINUOUS
 90
11
 70
0
 10
-5.3043629232
 20
-20.5185556026
 10
-5.3911155094
 20
-20.5223157304
 10
-5.4689816777
 20
-20.5261292536
 10
-5.5380669171
 20
-20.5299985584
 10
-5.598106151
 20
-20.5339084648
 10
-5.6490900475
 20
-20.5378611682
 10
-5.6910279385
 20
-20.5418544732
 10
-5.7236827427
 20
-20.545866614
 10
-5.7469943158
 20
-20.5498966141
 10
-5.7610228022
 20
-20.5539454499
 10
-5.7657109478
 20
-20.5579484028
  0
LWPOLYLINE
  5
36D
100
AcDbEntity
  8
DRAFT
100
AcDbPolyline
 62
7
  6
CONTINUOUS
 90
11
 70
0
 10
-71.1956370768
 20
-20.597432969
 10
-71.1088844906
 20
-20.5936728412
 10
-71.0310183223
 20
-20.589859318
 10
-70.9619330829
 20
-20.5859900132
 10
-70.901893849
 20
-20.5820801067
 10
-70.8509099525
 20
-20.5781274034
 10
-70.8089720615
 20
-20.5741340984
 10
-70.7763172573
 20
-20.5701219575
 10
-70.7530056842
 20
-20.5660919575
 10
-70.7389771978
 20
-20.5620431216
 10
-70.7342890522
 20
-20.5579484028
  0
LWPOLYLINE
  5
36E
100
AcDbEntity
  8
DRAFT
100
AcDbPolyline
 62
7
  6
CONTINUOUS
 90
11
 70
0
 10
-81.8043629232
 20
-20.5185556026
 10
-81.8911155094
 20
-20.5223157304
 10
-81.9689816777
 20
-20.5261292536
 10
-82.0380669171
 20
-20.5299985584
 10
-82.098106151
 20
-20.5339084648
 10
-82.1490900475
 20
-20.5378611682
 10
-82.1910279385
 20
-20.5418544732
 10
-82.2236827427
 20
-20.545866614
 10
-82.2469943158
 20
-20.5498966141
 10
-82.2610228022
 20
-20.5539454499
 10
-82.2657109478
 20
-20.5579484028
  0
LWPOLYLINE
  5
36F
100
AcDbEntity
  8
DRAFT
100
AcDbPolyline
 62
7
  6
CONTINUOUS
 90
11
 70
0
 10
-88.1956370768
 20
-20.597432969
 10
-88.1088844906
 20
-20.5936728412
 10
-88.0310183223
 20
-20.589859318
 10
-87.9619330829
 20
-20.5859900132
 10
-87.901893849
 20
-20.5820801067
 10
-87.8509099525
 20
-20.5781274034
 10
-87.8089720615
 20
-20.5741340984
 10
-87.7763172573
 20
-20.5701219575
 10
-87.7530056842
 20
-20.5660919575
 10
-87.7389771978
 20
-20.5620431216
 10
-87.7342890522
 20
-20.5579484028
  0
LWPOLYLINE
  5
370
100
AcDbEntity
  8
DRAFT
100
AcDbPolyline
 62
7
  6
CONTINUOUS
 90
11
 70
0
 10
-98.8043629232
 20
-20.5185556026
 10
-98.8911155094
 20
-20.5223157304
 10
-98.9689816777
 20
-20.5261292536
 10
-99.0380669171
 20
-20.5299985584
 10
-99.098106151
 20
-20.5339084648
 10
-99.1490900475
 20
-20.5378611682
 10
-99.1910279385
 20
-20.5418544732
 10
-99.2236827427
 20
-20.545866614
 10
-99.2469943158
 20
-20.5498966141
 10
-99.2610228022
 20
-20.5539454499
 10
-99.2657109478
 20
-20.5579484028
  0
LINE
  5
371
100
AcDbEntity
  8
DRAFT
100
AcDbLine
 62
7
  6
CONTINUOUS
 10
5.1050965072
 20
-20.6047635419
 11
5.3043629232
 21
-20.597432969
  0
LINE
  5
372
100
AcDbEntity
  8
DRAFT
100
AcDbLine
 62
7
  6
CONTINUOUS
 10
-5.1050965072
 20
-20.5112250296
 11
-5.3043629232
 21
-20.5185556026
  0
LINE
  5
373
100
AcDbEntity
  8
DRAFT
100
AcDbLine
 62
7
  6
CONTINUOUS
 10
-71.3949034928
 20
-20.6047635419
 11
-71.1956370768
 21
-20.597432969
  0
LINE
  5
374
100
AcDbEntity
  8
DRAFT
100
AcDbLine
 62
7
  6
CONTINUOUS
 10
-81.6050965072
 20
-20.5112250296
 11
-81.8043629232
 21
-20.5185556026
  0
LINE
  5
375
100
AcDbEntity
  8
DRAFT
100
AcDbLine
 62
7
  6
CONTINUOUS
 10
-88.3949034928
 20
-20.6047635419
 11
-88.1956370768
 21
-20.597432969
  0
LINE
  5
376
100
AcDbEntity
  8
DRAFT
100
AcDbLine
 62
7
  6
CONTINUOUS
 10
-98.6050965072
 20
-20.5112250296
 11
-98.8043629232
 21
-20.5185556026
  0
LINE
  5
377
100
AcDbEntity
  8
DRAFT
100
AcDbLine
 62
7
  6
CONTINUOUS
 10
4.8731433194
 20
-20.6117748014
 11
5.1050965072
 21
-20.6047635419
  0
LINE
  5
378
100
AcDbEntity
  8
DRAFT
100
AcDbLine
 62
7
  6
CONTINUOUS
 10
-4.8731433194
 20
-20.5042137702
 11
-5.1050965072
 21
-20.5112250296
  0
LINE
  5
379
100
AcDbEntity
  8
DRAFT
100
AcDbLine
 62
7
  6
CONTINUOUS
 10
-71.6268566806
 20
-20.6117748014
 11
-71.3949034928
 21
-20.6047635419
  0
LINE
  5
37A
100
AcDbEntity
  8
DRAFT
100
AcDbLine
 62
7
  6
CONTINUOUS
 10
-81.3731433194
 20
-20.5042137702
 11
-81.6050965072
 21
-20.5112250296
  0
LINE
  5
37B
100
AcDbEntity
  8
DRAFT
100
AcDbLine
 62
7
  6
CONTINUOUS
 10
-88.6268566806
 20
-20.6117748014
 11
-88.3949034928
 21
-20.6047635419
  0
LINE
  5
37C
100
AcDbEntity
  8
DRAFT
100
AcDbLine
 62
7
  6
CONTINUOUS
 10
-98.3731433194
 20
-20.5042137702
 11
-98.6050965072
 21
-20.5112250296
  0
LINE
  5
37D
100
AcDbEntity
  8
DRAFT
100
AcDbLine
 62
7
  6
CONTINUOUS
 10
4.6094740391
 20
-20.6184400364
 11
4.8731433194
 21
-20.6117748014
  0
LINE
  5
37E
100
AcDbEntity
  8
DRAFT
100
AcDbLine
 62
7
  6
CONTINUOUS
 10
-4.6094740391
 20
-20.4975485352
 11
-4.8731433194
 21
-20.5042137702
  0
LINE
  5
37F
100
AcDbEntity
  8
DRAFT
100
AcDbLine
 62
7
  6
CONTINUOUS
 10
-71.8905259609
 20
-20.6184400364
 11
-71.6268566806
 21
-20.6117748014
  0
LINE
  5
380
100
AcDbEntity
  8
DRAFT
100
AcDbLine
 62
7
  6
CONTINUOUS
 10
-81.1094740391
 20
-20.4975485352
 11
-81.3731433194
 21
-20.5042137702
  0
LINE
  5
381
100
AcDbEntity
  8
DRAFT
100
AcDbLine
 62
7
  6
CONTINUOUS
 10
-88.8905259609
 20
-20.6184400364
 11
-88.6268566806
 21
-20.6117748014
  0
LINE
  5
382
100
AcDbEntity
  8
DRAFT
100
AcDbLine
 62
7
  6
CONTINUOUS
 10
-98.1094740391
 20
-20.4975485352
 11
-98.3731433194
 21
-20.5042137702
  0
LINE
  5
383
100
AcDbEntity
  8
DRAFT
100
AcDbLine
 62
7
  6
CONTINUOUS
 10
4.3154135568
 20
-20.624726947
 11
4.6094740391
 21
-20.6184400364
  0
LINE
  5
384
100
AcDbEntity
  8
DRAFT
100
AcDbLine
 62
7
  6
CONTINUOUS
 10
-4.3154135568
 20
-20.4912616246
 11
-4.6094740391
 21
-20.4975485352
  0
LINE
  5
385
100
AcDbEntity
  8
DRAFT
100
AcDbLine
 62
7
  6
CONTINUOUS
 10
-72.1845864432
 20
-20.624726947
 11
-71.8905259609
 21
-20.6184400364
  0
LINE
  5
386
100
AcDbEntity
  8
DRAFT
100
AcDbLine
 62
7
  6
CONTINUOUS
 10
-80.8154135568
 20
-20.4912616246
 11
-81.1094740391
 21
-20.4975485352
  0
LINE
  5
387
100
AcDbEntity
  8
DRAFT
100
AcDbLine
 62
7
  6
CONTINUOUS
 10
-89.1845864432
 20
-20.624726947
 11
-88.8905259609
 21
-20.6184400364
  0
LINE
  5
388
100
AcDbEntity
  8
DRAFT
100
AcDbLine
 62
7
  6
CONTINUOUS
 10
-97.8154135568
 20
-20.4912616246
 11
-98.1094740391
 21
-20.4975485352
  0
LINE
  5
389
100
AcDbEntity
  8
DRAFT
100
AcDbLine
 62
7
  6
CONTINUOUS
 10
3.8236736235
 20
-20.6333089517
 11
4.3154135568
 21
-20.624726947
  0
LINE
  5
38A
100
AcDbEntity
  8
DRAFT
100
AcDbLine
 62
7
  6
CONTINUOUS
 10
-3.8236736235
 20
-20.4826796199
 11
-4.3154135568
 21
-20.4912616246
  0
LINE
  5
38B
100
AcDbEntity
  8
DRAFT
100
AcDbLine
 62
7
  6
CONTINUOUS
 10
-72.6763263765
 20
-20.6333089517
 11
-72.1845864432
 21
-20.624726947
  0
LINE
  5
38C
100
AcDbEntity
  8
DRAFT
100
AcDbLine
 62
7
  6
CONTINUOUS
 10
-89.6763263765
 20
-20.6333089517
 11
-89.1845864432
 21
-20.624726947
  0
LINE
  5
38D
100
AcDbEntity
  8
DRAFT
100
AcDbLine
 62
7
  6
CONTINUOUS
 10
-80.3236736235
 20
-20.4826796199
 11
-80.8154135568
 21
-20.4912616246
  0
LINE
  5
38E
100
AcDbEntity
  8
DRAFT
100
AcDbLine
 62
7
  6
CONTINUOUS
 10
-97.3236736235
 20
-20.4826796199
 11
-97.8154135568
 21
-20.4912616246
  0
LINE
  5
38F
100
AcDbEntity
  8
DRAFT
100
AcDbLine
 62
7
  6
CONTINUOUS
 10
3.2749964673
 20
-20.6408111087
 11
3.8236736235
 21
-20.6333089517
  0
LINE
  5
390
100
AcDbEntity
  8
DRAFT
100
AcDbLine
 62
7
  6
CONTINUOUS
 10
-3.2749964673
 20
-20.4751774629
 11
-3.8236736235
 21
-20.4826796199
  0
LINE
  5
391
100
AcDbEntity
  8
DRAFT
100
AcDbLine
 62
7
  6
CONTINUOUS
 10
-73.2250035327
 20
-20.6408111087
 11
-72.6763263765
 21
-20.6333089517
  0
LINE
  5
392
100
AcDbEntity
  8
DRAFT
100
AcDbLine
 62
7
  6
CONTINUOUS
 10
-90.2250035327
 20
-20.6408111087
 11
-89.6763263765
 21
-20.6333089517
  0
LINE
  5
393
100
AcDbEntity
  8
DRAFT
100
AcDbLine
 62
7
  6
CONTINUOUS
 10
-79.7749964673
 20
-20.4751774629
 11
-80.3236736235
 21
-20.4826796199
  0
LINE
  5
394
100
AcDbEntity
  8
DRAFT
100
AcDbLine
 62
7
  6
CONTINUOUS
 10
-96.7749964673
 20
-20.4751774629
 11
-97.3236736235
 21
-20.4826796199
  0
LINE
  5
395
100
AcDbEntity
  8
0
100
AcDbLine
 62
7
  6
CONTINUOUS
 10
73.4184668084
 20
-20.4729459947
 11
72.8532780035
 21
-20.4800536328
  0
LINE
  5
396
100
AcDbEntity
  8
DRAFT
100
AcDbLine
 62
7
  6
CONTINUOUS
 10
2.6797932811
 20
-20.6470907226
 11
3.2749964673
 21
-20.6408111087
  0
LINE
  5
397
100
AcDbEntity
  8
DRAFT
100
AcDbLine
 62
7
  6
CONTINUOUS
 10
-2.6797932811
 20
-20.468897849
 11
-3.2749964673
 21
-20.4751774629
  0
LINE
  5
398
100
AcDbEntity
  8
DRAFT
100
AcDbLine
 62
7
  6
CONTINUOUS
 10
-73.8202067189
 20
-20.6470907226
 11
-73.2250035327
 21
-20.6408111087
  0
LINE
  5
399
100
AcDbEntity
  8
DRAFT
100
AcDbLine
 62
7
  6
CONTINUOUS
 10
-90.8202067189
 20
-20.6470907226
 11
-90.2250035327
 21
-20.6408111087
  0
LINE
  5
39A
100
AcDbEntity
  8
DRAFT
100
AcDbLine
 62
7
  6
CONTINUOUS
 10
-79.1797932811
 20
-20.468897849
 11
-79.7749964673
 21
-20.4751774629
  0
LINE
  5
39B
100
AcDbEntity
  8
DRAFT
100
AcDbLine
 62
7
  6
CONTINUOUS
 10
-96.1797932811
 20
-20.468897849
 11
-96.7749964673
 21
-20.4751774629
  0
LINE
  5
39C
100
AcDbEntity
  8
0
100
AcDbLine
 62
7
  6
CONTINUOUS
 10
91.0279816795
 20
-20.4670874997
 11
90.4184668084
 21
-20.4729459947
  0
LINE
  5
39D
100
AcDbEntity
  8
0
100
AcDbLine
 62
7
  6
CONTINUOUS
 10
74.0279816795
 20
-20.4670874997
 11
73.4184668084
 21
-20.4729459947
  0
LINE
  5
39E
100
AcDbEntity
  8
RACCORDO
100
AcDbLine
 62
250
  6
CONTINUOUS
 10
103.4775025498
 20
-20.2318630529
 11
103.5090079906
 21
-20.2315707262
  0
LINE
  5
39F
100
AcDbEntity
  8
0
100
AcDbLine
 62
7
  6
CONTINUOUS
 10
78.7597691184
 20
-20.6505683069
 11
79.3829003571
 21
-20.6451382069
  0
LINE
  5
3A0
100
AcDbEntity
  8
DRAFT
100
AcDbLine
 62
7
  6
CONTINUOUS
 10
2.0443219208
 20
-20.6520823076
 11
2.6797932811
 21
-20.6470907226
  0
LINE
  5
3A1
100
AcDbEntity
  8
DRAFT
100
AcDbLine
 62
7
  6
CONTINUOUS
 10
-2.0443219208
 20
-20.463906264
 11
-2.6797932811
 21
-20.468897849
  0
LINE
  5
3A2
100
AcDbEntity
  8
DRAFT
100
AcDbLine
 62
7
  6
CONTINUOUS
 10
-74.4556780792
 20
-20.6520823076
 11
-73.8202067189
 21
-20.6470907226
  0
LINE
  5
3A3
100
AcDbEntity
  8
DRAFT
100
AcDbLine
 62
7
  6
CONTINUOUS
 10
-91.4556780792
 20
-20.6520823076
 11
-90.8202067189
 21
-20.6470907226
  0
LINE
  5
3A4
100
AcDbEntity
  8
DRAFT
100
AcDbLine
 62
7
  6
CONTINUOUS
 10
-78.5443219208
 20
-20.463906264
 11
-79.1797932811
 21
-20.468897849
  0
LINE
  5
3A5
100
AcDbEntity
  8
DRAFT
100
AcDbLine
 62
7
  6
CONTINUOUS
 10
-95.5443219208
 20
-20.463906264
 11
-96.1797932811
 21
-20.468897849
  0
LINE
  5
3A6
100
AcDbEntity
  8
0
100
AcDbLine
 62
7
  6
CONTINUOUS
 10
95.3258109608
 20
-20.6534412496
 11
95.9720183205
 21
-20.6489010719
  0
LINE
  5
3A7
100
AcDbEntity
  8
0
100
AcDbLine
 62
7
  6
CONTINUOUS
 10
91.6741890392
 20
-20.4625473219
 11
91.0279816795
 21
-20.4670874997
  0
LINE
  5
3A8
100
AcDbEntity
  8
0
100
AcDbLine
 62
7
  6
CONTINUOUS
 10
74.6741890392
 20
-20.4625473219
 11
74.0279816795
 21
-20.4670874997
  0
LINE
  5
3A9
100
AcDbEntity
  8
0
100
AcDbLine
 62
7
  6
CONTINUOUS
 10
78.1041020053
 20
-20.6546469574
 11
78.7597691184
 21
-20.6505683069
  0
LINE
  5
3AA
100
AcDbEntity
  8
RACCORDO
100
AcDbLine
 62
250
  6
CONTINUOUS
 10
103.5572790744
 20
-20.4816972618
 11
103.6775096692
 21
-20.4808369438
  0
LINE
  5
3AB
100
AcDbEntity
  8
DRAFT
100
AcDbLine
 62
7
  6
CONTINUOUS
 10
1.380068602
 20
-20.6556947843
 11
2.0443219208
 21
-20.6520823076
  0
LINE
  5
3AC
100
AcDbEntity
  8
DRAFT
100
AcDbLine
 62
7
  6
CONTINUOUS
 10
-1.380068602
 20
-20.4602937873
 11
-2.0443219208
 21
-20.463906264
  0
LINE
  5
3AD
100
AcDbEntity
  8
DRAFT
100
AcDbLine
 62
7
  6
CONTINUOUS
 10
-75.119931398
 20
-20.6556947843
 11
-74.4556780792
 21
-20.6520823076
  0
LINE
  5
3AE
100
AcDbEntity
  8
DRAFT
100
AcDbLine
 62
7
  6
CONTINUOUS
 10
-92.119931398
 20
-20.6556947843
 11
-91.4556780792
 21
-20.6520823076
  0
LINE
  5
3AF
100
AcDbEntity
  8
DRAFT
100
AcDbLine
 62
7
  6
CONTINUOUS
 10
-77.880068602
 20
-20.4602937873
 11
-78.5443219208
 21
-20.463906264
  0
LINE
  5
3B0
100
AcDbEntity
  8
DRAFT
100
AcDbLine
 62
7
  6
CONTINUOUS
 10
-94.880068602
 20
-20.4602937873
 11
-95.5443219208
 21
-20.463906264
  0
LINE
  5
3B1
100
AcDbEntity
  8
0
100
AcDbLine
 62
7
  6
CONTINUOUS
 10
94.6535871878
 20
-20.6565845564
 11
95.3258109608
 21
-20.6534412496
  0
LINE
  5
3B2
100
AcDbEntity
  8
0
100
AcDbLine
 62
7
  6
CONTINUOUS
 10
92.3464128122
 20
-20.4594040152
 11
91.6741890392
 21
-20.4625473219
  0
LINE
  5
3B3
100
AcDbEntity
  8
0
100
AcDbLine
 62
7
  6
CONTINUOUS
 10
75.3464128122
 20
-20.4594040152
 11
74.6741890392
 21
-20.4625473219
  0
LINE
  5
3B4
100
AcDbEntity
  8
RACCORDO
100
AcDbLine
 62
250
  6
CONTINUOUS
 10
103.4454255381
 20
-20.2320084342
 11
103.4775025498
 21
-20.2318630529
  0
LINE
  5
3B5
100
AcDbEntity
  8
0
100
AcDbLine
 62
7
  6
CONTINUOUS
 10
77.4247813257
 20
-20.6573164475
 11
78.1041020053
 21
-20.6546469574
  0
LINE
  5
3B6
100
AcDbEntity
  8
DRAFT
100
AcDbLine
 62
7
  6
CONTINUOUS
 10
0.6948952523
 20
-20.6578863327
 11
1.380068602
 21
-20.6556947843
  0
LINE
  5
3B7
100
AcDbEntity
  8
DRAFT
100
AcDbLine
 62
7
  6
CONTINUOUS
 10
-75.8051047477
 20
-20.6578863327
 11
-75.119931398
 21
-20.6556947843
  0
LINE
  5
3B8
100
AcDbEntity
  8
DRAFT
100
AcDbLine
 62
7
  6
CONTINUOUS
 10
-0.6948952523
 20
-20.4581022389
 11
-1.380068602
 21
-20.4602937873
  0
LINE
  5
3B9
100
AcDbEntity
  8
DRAFT
100
AcDbLine
 62
7
  6
CONTINUOUS
 10
-92.8051047477
 20
-20.6578863327
 11
-92.119931398
 21
-20.6556947843
  0
LINE
  5
3BA
100
AcDbEntity
  8
DRAFT
100
AcDbLine
 62
7
  6
CONTINUOUS
 10
-77.1948952523
 20
-20.4581022389
 11
-77.880068602
 21
-20.4602937873
  0
LINE
  5
3BB
100
AcDbEntity
  8
DRAFT
100
AcDbLine
 62
7
  6
CONTINUOUS
 10
-94.1948952523
 20
-20.4581022389
 11
-94.880068602
 21
-20.4602937873
  0
LINE
  5
3BC
100
AcDbEntity
  8
0
100
AcDbLine
 62
7
  6
CONTINUOUS
 10
93.9643437129
 20
-20.6582928369
 11
94.6535871878
 21
-20.6565845564
  0
LINE
  5
3BD
100
AcDbEntity
  8
0
100
AcDbLine
 62
7
  6
CONTINUOUS
 10
93.0356562871
 20
-20.4576957347
 11
92.3464128122
 21
-20.4594040152
  0
LINE
  5
3BE
100
AcDbEntity
  8
0
100
AcDbLine
 62
7
  6
CONTINUOUS
 10
76.0356562871
 20
-20.4576957347
 11
75.3464128122
 21
-20.4594040152
  0
LINE
  5
3BF
100
AcDbEntity
  8
0
100
AcDbLine
 62
7
  6
CONTINUOUS
 10
76.7327119621
 20
-20.658537335
 11
77.4247813257
 21
-20.6573164475
  0
LINE
  5
3C0
100
AcDbEntity
  8
DRAFT
100
AcDbLine
 62
7
  6
CONTINUOUS
 10
-0.0
 20
-20.6586198272
 11
0.6948952523
 21
-20.6578863327
  0
LINE
  5
3C1
100
AcDbEntity
  8
DRAFT
100
AcDbLine
 62
7
  6
CONTINUOUS
 10
-76.5
 20
-20.6586198272
 11
-75.8051047477
 21
-20.6578863327
  0
LINE
  5
3C2
100
AcDbEntity
  8
DRAFT
100
AcDbLine
 62
7
  6
CONTINUOUS
 10
-93.5
 20
-20.6586198272
 11
-92.8051047477
 21
-20.6578863327
  0
LINE
  5
3C3
100
AcDbEntity
  8
DRAFT
100
AcDbLine
 62
7
  6
CONTINUOUS
 10
-0.0
 20
-20.4573687444
 11
-0.6948952523
 21
-20.4581022389
  0
LINE
  5
3C4
100
AcDbEntity
  8
DRAFT
100
AcDbLine
 62
7
  6
CONTINUOUS
 10
-76.5
 20
-20.4573687444
 11
-77.1948952523
 21
-20.4581022389
  0
LINE
  5
3C5
100
AcDbEntity
  8
DRAFT
100
AcDbLine
 62
7
  6
CONTINUOUS
 10
-93.5
 20
-20.4573687444
 11
-94.1948952523
 21
-20.4581022389
  0
LINE
  5
3C6
100
AcDbEntity
  8
DRAFT
100
AcDbLine
 62
7
  6
CONTINUOUS
 10
-107.5
 20
-20.75
 11
107.5
 21
-20.75
  0
LINE
  5
3C7
100
AcDbEntity
  8
SUPERFICI
100
AcDbLine
 62
7
  6
CONTINUOUS
 10
107.5000000044
 20
-20.7500001745
 11
-107.5000000044
 21
-20.7500001745
  0
LINE
  5
3C8
100
AcDbEntity
  8
RACCORDO
100
AcDbLine
 62
250
  6
CONTINUOUS
 10
101.0206743158
 20
-20.4819885951
 11
103.5572790744
 21
-20.4816972618
  0
LINE
  5
3C9
100
AcDbEntity
  8
RACCORDO
100
AcDbLine
 62
250
  6
CONTINUOUS
 10
-107.5
 20
-20.4373715581
 11
100.4847086471
 21
-20.4373715581
  0
LINE
  5
3CA
100
AcDbEntity
  8
RACCORDO
100
AcDbLine
 62
250
  6
CONTINUOUS
 10
103.9652913529
 20
-20.4373715581
 11
107.5
 21
-20.4373715581
  0
LINE
  5
3CB
100
AcDbEntity
  8
0
100
AcDbLine
 62
7
  6
CONTINUOUS
 10
-107.5
 20
-19.9875620037
 11
-106.6124379963
 21
-19.9875620037
  0
LINE
  5
3CC
100
AcDbEntity
  8
0
100
AcDbLine
 62
7
  6
CONTINUOUS
 10
8.9124379963
 20
-19.9875620037
 11
10.5875620037
 21
-19.9875620037
  0
LINE
  5
3CD
100
AcDbEntity
  8
0
100
AcDbLine
 62
7
  6
CONTINUOUS
 10
106.6124379963
 20
-19.9875620037
 11
107.5
 21
-19.9875620037
  0
LINE
  5
3CE
100
AcDbEntity
  8
RACCORDO
100
AcDbLine
 62
7
  6
CONTINUOUS
 10
101.0206743158
 20
-19.9874172425
 11
103.4293256842
 21
-19.9874172425
  0
LINE
  5
3CF
100
AcDbEntity
  8
RACCORDO
100
AcDbLine
 62
250
  6
CONTINUOUS
 10
100.728215826
 20
-19.9410851623
 11
103.721784174
 21
-19.9410851623
  0
LINE
  5
3D0
100
AcDbEntity
  8
DRAFT
100
AcDbLine
 62
7
  6
CONTINUOUS
 10
107.5
 20
-19.85
 11
106.75
 21
-19.85
  0
LINE
  5
3D1
100
AcDbEntity
  8
DRAFT
100
AcDbLine
 62
7
  6
CONTINUOUS
 10
10.45
 20
-19.85
 11
9.05
 21
-19.85
  0
LINE
  5
3D2
100
AcDbEntity
  8
DRAFT
100
AcDbLine
 62
7
  6
CONTINUOUS
 10
-106.75
 20
-19.85
 11
-107.5
 21
-19.85
  0
LINE
  5
3D3
100
AcDbEntity
  8
0
100
AcDbLine
 62
250
  6
CONTINUOUS
 10
-106.6121049871
 20
-19.837462941
 11
8.9121049871
 21
-19.837462941
  0
LINE
  5
3D4
100
AcDbEntity
  8
RACCORDO
100
AcDbLine
 62
250
  6
CONTINUOUS
 10
10.5878950129
 20
-19.837462941
 11
100.6250408689
 21
-19.8374629348
  0
LINE
  5
3D5
100
AcDbEntity
  8
RACCORDO
100
AcDbLine
 62
250
  6
CONTINUOUS
 10
103.8249591314
 20
-19.8374629349
 11
106.6121049871
 21
-19.837462941
  0
LINE
  5
3D6
100
AcDbEntity
  8
RACCORDO
100
AcDbLine
 62
250
  6
CONTINUOUS
 10
100.4787059959
 20
-19.6911232385
 11
103.9712940041
 21
-19.6911232385
  0
LINE
  5
3D7
100
AcDbEntity
  8
DRAFT
100
AcDbLine
 62
250
  6
CONTINUOUS
 10
-106.75
 20
-17.75
 11
-106.6121049871
 21
-17.75
  0
LINE
  5
3D8
100
AcDbEntity
  8
DRAFT
100
AcDbLine
 62
250
  6
CONTINUOUS
 10
106.75
 20
-17.75
 11
106.6121049871
 21
-17.75
  0
LINE
  5
3D9
100
AcDbEntity
  8
DRAFT
100
AcDbLine
 62
250
  6
CONTINUOUS
 10
9.05
 20
-17.75
 11
8.9121049871
 21
-17.75
  0
LINE
  5
3DA
100
AcDbEntity
  8
DRAFT
100
AcDbLine
 62
250
  6
CONTINUOUS
 10
10.45
 20
-17.75
 11
10.5878950129
 21
-17.75
  0
LINE
  5
3DB
100
AcDbEntity
  8
0
100
AcDbLine
 62
250
  6
CONTINUOUS
 10
109.6
 20
-17.75
 11
110.5
 21
-17.75
  0
LINE
  5
3DC
100
AcDbEntity
  8
0
100
AcDbLine
 62
250
  6
CONTINUOUS
 10
-109.6
 20
-17.75
 11
-110.5
 21
-17.75
  0
LINE
  5
3DD
100
AcDbEntity
  8
DRAFT
100
AcDbLine
 62
7
  6
CONTINUOUS
 10
-109.6
 20
-17.0
 11
-107.5
 21
-17.0
  0
LINE
  5
3DE
100
AcDbEntity
  8
DRAFT
100
AcDbLine
 62
7
  6
CONTINUOUS
 10
107.5
 20
-17.0
 11
109.6
 21
-17.0
  0
LINE
  5
3DF
100
AcDbEntity
  8
0
100
AcDbLine
 62
7
  6
CONTINUOUS
 10
-109.587462941
 20
-16.8621049871
 11
-107.5
 21
-16.8621049871
  0
LINE
  5
3E0
100
AcDbEntity
  8
0
100
AcDbLine
 62
7
  6
CONTINUOUS
 10
107.5
 20
-16.8621049871
 11
109.587462941
 21
-16.8621049871
  0
LINE
  5
3E1
100
AcDbEntity
  8
RACCORDO
100
AcDbLine
 62
250
  6
CONTINUOUS
 10
-109.7331296345
 20
-16.054287608
 11
-109.9734514553
 21
-16.054287608
  0
LINE
  5
3E2
100
AcDbEntity
  8
RACCORDO
100
AcDbLine
 62
250
  6
CONTINUOUS
 10
-109.7374172425
 20
-15.8043256842
 11
-110.2319885951
 21
-15.8043256842
  0
LINE
  5
3E3
100
AcDbEntity
  8
0
100
AcDbLine
 62
7
  6
CONTINUOUS
 10
93.2672880379
 20
-20.658537335
 11
93.9643437129
 21
-20.6582928369
  0
LINE
  5
3E4
100
AcDbEntity
  8
0
100
AcDbLine
 62
7
  6
CONTINUOUS
 10
76.7327119621
 20
-20.4574512365
 11
76.0356562871
 21
-20.4576957347
  0
LINE
  5
3E5
100
AcDbEntity
  8
0
100
AcDbLine
 62
7
  6
CONTINUOUS
 10
93.7327119621
 20
-20.4574512365
 11
93.0356562871
 21
-20.4576957347
  0
LINE
  5
3E6
100
AcDbEntity
  8
0
100
AcDbLine
 62
7
  6
CONTINUOUS
 10
76.0356562871
 20
-20.6582928369
 11
76.7327119621
 21
-20.658537335
  0
LINE
  5
3E7
100
AcDbEntity
  8
RACCORDO
100
AcDbLine
 62
250
  6
CONTINUOUS
 10
101.0045744619
 20
-20.2320084343
 11
103.4454255381
 21
-20.2320084342
  0
LINE
  5
3E8
100
AcDbEntity
  8
DRAFT
100
AcDbLine
 62
7
  6
CONTINUOUS
 10
-94.1948952523
 20
-20.6578863327
 11
-93.5
 21
-20.6586198272
  0
LINE
  5
3E9
100
AcDbEntity
  8
DRAFT
100
AcDbLine
 62
7
  6
CONTINUOUS
 10
-77.1948952523
 20
-20.6578863327
 11
-76.5
 21
-20.6586198272
  0
LINE
  5
3EA
100
AcDbEntity
  8
DRAFT
100
AcDbLine
 62
7
  6
CONTINUOUS
 10
-0.6948952523
 20
-20.6578863327
 11
-0.0
 21
-20.6586198272
  0
LINE
  5
3EB
100
AcDbEntity
  8
DRAFT
100
AcDbLine
 62
7
  6
CONTINUOUS
 10
-92.8051047477
 20
-20.4581022389
 11
-93.5
 21
-20.4573687444
  0
LINE
  5
3EC
100
AcDbEntity
  8
DRAFT
100
AcDbLine
 62
7
  6
CONTINUOUS
 10
-75.8051047477
 20
-20.4581022389
 11
-76.5
 21
-20.4573687444
  0
LINE
  5
3ED
100
AcDbEntity
  8
DRAFT
100
AcDbLine
 62
7
  6
CONTINUOUS
 10
0.6948952523
 20
-20.4581022389
 11
-0.0
 21
-20.4573687444
  0
LINE
  5
3EE
100
AcDbEntity
  8
0
100
AcDbLine
 62
7
  6
CONTINUOUS
 10
92.5752186743
 20
-20.6573164475
 11
93.2672880379
 21
-20.658537335
  0
LINE
  5
3EF
100
AcDbEntity
  8
0
100
AcDbLine
 62
7
  6
CONTINUOUS
 10
77.4247813257
 20
-20.458672124
 11
76.7327119621
 21
-20.4574512365
  0
LINE
  5
3F0
100
AcDbEntity
  8
0
100
AcDbLine
 62
7
  6
CONTINUOUS
 10
94.4247813257
 20
-20.458672124
 11
93.7327119621
 21
-20.4574512365
  0
LINE
  5
3F1
100
AcDbEntity
  8
0
100
AcDbLine
 62
7
  6
CONTINUOUS
 10
75.3464128122
 20
-20.6565845564
 11
76.0356562871
 21
-20.6582928369
  0
LINE
  5
3F2
100
AcDbEntity
  8
DRAFT
100
AcDbLine
 62
7
  6
CONTINUOUS
 10
-94.880068602
 20
-20.6556947843
 11
-94.1948952523
 21
-20.6578863327
  0
LINE
  5
3F3
100
AcDbEntity
  8
DRAFT
100
AcDbLine
 62
7
  6
CONTINUOUS
 10
-77.880068602
 20
-20.6556947843
 11
-77.1948952523
 21
-20.6578863327
  0
LINE
  5
3F4
100
AcDbEntity
  8
DRAFT
100
AcDbLine
 62
7
  6
CONTINUOUS
 10
-92.119931398
 20
-20.4602937873
 11
-92.8051047477
 21
-20.4581022389
  0
LINE
  5
3F5
100
AcDbEntity
  8
DRAFT
100
AcDbLine
 62
7
  6
CONTINUOUS
 10
-75.119931398
 20
-20.4602937873
 11
-75.8051047477
 21
-20.4581022389
  0
LINE
  5
3F6
100
AcDbEntity
  8
DRAFT
100
AcDbLine
 62
7
  6
CONTINUOUS
 10
-1.380068602
 20
-20.6556947843
 11
-0.6948952523
 21
-20.6578863327
  0
LINE
  5
3F7
100
AcDbEntity
  8
DRAFT
100
AcDbLine
 62
7
  6
CONTINUOUS
 10
1.380068602
 20
-20.4602937873
 11
0.6948952523
 21
-20.4581022389
  0
LINE
  5
3F8
100
AcDbEntity
  8
RACCORDO
100
AcDbLine
 62
250
  6
CONTINUOUS
 10
100.8927209247
 20
-20.4816972619
 11
101.0206743158
 21
-20.4819885951
  0
LINE
  5
3F9
100
AcDbEntity
  8
RACCORDO
100
AcDbLine
 62
250
  6
CONTINUOUS
 10
-109.8224319547
 20
-16.3458060843
 11
-109.4411232385
 21
-16.3462940041
  0
LINE
  5
3FA
100
AcDbEntity
  8
0
100
AcDbLine
 62
7
  6
CONTINUOUS
 10
91.8958979947
 20
-20.6546469574
 11
92.5752186743
 21
-20.6573164475
  0
LINE
  5
3FB
100
AcDbEntity
  8
0
100
AcDbLine
 62
7
  6
CONTINUOUS
 10
78.1041020053
 20
-20.4613416142
 11
77.4247813257
 21
-20.458672124
  0
LINE
  5
3FC
100
AcDbEntity
  8
0
100
AcDbLine
 62
7
  6
CONTINUOUS
 10
95.1041020053
 20
-20.4613416142
 11
94.4247813257
 21
-20.458672124
  0
LINE
  5
3FD
100
AcDbEntity
  8
0
100
AcDbLine
 62
7
  6
CONTINUOUS
 10
74.6741890392
 20
-20.6534412496
 11
75.3464128122
 21
-20.6565845564
  0
LINE
  5
3FE
100
AcDbEntity
  8
RACCORDO
100
AcDbLine
 62
250
  6
CONTINUOUS
 10
100.9724974502
 20
-20.231863053
 11
101.0045744619
 21
-20.2320084343
  0
LINE
  5
3FF
100
AcDbEntity
  8
DRAFT
100
AcDbLine
 62
7
  6
CONTINUOUS
 10
-95.5443219208
 20
-20.6520823076
 11
-94.880068602
 21
-20.6556947843
  0
LINE
  5
400
100
AcDbEntity
  8
DRAFT
100
AcDbLine
 62
7
  6
CONTINUOUS
 10
-78.5443219208
 20
-20.6520823076
 11
-77.880068602
 21
-20.6556947843
  0
LINE
  5
401
100
AcDbEntity
  8
DRAFT
100
AcDbLine
 62
7
  6
CONTINUOUS
 10
-91.4556780792
 20
-20.463906264
 11
-92.119931398
 21
-20.4602937873
  0
LINE
  5
402
100
AcDbEntity
  8
DRAFT
100
AcDbLine
 62
7
  6
CONTINUOUS
 10
-74.4556780792
 20
-20.463906264
 11
-75.119931398
 21
-20.4602937873
  0
LINE
  5
403
100
AcDbEntity
  8
DRAFT
100
AcDbLine
 62
7
  6
CONTINUOUS
 10
-2.0443219208
 20
-20.6520823076
 11
-1.380068602
 21
-20.6556947843
  0
LINE
  5
404
100
AcDbEntity
  8
DRAFT
100
AcDbLine
 62
7
  6
CONTINUOUS
 10
2.0443219208
 20
-20.463906264
 11
1.380068602
 21
-20.4602937873
  0
LINE
  5
405
100
AcDbEntity
  8
0
100
AcDbLine
 62
7
  6
CONTINUOUS
 10
91.2402308816
 20
-20.6505683069
 11
91.8958979947
 21
-20.6546469574
  0
LINE
  5
406
100
AcDbEntity
  8
0
100
AcDbLine
 62
7
  6
CONTINUOUS
 10
78.7597691184
 20
-20.4654202647
 11
78.1041020053
 21
-20.4613416142
  0
LINE
  5
407
100
AcDbEntity
  8
0
100
AcDbLine
 62
7
  6
CONTINUOUS
 10
95.7597691184
 20
-20.4654202647
 11
95.1041020053
 21
-20.4613416142
  0
LINE
  5
408
100
AcDbEntity
  8
DRAFT
100
AcDbLine
 62
7
  6
CONTINUOUS
 10
-95.9720183205
 20
-20.6489010719
 11
-95.5443219208
 21
-20.6520823076
  0
LINE
  5
409
100
AcDbEntity
  8
0
100
AcDbLine
 62
7
  6
CONTINUOUS
 10
74.0279816795
 20
-20.6489010719
 11
74.6741890392
 21
-20.6534412496
  0
LINE
  5
40A
100
AcDbEntity
  8
DRAFT
100
AcDbLine
 62
7
  6
CONTINUOUS
 10
-90.8202067189
 20
-20.468897849
 11
-91.4556780792
 21
-20.463906264
  0
LINE
  5
40B
100
AcDbEntity
  8
DRAFT
100
AcDbLine
 62
7
  6
CONTINUOUS
 10
-73.8202067189
 20
-20.468897849
 11
-74.4556780792
 21
-20.463906264
  0
LINE
  5
40C
100
AcDbEntity
  8
DRAFT
100
AcDbLine
 62
7
  6
CONTINUOUS
 10
-2.6797932811
 20
-20.6470907226
 11
-2.0443219208
 21
-20.6520823076
  0
LINE
  5
40D
100
AcDbEntity
  8
DRAFT
100
AcDbLine
 62
7
  6
CONTINUOUS
 10
2.6797932811
 20
-20.468897849
 11
2.0443219208
 21
-20.463906264
  0
LINE
  5
40E
100
AcDbEntity
  8
RACCORDO
100
AcDbLine
 62
250
  6
CONTINUOUS
 10
-109.9954724054
 20
-16.3446641636
 11
-109.8224319547
 21
-16.3458060843
  0
LINE
  5
40F
100
AcDbEntity
  8
RACCORDO
100
AcDbLine
 62
250
  6
CONTINUOUS
 10
100.7724903309
 20
-20.4808369438
 11
100.8927209247
 21
-20.4816972619
  0
LWPOLYLINE
  5
410
100
AcDbEntity
  8
DRAFT
100
AcDbPolyline
 62
7
  6
CONTINUOUS
 90
3
 70
0
 10
-79.3829003571
 20
-20.6451382069
 10
-79.1797932811
 20
-20.6470907226
 10
-78.5443219208
 20
-20.6520823076
  0
LINE
  5
411
100
AcDbEntity
  8
0
100
AcDbLine
 62
7
  6
CONTINUOUS
 10
90.6170996429
 20
-20.6451382069
 11
91.2402308816
 21
-20.6505683069
  0
LINE
  5
412
100
AcDbEntity
  8
0
100
AcDbLine
 62
7
  6
CONTINUOUS
 10
79.3829003571
 20
-20.4708503647
 11
78.7597691184
 21
-20.4654202647
  0
LINE
  5
413
100
AcDbEntity
  8
0
100
AcDbLine
 62
7
  6
CONTINUOUS
 10
96.3829003571
 20
-20.4708503647
 11
95.7597691184
 21
-20.4654202647
  0
LINE
  5
414
100
AcDbEntity
  8
RACCORDO
100
AcDbLine
 62
250
  6
CONTINUOUS
 10
-109.7673477451
 20
-16.095463307
 11
-109.691360721
 21
-16.0960565216
  0
LINE
  5
415
100
AcDbEntity
  8
RACCORDO
100
AcDbLine
 62
250
  6
CONTINUOUS
 10
100.9409920094
 20
-20.2315707263
 11
100.9724974502
 21
-20.231863053
  0
LINE
  5
416
100
AcDbEntity
  8
DRAFT
100
AcDbLine
 62
7
  6
CONTINUOUS
 10
-90.4184668084
 20
-20.4729459947
 11
-90.8202067189
 21
-20.468897849
  0
LINE
  5
417
100
AcDbEntity
  8
0
100
AcDbLine
 62
7
  6
CONTINUOUS
 10
73.4184668084
 20
-20.6430425769
 11
74.0279816795
 21
-20.6489010719
  0
LINE
  5
418
100
AcDbEntity
  8
DRAFT
100
AcDbLine
 62
7
  6
CONTINUOUS
 10
-73.2250035327
 20
-20.4751774629
 11
-73.8202067189
 21
-20.468897849
  0
LINE
  5
419
100
AcDbEntity
  8
DRAFT
100
AcDbLine
 62
7
  6
CONTINUOUS
 10
-3.2749964673
 20
-20.6408111087
 11
-2.6797932811
 21
-20.6470907226
  0
LINE
  5
41A
100
AcDbEntity
  8
DRAFT
100
AcDbLine
 62
7
  6
CONTINUOUS
 10
3.2749964673
 20
-20.4751774629
 11
2.6797932811
 21
-20.468897849
  0
LINE
  5
41B
100
AcDbEntity
  8
0
100
AcDbLine
 62
7
  6
CONTINUOUS
 10
90.0365559887
 20
-20.6384409428
 11
90.6170996429
 21
-20.6451382069
  0
LINE
  5
41C
100
AcDbEntity
  8
0
100
AcDbLine
 62
7
  6
CONTINUOUS
 10
79.9634440113
 20
-20.4775476288
 11
79.3829003571
 21
-20.4708503647
  0
LINE
  5
41D
100
AcDbEntity
  8
0
100
AcDbLine
 62
7
  6
CONTINUOUS
 10
96.9634440113
 20
-20.4775476288
 11
96.3829003571
 21
-20.4708503647
  0
LINE
  5
41E
100
AcDbEntity
  8
DRAFT
100
AcDbLine
 62
7
  6
CONTINUOUS
 10
-72.8532780035
 20
-20.4800536328
 11
-73.2250035327
 21
-20.4751774629
  0
LINE
  5
41F
100
AcDbEntity
  8
0
100
AcDbLine
 62
7
  6
CONTINUOUS
 10
72.8532780035
 20
-20.6359349388
 11
73.4184668084
 21
-20.6430425769
  0
LINE
  5
420
100
AcDbEntity
  8
RACCORDO
100
AcDbLine
 62
250
  6
CONTINUOUS
 10
100.6938041659
 20
-20.479865391
 11
100.7724903309
 21
-20.4808369438
  0
LINE
  5
421
100
AcDbEntity
  8
RACCORDO
100
AcDbLine
 62
250
  6
CONTINUOUS
 10
-110.0851042344
 20
-16.3435971953
 11
-109.9954724054
 21
-16.3446641636
  0
LINE
  5
422
100
AcDbEntity
  8
RACCORDO
100
AcDbLine
 62
250
  6
CONTINUOUS
 10
-109.8178979243
 20
-16.0948209703
 11
-109.7673477451
 21
-16.095463307
  0
LINE
  5
423
100
AcDbEntity
  8
DRAFT
100
AcDbLine
 62
7
  6
CONTINUOUS
 10
-3.8236736235
 20
-20.6333089517
 11
-3.2749964673
 21
-20.6408111087
  0
LINE
  5
424
100
AcDbEntity
  8
DRAFT
100
AcDbLine
 62
7
  6
CONTINUOUS
 10
3.8236736235
 20
-20.4826796199
 11
3.2749964673
 21
-20.4751774629
  0
LINE
  5
425
100
AcDbEntity
  8
RACCORDO
100
AcDbLine
 62
250
  6
CONTINUOUS
 10
100.910886356
 20
-20.2311403112
 11
100.9409920094
 21
-20.2315707263
  0
LINE
  5
426
100
AcDbEntity
  8
0
100
AcDbLine
 62
7
  6
CONTINUOUS
 10
89.5059039949
 20
-20.6305650787
 11
90.0365559887
 21
-20.6384409428
  0
LINE
  5
427
100
AcDbEntity
  8
0
100
AcDbLine
 62
7
  6
CONTINUOUS
 10
80.4940960051
 20
-20.4854234929
 11
79.9634440113
 21
-20.4775476288
  0
LINE
  5
428
100
AcDbEntity
  8
0
100
AcDbLine
 62
7
  6
CONTINUOUS
 10
97.4940960051
 20
-20.4854234929
 11
96.9634440113
 21
-20.4775476288
  0
LINE
  5
429
100
AcDbEntity
  8
0
100
AcDbLine
 62
7
  6
CONTINUOUS
 10
72.3418079714
 20
-20.6277012226
 11
72.8532780035
 21
-20.6359349388
  0
LINE
  5
42A
100
AcDbEntity
  8
RACCORDO
100
AcDbLine
 62
250
  6
CONTINUOUS
 10
100.648167137
 20
-20.4790827341
 11
100.6938041659
 21
-20.479865391
  0
LINE
  5
42B
100
AcDbEntity
  8
RACCORDO
100
AcDbLine
 62
250
  6
CONTINUOUS
 10
-110.1203154362
 20
-16.3429932464
 11
-110.0851042344
 21
-16.3435971953
  0
LINE
  5
42C
100
AcDbEntity
  8
RACCORDO
100
AcDbLine
 62
250
  6
CONTINUOUS
 10
-109.8476205413
 20
-16.0943095672
 11
-109.8178979243
 21
-16.0948209703
  0
LINE
  5
42D
100
AcDbEntity
  8
DRAFT
100
AcDbLine
 62
7
  6
CONTINUOUS
 10
-4.3154135568
 20
-20.624726947
 11
-3.8236736235
 21
-20.6333089517
  0
LINE
  5
42E
100
AcDbEntity
  8
DRAFT
100
AcDbLine
 62
7
  6
CONTINUOUS
 10
4.3154135568
 20
-20.4912616246
 11
3.8236736235
 21
-20.4826796199
  0
LINE
  5
42F
100
AcDbEntity
  8
0
100
AcDbLine
 62
7
  6
CONTINUOUS
 10
72.0341189544
 20
-20.6216387014
 11
72.3418079714
 21
-20.6277012226
  0
LINE
  5
430
100
AcDbEntity
  8
0
100
AcDbLine
 62
7
  6
CONTINUOUS
 10
80.9658810456
 20
-20.4943498701
 11
80.4940960051
 21
-20.4854234929
  0
LINE
  5
431
100
AcDbEntity
  8
0
100
AcDbLine
 62
7
  6
CONTINUOUS
 10
89.0341189544
 20
-20.6216387014
 11
89.5059039949
 21
-20.6305650787
  0
LINE
  5
432
100
AcDbEntity
  8
0
100
AcDbLine
 62
7
  6
CONTINUOUS
 10
97.9658810456
 20
-20.4943498701
 11
97.4940960051
 21
-20.4854234929
  0
LINE
  5
433
100
AcDbEntity
  8
RACCORDO
100
AcDbLine
 62
250
  6
CONTINUOUS
 10
100.8827767744
 20
-20.2305790885
 11
100.910886356
 21
-20.2311403112
  0
LINE
  5
434
100
AcDbEntity
  8
DRAFT
100
AcDbLine
 62
7
  6
CONTINUOUS
 10
-4.6094740391
 20
-20.6184400364
 11
-4.3154135568
 21
-20.624726947
  0
LINE
  5
435
100
AcDbEntity
  8
DRAFT
100
AcDbLine
 62
7
  6
CONTINUOUS
 10
4.6094740391
 20
-20.4975485352
 11
4.3154135568
 21
-20.4912616246
  0
LINE
  5
436
100
AcDbEntity
  8
RACCORDO
100
AcDbLine
 62
250
  6
CONTINUOUS
 10
-109.8736360156
 20
-16.0937398808
 11
-109.8476205413
 21
-16.0943095672
  0
LINE
  5
437
100
AcDbEntity
  8
RACCORDO
100
AcDbLine
 62
250
  6
CONTINUOUS
 10
100.6084591798
 20
-20.4782005241
 11
100.648167137
 21
-20.4790827341
  0
LINE
  5
438
100
AcDbEntity
  8
0
100
AcDbLine
 62
7
  6
CONTINUOUS
 10
71.7547169675
 20
-20.6151511664
 11
72.0341189544
 21
-20.6216387014
  0
LINE
  5
439
100
AcDbEntity
  8
0
100
AcDbLine
 62
7
  6
CONTINUOUS
 10
81.2452830325
 20
-20.5008374052
 11
80.9658810456
 21
-20.4943498701
  0
LINE
  5
43A
100
AcDbEntity
  8
0
100
AcDbLine
 62
7
  6
CONTINUOUS
 10
88.7547169675
 20
-20.6151511664
 11
89.0341189544
 21
-20.6216387014
  0
LINE
  5
43B
100
AcDbEntity
  8
0
100
AcDbLine
 62
7
  6
CONTINUOUS
 10
98.2452830325
 20
-20.5008374052
 11
97.9658810456
 21
-20.4943498701
  0
LINE
  5
43C
100
AcDbEntity
  8
DRAFT
100
AcDbLine
 62
7
  6
CONTINUOUS
 10
-4.8731433194
 20
-20.6117748014
 11
-4.6094740391
 21
-20.6184400364
  0
LINE
  5
43D
100
AcDbEntity
  8
DRAFT
100
AcDbLine
 62
7
  6
CONTINUOUS
 10
4.8731433194
 20
-20.5042137702
 11
4.6094740391
 21
-20.4975485352
  0
LINE
  5
43E
100
AcDbEntity
  8
0
100
AcDbLine
 62
7
  6
CONTINUOUS
 10
71.5067803938
 20
-20.6083082314
 11
71.7547169675
 21
-20.6151511664
  0
LINE
  5
43F
100
AcDbEntity
  8
0
100
AcDbLine
 62
7
  6
CONTINUOUS
 10
81.4932196062
 20
-20.5076803401
 11
81.2452830325
 21
-20.5008374052
  0
LINE
  5
440
100
AcDbEntity
  8
0
100
AcDbLine
 62
7
  6
CONTINUOUS
 10
88.5067803938
 20
-20.6083082314
 11
88.7547169675
 21
-20.6151511664
  0
LINE
  5
441
100
AcDbEntity
  8
0
100
AcDbLine
 62
7
  6
CONTINUOUS
 10
98.4932196062
 20
-20.5076803401
 11
98.2452830325
 21
-20.5008374052
  0
LINE
  5
442
100
AcDbEntity
  8
DRAFT
100
AcDbLine
 62
7
  6
CONTINUOUS
 10
-5.1050965072
 20
-20.6047635419
 11
-4.8731433194
 21
-20.6117748014
  0
LINE
  5
443
100
AcDbEntity
  8
DRAFT
100
AcDbLine
 62
7
  6
CONTINUOUS
 10
5.1050965072
 20
-20.5112250296
 11
4.8731433194
 21
-20.5042137702
  0
LWPOLYLINE
  5
444
100
AcDbEntity
  8
RACCORDO
100
AcDbPolyline
 62
250
  6
CONTINUOUS
 90
19
 70
0
 10
-109.9734514553
 20
-13.145712392
 10
-109.9952328176
 20
-13.1447549494
 10
-110.0168484791
 20
-13.1419031735
 10
-110.0381339956
 20
-13.1371787585
 10
-110.0589274343
 20
-13.1306176454
 10
-110.0790706064
 20
-13.1222697476
 10
-110.0984102709
 20
-13.1121985714
 10
-110.1167992983
 20
-13.1004807334
 10
-110.1340977905
 20
-13.0872053775
 10
-110.1501741466
 20
-13.0724734963
 10
-110.1649060625
 20
-13.0563971633
 10
-110.1781814616
 20
-13.0390986809
 10
-110.1898993481
 20
-13.0207096482
 10
-110.1999705749
 20
-13.001369962
 10
-110.2083185218
 20
-12.9812267512
 10
-110.2148796787
 20
-12.9604332581
 10
-110.2196041288
 20
-12.9391476721
 10
-110.2224559281
 20
-12.9175319269
 10
-110.2234133791
 20
-12.8957504682
  0
LWPOLYLINE
  5
445
100
AcDbEntity
  8
RACCORDO
100
AcDbPolyline
 62
250
  6
CONTINUOUS
 90
19
 70
0
 10
-109.9374096343
 20
-13.1096705709
 10
-109.9591910388
 20
-13.1087131246
 10
-109.9808067379
 20
-13.1058613383
 10
-110.0020922868
 20
-13.1011369073
 10
-110.0228857525
 20
-13.0945757736
 10
-110.0430289454
 20
-13.0862278519
 10
-110.062368623
 20
-13.0761566504
 10
-110.0807576559
 20
-13.0644387872
 10
-110.0980561465
 20
-13.0511634079
 10
-110.114132494
 20
-13.0364315068
 10
-110.128864395
 20
-13.0203551594
 10
-110.1421397743
 20
-13.0030566687
 10
-110.1538576375
 20
-12.9846676359
 10
-110.163928839
 20
-12.9653279582
 10
-110.1722767607
 20
-12.9451847654
 10
-110.1788378945
 20
-12.9243912997
 10
-110.1835623254
 20
-12.9031057508
 10
-110.1864141118
 20
-12.8814900516
 10
-110.1873715581
 20
-12.8597086471
  0
LWPOLYLINE
  5
446
100
AcDbEntity
  8
RACCORDO
100
AcDbPolyline
 62
250
  6
CONTINUOUS
 90
9
 70
0
 10
-100.5207504682
 20
20.4734133791
 10
-100.5223414366
 20
20.4739769353
 10
-100.5260076144
 20
20.4745349825
 10
-100.5317490017
 20
20.4750875207
 10
-100.5396143964
 20
20.475637755
 10
-100.5495550006
 20
20.4761824803
 10
-100.5614244204
 20
20.4767120813
 10
-100.5752693975
 20
20.4772257956
 10
-100.6084591798
 20
20.4782005241
  0
LWPOLYLINE
  5
447
100
AcDbEntity
  8
DRAFT
100
AcDbPolyline
 62
7
  6
CONTINUOUS
 90
12
 70
0
 10
-5.7657109478
 20
-20.5579484028
 10
-5.7610228022
 20
-20.5620431216
 10
-5.7469943158
 20
-20.5660919575
 10
-5.7236827427
 20
-20.5701219575
 10
-5.6910279385
 20
-20.5741340984
 10
-5.6490900475
 20
-20.5781274034
 10
-5.598106151
 20
-20.5820801067
 10
-5.5380669171
 20
-20.5859900132
 10
-5.4689816777
 20
-20.589859318
 10
-5.3911155094
 20
-20.5936728412
 10
-5.3043629232
 20
-20.597432969
 10
-5.1050965072
 20
-20.6047635419
  0
LINE
  5
448
100
AcDbEntity
  8
0
100
AcDbLine
 62
7
  6
CONTINUOUS
 10
-10.5878950129
 20
17.75
 11
-10.5878950129
 21
19.837462941
  0
LINE
  5
449
100
AcDbEntity
  8
DRAFT
100
AcDbLine
 62
7
  6
CONTINUOUS
 10
-10.45
 20
17.75
 11
-10.45
 21
19.85
  0
LINE
  5
44A
100
AcDbEntity
  8
DRAFT
100
AcDbLine
 62
7
  6
CONTINUOUS
 10
-9.05
 20
19.85
 11
-9.05
 21
17.75
  0
LINE
  5
44B
100
AcDbEntity
  8
0
100
AcDbLine
 62
7
  6
CONTINUOUS
 10
-8.9121049871
 20
19.837462941
 11
-8.9121049871
 21
17.75
  0
LINE
  5
44C
100
AcDbEntity
  8
0
100
AcDbLine
 62
7
  6
CONTINUOUS
 10
-0.4749999404
 20
14.8765957713
 11
-0.5375000596
 21
14.7489362121
  0
LINE
  5
44D
100
AcDbEntity
  8
0
100
AcDbLine
 62
7
  6
CONTINUOUS
 10
-0.4125
 20
14.6531914532
 11
-0.2874999404
 21
14.8446808815
  0
LINE
  5
44E
100
AcDbEntity
  8
0
100
AcDbLine
 62
7
  6
CONTINUOUS
 10
0.3375
 20
14.0468085021
 11
0.2124999404
 21
13.8553191409
  0
LINE
  5
44F
100
AcDbEntity
  8
0
100
AcDbLine
 62
7
  6
CONTINUOUS
 10
0.9625001192
 20
14.7489362121
 11
1.0249998808
 21
14.8446808815
  0
LINE
  5
450
100
AcDbEntity
  8
0
100
AcDbLine
 62
7
  6
CONTINUOUS
 10
1.6812498808
 20
14.4936170042
 11
1.6187501192
 21
14.3978723347
  0
LINE
  5
451
100
AcDbEntity
  8
0
100
AcDbLine
 62
7
  6
CONTINUOUS
 10
0.9312498808
 20
14.9723404408
 11
0.8375000596
 21
14.8446808815
  0
LINE
  5
452
100
AcDbEntity
  8
0
100
AcDbLine
 62
7
  6
CONTINUOUS
 10
1.7125001192
 20
13.7276595704
 11
1.8062501192
 21
13.8553191409
  0
LINE
  5
453
100
AcDbEntity
  8
0
100
AcDbLine
 62
7
  6
CONTINUOUS
 10
-1.35
 20
15.1
 11
-2.1
 21
14.2382978857
  0
LINE
  5
454
100
AcDbEntity
  8
0
100
AcDbLine
 62
7
  6
CONTINUOUS
 10
-1.8812500075
 20
14.2382978857
 11
-1.35
 21
14.8446808815
  0
LINE
  5
455
100
AcDbEntity
  8
0
100
AcDbLine
 62
7
  6
CONTINUOUS
 10
-0.3812499404
 20
14.9723404408
 11
-0.4749999404
 21
14.8765957713
  0
LINE
  5
456
100
AcDbEntity
  8
0
100
AcDbLine
 62
7
  6
CONTINUOUS
 10
0.3062499404
 20
13.7276595704
 11
0.3999999404
 21
13.823404251
  0
LWPOLYLINE
  5
457
100
AcDbEntity
  8
DRAFT
100
AcDbPolyline
 62
7
  6
CONTINUOUS
 90
11
 70
0
 10
5.7657109478
 20
20.5579484028
 10
5.7610228022
 20
20.5539454499
 10
5.7469943158
 20
20.5498966141
 10
5.7236827427
 20
20.545866614
 10
5.6910279385
 20
20.5418544732
 10
5.6490900475
 20
20.5378611682
 10
5.598106151
 20
20.5339084648
 10
5.5380669171
 20
20.5299985584
 10
5.4689816777
 20
20.5261292536
 10
5.3911155094
 20
20.5223157304
 10
5.3043629232
 20
20.5185556026
  0
LINE
  5
458
100
AcDbEntity
  8
0
100
AcDbLine
 62
7
  6
CONTINUOUS
 10
-0.2874999404
 20
14.8446808815
 11
-0.1937499404
 21
14.9085106611
  0
LINE
  5
459
100
AcDbEntity
  8
0
100
AcDbLine
 62
7
  6
CONTINUOUS
 10
1.0249998808
 20
14.8446808815
 11
1.1187498808
 21
14.9085106611
  0
LINE
  5
45A
100
AcDbEntity
  8
0
100
AcDbLine
 62
7
  6
CONTINUOUS
 10
0.2124999404
 20
13.8553191409
 11
0.1187499404
 21
13.7914893612
  0
LINE
  5
45B
100
AcDbEntity
  8
0
100
AcDbLine
 62
7
  6
CONTINUOUS
 10
1.6187501192
 20
14.3978723347
 11
1.5250001192
 21
14.3340425551
  0
LINE
  5
45C
100
AcDbEntity
  8
0
100
AcDbLine
 62
7
  6
CONTINUOUS
 10
1.55625
 20
14.174468106
 11
1.74375
 21
14.3021276653
  0
LINE
  5
45D
100
AcDbEntity
  8
0
100
AcDbLine
 62
7
  6
CONTINUOUS
 10
1.6187501192
 20
13.8553191409
 11
1.5250001192
 21
13.7914893612
  0
LINE
  5
45E
100
AcDbEntity
  8
0
100
AcDbLine
 62
7
  6
CONTINUOUS
 10
-0.225
 20
15.0680851102
 11
-0.3812499404
 21
14.9723404408
  0
LINE
  5
45F
100
AcDbEntity
  8
0
100
AcDbLine
 62
7
  6
CONTINUOUS
 10
1.0875
 20
15.0680851102
 11
0.9312498808
 21
14.9723404408
  0
LINE
  5
460
100
AcDbEntity
  8
0
100
AcDbLine
 62
7
  6
CONTINUOUS
 10
0.15
 20
13.6319148926
 11
0.3062499404
 21
13.7276595704
  0
LINE
  5
461
100
AcDbEntity
  8
0
100
AcDbLine
 62
7
  6
CONTINUOUS
 10
1.55625
 20
13.6319148926
 11
1.7125001192
 21
13.7276595704
  0
LINE
  5
462
100
AcDbEntity
  8
0
100
AcDbLine
 62
7
  6
CONTINUOUS
 10
1.1187498808
 20
14.9085106611
 11
1.2124998808
 21
14.9404255509
  0
LINE
  5
463
100
AcDbEntity
  8
0
100
AcDbLine
 62
7
  6
CONTINUOUS
 10
1.5250001192
 20
14.3340425551
 11
1.4312501192
 21
14.3021276653
  0
LINE
  5
464
100
AcDbEntity
  8
0
100
AcDbLine
 62
7
  6
CONTINUOUS
 10
1.5250001192
 20
13.7914893612
 11
1.4312501192
 21
13.7595744714
  0
LWPOLYLINE
  5
465
100
AcDbEntity
  8
RACCORDO
100
AcDbPolyline
 62
250
  6
CONTINUOUS
 90
19
 70
0
 10
-109.9374096343
 20
-16.0903294291
 10
-109.9591909526
 20
-16.0912868678
 10
-109.9808065787
 20
-16.0941386336
 10
-110.0020920692
 20
-16.0988630342
 10
-110.0228854918
 20
-16.1054241314
 10
-110.043028657
 20
-16.1137720135
 10
-110.0623683216
 20
-16.1238431755
 10
-110.0807573554
 20
-16.1355610023
 10
-110.0980558595
 20
-16.1488363512
 10
-110.1141322304
 20
-16.1635682294
 10
-110.1288641628
 20
-16.1796445638
 10
-110.1421395794
 20
-16.1969430527
 10
-110.1538574821
 20
-16.2153320948
 10
-110.1639287233
 20
-16.2346717934
 10
-110.1722766823
 20
-16.2548150192
 10
-110.1788378481
 20
-16.2756085271
 10
-110.1835623037
 20
-16.2968941263
 10
-110.1864141061
 20
-16.3185098835
 10
-110.187371558
 20
-16.3402913529
  0
LWPOLYLINE
  5
466
100
AcDbEntity
  8
RACCORDO
100
AcDbPolyline
 62
250
  6
CONTINUOUS
 90
19
 70
0
 10
-109.9734514553
 20
-16.054287608
 10
-109.9952328598
 20
-16.0552450543
 10
-110.0168485589
 20
-16.0580968406
 10
-110.0381341079
 20
-16.0628212716
 10
-110.0589275735
 20
-16.0693824053
 10
-110.0790707664
 20
-16.077730327
 10
-110.0984104441
 20
-16.0878015286
 10
-110.1167994769
 20
-16.0995193917
 10
-110.1340979676
 20
-16.1127947711
 10
-110.150174315
 20
-16.1275266721
 10
-110.164906216
 20
-16.1436030196
 10
-110.1781815954
 20
-16.1609015102
 10
-110.1898994585
 20
-16.179290543
 10
-110.1999706601
 20
-16.1986302207
 10
-110.2083185818
 20
-16.2187734136
 10
-110.2148797155
 20
-16.2395668793
 10
-110.2196041465
 20
-16.2608524282
 10
-110.2224559328
 20
-16.2824681273
 10
-110.2234133791
 20
-16.3042495318
  0
LWPOLYLINE
  5
467
100
AcDbEntity
  8
RACCORDO
100
AcDbPolyline
 62
250
  6
CONTINUOUS
 90
9
 70
0
 10
-109.8955529571
 20
-13.1068786796
 10
-109.9049232025
 20
-13.1072051496
 10
-109.9131382572
 20
-13.107539528
 10
-109.9201855092
 20
-13.1078819166
 10
-109.9260775705
 20
-13.1082322136
 10
-109.9307522343
 20
-13.1085866086
 10
-109.9341887651
 20
-13.1089438314
 10
-109.9364078984
 20
-13.1093051522
 10
-109.9374096343
 20
-13.1096705709
  0
LWPOLYLINE
  5
468
100
AcDbEntity
  8
RACCORDO
100
AcDbPolyline
 62
250
  6
CONTINUOUS
 90
7
 70
0
 10
-110.1484700677
 20
-12.857648809
 10
-110.1597796131
 20
-12.8579805985
 10
-110.1691928693
 20
-12.8583195063
 10
-110.1766781838
 20
-12.8586621076
 10
-110.1822125196
 20
-12.8590072607
 10
-110.1857802154
 20
-12.8593561072
 10
-110.1873715581
 20
-12.8597086471
  0
LINE
  5
469
100
AcDbEntity
  8
RACCORDO
100
AcDbLine
 62
250
  6
CONTINUOUS
 10
-109.8736360158
 20
-13.1062601192
 11
-109.8955529571
 21
-13.1068786796
  0
LINE
  5
46A
100
AcDbEntity
  8
RACCORDO
100
AcDbLine
 62
250
  6
CONTINUOUS
 10
-110.1203154362
 20
-12.8570067536
 11
-110.1484700677
 21
-12.857648809
  0
LINE
  5
46B
100
AcDbEntity
  8
RACCORDO
100
AcDbLine
 62
250
  6
CONTINUOUS
 10
-109.8476205413
 20
-13.1056904328
 11
-109.8736360158
 21
-13.1062601192
  0
LINE
  5
46C
100
AcDbEntity
  8
RACCORDO
100
AcDbLine
 62
250
  6
CONTINUOUS
 10
-109.801814775
 20
-13.1049476913
 11
-109.8476205413
 21
-13.1056904328
  0
LINE
  5
46D
100
AcDbEntity
  8
RACCORDO
100
AcDbLine
 62
250
  6
CONTINUOUS
 10
-110.0649955168
 20
-12.8561163243
 11
-110.1203154362
 21
-12.8570067536
  0
LINE
  5
46E
100
AcDbEntity
  8
RACCORDO
100
AcDbLine
 62
250
  6
CONTINUOUS
 10
-109.9694873762
 20
-12.8551044024
 11
-110.0649955168
 21
-12.8561163243
  0
LINE
  5
46F
100
AcDbEntity
  8
RACCORDO
100
AcDbLine
 62
250
  6
CONTINUOUS
 10
-109.7304667989
 20
-13.1042012467
 11
-109.801814775
 21
-13.1049476913
  0
LINE
  5
470
100
AcDbEntity
  8
RACCORDO
100
AcDbLine
 62
250
  6
CONTINUOUS
 10
-109.691360721
 20
-13.1039434784
 11
-109.7304667989
 21
-13.1042012467
  0
LINE
  5
471
100
AcDbEntity
  8
RACCORDO
100
AcDbLine
 62
250
  6
CONTINUOUS
 10
-109.790298343
 20
-12.8540656985
 11
-109.9694873762
 21
-12.8551044024
  0
LINE
  5
472
100
AcDbEntity
  8
RACCORDO
100
AcDbLine
 62
250
  6
CONTINUOUS
 10
-109.7374172425
 20
-13.3956743158
 11
-110.2319885951
 21
-13.3956743158
  0
LINE
  5
473
100
AcDbEntity
  8
RACCORDO
100
AcDbLine
 62
250
  6
CONTINUOUS
 10
-109.9734514553
 20
-13.145712392
 11
-109.7331296345
 21
-13.145712392
  0
LINE
  5
474
100
AcDbEntity
  8
RACCORDO
100
AcDbLine
 62
250
  6
CONTINUOUS
 10
-109.4411232385
 20
-12.8537059959
 11
-109.790298343
 21
-12.8540656985
  0
LINE
  5
475
100
AcDbEntity
  8
0
100
AcDbLine
 62
7
  6
CONTINUOUS
 10
-102.2
 20
-8.0
 11
-102.3
 21
-8.0
  0
LWPOLYLINE
  5
476
100
AcDbEntity
  8
DRAFT
100
AcDbPolyline
 62
7
  6
CONTINUOUS
 90
12
 70
0
 10
5.7657109478
 20
-20.5579484028
 10
5.7610228022
 20
-20.5539454499
 10
5.7469943158
 20
-20.5498966141
 10
5.7236827427
 20
-20.545866614
 10
5.6910279385
 20
-20.5418544732
 10
5.6490900475
 20
-20.5378611682
 10
5.598106151
 20
-20.5339084648
 10
5.5380669171
 20
-20.5299985584
 10
5.4689816777
 20
-20.5261292536
 10
5.3911155094
 20
-20.5223157304
 10
5.3043629232
 20
-20.5185556026
 10
5.1050965072
 20
-20.5112250296
  0
LINE
  5
477
100
AcDbEntity
  8
0
100
AcDbLine
 62
7
  6
CONTINUOUS
 10
10.45
 20
-19.85
 11
10.5875620037
 21
-19.9875620037
  0
LINE
  5
478
100
AcDbEntity
  8
0
100
AcDbLine
 62
7
  6
CONTINUOUS
 10
-2.1
 20
14.2382978857
 11
-2.1
 21
14.0468085021
  0
LINE
  5
479
100
AcDbEntity
  8
0
100
AcDbLine
 62
7
  6
CONTINUOUS
 10
-1.35
 20
14.8446808815
 11
-1.35
 21
14.2382978857
  0
LINE
  5
47A
100
AcDbEntity
  8
0
100
AcDbLine
 62
7
  6
CONTINUOUS
 10
-1.35
 20
14.0468085021
 11
-1.35
 21
13.6
  0
LINE
  5
47B
100
AcDbEntity
  8
0
100
AcDbLine
 62
7
  6
CONTINUOUS
 10
-1.1625
 20
13.6
 11
-1.1625
 21
14.0468085021
  0
LINE
  5
47C
100
AcDbEntity
  8
0
100
AcDbLine
 62
7
  6
CONTINUOUS
 10
-1.1625
 20
14.2382978857
 11
-1.1625
 21
15.1
  0
LINE
  5
47D
100
AcDbEntity
  8
0
100
AcDbLine
 62
7
  6
CONTINUOUS
 10
-0.8500000298
 20
14.0468085021
 11
-0.8500000298
 21
14.2382978857
  0
LINE
  5
47E
100
AcDbEntity
  8
0
100
AcDbLine
 62
7
  6
CONTINUOUS
 10
-0.6
 20
14.4936170042
 11
-0.6
 21
14.2063829958
  0
LINE
  5
47F
100
AcDbEntity
  8
0
100
AcDbLine
 62
7
  6
CONTINUOUS
 10
-0.4437500596
 20
14.2382978857
 11
-0.4437500596
 21
14.4617021143
  0
LINE
  5
480
100
AcDbEntity
  8
0
100
AcDbLine
 62
7
  6
CONTINUOUS
 10
-0.375
 20
-5.7408196255
 11
-0.375
 21
-5.1993622135
  0
LINE
  5
481
100
AcDbEntity
  8
0
100
AcDbLine
 62
7
  6
CONTINUOUS
 10
-0.375
 20
5.1993622135
 11
-0.375
 21
5.7408196255
  0
LINE
  5
482
100
AcDbEntity
  8
0
100
AcDbLine
 62
7
  6
CONTINUOUS
 10
0.3687500596
 20
14.4617021143
 11
0.3687500596
 21
14.2382978857
  0
LINE
  5
483
100
AcDbEntity
  8
0
100
AcDbLine
 62
7
  6
CONTINUOUS
 10
0.375
 20
5.7408196255
 11
0.375
 21
5.1993622135
  0
LINE
  5
484
100
AcDbEntity
  8
0
100
AcDbLine
 62
7
  6
CONTINUOUS
 10
0.375
 20
-5.1993622135
 11
0.375
 21
-5.7408196255
  0
LINE
  5
485
100
AcDbEntity
  8
0
100
AcDbLine
 62
7
  6
CONTINUOUS
 10
0.525
 20
14.2063829958
 11
0.525
 21
14.4936170042
  0
LINE
  5
486
100
AcDbEntity
  8
0
100
AcDbLine
 62
7
  6
CONTINUOUS
 10
0.7749999404
 20
14.685106343
 11
0.7749999404
 21
14.5574467838
  0
LINE
  5
487
100
AcDbEntity
  8
0
100
AcDbLine
 62
7
  6
CONTINUOUS
 10
0.9312498808
 20
14.5893616736
 11
0.9312498808
 21
14.6531914532
  0
LINE
  5
488
100
AcDbEntity
  8
0
100
AcDbLine
 62
7
  6
CONTINUOUS
 10
1.8687498808
 20
14.0148936123
 11
1.9000001192
 21
14.2382978857
  0
LINE
  5
489
100
AcDbEntity
  8
0
100
AcDbLine
 62
7
  6
CONTINUOUS
 10
-0.4437500596
 20
14.4617021143
 11
-0.4125
 21
14.6531914532
  0
LINE
  5
48A
100
AcDbEntity
  8
0
100
AcDbLine
 62
7
  6
CONTINUOUS
 10
0.3687500596
 20
14.2382978857
 11
0.3375
 21
14.0468085021
  0
LINE
  5
48B
100
AcDbEntity
  8
0
100
AcDbLine
 62
7
  6
CONTINUOUS
 10
1.74375
 20
14.2382978857
 11
1.7125001192
 21
14.0468085021
  0
LINE
  5
48C
100
AcDbEntity
  8
0
100
AcDbLine
 62
7
  6
CONTINUOUS
 10
-0.5687499404
 20
14.6531914532
 11
-0.6
 21
14.4936170042
  0
LINE
  5
48D
100
AcDbEntity
  8
0
100
AcDbLine
 62
7
  6
CONTINUOUS
 10
0.4937499404
 20
14.0468085021
 11
0.525
 21
14.2063829958
  0
LINE
  5
48E
100
AcDbEntity
  8
0
100
AcDbLine
 62
7
  6
CONTINUOUS
 10
-0.5375000596
 20
14.7489362121
 11
-0.5687499404
 21
14.6531914532
  0
LINE
  5
48F
100
AcDbEntity
  8
0
100
AcDbLine
 62
7
  6
CONTINUOUS
 10
0.4625000596
 20
13.9510638326
 11
0.4937499404
 21
14.0468085021
  0
LINE
  5
490
100
AcDbEntity
  8
0
100
AcDbLine
 62
7
  6
CONTINUOUS
 10
0.9312498808
 20
14.6531914532
 11
0.9625001192
 21
14.7489362121
  0
LINE
  5
491
100
AcDbEntity
  8
0
100
AcDbLine
 62
7
  6
CONTINUOUS
 10
1.7125001192
 20
14.5893616736
 11
1.6812498808
 21
14.4936170042
  0
LINE
  5
492
100
AcDbEntity
  8
0
100
AcDbLine
 62
7
  6
CONTINUOUS
 10
1.7125001192
 20
14.0468085021
 11
1.6812498808
 21
13.9510638326
  0
LINE
  5
493
100
AcDbEntity
  8
0
100
AcDbLine
 62
7
  6
CONTINUOUS
 10
0.8375000596
 20
14.8446808815
 11
0.7749999404
 21
14.685106343
  0
LINE
  5
494
100
AcDbEntity
  8
0
100
AcDbLine
 62
7
  6
CONTINUOUS
 10
1.8062501192
 20
13.8553191409
 11
1.8687498808
 21
14.0148936123
  0
LINE
  5
495
100
AcDbEntity
  8
0
100
AcDbLine
 62
7
  6
CONTINUOUS
 10
0.3999999404
 20
13.823404251
 11
0.4625000596
 21
13.9510638326
  0
LINE
  5
496
100
AcDbEntity
  8
0
100
AcDbLine
 62
7
  6
CONTINUOUS
 10
1.6812498808
 20
13.9510638326
 11
1.6187501192
 21
13.8553191409
  0
LINE
  5
497
100
AcDbEntity
  8
0
100
AcDbLine
 62
7
  6
CONTINUOUS
 10
-104.1
 20
-1.25
 11
-103.2702127755
 21
-1.25
  0
LINE
  5
498
100
AcDbEntity
  8
0
100
AcDbLine
 62
7
  6
CONTINUOUS
 10
-103.4297872245
 20
-1.0937500037
 11
-103.9404255509
 21
-1.0937500037
  0
LINE
  5
499
100
AcDbEntity
  8
0
100
AcDbLine
 62
7
  6
CONTINUOUS
 10
5.7408196255
 20
-0.375
 11
5.1993622135
 21
-0.375
  0
LINE
  5
49A
100
AcDbEntity
  8
0
100
AcDbLine
 62
7
  6
CONTINUOUS
 10
-5.1993622135
 20
-0.375
 11
-5.7408196255
 21
-0.375
  0
LINE
  5
49B
100
AcDbEntity
  8
0
100
AcDbLine
 62
7
  6
CONTINUOUS
 10
-103.1106382817
 20
-0.2812500298
 11
-103.0468085021
 21
-0.2812500298
  0
LINE
  5
49C
100
AcDbEntity
  8
0
100
AcDbLine
 62
7
  6
CONTINUOUS
 10
-103.9404255509
 20
-0.1875000298
 11
-104.1
 21
-0.1875000298
  0
LINE
  5
49D
100
AcDbEntity
  8
0
100
AcDbLine
 62
7
  6
CONTINUOUS
 10
-103.0148936123
 20
-0.125
 11
-103.1425531715
 21
-0.125
  0
LINE
  5
49E
100
AcDbEntity
  8
0
100
AcDbLine
 62
7
  6
CONTINUOUS
 10
-5.7408196255
 20
0.375
 11
-5.1993622135
 21
0.375
  0
LINE
  5
49F
100
AcDbEntity
  8
0
100
AcDbLine
 62
7
  6
CONTINUOUS
 10
5.1993622135
 20
0.375
 11
5.7408196255
 21
0.375
  0
LINE
  5
4A0
100
AcDbEntity
  8
0
100
AcDbLine
 62
7
  6
CONTINUOUS
 10
-103.4297872245
 20
0.625
 11
-103.3021276653
 21
0.625
  0
LWPOLYLINE
  5
4A1
100
AcDbEntity
  8
RACCORDO
100
AcDbPolyline
 62
7
  6
CONTINUOUS
 90
7
 70
0
 10
-100.728215826
 20
19.9410851623
 10
-100.7283996533
 20
19.9411309008
 10
-100.728558448
 20
19.9411767027
 10
-100.7286922101
 20
19.9412225679
 10
-100.7288009397
 20
19.9412684965
 10
-100.7288846367
 20
19.9413144884
 10
-100.7289433011
 20
19.9413605437
  0
LINE
  5
4A2
100
AcDbEntity
  8
0
100
AcDbLine
 62
7
  6
CONTINUOUS
 10
1.7125001192
 20
14.6531914532
 11
1.7125001192
 21
14.5893616736
  0
LINE
  5
4A3
100
AcDbEntity
  8
0
100
AcDbLine
 62
7
  6
CONTINUOUS
 10
1.74375
 20
14.3021276653
 11
1.74375
 21
14.2382978857
  0
LINE
  5
4A4
100
AcDbEntity
  8
0
100
AcDbLine
 62
7
  6
CONTINUOUS
 10
1.9000001192
 20
14.2382978857
 11
1.9000001192
 21
14.4617021143
  0
LINE
  5
4A5
100
AcDbEntity
  8
0
100
AcDbLine
 62
7
  6
CONTINUOUS
 10
-103.7489362121
 20
1.0624999404
 11
-103.685106343
 21
1.0624999404
  0
LINE
  5
4A6
100
AcDbEntity
  8
0
100
AcDbLine
 62
7
  6
CONTINUOUS
 10
-103.0787233919
 20
1.09375
 11
-102.9510638326
 21
1.09375
  0
LINE
  5
4A7
100
AcDbEntity
  8
0
100
AcDbLine
 62
7
  6
CONTINUOUS
 10
-103.685106343
 20
1.2187500596
 11
-103.7489362121
 21
1.2187500596
  0
LINE
  5
4A8
100
AcDbEntity
  8
0
100
AcDbLine
 62
7
  6
CONTINUOUS
 10
-102.9510638326
 20
1.2499999404
 11
-103.0787233919
 21
1.2499999404
  0
LINE
  5
4A9
100
AcDbEntity
  8
0
100
AcDbLine
 62
7
  6
CONTINUOUS
 10
-102.3
 20
8.0
 11
-102.2
 21
8.0
  0
LWPOLYLINE
  5
4AA
100
AcDbEntity
  8
RACCORDO
100
AcDbPolyline
 62
7
  6
CONTINUOUS
 90
7
 70
0
 10
100.728215826
 20
-19.9410851623
 10
100.7283996533
 20
-19.9411309008
 10
100.728558448
 20
-19.9411767027
 10
100.7286922101
 20
-19.9412225679
 10
100.7288009397
 20
-19.9412684965
 10
100.7288846367
 20
-19.9413144884
 10
100.7289433011
 20
-19.9413605437
  0
LINE
  5
4AB
100
AcDbEntity
  8
0
100
AcDbLine
 62
7
  6
CONTINUOUS
 10
-10.45
 20
19.85
 11
-10.5875620037
 21
19.9875620037
  0
LINE
  5
4AC
100
AcDbEntity
  8
0
100
AcDbLine
 62
7
  6
CONTINUOUS
 10
-0.2874999404
 20
13.8553191409
 11
-0.4125
 21
14.0468085021
  0
LINE
  5
4AD
100
AcDbEntity
  8
0
100
AcDbLine
 62
7
  6
CONTINUOUS
 10
0.2124999404
 20
14.8446808815
 11
0.3375
 21
14.6531914532
  0
LINE
  5
4AE
100
AcDbEntity
  8
0
100
AcDbLine
 62
7
  6
CONTINUOUS
 10
1.0562501192
 20
13.8553191409
 11
0.99375
 21
13.9510638326
  0
LINE
  5
4AF
100
AcDbEntity
  8
0
100
AcDbLine
 62
7
  6
CONTINUOUS
 10
-0.5375000596
 20
13.9510638326
 11
-0.4749999404
 21
13.823404251
  0
LINE
  5
4B0
100
AcDbEntity
  8
0
100
AcDbLine
 62
7
  6
CONTINUOUS
 10
0.4625000596
 20
14.7489362121
 11
0.3999999404
 21
14.8765957713
  0
LINE
  5
4B1
100
AcDbEntity
  8
0
100
AcDbLine
 62
7
  6
CONTINUOUS
 10
0.7749999404
 20
14.5574467838
 11
0.8375000596
 21
14.3978723347
  0
LINE
  5
4B2
100
AcDbEntity
  8
0
100
AcDbLine
 62
7
  6
CONTINUOUS
 10
1.8687498808
 20
14.685106343
 11
1.8062501192
 21
14.8446808815
  0
LINE
  5
4B3
100
AcDbEntity
  8
0
100
AcDbLine
 62
7
  6
CONTINUOUS
 10
-0.5687499404
 20
14.0468085021
 11
-0.5375000596
 21
13.9510638326
  0
LINE
  5
4B4
100
AcDbEntity
  8
0
100
AcDbLine
 62
7
  6
CONTINUOUS
 10
0.4937499404
 20
14.6531914532
 11
0.4625000596
 21
14.7489362121
  0
LINE
  5
4B5
100
AcDbEntity
  8
0
100
AcDbLine
 62
7
  6
CONTINUOUS
 10
0.8375000596
 20
13.9510638326
 11
0.8687499404
 21
13.8553191409
  0
LINE
  5
4B6
100
AcDbEntity
  8
0
100
AcDbLine
 62
7
  6
CONTINUOUS
 10
0.9625001192
 20
14.4936170042
 11
0.9312498808
 21
14.5893616736
  0
LINE
  5
4B7
100
AcDbEntity
  8
0
100
AcDbLine
 62
7
  6
CONTINUOUS
 10
1.6812498808
 20
14.7489362121
 11
1.7125001192
 21
14.6531914532
  0
LINE
  5
4B8
100
AcDbEntity
  8
0
100
AcDbLine
 62
7
  6
CONTINUOUS
 10
-0.6
 20
14.2063829958
 11
-0.5687499404
 21
14.0468085021
  0
LINE
  5
4B9
100
AcDbEntity
  8
0
100
AcDbLine
 62
7
  6
CONTINUOUS
 10
0.525
 20
14.4936170042
 11
0.4937499404
 21
14.6531914532
  0
LINE
  5
4BA
100
AcDbEntity
  8
0
100
AcDbLine
 62
7
  6
CONTINUOUS
 10
-0.4125
 20
14.0468085021
 11
-0.4437500596
 21
14.2382978857
  0
LINE
  5
4BB
100
AcDbEntity
  8
0
100
AcDbLine
 62
7
  6
CONTINUOUS
 10
0.3375
 20
14.6531914532
 11
0.3687500596
 21
14.4617021143
  0
LINE
  5
4BC
100
AcDbEntity
  8
0
100
AcDbLine
 62
7
  6
CONTINUOUS
 10
1.9000001192
 20
14.4617021143
 11
1.8687498808
 21
14.685106343
  0
LINE
  5
4BD
100
AcDbEntity
  8
0
100
AcDbLine
 62
7
  6
CONTINUOUS
 10
8.9121049871
 20
-19.837462941
 11
8.9121049871
 21
-17.75
  0
LINE
  5
4BE
100
AcDbEntity
  8
DRAFT
100
AcDbLine
 62
7
  6
CONTINUOUS
 10
9.05
 20
-19.85
 11
9.05
 21
-17.75
  0
LINE
  5
4BF
100
AcDbEntity
  8
DRAFT
100
AcDbLine
 62
7
  6
CONTINUOUS
 10
10.45
 20
-17.75
 11
10.45
 21
-19.85
  0
LINE
  5
4C0
100
AcDbEntity
  8
0
100
AcDbLine
 62
7
  6
CONTINUOUS
 10
10.5878950129
 20
-17.75
 11
10.5878950129
 21
-19.837462941
  0
LINE
  5
4C1
100
AcDbEntity
  8
0
100
AcDbLine
 62
7
  6
CONTINUOUS
 10
1.3999998808
 20
13.6
 11
1.55625
 21
13.6319148926
  0
LINE
  5
4C2
100
AcDbEntity
  8
0
100
AcDbLine
 62
7
  6
CONTINUOUS
 10
0.1187499404
 20
13.7914893612
 11
-0.0375
 21
13.7595744714
  0
LINE
  5
4C3
100
AcDbEntity
  8
0
100
AcDbLine
 62
7
  6
CONTINUOUS
 10
1.3999998808
 20
14.1425531715
 11
1.55625
 21
14.174468106
  0
LINE
  5
4C4
100
AcDbEntity
  8
0
100
AcDbLine
 62
7
  6
CONTINUOUS
 10
1.2437501192
 20
15.1
 11
1.0875
 21
15.0680851102
  0
LINE
  5
4C5
100
AcDbEntity
  8
0
100
AcDbLine
 62
7
  6
CONTINUOUS
 10
-0.1937499404
 20
14.9085106611
 11
-0.0375
 21
14.9404255509
  0
LINE
  5
4C6
100
AcDbEntity
  8
0
100
AcDbLine
 62
7
  6
CONTINUOUS
 10
-0.0375
 20
13.6
 11
0.15
 21
13.6319148926
  0
LINE
  5
4C7
100
AcDbEntity
  8
0
100
AcDbLine
 62
7
  6
CONTINUOUS
 10
-0.0375
 20
15.1
 11
-0.225
 21
15.0680851102
  0
LWPOLYLINE
  5
4C8
100
AcDbEntity
  8
RACCORDO
100
AcDbPolyline
 62
250
  6
CONTINUOUS
 90
19
 70
0
 10
109.9734514553
 20
16.054287608
 10
109.9952328598
 20
16.0552450543
 10
110.0168485589
 20
16.0580968406
 10
110.0381341079
 20
16.0628212716
 10
110.0589275735
 20
16.0693824053
 10
110.0790707664
 20
16.077730327
 10
110.0984104441
 20
16.0878015286
 10
110.1167994769
 20
16.0995193918
 10
110.1340979676
 20
16.1127947711
 10
110.150174315
 20
16.1275266721
 10
110.164906216
 20
16.1436030196
 10
110.1781815954
 20
16.1609015102
 10
110.1898994585
 20
16.179290543
 10
110.1999706601
 20
16.1986302207
 10
110.2083185818
 20
16.2187734136
 10
110.2148797155
 20
16.2395668793
 10
110.2196041465
 20
16.2608524282
 10
110.2224559328
 20
16.2824681273
 10
110.2234133791
 20
16.3042495318
  0
LWPOLYLINE
  5
4C9
100
AcDbEntity
  8
RACCORDO
100
AcDbPolyline
 62
250
  6
CONTINUOUS
 90
19
 70
0
 10
109.9374096343
 20
16.0903294291
 10
109.9591909526
 20
16.0912868678
 10
109.9808065787
 20
16.0941386336
 10
110.0020920692
 20
16.0988630342
 10
110.0228854918
 20
16.1054241314
 10
110.043028657
 20
16.1137720135
 10
110.0623683216
 20
16.1238431755
 10
110.0807573554
 20
16.1355610023
 10
110.0980558595
 20
16.1488363512
 10
110.1141322304
 20
16.1635682294
 10
110.1288641628
 20
16.1796445638
 10
110.1421395794
 20
16.1969430527
 10
110.1538574821
 20
16.2153320948
 10
110.1639287233
 20
16.2346717934
 10
110.1722766823
 20
16.2548150192
 10
110.1788378481
 20
16.2756085271
 10
110.1835623037
 20
16.2968941263
 10
110.1864141061
 20
16.3185098835
 10
110.187371558
 20
16.3402913529
  0
LWPOLYLINE
  5
4CA
100
AcDbEntity
  8
RACCORDO
100
AcDbPolyline
 62
250
  6
CONTINUOUS
 90
9
 70
0
 10
109.8955529571
 20
13.1068786796
 10
109.9049232025
 20
13.1072051496
 10
109.9131382572
 20
13.107539528
 10
109.9201855092
 20
13.1078819166
 10
109.9260775705
 20
13.1082322136
 10
109.9307522343
 20
13.1085866086
 10
109.9341887651
 20
13.1089438314
 10
109.9364078984
 20
13.1093051522
 10
109.9374096343
 20
13.1096705709
  0
LWPOLYLINE
  5
4CB
100
AcDbEntity
  8
RACCORDO
100
AcDbPolyline
 62
250
  6
CONTINUOUS
 90
7
 70
0
 10
110.1484700677
 20
12.857648809
 10
110.1597796131
 20
12.8579805985
 10
110.1691928693
 20
12.8583195063
 10
110.1766781838
 20
12.8586621076
 10
110.1822125196
 20
12.8590072607
 10
110.1857802154
 20
12.8593561072
 10
110.1873715581
 20
12.8597086471
  0
LINE
  5
4CC
100
AcDbEntity
  8
RACCORDO
100
AcDbLine
 62
250
  6
CONTINUOUS
 10
109.8736360158
 20
13.1062601192
 11
109.8955529571
 21
13.1068786796
  0
LINE
  5
4CD
100
AcDbEntity
  8
RACCORDO
100
AcDbLine
 62
250
  6
CONTINUOUS
 10
110.1203154362
 20
12.8570067536
 11
110.1484700677
 21
12.857648809
  0
LINE
  5
4CE
100
AcDbEntity
  8
RACCORDO
100
AcDbLine
 62
250
  6
CONTINUOUS
 10
109.8476205413
 20
13.1056904328
 11
109.8736360158
 21
13.1062601192
  0
LINE
  5
4CF
100
AcDbEntity
  8
RACCORDO
100
AcDbLine
 62
250
  6
CONTINUOUS
 10
109.801814775
 20
13.1049476913
 11
109.8476205413
 21
13.1056904328
  0
LINE
  5
4D0
100
AcDbEntity
  8
RACCORDO
100
AcDbLine
 62
250
  6
CONTINUOUS
 10
110.0649955168
 20
12.8561163243
 11
110.1203154362
 21
12.8570067536
  0
LINE
  5
4D1
100
AcDbEntity
  8
RACCORDO
100
AcDbLine
 62
250
  6
CONTINUOUS
 10
109.9694873762
 20
12.8551044025
 11
110.0649955168
 21
12.8561163243
  0
LINE
  5
4D2
100
AcDbEntity
  8
RACCORDO
100
AcDbLine
 62
250
  6
CONTINUOUS
 10
109.7304667989
 20
13.1042012467
 11
109.801814775
 21
13.1049476913
  0
LINE
  5
4D3
100
AcDbEntity
  8
RACCORDO
100
AcDbLine
 62
250
  6
CONTINUOUS
 10
109.691360721
 20
13.1039434784
 11
109.7304667989
 21
13.1042012467
  0
LINE
  5
4D4
100
AcDbEntity
  8
RACCORDO
100
AcDbLine
 62
250
  6
CONTINUOUS
 10
109.790298343
 20
12.8540656985
 11
109.9694873762
 21
12.8551044025
  0
LINE
  5
4D5
100
AcDbEntity
  8
RACCORDO
100
AcDbLine
 62
250
  6
CONTINUOUS
 10
109.4411232385
 20
12.8537059959
 11
109.790298343
 21
12.8540656985
  0
LINE
  5
4D6
100
AcDbEntity
  8
RACCORDO
100
AcDbLine
 62
250
  6
CONTINUOUS
 10
109.9734514553
 20
13.145712392
 11
109.7331296345
 21
13.145712392
  0
LINE
  5
4D7
100
AcDbEntity
  8
0
100
AcDbLine
 62
7
  6
CONTINUOUS
 10
97.0
 20
13.2
 11
-97.0
 21
13.2
  0
LINE
  5
4D8
100
AcDbEntity
  8
0
100
AcDbLine
 62
7
  6
CONTINUOUS
 10
-97.0
 20
13.3
 11
97.0
 21
13.3
  0
LINE
  5
4D9
100
AcDbEntity
  8
RACCORDO
100
AcDbLine
 62
250
  6
CONTINUOUS
 10
109.7374172425
 20
13.3956743158
 11
110.2319885951
 21
13.3956743158
  0
LINE
  5
4DA
100
AcDbEntity
  8
0
100
AcDbLine
 62
7
  6
CONTINUOUS
 10
-1.35
 20
13.6
 11
-1.1625
 21
13.6
  0
LINE
  5
4DB
100
AcDbEntity
  8
0
100
AcDbLine
 62
7
  6
CONTINUOUS
 10
1.275
 20
13.6
 11
1.3999998808
 21
13.6
  0
LINE
  5
4DC
100
AcDbEntity
  8
0
100
AcDbLine
 62
7
  6
CONTINUOUS
 10
1.4312501192
 20
13.7595744714
 11
1.2437501192
 21
13.7595744714
  0
LINE
  5
4DD
100
AcDbEntity
  8
0
100
AcDbLine
 62
7
  6
CONTINUOUS
 10
0.99375
 20
13.9510638326
 11
0.8375000596
 21
13.9510638326
  0
LINE
  5
4DE
100
AcDbEntity
  8
0
100
AcDbLine
 62
7
  6
CONTINUOUS
 10
-2.1
 20
14.0468085021
 11
-1.35
 21
14.0468085021
  0
LINE
  5
4DF
100
AcDbEntity
  8
0
100
AcDbLine
 62
7
  6
CONTINUOUS
 10
-1.1625
 20
14.0468085021
 11
-0.8500000298
 21
14.0468085021
  0
LINE
  5
4E0
100
AcDbEntity
  8
0
100
AcDbLine
 62
7
  6
CONTINUOUS
 10
1.2437501192
 20
14.1425531715
 11
1.3999998808
 21
14.1425531715
  0
LINE
  5
4E1
100
AcDbEntity
  8
0
100
AcDbLine
 62
7
  6
CONTINUOUS
 10
-0.8500000298
 20
14.2382978857
 11
-1.1625
 21
14.2382978857
  0
LINE
  5
4E2
100
AcDbEntity
  8
0
100
AcDbLine
 62
7
  6
CONTINUOUS
 10
-1.35
 20
14.2382978857
 11
-1.8812500075
 21
14.2382978857
  0
LINE
  5
4E3
100
AcDbEntity
  8
0
100
AcDbLine
 62
7
  6
CONTINUOUS
 10
1.4312501192
 20
14.3021276653
 11
1.2124998808
 21
14.3021276653
  0
LINE
  5
4E4
100
AcDbEntity
  8
0
100
AcDbLine
 62
7
  6
CONTINUOUS
 10
1.2124998808
 20
14.9404255509
 11
1.4312501192
 21
14.9404255509
  0
LINE
  5
4E5
100
AcDbEntity
  8
0
100
AcDbLine
 62
7
  6
CONTINUOUS
 10
1.3999998808
 20
15.1
 11
1.2437501192
 21
15.1
  0
LINE
  5
4E6
100
AcDbEntity
  8
0
100
AcDbLine
 62
7
  6
CONTINUOUS
 10
-1.1625
 20
15.1
 11
-1.35
 21
15.1
  0
LINE
  5
4E7
100
AcDbEntity
  8
RACCORDO
100
AcDbLine
 62
250
  6
CONTINUOUS
 10
109.7374172425
 20
15.8043256842
 11
110.2319885951
 21
15.8043256842
  0
LINE
  5
4E8
100
AcDbEntity
  8
0
100
AcDbLine
 62
7
  6
CONTINUOUS
 10
-0.225
 20
13.6319148926
 11
-0.0375
 21
13.6
  0
LINE
  5
4E9
100
AcDbEntity
  8
0
100
AcDbLine
 62
7
  6
CONTINUOUS
 10
0.15
 20
15.0680851102
 11
-0.0375
 21
15.1
  0
LINE
  5
4EA
100
AcDbEntity
  8
0
100
AcDbLine
 62
7
  6
CONTINUOUS
 10
-0.0375
 20
13.7595744714
 11
-0.1937499404
 21
13.7914893612
  0
LINE
  5
4EB
100
AcDbEntity
  8
0
100
AcDbLine
 62
7
  6
CONTINUOUS
 10
1.1187498808
 20
13.6319148926
 11
1.275
 21
13.6
  0
LINE
  5
4EC
100
AcDbEntity
  8
0
100
AcDbLine
 62
7
  6
CONTINUOUS
 10
1.0875
 20
14.174468106
 11
1.2437501192
 21
14.1425531715
  0
LINE
  5
4ED
100
AcDbEntity
  8
0
100
AcDbLine
 62
7
  6
CONTINUOUS
 10
-0.0375
 20
14.9404255509
 11
0.1187499404
 21
14.9085106611
  0
LINE
  5
4EE
100
AcDbEntity
  8
0
100
AcDbLine
 62
7
  6
CONTINUOUS
 10
1.55625
 20
15.0680851102
 11
1.3999998808
 21
15.1
  0
LINE
  5
4EF
100
AcDbEntity
  8
0
100
AcDbLine
 62
7
  6
CONTINUOUS
 10
1.2437501192
 20
13.7595744714
 11
1.1500001192
 21
13.7914893612
  0
LINE
  5
4F0
100
AcDbEntity
  8
0
100
AcDbLine
 62
7
  6
CONTINUOUS
 10
1.2124998808
 20
14.3021276653
 11
1.1187498808
 21
14.3340425551
  0
LINE
  5
4F1
100
AcDbEntity
  8
0
100
AcDbLine
 62
7
  6
CONTINUOUS
 10
1.4312501192
 20
14.9404255509
 11
1.5250001192
 21
14.9085106611
  0
LWPOLYLINE
  5
4F2
100
AcDbEntity
  8
RACCORDO
100
AcDbPolyline
 62
250
  6
CONTINUOUS
 90
9
 70
0
 10
100.5207504682
 20
-20.4734133791
 10
100.5223414366
 20
-20.4739769353
 10
100.5260076144
 20
-20.4745349825
 10
100.5317490017
 20
-20.4750875207
 10
100.5396143964
 20
-20.475637755
 10
100.5495550006
 20
-20.4761824802
 10
100.5614244204
 20
-20.4767120813
 10
100.5752693975
 20
-20.4772257956
 10
100.6084591798
 20
-20.4782005241
  0
LINE
  5
4F3
100
AcDbEntity
  8
0
100
AcDbLine
 62
7
  6
CONTINUOUS
 10
-0.3812499404
 20
13.7276595704
 11
-0.225
 21
13.6319148926
  0
LINE
  5
4F4
100
AcDbEntity
  8
0
100
AcDbLine
 62
7
  6
CONTINUOUS
 10
0.9625001192
 20
13.7276595704
 11
1.1187498808
 21
13.6319148926
  0
LINE
  5
4F5
100
AcDbEntity
  8
0
100
AcDbLine
 62
7
  6
CONTINUOUS
 10
0.9312498808
 20
14.2702127755
 11
1.0875
 21
14.174468106
  0
LINE
  5
4F6
100
AcDbEntity
  8
0
100
AcDbLine
 62
7
  6
CONTINUOUS
 10
0.3062499404
 20
14.9723404408
 11
0.15
 21
15.0680851102
  0
LINE
  5
4F7
100
AcDbEntity
  8
0
100
AcDbLine
 62
7
  6
CONTINUOUS
 10
1.7125001192
 20
14.9723404408
 11
1.55625
 21
15.0680851102
  0
LINE
  5
4F8
100
AcDbEntity
  8
0
100
AcDbLine
 62
7
  6
CONTINUOUS
 10
-0.1937499404
 20
13.7914893612
 11
-0.2874999404
 21
13.8553191409
  0
LINE
  5
4F9
100
AcDbEntity
  8
0
100
AcDbLine
 62
7
  6
CONTINUOUS
 10
1.1500001192
 20
13.7914893612
 11
1.0562501192
 21
13.8553191409
  0
LINE
  5
4FA
100
AcDbEntity
  8
0
100
AcDbLine
 62
7
  6
CONTINUOUS
 10
0.1187499404
 20
14.9085106611
 11
0.2124999404
 21
14.8446808815
  0
LINE
  5
4FB
100
AcDbEntity
  8
0
100
AcDbLine
 62
7
  6
CONTINUOUS
 10
1.1187498808
 20
14.3340425551
 11
1.0249998808
 21
14.3978723347
  0
LINE
  5
4FC
100
AcDbEntity
  8
0
100
AcDbLine
 62
7
  6
CONTINUOUS
 10
1.5250001192
 20
14.9085106611
 11
1.6187501192
 21
14.8446808815
  0
LINE
  5
4FD
100
AcDbEntity
  8
0
100
AcDbLine
 62
7
  6
CONTINUOUS
 10
-0.4749999404
 20
13.823404251
 11
-0.3812499404
 21
13.7276595704
  0
LINE
  5
4FE
100
AcDbEntity
  8
0
100
AcDbLine
 62
7
  6
CONTINUOUS
 10
0.3999999404
 20
14.8765957713
 11
0.3062499404
 21
14.9723404408
  0
LINE
  5
4FF
100
AcDbEntity
  8
0
100
AcDbLine
 62
7
  6
CONTINUOUS
 10
0.8687499404
 20
13.8553191409
 11
0.9625001192
 21
13.7276595704
  0
LINE
  5
500
100
AcDbEntity
  8
0
100
AcDbLine
 62
7
  6
CONTINUOUS
 10
0.8375000596
 20
14.3978723347
 11
0.9312498808
 21
14.2702127755
  0
LINE
  5
501
100
AcDbEntity
  8
0
100
AcDbLine
 62
7
  6
CONTINUOUS
 10
1.8062501192
 20
14.8446808815
 11
1.7125001192
 21
14.9723404408
  0
LINE
  5
502
100
AcDbEntity
  8
0
100
AcDbLine
 62
7
  6
CONTINUOUS
 10
1.0249998808
 20
14.3978723347
 11
0.9625001192
 21
14.4936170042
  0
LINE
  5
503
100
AcDbEntity
  8
0
100
AcDbLine
 62
7
  6
CONTINUOUS
 10
1.6187501192
 20
14.8446808815
 11
1.6812498808
 21
14.7489362121
  0
LINE
  5
504
100
AcDbEntity
  8
0
100
AcDbLine
 62
7
  6
CONTINUOUS
 10
9.05
 20
-19.85
 11
8.9124379963
 21
-19.9875620037
  0
LINE
  5
505
100
AcDbEntity
  8
0
100
AcDbLine
 62
7
  6
CONTINUOUS
 10
98.8043629232
 20
20.5185556026
 11
98.6050965072
 21
20.5112250296
  0
LINE
  5
506
100
AcDbEntity
  8
0
100
AcDbLine
 62
7
  6
CONTINUOUS
 10
88.1956370768
 20
20.597432969
 11
88.3949034928
 21
20.6047635419
  0
LINE
  5
507
100
AcDbEntity
  8
0
100
AcDbLine
 62
7
  6
CONTINUOUS
 10
81.8043629232
 20
20.5185556026
 11
81.6050965072
 21
20.5112250296
  0
LINE
  5
508
100
AcDbEntity
  8
0
100
AcDbLine
 62
7
  6
CONTINUOUS
 10
71.1956370768
 20
20.597432969
 11
71.3949034928
 21
20.6047635419
  0
LINE
  5
509
100
AcDbEntity
  8
DRAFT
100
AcDbLine
 62
7
  6
CONTINUOUS
 10
5.3043629232
 20
20.5185556026
 11
5.1050965072
 21
20.5112250296
  0
LINE
  5
50A
100
AcDbEntity
  8
DRAFT
100
AcDbLine
 62
7
  6
CONTINUOUS
 10
-5.3043629232
 20
20.597432969
 11
-5.1050965072
 21
20.6047635419
  0
LINE
  5
50B
100
AcDbEntity
  8
DRAFT
100
AcDbLine
 62
7
  6
CONTINUOUS
 10
-71.1956370768
 20
20.5185556026
 11
-71.3949034928
 21
20.5112250296
  0
LINE
  5
50C
100
AcDbEntity
  8
DRAFT
100
AcDbLine
 62
7
  6
CONTINUOUS
 10
-81.7088294082
 20
20.6011373153
 11
-81.4932196062
 21
20.6083082314
  0
LINE
  5
50D
100
AcDbEntity
  8
0
100
AcDbLine
 62
7
  6
CONTINUOUS
 10
98.6050965072
 20
20.5112250296
 11
98.3731433194
 21
20.5042137702
  0
LINE
  5
50E
100
AcDbEntity
  8
0
100
AcDbLine
 62
7
  6
CONTINUOUS
 10
88.3949034928
 20
20.6047635419
 11
88.6268566806
 21
20.6117748014
  0
LINE
  5
50F
100
AcDbEntity
  8
0
100
AcDbLine
 62
7
  6
CONTINUOUS
 10
81.6050965072
 20
20.5112250296
 11
81.3731433194
 21
20.5042137702
  0
LINE
  5
510
100
AcDbEntity
  8
0
100
AcDbLine
 62
7
  6
CONTINUOUS
 10
71.3949034928
 20
20.6047635419
 11
71.6268566806
 21
20.6117748014
  0
LINE
  5
511
100
AcDbEntity
  8
DRAFT
100
AcDbLine
 62
7
  6
CONTINUOUS
 10
5.1050965072
 20
20.5112250296
 11
4.8731433194
 21
20.5042137702
  0
LINE
  5
512
100
AcDbEntity
  8
DRAFT
100
AcDbLine
 62
7
  6
CONTINUOUS
 10
-5.1050965072
 20
20.6047635419
 11
-4.8731433194
 21
20.6117748014
  0
LINE
  5
513
100
AcDbEntity
  8
DRAFT
100
AcDbLine
 62
7
  6
CONTINUOUS
 10
-71.3949034928
 20
20.5112250296
 11
-71.6268566806
 21
20.5042137702
  0
LINE
  5
514
100
AcDbEntity
  8
DRAFT
100
AcDbLine
 62
7
  6
CONTINUOUS
 10
-88.3949034928
 20
20.5112250296
 11
-88.6268566806
 21
20.5042137702
  0
LINE
  5
515
100
AcDbEntity
  8
DRAFT
100
AcDbLine
 62
7
  6
CONTINUOUS
 10
-81.4932196062
 20
20.6083082314
 11
-81.2452830325
 21
20.6151511664
  0
LINE
  5
516
100
AcDbEntity
  8
DRAFT
100
AcDbLine
 62
7
  6
CONTINUOUS
 10
-98.4932196062
 20
20.6083082314
 11
-98.2452830325
 21
20.6151511664
  0
LINE
  5
517
100
AcDbEntity
  8
RACCORDO
100
AcDbLine
 62
250
  6
CONTINUOUS
 10
-103.5672232256
 20
20.2305790885
 11
-103.5927772687
 21
20.2299026434
  0
LINE
  5
518
100
AcDbEntity
  8
0
100
AcDbLine
 62
7
  6
CONTINUOUS
 10
98.3731433194
 20
20.5042137702
 11
98.1094740391
 21
20.4975485352
  0
LINE
  5
519
100
AcDbEntity
  8
0
100
AcDbLine
 62
7
  6
CONTINUOUS
 10
88.6268566806
 20
20.6117748014
 11
88.8905259609
 21
20.6184400364
  0
LINE
  5
51A
100
AcDbEntity
  8
0
100
AcDbLine
 62
7
  6
CONTINUOUS
 10
81.3731433194
 20
20.5042137702
 11
81.1094740391
 21
20.4975485352
  0
LINE
  5
51B
100
AcDbEntity
  8
0
100
AcDbLine
 62
7
  6
CONTINUOUS
 10
71.6268566806
 20
20.6117748014
 11
71.8905259609
 21
20.6184400364
  0
LINE
  5
51C
100
AcDbEntity
  8
DRAFT
100
AcDbLine
 62
7
  6
CONTINUOUS
 10
4.8731433194
 20
20.5042137702
 11
4.6094740391
 21
20.4975485352
  0
LINE
  5
51D
100
AcDbEntity
  8
DRAFT
100
AcDbLine
 62
7
  6
CONTINUOUS
 10
-4.8731433194
 20
20.6117748014
 11
-4.6094740391
 21
20.6184400364
  0
LINE
  5
51E
100
AcDbEntity
  8
DRAFT
100
AcDbLine
 62
7
  6
CONTINUOUS
 10
-71.6268566806
 20
20.5042137702
 11
-71.8905259609
 21
20.4975485352
  0
LINE
  5
51F
100
AcDbEntity
  8
DRAFT
100
AcDbLine
 62
7
  6
CONTINUOUS
 10
-88.6268566806
 20
20.5042137702
 11
-88.8905259609
 21
20.4975485352
  0
LINE
  5
520
100
AcDbEntity
  8
RACCORDO
100
AcDbLine
 62
250
  6
CONTINUOUS
 10
-103.8225079405
 20
20.4786528549
 11
-103.8589568089
 21
20.4777243857
  0
LINE
  5
521
100
AcDbEntity
  8
DRAFT
100
AcDbLine
 62
7
  6
CONTINUOUS
 10
-81.2452830325
 20
20.6151511664
 11
-80.9658810456
 21
20.6216387014
  0
LINE
  5
522
100
AcDbEntity
  8
DRAFT
100
AcDbLine
 62
7
  6
CONTINUOUS
 10
-98.2452830325
 20
20.6151511664
 11
-97.9658810456
 21
20.6216387014
  0
LINE
  5
523
100
AcDbEntity
  8
0
100
AcDbLine
 62
7
  6
CONTINUOUS
 10
98.1094740391
 20
20.4975485352
 11
97.8154135568
 21
20.4912616246
  0
LINE
  5
524
100
AcDbEntity
  8
0
100
AcDbLine
 62
7
  6
CONTINUOUS
 10
88.8905259609
 20
20.6184400364
 11
89.1845864432
 21
20.624726947
  0
LINE
  5
525
100
AcDbEntity
  8
0
100
AcDbLine
 62
7
  6
CONTINUOUS
 10
81.1094740391
 20
20.4975485352
 11
80.8154135568
 21
20.4912616246
  0
LINE
  5
526
100
AcDbEntity
  8
0
100
AcDbLine
 62
7
  6
CONTINUOUS
 10
71.8905259609
 20
20.6184400364
 11
72.1845864432
 21
20.624726947
  0
LINE
  5
527
100
AcDbEntity
  8
DRAFT
100
AcDbLine
 62
7
  6
CONTINUOUS
 10
4.6094740391
 20
20.4975485352
 11
4.3154135568
 21
20.4912616246
  0
LINE
  5
528
100
AcDbEntity
  8
DRAFT
100
AcDbLine
 62
7
  6
CONTINUOUS
 10
-4.6094740391
 20
20.6184400364
 11
-4.3154135568
 21
20.624726947
  0
LINE
  5
529
100
AcDbEntity
  8
DRAFT
100
AcDbLine
 62
7
  6
CONTINUOUS
 10
-71.8905259609
 20
20.4975485352
 11
-72.1845864432
 21
20.4912616246
  0
LINE
  5
52A
100
AcDbEntity
  8
DRAFT
100
AcDbLine
 62
7
  6
CONTINUOUS
 10
-88.8905259609
 20
20.4975485352
 11
-89.1845864432
 21
20.4912616246
  0
LINE
  5
52B
100
AcDbEntity
  8
DRAFT
100
AcDbLine
 62
7
  6
CONTINUOUS
 10
-80.9658810456
 20
20.6216387014
 11
-80.6581920286
 21
20.6277012226
  0
LINE
  5
52C
100
AcDbEntity
  8
DRAFT
100
AcDbLine
 62
7
  6
CONTINUOUS
 10
-97.9658810456
 20
20.6216387014
 11
-97.6581920286
 21
20.6277012226
  0
LINE
  5
52D
100
AcDbEntity
  8
RACCORDO
100
AcDbLine
 62
250
  6
CONTINUOUS
 10
-103.539113644
 20
20.2311403112
 11
-103.5672232256
 21
20.2305790885
  0
LINE
  5
52E
100
AcDbEntity
  8
RACCORDO
100
AcDbLine
 62
250
  6
CONTINUOUS
 10
-103.7797262894
 20
20.4794869019
 11
-103.8225079405
 21
20.4786528549
  0
LINE
  5
52F
100
AcDbEntity
  8
0
100
AcDbLine
 62
7
  6
CONTINUOUS
 10
97.8154135568
 20
20.4912616246
 11
97.4940960051
 21
20.4854234929
  0
LINE
  5
530
100
AcDbEntity
  8
0
100
AcDbLine
 62
7
  6
CONTINUOUS
 10
89.1845864432
 20
20.624726947
 11
89.5059039949
 21
20.6305650787
  0
LINE
  5
531
100
AcDbEntity
  8
0
100
AcDbLine
 62
7
  6
CONTINUOUS
 10
80.8154135568
 20
20.4912616246
 11
80.4940960051
 21
20.4854234929
  0
LINE
  5
532
100
AcDbEntity
  8
0
100
AcDbLine
 62
7
  6
CONTINUOUS
 10
72.1845864432
 20
20.624726947
 11
72.5059039949
 21
20.6305650787
  0
LINE
  5
533
100
AcDbEntity
  8
DRAFT
100
AcDbLine
 62
7
  6
CONTINUOUS
 10
4.3154135568
 20
20.4912616246
 11
3.9940960051
 21
20.4854234929
  0
LINE
  5
534
100
AcDbEntity
  8
DRAFT
100
AcDbLine
 62
7
  6
CONTINUOUS
 10
-4.3154135568
 20
20.624726947
 11
-3.9940960051
 21
20.6305650787
  0
LINE
  5
535
100
AcDbEntity
  8
DRAFT
100
AcDbLine
 62
7
  6
CONTINUOUS
 10
-72.1845864432
 20
20.4912616246
 11
-72.5059039949
 21
20.4854234929
  0
LINE
  5
536
100
AcDbEntity
  8
DRAFT
100
AcDbLine
 62
7
  6
CONTINUOUS
 10
-89.1845864432
 20
20.4912616246
 11
-89.5059039949
 21
20.4854234929
  0
LINE
  5
537
100
AcDbEntity
  8
DRAFT
100
AcDbLine
 62
7
  6
CONTINUOUS
 10
-80.6581920286
 20
20.6277012226
 11
-80.3236736235
 21
20.6333089517
  0
LINE
  5
538
100
AcDbEntity
  8
DRAFT
100
AcDbLine
 62
7
  6
CONTINUOUS
 10
-97.6581920286
 20
20.6277012226
 11
-97.3236736235
 21
20.6333089517
  0
LINE
  5
539
100
AcDbEntity
  8
0
100
AcDbLine
 62
7
  6
CONTINUOUS
 10
97.4940960051
 20
20.4854234929
 11
97.1467219965
 21
20.4800536328
  0
LINE
  5
53A
100
AcDbEntity
  8
0
100
AcDbLine
 62
7
  6
CONTINUOUS
 10
80.4940960051
 20
20.4854234929
 11
80.1467219965
 21
20.4800536328
  0
LINE
  5
53B
100
AcDbEntity
  8
0
100
AcDbLine
 62
7
  6
CONTINUOUS
 10
89.5059039949
 20
20.6305650787
 11
89.8532780035
 21
20.6359349388
  0
LINE
  5
53C
100
AcDbEntity
  8
0
100
AcDbLine
 62
7
  6
CONTINUOUS
 10
72.5059039949
 20
20.6305650787
 11
72.8532780035
 21
20.6359349388
  0
LINE
  5
53D
100
AcDbEntity
  8
DRAFT
100
AcDbLine
 62
7
  6
CONTINUOUS
 10
3.9940960051
 20
20.4854234929
 11
3.6467219965
 21
20.4800536328
  0
LINE
  5
53E
100
AcDbEntity
  8
DRAFT
100
AcDbLine
 62
7
  6
CONTINUOUS
 10
-3.9940960051
 20
20.6305650787
 11
-3.6467219965
 21
20.6359349388
  0
LINE
  5
53F
100
AcDbEntity
  8
DRAFT
100
AcDbLine
 62
7
  6
CONTINUOUS
 10
-72.5059039949
 20
20.4854234929
 11
-72.8532780035
 21
20.4800536328
  0
LINE
  5
540
100
AcDbEntity
  8
DRAFT
100
AcDbLine
 62
7
  6
CONTINUOUS
 10
-89.5059039949
 20
20.4854234929
 11
-89.8532780035
 21
20.4800536328
  0
LINE
  5
541
100
AcDbEntity
  8
DRAFT
100
AcDbLine
 62
7
  6
CONTINUOUS
 10
-80.3236736235
 20
20.6333089517
 11
-79.9634440113
 21
20.6384409428
  0
LINE
  5
542
100
AcDbEntity
  8
DRAFT
100
AcDbLine
 62
7
  6
CONTINUOUS
 10
-97.3236736235
 20
20.6333089517
 11
-96.9634440113
 21
20.6384409428
  0
LINE
  5
543
100
AcDbEntity
  8
RACCORDO
100
AcDbLine
 62
250
  6
CONTINUOUS
 10
-103.5090079906
 20
20.2315707262
 11
-103.539113644
 21
20.2311403112
  0
LINE
  5
544
100
AcDbEntity
  8
0
100
AcDbLine
 62
7
  6
CONTINUOUS
 10
97.1467219965
 20
20.4800536328
 11
96.7749964673
 21
20.4751774629
  0
LINE
  5
545
100
AcDbEntity
  8
0
100
AcDbLine
 62
7
  6
CONTINUOUS
 10
80.1467219965
 20
20.4800536328
 11
79.7749964673
 21
20.4751774629
  0
LINE
  5
546
100
AcDbEntity
  8
0
100
AcDbLine
 62
7
  6
CONTINUOUS
 10
89.8532780035
 20
20.6359349388
 11
90.2250035327
 21
20.6408111087
  0
LINE
  5
547
100
AcDbEntity
  8
0
100
AcDbLine
 62
7
  6
CONTINUOUS
 10
72.8532780035
 20
20.6359349388
 11
73.2250035327
 21
20.6408111087
  0
LINE
  5
548
100
AcDbEntity
  8
DRAFT
100
AcDbLine
 62
7
  6
CONTINUOUS
 10
3.6467219965
 20
20.4800536328
 11
3.2749964673
 21
20.4751774629
  0
LINE
  5
549
100
AcDbEntity
  8
DRAFT
100
AcDbLine
 62
7
  6
CONTINUOUS
 10
-3.6467219965
 20
20.6359349388
 11
-3.2749964673
 21
20.6408111087
  0
LINE
  5
54A
100
AcDbEntity
  8
DRAFT
100
AcDbLine
 62
7
  6
CONTINUOUS
 10
-72.8532780035
 20
20.4800536328
 11
-73.2250035327
 21
20.4751774629
  0
LINE
  5
54B
100
AcDbEntity
  8
DRAFT
100
AcDbLine
 62
7
  6
CONTINUOUS
 10
-89.8532780035
 20
20.4800536328
 11
-90.2250035327
 21
20.4751774629
  0
LINE
  5
54C
100
AcDbEntity
  8
RACCORDO
100
AcDbLine
 62
250
  6
CONTINUOUS
 10
-103.7050282874
 20
20.4805418768
 11
-103.7797262894
 21
20.4794869019
  0
LINE
  5
54D
100
AcDbEntity
  8
DRAFT
100
AcDbLine
 62
7
  6
CONTINUOUS
 10
-79.9634440113
 20
20.6384409428
 11
-79.5815331916
 21
20.6430425769
  0
LINE
  5
54E
100
AcDbEntity
  8
DRAFT
100
AcDbLine
 62
7
  6
CONTINUOUS
 10
-96.9634440113
 20
20.6384409428
 11
-96.5815331916
 21
20.6430425769
  0
LINE
  5
54F
100
AcDbEntity
  8
0
100
AcDbLine
 62
7
  6
CONTINUOUS
 10
96.7749964673
 20
20.4751774629
 11
96.3829003571
 21
20.4708503647
  0
LINE
  5
550
100
AcDbEntity
  8
0
100
AcDbLine
 62
7
  6
CONTINUOUS
 10
79.7749964673
 20
20.4751774629
 11
79.3829003571
 21
20.4708503647
  0
LINE
  5
551
100
AcDbEntity
  8
0
100
AcDbLine
 62
7
  6
CONTINUOUS
 10
90.2250035327
 20
20.6408111087
 11
90.6170996429
 21
20.6451382069
  0
LINE
  5
552
100
AcDbEntity
  8
0
100
AcDbLine
 62
7
  6
CONTINUOUS
 10
73.2250035327
 20
20.6408111087
 11
73.6170996429
 21
20.6451382069
  0
LINE
  5
553
100
AcDbEntity
  8
DRAFT
100
AcDbLine
 62
7
  6
CONTINUOUS
 10
3.2749964673
 20
20.4751774629
 11
2.8829003571
 21
20.4708503647
  0
LINE
  5
554
100
AcDbEntity
  8
DRAFT
100
AcDbLine
 62
7
  6
CONTINUOUS
 10
-3.2749964673
 20
20.6408111087
 11
-2.8829003571
 21
20.6451382069
  0
LINE
  5
555
100
AcDbEntity
  8
DRAFT
100
AcDbLine
 62
7
  6
CONTINUOUS
 10
-73.2250035327
 20
20.4751774629
 11
-73.6170996429
 21
20.4708503647
  0
LINE
  5
556
100
AcDbEntity
  8
DRAFT
100
AcDbLine
 62
7
  6
CONTINUOUS
 10
-90.2250035327
 20
20.4751774629
 11
-90.6170996429
 21
20.4708503647
  0
LINE
  5
557
100
AcDbEntity
  8
DRAFT
100
AcDbLine
 62
7
  6
CONTINUOUS
 10
-79.5815331916
 20
20.6430425769
 11
-79.1797932811
 21
20.6470907226
  0
LINE
  5
558
100
AcDbEntity
  8
DRAFT
100
AcDbLine
 62
7
  6
CONTINUOUS
 10
-96.5815331916
 20
20.6430425769
 11
-96.1797932811
 21
20.6470907226
  0
LINE
  5
559
100
AcDbEntity
  8
0
100
AcDbLine
 62
7
  6
CONTINUOUS
 10
96.3829003571
 20
20.4708503647
 11
95.9720183205
 21
20.4670874997
  0
LINE
  5
55A
100
AcDbEntity
  8
0
100
AcDbLine
 62
7
  6
CONTINUOUS
 10
79.3829003571
 20
20.4708503647
 11
78.9720183205
 21
20.4670874997
  0
LINE
  5
55B
100
AcDbEntity
  8
0
100
AcDbLine
 62
7
  6
CONTINUOUS
 10
90.6170996429
 20
20.6451382069
 11
91.0279816795
 21
20.6489010719
  0
LINE
  5
55C
100
AcDbEntity
  8
0
100
AcDbLine
 62
7
  6
CONTINUOUS
 10
73.6170996429
 20
20.6451382069
 11
74.0279816795
 21
20.6489010719
  0
LINE
  5
55D
100
AcDbEntity
  8
DRAFT
100
AcDbLine
 62
7
  6
CONTINUOUS
 10
2.8829003571
 20
20.4708503647
 11
2.4720183205
 21
20.4670874997
  0
LINE
  5
55E
100
AcDbEntity
  8
DRAFT
100
AcDbLine
 62
7
  6
CONTINUOUS
 10
-2.8829003571
 20
20.6451382069
 11
-2.4720183205
 21
20.6489010719
  0
LINE
  5
55F
100
AcDbEntity
  8
DRAFT
100
AcDbLine
 62
7
  6
CONTINUOUS
 10
-73.6170996429
 20
20.4708503647
 11
-74.0279816795
 21
20.4670874997
  0
LINE
  5
560
100
AcDbEntity
  8
DRAFT
100
AcDbLine
 62
7
  6
CONTINUOUS
 10
-90.6170996429
 20
20.4708503647
 11
-91.0279816795
 21
20.4670874997
  0
LINE
  5
561
100
AcDbEntity
  8
RACCORDO
100
AcDbLine
 62
250
  6
CONTINUOUS
 10
-103.4775025498
 20
20.2318630529
 11
-103.5090079906
 21
20.2315707262
  0
LINE
  5
562
100
AcDbEntity
  8
DRAFT
100
AcDbLine
 62
7
  6
CONTINUOUS
 10
-79.1797932811
 20
20.6470907226
 11
-78.7597691184
 21
20.6505683069
  0
LINE
  5
563
100
AcDbEntity
  8
DRAFT
100
AcDbLine
 62
7
  6
CONTINUOUS
 10
-96.1797932811
 20
20.6470907226
 11
-95.7597691184
 21
20.6505683069
  0
LINE
  5
564
100
AcDbEntity
  8
0
100
AcDbLine
 62
7
  6
CONTINUOUS
 10
95.9720183205
 20
20.4670874997
 11
95.5443219208
 21
20.463906264
  0
LINE
  5
565
100
AcDbEntity
  8
0
100
AcDbLine
 62
7
  6
CONTINUOUS
 10
78.9720183205
 20
20.4670874997
 11
78.5443219208
 21
20.463906264
  0
LINE
  5
566
100
AcDbEntity
  8
0
100
AcDbLine
 62
7
  6
CONTINUOUS
 10
91.0279816795
 20
20.6489010719
 11
91.4556780792
 21
20.6520823076
  0
LINE
  5
567
100
AcDbEntity
  8
0
100
AcDbLine
 62
7
  6
CONTINUOUS
 10
74.0279816795
 20
20.6489010719
 11
74.4556780792
 21
20.6520823076
  0
LINE
  5
568
100
AcDbEntity
  8
DRAFT
100
AcDbLine
 62
7
  6
CONTINUOUS
 10
2.4720183205
 20
20.4670874997
 11
2.0443219208
 21
20.463906264
  0
LINE
  5
569
100
AcDbEntity
  8
DRAFT
100
AcDbLine
 62
7
  6
CONTINUOUS
 10
-2.4720183205
 20
20.6489010719
 11
-2.0443219208
 21
20.6520823076
  0
LINE
  5
56A
100
AcDbEntity
  8
DRAFT
100
AcDbLine
 62
7
  6
CONTINUOUS
 10
-74.0279816795
 20
20.4670874997
 11
-74.4556780792
 21
20.463906264
  0
LINE
  5
56B
100
AcDbEntity
  8
DRAFT
100
AcDbLine
 62
7
  6
CONTINUOUS
 10
-91.0279816795
 20
20.4670874997
 11
-91.4556780792
 21
20.463906264
  0
LINE
  5
56C
100
AcDbEntity
  8
RACCORDO
100
AcDbLine
 62
250
  6
CONTINUOUS
 10
-103.5886321116
 20
20.4815331002
 11
-103.7050282874
 21
20.4805418768
  0
LINE
  5
56D
100
AcDbEntity
  8
DRAFT
100
AcDbLine
 62
7
  6
CONTINUOUS
 10
-78.7597691184
 20
20.6505683069
 11
-78.3258109608
 21
20.6534412496
  0
LINE
  5
56E
100
AcDbEntity
  8
DRAFT
100
AcDbLine
 62
7
  6
CONTINUOUS
 10
-95.7597691184
 20
20.6505683069
 11
-95.3258109608
 21
20.6534412496
  0
LINE
  5
56F
100
AcDbEntity
  8
0
100
AcDbLine
 62
7
  6
CONTINUOUS
 10
95.5443219208
 20
20.463906264
 11
95.1041020053
 21
20.4613416142
  0
LINE
  5
570
100
AcDbEntity
  8
0
100
AcDbLine
 62
7
  6
CONTINUOUS
 10
78.5443219208
 20
20.463906264
 11
78.1041020053
 21
20.4613416142
  0
LINE
  5
571
100
AcDbEntity
  8
0
100
AcDbLine
 62
7
  6
CONTINUOUS
 10
91.4556780792
 20
20.6520823076
 11
91.8958979947
 21
20.6546469574
  0
LINE
  5
572
100
AcDbEntity
  8
0
100
AcDbLine
 62
7
  6
CONTINUOUS
 10
74.4556780792
 20
20.6520823076
 11
74.8958979947
 21
20.6546469574
  0
LINE
  5
573
100
AcDbEntity
  8
DRAFT
100
AcDbLine
 62
7
  6
CONTINUOUS
 10
2.0443219208
 20
20.463906264
 11
1.6041020053
 21
20.4613416142
  0
LINE
  5
574
100
AcDbEntity
  8
DRAFT
100
AcDbLine
 62
7
  6
CONTINUOUS
 10
-2.0443219208
 20
20.6520823076
 11
-1.6041020053
 21
20.6546469574
  0
LINE
  5
575
100
AcDbEntity
  8
DRAFT
100
AcDbLine
 62
7
  6
CONTINUOUS
 10
-74.4556780792
 20
20.463906264
 11
-74.8958979947
 21
20.4613416142
  0
LINE
  5
576
100
AcDbEntity
  8
DRAFT
100
AcDbLine
 62
7
  6
CONTINUOUS
 10
-91.4556780792
 20
20.463906264
 11
-91.8958979947
 21
20.4613416142
  0
LINE
  5
577
100
AcDbEntity
  8
DRAFT
100
AcDbLine
 62
7
  6
CONTINUOUS
 10
-78.3258109608
 20
20.6534412496
 11
-77.880068602
 21
20.6556947843
  0
LINE
  5
578
100
AcDbEntity
  8
DRAFT
100
AcDbLine
 62
7
  6
CONTINUOUS
 10
-95.3258109608
 20
20.6534412496
 11
-94.880068602
 21
20.6556947843
  0
LINE
  5
579
100
AcDbEntity
  8
0
100
AcDbLine
 62
7
  6
CONTINUOUS
 10
95.1041020053
 20
20.4613416142
 11
94.6535871878
 21
20.4594040152
  0
LINE
  5
57A
100
AcDbEntity
  8
0
100
AcDbLine
 62
7
  6
CONTINUOUS
 10
78.1041020053
 20
20.4613416142
 11
77.6535871878
 21
20.4594040152
  0
LINE
  5
57B
100
AcDbEntity
  8
0
100
AcDbLine
 62
7
  6
CONTINUOUS
 10
91.8958979947
 20
20.6546469574
 11
92.3464128122
 21
20.6565845564
  0
LINE
  5
57C
100
AcDbEntity
  8
0
100
AcDbLine
 62
7
  6
CONTINUOUS
 10
74.8958979947
 20
20.6546469574
 11
75.3464128122
 21
20.6565845564
  0
LINE
  5
57D
100
AcDbEntity
  8
DRAFT
100
AcDbLine
 62
7
  6
CONTINUOUS
 10
1.6041020053
 20
20.4613416142
 11
1.1535871878
 21
20.4594040152
  0
LINE
  5
57E
100
AcDbEntity
  8
DRAFT
100
AcDbLine
 62
7
  6
CONTINUOUS
 10
-1.6041020053
 20
20.6546469574
 11
-1.1535871878
 21
20.6565845564
  0
LINE
  5
57F
100
AcDbEntity
  8
DRAFT
100
AcDbLine
 62
7
  6
CONTINUOUS
 10
-74.8958979947
 20
20.4613416142
 11
-75.3464128122
 21
20.4594040152
  0
LINE
  5
580
100
AcDbEntity
  8
DRAFT
100
AcDbLine
 62
7
  6
CONTINUOUS
 10
-91.8958979947
 20
20.4613416142
 11
-92.3464128122
 21
20.4594040152
  0
LINE
  5
581
100
AcDbEntity
  8
RACCORDO
100
AcDbLine
 62
250
  6
CONTINUOUS
 10
-103.4454255381
 20
20.2320084342
 11
-103.4775025498
 21
20.2318630529
  0
LINE
  5
582
100
AcDbEntity
  8
DRAFT
100
AcDbLine
 62
7
  6
CONTINUOUS
 10
-77.880068602
 20
20.6556947843
 11
-77.4247813257
 21
20.6573164475
  0
LINE
  5
583
100
AcDbEntity
  8
DRAFT
100
AcDbLine
 62
7
  6
CONTINUOUS
 10
-94.880068602
 20
20.6556947843
 11
-94.4247813257
 21
20.6573164475
  0
LINE
  5
584
100
AcDbEntity
  8
0
100
AcDbLine
 62
7
  6
CONTINUOUS
 10
94.6535871878
 20
20.4594040152
 11
94.1948952523
 21
20.4581022389
  0
LINE
  5
585
100
AcDbEntity
  8
0
100
AcDbLine
 62
7
  6
CONTINUOUS
 10
77.6535871878
 20
20.4594040152
 11
77.1948952523
 21
20.4581022389
  0
LINE
  5
586
100
AcDbEntity
  8
0
100
AcDbLine
 62
7
  6
CONTINUOUS
 10
92.3464128122
 20
20.6565845564
 11
92.8051047477
 21
20.6578863327
  0
LINE
  5
587
100
AcDbEntity
  8
DRAFT
100
AcDbLine
 62
7
  6
CONTINUOUS
 10
1.1535871878
 20
20.4594040152
 11
0.6948952523
 21
20.4581022389
  0
LINE
  5
588
100
AcDbEntity
  8
0
100
AcDbLine
 62
7
  6
CONTINUOUS
 10
75.3464128122
 20
20.6565845564
 11
75.8051047477
 21
20.6578863327
  0
LINE
  5
589
100
AcDbEntity
  8
DRAFT
100
AcDbLine
 62
7
  6
CONTINUOUS
 10
-75.3464128122
 20
20.4594040152
 11
-75.8051047477
 21
20.4581022389
  0
LINE
  5
58A
100
AcDbEntity
  8
DRAFT
100
AcDbLine
 62
7
  6
CONTINUOUS
 10
-1.1535871878
 20
20.6565845564
 11
-0.6948952523
 21
20.6578863327
  0
LINE
  5
58B
100
AcDbEntity
  8
DRAFT
100
AcDbLine
 62
7
  6
CONTINUOUS
 10
-92.3464128122
 20
20.4594040152
 11
-92.8051047477
 21
20.4581022389
  0
LINE
  5
58C
100
AcDbEntity
  8
DRAFT
100
AcDbLine
 62
7
  6
CONTINUOUS
 10
-77.4247813257
 20
20.6573164475
 11
-76.9643437129
 21
20.6582928369
  0
LINE
  5
58D
100
AcDbEntity
  8
DRAFT
100
AcDbLine
 62
7
  6
CONTINUOUS
 10
-94.4247813257
 20
20.6573164475
 11
-93.9643437129
 21
20.6582928369
  0
LINE
  5
58E
100
AcDbEntity
  8
RACCORDO
100
AcDbLine
 62
250
  6
CONTINUOUS
 10
-103.4617311887
 20
20.481970388
 11
-103.5886321116
 21
20.4815331002
  0
LINE
  5
58F
100
AcDbEntity
  8
0
100
AcDbLine
 62
7
  6
CONTINUOUS
 10
94.1948952523
 20
20.4581022389
 11
93.7327119621
 21
20.4574512365
  0
LINE
  5
590
100
AcDbEntity
  8
0
100
AcDbLine
 62
7
  6
CONTINUOUS
 10
77.1948952523
 20
20.4581022389
 11
76.7327119621
 21
20.4574512365
  0
LINE
  5
591
100
AcDbEntity
  8
DRAFT
100
AcDbLine
 62
7
  6
CONTINUOUS
 10
0.6948952523
 20
20.4581022389
 11
0.2327119621
 21
20.4574512365
  0
LINE
  5
592
100
AcDbEntity
  8
DRAFT
100
AcDbLine
 62
7
  6
CONTINUOUS
 10
-75.8051047477
 20
20.4581022389
 11
-76.2672880379
 21
20.4574512365
  0
LINE
  5
593
100
AcDbEntity
  8
DRAFT
100
AcDbLine
 62
7
  6
CONTINUOUS
 10
-92.8051047477
 20
20.4581022389
 11
-93.2672880379
 21
20.4574512365
  0
LINE
  5
594
100
AcDbEntity
  8
0
100
AcDbLine
 62
7
  6
CONTINUOUS
 10
92.8051047477
 20
20.6578863327
 11
93.2672880379
 21
20.658537335
  0
LINE
  5
595
100
AcDbEntity
  8
0
100
AcDbLine
 62
7
  6
CONTINUOUS
 10
75.8051047477
 20
20.6578863327
 11
76.2672880379
 21
20.658537335
  0
LINE
  5
596
100
AcDbEntity
  8
DRAFT
100
AcDbLine
 62
7
  6
CONTINUOUS
 10
-0.6948952523
 20
20.6578863327
 11
-0.2327119621
 21
20.658537335
  0
LINE
  5
597
100
AcDbEntity
  8
DRAFT
100
AcDbLine
 62
7
  6
CONTINUOUS
 10
-76.9643437129
 20
20.6582928369
 11
-76.5
 21
20.6586198272
  0
LINE
  5
598
100
AcDbEntity
  8
DRAFT
100
AcDbLine
 62
7
  6
CONTINUOUS
 10
-93.9643437129
 20
20.6582928369
 11
-93.5
 21
20.6586198272
  0
LINE
  5
599
100
AcDbEntity
  8
RACCORDO
100
AcDbLine
 62
250
  6
CONTINUOUS
 10
109.7331296345
 20
16.054287608
 11
109.9734514553
 21
16.054287608
  0
LINE
  5
59A
100
AcDbEntity
  8
0
100
AcDbLine
 62
7
  6
CONTINUOUS
 10
109.587462941
 20
16.8621049871
 11
107.5
 21
16.8621049871
  0
LINE
  5
59B
100
AcDbEntity
  8
0
100
AcDbLine
 62
7
  6
CONTINUOUS
 10
-107.5
 20
16.8621049871
 11
-109.587462941
 21
16.8621049871
  0
LINE
  5
59C
100
AcDbEntity
  8
DRAFT
100
AcDbLine
 62
7
  6
CONTINUOUS
 10
109.6
 20
17.0
 11
107.5
 21
17.0
  0
LINE
  5
59D
100
AcDbEntity
  8
DRAFT
100
AcDbLine
 62
7
  6
CONTINUOUS
 10
-107.5
 20
17.0
 11
-109.6
 21
17.0
  0
LINE
  5
59E
100
AcDbEntity
  8
DRAFT
100
AcDbLine
 62
250
  6
CONTINUOUS
 10
-106.75
 20
17.75
 11
-106.6121049871
 21
17.75
  0
LINE
  5
59F
100
AcDbEntity
  8
DRAFT
100
AcDbLine
 62
250
  6
CONTINUOUS
 10
106.75
 20
17.75
 11
106.6121049871
 21
17.75
  0
LINE
  5
5A0
100
AcDbEntity
  8
DRAFT
100
AcDbLine
 62
250
  6
CONTINUOUS
 10
-9.05
 20
17.75
 11
-8.9121049871
 21
17.75
  0
LINE
  5
5A1
100
AcDbEntity
  8
DRAFT
100
AcDbLine
 62
250
  6
CONTINUOUS
 10
-10.45
 20
17.75
 11
-10.5878950129
 21
17.75
  0
LINE
  5
5A2
100
AcDbEntity
  8
0
100
AcDbLine
 62
250
  6
CONTINUOUS
 10
109.6
 20
17.75
 11
110.5
 21
17.75
  0
LINE
  5
5A3
100
AcDbEntity
  8
0
100
AcDbLine
 62
250
  6
CONTINUOUS
 10
-109.6
 20
17.75
 11
-110.5
 21
17.75
  0
LINE
  5
5A4
100
AcDbEntity
  8
RACCORDO
100
AcDbLine
 62
250
  6
CONTINUOUS
 10
-100.4787059959
 20
19.6911232385
 11
-103.9712940041
 21
19.6911232385
  0
LINE
  5
5A5
100
AcDbEntity
  8
0
100
AcDbLine
 62
250
  6
CONTINUOUS
 10
106.6121049871
 20
19.837462941
 11
-8.9121049871
 21
19.837462941
  0
LINE
  5
5A6
100
AcDbEntity
  8
RACCORDO
100
AcDbLine
 62
250
  6
CONTINUOUS
 10
-103.8249591314
 20
19.8374629349
 11
-106.6121049871
 21
19.837462941
  0
LINE
  5
5A7
100
AcDbEntity
  8
RACCORDO
100
AcDbLine
 62
250
  6
CONTINUOUS
 10
-100.6250408689
 20
19.8374629348
 11
-10.5878950129
 21
19.837462941
  0
LINE
  5
5A8
100
AcDbEntity
  8
DRAFT
100
AcDbLine
 62
7
  6
CONTINUOUS
 10
-107.5
 20
19.85
 11
-106.75
 21
19.85
  0
LINE
  5
5A9
100
AcDbEntity
  8
DRAFT
100
AcDbLine
 62
7
  6
CONTINUOUS
 10
-10.45
 20
19.85
 11
-9.05
 21
19.85
  0
LINE
  5
5AA
100
AcDbEntity
  8
DRAFT
100
AcDbLine
 62
7
  6
CONTINUOUS
 10
106.75
 20
19.85
 11
107.5
 21
19.85
  0
LINE
  5
5AB
100
AcDbEntity
  8
RACCORDO
100
AcDbLine
 62
250
  6
CONTINUOUS
 10
-100.728215826
 20
19.9410851623
 11
-103.721784174
 21
19.9410851623
  0
LINE
  5
5AC
100
AcDbEntity
  8
RACCORDO
100
AcDbLine
 62
7
  6
CONTINUOUS
 10
-101.0206743158
 20
19.9874172425
 11
-103.4293256842
 21
19.9874172425
  0
LINE
  5
5AD
100
AcDbEntity
  8
0
100
AcDbLine
 62
7
  6
CONTINUOUS
 10
107.5
 20
19.9875620037
 11
106.6124379963
 21
19.9875620037
  0
LINE
  5
5AE
100
AcDbEntity
  8
0
100
AcDbLine
 62
7
  6
CONTINUOUS
 10
-8.9124379963
 20
19.9875620037
 11
-10.5875620037
 21
19.9875620037
  0
LINE
  5
5AF
100
AcDbEntity
  8
0
100
AcDbLine
 62
7
  6
CONTINUOUS
 10
-106.6124379963
 20
19.9875620037
 11
-107.5
 21
19.9875620037
  0
LINE
  5
5B0
100
AcDbEntity
  8
RACCORDO
100
AcDbLine
 62
250
  6
CONTINUOUS
 10
107.5
 20
20.4373715581
 11
-100.4847086471
 21
20.4373715581
  0
LINE
  5
5B1
100
AcDbEntity
  8
RACCORDO
100
AcDbLine
 62
250
  6
CONTINUOUS
 10
-103.9652913529
 20
20.4373715581
 11
-107.5
 21
20.4373715581
  0
LINE
  5
5B2
100
AcDbEntity
  8
SUPERFICI
100
AcDbLine
 62
7
  6
CONTINUOUS
 10
107.5000000604
 20
20.7500001745
 11
-107.5000000604
 21
20.7500001745
  0
LINE
  5
5B3
100
AcDbEntity
  8
DRAFT
100
AcDbLine
 62
7
  6
CONTINUOUS
 10
107.5
 20
20.75
 11
-107.5
 21
20.75
  0
LINE
  5
5B4
100
AcDbEntity
  8
DRAFT
100
AcDbLine
 62
7
  6
CONTINUOUS
 10
-93.2672880379
 20
20.4574512365
 11
-93.7327119621
 21
20.4574512365
  0
LINE
  5
5B5
100
AcDbEntity
  8
DRAFT
100
AcDbLine
 62
7
  6
CONTINUOUS
 10
-76.2672880379
 20
20.4574512365
 11
-76.7327119621
 21
20.4574512365
  0
LINE
  5
5B6
100
AcDbEntity
  8
DRAFT
100
AcDbLine
 62
7
  6
CONTINUOUS
 10
0.2327119621
 20
20.4574512365
 11
-0.2327119621
 21
20.4574512365
  0
LINE
  5
5B7
100
AcDbEntity
  8
0
100
AcDbLine
 62
7
  6
CONTINUOUS
 10
76.7327119621
 20
20.4574512365
 11
76.2672880379
 21
20.4574512365
  0
LINE
  5
5B8
100
AcDbEntity
  8
0
100
AcDbLine
 62
7
  6
CONTINUOUS
 10
93.7327119621
 20
20.4574512365
 11
93.2672880379
 21
20.4574512365
  0
LINE
  5
5B9
100
AcDbEntity
  8
DRAFT
100
AcDbLine
 62
7
  6
CONTINUOUS
 10
-0.2327119621
 20
20.658537335
 11
0.2327119621
 21
20.658537335
  0
LINE
  5
5BA
100
AcDbEntity
  8
0
100
AcDbLine
 62
7
  6
CONTINUOUS
 10
76.2672880379
 20
20.658537335
 11
76.7327119621
 21
20.658537335
  0
LINE
  5
5BB
100
AcDbEntity
  8
0
100
AcDbLine
 62
7
  6
CONTINUOUS
 10
93.2672880379
 20
20.658537335
 11
93.7327119621
 21
20.658537335
  0
LINE
  5
5BC
100
AcDbEntity
  8
DRAFT
100
AcDbLine
 62
7
  6
CONTINUOUS
 10
-93.5
 20
20.6586198272
 11
-93.0356562871
 21
20.6582928369
  0
LINE
  5
5BD
100
AcDbEntity
  8
DRAFT
100
AcDbLine
 62
7
  6
CONTINUOUS
 10
-76.5
 20
20.6586198272
 11
-76.0356562871
 21
20.6582928369
  0
LINE
  5
5BE
100
AcDbEntity
  8
RACCORDO
100
AcDbLine
 62
250
  6
CONTINUOUS
 10
-101.0045744619
 20
20.2320084343
 11
-103.4454255381
 21
20.2320084342
  0
LINE
  5
5BF
100
AcDbEntity
  8
DRAFT
100
AcDbLine
 62
7
  6
CONTINUOUS
 10
-93.7327119621
 20
20.4574512365
 11
-94.1948952523
 21
20.4581022389
  0
LINE
  5
5C0
100
AcDbEntity
  8
DRAFT
100
AcDbLine
 62
7
  6
CONTINUOUS
 10
-76.7327119621
 20
20.4574512365
 11
-77.1948952523
 21
20.4581022389
  0
LINE
  5
5C1
100
AcDbEntity
  8
DRAFT
100
AcDbLine
 62
7
  6
CONTINUOUS
 10
-0.2327119621
 20
20.4574512365
 11
-0.6948952523
 21
20.4581022389
  0
LINE
  5
5C2
100
AcDbEntity
  8
0
100
AcDbLine
 62
7
  6
CONTINUOUS
 10
76.2672880379
 20
20.4574512365
 11
75.8051047477
 21
20.4581022389
  0
LINE
  5
5C3
100
AcDbEntity
  8
0
100
AcDbLine
 62
7
  6
CONTINUOUS
 10
93.2672880379
 20
20.4574512365
 11
92.8051047477
 21
20.4581022389
  0
LINE
  5
5C4
100
AcDbEntity
  8
DRAFT
100
AcDbLine
 62
7
  6
CONTINUOUS
 10
0.2327119621
 20
20.658537335
 11
0.6948952523
 21
20.6578863327
  0
LINE
  5
5C5
100
AcDbEntity
  8
0
100
AcDbLine
 62
7
  6
CONTINUOUS
 10
76.7327119621
 20
20.658537335
 11
77.1948952523
 21
20.6578863327
  0
LINE
  5
5C6
100
AcDbEntity
  8
0
100
AcDbLine
 62
7
  6
CONTINUOUS
 10
93.7327119621
 20
20.658537335
 11
94.1948952523
 21
20.6578863327
  0
LINE
  5
5C7
100
AcDbEntity
  8
DRAFT
100
AcDbLine
 62
7
  6
CONTINUOUS
 10
-93.0356562871
 20
20.6582928369
 11
-92.5752186743
 21
20.6573164475
  0
LINE
  5
5C8
100
AcDbEntity
  8
DRAFT
100
AcDbLine
 62
7
  6
CONTINUOUS
 10
-76.0356562871
 20
20.6582928369
 11
-75.5752186743
 21
20.6573164475
  0
LINE
  5
5C9
100
AcDbEntity
  8
RACCORDO
100
AcDbLine
 62
250
  6
CONTINUOUS
 10
-100.9243820412
 20
20.4818251484
 11
-103.4617311887
 21
20.481970388
  0
LINE
  5
5CA
100
AcDbEntity
  8
DRAFT
100
AcDbLine
 62
7
  6
CONTINUOUS
 10
-94.1948952523
 20
20.4581022389
 11
-94.6535871878
 21
20.4594040152
  0
LINE
  5
5CB
100
AcDbEntity
  8
DRAFT
100
AcDbLine
 62
7
  6
CONTINUOUS
 10
-77.1948952523
 20
20.4581022389
 11
-77.6535871878
 21
20.4594040152
  0
LINE
  5
5CC
100
AcDbEntity
  8
DRAFT
100
AcDbLine
 62
7
  6
CONTINUOUS
 10
-0.6948952523
 20
20.4581022389
 11
-1.1535871878
 21
20.4594040152
  0
LINE
  5
5CD
100
AcDbEntity
  8
DRAFT
100
AcDbLine
 62
7
  6
CONTINUOUS
 10
0.6948952523
 20
20.6578863327
 11
1.1535871878
 21
20.6565845564
  0
LINE
  5
5CE
100
AcDbEntity
  8
0
100
AcDbLine
 62
7
  6
CONTINUOUS
 10
75.8051047477
 20
20.4581022389
 11
75.3464128122
 21
20.4594040152
  0
LINE
  5
5CF
100
AcDbEntity
  8
0
100
AcDbLine
 62
7
  6
CONTINUOUS
 10
92.8051047477
 20
20.4581022389
 11
92.3464128122
 21
20.4594040152
  0
LINE
  5
5D0
100
AcDbEntity
  8
0
100
AcDbLine
 62
7
  6
CONTINUOUS
 10
77.1948952523
 20
20.6578863327
 11
77.6535871878
 21
20.6565845564
  0
LINE
  5
5D1
100
AcDbEntity
  8
0
100
AcDbLine
 62
7
  6
CONTINUOUS
 10
94.1948952523
 20
20.6578863327
 11
94.6535871878
 21
20.6565845564
  0
LINE
  5
5D2
100
AcDbEntity
  8
RACCORDO
100
AcDbLine
 62
250
  6
CONTINUOUS
 10
109.8224319547
 20
16.3458060843
 11
109.4411232385
 21
16.3462940041
  0
LINE
  5
5D3
100
AcDbEntity
  8
DRAFT
100
AcDbLine
 62
7
  6
CONTINUOUS
 10
-92.5752186743
 20
20.6573164475
 11
-92.119931398
 21
20.6556947843
  0
LINE
  5
5D4
100
AcDbEntity
  8
DRAFT
100
AcDbLine
 62
7
  6
CONTINUOUS
 10
-75.5752186743
 20
20.6573164475
 11
-75.119931398
 21
20.6556947843
  0
LINE
  5
5D5
100
AcDbEntity
  8
DRAFT
100
AcDbLine
 62
7
  6
CONTINUOUS
 10
-94.6535871878
 20
20.4594040152
 11
-95.1041020053
 21
20.4613416142
  0
LINE
  5
5D6
100
AcDbEntity
  8
DRAFT
100
AcDbLine
 62
7
  6
CONTINUOUS
 10
-77.6535871878
 20
20.4594040152
 11
-78.1041020053
 21
20.4613416142
  0
LINE
  5
5D7
100
AcDbEntity
  8
DRAFT
100
AcDbLine
 62
7
  6
CONTINUOUS
 10
-1.1535871878
 20
20.4594040152
 11
-1.6041020053
 21
20.4613416142
  0
LINE
  5
5D8
100
AcDbEntity
  8
DRAFT
100
AcDbLine
 62
7
  6
CONTINUOUS
 10
1.1535871878
 20
20.6565845564
 11
1.6041020053
 21
20.6546469574
  0
LINE
  5
5D9
100
AcDbEntity
  8
0
100
AcDbLine
 62
7
  6
CONTINUOUS
 10
75.3464128122
 20
20.4594040152
 11
74.8958979947
 21
20.4613416142
  0
LINE
  5
5DA
100
AcDbEntity
  8
0
100
AcDbLine
 62
7
  6
CONTINUOUS
 10
92.3464128122
 20
20.4594040152
 11
91.8958979947
 21
20.4613416142
  0
LINE
  5
5DB
100
AcDbEntity
  8
0
100
AcDbLine
 62
7
  6
CONTINUOUS
 10
77.6535871878
 20
20.6565845564
 11
78.1041020053
 21
20.6546469574
  0
LINE
  5
5DC
100
AcDbEntity
  8
0
100
AcDbLine
 62
7
  6
CONTINUOUS
 10
94.6535871878
 20
20.6565845564
 11
95.1041020053
 21
20.6546469574
  0
LINE
  5
5DD
100
AcDbEntity
  8
DRAFT
100
AcDbLine
 62
7
  6
CONTINUOUS
 10
-92.119931398
 20
20.6556947843
 11
-91.6741890392
 21
20.6534412496
  0
LINE
  5
5DE
100
AcDbEntity
  8
DRAFT
100
AcDbLine
 62
7
  6
CONTINUOUS
 10
-75.119931398
 20
20.6556947843
 11
-74.6741890392
 21
20.6534412496
  0
LINE
  5
5DF
100
AcDbEntity
  8
RACCORDO
100
AcDbLine
 62
250
  6
CONTINUOUS
 10
-100.9724974502
 20
20.2318630531
 11
-101.0045744619
 21
20.2320084343
  0
LINE
  5
5E0
100
AcDbEntity
  8
DRAFT
100
AcDbLine
 62
7
  6
CONTINUOUS
 10
-95.1041020053
 20
20.4613416142
 11
-95.5443219208
 21
20.463906264
  0
LINE
  5
5E1
100
AcDbEntity
  8
DRAFT
100
AcDbLine
 62
7
  6
CONTINUOUS
 10
-78.1041020053
 20
20.4613416142
 11
-78.5443219208
 21
20.463906264
  0
LINE
  5
5E2
100
AcDbEntity
  8
DRAFT
100
AcDbLine
 62
7
  6
CONTINUOUS
 10
-1.6041020053
 20
20.4613416142
 11
-2.0443219208
 21
20.463906264
  0
LINE
  5
5E3
100
AcDbEntity
  8
DRAFT
100
AcDbLine
 62
7
  6
CONTINUOUS
 10
1.6041020053
 20
20.6546469574
 11
2.0443219208
 21
20.6520823076
  0
LINE
  5
5E4
100
AcDbEntity
  8
0
100
AcDbLine
 62
7
  6
CONTINUOUS
 10
74.8958979947
 20
20.4613416142
 11
74.4556780792
 21
20.463906264
  0
LINE
  5
5E5
100
AcDbEntity
  8
0
100
AcDbLine
 62
7
  6
CONTINUOUS
 10
91.8958979947
 20
20.4613416142
 11
91.4556780792
 21
20.463906264
  0
LINE
  5
5E6
100
AcDbEntity
  8
0
100
AcDbLine
 62
7
  6
CONTINUOUS
 10
78.1041020053
 20
20.6546469574
 11
78.5443219208
 21
20.6520823076
  0
LINE
  5
5E7
100
AcDbEntity
  8
0
100
AcDbLine
 62
7
  6
CONTINUOUS
 10
95.1041020053
 20
20.6546469574
 11
95.5443219208
 21
20.6520823076
  0
LINE
  5
5E8
100
AcDbEntity
  8
DRAFT
100
AcDbLine
 62
7
  6
CONTINUOUS
 10
-91.6741890392
 20
20.6534412496
 11
-91.2402308816
 21
20.6505683069
  0
LINE
  5
5E9
100
AcDbEntity
  8
DRAFT
100
AcDbLine
 62
7
  6
CONTINUOUS
 10
-74.6741890392
 20
20.6534412496
 11
-74.2402308816
 21
20.6505683069
  0
LINE
  5
5EA
100
AcDbEntity
  8
RACCORDO
100
AcDbLine
 62
250
  6
CONTINUOUS
 10
-100.801252592
 20
20.4811029411
 11
-100.9243820412
 21
20.4818251484
  0
LINE
  5
5EB
100
AcDbEntity
  8
DRAFT
100
AcDbLine
 62
7
  6
CONTINUOUS
 10
-95.5443219208
 20
20.463906264
 11
-95.9720183205
 21
20.4670874997
  0
LINE
  5
5EC
100
AcDbEntity
  8
DRAFT
100
AcDbLine
 62
7
  6
CONTINUOUS
 10
-78.5443219208
 20
20.463906264
 11
-78.9720183205
 21
20.4670874997
  0
LINE
  5
5ED
100
AcDbEntity
  8
DRAFT
100
AcDbLine
 62
7
  6
CONTINUOUS
 10
-2.0443219208
 20
20.463906264
 11
-2.4720183205
 21
20.4670874997
  0
LINE
  5
5EE
100
AcDbEntity
  8
DRAFT
100
AcDbLine
 62
7
  6
CONTINUOUS
 10
2.0443219208
 20
20.6520823076
 11
2.4720183205
 21
20.6489010719
  0
LINE
  5
5EF
100
AcDbEntity
  8
0
100
AcDbLine
 62
7
  6
CONTINUOUS
 10
74.4556780792
 20
20.463906264
 11
74.0279816795
 21
20.4670874997
  0
LINE
  5
5F0
100
AcDbEntity
  8
0
100
AcDbLine
 62
7
  6
CONTINUOUS
 10
91.4556780792
 20
20.463906264
 11
91.0279816795
 21
20.4670874997
  0
LINE
  5
5F1
100
AcDbEntity
  8
0
100
AcDbLine
 62
7
  6
CONTINUOUS
 10
78.5443219208
 20
20.6520823076
 11
78.9720183205
 21
20.6489010719
  0
LINE
  5
5F2
100
AcDbEntity
  8
0
100
AcDbLine
 62
7
  6
CONTINUOUS
 10
95.5443219208
 20
20.6520823076
 11
95.9720183205
 21
20.6489010719
  0
LINE
  5
5F3
100
AcDbEntity
  8
DRAFT
100
AcDbLine
 62
7
  6
CONTINUOUS
 10
-91.2402308816
 20
20.6505683069
 11
-90.8202067189
 21
20.6470907226
  0
LINE
  5
5F4
100
AcDbEntity
  8
DRAFT
100
AcDbLine
 62
7
  6
CONTINUOUS
 10
-74.2402308816
 20
20.6505683069
 11
-73.8202067189
 21
20.6470907226
  0
LINE
  5
5F5
100
AcDbEntity
  8
RACCORDO
100
AcDbLine
 62
250
  6
CONTINUOUS
 10
109.9954724054
 20
16.3446641636
 11
109.8224319547
 21
16.3458060843
  0
LINE
  5
5F6
100
AcDbEntity
  8
DRAFT
100
AcDbLine
 62
7
  6
CONTINUOUS
 10
-95.9720183205
 20
20.4670874997
 11
-96.3829003571
 21
20.4708503647
  0
LINE
  5
5F7
100
AcDbEntity
  8
DRAFT
100
AcDbLine
 62
7
  6
CONTINUOUS
 10
-78.9720183205
 20
20.4670874997
 11
-79.3829003571
 21
20.4708503647
  0
LINE
  5
5F8
100
AcDbEntity
  8
DRAFT
100
AcDbLine
 62
7
  6
CONTINUOUS
 10
-2.4720183205
 20
20.4670874997
 11
-2.8829003571
 21
20.4708503647
  0
LINE
  5
5F9
100
AcDbEntity
  8
DRAFT
100
AcDbLine
 62
7
  6
CONTINUOUS
 10
2.4720183205
 20
20.6489010719
 11
2.8829003571
 21
20.6451382069
  0
LINE
  5
5FA
100
AcDbEntity
  8
0
100
AcDbLine
 62
7
  6
CONTINUOUS
 10
74.0279816795
 20
20.4670874997
 11
73.6170996429
 21
20.4708503647
  0
LINE
  5
5FB
100
AcDbEntity
  8
0
100
AcDbLine
 62
7
  6
CONTINUOUS
 10
91.0279816795
 20
20.4670874997
 11
90.6170996429
 21
20.4708503647
  0
LINE
  5
5FC
100
AcDbEntity
  8
0
100
AcDbLine
 62
7
  6
CONTINUOUS
 10
78.9720183205
 20
20.6489010719
 11
79.3829003571
 21
20.6451382069
  0
LINE
  5
5FD
100
AcDbEntity
  8
0
100
AcDbLine
 62
7
  6
CONTINUOUS
 10
95.9720183205
 20
20.6489010719
 11
96.3829003571
 21
20.6451382069
  0
LINE
  5
5FE
100
AcDbEntity
  8
RACCORDO
100
AcDbLine
 62
250
  6
CONTINUOUS
 10
109.7673477451
 20
16.095463307
 11
109.691360721
 21
16.0960565216
  0
LINE
  5
5FF
100
AcDbEntity
  8
RACCORDO
100
AcDbLine
 62
250
  6
CONTINUOUS
 10
-100.9409920094
 20
20.2315707263
 11
-100.9724974502
 21
20.2318630531
  0
LINE
  5
600
100
AcDbEntity
  8
DRAFT
100
AcDbLine
 62
7
  6
CONTINUOUS
 10
-90.8202067189
 20
20.6470907226
 11
-90.4184668084
 21
20.6430425769
  0
LINE
  5
601
100
AcDbEntity
  8
DRAFT
100
AcDbLine
 62
7
  6
CONTINUOUS
 10
-73.8202067189
 20
20.6470907226
 11
-73.4184668084
 21
20.6430425769
  0
LINE
  5
602
100
AcDbEntity
  8
DRAFT
100
AcDbLine
 62
7
  6
CONTINUOUS
 10
-96.3829003571
 20
20.4708503647
 11
-96.7749964673
 21
20.4751774629
  0
LINE
  5
603
100
AcDbEntity
  8
DRAFT
100
AcDbLine
 62
7
  6
CONTINUOUS
 10
-79.3829003571
 20
20.4708503647
 11
-79.7749964673
 21
20.4751774629
  0
LINE
  5
604
100
AcDbEntity
  8
DRAFT
100
AcDbLine
 62
7
  6
CONTINUOUS
 10
-2.8829003571
 20
20.4708503647
 11
-3.2749964673
 21
20.4751774629
  0
LINE
  5
605
100
AcDbEntity
  8
DRAFT
100
AcDbLine
 62
7
  6
CONTINUOUS
 10
2.8829003571
 20
20.6451382069
 11
3.2749964673
 21
20.6408111087
  0
LINE
  5
606
100
AcDbEntity
  8
0
100
AcDbLine
 62
7
  6
CONTINUOUS
 10
73.6170996429
 20
20.4708503647
 11
73.2250035327
 21
20.4751774629
  0
LINE
  5
607
100
AcDbEntity
  8
0
100
AcDbLine
 62
7
  6
CONTINUOUS
 10
90.6170996429
 20
20.4708503647
 11
90.2250035327
 21
20.4751774629
  0
LINE
  5
608
100
AcDbEntity
  8
0
100
AcDbLine
 62
7
  6
CONTINUOUS
 10
79.3829003571
 20
20.6451382069
 11
79.7749964673
 21
20.6408111087
  0
LINE
  5
609
100
AcDbEntity
  8
0
100
AcDbLine
 62
7
  6
CONTINUOUS
 10
96.3829003571
 20
20.6451382069
 11
96.7749964673
 21
20.6408111087
  0
LINE
  5
60A
100
AcDbEntity
  8
RACCORDO
100
AcDbLine
 62
250
  6
CONTINUOUS
 10
-100.7187661178
 20
20.4802181687
 11
-100.801252592
 21
20.4811029411
  0
LINE
  5
60B
100
AcDbEntity
  8
DRAFT
100
AcDbLine
 62
7
  6
CONTINUOUS
 10
-90.4184668084
 20
20.6430425769
 11
-90.0365559887
 21
20.6384409428
  0
LINE
  5
60C
100
AcDbEntity
  8
DRAFT
100
AcDbLine
 62
7
  6
CONTINUOUS
 10
-73.4184668084
 20
20.6430425769
 11
-73.0365559887
 21
20.6384409428
  0
LINE
  5
60D
100
AcDbEntity
  8
DRAFT
100
AcDbLine
 62
7
  6
CONTINUOUS
 10
-96.7749964673
 20
20.4751774629
 11
-97.1467219965
 21
20.4800536328
  0
LINE
  5
60E
100
AcDbEntity
  8
DRAFT
100
AcDbLine
 62
7
  6
CONTINUOUS
 10
-79.7749964673
 20
20.4751774629
 11
-80.1467219965
 21
20.4800536328
  0
LINE
  5
60F
100
AcDbEntity
  8
DRAFT
100
AcDbLine
 62
7
  6
CONTINUOUS
 10
-3.2749964673
 20
20.4751774629
 11
-3.6467219965
 21
20.4800536328
  0
LINE
  5
610
100
AcDbEntity
  8
DRAFT
100
AcDbLine
 62
7
  6
CONTINUOUS
 10
3.2749964673
 20
20.6408111087
 11
3.6467219965
 21
20.6359349388
  0
LINE
  5
611
100
AcDbEntity
  8
0
100
AcDbLine
 62
7
  6
CONTINUOUS
 10
73.2250035327
 20
20.4751774629
 11
72.8532780035
 21
20.4800536328
  0
LINE
  5
612
100
AcDbEntity
  8
0
100
AcDbLine
 62
7
  6
CONTINUOUS
 10
90.2250035327
 20
20.4751774629
 11
89.8532780035
 21
20.4800536328
  0
LINE
  5
613
100
AcDbEntity
  8
0
100
AcDbLine
 62
7
  6
CONTINUOUS
 10
79.7749964673
 20
20.6408111087
 11
80.1467219965
 21
20.6359349388
  0
LINE
  5
614
100
AcDbEntity
  8
0
100
AcDbLine
 62
7
  6
CONTINUOUS
 10
96.7749964673
 20
20.6408111087
 11
97.1467219965
 21
20.6359349388
  0
LINE
  5
615
100
AcDbEntity
  8
RACCORDO
100
AcDbLine
 62
250
  6
CONTINUOUS
 10
110.0851042344
 20
16.3435971953
 11
109.9954724054
 21
16.3446641636
  0
LINE
  5
616
100
AcDbEntity
  8
RACCORDO
100
AcDbLine
 62
250
  6
CONTINUOUS
 10
109.8178979243
 20
16.0948209703
 11
109.7673477451
 21
16.095463307
  0
LINE
  5
617
100
AcDbEntity
  8
DRAFT
100
AcDbLine
 62
7
  6
CONTINUOUS
 10
-90.0365559887
 20
20.6384409428
 11
-89.6763263765
 21
20.6333089517
  0
LINE
  5
618
100
AcDbEntity
  8
DRAFT
100
AcDbLine
 62
7
  6
CONTINUOUS
 10
-73.0365559887
 20
20.6384409428
 11
-72.6763263765
 21
20.6333089517
  0
LINE
  5
619
100
AcDbEntity
  8
RACCORDO
100
AcDbLine
 62
250
  6
CONTINUOUS
 10
-100.910886356
 20
20.2311403112
 11
-100.9409920094
 21
20.2315707263
  0
LINE
  5
61A
100
AcDbEntity
  8
DRAFT
100
AcDbLine
 62
7
  6
CONTINUOUS
 10
-97.1467219965
 20
20.4800536328
 11
-97.4940960051
 21
20.4854234929
  0
LINE
  5
61B
100
AcDbEntity
  8
DRAFT
100
AcDbLine
 62
7
  6
CONTINUOUS
 10
-80.1467219965
 20
20.4800536328
 11
-80.4940960051
 21
20.4854234929
  0
LINE
  5
61C
100
AcDbEntity
  8
DRAFT
100
AcDbLine
 62
7
  6
CONTINUOUS
 10
-3.6467219965
 20
20.4800536328
 11
-3.9940960051
 21
20.4854234929
  0
LINE
  5
61D
100
AcDbEntity
  8
DRAFT
100
AcDbLine
 62
7
  6
CONTINUOUS
 10
3.6467219965
 20
20.6359349388
 11
3.9940960051
 21
20.6305650787
  0
LINE
  5
61E
100
AcDbEntity
  8
0
100
AcDbLine
 62
7
  6
CONTINUOUS
 10
72.8532780035
 20
20.4800536328
 11
72.5059039949
 21
20.4854234929
  0
LINE
  5
61F
100
AcDbEntity
  8
0
100
AcDbLine
 62
7
  6
CONTINUOUS
 10
89.8532780035
 20
20.4800536328
 11
89.5059039949
 21
20.4854234929
  0
LINE
  5
620
100
AcDbEntity
  8
0
100
AcDbLine
 62
7
  6
CONTINUOUS
 10
80.1467219965
 20
20.6359349388
 11
80.4940960051
 21
20.6305650787
  0
LINE
  5
621
100
AcDbEntity
  8
0
100
AcDbLine
 62
7
  6
CONTINUOUS
 10
97.1467219965
 20
20.6359349388
 11
97.4940960051
 21
20.6305650787
  0
LINE
  5
622
100
AcDbEntity
  8
DRAFT
100
AcDbLine
 62
7
  6
CONTINUOUS
 10
-89.6763263765
 20
20.6333089517
 11
-89.3418079714
 21
20.6277012226
  0
LINE
  5
623
100
AcDbEntity
  8
DRAFT
100
AcDbLine
 62
7
  6
CONTINUOUS
 10
-72.6763263765
 20
20.6333089517
 11
-72.3418079714
 21
20.6277012226
  0
LINE
  5
624
100
AcDbEntity
  8
RACCORDO
100
AcDbLine
 62
250
  6
CONTINUOUS
 10
109.8476205413
 20
16.0943095672
 11
109.8178979243
 21
16.0948209703
  0
LINE
  5
625
100
AcDbEntity
  8
RACCORDO
100
AcDbLine
 62
250
  6
CONTINUOUS
 10
110.1203154362
 20
16.3429932464
 11
110.0851042344
 21
16.3435971953
  0
LINE
  5
626
100
AcDbEntity
  8
RACCORDO
100
AcDbLine
 62
250
  6
CONTINUOUS
 10
-100.648167137
 20
20.4790827341
 11
-100.7187661178
 21
20.4802181687
  0
LINE
  5
627
100
AcDbEntity
  8
DRAFT
100
AcDbLine
 62
7
  6
CONTINUOUS
 10
-97.4940960051
 20
20.4854234929
 11
-97.8154135568
 21
20.4912616246
  0
LINE
  5
628
100
AcDbEntity
  8
DRAFT
100
AcDbLine
 62
7
  6
CONTINUOUS
 10
-80.4940960051
 20
20.4854234929
 11
-80.8154135568
 21
20.4912616246
  0
LINE
  5
629
100
AcDbEntity
  8
DRAFT
100
AcDbLine
 62
7
  6
CONTINUOUS
 10
-3.9940960051
 20
20.4854234929
 11
-4.3154135568
 21
20.4912616246
  0
LINE
  5
62A
100
AcDbEntity
  8
DRAFT
100
AcDbLine
 62
7
  6
CONTINUOUS
 10
3.9940960051
 20
20.6305650787
 11
4.3154135568
 21
20.624726947
  0
LINE
  5
62B
100
AcDbEntity
  8
0
100
AcDbLine
 62
7
  6
CONTINUOUS
 10
72.5059039949
 20
20.4854234929
 11
72.1845864432
 21
20.4912616246
  0
LINE
  5
62C
100
AcDbEntity
  8
0
100
AcDbLine
 62
7
  6
CONTINUOUS
 10
80.4940960051
 20
20.6305650787
 11
80.8154135568
 21
20.624726947
  0
LINE
  5
62D
100
AcDbEntity
  8
0
100
AcDbLine
 62
7
  6
CONTINUOUS
 10
89.5059039949
 20
20.4854234929
 11
89.1845864432
 21
20.4912616246
  0
LINE
  5
62E
100
AcDbEntity
  8
0
100
AcDbLine
 62
7
  6
CONTINUOUS
 10
97.4940960051
 20
20.6305650787
 11
97.8154135568
 21
20.624726947
  0
LINE
  5
62F
100
AcDbEntity
  8
DRAFT
100
AcDbLine
 62
7
  6
CONTINUOUS
 10
-89.3418079714
 20
20.6277012226
 11
-89.0341189544
 21
20.6216387014
  0
LINE
  5
630
100
AcDbEntity
  8
DRAFT
100
AcDbLine
 62
7
  6
CONTINUOUS
 10
-72.3418079714
 20
20.6277012226
 11
-72.0341189544
 21
20.6216387014
  0
LINE
  5
631
100
AcDbEntity
  8
RACCORDO
100
AcDbLine
 62
250
  6
CONTINUOUS
 10
-100.8827767744
 20
20.2305790885
 11
-100.910886356
 21
20.2311403112
  0
LINE
  5
632
100
AcDbEntity
  8
DRAFT
100
AcDbLine
 62
7
  6
CONTINUOUS
 10
-97.8154135568
 20
20.4912616246
 11
-98.1094740391
 21
20.4975485352
  0
LINE
  5
633
100
AcDbEntity
  8
DRAFT
100
AcDbLine
 62
7
  6
CONTINUOUS
 10
-80.8154135568
 20
20.4912616246
 11
-81.1094740391
 21
20.4975485352
  0
LINE
  5
634
100
AcDbEntity
  8
DRAFT
100
AcDbLine
 62
7
  6
CONTINUOUS
 10
-4.3154135568
 20
20.4912616246
 11
-4.6094740391
 21
20.4975485352
  0
LINE
  5
635
100
AcDbEntity
  8
DRAFT
100
AcDbLine
 62
7
  6
CONTINUOUS
 10
4.3154135568
 20
20.624726947
 11
4.6094740391
 21
20.6184400364
  0
LINE
  5
636
100
AcDbEntity
  8
0
100
AcDbLine
 62
7
  6
CONTINUOUS
 10
72.1845864432
 20
20.4912616246
 11
71.8905259609
 21
20.4975485352
  0
LINE
  5
637
100
AcDbEntity
  8
0
100
AcDbLine
 62
7
  6
CONTINUOUS
 10
80.8154135568
 20
20.624726947
 11
81.1094740391
 21
20.6184400364
  0
LINE
  5
638
100
AcDbEntity
  8
0
100
AcDbLine
 62
7
  6
CONTINUOUS
 10
89.1845864432
 20
20.4912616246
 11
88.8905259609
 21
20.4975485352
  0
LINE
  5
639
100
AcDbEntity
  8
0
100
AcDbLine
 62
7
  6
CONTINUOUS
 10
97.8154135568
 20
20.624726947
 11
98.1094740391
 21
20.6184400364
  0
LINE
  5
63A
100
AcDbEntity
  8
RACCORDO
100
AcDbLine
 62
250
  6
CONTINUOUS
 10
109.8736360156
 20
16.0937398808
 11
109.8476205413
 21
16.0943095672
  0
LINE
  5
63B
100
AcDbEntity
  8
RACCORDO
100
AcDbLine
 62
250
  6
CONTINUOUS
 10
-100.6084591798
 20
20.4782005241
 11
-100.648167137
 21
20.4790827341
  0
LINE
  5
63C
100
AcDbEntity
  8
DRAFT
100
AcDbLine
 62
7
  6
CONTINUOUS
 10
-89.0341189544
 20
20.6216387014
 11
-88.7547169675
 21
20.6151511664
  0
LINE
  5
63D
100
AcDbEntity
  8
DRAFT
100
AcDbLine
 62
7
  6
CONTINUOUS
 10
-72.0341189544
 20
20.6216387014
 11
-71.7547169675
 21
20.6151511664
  0
LINE
  5
63E
100
AcDbEntity
  8
DRAFT
100
AcDbLine
 62
7
  6
CONTINUOUS
 10
-98.1094740391
 20
20.4975485352
 11
-98.3731433194
 21
20.5042137702
  0
LINE
  5
63F
100
AcDbEntity
  8
DRAFT
100
AcDbLine
 62
7
  6
CONTINUOUS
 10
-81.1094740391
 20
20.4975485352
 11
-81.3731433194
 21
20.5042137702
  0
LINE
  5
640
100
AcDbEntity
  8
DRAFT
100
AcDbLine
 62
7
  6
CONTINUOUS
 10
-4.6094740391
 20
20.4975485352
 11
-4.8731433194
 21
20.5042137702
  0
LINE
  5
641
100
AcDbEntity
  8
DRAFT
100
AcDbLine
 62
7
  6
CONTINUOUS
 10
4.6094740391
 20
20.6184400364
 11
4.8731433194
 21
20.6117748014
  0
LINE
  5
642
100
AcDbEntity
  8
0
100
AcDbLine
 62
7
  6
CONTINUOUS
 10
71.8905259609
 20
20.4975485352
 11
71.6268566806
 21
20.5042137702
  0
LINE
  5
643
100
AcDbEntity
  8
0
100
AcDbLine
 62
7
  6
CONTINUOUS
 10
81.1094740391
 20
20.6184400364
 11
81.3731433194
 21
20.6117748014
  0
LINE
  5
644
100
AcDbEntity
  8
0
100
AcDbLine
 62
7
  6
CONTINUOUS
 10
88.8905259609
 20
20.4975485352
 11
88.6268566806
 21
20.5042137702
  0
LWPOLYLINE
  5
645
100
AcDbEntity
  8
0
100
AcDbPolyline
 62
7
  6
CONTINUOUS
 90
3
 70
0
 10
98.1094740391
 20
20.6184400364
 10
98.3731433194
 20
20.6117748014
 10
98.4932196062
 20
20.6083082314
  0
LINE
  5
646
100
AcDbEntity
  8
DRAFT
100
AcDbLine
 62
7
  6
CONTINUOUS
 10
-88.7547169675
 20
20.6151511664
 11
-88.5067803938
 21
20.6083082314
  0
LINE
  5
647
100
AcDbEntity
  8
DRAFT
100
AcDbLine
 62
7
  6
CONTINUOUS
 10
-71.7547169675
 20
20.6151511664
 11
-71.5067803938
 21
20.6083082314
  0
LINE
  5
648
100
AcDbEntity
  8
DRAFT
100
AcDbLine
 62
7
  6
CONTINUOUS
 10
-98.3731433194
 20
20.5042137702
 11
-98.6050965072
 21
20.5112250296
  0
LINE
  5
649
100
AcDbEntity
  8
DRAFT
100
AcDbLine
 62
7
  6
CONTINUOUS
 10
-81.3731433194
 20
20.5042137702
 11
-81.6050965072
 21
20.5112250296
  0
LINE
  5
64A
100
AcDbEntity
  8
DRAFT
100
AcDbLine
 62
7
  6
CONTINUOUS
 10
-4.8731433194
 20
20.5042137702
 11
-5.1050965072
 21
20.5112250296
  0
LINE
  5
64B
100
AcDbEntity
  8
DRAFT
100
AcDbLine
 62
7
  6
CONTINUOUS
 10
4.8731433194
 20
20.6117748014
 11
5.1050965072
 21
20.6047635419
  0
LINE
  5
64C
100
AcDbEntity
  8
0
100
AcDbLine
 62
7
  6
CONTINUOUS
 10
71.6268566806
 20
20.5042137702
 11
71.3949034928
 21
20.5112250296
  0
LWPOLYLINE
  5
64D
100
AcDbEntity
  8
0
100
AcDbPolyline
 62
7
  6
CONTINUOUS
 90
14
 70
0
 10
81.3731433194
 20
20.6117748014
 10
81.6050965072
 20
20.6047635419
 10
81.7088294082
 20
20.6011373153
 10
81.8043629232
 20
20.597432969
 10
81.8911155094
 20
20.5936728412
 10
81.9689816777
 20
20.589859318
 10
82.0380669171
 20
20.5859900132
 10
82.098106151
 20
20.5820801067
 10
82.1490900475
 20
20.5781274034
 10
82.1910279385
 20
20.5741340984
 10
82.2236827427
 20
20.5701219575
 10
82.2469943158
 20
20.5660919575
 10
82.2610228022
 20
20.5620431217
 10
82.2657109478
 20
20.5579484028
  0
LINE
  5
64E
100
AcDbEntity
  8
0
100
AcDbLine
 62
7
  6
CONTINUOUS
 10
88.6268566806
 20
20.5042137702
 11
88.3949034928
 21
20.5112250296
  0
LWPOLYLINE
  5
64F
100
AcDbEntity
  8
DRAFT
100
AcDbPolyline
 62
7
  6
CONTINUOUS
 90
13
 70
0
 10
-88.5067803938
 20
20.6083082314
 10
-88.2911705918
 20
20.6011373153
 10
-88.1956370768
 20
20.597432969
 10
-88.1088844906
 20
20.5936728412
 10
-88.0310183223
 20
20.589859318
 10
-87.9619330829
 20
20.5859900132
 10
-87.901893849
 20
20.5820801067
 10
-87.8509099525
 20
20.5781274034
 10
-87.8089720615
 20
20.5741340984
 10
-87.7763172573
 20
20.5701219575
 10
-87.7530056842
 20
20.5660919575
 10
-87.7389771978
 20
20.5620431217
 10
-87.7342890522
 20
20.5579484028
  0
LWPOLYLINE
  5
650
100
AcDbEntity
  8
DRAFT
100
AcDbPolyline
 62
7
  6
CONTINUOUS
 90
13
 70
0
 10
-71.5067803938
 20
20.6083082314
 10
-71.2911705918
 20
20.6011373153
 10
-71.1956370768
 20
20.597432969
 10
-71.1088844906
 20
20.5936728412
 10
-71.0310183223
 20
20.589859318
 10
-70.9619330829
 20
20.5859900132
 10
-70.901893849
 20
20.5820801067
 10
-70.8509099525
 20
20.5781274034
 10
-70.8089720615
 20
20.5741340984
 10
-70.7763172573
 20
20.5701219575
 10
-70.7530056842
 20
20.5660919575
 10
-70.7389771978
 20
20.5620431217
 10
-70.7342890522
 20
20.5579484028
  0
LWPOLYLINE
  5
651
100
AcDbEntity
  8
DRAFT
100
AcDbPolyline
 62
7
  6
CONTINUOUS
 90
12
 70
0
 10
-98.6050965072
 20
20.5112250296
 10
-98.8043629232
 20
20.5185556026
 10
-98.8911155094
 20
20.5223157304
 10
-98.9689816777
 20
20.5261292536
 10
-99.0380669171
 20
20.5299985584
 10
-99.098106151
 20
20.5339084648
 10
-99.1490900475
 20
20.5378611682
 10
-99.1910279385
 20
20.5418544732
 10
-99.2236827427
 20
20.545866614
 10
-99.2469943158
 20
20.5498966141
 10
-99.2610228022
 20
20.5539454499
 10
-99.2657109478
 20
20.5579484028
  0
LWPOLYLINE
  5
652
100
AcDbEntity
  8
DRAFT
100
AcDbPolyline
 62
7
  6
CONTINUOUS
 90
12
 70
0
 10
-81.6050965072
 20
20.5112250296
 10
-81.8043629232
 20
20.5185556026
 10
-81.8911155094
 20
20.5223157304
 10
-81.9689816777
 20
20.5261292536
 10
-82.0380669171
 20
20.5299985584
 10
-82.098106151
 20
20.5339084648
 10
-82.1490900475
 20
20.5378611682
 10
-82.1910279385
 20
20.5418544732
 10
-82.2236827427
 20
20.545866614
 10
-82.2469943158
 20
20.5498966141
 10
-82.2610228022
 20
20.5539454499
 10
-82.2657109478
 20
20.5579484028
  0
LWPOLYLINE
  5
653
100
AcDbEntity
  8
DRAFT
100
AcDbPolyline
 62
7
  6
CONTINUOUS
 90
12
 70
0
 10
-5.1050965072
 20
20.5112250296
 10
-5.3043629232
 20
20.5185556026
 10
-5.3911155094
 20
20.5223157304
 10
-5.4689816777
 20
20.5261292536
 10
-5.5380669171
 20
20.5299985584
 10
-5.598106151
 20
20.5339084648
 10
-5.6490900475
 20
20.5378611682
 10
-5.6910279385
 20
20.5418544732
 10
-5.7236827427
 20
20.545866614
 10
-5.7469943158
 20
20.5498966141
 10
-5.7610228022
 20
20.5539454499
 10
-5.7657109478
 20
20.5579484028
  0
LWPOLYLINE
  5
654
100
AcDbEntity
  8
DRAFT
100
AcDbPolyline
 62
7
  6
CONTINUOUS
 90
12
 70
0
 10
5.1050965072
 20
20.6047635419
 10
5.3043629232
 20
20.597432969
 10
5.3911155094
 20
20.5936728412
 10
5.4689816777
 20
20.589859318
 10
5.5380669171
 20
20.5859900132
 10
5.598106151
 20
20.5820801067
 10
5.6490900475
 20
20.5781274034
 10
5.6910279385
 20
20.5741340984
 10
5.7236827427
 20
20.5701219575
 10
5.7469943158
 20
20.5660919575
 10
5.7610228022
 20
20.5620431217
 10
5.7657109478
 20
20.5579484028
  0
LWPOLYLINE
  5
655
100
AcDbEntity
  8
0
100
AcDbPolyline
 62
7
  6
CONTINUOUS
 90
12
 70
0
 10
71.3949034928
 20
20.5112250296
 10
71.1956370768
 20
20.5185556026
 10
71.1088844906
 20
20.5223157304
 10
71.0310183223
 20
20.5261292536
 10
70.9619330829
 20
20.5299985584
 10
70.901893849
 20
20.5339084648
 10
70.8509099525
 20
20.5378611682
 10
70.8089720615
 20
20.5418544732
 10
70.7763172573
 20
20.545866614
 10
70.7530056842
 20
20.5498966141
 10
70.7389771978
 20
20.5539454499
 10
70.7342890522
 20
20.5579484028
  0
LWPOLYLINE
  5
656
100
AcDbEntity
  8
RACCORDO
100
AcDbPolyline
 62
250
  6
CONTINUOUS
 90
19
 70
0
 10
109.9374096343
 20
13.1096705709
 10
109.9591910388
 20
13.1087131246
 10
109.9808067379
 20
13.1058613383
 10
110.0020922868
 20
13.1011369073
 10
110.0228857525
 20
13.0945757736
 10
110.0430289454
 20
13.0862278519
 10
110.062368623
 20
13.0761566504
 10
110.0807576559
 20
13.0644387872
 10
110.0980561465
 20
13.0511634079
 10
110.114132494
 20
13.0364315068
 10
110.128864395
 20
13.0203551594
 10
110.1421397743
 20
13.0030566688
 10
110.1538576375
 20
12.9846676359
 10
110.163928839
 20
12.9653279582
 10
110.1722767607
 20
12.9451847654
 10
110.1788378945
 20
12.9243912997
 10
110.1835623254
 20
12.9031057508
 10
110.1864141118
 20
12.8814900517
 10
110.1873715581
 20
12.8597086471
  0
LWPOLYLINE
  5
657
100
AcDbEntity
  8
RACCORDO
100
AcDbPolyline
 62
250
  6
CONTINUOUS
 90
19
 70
0
 10
109.9734514553
 20
13.145712392
 10
109.9952328176
 20
13.1447549494
 10
110.0168484791
 20
13.1419031735
 10
110.0381339956
 20
13.1371787585
 10
110.0589274343
 20
13.1306176454
 10
110.0790706064
 20
13.1222697476
 10
110.0984102709
 20
13.1121985714
 10
110.1167992983
 20
13.1004807334
 10
110.1340977905
 20
13.0872053775
 10
110.1501741466
 20
13.0724734963
 10
110.1649060625
 20
13.0563971633
 10
110.1781814616
 20
13.0390986809
 10
110.1898993481
 20
13.0207096483
 10
110.1999705749
 20
13.001369962
 10
110.2083185218
 20
12.9812267512
 10
110.2148796787
 20
12.9604332581
 10
110.2196041288
 20
12.9391476721
 10
110.2224559281
 20
12.9175319269
 10
110.2234133791
 20
12.8957504682
  0
LINE
  5
658
100
AcDbEntity
  8
0
100
AcDbLine
 62
7
  6
CONTINUOUS
 10
-103.0787233919
 20
1.2499999404
 11
-103.2063829958
 21
1.2187500596
  0
LINE
  5
659
100
AcDbEntity
  8
0
100
AcDbLine
 62
7
  6
CONTINUOUS
 10
-103.7489362121
 20
1.2187500596
 11
-103.8765957713
 21
1.1875
  0
LINE
  5
65A
100
AcDbEntity
  8
DRAFT
100
AcDbLine
 62
7
  6
CONTINUOUS
 10
-88.1956370768
 20
20.5185556026
 11
-88.3949034928
 21
20.5112250296
  0
LWPOLYLINE
  5
65B
100
AcDbEntity
  8
DRAFT
100
AcDbPolyline
 62
7
  6
CONTINUOUS
 90
3
 70
0
 10
-98.8043629232
 20
20.597432969
 10
-98.6050965072
 20
20.6047635419
 10
-98.4932196062
 20
20.6083082314
  0
LWPOLYLINE
  5
65C
100
AcDbEntity
  8
RACCORDO
100
AcDbPolyline
 62
250
  6
CONTINUOUS
 90
14
 70
0
 10
-103.5927772687
 20
20.2299026434
 10
-103.6045506195
 20
20.229524268
 10
-103.6156076769
 20
20.2291203211
 10
-103.62590239
 20
20.2286907321
 10
-103.6354291429
 20
20.2282386696
 10
-103.6441572995
 20
20.2277627691
 10
-103.6520154077
 20
20.2272643949
 10
-103.6589391464
 20
20.2267508087
 10
-103.6648993023
 20
20.2262212054
 10
-103.6698618304
 20
20.2256763899
 10
-103.6737846604
 20
20.2251260395
 10
-103.6766589131
 20
20.2245733798
 10
-103.6784918078
 20
20.2240151851
 10
-103.679287608
 20
20.2234514553
  0
LWPOLYLINE
  5
65D
100
AcDbEntity
  8
RACCORDO
100
AcDbPolyline
 62
250
  6
CONTINUOUS
 90
9
 70
0
 10
-103.8589568089
 20
20.4777243857
 10
-103.8747306003
 20
20.4772257956
 10
-103.8885755774
 20
20.4767120813
 10
-103.9004450002
 20
20.4761824802
 10
-103.9103856087
 20
20.475637755
 10
-103.9182510059
 20
20.4750875207
 10
-103.9239923926
 20
20.4745349825
 10
-103.9276585679
 20
20.4739769353
 10
-103.9292495318
 20
20.4734133791
  0
LWPOLYLINE
  5
65E
100
AcDbEntity
  8
0
100
AcDbPolyline
 62
7
  6
CONTINUOUS
 90
13
 70
0
 10
98.4932196062
 20
20.6083082314
 10
98.7088294082
 20
20.6011373153
 10
98.8043629232
 20
20.597432969
 10
98.8911155094
 20
20.5936728412
 10
98.9689816777
 20
20.589859318
 10
99.0380669171
 20
20.5859900132
 10
99.098106151
 20
20.5820801067
 10
99.1490900475
 20
20.5781274034
 10
99.1910279385
 20
20.5741340984
 10
99.2236827427
 20
20.5701219575
 10
99.2469943158
 20
20.5660919575
 10
99.2610228022
 20
20.5620431217
 10
99.2657109478
 20
20.5579484028
  0
LWPOLYLINE
  5
65F
100
AcDbEntity
  8
0
100
AcDbPolyline
 62
7
  6
CONTINUOUS
 90
12
 70
0
 10
88.3949034928
 20
20.5112250296
 10
88.1956370768
 20
20.5185556026
 10
88.1088844906
 20
20.5223157304
 10
88.0310183223
 20
20.5261292536
 10
87.9619330829
 20
20.5299985584
 10
87.901893849
 20
20.5339084648
 10
87.8509099525
 20
20.5378611682
 10
87.8089720615
 20
20.5418544732
 10
87.7763172573
 20
20.545866614
 10
87.7530056842
 20
20.5498966141
 10
87.7389771978
 20
20.5539454499
 10
87.7342890522
 20
20.5579484028
  0
LWPOLYLINE
  5
660
100
AcDbEntity
  8
0
100
AcDbPolyline
 62
7
  6
CONTINUOUS
 90
11
 70
0
 10
70.7342890522
 20
20.5579484028
 10
70.7389771978
 20
20.5620431217
 10
70.7530056842
 20
20.5660919575
 10
70.7763172573
 20
20.5701219575
 10
70.8089720615
 20
20.5741340984
 10
70.8509099525
 20
20.5781274034
 10
70.901893849
 20
20.5820801067
 10
70.9619330829
 20
20.5859900132
 10
71.0310183223
 20
20.589859318
 10
71.1088844906
 20
20.5936728412
 10
71.1956370768
 20
20.597432969
  0
LWPOLYLINE
  5
661
100
AcDbEntity
  8
0
100
AcDbPolyline
 62
7
  6
CONTINUOUS
 90
11
 70
0
 10
82.2657109478
 20
20.5579484028
 10
82.2610228022
 20
20.5539454499
 10
82.2469943158
 20
20.5498966141
 10
82.2236827427
 20
20.545866614
 10
82.1910279385
 20
20.5418544732
 10
82.1490900475
 20
20.5378611682
 10
82.098106151
 20
20.5339084648
 10
82.0380669171
 20
20.5299985584
 10
81.9689816777
 20
20.5261292536
 10
81.8911155094
 20
20.5223157304
 10
81.8043629232
 20
20.5185556026
  0
LWPOLYLINE
  5
662
100
AcDbEntity
  8
0
100
AcDbPolyline
 62
7
  6
CONTINUOUS
 90
13
 70
0
 10
82.2657109478
 20
-20.5579484028
 10
82.2610228022
 20
-20.5539454499
 10
82.2469943158
 20
-20.5498966141
 10
82.2236827427
 20
-20.545866614
 10
82.1910279385
 20
-20.5418544732
 10
82.1490900475
 20
-20.5378611682
 10
82.098106151
 20
-20.5339084648
 10
82.0380669171
 20
-20.5299985584
 10
81.9689816777
 20
-20.5261292536
 10
81.8911155094
 20
-20.5223157304
 10
81.8043629232
 20
-20.5185556026
 10
81.7088294082
 20
-20.5148512563
 10
81.4932196062
 20
-20.5076803401
  0
LWPOLYLINE
  5
663
100
AcDbEntity
  8
0
100
AcDbPolyline
 62
7
  6
CONTINUOUS
 90
13
 70
0
 10
70.7342890522
 20
-20.5579484028
 10
70.7389771978
 20
-20.5620431216
 10
70.7530056842
 20
-20.5660919575
 10
70.7763172573
 20
-20.5701219575
 10
70.8089720615
 20
-20.5741340984
 10
70.8509099525
 20
-20.5781274034
 10
70.901893849
 20
-20.5820801067
 10
70.9619330829
 20
-20.5859900132
 10
71.0310183223
 20
-20.589859318
 10
71.1088844906
 20
-20.5936728412
 10
71.1956370768
 20
-20.597432969
 10
71.2911705918
 20
-20.6011373153
 10
71.5067803938
 20
-20.6083082314
  0
LWPOLYLINE
  5
664
100
AcDbEntity
  8
0
100
AcDbPolyline
 62
7
  6
CONTINUOUS
 90
11
 70
0
 10
87.7342890522
 20
20.5579484028
 10
87.7389771978
 20
20.5620431217
 10
87.7530056842
 20
20.5660919575
 10
87.7763172573
 20
20.5701219575
 10
87.8089720615
 20
20.5741340984
 10
87.8509099525
 20
20.5781274034
 10
87.901893849
 20
20.5820801067
 10
87.9619330829
 20
20.5859900132
 10
88.0310183223
 20
20.589859318
 10
88.1088844906
 20
20.5936728412
 10
88.1956370768
 20
20.597432969
  0
LWPOLYLINE
  5
665
100
AcDbEntity
  8
RACCORDO
100
AcDbPolyline
 62
250
  6
CONTINUOUS
 90
8
 70
0
 10
110.1873715581
 20
16.3402913529
 10
110.1857802154
 20
16.3406438929
 10
110.1822125196
 20
16.3409927394
 10
110.1766781838
 20
16.3413378925
 10
110.1691928693
 20
16.3416804937
 10
110.1597796131
 20
16.3420194015
 10
110.1484700677
 20
16.342351191
 10
110.1203154362
 20
16.3429932464
  0
LWPOLYLINE
  5
666
100
AcDbEntity
  8
RACCORDO
100
AcDbPolyline
 62
250
  6
CONTINUOUS
 90
15
 70
0
 10
100.770712392
 20
-20.2234514553
 10
100.7715081922
 20
-20.2240151847
 10
100.7733410869
 20
-20.2245733792
 10
100.7762153396
 20
-20.225126039
 10
100.7801381696
 20
-20.2256763896
 10
100.7851006977
 20
-20.2262212055
 10
100.7910608536
 20
-20.2267508091
 10
100.7979845923
 20
-20.2272643952
 10
100.8058427005
 20
-20.227762769
 10
100.8145708571
 20
-20.2282386694
 10
100.82409761
 20
-20.228690732
 10
100.8343923231
 20
-20.2291203211
 10
100.8454493805
 20
-20.2295242681
 10
100.8572227313
 20
-20.2299026435
 10
100.8827767744
 20
-20.2305790885
  0
LWPOLYLINE
  5
667
100
AcDbEntity
  8
0
100
AcDbPolyline
 62
7
  6
CONTINUOUS
 90
13
 70
0
 10
87.7342890522
 20
-20.5579484028
 10
87.7389771978
 20
-20.5620431216
 10
87.7530056842
 20
-20.5660919575
 10
87.7763172573
 20
-20.5701219575
 10
87.8089720615
 20
-20.5741340984
 10
87.8509099525
 20
-20.5781274034
 10
87.901893849
 20
-20.5820801067
 10
87.9619330829
 20
-20.5859900132
 10
88.0310183223
 20
-20.589859318
 10
88.1088844906
 20
-20.5936728412
 10
88.1956370768
 20
-20.597432969
 10
88.2911705918
 20
-20.6011373153
 10
88.5067803938
 20
-20.6083082314
  0
LWPOLYLINE
  5
668
100
AcDbEntity
  8
0
100
AcDbPolyline
 62
7
  6
CONTINUOUS
 90
11
 70
0
 10
99.2657109478
 20
20.5579484028
 10
99.2610228022
 20
20.5539454499
 10
99.2469943158
 20
20.5498966141
 10
99.2236827427
 20
20.545866614
 10
99.1910279385
 20
20.5418544732
 10
99.1490900475
 20
20.5378611682
 10
99.098106151
 20
20.5339084648
 10
99.0380669171
 20
20.5299985584
 10
98.9689816777
 20
20.5261292536
 10
98.8911155094
 20
20.5223157304
 10
98.8043629232
 20
20.5185556026
  0
LWPOLYLINE
  5
669
100
AcDbEntity
  8
RACCORDO
100
AcDbPolyline
 62
250
  6
CONTINUOUS
 90
10
 70
0
 10
109.9374096343
 20
16.0903294291
 10
109.9364078981
 20
16.0906948478
 10
109.9341887646
 20
16.0910561686
 10
109.9307522338
 20
16.0914133914
 10
109.9260775702
 20
16.0917677864
 10
109.9201855093
 20
16.0921180834
 10
109.9131382576
 20
16.092460472
 10
109.9049232028
 20
16.0927948504
 10
109.8955529572
 20
16.0931213204
 10
109.8736360156
 20
16.0937398808
  0
LWPOLYLINE
  5
66A
100
AcDbEntity
  8
0
100
AcDbPolyline
 62
7
  6
CONTINUOUS
 90
13
 70
0
 10
99.2657109478
 20
-20.5579484028
 10
99.2610228022
 20
-20.5539454499
 10
99.2469943158
 20
-20.5498966141
 10
99.2236827427
 20
-20.545866614
 10
99.1910279385
 20
-20.5418544732
 10
99.1490900475
 20
-20.5378611682
 10
99.098106151
 20
-20.5339084648
 10
99.0380669171
 20
-20.5299985584
 10
98.9689816777
 20
-20.5261292536
 10
98.8911155094
 20
-20.5223157304
 10
98.8043629232
 20
-20.5185556026
 10
98.7088294082
 20
-20.5148512563
 10
98.4932196062
 20
-20.5076803401
  0
LINE
  5
66B
100
AcDbEntity
  8
RACCORDO
100
AcDbLine
 62
250
  6
CONTINUOUS
 10
100.4847086471
 20
-20.4373715581
 11
100.5207504682
 21
-20.4734133791
  0
LINE
  5
66C
100
AcDbEntity
  8
RACCORDO
100
AcDbLine
 62
250
  6
CONTINUOUS
 10
100.7346705709
 20
-20.1874096343
 11
100.770712392
 21
-20.2234514553
  0
LINE
  5
66D
100
AcDbEntity
  8
RACCORDO
100
AcDbLine
 62
7
  6
CONTINUOUS
 10
100.770712392
 20
-19.9831296345
 11
100.7289433011
 21
-19.9413605437
  0
LINE
  5
66E
100
AcDbEntity
  8
RACCORDO
100
AcDbLine
 62
7
  6
CONTINUOUS
 10
100.4787059959
 20
-19.6911232385
 11
100.6348480516
 21
-19.847293333
  0
LINE
  5
66F
100
AcDbEntity
  8
RACCORDO
100
AcDbLine
 62
7
  6
CONTINUOUS
 10
100.6348480516
 20
-19.847293333
 11
100.6444814651
 21
-19.8572352799
  0
LWPOLYLINE
  5
670
100
AcDbEntity
  8
RACCORDO
100
AcDbPolyline
 62
7
  6
CONTINUOUS
 90
9
 70
0
 10
100.6894981708
 20
-19.904820443
 10
100.6972657997
 20
-19.9128770728
 10
100.7042620186
 20
-19.9200220089
 10
100.7104349333
 20
-19.9261892915
 10
100.7158364379
 20
-19.9313509654
 10
100.7203290298
 20
-19.9354198155
 10
100.7238668746
 20
-19.9383852882
 10
100.7264958067
 20
-19.9402705921
 10
100.728215826
 20
-19.9410851623
  0
LINE
  5
671
100
AcDbEntity
  8
RACCORDO
100
AcDbLine
 62
7
  6
CONTINUOUS
 10
100.6444814651
 20
-19.8572352799
 11
100.6894981708
 21
-19.904820443
  0
LINE
  5
672
100
AcDbEntity
  8
RACCORDO
100
AcDbLine
 62
7
  6
CONTINUOUS
 10
109.7331296345
 20
13.145712392
 11
109.6913605437
 21
13.1039433011
  0
LINE
  5
673
100
AcDbEntity
  8
RACCORDO
100
AcDbLine
 62
7
  6
CONTINUOUS
 10
109.4962440342
 20
12.9088267917
 11
109.597293333
 21
13.0098480516
  0
LINE
  5
674
100
AcDbEntity
  8
RACCORDO
100
AcDbLine
 62
7
  6
CONTINUOUS
 10
109.4411232385
 20
12.8537059959
 11
109.4785524197
 21
12.8910375134
  0
LINE
  5
675
100
AcDbEntity
  8
RACCORDO
100
AcDbLine
 62
7
  6
CONTINUOUS
 10
109.597293333
 20
13.0098480516
 11
109.6072352799
 21
13.0194814651
  0
LWPOLYLINE
  5
676
100
AcDbEntity
  8
RACCORDO
100
AcDbPolyline
 62
7
  6
CONTINUOUS
 90
9
 70
0
 10
109.654820443
 20
13.0644981708
 10
109.6628770728
 20
13.0722657997
 10
109.6700220089
 20
13.0792620186
 10
109.6761892915
 20
13.0854349333
 10
109.6813509654
 20
13.0908364379
 10
109.6854198155
 20
13.0953290298
 10
109.6883852882
 20
13.0988668746
 10
109.6902705921
 20
13.1014958067
 10
109.6910851623
 20
13.103215826
  0
LINE
  5
677
100
AcDbEntity
  8
RACCORDO
100
AcDbLine
 62
7
  6
CONTINUOUS
 10
109.6072352799
 20
13.0194814651
 11
109.654820443
 21
13.0644981708
  0
LWPOLYLINE
  5
678
100
AcDbEntity
  8
RACCORDO
100
AcDbPolyline
 62
7
  6
CONTINUOUS
 90
9
 70
0
 10
103.721784174
 20
-19.9410851623
 10
103.7235204933
 20
-19.9402540954
 10
103.7262087652
 20
-19.938319674
 10
103.7298489895
 20
-19.9352639573
 10
103.7345102259
 20
-19.9310406415
 10
103.7401234148
 20
-19.9256606678
 10
103.7464813776
 20
-19.919270142
 10
103.7536266325
 20
-19.9119464335
 10
103.7615166613
 20
-19.9037581563
  0
LINE
  5
679
100
AcDbEntity
  8
RACCORDO
100
AcDbLine
 62
7
  6
CONTINUOUS
 10
109.4785524197
 20
12.8910375134
 11
109.4962440342
 21
12.9088267917
  0
LINE
  5
67A
100
AcDbEntity
  8
RACCORDO
100
AcDbLine
 62
250
  6
CONTINUOUS
 10
109.9374096343
 20
13.1096705709
 11
109.9734514553
 21
13.145712392
  0
LINE
  5
67B
100
AcDbEntity
  8
RACCORDO
100
AcDbLine
 62
250
  6
CONTINUOUS
 10
110.1873715581
 20
12.8597086471
 11
110.2234133791
 21
12.8957504682
  0
LWPOLYLINE
  5
67C
100
AcDbEntity
  8
RACCORDO
100
AcDbPolyline
 62
250
  6
CONTINUOUS
 90
14
 70
0
 10
109.9734514553
 20
13.145712392
 10
109.9740151847
 20
13.1465081922
 10
109.9745733792
 20
13.1483410869
 10
109.975126039
 20
13.1512153396
 10
109.9756763896
 20
13.1551381696
 10
109.9762212055
 20
13.1601006977
 10
109.9767508091
 20
13.1660608536
 10
109.9772643952
 20
13.1729845923
 10
109.977762769
 20
13.1808427005
 10
109.9782386694
 20
13.1895708571
 10
109.978690732
 20
13.19909761
 10
109.9791203211
 20
13.2093923231
 10
109.9795242681
 20
13.2204493805
 10
109.9802553768
 20
13.2446638522
  0
LWPOLYLINE
  5
67D
100
AcDbEntity
  8
DRAFT
100
AcDbPolyline
 62
7
  6
CONTINUOUS
 90
12
 70
0
 10
110.3079484028
 20
5.7657109478
 10
110.3039454499
 20
5.7610228022
 10
110.2998966141
 20
5.7469943158
 10
110.295866614
 20
5.7236827427
 10
110.2918544732
 20
5.6910279385
 10
110.2878611682
 20
5.6490900475
 10
110.2839084648
 20
5.598106151
 10
110.2799985584
 20
5.5380669171
 10
110.2761292536
 20
5.4689816777
 10
110.2723157304
 20
5.3911155094
 10
110.2685556026
 20
5.3043629232
 10
110.2612250296
 20
5.1050965072
  0
LWPOLYLINE
  5
67E
100
AcDbEntity
  8
RACCORDO
100
AcDbPolyline
 62
7
  6
CONTINUOUS
 90
7
 70
0
 10
103.7210566989
 20
-19.9413605437
 10
103.7211154274
 20
-19.9413144641
 10
103.7211991628
 20
-19.9412684577
 10
103.7213079052
 20
-19.9412225242
 10
103.7214416545
 20
-19.9411766639
 10
103.7216004108
 20
-19.9411308765
 10
103.721784174
 20
-19.9410851623
  0
LWPOLYLINE
  5
67F
100
AcDbEntity
  8
DRAFT
100
AcDbPolyline
 62
7
  6
CONTINUOUS
 90
12
 70
0
 10
110.3079484028
 20
-5.7657109478
 10
110.3120431217
 20
-5.7610228022
 10
110.3160919575
 20
-5.7469943158
 10
110.3201219575
 20
-5.7236827427
 10
110.3241340984
 20
-5.6910279385
 10
110.3281274034
 20
-5.6490900475
 10
110.3320801067
 20
-5.598106151
 10
110.3359900132
 20
-5.5380669171
 10
110.339859318
 20
-5.4689816777
 10
110.3436728412
 20
-5.3911155094
 10
110.347432969
 20
-5.3043629232
 10
110.3547635419
 20
-5.1050965072
  0
LWPOLYLINE
  5
680
100
AcDbEntity
  8
RACCORDO
100
AcDbPolyline
 62
7
  6
CONTINUOUS
 90
3
 70
0
 10
103.7615166613
 20
-19.9037581563
 10
103.8060940084
 20
-19.8566315125
 10
103.8154670759
 20
-19.8469632867
  0
LINE
  5
681
100
AcDbEntity
  8
RACCORDO
100
AcDbLine
 62
7
  6
CONTINUOUS
 10
103.679287608
 20
-19.9831296345
 11
103.7210565216
 21
-19.941360721
  0
LINE
  5
682
100
AcDbEntity
  8
RACCORDO
100
AcDbLine
 62
250
  6
CONTINUOUS
 10
103.679287608
 20
-20.2234514553
 11
103.7153294291
 21
-20.1874096343
  0
LINE
  5
683
100
AcDbEntity
  8
RACCORDO
100
AcDbLine
 62
250
  6
CONTINUOUS
 10
103.9292495318
 20
-20.4734133791
 11
103.9652913529
 21
-20.4373715581
  0
LINE
  5
684
100
AcDbEntity
  8
0
100
AcDbLine
 62
7
  6
CONTINUOUS
 10
106.75
 20
-19.85
 11
106.6124379963
 21
-19.9875620037
  0
LINE
  5
685
100
AcDbEntity
  8
0
100
AcDbLine
 62
7
  6
CONTINUOUS
 10
109.6
 20
-17.0
 11
109.7375620037
 21
-16.8624379963
  0
LWPOLYLINE
  5
686
100
AcDbEntity
  8
RACCORDO
100
AcDbPolyline
 62
7
  6
CONTINUOUS
 90
3
 70
0
 10
103.8154670759
 20
-19.8469632867
 10
103.9339624867
 20
-19.7285524196
 10
103.9712940041
 20
-19.6911232385
  0
LWPOLYLINE
  5
687
100
AcDbEntity
  8
RACCORDO
100
AcDbPolyline
 62
7
  6
CONTINUOUS
 90
3
 70
0
 10
109.6537581563
 20
16.1365166613
 10
109.6066315125
 20
16.1810940084
 10
109.5969632867
 20
16.1904670759
  0
LINE
  5
688
100
AcDbEntity
  8
RACCORDO
100
AcDbLine
 62
7
  6
CONTINUOUS
 10
109.7331296345
 20
16.054287608
 11
109.691360721
 21
16.0960565216
  0
LINE
  5
689
100
AcDbEntity
  8
RACCORDO
100
AcDbLine
 62
250
  6
CONTINUOUS
 10
109.9734514553
 20
16.054287608
 11
109.9374096343
 21
16.0903294291
  0
LINE
  5
68A
100
AcDbEntity
  8
RACCORDO
100
AcDbLine
 62
250
  6
CONTINUOUS
 10
110.2234133791
 20
16.3042495318
 11
110.1873715581
 21
16.3402913529
  0
LINE
  5
68B
100
AcDbEntity
  8
0
100
AcDbLine
 62
7
  6
CONTINUOUS
 10
106.75
 20
19.85
 11
106.6124379963
 21
19.9875620037
  0
LINE
  5
68C
100
AcDbEntity
  8
0
100
AcDbLine
 62
7
  6
CONTINUOUS
 10
109.6
 20
17.0
 11
109.7375620037
 21
16.8624379963
  0
LWPOLYLINE
  5
68D
100
AcDbEntity
  8
RACCORDO
100
AcDbPolyline
 62
7
  6
CONTINUOUS
 90
3
 70
0
 10
109.5969632867
 20
16.1904670759
 10
109.4785524196
 20
16.3089624867
 10
109.4411232385
 20
16.3462940041
  0
LINE
  5
68E
100
AcDbEntity
  8
0
100
AcDbLine
 62
7
  6
CONTINUOUS
 10
97.0
 20
13.3
 11
97.0
 21
13.2
  0
LWPOLYLINE
  5
68F
100
AcDbEntity
  8
RACCORDO
100
AcDbPolyline
 62
7
  6
CONTINUOUS
 90
7
 70
0
 10
109.6913605437
 20
16.0960566989
 10
109.6913144641
 20
16.0961154274
 10
109.6912684577
 20
16.0961991628
 10
109.6912225242
 20
16.0963079052
 10
109.6911766639
 20
16.0964416545
 10
109.6911308765
 20
16.0966004108
 10
109.6910851623
 20
16.096784174
  0
LWPOLYLINE
  5
690
100
AcDbEntity
  8
RACCORDO
100
AcDbPolyline
 62
250
  6
CONTINUOUS
 90
19
 70
0
 10
103.679287608
 20
-20.2234514553
 10
103.6802450543
 20
-20.2452328598
 10
103.6830968406
 20
-20.2668485589
 10
103.6878212716
 20
-20.2881341079
 10
103.6943824053
 20
-20.3089275735
 10
103.702730327
 20
-20.3290707664
 10
103.7128015286
 20
-20.3484104441
 10
103.7245193918
 20
-20.3667994769
 10
103.7377947711
 20
-20.3840979676
 10
103.7525266721
 20
-20.400174315
 10
103.7686030196
 20
-20.414906216
 10
103.7859015102
 20
-20.4281815954
 10
103.804290543
 20
-20.4398994585
 10
103.8236302207
 20
-20.4499706601
 10
103.8437734136
 20
-20.4583185818
 10
103.8645668793
 20
-20.4648797155
 10
103.8858524282
 20
-20.4696041465
 10
103.9074681273
 20
-20.4724559328
 10
103.9292495318
 20
-20.4734133791
  0
LWPOLYLINE
  5
691
100
AcDbEntity
  8
RACCORDO
100
AcDbPolyline
 62
250
  6
CONTINUOUS
 90
19
 70
0
 10
103.7153294291
 20
-20.1874096343
 10
103.7162868678
 20
-20.2091909526
 10
103.7191386336
 20
-20.2308065787
 10
103.7238630342
 20
-20.2520920692
 10
103.7304241314
 20
-20.2728854918
 10
103.7387720135
 20
-20.293028657
 10
103.7488431755
 20
-20.3123683216
 10
103.7605610023
 20
-20.3307573554
 10
103.7738363512
 20
-20.3480558595
 10
103.7885682294
 20
-20.3641322304
 10
103.8046445638
 20
-20.3788641628
 10
103.8219430527
 20
-20.3921395794
 10
103.8403320948
 20
-20.4038574821
 10
103.8596717934
 20
-20.4139287233
 10
103.8798150192
 20
-20.4222766823
 10
103.9006085271
 20
-20.4288378481
 10
103.9218941263
 20
-20.4335623037
 10
103.9435098835
 20
-20.4364141061
 10
103.9652913529
 20
-20.437371558
  0
LWPOLYLINE
  5
692
100
AcDbEntity
  8
DRAFT
100
AcDbPolyline
 62
7
  6
CONTINUOUS
 90
11
 70
0
 10
110.2685556026
 20
-5.3043629232
 10
110.2723157304
 20
-5.3911155094
 10
110.2761292536
 20
-5.4689816777
 10
110.2799985584
 20
-5.5380669171
 10
110.2839084648
 20
-5.598106151
 10
110.2878611682
 20
-5.6490900475
 10
110.2918544732
 20
-5.6910279385
 10
110.295866614
 20
-5.7236827427
 10
110.2998966141
 20
-5.7469943158
 10
110.3039454499
 20
-5.7610228022
 10
110.3079484028
 20
-5.7657109478
  0
LWPOLYLINE
  5
693
100
AcDbEntity
  8
DRAFT
100
AcDbPolyline
 62
7
  6
CONTINUOUS
 90
11
 70
0
 10
110.347432969
 20
5.3043629232
 10
110.3436728412
 20
5.3911155094
 10
110.339859318
 20
5.4689816777
 10
110.3359900132
 20
5.5380669171
 10
110.3320801067
 20
5.598106151
 10
110.3281274034
 20
5.6490900475
 10
110.3241340984
 20
5.6910279385
 10
110.3201219575
 20
5.7236827427
 10
110.3160919575
 20
5.7469943158
 10
110.3120431217
 20
5.7610228022
 10
110.3079484028
 20
5.7657109478
  0
LWPOLYLINE
  5
694
100
AcDbEntity
  8
RACCORDO
100
AcDbPolyline
 62
250
  6
CONTINUOUS
 90
8
 70
0
 10
110.2272257956
 20
16.2497306003
 10
110.2267120813
 20
16.2635755774
 10
110.2261824802
 20
16.2754450002
 10
110.225637755
 20
16.2853856087
 10
110.2250875207
 20
16.2932510059
 10
110.2245349825
 20
16.2989923926
 10
110.2239769353
 20
16.3026585679
 10
110.2234133791
 20
16.3042495318
  0
LWPOLYLINE
  5
695
100
AcDbEntity
  8
RACCORDO
100
AcDbPolyline
 62
250
  6
CONTINUOUS
 90
13
 70
0
 10
109.979524268
 20
15.9795506195
 10
109.9791203211
 20
15.9906076769
 10
109.9786907321
 20
16.00090239
 10
109.9782386696
 20
16.0104291429
 10
109.9777627691
 20
16.0191572995
 10
109.9772643949
 20
16.0270154077
 10
109.9767508087
 20
16.0339391464
 10
109.9762212054
 20
16.0398993023
 10
109.9756763899
 20
16.0448618304
 10
109.9751260395
 20
16.0487846604
 10
109.9745733798
 20
16.0516589131
 10
109.9740151851
 20
16.0534918078
 10
109.9734514553
 20
16.054287608
  0
LINE
  5
696
100
AcDbEntity
  8
DRAFT
100
AcDbLine
 62
7
  6
CONTINUOUS
 10
110.2612250296
 20
-5.1050965072
 11
110.2685556026
 21
-5.3043629232
  0
LINE
  5
697
100
AcDbEntity
  8
DRAFT
100
AcDbLine
 62
7
  6
CONTINUOUS
 10
110.3547635419
 20
5.1050965072
 11
110.347432969
 21
5.3043629232
  0
LWPOLYLINE
  5
698
100
AcDbEntity
  8
RACCORDO
100
AcDbPolyline
 62
250
  6
CONTINUOUS
 90
9
 70
0
 10
100.7318786796
 20
-20.1455529571
 10
100.7322051496
 20
-20.1549232025
 10
100.732539528
 20
-20.1631382572
 10
100.7328819166
 20
-20.1701855092
 10
100.7332322136
 20
-20.1760775705
 10
100.7335866086
 20
-20.1807522343
 10
100.7339438314
 20
-20.1841887651
 10
100.7343051522
 20
-20.1864078984
 10
100.7346705709
 20
-20.1874096343
  0
LWPOLYLINE
  5
699
100
AcDbEntity
  8
RACCORDO
100
AcDbPolyline
 62
250
  6
CONTINUOUS
 90
7
 70
0
 10
100.482648809
 20
-20.3984700676
 10
100.4829805985
 20
-20.4097796131
 10
100.4833195063
 20
-20.4191928693
 10
100.4836621076
 20
-20.4266781838
 10
100.4840072607
 20
-20.4322125196
 10
100.4843561072
 20
-20.4357802154
 10
100.4847086471
 20
-20.4373715581
  0
LINE
  5
69A
100
AcDbEntity
  8
DRAFT
100
AcDbLine
 62
7
  6
CONTINUOUS
 10
110.2542137702
 20
-4.8731433194
 11
110.2612250296
 21
-5.1050965072
  0
LINE
  5
69B
100
AcDbEntity
  8
DRAFT
100
AcDbLine
 62
7
  6
CONTINUOUS
 10
110.3617748014
 20
4.8731433194
 11
110.3547635419
 21
5.1050965072
  0
LINE
  5
69C
100
AcDbEntity
  8
RACCORDO
100
AcDbLine
 62
250
  6
CONTINUOUS
 10
109.9802553769
 20
15.9553361478
 11
109.979524268
 21
15.9795506195
  0
LINE
  5
69D
100
AcDbEntity
  8
RACCORDO
100
AcDbLine
 62
250
  6
CONTINUOUS
 10
110.2282005241
 20
16.2165408205
 11
110.2272257956
 21
16.2497306003
  0
LINE
  5
69E
100
AcDbEntity
  8
RACCORDO
100
AcDbLine
 62
250
  6
CONTINUOUS
 10
100.7312601192
 20
-20.1236360158
 11
100.7318786796
 21
-20.1455529571
  0
LINE
  5
69F
100
AcDbEntity
  8
DRAFT
100
AcDbLine
 62
7
  6
CONTINUOUS
 10
110.2475485352
 20
-4.6094740391
 11
110.2542137702
 21
-4.8731433194
  0
LINE
  5
6A0
100
AcDbEntity
  8
DRAFT
100
AcDbLine
 62
7
  6
CONTINUOUS
 10
110.3684400364
 20
4.6094740391
 11
110.3617748014
 21
4.8731433194
  0
LINE
  5
6A1
100
AcDbEntity
  8
RACCORDO
100
AcDbLine
 62
250
  6
CONTINUOUS
 10
109.9808742108
 20
15.9284563767
 11
109.9802553769
 21
15.9553361478
  0
LINE
  5
6A2
100
AcDbEntity
  8
RACCORDO
100
AcDbLine
 62
250
  6
CONTINUOUS
 10
100.4820067536
 20
-20.3703154362
 11
100.482648809
 21
-20.3984700676
  0
LINE
  5
6A3
100
AcDbEntity
  8
RACCORDO
100
AcDbLine
 62
250
  6
CONTINUOUS
 10
110.2290827341
 20
16.1768328633
 11
110.2282005241
 21
16.2165408205
  0
LINE
  5
6A4
100
AcDbEntity
  8
RACCORDO
100
AcDbLine
 62
250
  6
CONTINUOUS
 10
100.7306904328
 20
-20.0976205413
 11
100.7312601192
 21
-20.1236360158
  0
LINE
  5
6A5
100
AcDbEntity
  8
DRAFT
100
AcDbLine
 62
7
  6
CONTINUOUS
 10
110.2412616246
 20
-4.3154135568
 11
110.2475485352
 21
-4.6094740391
  0
LINE
  5
6A6
100
AcDbEntity
  8
DRAFT
100
AcDbLine
 62
7
  6
CONTINUOUS
 10
110.374726947
 20
4.3154135568
 11
110.3684400364
 21
4.6094740391
  0
LINE
  5
6A7
100
AcDbEntity
  8
DRAFT
100
AcDbLine
 62
7
  6
CONTINUOUS
 10
110.2326796199
 20
-3.8236736235
 11
110.2412616246
 21
-4.3154135568
  0
LINE
  5
6A8
100
AcDbEntity
  8
DRAFT
100
AcDbLine
 62
7
  6
CONTINUOUS
 10
110.3833089517
 20
3.8236736235
 11
110.374726947
 21
4.3154135568
  0
LINE
  5
6A9
100
AcDbEntity
  8
RACCORDO
100
AcDbLine
 62
250
  6
CONTINUOUS
 10
109.9813727134
 20
15.8992818622
 11
109.9808742108
 21
15.9284563767
  0
LINE
  5
6AA
100
AcDbEntity
  8
RACCORDO
100
AcDbLine
 62
250
  6
CONTINUOUS
 10
100.7299476913
 20
-20.051814775
 11
100.7306904328
 21
-20.0976205413
  0
LINE
  5
6AB
100
AcDbEntity
  8
RACCORDO
100
AcDbLine
 62
250
  6
CONTINUOUS
 10
100.4811163243
 20
-20.3149955168
 11
100.4820067536
 21
-20.3703154362
  0
LINE
  5
6AC
100
AcDbEntity
  8
RACCORDO
100
AcDbLine
 62
250
  6
CONTINUOUS
 10
110.2302181687
 20
16.1062338817
 11
110.2290827341
 21
16.1768328633
  0
LINE
  5
6AD
100
AcDbEntity
  8
DRAFT
100
AcDbLine
 62
7
  6
CONTINUOUS
 10
110.2251774629
 20
-3.2749964673
 11
110.2326796199
 21
-3.8236736235
  0
LINE
  5
6AE
100
AcDbEntity
  8
DRAFT
100
AcDbLine
 62
7
  6
CONTINUOUS
 10
110.3908111087
 20
3.2749964673
 11
110.3833089517
 21
3.8236736235
  0
LINE
  5
6AF
100
AcDbEntity
  8
RACCORDO
100
AcDbLine
 62
250
  6
CONTINUOUS
 10
109.9817350408
 20
15.8683678328
 11
109.9813727134
 21
15.8992818622
  0
LINE
  5
6B0
100
AcDbEntity
  8
DRAFT
100
AcDbLine
 62
7
  6
CONTINUOUS
 10
110.218897849
 20
-2.6797932811
 11
110.2251774629
 21
-3.2749964673
  0
LINE
  5
6B1
100
AcDbEntity
  8
DRAFT
100
AcDbLine
 62
7
  6
CONTINUOUS
 10
110.3970907226
 20
2.6797932811
 11
110.3908111087
 21
3.2749964673
  0
LINE
  5
6B2
100
AcDbEntity
  8
RACCORDO
100
AcDbLine
 62
250
  6
CONTINUOUS
 10
110.2311029412
 20
16.0237474089
 11
110.2302181687
 21
16.1062338817
  0
LINE
  5
6B3
100
AcDbEntity
  8
RACCORDO
100
AcDbLine
 62
250
  6
CONTINUOUS
 10
100.4801044024
 20
-20.2194873762
 11
100.4811163243
 21
-20.3149955168
  0
LINE
  5
6B4
100
AcDbEntity
  8
RACCORDO
100
AcDbLine
 62
250
  6
CONTINUOUS
 10
100.7292012467
 20
-19.9804667989
 11
100.7299476913
 21
-20.051814775
  0
LINE
  5
6B5
100
AcDbEntity
  8
DRAFT
100
AcDbLine
 62
7
  6
CONTINUOUS
 10
110.213906264
 20
-2.0443219208
 11
110.218897849
 21
-2.6797932811
  0
LINE
  5
6B6
100
AcDbEntity
  8
DRAFT
100
AcDbLine
 62
7
  6
CONTINUOUS
 10
110.4020823076
 20
2.0443219208
 11
110.3970907226
 21
2.6797932811
  0
LINE
  5
6B7
100
AcDbEntity
  8
RACCORDO
100
AcDbLine
 62
250
  6
CONTINUOUS
 10
100.7289434784
 20
-19.941360721
 11
100.7292012467
 21
-19.9804667989
  0
LINE
  5
6B8
100
AcDbEntity
  8
RACCORDO
100
AcDbLine
 62
250
  6
CONTINUOUS
 10
109.9819538947
 20
15.8365071898
 11
109.9817350408
 21
15.8683678328
  0
LINE
  5
6B9
100
AcDbEntity
  8
DRAFT
100
AcDbLine
 62
7
  6
CONTINUOUS
 10
110.2102937873
 20
-1.380068602
 11
110.213906264
 21
-2.0443219208
  0
LINE
  5
6BA
100
AcDbEntity
  8
DRAFT
100
AcDbLine
 62
7
  6
CONTINUOUS
 10
110.4056947843
 20
1.380068602
 11
110.4020823076
 21
2.0443219208
  0
LINE
  5
6BB
100
AcDbEntity
  8
RACCORDO
100
AcDbLine
 62
250
  6
CONTINUOUS
 10
100.4790656985
 20
-20.040298343
 11
100.4801044024
 21
-20.2194873762
  0
LINE
  5
6BC
100
AcDbEntity
  8
RACCORDO
100
AcDbLine
 62
250
  6
CONTINUOUS
 10
110.2318251483
 20
15.900617957
 11
110.2311029412
 21
16.0237474089
  0
LINE
  5
6BD
100
AcDbEntity
  8
DRAFT
100
AcDbLine
 62
7
  6
CONTINUOUS
 10
110.2081022389
 20
-0.6948952523
 11
110.2102937873
 21
-1.380068602
  0
LINE
  5
6BE
100
AcDbEntity
  8
DRAFT
100
AcDbLine
 62
7
  6
CONTINUOUS
 10
110.4078863327
 20
0.6948952523
 11
110.4056947843
 21
1.380068602
  0
LINE
  5
6BF
100
AcDbEntity
  8
DRAFT
100
AcDbLine
 62
7
  6
CONTINUOUS
 10
110.2073687444
 20
0.0
 11
110.2081022389
 21
-0.6948952523
  0
LINE
  5
6C0
100
AcDbEntity
  8
DRAFT
100
AcDbLine
 62
7
  6
CONTINUOUS
 10
110.4086198272
 20
0.0
 11
110.4078863327
 21
0.6948952523
  0
LINE
  5
6C1
100
AcDbEntity
  8
RACCORDO
100
AcDbLine
 62
250
  6
CONTINUOUS
 10
100.4787059959
 20
-19.6911232385
 11
100.4790656985
 21
-20.040298343
  0
LINE
  5
6C2
100
AcDbEntity
  8
RACCORDO
100
AcDbLine
 62
250
  6
CONTINUOUS
 10
100.770712392
 20
-20.2234514553
 11
100.770712392
 21
-19.9831296345
  0
LINE
  5
6C3
100
AcDbEntity
  8
RACCORDO
100
AcDbLine
 62
250
  6
CONTINUOUS
 10
101.0206743158
 20
-20.4819885951
 11
101.0206743158
 21
-19.9874172425
  0
LINE
  5
6C4
100
AcDbEntity
  8
RACCORDO
100
AcDbLine
 62
250
  6
CONTINUOUS
 10
103.4293256842
 20
-19.9874172425
 11
103.4293256842
 21
-20.4819885951
  0
LINE
  5
6C5
100
AcDbEntity
  8
RACCORDO
100
AcDbLine
 62
250
  6
CONTINUOUS
 10
103.679287608
 20
-19.9831296345
 11
103.679287608
 21
-20.2234514553
  0
LINE
  5
6C6
100
AcDbEntity
  8
0
100
AcDbLine
 62
7
  6
CONTINUOUS
 10
106.6121049871
 20
-19.837462941
 11
106.6121049871
 21
-17.75
  0
LINE
  5
6C7
100
AcDbEntity
  8
0
100
AcDbLine
 62
7
  6
CONTINUOUS
 10
106.6121049871
 20
17.75
 11
106.6121049871
 21
19.837462941
  0
LINE
  5
6C8
100
AcDbEntity
  8
DRAFT
100
AcDbLine
 62
7
  6
CONTINUOUS
 10
106.75
 20
-19.85
 11
106.75
 21
-17.75
  0
LINE
  5
6C9
100
AcDbEntity
  8
DRAFT
100
AcDbLine
 62
7
  6
CONTINUOUS
 10
106.75
 20
17.75
 11
106.75
 21
19.85
  0
LINE
  5
6CA
100
AcDbEntity
  8
DRAFT
100
AcDbLine
 62
250
  6
CONTINUOUS
 10
107.5
 20
17.0
 11
107.5
 21
16.8621049871
  0
LINE
  5
6CB
100
AcDbEntity
  8
0
100
AcDbLine
 62
250
  6
CONTINUOUS
 10
107.5
 20
-20.75
 11
107.5
 21
-19.85
  0
LINE
  5
6CC
100
AcDbEntity
  8
DRAFT
100
AcDbLine
 62
250
  6
CONTINUOUS
 10
107.5
 20
-17.0
 11
107.5
 21
-16.8621049871
  0
LINE
  5
6CD
100
AcDbEntity
  8
0
100
AcDbLine
 62
250
  6
CONTINUOUS
 10
107.5
 20
19.85
 11
107.5
 21
20.75
  0
LINE
  5
6CE
100
AcDbEntity
  8
RACCORDO
100
AcDbLine
 62
250
  6
CONTINUOUS
 10
109.4411232385
 20
12.8537059959
 11
109.4411232385
 21
16.3462940041
  0
LINE
  5
6CF
100
AcDbEntity
  8
RACCORDO
100
AcDbLine
 62
250
  6
CONTINUOUS
 10
109.587462941
 20
-16.8621049871
 11
109.5874629348
 21
13.0000408689
  0
LINE
  5
6D0
100
AcDbEntity
  8
RACCORDO
100
AcDbLine
 62
250
  6
CONTINUOUS
 10
109.5874629349
 20
16.1999591314
 11
109.587462941
 21
16.8621049871
  0
LINE
  5
6D1
100
AcDbEntity
  8
DRAFT
100
AcDbLine
 62
7
  6
CONTINUOUS
 10
109.6
 20
17.75
 11
109.6
 21
17.0
  0
LINE
  5
6D2
100
AcDbEntity
  8
DRAFT
100
AcDbLine
 62
7
  6
CONTINUOUS
 10
109.6
 20
-17.0
 11
109.6
 21
-17.75
  0
LINE
  5
6D3
100
AcDbEntity
  8
RACCORDO
100
AcDbLine
 62
250
  6
CONTINUOUS
 10
109.6910851623
 20
13.103215826
 11
109.6910851623
 21
16.096784174
  0
LINE
  5
6D4
100
AcDbEntity
  8
RACCORDO
100
AcDbLine
 62
7
  6
CONTINUOUS
 10
109.7374172425
 20
13.3956743158
 11
109.7374172425
 21
15.8043256842
  0
LINE
  5
6D5
100
AcDbEntity
  8
0
100
AcDbLine
 62
7
  6
CONTINUOUS
 10
109.7375620037
 20
-17.75
 11
109.7375620037
 21
-16.8624379963
  0
LINE
  5
6D6
100
AcDbEntity
  8
0
100
AcDbLine
 62
7
  6
CONTINUOUS
 10
109.7375620037
 20
16.8624379963
 11
109.7375620037
 21
17.75
  0
LINE
  5
6D7
100
AcDbEntity
  8
RACCORDO
100
AcDbLine
 62
250
  6
CONTINUOUS
 10
109.9820266713
 20
13.3956743158
 11
109.9819538947
 21
15.8365071898
  0
LINE
  5
6D8
100
AcDbEntity
  8
RACCORDO
100
AcDbLine
 62
250
  6
CONTINUOUS
 10
110.1873715581
 20
-17.75
 11
110.1873715581
 21
12.8597086471
  0
LINE
  5
6D9
100
AcDbEntity
  8
RACCORDO
100
AcDbLine
 62
250
  6
CONTINUOUS
 10
110.1873715581
 20
16.3402913529
 11
110.1873715581
 21
17.75
  0
LINE
  5
6DA
100
AcDbEntity
  8
SUPERFICI
100
AcDbLine
 62
7
  6
CONTINUOUS
 10
110.5000001746
 20
17.7500000072
 11
110.5000001746
 21
-17.7500000122
  0
LINE
  5
6DB
100
AcDbEntity
  8
DRAFT
100
AcDbLine
 62
7
  6
CONTINUOUS
 10
110.5
 20
-17.75
 11
110.5
 21
17.75
  0
LINE
  5
6DC
100
AcDbEntity
  8
RACCORDO
100
AcDbLine
 62
250
  6
CONTINUOUS
 10
110.2319703881
 20
13.3632688102
 11
110.2318251483
 21
15.900617957
  0
LINE
  5
6DD
100
AcDbEntity
  8
DRAFT
100
AcDbLine
 62
7
  6
CONTINUOUS
 10
110.2081022389
 20
0.6948952523
 11
110.2073687444
 21
0.0
  0
LINE
  5
6DE
100
AcDbEntity
  8
DRAFT
100
AcDbLine
 62
7
  6
CONTINUOUS
 10
110.4078863327
 20
-0.6948952523
 11
110.4086198272
 21
0.0
  0
LINE
  5
6DF
100
AcDbEntity
  8
RACCORDO
100
AcDbLine
 62
250
  6
CONTINUOUS
 10
109.9819538949
 20
13.3634928102
 11
109.9820266713
 21
13.3956743158
  0
LINE
  5
6E0
100
AcDbEntity
  8
RACCORDO
100
AcDbLine
 62
250
  6
CONTINUOUS
 10
103.9708060843
 20
-20.0724319547
 11
103.9712940041
 21
-19.6911232385
  0
LINE
  5
6E1
100
AcDbEntity
  8
DRAFT
100
AcDbLine
 62
7
  6
CONTINUOUS
 10
110.2102937873
 20
1.380068602
 11
110.2081022389
 21
0.6948952523
  0
LINE
  5
6E2
100
AcDbEntity
  8
DRAFT
100
AcDbLine
 62
7
  6
CONTINUOUS
 10
110.4056947843
 20
-1.380068602
 11
110.4078863327
 21
-0.6948952523
  0
LINE
  5
6E3
100
AcDbEntity
  8
RACCORDO
100
AcDbLine
 62
250
  6
CONTINUOUS
 10
110.2315331002
 20
13.2363678889
 11
110.2319703881
 21
13.3632688102
  0
LINE
  5
6E4
100
AcDbEntity
  8
DRAFT
100
AcDbLine
 62
7
  6
CONTINUOUS
 10
110.213906264
 20
2.0443219208
 11
110.2102937873
 21
1.380068602
  0
LINE
  5
6E5
100
AcDbEntity
  8
DRAFT
100
AcDbLine
 62
7
  6
CONTINUOUS
 10
110.4020823076
 20
-2.0443219208
 11
110.4056947843
 21
-1.380068602
  0
LINE
  5
6E6
100
AcDbEntity
  8
RACCORDO
100
AcDbLine
 62
250
  6
CONTINUOUS
 10
109.9817350409
 20
13.3316321672
 11
109.9819538949
 21
13.3634928102
  0
LINE
  5
6E7
100
AcDbEntity
  8
DRAFT
100
AcDbLine
 62
7
  6
CONTINUOUS
 10
110.218897849
 20
2.6797932811
 11
110.213906264
 21
2.0443219208
  0
LINE
  5
6E8
100
AcDbEntity
  8
DRAFT
100
AcDbLine
 62
7
  6
CONTINUOUS
 10
110.3970907226
 20
-2.6797932811
 11
110.4020823076
 21
-2.0443219208
  0
LINE
  5
6E9
100
AcDbEntity
  8
RACCORDO
100
AcDbLine
 62
250
  6
CONTINUOUS
 10
103.9696641636
 20
-20.2454724054
 11
103.9708060843
 21
-20.0724319547
  0
LINE
  5
6EA
100
AcDbEntity
  8
RACCORDO
100
AcDbLine
 62
250
  6
CONTINUOUS
 10
103.720463307
 20
-20.0173477451
 11
103.7210565216
 21
-19.941360721
  0
LINE
  5
6EB
100
AcDbEntity
  8
RACCORDO
100
AcDbLine
 62
250
  6
CONTINUOUS
 10
110.2305418768
 20
13.119971712
 11
110.2315331002
 21
13.2363678889
  0
LINE
  5
6EC
100
AcDbEntity
  8
DRAFT
100
AcDbLine
 62
7
  6
CONTINUOUS
 10
110.2251774629
 20
3.2749964673
 11
110.218897849
 21
2.6797932811
  0
LINE
  5
6ED
100
AcDbEntity
  8
DRAFT
100
AcDbLine
 62
7
  6
CONTINUOUS
 10
110.3908111087
 20
-3.2749964673
 11
110.3970907226
 21
-2.6797932811
  0
LINE
  5
6EE
100
AcDbEntity
  8
RACCORDO
100
AcDbLine
 62
250
  6
CONTINUOUS
 10
109.9813727134
 20
13.3007181378
 11
109.9817350409
 21
13.3316321672
  0
LINE
  5
6EF
100
AcDbEntity
  8
RACCORDO
100
AcDbLine
 62
250
  6
CONTINUOUS
 10
103.9685971953
 20
-20.3351042344
 11
103.9696641636
 21
-20.2454724054
  0
LINE
  5
6F0
100
AcDbEntity
  8
RACCORDO
100
AcDbLine
 62
250
  6
CONTINUOUS
 10
103.7198209703
 20
-20.0678979243
 11
103.720463307
 21
-20.0173477451
  0
LINE
  5
6F1
100
AcDbEntity
  8
DRAFT
100
AcDbLine
 62
7
  6
CONTINUOUS
 10
110.2326796199
 20
3.8236736235
 11
110.2251774629
 21
3.2749964673
  0
LINE
  5
6F2
100
AcDbEntity
  8
DRAFT
100
AcDbLine
 62
7
  6
CONTINUOUS
 10
110.3833089517
 20
-3.8236736235
 11
110.3908111087
 21
-3.2749964673
  0
LINE
  5
6F3
100
AcDbEntity
  8
RACCORDO
100
AcDbLine
 62
250
  6
CONTINUOUS
 10
110.2294869019
 20
13.0452737108
 11
110.2305418768
 21
13.119971712
  0
LINE
  5
6F4
100
AcDbEntity
  8
RACCORDO
100
AcDbLine
 62
250
  6
CONTINUOUS
 10
103.7193095672
 20
-20.0976205413
 11
103.7198209703
 21
-20.0678979243
  0
LINE
  5
6F5
100
AcDbEntity
  8
RACCORDO
100
AcDbLine
 62
250
  6
CONTINUOUS
 10
103.9679932464
 20
-20.3703154362
 11
103.9685971953
 21
-20.3351042344
  0
LINE
  5
6F6
100
AcDbEntity
  8
RACCORDO
100
AcDbLine
 62
250
  6
CONTINUOUS
 10
109.9808742107
 20
13.2715436233
 11
109.9813727134
 21
13.3007181378
  0
LINE
  5
6F7
100
AcDbEntity
  8
DRAFT
100
AcDbLine
 62
7
  6
CONTINUOUS
 10
110.2412616246
 20
4.3154135568
 11
110.2326796199
 21
3.8236736235
  0
LINE
  5
6F8
100
AcDbEntity
  8
DRAFT
100
AcDbLine
 62
7
  6
CONTINUOUS
 10
110.374726947
 20
-4.3154135568
 11
110.3833089517
 21
-3.8236736235
  0
LINE
  5
6F9
100
AcDbEntity
  8
RACCORDO
100
AcDbLine
 62
250
  6
CONTINUOUS
 10
110.2286528549
 20
13.00249206
 11
110.2294869019
 21
13.0452737108
  0
LINE
  5
6FA
100
AcDbEntity
  8
DRAFT
100
AcDbLine
 62
7
  6
CONTINUOUS
 10
110.2475485352
 20
4.6094740391
 11
110.2412616246
 21
4.3154135568
  0
LINE
  5
6FB
100
AcDbEntity
  8
DRAFT
100
AcDbLine
 62
7
  6
CONTINUOUS
 10
110.3684400364
 20
-4.6094740391
 11
110.374726947
 21
-4.3154135568
  0
LINE
  5
6FC
100
AcDbEntity
  8
RACCORDO
100
AcDbLine
 62
250
  6
CONTINUOUS
 10
103.7187398808
 20
-20.1236360156
 11
103.7193095672
 21
-20.0976205413
  0
LINE
  5
6FD
100
AcDbEntity
  8
RACCORDO
100
AcDbLine
 62
250
  6
CONTINUOUS
 10
109.9802553768
 20
13.2446638522
 11
109.9808742107
 21
13.2715436233
  0
LINE
  5
6FE
100
AcDbEntity
  8
DRAFT
100
AcDbLine
 62
7
  6
CONTINUOUS
 10
110.2542137702
 20
4.8731433194
 11
110.2475485352
 21
4.6094740391
  0
LINE
  5
6FF
100
AcDbEntity
  8
DRAFT
100
AcDbLine
 62
7
  6
CONTINUOUS
 10
110.3617748014
 20
-4.8731433194
 11
110.3684400364
 21
-4.6094740391
  0
LINE
  5
700
100
AcDbEntity
  8
DRAFT
100
AcDbLine
 62
7
  6
CONTINUOUS
 10
110.2612250296
 20
5.1050965072
 11
110.2542137702
 21
4.8731433194
  0
LINE
  5
701
100
AcDbEntity
  8
DRAFT
100
AcDbLine
 62
7
  6
CONTINUOUS
 10
110.3547635419
 20
-5.1050965072
 11
110.3617748014
 21
-4.8731433194
  0
LWPOLYLINE
  5
702
100
AcDbEntity
  8
RACCORDO
100
AcDbPolyline
 62
250
  6
CONTINUOUS
 90
19
 70
0
 10
100.7346705709
 20
-20.1874096343
 10
100.7337131246
 20
-20.2091910388
 10
100.7308613383
 20
-20.2308067379
 10
100.7261369073
 20
-20.2520922868
 10
100.7195757736
 20
-20.2728857525
 10
100.7112278519
 20
-20.2930289454
 10
100.7011566504
 20
-20.312368623
 10
100.6894387872
 20
-20.3307576559
 10
100.6761634079
 20
-20.3480561465
 10
100.6614315068
 20
-20.364132494
 10
100.6453551594
 20
-20.378864395
 10
100.6280566688
 20
-20.3921397743
 10
100.6096676359
 20
-20.4038576375
 10
100.5903279582
 20
-20.413928839
 10
100.5701847654
 20
-20.4222767607
 10
100.5493912997
 20
-20.4288378945
 10
100.5281057508
 20
-20.4335623254
 10
100.5064900516
 20
-20.4364141118
 10
100.4847086471
 20
-20.4373715581
  0
LWPOLYLINE
  5
703
100
AcDbEntity
  8
RACCORDO
100
AcDbPolyline
 62
250
  6
CONTINUOUS
 90
19
 70
0
 10
100.770712392
 20
-20.2234514553
 10
100.7697549494
 20
-20.2452328176
 10
100.7669031735
 20
-20.2668484791
 10
100.7621787585
 20
-20.2881339956
 10
100.7556176454
 20
-20.3089274342
 10
100.7472697476
 20
-20.3290706064
 10
100.7371985714
 20
-20.3484102709
 10
100.7254807334
 20
-20.3667992983
 10
100.7122053775
 20
-20.3840977905
 10
100.6974734963
 20
-20.4001741466
 10
100.6813971633
 20
-20.4149060625
 10
100.6640986809
 20
-20.4281814616
 10
100.6457096482
 20
-20.4398993481
 10
100.626369962
 20
-20.4499705749
 10
100.6062267512
 20
-20.4583185218
 10
100.5854332581
 20
-20.4648796787
 10
100.5641476721
 20
-20.4696041288
 10
100.5425319269
 20
-20.472455928
 10
100.5207504682
 20
-20.4734133791
  0
LWPOLYLINE
  5
704
100
AcDbEntity
  8
RACCORDO
100
AcDbPolyline
 62
250
  6
CONTINUOUS
 90
8
 70
0
 10
103.9652913529
 20
-20.4373715581
 10
103.9656438928
 20
-20.4357802154
 10
103.9659927394
 20
-20.4322125196
 10
103.9663378925
 20
-20.4266781838
 10
103.9666804937
 20
-20.4191928693
 10
103.9670194015
 20
-20.4097796131
 10
103.967351191
 20
-20.3984700676
 10
103.9679932464
 20
-20.3703154362
  0
LWPOLYLINE
  5
705
100
AcDbEntity
  8
RACCORDO
100
AcDbPolyline
 62
7
  6
CONTINUOUS
 90
7
 70
0
 10
109.6910851623
 20
13.103215826
 10
109.6911309008
 20
13.1033996533
 10
109.6911767027
 20
13.103558448
 10
109.6912225679
 20
13.1036922101
 10
109.6912684965
 20
13.1038009397
 10
109.6913144884
 20
13.1038846367
 10
109.6913605437
 20
13.1039433011
  0
LWPOLYLINE
  5
706
100
AcDbEntity
  8
RACCORDO
100
AcDbPolyline
 62
250
  6
CONTINUOUS
 90
10
 70
0
 10
110.2234133791
 20
12.8957504682
 10
110.2239769353
 20
12.8973414366
 10
110.2245349825
 20
12.9010076144
 10
110.2250875207
 20
12.9067490017
 10
110.225637755
 20
12.9146143964
 10
110.2261824802
 20
12.9245550006
 10
110.2267120813
 20
12.9364244204
 10
110.2272257956
 20
12.9502693975
 10
110.2277243857
 20
12.9660431902
 10
110.2286528549
 20
13.00249206
  0
LWPOLYLINE
  5
707
100
AcDbEntity
  8
RACCORDO
100
AcDbPolyline
 62
250
  6
CONTINUOUS
 90
10
 70
0
 10
103.7153294291
 20
-20.1874096343
 10
103.7156948478
 20
-20.1864078981
 10
103.7160561686
 20
-20.1841887646
 10
103.7164133914
 20
-20.1807522338
 10
103.7167677864
 20
-20.1760775702
 10
103.7171180834
 20
-20.1701855093
 10
103.717460472
 20
-20.1631382576
 10
103.7177948504
 20
-20.1549232028
 10
103.7181213204
 20
-20.1455529572
 10
103.7187398808
 20
-20.1236360156
  0
LWPOLYLINE
  5
708
100
AcDbEntity
  8
RACCORDO
100
AcDbPolyline
 62
7
  6
CONTINUOUS
 90
9
 70
0
 10
109.6910851623
 20
16.096784174
 10
109.6902540954
 20
16.0985204933
 10
109.6883196741
 20
16.1012087652
 10
109.6852639573
 20
16.1048489895
 10
109.6810406415
 20
16.1095102259
 10
109.6756606678
 20
16.1151234148
 10
109.669270142
 20
16.1214813776
 10
109.6619464336
 20
16.1286266325
 10
109.6537581563
 20
16.1365166613
  0
CIRCLE
  5
709
100
AcDbEntity
  8
RACCORDO
100
AcDbCircle
 62
7
  6
CONTINUOUS
 10
-102.25
 20
-13.25
 40
4.75
  0
CIRCLE
  5
70A
100
AcDbEntity
  8
RACCORDO
100
AcDbCircle
 62
250
  6
CONTINUOUS
 10
-102.25
 20
-13.25
 40
4.4999997632
  0
ARC
  5
70B
100
AcDbEntity
  8
SUPERFICI
100
AcDbCircle
 62
7
  6
CONTINUOUS
 10
-107.5
 20
-17.75
 40
3.0000002144
100
AcDbArc
 50
180.0000165401
 51
269.9999818696
  0
ARC
  5
70C
100
AcDbEntity
  8
DRAFT
100
AcDbCircle
 62
7
  6
CONTINUOUS
 10
-107.5
 20
-17.75
 40
3.0
100
AcDbArc
 50
180.0
 51
270.0
  0
ARC
  5
70D
100
AcDbEntity
  8
0
100
AcDbCircle
 62
250
  6
CONTINUOUS
 10
-107.5
 20
-17.75
 40
2.6873715581
100
AcDbArc
 50
180.0
 51
270.0
  0
ARC
  5
70E
100
AcDbEntity
  8
0
100
AcDbCircle
 62
7
  6
CONTINUOUS
 10
-107.5
 20
-17.75
 40
2.2375620037
100
AcDbArc
 50
180.0
 51
270.0
  0
ARC
  5
70F
100
AcDbEntity
  8
DRAFT
100
AcDbCircle
 62
7
  6
CONTINUOUS
 10
-107.5
 20
-17.75
 40
2.1
100
AcDbArc
 50
180.0
 51
270.0
  0
CIRCLE
  5
710
100
AcDbEntity
  8
0
100
AcDbCircle
 62
7
  6
CONTINUOUS
 10
-102.25
 20
-13.25
 40
1.0
  0
CIRCLE
  5
711
100
AcDbEntity
  8
0
100
AcDbCircle
 62
7
  6
CONTINUOUS
 10
-102.25
 20
-13.25
 40
0.9
  0
ARC
  5
712
100
AcDbEntity
  8
DRAFT
100
AcDbCircle
 62
7
  6
CONTINUOUS
 10
-107.5
 20
-17.75
 40
0.8878950129
100
AcDbArc
 50
0.0
 51
90.0
  0
CIRCLE
  5
713
100
AcDbEntity
  8
0
100
AcDbCircle
 62
7
  6
CONTINUOUS
 10
-102.25
 20
-13.25
 40
0.75
  0
ARC
  5
714
100
AcDbEntity
  8
DRAFT
100
AcDbCircle
 62
7
  6
CONTINUOUS
 10
-107.5
 20
-17.75
 40
0.75
100
AcDbArc
 50
0.0
 51
90.0
  0
CIRCLE
  5
715
100
AcDbEntity
  8
RACCORDO
100
AcDbCircle
 62
250
  6
CONTINUOUS
 10
-93.5
 20
0.0
 40
5.9039325766
  0
CIRCLE
  5
716
100
AcDbEntity
  8
RACCORDO
100
AcDbCircle
 62
7
  6
CONTINUOUS
 10
-93.5
 20
0.0
 40
5.7539385138
  0
CIRCLE
  5
717
100
AcDbEntity
  8
DRAFT
100
AcDbCircle
 62
7
  6
CONTINUOUS
 10
-93.5
 20
0.0
 40
5.75
  0
CIRCLE
  5
718
100
AcDbEntity
  8
0
100
AcDbCircle
 62
7
  6
CONTINUOUS
 10
-93.5
 20
0.0
 40
5.625
  0
CIRCLE
  5
719
100
AcDbEntity
  8
RACCORDO
100
AcDbCircle
 62
250
  6
CONTINUOUS
 10
-93.5
 20
0.0
 40
5.3189337736
  0
CIRCLE
  5
71A
100
AcDbEntity
  8
RACCORDO
100
AcDbCircle
 62
250
  6
CONTINUOUS
 10
-93.5
 20
0.0
 40
5.2128675644
  0
CIRCLE
  5
71B
100
AcDbEntity
  8
RACCORDO
100
AcDbCircle
 62
7
  6
CONTINUOUS
 10
-82.15
 20
0.0
 40
2.4
  0
CIRCLE
  5
71C
100
AcDbEntity
  8
RACCORDO
100
AcDbCircle
 62
250
  6
CONTINUOUS
 10
-82.15
 20
0.0
 40
2.1499994332
  0
CIRCLE
  5
71D
100
AcDbEntity
  8
RACCORDO
100
AcDbCircle
 62
7
  6
CONTINUOUS
 10
-102.25
 20
13.25
 40
4.75
  0
CIRCLE
  5
71E
100
AcDbEntity
  8
RACCORDO
100
AcDbCircle
 62
250
  6
CONTINUOUS
 10
-102.25
 20
13.25
 40
4.4999997632
  0
ARC
  5
71F
100
AcDbEntity
  8
SUPERFICI
100
AcDbCircle
 62
7
  6
CONTINUOUS
 10
-107.5
 20
17.75
 40
3.0000002144
100
AcDbArc
 50
90.0000192217
 51
179.9999834907
  0
ARC
  5
720
100
AcDbEntity
  8
DRAFT
100
AcDbCircle
 62
7
  6
CONTINUOUS
 10
-107.5
 20
17.75
 40
3.0
100
AcDbArc
 50
90.0
 51
180.0
  0
ARC
  5
721
100
AcDbEntity
  8
0
100
AcDbCircle
 62
250
  6
CONTINUOUS
 10
-107.5
 20
17.75
 40
2.6873715581
100
AcDbArc
 50
90.0
 51
180.0
  0
ARC
  5
722
100
AcDbEntity
  8
0
100
AcDbCircle
 62
7
  6
CONTINUOUS
 10
-107.5
 20
17.75
 40
2.2375620037
100
AcDbArc
 50
90.0
 51
180.0
  0
ARC
  5
723
100
AcDbEntity
  8
DRAFT
100
AcDbCircle
 62
7
  6
CONTINUOUS
 10
-107.5
 20
17.75
 40
2.1
100
AcDbArc
 50
90.0
 51
180.0
  0
CIRCLE
  5
724
100
AcDbEntity
  8
0
100
AcDbCircle
 62
7
  6
CONTINUOUS
 10
-102.25
 20
13.25
 40
1.0
  0
CIRCLE
  5
725
100
AcDbEntity
  8
0
100
AcDbCircle
 62
7
  6
CONTINUOUS
 10
-102.25
 20
13.25
 40
0.9
  0
ARC
  5
726
100
AcDbEntity
  8
DRAFT
100
AcDbCircle
 62
7
  6
CONTINUOUS
 10
-107.5
 20
17.75
 40
0.8878950129
100
AcDbArc
 50
270.0
 51
360.0
  0
CIRCLE
  5
727
100
AcDbEntity
  8
0
100
AcDbCircle
 62
7
  6
CONTINUOUS
 10
-102.25
 20
13.25
 40
0.75
  0
ARC
  5
728
100
AcDbEntity
  8
DRAFT
100
AcDbCircle
 62
7
  6
CONTINUOUS
 10
-107.5
 20
17.75
 40
0.75
100
AcDbArc
 50
270.0
 51
360.0
  0
CIRCLE
  5
729
100
AcDbEntity
  8
RACCORDO
100
AcDbCircle
 62
250
  6
CONTINUOUS
 10
-34.0
 20
0.0
 40
5.9039325766
  0
CIRCLE
  5
72A
100
AcDbEntity
  8
RACCORDO
100
AcDbCircle
 62
7
  6
CONTINUOUS
 10
-34.0
 20
0.0
 40
5.7539385138
  0
CIRCLE
  5
72B
100
AcDbEntity
  8
DRAFT
100
AcDbCircle
 62
7
  6
CONTINUOUS
 10
-34.0
 20
0.0
 40
5.75
  0
CIRCLE
  5
72C
100
AcDbEntity
  8
ASSI
100
AcDbCircle
 62
7
  6
CONTINUOUS
 10
-34.0
 20
0.0
 40
5.625
  0
CIRCLE
  5
72D
100
AcDbEntity
  8
RACCORDO
100
AcDbCircle
 62
250
  6
CONTINUOUS
 10
-34.0
 20
0.0
 40
5.3189337736
  0
CIRCLE
  5
72E
100
AcDbEntity
  8
RACCORDO
100
AcDbCircle
 62
250
  6
CONTINUOUS
 10
-34.0
 20
0.0
 40
5.2128675644
  0
ARC
  5
72F
100
AcDbEntity
  8
DRAFT
100
AcDbCircle
 62
7
  6
CONTINUOUS
 10
-9.75
 20
17.75
 40
0.8378950129
100
AcDbArc
 50
180.0
 51
360.0
  0
ARC
  5
730
100
AcDbEntity
  8
DRAFT
100
AcDbCircle
 62
7
  6
CONTINUOUS
 10
-9.75
 20
17.75
 40
0.7
100
AcDbArc
 50
180.0
 51
360.0
  0
CIRCLE
  5
731
100
AcDbEntity
  8
RACCORDO
100
AcDbCircle
 62
7
  6
CONTINUOUS
 10
102.25
 20
-13.25
 40
4.75
  0
CIRCLE
  5
732
100
AcDbEntity
  8
RACCORDO
100
AcDbCircle
 62
250
  6
CONTINUOUS
 10
102.25
 20
-13.25
 40
4.4999997632
  0
ARC
  5
733
100
AcDbEntity
  8
SUPERFICI
100
AcDbCircle
 62
7
  6
CONTINUOUS
 10
107.5
 20
-17.75
 40
3.0000002144
100
AcDbArc
 50
270.0000181304
 51
359.9999834599
  0
ARC
  5
734
100
AcDbEntity
  8
DRAFT
100
AcDbCircle
 62
7
  6
CONTINUOUS
 10
107.5
 20
-17.75
 40
3.0
100
AcDbArc
 50
270.0
 51
360.0
  0
ARC
  5
735
100
AcDbEntity
  8
0
100
AcDbCircle
 62
250
  6
CONTINUOUS
 10
107.5
 20
-17.75
 40
2.6873715581
100
AcDbArc
 50
270.0
 51
360.0
  0
ARC
  5
736
100
AcDbEntity
  8
0
100
AcDbCircle
 62
7
  6
CONTINUOUS
 10
107.5
 20
-17.75
 40
2.2375620037
100
AcDbArc
 50
270.0
 51
360.0
  0
ARC
  5
737
100
AcDbEntity
  8
DRAFT
100
AcDbCircle
 62
7
  6
CONTINUOUS
 10
107.5
 20
-17.75
 40
2.1
100
AcDbArc
 50
270.0
 51
360.0
  0
CIRCLE
  5
738
100
AcDbEntity
  8
0
100
AcDbCircle
 62
7
  6
CONTINUOUS
 10
102.25
 20
-13.25
 40
1.0
  0
CIRCLE
  5
739
100
AcDbEntity
  8
0
100
AcDbCircle
 62
7
  6
CONTINUOUS
 10
102.25
 20
-13.25
 40
0.9
  0
ARC
  5
73A
100
AcDbEntity
  8
DRAFT
100
AcDbCircle
 62
7
  6
CONTINUOUS
 10
107.5
 20
-17.75
 40
0.8878950129
100
AcDbArc
 50
90.0
 51
180.0
  0
ARC
  5
73B
100
AcDbEntity
  8
DRAFT
100
AcDbCircle
 62
7
  6
CONTINUOUS
 10
9.75
 20
-17.75
 40
0.8378950129
100
AcDbArc
 50
0.0
 51
180.0
  0
CIRCLE
  5
73C
100
AcDbEntity
  8
0
100
AcDbCircle
 62
7
  6
CONTINUOUS
 10
102.25
 20
-13.25
 40
0.75
  0
ARC
  5
73D
100
AcDbEntity
  8
DRAFT
100
AcDbCircle
 62
7
  6
CONTINUOUS
 10
107.5
 20
-17.75
 40
0.75
100
AcDbArc
 50
90.0
 51
180.0
  0
ARC
  5
73E
100
AcDbEntity
  8
DRAFT
100
AcDbCircle
 62
7
  6
CONTINUOUS
 10
9.75
 20
-17.75
 40
0.7
100
AcDbArc
 50
0.0
 51
180.0
  0
CIRCLE
  5
73F
100
AcDbEntity
  8
RACCORDO
100
AcDbCircle
 62
250
  6
CONTINUOUS
 10
-0.0
 20
0.0
 40
5.9039325766
  0
CIRCLE
  5
740
100
AcDbEntity
  8
0
100
AcDbCircle
 62
250
  6
CONTINUOUS
 10
34.0
 20
0.0
 40
5.9039325766
  0
CIRCLE
  5
741
100
AcDbEntity
  8
0
100
AcDbCircle
 62
7
  6
CONTINUOUS
 10
34.0
 20
0.0
 40
5.7539385138
  0
CIRCLE
  5
742
100
AcDbEntity
  8
RACCORDO
100
AcDbCircle
 62
7
  6
CONTINUOUS
 10
-0.0
 20
0.0
 40
5.7539385138
  0
ARC
  5
743
100
AcDbEntity
  8
0
100
AcDbCircle
 62
7
  6
CONTINUOUS
 10
-0.0
 20
0.0
 40
5.7530544037
100
AcDbArc
 50
356.2626528724
 51
3.7373471276
  0
ARC
  5
744
100
AcDbEntity
  8
0
100
AcDbCircle
 62
7
  6
CONTINUOUS
 10
-0.0
 20
0.0
 40
5.7530544037
100
AcDbArc
 50
86.2626528724
 51
93.7373471276
  0
ARC
  5
745
100
AcDbEntity
  8
0
100
AcDbCircle
 62
7
  6
CONTINUOUS
 10
-0.0
 20
0.0
 40
5.7530544037
100
AcDbArc
 50
176.2626528724
 51
183.7373471276
  0
ARC
  5
746
100
AcDbEntity
  8
0
100
AcDbCircle
 62
7
  6
CONTINUOUS
 10
-0.0
 20
0.0
 40
5.7530544037
100
AcDbArc
 50
266.2626528724
 51
273.7373471276
  0
CIRCLE
  5
747
100
AcDbEntity
  8
0
100
AcDbCircle
 62
7
  6
CONTINUOUS
 10
34.0
 20
0.0
 40
5.75
  0
ARC
  5
748
100
AcDbEntity
  8
0
100
AcDbCircle
 62
7
  6
CONTINUOUS
 10
-0.0
 20
0.0
 40
5.75
100
AcDbArc
 50
3.7393352315
 51
86.2606647685
  0
ARC
  5
749
100
AcDbEntity
  8
0
100
AcDbCircle
 62
7
  6
CONTINUOUS
 10
-0.0
 20
0.0
 40
5.75
100
AcDbArc
 50
93.7393352315
 51
176.2606647685
  0
ARC
  5
74A
100
AcDbEntity
  8
0
100
AcDbCircle
 62
7
  6
CONTINUOUS
 10
-0.0
 20
0.0
 40
5.75
100
AcDbArc
 50
273.7393352315
 51
356.2606647685
  0
ARC
  5
74B
100
AcDbEntity
  8
0
100
AcDbCircle
 62
7
  6
CONTINUOUS
 10
-0.0
 20
0.0
 40
5.75
100
AcDbArc
 50
183.7393352315
 51
266.2606647685
  0
CIRCLE
  5
74C
100
AcDbEntity
  8
0
100
AcDbCircle
 62
7
  6
CONTINUOUS
 10
34.0
 20
0.0
 40
5.625
  0
ARC
  5
74D
100
AcDbEntity
  8
0
100
AcDbCircle
 62
7
  6
CONTINUOUS
 10
-0.0
 20
0.0
 40
5.625
100
AcDbArc
 50
273.8225537293
 51
356.1774462707
  0
ARC
  5
74E
100
AcDbEntity
  8
0
100
AcDbCircle
 62
7
  6
CONTINUOUS
 10
-0.0
 20
0.0
 40
5.625
100
AcDbArc
 50
183.8225537293
 51
266.1774462707
  0
ARC
  5
74F
100
AcDbEntity
  8
0
100
AcDbCircle
 62
7
  6
CONTINUOUS
 10
-0.0
 20
0.0
 40
5.625
100
AcDbArc
 50
3.8225537293
 51
86.1774462707
  0
ARC
  5
750
100
AcDbEntity
  8
0
100
AcDbCircle
 62
7
  6
CONTINUOUS
 10
-0.0
 20
0.0
 40
5.625
100
AcDbArc
 50
93.8225537293
 51
176.1774462707
  0
ARC
  5
751
100
AcDbEntity
  8
0
100
AcDbCircle
 62
250
  6
CONTINUOUS
 10
-0.0
 20
0.0
 40
5.3189339828
100
AcDbArc
 50
274.0428697094
 51
355.9571302906
  0
ARC
  5
752
100
AcDbEntity
  8
0
100
AcDbCircle
 62
250
  6
CONTINUOUS
 10
-0.0
 20
0.0
 40
5.3189339828
100
AcDbArc
 50
184.0428697094
 51
265.9571302906
  0
ARC
  5
753
100
AcDbEntity
  8
0
100
AcDbCircle
 62
250
  6
CONTINUOUS
 10
-0.0
 20
0.0
 40
5.3189339828
100
AcDbArc
 50
4.0428697094
 51
85.9571302906
  0
ARC
  5
754
100
AcDbEntity
  8
0
100
AcDbCircle
 62
250
  6
CONTINUOUS
 10
-0.0
 20
0.0
 40
5.3189339828
100
AcDbArc
 50
94.0428697094
 51
175.9571302906
  0
CIRCLE
  5
755
100
AcDbEntity
  8
0
100
AcDbCircle
 62
250
  6
CONTINUOUS
 10
34.0
 20
0.0
 40
5.3189337736
  0
ARC
  5
756
100
AcDbEntity
  8
0
100
AcDbCircle
 62
250
  6
CONTINUOUS
 10
-0.0
 20
0.0
 40
5.2128679656
100
AcDbArc
 50
4.1252708293
 51
85.8747291707
  0
ARC
  5
757
100
AcDbEntity
  8
0
100
AcDbCircle
 62
250
  6
CONTINUOUS
 10
-0.0
 20
0.0
 40
5.2128679656
100
AcDbArc
 50
94.1252708293
 51
175.8747291707
  0
ARC
  5
758
100
AcDbEntity
  8
0
100
AcDbCircle
 62
250
  6
CONTINUOUS
 10
-0.0
 20
0.0
 40
5.2128679656
100
AcDbArc
 50
184.1252708293
 51
265.8747291707
  0
ARC
  5
759
100
AcDbEntity
  8
0
100
AcDbCircle
 62
250
  6
CONTINUOUS
 10
-0.0
 20
0.0
 40
5.2128679656
100
AcDbArc
 50
274.1252708293
 51
355.8747291707
  0
CIRCLE
  5
75A
100
AcDbEntity
  8
0
100
AcDbCircle
 62
250
  6
CONTINUOUS
 10
34.0
 20
0.0
 40
5.2128675644
  0
CIRCLE
  5
75B
100
AcDbEntity
  8
0
100
AcDbCircle
 62
250
  6
CONTINUOUS
 10
93.5
 20
0.0
 40
5.9039325766
  0
CIRCLE
  5
75C
100
AcDbEntity
  8
0
100
AcDbCircle
 62
7
  6
CONTINUOUS
 10
93.5
 20
0.0
 40
5.7539385138
  0
CIRCLE
  5
75D
100
AcDbEntity
  8
0
100
AcDbCircle
 62
7
  6
CONTINUOUS
 10
93.5
 20
0.0
 40
5.75
  0
CIRCLE
  5
75E
100
AcDbEntity
  8
0
100
AcDbCircle
 62
7
  6
CONTINUOUS
 10
93.5
 20
0.0
 40
5.625
  0
CIRCLE
  5
75F
100
AcDbEntity
  8
0
100
AcDbCircle
 62
250
  6
CONTINUOUS
 10
93.5
 20
0.0
 40
5.3189337736
  0
CIRCLE
  5
760
100
AcDbEntity
  8
0
100
AcDbCircle
 62
250
  6
CONTINUOUS
 10
93.5
 20
0.0
 40
5.2128675644
  0
CIRCLE
  5
761
100
AcDbEntity
  8
RACCORDO
100
AcDbCircle
 62
7
  6
CONTINUOUS
 10
82.15
 20
0.0
 40
2.4
  0
CIRCLE
  5
762
100
AcDbEntity
  8
RACCORDO
100
AcDbCircle
 62
250
  6
CONTINUOUS
 10
82.15
 20
0.0
 40
2.1499994332
  0
CIRCLE
  5
763
100
AcDbEntity
  8
RACCORDO
100
AcDbCircle
 62
7
  6
CONTINUOUS
 10
102.25
 20
13.25
 40
4.75
  0
CIRCLE
  5
764
100
AcDbEntity
  8
RACCORDO
100
AcDbCircle
 62
250
  6
CONTINUOUS
 10
102.25
 20
13.25
 40
4.4999997632
  0
ARC
  5
765
100
AcDbEntity
  8
SUPERFICI
100
AcDbCircle
 62
7
  6
CONTINUOUS
 10
107.5
 20
17.75
 40
3.0000002144
100
AcDbArc
 50
0.0000165093
 51
89.9999807783
  0
ARC
  5
766
100
AcDbEntity
  8
DRAFT
100
AcDbCircle
 62
7
  6
CONTINUOUS
 10
107.5
 20
17.75
 40
3.0
100
AcDbArc
 50
0.0
 51
90.0
  0
ARC
  5
767
100
AcDbEntity
  8
0
100
AcDbCircle
 62
250
  6
CONTINUOUS
 10
107.5
 20
17.75
 40
2.6873715581
100
AcDbArc
 50
0.0
 51
90.0
  0
ARC
  5
768
100
AcDbEntity
  8
0
100
AcDbCircle
 62
7
  6
CONTINUOUS
 10
107.5
 20
17.75
 40
2.2375620037
100
AcDbArc
 50
0.0
 51
90.0
  0
ARC
  5
769
100
AcDbEntity
  8
DRAFT
100
AcDbCircle
 62
7
  6
CONTINUOUS
 10
107.5
 20
17.75
 40
2.1
100
AcDbArc
 50
0.0
 51
90.0
  0
CIRCLE
  5
76A
100
AcDbEntity
  8
0
100
AcDbCircle
 62
7
  6
CONTINUOUS
 10
102.25
 20
13.25
 40
1.0
  0
CIRCLE
  5
76B
100
AcDbEntity
  8
0
100
AcDbCircle
 62
7
  6
CONTINUOUS
 10
102.25
 20
13.25
 40
0.9
  0
ARC
  5
76C
100
AcDbEntity
  8
DRAFT
100
AcDbCircle
 62
7
  6
CONTINUOUS
 10
107.5
 20
17.75
 40
0.8878950129
100
AcDbArc
 50
180.0
 51
270.0
  0
CIRCLE
  5
76D
100
AcDbEntity
  8
0
100
AcDbCircle
 62
7
  6
CONTINUOUS
 10
102.25
 20
13.25
 40
0.75
  0
ARC
  5
76E
100
AcDbEntity
  8
DRAFT
100
AcDbCircle
 62
7
  6
CONTINUOUS
 10
107.5
 20
17.75
 40
0.75
100
AcDbArc
 50
180.0
 51
270.0
  0
ELLIPSE
  5
76F
100
AcDbEntity
  8
RACCORDO
100
AcDbEllipse
 62
7
  6
CONTINUOUS
 10
101.0206743158
 20
-19.9830534763
 30
0.0
 11
0.25
 21
-0.0
 31
0.0
 40
0.0174550649
 41
-3.1241393611
 42
-1.5707963268
  0
ELLIPSE
  5
770
100
AcDbEntity
  8
RACCORDO
100
AcDbEllipse
 62
7
  6
CONTINUOUS
 10
103.4293256842
 20
-19.9830534763
 30
0.0
 11
0.25
 21
-0.0
 31
0.0
 40
0.0174550649
 41
-1.5707963268
 42
-0.0174532925
  0
ELLIPSE
  5
771
100
AcDbEntity
  8
RACCORDO
100
AcDbEllipse
 62
7
  6
CONTINUOUS
 10
-101.0206743158
 20
19.9830534763
 30
0.0
 11
0.25
 21
0.0
 31
0.0
 40
0.0174550649
 41
0.0174532925
 42
1.5707963268
  0
ELLIPSE
  5
772
100
AcDbEntity
  8
RACCORDO
100
AcDbEllipse
 62
7
  6
CONTINUOUS
 10
-103.4293256842
 20
19.9830534763
 30
0.0
 11
0.25
 21
-0.0
 31
0.0
 40
0.0174550649
 41
1.5707963268
 42
3.1241393611
  0
ELLIPSE
  5
773
100
AcDbEntity
  8
RACCORDO
100
AcDbEllipse
 62
7
  6
CONTINUOUS
 10
-109.7330534763
 20
-13.3956743158
 30
0.0
 11
0.0
 21
0.25
 31
0.0
 40
0.0174550649
 41
0.0174532925
 42
1.5707963268
  0
ELLIPSE
  5
774
100
AcDbEntity
  8
RACCORDO
100
AcDbEllipse
 62
7
  6
CONTINUOUS
 10
-109.7330534763
 20
-15.8043256842
 30
0.0
 11
-0.0
 21
0.25
 31
0.0
 40
0.0174550649
 41
-4.7123889804
 42
-3.1590459461
  0
ELLIPSE
  5
775
100
AcDbEntity
  8
RACCORDO
100
AcDbEllipse
 62
7
  6
CONTINUOUS
 10
109.7330534763
 20
13.3956743158
 30
0.0
 11
-0.0
 21
0.25
 31
0.0
 40
0.0174550649
 41
-3.1241393611
 42
-1.5707963268
  0
ELLIPSE
  5
776
100
AcDbEntity
  8
RACCORDO
100
AcDbEllipse
 62
7
  6
CONTINUOUS
 10
109.7330534763
 20
15.8043256842
 30
0.0
 11
-0.0
 21
0.25
 31
0.0
 40
0.0174550649
 41
-1.5707963268
 42
-0.0174532925
  0
ELLIPSE
  5
777
100
AcDbEntity
  8
0
100
AcDbEllipse
 62
7
  6
CONTINUOUS
 10
-8.922578026
 20
19.837462941
 30
0.0
 11
0.0
 21
0.6
 31
0.0
 40
0.0174550649
 41
-1.5707963268
 42
-1.3179455486
  0
ELLIPSE
  5
778
100
AcDbEntity
  8
0
100
AcDbEllipse
 62
7
  6
CONTINUOUS
 10
-10.577421974
 20
19.837462941
 30
0.0
 11
0.0
 21
0.6
 31
0.0
 40
0.0174550649
 41
1.3179455486
 42
1.5707963268
  0
ELLIPSE
  5
779
100
AcDbEntity
  8
0
100
AcDbEllipse
 62
7
  6
CONTINUOUS
 10
8.922578026
 20
-19.837462941
 30
0.0
 11
0.0
 21
0.6
 31
0.0
 40
0.0174550649
 41
-4.7123889804
 42
-4.4595382022
  0
ELLIPSE
  5
77A
100
AcDbEntity
  8
0
100
AcDbEllipse
 62
7
  6
CONTINUOUS
 10
10.577421974
 20
-19.837462941
 30
0.0
 11
-0.0
 21
0.6
 31
0.0
 40
0.0174550649
 41
-1.823647105
 42
-1.5707963268
  0
ELLIPSE
  5
77B
100
AcDbEntity
  8
0
100
AcDbEllipse
 62
7
  6
CONTINUOUS
 10
106.622578026
 20
-19.837462941
 30
0.0
 11
-0.0
 21
0.6
 31
0.0
 40
0.0174550649
 41
-4.7123889804
 42
-4.4595382022
  0
ELLIPSE
  5
77C
100
AcDbEntity
  8
0
100
AcDbEllipse
 62
7
  6
CONTINUOUS
 10
109.587462941
 20
-16.872578026
 30
0.0
 11
0.6
 21
-0.0
 31
0.0
 40
0.0174550649
 41
1.3179455486
 42
1.5707963268
  0
ELLIPSE
  5
77D
100
AcDbEntity
  8
0
100
AcDbEllipse
 62
7
  6
CONTINUOUS
 10
109.587462941
 20
16.872578026
 30
0.0
 11
0.6
 21
0.0
 31
0.0
 40
0.0174550649
 41
-1.5707963268
 42
-1.3179455486
  0
ELLIPSE
  5
77E
100
AcDbEntity
  8
0
100
AcDbEllipse
 62
7
  6
CONTINUOUS
 10
106.622578026
 20
19.837462941
 30
0.0
 11
-0.0
 21
0.6
 31
0.0
 40
0.0174550649
 41
1.3179455486
 42
1.5707963268
  0
ELLIPSE
  5
77F
100
AcDbEntity
  8
0
100
AcDbEllipse
 62
7
  6
CONTINUOUS
 10
-109.587462941
 20
-16.872578026
 30
0.0
 11
0.6
 21
-0.0
 31
0.0
 40
0.0174550649
 41
1.5707963268
 42
1.823647105
  0
ELLIPSE
  5
780
100
AcDbEntity
  8
0
100
AcDbEllipse
 62
7
  6
CONTINUOUS
 10
-106.622578026
 20
-19.837462941
 30
0.0
 11
0.0
 21
0.6
 31
0.0
 40
0.0174550649
 41
-1.823647105
 42
-1.5707963268
  0
ELLIPSE
  5
781
100
AcDbEntity
  8
0
100
AcDbEllipse
 62
7
  6
CONTINUOUS
 10
-106.622578026
 20
19.837462941
 30
0.0
 11
-0.0
 21
0.6
 31
0.0
 40
0.0174550649
 41
-1.5707963268
 42
-1.3179455486
  0
ELLIPSE
  5
782
100
AcDbEntity
  8
0
100
AcDbEllipse
 62
7
  6
CONTINUOUS
 10
-109.587462941
 20
16.872578026
 30
0.0
 11
0.6
 21
0.0
 31
0.0
 40
0.0174550649
 41
-1.823647105
 42
-1.5707963268
  0
ENDSEC
  0
SECTION
  2
OBJECTS
  0
DICTIONARY
  5
C
100
AcDbDictionary
280
0
281
1
  3
ACAD_GROUP
350
D
  3
ACAD_MLINESTYLE
350
17
  3
ACAD_LAYOUT
350
1A
  3
ACAD_PLOTSETTINGS
350
19
  3
ACAD_PLOTSTYLENAME
350
E
  0
DICTIONARY
  5
D
102
{ACAD_REACTORS
330
C
102
}
100
AcDbDictionary
280
0
281
1
  0
ACDBDICTIONARYWDFLT
  5
E
102
{ACAD_REACTORS
330
C
102
}
100
AcDbDictionary
281
1
  3
Normal
350
F
100
AcDbDictionaryWithDefault
340
F
  0
DICTIONARY
  5
17
102
{ACAD_REACTORS
330
C
102
}
100
AcDbDictionary
280
0
281
1
  3
Standard
350
18
  0
DICTIONARY
  5
19
102
{ACAD_REACTORS
330
C
102
}
100
AcDbDictionary
281
1
  0
DICTIONARY
  5
1A
102
{ACAD_REACTORS
330
C
102
}
100
AcDbDictionary
281
1
  3
Model
350
783
  3
Layout1
350
784
  0
ACDBPLACEHOLDER
  5
F
102
{ACAD_REACTORS
330
E
102
}
  0
MLINESTYLE
  5
18
102
{ACAD_REACTORS
330
17
102
}
100
AcDbMlineStyle
  2
STANDARD
 70
0
  3

 62
256
 51
90.0
 52
90.0
 71
2
 49
0.5
 62
256
  6
BYLAYER
 49
-0.5
 62
256
  6
BYLAYER
  0
LAYOUT
  5
783
102
{ACAD_REACTORS
330
1A
102
}
100
AcDbPlotSettings
  1

  2
none_device
  4
ISO_A4_(297.00_x_210.00_MM)
  6

 40
0.0
 41
0.0
 42
0.0
 43
0.0
 44
297.0
 45
210.0
 46
0.0
 47
0.0
 48
0.0
 49
0.0
140
0.0
141
0.0
142
1.0
143
1.0
 70
1024
 72
1
 73
0
 74
0
  7

 75
0
147
1.0
148
0.0
149
0.0
100
AcDbLayout
  1
Model
 70
0
 71
0
 10
0.0
 20
0.0
 11
297.0
 21
210.0
 12
0.0
 22
0.0
 32
0.0
 14
0.0
 24
0.0
 34
0.0
 15
0.0
 25
0.0
 35
0.0
146
0.0
 13
0.0
 23
0.0
 33
0.0
 16
1.0
 26
0.0
 36
0.0
 17
0.0
 27
1.0
 37
0.0
 76
0
330
219
345
0
346
0
  0
LAYOUT
  5
784
102
{ACAD_REACTORS
330
1A
102
}
100
AcDbPlotSettings
  1

  2
none_device
  4
ISO_A4_(297.00_x_210.00_MM)
  6

 40
0.0
 41
0.0
 42
0.0
 43
0.0
 44
297.0
 45
210.0
 46
0.0
 47
0.0
 48
0.0
 49
0.0
140
0.0
141
0.0
142
1.0
143
1.0
 70
0
 72
1
 73
0
 74
0
  7

 75
0
147
1.0
148
0.0
149
0.0
100
AcDbLayout
  1
Layout1
 70
0
 71
1
 10
0.0
 20
0.0
 11
297.0
 21
210.0
 12
0.0
 22
0.0
 32
0.0
 14
0.0
 24
0.0
 34
0.0
 15
0.0
 25
0.0
 35
0.0
146
0.0
 13
0.0
 23
0.0
 33
0.0
 16
1.0
 26
0.0
 36
0.0
 17
0.0
 27
1.0
 37
0.0
 76
0
330
21A
345
0
346
0
  0
ENDSEC
  0
EOF
