  0
SECTION
  2
HEADER
  9
$ACADVER
  1
AC1024
  9
$DWGCODEPAGE
  3
ANSI_1252
  9
$EXTMAX
 10
297.0
 20
210.0
 30
0.0
  9
$EXTMIN
 10
0.0
 20
0.0
 30
0.0
  9
$LIMMIN
 10
0.0
 20
0.0
  9
$LIMMAX
 10
297.0
 20
210.0
  9
$VIEWCTR
 10
148.5
 20
105.0
  9
$VIEWSIZE
 40
210.0
  9
$CLAYER
  8
0
  9
$LTSCALE
 40
16.335
  9
$CELTYPE
  6
BYLAYER
  9
$DIMSCALE
 40
1.0
  9
$DIMASZ
 40
3.0
  9
$DIMEXO
 40
0.5
  9
$DIMDLI
 40
11.286
  9
$DIMEXE
 40
1.5
  9
$DIMCEN
 40
2.673
  9
$DIMLFAC
 40
1.0
  9
$DIMBLK
  1
_FILLED
  9
$DIMALT
 70
0
  9
$DIMALTF
 40
0.0393700787
  9
$DIMTXT
 40
3.0
  9
$DIMTOL
 70
1
  9
$DIMLIM
 70
0
  9
$DIMTFAC
 40
1.0
  9
$DIMTP
 40
0.01
  9
$DIMTM
 40
0.01
  9
$DIMGAP
 40
0.625
  9
$DIMDSEP
 70
44
  9
$AUNITS
 70
0
  9
$PDMODE
 70
3
  9
$PDSIZE
 40
3.0
  9
$HANDSEED
  5
618
  9
$TILEMODE
 70
1
  9
$MEASUREMENT
 70
1
  9
$INSUNITS
 70
4
  0
ENDSEC
  0
SECTION
  2
CLASSES
  0
CLASS
  1
ACDBDICTIONARYWDFLT
  2
AcDbDictionaryWithDefault
  3
AutoCAD 2000
 90
0
 91
1
280
0
281
0
  0
CLASS
  1
ACDBPLACEHOLDER
  2
AcDbPlaceHolder
  3
AutoCAD 2000
 90
0
 91
1
280
0
281
0
  0
CLASS
  1
LAYOUT
  2
AcDbLayout
  3
AutoCAD 2000
 90
0
 91
0
280
0
281
0
  0
ENDSEC
  0
SECTION
  2
TABLES
  0
TABLE
  2
VPORT
  5
8
100
AcDbSymbolTable
 70
2
  0
VPORT
  5
1F4
100
AcDbSymbolTableRecord
100
AcDbViewportTableRecord
  2
*ACTIVE
 70
0
 10
0.0
 20
0.0
 11
1.0
 21
1.0
 12
148.5
 22
105.0
 13
0.0
 23
0.0
 14
1.0
 24
1.0
 15
0.0
 25
0.0
 16
0.0
 26
0.0
 36
1.0
 17
0.0
 27
0.0
 37
0.0
 40
210.0
 41
1.4142857143
 42
50.0
 43
0.0
 44
0.0
 50
0.0
 51
0.0
 71
0
 72
100
 73
1
 74
1
 75
0
 76
0
 77
0
 78
0
  0
ENDTAB
  0
TABLE
  2
LTYPE
  5
5
100
AcDbSymbolTable
 70
6
  0
LTYPE
  5
14
100
AcDbSymbolTableRecord
100
AcDbLinetypeTableRecord
  2
BYBLOCK
 70
0
  3

 72
65
 73
0
 40
0.0
  0
LTYPE
  5
15
100
AcDbSymbolTableRecord
100
AcDbLinetypeTableRecord
  2
BYLAYER
 70
0
  3

 72
65
 73
0
 40
0.0
  0
LTYPE
  5
16
100
AcDbSymbolTableRecord
100
AcDbLinetypeTableRecord
  2
CONTINUOUS
 70
64
  3
Solid line
 72
65
 73
0
 40
0.0
  0
LTYPE
  5
1F5
100
AcDbSymbolTableRecord
100
AcDbLinetypeTableRecord
  2
CENTER
 70
64
  3
____ _ ____ _ ____ _ ____ _ ____ _ ____ _ ____
 72
65
 73
4
 40
0.6
 49
0.375
 74
0
 49
-0.075
 74
0
 49
0.075
 74
0
 49
-0.075
 74
0
  0
LTYPE
  5
1F6
100
AcDbSymbolTableRecord
100
AcDbLinetypeTableRecord
  2
HIDDEN
 70
64
  3
- - - - - - - - - - - - - - - - - - - -
 72
65
 73
2
 40
0.2
 49
0.1
 74
0
 49
-0.1
 74
0
  0
LTYPE
  5
1F7
100
AcDbSymbolTableRecord
100
AcDbLinetypeTableRecord
  2
PHANTOM
 70
64
  3
_____ _ _ _____ _ _ _____ _ _ _____
 72
65
 73
6
 40
0.8
 49
0.45
 74
0
 49
-0.05
 74
0
 49
0.1
 74
0
 49
-0.05
 74
0
 49
0.1
 74
0
 49
-0.05
 74
0
  0
LTYPE
  5
1F8
100
AcDbSymbolTableRecord
100
AcDbLinetypeTableRecord
  2
DOT
 70
64
  3
. . . . . . . . . . . . . . . . . . . .
 72
65
 73
2
 40
0.2
 49
0.1
 74
0
 49
-0.1
 74
0
  0
LTYPE
  5
1F9
100
AcDbSymbolTableRecord
100
AcDbLinetypeTableRecord
  2
DASHED
 70
64
  3
- - - - - - - - - - - - - - - - - - - -
 72
65
 73
2
 40
0.2
 49
0.1
 74
0
 49
-0.1
 74
0
  0
ENDTAB
  0
TABLE
  2
LAYER
  5
2
100
AcDbSymbolTable
 70
36
  0
LAYER
  5
10
100
AcDbSymbolTableRecord
100
AcDbLayerTableRecord
  2
0
 70
0
 62
7
  6
CONTINUOUS
370
-3
390
F
  0
LAYER
  5
1FA
100
AcDbSymbolTableRecord
100
AcDbLayerTableRecord
  2
DEFAULT_1
 70
0
 62
7
  6
CENTER
370
-3
390
F
  0
LAYER
  5
1FB
100
AcDbSymbolTableRecord
100
AcDbLayerTableRecord
  2
DEFAULT_2
 70
0
 62
7
  6
HIDDEN
370
-3
390
F
  0
LAYER
  5
1FC
100
AcDbSymbolTableRecord
100
AcDbLayerTableRecord
  2
DEFAULT_3
 70
0
 62
7
  6
PHANTOM
370
-3
390
F
  0
LAYER
  5
1FD
100
AcDbSymbolTableRecord
100
AcDbLayerTableRecord
  2
ASSI
 70
0
 62
7
  6
CONTINUOUS
370
-3
390
F
  0
LAYER
  5
1FE
100
AcDbSymbolTableRecord
100
AcDbLayerTableRecord
  2
COLOR5
 70
0
 62
7
  6
CONTINUOUS
370
-3
390
F
  0
LAYER
  5
1FF
100
AcDbSymbolTableRecord
100
AcDbLayerTableRecord
  2
COORDINATE
 70
0
 62
7
  6
CONTINUOUS
370
-3
390
F
  0
LAYER
  5
200
100
AcDbSymbolTableRecord
100
AcDbLayerTableRecord
  2
COORD_ORIGINE
 70
0
 62
7
  6
CONTINUOUS
370
-3
390
F
  0
LAYER
  5
201
100
AcDbSymbolTableRecord
100
AcDbLayerTableRecord
  2
CURVE
 70
0
 62
7
  6
CONTINUOUS
370
-3
390
F
  0
LAYER
  5
202
100
AcDbSymbolTableRecord
100
AcDbLayerTableRecord
  2
DRAFT
 70
0
 62
7
  6
CONTINUOUS
370
-3
390
F
  0
LAYER
  5
203
100
AcDbSymbolTableRecord
100
AcDbLayerTableRecord
  2
IMPORT_IGS
 70
0
 62
7
  6
CONTINUOUS
370
-3
390
F
  0
LAYER
  5
204
100
AcDbSymbolTableRecord
100
AcDbLayerTableRecord
  2
INTF_1
 70
0
 62
7
  6
CONTINUOUS
370
-3
390
F
  0
LAYER
  5
205
100
AcDbSymbolTableRecord
100
AcDbLayerTableRecord
  2
INTF_7
 70
0
 62
7
  6
CONTINUOUS
370
-3
390
F
  0
LAYER
  5
206
100
AcDbSymbolTableRecord
100
AcDbLayerTableRecord
  2
LAY0001
 70
0
 62
7
  6
CONTINUOUS
370
-3
390
F
  0
LAYER
  5
207
100
AcDbSymbolTableRecord
100
AcDbLayerTableRecord
  2
NOTE
 70
0
 62
7
  6
CONTINUOUS
370
-3
390
F
  0
LAYER
  5
208
100
AcDbSymbolTableRecord
100
AcDbLayerTableRecord
  2
PIANI
 70
0
 62
7
  6
CONTINUOUS
370
-3
390
F
  0
LAYER
  5
209
100
AcDbSymbolTableRecord
100
AcDbLayerTableRecord
  2
PIANI_ORIGINE
 70
0
 62
7
  6
CONTINUOUS
370
-3
390
F
  0
LAYER
  5
20A
100
AcDbSymbolTableRecord
100
AcDbLayerTableRecord
  2
PUNTI
 70
0
 62
7
  6
CONTINUOUS
370
-3
390
F
  0
LAYER
  5
20B
100
AcDbSymbolTableRecord
100
AcDbLayerTableRecord
  2
RACCORDO
 70
0
 62
7
  6
CONTINUOUS
370
-3
390
F
  0
LAYER
  5
20C
100
AcDbSymbolTableRecord
100
AcDbLayerTableRecord
  2
RGB__255__255__255__
 70
0
 62
7
  6
CONTINUOUS
370
-3
390
F
  0
LAYER
  5
20D
100
AcDbSymbolTableRecord
100
AcDbLayerTableRecord
  2
RGB____0____0____0__
 70
0
 62
7
  6
CONTINUOUS
370
-3
390
F
  0
LAYER
  5
20E
100
AcDbSymbolTableRecord
100
AcDbLayerTableRecord
  2
SCRITTE
 70
0
 62
7
  6
CONTINUOUS
370
-3
390
F
  0
LAYER
  5
20F
100
AcDbSymbolTableRecord
100
AcDbLayerTableRecord
  2
SKEL
 70
0
 62
7
  6
CONTINUOUS
370
-3
390
F
  0
LAYER
  5
210
100
AcDbSymbolTableRecord
100
AcDbLayerTableRecord
  2
SMUSSO
 70
0
 62
7
  6
CONTINUOUS
370
-3
390
F
  0
LAYER
  5
211
100
AcDbSymbolTableRecord
100
AcDbLayerTableRecord
  2
SNAPLINE
 70
0
 62
7
  6
CONTINUOUS
370
-3
390
F
  0
LAYER
  5
212
100
AcDbSymbolTableRecord
100
AcDbLayerTableRecord
  2
SUPERFICI
 70
0
 62
7
  6
CONTINUOUS
370
-3
390
F
  0
LAYER
  5
213
100
AcDbSymbolTableRecord
100
AcDbLayerTableRecord
  2
TRASH
 70
0
 62
7
  6
CONTINUOUS
370
-3
390
F
  0
LAYER
  5
214
100
AcDbSymbolTableRecord
100
AcDbLayerTableRecord
  2
XSEC_DATUMS
 70
0
 62
7
  6
CONTINUOUS
370
-3
390
F
  0
ENDTAB
  0
TABLE
  2
STYLE
  5
3
100
AcDbSymbolTable
 70
1
  0
STYLE
  5
11
100
AcDbSymbolTableRecord
100
AcDbTextStyleTableRecord
  2
STANDARD
 70
0
 40
0.0
 41
0.8
 50
0.0
 71
0
 42
0.2
  3
txt
  4

  0
STYLE
  5
215
100
AcDbSymbolTableRecord
100
AcDbTextStyleTableRecord
  2
TEXTSTYLE_1
 70
0
 40
0.0
 41
0.8
 50
0.0
 71
0
 42
0.2
  3
gdt
  4

  0
ENDTAB
  0
TABLE
  2
VIEW
  5
6
100
AcDbSymbolTable
 70
0
  0
ENDTAB
  0
TABLE
  2
UCS
  5
7
100
AcDbSymbolTable
 70
0
  0
ENDTAB
  0
TABLE
  2
APPID
  5
9
100
AcDbSymbolTable
 70
1
  0
APPID
  5
216
100
AcDbSymbolTableRecord
100
AcDbRegAppTableRecord
  2
ACAD
 70
0
  0
ENDTAB
  0
TABLE
  2
BLOCK_RECORD
  5
1
100
AcDbSymbolTable
 70
0
  0
BLOCK_RECORD
  5
217
100
AcDbSymbolTableRecord
100
AcDbBlockTableRecord
  2
*Model_Space
  0
BLOCK_RECORD
  5
218
100
AcDbSymbolTableRecord
100
AcDbBlockTableRecord
  2
*Paper_Space
  0
BLOCK_RECORD
  5
219
100
AcDbSymbolTableRecord
100
AcDbBlockTableRecord
  2
_FILLED
  0
ENDTAB
  0
TABLE
  2
DIMSTYLE
  5
A
100
AcDbSymbolTable
 70
1
100
AcDbDimStyleTable
 71
0
  0
DIMSTYLE
105
21A
100
AcDbSymbolTableRecord
100
AcDbDimStyleTableRecord
  2
STANDARD
 70
0
  3

  4

 40
1.0
 41
3.0
 42
0.5
 43
0.38
 44
1.5
 45
0.0
 46
0.0
 47
0.01
 48
0.01
140
3.0
141
0.09
142
0.0
143
25.4
144
1.0
145
0.0
146
1.0
147
0.625
 71
1
 72
0
 73
0
 74
0
 75
0
 76
0
 77
1
 78
8
 79
2
170
0
171
1
172
0
173
0
174
0
175
0
176
0
177
0
178
0
270
2
179
2
271
2
272
2
273
2
274
2
275
0
280
0
281
0
282
0
283
1
284
8
285
0
286
0
287
3
288
0
340
11
278
44
341
219
342
219
343
219
344
219
  0
ENDTAB
  0
ENDSEC
  0
SECTION
  2
BLOCKS
  0
BLOCK
  5
20
100
AcDbEntity
  8
0
100
AcDbBlockBegin
  2
*Model_Space
 70
0
 10
0.0
 20
0.0
 30
0.0
  3
*Model_Space
  1

  0
ENDBLK
  5
21
100
AcDbEntity
  8
0
100
AcDbBlockEnd
  0
BLOCK
  5
1C
100
AcDbEntity
  8
0
100
AcDbBlockBegin
  2
*Paper_Space
 70
0
 10
0.0
 20
0.0
 30
0.0
  3
*Paper_Space
  1

  0
ENDBLK
  5
1D
100
AcDbEntity
  8
0
100
AcDbBlockEnd
  0
BLOCK
  5
21B
100
AcDbEntity
  8
0
100
AcDbBlockBegin
  2
_FILLED
 70
64
 10
0.0
 20
0.0
  3
_FILLED
  1

  0
SOLID
  5
21C
100
AcDbEntity
  8
0
  6
BYBLOCK
 62
0
100
AcDbTrace
 10
0.0
 20
0.0
 11
-1.0
 21
0.3166666667
 12
-1.0
 22
-0.3166666667
 13
-1.0
 23
-0.3166666667
  0
ENDBLK
  5
21D
100
AcDbEntity
  8
0
  6
BYBLOCK
 62
0
100
AcDbBlockEnd
  0
ENDSEC
  0
SECTION
  2
ENTITIES
  0
LWPOLYLINE
  5
21E
100
AcDbEntity
  8
RACCORDO
100
AcDbPolyline
 62
250
  6
CONTINUOUS
 90
14
 70
0
 10
-100.9586269168
 20
-31.9709144997
 10
-100.9578183717
 20
-31.9916641204
 10
-100.9569679847
 20
-32.0108661902
 10
-100.9560775977
 20
-32.0284558916
 10
-100.9551668789
 20
-32.0442593675
 10
-100.954234937
 20
-32.0582788236
 10
-100.9532826631
 20
-32.0705179397
 10
-100.952332399
 20
-32.0809024134
 10
-100.9513847322
 20
-32.0895008012
 10
-100.9504390752
 20
-32.0963924717
 10
-100.9495160066
 20
-32.1016171202
 10
-100.9486223861
 20
-32.1052931261
 10
-100.9477513541
 20
-32.107569216
 10
-100.9469029106
 20
-32.108575216
  0
LWPOLYLINE
  5
21F
100
AcDbEntity
  8
RACCORDO
100
AcDbPolyline
 62
250
  6
CONTINUOUS
 90
10
 70
0
 10
-101.4550904167
 20
-32.4798759897
 10
-101.454158583
 20
-32.5078423667
 10
-101.4532064196
 20
-32.5322651552
 10
-101.4522562412
 20
-32.5531496842
 10
-101.4513086239
 20
-32.5703371742
 10
-101.4503629915
 20
-32.5839864047
 10
-101.4494399301
 20
-32.5945790422
 10
-101.4485463018
 20
-32.6022756423
 10
-101.4476752445
 20
-32.6069156494
 10
-101.4468267582
 20
-32.6084990636
  0
LINE
  5
220
100
AcDbEntity
  8
RACCORDO
100
AcDbLine
 62
250
  6
CONTINUOUS
 10
-100.9601098648
 20
-31.9251874538
 11
-100.9586269168
 21
-31.9709144997
  0
LINE
  5
221
100
AcDbEntity
  8
DRAFT
100
AcDbLine
 62
7
  6
CONTINUOUS
 10
-101.7166313899
 20
-9.9859337428
 11
-101.7334657182
 21
-9.3628860812
  0
LINE
  5
222
100
AcDbEntity
  8
RACCORDO
100
AcDbLine
 62
250
  6
CONTINUOUS
 10
-101.4568913176
 20
-32.4130028616
 11
-101.4550904167
 21
-32.4798759897
  0
LINE
  5
223
100
AcDbEntity
  8
DRAFT
100
AcDbLine
 62
7
  6
CONTINUOUS
 10
-101.7334657182
 20
-9.3628860812
 11
-101.7491352136
 21
-8.6466911205
  0
LINE
  5
224
100
AcDbEntity
  8
RACCORDO
100
AcDbLine
 62
250
  6
CONTINUOUS
 10
-101.4585501184
 20
-32.3332155946
 11
-101.4568913176
 21
-32.4130028616
  0
LINE
  5
225
100
AcDbEntity
  8
DRAFT
100
AcDbLine
 62
7
  6
CONTINUOUS
 10
-101.7491352136
 20
-8.6466911205
 11
-101.7635264444
 21
-7.8427179715
  0
LINE
  5
226
100
AcDbEntity
  8
DRAFT
100
AcDbLine
 62
7
  6
CONTINUOUS
 10
-101.7635264444
 20
-7.8427179715
 11
-101.7764120979
 21
-6.9627108391
  0
LWPOLYLINE
  5
227
100
AcDbEntity
  8
RACCORDO
100
AcDbPolyline
 62
250
  6
CONTINUOUS
 90
3
 70
0
 10
-101.4612952215
 20
-32.1410677512
 10
-101.4606911851
 20
-32.1925627642
 10
-101.4585501184
 20
-32.3332155946
  0
LINE
  5
228
100
AcDbEntity
  8
DRAFT
100
AcDbLine
 62
7
  6
CONTINUOUS
 10
-101.7764120979
 20
-6.9627108391
 11
-101.7877014814
 21
-6.0137421798
  0
LINE
  5
229
100
AcDbEntity
  8
DRAFT
100
AcDbLine
 62
7
  6
CONTINUOUS
 10
-101.7877014814
 20
-6.0137421798
 11
-101.7973136888
 21
-5.0028023393
  0
LINE
  5
22A
100
AcDbEntity
  8
DRAFT
100
AcDbLine
 62
7
  6
CONTINUOUS
 10
-101.7973136888
 20
-5.0028023393
 11
-101.8051032254
 21
-3.9437421037
  0
LINE
  5
22B
100
AcDbEntity
  8
DRAFT
100
AcDbLine
 62
7
  6
CONTINUOUS
 10
-101.8051032254
 20
-3.9437421037
 11
-101.8110101025
 21
-2.8463053056
  0
LINE
  5
22C
100
AcDbEntity
  8
DRAFT
100
AcDbLine
 62
7
  6
CONTINUOUS
 10
-101.8110101025
 20
-2.8463053056
 11
-101.8149923325
 21
-1.7184845138
  0
LINE
  5
22D
100
AcDbEntity
  8
DRAFT
100
AcDbLine
 62
7
  6
CONTINUOUS
 10
-101.8149923325
 20
-1.7184845138
 11
-101.8169849197
 21
-0.5769914638
  0
LINE
  5
22E
100
AcDbEntity
  8
SKEL
100
AcDbLine
 62
7
  6
CONTINUOUS
 10
-102.0000003491
 20
35.5000000145
 11
-102.0000003491
 21
-35.5000000243
  0
LINE
  5
22F
100
AcDbEntity
  8
DRAFT
100
AcDbLine
 62
7
  6
CONTINUOUS
 10
-102.0
 20
35.5
 11
-102.0
 21
-35.5
  0
LINE
  5
230
100
AcDbEntity
  8
DRAFT
100
AcDbLine
 62
7
  6
CONTINUOUS
 10
-101.8169849197
 20
-0.5769914638
 11
-101.8169849197
 21
0.5769914638
  0
LINE
  5
231
100
AcDbEntity
  8
DRAFT
100
AcDbLine
 62
7
  6
CONTINUOUS
 10
-101.8169849197
 20
0.5769914638
 11
-101.8149923325
 21
1.7184845139
  0
LINE
  5
232
100
AcDbEntity
  8
DRAFT
100
AcDbLine
 62
7
  6
CONTINUOUS
 10
-101.8149923325
 20
1.7184845139
 11
-101.8110101025
 21
2.8463053056
  0
LINE
  5
233
100
AcDbEntity
  8
DRAFT
100
AcDbLine
 62
7
  6
CONTINUOUS
 10
-101.8110101025
 20
2.8463053056
 11
-101.8051032254
 21
3.9437421037
  0
LINE
  5
234
100
AcDbEntity
  8
DRAFT
100
AcDbLine
 62
7
  6
CONTINUOUS
 10
-101.8051032254
 20
3.9437421037
 11
-101.7973136888
 21
5.0028023393
  0
LINE
  5
235
100
AcDbEntity
  8
DRAFT
100
AcDbLine
 62
7
  6
CONTINUOUS
 10
-101.7973136888
 20
5.0028023393
 11
-101.7877014814
 21
6.0137421799
  0
LINE
  5
236
100
AcDbEntity
  8
DRAFT
100
AcDbLine
 62
7
  6
CONTINUOUS
 10
-101.7877014814
 20
6.0137421799
 11
-101.7764120979
 21
6.9627108391
  0
LINE
  5
237
100
AcDbEntity
  8
DRAFT
100
AcDbLine
 62
7
  6
CONTINUOUS
 10
-101.7764120979
 20
6.9627108391
 11
-101.7635264444
 21
7.8427179715
  0
LINE
  5
238
100
AcDbEntity
  8
DRAFT
100
AcDbLine
 62
7
  6
CONTINUOUS
 10
-101.7635264444
 20
7.8427179715
 11
-101.7491352136
 21
8.6466911205
  0
LINE
  5
239
100
AcDbEntity
  8
DRAFT
100
AcDbLine
 62
7
  6
CONTINUOUS
 10
-101.7491352136
 20
8.6466911205
 11
-101.7334657182
 21
9.3628860812
  0
LWPOLYLINE
  5
23A
100
AcDbEntity
  8
DRAFT
100
AcDbPolyline
 62
7
  6
CONTINUOUS
 90
13
 70
0
 10
-101.7334657182
 20
9.3628860812
 10
-101.7166313899
 20
9.9859337428
 10
-101.707814297
 20
10.2608545279
 10
-101.6987391569
 20
10.5112599952
 10
-101.6894910311
 20
10.7348120768
 10
-101.6800811028
 20
10.9310366818
 10
-101.6704981888
 20
11.100407901
 10
-101.6607938018
 20
11.2420099393
 10
-101.6509534736
 20
11.3558098506
 10
-101.6409916723
 20
11.441840581
 10
-101.6310033154
 20
11.4992851742
 10
-101.6210023381
 20
11.5278713114
 10
-101.615896487
 20
11.5314433737
  0
LWPOLYLINE
  5
23B
100
AcDbEntity
  8
RACCORDO
100
AcDbPolyline
 62
7
  6
CONTINUOUS
 90
9
 70
0
 10
-100.3821703245
 20
-32.1935683378
 10
-100.3804070307
 20
-32.1972995131
 10
-100.3763276025
 20
-32.2028895386
 10
-100.3699645827
 20
-32.2103384143
 10
-100.3613115083
 20
-32.2197997247
 10
-100.3504483789
 20
-32.2311198852
 10
-100.337652374
 20
-32.2438381431
 10
-100.3231039511
 20
-32.2579911861
 10
-100.3069582697
 20
-32.2735423264
  0
LINE
  5
23C
100
AcDbEntity
  8
DRAFT
100
AcDbLine
 62
7
  6
CONTINUOUS
 10
-101.5153457533
 20
9.9859337428
 11
-101.498511425
 21
9.3628860812
  0
LINE
  5
23D
100
AcDbEntity
  8
RACCORDO
100
AcDbLine
 62
250
  6
CONTINUOUS
 10
-100.9613719973
 20
-31.8748780448
 11
-100.9601098648
 21
-31.9251874538
  0
LINE
  5
23E
100
AcDbEntity
  8
DRAFT
100
AcDbLine
 62
7
  6
CONTINUOUS
 10
-101.498511425
 20
9.3628860812
 11
-101.4828419296
 21
8.6466911205
  0
LINE
  5
23F
100
AcDbEntity
  8
RACCORDO
100
AcDbLine
 62
250
  6
CONTINUOUS
 10
-100.9623916861
 20
-31.8214806935
 11
-100.9613719973
 21
-31.8748780448
  0
LINE
  5
240
100
AcDbEntity
  8
DRAFT
100
AcDbLine
 62
7
  6
CONTINUOUS
 10
-101.4828419296
 20
8.6466911205
 11
-101.4684506988
 21
7.8427179715
  0
LINE
  5
241
100
AcDbEntity
  8
DRAFT
100
AcDbLine
 62
7
  6
CONTINUOUS
 10
-101.4684506988
 20
7.8427179715
 11
-101.4555650453
 21
6.9627108391
  0
LINE
  5
242
100
AcDbEntity
  8
RACCORDO
100
AcDbLine
 62
250
  6
CONTINUOUS
 10
-100.9631610564
 20
-31.7664551663
 11
-100.9623916861
 21
-31.8214806935
  0
LINE
  5
243
100
AcDbEntity
  8
DRAFT
100
AcDbLine
 62
7
  6
CONTINUOUS
 10
-101.4555650453
 20
6.9627108391
 11
-101.4442756617
 21
6.0137421799
  0
LINE
  5
244
100
AcDbEntity
  8
DRAFT
100
AcDbLine
 62
7
  6
CONTINUOUS
 10
-101.4442756617
 20
6.0137421799
 11
-101.4346634543
 21
5.0028023393
  0
LINE
  5
245
100
AcDbEntity
  8
DRAFT
100
AcDbLine
 62
7
  6
CONTINUOUS
 10
-101.4346634543
 20
5.0028023393
 11
-101.4268739177
 21
3.9437421037
  0
LINE
  5
246
100
AcDbEntity
  8
RACCORDO
100
AcDbLine
 62
250
  6
CONTINUOUS
 10
-101.4630845929
 20
-31.9243331338
 11
-101.4612952215
 21
-32.1410677512
  0
LINE
  5
247
100
AcDbEntity
  8
RACCORDO
100
AcDbLine
 62
250
  6
CONTINUOUS
 10
-100.9638498801
 20
-31.6847593539
 11
-100.9631610564
 21
-31.7664551663
  0
LINE
  5
248
100
AcDbEntity
  8
DRAFT
100
AcDbLine
 62
7
  6
CONTINUOUS
 10
-101.4268739177
 20
3.9437421037
 11
-101.4209670407
 21
2.8463053056
  0
LINE
  5
249
100
AcDbEntity
  8
DRAFT
100
AcDbLine
 62
7
  6
CONTINUOUS
 10
-101.4209670407
 20
2.8463053056
 11
-101.4169848106
 21
1.7184845139
  0
LINE
  5
24A
100
AcDbEntity
  8
RACCORDO
100
AcDbLine
 62
250
  6
CONTINUOUS
 10
-101.4639632926
 20
-31.658164663
 11
-101.4630845929
 21
-31.9243331338
  0
LINE
  5
24B
100
AcDbEntity
  8
DRAFT
100
AcDbLine
 62
7
  6
CONTINUOUS
 10
-101.4169848106
 20
1.7184845139
 11
-101.4149922235
 21
0.5769914638
  0
LINE
  5
24C
100
AcDbEntity
  8
RACCORDO
100
AcDbLine
 62
250
  6
CONTINUOUS
 10
-100.9640533427
 20
-31.6086513684
 11
-100.9638498801
 21
-31.6847593539
  0
LINE
  5
24D
100
AcDbEntity
  8
RACCORDO
100
AcDbLine
 62
250
  6
CONTINUOUS
 10
-101.3747431161
 20
35.5
 11
-101.3747431161
 21
-25.7194172943
  0
LINE
  5
24E
100
AcDbEntity
  8
RACCORDO
100
AcDbLine
 62
250
  6
CONTINUOUS
 10
-101.3747431161
 20
-32.6805827057
 11
-101.3747431161
 21
-35.5
  0
LINE
  5
24F
100
AcDbEntity
  8
0
100
AcDbLine
 62
7
  6
CONTINUOUS
 10
-100.4751240074
 20
35.5
 11
-100.4751240074
 21
33.7248759926
  0
LINE
  5
250
100
AcDbEntity
  8
0
100
AcDbLine
 62
7
  6
CONTINUOUS
 10
-100.4751240074
 20
-33.7248759926
 11
-100.4751240074
 21
-35.5
  0
LINE
  5
251
100
AcDbEntity
  8
RACCORDO
100
AcDbLine
 62
7
  6
CONTINUOUS
 10
-100.4748344851
 20
-26.7913486316
 11
-100.4748344851
 21
-31.6086513684
  0
LINE
  5
252
100
AcDbEntity
  8
RACCORDO
100
AcDbLine
 62
250
  6
CONTINUOUS
 10
-100.3821703245
 20
-26.2064316619
 11
-100.3821703245
 21
-32.1935683378
  0
LINE
  5
253
100
AcDbEntity
  8
DRAFT
100
AcDbLine
 62
7
  6
CONTINUOUS
 10
-100.2
 20
-35.5
 11
-100.2
 21
-34.0
  0
LINE
  5
254
100
AcDbEntity
  8
DRAFT
100
AcDbLine
 62
7
  6
CONTINUOUS
 10
-100.2
 20
34.0
 11
-100.2
 21
35.5
  0
LINE
  5
255
100
AcDbEntity
  8
RACCORDO
100
AcDbLine
 62
250
  6
CONTINUOUS
 10
-100.1749258633
 20
-26.0000746359
 11
-100.1749258819
 21
33.7242099741
  0
LINE
  5
256
100
AcDbEntity
  8
RACCORDO
100
AcDbLine
 62
250
  6
CONTINUOUS
 10
-100.174925864
 20
-32.3999253618
 11
-100.1749258819
 21
-33.7242099741
  0
LINE
  5
257
100
AcDbEntity
  8
RACCORDO
100
AcDbLine
 62
250
  6
CONTINUOUS
 10
-99.8822464769
 20
-25.7074119919
 11
-99.8822464769
 21
-32.6925880081
  0
LINE
  5
258
100
AcDbEntity
  8
DRAFT
100
AcDbLine
 62
250
  6
CONTINUOUS
 10
-96.0
 20
34.0
 11
-96.0
 21
33.7242099741
  0
LINE
  5
259
100
AcDbEntity
  8
DRAFT
100
AcDbLine
 62
250
  6
CONTINUOUS
 10
-96.0
 20
-34.0
 11
-96.0
 21
-33.7242099741
  0
LINE
  5
25A
100
AcDbEntity
  8
0
100
AcDbLine
 62
250
  6
CONTINUOUS
 10
-96.0
 20
-39.7
 11
-96.0
 21
-41.5
  0
LINE
  5
25B
100
AcDbEntity
  8
0
100
AcDbLine
 62
250
  6
CONTINUOUS
 10
-96.0
 20
39.7
 11
-96.0
 21
41.5
  0
LINE
  5
25C
100
AcDbEntity
  8
DRAFT
100
AcDbLine
 62
7
  6
CONTINUOUS
 10
-94.5
 20
39.7
 11
-94.5
 21
35.5
  0
LINE
  5
25D
100
AcDbEntity
  8
DRAFT
100
AcDbLine
 62
7
  6
CONTINUOUS
 10
-94.5
 20
-35.5
 11
-94.5
 21
-39.7
  0
LINE
  5
25E
100
AcDbEntity
  8
DRAFT
100
AcDbLine
 62
7
  6
CONTINUOUS
 10
-101.4149922235
 20
0.5769914638
 11
-101.4149922235
 21
-0.5769914638
  0
LINE
  5
25F
100
AcDbEntity
  8
DRAFT
100
AcDbLine
 62
7
  6
CONTINUOUS
 10
-101.4149922235
 20
-0.5769914638
 11
-101.4169848106
 21
-1.7184845138
  0
LINE
  5
260
100
AcDbEntity
  8
RACCORDO
100
AcDbLine
 62
250
  6
CONTINUOUS
 10
-100.9639717175
 20
-26.7413757168
 11
-100.9640533427
 21
-31.6086513684
  0
LINE
  5
261
100
AcDbEntity
  8
RACCORDO
100
AcDbLine
 62
250
  6
CONTINUOUS
 10
-101.463600818
 20
-26.5855240321
 11
-101.4639632926
 21
-31.658164663
  0
LINE
  5
262
100
AcDbEntity
  8
DRAFT
100
AcDbLine
 62
7
  6
CONTINUOUS
 10
-101.4169848106
 20
-1.7184845138
 11
-101.4209670407
 21
-2.8463053056
  0
LINE
  5
263
100
AcDbEntity
  8
DRAFT
100
AcDbLine
 62
7
  6
CONTINUOUS
 10
-101.4209670407
 20
-2.8463053056
 11
-101.4268739177
 21
-3.9437421037
  0
LINE
  5
264
100
AcDbEntity
  8
RACCORDO
100
AcDbLine
 62
250
  6
CONTINUOUS
 10
-101.4623154339
 20
-26.365578247
 11
-101.463600818
 21
-26.5855240321
  0
LINE
  5
265
100
AcDbEntity
  8
DRAFT
100
AcDbLine
 62
7
  6
CONTINUOUS
 10
-101.4268739177
 20
-3.9437421037
 11
-101.4346634543
 21
-5.0028023393
  0
LINE
  5
266
100
AcDbEntity
  8
RACCORDO
100
AcDbLine
 62
250
  6
CONTINUOUS
 10
-100.9634502834
 20
-26.6610905824
 11
-100.9639717175
 21
-26.7413757168
  0
LINE
  5
267
100
AcDbEntity
  8
DRAFT
100
AcDbLine
 62
7
  6
CONTINUOUS
 10
-101.4346634543
 20
-5.0028023393
 11
-101.4442756617
 21
-6.0137421798
  0
LINE
  5
268
100
AcDbEntity
  8
RACCORDO
100
AcDbLine
 62
250
  6
CONTINUOUS
 10
-101.4606913948
 20
-26.2074541447
 11
-101.4623154339
 21
-26.365578247
  0
LINE
  5
269
100
AcDbEntity
  8
DRAFT
100
AcDbLine
 62
7
  6
CONTINUOUS
 10
-101.4442756617
 20
-6.0137421798
 11
-101.4555650453
 21
-6.9627108391
  0
LINE
  5
26A
100
AcDbEntity
  8
RACCORDO
100
AcDbLine
 62
250
  6
CONTINUOUS
 10
-100.9628077724
 20
-26.6060151775
 11
-100.9634502834
 21
-26.6610905824
  0
LINE
  5
26B
100
AcDbEntity
  8
DRAFT
100
AcDbLine
 62
7
  6
CONTINUOUS
 10
-101.4555650453
 20
-6.9627108391
 11
-101.4684506988
 21
-7.8427179715
  0
LINE
  5
26C
100
AcDbEntity
  8
RACCORDO
100
AcDbLine
 62
250
  6
CONTINUOUS
 10
-101.4585498564
 20
-26.0667704792
 11
-101.4606913948
 21
-26.2074541447
  0
LINE
  5
26D
100
AcDbEntity
  8
RACCORDO
100
AcDbLine
 62
250
  6
CONTINUOUS
 10
-100.9619144622
 20
-26.5515393494
 11
-100.9628077724
 21
-26.6060151775
  0
LINE
  5
26E
100
AcDbEntity
  8
DRAFT
100
AcDbLine
 62
7
  6
CONTINUOUS
 10
-101.4684506988
 20
-7.8427179715
 11
-101.4828419296
 21
-8.6466911205
  0
LINE
  5
26F
100
AcDbEntity
  8
RACCORDO
100
AcDbLine
 62
250
  6
CONTINUOUS
 10
-101.4568906631
 20
-25.9869696018
 11
-101.4585498564
 21
-26.0667704792
  0
LINE
  5
270
100
AcDbEntity
  8
DRAFT
100
AcDbLine
 62
7
  6
CONTINUOUS
 10
-101.4828419296
 20
-8.6466911205
 11
-101.498511425
 21
-9.3628860812
  0
LINE
  5
271
100
AcDbEntity
  8
RACCORDO
100
AcDbLine
 62
250
  6
CONTINUOUS
 10
-100.9607682308
 20
-26.4994576046
 11
-100.9619144622
 21
-26.5515393494
  0
LWPOLYLINE
  5
272
100
AcDbEntity
  8
DRAFT
100
AcDbPolyline
 62
7
  6
CONTINUOUS
 90
13
 70
0
 10
-101.498511425
 20
-9.3628860812
 10
-101.5153457533
 20
-9.9859337428
 10
-101.5241628462
 20
-10.2608545279
 10
-101.5332379863
 20
-10.5112599952
 10
-101.542486112
 20
-10.7348120768
 10
-101.5518960404
 20
-10.9310366818
 10
-101.5614789544
 20
-11.100407901
 10
-101.5711833414
 20
-11.2420099393
 10
-101.5810236696
 20
-11.3558098506
 10
-101.5909854708
 20
-11.441840581
 10
-101.6009738277
 20
-11.4992851742
 10
-101.6109748051
 20
-11.5278713114
 10
-101.615896487
 20
-11.5314433737
  0
LWPOLYLINE
  5
273
100
AcDbEntity
  8
RACCORDO
100
AcDbPolyline
 62
250
  6
CONTINUOUS
 90
8
 70
0
 10
-88.9305827057
 20
40.8747431161
 10
-88.9313764027
 20
40.870888332
 10
-88.9321596975
 20
40.8620393461
 10
-88.93293259
 20
40.8482268862
 10
-88.9336982083
 20
40.829503036
 10
-88.9344534243
 20
40.8059397378
 10
-88.9351888541
 20
40.777627357
 10
-88.9366001803
 20
40.7072042722
  0
LWPOLYLINE
  5
274
100
AcDbEntity
  8
RACCORDO
100
AcDbPolyline
 62
250
  6
CONTINUOUS
 90
10
 70
0
 10
-88.4306588581
 20
40.3748192685
 10
-88.4315112027
 20
40.3722316668
 10
-88.432351034
 20
40.3663563206
 10
-88.4331783518
 20
40.3571932299
 10
-88.4339971356
 20
40.3446701809
 10
-88.434803406
 20
40.3288593874
 10
-88.4355852252
 20
40.3099774912
 10
-88.4363422913
 20
40.2879728079
 10
-88.4370749063
 20
40.2628970218
 10
-88.4384329418
 20
40.204615307
  0
LINE
  5
275
100
AcDbEntity
  8
0
100
AcDbLine
 62
7
  6
CONTINUOUS
 10
-94.5
 20
39.7
 11
-94.2248759926
 21
39.9751240074
  0
LINE
  5
276
100
AcDbEntity
  8
0
100
AcDbLine
 62
7
  6
CONTINUOUS
 10
-100.2
 20
34.0
 11
-100.4751240074
 21
33.7248759926
  0
LINE
  5
277
100
AcDbEntity
  8
0
100
AcDbLine
 62
7
  6
CONTINUOUS
 10
-94.5
 20
-39.7
 11
-94.2248759926
 21
-39.9751240074
  0
LINE
  5
278
100
AcDbEntity
  8
0
100
AcDbLine
 62
7
  6
CONTINUOUS
 10
-100.2
 20
-34.0
 11
-100.4751240074
 21
-33.7248759926
  0
LINE
  5
279
100
AcDbEntity
  8
RACCORDO
100
AcDbLine
 62
250
  6
CONTINUOUS
 10
-101.4468267582
 20
-32.6084990636
 11
-101.3747431161
 21
-32.6805827057
  0
LWPOLYLINE
  5
27A
100
AcDbEntity
  8
RACCORDO
100
AcDbPolyline
 62
7
  6
CONTINUOUS
 90
7
 70
0
 10
-100.3827210873
 20
-32.1921133978
 10
-100.3826292232
 20
-32.1922300673
 10
-100.3825373872
 20
-32.1923970651
 10
-100.3824455793
 20
-32.192614391
 10
-100.3823537996
 20
-32.1928820451
 10
-100.382262048
 20
-32.1932000274
 10
-100.3821703245
 20
-32.1935683378
  0
LINE
  5
27B
100
AcDbEntity
  8
0
100
AcDbLine
 62
7
  6
CONTINUOUS
 10
-94.2242099741
 20
39.6749258819
 11
-94.2242099741
 21
35.5
  0
LINE
  5
27C
100
AcDbEntity
  8
0
100
AcDbLine
 62
7
  6
CONTINUOUS
 10
-94.2242099741
 20
-35.5
 11
-94.2242099741
 21
-39.6749258819
  0
LINE
  5
27D
100
AcDbEntity
  8
0
100
AcDbLine
 62
7
  6
CONTINUOUS
 10
-89.2
 20
1.4375
 11
-89.2
 21
1.3125001192
  0
LINE
  5
27E
100
AcDbEntity
  8
0
100
AcDbLine
 62
7
  6
CONTINUOUS
 10
-89.2
 20
-0.3750000596
 11
-89.2
 21
-2.5
  0
LINE
  5
27F
100
AcDbEntity
  8
0
100
AcDbLine
 62
7
  6
CONTINUOUS
 10
-88.8808511019
 20
-2.1875000074
 11
-88.8808511019
 21
-0.3750000596
  0
LINE
  5
280
100
AcDbEntity
  8
0
100
AcDbLine
 62
7
  6
CONTINUOUS
 10
-88.8808511019
 20
1.25
 11
-88.8808511019
 21
1.5000001192
  0
LINE
  5
281
100
AcDbEntity
  8
0
100
AcDbLine
 62
7
  6
CONTINUOUS
 10
-88.4978724241
 20
0.3125
 11
-88.4978724241
 21
0.6249998808
  0
LINE
  5
282
100
AcDbEntity
  8
RACCORDO
100
AcDbLine
 62
250
  6
CONTINUOUS
 10
-88.358575216
 20
39.9662592691
 11
-88.358575216
 21
40.4469029106
  0
LINE
  5
283
100
AcDbEntity
  8
0
100
AcDbLine
 62
7
  6
CONTINUOUS
 10
-88.1148935676
 20
-1.1875
 11
-88.1148935676
 21
-1.5625
  0
LINE
  5
284
100
AcDbEntity
  8
0
100
AcDbLine
 62
7
  6
CONTINUOUS
 10
-87.8595744491
 20
1.5000001192
 11
-87.8595744491
 21
1.25
  0
LINE
  5
285
100
AcDbEntity
  8
RACCORDO
100
AcDbLine
 62
250
  6
CONTINUOUS
 10
-87.8586513684
 20
39.9748344851
 11
-87.8586513685
 21
40.9639771903
  0
LINE
  5
286
100
AcDbEntity
  8
0
100
AcDbLine
 62
7
  6
CONTINUOUS
 10
-87.7957446694
 20
-1.5625
 11
-87.7957446694
 21
-1.1875
  0
LINE
  5
287
100
AcDbEntity
  8
0
100
AcDbLine
 62
7
  6
CONTINUOUS
 10
-87.6042553306
 20
1.25
 11
-87.6042553306
 21
1.5000001192
  0
LINE
  5
288
100
AcDbEntity
  8
0
100
AcDbLine
 62
7
  6
CONTINUOUS
 10
-87.5404255509
 20
-2.5
 11
-87.5404255509
 21
-2.0625000149
  0
LINE
  5
289
100
AcDbEntity
  8
RACCORDO
100
AcDbLine
 62
250
  6
CONTINUOUS
 10
-88.9416807152
 20
40.1287102966
 11
-88.9425880081
 21
39.382246477
  0
LINE
  5
28A
100
AcDbEntity
  8
RACCORDO
100
AcDbLine
 62
250
  6
CONTINUOUS
 10
-88.9396203661
 20
40.4587299888
 11
-88.9416807152
 21
40.1287102966
  0
LINE
  5
28B
100
AcDbEntity
  8
RACCORDO
100
AcDbLine
 62
250
  6
CONTINUOUS
 10
-88.4411083783
 20
40.0167336255
 11
-88.4421133401
 21
39.882721145
  0
LINE
  5
28C
100
AcDbEntity
  8
RACCORDO
100
AcDbLine
 62
250
  6
CONTINUOUS
 10
-88.9379044594
 20
40.61947045
 11
-88.9396203661
 21
40.4587299888
  0
LINE
  5
28D
100
AcDbEntity
  8
RACCORDO
100
AcDbLine
 62
250
  6
CONTINUOUS
 10
-88.4396394966
 20
40.1359714998
 11
-88.4411083783
 21
40.0167336255
  0
LINE
  5
28E
100
AcDbEntity
  8
RACCORDO
100
AcDbLine
 62
250
  6
CONTINUOUS
 10
-88.9366001803
 20
40.7072042722
 11
-88.9379044594
 21
40.61947045
  0
LINE
  5
28F
100
AcDbEntity
  8
RACCORDO
100
AcDbLine
 62
250
  6
CONTINUOUS
 10
-88.4384329418
 20
40.204615307
 11
-88.4396394966
 21
40.1359714998
  0
LINE
  5
290
100
AcDbEntity
  8
0
100
AcDbLine
 62
7
  6
CONTINUOUS
 10
-89.1361702204
 20
1.8750001192
 11
-89.2
 21
1.4375
  0
LINE
  5
291
100
AcDbEntity
  8
0
100
AcDbLine
 62
7
  6
CONTINUOUS
 10
-88.8808511019
 20
1.5000001192
 11
-88.8170213223
 21
1.8125
  0
LWPOLYLINE
  5
292
100
AcDbEntity
  8
RACCORDO
100
AcDbPolyline
 62
7
  6
CONTINUOUS
 90
7
 70
0
 10
-100.3821703245
 20
-26.2064316619
 10
-100.3822620994
 20
-26.2068001082
 10
-100.3823538819
 20
-26.207118172
 10
-100.3824456719
 20
-26.2073858533
 10
-100.3825374695
 20
-26.2076031521
 10
-100.3826292746
 20
-26.2077700684
 10
-100.3827210873
 20
-26.2078866022
  0
LWPOLYLINE
  5
293
100
AcDbEntity
  8
DRAFT
100
AcDbPolyline
 62
7
  6
CONTINUOUS
 90
12
 70
0
 10
-79.5314433737
 20
41.115896487
 10
-79.5278713114
 20
41.1210023381
 10
-79.4992851742
 20
41.1310033154
 10
-79.441840581
 20
41.1409916724
 10
-79.3558098506
 20
41.1509534736
 10
-79.2420099393
 20
41.1607938018
 10
-79.100407901
 20
41.1704981888
 10
-78.9310366818
 20
41.1800811028
 10
-78.7348120768
 20
41.1894910311
 10
-78.5112599952
 20
41.1987391569
 10
-78.2608545279
 20
41.207814297
 10
-77.9859337428
 20
41.2166313899
  0
LWPOLYLINE
  5
294
100
AcDbEntity
  8
RACCORDO
100
AcDbPolyline
 62
7
  6
CONTINUOUS
 90
3
 70
0
 10
-88.5235423264
 20
39.8069582697
 10
-88.6119487131
 20
39.7135453996
 10
-88.6307771167
 20
39.6941278168
  0
LINE
  5
295
100
AcDbEntity
  8
RACCORDO
100
AcDbLine
 62
250
  6
CONTINUOUS
 10
-88.8584990636
 20
40.9468267582
 11
-88.9305827057
 21
40.8747431161
  0
LINE
  5
296
100
AcDbEntity
  8
RACCORDO
100
AcDbLine
 62
250
  6
CONTINUOUS
 10
-88.358575216
 20
40.4469029106
 11
-88.4306588581
 21
40.3748192685
  0
LINE
  5
297
100
AcDbEntity
  8
RACCORDO
100
AcDbLine
 62
7
  6
CONTINUOUS
 10
-88.358575216
 20
39.9662592691
 11
-88.4421133401
 21
39.882721145
  0
LINE
  5
298
100
AcDbEntity
  8
RACCORDO
100
AcDbLine
 62
7
  6
CONTINUOUS
 10
-88.6307771167
 20
39.6941278168
 11
-88.7053415577
 21
39.6193748117
  0
LWPOLYLINE
  5
299
100
AcDbEntity
  8
RACCORDO
100
AcDbPolyline
 62
7
  6
CONTINUOUS
 90
3
 70
0
 10
-88.7053415577
 20
39.6193748117
 10
-88.8689584926
 20
39.4560772134
 10
-88.9425880081
 20
39.382246477
  0
LWPOLYLINE
  5
29A
100
AcDbEntity
  8
RACCORDO
100
AcDbPolyline
 62
7
  6
CONTINUOUS
 90
3
 70
0
 10
-100.3069582697
 20
-32.2735423264
 10
-100.2135453996
 20
-32.3619487131
 10
-100.1941278168
 20
-32.3807771167
  0
LINE
  5
29B
100
AcDbEntity
  8
RACCORDO
100
AcDbLine
 62
250
  6
CONTINUOUS
 10
-100.9469029106
 20
-32.108575216
 11
-100.8748192685
 21
-32.1806588581
  0
LINE
  5
29C
100
AcDbEntity
  8
RACCORDO
100
AcDbLine
 62
7
  6
CONTINUOUS
 10
-100.4662592691
 20
-32.108575216
 11
-100.382721145
 21
-32.1921133401
  0
LINE
  5
29D
100
AcDbEntity
  8
RACCORDO
100
AcDbLine
 62
7
  6
CONTINUOUS
 10
-100.1941278168
 20
-32.3807771167
 11
-100.1193748117
 21
-32.4553415577
  0
LWPOLYLINE
  5
29E
100
AcDbEntity
  8
RACCORDO
100
AcDbPolyline
 62
7
  6
CONTINUOUS
 90
3
 70
0
 10
-100.1193748117
 20
-32.4553415577
 10
-99.9560772134
 20
-32.6189584926
 10
-99.8822464769
 20
-32.6925880081
  0
LWPOLYLINE
  5
29F
100
AcDbEntity
  8
DRAFT
100
AcDbPolyline
 62
7
  6
CONTINUOUS
 90
13
 70
0
 10
-79.5314433737
 20
-41.115896487
 10
-79.5278713114
 20
-41.1210023381
 10
-79.4992851742
 20
-41.1310033154
 10
-79.441840581
 20
-41.1409916723
 10
-79.3558098506
 20
-41.1509534736
 10
-79.2420099393
 20
-41.1607938018
 10
-79.100407901
 20
-41.1704981888
 10
-78.9310366818
 20
-41.1800811028
 10
-78.7348120768
 20
-41.1894910311
 10
-78.5112599952
 20
-41.1987391569
 10
-78.2608545279
 20
-41.207814297
 10
-77.9859337428
 20
-41.2166313899
 10
-77.3628860812
 20
-41.2334657182
  0
LINE
  5
2A0
100
AcDbEntity
  8
0
100
AcDbLine
 62
7
  6
CONTINUOUS
 10
-89.2
 20
1.3125001192
 11
-89.1361702204
 21
0.875
  0
LWPOLYLINE
  5
2A1
100
AcDbEntity
  8
RACCORDO
100
AcDbPolyline
 62
250
  6
CONTINUOUS
 90
16
 70
0
 10
-88.4306588581
 20
40.3748192685
 10
-88.4334122763
 20
40.4270647886
 10
-88.4416105718
 20
40.4787382352
 10
-88.4551639917
 20
40.5292736895
 10
-88.4739241349
 20
40.5781176923
 10
-88.4976855739
 20
40.6247352985
 10
-88.5261881013
 20
40.6686159366
 10
-88.5591195877
 20
40.7092790159
 10
-88.5961193913
 20
40.7462791746
 10
-88.6367822978
 20
40.7792111553
 10
-88.6806629841
 20
40.8077142682
 10
-88.727280878
 20
40.8314763231
 10
-88.7761254034
 20
40.8502370457
 10
-88.8266616073
 20
40.8637909487
 10
-88.8783360226
 20
40.8719895753
 10
-88.9305827058
 20
40.8747431161
  0
LWPOLYLINE
  5
2A2
100
AcDbEntity
  8
RACCORDO
100
AcDbPolyline
 62
250
  6
CONTINUOUS
 90
16
 70
0
 10
-88.358575216
 20
40.4469029106
 10
-88.3613287036
 20
40.4991490889
 10
-88.3695271835
 20
40.5508230688
 10
-88.383080866
 20
40.6013589188
 10
-88.4018413118
 20
40.6502031721
 10
-88.4256030572
 20
40.6968208882
 10
-88.4541058643
 20
40.7407015113
 10
-88.4870375714
 20
40.7813644626
 10
-88.5240375116
 20
40.8183644029
 10
-88.5647004629
 20
40.85129611
 10
-88.6085810861
 20
40.8797989171
 10
-88.6551988021
 20
40.9035606624
 10
-88.7040430554
 20
40.9223211082
 10
-88.7545789054
 20
40.9358747908
 10
-88.8062528854
 20
40.9440732706
 10
-88.8584990636
 20
40.9468267582
  0
LWPOLYLINE
  5
2A3
100
AcDbEntity
  8
RACCORDO
100
AcDbPolyline
 62
250
  6
CONTINUOUS
 90
8
 70
0
 10
-82.4636577087
 20
40.2879728056
 10
-82.4644147748
 20
40.309977488
 10
-82.465196594
 20
40.3288593862
 10
-82.4660028644
 20
40.3446701832
 10
-82.4668216481
 20
40.3571932343
 10
-82.467648966
 20
40.3663563249
 10
-82.4684887972
 20
40.3722316696
 10
-82.4693411419
 20
40.3748192685
  0
LWPOLYLINE
  5
2A4
100
AcDbEntity
  8
RACCORDO
100
AcDbPolyline
 62
250
  6
CONTINUOUS
 90
6
 70
0
 10
-81.9655465758
 20
40.8059397378
 10
-81.9663017919
 20
40.829503036
 10
-81.9670674101
 20
40.8482268862
 10
-81.9678403026
 20
40.8620393461
 10
-81.9686235973
 20
40.870888332
 10
-81.9694172943
 20
40.8747431161
  0
LINE
  5
2A5
100
AcDbEntity
  8
RACCORDO
100
AcDbLine
 62
250
  6
CONTINUOUS
 10
-82.4622279625
 20
40.2351218303
 11
-82.4636577087
 21
40.2879728056
  0
LINE
  5
2A6
100
AcDbEntity
  8
RACCORDO
100
AcDbLine
 62
250
  6
CONTINUOUS
 10
-81.9640955897
 20
40.7446697358
 11
-81.9655465758
 21
40.8059397378
  0
LINE
  5
2A7
100
AcDbEntity
  8
RACCORDO
100
AcDbLine
 62
250
  6
CONTINUOUS
 10
-82.4609416376
 20
40.1714093775
 11
-82.4622279625
 21
40.2351218303
  0
LINE
  5
2A8
100
AcDbEntity
  8
RACCORDO
100
AcDbLine
 62
250
  6
CONTINUOUS
 10
-81.962732957
 20
40.6654080484
 11
-81.9640955897
 21
40.7446697358
  0
LINE
  5
2A9
100
AcDbEntity
  8
RACCORDO
100
AcDbLine
 62
250
  6
CONTINUOUS
 10
-82.4593321223
 20
40.0583179827
 11
-82.4609416376
 21
40.1714093775
  0
LINE
  5
2AA
100
AcDbEntity
  8
RACCORDO
100
AcDbLine
 62
250
  6
CONTINUOUS
 10
-81.9609149354
 20
40.5159224306
 11
-81.962732957
 21
40.6654080484
  0
LWPOLYLINE
  5
2AB
100
AcDbEntity
  8
RACCORDO
100
AcDbPolyline
 62
250
  6
CONTINUOUS
 90
3
 70
0
 10
-82.45788666
 20
39.882721145
 10
-82.4581701005
 20
39.9290335958
 10
-82.4593321223
 20
40.0583179827
  0
LINE
  5
2AC
100
AcDbEntity
  8
RACCORDO
100
AcDbLine
 62
250
  6
CONTINUOUS
 10
-81.9586418039
 20
40.1996222953
 11
-81.9609149354
 21
40.5159224306
  0
LINE
  5
2AD
100
AcDbEntity
  8
RACCORDO
100
AcDbLine
 62
250
  6
CONTINUOUS
 10
-81.9574135063
 20
39.6749258819
 11
-81.9586418039
 21
40.1996222953
  0
LINE
  5
2AE
100
AcDbEntity
  8
0
100
AcDbLine
 62
7
  6
CONTINUOUS
 10
-86.9659574449
 20
-2.125
 11
-86.9659574449
 21
-2.5
  0
LINE
  5
2AF
100
AcDbEntity
  8
0
100
AcDbLine
 62
7
  6
CONTINUOUS
 10
-86.9021276653
 20
0.5625001192
 11
-86.9021276653
 21
0.2500000596
  0
LINE
  5
2B0
100
AcDbEntity
  8
0
100
AcDbLine
 62
7
  6
CONTINUOUS
 10
-86.5191489428
 20
1.5624998808
 11
-86.5191489428
 21
1.1874998808
  0
LINE
  5
2B1
100
AcDbEntity
  8
0
100
AcDbLine
 62
7
  6
CONTINUOUS
 10
-86.5191489428
 20
-1.1875
 11
-86.5191489428
 21
-1.5625
  0
LINE
  5
2B2
100
AcDbEntity
  8
0
100
AcDbLine
 62
7
  6
CONTINUOUS
 10
-86.2
 20
-1.5625
 11
-86.2
 21
-1.1875
  0
LINE
  5
2B3
100
AcDbEntity
  8
0
100
AcDbLine
 62
7
  6
CONTINUOUS
 10
-86.2
 20
1.1250001192
 11
-86.2
 21
1.625
  0
LINE
  5
2B4
100
AcDbEntity
  8
0
100
AcDbLine
 62
7
  6
CONTINUOUS
 10
-85.6
 20
-16.0
 11
-85.6
 21
16.0
  0
LINE
  5
2B5
100
AcDbEntity
  8
0
100
AcDbLine
 62
7
  6
CONTINUOUS
 10
-85.4
 20
16.0
 11
-85.4
 21
-16.0
  0
LINE
  5
2B6
100
AcDbEntity
  8
RACCORDO
100
AcDbLine
 62
250
  6
CONTINUOUS
 10
-83.0413486316
 20
39.9748344851
 11
-83.0413486316
 21
40.9639771903
  0
LINE
  5
2B7
100
AcDbEntity
  8
RACCORDO
100
AcDbLine
 62
250
  6
CONTINUOUS
 10
-82.541424784
 20
40.4469029106
 11
-82.541424784
 21
39.9662592691
  0
LINE
  5
2B8
100
AcDbEntity
  8
RACCORDO
100
AcDbLine
 62
250
  6
CONTINUOUS
 10
-81.9574119919
 20
39.382246477
 11
-81.9574119919
 21
39.6749258819
  0
LWPOLYLINE
  5
2B9
100
AcDbEntity
  8
RACCORDO
100
AcDbPolyline
 62
250
  6
CONTINUOUS
 90
16
 70
0
 10
-82.541424784
 20
40.4469029106
 10
-82.5386713035
 20
40.4991490209
 10
-82.5304728435
 20
40.5508229421
 10
-82.5169191908
 20
40.6013587442
 10
-82.4981587825
 20
40.6502029605
 10
-82.4743970792
 20
40.6968206521
 10
-82.4458943138
 20
40.7407012663
 10
-82.4129626441
 20
40.7813642234
 10
-82.3759627339
 20
40.8183641819
 10
-82.3352998003
 20
40.8512959187
 10
-82.2914191794
 20
40.8797987637
 10
-82.2448014488
 20
40.9035605507
 10
-82.1959571615
 20
40.9223210377
 10
-82.1454212575
 20
40.9358747561
 10
-82.0937472047
 20
40.9440732611
 10
-82.0415009364
 20
40.9468267582
  0
LWPOLYLINE
  5
2BA
100
AcDbEntity
  8
RACCORDO
100
AcDbPolyline
 62
250
  6
CONTINUOUS
 90
16
 70
0
 10
-82.4693411419
 20
40.3748192685
 10
-82.4665876542
 20
40.4270654467
 10
-82.4583891744
 20
40.4787394267
 10
-82.4448354919
 20
40.5292752767
 10
-82.4260750461
 20
40.57811953
 10
-82.4023133007
 20
40.624737246
 10
-82.3738104936
 20
40.6686178692
 10
-82.3408787866
 20
40.7092808205
 10
-82.3038788463
 20
40.7462807607
 10
-82.263215895
 20
40.7792124678
 10
-82.2193352718
 20
40.8077152749
 10
-82.1727175558
 20
40.8314770203
 10
-82.1238733025
 20
40.8502374661
 10
-82.0733374525
 20
40.8637911486
 10
-82.0216634725
 20
40.8719896285
 10
-81.9694172943
 20
40.8747431161
  0
LINE
  5
2BB
100
AcDbEntity
  8
0
100
AcDbLine
 62
7
  6
CONTINUOUS
 10
-87.6042553306
 20
1.5000001192
 11
-87.5404255509
 21
1.8750001192
  0
LINE
  5
2BC
100
AcDbEntity
  8
0
100
AcDbLine
 62
7
  6
CONTINUOUS
 10
-88.0510637879
 20
-0.8749999404
 11
-88.1148935676
 21
-1.1875
  0
LINE
  5
2BD
100
AcDbEntity
  8
0
100
AcDbLine
 62
7
  6
CONTINUOUS
 10
-86.5191489428
 20
1.1874998808
 11
-86.5829787225
 21
0.875
  0
LINE
  5
2BE
100
AcDbEntity
  8
0
100
AcDbLine
 62
7
  6
CONTINUOUS
 10
-86.2638297852
 20
-1.8750000149
 11
-86.2
 21
-1.5625
  0
LINE
  5
2BF
100
AcDbEntity
  8
0
100
AcDbLine
 62
7
  6
CONTINUOUS
 10
-87.7957446694
 20
-1.1875
 11
-87.7319148898
 21
-0.9375000596
  0
LINE
  5
2C0
100
AcDbEntity
  8
0
100
AcDbLine
 62
7
  6
CONTINUOUS
 10
-86.2638297852
 20
0.875
 11
-86.2
 21
1.1250001192
  0
LINE
  5
2C1
100
AcDbEntity
  8
0
100
AcDbLine
 62
7
  6
CONTINUOUS
 10
-86.5191489428
 20
-1.5625
 11
-86.5829787225
 21
-1.8124999851
  0
LINE
  5
2C2
100
AcDbEntity
  8
0
100
AcDbLine
 62
7
  6
CONTINUOUS
 10
-87.6042553306
 20
2.3124998808
 11
-87.7319148898
 21
2.0
  0
LINE
  5
2C3
100
AcDbEntity
  8
0
100
AcDbLine
 62
7
  6
CONTINUOUS
 10
-89.0085106611
 20
2.1249998808
 11
-89.1361702204
 21
1.8750001192
  0
LWPOLYLINE
  5
2C4
100
AcDbEntity
  8
RACCORDO
100
AcDbPolyline
 62
7
  6
CONTINUOUS
 90
7
 70
0
 10
-88.4421133978
 20
39.8827210873
 10
-88.4422300673
 20
39.8826292232
 10
-88.4423970651
 20
39.8825373872
 10
-88.442614391
 20
39.8824455793
 10
-88.4428820451
 20
39.8823537996
 10
-88.4432000274
 20
39.882262048
 10
-88.4435683378
 20
39.8821703245
  0
LINE
  5
2C5
100
AcDbEntity
  8
0
100
AcDbLine
 62
7
  6
CONTINUOUS
 10
-87.9872340083
 20
1.8750001192
 11
-87.8595744491
 21
1.5000001192
  0
LINE
  5
2C6
100
AcDbEntity
  8
0
100
AcDbLine
 62
7
  6
CONTINUOUS
 10
-87.7319148898
 20
-1.8124999851
 11
-87.7957446694
 21
-1.5625
  0
LINE
  5
2C7
100
AcDbEntity
  8
0
100
AcDbLine
 62
7
  6
CONTINUOUS
 10
-86.5829787225
 20
-0.9375000596
 11
-86.5191489428
 21
-1.1875
  0
LINE
  5
2C8
100
AcDbEntity
  8
0
100
AcDbLine
 62
7
  6
CONTINUOUS
 10
-86.2
 20
1.625
 11
-86.2638297852
 21
1.8750001192
  0
LINE
  5
2C9
100
AcDbEntity
  8
0
100
AcDbLine
 62
7
  6
CONTINUOUS
 10
-88.8170213223
 20
0.9375001192
 11
-88.8808511019
 21
1.25
  0
LINE
  5
2CA
100
AcDbEntity
  8
0
100
AcDbLine
 62
7
  6
CONTINUOUS
 10
-88.1148935676
 20
-1.5625
 11
-88.0510637879
 21
-1.8750000149
  0
LINE
  5
2CB
100
AcDbEntity
  8
0
100
AcDbLine
 62
7
  6
CONTINUOUS
 10
-86.2
 20
-1.1875
 11
-86.2638297852
 21
-0.8749999404
  0
LINE
  5
2CC
100
AcDbEntity
  8
0
100
AcDbLine
 62
7
  6
CONTINUOUS
 10
-86.5829787225
 20
1.8750001192
 11
-86.5191489428
 21
1.5624998808
  0
LINE
  5
2CD
100
AcDbEntity
  8
0
100
AcDbLine
 62
7
  6
CONTINUOUS
 10
-75.0
 20
26.4
 11
-75.0
 21
26.6
  0
LINE
  5
2CE
100
AcDbEntity
  8
0
100
AcDbLine
 62
7
  6
CONTINUOUS
 10
-86.5829787225
 20
0.875
 11
-86.6468085021
 21
0.7500001192
  0
LINE
  5
2CF
100
AcDbEntity
  8
0
100
AcDbLine
 62
7
  6
CONTINUOUS
 10
-86.3914893612
 20
0.6249998808
 11
-86.2638297852
 21
0.875
  0
LWPOLYLINE
  5
2D0
100
AcDbEntity
  8
RACCORDO
100
AcDbPolyline
 62
250
  6
CONTINUOUS
 90
11
 70
0
 10
-101.4468267582
 20
-25.7915009364
 10
-101.4476747836
 20
-25.7930814044
 10
-101.4485454739
 20
-25.7977178437
 10
-101.4494388292
 20
-25.8054102543
 10
-101.4503617216
 20
-25.8159975061
 10
-101.451307279
 20
-25.8296407293
 10
-101.4522548853
 20
-25.8468233138
 10
-101.4532051184
 20
-25.8677043155
 10
-101.4541574004
 20
-25.8921246784
 10
-101.4550893816
 20
-25.920090625
 10
-101.4568906631
 20
-25.9869696018
  0
LINE
  5
2D1
100
AcDbEntity
  8
0
100
AcDbLine
 62
7
  6
CONTINUOUS
 10
-87.8595744491
 20
-0.5625000596
 11
-88.0510637879
 21
-0.8749999404
  0
LINE
  5
2D2
100
AcDbEntity
  8
0
100
AcDbLine
 62
7
  6
CONTINUOUS
 10
-86.4553191409
 20
-2.1875000074
 11
-86.2638297852
 21
-1.8750000149
  0
LINE
  5
2D3
100
AcDbEntity
  8
0
100
AcDbLine
 62
7
  6
CONTINUOUS
 10
-88.8170213223
 20
1.8125
 11
-88.689361763
 21
2.0
  0
LINE
  5
2D4
100
AcDbEntity
  8
0
100
AcDbLine
 62
7
  6
CONTINUOUS
 10
-87.5404255509
 20
1.8750001192
 11
-87.4127659917
 21
2.0625001192
  0
LWPOLYLINE
  5
2D5
100
AcDbEntity
  8
RACCORDO
100
AcDbPolyline
 62
7
  6
CONTINUOUS
 90
9
 70
0
 10
-88.4435683378
 20
39.8821703245
 10
-88.4472995131
 20
39.8804070307
 10
-88.4528895386
 20
39.8763276025
 10
-88.4603384143
 20
39.8699645827
 10
-88.4697997247
 20
39.8613115083
 10
-88.4811198852
 20
39.8504483789
 10
-88.4938381431
 20
39.837652374
 10
-88.5079911861
 20
39.8231039511
 10
-88.5235423264
 20
39.8069582697
  0
LINE
  5
2D6
100
AcDbEntity
  8
0
100
AcDbLine
 62
7
  6
CONTINUOUS
 10
-88.689361763
 20
0.7500001192
 11
-88.8170213223
 21
0.9375001192
  0
LINE
  5
2D7
100
AcDbEntity
  8
0
100
AcDbLine
 62
7
  6
CONTINUOUS
 10
-88.0510637879
 20
-1.8750000149
 11
-87.8595744491
 21
-2.1875000074
  0
LINE
  5
2D8
100
AcDbEntity
  8
0
100
AcDbLine
 62
7
  6
CONTINUOUS
 10
-86.2638297852
 20
-0.8749999404
 11
-86.4553191409
 21
-0.5625000596
  0
LINE
  5
2D9
100
AcDbEntity
  8
0
100
AcDbLine
 62
7
  6
CONTINUOUS
 10
-89.1361702204
 20
0.875
 11
-89.0085106611
 21
0.6249998808
  0
LINE
  5
2DA
100
AcDbEntity
  8
0
100
AcDbLine
 62
7
  6
CONTINUOUS
 10
-86.6468085021
 20
2.0
 11
-86.5829787225
 21
1.8750001192
  0
LINE
  5
2DB
100
AcDbEntity
  8
0
100
AcDbLine
 62
7
  6
CONTINUOUS
 10
-86.2638297852
 20
1.8750001192
 11
-86.3914893612
 21
2.1249998808
  0
LINE
  5
2DC
100
AcDbEntity
  8
0
100
AcDbLine
 62
7
  6
CONTINUOUS
 10
-68.75
 20
-11.4816392509
 11
-68.75
 21
-10.398724427
  0
LINE
  5
2DD
100
AcDbEntity
  8
0
100
AcDbLine
 62
7
  6
CONTINUOUS
 10
-68.75
 20
10.398724427
 11
-68.75
 21
11.481639251
  0
LINE
  5
2DE
100
AcDbEntity
  8
0
100
AcDbLine
 62
7
  6
CONTINUOUS
 10
-67.25
 20
11.481639251
 11
-67.25
 21
10.398724427
  0
LINE
  5
2DF
100
AcDbEntity
  8
0
100
AcDbLine
 62
7
  6
CONTINUOUS
 10
-67.25
 20
-10.398724427
 11
-67.25
 21
-11.4816392509
  0
LINE
  5
2E0
100
AcDbEntity
  8
0
100
AcDbLine
 62
7
  6
CONTINUOUS
 10
-87.7319148898
 20
-0.9375000596
 11
-87.6042553306
 21
-0.7500000596
  0
LINE
  5
2E1
100
AcDbEntity
  8
0
100
AcDbLine
 62
7
  6
CONTINUOUS
 10
-86.5191489428
 20
0.4375000596
 11
-86.3914893612
 21
0.6249998808
  0
LINE
  5
2E2
100
AcDbEntity
  8
0
100
AcDbLine
 62
7
  6
CONTINUOUS
 10
-86.5829787225
 20
-1.8124999851
 11
-86.7106382817
 21
-1.9999999851
  0
LWPOLYLINE
  5
2E3
100
AcDbEntity
  8
DRAFT
100
AcDbPolyline
 62
7
  6
CONTINUOUS
 90
12
 70
0
 10
-56.4685566263
 20
41.115896487
 10
-56.4721286886
 20
41.1109748051
 10
-56.5007148258
 20
41.1009738277
 10
-56.558159419
 20
41.0909854708
 10
-56.6441901494
 20
41.0810236696
 10
-56.7579900607
 20
41.0711833414
 10
-56.899592099
 20
41.0614789544
 10
-57.0689633182
 20
41.0518960404
 10
-57.2651879232
 20
41.042486112
 10
-57.4887400048
 20
41.0332379863
 10
-57.7391454721
 20
41.0241628462
 10
-58.0140662572
 20
41.0153457533
  0
LWPOLYLINE
  5
2E4
100
AcDbEntity
  8
DRAFT
100
AcDbPolyline
 62
7
  6
CONTINUOUS
 90
12
 70
0
 10
-101.615896487
 20
-11.5314433737
 10
-101.6210023381
 20
-11.5278713114
 10
-101.6310033154
 20
-11.4992851742
 10
-101.6409916723
 20
-11.441840581
 10
-101.6509534736
 20
-11.3558098506
 10
-101.6607938018
 20
-11.2420099393
 10
-101.6704981888
 20
-11.100407901
 10
-101.6800811028
 20
-10.9310366818
 10
-101.6894910311
 20
-10.7348120768
 10
-101.6987391569
 20
-10.5112599952
 10
-101.707814297
 20
-10.2608545279
 10
-101.7166313899
 20
-9.9859337428
  0
LINE
  5
2E5
100
AcDbEntity
  8
0
100
AcDbLine
 62
7
  6
CONTINUOUS
 10
-87.5404255509
 20
-2.0625000149
 11
-87.7319148898
 21
-1.8124999851
  0
LINE
  5
2E6
100
AcDbEntity
  8
0
100
AcDbLine
 62
7
  6
CONTINUOUS
 10
-87.7319148898
 20
2.0
 11
-87.9234042287
 21
2.2500001192
  0
LWPOLYLINE
  5
2E7
100
AcDbEntity
  8
DRAFT
100
AcDbPolyline
 62
7
  6
CONTINUOUS
 90
13
 70
0
 10
-56.4685566263
 20
-41.115896487
 10
-56.4721286886
 20
-41.1109748051
 10
-56.5007148258
 20
-41.1009738277
 10
-56.558159419
 20
-41.0909854708
 10
-56.6441901494
 20
-41.0810236696
 10
-56.7579900607
 20
-41.0711833414
 10
-56.899592099
 20
-41.0614789544
 10
-57.0689633182
 20
-41.0518960404
 10
-57.2651879232
 20
-41.042486112
 10
-57.4887400048
 20
-41.0332379863
 10
-57.7391454721
 20
-41.0241628462
 10
-58.0140662572
 20
-41.0153457533
 10
-58.6371139188
 20
-40.998511425
  0
LINE
  5
2E8
100
AcDbEntity
  8
0
100
AcDbLine
 62
7
  6
CONTINUOUS
 10
-86.7106382817
 20
-0.7500000596
 11
-86.5829787225
 21
-0.9375000596
  0
LINE
  5
2E9
100
AcDbEntity
  8
0
100
AcDbLine
 62
7
  6
CONTINUOUS
 10
-86.3914893612
 20
2.1249998808
 11
-86.5191489428
 21
2.3124998808
  0
LWPOLYLINE
  5
2EA
100
AcDbEntity
  8
RACCORDO
100
AcDbPolyline
 62
250
  6
CONTINUOUS
 90
16
 70
0
 10
-100.9469029106
 20
-26.291424784
 10
-100.9477508914
 20
-26.2924299084
 10
-100.9486215551
 20
-26.2947040893
 10
-100.9495149018
 20
-26.2983774893
 10
-100.9504378009
 20
-26.3035992481
 10
-100.9513833829
 20
-26.3104881162
 10
-100.9523310395
 20
-26.3190839862
 10
-100.9532813602
 20
-26.3294665333
 10
-100.9542337554
 20
-26.3417046271
 10
-100.9551658478
 20
-26.3557239393
 10
-100.9560767458
 20
-26.3715283268
 10
-100.9569673409
 20
-26.3891201606
 10
-100.9578179311
 20
-26.4083252841
 10
-100.9586266709
 20
-26.42907891
 10
-100.9593954057
 20
-26.4513233036
 10
-100.9607682308
 20
-26.4994576046
  0
LINE
  5
2EB
100
AcDbEntity
  8
0
100
AcDbLine
 62
7
  6
CONTINUOUS
 10
-88.7531915426
 20
2.375
 11
-89.0085106611
 21
2.1249998808
  0
LINE
  5
2EC
100
AcDbEntity
  8
0
100
AcDbLine
 62
7
  6
CONTINUOUS
 10
-86.6468085021
 20
0.7500001192
 11
-86.774468106
 21
0.6249998808
  0
LWPOLYLINE
  5
2ED
100
AcDbEntity
  8
RACCORDO
100
AcDbPolyline
 62
250
  6
CONTINUOUS
 90
10
 70
0
 10
-100.8748192685
 20
-32.1806588581
 10
-100.8722316668
 20
-32.1815112027
 10
-100.8663563206
 20
-32.182351034
 10
-100.8571932299
 20
-32.1831783518
 10
-100.8446701809
 20
-32.1839971356
 10
-100.8288593874
 20
-32.184803406
 10
-100.8099774912
 20
-32.1855852252
 10
-100.7879728079
 20
-32.1863422913
 10
-100.7628970218
 20
-32.1870749063
 10
-100.704615307
 20
-32.1884329418
  0
LINE
  5
2EE
100
AcDbEntity
  8
0
100
AcDbLine
 62
7
  6
CONTINUOUS
 10
-89.0085106611
 20
0.6249998808
 11
-88.7531915426
 21
0.3749999404
  0
LINE
  5
2EF
100
AcDbEntity
  8
0
100
AcDbLine
 62
7
  6
CONTINUOUS
 10
-88.1148935676
 20
2.0
 11
-87.9872340083
 21
1.8750001192
  0
LINE
  5
2F0
100
AcDbEntity
  8
0
100
AcDbLine
 62
7
  6
CONTINUOUS
 10
-86.774468106
 20
2.1249998808
 11
-86.6468085021
 21
2.0
  0
LINE
  5
2F1
100
AcDbEntity
  8
RACCORDO
100
AcDbLine
 62
250
  6
CONTINUOUS
 10
-101.3747431161
 20
-25.7194172943
 11
-101.4468267582
 21
-25.7915009364
  0
LINE
  5
2F2
100
AcDbEntity
  8
RACCORDO
100
AcDbLine
 62
250
  6
CONTINUOUS
 10
-100.8748192685
 20
-26.2193411419
 11
-100.9469029106
 21
-26.291424784
  0
LINE
  5
2F3
100
AcDbEntity
  8
RACCORDO
100
AcDbLine
 62
7
  6
CONTINUOUS
 10
-100.4662592691
 20
-26.291424784
 11
-100.3827210873
 21
-26.2078866022
  0
LINE
  5
2F4
100
AcDbEntity
  8
RACCORDO
100
AcDbLine
 62
7
  6
CONTINUOUS
 10
-99.9197565292
 20
-25.7446612171
 11
-100.1478613442
 21
-25.9731629246
  0
LINE
  5
2F5
100
AcDbEntity
  8
RACCORDO
100
AcDbLine
 62
7
  6
CONTINUOUS
 10
-100.1478613442
 20
-25.9731629246
 11
-100.1945186682
 21
-26.0195828208
  0
LINE
  5
2F6
100
AcDbEntity
  8
RACCORDO
100
AcDbLine
 62
7
  6
CONTINUOUS
 10
-99.8822464769
 20
-25.7074119919
 11
-99.9197565292
 21
-25.7446612171
  0
LINE
  5
2F7
100
AcDbEntity
  8
RACCORDO
100
AcDbLine
 62
7
  6
CONTINUOUS
 10
-100.1945186682
 20
-26.0195828208
 11
-100.2142161248
 21
-26.0386795953
  0
LWPOLYLINE
  5
2F8
100
AcDbEntity
  8
RACCORDO
100
AcDbPolyline
 62
7
  6
CONTINUOUS
 90
9
 70
0
 10
-100.3077489267
 20
-26.1272033656
 10
-100.323829093
 20
-26.1426947844
 10
-100.3382538924
 20
-26.1567550688
 10
-100.3508570636
 20
-26.1693176043
 10
-100.3615272705
 20
-26.1804490055
 10
-100.3700554462
 20
-26.189764581
 10
-100.3763589959
 20
-26.1971361003
 10
-100.3804127815
 20
-26.2026917939
 10
-100.3821703245
 20
-26.2064316619
  0
LINE
  5
2F9
100
AcDbEntity
  8
0
100
AcDbLine
 62
7
  6
CONTINUOUS
 10
-87.6042553306
 20
-0.3750000596
 11
-87.8595744491
 21
-0.5625000596
  0
LWPOLYLINE
  5
2FA
100
AcDbEntity
  8
RACCORDO
100
AcDbPolyline
 62
250
  6
CONTINUOUS
 90
8
 70
0
 10
-101.3747431161
 20
-32.6805827057
 10
-101.370888332
 20
-32.6813764027
 10
-101.3620393461
 20
-32.6821596975
 10
-101.3482268862
 20
-32.68293259
 10
-101.329503036
 20
-32.6836982083
 10
-101.3059397378
 20
-32.6844534243
 10
-101.277627357
 20
-32.6851888541
 10
-101.2072042722
 20
-32.6866001802
  0
LINE
  5
2FB
100
AcDbEntity
  8
0
100
AcDbLine
 62
7
  6
CONTINUOUS
 10
-86.4553191409
 20
-0.5625000596
 11
-86.7106382817
 21
-0.3750000596
  0
LINE
  5
2FC
100
AcDbEntity
  8
RACCORDO
100
AcDbLine
 62
7
  6
CONTINUOUS
 10
-100.2142161248
 20
-26.0386795953
 11
-100.3077489267
 21
-26.1272033656
  0
LINE
  5
2FD
100
AcDbEntity
  8
0
100
AcDbLine
 62
7
  6
CONTINUOUS
 10
-86.7106382817
 20
-2.3749999963
 11
-86.4553191409
 21
-2.1875000074
  0
LINE
  5
2FE
100
AcDbEntity
  8
0
100
AcDbLine
 62
7
  6
CONTINUOUS
 10
-88.689361763
 20
2.0
 11
-88.4978724241
 21
2.1249998808
  0
LINE
  5
2FF
100
AcDbEntity
  8
0
100
AcDbLine
 62
7
  6
CONTINUOUS
 10
-87.4127659917
 20
2.4375001192
 11
-87.6042553306
 21
2.3124998808
  0
LINE
  5
300
100
AcDbEntity
  8
0
100
AcDbLine
 62
7
  6
CONTINUOUS
 10
-86.7106382817
 20
0.3125
 11
-86.5191489428
 21
0.4375000596
  0
LINE
  5
301
100
AcDbEntity
  8
0
100
AcDbLine
 62
7
  6
CONTINUOUS
 10
-87.6042553306
 20
-0.7500000596
 11
-87.4127659917
 21
-0.625
  0
LWPOLYLINE
  5
302
100
AcDbEntity
  8
RACCORDO
100
AcDbPolyline
 62
250
  6
CONTINUOUS
 90
14
 70
0
 10
88.2209144998
 20
-40.4586269168
 10
88.2416641204
 20
-40.4578183717
 10
88.2608661902
 20
-40.4569679847
 10
88.2784558916
 20
-40.4560775977
 10
88.2942593675
 20
-40.4551668789
 10
88.3082788236
 20
-40.454234937
 10
88.3205179397
 20
-40.4532826631
 10
88.3309024134
 20
-40.452332399
 10
88.3395008012
 20
-40.4513847322
 10
88.3463924717
 20
-40.4504390752
 10
88.3516171202
 20
-40.4495160066
 10
88.3552931261
 20
-40.4486223861
 10
88.357569216
 20
-40.4477513541
 10
88.358575216
 20
-40.4469029106
  0
LWPOLYLINE
  5
303
100
AcDbEntity
  8
RACCORDO
100
AcDbPolyline
 62
250
  6
CONTINUOUS
 90
10
 70
0
 10
88.7298759897
 20
-40.9550904167
 10
88.7578423667
 20
-40.954158583
 10
88.7822651552
 20
-40.9532064196
 10
88.8031496842
 20
-40.9522562412
 10
88.8203371742
 20
-40.9513086238
 10
88.8339864047
 20
-40.9503629915
 10
88.8445790422
 20
-40.9494399301
 10
88.8522756423
 20
-40.9485463018
 10
88.8569156494
 20
-40.9476752445
 10
88.8584990636
 20
-40.9468267582
  0
LWPOLYLINE
  5
304
100
AcDbEntity
  8
DRAFT
100
AcDbPolyline
 62
7
  6
CONTINUOUS
 90
12
 70
0
 10
77.9859337428
 20
-41.2166313899
 10
78.2608545279
 20
-41.207814297
 10
78.5112599952
 20
-41.1987391569
 10
78.7348120768
 20
-41.1894910311
 10
78.9310366818
 20
-41.1800811028
 10
79.100407901
 20
-41.1704981888
 10
79.2420099393
 20
-41.1607938018
 10
79.3558098506
 20
-41.1509534736
 10
79.441840581
 20
-41.1409916723
 10
79.4992851742
 20
-41.1310033154
 10
79.5278713114
 20
-41.1210023381
 10
79.5314433737
 20
-41.115896487
  0
LINE
  5
305
100
AcDbEntity
  8
RACCORDO
100
AcDbLine
 62
250
  6
CONTINUOUS
 10
88.1751874538
 20
-40.4601098648
 11
88.2209144998
 21
-40.4586269168
  0
LINE
  5
306
100
AcDbEntity
  8
DRAFT
100
AcDbLine
 62
7
  6
CONTINUOUS
 10
77.3628860812
 20
-41.2334657182
 11
77.9859337428
 21
-41.2166313899
  0
LINE
  5
307
100
AcDbEntity
  8
RACCORDO
100
AcDbLine
 62
250
  6
CONTINUOUS
 10
88.6630028616
 20
-40.9568913176
 11
88.7298759897
 21
-40.9550904167
  0
LINE
  5
308
100
AcDbEntity
  8
0
100
AcDbLine
 62
7
  6
CONTINUOUS
 10
-86.9021276653
 20
-0.625
 11
-86.7106382817
 21
-0.7500000596
  0
LINE
  5
309
100
AcDbEntity
  8
0
100
AcDbLine
 62
7
  6
CONTINUOUS
 10
-88.4978724241
 20
0.6249998808
 11
-88.689361763
 21
0.7500001192
  0
LINE
  5
30A
100
AcDbEntity
  8
0
100
AcDbLine
 62
7
  6
CONTINUOUS
 10
-87.9234042287
 20
2.2500001192
 11
-88.1148935676
 21
2.375
  0
LINE
  5
30B
100
AcDbEntity
  8
0
100
AcDbLine
 62
7
  6
CONTINUOUS
 10
-86.5191489428
 20
2.3124998808
 11
-86.7106382817
 21
2.4375001192
  0
LWPOLYLINE
  5
30C
100
AcDbEntity
  8
DRAFT
100
AcDbPolyline
 62
7
  6
CONTINUOUS
 90
12
 70
0
 10
-101.615896487
 20
11.5314433737
 10
-101.6109748051
 20
11.5278713114
 10
-101.6009738277
 20
11.4992851742
 10
-101.5909854708
 20
11.441840581
 10
-101.5810236696
 20
11.3558098506
 10
-101.5711833414
 20
11.2420099393
 10
-101.5614789544
 20
11.100407901
 10
-101.5518960404
 20
10.9310366818
 10
-101.542486112
 20
10.7348120768
 10
-101.5332379863
 20
10.5112599952
 10
-101.5241628462
 20
10.2608545279
 10
-101.5153457533
 20
9.9859337428
  0
LINE
  5
30D
100
AcDbEntity
  8
0
100
AcDbLine
 62
7
  6
CONTINUOUS
 10
-87.4127659917
 20
2.0625001192
 11
-87.1574467838
 21
2.1875
  0
LINE
  5
30E
100
AcDbEntity
  8
0
100
AcDbLine
 62
7
  6
CONTINUOUS
 10
-86.774468106
 20
0.6249998808
 11
-86.9021276653
 21
0.5625001192
  0
LINE
  5
30F
100
AcDbEntity
  8
0
100
AcDbLine
 62
7
  6
CONTINUOUS
 10
-86.7106382817
 20
-1.9999999851
 11
-86.9659574449
 21
-2.125
  0
LINE
  5
310
100
AcDbEntity
  8
0
100
AcDbLine
 62
7
  6
CONTINUOUS
 10
-86.9659574449
 20
-2.5
 11
-86.7106382817
 21
-2.3749999963
  0
LWPOLYLINE
  5
311
100
AcDbEntity
  8
DRAFT
100
AcDbPolyline
 62
7
  6
CONTINUOUS
 90
12
 70
0
 10
58.0140662572
 20
-41.0153457533
 10
57.7391454721
 20
-41.0241628462
 10
57.4887400048
 20
-41.0332379863
 10
57.2651879232
 20
-41.042486112
 10
57.0689633182
 20
-41.0518960404
 10
56.899592099
 20
-41.0614789544
 10
56.7579900607
 20
-41.0711833414
 10
56.6441901494
 20
-41.0810236696
 10
56.558159419
 20
-41.0909854708
 10
56.5007148258
 20
-41.1009738277
 10
56.4721286886
 20
-41.1109748051
 10
56.4685566263
 20
-41.115896487
  0
LWPOLYLINE
  5
312
100
AcDbEntity
  8
DRAFT
100
AcDbPolyline
 62
7
  6
CONTINUOUS
 90
12
 70
0
 10
9.9859337428
 20
-41.2166313899
 10
10.2608545279
 20
-41.207814297
 10
10.5112599952
 20
-41.1987391569
 10
10.7348120768
 20
-41.1894910311
 10
10.9310366818
 20
-41.1800811028
 10
11.100407901
 20
-41.1704981888
 10
11.2420099393
 20
-41.1607938018
 10
11.3558098506
 20
-41.1509534736
 10
11.441840581
 20
-41.1409916723
 10
11.4992851742
 20
-41.1310033154
 10
11.5278713114
 20
-41.1210023381
 10
11.5314433737
 20
-41.115896487
  0
LWPOLYLINE
  5
313
100
AcDbEntity
  8
DRAFT
100
AcDbPolyline
 62
7
  6
CONTINUOUS
 90
12
 70
0
 10
-9.9859337428
 20
-41.0153457533
 10
-10.2608545279
 20
-41.0241628462
 10
-10.5112599952
 20
-41.0332379863
 10
-10.7348120768
 20
-41.042486112
 10
-10.9310366818
 20
-41.0518960404
 10
-11.100407901
 20
-41.0614789544
 10
-11.2420099393
 20
-41.0711833414
 10
-11.3558098506
 20
-41.0810236696
 10
-11.441840581
 20
-41.0909854708
 10
-11.4992851742
 20
-41.1009738277
 10
-11.5278713114
 20
-41.1109748051
 10
-11.5314433737
 20
-41.115896487
  0
LWPOLYLINE
  5
314
100
AcDbEntity
  8
DRAFT
100
AcDbPolyline
 62
7
  6
CONTINUOUS
 90
12
 70
0
 10
-58.0140662572
 20
-41.2166313899
 10
-57.7391454721
 20
-41.207814297
 10
-57.4887400048
 20
-41.1987391569
 10
-57.2651879232
 20
-41.1894910311
 10
-57.0689633182
 20
-41.1800811028
 10
-56.899592099
 20
-41.1704981888
 10
-56.7579900607
 20
-41.1607938018
 10
-56.6441901494
 20
-41.1509534736
 10
-56.558159419
 20
-41.1409916723
 10
-56.5007148258
 20
-41.1310033154
 10
-56.4721286886
 20
-41.1210023381
 10
-56.4685566263
 20
-41.115896487
  0
LWPOLYLINE
  5
315
100
AcDbEntity
  8
DRAFT
100
AcDbPolyline
 62
7
  6
CONTINUOUS
 90
12
 70
0
 10
-77.9859337428
 20
-41.0153457533
 10
-78.2608545279
 20
-41.0241628462
 10
-78.5112599952
 20
-41.0332379863
 10
-78.7348120768
 20
-41.042486112
 10
-78.9310366818
 20
-41.0518960404
 10
-79.100407901
 20
-41.0614789544
 10
-79.2420099393
 20
-41.0711833414
 10
-79.3558098506
 20
-41.0810236696
 10
-79.441840581
 20
-41.0909854708
 10
-79.4992851742
 20
-41.1009738277
 10
-79.5278713114
 20
-41.1109748051
 10
-79.5314433737
 20
-41.115896487
  0
LINE
  5
316
100
AcDbEntity
  8
DRAFT
100
AcDbLine
 62
7
  6
CONTINUOUS
 10
58.6371139188
 20
-40.998511425
 11
58.0140662572
 21
-41.0153457533
  0
LINE
  5
317
100
AcDbEntity
  8
DRAFT
100
AcDbLine
 62
7
  6
CONTINUOUS
 10
9.3628860812
 20
-41.2334657182
 11
9.9859337428
 21
-41.2166313899
  0
LINE
  5
318
100
AcDbEntity
  8
DRAFT
100
AcDbLine
 62
7
  6
CONTINUOUS
 10
-9.3628860812
 20
-40.998511425
 11
-9.9859337428
 21
-41.0153457533
  0
LINE
  5
319
100
AcDbEntity
  8
DRAFT
100
AcDbLine
 62
7
  6
CONTINUOUS
 10
-58.6371139188
 20
-41.2334657182
 11
-58.0140662572
 21
-41.2166313899
  0
LINE
  5
31A
100
AcDbEntity
  8
DRAFT
100
AcDbLine
 62
7
  6
CONTINUOUS
 10
-77.3628860812
 20
-40.998511425
 11
-77.9859337428
 21
-41.0153457533
  0
LINE
  5
31B
100
AcDbEntity
  8
RACCORDO
100
AcDbLine
 62
250
  6
CONTINUOUS
 10
88.1248780448
 20
-40.4613719972
 11
88.1751874538
 21
-40.4601098648
  0
LINE
  5
31C
100
AcDbEntity
  8
DRAFT
100
AcDbLine
 62
7
  6
CONTINUOUS
 10
76.6466911205
 20
-41.2491352136
 11
77.3628860812
 21
-41.2334657182
  0
LINE
  5
31D
100
AcDbEntity
  8
DRAFT
100
AcDbLine
 62
7
  6
CONTINUOUS
 10
59.3533088795
 20
-40.9828419296
 11
58.6371139188
 21
-40.998511425
  0
LINE
  5
31E
100
AcDbEntity
  8
DRAFT
100
AcDbLine
 62
7
  6
CONTINUOUS
 10
8.6466911205
 20
-41.2491352136
 11
9.3628860812
 21
-41.2334657182
  0
LINE
  5
31F
100
AcDbEntity
  8
DRAFT
100
AcDbLine
 62
7
  6
CONTINUOUS
 10
-8.6466911205
 20
-40.9828419296
 11
-9.3628860812
 21
-40.998511425
  0
LINE
  5
320
100
AcDbEntity
  8
DRAFT
100
AcDbLine
 62
7
  6
CONTINUOUS
 10
-59.3533088795
 20
-41.2491352136
 11
-58.6371139188
 21
-41.2334657182
  0
LINE
  5
321
100
AcDbEntity
  8
DRAFT
100
AcDbLine
 62
7
  6
CONTINUOUS
 10
-76.6466911205
 20
-40.9828419296
 11
-77.3628860812
 21
-40.998511425
  0
LINE
  5
322
100
AcDbEntity
  8
RACCORDO
100
AcDbLine
 62
250
  6
CONTINUOUS
 10
88.5832155946
 20
-40.9585501184
 11
88.6630028616
 21
-40.9568913176
  0
LINE
  5
323
100
AcDbEntity
  8
RACCORDO
100
AcDbLine
 62
250
  6
CONTINUOUS
 10
88.0714806935
 20
-40.4623916861
 11
88.1248780448
 21
-40.4613719972
  0
LINE
  5
324
100
AcDbEntity
  8
DRAFT
100
AcDbLine
 62
7
  6
CONTINUOUS
 10
75.8427179715
 20
-41.2635264444
 11
76.6466911205
 21
-41.2491352136
  0
LINE
  5
325
100
AcDbEntity
  8
DRAFT
100
AcDbLine
 62
7
  6
CONTINUOUS
 10
60.1572820285
 20
-40.9684506988
 11
59.3533088795
 21
-40.9828419296
  0
LINE
  5
326
100
AcDbEntity
  8
DRAFT
100
AcDbLine
 62
7
  6
CONTINUOUS
 10
7.8427179715
 20
-41.2635264444
 11
8.6466911205
 21
-41.2491352136
  0
LINE
  5
327
100
AcDbEntity
  8
DRAFT
100
AcDbLine
 62
7
  6
CONTINUOUS
 10
-7.8427179715
 20
-40.9684506988
 11
-8.6466911205
 21
-40.9828419296
  0
LINE
  5
328
100
AcDbEntity
  8
DRAFT
100
AcDbLine
 62
7
  6
CONTINUOUS
 10
-60.1572820285
 20
-41.2635264444
 11
-59.3533088795
 21
-41.2491352136
  0
LINE
  5
329
100
AcDbEntity
  8
DRAFT
100
AcDbLine
 62
7
  6
CONTINUOUS
 10
-75.8427179715
 20
-40.9684506988
 11
-76.6466911205
 21
-40.9828419296
  0
LINE
  5
32A
100
AcDbEntity
  8
DRAFT
100
AcDbLine
 62
7
  6
CONTINUOUS
 10
74.9627108391
 20
-41.2764120979
 11
75.8427179715
 21
-41.2635264444
  0
LINE
  5
32B
100
AcDbEntity
  8
DRAFT
100
AcDbLine
 62
7
  6
CONTINUOUS
 10
61.0372891609
 20
-40.9555650453
 11
60.1572820285
 21
-40.9684506988
  0
LINE
  5
32C
100
AcDbEntity
  8
DRAFT
100
AcDbLine
 62
7
  6
CONTINUOUS
 10
6.9627108391
 20
-41.2764120979
 11
7.8427179715
 21
-41.2635264444
  0
LINE
  5
32D
100
AcDbEntity
  8
DRAFT
100
AcDbLine
 62
7
  6
CONTINUOUS
 10
-6.9627108391
 20
-40.9555650453
 11
-7.8427179715
 21
-40.9684506988
  0
LINE
  5
32E
100
AcDbEntity
  8
DRAFT
100
AcDbLine
 62
7
  6
CONTINUOUS
 10
-61.0372891609
 20
-41.2764120979
 11
-60.1572820285
 21
-41.2635264444
  0
LINE
  5
32F
100
AcDbEntity
  8
DRAFT
100
AcDbLine
 62
7
  6
CONTINUOUS
 10
-74.9627108391
 20
-40.9555650453
 11
-75.8427179715
 21
-40.9684506988
  0
LINE
  5
330
100
AcDbEntity
  8
RACCORDO
100
AcDbLine
 62
250
  6
CONTINUOUS
 10
88.4425627642
 20
-40.9606911851
 11
88.5832155946
 21
-40.9585501184
  0
LINE
  5
331
100
AcDbEntity
  8
RACCORDO
100
AcDbLine
 62
250
  6
CONTINUOUS
 10
88.0164551663
 20
-40.4631610564
 11
88.0714806935
 21
-40.4623916861
  0
LINE
  5
332
100
AcDbEntity
  8
DRAFT
100
AcDbLine
 62
7
  6
CONTINUOUS
 10
74.0137421798
 20
-41.2877014814
 11
74.9627108391
 21
-41.2764120979
  0
LINE
  5
333
100
AcDbEntity
  8
DRAFT
100
AcDbLine
 62
7
  6
CONTINUOUS
 10
61.9862578202
 20
-40.9442756617
 11
61.0372891609
 21
-40.9555650453
  0
LINE
  5
334
100
AcDbEntity
  8
DRAFT
100
AcDbLine
 62
7
  6
CONTINUOUS
 10
6.0137421798
 20
-41.2877014814
 11
6.9627108391
 21
-41.2764120979
  0
LINE
  5
335
100
AcDbEntity
  8
DRAFT
100
AcDbLine
 62
7
  6
CONTINUOUS
 10
-6.0137421798
 20
-40.9442756617
 11
-6.9627108391
 21
-40.9555650453
  0
LINE
  5
336
100
AcDbEntity
  8
DRAFT
100
AcDbLine
 62
7
  6
CONTINUOUS
 10
-61.9862578202
 20
-41.2877014814
 11
-61.0372891609
 21
-41.2764120979
  0
LINE
  5
337
100
AcDbEntity
  8
DRAFT
100
AcDbLine
 62
7
  6
CONTINUOUS
 10
-74.0137421798
 20
-40.9442756617
 11
-74.9627108391
 21
-40.9555650453
  0
LINE
  5
338
100
AcDbEntity
  8
DRAFT
100
AcDbLine
 62
7
  6
CONTINUOUS
 10
73.0028023393
 20
-41.2973136888
 11
74.0137421798
 21
-41.2877014814
  0
LINE
  5
339
100
AcDbEntity
  8
DRAFT
100
AcDbLine
 62
7
  6
CONTINUOUS
 10
62.9971976607
 20
-40.9346634543
 11
61.9862578202
 21
-40.9442756617
  0
LINE
  5
33A
100
AcDbEntity
  8
DRAFT
100
AcDbLine
 62
7
  6
CONTINUOUS
 10
5.0028023393
 20
-41.2973136888
 11
6.0137421798
 21
-41.2877014814
  0
LINE
  5
33B
100
AcDbEntity
  8
DRAFT
100
AcDbLine
 62
7
  6
CONTINUOUS
 10
-5.0028023393
 20
-40.9346634543
 11
-6.0137421798
 21
-40.9442756617
  0
LINE
  5
33C
100
AcDbEntity
  8
DRAFT
100
AcDbLine
 62
7
  6
CONTINUOUS
 10
-62.9971976607
 20
-41.2973136888
 11
-61.9862578202
 21
-41.2877014814
  0
LINE
  5
33D
100
AcDbEntity
  8
DRAFT
100
AcDbLine
 62
7
  6
CONTINUOUS
 10
-73.0028023393
 20
-40.9346634543
 11
-74.0137421798
 21
-40.9442756617
  0
LINE
  5
33E
100
AcDbEntity
  8
RACCORDO
100
AcDbLine
 62
250
  6
CONTINUOUS
 10
88.2293660627
 20
-40.9627308274
 11
88.4425627642
 21
-40.9606911851
  0
LINE
  5
33F
100
AcDbEntity
  8
DRAFT
100
AcDbLine
 62
7
  6
CONTINUOUS
 10
71.9437421037
 20
-41.3051032254
 11
73.0028023393
 21
-41.2973136888
  0
LINE
  5
340
100
AcDbEntity
  8
DRAFT
100
AcDbLine
 62
7
  6
CONTINUOUS
 10
64.0562578963
 20
-40.9268739177
 11
62.9971976607
 21
-40.9346634543
  0
LINE
  5
341
100
AcDbEntity
  8
DRAFT
100
AcDbLine
 62
7
  6
CONTINUOUS
 10
3.9437421037
 20
-41.3051032254
 11
5.0028023393
 21
-41.2973136888
  0
LINE
  5
342
100
AcDbEntity
  8
DRAFT
100
AcDbLine
 62
7
  6
CONTINUOUS
 10
-3.9437421037
 20
-40.9268739177
 11
-5.0028023393
 21
-40.9346634543
  0
LINE
  5
343
100
AcDbEntity
  8
DRAFT
100
AcDbLine
 62
7
  6
CONTINUOUS
 10
-64.0562578963
 20
-41.3051032254
 11
-62.9971976607
 21
-41.2973136888
  0
LINE
  5
344
100
AcDbEntity
  8
DRAFT
100
AcDbLine
 62
7
  6
CONTINUOUS
 10
-71.9437421037
 20
-40.9268739177
 11
-73.0028023393
 21
-40.9346634543
  0
LINE
  5
345
100
AcDbEntity
  8
RACCORDO
100
AcDbLine
 62
250
  6
CONTINUOUS
 10
87.9347593539
 20
-40.4638498801
 11
88.0164551663
 21
-40.4631610564
  0
LINE
  5
346
100
AcDbEntity
  8
DRAFT
100
AcDbLine
 62
7
  6
CONTINUOUS
 10
70.8463053056
 20
-41.3110101025
 11
71.9437421037
 21
-41.3051032254
  0
LINE
  5
347
100
AcDbEntity
  8
DRAFT
100
AcDbLine
 62
7
  6
CONTINUOUS
 10
2.8463053056
 20
-41.3110101025
 11
3.9437421037
 21
-41.3051032254
  0
LINE
  5
348
100
AcDbEntity
  8
DRAFT
100
AcDbLine
 62
7
  6
CONTINUOUS
 10
65.1536946944
 20
-40.9209670407
 11
64.0562578963
 21
-40.9268739177
  0
LINE
  5
349
100
AcDbEntity
  8
DRAFT
100
AcDbLine
 62
7
  6
CONTINUOUS
 10
-65.1536946944
 20
-41.3110101025
 11
-64.0562578963
 21
-41.3051032254
  0
LINE
  5
34A
100
AcDbEntity
  8
DRAFT
100
AcDbLine
 62
7
  6
CONTINUOUS
 10
-2.8463053056
 20
-40.9209670407
 11
-3.9437421037
 21
-40.9268739177
  0
LINE
  5
34B
100
AcDbEntity
  8
DRAFT
100
AcDbLine
 62
7
  6
CONTINUOUS
 10
-70.8463053056
 20
-40.9209670407
 11
-71.9437421037
 21
-40.9268739177
  0
LINE
  5
34C
100
AcDbEntity
  8
DRAFT
100
AcDbLine
 62
7
  6
CONTINUOUS
 10
69.7184845139
 20
-41.3149923325
 11
70.8463053056
 21
-41.3110101025
  0
LINE
  5
34D
100
AcDbEntity
  8
DRAFT
100
AcDbLine
 62
7
  6
CONTINUOUS
 10
1.7184845139
 20
-41.3149923325
 11
2.8463053056
 21
-41.3110101025
  0
LINE
  5
34E
100
AcDbEntity
  8
DRAFT
100
AcDbLine
 62
7
  6
CONTINUOUS
 10
66.2815154861
 20
-40.9169848106
 11
65.1536946944
 21
-40.9209670407
  0
LINE
  5
34F
100
AcDbEntity
  8
DRAFT
100
AcDbLine
 62
7
  6
CONTINUOUS
 10
-66.2815154861
 20
-41.3149923325
 11
-65.1536946944
 21
-41.3110101025
  0
LINE
  5
350
100
AcDbEntity
  8
DRAFT
100
AcDbLine
 62
7
  6
CONTINUOUS
 10
-1.7184845139
 20
-40.9169848106
 11
-2.8463053056
 21
-40.9209670407
  0
LINE
  5
351
100
AcDbEntity
  8
DRAFT
100
AcDbLine
 62
7
  6
CONTINUOUS
 10
-69.7184845139
 20
-40.9169848106
 11
-70.8463053056
 21
-40.9209670407
  0
LINE
  5
352
100
AcDbEntity
  8
RACCORDO
100
AcDbLine
 62
250
  6
CONTINUOUS
 10
87.9589180908
 20
-40.9638954475
 11
88.2293660627
 21
-40.9627308274
  0
LINE
  5
353
100
AcDbEntity
  8
DRAFT
100
AcDbLine
 62
7
  6
CONTINUOUS
 10
68.5769914638
 20
-41.3169849197
 11
69.7184845139
 21
-41.3149923325
  0
LINE
  5
354
100
AcDbEntity
  8
DRAFT
100
AcDbLine
 62
7
  6
CONTINUOUS
 10
0.5769914638
 20
-41.3169849197
 11
1.7184845139
 21
-41.3149923325
  0
LINE
  5
355
100
AcDbEntity
  8
DRAFT
100
AcDbLine
 62
7
  6
CONTINUOUS
 10
-67.4230085362
 20
-41.3169849197
 11
-66.2815154861
 21
-41.3149923325
  0
LINE
  5
356
100
AcDbEntity
  8
DRAFT
100
AcDbLine
 62
7
  6
CONTINUOUS
 10
67.4230085362
 20
-40.9149922235
 11
66.2815154861
 21
-40.9169848106
  0
LINE
  5
357
100
AcDbEntity
  8
DRAFT
100
AcDbLine
 62
7
  6
CONTINUOUS
 10
-0.5769914638
 20
-40.9149922235
 11
-1.7184845139
 21
-40.9169848106
  0
LINE
  5
358
100
AcDbEntity
  8
DRAFT
100
AcDbLine
 62
7
  6
CONTINUOUS
 10
-68.5769914638
 20
-40.9149922235
 11
-69.7184845139
 21
-40.9169848106
  0
LINE
  5
359
100
AcDbEntity
  8
RACCORDO
100
AcDbLine
 62
250
  6
CONTINUOUS
 10
87.8586513684
 20
-40.4640533427
 11
87.9347593539
 21
-40.4638498801
  0
LINE
  5
35A
100
AcDbEntity
  8
DRAFT
100
AcDbLine
 62
7
  6
CONTINUOUS
 10
-96.0
 20
-41.5
 11
96.0
 21
-41.5
  0
LINE
  5
35B
100
AcDbEntity
  8
SKEL
100
AcDbLine
 62
7
  6
CONTINUOUS
 10
96.0000000088
 20
-41.5000003491
 11
-96.0000000088
 21
-41.5000003491
  0
LINE
  5
35C
100
AcDbEntity
  8
RACCORDO
100
AcDbLine
 62
250
  6
CONTINUOUS
 10
-96.0
 20
-40.8747431161
 11
81.9694172943
 21
-40.8747431161
  0
LINE
  5
35D
100
AcDbEntity
  8
RACCORDO
100
AcDbLine
 62
250
  6
CONTINUOUS
 10
88.9305827057
 20
-40.8747431161
 11
96.0
 21
-40.8747431161
  0
LINE
  5
35E
100
AcDbEntity
  8
0
100
AcDbLine
 62
7
  6
CONTINUOUS
 10
-96.0
 20
-39.9751240074
 11
-94.2248759926
 21
-39.9751240074
  0
LINE
  5
35F
100
AcDbEntity
  8
0
100
AcDbLine
 62
7
  6
CONTINUOUS
 10
94.2248759926
 20
-39.9751240074
 11
96.0
 21
-39.9751240074
  0
LINE
  5
360
100
AcDbEntity
  8
RACCORDO
100
AcDbLine
 62
7
  6
CONTINUOUS
 10
83.0413486316
 20
-39.9748344851
 11
87.8586513684
 21
-39.9748344851
  0
LINE
  5
361
100
AcDbEntity
  8
RACCORDO
100
AcDbLine
 62
250
  6
CONTINUOUS
 10
82.4564316619
 20
-39.8821703245
 11
88.4435683378
 21
-39.8821703245
  0
LINE
  5
362
100
AcDbEntity
  8
DRAFT
100
AcDbLine
 62
7
  6
CONTINUOUS
 10
96.0
 20
-39.7
 11
94.5
 21
-39.7
  0
LINE
  5
363
100
AcDbEntity
  8
DRAFT
100
AcDbLine
 62
7
  6
CONTINUOUS
 10
-94.5
 20
-39.7
 11
-96.0
 21
-39.7
  0
LINE
  5
364
100
AcDbEntity
  8
RACCORDO
100
AcDbLine
 62
250
  6
CONTINUOUS
 10
-94.2242099741
 20
-39.6749258819
 11
82.2500746359
 21
-39.6749258633
  0
LINE
  5
365
100
AcDbEntity
  8
RACCORDO
100
AcDbLine
 62
250
  6
CONTINUOUS
 10
88.6499253618
 20
-39.674925864
 11
94.2242099741
 21
-39.6749258819
  0
LINE
  5
366
100
AcDbEntity
  8
RACCORDO
100
AcDbLine
 62
250
  6
CONTINUOUS
 10
81.9574119919
 20
-39.3822464769
 11
88.9425880081
 21
-39.3822464769
  0
LINE
  5
367
100
AcDbEntity
  8
DRAFT
100
AcDbLine
 62
7
  6
CONTINUOUS
 10
-68.5769914638
 20
-41.3169849197
 11
-67.4230085362
 21
-41.3169849197
  0
LINE
  5
368
100
AcDbEntity
  8
DRAFT
100
AcDbLine
 62
7
  6
CONTINUOUS
 10
-0.5769914638
 20
-41.3169849197
 11
0.5769914638
 21
-41.3169849197
  0
LINE
  5
369
100
AcDbEntity
  8
DRAFT
100
AcDbLine
 62
7
  6
CONTINUOUS
 10
67.4230085362
 20
-41.3169849197
 11
68.5769914638
 21
-41.3169849197
  0
LINE
  5
36A
100
AcDbEntity
  8
DRAFT
100
AcDbLine
 62
7
  6
CONTINUOUS
 10
-67.4230085362
 20
-40.9149922235
 11
-68.5769914638
 21
-40.9149922235
  0
LINE
  5
36B
100
AcDbEntity
  8
DRAFT
100
AcDbLine
 62
7
  6
CONTINUOUS
 10
0.5769914638
 20
-40.9149922235
 11
-0.5769914638
 21
-40.9149922235
  0
LINE
  5
36C
100
AcDbEntity
  8
DRAFT
100
AcDbLine
 62
7
  6
CONTINUOUS
 10
68.5769914638
 20
-40.9149922235
 11
67.4230085362
 21
-40.9149922235
  0
LINE
  5
36D
100
AcDbEntity
  8
DRAFT
100
AcDbLine
 62
7
  6
CONTINUOUS
 10
-69.7184845139
 20
-41.3149923325
 11
-68.5769914638
 21
-41.3169849197
  0
LINE
  5
36E
100
AcDbEntity
  8
DRAFT
100
AcDbLine
 62
7
  6
CONTINUOUS
 10
-1.7184845139
 20
-41.3149923325
 11
-0.5769914638
 21
-41.3169849197
  0
LINE
  5
36F
100
AcDbEntity
  8
DRAFT
100
AcDbLine
 62
7
  6
CONTINUOUS
 10
66.2815154861
 20
-41.3149923325
 11
67.4230085362
 21
-41.3169849197
  0
LINE
  5
370
100
AcDbEntity
  8
DRAFT
100
AcDbLine
 62
7
  6
CONTINUOUS
 10
-66.2815154861
 20
-40.9169848106
 11
-67.4230085362
 21
-40.9149922235
  0
LINE
  5
371
100
AcDbEntity
  8
DRAFT
100
AcDbLine
 62
7
  6
CONTINUOUS
 10
1.7184845139
 20
-40.9169848106
 11
0.5769914638
 21
-40.9149922235
  0
LINE
  5
372
100
AcDbEntity
  8
DRAFT
100
AcDbLine
 62
7
  6
CONTINUOUS
 10
69.7184845139
 20
-40.9169848106
 11
68.5769914638
 21
-40.9149922235
  0
LINE
  5
373
100
AcDbEntity
  8
RACCORDO
100
AcDbLine
 62
250
  6
CONTINUOUS
 10
82.8891406754
 20
-40.963773796
 11
87.9589180908
 21
-40.9638954475
  0
LINE
  5
374
100
AcDbEntity
  8
RACCORDO
100
AcDbLine
 62
250
  6
CONTINUOUS
 10
82.9913757168
 20
-40.4639717174
 11
87.8586513684
 21
-40.4640533427
  0
LINE
  5
375
100
AcDbEntity
  8
DRAFT
100
AcDbLine
 62
7
  6
CONTINUOUS
 10
-70.8463053056
 20
-41.3110101025
 11
-69.7184845139
 21
-41.3149923325
  0
LINE
  5
376
100
AcDbEntity
  8
DRAFT
100
AcDbLine
 62
7
  6
CONTINUOUS
 10
-2.8463053056
 20
-41.3110101025
 11
-1.7184845139
 21
-41.3149923325
  0
LINE
  5
377
100
AcDbEntity
  8
DRAFT
100
AcDbLine
 62
7
  6
CONTINUOUS
 10
-65.1536946944
 20
-40.9209670407
 11
-66.2815154861
 21
-40.9169848106
  0
LINE
  5
378
100
AcDbEntity
  8
DRAFT
100
AcDbLine
 62
7
  6
CONTINUOUS
 10
65.1536946944
 20
-41.3110101025
 11
66.2815154861
 21
-41.3149923325
  0
LINE
  5
379
100
AcDbEntity
  8
DRAFT
100
AcDbLine
 62
7
  6
CONTINUOUS
 10
2.8463053056
 20
-40.9209670407
 11
1.7184845139
 21
-40.9169848106
  0
LINE
  5
37A
100
AcDbEntity
  8
DRAFT
100
AcDbLine
 62
7
  6
CONTINUOUS
 10
70.8463053056
 20
-40.9209670407
 11
69.7184845139
 21
-40.9169848106
  0
LINE
  5
37B
100
AcDbEntity
  8
DRAFT
100
AcDbLine
 62
7
  6
CONTINUOUS
 10
-71.9437421037
 20
-41.3051032254
 11
-70.8463053056
 21
-41.3110101025
  0
LINE
  5
37C
100
AcDbEntity
  8
DRAFT
100
AcDbLine
 62
7
  6
CONTINUOUS
 10
-3.9437421037
 20
-41.3051032254
 11
-2.8463053056
 21
-41.3110101025
  0
LINE
  5
37D
100
AcDbEntity
  8
DRAFT
100
AcDbLine
 62
7
  6
CONTINUOUS
 10
-64.0562578963
 20
-40.9268739177
 11
-65.1536946944
 21
-40.9209670407
  0
LINE
  5
37E
100
AcDbEntity
  8
DRAFT
100
AcDbLine
 62
7
  6
CONTINUOUS
 10
64.0562578963
 20
-41.3051032254
 11
65.1536946944
 21
-41.3110101025
  0
LINE
  5
37F
100
AcDbEntity
  8
DRAFT
100
AcDbLine
 62
7
  6
CONTINUOUS
 10
3.9437421037
 20
-40.9268739177
 11
2.8463053056
 21
-40.9209670407
  0
LINE
  5
380
100
AcDbEntity
  8
DRAFT
100
AcDbLine
 62
7
  6
CONTINUOUS
 10
71.9437421037
 20
-40.9268739177
 11
70.8463053056
 21
-40.9209670407
  0
LINE
  5
381
100
AcDbEntity
  8
RACCORDO
100
AcDbLine
 62
250
  6
CONTINUOUS
 10
82.615578247
 20
-40.9623154339
 11
82.8891406754
 21
-40.963773796
  0
LINE
  5
382
100
AcDbEntity
  8
DRAFT
100
AcDbLine
 62
7
  6
CONTINUOUS
 10
-73.0028023393
 20
-41.2973136888
 11
-71.9437421037
 21
-41.3051032254
  0
LINE
  5
383
100
AcDbEntity
  8
DRAFT
100
AcDbLine
 62
7
  6
CONTINUOUS
 10
-62.9971976607
 20
-40.9346634543
 11
-64.0562578963
 21
-40.9268739177
  0
LINE
  5
384
100
AcDbEntity
  8
DRAFT
100
AcDbLine
 62
7
  6
CONTINUOUS
 10
-5.0028023393
 20
-41.2973136888
 11
-3.9437421037
 21
-41.3051032254
  0
LINE
  5
385
100
AcDbEntity
  8
DRAFT
100
AcDbLine
 62
7
  6
CONTINUOUS
 10
5.0028023393
 20
-40.9346634543
 11
3.9437421037
 21
-40.9268739177
  0
LINE
  5
386
100
AcDbEntity
  8
DRAFT
100
AcDbLine
 62
7
  6
CONTINUOUS
 10
62.9971976607
 20
-41.2973136888
 11
64.0562578963
 21
-41.3051032254
  0
LINE
  5
387
100
AcDbEntity
  8
DRAFT
100
AcDbLine
 62
7
  6
CONTINUOUS
 10
73.0028023393
 20
-40.9346634543
 11
71.9437421037
 21
-40.9268739177
  0
LINE
  5
388
100
AcDbEntity
  8
RACCORDO
100
AcDbLine
 62
250
  6
CONTINUOUS
 10
82.9110905824
 20
-40.4634502834
 11
82.9913757168
 21
-40.4639717174
  0
LINE
  5
389
100
AcDbEntity
  8
DRAFT
100
AcDbLine
 62
7
  6
CONTINUOUS
 10
-74.0137421798
 20
-41.2877014814
 11
-73.0028023393
 21
-41.2973136888
  0
LINE
  5
38A
100
AcDbEntity
  8
DRAFT
100
AcDbLine
 62
7
  6
CONTINUOUS
 10
-61.9862578202
 20
-40.9442756617
 11
-62.9971976607
 21
-40.9346634543
  0
LINE
  5
38B
100
AcDbEntity
  8
DRAFT
100
AcDbLine
 62
7
  6
CONTINUOUS
 10
-6.0137421798
 20
-41.2877014814
 11
-5.0028023393
 21
-41.2973136888
  0
LINE
  5
38C
100
AcDbEntity
  8
DRAFT
100
AcDbLine
 62
7
  6
CONTINUOUS
 10
6.0137421798
 20
-40.9442756617
 11
5.0028023393
 21
-40.9346634543
  0
LINE
  5
38D
100
AcDbEntity
  8
DRAFT
100
AcDbLine
 62
7
  6
CONTINUOUS
 10
61.9862578202
 20
-41.2877014814
 11
62.9971976607
 21
-41.2973136888
  0
LINE
  5
38E
100
AcDbEntity
  8
DRAFT
100
AcDbLine
 62
7
  6
CONTINUOUS
 10
74.0137421798
 20
-40.9442756617
 11
73.0028023393
 21
-40.9346634543
  0
LINE
  5
38F
100
AcDbEntity
  8
RACCORDO
100
AcDbLine
 62
250
  6
CONTINUOUS
 10
82.4574541448
 20
-40.9606913948
 11
82.615578247
 21
-40.9623154339
  0
LINE
  5
390
100
AcDbEntity
  8
DRAFT
100
AcDbLine
 62
7
  6
CONTINUOUS
 10
-74.9627108391
 20
-41.2764120979
 11
-74.0137421798
 21
-41.2877014814
  0
LINE
  5
391
100
AcDbEntity
  8
DRAFT
100
AcDbLine
 62
7
  6
CONTINUOUS
 10
-61.0372891609
 20
-40.9555650453
 11
-61.9862578202
 21
-40.9442756617
  0
LINE
  5
392
100
AcDbEntity
  8
DRAFT
100
AcDbLine
 62
7
  6
CONTINUOUS
 10
-6.9627108391
 20
-41.2764120979
 11
-6.0137421798
 21
-41.2877014814
  0
LINE
  5
393
100
AcDbEntity
  8
DRAFT
100
AcDbLine
 62
7
  6
CONTINUOUS
 10
6.9627108391
 20
-40.9555650453
 11
6.0137421798
 21
-40.9442756617
  0
LINE
  5
394
100
AcDbEntity
  8
DRAFT
100
AcDbLine
 62
7
  6
CONTINUOUS
 10
61.0372891609
 20
-41.2764120979
 11
61.9862578202
 21
-41.2877014814
  0
LINE
  5
395
100
AcDbEntity
  8
DRAFT
100
AcDbLine
 62
7
  6
CONTINUOUS
 10
74.9627108391
 20
-40.9555650453
 11
74.0137421798
 21
-40.9442756617
  0
LINE
  5
396
100
AcDbEntity
  8
RACCORDO
100
AcDbLine
 62
250
  6
CONTINUOUS
 10
82.8560151775
 20
-40.4628077724
 11
82.9110905824
 21
-40.4634502834
  0
LINE
  5
397
100
AcDbEntity
  8
DRAFT
100
AcDbLine
 62
7
  6
CONTINUOUS
 10
-75.8427179715
 20
-41.2635264444
 11
-74.9627108391
 21
-41.2764120979
  0
LINE
  5
398
100
AcDbEntity
  8
DRAFT
100
AcDbLine
 62
7
  6
CONTINUOUS
 10
-60.1572820285
 20
-40.9684506988
 11
-61.0372891609
 21
-40.9555650453
  0
LINE
  5
399
100
AcDbEntity
  8
DRAFT
100
AcDbLine
 62
7
  6
CONTINUOUS
 10
-7.8427179715
 20
-41.2635264444
 11
-6.9627108391
 21
-41.2764120979
  0
LINE
  5
39A
100
AcDbEntity
  8
DRAFT
100
AcDbLine
 62
7
  6
CONTINUOUS
 10
7.8427179715
 20
-40.9684506988
 11
6.9627108391
 21
-40.9555650453
  0
LINE
  5
39B
100
AcDbEntity
  8
DRAFT
100
AcDbLine
 62
7
  6
CONTINUOUS
 10
60.1572820285
 20
-41.2635264444
 11
61.0372891609
 21
-41.2764120979
  0
LINE
  5
39C
100
AcDbEntity
  8
DRAFT
100
AcDbLine
 62
7
  6
CONTINUOUS
 10
75.8427179715
 20
-40.9684506988
 11
74.9627108391
 21
-40.9555650453
  0
LINE
  5
39D
100
AcDbEntity
  8
RACCORDO
100
AcDbLine
 62
250
  6
CONTINUOUS
 10
82.3167704792
 20
-40.9585498564
 11
82.4574541448
 21
-40.9606913948
  0
LINE
  5
39E
100
AcDbEntity
  8
RACCORDO
100
AcDbLine
 62
250
  6
CONTINUOUS
 10
82.8015393494
 20
-40.4619144622
 11
82.8560151775
 21
-40.4628077724
  0
LINE
  5
39F
100
AcDbEntity
  8
DRAFT
100
AcDbLine
 62
7
  6
CONTINUOUS
 10
-76.6466911205
 20
-41.2491352136
 11
-75.8427179715
 21
-41.2635264444
  0
LINE
  5
3A0
100
AcDbEntity
  8
DRAFT
100
AcDbLine
 62
7
  6
CONTINUOUS
 10
-59.3533088795
 20
-40.9828419296
 11
-60.1572820285
 21
-40.9684506988
  0
LINE
  5
3A1
100
AcDbEntity
  8
DRAFT
100
AcDbLine
 62
7
  6
CONTINUOUS
 10
-8.6466911205
 20
-41.2491352136
 11
-7.8427179715
 21
-41.2635264444
  0
LINE
  5
3A2
100
AcDbEntity
  8
DRAFT
100
AcDbLine
 62
7
  6
CONTINUOUS
 10
8.6466911205
 20
-40.9828419296
 11
7.8427179715
 21
-40.9684506988
  0
LINE
  5
3A3
100
AcDbEntity
  8
DRAFT
100
AcDbLine
 62
7
  6
CONTINUOUS
 10
59.3533088795
 20
-41.2491352136
 11
60.1572820285
 21
-41.2635264444
  0
LINE
  5
3A4
100
AcDbEntity
  8
DRAFT
100
AcDbLine
 62
7
  6
CONTINUOUS
 10
76.6466911205
 20
-40.9828419296
 11
75.8427179715
 21
-40.9684506988
  0
LINE
  5
3A5
100
AcDbEntity
  8
RACCORDO
100
AcDbLine
 62
250
  6
CONTINUOUS
 10
82.2369696018
 20
-40.9568906631
 11
82.3167704792
 21
-40.9585498564
  0
LINE
  5
3A6
100
AcDbEntity
  8
DRAFT
100
AcDbLine
 62
7
  6
CONTINUOUS
 10
-77.3628860812
 20
-41.2334657182
 11
-76.6466911205
 21
-41.2491352136
  0
LINE
  5
3A7
100
AcDbEntity
  8
DRAFT
100
AcDbLine
 62
7
  6
CONTINUOUS
 10
-58.6371139188
 20
-40.998511425
 11
-59.3533088795
 21
-40.9828419296
  0
LINE
  5
3A8
100
AcDbEntity
  8
DRAFT
100
AcDbLine
 62
7
  6
CONTINUOUS
 10
-9.3628860812
 20
-41.2334657182
 11
-8.6466911205
 21
-41.2491352136
  0
LINE
  5
3A9
100
AcDbEntity
  8
DRAFT
100
AcDbLine
 62
7
  6
CONTINUOUS
 10
9.3628860812
 20
-40.998511425
 11
8.6466911205
 21
-40.9828419296
  0
LINE
  5
3AA
100
AcDbEntity
  8
DRAFT
100
AcDbLine
 62
7
  6
CONTINUOUS
 10
58.6371139188
 20
-41.2334657182
 11
59.3533088795
 21
-41.2491352136
  0
LINE
  5
3AB
100
AcDbEntity
  8
DRAFT
100
AcDbLine
 62
7
  6
CONTINUOUS
 10
77.3628860812
 20
-40.998511425
 11
76.6466911205
 21
-40.9828419296
  0
LINE
  5
3AC
100
AcDbEntity
  8
RACCORDO
100
AcDbLine
 62
250
  6
CONTINUOUS
 10
82.7494576046
 20
-40.4607682308
 11
82.8015393494
 21
-40.4619144622
  0
LINE
  5
3AD
100
AcDbEntity
  8
0
100
AcDbLine
 62
7
  6
CONTINUOUS
 10
-88.3702126861
 20
2.1249998808
 11
-88.1148935676
 21
2.0
  0
LINE
  5
3AE
100
AcDbEntity
  8
0
100
AcDbLine
 62
7
  6
CONTINUOUS
 10
-86.9021276653
 20
2.1875
 11
-86.774468106
 21
2.1249998808
  0
LWPOLYLINE
  5
3AF
100
AcDbEntity
  8
DRAFT
100
AcDbPolyline
 62
7
  6
CONTINUOUS
 90
12
 70
0
 10
-11.5314433737
 20
41.115896487
 10
-11.5278713114
 20
41.1210023381
 10
-11.4992851742
 20
41.1310033154
 10
-11.441840581
 20
41.1409916724
 10
-11.3558098506
 20
41.1509534736
 10
-11.2420099393
 20
41.1607938018
 10
-11.100407901
 20
41.1704981888
 10
-10.9310366818
 20
41.1800811028
 10
-10.7348120768
 20
41.1894910311
 10
-10.5112599952
 20
41.1987391569
 10
-10.2608545279
 20
41.207814297
 10
-9.9859337428
 20
41.2166313899
  0
LINE
  5
3B0
100
AcDbEntity
  8
0
100
AcDbLine
 62
7
  6
CONTINUOUS
 10
-87.285106343
 20
-0.25
 11
-87.6042553306
 21
-0.3750000596
  0
LINE
  5
3B1
100
AcDbEntity
  8
DRAFT
100
AcDbLine
 62
250
  6
CONTINUOUS
 10
-94.5
 20
-35.5
 11
-94.2242099741
 21
-35.5
  0
LINE
  5
3B2
100
AcDbEntity
  8
DRAFT
100
AcDbLine
 62
250
  6
CONTINUOUS
 10
94.5
 20
-35.5
 11
94.2242099741
 21
-35.5
  0
LINE
  5
3B3
100
AcDbEntity
  8
0
100
AcDbLine
 62
250
  6
CONTINUOUS
 10
100.2
 20
-35.5
 11
102.0
 21
-35.5
  0
LINE
  5
3B4
100
AcDbEntity
  8
0
100
AcDbLine
 62
250
  6
CONTINUOUS
 10
-100.2
 20
-35.5
 11
-102.0
 21
-35.5
  0
LINE
  5
3B5
100
AcDbEntity
  8
DRAFT
100
AcDbLine
 62
7
  6
CONTINUOUS
 10
-100.2
 20
-34.0
 11
-96.0
 21
-34.0
  0
LINE
  5
3B6
100
AcDbEntity
  8
DRAFT
100
AcDbLine
 62
7
  6
CONTINUOUS
 10
96.0
 20
-34.0
 11
100.2
 21
-34.0
  0
LINE
  5
3B7
100
AcDbEntity
  8
0
100
AcDbLine
 62
7
  6
CONTINUOUS
 10
-100.1749258819
 20
-33.7242099741
 11
-96.0
 21
-33.7242099741
  0
LINE
  5
3B8
100
AcDbEntity
  8
0
100
AcDbLine
 62
7
  6
CONTINUOUS
 10
96.0
 20
-33.7242099741
 11
100.1749258819
 21
-33.7242099741
  0
LINE
  5
3B9
100
AcDbEntity
  8
RACCORDO
100
AcDbLine
 62
250
  6
CONTINUOUS
 10
-100.4662592691
 20
-32.108575216
 11
-100.9469029106
 21
-32.108575216
  0
LINE
  5
3BA
100
AcDbEntity
  8
RACCORDO
100
AcDbLine
 62
250
  6
CONTINUOUS
 10
-100.4748344851
 20
-31.6086513684
 11
-101.4639771903
 21
-31.6086513684
  0
LINE
  5
3BB
100
AcDbEntity
  8
RACCORDO
100
AcDbLine
 62
250
  6
CONTINUOUS
 10
-100.6287102966
 20
-32.6916807152
 11
-99.8822464769
 21
-32.6925880081
  0
LINE
  5
3BC
100
AcDbEntity
  8
RACCORDO
100
AcDbLine
 62
250
  6
CONTINUOUS
 10
-100.9587299888
 20
-32.6896203661
 11
-100.6287102966
 21
-32.6916807152
  0
LINE
  5
3BD
100
AcDbEntity
  8
RACCORDO
100
AcDbLine
 62
250
  6
CONTINUOUS
 10
-100.5167336255
 20
-32.1911083783
 11
-100.382721145
 21
-32.1921133401
  0
LINE
  5
3BE
100
AcDbEntity
  8
RACCORDO
100
AcDbLine
 62
250
  6
CONTINUOUS
 10
-101.11947045
 20
-32.6879044594
 11
-100.9587299888
 21
-32.6896203661
  0
LINE
  5
3BF
100
AcDbEntity
  8
RACCORDO
100
AcDbLine
 62
250
  6
CONTINUOUS
 10
-100.6359714998
 20
-32.1896394966
 11
-100.5167336255
 21
-32.1911083783
  0
LINE
  5
3C0
100
AcDbEntity
  8
RACCORDO
100
AcDbLine
 62
250
  6
CONTINUOUS
 10
-101.2072042722
 20
-32.6866001802
 11
-101.11947045
 21
-32.6879044594
  0
LINE
  5
3C1
100
AcDbEntity
  8
RACCORDO
100
AcDbLine
 62
250
  6
CONTINUOUS
 10
-100.704615307
 20
-32.1884329418
 11
-100.6359714998
 21
-32.1896394966
  0
LWPOLYLINE
  5
3C2
100
AcDbEntity
  8
RACCORDO
100
AcDbPolyline
 62
250
  6
CONTINUOUS
 90
16
 70
0
 10
-100.9469029106
 20
-26.291424784
 10
-100.9991490209
 20
-26.2886713035
 10
-101.0508229421
 20
-26.2804728435
 10
-101.1013587442
 20
-26.2669191908
 10
-101.1502029605
 20
-26.2481587825
 10
-101.196820652
 20
-26.2243970792
 10
-101.2407012663
 20
-26.1958943138
 10
-101.2813642234
 20
-26.1629626441
 10
-101.3183641819
 20
-26.1259627338
 10
-101.3512959187
 20
-26.0852998003
 10
-101.3797987637
 20
-26.0414191794
 10
-101.4035605507
 20
-25.9948014488
 10
-101.4223210377
 20
-25.9459571615
 10
-101.4358747561
 20
-25.8954212575
 10
-101.4440732611
 20
-25.8437472047
 10
-101.4468267582
 20
-25.7915009364
  0
LWPOLYLINE
  5
3C3
100
AcDbEntity
  8
RACCORDO
100
AcDbPolyline
 62
250
  6
CONTINUOUS
 90
16
 70
0
 10
-100.8748192685
 20
-26.2193411419
 10
-100.9270654467
 20
-26.2165876542
 10
-100.9787394267
 20
-26.2083891744
 10
-101.0292752767
 20
-26.1948354919
 10
-101.07811953
 20
-26.1760750461
 10
-101.124737246
 20
-26.1523133007
 10
-101.1686178692
 20
-26.1238104936
 10
-101.2092808205
 20
-26.0908787865
 10
-101.2462807607
 20
-26.0538788463
 10
-101.2792124678
 20
-26.013215895
 10
-101.3077152749
 20
-25.9693352718
 10
-101.3314770203
 20
-25.9227175558
 10
-101.3502374661
 20
-25.8738733025
 10
-101.3637911486
 20
-25.8233374525
 10
-101.3719896285
 20
-25.7716634725
 10
-101.3747431161
 20
-25.7194172943
  0
LINE
  5
3C4
100
AcDbEntity
  8
0
100
AcDbLine
 62
7
  6
CONTINUOUS
 10
-86.7106382817
 20
-0.3750000596
 11
-87.0297872245
 21
-0.25
  0
LINE
  5
3C5
100
AcDbEntity
  8
RACCORDO
100
AcDbLine
 62
7
  6
CONTINUOUS
 10
-82.541424784
 20
39.9662592691
 11
-82.4578866022
 21
39.8827210873
  0
LINE
  5
3C6
100
AcDbEntity
  8
RACCORDO
100
AcDbLine
 62
250
  6
CONTINUOUS
 10
-82.4693411419
 20
40.3748192685
 11
-82.541424784
 21
40.4469029106
  0
LINE
  5
3C7
100
AcDbEntity
  8
RACCORDO
100
AcDbLine
 62
250
  6
CONTINUOUS
 10
-81.9694172943
 20
40.8747431161
 11
-82.0415009364
 21
40.9468267582
  0
LINE
  5
3C8
100
AcDbEntity
  8
RACCORDO
100
AcDbLine
 62
7
  6
CONTINUOUS
 10
-81.9946612171
 20
39.4197565292
 11
-82.2231629246
 21
39.6478613442
  0
LINE
  5
3C9
100
AcDbEntity
  8
RACCORDO
100
AcDbLine
 62
7
  6
CONTINUOUS
 10
-82.2231629246
 20
39.6478613442
 11
-82.2695828208
 21
39.6945186682
  0
LINE
  5
3CA
100
AcDbEntity
  8
RACCORDO
100
AcDbLine
 62
7
  6
CONTINUOUS
 10
-81.9574119919
 20
39.382246477
 11
-81.9946612171
 21
39.4197565292
  0
LINE
  5
3CB
100
AcDbEntity
  8
RACCORDO
100
AcDbLine
 62
7
  6
CONTINUOUS
 10
-82.2695828208
 20
39.6945186682
 11
-82.2886795953
 21
39.7142161248
  0
LWPOLYLINE
  5
3CC
100
AcDbEntity
  8
RACCORDO
100
AcDbPolyline
 62
7
  6
CONTINUOUS
 90
9
 70
0
 10
-82.3772033657
 20
39.8077489267
 10
-82.3926947844
 20
39.823829093
 10
-82.4067550688
 20
39.8382538924
 10
-82.4193176043
 20
39.8508570636
 10
-82.4304490055
 20
39.8615272705
 10
-82.439764581
 20
39.8700554462
 10
-82.4471361003
 20
39.8763589959
 10
-82.452691794
 20
39.8804127815
 10
-82.4564316619
 20
39.8821703245
  0
LINE
  5
3CD
100
AcDbEntity
  8
RACCORDO
100
AcDbLine
 62
7
  6
CONTINUOUS
 10
-82.2886795953
 20
39.7142161248
 11
-82.3772033657
 21
39.8077489267
  0
LWPOLYLINE
  5
3CE
100
AcDbEntity
  8
DRAFT
100
AcDbPolyline
 62
7
  6
CONTINUOUS
 90
13
 70
0
 10
-11.5314433737
 20
-41.115896487
 10
-11.5278713114
 20
-41.1210023381
 10
-11.4992851742
 20
-41.1310033154
 10
-11.441840581
 20
-41.1409916723
 10
-11.3558098506
 20
-41.1509534736
 10
-11.2420099393
 20
-41.1607938018
 10
-11.100407901
 20
-41.1704981888
 10
-10.9310366818
 20
-41.1800811028
 10
-10.7348120768
 20
-41.1894910311
 10
-10.5112599952
 20
-41.1987391569
 10
-10.2608545279
 20
-41.207814297
 10
-9.9859337428
 20
-41.2166313899
 10
-9.3628860812
 20
-41.2334657182
  0
LINE
  5
3CF
100
AcDbEntity
  8
0
100
AcDbLine
 62
7
  6
CONTINUOUS
 10
-2.125
 20
30.2
 11
-2.5
 21
29.7531915426
  0
LINE
  5
3D0
100
AcDbEntity
  8
0
100
AcDbLine
 62
7
  6
CONTINUOUS
 10
-86.9021276653
 20
0.2500000596
 11
-86.7106382817
 21
0.3125
  0
LINE
  5
3D1
100
AcDbEntity
  8
0
100
AcDbLine
 62
7
  6
CONTINUOUS
 10
-87.4127659917
 20
-0.625
 11
-87.2212765634
 21
-0.5625000596
  0
LWPOLYLINE
  5
3D2
100
AcDbEntity
  8
RACCORDO
100
AcDbPolyline
 62
250
  6
CONTINUOUS
 90
16
 70
0
 10
-100.8748192685
 20
-32.1806588581
 10
-100.9270647886
 20
-32.1834122763
 10
-100.9787382352
 20
-32.1916105718
 10
-101.0292736895
 20
-32.2051639917
 10
-101.0781176923
 20
-32.2239241349
 10
-101.1247352985
 20
-32.2476855739
 10
-101.1686159366
 20
-32.2761881013
 10
-101.2092790159
 20
-32.3091195877
 10
-101.2462791746
 20
-32.3461193913
 10
-101.2792111553
 20
-32.3867822978
 10
-101.3077142682
 20
-32.4306629841
 10
-101.3314763231
 20
-32.477280878
 10
-101.3502370456
 20
-32.5261254034
 10
-101.3637909487
 20
-32.5766616073
 10
-101.3719895753
 20
-32.6283360225
 10
-101.3747431161
 20
-32.6805827058
  0
LWPOLYLINE
  5
3D3
100
AcDbEntity
  8
RACCORDO
100
AcDbPolyline
 62
250
  6
CONTINUOUS
 90
16
 70
0
 10
-100.9469029106
 20
-32.108575216
 10
-100.9991490889
 20
-32.1113287036
 10
-101.0508230688
 20
-32.1195271835
 10
-101.1013589188
 20
-32.133080866
 10
-101.1502031721
 20
-32.1518413118
 10
-101.1968208882
 20
-32.1756030572
 10
-101.2407015113
 20
-32.2041058643
 10
-101.2813644626
 20
-32.2370375714
 10
-101.3183644029
 20
-32.2740375116
 10
-101.35129611
 20
-32.3147004629
 10
-101.3797989171
 20
-32.3585810861
 10
-101.4035606624
 20
-32.4051988021
 10
-101.4223211082
 20
-32.4540430554
 10
-101.4358747908
 20
-32.5045789054
 10
-101.4440732706
 20
-32.5562528854
 10
-101.4468267582
 20
-32.6084990636
  0
LWPOLYLINE
  5
3D4
100
AcDbEntity
  8
RACCORDO
100
AcDbPolyline
 62
250
  6
CONTINUOUS
 90
8
 70
0
 10
-100.7879728056
 20
-26.2136577087
 10
-100.809977488
 20
-26.2144147748
 10
-100.8288593862
 20
-26.215196594
 10
-100.8446701832
 20
-26.2160028644
 10
-100.8571932343
 20
-26.2168216481
 10
-100.8663563249
 20
-26.217648966
 10
-100.8722316696
 20
-26.2184887972
 10
-100.8748192685
 20
-26.2193411419
  0
LWPOLYLINE
  5
3D5
100
AcDbEntity
  8
RACCORDO
100
AcDbPolyline
 62
250
  6
CONTINUOUS
 90
6
 70
0
 10
-101.3059397378
 20
-25.7155465758
 10
-101.329503036
 20
-25.7163017919
 10
-101.3482268862
 20
-25.7170674101
 10
-101.3620393461
 20
-25.7178403026
 10
-101.370888332
 20
-25.7186235973
 10
-101.3747431161
 20
-25.7194172943
  0
LINE
  5
3D6
100
AcDbEntity
  8
RACCORDO
100
AcDbLine
 62
250
  6
CONTINUOUS
 10
-100.7351218303
 20
-26.2122279625
 11
-100.7879728056
 21
-26.2136577087
  0
LINE
  5
3D7
100
AcDbEntity
  8
RACCORDO
100
AcDbLine
 62
250
  6
CONTINUOUS
 10
-101.2446697358
 20
-25.7140955897
 11
-101.3059397378
 21
-25.7155465758
  0
LINE
  5
3D8
100
AcDbEntity
  8
RACCORDO
100
AcDbLine
 62
250
  6
CONTINUOUS
 10
-100.6714093775
 20
-26.2109416376
 11
-100.7351218303
 21
-26.2122279625
  0
LINE
  5
3D9
100
AcDbEntity
  8
RACCORDO
100
AcDbLine
 62
250
  6
CONTINUOUS
 10
-101.1654080484
 20
-25.712732957
 11
-101.2446697358
 21
-25.7140955897
  0
LINE
  5
3DA
100
AcDbEntity
  8
RACCORDO
100
AcDbLine
 62
250
  6
CONTINUOUS
 10
-100.5583179827
 20
-26.2093321223
 11
-100.6714093775
 21
-26.2109416376
  0
LINE
  5
3DB
100
AcDbEntity
  8
RACCORDO
100
AcDbLine
 62
250
  6
CONTINUOUS
 10
-101.0159224306
 20
-25.7109149354
 11
-101.1654080484
 21
-25.712732957
  0
LWPOLYLINE
  5
3DC
100
AcDbEntity
  8
RACCORDO
100
AcDbPolyline
 62
250
  6
CONTINUOUS
 90
3
 70
0
 10
-100.382721145
 20
-26.20788666
 10
-100.4290335958
 20
-26.2081701005
 10
-100.5583179827
 20
-26.2093321223
  0
LINE
  5
3DD
100
AcDbEntity
  8
RACCORDO
100
AcDbLine
 62
250
  6
CONTINUOUS
 10
-100.6996222953
 20
-25.7086418039
 11
-101.0159224306
 21
-25.7109149354
  0
LINE
  5
3DE
100
AcDbEntity
  8
RACCORDO
100
AcDbLine
 62
250
  6
CONTINUOUS
 10
-100.1749258819
 20
-25.7074135063
 11
-100.6996222953
 21
-25.7086418039
  0
LINE
  5
3DF
100
AcDbEntity
  8
RACCORDO
100
AcDbLine
 62
250
  6
CONTINUOUS
 10
-100.4748344851
 20
-26.7913486316
 11
-101.4639771903
 21
-26.7913486316
  0
LINE
  5
3E0
100
AcDbEntity
  8
RACCORDO
100
AcDbLine
 62
250
  6
CONTINUOUS
 10
-100.9469029106
 20
-26.291424784
 11
-100.4662592691
 21
-26.291424784
  0
LINE
  5
3E1
100
AcDbEntity
  8
RACCORDO
100
AcDbLine
 62
250
  6
CONTINUOUS
 10
-99.8822464769
 20
-25.7074119919
 11
-100.1749258819
 21
-25.7074119919
  0
LINE
  5
3E2
100
AcDbEntity
  8
0
100
AcDbLine
 62
7
  6
CONTINUOUS
 10
-87.0936170042
 20
-0.5625000596
 11
-86.9021276653
 21
-0.625
  0
LINE
  5
3E3
100
AcDbEntity
  8
0
100
AcDbLine
 62
7
  6
CONTINUOUS
 10
-86.7106382817
 20
2.4375001192
 11
-86.9021276653
 21
2.4999998808
  0
LWPOLYLINE
  5
3E4
100
AcDbEntity
  8
RACCORDO
100
AcDbPolyline
 62
250
  6
CONTINUOUS
 90
16
 70
0
 10
-82.541424784
 20
40.4469029106
 10
-82.5424299084
 20
40.4477508914
 10
-82.5447040893
 20
40.4486215551
 10
-82.5483774893
 20
40.4495149018
 10
-82.5535992481
 20
40.4504378009
 10
-82.5604881162
 20
40.4513833829
 10
-82.5690839862
 20
40.4523310395
 10
-82.5794665334
 20
40.4532813602
 10
-82.5917046271
 20
40.4542337554
 10
-82.6057239393
 20
40.4551658478
 10
-82.6215283268
 20
40.4560767458
 10
-82.6391201606
 20
40.4569673409
 10
-82.6583252841
 20
40.4578179311
 10
-82.67907891
 20
40.4586266709
 10
-82.7013233036
 20
40.4593954057
 10
-82.7494576046
 20
40.4607682308
  0
LWPOLYLINE
  5
3E5
100
AcDbEntity
  8
DRAFT
100
AcDbPolyline
 62
7
  6
CONTINUOUS
 90
12
 70
0
 10
11.5314433737
 20
41.115896487
 10
11.5278713114
 20
41.1109748051
 10
11.4992851742
 20
41.1009738277
 10
11.441840581
 20
41.0909854708
 10
11.3558098506
 20
41.0810236696
 10
11.2420099393
 20
41.0711833414
 10
11.100407901
 20
41.0614789544
 10
10.9310366818
 20
41.0518960404
 10
10.7348120768
 20
41.042486112
 10
10.5112599952
 20
41.0332379863
 10
10.2608545279
 20
41.0241628462
 10
9.9859337428
 20
41.0153457533
  0
LINE
  5
3E6
100
AcDbEntity
  8
0
100
AcDbLine
 62
7
  6
CONTINUOUS
 10
-2.5
 20
29.2425531268
 11
-2.125
 21
29.689361763
  0
LINE
  5
3E7
100
AcDbEntity
  8
0
100
AcDbLine
 62
7
  6
CONTINUOUS
 10
1.8750001192
 20
30.2
 11
1.5000001192
 21
29.7531915426
  0
LINE
  5
3E8
100
AcDbEntity
  8
0
100
AcDbLine
 62
7
  6
CONTINUOUS
 10
1.5000001192
 20
29.2425531268
 11
1.8750001192
 21
29.689361763
  0
LINE
  5
3E9
100
AcDbEntity
  8
0
100
AcDbLine
 62
7
  6
CONTINUOUS
 10
-85.4
 20
-16.0
 11
-85.6
 21
-16.0
  0
LINE
  5
3EA
100
AcDbEntity
  8
0
100
AcDbLine
 62
7
  6
CONTINUOUS
 10
-88.7531915426
 20
0.3749999404
 11
-88.4978724241
 21
0.3125
  0
LINE
  5
3EB
100
AcDbEntity
  8
0
100
AcDbLine
 62
7
  6
CONTINUOUS
 10
-88.1148935676
 20
2.375
 11
-88.3702126861
 21
2.4375001192
  0
LWPOLYLINE
  5
3EC
100
AcDbEntity
  8
RACCORDO
100
AcDbPolyline
 62
7
  6
CONTINUOUS
 90
7
 70
0
 10
82.4564316619
 20
-39.8821703245
 10
82.4568001082
 20
-39.8822620994
 10
82.457118172
 20
-39.8823538819
 10
82.4573858533
 20
-39.8824456719
 10
82.4576031521
 20
-39.8825374695
 10
82.4577700684
 20
-39.8826292746
 10
82.4578866022
 20
-39.8827210873
  0
LWPOLYLINE
  5
3ED
100
AcDbEntity
  8
DRAFT
100
AcDbPolyline
 62
7
  6
CONTINUOUS
 90
13
 70
0
 10
11.5314433737
 20
-41.115896487
 10
11.5278713114
 20
-41.1109748051
 10
11.4992851742
 20
-41.1009738277
 10
11.441840581
 20
-41.0909854708
 10
11.3558098506
 20
-41.0810236696
 10
11.2420099393
 20
-41.0711833414
 10
11.100407901
 20
-41.0614789544
 10
10.9310366818
 20
-41.0518960404
 10
10.7348120768
 20
-41.042486112
 10
10.5112599952
 20
-41.0332379863
 10
10.2608545279
 20
-41.0241628462
 10
9.9859337428
 20
-41.0153457533
 10
9.3628860812
 20
-40.998511425
  0
LINE
  5
3EE
100
AcDbEntity
  8
0
100
AcDbLine
 62
7
  6
CONTINUOUS
 10
0.6249998808
 20
29.8808511019
 11
-0.625
 21
27.2
  0
LINE
  5
3EF
100
AcDbEntity
  8
0
100
AcDbLine
 62
7
  6
CONTINUOUS
 10
-0.25
 20
27.2
 11
0.9999998808
 21
29.8808511019
  0
LINE
  5
3F0
100
AcDbEntity
  8
0
100
AcDbLine
 62
7
  6
CONTINUOUS
 10
-2.5
 20
29.7531915426
 11
-2.5
 21
29.2425531268
  0
LINE
  5
3F1
100
AcDbEntity
  8
0
100
AcDbLine
 62
7
  6
CONTINUOUS
 10
-2.125
 20
29.689361763
 11
-2.125
 21
27.2
  0
LINE
  5
3F2
100
AcDbEntity
  8
0
100
AcDbLine
 62
7
  6
CONTINUOUS
 10
-1.75
 20
27.2
 11
-1.75
 21
30.2
  0
LINE
  5
3F3
100
AcDbEntity
  8
0
100
AcDbLine
 62
7
  6
CONTINUOUS
 10
-1.2500000298
 20
30.2
 11
-1.2500000298
 21
29.8808511019
  0
LINE
  5
3F4
100
AcDbEntity
  8
0
100
AcDbLine
 62
7
  6
CONTINUOUS
 10
-0.75
 20
-11.4816392509
 11
-0.75
 21
-10.398724427
  0
LINE
  5
3F5
100
AcDbEntity
  8
0
100
AcDbLine
 62
7
  6
CONTINUOUS
 10
-0.75
 20
10.398724427
 11
-0.75
 21
11.481639251
  0
LINE
  5
3F6
100
AcDbEntity
  8
0
100
AcDbLine
 62
7
  6
CONTINUOUS
 10
0.75
 20
11.481639251
 11
0.75
 21
10.398724427
  0
LINE
  5
3F7
100
AcDbEntity
  8
0
100
AcDbLine
 62
7
  6
CONTINUOUS
 10
0.75
 20
-10.398724427
 11
0.75
 21
-11.4816392509
  0
LINE
  5
3F8
100
AcDbEntity
  8
0
100
AcDbLine
 62
7
  6
CONTINUOUS
 10
-89.2
 20
-2.5
 11
-87.5404255509
 21
-2.5
  0
LINE
  5
3F9
100
AcDbEntity
  8
0
100
AcDbLine
 62
7
  6
CONTINUOUS
 10
-87.8595744491
 20
-2.1875000074
 11
-88.8808511019
 21
-2.1875000074
  0
LINE
  5
3FA
100
AcDbEntity
  8
0
100
AcDbLine
 62
7
  6
CONTINUOUS
 10
79.481639251
 20
-0.75
 11
78.398724427
 21
-0.75
  0
LINE
  5
3FB
100
AcDbEntity
  8
0
100
AcDbLine
 62
7
  6
CONTINUOUS
 10
57.601275573
 20
-0.75
 11
56.518360749
 21
-0.75
  0
LINE
  5
3FC
100
AcDbEntity
  8
0
100
AcDbLine
 62
7
  6
CONTINUOUS
 10
11.481639251
 20
-0.75
 11
10.398724427
 21
-0.75
  0
LINE
  5
3FD
100
AcDbEntity
  8
0
100
AcDbLine
 62
7
  6
CONTINUOUS
 10
-10.398724427
 20
-0.75
 11
-11.481639251
 21
-0.75
  0
LINE
  5
3FE
100
AcDbEntity
  8
0
100
AcDbLine
 62
7
  6
CONTINUOUS
 10
-56.518360749
 20
-0.75
 11
-57.601275573
 21
-0.75
  0
LINE
  5
3FF
100
AcDbEntity
  8
0
100
AcDbLine
 62
7
  6
CONTINUOUS
 10
-78.398724427
 20
-0.75
 11
-79.481639251
 21
-0.75
  0
LINE
  5
400
100
AcDbEntity
  8
0
100
AcDbLine
 62
7
  6
CONTINUOUS
 10
-87.2212765634
 20
-0.5625000596
 11
-87.0936170042
 21
-0.5625000596
  0
LINE
  5
401
100
AcDbEntity
  8
0
100
AcDbLine
 62
7
  6
CONTINUOUS
 10
-88.8808511019
 20
-0.3750000596
 11
-89.2
 21
-0.3750000596
  0
LINE
  5
402
100
AcDbEntity
  8
0
100
AcDbLine
 62
7
  6
CONTINUOUS
 10
-87.0297872245
 20
-0.25
 11
-87.285106343
 21
-0.25
  0
LINE
  5
403
100
AcDbEntity
  8
0
100
AcDbLine
 62
7
  6
CONTINUOUS
 10
-79.481639251
 20
0.75
 11
-78.398724427
 21
0.75
  0
LINE
  5
404
100
AcDbEntity
  8
0
100
AcDbLine
 62
7
  6
CONTINUOUS
 10
-57.601275573
 20
0.75
 11
-56.518360749
 21
0.75
  0
LINE
  5
405
100
AcDbEntity
  8
0
100
AcDbLine
 62
7
  6
CONTINUOUS
 10
-11.481639251
 20
0.75
 11
-10.398724427
 21
0.75
  0
LINE
  5
406
100
AcDbEntity
  8
0
100
AcDbLine
 62
7
  6
CONTINUOUS
 10
10.398724427
 20
0.75
 11
11.481639251
 21
0.75
  0
LINE
  5
407
100
AcDbEntity
  8
0
100
AcDbLine
 62
7
  6
CONTINUOUS
 10
56.518360749
 20
0.75
 11
57.601275573
 21
0.75
  0
LINE
  5
408
100
AcDbEntity
  8
0
100
AcDbLine
 62
7
  6
CONTINUOUS
 10
78.398724427
 20
0.75
 11
79.481639251
 21
0.75
  0
LWPOLYLINE
  5
409
100
AcDbEntity
  8
RACCORDO
100
AcDbPolyline
 62
250
  6
CONTINUOUS
 90
11
 70
0
 10
-82.0415009364
 20
40.9468267582
 10
-82.0430814044
 20
40.9476747836
 10
-82.0477178437
 20
40.9485454739
 10
-82.0554102543
 20
40.9494388292
 10
-82.0659975061
 20
40.9503617216
 10
-82.0796407293
 20
40.951307279
 10
-82.0968233138
 20
40.9522548853
 10
-82.1177043155
 20
40.9532051184
 10
-82.1421246785
 20
40.9541574004
 10
-82.170090625
 20
40.9550893817
 10
-82.2369696018
 20
40.9568906631
  0
LINE
  5
40A
100
AcDbEntity
  8
0
100
AcDbLine
 62
7
  6
CONTINUOUS
 10
0.9999998808
 20
29.8808511019
 11
0.9999998808
 21
30.2
  0
LINE
  5
40B
100
AcDbEntity
  8
0
100
AcDbLine
 62
7
  6
CONTINUOUS
 10
1.5000001192
 20
29.7531915426
 11
1.5000001192
 21
29.2425531268
  0
LINE
  5
40C
100
AcDbEntity
  8
0
100
AcDbLine
 62
7
  6
CONTINUOUS
 10
1.8750001192
 20
29.689361763
 11
1.8750001192
 21
27.2
  0
LINE
  5
40D
100
AcDbEntity
  8
0
100
AcDbLine
 62
7
  6
CONTINUOUS
 10
2.2500001192
 20
27.2
 11
2.2500001192
 21
30.2
  0
LINE
  5
40E
100
AcDbEntity
  8
0
100
AcDbLine
 62
7
  6
CONTINUOUS
 10
-87.8595744491
 20
1.25
 11
-87.6042553306
 21
1.25
  0
LINE
  5
40F
100
AcDbEntity
  8
0
100
AcDbLine
 62
7
  6
CONTINUOUS
 10
-88.4978724241
 20
2.1249998808
 11
-88.3702126861
 21
2.1249998808
  0
LINE
  5
410
100
AcDbEntity
  8
0
100
AcDbLine
 62
7
  6
CONTINUOUS
 10
-87.1574467838
 20
2.1875
 11
-86.9021276653
 21
2.1875
  0
LINE
  5
411
100
AcDbEntity
  8
0
100
AcDbLine
 62
7
  6
CONTINUOUS
 10
-88.3702126861
 20
2.4375001192
 11
-88.4978724241
 21
2.4375001192
  0
LINE
  5
412
100
AcDbEntity
  8
0
100
AcDbLine
 62
7
  6
CONTINUOUS
 10
-86.9021276653
 20
2.4999998808
 11
-87.1574467838
 21
2.4999998808
  0
LWPOLYLINE
  5
413
100
AcDbEntity
  8
RACCORDO
100
AcDbPolyline
 62
250
  6
CONTINUOUS
 90
11
 70
0
 10
82.0415009364
 20
-40.9468267582
 10
82.0430814044
 20
-40.9476747836
 10
82.0477178437
 20
-40.9485454739
 10
82.0554102543
 20
-40.9494388292
 10
82.0659975061
 20
-40.9503617216
 10
82.0796407293
 20
-40.951307279
 10
82.0968233138
 20
-40.9522548853
 10
82.1177043155
 20
-40.9532051184
 10
82.1421246785
 20
-40.9541574004
 10
82.170090625
 20
-40.9550893816
 10
82.2369696018
 20
-40.9568906631
  0
LWPOLYLINE
  5
414
100
AcDbEntity
  8
DRAFT
100
AcDbPolyline
 62
7
  6
CONTINUOUS
 90
12
 70
0
 10
56.4685566263
 20
41.115896487
 10
56.4721286886
 20
41.1210023381
 10
56.5007148258
 20
41.1310033154
 10
56.558159419
 20
41.1409916724
 10
56.6441901494
 20
41.1509534736
 10
56.7579900607
 20
41.1607938018
 10
56.899592099
 20
41.1704981888
 10
57.0689633182
 20
41.1800811028
 10
57.2651879232
 20
41.1894910311
 10
57.4887400048
 20
41.1987391569
 10
57.7391454721
 20
41.207814297
 10
58.0140662572
 20
41.2166313899
  0
LWPOLYLINE
  5
415
100
AcDbEntity
  8
RACCORDO
100
AcDbPolyline
 62
250
  6
CONTINUOUS
 90
8
 70
0
 10
100.7879728056
 20
26.2136577087
 10
100.809977488
 20
26.2144147748
 10
100.8288593862
 20
26.215196594
 10
100.8446701832
 20
26.2160028644
 10
100.8571932343
 20
26.2168216482
 10
100.8663563249
 20
26.217648966
 10
100.8722316696
 20
26.2184887973
 10
100.8748192685
 20
26.2193411419
  0
LWPOLYLINE
  5
416
100
AcDbEntity
  8
RACCORDO
100
AcDbPolyline
 62
250
  6
CONTINUOUS
 90
6
 70
0
 10
101.3059397378
 20
25.7155465758
 10
101.329503036
 20
25.7163017919
 10
101.3482268862
 20
25.7170674101
 10
101.3620393461
 20
25.7178403026
 10
101.370888332
 20
25.7186235973
 10
101.3747431161
 20
25.7194172943
  0
LINE
  5
417
100
AcDbEntity
  8
0
100
AcDbLine
 62
7
  6
CONTINUOUS
 10
-85.6
 20
16.0
 11
-85.4
 21
16.0
  0
LWPOLYLINE
  5
418
100
AcDbEntity
  8
RACCORDO
100
AcDbPolyline
 62
7
  6
CONTINUOUS
 90
7
 70
0
 10
-82.4564316619
 20
39.8821703245
 10
-82.4568001082
 20
39.8822620994
 10
-82.457118172
 20
39.8823538819
 10
-82.4573858533
 20
39.8824456719
 10
-82.4576031521
 20
39.8825374695
 10
-82.4577700684
 20
39.8826292746
 10
-82.4578866022
 20
39.8827210873
  0
LWPOLYLINE
  5
419
100
AcDbEntity
  8
RACCORDO
100
AcDbPolyline
 62
250
  6
CONTINUOUS
 90
16
 70
0
 10
82.541424784
 20
-40.4469029106
 10
82.5424299084
 20
-40.4477508914
 10
82.5447040893
 20
-40.4486215551
 10
82.5483774893
 20
-40.4495149018
 10
82.5535992481
 20
-40.4504378009
 10
82.5604881162
 20
-40.4513833829
 10
82.5690839862
 20
-40.4523310395
 10
82.5794665334
 20
-40.4532813602
 10
82.5917046271
 20
-40.4542337554
 10
82.6057239393
 20
-40.4551658478
 10
82.6215283268
 20
-40.4560767458
 10
82.6391201606
 20
-40.4569673409
 10
82.6583252841
 20
-40.4578179311
 10
82.67907891
 20
-40.4586266709
 10
82.7013233036
 20
-40.4593954057
 10
82.7494576046
 20
-40.4607682308
  0
LWPOLYLINE
  5
41A
100
AcDbEntity
  8
DRAFT
100
AcDbPolyline
 62
7
  6
CONTINUOUS
 90
13
 70
0
 10
56.4685566263
 20
-41.115896487
 10
56.4721286886
 20
-41.1210023381
 10
56.5007148258
 20
-41.1310033154
 10
56.558159419
 20
-41.1409916723
 10
56.6441901494
 20
-41.1509534736
 10
56.7579900607
 20
-41.1607938018
 10
56.899592099
 20
-41.1704981888
 10
57.0689633182
 20
-41.1800811028
 10
57.2651879232
 20
-41.1894910311
 10
57.4887400048
 20
-41.1987391569
 10
57.7391454721
 20
-41.207814297
 10
58.0140662572
 20
-41.2166313899
 10
58.6371139188
 20
-41.2334657182
  0
LINE
  5
41B
100
AcDbEntity
  8
0
100
AcDbLine
 62
7
  6
CONTINUOUS
 10
-87.1574467838
 20
2.4999998808
 11
-87.4127659917
 21
2.4375001192
  0
LINE
  5
41C
100
AcDbEntity
  8
0
100
AcDbLine
 62
7
  6
CONTINUOUS
 10
-88.4978724241
 20
2.4375001192
 11
-88.7531915426
 21
2.375
  0
LWPOLYLINE
  5
41D
100
AcDbEntity
  8
RACCORDO
100
AcDbPolyline
 62
250
  6
CONTINUOUS
 90
16
 70
0
 10
100.9469029106
 20
32.108575216
 10
100.9991490889
 20
32.1113287036
 10
101.0508230688
 20
32.1195271835
 10
101.1013589188
 20
32.133080866
 10
101.1502031721
 20
32.1518413118
 10
101.1968208882
 20
32.1756030572
 10
101.2407015113
 20
32.2041058643
 10
101.2813644626
 20
32.2370375714
 10
101.3183644029
 20
32.2740375116
 10
101.35129611
 20
32.3147004629
 10
101.3797989171
 20
32.3585810861
 10
101.4035606624
 20
32.4051988021
 10
101.4223211082
 20
32.4540430554
 10
101.4358747908
 20
32.5045789054
 10
101.4440732706
 20
32.5562528854
 10
101.4468267582
 20
32.6084990636
  0
LWPOLYLINE
  5
41E
100
AcDbEntity
  8
RACCORDO
100
AcDbPolyline
 62
250
  6
CONTINUOUS
 90
16
 70
0
 10
100.8748192685
 20
32.1806588581
 10
100.9270647886
 20
32.1834122763
 10
100.9787382352
 20
32.1916105718
 10
101.0292736895
 20
32.2051639917
 10
101.0781176923
 20
32.2239241349
 10
101.1247352985
 20
32.2476855739
 10
101.1686159366
 20
32.2761881013
 10
101.2092790159
 20
32.3091195877
 10
101.2462791746
 20
32.3461193913
 10
101.2792111553
 20
32.3867822978
 10
101.3077142682
 20
32.4306629841
 10
101.3314763231
 20
32.477280878
 10
101.3502370456
 20
32.5261254034
 10
101.3637909487
 20
32.5766616073
 10
101.3719895753
 20
32.6283360226
 10
101.3747431161
 20
32.6805827058
  0
LINE
  5
41F
100
AcDbEntity
  8
RACCORDO
100
AcDbLine
 62
250
  6
CONTINUOUS
 10
100.7351218303
 20
26.2122279625
 11
100.7879728056
 21
26.2136577087
  0
LINE
  5
420
100
AcDbEntity
  8
RACCORDO
100
AcDbLine
 62
250
  6
CONTINUOUS
 10
101.2446697358
 20
25.7140955897
 11
101.3059397378
 21
25.7155465758
  0
LINE
  5
421
100
AcDbEntity
  8
RACCORDO
100
AcDbLine
 62
250
  6
CONTINUOUS
 10
100.6714093775
 20
26.2109416376
 11
100.7351218303
 21
26.2122279625
  0
LINE
  5
422
100
AcDbEntity
  8
RACCORDO
100
AcDbLine
 62
250
  6
CONTINUOUS
 10
101.1654080484
 20
25.712732957
 11
101.2446697358
 21
25.7140955897
  0
LINE
  5
423
100
AcDbEntity
  8
RACCORDO
100
AcDbLine
 62
250
  6
CONTINUOUS
 10
100.5583179827
 20
26.2093321223
 11
100.6714093775
 21
26.2109416376
  0
LINE
  5
424
100
AcDbEntity
  8
RACCORDO
100
AcDbLine
 62
250
  6
CONTINUOUS
 10
101.0159224306
 20
25.7109149354
 11
101.1654080484
 21
25.712732957
  0
LWPOLYLINE
  5
425
100
AcDbEntity
  8
RACCORDO
100
AcDbPolyline
 62
250
  6
CONTINUOUS
 90
3
 70
0
 10
100.382721145
 20
26.20788666
 10
100.4290335958
 20
26.2081701005
 10
100.5583179827
 20
26.2093321223
  0
LINE
  5
426
100
AcDbEntity
  8
RACCORDO
100
AcDbLine
 62
250
  6
CONTINUOUS
 10
100.6996222953
 20
25.7086418039
 11
101.0159224306
 21
25.7109149354
  0
LINE
  5
427
100
AcDbEntity
  8
RACCORDO
100
AcDbLine
 62
250
  6
CONTINUOUS
 10
100.1749258819
 20
25.7074135063
 11
100.6996222953
 21
25.7086418039
  0
LINE
  5
428
100
AcDbEntity
  8
RACCORDO
100
AcDbLine
 62
250
  6
CONTINUOUS
 10
99.8822464769
 20
25.7074119919
 11
100.1749258819
 21
25.7074119919
  0
LINE
  5
429
100
AcDbEntity
  8
RACCORDO
100
AcDbLine
 62
250
  6
CONTINUOUS
 10
100.9469029106
 20
26.291424784
 11
100.4662592691
 21
26.291424784
  0
LINE
  5
42A
100
AcDbEntity
  8
0
100
AcDbLine
 62
7
  6
CONTINUOUS
 10
75.0
 20
26.4
 11
-75.0
 21
26.4
  0
LINE
  5
42B
100
AcDbEntity
  8
0
100
AcDbLine
 62
7
  6
CONTINUOUS
 10
-75.0
 20
26.6
 11
75.0
 21
26.6
  0
LINE
  5
42C
100
AcDbEntity
  8
RACCORDO
100
AcDbLine
 62
250
  6
CONTINUOUS
 10
100.4748344851
 20
26.7913486316
 11
101.4639771903
 21
26.7913486316
  0
LINE
  5
42D
100
AcDbEntity
  8
0
100
AcDbLine
 62
7
  6
CONTINUOUS
 10
-2.125
 20
27.2
 11
-1.75
 21
27.2
  0
LINE
  5
42E
100
AcDbEntity
  8
0
100
AcDbLine
 62
7
  6
CONTINUOUS
 10
-0.625
 20
27.2
 11
-0.25
 21
27.2
  0
LINE
  5
42F
100
AcDbEntity
  8
0
100
AcDbLine
 62
7
  6
CONTINUOUS
 10
1.8750001192
 20
27.2
 11
2.2500001192
 21
27.2
  0
LINE
  5
430
100
AcDbEntity
  8
0
100
AcDbLine
 62
7
  6
CONTINUOUS
 10
-1.2500000298
 20
29.8808511019
 11
0.6249998808
 21
29.8808511019
  0
LINE
  5
431
100
AcDbEntity
  8
0
100
AcDbLine
 62
7
  6
CONTINUOUS
 10
2.2500001192
 20
30.2
 11
1.8750001192
 21
30.2
  0
LINE
  5
432
100
AcDbEntity
  8
0
100
AcDbLine
 62
7
  6
CONTINUOUS
 10
0.9999998808
 20
30.2
 11
-1.2500000298
 21
30.2
  0
LINE
  5
433
100
AcDbEntity
  8
0
100
AcDbLine
 62
7
  6
CONTINUOUS
 10
-1.75
 20
30.2
 11
-2.125
 21
30.2
  0
LINE
  5
434
100
AcDbEntity
  8
RACCORDO
100
AcDbLine
 62
250
  6
CONTINUOUS
 10
81.9694172943
 20
-40.8747431161
 11
82.0415009364
 21
-40.9468267582
  0
LINE
  5
435
100
AcDbEntity
  8
RACCORDO
100
AcDbLine
 62
250
  6
CONTINUOUS
 10
82.4693411419
 20
-40.3748192685
 11
82.541424784
 21
-40.4469029106
  0
LINE
  5
436
100
AcDbEntity
  8
RACCORDO
100
AcDbLine
 62
7
  6
CONTINUOUS
 10
82.541424784
 20
-39.9662592691
 11
82.4578866022
 21
-39.8827210873
  0
LINE
  5
437
100
AcDbEntity
  8
RACCORDO
100
AcDbLine
 62
7
  6
CONTINUOUS
 10
81.9946612171
 20
-39.4197565292
 11
82.2231629246
 21
-39.6478613442
  0
LINE
  5
438
100
AcDbEntity
  8
RACCORDO
100
AcDbLine
 62
7
  6
CONTINUOUS
 10
82.2231629246
 20
-39.6478613442
 11
82.2695828208
 21
-39.6945186682
  0
LINE
  5
439
100
AcDbEntity
  8
RACCORDO
100
AcDbLine
 62
250
  6
CONTINUOUS
 10
100.4748344851
 20
31.6086513684
 11
101.4639771903
 21
31.6086513685
  0
LINE
  5
43A
100
AcDbEntity
  8
RACCORDO
100
AcDbLine
 62
250
  6
CONTINUOUS
 10
100.4662592691
 20
32.108575216
 11
100.9469029106
 21
32.108575216
  0
LINE
  5
43B
100
AcDbEntity
  8
0
100
AcDbLine
 62
7
  6
CONTINUOUS
 10
100.1749258819
 20
33.7242099741
 11
96.0
 21
33.7242099741
  0
LINE
  5
43C
100
AcDbEntity
  8
0
100
AcDbLine
 62
7
  6
CONTINUOUS
 10
-96.0
 20
33.7242099741
 11
-100.1749258819
 21
33.7242099741
  0
LINE
  5
43D
100
AcDbEntity
  8
DRAFT
100
AcDbLine
 62
7
  6
CONTINUOUS
 10
100.2
 20
34.0
 11
96.0
 21
34.0
  0
LINE
  5
43E
100
AcDbEntity
  8
DRAFT
100
AcDbLine
 62
7
  6
CONTINUOUS
 10
-96.0
 20
34.0
 11
-100.2
 21
34.0
  0
LINE
  5
43F
100
AcDbEntity
  8
DRAFT
100
AcDbLine
 62
250
  6
CONTINUOUS
 10
-94.5
 20
35.5
 11
-94.2242099741
 21
35.5
  0
LINE
  5
440
100
AcDbEntity
  8
DRAFT
100
AcDbLine
 62
250
  6
CONTINUOUS
 10
94.5
 20
35.5
 11
94.2242099741
 21
35.5
  0
LINE
  5
441
100
AcDbEntity
  8
0
100
AcDbLine
 62
250
  6
CONTINUOUS
 10
100.2
 20
35.5
 11
102.0
 21
35.5
  0
LINE
  5
442
100
AcDbEntity
  8
0
100
AcDbLine
 62
250
  6
CONTINUOUS
 10
-100.2
 20
35.5
 11
-102.0
 21
35.5
  0
LINE
  5
443
100
AcDbEntity
  8
RACCORDO
100
AcDbLine
 62
250
  6
CONTINUOUS
 10
100.6287102966
 20
32.6916807152
 11
99.8822464769
 21
32.6925880081
  0
LINE
  5
444
100
AcDbEntity
  8
RACCORDO
100
AcDbLine
 62
250
  6
CONTINUOUS
 10
100.9587299888
 20
32.6896203661
 11
100.6287102966
 21
32.6916807152
  0
LINE
  5
445
100
AcDbEntity
  8
RACCORDO
100
AcDbLine
 62
250
  6
CONTINUOUS
 10
100.5167336255
 20
32.1911083783
 11
100.382721145
 21
32.1921133401
  0
LINE
  5
446
100
AcDbEntity
  8
RACCORDO
100
AcDbLine
 62
250
  6
CONTINUOUS
 10
101.11947045
 20
32.6879044594
 11
100.9587299888
 21
32.6896203661
  0
LINE
  5
447
100
AcDbEntity
  8
RACCORDO
100
AcDbLine
 62
250
  6
CONTINUOUS
 10
100.6359714998
 20
32.1896394966
 11
100.5167336255
 21
32.1911083783
  0
LINE
  5
448
100
AcDbEntity
  8
RACCORDO
100
AcDbLine
 62
250
  6
CONTINUOUS
 10
101.2072042722
 20
32.6866001803
 11
101.11947045
 21
32.6879044594
  0
LINE
  5
449
100
AcDbEntity
  8
RACCORDO
100
AcDbLine
 62
250
  6
CONTINUOUS
 10
100.704615307
 20
32.1884329418
 11
100.6359714998
 21
32.1896394966
  0
LWPOLYLINE
  5
44A
100
AcDbEntity
  8
RACCORDO
100
AcDbPolyline
 62
250
  6
CONTINUOUS
 90
16
 70
0
 10
100.8748192685
 20
26.2193411419
 10
100.9270654467
 20
26.2165876542
 10
100.9787394267
 20
26.2083891744
 10
101.0292752767
 20
26.1948354919
 10
101.07811953
 20
26.1760750461
 10
101.124737246
 20
26.1523133007
 10
101.1686178692
 20
26.1238104937
 10
101.2092808205
 20
26.0908787866
 10
101.2462807607
 20
26.0538788463
 10
101.2792124678
 20
26.013215895
 10
101.3077152749
 20
25.9693352719
 10
101.3314770203
 20
25.9227175558
 10
101.3502374661
 20
25.8738733025
 10
101.3637911486
 20
25.8233374525
 10
101.3719896285
 20
25.7716634725
 10
101.3747431161
 20
25.7194172943
  0
LWPOLYLINE
  5
44B
100
AcDbEntity
  8
RACCORDO
100
AcDbPolyline
 62
250
  6
CONTINUOUS
 90
16
 70
0
 10
100.9469029106
 20
26.291424784
 10
100.9991490209
 20
26.2886713035
 10
101.0508229421
 20
26.2804728435
 10
101.1013587442
 20
26.2669191908
 10
101.1502029605
 20
26.2481587825
 10
101.196820652
 20
26.2243970792
 10
101.2407012663
 20
26.1958943138
 10
101.2813642234
 20
26.1629626441
 10
101.3183641819
 20
26.1259627339
 10
101.3512959187
 20
26.0852998003
 10
101.3797987637
 20
26.0414191795
 10
101.4035605507
 20
25.9948014488
 10
101.4223210377
 20
25.9459571615
 10
101.4358747561
 20
25.8954212575
 10
101.4440732611
 20
25.8437472047
 10
101.4468267582
 20
25.7915009364
  0
LINE
  5
44C
100
AcDbEntity
  8
RACCORDO
100
AcDbLine
 62
7
  6
CONTINUOUS
 10
81.9574119919
 20
-39.3822464769
 11
81.9946612171
 21
-39.4197565292
  0
LINE
  5
44D
100
AcDbEntity
  8
RACCORDO
100
AcDbLine
 62
7
  6
CONTINUOUS
 10
82.2695828208
 20
-39.6945186682
 11
82.2886795953
 21
-39.7142161248
  0
LWPOLYLINE
  5
44E
100
AcDbEntity
  8
RACCORDO
100
AcDbPolyline
 62
7
  6
CONTINUOUS
 90
9
 70
0
 10
82.3772033657
 20
-39.8077489267
 10
82.3926947844
 20
-39.823829093
 10
82.4067550688
 20
-39.8382538923
 10
82.4193176043
 20
-39.8508570636
 10
82.4304490055
 20
-39.8615272705
 10
82.439764581
 20
-39.8700554462
 10
82.4471361003
 20
-39.8763589959
 10
82.452691794
 20
-39.8804127815
 10
82.4564316619
 20
-39.8821703245
  0
LINE
  5
44F
100
AcDbEntity
  8
RACCORDO
100
AcDbLine
 62
7
  6
CONTINUOUS
 10
82.2886795953
 20
-39.7142161248
 11
82.3772033657
 21
-39.8077489267
  0
LWPOLYLINE
  5
450
100
AcDbEntity
  8
DRAFT
100
AcDbPolyline
 62
7
  6
CONTINUOUS
 90
12
 70
0
 10
79.5314433737
 20
41.115896487
 10
79.5278713114
 20
41.1109748051
 10
79.4992851742
 20
41.1009738277
 10
79.441840581
 20
41.0909854708
 10
79.3558098506
 20
41.0810236696
 10
79.2420099393
 20
41.0711833414
 10
79.100407901
 20
41.0614789544
 10
78.9310366818
 20
41.0518960404
 10
78.7348120768
 20
41.042486112
 10
78.5112599952
 20
41.0332379863
 10
78.2608545279
 20
41.0241628462
 10
77.9859337428
 20
41.0153457533
  0
LWPOLYLINE
  5
451
100
AcDbEntity
  8
RACCORDO
100
AcDbPolyline
 62
250
  6
CONTINUOUS
 90
14
 70
0
 10
-88.2209144998
 20
40.4586269168
 10
-88.2416641204
 20
40.4578183717
 10
-88.2608661902
 20
40.4569679847
 10
-88.2784558916
 20
40.4560775977
 10
-88.2942593675
 20
40.4551668789
 10
-88.3082788236
 20
40.454234937
 10
-88.3205179397
 20
40.4532826631
 10
-88.3309024134
 20
40.452332399
 10
-88.3395008012
 20
40.4513847322
 10
-88.3463924717
 20
40.4504390752
 10
-88.3516171202
 20
40.4495160066
 10
-88.3552931261
 20
40.4486223861
 10
-88.357569216
 20
40.4477513541
 10
-88.358575216
 20
40.4469029106
  0
LWPOLYLINE
  5
452
100
AcDbEntity
  8
RACCORDO
100
AcDbPolyline
 62
250
  6
CONTINUOUS
 90
10
 70
0
 10
-88.7298759897
 20
40.9550904167
 10
-88.7578423667
 20
40.954158583
 10
-88.7822651552
 20
40.9532064196
 10
-88.8031496842
 20
40.9522562412
 10
-88.8203371742
 20
40.9513086239
 10
-88.8339864047
 20
40.9503629915
 10
-88.8445790422
 20
40.9494399301
 10
-88.8522756423
 20
40.9485463018
 10
-88.8569156494
 20
40.9476752445
 10
-88.8584990636
 20
40.9468267582
  0
LINE
  5
453
100
AcDbEntity
  8
RACCORDO
100
AcDbLine
 62
250
  6
CONTINUOUS
 10
-88.1751874538
 20
40.4601098648
 11
-88.2209144998
 21
40.4586269168
  0
LINE
  5
454
100
AcDbEntity
  8
DRAFT
100
AcDbLine
 62
7
  6
CONTINUOUS
 10
77.9859337428
 20
41.0153457533
 11
77.3628860812
 21
40.998511425
  0
LINE
  5
455
100
AcDbEntity
  8
DRAFT
100
AcDbLine
 62
7
  6
CONTINUOUS
 10
58.0140662572
 20
41.2166313899
 11
58.6371139188
 21
41.2334657182
  0
LINE
  5
456
100
AcDbEntity
  8
DRAFT
100
AcDbLine
 62
7
  6
CONTINUOUS
 10
9.9859337428
 20
41.0153457533
 11
9.3628860812
 21
40.998511425
  0
LINE
  5
457
100
AcDbEntity
  8
DRAFT
100
AcDbLine
 62
7
  6
CONTINUOUS
 10
-9.9859337428
 20
41.2166313899
 11
-9.3628860812
 21
41.2334657182
  0
LINE
  5
458
100
AcDbEntity
  8
DRAFT
100
AcDbLine
 62
7
  6
CONTINUOUS
 10
-58.0140662572
 20
41.0153457533
 11
-58.6371139188
 21
40.998511425
  0
LINE
  5
459
100
AcDbEntity
  8
DRAFT
100
AcDbLine
 62
7
  6
CONTINUOUS
 10
-77.9859337428
 20
41.2166313899
 11
-77.3628860812
 21
41.2334657182
  0
LINE
  5
45A
100
AcDbEntity
  8
RACCORDO
100
AcDbLine
 62
250
  6
CONTINUOUS
 10
-88.6630028616
 20
40.9568913176
 11
-88.7298759897
 21
40.9550904167
  0
LINE
  5
45B
100
AcDbEntity
  8
RACCORDO
100
AcDbLine
 62
250
  6
CONTINUOUS
 10
-88.1248780448
 20
40.4613719973
 11
-88.1751874538
 21
40.4601098648
  0
LINE
  5
45C
100
AcDbEntity
  8
DRAFT
100
AcDbLine
 62
7
  6
CONTINUOUS
 10
77.3628860812
 20
40.998511425
 11
76.6466911205
 21
40.9828419296
  0
LINE
  5
45D
100
AcDbEntity
  8
DRAFT
100
AcDbLine
 62
7
  6
CONTINUOUS
 10
58.6371139188
 20
41.2334657182
 11
59.3533088795
 21
41.2491352136
  0
LINE
  5
45E
100
AcDbEntity
  8
DRAFT
100
AcDbLine
 62
7
  6
CONTINUOUS
 10
9.3628860812
 20
40.998511425
 11
8.6466911205
 21
40.9828419296
  0
LINE
  5
45F
100
AcDbEntity
  8
DRAFT
100
AcDbLine
 62
7
  6
CONTINUOUS
 10
-9.3628860812
 20
41.2334657182
 11
-8.6466911205
 21
41.2491352136
  0
LINE
  5
460
100
AcDbEntity
  8
DRAFT
100
AcDbLine
 62
7
  6
CONTINUOUS
 10
-58.6371139188
 20
40.998511425
 11
-59.3533088795
 21
40.9828419296
  0
LINE
  5
461
100
AcDbEntity
  8
DRAFT
100
AcDbLine
 62
7
  6
CONTINUOUS
 10
-77.3628860812
 20
41.2334657182
 11
-76.6466911205
 21
41.2491352136
  0
LINE
  5
462
100
AcDbEntity
  8
RACCORDO
100
AcDbLine
 62
250
  6
CONTINUOUS
 10
-88.5832155946
 20
40.9585501184
 11
-88.6630028616
 21
40.9568913176
  0
LINE
  5
463
100
AcDbEntity
  8
RACCORDO
100
AcDbLine
 62
250
  6
CONTINUOUS
 10
-88.0714806935
 20
40.4623916861
 11
-88.1248780448
 21
40.4613719973
  0
LINE
  5
464
100
AcDbEntity
  8
DRAFT
100
AcDbLine
 62
7
  6
CONTINUOUS
 10
76.6466911205
 20
40.9828419296
 11
75.8427179715
 21
40.9684506988
  0
LINE
  5
465
100
AcDbEntity
  8
DRAFT
100
AcDbLine
 62
7
  6
CONTINUOUS
 10
59.3533088795
 20
41.2491352136
 11
60.1572820285
 21
41.2635264444
  0
LINE
  5
466
100
AcDbEntity
  8
DRAFT
100
AcDbLine
 62
7
  6
CONTINUOUS
 10
8.6466911205
 20
40.9828419296
 11
7.8427179715
 21
40.9684506988
  0
LINE
  5
467
100
AcDbEntity
  8
DRAFT
100
AcDbLine
 62
7
  6
CONTINUOUS
 10
-8.6466911205
 20
41.2491352136
 11
-7.8427179715
 21
41.2635264444
  0
LINE
  5
468
100
AcDbEntity
  8
DRAFT
100
AcDbLine
 62
7
  6
CONTINUOUS
 10
-59.3533088795
 20
40.9828419296
 11
-60.1572820285
 21
40.9684506988
  0
LINE
  5
469
100
AcDbEntity
  8
DRAFT
100
AcDbLine
 62
7
  6
CONTINUOUS
 10
-76.6466911205
 20
41.2491352136
 11
-75.8427179715
 21
41.2635264444
  0
LINE
  5
46A
100
AcDbEntity
  8
DRAFT
100
AcDbLine
 62
7
  6
CONTINUOUS
 10
75.8427179715
 20
40.9684506988
 11
74.9627108391
 21
40.9555650453
  0
LINE
  5
46B
100
AcDbEntity
  8
DRAFT
100
AcDbLine
 62
7
  6
CONTINUOUS
 10
60.1572820285
 20
41.2635264444
 11
61.0372891609
 21
41.2764120979
  0
LINE
  5
46C
100
AcDbEntity
  8
DRAFT
100
AcDbLine
 62
7
  6
CONTINUOUS
 10
7.8427179715
 20
40.9684506988
 11
6.9627108391
 21
40.9555650453
  0
LINE
  5
46D
100
AcDbEntity
  8
DRAFT
100
AcDbLine
 62
7
  6
CONTINUOUS
 10
-7.8427179715
 20
41.2635264444
 11
-6.9627108391
 21
41.2764120979
  0
LINE
  5
46E
100
AcDbEntity
  8
DRAFT
100
AcDbLine
 62
7
  6
CONTINUOUS
 10
-60.1572820285
 20
40.9684506988
 11
-61.0372891609
 21
40.9555650453
  0
LINE
  5
46F
100
AcDbEntity
  8
DRAFT
100
AcDbLine
 62
7
  6
CONTINUOUS
 10
-75.8427179715
 20
41.2635264444
 11
-74.9627108391
 21
41.2764120979
  0
LINE
  5
470
100
AcDbEntity
  8
RACCORDO
100
AcDbLine
 62
250
  6
CONTINUOUS
 10
-88.4425627642
 20
40.9606911851
 11
-88.5832155946
 21
40.9585501184
  0
LINE
  5
471
100
AcDbEntity
  8
RACCORDO
100
AcDbLine
 62
250
  6
CONTINUOUS
 10
-88.0164551663
 20
40.4631610564
 11
-88.0714806935
 21
40.4623916861
  0
LINE
  5
472
100
AcDbEntity
  8
DRAFT
100
AcDbLine
 62
7
  6
CONTINUOUS
 10
74.9627108391
 20
40.9555650453
 11
74.0137421798
 21
40.9442756617
  0
LINE
  5
473
100
AcDbEntity
  8
DRAFT
100
AcDbLine
 62
7
  6
CONTINUOUS
 10
61.0372891609
 20
41.2764120979
 11
61.9862578202
 21
41.2877014814
  0
LINE
  5
474
100
AcDbEntity
  8
DRAFT
100
AcDbLine
 62
7
  6
CONTINUOUS
 10
6.9627108391
 20
40.9555650453
 11
6.0137421798
 21
40.9442756617
  0
LINE
  5
475
100
AcDbEntity
  8
DRAFT
100
AcDbLine
 62
7
  6
CONTINUOUS
 10
-6.9627108391
 20
41.2764120979
 11
-6.0137421798
 21
41.2877014814
  0
LINE
  5
476
100
AcDbEntity
  8
DRAFT
100
AcDbLine
 62
7
  6
CONTINUOUS
 10
-61.0372891609
 20
40.9555650453
 11
-61.9862578202
 21
40.9442756617
  0
LINE
  5
477
100
AcDbEntity
  8
DRAFT
100
AcDbLine
 62
7
  6
CONTINUOUS
 10
-74.9627108391
 20
41.2764120979
 11
-74.0137421798
 21
41.2877014814
  0
LINE
  5
478
100
AcDbEntity
  8
DRAFT
100
AcDbLine
 62
7
  6
CONTINUOUS
 10
74.0137421798
 20
40.9442756617
 11
73.0028023393
 21
40.9346634543
  0
LINE
  5
479
100
AcDbEntity
  8
DRAFT
100
AcDbLine
 62
7
  6
CONTINUOUS
 10
61.9862578202
 20
41.2877014814
 11
62.9971976607
 21
41.2973136888
  0
LINE
  5
47A
100
AcDbEntity
  8
DRAFT
100
AcDbLine
 62
7
  6
CONTINUOUS
 10
6.0137421798
 20
40.9442756617
 11
5.0028023393
 21
40.9346634543
  0
LINE
  5
47B
100
AcDbEntity
  8
DRAFT
100
AcDbLine
 62
7
  6
CONTINUOUS
 10
-6.0137421798
 20
41.2877014814
 11
-5.0028023393
 21
41.2973136888
  0
LINE
  5
47C
100
AcDbEntity
  8
DRAFT
100
AcDbLine
 62
7
  6
CONTINUOUS
 10
-61.9862578202
 20
40.9442756617
 11
-62.9971976607
 21
40.9346634543
  0
LINE
  5
47D
100
AcDbEntity
  8
DRAFT
100
AcDbLine
 62
7
  6
CONTINUOUS
 10
-74.0137421798
 20
41.2877014814
 11
-73.0028023393
 21
41.2973136888
  0
LINE
  5
47E
100
AcDbEntity
  8
RACCORDO
100
AcDbLine
 62
250
  6
CONTINUOUS
 10
-88.2293660627
 20
40.9627308274
 11
-88.4425627642
 21
40.9606911851
  0
LINE
  5
47F
100
AcDbEntity
  8
DRAFT
100
AcDbLine
 62
7
  6
CONTINUOUS
 10
73.0028023393
 20
40.9346634543
 11
71.9437421037
 21
40.9268739177
  0
LINE
  5
480
100
AcDbEntity
  8
DRAFT
100
AcDbLine
 62
7
  6
CONTINUOUS
 10
62.9971976607
 20
41.2973136888
 11
64.0562578963
 21
41.3051032254
  0
LINE
  5
481
100
AcDbEntity
  8
DRAFT
100
AcDbLine
 62
7
  6
CONTINUOUS
 10
5.0028023393
 20
40.9346634543
 11
3.9437421037
 21
40.9268739177
  0
LINE
  5
482
100
AcDbEntity
  8
DRAFT
100
AcDbLine
 62
7
  6
CONTINUOUS
 10
-5.0028023393
 20
41.2973136888
 11
-3.9437421037
 21
41.3051032254
  0
LINE
  5
483
100
AcDbEntity
  8
DRAFT
100
AcDbLine
 62
7
  6
CONTINUOUS
 10
-62.9971976607
 20
40.9346634543
 11
-64.0562578963
 21
40.9268739177
  0
LINE
  5
484
100
AcDbEntity
  8
DRAFT
100
AcDbLine
 62
7
  6
CONTINUOUS
 10
-73.0028023393
 20
41.2973136888
 11
-71.9437421037
 21
41.3051032254
  0
LINE
  5
485
100
AcDbEntity
  8
RACCORDO
100
AcDbLine
 62
250
  6
CONTINUOUS
 10
-87.9347593539
 20
40.4638498801
 11
-88.0164551663
 21
40.4631610564
  0
LINE
  5
486
100
AcDbEntity
  8
DRAFT
100
AcDbLine
 62
7
  6
CONTINUOUS
 10
71.9437421037
 20
40.9268739177
 11
70.8463053056
 21
40.9209670407
  0
LINE
  5
487
100
AcDbEntity
  8
DRAFT
100
AcDbLine
 62
7
  6
CONTINUOUS
 10
3.9437421037
 20
40.9268739177
 11
2.8463053056
 21
40.9209670407
  0
LINE
  5
488
100
AcDbEntity
  8
DRAFT
100
AcDbLine
 62
7
  6
CONTINUOUS
 10
64.0562578963
 20
41.3051032254
 11
65.1536946944
 21
41.3110101025
  0
LINE
  5
489
100
AcDbEntity
  8
DRAFT
100
AcDbLine
 62
7
  6
CONTINUOUS
 10
-64.0562578963
 20
40.9268739177
 11
-65.1536946944
 21
40.9209670407
  0
LINE
  5
48A
100
AcDbEntity
  8
DRAFT
100
AcDbLine
 62
7
  6
CONTINUOUS
 10
-3.9437421037
 20
41.3051032254
 11
-2.8463053056
 21
41.3110101025
  0
LINE
  5
48B
100
AcDbEntity
  8
DRAFT
100
AcDbLine
 62
7
  6
CONTINUOUS
 10
-71.9437421037
 20
41.3051032254
 11
-70.8463053056
 21
41.3110101025
  0
LINE
  5
48C
100
AcDbEntity
  8
DRAFT
100
AcDbLine
 62
7
  6
CONTINUOUS
 10
70.8463053056
 20
40.9209670407
 11
69.7184845139
 21
40.9169848106
  0
LINE
  5
48D
100
AcDbEntity
  8
DRAFT
100
AcDbLine
 62
7
  6
CONTINUOUS
 10
2.8463053056
 20
40.9209670407
 11
1.7184845139
 21
40.9169848106
  0
LINE
  5
48E
100
AcDbEntity
  8
DRAFT
100
AcDbLine
 62
7
  6
CONTINUOUS
 10
65.1536946944
 20
41.3110101025
 11
66.2815154861
 21
41.3149923325
  0
LINE
  5
48F
100
AcDbEntity
  8
DRAFT
100
AcDbLine
 62
7
  6
CONTINUOUS
 10
-65.1536946944
 20
40.9209670407
 11
-66.2815154861
 21
40.9169848106
  0
LINE
  5
490
100
AcDbEntity
  8
DRAFT
100
AcDbLine
 62
7
  6
CONTINUOUS
 10
-2.8463053056
 20
41.3110101025
 11
-1.7184845139
 21
41.3149923325
  0
LINE
  5
491
100
AcDbEntity
  8
DRAFT
100
AcDbLine
 62
7
  6
CONTINUOUS
 10
-70.8463053056
 20
41.3110101025
 11
-69.7184845139
 21
41.3149923325
  0
LINE
  5
492
100
AcDbEntity
  8
RACCORDO
100
AcDbLine
 62
250
  6
CONTINUOUS
 10
-87.9589180908
 20
40.9638954475
 11
-88.2293660627
 21
40.9627308274
  0
LINE
  5
493
100
AcDbEntity
  8
DRAFT
100
AcDbLine
 62
7
  6
CONTINUOUS
 10
69.7184845139
 20
40.9169848106
 11
68.5769914638
 21
40.9149922235
  0
LINE
  5
494
100
AcDbEntity
  8
DRAFT
100
AcDbLine
 62
7
  6
CONTINUOUS
 10
1.7184845139
 20
40.9169848106
 11
0.5769914638
 21
40.9149922235
  0
LINE
  5
495
100
AcDbEntity
  8
DRAFT
100
AcDbLine
 62
7
  6
CONTINUOUS
 10
-66.2815154861
 20
40.9169848106
 11
-67.4230085362
 21
40.9149922235
  0
LINE
  5
496
100
AcDbEntity
  8
DRAFT
100
AcDbLine
 62
7
  6
CONTINUOUS
 10
66.2815154861
 20
41.3149923325
 11
67.4230085362
 21
41.3169849197
  0
LINE
  5
497
100
AcDbEntity
  8
DRAFT
100
AcDbLine
 62
7
  6
CONTINUOUS
 10
-1.7184845139
 20
41.3149923325
 11
-0.5769914638
 21
41.3169849197
  0
LINE
  5
498
100
AcDbEntity
  8
DRAFT
100
AcDbLine
 62
7
  6
CONTINUOUS
 10
-69.7184845139
 20
41.3149923325
 11
-68.5769914638
 21
41.3169849197
  0
LINE
  5
499
100
AcDbEntity
  8
RACCORDO
100
AcDbLine
 62
250
  6
CONTINUOUS
 10
-87.8586513684
 20
40.4640533427
 11
-87.9347593539
 21
40.4638498801
  0
LINE
  5
49A
100
AcDbEntity
  8
RACCORDO
100
AcDbLine
 62
250
  6
CONTINUOUS
 10
-81.9574119919
 20
39.382246477
 11
-88.9425880081
 21
39.382246477
  0
LINE
  5
49B
100
AcDbEntity
  8
RACCORDO
100
AcDbLine
 62
250
  6
CONTINUOUS
 10
-88.6499253618
 20
39.674925864
 11
-94.2242099741
 21
39.6749258819
  0
LINE
  5
49C
100
AcDbEntity
  8
RACCORDO
100
AcDbLine
 62
250
  6
CONTINUOUS
 10
-82.2500746359
 20
39.6749258633
 11
94.2242099741
 21
39.6749258819
  0
LINE
  5
49D
100
AcDbEntity
  8
DRAFT
100
AcDbLine
 62
7
  6
CONTINUOUS
 10
-96.0
 20
39.7
 11
-94.5
 21
39.7
  0
LINE
  5
49E
100
AcDbEntity
  8
DRAFT
100
AcDbLine
 62
7
  6
CONTINUOUS
 10
94.5
 20
39.7
 11
96.0
 21
39.7
  0
LINE
  5
49F
100
AcDbEntity
  8
RACCORDO
100
AcDbLine
 62
250
  6
CONTINUOUS
 10
-82.4564316619
 20
39.8821703245
 11
-88.4435683378
 21
39.8821703245
  0
LINE
  5
4A0
100
AcDbEntity
  8
RACCORDO
100
AcDbLine
 62
7
  6
CONTINUOUS
 10
-83.0413486316
 20
39.9748344851
 11
-87.8586513684
 21
39.9748344851
  0
LINE
  5
4A1
100
AcDbEntity
  8
0
100
AcDbLine
 62
7
  6
CONTINUOUS
 10
96.0
 20
39.9751240074
 11
94.2248759926
 21
39.9751240074
  0
LINE
  5
4A2
100
AcDbEntity
  8
0
100
AcDbLine
 62
7
  6
CONTINUOUS
 10
-94.2248759926
 20
39.9751240074
 11
-96.0
 21
39.9751240074
  0
LINE
  5
4A3
100
AcDbEntity
  8
RACCORDO
100
AcDbLine
 62
250
  6
CONTINUOUS
 10
96.0
 20
40.8747431161
 11
-81.9694172943
 21
40.8747431161
  0
LINE
  5
4A4
100
AcDbEntity
  8
RACCORDO
100
AcDbLine
 62
250
  6
CONTINUOUS
 10
-88.9305827057
 20
40.8747431161
 11
-96.0
 21
40.8747431161
  0
LINE
  5
4A5
100
AcDbEntity
  8
SKEL
100
AcDbLine
 62
7
  6
CONTINUOUS
 10
96.0000001209
 20
41.5000003491
 11
-96.0000001209
 21
41.5000003491
  0
LINE
  5
4A6
100
AcDbEntity
  8
DRAFT
100
AcDbLine
 62
7
  6
CONTINUOUS
 10
96.0
 20
41.5
 11
-96.0
 21
41.5
  0
LINE
  5
4A7
100
AcDbEntity
  8
DRAFT
100
AcDbLine
 62
7
  6
CONTINUOUS
 10
-67.4230085362
 20
40.9149922235
 11
-68.5769914638
 21
40.9149922235
  0
LINE
  5
4A8
100
AcDbEntity
  8
DRAFT
100
AcDbLine
 62
7
  6
CONTINUOUS
 10
0.5769914638
 20
40.9149922235
 11
-0.5769914638
 21
40.9149922235
  0
LINE
  5
4A9
100
AcDbEntity
  8
DRAFT
100
AcDbLine
 62
7
  6
CONTINUOUS
 10
68.5769914638
 20
40.9149922235
 11
67.4230085362
 21
40.9149922235
  0
LINE
  5
4AA
100
AcDbEntity
  8
DRAFT
100
AcDbLine
 62
7
  6
CONTINUOUS
 10
-68.5769914638
 20
41.3169849197
 11
-67.4230085362
 21
41.3169849197
  0
LINE
  5
4AB
100
AcDbEntity
  8
DRAFT
100
AcDbLine
 62
7
  6
CONTINUOUS
 10
-0.5769914638
 20
41.3169849197
 11
0.5769914638
 21
41.3169849197
  0
LINE
  5
4AC
100
AcDbEntity
  8
DRAFT
100
AcDbLine
 62
7
  6
CONTINUOUS
 10
67.4230085362
 20
41.3169849197
 11
68.5769914638
 21
41.3169849197
  0
LINE
  5
4AD
100
AcDbEntity
  8
DRAFT
100
AcDbLine
 62
7
  6
CONTINUOUS
 10
-68.5769914638
 20
40.9149922235
 11
-69.7184845139
 21
40.9169848106
  0
LINE
  5
4AE
100
AcDbEntity
  8
DRAFT
100
AcDbLine
 62
7
  6
CONTINUOUS
 10
-0.5769914638
 20
40.9149922235
 11
-1.7184845139
 21
40.9169848106
  0
LINE
  5
4AF
100
AcDbEntity
  8
DRAFT
100
AcDbLine
 62
7
  6
CONTINUOUS
 10
67.4230085362
 20
40.9149922235
 11
66.2815154861
 21
40.9169848106
  0
LINE
  5
4B0
100
AcDbEntity
  8
DRAFT
100
AcDbLine
 62
7
  6
CONTINUOUS
 10
-67.4230085362
 20
41.3169849197
 11
-66.2815154861
 21
41.3149923325
  0
LINE
  5
4B1
100
AcDbEntity
  8
DRAFT
100
AcDbLine
 62
7
  6
CONTINUOUS
 10
0.5769914638
 20
41.3169849197
 11
1.7184845139
 21
41.3149923325
  0
LINE
  5
4B2
100
AcDbEntity
  8
DRAFT
100
AcDbLine
 62
7
  6
CONTINUOUS
 10
68.5769914638
 20
41.3169849197
 11
69.7184845139
 21
41.3149923325
  0
LINE
  5
4B3
100
AcDbEntity
  8
RACCORDO
100
AcDbLine
 62
250
  6
CONTINUOUS
 10
-82.8891406754
 20
40.963773796
 11
-87.9589180908
 21
40.9638954475
  0
LINE
  5
4B4
100
AcDbEntity
  8
RACCORDO
100
AcDbLine
 62
250
  6
CONTINUOUS
 10
-82.9913757168
 20
40.4639717175
 11
-87.8586513684
 21
40.4640533427
  0
LINE
  5
4B5
100
AcDbEntity
  8
DRAFT
100
AcDbLine
 62
7
  6
CONTINUOUS
 10
-69.7184845139
 20
40.9169848106
 11
-70.8463053056
 21
40.9209670407
  0
LINE
  5
4B6
100
AcDbEntity
  8
DRAFT
100
AcDbLine
 62
7
  6
CONTINUOUS
 10
-1.7184845139
 20
40.9169848106
 11
-2.8463053056
 21
40.9209670407
  0
LINE
  5
4B7
100
AcDbEntity
  8
DRAFT
100
AcDbLine
 62
7
  6
CONTINUOUS
 10
-66.2815154861
 20
41.3149923325
 11
-65.1536946944
 21
41.3110101025
  0
LINE
  5
4B8
100
AcDbEntity
  8
DRAFT
100
AcDbLine
 62
7
  6
CONTINUOUS
 10
66.2815154861
 20
40.9169848106
 11
65.1536946944
 21
40.9209670407
  0
LINE
  5
4B9
100
AcDbEntity
  8
DRAFT
100
AcDbLine
 62
7
  6
CONTINUOUS
 10
1.7184845139
 20
41.3149923325
 11
2.8463053056
 21
41.3110101025
  0
LINE
  5
4BA
100
AcDbEntity
  8
DRAFT
100
AcDbLine
 62
7
  6
CONTINUOUS
 10
69.7184845139
 20
41.3149923325
 11
70.8463053056
 21
41.3110101025
  0
LINE
  5
4BB
100
AcDbEntity
  8
DRAFT
100
AcDbLine
 62
7
  6
CONTINUOUS
 10
-70.8463053056
 20
40.9209670407
 11
-71.9437421037
 21
40.9268739177
  0
LINE
  5
4BC
100
AcDbEntity
  8
DRAFT
100
AcDbLine
 62
7
  6
CONTINUOUS
 10
-2.8463053056
 20
40.9209670407
 11
-3.9437421037
 21
40.9268739177
  0
LINE
  5
4BD
100
AcDbEntity
  8
DRAFT
100
AcDbLine
 62
7
  6
CONTINUOUS
 10
-65.1536946944
 20
41.3110101025
 11
-64.0562578963
 21
41.3051032254
  0
LINE
  5
4BE
100
AcDbEntity
  8
DRAFT
100
AcDbLine
 62
7
  6
CONTINUOUS
 10
65.1536946944
 20
40.9209670407
 11
64.0562578963
 21
40.9268739177
  0
LINE
  5
4BF
100
AcDbEntity
  8
DRAFT
100
AcDbLine
 62
7
  6
CONTINUOUS
 10
2.8463053056
 20
41.3110101025
 11
3.9437421037
 21
41.3051032254
  0
LINE
  5
4C0
100
AcDbEntity
  8
DRAFT
100
AcDbLine
 62
7
  6
CONTINUOUS
 10
70.8463053056
 20
41.3110101025
 11
71.9437421037
 21
41.3051032254
  0
LINE
  5
4C1
100
AcDbEntity
  8
RACCORDO
100
AcDbLine
 62
250
  6
CONTINUOUS
 10
-82.615578247
 20
40.9623154339
 11
-82.8891406754
 21
40.963773796
  0
LINE
  5
4C2
100
AcDbEntity
  8
DRAFT
100
AcDbLine
 62
7
  6
CONTINUOUS
 10
-71.9437421037
 20
40.9268739177
 11
-73.0028023393
 21
40.9346634543
  0
LINE
  5
4C3
100
AcDbEntity
  8
DRAFT
100
AcDbLine
 62
7
  6
CONTINUOUS
 10
-64.0562578963
 20
41.3051032254
 11
-62.9971976607
 21
41.2973136888
  0
LINE
  5
4C4
100
AcDbEntity
  8
DRAFT
100
AcDbLine
 62
7
  6
CONTINUOUS
 10
-3.9437421037
 20
40.9268739177
 11
-5.0028023393
 21
40.9346634543
  0
LINE
  5
4C5
100
AcDbEntity
  8
DRAFT
100
AcDbLine
 62
7
  6
CONTINUOUS
 10
3.9437421037
 20
41.3051032254
 11
5.0028023393
 21
41.2973136888
  0
LINE
  5
4C6
100
AcDbEntity
  8
DRAFT
100
AcDbLine
 62
7
  6
CONTINUOUS
 10
64.0562578963
 20
40.9268739177
 11
62.9971976607
 21
40.9346634543
  0
LINE
  5
4C7
100
AcDbEntity
  8
DRAFT
100
AcDbLine
 62
7
  6
CONTINUOUS
 10
71.9437421037
 20
41.3051032254
 11
73.0028023393
 21
41.2973136888
  0
LINE
  5
4C8
100
AcDbEntity
  8
RACCORDO
100
AcDbLine
 62
250
  6
CONTINUOUS
 10
-82.9110905824
 20
40.4634502834
 11
-82.9913757168
 21
40.4639717175
  0
LINE
  5
4C9
100
AcDbEntity
  8
DRAFT
100
AcDbLine
 62
7
  6
CONTINUOUS
 10
-73.0028023393
 20
40.9346634543
 11
-74.0137421798
 21
40.9442756617
  0
LINE
  5
4CA
100
AcDbEntity
  8
DRAFT
100
AcDbLine
 62
7
  6
CONTINUOUS
 10
-62.9971976607
 20
41.2973136888
 11
-61.9862578202
 21
41.2877014814
  0
LINE
  5
4CB
100
AcDbEntity
  8
DRAFT
100
AcDbLine
 62
7
  6
CONTINUOUS
 10
-5.0028023393
 20
40.9346634543
 11
-6.0137421798
 21
40.9442756617
  0
LINE
  5
4CC
100
AcDbEntity
  8
DRAFT
100
AcDbLine
 62
7
  6
CONTINUOUS
 10
5.0028023393
 20
41.2973136888
 11
6.0137421798
 21
41.2877014814
  0
LINE
  5
4CD
100
AcDbEntity
  8
DRAFT
100
AcDbLine
 62
7
  6
CONTINUOUS
 10
62.9971976607
 20
40.9346634543
 11
61.9862578202
 21
40.9442756617
  0
LINE
  5
4CE
100
AcDbEntity
  8
DRAFT
100
AcDbLine
 62
7
  6
CONTINUOUS
 10
73.0028023393
 20
41.2973136888
 11
74.0137421798
 21
41.2877014814
  0
LINE
  5
4CF
100
AcDbEntity
  8
RACCORDO
100
AcDbLine
 62
250
  6
CONTINUOUS
 10
-82.4574541448
 20
40.9606913948
 11
-82.615578247
 21
40.9623154339
  0
LINE
  5
4D0
100
AcDbEntity
  8
DRAFT
100
AcDbLine
 62
7
  6
CONTINUOUS
 10
-74.0137421798
 20
40.9442756617
 11
-74.9627108391
 21
40.9555650453
  0
LINE
  5
4D1
100
AcDbEntity
  8
DRAFT
100
AcDbLine
 62
7
  6
CONTINUOUS
 10
-61.9862578202
 20
41.2877014814
 11
-61.0372891609
 21
41.2764120979
  0
LINE
  5
4D2
100
AcDbEntity
  8
DRAFT
100
AcDbLine
 62
7
  6
CONTINUOUS
 10
-6.0137421798
 20
40.9442756617
 11
-6.9627108391
 21
40.9555650453
  0
LINE
  5
4D3
100
AcDbEntity
  8
DRAFT
100
AcDbLine
 62
7
  6
CONTINUOUS
 10
6.0137421798
 20
41.2877014814
 11
6.9627108391
 21
41.2764120979
  0
LINE
  5
4D4
100
AcDbEntity
  8
DRAFT
100
AcDbLine
 62
7
  6
CONTINUOUS
 10
61.9862578202
 20
40.9442756617
 11
61.0372891609
 21
40.9555650453
  0
LINE
  5
4D5
100
AcDbEntity
  8
DRAFT
100
AcDbLine
 62
7
  6
CONTINUOUS
 10
74.0137421798
 20
41.2877014814
 11
74.9627108391
 21
41.2764120979
  0
LINE
  5
4D6
100
AcDbEntity
  8
RACCORDO
100
AcDbLine
 62
250
  6
CONTINUOUS
 10
-82.8560151775
 20
40.4628077724
 11
-82.9110905824
 21
40.4634502834
  0
LINE
  5
4D7
100
AcDbEntity
  8
DRAFT
100
AcDbLine
 62
7
  6
CONTINUOUS
 10
-74.9627108391
 20
40.9555650453
 11
-75.8427179715
 21
40.9684506988
  0
LINE
  5
4D8
100
AcDbEntity
  8
DRAFT
100
AcDbLine
 62
7
  6
CONTINUOUS
 10
-61.0372891609
 20
41.2764120979
 11
-60.1572820285
 21
41.2635264444
  0
LINE
  5
4D9
100
AcDbEntity
  8
DRAFT
100
AcDbLine
 62
7
  6
CONTINUOUS
 10
-6.9627108391
 20
40.9555650453
 11
-7.8427179715
 21
40.9684506988
  0
LINE
  5
4DA
100
AcDbEntity
  8
DRAFT
100
AcDbLine
 62
7
  6
CONTINUOUS
 10
6.9627108391
 20
41.2764120979
 11
7.8427179715
 21
41.2635264444
  0
LINE
  5
4DB
100
AcDbEntity
  8
DRAFT
100
AcDbLine
 62
7
  6
CONTINUOUS
 10
61.0372891609
 20
40.9555650453
 11
60.1572820285
 21
40.9684506988
  0
LINE
  5
4DC
100
AcDbEntity
  8
DRAFT
100
AcDbLine
 62
7
  6
CONTINUOUS
 10
74.9627108391
 20
41.2764120979
 11
75.8427179715
 21
41.2635264444
  0
LINE
  5
4DD
100
AcDbEntity
  8
RACCORDO
100
AcDbLine
 62
250
  6
CONTINUOUS
 10
-82.3167704792
 20
40.9585498564
 11
-82.4574541448
 21
40.9606913948
  0
LINE
  5
4DE
100
AcDbEntity
  8
RACCORDO
100
AcDbLine
 62
250
  6
CONTINUOUS
 10
-82.8015393494
 20
40.4619144622
 11
-82.8560151775
 21
40.4628077724
  0
LINE
  5
4DF
100
AcDbEntity
  8
DRAFT
100
AcDbLine
 62
7
  6
CONTINUOUS
 10
-75.8427179715
 20
40.9684506988
 11
-76.6466911205
 21
40.9828419296
  0
LINE
  5
4E0
100
AcDbEntity
  8
DRAFT
100
AcDbLine
 62
7
  6
CONTINUOUS
 10
-60.1572820285
 20
41.2635264444
 11
-59.3533088795
 21
41.2491352136
  0
LINE
  5
4E1
100
AcDbEntity
  8
DRAFT
100
AcDbLine
 62
7
  6
CONTINUOUS
 10
-7.8427179715
 20
40.9684506988
 11
-8.6466911205
 21
40.9828419296
  0
LINE
  5
4E2
100
AcDbEntity
  8
DRAFT
100
AcDbLine
 62
7
  6
CONTINUOUS
 10
7.8427179715
 20
41.2635264444
 11
8.6466911205
 21
41.2491352136
  0
LINE
  5
4E3
100
AcDbEntity
  8
DRAFT
100
AcDbLine
 62
7
  6
CONTINUOUS
 10
60.1572820285
 20
40.9684506988
 11
59.3533088795
 21
40.9828419296
  0
LINE
  5
4E4
100
AcDbEntity
  8
DRAFT
100
AcDbLine
 62
7
  6
CONTINUOUS
 10
75.8427179715
 20
41.2635264444
 11
76.6466911205
 21
41.2491352136
  0
LINE
  5
4E5
100
AcDbEntity
  8
RACCORDO
100
AcDbLine
 62
250
  6
CONTINUOUS
 10
-82.2369696018
 20
40.9568906631
 11
-82.3167704792
 21
40.9585498564
  0
LINE
  5
4E6
100
AcDbEntity
  8
DRAFT
100
AcDbLine
 62
7
  6
CONTINUOUS
 10
-76.6466911205
 20
40.9828419296
 11
-77.3628860812
 21
40.998511425
  0
LINE
  5
4E7
100
AcDbEntity
  8
DRAFT
100
AcDbLine
 62
7
  6
CONTINUOUS
 10
-59.3533088795
 20
41.2491352136
 11
-58.6371139188
 21
41.2334657182
  0
LINE
  5
4E8
100
AcDbEntity
  8
DRAFT
100
AcDbLine
 62
7
  6
CONTINUOUS
 10
-8.6466911205
 20
40.9828419296
 11
-9.3628860812
 21
40.998511425
  0
LINE
  5
4E9
100
AcDbEntity
  8
DRAFT
100
AcDbLine
 62
7
  6
CONTINUOUS
 10
8.6466911205
 20
41.2491352136
 11
9.3628860812
 21
41.2334657182
  0
LINE
  5
4EA
100
AcDbEntity
  8
DRAFT
100
AcDbLine
 62
7
  6
CONTINUOUS
 10
59.3533088795
 20
40.9828419296
 11
58.6371139188
 21
40.998511425
  0
LINE
  5
4EB
100
AcDbEntity
  8
DRAFT
100
AcDbLine
 62
7
  6
CONTINUOUS
 10
76.6466911205
 20
41.2491352136
 11
77.3628860812
 21
41.2334657182
  0
LINE
  5
4EC
100
AcDbEntity
  8
RACCORDO
100
AcDbLine
 62
250
  6
CONTINUOUS
 10
-82.7494576046
 20
40.4607682308
 11
-82.8015393494
 21
40.4619144622
  0
LWPOLYLINE
  5
4ED
100
AcDbEntity
  8
DRAFT
100
AcDbPolyline
 62
7
  6
CONTINUOUS
 90
13
 70
0
 10
-77.3628860812
 20
40.998511425
 10
-77.9859337428
 20
41.0153457533
 10
-78.2608545279
 20
41.0241628462
 10
-78.5112599952
 20
41.0332379863
 10
-78.7348120768
 20
41.042486112
 10
-78.9310366818
 20
41.0518960404
 10
-79.100407901
 20
41.0614789544
 10
-79.2420099393
 20
41.0711833414
 10
-79.3558098506
 20
41.0810236696
 10
-79.441840581
 20
41.0909854708
 10
-79.4992851742
 20
41.1009738277
 10
-79.5278713114
 20
41.1109748051
 10
-79.5314433737
 20
41.115896487
  0
LWPOLYLINE
  5
4EE
100
AcDbEntity
  8
DRAFT
100
AcDbPolyline
 62
7
  6
CONTINUOUS
 90
13
 70
0
 10
-58.6371139188
 20
41.2334657182
 10
-58.0140662572
 20
41.2166313899
 10
-57.7391454721
 20
41.207814297
 10
-57.4887400048
 20
41.1987391569
 10
-57.2651879232
 20
41.1894910311
 10
-57.0689633182
 20
41.1800811028
 10
-56.899592099
 20
41.1704981888
 10
-56.7579900607
 20
41.1607938018
 10
-56.6441901494
 20
41.1509534736
 10
-56.558159419
 20
41.1409916724
 10
-56.5007148258
 20
41.1310033154
 10
-56.4721286886
 20
41.1210023381
 10
-56.4685566263
 20
41.115896487
  0
LWPOLYLINE
  5
4EF
100
AcDbEntity
  8
DRAFT
100
AcDbPolyline
 62
7
  6
CONTINUOUS
 90
13
 70
0
 10
-9.3628860812
 20
40.998511425
 10
-9.9859337428
 20
41.0153457533
 10
-10.2608545279
 20
41.0241628462
 10
-10.5112599952
 20
41.0332379863
 10
-10.7348120768
 20
41.042486112
 10
-10.9310366818
 20
41.0518960404
 10
-11.100407901
 20
41.0614789544
 10
-11.2420099393
 20
41.0711833414
 10
-11.3558098506
 20
41.0810236696
 10
-11.441840581
 20
41.0909854708
 10
-11.4992851742
 20
41.1009738277
 10
-11.5278713114
 20
41.1109748051
 10
-11.5314433737
 20
41.115896487
  0
LWPOLYLINE
  5
4F0
100
AcDbEntity
  8
DRAFT
100
AcDbPolyline
 62
7
  6
CONTINUOUS
 90
13
 70
0
 10
9.3628860812
 20
41.2334657182
 10
9.9859337428
 20
41.2166313899
 10
10.2608545279
 20
41.207814297
 10
10.5112599952
 20
41.1987391569
 10
10.7348120768
 20
41.1894910311
 10
10.9310366818
 20
41.1800811028
 10
11.100407901
 20
41.1704981888
 10
11.2420099393
 20
41.1607938018
 10
11.3558098506
 20
41.1509534736
 10
11.441840581
 20
41.1409916724
 10
11.4992851742
 20
41.1310033154
 10
11.5278713114
 20
41.1210023381
 10
11.5314433737
 20
41.115896487
  0
LWPOLYLINE
  5
4F1
100
AcDbEntity
  8
DRAFT
100
AcDbPolyline
 62
7
  6
CONTINUOUS
 90
13
 70
0
 10
58.6371139188
 20
40.998511425
 10
58.0140662572
 20
41.0153457533
 10
57.7391454721
 20
41.0241628462
 10
57.4887400048
 20
41.0332379863
 10
57.2651879232
 20
41.042486112
 10
57.0689633182
 20
41.0518960404
 10
56.899592099
 20
41.0614789544
 10
56.7579900607
 20
41.0711833414
 10
56.6441901494
 20
41.0810236696
 10
56.558159419
 20
41.0909854708
 10
56.5007148258
 20
41.1009738277
 10
56.4721286886
 20
41.1109748051
 10
56.4685566263
 20
41.115896487
  0
LWPOLYLINE
  5
4F2
100
AcDbEntity
  8
DRAFT
100
AcDbPolyline
 62
7
  6
CONTINUOUS
 90
13
 70
0
 10
77.3628860812
 20
41.2334657182
 10
77.9859337428
 20
41.2166313899
 10
78.2608545279
 20
41.207814297
 10
78.5112599952
 20
41.1987391569
 10
78.7348120768
 20
41.1894910311
 10
78.9310366818
 20
41.1800811028
 10
79.100407901
 20
41.1704981888
 10
79.2420099393
 20
41.1607938018
 10
79.3558098506
 20
41.1509534736
 10
79.441840581
 20
41.1409916724
 10
79.4992851742
 20
41.1310033154
 10
79.5278713114
 20
41.1210023381
 10
79.5314433737
 20
41.115896487
  0
LWPOLYLINE
  5
4F3
100
AcDbEntity
  8
DRAFT
100
AcDbPolyline
 62
7
  6
CONTINUOUS
 90
13
 70
0
 10
79.5314433737
 20
-41.115896487
 10
79.5278713114
 20
-41.1109748051
 10
79.4992851742
 20
-41.1009738277
 10
79.441840581
 20
-41.0909854708
 10
79.3558098506
 20
-41.0810236696
 10
79.2420099393
 20
-41.0711833414
 10
79.100407901
 20
-41.0614789544
 10
78.9310366818
 20
-41.0518960404
 10
78.7348120768
 20
-41.042486112
 10
78.5112599952
 20
-41.0332379863
 10
78.2608545279
 20
-41.0241628462
 10
77.9859337428
 20
-41.0153457533
 10
77.3628860812
 20
-40.998511425
  0
LWPOLYLINE
  5
4F4
100
AcDbEntity
  8
RACCORDO
100
AcDbPolyline
 62
7
  6
CONTINUOUS
 90
3
 70
0
 10
100.0252280233
 20
25.8504606248
 10
100.0580581499
 20
25.8832108441
 10
100.1478613442
 20
25.9731629246
  0
LINE
  5
4F5
100
AcDbEntity
  8
RACCORDO
100
AcDbLine
 62
7
  6
CONTINUOUS
 10
100.1478613442
 20
25.9731629246
 11
100.1945186682
 21
26.0195828208
  0
LWPOLYLINE
  5
4F6
100
AcDbEntity
  8
RACCORDO
100
AcDbPolyline
 62
7
  6
CONTINUOUS
 90
3
 70
0
 10
99.8822464769
 20
25.7074119919
 10
99.9197565292
 20
25.7446612171
 10
100.0252280233
 20
25.8504606248
  0
LINE
  5
4F7
100
AcDbEntity
  8
RACCORDO
100
AcDbLine
 62
7
  6
CONTINUOUS
 10
100.1945186682
 20
26.0195828208
 11
100.2142161248
 21
26.0386795953
  0
LWPOLYLINE
  5
4F8
100
AcDbEntity
  8
RACCORDO
100
AcDbPolyline
 62
7
  6
CONTINUOUS
 90
9
 70
0
 10
100.3077489267
 20
26.1272033657
 10
100.323829093
 20
26.1426947844
 10
100.3382538924
 20
26.1567550688
 10
100.3508570636
 20
26.1693176043
 10
100.3615272705
 20
26.1804490055
 10
100.3700554462
 20
26.189764581
 10
100.3763589959
 20
26.1971361003
 10
100.3804127815
 20
26.202691794
 10
100.3821703245
 20
26.2064316619
  0
LINE
  5
4F9
100
AcDbEntity
  8
RACCORDO
100
AcDbLine
 62
7
  6
CONTINUOUS
 10
100.2142161248
 20
26.0386795953
 11
100.3077489267
 21
26.1272033657
  0
LWPOLYLINE
  5
4FA
100
AcDbEntity
  8
DRAFT
100
AcDbPolyline
 62
7
  6
CONTINUOUS
 90
13
 70
0
 10
101.615896487
 20
11.5314433737
 10
101.6109748051
 20
11.5278713114
 10
101.6009738277
 20
11.4992851742
 10
101.5909854708
 20
11.441840581
 10
101.5810236696
 20
11.3558098506
 10
101.5711833414
 20
11.2420099393
 10
101.5614789544
 20
11.100407901
 10
101.5518960404
 20
10.9310366818
 10
101.542486112
 20
10.7348120768
 10
101.5332379863
 20
10.5112599952
 10
101.5241628462
 20
10.2608545279
 10
101.5153457533
 20
9.9859337428
 10
101.498511425
 20
9.3628860812
  0
LINE
  5
4FB
100
AcDbEntity
  8
RACCORDO
100
AcDbLine
 62
7
  6
CONTINUOUS
 10
100.4662592691
 20
26.291424784
 11
100.3827210873
 21
26.2078866022
  0
LINE
  5
4FC
100
AcDbEntity
  8
RACCORDO
100
AcDbLine
 62
250
  6
CONTINUOUS
 10
100.8748192685
 20
26.2193411419
 11
100.9469029106
 21
26.291424784
  0
LINE
  5
4FD
100
AcDbEntity
  8
RACCORDO
100
AcDbLine
 62
250
  6
CONTINUOUS
 10
101.3747431161
 20
25.7194172943
 11
101.4468267582
 21
25.7915009364
  0
LWPOLYLINE
  5
4FE
100
AcDbEntity
  8
RACCORDO
100
AcDbPolyline
 62
250
  6
CONTINUOUS
 90
8
 70
0
 10
101.3747431161
 20
32.6805827057
 10
101.370888332
 20
32.6813764027
 10
101.3620393461
 20
32.6821596975
 10
101.3482268862
 20
32.68293259
 10
101.329503036
 20
32.6836982083
 10
101.3059397378
 20
32.6844534243
 10
101.277627357
 20
32.6851888541
 10
101.2072042722
 20
32.6866001803
  0
LWPOLYLINE
  5
4FF
100
AcDbEntity
  8
RACCORDO
100
AcDbPolyline
 62
250
  6
CONTINUOUS
 90
16
 70
0
 10
100.9469029106
 20
26.291424784
 10
100.9477508914
 20
26.2924299084
 10
100.9486215551
 20
26.2947040893
 10
100.9495149018
 20
26.2983774893
 10
100.9504378009
 20
26.3035992481
 10
100.9513833829
 20
26.3104881162
 10
100.9523310395
 20
26.3190839862
 10
100.9532813602
 20
26.3294665334
 10
100.9542337554
 20
26.3417046271
 10
100.9551658478
 20
26.3557239393
 10
100.9560767458
 20
26.3715283268
 10
100.9569673409
 20
26.3891201607
 10
100.9578179311
 20
26.4083252841
 10
100.9586266709
 20
26.42907891
 10
100.9593954057
 20
26.4513233036
 10
100.9607682308
 20
26.4994576046
  0
LWPOLYLINE
  5
500
100
AcDbEntity
  8
RACCORDO
100
AcDbPolyline
 62
250
  6
CONTINUOUS
 90
10
 70
0
 10
100.8748192685
 20
32.1806588581
 10
100.8722316668
 20
32.1815112027
 10
100.8663563206
 20
32.182351034
 10
100.8571932299
 20
32.1831783518
 10
100.8446701809
 20
32.1839971356
 10
100.8288593874
 20
32.184803406
 10
100.8099774912
 20
32.1855852252
 10
100.7879728079
 20
32.1863422914
 10
100.7628970218
 20
32.1870749063
 10
100.704615307
 20
32.1884329418
  0
LINE
  5
501
100
AcDbEntity
  8
0
100
AcDbLine
 62
7
  6
CONTINUOUS
 10
67.25
 20
-11.4816392509
 11
67.25
 21
-10.398724427
  0
LINE
  5
502
100
AcDbEntity
  8
0
100
AcDbLine
 62
7
  6
CONTINUOUS
 10
67.25
 20
10.398724427
 11
67.25
 21
11.481639251
  0
LINE
  5
503
100
AcDbEntity
  8
0
100
AcDbLine
 62
7
  6
CONTINUOUS
 10
68.75
 20
11.481639251
 11
68.75
 21
10.398724427
  0
LINE
  5
504
100
AcDbEntity
  8
0
100
AcDbLine
 62
7
  6
CONTINUOUS
 10
68.75
 20
-10.398724427
 11
68.75
 21
-11.4816392509
  0
LWPOLYLINE
  5
505
100
AcDbEntity
  8
DRAFT
100
AcDbPolyline
 62
7
  6
CONTINUOUS
 90
13
 70
0
 10
101.615896487
 20
-11.5314433737
 10
101.6210023381
 20
-11.5278713114
 10
101.6310033154
 20
-11.4992851742
 10
101.6409916723
 20
-11.441840581
 10
101.6509534736
 20
-11.3558098506
 10
101.6607938018
 20
-11.2420099393
 10
101.6704981888
 20
-11.100407901
 10
101.6800811028
 20
-10.9310366818
 10
101.6894910311
 20
-10.7348120768
 10
101.6987391569
 20
-10.5112599952
 10
101.707814297
 20
-10.2608545279
 10
101.7166313899
 20
-9.9859337428
 10
101.7334657182
 20
-9.3628860812
  0
LWPOLYLINE
  5
506
100
AcDbEntity
  8
RACCORDO
100
AcDbPolyline
 62
7
  6
CONTINUOUS
 90
9
 70
0
 10
88.4435683378
 20
-39.8821703245
 10
88.4472995131
 20
-39.8804070307
 10
88.4528895386
 20
-39.8763276025
 10
88.4603384143
 20
-39.8699645827
 10
88.4697997247
 20
-39.8613115083
 10
88.4811198852
 20
-39.8504483789
 10
88.4938381431
 20
-39.837652374
 10
88.5079911861
 20
-39.8231039511
 10
88.5235423264
 20
-39.8069582697
  0
LWPOLYLINE
  5
507
100
AcDbEntity
  8
RACCORDO
100
AcDbPolyline
 62
250
  6
CONTINUOUS
 90
8
 70
0
 10
82.4636577087
 20
-40.2879728056
 10
82.4644147748
 20
-40.3099774879
 10
82.465196594
 20
-40.3288593862
 10
82.4660028644
 20
-40.3446701832
 10
82.4668216481
 20
-40.3571932343
 10
82.467648966
 20
-40.3663563249
 10
82.4684887972
 20
-40.3722316696
 10
82.4693411419
 20
-40.3748192685
  0
LWPOLYLINE
  5
508
100
AcDbEntity
  8
RACCORDO
100
AcDbPolyline
 62
250
  6
CONTINUOUS
 90
6
 70
0
 10
81.9655465758
 20
-40.8059397378
 10
81.9663017919
 20
-40.829503036
 10
81.9670674101
 20
-40.8482268861
 10
81.9678403026
 20
-40.8620393461
 10
81.9686235973
 20
-40.870888332
 10
81.9694172943
 20
-40.8747431161
  0
LINE
  5
509
100
AcDbEntity
  8
RACCORDO
100
AcDbLine
 62
250
  6
CONTINUOUS
 10
82.4622279625
 20
-40.2351218303
 11
82.4636577087
 21
-40.2879728056
  0
LINE
  5
50A
100
AcDbEntity
  8
RACCORDO
100
AcDbLine
 62
250
  6
CONTINUOUS
 10
81.9640955897
 20
-40.7446697358
 11
81.9655465758
 21
-40.8059397378
  0
LINE
  5
50B
100
AcDbEntity
  8
RACCORDO
100
AcDbLine
 62
250
  6
CONTINUOUS
 10
82.4609416376
 20
-40.1714093775
 11
82.4622279625
 21
-40.2351218303
  0
LINE
  5
50C
100
AcDbEntity
  8
RACCORDO
100
AcDbLine
 62
250
  6
CONTINUOUS
 10
81.962732957
 20
-40.6654080484
 11
81.9640955897
 21
-40.7446697358
  0
LINE
  5
50D
100
AcDbEntity
  8
RACCORDO
100
AcDbLine
 62
250
  6
CONTINUOUS
 10
81.9609149354
 20
-40.5159224306
 11
81.962732957
 21
-40.6654080484
  0
LINE
  5
50E
100
AcDbEntity
  8
RACCORDO
100
AcDbLine
 62
250
  6
CONTINUOUS
 10
81.9590118305
 20
-40.2684167752
 11
81.9609149354
 21
-40.5159224306
  0
LINE
  5
50F
100
AcDbEntity
  8
0
100
AcDbLine
 62
7
  6
CONTINUOUS
 10
75.0
 20
26.6
 11
75.0
 21
26.4
  0
LWPOLYLINE
  5
510
100
AcDbEntity
  8
RACCORDO
100
AcDbPolyline
 62
250
  6
CONTINUOUS
 90
11
 70
0
 10
101.4468267582
 20
25.7915009364
 10
101.4476747836
 20
25.7930814044
 10
101.4485454739
 20
25.7977178437
 10
101.4494388292
 20
25.8054102543
 10
101.4503617216
 20
25.8159975061
 10
101.451307279
 20
25.8296407293
 10
101.4522548853
 20
25.8468233138
 10
101.4532051184
 20
25.8677043155
 10
101.4541574004
 20
25.8921246785
 10
101.4550893816
 20
25.920090625
 10
101.4568906631
 20
25.9869696018
  0
LWPOLYLINE
  5
511
100
AcDbEntity
  8
RACCORDO
100
AcDbPolyline
 62
250
  6
CONTINUOUS
 90
16
 70
0
 10
88.358575216
 20
-40.4469029106
 10
88.3613287036
 20
-40.4991490889
 10
88.3695271835
 20
-40.5508230688
 10
88.383080866
 20
-40.6013589188
 10
88.4018413118
 20
-40.6502031721
 10
88.4256030572
 20
-40.6968208882
 10
88.4541058643
 20
-40.7407015113
 10
88.4870375714
 20
-40.7813644626
 10
88.5240375116
 20
-40.8183644029
 10
88.5647004629
 20
-40.85129611
 10
88.6085810861
 20
-40.8797989171
 10
88.6551988021
 20
-40.9035606624
 10
88.7040430554
 20
-40.9223211082
 10
88.7545789054
 20
-40.9358747908
 10
88.8062528854
 20
-40.9440732706
 10
88.8584990636
 20
-40.9468267582
  0
LWPOLYLINE
  5
512
100
AcDbEntity
  8
RACCORDO
100
AcDbPolyline
 62
250
  6
CONTINUOUS
 90
16
 70
0
 10
88.4306588581
 20
-40.3748192685
 10
88.4334122763
 20
-40.4270647886
 10
88.4416105718
 20
-40.4787382352
 10
88.4551639917
 20
-40.5292736895
 10
88.4739241349
 20
-40.5781176923
 10
88.4976855739
 20
-40.6247352985
 10
88.5261881013
 20
-40.6686159366
 10
88.5591195877
 20
-40.7092790159
 10
88.5961193913
 20
-40.7462791746
 10
88.6367822978
 20
-40.7792111553
 10
88.6806629841
 20
-40.8077142682
 10
88.727280878
 20
-40.8314763231
 10
88.7761254034
 20
-40.8502370456
 10
88.8266616073
 20
-40.8637909487
 10
88.8783360226
 20
-40.8719895753
 10
88.9305827058
 20
-40.8747431161
  0
LINE
  5
513
100
AcDbEntity
  8
RACCORDO
100
AcDbLine
 62
250
  6
CONTINUOUS
 10
82.4593321223
 20
-40.0583179827
 11
82.4609416376
 21
-40.1714093775
  0
LWPOLYLINE
  5
514
100
AcDbEntity
  8
RACCORDO
100
AcDbPolyline
 62
250
  6
CONTINUOUS
 90
3
 70
0
 10
82.45788666
 20
-39.882721145
 10
82.4581701005
 20
-39.9290335958
 10
82.4593321223
 20
-40.0583179827
  0
LINE
  5
515
100
AcDbEntity
  8
RACCORDO
100
AcDbLine
 62
250
  6
CONTINUOUS
 10
81.9575155302
 20
-39.8298618947
 11
81.9590118305
 21
-40.2684167752
  0
LINE
  5
516
100
AcDbEntity
  8
RACCORDO
100
AcDbLine
 62
250
  6
CONTINUOUS
 10
81.9574119919
 20
-39.3822464769
 11
81.9575155302
 21
-39.8298618947
  0
LINE
  5
517
100
AcDbEntity
  8
RACCORDO
100
AcDbLine
 62
250
  6
CONTINUOUS
 10
82.541424784
 20
-40.4469029106
 11
82.541424784
 21
-39.9662592691
  0
LINE
  5
518
100
AcDbEntity
  8
RACCORDO
100
AcDbLine
 62
250
  6
CONTINUOUS
 10
83.0413486316
 20
-39.9748344851
 11
83.0413486316
 21
-40.9639771903
  0
LINE
  5
519
100
AcDbEntity
  8
RACCORDO
100
AcDbLine
 62
250
  6
CONTINUOUS
 10
87.8586513684
 20
-39.9748344851
 11
87.8586513685
 21
-40.9639771903
  0
LINE
  5
51A
100
AcDbEntity
  8
RACCORDO
100
AcDbLine
 62
250
  6
CONTINUOUS
 10
88.358575216
 20
-39.9662592691
 11
88.358575216
 21
-40.4469029106
  0
LINE
  5
51B
100
AcDbEntity
  8
RACCORDO
100
AcDbLine
 62
250
  6
CONTINUOUS
 10
88.9419549719
 20
-40.0560617898
 11
88.9425880081
 21
-39.3822464769
  0
LINE
  5
51C
100
AcDbEntity
  8
RACCORDO
100
AcDbLine
 62
250
  6
CONTINUOUS
 10
88.4411083783
 20
-40.0167336255
 11
88.4421133401
 21
-39.882721145
  0
LINE
  5
51D
100
AcDbEntity
  8
RACCORDO
100
AcDbLine
 62
250
  6
CONTINUOUS
 10
88.4396394966
 20
-40.1359714998
 11
88.4411083783
 21
-40.0167336255
  0
LWPOLYLINE
  5
51E
100
AcDbEntity
  8
RACCORDO
100
AcDbPolyline
 62
250
  6
CONTINUOUS
 90
16
 70
0
 10
82.4693411419
 20
-40.3748192685
 10
82.4665876542
 20
-40.4270654467
 10
82.4583891744
 20
-40.4787394267
 10
82.4448354919
 20
-40.5292752767
 10
82.4260750461
 20
-40.57811953
 10
82.4023133007
 20
-40.624737246
 10
82.3738104936
 20
-40.6686178692
 10
82.3408787866
 20
-40.7092808205
 10
82.3038788463
 20
-40.7462807607
 10
82.263215895
 20
-40.7792124678
 10
82.2193352718
 20
-40.8077152749
 10
82.1727175558
 20
-40.8314770203
 10
82.1238733025
 20
-40.8502374661
 10
82.0733374525
 20
-40.8637911486
 10
82.0216634725
 20
-40.8719896285
 10
81.9694172943
 20
-40.8747431161
  0
LWPOLYLINE
  5
51F
100
AcDbEntity
  8
RACCORDO
100
AcDbPolyline
 62
250
  6
CONTINUOUS
 90
16
 70
0
 10
82.541424784
 20
-40.4469029106
 10
82.5386713035
 20
-40.4991490209
 10
82.5304728435
 20
-40.5508229421
 10
82.5169191908
 20
-40.6013587442
 10
82.4981587825
 20
-40.6502029605
 10
82.4743970792
 20
-40.696820652
 10
82.4458943138
 20
-40.7407012663
 10
82.4129626441
 20
-40.7813642234
 10
82.3759627339
 20
-40.8183641819
 10
82.3352998003
 20
-40.8512959187
 10
82.2914191794
 20
-40.8797987637
 10
82.2448014488
 20
-40.9035605507
 10
82.1959571615
 20
-40.9223210377
 10
82.1454212575
 20
-40.9358747561
 10
82.0937472047
 20
-40.9440732611
 10
82.0415009364
 20
-40.9468267582
  0
LWPOLYLINE
  5
520
100
AcDbEntity
  8
RACCORDO
100
AcDbPolyline
 62
7
  6
CONTINUOUS
 90
7
 70
0
 10
88.4421133978
 20
-39.8827210873
 10
88.4422300673
 20
-39.8826292232
 10
88.4423970651
 20
-39.8825373872
 10
88.442614391
 20
-39.8824455793
 10
88.4428820451
 20
-39.8823537996
 10
88.4432000274
 20
-39.882262048
 10
88.4435683378
 20
-39.8821703245
  0
LINE
  5
521
100
AcDbEntity
  8
0
100
AcDbLine
 62
7
  6
CONTINUOUS
 10
94.2242099741
 20
-39.6749258819
 11
94.2242099741
 21
-35.5
  0
LINE
  5
522
100
AcDbEntity
  8
0
100
AcDbLine
 62
7
  6
CONTINUOUS
 10
94.2242099741
 20
35.5
 11
94.2242099741
 21
39.6749258819
  0
LINE
  5
523
100
AcDbEntity
  8
DRAFT
100
AcDbLine
 62
7
  6
CONTINUOUS
 10
94.5
 20
-39.7
 11
94.5
 21
-35.5
  0
LINE
  5
524
100
AcDbEntity
  8
DRAFT
100
AcDbLine
 62
7
  6
CONTINUOUS
 10
94.5
 20
35.5
 11
94.5
 21
39.7
  0
LINE
  5
525
100
AcDbEntity
  8
DRAFT
100
AcDbLine
 62
250
  6
CONTINUOUS
 10
96.0
 20
34.0
 11
96.0
 21
33.7242099741
  0
LINE
  5
526
100
AcDbEntity
  8
DRAFT
100
AcDbLine
 62
250
  6
CONTINUOUS
 10
96.0
 20
-34.0
 11
96.0
 21
-33.7242099741
  0
LINE
  5
527
100
AcDbEntity
  8
0
100
AcDbLine
 62
250
  6
CONTINUOUS
 10
96.0
 20
-39.7
 11
96.0
 21
-41.5
  0
LINE
  5
528
100
AcDbEntity
  8
0
100
AcDbLine
 62
250
  6
CONTINUOUS
 10
96.0
 20
39.7
 11
96.0
 21
41.5
  0
LINE
  5
529
100
AcDbEntity
  8
RACCORDO
100
AcDbLine
 62
250
  6
CONTINUOUS
 10
88.9401192544
 20
-40.3982427903
 11
88.9419549719
 21
-40.0560617898
  0
LINE
  5
52A
100
AcDbEntity
  8
RACCORDO
100
AcDbLine
 62
250
  6
CONTINUOUS
 10
88.9379044594
 20
-40.61947045
 11
88.9401192544
 21
-40.3982427903
  0
LINE
  5
52B
100
AcDbEntity
  8
RACCORDO
100
AcDbLine
 62
250
  6
CONTINUOUS
 10
88.9366001803
 20
-40.7072042722
 11
88.9379044594
 21
-40.61947045
  0
LINE
  5
52C
100
AcDbEntity
  8
RACCORDO
100
AcDbLine
 62
250
  6
CONTINUOUS
 10
88.4384329418
 20
-40.204615307
 11
88.4396394966
 21
-40.1359714998
  0
LWPOLYLINE
  5
52D
100
AcDbEntity
  8
RACCORDO
100
AcDbPolyline
 62
250
  6
CONTINUOUS
 90
8
 70
0
 10
88.9305827057
 20
-40.8747431161
 10
88.9313764027
 20
-40.870888332
 10
88.9321596975
 20
-40.8620393461
 10
88.93293259
 20
-40.8482268862
 10
88.9336982083
 20
-40.829503036
 10
88.9344534243
 20
-40.8059397378
 10
88.9351888541
 20
-40.777627357
 10
88.9366001803
 20
-40.7072042722
  0
LWPOLYLINE
  5
52E
100
AcDbEntity
  8
RACCORDO
100
AcDbPolyline
 62
7
  6
CONTINUOUS
 90
7
 70
0
 10
100.3821703245
 20
26.2064316619
 10
100.3822620994
 20
26.2068001082
 10
100.3823538819
 20
26.207118172
 10
100.3824456719
 20
26.2073858533
 10
100.3825374695
 20
26.2076031521
 10
100.3826292746
 20
26.2077700684
 10
100.3827210873
 20
26.2078866022
  0
LWPOLYLINE
  5
52F
100
AcDbEntity
  8
RACCORDO
100
AcDbPolyline
 62
7
  6
CONTINUOUS
 90
3
 70
0
 10
88.5235423264
 20
-39.8069582697
 10
88.6119487131
 20
-39.7135453996
 10
88.6307771167
 20
-39.6941278168
  0
LINE
  5
530
100
AcDbEntity
  8
RACCORDO
100
AcDbLine
 62
7
  6
CONTINUOUS
 10
88.358575216
 20
-39.9662592691
 11
88.4421133401
 21
-39.882721145
  0
LINE
  5
531
100
AcDbEntity
  8
RACCORDO
100
AcDbLine
 62
250
  6
CONTINUOUS
 10
88.358575216
 20
-40.4469029106
 11
88.4306588581
 21
-40.3748192685
  0
LINE
  5
532
100
AcDbEntity
  8
RACCORDO
100
AcDbLine
 62
250
  6
CONTINUOUS
 10
88.8584990636
 20
-40.9468267582
 11
88.9305827057
 21
-40.8747431161
  0
LINE
  5
533
100
AcDbEntity
  8
0
100
AcDbLine
 62
7
  6
CONTINUOUS
 10
94.5
 20
-39.7
 11
94.2248759926
 21
-39.9751240074
  0
LINE
  5
534
100
AcDbEntity
  8
0
100
AcDbLine
 62
7
  6
CONTINUOUS
 10
100.2
 20
-34.0
 11
100.4751240074
 21
-33.7248759926
  0
LINE
  5
535
100
AcDbEntity
  8
RACCORDO
100
AcDbLine
 62
7
  6
CONTINUOUS
 10
88.6307771167
 20
-39.6941278168
 11
88.7053415577
 21
-39.6193748116
  0
LWPOLYLINE
  5
536
100
AcDbEntity
  8
RACCORDO
100
AcDbPolyline
 62
7
  6
CONTINUOUS
 90
3
 70
0
 10
88.7053415577
 20
-39.6193748116
 10
88.8689584926
 20
-39.4560772134
 10
88.9425880081
 20
-39.3822464769
  0
LWPOLYLINE
  5
537
100
AcDbEntity
  8
RACCORDO
100
AcDbPolyline
 62
7
  6
CONTINUOUS
 90
3
 70
0
 10
100.3069582697
 20
32.2735423264
 10
100.2135453996
 20
32.3619487131
 10
100.1941278168
 20
32.3807771167
  0
LINE
  5
538
100
AcDbEntity
  8
RACCORDO
100
AcDbLine
 62
7
  6
CONTINUOUS
 10
100.4662592691
 20
32.108575216
 11
100.382721145
 21
32.1921133401
  0
LINE
  5
539
100
AcDbEntity
  8
RACCORDO
100
AcDbLine
 62
250
  6
CONTINUOUS
 10
100.9469029106
 20
32.108575216
 11
100.8748192685
 21
32.1806588581
  0
LINE
  5
53A
100
AcDbEntity
  8
RACCORDO
100
AcDbLine
 62
250
  6
CONTINUOUS
 10
101.4468267582
 20
32.6084990636
 11
101.3747431161
 21
32.6805827057
  0
LINE
  5
53B
100
AcDbEntity
  8
0
100
AcDbLine
 62
7
  6
CONTINUOUS
 10
94.5
 20
39.7
 11
94.2248759926
 21
39.9751240074
  0
LINE
  5
53C
100
AcDbEntity
  8
0
100
AcDbLine
 62
7
  6
CONTINUOUS
 10
100.2
 20
34.0
 11
100.4751240074
 21
33.7248759926
  0
LINE
  5
53D
100
AcDbEntity
  8
RACCORDO
100
AcDbLine
 62
7
  6
CONTINUOUS
 10
100.1941278168
 20
32.3807771167
 11
100.1193748117
 21
32.4553415577
  0
LWPOLYLINE
  5
53E
100
AcDbEntity
  8
RACCORDO
100
AcDbPolyline
 62
7
  6
CONTINUOUS
 90
3
 70
0
 10
100.1193748117
 20
32.4553415577
 10
99.9560772134
 20
32.6189584926
 10
99.8822464769
 20
32.6925880081
  0
LWPOLYLINE
  5
53F
100
AcDbEntity
  8
RACCORDO
100
AcDbPolyline
 62
250
  6
CONTINUOUS
 90
14
 70
0
 10
100.9586269168
 20
31.9709144998
 10
100.9578183717
 20
31.9916641204
 10
100.9569679847
 20
32.0108661902
 10
100.9560775977
 20
32.0284558916
 10
100.9551668789
 20
32.0442593675
 10
100.954234937
 20
32.0582788236
 10
100.9532826631
 20
32.0705179397
 10
100.952332399
 20
32.0809024134
 10
100.9513847322
 20
32.0895008012
 10
100.9504390752
 20
32.0963924717
 10
100.9495160066
 20
32.1016171202
 10
100.9486223861
 20
32.1052931261
 10
100.9477513541
 20
32.107569216
 10
100.9469029106
 20
32.108575216
  0
LWPOLYLINE
  5
540
100
AcDbEntity
  8
RACCORDO
100
AcDbPolyline
 62
250
  6
CONTINUOUS
 90
10
 70
0
 10
101.4550904167
 20
32.4798759897
 10
101.454158583
 20
32.5078423667
 10
101.4532064196
 20
32.5322651552
 10
101.4522562412
 20
32.5531496842
 10
101.4513086239
 20
32.5703371742
 10
101.4503629915
 20
32.5839864047
 10
101.4494399301
 20
32.5945790422
 10
101.4485463018
 20
32.6022756423
 10
101.4476752445
 20
32.6069156494
 10
101.4468267582
 20
32.6084990636
  0
LWPOLYLINE
  5
541
100
AcDbEntity
  8
DRAFT
100
AcDbPolyline
 62
7
  6
CONTINUOUS
 90
12
 70
0
 10
101.5153457533
 20
-9.9859337428
 10
101.5241628462
 20
-10.2608545279
 10
101.5332379863
 20
-10.5112599952
 10
101.542486112
 20
-10.7348120768
 10
101.5518960404
 20
-10.9310366818
 10
101.5614789544
 20
-11.100407901
 10
101.5711833414
 20
-11.2420099393
 10
101.5810236696
 20
-11.3558098506
 10
101.5909854708
 20
-11.441840581
 10
101.6009738277
 20
-11.4992851742
 10
101.6109748051
 20
-11.5278713114
 10
101.615896487
 20
-11.5314433737
  0
LWPOLYLINE
  5
542
100
AcDbEntity
  8
DRAFT
100
AcDbPolyline
 62
7
  6
CONTINUOUS
 90
12
 70
0
 10
101.7166313899
 20
9.9859337428
 10
101.707814297
 20
10.2608545279
 10
101.6987391569
 20
10.5112599952
 10
101.6894910311
 20
10.7348120768
 10
101.6800811028
 20
10.9310366818
 10
101.6704981888
 20
11.100407901
 10
101.6607938018
 20
11.2420099393
 10
101.6509534736
 20
11.3558098506
 10
101.6409916723
 20
11.441840581
 10
101.6310033154
 20
11.4992851742
 10
101.6210023381
 20
11.5278713114
 10
101.615896487
 20
11.5314433737
  0
LINE
  5
543
100
AcDbEntity
  8
RACCORDO
100
AcDbLine
 62
250
  6
CONTINUOUS
 10
100.9601098648
 20
31.9251874538
 11
100.9586269168
 21
31.9709144998
  0
LINE
  5
544
100
AcDbEntity
  8
DRAFT
100
AcDbLine
 62
7
  6
CONTINUOUS
 10
101.498511425
 20
-9.3628860812
 11
101.5153457533
 21
-9.9859337428
  0
LINE
  5
545
100
AcDbEntity
  8
DRAFT
100
AcDbLine
 62
7
  6
CONTINUOUS
 10
101.7334657182
 20
9.3628860812
 11
101.7166313899
 21
9.9859337428
  0
LINE
  5
546
100
AcDbEntity
  8
RACCORDO
100
AcDbLine
 62
250
  6
CONTINUOUS
 10
101.4568913176
 20
32.4130028616
 11
101.4550904167
 21
32.4798759897
  0
LINE
  5
547
100
AcDbEntity
  8
RACCORDO
100
AcDbLine
 62
250
  6
CONTINUOUS
 10
100.9613719973
 20
31.8748780448
 11
100.9601098648
 21
31.9251874538
  0
LINE
  5
548
100
AcDbEntity
  8
DRAFT
100
AcDbLine
 62
7
  6
CONTINUOUS
 10
101.4828419296
 20
-8.6466911205
 11
101.498511425
 21
-9.3628860812
  0
LINE
  5
549
100
AcDbEntity
  8
DRAFT
100
AcDbLine
 62
7
  6
CONTINUOUS
 10
101.7491352136
 20
8.6466911205
 11
101.7334657182
 21
9.3628860812
  0
LINE
  5
54A
100
AcDbEntity
  8
RACCORDO
100
AcDbLine
 62
250
  6
CONTINUOUS
 10
101.4585501184
 20
32.3332155946
 11
101.4568913176
 21
32.4130028616
  0
LINE
  5
54B
100
AcDbEntity
  8
RACCORDO
100
AcDbLine
 62
250
  6
CONTINUOUS
 10
100.9623916861
 20
31.8214806935
 11
100.9613719973
 21
31.8748780448
  0
LINE
  5
54C
100
AcDbEntity
  8
DRAFT
100
AcDbLine
 62
7
  6
CONTINUOUS
 10
101.4684506988
 20
-7.8427179715
 11
101.4828419296
 21
-8.6466911205
  0
LINE
  5
54D
100
AcDbEntity
  8
DRAFT
100
AcDbLine
 62
7
  6
CONTINUOUS
 10
101.7635264444
 20
7.8427179715
 11
101.7491352136
 21
8.6466911205
  0
LINE
  5
54E
100
AcDbEntity
  8
DRAFT
100
AcDbLine
 62
7
  6
CONTINUOUS
 10
101.4555650453
 20
-6.9627108391
 11
101.4684506988
 21
-7.8427179715
  0
LINE
  5
54F
100
AcDbEntity
  8
DRAFT
100
AcDbLine
 62
7
  6
CONTINUOUS
 10
101.7764120979
 20
6.9627108391
 11
101.7635264444
 21
7.8427179715
  0
LINE
  5
550
100
AcDbEntity
  8
RACCORDO
100
AcDbLine
 62
250
  6
CONTINUOUS
 10
101.4606911851
 20
32.1925627642
 11
101.4585501184
 21
32.3332155946
  0
LINE
  5
551
100
AcDbEntity
  8
RACCORDO
100
AcDbLine
 62
250
  6
CONTINUOUS
 10
100.9631610564
 20
31.7664551663
 11
100.9623916861
 21
31.8214806935
  0
LINE
  5
552
100
AcDbEntity
  8
DRAFT
100
AcDbLine
 62
7
  6
CONTINUOUS
 10
101.4442756617
 20
-6.0137421798
 11
101.4555650453
 21
-6.9627108391
  0
LINE
  5
553
100
AcDbEntity
  8
DRAFT
100
AcDbLine
 62
7
  6
CONTINUOUS
 10
101.7877014814
 20
6.0137421799
 11
101.7764120979
 21
6.9627108391
  0
LINE
  5
554
100
AcDbEntity
  8
DRAFT
100
AcDbLine
 62
7
  6
CONTINUOUS
 10
101.4346634543
 20
-5.0028023393
 11
101.4442756617
 21
-6.0137421798
  0
LINE
  5
555
100
AcDbEntity
  8
DRAFT
100
AcDbLine
 62
7
  6
CONTINUOUS
 10
101.7973136888
 20
5.0028023393
 11
101.7877014814
 21
6.0137421799
  0
LINE
  5
556
100
AcDbEntity
  8
RACCORDO
100
AcDbLine
 62
250
  6
CONTINUOUS
 10
101.4627308274
 20
31.9793660627
 11
101.4606911851
 21
32.1925627642
  0
LINE
  5
557
100
AcDbEntity
  8
DRAFT
100
AcDbLine
 62
7
  6
CONTINUOUS
 10
101.4268739177
 20
-3.9437421037
 11
101.4346634543
 21
-5.0028023393
  0
LINE
  5
558
100
AcDbEntity
  8
DRAFT
100
AcDbLine
 62
7
  6
CONTINUOUS
 10
101.8051032254
 20
3.9437421037
 11
101.7973136888
 21
5.0028023393
  0
LINE
  5
559
100
AcDbEntity
  8
RACCORDO
100
AcDbLine
 62
250
  6
CONTINUOUS
 10
100.9638498801
 20
31.6847593539
 11
100.9631610564
 21
31.7664551663
  0
LINE
  5
55A
100
AcDbEntity
  8
DRAFT
100
AcDbLine
 62
7
  6
CONTINUOUS
 10
101.4209670407
 20
-2.8463053056
 11
101.4268739177
 21
-3.9437421037
  0
LINE
  5
55B
100
AcDbEntity
  8
DRAFT
100
AcDbLine
 62
7
  6
CONTINUOUS
 10
101.8110101025
 20
2.8463053056
 11
101.8051032254
 21
3.9437421037
  0
LINE
  5
55C
100
AcDbEntity
  8
DRAFT
100
AcDbLine
 62
7
  6
CONTINUOUS
 10
101.4169848106
 20
-1.7184845138
 11
101.4209670407
 21
-2.8463053056
  0
LINE
  5
55D
100
AcDbEntity
  8
DRAFT
100
AcDbLine
 62
7
  6
CONTINUOUS
 10
101.8149923325
 20
1.7184845139
 11
101.8110101025
 21
2.8463053056
  0
LINE
  5
55E
100
AcDbEntity
  8
RACCORDO
100
AcDbLine
 62
250
  6
CONTINUOUS
 10
101.4638954475
 20
31.7089180908
 11
101.4627308274
 21
31.9793660627
  0
LINE
  5
55F
100
AcDbEntity
  8
DRAFT
100
AcDbLine
 62
7
  6
CONTINUOUS
 10
101.4149922235
 20
-0.5769914638
 11
101.4169848106
 21
-1.7184845138
  0
LINE
  5
560
100
AcDbEntity
  8
DRAFT
100
AcDbLine
 62
7
  6
CONTINUOUS
 10
101.8169849197
 20
0.5769914638
 11
101.8149923325
 21
1.7184845139
  0
LINE
  5
561
100
AcDbEntity
  8
RACCORDO
100
AcDbLine
 62
250
  6
CONTINUOUS
 10
100.9640533427
 20
31.6086513684
 11
100.9638498801
 21
31.6847593539
  0
LINE
  5
562
100
AcDbEntity
  8
RACCORDO
100
AcDbLine
 62
250
  6
CONTINUOUS
 10
99.8822464769
 20
25.7074119919
 11
99.8822464769
 21
32.6925880081
  0
LINE
  5
563
100
AcDbEntity
  8
RACCORDO
100
AcDbLine
 62
250
  6
CONTINUOUS
 10
100.1749258819
 20
-33.7242099741
 11
100.1749258633
 21
26.0000746359
  0
LINE
  5
564
100
AcDbEntity
  8
RACCORDO
100
AcDbLine
 62
250
  6
CONTINUOUS
 10
100.174925864
 20
32.3999253618
 11
100.1749258819
 21
33.7242099741
  0
LINE
  5
565
100
AcDbEntity
  8
DRAFT
100
AcDbLine
 62
7
  6
CONTINUOUS
 10
100.2
 20
35.5
 11
100.2
 21
34.0
  0
LINE
  5
566
100
AcDbEntity
  8
DRAFT
100
AcDbLine
 62
7
  6
CONTINUOUS
 10
100.2
 20
-34.0
 11
100.2
 21
-35.5
  0
LINE
  5
567
100
AcDbEntity
  8
RACCORDO
100
AcDbLine
 62
250
  6
CONTINUOUS
 10
100.3821703245
 20
26.2064316619
 11
100.3821703245
 21
32.1935683378
  0
LINE
  5
568
100
AcDbEntity
  8
RACCORDO
100
AcDbLine
 62
7
  6
CONTINUOUS
 10
100.4748344851
 20
26.7913486316
 11
100.4748344851
 21
31.6086513684
  0
LINE
  5
569
100
AcDbEntity
  8
0
100
AcDbLine
 62
7
  6
CONTINUOUS
 10
100.4751240074
 20
-35.5
 11
100.4751240074
 21
-33.7248759926
  0
LINE
  5
56A
100
AcDbEntity
  8
0
100
AcDbLine
 62
7
  6
CONTINUOUS
 10
100.4751240074
 20
33.7248759926
 11
100.4751240074
 21
35.5
  0
LINE
  5
56B
100
AcDbEntity
  8
RACCORDO
100
AcDbLine
 62
250
  6
CONTINUOUS
 10
101.3747431161
 20
-35.5
 11
101.3747431161
 21
25.7194172943
  0
LINE
  5
56C
100
AcDbEntity
  8
RACCORDO
100
AcDbLine
 62
250
  6
CONTINUOUS
 10
101.3747431161
 20
32.6805827057
 11
101.3747431161
 21
35.5
  0
LINE
  5
56D
100
AcDbEntity
  8
SKEL
100
AcDbLine
 62
7
  6
CONTINUOUS
 10
102.0000003491
 20
35.5000000145
 11
102.0000003491
 21
-35.5000000243
  0
LINE
  5
56E
100
AcDbEntity
  8
DRAFT
100
AcDbLine
 62
7
  6
CONTINUOUS
 10
102.0
 20
-35.5
 11
102.0
 21
35.5
  0
LINE
  5
56F
100
AcDbEntity
  8
DRAFT
100
AcDbLine
 62
7
  6
CONTINUOUS
 10
101.4149922235
 20
0.5769914638
 11
101.4149922235
 21
-0.5769914638
  0
LINE
  5
570
100
AcDbEntity
  8
DRAFT
100
AcDbLine
 62
7
  6
CONTINUOUS
 10
101.8169849197
 20
-0.5769914638
 11
101.8169849197
 21
0.5769914638
  0
LINE
  5
571
100
AcDbEntity
  8
DRAFT
100
AcDbLine
 62
7
  6
CONTINUOUS
 10
101.4169848106
 20
1.7184845139
 11
101.4149922235
 21
0.5769914638
  0
LINE
  5
572
100
AcDbEntity
  8
DRAFT
100
AcDbLine
 62
7
  6
CONTINUOUS
 10
101.8149923325
 20
-1.7184845138
 11
101.8169849197
 21
-0.5769914638
  0
LINE
  5
573
100
AcDbEntity
  8
RACCORDO
100
AcDbLine
 62
250
  6
CONTINUOUS
 10
101.463773796
 20
26.6391406754
 11
101.4638954475
 21
31.7089180908
  0
LINE
  5
574
100
AcDbEntity
  8
RACCORDO
100
AcDbLine
 62
250
  6
CONTINUOUS
 10
100.9639717175
 20
26.7413757168
 11
100.9640533427
 21
31.6086513684
  0
LINE
  5
575
100
AcDbEntity
  8
DRAFT
100
AcDbLine
 62
7
  6
CONTINUOUS
 10
101.4209670407
 20
2.8463053056
 11
101.4169848106
 21
1.7184845139
  0
LINE
  5
576
100
AcDbEntity
  8
DRAFT
100
AcDbLine
 62
7
  6
CONTINUOUS
 10
101.8110101025
 20
-2.8463053056
 11
101.8149923325
 21
-1.7184845138
  0
LINE
  5
577
100
AcDbEntity
  8
DRAFT
100
AcDbLine
 62
7
  6
CONTINUOUS
 10
101.4268739177
 20
3.9437421037
 11
101.4209670407
 21
2.8463053056
  0
LINE
  5
578
100
AcDbEntity
  8
DRAFT
100
AcDbLine
 62
7
  6
CONTINUOUS
 10
101.8051032254
 20
-3.9437421037
 11
101.8110101025
 21
-2.8463053056
  0
LINE
  5
579
100
AcDbEntity
  8
RACCORDO
100
AcDbLine
 62
250
  6
CONTINUOUS
 10
101.4623154339
 20
26.365578247
 11
101.463773796
 21
26.6391406754
  0
LINE
  5
57A
100
AcDbEntity
  8
DRAFT
100
AcDbLine
 62
7
  6
CONTINUOUS
 10
101.4346634543
 20
5.0028023393
 11
101.4268739177
 21
3.9437421037
  0
LINE
  5
57B
100
AcDbEntity
  8
DRAFT
100
AcDbLine
 62
7
  6
CONTINUOUS
 10
101.7973136888
 20
-5.0028023393
 11
101.8051032254
 21
-3.9437421037
  0
LINE
  5
57C
100
AcDbEntity
  8
RACCORDO
100
AcDbLine
 62
250
  6
CONTINUOUS
 10
100.9634502834
 20
26.6610905824
 11
100.9639717175
 21
26.7413757168
  0
LINE
  5
57D
100
AcDbEntity
  8
DRAFT
100
AcDbLine
 62
7
  6
CONTINUOUS
 10
101.4442756617
 20
6.0137421799
 11
101.4346634543
 21
5.0028023393
  0
LINE
  5
57E
100
AcDbEntity
  8
DRAFT
100
AcDbLine
 62
7
  6
CONTINUOUS
 10
101.7877014814
 20
-6.0137421798
 11
101.7973136888
 21
-5.0028023393
  0
LINE
  5
57F
100
AcDbEntity
  8
RACCORDO
100
AcDbLine
 62
250
  6
CONTINUOUS
 10
101.4606913948
 20
26.2074541448
 11
101.4623154339
 21
26.365578247
  0
LINE
  5
580
100
AcDbEntity
  8
DRAFT
100
AcDbLine
 62
7
  6
CONTINUOUS
 10
101.4555650453
 20
6.9627108391
 11
101.4442756617
 21
6.0137421799
  0
LINE
  5
581
100
AcDbEntity
  8
DRAFT
100
AcDbLine
 62
7
  6
CONTINUOUS
 10
101.7764120979
 20
-6.9627108391
 11
101.7877014814
 21
-6.0137421798
  0
LINE
  5
582
100
AcDbEntity
  8
RACCORDO
100
AcDbLine
 62
250
  6
CONTINUOUS
 10
100.9628077724
 20
26.6060151775
 11
100.9634502834
 21
26.6610905824
  0
LINE
  5
583
100
AcDbEntity
  8
DRAFT
100
AcDbLine
 62
7
  6
CONTINUOUS
 10
101.4684506988
 20
7.8427179715
 11
101.4555650453
 21
6.9627108391
  0
LINE
  5
584
100
AcDbEntity
  8
DRAFT
100
AcDbLine
 62
7
  6
CONTINUOUS
 10
101.7635264444
 20
-7.8427179715
 11
101.7764120979
 21
-6.9627108391
  0
LINE
  5
585
100
AcDbEntity
  8
RACCORDO
100
AcDbLine
 62
250
  6
CONTINUOUS
 10
101.4585498564
 20
26.0667704792
 11
101.4606913948
 21
26.2074541448
  0
LINE
  5
586
100
AcDbEntity
  8
RACCORDO
100
AcDbLine
 62
250
  6
CONTINUOUS
 10
100.9619144622
 20
26.5515393494
 11
100.9628077724
 21
26.6060151775
  0
LINE
  5
587
100
AcDbEntity
  8
DRAFT
100
AcDbLine
 62
7
  6
CONTINUOUS
 10
101.4828419296
 20
8.6466911205
 11
101.4684506988
 21
7.8427179715
  0
LINE
  5
588
100
AcDbEntity
  8
DRAFT
100
AcDbLine
 62
7
  6
CONTINUOUS
 10
101.7491352136
 20
-8.6466911205
 11
101.7635264444
 21
-7.8427179715
  0
LINE
  5
589
100
AcDbEntity
  8
RACCORDO
100
AcDbLine
 62
250
  6
CONTINUOUS
 10
101.4568906631
 20
25.9869696018
 11
101.4585498564
 21
26.0667704792
  0
LINE
  5
58A
100
AcDbEntity
  8
DRAFT
100
AcDbLine
 62
7
  6
CONTINUOUS
 10
101.498511425
 20
9.3628860812
 11
101.4828419296
 21
8.6466911205
  0
LINE
  5
58B
100
AcDbEntity
  8
DRAFT
100
AcDbLine
 62
7
  6
CONTINUOUS
 10
101.7334657182
 20
-9.3628860812
 11
101.7491352136
 21
-8.6466911205
  0
LINE
  5
58C
100
AcDbEntity
  8
RACCORDO
100
AcDbLine
 62
250
  6
CONTINUOUS
 10
100.9607682308
 20
26.4994576046
 11
100.9619144622
 21
26.5515393494
  0
LWPOLYLINE
  5
58D
100
AcDbEntity
  8
RACCORDO
100
AcDbPolyline
 62
250
  6
CONTINUOUS
 90
10
 70
0
 10
88.4306588581
 20
-40.3748192685
 10
88.4315112027
 20
-40.3722316668
 10
88.432351034
 20
-40.3663563206
 10
88.4331783518
 20
-40.3571932299
 10
88.4339971356
 20
-40.3446701809
 10
88.434803406
 20
-40.3288593874
 10
88.4355852252
 20
-40.3099774912
 10
88.4363422913
 20
-40.2879728079
 10
88.4370749063
 20
-40.2628970218
 10
88.4384329418
 20
-40.204615307
  0
LWPOLYLINE
  5
58E
100
AcDbEntity
  8
RACCORDO
100
AcDbPolyline
 62
7
  6
CONTINUOUS
 90
7
 70
0
 10
100.3827210873
 20
32.1921133978
 10
100.3826292232
 20
32.1922300673
 10
100.3825373872
 20
32.1923970651
 10
100.3824455793
 20
32.192614391
 10
100.3823537996
 20
32.1928820451
 10
100.382262048
 20
32.1932000274
 10
100.3821703245
 20
32.1935683378
  0
LWPOLYLINE
  5
58F
100
AcDbEntity
  8
RACCORDO
100
AcDbPolyline
 62
7
  6
CONTINUOUS
 90
9
 70
0
 10
100.3821703245
 20
32.1935683378
 10
100.3804070307
 20
32.1972995131
 10
100.3763276025
 20
32.2028895386
 10
100.3699645827
 20
32.2103384143
 10
100.3613115083
 20
32.2197997247
 10
100.3504483789
 20
32.2311198853
 10
100.337652374
 20
32.2438381431
 10
100.3231039511
 20
32.2579911861
 10
100.3069582697
 20
32.2735423264
  0
CIRCLE
  5
590
100
AcDbEntity
  8
RACCORDO
100
AcDbCircle
 62
7
  6
CONTINUOUS
 10
-85.5
 20
-26.5
 40
9.5
  0
CIRCLE
  5
591
100
AcDbEntity
  8
RACCORDO
100
AcDbCircle
 62
250
  6
CONTINUOUS
 10
-85.5
 20
-26.5
 40
8.9999982989
  0
ARC
  5
592
100
AcDbEntity
  8
SKEL
100
AcDbCircle
 62
7
  6
CONTINUOUS
 10
-96.0
 20
-35.5
 40
6.0000004289
100
AcDbArc
 50
180.0000165401
 51
269.9999818696
  0
ARC
  5
593
100
AcDbEntity
  8
DRAFT
100
AcDbCircle
 62
7
  6
CONTINUOUS
 10
-96.0
 20
-35.5
 40
6.0
100
AcDbArc
 50
180.0
 51
270.0
  0
ARC
  5
594
100
AcDbEntity
  8
0
100
AcDbCircle
 62
250
  6
CONTINUOUS
 10
-96.0
 20
-35.5
 40
5.3747431161
100
AcDbArc
 50
180.0
 51
270.0
  0
ARC
  5
595
100
AcDbEntity
  8
0
100
AcDbCircle
 62
7
  6
CONTINUOUS
 10
-96.0
 20
-35.5
 40
4.4751240074
100
AcDbArc
 50
180.0
 51
270.0
  0
ARC
  5
596
100
AcDbEntity
  8
DRAFT
100
AcDbCircle
 62
7
  6
CONTINUOUS
 10
-96.0
 20
-35.5
 40
4.2
100
AcDbArc
 50
180.0
 51
270.0
  0
CIRCLE
  5
597
100
AcDbEntity
  8
0
100
AcDbCircle
 62
7
  6
CONTINUOUS
 10
-85.5
 20
-26.5
 40
2.0
  0
CIRCLE
  5
598
100
AcDbEntity
  8
0
100
AcDbCircle
 62
7
  6
CONTINUOUS
 10
-85.5
 20
-26.5
 40
1.8
  0
ARC
  5
599
100
AcDbEntity
  8
DRAFT
100
AcDbCircle
 62
7
  6
CONTINUOUS
 10
-96.0
 20
-35.5
 40
1.7757900259
100
AcDbArc
 50
0.0
 51
90.0
  0
CIRCLE
  5
59A
100
AcDbEntity
  8
0
100
AcDbCircle
 62
7
  6
CONTINUOUS
 10
-85.5
 20
-26.5
 40
1.5
  0
ARC
  5
59B
100
AcDbEntity
  8
DRAFT
100
AcDbCircle
 62
7
  6
CONTINUOUS
 10
-96.0
 20
-35.5
 40
1.5
100
AcDbArc
 50
0.0
 51
90.0
  0
CIRCLE
  5
59C
100
AcDbEntity
  8
RACCORDO
100
AcDbCircle
 62
7
  6
CONTINUOUS
 10
-85.5
 20
26.5
 40
9.5
  0
CIRCLE
  5
59D
100
AcDbEntity
  8
RACCORDO
100
AcDbCircle
 62
250
  6
CONTINUOUS
 10
-85.5
 20
26.5
 40
8.9999982989
  0
ARC
  5
59E
100
AcDbEntity
  8
SKEL
100
AcDbCircle
 62
7
  6
CONTINUOUS
 10
-96.0
 20
35.5
 40
6.0000004289
100
AcDbArc
 50
90.0000192217
 51
179.9999834907
  0
ARC
  5
59F
100
AcDbEntity
  8
DRAFT
100
AcDbCircle
 62
7
  6
CONTINUOUS
 10
-96.0
 20
35.5
 40
6.0
100
AcDbArc
 50
90.0
 51
180.0
  0
ARC
  5
5A0
100
AcDbEntity
  8
0
100
AcDbCircle
 62
250
  6
CONTINUOUS
 10
-96.0
 20
35.5
 40
5.3747431161
100
AcDbArc
 50
90.0
 51
180.0
  0
ARC
  5
5A1
100
AcDbEntity
  8
0
100
AcDbCircle
 62
7
  6
CONTINUOUS
 10
-96.0
 20
35.5
 40
4.4751240074
100
AcDbArc
 50
90.0
 51
180.0
  0
ARC
  5
5A2
100
AcDbEntity
  8
DRAFT
100
AcDbCircle
 62
7
  6
CONTINUOUS
 10
-96.0
 20
35.5
 40
4.2
100
AcDbArc
 50
90.0
 51
180.0
  0
CIRCLE
  5
5A3
100
AcDbEntity
  8
0
100
AcDbCircle
 62
7
  6
CONTINUOUS
 10
-85.5
 20
26.5
 40
2.0
  0
CIRCLE
  5
5A4
100
AcDbEntity
  8
0
100
AcDbCircle
 62
7
  6
CONTINUOUS
 10
-85.5
 20
26.5
 40
1.8
  0
ARC
  5
5A5
100
AcDbEntity
  8
DRAFT
100
AcDbCircle
 62
7
  6
CONTINUOUS
 10
-96.0
 20
35.5
 40
1.7757900259
100
AcDbArc
 50
270.0
 51
360.0
  0
CIRCLE
  5
5A6
100
AcDbEntity
  8
0
100
AcDbCircle
 62
7
  6
CONTINUOUS
 10
-85.5
 20
26.5
 40
1.5
  0
ARC
  5
5A7
100
AcDbEntity
  8
DRAFT
100
AcDbCircle
 62
7
  6
CONTINUOUS
 10
-96.0
 20
35.5
 40
1.5
100
AcDbArc
 50
270.0
 51
360.0
  0
CIRCLE
  5
5A8
100
AcDbEntity
  8
RACCORDO
100
AcDbCircle
 62
250
  6
CONTINUOUS
 10
-68.0
 20
0.0
 40
11.8078644445
  0
CIRCLE
  5
5A9
100
AcDbEntity
  8
RACCORDO
100
AcDbCircle
 62
7
  6
CONTINUOUS
 10
-68.0
 20
0.0
 40
11.5078770275
  0
ARC
  5
5AA
100
AcDbEntity
  8
0
100
AcDbCircle
 62
7
  6
CONTINUOUS
 10
-68.0
 20
0.0
 40
11.5061088075
100
AcDbArc
 50
266.2626528724
 51
273.7373471276
  0
ARC
  5
5AB
100
AcDbEntity
  8
0
100
AcDbCircle
 62
7
  6
CONTINUOUS
 10
-68.0
 20
0.0
 40
11.5061088075
100
AcDbArc
 50
86.2626528724
 51
93.7373471276
  0
ARC
  5
5AC
100
AcDbEntity
  8
0
100
AcDbCircle
 62
7
  6
CONTINUOUS
 10
-68.0
 20
0.0
 40
11.5061088075
100
AcDbArc
 50
356.2626528724
 51
3.7373471276
  0
ARC
  5
5AD
100
AcDbEntity
  8
0
100
AcDbCircle
 62
7
  6
CONTINUOUS
 10
-68.0
 20
0.0
 40
11.5061088075
100
AcDbArc
 50
176.2626528724
 51
183.7373471276
  0
ARC
  5
5AE
100
AcDbEntity
  8
0
100
AcDbCircle
 62
7
  6
CONTINUOUS
 10
-68.0
 20
0.0
 40
11.5
100
AcDbArc
 50
3.7393352315
 51
86.2606647685
  0
ARC
  5
5AF
100
AcDbEntity
  8
0
100
AcDbCircle
 62
7
  6
CONTINUOUS
 10
-68.0
 20
0.0
 40
11.5
100
AcDbArc
 50
93.7393352315
 51
176.2606647685
  0
ARC
  5
5B0
100
AcDbEntity
  8
0
100
AcDbCircle
 62
7
  6
CONTINUOUS
 10
-68.0
 20
0.0
 40
11.5
100
AcDbArc
 50
273.7393352315
 51
356.2606647685
  0
ARC
  5
5B1
100
AcDbEntity
  8
0
100
AcDbCircle
 62
7
  6
CONTINUOUS
 10
-68.0
 20
0.0
 40
11.5
100
AcDbArc
 50
183.7393352315
 51
266.2606647685
  0
ARC
  5
5B2
100
AcDbEntity
  8
0
100
AcDbCircle
 62
7
  6
CONTINUOUS
 10
-68.0
 20
0.0
 40
11.25
100
AcDbArc
 50
273.8225537293
 51
356.1774462707
  0
ARC
  5
5B3
100
AcDbEntity
  8
0
100
AcDbCircle
 62
7
  6
CONTINUOUS
 10
-68.0
 20
0.0
 40
11.25
100
AcDbArc
 50
183.8225537293
 51
266.1774462707
  0
ARC
  5
5B4
100
AcDbEntity
  8
0
100
AcDbCircle
 62
7
  6
CONTINUOUS
 10
-68.0
 20
0.0
 40
11.25
100
AcDbArc
 50
3.8225537293
 51
86.1774462707
  0
ARC
  5
5B5
100
AcDbEntity
  8
0
100
AcDbCircle
 62
7
  6
CONTINUOUS
 10
-68.0
 20
0.0
 40
11.25
100
AcDbArc
 50
93.8225537293
 51
176.1774462707
  0
ARC
  5
5B6
100
AcDbEntity
  8
0
100
AcDbCircle
 62
250
  6
CONTINUOUS
 10
-68.0
 20
0.0
 40
10.6378679656
100
AcDbArc
 50
274.0428697094
 51
355.9571302906
  0
ARC
  5
5B7
100
AcDbEntity
  8
0
100
AcDbCircle
 62
250
  6
CONTINUOUS
 10
-68.0
 20
0.0
 40
10.6378679656
100
AcDbArc
 50
184.0428697094
 51
265.9571302906
  0
ARC
  5
5B8
100
AcDbEntity
  8
0
100
AcDbCircle
 62
250
  6
CONTINUOUS
 10
-68.0
 20
0.0
 40
10.6378679656
100
AcDbArc
 50
4.0428697094
 51
85.9571302906
  0
ARC
  5
5B9
100
AcDbEntity
  8
0
100
AcDbCircle
 62
250
  6
CONTINUOUS
 10
-68.0
 20
0.0
 40
10.6378679656
100
AcDbArc
 50
94.0428697094
 51
175.9571302906
  0
ARC
  5
5BA
100
AcDbEntity
  8
0
100
AcDbCircle
 62
250
  6
CONTINUOUS
 10
-68.0
 20
0.0
 40
10.4257359313
100
AcDbArc
 50
184.1252708293
 51
265.8747291707
  0
ARC
  5
5BB
100
AcDbEntity
  8
0
100
AcDbCircle
 62
250
  6
CONTINUOUS
 10
-68.0
 20
0.0
 40
10.4257359313
100
AcDbArc
 50
274.1252708293
 51
355.8747291707
  0
ARC
  5
5BC
100
AcDbEntity
  8
0
100
AcDbCircle
 62
250
  6
CONTINUOUS
 10
-68.0
 20
0.0
 40
10.4257359313
100
AcDbArc
 50
4.1252708293
 51
85.8747291707
  0
ARC
  5
5BD
100
AcDbEntity
  8
0
100
AcDbCircle
 62
250
  6
CONTINUOUS
 10
-68.0
 20
0.0
 40
10.4257359313
100
AcDbArc
 50
94.1252708293
 51
175.8747291707
  0
CIRCLE
  5
5BE
100
AcDbEntity
  8
RACCORDO
100
AcDbCircle
 62
7
  6
CONTINUOUS
 10
-45.3
 20
0.0
 40
4.8
  0
CIRCLE
  5
5BF
100
AcDbEntity
  8
RACCORDO
100
AcDbCircle
 62
250
  6
CONTINUOUS
 10
-45.3
 20
0.0
 40
4.2999972742
  0
CIRCLE
  5
5C0
100
AcDbEntity
  8
RACCORDO
100
AcDbCircle
 62
7
  6
CONTINUOUS
 10
85.5
 20
-26.5
 40
9.5
  0
CIRCLE
  5
5C1
100
AcDbEntity
  8
RACCORDO
100
AcDbCircle
 62
250
  6
CONTINUOUS
 10
85.5
 20
-26.5
 40
8.9999982989
  0
ARC
  5
5C2
100
AcDbEntity
  8
SKEL
100
AcDbCircle
 62
7
  6
CONTINUOUS
 10
96.0
 20
-35.5
 40
6.0000004289
100
AcDbArc
 50
270.0000181304
 51
359.9999834599
  0
ARC
  5
5C3
100
AcDbEntity
  8
DRAFT
100
AcDbCircle
 62
7
  6
CONTINUOUS
 10
96.0
 20
-35.5
 40
6.0
100
AcDbArc
 50
270.0
 51
360.0
  0
ARC
  5
5C4
100
AcDbEntity
  8
0
100
AcDbCircle
 62
250
  6
CONTINUOUS
 10
96.0
 20
-35.5
 40
5.3747431161
100
AcDbArc
 50
270.0
 51
360.0
  0
ARC
  5
5C5
100
AcDbEntity
  8
0
100
AcDbCircle
 62
7
  6
CONTINUOUS
 10
96.0
 20
-35.5
 40
4.4751240074
100
AcDbArc
 50
270.0
 51
360.0
  0
ARC
  5
5C6
100
AcDbEntity
  8
DRAFT
100
AcDbCircle
 62
7
  6
CONTINUOUS
 10
96.0
 20
-35.5
 40
4.2
100
AcDbArc
 50
270.0
 51
360.0
  0
CIRCLE
  5
5C7
100
AcDbEntity
  8
0
100
AcDbCircle
 62
7
  6
CONTINUOUS
 10
85.5
 20
-26.5
 40
2.0
  0
CIRCLE
  5
5C8
100
AcDbEntity
  8
0
100
AcDbCircle
 62
7
  6
CONTINUOUS
 10
85.5
 20
-26.5
 40
1.8
  0
ARC
  5
5C9
100
AcDbEntity
  8
DRAFT
100
AcDbCircle
 62
7
  6
CONTINUOUS
 10
96.0
 20
-35.5
 40
1.7757900259
100
AcDbArc
 50
90.0
 51
180.0
  0
CIRCLE
  5
5CA
100
AcDbEntity
  8
0
100
AcDbCircle
 62
7
  6
CONTINUOUS
 10
85.5
 20
-26.5
 40
1.5
  0
ARC
  5
5CB
100
AcDbEntity
  8
DRAFT
100
AcDbCircle
 62
7
  6
CONTINUOUS
 10
96.0
 20
-35.5
 40
1.5
100
AcDbArc
 50
90.0
 51
180.0
  0
CIRCLE
  5
5CC
100
AcDbEntity
  8
RACCORDO
100
AcDbCircle
 62
250
  6
CONTINUOUS
 10
-0.0
 20
0.0
 40
11.8078644445
  0
CIRCLE
  5
5CD
100
AcDbEntity
  8
RACCORDO
100
AcDbCircle
 62
7
  6
CONTINUOUS
 10
-0.0
 20
0.0
 40
11.5078770275
  0
ARC
  5
5CE
100
AcDbEntity
  8
0
100
AcDbCircle
 62
7
  6
CONTINUOUS
 10
-0.0
 20
0.0
 40
11.5061088075
100
AcDbArc
 50
356.2626528724
 51
3.7373471276
  0
ARC
  5
5CF
100
AcDbEntity
  8
0
100
AcDbCircle
 62
7
  6
CONTINUOUS
 10
-0.0
 20
0.0
 40
11.5061088075
100
AcDbArc
 50
86.2626528724
 51
93.7373471276
  0
ARC
  5
5D0
100
AcDbEntity
  8
0
100
AcDbCircle
 62
7
  6
CONTINUOUS
 10
-0.0
 20
0.0
 40
11.5061088075
100
AcDbArc
 50
176.2626528724
 51
183.7373471276
  0
ARC
  5
5D1
100
AcDbEntity
  8
0
100
AcDbCircle
 62
7
  6
CONTINUOUS
 10
-0.0
 20
0.0
 40
11.5061088075
100
AcDbArc
 50
266.2626528724
 51
273.7373471276
  0
ARC
  5
5D2
100
AcDbEntity
  8
0
100
AcDbCircle
 62
7
  6
CONTINUOUS
 10
-0.0
 20
0.0
 40
11.5
100
AcDbArc
 50
3.7393352315
 51
86.2606647685
  0
ARC
  5
5D3
100
AcDbEntity
  8
0
100
AcDbCircle
 62
7
  6
CONTINUOUS
 10
-0.0
 20
0.0
 40
11.5
100
AcDbArc
 50
93.7393352315
 51
176.2606647685
  0
ARC
  5
5D4
100
AcDbEntity
  8
0
100
AcDbCircle
 62
7
  6
CONTINUOUS
 10
-0.0
 20
0.0
 40
11.5
100
AcDbArc
 50
273.7393352315
 51
356.2606647685
  0
ARC
  5
5D5
100
AcDbEntity
  8
0
100
AcDbCircle
 62
7
  6
CONTINUOUS
 10
-0.0
 20
0.0
 40
11.5
100
AcDbArc
 50
183.7393352315
 51
266.2606647685
  0
ARC
  5
5D6
100
AcDbEntity
  8
0
100
AcDbCircle
 62
7
  6
CONTINUOUS
 10
-0.0
 20
0.0
 40
11.25
100
AcDbArc
 50
273.8225537293
 51
356.1774462707
  0
ARC
  5
5D7
100
AcDbEntity
  8
0
100
AcDbCircle
 62
7
  6
CONTINUOUS
 10
-0.0
 20
0.0
 40
11.25
100
AcDbArc
 50
183.8225537293
 51
266.1774462707
  0
ARC
  5
5D8
100
AcDbEntity
  8
0
100
AcDbCircle
 62
7
  6
CONTINUOUS
 10
-0.0
 20
0.0
 40
11.25
100
AcDbArc
 50
3.8225537293
 51
86.1774462707
  0
ARC
  5
5D9
100
AcDbEntity
  8
0
100
AcDbCircle
 62
7
  6
CONTINUOUS
 10
-0.0
 20
0.0
 40
11.25
100
AcDbArc
 50
93.8225537293
 51
176.1774462707
  0
ARC
  5
5DA
100
AcDbEntity
  8
0
100
AcDbCircle
 62
250
  6
CONTINUOUS
 10
-0.0
 20
0.0
 40
10.6378679656
100
AcDbArc
 50
274.0428697094
 51
355.9571302906
  0
ARC
  5
5DB
100
AcDbEntity
  8
0
100
AcDbCircle
 62
250
  6
CONTINUOUS
 10
-0.0
 20
0.0
 40
10.6378679656
100
AcDbArc
 50
184.0428697094
 51
265.9571302906
  0
ARC
  5
5DC
100
AcDbEntity
  8
0
100
AcDbCircle
 62
250
  6
CONTINUOUS
 10
-0.0
 20
0.0
 40
10.6378679656
100
AcDbArc
 50
4.0428697094
 51
85.9571302906
  0
ARC
  5
5DD
100
AcDbEntity
  8
0
100
AcDbCircle
 62
250
  6
CONTINUOUS
 10
-0.0
 20
0.0
 40
10.6378679656
100
AcDbArc
 50
94.0428697094
 51
175.9571302906
  0
ARC
  5
5DE
100
AcDbEntity
  8
0
100
AcDbCircle
 62
250
  6
CONTINUOUS
 10
-0.0
 20
0.0
 40
10.4257359313
100
AcDbArc
 50
4.1252708293
 51
85.8747291707
  0
ARC
  5
5DF
100
AcDbEntity
  8
0
100
AcDbCircle
 62
250
  6
CONTINUOUS
 10
-0.0
 20
0.0
 40
10.4257359313
100
AcDbArc
 50
94.1252708293
 51
175.8747291707
  0
ARC
  5
5E0
100
AcDbEntity
  8
0
100
AcDbCircle
 62
250
  6
CONTINUOUS
 10
-0.0
 20
0.0
 40
10.4257359313
100
AcDbArc
 50
184.1252708293
 51
265.8747291707
  0
ARC
  5
5E1
100
AcDbEntity
  8
0
100
AcDbCircle
 62
250
  6
CONTINUOUS
 10
-0.0
 20
0.0
 40
10.4257359313
100
AcDbArc
 50
274.1252708293
 51
355.8747291707
  0
CIRCLE
  5
5E2
100
AcDbEntity
  8
RACCORDO
100
AcDbCircle
 62
7
  6
CONTINUOUS
 10
45.3
 20
0.0
 40
4.8
  0
CIRCLE
  5
5E3
100
AcDbEntity
  8
RACCORDO
100
AcDbCircle
 62
250
  6
CONTINUOUS
 10
45.3
 20
0.0
 40
4.2999972742
  0
CIRCLE
  5
5E4
100
AcDbEntity
  8
RACCORDO
100
AcDbCircle
 62
250
  6
CONTINUOUS
 10
68.0
 20
0.0
 40
11.8078644445
  0
CIRCLE
  5
5E5
100
AcDbEntity
  8
RACCORDO
100
AcDbCircle
 62
7
  6
CONTINUOUS
 10
68.0
 20
0.0
 40
11.5078770275
  0
ARC
  5
5E6
100
AcDbEntity
  8
0
100
AcDbCircle
 62
7
  6
CONTINUOUS
 10
68.0
 20
0.0
 40
11.5061088075
100
AcDbArc
 50
266.2626528724
 51
273.7373471276
  0
ARC
  5
5E7
100
AcDbEntity
  8
0
100
AcDbCircle
 62
7
  6
CONTINUOUS
 10
68.0
 20
0.0
 40
11.5061088075
100
AcDbArc
 50
356.2626528724
 51
3.7373471276
  0
ARC
  5
5E8
100
AcDbEntity
  8
0
100
AcDbCircle
 62
7
  6
CONTINUOUS
 10
68.0
 20
0.0
 40
11.5061088075
100
AcDbArc
 50
176.2626528724
 51
183.7373471276
  0
ARC
  5
5E9
100
AcDbEntity
  8
0
100
AcDbCircle
 62
7
  6
CONTINUOUS
 10
68.0
 20
0.0
 40
11.5061088075
100
AcDbArc
 50
86.2626528724
 51
93.7373471276
  0
ARC
  5
5EA
100
AcDbEntity
  8
0
100
AcDbCircle
 62
7
  6
CONTINUOUS
 10
68.0
 20
0.0
 40
11.5
100
AcDbArc
 50
93.7393352315
 51
176.2606647685
  0
ARC
  5
5EB
100
AcDbEntity
  8
0
100
AcDbCircle
 62
7
  6
CONTINUOUS
 10
68.0
 20
0.0
 40
11.5
100
AcDbArc
 50
3.7393352315
 51
86.2606647685
  0
ARC
  5
5EC
100
AcDbEntity
  8
0
100
AcDbCircle
 62
7
  6
CONTINUOUS
 10
68.0
 20
0.0
 40
11.5
100
AcDbArc
 50
273.7393352315
 51
356.2606647685
  0
ARC
  5
5ED
100
AcDbEntity
  8
0
100
AcDbCircle
 62
7
  6
CONTINUOUS
 10
68.0
 20
0.0
 40
11.5
100
AcDbArc
 50
183.7393352315
 51
266.2606647685
  0
ARC
  5
5EE
100
AcDbEntity
  8
0
100
AcDbCircle
 62
7
  6
CONTINUOUS
 10
68.0
 20
0.0
 40
11.25
100
AcDbArc
 50
273.8225537293
 51
356.1774462707
  0
ARC
  5
5EF
100
AcDbEntity
  8
0
100
AcDbCircle
 62
7
  6
CONTINUOUS
 10
68.0
 20
0.0
 40
11.25
100
AcDbArc
 50
183.8225537293
 51
266.1774462707
  0
ARC
  5
5F0
100
AcDbEntity
  8
0
100
AcDbCircle
 62
7
  6
CONTINUOUS
 10
68.0
 20
0.0
 40
11.25
100
AcDbArc
 50
93.8225537293
 51
176.1774462707
  0
ARC
  5
5F1
100
AcDbEntity
  8
0
100
AcDbCircle
 62
7
  6
CONTINUOUS
 10
68.0
 20
0.0
 40
11.25
100
AcDbArc
 50
3.8225537293
 51
86.1774462707
  0
ARC
  5
5F2
100
AcDbEntity
  8
0
100
AcDbCircle
 62
250
  6
CONTINUOUS
 10
68.0
 20
0.0
 40
10.6378679656
100
AcDbArc
 50
274.0428697094
 51
355.9571302906
  0
ARC
  5
5F3
100
AcDbEntity
  8
0
100
AcDbCircle
 62
250
  6
CONTINUOUS
 10
68.0
 20
0.0
 40
10.6378679656
100
AcDbArc
 50
184.0428697094
 51
265.9571302906
  0
ARC
  5
5F4
100
AcDbEntity
  8
0
100
AcDbCircle
 62
250
  6
CONTINUOUS
 10
68.0
 20
0.0
 40
10.6378679656
100
AcDbArc
 50
94.0428697094
 51
175.9571302906
  0
ARC
  5
5F5
100
AcDbEntity
  8
0
100
AcDbCircle
 62
250
  6
CONTINUOUS
 10
68.0
 20
0.0
 40
10.6378679656
100
AcDbArc
 50
4.0428697094
 51
85.9571302906
  0
ARC
  5
5F6
100
AcDbEntity
  8
0
100
AcDbCircle
 62
250
  6
CONTINUOUS
 10
68.0
 20
0.0
 40
10.4257359313
100
AcDbArc
 50
4.1252708293
 51
85.8747291707
  0
ARC
  5
5F7
100
AcDbEntity
  8
0
100
AcDbCircle
 62
250
  6
CONTINUOUS
 10
68.0
 20
0.0
 40
10.4257359313
100
AcDbArc
 50
94.1252708293
 51
175.8747291707
  0
ARC
  5
5F8
100
AcDbEntity
  8
0
100
AcDbCircle
 62
250
  6
CONTINUOUS
 10
68.0
 20
0.0
 40
10.4257359313
100
AcDbArc
 50
184.1252708293
 51
265.8747291707
  0
ARC
  5
5F9
100
AcDbEntity
  8
0
100
AcDbCircle
 62
250
  6
CONTINUOUS
 10
68.0
 20
0.0
 40
10.4257359313
100
AcDbArc
 50
274.1252708293
 51
355.8747291707
  0
CIRCLE
  5
5FA
100
AcDbEntity
  8
RACCORDO
100
AcDbCircle
 62
7
  6
CONTINUOUS
 10
85.5
 20
26.5
 40
9.5
  0
CIRCLE
  5
5FB
100
AcDbEntity
  8
RACCORDO
100
AcDbCircle
 62
250
  6
CONTINUOUS
 10
85.5
 20
26.5
 40
8.9999982989
  0
ARC
  5
5FC
100
AcDbEntity
  8
SKEL
100
AcDbCircle
 62
7
  6
CONTINUOUS
 10
96.0
 20
35.5
 40
6.0000004289
100
AcDbArc
 50
0.0000165093
 51
89.9999807783
  0
ARC
  5
5FD
100
AcDbEntity
  8
DRAFT
100
AcDbCircle
 62
7
  6
CONTINUOUS
 10
96.0
 20
35.5
 40
6.0
100
AcDbArc
 50
0.0
 51
90.0
  0
ARC
  5
5FE
100
AcDbEntity
  8
0
100
AcDbCircle
 62
250
  6
CONTINUOUS
 10
96.0
 20
35.5
 40
5.3747431161
100
AcDbArc
 50
0.0
 51
90.0
  0
ARC
  5
5FF
100
AcDbEntity
  8
0
100
AcDbCircle
 62
7
  6
CONTINUOUS
 10
96.0
 20
35.5
 40
4.4751240074
100
AcDbArc
 50
0.0
 51
90.0
  0
ARC
  5
600
100
AcDbEntity
  8
DRAFT
100
AcDbCircle
 62
7
  6
CONTINUOUS
 10
96.0
 20
35.5
 40
4.2
100
AcDbArc
 50
0.0
 51
90.0
  0
CIRCLE
  5
601
100
AcDbEntity
  8
0
100
AcDbCircle
 62
7
  6
CONTINUOUS
 10
85.5
 20
26.5
 40
2.0
  0
CIRCLE
  5
602
100
AcDbEntity
  8
0
100
AcDbCircle
 62
7
  6
CONTINUOUS
 10
85.5
 20
26.5
 40
1.8
  0
ARC
  5
603
100
AcDbEntity
  8
DRAFT
100
AcDbCircle
 62
7
  6
CONTINUOUS
 10
96.0
 20
35.5
 40
1.7757900259
100
AcDbArc
 50
180.0
 51
270.0
  0
CIRCLE
  5
604
100
AcDbEntity
  8
0
100
AcDbCircle
 62
7
  6
CONTINUOUS
 10
85.5
 20
26.5
 40
1.5
  0
ARC
  5
605
100
AcDbEntity
  8
DRAFT
100
AcDbCircle
 62
7
  6
CONTINUOUS
 10
96.0
 20
35.5
 40
1.5
100
AcDbArc
 50
180.0
 51
270.0
  0
ELLIPSE
  5
606
100
AcDbEntity
  8
RACCORDO
100
AcDbEllipse
 62
7
  6
CONTINUOUS
 10
83.0413486316
 20
-39.9661069526
 30
0.0
 11
0.5
 21
0.0
 31
0.0
 40
0.0174550649
 41
-3.1241393611
 42
-1.5707963268
  0
ELLIPSE
  5
607
100
AcDbEntity
  8
RACCORDO
100
AcDbEllipse
 62
7
  6
CONTINUOUS
 10
87.8586513684
 20
-39.9661069526
 30
0.0
 11
0.5
 21
0.0
 31
0.0
 40
0.0174550649
 41
-1.5707963268
 42
-0.0174532925
  0
ELLIPSE
  5
608
100
AcDbEntity
  8
RACCORDO
100
AcDbEllipse
 62
7
  6
CONTINUOUS
 10
-83.0413486316
 20
39.9661069526
 30
0.0
 11
0.5
 21
0.0
 31
0.0
 40
0.0174550649
 41
0.0174532925
 42
1.5707963268
  0
ELLIPSE
  5
609
100
AcDbEntity
  8
RACCORDO
100
AcDbEllipse
 62
7
  6
CONTINUOUS
 10
-87.8586513684
 20
39.9661069526
 30
0.0
 11
0.5
 21
0.0
 31
0.0
 40
0.0174550649
 41
1.5707963268
 42
3.1241393611
  0
ELLIPSE
  5
60A
100
AcDbEntity
  8
RACCORDO
100
AcDbEllipse
 62
7
  6
CONTINUOUS
 10
-100.4661069526
 20
-26.7913486316
 30
0.0
 11
0.0
 21
0.5
 31
0.0
 40
0.0174550649
 41
0.0174532925
 42
1.5707963268
  0
ELLIPSE
  5
60B
100
AcDbEntity
  8
RACCORDO
100
AcDbEllipse
 62
7
  6
CONTINUOUS
 10
-100.4661069526
 20
-31.6086513684
 30
0.0
 11
0.0
 21
0.5
 31
0.0
 40
0.0174550649
 41
-4.7123889804
 42
-3.1590459461
  0
ELLIPSE
  5
60C
100
AcDbEntity
  8
RACCORDO
100
AcDbEllipse
 62
7
  6
CONTINUOUS
 10
100.4661069526
 20
26.7913486316
 30
0.0
 11
0.0
 21
0.5
 31
0.0
 40
0.0174550649
 41
-3.1241393611
 42
-1.5707963268
  0
ELLIPSE
  5
60D
100
AcDbEntity
  8
RACCORDO
100
AcDbEllipse
 62
7
  6
CONTINUOUS
 10
100.4661069526
 20
31.6086513684
 30
0.0
 11
-0.0
 21
0.5
 31
0.0
 40
0.0174550649
 41
-1.5707963268
 42
-0.0174532925
  0
ELLIPSE
  5
60E
100
AcDbEntity
  8
0
100
AcDbEllipse
 62
7
  6
CONTINUOUS
 10
94.245156052
 20
-39.6749258819
 30
0.0
 11
-0.0
 21
1.2
 31
0.0
 40
0.0174550649
 41
-4.7123889804
 42
-4.4595382022
  0
ELLIPSE
  5
60F
100
AcDbEntity
  8
0
100
AcDbEllipse
 62
7
  6
CONTINUOUS
 10
100.1749258819
 20
-33.745156052
 30
0.0
 11
1.2
 21
-0.0
 31
0.0
 40
0.0174550649
 41
1.3179455486
 42
1.5707963268
  0
ELLIPSE
  5
610
100
AcDbEntity
  8
0
100
AcDbEllipse
 62
7
  6
CONTINUOUS
 10
100.1749258819
 20
33.7451560521
 30
0.0
 11
1.2
 21
-0.0
 31
0.0
 40
0.0174550649
 41
-1.5707963268
 42
-1.3179455486
  0
ELLIPSE
  5
611
100
AcDbEntity
  8
0
100
AcDbEllipse
 62
7
  6
CONTINUOUS
 10
94.245156052
 20
39.6749258819
 30
0.0
 11
0.0
 21
1.2
 31
0.0
 40
0.0174550649
 41
1.3179455486
 42
1.5707963268
  0
ELLIPSE
  5
612
100
AcDbEntity
  8
0
100
AcDbEllipse
 62
7
  6
CONTINUOUS
 10
-100.1749258819
 20
-33.745156052
 30
0.0
 11
1.2
 21
0.0
 31
0.0
 40
0.0174550649
 41
1.5707963268
 42
1.823647105
  0
ELLIPSE
  5
613
100
AcDbEntity
  8
0
100
AcDbEllipse
 62
7
  6
CONTINUOUS
 10
-94.245156052
 20
-39.6749258819
 30
0.0
 11
-0.0
 21
1.2
 31
0.0
 40
0.0174550649
 41
-1.823647105
 42
-1.5707963268
  0
ELLIPSE
  5
614
100
AcDbEntity
  8
0
100
AcDbEllipse
 62
7
  6
CONTINUOUS
 10
-94.245156052
 20
39.6749258819
 30
0.0
 11
0.0
 21
1.2
 31
0.0
 40
0.0174550649
 41
-1.5707963268
 42
-1.3179455486
  0
ELLIPSE
  5
615
100
AcDbEntity
  8
0
100
AcDbEllipse
 62
7
  6
CONTINUOUS
 10
-100.1749258819
 20
33.7451560521
 30
0.0
 11
1.2
 21
0.0
 31
0.0
 40
0.0174550649
 41
-1.823647105
 42
-1.5707963268
  0
ENDSEC
  0
SECTION
  2
OBJECTS
  0
DICTIONARY
  5
C
100
AcDbDictionary
280
0
281
1
  3
ACAD_GROUP
350
D
  3
ACAD_MLINESTYLE
350
17
  3
ACAD_LAYOUT
350
1A
  3
ACAD_PLOTSETTINGS
350
19
  3
ACAD_PLOTSTYLENAME
350
E
  0
DICTIONARY
  5
D
102
{ACAD_REACTORS
330
C
102
}
100
AcDbDictionary
280
0
281
1
  0
ACDBDICTIONARYWDFLT
  5
E
102
{ACAD_REACTORS
330
C
102
}
100
AcDbDictionary
281
1
  3
Normal
350
F
100
AcDbDictionaryWithDefault
340
F
  0
DICTIONARY
  5
17
102
{ACAD_REACTORS
330
C
102
}
100
AcDbDictionary
280
0
281
1
  3
Standard
350
18
  0
DICTIONARY
  5
19
102
{ACAD_REACTORS
330
C
102
}
100
AcDbDictionary
281
1
  0
DICTIONARY
  5
1A
102
{ACAD_REACTORS
330
C
102
}
100
AcDbDictionary
281
1
  3
Model
350
616
  3
Layout1
350
617
  0
ACDBPLACEHOLDER
  5
F
102
{ACAD_REACTORS
330
E
102
}
  0
MLINESTYLE
  5
18
102
{ACAD_REACTORS
330
17
102
}
100
AcDbMlineStyle
  2
STANDARD
 70
0
  3

 62
256
 51
90.0
 52
90.0
 71
2
 49
0.5
 62
256
  6
BYLAYER
 49
-0.5
 62
256
  6
BYLAYER
  0
LAYOUT
  5
616
102
{ACAD_REACTORS
330
1A
102
}
100
AcDbPlotSettings
  1

  2
none_device
  4
ISO_A4_(297.00_x_210.00_MM)
  6

 40
0.0
 41
0.0
 42
0.0
 43
0.0
 44
297.0
 45
210.0
 46
0.0
 47
0.0
 48
0.0
 49
0.0
140
0.0
141
0.0
142
1.0
143
1.0
 70
1024
 72
1
 73
0
 74
0
  7

 75
0
147
1.0
148
0.0
149
0.0
100
AcDbLayout
  1
Model
 70
0
 71
0
 10
0.0
 20
0.0
 11
297.0
 21
210.0
 12
0.0
 22
0.0
 32
0.0
 14
0.0
 24
0.0
 34
0.0
 15
0.0
 25
0.0
 35
0.0
146
0.0
 13
0.0
 23
0.0
 33
0.0
 16
1.0
 26
0.0
 36
0.0
 17
0.0
 27
1.0
 37
0.0
 76
0
330
217
345
0
346
0
  0
LAYOUT
  5
617
102
{ACAD_REACTORS
330
1A
102
}
100
AcDbPlotSettings
  1

  2
none_device
  4
ISO_A4_(297.00_x_210.00_MM)
  6

 40
0.0
 41
0.0
 42
0.0
 43
0.0
 44
297.0
 45
210.0
 46
0.0
 47
0.0
 48
0.0
 49
0.0
140
0.0
141
0.0
142
1.0
143
1.0
 70
0
 72
1
 73
0
 74
0
  7

 75
0
147
1.0
148
0.0
149
0.0
100
AcDbLayout
  1
Layout1
 70
0
 71
1
 10
0.0
 20
0.0
 11
297.0
 21
210.0
 12
0.0
 22
0.0
 32
0.0
 14
0.0
 24
0.0
 34
0.0
 15
0.0
 25
0.0
 35
0.0
146
0.0
 13
0.0
 23
0.0
 33
0.0
 16
1.0
 26
0.0
 36
0.0
 17
0.0
 27
1.0
 37
0.0
 76
0
330
218
345
0
346
0
  0
ENDSEC
  0
EOF
