  0
SECTION
  2
HEADER
  9
$ACADVER
  1
AC1024
  9
$DWGCODEPAGE
  3
ANSI_1252
  9
$EXTMAX
 10
297.0
 20
210.0
 30
0.0
  9
$EXTMIN
 10
0.0
 20
0.0
 30
0.0
  9
$LIMMIN
 10
0.0
 20
0.0
  9
$LIMMAX
 10
297.0
 20
210.0
  9
$VIEWCTR
 10
148.5
 20
105.0
  9
$VIEWSIZE
 40
210.0
  9
$CLAYER
  8
0
  9
$LTSCALE
 40
16.335
  9
$CELTYPE
  6
BYLAYER
  9
$DIMSCALE
 40
1.0
  9
$DIMASZ
 40
3.0
  9
$DIMEXO
 40
0.5
  9
$DIMDLI
 40
11.286
  9
$DIMEXE
 40
1.5
  9
$DIMCEN
 40
2.673
  9
$DIMLFAC
 40
1.0
  9
$DIMBLK
  1
_FILLED
  9
$DIMALT
 70
0
  9
$DIMALTF
 40
0.0393700787
  9
$DIMTXT
 40
3.0
  9
$DIMTOL
 70
1
  9
$DIMLIM
 70
0
  9
$DIMTFAC
 40
1.0
  9
$DIMTP
 40
0.01
  9
$DIMTM
 40
0.01
  9
$DIMGAP
 40
0.625
  9
$DIMDSEP
 70
44
  9
$AUNITS
 70
0
  9
$PDMODE
 70
3
  9
$PDSIZE
 40
3.0
  9
$HANDSEED
  5
3E6
  9
$TILEMODE
 70
1
  9
$MEASUREMENT
 70
1
  9
$INSUNITS
 70
4
  0
ENDSEC
  0
SECTION
  2
CLASSES
  0
CLASS
  1
ACDBDICTIONARYWDFLT
  2
AcDbDictionaryWithDefault
  3
AutoCAD 2000
 90
0
 91
1
280
0
281
0
  0
CLASS
  1
ACDBPLACEHOLDER
  2
AcDbPlaceHolder
  3
AutoCAD 2000
 90
0
 91
1
280
0
281
0
  0
CLASS
  1
LAYOUT
  2
AcDbLayout
  3
AutoCAD 2000
 90
0
 91
0
280
0
281
0
  0
ENDSEC
  0
SECTION
  2
TABLES
  0
TABLE
  2
VPORT
  5
8
100
AcDbSymbolTable
 70
2
  0
VPORT
  5
1F4
100
AcDbSymbolTableRecord
100
AcDbViewportTableRecord
  2
*ACTIVE
 70
0
 10
0.0
 20
0.0
 11
1.0
 21
1.0
 12
148.5
 22
105.0
 13
0.0
 23
0.0
 14
1.0
 24
1.0
 15
0.0
 25
0.0
 16
0.0
 26
0.0
 36
1.0
 17
0.0
 27
0.0
 37
0.0
 40
210.0
 41
1.4142857143
 42
50.0
 43
0.0
 44
0.0
 50
0.0
 51
0.0
 71
0
 72
100
 73
1
 74
1
 75
0
 76
0
 77
0
 78
0
  0
ENDTAB
  0
TABLE
  2
LTYPE
  5
5
100
AcDbSymbolTable
 70
6
  0
LTYPE
  5
14
100
AcDbSymbolTableRecord
100
AcDbLinetypeTableRecord
  2
BYBLOCK
 70
0
  3

 72
65
 73
0
 40
0.0
  0
LTYPE
  5
15
100
AcDbSymbolTableRecord
100
AcDbLinetypeTableRecord
  2
BYLAYER
 70
0
  3

 72
65
 73
0
 40
0.0
  0
LTYPE
  5
16
100
AcDbSymbolTableRecord
100
AcDbLinetypeTableRecord
  2
CONTINUOUS
 70
64
  3
Solid line
 72
65
 73
0
 40
0.0
  0
LTYPE
  5
1F5
100
AcDbSymbolTableRecord
100
AcDbLinetypeTableRecord
  2
CENTER
 70
64
  3
____ _ ____ _ ____ _ ____ _ ____ _ ____ _ ____
 72
65
 73
4
 40
0.6
 49
0.375
 74
0
 49
-0.075
 74
0
 49
0.075
 74
0
 49
-0.075
 74
0
  0
LTYPE
  5
1F6
100
AcDbSymbolTableRecord
100
AcDbLinetypeTableRecord
  2
HIDDEN
 70
64
  3
- - - - - - - - - - - - - - - - - - - -
 72
65
 73
2
 40
0.2
 49
0.1
 74
0
 49
-0.1
 74
0
  0
LTYPE
  5
1F7
100
AcDbSymbolTableRecord
100
AcDbLinetypeTableRecord
  2
PHANTOM
 70
64
  3
_____ _ _ _____ _ _ _____ _ _ _____
 72
65
 73
6
 40
0.8
 49
0.45
 74
0
 49
-0.05
 74
0
 49
0.1
 74
0
 49
-0.05
 74
0
 49
0.1
 74
0
 49
-0.05
 74
0
  0
LTYPE
  5
1F8
100
AcDbSymbolTableRecord
100
AcDbLinetypeTableRecord
  2
DOT
 70
64
  3
. . . . . . . . . . . . . . . . . . . .
 72
65
 73
2
 40
0.2
 49
0.1
 74
0
 49
-0.1
 74
0
  0
LTYPE
  5
1F9
100
AcDbSymbolTableRecord
100
AcDbLinetypeTableRecord
  2
DASHED
 70
64
  3
- - - - - - - - - - - - - - - - - - - -
 72
65
 73
2
 40
0.2
 49
0.1
 74
0
 49
-0.1
 74
0
  0
ENDTAB
  0
TABLE
  2
LAYER
  5
2
100
AcDbSymbolTable
 70
36
  0
LAYER
  5
10
100
AcDbSymbolTableRecord
100
AcDbLayerTableRecord
  2
0
 70
0
 62
7
  6
CONTINUOUS
370
-3
390
F
  0
LAYER
  5
1FA
100
AcDbSymbolTableRecord
100
AcDbLayerTableRecord
  2
DEFAULT_1
 70
0
 62
7
  6
CENTER
370
-3
390
F
  0
LAYER
  5
1FB
100
AcDbSymbolTableRecord
100
AcDbLayerTableRecord
  2
DEFAULT_2
 70
0
 62
7
  6
HIDDEN
370
-3
390
F
  0
LAYER
  5
1FC
100
AcDbSymbolTableRecord
100
AcDbLayerTableRecord
  2
DEFAULT_3
 70
0
 62
7
  6
PHANTOM
370
-3
390
F
  0
LAYER
  5
1FD
100
AcDbSymbolTableRecord
100
AcDbLayerTableRecord
  2
ASSI
 70
0
 62
7
  6
CONTINUOUS
370
-3
390
F
  0
LAYER
  5
1FE
100
AcDbSymbolTableRecord
100
AcDbLayerTableRecord
  2
COLOR5
 70
0
 62
7
  6
CONTINUOUS
370
-3
390
F
  0
LAYER
  5
1FF
100
AcDbSymbolTableRecord
100
AcDbLayerTableRecord
  2
COORDINATE
 70
0
 62
7
  6
CONTINUOUS
370
-3
390
F
  0
LAYER
  5
200
100
AcDbSymbolTableRecord
100
AcDbLayerTableRecord
  2
COORD_ORIGINE
 70
0
 62
7
  6
CONTINUOUS
370
-3
390
F
  0
LAYER
  5
201
100
AcDbSymbolTableRecord
100
AcDbLayerTableRecord
  2
COPY
 70
0
 62
7
  6
CONTINUOUS
370
-3
390
F
  0
LAYER
  5
202
100
AcDbSymbolTableRecord
100
AcDbLayerTableRecord
  2
CURVE
 70
0
 62
7
  6
CONTINUOUS
370
-3
390
F
  0
LAYER
  5
203
100
AcDbSymbolTableRecord
100
AcDbLayerTableRecord
  2
DRAFT
 70
0
 62
7
  6
CONTINUOUS
370
-3
390
F
  0
LAYER
  5
204
100
AcDbSymbolTableRecord
100
AcDbLayerTableRecord
  2
IGES_INCIS
 70
0
 62
7
  6
CONTINUOUS
370
-3
390
F
  0
LAYER
  5
205
100
AcDbSymbolTableRecord
100
AcDbLayerTableRecord
  2
INTF_1
 70
0
 62
7
  6
CONTINUOUS
370
-3
390
F
  0
LAYER
  5
206
100
AcDbSymbolTableRecord
100
AcDbLayerTableRecord
  2
INTF_7
 70
0
 62
7
  6
CONTINUOUS
370
-3
390
F
  0
LAYER
  5
207
100
AcDbSymbolTableRecord
100
AcDbLayerTableRecord
  2
NOTE
 70
0
 62
7
  6
CONTINUOUS
370
-3
390
F
  0
LAYER
  5
208
100
AcDbSymbolTableRecord
100
AcDbLayerTableRecord
  2
PIANI
 70
0
 62
7
  6
CONTINUOUS
370
-3
390
F
  0
LAYER
  5
209
100
AcDbSymbolTableRecord
100
AcDbLayerTableRecord
  2
PIANI_ORIGINE
 70
0
 62
7
  6
CONTINUOUS
370
-3
390
F
  0
LAYER
  5
20A
100
AcDbSymbolTableRecord
100
AcDbLayerTableRecord
  2
PUNTI
 70
0
 62
7
  6
CONTINUOUS
370
-3
390
F
  0
LAYER
  5
20B
100
AcDbSymbolTableRecord
100
AcDbLayerTableRecord
  2
RACCORDO
 70
0
 62
7
  6
CONTINUOUS
370
-3
390
F
  0
LAYER
  5
20C
100
AcDbSymbolTableRecord
100
AcDbLayerTableRecord
  2
RGB__255__255__255__
 70
0
 62
7
  6
CONTINUOUS
370
-3
390
F
  0
LAYER
  5
20D
100
AcDbSymbolTableRecord
100
AcDbLayerTableRecord
  2
RGB____0____0____0__
 70
0
 62
7
  6
CONTINUOUS
370
-3
390
F
  0
LAYER
  5
20E
100
AcDbSymbolTableRecord
100
AcDbLayerTableRecord
  2
SKEL
 70
0
 62
7
  6
CONTINUOUS
370
-3
390
F
  0
LAYER
  5
20F
100
AcDbSymbolTableRecord
100
AcDbLayerTableRecord
  2
SMUSSO
 70
0
 62
7
  6
CONTINUOUS
370
-3
390
F
  0
LAYER
  5
210
100
AcDbSymbolTableRecord
100
AcDbLayerTableRecord
  2
SNAPLINE
 70
0
 62
7
  6
CONTINUOUS
370
-3
390
F
  0
LAYER
  5
211
100
AcDbSymbolTableRecord
100
AcDbLayerTableRecord
  2
SUPERFICI
 70
0
 62
7
  6
CONTINUOUS
370
-3
390
F
  0
LAYER
  5
212
100
AcDbSymbolTableRecord
100
AcDbLayerTableRecord
  2
TRASH
 70
0
 62
7
  6
CONTINUOUS
370
-3
390
F
  0
LAYER
  5
213
100
AcDbSymbolTableRecord
100
AcDbLayerTableRecord
  2
XSEC_DATUMS
 70
0
 62
7
  6
CONTINUOUS
370
-3
390
F
  0
ENDTAB
  0
TABLE
  2
STYLE
  5
3
100
AcDbSymbolTable
 70
1
  0
STYLE
  5
11
100
AcDbSymbolTableRecord
100
AcDbTextStyleTableRecord
  2
STANDARD
 70
0
 40
0.0
 41
0.8
 50
0.0
 71
0
 42
0.2
  3
txt
  4

  0
STYLE
  5
214
100
AcDbSymbolTableRecord
100
AcDbTextStyleTableRecord
  2
TEXTSTYLE_1
 70
0
 40
0.0
 41
0.8
 50
0.0
 71
0
 42
0.2
  3
gdt
  4

  0
ENDTAB
  0
TABLE
  2
VIEW
  5
6
100
AcDbSymbolTable
 70
0
  0
ENDTAB
  0
TABLE
  2
UCS
  5
7
100
AcDbSymbolTable
 70
0
  0
ENDTAB
  0
TABLE
  2
APPID
  5
9
100
AcDbSymbolTable
 70
1
  0
APPID
  5
215
100
AcDbSymbolTableRecord
100
AcDbRegAppTableRecord
  2
ACAD
 70
0
  0
ENDTAB
  0
TABLE
  2
BLOCK_RECORD
  5
1
100
AcDbSymbolTable
 70
0
  0
BLOCK_RECORD
  5
216
100
AcDbSymbolTableRecord
100
AcDbBlockTableRecord
  2
*Model_Space
  0
BLOCK_RECORD
  5
217
100
AcDbSymbolTableRecord
100
AcDbBlockTableRecord
  2
*Paper_Space
  0
BLOCK_RECORD
  5
218
100
AcDbSymbolTableRecord
100
AcDbBlockTableRecord
  2
_FILLED
  0
ENDTAB
  0
TABLE
  2
DIMSTYLE
  5
A
100
AcDbSymbolTable
 70
1
100
AcDbDimStyleTable
 71
0
  0
DIMSTYLE
105
219
100
AcDbSymbolTableRecord
100
AcDbDimStyleTableRecord
  2
STANDARD
 70
0
  3

  4

 40
1.0
 41
3.0
 42
0.5
 43
0.38
 44
1.5
 45
0.0
 46
0.0
 47
0.01
 48
0.01
140
3.0
141
0.09
142
0.0
143
25.4
144
1.0
145
0.0
146
1.0
147
0.625
 71
1
 72
0
 73
0
 74
0
 75
0
 76
0
 77
1
 78
8
 79
2
170
0
171
1
172
0
173
0
174
0
175
0
176
0
177
0
178
0
270
2
179
2
271
2
272
2
273
2
274
2
275
0
280
0
281
0
282
0
283
1
284
8
285
0
286
0
287
3
288
0
340
11
278
44
341
218
342
218
343
218
344
218
  0
ENDTAB
  0
ENDSEC
  0
SECTION
  2
BLOCKS
  0
BLOCK
  5
20
100
AcDbEntity
  8
0
100
AcDbBlockBegin
  2
*Model_Space
 70
0
 10
0.0
 20
0.0
 30
0.0
  3
*Model_Space
  1

  0
ENDBLK
  5
21
100
AcDbEntity
  8
0
100
AcDbBlockEnd
  0
BLOCK
  5
1C
100
AcDbEntity
  8
0
100
AcDbBlockBegin
  2
*Paper_Space
 70
0
 10
0.0
 20
0.0
 30
0.0
  3
*Paper_Space
  1

  0
ENDBLK
  5
1D
100
AcDbEntity
  8
0
100
AcDbBlockEnd
  0
BLOCK
  5
21A
100
AcDbEntity
  8
0
100
AcDbBlockBegin
  2
_FILLED
 70
64
 10
0.0
 20
0.0
  3
_FILLED
  1

  0
SOLID
  5
21B
100
AcDbEntity
  8
0
  6
BYBLOCK
 62
0
100
AcDbTrace
 10
0.0
 20
0.0
 11
-1.0
 21
0.3166666667
 12
-1.0
 22
-0.3166666667
 13
-1.0
 23
-0.3166666667
  0
ENDBLK
  5
21C
100
AcDbEntity
  8
0
  6
BYBLOCK
 62
0
100
AcDbBlockEnd
  0
ENDSEC
  0
SECTION
  2
ENTITIES
  0
LINE
  5
21D
100
AcDbEntity
  8
DRAFT
100
AcDbLine
 62
7
  6
CONTINUOUS
 10
-66.0
 20
62.5
 11
-66.1378845111
 21
62.3621154889
  0
LINE
  5
21E
100
AcDbEntity
  8
DRAFT
100
AcDbLine
 62
7
  6
CONTINUOUS
 10
-60.5
 20
68.0
 11
-60.3621154889
 21
68.1378845111
  0
LINE
  5
21F
100
AcDbEntity
  8
DRAFT
100
AcDbLine
 62
7
  6
CONTINUOUS
 10
-60.5
 20
-68.0
 11
-60.3621154889
 21
-68.1378845111
  0
LINE
  5
220
100
AcDbEntity
  8
DRAFT
100
AcDbLine
 62
7
  6
CONTINUOUS
 10
-66.0
 20
-62.5
 11
-66.1378845111
 21
-62.3621154889
  0
LWPOLYLINE
  5
221
100
AcDbEntity
  8
RACCORDO
100
AcDbPolyline
 62
250
  6
CONTINUOUS
 90
8
 70
0
 10
-55.0538573308
 20
69.4499522117
 10
-55.0510207602
 20
69.4513862571
 10
-55.0410724685
 20
69.452800659
 10
-55.0240124557
 20
69.4541954175
 10
-54.999677207
 20
69.4555837396
 10
-54.9682302373
 20
69.4569524183
 10
-54.9301620908
 20
69.4582618323
 10
-54.885206837
 20
69.4595098343
  0
LWPOLYLINE
  5
222
100
AcDbEntity
  8
RACCORDO
100
AcDbPolyline
 62
250
  6
CONTINUOUS
 90
8
 70
0
 10
-67.4499522117
 20
-58.5538573308
 10
-67.4513862571
 20
-58.5510207602
 10
-67.452800659
 20
-58.5410724685
 10
-67.4541954175
 20
-58.5240124557
 10
-67.4555837396
 20
-58.499677207
 10
-67.4569524183
 20
-58.4682302373
 10
-67.4582618323
 20
-58.4301620908
 10
-67.4595098343
 20
-58.385206837
  0
LWPOLYLINE
  5
223
100
AcDbEntity
  8
RACCORDO
100
AcDbPolyline
 62
250
  6
CONTINUOUS
 90
10
 70
0
 10
-54.6883146181
 20
68.5177726352
 10
-54.6437743313
 20
68.60965078
 10
-54.6002592908
 20
68.6958314541
 10
-54.5587711432
 20
68.7743309163
 10
-54.5202648794
 20
68.8433422342
 10
-54.4856268522
 20
68.9012768776
 10
-54.4556543736
 20
68.9468012836
 10
-54.431037362
 20
68.978867553
 10
-54.4123424619
 20
68.9967375715
 10
-54.4
 20
69.0
  0
LWPOLYLINE
  5
224
100
AcDbEntity
  8
RACCORDO
100
AcDbPolyline
 62
250
  6
CONTINUOUS
 90
7
 70
0
 10
-48.4569459017
 20
68.3875344722
 10
-48.4803159407
 20
68.3751297974
 10
-48.5038749039
 20
68.3649718084
 10
-48.5276227915
 20
68.3570669957
 10
-48.5515596033
 20
68.3514197356
 10
-48.5756853395
 20
68.3480327941
 10
-48.6
 20
68.3469076856
  0
LWPOLYLINE
  5
225
100
AcDbEntity
  8
RACCORDO
100
AcDbPolyline
 62
250
  6
CONTINUOUS
 90
10
 70
0
 10
-66.5177726352
 20
-58.1883146181
 10
-66.60965078
 20
-58.1437743313
 10
-66.6958314541
 20
-58.1002592908
 10
-66.7743309163
 20
-58.0587711432
 10
-66.8433422342
 20
-58.0202648794
 10
-66.9012768776
 20
-57.9856268522
 10
-66.9468012836
 20
-57.9556543736
 10
-66.978867553
 20
-57.931037362
 10
-66.9967375715
 20
-57.9123424619
 10
-67.0
 20
-57.9
  0
LWPOLYLINE
  5
226
100
AcDbEntity
  8
RACCORDO
100
AcDbPolyline
 62
250
  6
CONTINUOUS
 90
7
 70
0
 10
-66.3875344722
 20
-51.9569459017
 10
-66.3751297974
 20
-51.9803159407
 10
-66.3649718084
 20
-52.0038749039
 10
-66.3570669957
 20
-52.0276227915
 10
-66.3514197356
 20
-52.0515596033
 10
-66.3480327941
 20
-52.0756853395
 10
-66.3469076856
 20
-52.1
  0
LWPOLYLINE
  5
227
100
AcDbEntity
  8
RACCORDO
100
AcDbPolyline
 62
7
  6
CONTINUOUS
 90
10
 70
0
 10
-67.4499522016
 20
-51.4461426692
 10
-67.443691572
 20
-51.5396398783
 10
-67.4250001074
 20
-51.6314614915
 10
-67.3942127841
 20
-51.7199619413
 10
-67.3518813526
 20
-51.8035551804
 10
-67.2987644493
 20
-51.880743105
 10
-67.2358140006
 20
-51.9501424036
 10
-67.1641581636
 20
-52.010509347
 10
-67.0850811076
 20
-52.060762078
 10
-67.0
 20
-52.1
  0
LWPOLYLINE
  5
228
100
AcDbEntity
  8
0
100
AcDbPolyline
 62
7
  6
CONTINUOUS
 90
23
 70
0
 10
-67.6159885716
 20
39.9994832792
 10
-67.6230155778
 20
39.9925408922
 10
-67.6369677137
 20
39.9370017967
 10
-67.6508164888
 20
39.8251144974
 10
-67.6645633873
 20
39.6576881027
 10
-67.6780091087
 20
39.4371499374
 10
-67.6911492651
 20
39.1627262552
 10
-67.7039882444
 20
38.8351908025
 10
-67.7163399086
 20
38.4592921435
 10
-67.7281971585
 20
38.0343257102
 10
-67.7395670934
 20
37.5609960705
 10
-67.7502848735
 20
37.046165493
 10
-67.7603409982
 20
36.4892293808
 10
-67.769744968
 20
35.8907923308
 10
-67.7783604457
 20
35.2595304014
 10
-67.7861759441
 20
34.594965391
 10
-67.7932029504
 20
33.8975755012
 10
-67.7993395878
 20
33.1774713954
 10
-67.8045728853
 20
32.4343221667
 10
-67.8089158139
 20
31.6684587218
 10
-67.8123054106
 20
30.8909844444
 10
-67.8147206876
 20
30.1056004622
 10
-67.8166912456
 20
28.5
  0
LWPOLYLINE
  5
229
100
AcDbEntity
  8
RACCORDO
100
AcDbPolyline
 62
7
  6
CONTINUOUS
 90
10
 70
0
 10
47.9461426692
 20
-69.4499522016
 10
48.0396398783
 20
-69.443691572
 10
48.1314614915
 20
-69.4250001074
 10
48.2199619413
 20
-69.3942127841
 10
48.3035551804
 20
-69.3518813526
 10
48.380743105
 20
-69.2987644493
 10
48.4501424036
 20
-69.2358140006
 10
48.510509347
 20
-69.1641581636
 10
48.560762078
 20
-69.0850811076
 10
48.6
 20
-69.0
  0
LWPOLYLINE
  5
22A
100
AcDbEntity
  8
RACCORDO
100
AcDbPolyline
 62
250
  6
CONTINUOUS
 90
10
 70
0
 10
47.9810015622
 20
-69.3730458435
 10
48.0651859498
 20
-69.3679762704
 10
48.1481479856
 20
-69.3528200679
 10
48.2286833702
 20
-69.3277972478
 10
48.3056230298
 20
-69.2932710482
 10
48.3778500874
 20
-69.249742661
 10
48.4443160751
 20
-69.1978439561
 10
48.5040561548
 20
-69.1383283094
 10
48.5562031229
 20
-69.0720596661
 10
48.6
 20
-69.0
  0
LWPOLYLINE
  5
22B
100
AcDbEntity
  8
RACCORDO
100
AcDbPolyline
 62
250
  6
CONTINUOUS
 90
10
 70
0
 10
-67.4499522117
 20
-51.4461426692
 10
-67.4413363075
 20
-51.4494992017
 10
-67.4327375971
 20
-51.452983617
 10
-67.4241560804
 20
-51.4565959151
 10
-67.4155917568
 20
-51.4603343805
 10
-67.407044627
 20
-51.4642007287
 10
-67.3985146934
 20
-51.4682001062
 10
-67.390001957
 20
-51.4723342286
 10
-67.3815064168
 20
-51.4766013804
 10
-67.3730280729
 20
-51.4810015616
  0
LWPOLYLINE
  5
22C
100
AcDbEntity
  8
ASSI
100
AcDbPolyline
 62
7
  6
CONTINUOUS
 90
22
 70
0
 10
-67.6159885716
 20
-39.9994832792
 10
-67.6230155778
 20
-39.9925408922
 10
-67.6369677137
 20
-39.9370017967
 10
-67.6508164888
 20
-39.8251144974
 10
-67.6645633873
 20
-39.6576881027
 10
-67.6780091087
 20
-39.4371499374
 10
-67.6911492651
 20
-39.1627262552
 10
-67.7039882444
 20
-38.8351908025
 10
-67.7163399086
 20
-38.4592921435
 10
-67.7281971585
 20
-38.0343257102
 10
-67.7395670934
 20
-37.5609960705
 10
-67.7502848735
 20
-37.046165493
 10
-67.7603409982
 20
-36.4892293808
 10
-67.769744968
 20
-35.8907923308
 10
-67.7783604457
 20
-35.2595304014
 10
-67.7861759441
 20
-34.594965391
 10
-67.7932029504
 20
-33.8975755012
 10
-67.7993395878
 20
-33.1774713954
 10
-67.8045728853
 20
-32.4343221667
 10
-67.8089158139
 20
-31.6684587218
 10
-67.8123054106
 20
-30.8909844444
 10
-67.8147206876
 20
-30.1056004622
  0
LWPOLYLINE
  5
22D
100
AcDbEntity
  8
RACCORDO
100
AcDbPolyline
 62
250
  6
CONTINUOUS
 90
10
 70
0
 10
-67.3730458435
 20
-51.4810015622
 10
-67.3679762704
 20
-51.5651859498
 10
-67.3528200679
 20
-51.6481479856
 10
-67.3277972478
 20
-51.7286833702
 10
-67.2932710482
 20
-51.8056230298
 10
-67.249742661
 20
-51.8778500874
 10
-67.1978439561
 20
-51.9443160751
 10
-67.1383283094
 20
-52.0040561548
 10
-67.0720596661
 20
-52.0562031229
 10
-67.0
 20
-52.1
  0
LINE
  5
22E
100
AcDbEntity
  8
RACCORDO
100
AcDbLine
 62
250
  6
CONTINUOUS
 10
-67.4595098343
 20
-58.385206837
 11
-67.4617948643
 21
-58.2767211346
  0
LINE
  5
22F
100
AcDbEntity
  8
RACCORDO
100
AcDbLine
 62
250
  6
CONTINUOUS
 10
-67.4617948643
 20
-58.2767211346
 11
-67.4637031442
 21
-58.1464991626
  0
LINE
  5
230
100
AcDbEntity
  8
RACCORDO
100
AcDbLine
 62
250
  6
CONTINUOUS
 10
-67.4637031442
 20
-58.1464991626
 11
-67.4657266139
 21
-57.9222973813
  0
LWPOLYLINE
  5
231
100
AcDbEntity
  8
0
100
AcDbPolyline
 62
7
  6
CONTINUOUS
 90
22
 70
0
 10
-67.8147206876
 20
26.8943995378
 10
-67.8123054106
 20
26.1090155556
 10
-67.8089158139
 20
25.3315412782
 10
-67.8045728853
 20
24.5656778333
 10
-67.7993395878
 20
23.8225286046
 10
-67.7932029504
 20
23.1024244988
 10
-67.7861759441
 20
22.405034609
 10
-67.7783604457
 20
21.7404695986
 10
-67.769744968
 20
21.1092076692
 10
-67.7603409982
 20
20.5107706192
 10
-67.7502848735
 20
19.953834507
 10
-67.7395670934
 20
19.4390039295
 10
-67.7281971585
 20
18.9656742898
 10
-67.7163399086
 20
18.5407078565
 10
-67.7039882444
 20
18.1648091975
 10
-67.6911492651
 20
17.8372737448
 10
-67.6780091087
 20
17.5628500626
 10
-67.6645633873
 20
17.3423118973
 10
-67.6508164888
 20
17.1748855026
 10
-67.6369677137
 20
17.0629982033
 10
-67.6230155778
 20
17.0074591078
 10
-67.6159885716
 20
17.0005167208
  0
LWPOLYLINE
  5
232
100
AcDbEntity
  8
0
100
AcDbPolyline
 62
7
  6
CONTINUOUS
 90
22
 70
0
 10
-67.4172564555
 20
30.1056004622
 10
-67.4196717325
 20
30.8909844444
 10
-67.4230613292
 20
31.6684587218
 10
-67.4274042579
 20
32.4343221667
 10
-67.4326375554
 20
33.1774713954
 10
-67.4387741928
 20
33.8975755012
 10
-67.445801199
 20
34.594965391
 10
-67.4536166975
 20
35.2595304014
 10
-67.4622321751
 20
35.8907923308
 10
-67.471636145
 20
36.4892293808
 10
-67.4816922696
 20
37.046165493
 10
-67.4924100498
 20
37.5609960705
 10
-67.5037799847
 20
38.0343257102
 10
-67.5156372346
 20
38.4592921435
 10
-67.5279888988
 20
38.8351908025
 10
-67.540827878
 20
39.1627262552
 10
-67.5539680345
 20
39.4371499374
 10
-67.5674137558
 20
39.6576881027
 10
-67.5811606544
 20
39.8251144974
 10
-67.5950094295
 20
39.9370017967
 10
-67.6089615654
 20
39.9925408922
 10
-67.6159885716
 20
39.9994832792
  0
LINE
  5
233
100
AcDbEntity
  8
RACCORDO
100
AcDbLine
 62
250
  6
CONTINUOUS
 10
-67.4657266139
 20
-57.9222973813
 11
-67.46665037
 21
-57.6821426876
  0
LINE
  5
234
100
AcDbEntity
  8
ASSI
100
AcDbLine
 62
7
  6
CONTINUOUS
 10
-67.8147206876
 20
-30.1056004622
 11
-67.8166912456
 21
-28.5
  0
LINE
  5
235
100
AcDbEntity
  8
0
100
AcDbLine
 62
7
  6
CONTINUOUS
 10
-67.8166912456
 20
28.5
 11
-67.8147206876
 21
26.8943995378
  0
LINE
  5
236
100
AcDbEntity
  8
ASSI
100
AcDbLine
 62
7
  6
CONTINUOUS
 10
-67.4172564555
 20
-26.8943995378
 11
-67.4152858976
 21
-28.5
  0
LINE
  5
237
100
AcDbEntity
  8
0
100
AcDbLine
 62
7
  6
CONTINUOUS
 10
-67.4152858976
 20
28.5
 11
-67.4172564555
 21
30.1056004622
  0
LINE
  5
238
100
AcDbEntity
  8
DRAFT
100
AcDbLine
 62
7
  6
CONTINUOUS
 10
-68.0
 20
64.0
 11
-68.0
 21
-64.0
  0
LINE
  5
239
100
AcDbEntity
  8
COPY
100
AcDbLine
 62
7
  6
CONTINUOUS
 10
-68.0000003491
 20
-64.0000001756
 11
-68.0000003491
 21
64.0000001756
  0
LINE
  5
23A
100
AcDbEntity
  8
RACCORDO
100
AcDbLine
 62
250
  6
CONTINUOUS
 10
-67.46665037
 20
-57.6821426876
 11
-67.4667094077
 21
-52.4
  0
LINE
  5
23B
100
AcDbEntity
  8
RACCORDO
100
AcDbLine
 62
250
  6
CONTINUOUS
 10
-67.3730280729
 20
64.0
 11
-67.3730280729
 21
-51.4810015616
  0
LINE
  5
23C
100
AcDbEntity
  8
RACCORDO
100
AcDbLine
 62
250
  6
CONTINUOUS
 10
-67.3730280729
 20
-58.5189984384
 11
-67.3730280729
 21
-64.0
  0
LINE
  5
23D
100
AcDbEntity
  8
RACCORDO
100
AcDbLine
 62
7
  6
CONTINUOUS
 10
-67.0
 20
-52.1
 11
-67.0
 21
-57.9
  0
LINE
  5
23E
100
AcDbEntity
  8
RACCORDO
100
AcDbLine
 62
250
  6
CONTINUOUS
 10
-66.3469076856
 20
-52.1
 11
-66.3469076856
 21
-57.9
  0
LINE
  5
23F
100
AcDbEntity
  8
RACCORDO
100
AcDbLine
 62
250
  6
CONTINUOUS
 10
-66.2731956082
 20
64.0
 11
-66.2731956082
 21
-64.0
  0
LINE
  5
240
100
AcDbEntity
  8
DRAFT
100
AcDbLine
 62
7
  6
CONTINUOUS
 10
-66.1378845111
 20
-62.3621154889
 11
-66.1378845111
 21
-64.0
  0
LINE
  5
241
100
AcDbEntity
  8
DRAFT
100
AcDbLine
 62
7
  6
CONTINUOUS
 10
-66.1378845111
 20
62.3621154889
 11
-66.1378845111
 21
64.0
  0
LINE
  5
242
100
AcDbEntity
  8
DRAFT
100
AcDbLine
 62
7
  6
CONTINUOUS
 10
-66.0
 20
-62.5
 11
-66.0
 21
-64.0
  0
LINE
  5
243
100
AcDbEntity
  8
DRAFT
100
AcDbLine
 62
7
  6
CONTINUOUS
 10
-66.0
 20
62.5
 11
-66.0
 21
64.0
  0
LWPOLYLINE
  5
244
100
AcDbEntity
  8
ASSI
100
AcDbPolyline
 62
7
  6
CONTINUOUS
 90
23
 70
0
 10
-67.8166912456
 20
-28.5
 10
-67.8147206876
 20
-26.8943995378
 10
-67.8123054106
 20
-26.1090155556
 10
-67.8089158139
 20
-25.3315412782
 10
-67.8045728853
 20
-24.5656778333
 10
-67.7993395878
 20
-23.8225286046
 10
-67.7932029504
 20
-23.1024244988
 10
-67.7861759441
 20
-22.405034609
 10
-67.7783604457
 20
-21.7404695986
 10
-67.769744968
 20
-21.1092076692
 10
-67.7603409982
 20
-20.5107706192
 10
-67.7502848735
 20
-19.953834507
 10
-67.7395670934
 20
-19.4390039295
 10
-67.7281971585
 20
-18.9656742898
 10
-67.7163399086
 20
-18.5407078565
 10
-67.7039882444
 20
-18.1648091975
 10
-67.6911492651
 20
-17.8372737448
 10
-67.6780091087
 20
-17.5628500626
 10
-67.6645633873
 20
-17.3423118973
 10
-67.6508164888
 20
-17.1748855026
 10
-67.6369677137
 20
-17.0629982033
 10
-67.6230155778
 20
-17.0074591078
 10
-67.6159885716
 20
-17.0005167208
  0
LWPOLYLINE
  5
245
100
AcDbEntity
  8
ASSI
100
AcDbPolyline
 62
7
  6
CONTINUOUS
 90
23
 70
0
 10
-67.4152858976
 20
-28.5
 10
-67.4172564555
 20
-30.1056004622
 10
-67.4196717325
 20
-30.8909844444
 10
-67.4230613292
 20
-31.6684587218
 10
-67.4274042579
 20
-32.4343221667
 10
-67.4326375554
 20
-33.1774713954
 10
-67.4387741928
 20
-33.8975755012
 10
-67.445801199
 20
-34.594965391
 10
-67.4536166975
 20
-35.2595304014
 10
-67.4622321751
 20
-35.8907923308
 10
-67.471636145
 20
-36.4892293808
 10
-67.4816922696
 20
-37.046165493
 10
-67.4924100498
 20
-37.5609960705
 10
-67.5037799847
 20
-38.0343257102
 10
-67.5156372346
 20
-38.4592921435
 10
-67.5279888988
 20
-38.8351908025
 10
-67.540827878
 20
-39.1627262552
 10
-67.5539680345
 20
-39.4371499374
 10
-67.5674137558
 20
-39.6576881027
 10
-67.5811606544
 20
-39.8251144974
 10
-67.5950094295
 20
-39.9370017967
 10
-67.6089615654
 20
-39.9925408922
 10
-67.6159885716
 20
-39.9994832792
  0
LINE
  5
246
100
AcDbEntity
  8
RACCORDO
100
AcDbLine
 62
250
  6
CONTINUOUS
 10
-67.4667094077
 20
-52.4
 11
-67.4661604494
 21
-52.157089887
  0
LINE
  5
247
100
AcDbEntity
  8
RACCORDO
100
AcDbLine
 62
250
  6
CONTINUOUS
 10
-67.4661604494
 20
-52.157089887
 11
-67.4644959227
 21
-51.9247179249
  0
LINE
  5
248
100
AcDbEntity
  8
RACCORDO
100
AcDbLine
 62
250
  6
CONTINUOUS
 10
-67.4644959227
 20
-51.9247179249
 11
-67.462795268
 21
-51.7857260999
  0
LWPOLYLINE
  5
249
100
AcDbEntity
  8
RACCORDO
100
AcDbPolyline
 62
250
  6
CONTINUOUS
 90
10
 70
0
 10
-67.462795268
 20
-51.7857260999
 10
-67.4606986175
 20
-51.6663719179
 10
-67.4595098768
 20
-51.6147950063
 10
-67.4582618739
 20
-51.5698393188
 10
-67.456952467
 20
-51.5317708595
 10
-67.4555837979
 20
-51.5003236243
 10
-67.4541954768
 20
-51.4759881354
 10
-67.4528007071
 20
-51.4589279003
 10
-67.4513862854
 20
-51.4489794115
 10
-67.4499522117
 20
-51.4461426692
  0
LWPOLYLINE
  5
24A
100
AcDbEntity
  8
RACCORDO
100
AcDbPolyline
 62
250
  6
CONTINUOUS
 90
10
 70
0
 10
-47.9461426692
 20
69.4499522117
 10
-47.9494992017
 20
69.4413363075
 10
-47.952983617
 20
69.4327375971
 10
-47.9565959151
 20
69.4241560804
 10
-47.9603343805
 20
69.4155917568
 10
-47.9642007287
 20
69.407044627
 10
-47.9682001062
 20
69.3985146934
 10
-47.9723342286
 20
69.390001957
 10
-47.9766013804
 20
69.3815064168
 10
-47.9810015616
 20
69.3730280729
  0
LINE
  5
24B
100
AcDbEntity
  8
RACCORDO
100
AcDbLine
 62
250
  6
CONTINUOUS
 10
54.8336304063
 20
-69.4606985715
 11
54.7142765691
 21
-69.4627952265
  0
LINE
  5
24C
100
AcDbEntity
  8
RACCORDO
100
AcDbLine
 62
250
  6
CONTINUOUS
 10
54.7142765691
 20
-69.4627952265
 11
54.5752846089
 21
-69.4644958962
  0
LINE
  5
24D
100
AcDbEntity
  8
RACCORDO
100
AcDbLine
 62
250
  6
CONTINUOUS
 10
54.5752846089
 20
-69.4644958962
 11
54.3429137595
 21
-69.4661604376
  0
LINE
  5
24E
100
AcDbEntity
  8
ASSI
100
AcDbLine
 62
7
  6
CONTINUOUS
 10
35.6056004622
 20
-69.8147206876
 11
34.0
 21
-69.8166912456
  0
LINE
  5
24F
100
AcDbEntity
  8
ASSI
100
AcDbLine
 62
7
  6
CONTINUOUS
 10
1.6056004622
 20
-69.8147206876
 11
-0.0
 21
-69.8166912456
  0
LINE
  5
250
100
AcDbEntity
  8
ASSI
100
AcDbLine
 62
7
  6
CONTINUOUS
 10
-32.3943995378
 20
-69.8147206876
 11
-34.0
 21
-69.8166912456
  0
LINE
  5
251
100
AcDbEntity
  8
ASSI
100
AcDbLine
 62
7
  6
CONTINUOUS
 10
32.3943995378
 20
-69.4172564555
 11
34.0
 21
-69.4152858976
  0
LINE
  5
252
100
AcDbEntity
  8
ASSI
100
AcDbLine
 62
7
  6
CONTINUOUS
 10
-1.6056004622
 20
-69.4172564555
 11
-0.0
 21
-69.4152858976
  0
LINE
  5
253
100
AcDbEntity
  8
ASSI
100
AcDbLine
 62
7
  6
CONTINUOUS
 10
-35.6056004622
 20
-69.4172564555
 11
-34.0
 21
-69.4152858976
  0
LINE
  5
254
100
AcDbEntity
  8
DRAFT
100
AcDbLine
 62
7
  6
CONTINUOUS
 10
-62.0
 20
-70.0
 11
62.0
 21
-70.0
  0
LINE
  5
255
100
AcDbEntity
  8
COPY
100
AcDbLine
 62
7
  6
CONTINUOUS
 10
61.9999789838
 20
-70.0000003491
 11
-61.9999789838
 21
-70.0000003491
  0
LINE
  5
256
100
AcDbEntity
  8
RACCORDO
100
AcDbLine
 62
250
  6
CONTINUOUS
 10
54.3429137595
 20
-69.4661604376
 11
48.9
 21
-69.4667094077
  0
LINE
  5
257
100
AcDbEntity
  8
RACCORDO
100
AcDbLine
 62
250
  6
CONTINUOUS
 10
-62.0
 20
-69.3730280729
 11
47.9810015616
 21
-69.3730280729
  0
LINE
  5
258
100
AcDbEntity
  8
RACCORDO
100
AcDbLine
 62
250
  6
CONTINUOUS
 10
55.0189984384
 20
-69.3730280729
 11
62.0
 21
-69.3730280729
  0
LINE
  5
259
100
AcDbEntity
  8
RACCORDO
100
AcDbLine
 62
7
  6
CONTINUOUS
 10
48.6
 20
-69.0
 11
54.4
 21
-69.0
  0
LINE
  5
25A
100
AcDbEntity
  8
RACCORDO
100
AcDbLine
 62
250
  6
CONTINUOUS
 10
48.6
 20
-68.3469076856
 11
54.4
 21
-68.3469076856
  0
LINE
  5
25B
100
AcDbEntity
  8
RACCORDO
100
AcDbLine
 62
250
  6
CONTINUOUS
 10
-62.0
 20
-68.2731956082
 11
62.0
 21
-68.2731956082
  0
LINE
  5
25C
100
AcDbEntity
  8
DRAFT
100
AcDbLine
 62
7
  6
CONTINUOUS
 10
-62.0
 20
-68.1378845111
 11
-60.3621154889
 21
-68.1378845111
  0
LINE
  5
25D
100
AcDbEntity
  8
DRAFT
100
AcDbLine
 62
7
  6
CONTINUOUS
 10
62.0
 20
-68.1378845111
 11
60.3621154889
 21
-68.1378845111
  0
LINE
  5
25E
100
AcDbEntity
  8
DRAFT
100
AcDbLine
 62
7
  6
CONTINUOUS
 10
-62.0
 20
-68.0
 11
-60.5
 21
-68.0
  0
LINE
  5
25F
100
AcDbEntity
  8
DRAFT
100
AcDbLine
 62
7
  6
CONTINUOUS
 10
62.0
 20
-68.0
 11
60.5
 21
-68.0
  0
LWPOLYLINE
  5
260
100
AcDbEntity
  8
ASSI
100
AcDbPolyline
 62
7
  6
CONTINUOUS
 90
23
 70
0
 10
-34.0
 20
-69.8166912456
 10
-35.6056004622
 20
-69.8147206876
 10
-36.3909844444
 20
-69.8123054106
 10
-37.1684587218
 20
-69.8089158139
 10
-37.9343221667
 20
-69.8045728853
 10
-38.6774713954
 20
-69.7993395878
 10
-39.3975755012
 20
-69.7932029504
 10
-40.094965391
 20
-69.7861759441
 10
-40.7595304014
 20
-69.7783604457
 10
-41.3907923308
 20
-69.769744968
 10
-41.9892293808
 20
-69.7603409982
 10
-42.546165493
 20
-69.7502848735
 10
-43.0609960705
 20
-69.7395670934
 10
-43.5343257102
 20
-69.7281971585
 10
-43.9592921435
 20
-69.7163399086
 10
-44.3351908025
 20
-69.7039882444
 10
-44.6627262552
 20
-69.6911492651
 10
-44.9371499374
 20
-69.6780091087
 10
-45.1576881027
 20
-69.6645633873
 10
-45.3251144974
 20
-69.6508164888
 10
-45.4370017967
 20
-69.6369677137
 10
-45.4925408922
 20
-69.6230155778
 10
-45.4994832792
 20
-69.6159885716
  0
LWPOLYLINE
  5
261
100
AcDbEntity
  8
ASSI
100
AcDbPolyline
 62
7
  6
CONTINUOUS
 90
23
 70
0
 10
-0.0
 20
-69.8166912456
 10
-1.6056004622
 20
-69.8147206876
 10
-2.3909844444
 20
-69.8123054106
 10
-3.1684587218
 20
-69.8089158139
 10
-3.9343221667
 20
-69.8045728853
 10
-4.6774713954
 20
-69.7993395878
 10
-5.3975755012
 20
-69.7932029504
 10
-6.094965391
 20
-69.7861759441
 10
-6.7595304014
 20
-69.7783604457
 10
-7.3907923308
 20
-69.769744968
 10
-7.9892293808
 20
-69.7603409982
 10
-8.546165493
 20
-69.7502848735
 10
-9.0609960705
 20
-69.7395670934
 10
-9.5343257102
 20
-69.7281971585
 10
-9.9592921435
 20
-69.7163399086
 10
-10.3351908025
 20
-69.7039882444
 10
-10.6627262552
 20
-69.6911492651
 10
-10.9371499374
 20
-69.6780091087
 10
-11.1576881027
 20
-69.6645633873
 10
-11.3251144974
 20
-69.6508164888
 10
-11.4370017967
 20
-69.6369677137
 10
-11.4925408922
 20
-69.6230155778
 10
-11.4994832792
 20
-69.6159885716
  0
LWPOLYLINE
  5
262
100
AcDbEntity
  8
ASSI
100
AcDbPolyline
 62
7
  6
CONTINUOUS
 90
23
 70
0
 10
34.0
 20
-69.8166912456
 10
32.3943995378
 20
-69.8147206876
 10
31.6090155556
 20
-69.8123054106
 10
30.8315412782
 20
-69.8089158139
 10
30.0656778333
 20
-69.8045728853
 10
29.3225286046
 20
-69.7993395878
 10
28.6024244988
 20
-69.7932029504
 10
27.905034609
 20
-69.7861759441
 10
27.2404695986
 20
-69.7783604457
 10
26.6092076692
 20
-69.769744968
 10
26.0107706192
 20
-69.7603409982
 10
25.453834507
 20
-69.7502848735
 10
24.9390039295
 20
-69.7395670934
 10
24.4656742898
 20
-69.7281971585
 10
24.0407078565
 20
-69.7163399086
 10
23.6648091975
 20
-69.7039882444
 10
23.3372737448
 20
-69.6911492651
 10
23.0628500626
 20
-69.6780091087
 10
22.8423118973
 20
-69.6645633873
 10
22.6748855026
 20
-69.6508164888
 10
22.5629982033
 20
-69.6369677137
 10
22.5074591078
 20
-69.6230155778
 10
22.5005167208
 20
-69.6159885716
  0
LWPOLYLINE
  5
263
100
AcDbEntity
  8
ASSI
100
AcDbPolyline
 62
7
  6
CONTINUOUS
 90
23
 70
0
 10
-34.0
 20
-69.4152858976
 10
-32.3943995378
 20
-69.4172564555
 10
-31.6090155556
 20
-69.4196717325
 10
-30.8315412782
 20
-69.4230613292
 10
-30.0656778333
 20
-69.4274042579
 10
-29.3225286046
 20
-69.4326375554
 10
-28.6024244988
 20
-69.4387741928
 10
-27.905034609
 20
-69.445801199
 10
-27.2404695986
 20
-69.4536166975
 10
-26.6092076692
 20
-69.4622321751
 10
-26.0107706192
 20
-69.471636145
 10
-25.453834507
 20
-69.4816922696
 10
-24.9390039295
 20
-69.4924100498
 10
-24.4656742898
 20
-69.5037799847
 10
-24.0407078565
 20
-69.5156372346
 10
-23.6648091975
 20
-69.5279888988
 10
-23.3372737448
 20
-69.540827878
 10
-23.0628500626
 20
-69.5539680345
 10
-22.8423118973
 20
-69.5674137558
 10
-22.6748855026
 20
-69.5811606544
 10
-22.5629982033
 20
-69.5950094295
 10
-22.5074591078
 20
-69.6089615654
 10
-22.5005167208
 20
-69.6159885716
  0
LWPOLYLINE
  5
264
100
AcDbEntity
  8
ASSI
100
AcDbPolyline
 62
7
  6
CONTINUOUS
 90
23
 70
0
 10
-0.0
 20
-69.4152858976
 10
1.6056004622
 20
-69.4172564555
 10
2.3909844444
 20
-69.4196717325
 10
3.1684587218
 20
-69.4230613292
 10
3.9343221667
 20
-69.4274042579
 10
4.6774713954
 20
-69.4326375554
 10
5.3975755012
 20
-69.4387741928
 10
6.094965391
 20
-69.445801199
 10
6.7595304014
 20
-69.4536166975
 10
7.3907923308
 20
-69.4622321751
 10
7.9892293808
 20
-69.471636145
 10
8.546165493
 20
-69.4816922696
 10
9.0609960705
 20
-69.4924100498
 10
9.5343257102
 20
-69.5037799847
 10
9.9592921435
 20
-69.5156372346
 10
10.3351908025
 20
-69.5279888988
 10
10.6627262552
 20
-69.540827878
 10
10.9371499374
 20
-69.5539680345
 10
11.1576881027
 20
-69.5674137558
 10
11.3251144974
 20
-69.5811606544
 10
11.4370017967
 20
-69.5950094295
 10
11.4925408922
 20
-69.6089615654
 10
11.4994832792
 20
-69.6159885716
  0
LWPOLYLINE
  5
265
100
AcDbEntity
  8
ASSI
100
AcDbPolyline
 62
7
  6
CONTINUOUS
 90
23
 70
0
 10
34.0
 20
-69.4152858976
 10
35.6056004622
 20
-69.4172564555
 10
36.3909844444
 20
-69.4196717325
 10
37.1684587218
 20
-69.4230613292
 10
37.9343221667
 20
-69.4274042579
 10
38.6774713954
 20
-69.4326375554
 10
39.3975755012
 20
-69.4387741928
 10
40.094965391
 20
-69.445801199
 10
40.7595304014
 20
-69.4536166975
 10
41.3907923308
 20
-69.4622321751
 10
41.9892293808
 20
-69.471636145
 10
42.546165493
 20
-69.4816922696
 10
43.0609960705
 20
-69.4924100498
 10
43.5343257102
 20
-69.5037799847
 10
43.9592921435
 20
-69.5156372346
 10
44.3351908025
 20
-69.5279888988
 10
44.6627262552
 20
-69.540827878
 10
44.9371499374
 20
-69.5539680345
 10
45.1576881027
 20
-69.5674137558
 10
45.3251144974
 20
-69.5811606544
 10
45.4370017967
 20
-69.5950094295
 10
45.4925408922
 20
-69.6089615654
 10
45.4994832792
 20
-69.6159885716
  0
LINE
  5
266
100
AcDbEntity
  8
RACCORDO
100
AcDbLine
 62
250
  6
CONTINUOUS
 10
48.9
 20
-69.4667094077
 11
48.657089887
 21
-69.4661604494
  0
LINE
  5
267
100
AcDbEntity
  8
RACCORDO
100
AcDbLine
 62
250
  6
CONTINUOUS
 10
48.657089887
 20
-69.4661604494
 11
48.4247179249
 21
-69.4644959227
  0
LINE
  5
268
100
AcDbEntity
  8
RACCORDO
100
AcDbLine
 62
250
  6
CONTINUOUS
 10
48.4247179249
 20
-69.4644959227
 11
48.2857260999
 21
-69.462795268
  0
LWPOLYLINE
  5
269
100
AcDbEntity
  8
RACCORDO
100
AcDbPolyline
 62
250
  6
CONTINUOUS
 90
10
 70
0
 10
48.2857260999
 20
-69.462795268
 10
48.1663719179
 20
-69.4606986175
 10
48.1147950063
 20
-69.4595098768
 10
48.0698393188
 20
-69.4582618739
 10
48.0317708595
 20
-69.456952467
 10
48.0003236243
 20
-69.4555837979
 10
47.9759881354
 20
-69.4541954768
 10
47.9589279003
 20
-69.4528007071
 10
47.9489794115
 20
-69.4513862854
 10
47.9461426692
 20
-69.4499522117
  0
LWPOLYLINE
  5
26A
100
AcDbEntity
  8
RACCORDO
100
AcDbPolyline
 62
250
  6
CONTINUOUS
 90
10
 70
0
 10
55.0189984384
 20
-69.3730275467
 10
54.9348144989
 20
-69.3679609618
 10
54.8518526548
 20
-69.352807536
 10
54.771317269
 20
-69.3277872525
 10
54.6943774791
 20
-69.2932633325
 10
54.6221502255
 20
-69.2497369623
 10
54.5556840362
 20
-69.197840017
 10
54.4959438053
 20
-69.1383258882
 10
54.4437967859
 20
-69.0720585467
 10
54.4
 20
-69.0
  0
LWPOLYLINE
  5
26B
100
AcDbEntity
  8
RACCORDO
100
AcDbPolyline
 62
7
  6
CONTINUOUS
 90
10
 70
0
 10
55.0538573292
 20
-69.4499774015
 10
54.9603598463
 20
-69.4437117056
 10
54.8685385671
 20
-69.425015553
 10
54.780038955
 20
-69.3942239843
 10
54.6964469481
 20
-69.3518887929
 10
54.619260539
 20
-69.2987686375
 10
54.5498629299
 20
-69.2358154463
 10
54.4894977456
 20
-69.1641573581
 10
54.4392467474
 20
-69.0850785063
 10
54.4000104475
 20
-68.9999960061
  0
LINE
  5
26C
100
AcDbEntity
  8
DRAFT
100
AcDbLine
 62
250
  6
CONTINUOUS
 10
-62.0
 20
62.5
 11
-62.0
 21
62.3621154889
  0
LINE
  5
26D
100
AcDbEntity
  8
DRAFT
100
AcDbLine
 62
250
  6
CONTINUOUS
 10
-62.0
 20
-62.5
 11
-62.0
 21
-62.3621154889
  0
LINE
  5
26E
100
AcDbEntity
  8
DRAFT
100
AcDbLine
 62
250
  6
CONTINUOUS
 10
-62.0
 20
-68.0
 11
-62.0
 21
-68.1378845111
  0
LINE
  5
26F
100
AcDbEntity
  8
RACCORDO
100
AcDbLine
 62
250
  6
CONTINUOUS
 10
-62.0
 20
-68.2731956082
 11
-62.0
 21
-70.0
  0
LINE
  5
270
100
AcDbEntity
  8
DRAFT
100
AcDbLine
 62
250
  6
CONTINUOUS
 10
-62.0
 20
68.0
 11
-62.0
 21
68.1378845111
  0
LINE
  5
271
100
AcDbEntity
  8
RACCORDO
100
AcDbLine
 62
250
  6
CONTINUOUS
 10
-62.0
 20
68.2731956082
 11
-62.0
 21
70.0
  0
LINE
  5
272
100
AcDbEntity
  8
DRAFT
100
AcDbLine
 62
7
  6
CONTINUOUS
 10
-60.5
 20
68.0
 11
-60.5
 21
64.0
  0
LINE
  5
273
100
AcDbEntity
  8
DRAFT
100
AcDbLine
 62
7
  6
CONTINUOUS
 10
-60.5
 20
-68.0
 11
-60.5
 21
-64.0
  0
LINE
  5
274
100
AcDbEntity
  8
DRAFT
100
AcDbLine
 62
7
  6
CONTINUOUS
 10
-60.3621154889
 20
68.1378845111
 11
-60.3621154889
 21
64.0
  0
LINE
  5
275
100
AcDbEntity
  8
DRAFT
100
AcDbLine
 62
7
  6
CONTINUOUS
 10
-60.3621154889
 20
-68.1378845111
 11
-60.3621154889
 21
-64.0
  0
LWPOLYLINE
  5
276
100
AcDbEntity
  8
RACCORDO
100
AcDbPolyline
 62
250
  6
CONTINUOUS
 90
10
 70
0
 10
-67.3730275467
 20
-58.5189984384
 10
-67.3679609618
 20
-58.4348144989
 10
-67.352807536
 20
-58.3518526548
 10
-67.3277872525
 20
-58.271317269
 10
-67.2932633325
 20
-58.1943774791
 10
-67.2497369623
 20
-58.1221502255
 10
-67.197840017
 20
-58.0556840362
 10
-67.1383258882
 20
-57.9959438053
 10
-67.0720585467
 20
-57.9437967859
 10
-67.0
 20
-57.9
  0
LWPOLYLINE
  5
277
100
AcDbEntity
  8
RACCORDO
100
AcDbPolyline
 62
7
  6
CONTINUOUS
 90
10
 70
0
 10
-67.4499774015
 20
-58.5538573292
 10
-67.4437117056
 20
-58.4603598463
 10
-67.425015553
 20
-58.3685385671
 10
-67.3942239843
 20
-58.280038955
 10
-67.3518887929
 20
-58.1964469481
 10
-67.2987686375
 20
-58.119260539
 10
-67.2358154463
 20
-58.0498629299
 10
-67.1641573581
 20
-57.9894977456
 10
-67.0850785063
 20
-57.9392467474
 10
-66.9999960061
 20
-57.9000104475
  0
LWPOLYLINE
  5
278
100
AcDbEntity
  8
RACCORDO
100
AcDbPolyline
 62
250
  6
CONTINUOUS
 90
10
 70
0
 10
-66.3469076856
 20
-57.9
 10
-66.3496916519
 20
-57.9329840371
 10
-66.3563553654
 20
-57.9658478581
 10
-66.3668933101
 20
-57.9985914631
 10
-66.3810120156
 20
-58.0313709239
 10
-66.3989789284
 20
-58.0640301687
 10
-66.4216147063
 20
-58.096100982
 10
-66.4491531848
 20
-58.1274272921
 10
-66.4812400433
 20
-58.1581651708
 10
-66.5177726352
 20
-58.1883146181
  0
LWPOLYLINE
  5
279
100
AcDbEntity
  8
RACCORDO
100
AcDbPolyline
 62
250
  6
CONTINUOUS
 90
3
 70
0
 10
-47.9810015616
 20
69.3730280729
 10
-47.9818967486
 20
69.3678036156
 10
-47.9843389257
 20
69.35536535
  0
LWPOLYLINE
  5
27A
100
AcDbEntity
  8
RACCORDO
100
AcDbPolyline
 62
250
  6
CONTINUOUS
 90
22
 70
0
 10
-47.9843389257
 20
69.35536535
 10
-47.9937741539
 20
69.3095194289
 10
-48.000767205
 20
69.2765580976
 10
-48.0095775367
 20
69.2376481374
 10
-48.0202564201
 20
69.1931396669
 10
-48.0327525841
 20
69.1436267656
 10
-48.0471825062
 20
69.0905655819
 10
-48.0636711251
 20
69.0347376769
 10
-48.0820935021
 20
68.9767984035
 10
-48.1021912976
 20
68.9183926839
 10
-48.1239250197
 20
68.8606079055
 10
-48.1473341603
 20
68.8037516969
 10
-48.172278856
 20
68.7483391577
 10
-48.198752086
 20
68.6947016316
 10
-48.226760871
 20
68.6433645105
 10
-48.2561864097
 20
68.5950439844
 10
-48.2871856928
 20
68.5499384633
 10
-48.3196017296
 20
68.5083577462
 10
-48.3528447463
 20
68.4711367747
 10
-48.3867181516
 20
68.4386395033
 10
-48.4214185367
 20
68.4107488218
 10
-48.4569459017
 20
68.3875344722
  0
LWPOLYLINE
  5
27B
100
AcDbEntity
  8
0
100
AcDbPolyline
 62
7
  6
CONTINUOUS
 90
23
 70
0
 10
-67.6159885716
 20
17.0005167208
 10
-67.6089615654
 20
17.0074591078
 10
-67.5950094295
 20
17.0629982033
 10
-67.5811606544
 20
17.1748855026
 10
-67.5674137558
 20
17.3423118973
 10
-67.5539680345
 20
17.5628500626
 10
-67.540827878
 20
17.8372737448
 10
-67.5279888988
 20
18.1648091975
 10
-67.5156372346
 20
18.5407078565
 10
-67.5037799847
 20
18.9656742898
 10
-67.4924100498
 20
19.4390039295
 10
-67.4816922696
 20
19.953834507
 10
-67.471636145
 20
20.5107706192
 10
-67.4622321751
 20
21.1092076692
 10
-67.4536166975
 20
21.7404695986
 10
-67.445801199
 20
22.405034609
 10
-67.4387741928
 20
23.1024244988
 10
-67.4326375554
 20
23.8225286046
 10
-67.4274042579
 20
24.5656778333
 10
-67.4230613292
 20
25.3315412782
 10
-67.4196717325
 20
26.1090155556
 10
-67.4172564555
 20
26.8943995378
 10
-67.4152858976
 20
28.5
  0
LINE
  5
27C
100
AcDbEntity
  8
DRAFT
100
AcDbLine
 62
250
  6
CONTINUOUS
 10
60.5
 20
-64.0
 11
60.3621154889
 21
-64.0
  0
LINE
  5
27D
100
AcDbEntity
  8
DRAFT
100
AcDbLine
 62
250
  6
CONTINUOUS
 10
-60.5
 20
-64.0
 11
-60.3621154889
 21
-64.0
  0
LINE
  5
27E
100
AcDbEntity
  8
DRAFT
100
AcDbLine
 62
250
  6
CONTINUOUS
 10
66.0
 20
-64.0
 11
66.1378845111
 21
-64.0
  0
LINE
  5
27F
100
AcDbEntity
  8
DRAFT
100
AcDbLine
 62
250
  6
CONTINUOUS
 10
-66.0
 20
-64.0
 11
-66.1378845111
 21
-64.0
  0
LINE
  5
280
100
AcDbEntity
  8
RACCORDO
100
AcDbLine
 62
250
  6
CONTINUOUS
 10
66.2731956082
 20
-64.0
 11
68.0
 21
-64.0
  0
LINE
  5
281
100
AcDbEntity
  8
RACCORDO
100
AcDbLine
 62
250
  6
CONTINUOUS
 10
-66.2731956082
 20
-64.0
 11
-68.0
 21
-64.0
  0
LINE
  5
282
100
AcDbEntity
  8
DRAFT
100
AcDbLine
 62
7
  6
CONTINUOUS
 10
62.0
 20
-62.5
 11
66.0
 21
-62.5
  0
LINE
  5
283
100
AcDbEntity
  8
DRAFT
100
AcDbLine
 62
7
  6
CONTINUOUS
 10
-62.0
 20
-62.5
 11
-66.0
 21
-62.5
  0
LINE
  5
284
100
AcDbEntity
  8
DRAFT
100
AcDbLine
 62
7
  6
CONTINUOUS
 10
62.0
 20
-62.3621154889
 11
66.1378845111
 21
-62.3621154889
  0
LINE
  5
285
100
AcDbEntity
  8
DRAFT
100
AcDbLine
 62
7
  6
CONTINUOUS
 10
-62.0
 20
-62.3621154889
 11
-66.1378845111
 21
-62.3621154889
  0
LINE
  5
286
100
AcDbEntity
  8
RACCORDO
100
AcDbLine
 62
250
  6
CONTINUOUS
 10
-66.3469076856
 20
-57.9
 11
-67.0
 21
-57.9000000014
  0
LWPOLYLINE
  5
287
100
AcDbEntity
  8
RACCORDO
100
AcDbPolyline
 62
250
  6
CONTINUOUS
 90
10
 70
0
 10
54.4
 20
-68.3469076856
 10
54.4329840371
 20
-68.3496916519
 10
54.4658478581
 20
-68.3563553654
 10
54.4985914631
 20
-68.3668933101
 10
54.5313709239
 20
-68.3810120156
 10
54.5640301687
 20
-68.3989789284
 10
54.596100982
 20
-68.4216147063
 10
54.6274272921
 20
-68.4491531848
 10
54.6581651708
 20
-68.4812400433
 10
54.6883146181
 20
-68.5177726352
  0
LWPOLYLINE
  5
288
100
AcDbEntity
  8
RACCORDO
100
AcDbPolyline
 62
250
  6
CONTINUOUS
 90
3
 70
0
 10
-67.3730280729
 20
-51.4810015616
 10
-67.3678036156
 20
-51.4818967486
 10
-67.35536535
 20
-51.4843389257
  0
LWPOLYLINE
  5
289
100
AcDbEntity
  8
RACCORDO
100
AcDbPolyline
 62
250
  6
CONTINUOUS
 90
22
 70
0
 10
-67.35536535
 20
-51.4843389257
 10
-67.3095194289
 20
-51.4937741539
 10
-67.2765580976
 20
-51.500767205
 10
-67.2376481374
 20
-51.5095775367
 10
-67.1931396669
 20
-51.5202564201
 10
-67.1436267656
 20
-51.5327525841
 10
-67.0905655819
 20
-51.5471825062
 10
-67.0347376769
 20
-51.5636711251
 10
-66.9767984035
 20
-51.5820935021
 10
-66.9183926839
 20
-51.6021912976
 10
-66.8606079055
 20
-51.6239250197
 10
-66.8037516969
 20
-51.6473341603
 10
-66.7483391577
 20
-51.672278856
 10
-66.6947016316
 20
-51.698752086
 10
-66.6433645105
 20
-51.726760871
 10
-66.5950439844
 20
-51.7561864097
 10
-66.5499384633
 20
-51.7871856928
 10
-66.5083577462
 20
-51.8196017296
 10
-66.4711367747
 20
-51.8528447463
 10
-66.4386395033
 20
-51.8867181516
 10
-66.4107488218
 20
-51.9214185367
 10
-66.3875344722
 20
-51.9569459017
  0
LWPOLYLINE
  5
28A
100
AcDbEntity
  8
ASSI
100
AcDbPolyline
 62
7
  6
CONTINUOUS
 90
22
 70
0
 10
-67.6159885716
 20
-17.0005167208
 10
-67.6089615654
 20
-17.0074591078
 10
-67.5950094295
 20
-17.0629982033
 10
-67.5811606544
 20
-17.1748855026
 10
-67.5674137558
 20
-17.3423118973
 10
-67.5539680345
 20
-17.5628500626
 10
-67.540827878
 20
-17.8372737448
 10
-67.5279888988
 20
-18.1648091975
 10
-67.5156372346
 20
-18.5407078565
 10
-67.5037799847
 20
-18.9656742898
 10
-67.4924100498
 20
-19.4390039295
 10
-67.4816922696
 20
-19.953834507
 10
-67.471636145
 20
-20.5107706192
 10
-67.4622321751
 20
-21.1092076692
 10
-67.4536166975
 20
-21.7404695986
 10
-67.445801199
 20
-22.405034609
 10
-67.4387741928
 20
-23.1024244988
 10
-67.4326375554
 20
-23.8225286046
 10
-67.4274042579
 20
-24.5656778333
 10
-67.4230613292
 20
-25.3315412782
 10
-67.4196717325
 20
-26.1090155556
 10
-67.4172564555
 20
-26.8943995378
  0
LINE
  5
28B
100
AcDbEntity
  8
0
100
AcDbLine
 62
7
  6
CONTINUOUS
 10
-55.0
 20
-0.3371071909
 11
-55.0
 21
-0.7121071909
  0
LINE
  5
28C
100
AcDbEntity
  8
0
100
AcDbLine
 62
7
  6
CONTINUOUS
 10
-55.0
 20
-1.5871072505
 11
-55.0
 21
-1.9621072505
  0
LINE
  5
28D
100
AcDbEntity
  8
RACCORDO
100
AcDbLine
 62
250
  6
CONTINUOUS
 10
-54.4
 20
68.3469076856
 11
-54.4000000014
 21
69.0
  0
LINE
  5
28E
100
AcDbEntity
  8
RACCORDO
100
AcDbLine
 62
250
  6
CONTINUOUS
 10
-54.1
 20
69.4667094077
 11
-54.1
 21
69.0
  0
LINE
  5
28F
100
AcDbEntity
  8
0
100
AcDbLine
 62
7
  6
CONTINUOUS
 10
-52.0
 20
-2.066869559
 11
-52.0
 21
-1.691869559
  0
LINE
  5
290
100
AcDbEntity
  8
0
100
AcDbLine
 62
7
  6
CONTINUOUS
 10
-52.0
 20
-0.8168694994
 11
-52.0
 21
-0.4418694994
  0
LINE
  5
291
100
AcDbEntity
  8
0
100
AcDbLine
 62
7
  6
CONTINUOUS
 10
-51.6
 20
45.0
 11
-51.6
 21
-45.0
  0
LINE
  5
292
100
AcDbEntity
  8
0
100
AcDbLine
 62
7
  6
CONTINUOUS
 10
-51.4
 20
-45.0
 11
-51.4
 21
45.0
  0
LINE
  5
293
100
AcDbEntity
  8
0
100
AcDbLine
 62
7
  6
CONTINUOUS
 10
-54.9361702204
 20
1.6606638837
 11
-55.0
 21
1.2878928687
  0
LINE
  5
294
100
AcDbEntity
  8
0
100
AcDbLine
 62
7
  6
CONTINUOUS
 10
-52.0638297852
 20
0.8103595455
 11
-52.0
 21
1.1831305603
  0
LINE
  5
295
100
AcDbEntity
  8
0
100
AcDbLine
 62
7
  6
CONTINUOUS
 10
-54.6808511019
 20
1.2767479436
 11
-54.6170213223
 21
1.5870188394
  0
LINE
  5
296
100
AcDbEntity
  8
0
100
AcDbLine
 62
7
  6
CONTINUOUS
 10
-52.3191489428
 20
1.1942754869
 11
-52.3829787225
 21
0.8840042335
  0
LINE
  5
297
100
AcDbEntity
  8
0
100
AcDbLine
 62
7
  6
CONTINUOUS
 10
1.4920063324
 20
56.1274921018
 11
1.1865562096
 21
56.0339610642
  0
LINE
  5
298
100
AcDbEntity
  8
RACCORDO
100
AcDbLine
 62
250
  6
CONTINUOUS
 10
-67.4667094077
 20
-57.6
 11
-67.0
 21
-57.6
  0
LINE
  5
299
100
AcDbEntity
  8
RACCORDO
100
AcDbLine
 62
250
  6
CONTINUOUS
 10
-67.4667094077
 20
-52.4
 11
-67.0000000002
 21
-52.4000000261
  0
LINE
  5
29A
100
AcDbEntity
  8
RACCORDO
100
AcDbLine
 62
250
  6
CONTINUOUS
 10
-66.3469076856
 20
-52.1
 11
-67.0
 21
-52.1
  0
LINE
  5
29B
100
AcDbEntity
  8
0
100
AcDbLine
 62
7
  6
CONTINUOUS
 10
-54.6170213223
 20
0.9620187202
 11
-54.6808511019
 21
1.2767479436
  0
LINE
  5
29C
100
AcDbEntity
  8
0
100
AcDbLine
 62
7
  6
CONTINUOUS
 10
-55.0
 20
1.2878928687
 11
-54.9361702204
 21
0.9106638837
  0
LINE
  5
29D
100
AcDbEntity
  8
RACCORDO
100
AcDbLine
 62
250
  6
CONTINUOUS
 10
-48.9
 20
69.4667094077
 11
-48.9000000261
 21
69.0000000002
  0
LINE
  5
29E
100
AcDbEntity
  8
RACCORDO
100
AcDbLine
 62
250
  6
CONTINUOUS
 10
-48.6
 20
68.3469076856
 11
-48.6
 21
69.0
  0
LINE
  5
29F
100
AcDbEntity
  8
0
100
AcDbLine
 62
7
  6
CONTINUOUS
 10
-54.7446808815
 20
1.9664768094
 11
-54.9361702204
 21
1.6606638837
  0
LINE
  5
2A0
100
AcDbEntity
  8
0
100
AcDbLine
 62
7
  6
CONTINUOUS
 10
-54.6170213223
 20
1.5870188394
 11
-54.489361763
 21
1.7700608694
  0
LINE
  5
2A1
100
AcDbEntity
  8
0
100
AcDbLine
 62
7
  6
CONTINUOUS
 10
-2.368336
 20
58.4028
 11
-3.084683
 21
57.796
  0
LWPOLYLINE
  5
2A2
100
AcDbEntity
  8
0
100
AcDbPolyline
 62
7
  6
CONTINUOUS
 90
10
 70
0
 10
-0.4790686992
 20
58.0632687617
 10
-0.4487260521
 20
58.0871670411
 10
-0.4156785809
 20
58.1085894877
 10
-0.3799262856
 20
58.1275361015
 10
-0.3411399517
 20
58.1441305459
 10
-0.2996487937
 20
58.1582491576
 10
-0.2564404552
 20
58.169520946
 10
-0.2118441507
 20
58.1778222476
 10
-0.1655306656
 20
58.1832767259
 10
-0.1175
 20
58.1858843809
  0
LWPOLYLINE
  5
2A3
100
AcDbEntity
  8
0
100
AcDbPolyline
 62
7
  6
CONTINUOUS
 90
10
 70
0
 10
2.5351606504
 20
57.084268354
 10
2.6107563328
 20
57.1332321921
 10
2.6781458059
 20
57.1871719079
 10
2.7373290696
 20
57.2460875013
 10
2.7886054785
 20
57.3101594503
 10
2.8316756781
 20
57.379207277
 10
2.8656416045
 20
57.4526895474
 10
2.8902039033
 20
57.5304257835
 10
2.9056619291
 20
57.6125964634
 10
2.9120156817
 20
57.6992015869
  0
LINE
  5
2A4
100
AcDbEntity
  8
0
100
AcDbLine
 62
7
  6
CONTINUOUS
 10
-51.6
 20
-45.0
 11
-51.4
 21
-45.0
  0
LINE
  5
2A5
100
AcDbEntity
  8
0
100
AcDbLine
 62
7
  6
CONTINUOUS
 10
-54.489361763
 20
0.7700607501
 11
-54.6170213223
 21
0.9620187202
  0
LINE
  5
2A6
100
AcDbEntity
  8
0
100
AcDbLine
 62
7
  6
CONTINUOUS
 10
-54.9361702204
 20
0.9106638837
 11
-54.7446808815
 21
0.591476869
  0
LINE
  5
2A7
100
AcDbEntity
  8
0
100
AcDbLine
 62
7
  6
CONTINUOUS
 10
-52.3829787225
 20
1.5090043527
 11
-52.3191489428
 21
1.1942754869
  0
LINE
  5
2A8
100
AcDbEntity
  8
0
100
AcDbLine
 62
7
  6
CONTINUOUS
 10
-52.0
 20
1.1831305603
 11
-52.0638297852
 21
1.5603595455
  0
LINE
  5
2A9
100
AcDbEntity
  8
0
100
AcDbLine
 62
7
  6
CONTINUOUS
 10
-41.5
 20
55.1
 11
-41.5
 21
54.9
  0
LINE
  5
2AA
100
AcDbEntity
  8
0
100
AcDbLine
 62
7
  6
CONTINUOUS
 10
-52.2553191409
 20
0.5045464415
 11
-52.0638297852
 21
0.8103595455
  0
LINE
  5
2AB
100
AcDbEntity
  8
0
100
AcDbLine
 62
7
  6
CONTINUOUS
 10
-52.3829787225
 20
0.8840042335
 11
-52.5106382817
 21
0.7009622036
  0
LINE
  5
2AC
100
AcDbEntity
  8
0
100
AcDbLine
 62
7
  6
CONTINUOUS
 10
-54.5531915426
 20
2.1472898544
 11
-54.7446808815
 21
1.9664768094
  0
LINE
  5
2AD
100
AcDbEntity
  8
0
100
AcDbLine
 62
7
  6
CONTINUOUS
 10
-2.905948
 20
57.573703
 11
-2.400816
 21
58.034184
  0
LWPOLYLINE
  5
2AE
100
AcDbEntity
  8
0
100
AcDbPolyline
 62
7
  6
CONTINUOUS
 90
16
 70
0
 10
2.5343672374
 20
55.8799547295
 10
2.4689164459
 20
55.8251567328
 10
2.3973560263
 20
55.7815176197
 10
2.3196859787
 20
55.74903739
 10
2.2333445877
 20
55.7282564319
 10
2.1408935686
 20
55.7186343573
 10
2.0500180673
 20
55.7185500019
 10
1.9612448924
 20
55.7276824071
 10
1.8740472353
 20
55.7463525315
 10
1.7945298167
 20
55.7739020869
 10
1.7246872995
 20
55.8099953031
 10
1.6625250208
 20
55.8549679504
 10
1.6081637116
 20
55.9091690516
 10
1.5616436156
 20
55.9727149477
 10
1.5229244892
 20
56.0454892978
 10
1.4920063324
 20
56.1274921018
  0
LWPOLYLINE
  5
2AF
100
AcDbEntity
  8
RACCORDO
100
AcDbPolyline
 62
250
  6
CONTINUOUS
 90
4
 70
0
 10
-67.2986128543
 20
-58.5039385292
 10
-67.3524348401
 20
-58.5151308287
 10
-67.366994823
 20
-58.5179966929
 10
-67.3730280729
 20
-58.5189984384
  0
LINE
  5
2B0
100
AcDbEntity
  8
0
100
AcDbLine
 62
7
  6
CONTINUOUS
 10
-54.7446808815
 20
0.591476869
 11
-54.5531915426
 21
0.397289914
  0
LINE
  5
2B1
100
AcDbEntity
  8
0
100
AcDbLine
 62
7
  6
CONTINUOUS
 10
-52.5106382817
 20
1.7009623228
 11
-52.3829787225
 21
1.5090043527
  0
LINE
  5
2B2
100
AcDbEntity
  8
0
100
AcDbLine
 62
7
  6
CONTINUOUS
 10
-52.0638297852
 20
1.5603595455
 11
-52.2553191409
 21
1.8795463819
  0
LWPOLYLINE
  5
2B3
100
AcDbEntity
  8
RACCORDO
100
AcDbPolyline
 62
250
  6
CONTINUOUS
 90
4
 70
0
 10
-55.0039385292
 20
69.2986128543
 10
-55.0151308287
 20
69.3524348401
 10
-55.0179966929
 20
69.366994823
 10
-55.0189984384
 20
69.3730280729
  0
LINE
  5
2B4
100
AcDbEntity
  8
0
100
AcDbLine
 62
7
  6
CONTINUOUS
 10
-52.4468085021
 20
0.3237333974
 11
-52.2553191409
 21
0.5045464415
  0
LWPOLYLINE
  5
2B5
100
AcDbEntity
  8
RACCORDO
100
AcDbPolyline
 62
250
  6
CONTINUOUS
 90
3
 70
0
 10
-66.3875344722
 20
-51.9569459017
 10
-66.4972776386
 20
-51.9803111861
 10
-66.6994245511
 20
-52.0245742795
  0
LWPOLYLINE
  5
2B6
100
AcDbEntity
  8
RACCORDO
100
AcDbPolyline
 62
250
  6
CONTINUOUS
 90
7
 70
0
 10
-66.6994245511
 20
-52.0245742795
 10
-66.7867424041
 20
-52.0431491204
 10
-66.8613712835
 20
-52.0600730749
 10
-66.9209294393
 20
-52.0763113661
 10
-66.9643738742
 20
-52.0893876501
 10
-66.9910178342
 20
-52.0971735862
 10
-66.9999999921
 20
-52.1000000757
  0
LINE
  5
2B7
100
AcDbEntity
  8
0
100
AcDbLine
 62
7
  6
CONTINUOUS
 10
-55.0
 20
-1.9621072505
 11
-54.5531915426
 21
-2.3527101456
  0
LINE
  5
2B8
100
AcDbEntity
  8
0
100
AcDbLine
 62
7
  6
CONTINUOUS
 10
-54.0425531268
 20
-2.370542032
 11
-54.489361763
 21
-1.9799391306
  0
LINE
  5
2B9
100
AcDbEntity
  8
0
100
AcDbLine
 62
7
  6
CONTINUOUS
 10
-55.0
 20
-0.7121071909
 11
-54.5531915426
 21
-1.1027101754
  0
LINE
  5
2BA
100
AcDbEntity
  8
0
100
AcDbLine
 62
7
  6
CONTINUOUS
 10
-54.0425531268
 20
-1.1205420618
 11
-54.489361763
 21
-0.729939071
  0
LINE
  5
2BB
100
AcDbEntity
  8
0
100
AcDbLine
 62
7
  6
CONTINUOUS
 10
-52.2553191409
 20
1.8795463819
 11
-52.4468085021
 21
2.0737333378
  0
LWPOLYLINE
  5
2BC
100
AcDbEntity
  8
RACCORDO
100
AcDbPolyline
 62
250
  6
CONTINUOUS
 90
3
 70
0
 10
-48.4569459017
 20
68.3875344722
 10
-48.4803111861
 20
68.4972776386
 10
-48.5245742795
 20
68.6994245511
  0
LWPOLYLINE
  5
2BD
100
AcDbEntity
  8
RACCORDO
100
AcDbPolyline
 62
250
  6
CONTINUOUS
 90
7
 70
0
 10
-48.5245742795
 20
68.6994245511
 10
-48.5431491204
 20
68.7867424041
 10
-48.5600730749
 20
68.8613712835
 10
-48.5763113661
 20
68.9209294393
 10
-48.5893876501
 20
68.9643738742
 10
-48.5971735862
 20
68.9910178342
 10
-48.6000000757
 20
68.9999999921
  0
LWPOLYLINE
  5
2BE
100
AcDbEntity
  8
0
100
AcDbPolyline
 62
7
  6
CONTINUOUS
 90
4
 70
0
 10
-0.6502329327
 20
57.8144746305
 10
-0.6017794842
 20
57.9065144718
 10
-0.5447247396
 20
57.9894458489
 10
-0.4790686992
 20
58.0632687617
  0
LWPOLYLINE
  5
2BF
100
AcDbEntity
  8
0
100
AcDbPolyline
 62
7
  6
CONTINUOUS
 90
10
 70
0
 10
1.5551718517
 20
57.8648030757
 10
1.5942583753
 20
57.9235202992
 10
1.6402633552
 20
57.9773689957
 10
1.6931867914
 20
58.0263491651
 10
1.7550668548
 20
58.0716499457
 10
1.8238653744
 20
58.1120821993
 10
1.8934678381
 20
58.144078511
 10
1.961836075
 20
58.1664497428
 10
2.0310082559
 20
58.1803850327
 10
2.1009843809
 20
58.1858843809
  0
LINE
  5
2C0
100
AcDbEntity
  8
0
100
AcDbLine
 62
7
  6
CONTINUOUS
 10
-54.489361763
 20
1.7700608694
 11
-54.1063829064
 21
2.0066870722
  0
LINE
  5
2C1
100
AcDbEntity
  8
0
100
AcDbLine
 62
7
  6
CONTINUOUS
 10
-52.5106382817
 20
0.7009622036
 11
-52.8936170042
 21
0.4643361749
  0
LINE
  5
2C2
100
AcDbEntity
  8
0
100
AcDbLine
 62
7
  6
CONTINUOUS
 10
11.1960930686
 20
-28.1
 11
10.0700680665
 21
-28.1
  0
LINE
  5
2C3
100
AcDbEntity
  8
0
100
AcDbLine
 62
7
  6
CONTINUOUS
 10
-10.0700680665
 20
-28.1
 11
-11.1960930686
 21
-28.1
  0
LINE
  5
2C4
100
AcDbEntity
  8
0
100
AcDbLine
 62
7
  6
CONTINUOUS
 10
-11.1960930686
 20
-25.9
 11
-10.0700680665
 21
-25.9
  0
LINE
  5
2C5
100
AcDbEntity
  8
0
100
AcDbLine
 62
7
  6
CONTINUOUS
 10
10.0700680665
 20
-25.9
 11
11.1960930686
 21
-25.9
  0
LINE
  5
2C6
100
AcDbEntity
  8
0
100
AcDbLine
 62
7
  6
CONTINUOUS
 10
-54.1063829064
 20
0.5066868934
 11
-54.489361763
 21
0.7700607501
  0
LINE
  5
2C7
100
AcDbEntity
  8
0
100
AcDbLine
 62
7
  6
CONTINUOUS
 10
-52.8936170042
 20
1.9643363537
 11
-52.5106382817
 21
1.7009623228
  0
LWPOLYLINE
  5
2C8
100
AcDbEntity
  8
0
100
AcDbPolyline
 62
7
  6
CONTINUOUS
 90
37
 70
0
 10
0.4481719356
 20
56.1612531426
 10
0.4171138513
 20
56.0845105568
 10
0.3815731037
 20
56.014551008
 10
0.3415496928
 20
55.9513744962
 10
0.2975584874
 20
55.8945918247
 10
0.2490846186
 20
55.8445921902
 10
0.1945834801
 20
55.8025431834
 10
0.1328653584
 20
55.7685023034
 10
0.065119967
 20
55.742412051
 10
-0.0066281598
 20
55.7252675197
 10
-0.0845952088
 20
55.717355641
 10
-0.1665649933
 20
55.7183894833
 10
-0.2438644193
 20
55.7285033447
 10
-0.3137785476
 20
55.7479622178
 10
-0.3790223175
 20
55.7765011101
 10
-0.4390674526
 20
55.8134593422
 10
-0.4937080489
 20
55.8589918195
 10
-0.5431500103
 20
55.9129436367
 10
-0.5874827723
 20
55.9741893985
 10
-0.6265226273
 20
56.0431205808
 10
-0.6604532829
 20
56.1193457077
 10
-0.689915297
 20
56.2005649558
 10
-0.7148514557
 20
56.2863869122
 10
-0.735318973
 20
56.3772029898
 10
-0.7521300486
 20
56.4718876038
 10
-0.7654034091
 20
56.5701688386
 10
-0.7750203278
 20
56.6723186097
 10
-0.781436825
 20
56.77802708
 10
-0.7851624441
 20
56.8872904734
 10
-0.7856876418
 20
57.0001125658
 10
-0.7819398075
 20
57.1161948477
 10
-0.7742036629
 20
57.2378852557
 10
-0.7621944864
 20
57.3628358533
 10
-0.7439855027
 20
57.4837043214
 10
-0.7197349495
 20
57.5997186655
 10
-0.6892845891
 20
57.7116508801
 10
-0.6502329327
 20
57.8144746305
  0
LWPOLYLINE
  5
2C9
100
AcDbEntity
  8
RACCORDO
100
AcDbPolyline
 62
250
  6
CONTINUOUS
 90
10
 70
0
 10
67.3730280729
 20
58.5189984384
 10
67.3815064168
 20
58.5233986196
 10
67.3900019569
 20
58.5276657714
 10
67.3985146934
 20
58.5317998938
 10
67.4070446269
 20
58.5357992713
 10
67.4155917567
 20
58.5396656194
 10
67.4241560804
 20
58.5434040848
 10
67.432737597
 20
58.5470163829
 10
67.4413363075
 20
58.5505007983
 10
67.4499522117
 20
58.5538573308
  0
LINE
  5
2CA
100
AcDbEntity
  8
0
100
AcDbLine
 62
7
  6
CONTINUOUS
 10
-54.2978724241
 20
2.2633737951
 11
-54.5531915426
 21
2.1472898544
  0
LINE
  5
2CB
100
AcDbEntity
  8
0
100
AcDbLine
 62
7
  6
CONTINUOUS
 10
-52.7021276653
 20
0.2076492794
 11
-52.4468085021
 21
0.3237333974
  0
LINE
  5
2CC
100
AcDbEntity
  8
0
100
AcDbLine
 62
7
  6
CONTINUOUS
 10
-54.5531915426
 20
0.397289914
 11
-54.2978724241
 21
0.2633739143
  0
LINE
  5
2CD
100
AcDbEntity
  8
0
100
AcDbLine
 62
7
  6
CONTINUOUS
 10
-52.4468085021
 20
2.0737333378
 11
-52.7021276653
 21
2.2076491602
  0
LINE
  5
2CE
100
AcDbEntity
  8
0
100
AcDbLine
 62
7
  6
CONTINUOUS
 10
-54.1063829064
 20
2.319186953
 11
-54.2978724241
 21
2.2633737951
  0
LINE
  5
2CF
100
AcDbEntity
  8
0
100
AcDbLine
 62
7
  6
CONTINUOUS
 10
-52.8936170042
 20
0.1518362941
 11
-52.7021276653
 21
0.2076492794
  0
LINE
  5
2D0
100
AcDbEntity
  8
0
100
AcDbLine
 62
7
  6
CONTINUOUS
 10
-54.2978724241
 20
0.2633739143
 11
-54.1063829064
 21
0.1941870126
  0
LINE
  5
2D1
100
AcDbEntity
  8
0
100
AcDbLine
 62
7
  6
CONTINUOUS
 10
-52.7021276653
 20
2.2076491602
 11
-52.8936170042
 21
2.2768362345
  0
LWPOLYLINE
  5
2D2
100
AcDbEntity
  8
RACCORDO
100
AcDbPolyline
 62
250
  6
CONTINUOUS
 90
10
 70
0
 10
-55.0189984384
 20
69.3730280729
 10
-55.0233986196
 20
69.3815064168
 10
-55.0276657714
 20
69.3900019569
 10
-55.0317998938
 20
69.3985146934
 10
-55.0357992713
 20
69.4070446269
 10
-55.0396656194
 20
69.4155917567
 10
-55.0434040848
 20
69.4241560804
 10
-55.0470163829
 20
69.432737597
 10
-55.0505007983
 20
69.4413363075
 10
-55.0538573308
 20
69.4499522117
  0
LWPOLYLINE
  5
2D3
100
AcDbEntity
  8
RACCORDO
100
AcDbPolyline
 62
250
  6
CONTINUOUS
 90
15
 70
0
 10
66.5177726352
 20
58.1883146181
 10
66.5653136518
 20
58.2235981602
 10
66.6167335464
 20
58.2570909387
 10
66.6717098865
 20
58.2887929535
 10
66.7299070466
 20
58.3187813442
 10
66.7907416937
 20
58.3469789712
 10
66.8533929291
 20
58.3731544164
 10
66.9173409891
 20
58.3973139571
 10
66.9815445993
 20
58.4194513161
 10
67.0443710957
 20
58.4393162432
 10
67.1051555018
 20
58.456821003
 10
67.1625820012
 20
58.472053331
 10
67.2144600753
 20
58.4850261836
 10
67.259943375
 20
58.4956120941
 10
67.2986128543
 20
58.5039385292
  0
LINE
  5
2D4
100
AcDbEntity
  8
0
100
AcDbLine
 62
7
  6
CONTINUOUS
 10
-53.7234042287
 20
0.4308130429
 11
-54.1063829064
 21
0.5066868934
  0
LINE
  5
2D5
100
AcDbEntity
  8
0
100
AcDbLine
 62
7
  6
CONTINUOUS
 10
-53.2765957713
 20
2.0402100285
 11
-52.8936170042
 21
1.9643363537
  0
LINE
  5
2D6
100
AcDbEntity
  8
0
100
AcDbLine
 62
7
  6
CONTINUOUS
 10
-54.1063829064
 20
0.1941870126
 11
-53.7872340083
 21
0.1205419683
  0
LINE
  5
2D7
100
AcDbEntity
  8
0
100
AcDbLine
 62
7
  6
CONTINUOUS
 10
-52.8936170042
 20
2.2768362345
 11
-53.2127659917
 21
2.3504812819
  0
LINE
  5
2D8
100
AcDbEntity
  8
0
100
AcDbLine
 62
7
  6
CONTINUOUS
 10
-2.400816
 20
58.034184
 11
-2.400816
 21
55.5
  0
LINE
  5
2D9
100
AcDbEntity
  8
0
100
AcDbLine
 62
7
  6
CONTINUOUS
 10
-2.118684
 20
55.5
 11
-2.118684
 21
58.4028
  0
LINE
  5
2DA
100
AcDbEntity
  8
0
100
AcDbLine
 62
7
  6
CONTINUOUS
 10
-1.1
 20
38.1960930686
 11
-1.1
 21
37.0700680665
  0
LINE
  5
2DB
100
AcDbEntity
  8
0
100
AcDbLine
 62
7
  6
CONTINUOUS
 10
-1.1
 20
16.9299319335
 11
-1.1
 21
15.8039069314
  0
LINE
  5
2DC
100
AcDbEntity
  8
0
100
AcDbLine
 62
7
  6
CONTINUOUS
 10
-1.1
 20
-38.1960930686
 11
-1.1
 21
-37.0700680665
  0
LINE
  5
2DD
100
AcDbEntity
  8
0
100
AcDbLine
 62
7
  6
CONTINUOUS
 10
-1.1
 20
-16.9299319335
 11
-1.1
 21
-15.8039069314
  0
LWPOLYLINE
  5
2DE
100
AcDbEntity
  8
0
100
AcDbPolyline
 62
7
  6
CONTINUOUS
 90
16
 70
0
 10
2.6291156817
 20
57.6911297139
 10
2.6247480642
 20
57.6121515066
 10
2.6126634664
 20
57.5394043338
 10
2.5928618883
 20
57.4728881953
 10
2.5651442341
 20
57.4125186887
 10
2.5297095995
 20
57.3583802165
 10
2.487155272
 20
57.3107259862
 10
2.4371345717
 20
57.2698633749
 10
2.3799941786
 20
57.2354850054
 10
2.3173714199
 20
57.2069219539
 10
2.2492107324
 20
57.1841146452
 10
2.1755676793
 20
57.1671226543
 10
2.0982462779
 20
57.1554557829
 10
2.017847867
 20
57.1489506313
 10
1.9337711077
 20
57.147770599
 10
1.846016
 20
57.1519156862
  0
LWPOLYLINE
  5
2DF
100
AcDbEntity
  8
0
100
AcDbPolyline
 62
7
  6
CONTINUOUS
 90
10
 70
0
 10
2.7077843809
 20
56.2925172061
 10
2.7035331293
 20
56.2354731307
 10
2.6952277537
 20
56.1808778497
 10
2.682868254
 20
56.128731363
 10
2.6660549048
 20
56.0785641296
 10
2.6451874315
 20
56.0308456905
 10
2.6214650105
 20
55.9869846686
 10
2.5952873672
 20
55.947450605
 10
2.5662547761
 20
55.9117739586
 10
2.5343672374
 20
55.8799547295
  0
LWPOLYLINE
  5
2E0
100
AcDbEntity
  8
0
100
AcDbPolyline
 62
7
  6
CONTINUOUS
 90
10
 70
0
 10
0.5395250156
 20
56.5674093965
 10
0.5344263535
 20
56.5196137987
 10
0.5280302797
 20
56.4724087581
 10
0.5203367942
 20
56.4257942746
 10
0.5112999083
 20
56.3796687162
 10
0.5009656106
 20
56.3341337149
 10
0.4894718679
 20
56.2894941672
 10
0.4768646689
 20
56.2458517054
 10
0.4630980248
 20
56.2031046972
 10
0.4481719356
 20
56.1612531426
  0
LINE
  5
2E1
100
AcDbEntity
  8
0
100
AcDbLine
 62
7
  6
CONTINUOUS
 10
-54.5531915426
 20
-2.3527101456
 11
-54.0425531268
 21
-2.370542032
  0
LINE
  5
2E2
100
AcDbEntity
  8
0
100
AcDbLine
 62
7
  6
CONTINUOUS
 10
-54.489361763
 20
-1.9799391306
 11
-52.0
 21
-2.066869559
  0
LINE
  5
2E3
100
AcDbEntity
  8
0
100
AcDbLine
 62
7
  6
CONTINUOUS
 10
-52.0
 20
-1.691869559
 11
-55.0
 21
-1.5871072505
  0
LINE
  5
2E4
100
AcDbEntity
  8
0
100
AcDbLine
 62
7
  6
CONTINUOUS
 10
-54.5531915426
 20
-1.1027101754
 11
-54.0425531268
 21
-1.1205420618
  0
LINE
  5
2E5
100
AcDbEntity
  8
0
100
AcDbLine
 62
7
  6
CONTINUOUS
 10
-54.489361763
 20
-0.729939071
 11
-52.0
 21
-0.8168694994
  0
LINE
  5
2E6
100
AcDbEntity
  8
0
100
AcDbLine
 62
7
  6
CONTINUOUS
 10
-52.0
 20
-0.4418694994
 11
-55.0
 21
-0.3371071909
  0
LINE
  5
2E7
100
AcDbEntity
  8
0
100
AcDbLine
 62
7
  6
CONTINUOUS
 10
-53.7872340083
 20
0.1205419683
 11
-53.2127659917
 21
0.1004811031
  0
LINE
  5
2E8
100
AcDbEntity
  8
0
100
AcDbLine
 62
7
  6
CONTINUOUS
 10
-53.2765957713
 20
0.4152101477
 11
-53.7234042287
 21
0.4308130429
  0
LINE
  5
2E9
100
AcDbEntity
  8
0
100
AcDbLine
 62
7
  6
CONTINUOUS
 10
-53.7234042287
 20
2.0558129236
 11
-53.2765957713
 21
2.0402100285
  0
LINE
  5
2EA
100
AcDbEntity
  8
0
100
AcDbLine
 62
7
  6
CONTINUOUS
 10
-53.2127659917
 20
2.3504812819
 11
-53.7872340083
 21
2.3705421471
  0
LWPOLYLINE
  5
2EB
100
AcDbEntity
  8
RACCORDO
100
AcDbPolyline
 62
250
  6
CONTINUOUS
 90
15
 70
0
 10
-54.6883146181
 20
68.5177726352
 10
-54.7235981602
 20
68.5653136518
 10
-54.7570909387
 20
68.6167335464
 10
-54.7887929535
 20
68.6717098865
 10
-54.8187813442
 20
68.7299070466
 10
-54.8469789712
 20
68.7907416937
 10
-54.8731544164
 20
68.8533929291
 10
-54.8973139571
 20
68.9173409891
 10
-54.9194513161
 20
68.9815445993
 10
-54.9393162432
 20
69.0443710957
 10
-54.956821003
 20
69.1051555018
 10
-54.972053331
 20
69.1625820012
 10
-54.9850261836
 20
69.2144600753
 10
-54.9956120941
 20
69.259943375
 10
-55.0039385292
 20
69.2986128543
  0
LWPOLYLINE
  5
2EC
100
AcDbEntity
  8
0
100
AcDbPolyline
 62
7
  6
CONTINUOUS
 90
10
 70
0
 10
0.5395250156
 20
57.3414765713
 10
0.5440369555
 20
57.2544839324
 10
0.547430694
 20
57.1679891912
 10
0.5497062311
 20
57.0819923475
 10
0.5508766117
 20
56.9968288732
 10
0.550928791
 20
56.9121632965
 10
0.5498236345
 20
56.826989202
 10
0.5475480973
 20
56.740971118
 10
0.5441152244
 20
56.6544445161
 10
0.5395250156
 20
56.5674093965
  0
LWPOLYLINE
  5
2ED
100
AcDbEntity
  8
0
100
AcDbPolyline
 62
7
  6
CONTINUOUS
 90
31
 70
0
 10
2.9120156817
 20
57.6992015869
 10
2.9084260966
 20
57.7753147651
 10
2.8996665218
 20
57.8473979821
 10
2.8857369575
 20
57.9154512378
 10
2.8662002369
 20
57.9797902054
 10
2.8414935268
 20
58.0400992118
 10
2.8129283266
 20
58.0954312378
 10
2.7805310438
 20
58.1451944472
 10
2.744275271
 20
58.1899806762
 10
2.7053932852
 20
58.230618414
 10
2.6646475247
 20
58.2668503271
 10
2.6212755512
 20
58.2989337491
 10
2.5742223278
 20
58.3284691697
 10
2.5231066572
 20
58.3563560934
 10
2.4683097366
 20
58.3816950159
 10
2.4099201208
 20
58.4033879139
 10
2.3477736238
 20
58.4213325475
 10
2.2820344316
 20
58.4356311566
 10
2.213283657
 20
58.4454924384
 10
2.1414602928
 20
58.4512715246
 10
2.0666253462
 20
58.4526132836
 10
1.9895429519
 20
58.4476610171
 10
1.9096688125
 20
58.437085028
 10
1.8275472253
 20
58.4202150135
 10
1.7455752177
 20
58.3931833677
 10
1.663096477
 20
58.3552664465
 10
1.5807673159
 20
58.307187894
 10
1.5029536992
 20
58.2472510364
 10
1.4311109486
 20
58.1748903156
 10
1.3637837424
 20
58.0906712898
 10
1.3009720807
 20
57.9945939588
  0
LINE
  5
2EE
100
AcDbEntity
  8
0
100
AcDbLine
 62
7
  6
CONTINUOUS
 10
1.1
 20
-15.8039069314
 11
1.1
 21
-16.9299319335
  0
LINE
  5
2EF
100
AcDbEntity
  8
0
100
AcDbLine
 62
7
  6
CONTINUOUS
 10
1.1
 20
-37.0700680665
 11
1.1
 21
-38.1960930686
  0
LINE
  5
2F0
100
AcDbEntity
  8
0
100
AcDbLine
 62
7
  6
CONTINUOUS
 10
1.1
 20
15.8039069314
 11
1.1
 21
16.9299319335
  0
LINE
  5
2F1
100
AcDbEntity
  8
0
100
AcDbLine
 62
7
  6
CONTINUOUS
 10
1.1
 20
37.0700680665
 11
1.1
 21
38.1960930686
  0
LINE
  5
2F2
100
AcDbEntity
  8
0
100
AcDbLine
 62
7
  6
CONTINUOUS
 10
1.846016
 20
57.1519156862
 11
1.846016
 21
56.8861843746
  0
LWPOLYLINE
  5
2F3
100
AcDbEntity
  8
RACCORDO
100
AcDbPolyline
 62
250
  6
CONTINUOUS
 90
15
 70
0
 10
-66.5177726352
 20
-58.1883146181
 10
-66.5653136518
 20
-58.2235981602
 10
-66.6167335464
 20
-58.2570909387
 10
-66.6717098865
 20
-58.2887929535
 10
-66.7299070466
 20
-58.3187813442
 10
-66.7907416937
 20
-58.3469789712
 10
-66.8533929291
 20
-58.3731544164
 10
-66.9173409891
 20
-58.3973139571
 10
-66.9815445993
 20
-58.4194513161
 10
-67.0443710957
 20
-58.4393162432
 10
-67.1051555018
 20
-58.456821003
 10
-67.1625820012
 20
-58.472053331
 10
-67.2144600753
 20
-58.4850261836
 10
-67.259943375
 20
-58.4956120941
 10
-67.2986128543
 20
-58.5039385292
  0
LINE
  5
2F4
100
AcDbEntity
  8
0
100
AcDbLine
 62
7
  6
CONTINUOUS
 10
-52.8936170042
 20
0.4643361749
 11
-53.2765957713
 21
0.4152101477
  0
LWPOLYLINE
  5
2F5
100
AcDbEntity
  8
RACCORDO
100
AcDbPolyline
 62
250
  6
CONTINUOUS
 90
15
 70
0
 10
54.6883146181
 20
-68.5177726352
 10
54.7235981602
 20
-68.5653136518
 10
54.7570909387
 20
-68.6167335464
 10
54.7887929535
 20
-68.6717098865
 10
54.8187813442
 20
-68.7299070466
 10
54.8469789712
 20
-68.7907416937
 10
54.8731544164
 20
-68.8533929291
 10
54.8973139571
 20
-68.9173409891
 10
54.9194513161
 20
-68.9815445993
 10
54.9393162432
 20
-69.0443710957
 10
54.956821003
 20
-69.1051555018
 10
54.972053331
 20
-69.1625820012
 10
54.9850261836
 20
-69.2144600753
 10
54.9956120941
 20
-69.259943375
 10
55.0039385292
 20
-69.2986128543
  0
LINE
  5
2F6
100
AcDbEntity
  8
0
100
AcDbLine
 62
7
  6
CONTINUOUS
 10
-53.2127659917
 20
0.1004811031
 11
-52.8936170042
 21
0.1518362941
  0
LINE
  5
2F7
100
AcDbEntity
  8
0
100
AcDbLine
 62
7
  6
CONTINUOUS
 10
-53.7872340083
 20
2.3705421471
 11
-54.1063829064
 21
2.319186953
  0
LINE
  5
2F8
100
AcDbEntity
  8
0
100
AcDbLine
 62
7
  6
CONTINUOUS
 10
-54.1063829064
 20
2.0066870722
 11
-53.7234042287
 21
2.0558129236
  0
LWPOLYLINE
  5
2F9
100
AcDbEntity
  8
ASSI
100
AcDbPolyline
 62
7
  6
CONTINUOUS
 90
22
 70
0
 10
-45.4994832792
 20
-69.6159885716
 10
-45.4925408922
 20
-69.6089615654
 10
-45.4370017967
 20
-69.5950094295
 10
-45.3251144974
 20
-69.5811606544
 10
-45.1576881027
 20
-69.5674137558
 10
-44.9371499374
 20
-69.5539680345
 10
-44.6627262552
 20
-69.540827878
 10
-44.3351908025
 20
-69.5279888988
 10
-43.9592921435
 20
-69.5156372346
 10
-43.5343257102
 20
-69.5037799847
 10
-43.0609960705
 20
-69.4924100498
 10
-42.546165493
 20
-69.4816922696
 10
-41.9892293808
 20
-69.471636145
 10
-41.3907923308
 20
-69.4622321751
 10
-40.7595304014
 20
-69.4536166975
 10
-40.094965391
 20
-69.445801199
 10
-39.3975755012
 20
-69.4387741928
 10
-38.6774713954
 20
-69.4326375554
 10
-37.9343221667
 20
-69.4274042579
 10
-37.1684587218
 20
-69.4230613292
 10
-36.3909844444
 20
-69.4196717325
 10
-35.6056004622
 20
-69.4172564555
  0
LWPOLYLINE
  5
2FA
100
AcDbEntity
  8
0
100
AcDbPolyline
 62
7
  6
CONTINUOUS
 90
23
 70
0
 10
-45.4994832792
 20
69.6159885716
 10
-45.4925408922
 20
69.6089615654
 10
-45.4370017967
 20
69.5950094295
 10
-45.3251144974
 20
69.5811606544
 10
-45.1576881027
 20
69.5674137558
 10
-44.9371499374
 20
69.5539680345
 10
-44.6627262552
 20
69.540827878
 10
-44.3351908025
 20
69.5279888988
 10
-43.9592921435
 20
69.5156372346
 10
-43.5343257102
 20
69.5037799847
 10
-43.0609960705
 20
69.4924100498
 10
-42.546165493
 20
69.4816922696
 10
-41.9892293808
 20
69.471636145
 10
-41.3907923308
 20
69.4622321751
 10
-40.7595304014
 20
69.4536166975
 10
-40.094965391
 20
69.445801199
 10
-39.3975755012
 20
69.4387741928
 10
-38.6774713954
 20
69.4326375554
 10
-37.9343221667
 20
69.4274042579
 10
-37.1684587218
 20
69.4230613292
 10
-36.3909844444
 20
69.4196717325
 10
-35.6056004622
 20
69.4172564555
 10
-34.0
 20
69.4152858976
  0
LWPOLYLINE
  5
2FB
100
AcDbEntity
  8
RACCORDO
100
AcDbPolyline
 62
250
  6
CONTINUOUS
 90
10
 70
0
 10
55.0189984384
 20
-69.3730280729
 10
55.0233986196
 20
-69.3815064168
 10
55.0276657714
 20
-69.3900019569
 10
55.0317998938
 20
-69.3985146934
 10
55.0357992713
 20
-69.4070446269
 10
55.0396656194
 20
-69.4155917567
 10
55.0434040848
 20
-69.4241560804
 10
55.0470163829
 20
-69.432737597
 10
55.0505007983
 20
-69.4413363075
 10
55.0538573308
 20
-69.4499522117
  0
LWPOLYLINE
  5
2FC
100
AcDbEntity
  8
0
100
AcDbPolyline
 62
7
  6
CONTINUOUS
 90
10
 70
0
 10
0.4324578214
 20
57.7844809003
 10
0.4630644567
 20
57.7006390281
 10
0.476803609
 20
57.6587956371
 10
0.4893893923
 20
57.616016747
 10
0.5008647077
 20
57.572236482
 10
0.5111866543
 20
57.527520718
 10
0.5202265287
 20
57.4820670821
 10
0.5279414299
 20
57.4359414503
 10
0.5343742588
 20
57.3890779467
 10
0.5395250156
 20
57.3414765713
  0
LWPOLYLINE
  5
2FD
100
AcDbEntity
  8
RACCORDO
100
AcDbPolyline
 62
250
  6
CONTINUOUS
 90
10
 70
0
 10
-67.3730280729
 20
-58.5189984384
 10
-67.3815064168
 20
-58.5233986196
 10
-67.3900019569
 20
-58.5276657714
 10
-67.3985146934
 20
-58.5317998938
 10
-67.4070446269
 20
-58.5357992713
 10
-67.4155917567
 20
-58.5396656194
 10
-67.4241560804
 20
-58.5434040848
 10
-67.432737597
 20
-58.5470163829
 10
-67.4413363075
 20
-58.5505007983
 10
-67.4499522117
 20
-58.5538573308
  0
LINE
  5
2FE
100
AcDbEntity
  8
0
100
AcDbLine
 62
7
  6
CONTINUOUS
 10
-11.1960930686
 20
25.9
 11
-10.0700680665
 21
25.9
  0
LINE
  5
2FF
100
AcDbEntity
  8
0
100
AcDbLine
 62
7
  6
CONTINUOUS
 10
10.0700680665
 20
25.9
 11
11.1960930686
 21
25.9
  0
LWPOLYLINE
  5
300
100
AcDbEntity
  8
0
100
AcDbPolyline
 62
7
  6
CONTINUOUS
 90
28
 70
0
 10
1.1865562096
 20
56.0339610642
 10
1.2414248579
 20
55.9226142283
 10
1.3033646802
 20
55.8232900067
 10
1.3723756766
 20
55.7359883995
 10
1.4481066161
 20
55.6609885908
 10
1.5309087298
 20
55.5980113964
 10
1.6218357103
 20
55.5462192641
 10
1.722604751
 20
55.5051800106
 10
1.8314986586
 20
55.4753258192
 10
1.9444195462
 20
55.4571156877
 10
2.0635640473
 20
55.4509988234
 10
2.1867355284
 20
55.456526019
 10
2.3032462019
 20
55.4728086495
 10
2.4103574275
 20
55.5006407262
 10
2.5108078455
 20
55.539228238
 10
2.6021255898
 20
55.5853005263
 10
2.6836436381
 20
55.6379710429
 10
2.7560290126
 20
55.6981263362
 10
2.8188109134
 20
55.7651553926
 10
2.8719561133
 20
55.8386702548
 10
2.9154978395
 20
55.9190588802
 10
2.9490649732
 20
56.0068741283
 10
2.972982523
 20
56.1050514232
 10
2.9869254803
 20
56.2106553409
 10
2.9895477012
 20
56.3154324685
 10
2.9801737362
 20
56.4189206227
 10
2.9594790346
 20
56.5215819868
 10
2.9281438009
 20
56.6165496979
  0
LWPOLYLINE
  5
301
100
AcDbEntity
  8
ASSI
100
AcDbPolyline
 62
7
  6
CONTINUOUS
 90
22
 70
0
 10
-22.5005167208
 20
-69.6159885716
 10
-22.5074591078
 20
-69.6230155778
 10
-22.5629982033
 20
-69.6369677137
 10
-22.6748855026
 20
-69.6508164888
 10
-22.8423118973
 20
-69.6645633873
 10
-23.0628500626
 20
-69.6780091087
 10
-23.3372737448
 20
-69.6911492651
 10
-23.6648091975
 20
-69.7039882444
 10
-24.0407078565
 20
-69.7163399086
 10
-24.4656742898
 20
-69.7281971585
 10
-24.9390039295
 20
-69.7395670934
 10
-25.453834507
 20
-69.7502848735
 10
-26.0107706192
 20
-69.7603409982
 10
-26.6092076692
 20
-69.769744968
 10
-27.2404695986
 20
-69.7783604457
 10
-27.905034609
 20
-69.7861759441
 10
-28.6024244988
 20
-69.7932029504
 10
-29.3225286046
 20
-69.7993395878
 10
-30.0656778333
 20
-69.8045728853
 10
-30.8315412782
 20
-69.8089158139
 10
-31.6090155556
 20
-69.8123054106
 10
-32.3943995378
 20
-69.8147206876
  0
LINE
  5
302
100
AcDbEntity
  8
0
100
AcDbLine
 62
7
  6
CONTINUOUS
 10
11.1960930686
 20
28.1
 11
10.0700680665
 21
28.1
  0
LINE
  5
303
100
AcDbEntity
  8
0
100
AcDbLine
 62
7
  6
CONTINUOUS
 10
-10.0700680665
 20
28.1
 11
-11.1960930686
 21
28.1
  0
LWPOLYLINE
  5
304
100
AcDbEntity
  8
0
100
AcDbPolyline
 62
7
  6
CONTINUOUS
 90
23
 70
0
 10
-22.5005167208
 20
69.6159885716
 10
-22.5074591078
 20
69.6230155778
 10
-22.5629982033
 20
69.6369677137
 10
-22.6748855026
 20
69.6508164888
 10
-22.8423118973
 20
69.6645633873
 10
-23.0628500626
 20
69.6780091087
 10
-23.3372737448
 20
69.6911492651
 10
-23.6648091975
 20
69.7039882444
 10
-24.0407078565
 20
69.7163399086
 10
-24.4656742898
 20
69.7281971585
 10
-24.9390039295
 20
69.7395670934
 10
-25.453834507
 20
69.7502848735
 10
-26.0107706192
 20
69.7603409982
 10
-26.6092076692
 20
69.769744968
 10
-27.2404695986
 20
69.7783604457
 10
-27.905034609
 20
69.7861759441
 10
-28.6024244988
 20
69.7932029504
 10
-29.3225286046
 20
69.7993395878
 10
-30.0656778333
 20
69.8045728853
 10
-30.8315412782
 20
69.8089158139
 10
-31.6090155556
 20
69.8123054106
 10
-32.3943995378
 20
69.8147206876
 10
-34.0
 20
69.8166912456
  0
LWPOLYLINE
  5
305
100
AcDbEntity
  8
0
100
AcDbPolyline
 62
7
  6
CONTINUOUS
 90
7
 70
0
 10
2.9281438009
 20
56.6165496979
 10
2.8855446213
 20
56.7021824326
 10
2.8323049096
 20
56.7801215142
 10
2.7709751114
 20
56.8484240506
 10
2.7024053753
 20
56.9064424109
 10
2.6257455526
 20
56.9548242259
 10
2.5409956434
 20
56.9935694957
  0
LWPOLYLINE
  5
306
100
AcDbEntity
  8
RACCORDO
100
AcDbPolyline
 62
250
  6
CONTINUOUS
 90
3
 70
0
 10
48.4569459017
 20
-68.3875344722
 10
48.4803111861
 20
-68.4972776386
 10
48.5245742795
 20
-68.6994245511
  0
LWPOLYLINE
  5
307
100
AcDbEntity
  8
RACCORDO
100
AcDbPolyline
 62
250
  6
CONTINUOUS
 90
7
 70
0
 10
48.5245742795
 20
-68.6994245511
 10
48.5431491204
 20
-68.7867424041
 10
48.5600730749
 20
-68.8613712835
 10
48.5763113661
 20
-68.9209294393
 10
48.5893876501
 20
-68.9643738742
 10
48.5971735862
 20
-68.9910178342
 10
48.6000000757
 20
-68.9999999921
  0
LWPOLYLINE
  5
308
100
AcDbEntity
  8
RACCORDO
100
AcDbPolyline
 62
250
  6
CONTINUOUS
 90
3
 70
0
 10
66.3875344722
 20
51.9569459017
 10
66.4972776386
 20
51.9803111861
 10
66.6994245511
 20
52.0245742795
  0
LWPOLYLINE
  5
309
100
AcDbEntity
  8
RACCORDO
100
AcDbPolyline
 62
250
  6
CONTINUOUS
 90
7
 70
0
 10
66.6994245511
 20
52.0245742795
 10
66.7867424041
 20
52.0431491204
 10
66.8613712835
 20
52.0600730749
 10
66.9209294393
 20
52.0763113661
 10
66.9643738742
 20
52.0893876501
 10
66.9910178342
 20
52.0971735862
 10
66.9999999921
 20
52.1000000757
  0
LINE
  5
30A
100
AcDbEntity
  8
0
100
AcDbLine
 62
7
  6
CONTINUOUS
 10
-3.084683
 20
57.796
 11
-2.905948
 21
57.573703
  0
LWPOLYLINE
  5
30B
100
AcDbEntity
  8
RACCORDO
100
AcDbPolyline
 62
250
  6
CONTINUOUS
 90
4
 70
0
 10
55.0039385292
 20
-69.2986128543
 10
55.0151308287
 20
-69.3524348401
 10
55.0179966929
 20
-69.366994823
 10
55.0189984384
 20
-69.3730280729
  0
LINE
  5
30C
100
AcDbEntity
  8
0
100
AcDbLine
 62
7
  6
CONTINUOUS
 10
41.5
 20
54.9
 11
41.5
 21
55.1
  0
LWPOLYLINE
  5
30D
100
AcDbEntity
  8
ASSI
100
AcDbPolyline
 62
7
  6
CONTINUOUS
 90
22
 70
0
 10
-11.4994832792
 20
-69.6159885716
 10
-11.4925408922
 20
-69.6089615654
 10
-11.4370017967
 20
-69.5950094295
 10
-11.3251144974
 20
-69.5811606544
 10
-11.1576881027
 20
-69.5674137558
 10
-10.9371499374
 20
-69.5539680345
 10
-10.6627262552
 20
-69.540827878
 10
-10.3351908025
 20
-69.5279888988
 10
-9.9592921435
 20
-69.5156372346
 10
-9.5343257102
 20
-69.5037799847
 10
-9.0609960705
 20
-69.4924100498
 10
-8.546165493
 20
-69.4816922696
 10
-7.9892293808
 20
-69.471636145
 10
-7.3907923308
 20
-69.4622321751
 10
-6.7595304014
 20
-69.4536166975
 10
-6.094965391
 20
-69.445801199
 10
-5.3975755012
 20
-69.4387741928
 10
-4.6774713954
 20
-69.4326375554
 10
-3.9343221667
 20
-69.4274042579
 10
-3.1684587218
 20
-69.4230613292
 10
-2.3909844444
 20
-69.4196717325
 10
-1.6056004622
 20
-69.4172564555
  0
LWPOLYLINE
  5
30E
100
AcDbEntity
  8
RACCORDO
100
AcDbPolyline
 62
250
  6
CONTINUOUS
 90
4
 70
0
 10
67.2986128543
 20
58.5039385292
 10
67.3524348401
 20
58.5151308287
 10
67.366994823
 20
58.5179966929
 10
67.3730280729
 20
58.5189984384
  0
LINE
  5
30F
100
AcDbEntity
  8
0
100
AcDbLine
 62
7
  6
CONTINUOUS
 10
-51.4
 20
45.0
 11
-51.6
 21
45.0
  0
LWPOLYLINE
  5
310
100
AcDbEntity
  8
0
100
AcDbPolyline
 62
7
  6
CONTINUOUS
 90
23
 70
0
 10
-11.4994832792
 20
69.6159885716
 10
-11.4925408922
 20
69.6089615654
 10
-11.4370017967
 20
69.5950094295
 10
-11.3251144974
 20
69.5811606544
 10
-11.1576881027
 20
69.5674137558
 10
-10.9371499374
 20
69.5539680345
 10
-10.6627262552
 20
69.540827878
 10
-10.3351908025
 20
69.5279888988
 10
-9.9592921435
 20
69.5156372346
 10
-9.5343257102
 20
69.5037799847
 10
-9.0609960705
 20
69.4924100498
 10
-8.546165493
 20
69.4816922696
 10
-7.9892293808
 20
69.471636145
 10
-7.3907923308
 20
69.4622321751
 10
-6.7595304014
 20
69.4536166975
 10
-6.094965391
 20
69.445801199
 10
-5.3975755012
 20
69.4387741928
 10
-4.6774713954
 20
69.4326375554
 10
-3.9343221667
 20
69.4274042579
 10
-3.1684587218
 20
69.4230613292
 10
-2.3909844444
 20
69.4196717325
 10
-1.6056004622
 20
69.4172564555
 10
0.0
 20
69.4152858976
  0
LWPOLYLINE
  5
311
100
AcDbEntity
  8
0
100
AcDbPolyline
 62
7
  6
CONTINUOUS
 90
9
 70
0
 10
0.2498984756
 20
58.0632687617
 10
0.2774234976
 20
58.0353577525
 10
0.3036775643
 20
58.0054066836
 10
0.3286606757
 20
57.9734155551
 10
0.3525097706
 20
57.9392762414
 10
0.3750879102
 20
57.9030968681
 10
0.3959842781
 20
57.8652018117
 10
0.4150619356
 20
57.8256991976
 10
0.4324578214
 20
57.7844809003
  0
LINE
  5
312
100
AcDbEntity
  8
RACCORDO
100
AcDbLine
 62
250
  6
CONTINUOUS
 10
48.6
 20
-68.3469076856
 11
48.6
 21
-69.0
  0
LINE
  5
313
100
AcDbEntity
  8
RACCORDO
100
AcDbLine
 62
250
  6
CONTINUOUS
 10
48.9
 20
-69.4667094077
 11
48.9000000261
 21
-69.0000000002
  0
LINE
  5
314
100
AcDbEntity
  8
RACCORDO
100
AcDbLine
 62
250
  6
CONTINUOUS
 10
66.3469076856
 20
52.1
 11
67.0
 21
52.1
  0
LINE
  5
315
100
AcDbEntity
  8
RACCORDO
100
AcDbLine
 62
250
  6
CONTINUOUS
 10
67.4667094077
 20
52.4
 11
67.0000000002
 21
52.4000000261
  0
LINE
  5
316
100
AcDbEntity
  8
0
100
AcDbLine
 62
7
  6
CONTINUOUS
 10
1.3009720807
 20
57.9945939588
 11
1.5551718517
 21
57.8648030757
  0
LWPOLYLINE
  5
317
100
AcDbEntity
  8
0
100
AcDbPolyline
 62
7
  6
CONTINUOUS
 90
10
 70
0
 10
2.4863843809
 20
56.7594046983
 10
2.5286153962
 20
56.7286993904
 10
2.5669797882
 20
56.6920790144
 10
2.6014775569
 20
56.6495435702
 10
2.6328302097
 20
56.600263327
 10
2.6603162393
 20
56.5450680156
 10
2.6817711233
 20
56.4864468286
 10
2.6964733546
 20
56.4252294967
 10
2.7051444405
 20
56.3605862892
 10
2.7077843809
 20
56.2925172061
  0
LINE
  5
318
100
AcDbEntity
  8
RACCORDO
100
AcDbLine
 62
250
  6
CONTINUOUS
 10
54.1
 20
-69.4667094077
 11
54.1
 21
-69.0
  0
LINE
  5
319
100
AcDbEntity
  8
RACCORDO
100
AcDbLine
 62
250
  6
CONTINUOUS
 10
54.4
 20
-68.3469076856
 11
54.4000000014
 21
-69.0
  0
LWPOLYLINE
  5
31A
100
AcDbEntity
  8
RACCORDO
100
AcDbPolyline
 62
250
  6
CONTINUOUS
 90
3
 70
0
 10
47.9810015616
 20
-69.3730280729
 10
47.9818967486
 20
-69.3678036156
 10
47.9843389257
 20
-69.35536535
  0
LWPOLYLINE
  5
31B
100
AcDbEntity
  8
ASSI
100
AcDbPolyline
 62
7
  6
CONTINUOUS
 90
22
 70
0
 10
11.4994832792
 20
-69.6159885716
 10
11.4925408922
 20
-69.6230155778
 10
11.4370017967
 20
-69.6369677137
 10
11.3251144974
 20
-69.6508164888
 10
11.1576881027
 20
-69.6645633873
 10
10.9371499374
 20
-69.6780091087
 10
10.6627262552
 20
-69.6911492651
 10
10.3351908025
 20
-69.7039882444
 10
9.9592921435
 20
-69.7163399086
 10
9.5343257102
 20
-69.7281971585
 10
9.0609960705
 20
-69.7395670934
 10
8.546165493
 20
-69.7502848735
 10
7.9892293808
 20
-69.7603409982
 10
7.3907923308
 20
-69.769744968
 10
6.7595304014
 20
-69.7783604457
 10
6.094965391
 20
-69.7861759441
 10
5.3975755012
 20
-69.7932029504
 10
4.6774713954
 20
-69.7993395878
 10
3.9343221667
 20
-69.8045728853
 10
3.1684587218
 20
-69.8089158139
 10
2.3909844444
 20
-69.8123054106
 10
1.6056004622
 20
-69.8147206876
  0
LWPOLYLINE
  5
31C
100
AcDbEntity
  8
0
100
AcDbPolyline
 62
7
  6
CONTINUOUS
 90
46
 70
0
 10
-0.1184608896
 20
55.4508
 10
-0.002857315
 20
55.4582400467
 10
0.1041638392
 20
55.4765807904
 10
0.202602573
 20
55.505822231
 10
0.2922490541
 20
55.5472746876
 10
0.3733131148
 20
55.5996278412
 10
0.4464242521
 20
55.6589507344
 10
0.5119457316
 20
55.7260084992
 10
0.5695142878
 20
55.8000360036
 10
0.6186696204
 20
55.8748068939
 10
0.6578764372
 20
55.9490706396
 10
0.6886700306
 20
56.0240777712
 10
0.715195977
 20
56.097353527
 10
0.7383686382
 20
56.1681248392
 10
0.7572736525
 20
56.2371647756
 10
0.7733135114
 20
56.3043177778
 10
0.7865145271
 20
56.3686411169
 10
0.7968503875
 20
56.4310775217
 10
0.8056446473
 20
56.4942996207
 10
0.8131774223
 20
56.5587599531
 10
0.8191685969
 20
56.6240059797
 10
0.8241013786
 20
56.6913527112
 10
0.8282790521
 20
56.7611799236
 10
0.8313983327
 20
56.8331078409
 10
0.8330325745
 20
56.9073121452
 10
0.8331468806
 20
56.9838092238
 10
0.8317761478
 20
57.0625826893
 10
0.82859842
 20
57.1437590621
 10
0.8240637451
 20
57.2273597931
 10
0.8177220753
 20
57.3133634313
 10
0.8079013108
 20
57.4018321439
 10
0.7949305426
 20
57.4929106707
 10
0.7784806797
 20
57.5864542719
 10
0.7558923502
 20
57.6820908952
 10
0.7273639963
 20
57.7817158952
 10
0.6926971757
 20
57.8834339174
 10
0.6486371897
 20
57.9811868457
 10
0.5931315531
 20
58.0756568082
 10
0.5282327512
 20
58.1661616769
 10
0.4568435414
 20
58.2445969516
 10
0.3805061477
 20
58.3080218039
 10
0.297678346
 20
58.3593770623
 10
0.2066362219
 20
58.3993807125
 10
0.1068051371
 20
58.4282720831
 10
-0.0012402702
 20
58.4458118456
 10
-0.1175
 20
58.452
  0
LWPOLYLINE
  5
31D
100
AcDbEntity
  8
0
100
AcDbPolyline
 62
7
  6
CONTINUOUS
 90
37
 70
0
 10
-0.1175
 20
58.452
 10
-0.2302249878
 20
58.4452433919
 10
-0.3348516386
 20
58.4281113125
 10
-0.4313799523
 20
58.4006037618
 10
-0.5191938314
 20
58.3627304835
 10
-0.5989093734
 20
58.3144817339
 10
-0.672374871
 20
58.255828282
 10
-0.740431403
 20
58.1863280233
 10
-0.8022378905
 20
58.1064230625
 10
-0.8571193904
 20
58.0174104818
 10
-0.9045376499
 20
57.918776515
 10
-0.9450309217
 20
57.8110349283
 10
-0.9795390209
 20
57.6970241037
 10
-1.0081787286
 20
57.5766588748
 10
-1.0308332637
 20
57.4500244079
 10
-1.0480920968
 20
57.3202145832
 10
-1.0600106748
 20
57.1856023531
 10
-1.0665335509
 20
57.0478147651
 10
-1.0680838555
 20
56.9148268421
 10
-1.0645671015
 20
56.7898433814
 10
-1.0560777759
 20
56.6696595856
 10
-1.0433224702
 20
56.5526360853
 10
-1.027387886
 20
56.4390170457
 10
-1.0071873217
 20
56.3285583016
 10
-0.9801672643
 20
56.2188879874
 10
-0.9456263676
 20
56.1063287421
 10
-0.9042659779
 20
55.9945579267
 10
-0.8556366213
 20
55.892235759
 10
-0.7989839351
 20
55.8018885505
 10
-0.735062282
 20
55.7209899896
 10
-0.6656852771
 20
55.6506213597
 10
-0.5921992065
 20
55.5911764475
 10
-0.513257784
 20
55.5422614663
 10
-0.4266357654
 20
55.5037763387
 10
-0.3315914028
 20
55.4756877055
 10
-0.2288664442
 20
55.458028926
 10
-0.1184608896
 20
55.4508
  0
LWPOLYLINE
  5
31E
100
AcDbEntity
  8
0
100
AcDbPolyline
 62
7
  6
CONTINUOUS
 90
10
 70
0
 10
1.846016
 20
56.8861843746
 10
1.9276225236
 20
56.8886386515
 10
2.0068775906
 20
56.8870734027
 10
2.0837812011
 20
56.8814886281
 10
2.1586829067
 20
56.8720385959
 10
2.2312331557
 20
56.8585690379
 10
2.3003832932
 20
56.8406171496
 10
2.3657837673
 20
56.8180286628
 10
2.4277841299
 20
56.7909578457
 10
2.4863843809
 20
56.7594046983
  0
LINE
  5
31F
100
AcDbEntity
  8
0
100
AcDbLine
 62
7
  6
CONTINUOUS
 10
-41.5
 20
54.9
 11
41.5
 21
54.9
  0
LINE
  5
320
100
AcDbEntity
  8
0
100
AcDbLine
 62
7
  6
CONTINUOUS
 10
41.5
 20
55.1
 11
-41.5
 21
55.1
  0
LINE
  5
321
100
AcDbEntity
  8
0
100
AcDbLine
 62
7
  6
CONTINUOUS
 10
-2.400816
 20
55.5
 11
-2.118684
 21
55.5
  0
LINE
  5
322
100
AcDbEntity
  8
RACCORDO
100
AcDbLine
 62
250
  6
CONTINUOUS
 10
67.4667094077
 20
57.6
 11
67.0
 21
57.6
  0
LINE
  5
323
100
AcDbEntity
  8
RACCORDO
100
AcDbLine
 62
250
  6
CONTINUOUS
 10
66.3469076856
 20
57.9
 11
67.0
 21
57.9000000014
  0
LINE
  5
324
100
AcDbEntity
  8
0
100
AcDbLine
 62
7
  6
CONTINUOUS
 10
-2.118684
 20
58.4028
 11
-2.368336
 21
58.4028
  0
LWPOLYLINE
  5
325
100
AcDbEntity
  8
0
100
AcDbPolyline
 62
7
  6
CONTINUOUS
 90
16
 70
0
 10
2.1009843809
 20
58.1858843809
 10
2.1631882126
 20
58.1830856456
 10
2.2221157576
 20
58.1762928514
 10
2.2777670159
 20
58.1655059981
 10
2.3304777087
 20
58.1509390001
 10
2.3799121147
 20
58.1323779431
 10
2.425063071
 20
58.1091810845
 10
2.4656637894
 20
58.0812365017
 10
2.501981058
 20
58.0486561173
 10
2.533808078
 20
58.0111339559
 10
2.5611109424
 20
57.9682155073
 10
2.5839235582
 20
57.9203552818
 10
2.6021408478
 20
57.8686108342
 10
2.6157277853
 20
57.8133346828
 10
2.6247193966
 20
57.7541743094
 10
2.6291156817
 20
57.6911297139
  0
LWPOLYLINE
  5
326
100
AcDbEntity
  8
0
100
AcDbPolyline
 62
7
  6
CONTINUOUS
 90
10
 70
0
 10
-0.1175
 20
58.1858843809
 10
-0.0686934128
 20
58.1833849858
 10
-0.0216238033
 20
58.1780283994
 10
0.0237088287
 20
58.1698146217
 10
0.0676500243
 20
58.1586422518
 10
0.1098542422
 20
58.1446126905
 10
0.1492848588
 20
58.1280301407
 10
0.1855963325
 20
58.108996003
 10
0.2191342048
 20
58.0874088767
 10
0.2498984756
 20
58.0632687617
  0
LWPOLYLINE
  5
327
100
AcDbEntity
  8
0
100
AcDbPolyline
 62
7
  6
CONTINUOUS
 90
23
 70
0
 10
11.4994832792
 20
69.6159885716
 10
11.4925408922
 20
69.6230155778
 10
11.4370017967
 20
69.6369677137
 10
11.3251144974
 20
69.6508164888
 10
11.1576881027
 20
69.6645633873
 10
10.9371499374
 20
69.6780091087
 10
10.6627262552
 20
69.6911492651
 10
10.3351908025
 20
69.7039882444
 10
9.9592921435
 20
69.7163399086
 10
9.5343257102
 20
69.7281971585
 10
9.0609960705
 20
69.7395670934
 10
8.546165493
 20
69.7502848735
 10
7.9892293808
 20
69.7603409982
 10
7.3907923308
 20
69.769744968
 10
6.7595304014
 20
69.7783604457
 10
6.094965391
 20
69.7861759441
 10
5.3975755012
 20
69.7932029504
 10
4.6774713954
 20
69.7993395878
 10
3.9343221667
 20
69.8045728853
 10
3.1684587218
 20
69.8089158139
 10
2.3909844444
 20
69.8123054106
 10
1.6056004622
 20
69.8147206876
 10
0.0
 20
69.8166912456
  0
LINE
  5
328
100
AcDbEntity
  8
DRAFT
100
AcDbLine
 62
7
  6
CONTINUOUS
 10
60.3621154889
 20
68.1378845111
 11
60.3621154889
 21
64.0
  0
LINE
  5
329
100
AcDbEntity
  8
DRAFT
100
AcDbLine
 62
7
  6
CONTINUOUS
 10
60.3621154889
 20
-68.1378845111
 11
60.3621154889
 21
-64.0
  0
LINE
  5
32A
100
AcDbEntity
  8
DRAFT
100
AcDbLine
 62
7
  6
CONTINUOUS
 10
60.5
 20
68.0
 11
60.5
 21
64.0
  0
LINE
  5
32B
100
AcDbEntity
  8
DRAFT
100
AcDbLine
 62
7
  6
CONTINUOUS
 10
60.5
 20
-68.0
 11
60.5
 21
-64.0
  0
LINE
  5
32C
100
AcDbEntity
  8
DRAFT
100
AcDbLine
 62
250
  6
CONTINUOUS
 10
62.0
 20
62.5
 11
62.0
 21
62.3621154889
  0
LINE
  5
32D
100
AcDbEntity
  8
DRAFT
100
AcDbLine
 62
250
  6
CONTINUOUS
 10
62.0
 20
-62.5
 11
62.0
 21
-62.3621154889
  0
LINE
  5
32E
100
AcDbEntity
  8
DRAFT
100
AcDbLine
 62
250
  6
CONTINUOUS
 10
62.0
 20
-68.0
 11
62.0
 21
-68.1378845111
  0
LINE
  5
32F
100
AcDbEntity
  8
RACCORDO
100
AcDbLine
 62
250
  6
CONTINUOUS
 10
62.0
 20
-68.2731956082
 11
62.0
 21
-70.0
  0
LINE
  5
330
100
AcDbEntity
  8
DRAFT
100
AcDbLine
 62
250
  6
CONTINUOUS
 10
62.0
 20
68.0
 11
62.0
 21
68.1378845111
  0
LINE
  5
331
100
AcDbEntity
  8
RACCORDO
100
AcDbLine
 62
250
  6
CONTINUOUS
 10
62.0
 20
68.2731956082
 11
62.0
 21
70.0
  0
LWPOLYLINE
  5
332
100
AcDbEntity
  8
RACCORDO
100
AcDbPolyline
 62
250
  6
CONTINUOUS
 90
10
 70
0
 10
67.3730275467
 20
58.5189984384
 10
67.3679609618
 20
58.4348144989
 10
67.352807536
 20
58.3518526548
 10
67.3277872525
 20
58.271317269
 10
67.2932633325
 20
58.1943774791
 10
67.2497369623
 20
58.1221502255
 10
67.197840017
 20
58.0556840362
 10
67.1383258882
 20
57.9959438053
 10
67.0720585467
 20
57.9437967859
 10
67.0
 20
57.9
  0
LWPOLYLINE
  5
333
100
AcDbEntity
  8
RACCORDO
100
AcDbPolyline
 62
7
  6
CONTINUOUS
 90
10
 70
0
 10
67.4499774015
 20
58.5538573292
 10
67.4437117056
 20
58.4603598463
 10
67.425015553
 20
58.3685385671
 10
67.3942239843
 20
58.280038955
 10
67.3518887929
 20
58.1964469481
 10
67.2987686375
 20
58.119260539
 10
67.2358154463
 20
58.0498629299
 10
67.1641573581
 20
57.9894977456
 10
67.0850785063
 20
57.9392467474
 10
66.9999960061
 20
57.9000104475
  0
LWPOLYLINE
  5
334
100
AcDbEntity
  8
RACCORDO
100
AcDbPolyline
 62
250
  6
CONTINUOUS
 90
10
 70
0
 10
66.3469076856
 20
57.9
 10
66.3496916519
 20
57.9329840371
 10
66.3563553654
 20
57.9658478581
 10
66.3668933101
 20
57.9985914631
 10
66.3810120156
 20
58.0313709239
 10
66.3989789284
 20
58.0640301687
 10
66.4216147063
 20
58.096100982
 10
66.4491531848
 20
58.1274272921
 10
66.4812400433
 20
58.1581651708
 10
66.5177726352
 20
58.1883146181
  0
LWPOLYLINE
  5
335
100
AcDbEntity
  8
RACCORDO
100
AcDbPolyline
 62
250
  6
CONTINUOUS
 90
22
 70
0
 10
47.9843389257
 20
-69.35536535
 10
47.9937741539
 20
-69.3095194289
 10
48.000767205
 20
-69.2765580976
 10
48.0095775367
 20
-69.2376481374
 10
48.0202564201
 20
-69.1931396669
 10
48.0327525841
 20
-69.1436267656
 10
48.0471825062
 20
-69.0905655819
 10
48.0636711251
 20
-69.0347376769
 10
48.0820935021
 20
-68.9767984035
 10
48.1021912976
 20
-68.9183926839
 10
48.1239250197
 20
-68.8606079055
 10
48.1473341603
 20
-68.8037516969
 10
48.172278856
 20
-68.7483391577
 10
48.198752086
 20
-68.6947016316
 10
48.226760871
 20
-68.6433645105
 10
48.2561864097
 20
-68.5950439844
 10
48.2871856928
 20
-68.5499384633
 10
48.3196017296
 20
-68.5083577462
 10
48.3528447463
 20
-68.4711367747
 10
48.3867181516
 20
-68.4386395033
 10
48.4214185367
 20
-68.4107488218
 10
48.4569459017
 20
-68.3875344722
  0
LWPOLYLINE
  5
336
100
AcDbEntity
  8
ASSI
100
AcDbPolyline
 62
7
  6
CONTINUOUS
 90
22
 70
0
 10
22.5005167208
 20
-69.6159885716
 10
22.5074591078
 20
-69.6089615654
 10
22.5629982033
 20
-69.5950094295
 10
22.6748855026
 20
-69.5811606544
 10
22.8423118973
 20
-69.5674137558
 10
23.0628500626
 20
-69.5539680345
 10
23.3372737448
 20
-69.540827878
 10
23.6648091975
 20
-69.5279888988
 10
24.0407078565
 20
-69.5156372346
 10
24.4656742898
 20
-69.5037799847
 10
24.9390039295
 20
-69.4924100498
 10
25.453834507
 20
-69.4816922696
 10
26.0107706192
 20
-69.471636145
 10
26.6092076692
 20
-69.4622321751
 10
27.2404695986
 20
-69.4536166975
 10
27.905034609
 20
-69.445801199
 10
28.6024244988
 20
-69.4387741928
 10
29.3225286046
 20
-69.4326375554
 10
30.0656778333
 20
-69.4274042579
 10
30.8315412782
 20
-69.4230613292
 10
31.6090155556
 20
-69.4196717325
 10
32.3943995378
 20
-69.4172564555
  0
LWPOLYLINE
  5
337
100
AcDbEntity
  8
ASSI
100
AcDbPolyline
 62
7
  6
CONTINUOUS
 90
23
 70
0
 10
67.6159885716
 20
-17.0005167208
 10
67.6089615654
 20
-17.0074591078
 10
67.5950094295
 20
-17.0629982033
 10
67.5811606544
 20
-17.1748855026
 10
67.5674137558
 20
-17.3423118973
 10
67.5539680345
 20
-17.5628500626
 10
67.540827878
 20
-17.8372737448
 10
67.5279888988
 20
-18.1648091975
 10
67.5156372346
 20
-18.5407078565
 10
67.5037799847
 20
-18.9656742898
 10
67.4924100498
 20
-19.4390039295
 10
67.4816922696
 20
-19.953834507
 10
67.471636145
 20
-20.5107706192
 10
67.4622321751
 20
-21.1092076692
 10
67.4536166975
 20
-21.7404695986
 10
67.445801199
 20
-22.405034609
 10
67.4387741928
 20
-23.1024244988
 10
67.4326375554
 20
-23.8225286046
 10
67.4274042579
 20
-24.5656778333
 10
67.4230613292
 20
-25.3315412782
 10
67.4196717325
 20
-26.1090155556
 10
67.4172564555
 20
-26.8943995378
 10
67.4152858976
 20
-28.5
  0
LINE
  5
338
100
AcDbEntity
  8
DRAFT
100
AcDbLine
 62
7
  6
CONTINUOUS
 10
62.0
 20
62.3621154889
 11
66.1378845111
 21
62.3621154889
  0
LINE
  5
339
100
AcDbEntity
  8
DRAFT
100
AcDbLine
 62
7
  6
CONTINUOUS
 10
-62.0
 20
62.3621154889
 11
-66.1378845111
 21
62.3621154889
  0
LINE
  5
33A
100
AcDbEntity
  8
DRAFT
100
AcDbLine
 62
7
  6
CONTINUOUS
 10
62.0
 20
62.5
 11
66.0
 21
62.5
  0
LINE
  5
33B
100
AcDbEntity
  8
DRAFT
100
AcDbLine
 62
7
  6
CONTINUOUS
 10
-62.0
 20
62.5
 11
-66.0
 21
62.5
  0
LINE
  5
33C
100
AcDbEntity
  8
DRAFT
100
AcDbLine
 62
250
  6
CONTINUOUS
 10
60.5
 20
64.0
 11
60.3621154889
 21
64.0
  0
LINE
  5
33D
100
AcDbEntity
  8
DRAFT
100
AcDbLine
 62
250
  6
CONTINUOUS
 10
-60.5
 20
64.0
 11
-60.3621154889
 21
64.0
  0
LINE
  5
33E
100
AcDbEntity
  8
DRAFT
100
AcDbLine
 62
250
  6
CONTINUOUS
 10
66.0
 20
64.0
 11
66.1378845111
 21
64.0
  0
LINE
  5
33F
100
AcDbEntity
  8
DRAFT
100
AcDbLine
 62
250
  6
CONTINUOUS
 10
-66.0
 20
64.0
 11
-66.1378845111
 21
64.0
  0
LINE
  5
340
100
AcDbEntity
  8
RACCORDO
100
AcDbLine
 62
250
  6
CONTINUOUS
 10
66.2731956082
 20
64.0
 11
68.0
 21
64.0
  0
LINE
  5
341
100
AcDbEntity
  8
RACCORDO
100
AcDbLine
 62
250
  6
CONTINUOUS
 10
-66.2731956082
 20
64.0
 11
-68.0
 21
64.0
  0
LWPOLYLINE
  5
342
100
AcDbEntity
  8
RACCORDO
100
AcDbPolyline
 62
7
  6
CONTINUOUS
 90
10
 70
0
 10
-55.0538573292
 20
69.4499774015
 10
-54.9603598463
 20
69.4437117056
 10
-54.8685385671
 20
69.425015553
 10
-54.780038955
 20
69.3942239843
 10
-54.6964469481
 20
69.3518887929
 10
-54.619260539
 20
69.2987686375
 10
-54.5498629299
 20
69.2358154463
 10
-54.4894977456
 20
69.1641573581
 10
-54.4392467474
 20
69.0850785063
 10
-54.4000104475
 20
68.9999960061
  0
LWPOLYLINE
  5
343
100
AcDbEntity
  8
RACCORDO
100
AcDbPolyline
 62
250
  6
CONTINUOUS
 90
10
 70
0
 10
-54.4
 20
68.3469076856
 10
-54.4329840371
 20
68.3496916519
 10
-54.4658478581
 20
68.3563553654
 10
-54.4985914631
 20
68.3668933101
 10
-54.5313709239
 20
68.3810120156
 10
-54.5640301687
 20
68.3989789284
 10
-54.596100982
 20
68.4216147063
 10
-54.6274272921
 20
68.4491531848
 10
-54.6581651708
 20
68.4812400433
 10
-54.6883146181
 20
68.5177726352
  0
LWPOLYLINE
  5
344
100
AcDbEntity
  8
RACCORDO
100
AcDbPolyline
 62
250
  6
CONTINUOUS
 90
3
 70
0
 10
67.3730280729
 20
51.4810015616
 10
67.3678036156
 20
51.4818967486
 10
67.35536535
 20
51.4843389257
  0
LWPOLYLINE
  5
345
100
AcDbEntity
  8
RACCORDO
100
AcDbPolyline
 62
250
  6
CONTINUOUS
 90
22
 70
0
 10
67.35536535
 20
51.4843389257
 10
67.3095194289
 20
51.4937741539
 10
67.2765580976
 20
51.500767205
 10
67.2376481374
 20
51.5095775367
 10
67.1931396669
 20
51.5202564201
 10
67.1436267656
 20
51.5327525841
 10
67.0905655819
 20
51.5471825062
 10
67.0347376769
 20
51.5636711251
 10
66.9767984035
 20
51.5820935021
 10
66.9183926839
 20
51.6021912976
 10
66.8606079055
 20
51.6239250197
 10
66.8037516969
 20
51.6473341603
 10
66.7483391577
 20
51.672278856
 10
66.6947016316
 20
51.698752086
 10
66.6433645105
 20
51.726760871
 10
66.5950439844
 20
51.7561864097
 10
66.5499384633
 20
51.7871856928
 10
66.5083577462
 20
51.8196017296
 10
66.4711367747
 20
51.8528447463
 10
66.4386395033
 20
51.8867181516
 10
66.4107488218
 20
51.9214185367
 10
66.3875344722
 20
51.9569459017
  0
LWPOLYLINE
  5
346
100
AcDbEntity
  8
ASSI
100
AcDbPolyline
 62
7
  6
CONTINUOUS
 90
22
 70
0
 10
67.6159885716
 20
17.0005167208
 10
67.6089615654
 20
17.0074591078
 10
67.5950094295
 20
17.0629982033
 10
67.5811606544
 20
17.1748855026
 10
67.5674137558
 20
17.3423118973
 10
67.5539680345
 20
17.5628500626
 10
67.540827878
 20
17.8372737448
 10
67.5279888988
 20
18.1648091975
 10
67.5156372346
 20
18.5407078565
 10
67.5037799847
 20
18.9656742898
 10
67.4924100498
 20
19.4390039295
 10
67.4816922696
 20
19.953834507
 10
67.471636145
 20
20.5107706192
 10
67.4622321751
 20
21.1092076692
 10
67.4536166975
 20
21.7404695986
 10
67.445801199
 20
22.405034609
 10
67.4387741928
 20
23.1024244988
 10
67.4326375554
 20
23.8225286046
 10
67.4274042579
 20
24.5656778333
 10
67.4230613292
 20
25.3315412782
 10
67.4196717325
 20
26.1090155556
 10
67.4172564555
 20
26.8943995378
  0
LWPOLYLINE
  5
347
100
AcDbEntity
  8
0
100
AcDbPolyline
 62
7
  6
CONTINUOUS
 90
23
 70
0
 10
22.5005167208
 20
69.6159885716
 10
22.5074591078
 20
69.6089615654
 10
22.5629982033
 20
69.5950094295
 10
22.6748855026
 20
69.5811606544
 10
22.8423118973
 20
69.5674137558
 10
23.0628500626
 20
69.5539680345
 10
23.3372737448
 20
69.540827878
 10
23.6648091975
 20
69.5279888988
 10
24.0407078565
 20
69.5156372346
 10
24.4656742898
 20
69.5037799847
 10
24.9390039295
 20
69.4924100498
 10
25.453834507
 20
69.4816922696
 10
26.0107706192
 20
69.471636145
 10
26.6092076692
 20
69.4622321751
 10
27.2404695986
 20
69.4536166975
 10
27.905034609
 20
69.445801199
 10
28.6024244988
 20
69.4387741928
 10
29.3225286046
 20
69.4326375554
 10
30.0656778333
 20
69.4274042579
 10
30.8315412782
 20
69.4230613292
 10
31.6090155556
 20
69.4196717325
 10
32.3943995378
 20
69.4172564555
 10
34.0
 20
69.4152858976
  0
LWPOLYLINE
  5
348
100
AcDbEntity
  8
RACCORDO
100
AcDbPolyline
 62
7
  6
CONTINUOUS
 90
10
 70
0
 10
67.4499522016
 20
51.4461426692
 10
67.443691572
 20
51.5396398783
 10
67.4250001074
 20
51.6314614915
 10
67.3942127841
 20
51.7199619413
 10
67.3518813526
 20
51.8035551804
 10
67.2987644493
 20
51.880743105
 10
67.2358140006
 20
51.9501424036
 10
67.1641581636
 20
52.010509347
 10
67.0850811076
 20
52.060762078
 10
67.0
 20
52.1
  0
LWPOLYLINE
  5
349
100
AcDbEntity
  8
RACCORDO
100
AcDbPolyline
 62
250
  6
CONTINUOUS
 90
10
 70
0
 10
67.3730458435
 20
51.4810015622
 10
67.3679762704
 20
51.5651859498
 10
67.3528200679
 20
51.6481479856
 10
67.3277972478
 20
51.7286833702
 10
67.2932710482
 20
51.8056230298
 10
67.249742661
 20
51.8778500874
 10
67.1978439561
 20
51.9443160751
 10
67.1383283094
 20
52.0040561548
 10
67.0720596661
 20
52.0562031229
 10
67.0
 20
52.1
  0
LINE
  5
34A
100
AcDbEntity
  8
RACCORDO
100
AcDbLine
 62
250
  6
CONTINUOUS
 10
67.4595098343
 20
58.385206837
 11
67.4617948643
 21
58.2767211346
  0
LINE
  5
34B
100
AcDbEntity
  8
RACCORDO
100
AcDbLine
 62
250
  6
CONTINUOUS
 10
67.4617948643
 20
58.2767211346
 11
67.4637031442
 21
58.1464991626
  0
LINE
  5
34C
100
AcDbEntity
  8
RACCORDO
100
AcDbLine
 62
250
  6
CONTINUOUS
 10
67.4637031442
 20
58.1464991626
 11
67.4657266139
 21
57.9222973813
  0
LWPOLYLINE
  5
34D
100
AcDbEntity
  8
ASSI
100
AcDbPolyline
 62
7
  6
CONTINUOUS
 90
22
 70
0
 10
67.4172564555
 20
-30.1056004622
 10
67.4196717325
 20
-30.8909844444
 10
67.4230613292
 20
-31.6684587218
 10
67.4274042579
 20
-32.4343221667
 10
67.4326375554
 20
-33.1774713954
 10
67.4387741928
 20
-33.8975755012
 10
67.445801199
 20
-34.594965391
 10
67.4536166975
 20
-35.2595304014
 10
67.4622321751
 20
-35.8907923308
 10
67.471636145
 20
-36.4892293808
 10
67.4816922696
 20
-37.046165493
 10
67.4924100498
 20
-37.5609960705
 10
67.5037799847
 20
-38.0343257102
 10
67.5156372346
 20
-38.4592921435
 10
67.5279888988
 20
-38.8351908025
 10
67.540827878
 20
-39.1627262552
 10
67.5539680345
 20
-39.4371499374
 10
67.5674137558
 20
-39.6576881027
 10
67.5811606544
 20
-39.8251144974
 10
67.5950094295
 20
-39.9370017967
 10
67.6089615654
 20
-39.9925408922
 10
67.6159885716
 20
-39.9994832792
  0
LWPOLYLINE
  5
34E
100
AcDbEntity
  8
ASSI
100
AcDbPolyline
 62
7
  6
CONTINUOUS
 90
22
 70
0
 10
67.8147206876
 20
-26.8943995378
 10
67.8123054106
 20
-26.1090155556
 10
67.8089158139
 20
-25.3315412782
 10
67.8045728853
 20
-24.5656778333
 10
67.7993395878
 20
-23.8225286046
 10
67.7932029504
 20
-23.1024244988
 10
67.7861759441
 20
-22.405034609
 10
67.7783604457
 20
-21.7404695986
 10
67.769744968
 20
-21.1092076692
 10
67.7603409982
 20
-20.5107706192
 10
67.7502848735
 20
-19.953834507
 10
67.7395670934
 20
-19.4390039295
 10
67.7281971585
 20
-18.9656742898
 10
67.7163399086
 20
-18.5407078565
 10
67.7039882444
 20
-18.1648091975
 10
67.6911492651
 20
-17.8372737448
 10
67.6780091087
 20
-17.5628500626
 10
67.6645633873
 20
-17.3423118973
 10
67.6508164888
 20
-17.1748855026
 10
67.6369677137
 20
-17.0629982033
 10
67.6230155778
 20
-17.0074591078
 10
67.6159885716
 20
-17.0005167208
  0
LINE
  5
34F
100
AcDbEntity
  8
RACCORDO
100
AcDbLine
 62
250
  6
CONTINUOUS
 10
67.4657266139
 20
57.9222973813
 11
67.46665037
 21
57.6821426876
  0
LINE
  5
350
100
AcDbEntity
  8
ASSI
100
AcDbLine
 62
7
  6
CONTINUOUS
 10
67.4152858976
 20
-28.5
 11
67.4172564555
 21
-30.1056004622
  0
LINE
  5
351
100
AcDbEntity
  8
ASSI
100
AcDbLine
 62
7
  6
CONTINUOUS
 10
67.4172564555
 20
26.8943995378
 11
67.4152858976
 21
28.5
  0
LINE
  5
352
100
AcDbEntity
  8
ASSI
100
AcDbLine
 62
7
  6
CONTINUOUS
 10
67.8166912456
 20
-28.5
 11
67.8147206876
 21
-26.8943995378
  0
LINE
  5
353
100
AcDbEntity
  8
ASSI
100
AcDbLine
 62
7
  6
CONTINUOUS
 10
67.8147206876
 20
30.1056004622
 11
67.8166912456
 21
28.5
  0
LINE
  5
354
100
AcDbEntity
  8
DRAFT
100
AcDbLine
 62
7
  6
CONTINUOUS
 10
66.0
 20
-62.5
 11
66.0
 21
-64.0
  0
LINE
  5
355
100
AcDbEntity
  8
DRAFT
100
AcDbLine
 62
7
  6
CONTINUOUS
 10
66.0
 20
62.5
 11
66.0
 21
64.0
  0
LINE
  5
356
100
AcDbEntity
  8
DRAFT
100
AcDbLine
 62
7
  6
CONTINUOUS
 10
66.1378845111
 20
-62.3621154889
 11
66.1378845111
 21
-64.0
  0
LINE
  5
357
100
AcDbEntity
  8
DRAFT
100
AcDbLine
 62
7
  6
CONTINUOUS
 10
66.1378845111
 20
62.3621154889
 11
66.1378845111
 21
64.0
  0
LINE
  5
358
100
AcDbEntity
  8
RACCORDO
100
AcDbLine
 62
250
  6
CONTINUOUS
 10
66.2731956082
 20
-64.0
 11
66.2731956082
 21
64.0
  0
LINE
  5
359
100
AcDbEntity
  8
RACCORDO
100
AcDbLine
 62
250
  6
CONTINUOUS
 10
66.3469076856
 20
52.1
 11
66.3469076856
 21
57.9
  0
LINE
  5
35A
100
AcDbEntity
  8
RACCORDO
100
AcDbLine
 62
7
  6
CONTINUOUS
 10
67.0
 20
52.1
 11
67.0
 21
57.9
  0
LINE
  5
35B
100
AcDbEntity
  8
RACCORDO
100
AcDbLine
 62
250
  6
CONTINUOUS
 10
67.3730280729
 20
-64.0
 11
67.3730280729
 21
51.4810015616
  0
LINE
  5
35C
100
AcDbEntity
  8
RACCORDO
100
AcDbLine
 62
250
  6
CONTINUOUS
 10
67.3730280729
 20
58.5189984384
 11
67.3730280729
 21
64.0
  0
LINE
  5
35D
100
AcDbEntity
  8
RACCORDO
100
AcDbLine
 62
250
  6
CONTINUOUS
 10
67.46665037
 20
57.6821426876
 11
67.4667094077
 21
52.4
  0
LINE
  5
35E
100
AcDbEntity
  8
COPY
100
AcDbLine
 62
7
  6
CONTINUOUS
 10
68.0000003491
 20
64.0000001756
 11
68.0000003491
 21
-64.0000001756
  0
LINE
  5
35F
100
AcDbEntity
  8
DRAFT
100
AcDbLine
 62
7
  6
CONTINUOUS
 10
68.0
 20
-64.0
 11
68.0
 21
64.0
  0
LWPOLYLINE
  5
360
100
AcDbEntity
  8
ASSI
100
AcDbPolyline
 62
7
  6
CONTINUOUS
 90
23
 70
0
 10
67.4152858976
 20
28.5
 10
67.4172564555
 20
30.1056004622
 10
67.4196717325
 20
30.8909844444
 10
67.4230613292
 20
31.6684587218
 10
67.4274042579
 20
32.4343221667
 10
67.4326375554
 20
33.1774713954
 10
67.4387741928
 20
33.8975755012
 10
67.445801199
 20
34.594965391
 10
67.4536166975
 20
35.2595304014
 10
67.4622321751
 20
35.8907923308
 10
67.471636145
 20
36.4892293808
 10
67.4816922696
 20
37.046165493
 10
67.4924100498
 20
37.5609960705
 10
67.5037799847
 20
38.0343257102
 10
67.5156372346
 20
38.4592921435
 10
67.5279888988
 20
38.8351908025
 10
67.540827878
 20
39.1627262552
 10
67.5539680345
 20
39.4371499374
 10
67.5674137558
 20
39.6576881027
 10
67.5811606544
 20
39.8251144974
 10
67.5950094295
 20
39.9370017967
 10
67.6089615654
 20
39.9925408922
 10
67.6159885716
 20
39.9994832792
  0
LWPOLYLINE
  5
361
100
AcDbEntity
  8
ASSI
100
AcDbPolyline
 62
7
  6
CONTINUOUS
 90
23
 70
0
 10
67.8166912456
 20
28.5
 10
67.8147206876
 20
26.8943995378
 10
67.8123054106
 20
26.1090155556
 10
67.8089158139
 20
25.3315412782
 10
67.8045728853
 20
24.5656778333
 10
67.7993395878
 20
23.8225286046
 10
67.7932029504
 20
23.1024244988
 10
67.7861759441
 20
22.405034609
 10
67.7783604457
 20
21.7404695986
 10
67.769744968
 20
21.1092076692
 10
67.7603409982
 20
20.5107706192
 10
67.7502848735
 20
19.953834507
 10
67.7395670934
 20
19.4390039295
 10
67.7281971585
 20
18.9656742898
 10
67.7163399086
 20
18.5407078565
 10
67.7039882444
 20
18.1648091975
 10
67.6911492651
 20
17.8372737448
 10
67.6780091087
 20
17.5628500626
 10
67.6645633873
 20
17.3423118973
 10
67.6508164888
 20
17.1748855026
 10
67.6369677137
 20
17.0629982033
 10
67.6230155778
 20
17.0074591078
 10
67.6159885716
 20
17.0005167208
  0
LINE
  5
362
100
AcDbEntity
  8
RACCORDO
100
AcDbLine
 62
250
  6
CONTINUOUS
 10
67.4667094077
 20
52.4
 11
67.4661604494
 21
52.157089887
  0
LINE
  5
363
100
AcDbEntity
  8
RACCORDO
100
AcDbLine
 62
250
  6
CONTINUOUS
 10
67.4661604494
 20
52.157089887
 11
67.4644959227
 21
51.9247179249
  0
LINE
  5
364
100
AcDbEntity
  8
RACCORDO
100
AcDbLine
 62
250
  6
CONTINUOUS
 10
67.4644959227
 20
51.9247179249
 11
67.462795268
 21
51.7857260999
  0
LWPOLYLINE
  5
365
100
AcDbEntity
  8
RACCORDO
100
AcDbPolyline
 62
250
  6
CONTINUOUS
 90
10
 70
0
 10
67.462795268
 20
51.7857260999
 10
67.4606986175
 20
51.6663719179
 10
67.4595098768
 20
51.6147950063
 10
67.4582618739
 20
51.5698393188
 10
67.456952467
 20
51.5317708595
 10
67.4555837979
 20
51.5003236243
 10
67.4541954768
 20
51.4759881354
 10
67.4528007071
 20
51.4589279003
 10
67.4513862854
 20
51.4489794115
 10
67.4499522117
 20
51.4461426692
  0
LWPOLYLINE
  5
366
100
AcDbEntity
  8
RACCORDO
100
AcDbPolyline
 62
250
  6
CONTINUOUS
 90
10
 70
0
 10
47.9461426692
 20
-69.4499522117
 10
47.9494992017
 20
-69.4413363075
 10
47.952983617
 20
-69.4327375971
 10
47.9565959151
 20
-69.4241560804
 10
47.9603343805
 20
-69.4155917568
 10
47.9642007287
 20
-69.407044627
 10
47.9682001062
 20
-69.3985146934
 10
47.9723342286
 20
-69.390001957
 10
47.9766013804
 20
-69.3815064168
 10
47.9810015616
 20
-69.3730280729
  0
LWPOLYLINE
  5
367
100
AcDbEntity
  8
RACCORDO
100
AcDbPolyline
 62
250
  6
CONTINUOUS
 90
10
 70
0
 10
-47.9810015622
 20
69.3730458435
 10
-48.0651859498
 20
69.3679762704
 10
-48.1481479856
 20
69.3528200679
 10
-48.2286833702
 20
69.3277972478
 10
-48.3056230298
 20
69.2932710482
 10
-48.3778500874
 20
69.249742661
 10
-48.4443160751
 20
69.1978439561
 10
-48.5040561548
 20
69.1383283094
 10
-48.5562031229
 20
69.0720596661
 10
-48.6
 20
69.0
  0
LINE
  5
368
100
AcDbEntity
  8
RACCORDO
100
AcDbLine
 62
250
  6
CONTINUOUS
 10
-54.885206837
 20
69.4595098343
 11
-54.7767211346
 21
69.4617948643
  0
LINE
  5
369
100
AcDbEntity
  8
RACCORDO
100
AcDbLine
 62
250
  6
CONTINUOUS
 10
-54.7767211346
 20
69.4617948643
 11
-54.6464991626
 21
69.4637031442
  0
LINE
  5
36A
100
AcDbEntity
  8
RACCORDO
100
AcDbLine
 62
250
  6
CONTINUOUS
 10
-54.6464991626
 20
69.4637031442
 11
-54.4222973813
 21
69.4657266139
  0
LWPOLYLINE
  5
36B
100
AcDbEntity
  8
0
100
AcDbPolyline
 62
7
  6
CONTINUOUS
 90
22
 70
0
 10
35.6056004622
 20
69.4172564555
 10
36.3909844444
 20
69.4196717325
 10
37.1684587218
 20
69.4230613292
 10
37.9343221667
 20
69.4274042579
 10
38.6774713954
 20
69.4326375554
 10
39.3975755012
 20
69.4387741928
 10
40.094965391
 20
69.445801199
 10
40.7595304014
 20
69.4536166975
 10
41.3907923308
 20
69.4622321751
 10
41.9892293808
 20
69.471636145
 10
42.546165493
 20
69.4816922696
 10
43.0609960705
 20
69.4924100498
 10
43.5343257102
 20
69.5037799847
 10
43.9592921435
 20
69.5156372346
 10
44.3351908025
 20
69.5279888988
 10
44.6627262552
 20
69.540827878
 10
44.9371499374
 20
69.5539680345
 10
45.1576881027
 20
69.5674137558
 10
45.3251144974
 20
69.5811606544
 10
45.4370017967
 20
69.5950094295
 10
45.4925408922
 20
69.6089615654
 10
45.4994832792
 20
69.6159885716
  0
LWPOLYLINE
  5
36C
100
AcDbEntity
  8
0
100
AcDbPolyline
 62
7
  6
CONTINUOUS
 90
22
 70
0
 10
1.6056004622
 20
69.4172564555
 10
2.3909844444
 20
69.4196717325
 10
3.1684587218
 20
69.4230613292
 10
3.9343221667
 20
69.4274042579
 10
4.6774713954
 20
69.4326375554
 10
5.3975755012
 20
69.4387741928
 10
6.094965391
 20
69.445801199
 10
6.7595304014
 20
69.4536166975
 10
7.3907923308
 20
69.4622321751
 10
7.9892293808
 20
69.471636145
 10
8.546165493
 20
69.4816922696
 10
9.0609960705
 20
69.4924100498
 10
9.5343257102
 20
69.5037799847
 10
9.9592921435
 20
69.5156372346
 10
10.3351908025
 20
69.5279888988
 10
10.6627262552
 20
69.540827878
 10
10.9371499374
 20
69.5539680345
 10
11.1576881027
 20
69.5674137558
 10
11.3251144974
 20
69.5811606544
 10
11.4370017967
 20
69.5950094295
 10
11.4925408922
 20
69.6089615654
 10
11.4994832792
 20
69.6159885716
  0
LWPOLYLINE
  5
36D
100
AcDbEntity
  8
0
100
AcDbPolyline
 62
7
  6
CONTINUOUS
 90
22
 70
0
 10
-32.3943995378
 20
69.4172564555
 10
-31.6090155556
 20
69.4196717325
 10
-30.8315412782
 20
69.4230613292
 10
-30.0656778333
 20
69.4274042579
 10
-29.3225286046
 20
69.4326375554
 10
-28.6024244988
 20
69.4387741928
 10
-27.905034609
 20
69.445801199
 10
-27.2404695986
 20
69.4536166975
 10
-26.6092076692
 20
69.4622321751
 10
-26.0107706192
 20
69.471636145
 10
-25.453834507
 20
69.4816922696
 10
-24.9390039295
 20
69.4924100498
 10
-24.4656742898
 20
69.5037799847
 10
-24.0407078565
 20
69.5156372346
 10
-23.6648091975
 20
69.5279888988
 10
-23.3372737448
 20
69.540827878
 10
-23.0628500626
 20
69.5539680345
 10
-22.8423118973
 20
69.5674137558
 10
-22.6748855026
 20
69.5811606544
 10
-22.5629982033
 20
69.5950094295
 10
-22.5074591078
 20
69.6089615654
 10
-22.5005167208
 20
69.6159885716
  0
LWPOLYLINE
  5
36E
100
AcDbEntity
  8
0
100
AcDbPolyline
 62
7
  6
CONTINUOUS
 90
22
 70
0
 10
32.3943995378
 20
69.8147206876
 10
31.6090155556
 20
69.8123054106
 10
30.8315412782
 20
69.8089158139
 10
30.0656778333
 20
69.8045728853
 10
29.3225286046
 20
69.7993395878
 10
28.6024244988
 20
69.7932029504
 10
27.905034609
 20
69.7861759441
 10
27.2404695986
 20
69.7783604457
 10
26.6092076692
 20
69.769744968
 10
26.0107706192
 20
69.7603409982
 10
25.453834507
 20
69.7502848735
 10
24.9390039295
 20
69.7395670934
 10
24.4656742898
 20
69.7281971585
 10
24.0407078565
 20
69.7163399086
 10
23.6648091975
 20
69.7039882444
 10
23.3372737448
 20
69.6911492651
 10
23.0628500626
 20
69.6780091087
 10
22.8423118973
 20
69.6645633873
 10
22.6748855026
 20
69.6508164888
 10
22.5629982033
 20
69.6369677137
 10
22.5074591078
 20
69.6230155778
 10
22.5005167208
 20
69.6159885716
  0
LWPOLYLINE
  5
36F
100
AcDbEntity
  8
0
100
AcDbPolyline
 62
7
  6
CONTINUOUS
 90
22
 70
0
 10
-1.6056004622
 20
69.8147206876
 10
-2.3909844444
 20
69.8123054106
 10
-3.1684587218
 20
69.8089158139
 10
-3.9343221667
 20
69.8045728853
 10
-4.6774713954
 20
69.7993395878
 10
-5.3975755012
 20
69.7932029504
 10
-6.094965391
 20
69.7861759441
 10
-6.7595304014
 20
69.7783604457
 10
-7.3907923308
 20
69.769744968
 10
-7.9892293808
 20
69.7603409982
 10
-8.546165493
 20
69.7502848735
 10
-9.0609960705
 20
69.7395670934
 10
-9.5343257102
 20
69.7281971585
 10
-9.9592921435
 20
69.7163399086
 10
-10.3351908025
 20
69.7039882444
 10
-10.6627262552
 20
69.6911492651
 10
-10.9371499374
 20
69.6780091087
 10
-11.1576881027
 20
69.6645633873
 10
-11.3251144974
 20
69.6508164888
 10
-11.4370017967
 20
69.6369677137
 10
-11.4925408922
 20
69.6230155778
 10
-11.4994832792
 20
69.6159885716
  0
LWPOLYLINE
  5
370
100
AcDbEntity
  8
0
100
AcDbPolyline
 62
7
  6
CONTINUOUS
 90
22
 70
0
 10
-35.6056004622
 20
69.8147206876
 10
-36.3909844444
 20
69.8123054106
 10
-37.1684587218
 20
69.8089158139
 10
-37.9343221667
 20
69.8045728853
 10
-38.6774713954
 20
69.7993395878
 10
-39.3975755012
 20
69.7932029504
 10
-40.094965391
 20
69.7861759441
 10
-40.7595304014
 20
69.7783604457
 10
-41.3907923308
 20
69.769744968
 10
-41.9892293808
 20
69.7603409982
 10
-42.546165493
 20
69.7502848735
 10
-43.0609960705
 20
69.7395670934
 10
-43.5343257102
 20
69.7281971585
 10
-43.9592921435
 20
69.7163399086
 10
-44.3351908025
 20
69.7039882444
 10
-44.6627262552
 20
69.6911492651
 10
-44.9371499374
 20
69.6780091087
 10
-45.1576881027
 20
69.6645633873
 10
-45.3251144974
 20
69.6508164888
 10
-45.4370017967
 20
69.6369677137
 10
-45.4925408922
 20
69.6230155778
 10
-45.4994832792
 20
69.6159885716
  0
LINE
  5
371
100
AcDbEntity
  8
RACCORDO
100
AcDbLine
 62
250
  6
CONTINUOUS
 10
-54.4222973813
 20
69.4657266139
 11
-54.1821426876
 21
69.46665037
  0
LINE
  5
372
100
AcDbEntity
  8
0
100
AcDbLine
 62
7
  6
CONTINUOUS
 10
34.0
 20
69.4152858976
 11
35.6056004622
 21
69.4172564555
  0
LINE
  5
373
100
AcDbEntity
  8
0
100
AcDbLine
 62
7
  6
CONTINUOUS
 10
0.0
 20
69.4152858976
 11
1.6056004622
 21
69.4172564555
  0
LINE
  5
374
100
AcDbEntity
  8
0
100
AcDbLine
 62
7
  6
CONTINUOUS
 10
-34.0
 20
69.4152858976
 11
-32.3943995378
 21
69.4172564555
  0
LINE
  5
375
100
AcDbEntity
  8
0
100
AcDbLine
 62
7
  6
CONTINUOUS
 10
34.0
 20
69.8166912456
 11
32.3943995378
 21
69.8147206876
  0
LINE
  5
376
100
AcDbEntity
  8
0
100
AcDbLine
 62
7
  6
CONTINUOUS
 10
0.0
 20
69.8166912456
 11
-1.6056004622
 21
69.8147206876
  0
LINE
  5
377
100
AcDbEntity
  8
0
100
AcDbLine
 62
7
  6
CONTINUOUS
 10
-34.0
 20
69.8166912456
 11
-35.6056004622
 21
69.8147206876
  0
LINE
  5
378
100
AcDbEntity
  8
DRAFT
100
AcDbLine
 62
7
  6
CONTINUOUS
 10
-62.0
 20
68.0
 11
-60.5
 21
68.0
  0
LINE
  5
379
100
AcDbEntity
  8
DRAFT
100
AcDbLine
 62
7
  6
CONTINUOUS
 10
62.0
 20
68.0
 11
60.5
 21
68.0
  0
LINE
  5
37A
100
AcDbEntity
  8
DRAFT
100
AcDbLine
 62
7
  6
CONTINUOUS
 10
-62.0
 20
68.1378845111
 11
-60.3621154889
 21
68.1378845111
  0
LINE
  5
37B
100
AcDbEntity
  8
DRAFT
100
AcDbLine
 62
7
  6
CONTINUOUS
 10
62.0
 20
68.1378845111
 11
60.3621154889
 21
68.1378845111
  0
LINE
  5
37C
100
AcDbEntity
  8
RACCORDO
100
AcDbLine
 62
250
  6
CONTINUOUS
 10
62.0
 20
68.2731956082
 11
-62.0
 21
68.2731956082
  0
LINE
  5
37D
100
AcDbEntity
  8
RACCORDO
100
AcDbLine
 62
250
  6
CONTINUOUS
 10
-48.6
 20
68.3469076856
 11
-54.4
 21
68.3469076856
  0
LINE
  5
37E
100
AcDbEntity
  8
RACCORDO
100
AcDbLine
 62
7
  6
CONTINUOUS
 10
-48.6
 20
69.0
 11
-54.4
 21
69.0
  0
LINE
  5
37F
100
AcDbEntity
  8
RACCORDO
100
AcDbLine
 62
250
  6
CONTINUOUS
 10
62.0
 20
69.3730280729
 11
-47.9810015616
 21
69.3730280729
  0
LINE
  5
380
100
AcDbEntity
  8
RACCORDO
100
AcDbLine
 62
250
  6
CONTINUOUS
 10
-55.0189984384
 20
69.3730280729
 11
-62.0
 21
69.3730280729
  0
LINE
  5
381
100
AcDbEntity
  8
RACCORDO
100
AcDbLine
 62
250
  6
CONTINUOUS
 10
-54.1821426876
 20
69.46665037
 11
-48.9
 21
69.4667094077
  0
LINE
  5
382
100
AcDbEntity
  8
COPY
100
AcDbLine
 62
7
  6
CONTINUOUS
 10
-61.9999789838
 20
70.0000003491
 11
61.9999789838
 21
70.0000003491
  0
LINE
  5
383
100
AcDbEntity
  8
DRAFT
100
AcDbLine
 62
7
  6
CONTINUOUS
 10
62.0
 20
70.0
 11
-62.0
 21
70.0
  0
LINE
  5
384
100
AcDbEntity
  8
RACCORDO
100
AcDbLine
 62
250
  6
CONTINUOUS
 10
-48.9
 20
69.4667094077
 11
-48.657089887
 21
69.4661604494
  0
LINE
  5
385
100
AcDbEntity
  8
RACCORDO
100
AcDbLine
 62
250
  6
CONTINUOUS
 10
-48.657089887
 20
69.4661604494
 11
-48.4247179249
 21
69.4644959227
  0
LINE
  5
386
100
AcDbEntity
  8
RACCORDO
100
AcDbLine
 62
250
  6
CONTINUOUS
 10
-48.4247179249
 20
69.4644959227
 11
-48.2857260999
 21
69.462795268
  0
LWPOLYLINE
  5
387
100
AcDbEntity
  8
RACCORDO
100
AcDbPolyline
 62
250
  6
CONTINUOUS
 90
10
 70
0
 10
-48.2857260999
 20
69.462795268
 10
-48.1663719179
 20
69.4606986175
 10
-48.1147950063
 20
69.4595098768
 10
-48.0698393188
 20
69.4582618739
 10
-48.0317708595
 20
69.456952467
 10
-48.0003236243
 20
69.4555837979
 10
-47.9759881354
 20
69.4541954768
 10
-47.9589279003
 20
69.4528007071
 10
-47.9489794115
 20
69.4513862854
 10
-47.9461426692
 20
69.4499522117
  0
LWPOLYLINE
  5
388
100
AcDbEntity
  8
RACCORDO
100
AcDbPolyline
 62
250
  6
CONTINUOUS
 90
10
 70
0
 10
-55.0189984384
 20
69.3730275467
 10
-54.9348144989
 20
69.3679609618
 10
-54.8518526548
 20
69.352807536
 10
-54.771317269
 20
69.3277872525
 10
-54.6943774791
 20
69.2932633325
 10
-54.6221502255
 20
69.2497369623
 10
-54.5556840362
 20
69.197840017
 10
-54.4959438053
 20
69.1383258882
 10
-54.4437967859
 20
69.0720585467
 10
-54.4
 20
69.0
  0
LWPOLYLINE
  5
389
100
AcDbEntity
  8
RACCORDO
100
AcDbPolyline
 62
250
  6
CONTINUOUS
 90
10
 70
0
 10
67.4499522117
 20
51.4461426692
 10
67.4413363075
 20
51.4494992017
 10
67.4327375971
 20
51.452983617
 10
67.4241560804
 20
51.4565959151
 10
67.4155917568
 20
51.4603343805
 10
67.407044627
 20
51.4642007287
 10
67.3985146934
 20
51.4682001062
 10
67.390001957
 20
51.4723342286
 10
67.3815064168
 20
51.4766013804
 10
67.3730280729
 20
51.4810015616
  0
LWPOLYLINE
  5
38A
100
AcDbEntity
  8
ASSI
100
AcDbPolyline
 62
7
  6
CONTINUOUS
 90
23
 70
0
 10
67.6159885716
 20
-39.9994832792
 10
67.6230155778
 20
-39.9925408922
 10
67.6369677137
 20
-39.9370017967
 10
67.6508164888
 20
-39.8251144974
 10
67.6645633873
 20
-39.6576881027
 10
67.6780091087
 20
-39.4371499374
 10
67.6911492651
 20
-39.1627262552
 10
67.7039882444
 20
-38.8351908025
 10
67.7163399086
 20
-38.4592921435
 10
67.7281971585
 20
-38.0343257102
 10
67.7395670934
 20
-37.5609960705
 10
67.7502848735
 20
-37.046165493
 10
67.7603409982
 20
-36.4892293808
 10
67.769744968
 20
-35.8907923308
 10
67.7783604457
 20
-35.2595304014
 10
67.7861759441
 20
-34.594965391
 10
67.7932029504
 20
-33.8975755012
 10
67.7993395878
 20
-33.1774713954
 10
67.8045728853
 20
-32.4343221667
 10
67.8089158139
 20
-31.6684587218
 10
67.8123054106
 20
-30.8909844444
 10
67.8147206876
 20
-30.1056004622
 10
67.8166912456
 20
-28.5
  0
LWPOLYLINE
  5
38B
100
AcDbEntity
  8
RACCORDO
100
AcDbPolyline
 62
7
  6
CONTINUOUS
 90
10
 70
0
 10
-47.9461426692
 20
69.4499522016
 10
-48.0396398783
 20
69.443691572
 10
-48.1314614915
 20
69.4250001074
 10
-48.2199619413
 20
69.3942127841
 10
-48.3035551804
 20
69.3518813526
 10
-48.380743105
 20
69.2987644493
 10
-48.4501424036
 20
69.2358140006
 10
-48.510509347
 20
69.1641581636
 10
-48.560762078
 20
69.0850811076
 10
-48.6
 20
69.0
  0
LWPOLYLINE
  5
38C
100
AcDbEntity
  8
ASSI
100
AcDbPolyline
 62
7
  6
CONTINUOUS
 90
22
 70
0
 10
67.6159885716
 20
39.9994832792
 10
67.6230155778
 20
39.9925408922
 10
67.6369677137
 20
39.9370017967
 10
67.6508164888
 20
39.8251144974
 10
67.6645633873
 20
39.6576881027
 10
67.6780091087
 20
39.4371499374
 10
67.6911492651
 20
39.1627262552
 10
67.7039882444
 20
38.8351908025
 10
67.7163399086
 20
38.4592921435
 10
67.7281971585
 20
38.0343257102
 10
67.7395670934
 20
37.5609960705
 10
67.7502848735
 20
37.046165493
 10
67.7603409982
 20
36.4892293808
 10
67.769744968
 20
35.8907923308
 10
67.7783604457
 20
35.2595304014
 10
67.7861759441
 20
34.594965391
 10
67.7932029504
 20
33.8975755012
 10
67.7993395878
 20
33.1774713954
 10
67.8045728853
 20
32.4343221667
 10
67.8089158139
 20
31.6684587218
 10
67.8123054106
 20
30.8909844444
 10
67.8147206876
 20
30.1056004622
  0
LWPOLYLINE
  5
38D
100
AcDbEntity
  8
RACCORDO
100
AcDbPolyline
 62
250
  6
CONTINUOUS
 90
10
 70
0
 10
54.6883146181
 20
-68.5177726352
 10
54.6437743313
 20
-68.60965078
 10
54.6002592908
 20
-68.6958314541
 10
54.5587711432
 20
-68.7743309163
 10
54.5202648794
 20
-68.8433422342
 10
54.4856268522
 20
-68.9012768776
 10
54.4556543736
 20
-68.9468012836
 10
54.431037362
 20
-68.978867553
 10
54.4123424619
 20
-68.9967375715
 10
54.4
 20
-69.0
  0
LWPOLYLINE
  5
38E
100
AcDbEntity
  8
ASSI
100
AcDbPolyline
 62
7
  6
CONTINUOUS
 90
22
 70
0
 10
45.4994832792
 20
-69.6159885716
 10
45.4925408922
 20
-69.6230155778
 10
45.4370017967
 20
-69.6369677137
 10
45.3251144974
 20
-69.6508164888
 10
45.1576881027
 20
-69.6645633873
 10
44.9371499374
 20
-69.6780091087
 10
44.6627262552
 20
-69.6911492651
 10
44.3351908025
 20
-69.7039882444
 10
43.9592921435
 20
-69.7163399086
 10
43.5343257102
 20
-69.7281971585
 10
43.0609960705
 20
-69.7395670934
 10
42.546165493
 20
-69.7502848735
 10
41.9892293808
 20
-69.7603409982
 10
41.3907923308
 20
-69.769744968
 10
40.7595304014
 20
-69.7783604457
 10
40.094965391
 20
-69.7861759441
 10
39.3975755012
 20
-69.7932029504
 10
38.6774713954
 20
-69.7993395878
 10
37.9343221667
 20
-69.8045728853
 10
37.1684587218
 20
-69.8089158139
 10
36.3909844444
 20
-69.8123054106
 10
35.6056004622
 20
-69.8147206876
  0
LWPOLYLINE
  5
38F
100
AcDbEntity
  8
RACCORDO
100
AcDbPolyline
 62
250
  6
CONTINUOUS
 90
7
 70
0
 10
48.4569459017
 20
-68.3875344722
 10
48.4803159407
 20
-68.3751297974
 10
48.5038749039
 20
-68.3649718084
 10
48.5276227915
 20
-68.3570669957
 10
48.5515596033
 20
-68.3514197356
 10
48.5756853395
 20
-68.3480327941
 10
48.6
 20
-68.3469076856
  0
LWPOLYLINE
  5
390
100
AcDbEntity
  8
RACCORDO
100
AcDbPolyline
 62
250
  6
CONTINUOUS
 90
10
 70
0
 10
66.5177726352
 20
58.1883146181
 10
66.60965078
 20
58.1437743313
 10
66.6958314541
 20
58.1002592908
 10
66.7743309163
 20
58.0587711432
 10
66.8433422342
 20
58.0202648794
 10
66.9012768776
 20
57.9856268522
 10
66.9468012836
 20
57.9556543736
 10
66.978867553
 20
57.931037362
 10
66.9967375715
 20
57.9123424619
 10
67.0
 20
57.9
  0
LWPOLYLINE
  5
391
100
AcDbEntity
  8
0
100
AcDbPolyline
 62
7
  6
CONTINUOUS
 90
23
 70
0
 10
45.4994832792
 20
69.6159885716
 10
45.4925408922
 20
69.6230155778
 10
45.4370017967
 20
69.6369677137
 10
45.3251144974
 20
69.6508164888
 10
45.1576881027
 20
69.6645633873
 10
44.9371499374
 20
69.6780091087
 10
44.6627262552
 20
69.6911492651
 10
44.3351908025
 20
69.7039882444
 10
43.9592921435
 20
69.7163399086
 10
43.5343257102
 20
69.7281971585
 10
43.0609960705
 20
69.7395670934
 10
42.546165493
 20
69.7502848735
 10
41.9892293808
 20
69.7603409982
 10
41.3907923308
 20
69.769744968
 10
40.7595304014
 20
69.7783604457
 10
40.094965391
 20
69.7861759441
 10
39.3975755012
 20
69.7932029504
 10
38.6774713954
 20
69.7993395878
 10
37.9343221667
 20
69.8045728853
 10
37.1684587218
 20
69.8089158139
 10
36.3909844444
 20
69.8123054106
 10
35.6056004622
 20
69.8147206876
 10
34.0
 20
69.8166912456
  0
LWPOLYLINE
  5
392
100
AcDbEntity
  8
RACCORDO
100
AcDbPolyline
 62
250
  6
CONTINUOUS
 90
7
 70
0
 10
66.3875344722
 20
51.9569459017
 10
66.3751297974
 20
51.9803159407
 10
66.3649718084
 20
52.0038749039
 10
66.3570669957
 20
52.0276227915
 10
66.3514197356
 20
52.0515596033
 10
66.3480327941
 20
52.0756853395
 10
66.3469076856
 20
52.1
  0
LINE
  5
393
100
AcDbEntity
  8
DRAFT
100
AcDbLine
 62
7
  6
CONTINUOUS
 10
60.5
 20
-68.0
 11
60.3621154889
 21
-68.1378845111
  0
LINE
  5
394
100
AcDbEntity
  8
DRAFT
100
AcDbLine
 62
7
  6
CONTINUOUS
 10
66.0
 20
-62.5
 11
66.1378845111
 21
-62.3621154889
  0
LWPOLYLINE
  5
395
100
AcDbEntity
  8
RACCORDO
100
AcDbPolyline
 62
250
  6
CONTINUOUS
 90
9
 70
0
 10
55.0538573308
 20
-69.4499522117
 10
55.0510207602
 20
-69.4513862571
 10
55.0410724685
 20
-69.452800659
 10
55.0240124557
 20
-69.4541954175
 10
54.999677207
 20
-69.4555837396
 10
54.9682302373
 20
-69.4569524183
 10
54.9301620908
 20
-69.4582618323
 10
54.885206837
 20
-69.4595098343
 10
54.8336304063
 20
-69.4606985715
  0
LINE
  5
396
100
AcDbEntity
  8
DRAFT
100
AcDbLine
 62
7
  6
CONTINUOUS
 10
66.0
 20
62.5
 11
66.1378845111
 21
62.3621154889
  0
LINE
  5
397
100
AcDbEntity
  8
DRAFT
100
AcDbLine
 62
7
  6
CONTINUOUS
 10
60.5
 20
68.0
 11
60.3621154889
 21
68.1378845111
  0
LWPOLYLINE
  5
398
100
AcDbEntity
  8
RACCORDO
100
AcDbPolyline
 62
250
  6
CONTINUOUS
 90
8
 70
0
 10
67.4499522117
 20
58.5538573308
 10
67.4513862571
 20
58.5510207602
 10
67.452800659
 20
58.5410724685
 10
67.4541954175
 20
58.5240124557
 10
67.4555837396
 20
58.499677207
 10
67.4569524183
 20
58.4682302373
 10
67.4582618323
 20
58.4301620908
 10
67.4595098343
 20
58.385206837
  0
CIRCLE
  5
399
100
AcDbEntity
  8
RACCORDO
100
AcDbCircle
 62
7
  6
CONTINUOUS
 10
-51.5
 20
-55.0
 40
9.5
  0
CIRCLE
  5
39A
100
AcDbEntity
  8
RACCORDO
100
AcDbCircle
 62
250
  6
CONTINUOUS
 10
-51.5
 20
-55.0
 40
8.9999955871
  0
ARC
  5
39B
100
AcDbEntity
  8
COPY
100
AcDbCircle
 62
7
  6
CONTINUOUS
 10
-62.0
 20
-64.0
 40
6.000000429
100
AcDbArc
 50
180.0000016764
 51
270.0002006898
  0
ARC
  5
39C
100
AcDbEntity
  8
DRAFT
100
AcDbCircle
 62
7
  6
CONTINUOUS
 10
-62.0
 20
-64.0
 40
6.0
100
AcDbArc
 50
180.0
 51
270.0
  0
ARC
  5
39D
100
AcDbEntity
  8
RACCORDO
100
AcDbCircle
 62
250
  6
CONTINUOUS
 10
-62.0
 20
-64.0
 40
5.3730280639
100
AcDbArc
 50
180.0
 51
270.0
  0
ARC
  5
39E
100
AcDbEntity
  8
RACCORDO
100
AcDbCircle
 62
250
  6
CONTINUOUS
 10
-62.0
 20
-64.0
 40
4.27317607
100
AcDbArc
 50
180.0
 51
270.0
  0
ARC
  5
39F
100
AcDbEntity
  8
DRAFT
100
AcDbCircle
 62
7
  6
CONTINUOUS
 10
-62.0
 20
-64.0
 40
4.1378845111
100
AcDbArc
 50
180.0
 51
270.0
  0
ARC
  5
3A0
100
AcDbEntity
  8
DRAFT
100
AcDbCircle
 62
7
  6
CONTINUOUS
 10
-62.0
 20
-64.0
 40
4.0
100
AcDbArc
 50
180.0
 51
270.0
  0
CIRCLE
  5
3A1
100
AcDbEntity
  8
0
100
AcDbCircle
 62
7
  6
CONTINUOUS
 10
-51.5
 20
-55.0
 40
2.25
  0
CIRCLE
  5
3A2
100
AcDbEntity
  8
0
100
AcDbCircle
 62
7
  6
CONTINUOUS
 10
-51.5
 20
-55.0
 40
1.8
  0
ARC
  5
3A3
100
AcDbEntity
  8
DRAFT
100
AcDbCircle
 62
7
  6
CONTINUOUS
 10
-62.0
 20
-64.0
 40
1.6378845111
100
AcDbArc
 50
0.0
 51
90.0
  0
CIRCLE
  5
3A4
100
AcDbEntity
  8
0
100
AcDbCircle
 62
7
  6
CONTINUOUS
 10
-51.5
 20
-55.0
 40
1.5
  0
ARC
  5
3A5
100
AcDbEntity
  8
DRAFT
100
AcDbCircle
 62
7
  6
CONTINUOUS
 10
-62.0
 20
-64.0
 40
1.5
100
AcDbArc
 50
0.0
 51
90.0
  0
CIRCLE
  5
3A6
100
AcDbEntity
  8
RACCORDO
100
AcDbCircle
 62
7
  6
CONTINUOUS
 10
-51.5
 20
55.0
 40
9.5
  0
CIRCLE
  5
3A7
100
AcDbEntity
  8
RACCORDO
100
AcDbCircle
 62
250
  6
CONTINUOUS
 10
-51.5
 20
55.0
 40
8.9999955871
  0
ARC
  5
3A8
100
AcDbEntity
  8
COPY
100
AcDbCircle
 62
7
  6
CONTINUOUS
 10
-62.0
 20
64.0
 40
6.000000429
100
AcDbArc
 50
89.9997993102
 51
179.9999983236
  0
ARC
  5
3A9
100
AcDbEntity
  8
DRAFT
100
AcDbCircle
 62
7
  6
CONTINUOUS
 10
-62.0
 20
64.0
 40
6.0
100
AcDbArc
 50
90.0
 51
180.0
  0
ARC
  5
3AA
100
AcDbEntity
  8
RACCORDO
100
AcDbCircle
 62
250
  6
CONTINUOUS
 10
-62.0
 20
64.0
 40
5.3730280639
100
AcDbArc
 50
90.0
 51
180.0
  0
ARC
  5
3AB
100
AcDbEntity
  8
RACCORDO
100
AcDbCircle
 62
250
  6
CONTINUOUS
 10
-62.0
 20
64.0
 40
4.27317607
100
AcDbArc
 50
90.0
 51
180.0
  0
ARC
  5
3AC
100
AcDbEntity
  8
DRAFT
100
AcDbCircle
 62
7
  6
CONTINUOUS
 10
-62.0
 20
64.0
 40
4.1378845111
100
AcDbArc
 50
90.0
 51
180.0
  0
ARC
  5
3AD
100
AcDbEntity
  8
DRAFT
100
AcDbCircle
 62
7
  6
CONTINUOUS
 10
-62.0
 20
64.0
 40
4.0
100
AcDbArc
 50
90.0
 51
180.0
  0
CIRCLE
  5
3AE
100
AcDbEntity
  8
0
100
AcDbCircle
 62
7
  6
CONTINUOUS
 10
-51.5
 20
55.0
 40
2.25
  0
CIRCLE
  5
3AF
100
AcDbEntity
  8
0
100
AcDbCircle
 62
7
  6
CONTINUOUS
 10
-51.5
 20
55.0
 40
1.8
  0
ARC
  5
3B0
100
AcDbEntity
  8
DRAFT
100
AcDbCircle
 62
7
  6
CONTINUOUS
 10
-62.0
 20
64.0
 40
1.6378845111
100
AcDbArc
 50
270.0
 51
360.0
  0
CIRCLE
  5
3B1
100
AcDbEntity
  8
0
100
AcDbCircle
 62
7
  6
CONTINUOUS
 10
-51.5
 20
55.0
 40
1.5
  0
ARC
  5
3B2
100
AcDbEntity
  8
DRAFT
100
AcDbCircle
 62
7
  6
CONTINUOUS
 10
-62.0
 20
64.0
 40
1.5
100
AcDbArc
 50
270.0
 51
360.0
  0
CIRCLE
  5
3B3
100
AcDbEntity
  8
RACCORDO
100
AcDbCircle
 62
7
  6
CONTINUOUS
 10
-0.0
 20
-47.3
 40
4.8
  0
CIRCLE
  5
3B4
100
AcDbEntity
  8
RACCORDO
100
AcDbCircle
 62
250
  6
CONTINUOUS
 10
-0.0
 20
-47.3
 40
4.2999896071
  0
CIRCLE
  5
3B5
100
AcDbEntity
  8
0
100
AcDbCircle
 62
7
  6
CONTINUOUS
 10
-0.0
 20
-27.0
 40
11.25
  0
ARC
  5
3B6
100
AcDbEntity
  8
0
100
AcDbCircle
 62
7
  6
CONTINUOUS
 10
-0.0
 20
-27.0
 40
11.0
100
AcDbArc
 50
185.7391704773
 51
264.2608295227
  0
ARC
  5
3B7
100
AcDbEntity
  8
0
100
AcDbCircle
 62
7
  6
CONTINUOUS
 10
-0.0
 20
-27.0
 40
11.0
100
AcDbArc
 50
275.7391704773
 51
354.2608295227
  0
ARC
  5
3B8
100
AcDbEntity
  8
0
100
AcDbCircle
 62
7
  6
CONTINUOUS
 10
-0.0
 20
-27.0
 40
11.0
100
AcDbArc
 50
95.7391704773
 51
174.2608295227
  0
ARC
  5
3B9
100
AcDbEntity
  8
0
100
AcDbCircle
 62
7
  6
CONTINUOUS
 10
-0.0
 20
-27.0
 40
11.0
100
AcDbArc
 50
5.7391704773
 51
84.2608295227
  0
ARC
  5
3BA
100
AcDbEntity
  8
0
100
AcDbCircle
 62
7
  6
CONTINUOUS
 10
-0.0
 20
-27.0
 40
10.1299689469
100
AcDbArc
 50
6.233965798
 51
83.766034202
  0
ARC
  5
3BB
100
AcDbEntity
  8
0
100
AcDbCircle
 62
7
  6
CONTINUOUS
 10
-0.0
 20
-27.0
 40
10.1299689469
100
AcDbArc
 50
96.233965798
 51
173.766034202
  0
ARC
  5
3BC
100
AcDbEntity
  8
0
100
AcDbCircle
 62
7
  6
CONTINUOUS
 10
-0.0
 20
-27.0
 40
10.1299689469
100
AcDbArc
 50
186.233965798
 51
263.766034202
  0
ARC
  5
3BD
100
AcDbEntity
  8
0
100
AcDbCircle
 62
7
  6
CONTINUOUS
 10
-0.0
 20
-27.0
 40
10.1299689469
100
AcDbArc
 50
276.233965798
 51
353.766034202
  0
CIRCLE
  5
3BE
100
AcDbEntity
  8
RACCORDO
100
AcDbCircle
 62
7
  6
CONTINUOUS
 10
51.5
 20
-55.0
 40
9.5
  0
CIRCLE
  5
3BF
100
AcDbEntity
  8
RACCORDO
100
AcDbCircle
 62
250
  6
CONTINUOUS
 10
51.5
 20
-55.0
 40
8.9999955871
  0
ARC
  5
3C0
100
AcDbEntity
  8
COPY
100
AcDbCircle
 62
7
  6
CONTINUOUS
 10
62.0
 20
-64.0
 40
6.000000429
100
AcDbArc
 50
269.9997993102
 51
359.9999983234
  0
ARC
  5
3C1
100
AcDbEntity
  8
DRAFT
100
AcDbCircle
 62
7
  6
CONTINUOUS
 10
62.0
 20
-64.0
 40
6.0
100
AcDbArc
 50
270.0
 51
360.0
  0
ARC
  5
3C2
100
AcDbEntity
  8
RACCORDO
100
AcDbCircle
 62
250
  6
CONTINUOUS
 10
62.0
 20
-64.0
 40
5.3730280639
100
AcDbArc
 50
270.0
 51
360.0
  0
ARC
  5
3C3
100
AcDbEntity
  8
RACCORDO
100
AcDbCircle
 62
250
  6
CONTINUOUS
 10
62.0
 20
-64.0
 40
4.27317607
100
AcDbArc
 50
270.0
 51
360.0
  0
ARC
  5
3C4
100
AcDbEntity
  8
DRAFT
100
AcDbCircle
 62
7
  6
CONTINUOUS
 10
62.0
 20
-64.0
 40
4.1378845111
100
AcDbArc
 50
270.0
 51
360.0
  0
ARC
  5
3C5
100
AcDbEntity
  8
DRAFT
100
AcDbCircle
 62
7
  6
CONTINUOUS
 10
62.0
 20
-64.0
 40
4.0
100
AcDbArc
 50
270.0
 51
360.0
  0
CIRCLE
  5
3C6
100
AcDbEntity
  8
0
100
AcDbCircle
 62
7
  6
CONTINUOUS
 10
51.5
 20
-55.0
 40
2.25
  0
CIRCLE
  5
3C7
100
AcDbEntity
  8
0
100
AcDbCircle
 62
7
  6
CONTINUOUS
 10
51.5
 20
-55.0
 40
1.8
  0
ARC
  5
3C8
100
AcDbEntity
  8
DRAFT
100
AcDbCircle
 62
7
  6
CONTINUOUS
 10
62.0
 20
-64.0
 40
1.6378845111
100
AcDbArc
 50
90.0
 51
180.0
  0
CIRCLE
  5
3C9
100
AcDbEntity
  8
0
100
AcDbCircle
 62
7
  6
CONTINUOUS
 10
51.5
 20
-55.0
 40
1.5
  0
ARC
  5
3CA
100
AcDbEntity
  8
DRAFT
100
AcDbCircle
 62
7
  6
CONTINUOUS
 10
62.0
 20
-64.0
 40
1.5
100
AcDbArc
 50
90.0
 51
180.0
  0
CIRCLE
  5
3CB
100
AcDbEntity
  8
ASSI
100
AcDbCircle
 62
7
  6
CONTINUOUS
 10
-0.0
 20
27.0
 40
11.25
  0
ARC
  5
3CC
100
AcDbEntity
  8
0
100
AcDbCircle
 62
7
  6
CONTINUOUS
 10
-0.0
 20
27.0
 40
11.0
100
AcDbArc
 50
95.7391704773
 51
174.2608295227
  0
ARC
  5
3CD
100
AcDbEntity
  8
0
100
AcDbCircle
 62
7
  6
CONTINUOUS
 10
-0.0
 20
27.0
 40
11.0
100
AcDbArc
 50
5.7391704773
 51
84.2608295227
  0
ARC
  5
3CE
100
AcDbEntity
  8
0
100
AcDbCircle
 62
7
  6
CONTINUOUS
 10
-0.0
 20
27.0
 40
11.0
100
AcDbArc
 50
185.7391704773
 51
264.2608295227
  0
ARC
  5
3CF
100
AcDbEntity
  8
0
100
AcDbCircle
 62
7
  6
CONTINUOUS
 10
-0.0
 20
27.0
 40
11.0
100
AcDbArc
 50
275.7391704773
 51
354.2608295227
  0
ARC
  5
3D0
100
AcDbEntity
  8
0
100
AcDbCircle
 62
7
  6
CONTINUOUS
 10
-0.0
 20
27.0
 40
10.1299689469
100
AcDbArc
 50
186.233965798
 51
263.766034202
  0
ARC
  5
3D1
100
AcDbEntity
  8
0
100
AcDbCircle
 62
7
  6
CONTINUOUS
 10
-0.0
 20
27.0
 40
10.1299689469
100
AcDbArc
 50
276.233965798
 51
353.766034202
  0
ARC
  5
3D2
100
AcDbEntity
  8
0
100
AcDbCircle
 62
7
  6
CONTINUOUS
 10
-0.0
 20
27.0
 40
10.1299689469
100
AcDbArc
 50
6.233965798
 51
83.766034202
  0
ARC
  5
3D3
100
AcDbEntity
  8
0
100
AcDbCircle
 62
7
  6
CONTINUOUS
 10
-0.0
 20
27.0
 40
10.1299689469
100
AcDbArc
 50
96.233965798
 51
173.766034202
  0
CIRCLE
  5
3D4
100
AcDbEntity
  8
RACCORDO
100
AcDbCircle
 62
7
  6
CONTINUOUS
 10
-0.0
 20
47.3
 40
4.8
  0
CIRCLE
  5
3D5
100
AcDbEntity
  8
RACCORDO
100
AcDbCircle
 62
250
  6
CONTINUOUS
 10
-0.0
 20
47.3
 40
4.2999896071
  0
ARC
  5
3D6
100
AcDbEntity
  8
0
100
AcDbCircle
 62
7
  6
CONTINUOUS
 10
2.558889799
 20
57.0402578154
 40
0.05
100
AcDbArc
 50
118.332200809
 51
249.0297526306
  0
CIRCLE
  5
3D7
100
AcDbEntity
  8
RACCORDO
100
AcDbCircle
 62
7
  6
CONTINUOUS
 10
51.5
 20
55.0
 40
9.5
  0
CIRCLE
  5
3D8
100
AcDbEntity
  8
RACCORDO
100
AcDbCircle
 62
250
  6
CONTINUOUS
 10
51.5
 20
55.0
 40
8.9999955871
  0
ARC
  5
3D9
100
AcDbEntity
  8
COPY
100
AcDbCircle
 62
7
  6
CONTINUOUS
 10
62.0
 20
64.0
 40
6.000000429
100
AcDbArc
 50
0.0000016766
 51
90.0002006898
  0
ARC
  5
3DA
100
AcDbEntity
  8
DRAFT
100
AcDbCircle
 62
7
  6
CONTINUOUS
 10
62.0
 20
64.0
 40
6.0
100
AcDbArc
 50
0.0
 51
90.0
  0
ARC
  5
3DB
100
AcDbEntity
  8
RACCORDO
100
AcDbCircle
 62
250
  6
CONTINUOUS
 10
62.0
 20
64.0
 40
5.3730280639
100
AcDbArc
 50
0.0
 51
90.0
  0
ARC
  5
3DC
100
AcDbEntity
  8
RACCORDO
100
AcDbCircle
 62
250
  6
CONTINUOUS
 10
62.0
 20
64.0
 40
4.27317607
100
AcDbArc
 50
0.0
 51
90.0
  0
ARC
  5
3DD
100
AcDbEntity
  8
DRAFT
100
AcDbCircle
 62
7
  6
CONTINUOUS
 10
62.0
 20
64.0
 40
4.1378845111
100
AcDbArc
 50
0.0
 51
90.0
  0
ARC
  5
3DE
100
AcDbEntity
  8
DRAFT
100
AcDbCircle
 62
7
  6
CONTINUOUS
 10
62.0
 20
64.0
 40
4.0
100
AcDbArc
 50
0.0
 51
90.0
  0
CIRCLE
  5
3DF
100
AcDbEntity
  8
0
100
AcDbCircle
 62
7
  6
CONTINUOUS
 10
51.5
 20
55.0
 40
2.25
  0
CIRCLE
  5
3E0
100
AcDbEntity
  8
0
100
AcDbCircle
 62
7
  6
CONTINUOUS
 10
51.5
 20
55.0
 40
1.8
  0
ARC
  5
3E1
100
AcDbEntity
  8
DRAFT
100
AcDbCircle
 62
7
  6
CONTINUOUS
 10
62.0
 20
64.0
 40
1.6378845111
100
AcDbArc
 50
180.0
 51
270.0
  0
CIRCLE
  5
3E2
100
AcDbEntity
  8
0
100
AcDbCircle
 62
7
  6
CONTINUOUS
 10
51.5
 20
55.0
 40
1.5
  0
ARC
  5
3E3
100
AcDbEntity
  8
DRAFT
100
AcDbCircle
 62
7
  6
CONTINUOUS
 10
62.0
 20
64.0
 40
1.5
100
AcDbArc
 50
180.0
 51
270.0
  0
ENDSEC
  0
SECTION
  2
OBJECTS
  0
DICTIONARY
  5
C
100
AcDbDictionary
280
0
281
1
  3
ACAD_GROUP
350
D
  3
ACAD_MLINESTYLE
350
17
  3
ACAD_LAYOUT
350
1A
  3
ACAD_PLOTSETTINGS
350
19
  3
ACAD_PLOTSTYLENAME
350
E
  0
DICTIONARY
  5
D
102
{ACAD_REACTORS
330
C
102
}
100
AcDbDictionary
280
0
281
1
  0
ACDBDICTIONARYWDFLT
  5
E
102
{ACAD_REACTORS
330
C
102
}
100
AcDbDictionary
281
1
  3
Normal
350
F
100
AcDbDictionaryWithDefault
340
F
  0
DICTIONARY
  5
17
102
{ACAD_REACTORS
330
C
102
}
100
AcDbDictionary
280
0
281
1
  3
Standard
350
18
  0
DICTIONARY
  5
19
102
{ACAD_REACTORS
330
C
102
}
100
AcDbDictionary
281
1
  0
DICTIONARY
  5
1A
102
{ACAD_REACTORS
330
C
102
}
100
AcDbDictionary
281
1
  3
Model
350
3E4
  3
Layout1
350
3E5
  0
ACDBPLACEHOLDER
  5
F
102
{ACAD_REACTORS
330
E
102
}
  0
MLINESTYLE
  5
18
102
{ACAD_REACTORS
330
17
102
}
100
AcDbMlineStyle
  2
STANDARD
 70
0
  3

 62
256
 51
90.0
 52
90.0
 71
2
 49
0.5
 62
256
  6
BYLAYER
 49
-0.5
 62
256
  6
BYLAYER
  0
LAYOUT
  5
3E4
102
{ACAD_REACTORS
330
1A
102
}
100
AcDbPlotSettings
  1

  2
none_device
  4
ISO_A4_(297.00_x_210.00_MM)
  6

 40
0.0
 41
0.0
 42
0.0
 43
0.0
 44
297.0
 45
210.0
 46
0.0
 47
0.0
 48
0.0
 49
0.0
140
0.0
141
0.0
142
1.0
143
1.0
 70
1024
 72
1
 73
0
 74
0
  7

 75
0
147
1.0
148
0.0
149
0.0
100
AcDbLayout
  1
Model
 70
0
 71
0
 10
0.0
 20
0.0
 11
297.0
 21
210.0
 12
0.0
 22
0.0
 32
0.0
 14
0.0
 24
0.0
 34
0.0
 15
0.0
 25
0.0
 35
0.0
146
0.0
 13
0.0
 23
0.0
 33
0.0
 16
1.0
 26
0.0
 36
0.0
 17
0.0
 27
1.0
 37
0.0
 76
0
330
216
345
0
346
0
  0
LAYOUT
  5
3E5
102
{ACAD_REACTORS
330
1A
102
}
100
AcDbPlotSettings
  1

  2
none_device
  4
ISO_A4_(297.00_x_210.00_MM)
  6

 40
0.0
 41
0.0
 42
0.0
 43
0.0
 44
297.0
 45
210.0
 46
0.0
 47
0.0
 48
0.0
 49
0.0
140
0.0
141
0.0
142
1.0
143
1.0
 70
0
 72
1
 73
0
 74
0
  7

 75
0
147
1.0
148
0.0
149
0.0
100
AcDbLayout
  1
Layout1
 70
0
 71
1
 10
0.0
 20
0.0
 11
297.0
 21
210.0
 12
0.0
 22
0.0
 32
0.0
 14
0.0
 24
0.0
 34
0.0
 15
0.0
 25
0.0
 35
0.0
146
0.0
 13
0.0
 23
0.0
 33
0.0
 16
1.0
 26
0.0
 36
0.0
 17
0.0
 27
1.0
 37
0.0
 76
0
330
217
345
0
346
0
  0
ENDSEC
  0
EOF
