  0
SECTION
  2
HEADER
  9
$ACADVER
  1
AC1024
  9
$DWGCODEPAGE
  3
ANSI_1252
  9
$EXTMAX
 10
297.0
 20
210.0
 30
0.0
  9
$EXTMIN
 10
0.0
 20
0.0
 30
0.0
  9
$LIMMIN
 10
0.0
 20
0.0
  9
$LIMMAX
 10
297.0
 20
210.0
  9
$VIEWCTR
 10
148.5
 20
105.0
  9
$VIEWSIZE
 40
210.0
  9
$CLAYER
  8
0
  9
$LTSCALE
 40
16.335
  9
$CELTYPE
  6
BYLAYER
  9
$DIMSCALE
 40
1.0
  9
$DIMASZ
 40
3.0
  9
$DIMEXO
 40
0.5
  9
$DIMDLI
 40
11.286
  9
$DIMEXE
 40
1.5
  9
$DIMCEN
 40
2.673
  9
$DIMLFAC
 40
1.0
  9
$DIMBLK
  1
_FILLED
  9
$DIMALT
 70
0
  9
$DIMALTF
 40
0.0393700787
  9
$DIMTXT
 40
3.0
  9
$DIMTOL
 70
1
  9
$DIMLIM
 70
0
  9
$DIMTFAC
 40
1.0
  9
$DIMTP
 40
0.01
  9
$DIMTM
 40
0.01
  9
$DIMGAP
 40
0.625
  9
$DIMDSEP
 70
44
  9
$AUNITS
 70
0
  9
$PDMODE
 70
3
  9
$PDSIZE
 40
3.0
  9
$HANDSEED
  5
73F
  9
$TILEMODE
 70
1
  9
$MEASUREMENT
 70
1
  9
$INSUNITS
 70
4
  0
ENDSEC
  0
SECTION
  2
CLASSES
  0
CLASS
  1
ACDBDICTIONARYWDFLT
  2
AcDbDictionaryWithDefault
  3
AutoCAD 2000
 90
0
 91
1
280
0
281
0
  0
CLASS
  1
ACDBPLACEHOLDER
  2
AcDbPlaceHolder
  3
AutoCAD 2000
 90
0
 91
1
280
0
281
0
  0
CLASS
  1
LAYOUT
  2
AcDbLayout
  3
AutoCAD 2000
 90
0
 91
0
280
0
281
0
  0
ENDSEC
  0
SECTION
  2
TABLES
  0
TABLE
  2
VPORT
  5
8
100
AcDbSymbolTable
 70
2
  0
VPORT
  5
1F4
100
AcDbSymbolTableRecord
100
AcDbViewportTableRecord
  2
*ACTIVE
 70
0
 10
0.0
 20
0.0
 11
1.0
 21
1.0
 12
148.5
 22
105.0
 13
0.0
 23
0.0
 14
1.0
 24
1.0
 15
0.0
 25
0.0
 16
0.0
 26
0.0
 36
1.0
 17
0.0
 27
0.0
 37
0.0
 40
210.0
 41
1.4142857143
 42
50.0
 43
0.0
 44
0.0
 50
0.0
 51
0.0
 71
0
 72
100
 73
1
 74
1
 75
0
 76
0
 77
0
 78
0
  0
ENDTAB
  0
TABLE
  2
LTYPE
  5
5
100
AcDbSymbolTable
 70
6
  0
LTYPE
  5
14
100
AcDbSymbolTableRecord
100
AcDbLinetypeTableRecord
  2
BYBLOCK
 70
0
  3

 72
65
 73
0
 40
0.0
  0
LTYPE
  5
15
100
AcDbSymbolTableRecord
100
AcDbLinetypeTableRecord
  2
BYLAYER
 70
0
  3

 72
65
 73
0
 40
0.0
  0
LTYPE
  5
16
100
AcDbSymbolTableRecord
100
AcDbLinetypeTableRecord
  2
CONTINUOUS
 70
64
  3
Solid line
 72
65
 73
0
 40
0.0
  0
LTYPE
  5
1F5
100
AcDbSymbolTableRecord
100
AcDbLinetypeTableRecord
  2
CENTER
 70
64
  3
____ _ ____ _ ____ _ ____ _ ____ _ ____ _ ____
 72
65
 73
4
 40
0.6
 49
0.375
 74
0
 49
-0.075
 74
0
 49
0.075
 74
0
 49
-0.075
 74
0
  0
LTYPE
  5
1F6
100
AcDbSymbolTableRecord
100
AcDbLinetypeTableRecord
  2
HIDDEN
 70
64
  3
- - - - - - - - - - - - - - - - - - - -
 72
65
 73
2
 40
0.2
 49
0.1
 74
0
 49
-0.1
 74
0
  0
LTYPE
  5
1F7
100
AcDbSymbolTableRecord
100
AcDbLinetypeTableRecord
  2
PHANTOM
 70
64
  3
_____ _ _ _____ _ _ _____ _ _ _____
 72
65
 73
6
 40
0.8
 49
0.45
 74
0
 49
-0.05
 74
0
 49
0.1
 74
0
 49
-0.05
 74
0
 49
0.1
 74
0
 49
-0.05
 74
0
  0
LTYPE
  5
1F8
100
AcDbSymbolTableRecord
100
AcDbLinetypeTableRecord
  2
DOT
 70
64
  3
. . . . . . . . . . . . . . . . . . . .
 72
65
 73
2
 40
0.2
 49
0.1
 74
0
 49
-0.1
 74
0
  0
LTYPE
  5
1F9
100
AcDbSymbolTableRecord
100
AcDbLinetypeTableRecord
  2
DASHED
 70
64
  3
- - - - - - - - - - - - - - - - - - - -
 72
65
 73
2
 40
0.2
 49
0.1
 74
0
 49
-0.1
 74
0
  0
ENDTAB
  0
TABLE
  2
LAYER
  5
2
100
AcDbSymbolTable
 70
36
  0
LAYER
  5
10
100
AcDbSymbolTableRecord
100
AcDbLayerTableRecord
  2
0
 70
0
 62
7
  6
CONTINUOUS
370
-3
390
F
  0
LAYER
  5
1FA
100
AcDbSymbolTableRecord
100
AcDbLayerTableRecord
  2
DEFAULT_1
 70
0
 62
7
  6
CENTER
370
-3
390
F
  0
LAYER
  5
1FB
100
AcDbSymbolTableRecord
100
AcDbLayerTableRecord
  2
DEFAULT_2
 70
0
 62
7
  6
HIDDEN
370
-3
390
F
  0
LAYER
  5
1FC
100
AcDbSymbolTableRecord
100
AcDbLayerTableRecord
  2
DEFAULT_3
 70
0
 62
7
  6
PHANTOM
370
-3
390
F
  0
LAYER
  5
1FD
100
AcDbSymbolTableRecord
100
AcDbLayerTableRecord
  2
ASSI
 70
0
 62
7
  6
CONTINUOUS
370
-3
390
F
  0
LAYER
  5
1FE
100
AcDbSymbolTableRecord
100
AcDbLayerTableRecord
  2
COLOR5
 70
0
 62
7
  6
CONTINUOUS
370
-3
390
F
  0
LAYER
  5
1FF
100
AcDbSymbolTableRecord
100
AcDbLayerTableRecord
  2
COORDINATE
 70
0
 62
7
  6
CONTINUOUS
370
-3
390
F
  0
LAYER
  5
200
100
AcDbSymbolTableRecord
100
AcDbLayerTableRecord
  2
COORD_ORIGINE
 70
0
 62
7
  6
CONTINUOUS
370
-3
390
F
  0
LAYER
  5
201
100
AcDbSymbolTableRecord
100
AcDbLayerTableRecord
  2
CURVE
 70
0
 62
7
  6
CONTINUOUS
370
-3
390
F
  0
LAYER
  5
202
100
AcDbSymbolTableRecord
100
AcDbLayerTableRecord
  2
DRAFT
 70
0
 62
7
  6
CONTINUOUS
370
-3
390
F
  0
LAYER
  5
203
100
AcDbSymbolTableRecord
100
AcDbLayerTableRecord
  2
IGES_SCRITTE
 70
0
 62
7
  6
CONTINUOUS
370
-3
390
F
  0
LAYER
  5
204
100
AcDbSymbolTableRecord
100
AcDbLayerTableRecord
  2
IMPORT_FEATURE
 70
0
 62
7
  6
CONTINUOUS
370
-3
390
F
  0
LAYER
  5
205
100
AcDbSymbolTableRecord
100
AcDbLayerTableRecord
  2
IMPORT_IGS
 70
0
 62
7
  6
CONTINUOUS
370
-3
390
F
  0
LAYER
  5
206
100
AcDbSymbolTableRecord
100
AcDbLayerTableRecord
  2
INTF_1
 70
0
 62
7
  6
CONTINUOUS
370
-3
390
F
  0
LAYER
  5
207
100
AcDbSymbolTableRecord
100
AcDbLayerTableRecord
  2
INTF_7
 70
0
 62
7
  6
CONTINUOUS
370
-3
390
F
  0
LAYER
  5
208
100
AcDbSymbolTableRecord
100
AcDbLayerTableRecord
  2
NOTE
 70
0
 62
7
  6
CONTINUOUS
370
-3
390
F
  0
LAYER
  5
209
100
AcDbSymbolTableRecord
100
AcDbLayerTableRecord
  2
PIANI
 70
0
 62
7
  6
CONTINUOUS
370
-3
390
F
  0
LAYER
  5
20A
100
AcDbSymbolTableRecord
100
AcDbLayerTableRecord
  2
PIANI_ORIGINE
 70
0
 62
7
  6
CONTINUOUS
370
-3
390
F
  0
LAYER
  5
20B
100
AcDbSymbolTableRecord
100
AcDbLayerTableRecord
  2
PUNTI
 70
0
 62
7
  6
CONTINUOUS
370
-3
390
F
  0
LAYER
  5
20C
100
AcDbSymbolTableRecord
100
AcDbLayerTableRecord
  2
RACCORDO
 70
0
 62
7
  6
CONTINUOUS
370
-3
390
F
  0
LAYER
  5
20D
100
AcDbSymbolTableRecord
100
AcDbLayerTableRecord
  2
RGB__255__255__255__
 70
0
 62
7
  6
CONTINUOUS
370
-3
390
F
  0
LAYER
  5
20E
100
AcDbSymbolTableRecord
100
AcDbLayerTableRecord
  2
RGB____0____0____0__
 70
0
 62
7
  6
CONTINUOUS
370
-3
390
F
  0
LAYER
  5
20F
100
AcDbSymbolTableRecord
100
AcDbLayerTableRecord
  2
SKEL
 70
0
 62
7
  6
CONTINUOUS
370
-3
390
F
  0
LAYER
  5
210
100
AcDbSymbolTableRecord
100
AcDbLayerTableRecord
  2
SMUSSO
 70
0
 62
7
  6
CONTINUOUS
370
-3
390
F
  0
LAYER
  5
211
100
AcDbSymbolTableRecord
100
AcDbLayerTableRecord
  2
SNAPLINE
 70
0
 62
7
  6
CONTINUOUS
370
-3
390
F
  0
LAYER
  5
212
100
AcDbSymbolTableRecord
100
AcDbLayerTableRecord
  2
SUPERFICI
 70
0
 62
7
  6
CONTINUOUS
370
-3
390
F
  0
LAYER
  5
213
100
AcDbSymbolTableRecord
100
AcDbLayerTableRecord
  2
TRASH
 70
0
 62
7
  6
CONTINUOUS
370
-3
390
F
  0
LAYER
  5
214
100
AcDbSymbolTableRecord
100
AcDbLayerTableRecord
  2
XSEC_DATUMS
 70
0
 62
7
  6
CONTINUOUS
370
-3
390
F
  0
LAYER
  5
215
100
AcDbSymbolTableRecord
100
AcDbLayerTableRecord
  2
___SHELL
 70
0
 62
7
  6
CONTINUOUS
370
-3
390
F
  0
ENDTAB
  0
TABLE
  2
STYLE
  5
3
100
AcDbSymbolTable
 70
1
  0
STYLE
  5
11
100
AcDbSymbolTableRecord
100
AcDbTextStyleTableRecord
  2
STANDARD
 70
0
 40
0.0
 41
0.8
 50
0.0
 71
0
 42
0.2
  3
txt
  4

  0
STYLE
  5
216
100
AcDbSymbolTableRecord
100
AcDbTextStyleTableRecord
  2
TEXTSTYLE_1
 70
0
 40
0.0
 41
0.8
 50
0.0
 71
0
 42
0.2
  3
gdt
  4

  0
ENDTAB
  0
TABLE
  2
VIEW
  5
6
100
AcDbSymbolTable
 70
0
  0
ENDTAB
  0
TABLE
  2
UCS
  5
7
100
AcDbSymbolTable
 70
0
  0
ENDTAB
  0
TABLE
  2
APPID
  5
9
100
AcDbSymbolTable
 70
1
  0
APPID
  5
217
100
AcDbSymbolTableRecord
100
AcDbRegAppTableRecord
  2
ACAD
 70
0
  0
ENDTAB
  0
TABLE
  2
BLOCK_RECORD
  5
1
100
AcDbSymbolTable
 70
0
  0
BLOCK_RECORD
  5
218
100
AcDbSymbolTableRecord
100
AcDbBlockTableRecord
  2
*Model_Space
  0
BLOCK_RECORD
  5
219
100
AcDbSymbolTableRecord
100
AcDbBlockTableRecord
  2
*Paper_Space
  0
BLOCK_RECORD
  5
21A
100
AcDbSymbolTableRecord
100
AcDbBlockTableRecord
  2
_FILLED
  0
ENDTAB
  0
TABLE
  2
DIMSTYLE
  5
A
100
AcDbSymbolTable
 70
1
100
AcDbDimStyleTable
 71
0
  0
DIMSTYLE
105
21B
100
AcDbSymbolTableRecord
100
AcDbDimStyleTableRecord
  2
STANDARD
 70
0
  3

  4

 40
1.0
 41
3.0
 42
0.5
 43
0.38
 44
1.5
 45
0.0
 46
0.0
 47
0.01
 48
0.01
140
3.0
141
0.09
142
0.0
143
25.4
144
1.0
145
0.0
146
1.0
147
0.625
 71
1
 72
0
 73
0
 74
0
 75
0
 76
0
 77
1
 78
8
 79
2
170
0
171
1
172
0
173
0
174
0
175
0
176
0
177
0
178
0
270
2
179
2
271
2
272
2
273
2
274
2
275
0
280
0
281
0
282
0
283
1
284
8
285
0
286
0
287
3
288
0
340
11
278
44
341
21A
342
21A
343
21A
344
21A
  0
ENDTAB
  0
ENDSEC
  0
SECTION
  2
BLOCKS
  0
BLOCK
  5
20
100
AcDbEntity
  8
0
100
AcDbBlockBegin
  2
*Model_Space
 70
0
 10
0.0
 20
0.0
 30
0.0
  3
*Model_Space
  1

  0
ENDBLK
  5
21
100
AcDbEntity
  8
0
100
AcDbBlockEnd
  0
BLOCK
  5
1C
100
AcDbEntity
  8
0
100
AcDbBlockBegin
  2
*Paper_Space
 70
0
 10
0.0
 20
0.0
 30
0.0
  3
*Paper_Space
  1

  0
ENDBLK
  5
1D
100
AcDbEntity
  8
0
100
AcDbBlockEnd
  0
BLOCK
  5
21C
100
AcDbEntity
  8
0
100
AcDbBlockBegin
  2
_FILLED
 70
64
 10
0.0
 20
0.0
  3
_FILLED
  1

  0
SOLID
  5
21D
100
AcDbEntity
  8
0
  6
BYBLOCK
 62
0
100
AcDbTrace
 10
0.0
 20
0.0
 11
-1.0
 21
0.3166666667
 12
-1.0
 22
-0.3166666667
 13
-1.0
 23
-0.3166666667
  0
ENDBLK
  5
21E
100
AcDbEntity
  8
0
  6
BYBLOCK
 62
0
100
AcDbBlockEnd
  0
ENDSEC
  0
SECTION
  2
ENTITIES
  0
LWPOLYLINE
  5
21F
100
AcDbEntity
  8
RACCORDO
100
AcDbPolyline
 62
250
  6
CONTINUOUS
 90
14
 70
0
 10
-117.9586265075
 20
-31.9709254793
 10
-117.9578176544
 20
-31.9916813687
 10
-117.9569669468
 20
-32.0108881948
 10
-117.9560762319
 20
-32.0284811921
 10
-117.9551652315
 20
-32.0442860374
 10
-117.9542330536
 20
-32.0583051989
 10
-117.9532805902
 20
-32.070542638
 10
-117.9523302391
 20
-32.0809240163
 10
-117.9513825913
 20
-32.0895183845
 10
-117.9504370558
 20
-32.0964055954
 10
-117.9495142574
 20
-32.1016256571
 10
-117.9486210713
 20
-32.1052975335
 10
-117.9477506224
 20
-32.1075706013
 10
-117.9469029106
 20
-32.108575216
  0
LWPOLYLINE
  5
220
100
AcDbEntity
  8
RACCORDO
100
AcDbPolyline
 62
250
  6
CONTINUOUS
 90
10
 70
0
 10
-118.455088763
 20
-32.4799293243
 10
-118.4541566982
 20
-32.5078948915
 10
-118.4532043498
 20
-32.5323137269
 10
-118.4522540874
 20
-32.5531925786
 10
-118.45130649
 20
-32.5703722321
 10
-118.4503609786
 20
-32.5840119019
 10
-118.4494381865
 20
-32.5945959807
 10
-118.4485449912
 20
-32.6022859327
 10
-118.4476745151
 20
-32.6069202937
 10
-118.4468267582
 20
-32.6084990636
  0
LINE
  5
221
100
AcDbEntity
  8
DRAFT
100
AcDbLine
 62
7
  6
CONTINUOUS
 10
-118.6995919384
 20
-10.4893345158
 11
-118.7166200355
 21
-9.9862082668
  0
LINE
  5
222
100
AcDbEntity
  8
DRAFT
100
AcDbLine
 62
7
  6
CONTINUOUS
 10
-118.5323852048
 20
10.4893345158
 11
-118.5153571077
 21
9.9862082668
  0
LINE
  5
223
100
AcDbEntity
  8
RACCORDO
100
AcDbLine
 62
250
  6
CONTINUOUS
 10
-117.9601100106
 20
-31.9251822519
 11
-117.9586265075
 21
-31.9709254793
  0
LINE
  5
224
100
AcDbEntity
  8
DRAFT
100
AcDbLine
 62
7
  6
CONTINUOUS
 10
-118.7166200355
 20
-9.9862082668
 11
-118.7327192823
 21
-9.3933696862
  0
LINE
  5
225
100
AcDbEntity
  8
DRAFT
100
AcDbLine
 62
7
  6
CONTINUOUS
 10
-118.5153571077
 20
9.9862082668
 11
-118.4992578609
 21
9.3933696862
  0
LINE
  5
226
100
AcDbEntity
  8
RACCORDO
100
AcDbLine
 62
250
  6
CONTINUOUS
 10
-118.4568902627
 20
-32.4130472524
 11
-118.455088763
 21
-32.4799293243
  0
LINE
  5
227
100
AcDbEntity
  8
RACCORDO
100
AcDbLine
 62
250
  6
CONTINUOUS
 10
-117.9613724942
 20
-31.8748549632
 11
-117.9601100106
 21
-31.9251822519
  0
LINE
  5
228
100
AcDbEntity
  8
DRAFT
100
AcDbLine
 62
7
  6
CONTINUOUS
 10
-118.7327192823
 20
-9.3933696862
 11
-118.7477806783
 21
-8.7148345943
  0
LINE
  5
229
100
AcDbEntity
  8
DRAFT
100
AcDbLine
 62
7
  6
CONTINUOUS
 10
-118.4992578609
 20
9.3933696862
 11
-118.4841964648
 21
8.7148345943
  0
LINE
  5
22A
100
AcDbEntity
  8
RACCORDO
100
AcDbLine
 62
250
  6
CONTINUOUS
 10
-118.4585496835
 20
-32.3332387386
 11
-118.4568902627
 21
-32.4130472524
  0
LINE
  5
22B
100
AcDbEntity
  8
RACCORDO
100
AcDbLine
 62
250
  6
CONTINUOUS
 10
-117.962392317
 20
-31.8214420302
 11
-117.9613724942
 21
-31.8748549632
  0
LINE
  5
22C
100
AcDbEntity
  8
DRAFT
100
AcDbLine
 62
7
  6
CONTINUOUS
 10
-118.7477806783
 20
-8.7148345943
 11
-118.7616451071
 21
-7.9572092866
  0
LINE
  5
22D
100
AcDbEntity
  8
DRAFT
100
AcDbLine
 62
7
  6
CONTINUOUS
 10
-118.4841964648
 20
8.7148345943
 11
-118.470332036
 21
7.9572092866
  0
LINE
  5
22E
100
AcDbEntity
  8
DRAFT
100
AcDbLine
 62
7
  6
CONTINUOUS
 10
-118.7616451071
 20
-7.9572092866
 11
-118.7741772116
 21
-7.1285008656
  0
LINE
  5
22F
100
AcDbEntity
  8
DRAFT
100
AcDbLine
 62
7
  6
CONTINUOUS
 10
-118.470332036
 20
7.9572092866
 11
-118.4577999316
 21
7.1285008656
  0
LINE
  5
230
100
AcDbEntity
  8
RACCORDO
100
AcDbLine
 62
250
  6
CONTINUOUS
 10
-118.4606914994
 20
-32.1925373981
 11
-118.4585496835
 21
-32.3332387386
  0
LINE
  5
231
100
AcDbEntity
  8
RACCORDO
100
AcDbLine
 62
250
  6
CONTINUOUS
 10
-117.9631616166
 20
-31.7664068176
 11
-117.962392317
 21
-31.8214420302
  0
LINE
  5
232
100
AcDbEntity
  8
DRAFT
100
AcDbLine
 62
7
  6
CONTINUOUS
 10
-118.7741772116
 20
-7.1285008656
 11
-118.7852921767
 21
-6.234320506
  0
LINE
  5
233
100
AcDbEntity
  8
DRAFT
100
AcDbLine
 62
7
  6
CONTINUOUS
 10
-118.4577999316
 20
7.1285008656
 11
-118.4466849665
 21
6.234320506
  0
LINE
  5
234
100
AcDbEntity
  8
DRAFT
100
AcDbLine
 62
7
  6
CONTINUOUS
 10
-118.7852921767
 20
-6.234320506
 11
-118.7948698336
 21
-5.2835717608
  0
LINE
  5
235
100
AcDbEntity
  8
DRAFT
100
AcDbLine
 62
7
  6
CONTINUOUS
 10
-118.4466849665
 20
6.234320506
 11
-118.4371073096
 21
5.2835717608
  0
LINE
  5
236
100
AcDbEntity
  8
DRAFT
100
AcDbLine
 62
7
  6
CONTINUOUS
 10
-118.7948698336
 20
-5.2835717608
 11
-118.8028196018
 21
-4.286132209
  0
LINE
  5
237
100
AcDbEntity
  8
RACCORDO
100
AcDbLine
 62
250
  6
CONTINUOUS
 10
-118.4627314207
 20
-31.979279555
 11
-118.4606914994
 21
-32.1925373981
  0
LINE
  5
238
100
AcDbEntity
  8
DRAFT
100
AcDbLine
 62
7
  6
CONTINUOUS
 10
-118.4371073096
 20
5.2835717608
 11
-118.4291575414
 21
4.286132209
  0
LINE
  5
239
100
AcDbEntity
  8
RACCORDO
100
AcDbLine
 62
250
  6
CONTINUOUS
 10
-117.9638501054
 20
-31.684717509
 11
-117.9631616166
 21
-31.7664068176
  0
LINE
  5
23A
100
AcDbEntity
  8
DRAFT
100
AcDbLine
 62
7
  6
CONTINUOUS
 10
-118.8028196018
 20
-4.286132209
 11
-118.8090876947
 21
-3.2487532756
  0
LINE
  5
23B
100
AcDbEntity
  8
DRAFT
100
AcDbLine
 62
7
  6
CONTINUOUS
 10
-118.4291575414
 20
4.286132209
 11
-118.4228894485
 21
3.2487532756
  0
LINE
  5
23C
100
AcDbEntity
  8
DRAFT
100
AcDbLine
 62
7
  6
CONTINUOUS
 10
-118.8090876947
 20
-3.2487532756
 11
-118.8136026863
 21
-2.1818993763
  0
LINE
  5
23D
100
AcDbEntity
  8
DRAFT
100
AcDbLine
 62
7
  6
CONTINUOUS
 10
-118.4228894485
 20
3.2487532756
 11
-118.4183744569
 21
2.1818993763
  0
LINE
  5
23E
100
AcDbEntity
  8
RACCORDO
100
AcDbLine
 62
250
  6
CONTINUOUS
 10
-118.4638955838
 20
-31.7088554866
 11
-118.4627314207
 21
-31.979279555
  0
LINE
  5
23F
100
AcDbEntity
  8
DRAFT
100
AcDbLine
 62
7
  6
CONTINUOUS
 10
-118.8136026863
 20
-2.1818993763
 11
-118.8163246009
 21
-1.0977708652
  0
LINE
  5
240
100
AcDbEntity
  8
DRAFT
100
AcDbLine
 62
7
  6
CONTINUOUS
 10
-118.4183744569
 20
2.1818993763
 11
-118.4156525423
 21
1.0977708652
  0
LINE
  5
241
100
AcDbEntity
  8
RACCORDO
100
AcDbLine
 62
250
  6
CONTINUOUS
 10
-117.9640533427
 20
-31.6086513684
 11
-117.9638501054
 21
-31.684717509
  0
LINE
  5
242
100
AcDbEntity
  8
DRAFT
100
AcDbLine
 62
7
  6
CONTINUOUS
 10
-118.8163246009
 20
-1.0977708652
 11
-118.8172396544
 21
0.0
  0
LINE
  5
243
100
AcDbEntity
  8
DRAFT
100
AcDbLine
 62
7
  6
CONTINUOUS
 10
-118.4156525423
 20
1.0977708652
 11
-118.4147374887
 21
0.0
  0
LINE
  5
244
100
AcDbEntity
  8
SUPERFICI
100
AcDbLine
 62
7
  6
CONTINUOUS
 10
-119.0000003491
 20
35.5000000145
 11
-119.0000003491
 21
-35.5000000243
  0
LINE
  5
245
100
AcDbEntity
  8
DRAFT
100
AcDbLine
 62
7
  6
CONTINUOUS
 10
-119.0
 20
35.5
 11
-119.0
 21
-35.5
  0
LINE
  5
246
100
AcDbEntity
  8
RACCORDO
100
AcDbLine
 62
250
  6
CONTINUOUS
 10
-118.3747431161
 20
35.5
 11
-118.3747431161
 21
-25.7194172943
  0
LINE
  5
247
100
AcDbEntity
  8
RACCORDO
100
AcDbLine
 62
250
  6
CONTINUOUS
 10
-118.3747431161
 20
-32.6805827057
 11
-118.3747431161
 21
-35.5
  0
LINE
  5
248
100
AcDbEntity
  8
0
100
AcDbLine
 62
7
  6
CONTINUOUS
 10
-117.4751240074
 20
35.5
 11
-117.4751240074
 21
33.7248759926
  0
LINE
  5
249
100
AcDbEntity
  8
0
100
AcDbLine
 62
7
  6
CONTINUOUS
 10
-117.4751240074
 20
-33.7248759926
 11
-117.4751240074
 21
-35.5
  0
LINE
  5
24A
100
AcDbEntity
  8
RACCORDO
100
AcDbLine
 62
7
  6
CONTINUOUS
 10
-117.4748344851
 20
-26.7913486316
 11
-117.4748344851
 21
-31.6086513684
  0
LINE
  5
24B
100
AcDbEntity
  8
RACCORDO
100
AcDbLine
 62
250
  6
CONTINUOUS
 10
-117.3821703245
 20
-26.2064316619
 11
-117.3821703245
 21
-32.1935683378
  0
LINE
  5
24C
100
AcDbEntity
  8
DRAFT
100
AcDbLine
 62
7
  6
CONTINUOUS
 10
-117.2
 20
-35.5
 11
-117.2
 21
-34.0
  0
LINE
  5
24D
100
AcDbEntity
  8
DRAFT
100
AcDbLine
 62
7
  6
CONTINUOUS
 10
-117.2
 20
34.0
 11
-117.2
 21
35.5
  0
LINE
  5
24E
100
AcDbEntity
  8
RACCORDO
100
AcDbLine
 62
250
  6
CONTINUOUS
 10
-117.1749258633
 20
-26.0000746359
 11
-117.1749258819
 21
33.7242099741
  0
LINE
  5
24F
100
AcDbEntity
  8
RACCORDO
100
AcDbLine
 62
250
  6
CONTINUOUS
 10
-117.174925864
 20
-32.3999253618
 11
-117.1749258819
 21
-33.7242099741
  0
LINE
  5
250
100
AcDbEntity
  8
RACCORDO
100
AcDbLine
 62
250
  6
CONTINUOUS
 10
-116.8822464769
 20
-25.7074119919
 11
-116.8822464769
 21
-32.6925880081
  0
LINE
  5
251
100
AcDbEntity
  8
DRAFT
100
AcDbLine
 62
7
  6
CONTINUOUS
 10
-118.8172396544
 20
0.0
 11
-118.8163246009
 21
1.0977708652
  0
LINE
  5
252
100
AcDbEntity
  8
DRAFT
100
AcDbLine
 62
7
  6
CONTINUOUS
 10
-118.4147374887
 20
0.0
 11
-118.4156525423
 21
-1.0977708652
  0
LINE
  5
253
100
AcDbEntity
  8
RACCORDO
100
AcDbLine
 62
250
  6
CONTINUOUS
 10
-118.4637740151
 20
-26.6392220007
 11
-118.4638955838
 21
-31.7088554866
  0
LINE
  5
254
100
AcDbEntity
  8
RACCORDO
100
AcDbLine
 62
250
  6
CONTINUOUS
 10
-117.9639718541
 20
-26.7414072151
 11
-117.9640533427
 21
-31.6086513684
  0
LINE
  5
255
100
AcDbEntity
  8
DRAFT
100
AcDbLine
 62
7
  6
CONTINUOUS
 10
-118.8163246009
 20
1.0977708652
 11
-118.8136026863
 21
2.1818993763
  0
LINE
  5
256
100
AcDbEntity
  8
DRAFT
100
AcDbLine
 62
7
  6
CONTINUOUS
 10
-118.4156525423
 20
-1.0977708652
 11
-118.4183744569
 21
-2.1818993763
  0
LINE
  5
257
100
AcDbEntity
  8
DRAFT
100
AcDbLine
 62
7
  6
CONTINUOUS
 10
-118.8136026863
 20
2.1818993763
 11
-118.8090876947
 21
3.2487532756
  0
LINE
  5
258
100
AcDbEntity
  8
DRAFT
100
AcDbLine
 62
7
  6
CONTINUOUS
 10
-118.4183744569
 20
-2.1818993763
 11
-118.4228894485
 21
-3.2487532756
  0
LINE
  5
259
100
AcDbEntity
  8
DRAFT
100
AcDbLine
 62
7
  6
CONTINUOUS
 10
-118.8090876947
 20
3.2487532756
 11
-118.8028196018
 21
4.286132209
  0
LINE
  5
25A
100
AcDbEntity
  8
DRAFT
100
AcDbLine
 62
7
  6
CONTINUOUS
 10
-118.4228894485
 20
-3.2487532756
 11
-118.4291575414
 21
-4.286132209
  0
LINE
  5
25B
100
AcDbEntity
  8
RACCORDO
100
AcDbLine
 62
250
  6
CONTINUOUS
 10
-118.4623160347
 20
-26.3656514518
 11
-118.4637740151
 21
-26.6392220007
  0
LINE
  5
25C
100
AcDbEntity
  8
RACCORDO
100
AcDbLine
 62
250
  6
CONTINUOUS
 10
-117.9634507453
 20
-26.6611394178
 11
-117.9639718541
 21
-26.7414072151
  0
LINE
  5
25D
100
AcDbEntity
  8
DRAFT
100
AcDbLine
 62
7
  6
CONTINUOUS
 10
-118.8028196018
 20
4.286132209
 11
-118.7948698336
 21
5.2835717608
  0
LINE
  5
25E
100
AcDbEntity
  8
DRAFT
100
AcDbLine
 62
7
  6
CONTINUOUS
 10
-118.4291575414
 20
-4.286132209
 11
-118.4371073096
 21
-5.2835717608
  0
LINE
  5
25F
100
AcDbEntity
  8
DRAFT
100
AcDbLine
 62
7
  6
CONTINUOUS
 10
-118.7948698336
 20
5.2835717608
 11
-118.7852921767
 21
6.234320506
  0
LINE
  5
260
100
AcDbEntity
  8
DRAFT
100
AcDbLine
 62
7
  6
CONTINUOUS
 10
-118.4371073096
 20
-5.2835717608
 11
-118.4466849665
 21
-6.234320506
  0
LINE
  5
261
100
AcDbEntity
  8
RACCORDO
100
AcDbLine
 62
250
  6
CONTINUOUS
 10
-118.4606917047
 20
-26.2074791595
 11
-118.4623160347
 21
-26.3656514518
  0
LINE
  5
262
100
AcDbEntity
  8
RACCORDO
100
AcDbLine
 62
250
  6
CONTINUOUS
 10
-117.9628083782
 20
-26.6060594537
 11
-117.9634507453
 21
-26.6611394178
  0
LINE
  5
263
100
AcDbEntity
  8
DRAFT
100
AcDbLine
 62
7
  6
CONTINUOUS
 10
-118.7852921767
 20
6.234320506
 11
-118.7741772116
 21
7.1285008656
  0
LINE
  5
264
100
AcDbEntity
  8
DRAFT
100
AcDbLine
 62
7
  6
CONTINUOUS
 10
-118.4466849665
 20
-6.234320506
 11
-118.4577999316
 21
-7.1285008656
  0
LINE
  5
265
100
AcDbEntity
  8
DRAFT
100
AcDbLine
 62
7
  6
CONTINUOUS
 10
-118.7741772116
 20
7.1285008656
 11
-118.7616451071
 21
7.9572092866
  0
LINE
  5
266
100
AcDbEntity
  8
DRAFT
100
AcDbLine
 62
7
  6
CONTINUOUS
 10
-118.4577999316
 20
-7.1285008656
 11
-118.470332036
 21
-7.9572092866
  0
LINE
  5
267
100
AcDbEntity
  8
RACCORDO
100
AcDbLine
 62
250
  6
CONTINUOUS
 10
-118.4585494244
 20
-26.0667474941
 11
-118.4606917047
 21
-26.2074791595
  0
LINE
  5
268
100
AcDbEntity
  8
RACCORDO
100
AcDbLine
 62
250
  6
CONTINUOUS
 10
-117.9619150516
 20
-26.551570393
 11
-117.9628083782
 21
-26.6060594537
  0
LINE
  5
269
100
AcDbEntity
  8
DRAFT
100
AcDbLine
 62
7
  6
CONTINUOUS
 10
-118.7616451071
 20
7.9572092866
 11
-118.7477806783
 21
8.7148345943
  0
LINE
  5
26A
100
AcDbEntity
  8
DRAFT
100
AcDbLine
 62
7
  6
CONTINUOUS
 10
-118.470332036
 20
-7.9572092866
 11
-118.4841964648
 21
-8.7148345943
  0
LINE
  5
26B
100
AcDbEntity
  8
RACCORDO
100
AcDbLine
 62
250
  6
CONTINUOUS
 10
-118.4568896175
 20
-25.9869256067
 11
-118.4585494244
 21
-26.0667474941
  0
LINE
  5
26C
100
AcDbEntity
  8
DRAFT
100
AcDbLine
 62
7
  6
CONTINUOUS
 10
-118.7477806783
 20
8.7148345943
 11
-118.7327192823
 21
9.3933696862
  0
LINE
  5
26D
100
AcDbEntity
  8
DRAFT
100
AcDbLine
 62
7
  6
CONTINUOUS
 10
-118.4841964648
 20
-8.7148345943
 11
-118.4992578609
 21
-9.3933696862
  0
LINE
  5
26E
100
AcDbEntity
  8
RACCORDO
100
AcDbLine
 62
250
  6
CONTINUOUS
 10
-117.9607685711
 20
-26.4994714465
 11
-117.9619150516
 21
-26.551570393
  0
LINE
  5
26F
100
AcDbEntity
  8
DRAFT
100
AcDbLine
 62
7
  6
CONTINUOUS
 10
-118.7327192823
 20
9.3933696862
 11
-118.7166200355
 21
9.9862082668
  0
LINE
  5
270
100
AcDbEntity
  8
DRAFT
100
AcDbLine
 62
7
  6
CONTINUOUS
 10
-118.4992578609
 20
-9.3933696862
 11
-118.5153571077
 21
-9.9862082668
  0
LWPOLYLINE
  5
271
100
AcDbEntity
  8
DRAFT
100
AcDbPolyline
 62
7
  6
CONTINUOUS
 90
11
 70
0
 10
-118.7166200355
 20
9.9862082668
 10
-118.6995919384
 20
10.4893345158
 10
-118.6907927421
 20
10.7051533538
 10
-118.6818043651
 20
10.8972482372
 10
-118.6726877897
 20
11.064315476
 10
-118.663442216
 20
11.2061837622
 10
-118.6540684438
 20
11.3230244038
 10
-118.6446298551
 20
11.4140476356
 10
-118.6351259717
 20
11.4790788783
 10
-118.6255572716
 20
11.518292711
 10
-118.6158968937
 20
11.5314218911
  0
LWPOLYLINE
  5
272
100
AcDbEntity
  8
DRAFT
100
AcDbPolyline
 62
7
  6
CONTINUOUS
 90
11
 70
0
 10
-118.5153571077
 20
-9.9862082668
 10
-118.5323852048
 20
-10.4893345158
 10
-118.541184401
 20
-10.7051533538
 10
-118.550172778
 20
-10.8972482371
 10
-118.5592893535
 20
-11.064315476
 10
-118.5685349272
 20
-11.2061837622
 10
-118.5779086993
 20
-11.3230244038
 10
-118.587347288
 20
-11.4140476356
 10
-118.5968511715
 20
-11.4790788783
 10
-118.6064198715
 20
-11.518292711
 10
-118.6158968937
 20
-11.5314218911
  0
LWPOLYLINE
  5
273
100
AcDbEntity
  8
RACCORDO
100
AcDbPolyline
 62
7
  6
CONTINUOUS
 90
9
 70
0
 10
-117.3821703245
 20
-32.1935683378
 10
-117.3804165348
 20
-32.197278214
 10
-117.3763585596
 20
-32.2028455461
 10
-117.3700246522
 20
-32.2102703342
 10
-117.3614038111
 20
-32.2197035279
 10
-117.3505719139
 20
-32.2309941777
 10
-117.3378032266
 20
-32.2436894342
 10
-117.3232747672
 20
-32.2578276016
 10
-117.3071389711
 20
-32.2733703758
  0
LINE
  5
274
100
AcDbEntity
  8
DRAFT
100
AcDbLine
 62
250
  6
CONTINUOUS
 10
-113.0
 20
34.0
 11
-113.0
 21
33.7242099741
  0
LINE
  5
275
100
AcDbEntity
  8
DRAFT
100
AcDbLine
 62
250
  6
CONTINUOUS
 10
-113.0
 20
-34.0
 11
-113.0
 21
-33.7242099741
  0
LINE
  5
276
100
AcDbEntity
  8
0
100
AcDbLine
 62
250
  6
CONTINUOUS
 10
-113.0
 20
-39.7
 11
-113.0
 21
-41.5
  0
LINE
  5
277
100
AcDbEntity
  8
0
100
AcDbLine
 62
250
  6
CONTINUOUS
 10
-113.0
 20
39.7
 11
-113.0
 21
41.5
  0
LINE
  5
278
100
AcDbEntity
  8
DRAFT
100
AcDbLine
 62
7
  6
CONTINUOUS
 10
-111.5
 20
39.7
 11
-111.5
 21
35.5
  0
LINE
  5
279
100
AcDbEntity
  8
DRAFT
100
AcDbLine
 62
7
  6
CONTINUOUS
 10
-111.5
 20
-35.5
 11
-111.5
 21
-39.7
  0
LINE
  5
27A
100
AcDbEntity
  8
0
100
AcDbLine
 62
7
  6
CONTINUOUS
 10
-111.2242099741
 20
39.6749258819
 11
-111.2242099741
 21
35.5
  0
LINE
  5
27B
100
AcDbEntity
  8
0
100
AcDbLine
 62
7
  6
CONTINUOUS
 10
-111.2242099741
 20
-35.5
 11
-111.2242099741
 21
-39.6749258819
  0
LWPOLYLINE
  5
27C
100
AcDbEntity
  8
RACCORDO
100
AcDbPolyline
 62
250
  6
CONTINUOUS
 90
8
 70
0
 10
-105.9305827057
 20
40.8747431161
 10
-105.9313764027
 20
40.870888332
 10
-105.9321596975
 20
40.8620393461
 10
-105.93293259
 20
40.8482268862
 10
-105.9336982083
 20
40.829503036
 10
-105.9344534243
 20
40.8059397378
 10
-105.9351888541
 20
40.777627357
 10
-105.9366001803
 20
40.7072042722
  0
LWPOLYLINE
  5
27D
100
AcDbEntity
  8
RACCORDO
100
AcDbPolyline
 62
250
  6
CONTINUOUS
 90
10
 70
0
 10
-105.4306588581
 20
40.3748192685
 10
-105.4315112027
 20
40.3722316668
 10
-105.432351034
 20
40.3663563206
 10
-105.4331783518
 20
40.3571932299
 10
-105.4339971356
 20
40.3446701809
 10
-105.434803406
 20
40.3288593874
 10
-105.4355852252
 20
40.3099774912
 10
-105.4363422913
 20
40.2879728079
 10
-105.4370749063
 20
40.2628970218
 10
-105.4384329418
 20
40.204615307
  0
LWPOLYLINE
  5
27E
100
AcDbEntity
  8
RACCORDO
100
AcDbPolyline
 62
7
  6
CONTINUOUS
 90
7
 70
0
 10
-117.3827210873
 20
-32.1921133978
 10
-117.3826292232
 20
-32.1922300673
 10
-117.3825373872
 20
-32.1923970651
 10
-117.3824455793
 20
-32.192614391
 10
-117.3823537996
 20
-32.1928820451
 10
-117.382262048
 20
-32.1932000274
 10
-117.3821703245
 20
-32.1935683378
  0
LWPOLYLINE
  5
27F
100
AcDbEntity
  8
RACCORDO
100
AcDbPolyline
 62
250
  6
CONTINUOUS
 90
16
 70
0
 10
-105.4306588581
 20
40.3748192685
 10
-105.4334122763
 20
40.4270647886
 10
-105.4416105718
 20
40.4787382352
 10
-105.4551639917
 20
40.5292736895
 10
-105.4739241349
 20
40.5781176923
 10
-105.4976855739
 20
40.6247352985
 10
-105.5261881013
 20
40.6686159366
 10
-105.5591195877
 20
40.7092790159
 10
-105.5961193913
 20
40.7462791746
 10
-105.6367822978
 20
40.7792111553
 10
-105.6806629841
 20
40.8077142682
 10
-105.727280878
 20
40.8314763231
 10
-105.7761254034
 20
40.8502370457
 10
-105.8266616073
 20
40.8637909487
 10
-105.8783360226
 20
40.8719895753
 10
-105.9305827058
 20
40.8747431161
  0
LWPOLYLINE
  5
280
100
AcDbEntity
  8
RACCORDO
100
AcDbPolyline
 62
250
  6
CONTINUOUS
 90
16
 70
0
 10
-105.358575216
 20
40.4469029106
 10
-105.3613287036
 20
40.4991490889
 10
-105.3695271835
 20
40.5508230688
 10
-105.383080866
 20
40.6013589188
 10
-105.4018413118
 20
40.6502031721
 10
-105.4256030572
 20
40.6968208882
 10
-105.4541058643
 20
40.7407015113
 10
-105.4870375714
 20
40.7813644626
 10
-105.5240375116
 20
40.8183644029
 10
-105.5647004629
 20
40.85129611
 10
-105.6085810861
 20
40.8797989171
 10
-105.6551988021
 20
40.9035606624
 10
-105.7040430554
 20
40.9223211082
 10
-105.7545789054
 20
40.9358747908
 10
-105.8062528854
 20
40.9440732706
 10
-105.8584990636
 20
40.9468267582
  0
LINE
  5
281
100
AcDbEntity
  8
0
100
AcDbLine
 62
7
  6
CONTINUOUS
 10
-106.2
 20
1.4375
 11
-106.2
 21
1.3125001192
  0
LINE
  5
282
100
AcDbEntity
  8
0
100
AcDbLine
 62
7
  6
CONTINUOUS
 10
-106.2
 20
-0.3750000596
 11
-106.2
 21
-2.5
  0
LINE
  5
283
100
AcDbEntity
  8
0
100
AcDbLine
 62
7
  6
CONTINUOUS
 10
-105.8808511019
 20
-2.1875000074
 11
-105.8808511019
 21
-0.3750000596
  0
LINE
  5
284
100
AcDbEntity
  8
0
100
AcDbLine
 62
7
  6
CONTINUOUS
 10
-105.8808511019
 20
1.25
 11
-105.8808511019
 21
1.5000001192
  0
LINE
  5
285
100
AcDbEntity
  8
0
100
AcDbLine
 62
7
  6
CONTINUOUS
 10
-105.4978724241
 20
0.3125
 11
-105.4978724241
 21
0.6249998808
  0
LINE
  5
286
100
AcDbEntity
  8
RACCORDO
100
AcDbLine
 62
250
  6
CONTINUOUS
 10
-105.358575216
 20
39.9662592691
 11
-105.358575216
 21
40.4469029106
  0
LINE
  5
287
100
AcDbEntity
  8
0
100
AcDbLine
 62
7
  6
CONTINUOUS
 10
-105.1148935676
 20
-1.1875
 11
-105.1148935676
 21
-1.5625
  0
LINE
  5
288
100
AcDbEntity
  8
0
100
AcDbLine
 62
7
  6
CONTINUOUS
 10
-104.8595744491
 20
1.5000001192
 11
-104.8595744491
 21
1.25
  0
LINE
  5
289
100
AcDbEntity
  8
RACCORDO
100
AcDbLine
 62
250
  6
CONTINUOUS
 10
-104.8586513684
 20
39.9748344851
 11
-104.8586513685
 21
40.9639771903
  0
LINE
  5
28A
100
AcDbEntity
  8
0
100
AcDbLine
 62
7
  6
CONTINUOUS
 10
-104.7957446694
 20
-1.5625
 11
-104.7957446694
 21
-1.1875
  0
LINE
  5
28B
100
AcDbEntity
  8
0
100
AcDbLine
 62
7
  6
CONTINUOUS
 10
-104.6042553306
 20
1.25
 11
-104.6042553306
 21
1.5000001192
  0
LINE
  5
28C
100
AcDbEntity
  8
0
100
AcDbLine
 62
7
  6
CONTINUOUS
 10
-104.5404255509
 20
-2.5
 11
-104.5404255509
 21
-2.0625000149
  0
LINE
  5
28D
100
AcDbEntity
  8
0
100
AcDbLine
 62
7
  6
CONTINUOUS
 10
-103.9659574449
 20
-2.125
 11
-103.9659574449
 21
-2.5
  0
LINE
  5
28E
100
AcDbEntity
  8
0
100
AcDbLine
 62
7
  6
CONTINUOUS
 10
-103.9021276653
 20
0.5625001192
 11
-103.9021276653
 21
0.2500000596
  0
LINE
  5
28F
100
AcDbEntity
  8
0
100
AcDbLine
 62
7
  6
CONTINUOUS
 10
-103.5191489428
 20
1.5624998808
 11
-103.5191489428
 21
1.1874998808
  0
LINE
  5
290
100
AcDbEntity
  8
0
100
AcDbLine
 62
7
  6
CONTINUOUS
 10
-103.5191489428
 20
-1.1875
 11
-103.5191489428
 21
-1.5625
  0
LINE
  5
291
100
AcDbEntity
  8
0
100
AcDbLine
 62
7
  6
CONTINUOUS
 10
-103.2
 20
-1.5625
 11
-103.2
 21
-1.1875
  0
LINE
  5
292
100
AcDbEntity
  8
0
100
AcDbLine
 62
7
  6
CONTINUOUS
 10
-103.2
 20
1.1250001192
 11
-103.2
 21
1.625
  0
LINE
  5
293
100
AcDbEntity
  8
0
100
AcDbLine
 62
7
  6
CONTINUOUS
 10
-102.6
 20
-16.0
 11
-102.6
 21
16.0
  0
LINE
  5
294
100
AcDbEntity
  8
0
100
AcDbLine
 62
7
  6
CONTINUOUS
 10
-102.4
 20
16.0
 11
-102.4
 21
-16.0
  0
LINE
  5
295
100
AcDbEntity
  8
RACCORDO
100
AcDbLine
 62
250
  6
CONTINUOUS
 10
-100.0413486316
 20
39.9748344851
 11
-100.0413486316
 21
40.9639771903
  0
LINE
  5
296
100
AcDbEntity
  8
RACCORDO
100
AcDbLine
 62
250
  6
CONTINUOUS
 10
-105.9416807152
 20
40.1287102966
 11
-105.9425880081
 21
39.382246477
  0
LINE
  5
297
100
AcDbEntity
  8
RACCORDO
100
AcDbLine
 62
250
  6
CONTINUOUS
 10
-105.9396203661
 20
40.4587299888
 11
-105.9416807152
 21
40.1287102966
  0
LINE
  5
298
100
AcDbEntity
  8
RACCORDO
100
AcDbLine
 62
250
  6
CONTINUOUS
 10
-105.4411083783
 20
40.0167336255
 11
-105.4421133401
 21
39.882721145
  0
LINE
  5
299
100
AcDbEntity
  8
RACCORDO
100
AcDbLine
 62
250
  6
CONTINUOUS
 10
-105.9379044594
 20
40.61947045
 11
-105.9396203661
 21
40.4587299888
  0
LINE
  5
29A
100
AcDbEntity
  8
RACCORDO
100
AcDbLine
 62
250
  6
CONTINUOUS
 10
-105.4396394966
 20
40.1359714998
 11
-105.4411083783
 21
40.0167336255
  0
LINE
  5
29B
100
AcDbEntity
  8
RACCORDO
100
AcDbLine
 62
250
  6
CONTINUOUS
 10
-105.9366001803
 20
40.7072042722
 11
-105.9379044594
 21
40.61947045
  0
LINE
  5
29C
100
AcDbEntity
  8
RACCORDO
100
AcDbLine
 62
250
  6
CONTINUOUS
 10
-105.4384329418
 20
40.204615307
 11
-105.4396394966
 21
40.1359714998
  0
LWPOLYLINE
  5
29D
100
AcDbEntity
  8
RACCORDO
100
AcDbPolyline
 62
250
  6
CONTINUOUS
 90
16
 70
0
 10
-99.541424784
 20
40.4469029106
 10
-99.5386713034
 20
40.4991490224
 10
-99.5304728429
 20
40.5508229449
 10
-99.5169191895
 20
40.6013587481
 10
-99.4981587804
 20
40.6502029652
 10
-99.4743970762
 20
40.6968206573
 10
-99.4458943098
 20
40.7407012718
 10
-99.4129626393
 20
40.7813642287
 10
-99.3759627284
 20
40.8183641868
 10
-99.3352997945
 20
40.851295923
 10
-99.2914191736
 20
40.8797987671
 10
-99.2448014432
 20
40.9035605532
 10
-99.1959571567
 20
40.9223210393
 10
-99.1454212539
 20
40.9358747569
 10
-99.0937472027
 20
40.9440732613
 10
-99.0415009364
 20
40.9468267582
  0
LWPOLYLINE
  5
29E
100
AcDbEntity
  8
RACCORDO
100
AcDbPolyline
 62
250
  6
CONTINUOUS
 90
16
 70
0
 10
-99.4693411419
 20
40.3748192685
 10
-99.4665876542
 20
40.4270654467
 10
-99.4583891744
 20
40.4787394267
 10
-99.4448354919
 20
40.5292752767
 10
-99.4260750461
 20
40.57811953
 10
-99.4023133007
 20
40.624737246
 10
-99.3738104936
 20
40.6686178692
 10
-99.3408787866
 20
40.7092808205
 10
-99.3038788463
 20
40.7462807607
 10
-99.263215895
 20
40.7792124678
 10
-99.2193352718
 20
40.8077152749
 10
-99.1727175558
 20
40.8314770203
 10
-99.1238733025
 20
40.8502374661
 10
-99.0733374525
 20
40.8637911486
 10
-99.0216634725
 20
40.8719896285
 10
-98.9694172943
 20
40.8747431161
  0
LINE
  5
29F
100
AcDbEntity
  8
0
100
AcDbLine
 62
7
  6
CONTINUOUS
 10
-106.1361702204
 20
1.8750001192
 11
-106.2
 21
1.4375
  0
LINE
  5
2A0
100
AcDbEntity
  8
0
100
AcDbLine
 62
7
  6
CONTINUOUS
 10
-104.6042553306
 20
1.5000001192
 11
-104.5404255509
 21
1.8750001192
  0
LINE
  5
2A1
100
AcDbEntity
  8
0
100
AcDbLine
 62
7
  6
CONTINUOUS
 10
-105.8808511019
 20
1.5000001192
 11
-105.8170213223
 21
1.8125
  0
LINE
  5
2A2
100
AcDbEntity
  8
0
100
AcDbLine
 62
7
  6
CONTINUOUS
 10
-105.0510637879
 20
-0.8749999404
 11
-105.1148935676
 21
-1.1875
  0
LINE
  5
2A3
100
AcDbEntity
  8
0
100
AcDbLine
 62
7
  6
CONTINUOUS
 10
-103.5191489428
 20
1.1874998808
 11
-103.5829787225
 21
0.875
  0
LINE
  5
2A4
100
AcDbEntity
  8
0
100
AcDbLine
 62
7
  6
CONTINUOUS
 10
-103.2638297852
 20
-1.8750000149
 11
-103.2
 21
-1.5625
  0
LWPOLYLINE
  5
2A5
100
AcDbEntity
  8
RACCORDO
100
AcDbPolyline
 62
7
  6
CONTINUOUS
 90
7
 70
0
 10
-117.3821703245
 20
-26.2064316619
 10
-117.3822620994
 20
-26.2068001082
 10
-117.3823538819
 20
-26.207118172
 10
-117.3824456719
 20
-26.2073858533
 10
-117.3825374695
 20
-26.2076031521
 10
-117.3826292746
 20
-26.2077700684
 10
-117.3827210873
 20
-26.2078866022
  0
LINE
  5
2A6
100
AcDbEntity
  8
0
100
AcDbLine
 62
7
  6
CONTINUOUS
 10
-104.7957446694
 20
-1.1875
 11
-104.7319148898
 21
-0.9375000596
  0
LINE
  5
2A7
100
AcDbEntity
  8
0
100
AcDbLine
 62
7
  6
CONTINUOUS
 10
-103.2638297852
 20
0.875
 11
-103.2
 21
1.1250001192
  0
LINE
  5
2A8
100
AcDbEntity
  8
0
100
AcDbLine
 62
7
  6
CONTINUOUS
 10
-103.5191489428
 20
-1.5625
 11
-103.5829787225
 21
-1.8124999851
  0
LWPOLYLINE
  5
2A9
100
AcDbEntity
  8
RACCORDO
100
AcDbPolyline
 62
7
  6
CONTINUOUS
 90
3
 70
0
 10
-105.5233703758
 20
39.8071389711
 10
-105.6118728256
 20
39.7136241549
 10
-105.6307368017
 20
39.6941690341
  0
LINE
  5
2AA
100
AcDbEntity
  8
0
100
AcDbLine
 62
7
  6
CONTINUOUS
 10
-111.5
 20
39.7
 11
-111.2248759926
 21
39.9751240074
  0
LINE
  5
2AB
100
AcDbEntity
  8
0
100
AcDbLine
 62
7
  6
CONTINUOUS
 10
-117.2
 20
34.0
 11
-117.4751240074
 21
33.7248759926
  0
LINE
  5
2AC
100
AcDbEntity
  8
RACCORDO
100
AcDbLine
 62
250
  6
CONTINUOUS
 10
-105.8584990636
 20
40.9468267582
 11
-105.9305827057
 21
40.8747431161
  0
LINE
  5
2AD
100
AcDbEntity
  8
RACCORDO
100
AcDbLine
 62
250
  6
CONTINUOUS
 10
-105.358575216
 20
40.4469029106
 11
-105.4306588581
 21
40.3748192685
  0
LINE
  5
2AE
100
AcDbEntity
  8
RACCORDO
100
AcDbLine
 62
7
  6
CONTINUOUS
 10
-105.358575216
 20
39.9662592691
 11
-105.4421133401
 21
39.882721145
  0
LINE
  5
2AF
100
AcDbEntity
  8
RACCORDO
100
AcDbLine
 62
7
  6
CONTINUOUS
 10
-105.6307368017
 20
39.6941690341
 11
-105.7051926051
 21
39.619527078
  0
LWPOLYLINE
  5
2B0
100
AcDbEntity
  8
RACCORDO
100
AcDbPolyline
 62
7
  6
CONTINUOUS
 90
3
 70
0
 10
-105.7051926051
 20
39.619527078
 10
-105.868774978
 20
39.4562598979
 10
-105.9425880081
 20
39.382246477
  0
LWPOLYLINE
  5
2B1
100
AcDbEntity
  8
RACCORDO
100
AcDbPolyline
 62
7
  6
CONTINUOUS
 90
3
 70
0
 10
-117.3071389711
 20
-32.2733703758
 10
-117.2136241549
 20
-32.3618728256
 10
-117.1941690341
 20
-32.3807368017
  0
LINE
  5
2B2
100
AcDbEntity
  8
0
100
AcDbLine
 62
7
  6
CONTINUOUS
 10
-111.5
 20
-39.7
 11
-111.2248759926
 21
-39.9751240074
  0
LINE
  5
2B3
100
AcDbEntity
  8
0
100
AcDbLine
 62
7
  6
CONTINUOUS
 10
-117.2
 20
-34.0
 11
-117.4751240074
 21
-33.7248759926
  0
LINE
  5
2B4
100
AcDbEntity
  8
RACCORDO
100
AcDbLine
 62
250
  6
CONTINUOUS
 10
-118.4468267582
 20
-32.6084990636
 11
-118.3747431161
 21
-32.6805827057
  0
LINE
  5
2B5
100
AcDbEntity
  8
RACCORDO
100
AcDbLine
 62
250
  6
CONTINUOUS
 10
-117.9469029106
 20
-32.108575216
 11
-117.8748192685
 21
-32.1806588581
  0
LINE
  5
2B6
100
AcDbEntity
  8
RACCORDO
100
AcDbLine
 62
7
  6
CONTINUOUS
 10
-117.4662592691
 20
-32.108575216
 11
-117.382721145
 21
-32.1921133401
  0
LINE
  5
2B7
100
AcDbEntity
  8
RACCORDO
100
AcDbLine
 62
7
  6
CONTINUOUS
 10
-117.1941690341
 20
-32.3807368017
 11
-117.119527078
 21
-32.4551926051
  0
LWPOLYLINE
  5
2B8
100
AcDbEntity
  8
RACCORDO
100
AcDbPolyline
 62
7
  6
CONTINUOUS
 90
3
 70
0
 10
-117.119527078
 20
-32.4551926051
 10
-116.9562598979
 20
-32.618774978
 10
-116.8822464769
 20
-32.6925880081
  0
LWPOLYLINE
  5
2B9
100
AcDbEntity
  8
DRAFT
100
AcDbPolyline
 62
7
  6
CONTINUOUS
 90
10
 70
0
 10
-118.6158968937
 20
-11.5314218911
 10
-118.6255572716
 20
-11.518292711
 10
-118.6351259717
 20
-11.4790788783
 10
-118.6446298551
 20
-11.4140476356
 10
-118.6540684438
 20
-11.3230244038
 10
-118.663442216
 20
-11.2061837622
 10
-118.6726877897
 20
-11.064315476
 10
-118.6818043651
 20
-10.8972482371
 10
-118.6907927421
 20
-10.7051533538
 10
-118.6995919384
 20
-10.4893345158
  0
LINE
  5
2BA
100
AcDbEntity
  8
0
100
AcDbLine
 62
7
  6
CONTINUOUS
 10
-104.7319148898
 20
-1.8124999851
 11
-104.7957446694
 21
-1.5625
  0
LINE
  5
2BB
100
AcDbEntity
  8
0
100
AcDbLine
 62
7
  6
CONTINUOUS
 10
-103.5829787225
 20
-0.9375000596
 11
-103.5191489428
 21
-1.1875
  0
LINE
  5
2BC
100
AcDbEntity
  8
0
100
AcDbLine
 62
7
  6
CONTINUOUS
 10
-105.8170213223
 20
0.9375001192
 11
-105.8808511019
 21
1.25
  0
LINE
  5
2BD
100
AcDbEntity
  8
0
100
AcDbLine
 62
7
  6
CONTINUOUS
 10
-105.1148935676
 20
-1.5625
 11
-105.0510637879
 21
-1.8750000149
  0
LINE
  5
2BE
100
AcDbEntity
  8
0
100
AcDbLine
 62
7
  6
CONTINUOUS
 10
-103.2
 20
-1.1875
 11
-103.2638297852
 21
-0.8749999404
  0
LINE
  5
2BF
100
AcDbEntity
  8
0
100
AcDbLine
 62
7
  6
CONTINUOUS
 10
-103.5829787225
 20
1.8750001192
 11
-103.5191489428
 21
1.5624998808
  0
LINE
  5
2C0
100
AcDbEntity
  8
0
100
AcDbLine
 62
7
  6
CONTINUOUS
 10
-106.2
 20
1.3125001192
 11
-106.1361702204
 21
0.875
  0
LWPOLYLINE
  5
2C1
100
AcDbEntity
  8
RACCORDO
100
AcDbPolyline
 62
250
  6
CONTINUOUS
 90
8
 70
0
 10
-99.4636577087
 20
40.2879728056
 10
-99.4644147748
 20
40.309977488
 10
-99.465196594
 20
40.3288593862
 10
-99.4660028644
 20
40.3446701832
 10
-99.4668216481
 20
40.3571932343
 10
-99.467648966
 20
40.3663563249
 10
-99.4684887972
 20
40.3722316696
 10
-99.4693411419
 20
40.3748192685
  0
LWPOLYLINE
  5
2C2
100
AcDbEntity
  8
RACCORDO
100
AcDbPolyline
 62
250
  6
CONTINUOUS
 90
6
 70
0
 10
-98.9655465758
 20
40.8059397378
 10
-98.9663017919
 20
40.829503036
 10
-98.9670674101
 20
40.8482268862
 10
-98.9678403026
 20
40.8620393461
 10
-98.9686235973
 20
40.870888332
 10
-98.9694172943
 20
40.8747431161
  0
LINE
  5
2C3
100
AcDbEntity
  8
RACCORDO
100
AcDbLine
 62
250
  6
CONTINUOUS
 10
-99.4622279625
 20
40.2351218303
 11
-99.4636577087
 21
40.2879728056
  0
LINE
  5
2C4
100
AcDbEntity
  8
RACCORDO
100
AcDbLine
 62
250
  6
CONTINUOUS
 10
-98.9640955897
 20
40.7446697358
 11
-98.9655465758
 21
40.8059397378
  0
LINE
  5
2C5
100
AcDbEntity
  8
RACCORDO
100
AcDbLine
 62
250
  6
CONTINUOUS
 10
-99.4609416376
 20
40.1714093775
 11
-99.4622279625
 21
40.2351218303
  0
LINE
  5
2C6
100
AcDbEntity
  8
RACCORDO
100
AcDbLine
 62
250
  6
CONTINUOUS
 10
-98.962732957
 20
40.6654080484
 11
-98.9640955897
 21
40.7446697358
  0
LINE
  5
2C7
100
AcDbEntity
  8
RACCORDO
100
AcDbLine
 62
250
  6
CONTINUOUS
 10
-99.4593321223
 20
40.0583179827
 11
-99.4609416376
 21
40.1714093775
  0
LINE
  5
2C8
100
AcDbEntity
  8
RACCORDO
100
AcDbLine
 62
250
  6
CONTINUOUS
 10
-98.9609149354
 20
40.5159224306
 11
-98.962732957
 21
40.6654080484
  0
LWPOLYLINE
  5
2C9
100
AcDbEntity
  8
RACCORDO
100
AcDbPolyline
 62
250
  6
CONTINUOUS
 90
3
 70
0
 10
-99.45788666
 20
39.882721145
 10
-99.4581701005
 20
39.9290335958
 10
-99.4593321223
 20
40.0583179827
  0
LINE
  5
2CA
100
AcDbEntity
  8
RACCORDO
100
AcDbLine
 62
250
  6
CONTINUOUS
 10
-98.9586418039
 20
40.1996222953
 11
-98.9609149354
 21
40.5159224306
  0
LINE
  5
2CB
100
AcDbEntity
  8
RACCORDO
100
AcDbLine
 62
250
  6
CONTINUOUS
 10
-98.9574135063
 20
39.6749258819
 11
-98.9586418039
 21
40.1996222953
  0
LINE
  5
2CC
100
AcDbEntity
  8
RACCORDO
100
AcDbLine
 62
250
  6
CONTINUOUS
 10
-99.541424784
 20
40.4469029106
 11
-99.541424784
 21
39.9662592691
  0
LINE
  5
2CD
100
AcDbEntity
  8
RACCORDO
100
AcDbLine
 62
250
  6
CONTINUOUS
 10
-98.9574119919
 20
39.382246477
 11
-98.9574119919
 21
39.6749258819
  0
LINE
  5
2CE
100
AcDbEntity
  8
0
100
AcDbLine
 62
7
  6
CONTINUOUS
 10
-92.0
 20
26.4
 11
-92.0
 21
26.6
  0
LINE
  5
2CF
100
AcDbEntity
  8
0
100
AcDbLine
 62
7
  6
CONTINUOUS
 10
-104.6042553306
 20
2.3124998808
 11
-104.7319148898
 21
2.0
  0
LINE
  5
2D0
100
AcDbEntity
  8
0
100
AcDbLine
 62
7
  6
CONTINUOUS
 10
-106.0085106611
 20
2.1249998808
 11
-106.1361702204
 21
1.8750001192
  0
LINE
  5
2D1
100
AcDbEntity
  8
0
100
AcDbLine
 62
7
  6
CONTINUOUS
 10
-103.5829787225
 20
0.875
 11
-103.6468085021
 21
0.7500001192
  0
LINE
  5
2D2
100
AcDbEntity
  8
0
100
AcDbLine
 62
7
  6
CONTINUOUS
 10
-103.3914893612
 20
0.6249998808
 11
-103.2638297852
 21
0.875
  0
LWPOLYLINE
  5
2D3
100
AcDbEntity
  8
RACCORDO
100
AcDbPolyline
 62
250
  6
CONTINUOUS
 90
11
 70
0
 10
-118.4468267582
 20
-25.7915009364
 10
-118.4476740612
 20
-25.7930768069
 10
-118.448544176
 20
-25.7977076566
 10
-118.4494371025
 20
-25.8053934854
 10
-118.4503597283
 20
-25.8159722645
 10
-118.4513051659
 20
-25.8296060227
 10
-118.4522527524
 20
-25.8467808469
 10
-118.4532030686
 20
-25.8676562235
 10
-118.4541555337
 20
-25.8920726661
 10
-118.4550877436
 20
-25.9200378021
 10
-118.4568896175
 20
-25.9869256067
  0
LWPOLYLINE
  5
2D4
100
AcDbEntity
  8
RACCORDO
100
AcDbPolyline
 62
7
  6
CONTINUOUS
 90
7
 70
0
 10
-105.4421133978
 20
39.8827210873
 10
-105.4422300673
 20
39.8826292232
 10
-105.4423970651
 20
39.8825373872
 10
-105.442614391
 20
39.8824455793
 10
-105.4428820451
 20
39.8823537996
 10
-105.4432000274
 20
39.882262048
 10
-105.4435683378
 20
39.8821703245
  0
LINE
  5
2D5
100
AcDbEntity
  8
0
100
AcDbLine
 62
7
  6
CONTINUOUS
 10
-106.1361702204
 20
0.875
 11
-106.0085106611
 21
0.6249998808
  0
LINE
  5
2D6
100
AcDbEntity
  8
0
100
AcDbLine
 62
7
  6
CONTINUOUS
 10
-103.6468085021
 20
2.0
 11
-103.5829787225
 21
1.8750001192
  0
LINE
  5
2D7
100
AcDbEntity
  8
0
100
AcDbLine
 62
7
  6
CONTINUOUS
 10
-104.9872340083
 20
1.8750001192
 11
-104.8595744491
 21
1.5000001192
  0
LINE
  5
2D8
100
AcDbEntity
  8
0
100
AcDbLine
 62
7
  6
CONTINUOUS
 10
-103.2
 20
1.625
 11
-103.2638297852
 21
1.8750001192
  0
LINE
  5
2D9
100
AcDbEntity
  8
0
100
AcDbLine
 62
7
  6
CONTINUOUS
 10
-85.75
 20
-11.4816392509
 11
-85.75
 21
-10.398724427
  0
LINE
  5
2DA
100
AcDbEntity
  8
0
100
AcDbLine
 62
7
  6
CONTINUOUS
 10
-85.75
 20
10.398724427
 11
-85.75
 21
11.481639251
  0
LINE
  5
2DB
100
AcDbEntity
  8
0
100
AcDbLine
 62
7
  6
CONTINUOUS
 10
-84.25
 20
11.481639251
 11
-84.25
 21
10.398724427
  0
LINE
  5
2DC
100
AcDbEntity
  8
0
100
AcDbLine
 62
7
  6
CONTINUOUS
 10
-84.25
 20
-10.398724427
 11
-84.25
 21
-11.4816392509
  0
LINE
  5
2DD
100
AcDbEntity
  8
0
100
AcDbLine
 62
7
  6
CONTINUOUS
 10
-104.8595744491
 20
-0.5625000596
 11
-105.0510637879
 21
-0.8749999404
  0
LINE
  5
2DE
100
AcDbEntity
  8
0
100
AcDbLine
 62
7
  6
CONTINUOUS
 10
-103.4553191409
 20
-2.1875000074
 11
-103.2638297852
 21
-1.8750000149
  0
LINE
  5
2DF
100
AcDbEntity
  8
0
100
AcDbLine
 62
7
  6
CONTINUOUS
 10
-105.8170213223
 20
1.8125
 11
-105.689361763
 21
2.0
  0
LINE
  5
2E0
100
AcDbEntity
  8
0
100
AcDbLine
 62
7
  6
CONTINUOUS
 10
-104.5404255509
 20
1.8750001192
 11
-104.4127659917
 21
2.0625001192
  0
LINE
  5
2E1
100
AcDbEntity
  8
0
100
AcDbLine
 62
7
  6
CONTINUOUS
 10
-104.7319148898
 20
-0.9375000596
 11
-104.6042553306
 21
-0.7500000596
  0
LINE
  5
2E2
100
AcDbEntity
  8
0
100
AcDbLine
 62
7
  6
CONTINUOUS
 10
-103.5191489428
 20
0.4375000596
 11
-103.3914893612
 21
0.6249998808
  0
LINE
  5
2E3
100
AcDbEntity
  8
0
100
AcDbLine
 62
7
  6
CONTINUOUS
 10
-103.5829787225
 20
-1.8124999851
 11
-103.7106382817
 21
-1.9999999851
  0
LWPOLYLINE
  5
2E4
100
AcDbEntity
  8
DRAFT
100
AcDbPolyline
 62
7
  6
CONTINUOUS
 90
10
 70
0
 10
-96.5314218911
 20
41.1158968937
 10
-96.518292711
 20
41.1255572716
 10
-96.4790788783
 20
41.1351259717
 10
-96.4140476356
 20
41.1446298551
 10
-96.3230244038
 20
41.1540684438
 10
-96.2061837622
 20
41.163442216
 10
-96.064315476
 20
41.1726877897
 10
-95.8972482371
 20
41.1818043651
 10
-95.7051533538
 20
41.1907927421
 10
-95.4893345158
 20
41.1995919384
  0
LWPOLYLINE
  5
2E5
100
AcDbEntity
  8
DRAFT
100
AcDbPolyline
 62
7
  6
CONTINUOUS
 90
12
 70
0
 10
-96.5314218911
 20
-41.1158968937
 10
-96.518292711
 20
-41.1255572716
 10
-96.4790788783
 20
-41.1351259717
 10
-96.4140476356
 20
-41.1446298551
 10
-96.3230244038
 20
-41.1540684438
 10
-96.2061837622
 20
-41.163442216
 10
-96.064315476
 20
-41.1726877897
 10
-95.8972482371
 20
-41.1818043651
 10
-95.7051533538
 20
-41.1907927421
 10
-95.4893345158
 20
-41.1995919384
 10
-95.2496333687
 20
-41.2082005773
 10
-94.7008379632
 20
-41.22479346
  0
LINE
  5
2E6
100
AcDbEntity
  8
0
100
AcDbLine
 62
7
  6
CONTINUOUS
 10
-104.5404255509
 20
-2.0625000149
 11
-104.7319148898
 21
-1.8124999851
  0
LWPOLYLINE
  5
2E7
100
AcDbEntity
  8
DRAFT
100
AcDbPolyline
 62
7
  6
CONTINUOUS
 90
10
 70
0
 10
-118.6158968937
 20
11.5314218911
 10
-118.6064198715
 20
11.518292711
 10
-118.5968511715
 20
11.4790788783
 10
-118.587347288
 20
11.4140476356
 10
-118.5779086993
 20
11.3230244038
 10
-118.5685349272
 20
11.2061837622
 10
-118.5592893535
 20
11.064315476
 10
-118.550172778
 20
10.8972482372
 10
-118.541184401
 20
10.7051533538
 10
-118.5323852048
 20
10.4893345158
  0
LINE
  5
2E8
100
AcDbEntity
  8
0
100
AcDbLine
 62
7
  6
CONTINUOUS
 10
-105.689361763
 20
0.7500001192
 11
-105.8170213223
 21
0.9375001192
  0
LINE
  5
2E9
100
AcDbEntity
  8
0
100
AcDbLine
 62
7
  6
CONTINUOUS
 10
-103.7106382817
 20
-0.7500000596
 11
-103.5829787225
 21
-0.9375000596
  0
LINE
  5
2EA
100
AcDbEntity
  8
0
100
AcDbLine
 62
7
  6
CONTINUOUS
 10
-103.3914893612
 20
2.1249998808
 11
-103.5191489428
 21
2.3124998808
  0
LINE
  5
2EB
100
AcDbEntity
  8
0
100
AcDbLine
 62
7
  6
CONTINUOUS
 10
-105.0510637879
 20
-1.8750000149
 11
-104.8595744491
 21
-2.1875000074
  0
LINE
  5
2EC
100
AcDbEntity
  8
0
100
AcDbLine
 62
7
  6
CONTINUOUS
 10
-103.2638297852
 20
-0.8749999404
 11
-103.4553191409
 21
-0.5625000596
  0
LINE
  5
2ED
100
AcDbEntity
  8
0
100
AcDbLine
 62
7
  6
CONTINUOUS
 10
-103.2638297852
 20
1.8750001192
 11
-103.3914893612
 21
2.1249998808
  0
LINE
  5
2EE
100
AcDbEntity
  8
0
100
AcDbLine
 62
7
  6
CONTINUOUS
 10
-105.7531915426
 20
2.375
 11
-106.0085106611
 21
2.1249998808
  0
LWPOLYLINE
  5
2EF
100
AcDbEntity
  8
DRAFT
100
AcDbPolyline
 62
7
  6
CONTINUOUS
 90
10
 70
0
 10
-73.4685781089
 20
41.1158968937
 10
-73.481707289
 20
41.1064198715
 10
-73.5209211217
 20
41.0968511715
 10
-73.5859523644
 20
41.087347288
 10
-73.6769755962
 20
41.0779086993
 10
-73.7938162378
 20
41.0685349272
 10
-73.935684524
 20
41.0592893535
 10
-74.1027517629
 20
41.050172778
 10
-74.2948466462
 20
41.041184401
 10
-74.5106654842
 20
41.0323852048
  0
LWPOLYLINE
  5
2F0
100
AcDbEntity
  8
RACCORDO
100
AcDbPolyline
 62
7
  6
CONTINUOUS
 90
9
 70
0
 10
-105.4435683378
 20
39.8821703245
 10
-105.447278214
 20
39.8804165348
 10
-105.4528455461
 20
39.8763585596
 10
-105.4602703342
 20
39.8700246522
 10
-105.4697035279
 20
39.8614038111
 10
-105.4809941777
 20
39.8505719139
 10
-105.4936894342
 20
39.8378032266
 10
-105.5078276016
 20
39.8232747672
 10
-105.5233703758
 20
39.8071389711
  0
LWPOLYLINE
  5
2F1
100
AcDbEntity
  8
DRAFT
100
AcDbPolyline
 62
7
  6
CONTINUOUS
 90
12
 70
0
 10
-73.4685781089
 20
-41.1158968937
 10
-73.481707289
 20
-41.1064198715
 10
-73.5209211217
 20
-41.0968511715
 10
-73.5859523644
 20
-41.087347288
 10
-73.6769755962
 20
-41.0779086993
 10
-73.7938162378
 20
-41.0685349272
 10
-73.935684524
 20
-41.0592893535
 10
-74.1027517629
 20
-41.050172778
 10
-74.2948466462
 20
-41.041184401
 10
-74.5106654842
 20
-41.0323852048
 10
-74.7503666313
 20
-41.0237765658
 10
-75.2991620368
 20
-41.0071836832
  0
LINE
  5
2F2
100
AcDbEntity
  8
0
100
AcDbLine
 62
7
  6
CONTINUOUS
 10
-104.7319148898
 20
2.0
 11
-104.9234042287
 21
2.2500001192
  0
LWPOLYLINE
  5
2F3
100
AcDbEntity
  8
RACCORDO
100
AcDbPolyline
 62
250
  6
CONTINUOUS
 90
16
 70
0
 10
-117.9469029106
 20
-26.291424784
 10
-117.9477501665
 20
-26.2924285366
 10
-117.9486202526
 20
-26.294699725
 10
-117.949513169
 20
-26.2983690357
 10
-117.9504358005
 20
-26.3035862519
 10
-117.9513812621
 20
-26.3104707029
 10
-117.9523288999
 20
-26.319062591
 10
-117.9532793067
 20
-26.3294420706
 10
-117.9542318895
 20
-26.3416785008
 10
-117.9551642156
 20
-26.3556975183
 10
-117.9560753923
 20
-26.3715032584
 10
-117.9569663123
 20
-26.3890983525
 10
-117.9578172199
 20
-26.408308183
 10
-117.9586262647
 20
-26.4290680152
 10
-117.9593952972
 20
-26.4513201201
 10
-117.9607685711
 20
-26.4994714465
  0
LINE
  5
2F4
100
AcDbEntity
  8
0
100
AcDbLine
 62
7
  6
CONTINUOUS
 10
-103.6468085021
 20
0.7500001192
 11
-103.774468106
 21
0.6249998808
  0
LWPOLYLINE
  5
2F5
100
AcDbEntity
  8
DRAFT
100
AcDbPolyline
 62
7
  6
CONTINUOUS
 90
10
 70
0
 10
-62.5314218911
 20
41.1158968937
 10
-62.518292711
 20
41.1255572716
 10
-62.4790788783
 20
41.1351259717
 10
-62.4140476356
 20
41.1446298551
 10
-62.3230244038
 20
41.1540684438
 10
-62.2061837622
 20
41.163442216
 10
-62.064315476
 20
41.1726877897
 10
-61.8972482371
 20
41.1818043651
 10
-61.7051533538
 20
41.1907927421
 10
-61.4893345158
 20
41.1995919384
  0
LWPOLYLINE
  5
2F6
100
AcDbEntity
  8
RACCORDO
100
AcDbPolyline
 62
250
  6
CONTINUOUS
 90
10
 70
0
 10
-117.8748192685
 20
-32.1806588581
 10
-117.8722316668
 20
-32.1815112027
 10
-117.8663563206
 20
-32.182351034
 10
-117.8571932299
 20
-32.1831783518
 10
-117.8446701809
 20
-32.1839971356
 10
-117.8288593874
 20
-32.184803406
 10
-117.8099774912
 20
-32.1855852252
 10
-117.7879728079
 20
-32.1863422913
 10
-117.7628970218
 20
-32.1870749063
 10
-117.704615307
 20
-32.1884329418
  0
LWPOLYLINE
  5
2F7
100
AcDbEntity
  8
DRAFT
100
AcDbPolyline
 62
7
  6
CONTINUOUS
 90
12
 70
0
 10
-62.5314218911
 20
-41.1158968937
 10
-62.518292711
 20
-41.1255572716
 10
-62.4790788783
 20
-41.1351259717
 10
-62.4140476356
 20
-41.1446298551
 10
-62.3230244038
 20
-41.1540684438
 10
-62.2061837622
 20
-41.163442216
 10
-62.064315476
 20
-41.1726877897
 10
-61.8972482371
 20
-41.1818043651
 10
-61.7051533538
 20
-41.1907927421
 10
-61.4893345158
 20
-41.1995919384
 10
-61.2496333687
 20
-41.2082005773
 10
-60.7008379632
 20
-41.22479346
  0
LINE
  5
2F8
100
AcDbEntity
  8
0
100
AcDbLine
 62
7
  6
CONTINUOUS
 10
-106.0085106611
 20
0.6249998808
 11
-105.7531915426
 21
0.3749999404
  0
LINE
  5
2F9
100
AcDbEntity
  8
0
100
AcDbLine
 62
7
  6
CONTINUOUS
 10
-105.1148935676
 20
2.0
 11
-104.9872340083
 21
1.8750001192
  0
LINE
  5
2FA
100
AcDbEntity
  8
0
100
AcDbLine
 62
7
  6
CONTINUOUS
 10
-103.774468106
 20
2.1249998808
 11
-103.6468085021
 21
2.0
  0
LWPOLYLINE
  5
2FB
100
AcDbEntity
  8
RACCORDO
100
AcDbPolyline
 62
7
  6
CONTINUOUS
 90
3
 70
0
 10
-117.0896663783
 20
-25.9148318932
 10
-117.147946905
 20
-25.9732441745
 10
-117.194616674
 20
-26.0196774099
  0
LINE
  5
2FC
100
AcDbEntity
  8
RACCORDO
100
AcDbLine
 62
250
  6
CONTINUOUS
 10
-118.3747431161
 20
-25.7194172943
 11
-118.4468267582
 21
-25.7915009364
  0
LINE
  5
2FD
100
AcDbEntity
  8
RACCORDO
100
AcDbLine
 62
250
  6
CONTINUOUS
 10
-117.8748192685
 20
-26.2193411419
 11
-117.9469029106
 21
-26.291424784
  0
LINE
  5
2FE
100
AcDbEntity
  8
RACCORDO
100
AcDbLine
 62
7
  6
CONTINUOUS
 10
-117.4662592691
 20
-26.291424784
 11
-117.3827210873
 21
-26.2078866022
  0
LINE
  5
2FF
100
AcDbEntity
  8
RACCORDO
100
AcDbLine
 62
7
  6
CONTINUOUS
 10
-116.8822464769
 20
-25.7074119919
 11
-117.0896663783
 21
-25.9148318932
  0
LINE
  5
300
100
AcDbEntity
  8
RACCORDO
100
AcDbLine
 62
7
  6
CONTINUOUS
 10
-117.194616674
 20
-26.0196774099
 11
-117.2143993753
 21
-26.0388551022
  0
LWPOLYLINE
  5
301
100
AcDbEntity
  8
RACCORDO
100
AcDbPolyline
 62
7
  6
CONTINUOUS
 90
9
 70
0
 10
-117.3081285847
 20
-26.1275647871
 10
-117.3241849195
 20
-26.1430357519
 10
-117.3385654073
 20
-26.1570625456
 10
-117.3511089926
 20
-26.1695749565
 10
-117.3617126263
 20
-26.1806431963
 10
-117.3701745444
 20
-26.1898997393
 10
-117.3764198872
 20
-26.197222077
 10
-117.3804313591
 20
-26.2027327178
 10
-117.3821703245
 20
-26.2064316619
  0
LINE
  5
302
100
AcDbEntity
  8
RACCORDO
100
AcDbLine
 62
7
  6
CONTINUOUS
 10
-117.2143993753
 20
-26.0388551022
 11
-117.3081285847
 21
-26.1275647871
  0
LINE
  5
303
100
AcDbEntity
  8
0
100
AcDbLine
 62
7
  6
CONTINUOUS
 10
-104.6042553306
 20
-0.3750000596
 11
-104.8595744491
 21
-0.5625000596
  0
LINE
  5
304
100
AcDbEntity
  8
0
100
AcDbLine
 62
7
  6
CONTINUOUS
 10
-103.7106382817
 20
-2.3749999963
 11
-103.4553191409
 21
-2.1875000074
  0
LINE
  5
305
100
AcDbEntity
  8
0
100
AcDbLine
 62
7
  6
CONTINUOUS
 10
-105.689361763
 20
2.0
 11
-105.4978724241
 21
2.1249998808
  0
LINE
  5
306
100
AcDbEntity
  8
0
100
AcDbLine
 62
7
  6
CONTINUOUS
 10
-104.4127659917
 20
2.4375001192
 11
-104.6042553306
 21
2.3124998808
  0
LINE
  5
307
100
AcDbEntity
  8
0
100
AcDbLine
 62
7
  6
CONTINUOUS
 10
-103.4553191409
 20
-0.5625000596
 11
-103.7106382817
 21
-0.3750000596
  0
LWPOLYLINE
  5
308
100
AcDbEntity
  8
DRAFT
100
AcDbPolyline
 62
7
  6
CONTINUOUS
 90
10
 70
0
 10
-39.4685781089
 20
41.1158968937
 10
-39.481707289
 20
41.1064198715
 10
-39.5209211217
 20
41.0968511715
 10
-39.5859523644
 20
41.087347288
 10
-39.6769755962
 20
41.0779086993
 10
-39.7938162378
 20
41.0685349272
 10
-39.935684524
 20
41.0592893535
 10
-40.1027517629
 20
41.050172778
 10
-40.2948466462
 20
41.041184401
 10
-40.5106654842
 20
41.0323852048
  0
LINE
  5
309
100
AcDbEntity
  8
0
100
AcDbLine
 62
7
  6
CONTINUOUS
 10
-103.7106382817
 20
0.3125
 11
-103.5191489428
 21
0.4375000596
  0
LINE
  5
30A
100
AcDbEntity
  8
0
100
AcDbLine
 62
7
  6
CONTINUOUS
 10
-104.6042553306
 20
-0.7500000596
 11
-104.4127659917
 21
-0.625
  0
LWPOLYLINE
  5
30B
100
AcDbEntity
  8
RACCORDO
100
AcDbPolyline
 62
250
  6
CONTINUOUS
 90
8
 70
0
 10
-118.3747431161
 20
-32.6805827057
 10
-118.370888332
 20
-32.6813764027
 10
-118.3620393461
 20
-32.6821596975
 10
-118.3482268862
 20
-32.68293259
 10
-118.329503036
 20
-32.6836982083
 10
-118.3059397378
 20
-32.6844534243
 10
-118.277627357
 20
-32.6851888541
 10
-118.2072042722
 20
-32.6866001802
  0
LINE
  5
30C
100
AcDbEntity
  8
0
100
AcDbLine
 62
7
  6
CONTINUOUS
 10
-103.9021276653
 20
-0.625
 11
-103.7106382817
 21
-0.7500000596
  0
LINE
  5
30D
100
AcDbEntity
  8
0
100
AcDbLine
 62
7
  6
CONTINUOUS
 10
-105.4978724241
 20
0.6249998808
 11
-105.689361763
 21
0.7500001192
  0
LINE
  5
30E
100
AcDbEntity
  8
0
100
AcDbLine
 62
7
  6
CONTINUOUS
 10
-104.9234042287
 20
2.2500001192
 11
-105.1148935676
 21
2.375
  0
LINE
  5
30F
100
AcDbEntity
  8
0
100
AcDbLine
 62
7
  6
CONTINUOUS
 10
-103.5191489428
 20
2.3124998808
 11
-103.7106382817
 21
2.4375001192
  0
LWPOLYLINE
  5
310
100
AcDbEntity
  8
DRAFT
100
AcDbPolyline
 62
7
  6
CONTINUOUS
 90
11
 70
0
 10
-39.4685781089
 20
-41.1158968937
 10
-39.481707289
 20
-41.1064198715
 10
-39.5209211217
 20
-41.0968511715
 10
-39.5859523644
 20
-41.087347288
 10
-39.6769755962
 20
-41.0779086993
 10
-39.7938162378
 20
-41.0685349272
 10
-39.935684524
 20
-41.0592893535
 10
-40.1027517629
 20
-41.050172778
 10
-40.2948466462
 20
-41.041184401
 10
-40.5106654842
 20
-41.0323852048
 10
-41.0137917332
 20
-41.0153571077
  0
LINE
  5
311
100
AcDbEntity
  8
0
100
AcDbLine
 62
7
  6
CONTINUOUS
 10
-104.4127659917
 20
2.0625001192
 11
-104.1574467838
 21
2.1875
  0
LINE
  5
312
100
AcDbEntity
  8
0
100
AcDbLine
 62
7
  6
CONTINUOUS
 10
-103.774468106
 20
0.6249998808
 11
-103.9021276653
 21
0.5625001192
  0
LINE
  5
313
100
AcDbEntity
  8
0
100
AcDbLine
 62
7
  6
CONTINUOUS
 10
-103.7106382817
 20
-1.9999999851
 11
-103.9659574449
 21
-2.125
  0
LINE
  5
314
100
AcDbEntity
  8
0
100
AcDbLine
 62
7
  6
CONTINUOUS
 10
-103.9659574449
 20
-2.5
 11
-103.7106382817
 21
-2.3749999963
  0
LWPOLYLINE
  5
315
100
AcDbEntity
  8
0
100
AcDbPolyline
 62
7
  6
CONTINUOUS
 90
10
 70
0
 10
95.4893345158
 20
-41.1995919384
 10
95.7051533538
 20
-41.1907927421
 10
95.8972482371
 20
-41.1818043651
 10
96.064315476
 20
-41.1726877897
 10
96.2061837622
 20
-41.163442216
 10
96.3230244038
 20
-41.1540684438
 10
96.4140476356
 20
-41.1446298551
 10
96.4790788783
 20
-41.1351259717
 10
96.518292711
 20
-41.1255572716
 10
96.5314218911
 20
-41.1158968937
  0
LWPOLYLINE
  5
316
100
AcDbEntity
  8
0
100
AcDbPolyline
 62
7
  6
CONTINUOUS
 90
10
 70
0
 10
74.5106654842
 20
-41.0323852048
 10
74.2948466462
 20
-41.041184401
 10
74.1027517629
 20
-41.050172778
 10
73.935684524
 20
-41.0592893535
 10
73.7938162378
 20
-41.0685349272
 10
73.6769755962
 20
-41.0779086993
 10
73.5859523644
 20
-41.087347288
 10
73.5209211217
 20
-41.0968511715
 10
73.481707289
 20
-41.1064198715
 10
73.4685781089
 20
-41.1158968937
  0
LWPOLYLINE
  5
317
100
AcDbEntity
  8
0
100
AcDbPolyline
 62
7
  6
CONTINUOUS
 90
10
 70
0
 10
61.4893345158
 20
-41.1995919384
 10
61.7051533538
 20
-41.1907927421
 10
61.8972482371
 20
-41.1818043651
 10
62.064315476
 20
-41.1726877897
 10
62.2061837622
 20
-41.163442216
 10
62.3230244038
 20
-41.1540684438
 10
62.4140476356
 20
-41.1446298551
 10
62.4790788783
 20
-41.1351259717
 10
62.518292711
 20
-41.1255572716
 10
62.5314218911
 20
-41.1158968937
  0
LWPOLYLINE
  5
318
100
AcDbEntity
  8
0
100
AcDbPolyline
 62
7
  6
CONTINUOUS
 90
10
 70
0
 10
40.5106654842
 20
-41.0323852048
 10
40.2948466462
 20
-41.041184401
 10
40.1027517629
 20
-41.050172778
 10
39.935684524
 20
-41.0592893535
 10
39.7938162378
 20
-41.0685349272
 10
39.6769755962
 20
-41.0779086993
 10
39.5859523644
 20
-41.087347288
 10
39.5209211217
 20
-41.0968511715
 10
39.481707289
 20
-41.1064198715
 10
39.4685781089
 20
-41.1158968937
  0
LWPOLYLINE
  5
319
100
AcDbEntity
  8
DRAFT
100
AcDbPolyline
 62
7
  6
CONTINUOUS
 90
10
 70
0
 10
10.4893345158
 20
-41.1995919384
 10
10.7051533538
 20
-41.1907927421
 10
10.8972482371
 20
-41.1818043651
 10
11.064315476
 20
-41.1726877897
 10
11.2061837622
 20
-41.163442216
 10
11.3230244038
 20
-41.1540684438
 10
11.4140476356
 20
-41.1446298551
 10
11.4790788783
 20
-41.1351259717
 10
11.518292711
 20
-41.1255572716
 10
11.5314218911
 20
-41.1158968937
  0
LWPOLYLINE
  5
31A
100
AcDbEntity
  8
RACCORDO
100
AcDbPolyline
 62
250
  6
CONTINUOUS
 90
14
 70
0
 10
105.2209254793
 20
-40.4586265075
 10
105.2416813687
 20
-40.4578176544
 10
105.2608881948
 20
-40.4569669468
 10
105.2784811921
 20
-40.4560762319
 10
105.2942860374
 20
-40.4551652314
 10
105.3083051989
 20
-40.4542330536
 10
105.320542638
 20
-40.4532805902
 10
105.3309240163
 20
-40.4523302391
 10
105.3395183845
 20
-40.4513825913
 10
105.3464055954
 20
-40.4504370558
 10
105.3516256571
 20
-40.4495142574
 10
105.3552975335
 20
-40.4486210713
 10
105.3575706013
 20
-40.4477506224
 10
105.358575216
 20
-40.4469029106
  0
LWPOLYLINE
  5
31B
100
AcDbEntity
  8
RACCORDO
100
AcDbPolyline
 62
250
  6
CONTINUOUS
 90
10
 70
0
 10
105.7299293243
 20
-40.955088763
 10
105.7578948915
 20
-40.9541566982
 10
105.7823137269
 20
-40.9532043498
 10
105.8031925786
 20
-40.9522540874
 10
105.8203722321
 20
-40.95130649
 10
105.8340119019
 20
-40.9503609786
 10
105.8445959807
 20
-40.9494381865
 10
105.8522859327
 20
-40.9485449912
 10
105.8569202937
 20
-40.9476745151
 10
105.8584990636
 20
-40.9468267582
  0
LINE
  5
31C
100
AcDbEntity
  8
0
100
AcDbLine
 62
7
  6
CONTINUOUS
 10
94.9862082668
 20
-41.2166200355
 11
95.4893345158
 21
-41.1995919384
  0
LINE
  5
31D
100
AcDbEntity
  8
0
100
AcDbLine
 62
7
  6
CONTINUOUS
 10
75.0137917332
 20
-41.0153571077
 11
74.5106654842
 21
-41.0323852048
  0
LINE
  5
31E
100
AcDbEntity
  8
0
100
AcDbLine
 62
7
  6
CONTINUOUS
 10
60.9862082668
 20
-41.2166200355
 11
61.4893345158
 21
-41.1995919384
  0
LINE
  5
31F
100
AcDbEntity
  8
0
100
AcDbLine
 62
7
  6
CONTINUOUS
 10
41.0137917332
 20
-41.0153571077
 11
40.5106654842
 21
-41.0323852048
  0
LINE
  5
320
100
AcDbEntity
  8
DRAFT
100
AcDbLine
 62
7
  6
CONTINUOUS
 10
9.9862082668
 20
-41.2166200355
 11
10.4893345158
 21
-41.1995919384
  0
LINE
  5
321
100
AcDbEntity
  8
RACCORDO
100
AcDbLine
 62
250
  6
CONTINUOUS
 10
105.1751822519
 20
-40.4601100106
 11
105.2209254793
 21
-40.4586265075
  0
LINE
  5
322
100
AcDbEntity
  8
0
100
AcDbLine
 62
7
  6
CONTINUOUS
 10
94.3933696862
 20
-41.2327192823
 11
94.9862082668
 21
-41.2166200355
  0
LINE
  5
323
100
AcDbEntity
  8
0
100
AcDbLine
 62
7
  6
CONTINUOUS
 10
75.6066303138
 20
-40.9992578609
 11
75.0137917332
 21
-41.0153571077
  0
LINE
  5
324
100
AcDbEntity
  8
0
100
AcDbLine
 62
7
  6
CONTINUOUS
 10
60.3933696862
 20
-41.2327192823
 11
60.9862082668
 21
-41.2166200355
  0
LINE
  5
325
100
AcDbEntity
  8
0
100
AcDbLine
 62
7
  6
CONTINUOUS
 10
41.6066303138
 20
-40.9992578609
 11
41.0137917332
 21
-41.0153571077
  0
LINE
  5
326
100
AcDbEntity
  8
DRAFT
100
AcDbLine
 62
7
  6
CONTINUOUS
 10
9.3933696862
 20
-41.2327192823
 11
9.9862082668
 21
-41.2166200355
  0
LINE
  5
327
100
AcDbEntity
  8
RACCORDO
100
AcDbLine
 62
250
  6
CONTINUOUS
 10
105.6630472524
 20
-40.9568902627
 11
105.7299293243
 21
-40.955088763
  0
LINE
  5
328
100
AcDbEntity
  8
RACCORDO
100
AcDbLine
 62
250
  6
CONTINUOUS
 10
105.1248549632
 20
-40.4613724942
 11
105.1751822519
 21
-40.4601100106
  0
LINE
  5
329
100
AcDbEntity
  8
0
100
AcDbLine
 62
7
  6
CONTINUOUS
 10
93.7148345943
 20
-41.2477806783
 11
94.3933696862
 21
-41.2327192823
  0
LINE
  5
32A
100
AcDbEntity
  8
0
100
AcDbLine
 62
7
  6
CONTINUOUS
 10
76.2851654057
 20
-40.9841964648
 11
75.6066303138
 21
-40.9992578609
  0
LINE
  5
32B
100
AcDbEntity
  8
0
100
AcDbLine
 62
7
  6
CONTINUOUS
 10
59.7148345943
 20
-41.2477806783
 11
60.3933696862
 21
-41.2327192823
  0
LINE
  5
32C
100
AcDbEntity
  8
0
100
AcDbLine
 62
7
  6
CONTINUOUS
 10
42.2851654057
 20
-40.9841964648
 11
41.6066303138
 21
-40.9992578609
  0
LINE
  5
32D
100
AcDbEntity
  8
DRAFT
100
AcDbLine
 62
7
  6
CONTINUOUS
 10
8.7148345943
 20
-41.2477806783
 11
9.3933696862
 21
-41.2327192823
  0
LINE
  5
32E
100
AcDbEntity
  8
RACCORDO
100
AcDbLine
 62
250
  6
CONTINUOUS
 10
105.5832387386
 20
-40.9585496835
 11
105.6630472524
 21
-40.9568902627
  0
LINE
  5
32F
100
AcDbEntity
  8
RACCORDO
100
AcDbLine
 62
250
  6
CONTINUOUS
 10
105.0714420302
 20
-40.462392317
 11
105.1248549632
 21
-40.4613724942
  0
LINE
  5
330
100
AcDbEntity
  8
0
100
AcDbLine
 62
7
  6
CONTINUOUS
 10
92.9572092866
 20
-41.2616451071
 11
93.7148345943
 21
-41.2477806783
  0
LINE
  5
331
100
AcDbEntity
  8
0
100
AcDbLine
 62
7
  6
CONTINUOUS
 10
77.0427907134
 20
-40.970332036
 11
76.2851654057
 21
-40.9841964648
  0
LINE
  5
332
100
AcDbEntity
  8
0
100
AcDbLine
 62
7
  6
CONTINUOUS
 10
58.9572092866
 20
-41.2616451071
 11
59.7148345943
 21
-41.2477806783
  0
LINE
  5
333
100
AcDbEntity
  8
0
100
AcDbLine
 62
7
  6
CONTINUOUS
 10
43.0427907134
 20
-40.970332036
 11
42.2851654057
 21
-40.9841964648
  0
LINE
  5
334
100
AcDbEntity
  8
DRAFT
100
AcDbLine
 62
7
  6
CONTINUOUS
 10
7.9572092866
 20
-41.2616451071
 11
8.7148345943
 21
-41.2477806783
  0
LINE
  5
335
100
AcDbEntity
  8
0
100
AcDbLine
 62
7
  6
CONTINUOUS
 10
92.1285008656
 20
-41.2741772116
 11
92.9572092866
 21
-41.2616451071
  0
LINE
  5
336
100
AcDbEntity
  8
0
100
AcDbLine
 62
7
  6
CONTINUOUS
 10
58.1285008656
 20
-41.2741772116
 11
58.9572092866
 21
-41.2616451071
  0
LINE
  5
337
100
AcDbEntity
  8
0
100
AcDbLine
 62
7
  6
CONTINUOUS
 10
77.8714991344
 20
-40.9577999316
 11
77.0427907134
 21
-40.970332036
  0
LINE
  5
338
100
AcDbEntity
  8
0
100
AcDbLine
 62
7
  6
CONTINUOUS
 10
43.8714991344
 20
-40.9577999316
 11
43.0427907134
 21
-40.970332036
  0
LINE
  5
339
100
AcDbEntity
  8
DRAFT
100
AcDbLine
 62
7
  6
CONTINUOUS
 10
7.1285008656
 20
-41.2741772116
 11
7.9572092866
 21
-41.2616451071
  0
LINE
  5
33A
100
AcDbEntity
  8
RACCORDO
100
AcDbLine
 62
250
  6
CONTINUOUS
 10
105.4425373981
 20
-40.9606914994
 11
105.5832387386
 21
-40.9585496835
  0
LINE
  5
33B
100
AcDbEntity
  8
RACCORDO
100
AcDbLine
 62
250
  6
CONTINUOUS
 10
105.0164068176
 20
-40.4631616165
 11
105.0714420302
 21
-40.462392317
  0
LINE
  5
33C
100
AcDbEntity
  8
0
100
AcDbLine
 62
7
  6
CONTINUOUS
 10
91.234320506
 20
-41.2852921767
 11
92.1285008656
 21
-41.2741772116
  0
LINE
  5
33D
100
AcDbEntity
  8
0
100
AcDbLine
 62
7
  6
CONTINUOUS
 10
57.234320506
 20
-41.2852921767
 11
58.1285008656
 21
-41.2741772116
  0
LINE
  5
33E
100
AcDbEntity
  8
0
100
AcDbLine
 62
7
  6
CONTINUOUS
 10
78.765679494
 20
-40.9466849665
 11
77.8714991344
 21
-40.9577999316
  0
LINE
  5
33F
100
AcDbEntity
  8
0
100
AcDbLine
 62
7
  6
CONTINUOUS
 10
44.765679494
 20
-40.9466849665
 11
43.8714991344
 21
-40.9577999316
  0
LINE
  5
340
100
AcDbEntity
  8
DRAFT
100
AcDbLine
 62
7
  6
CONTINUOUS
 10
6.234320506
 20
-41.2852921767
 11
7.1285008656
 21
-41.2741772116
  0
LINE
  5
341
100
AcDbEntity
  8
0
100
AcDbLine
 62
7
  6
CONTINUOUS
 10
90.2835717608
 20
-41.2948698336
 11
91.234320506
 21
-41.2852921767
  0
LINE
  5
342
100
AcDbEntity
  8
0
100
AcDbLine
 62
7
  6
CONTINUOUS
 10
56.2835717608
 20
-41.2948698336
 11
57.234320506
 21
-41.2852921767
  0
LINE
  5
343
100
AcDbEntity
  8
0
100
AcDbLine
 62
7
  6
CONTINUOUS
 10
79.7164282392
 20
-40.9371073096
 11
78.765679494
 21
-40.9466849665
  0
LINE
  5
344
100
AcDbEntity
  8
0
100
AcDbLine
 62
7
  6
CONTINUOUS
 10
45.7164282392
 20
-40.9371073096
 11
44.765679494
 21
-40.9466849665
  0
LINE
  5
345
100
AcDbEntity
  8
DRAFT
100
AcDbLine
 62
7
  6
CONTINUOUS
 10
5.2835717608
 20
-41.2948698336
 11
6.234320506
 21
-41.2852921767
  0
LINE
  5
346
100
AcDbEntity
  8
DRAFT
100
AcDbLine
 62
7
  6
CONTINUOUS
 10
-4.7903103599
 20
-40.9329240206
 11
-5.7659946131
 21
-40.94170464
  0
LINE
  5
347
100
AcDbEntity
  8
0
100
AcDbLine
 62
7
  6
CONTINUOUS
 10
89.286132209
 20
-41.3028196018
 11
90.2835717608
 21
-41.2948698336
  0
LINE
  5
348
100
AcDbEntity
  8
RACCORDO
100
AcDbLine
 62
250
  6
CONTINUOUS
 10
105.229279555
 20
-40.9627314207
 11
105.4425373981
 21
-40.9606914994
  0
LINE
  5
349
100
AcDbEntity
  8
0
100
AcDbLine
 62
7
  6
CONTINUOUS
 10
55.286132209
 20
-41.3028196018
 11
56.2835717608
 21
-41.2948698336
  0
LINE
  5
34A
100
AcDbEntity
  8
0
100
AcDbLine
 62
7
  6
CONTINUOUS
 10
80.713867791
 20
-40.9291575414
 11
79.7164282392
 21
-40.9371073096
  0
LINE
  5
34B
100
AcDbEntity
  8
DRAFT
100
AcDbLine
 62
7
  6
CONTINUOUS
 10
4.286132209
 20
-41.3028196018
 11
5.2835717608
 21
-41.2948698336
  0
LINE
  5
34C
100
AcDbEntity
  8
0
100
AcDbLine
 62
7
  6
CONTINUOUS
 10
46.713867791
 20
-40.9291575414
 11
45.7164282392
 21
-40.9371073096
  0
LINE
  5
34D
100
AcDbEntity
  8
DRAFT
100
AcDbLine
 62
7
  6
CONTINUOUS
 10
-46.713867791
 20
-41.3028196018
 11
-45.7164282392
 21
-41.2948698336
  0
LINE
  5
34E
100
AcDbEntity
  8
DRAFT
100
AcDbLine
 62
7
  6
CONTINUOUS
 10
-3.7711155094
 20
-40.9258051037
 11
-4.7903103599
 21
-40.9329240206
  0
LINE
  5
34F
100
AcDbEntity
  8
0
100
AcDbLine
 62
7
  6
CONTINUOUS
 10
88.2487532756
 20
-41.3090876947
 11
89.286132209
 21
-41.3028196018
  0
LINE
  5
350
100
AcDbEntity
  8
0
100
AcDbLine
 62
7
  6
CONTINUOUS
 10
54.2487532756
 20
-41.3090876947
 11
55.286132209
 21
-41.3028196018
  0
LINE
  5
351
100
AcDbEntity
  8
0
100
AcDbLine
 62
7
  6
CONTINUOUS
 10
81.7512467244
 20
-40.9228894485
 11
80.713867791
 21
-40.9291575414
  0
LINE
  5
352
100
AcDbEntity
  8
DRAFT
100
AcDbLine
 62
7
  6
CONTINUOUS
 10
3.2487532756
 20
-41.3090876947
 11
4.286132209
 21
-41.3028196018
  0
LINE
  5
353
100
AcDbEntity
  8
0
100
AcDbLine
 62
7
  6
CONTINUOUS
 10
47.7512467244
 20
-40.9228894485
 11
46.713867791
 21
-40.9291575414
  0
LINE
  5
354
100
AcDbEntity
  8
DRAFT
100
AcDbLine
 62
7
  6
CONTINUOUS
 10
-47.7512467244
 20
-41.3090876947
 11
-46.713867791
 21
-41.3028196018
  0
LWPOLYLINE
  5
355
100
AcDbEntity
  8
RACCORDO
100
AcDbPolyline
 62
250
  6
CONTINUOUS
 90
3
 70
0
 10
104.9086127119
 20
-40.463971768
 10
104.934717509
 20
-40.4638501054
 10
105.0164068176
 20
-40.4631616165
  0
LINE
  5
356
100
AcDbEntity
  8
DRAFT
100
AcDbLine
 62
7
  6
CONTINUOUS
 10
-2.1818993763
 20
-40.9183744569
 11
-3.7711155094
 21
-40.9258051037
  0
LINE
  5
357
100
AcDbEntity
  8
0
100
AcDbLine
 62
7
  6
CONTINUOUS
 10
86.6410863828
 20
-41.3151912242
 11
88.2487532756
 21
-41.3090876947
  0
LINE
  5
358
100
AcDbEntity
  8
0
100
AcDbLine
 62
7
  6
CONTINUOUS
 10
52.6410863828
 20
-41.3151912242
 11
54.2487532756
 21
-41.3090876947
  0
LINE
  5
359
100
AcDbEntity
  8
DRAFT
100
AcDbLine
 62
7
  6
CONTINUOUS
 10
1.6410863828
 20
-41.3151912242
 11
3.2487532756
 21
-41.3090876947
  0
LINE
  5
35A
100
AcDbEntity
  8
DRAFT
100
AcDbLine
 62
7
  6
CONTINUOUS
 10
-49.3589136172
 20
-41.3151912242
 11
-47.7512467244
 21
-41.3090876947
  0
LINE
  5
35B
100
AcDbEntity
  8
0
100
AcDbLine
 62
7
  6
CONTINUOUS
 10
83.3589136172
 20
-40.9167859189
 11
81.7512467244
 21
-40.9228894485
  0
LINE
  5
35C
100
AcDbEntity
  8
DRAFT
100
AcDbLine
 62
7
  6
CONTINUOUS
 10
-83.3589136172
 20
-41.3151912242
 11
-81.7512467244
 21
-41.3090876947
  0
LINE
  5
35D
100
AcDbEntity
  8
0
100
AcDbLine
 62
7
  6
CONTINUOUS
 10
49.3589136172
 20
-40.9167859189
 11
47.7512467244
 21
-40.9228894485
  0
LINE
  5
35E
100
AcDbEntity
  8
RACCORDO
100
AcDbLine
 62
250
  6
CONTINUOUS
 10
104.9588554866
 20
-40.9638955837
 11
105.229279555
 21
-40.9627314207
  0
LINE
  5
35F
100
AcDbEntity
  8
DRAFT
100
AcDbLine
 62
7
  6
CONTINUOUS
 10
-0.5507420709
 20
-40.9149697322
 11
-2.1818993763
 21
-40.9183744569
  0
LINE
  5
360
100
AcDbEntity
  8
0
100
AcDbLine
 62
7
  6
CONTINUOUS
 10
85.0
 20
-41.3172396544
 11
86.6410863828
 21
-41.3151912242
  0
LINE
  5
361
100
AcDbEntity
  8
0
100
AcDbLine
 62
7
  6
CONTINUOUS
 10
51.0
 20
-41.3172396544
 11
52.6410863828
 21
-41.3151912242
  0
LINE
  5
362
100
AcDbEntity
  8
DRAFT
100
AcDbLine
 62
7
  6
CONTINUOUS
 10
-0.0
 20
-41.3172396544
 11
1.6410863828
 21
-41.3151912242
  0
LINE
  5
363
100
AcDbEntity
  8
DRAFT
100
AcDbLine
 62
7
  6
CONTINUOUS
 10
-51.0
 20
-41.3172396544
 11
-49.3589136172
 21
-41.3151912242
  0
LINE
  5
364
100
AcDbEntity
  8
DRAFT
100
AcDbLine
 62
7
  6
CONTINUOUS
 10
-85.0
 20
-41.3172396544
 11
-83.3589136172
 21
-41.3151912242
  0
LINE
  5
365
100
AcDbEntity
  8
0
100
AcDbLine
 62
7
  6
CONTINUOUS
 10
85.0
 20
-40.9147374887
 11
83.3589136172
 21
-40.9167859189
  0
LINE
  5
366
100
AcDbEntity
  8
0
100
AcDbLine
 62
7
  6
CONTINUOUS
 10
51.0
 20
-40.9147374887
 11
49.3589136172
 21
-40.9167859189
  0
LINE
  5
367
100
AcDbEntity
  8
DRAFT
100
AcDbLine
 62
7
  6
CONTINUOUS
 10
-113.0
 20
-41.5
 11
113.0
 21
-41.5
  0
LINE
  5
368
100
AcDbEntity
  8
SUPERFICI
100
AcDbLine
 62
7
  6
CONTINUOUS
 10
113.0000000088
 20
-41.5000003491
 11
-113.0000000088
 21
-41.5000003491
  0
LINE
  5
369
100
AcDbEntity
  8
RACCORDO
100
AcDbLine
 62
250
  6
CONTINUOUS
 10
99.9918925979
 20
-40.9639633939
 11
104.9588554866
 21
-40.9638955837
  0
LINE
  5
36A
100
AcDbEntity
  8
0
100
AcDbLine
 62
7
  6
CONTINUOUS
 10
51.5507420709
 20
-40.9149697322
 11
51.0
 21
-40.9147374887
  0
LINE
  5
36B
100
AcDbEntity
  8
DRAFT
100
AcDbLine
 62
7
  6
CONTINUOUS
 10
-49.9022291348
 20
-40.9156525423
 11
-51.5507420709
 21
-40.9149697322
  0
LINE
  5
36C
100
AcDbEntity
  8
DRAFT
100
AcDbLine
 62
7
  6
CONTINUOUS
 10
1.0977708652
 20
-40.9156525423
 11
-0.5507420709
 21
-40.9149697322
  0
LINE
  5
36D
100
AcDbEntity
  8
DRAFT
100
AcDbLine
 62
7
  6
CONTINUOUS
 10
-86.6410863828
 20
-41.3151912242
 11
-85.0
 21
-41.3172396544
  0
LINE
  5
36E
100
AcDbEntity
  8
DRAFT
100
AcDbLine
 62
7
  6
CONTINUOUS
 10
-52.6410863828
 20
-41.3151912242
 11
-51.0
 21
-41.3172396544
  0
LINE
  5
36F
100
AcDbEntity
  8
DRAFT
100
AcDbLine
 62
7
  6
CONTINUOUS
 10
-1.6410863828
 20
-41.3151912242
 11
-0.0
 21
-41.3172396544
  0
LINE
  5
370
100
AcDbEntity
  8
0
100
AcDbLine
 62
7
  6
CONTINUOUS
 10
49.3589136172
 20
-41.3151912242
 11
51.0
 21
-41.3172396544
  0
LINE
  5
371
100
AcDbEntity
  8
0
100
AcDbLine
 62
7
  6
CONTINUOUS
 10
83.3589136172
 20
-41.3151912242
 11
85.0
 21
-41.3172396544
  0
LINE
  5
372
100
AcDbEntity
  8
DRAFT
100
AcDbLine
 62
7
  6
CONTINUOUS
 10
-83.3589136172
 20
-40.9167859189
 11
-85.0
 21
-40.9147374887
  0
LINE
  5
373
100
AcDbEntity
  8
DRAFT
100
AcDbLine
 62
7
  6
CONTINUOUS
 10
-48.2810009069
 20
-40.9204135614
 11
-49.9022291348
 21
-40.9156525423
  0
LINE
  5
374
100
AcDbEntity
  8
DRAFT
100
AcDbLine
 62
7
  6
CONTINUOUS
 10
2.7189990931
 20
-40.9204135614
 11
1.0977708652
 21
-40.9156525423
  0
LINE
  5
375
100
AcDbEntity
  8
DRAFT
100
AcDbLine
 62
7
  6
CONTINUOUS
 10
-88.2487532756
 20
-41.3090876947
 11
-86.6410863828
 21
-41.3151912242
  0
LINE
  5
376
100
AcDbEntity
  8
DRAFT
100
AcDbLine
 62
7
  6
CONTINUOUS
 10
-54.2487532756
 20
-41.3090876947
 11
-52.6410863828
 21
-41.3151912242
  0
LINE
  5
377
100
AcDbEntity
  8
DRAFT
100
AcDbLine
 62
7
  6
CONTINUOUS
 10
-3.2487532756
 20
-41.3090876947
 11
-1.6410863828
 21
-41.3151912242
  0
LINE
  5
378
100
AcDbEntity
  8
DRAFT
100
AcDbLine
 62
7
  6
CONTINUOUS
 10
-81.7512467244
 20
-40.9228894485
 11
-83.3589136172
 21
-40.9167859189
  0
LINE
  5
379
100
AcDbEntity
  8
0
100
AcDbLine
 62
7
  6
CONTINUOUS
 10
47.7512467244
 20
-41.3090876947
 11
49.3589136172
 21
-41.3151912242
  0
LINE
  5
37A
100
AcDbEntity
  8
0
100
AcDbLine
 62
7
  6
CONTINUOUS
 10
81.7512467244
 20
-41.3090876947
 11
83.3589136172
 21
-41.3151912242
  0
LINE
  5
37B
100
AcDbEntity
  8
DRAFT
100
AcDbLine
 62
7
  6
CONTINUOUS
 10
-46.713867791
 20
-40.9291575414
 11
-48.2810009069
 21
-40.9204135614
  0
LINE
  5
37C
100
AcDbEntity
  8
DRAFT
100
AcDbLine
 62
7
  6
CONTINUOUS
 10
4.286132209
 20
-40.9291575414
 11
2.7189990931
 21
-40.9204135614
  0
LINE
  5
37D
100
AcDbEntity
  8
DRAFT
100
AcDbLine
 62
7
  6
CONTINUOUS
 10
-89.7903103599
 20
-41.2990531225
 11
-88.2487532756
 21
-41.3090876947
  0
LINE
  5
37E
100
AcDbEntity
  8
DRAFT
100
AcDbLine
 62
7
  6
CONTINUOUS
 10
-55.7903103599
 20
-41.2990531225
 11
-54.2487532756
 21
-41.3090876947
  0
LINE
  5
37F
100
AcDbEntity
  8
DRAFT
100
AcDbLine
 62
7
  6
CONTINUOUS
 10
-80.2096896401
 20
-40.9329240206
 11
-81.7512467244
 21
-40.9228894485
  0
LINE
  5
380
100
AcDbEntity
  8
DRAFT
100
AcDbLine
 62
7
  6
CONTINUOUS
 10
-4.7903103599
 20
-41.2990531225
 11
-3.2487532756
 21
-41.3090876947
  0
LINE
  5
381
100
AcDbEntity
  8
DRAFT
100
AcDbLine
 62
7
  6
CONTINUOUS
 10
-45.7164282392
 20
-40.9371073096
 11
-46.713867791
 21
-40.9291575414
  0
LWPOLYLINE
  5
382
100
AcDbEntity
  8
0
100
AcDbPolyline
 62
7
  6
CONTINUOUS
 90
3
 70
0
 10
45.7164282392
 20
-41.2948698336
 10
46.2096896401
 20
-41.2990531225
 10
47.7512467244
 20
-41.3090876947
  0
LINE
  5
383
100
AcDbEntity
  8
DRAFT
100
AcDbLine
 62
7
  6
CONTINUOUS
 10
-90.7659946131
 20
-41.2902725032
 11
-89.7903103599
 21
-41.2990531225
  0
LINE
  5
384
100
AcDbEntity
  8
DRAFT
100
AcDbLine
 62
7
  6
CONTINUOUS
 10
-56.7659946131
 20
-41.2902725032
 11
-55.7903103599
 21
-41.2990531225
  0
LINE
  5
385
100
AcDbEntity
  8
DRAFT
100
AcDbLine
 62
7
  6
CONTINUOUS
 10
-79.2340053869
 20
-40.94170464
 11
-80.2096896401
 21
-40.9329240206
  0
LINE
  5
386
100
AcDbEntity
  8
DRAFT
100
AcDbLine
 62
7
  6
CONTINUOUS
 10
-5.7659946131
 20
-41.2902725032
 11
-4.7903103599
 21
-41.2990531225
  0
LWPOLYLINE
  5
387
100
AcDbEntity
  8
DRAFT
100
AcDbPolyline
 62
7
  6
CONTINUOUS
 90
3
 70
0
 10
5.7659946131
 20
-40.94170464
 10
5.2835717608
 20
-40.9371073096
 10
4.286132209
 20
-40.9291575414
  0
LINE
  5
388
100
AcDbEntity
  8
DRAFT
100
AcDbLine
 62
7
  6
CONTINUOUS
 10
-44.765679494
 20
-40.9466849665
 11
-45.7164282392
 21
-40.9371073096
  0
LINE
  5
389
100
AcDbEntity
  8
DRAFT
100
AcDbLine
 62
7
  6
CONTINUOUS
 10
-91.6884591655
 20
-41.2799261921
 11
-90.7659946131
 21
-41.2902725032
  0
LINE
  5
38A
100
AcDbEntity
  8
DRAFT
100
AcDbLine
 62
7
  6
CONTINUOUS
 10
-57.6884591655
 20
-41.2799261921
 11
-56.7659946131
 21
-41.2902725032
  0
LINE
  5
38B
100
AcDbEntity
  8
DRAFT
100
AcDbLine
 62
7
  6
CONTINUOUS
 10
-78.3115408345
 20
-40.952050951
 11
-79.2340053869
 21
-40.94170464
  0
LINE
  5
38C
100
AcDbEntity
  8
DRAFT
100
AcDbLine
 62
7
  6
CONTINUOUS
 10
-6.6884591655
 20
-41.2799261921
 11
-5.7659946131
 21
-41.2902725032
  0
LINE
  5
38D
100
AcDbEntity
  8
DRAFT
100
AcDbLine
 62
7
  6
CONTINUOUS
 10
-43.8714991344
 20
-40.9577999316
 11
-44.765679494
 21
-40.9466849665
  0
LINE
  5
38E
100
AcDbEntity
  8
DRAFT
100
AcDbLine
 62
7
  6
CONTINUOUS
 10
-92.5514580174
 20
-41.2680842667
 11
-91.6884591655
 21
-41.2799261921
  0
LINE
  5
38F
100
AcDbEntity
  8
DRAFT
100
AcDbLine
 62
7
  6
CONTINUOUS
 10
-58.5514580174
 20
-41.2680842667
 11
-57.6884591655
 21
-41.2799261921
  0
LINE
  5
390
100
AcDbEntity
  8
DRAFT
100
AcDbLine
 62
7
  6
CONTINUOUS
 10
-77.4485419826
 20
-40.9638928764
 11
-78.3115408345
 21
-40.952050951
  0
LINE
  5
391
100
AcDbEntity
  8
DRAFT
100
AcDbLine
 62
7
  6
CONTINUOUS
 10
-7.5514580174
 20
-41.2680842667
 11
-6.6884591655
 21
-41.2799261921
  0
LINE
  5
392
100
AcDbEntity
  8
DRAFT
100
AcDbLine
 62
7
  6
CONTINUOUS
 10
-43.0427907134
 20
-40.970332036
 11
-43.8714991344
 21
-40.9577999316
  0
LINE
  5
393
100
AcDbEntity
  8
DRAFT
100
AcDbLine
 62
7
  6
CONTINUOUS
 10
-93.3458760076
 20
-41.2548619833
 11
-92.5514580174
 21
-41.2680842667
  0
LINE
  5
394
100
AcDbEntity
  8
DRAFT
100
AcDbLine
 62
7
  6
CONTINUOUS
 10
-76.6541239924
 20
-40.9771151599
 11
-77.4485419826
 21
-40.9638928764
  0
LINE
  5
395
100
AcDbEntity
  8
DRAFT
100
AcDbLine
 62
7
  6
CONTINUOUS
 10
-59.3458760076
 20
-41.2548619833
 11
-58.5514580174
 21
-41.2680842667
  0
LINE
  5
396
100
AcDbEntity
  8
DRAFT
100
AcDbLine
 62
7
  6
CONTINUOUS
 10
-8.3458760076
 20
-41.2548619833
 11
-7.5514580174
 21
-41.2680842667
  0
LINE
  5
397
100
AcDbEntity
  8
DRAFT
100
AcDbLine
 62
7
  6
CONTINUOUS
 10
-42.2851654057
 20
-40.9841964648
 11
-43.0427907134
 21
-40.970332036
  0
LINE
  5
398
100
AcDbEntity
  8
DRAFT
100
AcDbLine
 62
7
  6
CONTINUOUS
 10
-94.0639562074
 20
-41.2403990708
 11
-93.3458760076
 21
-41.2548619833
  0
LINE
  5
399
100
AcDbEntity
  8
DRAFT
100
AcDbLine
 62
7
  6
CONTINUOUS
 10
-75.9360437926
 20
-40.9915780723
 11
-76.6541239924
 21
-40.9771151599
  0
LINE
  5
39A
100
AcDbEntity
  8
DRAFT
100
AcDbLine
 62
7
  6
CONTINUOUS
 10
-60.0639562074
 20
-41.2403990708
 11
-59.3458760076
 21
-41.2548619833
  0
LINE
  5
39B
100
AcDbEntity
  8
DRAFT
100
AcDbLine
 62
7
  6
CONTINUOUS
 10
-9.0639562074
 20
-41.2403990708
 11
-8.3458760076
 21
-41.2548619833
  0
LINE
  5
39C
100
AcDbEntity
  8
DRAFT
100
AcDbLine
 62
7
  6
CONTINUOUS
 10
-41.6066303138
 20
-40.9992578609
 11
-42.2851654057
 21
-40.9841964648
  0
LINE
  5
39D
100
AcDbEntity
  8
DRAFT
100
AcDbLine
 62
7
  6
CONTINUOUS
 10
-94.7008379632
 20
-41.22479346
 11
-94.0639562074
 21
-41.2403990708
  0
LINE
  5
39E
100
AcDbEntity
  8
DRAFT
100
AcDbLine
 62
7
  6
CONTINUOUS
 10
-75.2991620368
 20
-41.0071836832
 11
-75.9360437926
 21
-40.9915780723
  0
LINE
  5
39F
100
AcDbEntity
  8
DRAFT
100
AcDbLine
 62
7
  6
CONTINUOUS
 10
-60.7008379632
 20
-41.22479346
 11
-60.0639562074
 21
-41.2403990708
  0
LINE
  5
3A0
100
AcDbEntity
  8
DRAFT
100
AcDbLine
 62
7
  6
CONTINUOUS
 10
-9.7008379632
 20
-41.22479346
 11
-9.0639562074
 21
-41.2403990708
  0
LINE
  5
3A1
100
AcDbEntity
  8
DRAFT
100
AcDbLine
 62
7
  6
CONTINUOUS
 10
-41.0137917332
 20
-41.0153571077
 11
-41.6066303138
 21
-40.9992578609
  0
LINE
  5
3A2
100
AcDbEntity
  8
0
100
AcDbLine
 62
7
  6
CONTINUOUS
 10
-105.3702126861
 20
2.1249998808
 11
-105.1148935676
 21
2.0
  0
LINE
  5
3A3
100
AcDbEntity
  8
0
100
AcDbLine
 62
7
  6
CONTINUOUS
 10
-103.9021276653
 20
2.1875
 11
-103.774468106
 21
2.1249998808
  0
LINE
  5
3A4
100
AcDbEntity
  8
RACCORDO
100
AcDbLine
 62
7
  6
CONTINUOUS
 10
-99.541424784
 20
39.9662592691
 11
-99.4578866022
 21
39.8827210873
  0
LINE
  5
3A5
100
AcDbEntity
  8
RACCORDO
100
AcDbLine
 62
250
  6
CONTINUOUS
 10
-99.4693411419
 20
40.3748192685
 11
-99.541424784
 21
40.4469029106
  0
LINE
  5
3A6
100
AcDbEntity
  8
RACCORDO
100
AcDbLine
 62
250
  6
CONTINUOUS
 10
-98.9694172943
 20
40.8747431161
 11
-99.0415009364
 21
40.9468267582
  0
LINE
  5
3A7
100
AcDbEntity
  8
RACCORDO
100
AcDbLine
 62
7
  6
CONTINUOUS
 10
-98.9574119919
 20
39.382246477
 11
-99.2696774099
 21
39.6946166741
  0
LINE
  5
3A8
100
AcDbEntity
  8
RACCORDO
100
AcDbLine
 62
7
  6
CONTINUOUS
 10
-99.2696774099
 20
39.6946166741
 11
-99.2888551022
 21
39.7143993753
  0
LWPOLYLINE
  5
3A9
100
AcDbEntity
  8
RACCORDO
100
AcDbPolyline
 62
7
  6
CONTINUOUS
 90
9
 70
0
 10
-99.3775647871
 20
39.8081285847
 10
-99.3930357519
 20
39.8241849195
 10
-99.4070625456
 20
39.8385654074
 10
-99.4195749565
 20
39.8511089926
 10
-99.4306431963
 20
39.8617126263
 10
-99.4398997393
 20
39.8701745444
 10
-99.447222077
 20
39.8764198872
 10
-99.4527327178
 20
39.8804313591
 10
-99.4564316619
 20
39.8821703245
  0
LINE
  5
3AA
100
AcDbEntity
  8
RACCORDO
100
AcDbLine
 62
7
  6
CONTINUOUS
 10
-99.2888551022
 20
39.7143993753
 11
-99.3775647871
 21
39.8081285847
  0
LWPOLYLINE
  5
3AB
100
AcDbEntity
  8
DRAFT
100
AcDbPolyline
 62
7
  6
CONTINUOUS
 90
10
 70
0
 10
-11.5314218911
 20
41.1158968937
 10
-11.518292711
 20
41.1255572716
 10
-11.4790788783
 20
41.1351259717
 10
-11.4140476356
 20
41.1446298551
 10
-11.3230244038
 20
41.1540684438
 10
-11.2061837622
 20
41.163442216
 10
-11.064315476
 20
41.1726877897
 10
-10.8972482371
 20
41.1818043651
 10
-10.7051533538
 20
41.1907927421
 10
-10.4893345158
 20
41.1995919384
  0
LINE
  5
3AC
100
AcDbEntity
  8
0
100
AcDbLine
 62
7
  6
CONTINUOUS
 10
-104.285106343
 20
-0.25
 11
-104.6042553306
 21
-0.3750000596
  0
LWPOLYLINE
  5
3AD
100
AcDbEntity
  8
DRAFT
100
AcDbPolyline
 62
7
  6
CONTINUOUS
 90
10
 70
0
 10
-10.4893345158
 20
-41.0323852048
 10
-10.7051533538
 20
-41.041184401
 10
-10.8972482371
 20
-41.050172778
 10
-11.064315476
 20
-41.0592893535
 10
-11.2061837622
 20
-41.0685349272
 10
-11.3230244038
 20
-41.0779086993
 10
-11.4140476356
 20
-41.087347288
 10
-11.4790788783
 20
-41.0968511715
 10
-11.518292711
 20
-41.1064198715
 10
-11.5314218911
 20
-41.1158968937
  0
LWPOLYLINE
  5
3AE
100
AcDbEntity
  8
DRAFT
100
AcDbPolyline
 62
7
  6
CONTINUOUS
 90
10
 70
0
 10
-40.5106654842
 20
-41.1995919384
 10
-40.2948466462
 20
-41.1907927421
 10
-40.1027517629
 20
-41.1818043651
 10
-39.935684524
 20
-41.1726877897
 10
-39.7938162378
 20
-41.163442216
 10
-39.6769755962
 20
-41.1540684438
 10
-39.5859523644
 20
-41.1446298551
 10
-39.5209211217
 20
-41.1351259717
 10
-39.481707289
 20
-41.1255572716
 10
-39.4685781089
 20
-41.1158968937
  0
LWPOLYLINE
  5
3AF
100
AcDbEntity
  8
DRAFT
100
AcDbPolyline
 62
7
  6
CONTINUOUS
 90
10
 70
0
 10
-61.4893345158
 20
-41.0323852048
 10
-61.7051533538
 20
-41.041184401
 10
-61.8972482371
 20
-41.050172778
 10
-62.064315476
 20
-41.0592893535
 10
-62.2061837622
 20
-41.0685349272
 10
-62.3230244038
 20
-41.0779086993
 10
-62.4140476356
 20
-41.087347288
 10
-62.4790788783
 20
-41.0968511715
 10
-62.518292711
 20
-41.1064198715
 10
-62.5314218911
 20
-41.1158968937
  0
LWPOLYLINE
  5
3B0
100
AcDbEntity
  8
DRAFT
100
AcDbPolyline
 62
7
  6
CONTINUOUS
 90
10
 70
0
 10
-74.5106654842
 20
-41.1995919384
 10
-74.2948466462
 20
-41.1907927421
 10
-74.1027517629
 20
-41.1818043651
 10
-73.935684524
 20
-41.1726877897
 10
-73.7938162378
 20
-41.163442216
 10
-73.6769755962
 20
-41.1540684438
 10
-73.5859523644
 20
-41.1446298551
 10
-73.5209211217
 20
-41.1351259717
 10
-73.481707289
 20
-41.1255572716
 10
-73.4685781089
 20
-41.1158968937
  0
LWPOLYLINE
  5
3B1
100
AcDbEntity
  8
DRAFT
100
AcDbPolyline
 62
7
  6
CONTINUOUS
 90
10
 70
0
 10
-95.4893345158
 20
-41.0323852048
 10
-95.7051533538
 20
-41.041184401
 10
-95.8972482371
 20
-41.050172778
 10
-96.064315476
 20
-41.0592893535
 10
-96.2061837622
 20
-41.0685349272
 10
-96.3230244038
 20
-41.0779086993
 10
-96.4140476356
 20
-41.087347288
 10
-96.4790788783
 20
-41.0968511715
 10
-96.518292711
 20
-41.1064198715
 10
-96.5314218911
 20
-41.1158968937
  0
LINE
  5
3B2
100
AcDbEntity
  8
DRAFT
100
AcDbLine
 62
7
  6
CONTINUOUS
 10
-9.9862082668
 20
-41.0153571077
 11
-10.4893345158
 21
-41.0323852048
  0
LINE
  5
3B3
100
AcDbEntity
  8
DRAFT
100
AcDbLine
 62
7
  6
CONTINUOUS
 10
-41.0137917332
 20
-41.2166200355
 11
-40.5106654842
 21
-41.1995919384
  0
LINE
  5
3B4
100
AcDbEntity
  8
DRAFT
100
AcDbLine
 62
7
  6
CONTINUOUS
 10
-60.9862082668
 20
-41.0153571077
 11
-61.4893345158
 21
-41.0323852048
  0
LINE
  5
3B5
100
AcDbEntity
  8
DRAFT
100
AcDbLine
 62
7
  6
CONTINUOUS
 10
-75.0137917332
 20
-41.2166200355
 11
-74.5106654842
 21
-41.1995919384
  0
LINE
  5
3B6
100
AcDbEntity
  8
DRAFT
100
AcDbLine
 62
7
  6
CONTINUOUS
 10
-94.9862082668
 20
-41.0153571077
 11
-95.4893345158
 21
-41.0323852048
  0
LINE
  5
3B7
100
AcDbEntity
  8
DRAFT
100
AcDbLine
 62
7
  6
CONTINUOUS
 10
-9.3933696862
 20
-40.9992578609
 11
-9.9862082668
 21
-41.0153571077
  0
LINE
  5
3B8
100
AcDbEntity
  8
DRAFT
100
AcDbLine
 62
7
  6
CONTINUOUS
 10
-41.6066303138
 20
-41.2327192823
 11
-41.0137917332
 21
-41.2166200355
  0
LINE
  5
3B9
100
AcDbEntity
  8
DRAFT
100
AcDbLine
 62
7
  6
CONTINUOUS
 10
-60.3933696862
 20
-40.9992578609
 11
-60.9862082668
 21
-41.0153571077
  0
LINE
  5
3BA
100
AcDbEntity
  8
DRAFT
100
AcDbLine
 62
7
  6
CONTINUOUS
 10
-75.6066303138
 20
-41.2327192823
 11
-75.0137917332
 21
-41.2166200355
  0
LINE
  5
3BB
100
AcDbEntity
  8
DRAFT
100
AcDbLine
 62
7
  6
CONTINUOUS
 10
-94.3933696862
 20
-40.9992578609
 11
-94.9862082668
 21
-41.0153571077
  0
LINE
  5
3BC
100
AcDbEntity
  8
DRAFT
100
AcDbLine
 62
7
  6
CONTINUOUS
 10
-8.7148345943
 20
-40.9841964648
 11
-9.3933696862
 21
-40.9992578609
  0
LINE
  5
3BD
100
AcDbEntity
  8
DRAFT
100
AcDbLine
 62
7
  6
CONTINUOUS
 10
-42.2851654057
 20
-41.2477806783
 11
-41.6066303138
 21
-41.2327192823
  0
LINE
  5
3BE
100
AcDbEntity
  8
DRAFT
100
AcDbLine
 62
7
  6
CONTINUOUS
 10
-59.7148345943
 20
-40.9841964648
 11
-60.3933696862
 21
-40.9992578609
  0
LINE
  5
3BF
100
AcDbEntity
  8
DRAFT
100
AcDbLine
 62
7
  6
CONTINUOUS
 10
-76.2851654057
 20
-41.2477806783
 11
-75.6066303138
 21
-41.2327192823
  0
LINE
  5
3C0
100
AcDbEntity
  8
DRAFT
100
AcDbLine
 62
7
  6
CONTINUOUS
 10
-93.7148345943
 20
-40.9841964648
 11
-94.3933696862
 21
-40.9992578609
  0
LINE
  5
3C1
100
AcDbEntity
  8
DRAFT
100
AcDbLine
 62
7
  6
CONTINUOUS
 10
-7.9572092866
 20
-40.970332036
 11
-8.7148345943
 21
-40.9841964648
  0
LINE
  5
3C2
100
AcDbEntity
  8
DRAFT
100
AcDbLine
 62
7
  6
CONTINUOUS
 10
-43.0427907134
 20
-41.2616451071
 11
-42.2851654057
 21
-41.2477806783
  0
LINE
  5
3C3
100
AcDbEntity
  8
DRAFT
100
AcDbLine
 62
7
  6
CONTINUOUS
 10
-58.9572092866
 20
-40.970332036
 11
-59.7148345943
 21
-40.9841964648
  0
LINE
  5
3C4
100
AcDbEntity
  8
DRAFT
100
AcDbLine
 62
7
  6
CONTINUOUS
 10
-77.0427907134
 20
-41.2616451071
 11
-76.2851654057
 21
-41.2477806783
  0
LINE
  5
3C5
100
AcDbEntity
  8
DRAFT
100
AcDbLine
 62
7
  6
CONTINUOUS
 10
-92.9572092866
 20
-40.970332036
 11
-93.7148345943
 21
-40.9841964648
  0
LINE
  5
3C6
100
AcDbEntity
  8
DRAFT
100
AcDbLine
 62
7
  6
CONTINUOUS
 10
-7.1285008656
 20
-40.9577999316
 11
-7.9572092866
 21
-40.970332036
  0
LINE
  5
3C7
100
AcDbEntity
  8
DRAFT
100
AcDbLine
 62
7
  6
CONTINUOUS
 10
-43.8714991344
 20
-41.2741772116
 11
-43.0427907134
 21
-41.2616451071
  0
LINE
  5
3C8
100
AcDbEntity
  8
DRAFT
100
AcDbLine
 62
7
  6
CONTINUOUS
 10
-77.8714991344
 20
-41.2741772116
 11
-77.0427907134
 21
-41.2616451071
  0
LINE
  5
3C9
100
AcDbEntity
  8
DRAFT
100
AcDbLine
 62
7
  6
CONTINUOUS
 10
-58.1285008656
 20
-40.9577999316
 11
-58.9572092866
 21
-40.970332036
  0
LINE
  5
3CA
100
AcDbEntity
  8
DRAFT
100
AcDbLine
 62
7
  6
CONTINUOUS
 10
-92.1285008656
 20
-40.9577999316
 11
-92.9572092866
 21
-40.970332036
  0
LINE
  5
3CB
100
AcDbEntity
  8
DRAFT
100
AcDbLine
 62
7
  6
CONTINUOUS
 10
-44.765679494
 20
-41.2852921767
 11
-43.8714991344
 21
-41.2741772116
  0
LINE
  5
3CC
100
AcDbEntity
  8
DRAFT
100
AcDbLine
 62
7
  6
CONTINUOUS
 10
-78.765679494
 20
-41.2852921767
 11
-77.8714991344
 21
-41.2741772116
  0
LINE
  5
3CD
100
AcDbEntity
  8
DRAFT
100
AcDbLine
 62
7
  6
CONTINUOUS
 10
-57.234320506
 20
-40.9466849665
 11
-58.1285008656
 21
-40.9577999316
  0
LINE
  5
3CE
100
AcDbEntity
  8
DRAFT
100
AcDbLine
 62
7
  6
CONTINUOUS
 10
-91.234320506
 20
-40.9466849665
 11
-92.1285008656
 21
-40.9577999316
  0
LWPOLYLINE
  5
3CF
100
AcDbEntity
  8
DRAFT
100
AcDbPolyline
 62
7
  6
CONTINUOUS
 90
3
 70
0
 10
-5.7659946131
 20
-40.94170464
 10
-6.234320506
 20
-40.9466849665
 10
-7.1285008656
 20
-40.9577999316
  0
LINE
  5
3D0
100
AcDbEntity
  8
DRAFT
100
AcDbLine
 62
7
  6
CONTINUOUS
 10
-45.7164282392
 20
-41.2948698336
 11
-44.765679494
 21
-41.2852921767
  0
LINE
  5
3D1
100
AcDbEntity
  8
DRAFT
100
AcDbLine
 62
7
  6
CONTINUOUS
 10
-79.7164282392
 20
-41.2948698336
 11
-78.765679494
 21
-41.2852921767
  0
LINE
  5
3D2
100
AcDbEntity
  8
DRAFT
100
AcDbLine
 62
7
  6
CONTINUOUS
 10
-56.2835717608
 20
-40.9371073096
 11
-57.234320506
 21
-40.9466849665
  0
LINE
  5
3D3
100
AcDbEntity
  8
DRAFT
100
AcDbLine
 62
7
  6
CONTINUOUS
 10
-90.2835717608
 20
-40.9371073096
 11
-91.234320506
 21
-40.9466849665
  0
LINE
  5
3D4
100
AcDbEntity
  8
DRAFT
100
AcDbLine
 62
7
  6
CONTINUOUS
 10
-80.713867791
 20
-41.3028196018
 11
-79.7164282392
 21
-41.2948698336
  0
LINE
  5
3D5
100
AcDbEntity
  8
DRAFT
100
AcDbLine
 62
7
  6
CONTINUOUS
 10
-55.286132209
 20
-40.9291575414
 11
-56.2835717608
 21
-40.9371073096
  0
LINE
  5
3D6
100
AcDbEntity
  8
DRAFT
100
AcDbLine
 62
7
  6
CONTINUOUS
 10
-89.286132209
 20
-40.9291575414
 11
-90.2835717608
 21
-40.9371073096
  0
LINE
  5
3D7
100
AcDbEntity
  8
DRAFT
100
AcDbLine
 62
7
  6
CONTINUOUS
 10
-81.7512467244
 20
-41.3090876947
 11
-80.713867791
 21
-41.3028196018
  0
LINE
  5
3D8
100
AcDbEntity
  8
DRAFT
100
AcDbLine
 62
7
  6
CONTINUOUS
 10
-54.2487532756
 20
-40.9228894485
 11
-55.286132209
 21
-40.9291575414
  0
LINE
  5
3D9
100
AcDbEntity
  8
DRAFT
100
AcDbLine
 62
7
  6
CONTINUOUS
 10
-88.2487532756
 20
-40.9228894485
 11
-89.286132209
 21
-40.9291575414
  0
LINE
  5
3DA
100
AcDbEntity
  8
DRAFT
100
AcDbLine
 62
7
  6
CONTINUOUS
 10
-52.6410863828
 20
-40.9167859189
 11
-54.2487532756
 21
-40.9228894485
  0
LINE
  5
3DB
100
AcDbEntity
  8
DRAFT
100
AcDbLine
 62
7
  6
CONTINUOUS
 10
-86.6410863828
 20
-40.9167859189
 11
-88.2487532756
 21
-40.9228894485
  0
LINE
  5
3DC
100
AcDbEntity
  8
DRAFT
100
AcDbLine
 62
7
  6
CONTINUOUS
 10
-51.5507420709
 20
-40.9149697322
 11
-52.6410863828
 21
-40.9167859189
  0
LINE
  5
3DD
100
AcDbEntity
  8
DRAFT
100
AcDbLine
 62
7
  6
CONTINUOUS
 10
-85.0
 20
-40.9147374887
 11
-86.6410863828
 21
-40.9167859189
  0
LINE
  5
3DE
100
AcDbEntity
  8
RACCORDO
100
AcDbLine
 62
250
  6
CONTINUOUS
 10
-113.0
 20
-40.8747431161
 11
98.9694172943
 21
-40.8747431161
  0
LINE
  5
3DF
100
AcDbEntity
  8
RACCORDO
100
AcDbLine
 62
250
  6
CONTINUOUS
 10
105.9305827057
 20
-40.8747431161
 11
113.0
 21
-40.8747431161
  0
LINE
  5
3E0
100
AcDbEntity
  8
0
100
AcDbLine
 62
7
  6
CONTINUOUS
 10
-113.0
 20
-39.9751240074
 11
-111.2248759926
 21
-39.9751240074
  0
LINE
  5
3E1
100
AcDbEntity
  8
0
100
AcDbLine
 62
7
  6
CONTINUOUS
 10
111.2248759926
 20
-39.9751240074
 11
113.0
 21
-39.9751240074
  0
LINE
  5
3E2
100
AcDbEntity
  8
RACCORDO
100
AcDbLine
 62
7
  6
CONTINUOUS
 10
100.0413486316
 20
-39.9748344851
 11
104.8586513684
 21
-39.9748344851
  0
LINE
  5
3E3
100
AcDbEntity
  8
RACCORDO
100
AcDbLine
 62
250
  6
CONTINUOUS
 10
99.4564316619
 20
-39.8821703245
 11
105.4435683378
 21
-39.8821703245
  0
LINE
  5
3E4
100
AcDbEntity
  8
DRAFT
100
AcDbLine
 62
7
  6
CONTINUOUS
 10
113.0
 20
-39.7
 11
111.5
 21
-39.7
  0
LINE
  5
3E5
100
AcDbEntity
  8
DRAFT
100
AcDbLine
 62
7
  6
CONTINUOUS
 10
-111.5
 20
-39.7
 11
-113.0
 21
-39.7
  0
LINE
  5
3E6
100
AcDbEntity
  8
RACCORDO
100
AcDbLine
 62
250
  6
CONTINUOUS
 10
-111.2242099741
 20
-39.6749258819
 11
99.2500746359
 21
-39.6749258633
  0
LINE
  5
3E7
100
AcDbEntity
  8
RACCORDO
100
AcDbLine
 62
250
  6
CONTINUOUS
 10
105.6499253618
 20
-39.674925864
 11
111.2242099741
 21
-39.6749258819
  0
LINE
  5
3E8
100
AcDbEntity
  8
RACCORDO
100
AcDbLine
 62
250
  6
CONTINUOUS
 10
98.9574119919
 20
-39.3822464769
 11
105.9425880081
 21
-39.3822464769
  0
LINE
  5
3E9
100
AcDbEntity
  8
DRAFT
100
AcDbLine
 62
250
  6
CONTINUOUS
 10
-111.5
 20
-35.5
 11
-111.2242099741
 21
-35.5
  0
LINE
  5
3EA
100
AcDbEntity
  8
DRAFT
100
AcDbLine
 62
250
  6
CONTINUOUS
 10
111.5
 20
-35.5
 11
111.2242099741
 21
-35.5
  0
LINE
  5
3EB
100
AcDbEntity
  8
0
100
AcDbLine
 62
250
  6
CONTINUOUS
 10
117.2
 20
-35.5
 11
119.0
 21
-35.5
  0
LINE
  5
3EC
100
AcDbEntity
  8
0
100
AcDbLine
 62
250
  6
CONTINUOUS
 10
-117.2
 20
-35.5
 11
-119.0
 21
-35.5
  0
LINE
  5
3ED
100
AcDbEntity
  8
DRAFT
100
AcDbLine
 62
7
  6
CONTINUOUS
 10
-117.2
 20
-34.0
 11
-113.0
 21
-34.0
  0
LINE
  5
3EE
100
AcDbEntity
  8
DRAFT
100
AcDbLine
 62
7
  6
CONTINUOUS
 10
113.0
 20
-34.0
 11
117.2
 21
-34.0
  0
LINE
  5
3EF
100
AcDbEntity
  8
0
100
AcDbLine
 62
7
  6
CONTINUOUS
 10
-117.1749258819
 20
-33.7242099741
 11
-113.0
 21
-33.7242099741
  0
LINE
  5
3F0
100
AcDbEntity
  8
0
100
AcDbLine
 62
7
  6
CONTINUOUS
 10
113.0
 20
-33.7242099741
 11
117.1749258819
 21
-33.7242099741
  0
LINE
  5
3F1
100
AcDbEntity
  8
RACCORDO
100
AcDbLine
 62
250
  6
CONTINUOUS
 10
100.0167790699
 20
-40.4640395529
 11
104.9086127119
 21
-40.463971768
  0
LINE
  5
3F2
100
AcDbEntity
  8
0
100
AcDbLine
 62
7
  6
CONTINUOUS
 10
86.6410863828
 20
-40.9167859189
 11
85.0
 21
-40.9147374887
  0
LINE
  5
3F3
100
AcDbEntity
  8
0
100
AcDbLine
 62
7
  6
CONTINUOUS
 10
53.1818993763
 20
-40.9183744569
 11
51.5507420709
 21
-40.9149697322
  0
LINE
  5
3F4
100
AcDbEntity
  8
RACCORDO
100
AcDbLine
 62
250
  6
CONTINUOUS
 10
-117.6287102966
 20
-32.6916807152
 11
-116.8822464769
 21
-32.6925880081
  0
LINE
  5
3F5
100
AcDbEntity
  8
0
100
AcDbLine
 62
7
  6
CONTINUOUS
 10
88.2487532756
 20
-40.9228894485
 11
86.6410863828
 21
-40.9167859189
  0
LINE
  5
3F6
100
AcDbEntity
  8
RACCORDO
100
AcDbLine
 62
250
  6
CONTINUOUS
 10
99.7258197801
 20
-40.9630854815
 11
99.9918925979
 21
-40.9639633939
  0
LINE
  5
3F7
100
AcDbEntity
  8
0
100
AcDbLine
 62
7
  6
CONTINUOUS
 10
54.7711155094
 20
-40.9258051037
 11
53.1818993763
 21
-40.9183744569
  0
LINE
  5
3F8
100
AcDbEntity
  8
RACCORDO
100
AcDbLine
 62
250
  6
CONTINUOUS
 10
99.9384893184
 20
-40.4636774503
 11
100.0167790699
 21
-40.4640395529
  0
LINE
  5
3F9
100
AcDbEntity
  8
0
100
AcDbLine
 62
7
  6
CONTINUOUS
 10
80.2096896401
 20
-41.2990531225
 11
81.7512467244
 21
-41.3090876947
  0
LINE
  5
3FA
100
AcDbEntity
  8
0
100
AcDbLine
 62
7
  6
CONTINUOUS
 10
55.7903103599
 20
-40.9329240206
 11
54.7711155094
 21
-40.9258051037
  0
LINE
  5
3FB
100
AcDbEntity
  8
0
100
AcDbLine
 62
7
  6
CONTINUOUS
 10
89.7903103599
 20
-40.9329240206
 11
88.2487532756
 21
-40.9228894485
  0
LINE
  5
3FC
100
AcDbEntity
  8
RACCORDO
100
AcDbLine
 62
250
  6
CONTINUOUS
 10
-117.9587299888
 20
-32.6896203661
 11
-117.6287102966
 21
-32.6916807152
  0
LINE
  5
3FD
100
AcDbEntity
  8
RACCORDO
100
AcDbLine
 62
250
  6
CONTINUOUS
 10
-117.5167336255
 20
-32.1911083783
 11
-117.382721145
 21
-32.1921133401
  0
LINE
  5
3FE
100
AcDbEntity
  8
0
100
AcDbLine
 62
7
  6
CONTINUOUS
 10
79.2340053869
 20
-41.2902725032
 11
80.2096896401
 21
-41.2990531225
  0
LINE
  5
3FF
100
AcDbEntity
  8
0
100
AcDbLine
 62
7
  6
CONTINUOUS
 10
56.7659946131
 20
-40.94170464
 11
55.7903103599
 21
-40.9329240206
  0
LINE
  5
400
100
AcDbEntity
  8
0
100
AcDbLine
 62
7
  6
CONTINUOUS
 10
90.7659946131
 20
-40.94170464
 11
89.7903103599
 21
-40.9329240206
  0
LINE
  5
401
100
AcDbEntity
  8
RACCORDO
100
AcDbLine
 62
250
  6
CONTINUOUS
 10
99.5090035481
 20
-40.9612959897
 11
99.7258197801
 21
-40.9630854815
  0
LINE
  5
402
100
AcDbEntity
  8
RACCORDO
100
AcDbLine
 62
250
  6
CONTINUOUS
 10
99.8836236089
 20
-40.4631619691
 11
99.9384893184
 21
-40.4636774503
  0
LINE
  5
403
100
AcDbEntity
  8
0
100
AcDbLine
 62
7
  6
CONTINUOUS
 10
44.765679494
 20
-41.2852921767
 11
45.7164282392
 21
-41.2948698336
  0
LINE
  5
404
100
AcDbEntity
  8
DRAFT
100
AcDbLine
 62
7
  6
CONTINUOUS
 10
6.6884591655
 20
-40.952050951
 11
5.7659946131
 21
-40.94170464
  0
LINE
  5
405
100
AcDbEntity
  8
0
100
AcDbLine
 62
7
  6
CONTINUOUS
 10
78.3115408345
 20
-41.2799261921
 11
79.2340053869
 21
-41.2902725032
  0
LINE
  5
406
100
AcDbEntity
  8
0
100
AcDbLine
 62
7
  6
CONTINUOUS
 10
57.6884591655
 20
-40.952050951
 11
56.7659946131
 21
-40.94170464
  0
LINE
  5
407
100
AcDbEntity
  8
0
100
AcDbLine
 62
7
  6
CONTINUOUS
 10
91.6884591655
 20
-40.952050951
 11
90.7659946131
 21
-40.94170464
  0
LINE
  5
408
100
AcDbEntity
  8
RACCORDO
100
AcDbLine
 62
250
  6
CONTINUOUS
 10
-118.11947045
 20
-32.6879044594
 11
-117.9587299888
 21
-32.6896203661
  0
LINE
  5
409
100
AcDbEntity
  8
0
100
AcDbLine
 62
7
  6
CONTINUOUS
 10
43.8714991344
 20
-41.2741772116
 11
44.765679494
 21
-41.2852921767
  0
LINE
  5
40A
100
AcDbEntity
  8
RACCORDO
100
AcDbLine
 62
250
  6
CONTINUOUS
 10
-117.6359714998
 20
-32.1896394966
 11
-117.5167336255
 21
-32.1911083783
  0
LINE
  5
40B
100
AcDbEntity
  8
DRAFT
100
AcDbLine
 62
7
  6
CONTINUOUS
 10
7.5514580174
 20
-40.9638928764
 11
6.6884591655
 21
-40.952050951
  0
LINE
  5
40C
100
AcDbEntity
  8
0
100
AcDbLine
 62
7
  6
CONTINUOUS
 10
77.4485419826
 20
-41.2680842667
 11
78.3115408345
 21
-41.2799261921
  0
LINE
  5
40D
100
AcDbEntity
  8
0
100
AcDbLine
 62
7
  6
CONTINUOUS
 10
58.5514580174
 20
-40.9638928764
 11
57.6884591655
 21
-40.952050951
  0
LINE
  5
40E
100
AcDbEntity
  8
0
100
AcDbLine
 62
7
  6
CONTINUOUS
 10
92.5514580174
 20
-40.9638928764
 11
91.6884591655
 21
-40.952050951
  0
LINE
  5
40F
100
AcDbEntity
  8
RACCORDO
100
AcDbLine
 62
250
  6
CONTINUOUS
 10
99.8285824289
 20
-40.4623927161
 11
99.8836236089
 21
-40.4631619691
  0
LINE
  5
410
100
AcDbEntity
  8
RACCORDO
100
AcDbLine
 62
250
  6
CONTINUOUS
 10
99.3613511325
 20
-40.959318422
 11
99.5090035481
 21
-40.9612959897
  0
LINE
  5
411
100
AcDbEntity
  8
0
100
AcDbLine
 62
7
  6
CONTINUOUS
 10
43.0427907134
 20
-41.2616451071
 11
43.8714991344
 21
-41.2741772116
  0
LINE
  5
412
100
AcDbEntity
  8
RACCORDO
100
AcDbLine
 62
250
  6
CONTINUOUS
 10
-118.2072042722
 20
-32.6866001802
 11
-118.11947045
 21
-32.6879044594
  0
LINE
  5
413
100
AcDbEntity
  8
DRAFT
100
AcDbLine
 62
7
  6
CONTINUOUS
 10
8.3458760076
 20
-40.9771151599
 11
7.5514580174
 21
-40.9638928764
  0
LINE
  5
414
100
AcDbEntity
  8
0
100
AcDbLine
 62
7
  6
CONTINUOUS
 10
59.3458760076
 20
-40.9771151599
 11
58.5514580174
 21
-40.9638928764
  0
LINE
  5
415
100
AcDbEntity
  8
0
100
AcDbLine
 62
7
  6
CONTINUOUS
 10
76.6541239924
 20
-41.2548619833
 11
77.4485419826
 21
-41.2680842667
  0
LINE
  5
416
100
AcDbEntity
  8
0
100
AcDbLine
 62
7
  6
CONTINUOUS
 10
93.3458760076
 20
-40.9771151599
 11
92.5514580174
 21
-40.9638928764
  0
LINE
  5
417
100
AcDbEntity
  8
RACCORDO
100
AcDbLine
 62
250
  6
CONTINUOUS
 10
-117.704615307
 20
-32.1884329418
 11
-117.6359714998
 21
-32.1896394966
  0
LINE
  5
418
100
AcDbEntity
  8
0
100
AcDbLine
 62
7
  6
CONTINUOUS
 10
42.2851654057
 20
-41.2477806783
 11
43.0427907134
 21
-41.2616451071
  0
LINE
  5
419
100
AcDbEntity
  8
RACCORDO
100
AcDbLine
 62
250
  6
CONTINUOUS
 10
99.2752329977
 20
-40.9577404375
 11
99.3613511325
 21
-40.959318422
  0
LINE
  5
41A
100
AcDbEntity
  8
RACCORDO
100
AcDbLine
 62
250
  6
CONTINUOUS
 10
99.7751598181
 20
-40.4613728125
 11
99.8285824289
 21
-40.4623927161
  0
LINE
  5
41B
100
AcDbEntity
  8
DRAFT
100
AcDbLine
 62
7
  6
CONTINUOUS
 10
9.0639562074
 20
-40.9915780723
 11
8.3458760076
 21
-40.9771151599
  0
LINE
  5
41C
100
AcDbEntity
  8
0
100
AcDbLine
 62
7
  6
CONTINUOUS
 10
60.0639562074
 20
-40.9915780723
 11
59.3458760076
 21
-40.9771151599
  0
LINE
  5
41D
100
AcDbEntity
  8
0
100
AcDbLine
 62
7
  6
CONTINUOUS
 10
75.9360437926
 20
-41.2403990708
 11
76.6541239924
 21
-41.2548619833
  0
LINE
  5
41E
100
AcDbEntity
  8
0
100
AcDbLine
 62
7
  6
CONTINUOUS
 10
94.0639562074
 20
-40.9915780723
 11
93.3458760076
 21
-40.9771151599
  0
LINE
  5
41F
100
AcDbEntity
  8
0
100
AcDbLine
 62
7
  6
CONTINUOUS
 10
41.6066303138
 20
-41.2327192823
 11
42.2851654057
 21
-41.2477806783
  0
LINE
  5
420
100
AcDbEntity
  8
DRAFT
100
AcDbLine
 62
7
  6
CONTINUOUS
 10
9.7008379632
 20
-41.0071836832
 11
9.0639562074
 21
-40.9915780723
  0
LINE
  5
421
100
AcDbEntity
  8
0
100
AcDbLine
 62
7
  6
CONTINUOUS
 10
60.7008379632
 20
-41.0071836832
 11
60.0639562074
 21
-40.9915780723
  0
LINE
  5
422
100
AcDbEntity
  8
0
100
AcDbLine
 62
7
  6
CONTINUOUS
 10
75.2991620368
 20
-41.22479346
 11
75.9360437926
 21
-41.2403990708
  0
LINE
  5
423
100
AcDbEntity
  8
0
100
AcDbLine
 62
7
  6
CONTINUOUS
 10
94.7008379632
 20
-41.0071836832
 11
94.0639562074
 21
-40.9915780723
  0
LINE
  5
424
100
AcDbEntity
  8
RACCORDO
100
AcDbLine
 62
250
  6
CONTINUOUS
 10
99.7248213795
 20
-40.4601101126
 11
99.7751598181
 21
-40.4613728125
  0
LINE
  5
425
100
AcDbEntity
  8
0
100
AcDbLine
 62
7
  6
CONTINUOUS
 10
41.0137917332
 20
-41.2166200355
 11
41.6066303138
 21
-41.2327192823
  0
LINE
  5
426
100
AcDbEntity
  8
0
100
AcDbLine
 62
7
  6
CONTINUOUS
 10
-104.0936170042
 20
-0.5625000596
 11
-103.9021276653
 21
-0.625
  0
LINE
  5
427
100
AcDbEntity
  8
0
100
AcDbLine
 62
7
  6
CONTINUOUS
 10
-103.7106382817
 20
-0.3750000596
 11
-104.0297872245
 21
-0.25
  0
LWPOLYLINE
  5
428
100
AcDbEntity
  8
DRAFT
100
AcDbPolyline
 62
7
  6
CONTINUOUS
 90
12
 70
0
 10
-11.5314218911
 20
-41.1158968937
 10
-11.518292711
 20
-41.1255572716
 10
-11.4790788783
 20
-41.1351259717
 10
-11.4140476356
 20
-41.1446298551
 10
-11.3230244038
 20
-41.1540684438
 10
-11.2061837622
 20
-41.163442216
 10
-11.064315476
 20
-41.1726877897
 10
-10.8972482371
 20
-41.1818043651
 10
-10.7051533538
 20
-41.1907927421
 10
-10.4893345158
 20
-41.1995919384
 10
-10.2496333687
 20
-41.2082005773
 10
-9.7008379632
 20
-41.22479346
  0
LWPOLYLINE
  5
429
100
AcDbEntity
  8
RACCORDO
100
AcDbPolyline
 62
250
  6
CONTINUOUS
 90
15
 70
0
 10
-99.541424784
 20
40.4469029106
 10
-99.5424285366
 20
40.4477501665
 10
-99.544699725
 20
40.4486202526
 10
-99.5483690357
 20
40.449513169
 10
-99.5535862519
 20
40.4504358005
 10
-99.5604707029
 20
40.4513812621
 10
-99.569062591
 20
40.4523288999
 10
-99.5794420706
 20
40.4532793067
 10
-99.5916785008
 20
40.4542318895
 10
-99.6056975183
 20
40.4551642156
 10
-99.6215032584
 20
40.4560753923
 10
-99.6390983525
 20
40.4569663123
 10
-99.658308183
 20
40.4578172199
 10
-99.6790680152
 20
40.4586262647
 10
-99.7248213795
 20
40.4601101126
  0
LWPOLYLINE
  5
42A
100
AcDbEntity
  8
DRAFT
100
AcDbPolyline
 62
7
  6
CONTINUOUS
 90
10
 70
0
 10
11.5314218911
 20
41.1158968937
 10
11.518292711
 20
41.1064198715
 10
11.4790788783
 20
41.0968511715
 10
11.4140476356
 20
41.087347288
 10
11.3230244038
 20
41.0779086993
 10
11.2061837622
 20
41.0685349272
 10
11.064315476
 20
41.0592893535
 10
10.8972482371
 20
41.050172778
 10
10.7051533538
 20
41.041184401
 10
10.4893345158
 20
41.0323852048
  0
LINE
  5
42B
100
AcDbEntity
  8
0
100
AcDbLine
 62
7
  6
CONTINUOUS
 10
-3.3999999851
 20
29.689361763
 11
-3.2124999851
 21
29.8170213223
  0
LINE
  5
42C
100
AcDbEntity
  8
0
100
AcDbLine
 62
7
  6
CONTINUOUS
 10
-0.525
 20
29.689361763
 11
-0.3375
 21
29.8170213223
  0
LINE
  5
42D
100
AcDbEntity
  8
0
100
AcDbLine
 62
7
  6
CONTINUOUS
 10
-0.4000001192
 20
30.1361702204
 11
-0.7125
 21
29.9446808815
  0
LINE
  5
42E
100
AcDbEntity
  8
0
100
AcDbLine
 62
7
  6
CONTINUOUS
 10
-3.2750000149
 20
30.1361702204
 11
-3.525
 21
30.0085106611
  0
LINE
  5
42F
100
AcDbEntity
  8
0
100
AcDbLine
 62
7
  6
CONTINUOUS
 10
-103.9021276653
 20
0.2500000596
 11
-103.7106382817
 21
0.3125
  0
LINE
  5
430
100
AcDbEntity
  8
0
100
AcDbLine
 62
7
  6
CONTINUOUS
 10
-104.4127659917
 20
-0.625
 11
-104.2212765634
 21
-0.5625000596
  0
LWPOLYLINE
  5
431
100
AcDbEntity
  8
RACCORDO
100
AcDbPolyline
 62
250
  6
CONTINUOUS
 90
16
 70
0
 10
-117.8748192685
 20
-32.1806588581
 10
-117.9270647886
 20
-32.1834122763
 10
-117.9787382352
 20
-32.1916105718
 10
-118.0292736895
 20
-32.2051639917
 10
-118.0781176923
 20
-32.2239241349
 10
-118.1247352985
 20
-32.2476855739
 10
-118.1686159366
 20
-32.2761881013
 10
-118.2092790159
 20
-32.3091195877
 10
-118.2462791746
 20
-32.3461193913
 10
-118.2792111553
 20
-32.3867822978
 10
-118.3077142682
 20
-32.4306629841
 10
-118.3314763231
 20
-32.477280878
 10
-118.3502370456
 20
-32.5261254034
 10
-118.3637909487
 20
-32.5766616073
 10
-118.3719895753
 20
-32.6283360225
 10
-118.3747431161
 20
-32.6805827058
  0
LWPOLYLINE
  5
432
100
AcDbEntity
  8
RACCORDO
100
AcDbPolyline
 62
250
  6
CONTINUOUS
 90
16
 70
0
 10
-117.9469029106
 20
-32.108575216
 10
-117.9991490889
 20
-32.1113287036
 10
-118.0508230688
 20
-32.1195271835
 10
-118.1013589188
 20
-32.133080866
 10
-118.1502031721
 20
-32.1518413118
 10
-118.1968208882
 20
-32.1756030572
 10
-118.2407015113
 20
-32.2041058643
 10
-118.2813644626
 20
-32.2370375714
 10
-118.3183644029
 20
-32.2740375116
 10
-118.35129611
 20
-32.3147004629
 10
-118.3797989171
 20
-32.3585810861
 10
-118.4035606624
 20
-32.4051988021
 10
-118.4223211082
 20
-32.4540430554
 10
-118.4358747908
 20
-32.5045789054
 10
-118.4440732706
 20
-32.5562528854
 10
-118.4468267582
 20
-32.6084990636
  0
LINE
  5
433
100
AcDbEntity
  8
RACCORDO
100
AcDbLine
 62
250
  6
CONTINUOUS
 10
-117.5583179827
 20
-26.2093321223
 11
-117.6714093775
 21
-26.2109416376
  0
LINE
  5
434
100
AcDbEntity
  8
RACCORDO
100
AcDbLine
 62
250
  6
CONTINUOUS
 10
-117.8982427903
 20
-25.7098807456
 11
-118.11947045
 21
-25.7120955405
  0
LWPOLYLINE
  5
435
100
AcDbEntity
  8
RACCORDO
100
AcDbPolyline
 62
250
  6
CONTINUOUS
 90
3
 70
0
 10
-117.382721145
 20
-26.20788666
 10
-117.4290335958
 20
-26.2081701005
 10
-117.5583179827
 20
-26.2093321223
  0
LINE
  5
436
100
AcDbEntity
  8
RACCORDO
100
AcDbLine
 62
250
  6
CONTINUOUS
 10
-117.481913298
 20
-25.707818279
 11
-117.8982427903
 21
-25.7098807456
  0
LINE
  5
437
100
AcDbEntity
  8
RACCORDO
100
AcDbLine
 62
250
  6
CONTINUOUS
 10
-117.4662592691
 20
-32.108575216
 11
-117.9469029106
 21
-32.108575216
  0
LINE
  5
438
100
AcDbEntity
  8
RACCORDO
100
AcDbLine
 62
250
  6
CONTINUOUS
 10
-117.4748344851
 20
-31.6086513684
 11
-118.4639771903
 21
-31.6086513684
  0
LINE
  5
439
100
AcDbEntity
  8
RACCORDO
100
AcDbLine
 62
250
  6
CONTINUOUS
 10
-117.4748344851
 20
-26.7913486316
 11
-118.4639771903
 21
-26.7913486316
  0
LINE
  5
43A
100
AcDbEntity
  8
RACCORDO
100
AcDbLine
 62
250
  6
CONTINUOUS
 10
-117.9469029106
 20
-26.291424784
 11
-117.4662592691
 21
-26.291424784
  0
LINE
  5
43B
100
AcDbEntity
  8
RACCORDO
100
AcDbLine
 62
250
  6
CONTINUOUS
 10
-116.8822464769
 20
-25.7074119919
 11
-117.481913298
 21
-25.707818279
  0
LWPOLYLINE
  5
43C
100
AcDbEntity
  8
RACCORDO
100
AcDbPolyline
 62
250
  6
CONTINUOUS
 90
16
 70
0
 10
-117.9469029106
 20
-26.291424784
 10
-117.9991490224
 20
-26.2886713034
 10
-118.0508229449
 20
-26.2804728429
 10
-118.1013587481
 20
-26.2669191895
 10
-118.1502029652
 20
-26.2481587804
 10
-118.1968206573
 20
-26.2243970762
 10
-118.2407012718
 20
-26.1958943098
 10
-118.2813642287
 20
-26.1629626393
 10
-118.3183641867
 20
-26.1259627284
 10
-118.351295923
 20
-26.0852997945
 10
-118.3797987671
 20
-26.0414191736
 10
-118.4035605532
 20
-25.9948014432
 10
-118.4223210393
 20
-25.9459571567
 10
-118.4358747569
 20
-25.8954212539
 10
-118.4440732613
 20
-25.8437472027
 10
-118.4468267582
 20
-25.7915009364
  0
LWPOLYLINE
  5
43D
100
AcDbEntity
  8
RACCORDO
100
AcDbPolyline
 62
250
  6
CONTINUOUS
 90
16
 70
0
 10
-117.8748192685
 20
-26.2193411419
 10
-117.9270654467
 20
-26.2165876542
 10
-117.9787394267
 20
-26.2083891744
 10
-118.0292752767
 20
-26.1948354919
 10
-118.07811953
 20
-26.1760750461
 10
-118.124737246
 20
-26.1523133007
 10
-118.1686178692
 20
-26.1238104936
 10
-118.2092808205
 20
-26.0908787865
 10
-118.2462807607
 20
-26.0538788463
 10
-118.2792124678
 20
-26.013215895
 10
-118.3077152749
 20
-25.9693352718
 10
-118.3314770203
 20
-25.9227175558
 10
-118.3502374661
 20
-25.8738733025
 10
-118.3637911486
 20
-25.8233374525
 10
-118.3719896285
 20
-25.7716634725
 10
-118.3747431161
 20
-25.7194172943
  0
LINE
  5
43E
100
AcDbEntity
  8
0
100
AcDbLine
 62
7
  6
CONTINUOUS
 10
-105.7531915426
 20
0.3749999404
 11
-105.4978724241
 21
0.3125
  0
LINE
  5
43F
100
AcDbEntity
  8
0
100
AcDbLine
 62
7
  6
CONTINUOUS
 10
-103.7106382817
 20
2.4375001192
 11
-103.9021276653
 21
2.4999998808
  0
LWPOLYLINE
  5
440
100
AcDbEntity
  8
DRAFT
100
AcDbPolyline
 62
7
  6
CONTINUOUS
 90
12
 70
0
 10
11.5314218911
 20
-41.1158968937
 10
11.518292711
 20
-41.1064198715
 10
11.4790788783
 20
-41.0968511715
 10
11.4140476356
 20
-41.087347288
 10
11.3230244038
 20
-41.0779086993
 10
11.2061837622
 20
-41.0685349272
 10
11.064315476
 20
-41.0592893535
 10
10.8972482371
 20
-41.050172778
 10
10.7051533538
 20
-41.041184401
 10
10.4893345158
 20
-41.0323852048
 10
10.2496333687
 20
-41.0237765658
 10
9.7008379632
 20
-41.0071836832
  0
LINE
  5
441
100
AcDbEntity
  8
0
100
AcDbLine
 62
7
  6
CONTINUOUS
 10
-3.525
 20
29.4978724241
 11
-3.3999999851
 21
29.689361763
  0
LINE
  5
442
100
AcDbEntity
  8
0
100
AcDbLine
 62
7
  6
CONTINUOUS
 10
-1.8375
 20
28.9234042287
 11
-1.7124999404
 21
29.1148935676
  0
LINE
  5
443
100
AcDbEntity
  8
0
100
AcDbLine
 62
7
  6
CONTINUOUS
 10
-0.7750001192
 20
29.3063829064
 11
-0.525
 21
29.689361763
  0
LINE
  5
444
100
AcDbEntity
  8
0
100
AcDbLine
 62
7
  6
CONTINUOUS
 10
-3.525
 20
30.0085106611
 11
-3.7749999963
 21
29.7531915426
  0
LINE
  5
445
100
AcDbEntity
  8
0
100
AcDbLine
 62
7
  6
CONTINUOUS
 10
-0.7125
 20
29.9446808815
 11
-0.9
 21
29.7531915426
  0
LINE
  5
446
100
AcDbEntity
  8
0
100
AcDbLine
 62
7
  6
CONTINUOUS
 10
0.6625001192
 20
27.4553191409
 11
0.8500001192
 21
27.6468085021
  0
LINE
  5
447
100
AcDbEntity
  8
0
100
AcDbLine
 62
7
  6
CONTINUOUS
 10
-2.1500000596
 20
29.1148935676
 11
-3.9
 21
27.5191489428
  0
LINE
  5
448
100
AcDbEntity
  8
0
100
AcDbLine
 62
7
  6
CONTINUOUS
 10
-3.3999999851
 20
27.5191489428
 11
-1.8375
 21
28.9234042287
  0
LINE
  5
449
100
AcDbEntity
  8
0
100
AcDbLine
 62
7
  6
CONTINUOUS
 10
2.0374998808
 20
28.5404255509
 11
2.2875
 21
28.7319148898
  0
LINE
  5
44A
100
AcDbEntity
  8
0
100
AcDbLine
 62
7
  6
CONTINUOUS
 10
0.4750001192
 20
27.7106382817
 11
0.2875001192
 21
27.5829787225
  0
LINE
  5
44B
100
AcDbEntity
  8
0
100
AcDbLine
 62
7
  6
CONTINUOUS
 10
3.3500002384
 20
27.7106382817
 11
3.1625002384
 21
27.5829787225
  0
LINE
  5
44C
100
AcDbEntity
  8
0
100
AcDbLine
 62
7
  6
CONTINUOUS
 10
2.2250002384
 20
29.0510637879
 11
1.9125
 21
28.8595744491
  0
LINE
  5
44D
100
AcDbEntity
  8
0
100
AcDbLine
 62
7
  6
CONTINUOUS
 10
0.3499998808
 20
27.2638297852
 11
0.6625001192
 21
27.4553191409
  0
LINE
  5
44E
100
AcDbEntity
  8
0
100
AcDbLine
 62
7
  6
CONTINUOUS
 10
3.225
 20
27.2638297852
 11
3.5375002384
 21
27.4553191409
  0
LWPOLYLINE
  5
44F
100
AcDbEntity
  8
RACCORDO
100
AcDbPolyline
 62
250
  6
CONTINUOUS
 90
8
 70
0
 10
-117.7879728056
 20
-26.2136577087
 10
-117.809977488
 20
-26.2144147748
 10
-117.8288593862
 20
-26.215196594
 10
-117.8446701832
 20
-26.2160028644
 10
-117.8571932343
 20
-26.2168216481
 10
-117.8663563249
 20
-26.217648966
 10
-117.8722316696
 20
-26.2184887972
 10
-117.8748192685
 20
-26.2193411419
  0
LWPOLYLINE
  5
450
100
AcDbEntity
  8
RACCORDO
100
AcDbPolyline
 62
250
  6
CONTINUOUS
 90
6
 70
0
 10
-118.3059397378
 20
-25.7155465758
 10
-118.329503036
 20
-25.7163017919
 10
-118.3482268862
 20
-25.7170674101
 10
-118.3620393461
 20
-25.7178403026
 10
-118.370888332
 20
-25.7186235973
 10
-118.3747431161
 20
-25.7194172943
  0
LINE
  5
451
100
AcDbEntity
  8
RACCORDO
100
AcDbLine
 62
250
  6
CONTINUOUS
 10
-117.7351218303
 20
-26.2122279625
 11
-117.7879728056
 21
-26.2136577087
  0
LINE
  5
452
100
AcDbEntity
  8
RACCORDO
100
AcDbLine
 62
250
  6
CONTINUOUS
 10
-118.2446697358
 20
-25.7140955897
 11
-118.3059397378
 21
-25.7155465758
  0
LINE
  5
453
100
AcDbEntity
  8
RACCORDO
100
AcDbLine
 62
250
  6
CONTINUOUS
 10
-117.6714093775
 20
-26.2109416376
 11
-117.7351218303
 21
-26.2122279625
  0
LWPOLYLINE
  5
454
100
AcDbEntity
  8
RACCORDO
100
AcDbPolyline
 62
250
  6
CONTINUOUS
 90
3
 70
0
 10
-118.11947045
 20
-25.7120955405
 10
-118.1654080484
 20
-25.712732957
 10
-118.2446697358
 20
-25.7140955897
  0
LINE
  5
455
100
AcDbEntity
  8
0
100
AcDbLine
 62
7
  6
CONTINUOUS
 10
-102.4
 20
-16.0
 11
-102.6
 21
-16.0
  0
LINE
  5
456
100
AcDbEntity
  8
0
100
AcDbLine
 62
7
  6
CONTINUOUS
 10
-105.1148935676
 20
2.375
 11
-105.3702126861
 21
2.4375001192
  0
LINE
  5
457
100
AcDbEntity
  8
0
100
AcDbLine
 62
7
  6
CONTINUOUS
 10
-3.7749999963
 20
29.7531915426
 11
-3.8374999981
 21
29.4978724241
  0
LINE
  5
458
100
AcDbEntity
  8
0
100
AcDbLine
 62
7
  6
CONTINUOUS
 10
-1.7124999404
 20
29.1148935676
 11
-1.65
 21
29.3702126861
  0
LINE
  5
459
100
AcDbEntity
  8
0
100
AcDbLine
 62
7
  6
CONTINUOUS
 10
-1.0250000596
 20
29.4978724241
 11
-1.0875
 21
29.3063829064
  0
LINE
  5
45A
100
AcDbEntity
  8
0
100
AcDbLine
 62
7
  6
CONTINUOUS
 10
0.975
 20
27.9021276653
 11
1.0375001192
 21
28.0936170042
  0
LINE
  5
45B
100
AcDbEntity
  8
0
100
AcDbLine
 62
7
  6
CONTINUOUS
 10
-2.025
 20
29.3702126861
 11
-2.1500000596
 21
29.1148935676
  0
LINE
  5
45C
100
AcDbEntity
  8
0
100
AcDbLine
 62
7
  6
CONTINUOUS
 10
-0.9
 20
29.7531915426
 11
-1.0250000596
 21
29.4978724241
  0
LINE
  5
45D
100
AcDbEntity
  8
0
100
AcDbLine
 62
7
  6
CONTINUOUS
 10
0.8500001192
 20
27.6468085021
 11
0.975
 21
27.9021276653
  0
LINE
  5
45E
100
AcDbEntity
  8
0
100
AcDbLine
 62
7
  6
CONTINUOUS
 10
0.7249998808
 20
28.0936170042
 11
0.4750001192
 21
27.7106382817
  0
LINE
  5
45F
100
AcDbEntity
  8
0
100
AcDbLine
 62
7
  6
CONTINUOUS
 10
3.4749997616
 20
27.9021276653
 11
3.3500002384
 21
27.7106382817
  0
LINE
  5
460
100
AcDbEntity
  8
0
100
AcDbLine
 62
7
  6
CONTINUOUS
 10
3.5375002384
 20
27.4553191409
 11
3.7250002384
 21
27.7106382817
  0
LWPOLYLINE
  5
461
100
AcDbEntity
  8
0
100
AcDbPolyline
 62
7
  6
CONTINUOUS
 90
10
 70
0
 10
39.4685781089
 20
41.1158968937
 10
39.481707289
 20
41.1255572716
 10
39.5209211217
 20
41.1351259717
 10
39.5859523644
 20
41.1446298551
 10
39.6769755962
 20
41.1540684438
 10
39.7938162378
 20
41.163442216
 10
39.935684524
 20
41.1726877897
 10
40.1027517629
 20
41.1818043651
 10
40.2948466462
 20
41.1907927421
 10
40.5106654842
 20
41.1995919384
  0
LWPOLYLINE
  5
462
100
AcDbEntity
  8
RACCORDO
100
AcDbPolyline
 62
7
  6
CONTINUOUS
 90
7
 70
0
 10
99.4564316619
 20
-39.8821703245
 10
99.4568001082
 20
-39.8822620994
 10
99.457118172
 20
-39.8823538819
 10
99.4573858533
 20
-39.8824456719
 10
99.4576031521
 20
-39.8825374695
 10
99.4577700684
 20
-39.8826292746
 10
99.4578866022
 20
-39.8827210873
  0
LWPOLYLINE
  5
463
100
AcDbEntity
  8
RACCORDO
100
AcDbPolyline
 62
250
  6
CONTINUOUS
 90
12
 70
0
 10
-99.0415009364
 20
40.9468267582
 10
-99.0430768069
 20
40.9476740612
 10
-99.0477076566
 20
40.948544176
 10
-99.0553934854
 20
40.9494371025
 10
-99.0659722645
 20
40.9503597283
 10
-99.0796060227
 20
40.9513051659
 10
-99.0967808469
 20
40.9522527525
 10
-99.1176562235
 20
40.9532030686
 10
-99.1420726661
 20
40.9541555337
 10
-99.1700378021
 20
40.9550877436
 10
-99.2017073577
 20
40.9559988082
 10
-99.2752329977
 20
40.9577404375
  0
LWPOLYLINE
  5
464
100
AcDbEntity
  8
0
100
AcDbPolyline
 62
7
  6
CONTINUOUS
 90
11
 70
0
 10
39.4685781089
 20
-41.1158968937
 10
39.481707289
 20
-41.1255572716
 10
39.5209211217
 20
-41.1351259717
 10
39.5859523644
 20
-41.1446298551
 10
39.6769755962
 20
-41.1540684438
 10
39.7938162378
 20
-41.163442216
 10
39.935684524
 20
-41.1726877897
 10
40.1027517629
 20
-41.1818043651
 10
40.2948466462
 20
-41.1907927421
 10
40.5106654842
 20
-41.1995919384
 10
41.0137917332
 20
-41.2166200355
  0
LINE
  5
465
100
AcDbEntity
  8
0
100
AcDbLine
 62
7
  6
CONTINUOUS
 10
-3.9
 20
27.5191489428
 11
-3.9
 21
27.2
  0
LINE
  5
466
100
AcDbEntity
  8
0
100
AcDbLine
 62
7
  6
CONTINUOUS
 10
-2.025
 20
29.4978724241
 11
-2.025
 21
29.3702126861
  0
LINE
  5
467
100
AcDbEntity
  8
0
100
AcDbLine
 62
7
  6
CONTINUOUS
 10
-1.65
 20
27.2
 11
-1.65
 21
27.5191489428
  0
LINE
  5
468
100
AcDbEntity
  8
0
100
AcDbLine
 62
7
  6
CONTINUOUS
 10
-1.65
 20
29.3702126861
 11
-1.65
 21
29.4978724241
  0
LINE
  5
469
100
AcDbEntity
  8
0
100
AcDbLine
 62
7
  6
CONTINUOUS
 10
-1.1499999404
 20
28.9872340083
 11
-1.1499999404
 21
28.4127659917
  0
LINE
  5
46A
100
AcDbEntity
  8
0
100
AcDbLine
 62
7
  6
CONTINUOUS
 10
-0.8374998808
 20
28.4765957713
 11
-0.8374998808
 21
28.9234042287
  0
LINE
  5
46B
100
AcDbEntity
  8
0
100
AcDbLine
 62
7
  6
CONTINUOUS
 10
-0.75
 20
-11.4816392509
 11
-0.75
 21
-10.398724427
  0
LINE
  5
46C
100
AcDbEntity
  8
0
100
AcDbLine
 62
7
  6
CONTINUOUS
 10
-0.75
 20
10.398724427
 11
-0.75
 21
11.481639251
  0
LINE
  5
46D
100
AcDbEntity
  8
0
100
AcDbLine
 62
7
  6
CONTINUOUS
 10
0.75
 20
11.481639251
 11
0.75
 21
10.398724427
  0
LINE
  5
46E
100
AcDbEntity
  8
0
100
AcDbLine
 62
7
  6
CONTINUOUS
 10
0.75
 20
-10.398724427
 11
0.75
 21
-11.4816392509
  0
LINE
  5
46F
100
AcDbEntity
  8
0
100
AcDbLine
 62
7
  6
CONTINUOUS
 10
0.7875
 20
28.9234042287
 11
0.7875
 21
28.4765957713
  0
LINE
  5
470
100
AcDbEntity
  8
0
100
AcDbLine
 62
7
  6
CONTINUOUS
 10
1.0999998808
 20
28.4127659917
 11
1.0999998808
 21
28.9872340083
  0
LINE
  5
471
100
AcDbEntity
  8
0
100
AcDbLine
 62
7
  6
CONTINUOUS
 10
-0.8374998808
 20
28.9234042287
 11
-0.7750001192
 21
29.3063829064
  0
LINE
  5
472
100
AcDbEntity
  8
0
100
AcDbLine
 62
7
  6
CONTINUOUS
 10
0.7875
 20
28.4765957713
 11
0.7249998808
 21
28.0936170042
  0
LINE
  5
473
100
AcDbEntity
  8
0
100
AcDbLine
 62
7
  6
CONTINUOUS
 10
-1.0875
 20
29.3063829064
 11
-1.1499999404
 21
28.9872340083
  0
LINE
  5
474
100
AcDbEntity
  8
0
100
AcDbLine
 62
7
  6
CONTINUOUS
 10
1.0375001192
 20
28.0936170042
 11
1.0999998808
 21
28.4127659917
  0
LINE
  5
475
100
AcDbEntity
  8
0
100
AcDbLine
 62
7
  6
CONTINUOUS
 10
3.5375002384
 20
28.0936170042
 11
3.4749997616
 21
27.9021276653
  0
LINE
  5
476
100
AcDbEntity
  8
0
100
AcDbLine
 62
7
  6
CONTINUOUS
 10
3.7250002384
 20
27.7106382817
 11
3.8499997616
 21
28.0297872245
  0
LINE
  5
477
100
AcDbEntity
  8
0
100
AcDbLine
 62
7
  6
CONTINUOUS
 10
-106.2
 20
-2.5
 11
-104.5404255509
 21
-2.5
  0
LINE
  5
478
100
AcDbEntity
  8
0
100
AcDbLine
 62
7
  6
CONTINUOUS
 10
-104.8595744491
 20
-2.1875000074
 11
-105.8808511019
 21
-2.1875000074
  0
LINE
  5
479
100
AcDbEntity
  8
0
100
AcDbLine
 62
7
  6
CONTINUOUS
 10
96.481639251
 20
-0.75
 11
95.398724427
 21
-0.75
  0
LINE
  5
47A
100
AcDbEntity
  8
0
100
AcDbLine
 62
7
  6
CONTINUOUS
 10
74.601275573
 20
-0.75
 11
73.518360749
 21
-0.75
  0
LINE
  5
47B
100
AcDbEntity
  8
0
100
AcDbLine
 62
7
  6
CONTINUOUS
 10
11.481639251
 20
-0.75
 11
10.398724427
 21
-0.75
  0
LINE
  5
47C
100
AcDbEntity
  8
0
100
AcDbLine
 62
7
  6
CONTINUOUS
 10
-10.398724427
 20
-0.75
 11
-11.481639251
 21
-0.75
  0
LINE
  5
47D
100
AcDbEntity
  8
0
100
AcDbLine
 62
7
  6
CONTINUOUS
 10
-73.518360749
 20
-0.75
 11
-74.601275573
 21
-0.75
  0
LINE
  5
47E
100
AcDbEntity
  8
0
100
AcDbLine
 62
7
  6
CONTINUOUS
 10
-95.398724427
 20
-0.75
 11
-96.481639251
 21
-0.75
  0
LINE
  5
47F
100
AcDbEntity
  8
0
100
AcDbLine
 62
7
  6
CONTINUOUS
 10
-104.2212765634
 20
-0.5625000596
 11
-104.0936170042
 21
-0.5625000596
  0
LINE
  5
480
100
AcDbEntity
  8
0
100
AcDbLine
 62
7
  6
CONTINUOUS
 10
-105.8808511019
 20
-0.3750000596
 11
-106.2
 21
-0.3750000596
  0
LINE
  5
481
100
AcDbEntity
  8
0
100
AcDbLine
 62
7
  6
CONTINUOUS
 10
-104.0297872245
 20
-0.25
 11
-104.285106343
 21
-0.25
  0
LINE
  5
482
100
AcDbEntity
  8
0
100
AcDbLine
 62
7
  6
CONTINUOUS
 10
-96.481639251
 20
0.75
 11
-95.398724427
 21
0.75
  0
LINE
  5
483
100
AcDbEntity
  8
0
100
AcDbLine
 62
7
  6
CONTINUOUS
 10
-74.601275573
 20
0.75
 11
-73.518360749
 21
0.75
  0
LINE
  5
484
100
AcDbEntity
  8
0
100
AcDbLine
 62
7
  6
CONTINUOUS
 10
-11.481639251
 20
0.75
 11
-10.398724427
 21
0.75
  0
LINE
  5
485
100
AcDbEntity
  8
0
100
AcDbLine
 62
7
  6
CONTINUOUS
 10
10.398724427
 20
0.75
 11
11.481639251
 21
0.75
  0
LINE
  5
486
100
AcDbEntity
  8
0
100
AcDbLine
 62
7
  6
CONTINUOUS
 10
73.518360749
 20
0.75
 11
74.601275573
 21
0.75
  0
LINE
  5
487
100
AcDbEntity
  8
0
100
AcDbLine
 62
7
  6
CONTINUOUS
 10
95.398724427
 20
0.75
 11
96.481639251
 21
0.75
  0
LINE
  5
488
100
AcDbEntity
  8
0
100
AcDbLine
 62
7
  6
CONTINUOUS
 10
1.6000001192
 20
30.2
 11
1.6000001192
 21
28.5404255509
  0
LINE
  5
489
100
AcDbEntity
  8
0
100
AcDbLine
 62
7
  6
CONTINUOUS
 10
1.9125
 20
28.8595744491
 11
1.9125
 21
29.8808511019
  0
LINE
  5
48A
100
AcDbEntity
  8
0
100
AcDbLine
 62
7
  6
CONTINUOUS
 10
3.5375002384
 20
28.2212765634
 11
3.5375002384
 21
28.0936170042
  0
LINE
  5
48B
100
AcDbEntity
  8
0
100
AcDbLine
 62
7
  6
CONTINUOUS
 10
3.7250002384
 20
29.8808511019
 11
3.7250002384
 21
30.2
  0
LINE
  5
48C
100
AcDbEntity
  8
0
100
AcDbLine
 62
7
  6
CONTINUOUS
 10
3.8499997616
 20
28.0297872245
 11
3.8499997616
 21
28.285106343
  0
LWPOLYLINE
  5
48D
100
AcDbEntity
  8
0
100
AcDbPolyline
 62
7
  6
CONTINUOUS
 90
10
 70
0
 10
62.5314218911
 20
41.1158968937
 10
62.518292711
 20
41.1064198715
 10
62.4790788783
 20
41.0968511715
 10
62.4140476356
 20
41.087347288
 10
62.3230244038
 20
41.0779086993
 10
62.2061837622
 20
41.0685349272
 10
62.064315476
 20
41.0592893535
 10
61.8972482371
 20
41.050172778
 10
61.7051533538
 20
41.041184401
 10
61.4893345158
 20
41.0323852048
  0
LINE
  5
48E
100
AcDbEntity
  8
0
100
AcDbLine
 62
7
  6
CONTINUOUS
 10
-104.8595744491
 20
1.25
 11
-104.6042553306
 21
1.25
  0
LINE
  5
48F
100
AcDbEntity
  8
0
100
AcDbLine
 62
7
  6
CONTINUOUS
 10
-105.4978724241
 20
2.1249998808
 11
-105.3702126861
 21
2.1249998808
  0
LINE
  5
490
100
AcDbEntity
  8
0
100
AcDbLine
 62
7
  6
CONTINUOUS
 10
-104.1574467838
 20
2.1875
 11
-103.9021276653
 21
2.1875
  0
LINE
  5
491
100
AcDbEntity
  8
0
100
AcDbLine
 62
7
  6
CONTINUOUS
 10
-105.3702126861
 20
2.4375001192
 11
-105.4978724241
 21
2.4375001192
  0
LINE
  5
492
100
AcDbEntity
  8
0
100
AcDbLine
 62
7
  6
CONTINUOUS
 10
-103.9021276653
 20
2.4999998808
 11
-104.1574467838
 21
2.4999998808
  0
LWPOLYLINE
  5
493
100
AcDbEntity
  8
0
100
AcDbPolyline
 62
7
  6
CONTINUOUS
 90
12
 70
0
 10
62.5314218911
 20
-41.1158968937
 10
62.518292711
 20
-41.1064198715
 10
62.4790788783
 20
-41.0968511715
 10
62.4140476356
 20
-41.087347288
 10
62.3230244038
 20
-41.0779086993
 10
62.2061837622
 20
-41.0685349272
 10
62.064315476
 20
-41.0592893535
 10
61.8972482371
 20
-41.050172778
 10
61.7051533538
 20
-41.041184401
 10
61.4893345158
 20
-41.0323852048
 10
61.2496333687
 20
-41.0237765658
 10
60.7008379632
 20
-41.0071836832
  0
LINE
  5
494
100
AcDbEntity
  8
0
100
AcDbLine
 62
7
  6
CONTINUOUS
 10
-1.0875
 20
28.0936170042
 11
-1.0250000596
 21
27.9021276653
  0
LINE
  5
495
100
AcDbEntity
  8
0
100
AcDbLine
 62
7
  6
CONTINUOUS
 10
-1.65
 20
29.4978724241
 11
-1.7124999404
 21
29.7531915426
  0
LINE
  5
496
100
AcDbEntity
  8
0
100
AcDbLine
 62
7
  6
CONTINUOUS
 10
-1.1499999404
 20
28.4127659917
 11
-1.0875
 21
28.0936170042
  0
LINE
  5
497
100
AcDbEntity
  8
0
100
AcDbLine
 62
7
  6
CONTINUOUS
 10
1.0999998808
 20
28.9872340083
 11
1.0375001192
 21
29.3063829064
  0
LINE
  5
498
100
AcDbEntity
  8
0
100
AcDbLine
 62
7
  6
CONTINUOUS
 10
-0.7750001192
 20
28.0936170042
 11
-0.8374998808
 21
28.4765957713
  0
LINE
  5
499
100
AcDbEntity
  8
0
100
AcDbLine
 62
7
  6
CONTINUOUS
 10
0.7249998808
 20
29.3063829064
 11
0.7875
 21
28.9234042287
  0
LWPOLYLINE
  5
49A
100
AcDbEntity
  8
0
100
AcDbPolyline
 62
7
  6
CONTINUOUS
 90
10
 70
0
 10
73.4685781089
 20
41.1158968937
 10
73.481707289
 20
41.1255572716
 10
73.5209211217
 20
41.1351259717
 10
73.5859523644
 20
41.1446298551
 10
73.6769755962
 20
41.1540684438
 10
73.7938162378
 20
41.163442216
 10
73.935684524
 20
41.1726877897
 10
74.1027517629
 20
41.1818043651
 10
74.2948466462
 20
41.1907927421
 10
74.5106654842
 20
41.1995919384
  0
LINE
  5
49B
100
AcDbEntity
  8
0
100
AcDbLine
 62
7
  6
CONTINUOUS
 10
-102.6
 20
16.0
 11
-102.4
 21
16.0
  0
LWPOLYLINE
  5
49C
100
AcDbEntity
  8
RACCORDO
100
AcDbPolyline
 62
7
  6
CONTINUOUS
 90
7
 70
0
 10
-99.4564316619
 20
39.8821703245
 10
-99.4568001082
 20
39.8822620994
 10
-99.457118172
 20
39.8823538819
 10
-99.4573858533
 20
39.8824456719
 10
-99.4576031521
 20
39.8825374695
 10
-99.4577700684
 20
39.8826292746
 10
-99.4578866022
 20
39.8827210873
  0
LWPOLYLINE
  5
49D
100
AcDbEntity
  8
RACCORDO
100
AcDbPolyline
 62
250
  6
CONTINUOUS
 90
12
 70
0
 10
99.0415009364
 20
-40.9468267582
 10
99.0430768069
 20
-40.9476740612
 10
99.0477076566
 20
-40.948544176
 10
99.0553934854
 20
-40.9494371025
 10
99.0659722645
 20
-40.9503597283
 10
99.0796060227
 20
-40.9513051659
 10
99.0967808469
 20
-40.9522527524
 10
99.1176562235
 20
-40.9532030686
 10
99.1420726661
 20
-40.9541555337
 10
99.1700378021
 20
-40.9550877436
 10
99.2017073577
 20
-40.9559988082
 10
99.2752329977
 20
-40.9577404375
  0
LWPOLYLINE
  5
49E
100
AcDbEntity
  8
0
100
AcDbPolyline
 62
7
  6
CONTINUOUS
 90
12
 70
0
 10
73.4685781089
 20
-41.1158968937
 10
73.481707289
 20
-41.1255572716
 10
73.5209211217
 20
-41.1351259717
 10
73.5859523644
 20
-41.1446298551
 10
73.6769755962
 20
-41.1540684438
 10
73.7938162378
 20
-41.163442216
 10
73.935684524
 20
-41.1726877897
 10
74.1027517629
 20
-41.1818043651
 10
74.2948466462
 20
-41.1907927421
 10
74.5106654842
 20
-41.1995919384
 10
74.7503666313
 20
-41.2082005773
 10
75.2991620368
 20
-41.22479346
  0
LINE
  5
49F
100
AcDbEntity
  8
0
100
AcDbLine
 62
7
  6
CONTINUOUS
 10
1.725
 20
27.7106382817
 11
1.9125
 21
27.4553191409
  0
LINE
  5
4A0
100
AcDbEntity
  8
0
100
AcDbLine
 62
7
  6
CONTINUOUS
 10
-2.1500000596
 20
29.689361763
 11
-2.025
 21
29.4978724241
  0
LINE
  5
4A1
100
AcDbEntity
  8
0
100
AcDbLine
 62
7
  6
CONTINUOUS
 10
-0.525
 20
27.7106382817
 11
-0.7750001192
 21
28.0936170042
  0
LINE
  5
4A2
100
AcDbEntity
  8
0
100
AcDbLine
 62
7
  6
CONTINUOUS
 10
0.4750001192
 20
29.689361763
 11
0.7249998808
 21
29.3063829064
  0
LINE
  5
4A3
100
AcDbEntity
  8
0
100
AcDbLine
 62
7
  6
CONTINUOUS
 10
-1.0250000596
 20
27.9021276653
 11
-0.9
 21
27.6468085021
  0
LINE
  5
4A4
100
AcDbEntity
  8
0
100
AcDbLine
 62
7
  6
CONTINUOUS
 10
1.6000001192
 20
27.9659574449
 11
1.725
 21
27.7106382817
  0
LINE
  5
4A5
100
AcDbEntity
  8
0
100
AcDbLine
 62
7
  6
CONTINUOUS
 10
0.975
 20
29.4978724241
 11
0.8500001192
 21
29.7531915426
  0
LINE
  5
4A6
100
AcDbEntity
  8
0
100
AcDbLine
 62
7
  6
CONTINUOUS
 10
2.1
 20
27.7106382817
 11
1.9750001192
 21
27.9659574449
  0
LINE
  5
4A7
100
AcDbEntity
  8
0
100
AcDbLine
 62
7
  6
CONTINUOUS
 10
3.8499997616
 20
28.285106343
 11
3.7250002384
 21
28.6042553306
  0
LINE
  5
4A8
100
AcDbEntity
  8
0
100
AcDbLine
 62
7
  6
CONTINUOUS
 10
1.0375001192
 20
29.3063829064
 11
0.975
 21
29.4978724241
  0
LINE
  5
4A9
100
AcDbEntity
  8
0
100
AcDbLine
 62
7
  6
CONTINUOUS
 10
3.4749997616
 20
28.4127659917
 11
3.5375002384
 21
28.2212765634
  0
LWPOLYLINE
  5
4AA
100
AcDbEntity
  8
0
100
AcDbPolyline
 62
7
  6
CONTINUOUS
 90
10
 70
0
 10
96.5314218911
 20
41.1158968937
 10
96.518292711
 20
41.1064198715
 10
96.4790788783
 20
41.0968511715
 10
96.4140476356
 20
41.087347288
 10
96.3230244038
 20
41.0779086993
 10
96.2061837622
 20
41.0685349272
 10
96.064315476
 20
41.0592893535
 10
95.8972482371
 20
41.050172778
 10
95.7051533538
 20
41.041184401
 10
95.4893345158
 20
41.0323852048
  0
LINE
  5
4AB
100
AcDbEntity
  8
0
100
AcDbLine
 62
7
  6
CONTINUOUS
 10
3.1625002384
 20
27.5829787225
 11
2.9124997616
 21
27.5191489428
  0
LINE
  5
4AC
100
AcDbEntity
  8
0
100
AcDbLine
 62
7
  6
CONTINUOUS
 10
2.9124997616
 20
27.2
 11
3.225
 21
27.2638297852
  0
LWPOLYLINE
  5
4AD
100
AcDbEntity
  8
RACCORDO
100
AcDbPolyline
 62
250
  6
CONTINUOUS
 90
16
 70
0
 10
117.9469029106
 20
32.108575216
 10
117.9991490889
 20
32.1113287036
 10
118.0508230688
 20
32.1195271835
 10
118.1013589188
 20
32.133080866
 10
118.1502031721
 20
32.1518413118
 10
118.1968208882
 20
32.1756030572
 10
118.2407015113
 20
32.2041058643
 10
118.2813644626
 20
32.2370375714
 10
118.3183644029
 20
32.2740375116
 10
118.35129611
 20
32.3147004629
 10
118.3797989171
 20
32.3585810861
 10
118.4035606624
 20
32.4051988021
 10
118.4223211082
 20
32.4540430554
 10
118.4358747908
 20
32.5045789054
 10
118.4440732706
 20
32.5562528854
 10
118.4468267582
 20
32.6084990636
  0
LWPOLYLINE
  5
4AE
100
AcDbEntity
  8
RACCORDO
100
AcDbPolyline
 62
250
  6
CONTINUOUS
 90
16
 70
0
 10
117.8748192685
 20
32.1806588581
 10
117.9270647886
 20
32.1834122763
 10
117.9787382352
 20
32.1916105718
 10
118.0292736895
 20
32.2051639917
 10
118.0781176923
 20
32.2239241349
 10
118.1247352985
 20
32.2476855739
 10
118.1686159366
 20
32.2761881013
 10
118.2092790159
 20
32.3091195877
 10
118.2462791746
 20
32.3461193913
 10
118.2792111553
 20
32.3867822978
 10
118.3077142682
 20
32.4306629841
 10
118.3314763231
 20
32.477280878
 10
118.3502370456
 20
32.5261254034
 10
118.3637909487
 20
32.5766616073
 10
118.3719895753
 20
32.6283360226
 10
118.3747431161
 20
32.6805827058
  0
LWPOLYLINE
  5
4AF
100
AcDbEntity
  8
RACCORDO
100
AcDbPolyline
 62
250
  6
CONTINUOUS
 90
8
 70
0
 10
117.7879728056
 20
26.2136577087
 10
117.809977488
 20
26.2144147748
 10
117.8288593862
 20
26.215196594
 10
117.8446701832
 20
26.2160028644
 10
117.8571932343
 20
26.2168216482
 10
117.8663563249
 20
26.217648966
 10
117.8722316696
 20
26.2184887973
 10
117.8748192685
 20
26.2193411419
  0
LWPOLYLINE
  5
4B0
100
AcDbEntity
  8
RACCORDO
100
AcDbPolyline
 62
250
  6
CONTINUOUS
 90
6
 70
0
 10
118.3059397378
 20
25.7155465758
 10
118.329503036
 20
25.7163017919
 10
118.3482268862
 20
25.7170674101
 10
118.3620393461
 20
25.7178403026
 10
118.370888332
 20
25.7186235973
 10
118.3747431161
 20
25.7194172943
  0
LINE
  5
4B1
100
AcDbEntity
  8
RACCORDO
100
AcDbLine
 62
250
  6
CONTINUOUS
 10
117.7351218303
 20
26.2122279625
 11
117.7879728056
 21
26.2136577087
  0
LINE
  5
4B2
100
AcDbEntity
  8
RACCORDO
100
AcDbLine
 62
250
  6
CONTINUOUS
 10
118.2446697358
 20
25.7140955897
 11
118.3059397378
 21
25.7155465758
  0
LINE
  5
4B3
100
AcDbEntity
  8
RACCORDO
100
AcDbLine
 62
250
  6
CONTINUOUS
 10
117.6714093775
 20
26.2109416376
 11
117.7351218303
 21
26.2122279625
  0
LINE
  5
4B4
100
AcDbEntity
  8
RACCORDO
100
AcDbLine
 62
250
  6
CONTINUOUS
 10
118.1654080484
 20
25.712732957
 11
118.2446697358
 21
25.7140955897
  0
LINE
  5
4B5
100
AcDbEntity
  8
RACCORDO
100
AcDbLine
 62
250
  6
CONTINUOUS
 10
117.5583179827
 20
26.2093321223
 11
117.6714093775
 21
26.2109416376
  0
LINE
  5
4B6
100
AcDbEntity
  8
RACCORDO
100
AcDbLine
 62
250
  6
CONTINUOUS
 10
118.0159224306
 20
25.7109149354
 11
118.1654080484
 21
25.712732957
  0
LWPOLYLINE
  5
4B7
100
AcDbEntity
  8
RACCORDO
100
AcDbPolyline
 62
250
  6
CONTINUOUS
 90
3
 70
0
 10
117.382721145
 20
26.20788666
 10
117.4290335958
 20
26.2081701005
 10
117.5583179827
 20
26.2093321223
  0
LINE
  5
4B8
100
AcDbEntity
  8
RACCORDO
100
AcDbLine
 62
250
  6
CONTINUOUS
 10
117.6996222953
 20
25.7086418039
 11
118.0159224306
 21
25.7109149354
  0
LINE
  5
4B9
100
AcDbEntity
  8
RACCORDO
100
AcDbLine
 62
250
  6
CONTINUOUS
 10
117.1749258819
 20
25.7074135063
 11
117.6996222953
 21
25.7086418039
  0
LINE
  5
4BA
100
AcDbEntity
  8
RACCORDO
100
AcDbLine
 62
250
  6
CONTINUOUS
 10
116.8822464769
 20
25.7074119919
 11
117.1749258819
 21
25.7074119919
  0
LINE
  5
4BB
100
AcDbEntity
  8
RACCORDO
100
AcDbLine
 62
250
  6
CONTINUOUS
 10
117.9469029106
 20
26.291424784
 11
117.4662592691
 21
26.291424784
  0
LINE
  5
4BC
100
AcDbEntity
  8
0
100
AcDbLine
 62
7
  6
CONTINUOUS
 10
-1.9625000596
 20
30.0085106611
 11
-2.2125
 21
30.1361702204
  0
LINE
  5
4BD
100
AcDbEntity
  8
0
100
AcDbLine
 62
7
  6
CONTINUOUS
 10
-0.7125
 20
27.4553191409
 11
-0.4000001192
 21
27.2638297852
  0
LINE
  5
4BE
100
AcDbEntity
  8
0
100
AcDbLine
 62
7
  6
CONTINUOUS
 10
1.9125
 20
27.4553191409
 11
2.2250002384
 21
27.2638297852
  0
LINE
  5
4BF
100
AcDbEntity
  8
0
100
AcDbLine
 62
7
  6
CONTINUOUS
 10
0.6625001192
 20
29.9446808815
 11
0.3499998808
 21
30.1361702204
  0
LINE
  5
4C0
100
AcDbEntity
  8
0
100
AcDbLine
 62
7
  6
CONTINUOUS
 10
-0.3375
 20
27.5829787225
 11
-0.525
 21
27.7106382817
  0
LINE
  5
4C1
100
AcDbEntity
  8
0
100
AcDbLine
 62
7
  6
CONTINUOUS
 10
-2.3375000596
 20
29.8170213223
 11
-2.1500000596
 21
29.689361763
  0
LINE
  5
4C2
100
AcDbEntity
  8
0
100
AcDbLine
 62
7
  6
CONTINUOUS
 10
2.2875
 20
27.5829787225
 11
2.1
 21
27.7106382817
  0
LINE
  5
4C3
100
AcDbEntity
  8
0
100
AcDbLine
 62
7
  6
CONTINUOUS
 10
0.2875001192
 20
29.8170213223
 11
0.4750001192
 21
29.689361763
  0
LINE
  5
4C4
100
AcDbEntity
  8
0
100
AcDbLine
 62
7
  6
CONTINUOUS
 10
3.1625002384
 20
28.7319148898
 11
3.3500002384
 21
28.6042553306
  0
LWPOLYLINE
  5
4C5
100
AcDbEntity
  8
0
100
AcDbPolyline
 62
7
  6
CONTINUOUS
 90
12
 70
0
 10
96.5314218911
 20
-41.1158968937
 10
96.518292711
 20
-41.1064198715
 10
96.4790788783
 20
-41.0968511715
 10
96.4140476356
 20
-41.087347288
 10
96.3230244038
 20
-41.0779086993
 10
96.2061837622
 20
-41.0685349272
 10
96.064315476
 20
-41.0592893535
 10
95.8972482371
 20
-41.050172778
 10
95.7051533538
 20
-41.041184401
 10
95.4893345158
 20
-41.0323852048
 10
95.2496333687
 20
-41.0237765658
 10
94.7008379632
 20
-41.0071836832
  0
LINE
  5
4C6
100
AcDbEntity
  8
0
100
AcDbLine
 62
7
  6
CONTINUOUS
 10
-0.9
 20
27.6468085021
 11
-0.7125
 21
27.4553191409
  0
LINE
  5
4C7
100
AcDbEntity
  8
0
100
AcDbLine
 62
7
  6
CONTINUOUS
 10
-1.7124999404
 20
29.7531915426
 11
-1.9625000596
 21
30.0085106611
  0
LINE
  5
4C8
100
AcDbEntity
  8
0
100
AcDbLine
 62
7
  6
CONTINUOUS
 10
0.8500001192
 20
29.7531915426
 11
0.6625001192
 21
29.9446808815
  0
LINE
  5
4C9
100
AcDbEntity
  8
0
100
AcDbLine
 62
7
  6
CONTINUOUS
 10
3.7250002384
 20
28.6042553306
 11
3.5375002384
 21
28.8595744491
  0
LINE
  5
4CA
100
AcDbEntity
  8
0
100
AcDbLine
 62
7
  6
CONTINUOUS
 10
3.3500002384
 20
28.6042553306
 11
3.4749997616
 21
28.4127659917
  0
LINE
  5
4CB
100
AcDbEntity
  8
0
100
AcDbLine
 62
7
  6
CONTINUOUS
 10
2.2875
 20
28.7319148898
 11
2.5374997616
 21
28.7957446694
  0
LINE
  5
4CC
100
AcDbEntity
  8
0
100
AcDbLine
 62
7
  6
CONTINUOUS
 10
-104.1574467838
 20
2.4999998808
 11
-104.4127659917
 21
2.4375001192
  0
LINE
  5
4CD
100
AcDbEntity
  8
0
100
AcDbLine
 62
7
  6
CONTINUOUS
 10
-105.4978724241
 20
2.4375001192
 11
-105.7531915426
 21
2.375
  0
LINE
  5
4CE
100
AcDbEntity
  8
0
100
AcDbLine
 62
7
  6
CONTINUOUS
 10
0.2875001192
 20
27.5829787225
 11
-0.0250001192
 21
27.5191489428
  0
LINE
  5
4CF
100
AcDbEntity
  8
0
100
AcDbLine
 62
7
  6
CONTINUOUS
 10
2.5374997616
 20
29.1148935676
 11
2.2250002384
 21
29.0510637879
  0
LINE
  5
4D0
100
AcDbEntity
  8
0
100
AcDbLine
 62
7
  6
CONTINUOUS
 10
-0.3375
 20
29.8170213223
 11
-0.0250001192
 21
29.8808511019
  0
LINE
  5
4D1
100
AcDbEntity
  8
0
100
AcDbLine
 62
7
  6
CONTINUOUS
 10
-3.2124999851
 20
29.8170213223
 11
-2.8999999702
 21
29.8808511019
  0
LINE
  5
4D2
100
AcDbEntity
  8
0
100
AcDbLine
 62
7
  6
CONTINUOUS
 10
-0.0250001192
 20
27.2
 11
0.3499998808
 21
27.2638297852
  0
LINE
  5
4D3
100
AcDbEntity
  8
0
100
AcDbLine
 62
7
  6
CONTINUOUS
 10
-0.0250001192
 20
30.2
 11
-0.4000001192
 21
30.1361702204
  0
LINE
  5
4D4
100
AcDbEntity
  8
0
100
AcDbLine
 62
7
  6
CONTINUOUS
 10
-2.8375000298
 20
30.2
 11
-3.2750000149
 21
30.1361702204
  0
LINE
  5
4D5
100
AcDbEntity
  8
0
100
AcDbLine
 62
7
  6
CONTINUOUS
 10
92.0
 20
26.4
 11
-92.0
 21
26.4
  0
LINE
  5
4D6
100
AcDbEntity
  8
0
100
AcDbLine
 62
7
  6
CONTINUOUS
 10
-92.0
 20
26.6
 11
92.0
 21
26.6
  0
LINE
  5
4D7
100
AcDbEntity
  8
RACCORDO
100
AcDbLine
 62
250
  6
CONTINUOUS
 10
117.4748344851
 20
26.7913486316
 11
118.4639771903
 21
26.7913486316
  0
LINE
  5
4D8
100
AcDbEntity
  8
0
100
AcDbLine
 62
7
  6
CONTINUOUS
 10
-3.9
 20
27.2
 11
-1.65
 21
27.2
  0
LINE
  5
4D9
100
AcDbEntity
  8
0
100
AcDbLine
 62
7
  6
CONTINUOUS
 10
2.5374997616
 20
27.2
 11
2.9124997616
 21
27.2
  0
LINE
  5
4DA
100
AcDbEntity
  8
0
100
AcDbLine
 62
7
  6
CONTINUOUS
 10
2.9124997616
 20
27.5191489428
 11
2.5374997616
 21
27.5191489428
  0
LINE
  5
4DB
100
AcDbEntity
  8
0
100
AcDbLine
 62
7
  6
CONTINUOUS
 10
-1.65
 20
27.5191489428
 11
-3.3999999851
 21
27.5191489428
  0
LINE
  5
4DC
100
AcDbEntity
  8
0
100
AcDbLine
 62
7
  6
CONTINUOUS
 10
1.9750001192
 20
27.9659574449
 11
1.6000001192
 21
27.9659574449
  0
LINE
  5
4DD
100
AcDbEntity
  8
0
100
AcDbLine
 62
7
  6
CONTINUOUS
 10
1.6000001192
 20
28.5404255509
 11
2.0374998808
 21
28.5404255509
  0
LINE
  5
4DE
100
AcDbEntity
  8
0
100
AcDbLine
 62
7
  6
CONTINUOUS
 10
2.5374997616
 20
28.7957446694
 11
2.9124997616
 21
28.7957446694
  0
LINE
  5
4DF
100
AcDbEntity
  8
0
100
AcDbLine
 62
7
  6
CONTINUOUS
 10
2.9124997616
 20
29.1148935676
 11
2.5374997616
 21
29.1148935676
  0
LINE
  5
4E0
100
AcDbEntity
  8
0
100
AcDbLine
 62
7
  6
CONTINUOUS
 10
-3.8374999981
 20
29.4978724241
 11
-3.525
 21
29.4978724241
  0
LINE
  5
4E1
100
AcDbEntity
  8
0
100
AcDbLine
 62
7
  6
CONTINUOUS
 10
-2.8999999702
 20
29.8808511019
 11
-2.6500000298
 21
29.8808511019
  0
LINE
  5
4E2
100
AcDbEntity
  8
0
100
AcDbLine
 62
7
  6
CONTINUOUS
 10
1.9125
 20
29.8808511019
 11
3.7250002384
 21
29.8808511019
  0
LINE
  5
4E3
100
AcDbEntity
  8
0
100
AcDbLine
 62
7
  6
CONTINUOUS
 10
3.7250002384
 20
30.2
 11
1.6000001192
 21
30.2
  0
LINE
  5
4E4
100
AcDbEntity
  8
0
100
AcDbLine
 62
7
  6
CONTINUOUS
 10
-2.5875
 20
30.2
 11
-2.8375000298
 21
30.2
  0
LINE
  5
4E5
100
AcDbEntity
  8
RACCORDO
100
AcDbLine
 62
250
  6
CONTINUOUS
 10
117.4748344851
 20
31.6086513684
 11
118.4639771903
 21
31.6086513685
  0
LINE
  5
4E6
100
AcDbEntity
  8
RACCORDO
100
AcDbLine
 62
250
  6
CONTINUOUS
 10
117.4662592691
 20
32.108575216
 11
117.9469029106
 21
32.108575216
  0
LINE
  5
4E7
100
AcDbEntity
  8
0
100
AcDbLine
 62
7
  6
CONTINUOUS
 10
117.1749258819
 20
33.7242099741
 11
113.0
 21
33.7242099741
  0
LINE
  5
4E8
100
AcDbEntity
  8
0
100
AcDbLine
 62
7
  6
CONTINUOUS
 10
-113.0
 20
33.7242099741
 11
-117.1749258819
 21
33.7242099741
  0
LINE
  5
4E9
100
AcDbEntity
  8
DRAFT
100
AcDbLine
 62
7
  6
CONTINUOUS
 10
117.2
 20
34.0
 11
113.0
 21
34.0
  0
LINE
  5
4EA
100
AcDbEntity
  8
DRAFT
100
AcDbLine
 62
7
  6
CONTINUOUS
 10
-113.0
 20
34.0
 11
-117.2
 21
34.0
  0
LINE
  5
4EB
100
AcDbEntity
  8
RACCORDO
100
AcDbLine
 62
250
  6
CONTINUOUS
 10
117.6287102966
 20
32.6916807152
 11
116.8822464769
 21
32.6925880081
  0
LINE
  5
4EC
100
AcDbEntity
  8
RACCORDO
100
AcDbLine
 62
250
  6
CONTINUOUS
 10
117.9587299888
 20
32.6896203661
 11
117.6287102966
 21
32.6916807152
  0
LINE
  5
4ED
100
AcDbEntity
  8
RACCORDO
100
AcDbLine
 62
250
  6
CONTINUOUS
 10
117.5167336255
 20
32.1911083783
 11
117.382721145
 21
32.1921133401
  0
LINE
  5
4EE
100
AcDbEntity
  8
RACCORDO
100
AcDbLine
 62
250
  6
CONTINUOUS
 10
118.11947045
 20
32.6879044594
 11
117.9587299888
 21
32.6896203661
  0
LINE
  5
4EF
100
AcDbEntity
  8
RACCORDO
100
AcDbLine
 62
250
  6
CONTINUOUS
 10
117.6359714998
 20
32.1896394966
 11
117.5167336255
 21
32.1911083783
  0
LINE
  5
4F0
100
AcDbEntity
  8
RACCORDO
100
AcDbLine
 62
250
  6
CONTINUOUS
 10
118.2072042722
 20
32.6866001803
 11
118.11947045
 21
32.6879044594
  0
LWPOLYLINE
  5
4F1
100
AcDbEntity
  8
RACCORDO
100
AcDbPolyline
 62
250
  6
CONTINUOUS
 90
3
 70
0
 10
117.7351218285
 20
32.1877720375
 10
117.704615307
 20
32.1884329418
 10
117.6359714998
 20
32.1896394966
  0
LWPOLYLINE
  5
4F2
100
AcDbEntity
  8
RACCORDO
100
AcDbPolyline
 62
250
  6
CONTINUOUS
 90
16
 70
0
 10
117.8748192685
 20
26.2193411419
 10
117.9270654467
 20
26.2165876542
 10
117.9787394267
 20
26.2083891744
 10
118.0292752767
 20
26.1948354919
 10
118.07811953
 20
26.1760750461
 10
118.124737246
 20
26.1523133007
 10
118.1686178692
 20
26.1238104937
 10
118.2092808205
 20
26.0908787866
 10
118.2462807607
 20
26.0538788463
 10
118.2792124678
 20
26.013215895
 10
118.3077152749
 20
25.9693352719
 10
118.3314770203
 20
25.9227175558
 10
118.3502374661
 20
25.8738733025
 10
118.3637911486
 20
25.8233374525
 10
118.3719896285
 20
25.7716634725
 10
118.3747431161
 20
25.7194172943
  0
LWPOLYLINE
  5
4F3
100
AcDbEntity
  8
RACCORDO
100
AcDbPolyline
 62
250
  6
CONTINUOUS
 90
16
 70
0
 10
117.9469029106
 20
26.291424784
 10
117.9991490224
 20
26.2886713034
 10
118.0508229449
 20
26.2804728429
 10
118.1013587481
 20
26.2669191895
 10
118.1502029652
 20
26.2481587804
 10
118.1968206573
 20
26.2243970762
 10
118.2407012718
 20
26.1958943098
 10
118.2813642287
 20
26.1629626393
 10
118.3183641867
 20
26.1259627284
 10
118.351295923
 20
26.0852997945
 10
118.3797987671
 20
26.0414191736
 10
118.4035605532
 20
25.9948014432
 10
118.4223210393
 20
25.9459571567
 10
118.4358747569
 20
25.8954212539
 10
118.4440732613
 20
25.8437472027
 10
118.4468267582
 20
25.7915009364
  0
LINE
  5
4F4
100
AcDbEntity
  8
0
100
AcDbLine
 62
7
  6
CONTINUOUS
 10
-0.4000001192
 20
27.2638297852
 11
-0.0250001192
 21
27.2
  0
LINE
  5
4F5
100
AcDbEntity
  8
0
100
AcDbLine
 62
7
  6
CONTINUOUS
 10
-2.2125
 20
30.1361702204
 11
-2.5875
 21
30.2
  0
LINE
  5
4F6
100
AcDbEntity
  8
0
100
AcDbLine
 62
7
  6
CONTINUOUS
 10
0.3499998808
 20
30.1361702204
 11
-0.0250001192
 21
30.2
  0
LINE
  5
4F7
100
AcDbEntity
  8
0
100
AcDbLine
 62
7
  6
CONTINUOUS
 10
-0.0250001192
 20
27.5191489428
 11
-0.3375
 21
27.5829787225
  0
LINE
  5
4F8
100
AcDbEntity
  8
0
100
AcDbLine
 62
7
  6
CONTINUOUS
 10
2.2250002384
 20
27.2638297852
 11
2.5374997616
 21
27.2
  0
LINE
  5
4F9
100
AcDbEntity
  8
0
100
AcDbLine
 62
7
  6
CONTINUOUS
 10
-2.6500000298
 20
29.8808511019
 11
-2.3375000596
 21
29.8170213223
  0
LINE
  5
4FA
100
AcDbEntity
  8
0
100
AcDbLine
 62
7
  6
CONTINUOUS
 10
3.225
 20
29.0510637879
 11
2.9124997616
 21
29.1148935676
  0
LINE
  5
4FB
100
AcDbEntity
  8
0
100
AcDbLine
 62
7
  6
CONTINUOUS
 10
-0.0250001192
 20
29.8808511019
 11
0.2875001192
 21
29.8170213223
  0
LINE
  5
4FC
100
AcDbEntity
  8
0
100
AcDbLine
 62
7
  6
CONTINUOUS
 10
2.5374997616
 20
27.5191489428
 11
2.2875
 21
27.5829787225
  0
LINE
  5
4FD
100
AcDbEntity
  8
0
100
AcDbLine
 62
7
  6
CONTINUOUS
 10
2.9124997616
 20
28.7957446694
 11
3.1625002384
 21
28.7319148898
  0
LINE
  5
4FE
100
AcDbEntity
  8
0
100
AcDbLine
 62
7
  6
CONTINUOUS
 10
3.5375002384
 20
28.8595744491
 11
3.225
 21
29.0510637879
  0
LWPOLYLINE
  5
4FF
100
AcDbEntity
  8
RACCORDO
100
AcDbPolyline
 62
250
  6
CONTINUOUS
 90
15
 70
0
 10
99.541424784
 20
-40.4469029106
 10
99.5424285366
 20
-40.4477501665
 10
99.544699725
 20
-40.4486202526
 10
99.5483690357
 20
-40.449513169
 10
99.5535862519
 20
-40.4504358005
 10
99.5604707029
 20
-40.4513812621
 10
99.569062591
 20
-40.4523288999
 10
99.5794420706
 20
-40.4532793067
 10
99.5916785008
 20
-40.4542318895
 10
99.6056975183
 20
-40.4551642156
 10
99.6215032584
 20
-40.4560753923
 10
99.6390983525
 20
-40.4569663123
 10
99.658308183
 20
-40.4578172199
 10
99.6790680152
 20
-40.4586262647
 10
99.7248213795
 20
-40.4601101126
  0
LINE
  5
500
100
AcDbEntity
  8
0
100
AcDbLine
 62
7
  6
CONTINUOUS
 10
95.4893345158
 20
41.0323852048
 11
94.9862082668
 21
41.0153571077
  0
LINE
  5
501
100
AcDbEntity
  8
0
100
AcDbLine
 62
7
  6
CONTINUOUS
 10
74.5106654842
 20
41.1995919384
 11
75.0137917332
 21
41.2166200355
  0
LINE
  5
502
100
AcDbEntity
  8
0
100
AcDbLine
 62
7
  6
CONTINUOUS
 10
61.4893345158
 20
41.0323852048
 11
60.9862082668
 21
41.0153571077
  0
LINE
  5
503
100
AcDbEntity
  8
0
100
AcDbLine
 62
7
  6
CONTINUOUS
 10
40.5106654842
 20
41.1995919384
 11
41.0137917332
 21
41.2166200355
  0
LINE
  5
504
100
AcDbEntity
  8
DRAFT
100
AcDbLine
 62
7
  6
CONTINUOUS
 10
10.4893345158
 20
41.0323852048
 11
9.9862082668
 21
41.0153571077
  0
LINE
  5
505
100
AcDbEntity
  8
DRAFT
100
AcDbLine
 62
7
  6
CONTINUOUS
 10
-10.4893345158
 20
41.1995919384
 11
-9.9862082668
 21
41.2166200355
  0
LINE
  5
506
100
AcDbEntity
  8
DRAFT
100
AcDbLine
 62
7
  6
CONTINUOUS
 10
-40.5106654842
 20
41.0323852048
 11
-41.0137917332
 21
41.0153571077
  0
LINE
  5
507
100
AcDbEntity
  8
0
100
AcDbLine
 62
7
  6
CONTINUOUS
 10
94.9862082668
 20
41.0153571077
 11
94.3933696862
 21
40.9992578609
  0
LINE
  5
508
100
AcDbEntity
  8
0
100
AcDbLine
 62
7
  6
CONTINUOUS
 10
75.0137917332
 20
41.2166200355
 11
75.6066303138
 21
41.2327192823
  0
LINE
  5
509
100
AcDbEntity
  8
0
100
AcDbLine
 62
7
  6
CONTINUOUS
 10
60.9862082668
 20
41.0153571077
 11
60.3933696862
 21
40.9992578609
  0
LINE
  5
50A
100
AcDbEntity
  8
0
100
AcDbLine
 62
7
  6
CONTINUOUS
 10
41.0137917332
 20
41.2166200355
 11
41.6066303138
 21
41.2327192823
  0
LINE
  5
50B
100
AcDbEntity
  8
DRAFT
100
AcDbLine
 62
7
  6
CONTINUOUS
 10
9.9862082668
 20
41.0153571077
 11
9.3933696862
 21
40.9992578609
  0
LINE
  5
50C
100
AcDbEntity
  8
DRAFT
100
AcDbLine
 62
7
  6
CONTINUOUS
 10
-9.9862082668
 20
41.2166200355
 11
-9.3933696862
 21
41.2327192823
  0
LINE
  5
50D
100
AcDbEntity
  8
DRAFT
100
AcDbLine
 62
7
  6
CONTINUOUS
 10
-41.0137917332
 20
41.0153571077
 11
-41.6066303138
 21
40.9992578609
  0
LINE
  5
50E
100
AcDbEntity
  8
DRAFT
100
AcDbLine
 62
7
  6
CONTINUOUS
 10
-60.9862082668
 20
41.2166200355
 11
-60.3933696862
 21
41.2327192823
  0
LINE
  5
50F
100
AcDbEntity
  8
DRAFT
100
AcDbLine
 62
7
  6
CONTINUOUS
 10
-75.2991620368
 20
41.0071836832
 11
-75.9360437926
 21
40.9915780723
  0
LINE
  5
510
100
AcDbEntity
  8
0
100
AcDbLine
 62
7
  6
CONTINUOUS
 10
94.3933696862
 20
40.9992578609
 11
93.7148345943
 21
40.9841964648
  0
LINE
  5
511
100
AcDbEntity
  8
0
100
AcDbLine
 62
7
  6
CONTINUOUS
 10
75.6066303138
 20
41.2327192823
 11
76.2851654057
 21
41.2477806783
  0
LINE
  5
512
100
AcDbEntity
  8
0
100
AcDbLine
 62
7
  6
CONTINUOUS
 10
60.3933696862
 20
40.9992578609
 11
59.7148345943
 21
40.9841964648
  0
LINE
  5
513
100
AcDbEntity
  8
0
100
AcDbLine
 62
7
  6
CONTINUOUS
 10
41.6066303138
 20
41.2327192823
 11
42.2851654057
 21
41.2477806783
  0
LINE
  5
514
100
AcDbEntity
  8
DRAFT
100
AcDbLine
 62
7
  6
CONTINUOUS
 10
9.3933696862
 20
40.9992578609
 11
8.7148345943
 21
40.9841964648
  0
LINE
  5
515
100
AcDbEntity
  8
DRAFT
100
AcDbLine
 62
7
  6
CONTINUOUS
 10
-9.3933696862
 20
41.2327192823
 11
-8.7148345943
 21
41.2477806783
  0
LINE
  5
516
100
AcDbEntity
  8
DRAFT
100
AcDbLine
 62
7
  6
CONTINUOUS
 10
-41.6066303138
 20
40.9992578609
 11
-42.2851654057
 21
40.9841964648
  0
LINE
  5
517
100
AcDbEntity
  8
DRAFT
100
AcDbLine
 62
7
  6
CONTINUOUS
 10
-60.3933696862
 20
41.2327192823
 11
-59.7148345943
 21
41.2477806783
  0
LINE
  5
518
100
AcDbEntity
  8
RACCORDO
100
AcDbLine
 62
250
  6
CONTINUOUS
 10
-105.0984495437
 20
40.4619146731
 11
-105.1505376783
 21
40.4607683465
  0
LINE
  5
519
100
AcDbEntity
  8
DRAFT
100
AcDbLine
 62
7
  6
CONTINUOUS
 10
-75.9360437926
 20
40.9915780723
 11
-76.6541239924
 21
40.9771151599
  0
LINE
  5
51A
100
AcDbEntity
  8
0
100
AcDbLine
 62
7
  6
CONTINUOUS
 10
93.7148345943
 20
40.9841964648
 11
92.9572092866
 21
40.970332036
  0
LINE
  5
51B
100
AcDbEntity
  8
0
100
AcDbLine
 62
7
  6
CONTINUOUS
 10
76.2851654057
 20
41.2477806783
 11
77.0427907134
 21
41.2616451071
  0
LINE
  5
51C
100
AcDbEntity
  8
0
100
AcDbLine
 62
7
  6
CONTINUOUS
 10
59.7148345943
 20
40.9841964648
 11
58.9572092866
 21
40.970332036
  0
LINE
  5
51D
100
AcDbEntity
  8
0
100
AcDbLine
 62
7
  6
CONTINUOUS
 10
42.2851654057
 20
41.2477806783
 11
43.0427907134
 21
41.2616451071
  0
LINE
  5
51E
100
AcDbEntity
  8
DRAFT
100
AcDbLine
 62
7
  6
CONTINUOUS
 10
8.7148345943
 20
40.9841964648
 11
7.9572092866
 21
40.970332036
  0
LINE
  5
51F
100
AcDbEntity
  8
DRAFT
100
AcDbLine
 62
7
  6
CONTINUOUS
 10
-8.7148345943
 20
41.2477806783
 11
-7.9572092866
 21
41.2616451071
  0
LINE
  5
520
100
AcDbEntity
  8
DRAFT
100
AcDbLine
 62
7
  6
CONTINUOUS
 10
-42.2851654057
 20
40.9841964648
 11
-43.0427907134
 21
40.970332036
  0
LINE
  5
521
100
AcDbEntity
  8
DRAFT
100
AcDbLine
 62
7
  6
CONTINUOUS
 10
-59.7148345943
 20
41.2477806783
 11
-58.9572092866
 21
41.2616451071
  0
LINE
  5
522
100
AcDbEntity
  8
DRAFT
100
AcDbLine
 62
7
  6
CONTINUOUS
 10
-93.7148345943
 20
41.2477806783
 11
-92.9572092866
 21
41.2616451071
  0
LINE
  5
523
100
AcDbEntity
  8
DRAFT
100
AcDbLine
 62
7
  6
CONTINUOUS
 10
-76.6541239924
 20
40.9771151599
 11
-77.4485419826
 21
40.9638928764
  0
LINE
  5
524
100
AcDbEntity
  8
RACCORDO
100
AcDbLine
 62
250
  6
CONTINUOUS
 10
-105.4917753419
 20
40.9600331449
 11
-105.6247454837
 21
40.9577408858
  0
LINE
  5
525
100
AcDbEntity
  8
RACCORDO
100
AcDbLine
 62
250
  6
CONTINUOUS
 10
-105.0439687559
 20
40.462807992
 11
-105.0984495437
 21
40.4619146731
  0
LINE
  5
526
100
AcDbEntity
  8
0
100
AcDbLine
 62
7
  6
CONTINUOUS
 10
92.9572092866
 20
40.970332036
 11
92.1285008656
 21
40.9577999316
  0
LINE
  5
527
100
AcDbEntity
  8
0
100
AcDbLine
 62
7
  6
CONTINUOUS
 10
58.9572092866
 20
40.970332036
 11
58.1285008656
 21
40.9577999316
  0
LINE
  5
528
100
AcDbEntity
  8
0
100
AcDbLine
 62
7
  6
CONTINUOUS
 10
77.0427907134
 20
41.2616451071
 11
77.8714991344
 21
41.2741772116
  0
LINE
  5
529
100
AcDbEntity
  8
0
100
AcDbLine
 62
7
  6
CONTINUOUS
 10
43.0427907134
 20
41.2616451071
 11
43.8714991344
 21
41.2741772116
  0
LINE
  5
52A
100
AcDbEntity
  8
DRAFT
100
AcDbLine
 62
7
  6
CONTINUOUS
 10
7.9572092866
 20
40.970332036
 11
7.1285008656
 21
40.9577999316
  0
LINE
  5
52B
100
AcDbEntity
  8
DRAFT
100
AcDbLine
 62
7
  6
CONTINUOUS
 10
-7.9572092866
 20
41.2616451071
 11
-7.1285008656
 21
41.2741772116
  0
LINE
  5
52C
100
AcDbEntity
  8
DRAFT
100
AcDbLine
 62
7
  6
CONTINUOUS
 10
-43.0427907134
 20
40.970332036
 11
-43.8714991344
 21
40.9577999316
  0
LINE
  5
52D
100
AcDbEntity
  8
DRAFT
100
AcDbLine
 62
7
  6
CONTINUOUS
 10
-58.9572092866
 20
41.2616451071
 11
-58.1285008656
 21
41.2741772116
  0
LINE
  5
52E
100
AcDbEntity
  8
DRAFT
100
AcDbLine
 62
7
  6
CONTINUOUS
 10
-92.9572092866
 20
41.2616451071
 11
-92.1285008656
 21
41.2741772116
  0
LINE
  5
52F
100
AcDbEntity
  8
DRAFT
100
AcDbLine
 62
7
  6
CONTINUOUS
 10
-77.4485419826
 20
40.9638928764
 11
-78.3115408345
 21
40.952050951
  0
LINE
  5
530
100
AcDbEntity
  8
0
100
AcDbLine
 62
7
  6
CONTINUOUS
 10
92.1285008656
 20
40.9577999316
 11
91.234320506
 21
40.9466849665
  0
LINE
  5
531
100
AcDbEntity
  8
0
100
AcDbLine
 62
7
  6
CONTINUOUS
 10
58.1285008656
 20
40.9577999316
 11
57.234320506
 21
40.9466849665
  0
LINE
  5
532
100
AcDbEntity
  8
0
100
AcDbLine
 62
7
  6
CONTINUOUS
 10
77.8714991344
 20
41.2741772116
 11
78.765679494
 21
41.2852921767
  0
LINE
  5
533
100
AcDbEntity
  8
0
100
AcDbLine
 62
7
  6
CONTINUOUS
 10
43.8714991344
 20
41.2741772116
 11
44.765679494
 21
41.2852921767
  0
LINE
  5
534
100
AcDbEntity
  8
DRAFT
100
AcDbLine
 62
7
  6
CONTINUOUS
 10
7.1285008656
 20
40.9577999316
 11
6.234320506
 21
40.9466849665
  0
LINE
  5
535
100
AcDbEntity
  8
DRAFT
100
AcDbLine
 62
7
  6
CONTINUOUS
 10
-7.1285008656
 20
41.2741772116
 11
-6.234320506
 21
41.2852921767
  0
LINE
  5
536
100
AcDbEntity
  8
DRAFT
100
AcDbLine
 62
7
  6
CONTINUOUS
 10
-43.8714991344
 20
40.9577999316
 11
-44.765679494
 21
40.9466849665
  0
LINE
  5
537
100
AcDbEntity
  8
DRAFT
100
AcDbLine
 62
7
  6
CONTINUOUS
 10
-58.1285008656
 20
41.2741772116
 11
-57.234320506
 21
41.2852921767
  0
LINE
  5
538
100
AcDbEntity
  8
DRAFT
100
AcDbLine
 62
7
  6
CONTINUOUS
 10
-92.1285008656
 20
41.2741772116
 11
-91.234320506
 21
41.2852921767
  0
LINE
  5
539
100
AcDbEntity
  8
DRAFT
100
AcDbLine
 62
7
  6
CONTINUOUS
 10
-78.3115408345
 20
40.952050951
 11
-79.2340053869
 21
40.94170464
  0
LINE
  5
53A
100
AcDbEntity
  8
RACCORDO
100
AcDbLine
 62
250
  6
CONTINUOUS
 10
-104.9888915761
 20
40.4634504521
 11
-105.0439687559
 21
40.462807992
  0
LINE
  5
53B
100
AcDbEntity
  8
RACCORDO
100
AcDbLine
 62
250
  6
CONTINUOUS
 10
-105.3383286444
 20
40.9618379278
 11
-105.4917753419
 21
40.9600331449
  0
LINE
  5
53C
100
AcDbEntity
  8
0
100
AcDbLine
 62
7
  6
CONTINUOUS
 10
91.234320506
 20
40.9466849665
 11
90.2835717608
 21
40.9371073096
  0
LINE
  5
53D
100
AcDbEntity
  8
0
100
AcDbLine
 62
7
  6
CONTINUOUS
 10
57.234320506
 20
40.9466849665
 11
56.2835717608
 21
40.9371073096
  0
LINE
  5
53E
100
AcDbEntity
  8
0
100
AcDbLine
 62
7
  6
CONTINUOUS
 10
78.765679494
 20
41.2852921767
 11
79.7164282392
 21
41.2948698336
  0
LINE
  5
53F
100
AcDbEntity
  8
0
100
AcDbLine
 62
7
  6
CONTINUOUS
 10
44.765679494
 20
41.2852921767
 11
45.7164282392
 21
41.2948698336
  0
LINE
  5
540
100
AcDbEntity
  8
DRAFT
100
AcDbLine
 62
7
  6
CONTINUOUS
 10
6.234320506
 20
40.9466849665
 11
5.2835717608
 21
40.9371073096
  0
LINE
  5
541
100
AcDbEntity
  8
DRAFT
100
AcDbLine
 62
7
  6
CONTINUOUS
 10
-6.234320506
 20
41.2852921767
 11
-5.2835717608
 21
41.2948698336
  0
LINE
  5
542
100
AcDbEntity
  8
DRAFT
100
AcDbLine
 62
7
  6
CONTINUOUS
 10
-44.765679494
 20
40.9466849665
 11
-45.7164282392
 21
40.9371073096
  0
LINE
  5
543
100
AcDbEntity
  8
DRAFT
100
AcDbLine
 62
7
  6
CONTINUOUS
 10
-57.234320506
 20
41.2852921767
 11
-56.2835717608
 21
41.2948698336
  0
LINE
  5
544
100
AcDbEntity
  8
DRAFT
100
AcDbLine
 62
7
  6
CONTINUOUS
 10
-91.234320506
 20
41.2852921767
 11
-90.2835717608
 21
41.2948698336
  0
LINE
  5
545
100
AcDbEntity
  8
DRAFT
100
AcDbLine
 62
7
  6
CONTINUOUS
 10
-79.2340053869
 20
40.94170464
 11
-80.2096896401
 21
40.9329240206
  0
LINE
  5
546
100
AcDbEntity
  8
0
100
AcDbLine
 62
7
  6
CONTINUOUS
 10
90.2835717608
 20
40.9371073096
 11
89.286132209
 21
40.9291575414
  0
LINE
  5
547
100
AcDbEntity
  8
0
100
AcDbLine
 62
7
  6
CONTINUOUS
 10
56.2835717608
 20
40.9371073096
 11
55.286132209
 21
40.9291575414
  0
LINE
  5
548
100
AcDbEntity
  8
0
100
AcDbLine
 62
7
  6
CONTINUOUS
 10
79.7164282392
 20
41.2948698336
 11
80.713867791
 21
41.3028196018
  0
LINE
  5
549
100
AcDbEntity
  8
DRAFT
100
AcDbLine
 62
7
  6
CONTINUOUS
 10
5.2835717608
 20
40.9371073096
 11
4.286132209
 21
40.9291575414
  0
LINE
  5
54A
100
AcDbEntity
  8
0
100
AcDbLine
 62
7
  6
CONTINUOUS
 10
45.7164282392
 20
41.2948698336
 11
46.713867791
 21
41.3028196018
  0
LINE
  5
54B
100
AcDbEntity
  8
DRAFT
100
AcDbLine
 62
7
  6
CONTINUOUS
 10
-45.7164282392
 20
40.9371073096
 11
-46.713867791
 21
40.9291575414
  0
LINE
  5
54C
100
AcDbEntity
  8
DRAFT
100
AcDbLine
 62
7
  6
CONTINUOUS
 10
-5.2835717608
 20
41.2948698336
 11
-4.286132209
 21
41.3028196018
  0
LINE
  5
54D
100
AcDbEntity
  8
DRAFT
100
AcDbLine
 62
7
  6
CONTINUOUS
 10
-56.2835717608
 20
41.2948698336
 11
-55.286132209
 21
41.3028196018
  0
LINE
  5
54E
100
AcDbEntity
  8
DRAFT
100
AcDbLine
 62
7
  6
CONTINUOUS
 10
-90.2835717608
 20
41.2948698336
 11
-89.286132209
 21
41.3028196018
  0
LINE
  5
54F
100
AcDbEntity
  8
DRAFT
100
AcDbLine
 62
7
  6
CONTINUOUS
 10
-80.2096896401
 20
40.9329240206
 11
-81.2288844906
 21
40.9258051037
  0
LINE
  5
550
100
AcDbEntity
  8
0
100
AcDbLine
 62
7
  6
CONTINUOUS
 10
89.286132209
 20
40.9291575414
 11
88.2487532756
 21
40.9228894485
  0
LINE
  5
551
100
AcDbEntity
  8
0
100
AcDbLine
 62
7
  6
CONTINUOUS
 10
55.286132209
 20
40.9291575414
 11
54.2487532756
 21
40.9228894485
  0
LINE
  5
552
100
AcDbEntity
  8
0
100
AcDbLine
 62
7
  6
CONTINUOUS
 10
80.713867791
 20
41.3028196018
 11
81.7512467244
 21
41.3090876947
  0
LINE
  5
553
100
AcDbEntity
  8
DRAFT
100
AcDbLine
 62
7
  6
CONTINUOUS
 10
4.286132209
 20
40.9291575414
 11
3.2487532756
 21
40.9228894485
  0
LINE
  5
554
100
AcDbEntity
  8
0
100
AcDbLine
 62
7
  6
CONTINUOUS
 10
46.713867791
 20
41.3028196018
 11
47.7512467244
 21
41.3090876947
  0
LINE
  5
555
100
AcDbEntity
  8
DRAFT
100
AcDbLine
 62
7
  6
CONTINUOUS
 10
-46.713867791
 20
40.9291575414
 11
-47.7512467244
 21
40.9228894485
  0
LINE
  5
556
100
AcDbEntity
  8
DRAFT
100
AcDbLine
 62
7
  6
CONTINUOUS
 10
-4.286132209
 20
41.3028196018
 11
-3.2487532756
 21
41.3090876947
  0
LINE
  5
557
100
AcDbEntity
  8
DRAFT
100
AcDbLine
 62
7
  6
CONTINUOUS
 10
-55.286132209
 20
41.3028196018
 11
-54.2487532756
 21
41.3090876947
  0
LINE
  5
558
100
AcDbEntity
  8
DRAFT
100
AcDbLine
 62
7
  6
CONTINUOUS
 10
-89.286132209
 20
41.3028196018
 11
-88.2487532756
 21
41.3090876947
  0
LINE
  5
559
100
AcDbEntity
  8
RACCORDO
100
AcDbLine
 62
250
  6
CONTINUOUS
 10
-105.1193030089
 20
40.9633740648
 11
-105.3383286444
 21
40.9618379278
  0
LINE
  5
55A
100
AcDbEntity
  8
DRAFT
100
AcDbLine
 62
7
  6
CONTINUOUS
 10
-81.2288844906
 20
40.9258051037
 11
-82.2810009069
 21
40.9204135614
  0
LINE
  5
55B
100
AcDbEntity
  8
RACCORDO
100
AcDbLine
 62
250
  6
CONTINUOUS
 10
-104.9086127119
 20
40.463971768
 11
-104.9888915761
 21
40.4634504521
  0
LINE
  5
55C
100
AcDbEntity
  8
0
100
AcDbLine
 62
7
  6
CONTINUOUS
 10
88.2487532756
 20
40.9228894485
 11
87.1818993763
 21
40.9183744569
  0
LINE
  5
55D
100
AcDbEntity
  8
0
100
AcDbLine
 62
7
  6
CONTINUOUS
 10
54.2487532756
 20
40.9228894485
 11
53.1818993763
 21
40.9183744569
  0
LINE
  5
55E
100
AcDbEntity
  8
DRAFT
100
AcDbLine
 62
7
  6
CONTINUOUS
 10
3.2487532756
 20
40.9228894485
 11
2.1818993763
 21
40.9183744569
  0
LINE
  5
55F
100
AcDbEntity
  8
0
100
AcDbLine
 62
7
  6
CONTINUOUS
 10
81.7512467244
 20
41.3090876947
 11
82.8181006237
 21
41.3136026863
  0
LINE
  5
560
100
AcDbEntity
  8
DRAFT
100
AcDbLine
 62
7
  6
CONTINUOUS
 10
-47.7512467244
 20
40.9228894485
 11
-48.8181006237
 21
40.9183744569
  0
LINE
  5
561
100
AcDbEntity
  8
0
100
AcDbLine
 62
7
  6
CONTINUOUS
 10
47.7512467244
 20
41.3090876947
 11
48.8181006237
 21
41.3136026863
  0
LINE
  5
562
100
AcDbEntity
  8
DRAFT
100
AcDbLine
 62
7
  6
CONTINUOUS
 10
-3.2487532756
 20
41.3090876947
 11
-2.1818993763
 21
41.3136026863
  0
LINE
  5
563
100
AcDbEntity
  8
DRAFT
100
AcDbLine
 62
7
  6
CONTINUOUS
 10
-54.2487532756
 20
41.3090876947
 11
-53.1818993763
 21
41.3136026863
  0
LINE
  5
564
100
AcDbEntity
  8
DRAFT
100
AcDbLine
 62
7
  6
CONTINUOUS
 10
-88.2487532756
 20
41.3090876947
 11
-87.1818993763
 21
41.3136026863
  0
LINE
  5
565
100
AcDbEntity
  8
DRAFT
100
AcDbLine
 62
7
  6
CONTINUOUS
 10
-82.2810009069
 20
40.9204135614
 11
-83.3589136172
 21
40.9167859189
  0
LINE
  5
566
100
AcDbEntity
  8
0
100
AcDbLine
 62
7
  6
CONTINUOUS
 10
87.1818993763
 20
40.9183744569
 11
86.0977708652
 21
40.9156525423
  0
LINE
  5
567
100
AcDbEntity
  8
0
100
AcDbLine
 62
7
  6
CONTINUOUS
 10
53.1818993763
 20
40.9183744569
 11
52.0977708652
 21
40.9156525423
  0
LINE
  5
568
100
AcDbEntity
  8
DRAFT
100
AcDbLine
 62
7
  6
CONTINUOUS
 10
2.1818993763
 20
40.9183744569
 11
1.0977708652
 21
40.9156525423
  0
LINE
  5
569
100
AcDbEntity
  8
DRAFT
100
AcDbLine
 62
7
  6
CONTINUOUS
 10
-48.8181006237
 20
40.9183744569
 11
-49.9022291348
 21
40.9156525423
  0
LINE
  5
56A
100
AcDbEntity
  8
0
100
AcDbLine
 62
7
  6
CONTINUOUS
 10
82.8181006237
 20
41.3136026863
 11
83.9022291348
 21
41.3163246009
  0
LINE
  5
56B
100
AcDbEntity
  8
0
100
AcDbLine
 62
7
  6
CONTINUOUS
 10
48.8181006237
 20
41.3136026863
 11
49.9022291348
 21
41.3163246009
  0
LINE
  5
56C
100
AcDbEntity
  8
DRAFT
100
AcDbLine
 62
7
  6
CONTINUOUS
 10
-2.1818993763
 20
41.3136026863
 11
-1.0977708652
 21
41.3163246009
  0
LINE
  5
56D
100
AcDbEntity
  8
DRAFT
100
AcDbLine
 62
7
  6
CONTINUOUS
 10
-53.1818993763
 20
41.3136026863
 11
-52.0977708652
 21
41.3163246009
  0
LINE
  5
56E
100
AcDbEntity
  8
DRAFT
100
AcDbLine
 62
7
  6
CONTINUOUS
 10
-87.1818993763
 20
41.3136026863
 11
-86.0977708652
 21
41.3163246009
  0
LINE
  5
56F
100
AcDbEntity
  8
DRAFT
100
AcDbLine
 62
7
  6
CONTINUOUS
 10
-83.3589136172
 20
40.9167859189
 11
-84.4492579291
 21
40.9149697322
  0
LINE
  5
570
100
AcDbEntity
  8
0
100
AcDbLine
 62
7
  6
CONTINUOUS
 10
86.0977708652
 20
40.9156525423
 11
85.0
 21
40.9147374887
  0
LINE
  5
571
100
AcDbEntity
  8
0
100
AcDbLine
 62
7
  6
CONTINUOUS
 10
52.0977708652
 20
40.9156525423
 11
51.0
 21
40.9147374887
  0
LINE
  5
572
100
AcDbEntity
  8
DRAFT
100
AcDbLine
 62
7
  6
CONTINUOUS
 10
1.0977708652
 20
40.9156525423
 11
0.0
 21
40.9147374887
  0
LINE
  5
573
100
AcDbEntity
  8
DRAFT
100
AcDbLine
 62
7
  6
CONTINUOUS
 10
-49.9022291348
 20
40.9156525423
 11
-51.0
 21
40.9147374887
  0
LINE
  5
574
100
AcDbEntity
  8
0
100
AcDbLine
 62
7
  6
CONTINUOUS
 10
83.9022291348
 20
41.3163246009
 11
85.0
 21
41.3172396544
  0
LINE
  5
575
100
AcDbEntity
  8
0
100
AcDbLine
 62
7
  6
CONTINUOUS
 10
49.9022291348
 20
41.3163246009
 11
51.0
 21
41.3172396544
  0
LINE
  5
576
100
AcDbEntity
  8
DRAFT
100
AcDbLine
 62
7
  6
CONTINUOUS
 10
-1.0977708652
 20
41.3163246009
 11
0.0
 21
41.3172396544
  0
LINE
  5
577
100
AcDbEntity
  8
DRAFT
100
AcDbLine
 62
7
  6
CONTINUOUS
 10
-52.0977708652
 20
41.3163246009
 11
-51.0
 21
41.3172396544
  0
LINE
  5
578
100
AcDbEntity
  8
DRAFT
100
AcDbLine
 62
7
  6
CONTINUOUS
 10
-86.0977708652
 20
41.3163246009
 11
-85.0
 21
41.3172396544
  0
LINE
  5
579
100
AcDbEntity
  8
DRAFT
100
AcDbLine
 62
250
  6
CONTINUOUS
 10
-111.5
 20
35.5
 11
-111.2242099741
 21
35.5
  0
LINE
  5
57A
100
AcDbEntity
  8
DRAFT
100
AcDbLine
 62
250
  6
CONTINUOUS
 10
111.5
 20
35.5
 11
111.2242099741
 21
35.5
  0
LINE
  5
57B
100
AcDbEntity
  8
0
100
AcDbLine
 62
250
  6
CONTINUOUS
 10
117.2
 20
35.5
 11
119.0
 21
35.5
  0
LINE
  5
57C
100
AcDbEntity
  8
0
100
AcDbLine
 62
250
  6
CONTINUOUS
 10
-117.2
 20
35.5
 11
-119.0
 21
35.5
  0
LINE
  5
57D
100
AcDbEntity
  8
RACCORDO
100
AcDbLine
 62
250
  6
CONTINUOUS
 10
-98.9574119919
 20
39.382246477
 11
-105.9425880081
 21
39.382246477
  0
LINE
  5
57E
100
AcDbEntity
  8
RACCORDO
100
AcDbLine
 62
250
  6
CONTINUOUS
 10
-105.6499253618
 20
39.674925864
 11
-111.2242099741
 21
39.6749258819
  0
LINE
  5
57F
100
AcDbEntity
  8
RACCORDO
100
AcDbLine
 62
250
  6
CONTINUOUS
 10
-99.2500746359
 20
39.6749258633
 11
111.2242099741
 21
39.6749258819
  0
LINE
  5
580
100
AcDbEntity
  8
DRAFT
100
AcDbLine
 62
7
  6
CONTINUOUS
 10
-113.0
 20
39.7
 11
-111.5
 21
39.7
  0
LINE
  5
581
100
AcDbEntity
  8
DRAFT
100
AcDbLine
 62
7
  6
CONTINUOUS
 10
111.5
 20
39.7
 11
113.0
 21
39.7
  0
LINE
  5
582
100
AcDbEntity
  8
RACCORDO
100
AcDbLine
 62
250
  6
CONTINUOUS
 10
-99.4564316619
 20
39.8821703245
 11
-105.4435683378
 21
39.8821703245
  0
LINE
  5
583
100
AcDbEntity
  8
RACCORDO
100
AcDbLine
 62
7
  6
CONTINUOUS
 10
-100.0413486316
 20
39.9748344851
 11
-104.8586513684
 21
39.9748344851
  0
LINE
  5
584
100
AcDbEntity
  8
0
100
AcDbLine
 62
7
  6
CONTINUOUS
 10
113.0
 20
39.9751240074
 11
111.2248759926
 21
39.9751240074
  0
LINE
  5
585
100
AcDbEntity
  8
0
100
AcDbLine
 62
7
  6
CONTINUOUS
 10
-111.2248759926
 20
39.9751240074
 11
-113.0
 21
39.9751240074
  0
LINE
  5
586
100
AcDbEntity
  8
RACCORDO
100
AcDbLine
 62
250
  6
CONTINUOUS
 10
113.0
 20
40.8747431161
 11
-98.9694172943
 21
40.8747431161
  0
LINE
  5
587
100
AcDbEntity
  8
RACCORDO
100
AcDbLine
 62
250
  6
CONTINUOUS
 10
-105.9305827057
 20
40.8747431161
 11
-113.0
 21
40.8747431161
  0
LINE
  5
588
100
AcDbEntity
  8
RACCORDO
100
AcDbLine
 62
250
  6
CONTINUOUS
 10
-100.0413486316
 20
40.9639771903
 11
-105.1193030089
 21
40.9633740648
  0
LINE
  5
589
100
AcDbEntity
  8
SUPERFICI
100
AcDbLine
 62
7
  6
CONTINUOUS
 10
113.0000001209
 20
41.5000003491
 11
-113.0000001209
 21
41.5000003491
  0
LINE
  5
58A
100
AcDbEntity
  8
DRAFT
100
AcDbLine
 62
7
  6
CONTINUOUS
 10
113.0
 20
41.5
 11
-113.0
 21
41.5
  0
LINE
  5
58B
100
AcDbEntity
  8
RACCORDO
100
AcDbLine
 62
250
  6
CONTINUOUS
 10
-100.0167790699
 20
40.4640395529
 11
-104.9086127119
 21
40.463971768
  0
LINE
  5
58C
100
AcDbEntity
  8
DRAFT
100
AcDbLine
 62
7
  6
CONTINUOUS
 10
-84.4492579291
 20
40.9149697322
 11
-85.5507420709
 21
40.9149697322
  0
LINE
  5
58D
100
AcDbEntity
  8
DRAFT
100
AcDbLine
 62
7
  6
CONTINUOUS
 10
-51.0
 20
40.9147374887
 11
-52.0977708652
 21
40.9156525423
  0
LINE
  5
58E
100
AcDbEntity
  8
DRAFT
100
AcDbLine
 62
7
  6
CONTINUOUS
 10
0.0
 20
40.9147374887
 11
-1.0977708652
 21
40.9156525423
  0
LINE
  5
58F
100
AcDbEntity
  8
0
100
AcDbLine
 62
7
  6
CONTINUOUS
 10
51.0
 20
40.9147374887
 11
49.9022291348
 21
40.9156525423
  0
LINE
  5
590
100
AcDbEntity
  8
0
100
AcDbLine
 62
7
  6
CONTINUOUS
 10
85.0
 20
40.9147374887
 11
83.9022291348
 21
40.9156525423
  0
LINE
  5
591
100
AcDbEntity
  8
DRAFT
100
AcDbLine
 62
7
  6
CONTINUOUS
 10
-85.0
 20
41.3172396544
 11
-83.9022291348
 21
41.3163246009
  0
LINE
  5
592
100
AcDbEntity
  8
DRAFT
100
AcDbLine
 62
7
  6
CONTINUOUS
 10
-51.0
 20
41.3172396544
 11
-49.9022291348
 21
41.3163246009
  0
LINE
  5
593
100
AcDbEntity
  8
DRAFT
100
AcDbLine
 62
7
  6
CONTINUOUS
 10
0.0
 20
41.3172396544
 11
1.0977708652
 21
41.3163246009
  0
LINE
  5
594
100
AcDbEntity
  8
0
100
AcDbLine
 62
7
  6
CONTINUOUS
 10
51.0
 20
41.3172396544
 11
52.0977708652
 21
41.3163246009
  0
LINE
  5
595
100
AcDbEntity
  8
0
100
AcDbLine
 62
7
  6
CONTINUOUS
 10
85.0
 20
41.3172396544
 11
86.0977708652
 21
41.3163246009
  0
LINE
  5
596
100
AcDbEntity
  8
DRAFT
100
AcDbLine
 62
7
  6
CONTINUOUS
 10
-85.5507420709
 20
40.9149697322
 11
-86.6410863828
 21
40.9167859189
  0
LINE
  5
597
100
AcDbEntity
  8
DRAFT
100
AcDbLine
 62
7
  6
CONTINUOUS
 10
-52.0977708652
 20
40.9156525423
 11
-53.1818993763
 21
40.9183744569
  0
LINE
  5
598
100
AcDbEntity
  8
DRAFT
100
AcDbLine
 62
7
  6
CONTINUOUS
 10
-1.0977708652
 20
40.9156525423
 11
-2.1818993763
 21
40.9183744569
  0
LINE
  5
599
100
AcDbEntity
  8
0
100
AcDbLine
 62
7
  6
CONTINUOUS
 10
49.9022291348
 20
40.9156525423
 11
48.8181006237
 21
40.9183744569
  0
LINE
  5
59A
100
AcDbEntity
  8
DRAFT
100
AcDbLine
 62
7
  6
CONTINUOUS
 10
-83.9022291348
 20
41.3163246009
 11
-82.8181006237
 21
41.3136026863
  0
LINE
  5
59B
100
AcDbEntity
  8
0
100
AcDbLine
 62
7
  6
CONTINUOUS
 10
83.9022291348
 20
40.9156525423
 11
82.8181006237
 21
40.9183744569
  0
LINE
  5
59C
100
AcDbEntity
  8
DRAFT
100
AcDbLine
 62
7
  6
CONTINUOUS
 10
-49.9022291348
 20
41.3163246009
 11
-48.8181006237
 21
41.3136026863
  0
LINE
  5
59D
100
AcDbEntity
  8
DRAFT
100
AcDbLine
 62
7
  6
CONTINUOUS
 10
1.0977708652
 20
41.3163246009
 11
2.1818993763
 21
41.3136026863
  0
LINE
  5
59E
100
AcDbEntity
  8
0
100
AcDbLine
 62
7
  6
CONTINUOUS
 10
52.0977708652
 20
41.3163246009
 11
53.1818993763
 21
41.3136026863
  0
LINE
  5
59F
100
AcDbEntity
  8
0
100
AcDbLine
 62
7
  6
CONTINUOUS
 10
86.0977708652
 20
41.3163246009
 11
87.1818993763
 21
41.3136026863
  0
LINE
  5
5A0
100
AcDbEntity
  8
DRAFT
100
AcDbLine
 62
7
  6
CONTINUOUS
 10
-86.6410863828
 20
40.9167859189
 11
-87.7189990931
 21
40.9204135614
  0
LINE
  5
5A1
100
AcDbEntity
  8
RACCORDO
100
AcDbLine
 62
250
  6
CONTINUOUS
 10
-99.7807572693
 20
40.9633743511
 11
-100.0413486316
 21
40.9639771903
  0
LINE
  5
5A2
100
AcDbEntity
  8
DRAFT
100
AcDbLine
 62
7
  6
CONTINUOUS
 10
-53.1818993763
 20
40.9183744569
 11
-54.2487532756
 21
40.9228894485
  0
LINE
  5
5A3
100
AcDbEntity
  8
DRAFT
100
AcDbLine
 62
7
  6
CONTINUOUS
 10
-2.1818993763
 20
40.9183744569
 11
-3.2487532756
 21
40.9228894485
  0
LINE
  5
5A4
100
AcDbEntity
  8
DRAFT
100
AcDbLine
 62
7
  6
CONTINUOUS
 10
-82.8181006237
 20
41.3136026863
 11
-81.7512467244
 21
41.3090876947
  0
LINE
  5
5A5
100
AcDbEntity
  8
DRAFT
100
AcDbLine
 62
7
  6
CONTINUOUS
 10
-48.8181006237
 20
41.3136026863
 11
-47.7512467244
 21
41.3090876947
  0
LINE
  5
5A6
100
AcDbEntity
  8
0
100
AcDbLine
 62
7
  6
CONTINUOUS
 10
48.8181006237
 20
40.9183744569
 11
47.7512467244
 21
40.9228894485
  0
LINE
  5
5A7
100
AcDbEntity
  8
0
100
AcDbLine
 62
7
  6
CONTINUOUS
 10
82.8181006237
 20
40.9183744569
 11
81.7512467244
 21
40.9228894485
  0
LINE
  5
5A8
100
AcDbEntity
  8
DRAFT
100
AcDbLine
 62
7
  6
CONTINUOUS
 10
2.1818993763
 20
41.3136026863
 11
3.2487532756
 21
41.3090876947
  0
LINE
  5
5A9
100
AcDbEntity
  8
0
100
AcDbLine
 62
7
  6
CONTINUOUS
 10
53.1818993763
 20
41.3136026863
 11
54.2487532756
 21
41.3090876947
  0
LINE
  5
5AA
100
AcDbEntity
  8
0
100
AcDbLine
 62
7
  6
CONTINUOUS
 10
87.1818993763
 20
41.3136026863
 11
88.2487532756
 21
41.3090876947
  0
LINE
  5
5AB
100
AcDbEntity
  8
DRAFT
100
AcDbLine
 62
7
  6
CONTINUOUS
 10
-87.7189990931
 20
40.9204135614
 11
-88.7711155094
 21
40.9258051037
  0
LINE
  5
5AC
100
AcDbEntity
  8
RACCORDO
100
AcDbLine
 62
250
  6
CONTINUOUS
 10
-99.9384893184
 20
40.4636774503
 11
-100.0167790699
 21
40.4640395529
  0
LINE
  5
5AD
100
AcDbEntity
  8
DRAFT
100
AcDbLine
 62
7
  6
CONTINUOUS
 10
-54.2487532756
 20
40.9228894485
 11
-55.286132209
 21
40.9291575414
  0
LINE
  5
5AE
100
AcDbEntity
  8
DRAFT
100
AcDbLine
 62
7
  6
CONTINUOUS
 10
-81.7512467244
 20
41.3090876947
 11
-80.713867791
 21
41.3028196018
  0
LINE
  5
5AF
100
AcDbEntity
  8
DRAFT
100
AcDbLine
 62
7
  6
CONTINUOUS
 10
-3.2487532756
 20
40.9228894485
 11
-4.286132209
 21
40.9291575414
  0
LINE
  5
5B0
100
AcDbEntity
  8
DRAFT
100
AcDbLine
 62
7
  6
CONTINUOUS
 10
-47.7512467244
 20
41.3090876947
 11
-46.713867791
 21
41.3028196018
  0
LINE
  5
5B1
100
AcDbEntity
  8
0
100
AcDbLine
 62
7
  6
CONTINUOUS
 10
47.7512467244
 20
40.9228894485
 11
46.713867791
 21
40.9291575414
  0
LINE
  5
5B2
100
AcDbEntity
  8
DRAFT
100
AcDbLine
 62
7
  6
CONTINUOUS
 10
3.2487532756
 20
41.3090876947
 11
4.286132209
 21
41.3028196018
  0
LINE
  5
5B3
100
AcDbEntity
  8
0
100
AcDbLine
 62
7
  6
CONTINUOUS
 10
81.7512467244
 20
40.9228894485
 11
80.713867791
 21
40.9291575414
  0
LINE
  5
5B4
100
AcDbEntity
  8
0
100
AcDbLine
 62
7
  6
CONTINUOUS
 10
54.2487532756
 20
41.3090876947
 11
55.286132209
 21
41.3028196018
  0
LINE
  5
5B5
100
AcDbEntity
  8
0
100
AcDbLine
 62
7
  6
CONTINUOUS
 10
88.2487532756
 20
41.3090876947
 11
89.286132209
 21
41.3028196018
  0
LINE
  5
5B6
100
AcDbEntity
  8
DRAFT
100
AcDbLine
 62
7
  6
CONTINUOUS
 10
-88.7711155094
 20
40.9258051037
 11
-89.7903103599
 21
40.9329240206
  0
LINE
  5
5B7
100
AcDbEntity
  8
DRAFT
100
AcDbLine
 62
7
  6
CONTINUOUS
 10
-55.286132209
 20
40.9291575414
 11
-56.2835717608
 21
40.9371073096
  0
LINE
  5
5B8
100
AcDbEntity
  8
DRAFT
100
AcDbLine
 62
7
  6
CONTINUOUS
 10
-80.713867791
 20
41.3028196018
 11
-79.7164282392
 21
41.2948698336
  0
LINE
  5
5B9
100
AcDbEntity
  8
DRAFT
100
AcDbLine
 62
7
  6
CONTINUOUS
 10
-4.286132209
 20
40.9291575414
 11
-5.2835717608
 21
40.9371073096
  0
LINE
  5
5BA
100
AcDbEntity
  8
DRAFT
100
AcDbLine
 62
7
  6
CONTINUOUS
 10
-46.713867791
 20
41.3028196018
 11
-45.7164282392
 21
41.2948698336
  0
LINE
  5
5BB
100
AcDbEntity
  8
0
100
AcDbLine
 62
7
  6
CONTINUOUS
 10
46.713867791
 20
40.9291575414
 11
45.7164282392
 21
40.9371073096
  0
LINE
  5
5BC
100
AcDbEntity
  8
DRAFT
100
AcDbLine
 62
7
  6
CONTINUOUS
 10
4.286132209
 20
41.3028196018
 11
5.2835717608
 21
41.2948698336
  0
LINE
  5
5BD
100
AcDbEntity
  8
0
100
AcDbLine
 62
7
  6
CONTINUOUS
 10
80.713867791
 20
40.9291575414
 11
79.7164282392
 21
40.9371073096
  0
LINE
  5
5BE
100
AcDbEntity
  8
0
100
AcDbLine
 62
7
  6
CONTINUOUS
 10
55.286132209
 20
41.3028196018
 11
56.2835717608
 21
41.2948698336
  0
LINE
  5
5BF
100
AcDbEntity
  8
0
100
AcDbLine
 62
7
  6
CONTINUOUS
 10
89.286132209
 20
41.3028196018
 11
90.2835717608
 21
41.2948698336
  0
LINE
  5
5C0
100
AcDbEntity
  8
RACCORDO
100
AcDbLine
 62
250
  6
CONTINUOUS
 10
-99.5617092438
 20
40.9618382893
 11
-99.7807572693
 21
40.9633743511
  0
LINE
  5
5C1
100
AcDbEntity
  8
DRAFT
100
AcDbLine
 62
7
  6
CONTINUOUS
 10
-89.7903103599
 20
40.9329240206
 11
-90.7659946131
 21
40.94170464
  0
LINE
  5
5C2
100
AcDbEntity
  8
RACCORDO
100
AcDbLine
 62
250
  6
CONTINUOUS
 10
-99.8836236089
 20
40.4631619691
 11
-99.9384893184
 21
40.4636774503
  0
LINE
  5
5C3
100
AcDbEntity
  8
DRAFT
100
AcDbLine
 62
7
  6
CONTINUOUS
 10
-56.2835717608
 20
40.9371073096
 11
-57.234320506
 21
40.9466849665
  0
LINE
  5
5C4
100
AcDbEntity
  8
DRAFT
100
AcDbLine
 62
7
  6
CONTINUOUS
 10
-79.7164282392
 20
41.2948698336
 11
-78.765679494
 21
41.2852921767
  0
LINE
  5
5C5
100
AcDbEntity
  8
DRAFT
100
AcDbLine
 62
7
  6
CONTINUOUS
 10
-45.7164282392
 20
41.2948698336
 11
-44.765679494
 21
41.2852921767
  0
LINE
  5
5C6
100
AcDbEntity
  8
DRAFT
100
AcDbLine
 62
7
  6
CONTINUOUS
 10
-5.2835717608
 20
40.9371073096
 11
-6.234320506
 21
40.9466849665
  0
LINE
  5
5C7
100
AcDbEntity
  8
DRAFT
100
AcDbLine
 62
7
  6
CONTINUOUS
 10
5.2835717608
 20
41.2948698336
 11
6.234320506
 21
41.2852921767
  0
LINE
  5
5C8
100
AcDbEntity
  8
0
100
AcDbLine
 62
7
  6
CONTINUOUS
 10
45.7164282392
 20
40.9371073096
 11
44.765679494
 21
40.9466849665
  0
LINE
  5
5C9
100
AcDbEntity
  8
0
100
AcDbLine
 62
7
  6
CONTINUOUS
 10
79.7164282392
 20
40.9371073096
 11
78.765679494
 21
40.9466849665
  0
LINE
  5
5CA
100
AcDbEntity
  8
0
100
AcDbLine
 62
7
  6
CONTINUOUS
 10
56.2835717608
 20
41.2948698336
 11
57.234320506
 21
41.2852921767
  0
LINE
  5
5CB
100
AcDbEntity
  8
0
100
AcDbLine
 62
7
  6
CONTINUOUS
 10
90.2835717608
 20
41.2948698336
 11
91.234320506
 21
41.2852921767
  0
LINE
  5
5CC
100
AcDbEntity
  8
DRAFT
100
AcDbLine
 62
7
  6
CONTINUOUS
 10
-90.7659946131
 20
40.94170464
 11
-91.6884591655
 21
40.952050951
  0
LINE
  5
5CD
100
AcDbEntity
  8
DRAFT
100
AcDbLine
 62
7
  6
CONTINUOUS
 10
-57.234320506
 20
40.9466849665
 11
-58.1285008656
 21
40.9577999316
  0
LINE
  5
5CE
100
AcDbEntity
  8
DRAFT
100
AcDbLine
 62
7
  6
CONTINUOUS
 10
-78.765679494
 20
41.2852921767
 11
-77.8714991344
 21
41.2741772116
  0
LINE
  5
5CF
100
AcDbEntity
  8
DRAFT
100
AcDbLine
 62
7
  6
CONTINUOUS
 10
-44.765679494
 20
41.2852921767
 11
-43.8714991344
 21
41.2741772116
  0
LINE
  5
5D0
100
AcDbEntity
  8
DRAFT
100
AcDbLine
 62
7
  6
CONTINUOUS
 10
-6.234320506
 20
40.9466849665
 11
-7.1285008656
 21
40.9577999316
  0
LINE
  5
5D1
100
AcDbEntity
  8
DRAFT
100
AcDbLine
 62
7
  6
CONTINUOUS
 10
6.234320506
 20
41.2852921767
 11
7.1285008656
 21
41.2741772116
  0
LINE
  5
5D2
100
AcDbEntity
  8
0
100
AcDbLine
 62
7
  6
CONTINUOUS
 10
44.765679494
 20
40.9466849665
 11
43.8714991344
 21
40.9577999316
  0
LINE
  5
5D3
100
AcDbEntity
  8
0
100
AcDbLine
 62
7
  6
CONTINUOUS
 10
78.765679494
 20
40.9466849665
 11
77.8714991344
 21
40.9577999316
  0
LINE
  5
5D4
100
AcDbEntity
  8
0
100
AcDbLine
 62
7
  6
CONTINUOUS
 10
57.234320506
 20
41.2852921767
 11
58.1285008656
 21
41.2741772116
  0
LINE
  5
5D5
100
AcDbEntity
  8
0
100
AcDbLine
 62
7
  6
CONTINUOUS
 10
91.234320506
 20
41.2852921767
 11
92.1285008656
 21
41.2741772116
  0
LINE
  5
5D6
100
AcDbEntity
  8
RACCORDO
100
AcDbLine
 62
250
  6
CONTINUOUS
 10
-99.4082304709
 20
40.9600332276
 11
-99.5617092438
 21
40.9618382893
  0
LINE
  5
5D7
100
AcDbEntity
  8
DRAFT
100
AcDbLine
 62
7
  6
CONTINUOUS
 10
-91.6884591655
 20
40.952050951
 11
-92.5514580174
 21
40.9638928764
  0
LINE
  5
5D8
100
AcDbEntity
  8
RACCORDO
100
AcDbLine
 62
250
  6
CONTINUOUS
 10
-99.8285824289
 20
40.4623927161
 11
-99.8836236089
 21
40.4631619691
  0
LINE
  5
5D9
100
AcDbEntity
  8
DRAFT
100
AcDbLine
 62
7
  6
CONTINUOUS
 10
-58.1285008656
 20
40.9577999316
 11
-58.9572092866
 21
40.970332036
  0
LINE
  5
5DA
100
AcDbEntity
  8
DRAFT
100
AcDbLine
 62
7
  6
CONTINUOUS
 10
-77.8714991344
 20
41.2741772116
 11
-77.0427907134
 21
41.2616451071
  0
LINE
  5
5DB
100
AcDbEntity
  8
DRAFT
100
AcDbLine
 62
7
  6
CONTINUOUS
 10
-43.8714991344
 20
41.2741772116
 11
-43.0427907134
 21
41.2616451071
  0
LINE
  5
5DC
100
AcDbEntity
  8
DRAFT
100
AcDbLine
 62
7
  6
CONTINUOUS
 10
-7.1285008656
 20
40.9577999316
 11
-7.9572092866
 21
40.970332036
  0
LINE
  5
5DD
100
AcDbEntity
  8
DRAFT
100
AcDbLine
 62
7
  6
CONTINUOUS
 10
7.1285008656
 20
41.2741772116
 11
7.9572092866
 21
41.2616451071
  0
LINE
  5
5DE
100
AcDbEntity
  8
0
100
AcDbLine
 62
7
  6
CONTINUOUS
 10
43.8714991344
 20
40.9577999316
 11
43.0427907134
 21
40.970332036
  0
LINE
  5
5DF
100
AcDbEntity
  8
0
100
AcDbLine
 62
7
  6
CONTINUOUS
 10
77.8714991344
 20
40.9577999316
 11
77.0427907134
 21
40.970332036
  0
LINE
  5
5E0
100
AcDbEntity
  8
0
100
AcDbLine
 62
7
  6
CONTINUOUS
 10
58.1285008656
 20
41.2741772116
 11
58.9572092866
 21
41.2616451071
  0
LINE
  5
5E1
100
AcDbEntity
  8
0
100
AcDbLine
 62
7
  6
CONTINUOUS
 10
92.1285008656
 20
41.2741772116
 11
92.9572092866
 21
41.2616451071
  0
LINE
  5
5E2
100
AcDbEntity
  8
DRAFT
100
AcDbLine
 62
7
  6
CONTINUOUS
 10
-92.5514580174
 20
40.9638928764
 11
-93.3458760076
 21
40.9771151599
  0
LINE
  5
5E3
100
AcDbEntity
  8
DRAFT
100
AcDbLine
 62
7
  6
CONTINUOUS
 10
-77.0427907134
 20
41.2616451071
 11
-76.2851654057
 21
41.2477806783
  0
LINE
  5
5E4
100
AcDbEntity
  8
DRAFT
100
AcDbLine
 62
7
  6
CONTINUOUS
 10
-58.9572092866
 20
40.970332036
 11
-59.7148345943
 21
40.9841964648
  0
LINE
  5
5E5
100
AcDbEntity
  8
DRAFT
100
AcDbLine
 62
7
  6
CONTINUOUS
 10
-43.0427907134
 20
41.2616451071
 11
-42.2851654057
 21
41.2477806783
  0
LINE
  5
5E6
100
AcDbEntity
  8
DRAFT
100
AcDbLine
 62
7
  6
CONTINUOUS
 10
-7.9572092866
 20
40.970332036
 11
-8.7148345943
 21
40.9841964648
  0
LINE
  5
5E7
100
AcDbEntity
  8
DRAFT
100
AcDbLine
 62
7
  6
CONTINUOUS
 10
7.9572092866
 20
41.2616451071
 11
8.7148345943
 21
41.2477806783
  0
LINE
  5
5E8
100
AcDbEntity
  8
0
100
AcDbLine
 62
7
  6
CONTINUOUS
 10
43.0427907134
 20
40.970332036
 11
42.2851654057
 21
40.9841964648
  0
LINE
  5
5E9
100
AcDbEntity
  8
0
100
AcDbLine
 62
7
  6
CONTINUOUS
 10
58.9572092866
 20
41.2616451071
 11
59.7148345943
 21
41.2477806783
  0
LINE
  5
5EA
100
AcDbEntity
  8
0
100
AcDbLine
 62
7
  6
CONTINUOUS
 10
77.0427907134
 20
40.970332036
 11
76.2851654057
 21
40.9841964648
  0
LINE
  5
5EB
100
AcDbEntity
  8
0
100
AcDbLine
 62
7
  6
CONTINUOUS
 10
92.9572092866
 20
41.2616451071
 11
93.7148345943
 21
41.2477806783
  0
LINE
  5
5EC
100
AcDbEntity
  8
RACCORDO
100
AcDbLine
 62
250
  6
CONTINUOUS
 10
-99.2752329977
 20
40.9577404375
 11
-99.4082304709
 21
40.9600332276
  0
LINE
  5
5ED
100
AcDbEntity
  8
RACCORDO
100
AcDbLine
 62
250
  6
CONTINUOUS
 10
-99.7751598181
 20
40.4613728125
 11
-99.8285824289
 21
40.4623927161
  0
LINE
  5
5EE
100
AcDbEntity
  8
DRAFT
100
AcDbLine
 62
7
  6
CONTINUOUS
 10
-93.3458760076
 20
40.9771151599
 11
-94.0639562074
 21
40.9915780723
  0
LINE
  5
5EF
100
AcDbEntity
  8
DRAFT
100
AcDbLine
 62
7
  6
CONTINUOUS
 10
-76.2851654057
 20
41.2477806783
 11
-75.6066303138
 21
41.2327192823
  0
LINE
  5
5F0
100
AcDbEntity
  8
DRAFT
100
AcDbLine
 62
7
  6
CONTINUOUS
 10
-59.7148345943
 20
40.9841964648
 11
-60.3933696862
 21
40.9992578609
  0
LINE
  5
5F1
100
AcDbEntity
  8
DRAFT
100
AcDbLine
 62
7
  6
CONTINUOUS
 10
-42.2851654057
 20
41.2477806783
 11
-41.6066303138
 21
41.2327192823
  0
LINE
  5
5F2
100
AcDbEntity
  8
DRAFT
100
AcDbLine
 62
7
  6
CONTINUOUS
 10
-8.7148345943
 20
40.9841964648
 11
-9.3933696862
 21
40.9992578609
  0
LINE
  5
5F3
100
AcDbEntity
  8
DRAFT
100
AcDbLine
 62
7
  6
CONTINUOUS
 10
8.7148345943
 20
41.2477806783
 11
9.3933696862
 21
41.2327192823
  0
LINE
  5
5F4
100
AcDbEntity
  8
0
100
AcDbLine
 62
7
  6
CONTINUOUS
 10
42.2851654057
 20
40.9841964648
 11
41.6066303138
 21
40.9992578609
  0
LINE
  5
5F5
100
AcDbEntity
  8
0
100
AcDbLine
 62
7
  6
CONTINUOUS
 10
59.7148345943
 20
41.2477806783
 11
60.3933696862
 21
41.2327192823
  0
LWPOLYLINE
  5
5F6
100
AcDbEntity
  8
0
100
AcDbPolyline
 62
7
  6
CONTINUOUS
 90
3
 70
0
 10
76.2851654057
 20
40.9841964648
 10
75.6066303138
 20
40.9992578609
 10
75.2991620368
 20
41.0071836832
  0
LINE
  5
5F7
100
AcDbEntity
  8
DRAFT
100
AcDbLine
 62
7
  6
CONTINUOUS
 10
-94.0639562074
 20
40.9915780723
 11
-94.7008379632
 21
41.0071836832
  0
LINE
  5
5F8
100
AcDbEntity
  8
RACCORDO
100
AcDbLine
 62
250
  6
CONTINUOUS
 10
-99.7248213795
 20
40.4601101126
 11
-99.7751598181
 21
40.4613728125
  0
LINE
  5
5F9
100
AcDbEntity
  8
DRAFT
100
AcDbLine
 62
7
  6
CONTINUOUS
 10
-75.6066303138
 20
41.2327192823
 11
-75.0137917332
 21
41.2166200355
  0
LINE
  5
5FA
100
AcDbEntity
  8
DRAFT
100
AcDbLine
 62
7
  6
CONTINUOUS
 10
-60.3933696862
 20
40.9992578609
 11
-60.9862082668
 21
41.0153571077
  0
LINE
  5
5FB
100
AcDbEntity
  8
DRAFT
100
AcDbLine
 62
7
  6
CONTINUOUS
 10
-41.6066303138
 20
41.2327192823
 11
-41.0137917332
 21
41.2166200355
  0
LINE
  5
5FC
100
AcDbEntity
  8
DRAFT
100
AcDbLine
 62
7
  6
CONTINUOUS
 10
-9.3933696862
 20
40.9992578609
 11
-9.9862082668
 21
41.0153571077
  0
LINE
  5
5FD
100
AcDbEntity
  8
DRAFT
100
AcDbLine
 62
7
  6
CONTINUOUS
 10
9.3933696862
 20
41.2327192823
 11
9.9862082668
 21
41.2166200355
  0
LINE
  5
5FE
100
AcDbEntity
  8
0
100
AcDbLine
 62
7
  6
CONTINUOUS
 10
41.6066303138
 20
40.9992578609
 11
41.0137917332
 21
41.0153571077
  0
LINE
  5
5FF
100
AcDbEntity
  8
0
100
AcDbLine
 62
7
  6
CONTINUOUS
 10
60.3933696862
 20
41.2327192823
 11
60.9862082668
 21
41.2166200355
  0
LWPOLYLINE
  5
600
100
AcDbEntity
  8
DRAFT
100
AcDbPolyline
 62
7
  6
CONTINUOUS
 90
12
 70
0
 10
-94.7008379632
 20
41.0071836832
 10
-95.2496333687
 20
41.0237765658
 10
-95.4893345158
 20
41.0323852048
 10
-95.7051533538
 20
41.041184401
 10
-95.8972482371
 20
41.050172778
 10
-96.064315476
 20
41.0592893535
 10
-96.2061837622
 20
41.0685349272
 10
-96.3230244038
 20
41.0779086993
 10
-96.4140476356
 20
41.087347288
 10
-96.4790788783
 20
41.0968511715
 10
-96.518292711
 20
41.1064198715
 10
-96.5314218911
 20
41.1158968937
  0
LWPOLYLINE
  5
601
100
AcDbEntity
  8
DRAFT
100
AcDbPolyline
 62
7
  6
CONTINUOUS
 90
11
 70
0
 10
-75.0137917332
 20
41.2166200355
 10
-74.5106654842
 20
41.1995919384
 10
-74.2948466462
 20
41.1907927421
 10
-74.1027517629
 20
41.1818043651
 10
-73.935684524
 20
41.1726877897
 10
-73.7938162378
 20
41.163442216
 10
-73.6769755962
 20
41.1540684438
 10
-73.5859523644
 20
41.1446298551
 10
-73.5209211217
 20
41.1351259717
 10
-73.481707289
 20
41.1255572716
 10
-73.4685781089
 20
41.1158968937
  0
LWPOLYLINE
  5
602
100
AcDbEntity
  8
DRAFT
100
AcDbPolyline
 62
7
  6
CONTINUOUS
 90
11
 70
0
 10
-60.9862082668
 20
41.0153571077
 10
-61.4893345158
 20
41.0323852048
 10
-61.7051533538
 20
41.041184401
 10
-61.8972482371
 20
41.050172778
 10
-62.064315476
 20
41.0592893535
 10
-62.2061837622
 20
41.0685349272
 10
-62.3230244038
 20
41.0779086993
 10
-62.4140476356
 20
41.087347288
 10
-62.4790788783
 20
41.0968511715
 10
-62.518292711
 20
41.1064198715
 10
-62.5314218911
 20
41.1158968937
  0
LWPOLYLINE
  5
603
100
AcDbEntity
  8
DRAFT
100
AcDbPolyline
 62
7
  6
CONTINUOUS
 90
11
 70
0
 10
-41.0137917332
 20
41.2166200355
 10
-40.5106654842
 20
41.1995919384
 10
-40.2948466462
 20
41.1907927421
 10
-40.1027517629
 20
41.1818043651
 10
-39.935684524
 20
41.1726877897
 10
-39.7938162378
 20
41.163442216
 10
-39.6769755962
 20
41.1540684438
 10
-39.5859523644
 20
41.1446298551
 10
-39.5209211217
 20
41.1351259717
 10
-39.481707289
 20
41.1255572716
 10
-39.4685781089
 20
41.1158968937
  0
LWPOLYLINE
  5
604
100
AcDbEntity
  8
DRAFT
100
AcDbPolyline
 62
7
  6
CONTINUOUS
 90
11
 70
0
 10
-9.9862082668
 20
41.0153571077
 10
-10.4893345158
 20
41.0323852048
 10
-10.7051533538
 20
41.041184401
 10
-10.8972482371
 20
41.050172778
 10
-11.064315476
 20
41.0592893535
 10
-11.2061837622
 20
41.0685349272
 10
-11.3230244038
 20
41.0779086993
 10
-11.4140476356
 20
41.087347288
 10
-11.4790788783
 20
41.0968511715
 10
-11.518292711
 20
41.1064198715
 10
-11.5314218911
 20
41.1158968937
  0
LWPOLYLINE
  5
605
100
AcDbEntity
  8
DRAFT
100
AcDbPolyline
 62
7
  6
CONTINUOUS
 90
11
 70
0
 10
9.9862082668
 20
41.2166200355
 10
10.4893345158
 20
41.1995919384
 10
10.7051533538
 20
41.1907927421
 10
10.8972482371
 20
41.1818043651
 10
11.064315476
 20
41.1726877897
 10
11.2061837622
 20
41.163442216
 10
11.3230244038
 20
41.1540684438
 10
11.4140476356
 20
41.1446298551
 10
11.4790788783
 20
41.1351259717
 10
11.518292711
 20
41.1255572716
 10
11.5314218911
 20
41.1158968937
  0
LWPOLYLINE
  5
606
100
AcDbEntity
  8
0
100
AcDbPolyline
 62
7
  6
CONTINUOUS
 90
11
 70
0
 10
41.0137917332
 20
41.0153571077
 10
40.5106654842
 20
41.0323852048
 10
40.2948466462
 20
41.041184401
 10
40.1027517629
 20
41.050172778
 10
39.935684524
 20
41.0592893535
 10
39.7938162378
 20
41.0685349272
 10
39.6769755962
 20
41.0779086993
 10
39.5859523644
 20
41.087347288
 10
39.5209211217
 20
41.0968511715
 10
39.481707289
 20
41.1064198715
 10
39.4685781089
 20
41.1158968937
  0
LWPOLYLINE
  5
607
100
AcDbEntity
  8
RACCORDO
100
AcDbPolyline
 62
7
  6
CONTINUOUS
 90
3
 70
0
 10
99.1648318932
 20
-39.5896663783
 10
99.2232441745
 20
-39.647946905
 10
99.2696774099
 20
-39.694616674
  0
LINE
  5
608
100
AcDbEntity
  8
RACCORDO
100
AcDbLine
 62
250
  6
CONTINUOUS
 10
98.9694172943
 20
-40.8747431161
 11
99.0415009364
 21
-40.9468267582
  0
LINE
  5
609
100
AcDbEntity
  8
RACCORDO
100
AcDbLine
 62
250
  6
CONTINUOUS
 10
99.4693411419
 20
-40.3748192685
 11
99.541424784
 21
-40.4469029106
  0
LINE
  5
60A
100
AcDbEntity
  8
RACCORDO
100
AcDbLine
 62
7
  6
CONTINUOUS
 10
99.541424784
 20
-39.9662592691
 11
99.4578866022
 21
-39.8827210873
  0
LINE
  5
60B
100
AcDbEntity
  8
RACCORDO
100
AcDbLine
 62
7
  6
CONTINUOUS
 10
98.9574119919
 20
-39.3822464769
 11
99.1648318932
 21
-39.5896663783
  0
LWPOLYLINE
  5
60C
100
AcDbEntity
  8
RACCORDO
100
AcDbPolyline
 62
250
  6
CONTINUOUS
 90
14
 70
0
 10
-105.2209254793
 20
40.4586265075
 10
-105.2416813687
 20
40.4578176544
 10
-105.2608881948
 20
40.4569669468
 10
-105.2784811921
 20
40.4560762319
 10
-105.2942860374
 20
40.4551652315
 10
-105.3083051989
 20
40.4542330536
 10
-105.320542638
 20
40.4532805902
 10
-105.3309240163
 20
40.4523302391
 10
-105.3395183845
 20
40.4513825913
 10
-105.3464055954
 20
40.4504370558
 10
-105.3516256571
 20
40.4495142574
 10
-105.3552975335
 20
40.4486210713
 10
-105.3575706013
 20
40.4477506224
 10
-105.358575216
 20
40.4469029106
  0
LWPOLYLINE
  5
60D
100
AcDbEntity
  8
RACCORDO
100
AcDbPolyline
 62
250
  6
CONTINUOUS
 90
10
 70
0
 10
-105.7299293243
 20
40.955088763
 10
-105.7578948915
 20
40.9541566982
 10
-105.7823137269
 20
40.9532043498
 10
-105.8031925786
 20
40.9522540874
 10
-105.8203722321
 20
40.95130649
 10
-105.8340119019
 20
40.9503609787
 10
-105.8445959807
 20
40.9494381865
 10
-105.8522859327
 20
40.9485449912
 10
-105.8569202937
 20
40.9476745151
 10
-105.8584990636
 20
40.9468267582
  0
LINE
  5
60E
100
AcDbEntity
  8
DRAFT
100
AcDbLine
 62
7
  6
CONTINUOUS
 10
-61.4893345158
 20
41.1995919384
 11
-60.9862082668
 21
41.2166200355
  0
LWPOLYLINE
  5
60F
100
AcDbEntity
  8
DRAFT
100
AcDbPolyline
 62
7
  6
CONTINUOUS
 90
3
 70
0
 10
-74.5106654842
 20
41.0323852048
 10
-75.0137917332
 20
41.0153571077
 10
-75.2991620368
 20
41.0071836832
  0
LINE
  5
610
100
AcDbEntity
  8
DRAFT
100
AcDbLine
 62
7
  6
CONTINUOUS
 10
-95.4893345158
 20
41.1995919384
 11
-94.9862082668
 21
41.2166200355
  0
LWPOLYLINE
  5
611
100
AcDbEntity
  8
RACCORDO
100
AcDbPolyline
 62
250
  6
CONTINUOUS
 90
3
 70
0
 10
-105.1505376783
 20
40.4607683465
 10
-105.1751822519
 20
40.4601100106
 10
-105.2209254793
 20
40.4586265075
  0
LINE
  5
612
100
AcDbEntity
  8
DRAFT
100
AcDbLine
 62
7
  6
CONTINUOUS
 10
-94.9862082668
 20
41.2166200355
 11
-94.3933696862
 21
41.2327192823
  0
LWPOLYLINE
  5
613
100
AcDbEntity
  8
RACCORDO
100
AcDbPolyline
 62
250
  6
CONTINUOUS
 90
3
 70
0
 10
-105.6247454837
 20
40.9577408858
 10
-105.6630472524
 20
40.9568902627
 10
-105.7299293243
 20
40.955088763
  0
LINE
  5
614
100
AcDbEntity
  8
DRAFT
100
AcDbLine
 62
7
  6
CONTINUOUS
 10
-94.3933696862
 20
41.2327192823
 11
-93.7148345943
 21
41.2477806783
  0
LINE
  5
615
100
AcDbEntity
  8
0
100
AcDbLine
 62
7
  6
CONTINUOUS
 10
93.7148345943
 20
41.2477806783
 11
94.3933696862
 21
41.2327192823
  0
LINE
  5
616
100
AcDbEntity
  8
0
100
AcDbLine
 62
7
  6
CONTINUOUS
 10
94.3933696862
 20
41.2327192823
 11
94.9862082668
 21
41.2166200355
  0
LWPOLYLINE
  5
617
100
AcDbEntity
  8
0
100
AcDbPolyline
 62
7
  6
CONTINUOUS
 90
12
 70
0
 10
75.2991620368
 20
41.0071836832
 10
74.7503666313
 20
41.0237765658
 10
74.5106654842
 20
41.0323852048
 10
74.2948466462
 20
41.041184401
 10
74.1027517629
 20
41.050172778
 10
73.935684524
 20
41.0592893535
 10
73.7938162378
 20
41.0685349272
 10
73.6769755962
 20
41.0779086993
 10
73.5859523644
 20
41.087347288
 10
73.5209211217
 20
41.0968511715
 10
73.481707289
 20
41.1064198715
 10
73.4685781089
 20
41.1158968937
  0
LWPOLYLINE
  5
618
100
AcDbEntity
  8
0
100
AcDbPolyline
 62
7
  6
CONTINUOUS
 90
11
 70
0
 10
60.9862082668
 20
41.2166200355
 10
61.4893345158
 20
41.1995919384
 10
61.7051533538
 20
41.1907927421
 10
61.8972482371
 20
41.1818043651
 10
62.064315476
 20
41.1726877897
 10
62.2061837622
 20
41.163442216
 10
62.3230244038
 20
41.1540684438
 10
62.4140476356
 20
41.1446298551
 10
62.4790788783
 20
41.1351259717
 10
62.518292711
 20
41.1255572716
 10
62.5314218911
 20
41.1158968937
  0
LWPOLYLINE
  5
619
100
AcDbEntity
  8
0
100
AcDbPolyline
 62
7
  6
CONTINUOUS
 90
11
 70
0
 10
94.9862082668
 20
41.2166200355
 10
95.4893345158
 20
41.1995919384
 10
95.7051533538
 20
41.1907927421
 10
95.8972482371
 20
41.1818043651
 10
96.064315476
 20
41.1726877897
 10
96.2061837622
 20
41.163442216
 10
96.3230244038
 20
41.1540684438
 10
96.4140476356
 20
41.1446298551
 10
96.4790788783
 20
41.1351259717
 10
96.518292711
 20
41.1255572716
 10
96.5314218911
 20
41.1158968937
  0
LINE
  5
61A
100
AcDbEntity
  8
RACCORDO
100
AcDbLine
 62
7
  6
CONTINUOUS
 10
99.2696774099
 20
-39.694616674
 11
99.2888551022
 21
-39.7143993753
  0
LWPOLYLINE
  5
61B
100
AcDbEntity
  8
RACCORDO
100
AcDbPolyline
 62
7
  6
CONTINUOUS
 90
9
 70
0
 10
99.3775647871
 20
-39.8081285847
 10
99.3930357519
 20
-39.8241849195
 10
99.4070625456
 20
-39.8385654073
 10
99.4195749565
 20
-39.8511089926
 10
99.4306431963
 20
-39.8617126263
 10
99.4398997393
 20
-39.8701745444
 10
99.447222077
 20
-39.8764198872
 10
99.4527327178
 20
-39.8804313591
 10
99.4564316619
 20
-39.8821703245
  0
LINE
  5
61C
100
AcDbEntity
  8
RACCORDO
100
AcDbLine
 62
7
  6
CONTINUOUS
 10
99.2888551022
 20
-39.7143993753
 11
99.3775647871
 21
-39.8081285847
  0
LWPOLYLINE
  5
61D
100
AcDbEntity
  8
RACCORDO
100
AcDbPolyline
 62
250
  6
CONTINUOUS
 90
8
 70
0
 10
118.3747431161
 20
32.6805827057
 10
118.370888332
 20
32.6813764027
 10
118.3620393461
 20
32.6821596975
 10
118.3482268862
 20
32.68293259
 10
118.329503036
 20
32.6836982083
 10
118.3059397378
 20
32.6844534243
 10
118.277627357
 20
32.6851888541
 10
118.2072042722
 20
32.6866001803
  0
LINE
  5
61E
100
AcDbEntity
  8
RACCORDO
100
AcDbLine
 62
7
  6
CONTINUOUS
 10
117.4662592691
 20
26.291424784
 11
117.3827210873
 21
26.2078866022
  0
LINE
  5
61F
100
AcDbEntity
  8
RACCORDO
100
AcDbLine
 62
250
  6
CONTINUOUS
 10
117.8748192685
 20
26.2193411419
 11
117.9469029106
 21
26.291424784
  0
LINE
  5
620
100
AcDbEntity
  8
RACCORDO
100
AcDbLine
 62
250
  6
CONTINUOUS
 10
118.3747431161
 20
25.7194172943
 11
118.4468267582
 21
25.7915009364
  0
LINE
  5
621
100
AcDbEntity
  8
RACCORDO
100
AcDbLine
 62
7
  6
CONTINUOUS
 10
116.8822464769
 20
25.7074119919
 11
117.194616674
 21
26.0196774099
  0
LINE
  5
622
100
AcDbEntity
  8
RACCORDO
100
AcDbLine
 62
7
  6
CONTINUOUS
 10
117.194616674
 20
26.0196774099
 11
117.2143993753
 21
26.0388551022
  0
LWPOLYLINE
  5
623
100
AcDbEntity
  8
RACCORDO
100
AcDbPolyline
 62
7
  6
CONTINUOUS
 90
9
 70
0
 10
117.3081285847
 20
26.1275647871
 10
117.3241849195
 20
26.1430357519
 10
117.3385654073
 20
26.1570625456
 10
117.3511089926
 20
26.1695749565
 10
117.3617126263
 20
26.1806431963
 10
117.3701745444
 20
26.1898997393
 10
117.3764198872
 20
26.197222077
 10
117.3804313591
 20
26.2027327178
 10
117.3821703245
 20
26.2064316619
  0
LINE
  5
624
100
AcDbEntity
  8
RACCORDO
100
AcDbLine
 62
7
  6
CONTINUOUS
 10
117.2143993753
 20
26.0388551022
 11
117.3081285847
 21
26.1275647871
  0
LWPOLYLINE
  5
625
100
AcDbEntity
  8
RACCORDO
100
AcDbPolyline
 62
250
  6
CONTINUOUS
 90
9
 70
0
 10
117.8748192685
 20
32.1806588581
 10
117.8722316668
 20
32.1815112027
 10
117.8663563206
 20
32.182351034
 10
117.8571932299
 20
32.1831783518
 10
117.8446701809
 20
32.1839971356
 10
117.8288593874
 20
32.184803406
 10
117.8099774912
 20
32.1855852252
 10
117.7879728079
 20
32.1863422914
 10
117.7351218285
 20
32.1877720375
  0
LWPOLYLINE
  5
626
100
AcDbEntity
  8
RACCORDO
100
AcDbPolyline
 62
250
  6
CONTINUOUS
 90
16
 70
0
 10
117.9469029106
 20
26.291424784
 10
117.9477501665
 20
26.2924285366
 10
117.9486202526
 20
26.294699725
 10
117.949513169
 20
26.2983690357
 10
117.9504358005
 20
26.3035862519
 10
117.9513812621
 20
26.3104707029
 10
117.9523288999
 20
26.319062591
 10
117.9532793067
 20
26.3294420706
 10
117.9542318895
 20
26.3416785008
 10
117.9551642156
 20
26.3556975183
 10
117.9560753923
 20
26.3715032584
 10
117.9569663123
 20
26.3890983525
 10
117.9578172199
 20
26.408308183
 10
117.9586262647
 20
26.4290680152
 10
117.9593952972
 20
26.4513201201
 10
117.9607685711
 20
26.4994714466
  0
LINE
  5
627
100
AcDbEntity
  8
0
100
AcDbLine
 62
7
  6
CONTINUOUS
 10
84.25
 20
-11.4816392509
 11
84.25
 21
-10.398724427
  0
LINE
  5
628
100
AcDbEntity
  8
0
100
AcDbLine
 62
7
  6
CONTINUOUS
 10
84.25
 20
10.398724427
 11
84.25
 21
11.481639251
  0
LWPOLYLINE
  5
629
100
AcDbEntity
  8
RACCORDO
100
AcDbPolyline
 62
7
  6
CONTINUOUS
 90
9
 70
0
 10
105.4435683378
 20
-39.8821703245
 10
105.447278214
 20
-39.8804165348
 10
105.4528455461
 20
-39.8763585596
 10
105.4602703342
 20
-39.8700246521
 10
105.4697035279
 20
-39.8614038111
 10
105.4809941777
 20
-39.8505719139
 10
105.4936894342
 20
-39.8378032266
 10
105.5078276016
 20
-39.8232747672
 10
105.5233703758
 20
-39.8071389711
  0
LINE
  5
62A
100
AcDbEntity
  8
0
100
AcDbLine
 62
7
  6
CONTINUOUS
 10
85.75
 20
11.481639251
 11
85.75
 21
10.398724427
  0
LINE
  5
62B
100
AcDbEntity
  8
0
100
AcDbLine
 62
7
  6
CONTINUOUS
 10
85.75
 20
-10.398724427
 11
85.75
 21
-11.4816392509
  0
LINE
  5
62C
100
AcDbEntity
  8
0
100
AcDbLine
 62
7
  6
CONTINUOUS
 10
92.0
 20
26.6
 11
92.0
 21
26.4
  0
LWPOLYLINE
  5
62D
100
AcDbEntity
  8
RACCORDO
100
AcDbPolyline
 62
250
  6
CONTINUOUS
 90
11
 70
0
 10
118.4468267582
 20
25.7915009364
 10
118.4476740612
 20
25.7930768069
 10
118.448544176
 20
25.7977076566
 10
118.4494371025
 20
25.8053934854
 10
118.4503597283
 20
25.8159722645
 10
118.4513051659
 20
25.8296060227
 10
118.4522527524
 20
25.8467808469
 10
118.4532030686
 20
25.8676562235
 10
118.4541555337
 20
25.8920726661
 10
118.4550877436
 20
25.9200378021
 10
118.4568896175
 20
25.9869256067
  0
LWPOLYLINE
  5
62E
100
AcDbEntity
  8
DRAFT
100
AcDbPolyline
 62
7
  6
CONTINUOUS
 90
12
 70
0
 10
118.6158968937
 20
11.5314218911
 10
118.6064198715
 20
11.518292711
 10
118.5968511715
 20
11.4790788783
 10
118.587347288
 20
11.4140476356
 10
118.5779086993
 20
11.3230244038
 10
118.5685349272
 20
11.2061837622
 10
118.5592893535
 20
11.064315476
 10
118.550172778
 20
10.8972482372
 10
118.541184401
 20
10.7051533538
 10
118.5323852048
 20
10.4893345158
 10
118.5237765658
 20
10.2496333687
 10
118.5071836832
 20
9.7008379632
  0
LWPOLYLINE
  5
62F
100
AcDbEntity
  8
RACCORDO
100
AcDbPolyline
 62
250
  6
CONTINUOUS
 90
8
 70
0
 10
99.4636577087
 20
-40.2879728056
 10
99.4644147748
 20
-40.3099774879
 10
99.465196594
 20
-40.3288593862
 10
99.4660028644
 20
-40.3446701832
 10
99.4668216481
 20
-40.3571932343
 10
99.467648966
 20
-40.3663563249
 10
99.4684887972
 20
-40.3722316696
 10
99.4693411419
 20
-40.3748192685
  0
LWPOLYLINE
  5
630
100
AcDbEntity
  8
RACCORDO
100
AcDbPolyline
 62
250
  6
CONTINUOUS
 90
6
 70
0
 10
98.9655465758
 20
-40.8059397378
 10
98.9663017919
 20
-40.829503036
 10
98.9670674101
 20
-40.8482268861
 10
98.9678403026
 20
-40.8620393461
 10
98.9686235973
 20
-40.870888332
 10
98.9694172943
 20
-40.8747431161
  0
LINE
  5
631
100
AcDbEntity
  8
RACCORDO
100
AcDbLine
 62
250
  6
CONTINUOUS
 10
99.4622279625
 20
-40.2351218303
 11
99.4636577087
 21
-40.2879728056
  0
LINE
  5
632
100
AcDbEntity
  8
RACCORDO
100
AcDbLine
 62
250
  6
CONTINUOUS
 10
98.9640955897
 20
-40.7446697358
 11
98.9655465758
 21
-40.8059397378
  0
LINE
  5
633
100
AcDbEntity
  8
RACCORDO
100
AcDbLine
 62
250
  6
CONTINUOUS
 10
99.4609416376
 20
-40.1714093775
 11
99.4622279625
 21
-40.2351218303
  0
LINE
  5
634
100
AcDbEntity
  8
RACCORDO
100
AcDbLine
 62
250
  6
CONTINUOUS
 10
98.962732957
 20
-40.6654080484
 11
98.9640955897
 21
-40.7446697358
  0
LINE
  5
635
100
AcDbEntity
  8
RACCORDO
100
AcDbLine
 62
250
  6
CONTINUOUS
 10
99.4593321223
 20
-40.0583179827
 11
99.4609416376
 21
-40.1714093775
  0
LINE
  5
636
100
AcDbEntity
  8
RACCORDO
100
AcDbLine
 62
250
  6
CONTINUOUS
 10
98.9609149354
 20
-40.5159224306
 11
98.962732957
 21
-40.6654080484
  0
LWPOLYLINE
  5
637
100
AcDbEntity
  8
RACCORDO
100
AcDbPolyline
 62
250
  6
CONTINUOUS
 90
3
 70
0
 10
99.45788666
 20
-39.882721145
 10
99.4581701005
 20
-39.9290335958
 10
99.4593321223
 20
-40.0583179827
  0
LINE
  5
638
100
AcDbEntity
  8
RACCORDO
100
AcDbLine
 62
250
  6
CONTINUOUS
 10
98.9586418039
 20
-40.1996222953
 11
98.9609149354
 21
-40.5159224306
  0
LINE
  5
639
100
AcDbEntity
  8
RACCORDO
100
AcDbLine
 62
250
  6
CONTINUOUS
 10
98.9574135063
 20
-39.6749258819
 11
98.9586418039
 21
-40.1996222953
  0
LINE
  5
63A
100
AcDbEntity
  8
RACCORDO
100
AcDbLine
 62
250
  6
CONTINUOUS
 10
98.9574119919
 20
-39.3822464769
 11
98.9574119919
 21
-39.6749258819
  0
LINE
  5
63B
100
AcDbEntity
  8
RACCORDO
100
AcDbLine
 62
250
  6
CONTINUOUS
 10
99.541424784
 20
-40.4469029106
 11
99.541424784
 21
-39.9662592691
  0
LINE
  5
63C
100
AcDbEntity
  8
RACCORDO
100
AcDbLine
 62
250
  6
CONTINUOUS
 10
100.0413486316
 20
-39.9748344851
 11
100.0413486316
 21
-40.9639771903
  0
LWPOLYLINE
  5
63D
100
AcDbEntity
  8
RACCORDO
100
AcDbPolyline
 62
250
  6
CONTINUOUS
 90
16
 70
0
 10
99.4693411419
 20
-40.3748192685
 10
99.4665876542
 20
-40.4270654467
 10
99.4583891744
 20
-40.4787394267
 10
99.4448354919
 20
-40.5292752767
 10
99.4260750461
 20
-40.57811953
 10
99.4023133007
 20
-40.624737246
 10
99.3738104936
 20
-40.6686178692
 10
99.3408787866
 20
-40.7092808205
 10
99.3038788463
 20
-40.7462807607
 10
99.263215895
 20
-40.7792124678
 10
99.2193352718
 20
-40.8077152749
 10
99.1727175558
 20
-40.8314770203
 10
99.1238733025
 20
-40.8502374661
 10
99.0733374525
 20
-40.8637911486
 10
99.0216634725
 20
-40.8719896285
 10
98.9694172943
 20
-40.8747431161
  0
LWPOLYLINE
  5
63E
100
AcDbEntity
  8
RACCORDO
100
AcDbPolyline
 62
250
  6
CONTINUOUS
 90
16
 70
0
 10
99.541424784
 20
-40.4469029106
 10
99.5386713034
 20
-40.4991490224
 10
99.5304728429
 20
-40.5508229449
 10
99.5169191895
 20
-40.6013587481
 10
99.4981587804
 20
-40.6502029651
 10
99.4743970762
 20
-40.6968206573
 10
99.4458943098
 20
-40.7407012718
 10
99.4129626393
 20
-40.7813642287
 10
99.3759627284
 20
-40.8183641867
 10
99.3352997945
 20
-40.851295923
 10
99.2914191736
 20
-40.8797987671
 10
99.2448014432
 20
-40.9035605531
 10
99.1959571567
 20
-40.9223210393
 10
99.1454212539
 20
-40.9358747569
 10
99.0937472027
 20
-40.9440732613
 10
99.0415009364
 20
-40.9468267582
  0
LWPOLYLINE
  5
63F
100
AcDbEntity
  8
RACCORDO
100
AcDbPolyline
 62
7
  6
CONTINUOUS
 90
7
 70
0
 10
105.4421133978
 20
-39.8827210873
 10
105.4422300673
 20
-39.8826292232
 10
105.4423970651
 20
-39.8825373872
 10
105.442614391
 20
-39.8824455793
 10
105.4428820451
 20
-39.8823537996
 10
105.4432000274
 20
-39.882262048
 10
105.4435683378
 20
-39.8821703245
  0
LWPOLYLINE
  5
640
100
AcDbEntity
  8
RACCORDO
100
AcDbPolyline
 62
250
  6
CONTINUOUS
 90
16
 70
0
 10
105.358575216
 20
-40.4469029106
 10
105.3613287036
 20
-40.4991490889
 10
105.3695271835
 20
-40.5508230688
 10
105.383080866
 20
-40.6013589188
 10
105.4018413118
 20
-40.6502031721
 10
105.4256030572
 20
-40.6968208882
 10
105.4541058643
 20
-40.7407015113
 10
105.4870375714
 20
-40.7813644626
 10
105.5240375116
 20
-40.8183644029
 10
105.5647004629
 20
-40.85129611
 10
105.6085810861
 20
-40.8797989171
 10
105.6551988021
 20
-40.9035606624
 10
105.7040430554
 20
-40.9223211082
 10
105.7545789054
 20
-40.9358747908
 10
105.8062528854
 20
-40.9440732706
 10
105.8584990636
 20
-40.9468267582
  0
LWPOLYLINE
  5
641
100
AcDbEntity
  8
RACCORDO
100
AcDbPolyline
 62
250
  6
CONTINUOUS
 90
16
 70
0
 10
105.4306588581
 20
-40.3748192685
 10
105.4334122763
 20
-40.4270647886
 10
105.4416105718
 20
-40.4787382352
 10
105.4551639917
 20
-40.5292736895
 10
105.4739241349
 20
-40.5781176923
 10
105.4976855739
 20
-40.6247352985
 10
105.5261881013
 20
-40.6686159366
 10
105.5591195877
 20
-40.7092790159
 10
105.5961193913
 20
-40.7462791746
 10
105.6367822978
 20
-40.7792111553
 10
105.6806629841
 20
-40.8077142682
 10
105.727280878
 20
-40.8314763231
 10
105.7761254034
 20
-40.8502370456
 10
105.8266616073
 20
-40.8637909487
 10
105.8783360226
 20
-40.8719895753
 10
105.9305827058
 20
-40.8747431161
  0
LINE
  5
642
100
AcDbEntity
  8
RACCORDO
100
AcDbLine
 62
250
  6
CONTINUOUS
 10
104.8586513684
 20
-39.9748344851
 11
104.8586513685
 21
-40.9639771903
  0
LINE
  5
643
100
AcDbEntity
  8
RACCORDO
100
AcDbLine
 62
250
  6
CONTINUOUS
 10
105.358575216
 20
-39.9662592691
 11
105.358575216
 21
-40.4469029106
  0
LINE
  5
644
100
AcDbEntity
  8
RACCORDO
100
AcDbLine
 62
250
  6
CONTINUOUS
 10
105.9416807152
 20
-40.1287102966
 11
105.9425880081
 21
-39.3822464769
  0
LINE
  5
645
100
AcDbEntity
  8
RACCORDO
100
AcDbLine
 62
250
  6
CONTINUOUS
 10
105.9396203661
 20
-40.4587299888
 11
105.9416807152
 21
-40.1287102966
  0
LINE
  5
646
100
AcDbEntity
  8
RACCORDO
100
AcDbLine
 62
250
  6
CONTINUOUS
 10
105.4411083783
 20
-40.0167336255
 11
105.4421133401
 21
-39.882721145
  0
LINE
  5
647
100
AcDbEntity
  8
RACCORDO
100
AcDbLine
 62
250
  6
CONTINUOUS
 10
105.9379044594
 20
-40.61947045
 11
105.9396203661
 21
-40.4587299888
  0
LINE
  5
648
100
AcDbEntity
  8
RACCORDO
100
AcDbLine
 62
250
  6
CONTINUOUS
 10
105.4396394966
 20
-40.1359714998
 11
105.4411083783
 21
-40.0167336255
  0
LINE
  5
649
100
AcDbEntity
  8
RACCORDO
100
AcDbLine
 62
250
  6
CONTINUOUS
 10
105.9366001803
 20
-40.7072042722
 11
105.9379044594
 21
-40.61947045
  0
LINE
  5
64A
100
AcDbEntity
  8
RACCORDO
100
AcDbLine
 62
250
  6
CONTINUOUS
 10
105.4384329418
 20
-40.204615307
 11
105.4396394966
 21
-40.1359714998
  0
LWPOLYLINE
  5
64B
100
AcDbEntity
  8
RACCORDO
100
AcDbPolyline
 62
7
  6
CONTINUOUS
 90
7
 70
0
 10
117.3821703245
 20
26.2064316619
 10
117.3822620994
 20
26.2068001082
 10
117.3823538819
 20
26.207118172
 10
117.3824456719
 20
26.2073858533
 10
117.3825374695
 20
26.2076031521
 10
117.3826292746
 20
26.2077700684
 10
117.3827210873
 20
26.2078866022
  0
LWPOLYLINE
  5
64C
100
AcDbEntity
  8
DRAFT
100
AcDbPolyline
 62
7
  6
CONTINUOUS
 90
12
 70
0
 10
118.6158968937
 20
-11.5314218911
 10
118.6255572716
 20
-11.518292711
 10
118.6351259717
 20
-11.4790788783
 10
118.6446298551
 20
-11.4140476356
 10
118.6540684438
 20
-11.3230244038
 10
118.663442216
 20
-11.2061837622
 10
118.6726877897
 20
-11.064315476
 10
118.6818043651
 20
-10.8972482371
 10
118.6907927421
 20
-10.7051533538
 10
118.6995919384
 20
-10.4893345158
 10
118.7082005773
 20
-10.2496333686
 10
118.72479346
 20
-9.7008379632
  0
LWPOLYLINE
  5
64D
100
AcDbEntity
  8
RACCORDO
100
AcDbPolyline
 62
7
  6
CONTINUOUS
 90
3
 70
0
 10
105.5233703758
 20
-39.8071389711
 10
105.6118728256
 20
-39.7136241549
 10
105.6307368017
 20
-39.6941690341
  0
LINE
  5
64E
100
AcDbEntity
  8
RACCORDO
100
AcDbLine
 62
7
  6
CONTINUOUS
 10
105.358575216
 20
-39.9662592691
 11
105.4421133401
 21
-39.882721145
  0
LINE
  5
64F
100
AcDbEntity
  8
RACCORDO
100
AcDbLine
 62
250
  6
CONTINUOUS
 10
105.358575216
 20
-40.4469029106
 11
105.4306588581
 21
-40.3748192685
  0
LINE
  5
650
100
AcDbEntity
  8
RACCORDO
100
AcDbLine
 62
250
  6
CONTINUOUS
 10
105.8584990636
 20
-40.9468267582
 11
105.9305827057
 21
-40.8747431161
  0
LINE
  5
651
100
AcDbEntity
  8
0
100
AcDbLine
 62
7
  6
CONTINUOUS
 10
111.5
 20
-39.7
 11
111.2248759926
 21
-39.9751240074
  0
LINE
  5
652
100
AcDbEntity
  8
0
100
AcDbLine
 62
7
  6
CONTINUOUS
 10
117.2
 20
-34.0
 11
117.4751240074
 21
-33.7248759926
  0
LINE
  5
653
100
AcDbEntity
  8
RACCORDO
100
AcDbLine
 62
7
  6
CONTINUOUS
 10
105.6307368017
 20
-39.6941690341
 11
105.7051926051
 21
-39.619527078
  0
LWPOLYLINE
  5
654
100
AcDbEntity
  8
RACCORDO
100
AcDbPolyline
 62
7
  6
CONTINUOUS
 90
3
 70
0
 10
105.7051926051
 20
-39.619527078
 10
105.868774978
 20
-39.4562598979
 10
105.9425880081
 20
-39.3822464769
  0
LWPOLYLINE
  5
655
100
AcDbEntity
  8
RACCORDO
100
AcDbPolyline
 62
7
  6
CONTINUOUS
 90
3
 70
0
 10
117.3071389711
 20
32.2733703758
 10
117.2136241549
 20
32.3618728256
 10
117.1941690341
 20
32.3807368017
  0
LINE
  5
656
100
AcDbEntity
  8
RACCORDO
100
AcDbLine
 62
7
  6
CONTINUOUS
 10
117.4662592691
 20
32.108575216
 11
117.382721145
 21
32.1921133401
  0
LINE
  5
657
100
AcDbEntity
  8
RACCORDO
100
AcDbLine
 62
250
  6
CONTINUOUS
 10
117.9469029106
 20
32.108575216
 11
117.8748192685
 21
32.1806588581
  0
LINE
  5
658
100
AcDbEntity
  8
RACCORDO
100
AcDbLine
 62
250
  6
CONTINUOUS
 10
118.4468267582
 20
32.6084990636
 11
118.3747431161
 21
32.6805827057
  0
LINE
  5
659
100
AcDbEntity
  8
0
100
AcDbLine
 62
7
  6
CONTINUOUS
 10
111.5
 20
39.7
 11
111.2248759926
 21
39.9751240074
  0
LINE
  5
65A
100
AcDbEntity
  8
0
100
AcDbLine
 62
7
  6
CONTINUOUS
 10
117.2
 20
34.0
 11
117.4751240074
 21
33.7248759926
  0
LINE
  5
65B
100
AcDbEntity
  8
RACCORDO
100
AcDbLine
 62
7
  6
CONTINUOUS
 10
117.1941690341
 20
32.3807368017
 11
117.119527078
 21
32.4551926051
  0
LWPOLYLINE
  5
65C
100
AcDbEntity
  8
RACCORDO
100
AcDbPolyline
 62
7
  6
CONTINUOUS
 90
3
 70
0
 10
117.119527078
 20
32.4551926051
 10
116.9562598979
 20
32.618774978
 10
116.8822464769
 20
32.6925880081
  0
LWPOLYLINE
  5
65D
100
AcDbEntity
  8
DRAFT
100
AcDbPolyline
 62
7
  6
CONTINUOUS
 90
10
 70
0
 10
118.5323852048
 20
-10.4893345158
 10
118.541184401
 20
-10.7051533538
 10
118.550172778
 20
-10.8972482371
 10
118.5592893535
 20
-11.064315476
 10
118.5685349272
 20
-11.2061837622
 10
118.5779086993
 20
-11.3230244038
 10
118.587347288
 20
-11.4140476356
 10
118.5968511715
 20
-11.4790788783
 10
118.6064198715
 20
-11.518292711
 10
118.6158968937
 20
-11.5314218911
  0
LWPOLYLINE
  5
65E
100
AcDbEntity
  8
DRAFT
100
AcDbPolyline
 62
7
  6
CONTINUOUS
 90
10
 70
0
 10
118.6995919384
 20
10.4893345158
 10
118.6907927421
 20
10.7051533538
 10
118.6818043651
 20
10.8972482372
 10
118.6726877897
 20
11.064315476
 10
118.663442216
 20
11.2061837622
 10
118.6540684438
 20
11.3230244038
 10
118.6446298551
 20
11.4140476356
 10
118.6351259717
 20
11.4790788783
 10
118.6255572716
 20
11.518292711
 10
118.6158968937
 20
11.5314218911
  0
LWPOLYLINE
  5
65F
100
AcDbEntity
  8
RACCORDO
100
AcDbPolyline
 62
250
  6
CONTINUOUS
 90
14
 70
0
 10
117.9586265075
 20
31.9709254794
 10
117.9578176544
 20
31.9916813687
 10
117.9569669468
 20
32.0108881948
 10
117.9560762319
 20
32.0284811921
 10
117.9551652315
 20
32.0442860374
 10
117.9542330536
 20
32.0583051989
 10
117.9532805902
 20
32.070542638
 10
117.9523302391
 20
32.0809240163
 10
117.9513825913
 20
32.0895183845
 10
117.9504370558
 20
32.0964055954
 10
117.9495142574
 20
32.1016256571
 10
117.9486210713
 20
32.1052975335
 10
117.9477506224
 20
32.1075706013
 10
117.9469029106
 20
32.108575216
  0
LWPOLYLINE
  5
660
100
AcDbEntity
  8
RACCORDO
100
AcDbPolyline
 62
250
  6
CONTINUOUS
 90
10
 70
0
 10
118.455088763
 20
32.4799293243
 10
118.4541566982
 20
32.5078948915
 10
118.4532043498
 20
32.5323137269
 10
118.4522540874
 20
32.5531925786
 10
118.45130649
 20
32.5703722321
 10
118.4503609786
 20
32.5840119019
 10
118.4494381865
 20
32.5945959807
 10
118.4485449912
 20
32.6022859327
 10
118.4476745151
 20
32.6069202937
 10
118.4468267582
 20
32.6084990636
  0
LINE
  5
661
100
AcDbEntity
  8
DRAFT
100
AcDbLine
 62
7
  6
CONTINUOUS
 10
118.5153571077
 20
-9.9862082668
 11
118.5323852048
 21
-10.4893345158
  0
LINE
  5
662
100
AcDbEntity
  8
DRAFT
100
AcDbLine
 62
7
  6
CONTINUOUS
 10
118.7166200355
 20
9.9862082668
 11
118.6995919384
 21
10.4893345158
  0
LINE
  5
663
100
AcDbEntity
  8
RACCORDO
100
AcDbLine
 62
250
  6
CONTINUOUS
 10
117.9601100106
 20
31.9251822519
 11
117.9586265075
 21
31.9709254794
  0
LINE
  5
664
100
AcDbEntity
  8
DRAFT
100
AcDbLine
 62
7
  6
CONTINUOUS
 10
118.4992578609
 20
-9.3933696862
 11
118.5153571077
 21
-9.9862082668
  0
LINE
  5
665
100
AcDbEntity
  8
DRAFT
100
AcDbLine
 62
7
  6
CONTINUOUS
 10
118.7327192823
 20
9.3933696862
 11
118.7166200355
 21
9.9862082668
  0
LINE
  5
666
100
AcDbEntity
  8
RACCORDO
100
AcDbLine
 62
250
  6
CONTINUOUS
 10
118.4568902627
 20
32.4130472524
 11
118.455088763
 21
32.4799293243
  0
LINE
  5
667
100
AcDbEntity
  8
RACCORDO
100
AcDbLine
 62
250
  6
CONTINUOUS
 10
117.9613724942
 20
31.8748549632
 11
117.9601100106
 21
31.9251822519
  0
LINE
  5
668
100
AcDbEntity
  8
DRAFT
100
AcDbLine
 62
7
  6
CONTINUOUS
 10
118.4841964648
 20
-8.7148345943
 11
118.4992578609
 21
-9.3933696862
  0
LINE
  5
669
100
AcDbEntity
  8
DRAFT
100
AcDbLine
 62
7
  6
CONTINUOUS
 10
118.7477806783
 20
8.7148345943
 11
118.7327192823
 21
9.3933696862
  0
LINE
  5
66A
100
AcDbEntity
  8
RACCORDO
100
AcDbLine
 62
250
  6
CONTINUOUS
 10
118.4585496835
 20
32.3332387386
 11
118.4568902627
 21
32.4130472524
  0
LINE
  5
66B
100
AcDbEntity
  8
RACCORDO
100
AcDbLine
 62
250
  6
CONTINUOUS
 10
117.962392317
 20
31.8214420302
 11
117.9613724942
 21
31.8748549632
  0
LINE
  5
66C
100
AcDbEntity
  8
DRAFT
100
AcDbLine
 62
7
  6
CONTINUOUS
 10
118.470332036
 20
-7.9572092866
 11
118.4841964648
 21
-8.7148345943
  0
LINE
  5
66D
100
AcDbEntity
  8
DRAFT
100
AcDbLine
 62
7
  6
CONTINUOUS
 10
118.7616451071
 20
7.9572092866
 11
118.7477806783
 21
8.7148345943
  0
LINE
  5
66E
100
AcDbEntity
  8
DRAFT
100
AcDbLine
 62
7
  6
CONTINUOUS
 10
118.4577999316
 20
-7.1285008656
 11
118.470332036
 21
-7.9572092866
  0
LINE
  5
66F
100
AcDbEntity
  8
DRAFT
100
AcDbLine
 62
7
  6
CONTINUOUS
 10
118.7741772116
 20
7.1285008656
 11
118.7616451071
 21
7.9572092866
  0
LINE
  5
670
100
AcDbEntity
  8
RACCORDO
100
AcDbLine
 62
250
  6
CONTINUOUS
 10
118.4606914994
 20
32.1925373981
 11
118.4585496835
 21
32.3332387386
  0
LINE
  5
671
100
AcDbEntity
  8
RACCORDO
100
AcDbLine
 62
250
  6
CONTINUOUS
 10
117.9631616166
 20
31.7664068176
 11
117.962392317
 21
31.8214420302
  0
LINE
  5
672
100
AcDbEntity
  8
DRAFT
100
AcDbLine
 62
7
  6
CONTINUOUS
 10
118.4466849665
 20
-6.234320506
 11
118.4577999316
 21
-7.1285008656
  0
LINE
  5
673
100
AcDbEntity
  8
DRAFT
100
AcDbLine
 62
7
  6
CONTINUOUS
 10
118.7852921767
 20
6.234320506
 11
118.7741772116
 21
7.1285008656
  0
LINE
  5
674
100
AcDbEntity
  8
DRAFT
100
AcDbLine
 62
7
  6
CONTINUOUS
 10
118.4371073096
 20
-5.2835717608
 11
118.4466849665
 21
-6.234320506
  0
LINE
  5
675
100
AcDbEntity
  8
DRAFT
100
AcDbLine
 62
7
  6
CONTINUOUS
 10
118.7948698336
 20
5.2835717608
 11
118.7852921767
 21
6.234320506
  0
LINE
  5
676
100
AcDbEntity
  8
DRAFT
100
AcDbLine
 62
7
  6
CONTINUOUS
 10
118.4291575414
 20
-4.286132209
 11
118.4371073096
 21
-5.2835717608
  0
LINE
  5
677
100
AcDbEntity
  8
RACCORDO
100
AcDbLine
 62
250
  6
CONTINUOUS
 10
118.4627314207
 20
31.979279555
 11
118.4606914994
 21
32.1925373981
  0
LINE
  5
678
100
AcDbEntity
  8
DRAFT
100
AcDbLine
 62
7
  6
CONTINUOUS
 10
118.8028196018
 20
4.286132209
 11
118.7948698336
 21
5.2835717608
  0
LINE
  5
679
100
AcDbEntity
  8
RACCORDO
100
AcDbLine
 62
250
  6
CONTINUOUS
 10
117.9638501054
 20
31.684717509
 11
117.9631616166
 21
31.7664068176
  0
LINE
  5
67A
100
AcDbEntity
  8
DRAFT
100
AcDbLine
 62
7
  6
CONTINUOUS
 10
118.4228894485
 20
-3.2487532756
 11
118.4291575414
 21
-4.286132209
  0
LINE
  5
67B
100
AcDbEntity
  8
DRAFT
100
AcDbLine
 62
7
  6
CONTINUOUS
 10
118.8090876947
 20
3.2487532756
 11
118.8028196018
 21
4.286132209
  0
LINE
  5
67C
100
AcDbEntity
  8
DRAFT
100
AcDbLine
 62
7
  6
CONTINUOUS
 10
118.4167859189
 20
-1.6410863828
 11
118.4228894485
 21
-3.2487532756
  0
LINE
  5
67D
100
AcDbEntity
  8
DRAFT
100
AcDbLine
 62
7
  6
CONTINUOUS
 10
118.8151912242
 20
1.6410863828
 11
118.8090876947
 21
3.2487532756
  0
LINE
  5
67E
100
AcDbEntity
  8
RACCORDO
100
AcDbLine
 62
250
  6
CONTINUOUS
 10
118.4638955838
 20
31.7088554866
 11
118.4627314207
 21
31.979279555
  0
LINE
  5
67F
100
AcDbEntity
  8
RACCORDO
100
AcDbLine
 62
250
  6
CONTINUOUS
 10
117.9640533427
 20
31.6086513684
 11
117.9638501054
 21
31.684717509
  0
LINE
  5
680
100
AcDbEntity
  8
DRAFT
100
AcDbLine
 62
7
  6
CONTINUOUS
 10
118.4147374887
 20
0.0
 11
118.4167859189
 21
-1.6410863828
  0
LINE
  5
681
100
AcDbEntity
  8
DRAFT
100
AcDbLine
 62
7
  6
CONTINUOUS
 10
118.8172396544
 20
0.0
 11
118.8151912242
 21
1.6410863828
  0
LINE
  5
682
100
AcDbEntity
  8
0
100
AcDbLine
 62
7
  6
CONTINUOUS
 10
111.2242099741
 20
-39.6749258819
 11
111.2242099741
 21
-35.5
  0
LINE
  5
683
100
AcDbEntity
  8
0
100
AcDbLine
 62
7
  6
CONTINUOUS
 10
111.2242099741
 20
35.5
 11
111.2242099741
 21
39.6749258819
  0
LINE
  5
684
100
AcDbEntity
  8
DRAFT
100
AcDbLine
 62
7
  6
CONTINUOUS
 10
111.5
 20
-39.7
 11
111.5
 21
-35.5
  0
LINE
  5
685
100
AcDbEntity
  8
DRAFT
100
AcDbLine
 62
7
  6
CONTINUOUS
 10
111.5
 20
35.5
 11
111.5
 21
39.7
  0
LINE
  5
686
100
AcDbEntity
  8
DRAFT
100
AcDbLine
 62
250
  6
CONTINUOUS
 10
113.0
 20
34.0
 11
113.0
 21
33.7242099741
  0
LINE
  5
687
100
AcDbEntity
  8
DRAFT
100
AcDbLine
 62
250
  6
CONTINUOUS
 10
113.0
 20
-34.0
 11
113.0
 21
-33.7242099741
  0
LINE
  5
688
100
AcDbEntity
  8
0
100
AcDbLine
 62
250
  6
CONTINUOUS
 10
113.0
 20
-39.7
 11
113.0
 21
-41.5
  0
LINE
  5
689
100
AcDbEntity
  8
0
100
AcDbLine
 62
250
  6
CONTINUOUS
 10
113.0
 20
39.7
 11
113.0
 21
41.5
  0
LINE
  5
68A
100
AcDbEntity
  8
RACCORDO
100
AcDbLine
 62
250
  6
CONTINUOUS
 10
116.8822464769
 20
25.7074119919
 11
116.8822464769
 21
32.6925880081
  0
LINE
  5
68B
100
AcDbEntity
  8
RACCORDO
100
AcDbLine
 62
250
  6
CONTINUOUS
 10
117.1749258819
 20
-33.7242099741
 11
117.1749258633
 21
26.0000746359
  0
LINE
  5
68C
100
AcDbEntity
  8
RACCORDO
100
AcDbLine
 62
250
  6
CONTINUOUS
 10
117.174925864
 20
32.3999253618
 11
117.1749258819
 21
33.7242099741
  0
LINE
  5
68D
100
AcDbEntity
  8
DRAFT
100
AcDbLine
 62
7
  6
CONTINUOUS
 10
117.2
 20
35.5
 11
117.2
 21
34.0
  0
LINE
  5
68E
100
AcDbEntity
  8
DRAFT
100
AcDbLine
 62
7
  6
CONTINUOUS
 10
117.2
 20
-34.0
 11
117.2
 21
-35.5
  0
LINE
  5
68F
100
AcDbEntity
  8
RACCORDO
100
AcDbLine
 62
250
  6
CONTINUOUS
 10
117.3821703245
 20
26.2064316619
 11
117.3821703245
 21
32.1935683378
  0
LINE
  5
690
100
AcDbEntity
  8
RACCORDO
100
AcDbLine
 62
7
  6
CONTINUOUS
 10
117.4748344851
 20
26.7913486316
 11
117.4748344851
 21
31.6086513684
  0
LINE
  5
691
100
AcDbEntity
  8
0
100
AcDbLine
 62
7
  6
CONTINUOUS
 10
117.4751240074
 20
-35.5
 11
117.4751240074
 21
-33.7248759926
  0
LINE
  5
692
100
AcDbEntity
  8
0
100
AcDbLine
 62
7
  6
CONTINUOUS
 10
117.4751240074
 20
33.7248759926
 11
117.4751240074
 21
35.5
  0
LINE
  5
693
100
AcDbEntity
  8
RACCORDO
100
AcDbLine
 62
250
  6
CONTINUOUS
 10
118.3747431161
 20
-35.5
 11
118.3747431161
 21
25.7194172943
  0
LINE
  5
694
100
AcDbEntity
  8
RACCORDO
100
AcDbLine
 62
250
  6
CONTINUOUS
 10
118.3747431161
 20
32.6805827057
 11
118.3747431161
 21
35.5
  0
LINE
  5
695
100
AcDbEntity
  8
SUPERFICI
100
AcDbLine
 62
7
  6
CONTINUOUS
 10
119.0000003491
 20
35.5000000145
 11
119.0000003491
 21
-35.5000000243
  0
LINE
  5
696
100
AcDbEntity
  8
DRAFT
100
AcDbLine
 62
7
  6
CONTINUOUS
 10
119.0
 20
-35.5
 11
119.0
 21
35.5
  0
LINE
  5
697
100
AcDbEntity
  8
DRAFT
100
AcDbLine
 62
7
  6
CONTINUOUS
 10
118.4167859189
 20
1.6410863828
 11
118.4147374887
 21
0.0
  0
LINE
  5
698
100
AcDbEntity
  8
DRAFT
100
AcDbLine
 62
7
  6
CONTINUOUS
 10
118.8151912242
 20
-1.6410863828
 11
118.8172396544
 21
0.0
  0
LINE
  5
699
100
AcDbEntity
  8
RACCORDO
100
AcDbLine
 62
250
  6
CONTINUOUS
 10
118.4637740151
 20
26.6392220007
 11
118.4638955838
 21
31.7088554866
  0
LINE
  5
69A
100
AcDbEntity
  8
RACCORDO
100
AcDbLine
 62
250
  6
CONTINUOUS
 10
117.9639718541
 20
26.7414072151
 11
117.9640533427
 21
31.6086513684
  0
LINE
  5
69B
100
AcDbEntity
  8
DRAFT
100
AcDbLine
 62
7
  6
CONTINUOUS
 10
118.4228894485
 20
3.2487532756
 11
118.4167859189
 21
1.6410863828
  0
LINE
  5
69C
100
AcDbEntity
  8
DRAFT
100
AcDbLine
 62
7
  6
CONTINUOUS
 10
118.8090876947
 20
-3.2487532756
 11
118.8151912242
 21
-1.6410863828
  0
LINE
  5
69D
100
AcDbEntity
  8
RACCORDO
100
AcDbLine
 62
250
  6
CONTINUOUS
 10
118.4623160347
 20
26.3656514518
 11
118.4637740151
 21
26.6392220007
  0
LINE
  5
69E
100
AcDbEntity
  8
DRAFT
100
AcDbLine
 62
7
  6
CONTINUOUS
 10
118.4329240206
 20
4.7903103599
 11
118.4228894485
 21
3.2487532756
  0
LINE
  5
69F
100
AcDbEntity
  8
DRAFT
100
AcDbLine
 62
7
  6
CONTINUOUS
 10
118.7990531225
 20
-4.7903103598
 11
118.8090876947
 21
-3.2487532756
  0
LINE
  5
6A0
100
AcDbEntity
  8
RACCORDO
100
AcDbLine
 62
250
  6
CONTINUOUS
 10
117.9634507453
 20
26.6611394178
 11
117.9639718541
 21
26.7414072151
  0
LINE
  5
6A1
100
AcDbEntity
  8
DRAFT
100
AcDbLine
 62
7
  6
CONTINUOUS
 10
118.44170464
 20
5.7659946131
 11
118.4329240206
 21
4.7903103599
  0
LINE
  5
6A2
100
AcDbEntity
  8
DRAFT
100
AcDbLine
 62
7
  6
CONTINUOUS
 10
118.7902725032
 20
-5.7659946131
 11
118.7990531225
 21
-4.7903103598
  0
LINE
  5
6A3
100
AcDbEntity
  8
RACCORDO
100
AcDbLine
 62
250
  6
CONTINUOUS
 10
118.4606917047
 20
26.2074791595
 11
118.4623160347
 21
26.3656514518
  0
LINE
  5
6A4
100
AcDbEntity
  8
DRAFT
100
AcDbLine
 62
7
  6
CONTINUOUS
 10
118.452050951
 20
6.6884591655
 11
118.44170464
 21
5.7659946131
  0
LINE
  5
6A5
100
AcDbEntity
  8
DRAFT
100
AcDbLine
 62
7
  6
CONTINUOUS
 10
118.7799261921
 20
-6.6884591655
 11
118.7902725032
 21
-5.7659946131
  0
LINE
  5
6A6
100
AcDbEntity
  8
RACCORDO
100
AcDbLine
 62
250
  6
CONTINUOUS
 10
117.9628083782
 20
26.6060594537
 11
117.9634507453
 21
26.6611394178
  0
LINE
  5
6A7
100
AcDbEntity
  8
DRAFT
100
AcDbLine
 62
7
  6
CONTINUOUS
 10
118.4638928764
 20
7.5514580174
 11
118.452050951
 21
6.6884591655
  0
LINE
  5
6A8
100
AcDbEntity
  8
DRAFT
100
AcDbLine
 62
7
  6
CONTINUOUS
 10
118.7680842667
 20
-7.5514580174
 11
118.7799261921
 21
-6.6884591655
  0
LINE
  5
6A9
100
AcDbEntity
  8
RACCORDO
100
AcDbLine
 62
250
  6
CONTINUOUS
 10
118.4585494244
 20
26.0667474941
 11
118.4606917047
 21
26.2074791595
  0
LINE
  5
6AA
100
AcDbEntity
  8
DRAFT
100
AcDbLine
 62
7
  6
CONTINUOUS
 10
118.4771151599
 20
8.3458760076
 11
118.4638928764
 21
7.5514580174
  0
LINE
  5
6AB
100
AcDbEntity
  8
DRAFT
100
AcDbLine
 62
7
  6
CONTINUOUS
 10
118.7548619833
 20
-8.3458760076
 11
118.7680842667
 21
-7.5514580174
  0
LINE
  5
6AC
100
AcDbEntity
  8
RACCORDO
100
AcDbLine
 62
250
  6
CONTINUOUS
 10
117.9619150516
 20
26.551570393
 11
117.9628083782
 21
26.6060594537
  0
LINE
  5
6AD
100
AcDbEntity
  8
DRAFT
100
AcDbLine
 62
7
  6
CONTINUOUS
 10
118.4915780723
 20
9.0639562074
 11
118.4771151599
 21
8.3458760076
  0
LINE
  5
6AE
100
AcDbEntity
  8
DRAFT
100
AcDbLine
 62
7
  6
CONTINUOUS
 10
118.7403990708
 20
-9.0639562074
 11
118.7548619833
 21
-8.3458760076
  0
LINE
  5
6AF
100
AcDbEntity
  8
RACCORDO
100
AcDbLine
 62
250
  6
CONTINUOUS
 10
118.4568896175
 20
25.9869256067
 11
118.4585494244
 21
26.0667474941
  0
LINE
  5
6B0
100
AcDbEntity
  8
RACCORDO
100
AcDbLine
 62
250
  6
CONTINUOUS
 10
117.9607685711
 20
26.4994714466
 11
117.9619150516
 21
26.551570393
  0
LINE
  5
6B1
100
AcDbEntity
  8
DRAFT
100
AcDbLine
 62
7
  6
CONTINUOUS
 10
118.5071836832
 20
9.7008379632
 11
118.4915780723
 21
9.0639562074
  0
LINE
  5
6B2
100
AcDbEntity
  8
DRAFT
100
AcDbLine
 62
7
  6
CONTINUOUS
 10
118.72479346
 20
-9.7008379632
 11
118.7403990708
 21
-9.0639562074
  0
LWPOLYLINE
  5
6B3
100
AcDbEntity
  8
RACCORDO
100
AcDbPolyline
 62
250
  6
CONTINUOUS
 90
8
 70
0
 10
105.9305827057
 20
-40.8747431161
 10
105.9313764027
 20
-40.870888332
 10
105.9321596975
 20
-40.8620393461
 10
105.93293259
 20
-40.8482268862
 10
105.9336982083
 20
-40.829503036
 10
105.9344534243
 20
-40.8059397378
 10
105.9351888541
 20
-40.777627357
 10
105.9366001803
 20
-40.7072042722
  0
LWPOLYLINE
  5
6B4
100
AcDbEntity
  8
RACCORDO
100
AcDbPolyline
 62
250
  6
CONTINUOUS
 90
10
 70
0
 10
105.4306588581
 20
-40.3748192685
 10
105.4315112027
 20
-40.3722316668
 10
105.432351034
 20
-40.3663563206
 10
105.4331783518
 20
-40.3571932299
 10
105.4339971356
 20
-40.3446701809
 10
105.434803406
 20
-40.3288593874
 10
105.4355852252
 20
-40.3099774912
 10
105.4363422913
 20
-40.2879728079
 10
105.4370749063
 20
-40.2628970218
 10
105.4384329418
 20
-40.204615307
  0
LWPOLYLINE
  5
6B5
100
AcDbEntity
  8
RACCORDO
100
AcDbPolyline
 62
7
  6
CONTINUOUS
 90
7
 70
0
 10
117.3827210873
 20
32.1921133978
 10
117.3826292232
 20
32.1922300673
 10
117.3825373872
 20
32.1923970651
 10
117.3824455793
 20
32.192614391
 10
117.3823537996
 20
32.1928820451
 10
117.382262048
 20
32.1932000274
 10
117.3821703245
 20
32.1935683378
  0
LWPOLYLINE
  5
6B6
100
AcDbEntity
  8
RACCORDO
100
AcDbPolyline
 62
7
  6
CONTINUOUS
 90
9
 70
0
 10
117.3821703245
 20
32.1935683378
 10
117.3804165348
 20
32.197278214
 10
117.3763585596
 20
32.2028455461
 10
117.3700246522
 20
32.2102703342
 10
117.3614038111
 20
32.219703528
 10
117.3505719139
 20
32.2309941777
 10
117.3378032266
 20
32.2436894342
 10
117.3232747672
 20
32.2578276017
 10
117.3071389711
 20
32.2733703758
  0
CIRCLE
  5
6B7
100
AcDbEntity
  8
RACCORDO
100
AcDbCircle
 62
7
  6
CONTINUOUS
 10
-102.5
 20
-26.5
 40
9.5
  0
CIRCLE
  5
6B8
100
AcDbEntity
  8
RACCORDO
100
AcDbCircle
 62
250
  6
CONTINUOUS
 10
-102.5
 20
-26.5
 40
8.999999123
  0
ARC
  5
6B9
100
AcDbEntity
  8
SUPERFICI
100
AcDbCircle
 62
7
  6
CONTINUOUS
 10
-113.0
 20
-35.5
 40
6.0000004289
100
AcDbArc
 50
180.0000165401
 51
269.9999818696
  0
ARC
  5
6BA
100
AcDbEntity
  8
DRAFT
100
AcDbCircle
 62
7
  6
CONTINUOUS
 10
-113.0
 20
-35.5
 40
6.0
100
AcDbArc
 50
180.0
 51
270.0
  0
ARC
  5
6BB
100
AcDbEntity
  8
0
100
AcDbCircle
 62
250
  6
CONTINUOUS
 10
-113.0
 20
-35.5
 40
5.3747431161
100
AcDbArc
 50
180.0
 51
270.0
  0
ARC
  5
6BC
100
AcDbEntity
  8
0
100
AcDbCircle
 62
7
  6
CONTINUOUS
 10
-113.0
 20
-35.5
 40
4.4751240074
100
AcDbArc
 50
180.0
 51
270.0
  0
ARC
  5
6BD
100
AcDbEntity
  8
DRAFT
100
AcDbCircle
 62
7
  6
CONTINUOUS
 10
-113.0
 20
-35.5
 40
4.2
100
AcDbArc
 50
180.0
 51
270.0
  0
CIRCLE
  5
6BE
100
AcDbEntity
  8
0
100
AcDbCircle
 62
7
  6
CONTINUOUS
 10
-102.5
 20
-26.5
 40
2.0
  0
CIRCLE
  5
6BF
100
AcDbEntity
  8
0
100
AcDbCircle
 62
7
  6
CONTINUOUS
 10
-102.5
 20
-26.5
 40
1.8
  0
ARC
  5
6C0
100
AcDbEntity
  8
DRAFT
100
AcDbCircle
 62
7
  6
CONTINUOUS
 10
-113.0
 20
-35.5
 40
1.7757900259
100
AcDbArc
 50
0.0
 51
90.0
  0
CIRCLE
  5
6C1
100
AcDbEntity
  8
0
100
AcDbCircle
 62
7
  6
CONTINUOUS
 10
-102.5
 20
-26.5
 40
1.5
  0
ARC
  5
6C2
100
AcDbEntity
  8
DRAFT
100
AcDbCircle
 62
7
  6
CONTINUOUS
 10
-113.0
 20
-35.5
 40
1.5
100
AcDbArc
 50
0.0
 51
90.0
  0
CIRCLE
  5
6C3
100
AcDbEntity
  8
RACCORDO
100
AcDbCircle
 62
7
  6
CONTINUOUS
 10
-102.5
 20
26.5
 40
9.5
  0
CIRCLE
  5
6C4
100
AcDbEntity
  8
RACCORDO
100
AcDbCircle
 62
250
  6
CONTINUOUS
 10
-102.5
 20
26.5
 40
8.999999123
  0
ARC
  5
6C5
100
AcDbEntity
  8
SUPERFICI
100
AcDbCircle
 62
7
  6
CONTINUOUS
 10
-113.0
 20
35.5
 40
6.0000004289
100
AcDbArc
 50
90.0000192217
 51
179.9999834907
  0
ARC
  5
6C6
100
AcDbEntity
  8
DRAFT
100
AcDbCircle
 62
7
  6
CONTINUOUS
 10
-113.0
 20
35.5
 40
6.0
100
AcDbArc
 50
90.0
 51
180.0
  0
ARC
  5
6C7
100
AcDbEntity
  8
0
100
AcDbCircle
 62
250
  6
CONTINUOUS
 10
-113.0
 20
35.5
 40
5.3747431161
100
AcDbArc
 50
90.0
 51
180.0
  0
ARC
  5
6C8
100
AcDbEntity
  8
0
100
AcDbCircle
 62
7
  6
CONTINUOUS
 10
-113.0
 20
35.5
 40
4.4751240074
100
AcDbArc
 50
90.0
 51
180.0
  0
ARC
  5
6C9
100
AcDbEntity
  8
DRAFT
100
AcDbCircle
 62
7
  6
CONTINUOUS
 10
-113.0
 20
35.5
 40
4.2
100
AcDbArc
 50
90.0
 51
180.0
  0
CIRCLE
  5
6CA
100
AcDbEntity
  8
0
100
AcDbCircle
 62
7
  6
CONTINUOUS
 10
-102.5
 20
26.5
 40
2.0
  0
CIRCLE
  5
6CB
100
AcDbEntity
  8
0
100
AcDbCircle
 62
7
  6
CONTINUOUS
 10
-102.5
 20
26.5
 40
1.8
  0
ARC
  5
6CC
100
AcDbEntity
  8
DRAFT
100
AcDbCircle
 62
7
  6
CONTINUOUS
 10
-113.0
 20
35.5
 40
1.7757900259
100
AcDbArc
 50
270.0
 51
360.0
  0
CIRCLE
  5
6CD
100
AcDbEntity
  8
0
100
AcDbCircle
 62
7
  6
CONTINUOUS
 10
-102.5
 20
26.5
 40
1.5
  0
ARC
  5
6CE
100
AcDbEntity
  8
DRAFT
100
AcDbCircle
 62
7
  6
CONTINUOUS
 10
-113.0
 20
35.5
 40
1.5
100
AcDbArc
 50
270.0
 51
360.0
  0
CIRCLE
  5
6CF
100
AcDbEntity
  8
RACCORDO
100
AcDbCircle
 62
250
  6
CONTINUOUS
 10
-85.0
 20
0.0
 40
11.807864419
  0
CIRCLE
  5
6D0
100
AcDbEntity
  8
RACCORDO
100
AcDbCircle
 62
7
  6
CONTINUOUS
 10
-85.0
 20
0.0
 40
11.5078770275
  0
ARC
  5
6D1
100
AcDbEntity
  8
0
100
AcDbCircle
 62
7
  6
CONTINUOUS
 10
-85.0
 20
0.0
 40
11.5061088075
100
AcDbArc
 50
266.2626528724
 51
273.7373471276
  0
ARC
  5
6D2
100
AcDbEntity
  8
0
100
AcDbCircle
 62
7
  6
CONTINUOUS
 10
-85.0
 20
0.0
 40
11.5061088075
100
AcDbArc
 50
86.2626528724
 51
93.7373471276
  0
ARC
  5
6D3
100
AcDbEntity
  8
0
100
AcDbCircle
 62
7
  6
CONTINUOUS
 10
-85.0
 20
0.0
 40
11.5061088075
100
AcDbArc
 50
356.2626528724
 51
3.7373471276
  0
ARC
  5
6D4
100
AcDbEntity
  8
0
100
AcDbCircle
 62
7
  6
CONTINUOUS
 10
-85.0
 20
0.0
 40
11.5061088075
100
AcDbArc
 50
176.2626528724
 51
183.7373471276
  0
ARC
  5
6D5
100
AcDbEntity
  8
0
100
AcDbCircle
 62
7
  6
CONTINUOUS
 10
-85.0
 20
0.0
 40
11.5
100
AcDbArc
 50
3.7393352315
 51
86.2606647685
  0
ARC
  5
6D6
100
AcDbEntity
  8
0
100
AcDbCircle
 62
7
  6
CONTINUOUS
 10
-85.0
 20
0.0
 40
11.5
100
AcDbArc
 50
93.7393352315
 51
176.2606647685
  0
ARC
  5
6D7
100
AcDbEntity
  8
0
100
AcDbCircle
 62
7
  6
CONTINUOUS
 10
-85.0
 20
0.0
 40
11.5
100
AcDbArc
 50
273.7393352315
 51
356.2606647685
  0
ARC
  5
6D8
100
AcDbEntity
  8
0
100
AcDbCircle
 62
7
  6
CONTINUOUS
 10
-85.0
 20
0.0
 40
11.5
100
AcDbArc
 50
183.7393352315
 51
266.2606647685
  0
ARC
  5
6D9
100
AcDbEntity
  8
0
100
AcDbCircle
 62
7
  6
CONTINUOUS
 10
-85.0
 20
0.0
 40
11.25
100
AcDbArc
 50
273.8225537293
 51
356.1774462707
  0
ARC
  5
6DA
100
AcDbEntity
  8
0
100
AcDbCircle
 62
7
  6
CONTINUOUS
 10
-85.0
 20
0.0
 40
11.25
100
AcDbArc
 50
183.8225537293
 51
266.1774462707
  0
ARC
  5
6DB
100
AcDbEntity
  8
0
100
AcDbCircle
 62
7
  6
CONTINUOUS
 10
-85.0
 20
0.0
 40
11.25
100
AcDbArc
 50
3.8225537293
 51
86.1774462707
  0
ARC
  5
6DC
100
AcDbEntity
  8
0
100
AcDbCircle
 62
7
  6
CONTINUOUS
 10
-85.0
 20
0.0
 40
11.25
100
AcDbArc
 50
93.8225537293
 51
176.1774462707
  0
ARC
  5
6DD
100
AcDbEntity
  8
0
100
AcDbCircle
 62
250
  6
CONTINUOUS
 10
-85.0
 20
0.0
 40
10.6378679656
100
AcDbArc
 50
274.0428697094
 51
355.9571302906
  0
ARC
  5
6DE
100
AcDbEntity
  8
0
100
AcDbCircle
 62
250
  6
CONTINUOUS
 10
-85.0
 20
0.0
 40
10.6378679656
100
AcDbArc
 50
184.0428697094
 51
265.9571302906
  0
ARC
  5
6DF
100
AcDbEntity
  8
0
100
AcDbCircle
 62
250
  6
CONTINUOUS
 10
-85.0
 20
0.0
 40
10.6378679656
100
AcDbArc
 50
4.0428697094
 51
85.9571302906
  0
ARC
  5
6E0
100
AcDbEntity
  8
0
100
AcDbCircle
 62
250
  6
CONTINUOUS
 10
-85.0
 20
0.0
 40
10.6378679656
100
AcDbArc
 50
94.0428697094
 51
175.9571302906
  0
ARC
  5
6E1
100
AcDbEntity
  8
0
100
AcDbCircle
 62
250
  6
CONTINUOUS
 10
-85.0
 20
0.0
 40
10.4257359313
100
AcDbArc
 50
184.1252708293
 51
265.8747291707
  0
ARC
  5
6E2
100
AcDbEntity
  8
0
100
AcDbCircle
 62
250
  6
CONTINUOUS
 10
-85.0
 20
0.0
 40
10.4257359313
100
AcDbArc
 50
274.1252708293
 51
355.8747291707
  0
ARC
  5
6E3
100
AcDbEntity
  8
0
100
AcDbCircle
 62
250
  6
CONTINUOUS
 10
-85.0
 20
0.0
 40
10.4257359313
100
AcDbArc
 50
4.1252708293
 51
85.8747291707
  0
ARC
  5
6E4
100
AcDbEntity
  8
0
100
AcDbCircle
 62
250
  6
CONTINUOUS
 10
-85.0
 20
0.0
 40
10.4257359313
100
AcDbArc
 50
94.1252708293
 51
175.8747291707
  0
CIRCLE
  5
6E5
100
AcDbEntity
  8
RACCORDO
100
AcDbCircle
 62
7
  6
CONTINUOUS
 10
-62.3
 20
0.0
 40
4.8
  0
CIRCLE
  5
6E6
100
AcDbEntity
  8
RACCORDO
100
AcDbCircle
 62
250
  6
CONTINUOUS
 10
-62.3
 20
0.0
 40
4.2999973391
  0
CIRCLE
  5
6E7
100
AcDbEntity
  8
RACCORDO
100
AcDbCircle
 62
7
  6
CONTINUOUS
 10
102.5
 20
-26.5
 40
9.5
  0
CIRCLE
  5
6E8
100
AcDbEntity
  8
RACCORDO
100
AcDbCircle
 62
250
  6
CONTINUOUS
 10
102.5
 20
-26.5
 40
8.999999123
  0
ARC
  5
6E9
100
AcDbEntity
  8
SUPERFICI
100
AcDbCircle
 62
7
  6
CONTINUOUS
 10
113.0
 20
-35.5
 40
6.0000004289
100
AcDbArc
 50
270.0000181304
 51
359.9999834599
  0
ARC
  5
6EA
100
AcDbEntity
  8
DRAFT
100
AcDbCircle
 62
7
  6
CONTINUOUS
 10
113.0
 20
-35.5
 40
6.0
100
AcDbArc
 50
270.0
 51
360.0
  0
ARC
  5
6EB
100
AcDbEntity
  8
0
100
AcDbCircle
 62
250
  6
CONTINUOUS
 10
113.0
 20
-35.5
 40
5.3747431161
100
AcDbArc
 50
270.0
 51
360.0
  0
ARC
  5
6EC
100
AcDbEntity
  8
0
100
AcDbCircle
 62
7
  6
CONTINUOUS
 10
113.0
 20
-35.5
 40
4.4751240074
100
AcDbArc
 50
270.0
 51
360.0
  0
ARC
  5
6ED
100
AcDbEntity
  8
DRAFT
100
AcDbCircle
 62
7
  6
CONTINUOUS
 10
113.0
 20
-35.5
 40
4.2
100
AcDbArc
 50
270.0
 51
360.0
  0
CIRCLE
  5
6EE
100
AcDbEntity
  8
0
100
AcDbCircle
 62
7
  6
CONTINUOUS
 10
102.5
 20
-26.5
 40
2.0
  0
CIRCLE
  5
6EF
100
AcDbEntity
  8
0
100
AcDbCircle
 62
7
  6
CONTINUOUS
 10
102.5
 20
-26.5
 40
1.8
  0
ARC
  5
6F0
100
AcDbEntity
  8
DRAFT
100
AcDbCircle
 62
7
  6
CONTINUOUS
 10
113.0
 20
-35.5
 40
1.7757900259
100
AcDbArc
 50
90.0
 51
180.0
  0
CIRCLE
  5
6F1
100
AcDbEntity
  8
0
100
AcDbCircle
 62
7
  6
CONTINUOUS
 10
102.5
 20
-26.5
 40
1.5
  0
ARC
  5
6F2
100
AcDbEntity
  8
DRAFT
100
AcDbCircle
 62
7
  6
CONTINUOUS
 10
113.0
 20
-35.5
 40
1.5
100
AcDbArc
 50
90.0
 51
180.0
  0
CIRCLE
  5
6F3
100
AcDbEntity
  8
RACCORDO
100
AcDbCircle
 62
250
  6
CONTINUOUS
 10
-0.0
 20
0.0
 40
11.807864419
  0
CIRCLE
  5
6F4
100
AcDbEntity
  8
RACCORDO
100
AcDbCircle
 62
7
  6
CONTINUOUS
 10
-0.0
 20
0.0
 40
11.5078770275
  0
ARC
  5
6F5
100
AcDbEntity
  8
0
100
AcDbCircle
 62
7
  6
CONTINUOUS
 10
-0.0
 20
0.0
 40
11.5061088075
100
AcDbArc
 50
356.2626528724
 51
3.7373471276
  0
ARC
  5
6F6
100
AcDbEntity
  8
0
100
AcDbCircle
 62
7
  6
CONTINUOUS
 10
-0.0
 20
0.0
 40
11.5061088075
100
AcDbArc
 50
86.2626528724
 51
93.7373471276
  0
ARC
  5
6F7
100
AcDbEntity
  8
0
100
AcDbCircle
 62
7
  6
CONTINUOUS
 10
-0.0
 20
0.0
 40
11.5061088075
100
AcDbArc
 50
176.2626528724
 51
183.7373471276
  0
ARC
  5
6F8
100
AcDbEntity
  8
0
100
AcDbCircle
 62
7
  6
CONTINUOUS
 10
-0.0
 20
0.0
 40
11.5061088075
100
AcDbArc
 50
266.2626528724
 51
273.7373471276
  0
ARC
  5
6F9
100
AcDbEntity
  8
0
100
AcDbCircle
 62
7
  6
CONTINUOUS
 10
-0.0
 20
0.0
 40
11.5
100
AcDbArc
 50
3.7393352315
 51
86.2606647685
  0
ARC
  5
6FA
100
AcDbEntity
  8
0
100
AcDbCircle
 62
7
  6
CONTINUOUS
 10
-0.0
 20
0.0
 40
11.5
100
AcDbArc
 50
93.7393352315
 51
176.2606647685
  0
ARC
  5
6FB
100
AcDbEntity
  8
0
100
AcDbCircle
 62
7
  6
CONTINUOUS
 10
-0.0
 20
0.0
 40
11.5
100
AcDbArc
 50
273.7393352315
 51
356.2606647685
  0
ARC
  5
6FC
100
AcDbEntity
  8
0
100
AcDbCircle
 62
7
  6
CONTINUOUS
 10
-0.0
 20
0.0
 40
11.5
100
AcDbArc
 50
183.7393352315
 51
266.2606647685
  0
ARC
  5
6FD
100
AcDbEntity
  8
0
100
AcDbCircle
 62
7
  6
CONTINUOUS
 10
-0.0
 20
0.0
 40
11.25
100
AcDbArc
 50
273.8225537293
 51
356.1774462707
  0
ARC
  5
6FE
100
AcDbEntity
  8
0
100
AcDbCircle
 62
7
  6
CONTINUOUS
 10
-0.0
 20
0.0
 40
11.25
100
AcDbArc
 50
183.8225537293
 51
266.1774462707
  0
ARC
  5
6FF
100
AcDbEntity
  8
0
100
AcDbCircle
 62
7
  6
CONTINUOUS
 10
-0.0
 20
0.0
 40
11.25
100
AcDbArc
 50
3.8225537293
 51
86.1774462707
  0
ARC
  5
700
100
AcDbEntity
  8
0
100
AcDbCircle
 62
7
  6
CONTINUOUS
 10
-0.0
 20
0.0
 40
11.25
100
AcDbArc
 50
93.8225537293
 51
176.1774462707
  0
ARC
  5
701
100
AcDbEntity
  8
0
100
AcDbCircle
 62
250
  6
CONTINUOUS
 10
-0.0
 20
0.0
 40
10.6378679656
100
AcDbArc
 50
274.0428697094
 51
355.9571302906
  0
ARC
  5
702
100
AcDbEntity
  8
0
100
AcDbCircle
 62
250
  6
CONTINUOUS
 10
-0.0
 20
0.0
 40
10.6378679656
100
AcDbArc
 50
184.0428697094
 51
265.9571302906
  0
ARC
  5
703
100
AcDbEntity
  8
0
100
AcDbCircle
 62
250
  6
CONTINUOUS
 10
-0.0
 20
0.0
 40
10.6378679656
100
AcDbArc
 50
4.0428697094
 51
85.9571302906
  0
ARC
  5
704
100
AcDbEntity
  8
0
100
AcDbCircle
 62
250
  6
CONTINUOUS
 10
-0.0
 20
0.0
 40
10.6378679656
100
AcDbArc
 50
94.0428697094
 51
175.9571302906
  0
ARC
  5
705
100
AcDbEntity
  8
0
100
AcDbCircle
 62
250
  6
CONTINUOUS
 10
-0.0
 20
0.0
 40
10.4257359313
100
AcDbArc
 50
4.1252708293
 51
85.8747291707
  0
ARC
  5
706
100
AcDbEntity
  8
0
100
AcDbCircle
 62
250
  6
CONTINUOUS
 10
-0.0
 20
0.0
 40
10.4257359313
100
AcDbArc
 50
94.1252708293
 51
175.8747291707
  0
ARC
  5
707
100
AcDbEntity
  8
0
100
AcDbCircle
 62
250
  6
CONTINUOUS
 10
-0.0
 20
0.0
 40
10.4257359313
100
AcDbArc
 50
184.1252708293
 51
265.8747291707
  0
ARC
  5
708
100
AcDbEntity
  8
0
100
AcDbCircle
 62
250
  6
CONTINUOUS
 10
-0.0
 20
0.0
 40
10.4257359313
100
AcDbArc
 50
274.1252708293
 51
355.8747291707
  0
CIRCLE
  5
709
100
AcDbEntity
  8
RACCORDO
100
AcDbCircle
 62
250
  6
CONTINUOUS
 10
85.0
 20
0.0
 40
11.807864419
  0
CIRCLE
  5
70A
100
AcDbEntity
  8
RACCORDO
100
AcDbCircle
 62
7
  6
CONTINUOUS
 10
85.0
 20
0.0
 40
11.5078770275
  0
ARC
  5
70B
100
AcDbEntity
  8
0
100
AcDbCircle
 62
7
  6
CONTINUOUS
 10
85.0
 20
0.0
 40
11.5061088075
100
AcDbArc
 50
266.2626528724
 51
273.7373471276
  0
ARC
  5
70C
100
AcDbEntity
  8
0
100
AcDbCircle
 62
7
  6
CONTINUOUS
 10
85.0
 20
0.0
 40
11.5061088075
100
AcDbArc
 50
356.2626528724
 51
3.7373471276
  0
ARC
  5
70D
100
AcDbEntity
  8
0
100
AcDbCircle
 62
7
  6
CONTINUOUS
 10
85.0
 20
0.0
 40
11.5061088075
100
AcDbArc
 50
176.2626528724
 51
183.7373471276
  0
ARC
  5
70E
100
AcDbEntity
  8
0
100
AcDbCircle
 62
7
  6
CONTINUOUS
 10
85.0
 20
0.0
 40
11.5061088075
100
AcDbArc
 50
86.2626528724
 51
93.7373471276
  0
ARC
  5
70F
100
AcDbEntity
  8
0
100
AcDbCircle
 62
7
  6
CONTINUOUS
 10
85.0
 20
0.0
 40
11.5
100
AcDbArc
 50
93.7393352315
 51
176.2606647685
  0
ARC
  5
710
100
AcDbEntity
  8
0
100
AcDbCircle
 62
7
  6
CONTINUOUS
 10
85.0
 20
0.0
 40
11.5
100
AcDbArc
 50
3.7393352315
 51
86.2606647685
  0
ARC
  5
711
100
AcDbEntity
  8
0
100
AcDbCircle
 62
7
  6
CONTINUOUS
 10
85.0
 20
0.0
 40
11.5
100
AcDbArc
 50
273.7393352315
 51
356.2606647685
  0
ARC
  5
712
100
AcDbEntity
  8
0
100
AcDbCircle
 62
7
  6
CONTINUOUS
 10
85.0
 20
0.0
 40
11.5
100
AcDbArc
 50
183.7393352315
 51
266.2606647685
  0
ARC
  5
713
100
AcDbEntity
  8
0
100
AcDbCircle
 62
7
  6
CONTINUOUS
 10
85.0
 20
0.0
 40
11.25
100
AcDbArc
 50
273.8225537293
 51
356.1774462707
  0
ARC
  5
714
100
AcDbEntity
  8
0
100
AcDbCircle
 62
7
  6
CONTINUOUS
 10
85.0
 20
0.0
 40
11.25
100
AcDbArc
 50
183.8225537293
 51
266.1774462707
  0
ARC
  5
715
100
AcDbEntity
  8
0
100
AcDbCircle
 62
7
  6
CONTINUOUS
 10
85.0
 20
0.0
 40
11.25
100
AcDbArc
 50
93.8225537293
 51
176.1774462707
  0
ARC
  5
716
100
AcDbEntity
  8
0
100
AcDbCircle
 62
7
  6
CONTINUOUS
 10
85.0
 20
0.0
 40
11.25
100
AcDbArc
 50
3.8225537293
 51
86.1774462707
  0
ARC
  5
717
100
AcDbEntity
  8
0
100
AcDbCircle
 62
250
  6
CONTINUOUS
 10
85.0
 20
0.0
 40
10.6378679656
100
AcDbArc
 50
274.0428697094
 51
355.9571302906
  0
ARC
  5
718
100
AcDbEntity
  8
0
100
AcDbCircle
 62
250
  6
CONTINUOUS
 10
85.0
 20
0.0
 40
10.6378679656
100
AcDbArc
 50
184.0428697094
 51
265.9571302906
  0
ARC
  5
719
100
AcDbEntity
  8
0
100
AcDbCircle
 62
250
  6
CONTINUOUS
 10
85.0
 20
0.0
 40
10.6378679656
100
AcDbArc
 50
94.0428697094
 51
175.9571302906
  0
ARC
  5
71A
100
AcDbEntity
  8
0
100
AcDbCircle
 62
250
  6
CONTINUOUS
 10
85.0
 20
0.0
 40
10.6378679656
100
AcDbArc
 50
4.0428697094
 51
85.9571302906
  0
ARC
  5
71B
100
AcDbEntity
  8
0
100
AcDbCircle
 62
250
  6
CONTINUOUS
 10
85.0
 20
0.0
 40
10.4257359313
100
AcDbArc
 50
4.1252708293
 51
85.8747291707
  0
ARC
  5
71C
100
AcDbEntity
  8
0
100
AcDbCircle
 62
250
  6
CONTINUOUS
 10
85.0
 20
0.0
 40
10.4257359313
100
AcDbArc
 50
94.1252708293
 51
175.8747291707
  0
ARC
  5
71D
100
AcDbEntity
  8
0
100
AcDbCircle
 62
250
  6
CONTINUOUS
 10
85.0
 20
0.0
 40
10.4257359313
100
AcDbArc
 50
184.1252708293
 51
265.8747291707
  0
ARC
  5
71E
100
AcDbEntity
  8
0
100
AcDbCircle
 62
250
  6
CONTINUOUS
 10
85.0
 20
0.0
 40
10.4257359313
100
AcDbArc
 50
274.1252708293
 51
355.8747291707
  0
CIRCLE
  5
71F
100
AcDbEntity
  8
RACCORDO
100
AcDbCircle
 62
7
  6
CONTINUOUS
 10
62.3
 20
0.0
 40
4.8
  0
CIRCLE
  5
720
100
AcDbEntity
  8
RACCORDO
100
AcDbCircle
 62
250
  6
CONTINUOUS
 10
62.3
 20
0.0
 40
4.2999973391
  0
CIRCLE
  5
721
100
AcDbEntity
  8
RACCORDO
100
AcDbCircle
 62
7
  6
CONTINUOUS
 10
102.5
 20
26.5
 40
9.5
  0
CIRCLE
  5
722
100
AcDbEntity
  8
RACCORDO
100
AcDbCircle
 62
250
  6
CONTINUOUS
 10
102.5
 20
26.5
 40
8.999999123
  0
ARC
  5
723
100
AcDbEntity
  8
SUPERFICI
100
AcDbCircle
 62
7
  6
CONTINUOUS
 10
113.0
 20
35.5
 40
6.0000004289
100
AcDbArc
 50
0.0000165093
 51
89.9999807783
  0
ARC
  5
724
100
AcDbEntity
  8
DRAFT
100
AcDbCircle
 62
7
  6
CONTINUOUS
 10
113.0
 20
35.5
 40
6.0
100
AcDbArc
 50
0.0
 51
90.0
  0
ARC
  5
725
100
AcDbEntity
  8
0
100
AcDbCircle
 62
250
  6
CONTINUOUS
 10
113.0
 20
35.5
 40
5.3747431161
100
AcDbArc
 50
0.0
 51
90.0
  0
ARC
  5
726
100
AcDbEntity
  8
0
100
AcDbCircle
 62
7
  6
CONTINUOUS
 10
113.0
 20
35.5
 40
4.4751240074
100
AcDbArc
 50
0.0
 51
90.0
  0
ARC
  5
727
100
AcDbEntity
  8
DRAFT
100
AcDbCircle
 62
7
  6
CONTINUOUS
 10
113.0
 20
35.5
 40
4.2
100
AcDbArc
 50
0.0
 51
90.0
  0
CIRCLE
  5
728
100
AcDbEntity
  8
0
100
AcDbCircle
 62
7
  6
CONTINUOUS
 10
102.5
 20
26.5
 40
2.0
  0
CIRCLE
  5
729
100
AcDbEntity
  8
0
100
AcDbCircle
 62
7
  6
CONTINUOUS
 10
102.5
 20
26.5
 40
1.8
  0
ARC
  5
72A
100
AcDbEntity
  8
DRAFT
100
AcDbCircle
 62
7
  6
CONTINUOUS
 10
113.0
 20
35.5
 40
1.7757900259
100
AcDbArc
 50
180.0
 51
270.0
  0
CIRCLE
  5
72B
100
AcDbEntity
  8
0
100
AcDbCircle
 62
7
  6
CONTINUOUS
 10
102.5
 20
26.5
 40
1.5
  0
ARC
  5
72C
100
AcDbEntity
  8
DRAFT
100
AcDbCircle
 62
7
  6
CONTINUOUS
 10
113.0
 20
35.5
 40
1.5
100
AcDbArc
 50
180.0
 51
270.0
  0
ELLIPSE
  5
72D
100
AcDbEntity
  8
RACCORDO
100
AcDbEllipse
 62
7
  6
CONTINUOUS
 10
100.0413486316
 20
-39.9661069526
 30
0.0
 11
0.5
 21
0.0
 31
0.0
 40
0.0174550649
 41
-3.1241393611
 42
-1.5707963268
  0
ELLIPSE
  5
72E
100
AcDbEntity
  8
RACCORDO
100
AcDbEllipse
 62
7
  6
CONTINUOUS
 10
104.8586513684
 20
-39.9661069526
 30
0.0
 11
0.5
 21
0.0
 31
0.0
 40
0.0174550649
 41
-1.5707963268
 42
-0.0174532925
  0
ELLIPSE
  5
72F
100
AcDbEntity
  8
RACCORDO
100
AcDbEllipse
 62
7
  6
CONTINUOUS
 10
-100.0413486316
 20
39.9661069526
 30
0.0
 11
0.5
 21
0.0
 31
0.0
 40
0.0174550649
 41
0.0174532925
 42
1.5707963268
  0
ELLIPSE
  5
730
100
AcDbEntity
  8
RACCORDO
100
AcDbEllipse
 62
7
  6
CONTINUOUS
 10
-104.8586513684
 20
39.9661069526
 30
0.0
 11
0.5
 21
0.0
 31
0.0
 40
0.0174550649
 41
1.5707963268
 42
3.1241393611
  0
ELLIPSE
  5
731
100
AcDbEntity
  8
RACCORDO
100
AcDbEllipse
 62
7
  6
CONTINUOUS
 10
-117.4661069526
 20
-26.7913486316
 30
0.0
 11
-0.0
 21
0.5
 31
0.0
 40
0.0174550649
 41
0.0174532925
 42
1.5707963268
  0
ELLIPSE
  5
732
100
AcDbEntity
  8
RACCORDO
100
AcDbEllipse
 62
7
  6
CONTINUOUS
 10
-117.4661069526
 20
-31.6086513684
 30
0.0
 11
-0.0
 21
0.5
 31
0.0
 40
0.0174550649
 41
-4.7123889804
 42
-3.1590459461
  0
ELLIPSE
  5
733
100
AcDbEntity
  8
RACCORDO
100
AcDbEllipse
 62
7
  6
CONTINUOUS
 10
117.4661069526
 20
26.7913486316
 30
0.0
 11
-0.0
 21
0.5
 31
0.0
 40
0.0174550649
 41
-3.1241393611
 42
-1.5707963268
  0
ELLIPSE
  5
734
100
AcDbEntity
  8
RACCORDO
100
AcDbEllipse
 62
7
  6
CONTINUOUS
 10
117.4661069526
 20
31.6086513684
 30
0.0
 11
-0.0
 21
0.5
 31
0.0
 40
0.0174550649
 41
-1.5707963268
 42
-0.0174532925
  0
ELLIPSE
  5
735
100
AcDbEntity
  8
0
100
AcDbEllipse
 62
7
  6
CONTINUOUS
 10
111.245156052
 20
-39.6749258819
 30
0.0
 11
-0.0
 21
1.2
 31
0.0
 40
0.0174550649
 41
1.5707963268
 42
1.823647105
  0
ELLIPSE
  5
736
100
AcDbEntity
  8
0
100
AcDbEllipse
 62
7
  6
CONTINUOUS
 10
117.1749258819
 20
-33.745156052
 30
0.0
 11
1.2
 21
-0.0
 31
0.0
 40
0.0174550649
 41
1.3179455486
 42
1.5707963268
  0
ELLIPSE
  5
737
100
AcDbEntity
  8
0
100
AcDbEllipse
 62
7
  6
CONTINUOUS
 10
117.1749258819
 20
33.7451560521
 30
0.0
 11
1.2
 21
0.0
 31
0.0
 40
0.0174550649
 41
-1.5707963268
 42
-1.3179455486
  0
ELLIPSE
  5
738
100
AcDbEntity
  8
0
100
AcDbEllipse
 62
7
  6
CONTINUOUS
 10
111.245156052
 20
39.6749258819
 30
0.0
 11
0.0
 21
1.2
 31
0.0
 40
0.0174550649
 41
1.3179455486
 42
1.5707963268
  0
ELLIPSE
  5
739
100
AcDbEntity
  8
0
100
AcDbEllipse
 62
7
  6
CONTINUOUS
 10
-117.1749258819
 20
-33.745156052
 30
0.0
 11
1.2
 21
-0.0
 31
0.0
 40
0.0174550649
 41
1.5707963268
 42
1.823647105
  0
ELLIPSE
  5
73A
100
AcDbEntity
  8
0
100
AcDbEllipse
 62
7
  6
CONTINUOUS
 10
-111.245156052
 20
-39.6749258819
 30
0.0
 11
0.0
 21
1.2
 31
0.0
 40
0.0174550649
 41
-1.823647105
 42
-1.5707963268
  0
ELLIPSE
  5
73B
100
AcDbEntity
  8
0
100
AcDbEllipse
 62
7
  6
CONTINUOUS
 10
-111.245156052
 20
39.6749258819
 30
0.0
 11
0.0
 21
1.2
 31
0.0
 40
0.0174550649
 41
-1.5707963268
 42
-1.3179455486
  0
ELLIPSE
  5
73C
100
AcDbEntity
  8
0
100
AcDbEllipse
 62
7
  6
CONTINUOUS
 10
-117.1749258819
 20
33.7451560521
 30
0.0
 11
1.2
 21
-0.0
 31
0.0
 40
0.0174550649
 41
-1.823647105
 42
-1.5707963268
  0
ENDSEC
  0
SECTION
  2
OBJECTS
  0
DICTIONARY
  5
C
100
AcDbDictionary
280
0
281
1
  3
ACAD_GROUP
350
D
  3
ACAD_MLINESTYLE
350
17
  3
ACAD_LAYOUT
350
1A
  3
ACAD_PLOTSETTINGS
350
19
  3
ACAD_PLOTSTYLENAME
350
E
  0
DICTIONARY
  5
D
102
{ACAD_REACTORS
330
C
102
}
100
AcDbDictionary
280
0
281
1
  0
ACDBDICTIONARYWDFLT
  5
E
102
{ACAD_REACTORS
330
C
102
}
100
AcDbDictionary
281
1
  3
Normal
350
F
100
AcDbDictionaryWithDefault
340
F
  0
DICTIONARY
  5
17
102
{ACAD_REACTORS
330
C
102
}
100
AcDbDictionary
280
0
281
1
  3
Standard
350
18
  0
DICTIONARY
  5
19
102
{ACAD_REACTORS
330
C
102
}
100
AcDbDictionary
281
1
  0
DICTIONARY
  5
1A
102
{ACAD_REACTORS
330
C
102
}
100
AcDbDictionary
281
1
  3
Model
350
73D
  3
Layout1
350
73E
  0
ACDBPLACEHOLDER
  5
F
102
{ACAD_REACTORS
330
E
102
}
  0
MLINESTYLE
  5
18
102
{ACAD_REACTORS
330
17
102
}
100
AcDbMlineStyle
  2
STANDARD
 70
0
  3

 62
256
 51
90.0
 52
90.0
 71
2
 49
0.5
 62
256
  6
BYLAYER
 49
-0.5
 62
256
  6
BYLAYER
  0
LAYOUT
  5
73D
102
{ACAD_REACTORS
330
1A
102
}
100
AcDbPlotSettings
  1

  2
none_device
  4
ISO_A4_(297.00_x_210.00_MM)
  6

 40
0.0
 41
0.0
 42
0.0
 43
0.0
 44
297.0
 45
210.0
 46
0.0
 47
0.0
 48
0.0
 49
0.0
140
0.0
141
0.0
142
1.0
143
1.0
 70
1024
 72
1
 73
0
 74
0
  7

 75
0
147
1.0
148
0.0
149
0.0
100
AcDbLayout
  1
Model
 70
0
 71
0
 10
0.0
 20
0.0
 11
297.0
 21
210.0
 12
0.0
 22
0.0
 32
0.0
 14
0.0
 24
0.0
 34
0.0
 15
0.0
 25
0.0
 35
0.0
146
0.0
 13
0.0
 23
0.0
 33
0.0
 16
1.0
 26
0.0
 36
0.0
 17
0.0
 27
1.0
 37
0.0
 76
0
330
218
345
0
346
0
  0
LAYOUT
  5
73E
102
{ACAD_REACTORS
330
1A
102
}
100
AcDbPlotSettings
  1

  2
none_device
  4
ISO_A4_(297.00_x_210.00_MM)
  6

 40
0.0
 41
0.0
 42
0.0
 43
0.0
 44
297.0
 45
210.0
 46
0.0
 47
0.0
 48
0.0
 49
0.0
140
0.0
141
0.0
142
1.0
143
1.0
 70
0
 72
1
 73
0
 74
0
  7

 75
0
147
1.0
148
0.0
149
0.0
100
AcDbLayout
  1
Layout1
 70
0
 71
1
 10
0.0
 20
0.0
 11
297.0
 21
210.0
 12
0.0
 22
0.0
 32
0.0
 14
0.0
 24
0.0
 34
0.0
 15
0.0
 25
0.0
 35
0.0
146
0.0
 13
0.0
 23
0.0
 33
0.0
 16
1.0
 26
0.0
 36
0.0
 17
0.0
 27
1.0
 37
0.0
 76
0
330
219
345
0
346
0
  0
ENDSEC
  0
EOF
