  0
SECTION
  2
HEADER
  9
$ACADVER
  1
AC1024
  9
$DWGCODEPAGE
  3
ANSI_1252
  9
$EXTMAX
 10
297.0
 20
210.0
 30
0.0
  9
$EXTMIN
 10
0.0
 20
0.0
 30
0.0
  9
$LIMMIN
 10
0.0
 20
0.0
  9
$LIMMAX
 10
297.0
 20
210.0
  9
$VIEWCTR
 10
148.5
 20
105.0
  9
$VIEWSIZE
 40
210.0
  9
$CLAYER
  8
0
  9
$LTSCALE
 40
16.335
  9
$CELTYPE
  6
BYLAYER
  9
$DIMSCALE
 40
1.0
  9
$DIMASZ
 40
3.0
  9
$DIMEXO
 40
0.5
  9
$DIMDLI
 40
11.286
  9
$DIMEXE
 40
1.5
  9
$DIMCEN
 40
2.673
  9
$DIMLFAC
 40
1.0
  9
$DIMBLK
  1
_FILLED
  9
$DIMALT
 70
0
  9
$DIMALTF
 40
0.0393700787
  9
$DIMTXT
 40
3.0
  9
$DIMTOL
 70
1
  9
$DIMLIM
 70
0
  9
$DIMTFAC
 40
1.0
  9
$DIMTP
 40
0.01
  9
$DIMTM
 40
0.01
  9
$DIMGAP
 40
0.625
  9
$DIMDSEP
 70
44
  9
$AUNITS
 70
0
  9
$PDMODE
 70
3
  9
$PDSIZE
 40
3.0
  9
$HANDSEED
  5
49A
  9
$TILEMODE
 70
1
  9
$MEASUREMENT
 70
1
  9
$INSUNITS
 70
4
  0
ENDSEC
  0
SECTION
  2
CLASSES
  0
CLASS
  1
ACDBDICTIONARYWDFLT
  2
AcDbDictionaryWithDefault
  3
AutoCAD 2000
 90
0
 91
1
280
0
281
0
  0
CLASS
  1
ACDBPLACEHOLDER
  2
AcDbPlaceHolder
  3
AutoCAD 2000
 90
0
 91
1
280
0
281
0
  0
CLASS
  1
LAYOUT
  2
AcDbLayout
  3
AutoCAD 2000
 90
0
 91
0
280
0
281
0
  0
ENDSEC
  0
SECTION
  2
TABLES
  0
TABLE
  2
VPORT
  5
8
100
AcDbSymbolTable
 70
2
  0
VPORT
  5
1F4
100
AcDbSymbolTableRecord
100
AcDbViewportTableRecord
  2
*ACTIVE
 70
0
 10
0.0
 20
0.0
 11
1.0
 21
1.0
 12
148.5
 22
105.0
 13
0.0
 23
0.0
 14
1.0
 24
1.0
 15
0.0
 25
0.0
 16
0.0
 26
0.0
 36
1.0
 17
0.0
 27
0.0
 37
0.0
 40
210.0
 41
1.4142857143
 42
50.0
 43
0.0
 44
0.0
 50
0.0
 51
0.0
 71
0
 72
100
 73
1
 74
1
 75
0
 76
0
 77
0
 78
0
  0
ENDTAB
  0
TABLE
  2
LTYPE
  5
5
100
AcDbSymbolTable
 70
6
  0
LTYPE
  5
14
100
AcDbSymbolTableRecord
100
AcDbLinetypeTableRecord
  2
BYBLOCK
 70
0
  3

 72
65
 73
0
 40
0.0
  0
LTYPE
  5
15
100
AcDbSymbolTableRecord
100
AcDbLinetypeTableRecord
  2
BYLAYER
 70
0
  3

 72
65
 73
0
 40
0.0
  0
LTYPE
  5
16
100
AcDbSymbolTableRecord
100
AcDbLinetypeTableRecord
  2
CONTINUOUS
 70
64
  3
Solid line
 72
65
 73
0
 40
0.0
  0
LTYPE
  5
1F5
100
AcDbSymbolTableRecord
100
AcDbLinetypeTableRecord
  2
CENTER
 70
64
  3
____ _ ____ _ ____ _ ____ _ ____ _ ____ _ ____
 72
65
 73
4
 40
0.6
 49
0.375
 74
0
 49
-0.075
 74
0
 49
0.075
 74
0
 49
-0.075
 74
0
  0
LTYPE
  5
1F6
100
AcDbSymbolTableRecord
100
AcDbLinetypeTableRecord
  2
HIDDEN
 70
64
  3
- - - - - - - - - - - - - - - - - - - -
 72
65
 73
2
 40
0.2
 49
0.1
 74
0
 49
-0.1
 74
0
  0
LTYPE
  5
1F7
100
AcDbSymbolTableRecord
100
AcDbLinetypeTableRecord
  2
PHANTOM
 70
64
  3
_____ _ _ _____ _ _ _____ _ _ _____
 72
65
 73
6
 40
0.8
 49
0.45
 74
0
 49
-0.05
 74
0
 49
0.1
 74
0
 49
-0.05
 74
0
 49
0.1
 74
0
 49
-0.05
 74
0
  0
LTYPE
  5
1F8
100
AcDbSymbolTableRecord
100
AcDbLinetypeTableRecord
  2
DOT
 70
64
  3
. . . . . . . . . . . . . . . . . . . .
 72
65
 73
2
 40
0.2
 49
0.1
 74
0
 49
-0.1
 74
0
  0
LTYPE
  5
1F9
100
AcDbSymbolTableRecord
100
AcDbLinetypeTableRecord
  2
DASHED
 70
64
  3
- - - - - - - - - - - - - - - - - - - -
 72
65
 73
2
 40
0.2
 49
0.1
 74
0
 49
-0.1
 74
0
  0
ENDTAB
  0
TABLE
  2
LAYER
  5
2
100
AcDbSymbolTable
 70
36
  0
LAYER
  5
10
100
AcDbSymbolTableRecord
100
AcDbLayerTableRecord
  2
0
 70
0
 62
7
  6
CONTINUOUS
370
-3
390
F
  0
LAYER
  5
1FA
100
AcDbSymbolTableRecord
100
AcDbLayerTableRecord
  2
DEFAULT_1
 70
0
 62
7
  6
CENTER
370
-3
390
F
  0
LAYER
  5
1FB
100
AcDbSymbolTableRecord
100
AcDbLayerTableRecord
  2
DEFAULT_2
 70
0
 62
7
  6
HIDDEN
370
-3
390
F
  0
LAYER
  5
1FC
100
AcDbSymbolTableRecord
100
AcDbLayerTableRecord
  2
DEFAULT_3
 70
0
 62
7
  6
PHANTOM
370
-3
390
F
  0
LAYER
  5
1FD
100
AcDbSymbolTableRecord
100
AcDbLayerTableRecord
  2
ASSI
 70
0
 62
7
  6
CONTINUOUS
370
-3
390
F
  0
LAYER
  5
1FE
100
AcDbSymbolTableRecord
100
AcDbLayerTableRecord
  2
COLOR5
 70
0
 62
7
  6
CONTINUOUS
370
-3
390
F
  0
LAYER
  5
1FF
100
AcDbSymbolTableRecord
100
AcDbLayerTableRecord
  2
COORDINATE
 70
0
 62
7
  6
CONTINUOUS
370
-3
390
F
  0
LAYER
  5
200
100
AcDbSymbolTableRecord
100
AcDbLayerTableRecord
  2
COORD_ORIGINE
 70
0
 62
7
  6
CONTINUOUS
370
-3
390
F
  0
LAYER
  5
201
100
AcDbSymbolTableRecord
100
AcDbLayerTableRecord
  2
CURVE
 70
0
 62
7
  6
CONTINUOUS
370
-3
390
F
  0
LAYER
  5
202
100
AcDbSymbolTableRecord
100
AcDbLayerTableRecord
  2
DRAFT
 70
0
 62
7
  6
CONTINUOUS
370
-3
390
F
  0
LAYER
  5
203
100
AcDbSymbolTableRecord
100
AcDbLayerTableRecord
  2
IMPORT_FEATURE
 70
0
 62
7
  6
CONTINUOUS
370
-3
390
F
  0
LAYER
  5
204
100
AcDbSymbolTableRecord
100
AcDbLayerTableRecord
  2
IMPORT_IGES
 70
0
 62
7
  6
CONTINUOUS
370
-3
390
F
  0
LAYER
  5
205
100
AcDbSymbolTableRecord
100
AcDbLayerTableRecord
  2
IMPORT_IGS
 70
0
 62
7
  6
CONTINUOUS
370
-3
390
F
  0
LAYER
  5
206
100
AcDbSymbolTableRecord
100
AcDbLayerTableRecord
  2
INTF_1
 70
0
 62
7
  6
CONTINUOUS
370
-3
390
F
  0
LAYER
  5
207
100
AcDbSymbolTableRecord
100
AcDbLayerTableRecord
  2
INTF_7
 70
0
 62
7
  6
CONTINUOUS
370
-3
390
F
  0
LAYER
  5
208
100
AcDbSymbolTableRecord
100
AcDbLayerTableRecord
  2
NOTE
 70
0
 62
7
  6
CONTINUOUS
370
-3
390
F
  0
LAYER
  5
209
100
AcDbSymbolTableRecord
100
AcDbLayerTableRecord
  2
PIANI
 70
0
 62
7
  6
CONTINUOUS
370
-3
390
F
  0
LAYER
  5
20A
100
AcDbSymbolTableRecord
100
AcDbLayerTableRecord
  2
PIANI_ORIGINE
 70
0
 62
7
  6
CONTINUOUS
370
-3
390
F
  0
LAYER
  5
20B
100
AcDbSymbolTableRecord
100
AcDbLayerTableRecord
  2
PUNTI
 70
0
 62
7
  6
CONTINUOUS
370
-3
390
F
  0
LAYER
  5
20C
100
AcDbSymbolTableRecord
100
AcDbLayerTableRecord
  2
RACCORDO
 70
0
 62
7
  6
CONTINUOUS
370
-3
390
F
  0
LAYER
  5
20D
100
AcDbSymbolTableRecord
100
AcDbLayerTableRecord
  2
RGB__255__255__255__
 70
0
 62
7
  6
CONTINUOUS
370
-3
390
F
  0
LAYER
  5
20E
100
AcDbSymbolTableRecord
100
AcDbLayerTableRecord
  2
RGB____0____0____0__
 70
0
 62
7
  6
CONTINUOUS
370
-3
390
F
  0
LAYER
  5
20F
100
AcDbSymbolTableRecord
100
AcDbLayerTableRecord
  2
SKEL
 70
0
 62
7
  6
CONTINUOUS
370
-3
390
F
  0
LAYER
  5
210
100
AcDbSymbolTableRecord
100
AcDbLayerTableRecord
  2
SMUSSO
 70
0
 62
7
  6
CONTINUOUS
370
-3
390
F
  0
LAYER
  5
211
100
AcDbSymbolTableRecord
100
AcDbLayerTableRecord
  2
SNAPLINE
 70
0
 62
7
  6
CONTINUOUS
370
-3
390
F
  0
LAYER
  5
212
100
AcDbSymbolTableRecord
100
AcDbLayerTableRecord
  2
SUPERFICI
 70
0
 62
7
  6
CONTINUOUS
370
-3
390
F
  0
LAYER
  5
213
100
AcDbSymbolTableRecord
100
AcDbLayerTableRecord
  2
TRASH
 70
0
 62
7
  6
CONTINUOUS
370
-3
390
F
  0
LAYER
  5
214
100
AcDbSymbolTableRecord
100
AcDbLayerTableRecord
  2
XSEC_DATUMS
 70
0
 62
7
  6
CONTINUOUS
370
-3
390
F
  0
LAYER
  5
215
100
AcDbSymbolTableRecord
100
AcDbLayerTableRecord
  2
___SHELL
 70
0
 62
7
  6
CONTINUOUS
370
-3
390
F
  0
ENDTAB
  0
TABLE
  2
STYLE
  5
3
100
AcDbSymbolTable
 70
1
  0
STYLE
  5
11
100
AcDbSymbolTableRecord
100
AcDbTextStyleTableRecord
  2
STANDARD
 70
0
 40
0.0
 41
0.8
 50
0.0
 71
0
 42
0.2
  3
txt
  4

  0
STYLE
  5
216
100
AcDbSymbolTableRecord
100
AcDbTextStyleTableRecord
  2
TEXTSTYLE_1
 70
0
 40
0.0
 41
0.8
 50
0.0
 71
0
 42
0.2
  3
gdt
  4

  0
ENDTAB
  0
TABLE
  2
VIEW
  5
6
100
AcDbSymbolTable
 70
0
  0
ENDTAB
  0
TABLE
  2
UCS
  5
7
100
AcDbSymbolTable
 70
0
  0
ENDTAB
  0
TABLE
  2
APPID
  5
9
100
AcDbSymbolTable
 70
1
  0
APPID
  5
217
100
AcDbSymbolTableRecord
100
AcDbRegAppTableRecord
  2
ACAD
 70
0
  0
ENDTAB
  0
TABLE
  2
BLOCK_RECORD
  5
1
100
AcDbSymbolTable
 70
0
  0
BLOCK_RECORD
  5
218
100
AcDbSymbolTableRecord
100
AcDbBlockTableRecord
  2
*Model_Space
  0
BLOCK_RECORD
  5
219
100
AcDbSymbolTableRecord
100
AcDbBlockTableRecord
  2
*Paper_Space
  0
BLOCK_RECORD
  5
21A
100
AcDbSymbolTableRecord
100
AcDbBlockTableRecord
  2
_FILLED
  0
ENDTAB
  0
TABLE
  2
DIMSTYLE
  5
A
100
AcDbSymbolTable
 70
1
100
AcDbDimStyleTable
 71
0
  0
DIMSTYLE
105
21B
100
AcDbSymbolTableRecord
100
AcDbDimStyleTableRecord
  2
STANDARD
 70
0
  3

  4

 40
1.0
 41
3.0
 42
0.5
 43
0.38
 44
1.5
 45
0.0
 46
0.0
 47
0.01
 48
0.01
140
3.0
141
0.09
142
0.0
143
25.4
144
1.0
145
0.0
146
1.0
147
0.625
 71
1.0
 72
0.0
 73
0
 74
0
 75
0
 76
0
 77
1
 78
8
 79
2
170
0
171
1
172
0
173
0
174
0
175
0
176
0
177
0
178
0
270
2
179
2
271
2
272
2
273
2
274
2
275
0
280
0
281
0
282
0
283
1
284
8
285
0
286
0
287
3
288
0
340
11
278
44
341
21A
342
21A
343
21A
344
21A
  0
ENDTAB
  0
ENDSEC
  0
SECTION
  2
BLOCKS
  0
BLOCK
  5
20
100
AcDbEntity
  8
0
100
AcDbBlockBegin
  2
*Model_Space
 70
0
 10
0.0
 20
0.0
 30
0.0
  3
*Model_Space
  1

  0
ENDBLK
  5
21
100
AcDbEntity
  8
0
100
AcDbBlockEnd
  0
BLOCK
  5
1C
100
AcDbEntity
  8
0
100
AcDbBlockBegin
  2
*Paper_Space
 70
0
 10
0.0
 20
0.0
 30
0.0
  3
*Paper_Space
  1

  0
ENDBLK
  5
1D
100
AcDbEntity
  8
0
100
AcDbBlockEnd
  0
BLOCK
  5
21C
100
AcDbEntity
  8
0
100
AcDbBlockBegin
  2
_FILLED
 70
64
 10
0.0
 20
0.0
  3
_FILLED
  1

  0
SOLID
  5
21D
100
AcDbEntity
  8
0
  6
BYBLOCK
 62
0
100
AcDbTrace
 10
0.0
 20
0.0
 11
-1.0
 21
0.3166666667
 12
-1.0
 22
-0.3166666667
 13
-1.0
 23
-0.3166666667
  0
ENDBLK
  5
21E
100
AcDbEntity
  8
0
  6
BYBLOCK
 62
0
100
AcDbBlockEnd
  0
ENDSEC
  0
SECTION
  2
ENTITIES
  0
LINE
  5
21F
100
AcDbEntity
  8
SUPERFICI
100
AcDbLine
 62
7
  6
CONTINUOUS
 10
-170.0000003491
 20
35.5000000145
 11
-170.0000003491
 21
-35.5000000243
  0
LINE
  5
220
100
AcDbEntity
  8
DRAFT
100
AcDbLine
 62
7
  6
CONTINUOUS
 10
-170.0
 20
35.5
 11
-170.0
 21
-35.5
  0
LINE
  5
221
100
AcDbEntity
  8
RACCORDO
100
AcDbLine
 62
250
  6
CONTINUOUS
 10
-169.4639771903
 20
-26.7913486316
 11
-169.4639771903
 21
-31.6086513684
  0
LINE
  5
222
100
AcDbEntity
  8
RACCORDO
100
AcDbLine
 62
250
  6
CONTINUOUS
 10
-169.3747431161
 20
35.5
 11
-169.3747431161
 21
-25.7194172943
  0
LINE
  5
223
100
AcDbEntity
  8
RACCORDO
100
AcDbLine
 62
250
  6
CONTINUOUS
 10
-169.3747431161
 20
-32.6805827057
 11
-169.3747431161
 21
-35.5
  0
LINE
  5
224
100
AcDbEntity
  8
RACCORDO
100
AcDbLine
 62
250
  6
CONTINUOUS
 10
-168.9640533427
 20
-26.7913486316
 11
-168.9640533427
 21
-31.6086513684
  0
LINE
  5
225
100
AcDbEntity
  8
0
100
AcDbLine
 62
7
  6
CONTINUOUS
 10
-168.4751240074
 20
35.5
 11
-168.4751240074
 21
33.7248759926
  0
LINE
  5
226
100
AcDbEntity
  8
0
100
AcDbLine
 62
7
  6
CONTINUOUS
 10
-168.4751240074
 20
-33.7248759926
 11
-168.4751240074
 21
-35.5
  0
LINE
  5
227
100
AcDbEntity
  8
RACCORDO
100
AcDbLine
 62
7
  6
CONTINUOUS
 10
-168.4748344851
 20
-26.7913486316
 11
-168.4748344851
 21
-31.6086513684
  0
LINE
  5
228
100
AcDbEntity
  8
RACCORDO
100
AcDbLine
 62
250
  6
CONTINUOUS
 10
-168.3821703245
 20
-26.2064316543
 11
-168.3821703245
 21
-32.1935683455
  0
LINE
  5
229
100
AcDbEntity
  8
DRAFT
100
AcDbLine
 62
7
  6
CONTINUOUS
 10
-168.2
 20
-35.5
 11
-168.2
 21
-34.0
  0
LINE
  5
22A
100
AcDbEntity
  8
DRAFT
100
AcDbLine
 62
7
  6
CONTINUOUS
 10
-168.2
 20
34.0
 11
-168.2
 21
35.5
  0
LINE
  5
22B
100
AcDbEntity
  8
RACCORDO
100
AcDbLine
 62
250
  6
CONTINUOUS
 10
-168.1749258623
 20
-26.0000749007
 11
-168.1749258819
 21
33.7242099741
  0
LINE
  5
22C
100
AcDbEntity
  8
RACCORDO
100
AcDbLine
 62
250
  6
CONTINUOUS
 10
-168.1749258628
 20
-32.399925098
 11
-168.1749258819
 21
-33.7242099741
  0
LINE
  5
22D
100
AcDbEntity
  8
RACCORDO
100
AcDbLine
 62
250
  6
CONTINUOUS
 10
-167.8822464769
 20
-25.7074119919
 11
-167.8822464769
 21
-32.6925880081
  0
LINE
  5
22E
100
AcDbEntity
  8
DRAFT
100
AcDbLine
 62
250
  6
CONTINUOUS
 10
-164.0
 20
34.0
 11
-164.0
 21
33.7242099741
  0
LINE
  5
22F
100
AcDbEntity
  8
DRAFT
100
AcDbLine
 62
250
  6
CONTINUOUS
 10
-164.0
 20
-34.0
 11
-164.0
 21
-33.7242099741
  0
LINE
  5
230
100
AcDbEntity
  8
0
100
AcDbLine
 62
250
  6
CONTINUOUS
 10
-164.0
 20
-39.7
 11
-164.0
 21
-41.5
  0
LINE
  5
231
100
AcDbEntity
  8
0
100
AcDbLine
 62
250
  6
CONTINUOUS
 10
-164.0
 20
39.7
 11
-164.0
 21
41.5
  0
LINE
  5
232
100
AcDbEntity
  8
DRAFT
100
AcDbLine
 62
7
  6
CONTINUOUS
 10
-162.5
 20
39.7
 11
-162.5
 21
35.5
  0
LINE
  5
233
100
AcDbEntity
  8
DRAFT
100
AcDbLine
 62
7
  6
CONTINUOUS
 10
-162.5
 20
-35.5
 11
-162.5
 21
-39.7
  0
LINE
  5
234
100
AcDbEntity
  8
0
100
AcDbLine
 62
7
  6
CONTINUOUS
 10
-162.2242099741
 20
39.6749258819
 11
-162.2242099741
 21
35.5
  0
LINE
  5
235
100
AcDbEntity
  8
0
100
AcDbLine
 62
7
  6
CONTINUOUS
 10
-162.2242099741
 20
-35.5
 11
-162.2242099741
 21
-39.6749258819
  0
LINE
  5
236
100
AcDbEntity
  8
0
100
AcDbLine
 62
7
  6
CONTINUOUS
 10
-157.2
 20
1.4375
 11
-157.2
 21
1.3125001192
  0
LINE
  5
237
100
AcDbEntity
  8
0
100
AcDbLine
 62
7
  6
CONTINUOUS
 10
-157.2
 20
-0.3750000596
 11
-157.2
 21
-2.5
  0
LINE
  5
238
100
AcDbEntity
  8
RACCORDO
100
AcDbLine
 62
250
  6
CONTINUOUS
 10
-156.9425880081
 20
39.6749258819
 11
-156.9425880081
 21
39.382246477
  0
LINE
  5
239
100
AcDbEntity
  8
0
100
AcDbLine
 62
7
  6
CONTINUOUS
 10
-156.8808511019
 20
-2.1875000074
 11
-156.8808511019
 21
-0.3750000596
  0
LINE
  5
23A
100
AcDbEntity
  8
0
100
AcDbLine
 62
7
  6
CONTINUOUS
 10
-156.8808511019
 20
1.25
 11
-156.8808511019
 21
1.5000001192
  0
LINE
  5
23B
100
AcDbEntity
  8
0
100
AcDbLine
 62
7
  6
CONTINUOUS
 10
-156.4978724241
 20
0.3125
 11
-156.4978724241
 21
0.6249998808
  0
LINE
  5
23C
100
AcDbEntity
  8
RACCORDO
100
AcDbLine
 62
250
  6
CONTINUOUS
 10
-156.358575216
 20
39.9662592691
 11
-156.358575216
 21
40.4469029106
  0
LINE
  5
23D
100
AcDbEntity
  8
0
100
AcDbLine
 62
7
  6
CONTINUOUS
 10
-156.1148935676
 20
-1.1875
 11
-156.1148935676
 21
-1.5625
  0
LINE
  5
23E
100
AcDbEntity
  8
0
100
AcDbLine
 62
7
  6
CONTINUOUS
 10
-155.8595744491
 20
1.5000001192
 11
-155.8595744491
 21
1.25
  0
LINE
  5
23F
100
AcDbEntity
  8
RACCORDO
100
AcDbLine
 62
250
  6
CONTINUOUS
 10
-155.8586513684
 20
39.9748344851
 11
-155.8586513685
 21
40.9639771903
  0
LINE
  5
240
100
AcDbEntity
  8
0
100
AcDbLine
 62
7
  6
CONTINUOUS
 10
-155.7957446694
 20
-1.5625
 11
-155.7957446694
 21
-1.1875
  0
LINE
  5
241
100
AcDbEntity
  8
0
100
AcDbLine
 62
7
  6
CONTINUOUS
 10
-155.6042553306
 20
1.25
 11
-155.6042553306
 21
1.5000001192
  0
LINE
  5
242
100
AcDbEntity
  8
0
100
AcDbLine
 62
7
  6
CONTINUOUS
 10
-155.5404255509
 20
-2.5
 11
-155.5404255509
 21
-2.0625000149
  0
LINE
  5
243
100
AcDbEntity
  8
0
100
AcDbLine
 62
7
  6
CONTINUOUS
 10
-154.9659574449
 20
-2.125
 11
-154.9659574449
 21
-2.5
  0
LINE
  5
244
100
AcDbEntity
  8
0
100
AcDbLine
 62
7
  6
CONTINUOUS
 10
-154.9021276653
 20
0.5625001192
 11
-154.9021276653
 21
0.2500000596
  0
LINE
  5
245
100
AcDbEntity
  8
0
100
AcDbLine
 62
7
  6
CONTINUOUS
 10
-154.5191489428
 20
1.5624998808
 11
-154.5191489428
 21
1.1874998808
  0
LINE
  5
246
100
AcDbEntity
  8
0
100
AcDbLine
 62
7
  6
CONTINUOUS
 10
-154.5191489428
 20
-1.1875
 11
-154.5191489428
 21
-1.5625
  0
LINE
  5
247
100
AcDbEntity
  8
0
100
AcDbLine
 62
7
  6
CONTINUOUS
 10
-154.2
 20
-1.5625
 11
-154.2
 21
-1.1875
  0
LINE
  5
248
100
AcDbEntity
  8
0
100
AcDbLine
 62
7
  6
CONTINUOUS
 10
-154.2
 20
1.1250001192
 11
-154.2
 21
1.625
  0
LINE
  5
249
100
AcDbEntity
  8
0
100
AcDbLine
 62
7
  6
CONTINUOUS
 10
-153.6
 20
-16.0
 11
-153.6
 21
16.0
  0
LINE
  5
24A
100
AcDbEntity
  8
0
100
AcDbLine
 62
7
  6
CONTINUOUS
 10
-153.4
 20
16.0
 11
-153.4
 21
-16.0
  0
LINE
  5
24B
100
AcDbEntity
  8
RACCORDO
100
AcDbLine
 62
250
  6
CONTINUOUS
 10
-151.0413486316
 20
39.9748344851
 11
-151.0413486316
 21
40.9639771903
  0
LINE
  5
24C
100
AcDbEntity
  8
RACCORDO
100
AcDbLine
 62
250
  6
CONTINUOUS
 10
-150.541424784
 20
40.4469029106
 11
-150.541424784
 21
39.9662592691
  0
LINE
  5
24D
100
AcDbEntity
  8
0
100
AcDbLine
 62
7
  6
CONTINUOUS
 10
-157.1361702204
 20
1.8750001192
 11
-157.2
 21
1.4375
  0
LINE
  5
24E
100
AcDbEntity
  8
0
100
AcDbLine
 62
7
  6
CONTINUOUS
 10
-155.6042553306
 20
1.5000001192
 11
-155.5404255509
 21
1.8750001192
  0
LINE
  5
24F
100
AcDbEntity
  8
0
100
AcDbLine
 62
7
  6
CONTINUOUS
 10
-156.8808511019
 20
1.5000001192
 11
-156.8170213223
 21
1.8125
  0
LINE
  5
250
100
AcDbEntity
  8
0
100
AcDbLine
 62
7
  6
CONTINUOUS
 10
-156.0510637879
 20
-0.8749999404
 11
-156.1148935676
 21
-1.1875
  0
LINE
  5
251
100
AcDbEntity
  8
0
100
AcDbLine
 62
7
  6
CONTINUOUS
 10
-154.5191489428
 20
1.1874998808
 11
-154.5829787225
 21
0.875
  0
LINE
  5
252
100
AcDbEntity
  8
0
100
AcDbLine
 62
7
  6
CONTINUOUS
 10
-154.2638297852
 20
-1.8750000149
 11
-154.2
 21
-1.5625
  0
LINE
  5
253
100
AcDbEntity
  8
0
100
AcDbLine
 62
7
  6
CONTINUOUS
 10
-155.7957446694
 20
-1.1875
 11
-155.7319148898
 21
-0.9375000596
  0
LINE
  5
254
100
AcDbEntity
  8
0
100
AcDbLine
 62
7
  6
CONTINUOUS
 10
-155.7319148898
 20
-1.8124999851
 11
-155.7957446694
 21
-1.5625
  0
LINE
  5
255
100
AcDbEntity
  8
0
100
AcDbLine
 62
7
  6
CONTINUOUS
 10
-156.8170213223
 20
0.9375001192
 11
-156.8808511019
 21
1.25
  0
LINE
  5
256
100
AcDbEntity
  8
0
100
AcDbLine
 62
7
  6
CONTINUOUS
 10
-156.1148935676
 20
-1.5625
 11
-156.0510637879
 21
-1.8750000149
  0
LINE
  5
257
100
AcDbEntity
  8
0
100
AcDbLine
 62
7
  6
CONTINUOUS
 10
-154.2
 20
-1.1875
 11
-154.2638297852
 21
-0.8749999404
  0
LINE
  5
258
100
AcDbEntity
  8
0
100
AcDbLine
 62
7
  6
CONTINUOUS
 10
-154.5829787225
 20
1.8750001192
 11
-154.5191489428
 21
1.5624998808
  0
LINE
  5
259
100
AcDbEntity
  8
0
100
AcDbLine
 62
7
  6
CONTINUOUS
 10
-157.2
 20
1.3125001192
 11
-157.1361702204
 21
0.875
  0
LINE
  5
25A
100
AcDbEntity
  8
RACCORDO
100
AcDbLine
 62
250
  6
CONTINUOUS
 10
-149.9574119919
 20
39.382246477
 11
-149.9574119919
 21
39.6749258819
  0
LINE
  5
25B
100
AcDbEntity
  8
0
100
AcDbLine
 62
7
  6
CONTINUOUS
 10
-143.0
 20
26.4
 11
-143.0
 21
26.6
  0
LINE
  5
25C
100
AcDbEntity
  8
0
100
AcDbLine
 62
7
  6
CONTINUOUS
 10
-154.2638297852
 20
0.875
 11
-154.2
 21
1.1250001192
  0
LINE
  5
25D
100
AcDbEntity
  8
0
100
AcDbLine
 62
7
  6
CONTINUOUS
 10
-154.5191489428
 20
-1.5625
 11
-154.5829787225
 21
-1.8124999851
  0
LINE
  5
25E
100
AcDbEntity
  8
0
100
AcDbLine
 62
7
  6
CONTINUOUS
 10
-155.6042553306
 20
2.3124998808
 11
-155.7319148898
 21
2.0
  0
LINE
  5
25F
100
AcDbEntity
  8
0
100
AcDbLine
 62
7
  6
CONTINUOUS
 10
-157.0085106611
 20
2.1249998808
 11
-157.1361702204
 21
1.8750001192
  0
LINE
  5
260
100
AcDbEntity
  8
0
100
AcDbLine
 62
7
  6
CONTINUOUS
 10
-162.5
 20
39.7
 11
-162.2248759926
 21
39.9751240074
  0
LINE
  5
261
100
AcDbEntity
  8
0
100
AcDbLine
 62
7
  6
CONTINUOUS
 10
-168.2
 20
34.0
 11
-168.4751240074
 21
33.7248759926
  0
LINE
  5
262
100
AcDbEntity
  8
RACCORDO
100
AcDbLine
 62
250
  6
CONTINUOUS
 10
-156.8584990636
 20
40.9468267582
 11
-156.9305827057
 21
40.8747431161
  0
LINE
  5
263
100
AcDbEntity
  8
RACCORDO
100
AcDbLine
 62
250
  6
CONTINUOUS
 10
-156.358575216
 20
40.4469029106
 11
-156.4306588581
 21
40.3748192685
  0
LINE
  5
264
100
AcDbEntity
  8
RACCORDO
100
AcDbLine
 62
7
  6
CONTINUOUS
 10
-156.358575216
 20
39.9662592691
 11
-156.4421133586
 21
39.8827211265
  0
LINE
  5
265
100
AcDbEntity
  8
0
100
AcDbLine
 62
7
  6
CONTINUOUS
 10
-162.5
 20
-39.7
 11
-162.2248759926
 21
-39.9751240074
  0
LINE
  5
266
100
AcDbEntity
  8
0
100
AcDbLine
 62
7
  6
CONTINUOUS
 10
-168.2
 20
-34.0
 11
-168.4751240074
 21
-33.7248759926
  0
LINE
  5
267
100
AcDbEntity
  8
RACCORDO
100
AcDbLine
 62
250
  6
CONTINUOUS
 10
-169.4468267582
 20
-32.6084990636
 11
-169.3747431161
 21
-32.6805827057
  0
LINE
  5
268
100
AcDbEntity
  8
RACCORDO
100
AcDbLine
 62
250
  6
CONTINUOUS
 10
-168.9469029106
 20
-32.108575216
 11
-168.8748192685
 21
-32.1806588581
  0
LINE
  5
269
100
AcDbEntity
  8
RACCORDO
100
AcDbLine
 62
7
  6
CONTINUOUS
 10
-168.4662592691
 20
-32.108575216
 11
-168.3827211265
 21
-32.1921133586
  0
LINE
  5
26A
100
AcDbEntity
  8
0
100
AcDbLine
 62
7
  6
CONTINUOUS
 10
-157.1361702204
 20
0.875
 11
-157.0085106611
 21
0.6249998808
  0
LINE
  5
26B
100
AcDbEntity
  8
0
100
AcDbLine
 62
7
  6
CONTINUOUS
 10
-155.9872340083
 20
1.8750001192
 11
-155.8595744491
 21
1.5000001192
  0
LINE
  5
26C
100
AcDbEntity
  8
0
100
AcDbLine
 62
7
  6
CONTINUOUS
 10
-154.5829787225
 20
-0.9375000596
 11
-154.5191489428
 21
-1.1875
  0
LINE
  5
26D
100
AcDbEntity
  8
0
100
AcDbLine
 62
7
  6
CONTINUOUS
 10
-154.2
 20
1.625
 11
-154.2638297852
 21
1.8750001192
  0
LINE
  5
26E
100
AcDbEntity
  8
0
100
AcDbLine
 62
7
  6
CONTINUOUS
 10
-154.5829787225
 20
0.875
 11
-154.6468085021
 21
0.7500001192
  0
LINE
  5
26F
100
AcDbEntity
  8
0
100
AcDbLine
 62
7
  6
CONTINUOUS
 10
-154.3914893612
 20
0.6249998808
 11
-154.2638297852
 21
0.875
  0
LINE
  5
270
100
AcDbEntity
  8
0
100
AcDbLine
 62
7
  6
CONTINUOUS
 10
-155.8595744491
 20
-0.5625000596
 11
-156.0510637879
 21
-0.8749999404
  0
LINE
  5
271
100
AcDbEntity
  8
0
100
AcDbLine
 62
7
  6
CONTINUOUS
 10
-154.4553191409
 20
-2.1875000074
 11
-154.2638297852
 21
-1.8750000149
  0
LINE
  5
272
100
AcDbEntity
  8
0
100
AcDbLine
 62
7
  6
CONTINUOUS
 10
-156.8170213223
 20
1.8125
 11
-156.689361763
 21
2.0
  0
LINE
  5
273
100
AcDbEntity
  8
0
100
AcDbLine
 62
7
  6
CONTINUOUS
 10
-155.5404255509
 20
1.8750001192
 11
-155.4127659917
 21
2.0625001192
  0
LINE
  5
274
100
AcDbEntity
  8
0
100
AcDbLine
 62
7
  6
CONTINUOUS
 10
-155.7319148898
 20
-0.9375000596
 11
-155.6042553306
 21
-0.7500000596
  0
LINE
  5
275
100
AcDbEntity
  8
0
100
AcDbLine
 62
7
  6
CONTINUOUS
 10
-154.5191489428
 20
0.4375000596
 11
-154.3914893612
 21
0.6249998808
  0
LINE
  5
276
100
AcDbEntity
  8
0
100
AcDbLine
 62
7
  6
CONTINUOUS
 10
-156.689361763
 20
0.7500001192
 11
-156.8170213223
 21
0.9375001192
  0
LINE
  5
277
100
AcDbEntity
  8
0
100
AcDbLine
 62
7
  6
CONTINUOUS
 10
-154.7106382817
 20
-0.7500000596
 11
-154.5829787225
 21
-0.9375000596
  0
LINE
  5
278
100
AcDbEntity
  8
0
100
AcDbLine
 62
7
  6
CONTINUOUS
 10
-156.0510637879
 20
-1.8750000149
 11
-155.8595744491
 21
-2.1875000074
  0
LINE
  5
279
100
AcDbEntity
  8
0
100
AcDbLine
 62
7
  6
CONTINUOUS
 10
-154.2638297852
 20
-0.8749999404
 11
-154.4553191409
 21
-0.5625000596
  0
LINE
  5
27A
100
AcDbEntity
  8
0
100
AcDbLine
 62
7
  6
CONTINUOUS
 10
-154.6468085021
 20
2.0
 11
-154.5829787225
 21
1.8750001192
  0
LINE
  5
27B
100
AcDbEntity
  8
0
100
AcDbLine
 62
7
  6
CONTINUOUS
 10
-154.2638297852
 20
1.8750001192
 11
-154.3914893612
 21
2.1249998808
  0
LINE
  5
27C
100
AcDbEntity
  8
0
100
AcDbLine
 62
7
  6
CONTINUOUS
 10
-154.5829787225
 20
-1.8124999851
 11
-154.7106382817
 21
-1.9999999851
  0
LINE
  5
27D
100
AcDbEntity
  8
0
100
AcDbLine
 62
7
  6
CONTINUOUS
 10
-155.5404255509
 20
-2.0625000149
 11
-155.7319148898
 21
-1.8124999851
  0
LINE
  5
27E
100
AcDbEntity
  8
0
100
AcDbLine
 62
7
  6
CONTINUOUS
 10
-155.7319148898
 20
2.0
 11
-155.9234042287
 21
2.2500001192
  0
LINE
  5
27F
100
AcDbEntity
  8
0
100
AcDbLine
 62
7
  6
CONTINUOUS
 10
-154.3914893612
 20
2.1249998808
 11
-154.5191489428
 21
2.3124998808
  0
LINE
  5
280
100
AcDbEntity
  8
0
100
AcDbLine
 62
7
  6
CONTINUOUS
 10
-156.7531915426
 20
2.375
 11
-157.0085106611
 21
2.1249998808
  0
LINE
  5
281
100
AcDbEntity
  8
0
100
AcDbLine
 62
7
  6
CONTINUOUS
 10
-154.6468085021
 20
0.7500001192
 11
-154.774468106
 21
0.6249998808
  0
LINE
  5
282
100
AcDbEntity
  8
0
100
AcDbLine
 62
7
  6
CONTINUOUS
 10
-157.0085106611
 20
0.6249998808
 11
-156.7531915426
 21
0.3749999404
  0
LINE
  5
283
100
AcDbEntity
  8
0
100
AcDbLine
 62
7
  6
CONTINUOUS
 10
-156.1148935676
 20
2.0
 11
-155.9872340083
 21
1.8750001192
  0
LINE
  5
284
100
AcDbEntity
  8
0
100
AcDbLine
 62
7
  6
CONTINUOUS
 10
-154.774468106
 20
2.1249998808
 11
-154.6468085021
 21
2.0
  0
LINE
  5
285
100
AcDbEntity
  8
RACCORDO
100
AcDbLine
 62
250
  6
CONTINUOUS
 10
-169.3747431161
 20
-25.7194172943
 11
-169.4468267582
 21
-25.7915009364
  0
LINE
  5
286
100
AcDbEntity
  8
RACCORDO
100
AcDbLine
 62
250
  6
CONTINUOUS
 10
-168.8748192685
 20
-26.2193411419
 11
-168.9469029106
 21
-26.291424784
  0
LINE
  5
287
100
AcDbEntity
  8
RACCORDO
100
AcDbLine
 62
7
  6
CONTINUOUS
 10
-168.4662592691
 20
-26.291424784
 11
-168.3827210873
 21
-26.2078866022
  0
LINE
  5
288
100
AcDbEntity
  8
0
100
AcDbLine
 62
7
  6
CONTINUOUS
 10
-155.6042553306
 20
-0.3750000596
 11
-155.8595744491
 21
-0.5625000596
  0
LINE
  5
289
100
AcDbEntity
  8
0
100
AcDbLine
 62
7
  6
CONTINUOUS
 10
-154.4553191409
 20
-0.5625000596
 11
-154.7106382817
 21
-0.3750000596
  0
LINE
  5
28A
100
AcDbEntity
  8
0
100
AcDbLine
 62
7
  6
CONTINUOUS
 10
-154.7106382817
 20
-2.3749999963
 11
-154.4553191409
 21
-2.1875000074
  0
LINE
  5
28B
100
AcDbEntity
  8
0
100
AcDbLine
 62
7
  6
CONTINUOUS
 10
-156.689361763
 20
2.0
 11
-156.4978724241
 21
2.1249998808
  0
LINE
  5
28C
100
AcDbEntity
  8
0
100
AcDbLine
 62
7
  6
CONTINUOUS
 10
-155.4127659917
 20
2.4375001192
 11
-155.6042553306
 21
2.3124998808
  0
LINE
  5
28D
100
AcDbEntity
  8
0
100
AcDbLine
 62
7
  6
CONTINUOUS
 10
-154.7106382817
 20
0.3125
 11
-154.5191489428
 21
0.4375000596
  0
LINE
  5
28E
100
AcDbEntity
  8
0
100
AcDbLine
 62
7
  6
CONTINUOUS
 10
-155.6042553306
 20
-0.7500000596
 11
-155.4127659917
 21
-0.625
  0
LINE
  5
28F
100
AcDbEntity
  8
0
100
AcDbLine
 62
7
  6
CONTINUOUS
 10
-154.9021276653
 20
-0.625
 11
-154.7106382817
 21
-0.7500000596
  0
LINE
  5
290
100
AcDbEntity
  8
0
100
AcDbLine
 62
7
  6
CONTINUOUS
 10
-156.4978724241
 20
0.6249998808
 11
-156.689361763
 21
0.7500001192
  0
LINE
  5
291
100
AcDbEntity
  8
0
100
AcDbLine
 62
7
  6
CONTINUOUS
 10
-155.9234042287
 20
2.2500001192
 11
-156.1148935676
 21
2.375
  0
LINE
  5
292
100
AcDbEntity
  8
0
100
AcDbLine
 62
7
  6
CONTINUOUS
 10
-154.5191489428
 20
2.3124998808
 11
-154.7106382817
 21
2.4375001192
  0
LINE
  5
293
100
AcDbEntity
  8
0
100
AcDbLine
 62
7
  6
CONTINUOUS
 10
-155.4127659917
 20
2.0625001192
 11
-155.1574467838
 21
2.1875
  0
LINE
  5
294
100
AcDbEntity
  8
0
100
AcDbLine
 62
7
  6
CONTINUOUS
 10
-154.774468106
 20
0.6249998808
 11
-154.9021276653
 21
0.5625001192
  0
LINE
  5
295
100
AcDbEntity
  8
RACCORDO
100
AcDbLine
 62
7
  6
CONTINUOUS
 10
-150.541424784
 20
39.9662592691
 11
-150.4578866022
 21
39.8827210873
  0
LINE
  5
296
100
AcDbEntity
  8
RACCORDO
100
AcDbLine
 62
250
  6
CONTINUOUS
 10
-150.4693411419
 20
40.3748192685
 11
-150.541424784
 21
40.4469029106
  0
LINE
  5
297
100
AcDbEntity
  8
RACCORDO
100
AcDbLine
 62
250
  6
CONTINUOUS
 10
-149.9694172943
 20
40.8747431161
 11
-150.0415009364
 21
40.9468267582
  0
LINE
  5
298
100
AcDbEntity
  8
0
100
AcDbLine
 62
7
  6
CONTINUOUS
 10
-154.7106382817
 20
-1.9999999851
 11
-154.9659574449
 21
-2.125
  0
LINE
  5
299
100
AcDbEntity
  8
0
100
AcDbLine
 62
7
  6
CONTINUOUS
 10
-154.9659574449
 20
-2.5
 11
-154.7106382817
 21
-2.3749999963
  0
LINE
  5
29A
100
AcDbEntity
  8
0
100
AcDbLine
 62
7
  6
CONTINUOUS
 10
-154.7106382817
 20
-0.3750000596
 11
-155.0297872245
 21
-0.25
  0
LINE
  5
29B
100
AcDbEntity
  8
0
100
AcDbLine
 62
7
  6
CONTINUOUS
 10
-156.3702126861
 20
2.1249998808
 11
-156.1148935676
 21
2.0
  0
LINE
  5
29C
100
AcDbEntity
  8
0
100
AcDbLine
 62
7
  6
CONTINUOUS
 10
-154.9021276653
 20
2.1875
 11
-154.774468106
 21
2.1249998808
  0
LINE
  5
29D
100
AcDbEntity
  8
0
100
AcDbLine
 62
7
  6
CONTINUOUS
 10
-155.285106343
 20
-0.25
 11
-155.6042553306
 21
-0.3750000596
  0
LINE
  5
29E
100
AcDbEntity
  8
0
100
AcDbLine
 62
7
  6
CONTINUOUS
 10
-154.9021276653
 20
0.2500000596
 11
-154.7106382817
 21
0.3125
  0
LINE
  5
29F
100
AcDbEntity
  8
0
100
AcDbLine
 62
7
  6
CONTINUOUS
 10
-155.4127659917
 20
-0.625
 11
-155.2212765634
 21
-0.5625000596
  0
LINE
  5
2A0
100
AcDbEntity
  8
0
100
AcDbLine
 62
7
  6
CONTINUOUS
 10
-155.0936170042
 20
-0.5625000596
 11
-154.9021276653
 21
-0.625
  0
LINE
  5
2A1
100
AcDbEntity
  8
0
100
AcDbLine
 62
7
  6
CONTINUOUS
 10
-154.7106382817
 20
2.4375001192
 11
-154.9021276653
 21
2.4999998808
  0
LINE
  5
2A2
100
AcDbEntity
  8
0
100
AcDbLine
 62
7
  6
CONTINUOUS
 10
-18.1
 20
39.7
 11
-17.8248759926
 21
39.9751240074
  0
LINE
  5
2A3
100
AcDbEntity
  8
DRAFT
100
AcDbLine
 62
7
  6
CONTINUOUS
 10
-164.0
 20
-41.5
 11
164.0
 21
-41.5
  0
LINE
  5
2A4
100
AcDbEntity
  8
SUPERFICI
100
AcDbLine
 62
7
  6
CONTINUOUS
 10
164.0000000088
 20
-41.5000003491
 11
-164.0000000088
 21
-41.5000003491
  0
LINE
  5
2A5
100
AcDbEntity
  8
RACCORDO
100
AcDbLine
 62
250
  6
CONTINUOUS
 10
151.0413486316
 20
-40.9639771903
 11
155.8586513684
 21
-40.9639771903
  0
LINE
  5
2A6
100
AcDbEntity
  8
RACCORDO
100
AcDbLine
 62
250
  6
CONTINUOUS
 10
-164.0
 20
-40.8747431161
 11
149.9694172943
 21
-40.8747431161
  0
LINE
  5
2A7
100
AcDbEntity
  8
RACCORDO
100
AcDbLine
 62
250
  6
CONTINUOUS
 10
156.9305827057
 20
-40.8747431161
 11
164.0
 21
-40.8747431161
  0
LINE
  5
2A8
100
AcDbEntity
  8
RACCORDO
100
AcDbLine
 62
250
  6
CONTINUOUS
 10
151.0413486316
 20
-40.4640533427
 11
155.8586513684
 21
-40.4640533427
  0
LINE
  5
2A9
100
AcDbEntity
  8
0
100
AcDbLine
 62
7
  6
CONTINUOUS
 10
-164.0
 20
-39.9751240074
 11
-162.2248759926
 21
-39.9751240074
  0
LINE
  5
2AA
100
AcDbEntity
  8
0
100
AcDbLine
 62
7
  6
CONTINUOUS
 10
17.8248759926
 20
-39.9751240074
 11
21.1751240074
 21
-39.9751240074
  0
LINE
  5
2AB
100
AcDbEntity
  8
0
100
AcDbLine
 62
7
  6
CONTINUOUS
 10
162.2248759926
 20
-39.9751240074
 11
164.0
 21
-39.9751240074
  0
LINE
  5
2AC
100
AcDbEntity
  8
RACCORDO
100
AcDbLine
 62
7
  6
CONTINUOUS
 10
151.0413486316
 20
-39.9748344851
 11
155.8586513684
 21
-39.9748344851
  0
LINE
  5
2AD
100
AcDbEntity
  8
RACCORDO
100
AcDbLine
 62
250
  6
CONTINUOUS
 10
150.4564316543
 20
-39.8821703245
 11
156.4435683455
 21
-39.8821703245
  0
LINE
  5
2AE
100
AcDbEntity
  8
DRAFT
100
AcDbLine
 62
7
  6
CONTINUOUS
 10
164.0
 20
-39.7
 11
162.5
 21
-39.7
  0
LINE
  5
2AF
100
AcDbEntity
  8
DRAFT
100
AcDbLine
 62
7
  6
CONTINUOUS
 10
20.9
 20
-39.7
 11
18.1
 21
-39.7
  0
LINE
  5
2B0
100
AcDbEntity
  8
DRAFT
100
AcDbLine
 62
7
  6
CONTINUOUS
 10
-162.5
 20
-39.7
 11
-164.0
 21
-39.7
  0
LINE
  5
2B1
100
AcDbEntity
  8
0
100
AcDbLine
 62
250
  6
CONTINUOUS
 10
-162.2242099741
 20
-39.6749258819
 11
17.8242099741
 21
-39.6749258819
  0
LINE
  5
2B2
100
AcDbEntity
  8
RACCORDO
100
AcDbLine
 62
250
  6
CONTINUOUS
 10
21.1757900259
 20
-39.6749258819
 11
150.2500749007
 21
-39.6749258623
  0
LINE
  5
2B3
100
AcDbEntity
  8
RACCORDO
100
AcDbLine
 62
250
  6
CONTINUOUS
 10
156.649925098
 20
-39.6749258628
 11
162.2242099741
 21
-39.6749258819
  0
LINE
  5
2B4
100
AcDbEntity
  8
RACCORDO
100
AcDbLine
 62
250
  6
CONTINUOUS
 10
149.9574119919
 20
-39.3822464769
 11
156.9425880081
 21
-39.3822464769
  0
LINE
  5
2B5
100
AcDbEntity
  8
DRAFT
100
AcDbLine
 62
250
  6
CONTINUOUS
 10
-162.5
 20
-35.5
 11
-162.2242099741
 21
-35.5
  0
LINE
  5
2B6
100
AcDbEntity
  8
DRAFT
100
AcDbLine
 62
250
  6
CONTINUOUS
 10
162.5
 20
-35.5
 11
162.2242099741
 21
-35.5
  0
LINE
  5
2B7
100
AcDbEntity
  8
DRAFT
100
AcDbLine
 62
250
  6
CONTINUOUS
 10
18.1
 20
-35.5
 11
17.8242099741
 21
-35.5
  0
LINE
  5
2B8
100
AcDbEntity
  8
DRAFT
100
AcDbLine
 62
250
  6
CONTINUOUS
 10
20.9
 20
-35.5
 11
21.1757900259
 21
-35.5
  0
LINE
  5
2B9
100
AcDbEntity
  8
0
100
AcDbLine
 62
250
  6
CONTINUOUS
 10
168.2
 20
-35.5
 11
170.0
 21
-35.5
  0
LINE
  5
2BA
100
AcDbEntity
  8
0
100
AcDbLine
 62
250
  6
CONTINUOUS
 10
-168.2
 20
-35.5
 11
-170.0
 21
-35.5
  0
LINE
  5
2BB
100
AcDbEntity
  8
DRAFT
100
AcDbLine
 62
7
  6
CONTINUOUS
 10
-168.2
 20
-34.0
 11
-164.0
 21
-34.0
  0
LINE
  5
2BC
100
AcDbEntity
  8
DRAFT
100
AcDbLine
 62
7
  6
CONTINUOUS
 10
164.0
 20
-34.0
 11
168.2
 21
-34.0
  0
LINE
  5
2BD
100
AcDbEntity
  8
0
100
AcDbLine
 62
7
  6
CONTINUOUS
 10
-168.1749258819
 20
-33.7242099741
 11
-164.0
 21
-33.7242099741
  0
LINE
  5
2BE
100
AcDbEntity
  8
0
100
AcDbLine
 62
7
  6
CONTINUOUS
 10
164.0
 20
-33.7242099741
 11
168.1749258819
 21
-33.7242099741
  0
LINE
  5
2BF
100
AcDbEntity
  8
0
100
AcDbLine
 62
7
  6
CONTINUOUS
 10
-156.7531915426
 20
0.3749999404
 11
-156.4978724241
 21
0.3125
  0
LINE
  5
2C0
100
AcDbEntity
  8
0
100
AcDbLine
 62
7
  6
CONTINUOUS
 10
-156.1148935676
 20
2.375
 11
-156.3702126861
 21
2.4375001192
  0
LINE
  5
2C1
100
AcDbEntity
  8
0
100
AcDbLine
 62
7
  6
CONTINUOUS
 10
-3.525
 20
30.0085106611
 11
-3.7749999963
 21
29.7531915426
  0
LINE
  5
2C2
100
AcDbEntity
  8
0
100
AcDbLine
 62
7
  6
CONTINUOUS
 10
-2.1500000596
 20
29.1148935676
 11
-2.2749999404
 21
28.9872340083
  0
LINE
  5
2C3
100
AcDbEntity
  8
0
100
AcDbLine
 62
7
  6
CONTINUOUS
 10
-2.1500000596
 20
28.7319148898
 11
-1.8999999404
 21
28.9234042287
  0
LINE
  5
2C4
100
AcDbEntity
  8
0
100
AcDbLine
 62
7
  6
CONTINUOUS
 10
-3.3999999851
 20
29.689361763
 11
-3.2124999851
 21
29.8170213223
  0
LINE
  5
2C5
100
AcDbEntity
  8
0
100
AcDbLine
 62
7
  6
CONTINUOUS
 10
-0.525
 20
29.689361763
 11
-0.3375
 21
29.8170213223
  0
LINE
  5
2C6
100
AcDbEntity
  8
0
100
AcDbLine
 62
7
  6
CONTINUOUS
 10
-2.025
 20
27.3914893612
 11
-1.8375
 21
27.5191489428
  0
LINE
  5
2C7
100
AcDbEntity
  8
0
100
AcDbLine
 62
7
  6
CONTINUOUS
 10
0.4750001192
 20
27.7106382817
 11
0.2875001192
 21
27.5829787225
  0
LINE
  5
2C8
100
AcDbEntity
  8
0
100
AcDbLine
 62
7
  6
CONTINUOUS
 10
-0.4000001192
 20
30.1361702204
 11
-0.7125
 21
29.9446808815
  0
LINE
  5
2C9
100
AcDbEntity
  8
0
100
AcDbLine
 62
7
  6
CONTINUOUS
 10
0.3499998808
 20
27.2638297852
 11
0.6625001192
 21
27.4553191409
  0
LINE
  5
2CA
100
AcDbEntity
  8
0
100
AcDbLine
 62
7
  6
CONTINUOUS
 10
-3.2750000149
 20
30.1361702204
 11
-3.525
 21
30.0085106611
  0
LINE
  5
2CB
100
AcDbEntity
  8
0
100
AcDbLine
 62
7
  6
CONTINUOUS
 10
-2.1500000596
 20
27.6468085021
 11
-2.2749999404
 21
27.5829787225
  0
LINE
  5
2CC
100
AcDbEntity
  8
0
100
AcDbLine
 62
7
  6
CONTINUOUS
 10
-2.2749999404
 20
27.2638297852
 11
-2.025
 21
27.3914893612
  0
LINE
  5
2CD
100
AcDbEntity
  8
0
100
AcDbLine
 62
7
  6
CONTINUOUS
 10
-2.2749999404
 20
28.9872340083
 11
-2.6500000298
 21
28.8595744491
  0
LINE
  5
2CE
100
AcDbEntity
  8
RACCORDO
100
AcDbLine
 62
250
  6
CONTINUOUS
 10
-168.1749258819
 20
-32.6925880081
 11
-167.8822464769
 21
-32.6925880081
  0
LINE
  5
2CF
100
AcDbEntity
  8
RACCORDO
100
AcDbLine
 62
250
  6
CONTINUOUS
 10
-168.4662592691
 20
-32.108575216
 11
-168.9469029106
 21
-32.108575216
  0
LINE
  5
2D0
100
AcDbEntity
  8
RACCORDO
100
AcDbLine
 62
250
  6
CONTINUOUS
 10
-168.4748344851
 20
-31.6086513684
 11
-169.4639771903
 21
-31.6086513684
  0
LINE
  5
2D1
100
AcDbEntity
  8
RACCORDO
100
AcDbLine
 62
250
  6
CONTINUOUS
 10
-168.4748344851
 20
-26.7913486316
 11
-169.4639771903
 21
-26.7913486316
  0
LINE
  5
2D2
100
AcDbEntity
  8
RACCORDO
100
AcDbLine
 62
250
  6
CONTINUOUS
 10
-168.9469029106
 20
-26.291424784
 11
-168.4662592691
 21
-26.291424784
  0
LINE
  5
2D3
100
AcDbEntity
  8
RACCORDO
100
AcDbLine
 62
250
  6
CONTINUOUS
 10
-167.8822464769
 20
-25.7074119919
 11
-168.1749258819
 21
-25.7074119919
  0
LINE
  5
2D4
100
AcDbEntity
  8
0
100
AcDbLine
 62
7
  6
CONTINUOUS
 10
-21.1757900259
 20
35.5
 11
-21.1757900259
 21
39.6749258819
  0
LINE
  5
2D5
100
AcDbEntity
  8
DRAFT
100
AcDbLine
 62
7
  6
CONTINUOUS
 10
-20.9
 20
35.5
 11
-20.9
 21
39.7
  0
LINE
  5
2D6
100
AcDbEntity
  8
DRAFT
100
AcDbLine
 62
7
  6
CONTINUOUS
 10
-18.1
 20
39.7
 11
-18.1
 21
35.5
  0
LINE
  5
2D7
100
AcDbEntity
  8
0
100
AcDbLine
 62
7
  6
CONTINUOUS
 10
-17.8242099741
 20
39.6749258819
 11
-17.8242099741
 21
35.5
  0
LINE
  5
2D8
100
AcDbEntity
  8
0
100
AcDbLine
 62
7
  6
CONTINUOUS
 10
-3.7749999963
 20
29.7531915426
 11
-3.8374999981
 21
29.4978724241
  0
LINE
  5
2D9
100
AcDbEntity
  8
0
100
AcDbLine
 62
7
  6
CONTINUOUS
 10
-1.7124999404
 20
27.7106382817
 11
-1.65
 21
27.9021276653
  0
LINE
  5
2DA
100
AcDbEntity
  8
0
100
AcDbLine
 62
7
  6
CONTINUOUS
 10
-1.0250000596
 20
29.4978724241
 11
-1.0875
 21
29.3063829064
  0
LINE
  5
2DB
100
AcDbEntity
  8
0
100
AcDbLine
 62
7
  6
CONTINUOUS
 10
-2.025
 20
29.3702126861
 11
-2.1500000596
 21
29.1148935676
  0
LINE
  5
2DC
100
AcDbEntity
  8
0
100
AcDbLine
 62
7
  6
CONTINUOUS
 10
-1.9625000596
 20
27.9021276653
 11
-2.025
 21
27.774468106
  0
LINE
  5
2DD
100
AcDbEntity
  8
0
100
AcDbLine
 62
7
  6
CONTINUOUS
 10
-0.9
 20
29.7531915426
 11
-1.0250000596
 21
29.4978724241
  0
LINE
  5
2DE
100
AcDbEntity
  8
0
100
AcDbLine
 62
7
  6
CONTINUOUS
 10
0.8500001192
 20
27.6468085021
 11
0.975
 21
27.9021276653
  0
LINE
  5
2DF
100
AcDbEntity
  8
0
100
AcDbLine
 62
7
  6
CONTINUOUS
 10
-3.525
 20
29.4978724241
 11
-3.3999999851
 21
29.689361763
  0
LINE
  5
2E0
100
AcDbEntity
  8
0
100
AcDbLine
 62
7
  6
CONTINUOUS
 10
-1.8999999404
 20
28.9234042287
 11
-1.7750000596
 21
29.1148935676
  0
LINE
  5
2E1
100
AcDbEntity
  8
0
100
AcDbLine
 62
7
  6
CONTINUOUS
 10
-0.7750001192
 20
29.3063829064
 11
-0.525
 21
29.689361763
  0
LINE
  5
2E2
100
AcDbEntity
  8
0
100
AcDbLine
 62
7
  6
CONTINUOUS
 10
-1.8375
 20
27.5191489428
 11
-1.7124999404
 21
27.7106382817
  0
LINE
  5
2E3
100
AcDbEntity
  8
0
100
AcDbLine
 62
7
  6
CONTINUOUS
 10
0.7249998808
 20
28.0936170042
 11
0.4750001192
 21
27.7106382817
  0
LINE
  5
2E4
100
AcDbEntity
  8
0
100
AcDbLine
 62
7
  6
CONTINUOUS
 10
-0.7125
 20
29.9446808815
 11
-0.9
 21
29.7531915426
  0
LINE
  5
2E5
100
AcDbEntity
  8
0
100
AcDbLine
 62
7
  6
CONTINUOUS
 10
-2.025
 20
27.774468106
 11
-2.1500000596
 21
27.6468085021
  0
LINE
  5
2E6
100
AcDbEntity
  8
0
100
AcDbLine
 62
7
  6
CONTINUOUS
 10
0.6625001192
 20
27.4553191409
 11
0.8500001192
 21
27.6468085021
  0
LINE
  5
2E7
100
AcDbEntity
  8
0
100
AcDbLine
 62
7
  6
CONTINUOUS
 10
-153.4
 20
-16.0
 11
-153.6
 21
-16.0
  0
LINE
  5
2E8
100
AcDbEntity
  8
0
100
AcDbLine
 62
7
  6
CONTINUOUS
 10
20.9
 20
-39.7
 11
21.1751240074
 21
-39.9751240074
  0
LINE
  5
2E9
100
AcDbEntity
  8
0
100
AcDbLine
 62
7
  6
CONTINUOUS
 10
-2.8999999702
 20
28.8595744491
 11
-2.8999999702
 21
28.6042553306
  0
LINE
  5
2EA
100
AcDbEntity
  8
0
100
AcDbLine
 62
7
  6
CONTINUOUS
 10
-2.025
 20
29.4978724241
 11
-2.025
 21
29.3702126861
  0
LINE
  5
2EB
100
AcDbEntity
  8
0
100
AcDbLine
 62
7
  6
CONTINUOUS
 10
-1.9625000596
 20
28.1574467838
 11
-1.9625000596
 21
27.9021276653
  0
LINE
  5
2EC
100
AcDbEntity
  8
0
100
AcDbLine
 62
7
  6
CONTINUOUS
 10
-1.7124999404
 20
29.3702126861
 11
-1.7124999404
 21
29.4978724241
  0
LINE
  5
2ED
100
AcDbEntity
  8
0
100
AcDbLine
 62
7
  6
CONTINUOUS
 10
-1.65
 20
27.9021276653
 11
-1.65
 21
28.1574467838
  0
LINE
  5
2EE
100
AcDbEntity
  8
0
100
AcDbLine
 62
7
  6
CONTINUOUS
 10
-1.1499999404
 20
28.9872340083
 11
-1.1499999404
 21
28.4127659917
  0
LINE
  5
2EF
100
AcDbEntity
  8
0
100
AcDbLine
 62
7
  6
CONTINUOUS
 10
-0.8374998808
 20
28.4765957713
 11
-0.8374998808
 21
28.9234042287
  0
LINE
  5
2F0
100
AcDbEntity
  8
0
100
AcDbLine
 62
7
  6
CONTINUOUS
 10
-0.75
 20
-11.4816392509
 11
-0.75
 21
-10.398724427
  0
LINE
  5
2F1
100
AcDbEntity
  8
0
100
AcDbLine
 62
7
  6
CONTINUOUS
 10
-0.75
 20
10.398724427
 11
-0.75
 21
11.481639251
  0
LINE
  5
2F2
100
AcDbEntity
  8
0
100
AcDbLine
 62
7
  6
CONTINUOUS
 10
0.75
 20
11.481639251
 11
0.75
 21
10.398724427
  0
LINE
  5
2F3
100
AcDbEntity
  8
0
100
AcDbLine
 62
7
  6
CONTINUOUS
 10
0.75
 20
-10.398724427
 11
0.75
 21
-11.4816392509
  0
LINE
  5
2F4
100
AcDbEntity
  8
0
100
AcDbLine
 62
7
  6
CONTINUOUS
 10
0.7875
 20
28.9234042287
 11
0.7875
 21
28.4765957713
  0
LINE
  5
2F5
100
AcDbEntity
  8
0
100
AcDbLine
 62
7
  6
CONTINUOUS
 10
1.0999998808
 20
28.4127659917
 11
1.0999998808
 21
28.9872340083
  0
LINE
  5
2F6
100
AcDbEntity
  8
0
100
AcDbLine
 62
7
  6
CONTINUOUS
 10
-0.8374998808
 20
28.9234042287
 11
-0.7750001192
 21
29.3063829064
  0
LINE
  5
2F7
100
AcDbEntity
  8
0
100
AcDbLine
 62
7
  6
CONTINUOUS
 10
0.7875
 20
28.4765957713
 11
0.7249998808
 21
28.0936170042
  0
LINE
  5
2F8
100
AcDbEntity
  8
0
100
AcDbLine
 62
7
  6
CONTINUOUS
 10
-1.0875
 20
29.3063829064
 11
-1.1499999404
 21
28.9872340083
  0
LINE
  5
2F9
100
AcDbEntity
  8
0
100
AcDbLine
 62
7
  6
CONTINUOUS
 10
1.0375001192
 20
28.0936170042
 11
1.0999998808
 21
28.4127659917
  0
LINE
  5
2FA
100
AcDbEntity
  8
0
100
AcDbLine
 62
7
  6
CONTINUOUS
 10
-1.7750000596
 20
29.1148935676
 11
-1.7124999404
 21
29.3702126861
  0
LINE
  5
2FB
100
AcDbEntity
  8
0
100
AcDbLine
 62
7
  6
CONTINUOUS
 10
0.975
 20
27.9021276653
 11
1.0375001192
 21
28.0936170042
  0
LINE
  5
2FC
100
AcDbEntity
  8
0
100
AcDbLine
 62
7
  6
CONTINUOUS
 10
3.4749997616
 20
29.8808511019
 11
2.2250002384
 21
27.2
  0
LINE
  5
2FD
100
AcDbEntity
  8
0
100
AcDbLine
 62
7
  6
CONTINUOUS
 10
2.6000002384
 20
27.2
 11
3.8499997616
 21
29.8808511019
  0
LINE
  5
2FE
100
AcDbEntity
  8
0
100
AcDbLine
 62
7
  6
CONTINUOUS
 10
-157.2
 20
-2.5
 11
-155.5404255509
 21
-2.5
  0
LINE
  5
2FF
100
AcDbEntity
  8
0
100
AcDbLine
 62
7
  6
CONTINUOUS
 10
-155.8595744491
 20
-2.1875000074
 11
-156.8808511019
 21
-2.1875000074
  0
LINE
  5
300
100
AcDbEntity
  8
0
100
AcDbLine
 62
7
  6
CONTINUOUS
 10
11.481639251
 20
-0.75
 11
10.398724427
 21
-0.75
  0
LINE
  5
301
100
AcDbEntity
  8
0
100
AcDbLine
 62
7
  6
CONTINUOUS
 10
-10.398724427
 20
-0.75
 11
-11.481639251
 21
-0.75
  0
LINE
  5
302
100
AcDbEntity
  8
0
100
AcDbLine
 62
7
  6
CONTINUOUS
 10
-155.2212765634
 20
-0.5625000596
 11
-155.0936170042
 21
-0.5625000596
  0
LINE
  5
303
100
AcDbEntity
  8
0
100
AcDbLine
 62
7
  6
CONTINUOUS
 10
-156.8808511019
 20
-0.3750000596
 11
-157.2
 21
-0.3750000596
  0
LINE
  5
304
100
AcDbEntity
  8
0
100
AcDbLine
 62
7
  6
CONTINUOUS
 10
-155.0297872245
 20
-0.25
 11
-155.285106343
 21
-0.25
  0
LINE
  5
305
100
AcDbEntity
  8
0
100
AcDbLine
 62
7
  6
CONTINUOUS
 10
-11.481639251
 20
0.75
 11
-10.398724427
 21
0.75
  0
LINE
  5
306
100
AcDbEntity
  8
0
100
AcDbLine
 62
7
  6
CONTINUOUS
 10
10.398724427
 20
0.75
 11
11.481639251
 21
0.75
  0
LINE
  5
307
100
AcDbEntity
  8
0
100
AcDbLine
 62
7
  6
CONTINUOUS
 10
-155.8595744491
 20
1.25
 11
-155.6042553306
 21
1.25
  0
LINE
  5
308
100
AcDbEntity
  8
0
100
AcDbLine
 62
7
  6
CONTINUOUS
 10
1.6000001192
 20
30.2
 11
1.6000001192
 21
29.8808511019
  0
LINE
  5
309
100
AcDbEntity
  8
0
100
AcDbLine
 62
7
  6
CONTINUOUS
 10
3.8499997616
 20
29.8808511019
 11
3.8499997616
 21
30.2
  0
LINE
  5
30A
100
AcDbEntity
  8
0
100
AcDbLine
 62
7
  6
CONTINUOUS
 10
-156.4978724241
 20
2.1249998808
 11
-156.3702126861
 21
2.1249998808
  0
LINE
  5
30B
100
AcDbEntity
  8
0
100
AcDbLine
 62
7
  6
CONTINUOUS
 10
-155.1574467838
 20
2.1875
 11
-154.9021276653
 21
2.1875
  0
LINE
  5
30C
100
AcDbEntity
  8
0
100
AcDbLine
 62
7
  6
CONTINUOUS
 10
-156.3702126861
 20
2.4375001192
 11
-156.4978724241
 21
2.4375001192
  0
LINE
  5
30D
100
AcDbEntity
  8
0
100
AcDbLine
 62
7
  6
CONTINUOUS
 10
-154.9021276653
 20
2.4999998808
 11
-155.1574467838
 21
2.4999998808
  0
LINE
  5
30E
100
AcDbEntity
  8
0
100
AcDbLine
 62
7
  6
CONTINUOUS
 10
-3.8374999981
 20
27.7106382817
 11
-3.7125
 21
27.5191489428
  0
LINE
  5
30F
100
AcDbEntity
  8
0
100
AcDbLine
 62
7
  6
CONTINUOUS
 10
-3.525
 20
27.774468106
 11
-3.5875000075
 21
27.9021276653
  0
LINE
  5
310
100
AcDbEntity
  8
0
100
AcDbLine
 62
7
  6
CONTINUOUS
 10
-2.0874999404
 20
28.4127659917
 11
-1.9625000596
 21
28.1574467838
  0
LINE
  5
311
100
AcDbEntity
  8
0
100
AcDbLine
 62
7
  6
CONTINUOUS
 10
-1.0250000596
 20
27.9021276653
 11
-0.9
 21
27.6468085021
  0
LINE
  5
312
100
AcDbEntity
  8
0
100
AcDbLine
 62
7
  6
CONTINUOUS
 10
-3.9
 20
27.9021276653
 11
-3.8374999981
 21
27.7106382817
  0
LINE
  5
313
100
AcDbEntity
  8
0
100
AcDbLine
 62
7
  6
CONTINUOUS
 10
-1.0875
 20
28.0936170042
 11
-1.0250000596
 21
27.9021276653
  0
LINE
  5
314
100
AcDbEntity
  8
0
100
AcDbLine
 62
7
  6
CONTINUOUS
 10
1.0375001192
 20
29.3063829064
 11
0.975
 21
29.4978724241
  0
LINE
  5
315
100
AcDbEntity
  8
0
100
AcDbLine
 62
7
  6
CONTINUOUS
 10
-1.65
 20
28.1574467838
 11
-1.7124999404
 21
28.4127659917
  0
LINE
  5
316
100
AcDbEntity
  8
0
100
AcDbLine
 62
7
  6
CONTINUOUS
 10
-1.7124999404
 20
29.4978724241
 11
-1.7750000596
 21
29.7531915426
  0
LINE
  5
317
100
AcDbEntity
  8
0
100
AcDbLine
 62
7
  6
CONTINUOUS
 10
-1.1499999404
 20
28.4127659917
 11
-1.0875
 21
28.0936170042
  0
LINE
  5
318
100
AcDbEntity
  8
0
100
AcDbLine
 62
7
  6
CONTINUOUS
 10
1.0999998808
 20
28.9872340083
 11
1.0375001192
 21
29.3063829064
  0
LINE
  5
319
100
AcDbEntity
  8
0
100
AcDbLine
 62
7
  6
CONTINUOUS
 10
-0.7750001192
 20
28.0936170042
 11
-0.8374998808
 21
28.4765957713
  0
LINE
  5
31A
100
AcDbEntity
  8
0
100
AcDbLine
 62
7
  6
CONTINUOUS
 10
0.7249998808
 20
29.3063829064
 11
0.7875
 21
28.9234042287
  0
LINE
  5
31B
100
AcDbEntity
  8
0
100
AcDbLine
 62
7
  6
CONTINUOUS
 10
17.8242099741
 20
-39.6749258819
 11
17.8242099741
 21
-35.5
  0
LINE
  5
31C
100
AcDbEntity
  8
DRAFT
100
AcDbLine
 62
7
  6
CONTINUOUS
 10
18.1
 20
-39.7
 11
18.1
 21
-35.5
  0
LINE
  5
31D
100
AcDbEntity
  8
DRAFT
100
AcDbLine
 62
7
  6
CONTINUOUS
 10
20.9
 20
-35.5
 11
20.9
 21
-39.7
  0
LINE
  5
31E
100
AcDbEntity
  8
0
100
AcDbLine
 62
7
  6
CONTINUOUS
 10
21.1757900259
 20
-35.5
 11
21.1757900259
 21
-39.6749258819
  0
LINE
  5
31F
100
AcDbEntity
  8
0
100
AcDbLine
 62
7
  6
CONTINUOUS
 10
-153.6
 20
16.0
 11
-153.4
 21
16.0
  0
LINE
  5
320
100
AcDbEntity
  8
0
100
AcDbLine
 62
7
  6
CONTINUOUS
 10
-3.525
 20
27.3914893612
 11
-3.2750000149
 21
27.2638297852
  0
LINE
  5
321
100
AcDbEntity
  8
0
100
AcDbLine
 62
7
  6
CONTINUOUS
 10
-3.2750000149
 20
27.5829787225
 11
-3.3999999851
 21
27.6468085021
  0
LINE
  5
322
100
AcDbEntity
  8
0
100
AcDbLine
 62
7
  6
CONTINUOUS
 10
-0.7125
 20
27.4553191409
 11
-0.4000001192
 21
27.2638297852
  0
LINE
  5
323
100
AcDbEntity
  8
0
100
AcDbLine
 62
7
  6
CONTINUOUS
 10
-3.7125
 20
27.5191489428
 11
-3.525
 21
27.3914893612
  0
LINE
  5
324
100
AcDbEntity
  8
0
100
AcDbLine
 62
7
  6
CONTINUOUS
 10
-2.2749999404
 20
28.5404255509
 11
-2.0874999404
 21
28.4127659917
  0
LINE
  5
325
100
AcDbEntity
  8
0
100
AcDbLine
 62
7
  6
CONTINUOUS
 10
-0.3375
 20
27.5829787225
 11
-0.525
 21
27.7106382817
  0
LINE
  5
326
100
AcDbEntity
  8
0
100
AcDbLine
 62
7
  6
CONTINUOUS
 10
-2.3375000596
 20
29.8170213223
 11
-2.1500000596
 21
29.689361763
  0
LINE
  5
327
100
AcDbEntity
  8
0
100
AcDbLine
 62
7
  6
CONTINUOUS
 10
0.2875001192
 20
29.8170213223
 11
0.4750001192
 21
29.689361763
  0
LINE
  5
328
100
AcDbEntity
  8
0
100
AcDbLine
 62
7
  6
CONTINUOUS
 10
-20.9
 20
39.7
 11
-21.1751240074
 21
39.9751240074
  0
LINE
  5
329
100
AcDbEntity
  8
0
100
AcDbLine
 62
7
  6
CONTINUOUS
 10
-3.3999999851
 20
27.6468085021
 11
-3.525
 21
27.774468106
  0
LINE
  5
32A
100
AcDbEntity
  8
0
100
AcDbLine
 62
7
  6
CONTINUOUS
 10
-0.9
 20
27.6468085021
 11
-0.7125
 21
27.4553191409
  0
LINE
  5
32B
100
AcDbEntity
  8
0
100
AcDbLine
 62
7
  6
CONTINUOUS
 10
-1.7750000596
 20
29.7531915426
 11
-2.025
 21
30.0085106611
  0
LINE
  5
32C
100
AcDbEntity
  8
0
100
AcDbLine
 62
7
  6
CONTINUOUS
 10
0.8500001192
 20
29.7531915426
 11
0.6625001192
 21
29.9446808815
  0
LINE
  5
32D
100
AcDbEntity
  8
0
100
AcDbLine
 62
7
  6
CONTINUOUS
 10
-1.7124999404
 20
28.4127659917
 11
-1.8375
 21
28.6042553306
  0
LINE
  5
32E
100
AcDbEntity
  8
0
100
AcDbLine
 62
7
  6
CONTINUOUS
 10
-2.1500000596
 20
29.689361763
 11
-2.025
 21
29.4978724241
  0
LINE
  5
32F
100
AcDbEntity
  8
0
100
AcDbLine
 62
7
  6
CONTINUOUS
 10
-0.525
 20
27.7106382817
 11
-0.7750001192
 21
28.0936170042
  0
LINE
  5
330
100
AcDbEntity
  8
0
100
AcDbLine
 62
7
  6
CONTINUOUS
 10
0.4750001192
 20
29.689361763
 11
0.7249998808
 21
29.3063829064
  0
LINE
  5
331
100
AcDbEntity
  8
0
100
AcDbLine
 62
7
  6
CONTINUOUS
 10
0.975
 20
29.4978724241
 11
0.8500001192
 21
29.7531915426
  0
LINE
  5
332
100
AcDbEntity
  8
0
100
AcDbLine
 62
7
  6
CONTINUOUS
 10
-2.5249999702
 20
27.2
 11
-2.2749999404
 21
27.2638297852
  0
LINE
  5
333
100
AcDbEntity
  8
0
100
AcDbLine
 62
7
  6
CONTINUOUS
 10
0.2875001192
 20
27.5829787225
 11
-0.0250001192
 21
27.5191489428
  0
LINE
  5
334
100
AcDbEntity
  8
0
100
AcDbLine
 62
7
  6
CONTINUOUS
 10
-2.2749999404
 20
27.5829787225
 11
-2.5875
 21
27.5191489428
  0
LINE
  5
335
100
AcDbEntity
  8
0
100
AcDbLine
 62
7
  6
CONTINUOUS
 10
-0.3375
 20
29.8170213223
 11
-0.0250001192
 21
29.8808511019
  0
LINE
  5
336
100
AcDbEntity
  8
0
100
AcDbLine
 62
7
  6
CONTINUOUS
 10
-3.2124999851
 20
29.8170213223
 11
-2.8999999702
 21
29.8808511019
  0
LINE
  5
337
100
AcDbEntity
  8
0
100
AcDbLine
 62
7
  6
CONTINUOUS
 10
-0.0250001192
 20
27.2
 11
0.3499998808
 21
27.2638297852
  0
LINE
  5
338
100
AcDbEntity
  8
0
100
AcDbLine
 62
7
  6
CONTINUOUS
 10
-0.0250001192
 20
30.2
 11
-0.4000001192
 21
30.1361702204
  0
LINE
  5
339
100
AcDbEntity
  8
0
100
AcDbLine
 62
7
  6
CONTINUOUS
 10
-2.8375000298
 20
30.2
 11
-3.2750000149
 21
30.1361702204
  0
LINE
  5
33A
100
AcDbEntity
  8
RACCORDO
100
AcDbLine
 62
250
  6
CONTINUOUS
 10
167.8822464769
 20
25.7074119919
 11
168.1749258819
 21
25.7074119919
  0
LINE
  5
33B
100
AcDbEntity
  8
RACCORDO
100
AcDbLine
 62
250
  6
CONTINUOUS
 10
168.9469029106
 20
26.291424784
 11
168.4662592691
 21
26.291424784
  0
LINE
  5
33C
100
AcDbEntity
  8
0
100
AcDbLine
 62
7
  6
CONTINUOUS
 10
143.0
 20
26.4
 11
-143.0
 21
26.4
  0
LINE
  5
33D
100
AcDbEntity
  8
0
100
AcDbLine
 62
7
  6
CONTINUOUS
 10
-143.0
 20
26.6
 11
143.0
 21
26.6
  0
LINE
  5
33E
100
AcDbEntity
  8
RACCORDO
100
AcDbLine
 62
250
  6
CONTINUOUS
 10
168.4748344851
 20
26.7913486316
 11
169.4639771903
 21
26.7913486316
  0
LINE
  5
33F
100
AcDbEntity
  8
0
100
AcDbLine
 62
7
  6
CONTINUOUS
 10
-3.0250000298
 20
27.2
 11
-2.5249999702
 21
27.2
  0
LINE
  5
340
100
AcDbEntity
  8
0
100
AcDbLine
 62
7
  6
CONTINUOUS
 10
2.2250002384
 20
27.2
 11
2.6000002384
 21
27.2
  0
LINE
  5
341
100
AcDbEntity
  8
0
100
AcDbLine
 62
7
  6
CONTINUOUS
 10
-2.5875
 20
27.5191489428
 11
-2.9625
 21
27.5191489428
  0
LINE
  5
342
100
AcDbEntity
  8
0
100
AcDbLine
 62
7
  6
CONTINUOUS
 10
-3.5875000075
 20
27.9021276653
 11
-3.9
 21
27.9021276653
  0
LINE
  5
343
100
AcDbEntity
  8
0
100
AcDbLine
 62
7
  6
CONTINUOUS
 10
-2.8999999702
 20
28.6042553306
 11
-2.6500000298
 21
28.6042553306
  0
LINE
  5
344
100
AcDbEntity
  8
0
100
AcDbLine
 62
7
  6
CONTINUOUS
 10
-2.6500000298
 20
28.8595744491
 11
-2.8999999702
 21
28.8595744491
  0
LINE
  5
345
100
AcDbEntity
  8
0
100
AcDbLine
 62
7
  6
CONTINUOUS
 10
-3.8374999981
 20
29.4978724241
 11
-3.525
 21
29.4978724241
  0
LINE
  5
346
100
AcDbEntity
  8
0
100
AcDbLine
 62
7
  6
CONTINUOUS
 10
-2.8999999702
 20
29.8808511019
 11
-2.6500000298
 21
29.8808511019
  0
LINE
  5
347
100
AcDbEntity
  8
0
100
AcDbLine
 62
7
  6
CONTINUOUS
 10
1.6000001192
 20
29.8808511019
 11
3.4749997616
 21
29.8808511019
  0
LINE
  5
348
100
AcDbEntity
  8
0
100
AcDbLine
 62
7
  6
CONTINUOUS
 10
3.8499997616
 20
30.2
 11
1.6000001192
 21
30.2
  0
LINE
  5
349
100
AcDbEntity
  8
0
100
AcDbLine
 62
7
  6
CONTINUOUS
 10
-2.7124999702
 20
30.2
 11
-2.8375000298
 21
30.2
  0
LINE
  5
34A
100
AcDbEntity
  8
RACCORDO
100
AcDbLine
 62
250
  6
CONTINUOUS
 10
168.4748344851
 20
31.6086513684
 11
169.4639771903
 21
31.6086513685
  0
LINE
  5
34B
100
AcDbEntity
  8
RACCORDO
100
AcDbLine
 62
250
  6
CONTINUOUS
 10
168.4662592691
 20
32.108575216
 11
168.9469029106
 21
32.108575216
  0
LINE
  5
34C
100
AcDbEntity
  8
RACCORDO
100
AcDbLine
 62
250
  6
CONTINUOUS
 10
168.1749258819
 20
32.6925880081
 11
167.8822464769
 21
32.6925880081
  0
LINE
  5
34D
100
AcDbEntity
  8
0
100
AcDbLine
 62
7
  6
CONTINUOUS
 10
168.1749258819
 20
33.7242099741
 11
164.0
 21
33.7242099741
  0
LINE
  5
34E
100
AcDbEntity
  8
0
100
AcDbLine
 62
7
  6
CONTINUOUS
 10
-164.0
 20
33.7242099741
 11
-168.1749258819
 21
33.7242099741
  0
LINE
  5
34F
100
AcDbEntity
  8
DRAFT
100
AcDbLine
 62
7
  6
CONTINUOUS
 10
168.2
 20
34.0
 11
164.0
 21
34.0
  0
LINE
  5
350
100
AcDbEntity
  8
DRAFT
100
AcDbLine
 62
7
  6
CONTINUOUS
 10
-164.0
 20
34.0
 11
-168.2
 21
34.0
  0
LINE
  5
351
100
AcDbEntity
  8
DRAFT
100
AcDbLine
 62
250
  6
CONTINUOUS
 10
-162.5
 20
35.5
 11
-162.2242099741
 21
35.5
  0
LINE
  5
352
100
AcDbEntity
  8
DRAFT
100
AcDbLine
 62
250
  6
CONTINUOUS
 10
162.5
 20
35.5
 11
162.2242099741
 21
35.5
  0
LINE
  5
353
100
AcDbEntity
  8
DRAFT
100
AcDbLine
 62
250
  6
CONTINUOUS
 10
-18.1
 20
35.5
 11
-17.8242099741
 21
35.5
  0
LINE
  5
354
100
AcDbEntity
  8
DRAFT
100
AcDbLine
 62
250
  6
CONTINUOUS
 10
-20.9
 20
35.5
 11
-21.1757900259
 21
35.5
  0
LINE
  5
355
100
AcDbEntity
  8
0
100
AcDbLine
 62
250
  6
CONTINUOUS
 10
168.2
 20
35.5
 11
170.0
 21
35.5
  0
LINE
  5
356
100
AcDbEntity
  8
0
100
AcDbLine
 62
250
  6
CONTINUOUS
 10
-168.2
 20
35.5
 11
-170.0
 21
35.5
  0
LINE
  5
357
100
AcDbEntity
  8
0
100
AcDbLine
 62
7
  6
CONTINUOUS
 10
-2.2749999404
 20
30.1361702204
 11
-2.7124999702
 21
30.2
  0
LINE
  5
358
100
AcDbEntity
  8
0
100
AcDbLine
 62
7
  6
CONTINUOUS
 10
-0.4000001192
 20
27.2638297852
 11
-0.0250001192
 21
27.2
  0
LINE
  5
359
100
AcDbEntity
  8
0
100
AcDbLine
 62
7
  6
CONTINUOUS
 10
-2.6500000298
 20
28.6042553306
 11
-2.2749999404
 21
28.5404255509
  0
LINE
  5
35A
100
AcDbEntity
  8
0
100
AcDbLine
 62
7
  6
CONTINUOUS
 10
0.3499998808
 20
30.1361702204
 11
-0.0250001192
 21
30.2
  0
LINE
  5
35B
100
AcDbEntity
  8
0
100
AcDbLine
 62
7
  6
CONTINUOUS
 10
-2.9625
 20
27.5191489428
 11
-3.2750000149
 21
27.5829787225
  0
LINE
  5
35C
100
AcDbEntity
  8
0
100
AcDbLine
 62
7
  6
CONTINUOUS
 10
-0.0250001192
 20
27.5191489428
 11
-0.3375
 21
27.5829787225
  0
LINE
  5
35D
100
AcDbEntity
  8
0
100
AcDbLine
 62
7
  6
CONTINUOUS
 10
-2.6500000298
 20
29.8808511019
 11
-2.3375000596
 21
29.8170213223
  0
LINE
  5
35E
100
AcDbEntity
  8
0
100
AcDbLine
 62
7
  6
CONTINUOUS
 10
-0.0250001192
 20
29.8808511019
 11
0.2875001192
 21
29.8170213223
  0
LINE
  5
35F
100
AcDbEntity
  8
0
100
AcDbLine
 62
7
  6
CONTINUOUS
 10
-3.2750000149
 20
27.2638297852
 11
-3.0250000298
 21
27.2
  0
LINE
  5
360
100
AcDbEntity
  8
0
100
AcDbLine
 62
7
  6
CONTINUOUS
 10
-1.8375
 20
28.6042553306
 11
-2.1500000596
 21
28.7319148898
  0
LINE
  5
361
100
AcDbEntity
  8
0
100
AcDbLine
 62
7
  6
CONTINUOUS
 10
-2.025
 20
30.0085106611
 11
-2.2749999404
 21
30.1361702204
  0
LINE
  5
362
100
AcDbEntity
  8
0
100
AcDbLine
 62
7
  6
CONTINUOUS
 10
0.6625001192
 20
29.9446808815
 11
0.3499998808
 21
30.1361702204
  0
LINE
  5
363
100
AcDbEntity
  8
0
100
AcDbLine
 62
7
  6
CONTINUOUS
 10
18.1
 20
-39.7
 11
17.8248759926
 21
-39.9751240074
  0
LINE
  5
364
100
AcDbEntity
  8
0
100
AcDbLine
 62
7
  6
CONTINUOUS
 10
-155.1574467838
 20
2.4999998808
 11
-155.4127659917
 21
2.4375001192
  0
LINE
  5
365
100
AcDbEntity
  8
0
100
AcDbLine
 62
7
  6
CONTINUOUS
 10
-156.4978724241
 20
2.4375001192
 11
-156.7531915426
 21
2.375
  0
LINE
  5
366
100
AcDbEntity
  8
RACCORDO
100
AcDbLine
 62
250
  6
CONTINUOUS
 10
-149.9574119919
 20
39.382246477
 11
-156.9425880081
 21
39.382246477
  0
LINE
  5
367
100
AcDbEntity
  8
0
100
AcDbLine
 62
250
  6
CONTINUOUS
 10
162.2242099741
 20
39.6749258819
 11
-17.8242099741
 21
39.6749258819
  0
LINE
  5
368
100
AcDbEntity
  8
RACCORDO
100
AcDbLine
 62
250
  6
CONTINUOUS
 10
-156.649925098
 20
39.6749258628
 11
-162.2242099741
 21
39.6749258819
  0
LINE
  5
369
100
AcDbEntity
  8
RACCORDO
100
AcDbLine
 62
250
  6
CONTINUOUS
 10
-150.2500749007
 20
39.6749258624
 11
-21.1757900259
 21
39.6749258819
  0
LINE
  5
36A
100
AcDbEntity
  8
DRAFT
100
AcDbLine
 62
7
  6
CONTINUOUS
 10
-164.0
 20
39.7
 11
-162.5
 21
39.7
  0
LINE
  5
36B
100
AcDbEntity
  8
DRAFT
100
AcDbLine
 62
7
  6
CONTINUOUS
 10
-20.9
 20
39.7
 11
-18.1
 21
39.7
  0
LINE
  5
36C
100
AcDbEntity
  8
DRAFT
100
AcDbLine
 62
7
  6
CONTINUOUS
 10
162.5
 20
39.7
 11
164.0
 21
39.7
  0
LINE
  5
36D
100
AcDbEntity
  8
RACCORDO
100
AcDbLine
 62
250
  6
CONTINUOUS
 10
-150.4564316543
 20
39.8821703245
 11
-156.4435683455
 21
39.8821703245
  0
LINE
  5
36E
100
AcDbEntity
  8
RACCORDO
100
AcDbLine
 62
7
  6
CONTINUOUS
 10
-151.0413486316
 20
39.9748344851
 11
-155.8586513684
 21
39.9748344851
  0
LINE
  5
36F
100
AcDbEntity
  8
0
100
AcDbLine
 62
7
  6
CONTINUOUS
 10
164.0
 20
39.9751240074
 11
162.2248759926
 21
39.9751240074
  0
LINE
  5
370
100
AcDbEntity
  8
0
100
AcDbLine
 62
7
  6
CONTINUOUS
 10
-17.8248759926
 20
39.9751240074
 11
-21.1751240074
 21
39.9751240074
  0
LINE
  5
371
100
AcDbEntity
  8
0
100
AcDbLine
 62
7
  6
CONTINUOUS
 10
-162.2248759926
 20
39.9751240074
 11
-164.0
 21
39.9751240074
  0
LINE
  5
372
100
AcDbEntity
  8
RACCORDO
100
AcDbLine
 62
250
  6
CONTINUOUS
 10
-151.0413486316
 20
40.4640533427
 11
-155.8586513684
 21
40.4640533427
  0
LINE
  5
373
100
AcDbEntity
  8
RACCORDO
100
AcDbLine
 62
250
  6
CONTINUOUS
 10
164.0
 20
40.8747431161
 11
-149.9694172943
 21
40.8747431161
  0
LINE
  5
374
100
AcDbEntity
  8
RACCORDO
100
AcDbLine
 62
250
  6
CONTINUOUS
 10
-156.9305827057
 20
40.8747431161
 11
-164.0
 21
40.8747431161
  0
LINE
  5
375
100
AcDbEntity
  8
RACCORDO
100
AcDbLine
 62
250
  6
CONTINUOUS
 10
-151.0413486316
 20
40.9639771903
 11
-155.8586513684
 21
40.9639771903
  0
LINE
  5
376
100
AcDbEntity
  8
SUPERFICI
100
AcDbLine
 62
7
  6
CONTINUOUS
 10
164.0000001209
 20
41.5000003491
 11
-164.0000001209
 21
41.5000003491
  0
LINE
  5
377
100
AcDbEntity
  8
DRAFT
100
AcDbLine
 62
7
  6
CONTINUOUS
 10
164.0
 20
41.5
 11
-164.0
 21
41.5
  0
LINE
  5
378
100
AcDbEntity
  8
RACCORDO
100
AcDbLine
 62
250
  6
CONTINUOUS
 10
149.9694172943
 20
-40.8747431161
 11
150.0415009364
 21
-40.9468267582
  0
LINE
  5
379
100
AcDbEntity
  8
RACCORDO
100
AcDbLine
 62
250
  6
CONTINUOUS
 10
150.4693411419
 20
-40.3748192685
 11
150.541424784
 21
-40.4469029106
  0
LINE
  5
37A
100
AcDbEntity
  8
RACCORDO
100
AcDbLine
 62
7
  6
CONTINUOUS
 10
150.541424784
 20
-39.9662592691
 11
150.4578866022
 21
-39.8827210873
  0
LINE
  5
37B
100
AcDbEntity
  8
RACCORDO
100
AcDbLine
 62
7
  6
CONTINUOUS
 10
168.4662592691
 20
26.291424784
 11
168.3827210873
 21
26.2078866022
  0
LINE
  5
37C
100
AcDbEntity
  8
RACCORDO
100
AcDbLine
 62
250
  6
CONTINUOUS
 10
168.8748192685
 20
26.2193411419
 11
168.9469029106
 21
26.291424784
  0
LINE
  5
37D
100
AcDbEntity
  8
RACCORDO
100
AcDbLine
 62
250
  6
CONTINUOUS
 10
169.3747431161
 20
25.7194172943
 11
169.4468267582
 21
25.7915009364
  0
LINE
  5
37E
100
AcDbEntity
  8
RACCORDO
100
AcDbLine
 62
7
  6
CONTINUOUS
 10
156.358575216
 20
-39.9662592691
 11
156.4421133586
 21
-39.8827211265
  0
LINE
  5
37F
100
AcDbEntity
  8
RACCORDO
100
AcDbLine
 62
250
  6
CONTINUOUS
 10
156.358575216
 20
-40.4469029106
 11
156.4306588581
 21
-40.3748192685
  0
LINE
  5
380
100
AcDbEntity
  8
RACCORDO
100
AcDbLine
 62
250
  6
CONTINUOUS
 10
156.8584990636
 20
-40.9468267582
 11
156.9305827057
 21
-40.8747431161
  0
LINE
  5
381
100
AcDbEntity
  8
0
100
AcDbLine
 62
7
  6
CONTINUOUS
 10
143.0
 20
26.6
 11
143.0
 21
26.4
  0
LINE
  5
382
100
AcDbEntity
  8
RACCORDO
100
AcDbLine
 62
250
  6
CONTINUOUS
 10
149.9574119919
 20
-39.3822464769
 11
149.9574119919
 21
-39.6749258819
  0
LINE
  5
383
100
AcDbEntity
  8
RACCORDO
100
AcDbLine
 62
250
  6
CONTINUOUS
 10
150.541424784
 20
-40.4469029106
 11
150.541424784
 21
-39.9662592691
  0
LINE
  5
384
100
AcDbEntity
  8
RACCORDO
100
AcDbLine
 62
250
  6
CONTINUOUS
 10
151.0413486316
 20
-39.9748344851
 11
151.0413486316
 21
-40.9639771903
  0
LINE
  5
385
100
AcDbEntity
  8
0
100
AcDbLine
 62
7
  6
CONTINUOUS
 10
162.5
 20
-39.7
 11
162.2248759926
 21
-39.9751240074
  0
LINE
  5
386
100
AcDbEntity
  8
0
100
AcDbLine
 62
7
  6
CONTINUOUS
 10
168.2
 20
-34.0
 11
168.4751240074
 21
-33.7248759926
  0
LINE
  5
387
100
AcDbEntity
  8
RACCORDO
100
AcDbLine
 62
7
  6
CONTINUOUS
 10
168.4662592691
 20
32.108575216
 11
168.3827211265
 21
32.1921133586
  0
LINE
  5
388
100
AcDbEntity
  8
RACCORDO
100
AcDbLine
 62
250
  6
CONTINUOUS
 10
168.9469029106
 20
32.108575216
 11
168.8748192685
 21
32.1806588581
  0
LINE
  5
389
100
AcDbEntity
  8
RACCORDO
100
AcDbLine
 62
250
  6
CONTINUOUS
 10
169.4468267582
 20
32.6084990636
 11
169.3747431161
 21
32.6805827057
  0
LINE
  5
38A
100
AcDbEntity
  8
0
100
AcDbLine
 62
7
  6
CONTINUOUS
 10
162.5
 20
39.7
 11
162.2248759926
 21
39.9751240074
  0
LINE
  5
38B
100
AcDbEntity
  8
0
100
AcDbLine
 62
7
  6
CONTINUOUS
 10
168.2
 20
34.0
 11
168.4751240074
 21
33.7248759926
  0
LINE
  5
38C
100
AcDbEntity
  8
RACCORDO
100
AcDbLine
 62
250
  6
CONTINUOUS
 10
155.8586513684
 20
-39.9748344851
 11
155.8586513685
 21
-40.9639771903
  0
LINE
  5
38D
100
AcDbEntity
  8
RACCORDO
100
AcDbLine
 62
250
  6
CONTINUOUS
 10
156.358575216
 20
-39.9662592691
 11
156.358575216
 21
-40.4469029106
  0
LINE
  5
38E
100
AcDbEntity
  8
RACCORDO
100
AcDbLine
 62
250
  6
CONTINUOUS
 10
156.9425880081
 20
-39.6749258819
 11
156.9425880081
 21
-39.3822464769
  0
LINE
  5
38F
100
AcDbEntity
  8
0
100
AcDbLine
 62
7
  6
CONTINUOUS
 10
162.2242099741
 20
-39.6749258819
 11
162.2242099741
 21
-35.5
  0
LINE
  5
390
100
AcDbEntity
  8
0
100
AcDbLine
 62
7
  6
CONTINUOUS
 10
162.2242099741
 20
35.5
 11
162.2242099741
 21
39.6749258819
  0
LINE
  5
391
100
AcDbEntity
  8
DRAFT
100
AcDbLine
 62
7
  6
CONTINUOUS
 10
162.5
 20
-39.7
 11
162.5
 21
-35.5
  0
LINE
  5
392
100
AcDbEntity
  8
DRAFT
100
AcDbLine
 62
7
  6
CONTINUOUS
 10
162.5
 20
35.5
 11
162.5
 21
39.7
  0
LINE
  5
393
100
AcDbEntity
  8
DRAFT
100
AcDbLine
 62
250
  6
CONTINUOUS
 10
164.0
 20
34.0
 11
164.0
 21
33.7242099741
  0
LINE
  5
394
100
AcDbEntity
  8
DRAFT
100
AcDbLine
 62
250
  6
CONTINUOUS
 10
164.0
 20
-34.0
 11
164.0
 21
-33.7242099741
  0
LINE
  5
395
100
AcDbEntity
  8
0
100
AcDbLine
 62
250
  6
CONTINUOUS
 10
164.0
 20
-39.7
 11
164.0
 21
-41.5
  0
LINE
  5
396
100
AcDbEntity
  8
0
100
AcDbLine
 62
250
  6
CONTINUOUS
 10
164.0
 20
39.7
 11
164.0
 21
41.5
  0
LINE
  5
397
100
AcDbEntity
  8
RACCORDO
100
AcDbLine
 62
250
  6
CONTINUOUS
 10
167.8822464769
 20
25.7074119919
 11
167.8822464769
 21
32.6925880081
  0
LINE
  5
398
100
AcDbEntity
  8
RACCORDO
100
AcDbLine
 62
250
  6
CONTINUOUS
 10
168.1749258819
 20
-33.7242099741
 11
168.1749258623
 21
26.0000749007
  0
LINE
  5
399
100
AcDbEntity
  8
RACCORDO
100
AcDbLine
 62
250
  6
CONTINUOUS
 10
168.1749258628
 20
32.399925098
 11
168.1749258819
 21
33.7242099741
  0
LINE
  5
39A
100
AcDbEntity
  8
DRAFT
100
AcDbLine
 62
7
  6
CONTINUOUS
 10
168.2
 20
35.5
 11
168.2
 21
34.0
  0
LINE
  5
39B
100
AcDbEntity
  8
DRAFT
100
AcDbLine
 62
7
  6
CONTINUOUS
 10
168.2
 20
-34.0
 11
168.2
 21
-35.5
  0
LINE
  5
39C
100
AcDbEntity
  8
RACCORDO
100
AcDbLine
 62
250
  6
CONTINUOUS
 10
168.3821703245
 20
26.2064316543
 11
168.3821703245
 21
32.1935683455
  0
LINE
  5
39D
100
AcDbEntity
  8
RACCORDO
100
AcDbLine
 62
7
  6
CONTINUOUS
 10
168.4748344851
 20
26.7913486316
 11
168.4748344851
 21
31.6086513684
  0
LINE
  5
39E
100
AcDbEntity
  8
0
100
AcDbLine
 62
7
  6
CONTINUOUS
 10
168.4751240074
 20
-35.5
 11
168.4751240074
 21
-33.7248759926
  0
LINE
  5
39F
100
AcDbEntity
  8
0
100
AcDbLine
 62
7
  6
CONTINUOUS
 10
168.4751240074
 20
33.7248759926
 11
168.4751240074
 21
35.5
  0
LINE
  5
3A0
100
AcDbEntity
  8
RACCORDO
100
AcDbLine
 62
250
  6
CONTINUOUS
 10
168.9640533427
 20
26.7913486316
 11
168.9640533427
 21
31.6086513684
  0
LINE
  5
3A1
100
AcDbEntity
  8
RACCORDO
100
AcDbLine
 62
250
  6
CONTINUOUS
 10
169.3747431161
 20
-35.5
 11
169.3747431161
 21
25.7194172943
  0
LINE
  5
3A2
100
AcDbEntity
  8
RACCORDO
100
AcDbLine
 62
250
  6
CONTINUOUS
 10
169.3747431161
 20
32.6805827057
 11
169.3747431161
 21
35.5
  0
LINE
  5
3A3
100
AcDbEntity
  8
RACCORDO
100
AcDbLine
 62
250
  6
CONTINUOUS
 10
169.4639771903
 20
26.7913486316
 11
169.4639771903
 21
31.6086513684
  0
LINE
  5
3A4
100
AcDbEntity
  8
SUPERFICI
100
AcDbLine
 62
7
  6
CONTINUOUS
 10
170.0000003491
 20
35.5000000145
 11
170.0000003491
 21
-35.5000000243
  0
LINE
  5
3A5
100
AcDbEntity
  8
DRAFT
100
AcDbLine
 62
7
  6
CONTINUOUS
 10
170.0
 20
-35.5
 11
170.0
 21
35.5
  0
CIRCLE
  5
3A6
100
AcDbEntity
  8
RACCORDO
100
AcDbCircle
 62
7
  6
CONTINUOUS
 10
-153.5
 20
-26.5
 40
9.5
  0
CIRCLE
  5
3A7
100
AcDbEntity
  8
RACCORDO
100
AcDbCircle
 62
250
  6
CONTINUOUS
 10
-153.5
 20
-26.5
 40
8.9999993631
  0
ARC
  5
3A8
100
AcDbEntity
  8
SUPERFICI
100
AcDbCircle
 62
7
  6
CONTINUOUS
 10
-164.0
 20
-35.5
 40
6.0000004289
100
AcDbArc
 50
180.0000165401
 51
269.9999818696
  0
ARC
  5
3A9
100
AcDbEntity
  8
DRAFT
100
AcDbCircle
 62
7
  6
CONTINUOUS
 10
-164.0
 20
-35.5
 40
6.0
100
AcDbArc
 50
180.0
 51
270.0
  0
ARC
  5
3AA
100
AcDbEntity
  8
0
100
AcDbCircle
 62
250
  6
CONTINUOUS
 10
-164.0
 20
-35.5
 40
5.3747431161
100
AcDbArc
 50
180.0
 51
270.0
  0
ARC
  5
3AB
100
AcDbEntity
  8
0
100
AcDbCircle
 62
7
  6
CONTINUOUS
 10
-164.0
 20
-35.5
 40
4.4751240074
100
AcDbArc
 50
180.0
 51
270.0
  0
ARC
  5
3AC
100
AcDbEntity
  8
DRAFT
100
AcDbCircle
 62
7
  6
CONTINUOUS
 10
-164.0
 20
-35.5
 40
4.2
100
AcDbArc
 50
180.0
 51
270.0
  0
CIRCLE
  5
3AD
100
AcDbEntity
  8
0
100
AcDbCircle
 62
7
  6
CONTINUOUS
 10
-153.5
 20
-26.5
 40
2.0
  0
CIRCLE
  5
3AE
100
AcDbEntity
  8
0
100
AcDbCircle
 62
7
  6
CONTINUOUS
 10
-153.5
 20
-26.5
 40
1.8
  0
ARC
  5
3AF
100
AcDbEntity
  8
DRAFT
100
AcDbCircle
 62
7
  6
CONTINUOUS
 10
-164.0
 20
-35.5
 40
1.7757900259
100
AcDbArc
 50
0.0
 51
90.0
  0
CIRCLE
  5
3B0
100
AcDbEntity
  8
0
100
AcDbCircle
 62
7
  6
CONTINUOUS
 10
-153.5
 20
-26.5
 40
1.5
  0
ARC
  5
3B1
100
AcDbEntity
  8
DRAFT
100
AcDbCircle
 62
7
  6
CONTINUOUS
 10
-164.0
 20
-35.5
 40
1.5
100
AcDbArc
 50
0.0
 51
90.0
  0
ARC
  5
3B2
100
AcDbEntity
  8
RACCORDO
100
AcDbCircle
 62
250
  6
CONTINUOUS
 10
-168.8746111344
 20
-25.7192091601
 40
0.5001348227
100
AcDbArc
 50
180.0238441223
 51
269.9761558777
  0
ARC
  5
3B3
100
AcDbEntity
  8
RACCORDO
100
AcDbCircle
 62
250
  6
CONTINUOUS
 10
-168.9466947766
 20
-25.7912928024
 40
0.5001348225
100
AcDbArc
 50
180.0238441073
 51
269.976155893
  0
ARC
  5
3B4
100
AcDbEntity
  8
RACCORDO
100
AcDbCircle
 62
250
  6
CONTINUOUS
 10
-168.9466947765
 20
-32.6087071977
 40
0.5001348226
100
AcDbArc
 50
90.0238441153
 51
179.9761558847
  0
ARC
  5
3B5
100
AcDbEntity
  8
RACCORDO
100
AcDbCircle
 62
250
  6
CONTINUOUS
 10
-168.8746111356
 20
-32.6807908386
 40
0.5001348213
100
AcDbArc
 50
90.0238439779
 51
179.9761560311
  0
CIRCLE
  5
3B6
100
AcDbEntity
  8
RACCORDO
100
AcDbCircle
 62
250
  6
CONTINUOUS
 10
-136.0
 20
0.0
 40
11.8078645265
  0
CIRCLE
  5
3B7
100
AcDbEntity
  8
RACCORDO
100
AcDbCircle
 62
7
  6
CONTINUOUS
 10
-136.0
 20
0.0
 40
11.5078770275
  0
CIRCLE
  5
3B8
100
AcDbEntity
  8
DRAFT
100
AcDbCircle
 62
7
  6
CONTINUOUS
 10
-136.0
 20
0.0
 40
11.5
  0
CIRCLE
  5
3B9
100
AcDbEntity
  8
0
100
AcDbCircle
 62
7
  6
CONTINUOUS
 10
-136.0
 20
0.0
 40
11.25
  0
CIRCLE
  5
3BA
100
AcDbEntity
  8
RACCORDO
100
AcDbCircle
 62
250
  6
CONTINUOUS
 10
-136.0
 20
0.0
 40
10.6378677511
  0
CIRCLE
  5
3BB
100
AcDbEntity
  8
RACCORDO
100
AcDbCircle
 62
250
  6
CONTINUOUS
 10
-136.0
 20
0.0
 40
10.4257355271
  0
CIRCLE
  5
3BC
100
AcDbEntity
  8
RACCORDO
100
AcDbCircle
 62
7
  6
CONTINUOUS
 10
-113.3
 20
0.0
 40
4.8
  0
CIRCLE
  5
3BD
100
AcDbEntity
  8
RACCORDO
100
AcDbCircle
 62
250
  6
CONTINUOUS
 10
-113.3
 20
0.0
 40
4.2999987556
  0
CIRCLE
  5
3BE
100
AcDbEntity
  8
RACCORDO
100
AcDbCircle
 62
7
  6
CONTINUOUS
 10
-153.5
 20
26.5
 40
9.5
  0
CIRCLE
  5
3BF
100
AcDbEntity
  8
RACCORDO
100
AcDbCircle
 62
250
  6
CONTINUOUS
 10
-153.5
 20
26.5
 40
8.9999993631
  0
ARC
  5
3C0
100
AcDbEntity
  8
SUPERFICI
100
AcDbCircle
 62
7
  6
CONTINUOUS
 10
-164.0
 20
35.5
 40
6.0000004289
100
AcDbArc
 50
90.0000192217
 51
179.9999834907
  0
ARC
  5
3C1
100
AcDbEntity
  8
DRAFT
100
AcDbCircle
 62
7
  6
CONTINUOUS
 10
-164.0
 20
35.5
 40
6.0
100
AcDbArc
 50
90.0
 51
180.0
  0
ARC
  5
3C2
100
AcDbEntity
  8
0
100
AcDbCircle
 62
250
  6
CONTINUOUS
 10
-164.0
 20
35.5
 40
5.3747431161
100
AcDbArc
 50
90.0
 51
180.0
  0
ARC
  5
3C3
100
AcDbEntity
  8
0
100
AcDbCircle
 62
7
  6
CONTINUOUS
 10
-164.0
 20
35.5
 40
4.4751240074
100
AcDbArc
 50
90.0
 51
180.0
  0
ARC
  5
3C4
100
AcDbEntity
  8
DRAFT
100
AcDbCircle
 62
7
  6
CONTINUOUS
 10
-164.0
 20
35.5
 40
4.2
100
AcDbArc
 50
90.0
 51
180.0
  0
CIRCLE
  5
3C5
100
AcDbEntity
  8
0
100
AcDbCircle
 62
7
  6
CONTINUOUS
 10
-153.5
 20
26.5
 40
2.0
  0
CIRCLE
  5
3C6
100
AcDbEntity
  8
0
100
AcDbCircle
 62
7
  6
CONTINUOUS
 10
-153.5
 20
26.5
 40
1.8
  0
ARC
  5
3C7
100
AcDbEntity
  8
DRAFT
100
AcDbCircle
 62
7
  6
CONTINUOUS
 10
-164.0
 20
35.5
 40
1.7757900259
100
AcDbArc
 50
270.0
 51
360.0
  0
CIRCLE
  5
3C8
100
AcDbEntity
  8
0
100
AcDbCircle
 62
7
  6
CONTINUOUS
 10
-153.5
 20
26.5
 40
1.5
  0
ARC
  5
3C9
100
AcDbEntity
  8
DRAFT
100
AcDbCircle
 62
7
  6
CONTINUOUS
 10
-164.0
 20
35.5
 40
1.5
100
AcDbArc
 50
270.0
 51
360.0
  0
ARC
  5
3CA
100
AcDbEntity
  8
RACCORDO
100
AcDbCircle
 62
250
  6
CONTINUOUS
 10
-149.9692091602
 20
40.3746111344
 40
0.5001348226
100
AcDbArc
 50
90.0238441199
 51
179.9761558801
  0
ARC
  5
3CB
100
AcDbEntity
  8
RACCORDO
100
AcDbCircle
 62
250
  6
CONTINUOUS
 10
-150.0412928023
 20
40.4466947765
 40
0.5001348226
100
AcDbArc
 50
90.0238441208
 51
179.9761558795
  0
ARC
  5
3CC
100
AcDbEntity
  8
RACCORDO
100
AcDbCircle
 62
250
  6
CONTINUOUS
 10
-156.8587071976
 20
40.4466947766
 40
0.5001348225
100
AcDbArc
 50
0.0238441097
 51
89.9761558903
  0
ARC
  5
3CD
100
AcDbEntity
  8
RACCORDO
100
AcDbCircle
 62
250
  6
CONTINUOUS
 10
-156.9307908385
 20
40.3746111357
 40
0.5001348213
100
AcDbArc
 50
0.0238439744
 51
89.9761560346
  0
CIRCLE
  5
3CE
100
AcDbEntity
  8
RACCORDO
100
AcDbCircle
 62
250
  6
CONTINUOUS
 10
-68.0
 20
0.0
 40
11.8078645265
  0
CIRCLE
  5
3CF
100
AcDbEntity
  8
RACCORDO
100
AcDbCircle
 62
7
  6
CONTINUOUS
 10
-68.0
 20
0.0
 40
11.5078770275
  0
CIRCLE
  5
3D0
100
AcDbEntity
  8
DRAFT
100
AcDbCircle
 62
7
  6
CONTINUOUS
 10
-68.0
 20
0.0
 40
11.5
  0
CIRCLE
  5
3D1
100
AcDbEntity
  8
ASSI
100
AcDbCircle
 62
7
  6
CONTINUOUS
 10
-68.0
 20
0.0
 40
11.25
  0
CIRCLE
  5
3D2
100
AcDbEntity
  8
RACCORDO
100
AcDbCircle
 62
250
  6
CONTINUOUS
 10
-68.0
 20
0.0
 40
10.6378677511
  0
CIRCLE
  5
3D3
100
AcDbEntity
  8
RACCORDO
100
AcDbCircle
 62
250
  6
CONTINUOUS
 10
-68.0
 20
0.0
 40
10.4257355271
  0
ARC
  5
3D4
100
AcDbEntity
  8
DRAFT
100
AcDbCircle
 62
7
  6
CONTINUOUS
 10
-19.5
 20
35.5
 40
1.6757900259
100
AcDbArc
 50
180.0
 51
360.0
  0
ARC
  5
3D5
100
AcDbEntity
  8
DRAFT
100
AcDbCircle
 62
7
  6
CONTINUOUS
 10
-19.5
 20
35.5
 40
1.4
100
AcDbArc
 50
180.0
 51
360.0
  0
CIRCLE
  5
3D6
100
AcDbEntity
  8
RACCORDO
100
AcDbCircle
 62
7
  6
CONTINUOUS
 10
153.5
 20
-26.5
 40
9.5
  0
CIRCLE
  5
3D7
100
AcDbEntity
  8
RACCORDO
100
AcDbCircle
 62
250
  6
CONTINUOUS
 10
153.5
 20
-26.5
 40
8.9999993631
  0
ARC
  5
3D8
100
AcDbEntity
  8
SUPERFICI
100
AcDbCircle
 62
7
  6
CONTINUOUS
 10
164.0
 20
-35.5
 40
6.0000004289
100
AcDbArc
 50
270.0000181304
 51
359.9999834599
  0
ARC
  5
3D9
100
AcDbEntity
  8
DRAFT
100
AcDbCircle
 62
7
  6
CONTINUOUS
 10
164.0
 20
-35.5
 40
6.0
100
AcDbArc
 50
270.0
 51
360.0
  0
ARC
  5
3DA
100
AcDbEntity
  8
0
100
AcDbCircle
 62
250
  6
CONTINUOUS
 10
164.0
 20
-35.5
 40
5.3747431161
100
AcDbArc
 50
270.0
 51
360.0
  0
ARC
  5
3DB
100
AcDbEntity
  8
0
100
AcDbCircle
 62
7
  6
CONTINUOUS
 10
164.0
 20
-35.5
 40
4.4751240074
100
AcDbArc
 50
270.0
 51
360.0
  0
ARC
  5
3DC
100
AcDbEntity
  8
DRAFT
100
AcDbCircle
 62
7
  6
CONTINUOUS
 10
164.0
 20
-35.5
 40
4.2
100
AcDbArc
 50
270.0
 51
360.0
  0
CIRCLE
  5
3DD
100
AcDbEntity
  8
0
100
AcDbCircle
 62
7
  6
CONTINUOUS
 10
153.5
 20
-26.5
 40
2.0
  0
CIRCLE
  5
3DE
100
AcDbEntity
  8
0
100
AcDbCircle
 62
7
  6
CONTINUOUS
 10
153.5
 20
-26.5
 40
1.8
  0
ARC
  5
3DF
100
AcDbEntity
  8
DRAFT
100
AcDbCircle
 62
7
  6
CONTINUOUS
 10
164.0
 20
-35.5
 40
1.7757900259
100
AcDbArc
 50
90.0
 51
180.0
  0
ARC
  5
3E0
100
AcDbEntity
  8
DRAFT
100
AcDbCircle
 62
7
  6
CONTINUOUS
 10
19.5
 20
-35.5
 40
1.6757900259
100
AcDbArc
 50
0.0
 51
180.0
  0
CIRCLE
  5
3E1
100
AcDbEntity
  8
0
100
AcDbCircle
 62
7
  6
CONTINUOUS
 10
153.5
 20
-26.5
 40
1.5
  0
ARC
  5
3E2
100
AcDbEntity
  8
DRAFT
100
AcDbCircle
 62
7
  6
CONTINUOUS
 10
164.0
 20
-35.5
 40
1.5
100
AcDbArc
 50
90.0
 51
180.0
  0
ARC
  5
3E3
100
AcDbEntity
  8
DRAFT
100
AcDbCircle
 62
7
  6
CONTINUOUS
 10
19.5
 20
-35.5
 40
1.4
100
AcDbArc
 50
0.0
 51
180.0
  0
ARC
  5
3E4
100
AcDbEntity
  8
RACCORDO
100
AcDbCircle
 62
250
  6
CONTINUOUS
 10
149.9692091602
 20
-40.3746111344
 40
0.5001348226
100
AcDbArc
 50
270.0238441167
 51
359.9761558833
  0
ARC
  5
3E5
100
AcDbEntity
  8
RACCORDO
100
AcDbCircle
 62
250
  6
CONTINUOUS
 10
150.0412928023
 20
-40.4466947766
 40
0.5001348226
100
AcDbArc
 50
270.0238441127
 51
359.9761558876
  0
ARC
  5
3E6
100
AcDbEntity
  8
RACCORDO
100
AcDbCircle
 62
250
  6
CONTINUOUS
 10
156.8587071976
 20
-40.4466947766
 40
0.5001348225
100
AcDbArc
 50
180.0238441064
 51
269.9761558936
  0
ARC
  5
3E7
100
AcDbEntity
  8
RACCORDO
100
AcDbCircle
 62
250
  6
CONTINUOUS
 10
156.9307908385
 20
-40.3746111357
 40
0.5001348213
100
AcDbArc
 50
180.0238439731
 51
269.976156036
  0
CIRCLE
  5
3E8
100
AcDbEntity
  8
RACCORDO
100
AcDbCircle
 62
250
  6
CONTINUOUS
 10
-0.0
 20
0.0
 40
11.8078645265
  0
CIRCLE
  5
3E9
100
AcDbEntity
  8
0
100
AcDbCircle
 62
250
  6
CONTINUOUS
 10
68.0
 20
0.0
 40
11.8078645265
  0
CIRCLE
  5
3EA
100
AcDbEntity
  8
0
100
AcDbCircle
 62
7
  6
CONTINUOUS
 10
68.0
 20
0.0
 40
11.5078770275
  0
CIRCLE
  5
3EB
100
AcDbEntity
  8
RACCORDO
100
AcDbCircle
 62
7
  6
CONTINUOUS
 10
-0.0
 20
0.0
 40
11.5078770275
  0
ARC
  5
3EC
100
AcDbEntity
  8
0
100
AcDbCircle
 62
7
  6
CONTINUOUS
 10
-0.0
 20
0.0
 40
11.5061088075
100
AcDbArc
 50
356.2626528724
 51
3.7373471276
  0
ARC
  5
3ED
100
AcDbEntity
  8
0
100
AcDbCircle
 62
7
  6
CONTINUOUS
 10
-0.0
 20
0.0
 40
11.5061088075
100
AcDbArc
 50
86.2626528724
 51
93.7373471276
  0
ARC
  5
3EE
100
AcDbEntity
  8
0
100
AcDbCircle
 62
7
  6
CONTINUOUS
 10
-0.0
 20
0.0
 40
11.5061088075
100
AcDbArc
 50
176.2626528724
 51
183.7373471276
  0
ARC
  5
3EF
100
AcDbEntity
  8
0
100
AcDbCircle
 62
7
  6
CONTINUOUS
 10
-0.0
 20
0.0
 40
11.5061088075
100
AcDbArc
 50
266.2626528724
 51
273.7373471276
  0
CIRCLE
  5
3F0
100
AcDbEntity
  8
0
100
AcDbCircle
 62
7
  6
CONTINUOUS
 10
68.0
 20
0.0
 40
11.5
  0
ARC
  5
3F1
100
AcDbEntity
  8
0
100
AcDbCircle
 62
7
  6
CONTINUOUS
 10
-0.0
 20
0.0
 40
11.5
100
AcDbArc
 50
3.7393352315
 51
86.2606647685
  0
ARC
  5
3F2
100
AcDbEntity
  8
0
100
AcDbCircle
 62
7
  6
CONTINUOUS
 10
-0.0
 20
0.0
 40
11.5
100
AcDbArc
 50
93.7393352315
 51
176.2606647685
  0
ARC
  5
3F3
100
AcDbEntity
  8
0
100
AcDbCircle
 62
7
  6
CONTINUOUS
 10
-0.0
 20
0.0
 40
11.5
100
AcDbArc
 50
273.7393352315
 51
356.2606647685
  0
ARC
  5
3F4
100
AcDbEntity
  8
0
100
AcDbCircle
 62
7
  6
CONTINUOUS
 10
-0.0
 20
0.0
 40
11.5
100
AcDbArc
 50
183.7393352315
 51
266.2606647685
  0
CIRCLE
  5
3F5
100
AcDbEntity
  8
0
100
AcDbCircle
 62
7
  6
CONTINUOUS
 10
68.0
 20
0.0
 40
11.25
  0
ARC
  5
3F6
100
AcDbEntity
  8
0
100
AcDbCircle
 62
7
  6
CONTINUOUS
 10
-0.0
 20
0.0
 40
11.25
100
AcDbArc
 50
273.8225537293
 51
356.1774462707
  0
ARC
  5
3F7
100
AcDbEntity
  8
0
100
AcDbCircle
 62
7
  6
CONTINUOUS
 10
-0.0
 20
0.0
 40
11.25
100
AcDbArc
 50
183.8225537293
 51
266.1774462707
  0
ARC
  5
3F8
100
AcDbEntity
  8
0
100
AcDbCircle
 62
7
  6
CONTINUOUS
 10
-0.0
 20
0.0
 40
11.25
100
AcDbArc
 50
3.8225537293
 51
86.1774462707
  0
ARC
  5
3F9
100
AcDbEntity
  8
0
100
AcDbCircle
 62
7
  6
CONTINUOUS
 10
-0.0
 20
0.0
 40
11.25
100
AcDbArc
 50
93.8225537293
 51
176.1774462707
  0
ARC
  5
3FA
100
AcDbEntity
  8
0
100
AcDbCircle
 62
250
  6
CONTINUOUS
 10
-0.0
 20
0.0
 40
10.6378679656
100
AcDbArc
 50
274.0428697094
 51
355.9571302906
  0
ARC
  5
3FB
100
AcDbEntity
  8
0
100
AcDbCircle
 62
250
  6
CONTINUOUS
 10
-0.0
 20
0.0
 40
10.6378679656
100
AcDbArc
 50
184.0428697094
 51
265.9571302906
  0
ARC
  5
3FC
100
AcDbEntity
  8
0
100
AcDbCircle
 62
250
  6
CONTINUOUS
 10
-0.0
 20
0.0
 40
10.6378679656
100
AcDbArc
 50
4.0428697094
 51
85.9571302906
  0
ARC
  5
3FD
100
AcDbEntity
  8
0
100
AcDbCircle
 62
250
  6
CONTINUOUS
 10
-0.0
 20
0.0
 40
10.6378679656
100
AcDbArc
 50
94.0428697094
 51
175.9571302906
  0
CIRCLE
  5
3FE
100
AcDbEntity
  8
0
100
AcDbCircle
 62
250
  6
CONTINUOUS
 10
68.0
 20
0.0
 40
10.6378677511
  0
ARC
  5
3FF
100
AcDbEntity
  8
0
100
AcDbCircle
 62
250
  6
CONTINUOUS
 10
-0.0
 20
0.0
 40
10.4257359313
100
AcDbArc
 50
4.1252708293
 51
85.8747291707
  0
ARC
  5
400
100
AcDbEntity
  8
0
100
AcDbCircle
 62
250
  6
CONTINUOUS
 10
-0.0
 20
0.0
 40
10.4257359313
100
AcDbArc
 50
94.1252708293
 51
175.8747291707
  0
ARC
  5
401
100
AcDbEntity
  8
0
100
AcDbCircle
 62
250
  6
CONTINUOUS
 10
-0.0
 20
0.0
 40
10.4257359313
100
AcDbArc
 50
184.1252708293
 51
265.8747291707
  0
ARC
  5
402
100
AcDbEntity
  8
0
100
AcDbCircle
 62
250
  6
CONTINUOUS
 10
-0.0
 20
0.0
 40
10.4257359313
100
AcDbArc
 50
274.1252708293
 51
355.8747291707
  0
CIRCLE
  5
403
100
AcDbEntity
  8
0
100
AcDbCircle
 62
250
  6
CONTINUOUS
 10
68.0
 20
0.0
 40
10.4257355271
  0
CIRCLE
  5
404
100
AcDbEntity
  8
0
100
AcDbCircle
 62
250
  6
CONTINUOUS
 10
136.0
 20
0.0
 40
11.8078645265
  0
CIRCLE
  5
405
100
AcDbEntity
  8
0
100
AcDbCircle
 62
7
  6
CONTINUOUS
 10
136.0
 20
0.0
 40
11.5078770275
  0
CIRCLE
  5
406
100
AcDbEntity
  8
0
100
AcDbCircle
 62
7
  6
CONTINUOUS
 10
136.0
 20
0.0
 40
11.5
  0
CIRCLE
  5
407
100
AcDbEntity
  8
0
100
AcDbCircle
 62
7
  6
CONTINUOUS
 10
136.0
 20
0.0
 40
11.25
  0
CIRCLE
  5
408
100
AcDbEntity
  8
0
100
AcDbCircle
 62
250
  6
CONTINUOUS
 10
136.0
 20
0.0
 40
10.6378677511
  0
CIRCLE
  5
409
100
AcDbEntity
  8
0
100
AcDbCircle
 62
250
  6
CONTINUOUS
 10
136.0
 20
0.0
 40
10.4257355271
  0
CIRCLE
  5
40A
100
AcDbEntity
  8
RACCORDO
100
AcDbCircle
 62
7
  6
CONTINUOUS
 10
113.3
 20
0.0
 40
4.8
  0
CIRCLE
  5
40B
100
AcDbEntity
  8
RACCORDO
100
AcDbCircle
 62
250
  6
CONTINUOUS
 10
113.3
 20
0.0
 40
4.2999987556
  0
CIRCLE
  5
40C
100
AcDbEntity
  8
RACCORDO
100
AcDbCircle
 62
7
  6
CONTINUOUS
 10
153.5
 20
26.5
 40
9.5
  0
CIRCLE
  5
40D
100
AcDbEntity
  8
RACCORDO
100
AcDbCircle
 62
250
  6
CONTINUOUS
 10
153.5
 20
26.5
 40
8.9999993631
  0
ARC
  5
40E
100
AcDbEntity
  8
SUPERFICI
100
AcDbCircle
 62
7
  6
CONTINUOUS
 10
164.0
 20
35.5
 40
6.0000004289
100
AcDbArc
 50
0.0000165093
 51
89.9999807783
  0
ARC
  5
40F
100
AcDbEntity
  8
DRAFT
100
AcDbCircle
 62
7
  6
CONTINUOUS
 10
164.0
 20
35.5
 40
6.0
100
AcDbArc
 50
0.0
 51
90.0
  0
ARC
  5
410
100
AcDbEntity
  8
0
100
AcDbCircle
 62
250
  6
CONTINUOUS
 10
164.0
 20
35.5
 40
5.3747431161
100
AcDbArc
 50
0.0
 51
90.0
  0
ARC
  5
411
100
AcDbEntity
  8
0
100
AcDbCircle
 62
7
  6
CONTINUOUS
 10
164.0
 20
35.5
 40
4.4751240074
100
AcDbArc
 50
0.0
 51
90.0
  0
ARC
  5
412
100
AcDbEntity
  8
DRAFT
100
AcDbCircle
 62
7
  6
CONTINUOUS
 10
164.0
 20
35.5
 40
4.2
100
AcDbArc
 50
0.0
 51
90.0
  0
CIRCLE
  5
413
100
AcDbEntity
  8
0
100
AcDbCircle
 62
7
  6
CONTINUOUS
 10
153.5
 20
26.5
 40
2.0
  0
CIRCLE
  5
414
100
AcDbEntity
  8
0
100
AcDbCircle
 62
7
  6
CONTINUOUS
 10
153.5
 20
26.5
 40
1.8
  0
ARC
  5
415
100
AcDbEntity
  8
DRAFT
100
AcDbCircle
 62
7
  6
CONTINUOUS
 10
164.0
 20
35.5
 40
1.7757900259
100
AcDbArc
 50
180.0
 51
270.0
  0
CIRCLE
  5
416
100
AcDbEntity
  8
0
100
AcDbCircle
 62
7
  6
CONTINUOUS
 10
153.5
 20
26.5
 40
1.5
  0
ARC
  5
417
100
AcDbEntity
  8
DRAFT
100
AcDbCircle
 62
7
  6
CONTINUOUS
 10
164.0
 20
35.5
 40
1.5
100
AcDbArc
 50
180.0
 51
270.0
  0
ARC
  5
418
100
AcDbEntity
  8
RACCORDO
100
AcDbCircle
 62
250
  6
CONTINUOUS
 10
168.8746111344
 20
25.7192091602
 40
0.5001348226
100
AcDbArc
 50
0.0238441193
 51
89.9761558807
  0
ARC
  5
419
100
AcDbEntity
  8
RACCORDO
100
AcDbCircle
 62
250
  6
CONTINUOUS
 10
168.9466947766
 20
25.7912928024
 40
0.5001348225
100
AcDbArc
 50
0.0238441081
 51
89.9761558922
  0
ARC
  5
41A
100
AcDbEntity
  8
RACCORDO
100
AcDbCircle
 62
250
  6
CONTINUOUS
 10
168.9466947765
 20
32.6087071977
 40
0.5001348226
100
AcDbArc
 50
270.0238441153
 51
359.9761558847
  0
ARC
  5
41B
100
AcDbEntity
  8
RACCORDO
100
AcDbCircle
 62
250
  6
CONTINUOUS
 10
168.8746111356
 20
32.6807908386
 40
0.5001348213
100
AcDbArc
 50
270.0238439776
 51
359.9761560314
  0
SPLINE
  5
41C
100
AcDbEntity
  8
DRAFT
100
AcDbSpline
 62
7
  6
CONTINUOUS
 70
0
 71
3
 72
27
 73
23
 74
0
 42
0.0000001
 43
0.0000001
 44
0.0000000001
 40
0.0
 40
0.0
 40
0.0
 40
0.0
 40
0.0005296954
 40
0.0015385457
 40
0.0052656532
 40
0.0113475864
 40
0.0197927834
 40
0.0305864643
 40
0.0437082633
 40
0.0591276119
 40
0.076807742
 40
0.0967089707
 40
0.1187818702
 40
0.1692295465
 40
0.2276670896
 40
0.2935339807
 40
0.3661978071
 40
0.4449592575
 40
0.5290601595
 40
0.6176926551
 40
0.8051010029
 40
1.0
 40
1.0
 40
1.0
 40
1.0
 10
169.6158968441
 20
11.5314219064
 30
0.0
 10
169.6138600356
 20
11.5313686378
 30
0.0
 10
169.6091810681
 20
11.5262601198
 30
0.0
 10
169.6024390902
 20
11.5078370928
 30
0.0
 10
169.5938961002
 20
11.4662998671
 30
0.0
 10
169.5849098873
 20
11.3970549194
 30
0.0
 10
169.5754621436
 20
11.2999263935
 30
0.0
 10
169.5660879189
 20
11.1758657399
 30
0.0
 10
169.5567213437
 20
11.0248244219
 30
0.0
 10
169.5474674484
 20
10.8472787728
 30
0.0
 10
169.5383439138
 20
10.6436085118
 30
0.0
 10
169.529389733
 20
10.4143194793
 30
0.0
 10
169.5171568468
 20
10.0590226777
 30
0.0
 10
169.502774099
 20
9.5554859707
 30
0.0
 10
169.487172484
 20
8.8834704577
 30
0.0
 10
169.4727467586
 20
8.1259557838
 30
0.0
 10
169.4596465898
 20
7.2902298593
 30
0.0
 10
169.4480124101
 20
6.3843379953
 30
0.0
 10
169.4379615987
 20
5.41699937
 30
0.0
 10
169.4266016642
 20
4.0317382783
 30
0.0
 10
169.4172192524
 20
2.2202598292
 30
0.0
 10
169.4147374887
 20
0.7496906439
 30
0.0
 10
169.4147374887
 20
0.0
 30
0.0
  0
SPLINE
  5
41D
100
AcDbEntity
  8
DRAFT
100
AcDbSpline
 62
7
  6
CONTINUOUS
 70
0
 71
3
 72
27
 73
23
 74
0
 42
0.0000001
 43
0.0000001
 44
0.0000000001
 40
0.0
 40
0.0
 40
0.0
 40
0.0
 40
0.0005296954
 40
0.0015385457
 40
0.0052656532
 40
0.0113475864
 40
0.0197927834
 40
0.0305864643
 40
0.0437082633
 40
0.0591276119
 40
0.076807742
 40
0.0967089707
 40
0.1187818702
 40
0.1692295465
 40
0.2276670896
 40
0.2935339807
 40
0.3661978071
 40
0.4449592575
 40
0.5290601595
 40
0.6176926551
 40
0.8051010029
 40
1.0
 40
1.0
 40
1.0
 40
1.0
 10
-169.6158968441
 20
11.5314219064
 30
0.0
 10
-169.6138600356
 20
11.5313686378
 30
0.0
 10
-169.6091810681
 20
11.5262601198
 30
0.0
 10
-169.6024390902
 20
11.5078370928
 30
0.0
 10
-169.5938961002
 20
11.4662998671
 30
0.0
 10
-169.5849098873
 20
11.3970549194
 30
0.0
 10
-169.5754621436
 20
11.2999263935
 30
0.0
 10
-169.5660879189
 20
11.1758657399
 30
0.0
 10
-169.5567213437
 20
11.0248244219
 30
0.0
 10
-169.5474674484
 20
10.8472787728
 30
0.0
 10
-169.5383439138
 20
10.6436085118
 30
0.0
 10
-169.529389733
 20
10.4143194793
 30
0.0
 10
-169.5171568468
 20
10.0590226777
 30
0.0
 10
-169.502774099
 20
9.5554859707
 30
0.0
 10
-169.487172484
 20
8.8834704577
 30
0.0
 10
-169.4727467586
 20
8.1259557838
 30
0.0
 10
-169.4596465898
 20
7.2902298593
 30
0.0
 10
-169.4480124101
 20
6.3843379953
 30
0.0
 10
-169.4379615987
 20
5.41699937
 30
0.0
 10
-169.4266016642
 20
4.0317382783
 30
0.0
 10
-169.4172192524
 20
2.2202598292
 30
0.0
 10
-169.4147374887
 20
0.7496906439
 30
0.0
 10
-169.4147374887
 20
0.0
 30
0.0
  0
SPLINE
  5
41E
100
AcDbEntity
  8
0
100
AcDbSpline
 62
7
  6
CONTINUOUS
 70
0
 71
3
 72
27
 73
23
 74
0
 42
0.0000001
 43
0.0000001
 44
0.0000000001
 40
0.0
 40
0.0
 40
0.0
 40
0.0
 40
0.0005296954
 40
0.0015385457
 40
0.0052656532
 40
0.0113475864
 40
0.0197927834
 40
0.0305864643
 40
0.0437082633
 40
0.0591276119
 40
0.076807742
 40
0.0967089707
 40
0.1187818702
 40
0.1692295465
 40
0.2276670896
 40
0.2935339807
 40
0.3661978071
 40
0.4449592575
 40
0.5290601595
 40
0.6176926551
 40
0.8051010029
 40
1.0
 40
1.0
 40
1.0
 40
1.0
 10
147.5314219064
 20
41.1158968441
 30
0.0
 10
147.5313686378
 20
41.1138600356
 30
0.0
 10
147.5262601198
 20
41.1091810681
 30
0.0
 10
147.5078370928
 20
41.1024390902
 30
0.0
 10
147.4662998671
 20
41.0938961002
 30
0.0
 10
147.3970549194
 20
41.0849098873
 30
0.0
 10
147.2999263935
 20
41.0754621436
 30
0.0
 10
147.1758657399
 20
41.0660879189
 30
0.0
 10
147.0248244219
 20
41.0567213437
 30
0.0
 10
146.8472787728
 20
41.0474674484
 30
0.0
 10
146.6436085118
 20
41.0383439138
 30
0.0
 10
146.4143194793
 20
41.029389733
 30
0.0
 10
146.0590226777
 20
41.0171568468
 30
0.0
 10
145.5554859707
 20
41.002774099
 30
0.0
 10
144.8834704577
 20
40.9871724841
 30
0.0
 10
144.1259557838
 20
40.9727467586
 30
0.0
 10
143.2902298593
 20
40.9596465898
 30
0.0
 10
142.3843379953
 20
40.9480124101
 30
0.0
 10
141.41699937
 20
40.9379615987
 30
0.0
 10
140.0317382783
 20
40.9266016642
 30
0.0
 10
138.2202598292
 20
40.9172192524
 30
0.0
 10
136.7496906439
 20
40.9147374887
 30
0.0
 10
136.0
 20
40.9147374887
 30
0.0
  0
SPLINE
  5
41F
100
AcDbEntity
  8
0
100
AcDbSpline
 62
7
  6
CONTINUOUS
 70
0
 71
3
 72
27
 73
23
 74
0
 42
0.0000001
 43
0.0000001
 44
0.0000000001
 40
0.0
 40
0.0
 40
0.0
 40
0.0
 40
0.0005296954
 40
0.0015385457
 40
0.0052656532
 40
0.0113475864
 40
0.0197927834
 40
0.0305864643
 40
0.0437082633
 40
0.0591276119
 40
0.076807742
 40
0.0967089707
 40
0.1187818702
 40
0.1692295465
 40
0.2276670896
 40
0.2935339807
 40
0.3661978071
 40
0.4449592575
 40
0.5290601595
 40
0.6176926551
 40
0.8051010029
 40
1.0
 40
1.0
 40
1.0
 40
1.0
 10
113.5314219064
 20
41.1158968441
 30
0.0
 10
113.5313686378
 20
41.1138600356
 30
0.0
 10
113.5262601198
 20
41.1091810681
 30
0.0
 10
113.5078370928
 20
41.1024390902
 30
0.0
 10
113.4662998671
 20
41.0938961002
 30
0.0
 10
113.3970549194
 20
41.0849098873
 30
0.0
 10
113.2999263935
 20
41.0754621436
 30
0.0
 10
113.1758657399
 20
41.0660879189
 30
0.0
 10
113.0248244219
 20
41.0567213437
 30
0.0
 10
112.8472787728
 20
41.0474674484
 30
0.0
 10
112.6436085118
 20
41.0383439138
 30
0.0
 10
112.4143194793
 20
41.029389733
 30
0.0
 10
112.0590226777
 20
41.0171568468
 30
0.0
 10
111.5554859707
 20
41.002774099
 30
0.0
 10
110.8834704577
 20
40.9871724841
 30
0.0
 10
110.1259557838
 20
40.9727467586
 30
0.0
 10
109.2902298593
 20
40.9596465898
 30
0.0
 10
108.3843379953
 20
40.9480124101
 30
0.0
 10
107.41699937
 20
40.9379615987
 30
0.0
 10
106.0317382783
 20
40.9266016642
 30
0.0
 10
104.2202598292
 20
40.9172192524
 30
0.0
 10
102.7496906439
 20
40.9147374887
 30
0.0
 10
102.0
 20
40.9147374887
 30
0.0
  0
SPLINE
  5
420
100
AcDbEntity
  8
DRAFT
100
AcDbSpline
 62
7
  6
CONTINUOUS
 70
0
 71
3
 72
27
 73
23
 74
0
 42
0.0000001
 43
0.0000001
 44
0.0000000001
 40
0.0
 40
0.0
 40
0.0
 40
0.0
 40
0.0005296954
 40
0.0015385457
 40
0.0052656532
 40
0.0113475864
 40
0.0197927834
 40
0.0305864643
 40
0.0437082633
 40
0.0591276119
 40
0.076807742
 40
0.0967089707
 40
0.1187818702
 40
0.1692295465
 40
0.2276670896
 40
0.2935339807
 40
0.3661978071
 40
0.4449592575
 40
0.5290601595
 40
0.6176926551
 40
0.8051010029
 40
1.0
 40
1.0
 40
1.0
 40
1.0
 10
11.5314219064
 20
41.1158968441
 30
0.0
 10
11.5313686378
 20
41.1138600356
 30
0.0
 10
11.5262601198
 20
41.1091810681
 30
0.0
 10
11.5078370928
 20
41.1024390902
 30
0.0
 10
11.4662998671
 20
41.0938961002
 30
0.0
 10
11.3970549194
 20
41.0849098873
 30
0.0
 10
11.2999263935
 20
41.0754621436
 30
0.0
 10
11.1758657399
 20
41.0660879189
 30
0.0
 10
11.0248244219
 20
41.0567213437
 30
0.0
 10
10.8472787728
 20
41.0474674484
 30
0.0
 10
10.6436085118
 20
41.0383439138
 30
0.0
 10
10.4143194793
 20
41.029389733
 30
0.0
 10
10.0590226777
 20
41.0171568468
 30
0.0
 10
9.5554859707
 20
41.002774099
 30
0.0
 10
8.8834704577
 20
40.9871724841
 30
0.0
 10
8.1259557838
 20
40.9727467586
 30
0.0
 10
7.2902298593
 20
40.9596465898
 30
0.0
 10
6.3843379953
 20
40.9480124101
 30
0.0
 10
5.41699937
 20
40.9379615987
 30
0.0
 10
4.0317382783
 20
40.9266016642
 30
0.0
 10
2.2202598292
 20
40.9172192524
 30
0.0
 10
0.7496906439
 20
40.9147374887
 30
0.0
 10
-0.0
 20
40.9147374887
 30
0.0
  0
SPLINE
  5
421
100
AcDbEntity
  8
DRAFT
100
AcDbSpline
 62
7
  6
CONTINUOUS
 70
0
 71
3
 72
27
 73
23
 74
0
 42
0.0000001
 43
0.0000001
 44
0.0000000001
 40
0.0
 40
0.0
 40
0.0
 40
0.0
 40
0.0005296954
 40
0.0015385457
 40
0.0052656532
 40
0.0113475864
 40
0.0197927834
 40
0.0305864643
 40
0.0437082633
 40
0.0591276119
 40
0.076807742
 40
0.0967089707
 40
0.1187818702
 40
0.1692295465
 40
0.2276670896
 40
0.2935339807
 40
0.3661978071
 40
0.4449592575
 40
0.5290601595
 40
0.6176926551
 40
0.8051010029
 40
1.0
 40
1.0
 40
1.0
 40
1.0
 10
-90.4685780936
 20
41.1158968441
 30
0.0
 10
-90.4686313622
 20
41.1138600356
 30
0.0
 10
-90.4737398802
 20
41.1091810681
 30
0.0
 10
-90.4921629072
 20
41.1024390902
 30
0.0
 10
-90.5337001329
 20
41.0938961002
 30
0.0
 10
-90.6029450806
 20
41.0849098873
 30
0.0
 10
-90.7000736065
 20
41.0754621436
 30
0.0
 10
-90.8241342601
 20
41.0660879189
 30
0.0
 10
-90.9751755781
 20
41.0567213437
 30
0.0
 10
-91.1527212272
 20
41.0474674484
 30
0.0
 10
-91.3563914882
 20
41.0383439138
 30
0.0
 10
-91.5856805207
 20
41.029389733
 30
0.0
 10
-91.9409773223
 20
41.0171568468
 30
0.0
 10
-92.4445140293
 20
41.002774099
 30
0.0
 10
-93.1165295423
 20
40.9871724841
 30
0.0
 10
-93.8740442162
 20
40.9727467586
 30
0.0
 10
-94.7097701407
 20
40.9596465898
 30
0.0
 10
-95.6156620047
 20
40.9480124101
 30
0.0
 10
-96.58300063
 20
40.9379615987
 30
0.0
 10
-97.9682617217
 20
40.9266016642
 30
0.0
 10
-99.7797401708
 20
40.9172192524
 30
0.0
 10
-101.2503093561
 20
40.9147374887
 30
0.0
 10
-102.0
 20
40.9147374887
 30
0.0
  0
SPLINE
  5
422
100
AcDbEntity
  8
DRAFT
100
AcDbSpline
 62
7
  6
CONTINUOUS
 70
0
 71
3
 72
27
 73
23
 74
0
 42
0.0000001
 43
0.0000001
 44
0.0000000001
 40
0.0
 40
0.0
 40
0.0
 40
0.0
 40
0.0005296954
 40
0.0015385457
 40
0.0052656532
 40
0.0113475864
 40
0.0197927834
 40
0.0305864643
 40
0.0437082633
 40
0.0591276119
 40
0.076807742
 40
0.0967089707
 40
0.1187818702
 40
0.1692295465
 40
0.2276670896
 40
0.2935339807
 40
0.3661978071
 40
0.4449592575
 40
0.5290601595
 40
0.6176926551
 40
0.8051010029
 40
1.0
 40
1.0
 40
1.0
 40
1.0
 10
-124.4685780936
 20
41.1158968441
 30
0.0
 10
-124.4686313622
 20
41.1138600356
 30
0.0
 10
-124.4737398802
 20
41.1091810681
 30
0.0
 10
-124.4921629072
 20
41.1024390902
 30
0.0
 10
-124.5337001329
 20
41.0938961002
 30
0.0
 10
-124.6029450806
 20
41.0849098873
 30
0.0
 10
-124.7000736065
 20
41.0754621436
 30
0.0
 10
-124.8241342601
 20
41.0660879189
 30
0.0
 10
-124.9751755781
 20
41.0567213437
 30
0.0
 10
-125.1527212272
 20
41.0474674484
 30
0.0
 10
-125.3563914882
 20
41.0383439138
 30
0.0
 10
-125.5856805207
 20
41.029389733
 30
0.0
 10
-125.9409773223
 20
41.0171568468
 30
0.0
 10
-126.4445140293
 20
41.002774099
 30
0.0
 10
-127.1165295423
 20
40.9871724841
 30
0.0
 10
-127.8740442162
 20
40.9727467586
 30
0.0
 10
-128.7097701407
 20
40.9596465898
 30
0.0
 10
-129.6156620047
 20
40.9480124101
 30
0.0
 10
-130.58300063
 20
40.9379615987
 30
0.0
 10
-131.9682617217
 20
40.9266016642
 30
0.0
 10
-133.7797401708
 20
40.9172192524
 30
0.0
 10
-135.2503093561
 20
40.9147374887
 30
0.0
 10
-136.0
 20
40.9147374887
 30
0.0
  0
SPLINE
  5
423
100
AcDbEntity
  8
0
100
AcDbSpline
 62
7
  6
CONTINUOUS
 70
0
 71
3
 72
27
 73
23
 74
0
 42
0.0000001
 43
0.0000001
 44
0.0000000001
 40
0.0
 40
0.0
 40
0.0
 40
0.0
 40
0.0005296954
 40
0.0015385457
 40
0.0052656532
 40
0.0113475864
 40
0.0197927834
 40
0.0305864643
 40
0.0437082633
 40
0.0591276119
 40
0.076807742
 40
0.0967089707
 40
0.1187818702
 40
0.1692295465
 40
0.2276670896
 40
0.2935339807
 40
0.3661978071
 40
0.4449592575
 40
0.5290601595
 40
0.6176926551
 40
0.8051010029
 40
1.0
 40
1.0
 40
1.0
 40
1.0
 10
147.5314219064
 20
-41.1158968441
 30
0.0
 10
147.5313686378
 20
-41.1138600356
 30
0.0
 10
147.5262601198
 20
-41.1091810681
 30
0.0
 10
147.5078370928
 20
-41.1024390902
 30
0.0
 10
147.4662998671
 20
-41.0938961002
 30
0.0
 10
147.3970549194
 20
-41.0849098873
 30
0.0
 10
147.2999263935
 20
-41.0754621436
 30
0.0
 10
147.1758657399
 20
-41.0660879188
 30
0.0
 10
147.0248244219
 20
-41.0567213437
 30
0.0
 10
146.8472787728
 20
-41.0474674484
 30
0.0
 10
146.6436085118
 20
-41.0383439138
 30
0.0
 10
146.4143194793
 20
-41.029389733
 30
0.0
 10
146.0590226777
 20
-41.0171568468
 30
0.0
 10
145.5554859707
 20
-41.002774099
 30
0.0
 10
144.8834704577
 20
-40.987172484
 30
0.0
 10
144.1259557838
 20
-40.9727467586
 30
0.0
 10
143.2902298593
 20
-40.9596465898
 30
0.0
 10
142.3843379953
 20
-40.9480124101
 30
0.0
 10
141.41699937
 20
-40.9379615987
 30
0.0
 10
140.0317382783
 20
-40.9266016642
 30
0.0
 10
138.2202598292
 20
-40.9172192524
 30
0.0
 10
136.7496906439
 20
-40.9147374887
 30
0.0
 10
136.0
 20
-40.9147374887
 30
0.0
  0
SPLINE
  5
424
100
AcDbEntity
  8
0
100
AcDbSpline
 62
7
  6
CONTINUOUS
 70
0
 71
3
 72
27
 73
23
 74
0
 42
0.0000001
 43
0.0000001
 44
0.0000000001
 40
0.0
 40
0.0
 40
0.0
 40
0.0
 40
0.0005296954
 40
0.0015385457
 40
0.0052656532
 40
0.0113475864
 40
0.0197927834
 40
0.0305864643
 40
0.0437082633
 40
0.0591276119
 40
0.076807742
 40
0.0967089707
 40
0.1187818702
 40
0.1692295465
 40
0.2276670896
 40
0.2935339807
 40
0.3661978071
 40
0.4449592575
 40
0.5290601595
 40
0.6176926551
 40
0.8051010029
 40
1.0
 40
1.0
 40
1.0
 40
1.0
 10
113.5314219064
 20
-41.1158968441
 30
0.0
 10
113.5313686378
 20
-41.1138600356
 30
0.0
 10
113.5262601198
 20
-41.1091810681
 30
0.0
 10
113.5078370928
 20
-41.1024390902
 30
0.0
 10
113.4662998671
 20
-41.0938961002
 30
0.0
 10
113.3970549194
 20
-41.0849098873
 30
0.0
 10
113.2999263935
 20
-41.0754621436
 30
0.0
 10
113.1758657399
 20
-41.0660879188
 30
0.0
 10
113.0248244219
 20
-41.0567213437
 30
0.0
 10
112.8472787728
 20
-41.0474674484
 30
0.0
 10
112.6436085118
 20
-41.0383439138
 30
0.0
 10
112.4143194793
 20
-41.029389733
 30
0.0
 10
112.0590226777
 20
-41.0171568468
 30
0.0
 10
111.5554859707
 20
-41.002774099
 30
0.0
 10
110.8834704577
 20
-40.987172484
 30
0.0
 10
110.1259557838
 20
-40.9727467586
 30
0.0
 10
109.2902298593
 20
-40.9596465898
 30
0.0
 10
108.3843379953
 20
-40.9480124101
 30
0.0
 10
107.41699937
 20
-40.9379615987
 30
0.0
 10
106.0317382783
 20
-40.9266016642
 30
0.0
 10
104.2202598292
 20
-40.9172192524
 30
0.0
 10
102.7496906439
 20
-40.9147374887
 30
0.0
 10
102.0
 20
-40.9147374887
 30
0.0
  0
SPLINE
  5
425
100
AcDbEntity
  8
DRAFT
100
AcDbSpline
 62
7
  6
CONTINUOUS
 70
0
 71
3
 72
27
 73
23
 74
0
 42
0.0000001
 43
0.0000001
 44
0.0000000001
 40
0.0
 40
0.0
 40
0.0
 40
0.0
 40
0.0005296954
 40
0.0015385457
 40
0.0052656532
 40
0.0113475864
 40
0.0197927834
 40
0.0305864643
 40
0.0437082633
 40
0.0591276119
 40
0.076807742
 40
0.0967089707
 40
0.1187818702
 40
0.1692295465
 40
0.2276670896
 40
0.2935339807
 40
0.3661978071
 40
0.4449592575
 40
0.5290601595
 40
0.6176926551
 40
0.8051010029
 40
1.0
 40
1.0
 40
1.0
 40
1.0
 10
11.5314219064
 20
-41.1158968441
 30
0.0
 10
11.5313686378
 20
-41.1138600356
 30
0.0
 10
11.5262601198
 20
-41.1091810681
 30
0.0
 10
11.5078370928
 20
-41.1024390902
 30
0.0
 10
11.4662998671
 20
-41.0938961002
 30
0.0
 10
11.3970549194
 20
-41.0849098873
 30
0.0
 10
11.2999263935
 20
-41.0754621436
 30
0.0
 10
11.1758657399
 20
-41.0660879188
 30
0.0
 10
11.0248244219
 20
-41.0567213437
 30
0.0
 10
10.8472787728
 20
-41.0474674484
 30
0.0
 10
10.6436085118
 20
-41.0383439138
 30
0.0
 10
10.4143194793
 20
-41.029389733
 30
0.0
 10
10.0590226777
 20
-41.0171568468
 30
0.0
 10
9.5554859707
 20
-41.002774099
 30
0.0
 10
8.8834704577
 20
-40.987172484
 30
0.0
 10
8.1259557838
 20
-40.9727467586
 30
0.0
 10
7.2902298593
 20
-40.9596465898
 30
0.0
 10
6.3843379953
 20
-40.9480124101
 30
0.0
 10
5.41699937
 20
-40.9379615987
 30
0.0
 10
4.0317382783
 20
-40.9266016642
 30
0.0
 10
2.2202598292
 20
-40.9172192524
 30
0.0
 10
0.7496906439
 20
-40.9147374887
 30
0.0
 10
-0.0
 20
-40.9147374887
 30
0.0
  0
SPLINE
  5
426
100
AcDbEntity
  8
DRAFT
100
AcDbSpline
 62
7
  6
CONTINUOUS
 70
0
 71
3
 72
27
 73
23
 74
0
 42
0.0000001
 43
0.0000001
 44
0.0000000001
 40
0.0
 40
0.0
 40
0.0
 40
0.0
 40
0.0005296954
 40
0.0015385457
 40
0.0052656532
 40
0.0113475864
 40
0.0197927834
 40
0.0305864643
 40
0.0437082633
 40
0.0591276119
 40
0.076807742
 40
0.0967089707
 40
0.1187818702
 40
0.1692295465
 40
0.2276670896
 40
0.2935339807
 40
0.3661978071
 40
0.4449592575
 40
0.5290601595
 40
0.6176926551
 40
0.8051010029
 40
1.0
 40
1.0
 40
1.0
 40
1.0
 10
-90.4685780936
 20
-41.1158968441
 30
0.0
 10
-90.4686313622
 20
-41.1138600356
 30
0.0
 10
-90.4737398802
 20
-41.1091810681
 30
0.0
 10
-90.4921629072
 20
-41.1024390902
 30
0.0
 10
-90.5337001329
 20
-41.0938961002
 30
0.0
 10
-90.6029450806
 20
-41.0849098873
 30
0.0
 10
-90.7000736065
 20
-41.0754621436
 30
0.0
 10
-90.8241342601
 20
-41.0660879188
 30
0.0
 10
-90.9751755781
 20
-41.0567213437
 30
0.0
 10
-91.1527212272
 20
-41.0474674484
 30
0.0
 10
-91.3563914882
 20
-41.0383439138
 30
0.0
 10
-91.5856805207
 20
-41.029389733
 30
0.0
 10
-91.9409773223
 20
-41.0171568468
 30
0.0
 10
-92.4445140293
 20
-41.002774099
 30
0.0
 10
-93.1165295423
 20
-40.987172484
 30
0.0
 10
-93.8740442162
 20
-40.9727467586
 30
0.0
 10
-94.7097701407
 20
-40.9596465898
 30
0.0
 10
-95.6156620047
 20
-40.9480124101
 30
0.0
 10
-96.58300063
 20
-40.9379615986
 30
0.0
 10
-97.9682617217
 20
-40.9266016642
 30
0.0
 10
-99.7797401708
 20
-40.9172192524
 30
0.0
 10
-101.2503093561
 20
-40.9147374887
 30
0.0
 10
-102.0
 20
-40.9147374887
 30
0.0
  0
SPLINE
  5
427
100
AcDbEntity
  8
DRAFT
100
AcDbSpline
 62
7
  6
CONTINUOUS
 70
0
 71
3
 72
27
 73
23
 74
0
 42
0.0000001
 43
0.0000001
 44
0.0000000001
 40
0.0
 40
0.0
 40
0.0
 40
0.0
 40
0.0005296954
 40
0.0015385457
 40
0.0052656532
 40
0.0113475864
 40
0.0197927834
 40
0.0305864643
 40
0.0437082633
 40
0.0591276119
 40
0.076807742
 40
0.0967089707
 40
0.1187818702
 40
0.1692295465
 40
0.2276670896
 40
0.2935339807
 40
0.3661978071
 40
0.4449592575
 40
0.5290601595
 40
0.6176926551
 40
0.8051010029
 40
1.0
 40
1.0
 40
1.0
 40
1.0
 10
-124.4685780936
 20
-41.1158968441
 30
0.0
 10
-124.4686313622
 20
-41.1138600356
 30
0.0
 10
-124.4737398802
 20
-41.1091810681
 30
0.0
 10
-124.4921629072
 20
-41.1024390902
 30
0.0
 10
-124.5337001329
 20
-41.0938961002
 30
0.0
 10
-124.6029450806
 20
-41.0849098873
 30
0.0
 10
-124.7000736065
 20
-41.0754621436
 30
0.0
 10
-124.8241342601
 20
-41.0660879188
 30
0.0
 10
-124.9751755781
 20
-41.0567213437
 30
0.0
 10
-125.1527212272
 20
-41.0474674484
 30
0.0
 10
-125.3563914882
 20
-41.0383439138
 30
0.0
 10
-125.5856805207
 20
-41.029389733
 30
0.0
 10
-125.9409773223
 20
-41.0171568468
 30
0.0
 10
-126.4445140293
 20
-41.002774099
 30
0.0
 10
-127.1165295423
 20
-40.987172484
 30
0.0
 10
-127.8740442162
 20
-40.9727467586
 30
0.0
 10
-128.7097701407
 20
-40.9596465898
 30
0.0
 10
-129.6156620047
 20
-40.9480124101
 30
0.0
 10
-130.58300063
 20
-40.9379615986
 30
0.0
 10
-131.9682617217
 20
-40.9266016642
 30
0.0
 10
-133.7797401708
 20
-40.9172192524
 30
0.0
 10
-135.2503093561
 20
-40.9147374887
 30
0.0
 10
-136.0
 20
-40.9147374887
 30
0.0
  0
SPLINE
  5
428
100
AcDbEntity
  8
DRAFT
100
AcDbSpline
 62
7
  6
CONTINUOUS
 70
0
 71
3
 72
27
 73
23
 74
0
 42
0.0000001
 43
0.0000001
 44
0.0000000001
 40
0.0
 40
0.0
 40
0.0
 40
0.0
 40
0.1948989971
 40
0.3823073449
 40
0.4709398405
 40
0.5550407425
 40
0.6338021929
 40
0.7064660193
 40
0.7723329104
 40
0.8307704535
 40
0.8812181298
 40
0.9032910293
 40
0.923192258
 40
0.9408723881
 40
0.9562917367
 40
0.9694135357
 40
0.9802072166
 40
0.9886524136
 40
0.9947343468
 40
0.9984614543
 40
0.9994703046
 40
1.0
 40
1.0
 40
1.0
 40
1.0
 10
-136.0
 20
-40.9147374887
 30
0.0
 10
-136.7496906439
 20
-40.9147374887
 30
0.0
 10
-138.2202598292
 20
-40.9172192524
 30
0.0
 10
-140.0317382783
 20
-40.9266016642
 30
0.0
 10
-141.41699937
 20
-40.9379615986
 30
0.0
 10
-142.3843379953
 20
-40.9480124101
 30
0.0
 10
-143.2902298593
 20
-40.9596465898
 30
0.0
 10
-144.1259557838
 20
-40.9727467586
 30
0.0
 10
-144.8834704577
 20
-40.987172484
 30
0.0
 10
-145.5554859707
 20
-41.002774099
 30
0.0
 10
-146.0590226777
 20
-41.0171568468
 30
0.0
 10
-146.4143194793
 20
-41.029389733
 30
0.0
 10
-146.6436085118
 20
-41.0383439138
 30
0.0
 10
-146.8472787728
 20
-41.0474674484
 30
0.0
 10
-147.0248244219
 20
-41.0567213437
 30
0.0
 10
-147.1758657399
 20
-41.0660879188
 30
0.0
 10
-147.2999263935
 20
-41.0754621436
 30
0.0
 10
-147.3970549194
 20
-41.0849098873
 30
0.0
 10
-147.4662998671
 20
-41.0938961002
 30
0.0
 10
-147.5078370928
 20
-41.1024390902
 30
0.0
 10
-147.5262601198
 20
-41.1091810681
 30
0.0
 10
-147.5313686378
 20
-41.1138600356
 30
0.0
 10
-147.5314219064
 20
-41.1158968441
 30
0.0
  0
SPLINE
  5
429
100
AcDbEntity
  8
DRAFT
100
AcDbSpline
 62
7
  6
CONTINUOUS
 70
0
 71
3
 72
27
 73
23
 74
0
 42
0.0000001
 43
0.0000001
 44
0.0000000001
 40
0.0
 40
0.0
 40
0.0
 40
0.0
 40
0.1948989971
 40
0.3823073449
 40
0.4709398405
 40
0.5550407425
 40
0.6338021929
 40
0.7064660193
 40
0.7723329104
 40
0.8307704535
 40
0.8812181298
 40
0.9032910293
 40
0.923192258
 40
0.9408723881
 40
0.9562917367
 40
0.9694135357
 40
0.9802072166
 40
0.9886524136
 40
0.9947343468
 40
0.9984614543
 40
0.9994703046
 40
1.0
 40
1.0
 40
1.0
 40
1.0
 10
-102.0
 20
-40.9147374887
 30
0.0
 10
-102.7496906439
 20
-40.9147374887
 30
0.0
 10
-104.2202598292
 20
-40.9172192524
 30
0.0
 10
-106.0317382783
 20
-40.9266016642
 30
0.0
 10
-107.41699937
 20
-40.9379615986
 30
0.0
 10
-108.3843379953
 20
-40.9480124101
 30
0.0
 10
-109.2902298593
 20
-40.9596465898
 30
0.0
 10
-110.1259557838
 20
-40.9727467586
 30
0.0
 10
-110.8834704577
 20
-40.987172484
 30
0.0
 10
-111.5554859707
 20
-41.002774099
 30
0.0
 10
-112.0590226777
 20
-41.0171568468
 30
0.0
 10
-112.4143194793
 20
-41.029389733
 30
0.0
 10
-112.6436085118
 20
-41.0383439138
 30
0.0
 10
-112.8472787728
 20
-41.0474674484
 30
0.0
 10
-113.0248244219
 20
-41.0567213437
 30
0.0
 10
-113.1758657399
 20
-41.0660879188
 30
0.0
 10
-113.2999263935
 20
-41.0754621436
 30
0.0
 10
-113.3970549194
 20
-41.0849098873
 30
0.0
 10
-113.4662998671
 20
-41.0938961002
 30
0.0
 10
-113.5078370928
 20
-41.1024390902
 30
0.0
 10
-113.5262601198
 20
-41.1091810681
 30
0.0
 10
-113.5313686378
 20
-41.1138600356
 30
0.0
 10
-113.5314219064
 20
-41.1158968441
 30
0.0
  0
SPLINE
  5
42A
100
AcDbEntity
  8
DRAFT
100
AcDbSpline
 62
7
  6
CONTINUOUS
 70
0
 71
3
 72
27
 73
23
 74
0
 42
0.0000001
 43
0.0000001
 44
0.0000000001
 40
0.0
 40
0.0
 40
0.0
 40
0.0
 40
0.1948989971
 40
0.3823073449
 40
0.4709398405
 40
0.5550407425
 40
0.6338021929
 40
0.7064660193
 40
0.7723329104
 40
0.8307704535
 40
0.8812181298
 40
0.9032910293
 40
0.923192258
 40
0.9408723881
 40
0.9562917367
 40
0.9694135357
 40
0.9802072166
 40
0.9886524136
 40
0.9947343468
 40
0.9984614543
 40
0.9994703046
 40
1.0
 40
1.0
 40
1.0
 40
1.0
 10
-0.0
 20
-40.9147374887
 30
0.0
 10
-0.7496906439
 20
-40.9147374887
 30
0.0
 10
-2.2202598292
 20
-40.9172192524
 30
0.0
 10
-4.0317382783
 20
-40.9266016642
 30
0.0
 10
-5.41699937
 20
-40.9379615987
 30
0.0
 10
-6.3843379953
 20
-40.9480124101
 30
0.0
 10
-7.2902298593
 20
-40.9596465898
 30
0.0
 10
-8.1259557838
 20
-40.9727467586
 30
0.0
 10
-8.8834704577
 20
-40.987172484
 30
0.0
 10
-9.5554859707
 20
-41.002774099
 30
0.0
 10
-10.0590226777
 20
-41.0171568468
 30
0.0
 10
-10.4143194793
 20
-41.029389733
 30
0.0
 10
-10.6436085118
 20
-41.0383439138
 30
0.0
 10
-10.8472787728
 20
-41.0474674484
 30
0.0
 10
-11.0248244219
 20
-41.0567213437
 30
0.0
 10
-11.1758657399
 20
-41.0660879188
 30
0.0
 10
-11.2999263935
 20
-41.0754621436
 30
0.0
 10
-11.3970549194
 20
-41.0849098873
 30
0.0
 10
-11.4662998671
 20
-41.0938961002
 30
0.0
 10
-11.5078370928
 20
-41.1024390902
 30
0.0
 10
-11.5262601198
 20
-41.1091810681
 30
0.0
 10
-11.5313686378
 20
-41.1138600356
 30
0.0
 10
-11.5314219064
 20
-41.1158968441
 30
0.0
  0
SPLINE
  5
42B
100
AcDbEntity
  8
0
100
AcDbSpline
 62
7
  6
CONTINUOUS
 70
0
 71
3
 72
27
 73
23
 74
0
 42
0.0000001
 43
0.0000001
 44
0.0000000001
 40
0.0
 40
0.0
 40
0.0
 40
0.0
 40
0.1948989971
 40
0.3823073449
 40
0.4709398405
 40
0.5550407425
 40
0.6338021929
 40
0.7064660193
 40
0.7723329104
 40
0.8307704535
 40
0.8812181298
 40
0.9032910293
 40
0.923192258
 40
0.9408723881
 40
0.9562917367
 40
0.9694135357
 40
0.9802072166
 40
0.9886524136
 40
0.9947343468
 40
0.9984614543
 40
0.9994703046
 40
1.0
 40
1.0
 40
1.0
 40
1.0
 10
102.0
 20
-40.9147374887
 30
0.0
 10
101.2503093561
 20
-40.9147374887
 30
0.0
 10
99.7797401708
 20
-40.9172192524
 30
0.0
 10
97.9682617217
 20
-40.9266016642
 30
0.0
 10
96.58300063
 20
-40.9379615987
 30
0.0
 10
95.6156620047
 20
-40.9480124101
 30
0.0
 10
94.7097701407
 20
-40.9596465898
 30
0.0
 10
93.8740442162
 20
-40.9727467586
 30
0.0
 10
93.1165295423
 20
-40.987172484
 30
0.0
 10
92.4445140293
 20
-41.002774099
 30
0.0
 10
91.9409773223
 20
-41.0171568468
 30
0.0
 10
91.5856805207
 20
-41.029389733
 30
0.0
 10
91.3563914882
 20
-41.0383439138
 30
0.0
 10
91.1527212272
 20
-41.0474674484
 30
0.0
 10
90.9751755781
 20
-41.0567213437
 30
0.0
 10
90.8241342601
 20
-41.0660879188
 30
0.0
 10
90.7000736065
 20
-41.0754621436
 30
0.0
 10
90.6029450806
 20
-41.0849098873
 30
0.0
 10
90.5337001329
 20
-41.0938961002
 30
0.0
 10
90.4921629072
 20
-41.1024390902
 30
0.0
 10
90.4737398802
 20
-41.1091810681
 30
0.0
 10
90.4686313622
 20
-41.1138600356
 30
0.0
 10
90.4685780936
 20
-41.1158968441
 30
0.0
  0
SPLINE
  5
42C
100
AcDbEntity
  8
0
100
AcDbSpline
 62
7
  6
CONTINUOUS
 70
0
 71
3
 72
27
 73
23
 74
0
 42
0.0000001
 43
0.0000001
 44
0.0000000001
 40
0.0
 40
0.0
 40
0.0
 40
0.0
 40
0.1948989971
 40
0.3823073449
 40
0.4709398405
 40
0.5550407425
 40
0.6338021929
 40
0.7064660193
 40
0.7723329104
 40
0.8307704535
 40
0.8812181298
 40
0.9032910293
 40
0.923192258
 40
0.9408723881
 40
0.9562917367
 40
0.9694135357
 40
0.9802072166
 40
0.9886524136
 40
0.9947343468
 40
0.9984614543
 40
0.9994703046
 40
1.0
 40
1.0
 40
1.0
 40
1.0
 10
136.0
 20
-40.9147374887
 30
0.0
 10
135.2503093561
 20
-40.9147374887
 30
0.0
 10
133.7797401708
 20
-40.9172192524
 30
0.0
 10
131.9682617217
 20
-40.9266016642
 30
0.0
 10
130.58300063
 20
-40.9379615987
 30
0.0
 10
129.6156620047
 20
-40.9480124101
 30
0.0
 10
128.7097701407
 20
-40.9596465898
 30
0.0
 10
127.8740442162
 20
-40.9727467586
 30
0.0
 10
127.1165295423
 20
-40.987172484
 30
0.0
 10
126.4445140293
 20
-41.002774099
 30
0.0
 10
125.9409773223
 20
-41.0171568468
 30
0.0
 10
125.5856805207
 20
-41.029389733
 30
0.0
 10
125.3563914882
 20
-41.0383439138
 30
0.0
 10
125.1527212272
 20
-41.0474674484
 30
0.0
 10
124.9751755781
 20
-41.0567213437
 30
0.0
 10
124.8241342601
 20
-41.0660879188
 30
0.0
 10
124.7000736065
 20
-41.0754621436
 30
0.0
 10
124.6029450806
 20
-41.0849098873
 30
0.0
 10
124.5337001329
 20
-41.0938961002
 30
0.0
 10
124.4921629072
 20
-41.1024390902
 30
0.0
 10
124.4737398802
 20
-41.1091810681
 30
0.0
 10
124.4686313622
 20
-41.1138600356
 30
0.0
 10
124.4685780936
 20
-41.1158968441
 30
0.0
  0
SPLINE
  5
42D
100
AcDbEntity
  8
DRAFT
100
AcDbSpline
 62
7
  6
CONTINUOUS
 70
0
 71
3
 72
27
 73
23
 74
0
 42
0.0000001
 43
0.0000001
 44
0.0000000001
 40
0.0
 40
0.0
 40
0.0
 40
0.0
 40
0.1948989971
 40
0.3823073449
 40
0.4709398405
 40
0.5550407425
 40
0.6338021929
 40
0.7064660193
 40
0.7723329104
 40
0.8307704535
 40
0.8812181298
 40
0.9032910293
 40
0.923192258
 40
0.9408723881
 40
0.9562917367
 40
0.9694135357
 40
0.9802072166
 40
0.9886524136
 40
0.9947343468
 40
0.9984614543
 40
0.9994703046
 40
1.0
 40
1.0
 40
1.0
 40
1.0
 10
-169.4147374887
 20
0.0
 30
0.0
 10
-169.4147374887
 20
-0.7496906439
 30
0.0
 10
-169.4172192524
 20
-2.2202598292
 30
0.0
 10
-169.4266016642
 20
-4.0317382783
 30
0.0
 10
-169.4379615987
 20
-5.41699937
 30
0.0
 10
-169.4480124101
 20
-6.3843379953
 30
0.0
 10
-169.4596465898
 20
-7.2902298593
 30
0.0
 10
-169.4727467586
 20
-8.1259557838
 30
0.0
 10
-169.487172484
 20
-8.8834704577
 30
0.0
 10
-169.502774099
 20
-9.5554859707
 30
0.0
 10
-169.5171568468
 20
-10.0590226777
 30
0.0
 10
-169.529389733
 20
-10.4143194793
 30
0.0
 10
-169.5383439138
 20
-10.6436085118
 30
0.0
 10
-169.5474674484
 20
-10.8472787728
 30
0.0
 10
-169.5567213437
 20
-11.0248244219
 30
0.0
 10
-169.5660879189
 20
-11.1758657399
 30
0.0
 10
-169.5754621436
 20
-11.2999263935
 30
0.0
 10
-169.5849098873
 20
-11.3970549194
 30
0.0
 10
-169.5938961002
 20
-11.4662998671
 30
0.0
 10
-169.6024390902
 20
-11.5078370928
 30
0.0
 10
-169.6091810681
 20
-11.5262601198
 30
0.0
 10
-169.6138600356
 20
-11.5313686378
 30
0.0
 10
-169.6158968441
 20
-11.5314219064
 30
0.0
  0
SPLINE
  5
42E
100
AcDbEntity
  8
DRAFT
100
AcDbSpline
 62
7
  6
CONTINUOUS
 70
0
 71
3
 72
27
 73
23
 74
0
 42
0.0000001
 43
0.0000001
 44
0.0000000001
 40
0.0
 40
0.0
 40
0.0
 40
0.0
 40
0.1948989971
 40
0.3823073449
 40
0.4709398405
 40
0.5550407425
 40
0.6338021929
 40
0.7064660193
 40
0.7723329104
 40
0.8307704535
 40
0.8812181298
 40
0.9032910293
 40
0.923192258
 40
0.9408723881
 40
0.9562917367
 40
0.9694135357
 40
0.9802072166
 40
0.9886524136
 40
0.9947343468
 40
0.9984614543
 40
0.9994703046
 40
1.0
 40
1.0
 40
1.0
 40
1.0
 10
-136.0
 20
40.9147374887
 30
0.0
 10
-136.7496906439
 20
40.9147374887
 30
0.0
 10
-138.2202598292
 20
40.9172192524
 30
0.0
 10
-140.0317382783
 20
40.9266016642
 30
0.0
 10
-141.41699937
 20
40.9379615987
 30
0.0
 10
-142.3843379953
 20
40.9480124101
 30
0.0
 10
-143.2902298593
 20
40.9596465898
 30
0.0
 10
-144.1259557838
 20
40.9727467586
 30
0.0
 10
-144.8834704577
 20
40.9871724841
 30
0.0
 10
-145.5554859707
 20
41.002774099
 30
0.0
 10
-146.0590226777
 20
41.0171568468
 30
0.0
 10
-146.4143194793
 20
41.029389733
 30
0.0
 10
-146.6436085118
 20
41.0383439138
 30
0.0
 10
-146.8472787728
 20
41.0474674484
 30
0.0
 10
-147.0248244219
 20
41.0567213437
 30
0.0
 10
-147.1758657399
 20
41.0660879189
 30
0.0
 10
-147.2999263935
 20
41.0754621436
 30
0.0
 10
-147.3970549194
 20
41.0849098873
 30
0.0
 10
-147.4662998671
 20
41.0938961002
 30
0.0
 10
-147.5078370928
 20
41.1024390902
 30
0.0
 10
-147.5262601198
 20
41.1091810681
 30
0.0
 10
-147.5313686378
 20
41.1138600356
 30
0.0
 10
-147.5314219064
 20
41.1158968441
 30
0.0
  0
SPLINE
  5
42F
100
AcDbEntity
  8
DRAFT
100
AcDbSpline
 62
7
  6
CONTINUOUS
 70
0
 71
3
 72
27
 73
23
 74
0
 42
0.0000001
 43
0.0000001
 44
0.0000000001
 40
0.0
 40
0.0
 40
0.0
 40
0.0
 40
0.1948989971
 40
0.3823073449
 40
0.4709398405
 40
0.5550407425
 40
0.6338021929
 40
0.7064660193
 40
0.7723329104
 40
0.8307704535
 40
0.8812181298
 40
0.9032910293
 40
0.923192258
 40
0.9408723881
 40
0.9562917367
 40
0.9694135357
 40
0.9802072166
 40
0.9886524136
 40
0.9947343468
 40
0.9984614543
 40
0.9994703046
 40
1.0
 40
1.0
 40
1.0
 40
1.0
 10
-102.0
 20
40.9147374887
 30
0.0
 10
-102.7496906439
 20
40.9147374887
 30
0.0
 10
-104.2202598292
 20
40.9172192524
 30
0.0
 10
-106.0317382783
 20
40.9266016642
 30
0.0
 10
-107.41699937
 20
40.9379615987
 30
0.0
 10
-108.3843379953
 20
40.9480124101
 30
0.0
 10
-109.2902298593
 20
40.9596465898
 30
0.0
 10
-110.1259557838
 20
40.9727467586
 30
0.0
 10
-110.8834704577
 20
40.9871724841
 30
0.0
 10
-111.5554859707
 20
41.002774099
 30
0.0
 10
-112.0590226777
 20
41.0171568468
 30
0.0
 10
-112.4143194793
 20
41.029389733
 30
0.0
 10
-112.6436085118
 20
41.0383439138
 30
0.0
 10
-112.8472787728
 20
41.0474674484
 30
0.0
 10
-113.0248244219
 20
41.0567213437
 30
0.0
 10
-113.1758657399
 20
41.0660879189
 30
0.0
 10
-113.2999263935
 20
41.0754621436
 30
0.0
 10
-113.3970549194
 20
41.0849098873
 30
0.0
 10
-113.4662998671
 20
41.0938961002
 30
0.0
 10
-113.5078370928
 20
41.1024390902
 30
0.0
 10
-113.5262601198
 20
41.1091810681
 30
0.0
 10
-113.5313686378
 20
41.1138600356
 30
0.0
 10
-113.5314219064
 20
41.1158968441
 30
0.0
  0
SPLINE
  5
430
100
AcDbEntity
  8
DRAFT
100
AcDbSpline
 62
7
  6
CONTINUOUS
 70
0
 71
3
 72
27
 73
23
 74
0
 42
0.0000001
 43
0.0000001
 44
0.0000000001
 40
0.0
 40
0.0
 40
0.0
 40
0.0
 40
0.1948989971
 40
0.3823073449
 40
0.4709398405
 40
0.5550407425
 40
0.6338021929
 40
0.7064660193
 40
0.7723329104
 40
0.8307704535
 40
0.8812181298
 40
0.9032910293
 40
0.923192258
 40
0.9408723881
 40
0.9562917367
 40
0.9694135357
 40
0.9802072166
 40
0.9886524136
 40
0.9947343468
 40
0.9984614543
 40
0.9994703046
 40
1.0
 40
1.0
 40
1.0
 40
1.0
 10
-0.0
 20
40.9147374887
 30
0.0
 10
-0.7496906439
 20
40.9147374887
 30
0.0
 10
-2.2202598292
 20
40.9172192524
 30
0.0
 10
-4.0317382783
 20
40.9266016642
 30
0.0
 10
-5.41699937
 20
40.9379615987
 30
0.0
 10
-6.3843379953
 20
40.9480124101
 30
0.0
 10
-7.2902298593
 20
40.9596465898
 30
0.0
 10
-8.1259557838
 20
40.9727467586
 30
0.0
 10
-8.8834704577
 20
40.9871724841
 30
0.0
 10
-9.5554859707
 20
41.002774099
 30
0.0
 10
-10.0590226777
 20
41.0171568468
 30
0.0
 10
-10.4143194793
 20
41.029389733
 30
0.0
 10
-10.6436085118
 20
41.0383439138
 30
0.0
 10
-10.8472787728
 20
41.0474674484
 30
0.0
 10
-11.0248244219
 20
41.0567213437
 30
0.0
 10
-11.1758657399
 20
41.0660879189
 30
0.0
 10
-11.2999263935
 20
41.0754621436
 30
0.0
 10
-11.3970549194
 20
41.0849098873
 30
0.0
 10
-11.4662998671
 20
41.0938961002
 30
0.0
 10
-11.5078370928
 20
41.1024390902
 30
0.0
 10
-11.5262601198
 20
41.1091810681
 30
0.0
 10
-11.5313686378
 20
41.1138600356
 30
0.0
 10
-11.5314219064
 20
41.1158968441
 30
0.0
  0
SPLINE
  5
431
100
AcDbEntity
  8
0
100
AcDbSpline
 62
7
  6
CONTINUOUS
 70
0
 71
3
 72
27
 73
23
 74
0
 42
0.0000001
 43
0.0000001
 44
0.0000000001
 40
0.0
 40
0.0
 40
0.0
 40
0.0
 40
0.1948989971
 40
0.3823073449
 40
0.4709398405
 40
0.5550407425
 40
0.6338021929
 40
0.7064660193
 40
0.7723329104
 40
0.8307704535
 40
0.8812181298
 40
0.9032910293
 40
0.923192258
 40
0.9408723881
 40
0.9562917367
 40
0.9694135357
 40
0.9802072166
 40
0.9886524136
 40
0.9947343468
 40
0.9984614543
 40
0.9994703046
 40
1.0
 40
1.0
 40
1.0
 40
1.0
 10
102.0
 20
40.9147374887
 30
0.0
 10
101.2503093561
 20
40.9147374887
 30
0.0
 10
99.7797401708
 20
40.9172192524
 30
0.0
 10
97.9682617217
 20
40.9266016642
 30
0.0
 10
96.58300063
 20
40.9379615987
 30
0.0
 10
95.6156620047
 20
40.9480124101
 30
0.0
 10
94.7097701407
 20
40.9596465898
 30
0.0
 10
93.8740442162
 20
40.9727467586
 30
0.0
 10
93.1165295423
 20
40.9871724841
 30
0.0
 10
92.4445140293
 20
41.002774099
 30
0.0
 10
91.9409773223
 20
41.0171568468
 30
0.0
 10
91.5856805207
 20
41.029389733
 30
0.0
 10
91.3563914882
 20
41.0383439138
 30
0.0
 10
91.1527212272
 20
41.0474674484
 30
0.0
 10
90.9751755781
 20
41.0567213437
 30
0.0
 10
90.8241342601
 20
41.0660879189
 30
0.0
 10
90.7000736065
 20
41.0754621436
 30
0.0
 10
90.6029450806
 20
41.0849098873
 30
0.0
 10
90.5337001329
 20
41.0938961002
 30
0.0
 10
90.4921629072
 20
41.1024390902
 30
0.0
 10
90.4737398802
 20
41.1091810681
 30
0.0
 10
90.4686313622
 20
41.1138600356
 30
0.0
 10
90.4685780936
 20
41.1158968441
 30
0.0
  0
SPLINE
  5
432
100
AcDbEntity
  8
0
100
AcDbSpline
 62
7
  6
CONTINUOUS
 70
0
 71
3
 72
27
 73
23
 74
0
 42
0.0000001
 43
0.0000001
 44
0.0000000001
 40
0.0
 40
0.0
 40
0.0
 40
0.0
 40
0.1948989971
 40
0.3823073449
 40
0.4709398405
 40
0.5550407425
 40
0.6338021929
 40
0.7064660193
 40
0.7723329104
 40
0.8307704535
 40
0.8812181298
 40
0.9032910293
 40
0.923192258
 40
0.9408723881
 40
0.9562917367
 40
0.9694135357
 40
0.9802072166
 40
0.9886524136
 40
0.9947343468
 40
0.9984614543
 40
0.9994703046
 40
1.0
 40
1.0
 40
1.0
 40
1.0
 10
136.0
 20
40.9147374887
 30
0.0
 10
135.2503093561
 20
40.9147374887
 30
0.0
 10
133.7797401708
 20
40.9172192524
 30
0.0
 10
131.9682617217
 20
40.9266016642
 30
0.0
 10
130.58300063
 20
40.9379615987
 30
0.0
 10
129.6156620047
 20
40.9480124101
 30
0.0
 10
128.7097701407
 20
40.9596465898
 30
0.0
 10
127.8740442162
 20
40.9727467586
 30
0.0
 10
127.1165295423
 20
40.9871724841
 30
0.0
 10
126.4445140293
 20
41.002774099
 30
0.0
 10
125.9409773223
 20
41.0171568468
 30
0.0
 10
125.5856805207
 20
41.029389733
 30
0.0
 10
125.3563914882
 20
41.0383439138
 30
0.0
 10
125.1527212272
 20
41.0474674484
 30
0.0
 10
124.9751755781
 20
41.0567213437
 30
0.0
 10
124.8241342601
 20
41.0660879189
 30
0.0
 10
124.7000736065
 20
41.0754621436
 30
0.0
 10
124.6029450806
 20
41.0849098873
 30
0.0
 10
124.5337001329
 20
41.0938961002
 30
0.0
 10
124.4921629072
 20
41.1024390902
 30
0.0
 10
124.4737398802
 20
41.1091810681
 30
0.0
 10
124.4686313622
 20
41.1138600356
 30
0.0
 10
124.4685780936
 20
41.1158968441
 30
0.0
  0
SPLINE
  5
433
100
AcDbEntity
  8
DRAFT
100
AcDbSpline
 62
7
  6
CONTINUOUS
 70
0
 71
3
 72
27
 73
23
 74
0
 42
0.0000001
 43
0.0000001
 44
0.0000000001
 40
0.0
 40
0.0
 40
0.0
 40
0.0
 40
0.1948989971
 40
0.3823073449
 40
0.4709398405
 40
0.5550407425
 40
0.6338021929
 40
0.7064660193
 40
0.7723329104
 40
0.8307704535
 40
0.8812181298
 40
0.9032910293
 40
0.923192258
 40
0.9408723881
 40
0.9562917367
 40
0.9694135357
 40
0.9802072166
 40
0.9886524136
 40
0.9947343468
 40
0.9984614543
 40
0.9994703046
 40
1.0
 40
1.0
 40
1.0
 40
1.0
 10
169.4147374887
 20
0.0
 30
0.0
 10
169.4147374887
 20
-0.7496906439
 30
0.0
 10
169.4172192524
 20
-2.2202598292
 30
0.0
 10
169.4266016642
 20
-4.0317382783
 30
0.0
 10
169.4379615987
 20
-5.41699937
 30
0.0
 10
169.4480124101
 20
-6.3843379953
 30
0.0
 10
169.4596465898
 20
-7.2902298593
 30
0.0
 10
169.4727467586
 20
-8.1259557838
 30
0.0
 10
169.487172484
 20
-8.8834704577
 30
0.0
 10
169.502774099
 20
-9.5554859707
 30
0.0
 10
169.5171568468
 20
-10.0590226777
 30
0.0
 10
169.529389733
 20
-10.4143194793
 30
0.0
 10
169.5383439138
 20
-10.6436085118
 30
0.0
 10
169.5474674484
 20
-10.8472787728
 30
0.0
 10
169.5567213437
 20
-11.0248244219
 30
0.0
 10
169.5660879189
 20
-11.1758657399
 30
0.0
 10
169.5754621436
 20
-11.2999263935
 30
0.0
 10
169.5849098873
 20
-11.3970549194
 30
0.0
 10
169.5938961002
 20
-11.4662998671
 30
0.0
 10
169.6024390902
 20
-11.5078370928
 30
0.0
 10
169.6091810681
 20
-11.5262601198
 30
0.0
 10
169.6138600356
 20
-11.5313686378
 30
0.0
 10
169.6158968441
 20
-11.5314219064
 30
0.0
  0
SPLINE
  5
434
100
AcDbEntity
  8
DRAFT
100
AcDbSpline
 62
7
  6
CONTINUOUS
 70
0
 71
3
 72
27
 73
23
 74
0
 42
0.0000001
 43
0.0000001
 44
0.0000000001
 40
0.0
 40
0.0
 40
0.0
 40
0.0
 40
0.0005172218
 40
0.0015069315
 40
0.0051948172
 40
0.0112396642
 40
0.0196506186
 40
0.0304130471
 40
0.0435066384
 40
0.0589009541
 40
0.0765591836
 40
0.0964416792
 40
0.1184990295
 40
0.1689249442
 40
0.2273529264
 40
0.2932219132
 40
0.3658987213
 40
0.4446831001
 40
0.5288157909
 40
0.6174876853
 40
0.8049920991
 40
1.0
 40
1.0
 40
1.0
 40
1.0
 10
169.6158968441
 20
-11.5314219064
 30
0.0
 10
169.6178857169
 20
-11.5314739213
 30
0.0
 10
169.6226762139
 20
-11.5265858002
 30
0.0
 10
169.6293306827
 20
-11.5083961118
 30
0.0
 10
169.6379640763
 20
-11.4672780498
 30
0.0
 10
169.6468952553
 20
-11.3984354773
 30
0.0
 10
169.6563702606
 20
-11.3017126377
 30
0.0
 10
169.6657406037
 20
-11.1780081033
 30
0.0
 10
169.675116983
 20
-11.0272920258
 30
0.0
 10
169.6843766883
 20
-10.8500331602
 30
0.0
 10
169.6935079757
 20
-10.6466133216
 30
0.0
 10
169.7024696248
 20
-10.4175375485
 30
0.0
 10
169.714714515
 20
-10.0624518265
 30
0.0
 10
169.7291109643
 20
-9.5590886932
 30
0.0
 10
169.7447273473
 20
-8.8871764239
 30
0.0
 10
169.7591673748
 20
-8.1296300264
 30
0.0
 10
169.77228106
 20
-7.2937462248
 30
0.0
 10
169.7839276146
 20
-6.3875812136
 30
0.0
 10
169.7939893797
 20
-5.4198669104
 30
0.0
 10
169.8053621909
 20
-4.0339428615
 30
0.0
 10
169.8147551237
 20
-2.221498721
 30
0.0
 10
169.8172396544
 20
-0.7501202044
 30
0.0
 10
169.8172396544
 20
0.0
 30
0.0
  0
SPLINE
  5
435
100
AcDbEntity
  8
DRAFT
100
AcDbSpline
 62
7
  6
CONTINUOUS
 70
0
 71
3
 72
27
 73
23
 74
0
 42
0.0000001
 43
0.0000001
 44
0.0000000001
 40
0.0
 40
0.0
 40
0.0
 40
0.0
 40
0.0005172218
 40
0.0015069315
 40
0.0051948172
 40
0.0112396642
 40
0.0196506186
 40
0.0304130471
 40
0.0435066384
 40
0.0589009541
 40
0.0765591836
 40
0.0964416792
 40
0.1184990295
 40
0.1689249442
 40
0.2273529264
 40
0.2932219132
 40
0.3658987213
 40
0.4446831001
 40
0.5288157909
 40
0.6174876853
 40
0.8049920991
 40
1.0
 40
1.0
 40
1.0
 40
1.0
 10
-169.6158968441
 20
-11.5314219064
 30
0.0
 10
-169.6178857169
 20
-11.5314739213
 30
0.0
 10
-169.6226762139
 20
-11.5265858002
 30
0.0
 10
-169.6293306827
 20
-11.5083961118
 30
0.0
 10
-169.6379640763
 20
-11.4672780498
 30
0.0
 10
-169.6468952553
 20
-11.3984354773
 30
0.0
 10
-169.6563702606
 20
-11.3017126377
 30
0.0
 10
-169.6657406037
 20
-11.1780081033
 30
0.0
 10
-169.675116983
 20
-11.0272920258
 30
0.0
 10
-169.6843766883
 20
-10.8500331602
 30
0.0
 10
-169.6935079757
 20
-10.6466133216
 30
0.0
 10
-169.7024696248
 20
-10.4175375485
 30
0.0
 10
-169.714714515
 20
-10.0624518265
 30
0.0
 10
-169.7291109643
 20
-9.5590886932
 30
0.0
 10
-169.7447273473
 20
-8.8871764239
 30
0.0
 10
-169.7591673748
 20
-8.1296300264
 30
0.0
 10
-169.77228106
 20
-7.2937462248
 30
0.0
 10
-169.7839276146
 20
-6.3875812136
 30
0.0
 10
-169.7939893797
 20
-5.4198669104
 30
0.0
 10
-169.8053621909
 20
-4.0339428615
 30
0.0
 10
-169.8147551237
 20
-2.221498721
 30
0.0
 10
-169.8172396544
 20
-0.7501202044
 30
0.0
 10
-169.8172396544
 20
0.0
 30
0.0
  0
SPLINE
  5
436
100
AcDbEntity
  8
0
100
AcDbSpline
 62
7
  6
CONTINUOUS
 70
0
 71
3
 72
27
 73
23
 74
0
 42
0.0000001
 43
0.0000001
 44
0.0000000001
 40
0.0
 40
0.0
 40
0.0
 40
0.0
 40
0.0005172218
 40
0.0015069315
 40
0.0051948172
 40
0.0112396642
 40
0.0196506186
 40
0.0304130471
 40
0.0435066384
 40
0.0589009541
 40
0.0765591836
 40
0.0964416792
 40
0.1184990295
 40
0.1689249442
 40
0.2273529264
 40
0.2932219132
 40
0.3658987213
 40
0.4446831001
 40
0.5288157909
 40
0.6174876853
 40
0.8049920991
 40
1.0
 40
1.0
 40
1.0
 40
1.0
 10
124.4685780936
 20
41.1158968441
 30
0.0
 10
124.4685260787
 20
41.1178857169
 30
0.0
 10
124.4734141997
 20
41.1226762139
 30
0.0
 10
124.4916038882
 20
41.1293306827
 30
0.0
 10
124.5327219502
 20
41.1379640763
 30
0.0
 10
124.6015645227
 20
41.1468952553
 30
0.0
 10
124.6982873623
 20
41.1563702606
 30
0.0
 10
124.8219918967
 20
41.1657406037
 30
0.0
 10
124.9727079742
 20
41.175116983
 30
0.0
 10
125.1499668398
 20
41.1843766883
 30
0.0
 10
125.3533866784
 20
41.1935079757
 30
0.0
 10
125.5824624515
 20
41.2024696248
 30
0.0
 10
125.9375481735
 20
41.214714515
 30
0.0
 10
126.4409113068
 20
41.2291109643
 30
0.0
 10
127.1128235761
 20
41.2447273473
 30
0.0
 10
127.8703699736
 20
41.2591673748
 30
0.0
 10
128.7062537752
 20
41.27228106
 30
0.0
 10
129.6124187864
 20
41.2839276146
 30
0.0
 10
130.5801330896
 20
41.2939893797
 30
0.0
 10
131.9660571385
 20
41.3053621909
 30
0.0
 10
133.778501279
 20
41.3147551237
 30
0.0
 10
135.2498797956
 20
41.3172396544
 30
0.0
 10
136.0
 20
41.3172396544
 30
0.0
  0
SPLINE
  5
437
100
AcDbEntity
  8
0
100
AcDbSpline
 62
7
  6
CONTINUOUS
 70
0
 71
3
 72
27
 73
23
 74
0
 42
0.0000001
 43
0.0000001
 44
0.0000000001
 40
0.0
 40
0.0
 40
0.0
 40
0.0
 40
0.0005172218
 40
0.0015069315
 40
0.0051948172
 40
0.0112396642
 40
0.0196506186
 40
0.0304130471
 40
0.0435066384
 40
0.0589009541
 40
0.0765591836
 40
0.0964416792
 40
0.1184990295
 40
0.1689249442
 40
0.2273529264
 40
0.2932219132
 40
0.3658987213
 40
0.4446831001
 40
0.5288157909
 40
0.6174876853
 40
0.8049920991
 40
1.0
 40
1.0
 40
1.0
 40
1.0
 10
90.4685780936
 20
41.1158968441
 30
0.0
 10
90.4685260787
 20
41.1178857169
 30
0.0
 10
90.4734141997
 20
41.1226762139
 30
0.0
 10
90.4916038882
 20
41.1293306827
 30
0.0
 10
90.5327219502
 20
41.1379640763
 30
0.0
 10
90.6015645227
 20
41.1468952553
 30
0.0
 10
90.6982873623
 20
41.1563702606
 30
0.0
 10
90.8219918967
 20
41.1657406037
 30
0.0
 10
90.9727079742
 20
41.175116983
 30
0.0
 10
91.1499668398
 20
41.1843766883
 30
0.0
 10
91.3533866784
 20
41.1935079757
 30
0.0
 10
91.5824624515
 20
41.2024696248
 30
0.0
 10
91.9375481735
 20
41.214714515
 30
0.0
 10
92.4409113068
 20
41.2291109643
 30
0.0
 10
93.1128235761
 20
41.2447273473
 30
0.0
 10
93.8703699736
 20
41.2591673748
 30
0.0
 10
94.7062537752
 20
41.27228106
 30
0.0
 10
95.6124187864
 20
41.2839276146
 30
0.0
 10
96.5801330896
 20
41.2939893797
 30
0.0
 10
97.9660571385
 20
41.3053621909
 30
0.0
 10
99.778501279
 20
41.3147551237
 30
0.0
 10
101.2498797956
 20
41.3172396544
 30
0.0
 10
102.0
 20
41.3172396544
 30
0.0
  0
SPLINE
  5
438
100
AcDbEntity
  8
DRAFT
100
AcDbSpline
 62
7
  6
CONTINUOUS
 70
0
 71
3
 72
27
 73
23
 74
0
 42
0.0000001
 43
0.0000001
 44
0.0000000001
 40
0.0
 40
0.0
 40
0.0
 40
0.0
 40
0.0005172218
 40
0.0015069315
 40
0.0051948172
 40
0.0112396642
 40
0.0196506186
 40
0.0304130471
 40
0.0435066384
 40
0.0589009541
 40
0.0765591836
 40
0.0964416792
 40
0.1184990295
 40
0.1689249442
 40
0.2273529264
 40
0.2932219132
 40
0.3658987213
 40
0.4446831001
 40
0.5288157909
 40
0.6174876853
 40
0.8049920991
 40
1.0
 40
1.0
 40
1.0
 40
1.0
 10
-11.5314219064
 20
41.1158968441
 30
0.0
 10
-11.5314739213
 20
41.1178857169
 30
0.0
 10
-11.5265858003
 20
41.1226762139
 30
0.0
 10
-11.5083961118
 20
41.1293306827
 30
0.0
 10
-11.4672780498
 20
41.1379640763
 30
0.0
 10
-11.3984354773
 20
41.1468952553
 30
0.0
 10
-11.3017126377
 20
41.1563702606
 30
0.0
 10
-11.1780081033
 20
41.1657406037
 30
0.0
 10
-11.0272920258
 20
41.175116983
 30
0.0
 10
-10.8500331602
 20
41.1843766883
 30
0.0
 10
-10.6466133216
 20
41.1935079757
 30
0.0
 10
-10.4175375485
 20
41.2024696248
 30
0.0
 10
-10.0624518265
 20
41.214714515
 30
0.0
 10
-9.5590886932
 20
41.2291109643
 30
0.0
 10
-8.8871764239
 20
41.2447273473
 30
0.0
 10
-8.1296300264
 20
41.2591673748
 30
0.0
 10
-7.2937462248
 20
41.27228106
 30
0.0
 10
-6.3875812136
 20
41.2839276146
 30
0.0
 10
-5.4198669104
 20
41.2939893797
 30
0.0
 10
-4.0339428615
 20
41.3053621909
 30
0.0
 10
-2.221498721
 20
41.3147551237
 30
0.0
 10
-0.7501202044
 20
41.3172396544
 30
0.0
 10
-0.0
 20
41.3172396544
 30
0.0
  0
SPLINE
  5
439
100
AcDbEntity
  8
DRAFT
100
AcDbSpline
 62
7
  6
CONTINUOUS
 70
0
 71
3
 72
27
 73
23
 74
0
 42
0.0000001
 43
0.0000001
 44
0.0000000001
 40
0.0
 40
0.0
 40
0.0
 40
0.0
 40
0.0005172218
 40
0.0015069315
 40
0.0051948172
 40
0.0112396642
 40
0.0196506186
 40
0.0304130471
 40
0.0435066384
 40
0.0589009541
 40
0.0765591836
 40
0.0964416792
 40
0.1184990295
 40
0.1689249442
 40
0.2273529264
 40
0.2932219132
 40
0.3658987213
 40
0.4446831001
 40
0.5288157909
 40
0.6174876853
 40
0.8049920991
 40
1.0
 40
1.0
 40
1.0
 40
1.0
 10
-113.5314219064
 20
41.1158968441
 30
0.0
 10
-113.5314739213
 20
41.1178857169
 30
0.0
 10
-113.5265858003
 20
41.1226762139
 30
0.0
 10
-113.5083961118
 20
41.1293306827
 30
0.0
 10
-113.4672780498
 20
41.1379640763
 30
0.0
 10
-113.3984354773
 20
41.1468952553
 30
0.0
 10
-113.3017126377
 20
41.1563702606
 30
0.0
 10
-113.1780081033
 20
41.1657406037
 30
0.0
 10
-113.0272920258
 20
41.175116983
 30
0.0
 10
-112.8500331602
 20
41.1843766883
 30
0.0
 10
-112.6466133216
 20
41.1935079757
 30
0.0
 10
-112.4175375485
 20
41.2024696248
 30
0.0
 10
-112.0624518265
 20
41.214714515
 30
0.0
 10
-111.5590886932
 20
41.2291109643
 30
0.0
 10
-110.8871764239
 20
41.2447273473
 30
0.0
 10
-110.1296300264
 20
41.2591673748
 30
0.0
 10
-109.2937462248
 20
41.27228106
 30
0.0
 10
-108.3875812136
 20
41.2839276146
 30
0.0
 10
-107.4198669104
 20
41.2939893797
 30
0.0
 10
-106.0339428615
 20
41.3053621909
 30
0.0
 10
-104.221498721
 20
41.3147551237
 30
0.0
 10
-102.7501202044
 20
41.3172396544
 30
0.0
 10
-102.0
 20
41.3172396544
 30
0.0
  0
SPLINE
  5
43A
100
AcDbEntity
  8
DRAFT
100
AcDbSpline
 62
7
  6
CONTINUOUS
 70
0
 71
3
 72
27
 73
23
 74
0
 42
0.0000001
 43
0.0000001
 44
0.0000000001
 40
0.0
 40
0.0
 40
0.0
 40
0.0
 40
0.0005172218
 40
0.0015069315
 40
0.0051948172
 40
0.0112396642
 40
0.0196506186
 40
0.0304130471
 40
0.0435066384
 40
0.0589009541
 40
0.0765591836
 40
0.0964416792
 40
0.1184990295
 40
0.1689249442
 40
0.2273529264
 40
0.2932219132
 40
0.3658987213
 40
0.4446831001
 40
0.5288157909
 40
0.6174876853
 40
0.8049920991
 40
1.0
 40
1.0
 40
1.0
 40
1.0
 10
-147.5314219064
 20
41.1158968441
 30
0.0
 10
-147.5314739213
 20
41.1178857169
 30
0.0
 10
-147.5265858003
 20
41.1226762139
 30
0.0
 10
-147.5083961118
 20
41.1293306827
 30
0.0
 10
-147.4672780498
 20
41.1379640763
 30
0.0
 10
-147.3984354773
 20
41.1468952553
 30
0.0
 10
-147.3017126377
 20
41.1563702606
 30
0.0
 10
-147.1780081033
 20
41.1657406037
 30
0.0
 10
-147.0272920258
 20
41.175116983
 30
0.0
 10
-146.8500331602
 20
41.1843766883
 30
0.0
 10
-146.6466133216
 20
41.1935079757
 30
0.0
 10
-146.4175375485
 20
41.2024696248
 30
0.0
 10
-146.0624518265
 20
41.214714515
 30
0.0
 10
-145.5590886932
 20
41.2291109643
 30
0.0
 10
-144.8871764239
 20
41.2447273473
 30
0.0
 10
-144.1296300264
 20
41.2591673748
 30
0.0
 10
-143.2937462248
 20
41.27228106
 30
0.0
 10
-142.3875812136
 20
41.2839276146
 30
0.0
 10
-141.4198669104
 20
41.2939893797
 30
0.0
 10
-140.0339428615
 20
41.3053621909
 30
0.0
 10
-138.221498721
 20
41.3147551237
 30
0.0
 10
-136.7501202044
 20
41.3172396544
 30
0.0
 10
-136.0
 20
41.3172396544
 30
0.0
  0
SPLINE
  5
43B
100
AcDbEntity
  8
0
100
AcDbSpline
 62
7
  6
CONTINUOUS
 70
0
 71
3
 72
27
 73
23
 74
0
 42
0.0000001
 43
0.0000001
 44
0.0000000001
 40
0.0
 40
0.0
 40
0.0
 40
0.0
 40
0.0005172218
 40
0.0015069315
 40
0.0051948172
 40
0.0112396642
 40
0.0196506186
 40
0.0304130471
 40
0.0435066384
 40
0.0589009541
 40
0.0765591836
 40
0.0964416792
 40
0.1184990295
 40
0.1689249442
 40
0.2273529264
 40
0.2932219132
 40
0.3658987213
 40
0.4446831001
 40
0.5288157909
 40
0.6174876853
 40
0.8049920991
 40
1.0
 40
1.0
 40
1.0
 40
1.0
 10
124.4685780936
 20
-41.1158968441
 30
0.0
 10
124.4685260787
 20
-41.1178857169
 30
0.0
 10
124.4734141997
 20
-41.1226762139
 30
0.0
 10
124.4916038882
 20
-41.1293306827
 30
0.0
 10
124.5327219502
 20
-41.1379640763
 30
0.0
 10
124.6015645227
 20
-41.1468952553
 30
0.0
 10
124.6982873623
 20
-41.1563702606
 30
0.0
 10
124.8219918967
 20
-41.1657406037
 30
0.0
 10
124.9727079742
 20
-41.175116983
 30
0.0
 10
125.1499668398
 20
-41.1843766883
 30
0.0
 10
125.3533866784
 20
-41.1935079757
 30
0.0
 10
125.5824624515
 20
-41.2024696248
 30
0.0
 10
125.9375481735
 20
-41.214714515
 30
0.0
 10
126.4409113068
 20
-41.2291109643
 30
0.0
 10
127.1128235761
 20
-41.2447273473
 30
0.0
 10
127.8703699736
 20
-41.2591673748
 30
0.0
 10
128.7062537752
 20
-41.27228106
 30
0.0
 10
129.6124187864
 20
-41.2839276146
 30
0.0
 10
130.5801330896
 20
-41.2939893797
 30
0.0
 10
131.9660571385
 20
-41.3053621909
 30
0.0
 10
133.778501279
 20
-41.3147551237
 30
0.0
 10
135.2498797956
 20
-41.3172396544
 30
0.0
 10
136.0
 20
-41.3172396544
 30
0.0
  0
SPLINE
  5
43C
100
AcDbEntity
  8
0
100
AcDbSpline
 62
7
  6
CONTINUOUS
 70
0
 71
3
 72
27
 73
23
 74
0
 42
0.0000001
 43
0.0000001
 44
0.0000000001
 40
0.0
 40
0.0
 40
0.0
 40
0.0
 40
0.0005172218
 40
0.0015069315
 40
0.0051948172
 40
0.0112396642
 40
0.0196506186
 40
0.0304130471
 40
0.0435066384
 40
0.0589009541
 40
0.0765591836
 40
0.0964416792
 40
0.1184990295
 40
0.1689249442
 40
0.2273529264
 40
0.2932219132
 40
0.3658987213
 40
0.4446831001
 40
0.5288157909
 40
0.6174876853
 40
0.8049920991
 40
1.0
 40
1.0
 40
1.0
 40
1.0
 10
90.4685780936
 20
-41.1158968441
 30
0.0
 10
90.4685260787
 20
-41.1178857169
 30
0.0
 10
90.4734141997
 20
-41.1226762139
 30
0.0
 10
90.4916038882
 20
-41.1293306827
 30
0.0
 10
90.5327219502
 20
-41.1379640763
 30
0.0
 10
90.6015645227
 20
-41.1468952553
 30
0.0
 10
90.6982873623
 20
-41.1563702606
 30
0.0
 10
90.8219918967
 20
-41.1657406037
 30
0.0
 10
90.9727079742
 20
-41.175116983
 30
0.0
 10
91.1499668398
 20
-41.1843766883
 30
0.0
 10
91.3533866784
 20
-41.1935079757
 30
0.0
 10
91.5824624515
 20
-41.2024696248
 30
0.0
 10
91.9375481735
 20
-41.214714515
 30
0.0
 10
92.4409113068
 20
-41.2291109643
 30
0.0
 10
93.1128235761
 20
-41.2447273473
 30
0.0
 10
93.8703699736
 20
-41.2591673748
 30
0.0
 10
94.7062537752
 20
-41.27228106
 30
0.0
 10
95.6124187864
 20
-41.2839276146
 30
0.0
 10
96.5801330896
 20
-41.2939893797
 30
0.0
 10
97.9660571385
 20
-41.3053621909
 30
0.0
 10
99.778501279
 20
-41.3147551237
 30
0.0
 10
101.2498797956
 20
-41.3172396544
 30
0.0
 10
102.0
 20
-41.3172396544
 30
0.0
  0
SPLINE
  5
43D
100
AcDbEntity
  8
DRAFT
100
AcDbSpline
 62
7
  6
CONTINUOUS
 70
0
 71
3
 72
27
 73
23
 74
0
 42
0.0000001
 43
0.0000001
 44
0.0000000001
 40
0.0
 40
0.0
 40
0.0
 40
0.0
 40
0.0005172218
 40
0.0015069315
 40
0.0051948172
 40
0.0112396642
 40
0.0196506186
 40
0.0304130471
 40
0.0435066384
 40
0.0589009541
 40
0.0765591836
 40
0.0964416792
 40
0.1184990295
 40
0.1689249442
 40
0.2273529264
 40
0.2932219132
 40
0.3658987213
 40
0.4446831001
 40
0.5288157909
 40
0.6174876853
 40
0.8049920991
 40
1.0
 40
1.0
 40
1.0
 40
1.0
 10
-11.5314219064
 20
-41.1158968441
 30
0.0
 10
-11.5314739213
 20
-41.1178857169
 30
0.0
 10
-11.5265858003
 20
-41.1226762139
 30
0.0
 10
-11.5083961118
 20
-41.1293306827
 30
0.0
 10
-11.4672780498
 20
-41.1379640763
 30
0.0
 10
-11.3984354773
 20
-41.1468952553
 30
0.0
 10
-11.3017126377
 20
-41.1563702606
 30
0.0
 10
-11.1780081033
 20
-41.1657406037
 30
0.0
 10
-11.0272920258
 20
-41.175116983
 30
0.0
 10
-10.8500331602
 20
-41.1843766883
 30
0.0
 10
-10.6466133216
 20
-41.1935079757
 30
0.0
 10
-10.4175375485
 20
-41.2024696248
 30
0.0
 10
-10.0624518265
 20
-41.214714515
 30
0.0
 10
-9.5590886932
 20
-41.2291109643
 30
0.0
 10
-8.8871764239
 20
-41.2447273473
 30
0.0
 10
-8.1296300264
 20
-41.2591673748
 30
0.0
 10
-7.2937462248
 20
-41.27228106
 30
0.0
 10
-6.3875812136
 20
-41.2839276146
 30
0.0
 10
-5.4198669104
 20
-41.2939893797
 30
0.0
 10
-4.0339428615
 20
-41.3053621909
 30
0.0
 10
-2.221498721
 20
-41.3147551237
 30
0.0
 10
-0.7501202044
 20
-41.3172396544
 30
0.0
 10
-0.0
 20
-41.3172396544
 30
0.0
  0
SPLINE
  5
43E
100
AcDbEntity
  8
DRAFT
100
AcDbSpline
 62
7
  6
CONTINUOUS
 70
0
 71
3
 72
27
 73
23
 74
0
 42
0.0000001
 43
0.0000001
 44
0.0000000001
 40
0.0
 40
0.0
 40
0.0
 40
0.0
 40
0.0005172218
 40
0.0015069315
 40
0.0051948172
 40
0.0112396642
 40
0.0196506186
 40
0.0304130471
 40
0.0435066384
 40
0.0589009541
 40
0.0765591836
 40
0.0964416792
 40
0.1184990295
 40
0.1689249442
 40
0.2273529264
 40
0.2932219132
 40
0.3658987213
 40
0.4446831001
 40
0.5288157909
 40
0.6174876853
 40
0.8049920991
 40
1.0
 40
1.0
 40
1.0
 40
1.0
 10
-113.5314219064
 20
-41.1158968441
 30
0.0
 10
-113.5314739213
 20
-41.1178857169
 30
0.0
 10
-113.5265858003
 20
-41.1226762139
 30
0.0
 10
-113.5083961118
 20
-41.1293306827
 30
0.0
 10
-113.4672780498
 20
-41.1379640763
 30
0.0
 10
-113.3984354773
 20
-41.1468952553
 30
0.0
 10
-113.3017126377
 20
-41.1563702606
 30
0.0
 10
-113.1780081033
 20
-41.1657406037
 30
0.0
 10
-113.0272920258
 20
-41.175116983
 30
0.0
 10
-112.8500331602
 20
-41.1843766883
 30
0.0
 10
-112.6466133216
 20
-41.1935079757
 30
0.0
 10
-112.4175375485
 20
-41.2024696248
 30
0.0
 10
-112.0624518265
 20
-41.214714515
 30
0.0
 10
-111.5590886932
 20
-41.2291109643
 30
0.0
 10
-110.8871764239
 20
-41.2447273473
 30
0.0
 10
-110.1296300264
 20
-41.2591673748
 30
0.0
 10
-109.2937462248
 20
-41.27228106
 30
0.0
 10
-108.3875812136
 20
-41.2839276146
 30
0.0
 10
-107.4198669104
 20
-41.2939893797
 30
0.0
 10
-106.0339428615
 20
-41.3053621909
 30
0.0
 10
-104.221498721
 20
-41.3147551237
 30
0.0
 10
-102.7501202044
 20
-41.3172396544
 30
0.0
 10
-102.0
 20
-41.3172396544
 30
0.0
  0
SPLINE
  5
43F
100
AcDbEntity
  8
DRAFT
100
AcDbSpline
 62
7
  6
CONTINUOUS
 70
0
 71
3
 72
27
 73
23
 74
0
 42
0.0000001
 43
0.0000001
 44
0.0000000001
 40
0.0
 40
0.0
 40
0.0
 40
0.0
 40
0.0005172218
 40
0.0015069315
 40
0.0051948172
 40
0.0112396642
 40
0.0196506186
 40
0.0304130471
 40
0.0435066384
 40
0.0589009541
 40
0.0765591836
 40
0.0964416792
 40
0.1184990295
 40
0.1689249442
 40
0.2273529264
 40
0.2932219132
 40
0.3658987213
 40
0.4446831001
 40
0.5288157909
 40
0.6174876853
 40
0.8049920991
 40
1.0
 40
1.0
 40
1.0
 40
1.0
 10
-147.5314219064
 20
-41.1158968441
 30
0.0
 10
-147.5314739213
 20
-41.1178857169
 30
0.0
 10
-147.5265858003
 20
-41.1226762139
 30
0.0
 10
-147.5083961118
 20
-41.1293306827
 30
0.0
 10
-147.4672780498
 20
-41.1379640763
 30
0.0
 10
-147.3984354773
 20
-41.1468952553
 30
0.0
 10
-147.3017126377
 20
-41.1563702606
 30
0.0
 10
-147.1780081033
 20
-41.1657406037
 30
0.0
 10
-147.0272920258
 20
-41.175116983
 30
0.0
 10
-146.8500331602
 20
-41.1843766883
 30
0.0
 10
-146.6466133216
 20
-41.1935079757
 30
0.0
 10
-146.4175375485
 20
-41.2024696248
 30
0.0
 10
-146.0624518265
 20
-41.214714515
 30
0.0
 10
-145.5590886932
 20
-41.2291109643
 30
0.0
 10
-144.8871764239
 20
-41.2447273473
 30
0.0
 10
-144.1296300264
 20
-41.2591673748
 30
0.0
 10
-143.2937462248
 20
-41.27228106
 30
0.0
 10
-142.3875812136
 20
-41.2839276146
 30
0.0
 10
-141.4198669104
 20
-41.2939893797
 30
0.0
 10
-140.0339428615
 20
-41.3053621909
 30
0.0
 10
-138.221498721
 20
-41.3147551237
 30
0.0
 10
-136.7501202044
 20
-41.3172396544
 30
0.0
 10
-136.0
 20
-41.3172396544
 30
0.0
  0
SPLINE
  5
440
100
AcDbEntity
  8
DRAFT
100
AcDbSpline
 62
7
  6
CONTINUOUS
 70
0
 71
3
 72
27
 73
23
 74
0
 42
0.0000001
 43
0.0000001
 44
0.0000000001
 40
0.0
 40
0.0
 40
0.0
 40
0.0
 40
0.1950079009
 40
0.3825123147
 40
0.4711842091
 40
0.5553168999
 40
0.6341012787
 40
0.7067780868
 40
0.7726470736
 40
0.8310750558
 40
0.8815009705
 40
0.9035583208
 40
0.9234408164
 40
0.9410990459
 40
0.9564933616
 40
0.9695869529
 40
0.9803493814
 40
0.9887603358
 40
0.9948051828
 40
0.9984930685
 40
0.9994827782
 40
1.0
 40
1.0
 40
1.0
 40
1.0
 10
-136.0
 20
-41.3172396544
 30
0.0
 10
-135.2498797956
 20
-41.3172396544
 30
0.0
 10
-133.778501279
 20
-41.3147551237
 30
0.0
 10
-131.9660571385
 20
-41.3053621909
 30
0.0
 10
-130.5801330896
 20
-41.2939893797
 30
0.0
 10
-129.6124187864
 20
-41.2839276146
 30
0.0
 10
-128.7062537752
 20
-41.27228106
 30
0.0
 10
-127.8703699736
 20
-41.2591673748
 30
0.0
 10
-127.1128235761
 20
-41.2447273473
 30
0.0
 10
-126.4409113068
 20
-41.2291109643
 30
0.0
 10
-125.9375481735
 20
-41.214714515
 30
0.0
 10
-125.5824624515
 20
-41.2024696248
 30
0.0
 10
-125.3533866784
 20
-41.1935079757
 30
0.0
 10
-125.1499668398
 20
-41.1843766883
 30
0.0
 10
-124.9727079742
 20
-41.175116983
 30
0.0
 10
-124.8219918967
 20
-41.1657406037
 30
0.0
 10
-124.6982873623
 20
-41.1563702606
 30
0.0
 10
-124.6015645227
 20
-41.1468952553
 30
0.0
 10
-124.5327219502
 20
-41.1379640763
 30
0.0
 10
-124.4916038882
 20
-41.1293306827
 30
0.0
 10
-124.4734141997
 20
-41.1226762139
 30
0.0
 10
-124.4685260787
 20
-41.1178857169
 30
0.0
 10
-124.4685780936
 20
-41.1158968441
 30
0.0
  0
SPLINE
  5
441
100
AcDbEntity
  8
DRAFT
100
AcDbSpline
 62
7
  6
CONTINUOUS
 70
0
 71
3
 72
27
 73
23
 74
0
 42
0.0000001
 43
0.0000001
 44
0.0000000001
 40
0.0
 40
0.0
 40
0.0
 40
0.0
 40
0.1950079009
 40
0.3825123147
 40
0.4711842091
 40
0.5553168999
 40
0.6341012787
 40
0.7067780868
 40
0.7726470736
 40
0.8310750558
 40
0.8815009705
 40
0.9035583208
 40
0.9234408164
 40
0.9410990459
 40
0.9564933616
 40
0.9695869529
 40
0.9803493814
 40
0.9887603358
 40
0.9948051828
 40
0.9984930685
 40
0.9994827782
 40
1.0
 40
1.0
 40
1.0
 40
1.0
 10
-102.0
 20
-41.3172396544
 30
0.0
 10
-101.2498797956
 20
-41.3172396544
 30
0.0
 10
-99.778501279
 20
-41.3147551237
 30
0.0
 10
-97.9660571385
 20
-41.3053621909
 30
0.0
 10
-96.5801330896
 20
-41.2939893797
 30
0.0
 10
-95.6124187864
 20
-41.2839276146
 30
0.0
 10
-94.7062537752
 20
-41.27228106
 30
0.0
 10
-93.8703699736
 20
-41.2591673748
 30
0.0
 10
-93.1128235761
 20
-41.2447273473
 30
0.0
 10
-92.4409113068
 20
-41.2291109643
 30
0.0
 10
-91.9375481735
 20
-41.214714515
 30
0.0
 10
-91.5824624515
 20
-41.2024696248
 30
0.0
 10
-91.3533866784
 20
-41.1935079757
 30
0.0
 10
-91.1499668398
 20
-41.1843766883
 30
0.0
 10
-90.9727079742
 20
-41.175116983
 30
0.0
 10
-90.8219918967
 20
-41.1657406037
 30
0.0
 10
-90.6982873623
 20
-41.1563702606
 30
0.0
 10
-90.6015645227
 20
-41.1468952553
 30
0.0
 10
-90.5327219502
 20
-41.1379640763
 30
0.0
 10
-90.4916038882
 20
-41.1293306827
 30
0.0
 10
-90.4734141997
 20
-41.1226762139
 30
0.0
 10
-90.4685260787
 20
-41.1178857169
 30
0.0
 10
-90.4685780936
 20
-41.1158968441
 30
0.0
  0
SPLINE
  5
442
100
AcDbEntity
  8
DRAFT
100
AcDbSpline
 62
7
  6
CONTINUOUS
 70
0
 71
3
 72
27
 73
23
 74
0
 42
0.0000001
 43
0.0000001
 44
0.0000000001
 40
0.0
 40
0.0
 40
0.0
 40
0.0
 40
0.1950079009
 40
0.3825123147
 40
0.4711842091
 40
0.5553168999
 40
0.6341012787
 40
0.7067780868
 40
0.7726470736
 40
0.8310750558
 40
0.8815009705
 40
0.9035583208
 40
0.9234408164
 40
0.9410990459
 40
0.9564933616
 40
0.9695869529
 40
0.9803493814
 40
0.9887603358
 40
0.9948051828
 40
0.9984930685
 40
0.9994827782
 40
1.0
 40
1.0
 40
1.0
 40
1.0
 10
-0.0
 20
-41.3172396544
 30
0.0
 10
0.7501202044
 20
-41.3172396544
 30
0.0
 10
2.221498721
 20
-41.3147551237
 30
0.0
 10
4.0339428615
 20
-41.3053621909
 30
0.0
 10
5.4198669104
 20
-41.2939893797
 30
0.0
 10
6.3875812136
 20
-41.2839276146
 30
0.0
 10
7.2937462248
 20
-41.27228106
 30
0.0
 10
8.1296300264
 20
-41.2591673748
 30
0.0
 10
8.8871764239
 20
-41.2447273473
 30
0.0
 10
9.5590886932
 20
-41.2291109643
 30
0.0
 10
10.0624518265
 20
-41.214714515
 30
0.0
 10
10.4175375485
 20
-41.2024696248
 30
0.0
 10
10.6466133216
 20
-41.1935079757
 30
0.0
 10
10.8500331602
 20
-41.1843766883
 30
0.0
 10
11.0272920258
 20
-41.175116983
 30
0.0
 10
11.1780081033
 20
-41.1657406037
 30
0.0
 10
11.3017126377
 20
-41.1563702606
 30
0.0
 10
11.3984354773
 20
-41.1468952553
 30
0.0
 10
11.4672780498
 20
-41.1379640763
 30
0.0
 10
11.5083961118
 20
-41.1293306827
 30
0.0
 10
11.5265858003
 20
-41.1226762139
 30
0.0
 10
11.5314739213
 20
-41.1178857169
 30
0.0
 10
11.5314219064
 20
-41.1158968441
 30
0.0
  0
SPLINE
  5
443
100
AcDbEntity
  8
0
100
AcDbSpline
 62
7
  6
CONTINUOUS
 70
0
 71
3
 72
27
 73
23
 74
0
 42
0.0000001
 43
0.0000001
 44
0.0000000001
 40
0.0
 40
0.0
 40
0.0
 40
0.0
 40
0.1950079009
 40
0.3825123147
 40
0.4711842091
 40
0.5553168999
 40
0.6341012787
 40
0.7067780868
 40
0.7726470736
 40
0.8310750558
 40
0.8815009705
 40
0.9035583208
 40
0.9234408164
 40
0.9410990459
 40
0.9564933616
 40
0.9695869529
 40
0.9803493814
 40
0.9887603358
 40
0.9948051828
 40
0.9984930685
 40
0.9994827782
 40
1.0
 40
1.0
 40
1.0
 40
1.0
 10
102.0
 20
-41.3172396544
 30
0.0
 10
102.7501202044
 20
-41.3172396544
 30
0.0
 10
104.221498721
 20
-41.3147551237
 30
0.0
 10
106.0339428615
 20
-41.3053621909
 30
0.0
 10
107.4198669104
 20
-41.2939893797
 30
0.0
 10
108.3875812136
 20
-41.2839276146
 30
0.0
 10
109.2937462248
 20
-41.27228106
 30
0.0
 10
110.1296300264
 20
-41.2591673748
 30
0.0
 10
110.8871764239
 20
-41.2447273473
 30
0.0
 10
111.5590886932
 20
-41.2291109643
 30
0.0
 10
112.0624518265
 20
-41.214714515
 30
0.0
 10
112.4175375485
 20
-41.2024696248
 30
0.0
 10
112.6466133216
 20
-41.1935079757
 30
0.0
 10
112.8500331602
 20
-41.1843766883
 30
0.0
 10
113.0272920258
 20
-41.175116983
 30
0.0
 10
113.1780081033
 20
-41.1657406037
 30
0.0
 10
113.3017126377
 20
-41.1563702606
 30
0.0
 10
113.3984354773
 20
-41.1468952553
 30
0.0
 10
113.4672780498
 20
-41.1379640763
 30
0.0
 10
113.5083961118
 20
-41.1293306827
 30
0.0
 10
113.5265858003
 20
-41.1226762139
 30
0.0
 10
113.5314739213
 20
-41.1178857169
 30
0.0
 10
113.5314219064
 20
-41.1158968441
 30
0.0
  0
SPLINE
  5
444
100
AcDbEntity
  8
0
100
AcDbSpline
 62
7
  6
CONTINUOUS
 70
0
 71
3
 72
27
 73
23
 74
0
 42
0.0000001
 43
0.0000001
 44
0.0000000001
 40
0.0
 40
0.0
 40
0.0
 40
0.0
 40
0.1950079009
 40
0.3825123147
 40
0.4711842091
 40
0.5553168999
 40
0.6341012787
 40
0.7067780868
 40
0.7726470736
 40
0.8310750558
 40
0.8815009705
 40
0.9035583208
 40
0.9234408164
 40
0.9410990459
 40
0.9564933616
 40
0.9695869529
 40
0.9803493814
 40
0.9887603358
 40
0.9948051828
 40
0.9984930685
 40
0.9994827782
 40
1.0
 40
1.0
 40
1.0
 40
1.0
 10
136.0
 20
-41.3172396544
 30
0.0
 10
136.7501202044
 20
-41.3172396544
 30
0.0
 10
138.221498721
 20
-41.3147551237
 30
0.0
 10
140.0339428615
 20
-41.3053621909
 30
0.0
 10
141.4198669104
 20
-41.2939893797
 30
0.0
 10
142.3875812136
 20
-41.2839276146
 30
0.0
 10
143.2937462248
 20
-41.27228106
 30
0.0
 10
144.1296300264
 20
-41.2591673748
 30
0.0
 10
144.8871764239
 20
-41.2447273473
 30
0.0
 10
145.5590886932
 20
-41.2291109643
 30
0.0
 10
146.0624518265
 20
-41.214714515
 30
0.0
 10
146.4175375485
 20
-41.2024696248
 30
0.0
 10
146.6466133216
 20
-41.1935079757
 30
0.0
 10
146.8500331602
 20
-41.1843766883
 30
0.0
 10
147.0272920258
 20
-41.175116983
 30
0.0
 10
147.1780081033
 20
-41.1657406037
 30
0.0
 10
147.3017126377
 20
-41.1563702606
 30
0.0
 10
147.3984354773
 20
-41.1468952553
 30
0.0
 10
147.4672780498
 20
-41.1379640763
 30
0.0
 10
147.5083961118
 20
-41.1293306827
 30
0.0
 10
147.5265858003
 20
-41.1226762139
 30
0.0
 10
147.5314739213
 20
-41.1178857169
 30
0.0
 10
147.5314219064
 20
-41.1158968441
 30
0.0
  0
SPLINE
  5
445
100
AcDbEntity
  8
RACCORDO
100
AcDbSpline
 62
250
  6
CONTINUOUS
 70
0
 71
3
 72
20
 73
16
 74
0
 42
0.0000001
 43
0.0000001
 44
0.0000000001
 40
0.0
 40
0.0
 40
0.0
 40
0.0
 40
0.0021925354
 40
0.006644387
 40
0.0224753071
 40
0.0474715845
 40
0.0814246938
 40
0.1240175763
 40
0.1748617887
 40
0.2334712685
 40
0.2993050828
 40
0.4500819679
 40
0.6215225111
 40
0.8071525775
 40
1.0
 40
1.0
 40
1.0
 40
1.0
 10
150.0415009364
 20
-40.9468267582
 30
0.0
 10
150.042017623
 20
-40.9473440324
 30
0.0
 10
150.0443323758
 20
-40.9478583963
 30
0.0
 10
150.0515201903
 20
-40.9492621061
 30
0.0
 10
150.0667645695
 20
-40.9504558899
 30
0.0
 10
150.0915417318
 20
-40.9520993341
 30
0.0
 10
150.1254164746
 20
-40.9535788502
 30
0.0
 10
150.1678523733
 20
-40.9550791526
 30
0.0
 10
150.218540571
 20
-40.9564874738
 30
0.0
 10
150.2769747644
 20
-40.9578191626
 30
0.0
 10
150.3687344275
 20
-40.9595341911
 30
0.0
 10
150.4981218404
 20
-40.9613023972
 30
0.0
 10
150.6674619483
 20
-40.9628266927
 30
0.0
 10
150.8508350425
 20
-40.9637660327
 30
0.0
 10
150.9770419101
 20
-40.963977993
 30
0.0
 10
151.0413486316
 20
-40.9639771903
 30
0.0
  0
SPLINE
  5
446
100
AcDbEntity
  8
RACCORDO
100
AcDbSpline
 62
250
  6
CONTINUOUS
 70
0
 71
3
 72
20
 73
16
 74
0
 42
0.0000001
 43
0.0000001
 44
0.0000000001
 40
0.0
 40
0.0
 40
0.0
 40
0.0
 40
0.1928474227
 40
0.3784774883
 40
0.5499180323
 40
0.7006949176
 40
0.7665287322
 40
0.8251382104
 40
0.8759824232
 40
0.9185753097
 40
0.9525284182
 40
0.9775246881
 40
0.9933556068
 40
0.9978074613
 40
1.0
 40
1.0
 40
1.0
 40
1.0
 10
155.8586513684
 20
-40.9639771903
 30
0.0
 10
155.9229580899
 20
-40.9639780019
 30
0.0
 10
156.0491649572
 20
-40.9637660269
 30
0.0
 10
156.2325380513
 20
-40.9628266946
 30
0.0
 10
156.4018781591
 20
-40.9613023966
 30
0.0
 10
156.5312655723
 20
-40.9595341912
 30
0.0
 10
156.623025235
 20
-40.9578191626
 30
0.0
 10
156.6814594281
 20
-40.9564874738
 30
0.0
 10
156.7321476266
 20
-40.9550791525
 30
0.0
 10
156.7745835267
 20
-40.9535788501
 30
0.0
 10
156.8084582673
 20
-40.9520993341
 30
0.0
 10
156.8332354281
 20
-40.9504558913
 30
0.0
 10
156.8484798022
 20
-40.949262105
 30
0.0
 10
156.8556676211
 20
-40.9478583937
 30
0.0
 10
156.8579823736
 20
-40.9473440305
 30
0.0
 10
156.8584990636
 20
-40.9468267582
 30
0.0
  0
SPLINE
  5
447
100
AcDbEntity
  8
DRAFT
100
AcDbSpline
 62
7
  6
CONTINUOUS
 70
0
 71
3
 72
27
 73
23
 74
0
 42
0.0000001
 43
0.0000001
 44
0.0000000001
 40
0.0
 40
0.0
 40
0.0
 40
0.0
 40
0.1950079009
 40
0.3825123147
 40
0.4711842091
 40
0.5553168999
 40
0.6341012787
 40
0.7067780868
 40
0.7726470736
 40
0.8310750558
 40
0.8815009705
 40
0.9035583208
 40
0.9234408164
 40
0.9410990459
 40
0.9564933616
 40
0.9695869529
 40
0.9803493814
 40
0.9887603358
 40
0.9948051828
 40
0.9984930685
 40
0.9994827782
 40
1.0
 40
1.0
 40
1.0
 40
1.0
 10
-169.8172396544
 20
0.0
 30
0.0
 10
-169.8172396544
 20
0.7501202044
 30
0.0
 10
-169.8147551237
 20
2.221498721
 30
0.0
 10
-169.8053621909
 20
4.0339428615
 30
0.0
 10
-169.7939893797
 20
5.4198669104
 30
0.0
 10
-169.7839276146
 20
6.3875812136
 30
0.0
 10
-169.77228106
 20
7.2937462248
 30
0.0
 10
-169.7591673748
 20
8.1296300264
 30
0.0
 10
-169.7447273473
 20
8.8871764239
 30
0.0
 10
-169.7291109643
 20
9.5590886932
 30
0.0
 10
-169.714714515
 20
10.0624518265
 30
0.0
 10
-169.7024696248
 20
10.4175375485
 30
0.0
 10
-169.6935079757
 20
10.6466133216
 30
0.0
 10
-169.6843766883
 20
10.8500331602
 30
0.0
 10
-169.675116983
 20
11.0272920258
 30
0.0
 10
-169.6657406037
 20
11.1780081033
 30
0.0
 10
-169.6563702606
 20
11.3017126377
 30
0.0
 10
-169.6468952553
 20
11.3984354773
 30
0.0
 10
-169.6379640763
 20
11.4672780498
 30
0.0
 10
-169.6293306827
 20
11.5083961118
 30
0.0
 10
-169.6226762139
 20
11.5265858003
 30
0.0
 10
-169.6178857169
 20
11.5314739213
 30
0.0
 10
-169.6158968441
 20
11.5314219064
 30
0.0
  0
SPLINE
  5
448
100
AcDbEntity
  8
RACCORDO
100
AcDbSpline
 62
250
  6
CONTINUOUS
 70
0
 71
3
 72
20
 73
16
 74
0
 42
0.0000001
 43
0.0000001
 44
0.0000000001
 40
0.0
 40
0.0
 40
0.0
 40
0.0
 40
0.0021925354
 40
0.006644387
 40
0.0224753071
 40
0.0474715845
 40
0.0814246938
 40
0.1240175763
 40
0.1748617887
 40
0.2334712685
 40
0.2993050828
 40
0.4500819679
 40
0.6215225111
 40
0.8071525775
 40
1.0
 40
1.0
 40
1.0
 40
1.0
 10
-169.4468267582
 20
-25.7915009364
 30
0.0
 10
-169.4473440324
 20
-25.792017623
 30
0.0
 10
-169.4478583963
 20
-25.7943323758
 30
0.0
 10
-169.4492621061
 20
-25.8015201903
 30
0.0
 10
-169.4504558899
 20
-25.8167645695
 30
0.0
 10
-169.4520993341
 20
-25.8415417318
 30
0.0
 10
-169.4535788502
 20
-25.8754164746
 30
0.0
 10
-169.4550791526
 20
-25.9178523733
 30
0.0
 10
-169.4564874738
 20
-25.968540571
 30
0.0
 10
-169.4578191626
 20
-26.0269747644
 30
0.0
 10
-169.4595341911
 20
-26.1187344275
 30
0.0
 10
-169.4613023972
 20
-26.2481218404
 30
0.0
 10
-169.4628266927
 20
-26.4174619483
 30
0.0
 10
-169.4637660327
 20
-26.6008350425
 30
0.0
 10
-169.463977993
 20
-26.7270419101
 30
0.0
 10
-169.4639771903
 20
-26.7913486316
 30
0.0
  0
SPLINE
  5
449
100
AcDbEntity
  8
RACCORDO
100
AcDbSpline
 62
250
  6
CONTINUOUS
 70
0
 71
3
 72
20
 73
16
 74
0
 42
0.0000001
 43
0.0000001
 44
0.0000000001
 40
0.0
 40
0.0
 40
0.0
 40
0.0
 40
0.1928474227
 40
0.3784774883
 40
0.5499180323
 40
0.7006949176
 40
0.7665287322
 40
0.8251382104
 40
0.8759824232
 40
0.9185753097
 40
0.9525284182
 40
0.9775246881
 40
0.9933556068
 40
0.9978074613
 40
1.0
 40
1.0
 40
1.0
 40
1.0
 10
-169.4639771903
 20
-31.6086513684
 30
0.0
 10
-169.4639780019
 20
-31.6729580899
 30
0.0
 10
-169.4637660269
 20
-31.7991649571
 30
0.0
 10
-169.4628266947
 20
-31.9825380513
 30
0.0
 10
-169.4613023966
 20
-32.1518781591
 30
0.0
 10
-169.4595341912
 20
-32.2812655723
 30
0.0
 10
-169.4578191626
 20
-32.373025235
 30
0.0
 10
-169.4564874738
 20
-32.4314594281
 30
0.0
 10
-169.4550791525
 20
-32.4821476266
 30
0.0
 10
-169.4535788501
 20
-32.5245835267
 30
0.0
 10
-169.4520993341
 20
-32.5584582673
 30
0.0
 10
-169.4504558913
 20
-32.5832354281
 30
0.0
 10
-169.449262105
 20
-32.5984798022
 30
0.0
 10
-169.4478583937
 20
-32.6056676211
 30
0.0
 10
-169.4473440305
 20
-32.6079823736
 30
0.0
 10
-169.4468267582
 20
-32.6084990636
 30
0.0
  0
LINE
  5
44A
100
AcDbEntity
  8
RACCORDO
100
AcDbLine
 62
7
  6
CONTINUOUS
 10
-168.1749258628
 20
-32.399925098
 11
-167.8822464769
 21
-32.6925880081
  0
LINE
  5
44B
100
AcDbEntity
  8
RACCORDO
100
AcDbLine
 62
7
  6
CONTINUOUS
 10
-167.8822464769
 20
-25.7074119919
 11
-168.1749258623
 21
-26.0000749007
  0
SPLINE
  5
44C
100
AcDbEntity
  8
RACCORDO
100
AcDbSpline
 62
7
  6
CONTINUOUS
 70
0
 71
3
 72
14
 73
10
 74
0
 42
0.0000001
 43
0.0000001
 44
0.0000000001
 40
0.0
 40
0.0
 40
0.0
 40
0.0
 40
0.3690508133
 40
0.5325999579
 40
0.6779622836
 40
0.8014152279
 40
0.8989413326
 40
0.9663154669
 40
1.0
 40
1.0
 40
1.0
 40
1.0
 10
-168.1749258625
 20
-26.0000663238
 30
0.0
 10
-168.2003959063
 20
-26.0255411082
 30
0.0
 10
-168.2380095478
 20
-26.0614496437
 30
0.0
 10
-168.2861851744
 20
-26.106801685
 30
0.0
 10
-168.3168570366
 20
-26.1358290318
 30
0.0
 10
-168.3423884973
 20
-26.1607632643
 30
0.0
 10
-168.3623980971
 20
-26.180829654
 30
0.0
 10
-168.374667198
 20
-26.1953788242
 30
0.0
 10
-168.3814247469
 20
-26.2032293206
 30
0.0
 10
-168.3821703245
 20
-26.2064316543
 30
0.0
  0
SPLINE
  5
44D
100
AcDbEntity
  8
RACCORDO
100
AcDbSpline
 62
7
  6
CONTINUOUS
 70
0
 71
3
 72
14
 73
10
 74
0
 42
0.0000001
 43
0.0000001
 44
0.0000000001
 40
0.0
 40
0.0
 40
0.0
 40
0.0
 40
0.0336919063
 40
0.1010728129
 40
0.1986055048
 40
0.3220639477
 40
0.4674282338
 40
0.6309714224
 40
1.0
 40
1.0
 40
1.0
 40
1.0
 10
-168.3821703245
 20
-32.1935683455
 30
0.0
 10
-168.3814245839
 20
-32.196771379
 30
0.0
 10
-168.3746644107
 20
-32.2046219095
 30
0.0
 10
-168.3623963393
 20
-32.2191743416
 30
0.0
 10
-168.342383463
 20
-32.2392403431
 30
0.0
 10
-168.3168519753
 20
-32.2641763614
 30
0.0
 10
-168.2861796612
 20
-32.2932034743
 30
0.0
 10
-168.2380058017
 20
-32.3385535999
 30
0.0
 10
-168.2003943651
 20
-32.3744604374
 30
0.0
 10
-168.1749258629
 20
-32.3999336745
 30
0.0
  0
LINE
  5
44E
100
AcDbEntity
  8
RACCORDO
100
AcDbLine
 62
7
  6
CONTINUOUS
 10
-156.649925098
 20
39.6749258628
 11
-156.9425880081
 21
39.382246477
  0
LINE
  5
44F
100
AcDbEntity
  8
RACCORDO
100
AcDbLine
 62
7
  6
CONTINUOUS
 10
-149.9574119919
 20
39.382246477
 11
-150.2500749007
 21
39.6749258624
  0
SPLINE
  5
450
100
AcDbEntity
  8
RACCORDO
100
AcDbSpline
 62
7
  6
CONTINUOUS
 70
0
 71
3
 72
14
 73
10
 74
0
 42
0.0000001
 43
0.0000001
 44
0.0000000001
 40
0.0
 40
0.0
 40
0.0
 40
0.0
 40
0.3690508133
 40
0.5325999579
 40
0.6779622836
 40
0.8014152279
 40
0.8989413326
 40
0.9663154669
 40
1.0
 40
1.0
 40
1.0
 40
1.0
 10
-150.2500663238
 20
39.6749258625
 30
0.0
 10
-150.2755411082
 20
39.7003959064
 30
0.0
 10
-150.3114496437
 20
39.7380095478
 30
0.0
 10
-150.356801685
 20
39.7861851744
 30
0.0
 10
-150.3858290318
 20
39.8168570366
 30
0.0
 10
-150.4107632643
 20
39.8423884973
 30
0.0
 10
-150.4308296541
 20
39.8623980971
 30
0.0
 10
-150.4453788242
 20
39.874667198
 30
0.0
 10
-150.4532293206
 20
39.8814247469
 30
0.0
 10
-150.4564316543
 20
39.8821703245
 30
0.0
  0
SPLINE
  5
451
100
AcDbEntity
  8
RACCORDO
100
AcDbSpline
 62
7
  6
CONTINUOUS
 70
0
 71
3
 72
14
 73
10
 74
0
 42
0.0000001
 43
0.0000001
 44
0.0000000001
 40
0.0
 40
0.0
 40
0.0
 40
0.0
 40
0.0336919063
 40
0.1010728129
 40
0.1986055048
 40
0.3220639477
 40
0.4674282338
 40
0.6309714224
 40
1.0
 40
1.0
 40
1.0
 40
1.0
 10
-156.4435683455
 20
39.8821703245
 30
0.0
 10
-156.446771379
 20
39.8814245839
 30
0.0
 10
-156.4546219095
 20
39.8746644107
 30
0.0
 10
-156.4691743416
 20
39.8623963393
 30
0.0
 10
-156.4892403431
 20
39.842383463
 30
0.0
 10
-156.5141763614
 20
39.8168519753
 30
0.0
 10
-156.5432034743
 20
39.7861796612
 30
0.0
 10
-156.5885535999
 20
39.7380058017
 30
0.0
 10
-156.6244604374
 20
39.7003943651
 30
0.0
 10
-156.6499336745
 20
39.674925863
 30
0.0
  0
LINE
  5
452
100
AcDbEntity
  8
RACCORDO
100
AcDbLine
 62
7
  6
CONTINUOUS
 10
168.1749258628
 20
32.399925098
 11
167.8822464769
 21
32.6925880081
  0
LINE
  5
453
100
AcDbEntity
  8
RACCORDO
100
AcDbLine
 62
7
  6
CONTINUOUS
 10
167.8822464769
 20
25.7074119919
 11
168.1749258623
 21
26.0000749007
  0
SPLINE
  5
454
100
AcDbEntity
  8
RACCORDO
100
AcDbSpline
 62
7
  6
CONTINUOUS
 70
0
 71
3
 72
14
 73
10
 74
0
 42
0.0000001
 43
0.0000001
 44
0.0000000001
 40
0.0
 40
0.0
 40
0.0
 40
0.0
 40
0.3690508133
 40
0.5325999579
 40
0.6779622836
 40
0.8014152279
 40
0.8989413326
 40
0.9663154669
 40
1.0
 40
1.0
 40
1.0
 40
1.0
 10
168.1749258625
 20
26.0000663239
 30
0.0
 10
168.2003959063
 20
26.0255411082
 30
0.0
 10
168.2380095478
 20
26.0614496437
 30
0.0
 10
168.2861851744
 20
26.106801685
 30
0.0
 10
168.3168570366
 20
26.1358290318
 30
0.0
 10
168.3423884973
 20
26.1607632643
 30
0.0
 10
168.3623980971
 20
26.1808296541
 30
0.0
 10
168.374667198
 20
26.1953788242
 30
0.0
 10
168.3814247469
 20
26.2032293206
 30
0.0
 10
168.3821703245
 20
26.2064316543
 30
0.0
  0
SPLINE
  5
455
100
AcDbEntity
  8
RACCORDO
100
AcDbSpline
 62
7
  6
CONTINUOUS
 70
0
 71
3
 72
14
 73
10
 74
0
 42
0.0000001
 43
0.0000001
 44
0.0000000001
 40
0.0
 40
0.0
 40
0.0
 40
0.0
 40
0.0336919063
 40
0.1010728129
 40
0.1986055048
 40
0.3220639477
 40
0.4674282338
 40
0.6309714224
 40
1.0
 40
1.0
 40
1.0
 40
1.0
 10
168.3821703245
 20
32.1935683455
 30
0.0
 10
168.3814245839
 20
32.196771379
 30
0.0
 10
168.3746644107
 20
32.2046219095
 30
0.0
 10
168.3623963393
 20
32.2191743416
 30
0.0
 10
168.342383463
 20
32.2392403432
 30
0.0
 10
168.3168519753
 20
32.2641763614
 30
0.0
 10
168.2861796612
 20
32.2932034743
 30
0.0
 10
168.2380058017
 20
32.3385536
 30
0.0
 10
168.2003943651
 20
32.3744604374
 30
0.0
 10
168.1749258629
 20
32.3999336745
 30
0.0
  0
LINE
  5
456
100
AcDbEntity
  8
RACCORDO
100
AcDbLine
 62
7
  6
CONTINUOUS
 10
156.649925098
 20
-39.6749258628
 11
156.9425880081
 21
-39.3822464769
  0
LINE
  5
457
100
AcDbEntity
  8
RACCORDO
100
AcDbLine
 62
7
  6
CONTINUOUS
 10
149.9574119919
 20
-39.3822464769
 11
150.2500749007
 21
-39.6749258623
  0
SPLINE
  5
458
100
AcDbEntity
  8
RACCORDO
100
AcDbSpline
 62
7
  6
CONTINUOUS
 70
0
 71
3
 72
14
 73
10
 74
0
 42
0.0000001
 43
0.0000001
 44
0.0000000001
 40
0.0
 40
0.0
 40
0.0
 40
0.0
 40
0.3690508133
 40
0.5325999579
 40
0.6779622836
 40
0.8014152279
 40
0.8989413326
 40
0.9663154669
 40
1.0
 40
1.0
 40
1.0
 40
1.0
 10
150.2500663239
 20
-39.6749258625
 30
0.0
 10
150.2755411082
 20
-39.7003959063
 30
0.0
 10
150.3114496437
 20
-39.7380095477
 30
0.0
 10
150.356801685
 20
-39.7861851744
 30
0.0
 10
150.3858290318
 20
-39.8168570366
 30
0.0
 10
150.4107632643
 20
-39.8423884973
 30
0.0
 10
150.4308296541
 20
-39.8623980971
 30
0.0
 10
150.4453788242
 20
-39.874667198
 30
0.0
 10
150.4532293206
 20
-39.8814247469
 30
0.0
 10
150.4564316543
 20
-39.8821703245
 30
0.0
  0
SPLINE
  5
459
100
AcDbEntity
  8
RACCORDO
100
AcDbSpline
 62
7
  6
CONTINUOUS
 70
0
 71
3
 72
14
 73
10
 74
0
 42
0.0000001
 43
0.0000001
 44
0.0000000001
 40
0.0
 40
0.0
 40
0.0
 40
0.0
 40
0.0336919063
 40
0.1010728129
 40
0.1986055048
 40
0.3220639477
 40
0.4674282338
 40
0.6309714224
 40
1.0
 40
1.0
 40
1.0
 40
1.0
 10
156.4435683455
 20
-39.8821703245
 30
0.0
 10
156.446771379
 20
-39.8814245839
 30
0.0
 10
156.4546219095
 20
-39.8746644107
 30
0.0
 10
156.4691743416
 20
-39.8623963393
 30
0.0
 10
156.4892403431
 20
-39.842383463
 30
0.0
 10
156.5141763614
 20
-39.8168519753
 30
0.0
 10
156.5432034743
 20
-39.7861796612
 30
0.0
 10
156.5885535999
 20
-39.7380058017
 30
0.0
 10
156.6244604374
 20
-39.7003943651
 30
0.0
 10
156.6499336745
 20
-39.6749258629
 30
0.0
  0
SPLINE
  5
45A
100
AcDbEntity
  8
RACCORDO
100
AcDbSpline
 62
250
  6
CONTINUOUS
 70
0
 71
3
 72
20
 73
16
 74
0
 42
0.0000001
 43
0.0000001
 44
0.0000000001
 40
0.0
 40
0.0
 40
0.0
 40
0.0
 40
0.1929492187
 40
0.3786456994
 40
0.5501127777
 40
0.7009059571
 40
0.7667397985
 40
0.8253600717
 40
0.8762027693
 40
0.9188018352
 40
0.9527439435
 40
0.9777287227
 40
0.9935138825
 40
0.997917931
 40
1.0
 40
1.0
 40
1.0
 40
1.0
 10
-168.1749258819
 20
-25.7074130812
 30
0.0
 10
-168.2521078601
 20
-25.7074130449
 30
0.0
 10
-168.4035706887
 20
-25.707558976
 30
0.0
 10
-168.6236214727
 20
-25.7082176518
 30
0.0
 10
-168.8268077017
 20
-25.7092841286
 30
0.0
 10
-168.9820449964
 20
-25.7105220446
 30
0.0
 10
-169.0921412912
 20
-25.7117224098
 30
0.0
 10
-169.1622545657
 20
-25.7126551165
 30
0.0
 10
-169.2230776179
 20
-25.713637768
 30
0.0
 10
-169.2740097924
 20
-25.7146972028
 30
0.0
 10
-169.3146409339
 20
-25.7157062203
 30
0.0
 10
-169.3444296207
 20
-25.716918902
 30
0.0
 10
-169.3626170336
 20
-25.7176399818
 30
0.0
 10
-169.3713394104
 20
-25.7187405756
 30
0.0
 10
-169.3740248371
 20
-25.7189957279
 30
0.0
 10
-169.3747431161
 20
-25.7194172943
 30
0.0
  0
SPLINE
  5
45B
100
AcDbEntity
  8
RACCORDO
100
AcDbSpline
 62
250
  6
CONTINUOUS
 70
0
 71
3
 72
20
 73
16
 74
0
 42
0.0000001
 43
0.0000001
 44
0.0000000001
 40
0.0
 40
0.0
 40
0.0
 40
0.0
 40
0.0020820691
 40
0.0064861177
 40
0.0222712773
 40
0.0472560565
 40
0.0811981647
 40
0.1237972306
 40
0.1746399283
 40
0.2332602015
 40
0.2990940429
 40
0.4498872223
 40
0.6213543006
 40
0.8070507813
 40
1.0
 40
1.0
 40
1.0
 40
1.0
 10
-169.3747431161
 20
-32.6805827057
 30
0.0
 10
-169.3740248368
 20
-32.6810042718
 30
0.0
 10
-169.3713394103
 20
-32.6812594242
 30
0.0
 10
-169.3626170332
 20
-32.6823600178
 30
0.0
 10
-169.3444296207
 20
-32.6830810983
 30
0.0
 10
-169.3146409339
 20
-32.6842937798
 30
0.0
 10
-169.2740097925
 20
-32.6853027972
 30
0.0
 10
-169.2230776178
 20
-32.6863622319
 30
0.0
 10
-169.1622545657
 20
-32.6873448834
 30
0.0
 10
-169.0921412912
 20
-32.6882775903
 30
0.0
 10
-168.9820449964
 20
-32.6894779555
 30
0.0
 10
-168.8268077017
 20
-32.6907158713
 30
0.0
 10
-168.6236214727
 20
-32.691782348
 30
0.0
 10
-168.4035706887
 20
-32.6924410247
 30
0.0
 10
-168.2521078601
 20
-32.6925869548
 30
0.0
 10
-168.1749258819
 20
-32.6925869186
 30
0.0
  0
SPLINE
  5
45C
100
AcDbEntity
  8
RACCORDO
100
AcDbSpline
 62
250
  6
CONTINUOUS
 70
0
 71
3
 72
20
 73
16
 74
0
 42
0.0000001
 43
0.0000001
 44
0.0000000001
 40
0.0
 40
0.0
 40
0.0
 40
0.0
 40
0.1929492187
 40
0.3786456994
 40
0.5501127777
 40
0.7009059571
 40
0.7667397985
 40
0.8253600717
 40
0.8762027693
 40
0.9188018352
 40
0.9527439435
 40
0.9777287227
 40
0.9935138825
 40
0.997917931
 40
1.0
 40
1.0
 40
1.0
 40
1.0
 10
-149.9574130812
 20
39.6749258819
 30
0.0
 10
-149.9574130449
 20
39.7521078601
 30
0.0
 10
-149.957558976
 20
39.9035706887
 30
0.0
 10
-149.9582176518
 20
40.1236214727
 30
0.0
 10
-149.9592841286
 20
40.3268077017
 30
0.0
 10
-149.9605220446
 20
40.4820449964
 30
0.0
 10
-149.9617224098
 20
40.5921412912
 30
0.0
 10
-149.9626551165
 20
40.6622545657
 30
0.0
 10
-149.963637768
 20
40.7230776179
 30
0.0
 10
-149.9646972028
 20
40.7740097924
 30
0.0
 10
-149.9657062203
 20
40.8146409339
 30
0.0
 10
-149.966918902
 20
40.8444296207
 30
0.0
 10
-149.9676399818
 20
40.8626170336
 30
0.0
 10
-149.9687405756
 20
40.8713394104
 30
0.0
 10
-149.9689957279
 20
40.8740248371
 30
0.0
 10
-149.9694172943
 20
40.8747431161
 30
0.0
  0
SPLINE
  5
45D
100
AcDbEntity
  8
RACCORDO
100
AcDbSpline
 62
250
  6
CONTINUOUS
 70
0
 71
3
 72
20
 73
16
 74
0
 42
0.0000001
 43
0.0000001
 44
0.0000000001
 40
0.0
 40
0.0
 40
0.0
 40
0.0
 40
0.0020820691
 40
0.0064861177
 40
0.0222712773
 40
0.0472560565
 40
0.0811981647
 40
0.1237972306
 40
0.1746399283
 40
0.2332602015
 40
0.2990940429
 40
0.4498872223
 40
0.6213543006
 40
0.8070507813
 40
1.0
 40
1.0
 40
1.0
 40
1.0
 10
-156.9305827057
 20
40.8747431161
 30
0.0
 10
-156.9310042718
 20
40.8740248368
 30
0.0
 10
-156.9312594242
 20
40.8713394103
 30
0.0
 10
-156.9323600178
 20
40.8626170332
 30
0.0
 10
-156.9330810983
 20
40.8444296208
 30
0.0
 10
-156.9342937798
 20
40.8146409339
 30
0.0
 10
-156.9353027972
 20
40.7740097925
 30
0.0
 10
-156.9363622319
 20
40.7230776178
 30
0.0
 10
-156.9373448834
 20
40.6622545657
 30
0.0
 10
-156.9382775903
 20
40.5921412912
 30
0.0
 10
-156.9394779555
 20
40.4820449964
 30
0.0
 10
-156.9407158713
 20
40.3268077017
 30
0.0
 10
-156.941782348
 20
40.1236214727
 30
0.0
 10
-156.9424410247
 20
39.9035706887
 30
0.0
 10
-156.9425869548
 20
39.7521078601
 30
0.0
 10
-156.9425869186
 20
39.6749258819
 30
0.0
  0
SPLINE
  5
45E
100
AcDbEntity
  8
RACCORDO
100
AcDbSpline
 62
250
  6
CONTINUOUS
 70
0
 71
3
 72
20
 73
16
 74
0
 42
0.0000001
 43
0.0000001
 44
0.0000000001
 40
0.0
 40
0.0
 40
0.0
 40
0.0
 40
0.1929492187
 40
0.3786456994
 40
0.5501127777
 40
0.7009059571
 40
0.7667397985
 40
0.8253600717
 40
0.8762027693
 40
0.9188018352
 40
0.9527439435
 40
0.9777287227
 40
0.9935138825
 40
0.997917931
 40
1.0
 40
1.0
 40
1.0
 40
1.0
 10
168.1749258819
 20
25.7074130812
 30
0.0
 10
168.2521078601
 20
25.7074130449
 30
0.0
 10
168.4035706887
 20
25.7075589761
 30
0.0
 10
168.6236214727
 20
25.7082176518
 30
0.0
 10
168.8268077017
 20
25.7092841286
 30
0.0
 10
168.9820449964
 20
25.7105220446
 30
0.0
 10
169.0921412912
 20
25.7117224098
 30
0.0
 10
169.1622545657
 20
25.7126551165
 30
0.0
 10
169.2230776179
 20
25.713637768
 30
0.0
 10
169.2740097924
 20
25.7146972028
 30
0.0
 10
169.3146409339
 20
25.7157062203
 30
0.0
 10
169.3444296207
 20
25.716918902
 30
0.0
 10
169.3626170336
 20
25.7176399818
 30
0.0
 10
169.3713394104
 20
25.7187405756
 30
0.0
 10
169.3740248371
 20
25.7189957279
 30
0.0
 10
169.3747431161
 20
25.7194172943
 30
0.0
  0
SPLINE
  5
45F
100
AcDbEntity
  8
RACCORDO
100
AcDbSpline
 62
250
  6
CONTINUOUS
 70
0
 71
3
 72
20
 73
16
 74
0
 42
0.0000001
 43
0.0000001
 44
0.0000000001
 40
0.0
 40
0.0
 40
0.0
 40
0.0
 40
0.0020820691
 40
0.0064861177
 40
0.0222712773
 40
0.0472560565
 40
0.0811981647
 40
0.1237972306
 40
0.1746399283
 40
0.2332602015
 40
0.2990940429
 40
0.4498872223
 40
0.6213543006
 40
0.8070507813
 40
1.0
 40
1.0
 40
1.0
 40
1.0
 10
169.3747431161
 20
32.6805827057
 30
0.0
 10
169.3740248368
 20
32.6810042718
 30
0.0
 10
169.3713394103
 20
32.6812594242
 30
0.0
 10
169.3626170332
 20
32.6823600178
 30
0.0
 10
169.3444296207
 20
32.6830810983
 30
0.0
 10
169.3146409339
 20
32.6842937798
 30
0.0
 10
169.2740097925
 20
32.6853027972
 30
0.0
 10
169.2230776178
 20
32.6863622319
 30
0.0
 10
169.1622545657
 20
32.6873448834
 30
0.0
 10
169.0921412912
 20
32.6882775903
 30
0.0
 10
168.9820449964
 20
32.6894779555
 30
0.0
 10
168.8268077017
 20
32.6907158713
 30
0.0
 10
168.6236214727
 20
32.691782348
 30
0.0
 10
168.4035706887
 20
32.6924410247
 30
0.0
 10
168.2521078601
 20
32.6925869548
 30
0.0
 10
168.1749258819
 20
32.6925869186
 30
0.0
  0
SPLINE
  5
460
100
AcDbEntity
  8
RACCORDO
100
AcDbSpline
 62
250
  6
CONTINUOUS
 70
0
 71
3
 72
20
 73
16
 74
0
 42
0.0000001
 43
0.0000001
 44
0.0000000001
 40
0.0
 40
0.0
 40
0.0
 40
0.0
 40
0.1929492187
 40
0.3786456994
 40
0.5501127777
 40
0.7009059571
 40
0.7667397985
 40
0.8253600717
 40
0.8762027693
 40
0.9188018352
 40
0.9527439435
 40
0.9777287227
 40
0.9935138825
 40
0.997917931
 40
1.0
 40
1.0
 40
1.0
 40
1.0
 10
149.9574130812
 20
-39.6749258819
 30
0.0
 10
149.9574130449
 20
-39.7521078601
 30
0.0
 10
149.957558976
 20
-39.9035706887
 30
0.0
 10
149.9582176518
 20
-40.1236214727
 30
0.0
 10
149.9592841286
 20
-40.3268077017
 30
0.0
 10
149.9605220446
 20
-40.4820449964
 30
0.0
 10
149.9617224098
 20
-40.5921412912
 30
0.0
 10
149.9626551165
 20
-40.6622545657
 30
0.0
 10
149.963637768
 20
-40.7230776179
 30
0.0
 10
149.9646972028
 20
-40.7740097924
 30
0.0
 10
149.9657062203
 20
-40.8146409339
 30
0.0
 10
149.966918902
 20
-40.8444296207
 30
0.0
 10
149.9676399818
 20
-40.8626170336
 30
0.0
 10
149.9687405756
 20
-40.8713394104
 30
0.0
 10
149.9689957279
 20
-40.8740248371
 30
0.0
 10
149.9694172943
 20
-40.8747431161
 30
0.0
  0
SPLINE
  5
461
100
AcDbEntity
  8
RACCORDO
100
AcDbSpline
 62
250
  6
CONTINUOUS
 70
0
 71
3
 72
20
 73
16
 74
0
 42
0.0000001
 43
0.0000001
 44
0.0000000001
 40
0.0
 40
0.0
 40
0.0
 40
0.0
 40
0.0020820691
 40
0.0064861177
 40
0.0222712773
 40
0.0472560565
 40
0.0811981647
 40
0.1237972306
 40
0.1746399283
 40
0.2332602015
 40
0.2990940429
 40
0.4498872223
 40
0.6213543006
 40
0.8070507813
 40
1.0
 40
1.0
 40
1.0
 40
1.0
 10
156.9305827057
 20
-40.8747431161
 30
0.0
 10
156.9310042718
 20
-40.8740248368
 30
0.0
 10
156.9312594242
 20
-40.8713394103
 30
0.0
 10
156.9323600178
 20
-40.8626170332
 30
0.0
 10
156.9330810983
 20
-40.8444296207
 30
0.0
 10
156.9342937798
 20
-40.8146409339
 30
0.0
 10
156.9353027972
 20
-40.7740097924
 30
0.0
 10
156.9363622319
 20
-40.7230776178
 30
0.0
 10
156.9373448834
 20
-40.6622545657
 30
0.0
 10
156.9382775903
 20
-40.5921412912
 30
0.0
 10
156.9394779555
 20
-40.4820449964
 30
0.0
 10
156.9407158713
 20
-40.3268077017
 30
0.0
 10
156.941782348
 20
-40.1236214727
 30
0.0
 10
156.9424410247
 20
-39.9035706887
 30
0.0
 10
156.9425869548
 20
-39.7521078601
 30
0.0
 10
156.9425869186
 20
-39.6749258819
 30
0.0
  0
SPLINE
  5
462
100
AcDbEntity
  8
RACCORDO
100
AcDbSpline
 62
250
  6
CONTINUOUS
 70
0
 71
3
 72
18
 73
14
 74
0
 42
0.0000001
 43
0.0000001
 44
0.0000000001
 40
0.0
 40
0.0
 40
0.0
 40
0.0
 40
0.1926174135
 40
0.3780239719
 40
0.549257375
 40
0.6998598052
 40
0.8241864654
 40
0.8750062956
 40
0.9176062529
 40
0.9516094066
 40
0.9767197817
 40
0.9927822476
 40
1.0
 40
1.0
 40
1.0
 40
1.0
 10
168.9640533427
 20
31.6086513684
 30
0.0
 10
168.9640533772
 20
31.6408119665
 30
0.0
 10
168.9638427487
 20
31.7039295532
 30
0.0
 10
168.9629013626
 20
31.7956323196
 30
0.0
 10
168.9613795303
 20
31.8803138662
 30
0.0
 10
168.9593349774
 20
31.9547755499
 30
0.0
 10
168.9571763825
 20
32.0091376613
 30
0.0
 10
168.9551449598
 20
32.0454171901
 30
0.0
 10
168.953677511
 20
32.0666883471
 30
0.0
 10
168.9521079737
 20
32.0834789991
 30
0.0
 10
168.9506728233
 20
32.0962369454
 30
0.0
 10
168.9489994011
 20
32.1036149075
 30
0.0
 10
168.9479809802
 20
32.1080366235
 30
0.0
 10
168.9469029106
 20
32.108575216
 30
0.0
  0
SPLINE
  5
463
100
AcDbEntity
  8
RACCORDO
100
AcDbSpline
 62
250
  6
CONTINUOUS
 70
0
 71
3
 72
18
 73
14
 74
0
 42
0.0000001
 43
0.0000001
 44
0.0000000001
 40
0.0
 40
0.0
 40
0.0
 40
0.0
 40
0.0072177518
 40
0.0232802189
 40
0.0483905939
 40
0.0823937473
 40
0.1249937046
 40
0.1758135349
 40
0.300140195
 40
0.4507426252
 40
0.6219760282
 40
0.8073825865
 40
1.0
 40
1.0
 40
1.0
 40
1.0
 10
168.9469029106
 20
26.291424784
 30
0.0
 10
168.9479809816
 20
26.2919633735
 30
0.0
 10
168.9489994012
 20
26.2963850948
 30
0.0
 10
168.9506728218
 20
26.3037630533
 30
0.0
 10
168.9521079741
 20
26.3165210015
 30
0.0
 10
168.9536775113
 20
26.3333116527
 30
0.0
 10
168.9551449597
 20
26.35458281
 30
0.0
 10
168.9571763823
 20
26.3908623386
 30
0.0
 10
168.9593349776
 20
26.4452244502
 30
0.0
 10
168.96137953
 20
26.5196861338
 30
0.0
 10
168.9629013628
 20
26.6043676804
 30
0.0
 10
168.9638427485
 20
26.6960704468
 30
0.0
 10
168.9640533769
 20
26.7591880335
 30
0.0
 10
168.9640533427
 20
26.7913486316
 30
0.0
  0
SPLINE
  5
464
100
AcDbEntity
  8
RACCORDO
100
AcDbSpline
 62
250
  6
CONTINUOUS
 70
0
 71
3
 72
18
 73
14
 74
0
 42
0.0000001
 43
0.0000001
 44
0.0000000001
 40
0.0
 40
0.0
 40
0.0
 40
0.0
 40
0.1926174135
 40
0.3780239719
 40
0.549257375
 40
0.6998598052
 40
0.8241864654
 40
0.8750062956
 40
0.9176062529
 40
0.9516094066
 40
0.9767197817
 40
0.9927822476
 40
1.0
 40
1.0
 40
1.0
 40
1.0
 10
-155.8586513684
 20
40.4640533427
 30
0.0
 10
-155.8908119665
 20
40.4640533772
 30
0.0
 10
-155.9539295532
 20
40.4638427487
 30
0.0
 10
-156.0456323196
 20
40.4629013626
 30
0.0
 10
-156.1303138661
 20
40.4613795303
 30
0.0
 10
-156.2047755499
 20
40.4593349774
 30
0.0
 10
-156.2591376613
 20
40.4571763825
 30
0.0
 10
-156.2954171901
 20
40.4551449598
 30
0.0
 10
-156.3166883471
 20
40.453677511
 30
0.0
 10
-156.3334789991
 20
40.4521079737
 30
0.0
 10
-156.3462369454
 20
40.4506728233
 30
0.0
 10
-156.3536149075
 20
40.4489994011
 30
0.0
 10
-156.3580366235
 20
40.4479809802
 30
0.0
 10
-156.358575216
 20
40.4469029106
 30
0.0
  0
SPLINE
  5
465
100
AcDbEntity
  8
RACCORDO
100
AcDbSpline
 62
250
  6
CONTINUOUS
 70
0
 71
3
 72
18
 73
14
 74
0
 42
0.0000001
 43
0.0000001
 44
0.0000000001
 40
0.0
 40
0.0
 40
0.0
 40
0.0
 40
0.0072177518
 40
0.0232802189
 40
0.0483905939
 40
0.0823937473
 40
0.1249937046
 40
0.1758135349
 40
0.300140195
 40
0.4507426252
 40
0.6219760282
 40
0.8073825865
 40
1.0
 40
1.0
 40
1.0
 40
1.0
 10
-150.541424784
 20
40.4469029106
 30
0.0
 10
-150.5419633735
 20
40.4479809816
 30
0.0
 10
-150.5463850948
 20
40.4489994012
 30
0.0
 10
-150.5537630533
 20
40.4506728218
 30
0.0
 10
-150.5665210015
 20
40.4521079741
 30
0.0
 10
-150.5833116527
 20
40.4536775113
 30
0.0
 10
-150.60458281
 20
40.4551449597
 30
0.0
 10
-150.6408623386
 20
40.4571763823
 30
0.0
 10
-150.6952244501
 20
40.4593349776
 30
0.0
 10
-150.7696861338
 20
40.46137953
 30
0.0
 10
-150.8543676804
 20
40.4629013628
 30
0.0
 10
-150.9460704468
 20
40.4638427485
 30
0.0
 10
-151.0091880335
 20
40.4640533769
 30
0.0
 10
-151.0413486316
 20
40.4640533427
 30
0.0
  0
SPLINE
  5
466
100
AcDbEntity
  8
RACCORDO
100
AcDbSpline
 62
250
  6
CONTINUOUS
 70
0
 71
3
 72
18
 73
14
 74
0
 42
0.0000001
 43
0.0000001
 44
0.0000000001
 40
0.0
 40
0.0
 40
0.0
 40
0.0
 40
0.0072177518
 40
0.0232802189
 40
0.0483905939
 40
0.0823937473
 40
0.1249937046
 40
0.1758135349
 40
0.300140195
 40
0.4507426252
 40
0.6219760282
 40
0.8073825865
 40
1.0
 40
1.0
 40
1.0
 40
1.0
 10
-168.9469029106
 20
-26.291424784
 30
0.0
 10
-168.9479809816
 20
-26.2919633735
 30
0.0
 10
-168.9489994012
 20
-26.2963850948
 30
0.0
 10
-168.9506728218
 20
-26.3037630533
 30
0.0
 10
-168.9521079741
 20
-26.3165210015
 30
0.0
 10
-168.9536775113
 20
-26.3333116527
 30
0.0
 10
-168.9551449597
 20
-26.35458281
 30
0.0
 10
-168.9571763823
 20
-26.3908623386
 30
0.0
 10
-168.9593349776
 20
-26.4452244501
 30
0.0
 10
-168.96137953
 20
-26.5196861338
 30
0.0
 10
-168.9629013628
 20
-26.6043676804
 30
0.0
 10
-168.9638427485
 20
-26.6960704468
 30
0.0
 10
-168.9640533769
 20
-26.7591880335
 30
0.0
 10
-168.9640533427
 20
-26.7913486316
 30
0.0
  0
SPLINE
  5
467
100
AcDbEntity
  8
RACCORDO
100
AcDbSpline
 62
250
  6
CONTINUOUS
 70
0
 71
3
 72
18
 73
14
 74
0
 42
0.0000001
 43
0.0000001
 44
0.0000000001
 40
0.0
 40
0.0
 40
0.0
 40
0.0
 40
0.1926174135
 40
0.3780239719
 40
0.549257375
 40
0.6998598052
 40
0.8241864654
 40
0.8750062956
 40
0.9176062529
 40
0.9516094066
 40
0.9767197817
 40
0.9927822476
 40
1.0
 40
1.0
 40
1.0
 40
1.0
 10
-168.9640533427
 20
-31.6086513684
 30
0.0
 10
-168.9640533772
 20
-31.6408119665
 30
0.0
 10
-168.9638427487
 20
-31.7039295532
 30
0.0
 10
-168.9629013626
 20
-31.7956323196
 30
0.0
 10
-168.9613795303
 20
-31.8803138661
 30
0.0
 10
-168.9593349774
 20
-31.9547755499
 30
0.0
 10
-168.9571763825
 20
-32.0091376613
 30
0.0
 10
-168.9551449598
 20
-32.0454171901
 30
0.0
 10
-168.953677511
 20
-32.0666883471
 30
0.0
 10
-168.9521079737
 20
-32.0834789991
 30
0.0
 10
-168.9506728233
 20
-32.0962369454
 30
0.0
 10
-168.9489994011
 20
-32.1036149075
 30
0.0
 10
-168.9479809802
 20
-32.1080366235
 30
0.0
 10
-168.9469029106
 20
-32.108575216
 30
0.0
  0
SPLINE
  5
468
100
AcDbEntity
  8
RACCORDO
100
AcDbSpline
 62
250
  6
CONTINUOUS
 70
0
 71
3
 72
18
 73
14
 74
0
 42
0.0000001
 43
0.0000001
 44
0.0000000001
 40
0.0
 40
0.0
 40
0.0
 40
0.0
 40
0.1926174135
 40
0.3780239719
 40
0.549257375
 40
0.6998598052
 40
0.8241864654
 40
0.8750062956
 40
0.9176062529
 40
0.9516094066
 40
0.9767197817
 40
0.9927822476
 40
1.0
 40
1.0
 40
1.0
 40
1.0
 10
155.8586513684
 20
-40.4640533427
 30
0.0
 10
155.8908119665
 20
-40.4640533772
 30
0.0
 10
155.9539295532
 20
-40.4638427487
 30
0.0
 10
156.0456323196
 20
-40.4629013626
 30
0.0
 10
156.1303138661
 20
-40.4613795303
 30
0.0
 10
156.2047755499
 20
-40.4593349774
 30
0.0
 10
156.2591376613
 20
-40.4571763825
 30
0.0
 10
156.2954171901
 20
-40.4551449598
 30
0.0
 10
156.3166883471
 20
-40.453677511
 30
0.0
 10
156.3334789991
 20
-40.4521079737
 30
0.0
 10
156.3462369454
 20
-40.4506728233
 30
0.0
 10
156.3536149075
 20
-40.4489994011
 30
0.0
 10
156.3580366235
 20
-40.4479809802
 30
0.0
 10
156.358575216
 20
-40.4469029106
 30
0.0
  0
SPLINE
  5
469
100
AcDbEntity
  8
RACCORDO
100
AcDbSpline
 62
250
  6
CONTINUOUS
 70
0
 71
3
 72
18
 73
14
 74
0
 42
0.0000001
 43
0.0000001
 44
0.0000000001
 40
0.0
 40
0.0
 40
0.0
 40
0.0
 40
0.0072177518
 40
0.0232802189
 40
0.0483905939
 40
0.0823937473
 40
0.1249937046
 40
0.1758135349
 40
0.300140195
 40
0.4507426252
 40
0.6219760282
 40
0.8073825865
 40
1.0
 40
1.0
 40
1.0
 40
1.0
 10
150.541424784
 20
-40.4469029106
 30
0.0
 10
150.5419633735
 20
-40.4479809816
 30
0.0
 10
150.5463850948
 20
-40.4489994012
 30
0.0
 10
150.5537630533
 20
-40.4506728218
 30
0.0
 10
150.5665210015
 20
-40.4521079741
 30
0.0
 10
150.5833116527
 20
-40.4536775113
 30
0.0
 10
150.60458281
 20
-40.4551449597
 30
0.0
 10
150.6408623386
 20
-40.4571763823
 30
0.0
 10
150.6952244501
 20
-40.4593349776
 30
0.0
 10
150.7696861338
 20
-40.46137953
 30
0.0
 10
150.8543676804
 20
-40.4629013628
 30
0.0
 10
150.9460704468
 20
-40.4638427485
 30
0.0
 10
151.0091880335
 20
-40.4640533769
 30
0.0
 10
151.0413486316
 20
-40.4640533427
 30
0.0
  0
SPLINE
  5
46A
100
AcDbEntity
  8
DRAFT
100
AcDbSpline
 62
7
  6
CONTINUOUS
 70
0
 71
3
 72
27
 73
23
 74
0
 42
0.0000001
 43
0.0000001
 44
0.0000000001
 40
0.0
 40
0.0
 40
0.0
 40
0.0
 40
0.1950079009
 40
0.3825123147
 40
0.4711842091
 40
0.5553168999
 40
0.6341012787
 40
0.7067780868
 40
0.7726470736
 40
0.8310750558
 40
0.8815009705
 40
0.9035583208
 40
0.9234408164
 40
0.9410990459
 40
0.9564933616
 40
0.9695869529
 40
0.9803493814
 40
0.9887603358
 40
0.9948051828
 40
0.9984930685
 40
0.9994827782
 40
1.0
 40
1.0
 40
1.0
 40
1.0
 10
-136.0
 20
41.3172396544
 30
0.0
 10
-135.2498797956
 20
41.3172396544
 30
0.0
 10
-133.778501279
 20
41.3147551237
 30
0.0
 10
-131.9660571385
 20
41.3053621909
 30
0.0
 10
-130.5801330896
 20
41.2939893797
 30
0.0
 10
-129.6124187864
 20
41.2839276146
 30
0.0
 10
-128.7062537752
 20
41.27228106
 30
0.0
 10
-127.8703699736
 20
41.2591673748
 30
0.0
 10
-127.1128235761
 20
41.2447273473
 30
0.0
 10
-126.4409113068
 20
41.2291109643
 30
0.0
 10
-125.9375481735
 20
41.214714515
 30
0.0
 10
-125.5824624515
 20
41.2024696248
 30
0.0
 10
-125.3533866784
 20
41.1935079757
 30
0.0
 10
-125.1499668398
 20
41.1843766883
 30
0.0
 10
-124.9727079742
 20
41.175116983
 30
0.0
 10
-124.8219918967
 20
41.1657406037
 30
0.0
 10
-124.6982873623
 20
41.1563702606
 30
0.0
 10
-124.6015645227
 20
41.1468952553
 30
0.0
 10
-124.5327219502
 20
41.1379640763
 30
0.0
 10
-124.4916038882
 20
41.1293306827
 30
0.0
 10
-124.4734141997
 20
41.1226762139
 30
0.0
 10
-124.4685260787
 20
41.1178857169
 30
0.0
 10
-124.4685780936
 20
41.1158968441
 30
0.0
  0
SPLINE
  5
46B
100
AcDbEntity
  8
DRAFT
100
AcDbSpline
 62
7
  6
CONTINUOUS
 70
0
 71
3
 72
27
 73
23
 74
0
 42
0.0000001
 43
0.0000001
 44
0.0000000001
 40
0.0
 40
0.0
 40
0.0
 40
0.0
 40
0.1950079009
 40
0.3825123147
 40
0.4711842091
 40
0.5553168999
 40
0.6341012787
 40
0.7067780868
 40
0.7726470736
 40
0.8310750558
 40
0.8815009705
 40
0.9035583208
 40
0.9234408164
 40
0.9410990459
 40
0.9564933616
 40
0.9695869529
 40
0.9803493814
 40
0.9887603358
 40
0.9948051828
 40
0.9984930685
 40
0.9994827782
 40
1.0
 40
1.0
 40
1.0
 40
1.0
 10
-102.0
 20
41.3172396544
 30
0.0
 10
-101.2498797956
 20
41.3172396544
 30
0.0
 10
-99.778501279
 20
41.3147551237
 30
0.0
 10
-97.9660571385
 20
41.3053621909
 30
0.0
 10
-96.5801330896
 20
41.2939893797
 30
0.0
 10
-95.6124187864
 20
41.2839276146
 30
0.0
 10
-94.7062537752
 20
41.27228106
 30
0.0
 10
-93.8703699736
 20
41.2591673748
 30
0.0
 10
-93.1128235761
 20
41.2447273473
 30
0.0
 10
-92.4409113068
 20
41.2291109643
 30
0.0
 10
-91.9375481735
 20
41.214714515
 30
0.0
 10
-91.5824624515
 20
41.2024696248
 30
0.0
 10
-91.3533866784
 20
41.1935079757
 30
0.0
 10
-91.1499668398
 20
41.1843766883
 30
0.0
 10
-90.9727079742
 20
41.175116983
 30
0.0
 10
-90.8219918967
 20
41.1657406037
 30
0.0
 10
-90.6982873623
 20
41.1563702606
 30
0.0
 10
-90.6015645227
 20
41.1468952553
 30
0.0
 10
-90.5327219502
 20
41.1379640763
 30
0.0
 10
-90.4916038882
 20
41.1293306827
 30
0.0
 10
-90.4734141997
 20
41.1226762139
 30
0.0
 10
-90.4685260787
 20
41.1178857169
 30
0.0
 10
-90.4685780936
 20
41.1158968441
 30
0.0
  0
SPLINE
  5
46C
100
AcDbEntity
  8
RACCORDO
100
AcDbSpline
 62
250
  6
CONTINUOUS
 70
0
 71
3
 72
18
 73
14
 74
0
 42
0.0000001
 43
0.0000001
 44
0.0000000001
 40
0.0
 40
0.0
 40
0.0
 40
0.0
 40
0.2063709825
 40
0.3974911593
 40
0.568499418
 40
0.7153407329
 40
0.8343876223
 40
0.8825629426
 40
0.9227612828
 40
0.9547606301
 40
0.9783560571
 40
0.9934280682
 40
1.0
 40
1.0
 40
1.0
 40
1.0
 10
150.4578866415
 20
-39.8827211266
 30
0.0
 10
150.4580704396
 20
-39.9165967861
 30
0.0
 10
150.4585185891
 20
-39.9818443401
 30
0.0
 10
150.4594711934
 20
-40.0751594479
 30
0.0
 10
150.4606553941
 20
-40.1587008389
 30
0.0
 10
150.4620453685
 20
-40.2304014874
 30
0.0
 10
150.4633949935
 20
-40.2819471375
 30
0.0
 10
150.4646239563
 20
-40.3159606175
 30
0.0
 10
150.4654641626
 20
-40.3357307138
 30
0.0
 10
150.466426605
 20
-40.3513523443
 30
0.0
 10
150.4671156587
 20
-40.3631069558
 30
0.0
 10
150.4683154329
 20
-40.3701299723
 30
0.0
 10
150.4685736023
 20
-40.3740611921
 30
0.0
 10
150.4693411419
 20
-40.3748192685
 30
0.0
  0
SPLINE
  5
46D
100
AcDbEntity
  8
RACCORDO
100
AcDbSpline
 62
250
  6
CONTINUOUS
 70
0
 71
3
 72
18
 73
14
 74
0
 42
0.0000001
 43
0.0000001
 44
0.0000000001
 40
0.0
 40
0.0
 40
0.0
 40
0.0
 40
0.0065719293
 40
0.0216439455
 40
0.0452393755
 40
0.0772387194
 40
0.117437055
 40
0.1656123747
 40
0.2846592699
 40
0.431500582
 40
0.6025088416
 40
0.7936290211
 40
1.0
 40
1.0
 40
1.0
 40
1.0
 10
156.4306588581
 20
-40.3748192685
 30
0.0
 10
156.4314263993
 20
-40.3740611944
 30
0.0
 10
156.4316845655
 20
-40.3701299702
 30
0.0
 10
156.4328843421
 20
-40.3631069561
 30
0.0
 10
156.4335733945
 20
-40.3513523421
 30
0.0
 10
156.4345358376
 20
-40.3357307131
 30
0.0
 10
156.4353760437
 20
-40.315960618
 30
0.0
 10
156.4366050066
 20
-40.281947138
 30
0.0
 10
156.4379546314
 20
-40.2304014874
 30
0.0
 10
156.439344606
 20
-40.1587008383
 30
0.0
 10
156.4405288066
 20
-40.0751594471
 30
0.0
 10
156.4414814108
 20
-39.9818443393
 30
0.0
 10
156.4419295604
 20
-39.9165967855
 30
0.0
 10
156.4421133586
 20
-39.8827211265
 30
0.0
  0
LINE
  5
46E
100
AcDbEntity
  8
RACCORDO
100
AcDbLine
 62
7
  6
CONTINUOUS
 10
150.4564316543
 20
-39.8821703245
 11
150.4578866022
 21
-39.8827210873
  0
LINE
  5
46F
100
AcDbEntity
  8
RACCORDO
100
AcDbLine
 62
7
  6
CONTINUOUS
 10
156.4421133978
 20
-39.8827210873
 11
156.4435683455
 21
-39.8821703245
  0
SPLINE
  5
470
100
AcDbEntity
  8
RACCORDO
100
AcDbSpline
 62
250
  6
CONTINUOUS
 70
0
 71
3
 72
18
 73
14
 74
0
 42
0.0000001
 43
0.0000001
 44
0.0000000001
 40
0.0
 40
0.0
 40
0.0
 40
0.0
 40
0.0065719293
 40
0.0216439455
 40
0.0452393755
 40
0.0772387194
 40
0.117437055
 40
0.1656123747
 40
0.2846592699
 40
0.431500582
 40
0.6025088416
 40
0.7936290211
 40
1.0
 40
1.0
 40
1.0
 40
1.0
 10
-156.4306588581
 20
40.3748192685
 30
0.0
 10
-156.4314263993
 20
40.3740611944
 30
0.0
 10
-156.4316845655
 20
40.3701299702
 30
0.0
 10
-156.4328843421
 20
40.3631069561
 30
0.0
 10
-156.4335733945
 20
40.3513523421
 30
0.0
 10
-156.4345358376
 20
40.3357307132
 30
0.0
 10
-156.4353760437
 20
40.3159606181
 30
0.0
 10
-156.4366050066
 20
40.281947138
 30
0.0
 10
-156.4379546314
 20
40.2304014874
 30
0.0
 10
-156.439344606
 20
40.1587008383
 30
0.0
 10
-156.4405288066
 20
40.0751594471
 30
0.0
 10
-156.4414814108
 20
39.9818443393
 30
0.0
 10
-156.4419295604
 20
39.9165967855
 30
0.0
 10
-156.4421133586
 20
39.8827211265
 30
0.0
  0
LINE
  5
471
100
AcDbEntity
  8
RACCORDO
100
AcDbLine
 62
7
  6
CONTINUOUS
 10
-150.4564316543
 20
39.8821703245
 11
-150.4578866022
 21
39.8827210873
  0
LINE
  5
472
100
AcDbEntity
  8
RACCORDO
100
AcDbLine
 62
7
  6
CONTINUOUS
 10
-156.4421133978
 20
39.8827210873
 11
-156.4435683455
 21
39.8821703245
  0
SPLINE
  5
473
100
AcDbEntity
  8
RACCORDO
100
AcDbSpline
 62
250
  6
CONTINUOUS
 70
0
 71
3
 72
18
 73
14
 74
0
 42
0.0000001
 43
0.0000001
 44
0.0000000001
 40
0.0
 40
0.0
 40
0.0
 40
0.0
 40
0.2063709825
 40
0.3974911593
 40
0.568499418
 40
0.7153407329
 40
0.8343876223
 40
0.8825629426
 40
0.9227612828
 40
0.9547606301
 40
0.9783560571
 40
0.9934280682
 40
1.0
 40
1.0
 40
1.0
 40
1.0
 10
-150.4578866415
 20
39.8827211266
 30
0.0
 10
-150.4580704396
 20
39.9165967861
 30
0.0
 10
-150.4585185891
 20
39.9818443401
 30
0.0
 10
-150.4594711934
 20
40.0751594479
 30
0.0
 10
-150.4606553941
 20
40.1587008389
 30
0.0
 10
-150.4620453685
 20
40.2304014874
 30
0.0
 10
-150.4633949935
 20
40.2819471375
 30
0.0
 10
-150.4646239563
 20
40.3159606175
 30
0.0
 10
-150.4654641626
 20
40.3357307138
 30
0.0
 10
-150.466426605
 20
40.3513523443
 30
0.0
 10
-150.4671156587
 20
40.3631069558
 30
0.0
 10
-150.4683154329
 20
40.3701299723
 30
0.0
 10
-150.4685736023
 20
40.3740611921
 30
0.0
 10
-150.4693411419
 20
40.3748192685
 30
0.0
  0
SPLINE
  5
474
100
AcDbEntity
  8
RACCORDO
100
AcDbSpline
 62
250
  6
CONTINUOUS
 70
0
 71
3
 72
18
 73
14
 74
0
 42
0.0000001
 43
0.0000001
 44
0.0000000001
 40
0.0
 40
0.0
 40
0.0
 40
0.0
 40
0.0065719293
 40
0.0216439455
 40
0.0452393755
 40
0.0772387194
 40
0.117437055
 40
0.1656123747
 40
0.2846592699
 40
0.431500582
 40
0.6025088416
 40
0.7936290211
 40
1.0
 40
1.0
 40
1.0
 40
1.0
 10
-168.8748192685
 20
-32.1806588581
 30
0.0
 10
-168.8740611944
 20
-32.1814263993
 30
0.0
 10
-168.8701299702
 20
-32.1816845655
 30
0.0
 10
-168.8631069561
 20
-32.1828843421
 30
0.0
 10
-168.8513523421
 20
-32.1835733945
 30
0.0
 10
-168.8357307132
 20
-32.1845358376
 30
0.0
 10
-168.8159606181
 20
-32.1853760437
 30
0.0
 10
-168.781947138
 20
-32.1866050066
 30
0.0
 10
-168.7304014874
 20
-32.1879546314
 30
0.0
 10
-168.6587008383
 20
-32.189344606
 30
0.0
 10
-168.5751594471
 20
-32.1905288066
 30
0.0
 10
-168.4818443393
 20
-32.1914814108
 30
0.0
 10
-168.4165967855
 20
-32.1919295604
 30
0.0
 10
-168.3827211265
 20
-32.1921133586
 30
0.0
  0
LINE
  5
475
100
AcDbEntity
  8
RACCORDO
100
AcDbLine
 62
7
  6
CONTINUOUS
 10
-168.3821703245
 20
-26.2064316543
 11
-168.3827210873
 21
-26.2078866022
  0
LINE
  5
476
100
AcDbEntity
  8
RACCORDO
100
AcDbLine
 62
7
  6
CONTINUOUS
 10
-168.3827210873
 20
-32.1921133978
 11
-168.3821703245
 21
-32.1935683455
  0
SPLINE
  5
477
100
AcDbEntity
  8
RACCORDO
100
AcDbSpline
 62
250
  6
CONTINUOUS
 70
0
 71
3
 72
18
 73
14
 74
0
 42
0.0000001
 43
0.0000001
 44
0.0000000001
 40
0.0
 40
0.0
 40
0.0
 40
0.0
 40
0.2063709825
 40
0.3974911593
 40
0.568499418
 40
0.7153407329
 40
0.8343876223
 40
0.8825629426
 40
0.9227612828
 40
0.9547606301
 40
0.9783560571
 40
0.9934280682
 40
1.0
 40
1.0
 40
1.0
 40
1.0
 10
-168.3827211266
 20
-26.2078866415
 30
0.0
 10
-168.4165967861
 20
-26.2080704396
 30
0.0
 10
-168.4818443401
 20
-26.2085185891
 30
0.0
 10
-168.5751594479
 20
-26.2094711934
 30
0.0
 10
-168.6587008389
 20
-26.210655394
 30
0.0
 10
-168.7304014874
 20
-26.2120453685
 30
0.0
 10
-168.7819471375
 20
-26.2133949935
 30
0.0
 10
-168.8159606175
 20
-26.2146239563
 30
0.0
 10
-168.8357307138
 20
-26.2154641626
 30
0.0
 10
-168.8513523443
 20
-26.216426605
 30
0.0
 10
-168.8631069558
 20
-26.2171156587
 30
0.0
 10
-168.8701299723
 20
-26.2183154329
 30
0.0
 10
-168.8740611921
 20
-26.2185736023
 30
0.0
 10
-168.8748192685
 20
-26.2193411419
 30
0.0
  0
SPLINE
  5
478
100
AcDbEntity
  8
RACCORDO
100
AcDbSpline
 62
250
  6
CONTINUOUS
 70
0
 71
3
 72
18
 73
14
 74
0
 42
0.0000001
 43
0.0000001
 44
0.0000000001
 40
0.0
 40
0.0
 40
0.0
 40
0.0
 40
0.0065719293
 40
0.0216439455
 40
0.0452393755
 40
0.0772387194
 40
0.117437055
 40
0.1656123747
 40
0.2846592699
 40
0.431500582
 40
0.6025088416
 40
0.7936290211
 40
1.0
 40
1.0
 40
1.0
 40
1.0
 10
168.8748192685
 20
32.1806588581
 30
0.0
 10
168.8740611944
 20
32.1814263993
 30
0.0
 10
168.8701299702
 20
32.1816845655
 30
0.0
 10
168.8631069561
 20
32.1828843421
 30
0.0
 10
168.8513523421
 20
32.1835733945
 30
0.0
 10
168.8357307132
 20
32.1845358376
 30
0.0
 10
168.8159606181
 20
32.1853760438
 30
0.0
 10
168.781947138
 20
32.1866050066
 30
0.0
 10
168.7304014874
 20
32.1879546314
 30
0.0
 10
168.6587008383
 20
32.189344606
 30
0.0
 10
168.5751594471
 20
32.1905288066
 30
0.0
 10
168.4818443393
 20
32.1914814108
 30
0.0
 10
168.4165967855
 20
32.1919295604
 30
0.0
 10
168.3827211265
 20
32.1921133586
 30
0.0
  0
LINE
  5
479
100
AcDbEntity
  8
RACCORDO
100
AcDbLine
 62
7
  6
CONTINUOUS
 10
168.3821703245
 20
26.2064316543
 11
168.3827210873
 21
26.2078866022
  0
LINE
  5
47A
100
AcDbEntity
  8
RACCORDO
100
AcDbLine
 62
7
  6
CONTINUOUS
 10
168.3827210873
 20
32.1921133978
 11
168.3821703245
 21
32.1935683455
  0
SPLINE
  5
47B
100
AcDbEntity
  8
RACCORDO
100
AcDbSpline
 62
250
  6
CONTINUOUS
 70
0
 71
3
 72
18
 73
14
 74
0
 42
0.0000001
 43
0.0000001
 44
0.0000000001
 40
0.0
 40
0.0
 40
0.0
 40
0.0
 40
0.2063709825
 40
0.3974911593
 40
0.568499418
 40
0.7153407329
 40
0.8343876223
 40
0.8825629426
 40
0.9227612828
 40
0.9547606301
 40
0.9783560571
 40
0.9934280682
 40
1.0
 40
1.0
 40
1.0
 40
1.0
 10
168.3827211266
 20
26.2078866415
 30
0.0
 10
168.4165967861
 20
26.2080704396
 30
0.0
 10
168.4818443401
 20
26.2085185891
 30
0.0
 10
168.5751594479
 20
26.2094711934
 30
0.0
 10
168.6587008389
 20
26.2106553941
 30
0.0
 10
168.7304014874
 20
26.2120453685
 30
0.0
 10
168.7819471375
 20
26.2133949935
 30
0.0
 10
168.8159606175
 20
26.2146239563
 30
0.0
 10
168.8357307138
 20
26.2154641626
 30
0.0
 10
168.8513523443
 20
26.216426605
 30
0.0
 10
168.8631069558
 20
26.2171156587
 30
0.0
 10
168.8701299723
 20
26.2183154329
 30
0.0
 10
168.8740611921
 20
26.2185736023
 30
0.0
 10
168.8748192685
 20
26.2193411419
 30
0.0
  0
SPLINE
  5
47C
100
AcDbEntity
  8
DRAFT
100
AcDbSpline
 62
7
  6
CONTINUOUS
 70
0
 71
3
 72
27
 73
23
 74
0
 42
0.0000001
 43
0.0000001
 44
0.0000000001
 40
0.0
 40
0.0
 40
0.0
 40
0.0
 40
0.1950079009
 40
0.3825123147
 40
0.4711842091
 40
0.5553168999
 40
0.6341012787
 40
0.7067780868
 40
0.7726470736
 40
0.8310750558
 40
0.8815009705
 40
0.9035583208
 40
0.9234408164
 40
0.9410990459
 40
0.9564933616
 40
0.9695869529
 40
0.9803493814
 40
0.9887603358
 40
0.9948051828
 40
0.9984930685
 40
0.9994827782
 40
1.0
 40
1.0
 40
1.0
 40
1.0
 10
-0.0
 20
41.3172396544
 30
0.0
 10
0.7501202044
 20
41.3172396544
 30
0.0
 10
2.221498721
 20
41.3147551237
 30
0.0
 10
4.0339428615
 20
41.3053621909
 30
0.0
 10
5.4198669104
 20
41.2939893797
 30
0.0
 10
6.3875812136
 20
41.2839276146
 30
0.0
 10
7.2937462248
 20
41.27228106
 30
0.0
 10
8.1296300264
 20
41.2591673748
 30
0.0
 10
8.8871764239
 20
41.2447273473
 30
0.0
 10
9.5590886932
 20
41.2291109643
 30
0.0
 10
10.0624518265
 20
41.214714515
 30
0.0
 10
10.4175375485
 20
41.2024696248
 30
0.0
 10
10.6466133216
 20
41.1935079757
 30
0.0
 10
10.8500331602
 20
41.1843766883
 30
0.0
 10
11.0272920258
 20
41.175116983
 30
0.0
 10
11.1780081033
 20
41.1657406037
 30
0.0
 10
11.3017126377
 20
41.1563702606
 30
0.0
 10
11.3984354773
 20
41.1468952553
 30
0.0
 10
11.4672780498
 20
41.1379640763
 30
0.0
 10
11.5083961118
 20
41.1293306827
 30
0.0
 10
11.5265858003
 20
41.1226762139
 30
0.0
 10
11.5314739213
 20
41.1178857169
 30
0.0
 10
11.5314219064
 20
41.1158968441
 30
0.0
  0
SPLINE
  5
47D
100
AcDbEntity
  8
0
100
AcDbSpline
 62
7
  6
CONTINUOUS
 70
0
 71
3
 72
27
 73
23
 74
0
 42
0.0000001
 43
0.0000001
 44
0.0000000001
 40
0.0
 40
0.0
 40
0.0
 40
0.0
 40
0.1950079009
 40
0.3825123147
 40
0.4711842091
 40
0.5553168999
 40
0.6341012787
 40
0.7067780868
 40
0.7726470736
 40
0.8310750558
 40
0.8815009705
 40
0.9035583208
 40
0.9234408164
 40
0.9410990459
 40
0.9564933616
 40
0.9695869529
 40
0.9803493814
 40
0.9887603358
 40
0.9948051828
 40
0.9984930685
 40
0.9994827782
 40
1.0
 40
1.0
 40
1.0
 40
1.0
 10
102.0
 20
41.3172396544
 30
0.0
 10
102.7501202044
 20
41.3172396544
 30
0.0
 10
104.221498721
 20
41.3147551237
 30
0.0
 10
106.0339428615
 20
41.3053621909
 30
0.0
 10
107.4198669104
 20
41.2939893797
 30
0.0
 10
108.3875812136
 20
41.2839276146
 30
0.0
 10
109.2937462248
 20
41.27228106
 30
0.0
 10
110.1296300264
 20
41.2591673748
 30
0.0
 10
110.8871764239
 20
41.2447273473
 30
0.0
 10
111.5590886932
 20
41.2291109643
 30
0.0
 10
112.0624518265
 20
41.214714515
 30
0.0
 10
112.4175375485
 20
41.2024696248
 30
0.0
 10
112.6466133216
 20
41.1935079757
 30
0.0
 10
112.8500331602
 20
41.1843766883
 30
0.0
 10
113.0272920258
 20
41.175116983
 30
0.0
 10
113.1780081033
 20
41.1657406037
 30
0.0
 10
113.3017126377
 20
41.1563702606
 30
0.0
 10
113.3984354773
 20
41.1468952553
 30
0.0
 10
113.4672780498
 20
41.1379640763
 30
0.0
 10
113.5083961118
 20
41.1293306827
 30
0.0
 10
113.5265858003
 20
41.1226762139
 30
0.0
 10
113.5314739213
 20
41.1178857169
 30
0.0
 10
113.5314219064
 20
41.1158968441
 30
0.0
  0
SPLINE
  5
47E
100
AcDbEntity
  8
0
100
AcDbSpline
 62
7
  6
CONTINUOUS
 70
0
 71
3
 72
27
 73
23
 74
0
 42
0.0000001
 43
0.0000001
 44
0.0000000001
 40
0.0
 40
0.0
 40
0.0
 40
0.0
 40
0.1950079009
 40
0.3825123147
 40
0.4711842091
 40
0.5553168999
 40
0.6341012787
 40
0.7067780868
 40
0.7726470736
 40
0.8310750558
 40
0.8815009705
 40
0.9035583208
 40
0.9234408164
 40
0.9410990459
 40
0.9564933616
 40
0.9695869529
 40
0.9803493814
 40
0.9887603358
 40
0.9948051828
 40
0.9984930685
 40
0.9994827782
 40
1.0
 40
1.0
 40
1.0
 40
1.0
 10
136.0
 20
41.3172396544
 30
0.0
 10
136.7501202044
 20
41.3172396544
 30
0.0
 10
138.221498721
 20
41.3147551237
 30
0.0
 10
140.0339428615
 20
41.3053621909
 30
0.0
 10
141.4198669104
 20
41.2939893797
 30
0.0
 10
142.3875812136
 20
41.2839276146
 30
0.0
 10
143.2937462248
 20
41.27228106
 30
0.0
 10
144.1296300264
 20
41.2591673748
 30
0.0
 10
144.8871764239
 20
41.2447273473
 30
0.0
 10
145.5590886932
 20
41.2291109643
 30
0.0
 10
146.0624518265
 20
41.214714515
 30
0.0
 10
146.4175375485
 20
41.2024696248
 30
0.0
 10
146.6466133216
 20
41.1935079757
 30
0.0
 10
146.8500331602
 20
41.1843766883
 30
0.0
 10
147.0272920258
 20
41.175116983
 30
0.0
 10
147.1780081033
 20
41.1657406037
 30
0.0
 10
147.3017126377
 20
41.1563702606
 30
0.0
 10
147.3984354773
 20
41.1468952553
 30
0.0
 10
147.4672780498
 20
41.1379640763
 30
0.0
 10
147.5083961118
 20
41.1293306827
 30
0.0
 10
147.5265858003
 20
41.1226762139
 30
0.0
 10
147.5314739213
 20
41.1178857169
 30
0.0
 10
147.5314219064
 20
41.1158968441
 30
0.0
  0
SPLINE
  5
47F
100
AcDbEntity
  8
RACCORDO
100
AcDbSpline
 62
250
  6
CONTINUOUS
 70
0
 71
3
 72
20
 73
16
 74
0
 42
0.0000001
 43
0.0000001
 44
0.0000000001
 40
0.0
 40
0.0
 40
0.0
 40
0.0
 40
0.0021925354
 40
0.006644387
 40
0.0224753071
 40
0.0474715845
 40
0.0814246938
 40
0.1240175763
 40
0.1748617887
 40
0.2334712685
 40
0.2993050828
 40
0.4500819679
 40
0.6215225111
 40
0.8071525775
 40
1.0
 40
1.0
 40
1.0
 40
1.0
 10
-150.0415009364
 20
40.9468267582
 30
0.0
 10
-150.042017623
 20
40.9473440324
 30
0.0
 10
-150.0443323758
 20
40.9478583963
 30
0.0
 10
-150.0515201903
 20
40.9492621061
 30
0.0
 10
-150.0667645695
 20
40.9504558899
 30
0.0
 10
-150.0915417318
 20
40.9520993341
 30
0.0
 10
-150.1254164746
 20
40.9535788502
 30
0.0
 10
-150.1678523733
 20
40.9550791526
 30
0.0
 10
-150.218540571
 20
40.9564874738
 30
0.0
 10
-150.2769747644
 20
40.9578191626
 30
0.0
 10
-150.3687344275
 20
40.9595341911
 30
0.0
 10
-150.4981218404
 20
40.9613023972
 30
0.0
 10
-150.6674619483
 20
40.9628266927
 30
0.0
 10
-150.8508350425
 20
40.9637660327
 30
0.0
 10
-150.9770419101
 20
40.963977993
 30
0.0
 10
-151.0413486316
 20
40.9639771903
 30
0.0
  0
SPLINE
  5
480
100
AcDbEntity
  8
RACCORDO
100
AcDbSpline
 62
250
  6
CONTINUOUS
 70
0
 71
3
 72
20
 73
16
 74
0
 42
0.0000001
 43
0.0000001
 44
0.0000000001
 40
0.0
 40
0.0
 40
0.0
 40
0.0
 40
0.1928474227
 40
0.3784774883
 40
0.5499180323
 40
0.7006949176
 40
0.7665287322
 40
0.8251382104
 40
0.8759824232
 40
0.9185753097
 40
0.9525284182
 40
0.9775246881
 40
0.9933556068
 40
0.9978074613
 40
1.0
 40
1.0
 40
1.0
 40
1.0
 10
-155.8586513684
 20
40.9639771903
 30
0.0
 10
-155.9229580899
 20
40.9639780019
 30
0.0
 10
-156.0491649572
 20
40.9637660269
 30
0.0
 10
-156.2325380513
 20
40.9628266947
 30
0.0
 10
-156.4018781591
 20
40.9613023966
 30
0.0
 10
-156.5312655723
 20
40.9595341912
 30
0.0
 10
-156.623025235
 20
40.9578191626
 30
0.0
 10
-156.6814594281
 20
40.9564874738
 30
0.0
 10
-156.7321476266
 20
40.9550791525
 30
0.0
 10
-156.7745835267
 20
40.9535788501
 30
0.0
 10
-156.8084582673
 20
40.9520993341
 30
0.0
 10
-156.8332354281
 20
40.9504558913
 30
0.0
 10
-156.8484798022
 20
40.949262105
 30
0.0
 10
-156.8556676211
 20
40.9478583937
 30
0.0
 10
-156.8579823736
 20
40.9473440305
 30
0.0
 10
-156.8584990636
 20
40.9468267582
 30
0.0
  0
SPLINE
  5
481
100
AcDbEntity
  8
DRAFT
100
AcDbSpline
 62
7
  6
CONTINUOUS
 70
0
 71
3
 72
27
 73
23
 74
0
 42
0.0000001
 43
0.0000001
 44
0.0000000001
 40
0.0
 40
0.0
 40
0.0
 40
0.0
 40
0.1950079009
 40
0.3825123147
 40
0.4711842091
 40
0.5553168999
 40
0.6341012787
 40
0.7067780868
 40
0.7726470736
 40
0.8310750558
 40
0.8815009705
 40
0.9035583208
 40
0.9234408164
 40
0.9410990459
 40
0.9564933616
 40
0.9695869529
 40
0.9803493814
 40
0.9887603358
 40
0.9948051828
 40
0.9984930685
 40
0.9994827782
 40
1.0
 40
1.0
 40
1.0
 40
1.0
 10
169.8172396544
 20
0.0
 30
0.0
 10
169.8172396544
 20
0.7501202044
 30
0.0
 10
169.8147551237
 20
2.221498721
 30
0.0
 10
169.8053621909
 20
4.0339428615
 30
0.0
 10
169.7939893797
 20
5.4198669104
 30
0.0
 10
169.7839276146
 20
6.3875812136
 30
0.0
 10
169.77228106
 20
7.2937462248
 30
0.0
 10
169.7591673748
 20
8.1296300264
 30
0.0
 10
169.7447273473
 20
8.8871764239
 30
0.0
 10
169.7291109643
 20
9.5590886932
 30
0.0
 10
169.714714515
 20
10.0624518265
 30
0.0
 10
169.7024696248
 20
10.4175375485
 30
0.0
 10
169.6935079757
 20
10.6466133216
 30
0.0
 10
169.6843766883
 20
10.8500331602
 30
0.0
 10
169.675116983
 20
11.0272920258
 30
0.0
 10
169.6657406037
 20
11.1780081033
 30
0.0
 10
169.6563702606
 20
11.3017126377
 30
0.0
 10
169.6468952553
 20
11.3984354773
 30
0.0
 10
169.6379640763
 20
11.4672780498
 30
0.0
 10
169.6293306827
 20
11.5083961118
 30
0.0
 10
169.6226762139
 20
11.5265858003
 30
0.0
 10
169.6178857169
 20
11.5314739213
 30
0.0
 10
169.6158968441
 20
11.5314219064
 30
0.0
  0
SPLINE
  5
482
100
AcDbEntity
  8
RACCORDO
100
AcDbSpline
 62
250
  6
CONTINUOUS
 70
0
 71
3
 72
20
 73
16
 74
0
 42
0.0000001
 43
0.0000001
 44
0.0000000001
 40
0.0
 40
0.0
 40
0.0
 40
0.0
 40
0.0021925354
 40
0.006644387
 40
0.0224753071
 40
0.0474715845
 40
0.0814246938
 40
0.1240175763
 40
0.1748617887
 40
0.2334712685
 40
0.2993050828
 40
0.4500819679
 40
0.6215225111
 40
0.8071525775
 40
1.0
 40
1.0
 40
1.0
 40
1.0
 10
169.4468267582
 20
25.7915009364
 30
0.0
 10
169.4473440324
 20
25.792017623
 30
0.0
 10
169.4478583963
 20
25.7943323758
 30
0.0
 10
169.4492621061
 20
25.8015201903
 30
0.0
 10
169.4504558899
 20
25.8167645695
 30
0.0
 10
169.4520993341
 20
25.8415417318
 30
0.0
 10
169.4535788502
 20
25.8754164746
 30
0.0
 10
169.4550791526
 20
25.9178523733
 30
0.0
 10
169.4564874738
 20
25.968540571
 30
0.0
 10
169.4578191626
 20
26.0269747644
 30
0.0
 10
169.4595341911
 20
26.1187344275
 30
0.0
 10
169.4613023972
 20
26.2481218404
 30
0.0
 10
169.4628266927
 20
26.4174619483
 30
0.0
 10
169.4637660327
 20
26.6008350425
 30
0.0
 10
169.463977993
 20
26.7270419101
 30
0.0
 10
169.4639771903
 20
26.7913486316
 30
0.0
  0
SPLINE
  5
483
100
AcDbEntity
  8
RACCORDO
100
AcDbSpline
 62
250
  6
CONTINUOUS
 70
0
 71
3
 72
20
 73
16
 74
0
 42
0.0000001
 43
0.0000001
 44
0.0000000001
 40
0.0
 40
0.0
 40
0.0
 40
0.0
 40
0.1928474227
 40
0.3784774883
 40
0.5499180323
 40
0.7006949176
 40
0.7665287322
 40
0.8251382104
 40
0.8759824232
 40
0.9185753097
 40
0.9525284182
 40
0.9775246881
 40
0.9933556068
 40
0.9978074613
 40
1.0
 40
1.0
 40
1.0
 40
1.0
 10
169.4639771903
 20
31.6086513684
 30
0.0
 10
169.4639780019
 20
31.6729580899
 30
0.0
 10
169.4637660269
 20
31.7991649572
 30
0.0
 10
169.4628266947
 20
31.9825380513
 30
0.0
 10
169.4613023966
 20
32.1518781591
 30
0.0
 10
169.4595341912
 20
32.2812655723
 30
0.0
 10
169.4578191626
 20
32.373025235
 30
0.0
 10
169.4564874738
 20
32.4314594281
 30
0.0
 10
169.4550791525
 20
32.4821476266
 30
0.0
 10
169.4535788501
 20
32.5245835267
 30
0.0
 10
169.4520993341
 20
32.5584582673
 30
0.0
 10
169.4504558913
 20
32.5832354281
 30
0.0
 10
169.449262105
 20
32.5984798022
 30
0.0
 10
169.4478583937
 20
32.6056676211
 30
0.0
 10
169.4473440305
 20
32.6079823736
 30
0.0
 10
169.4468267582
 20
32.6084990636
 30
0.0
  0
ELLIPSE
  5
484
100
AcDbEntity
  8
RACCORDO
100
AcDbEllipse
 62
7
  6
CONTINUOUS
 10
151.0413486316
 20
-39.9661069526
 30
0.0
 11
0.5
 21
0.0
 31
0.0
 40
0.0174550649
 41
-3.1241393611
 42
-1.5707963268
  0
ELLIPSE
  5
485
100
AcDbEntity
  8
RACCORDO
100
AcDbEllipse
 62
7
  6
CONTINUOUS
 10
155.8586513684
 20
-39.9661069526
 30
0.0
 11
0.5
 21
-0.0
 31
0.0
 40
0.0174550649
 41
-1.5707963268
 42
-0.0174532925
  0
ELLIPSE
  5
486
100
AcDbEntity
  8
RACCORDO
100
AcDbEllipse
 62
7
  6
CONTINUOUS
 10
-151.0413486316
 20
39.9661069526
 30
0.0
 11
0.5
 21
0.0
 31
0.0
 40
0.0174550649
 41
0.0174532925
 42
1.5707963268
  0
ELLIPSE
  5
487
100
AcDbEntity
  8
RACCORDO
100
AcDbEllipse
 62
7
  6
CONTINUOUS
 10
-155.8586513684
 20
39.9661069526
 30
0.0
 11
0.5
 21
0.0
 31
0.0
 40
0.0174550649
 41
1.5707963268
 42
3.1241393611
  0
ELLIPSE
  5
488
100
AcDbEntity
  8
RACCORDO
100
AcDbEllipse
 62
7
  6
CONTINUOUS
 10
-168.4661069526
 20
-26.7913486316
 30
0.0
 11
-0.0
 21
0.5
 31
0.0
 40
0.0174550649
 41
0.0174532925
 42
1.5707963268
  0
ELLIPSE
  5
489
100
AcDbEntity
  8
RACCORDO
100
AcDbEllipse
 62
7
  6
CONTINUOUS
 10
-168.4661069526
 20
-31.6086513684
 30
0.0
 11
-0.0
 21
0.5
 31
0.0
 40
0.0174550649
 41
-4.7123889804
 42
-3.1590459461
  0
ELLIPSE
  5
48A
100
AcDbEntity
  8
RACCORDO
100
AcDbEllipse
 62
7
  6
CONTINUOUS
 10
168.4661069526
 20
26.7913486316
 30
0.0
 11
-0.0
 21
0.5
 31
0.0
 40
0.0174550649
 41
-3.1241393611
 42
-1.5707963268
  0
ELLIPSE
  5
48B
100
AcDbEntity
  8
RACCORDO
100
AcDbEllipse
 62
7
  6
CONTINUOUS
 10
168.4661069526
 20
31.6086513684
 30
0.0
 11
-0.0
 21
0.5
 31
0.0
 40
0.0174550649
 41
-1.5707963268
 42
-0.0174532925
  0
ELLIPSE
  5
48C
100
AcDbEntity
  8
0
100
AcDbEllipse
 62
7
  6
CONTINUOUS
 10
-17.845156052
 20
39.6749258819
 30
0.0
 11
0.0
 21
1.2
 31
0.0
 40
0.0174550649
 41
-1.5707963268
 42
-1.3179455486
  0
ELLIPSE
  5
48D
100
AcDbEntity
  8
0
100
AcDbEllipse
 62
7
  6
CONTINUOUS
 10
-21.154843948
 20
39.6749258819
 30
0.0
 11
0.0
 21
1.2
 31
0.0
 40
0.0174550649
 41
1.3179455486
 42
1.5707963268
  0
ELLIPSE
  5
48E
100
AcDbEntity
  8
0
100
AcDbEllipse
 62
7
  6
CONTINUOUS
 10
17.845156052
 20
-39.6749258819
 30
0.0
 11
0.0
 21
1.2
 31
0.0
 40
0.0174550649
 41
1.5707963268
 42
1.823647105
  0
ELLIPSE
  5
48F
100
AcDbEntity
  8
0
100
AcDbEllipse
 62
7
  6
CONTINUOUS
 10
21.154843948
 20
-39.6749258819
 30
0.0
 11
0.0
 21
1.2
 31
0.0
 40
0.0174550649
 41
-1.823647105
 42
-1.5707963268
  0
ELLIPSE
  5
490
100
AcDbEntity
  8
0
100
AcDbEllipse
 62
7
  6
CONTINUOUS
 10
162.245156052
 20
-39.6749258819
 30
0.0
 11
-0.0
 21
1.2
 31
0.0
 40
0.0174550649
 41
1.5707963268
 42
1.823647105
  0
ELLIPSE
  5
491
100
AcDbEntity
  8
0
100
AcDbEllipse
 62
7
  6
CONTINUOUS
 10
168.1749258819
 20
-33.745156052
 30
0.0
 11
1.2
 21
-0.0
 31
0.0
 40
0.0174550649
 41
1.3179455486
 42
1.5707963268
  0
ELLIPSE
  5
492
100
AcDbEntity
  8
0
100
AcDbEllipse
 62
7
  6
CONTINUOUS
 10
168.1749258819
 20
33.7451560521
 30
0.0
 11
1.2
 21
0.0
 31
0.0
 40
0.0174550649
 41
-1.5707963268
 42
-1.3179455486
  0
ELLIPSE
  5
493
100
AcDbEntity
  8
0
100
AcDbEllipse
 62
7
  6
CONTINUOUS
 10
162.245156052
 20
39.6749258819
 30
0.0
 11
0.0
 21
1.2
 31
0.0
 40
0.0174550649
 41
1.3179455486
 42
1.5707963268
  0
ELLIPSE
  5
494
100
AcDbEntity
  8
0
100
AcDbEllipse
 62
7
  6
CONTINUOUS
 10
-168.1749258819
 20
-33.745156052
 30
0.0
 11
1.2
 21
-0.0
 31
0.0
 40
0.0174550649
 41
1.5707963268
 42
1.823647105
  0
ELLIPSE
  5
495
100
AcDbEntity
  8
0
100
AcDbEllipse
 62
7
  6
CONTINUOUS
 10
-162.245156052
 20
-39.6749258819
 30
0.0
 11
-0.0
 21
1.2
 31
0.0
 40
0.0174550649
 41
-1.823647105
 42
-1.5707963268
  0
ELLIPSE
  5
496
100
AcDbEntity
  8
0
100
AcDbEllipse
 62
7
  6
CONTINUOUS
 10
-162.245156052
 20
39.6749258819
 30
0.0
 11
-0.0
 21
1.2
 31
0.0
 40
0.0174550649
 41
-1.5707963268
 42
-1.3179455486
  0
ELLIPSE
  5
497
100
AcDbEntity
  8
0
100
AcDbEllipse
 62
7
  6
CONTINUOUS
 10
-168.1749258819
 20
33.7451560521
 30
0.0
 11
1.2
 21
-0.0
 31
0.0
 40
0.0174550649
 41
-1.823647105
 42
-1.5707963268
  0
ENDSEC
  0
SECTION
  2
OBJECTS
  0
DICTIONARY
  5
C
100
AcDbDictionary
280
0
281
1
  3
ACAD_GROUP
350
D
  3
ACAD_MLINESTYLE
350
17
  3
ACAD_LAYOUT
350
1A
  3
ACAD_PLOTSETTINGS
350
19
  3
ACAD_PLOTSTYLENAME
350
E
  0
DICTIONARY
  5
D
102
{ACAD_REACTORS
330
C
102
}
100
AcDbDictionary
280
0
281
1
  0
ACDBDICTIONARYWDFLT
  5
E
102
{ACAD_REACTORS
330
C
102
}
100
AcDbDictionary
281
1
  3
Normal
350
F
100
AcDbDictionaryWithDefault
340
F
  0
DICTIONARY
  5
17
102
{ACAD_REACTORS
330
C
102
}
100
AcDbDictionary
280
0
281
1
  3
Standard
350
18
  0
DICTIONARY
  5
19
102
{ACAD_REACTORS
330
C
102
}
100
AcDbDictionary
281
1
  0
DICTIONARY
  5
1A
102
{ACAD_REACTORS
330
C
102
}
100
AcDbDictionary
281
1
  3
Model
350
498
  3
Layout1
350
499
  0
ACDBPLACEHOLDER
  5
F
102
{ACAD_REACTORS
330
E
102
}
  0
MLINESTYLE
  5
18
102
{ACAD_REACTORS
330
17
102
}
100
AcDbMlineStyle
  2
STANDARD
 70
0
  3

 62
256
 51
90.0
 52
90.0
 71
2
 49
0.5
 62
256
  6
BYLAYER
 49
-0.5
 62
256
  6
BYLAYER
  0
LAYOUT
  5
498
102
{ACAD_REACTORS
330
1A
102
}
100
AcDbPlotSettings
  1

  2
none_device
  4
ISO_A4_(297.00_x_210.00_MM)
  6

 40
0.0
 41
0.0
 42
0.0
 43
0.0
 44
297.0
 45
210.0
 46
0.0
 47
0.0
 48
0.0
 49
0.0
140
0.0
141
0.0
142
1.0
143
1.0
 70
1024
 72
1
 73
0
 74
0
  7

 75
0
147
1.0
148
0.0
149
0.0
100
AcDbLayout
  1
Model
 70
0
 71
0
 10
0.0
 20
0.0
 11
297.0
 21
210.0
 12
0.0
 22
0.0
 32
0.0
 14
0.0
 24
0.0
 34
0.0
 15
0.0
 25
0.0
 35
0.0
146
0.0
 13
0.0
 23
0.0
 33
0.0
 16
1.0
 26
0.0
 36
0.0
 17
0.0
 27
1.0
 37
0.0
 76
0
330
218
345
0
346
0
  0
LAYOUT
  5
499
102
{ACAD_REACTORS
330
1A
102
}
100
AcDbPlotSettings
  1

  2
none_device
  4
ISO_A4_(297.00_x_210.00_MM)
  6

 40
0.0
 41
0.0
 42
0.0
 43
0.0
 44
297.0
 45
210.0
 46
0.0
 47
0.0
 48
0.0
 49
0.0
140
0.0
141
0.0
142
1.0
143
1.0
 70
0
 72
1
 73
0
 74
0
  7

 75
0
147
1.0
148
0.0
149
0.0
100
AcDbLayout
  1
Layout1
 70
0
 71
1
 10
0.0
 20
0.0
 11
297.0
 21
210.0
 12
0.0
 22
0.0
 32
0.0
 14
0.0
 24
0.0
 34
0.0
 15
0.0
 25
0.0
 35
0.0
146
0.0
 13
0.0
 23
0.0
 33
0.0
 16
1.0
 26
0.0
 36
0.0
 17
0.0
 27
1.0
 37
0.0
 76
0
330
219
345
0
346
0
  0
ENDSEC
  0
EOF
