  0
SECTION
  2
HEADER
  9
$ACADVER
  1
AC1015
  9
$DWGCODEPAGE
  3
ANSI_1252
  9
$EXTMAX
 10
297.0
 20
210.0
 30
0.0
  9
$EXTMIN
 10
0.0
 20
0.0
 30
0.0
  9
$LIMMIN
 10
0.0
 20
0.0
  9
$LIMMAX
 10
297.0
 20
210.0
  9
$VIEWCTR
 10
148.5
 20
105.0
  9
$VIEWSIZE
 40
210.0
  9
$CLAYER
  8
0
  9
$LTSCALE
 40
16.335
  9
$CELTYPE
  6
BYLAYER
  9
$DIMSCALE
 40
1.0
  9
$DIMASZ
 40
3.0
  9
$DIMEXO
 40
1.85625
  9
$DIMDLI
 40
11.286
  9
$DIMEXE
 40
5.346
  9
$DIMCEN
 40
2.673
  9
$DIMLFAC
 40
1.0
  9
$DIMBLK
  1
_FILLED
  9
$DIMTXT
 40
3.0
  9
$DIMTOL
 70
1
  9
$DIMLIM
 70
0
  9
$DIMTFAC
 40
1.0
  9
$DIMTP
 40
0.01
  9
$DIMTM
 40
0.01
  9
$PDMODE
 70
3
  9
$PDSIZE
 40
3.0
  9
$HANDSEED
  5
66A
  9
$TILEMODE
 70
1
  9
$MEASUREMENT
 70
1
  9
$INSUNITS
 70
4
  0
ENDSEC
  0
SECTION
  2
CLASSES
  0
CLASS
  1
ACDBDICTIONARYWDFLT
  2
AcDbDictionaryWithDefault
  3
AutoCAD 2000
 90
0
280
0
281
0
  0
CLASS
  1
ACDBPLACEHOLDER
  2
AcDbPlaceHolder
  3
AutoCAD 2000
 90
0
280
0
281
0
  0
CLASS
  1
LAYOUT
  2
AcDbLayout
  3
AutoCAD 2000
 90
0
280
0
281
0
  0
ENDSEC
  0
SECTION
  2
TABLES
  0
TABLE
  2
VPORT
  5
8
100
AcDbSymbolTable
 70
2
  0
VPORT
  5
1F4
100
AcDbSymbolTableRecord
100
AcDbViewportTableRecord
  2
*ACTIVE
 70
0
 10
0.0
 20
0.0
 11
1.0
 21
1.0
 12
148.5
 22
105.0
 13
0.0
 23
0.0
 14
1.0
 24
1.0
 15
0.0
 25
0.0
 16
0.0
 26
0.0
 36
1.0
 17
0.0
 27
0.0
 37
0.0
 40
210.0
 41
1.4142857143
 42
50.0
 43
0.0
 44
0.0
 50
0.0
 51
0.0
 71
0
 72
100
 73
1
 74
1
 75
0
 76
0
 77
0
 78
0
  0
ENDTAB
  0
TABLE
  2
LTYPE
  5
5
100
AcDbSymbolTable
 70
6
  0
LTYPE
  5
14
100
AcDbSymbolTableRecord
100
AcDbLinetypeTableRecord
  2
BYBLOCK
 70
0
  3

 72
65
 73
0
 40
0.0
  0
LTYPE
  5
15
100
AcDbSymbolTableRecord
100
AcDbLinetypeTableRecord
  2
BYLAYER
 70
0
  3

 72
65
 73
0
 40
0.0
  0
LTYPE
  5
16
100
AcDbSymbolTableRecord
100
AcDbLinetypeTableRecord
  2
CONTINUOUS
 70
64
  3
Solid line
 72
65
 73
0
 40
0.0
  0
LTYPE
  5
1F5
100
AcDbSymbolTableRecord
100
AcDbLinetypeTableRecord
  2
CENTER
 70
64
  3
____ _ ____ _ ____ _ ____ _ ____ _ ____ _ ____
 72
65
 73
4
 40
0.6
 49
0.375
 74
0
 49
-0.075
 74
0
 49
0.075
 74
0
 49
-0.075
 74
0
  0
LTYPE
  5
1F6
100
AcDbSymbolTableRecord
100
AcDbLinetypeTableRecord
  2
HIDDEN
 70
64
  3
- - - - - - - - - - - - - - - - - - - -
 72
65
 73
2
 40
0.2
 49
0.1
 74
0
 49
-0.1
 74
0
  0
LTYPE
  5
1F7
100
AcDbSymbolTableRecord
100
AcDbLinetypeTableRecord
  2
PHANTOM
 70
64
  3
_____ _ _ _____ _ _ _____ _ _ _____
 72
65
 73
6
 40
0.8
 49
0.45
 74
0
 49
-0.05
 74
0
 49
0.1
 74
0
 49
-0.05
 74
0
 49
0.1
 74
0
 49
-0.05
 74
0
  0
LTYPE
  5
1F8
100
AcDbSymbolTableRecord
100
AcDbLinetypeTableRecord
  2
DOT
 70
64
  3
. . . . . . . . . . . . . . . . . . . .
 72
65
 73
2
 40
0.2
 49
0.1
 74
0
 49
-0.1
 74
0
  0
LTYPE
  5
1F9
100
AcDbSymbolTableRecord
100
AcDbLinetypeTableRecord
  2
DASHED
 70
64
  3
- - - - - - - - - - - - - - - - - - - -
 72
65
 73
2
 40
0.2
 49
0.1
 74
0
 49
-0.1
 74
0
  0
ENDTAB
  0
TABLE
  2
LAYER
  5
2
100
AcDbSymbolTable
 70
36
  0
LAYER
  5
10
100
AcDbSymbolTableRecord
100
AcDbLayerTableRecord
  2
0
 70
0
 62
7
  6
CONTINUOUS
370
-3
390
F
  0
LAYER
  5
1FA
100
AcDbSymbolTableRecord
100
AcDbLayerTableRecord
  2
DEFAULT_1
 70
0
 62
7
  6
CENTER
370
-3
390
F
  0
LAYER
  5
1FB
100
AcDbSymbolTableRecord
100
AcDbLayerTableRecord
  2
DEFAULT_2
 70
0
 62
7
  6
HIDDEN
370
-3
390
F
  0
LAYER
  5
1FC
100
AcDbSymbolTableRecord
100
AcDbLayerTableRecord
  2
DEFAULT_3
 70
0
 62
7
  6
PHANTOM
370
-3
390
F
  0
LAYER
  5
1FD
100
AcDbSymbolTableRecord
100
AcDbLayerTableRecord
  2
ASSI
 70
0
 62
7
  6
CONTINUOUS
370
-3
390
F
  0
LAYER
  5
1FE
100
AcDbSymbolTableRecord
100
AcDbLayerTableRecord
  2
COORDINATE
 70
0
 62
7
  6
CONTINUOUS
370
-3
390
F
  0
LAYER
  5
1FF
100
AcDbSymbolTableRecord
100
AcDbLayerTableRecord
  2
COORD_ORIGINE
 70
0
 62
7
  6
CONTINUOUS
370
-3
390
F
  0
LAYER
  5
200
100
AcDbSymbolTableRecord
100
AcDbLayerTableRecord
  2
COPY_PUBLISH
 70
0
 62
7
  6
CONTINUOUS
370
-3
390
F
  0
LAYER
  5
201
100
AcDbSymbolTableRecord
100
AcDbLayerTableRecord
  2
COSMETIC
 70
0
 62
7
  6
CONTINUOUS
370
-3
390
F
  0
LAYER
  5
202
100
AcDbSymbolTableRecord
100
AcDbLayerTableRecord
  2
CURVE
 70
0
 62
7
  6
CONTINUOUS
370
-3
390
F
  0
LAYER
  5
203
100
AcDbSymbolTableRecord
100
AcDbLayerTableRecord
  2
DRAFT
 70
0
 62
7
  6
CONTINUOUS
370
-3
390
F
  0
LAYER
  5
204
100
AcDbSymbolTableRecord
100
AcDbLayerTableRecord
  2
IGES
 70
0
 62
7
  6
CONTINUOUS
370
-3
390
F
  0
LAYER
  5
205
100
AcDbSymbolTableRecord
100
AcDbLayerTableRecord
  2
IMPORT_IGES
 70
0
 62
7
  6
CONTINUOUS
370
-3
390
F
  0
LAYER
  5
206
100
AcDbSymbolTableRecord
100
AcDbLayerTableRecord
  2
INTF_6
 70
0
 62
7
  6
CONTINUOUS
370
-3
390
F
  0
LAYER
  5
207
100
AcDbSymbolTableRecord
100
AcDbLayerTableRecord
  2
NOTE
 70
0
 62
7
  6
CONTINUOUS
370
-3
390
F
  0
LAYER
  5
208
100
AcDbSymbolTableRecord
100
AcDbLayerTableRecord
  2
PIANI
 70
0
 62
7
  6
CONTINUOUS
370
-3
390
F
  0
LAYER
  5
209
100
AcDbSymbolTableRecord
100
AcDbLayerTableRecord
  2
PIANI_ORIGINE
 70
0
 62
7
  6
CONTINUOUS
370
-3
390
F
  0
LAYER
  5
20A
100
AcDbSymbolTableRecord
100
AcDbLayerTableRecord
  2
PIANI_RIFERIMENTO
 70
0
 62
7
  6
CONTINUOUS
370
-3
390
F
  0
LAYER
  5
20B
100
AcDbSymbolTableRecord
100
AcDbLayerTableRecord
  2
PUNTI
 70
0
 62
7
  6
CONTINUOUS
370
-3
390
F
  0
LAYER
  5
20C
100
AcDbSymbolTableRecord
100
AcDbLayerTableRecord
  2
RACCORDO
 70
0
 62
7
  6
CONTINUOUS
370
-3
390
F
  0
LAYER
  5
20D
100
AcDbSymbolTableRecord
100
AcDbLayerTableRecord
  2
SMUSSO
 70
0
 62
7
  6
CONTINUOUS
370
-3
390
F
  0
LAYER
  5
20E
100
AcDbSymbolTableRecord
100
AcDbLayerTableRecord
  2
SNAPLINE
 70
0
 62
7
  6
CONTINUOUS
370
-3
390
F
  0
LAYER
  5
20F
100
AcDbSymbolTableRecord
100
AcDbLayerTableRecord
  2
SUPERFICI
 70
0
 62
7
  6
CONTINUOUS
370
-3
390
F
  0
LAYER
  5
210
100
AcDbSymbolTableRecord
100
AcDbLayerTableRecord
  2
TRASH
 70
0
 62
7
  6
CONTINUOUS
370
-3
390
F
  0
LAYER
  5
211
100
AcDbSymbolTableRecord
100
AcDbLayerTableRecord
  2
XSEC_DATUMS
 70
0
 62
7
  6
CONTINUOUS
370
-3
390
F
  0
ENDTAB
  0
TABLE
  2
STYLE
  5
3
100
AcDbSymbolTable
 70
1
  0
STYLE
  5
11
100
AcDbSymbolTableRecord
100
AcDbTextStyleTableRecord
  2
STANDARD
 70
0
 40
0.0
 41
0.8
 50
0.0
 71
0
 42
0.2
  3
txt
  4

  0
STYLE
  5
212
100
AcDbSymbolTableRecord
100
AcDbTextStyleTableRecord
  2
TEXTSTYLE_1
 70
0
 40
0.0
 41
0.8
 50
0.0
 71
0
 42
0.2
  3
gdt
  4

  0
ENDTAB
  0
TABLE
  2
VIEW
  5
6
100
AcDbSymbolTable
 70
0
  0
ENDTAB
  0
TABLE
  2
UCS
  5
7
100
AcDbSymbolTable
 70
0
  0
ENDTAB
  0
TABLE
  2
APPID
  5
9
100
AcDbSymbolTable
 70
1
  0
APPID
  5
213
100
AcDbSymbolTableRecord
100
AcDbRegAppTableRecord
  2
ACAD
 70
0
  0
ENDTAB
  0
TABLE
  2
BLOCK_RECORD
  5
1
100
AcDbSymbolTable
 70
0
  0
BLOCK_RECORD
  5
214
100
AcDbSymbolTableRecord
100
AcDbBlockTableRecord
  2
*Model_Space
  0
BLOCK_RECORD
  5
215
100
AcDbSymbolTableRecord
100
AcDbBlockTableRecord
  2
*Paper_Space
  0
ENDTAB
  0
TABLE
  2
DIMSTYLE
  5
A
100
AcDbSymbolTable
 70
1
100
AcDbDimStyleTable
 71
0
  0
DIMSTYLE
105
216
100
AcDbSymbolTableRecord
100
AcDbDimStyleTableRecord
  2
STANDARD
 70
0
  3

  4

 40
1.0
 41
3.0
 42
0.0625
 43
0.38
 44
0.18
 45
0.0
 46
0.0
 47
0.01
 48
0.01
140
3.0
141
0.09
142
0.0
143
25.4
144
1.0
145
0.0
146
1.0
147
0.09
 71
1.0
 72
0.0
 73
0
 74
0
 75
0
 76
0
 77
1
 78
8
170
0
171
2
172
0
173
0
174
0
175
0
176
0
177
0
178
0
270
2
271
2
272
2
273
2
274
2
275
0
280
0
281
0
282
0
283
1
284
8
285
0
286
0
287
3
288
0
340
11
  0
ENDTAB
  0
ENDSEC
  0
SECTION
  2
BLOCKS
  0
BLOCK
  5
20
100
AcDbEntity
  8
0
100
AcDbBlockBegin
  2
*Model_Space
 70
0
 10
0.0
 20
0.0
 30
0.0
  3
*Model_Space
  1

  0
ENDBLK
  5
21
100
AcDbEntity
  8
0
100
AcDbBlockEnd
  0
BLOCK
  5
1C
100
AcDbEntity
  8
0
100
AcDbBlockBegin
  2
*Paper_Space
 70
0
 10
0.0
 20
0.0
 30
0.0
  3
*Paper_Space
  1

  0
ENDBLK
  5
1D
100
AcDbEntity
  8
0
100
AcDbBlockEnd
  0
ENDSEC
  0
SECTION
  2
ENTITIES
  0
LINE
  5
217
100
AcDbEntity
  8
RACCORDO
100
AcDbLine
 62
7
  6
CONTINUOUS
 10
-7.7736082364
 20
9.7672144952
 11
-7.7418744372
 21
9.7989482944
  0
LINE
  5
218
100
AcDbEntity
  8
ASSI
100
AcDbLine
 62
7
  6
CONTINUOUS
 10
-7.7736082364
 20
9.7672144952
 11
-7.7418744372
 21
9.7989482944
  0
LINE
  5
219
100
AcDbEntity
  8
RACCORDO
100
AcDbLine
 62
7
  6
CONTINUOUS
 10
-11.3592502933
 20
-2.0184275617
 11
-11.346176056
 21
-10.5797945396
  0
LINE
  5
21A
100
AcDbEntity
  8
ASSI
100
AcDbLine
 62
7
  6
CONTINUOUS
 10
-11.3592502933
 20
-2.0184275617
 11
-11.346176056
 21
-10.5797945396
  0
LINE
  5
21B
100
AcDbEntity
  8
RACCORDO
100
AcDbLine
 62
7
  6
CONTINUOUS
 10
-11.3592502933
 20
10.7815952836
 11
-11.3592502933
 21
-2.0184275617
  0
LINE
  5
21C
100
AcDbEntity
  8
ASSI
100
AcDbLine
 62
7
  6
CONTINUOUS
 10
-11.3592502933
 20
10.7815952836
 11
-11.3592502933
 21
-2.0184275617
  0
LINE
  5
21D
100
AcDbEntity
  8
RACCORDO
100
AcDbLine
 62
7
  6
CONTINUOUS
 10
3.1823247137
 20
-11.0777402674
 11
3.5330146798
 21
-11.0459071094
  0
LINE
  5
21E
100
AcDbEntity
  8
ASSI
100
AcDbLine
 62
7
  6
CONTINUOUS
 10
3.1823247137
 20
-11.0777402674
 11
3.5330146798
 21
-11.0459071094
  0
LINE
  5
21F
100
AcDbEntity
  8
RACCORDO
100
AcDbLine
 62
7
  6
CONTINUOUS
 10
10.4272956461
 20
-11.0777402674
 11
7.5991746997
 21
-11.0777402674
  0
LINE
  5
220
100
AcDbEntity
  8
ASSI
100
AcDbLine
 62
7
  6
CONTINUOUS
 10
10.4272956461
 20
-11.0777402674
 11
7.5991746997
 21
-11.0777402674
  0
LINE
  5
221
100
AcDbEntity
  8
DRAFT
100
AcDbLine
 62
7
  6
CONTINUOUS
 10
3.1823247137
 20
-11.0777402674
 11
-3.6008253003
 21
-11.0777402674
  0
LINE
  5
222
100
AcDbEntity
  8
ASSI
100
AcDbLine
 62
7
  6
CONTINUOUS
 10
3.1823247137
 20
-11.0777402674
 11
-3.6008253003
 21
-11.0777402674
  0
LINE
  5
223
100
AcDbEntity
  8
RACCORDO
100
AcDbLine
 62
7
  6
CONTINUOUS
 10
-8.0176752863
 20
-11.0777402674
 11
-10.8457962327
 21
-11.0777402674
  0
LINE
  5
224
100
AcDbEntity
  8
ASSI
100
AcDbLine
 62
7
  6
CONTINUOUS
 10
-8.0176752863
 20
-11.0777402674
 11
-10.8457962327
 21
-11.0777402674
  0
LINE
  5
225
100
AcDbEntity
  8
RACCORDO
100
AcDbLine
 62
7
  6
CONTINUOUS
 10
7.0752796529
 20
-11.0406663315
 11
3.7062197605
 21
-11.0406663315
  0
LINE
  5
226
100
AcDbEntity
  8
ASSI
100
AcDbLine
 62
7
  6
CONTINUOUS
 10
7.0752796529
 20
-11.0406663315
 11
3.7062197605
 21
-11.0406663315
  0
LINE
  5
227
100
AcDbEntity
  8
RACCORDO
100
AcDbLine
 62
7
  6
CONTINUOUS
 10
-4.1247203471
 20
-11.0406663315
 11
-7.4937802395
 21
-11.0406663315
  0
LINE
  5
228
100
AcDbEntity
  8
ASSI
100
AcDbLine
 62
7
  6
CONTINUOUS
 10
-4.1247203471
 20
-11.0406663315
 11
-7.4937802395
 21
-11.0406663315
  0
LINE
  5
229
100
AcDbEntity
  8
RACCORDO
100
AcDbLine
 62
7
  6
CONTINUOUS
 10
-3.6008253003
 20
-11.0777402674
 11
-3.9515152664
 21
-11.0459071094
  0
LINE
  5
22A
100
AcDbEntity
  8
ASSI
100
AcDbLine
 62
7
  6
CONTINUOUS
 10
-3.6008253003
 20
-11.0777402674
 11
-3.9515152664
 21
-11.0459071094
  0
LINE
  5
22B
100
AcDbEntity
  8
RACCORDO
100
AcDbLine
 62
7
  6
CONTINUOUS
 10
-10.0979957851
 20
-9.3881863301
 11
-10.1092502933
 21
-2.0184275617
  0
LINE
  5
22C
100
AcDbEntity
  8
ASSI
100
AcDbLine
 62
7
  6
CONTINUOUS
 10
-10.0979957851
 20
-9.3881863301
 11
-10.1092502933
 21
-2.0184275617
  0
LINE
  5
22D
100
AcDbEntity
  8
DRAFT
100
AcDbLine
 62
7
  6
CONTINUOUS
 10
-10.1092502933
 20
-2.0184275617
 11
-10.1092502933
 21
9.9138212185
  0
LINE
  5
22E
100
AcDbEntity
  8
ASSI
100
AcDbLine
 62
7
  6
CONTINUOUS
 10
-10.1092502933
 20
-2.0184275617
 11
-10.1092502933
 21
9.9138212185
  0
LINE
  5
22F
100
AcDbEntity
  8
DRAFT
100
AcDbLine
 62
7
  6
CONTINUOUS
 10
-10.0923733942
 20
-3.0184275617
 11
-10.0923733942
 21
0.7815724383
  0
LINE
  5
230
100
AcDbEntity
  8
ASSI
100
AcDbLine
 62
7
  6
CONTINUOUS
 10
-10.0923733942
 20
-3.0184275617
 11
-10.0923733942
 21
0.7815724383
  0
LINE
  5
231
100
AcDbEntity
  8
RACCORDO
100
AcDbLine
 62
253
  6
CONTINUOUS
 10
-9.8464835963
 20
-9.0336890106
 11
-9.8464835963
 21
-9.2241279254
  0
LINE
  5
232
100
AcDbEntity
  8
0
100
AcDbLine
 62
7
  6
CONTINUOUS
 10
-9.7092502933
 20
-3.0184275617
 11
-9.7092502933
 21
0.7815724383
  0
LINE
  5
233
100
AcDbEntity
  8
ASSI
100
AcDbLine
 62
7
  6
CONTINUOUS
 10
-9.7092502933
 20
-3.0184275617
 11
-9.7092502933
 21
0.7815724383
  0
LINE
  5
234
100
AcDbEntity
  8
ASSI
100
AcDbLine
 62
253
  6
CONTINUOUS
 10
-9.8394298009
 20
9.7672144952
 11
-9.841256401
 21
0.7815724383
  0
LINE
  5
235
100
AcDbEntity
  8
ASSI
100
AcDbLine
 62
253
  6
CONTINUOUS
 10
-9.8428795512
 20
-3.0184275617
 11
-9.8464835963
 21
-9.2241279254
  0
LINE
  5
236
100
AcDbEntity
  8
RACCORDO
100
AcDbLine
 62
7
  6
CONTINUOUS
 10
3.5330146798
 20
-9.4965291765
 11
3.1070312299
 21
-9.5871226924
  0
LINE
  5
237
100
AcDbEntity
  8
ASSI
100
AcDbLine
 62
7
  6
CONTINUOUS
 10
3.5330146798
 20
-9.4965291765
 11
3.1070312299
 21
-9.5871226924
  0
LINE
  5
238
100
AcDbEntity
  8
RACCORDO
100
AcDbLine
 62
7
  6
CONTINUOUS
 10
-8.0176752863
 20
-11.0777402674
 11
-7.6669853202
 21
-11.0459071094
  0
LINE
  5
239
100
AcDbEntity
  8
ASSI
100
AcDbLine
 62
7
  6
CONTINUOUS
 10
-8.0176752863
 20
-11.0777402674
 11
-7.6669853202
 21
-11.0459071094
  0
LINE
  5
23A
100
AcDbEntity
  8
RACCORDO
100
AcDbLine
 62
7
  6
CONTINUOUS
 10
9.4795863806
 20
-9.5871226924
 11
7.6744681835
 21
-9.5871226924
  0
LINE
  5
23B
100
AcDbEntity
  8
ASSI
100
AcDbLine
 62
7
  6
CONTINUOUS
 10
9.4795863806
 20
-9.5871226924
 11
7.6744681835
 21
-9.5871226924
  0
LINE
  5
23C
100
AcDbEntity
  8
DRAFT
100
AcDbLine
 62
7
  6
CONTINUOUS
 10
3.1070312299
 20
-9.5871226924
 11
-3.5255318165
 21
-9.5871226924
  0
LINE
  5
23D
100
AcDbEntity
  8
ASSI
100
AcDbLine
 62
7
  6
CONTINUOUS
 10
3.1070312299
 20
-9.5871226924
 11
-3.5255318165
 21
-9.5871226924
  0
LINE
  5
23E
100
AcDbEntity
  8
RACCORDO
100
AcDbLine
 62
7
  6
CONTINUOUS
 10
-8.0929687701
 20
-9.5871226924
 11
-9.8980869672
 21
-9.5871226924
  0
LINE
  5
23F
100
AcDbEntity
  8
ASSI
100
AcDbLine
 62
7
  6
CONTINUOUS
 10
-8.0929687701
 20
-9.5871226924
 11
-9.8980869672
 21
-9.5871226924
  0
LINE
  5
240
100
AcDbEntity
  8
RACCORDO
100
AcDbLine
 62
7
  6
CONTINUOUS
 10
7.0752796529
 20
-9.4842507204
 11
5.7108820807
 21
-9.4842507204
  0
LINE
  5
241
100
AcDbEntity
  8
ASSI
100
AcDbLine
 62
7
  6
CONTINUOUS
 10
7.0752796529
 20
-9.4842507204
 11
5.7108820807
 21
-9.4842507204
  0
LINE
  5
242
100
AcDbEntity
  8
RACCORDO
100
AcDbLine
 62
7
  6
CONTINUOUS
 10
5.0706173327
 20
-9.4842507204
 11
3.7062197605
 21
-9.4842507204
  0
LINE
  5
243
100
AcDbEntity
  8
ASSI
100
AcDbLine
 62
7
  6
CONTINUOUS
 10
5.0706173327
 20
-9.4842507204
 11
3.7062197605
 21
-9.4842507204
  0
LINE
  5
244
100
AcDbEntity
  8
RACCORDO
100
AcDbLine
 62
7
  6
CONTINUOUS
 10
-4.1247203471
 20
-9.4842507204
 11
-5.4891179193
 21
-9.4842507204
  0
LINE
  5
245
100
AcDbEntity
  8
ASSI
100
AcDbLine
 62
7
  6
CONTINUOUS
 10
-4.1247203471
 20
-9.4842507204
 11
-5.4891179193
 21
-9.4842507204
  0
LINE
  5
246
100
AcDbEntity
  8
RACCORDO
100
AcDbLine
 62
7
  6
CONTINUOUS
 10
-6.1293826673
 20
-9.4842507204
 11
-7.4937802395
 21
-9.4842507204
  0
LINE
  5
247
100
AcDbEntity
  8
ASSI
100
AcDbLine
 62
7
  6
CONTINUOUS
 10
-6.1293826673
 20
-9.4842507204
 11
-7.4937802395
 21
-9.4842507204
  0
LINE
  5
248
100
AcDbEntity
  8
RACCORDO
100
AcDbLine
 62
7
  6
CONTINUOUS
 10
7.5991746997
 20
-11.0777402674
 11
7.2484847336
 21
-11.0459071094
  0
LINE
  5
249
100
AcDbEntity
  8
ASSI
100
AcDbLine
 62
7
  6
CONTINUOUS
 10
7.5991746997
 20
-11.0777402674
 11
7.2484847336
 21
-11.0459071094
  0
LINE
  5
24A
100
AcDbEntity
  8
RACCORDO
100
AcDbLine
 62
7
  6
CONTINUOUS
 10
-3.9515152664
 20
-9.4965291765
 11
-3.5255318165
 21
-9.5871226924
  0
LINE
  5
24B
100
AcDbEntity
  8
ASSI
100
AcDbLine
 62
7
  6
CONTINUOUS
 10
-3.9515152664
 20
-9.4965291765
 11
-3.5255318165
 21
-9.5871226924
  0
LINE
  5
24C
100
AcDbEntity
  8
DRAFT
100
AcDbLine
 62
7
  6
CONTINUOUS
 10
-8.0176752863
 20
-11.0777402674
 11
-8.0929687701
 21
-9.5871226924
  0
LINE
  5
24D
100
AcDbEntity
  8
ASSI
100
AcDbLine
 62
7
  6
CONTINUOUS
 10
-8.0176752863
 20
-11.0777402674
 11
-8.0929687701
 21
-9.5871226924
  0
LINE
  5
24E
100
AcDbEntity
  8
DRAFT
100
AcDbLine
 62
7
  6
CONTINUOUS
 10
-8.7217162839
 20
10.9815724383
 11
-8.7217162839
 21
9.9138212185
  0
LINE
  5
24F
100
AcDbEntity
  8
ASSI
100
AcDbLine
 62
7
  6
CONTINUOUS
 10
-8.7217162839
 20
10.9815724383
 11
-8.7217162839
 21
9.9138212185
  0
LINE
  5
250
100
AcDbEntity
  8
DRAFT
100
AcDbLine
 62
7
  6
CONTINUOUS
 10
-8.4592502933
 20
9.8090589101
 11
-8.4592502933
 21
10.9553918349
  0
LINE
  5
251
100
AcDbEntity
  8
ASSI
100
AcDbLine
 62
7
  6
CONTINUOUS
 10
-8.4592502933
 20
9.8090589101
 11
-8.4592502933
 21
10.9553918349
  0
LINE
  5
252
100
AcDbEntity
  8
RACCORDO
100
AcDbLine
 62
253
  6
CONTINUOUS
 10
-10.0464531358
 20
-9.0256186982
 11
-10.0979957851
 21
-9.3881863301
  0
LINE
  5
253
100
AcDbEntity
  8
ASSI
100
AcDbLine
 62
253
  6
CONTINUOUS
 10
-10.0464531358
 20
-9.0256186982
 11
-10.0979957851
 21
-9.3881863301
  0
LINE
  5
254
100
AcDbEntity
  8
RACCORDO
100
AcDbLine
 62
253
  6
CONTINUOUS
 10
-9.8464835963
 20
-9.2241279254
 11
-9.8980869672
 21
-9.5871226924
  0
LINE
  5
255
100
AcDbEntity
  8
ASSI
100
AcDbLine
 62
253
  6
CONTINUOUS
 10
-9.8464835963
 20
-9.2241279254
 11
-9.8980869672
 21
-9.5871226924
  0
LINE
  5
256
100
AcDbEntity
  8
RACCORDO
100
AcDbLine
 62
253
  6
CONTINUOUS
 10
-7.7171861551
 20
5.2234538246
 11
-7.7724439173
 21
5.1681960624
  0
LINE
  5
257
100
AcDbEntity
  8
ASSI
100
AcDbLine
 62
253
  6
CONTINUOUS
 10
-7.7171861551
 20
5.2234538246
 11
-7.7724439173
 21
5.1681960624
  0
LINE
  5
258
100
AcDbEntity
  8
RACCORDO
100
AcDbLine
 62
253
  6
CONTINUOUS
 10
-7.4173694345
 20
4.9236360489
 11
-7.4724993698
 21
4.8685061137
  0
LINE
  5
259
100
AcDbEntity
  8
ASSI
100
AcDbLine
 62
253
  6
CONTINUOUS
 10
-7.4173694345
 20
4.9236360489
 11
-7.4724993698
 21
4.8685061137
  0
LINE
  5
25A
100
AcDbEntity
  8
RACCORDO
100
AcDbLine
 62
7
  6
CONTINUOUS
 10
5.3128574775
 20
-9.2773851743
 11
5.4686419359
 21
-9.2773851743
  0
LINE
  5
25B
100
AcDbEntity
  8
ASSI
100
AcDbLine
 62
7
  6
CONTINUOUS
 10
5.3128574775
 20
-9.2773851743
 11
5.4686419359
 21
-9.2773851743
  0
LINE
  5
25C
100
AcDbEntity
  8
RACCORDO
100
AcDbLine
 62
7
  6
CONTINUOUS
 10
-5.7313580641
 20
-9.2773851743
 11
-5.8871425225
 21
-9.2773851743
  0
LINE
  5
25D
100
AcDbEntity
  8
ASSI
100
AcDbLine
 62
7
  6
CONTINUOUS
 10
-5.7313580641
 20
-9.2773851743
 11
-5.8871425225
 21
-9.2773851743
  0
LINE
  5
25E
100
AcDbEntity
  8
RACCORDO
100
AcDbLine
 62
253
  6
CONTINUOUS
 10
-9.8464835963
 20
-9.2241279254
 11
-6.2033633705
 21
-9.2241279254
  0
LINE
  5
25F
100
AcDbEntity
  8
ASSI
100
AcDbLine
 62
253
  6
CONTINUOUS
 10
-9.8464835963
 20
-9.2241279254
 11
-6.2033633705
 21
-9.2241279254
  0
LINE
  5
260
100
AcDbEntity
  8
RACCORDO
100
AcDbLine
 62
253
  6
CONTINUOUS
 10
-5.4151372161
 20
-9.2241279254
 11
4.9966366295
 21
-9.2241279254
  0
LINE
  5
261
100
AcDbEntity
  8
ASSI
100
AcDbLine
 62
253
  6
CONTINUOUS
 10
-5.4151372161
 20
-9.2241279254
 11
4.9966366295
 21
-9.2241279254
  0
LINE
  5
262
100
AcDbEntity
  8
RACCORDO
100
AcDbLine
 62
253
  6
CONTINUOUS
 10
5.7848627839
 20
-9.2241279254
 11
9.4279830097
 21
-9.2241279254
  0
LINE
  5
263
100
AcDbEntity
  8
ASSI
100
AcDbLine
 62
253
  6
CONTINUOUS
 10
5.7848627839
 20
-9.2241279254
 11
9.4279830097
 21
-9.2241279254
  0
LINE
  5
264
100
AcDbEntity
  8
RACCORDO
100
AcDbLine
 62
253
  6
CONTINUOUS
 10
-9.8464835858
 20
-9.0336890106
 11
-6.2094906819
 21
-9.0336890106
  0
LINE
  5
265
100
AcDbEntity
  8
ASSI
100
AcDbLine
 62
253
  6
CONTINUOUS
 10
-9.8464835858
 20
-9.0336890106
 11
-6.2094906819
 21
-9.0336890106
  0
LINE
  5
266
100
AcDbEntity
  8
RACCORDO
100
AcDbLine
 62
253
  6
CONTINUOUS
 10
-5.4090099047
 20
-9.0336890106
 11
4.9905093181
 21
-9.0336890106
  0
LINE
  5
267
100
AcDbEntity
  8
ASSI
100
AcDbLine
 62
253
  6
CONTINUOUS
 10
-5.4090099047
 20
-9.0336890106
 11
4.9905093181
 21
-9.0336890106
  0
LINE
  5
268
100
AcDbEntity
  8
RACCORDO
100
AcDbLine
 62
253
  6
CONTINUOUS
 10
5.7909900953
 20
-9.0336890106
 11
9.4279829992
 21
-9.0336890106
  0
LINE
  5
269
100
AcDbEntity
  8
ASSI
100
AcDbLine
 62
253
  6
CONTINUOUS
 10
5.7909900953
 20
-9.0336890106
 11
9.4279829992
 21
-9.0336890106
  0
LINE
  5
26A
100
AcDbEntity
  8
RACCORDO
100
AcDbLine
 62
7
  6
CONTINUOUS
 10
-6.1293826673
 20
-9.4842507204
 11
-6.2033633705
 21
-9.2241279254
  0
LINE
  5
26B
100
AcDbEntity
  8
ASSI
100
AcDbLine
 62
7
  6
CONTINUOUS
 10
-6.1293826673
 20
-9.4842507204
 11
-6.2033633705
 21
-9.2241279254
  0
LINE
  5
26C
100
AcDbEntity
  8
RACCORDO
100
AcDbLine
 62
253
  6
CONTINUOUS
 10
-7.7336919919
 20
7.5229937945
 11
-7.712491356
 21
6.9158870133
  0
LINE
  5
26D
100
AcDbEntity
  8
ASSI
100
AcDbLine
 62
253
  6
CONTINUOUS
 10
-7.7336919919
 20
7.5229937945
 11
-7.712491356
 21
6.9158870133
  0
LINE
  5
26E
100
AcDbEntity
  8
RACCORDO
100
AcDbLine
 62
253
  6
CONTINUOUS
 10
-7.7418744372
 20
9.7989482944
 11
-7.7418744372
 21
8.0886792195
  0
LINE
  5
26F
100
AcDbEntity
  8
ASSI
100
AcDbLine
 62
253
  6
CONTINUOUS
 10
-7.7418744372
 20
9.7989482944
 11
-7.7418744372
 21
8.0886792195
  0
LINE
  5
270
100
AcDbEntity
  8
RACCORDO
100
AcDbLine
 62
253
  6
CONTINUOUS
 10
-7.7104457446
 20
6.7744656571
 11
-7.7104457446
 21
5.42333199
  0
LINE
  5
271
100
AcDbEntity
  8
ASSI
100
AcDbLine
 62
253
  6
CONTINUOUS
 10
-7.7104457446
 20
6.7744656571
 11
-7.7104457446
 21
5.42333199
  0
LINE
  5
272
100
AcDbEntity
  8
RACCORDO
100
AcDbLine
 62
253
  6
CONTINUOUS
 10
-7.6669853202
 20
-11.0459071094
 11
-7.6669853202
 21
-9.4965291765
  0
LINE
  5
273
100
AcDbEntity
  8
ASSI
100
AcDbLine
 62
253
  6
CONTINUOUS
 10
-7.6669853202
 20
-11.0459071094
 11
-7.6669853202
 21
-9.4965291765
  0
LINE
  5
274
100
AcDbEntity
  8
RACCORDO
100
AcDbLine
 62
253
  6
CONTINUOUS
 10
-7.4937802395
 20
-11.0406663315
 11
-7.4937802395
 21
-9.4842507204
  0
LINE
  5
275
100
AcDbEntity
  8
ASSI
100
AcDbLine
 62
253
  6
CONTINUOUS
 10
-7.4937802395
 20
-11.0406663315
 11
-7.4937802395
 21
-9.4842507204
  0
LINE
  5
276
100
AcDbEntity
  8
RACCORDO
100
AcDbLine
 62
253
  6
CONTINUOUS
 10
-7.4420571891
 20
9.8090589101
 11
-7.4420571891
 21
8.0886901834
  0
LINE
  5
277
100
AcDbEntity
  8
ASSI
100
AcDbLine
 62
253
  6
CONTINUOUS
 10
-7.4420571891
 20
9.8090589101
 11
-7.4420571891
 21
8.0886901834
  0
LINE
  5
278
100
AcDbEntity
  8
RACCORDO
100
AcDbLine
 62
253
  6
CONTINUOUS
 10
-7.4106284965
 20
6.7744656571
 11
-7.4106284965
 21
5.4233474506
  0
LINE
  5
279
100
AcDbEntity
  8
ASSI
100
AcDbLine
 62
253
  6
CONTINUOUS
 10
-7.4106284965
 20
6.7744656571
 11
-7.4106284965
 21
5.4233474506
  0
LINE
  5
27A
100
AcDbEntity
  8
RACCORDO
100
AcDbLine
 62
253
  6
CONTINUOUS
 10
-7.3058264787
 20
7.1280190477
 11
-7.2846260997
 21
7.735118471
  0
LINE
  5
27B
100
AcDbEntity
  8
ASSI
100
AcDbLine
 62
253
  6
CONTINUOUS
 10
-7.3058264787
 20
7.1280190477
 11
-7.2846260997
 21
7.735118471
  0
LINE
  5
27C
100
AcDbEntity
  8
DRAFT
100
AcDbLine
 62
7
  6
CONTINUOUS
 10
-2.7057592803
 20
9.0025185162
 11
-2.7092502933
 21
8.9990275032
  0
LINE
  5
27D
100
AcDbEntity
  8
RACCORDO
100
AcDbLine
 62
7
  6
CONTINUOUS
 10
-7.6669853202
 20
-9.4965291765
 11
-8.0929687701
 21
-9.5871226924
  0
LINE
  5
27E
100
AcDbEntity
  8
ASSI
100
AcDbLine
 62
7
  6
CONTINUOUS
 10
-7.6669853202
 20
-9.4965291765
 11
-8.0929687701
 21
-9.5871226924
  0
LINE
  5
27F
100
AcDbEntity
  8
0
100
AcDbLine
 62
7
  6
CONTINUOUS
 10
0.7333029348
 20
-8.2595935617
 11
0.4439411659
 21
-8.2595935617
  0
LINE
  5
280
100
AcDbEntity
  8
ASSI
100
AcDbLine
 62
7
  6
CONTINUOUS
 10
0.7333029348
 20
-8.2595935617
 11
0.4439411659
 21
-8.2595935617
  0
LINE
  5
281
100
AcDbEntity
  8
0
100
AcDbLine
 62
7
  6
CONTINUOUS
 10
1.8907497067
 20
-8.0470935617
 11
0.4801113743
 21
-8.0470935617
  0
LINE
  5
282
100
AcDbEntity
  8
ASSI
100
AcDbLine
 62
7
  6
CONTINUOUS
 10
1.8907497067
 20
-8.0470935617
 11
0.4801113743
 21
-8.0470935617
  0
LINE
  5
283
100
AcDbEntity
  8
0
100
AcDbLine
 62
7
  6
CONTINUOUS
 10
1.8907497067
 20
-7.8345935617
 11
0.1907497067
 21
-7.8345935617
  0
LINE
  5
284
100
AcDbEntity
  8
ASSI
100
AcDbLine
 62
7
  6
CONTINUOUS
 10
1.8907497067
 20
-7.8345935617
 11
0.1907497067
 21
-7.8345935617
  0
LINE
  5
285
100
AcDbEntity
  8
0
100
AcDbLine
 62
7
  6
CONTINUOUS
 10
1.3843667377
 20
-7.5512602453
 11
1.1673454363
 21
-7.5512602453
  0
LINE
  5
286
100
AcDbEntity
  8
ASSI
100
AcDbLine
 62
7
  6
CONTINUOUS
 10
1.3843667377
 20
-7.5512602453
 11
1.1673454363
 21
-7.5512602453
  0
LINE
  5
287
100
AcDbEntity
  8
RACCORDO
100
AcDbLine
 62
7
  6
CONTINUOUS
 10
7.2484847336
 20
-9.4965291765
 11
7.6744681835
 21
-9.5871226924
  0
LINE
  5
288
100
AcDbEntity
  8
ASSI
100
AcDbLine
 62
7
  6
CONTINUOUS
 10
7.2484847336
 20
-9.4965291765
 11
7.6744681835
 21
-9.5871226924
  0
LINE
  5
289
100
AcDbEntity
  8
0
100
AcDbLine
 62
7
  6
CONTINUOUS
 10
-2.3268122933
 20
-7.2161935617
 11
-1.1567442933
 21
-7.5501155617
  0
LINE
  5
28A
100
AcDbEntity
  8
ASSI
100
AcDbLine
 62
7
  6
CONTINUOUS
 10
-2.3268122933
 20
-7.2161935617
 11
-1.1567442933
 21
-7.5501155617
  0
LINE
  5
28B
100
AcDbEntity
  8
RACCORDO
100
AcDbLine
 62
253
  6
CONTINUOUS
 10
-7.433874487
 20
7.7351184744
 11
-7.4126741078
 21
7.1280190477
  0
LINE
  5
28C
100
AcDbEntity
  8
ASSI
100
AcDbLine
 62
253
  6
CONTINUOUS
 10
-7.433874487
 20
7.7351184744
 11
-7.4126741078
 21
7.1280190477
  0
LINE
  5
28D
100
AcDbEntity
  8
RACCORDO
100
AcDbLine
 62
253
  6
CONTINUOUS
 10
-7.3078720901
 20
5.4233474507
 11
-7.3078720901
 21
6.7744656571
  0
LINE
  5
28E
100
AcDbEntity
  8
ASSI
100
AcDbLine
 62
253
  6
CONTINUOUS
 10
-7.3078720901
 20
5.4233474507
 11
-7.3078720901
 21
6.7744656571
  0
LINE
  5
28F
100
AcDbEntity
  8
RACCORDO
100
AcDbLine
 62
253
  6
CONTINUOUS
 10
-7.2764433975
 20
8.0886901872
 11
-7.2764433975
 21
9.8090589101
  0
LINE
  5
290
100
AcDbEntity
  8
ASSI
100
AcDbLine
 62
253
  6
CONTINUOUS
 10
-7.2764433975
 20
8.0886901872
 11
-7.2764433975
 21
9.8090589101
  0
LINE
  5
291
100
AcDbEntity
  8
RACCORDO
100
AcDbLine
 62
253
  6
CONTINUOUS
 10
-7.008054842
 20
5.42333199
 11
-7.008054842
 21
6.7744656571
  0
LINE
  5
292
100
AcDbEntity
  8
ASSI
100
AcDbLine
 62
253
  6
CONTINUOUS
 10
-7.008054842
 20
5.42333199
 11
-7.008054842
 21
6.7744656571
  0
LINE
  5
293
100
AcDbEntity
  8
RACCORDO
100
AcDbLine
 62
253
  6
CONTINUOUS
 10
-6.9766261494
 20
8.0886792195
 11
-6.9766261494
 21
9.7989482944
  0
LINE
  5
294
100
AcDbEntity
  8
ASSI
100
AcDbLine
 62
253
  6
CONTINUOUS
 10
-6.9766261494
 20
8.0886792195
 11
-6.9766261494
 21
9.7989482944
  0
LINE
  5
295
100
AcDbEntity
  8
RACCORDO
100
AcDbLine
 62
253
  6
CONTINUOUS
 10
-7.0060092306
 20
6.9158870133
 11
-6.9848085947
 21
7.5229937945
  0
LINE
  5
296
100
AcDbEntity
  8
ASSI
100
AcDbLine
 62
253
  6
CONTINUOUS
 10
-7.0060092306
 20
6.9158870133
 11
-6.9848085947
 21
7.5229937945
  0
LINE
  5
297
100
AcDbEntity
  8
0
100
AcDbLine
 62
7
  6
CONTINUOUS
 10
-2.3268122933
 20
-7.8741405617
 11
-1.1567442933
 21
-7.5501155617
  0
LINE
  5
298
100
AcDbEntity
  8
ASSI
100
AcDbLine
 62
7
  6
CONTINUOUS
 10
-2.3268122933
 20
-7.8741405617
 11
-1.1567442933
 21
-7.5501155617
  0
LINE
  5
299
100
AcDbEntity
  8
RACCORDO
100
AcDbLine
 62
253
  6
CONTINUOUS
 10
5.4312106307
 20
-6.9787046414
 11
5.3502887827
 21
-6.9787046414
  0
LINE
  5
29A
100
AcDbEntity
  8
ASSI
100
AcDbLine
 62
253
  6
CONTINUOUS
 10
5.4312106307
 20
-6.9787046414
 11
5.3502887827
 21
-6.9787046414
  0
LINE
  5
29B
100
AcDbEntity
  8
RACCORDO
100
AcDbLine
 62
253
  6
CONTINUOUS
 10
-5.7687893693
 20
-6.9787046414
 11
-5.8497112173
 21
-6.9787046414
  0
LINE
  5
29C
100
AcDbEntity
  8
ASSI
100
AcDbLine
 62
253
  6
CONTINUOUS
 10
-5.7687893693
 20
-6.9787046414
 11
-5.8497112173
 21
-6.9787046414
  0
LINE
  5
29D
100
AcDbEntity
  8
RACCORDO
100
AcDbLine
 62
253
  6
CONTINUOUS
 10
5.1006046661
 20
-6.8519191629
 11
5.6808947473
 21
-6.8519191629
  0
LINE
  5
29E
100
AcDbEntity
  8
ASSI
100
AcDbLine
 62
253
  6
CONTINUOUS
 10
5.1006046661
 20
-6.8519191629
 11
5.6808947473
 21
-6.8519191629
  0
LINE
  5
29F
100
AcDbEntity
  8
RACCORDO
100
AcDbLine
 62
253
  6
CONTINUOUS
 10
-5.5191052527
 20
-6.8519191629
 11
-6.0993953339
 21
-6.8519191629
  0
LINE
  5
2A0
100
AcDbEntity
  8
ASSI
100
AcDbLine
 62
253
  6
CONTINUOUS
 10
-5.5191052527
 20
-6.8519191629
 11
-6.0993953339
 21
-6.8519191629
  0
LINE
  5
2A1
100
AcDbEntity
  8
0
100
AcDbLine
 62
7
  6
CONTINUOUS
 10
-2.3269142933
 20
-6.7299295617
 11
-0.6269492933
 21
-6.7299295617
  0
LINE
  5
2A2
100
AcDbEntity
  8
ASSI
100
AcDbLine
 62
7
  6
CONTINUOUS
 10
-2.3269142933
 20
-6.7299295617
 11
-0.6269492933
 21
-6.7299295617
  0
LINE
  5
2A3
100
AcDbEntity
  8
0
100
AcDbLine
 62
7
  6
CONTINUOUS
 10
1.8907497067
 20
-6.7012601946
 11
1.3843667377
 21
-6.7012601946
  0
LINE
  5
2A4
100
AcDbEntity
  8
ASSI
100
AcDbLine
 62
7
  6
CONTINUOUS
 10
1.8907497067
 20
-6.7012601946
 11
1.3843667377
 21
-6.7012601946
  0
LINE
  5
2A5
100
AcDbEntity
  8
0
100
AcDbLine
 62
7
  6
CONTINUOUS
 10
1.1673454363
 20
-6.7012601946
 11
0.4801113743
 21
-6.7012601946
  0
LINE
  5
2A6
100
AcDbEntity
  8
ASSI
100
AcDbLine
 62
7
  6
CONTINUOUS
 10
1.1673454363
 20
-6.7012601946
 11
0.4801113743
 21
-6.7012601946
  0
LINE
  5
2A7
100
AcDbEntity
  8
RACCORDO
100
AcDbLine
 62
253
  6
CONTINUOUS
 10
5.1006046661
 20
-6.5699133183
 11
5.6808947473
 21
-6.5699133183
  0
LINE
  5
2A8
100
AcDbEntity
  8
ASSI
100
AcDbLine
 62
253
  6
CONTINUOUS
 10
5.1006046661
 20
-6.5699133183
 11
5.6808947473
 21
-6.5699133183
  0
LINE
  5
2A9
100
AcDbEntity
  8
RACCORDO
100
AcDbLine
 62
253
  6
CONTINUOUS
 10
-5.5191052527
 20
-6.5699133183
 11
-6.0993953339
 21
-6.5699133183
  0
LINE
  5
2AA
100
AcDbEntity
  8
ASSI
100
AcDbLine
 62
253
  6
CONTINUOUS
 10
-5.5191052527
 20
-6.5699133183
 11
-6.0993953339
 21
-6.5699133183
  0
LINE
  5
2AB
100
AcDbEntity
  8
0
100
AcDbLine
 62
7
  6
CONTINUOUS
 10
1.8907497067
 20
-6.4887602959
 11
1.3843667377
 21
-6.4887602959
  0
LINE
  5
2AC
100
AcDbEntity
  8
ASSI
100
AcDbLine
 62
7
  6
CONTINUOUS
 10
1.8907497067
 20
-6.4887602959
 11
1.3843667377
 21
-6.4887602959
  0
LINE
  5
2AD
100
AcDbEntity
  8
0
100
AcDbLine
 62
7
  6
CONTINUOUS
 10
1.1673454363
 20
-6.4887602959
 11
0.1907497067
 21
-6.4887602959
  0
LINE
  5
2AE
100
AcDbEntity
  8
ASSI
100
AcDbLine
 62
7
  6
CONTINUOUS
 10
1.1673454363
 20
-6.4887602959
 11
0.1907497067
 21
-6.4887602959
  0
LINE
  5
2AF
100
AcDbEntity
  8
0
100
AcDbLine
 62
7
  6
CONTINUOUS
 10
-2.3269142933
 20
-6.3751015617
 11
-0.6269492933
 21
-6.3751015617
  0
LINE
  5
2B0
100
AcDbEntity
  8
ASSI
100
AcDbLine
 62
7
  6
CONTINUOUS
 10
-2.3269142933
 20
-6.3751015617
 11
-0.6269492933
 21
-6.3751015617
  0
LINE
  5
2B1
100
AcDbEntity
  8
RACCORDO
100
AcDbLine
 62
253
  6
CONTINUOUS
 10
5.4324898826
 20
-6.2744709924
 11
5.3490095308
 21
-6.2744709924
  0
LINE
  5
2B2
100
AcDbEntity
  8
ASSI
100
AcDbLine
 62
253
  6
CONTINUOUS
 10
5.4324898826
 20
-6.2744709924
 11
5.3490095308
 21
-6.2744709924
  0
LINE
  5
2B3
100
AcDbEntity
  8
RACCORDO
100
AcDbLine
 62
253
  6
CONTINUOUS
 10
-5.7675101174
 20
-6.2744709924
 11
-5.8509904692
 21
-6.2744709924
  0
LINE
  5
2B4
100
AcDbEntity
  8
ASSI
100
AcDbLine
 62
253
  6
CONTINUOUS
 10
-5.7675101174
 20
-6.2744709924
 11
-5.8509904692
 21
-6.2744709924
  0
LINE
  5
2B5
100
AcDbEntity
  8
0
100
AcDbLine
 62
7
  6
CONTINUOUS
 10
-2.3268122933
 20
-6.0305995617
 11
-0.6269492933
 21
-6.1840865617
  0
LINE
  5
2B6
100
AcDbEntity
  8
ASSI
100
AcDbLine
 62
7
  6
CONTINUOUS
 10
-2.3268122933
 20
-6.0305995617
 11
-0.6269492933
 21
-6.1840865617
  0
LINE
  5
2B7
100
AcDbEntity
  8
0
100
AcDbLine
 62
7
  6
CONTINUOUS
 10
-2.3268122933
 20
-6.8616075617
 11
-0.6269492933
 21
-7.4080115617
  0
LINE
  5
2B8
100
AcDbEntity
  8
ASSI
100
AcDbLine
 62
7
  6
CONTINUOUS
 10
-2.3268122933
 20
-6.8616075617
 11
-0.6269492933
 21
-7.4080115617
  0
LINE
  5
2B9
100
AcDbEntity
  8
RACCORDO
100
AcDbLine
 62
253
  6
CONTINUOUS
 10
-6.2148704863
 20
-4.7655041101
 11
-6.1604762079
 21
-4.7926929629
  0
LINE
  5
2BA
100
AcDbEntity
  8
ASSI
100
AcDbLine
 62
253
  6
CONTINUOUS
 10
-6.2148704863
 20
-4.7655041101
 11
-6.1604762079
 21
-4.7926929629
  0
LINE
  5
2BB
100
AcDbEntity
  8
RACCORDO
100
AcDbLine
 62
253
  6
CONTINUOUS
 10
-5.9651459654
 20
-4.5154806122
 11
-5.9106289596
 21
-4.54273081
  0
LINE
  5
2BC
100
AcDbEntity
  8
ASSI
100
AcDbLine
 62
253
  6
CONTINUOUS
 10
-5.9651459654
 20
-4.5154806122
 11
-5.9106289596
 21
-4.54273081
  0
LINE
  5
2BD
100
AcDbEntity
  8
RACCORDO
100
AcDbLine
 62
253
  6
CONTINUOUS
 10
-6.158760642
 20
-6.2282024695
 11
-6.100838176
 21
-6.5206729306
  0
LINE
  5
2BE
100
AcDbEntity
  8
ASSI
100
AcDbLine
 62
253
  6
CONTINUOUS
 10
-6.158760642
 20
-6.2282024695
 11
-6.100838176
 21
-6.5206729306
  0
LINE
  5
2BF
100
AcDbEntity
  8
RACCORDO
100
AcDbLine
 62
253
  6
CONTINUOUS
 10
-5.9016987249
 20
-6.0184275617
 11
-5.8509904692
 21
-6.2744709924
  0
LINE
  5
2C0
100
AcDbEntity
  8
ASSI
100
AcDbLine
 62
253
  6
CONTINUOUS
 10
-5.9016987249
 20
-6.0184275617
 11
-5.8509904692
 21
-6.2744709924
  0
LINE
  5
2C1
100
AcDbEntity
  8
RACCORDO
100
AcDbLine
 62
253
  6
CONTINUOUS
 10
-5.7313580641
 20
-9.2773851743
 11
-5.7687893693
 21
-6.9787046414
  0
LINE
  5
2C2
100
AcDbEntity
  8
ASSI
100
AcDbLine
 62
253
  6
CONTINUOUS
 10
-5.7313580641
 20
-9.2773851743
 11
-5.7687893693
 21
-6.9787046414
  0
LINE
  5
2C3
100
AcDbEntity
  8
RACCORDO
100
AcDbLine
 62
253
  6
CONTINUOUS
 10
-5.4891179193
 20
-8.7045453315
 11
-5.5189416625
 21
-6.873050076
  0
LINE
  5
2C4
100
AcDbEntity
  8
ASSI
100
AcDbLine
 62
253
  6
CONTINUOUS
 10
-5.4891179193
 20
-8.7045453315
 11
-5.5189416625
 21
-6.873050076
  0
LINE
  5
2C5
100
AcDbEntity
  8
RACCORDO
100
AcDbLine
 62
253
  6
CONTINUOUS
 10
-6.158760642
 20
-4.8426853477
 11
-6.158760642
 21
-6.2282024695
  0
LINE
  5
2C6
100
AcDbEntity
  8
ASSI
100
AcDbLine
 62
253
  6
CONTINUOUS
 10
-6.158760642
 20
-4.8426853477
 11
-6.158760642
 21
-6.2282024695
  0
LINE
  5
2C7
100
AcDbEntity
  8
RACCORDO
100
AcDbLine
 62
7
  6
CONTINUOUS
 10
-6.1293826673
 20
-9.4842507204
 11
-6.1293826673
 21
-8.7045453315
  0
LINE
  5
2C8
100
AcDbEntity
  8
ASSI
100
AcDbLine
 62
7
  6
CONTINUOUS
 10
-6.1293826673
 20
-9.4842507204
 11
-6.1293826673
 21
-8.7045453315
  0
LINE
  5
2C9
100
AcDbEntity
  8
RACCORDO
100
AcDbLine
 62
253
  6
CONTINUOUS
 10
-6.0993953339
 20
-6.5699133183
 11
-6.0993953339
 21
-6.8519191629
  0
LINE
  5
2CA
100
AcDbEntity
  8
ASSI
100
AcDbLine
 62
253
  6
CONTINUOUS
 10
-6.0993953339
 20
-6.5699133183
 11
-6.0993953339
 21
-6.8519191629
  0
LINE
  5
2CB
100
AcDbEntity
  8
RACCORDO
100
AcDbLine
 62
253
  6
CONTINUOUS
 10
-5.9089129353
 20
-4.8426853477
 11
-5.9089129353
 21
-6.0185331727
  0
LINE
  5
2CC
100
AcDbEntity
  8
ASSI
100
AcDbLine
 62
253
  6
CONTINUOUS
 10
-5.9089129353
 20
-4.8426853477
 11
-5.9089129353
 21
-6.0185331727
  0
LINE
  5
2CD
100
AcDbEntity
  8
RACCORDO
100
AcDbLine
 62
253
  6
CONTINUOUS
 10
-5.8495476271
 20
-6.5699133183
 11
-5.8495476271
 21
-6.8519191629
  0
LINE
  5
2CE
100
AcDbEntity
  8
ASSI
100
AcDbLine
 62
253
  6
CONTINUOUS
 10
-5.8495476271
 20
-6.5699133183
 11
-5.8495476271
 21
-6.8519191629
  0
LINE
  5
2CF
100
AcDbEntity
  8
RACCORDO
100
AcDbLine
 62
253
  6
CONTINUOUS
 10
-5.7689529595
 20
-6.8519191629
 11
-5.7689529595
 21
-6.5699133183
  0
LINE
  5
2D0
100
AcDbEntity
  8
ASSI
100
AcDbLine
 62
253
  6
CONTINUOUS
 10
-5.7689529595
 20
-6.8519191629
 11
-5.7689529595
 21
-6.5699133183
  0
LINE
  5
2D1
100
AcDbEntity
  8
RACCORDO
100
AcDbLine
 62
253
  6
CONTINUOUS
 10
-5.7095876513
 20
-6.0185331727
 11
-5.7095876513
 21
-4.8426853477
  0
LINE
  5
2D2
100
AcDbEntity
  8
ASSI
100
AcDbLine
 62
253
  6
CONTINUOUS
 10
-5.7095876513
 20
-6.0185331727
 11
-5.7095876513
 21
-4.8426853477
  0
LINE
  5
2D3
100
AcDbEntity
  8
RACCORDO
100
AcDbLine
 62
253
  6
CONTINUOUS
 10
-5.5191052527
 20
-6.8519191629
 11
-5.5191052527
 21
-6.5699133183
  0
LINE
  5
2D4
100
AcDbEntity
  8
ASSI
100
AcDbLine
 62
253
  6
CONTINUOUS
 10
-5.5191052527
 20
-6.8519191629
 11
-5.5191052527
 21
-6.5699133183
  0
LINE
  5
2D5
100
AcDbEntity
  8
RACCORDO
100
AcDbLine
 62
7
  6
CONTINUOUS
 10
-5.4891179193
 20
-8.7045453315
 11
-5.4891179193
 21
-9.4842507204
  0
LINE
  5
2D6
100
AcDbEntity
  8
ASSI
100
AcDbLine
 62
7
  6
CONTINUOUS
 10
-5.4891179193
 20
-8.7045453315
 11
-5.4891179193
 21
-9.4842507204
  0
LINE
  5
2D7
100
AcDbEntity
  8
RACCORDO
100
AcDbLine
 62
253
  6
CONTINUOUS
 10
-5.4597399446
 20
-6.2282024695
 11
-5.4597399446
 21
-4.8426853477
  0
LINE
  5
2D8
100
AcDbEntity
  8
ASSI
100
AcDbLine
 62
253
  6
CONTINUOUS
 10
-5.4597399446
 20
-6.2282024695
 11
-5.4597399446
 21
-4.8426853477
  0
LINE
  5
2D9
100
AcDbEntity
  8
RACCORDO
100
AcDbLine
 62
253
  6
CONTINUOUS
 10
-6.0995589241
 20
-6.873050076
 11
-6.1293826673
 21
-8.7045453315
  0
LINE
  5
2DA
100
AcDbEntity
  8
ASSI
100
AcDbLine
 62
253
  6
CONTINUOUS
 10
-6.0995589241
 20
-6.873050076
 11
-6.1293826673
 21
-8.7045453315
  0
LINE
  5
2DB
100
AcDbEntity
  8
RACCORDO
100
AcDbLine
 62
253
  6
CONTINUOUS
 10
-5.8497112173
 20
-6.9787046414
 11
-5.8871425225
 21
-9.2773851743
  0
LINE
  5
2DC
100
AcDbEntity
  8
ASSI
100
AcDbLine
 62
253
  6
CONTINUOUS
 10
-5.8497112173
 20
-6.9787046414
 11
-5.8871425225
 21
-9.2773851743
  0
LINE
  5
2DD
100
AcDbEntity
  8
DRAFT
100
AcDbLine
 62
7
  6
CONTINUOUS
 10
8.3032156973
 20
9.9138212185
 11
8.0407497067
 21
9.8090589101
  0
LINE
  5
2DE
100
AcDbEntity
  8
ASSI
100
AcDbLine
 62
7
  6
CONTINUOUS
 10
8.3032156973
 20
9.9138212185
 11
8.0407497067
 21
9.8090589101
  0
LINE
  5
2DF
100
AcDbEntity
  8
0
100
AcDbLine
 62
7
  6
CONTINUOUS
 10
1.3843667377
 20
-6.1345935617
 11
1.1673454363
 21
-6.1345935617
  0
LINE
  5
2E0
100
AcDbEntity
  8
ASSI
100
AcDbLine
 62
7
  6
CONTINUOUS
 10
1.3843667377
 20
-6.1345935617
 11
1.1673454363
 21
-6.1345935617
  0
LINE
  5
2E1
100
AcDbEntity
  8
RACCORDO
100
AcDbLine
 62
7
  6
CONTINUOUS
 10
-5.9016987249
 20
-6.0184275617
 11
-5.7168018617
 21
-6.0184275617
  0
LINE
  5
2E2
100
AcDbEntity
  8
ASSI
100
AcDbLine
 62
7
  6
CONTINUOUS
 10
-5.9016987249
 20
-6.0184275617
 11
-5.7168018617
 21
-6.0184275617
  0
LINE
  5
2E3
100
AcDbEntity
  8
RACCORDO
100
AcDbLine
 62
7
  6
CONTINUOUS
 10
5.4831981383
 20
-6.0184275617
 11
5.2983012751
 21
-6.0184275617
  0
LINE
  5
2E4
100
AcDbEntity
  8
ASSI
100
AcDbLine
 62
7
  6
CONTINUOUS
 10
5.4831981383
 20
-6.0184275617
 11
5.2983012751
 21
-6.0184275617
  0
LINE
  5
2E5
100
AcDbEntity
  8
0
100
AcDbLine
 62
7
  6
CONTINUOUS
 10
1.4567071546
 20
-5.8512602959
 11
1.3481965292
 21
-5.8512602959
  0
LINE
  5
2E6
100
AcDbEntity
  8
ASSI
100
AcDbLine
 62
7
  6
CONTINUOUS
 10
1.4567071546
 20
-5.8512602959
 11
1.3481965292
 21
-5.8512602959
  0
LINE
  5
2E7
100
AcDbEntity
  8
0
100
AcDbLine
 62
7
  6
CONTINUOUS
 10
0.7333029348
 20
-5.8158435617
 11
0.6247923095
 21
-5.8158435617
  0
LINE
  5
2E8
100
AcDbEntity
  8
ASSI
100
AcDbLine
 62
7
  6
CONTINUOUS
 10
0.7333029348
 20
-5.8158435617
 11
0.6247923095
 21
-5.8158435617
  0
LINE
  5
2E9
100
AcDbEntity
  8
0
100
AcDbLine
 62
7
  6
CONTINUOUS
 10
1.4567071546
 20
-5.6741768275
 11
1.3481965292
 21
-5.6741768275
  0
LINE
  5
2EA
100
AcDbEntity
  8
ASSI
100
AcDbLine
 62
7
  6
CONTINUOUS
 10
1.4567071546
 20
-5.6741768275
 11
1.3481965292
 21
-5.6741768275
  0
LINE
  5
2EB
100
AcDbEntity
  8
0
100
AcDbLine
 62
7
  6
CONTINUOUS
 10
0.6971327264
 20
-5.6387602959
 11
0.6247923095
 21
-5.6387602959
  0
LINE
  5
2EC
100
AcDbEntity
  8
ASSI
100
AcDbLine
 62
7
  6
CONTINUOUS
 10
0.6971327264
 20
-5.6387602959
 11
0.6247923095
 21
-5.6387602959
  0
LINE
  5
2ED
100
AcDbEntity
  8
0
100
AcDbLine
 62
7
  6
CONTINUOUS
 10
-1.7369282933
 20
-5.7680595617
 11
-0.6269492933
 21
-5.8446315617
  0
LINE
  5
2EE
100
AcDbEntity
  8
ASSI
100
AcDbLine
 62
7
  6
CONTINUOUS
 10
-1.7369282933
 20
-5.7680595617
 11
-0.6269492933
 21
-5.8446315617
  0
LINE
  5
2EF
100
AcDbEntity
  8
0
100
AcDbLine
 62
7
  6
CONTINUOUS
 10
-2.3268122933
 20
-4.9701555617
 11
-1.3830432933
 21
-5.3249835617
  0
LINE
  5
2F0
100
AcDbEntity
  8
ASSI
100
AcDbLine
 62
7
  6
CONTINUOUS
 10
-2.3268122933
 20
-4.9701555617
 11
-1.3830432933
 21
-5.3249835617
  0
LINE
  5
2F1
100
AcDbEntity
  8
0
100
AcDbLine
 62
7
  6
CONTINUOUS
 10
0.1907497067
 20
-8.0470935617
 11
0.4439411659
 21
-8.2595935617
  0
LINE
  5
2F2
100
AcDbEntity
  8
ASSI
100
AcDbLine
 62
7
  6
CONTINUOUS
 10
0.1907497067
 20
-8.0470935617
 11
0.4439411659
 21
-8.2595935617
  0
LINE
  5
2F3
100
AcDbEntity
  8
0
100
AcDbLine
 62
7
  6
CONTINUOUS
 10
0.4801113743
 20
-8.0470935617
 11
0.7333029348
 21
-8.2595935617
  0
LINE
  5
2F4
100
AcDbEntity
  8
ASSI
100
AcDbLine
 62
7
  6
CONTINUOUS
 10
0.4801113743
 20
-8.0470935617
 11
0.7333029348
 21
-8.2595935617
  0
LINE
  5
2F5
100
AcDbEntity
  8
ASSI
100
AcDbLine
 62
253
  6
CONTINUOUS
 10
-4.5621502217
 20
5.7681428832
 11
-4.5674948646
 21
7.3955149865
  0
LINE
  5
2F6
100
AcDbEntity
  8
RACCORDO
100
AcDbLine
 62
253
  6
CONTINUOUS
 10
-5.7675101174
 20
-6.2744709924
 11
-5.7168018617
 21
-6.0184275617
  0
LINE
  5
2F7
100
AcDbEntity
  8
ASSI
100
AcDbLine
 62
253
  6
CONTINUOUS
 10
-5.7675101174
 20
-6.2744709924
 11
-5.7168018617
 21
-6.0184275617
  0
LINE
  5
2F8
100
AcDbEntity
  8
0
100
AcDbLine
 62
7
  6
CONTINUOUS
 10
-2.3268122933
 20
-4.6190885617
 11
-0.6269492933
 21
-4.4601315617
  0
LINE
  5
2F9
100
AcDbEntity
  8
ASSI
100
AcDbLine
 62
7
  6
CONTINUOUS
 10
-2.3268122933
 20
-4.6190885617
 11
-0.6269492933
 21
-4.4601315617
  0
LINE
  5
2FA
100
AcDbEntity
  8
0
100
AcDbLine
 62
7
  6
CONTINUOUS
 10
-1.7323012933
 20
-4.8801485617
 11
-0.6269492933
 21
-4.8072475617
  0
LINE
  5
2FB
100
AcDbEntity
  8
ASSI
100
AcDbLine
 62
7
  6
CONTINUOUS
 10
-1.7323012933
 20
-4.8801485617
 11
-0.6269492933
 21
-4.8072475617
  0
LINE
  5
2FC
100
AcDbEntity
  8
RACCORDO
100
AcDbLine
 62
253
  6
CONTINUOUS
 10
5.041239358
 20
-4.8426853477
 11
5.7402600554
 21
-4.8426853477
  0
LINE
  5
2FD
100
AcDbEntity
  8
ASSI
100
AcDbLine
 62
253
  6
CONTINUOUS
 10
5.041239358
 20
-4.8426853477
 11
5.7402600554
 21
-4.8426853477
  0
LINE
  5
2FE
100
AcDbEntity
  8
RACCORDO
100
AcDbLine
 62
253
  6
CONTINUOUS
 10
-5.4597399446
 20
-4.8426853477
 11
-6.158760642
 21
-4.8426853477
  0
LINE
  5
2FF
100
AcDbEntity
  8
ASSI
100
AcDbLine
 62
253
  6
CONTINUOUS
 10
-5.4597399446
 20
-4.8426853477
 11
-6.158760642
 21
-4.8426853477
  0
LINE
  5
300
100
AcDbEntity
  8
0
100
AcDbLine
 62
7
  6
CONTINUOUS
 10
0.6971327264
 20
-4.7887600933
 11
0.6247923095
 21
-4.7887600933
  0
LINE
  5
301
100
AcDbEntity
  8
ASSI
100
AcDbLine
 62
7
  6
CONTINUOUS
 10
0.6971327264
 20
-4.7887600933
 11
0.6247923095
 21
-4.7887600933
  0
LINE
  5
302
100
AcDbEntity
  8
0
100
AcDbLine
 62
7
  6
CONTINUOUS
 10
1.4567071546
 20
-4.7533435617
 11
1.3481965292
 21
-4.7533435617
  0
LINE
  5
303
100
AcDbEntity
  8
ASSI
100
AcDbLine
 62
7
  6
CONTINUOUS
 10
1.4567071546
 20
-4.7533435617
 11
1.3481965292
 21
-4.7533435617
  0
LINE
  5
304
100
AcDbEntity
  8
0
100
AcDbLine
 62
7
  6
CONTINUOUS
 10
0.7333029348
 20
-4.6116770302
 11
0.6247923095
 21
-4.6116770302
  0
LINE
  5
305
100
AcDbEntity
  8
ASSI
100
AcDbLine
 62
7
  6
CONTINUOUS
 10
0.7333029348
 20
-4.6116770302
 11
0.6247923095
 21
-4.6116770302
  0
LINE
  5
306
100
AcDbEntity
  8
0
100
AcDbLine
 62
7
  6
CONTINUOUS
 10
1.4567071546
 20
-4.5762600933
 11
1.3481965292
 21
-4.5762600933
  0
LINE
  5
307
100
AcDbEntity
  8
ASSI
100
AcDbLine
 62
7
  6
CONTINUOUS
 10
1.4567071546
 20
-4.5762600933
 11
1.3481965292
 21
-4.5762600933
  0
LINE
  5
308
100
AcDbEntity
  8
RACCORDO
100
AcDbLine
 62
253
  6
CONTINUOUS
 10
5.492128373
 20
-4.54273081
 11
5.2893710404
 21
-4.54273081
  0
LINE
  5
309
100
AcDbEntity
  8
ASSI
100
AcDbLine
 62
253
  6
CONTINUOUS
 10
5.492128373
 20
-4.54273081
 11
5.2893710404
 21
-4.54273081
  0
LINE
  5
30A
100
AcDbEntity
  8
RACCORDO
100
AcDbLine
 62
253
  6
CONTINUOUS
 10
-5.707871627
 20
-4.54273081
 11
-5.9106289596
 21
-4.54273081
  0
LINE
  5
30B
100
AcDbEntity
  8
ASSI
100
AcDbLine
 62
253
  6
CONTINUOUS
 10
-5.707871627
 20
-4.54273081
 11
-5.9106289596
 21
-4.54273081
  0
LINE
  5
30C
100
AcDbEntity
  8
RACCORDO
100
AcDbLine
 62
7
  6
CONTINUOUS
 10
5.5466453788
 20
-4.5154806122
 11
5.2348540346
 21
-4.5154806122
  0
LINE
  5
30D
100
AcDbEntity
  8
ASSI
100
AcDbLine
 62
7
  6
CONTINUOUS
 10
5.5466453788
 20
-4.5154806122
 11
5.2348540346
 21
-4.5154806122
  0
LINE
  5
30E
100
AcDbEntity
  8
RACCORDO
100
AcDbLine
 62
7
  6
CONTINUOUS
 10
-5.6533546212
 20
-4.5154806122
 11
-5.9651459654
 21
-4.5154806122
  0
LINE
  5
30F
100
AcDbEntity
  8
ASSI
100
AcDbLine
 62
7
  6
CONTINUOUS
 10
-5.6533546212
 20
-4.5154806122
 11
-5.9651459654
 21
-4.5154806122
  0
LINE
  5
310
100
AcDbEntity
  8
0
100
AcDbLine
 62
7
  6
CONTINUOUS
 10
1.3843667377
 20
-4.2929270302
 11
1.1673454363
 21
-4.2929270302
  0
LINE
  5
311
100
AcDbEntity
  8
ASSI
100
AcDbLine
 62
7
  6
CONTINUOUS
 10
1.3843667377
 20
-4.2929270302
 11
1.1673454363
 21
-4.2929270302
  0
LINE
  5
312
100
AcDbEntity
  8
0
100
AcDbLine
 62
7
  6
CONTINUOUS
 10
-2.3268122933
 20
-3.8712295617
 11
-0.6269492933
 21
-4.4044145617
  0
LINE
  5
313
100
AcDbEntity
  8
ASSI
100
AcDbLine
 62
7
  6
CONTINUOUS
 10
-2.3268122933
 20
-3.8712295617
 11
-0.6269492933
 21
-4.4044145617
  0
LINE
  5
314
100
AcDbEntity
  8
0
100
AcDbLine
 62
7
  6
CONTINUOUS
 10
-1.7323012933
 20
-4.8801485617
 11
-0.6269492933
 21
-5.3020395617
  0
LINE
  5
315
100
AcDbEntity
  8
ASSI
100
AcDbLine
 62
7
  6
CONTINUOUS
 10
-1.7323012933
 20
-4.8801485617
 11
-0.6269492933
 21
-5.3020395617
  0
LINE
  5
316
100
AcDbEntity
  8
0
100
AcDbLine
 62
7
  6
CONTINUOUS
 10
0.4439411659
 20
-5.7450102959
 11
0.6247923095
 21
-5.8158435617
  0
LINE
  5
317
100
AcDbEntity
  8
ASSI
100
AcDbLine
 62
7
  6
CONTINUOUS
 10
0.4439411659
 20
-5.7450102959
 11
0.6247923095
 21
-5.8158435617
  0
LINE
  5
318
100
AcDbEntity
  8
0
100
AcDbLine
 62
7
  6
CONTINUOUS
 10
1.1673454363
 20
-5.7804268275
 11
1.3481965292
 21
-5.8512602959
  0
LINE
  5
319
100
AcDbEntity
  8
ASSI
100
AcDbLine
 62
7
  6
CONTINUOUS
 10
1.1673454363
 20
-5.7804268275
 11
1.3481965292
 21
-5.8512602959
  0
LINE
  5
31A
100
AcDbEntity
  8
0
100
AcDbLine
 62
7
  6
CONTINUOUS
 10
0.5162815828
 20
-5.5679268275
 11
0.6247923095
 21
-5.6387602959
  0
LINE
  5
31B
100
AcDbEntity
  8
ASSI
100
AcDbLine
 62
7
  6
CONTINUOUS
 10
0.5162815828
 20
-5.5679268275
 11
0.6247923095
 21
-5.6387602959
  0
LINE
  5
31C
100
AcDbEntity
  8
0
100
AcDbLine
 62
7
  6
CONTINUOUS
 10
0.1907497067
 20
-6.7012601946
 11
1.1673454363
 21
-7.5512602453
  0
LINE
  5
31D
100
AcDbEntity
  8
ASSI
100
AcDbLine
 62
7
  6
CONTINUOUS
 10
0.1907497067
 20
-6.7012601946
 11
1.1673454363
 21
-7.5512602453
  0
LINE
  5
31E
100
AcDbEntity
  8
0
100
AcDbLine
 62
7
  6
CONTINUOUS
 10
0.4801113743
 20
-6.7012601946
 11
1.1673454363
 21
-7.3033435617
  0
LINE
  5
31F
100
AcDbEntity
  8
ASSI
100
AcDbLine
 62
7
  6
CONTINUOUS
 10
0.4801113743
 20
-6.7012601946
 11
1.1673454363
 21
-7.3033435617
  0
LINE
  5
320
100
AcDbEntity
  8
RACCORDO
100
AcDbLine
 62
7
  6
CONTINUOUS
 10
-10.1092502933
 20
9.9138212185
 11
-10.0393990491
 21
9.7740761527
  0
LINE
  5
321
100
AcDbEntity
  8
ASSI
100
AcDbLine
 62
7
  6
CONTINUOUS
 10
-10.1092502933
 20
9.9138212185
 11
-10.0393990491
 21
9.7740761527
  0
LINE
  5
322
100
AcDbEntity
  8
RACCORDO
100
AcDbLine
 62
253
  6
CONTINUOUS
 10
-4.1247203471
 20
-9.4842507204
 11
-4.1247203471
 21
-11.0406663315
  0
LINE
  5
323
100
AcDbEntity
  8
ASSI
100
AcDbLine
 62
253
  6
CONTINUOUS
 10
-4.1247203471
 20
-9.4842507204
 11
-4.1247203471
 21
-11.0406663315
  0
LINE
  5
324
100
AcDbEntity
  8
RACCORDO
100
AcDbLine
 62
253
  6
CONTINUOUS
 10
-4.0310958181
 20
7.3574870384
 11
-4.0310958181
 21
5.8056578381
  0
LINE
  5
325
100
AcDbEntity
  8
ASSI
100
AcDbLine
 62
253
  6
CONTINUOUS
 10
-4.0310958181
 20
7.3574870384
 11
-4.0310958181
 21
5.8056578381
  0
LINE
  5
326
100
AcDbEntity
  8
RACCORDO
100
AcDbLine
 62
253
  6
CONTINUOUS
 10
-3.9515152664
 20
-9.4965291765
 11
-3.9515152664
 21
-11.0459071094
  0
LINE
  5
327
100
AcDbEntity
  8
ASSI
100
AcDbLine
 62
253
  6
CONTINUOUS
 10
-3.9515152664
 20
-9.4965291765
 11
-3.9515152664
 21
-11.0459071094
  0
LINE
  5
328
100
AcDbEntity
  8
RACCORDO
100
AcDbLine
 62
253
  6
CONTINUOUS
 10
-3.7491880318
 20
7.3505938896
 11
-3.7491880318
 21
5.812550987
  0
LINE
  5
329
100
AcDbEntity
  8
ASSI
100
AcDbLine
 62
253
  6
CONTINUOUS
 10
-3.7491880318
 20
7.3505938896
 11
-3.7491880318
 21
5.812550987
  0
LINE
  5
32A
100
AcDbEntity
  8
DRAFT
100
AcDbLine
 62
7
  6
CONTINUOUS
 10
-3.2788860537
 20
7.3505938896
 11
-3.2788860537
 21
5.812550987
  0
LINE
  5
32B
100
AcDbEntity
  8
ASSI
100
AcDbLine
 62
7
  6
CONTINUOUS
 10
-3.2788860537
 20
7.3505938896
 11
-3.2788860537
 21
5.812550987
  0
LINE
  5
32C
100
AcDbEntity
  8
DRAFT
100
AcDbLine
 62
7
  6
CONTINUOUS
 10
-3.2092502933
 20
2.5333828372
 11
-3.2092502933
 21
5.7950906023
  0
LINE
  5
32D
100
AcDbEntity
  8
ASSI
100
AcDbLine
 62
7
  6
CONTINUOUS
 10
-3.2092502933
 20
2.5333828372
 11
-3.2092502933
 21
5.7950906023
  0
LINE
  5
32E
100
AcDbEntity
  8
DRAFT
100
AcDbLine
 62
7
  6
CONTINUOUS
 10
-3.2092502933
 20
7.3680542743
 11
-3.2092502933
 21
9.1175200654
  0
LINE
  5
32F
100
AcDbEntity
  8
ASSI
100
AcDbLine
 62
7
  6
CONTINUOUS
 10
-3.2092502933
 20
7.3680542743
 11
-3.2092502933
 21
9.1175200654
  0
LINE
  5
330
100
AcDbEntity
  8
RACCORDO
100
AcDbLine
 62
253
  6
CONTINUOUS
 10
-5.5176624106
 20
-6.5206729306
 11
-5.4597399446
 21
-6.2282024695
  0
LINE
  5
331
100
AcDbEntity
  8
ASSI
100
AcDbLine
 62
253
  6
CONTINUOUS
 10
-5.5176624106
 20
-6.5206729306
 11
-5.4597399446
 21
-6.2282024695
  0
LINE
  5
332
100
AcDbEntity
  8
0
100
AcDbLine
 62
7
  6
CONTINUOUS
 10
-0.9663022933
 20
-3.4723085617
 11
-0.6269492933
 21
-3.3803895617
  0
LINE
  5
333
100
AcDbEntity
  8
ASSI
100
AcDbLine
 62
7
  6
CONTINUOUS
 10
-0.9663022933
 20
-3.4723085617
 11
-0.6269492933
 21
-3.3803895617
  0
LINE
  5
334
100
AcDbEntity
  8
0
100
AcDbLine
 62
7
  6
CONTINUOUS
 10
-1.8597332933
 20
-3.7062695617
 11
-1.2288922933
 21
-3.5432215617
  0
LINE
  5
335
100
AcDbEntity
  8
ASSI
100
AcDbLine
 62
7
  6
CONTINUOUS
 10
-1.8597332933
 20
-3.7062695617
 11
-1.2288922933
 21
-3.5432215617
  0
LINE
  5
336
100
AcDbEntity
  8
0
100
AcDbLine
 62
7
  6
CONTINUOUS
 10
1.8907497067
 20
-3.4429270302
 11
1.3843667377
 21
-3.4429270302
  0
LINE
  5
337
100
AcDbEntity
  8
ASSI
100
AcDbLine
 62
7
  6
CONTINUOUS
 10
1.8907497067
 20
-3.4429270302
 11
1.3843667377
 21
-3.4429270302
  0
LINE
  5
338
100
AcDbEntity
  8
0
100
AcDbLine
 62
7
  6
CONTINUOUS
 10
1.1673454363
 20
-3.4429270302
 11
0.4801113743
 21
-3.4429270302
  0
LINE
  5
339
100
AcDbEntity
  8
ASSI
100
AcDbLine
 62
7
  6
CONTINUOUS
 10
1.1673454363
 20
-3.4429270302
 11
0.4801113743
 21
-3.4429270302
  0
LINE
  5
33A
100
AcDbEntity
  8
0
100
AcDbLine
 62
7
  6
CONTINUOUS
 10
1.8907497067
 20
-3.2304270302
 11
1.3843667377
 21
-3.2304270302
  0
LINE
  5
33B
100
AcDbEntity
  8
ASSI
100
AcDbLine
 62
7
  6
CONTINUOUS
 10
1.8907497067
 20
-3.2304270302
 11
1.3843667377
 21
-3.2304270302
  0
LINE
  5
33C
100
AcDbEntity
  8
0
100
AcDbLine
 62
7
  6
CONTINUOUS
 10
1.1673454363
 20
-3.2304270302
 11
0.1907497067
 21
-3.2304270302
  0
LINE
  5
33D
100
AcDbEntity
  8
ASSI
100
AcDbLine
 62
7
  6
CONTINUOUS
 10
1.1673454363
 20
-3.2304270302
 11
0.1907497067
 21
-3.2304270302
  0
LINE
  5
33E
100
AcDbEntity
  8
0
100
AcDbLine
 62
7
  6
CONTINUOUS
 10
-1.8597332933
 20
-3.7062695617
 11
-1.2288922933
 21
-3.8829435617
  0
LINE
  5
33F
100
AcDbEntity
  8
ASSI
100
AcDbLine
 62
7
  6
CONTINUOUS
 10
-1.8597332933
 20
-3.7062695617
 11
-1.2288922933
 21
-3.8829435617
  0
LINE
  5
340
100
AcDbEntity
  8
0
100
AcDbLine
 62
7
  6
CONTINUOUS
 10
-0.9663022933
 20
-3.9555255617
 11
-0.6269492933
 21
-4.0534365617
  0
LINE
  5
341
100
AcDbEntity
  8
ASSI
100
AcDbLine
 62
7
  6
CONTINUOUS
 10
-0.9663022933
 20
-3.9555255617
 11
-0.6269492933
 21
-4.0534365617
  0
LINE
  5
342
100
AcDbEntity
  8
0
100
AcDbLine
 62
7
  6
CONTINUOUS
 10
1.4567071546
 20
-4.5762600933
 11
1.6375582222
 21
-4.6470935617
  0
LINE
  5
343
100
AcDbEntity
  8
ASSI
100
AcDbLine
 62
7
  6
CONTINUOUS
 10
1.4567071546
 20
-4.5762600933
 11
1.6375582222
 21
-4.6470935617
  0
LINE
  5
344
100
AcDbEntity
  8
0
100
AcDbLine
 62
7
  6
CONTINUOUS
 10
0.7333029348
 20
-4.6116770302
 11
0.8779837687
 21
-4.6825100933
  0
LINE
  5
345
100
AcDbEntity
  8
ASSI
100
AcDbLine
 62
7
  6
CONTINUOUS
 10
0.7333029348
 20
-4.6116770302
 11
0.8779837687
 21
-4.6825100933
  0
LINE
  5
346
100
AcDbEntity
  8
0
100
AcDbLine
 62
7
  6
CONTINUOUS
 10
0.6971327264
 20
-4.7887600933
 11
0.8056433518
 21
-4.8595935617
  0
LINE
  5
347
100
AcDbEntity
  8
ASSI
100
AcDbLine
 62
7
  6
CONTINUOUS
 10
0.6971327264
 20
-4.7887600933
 11
0.8056433518
 21
-4.8595935617
  0
LINE
  5
348
100
AcDbEntity
  8
0
100
AcDbLine
 62
7
  6
CONTINUOUS
 10
1.2035156447
 20
-5.5679268275
 11
1.3481965292
 21
-5.6741768275
  0
LINE
  5
349
100
AcDbEntity
  8
ASSI
100
AcDbLine
 62
7
  6
CONTINUOUS
 10
1.2035156447
 20
-5.5679268275
 11
1.3481965292
 21
-5.6741768275
  0
LINE
  5
34A
100
AcDbEntity
  8
0
100
AcDbLine
 62
7
  6
CONTINUOUS
 10
0.3354305405
 20
-5.6387602959
 11
0.4439411659
 21
-5.7450102959
  0
LINE
  5
34B
100
AcDbEntity
  8
ASSI
100
AcDbLine
 62
7
  6
CONTINUOUS
 10
0.3354305405
 20
-5.6387602959
 11
0.4439411659
 21
-5.7450102959
  0
LINE
  5
34C
100
AcDbEntity
  8
DRAFT
100
AcDbLine
 62
7
  6
CONTINUOUS
 10
-3.1767053582
 20
4.1641173734
 11
-3.1767053582
 21
5.7950906023
  0
LINE
  5
34D
100
AcDbEntity
  8
DRAFT
100
AcDbLine
 62
7
  6
CONTINUOUS
 10
-3.1767053582
 20
7.3680542743
 11
-3.1767053582
 21
8.9990275032
  0
LINE
  5
34E
100
AcDbEntity
  8
DRAFT
100
AcDbLine
 62
7
  6
CONTINUOUS
 10
-3.1092502933
 20
7.3590539688
 11
-3.1092502933
 21
5.8040909077
  0
LINE
  5
34F
100
AcDbEntity
  8
ASSI
100
AcDbLine
 62
7
  6
CONTINUOUS
 10
-3.1092502933
 20
7.3590539688
 11
-3.1092502933
 21
5.8040909077
  0
LINE
  5
350
100
AcDbEntity
  8
DRAFT
100
AcDbLine
 62
7
  6
CONTINUOUS
 10
-2.7092502933
 20
4.1641173734
 11
-2.7092502933
 21
8.9990275032
  0
LINE
  5
351
100
AcDbEntity
  8
DRAFT
100
AcDbLine
 62
7
  6
CONTINUOUS
 10
-2.7057592803
 20
9.0025185162
 11
-2.7057592803
 21
4.1606263604
  0
LINE
  5
352
100
AcDbEntity
  8
0
100
AcDbLine
 62
7
  6
CONTINUOUS
 10
-2.3269142933
 20
-6.3751015617
 11
-2.3269142933
 21
-6.7299295617
  0
LINE
  5
353
100
AcDbEntity
  8
ASSI
100
AcDbLine
 62
7
  6
CONTINUOUS
 10
-2.3269142933
 20
-6.3751015617
 11
-2.3269142933
 21
-6.7299295617
  0
LINE
  5
354
100
AcDbEntity
  8
0
100
AcDbLine
 62
7
  6
CONTINUOUS
 10
-2.3268122933
 20
-3.5279755617
 11
-2.3268122933
 21
-3.8712295617
  0
LINE
  5
355
100
AcDbEntity
  8
ASSI
100
AcDbLine
 62
7
  6
CONTINUOUS
 10
-2.3268122933
 20
-3.5279755617
 11
-2.3268122933
 21
-3.8712295617
  0
LINE
  5
356
100
AcDbEntity
  8
0
100
AcDbLine
 62
7
  6
CONTINUOUS
 10
-2.3268122933
 20
-4.6190885617
 11
-2.3268122933
 21
-4.9701555617
  0
LINE
  5
357
100
AcDbEntity
  8
ASSI
100
AcDbLine
 62
7
  6
CONTINUOUS
 10
-2.3268122933
 20
-4.6190885617
 11
-2.3268122933
 21
-4.9701555617
  0
LINE
  5
358
100
AcDbEntity
  8
0
100
AcDbLine
 62
7
  6
CONTINUOUS
 10
-2.3268122933
 20
-5.6760645617
 11
-2.3268122933
 21
-6.0305995617
  0
LINE
  5
359
100
AcDbEntity
  8
ASSI
100
AcDbLine
 62
7
  6
CONTINUOUS
 10
-2.3268122933
 20
-5.6760645617
 11
-2.3268122933
 21
-6.0305995617
  0
LINE
  5
35A
100
AcDbEntity
  8
0
100
AcDbLine
 62
7
  6
CONTINUOUS
 10
-2.3268122933
 20
-6.8616075617
 11
-2.3268122933
 21
-7.2161935617
  0
LINE
  5
35B
100
AcDbEntity
  8
ASSI
100
AcDbLine
 62
7
  6
CONTINUOUS
 10
-2.3268122933
 20
-6.8616075617
 11
-2.3268122933
 21
-7.2161935617
  0
LINE
  5
35C
100
AcDbEntity
  8
0
100
AcDbLine
 62
7
  6
CONTINUOUS
 10
-2.3268122933
 20
-7.8741405617
 11
-2.3268122933
 21
-8.2595935617
  0
LINE
  5
35D
100
AcDbEntity
  8
ASSI
100
AcDbLine
 62
7
  6
CONTINUOUS
 10
-2.3268122933
 20
-7.8741405617
 11
-2.3268122933
 21
-8.2595935617
  0
LINE
  5
35E
100
AcDbEntity
  8
DRAFT
100
AcDbLine
 62
7
  6
CONTINUOUS
 10
-3.6008253003
 20
-11.0777402674
 11
-3.5255318165
 21
-9.5871226924
  0
LINE
  5
35F
100
AcDbEntity
  8
ASSI
100
AcDbLine
 62
7
  6
CONTINUOUS
 10
-3.6008253003
 20
-11.0777402674
 11
-3.5255318165
 21
-9.5871226924
  0
LINE
  5
360
100
AcDbEntity
  8
RACCORDO
100
AcDbLine
 62
7
  6
CONTINUOUS
 10
-5.4151372161
 20
-9.2241279254
 11
-5.4891179193
 21
-9.4842507204
  0
LINE
  5
361
100
AcDbEntity
  8
ASSI
100
AcDbLine
 62
7
  6
CONTINUOUS
 10
-5.4151372161
 20
-9.2241279254
 11
-5.4891179193
 21
-9.4842507204
  0
LINE
  5
362
100
AcDbEntity
  8
RACCORDO
100
AcDbLine
 62
7
  6
CONTINUOUS
 10
6.5263917636
 20
9.7672144952
 11
6.5581255628
 21
9.7989482944
  0
LINE
  5
363
100
AcDbEntity
  8
ASSI
100
AcDbLine
 62
7
  6
CONTINUOUS
 10
6.5263917636
 20
9.7672144952
 11
6.5581255628
 21
9.7989482944
  0
LINE
  5
364
100
AcDbEntity
  8
DRAFT
100
AcDbLine
 62
7
  6
CONTINUOUS
 10
-10.0923733942
 20
-3.0184275617
 11
-9.7092502933
 21
-3.0184275617
  0
LINE
  5
365
100
AcDbEntity
  8
ASSI
100
AcDbLine
 62
7
  6
CONTINUOUS
 10
-10.0923733942
 20
-3.0184275617
 11
-9.7092502933
 21
-3.0184275617
  0
LINE
  5
366
100
AcDbEntity
  8
DRAFT
100
AcDbLine
 62
7
  6
CONTINUOUS
 10
9.2907497067
 20
-3.0184275617
 11
9.6738728077
 21
-3.0184275617
  0
LINE
  5
367
100
AcDbEntity
  8
ASSI
100
AcDbLine
 62
7
  6
CONTINUOUS
 10
9.2907497067
 20
-3.0184275617
 11
9.6738728077
 21
-3.0184275617
  0
LINE
  5
368
100
AcDbEntity
  8
0
100
AcDbLine
 62
7
  6
CONTINUOUS
 10
-2.3069523755
 20
-2.9022208978
 11
-0.6269496066
 21
-2.9022208978
  0
LINE
  5
369
100
AcDbEntity
  8
ASSI
100
AcDbLine
 62
7
  6
CONTINUOUS
 10
-2.3069523755
 20
-2.9022208978
 11
-0.6269496066
 21
-2.9022208978
  0
LINE
  5
36A
100
AcDbEntity
  8
0
100
AcDbLine
 62
7
  6
CONTINUOUS
 10
1.3843667377
 20
-2.8762600933
 11
1.1673454363
 21
-2.8762600933
  0
LINE
  5
36B
100
AcDbEntity
  8
ASSI
100
AcDbLine
 62
7
  6
CONTINUOUS
 10
1.3843667377
 20
-2.8762600933
 11
1.1673454363
 21
-2.8762600933
  0
LINE
  5
36C
100
AcDbEntity
  8
0
100
AcDbLine
 62
7
  6
CONTINUOUS
 10
0.7333029348
 20
-2.5929270302
 11
0.4439411659
 21
-2.5929270302
  0
LINE
  5
36D
100
AcDbEntity
  8
ASSI
100
AcDbLine
 62
7
  6
CONTINUOUS
 10
0.7333029348
 20
-2.5929270302
 11
0.4439411659
 21
-2.5929270302
  0
LINE
  5
36E
100
AcDbEntity
  8
0
100
AcDbLine
 62
7
  6
CONTINUOUS
 10
-2.0372239443
 20
-2.5605861301
 11
-1.5705784618
 21
-2.5605861301
  0
LINE
  5
36F
100
AcDbEntity
  8
ASSI
100
AcDbLine
 62
7
  6
CONTINUOUS
 10
-2.0372239443
 20
-2.5605861301
 11
-1.5705784618
 21
-2.5605861301
  0
LINE
  5
370
100
AcDbEntity
  8
0
100
AcDbLine
 62
7
  6
CONTINUOUS
 10
-1.2921820092
 20
-2.5488205657
 11
-0.6269496066
 21
-2.5488205657
  0
LINE
  5
371
100
AcDbEntity
  8
ASSI
100
AcDbLine
 62
7
  6
CONTINUOUS
 10
-1.2921820092
 20
-2.5488205657
 11
-0.6269496066
 21
-2.5488205657
  0
LINE
  5
372
100
AcDbEntity
  8
0
100
AcDbLine
 62
7
  6
CONTINUOUS
 10
1.8907497067
 20
-2.3804270302
 11
0.4801113743
 21
-2.3804270302
  0
LINE
  5
373
100
AcDbEntity
  8
ASSI
100
AcDbLine
 62
7
  6
CONTINUOUS
 10
1.8907497067
 20
-2.3804270302
 11
0.4801113743
 21
-2.3804270302
  0
LINE
  5
374
100
AcDbEntity
  8
0
100
AcDbLine
 62
7
  6
CONTINUOUS
 10
1.8907497067
 20
-2.1679270302
 11
0.1907497067
 21
-2.1679270302
  0
LINE
  5
375
100
AcDbEntity
  8
ASSI
100
AcDbLine
 62
7
  6
CONTINUOUS
 10
1.8907497067
 20
-2.1679270302
 11
0.1907497067
 21
-2.1679270302
  0
LINE
  5
376
100
AcDbEntity
  8
DRAFT
100
AcDbLine
 62
7
  6
CONTINUOUS
 10
10.9407497067
 20
-2.0184275617
 11
9.6907497067
 21
-2.0184275617
  0
LINE
  5
377
100
AcDbEntity
  8
ASSI
100
AcDbLine
 62
7
  6
CONTINUOUS
 10
10.9407497067
 20
-2.0184275617
 11
9.6907497067
 21
-2.0184275617
  0
LINE
  5
378
100
AcDbEntity
  8
DRAFT
100
AcDbLine
 62
7
  6
CONTINUOUS
 10
-10.1092502933
 20
-2.0184275617
 11
-11.3592502933
 21
-2.0184275617
  0
LINE
  5
379
100
AcDbEntity
  8
ASSI
100
AcDbLine
 62
7
  6
CONTINUOUS
 10
-10.1092502933
 20
-2.0184275617
 11
-11.3592502933
 21
-2.0184275617
  0
LINE
  5
37A
100
AcDbEntity
  8
0
100
AcDbLine
 62
7
  6
CONTINUOUS
 10
1.4567071546
 20
-4.7533435617
 11
1.6013880137
 21
-4.8595935617
  0
LINE
  5
37B
100
AcDbEntity
  8
ASSI
100
AcDbLine
 62
7
  6
CONTINUOUS
 10
1.4567071546
 20
-4.7533435617
 11
1.6013880137
 21
-4.8595935617
  0
LINE
  5
37C
100
AcDbEntity
  8
0
100
AcDbLine
 62
7
  6
CONTINUOUS
 10
0.1907497067
 20
-3.4429270302
 11
1.1673454363
 21
-4.2929270302
  0
LINE
  5
37D
100
AcDbEntity
  8
ASSI
100
AcDbLine
 62
7
  6
CONTINUOUS
 10
0.1907497067
 20
-3.4429270302
 11
1.1673454363
 21
-4.2929270302
  0
LINE
  5
37E
100
AcDbEntity
  8
0
100
AcDbLine
 62
7
  6
CONTINUOUS
 10
0.4801113743
 20
-3.4429270302
 11
1.1673454363
 21
-4.0450100933
  0
LINE
  5
37F
100
AcDbEntity
  8
ASSI
100
AcDbLine
 62
7
  6
CONTINUOUS
 10
0.4801113743
 20
-3.4429270302
 11
1.1673454363
 21
-4.0450100933
  0
LINE
  5
380
100
AcDbEntity
  8
0
100
AcDbLine
 62
7
  6
CONTINUOUS
 10
0.8779837687
 20
-4.6825100933
 11
0.986494394
 21
-4.7887600933
  0
LINE
  5
381
100
AcDbEntity
  8
ASSI
100
AcDbLine
 62
7
  6
CONTINUOUS
 10
0.8779837687
 20
-4.6825100933
 11
0.986494394
 21
-4.7887600933
  0
LINE
  5
382
100
AcDbEntity
  8
0
100
AcDbLine
 62
7
  6
CONTINUOUS
 10
1.6375582222
 20
-4.6470935617
 11
1.7460688602
 21
-4.7533435617
  0
LINE
  5
383
100
AcDbEntity
  8
ASSI
100
AcDbLine
 62
7
  6
CONTINUOUS
 10
1.6375582222
 20
-4.6470935617
 11
1.7460688602
 21
-4.7533435617
  0
LINE
  5
384
100
AcDbEntity
  8
0
100
AcDbLine
 62
7
  6
CONTINUOUS
 10
0.4077709574
 20
-5.4262602959
 11
0.5162815828
 21
-5.5679268275
  0
LINE
  5
385
100
AcDbEntity
  8
ASSI
100
AcDbLine
 62
7
  6
CONTINUOUS
 10
0.4077709574
 20
-5.4262602959
 11
0.5162815828
 21
-5.5679268275
  0
LINE
  5
386
100
AcDbEntity
  8
0
100
AcDbLine
 62
7
  6
CONTINUOUS
 10
1.0588348109
 20
-5.6387602959
 11
1.1673454363
 21
-5.7804268275
  0
LINE
  5
387
100
AcDbEntity
  8
ASSI
100
AcDbLine
 62
7
  6
CONTINUOUS
 10
1.0588348109
 20
-5.6387602959
 11
1.1673454363
 21
-5.7804268275
  0
LINE
  5
388
100
AcDbEntity
  8
0
100
AcDbLine
 62
7
  6
CONTINUOUS
 10
0.8056433518
 20
-4.8595935617
 11
0.9141539771
 21
-5.0012602959
  0
LINE
  5
389
100
AcDbEntity
  8
ASSI
100
AcDbLine
 62
7
  6
CONTINUOUS
 10
0.8056433518
 20
-4.8595935617
 11
0.9141539771
 21
-5.0012602959
  0
LINE
  5
38A
100
AcDbEntity
  8
0
100
AcDbLine
 62
7
  6
CONTINUOUS
 10
0.2269199152
 20
-5.4616768275
 11
0.3354305405
 21
-5.6387602959
  0
LINE
  5
38B
100
AcDbEntity
  8
ASSI
100
AcDbLine
 62
7
  6
CONTINUOUS
 10
0.2269199152
 20
-5.4616768275
 11
0.3354305405
 21
-5.6387602959
  0
LINE
  5
38C
100
AcDbEntity
  8
0
100
AcDbLine
 62
7
  6
CONTINUOUS
 10
-1.5705784618
 20
-2.3578054173
 11
-1.5705784618
 21
-2.5605861301
  0
LINE
  5
38D
100
AcDbEntity
  8
ASSI
100
AcDbLine
 62
7
  6
CONTINUOUS
 10
-1.5705784618
 20
-2.3578054173
 11
-1.5705784618
 21
-2.5605861301
  0
LINE
  5
38E
100
AcDbEntity
  8
0
100
AcDbLine
 62
7
  6
CONTINUOUS
 10
-1.2921820092
 20
-2.3585702427
 11
-1.2921820092
 21
-2.5488205657
  0
LINE
  5
38F
100
AcDbEntity
  8
ASSI
100
AcDbLine
 62
7
  6
CONTINUOUS
 10
-1.2921820092
 20
-2.3585702427
 11
-1.2921820092
 21
-2.5488205657
  0
LINE
  5
390
100
AcDbEntity
  8
0
100
AcDbLine
 62
7
  6
CONTINUOUS
 10
-1.2288922933
 20
-3.5432215617
 11
-1.2288922933
 21
-3.8829435617
  0
LINE
  5
391
100
AcDbEntity
  8
ASSI
100
AcDbLine
 62
7
  6
CONTINUOUS
 10
-1.2288922933
 20
-3.5432215617
 11
-1.2288922933
 21
-3.8829435617
  0
LINE
  5
392
100
AcDbEntity
  8
DRAFT
100
AcDbLine
 62
7
  6
CONTINUOUS
 10
2.2872586937
 20
4.1606263604
 11
2.2907497067
 21
4.1641173734
  0
LINE
  5
393
100
AcDbEntity
  8
0
100
AcDbLine
 62
7
  6
CONTINUOUS
 10
-1.4304751921
 20
-1.989975379
 11
-1.4204304849
 21
-1.989975379
  0
LINE
  5
394
100
AcDbEntity
  8
ASSI
100
AcDbLine
 62
7
  6
CONTINUOUS
 10
-1.4304751921
 20
-1.989975379
 11
-1.4204304849
 21
-1.989975379
  0
LINE
  5
395
100
AcDbEntity
  8
RACCORDO
100
AcDbLine
 62
253
  6
CONTINUOUS
 10
4.9851295137
 20
-4.7655041101
 11
5.0395237921
 21
-4.7926929629
  0
LINE
  5
396
100
AcDbEntity
  8
ASSI
100
AcDbLine
 62
253
  6
CONTINUOUS
 10
4.9851295137
 20
-4.7655041101
 11
5.0395237921
 21
-4.7926929629
  0
LINE
  5
397
100
AcDbEntity
  8
RACCORDO
100
AcDbLine
 62
253
  6
CONTINUOUS
 10
5.2348540346
 20
-4.5154806122
 11
5.2893710404
 21
-4.54273081
  0
LINE
  5
398
100
AcDbEntity
  8
ASSI
100
AcDbLine
 62
253
  6
CONTINUOUS
 10
5.2348540346
 20
-4.5154806122
 11
5.2893710404
 21
-4.54273081
  0
LINE
  5
399
100
AcDbEntity
  8
0
100
AcDbLine
 62
7
  6
CONTINUOUS
 10
0.1907497067
 20
-2.3804270302
 11
0.4439411659
 21
-2.5929270302
  0
LINE
  5
39A
100
AcDbEntity
  8
ASSI
100
AcDbLine
 62
7
  6
CONTINUOUS
 10
0.1907497067
 20
-2.3804270302
 11
0.4439411659
 21
-2.5929270302
  0
LINE
  5
39B
100
AcDbEntity
  8
0
100
AcDbLine
 62
7
  6
CONTINUOUS
 10
0.4801113743
 20
-2.3804270302
 11
0.7333029348
 21
-2.5929270302
  0
LINE
  5
39C
100
AcDbEntity
  8
ASSI
100
AcDbLine
 62
7
  6
CONTINUOUS
 10
0.4801113743
 20
-2.3804270302
 11
0.7333029348
 21
-2.5929270302
  0
LINE
  5
39D
100
AcDbEntity
  8
RACCORDO
100
AcDbLine
 62
253
  6
CONTINUOUS
 10
-7.2460012168
 20
4.8685061137
 11
-7.3011311521
 21
4.9236360489
  0
LINE
  5
39E
100
AcDbEntity
  8
ASSI
100
AcDbLine
 62
253
  6
CONTINUOUS
 10
-7.2460012168
 20
4.8685061137
 11
-7.3011311521
 21
4.9236360489
  0
LINE
  5
39F
100
AcDbEntity
  8
RACCORDO
100
AcDbLine
 62
253
  6
CONTINUOUS
 10
-6.9460566693
 20
5.1681960624
 11
-7.0013144315
 21
5.2234538246
  0
LINE
  5
3A0
100
AcDbEntity
  8
ASSI
100
AcDbLine
 62
253
  6
CONTINUOUS
 10
-6.9460566693
 20
5.1681960624
 11
-7.0013144315
 21
5.2234538246
  0
LINE
  5
3A1
100
AcDbEntity
  8
0
100
AcDbLine
 62
7
  6
CONTINUOUS
 10
1.0226646025
 20
-5.5679268275
 11
1.0588348109
 21
-5.6387602959
  0
LINE
  5
3A2
100
AcDbEntity
  8
ASSI
100
AcDbLine
 62
7
  6
CONTINUOUS
 10
1.0226646025
 20
-5.5679268275
 11
1.0588348109
 21
-5.6387602959
  0
LINE
  5
3A3
100
AcDbEntity
  8
0
100
AcDbLine
 62
7
  6
CONTINUOUS
 10
1.1311752278
 20
-5.4262602959
 11
1.2035156447
 21
-5.5679268275
  0
LINE
  5
3A4
100
AcDbEntity
  8
ASSI
100
AcDbLine
 62
7
  6
CONTINUOUS
 10
1.1311752278
 20
-5.4262602959
 11
1.2035156447
 21
-5.5679268275
  0
LINE
  5
3A5
100
AcDbEntity
  8
0
100
AcDbLine
 62
7
  6
CONTINUOUS
 10
0.986494394
 20
-4.7887600933
 11
1.0226646025
 21
-4.8595935617
  0
LINE
  5
3A6
100
AcDbEntity
  8
ASSI
100
AcDbLine
 62
7
  6
CONTINUOUS
 10
0.986494394
 20
-4.7887600933
 11
1.0226646025
 21
-4.8595935617
  0
LINE
  5
3A7
100
AcDbEntity
  8
0
100
AcDbLine
 62
7
  6
CONTINUOUS
 10
-0.9663022933
 20
-3.4723085617
 11
-0.9663022933
 21
-3.9555255617
  0
LINE
  5
3A8
100
AcDbEntity
  8
ASSI
100
AcDbLine
 62
7
  6
CONTINUOUS
 10
-0.9663022933
 20
-3.4723085617
 11
-0.9663022933
 21
-3.9555255617
  0
LINE
  5
3A9
100
AcDbEntity
  8
0
100
AcDbLine
 62
7
  6
CONTINUOUS
 10
-0.6269496066
 20
-1.6641470033
 11
-0.6269496066
 21
-2.0054503466
  0
LINE
  5
3AA
100
AcDbEntity
  8
ASSI
100
AcDbLine
 62
7
  6
CONTINUOUS
 10
-0.6269496066
 20
-1.6641470033
 11
-0.6269496066
 21
-2.0054503466
  0
LINE
  5
3AB
100
AcDbEntity
  8
0
100
AcDbLine
 62
7
  6
CONTINUOUS
 10
-0.6269496066
 20
-2.5488205657
 11
-0.6269496066
 21
-2.9022208978
  0
LINE
  5
3AC
100
AcDbEntity
  8
ASSI
100
AcDbLine
 62
7
  6
CONTINUOUS
 10
-0.6269496066
 20
-2.5488205657
 11
-0.6269496066
 21
-2.9022208978
  0
LINE
  5
3AD
100
AcDbEntity
  8
0
100
AcDbLine
 62
7
  6
CONTINUOUS
 10
-0.6269492933
 20
-3.0064155617
 11
-0.6269492933
 21
-3.3803895617
  0
LINE
  5
3AE
100
AcDbEntity
  8
ASSI
100
AcDbLine
 62
7
  6
CONTINUOUS
 10
-0.6269492933
 20
-3.0064155617
 11
-0.6269492933
 21
-3.3803895617
  0
LINE
  5
3AF
100
AcDbEntity
  8
0
100
AcDbLine
 62
7
  6
CONTINUOUS
 10
-0.6269492933
 20
-4.0534365617
 11
-0.6269492933
 21
-4.4044145617
  0
LINE
  5
3B0
100
AcDbEntity
  8
ASSI
100
AcDbLine
 62
7
  6
CONTINUOUS
 10
-0.6269492933
 20
-4.0534365617
 11
-0.6269492933
 21
-4.4044145617
  0
LINE
  5
3B1
100
AcDbEntity
  8
0
100
AcDbLine
 62
7
  6
CONTINUOUS
 10
-0.6269492933
 20
-4.4601315617
 11
-0.6269492933
 21
-4.8072475617
  0
LINE
  5
3B2
100
AcDbEntity
  8
ASSI
100
AcDbLine
 62
7
  6
CONTINUOUS
 10
-0.6269492933
 20
-4.4601315617
 11
-0.6269492933
 21
-4.8072475617
  0
LINE
  5
3B3
100
AcDbEntity
  8
0
100
AcDbLine
 62
7
  6
CONTINUOUS
 10
-0.6269492933
 20
-5.3020395617
 11
-0.6269492933
 21
-5.3518035617
  0
LINE
  5
3B4
100
AcDbEntity
  8
ASSI
100
AcDbLine
 62
7
  6
CONTINUOUS
 10
-0.6269492933
 20
-5.3020395617
 11
-0.6269492933
 21
-5.3518035617
  0
LINE
  5
3B5
100
AcDbEntity
  8
0
100
AcDbLine
 62
7
  6
CONTINUOUS
 10
-0.6269492933
 20
-5.8446315617
 11
-0.6269492933
 21
-6.1840865617
  0
LINE
  5
3B6
100
AcDbEntity
  8
ASSI
100
AcDbLine
 62
7
  6
CONTINUOUS
 10
-0.6269492933
 20
-5.8446315617
 11
-0.6269492933
 21
-6.1840865617
  0
LINE
  5
3B7
100
AcDbEntity
  8
0
100
AcDbLine
 62
7
  6
CONTINUOUS
 10
-0.6269492933
 20
-6.3751015617
 11
-0.6269492933
 21
-6.7299295617
  0
LINE
  5
3B8
100
AcDbEntity
  8
ASSI
100
AcDbLine
 62
7
  6
CONTINUOUS
 10
-0.6269492933
 20
-6.3751015617
 11
-0.6269492933
 21
-6.7299295617
  0
LINE
  5
3B9
100
AcDbEntity
  8
0
100
AcDbLine
 62
7
  6
CONTINUOUS
 10
-0.6269492933
 20
-7.4080115617
 11
-0.6269492933
 21
-7.7207035617
  0
LINE
  5
3BA
100
AcDbEntity
  8
ASSI
100
AcDbLine
 62
7
  6
CONTINUOUS
 10
-0.6269492933
 20
-7.4080115617
 11
-0.6269492933
 21
-7.7207035617
  0
LINE
  5
3BB
100
AcDbEntity
  8
0
100
AcDbLine
 62
7
  6
CONTINUOUS
 10
1.7460688602
 20
-4.7533435617
 11
1.8545794951
 21
-4.9304268275
  0
LINE
  5
3BC
100
AcDbEntity
  8
ASSI
100
AcDbLine
 62
7
  6
CONTINUOUS
 10
1.7460688602
 20
-4.7533435617
 11
1.8545794951
 21
-4.9304268275
  0
LINE
  5
3BD
100
AcDbEntity
  8
0
100
AcDbLine
 62
7
  6
CONTINUOUS
 10
1.6013880137
 20
-4.8595935617
 11
1.6737284306
 21
-5.0012602959
  0
LINE
  5
3BE
100
AcDbEntity
  8
ASSI
100
AcDbLine
 62
7
  6
CONTINUOUS
 10
1.6013880137
 20
-4.8595935617
 11
1.6737284306
 21
-5.0012602959
  0
LINE
  5
3BF
100
AcDbEntity
  8
0
100
AcDbLine
 62
7
  6
CONTINUOUS
 10
0.371600749
 20
-5.2845935617
 11
0.4077709574
 21
-5.4262602959
  0
LINE
  5
3C0
100
AcDbEntity
  8
ASSI
100
AcDbLine
 62
7
  6
CONTINUOUS
 10
0.371600749
 20
-5.2845935617
 11
0.4077709574
 21
-5.4262602959
  0
LINE
  5
3C1
100
AcDbEntity
  8
0
100
AcDbLine
 62
7
  6
CONTINUOUS
 10
0.9141539771
 20
-5.0012602959
 11
0.9503241856
 21
-5.1429268275
  0
LINE
  5
3C2
100
AcDbEntity
  8
ASSI
100
AcDbLine
 62
7
  6
CONTINUOUS
 10
0.9141539771
 20
-5.0012602959
 11
0.9503241856
 21
-5.1429268275
  0
LINE
  5
3C3
100
AcDbEntity
  8
0
100
AcDbLine
 62
7
  6
CONTINUOUS
 10
1.0950050194
 20
-5.2845935617
 11
1.1311752278
 21
-5.4262602959
  0
LINE
  5
3C4
100
AcDbEntity
  8
ASSI
100
AcDbLine
 62
7
  6
CONTINUOUS
 10
1.0950050194
 20
-5.2845935617
 11
1.1311752278
 21
-5.4262602959
  0
LINE
  5
3C5
100
AcDbEntity
  8
0
100
AcDbLine
 62
7
  6
CONTINUOUS
 10
0.1907497067
 20
-5.2845935617
 11
0.2269199152
 21
-5.4616768275
  0
LINE
  5
3C6
100
AcDbEntity
  8
ASSI
100
AcDbLine
 62
7
  6
CONTINUOUS
 10
0.1907497067
 20
-5.2845935617
 11
0.2269199152
 21
-5.4616768275
  0
LINE
  5
3C7
100
AcDbEntity
  8
0
100
AcDbLine
 62
7
  6
CONTINUOUS
 10
0.1907497067
 20
-2.1679270302
 11
0.1907497067
 21
-2.3804270302
  0
LINE
  5
3C8
100
AcDbEntity
  8
ASSI
100
AcDbLine
 62
7
  6
CONTINUOUS
 10
0.1907497067
 20
-2.1679270302
 11
0.1907497067
 21
-2.3804270302
  0
LINE
  5
3C9
100
AcDbEntity
  8
0
100
AcDbLine
 62
7
  6
CONTINUOUS
 10
0.1907497067
 20
-3.2304270302
 11
0.1907497067
 21
-3.4429270302
  0
LINE
  5
3CA
100
AcDbEntity
  8
ASSI
100
AcDbLine
 62
7
  6
CONTINUOUS
 10
0.1907497067
 20
-3.2304270302
 11
0.1907497067
 21
-3.4429270302
  0
LINE
  5
3CB
100
AcDbEntity
  8
0
100
AcDbLine
 62
7
  6
CONTINUOUS
 10
0.1907497067
 20
-5.1429268275
 11
0.1907497067
 21
-5.2845935617
  0
LINE
  5
3CC
100
AcDbEntity
  8
ASSI
100
AcDbLine
 62
7
  6
CONTINUOUS
 10
0.1907497067
 20
-5.1429268275
 11
0.1907497067
 21
-5.2845935617
  0
LINE
  5
3CD
100
AcDbEntity
  8
0
100
AcDbLine
 62
7
  6
CONTINUOUS
 10
0.1907497067
 20
-6.4887602959
 11
0.1907497067
 21
-6.7012601946
  0
LINE
  5
3CE
100
AcDbEntity
  8
ASSI
100
AcDbLine
 62
7
  6
CONTINUOUS
 10
0.1907497067
 20
-6.4887602959
 11
0.1907497067
 21
-6.7012601946
  0
LINE
  5
3CF
100
AcDbEntity
  8
0
100
AcDbLine
 62
7
  6
CONTINUOUS
 10
0.1907497067
 20
-7.8345935617
 11
0.1907497067
 21
-8.0470935617
  0
LINE
  5
3D0
100
AcDbEntity
  8
ASSI
100
AcDbLine
 62
7
  6
CONTINUOUS
 10
0.1907497067
 20
-7.8345935617
 11
0.1907497067
 21
-8.0470935617
  0
LINE
  5
3D1
100
AcDbEntity
  8
0
100
AcDbLine
 62
7
  6
CONTINUOUS
 10
0.371600749
 20
-5.1429268275
 11
0.371600749
 21
-5.2845935617
  0
LINE
  5
3D2
100
AcDbEntity
  8
ASSI
100
AcDbLine
 62
7
  6
CONTINUOUS
 10
0.371600749
 20
-5.1429268275
 11
0.371600749
 21
-5.2845935617
  0
LINE
  5
3D3
100
AcDbEntity
  8
0
100
AcDbLine
 62
7
  6
CONTINUOUS
 10
0.9503241856
 20
-5.1429268275
 11
0.9503241856
 21
-5.2845935617
  0
LINE
  5
3D4
100
AcDbEntity
  8
ASSI
100
AcDbLine
 62
7
  6
CONTINUOUS
 10
0.9503241856
 20
-5.1429268275
 11
0.9503241856
 21
-5.2845935617
  0
LINE
  5
3D5
100
AcDbEntity
  8
RACCORDO
100
AcDbLine
 62
253
  6
CONTINUOUS
 10
6.5828138449
 20
5.2234538246
 11
6.5275560827
 21
5.1681960624
  0
LINE
  5
3D6
100
AcDbEntity
  8
ASSI
100
AcDbLine
 62
253
  6
CONTINUOUS
 10
6.5828138449
 20
5.2234538246
 11
6.5275560827
 21
5.1681960624
  0
LINE
  5
3D7
100
AcDbEntity
  8
DRAFT
100
AcDbLine
 62
7
  6
CONTINUOUS
 10
-10.0923733942
 20
0.7815724383
 11
-9.7092502933
 21
0.7815724383
  0
LINE
  5
3D8
100
AcDbEntity
  8
ASSI
100
AcDbLine
 62
7
  6
CONTINUOUS
 10
-10.0923733942
 20
0.7815724383
 11
-9.7092502933
 21
0.7815724383
  0
LINE
  5
3D9
100
AcDbEntity
  8
DRAFT
100
AcDbLine
 62
7
  6
CONTINUOUS
 10
9.2907497067
 20
0.7815724383
 11
9.6738728077
 21
0.7815724383
  0
LINE
  5
3DA
100
AcDbEntity
  8
ASSI
100
AcDbLine
 62
7
  6
CONTINUOUS
 10
9.2907497067
 20
0.7815724383
 11
9.6738728077
 21
0.7815724383
  0
LINE
  5
3DB
100
AcDbEntity
  8
0
100
AcDbLine
 62
7
  6
CONTINUOUS
 10
1.6737284306
 20
-5.0012602959
 11
1.7098986391
 21
-5.1429268275
  0
LINE
  5
3DC
100
AcDbEntity
  8
ASSI
100
AcDbLine
 62
7
  6
CONTINUOUS
 10
1.6737284306
 20
-5.0012602959
 11
1.7098986391
 21
-5.1429268275
  0
LINE
  5
3DD
100
AcDbEntity
  8
0
100
AcDbLine
 62
7
  6
CONTINUOUS
 10
1.8545794951
 20
-4.9304268275
 11
1.8907497067
 21
-5.1075102959
  0
LINE
  5
3DE
100
AcDbEntity
  8
ASSI
100
AcDbLine
 62
7
  6
CONTINUOUS
 10
1.8545794951
 20
-4.9304268275
 11
1.8907497067
 21
-5.1075102959
  0
LINE
  5
3DF
100
AcDbEntity
  8
0
100
AcDbLine
 62
7
  6
CONTINUOUS
 10
1.0950050194
 20
-5.1429268275
 11
1.0950050194
 21
-5.2845935617
  0
LINE
  5
3E0
100
AcDbEntity
  8
ASSI
100
AcDbLine
 62
7
  6
CONTINUOUS
 10
1.0950050194
 20
-5.1429268275
 11
1.0950050194
 21
-5.2845935617
  0
LINE
  5
3E1
100
AcDbEntity
  8
0
100
AcDbLine
 62
7
  6
CONTINUOUS
 10
1.1673454363
 20
-2.8762600933
 11
1.1673454363
 21
-3.2304270302
  0
LINE
  5
3E2
100
AcDbEntity
  8
ASSI
100
AcDbLine
 62
7
  6
CONTINUOUS
 10
1.1673454363
 20
-2.8762600933
 11
1.1673454363
 21
-3.2304270302
  0
LINE
  5
3E3
100
AcDbEntity
  8
0
100
AcDbLine
 62
7
  6
CONTINUOUS
 10
1.1673454363
 20
-3.4429270302
 11
1.1673454363
 21
-4.0450100933
  0
LINE
  5
3E4
100
AcDbEntity
  8
ASSI
100
AcDbLine
 62
7
  6
CONTINUOUS
 10
1.1673454363
 20
-3.4429270302
 11
1.1673454363
 21
-4.0450100933
  0
LINE
  5
3E5
100
AcDbEntity
  8
0
100
AcDbLine
 62
7
  6
CONTINUOUS
 10
1.1673454363
 20
-6.1345935617
 11
1.1673454363
 21
-6.4887602959
  0
LINE
  5
3E6
100
AcDbEntity
  8
ASSI
100
AcDbLine
 62
7
  6
CONTINUOUS
 10
1.1673454363
 20
-6.1345935617
 11
1.1673454363
 21
-6.4887602959
  0
LINE
  5
3E7
100
AcDbEntity
  8
0
100
AcDbLine
 62
7
  6
CONTINUOUS
 10
1.1673454363
 20
-6.7012601946
 11
1.1673454363
 21
-7.3033435617
  0
LINE
  5
3E8
100
AcDbEntity
  8
ASSI
100
AcDbLine
 62
7
  6
CONTINUOUS
 10
1.1673454363
 20
-6.7012601946
 11
1.1673454363
 21
-7.3033435617
  0
LINE
  5
3E9
100
AcDbEntity
  8
0
100
AcDbLine
 62
7
  6
CONTINUOUS
 10
1.3843667377
 20
-2.8762600933
 11
1.3843667377
 21
-3.2304270302
  0
LINE
  5
3EA
100
AcDbEntity
  8
ASSI
100
AcDbLine
 62
7
  6
CONTINUOUS
 10
1.3843667377
 20
-2.8762600933
 11
1.3843667377
 21
-3.2304270302
  0
LINE
  5
3EB
100
AcDbEntity
  8
0
100
AcDbLine
 62
7
  6
CONTINUOUS
 10
1.3843667377
 20
-3.4429270302
 11
1.3843667377
 21
-4.2929270302
  0
LINE
  5
3EC
100
AcDbEntity
  8
ASSI
100
AcDbLine
 62
7
  6
CONTINUOUS
 10
1.3843667377
 20
-3.4429270302
 11
1.3843667377
 21
-4.2929270302
  0
LINE
  5
3ED
100
AcDbEntity
  8
0
100
AcDbLine
 62
7
  6
CONTINUOUS
 10
1.3843667377
 20
-6.1345935617
 11
1.3843667377
 21
-6.4887602959
  0
LINE
  5
3EE
100
AcDbEntity
  8
ASSI
100
AcDbLine
 62
7
  6
CONTINUOUS
 10
1.3843667377
 20
-6.1345935617
 11
1.3843667377
 21
-6.4887602959
  0
LINE
  5
3EF
100
AcDbEntity
  8
0
100
AcDbLine
 62
7
  6
CONTINUOUS
 10
1.3843667377
 20
-6.7012601946
 11
1.3843667377
 21
-7.5512602453
  0
LINE
  5
3F0
100
AcDbEntity
  8
ASSI
100
AcDbLine
 62
7
  6
CONTINUOUS
 10
1.3843667377
 20
-6.7012601946
 11
1.3843667377
 21
-7.5512602453
  0
LINE
  5
3F1
100
AcDbEntity
  8
0
100
AcDbLine
 62
7
  6
CONTINUOUS
 10
1.7098986391
 20
-5.1429268275
 11
1.7098986391
 21
-5.2845935617
  0
LINE
  5
3F2
100
AcDbEntity
  8
ASSI
100
AcDbLine
 62
7
  6
CONTINUOUS
 10
1.7098986391
 20
-5.1429268275
 11
1.7098986391
 21
-5.2845935617
  0
LINE
  5
3F3
100
AcDbEntity
  8
0
100
AcDbLine
 62
7
  6
CONTINUOUS
 10
1.8907497067
 20
-2.1679270302
 11
1.8907497067
 21
-2.3804270302
  0
LINE
  5
3F4
100
AcDbEntity
  8
ASSI
100
AcDbLine
 62
7
  6
CONTINUOUS
 10
1.8907497067
 20
-2.1679270302
 11
1.8907497067
 21
-2.3804270302
  0
LINE
  5
3F5
100
AcDbEntity
  8
0
100
AcDbLine
 62
7
  6
CONTINUOUS
 10
1.8907497067
 20
-3.2304270302
 11
1.8907497067
 21
-3.4429270302
  0
LINE
  5
3F6
100
AcDbEntity
  8
ASSI
100
AcDbLine
 62
7
  6
CONTINUOUS
 10
1.8907497067
 20
-3.2304270302
 11
1.8907497067
 21
-3.4429270302
  0
LINE
  5
3F7
100
AcDbEntity
  8
0
100
AcDbLine
 62
7
  6
CONTINUOUS
 10
1.8907497067
 20
-5.1075102959
 11
1.8907497067
 21
-5.3200102959
  0
LINE
  5
3F8
100
AcDbEntity
  8
ASSI
100
AcDbLine
 62
7
  6
CONTINUOUS
 10
1.8907497067
 20
-5.1075102959
 11
1.8907497067
 21
-5.3200102959
  0
LINE
  5
3F9
100
AcDbEntity
  8
0
100
AcDbLine
 62
7
  6
CONTINUOUS
 10
1.8907497067
 20
-6.4887602959
 11
1.8907497067
 21
-6.7012601946
  0
LINE
  5
3FA
100
AcDbEntity
  8
ASSI
100
AcDbLine
 62
7
  6
CONTINUOUS
 10
1.8907497067
 20
-6.4887602959
 11
1.8907497067
 21
-6.7012601946
  0
LINE
  5
3FB
100
AcDbEntity
  8
0
100
AcDbLine
 62
7
  6
CONTINUOUS
 10
1.8907497067
 20
-7.8345935617
 11
1.8907497067
 21
-8.0470935617
  0
LINE
  5
3FC
100
AcDbEntity
  8
ASSI
100
AcDbLine
 62
7
  6
CONTINUOUS
 10
1.8907497067
 20
-7.8345935617
 11
1.8907497067
 21
-8.0470935617
  0
LINE
  5
3FD
100
AcDbEntity
  8
0
100
AcDbLine
 62
7
  6
CONTINUOUS
 10
0.2269199152
 20
-4.9658435617
 11
0.1907497067
 21
-5.1429268275
  0
LINE
  5
3FE
100
AcDbEntity
  8
ASSI
100
AcDbLine
 62
7
  6
CONTINUOUS
 10
0.2269199152
 20
-4.9658435617
 11
0.1907497067
 21
-5.1429268275
  0
LINE
  5
3FF
100
AcDbEntity
  8
0
100
AcDbLine
 62
7
  6
CONTINUOUS
 10
0.4077709574
 20
-5.0012602959
 11
0.371600749
 21
-5.1429268275
  0
LINE
  5
400
100
AcDbEntity
  8
ASSI
100
AcDbLine
 62
7
  6
CONTINUOUS
 10
0.4077709574
 20
-5.0012602959
 11
0.371600749
 21
-5.1429268275
  0
LINE
  5
401
100
AcDbEntity
  8
RACCORDO
100
AcDbLine
 62
253
  6
CONTINUOUS
 10
6.8826305655
 20
4.9236360489
 11
6.8275006302
 21
4.8685061137
  0
LINE
  5
402
100
AcDbEntity
  8
ASSI
100
AcDbLine
 62
253
  6
CONTINUOUS
 10
6.8826305655
 20
4.9236360489
 11
6.8275006302
 21
4.8685061137
  0
LINE
  5
403
100
AcDbEntity
  8
RACCORDO
100
AcDbLine
 62
253
  6
CONTINUOUS
 10
-5.707871627
 20
-4.54273081
 11
-5.6533546212
 21
-4.5154806122
  0
LINE
  5
404
100
AcDbEntity
  8
ASSI
100
AcDbLine
 62
253
  6
CONTINUOUS
 10
-5.707871627
 20
-4.54273081
 11
-5.6533546212
 21
-4.5154806122
  0
LINE
  5
405
100
AcDbEntity
  8
RACCORDO
100
AcDbLine
 62
253
  6
CONTINUOUS
 10
-5.4580243787
 20
-4.7926929629
 11
-5.4036301003
 21
-4.7655041101
  0
LINE
  5
406
100
AcDbEntity
  8
ASSI
100
AcDbLine
 62
253
  6
CONTINUOUS
 10
-5.4580243787
 20
-4.7926929629
 11
-5.4036301003
 21
-4.7655041101
  0
LINE
  5
407
100
AcDbEntity
  8
DRAFT
100
AcDbLine
 62
7
  6
CONTINUOUS
 10
-2.7057592803
 20
4.1606263604
 11
-2.7092502933
 21
4.1641173734
  0
LINE
  5
408
100
AcDbEntity
  8
RACCORDO
100
AcDbLine
 62
7
  6
CONTINUOUS
 10
-6.9766261494
 20
9.7989482944
 11
-6.9448923502
 21
9.7672144952
  0
LINE
  5
409
100
AcDbEntity
  8
ASSI
100
AcDbLine
 62
7
  6
CONTINUOUS
 10
-6.9766261494
 20
9.7989482944
 11
-6.9448923502
 21
9.7672144952
  0
LINE
  5
40A
100
AcDbEntity
  8
DRAFT
100
AcDbLine
 62
7
  6
CONTINUOUS
 10
3.1823247137
 20
-11.0777402674
 11
3.1070312299
 21
-9.5871226924
  0
LINE
  5
40B
100
AcDbEntity
  8
ASSI
100
AcDbLine
 62
7
  6
CONTINUOUS
 10
3.1823247137
 20
-11.0777402674
 11
3.1070312299
 21
-9.5871226924
  0
LINE
  5
40C
100
AcDbEntity
  8
DRAFT
100
AcDbLine
 62
7
  6
CONTINUOUS
 10
2.2872586937
 20
9.0025185162
 11
2.2872586937
 21
4.1606263604
  0
LINE
  5
40D
100
AcDbEntity
  8
DRAFT
100
AcDbLine
 62
7
  6
CONTINUOUS
 10
2.2907497067
 20
4.1641173734
 11
2.2907497067
 21
8.9990275032
  0
LINE
  5
40E
100
AcDbEntity
  8
DRAFT
100
AcDbLine
 62
7
  6
CONTINUOUS
 10
2.6907497067
 20
7.3590539688
 11
2.6907497067
 21
5.8040909077
  0
LINE
  5
40F
100
AcDbEntity
  8
ASSI
100
AcDbLine
 62
7
  6
CONTINUOUS
 10
2.6907497067
 20
7.3590539688
 11
2.6907497067
 21
5.8040909077
  0
LINE
  5
410
100
AcDbEntity
  8
DRAFT
100
AcDbLine
 62
7
  6
CONTINUOUS
 10
2.7582047716
 20
8.9990275032
 11
2.7582047716
 21
7.3680542743
  0
LINE
  5
411
100
AcDbEntity
  8
DRAFT
100
AcDbLine
 62
7
  6
CONTINUOUS
 10
2.7582047716
 20
5.7950906023
 11
2.7582047716
 21
4.1641173734
  0
LINE
  5
412
100
AcDbEntity
  8
DRAFT
100
AcDbLine
 62
7
  6
CONTINUOUS
 10
2.7907497067
 20
2.5333828372
 11
2.7907497067
 21
5.7950906023
  0
LINE
  5
413
100
AcDbEntity
  8
ASSI
100
AcDbLine
 62
7
  6
CONTINUOUS
 10
2.7907497067
 20
2.5333828372
 11
2.7907497067
 21
5.7950906023
  0
LINE
  5
414
100
AcDbEntity
  8
DRAFT
100
AcDbLine
 62
7
  6
CONTINUOUS
 10
2.7907497067
 20
7.3680542743
 11
2.7907497067
 21
9.1175200654
  0
LINE
  5
415
100
AcDbEntity
  8
ASSI
100
AcDbLine
 62
7
  6
CONTINUOUS
 10
2.7907497067
 20
7.3680542743
 11
2.7907497067
 21
9.1175200654
  0
LINE
  5
416
100
AcDbEntity
  8
DRAFT
100
AcDbLine
 62
7
  6
CONTINUOUS
 10
2.8603854671
 20
7.3505938896
 11
2.8603854671
 21
5.812550987
  0
LINE
  5
417
100
AcDbEntity
  8
ASSI
100
AcDbLine
 62
7
  6
CONTINUOUS
 10
2.8603854671
 20
7.3505938896
 11
2.8603854671
 21
5.812550987
  0
LINE
  5
418
100
AcDbEntity
  8
0
100
AcDbLine
 62
7
  6
CONTINUOUS
 10
1.8907497067
 20
-5.3200102959
 11
1.8545794951
 21
-5.4970935617
  0
LINE
  5
419
100
AcDbEntity
  8
ASSI
100
AcDbLine
 62
7
  6
CONTINUOUS
 10
1.8907497067
 20
-5.3200102959
 11
1.8545794951
 21
-5.4970935617
  0
LINE
  5
41A
100
AcDbEntity
  8
0
100
AcDbLine
 62
7
  6
CONTINUOUS
 10
0.9503241856
 20
-5.2845935617
 11
0.9141539771
 21
-5.4262602959
  0
LINE
  5
41B
100
AcDbEntity
  8
ASSI
100
AcDbLine
 62
7
  6
CONTINUOUS
 10
0.9503241856
 20
-5.2845935617
 11
0.9141539771
 21
-5.4262602959
  0
LINE
  5
41C
100
AcDbEntity
  8
0
100
AcDbLine
 62
7
  6
CONTINUOUS
 10
1.1311752278
 20
-5.0012602959
 11
1.0950050194
 21
-5.1429268275
  0
LINE
  5
41D
100
AcDbEntity
  8
ASSI
100
AcDbLine
 62
7
  6
CONTINUOUS
 10
1.1311752278
 20
-5.0012602959
 11
1.0950050194
 21
-5.1429268275
  0
LINE
  5
41E
100
AcDbEntity
  8
0
100
AcDbLine
 62
7
  6
CONTINUOUS
 10
1.7098986391
 20
-5.2845935617
 11
1.6737284306
 21
-5.4262602959
  0
LINE
  5
41F
100
AcDbEntity
  8
ASSI
100
AcDbLine
 62
7
  6
CONTINUOUS
 10
1.7098986391
 20
-5.2845935617
 11
1.6737284306
 21
-5.4262602959
  0
LINE
  5
420
100
AcDbEntity
  8
0
100
AcDbLine
 62
7
  6
CONTINUOUS
 10
0.3354305405
 20
-4.7887600933
 11
0.2269199152
 21
-4.9658435617
  0
LINE
  5
421
100
AcDbEntity
  8
ASSI
100
AcDbLine
 62
7
  6
CONTINUOUS
 10
0.3354305405
 20
-4.7887600933
 11
0.2269199152
 21
-4.9658435617
  0
LINE
  5
422
100
AcDbEntity
  8
0
100
AcDbLine
 62
7
  6
CONTINUOUS
 10
-2.3268122933
 20
-3.5279755617
 11
-0.6269492933
 21
-3.0064155617
  0
LINE
  5
423
100
AcDbEntity
  8
ASSI
100
AcDbLine
 62
7
  6
CONTINUOUS
 10
-2.3268122933
 20
-3.5279755617
 11
-0.6269492933
 21
-3.0064155617
  0
LINE
  5
424
100
AcDbEntity
  8
DRAFT
100
AcDbLine
 62
7
  6
CONTINUOUS
 10
2.7907497067
 20
2.5333828372
 11
-3.2092502933
 21
2.5333828372
  0
LINE
  5
425
100
AcDbEntity
  8
ASSI
100
AcDbLine
 62
7
  6
CONTINUOUS
 10
2.7907497067
 20
2.5333828372
 11
-3.2092502933
 21
2.5333828372
  0
LINE
  5
426
100
AcDbEntity
  8
DRAFT
100
AcDbLine
 62
7
  6
CONTINUOUS
 10
2.7907497067
 20
2.5815724383
 11
-3.2092502933
 21
2.5815724383
  0
LINE
  5
427
100
AcDbEntity
  8
ASSI
100
AcDbLine
 62
7
  6
CONTINUOUS
 10
2.7907497067
 20
2.5815724383
 11
-3.2092502933
 21
2.5815724383
  0
LINE
  5
428
100
AcDbEntity
  8
RACCORDO
100
AcDbLine
 62
7
  6
CONTINUOUS
 10
5.0706173327
 20
-9.4842507204
 11
4.9966366295
 21
-9.2241279254
  0
LINE
  5
429
100
AcDbEntity
  8
ASSI
100
AcDbLine
 62
7
  6
CONTINUOUS
 10
5.0706173327
 20
-9.4842507204
 11
4.9966366295
 21
-9.2241279254
  0
LINE
  5
42A
100
AcDbEntity
  8
RACCORDO
100
AcDbLine
 62
253
  6
CONTINUOUS
 10
3.3306874452
 20
7.3505938896
 11
3.3306874452
 21
5.812550987
  0
LINE
  5
42B
100
AcDbEntity
  8
ASSI
100
AcDbLine
 62
253
  6
CONTINUOUS
 10
3.3306874452
 20
7.3505938896
 11
3.3306874452
 21
5.812550987
  0
LINE
  5
42C
100
AcDbEntity
  8
RACCORDO
100
AcDbLine
 62
253
  6
CONTINUOUS
 10
3.5330146798
 20
-11.0459071094
 11
3.5330146798
 21
-9.4965291765
  0
LINE
  5
42D
100
AcDbEntity
  8
ASSI
100
AcDbLine
 62
253
  6
CONTINUOUS
 10
3.5330146798
 20
-11.0459071094
 11
3.5330146798
 21
-9.4965291765
  0
LINE
  5
42E
100
AcDbEntity
  8
RACCORDO
100
AcDbLine
 62
253
  6
CONTINUOUS
 10
3.6125952315
 20
7.3574870384
 11
3.6125952315
 21
5.8056578381
  0
LINE
  5
42F
100
AcDbEntity
  8
ASSI
100
AcDbLine
 62
253
  6
CONTINUOUS
 10
3.6125952315
 20
7.3574870384
 11
3.6125952315
 21
5.8056578381
  0
LINE
  5
430
100
AcDbEntity
  8
RACCORDO
100
AcDbLine
 62
253
  6
CONTINUOUS
 10
3.7062197605
 20
-11.0406663315
 11
3.7062197605
 21
-9.4842507204
  0
LINE
  5
431
100
AcDbEntity
  8
ASSI
100
AcDbLine
 62
253
  6
CONTINUOUS
 10
3.7062197605
 20
-11.0406663315
 11
3.7062197605
 21
-9.4842507204
  0
LINE
  5
432
100
AcDbEntity
  8
0
100
AcDbLine
 62
7
  6
CONTINUOUS
 10
1.0588348109
 20
-4.7887600933
 11
1.0226646025
 21
-4.8595935617
  0
LINE
  5
433
100
AcDbEntity
  8
ASSI
100
AcDbLine
 62
7
  6
CONTINUOUS
 10
1.0588348109
 20
-4.7887600933
 11
1.0226646025
 21
-4.8595935617
  0
LINE
  5
434
100
AcDbEntity
  8
0
100
AcDbLine
 62
7
  6
CONTINUOUS
 10
1.2035156447
 20
-4.8595935617
 11
1.1311752278
 21
-5.0012602959
  0
LINE
  5
435
100
AcDbEntity
  8
ASSI
100
AcDbLine
 62
7
  6
CONTINUOUS
 10
1.2035156447
 20
-4.8595935617
 11
1.1311752278
 21
-5.0012602959
  0
LINE
  5
436
100
AcDbEntity
  8
0
100
AcDbLine
 62
7
  6
CONTINUOUS
 10
1.0226646025
 20
-5.5679268275
 11
0.986494394
 21
-5.6387602959
  0
LINE
  5
437
100
AcDbEntity
  8
ASSI
100
AcDbLine
 62
7
  6
CONTINUOUS
 10
1.0226646025
 20
-5.5679268275
 11
0.986494394
 21
-5.6387602959
  0
LINE
  5
438
100
AcDbEntity
  8
0
100
AcDbLine
 62
7
  6
CONTINUOUS
 10
1.6737284306
 20
-5.4262602959
 11
1.6013880137
 21
-5.5679268275
  0
LINE
  5
439
100
AcDbEntity
  8
ASSI
100
AcDbLine
 62
7
  6
CONTINUOUS
 10
1.6737284306
 20
-5.4262602959
 11
1.6013880137
 21
-5.5679268275
  0
LINE
  5
43A
100
AcDbEntity
  8
0
100
AcDbLine
 62
7
  6
CONTINUOUS
 10
0.5162815828
 20
-4.8595935617
 11
0.4077709574
 21
-5.0012602959
  0
LINE
  5
43B
100
AcDbEntity
  8
ASSI
100
AcDbLine
 62
7
  6
CONTINUOUS
 10
0.5162815828
 20
-4.8595935617
 11
0.4077709574
 21
-5.0012602959
  0
LINE
  5
43C
100
AcDbEntity
  8
0
100
AcDbLine
 62
7
  6
CONTINUOUS
 10
1.1673454363
 20
-4.6470935617
 11
1.0588348109
 21
-4.7887600933
  0
LINE
  5
43D
100
AcDbEntity
  8
ASSI
100
AcDbLine
 62
7
  6
CONTINUOUS
 10
1.1673454363
 20
-4.6470935617
 11
1.0588348109
 21
-4.7887600933
  0
LINE
  5
43E
100
AcDbEntity
  8
0
100
AcDbLine
 62
7
  6
CONTINUOUS
 10
0.9141539771
 20
-5.4262602959
 11
0.8056433518
 21
-5.5679268275
  0
LINE
  5
43F
100
AcDbEntity
  8
ASSI
100
AcDbLine
 62
7
  6
CONTINUOUS
 10
0.9141539771
 20
-5.4262602959
 11
0.8056433518
 21
-5.5679268275
  0
LINE
  5
440
100
AcDbEntity
  8
0
100
AcDbLine
 62
7
  6
CONTINUOUS
 10
0.4439411659
 20
-4.6825100933
 11
0.3354305405
 21
-4.7887600933
  0
LINE
  5
441
100
AcDbEntity
  8
ASSI
100
AcDbLine
 62
7
  6
CONTINUOUS
 10
0.4439411659
 20
-4.6825100933
 11
0.3354305405
 21
-4.7887600933
  0
LINE
  5
442
100
AcDbEntity
  8
DRAFT
100
AcDbLine
 62
7
  6
CONTINUOUS
 10
2.2872586937
 20
4.1606263604
 11
-2.7057592803
 21
4.1606263604
  0
LINE
  5
443
100
AcDbEntity
  8
DRAFT
100
AcDbLine
 62
7
  6
CONTINUOUS
 10
-3.1767053582
 20
4.1641173734
 11
-2.7092502933
 21
4.1641173734
  0
LINE
  5
444
100
AcDbEntity
  8
DRAFT
100
AcDbLine
 62
7
  6
CONTINUOUS
 10
2.7582047716
 20
4.1641173734
 11
2.2907497067
 21
4.1641173734
  0
LINE
  5
445
100
AcDbEntity
  8
RACCORDO
100
AcDbLine
 62
253
  6
CONTINUOUS
 10
5.041239358
 20
-6.2282024695
 11
5.099161824
 21
-6.5206729306
  0
LINE
  5
446
100
AcDbEntity
  8
ASSI
100
AcDbLine
 62
253
  6
CONTINUOUS
 10
5.041239358
 20
-6.2282024695
 11
5.099161824
 21
-6.5206729306
  0
LINE
  5
447
100
AcDbEntity
  8
RACCORDO
100
AcDbLine
 62
253
  6
CONTINUOUS
 10
5.2983012751
 20
-6.0184275617
 11
5.3490095308
 21
-6.2744709924
  0
LINE
  5
448
100
AcDbEntity
  8
ASSI
100
AcDbLine
 62
253
  6
CONTINUOUS
 10
5.2983012751
 20
-6.0184275617
 11
5.3490095308
 21
-6.2744709924
  0
LINE
  5
449
100
AcDbEntity
  8
RACCORDO
100
AcDbLine
 62
253
  6
CONTINUOUS
 10
5.041239358
 20
-4.8426853477
 11
5.041239358
 21
-6.2282024695
  0
LINE
  5
44A
100
AcDbEntity
  8
ASSI
100
AcDbLine
 62
253
  6
CONTINUOUS
 10
5.041239358
 20
-4.8426853477
 11
5.041239358
 21
-6.2282024695
  0
LINE
  5
44B
100
AcDbEntity
  8
RACCORDO
100
AcDbLine
 62
7
  6
CONTINUOUS
 10
5.0706173327
 20
-9.4842507204
 11
5.0706173327
 21
-8.7045453315
  0
LINE
  5
44C
100
AcDbEntity
  8
ASSI
100
AcDbLine
 62
7
  6
CONTINUOUS
 10
5.0706173327
 20
-9.4842507204
 11
5.0706173327
 21
-8.7045453315
  0
LINE
  5
44D
100
AcDbEntity
  8
RACCORDO
100
AcDbLine
 62
253
  6
CONTINUOUS
 10
5.1006046661
 20
-6.5699133183
 11
5.1006046661
 21
-6.8519191629
  0
LINE
  5
44E
100
AcDbEntity
  8
ASSI
100
AcDbLine
 62
253
  6
CONTINUOUS
 10
5.1006046661
 20
-6.5699133183
 11
5.1006046661
 21
-6.8519191629
  0
LINE
  5
44F
100
AcDbEntity
  8
ASSI
100
AcDbLine
 62
253
  6
CONTINUOUS
 10
4.148994278
 20
7.3955149865
 11
4.1436496351
 21
5.7681428832
  0
LINE
  5
450
100
AcDbEntity
  8
RACCORDO
100
AcDbLine
 62
7
  6
CONTINUOUS
 10
9.6208984625
 20
9.7740761527
 11
9.6907497067
 21
9.9138212185
  0
LINE
  5
451
100
AcDbEntity
  8
ASSI
100
AcDbLine
 62
7
  6
CONTINUOUS
 10
9.6208984625
 20
9.7740761527
 11
9.6907497067
 21
9.9138212185
  0
LINE
  5
452
100
AcDbEntity
  8
0
100
AcDbLine
 62
7
  6
CONTINUOUS
 10
1.8545794951
 20
-5.4970935617
 11
1.7460688602
 21
-5.6741768275
  0
LINE
  5
453
100
AcDbEntity
  8
ASSI
100
AcDbLine
 62
7
  6
CONTINUOUS
 10
1.8545794951
 20
-5.4970935617
 11
1.7460688602
 21
-5.6741768275
  0
LINE
  5
454
100
AcDbEntity
  8
0
100
AcDbLine
 62
7
  6
CONTINUOUS
 10
0.986494394
 20
-5.6387602959
 11
0.8779837687
 21
-5.7450102959
  0
LINE
  5
455
100
AcDbEntity
  8
ASSI
100
AcDbLine
 62
7
  6
CONTINUOUS
 10
0.986494394
 20
-5.6387602959
 11
0.8779837687
 21
-5.7450102959
  0
LINE
  5
456
100
AcDbEntity
  8
0
100
AcDbLine
 62
7
  6
CONTINUOUS
 10
1.3481965292
 20
-4.7533435617
 11
1.2035156447
 21
-4.8595935617
  0
LINE
  5
457
100
AcDbEntity
  8
ASSI
100
AcDbLine
 62
7
  6
CONTINUOUS
 10
1.3481965292
 20
-4.7533435617
 11
1.2035156447
 21
-4.8595935617
  0
LINE
  5
458
100
AcDbEntity
  8
0
100
AcDbLine
 62
7
  6
CONTINUOUS
 10
0.6247923095
 20
-4.7887600933
 11
0.5162815828
 21
-4.8595935617
  0
LINE
  5
459
100
AcDbEntity
  8
ASSI
100
AcDbLine
 62
7
  6
CONTINUOUS
 10
0.6247923095
 20
-4.7887600933
 11
0.5162815828
 21
-4.8595935617
  0
LINE
  5
45A
100
AcDbEntity
  8
0
100
AcDbLine
 62
7
  6
CONTINUOUS
 10
0.8056433518
 20
-5.5679268275
 11
0.6971327264
 21
-5.6387602959
  0
LINE
  5
45B
100
AcDbEntity
  8
ASSI
100
AcDbLine
 62
7
  6
CONTINUOUS
 10
0.8056433518
 20
-5.5679268275
 11
0.6971327264
 21
-5.6387602959
  0
LINE
  5
45C
100
AcDbEntity
  8
0
100
AcDbLine
 62
7
  6
CONTINUOUS
 10
0.6247923095
 20
-4.6116770302
 11
0.4439411659
 21
-4.6825100933
  0
LINE
  5
45D
100
AcDbEntity
  8
ASSI
100
AcDbLine
 62
7
  6
CONTINUOUS
 10
0.6247923095
 20
-4.6116770302
 11
0.4439411659
 21
-4.6825100933
  0
LINE
  5
45E
100
AcDbEntity
  8
0
100
AcDbLine
 62
7
  6
CONTINUOUS
 10
1.3481965292
 20
-4.5762600933
 11
1.1673454363
 21
-4.6470935617
  0
LINE
  5
45F
100
AcDbEntity
  8
ASSI
100
AcDbLine
 62
7
  6
CONTINUOUS
 10
1.3481965292
 20
-4.5762600933
 11
1.1673454363
 21
-4.6470935617
  0
LINE
  5
460
100
AcDbEntity
  8
0
100
AcDbLine
 62
7
  6
CONTINUOUS
 10
-1.7369282933
 20
-5.7680595617
 11
-0.6269492933
 21
-5.3518035617
  0
LINE
  5
461
100
AcDbEntity
  8
ASSI
100
AcDbLine
 62
7
  6
CONTINUOUS
 10
-1.7369282933
 20
-5.7680595617
 11
-0.6269492933
 21
-5.3518035617
  0
LINE
  5
462
100
AcDbEntity
  8
0
100
AcDbLine
 62
7
  6
CONTINUOUS
 10
-2.3268122933
 20
-5.6760645617
 11
-1.3830432933
 21
-5.3249835617
  0
LINE
  5
463
100
AcDbEntity
  8
ASSI
100
AcDbLine
 62
7
  6
CONTINUOUS
 10
-2.3268122933
 20
-5.6760645617
 11
-1.3830432933
 21
-5.3249835617
  0
LINE
  5
464
100
AcDbEntity
  8
RACCORDO
100
AcDbLine
 62
7
  6
CONTINUOUS
 10
7.0539987832
 20
4.8685061137
 11
6.8275006302
 21
4.8685061137
  0
LINE
  5
465
100
AcDbEntity
  8
ASSI
100
AcDbLine
 62
7
  6
CONTINUOUS
 10
7.0539987832
 20
4.8685061137
 11
6.8275006302
 21
4.8685061137
  0
LINE
  5
466
100
AcDbEntity
  8
RACCORDO
100
AcDbLine
 62
7
  6
CONTINUOUS
 10
-7.2460012168
 20
4.8685061137
 11
-7.4724993698
 21
4.8685061137
  0
LINE
  5
467
100
AcDbEntity
  8
ASSI
100
AcDbLine
 62
7
  6
CONTINUOUS
 10
-7.2460012168
 20
4.8685061137
 11
-7.4724993698
 21
4.8685061137
  0
LINE
  5
468
100
AcDbEntity
  8
RACCORDO
100
AcDbLine
 62
253
  6
CONTINUOUS
 10
-7.4173694345
 20
4.9236360489
 11
-7.3011311521
 21
4.9236360489
  0
LINE
  5
469
100
AcDbEntity
  8
ASSI
100
AcDbLine
 62
253
  6
CONTINUOUS
 10
-7.4173694345
 20
4.9236360489
 11
-7.3011311521
 21
4.9236360489
  0
LINE
  5
46A
100
AcDbEntity
  8
RACCORDO
100
AcDbLine
 62
253
  6
CONTINUOUS
 10
6.8826305655
 20
4.9236360489
 11
6.9988688479
 21
4.9236360489
  0
LINE
  5
46B
100
AcDbEntity
  8
ASSI
100
AcDbLine
 62
253
  6
CONTINUOUS
 10
6.8826305655
 20
4.9236360489
 11
6.9988688479
 21
4.9236360489
  0
LINE
  5
46C
100
AcDbEntity
  8
RACCORDO
100
AcDbLine
 62
253
  6
CONTINUOUS
 10
5.4686419359
 20
-9.2773851743
 11
5.4312106307
 21
-6.9787046414
  0
LINE
  5
46D
100
AcDbEntity
  8
ASSI
100
AcDbLine
 62
253
  6
CONTINUOUS
 10
5.4686419359
 20
-9.2773851743
 11
5.4312106307
 21
-6.9787046414
  0
LINE
  5
46E
100
AcDbEntity
  8
RACCORDO
100
AcDbLine
 62
253
  6
CONTINUOUS
 10
5.7108820807
 20
-8.7045453315
 11
5.6810583375
 21
-6.873050076
  0
LINE
  5
46F
100
AcDbEntity
  8
ASSI
100
AcDbLine
 62
253
  6
CONTINUOUS
 10
5.7108820807
 20
-8.7045453315
 11
5.6810583375
 21
-6.873050076
  0
LINE
  5
470
100
AcDbEntity
  8
RACCORDO
100
AcDbLine
 62
253
  6
CONTINUOUS
 10
5.2910870647
 20
-4.8426853477
 11
5.2910870647
 21
-6.0185331727
  0
LINE
  5
471
100
AcDbEntity
  8
ASSI
100
AcDbLine
 62
253
  6
CONTINUOUS
 10
5.2910870647
 20
-4.8426853477
 11
5.2910870647
 21
-6.0185331727
  0
LINE
  5
472
100
AcDbEntity
  8
RACCORDO
100
AcDbLine
 62
253
  6
CONTINUOUS
 10
5.3504523729
 20
-6.5699133183
 11
5.3504523729
 21
-6.8519191629
  0
LINE
  5
473
100
AcDbEntity
  8
ASSI
100
AcDbLine
 62
253
  6
CONTINUOUS
 10
5.3504523729
 20
-6.5699133183
 11
5.3504523729
 21
-6.8519191629
  0
LINE
  5
474
100
AcDbEntity
  8
RACCORDO
100
AcDbLine
 62
253
  6
CONTINUOUS
 10
5.4310470405
 20
-6.8519191629
 11
5.4310470405
 21
-6.5699133183
  0
LINE
  5
475
100
AcDbEntity
  8
ASSI
100
AcDbLine
 62
253
  6
CONTINUOUS
 10
5.4310470405
 20
-6.8519191629
 11
5.4310470405
 21
-6.5699133183
  0
LINE
  5
476
100
AcDbEntity
  8
RACCORDO
100
AcDbLine
 62
253
  6
CONTINUOUS
 10
5.4904123487
 20
-6.0185331727
 11
5.4904123487
 21
-4.8426853477
  0
LINE
  5
477
100
AcDbEntity
  8
ASSI
100
AcDbLine
 62
253
  6
CONTINUOUS
 10
5.4904123487
 20
-6.0185331727
 11
5.4904123487
 21
-4.8426853477
  0
LINE
  5
478
100
AcDbEntity
  8
RACCORDO
100
AcDbLine
 62
253
  6
CONTINUOUS
 10
5.6808947473
 20
-6.8519191629
 11
5.6808947473
 21
-6.5699133183
  0
LINE
  5
479
100
AcDbEntity
  8
ASSI
100
AcDbLine
 62
253
  6
CONTINUOUS
 10
5.6808947473
 20
-6.8519191629
 11
5.6808947473
 21
-6.5699133183
  0
LINE
  5
47A
100
AcDbEntity
  8
RACCORDO
100
AcDbLine
 62
7
  6
CONTINUOUS
 10
5.7108820807
 20
-8.7045453315
 11
5.7108820807
 21
-9.4842507204
  0
LINE
  5
47B
100
AcDbEntity
  8
ASSI
100
AcDbLine
 62
7
  6
CONTINUOUS
 10
5.7108820807
 20
-8.7045453315
 11
5.7108820807
 21
-9.4842507204
  0
LINE
  5
47C
100
AcDbEntity
  8
RACCORDO
100
AcDbLine
 62
253
  6
CONTINUOUS
 10
5.7402600554
 20
-6.2282024695
 11
5.7402600554
 21
-4.8426853477
  0
LINE
  5
47D
100
AcDbEntity
  8
ASSI
100
AcDbLine
 62
253
  6
CONTINUOUS
 10
5.7402600554
 20
-6.2282024695
 11
5.7402600554
 21
-4.8426853477
  0
LINE
  5
47E
100
AcDbEntity
  8
RACCORDO
100
AcDbLine
 62
253
  6
CONTINUOUS
 10
5.1004410759
 20
-6.873050076
 11
5.0706173327
 21
-8.7045453315
  0
LINE
  5
47F
100
AcDbEntity
  8
ASSI
100
AcDbLine
 62
253
  6
CONTINUOUS
 10
5.1004410759
 20
-6.873050076
 11
5.0706173327
 21
-8.7045453315
  0
LINE
  5
480
100
AcDbEntity
  8
RACCORDO
100
AcDbLine
 62
253
  6
CONTINUOUS
 10
5.3502887827
 20
-6.9787046414
 11
5.3128574775
 21
-9.2773851743
  0
LINE
  5
481
100
AcDbEntity
  8
ASSI
100
AcDbLine
 62
253
  6
CONTINUOUS
 10
5.3502887827
 20
-6.9787046414
 11
5.3128574775
 21
-9.2773851743
  0
LINE
  5
482
100
AcDbEntity
  8
0
100
AcDbLine
 62
7
  6
CONTINUOUS
 10
1.7460688602
 20
-5.6741768275
 11
1.6375582222
 21
-5.7804268275
  0
LINE
  5
483
100
AcDbEntity
  8
ASSI
100
AcDbLine
 62
7
  6
CONTINUOUS
 10
1.7460688602
 20
-5.6741768275
 11
1.6375582222
 21
-5.7804268275
  0
LINE
  5
484
100
AcDbEntity
  8
0
100
AcDbLine
 62
7
  6
CONTINUOUS
 10
1.6013880137
 20
-5.5679268275
 11
1.4567071546
 21
-5.6741768275
  0
LINE
  5
485
100
AcDbEntity
  8
ASSI
100
AcDbLine
 62
7
  6
CONTINUOUS
 10
1.6013880137
 20
-5.5679268275
 11
1.4567071546
 21
-5.6741768275
  0
LINE
  5
486
100
AcDbEntity
  8
0
100
AcDbLine
 62
7
  6
CONTINUOUS
 10
0.8779837687
 20
-5.7450102959
 11
0.7333029348
 21
-5.8158435617
  0
LINE
  5
487
100
AcDbEntity
  8
ASSI
100
AcDbLine
 62
7
  6
CONTINUOUS
 10
0.8779837687
 20
-5.7450102959
 11
0.7333029348
 21
-5.8158435617
  0
LINE
  5
488
100
AcDbEntity
  8
0
100
AcDbLine
 62
7
  6
CONTINUOUS
 10
1.6375582222
 20
-5.7804268275
 11
1.4567071546
 21
-5.8512602959
  0
LINE
  5
489
100
AcDbEntity
  8
ASSI
100
AcDbLine
 62
7
  6
CONTINUOUS
 10
1.6375582222
 20
-5.7804268275
 11
1.4567071546
 21
-5.8512602959
  0
LINE
  5
48A
100
AcDbEntity
  8
RACCORDO
100
AcDbLine
 62
7
  6
CONTINUOUS
 10
-4.3742212528
 20
5.7727370026
 11
-4.0310958181
 21
5.8056578381
  0
LINE
  5
48B
100
AcDbEntity
  8
ASSI
100
AcDbLine
 62
7
  6
CONTINUOUS
 10
-4.3742212528
 20
5.7727370026
 11
-4.0310958181
 21
5.8056578381
  0
LINE
  5
48C
100
AcDbEntity
  8
DRAFT
100
AcDbLine
 62
7
  6
CONTINUOUS
 10
2.6907497067
 20
5.8040909077
 11
2.8603854671
 21
5.812550987
  0
LINE
  5
48D
100
AcDbEntity
  8
ASSI
100
AcDbLine
 62
7
  6
CONTINUOUS
 10
2.6907497067
 20
5.8040909077
 11
2.8603854671
 21
5.812550987
  0
LINE
  5
48E
100
AcDbEntity
  8
DRAFT
100
AcDbLine
 62
7
  6
CONTINUOUS
 10
-3.1092502933
 20
5.7971067538
 11
-3.2092502933
 21
5.7950906023
  0
LINE
  5
48F
100
AcDbEntity
  8
ASSI
100
AcDbLine
 62
7
  6
CONTINUOUS
 10
-3.1092502933
 20
5.7971067538
 11
-3.2092502933
 21
5.7950906023
  0
LINE
  5
490
100
AcDbEntity
  8
RACCORDO
100
AcDbLine
 62
253
  6
CONTINUOUS
 10
-7.7104457446
 20
5.42333199
 11
-7.008054842
 21
5.42333199
  0
LINE
  5
491
100
AcDbEntity
  8
ASSI
100
AcDbLine
 62
253
  6
CONTINUOUS
 10
-7.7104457446
 20
5.42333199
 11
-7.008054842
 21
5.42333199
  0
LINE
  5
492
100
AcDbEntity
  8
RACCORDO
100
AcDbLine
 62
253
  6
CONTINUOUS
 10
6.5895542554
 20
5.42333199
 11
7.291945158
 21
5.42333199
  0
LINE
  5
493
100
AcDbEntity
  8
ASSI
100
AcDbLine
 62
253
  6
CONTINUOUS
 10
6.5895542554
 20
5.42333199
 11
7.291945158
 21
5.42333199
  0
LINE
  5
494
100
AcDbEntity
  8
RACCORDO
100
AcDbLine
 62
7
  6
CONTINUOUS
 10
4.1436496351
 20
5.7681428832
 11
2.7907497067
 21
5.7681428832
  0
LINE
  5
495
100
AcDbEntity
  8
ASSI
100
AcDbLine
 62
7
  6
CONTINUOUS
 10
4.1436496351
 20
5.7681428832
 11
2.7907497067
 21
5.7681428832
  0
LINE
  5
496
100
AcDbEntity
  8
RACCORDO
100
AcDbLine
 62
7
  6
CONTINUOUS
 10
-3.2092502933
 20
5.7681428832
 11
-4.5621502217
 21
5.7681428832
  0
LINE
  5
497
100
AcDbEntity
  8
ASSI
100
AcDbLine
 62
7
  6
CONTINUOUS
 10
-3.2092502933
 20
5.7681428832
 11
-4.5621502217
 21
5.7681428832
  0
LINE
  5
498
100
AcDbEntity
  8
RACCORDO
100
AcDbLine
 62
7
  6
CONTINUOUS
 10
-3.7491880318
 20
5.812550987
 11
-3.2788860537
 21
5.812550987
  0
LINE
  5
499
100
AcDbEntity
  8
ASSI
100
AcDbLine
 62
7
  6
CONTINUOUS
 10
-3.7491880318
 20
5.812550987
 11
-3.2788860537
 21
5.812550987
  0
LINE
  5
49A
100
AcDbEntity
  8
RACCORDO
100
AcDbLine
 62
7
  6
CONTINUOUS
 10
2.8603854671
 20
5.812550987
 11
3.3306874452
 21
5.812550987
  0
LINE
  5
49B
100
AcDbEntity
  8
ASSI
100
AcDbLine
 62
7
  6
CONTINUOUS
 10
2.8603854671
 20
5.812550987
 11
3.3306874452
 21
5.812550987
  0
LINE
  5
49C
100
AcDbEntity
  8
DRAFT
100
AcDbLine
 62
7
  6
CONTINUOUS
 10
2.7907497067
 20
5.7950906023
 11
2.6907497067
 21
5.7971067538
  0
LINE
  5
49D
100
AcDbEntity
  8
ASSI
100
AcDbLine
 62
7
  6
CONTINUOUS
 10
2.7907497067
 20
5.7950906023
 11
2.6907497067
 21
5.7971067538
  0
LINE
  5
49E
100
AcDbEntity
  8
DRAFT
100
AcDbLine
 62
7
  6
CONTINUOUS
 10
-3.2788860537
 20
5.812550987
 11
-3.1092502933
 21
5.8040909077
  0
LINE
  5
49F
100
AcDbEntity
  8
ASSI
100
AcDbLine
 62
7
  6
CONTINUOUS
 10
-3.2788860537
 20
5.812550987
 11
-3.1092502933
 21
5.8040909077
  0
LINE
  5
4A0
100
AcDbEntity
  8
RACCORDO
100
AcDbLine
 62
7
  6
CONTINUOUS
 10
3.6125952315
 20
5.8056578381
 11
3.9557206662
 21
5.7727370026
  0
LINE
  5
4A1
100
AcDbEntity
  8
ASSI
100
AcDbLine
 62
7
  6
CONTINUOUS
 10
3.6125952315
 20
5.8056578381
 11
3.9557206662
 21
5.7727370026
  0
LINE
  5
4A2
100
AcDbEntity
  8
DRAFT
100
AcDbLine
 62
7
  6
CONTINUOUS
 10
-8.7217162839
 20
9.9138212185
 11
-8.4592502933
 21
9.8090589101
  0
LINE
  5
4A3
100
AcDbEntity
  8
ASSI
100
AcDbLine
 62
7
  6
CONTINUOUS
 10
-8.7217162839
 20
9.9138212185
 11
-8.4592502933
 21
9.8090589101
  0
LINE
  5
4A4
100
AcDbEntity
  8
RACCORDO
100
AcDbLine
 62
253
  6
CONTINUOUS
 10
6.5663080081
 20
7.5229937945
 11
6.587508644
 21
6.9158870133
  0
LINE
  5
4A5
100
AcDbEntity
  8
ASSI
100
AcDbLine
 62
253
  6
CONTINUOUS
 10
6.5663080081
 20
7.5229937945
 11
6.587508644
 21
6.9158870133
  0
LINE
  5
4A6
100
AcDbEntity
  8
RACCORDO
100
AcDbLine
 62
253
  6
CONTINUOUS
 10
6.866125513
 20
7.7351184744
 11
6.8873258922
 21
7.1280190477
  0
LINE
  5
4A7
100
AcDbEntity
  8
ASSI
100
AcDbLine
 62
253
  6
CONTINUOUS
 10
6.866125513
 20
7.7351184744
 11
6.8873258922
 21
7.1280190477
  0
LINE
  5
4A8
100
AcDbEntity
  8
RACCORDO
100
AcDbLine
 62
253
  6
CONTINUOUS
 10
6.5581255628
 20
9.7989482944
 11
6.5581255628
 21
8.0886792195
  0
LINE
  5
4A9
100
AcDbEntity
  8
ASSI
100
AcDbLine
 62
253
  6
CONTINUOUS
 10
6.5581255628
 20
9.7989482944
 11
6.5581255628
 21
8.0886792195
  0
LINE
  5
4AA
100
AcDbEntity
  8
RACCORDO
100
AcDbLine
 62
253
  6
CONTINUOUS
 10
6.5895542554
 20
6.7744656571
 11
6.5895542554
 21
5.42333199
  0
LINE
  5
4AB
100
AcDbEntity
  8
ASSI
100
AcDbLine
 62
253
  6
CONTINUOUS
 10
6.5895542554
 20
6.7744656571
 11
6.5895542554
 21
5.42333199
  0
LINE
  5
4AC
100
AcDbEntity
  8
RACCORDO
100
AcDbLine
 62
253
  6
CONTINUOUS
 10
6.8579428109
 20
9.8090589101
 11
6.8579428109
 21
8.0886901834
  0
LINE
  5
4AD
100
AcDbEntity
  8
ASSI
100
AcDbLine
 62
253
  6
CONTINUOUS
 10
6.8579428109
 20
9.8090589101
 11
6.8579428109
 21
8.0886901834
  0
LINE
  5
4AE
100
AcDbEntity
  8
RACCORDO
100
AcDbLine
 62
253
  6
CONTINUOUS
 10
6.8893715035
 20
6.7744656571
 11
6.8893715035
 21
5.4233474506
  0
LINE
  5
4AF
100
AcDbEntity
  8
ASSI
100
AcDbLine
 62
253
  6
CONTINUOUS
 10
6.8893715035
 20
6.7744656571
 11
6.8893715035
 21
5.4233474506
  0
LINE
  5
4B0
100
AcDbEntity
  8
RACCORDO
100
AcDbLine
 62
253
  6
CONTINUOUS
 10
6.9921279099
 20
5.4233474507
 11
6.9921279099
 21
6.7744656571
  0
LINE
  5
4B1
100
AcDbEntity
  8
ASSI
100
AcDbLine
 62
253
  6
CONTINUOUS
 10
6.9921279099
 20
5.4233474507
 11
6.9921279099
 21
6.7744656571
  0
LINE
  5
4B2
100
AcDbEntity
  8
RACCORDO
100
AcDbLine
 62
253
  6
CONTINUOUS
 10
7.0235566025
 20
8.0886901872
 11
7.0235566025
 21
9.8090589101
  0
LINE
  5
4B3
100
AcDbEntity
  8
ASSI
100
AcDbLine
 62
253
  6
CONTINUOUS
 10
7.0235566025
 20
8.0886901872
 11
7.0235566025
 21
9.8090589101
  0
LINE
  5
4B4
100
AcDbEntity
  8
RACCORDO
100
AcDbLine
 62
253
  6
CONTINUOUS
 10
7.0752796529
 20
-9.4842507204
 11
7.0752796529
 21
-11.0406663315
  0
LINE
  5
4B5
100
AcDbEntity
  8
ASSI
100
AcDbLine
 62
253
  6
CONTINUOUS
 10
7.0752796529
 20
-9.4842507204
 11
7.0752796529
 21
-11.0406663315
  0
LINE
  5
4B6
100
AcDbEntity
  8
RACCORDO
100
AcDbLine
 62
253
  6
CONTINUOUS
 10
7.2484847336
 20
-9.4965291765
 11
7.2484847336
 21
-11.0459071094
  0
LINE
  5
4B7
100
AcDbEntity
  8
ASSI
100
AcDbLine
 62
253
  6
CONTINUOUS
 10
7.2484847336
 20
-9.4965291765
 11
7.2484847336
 21
-11.0459071094
  0
LINE
  5
4B8
100
AcDbEntity
  8
RACCORDO
100
AcDbLine
 62
253
  6
CONTINUOUS
 10
6.9941735213
 20
7.1280190477
 11
7.0153739003
 21
7.735118471
  0
LINE
  5
4B9
100
AcDbEntity
  8
ASSI
100
AcDbLine
 62
253
  6
CONTINUOUS
 10
6.9941735213
 20
7.1280190477
 11
7.0153739003
 21
7.735118471
  0
LINE
  5
4BA
100
AcDbEntity
  8
RACCORDO
100
AcDbLine
 62
253
  6
CONTINUOUS
 10
7.2939907694
 20
6.9158870133
 11
7.3151914053
 21
7.5229937945
  0
LINE
  5
4BB
100
AcDbEntity
  8
ASSI
100
AcDbLine
 62
253
  6
CONTINUOUS
 10
7.2939907694
 20
6.9158870133
 11
7.3151914053
 21
7.5229937945
  0
LINE
  5
4BC
100
AcDbEntity
  8
RACCORDO
100
AcDbLine
 62
253
  6
CONTINUOUS
 10
5.4324898826
 20
-6.2744709924
 11
5.4831981383
 21
-6.0184275617
  0
LINE
  5
4BD
100
AcDbEntity
  8
ASSI
100
AcDbLine
 62
253
  6
CONTINUOUS
 10
5.4324898826
 20
-6.2744709924
 11
5.4831981383
 21
-6.0184275617
  0
LINE
  5
4BE
100
AcDbEntity
  8
RACCORDO
100
AcDbLine
 62
253
  6
CONTINUOUS
 10
5.6823375894
 20
-6.5206729306
 11
5.7402600554
 21
-6.2282024695
  0
LINE
  5
4BF
100
AcDbEntity
  8
ASSI
100
AcDbLine
 62
253
  6
CONTINUOUS
 10
5.6823375894
 20
-6.5206729306
 11
5.7402600554
 21
-6.2282024695
  0
LINE
  5
4C0
100
AcDbEntity
  8
RACCORDO
100
AcDbLine
 62
253
  6
CONTINUOUS
 10
5.492128373
 20
-4.54273081
 11
5.5466453788
 21
-4.5154806122
  0
LINE
  5
4C1
100
AcDbEntity
  8
ASSI
100
AcDbLine
 62
253
  6
CONTINUOUS
 10
5.492128373
 20
-4.54273081
 11
5.5466453788
 21
-4.5154806122
  0
LINE
  5
4C2
100
AcDbEntity
  8
RACCORDO
100
AcDbLine
 62
253
  6
CONTINUOUS
 10
5.7419756213
 20
-4.7926929629
 11
5.7963698997
 21
-4.7655041101
  0
LINE
  5
4C3
100
AcDbEntity
  8
ASSI
100
AcDbLine
 62
253
  6
CONTINUOUS
 10
5.7419756213
 20
-4.7926929629
 11
5.7963698997
 21
-4.7655041101
  0
LINE
  5
4C4
100
AcDbEntity
  8
0
100
AcDbLine
 62
7
  6
CONTINUOUS
 10
-2.3268122933
 20
-8.2595935617
 11
-0.6269492933
 21
-7.7207035617
  0
LINE
  5
4C5
100
AcDbEntity
  8
ASSI
100
AcDbLine
 62
7
  6
CONTINUOUS
 10
-2.3268122933
 20
-8.2595935617
 11
-0.6269492933
 21
-7.7207035617
  0
LINE
  5
4C6
100
AcDbEntity
  8
RACCORDO
100
AcDbLine
 62
7
  6
CONTINUOUS
 10
3.9610394004
 20
7.3909181747
 11
3.6125952315
 21
7.3574870384
  0
LINE
  5
4C7
100
AcDbEntity
  8
ASSI
100
AcDbLine
 62
7
  6
CONTINUOUS
 10
3.9610394004
 20
7.3909181747
 11
3.6125952315
 21
7.3574870384
  0
LINE
  5
4C8
100
AcDbEntity
  8
DRAFT
100
AcDbLine
 62
7
  6
CONTINUOUS
 10
2.7907497067
 20
7.3680542743
 11
2.6907497067
 21
7.3660381227
  0
LINE
  5
4C9
100
AcDbEntity
  8
ASSI
100
AcDbLine
 62
7
  6
CONTINUOUS
 10
2.7907497067
 20
7.3680542743
 11
2.6907497067
 21
7.3660381227
  0
LINE
  5
4CA
100
AcDbEntity
  8
RACCORDO
100
AcDbLine
 62
253
  6
CONTINUOUS
 10
6.5895542554
 20
6.7744656571
 11
7.291945158
 21
6.7744656571
  0
LINE
  5
4CB
100
AcDbEntity
  8
ASSI
100
AcDbLine
 62
253
  6
CONTINUOUS
 10
6.5895542554
 20
6.7744656571
 11
7.291945158
 21
6.7744656571
  0
LINE
  5
4CC
100
AcDbEntity
  8
RACCORDO
100
AcDbLine
 62
253
  6
CONTINUOUS
 10
-7.008054842
 20
6.7744656571
 11
-7.7104457446
 21
6.7744656571
  0
LINE
  5
4CD
100
AcDbEntity
  8
ASSI
100
AcDbLine
 62
253
  6
CONTINUOUS
 10
-7.008054842
 20
6.7744656571
 11
-7.7104457446
 21
6.7744656571
  0
LINE
  5
4CE
100
AcDbEntity
  8
RACCORDO
100
AcDbLine
 62
253
  6
CONTINUOUS
 10
6.9941735213
 20
7.1280190477
 11
6.8873258922
 21
7.1280190477
  0
LINE
  5
4CF
100
AcDbEntity
  8
ASSI
100
AcDbLine
 62
253
  6
CONTINUOUS
 10
6.9941735213
 20
7.1280190477
 11
6.8873258922
 21
7.1280190477
  0
LINE
  5
4D0
100
AcDbEntity
  8
RACCORDO
100
AcDbLine
 62
253
  6
CONTINUOUS
 10
-7.3058264787
 20
7.1280190477
 11
-7.4126741078
 21
7.1280190477
  0
LINE
  5
4D1
100
AcDbEntity
  8
ASSI
100
AcDbLine
 62
253
  6
CONTINUOUS
 10
-7.3058264787
 20
7.1280190477
 11
-7.4126741078
 21
7.1280190477
  0
LINE
  5
4D2
100
AcDbEntity
  8
RACCORDO
100
AcDbLine
 62
7
  6
CONTINUOUS
 10
-3.7491880318
 20
7.3505938896
 11
-3.2788860537
 21
7.3505938896
  0
LINE
  5
4D3
100
AcDbEntity
  8
ASSI
100
AcDbLine
 62
7
  6
CONTINUOUS
 10
-3.7491880318
 20
7.3505938896
 11
-3.2788860537
 21
7.3505938896
  0
LINE
  5
4D4
100
AcDbEntity
  8
RACCORDO
100
AcDbLine
 62
7
  6
CONTINUOUS
 10
2.8603854671
 20
7.3505938896
 11
3.3306874452
 21
7.3505938896
  0
LINE
  5
4D5
100
AcDbEntity
  8
ASSI
100
AcDbLine
 62
7
  6
CONTINUOUS
 10
2.8603854671
 20
7.3505938896
 11
3.3306874452
 21
7.3505938896
  0
LINE
  5
4D6
100
AcDbEntity
  8
RACCORDO
100
AcDbLine
 62
7
  6
CONTINUOUS
 10
-4.5674948646
 20
7.3955149865
 11
-3.2092502933
 21
7.3955149865
  0
LINE
  5
4D7
100
AcDbEntity
  8
ASSI
100
AcDbLine
 62
7
  6
CONTINUOUS
 10
-4.5674948646
 20
7.3955149865
 11
-3.2092502933
 21
7.3955149865
  0
LINE
  5
4D8
100
AcDbEntity
  8
RACCORDO
100
AcDbLine
 62
7
  6
CONTINUOUS
 10
2.7907497067
 20
7.3955149865
 11
4.148994278
 21
7.3955149865
  0
LINE
  5
4D9
100
AcDbEntity
  8
ASSI
100
AcDbLine
 62
7
  6
CONTINUOUS
 10
2.7907497067
 20
7.3955149865
 11
4.148994278
 21
7.3955149865
  0
LINE
  5
4DA
100
AcDbEntity
  8
DRAFT
100
AcDbLine
 62
7
  6
CONTINUOUS
 10
-3.1092502933
 20
7.3660381227
 11
-3.2092502933
 21
7.3680542743
  0
LINE
  5
4DB
100
AcDbEntity
  8
ASSI
100
AcDbLine
 62
7
  6
CONTINUOUS
 10
-3.1092502933
 20
7.3660381227
 11
-3.2092502933
 21
7.3680542743
  0
LINE
  5
4DC
100
AcDbEntity
  8
RACCORDO
100
AcDbLine
 62
7
  6
CONTINUOUS
 10
-4.0310958181
 20
7.3574870384
 11
-4.379539987
 21
7.3909181747
  0
LINE
  5
4DD
100
AcDbEntity
  8
ASSI
100
AcDbLine
 62
7
  6
CONTINUOUS
 10
-4.0310958181
 20
7.3574870384
 11
-4.379539987
 21
7.3909181747
  0
LINE
  5
4DE
100
AcDbEntity
  8
RACCORDO
100
AcDbLine
 62
253
  6
CONTINUOUS
 10
7.291945158
 20
5.42333199
 11
7.291945158
 21
6.7744656571
  0
LINE
  5
4DF
100
AcDbEntity
  8
ASSI
100
AcDbLine
 62
253
  6
CONTINUOUS
 10
7.291945158
 20
5.42333199
 11
7.291945158
 21
6.7744656571
  0
LINE
  5
4E0
100
AcDbEntity
  8
RACCORDO
100
AcDbLine
 62
253
  6
CONTINUOUS
 10
7.3233738506
 20
8.0886792195
 11
7.3233738506
 21
9.7989482944
  0
LINE
  5
4E1
100
AcDbEntity
  8
ASSI
100
AcDbLine
 62
253
  6
CONTINUOUS
 10
7.3233738506
 20
8.0886792195
 11
7.3233738506
 21
9.7989482944
  0
LINE
  5
4E2
100
AcDbEntity
  8
DRAFT
100
AcDbLine
 62
7
  6
CONTINUOUS
 10
8.0407497067
 20
9.8090589101
 11
8.0407497067
 21
10.9553918349
  0
LINE
  5
4E3
100
AcDbEntity
  8
ASSI
100
AcDbLine
 62
7
  6
CONTINUOUS
 10
8.0407497067
 20
9.8090589101
 11
8.0407497067
 21
10.9553918349
  0
LINE
  5
4E4
100
AcDbEntity
  8
DRAFT
100
AcDbLine
 62
7
  6
CONTINUOUS
 10
7.5991746997
 20
-11.0777402674
 11
7.6744681835
 21
-9.5871226924
  0
LINE
  5
4E5
100
AcDbEntity
  8
ASSI
100
AcDbLine
 62
7
  6
CONTINUOUS
 10
7.5991746997
 20
-11.0777402674
 11
7.6744681835
 21
-9.5871226924
  0
LINE
  5
4E6
100
AcDbEntity
  8
RACCORDO
100
AcDbLine
 62
7
  6
CONTINUOUS
 10
5.7848627839
 20
-9.2241279254
 11
5.7108820807
 21
-9.4842507204
  0
LINE
  5
4E7
100
AcDbEntity
  8
ASSI
100
AcDbLine
 62
7
  6
CONTINUOUS
 10
5.7848627839
 20
-9.2241279254
 11
5.7108820807
 21
-9.4842507204
  0
LINE
  5
4E8
100
AcDbEntity
  8
DRAFT
100
AcDbLine
 62
7
  6
CONTINUOUS
 10
-3.2788860537
 20
7.3505938896
 11
-3.1092502933
 21
7.3590539688
  0
LINE
  5
4E9
100
AcDbEntity
  8
ASSI
100
AcDbLine
 62
7
  6
CONTINUOUS
 10
-3.2788860537
 20
7.3505938896
 11
-3.1092502933
 21
7.3590539688
  0
LINE
  5
4EA
100
AcDbEntity
  8
RACCORDO
100
AcDbLine
 62
253
  6
CONTINUOUS
 10
-7.433874487
 20
7.7351184744
 11
-7.2846260997
 21
7.735118471
  0
LINE
  5
4EB
100
AcDbEntity
  8
ASSI
100
AcDbLine
 62
253
  6
CONTINUOUS
 10
-7.433874487
 20
7.7351184744
 11
-7.2846260997
 21
7.735118471
  0
LINE
  5
4EC
100
AcDbEntity
  8
RACCORDO
100
AcDbLine
 62
253
  6
CONTINUOUS
 10
6.866125513
 20
7.7351184744
 11
7.0153739003
 21
7.735118471
  0
LINE
  5
4ED
100
AcDbEntity
  8
ASSI
100
AcDbLine
 62
253
  6
CONTINUOUS
 10
6.866125513
 20
7.7351184744
 11
7.0153739003
 21
7.735118471
  0
LINE
  5
4EE
100
AcDbEntity
  8
RACCORDO
100
AcDbLine
 62
253
  6
CONTINUOUS
 10
-7.7418744372
 20
8.0886792195
 11
-6.9766261494
 21
8.0886792195
  0
LINE
  5
4EF
100
AcDbEntity
  8
ASSI
100
AcDbLine
 62
253
  6
CONTINUOUS
 10
-7.7418744372
 20
8.0886792195
 11
-6.9766261494
 21
8.0886792195
  0
LINE
  5
4F0
100
AcDbEntity
  8
RACCORDO
100
AcDbLine
 62
253
  6
CONTINUOUS
 10
6.5581255628
 20
8.0886792195
 11
7.3233738506
 21
8.0886792195
  0
LINE
  5
4F1
100
AcDbEntity
  8
ASSI
100
AcDbLine
 62
253
  6
CONTINUOUS
 10
6.5581255628
 20
8.0886792195
 11
7.3233738506
 21
8.0886792195
  0
LINE
  5
4F2
100
AcDbEntity
  8
DRAFT
100
AcDbLine
 62
7
  6
CONTINUOUS
 10
2.6907497067
 20
7.3590539688
 11
2.8603854671
 21
7.3505938896
  0
LINE
  5
4F3
100
AcDbEntity
  8
ASSI
100
AcDbLine
 62
7
  6
CONTINUOUS
 10
2.6907497067
 20
7.3590539688
 11
2.8603854671
 21
7.3505938896
  0
LINE
  5
4F4
100
AcDbEntity
  8
DRAFT
100
AcDbLine
 62
7
  6
CONTINUOUS
 10
2.2872586937
 20
9.0025185162
 11
2.2907497067
 21
8.9990275032
  0
LINE
  5
4F5
100
AcDbEntity
  8
RACCORDO
100
AcDbLine
 62
253
  6
CONTINUOUS
 10
9.4795863806
 20
-9.5871226924
 11
9.4279830097
 21
-9.2241279254
  0
LINE
  5
4F6
100
AcDbEntity
  8
ASSI
100
AcDbLine
 62
253
  6
CONTINUOUS
 10
9.4795863806
 20
-9.5871226924
 11
9.4279830097
 21
-9.2241279254
  0
LINE
  5
4F7
100
AcDbEntity
  8
RACCORDO
100
AcDbLine
 62
253
  6
CONTINUOUS
 10
9.6794951985
 20
-9.3881863301
 11
9.6279525492
 21
-9.0256186982
  0
LINE
  5
4F8
100
AcDbEntity
  8
ASSI
100
AcDbLine
 62
253
  6
CONTINUOUS
 10
9.6794951985
 20
-9.3881863301
 11
9.6279525492
 21
-9.0256186982
  0
LINE
  5
4F9
100
AcDbEntity
  8
DRAFT
100
AcDbLine
 62
7
  6
CONTINUOUS
 10
8.3032156973
 20
10.9815724383
 11
8.3032156973
 21
9.9138212185
  0
LINE
  5
4FA
100
AcDbEntity
  8
ASSI
100
AcDbLine
 62
7
  6
CONTINUOUS
 10
8.3032156973
 20
10.9815724383
 11
8.3032156973
 21
9.9138212185
  0
LINE
  5
4FB
100
AcDbEntity
  8
0
100
AcDbLine
 62
7
  6
CONTINUOUS
 10
9.2907497067
 20
-3.0184275617
 11
9.2907497067
 21
0.7815724383
  0
LINE
  5
4FC
100
AcDbEntity
  8
ASSI
100
AcDbLine
 62
7
  6
CONTINUOUS
 10
9.2907497067
 20
-3.0184275617
 11
9.2907497067
 21
0.7815724383
  0
LINE
  5
4FD
100
AcDbEntity
  8
DRAFT
100
AcDbLine
 62
7
  6
CONTINUOUS
 10
-3.1767053582
 20
8.9990275032
 11
-2.7092502933
 21
8.9990275032
  0
LINE
  5
4FE
100
AcDbEntity
  8
DRAFT
100
AcDbLine
 62
7
  6
CONTINUOUS
 10
2.7582047716
 20
8.9990275032
 11
2.2907497067
 21
8.9990275032
  0
LINE
  5
4FF
100
AcDbEntity
  8
DRAFT
100
AcDbLine
 62
7
  6
CONTINUOUS
 10
-2.7057592803
 20
9.0025185162
 11
2.2872586937
 21
9.0025185162
  0
LINE
  5
500
100
AcDbEntity
  8
DRAFT
100
AcDbLine
 62
7
  6
CONTINUOUS
 10
2.7907497067
 20
9.0815724383
 11
-3.2092502933
 21
9.0815724383
  0
LINE
  5
501
100
AcDbEntity
  8
ASSI
100
AcDbLine
 62
7
  6
CONTINUOUS
 10
2.7907497067
 20
9.0815724383
 11
-3.2092502933
 21
9.0815724383
  0
LINE
  5
502
100
AcDbEntity
  8
DRAFT
100
AcDbLine
 62
7
  6
CONTINUOUS
 10
2.7907497067
 20
9.1175200654
 11
-3.2092502933
 21
9.1175200654
  0
LINE
  5
503
100
AcDbEntity
  8
ASSI
100
AcDbLine
 62
7
  6
CONTINUOUS
 10
2.7907497067
 20
9.1175200654
 11
-3.2092502933
 21
9.1175200654
  0
LINE
  5
504
100
AcDbEntity
  8
RACCORDO
100
AcDbLine
 62
253
  6
CONTINUOUS
 10
7.0539987832
 20
4.8685061137
 11
6.9988688479
 21
4.9236360489
  0
LINE
  5
505
100
AcDbEntity
  8
ASSI
100
AcDbLine
 62
253
  6
CONTINUOUS
 10
7.0539987832
 20
4.8685061137
 11
6.9988688479
 21
4.9236360489
  0
LINE
  5
506
100
AcDbEntity
  8
RACCORDO
100
AcDbLine
 62
253
  6
CONTINUOUS
 10
7.3539433307
 20
5.1681960624
 11
7.2986855685
 21
5.2234538246
  0
LINE
  5
507
100
AcDbEntity
  8
ASSI
100
AcDbLine
 62
253
  6
CONTINUOUS
 10
7.3539433307
 20
5.1681960624
 11
7.2986855685
 21
5.2234538246
  0
LINE
  5
508
100
AcDbEntity
  8
ASSI
100
AcDbLine
 62
253
  6
CONTINUOUS
 10
9.4227558144
 20
0.7815724383
 11
9.4209292143
 21
9.7672144952
  0
LINE
  5
509
100
AcDbEntity
  8
RACCORDO
100
AcDbLine
 62
253
  6
CONTINUOUS
 10
9.4279830097
 20
-9.2241279254
 11
9.4279830097
 21
-9.0336890106
  0
LINE
  5
50A
100
AcDbEntity
  8
ASSI
100
AcDbLine
 62
253
  6
CONTINUOUS
 10
9.4279830097
 20
-9.2241279254
 11
9.4243789646
 21
-3.0184275617
  0
LINE
  5
50B
100
AcDbEntity
  8
DRAFT
100
AcDbLine
 62
7
  6
CONTINUOUS
 10
9.6738728077
 20
-3.0184275617
 11
9.6738728077
 21
0.7815724383
  0
LINE
  5
50C
100
AcDbEntity
  8
ASSI
100
AcDbLine
 62
7
  6
CONTINUOUS
 10
9.6738728077
 20
-3.0184275617
 11
9.6738728077
 21
0.7815724383
  0
LINE
  5
50D
100
AcDbEntity
  8
DRAFT
100
AcDbLine
 62
7
  6
CONTINUOUS
 10
9.6907497067
 20
9.9138212185
 11
9.6907497067
 21
-2.0184275617
  0
LINE
  5
50E
100
AcDbEntity
  8
ASSI
100
AcDbLine
 62
7
  6
CONTINUOUS
 10
9.6907497067
 20
9.9138212185
 11
9.6907497067
 21
-2.0184275617
  0
LINE
  5
50F
100
AcDbEntity
  8
RACCORDO
100
AcDbLine
 62
7
  6
CONTINUOUS
 10
9.6794951985
 20
-9.3881863301
 11
9.6907497067
 21
-2.0184275617
  0
LINE
  5
510
100
AcDbEntity
  8
ASSI
100
AcDbLine
 62
7
  6
CONTINUOUS
 10
9.6794951985
 20
-9.3881863301
 11
9.6907497067
 21
-2.0184275617
  0
LINE
  5
511
100
AcDbEntity
  8
DRAFT
100
AcDbLine
 62
7
  6
CONTINUOUS
 10
8.3032156973
 20
10.9815724383
 11
8.0407497067
 21
10.9553918349
  0
LINE
  5
512
100
AcDbEntity
  8
ASSI
100
AcDbLine
 62
7
  6
CONTINUOUS
 10
8.3032156973
 20
10.9815724383
 11
8.0407497067
 21
10.9553918349
  0
LINE
  5
513
100
AcDbEntity
  8
RACCORDO
100
AcDbLine
 62
7
  6
CONTINUOUS
 10
9.4209292146
 20
9.7672144952
 11
7.3551076498
 21
9.7672144952
  0
LINE
  5
514
100
AcDbEntity
  8
ASSI
100
AcDbLine
 62
7
  6
CONTINUOUS
 10
9.4209292146
 20
9.7672144952
 11
7.3551076498
 21
9.7672144952
  0
LINE
  5
515
100
AcDbEntity
  8
DRAFT
100
AcDbLine
 62
7
  6
CONTINUOUS
 10
6.5263917636
 20
9.7672144952
 11
-6.9448923502
 21
9.7672144952
  0
LINE
  5
516
100
AcDbEntity
  8
ASSI
100
AcDbLine
 62
7
  6
CONTINUOUS
 10
6.5263917636
 20
9.7672144952
 11
-6.9448923502
 21
9.7672144952
  0
LINE
  5
517
100
AcDbEntity
  8
RACCORDO
100
AcDbLine
 62
7
  6
CONTINUOUS
 10
-7.7736082364
 20
9.7672144952
 11
-9.8394298009
 21
9.7672144952
  0
LINE
  5
518
100
AcDbEntity
  8
ASSI
100
AcDbLine
 62
7
  6
CONTINUOUS
 10
-7.7736082364
 20
9.7672144952
 11
-9.8394298009
 21
9.7672144952
  0
LINE
  5
519
100
AcDbEntity
  8
RACCORDO
100
AcDbLine
 62
7
  6
CONTINUOUS
 10
-8.4592502933
 20
9.8090589101
 11
-7.4420571891
 21
9.8090589101
  0
LINE
  5
51A
100
AcDbEntity
  8
ASSI
100
AcDbLine
 62
7
  6
CONTINUOUS
 10
-8.4592502933
 20
9.8090589101
 11
-7.4420571891
 21
9.8090589101
  0
LINE
  5
51B
100
AcDbEntity
  8
RACCORDO
100
AcDbLine
 62
7
  6
CONTINUOUS
 10
-7.2764433975
 20
9.8090589101
 11
6.8579428109
 21
9.8090589101
  0
LINE
  5
51C
100
AcDbEntity
  8
ASSI
100
AcDbLine
 62
7
  6
CONTINUOUS
 10
-7.2764433975
 20
9.8090589101
 11
6.8579428109
 21
9.8090589101
  0
LINE
  5
51D
100
AcDbEntity
  8
RACCORDO
100
AcDbLine
 62
7
  6
CONTINUOUS
 10
7.0235566025
 20
9.8090589101
 11
8.0407497067
 21
9.8090589101
  0
LINE
  5
51E
100
AcDbEntity
  8
ASSI
100
AcDbLine
 62
7
  6
CONTINUOUS
 10
7.0235566025
 20
9.8090589101
 11
8.0407497067
 21
9.8090589101
  0
LINE
  5
51F
100
AcDbEntity
  8
DRAFT
100
AcDbLine
 62
7
  6
CONTINUOUS
 10
9.6907497067
 20
9.9138212185
 11
8.3032156973
 21
9.9138212185
  0
LINE
  5
520
100
AcDbEntity
  8
ASSI
100
AcDbLine
 62
7
  6
CONTINUOUS
 10
9.6907497067
 20
9.9138212185
 11
8.3032156973
 21
9.9138212185
  0
LINE
  5
521
100
AcDbEntity
  8
DRAFT
100
AcDbLine
 62
7
  6
CONTINUOUS
 10
-8.7217162839
 20
9.9138212185
 11
-10.1092502933
 21
9.9138212185
  0
LINE
  5
522
100
AcDbEntity
  8
ASSI
100
AcDbLine
 62
7
  6
CONTINUOUS
 10
-8.7217162839
 20
9.9138212185
 11
-10.1092502933
 21
9.9138212185
  0
LINE
  5
523
100
AcDbEntity
  8
DRAFT
100
AcDbLine
 62
7
  6
CONTINUOUS
 10
-8.7217162839
 20
10.9815724383
 11
-8.4592502933
 21
10.9553918349
  0
LINE
  5
524
100
AcDbEntity
  8
ASSI
100
AcDbLine
 62
7
  6
CONTINUOUS
 10
-8.7217162839
 20
10.9815724383
 11
-8.4592502933
 21
10.9553918349
  0
LINE
  5
525
100
AcDbEntity
  8
RACCORDO
100
AcDbLine
 62
7
  6
CONTINUOUS
 10
10.9407497067
 20
10.7815952836
 11
10.9407497067
 21
-2.0184275617
  0
LINE
  5
526
100
AcDbEntity
  8
ASSI
100
AcDbLine
 62
7
  6
CONTINUOUS
 10
10.9407497067
 20
10.7815952836
 11
10.9407497067
 21
-2.0184275617
  0
LINE
  5
527
100
AcDbEntity
  8
RACCORDO
100
AcDbLine
 62
7
  6
CONTINUOUS
 10
10.9407497067
 20
-2.0184275617
 11
10.9276754694
 21
-10.5797945396
  0
LINE
  5
528
100
AcDbEntity
  8
ASSI
100
AcDbLine
 62
7
  6
CONTINUOUS
 10
10.9407497067
 20
-2.0184275617
 11
10.9276754694
 21
-10.5797945396
  0
LINE
  5
529
100
AcDbEntity
  8
DRAFT
100
AcDbLine
 62
7
  6
CONTINUOUS
 10
8.0407497067
 20
10.9553918349
 11
-8.4592502933
 21
10.9553918349
  0
LINE
  5
52A
100
AcDbEntity
  8
ASSI
100
AcDbLine
 62
7
  6
CONTINUOUS
 10
8.0407497067
 20
10.9553918349
 11
-8.4592502933
 21
10.9553918349
  0
LINE
  5
52B
100
AcDbEntity
  8
RACCORDO
100
AcDbLine
 62
7
  6
CONTINUOUS
 10
10.7407497055
 20
10.9815724383
 11
8.3032156973
 21
10.9815724383
  0
LINE
  5
52C
100
AcDbEntity
  8
ASSI
100
AcDbLine
 62
7
  6
CONTINUOUS
 10
10.7407497055
 20
10.9815724383
 11
8.3032156973
 21
10.9815724383
  0
LINE
  5
52D
100
AcDbEntity
  8
RACCORDO
100
AcDbLine
 62
7
  6
CONTINUOUS
 10
-8.7217162839
 20
10.9815724383
 11
-11.1592502921
 21
10.9815724383
  0
LINE
  5
52E
100
AcDbEntity
  8
ASSI
100
AcDbLine
 62
7
  6
CONTINUOUS
 10
-8.7217162839
 20
10.9815724383
 11
-11.1592502921
 21
10.9815724383
  0
LINE
  5
52F
100
AcDbEntity
  8
RACCORDO
100
AcDbLine
 62
7
  6
CONTINUOUS
 10
7.3233738506
 20
9.7989482944
 11
7.3551076498
 21
9.7672144952
  0
LINE
  5
530
100
AcDbEntity
  8
ASSI
100
AcDbLine
 62
7
  6
CONTINUOUS
 10
7.3233738506
 20
9.7989482944
 11
7.3551076498
 21
9.7672144952
  0
ARC
  5
531
100
AcDbEntity
  8
RACCORDO
100
AcDbCircle
 62
253
  6
CONTINUOUS
 10
-52.2968746521
 20
-6.8555256616
 40
46.447326629
100
AcDbArc
 50
359.8480505891
 51
0.0044488492
  0
ARC
  5
532
100
AcDbEntity
  8
ASSI
100
AcDbCircle
 62
253
  6
CONTINUOUS
 10
-52.2968746521
 20
-6.8555256616
 40
46.447326629
100
AcDbArc
 50
359.8480505891
 51
0.0044488492
  0
ARC
  5
533
100
AcDbEntity
  8
RACCORDO
100
AcDbCircle
 62
253
  6
CONTINUOUS
 10
-41.0968746509
 20
-6.8555256617
 40
46.4473266277
100
AcDbArc
 50
359.8480505891
 51
0.0044488492
  0
ARC
  5
534
100
AcDbEntity
  8
ASSI
100
AcDbCircle
 62
253
  6
CONTINUOUS
 10
-41.0968746509
 20
-6.8555256617
 40
46.4473266277
100
AcDbArc
 50
359.8480505891
 51
0.0044488492
  0
ARC
  5
535
100
AcDbEntity
  8
RACCORDO
100
AcDbCircle
 62
253
  6
CONTINUOUS
 10
-4.1834211099
 20
-6.8521685596
 40
1.3356842781
100
AcDbArc
 50
179.9893018286
 51
180.8957745167
  0
ARC
  5
536
100
AcDbEntity
  8
ASSI
100
AcDbCircle
 62
253
  6
CONTINUOUS
 10
-4.1834211099
 20
-6.8521685596
 40
1.3356842781
100
AcDbArc
 50
179.9893018286
 51
180.8957745167
  0
ARC
  5
537
100
AcDbEntity
  8
RACCORDO
100
AcDbCircle
 62
253
  6
CONTINUOUS
 10
-7.392161686
 20
-6.8524993205
 40
1.2927659852
100
AcDbArc
 50
359.0891460249
 51
0.0257127486
  0
ARC
  5
538
100
AcDbEntity
  8
ASSI
100
AcDbCircle
 62
253
  6
CONTINUOUS
 10
-7.392161686
 20
-6.8524993205
 40
1.2927659852
100
AcDbArc
 50
359.0891460249
 51
0.0257127486
  0
ARC
  5
539
100
AcDbEntity
  8
RACCORDO
100
AcDbCircle
 62
253
  6
CONTINUOUS
 10
-5.7081184329
 20
-4.792811924
 40
0.2500887179
100
AcDbArc
 50
0.0272536006
 51
89.9435595895
  0
ARC
  5
53A
100
AcDbEntity
  8
RACCORDO
100
AcDbCircle
 62
253
  6
CONTINUOUS
 10
-5.9103821247
 20
-4.7928119529
 40
0.2500887181
100
AcDbArc
 50
90.0564470492
 51
179.972739764
  0
ARC
  5
53B
100
AcDbEntity
  8
ASSI
100
AcDbCircle
 62
253
  6
CONTINUOUS
 10
-5.7081184329
 20
-4.792811924
 40
0.2500887179
100
AcDbArc
 50
0.0272536006
 51
89.9435595895
  0
ARC
  5
53C
100
AcDbEntity
  8
ASSI
100
AcDbCircle
 62
253
  6
CONTINUOUS
 10
-5.9103821247
 20
-4.7928119529
 40
0.2500887181
100
AcDbArc
 50
90.0564470492
 51
179.972739764
  0
ARC
  5
53D
100
AcDbEntity
  8
RACCORDO
100
AcDbCircle
 62
7
  6
CONTINUOUS
 10
-5.6532790644
 20
-4.7651273213
 40
0.2496440616
100
AcDbArc
 50
359.9135250024
 51
90.0173408399
  0
ARC
  5
53E
100
AcDbEntity
  8
RACCORDO
100
AcDbCircle
 62
7
  6
CONTINUOUS
 10
-5.9652215223
 20
-4.7651273216
 40
0.2496440616
100
AcDbArc
 50
89.9826591248
 51
180.086474937
  0
ARC
  5
53F
100
AcDbEntity
  8
ASSI
100
AcDbCircle
 62
7
  6
CONTINUOUS
 10
-5.6532790644
 20
-4.7651273213
 40
0.2496440616
100
AcDbArc
 50
359.9135250024
 51
90.0173408399
  0
ARC
  5
540
100
AcDbEntity
  8
ASSI
100
AcDbCircle
 62
7
  6
CONTINUOUS
 10
-5.9652215223
 20
-4.7651273216
 40
0.2496440616
100
AcDbArc
 50
89.9826591248
 51
180.086474937
  0
CIRCLE
  5
541
100
AcDbEntity
  8
0
100
AcDbCircle
 62
7
  6
CONTINUOUS
 10
-0.2092502933
 20
6.5815724383
 40
1.1
  0
CIRCLE
  5
542
100
AcDbEntity
  8
0
100
AcDbCircle
 62
7
  6
CONTINUOUS
 10
-0.2092502933
 20
6.5815724383
 40
0.9
  0
ARC
  5
543
100
AcDbEntity
  8
RACCORDO
100
AcDbCircle
 62
253
  6
CONTINUOUS
 10
-7.3015700872
 20
5.2238922322
 40
0.3002587517
100
AcDbArc
 50
270.0836583225
 51
359.9163416774
  0
ARC
  5
544
100
AcDbEntity
  8
RACCORDO
100
AcDbCircle
 62
253
  6
CONTINUOUS
 10
-7.4169305159
 20
5.2238922157
 40
0.3002587515
100
AcDbArc
 50
180.0836551819
 51
269.9163448181
  0
ARC
  5
545
100
AcDbEntity
  8
ASSI
100
AcDbCircle
 62
253
  6
CONTINUOUS
 10
-7.3015700872
 20
5.2238922322
 40
0.3002587517
100
AcDbArc
 50
270.0836583225
 51
359.9163416774
  0
ARC
  5
546
100
AcDbEntity
  8
ASSI
100
AcDbCircle
 62
253
  6
CONTINUOUS
 10
-7.4169305159
 20
5.2238922157
 40
0.3002587515
100
AcDbArc
 50
180.0836551819
 51
269.9163448181
  0
ARC
  5
547
100
AcDbEntity
  8
RACCORDO
100
AcDbCircle
 62
7
  6
CONTINUOUS
 10
-7.245878909
 20
5.1683441285
 40
0.299827954
100
AcDbArc
 50
269.9766283019
 51
359.9717046972
  0
ARC
  5
548
100
AcDbEntity
  8
RACCORDO
100
AcDbCircle
 62
7
  6
CONTINUOUS
 10
-7.4726216775
 20
5.1683441286
 40
0.2998279541
100
AcDbArc
 50
180.0282953179
 51
270.023371681
  0
ARC
  5
549
100
AcDbEntity
  8
ASSI
100
AcDbCircle
 62
7
  6
CONTINUOUS
 10
-7.245878909
 20
5.1683441285
 40
0.299827954
100
AcDbArc
 50
269.9766283019
 51
359.9717046972
  0
ARC
  5
54A
100
AcDbEntity
  8
ASSI
100
AcDbCircle
 62
7
  6
CONTINUOUS
 10
-7.4726216775
 20
5.1683441286
 40
0.2998279541
100
AcDbArc
 50
180.0282953179
 51
270.023371681
  0
ARC
  5
54B
100
AcDbEntity
  8
RACCORDO
100
AcDbCircle
 62
253
  6
CONTINUOUS
 10
53.5419023074
 20
-6.8533891658
 40
48.1108554102
100
AcDbArc
 50
179.9982493564
 51
180.1492398337
  0
ARC
  5
54C
100
AcDbEntity
  8
ASSI
100
AcDbCircle
 62
253
  6
CONTINUOUS
 10
53.5419023074
 20
-6.8533891658
 40
48.1108554102
100
AcDbArc
 50
179.9982493564
 51
180.1492398337
  0
ARC
  5
54D
100
AcDbEntity
  8
RACCORDO
100
AcDbCircle
 62
253
  6
CONTINUOUS
 10
42.341902306
 20
-6.8533891658
 40
48.1108554088
100
AcDbArc
 50
179.9982493564
 51
180.1492398337
  0
ARC
  5
54E
100
AcDbEntity
  8
ASSI
100
AcDbCircle
 62
253
  6
CONTINUOUS
 10
42.341902306
 20
-6.8533891658
 40
48.1108554088
100
AcDbArc
 50
179.9982493564
 51
180.1492398337
  0
ARC
  5
54F
100
AcDbEntity
  8
RACCORDO
100
AcDbCircle
 62
253
  6
CONTINUOUS
 10
7.0165788901
 20
-6.8521685596
 40
1.3356842781
100
AcDbArc
 50
179.9893018286
 51
180.8957745167
  0
ARC
  5
550
100
AcDbEntity
  8
ASSI
100
AcDbCircle
 62
253
  6
CONTINUOUS
 10
7.0165788901
 20
-6.8521685596
 40
1.3356842781
100
AcDbArc
 50
179.9893018286
 51
180.8957745167
  0
ARC
  5
551
100
AcDbEntity
  8
RACCORDO
100
AcDbCircle
 62
253
  6
CONTINUOUS
 10
3.807838314
 20
-6.8524993205
 40
1.2927659852
100
AcDbArc
 50
359.0891460249
 51
0.0257127486
  0
ARC
  5
552
100
AcDbEntity
  8
ASSI
100
AcDbCircle
 62
253
  6
CONTINUOUS
 10
3.807838314
 20
-6.8524993205
 40
1.2927659852
100
AcDbArc
 50
359.0891460249
 51
0.0257127486
  0
ARC
  5
553
100
AcDbEntity
  8
RACCORDO
100
AcDbCircle
 62
253
  6
CONTINUOUS
 10
5.2896178753
 20
-4.7928119529
 40
0.2500887181
100
AcDbArc
 50
90.0564470497
 51
179.9727397646
  0
ARC
  5
554
100
AcDbEntity
  8
RACCORDO
100
AcDbCircle
 62
253
  6
CONTINUOUS
 10
5.4918815671
 20
-4.792811924
 40
0.2500887179
100
AcDbArc
 50
0.0272536006
 51
89.9435595895
  0
ARC
  5
555
100
AcDbEntity
  8
ASSI
100
AcDbCircle
 62
253
  6
CONTINUOUS
 10
5.2896178753
 20
-4.7928119529
 40
0.2500887181
100
AcDbArc
 50
90.0564470497
 51
179.9727397646
  0
ARC
  5
556
100
AcDbEntity
  8
ASSI
100
AcDbCircle
 62
253
  6
CONTINUOUS
 10
5.4918815671
 20
-4.792811924
 40
0.2500887179
100
AcDbArc
 50
0.0272536006
 51
89.9435595895
  0
ARC
  5
557
100
AcDbEntity
  8
RACCORDO
100
AcDbCircle
 62
7
  6
CONTINUOUS
 10
5.2347784776
 20
-4.7651273215
 40
0.2496440616
100
AcDbArc
 50
89.9826591062
 51
180.0864749577
  0
ARC
  5
558
100
AcDbEntity
  8
RACCORDO
100
AcDbCircle
 62
7
  6
CONTINUOUS
 10
5.5467209355
 20
-4.7651273213
 40
0.2496440616
100
AcDbArc
 50
359.9135250022
 51
90.0173408356
  0
ARC
  5
559
100
AcDbEntity
  8
ASSI
100
AcDbCircle
 62
7
  6
CONTINUOUS
 10
5.2347784776
 20
-4.7651273215
 40
0.2496440616
100
AcDbArc
 50
89.9826591062
 51
180.0864749577
  0
ARC
  5
55A
100
AcDbEntity
  8
ASSI
100
AcDbCircle
 62
7
  6
CONTINUOUS
 10
5.5467209355
 20
-4.7651273213
 40
0.2496440616
100
AcDbArc
 50
359.9135250022
 51
90.0173408356
  0
ARC
  5
55B
100
AcDbEntity
  8
RACCORDO
100
AcDbCircle
 62
253
  6
CONTINUOUS
 10
6.9984299128
 20
5.2238922322
 40
0.3002587517
100
AcDbArc
 50
270.0836583225
 51
359.9163416774
  0
ARC
  5
55C
100
AcDbEntity
  8
RACCORDO
100
AcDbCircle
 62
253
  6
CONTINUOUS
 10
6.8830694841
 20
5.2238922157
 40
0.3002587515
100
AcDbArc
 50
180.0836551819
 51
269.9163448181
  0
ARC
  5
55D
100
AcDbEntity
  8
ASSI
100
AcDbCircle
 62
253
  6
CONTINUOUS
 10
6.9984299128
 20
5.2238922322
 40
0.3002587517
100
AcDbArc
 50
270.0836583225
 51
359.9163416774
  0
ARC
  5
55E
100
AcDbEntity
  8
ASSI
100
AcDbCircle
 62
253
  6
CONTINUOUS
 10
6.8830694841
 20
5.2238922157
 40
0.3002587515
100
AcDbArc
 50
180.0836551819
 51
269.9163448181
  0
ARC
  5
55F
100
AcDbEntity
  8
RACCORDO
100
AcDbCircle
 62
7
  6
CONTINUOUS
 10
7.054121091
 20
5.1683441285
 40
0.299827954
100
AcDbArc
 50
269.976628302
 51
359.9717046971
  0
ARC
  5
560
100
AcDbEntity
  8
RACCORDO
100
AcDbCircle
 62
7
  6
CONTINUOUS
 10
6.8273783224
 20
5.1683441285
 40
0.299827954
100
AcDbArc
 50
180.0282953061
 51
270.0233716929
  0
ARC
  5
561
100
AcDbEntity
  8
ASSI
100
AcDbCircle
 62
7
  6
CONTINUOUS
 10
7.054121091
 20
5.1683441285
 40
0.299827954
100
AcDbArc
 50
269.976628302
 51
359.9717046971
  0
ARC
  5
562
100
AcDbEntity
  8
ASSI
100
AcDbCircle
 62
7
  6
CONTINUOUS
 10
6.8273783224
 20
5.1683441285
 40
0.299827954
100
AcDbArc
 50
180.0282953061
 51
270.0233716929
  0
SPLINE
  5
563
100
AcDbEntity
  8
0
100
AcDbSpline
 62
7
  6
CONTINUOUS
 70
0
 71
3
 72
10
 73
6
 74
4
 42
0.0000001
 43
0.0000001
 44
0.0000000001
 12
-0.0095948202
 22
0.4295727449
 32
0.0
 13
-0.4296447263
 23
-0.0065610381
 33
0.0
 40
0.0
 40
0.0
 40
0.0
 40
0.0
 40
0.4724875075
 40
0.7072006687
 40
1.0
 40
1.0
 40
1.0
 40
1.0
 10
-1.5705784618
 20
-2.3578054173
 30
0.0
 10
-1.572089606
 20
-2.2901494988
 30
0.0
 10
-1.594231341
 20
-2.1795168244
 30
0.0
 10
-1.7147940398
 20
-2.0905927099
 30
0.0
 10
-1.7927292348
 20
-2.0815335922
 30
0.0
 10
-1.8346624644
 20
-2.0821739481
 30
0.0
 11
-1.5705784618
 21
-2.3578054173
 31
0.0
 11
-1.6298508384
 21
-2.1636321772
 31
0.0
 11
-1.7106293489
 21
-2.1032512021
 31
0.0
 11
-1.8346624644
 21
-2.0821739481
 31
0.0
  0
SPLINE
  5
564
100
AcDbEntity
  8
0
100
AcDbSpline
 62
7
  6
CONTINUOUS
 70
0
 71
3
 72
9
 73
5
 74
3
 42
0.0000001
 43
0.0000001
 44
0.0000000001
 12
-0.3133068914
 22
-0.0047845217
 32
0.0
 13
-0.0361262538
 23
-0.3112658327
 33
0.0
 40
0.0
 40
0.0
 40
0.0
 40
0.0
 40
0.4987528619
 40
1.0
 40
1.0
 40
1.0
 40
1.0
 10
-1.8346624645
 20
-2.0821739403
 30
0.0
 10
-1.8867500341
 20
-2.0829693716
 30
0.0
 10
-1.9953878942
 20
-2.1253982065
 30
0.0
 10
-2.0411953955
 20
-2.230612304
 30
0.0
 10
-2.0472314559
 20
-2.28261934
 30
0.0
 11
-1.8346624645
 21
-2.0821739403
 31
0.0
 11
-1.9794875921
 21
-2.1409104887
 31
0.0
 11
-2.0472314559
 21
-2.28261934
 31
0.0
  0
SPLINE
  5
565
100
AcDbEntity
  8
0
100
AcDbSpline
 62
7
  6
CONTINUOUS
 70
0
 71
3
 72
9
 73
5
 74
3
 42
0.0000001
 43
0.0000001
 44
0.0000000001
 12
-0.0321345864
 22
-0.2768734101
 32
0.0
 13
0.0468836161
 23
-0.274760569
 33
0.0
 40
0.0
 40
0.0
 40
0.0
 40
0.0
 40
0.7295958324
 40
1.0
 40
1.0
 40
1.0
 40
1.0
 10
-2.0472314558
 20
-2.28261934
 30
0.0
 10
-2.0550465425
 20
-2.3499545687
 30
0.0
 10
-2.0553477905
 20
-2.4439472573
 30
0.0
 10
-2.041449786
 20
-2.5358206624
 30
0.0
 10
-2.0372239443
 20
-2.5605861301
 30
0.0
 11
-2.0472314558
 21
-2.28261934
 31
0.0
 11
-2.0479277159
 21
-2.4859798005
 31
0.0
 11
-2.0372239443
 21
-2.5605861301
 31
0.0
  0
SPLINE
  5
566
100
AcDbEntity
  8
0
100
AcDbSpline
 62
7
  6
CONTINUOUS
 70
0
 71
3
 72
10
 73
6
 74
4
 42
0.0000001
 43
0.0000001
 44
0.0000000001
 12
-0.1284599377
 22
0.8731819798
 32
0.0
 13
0.2998855628
 23
0.8300707046
 33
0.0
 40
0.0
 40
0.0
 40
0.0
 40
0.0
 40
0.4151262789
 40
0.7045762354
 40
1.0
 40
1.0
 40
1.0
 40
1.0
 10
-2.3069523755
 20
-2.9022208978
 30
0.0
 10
-2.3247280741
 20
-2.7813939691
 30
0.0
 10
-2.3472400681
 20
-2.5747725686
 30
0.0
 10
-2.3472953043
 20
-2.2804699835
 30
0.0
 10
-2.318586568
 20
-2.108300399
 30
0.0
 10
-2.2890554607
 20
-2.0265595282
 30
0.0
 11
-2.3069523755
 21
-2.9022208978
 31
0.0
 11
-2.3434542661
 21
-2.5376612848
 31
0.0
 11
-2.3402557423
 21
-2.2822183584
 31
0.0
 11
-2.2890554607
 21
-2.0265595282
 31
0.0
  0
SPLINE
  5
567
100
AcDbEntity
  8
0
100
AcDbSpline
 62
7
  6
CONTINUOUS
 70
0
 71
3
 72
23
 73
19
 74
17
 42
0.0000001
 43
0.0000001
 44
0.0000000001
 12
0.359969576
 22
0.9978268927
 32
0.0
 13
0.1357483736
 23
-1.0520498955
 33
0.0
 40
0.0
 40
0.0
 40
0.0
 40
0.0
 40
0.079828561
 40
0.1893471136
 40
0.252931641
 40
0.322277794
 40
0.3983621185
 40
0.4395068157
 40
0.4830801905
 40
0.5370931167
 40
0.5873706499
 40
0.6784900216
 40
0.7593486609
 40
0.8310612156
 40
0.8931649411
 40
0.9439081722
 40
0.9806071038
 40
1.0
 40
1.0
 40
1.0
 40
1.0
 10
-2.2890554607
 20
-2.0265595282
 30
0.0
 10
-2.2794768429
 20
-2.0000078332
 30
0.0
 10
-2.2468034727
 20
-1.9407228526
 30
0.0
 10
-2.1870793774
 20
-1.8729232137
 30
0.0
 10
-2.1183155114
 20
-1.8212180009
 30
0.0
 10
-2.0527259195
 20
-1.7864469159
 30
0.0
 10
-1.9897234537
 20
-1.7657280767
 30
0.0
 10
-1.9338481395
 20
-1.7548944173
 30
0.0
 10
-1.8850092674
 20
-1.7497391444
 30
0.0
 10
-1.8326471063
 20
-1.7487904586
 30
0.0
 10
-1.7636784224
 20
-1.7541819006
 30
0.0
 10
-1.686482433
 20
-1.771614694
 30
0.0
 10
-1.6071758297
 20
-1.8064731441
 30
0.0
 10
-1.5436780224
 20
-1.8487499222
 30
0.0
 10
-1.4954412492
 20
-1.8928755995
 30
0.0
 10
-1.4609447112
 20
-1.9334556926
 30
0.0
 10
-1.4411533626
 20
-1.9652145705
 30
0.0
 10
-1.4313527101
 20
-1.9831746142
 30
0.0
 10
-1.4304751921
 20
-1.989975379
 30
0.0
 11
-2.2890554607
 21
-2.0265595282
 31
0.0
 11
-2.2497872522
 21
-1.9515349347
 31
0.0
 11
-2.1729422149
 21
-1.864406979
 31
0.0
 11
-2.1190316828
 21
-1.8238733231
 31
0.0
 11
-2.0540509002
 21
-1.789396726
 31
0.0
 11
-1.9774411861
 21
-1.7640048208
 31
0.0
 11
-1.9346008919
 21
-1.7556617631
 31
0.0
 11
-1.8886438595
 21
-1.7507252407
 31
0.0
 11
-1.8313573339
 21
-1.7497177787
 31
0.0
 11
-1.778193658
 21
-1.7539640473
 31
0.0
 11
-1.6839753823
 21
-1.7755386471
 31
0.0
 11
-1.6054700862
 21
-1.8100907806
 31
0.0
 11
-1.5421588239
 21
-1.8522621887
 31
0.0
 11
-1.4935208473
 21
-1.8966946271
 31
0.0
 11
-1.4590426165
 21
-1.9380297909
 31
0.0
 11
-1.4382001399
 21
-1.9709094633
 31
0.0
 11
-1.4304751921
 21
-1.989975379
 31
0.0
  0
SPLINE
  5
568
100
AcDbEntity
  8
0
100
AcDbSpline
 62
7
  6
CONTINUOUS
 70
0
 71
3
 72
10
 73
6
 74
4
 42
0.0000001
 43
0.0000001
 44
0.0000000001
 12
0.1499049954
 22
0.3759372924
 32
0.0
 13
0.3904867251
 23
0.1063828202
 33
0.0
 40
0.0
 40
0.0
 40
0.0
 40
0.0
 40
0.2520036888
 40
0.5059767291
 40
1.0
 40
1.0
 40
1.0
 40
1.0
 10
-1.4204304849
 20
-1.989975379
 30
0.0
 10
-1.407838281
 20
-1.9583961841
 30
0.0
 10
-1.3659821858
 20
-1.9009715116
 30
0.0
 10
-1.2497476893
 20
-1.8291304981
 30
0.0
 10
-1.1512409008
 20
-1.8029416134
 30
0.0
 10
-1.0869377244
 20
-1.7854230838
 30
0.0
 11
-1.4204304849
 21
-1.989975379
 31
0.0
 11
-1.3619390668
 21
-1.9064227829
 31
0.0
 11
-1.2763166619
 21
-1.8495518386
 31
0.0
 11
-1.0869377244
 21
-1.7854230838
 31
0.0
  0
SPLINE
  5
569
100
AcDbEntity
  8
0
100
AcDbSpline
 62
7
  6
CONTINUOUS
 70
0
 71
3
 72
9
 73
5
 74
3
 42
0.0000001
 43
0.0000001
 44
0.0000000001
 12
0.4589786715
 22
0.125042516
 32
0.0
 13
0.4590762626
 23
0.1246838126
 33
0.0
 40
0.0
 40
0.0
 40
0.0
 40
0.0
 40
0.8019458722
 40
1.0
 40
1.0
 40
1.0
 40
1.0
 10
-1.0869377245
 20
-1.7854230832
 30
0.0
 10
-0.9642457075
 20
-1.7519973067
 30
0.0
 10
-0.8106263045
 20
-1.7126591795
 30
0.0
 10
-0.6572569229
 20
-1.6723783845
 30
0.0
 10
-0.6269496066
 20
-1.6641470033
 30
0.0
 11
-1.0869377245
 21
-1.7854230832
 31
0.0
 11
-0.7180176083
 21
-1.6882969634
 31
0.0
 11
-0.6269496066
 21
-1.6641470033
 31
0.0
  0
SPLINE
  5
56A
100
AcDbEntity
  8
0
100
AcDbSpline
 62
7
  6
CONTINUOUS
 70
0
 71
3
 72
11
 73
7
 74
5
 42
0.0000001
 43
0.0000001
 44
0.0000000001
 12
-0.5175092969
 22
-0.1487860009
 32
0.0
 13
-0.5040440549
 23
-0.1894590043
 33
0.0
 40
0.0
 40
0.0
 40
0.0
 40
0.0
 40
0.1342305347
 40
0.4412509806
 40
0.7775650777
 40
1.0
 40
1.0
 40
1.0
 40
1.0
 10
-0.6269496066
 20
-2.0054503466
 30
0.0
 10
-0.6501047898
 20
-2.0121075548
 30
0.0
 10
-0.7261748513
 20
-2.034148685
 30
0.0
 10
-0.860218416
 20
-2.0730816654
 30
0.0
 10
-1.0088755535
 20
-2.1181492991
 30
0.0
 10
-1.1051619516
 20
-2.1466095693
 30
0.0
 10
-1.142534285
 20
-2.1606570023
 30
0.0
 11
-0.6269496066
 21
-2.0054503466
 31
0.0
 11
-0.6963861943
 21
-2.0255224329
 31
0.0
 11
-0.8550683482
 21
-2.0719057086
 31
0.0
 11
-1.0285546541
 21
-2.1238506992
 31
0.0
 11
-1.142534285
 21
-2.1606570023
 31
0.0
  0
SPLINE
  5
56B
100
AcDbEntity
  8
0
100
AcDbSpline
 62
7
  6
CONTINUOUS
 70
0
 71
3
 72
9
 73
5
 74
3
 42
0.0000001
 43
0.0000001
 44
0.0000000001
 12
-0.2438689275
 22
-0.0916651113
 32
0.0
 13
0.0
 23
-0.2604910834
 33
0.0
 40
0.0
 40
0.0
 40
0.0
 40
0.0
 40
0.6438952445
 40
1.0
 40
1.0
 40
1.0
 40
1.0
 10
-1.1425342936
 20
-2.1606569795
 30
0.0
 10
-1.1948763078
 20
-2.1803312226
 30
0.0
 10
-1.2734685627
 20
-2.2387465708
 30
0.0
 10
-1.2921820092
 20
-2.3276495382
 30
0.0
 10
-1.2921820092
 20
-2.3585702427
 30
0.0
 11
-1.1425342936
 21
-2.1606569795
 31
0.0
 11
-1.2712608472
 21
-2.2681981525
 31
0.0
 11
-1.2921820092
 21
-2.3585702427
 31
0.0
  0
SPLINE
  5
56C
100
AcDbEntity
  8
RACCORDO
100
AcDbSpline
 62
253
  6
CONTINUOUS
 70
0
 71
3
 72
15
 73
11
 74
9
 42
0.0000001
 43
0.0000001
 44
0.0000000001
 12
-0.2881576716
 22
0.0038542319
 32
0.0
 13
-0.0214951041
 23
0.2873806871
 33
0.0
 40
0.0
 40
0.0
 40
0.0
 40
0.0
 40
0.1661006305
 40
0.3273703266
 40
0.47908113
 40
0.6171090564
 40
0.7383291943
 40
0.8411944316
 40
0.9267165463
 40
1.0
 40
1.0
 40
1.0
 40
1.0
 10
5.3502887827
 20
-6.9787046414
 30
0.0
 10
5.3343343923
 20
-6.9784912447
 30
0.0
 10
5.30289096
 20
-6.9768064553
 30
0.0
 10
5.2572421775
 20
-6.9705566779
 30
0.0
 10
5.214954461
 20
-6.9608297736
 30
0.0
 10
5.1775353464
 20
-6.9479814583
 30
0.0
 10
5.1462600363
 20
-6.9324667551
 30
0.0
 10
5.1221427271
 20
-6.9147203558
 30
0.0
 10
5.1058905987
 20
-6.8950753292
 30
0.0
 10
5.1009661544
 20
-6.8800701591
 30
0.0
 10
5.1004410759
 20
-6.873050076
 30
0.0
 11
5.3502887827
 21
-6.9787046414
 31
0.0
 11
5.3024913829
 21
-6.9761159057
 31
0.0
 11
5.2564577962
 21
-6.9697238489
 31
0.0
 11
5.2138867475
 21
-6.95976435
 31
0.0
 11
5.1763491877
 21
-6.946604933
 31
0.0
 11
5.1452303227
 21
-6.9307312048
 31
0.0
 11
5.1216784965
 21
-6.9127289357
 31
0.0
 11
5.1065628153
 21
-6.8932624428
 31
0.0
 11
5.1004410759
 21
-6.873050076
 31
0.0
  0
SPLINE
  5
56D
100
AcDbEntity
  8
RACCORDO
100
AcDbSpline
 62
7
  6
CONTINUOUS
 70
0
 71
3
 72
17
 73
13
 74
11
 42
0.0000001
 43
0.0000001
 44
0.0000000001
 12
-0.3573152673
 22
-0.0104647825
 32
0.0
 13
-0.0148532747
 23
-0.3571597571
 33
0.0
 40
0.0
 40
0.0
 40
0.0
 40
0.0
 40
0.1289111824
 40
0.2505325819
 40
0.3645536477
 40
0.4713211985
 40
0.5715020992
 40
0.6658608772
 40
0.7551733224
 40
0.840186145
 40
0.9215951935
 40
1.0
 40
1.0
 40
1.0
 40
1.0
 10
5.2910870647
 20
-6.0185331727
 30
0.0
 10
5.2757330869
 20
-6.0189828485
 30
0.0
 10
5.2459089559
 20
-6.0221651694
 30
0.0
 10
5.2037469947
 20
-6.0332216561
 30
0.0
 10
5.1660640641
 20
-6.0492330269
 30
0.0
 10
5.1332521813
 20
-6.0691350895
 30
0.0
 10
5.1054419983
 20
-6.0920391272
 30
0.0
 10
5.0826542943
 20
-6.1171986258
 30
0.0
 10
5.0648582921
 20
-6.1439578754
 30
0.0
 10
5.0519889182
 20
-6.1717144771
 30
0.0
 10
5.0439384431
 20
-6.199872906
 30
0.0
 10
5.0416275473
 20
-6.2188681223
 30
0.0
 10
5.041239358
 20
-6.2282024695
 30
0.0
 11
5.2910870647
 21
-6.0185331727
 31
0.0
 11
5.2452659727
 21
-6.0234269576
 31
0.0
 11
5.2032196114
 21
-6.0344836347
 31
0.0
 11
5.1657265429
 21
-6.0504699018
 31
0.0
 11
5.1331257619
 21
-6.0703151837
 31
0.0
 11
5.1055246405
 21
-6.0931327785
 31
0.0
 11
5.082930075
 21
-6.1181770989
 31
0.0
 11
5.0653015481
 21
-6.1447953072
 31
0.0
 11
5.0525649671
 21
-6.1723868892
 31
0.0
 11
5.044603629
 21
-6.2003778717
 31
0.0
 11
5.041239358
 21
-6.2282024695
 31
0.0
  0
SPLINE
  5
56E
100
AcDbEntity
  8
RACCORDO
100
AcDbSpline
 62
253
  6
CONTINUOUS
 70
0
 71
3
 72
15
 73
11
 74
9
 42
0.0000001
 43
0.0000001
 44
0.0000000001
 12
0.3882348029
 22
-0.0023184616
 32
0.0
 13
0.0023876314
 23
-0.3882343837
 33
0.0
 40
0.0
 40
0.0
 40
0.0
 40
0.0
 40
0.1257290456
 40
0.2514557317
 40
0.3770343051
 40
0.502340937
 40
0.627292244
 40
0.751858067
 40
0.8760664778
 40
1.0
 40
1.0
 40
1.0
 40
1.0
 10
-5.7675101174
 20
-6.2744709924
 30
0.0
 10
-5.7512393203
 20
-6.2745681584
 30
0.0
 10
-5.7186304482
 20
-6.2779136384
 30
0.0
 10
-5.6716668553
 20
-6.2921761594
 30
0.0
 10
-5.6283316642
 20
-6.3151443134
 30
0.0
 10
-5.5902979117
 20
-6.3459481941
 30
0.0
 10
-5.5590101355
 20
-6.3834178291
 30
0.0
 10
-5.5356671075
 20
-6.4261362201
 30
0.0
 10
-5.5211649912
 20
-6.472451805
 30
0.0
 10
-5.5177610465
 20
-6.5046345124
 30
0.0
 10
-5.5176624106
 20
-6.5206729306
 30
0.0
 11
-5.7675101174
 21
-6.2744709924
 31
0.0
 11
-5.7189520015
 21
-6.2794553568
 31
0.0
 11
-5.6722456215
 21
-6.2936384152
 31
0.0
 11
-5.6291720984
 21
-6.3164793047
 31
0.0
 11
-5.5913740165
 21
-6.3471070012
 31
0.0
 11
-5.5602927838
 21
-6.3843535349
 31
0.0
 11
-5.5371136655
 21
-6.4267985307
 31
0.0
 11
-5.5227205837
 21
-6.4728233729
 31
0.0
 11
-5.5176624106
 21
-6.5206729306
 31
0.0
  0
SPLINE
  5
56F
100
AcDbEntity
  8
RACCORDO
100
AcDbSpline
 62
7
  6
CONTINUOUS
 70
0
 71
3
 72
17
 73
13
 74
11
 42
0.0000001
 43
0.0000001
 44
0.0000000001
 12
-0.0148532747
 22
0.3571597571
 32
0.0
 13
-0.3573152673
 23
0.0104647825
 33
0.0
 40
0.0
 40
0.0
 40
0.0
 40
0.0
 40
0.0784048065
 40
0.159813855
 40
0.2448266776
 40
0.3341391228
 40
0.4284979008
 40
0.5286788015
 40
0.6354463523
 40
0.7494674181
 40
0.8710888176
 40
1.0
 40
1.0
 40
1.0
 40
1.0
 10
-5.4597399446
 20
-6.2282024695
 30
0.0
 10
-5.4601281339
 20
-6.2188681223
 30
0.0
 10
-5.4624390296
 20
-6.199872906
 30
0.0
 10
-5.4704895047
 20
-6.1717144771
 30
0.0
 10
-5.4833588787
 20
-6.1439578754
 30
0.0
 10
-5.5011548809
 20
-6.1171986258
 30
0.0
 10
-5.5239425849
 20
-6.0920391272
 30
0.0
 10
-5.5517527679
 20
-6.0691350895
 30
0.0
 10
-5.5845646507
 20
-6.0492330269
 30
0.0
 10
-5.6222475813
 20
-6.0332216561
 30
0.0
 10
-5.6644095425
 20
-6.0221651694
 30
0.0
 10
-5.6942336735
 20
-6.0189828485
 30
0.0
 10
-5.7095876513
 20
-6.0185331727
 30
0.0
 11
-5.4597399446
 21
-6.2282024695
 31
0.0
 11
-5.4631042156
 21
-6.2003778717
 31
0.0
 11
-5.4710655537
 21
-6.1723868892
 31
0.0
 11
-5.4838021347
 21
-6.1447953072
 31
0.0
 11
-5.5014306616
 21
-6.1181770989
 31
0.0
 11
-5.5240252271
 21
-6.0931327785
 31
0.0
 11
-5.5516263485
 21
-6.0703151837
 31
0.0
 11
-5.5842271295
 21
-6.0504699018
 31
0.0
 11
-5.621720198
 21
-6.0344836347
 31
0.0
 11
-5.6637665593
 21
-6.0234269576
 31
0.0
 11
-5.7095876513
 21
-6.0185331727
 31
0.0
  0
SPLINE
  5
570
100
AcDbEntity
  8
RACCORDO
100
AcDbSpline
 62
253
  6
CONTINUOUS
 70
0
 71
3
 72
15
 73
11
 74
9
 42
0.0000001
 43
0.0000001
 44
0.0000000001
 12
0.2881576673
 22
0.0038542516
 32
0.0
 13
0.0214951096
 23
0.2873806826
 33
0.0
 40
0.0
 40
0.0
 40
0.0
 40
0.0
 40
0.1661012139
 40
0.3273713521
 40
0.4790823685
 40
0.6171102583
 40
0.7383301595
 40
0.8411950579
 40
0.9267168348
 40
1.0
 40
1.0
 40
1.0
 40
1.0
 10
-5.7687893693
 20
-6.9787046414
 30
0.0
 10
-5.7528349231
 20
-6.9784912428
 30
0.0
 10
-5.7213913928
 20
-6.9768064418
 30
0.0
 10
-5.6757424955
 20
-6.9705566268
 30
0.0
 10
-5.6334547285
 20
-6.9608296777
 30
0.0
 10
-5.5960356326
 20
-6.9479813259
 30
0.0
 10
-5.5647603959
 20
-6.932466608
 30
0.0
 10
-5.5406431853
 20
-6.9147202236
 30
0.0
 10
-5.5243911497
 20
-6.8950752433
 30
0.0
 10
-5.5194667391
 20
-6.8800701314
 30
0.0
 10
-5.5189416625
 20
-6.873050076
 30
0.0
 11
-5.7687893693
 21
-6.9787046414
 31
0.0
 11
-5.7209918028
 21
-6.9761158867
 31
0.0
 11
-5.6749580937
 21
-6.9697237899
 31
0.0
 11
-5.6323869935
 21
-6.9597642442
 31
0.0
 11
-5.5948494582
 21
-6.9466047909
 31
0.0
 11
-5.5637306758
 21
-6.930731052
 31
0.0
 11
-5.5401789557
 21
-6.9127288056
 31
0.0
 11
-5.5250633636
 21
-6.8932623673
 31
0.0
 11
-5.5189416625
 21
-6.873050076
 31
0.0
  0
SPLINE
  5
571
100
AcDbEntity
  8
RACCORDO
100
AcDbSpline
 62
253
  6
CONTINUOUS
 70
0
 71
3
 72
15
 73
11
 74
9
 42
0.0000001
 43
0.0000001
 44
0.0000000001
 12
-0.3882348025
 22
-0.0023184634
 32
0.0
 13
-0.0023876319
 23
-0.3882343833
 33
0.0
 40
0.0
 40
0.0
 40
0.0
 40
0.0
 40
0.125729459
 40
0.2514564959
 40
0.3770353051
 40
0.5023420228
 40
0.6272932526
 40
0.7518588458
 40
0.8760669051
 40
1.0
 40
1.0
 40
1.0
 40
1.0
 10
-5.8509904692
 20
-6.2744709924
 30
0.0
 10
-5.8672613198
 20
-6.2745681588
 30
0.0
 10
-5.8998702915
 20
-6.2779136596
 30
0.0
 10
-5.9468339974
 20
-6.2921762615
 30
0.0
 10
-5.9901692357
 20
-6.3151445161
 30
0.0
 10
-6.0282029633
 20
-6.3459484786
 30
0.0
 10
-6.0594906594
 20
-6.3834181425
 30
0.0
 10
-6.0828335855
 20
-6.4261364901
 30
0.0
 10
-6.0973356176
 20
-6.4724519619
 30
0.0
 10
-6.1007395404
 20
-6.5046345677
 30
0.0
 10
-6.100838176
 20
-6.5206729306
 30
0.0
 11
-5.8509904692
 21
-6.2744709924
 31
0.0
 11
-5.8995487431
 21
-6.2794553888
 31
0.0
 11
-5.9462552405
 21
-6.2936385292
 31
0.0
 11
-5.9893288133
 21
-6.3164795203
 31
0.0
 11
-6.0271268715
 21
-6.3471072989
 31
0.0
 11
-6.0582080239
 21
-6.3843538604
 31
0.0
 11
-6.0813870397
 21
-6.4267988105
 31
0.0
 11
-6.0957800366
 21
-6.4728235362
 31
0.0
 11
-6.100838176
 21
-6.5206729306
 31
0.0
  0
SPLINE
  5
572
100
AcDbEntity
  8
RACCORDO
100
AcDbSpline
 62
253
  6
CONTINUOUS
 70
0
 71
3
 72
9
 73
5
 74
3
 42
0.0000001
 43
0.0000001
 44
0.0000000001
 12
-0.0004118646
 22
-8.9925039188
 32
0.0
 13
-0.0032451975
 23
-8.9925033427
 33
0.0
 40
0.0
 40
0.0
 40
0.0
 40
0.0
 40
0.5000414317
 40
1.0
 40
1.0
 40
1.0
 40
1.0
 10
-10.0393990491
 20
9.7740761527
 30
0.0
 10
-10.0394676989
 20
8.2752013079
 30
0.0
 10
-10.0398410572
 20
5.2777000078
 30
0.0
 10
-10.0406866096
 20
2.2801988037
 30
0.0
 10
-10.041227431
 20
0.7815724383
 30
0.0
 11
-10.0393990491
 21
9.7740761527
 31
0.0
 11
-10.0399591562
 21
5.2774516485
 31
0.0
 11
-10.041227431
 21
0.7815724383
 31
0.0
  0
SPLINE
  5
573
100
AcDbEntity
  8
RACCORDO
100
AcDbSpline
 62
253
  6
CONTINUOUS
 70
0
 71
3
 72
15
 73
11
 74
9
 42
0.0000001
 43
0.0000001
 44
0.0000000001
 12
-0.2881576716
 22
0.0038542319
 32
0.0
 13
-0.0214951041
 23
0.2873806871
 33
0.0
 40
0.0
 40
0.0
 40
0.0
 40
0.0
 40
0.1661006305
 40
0.3273703266
 40
0.47908113
 40
0.6171090564
 40
0.7383291943
 40
0.8411944316
 40
0.9267165463
 40
1.0
 40
1.0
 40
1.0
 40
1.0
 10
-5.8497112173
 20
-6.9787046414
 30
0.0
 10
-5.8656656077
 20
-6.9784912447
 30
0.0
 10
-5.89710904
 20
-6.9768064553
 30
0.0
 10
-5.9427578225
 20
-6.9705566779
 30
0.0
 10
-5.985045539
 20
-6.9608297736
 30
0.0
 10
-6.0224646536
 20
-6.9479814583
 30
0.0
 10
-6.0537399637
 20
-6.9324667551
 30
0.0
 10
-6.0778572729
 20
-6.9147203558
 30
0.0
 10
-6.0941094013
 20
-6.8950753292
 30
0.0
 10
-6.0990338456
 20
-6.8800701591
 30
0.0
 10
-6.0995589241
 20
-6.873050076
 30
0.0
 11
-5.8497112173
 21
-6.9787046414
 31
0.0
 11
-5.8975086171
 21
-6.9761159057
 31
0.0
 11
-5.9435422038
 21
-6.9697238489
 31
0.0
 11
-5.9861132525
 21
-6.95976435
 31
0.0
 11
-6.0236508123
 21
-6.946604933
 31
0.0
 11
-6.0547696773
 21
-6.9307312048
 31
0.0
 11
-6.0783215035
 21
-6.9127289357
 31
0.0
 11
-6.0934371847
 21
-6.8932624428
 31
0.0
 11
-6.0995589241
 21
-6.873050076
 31
0.0
  0
SPLINE
  5
574
100
AcDbEntity
  8
RACCORDO
100
AcDbSpline
 62
253
  6
CONTINUOUS
 70
0
 71
3
 72
9
 73
5
 74
3
 42
0.0000001
 43
0.0000001
 44
0.0000000001
 12
-0.0029682127
 22
-6.007191491
 32
0.0
 13
-0.0042345483
 23
-6.0071907318
 33
0.0
 40
0.0
 40
0.0
 40
0.0
 40
0.0
 40
0.5000502626
 40
1.0
 40
1.0
 40
1.0
 40
1.0
 10
-10.0428518848
 20
-3.0184275617
 30
0.0
 10
-10.0433466367
 20
-4.0197267893
 30
0.0
 10
-10.0444415175
 20
-6.0221239022
 30
0.0
 10
-10.0457474487
 20
-8.0245208886
 30
0.0
 10
-10.0464531358
 20
-9.0256186982
 30
0.0
 11
-10.0428518848
 21
-3.0184275617
 31
0.0
 11
-10.0444944008
 21
-6.0223251619
 31
0.0
 11
-10.0464531358
 21
-9.0256186982
 31
0.0
  0
SPLINE
  5
575
100
AcDbEntity
  8
RACCORDO
100
AcDbSpline
 62
253
  6
CONTINUOUS
 70
0
 71
3
 72
9
 73
5
 74
3
 42
0.0000001
 43
0.0000001
 44
0.0000000001
 12
-0.0042345483
 22
6.0071907318
 32
0.0
 13
-0.0029682127
 23
6.007191491
 33
0.0
 40
0.0
 40
0.0
 40
0.0
 40
0.0
 40
0.4999497374
 40
1.0
 40
1.0
 40
1.0
 40
1.0
 10
9.6279525492
 20
-9.0256186982
 30
0.0
 10
9.6272468621
 20
-8.0245208886
 30
0.0
 10
9.6259409309
 20
-6.0221239022
 30
0.0
 10
9.6248460501
 20
-4.0197267893
 30
0.0
 10
9.6243512982
 20
-3.0184275617
 30
0.0
 11
9.6279525492
 21
-9.0256186982
 31
0.0
 11
9.6259938142
 21
-6.0223251619
 31
0.0
 11
9.6243512982
 21
-3.0184275617
 31
0.0
  0
SPLINE
  5
576
100
AcDbEntity
  8
RACCORDO
100
AcDbSpline
 62
253
  6
CONTINUOUS
 70
0
 71
3
 72
9
 73
5
 74
3
 42
0.0000001
 43
0.0000001
 44
0.0000000001
 12
-0.0032451975
 22
8.9925033427
 32
0.0
 13
-0.0004118646
 23
8.9925039188
 33
0.0
 40
0.0
 40
0.0
 40
0.0
 40
0.0
 40
0.4999585687
 40
1.0
 40
1.0
 40
1.0
 40
1.0
 10
9.6227268444
 20
0.7815724383
 30
0.0
 10
9.622186023
 20
2.2801988051
 30
0.0
 10
9.6213404706
 20
5.2777000092
 30
0.0
 10
9.6209671123
 20
8.2752013093
 30
0.0
 10
9.6208984625
 20
9.7740761527
 30
0.0
 11
9.6227268444
 21
0.7815724383
 31
0.0
 11
9.6214585696
 21
5.2774516527
 31
0.0
 11
9.6208984625
 21
9.7740761527
 31
0.0
  0
SPLINE
  5
577
100
AcDbEntity
  8
RACCORDO
100
AcDbSpline
 62
7
  6
CONTINUOUS
 70
0
 71
3
 72
17
 73
13
 74
11
 42
0.0000001
 43
0.0000001
 44
0.0000000001
 12
0.0148532747
 22
0.3571597571
 32
0.0
 13
0.3573152673
 23
0.0104647825
 33
0.0
 40
0.0
 40
0.0
 40
0.0
 40
0.0
 40
0.0784048065
 40
0.159813855
 40
0.2448266776
 40
0.3341391228
 40
0.4284979008
 40
0.5286788015
 40
0.6354463523
 40
0.7494674181
 40
0.8710888176
 40
1.0
 40
1.0
 40
1.0
 40
1.0
 10
-6.158760642
 20
-6.2282024695
 30
0.0
 10
-6.1583724527
 20
-6.2188681223
 30
0.0
 10
-6.1560615569
 20
-6.199872906
 30
0.0
 10
-6.1480110818
 20
-6.1717144771
 30
0.0
 10
-6.1351417079
 20
-6.1439578754
 30
0.0
 10
-6.1173457057
 20
-6.1171986258
 30
0.0
 10
-6.0945580017
 20
-6.0920391272
 30
0.0
 10
-6.0667478187
 20
-6.0691350895
 30
0.0
 10
-6.0339359359
 20
-6.0492330269
 30
0.0
 10
-5.9962530053
 20
-6.0332216561
 30
0.0
 10
-5.9540910441
 20
-6.0221651694
 30
0.0
 10
-5.9242669131
 20
-6.0189828485
 30
0.0
 10
-5.9089129353
 20
-6.0185331727
 30
0.0
 11
-6.158760642
 21
-6.2282024695
 31
0.0
 11
-6.155396371
 21
-6.2003778717
 31
0.0
 11
-6.1474350329
 21
-6.1723868892
 31
0.0
 11
-6.1346984519
 21
-6.1447953072
 31
0.0
 11
-6.117069925
 21
-6.1181770989
 31
0.0
 11
-6.0944753595
 21
-6.0931327785
 31
0.0
 11
-6.0668742381
 21
-6.0703151837
 31
0.0
 11
-6.0342734571
 21
-6.0504699018
 31
0.0
 11
-5.9967803886
 21
-6.0344836347
 31
0.0
 11
-5.9547340273
 21
-6.0234269576
 31
0.0
 11
-5.9089129353
 21
-6.0185331727
 31
0.0
  0
SPLINE
  5
578
100
AcDbEntity
  8
RACCORDO
100
AcDbSpline
 62
253
  6
CONTINUOUS
 70
0
 71
3
 72
9
 73
5
 74
3
 42
0.0000001
 43
0.0000001
 44
0.0000000001
 12
-0.006311189
 22
1.6273687137
 32
0.0
 13
-0.0043781238
 23
1.6273750623
 33
0.0
 40
0.0
 40
0.0
 40
0.0
 40
0.0
 40
0.499990412
 40
1.0
 40
1.0
 40
1.0
 40
1.0
 10
-4.5621502217
 20
5.7681428832
 30
0.0
 10
-4.5632020664
 20
6.0393658011
 30
0.0
 10
-4.5651447031
 20
6.5818226757
 30
0.0
 10
-4.5667651633
 20
7.1242806084
 30
0.0
 10
-4.5674948646
 20
7.3955149865
 30
0.0
 11
-4.5621502217
 21
5.7681428832
 31
0.0
 11
-4.5650641248
 21
6.581812538
 31
0.0
 11
-4.5674948646
 21
7.3955149865
 31
0.0
  0
SPLINE
  5
579
100
AcDbEntity
  8
RACCORDO
100
AcDbSpline
 62
253
  6
CONTINUOUS
 70
0
 71
3
 72
15
 73
11
 74
9
 42
0.0000001
 43
0.0000001
 44
0.0000000001
 12
0.00000131
 22
0.2954494977
 32
0.0
 13
0.00976487
 23
0.2952880848
 33
0.0
 40
0.0
 40
0.0
 40
0.0
 40
0.0
 40
0.1762543538
 40
0.3472428692
 40
0.5076801248
 40
0.6526883366
 40
0.7778610396
 40
0.8793945376
 40
0.9542028934
 40
1.0
 40
1.0
 40
1.0
 40
1.0
 10
5.4310470405
 20
-6.5699133183
 30
0.0
 10
5.4310471175
 20
-6.5525552315
 30
0.0
 10
5.4310641599
 20
-6.5183576525
 30
0.0
 10
5.4311406843
 20
-6.4683597531
 30
0.0
 10
5.4312659536
 20
-6.4214391906
 30
0.0
 10
5.4314345523
 20
-6.3790308425
 30
0.0
 10
5.4316430776
 20
-6.3424238813
 30
0.0
 10
5.4318756597
 20
-6.3127304393
 30
0.0
 10
5.4321392177
 20
-6.2908554519
 30
0.0
 10
5.432340815
 20
-6.2789787723
 30
0.0
 10
5.4324898826
 20
-6.2744709924
 30
0.0
 11
5.4310470405
 21
-6.5699133183
 31
0.0
 11
5.4310735127
 21
-6.5178390647
 31
0.0
 11
5.4311521723
 21
-6.4673206549
 31
0.0
 11
5.4312808472
 21
-6.419919723
 31
0.0
 11
5.4314555066
 21
-6.3770774757
 31
0.0
 11
5.4316708798
 21
-6.3400958906
 31
0.0
 11
5.4319205405
 21
-6.3100989085
 31
0.0
 11
5.4321961471
 21
-6.2879985358
 31
0.0
 11
5.4324898826
 21
-6.2744709924
 31
0.0
  0
SPLINE
  5
57A
100
AcDbEntity
  8
RACCORDO
100
AcDbSpline
 62
253
  6
CONTINUOUS
 70
0
 71
3
 72
9
 73
5
 74
3
 42
0.0000001
 43
0.0000001
 44
0.0000000001
 12
-0.0043781238
 22
-1.6273750623
 32
0.0
 13
-0.006311189
 23
-1.6273687137
 33
0.0
 40
0.0
 40
0.0
 40
0.0
 40
0.0
 40
0.5000088287
 40
1.0
 40
1.0
 40
1.0
 40
1.0
 10
4.148994278
 20
7.3955149865
 30
0.0
 10
4.1482645778
 20
7.1242810202
 30
0.0
 10
4.1466441179
 20
6.5818230875
 30
0.0
 10
4.1447014814
 20
6.0393662129
 30
0.0
 10
4.1436496351
 20
5.7681428832
 30
0.0
 11
4.148994278
 21
7.3955149865
 31
0.0
 11
4.1465635423
 21
6.5818137736
 31
0.0
 11
4.1436496351
 21
5.7681428832
 31
0.0
  0
SPLINE
  5
57B
100
AcDbEntity
  8
RACCORDO
100
AcDbSpline
 62
253
  6
CONTINUOUS
 70
0
 71
3
 72
15
 73
11
 74
9
 42
0.0000001
 43
0.0000001
 44
0.0000000001
 12
0.0097648701
 22
-0.2952880848
 32
0.0
 13
0.00000131
 23
-0.2954494977
 33
0.0
 40
0.0
 40
0.0
 40
0.0
 40
0.0
 40
0.0457971067
 40
0.1206054626
 40
0.2221389606
 40
0.3473116637
 40
0.4923198754
 40
0.652757131
 40
0.8237456464
 40
1.0
 40
1.0
 40
1.0
 40
1.0
 10
5.3490095308
 20
-6.2744709924
 30
0.0
 10
5.3491585984
 20
-6.2789787724
 30
0.0
 10
5.3493601957
 20
-6.2908554519
 30
0.0
 10
5.3496237538
 20
-6.3127304393
 30
0.0
 10
5.3498563358
 20
-6.3424238814
 30
0.0
 10
5.3500648612
 20
-6.3790308426
 30
0.0
 10
5.3502334599
 20
-6.4214391907
 30
0.0
 10
5.3503587291
 20
-6.4683597532
 30
0.0
 10
5.3504352535
 20
-6.5183576525
 30
0.0
 10
5.3504522959
 20
-6.5525552315
 30
0.0
 10
5.3504523729
 20
-6.5699133183
 30
0.0
 11
5.3490095308
 21
-6.2744709924
 31
0.0
 11
5.3493032663
 21
-6.2879985359
 31
0.0
 11
5.3495788729
 21
-6.3100989086
 31
0.0
 11
5.3498285336
 21
-6.3400958906
 31
0.0
 11
5.3500439068
 21
-6.3770774758
 31
0.0
 11
5.3502185662
 21
-6.4199197231
 31
0.0
 11
5.3503472411
 21
-6.467320655
 31
0.0
 11
5.3504259007
 21
-6.5178390648
 31
0.0
 11
5.3504523729
 21
-6.5699133183
 31
0.0
  0
SPLINE
  5
57C
100
AcDbEntity
  8
RACCORDO
100
AcDbSpline
 62
253
  6
CONTINUOUS
 70
0
 71
3
 72
16
 73
12
 74
10
 42
0.0000001
 43
0.0000001
 44
0.0000000001
 12
0.0000012478
 22
0.2999696776
 32
0.0
 13
0.0949852704
 23
0.2845340153
 33
0.0
 40
0.0
 40
0.0
 40
0.0
 40
0.0
 40
0.1716903986
 40
0.3383600475
 40
0.4949773352
 40
0.6368827949
 40
0.7598615728
 40
0.8602569174
 40
0.9350874649
 40
0.9821296043
 40
1.0
 40
1.0
 40
1.0
 40
1.0
 10
5.4904123487
 20
-4.8426853477
 30
0.0
 10
5.4904124201
 20
-4.8255180432
 30
0.0
 10
5.4904286494
 20
-4.7916853554
 30
0.0
 10
5.4905055062
 20
-4.742193105
 30
0.0
 10
5.4906216858
 20
-4.6956772796
 30
0.0
 10
5.4908076206
 20
-4.6535363028
 30
0.0
 10
5.490949949
 20
-4.6169987688
 30
0.0
 10
5.4913501319
 20
-4.5872201017
 30
0.0
 10
5.4911985778
 20
-4.5649059393
 30
0.0
 10
5.4921978166
 20
-4.5511051326
 30
0.0
 10
5.4915621823
 20
-4.5444257221
 30
0.0
 10
5.4921279904
 20
-4.5427308103
 30
0.0
 11
5.4904123487
 21
-4.8426853477
 31
0.0
 11
5.4904382389
 21
-4.7911834407
 31
0.0
 11
5.4905151847
 21
-4.7411876591
 31
0.0
 11
5.4906410853
 21
-4.6942073905
 31
0.0
 11
5.4908120558
 21
-4.6516403988
 31
0.0
 11
5.4910232271
 21
-4.6147510989
 31
0.0
 11
5.491268026
 21
-4.5846365347
 31
0.0
 11
5.4915395005
 21
-4.5621912811
 31
0.0
 11
5.4918288088
 21
-4.5480830317
 31
0.0
 11
5.4921279904
 21
-4.5427308103
 31
0.0
  0
SPLINE
  5
57D
100
AcDbEntity
  8
RACCORDO
100
AcDbSpline
 62
253
  6
CONTINUOUS
 70
0
 71
3
 72
16
 73
12
 74
10
 42
0.0000001
 43
0.0000001
 44
0.0000000001
 12
0.0949852718
 22
-0.2845340149
 32
0.0
 13
0.0000012478
 23
-0.2999696776
 33
0.0
 40
0.0
 40
0.0
 40
0.0
 40
0.0
 40
0.0178703958
 40
0.0649125353
 40
0.1397430829
 40
0.2401384275
 40
0.3631172055
 40
0.5050226653
 40
0.661639953
 40
0.8283096018
 40
1.0
 40
1.0
 40
1.0
 40
1.0
 10
5.289371423
 20
-4.5427308103
 30
0.0
 10
5.2899372311
 20
-4.5444257221
 30
0.0
 10
5.2893015968
 20
-4.5511051326
 30
0.0
 10
5.2903008356
 20
-4.5649059393
 30
0.0
 10
5.2901492815
 20
-4.5872201018
 30
0.0
 10
5.2905494644
 20
-4.6169987689
 30
0.0
 10
5.2906917928
 20
-4.653536303
 30
0.0
 10
5.2908777276
 20
-4.6956772797
 30
0.0
 10
5.2909939072
 20
-4.7421931052
 30
0.0
 10
5.291070764
 20
-4.7916853555
 30
0.0
 10
5.2910869933
 20
-4.8255180432
 30
0.0
 10
5.2910870647
 20
-4.8426853477
 30
0.0
 11
5.289371423
 21
-4.5427308103
 31
0.0
 11
5.2896706046
 21
-4.5480830318
 31
0.0
 11
5.2899599129
 21
-4.5621912812
 31
0.0
 11
5.2902313874
 21
-4.5846365348
 31
0.0
 11
5.2904761863
 21
-4.614751099
 31
0.0
 11
5.2906873576
 21
-4.6516403989
 31
0.0
 11
5.2908583281
 21
-4.6942073906
 31
0.0
 11
5.2909842287
 21
-4.7411876592
 31
0.0
 11
5.2910611745
 21
-4.7911834408
 31
0.0
 11
5.2910870647
 21
-4.8426853477
 31
0.0
  0
SPLINE
  5
57E
100
AcDbEntity
  8
RACCORDO
100
AcDbSpline
 62
253
  6
CONTINUOUS
 70
0
 71
3
 72
15
 73
11
 74
9
 42
0.0000001
 43
0.0000001
 44
0.0000000001
 12
0.00000131
 22
0.2954494977
 32
0.0
 13
0.00976487
 23
0.2952880848
 33
0.0
 40
0.0
 40
0.0
 40
0.0
 40
0.0
 40
0.1762543538
 40
0.3472428692
 40
0.5076801248
 40
0.6526883366
 40
0.7778610396
 40
0.8793945376
 40
0.9542028934
 40
1.0
 40
1.0
 40
1.0
 40
1.0
 10
-5.7689529595
 20
-6.5699133183
 30
0.0
 10
-5.7689528825
 20
-6.5525552315
 30
0.0
 10
-5.7689358401
 20
-6.5183576525
 30
0.0
 10
-5.7688593157
 20
-6.4683597531
 30
0.0
 10
-5.7687340464
 20
-6.4214391906
 30
0.0
 10
-5.7685654477
 20
-6.3790308425
 30
0.0
 10
-5.7683569224
 20
-6.3424238813
 30
0.0
 10
-5.7681243403
 20
-6.3127304393
 30
0.0
 10
-5.7678607823
 20
-6.2908554519
 30
0.0
 10
-5.767659185
 20
-6.2789787723
 30
0.0
 10
-5.7675101174
 20
-6.2744709924
 30
0.0
 11
-5.7689529595
 21
-6.5699133183
 31
0.0
 11
-5.7689264873
 21
-6.5178390647
 31
0.0
 11
-5.7688478277
 21
-6.4673206549
 31
0.0
 11
-5.7687191528
 21
-6.419919723
 31
0.0
 11
-5.7685444934
 21
-6.3770774757
 31
0.0
 11
-5.7683291202
 21
-6.3400958906
 31
0.0
 11
-5.7680794595
 21
-6.3100989085
 31
0.0
 11
-5.7678038529
 21
-6.2879985358
 31
0.0
 11
-5.7675101174
 21
-6.2744709924
 31
0.0
  0
SPLINE
  5
57F
100
AcDbEntity
  8
RACCORDO
100
AcDbSpline
 62
253
  6
CONTINUOUS
 70
0
 71
3
 72
15
 73
11
 74
9
 42
0.0000001
 43
0.0000001
 44
0.0000000001
 12
0.0097648701
 22
-0.2952880848
 32
0.0
 13
0.00000131
 23
-0.2954494977
 33
0.0
 40
0.0
 40
0.0
 40
0.0
 40
0.0
 40
0.0457971067
 40
0.1206054626
 40
0.2221389606
 40
0.3473116637
 40
0.4923198754
 40
0.652757131
 40
0.8237456464
 40
1.0
 40
1.0
 40
1.0
 40
1.0
 10
-5.8509904692
 20
-6.2744709924
 30
0.0
 10
-5.8508414016
 20
-6.2789787724
 30
0.0
 10
-5.8506398043
 20
-6.2908554519
 30
0.0
 10
-5.8503762462
 20
-6.3127304393
 30
0.0
 10
-5.8501436642
 20
-6.3424238814
 30
0.0
 10
-5.8499351388
 20
-6.3790308426
 30
0.0
 10
-5.8497665401
 20
-6.4214391907
 30
0.0
 10
-5.8496412709
 20
-6.4683597532
 30
0.0
 10
-5.8495647465
 20
-6.5183576525
 30
0.0
 10
-5.8495477041
 20
-6.5525552315
 30
0.0
 10
-5.8495476271
 20
-6.5699133183
 30
0.0
 11
-5.8509904692
 21
-6.2744709924
 31
0.0
 11
-5.8506967337
 21
-6.2879985359
 31
0.0
 11
-5.8504211271
 21
-6.3100989086
 31
0.0
 11
-5.8501714664
 21
-6.3400958906
 31
0.0
 11
-5.8499560932
 21
-6.3770774758
 31
0.0
 11
-5.8497814338
 21
-6.4199197231
 31
0.0
 11
-5.8496527589
 21
-6.467320655
 31
0.0
 11
-5.8495740993
 21
-6.5178390648
 31
0.0
 11
-5.8495476271
 21
-6.5699133183
 31
0.0
  0
SPLINE
  5
580
100
AcDbEntity
  8
RACCORDO
100
AcDbSpline
 62
253
  6
CONTINUOUS
 70
0
 71
3
 72
9
 73
5
 74
3
 42
0.0000001
 43
0.0000001
 44
0.0000000001
 12
-0.002969815
 22
-6.0152618038
 32
0.0
 13
-0.004238536
 23
-6.0152610437
 33
0.0
 40
0.0
 40
0.0
 40
0.0
 40
0.0
 40
0.5000541149
 40
1.0
 40
1.0
 40
1.0
 40
1.0
 10
-9.8428795512
 20
-3.0184275617
 30
0.0
 10
-9.843374574
 20
-4.0210797007
 30
0.0
 10
-9.8444701938
 20
-6.0261669179
 30
0.0
 10
-9.8457772396
 20
-8.0312540084
 30
0.0
 10
-9.8464835858
 20
-9.0336890106
 30
0.0
 11
-9.8428795512
 21
-3.0184275617
 31
0.0
 11
-9.8445231803
 21
-6.0263838963
 31
0.0
 11
-9.8464835858
 21
-9.0336890106
 31
0.0
  0
SPLINE
  5
581
100
AcDbEntity
  8
RACCORDO
100
AcDbSpline
 62
253
  6
CONTINUOUS
 70
0
 71
3
 72
16
 73
12
 74
10
 42
0.0000001
 43
0.0000001
 44
0.0000000001
 12
0.0000012478
 22
0.2999696776
 32
0.0
 13
0.0949852704
 23
0.2845340153
 33
0.0
 40
0.0
 40
0.0
 40
0.0
 40
0.0
 40
0.1716903986
 40
0.3383600475
 40
0.4949773352
 40
0.6368827949
 40
0.7598615728
 40
0.8602569174
 40
0.9350874649
 40
0.9821296043
 40
1.0
 40
1.0
 40
1.0
 40
1.0
 10
-5.7095876513
 20
-4.8426853477
 30
0.0
 10
-5.7095875799
 20
-4.8255180432
 30
0.0
 10
-5.7095713506
 20
-4.7916853554
 30
0.0
 10
-5.7094944938
 20
-4.742193105
 30
0.0
 10
-5.7093783142
 20
-4.6956772796
 30
0.0
 10
-5.7091923794
 20
-4.6535363028
 30
0.0
 10
-5.709050051
 20
-4.6169987688
 30
0.0
 10
-5.7086498681
 20
-4.5872201017
 30
0.0
 10
-5.7088014222
 20
-4.5649059393
 30
0.0
 10
-5.7078021834
 20
-4.5511051326
 30
0.0
 10
-5.7084378177
 20
-4.5444257221
 30
0.0
 10
-5.7078720096
 20
-4.5427308103
 30
0.0
 11
-5.7095876513
 21
-4.8426853477
 31
0.0
 11
-5.7095617611
 21
-4.7911834407
 31
0.0
 11
-5.7094848153
 21
-4.7411876591
 31
0.0
 11
-5.7093589147
 21
-4.6942073905
 31
0.0
 11
-5.7091879442
 21
-4.6516403988
 31
0.0
 11
-5.7089767729
 21
-4.6147510989
 31
0.0
 11
-5.708731974
 21
-4.5846365347
 31
0.0
 11
-5.7084604995
 21
-4.5621912811
 31
0.0
 11
-5.7081711912
 21
-4.5480830317
 31
0.0
 11
-5.7078720096
 21
-4.5427308103
 31
0.0
  0
SPLINE
  5
582
100
AcDbEntity
  8
RACCORDO
100
AcDbSpline
 62
253
  6
CONTINUOUS
 70
0
 71
3
 72
9
 73
5
 74
3
 42
0.0000001
 43
0.0000001
 44
0.0000000001
 12
-0.0004133782
 22
-8.9856422609
 32
0.0
 13
-0.0032401193
 23
-8.9856416862
 33
0.0
 40
0.0
 40
0.0
 40
0.0
 40
0.0
 40
0.5000412892
 40
1.0
 40
1.0
 40
1.0
 40
1.0
 10
-9.8394298009
 20
9.7672144952
 30
0.0
 10
-9.839498703
 20
8.2694837817
 30
0.0
 10
-9.8398720165
 20
5.2742697009
 30
0.0
 10
-9.8407164257
 20
2.2790557159
 30
0.0
 10
-9.841256401
 20
0.7815724383
 30
0.0
 11
-9.8394298009
 21
9.7672144952
 31
0.0
 11
-9.8399898407
 21
5.2740223848
 31
0.0
 11
-9.841256401
 21
0.7815724383
 31
0.0
  0
SPLINE
  5
583
100
AcDbEntity
  8
RACCORDO
100
AcDbSpline
 62
253
  6
CONTINUOUS
 70
0
 71
3
 72
16
 73
12
 74
10
 42
0.0000001
 43
0.0000001
 44
0.0000000001
 12
0.0949852718
 22
-0.2845340149
 32
0.0
 13
0.0000012478
 23
-0.2999696776
 33
0.0
 40
0.0
 40
0.0
 40
0.0
 40
0.0
 40
0.0178703958
 40
0.0649125353
 40
0.1397430829
 40
0.2401384275
 40
0.3631172055
 40
0.5050226653
 40
0.661639953
 40
0.8283096018
 40
1.0
 40
1.0
 40
1.0
 40
1.0
 10
-5.910628577
 20
-4.5427308103
 30
0.0
 10
-5.9100627689
 20
-4.5444257221
 30
0.0
 10
-5.9106984032
 20
-4.5511051326
 30
0.0
 10
-5.9096991644
 20
-4.5649059393
 30
0.0
 10
-5.9098507185
 20
-4.5872201018
 30
0.0
 10
-5.9094505356
 20
-4.6169987689
 30
0.0
 10
-5.9093082072
 20
-4.653536303
 30
0.0
 10
-5.9091222724
 20
-4.6956772797
 30
0.0
 10
-5.9090060928
 20
-4.7421931052
 30
0.0
 10
-5.908929236
 20
-4.7916853555
 30
0.0
 10
-5.9089130067
 20
-4.8255180432
 30
0.0
 10
-5.9089129353
 20
-4.8426853477
 30
0.0
 11
-5.910628577
 21
-4.5427308103
 31
0.0
 11
-5.9103293954
 21
-4.5480830318
 31
0.0
 11
-5.9100400871
 21
-4.5621912812
 31
0.0
 11
-5.9097686126
 21
-4.5846365348
 31
0.0
 11
-5.9095238137
 21
-4.614751099
 31
0.0
 11
-5.9093126424
 21
-4.6516403989
 31
0.0
 11
-5.9091416719
 21
-4.6942073906
 31
0.0
 11
-5.9090157713
 21
-4.7411876592
 31
0.0
 11
-5.9089388255
 21
-4.7911834408
 31
0.0
 11
-5.9089129353
 21
-4.8426853477
 31
0.0
  0
SPLINE
  5
584
100
AcDbEntity
  8
RACCORDO
100
AcDbSpline
 62
253
  6
CONTINUOUS
 70
0
 71
3
 72
9
 73
5
 74
3
 42
0.0000001
 43
0.0000001
 44
0.0000000001
 12
-0.0043623264
 22
-1.6181841037
 32
0.0
 13
-0.0062751532
 23
-1.6181778165
 33
0.0
 40
0.0
 40
0.0
 40
0.0
 40
0.0
 40
0.5000111748
 40
1.0
 40
1.0
 40
1.0
 40
1.0
 10
3.9610394004
 20
7.3909181747
 30
0.0
 10
3.9603123298
 20
7.1212147964
 30
0.0
 10
3.9586988013
 20
6.5818205132
 30
0.0
 10
3.9567665017
 20
6.0424272778
 30
0.0
 10
3.9557206662
 20
5.7727370026
 30
0.0
 11
3.9610394004
 21
7.3909181747
 31
0.0
 11
3.9586190689
 21
6.5818087199
 31
0.0
 11
3.9557206662
 21
5.7727370026
 31
0.0
  0
SPLINE
  5
585
100
AcDbEntity
  8
RACCORDO
100
AcDbSpline
 62
253
  6
CONTINUOUS
 70
0
 71
3
 72
9
 73
5
 74
3
 42
0.0000001
 43
0.0000001
 44
0.0000000001
 12
-0.0062751532
 22
1.6181778165
 32
0.0
 13
-0.0043623264
 23
1.6181841037
 33
0.0
 40
0.0
 40
0.0
 40
0.0
 40
0.0
 40
0.4999892045
 40
1.0
 40
1.0
 40
1.0
 40
1.0
 10
-4.3742212528
 20
5.7727370026
 30
0.0
 10
-4.375267089
 20
6.0424274824
 30
0.0
 10
-4.3771993885
 20
6.5818207179
 30
0.0
 10
-4.3788129169
 20
7.1212150011
 30
0.0
 10
-4.379539987
 20
7.3909181747
 30
0.0
 11
-4.3742212528
 21
5.7727370026
 31
0.0
 11
-4.3771196575
 21
6.5818093338
 31
0.0
 11
-4.379539987
 21
7.3909181747
 31
0.0
  0
SPLINE
  5
586
100
AcDbEntity
  8
RACCORDO
100
AcDbSpline
 62
253
  6
CONTINUOUS
 70
0
 71
3
 72
9
 73
5
 74
3
 42
0.0000001
 43
0.0000001
 44
0.0000000001
 12
-0.0032401193
 22
8.9856416862
 32
0.0
 13
-0.0004133782
 23
8.9856422609
 33
0.0
 40
0.0
 40
0.0
 40
0.0
 40
0.0
 40
0.4999587091
 40
1.0
 40
1.0
 40
1.0
 40
1.0
 10
9.4227558144
 20
0.7815724383
 30
0.0
 10
9.4222158391
 20
2.279055711
 30
0.0
 10
9.4213714299
 20
5.274269696
 30
0.0
 10
9.4209981164
 20
8.2694837768
 30
0.0
 10
9.4209292143
 20
9.7672144952
 30
0.0
 11
9.4227558144
 21
0.7815724383
 31
0.0
 11
9.4214892541
 21
5.27402237
 31
0.0
 11
9.4209292143
 21
9.7672144952
 31
0.0
  0
SPLINE
  5
587
100
AcDbEntity
  8
RACCORDO
100
AcDbSpline
 62
253
  6
CONTINUOUS
 70
0
 71
3
 72
9
 73
5
 74
3
 42
0.0000001
 43
0.0000001
 44
0.0000000001
 12
-0.004238536
 22
6.0152610437
 32
0.0
 13
-0.002969815
 23
6.0152618038
 33
0.0
 40
0.0
 40
0.0
 40
0.0
 40
0.0
 40
0.4999458851
 40
1.0
 40
1.0
 40
1.0
 40
1.0
 10
9.4279829992
 20
-9.0336890106
 30
0.0
 10
9.427276653
 20
-8.0312540084
 30
0.0
 10
9.4259696072
 20
-6.0261669179
 30
0.0
 10
9.4248739874
 20
-4.0210797007
 30
0.0
 10
9.4243789646
 20
-3.0184275617
 30
0.0
 11
9.4279829992
 21
-9.0336890106
 31
0.0
 11
9.4260225937
 21
-6.0263838963
 31
0.0
 11
9.4243789646
 21
-3.0184275617
 31
0.0
  0
SPLINE
  5
588
100
AcDbEntity
  8
RACCORDO
100
AcDbSpline
 62
253
  6
CONTINUOUS
 70
0
 71
3
 72
15
 73
11
 74
9
 42
0.0000001
 43
0.0000001
 44
0.0000000001
 12
0.4014143357
 22
-0.0070088487
 32
0.0
 13
0.0139942489
 23
-0.4012315464
 33
0.0
 40
0.0
 40
0.0
 40
0.0
 40
0.0
 40
0.1440044844
 40
0.2856956272
 40
0.4226390599
 40
0.5528844372
 40
0.67524257
 40
0.7895686166
 40
0.89699843
 40
1.0
 40
1.0
 40
1.0
 40
1.0
 10
6.9941735213
 20
7.1280190477
 30
0.0
 10
7.0134420094
 20
7.1276826125
 30
0.0
 10
7.0516761637
 20
7.1244133392
 30
0.0
 10
7.1070104188
 20
7.1118739748
 30
0.0
 10
7.1582721455
 20
7.0921469179
 30
0.0
 10
7.2035964715
 20
7.0659096821
 30
0.0
 10
7.2413375794
 20
7.0340452983
 30
0.0
 10
7.270067643
 20
6.9975874965
 30
0.0
 10
7.2885738373
 20
6.9577981536
 30
0.0
 10
7.2935102928
 20
6.9296628397
 30
0.0
 10
7.2939907694
 20
6.9158870133
 30
0.0
 11
6.9941735213
 21
7.1280190477
 31
0.0
 11
7.0517750595
 21
7.1230639282
 31
0.0
 11
7.1072318011
 21
7.1103945639
 31
0.0
 11
7.1584788108
 21
7.0904826993
 31
0.0
 11
7.2036079033
 21
7.064069754
 31
0.0
 11
7.240938694
 21
7.0321392155
 31
0.0
 11
7.2690811688
 21
6.9958800192
 31
0.0
 11
7.286987441
 21
6.9566422786
 31
0.0
 11
7.2939907694
 21
6.9158870133
 31
0.0
  0
SPLINE
  5
589
100
AcDbEntity
  8
RACCORDO
100
AcDbSpline
 62
253
  6
CONTINUOUS
 70
0
 71
3
 72
15
 73
11
 74
9
 42
0.0000001
 43
0.0000001
 44
0.0000000001
 12
0.4014143351
 22
-0.007008849
 32
0.0
 13
0.0139942489
 23
-0.4012315459
 33
0.0
 40
0.0
 40
0.0
 40
0.0
 40
0.0
 40
0.1440042721
 40
0.2856952433
 40
0.4226385679
 40
0.5528839124
 40
0.6752420872
 40
0.7895682409
 40
0.8969982159
 40
1.0
 40
1.0
 40
1.0
 40
1.0
 10
7.0153741572
 20
7.7351258289
 30
0.0
 10
7.0346426169
 20
7.7347893941
 30
0.0
 10
7.0728767197
 20
7.7315201291
 30
0.0
 10
7.1282109135
 20
7.7189807956
 30
0.0
 10
7.1794726099
 20
7.6992537784
 30
0.0
 10
7.2247969409
 20
7.6730165788
 30
0.0
 10
7.2625380853
 20
7.6411522146
 30
0.0
 10
7.291268205
 20
7.6046944036
 30
0.0
 10
7.3097744548
 20
7.5649050138
 30
0.0
 10
7.3147109278
 20
7.5367696495
 30
0.0
 10
7.3151914053
 20
7.5229937945
 30
0.0
 11
7.0153741572
 21
7.7351258289
 31
0.0
 11
7.072975611
 21
7.7301707225
 31
0.0
 11
7.1284322891
 21
7.7175013902
 31
0.0
 11
7.179679268
 21
7.6975895664
 31
0.0
 11
7.2248083664
 21
7.6711766574
 31
0.0
 11
7.262139195
 21
7.6392461373
 31
0.0
 11
7.2902817257
 21
7.60298693
 31
0.0
 11
7.3081880512
 21
7.5637491425
 31
0.0
 11
7.3151914053
 21
7.5229937945
 31
0.0
  0
SPLINE
  5
58A
100
AcDbEntity
  8
RACCORDO
100
AcDbSpline
 62
7
  6
CONTINUOUS
 70
0
 71
3
 72
15
 73
11
 74
9
 42
0.0000001
 43
0.0000001
 44
0.0000000001
 12
0.0895635424
 22
-0.1791816741
 32
0.0
 13
0.2003189968
 23
0.0
 33
0.0
 40
0.0
 40
0.0
 40
0.0
 40
0.0
 40
0.0228702366
 40
0.0820374114
 40
0.1750076777
 40
0.3001514248
 40
0.4519007439
 40
0.6225386226
 40
0.8086061726
 40
1.0
 40
1.0
 40
1.0
 40
1.0
 10
-10.0393990491
 20
9.7740761527
 30
0.0
 10
-10.0387162693
 20
9.772710177
 30
0.0
 10
-10.0317897654
 20
9.7729327965
 30
0.0
 10
-10.0214816348
 20
9.7707972074
 30
0.0
 10
-10.0022935064
 20
9.770251547
 30
0.0
 10
-9.977908157
 20
9.7690362731
 30
0.0
 10
-9.9479306602
 20
9.7683018651
 30
0.0
 10
-9.9140187566
 20
9.7676658644
 30
0.0
 10
-9.8774115898
 20
9.7673000153
 30
0.0
 10
-9.8522097407
 20
9.7672144952
 30
0.0
 10
-9.8394298009
 20
9.7672144952
 30
0.0
 11
-10.0393990491
 21
9.7740761527
 31
0.0
 11
-10.0350171259
 21
9.7727391966
 31
0.0
 11
-10.0232356645
 21
9.7714452115
 31
0.0
 11
-10.0046495377
 21
9.7702626373
 31
0.0
 11
-9.9796026964
 21
9.7692167165
 31
0.0
 11
-9.9492164793
 21
9.7683607313
 31
0.0
 11
-9.915040239
 21
9.7677327836
 31
0.0
 11
-9.8777694016
 21
9.7673440122
 31
0.0
 11
-9.8394298009
 21
9.7672144952
 31
0.0
  0
SPLINE
  5
58B
100
AcDbEntity
  8
RACCORDO
100
AcDbSpline
 62
7
  6
CONTINUOUS
 70
0
 71
3
 72
15
 73
11
 74
9
 42
0.0000001
 43
0.0000001
 44
0.0000000001
 12
0.2003189965
 22
-0.0
 32
0.0
 13
0.0895635422
 23
0.1791816739
 33
0.0
 40
0.0
 40
0.0
 40
0.0
 40
0.0
 40
0.1913938261
 40
0.3774613764
 40
0.5480992554
 40
0.6998485747
 40
0.824992322
 40
0.9179625885
 40
0.9771297633
 40
1.0
 40
1.0
 40
1.0
 40
1.0
 10
9.4209292146
 20
9.7672144952
 30
0.0
 10
9.4337091543
 20
9.7672144952
 30
0.0
 10
9.4589110033
 20
9.7673000153
 30
0.0
 10
9.49551817
 20
9.7676658644
 30
0.0
 10
9.5294300736
 20
9.7683018651
 30
0.0
 10
9.5594075704
 20
9.7690362731
 30
0.0
 10
9.5837929198
 20
9.770251547
 30
0.0
 10
9.6029810482
 20
9.7707972074
 30
0.0
 10
9.6132891788
 20
9.7729327965
 30
0.0
 10
9.6202156827
 20
9.772710177
 30
0.0
 10
9.6208984625
 20
9.7740761527
 30
0.0
 11
9.4209292146
 21
9.7672144952
 31
0.0
 11
9.459268815
 21
9.7673440122
 31
0.0
 11
9.4965396524
 21
9.7677327836
 31
0.0
 11
9.5307158927
 21
9.7683607313
 31
0.0
 11
9.5611021098
 21
9.7692167165
 31
0.0
 11
9.5861489511
 21
9.7702626373
 31
0.0
 11
9.6047350779
 21
9.7714452115
 31
0.0
 11
9.6165165393
 21
9.7727391966
 31
0.0
 11
9.6208984625
 21
9.7740761527
 31
0.0
  0
SPLINE
  5
58C
100
AcDbEntity
  8
RACCORDO
100
AcDbSpline
 62
253
  6
CONTINUOUS
 70
0
 71
3
 72
17
 73
13
 74
11
 42
0.0000001
 43
0.0000001
 44
0.0000000001
 12
-0.1414238943
 22
0.1417076164
 32
0.0
 13
-0.0000004892
 23
0.2002043117
 33
0.0
 40
0.0
 40
0.0
 40
0.0
 40
0.0
 40
0.0178774913
 40
0.058389992
 40
0.1209323587
 40
0.2041033138
 40
0.3059766177
 40
0.4241622179
 40
0.5558804402
 40
0.698040467
 40
0.8472808104
 40
1.0
 40
1.0
 40
1.0
 40
1.0
 10
-7.0013144315
 20
5.2234538246
 30
0.0
 10
-7.0021571997
 20
5.2242982835
 30
0.0
 10
-7.0024726564
 20
5.2285917805
 30
0.0
 10
-7.0037533816
 20
5.2362394696
 30
0.0
 10
-7.004474057
 20
5.2488267288
 30
0.0
 10
-7.005414222
 20
5.2652488966
 30
0.0
 10
-7.0061606391
 20
5.2854991282
 30
0.0
 10
-7.0068351692
 20
5.3089561498
 30
0.0
 10
-7.0073681044
 20
5.3351182133
 30
0.0
 10
-7.0077619005
 20
5.3633514631
 30
0.0
 10
-7.0080013214
 20
5.3929891287
 30
0.0
 10
-7.0080548171
 20
5.4131403099
 30
0.0
 10
-7.008054842
 20
5.42333199
 30
0.0
 11
-7.0013144315
 21
5.2234538246
 31
0.0
 11
-7.0023787652
 21
5.2268710625
 31
0.0
 11
-7.0034130442
 21
5.2349156243
 31
0.0
 11
-7.004392278
 21
5.2473985262
 31
0.0
 11
-7.0052932692
 21
5.264025316
 31
0.0
 11
-7.006094827
 21
5.2844050337
 31
0.0
 11
-7.0067780219
 21
5.3080564351
 31
0.0
 11
-7.0073267592
 21
5.3344212812
 31
0.0
 11
-7.0077281517
 21
5.362879501
 31
0.0
 11
-7.0079727499
 21
5.39275706
 31
0.0
 11
-7.008054842
 21
5.42333199
 31
0.0
  0
SPLINE
  5
58D
100
AcDbEntity
  8
RACCORDO
100
AcDbSpline
 62
253
  6
CONTINUOUS
 70
0
 71
3
 72
13
 73
9
 74
7
 42
0.0000001
 43
0.0000001
 44
0.0000000001
 12
0.0000002346
 22
0.141442405
 32
0.0
 13
0.0049357932
 23
0.1413562587
 33
0.0
 40
0.0
 40
0.0
 40
0.0
 40
0.0
 40
0.1844732589
 40
0.3659045925
 40
0.541117895
 40
0.7070849145
 40
0.8609356791
 40
1.0
 40
1.0
 40
1.0
 40
1.0
 10
-7.008054842
 20
6.7744656571
 30
0.0
 10
-7.0080548275
 20
6.7831631042
 30
0.0
 10
-7.008015721
 20
6.800414606
 30
0.0
 10
-7.0078401079
 20
6.825926431
 30
0.0
 10
-7.0075508314
 20
6.8505646536
 30
0.0
 10
-7.0071531573
 20
6.8739008553
 30
0.0
 10
-7.0066545155
 20
6.8955303717
 30
0.0
 10
-7.0062380282
 20
6.909334476
 30
0.0
 10
-7.0060092306
 20
6.9158870133
 30
0.0
 11
-7.008054842
 21
6.7744656571
 31
0.0
 11
-7.0079951527
 21
6.8005579302
 31
0.0
 11
-7.0078169554
 21
6.8262193957
 31
0.0
 11
-7.0075232352
 21
6.8510002459
 31
0.0
 11
-7.0071190229
 21
6.87447154
 31
0.0
 11
-7.0066113588
 21
6.8962266397
 31
0.0
 11
-7.0060092306
 21
6.9158870133
 31
0.0
  0
SPLINE
  5
58E
100
AcDbEntity
  8
RACCORDO
100
AcDbSpline
 62
253
  6
CONTINUOUS
 70
0
 71
3
 72
13
 73
9
 74
7
 42
0.0000001
 43
0.0000001
 44
0.0000000001
 12
0.0197318509
 22
0.5654254321
 32
0.0
 13
0.0000091903
 23
0.565769622
 33
0.0
 40
0.0
 40
0.0
 40
0.0
 40
0.0
 40
0.1361522584
 40
0.2904133641
 40
0.4589859497
 40
0.637088475
 40
0.8192974361
 40
1.0
 40
1.0
 40
1.0
 40
1.0
 10
-6.9848085947
 20
7.5229937945
 30
0.0
 10
-6.9839130827
 20
7.548655111
 30
0.0
 10
-6.9822553553
 20
7.6033997248
 30
0.0
 10
-6.9802510267
 20
7.6899371755
 30
0.0
 10
-6.9786378015
 20
7.7843954285
 30
0.0
 10
-6.9774716219
 20
7.8841312263
 30
0.0
 10
-6.9767779825
 20
7.9861590074
 30
0.0
 10
-6.976626703
 20
8.0546005457
 30
0.0
 10
-6.9766261494
 20
8.0886792195
 30
0.0
 11
-6.9848085947
 21
7.5229937945
 31
0.0
 11
-6.9824443405
 21
7.5999883155
 31
0.0
 11
-6.9803980287
 21
7.6872405704
 31
0.0
 11
-6.9787517268
 21
7.7825996084
 31
0.0
 11
-6.9775619228
 21
7.8833575822
 31
0.0
 11
-6.9768552074
 21
7.9864434548
 31
0.0
 11
-6.9766261494
 21
8.0886792195
 31
0.0
  0
SPLINE
  5
58F
100
AcDbEntity
  8
RACCORDO
100
AcDbSpline
 62
253
  6
CONTINUOUS
 70
0
 71
3
 72
13
 73
9
 74
7
 42
0.0000001
 43
0.0000001
 44
0.0000000001
 12
0.0000092097
 22
-0.565769622
 32
0.0
 13
0.0197318825
 23
-0.565425431
 33
0.0
 40
0.0
 40
0.0
 40
0.0
 40
0.0
 40
0.1807025814
 40
0.3629115369
 40
0.5410140573
 40
0.709586639
 40
0.8638477379
 40
1.0
 40
1.0
 40
1.0
 40
1.0
 10
-7.7418744372
 20
8.0886792195
 30
0.0
 10
-7.7418738824
 20
8.0546005424
 30
0.0
 10
-7.7417226047
 20
7.9861590019
 30
0.0
 10
-7.7410289644
 20
7.8841312194
 30
0.0
 10
-7.7398627849
 20
7.7843954244
 30
0.0
 10
-7.7382495602
 20
7.6899371743
 30
0.0
 10
-7.7362452304
 20
7.6033997249
 30
0.0
 10
-7.7345875054
 20
7.5486551117
 30
0.0
 10
-7.7336919919
 20
7.5229937945
 30
0.0
 11
-7.7418744372
 21
8.0886792195
 31
0.0
 11
-7.7416453792
 21
7.9864434449
 31
0.0
 11
-7.7409386637
 21
7.8833575755
 31
0.0
 11
-7.7397488598
 21
7.7825996045
 31
0.0
 11
-7.7381025579
 21
7.6872405687
 31
0.0
 11
-7.736056246
 21
7.5999883176
 31
0.0
 11
-7.7336919919
 21
7.5229937945
 31
0.0
  0
SPLINE
  5
590
100
AcDbEntity
  8
RACCORDO
100
AcDbSpline
 62
253
  6
CONTINUOUS
 70
0
 71
3
 72
13
 73
9
 74
7
 42
0.0000001
 43
0.0000001
 44
0.0000000001
 12
0.0049357932
 22
-0.1413562587
 32
0.0
 13
0.0000002346
 23
-0.141442405
 33
0.0
 40
0.0
 40
0.0
 40
0.0
 40
0.0
 40
0.1390643219
 40
0.2929150865
 40
0.4588821061
 40
0.6340954086
 40
0.8155267422
 40
1.0
 40
1.0
 40
1.0
 40
1.0
 10
-7.712491356
 20
6.9158870133
 30
0.0
 10
-7.7122625584
 20
6.9093344759
 30
0.0
 10
-7.7118460711
 20
6.8955303716
 30
0.0
 10
-7.7113474293
 20
6.8739008551
 30
0.0
 10
-7.7109497552
 20
6.8505646534
 30
0.0
 10
-7.7106604787
 20
6.8259264309
 30
0.0
 10
-7.7104848655
 20
6.8004146059
 30
0.0
 10
-7.7104457591
 20
6.7831631042
 30
0.0
 10
-7.7104457446
 20
6.7744656571
 30
0.0
 11
-7.712491356
 21
6.9158870133
 31
0.0
 11
-7.7118892278
 21
6.8962266396
 31
0.0
 11
-7.7113815637
 21
6.8744715399
 31
0.0
 11
-7.7109773514
 21
6.8510002458
 31
0.0
 11
-7.7106836312
 21
6.8262193955
 31
0.0
 11
-7.7105054339
 21
6.8005579301
 31
0.0
 11
-7.7104457446
 21
6.7744656571
 31
0.0
  0
SPLINE
  5
591
100
AcDbEntity
  8
RACCORDO
100
AcDbSpline
 62
253
  6
CONTINUOUS
 70
0
 71
3
 72
17
 73
13
 74
11
 42
0.0000001
 43
0.0000001
 44
0.0000000001
 12
-0.0000004892
 22
-0.2002043117
 32
0.0
 13
-0.1414238981
 23
-0.1417076126
 33
0.0
 40
0.0
 40
0.0
 40
0.0
 40
0.0
 40
0.1527191901
 40
0.3019595335
 40
0.4441195603
 40
0.5758377826
 40
0.6940233827
 40
0.7958966866
 40
0.8790676415
 40
0.9416100082
 40
0.9821225088
 40
1.0
 40
1.0
 40
1.0
 40
1.0
 10
-7.7104457446
 20
5.42333199
 30
0.0
 10
-7.7104457695
 20
5.4131403099
 30
0.0
 10
-7.7104992652
 20
5.3929891287
 30
0.0
 10
-7.7107386861
 20
5.363351463
 30
0.0
 10
-7.7111324822
 20
5.3351182132
 30
0.0
 10
-7.7116654174
 20
5.3089561497
 30
0.0
 10
-7.7123399475
 20
5.2854991281
 30
0.0
 10
-7.7130863646
 20
5.2652488965
 30
0.0
 10
-7.7140265296
 20
5.2488267287
 30
0.0
 10
-7.714747205
 20
5.2362394696
 30
0.0
 10
-7.7160279302
 20
5.2285917805
 30
0.0
 10
-7.7163433869
 20
5.2242982835
 30
0.0
 10
-7.7171861551
 20
5.2234538246
 30
0.0
 11
-7.7104457446
 21
5.42333199
 31
0.0
 11
-7.7105278367
 21
5.3927570599
 31
0.0
 11
-7.7107724349
 21
5.3628795009
 31
0.0
 11
-7.7111738274
 21
5.3344212811
 31
0.0
 11
-7.7117225647
 21
5.308056435
 31
0.0
 11
-7.7124057596
 21
5.2844050336
 31
0.0
 11
-7.7132073174
 21
5.2640253159
 31
0.0
 11
-7.7141083086
 21
5.2473985262
 31
0.0
 11
-7.7150875424
 21
5.2349156243
 31
0.0
 11
-7.7161218214
 21
5.2268710624
 31
0.0
 11
-7.7171861551
 21
5.2234538246
 31
0.0
  0
SPLINE
  5
592
100
AcDbEntity
  8
RACCORDO
100
AcDbSpline
 62
253
  6
CONTINUOUS
 70
0
 71
3
 72
13
 73
9
 74
7
 42
0.0000001
 43
0.0000001
 44
0.0000000001
 12
0.0000092097
 22
-0.565769622
 32
0.0
 13
0.0197318825
 23
-0.565425431
 33
0.0
 40
0.0
 40
0.0
 40
0.0
 40
0.0
 40
0.1807025814
 40
0.3629115369
 40
0.5410140573
 40
0.709586639
 40
0.8638477379
 40
1.0
 40
1.0
 40
1.0
 40
1.0
 10
6.5581255628
 20
8.0886792195
 30
0.0
 10
6.5581261176
 20
8.0546005424
 30
0.0
 10
6.5582773953
 20
7.9861590019
 30
0.0
 10
6.5589710356
 20
7.8841312194
 30
0.0
 10
6.5601372151
 20
7.7843954244
 30
0.0
 10
6.5617504398
 20
7.6899371743
 30
0.0
 10
6.5637547696
 20
7.6033997249
 30
0.0
 10
6.5654124946
 20
7.5486551117
 30
0.0
 10
6.5663080081
 20
7.5229937945
 30
0.0
 11
6.5581255628
 21
8.0886792195
 31
0.0
 11
6.5583546208
 21
7.9864434449
 31
0.0
 11
6.5590613363
 21
7.8833575755
 31
0.0
 11
6.5602511402
 21
7.7825996045
 31
0.0
 11
6.5618974421
 21
7.6872405687
 31
0.0
 11
6.563943754
 21
7.5999883176
 31
0.0
 11
6.5663080081
 21
7.5229937945
 31
0.0
  0
SPLINE
  5
593
100
AcDbEntity
  8
RACCORDO
100
AcDbSpline
 62
253
  6
CONTINUOUS
 70
0
 71
3
 72
13
 73
9
 74
7
 42
0.0000001
 43
0.0000001
 44
0.0000000001
 12
0.0049357932
 22
-0.1413562587
 32
0.0
 13
0.0000002346
 23
-0.141442405
 33
0.0
 40
0.0
 40
0.0
 40
0.0
 40
0.0
 40
0.1390643219
 40
0.2929150865
 40
0.4588821061
 40
0.6340954086
 40
0.8155267422
 40
1.0
 40
1.0
 40
1.0
 40
1.0
 10
6.587508644
 20
6.9158870133
 30
0.0
 10
6.5877374416
 20
6.9093344759
 30
0.0
 10
6.5881539289
 20
6.8955303716
 30
0.0
 10
6.5886525707
 20
6.8739008551
 30
0.0
 10
6.5890502448
 20
6.8505646534
 30
0.0
 10
6.5893395213
 20
6.8259264309
 30
0.0
 10
6.5895151345
 20
6.8004146059
 30
0.0
 10
6.5895542409
 20
6.7831631042
 30
0.0
 10
6.5895542554
 20
6.7744656571
 30
0.0
 11
6.587508644
 21
6.9158870133
 31
0.0
 11
6.5881107722
 21
6.8962266396
 31
0.0
 11
6.5886184363
 21
6.8744715399
 31
0.0
 11
6.5890226486
 21
6.8510002458
 31
0.0
 11
6.5893163688
 21
6.8262193955
 31
0.0
 11
6.5894945661
 21
6.8005579301
 31
0.0
 11
6.5895542554
 21
6.7744656571
 31
0.0
  0
SPLINE
  5
594
100
AcDbEntity
  8
RACCORDO
100
AcDbSpline
 62
253
  6
CONTINUOUS
 70
0
 71
3
 72
17
 73
13
 74
11
 42
0.0000001
 43
0.0000001
 44
0.0000000001
 12
-0.0000004892
 22
-0.2002043117
 32
0.0
 13
-0.1414238981
 23
-0.1417076126
 33
0.0
 40
0.0
 40
0.0
 40
0.0
 40
0.0
 40
0.1527191901
 40
0.3019595335
 40
0.4441195603
 40
0.5758377826
 40
0.6940233827
 40
0.7958966866
 40
0.8790676415
 40
0.9416100082
 40
0.9821225088
 40
1.0
 40
1.0
 40
1.0
 40
1.0
 10
6.5895542554
 20
5.42333199
 30
0.0
 10
6.5895542305
 20
5.4131403099
 30
0.0
 10
6.5895007348
 20
5.3929891287
 30
0.0
 10
6.5892613139
 20
5.363351463
 30
0.0
 10
6.5888675178
 20
5.3351182132
 30
0.0
 10
6.5883345826
 20
5.3089561497
 30
0.0
 10
6.5876600525
 20
5.2854991281
 30
0.0
 10
6.5869136354
 20
5.2652488965
 30
0.0
 10
6.5859734704
 20
5.2488267287
 30
0.0
 10
6.585252795
 20
5.2362394696
 30
0.0
 10
6.5839720698
 20
5.2285917805
 30
0.0
 10
6.5836566131
 20
5.2242982835
 30
0.0
 10
6.5828138449
 20
5.2234538246
 30
0.0
 11
6.5895542554
 21
5.42333199
 31
0.0
 11
6.5894721633
 21
5.3927570599
 31
0.0
 11
6.5892275651
 21
5.3628795009
 31
0.0
 11
6.5888261726
 21
5.3344212811
 31
0.0
 11
6.5882774353
 21
5.308056435
 31
0.0
 11
6.5875942404
 21
5.2844050336
 31
0.0
 11
6.5867926826
 21
5.2640253159
 31
0.0
 11
6.5858916914
 21
5.2473985262
 31
0.0
 11
6.5849124576
 21
5.2349156243
 31
0.0
 11
6.5838781786
 21
5.2268710624
 31
0.0
 11
6.5828138449
 21
5.2234538246
 31
0.0
  0
SPLINE
  5
595
100
AcDbEntity
  8
RACCORDO
100
AcDbSpline
 62
253
  6
CONTINUOUS
 70
0
 71
3
 72
17
 73
13
 74
11
 42
0.0000001
 43
0.0000001
 44
0.0000000001
 12
-0.1414238943
 22
0.1417076164
 32
0.0
 13
-0.0000004892
 23
0.2002043117
 33
0.0
 40
0.0
 40
0.0
 40
0.0
 40
0.0
 40
0.0178774913
 40
0.058389992
 40
0.1209323587
 40
0.2041033138
 40
0.3059766177
 40
0.4241622179
 40
0.5558804402
 40
0.698040467
 40
0.8472808104
 40
1.0
 40
1.0
 40
1.0
 40
1.0
 10
7.2986855685
 20
5.2234538246
 30
0.0
 10
7.2978428003
 20
5.2242982835
 30
0.0
 10
7.2975273436
 20
5.2285917805
 30
0.0
 10
7.2962466184
 20
5.2362394696
 30
0.0
 10
7.295525943
 20
5.2488267288
 30
0.0
 10
7.294585778
 20
5.2652488966
 30
0.0
 10
7.2938393609
 20
5.2854991282
 30
0.0
 10
7.2931648308
 20
5.3089561498
 30
0.0
 10
7.2926318956
 20
5.3351182133
 30
0.0
 10
7.2922380995
 20
5.3633514631
 30
0.0
 10
7.2919986786
 20
5.3929891287
 30
0.0
 10
7.2919451829
 20
5.4131403099
 30
0.0
 10
7.291945158
 20
5.42333199
 30
0.0
 11
7.2986855685
 21
5.2234538246
 31
0.0
 11
7.2976212348
 21
5.2268710625
 31
0.0
 11
7.2965869558
 21
5.2349156243
 31
0.0
 11
7.295607722
 21
5.2473985262
 31
0.0
 11
7.2947067308
 21
5.264025316
 31
0.0
 11
7.293905173
 21
5.2844050337
 31
0.0
 11
7.2932219781
 21
5.3080564351
 31
0.0
 11
7.2926732408
 21
5.3344212812
 31
0.0
 11
7.2922718483
 21
5.362879501
 31
0.0
 11
7.2920272501
 21
5.39275706
 31
0.0
 11
7.291945158
 21
5.42333199
 31
0.0
  0
SPLINE
  5
596
100
AcDbEntity
  8
RACCORDO
100
AcDbSpline
 62
253
  6
CONTINUOUS
 70
0
 71
3
 72
13
 73
9
 74
7
 42
0.0000001
 43
0.0000001
 44
0.0000000001
 12
0.0000002346
 22
0.141442405
 32
0.0
 13
0.0049357932
 23
0.1413562587
 33
0.0
 40
0.0
 40
0.0
 40
0.0
 40
0.0
 40
0.1844732589
 40
0.3659045925
 40
0.541117895
 40
0.7070849145
 40
0.8609356791
 40
1.0
 40
1.0
 40
1.0
 40
1.0
 10
7.291945158
 20
6.7744656571
 30
0.0
 10
7.2919451725
 20
6.7831631042
 30
0.0
 10
7.291984279
 20
6.800414606
 30
0.0
 10
7.2921598921
 20
6.825926431
 30
0.0
 10
7.2924491686
 20
6.8505646536
 30
0.0
 10
7.2928468427
 20
6.8739008553
 30
0.0
 10
7.2933454845
 20
6.8955303717
 30
0.0
 10
7.2937619718
 20
6.909334476
 30
0.0
 10
7.2939907694
 20
6.9158870133
 30
0.0
 11
7.291945158
 21
6.7744656571
 31
0.0
 11
7.2920048473
 21
6.8005579302
 31
0.0
 11
7.2921830446
 21
6.8262193957
 31
0.0
 11
7.2924767648
 21
6.8510002459
 31
0.0
 11
7.2928809771
 21
6.87447154
 31
0.0
 11
7.2933886412
 21
6.8962266397
 31
0.0
 11
7.2939907694
 21
6.9158870133
 31
0.0
  0
SPLINE
  5
597
100
AcDbEntity
  8
RACCORDO
100
AcDbSpline
 62
253
  6
CONTINUOUS
 70
0
 71
3
 72
13
 73
9
 74
7
 42
0.0000001
 43
0.0000001
 44
0.0000000001
 12
0.0197318509
 22
0.5654254321
 32
0.0
 13
0.0000091903
 23
0.565769622
 33
0.0
 40
0.0
 40
0.0
 40
0.0
 40
0.0
 40
0.1361522584
 40
0.2904133641
 40
0.4589859497
 40
0.637088475
 40
0.8192974361
 40
1.0
 40
1.0
 40
1.0
 40
1.0
 10
7.3151914053
 20
7.5229937945
 30
0.0
 10
7.3160869173
 20
7.548655111
 30
0.0
 10
7.3177446447
 20
7.6033997248
 30
0.0
 10
7.3197489733
 20
7.6899371755
 30
0.0
 10
7.3213621985
 20
7.7843954285
 30
0.0
 10
7.3225283781
 20
7.8841312263
 30
0.0
 10
7.3232220175
 20
7.9861590074
 30
0.0
 10
7.323373297
 20
8.0546005457
 30
0.0
 10
7.3233738506
 20
8.0886792195
 30
0.0
 11
7.3151914053
 21
7.5229937945
 31
0.0
 11
7.3175556595
 21
7.5999883155
 31
0.0
 11
7.3196019713
 21
7.6872405704
 31
0.0
 11
7.3212482732
 21
7.7825996084
 31
0.0
 11
7.3224380772
 21
7.8833575822
 31
0.0
 11
7.3231447926
 21
7.9864434548
 31
0.0
 11
7.3233738506
 21
8.0886792195
 31
0.0
  0
SPLINE
  5
598
100
AcDbEntity
  8
RACCORDO
100
AcDbSpline
 62
253
  6
CONTINUOUS
 70
0
 71
3
 72
15
 73
11
 74
9
 42
0.0000001
 43
0.0000001
 44
0.0000000001
 12
0.0000001707
 22
0.0492833389
 32
0.0
 13
0.0095687383
 23
0.0483454935
 33
0.0
 40
0.0
 40
0.0
 40
0.0
 40
0.0
 40
0.1760003266
 40
0.3468630124
 40
0.5072188018
 40
0.6521964061
 40
0.7773808262
 40
0.8789617246
 40
0.9539026917
 40
1.0
 40
1.0
 40
1.0
 40
1.0
 10
-5.5191052527
 20
-6.5699133183
 30
0.0
 10
-5.5191052427
 20
-6.5670220237
 30
0.0
 10
-5.5190881191
 20
-6.5613238222
 30
0.0
 10
-5.5190114768
 20
-6.5529916261
 30
0.0
 10
-5.5188862992
 20
-6.5451697628
 30
0.0
 10
-5.5187176729
 20
-6.5380990801
 30
0.0
 10
-5.5185092498
 20
-6.5319960302
 30
0.0
 10
-5.5182764931
 20
-6.5270437699
 30
0.0
 10
-5.5180136781
 20
-6.523398107
 30
0.0
 10
-5.5178094417
 20
-6.5214157963
 30
0.0
 10
-5.5176624106
 20
-6.5206729306
 30
0.0
 11
-5.5191052527
 21
-6.5699133183
 31
0.0
 11
-5.5190787801
 21
-6.5612394749
 31
0.0
 11
-5.5190000379
 21
-6.5528191594
 31
0.0
 11
-5.5188714086
 21
-6.5449173376
 31
0.0
 11
-5.5186967735
 21
-6.5377744917
 31
0.0
 11
-5.5184814481
 21
-6.5316087442
 31
0.0
 11
-5.5182320276
 21
-6.5266087155
 31
0.0
 11
-5.5179561105
 21
-6.5229256953
 31
0.0
 11
-5.5176624106
 21
-6.5206729306
 31
0.0
  0
SPLINE
  5
599
100
AcDbEntity
  8
RACCORDO
100
AcDbSpline
 62
253
  6
CONTINUOUS
 70
0
 71
3
 72
16
 73
12
 74
10
 42
0.0000001
 43
0.0000001
 44
0.0000000001
 12
0.0000001618
 22
0.0500818853
 32
0.0
 13
0.0447468108
 23
0.0224926245
 33
0.0
 40
0.0
 40
0.0
 40
0.0
 40
0.0
 40
0.1712952529
 40
0.3376892171
 40
0.4940782646
 40
0.6358142909
 40
0.7586920905
 40
0.8590498286
 40
0.9339391758
 40
0.981233087
 40
1.0
 40
1.0
 40
1.0
 40
1.0
 10
-5.4597399446
 20
-4.8426853477
 30
0.0
 10
-5.4597399353
 20
-4.8398257513
 30
0.0
 10
-5.4597232927
 20
-4.8341882176
 30
0.0
 10
-5.4596477801
 20
-4.825941017
 30
0.0
 10
-5.459526867
 20
-4.8181851426
 30
0.0
 10
-5.4593562807
 20
-4.8111655673
 30
0.0
 10
-5.459167691
 20
-4.805055711
 30
0.0
 10
-5.4588949209
 20
-4.8001398111
 30
0.0
 10
-5.4587404995
 20
-4.7962987492
 30
0.0
 10
-5.4583102149
 20
-4.7942108909
 30
0.0
 10
-5.4583042985
 20
-4.7928336687
 30
0.0
 10
-5.4580243787
 20
-4.7926929629
 30
0.0
 11
-5.4597399446
 21
-4.8426853477
 31
0.0
 11
-5.4597140535
 21
-4.8341065976
 31
0.0
 11
-5.4596370334
 21
-4.8257736301
 31
0.0
 11
-5.4595111661
 21
-4.8179423832
 31
0.0
 11
-5.459340172
 21
-4.8108460356
 31
0.0
 11
-5.4591291195
 21
-4.8046957039
 31
0.0
 11
-5.4588843227
 21
-4.7996755641
 31
0.0
 11
-5.4586130763
 21
-4.7959347856
 31
0.0
 11
-5.4583234579
 21
-4.7935839907
 31
0.0
 11
-5.4580243787
 21
-4.7926929629
 31
0.0
  0
SPLINE
  5
59A
100
AcDbEntity
  8
RACCORDO
100
AcDbSpline
 62
253
  6
CONTINUOUS
 70
0
 71
3
 72
16
 73
12
 74
10
 42
0.0000001
 43
0.0000001
 44
0.0000000001
 12
0.0447468108
 22
-0.0224926245
 32
0.0
 13
0.0000001618
 23
-0.0500818853
 33
0.0
 40
0.0
 40
0.0
 40
0.0
 40
0.0
 40
0.0187669131
 40
0.0660608243
 40
0.1409501717
 40
0.2413079099
 40
0.3641857095
 40
0.5059217359
 40
0.6623107834
 40
0.8287047476
 40
1.0
 40
1.0
 40
1.0
 40
1.0
 10
-6.1604762079
 20
-4.7926929629
 30
0.0
 10
-6.1601962881
 20
-4.7928336687
 30
0.0
 10
-6.1601903717
 20
-4.7942108909
 30
0.0
 10
-6.1597600871
 20
-4.7962987492
 30
0.0
 10
-6.1596056656
 20
-4.8001398111
 30
0.0
 10
-6.1593328956
 20
-4.8050557111
 30
0.0
 10
-6.1591443059
 20
-4.8111655673
 30
0.0
 10
-6.1589737196
 20
-4.8181851427
 30
0.0
 10
-6.1588528065
 20
-4.825941017
 30
0.0
 10
-6.1587772939
 20
-4.8341882177
 30
0.0
 10
-6.1587606513
 20
-4.8398257513
 30
0.0
 10
-6.158760642
 20
-4.8426853477
 30
0.0
 11
-6.1604762079
 21
-4.7926929629
 31
0.0
 11
-6.1601771286
 21
-4.7935839907
 31
0.0
 11
-6.1598875103
 21
-4.7959347856
 31
0.0
 11
-6.1596162639
 21
-4.7996755641
 31
0.0
 11
-6.1593714671
 21
-4.8046957039
 31
0.0
 11
-6.1591604146
 21
-4.8108460356
 31
0.0
 11
-6.1589894205
 21
-4.8179423832
 31
0.0
 11
-6.1588635532
 21
-4.8257736301
 31
0.0
 11
-6.1587865331
 21
-4.8341065976
 31
0.0
 11
-6.158760642
 21
-4.8426853477
 31
0.0
  0
SPLINE
  5
59B
100
AcDbEntity
  8
RACCORDO
100
AcDbSpline
 62
253
  6
CONTINUOUS
 70
0
 71
3
 72
15
 73
11
 74
9
 42
0.0000001
 43
0.0000001
 44
0.0000000001
 12
0.0095687383
 22
-0.0483454935
 32
0.0
 13
0.0000001707
 23
-0.0492833389
 33
0.0
 40
0.0
 40
0.0
 40
0.0
 40
0.0
 40
0.0460973084
 40
0.1210382755
 40
0.222619174
 40
0.3478035941
 40
0.4927811984
 40
0.6531369878
 40
0.8239996736
 40
1.0
 40
1.0
 40
1.0
 40
1.0
 10
-6.100838176
 20
-6.5206729306
 30
0.0
 10
-6.1006911449
 20
-6.5214157963
 30
0.0
 10
-6.1004869085
 20
-6.523398107
 30
0.0
 10
-6.1002240935
 20
-6.5270437699
 30
0.0
 10
-6.0999913368
 20
-6.5319960302
 30
0.0
 10
-6.0997829137
 20
-6.5380990801
 30
0.0
 10
-6.0996142874
 20
-6.5451697628
 30
0.0
 10
-6.0994891098
 20
-6.5529916261
 30
0.0
 10
-6.0994124674
 20
-6.5613238222
 30
0.0
 10
-6.0993953439
 20
-6.5670220237
 30
0.0
 10
-6.0993953339
 20
-6.5699133183
 30
0.0
 11
-6.100838176
 21
-6.5206729306
 31
0.0
 11
-6.1005444761
 21
-6.5229256953
 31
0.0
 11
-6.100268559
 21
-6.5266087155
 31
0.0
 11
-6.1000191385
 21
-6.5316087442
 31
0.0
 11
-6.0998038131
 21
-6.5377744917
 31
0.0
 11
-6.099629178
 21
-6.5449173376
 31
0.0
 11
-6.0995005487
 21
-6.5528191594
 31
0.0
 11
-6.0994218065
 21
-6.5612394749
 31
0.0
 11
-6.0993953339
 21
-6.5699133183
 31
0.0
  0
SPLINE
  5
59C
100
AcDbEntity
  8
RACCORDO
100
AcDbSpline
 62
253
  6
CONTINUOUS
 70
0
 71
3
 72
15
 73
11
 74
9
 42
0.0000001
 43
0.0000001
 44
0.0000000001
 12
0.0000001707
 22
0.0492833389
 32
0.0
 13
0.0095687383
 23
0.0483454935
 33
0.0
 40
0.0
 40
0.0
 40
0.0
 40
0.0
 40
0.1760003266
 40
0.3468630124
 40
0.5072188018
 40
0.6521964061
 40
0.7773808262
 40
0.8789617246
 40
0.9539026917
 40
1.0
 40
1.0
 40
1.0
 40
1.0
 10
5.6808947473
 20
-6.5699133183
 30
0.0
 10
5.6808947573
 20
-6.5670220237
 30
0.0
 10
5.6809118809
 20
-6.5613238222
 30
0.0
 10
5.6809885232
 20
-6.5529916261
 30
0.0
 10
5.6811137008
 20
-6.5451697628
 30
0.0
 10
5.6812823271
 20
-6.5380990801
 30
0.0
 10
5.6814907502
 20
-6.5319960302
 30
0.0
 10
5.6817235069
 20
-6.5270437699
 30
0.0
 10
5.6819863219
 20
-6.523398107
 30
0.0
 10
5.6821905583
 20
-6.5214157963
 30
0.0
 10
5.6823375894
 20
-6.5206729306
 30
0.0
 11
5.6808947473
 21
-6.5699133183
 31
0.0
 11
5.6809212199
 21
-6.5612394749
 31
0.0
 11
5.6809999621
 21
-6.5528191594
 31
0.0
 11
5.6811285914
 21
-6.5449173376
 31
0.0
 11
5.6813032265
 21
-6.5377744917
 31
0.0
 11
5.6815185519
 21
-6.5316087442
 31
0.0
 11
5.6817679724
 21
-6.5266087155
 31
0.0
 11
5.6820438895
 21
-6.5229256953
 31
0.0
 11
5.6823375894
 21
-6.5206729306
 31
0.0
  0
SPLINE
  5
59D
100
AcDbEntity
  8
RACCORDO
100
AcDbSpline
 62
253
  6
CONTINUOUS
 70
0
 71
3
 72
16
 73
12
 74
10
 42
0.0000001
 43
0.0000001
 44
0.0000000001
 12
0.0000001618
 22
0.0500818853
 32
0.0
 13
0.0447468108
 23
0.0224926245
 33
0.0
 40
0.0
 40
0.0
 40
0.0
 40
0.0
 40
0.1712952529
 40
0.3376892171
 40
0.4940782646
 40
0.6358142909
 40
0.7586920905
 40
0.8590498286
 40
0.9339391758
 40
0.981233087
 40
1.0
 40
1.0
 40
1.0
 40
1.0
 10
5.7402600554
 20
-4.8426853477
 30
0.0
 10
5.7402600647
 20
-4.8398257513
 30
0.0
 10
5.7402767073
 20
-4.8341882176
 30
0.0
 10
5.7403522199
 20
-4.825941017
 30
0.0
 10
5.740473133
 20
-4.8181851426
 30
0.0
 10
5.7406437193
 20
-4.8111655673
 30
0.0
 10
5.740832309
 20
-4.805055711
 30
0.0
 10
5.7411050791
 20
-4.8001398111
 30
0.0
 10
5.7412595005
 20
-4.7962987492
 30
0.0
 10
5.7416897851
 20
-4.7942108909
 30
0.0
 10
5.7416957015
 20
-4.7928336687
 30
0.0
 10
5.7419756213
 20
-4.7926929629
 30
0.0
 11
5.7402600554
 21
-4.8426853477
 31
0.0
 11
5.7402859465
 21
-4.8341065976
 31
0.0
 11
5.7403629666
 21
-4.8257736301
 31
0.0
 11
5.7404888339
 21
-4.8179423832
 31
0.0
 11
5.740659828
 21
-4.8108460356
 31
0.0
 11
5.7408708805
 21
-4.8046957039
 31
0.0
 11
5.7411156773
 21
-4.7996755641
 31
0.0
 11
5.7413869237
 21
-4.7959347856
 31
0.0
 11
5.7416765421
 21
-4.7935839907
 31
0.0
 11
5.7419756213
 21
-4.7926929629
 31
0.0
  0
SPLINE
  5
59E
100
AcDbEntity
  8
RACCORDO
100
AcDbSpline
 62
253
  6
CONTINUOUS
 70
0
 71
3
 72
16
 73
12
 74
10
 42
0.0000001
 43
0.0000001
 44
0.0000000001
 12
0.0447468108
 22
-0.0224926245
 32
0.0
 13
0.0000001618
 23
-0.0500818853
 33
0.0
 40
0.0
 40
0.0
 40
0.0
 40
0.0
 40
0.0187669131
 40
0.0660608243
 40
0.1409501717
 40
0.2413079099
 40
0.3641857095
 40
0.5059217359
 40
0.6623107834
 40
0.8287047476
 40
1.0
 40
1.0
 40
1.0
 40
1.0
 10
5.0395237921
 20
-4.7926929629
 30
0.0
 10
5.0398037119
 20
-4.7928336687
 30
0.0
 10
5.0398096283
 20
-4.7942108909
 30
0.0
 10
5.0402399129
 20
-4.7962987492
 30
0.0
 10
5.0403943344
 20
-4.8001398111
 30
0.0
 10
5.0406671044
 20
-4.8050557111
 30
0.0
 10
5.0408556941
 20
-4.8111655673
 30
0.0
 10
5.0410262804
 20
-4.8181851427
 30
0.0
 10
5.0411471935
 20
-4.825941017
 30
0.0
 10
5.0412227061
 20
-4.8341882177
 30
0.0
 10
5.0412393487
 20
-4.8398257513
 30
0.0
 10
5.041239358
 20
-4.8426853477
 30
0.0
 11
5.0395237921
 21
-4.7926929629
 31
0.0
 11
5.0398228714
 21
-4.7935839907
 31
0.0
 11
5.0401124897
 21
-4.7959347856
 31
0.0
 11
5.0403837361
 21
-4.7996755641
 31
0.0
 11
5.0406285329
 21
-4.8046957039
 31
0.0
 11
5.0408395854
 21
-4.8108460356
 31
0.0
 11
5.0410105795
 21
-4.8179423832
 31
0.0
 11
5.0411364468
 21
-4.8257736301
 31
0.0
 11
5.0412134669
 21
-4.8341065976
 31
0.0
 11
5.041239358
 21
-4.8426853477
 31
0.0
  0
SPLINE
  5
59F
100
AcDbEntity
  8
RACCORDO
100
AcDbSpline
 62
253
  6
CONTINUOUS
 70
0
 71
3
 72
15
 73
11
 74
9
 42
0.0000001
 43
0.0000001
 44
0.0000000001
 12
0.0095687383
 22
-0.0483454935
 32
0.0
 13
0.0000001707
 23
-0.0492833389
 33
0.0
 40
0.0
 40
0.0
 40
0.0
 40
0.0
 40
0.0460973084
 40
0.1210382755
 40
0.222619174
 40
0.3478035941
 40
0.4927811984
 40
0.6531369878
 40
0.8239996736
 40
1.0
 40
1.0
 40
1.0
 40
1.0
 10
5.099161824
 20
-6.5206729306
 30
0.0
 10
5.0993088551
 20
-6.5214157963
 30
0.0
 10
5.0995130915
 20
-6.523398107
 30
0.0
 10
5.0997759065
 20
-6.5270437699
 30
0.0
 10
5.1000086632
 20
-6.5319960302
 30
0.0
 10
5.1002170863
 20
-6.5380990801
 30
0.0
 10
5.1003857126
 20
-6.5451697628
 30
0.0
 10
5.1005108902
 20
-6.5529916261
 30
0.0
 10
5.1005875326
 20
-6.5613238222
 30
0.0
 10
5.1006046561
 20
-6.5670220237
 30
0.0
 10
5.1006046661
 20
-6.5699133183
 30
0.0
 11
5.099161824
 21
-6.5206729306
 31
0.0
 11
5.0994555239
 21
-6.5229256953
 31
0.0
 11
5.099731441
 21
-6.5266087155
 31
0.0
 11
5.0999808615
 21
-6.5316087442
 31
0.0
 11
5.1001961869
 21
-6.5377744917
 31
0.0
 11
5.100370822
 21
-6.5449173376
 31
0.0
 11
5.1004994513
 21
-6.5528191594
 31
0.0
 11
5.1005781935
 21
-6.5612394749
 31
0.0
 11
5.1006046661
 21
-6.5699133183
 31
0.0
  0
SPLINE
  5
5A0
100
AcDbEntity
  8
RACCORDO
100
AcDbSpline
 62
253
  6
CONTINUOUS
 70
0
 71
3
 72
15
 73
11
 74
9
 42
0.0000001
 43
0.0000001
 44
0.0000000001
 12
-0.4014143357
 22
-0.0070088488
 32
0.0
 13
-0.0139942489
 23
-0.4012315464
 33
0.0
 40
0.0
 40
0.0
 40
0.0
 40
0.0
 40
0.1440044844
 40
0.2856956272
 40
0.4226390599
 40
0.5528844372
 40
0.67524257
 40
0.7895686166
 40
0.89699843
 40
1.0
 40
1.0
 40
1.0
 40
1.0
 10
6.8661252562
 20
7.7351258289
 30
0.0
 10
6.846856768
 20
7.7347893937
 30
0.0
 10
6.8086226137
 20
7.7315201204
 30
0.0
 10
6.7532883586
 20
7.718980756
 30
0.0
 10
6.702026632
 20
7.6992536991
 30
0.0
 10
6.6567023059
 20
7.6730164632
 30
0.0
 10
6.6189611981
 20
7.6411520795
 30
0.0
 10
6.5902311344
 20
7.6046942777
 30
0.0
 10
6.5717249402
 20
7.5649049348
 30
0.0
 10
6.5667884846
 20
7.5367696209
 30
0.0
 10
6.5663080081
 20
7.5229937945
 30
0.0
 11
6.8661252562
 21
7.7351258289
 31
0.0
 11
6.8085237179
 21
7.7301707094
 31
0.0
 11
6.7530669764
 21
7.7175013451
 31
0.0
 11
6.7018199667
 21
7.6975894805
 31
0.0
 11
6.6566908742
 21
7.6711765352
 31
0.0
 11
6.6193600834
 21
7.6392459966
 31
0.0
 11
6.5912176086
 21
7.6029868004
 31
0.0
 11
6.5733113364
 21
7.5637490598
 31
0.0
 11
6.5663080081
 21
7.5229937945
 31
0.0
  0
SPLINE
  5
5A1
100
AcDbEntity
  8
RACCORDO
100
AcDbSpline
 62
253
  6
CONTINUOUS
 70
0
 71
3
 72
15
 73
11
 74
9
 42
0.0000001
 43
0.0000001
 44
0.0000000001
 12
-0.4014143352
 22
-0.0070088515
 32
0.0
 13
-0.0139942492
 23
-0.401231546
 33
0.0
 40
0.0
 40
0.0
 40
0.0
 40
0.0
 40
0.1440045699
 40
0.2856957779
 40
0.4226392486
 40
0.5528846346
 40
0.6752427483
 40
0.7895687529
 40
0.8969985064
 40
1.0
 40
1.0
 40
1.0
 40
1.0
 10
6.8873258922
 20
7.1280190477
 30
0.0
 10
6.8680573926
 20
7.1276826121
 30
0.0
 10
6.8298232181
 20
7.1244133354
 30
0.0
 10
6.7744889397
 20
7.1118739587
 30
0.0
 10
6.7232272026
 20
7.0921468867
 30
0.0
 10
6.6779028797
 20
7.0659096379
 30
0.0
 10
6.6401617864
 20
7.0340452478
 30
0.0
 10
6.6114317437
 20
6.9975874504
 30
0.0
 10
6.5929255696
 20
6.9577981251
 30
0.0
 10
6.5879891202
 20
6.9296628295
 30
0.0
 10
6.587508644
 20
6.9158870133
 30
0.0
 11
6.8873258922
 21
7.1280190477
 31
0.0
 11
6.82972432
 21
7.1230639225
 31
0.0
 11
6.7742675546
 21
7.1103945456
 31
0.0
 11
6.7230205344
 21
7.0904826657
 31
0.0
 11
6.6778914456
 21
7.0640697074
 31
0.0
 11
6.6405606699
 21
7.0321391631
 31
0.0
 11
6.6124182161
 21
6.9958799719
 31
0.0
 11
6.5945119633
 21
6.956642249
 31
0.0
 11
6.587508644
 21
6.9158870133
 31
0.0
  0
SPLINE
  5
5A2
100
AcDbEntity
  8
RACCORDO
100
AcDbSpline
 62
253
  6
CONTINUOUS
 70
0
 71
3
 72
15
 73
11
 74
9
 42
0.0000001
 43
0.0000001
 44
0.0000000001
 12
0.4014143357
 22
-0.0070088487
 32
0.0
 13
0.0139942489
 23
-0.4012315464
 33
0.0
 40
0.0
 40
0.0
 40
0.0
 40
0.0
 40
0.1440044844
 40
0.2856956272
 40
0.4226390599
 40
0.5528844372
 40
0.67524257
 40
0.7895686166
 40
0.89699843
 40
1.0
 40
1.0
 40
1.0
 40
1.0
 10
-7.3058264787
 20
7.1280190477
 30
0.0
 10
-7.2865579906
 20
7.1276826125
 30
0.0
 10
-7.2483238363
 20
7.1244133392
 30
0.0
 10
-7.1929895812
 20
7.1118739748
 30
0.0
 10
-7.1417278545
 20
7.0921469179
 30
0.0
 10
-7.0964035285
 20
7.0659096821
 30
0.0
 10
-7.0586624206
 20
7.0340452983
 30
0.0
 10
-7.029932357
 20
6.9975874965
 30
0.0
 10
-7.0114261627
 20
6.9577981536
 30
0.0
 10
-7.0064897072
 20
6.9296628397
 30
0.0
 10
-7.0060092306
 20
6.9158870133
 30
0.0
 11
-7.3058264787
 21
7.1280190477
 31
0.0
 11
-7.2482249405
 21
7.1230639282
 31
0.0
 11
-7.1927681989
 21
7.1103945639
 31
0.0
 11
-7.1415211892
 21
7.0904826993
 31
0.0
 11
-7.0963920967
 21
7.064069754
 31
0.0
 11
-7.059061306
 21
7.0321392155
 31
0.0
 11
-7.0309188312
 21
6.9958800192
 31
0.0
 11
-7.013012559
 21
6.9566422786
 31
0.0
 11
-7.0060092306
 21
6.9158870133
 31
0.0
  0
SPLINE
  5
5A3
100
AcDbEntity
  8
RACCORDO
100
AcDbSpline
 62
253
  6
CONTINUOUS
 70
0
 71
3
 72
15
 73
11
 74
9
 42
0.0000001
 43
0.0000001
 44
0.0000000001
 12
0.4014143351
 22
-0.007008849
 32
0.0
 13
0.0139942489
 23
-0.4012315459
 33
0.0
 40
0.0
 40
0.0
 40
0.0
 40
0.0
 40
0.1440042721
 40
0.2856952433
 40
0.4226385679
 40
0.5528839124
 40
0.6752420872
 40
0.7895682409
 40
0.8969982159
 40
1.0
 40
1.0
 40
1.0
 40
1.0
 10
-7.2846258428
 20
7.7351258289
 30
0.0
 10
-7.2653573831
 20
7.7347893941
 30
0.0
 10
-7.2271232803
 20
7.7315201291
 30
0.0
 10
-7.1717890865
 20
7.7189807956
 30
0.0
 10
-7.1205273901
 20
7.6992537784
 30
0.0
 10
-7.0752030591
 20
7.6730165788
 30
0.0
 10
-7.0374619147
 20
7.6411522146
 30
0.0
 10
-7.008731795
 20
7.6046944036
 30
0.0
 10
-6.9902255452
 20
7.5649050138
 30
0.0
 10
-6.9852890722
 20
7.5367696495
 30
0.0
 10
-6.9848085947
 20
7.5229937945
 30
0.0
 11
-7.2846258428
 21
7.7351258289
 31
0.0
 11
-7.227024389
 21
7.7301707225
 31
0.0
 11
-7.1715677109
 21
7.7175013902
 31
0.0
 11
-7.120320732
 21
7.6975895664
 31
0.0
 11
-7.0751916336
 21
7.6711766574
 31
0.0
 11
-7.037860805
 21
7.6392461373
 31
0.0
 11
-7.0097182743
 21
7.60298693
 31
0.0
 11
-6.9918119488
 21
7.5637491425
 31
0.0
 11
-6.9848085947
 21
7.5229937945
 31
0.0
  0
SPLINE
  5
5A4
100
AcDbEntity
  8
RACCORDO
100
AcDbSpline
 62
253
  6
CONTINUOUS
 70
0
 71
3
 72
15
 73
11
 74
9
 42
0.0000001
 43
0.0000001
 44
0.0000000001
 12
0.3882348029
 22
-0.0023184616
 32
0.0
 13
0.0023876314
 23
-0.3882343837
 33
0.0
 40
0.0
 40
0.0
 40
0.0
 40
0.0
 40
0.1257290456
 40
0.2514557317
 40
0.3770343051
 40
0.502340937
 40
0.627292244
 40
0.751858067
 40
0.8760664778
 40
1.0
 40
1.0
 40
1.0
 40
1.0
 10
5.4324898826
 20
-6.2744709924
 30
0.0
 10
5.4487606797
 20
-6.2745681584
 30
0.0
 10
5.4813695518
 20
-6.2779136384
 30
0.0
 10
5.5283331447
 20
-6.2921761594
 30
0.0
 10
5.5716683358
 20
-6.3151443134
 30
0.0
 10
5.6097020883
 20
-6.3459481941
 30
0.0
 10
5.6409898645
 20
-6.3834178291
 30
0.0
 10
5.6643328925
 20
-6.4261362201
 30
0.0
 10
5.6788350088
 20
-6.472451805
 30
0.0
 10
5.6822389535
 20
-6.5046345124
 30
0.0
 10
5.6823375894
 20
-6.5206729306
 30
0.0
 11
5.4324898826
 21
-6.2744709924
 31
0.0
 11
5.4810479985
 21
-6.2794553568
 31
0.0
 11
5.5277543785
 21
-6.2936384152
 31
0.0
 11
5.5708279016
 21
-6.3164793047
 31
0.0
 11
5.6086259835
 21
-6.3471070012
 31
0.0
 11
5.6397072162
 21
-6.3843535349
 31
0.0
 11
5.6628863345
 21
-6.4267985307
 31
0.0
 11
5.6772794163
 21
-6.4728233729
 31
0.0
 11
5.6823375894
 21
-6.5206729306
 31
0.0
  0
SPLINE
  5
5A5
100
AcDbEntity
  8
RACCORDO
100
AcDbSpline
 62
7
  6
CONTINUOUS
 70
0
 71
3
 72
17
 73
13
 74
11
 42
0.0000001
 43
0.0000001
 44
0.0000000001
 12
-0.0148532747
 22
0.3571597571
 32
0.0
 13
-0.3573152673
 23
0.0104647825
 33
0.0
 40
0.0
 40
0.0
 40
0.0
 40
0.0
 40
0.0784048065
 40
0.159813855
 40
0.2448266776
 40
0.3341391228
 40
0.4284979008
 40
0.5286788015
 40
0.6354463523
 40
0.7494674181
 40
0.8710888176
 40
1.0
 40
1.0
 40
1.0
 40
1.0
 10
5.7402600554
 20
-6.2282024695
 30
0.0
 10
5.7398718661
 20
-6.2188681223
 30
0.0
 10
5.7375609704
 20
-6.199872906
 30
0.0
 10
5.7295104953
 20
-6.1717144771
 30
0.0
 10
5.7166411213
 20
-6.1439578754
 30
0.0
 10
5.6988451191
 20
-6.1171986258
 30
0.0
 10
5.6760574151
 20
-6.0920391272
 30
0.0
 10
5.6482472321
 20
-6.0691350895
 30
0.0
 10
5.6154353493
 20
-6.0492330269
 30
0.0
 10
5.5777524187
 20
-6.0332216561
 30
0.0
 10
5.5355904575
 20
-6.0221651694
 30
0.0
 10
5.5057663265
 20
-6.0189828485
 30
0.0
 10
5.4904123487
 20
-6.0185331727
 30
0.0
 11
5.7402600554
 21
-6.2282024695
 31
0.0
 11
5.7368957844
 21
-6.2003778717
 31
0.0
 11
5.7289344463
 21
-6.1723868892
 31
0.0
 11
5.7161978653
 21
-6.1447953072
 31
0.0
 11
5.6985693384
 21
-6.1181770989
 31
0.0
 11
5.6759747729
 21
-6.0931327785
 31
0.0
 11
5.6483736515
 21
-6.0703151837
 31
0.0
 11
5.6157728705
 21
-6.0504699018
 31
0.0
 11
5.578279802
 21
-6.0344836347
 31
0.0
 11
5.5362334407
 21
-6.0234269576
 31
0.0
 11
5.4904123487
 21
-6.0185331727
 31
0.0
  0
SPLINE
  5
5A6
100
AcDbEntity
  8
RACCORDO
100
AcDbSpline
 62
253
  6
CONTINUOUS
 70
0
 71
3
 72
15
 73
11
 74
9
 42
0.0000001
 43
0.0000001
 44
0.0000000001
 12
-0.4014143357
 22
-0.0070088488
 32
0.0
 13
-0.0139942489
 23
-0.4012315464
 33
0.0
 40
0.0
 40
0.0
 40
0.0
 40
0.0
 40
0.1440044844
 40
0.2856956272
 40
0.4226390599
 40
0.5528844372
 40
0.67524257
 40
0.7895686166
 40
0.89699843
 40
1.0
 40
1.0
 40
1.0
 40
1.0
 10
-7.4338747438
 20
7.7351258289
 30
0.0
 10
-7.453143232
 20
7.7347893937
 30
0.0
 10
-7.4913773863
 20
7.7315201204
 30
0.0
 10
-7.5467116414
 20
7.718980756
 30
0.0
 10
-7.597973368
 20
7.6992536991
 30
0.0
 10
-7.6432976941
 20
7.6730164632
 30
0.0
 10
-7.6810388019
 20
7.6411520795
 30
0.0
 10
-7.7097688656
 20
7.6046942777
 30
0.0
 10
-7.7282750598
 20
7.5649049348
 30
0.0
 10
-7.7332115154
 20
7.5367696209
 30
0.0
 10
-7.7336919919
 20
7.5229937945
 30
0.0
 11
-7.4338747438
 21
7.7351258289
 31
0.0
 11
-7.4914762821
 21
7.7301707094
 31
0.0
 11
-7.5469330236
 21
7.7175013451
 31
0.0
 11
-7.5981800333
 21
7.6975894805
 31
0.0
 11
-7.6433091258
 21
7.6711765352
 31
0.0
 11
-7.6806399166
 21
7.6392459966
 31
0.0
 11
-7.7087823914
 21
7.6029868004
 31
0.0
 11
-7.7266886636
 21
7.5637490598
 31
0.0
 11
-7.7336919919
 21
7.5229937945
 31
0.0
  0
SPLINE
  5
5A7
100
AcDbEntity
  8
RACCORDO
100
AcDbSpline
 62
253
  6
CONTINUOUS
 70
0
 71
3
 72
15
 73
11
 74
9
 42
0.0000001
 43
0.0000001
 44
0.0000000001
 12
-0.4014143352
 22
-0.0070088515
 32
0.0
 13
-0.0139942492
 23
-0.401231546
 33
0.0
 40
0.0
 40
0.0
 40
0.0
 40
0.0
 40
0.1440045699
 40
0.2856957779
 40
0.4226392486
 40
0.5528846346
 40
0.6752427483
 40
0.7895687529
 40
0.8969985064
 40
1.0
 40
1.0
 40
1.0
 40
1.0
 10
-7.4126741078
 20
7.1280190477
 30
0.0
 10
-7.4319426074
 20
7.1276826121
 30
0.0
 10
-7.4701767819
 20
7.1244133354
 30
0.0
 10
-7.5255110603
 20
7.1118739587
 30
0.0
 10
-7.5767727974
 20
7.0921468867
 30
0.0
 10
-7.6220971203
 20
7.0659096379
 30
0.0
 10
-7.6598382136
 20
7.0340452478
 30
0.0
 10
-7.6885682563
 20
6.9975874504
 30
0.0
 10
-7.7070744304
 20
6.9577981251
 30
0.0
 10
-7.7120108798
 20
6.9296628295
 30
0.0
 10
-7.712491356
 20
6.9158870133
 30
0.0
 11
-7.4126741078
 21
7.1280190477
 31
0.0
 11
-7.47027568
 21
7.1230639225
 31
0.0
 11
-7.5257324454
 21
7.1103945456
 31
0.0
 11
-7.5769794656
 21
7.0904826657
 31
0.0
 11
-7.6221085544
 21
7.0640697074
 31
0.0
 11
-7.6594393301
 21
7.0321391631
 31
0.0
 11
-7.6875817839
 21
6.9958799719
 31
0.0
 11
-7.7054880367
 21
6.956642249
 31
0.0
 11
-7.712491356
 21
6.9158870133
 31
0.0
  0
SPLINE
  5
5A8
100
AcDbEntity
  8
RACCORDO
100
AcDbSpline
 62
7
  6
CONTINUOUS
 70
0
 71
3
 72
14
 73
10
 74
8
 42
0.0000001
 43
0.0000001
 44
0.0000000001
 12
-0.187164952
 22
-0.0179573555
 32
0.0
 13
-0.188024429
 23
0.0
 33
0.0
 40
0.0
 40
0.0
 40
0.0
 40
0.0
 40
0.0778830372
 40
0.1849747095
 40
0.3167251878
 40
0.4673848541
 40
0.636225452
 40
0.8166806958
 40
1.0
 40
1.0
 40
1.0
 40
1.0
 10
-4.3742212528
 20
5.7727370026
 30
0.0
 10
-4.3790802444
 20
5.7722708115
 30
0.0
 10
-4.3906489087
 20
5.7714727516
 30
0.0
 10
-4.4104768042
 20
5.7705206937
 30
0.0
 10
-4.4348756815
 20
5.7696954658
 30
0.0
 10
-4.4631498661
 20
5.7690184682
 30
0.0
 10
-4.4944807962
 20
5.7685173774
 30
0.0
 10
-4.5278611536
 20
5.7682109561
 30
0.0
 10
-4.5506607192
 20
5.7681428832
 30
0.0
 10
-4.5621502217
 20
5.7681428832
 30
0.0
 11
-4.3742212528
 21
5.7727370026
 31
0.0
 11
-4.3888241453
 21
5.7716416785
 31
0.0
 11
-4.408934937
 21
5.7706374211
 31
0.0
 11
-4.4336921778
 21
5.7697735382
 31
0.0
 11
-4.4620114119
 21
5.7690811239
 31
0.0
 11
-4.4937533546
 21
5.7685638637
 31
0.0
 11
-4.5276818725
 21
5.7682473531
 31
0.0
 11
-4.5621502217
 21
5.7681428832
 31
0.0
  0
SPLINE
  5
5A9
100
AcDbEntity
  8
RACCORDO
100
AcDbSpline
 62
7
  6
CONTINUOUS
 70
0
 71
3
 72
14
 73
10
 74
8
 42
0.0000001
 43
0.0000001
 44
0.0000000001
 12
0.1880504183
 22
0.0
 32
0.0
 13
0.1871908232
 23
-0.0179598313
 33
0.0
 40
0.0
 40
0.0
 40
0.0
 40
0.0
 40
0.1832425357
 40
0.3636522946
 40
0.53247933
 40
0.6831485856
 40
0.8149281021
 40
0.9220655165
 40
1.0
 40
1.0
 40
1.0
 40
1.0
 10
-4.5674948646
 20
7.3955149865
 30
0.0
 10
-4.5560085861
 20
7.3955149865
 30
0.0
 10
-4.5332135323
 20
7.3954469032
 30
0.0
 10
-4.4998370748
 20
7.3951404267
 30
0.0
 10
-4.4685049161
 20
7.3946391719
 30
0.0
 10
-4.4402252566
 20
7.3939618639
 30
0.0
 10
-4.4158177277
 20
7.393136152
 30
0.0
 10
-4.3959791955
 20
7.39218342
 30
0.0
 10
-4.3844028604
 20
7.3913847381
 30
0.0
 10
-4.379539987
 20
7.3909181747
 30
0.0
 11
-4.5674948646
 21
7.3955149865
 31
0.0
 11
-4.5330361875
 21
7.3954105151
 31
0.0
 11
-4.4991115338
 21
7.3950939527
 31
0.0
 11
-4.467367756
 21
7.3945765224
 31
0.0
 11
-4.439042809
 21
7.3938837953
 31
0.0
 11
-4.4142766951
 21
7.3930194217
 31
0.0
 11
-4.39415454
 21
7.3920144462
 31
0.0
 11
-4.379539987
 21
7.3909181747
 31
0.0
  0
SPLINE
  5
5AA
100
AcDbEntity
  8
RACCORDO
100
AcDbSpline
 62
7
  6
CONTINUOUS
 70
0
 71
3
 72
14
 73
10
 74
8
 42
0.0000001
 43
0.0000001
 44
0.0000000001
 12
0.1871908232
 22
0.0179598313
 32
0.0
 13
0.1880504183
 23
0.0
 33
0.0
 40
0.0
 40
0.0
 40
0.0
 40
0.0
 40
0.0779344835
 40
0.1850718979
 40
0.3168514144
 40
0.46752067
 40
0.6363477055
 40
0.8167574643
 40
1.0
 40
1.0
 40
1.0
 40
1.0
 10
3.9610394004
 20
7.3909181747
 30
0.0
 10
3.9659022738
 20
7.3913847381
 30
0.0
 10
3.9774786089
 20
7.39218342
 30
0.0
 10
3.9973171411
 20
7.393136152
 30
0.0
 10
4.0217246701
 20
7.3939618639
 30
0.0
 10
4.0500043295
 20
7.3946391719
 30
0.0
 10
4.0813364882
 20
7.3951404267
 30
0.0
 10
4.1147129458
 20
7.3954469032
 30
0.0
 10
4.1375079995
 20
7.3955149865
 30
0.0
 10
4.148994278
 20
7.3955149865
 30
0.0
 11
3.9610394004
 21
7.3909181747
 31
0.0
 11
3.9756539534
 21
7.3920144462
 31
0.0
 11
3.9957761085
 21
7.3930194217
 31
0.0
 11
4.0205422224
 21
7.3938837953
 31
0.0
 11
4.0488671694
 21
7.3945765224
 31
0.0
 11
4.0806109472
 21
7.3950939527
 31
0.0
 11
4.1145356009
 21
7.3954105151
 31
0.0
 11
4.148994278
 21
7.3955149865
 31
0.0
  0
SPLINE
  5
5AB
100
AcDbEntity
  8
RACCORDO
100
AcDbSpline
 62
7
  6
CONTINUOUS
 70
0
 71
3
 72
14
 73
10
 74
8
 42
0.0000001
 43
0.0000001
 44
0.0000000001
 12
-0.188024429
 22
0.0
 32
0.0
 13
-0.187164952
 23
0.0179573555
 33
0.0
 40
0.0
 40
0.0
 40
0.0
 40
0.0
 40
0.1833193042
 40
0.363774548
 40
0.5326151459
 40
0.6832748122
 40
0.8150252905
 40
0.9221169628
 40
1.0
 40
1.0
 40
1.0
 40
1.0
 10
4.1436496351
 20
5.7681428832
 30
0.0
 10
4.1321601326
 20
5.7681428832
 30
0.0
 10
4.109360567
 20
5.7682109561
 30
0.0
 10
4.0759802096
 20
5.7685173774
 30
0.0
 10
4.0446492795
 20
5.7690184682
 30
0.0
 10
4.0163750949
 20
5.7696954658
 30
0.0
 10
3.9919762176
 20
5.7705206937
 30
0.0
 10
3.9721483221
 20
5.7714727516
 30
0.0
 10
3.9605796578
 20
5.7722708115
 30
0.0
 10
3.9557206662
 20
5.7727370026
 30
0.0
 11
4.1436496351
 21
5.7681428832
 31
0.0
 11
4.1091812859
 21
5.7682473531
 31
0.0
 11
4.075252768
 21
5.7685638637
 31
0.0
 11
4.0435108253
 21
5.7690811239
 31
0.0
 11
4.0151915912
 21
5.7697735382
 31
0.0
 11
3.9904343504
 21
5.7706374211
 31
0.0
 11
3.9703235587
 21
5.7716416785
 31
0.0
 11
3.9557206662
 21
5.7727370026
 31
0.0
  0
SPLINE
  5
5AC
100
AcDbEntity
  8
RACCORDO
100
AcDbSpline
 62
253
  6
CONTINUOUS
 70
0
 71
3
 72
15
 73
11
 74
9
 42
0.0000001
 43
0.0000001
 44
0.0000000001
 12
0.2881576673
 22
0.0038542516
 32
0.0
 13
0.0214951096
 23
0.2873806826
 33
0.0
 40
0.0
 40
0.0
 40
0.0
 40
0.0
 40
0.1661012139
 40
0.3273713521
 40
0.4790823685
 40
0.6171102583
 40
0.7383301595
 40
0.8411950579
 40
0.9267168348
 40
1.0
 40
1.0
 40
1.0
 40
1.0
 10
5.4312106307
 20
-6.9787046414
 30
0.0
 10
5.4471650769
 20
-6.9784912428
 30
0.0
 10
5.4786086072
 20
-6.9768064418
 30
0.0
 10
5.5242575045
 20
-6.9705566268
 30
0.0
 10
5.5665452715
 20
-6.9608296777
 30
0.0
 10
5.6039643674
 20
-6.9479813259
 30
0.0
 10
5.6352396041
 20
-6.932466608
 30
0.0
 10
5.6593568147
 20
-6.9147202236
 30
0.0
 10
5.6756088503
 20
-6.8950752433
 30
0.0
 10
5.6805332609
 20
-6.8800701314
 30
0.0
 10
5.6810583375
 20
-6.873050076
 30
0.0
 11
5.4312106307
 21
-6.9787046414
 31
0.0
 11
5.4790081972
 21
-6.9761158867
 31
0.0
 11
5.5250419063
 21
-6.9697237899
 31
0.0
 11
5.5676130065
 21
-6.9597642442
 31
0.0
 11
5.6051505418
 21
-6.9466047909
 31
0.0
 11
5.6362693242
 21
-6.930731052
 31
0.0
 11
5.6598210443
 21
-6.9127288056
 31
0.0
 11
5.6749366364
 21
-6.8932623673
 31
0.0
 11
5.6810583375
 21
-6.873050076
 31
0.0
  0
SPLINE
  5
5AD
100
AcDbEntity
  8
RACCORDO
100
AcDbSpline
 62
253
  6
CONTINUOUS
 70
0
 71
3
 72
14
 73
10
 74
8
 42
0.0000001
 43
0.0000001
 44
0.0000000001
 12
0.2004260331
 22
0.0001424279
 32
0.0
 13
0.0795097631
 23
0.183980468
 33
0.0
 40
0.0
 40
0.0
 40
0.0
 40
0.0
 40
0.219626445
 40
0.4285016891
 40
0.6164034558
 40
0.7741463891
 40
0.8940461608
 40
0.9703499162
 40
1.0
 40
1.0
 40
1.0
 40
1.0
 10
9.4279830097
 20
-9.0336890106
 30
0.0
 10
9.4426559621
 20
-9.0336785837
 30
0.0
 10
9.4712945619
 20
-9.0335405267
 30
0.0
 10
9.5124266659
 20
-9.0329191208
 30
0.0
 10
9.5496039329
 20
-9.0320990883
 30
0.0
 10
9.5802822386
 20
-9.0306072713
 30
0.0
 10
9.604881619
 20
-9.0299363578
 30
0.0
 10
9.6180209939
 20
-9.0271357131
 30
0.0
 10
9.6271667251
 20
-9.0274370405
 30
0.0
 10
9.6279525488
 20
-9.0256186951
 30
0.0
 11
9.4279830097
 21
-9.0336890106
 31
0.0
 11
9.4720012815
 21
-9.0334598487
 31
0.0
 11
9.5138608312
 21
-9.0328462199
 31
0.0
 11
9.5515088039
 21
-9.0318782174
 31
0.0
 11
9.5830988866
 21
-9.0306033135
 31
0.0
 11
9.6070818544
 21
-9.0290840315
 31
0.0
 11
9.622281547
 21
-9.0273948792
 31
0.0
 11
9.6279525488
 21
-9.0256186951
 31
0.0
  0
SPLINE
  5
5AE
100
AcDbEntity
  8
RACCORDO
100
AcDbSpline
 62
253
  6
CONTINUOUS
 70
0
 71
3
 72
15
 73
11
 74
9
 42
0.0000001
 43
0.0000001
 44
0.0000000001
 12
-0.0006690231
 22
-0.3122541311
 32
0.0
 13
-0.3122541518
 23
-0.0006592875
 33
0.0
 40
0.0
 40
0.0
 40
0.0
 40
0.0
 40
0.1239311267
 40
0.2485008945
 40
0.3733674625
 40
0.4983911403
 40
0.623641287
 40
0.7490227936
 40
0.8745020714
 40
1.0
 40
1.0
 40
1.0
 40
1.0
 10
9.6279525488
 20
-9.0256186951
 30
0.0
 10
9.6279249112
 20
-9.0385180305
 30
0.0
 10
9.6253130043
 20
-9.0644491481
 30
0.0
 10
9.6138542611
 20
-9.1018351041
 30
0.0
 10
9.5952478113
 20
-9.1363727018
 30
0.0
 10
9.5702161163
 20
-9.166665545
 30
0.0
 10
9.5397294283
 20
-9.1915442637
 30
0.0
 10
9.5049494752
 20
-9.2100554785
 30
0.0
 10
9.4672340622
 20
-9.2214884245
 30
0.0
 10
9.4410454262
 20
-9.2241003457
 30
0.0
 10
9.4279830097
 20
-9.2241279254
 30
0.0
 11
9.6279525488
 21
-9.0256186951
 31
0.0
 11
9.62407249
 21
-9.0641217821
 31
0.0
 11
9.6126814591
 21
-9.101313999
 31
0.0
 11
9.5941925823
 21
-9.1356417786
 31
0.0
 11
9.5693300103
 21
-9.165740209
 31
0.0
 11
9.5390317586
 21
-9.1904708649
 31
0.0
 11
9.5044735572
 21
-9.2088700553
 31
0.0
 11
9.4669765017
 21
-9.2202349913
 31
0.0
 11
9.4279830097
 21
-9.2241279254
 31
0.0
  0
SPLINE
  5
5AF
100
AcDbEntity
  8
RACCORDO
100
AcDbSpline
 62
253
  6
CONTINUOUS
 70
0
 71
3
 72
15
 73
11
 74
9
 42
0.0000001
 43
0.0000001
 44
0.0000000001
 12
-0.3882348025
 22
-0.0023184634
 32
0.0
 13
-0.0023876319
 23
-0.3882343833
 33
0.0
 40
0.0
 40
0.0
 40
0.0
 40
0.0
 40
0.125729459
 40
0.2514564959
 40
0.3770353051
 40
0.5023420228
 40
0.6272932526
 40
0.7518588458
 40
0.8760669051
 40
1.0
 40
1.0
 40
1.0
 40
1.0
 10
5.3490095308
 20
-6.2744709924
 30
0.0
 10
5.3327386802
 20
-6.2745681588
 30
0.0
 10
5.3001297085
 20
-6.2779136596
 30
0.0
 10
5.2531660026
 20
-6.2921762615
 30
0.0
 10
5.2098307643
 20
-6.3151445161
 30
0.0
 10
5.1717970367
 20
-6.3459484786
 30
0.0
 10
5.1405093406
 20
-6.3834181425
 30
0.0
 10
5.1171664145
 20
-6.4261364901
 30
0.0
 10
5.1026643824
 20
-6.4724519619
 30
0.0
 10
5.0992604596
 20
-6.5046345677
 30
0.0
 10
5.099161824
 20
-6.5206729306
 30
0.0
 11
5.3490095308
 21
-6.2744709924
 31
0.0
 11
5.3004512569
 21
-6.2794553888
 31
0.0
 11
5.2537447595
 21
-6.2936385292
 31
0.0
 11
5.2106711867
 21
-6.3164795203
 31
0.0
 11
5.1728731285
 21
-6.3471072989
 31
0.0
 11
5.1417919761
 21
-6.3843538604
 31
0.0
 11
5.1186129603
 21
-6.4267988105
 31
0.0
 11
5.1042199634
 21
-6.4728235362
 31
0.0
 11
5.099161824
 21
-6.5206729306
 31
0.0
  0
SPLINE
  5
5B0
100
AcDbEntity
  8
RACCORDO
100
AcDbSpline
 62
253
  6
CONTINUOUS
 70
0
 71
3
 72
14
 73
10
 74
8
 42
0.0000001
 43
0.0000001
 44
0.0000000001
 12
0.0619574506
 22
-0.1906092583
 32
0.0
 13
0.2004085935
 23
-0.0026477693
 33
0.0
 40
0.0
 40
0.0
 40
0.0
 40
0.0
 40
0.0296500838
 40
0.1059538392
 40
0.2258536109
 40
0.3835965442
 40
0.5714983109
 40
0.780373555
 40
1.0
 40
1.0
 40
1.0
 40
1.0
 10
-10.0464531354
 20
-9.0256186951
 30
0.0
 10
-10.0458407875
 20
-9.0275025553
 30
0.0
 10
-10.0363089858
 20
-9.0270554156
 30
0.0
 10
-10.0235062306
 20
-9.0299833086
 30
0.0
 10
-9.9987300828
 20
-9.0305866005
 30
0.0
 10
-9.9681235582
 20
-9.0321103223
 30
0.0
 10
-9.930920959
 20
-9.032897745
 30
0.0
 10
-9.8897976542
 20
-9.0336224302
 30
0.0
 10
-9.861155272
 20
-9.0334951706
 30
0.0
 10
-9.8464835963
 20
-9.0336890106
 30
0.0
 11
-10.0464531354
 21
-9.0256186951
 31
0.0
 11
-10.0407821336
 21
-9.0273948792
 31
0.0
 11
-10.025582441
 21
-9.0290840315
 31
0.0
 11
-10.0015994732
 21
-9.0306033135
 31
0.0
 11
-9.9700093905
 21
-9.0318782174
 31
0.0
 11
-9.9323614178
 21
-9.0328462199
 31
0.0
 11
-9.8905018681
 21
-9.0334598487
 31
0.0
 11
-9.8464835963
 21
-9.0336890106
 31
0.0
  0
SPLINE
  5
5B1
100
AcDbEntity
  8
RACCORDO
100
AcDbSpline
 62
253
  6
CONTINUOUS
 70
0
 71
3
 72
15
 73
11
 74
9
 42
0.0000001
 43
0.0000001
 44
0.0000000001
 12
-0.3122541466
 22
0.0006592875
 32
0.0
 13
-0.0006690231
 23
0.3122541259
 33
0.0
 40
0.0
 40
0.0
 40
0.0
 40
0.0
 40
0.1253892911
 40
0.2507579262
 40
0.376037153
 40
0.5011716683
 40
0.6261279947
 40
0.7508996291
 40
0.8755081425
 40
1.0
 40
1.0
 40
1.0
 40
1.0
 10
-9.8464835963
 20
-9.2241279254
 30
0.0
 10
-9.859534705
 20
-9.2241003696
 30
0.0
 10
-9.885700343
 20
-9.2214929682
 30
0.0
 10
-9.9233860399
 20
-9.2100795454
 30
0.0
 10
-9.9581430518
 20
-9.1915993484
 30
0.0
 10
-9.9886209705
 20
-9.1667579379
 30
0.0
 10
-10.0136563768
 20
-9.1365062746
 30
0.0
 10
-10.0322865825
 20
-9.1019966375
 30
0.0
 10
-10.0437953536
 20
-9.0645708525
 30
0.0
 10
-10.0464253727
 20
-9.0385763938
 30
0.0
 10
-10.0464531354
 20
-9.0256186951
 30
0.0
 11
-9.8464835963
 21
-9.2241279254
 31
0.0
 11
-9.8854436616
 21
-9.220241656
 31
0.0
 11
-9.9229105523
 21
-9.2088963111
 31
0.0
 11
-9.9574483207
 21
-9.1905267098
 31
0.0
 11
-9.9877332803
 21
-9.1658368812
 31
0.0
 11
-10.0126047365
 21
-9.1357730823
 31
0.0
 11
-10.0311094715
 21
-9.1014875313
 31
0.0
 11
-10.0425382771
 21
-9.0642942484
 31
0.0
 11
-10.0464531354
 21
-9.0256186951
 31
0.0
  0
SPLINE
  5
5B2
100
AcDbEntity
  8
RACCORDO
100
AcDbSpline
 62
253
  6
CONTINUOUS
 70
0
 71
3
 72
13
 73
9
 74
7
 42
0.0000001
 43
0.0000001
 44
0.0000000001
 12
0.0000009478
 22
-0.3537064006
 32
0.0
 13
0.0197326764
 23
-0.3531555455
 33
0.0
 40
0.0
 40
0.0
 40
0.0
 40
0.0
 40
0.1807365394
 40
0.3628821371
 40
0.5409121621
 40
0.7094442518
 40
0.8637208192
 40
1.0
 40
1.0
 40
1.0
 40
1.0
 10
6.8579427717
 20
8.0886901834
 30
0.0
 10
6.8579428288
 20
8.0673809598
 30
0.0
 10
6.8580949207
 20
8.0245962224
 30
0.0
 10
6.8587883575
 20
7.9608247095
 30
0.0
 10
6.8599545971
 20
7.8984991569
 30
0.0
 10
6.8615675527
 20
7.8394703908
 30
0.0
 10
6.8635723386
 20
7.7853792128
 30
0.0
 10
6.8652292553
 20
7.7511610573
 30
0.0
 10
6.8661256397
 20
7.7351184745
 30
0.0
 11
6.8579427717
 21
8.0886901834
 31
0.0
 11
6.8581720021
 21
8.0247629235
 31
0.0
 11
6.858878733
 21
7.9603407362
 31
0.0
 11
6.860068345
 21
7.8973816147
 31
0.0
 11
6.8617143296
 21
7.8377934648
 31
0.0
 11
6.8637603458
 21
7.783263226
 31
0.0
 11
6.8661256397
 21
7.7351184745
 31
0.0
  0
SPLINE
  5
5B3
100
AcDbEntity
  8
RACCORDO
100
AcDbSpline
 62
253
  6
CONTINUOUS
 70
0
 71
3
 72
13
 73
9
 74
7
 42
0.0000001
 43
0.0000001
 44
0.0000000001
 12
0.0197326329
 22
0.3531555552
 32
0.0
 13
0.0000009482
 23
0.3537064079
 33
0.0
 40
0.0
 40
0.0
 40
0.0
 40
0.0
 40
0.1362791858
 40
0.2905557542
 40
0.4590878453
 40
0.6371178717
 40
0.8192634707
 40
1.0
 40
1.0
 40
1.0
 40
1.0
 10
7.0153737736
 20
7.7351184711
 30
0.0
 10
7.016270156
 20
7.7511610549
 30
0.0
 10
7.0179270767
 20
7.7853792116
 30
0.0
 10
7.0199318597
 20
7.8394703917
 30
0.0
 10
7.021544817
 20
7.8984991594
 30
0.0
 10
7.0227110555
 20
7.9608247139
 30
0.0
 10
7.0234044929
 20
8.0245962271
 30
0.0
 10
7.0235565846
 20
8.0673809644
 30
0.0
 10
7.0235566417
 20
8.0886901872
 30
0.0
 11
7.0153737736
 21
7.7351184711
 31
0.0
 11
7.0177390679
 21
7.7832632253
 31
0.0
 11
7.0197850835
 21
7.8377934656
 31
0.0
 11
7.0214310687
 21
7.8973816172
 31
0.0
 11
7.0226206804
 21
7.9603407405
 31
0.0
 11
7.0233274114
 21
8.0247629296
 31
0.0
 11
7.0235566417
 21
8.0886901872
 31
0.0
  0
SPLINE
  5
5B4
100
AcDbEntity
  8
RACCORDO
100
AcDbSpline
 62
253
  6
CONTINUOUS
 70
0
 71
3
 72
13
 73
9
 74
7
 42
0.0000001
 43
0.0000001
 44
0.0000000001
 12
0.0000009478
 22
-0.3537064006
 32
0.0
 13
0.0197326764
 23
-0.3531555455
 33
0.0
 40
0.0
 40
0.0
 40
0.0
 40
0.0
 40
0.1807365394
 40
0.3628821371
 40
0.5409121621
 40
0.7094442518
 40
0.8637208192
 40
1.0
 40
1.0
 40
1.0
 40
1.0
 10
-7.4420572283
 20
8.0886901834
 30
0.0
 10
-7.4420571712
 20
8.0673809598
 30
0.0
 10
-7.4419050793
 20
8.0245962224
 30
0.0
 10
-7.4412116425
 20
7.9608247095
 30
0.0
 10
-7.4400454029
 20
7.8984991569
 30
0.0
 10
-7.4384324473
 20
7.8394703908
 30
0.0
 10
-7.4364276614
 20
7.7853792128
 30
0.0
 10
-7.4347707447
 20
7.7511610573
 30
0.0
 10
-7.4338743603
 20
7.7351184745
 30
0.0
 11
-7.4420572283
 21
8.0886901834
 31
0.0
 11
-7.4418279979
 21
8.0247629235
 31
0.0
 11
-7.441121267
 21
7.9603407362
 31
0.0
 11
-7.439931655
 21
7.8973816147
 31
0.0
 11
-7.4382856704
 21
7.8377934648
 31
0.0
 11
-7.4362396542
 21
7.783263226
 31
0.0
 11
-7.4338743603
 21
7.7351184745
 31
0.0
  0
SPLINE
  5
5B5
100
AcDbEntity
  8
RACCORDO
100
AcDbSpline
 62
253
  6
CONTINUOUS
 70
0
 71
3
 72
13
 73
9
 74
7
 42
0.0000001
 43
0.0000001
 44
0.0000000001
 12
0.0197326329
 22
0.3531555552
 32
0.0
 13
0.0000009482
 23
0.3537064079
 33
0.0
 40
0.0
 40
0.0
 40
0.0
 40
0.0
 40
0.1362791858
 40
0.2905557542
 40
0.4590878453
 40
0.6371178717
 40
0.8192634707
 40
1.0
 40
1.0
 40
1.0
 40
1.0
 10
-7.2846262264
 20
7.7351184711
 30
0.0
 10
-7.283729844
 20
7.7511610549
 30
0.0
 10
-7.2820729233
 20
7.7853792116
 30
0.0
 10
-7.2800681403
 20
7.8394703917
 30
0.0
 10
-7.278455183
 20
7.8984991594
 30
0.0
 10
-7.2772889445
 20
7.9608247139
 30
0.0
 10
-7.2765955071
 20
8.0245962271
 30
0.0
 10
-7.2764434154
 20
8.0673809644
 30
0.0
 10
-7.2764433583
 20
8.0886901872
 30
0.0
 11
-7.2846262264
 21
7.7351184711
 31
0.0
 11
-7.2822609321
 21
7.7832632253
 31
0.0
 11
-7.2802149165
 21
7.8377934656
 31
0.0
 11
-7.2785689313
 21
7.8973816172
 31
0.0
 11
-7.2773793196
 21
7.9603407405
 31
0.0
 11
-7.2766725886
 21
8.0247629296
 31
0.0
 11
-7.2764433583
 21
8.0886901872
 31
0.0
  0
SPLINE
  5
5B6
100
AcDbEntity
  8
RACCORDO
100
AcDbSpline
 62
253
  6
CONTINUOUS
 70
0
 71
3
 72
13
 73
9
 74
7
 42
0.0000001
 43
0.0000001
 44
0.0000000001
 12
0.0049371296
 22
-0.3535273384
 32
0.0
 13
0.000000663
 23
-0.3535618111
 33
0.0
 40
0.0
 40
0.0
 40
0.0
 40
0.0
 40
0.1390722399
 40
0.2928914527
 40
0.4588232532
 40
0.6340132458
 40
0.8154446221
 40
1.0
 40
1.0
 40
1.0
 40
1.0
 10
6.8873258922
 20
7.1280190477
 30
0.0
 10
6.8875547647
 20
7.1116304347
 30
0.0
 10
6.887971338
 20
7.0771144651
 30
0.0
 10
6.8884697834
 20
7.023042582
 30
0.0
 10
6.8888675149
 20
6.9647131411
 30
0.0
 10
6.8891567607
 20
6.9031288302
 30
0.0
 10
6.8893323774
 20
6.8393492255
 30
0.0
 10
6.8893714627
 20
6.796216235
 30
0.0
 10
6.8893715035
 20
6.7744656571
 30
0.0
 11
6.8873258922
 21
7.1280190477
 31
0.0
 11
6.887928181
 21
7.0788521035
 31
0.0
 11
6.8884357015
 21
7.0244698722
 31
0.0
 11
6.8888398909
 21
6.9658041167
 31
0.0
 11
6.8891335965
 21
6.903864322
 31
0.0
 11
6.8893117821
 21
6.8397173634
 31
0.0
 11
6.8893715035
 21
6.7744656571
 31
0.0
  0
SPLINE
  5
5B7
100
AcDbEntity
  8
RACCORDO
100
AcDbSpline
 62
253
  6
CONTINUOUS
 70
0
 71
3
 72
13
 73
9
 74
7
 42
0.0000001
 43
0.0000001
 44
0.0000000001
 12
0.000000663
 22
0.3535618111
 32
0.0
 13
0.0049371293
 23
0.3535273384
 33
0.0
 40
0.0
 40
0.0
 40
0.0
 40
0.0
 40
0.184555379
 40
0.3659867553
 40
0.5411767479
 40
0.7071085483
 40
0.8609277611
 40
1.0
 40
1.0
 40
1.0
 40
1.0
 10
6.9921279099
 20
6.7744656571
 30
0.0
 10
6.9921279507
 20
6.7962162351
 30
0.0
 10
6.992167036
 20
6.8393492258
 30
0.0
 10
6.9923426527
 20
6.9031288306
 30
0.0
 10
6.9926318985
 20
6.9647131415
 30
0.0
 10
6.99302963
 20
7.0230425824
 30
0.0
 10
6.9935280754
 20
7.0771144653
 30
0.0
 10
6.9939446487
 20
7.1116304349
 30
0.0
 10
6.9941735213
 20
7.1280190477
 30
0.0
 11
6.9921279099
 21
6.7744656571
 31
0.0
 11
6.9921876313
 21
6.8397173638
 31
0.0
 11
6.9923658169
 21
6.9038643223
 31
0.0
 11
6.9926595225
 21
6.9658041171
 31
0.0
 11
6.9930637119
 21
7.0244698726
 31
0.0
 11
6.9935712324
 21
7.0788521039
 31
0.0
 11
6.9941735213
 21
7.1280190477
 31
0.0
  0
SPLINE
  5
5B8
100
AcDbEntity
  8
RACCORDO
100
AcDbSpline
 62
253
  6
CONTINUOUS
 70
0
 71
3
 72
17
 73
13
 74
11
 42
0.0000001
 43
0.0000001
 44
0.0000000001
 12
-0.000001509
 22
-0.4998432663
 32
0.0
 13
-0.185506915
 23
-0.4641448862
 33
0.0
 40
0.0
 40
0.0
 40
0.0
 40
0.0
 40
0.1530153495
 40
0.3024422212
 40
0.4447665503
 40
0.5766197167
 40
0.6949031276
 40
0.7968310081
 40
0.8800040106
 40
0.9424699896
 40
0.9827635986
 40
1.0
 40
1.0
 40
1.0
 40
1.0
 10
6.88937152
 20
5.4233474506
 30
0.0
 10
6.889371443
 20
5.3978528865
 30
0.0
 10
6.8893179195
 20
5.3474616781
 30
0.0
 10
6.8890787548
 20
5.2733572905
 30
0.0
 10
6.8886839504
 20
5.202780376
 30
0.0
 10
6.8881542312
 20
5.1373906498
 30
0.0
 10
6.8874698953
 20
5.0787421962
 30
0.0
 10
6.8867530201
 20
5.0281791771
 30
0.0
 10
6.8857325774
 20
4.9869961602
 30
0.0
 10
6.8852083735
 20
4.9558927499
 30
0.0
 10
6.8835552976
 20
4.9361851334
 30
0.0
 10
6.8836967073
 20
4.9263027784
 30
0.0
 10
6.8826308834
 20
4.9236360492
 30
0.0
 11
6.88937152
 21
5.4233474506
 31
0.0
 11
6.8892893561
 21
5.3468638026
 31
0.0
 11
6.8890447603
 21
5.2721741875
 31
0.0
 11
6.8886433297
 21
5.2010354625
 31
0.0
 11
6.8880946278
 21
5.1351318293
 31
0.0
 11
6.8874114735
 21
5.0760126098
 31
0.0
 11
6.8866099773
 21
5.02507095
 31
0.0
 11
6.8857090963
 21
4.9835072467
 31
0.0
 11
6.8847298107
 21
4.9522994087
 31
0.0
 11
6.8836958079
 21
4.9321854797
 31
0.0
 11
6.8826308834
 21
4.9236360492
 31
0.0
  0
SPLINE
  5
5B9
100
AcDbEntity
  8
RACCORDO
100
AcDbSpline
 62
253
  6
CONTINUOUS
 70
0
 71
3
 72
17
 73
13
 74
11
 42
0.0000001
 43
0.0000001
 44
0.0000000001
 12
-0.1855069271
 22
0.4641448815
 32
0.0
 13
-0.000001509
 23
0.4998432665
 33
0.0
 40
0.0
 40
0.0
 40
0.0
 40
0.0
 40
0.0172364015
 40
0.0575300106
 40
0.1199959897
 40
0.2031689922
 40
0.3050968727
 40
0.4233802836
 40
0.5552334501
 40
0.6975577792
 40
0.8469846509
 40
1.0
 40
1.0
 40
1.0
 40
1.0
 10
6.99886853
 20
4.9236360492
 30
0.0
 10
6.997802706
 20
4.9263027784
 30
0.0
 10
6.9979441159
 20
4.9361851335
 30
0.0
 10
6.9962910399
 20
4.95589275
 30
0.0
 10
6.9957668361
 20
4.9869961604
 30
0.0
 10
6.9947463933
 20
5.0281791773
 30
0.0
 10
6.9940295181
 20
5.0787421964
 30
0.0
 10
6.9933451822
 20
5.1373906501
 30
0.0
 10
6.992815463
 20
5.2027803762
 30
0.0
 10
6.9924206586
 20
5.2733572908
 30
0.0
 10
6.9921814939
 20
5.3474616784
 30
0.0
 10
6.9921279704
 20
5.3978528867
 30
0.0
 10
6.9921278934
 20
5.4233474507
 30
0.0
 11
6.99886853
 21
4.9236360492
 31
0.0
 11
6.9978036055
 21
4.9321854797
 31
0.0
 11
6.9967696027
 21
4.9522994088
 31
0.0
 11
6.9957903171
 21
4.9835072469
 31
0.0
 11
6.9948894361
 21
5.0250709501
 31
0.0
 11
6.9940879399
 21
5.0760126101
 31
0.0
 11
6.9934047856
 21
5.1351318296
 31
0.0
 11
6.9928560837
 21
5.2010354628
 31
0.0
 11
6.9924546531
 21
5.2721741878
 31
0.0
 11
6.9922100573
 21
5.3468638029
 31
0.0
 11
6.9921278934
 21
5.4233474507
 31
0.0
  0
SPLINE
  5
5BA
100
AcDbEntity
  8
RACCORDO
100
AcDbSpline
 62
253
  6
CONTINUOUS
 70
0
 71
3
 72
17
 73
13
 74
11
 42
0.0000001
 43
0.0000001
 44
0.0000000001
 12
-0.000001509
 22
-0.4998432663
 32
0.0
 13
-0.185506915
 23
-0.4641448862
 33
0.0
 40
0.0
 40
0.0
 40
0.0
 40
0.0
 40
0.1530153495
 40
0.3024422212
 40
0.4447665503
 40
0.5766197167
 40
0.6949031276
 40
0.7968310081
 40
0.8800040106
 40
0.9424699896
 40
0.9827635986
 40
1.0
 40
1.0
 40
1.0
 40
1.0
 10
-7.41062848
 20
5.4233474506
 30
0.0
 10
-7.410628557
 20
5.3978528865
 30
0.0
 10
-7.4106820805
 20
5.3474616781
 30
0.0
 10
-7.4109212452
 20
5.2733572905
 30
0.0
 10
-7.4113160496
 20
5.202780376
 30
0.0
 10
-7.4118457688
 20
5.1373906498
 30
0.0
 10
-7.4125301047
 20
5.0787421962
 30
0.0
 10
-7.4132469799
 20
5.0281791771
 30
0.0
 10
-7.4142674226
 20
4.9869961602
 30
0.0
 10
-7.4147916265
 20
4.9558927499
 30
0.0
 10
-7.4164447024
 20
4.9361851334
 30
0.0
 10
-7.4163032927
 20
4.9263027784
 30
0.0
 10
-7.4173691166
 20
4.9236360492
 30
0.0
 11
-7.41062848
 21
5.4233474506
 31
0.0
 11
-7.4107106439
 21
5.3468638026
 31
0.0
 11
-7.4109552397
 21
5.2721741875
 31
0.0
 11
-7.4113566703
 21
5.2010354625
 31
0.0
 11
-7.4119053722
 21
5.1351318293
 31
0.0
 11
-7.4125885265
 21
5.0760126098
 31
0.0
 11
-7.4133900227
 21
5.02507095
 31
0.0
 11
-7.4142909037
 21
4.9835072467
 31
0.0
 11
-7.4152701893
 21
4.9522994087
 31
0.0
 11
-7.4163041921
 21
4.9321854797
 31
0.0
 11
-7.4173691166
 21
4.9236360492
 31
0.0
  0
SPLINE
  5
5BB
100
AcDbEntity
  8
RACCORDO
100
AcDbSpline
 62
253
  6
CONTINUOUS
 70
0
 71
3
 72
17
 73
13
 74
11
 42
0.0000001
 43
0.0000001
 44
0.0000000001
 12
-0.1855069271
 22
0.4641448815
 32
0.0
 13
-0.000001509
 23
0.4998432665
 33
0.0
 40
0.0
 40
0.0
 40
0.0
 40
0.0
 40
0.0172364015
 40
0.0575300106
 40
0.1199959897
 40
0.2031689922
 40
0.3050968727
 40
0.4233802836
 40
0.5552334501
 40
0.6975577792
 40
0.8469846509
 40
1.0
 40
1.0
 40
1.0
 40
1.0
 10
-7.30113147
 20
4.9236360492
 30
0.0
 10
-7.302197294
 20
4.9263027784
 30
0.0
 10
-7.3020558841
 20
4.9361851335
 30
0.0
 10
-7.3037089601
 20
4.95589275
 30
0.0
 10
-7.3042331639
 20
4.9869961604
 30
0.0
 10
-7.3052536067
 20
5.0281791773
 30
0.0
 10
-7.3059704819
 20
5.0787421964
 30
0.0
 10
-7.3066548178
 20
5.1373906501
 30
0.0
 10
-7.307184537
 20
5.2027803762
 30
0.0
 10
-7.3075793414
 20
5.2733572908
 30
0.0
 10
-7.3078185061
 20
5.3474616784
 30
0.0
 10
-7.3078720296
 20
5.3978528867
 30
0.0
 10
-7.3078721066
 20
5.4233474507
 30
0.0
 11
-7.30113147
 21
4.9236360492
 31
0.0
 11
-7.3021963945
 21
4.9321854797
 31
0.0
 11
-7.3032303973
 21
4.9522994088
 31
0.0
 11
-7.3042096829
 21
4.9835072469
 31
0.0
 11
-7.3051105639
 21
5.0250709501
 31
0.0
 11
-7.3059120601
 21
5.0760126101
 31
0.0
 11
-7.3065952144
 21
5.1351318296
 31
0.0
 11
-7.3071439163
 21
5.2010354628
 31
0.0
 11
-7.3075453469
 21
5.2721741878
 31
0.0
 11
-7.3077899427
 21
5.3468638029
 31
0.0
 11
-7.3078721066
 21
5.4233474507
 31
0.0
  0
SPLINE
  5
5BC
100
AcDbEntity
  8
RACCORDO
100
AcDbSpline
 62
253
  6
CONTINUOUS
 70
0
 71
3
 72
13
 73
9
 74
7
 42
0.0000001
 43
0.0000001
 44
0.0000000001
 12
0.0049371296
 22
-0.3535273384
 32
0.0
 13
0.000000663
 23
-0.3535618111
 33
0.0
 40
0.0
 40
0.0
 40
0.0
 40
0.0
 40
0.1390722399
 40
0.2928914527
 40
0.4588232532
 40
0.6340132458
 40
0.8154446221
 40
1.0
 40
1.0
 40
1.0
 40
1.0
 10
-7.4126741078
 20
7.1280190477
 30
0.0
 10
-7.4124452353
 20
7.1116304347
 30
0.0
 10
-7.412028662
 20
7.0771144651
 30
0.0
 10
-7.4115302166
 20
7.023042582
 30
0.0
 10
-7.4111324851
 20
6.9647131411
 30
0.0
 10
-7.4108432393
 20
6.9031288302
 30
0.0
 10
-7.4106676226
 20
6.8393492255
 30
0.0
 10
-7.4106285373
 20
6.796216235
 30
0.0
 10
-7.4106284965
 20
6.7744656571
 30
0.0
 11
-7.4126741078
 21
7.1280190477
 31
0.0
 11
-7.412071819
 21
7.0788521035
 31
0.0
 11
-7.4115642985
 21
7.0244698722
 31
0.0
 11
-7.4111601091
 21
6.9658041167
 31
0.0
 11
-7.4108664035
 21
6.903864322
 31
0.0
 11
-7.4106882179
 21
6.8397173634
 31
0.0
 11
-7.4106284965
 21
6.7744656571
 31
0.0
  0
SPLINE
  5
5BD
100
AcDbEntity
  8
RACCORDO
100
AcDbSpline
 62
253
  6
CONTINUOUS
 70
0
 71
3
 72
13
 73
9
 74
7
 42
0.0000001
 43
0.0000001
 44
0.0000000001
 12
0.000000663
 22
0.3535618111
 32
0.0
 13
0.0049371293
 23
0.3535273384
 33
0.0
 40
0.0
 40
0.0
 40
0.0
 40
0.0
 40
0.184555379
 40
0.3659867553
 40
0.5411767479
 40
0.7071085483
 40
0.8609277611
 40
1.0
 40
1.0
 40
1.0
 40
1.0
 10
-7.3078720901
 20
6.7744656571
 30
0.0
 10
-7.3078720493
 20
6.7962162351
 30
0.0
 10
-7.307832964
 20
6.8393492258
 30
0.0
 10
-7.3076573473
 20
6.9031288306
 30
0.0
 10
-7.3073681015
 20
6.9647131415
 30
0.0
 10
-7.30697037
 20
7.0230425824
 30
0.0
 10
-7.3064719246
 20
7.0771144653
 30
0.0
 10
-7.3060553513
 20
7.1116304349
 30
0.0
 10
-7.3058264787
 20
7.1280190477
 30
0.0
 11
-7.3078720901
 21
6.7744656571
 31
0.0
 11
-7.3078123687
 21
6.8397173638
 31
0.0
 11
-7.3076341831
 21
6.9038643223
 31
0.0
 11
-7.3073404775
 21
6.9658041171
 31
0.0
 11
-7.3069362881
 21
7.0244698726
 31
0.0
 11
-7.3064287676
 21
7.0788521039
 31
0.0
 11
-7.3058264787
 21
7.1280190477
 31
0.0
  0
SPLINE
  5
5BE
100
AcDbEntity
  8
ASSI
100
AcDbSpline
 62
7
  6
CONTINUOUS
 70
0
 71
3
 72
10
 73
6
 74
4
 42
0.0000001
 43
0.0000001
 44
0.0000000001
 12
-0.0095948202
 22
0.4295727449
 32
0.0
 13
-0.4296447263
 23
-0.0065610381
 33
0.0
 40
0.0
 40
0.0
 40
0.0
 40
0.0
 40
0.4724875075
 40
0.7072006687
 40
1.0
 40
1.0
 40
1.0
 40
1.0
 10
-1.5705784618
 20
-2.3578054173
 30
0.0
 10
-1.572089606
 20
-2.2901494988
 30
0.0
 10
-1.594231341
 20
-2.1795168244
 30
0.0
 10
-1.7147940398
 20
-2.0905927099
 30
0.0
 10
-1.7927292348
 20
-2.0815335922
 30
0.0
 10
-1.8346624644
 20
-2.0821739481
 30
0.0
 11
-1.5705784618
 21
-2.3578054173
 31
0.0
 11
-1.6298508384
 21
-2.1636321772
 31
0.0
 11
-1.7106293489
 21
-2.1032512021
 31
0.0
 11
-1.8346624644
 21
-2.0821739481
 31
0.0
  0
SPLINE
  5
5BF
100
AcDbEntity
  8
ASSI
100
AcDbSpline
 62
7
  6
CONTINUOUS
 70
0
 71
3
 72
9
 73
5
 74
3
 42
0.0000001
 43
0.0000001
 44
0.0000000001
 12
-0.3133068914
 22
-0.0047845217
 32
0.0
 13
-0.0361262538
 23
-0.3112658327
 33
0.0
 40
0.0
 40
0.0
 40
0.0
 40
0.0
 40
0.4987528619
 40
1.0
 40
1.0
 40
1.0
 40
1.0
 10
-1.8346624645
 20
-2.0821739403
 30
0.0
 10
-1.8867500341
 20
-2.0829693716
 30
0.0
 10
-1.9953878942
 20
-2.1253982065
 30
0.0
 10
-2.0411953955
 20
-2.230612304
 30
0.0
 10
-2.0472314559
 20
-2.28261934
 30
0.0
 11
-1.8346624645
 21
-2.0821739403
 31
0.0
 11
-1.9794875921
 21
-2.1409104887
 31
0.0
 11
-2.0472314559
 21
-2.28261934
 31
0.0
  0
SPLINE
  5
5C0
100
AcDbEntity
  8
ASSI
100
AcDbSpline
 62
7
  6
CONTINUOUS
 70
0
 71
3
 72
9
 73
5
 74
3
 42
0.0000001
 43
0.0000001
 44
0.0000000001
 12
-0.0321345864
 22
-0.2768734101
 32
0.0
 13
0.0468836161
 23
-0.274760569
 33
0.0
 40
0.0
 40
0.0
 40
0.0
 40
0.0
 40
0.7295958324
 40
1.0
 40
1.0
 40
1.0
 40
1.0
 10
-2.0472314558
 20
-2.28261934
 30
0.0
 10
-2.0550465425
 20
-2.3499545687
 30
0.0
 10
-2.0553477905
 20
-2.4439472573
 30
0.0
 10
-2.041449786
 20
-2.5358206624
 30
0.0
 10
-2.0372239443
 20
-2.5605861301
 30
0.0
 11
-2.0472314558
 21
-2.28261934
 31
0.0
 11
-2.0479277159
 21
-2.4859798005
 31
0.0
 11
-2.0372239443
 21
-2.5605861301
 31
0.0
  0
SPLINE
  5
5C1
100
AcDbEntity
  8
ASSI
100
AcDbSpline
 62
7
  6
CONTINUOUS
 70
0
 71
3
 72
10
 73
6
 74
4
 42
0.0000001
 43
0.0000001
 44
0.0000000001
 12
-0.1284599377
 22
0.8731819798
 32
0.0
 13
0.2998855628
 23
0.8300707046
 33
0.0
 40
0.0
 40
0.0
 40
0.0
 40
0.0
 40
0.4151262789
 40
0.7045762354
 40
1.0
 40
1.0
 40
1.0
 40
1.0
 10
-2.3069523755
 20
-2.9022208978
 30
0.0
 10
-2.3247280741
 20
-2.7813939691
 30
0.0
 10
-2.3472400681
 20
-2.5747725686
 30
0.0
 10
-2.3472953043
 20
-2.2804699835
 30
0.0
 10
-2.318586568
 20
-2.108300399
 30
0.0
 10
-2.2890554607
 20
-2.0265595282
 30
0.0
 11
-2.3069523755
 21
-2.9022208978
 31
0.0
 11
-2.3434542661
 21
-2.5376612848
 31
0.0
 11
-2.3402557423
 21
-2.2822183584
 31
0.0
 11
-2.2890554607
 21
-2.0265595282
 31
0.0
  0
SPLINE
  5
5C2
100
AcDbEntity
  8
ASSI
100
AcDbSpline
 62
7
  6
CONTINUOUS
 70
0
 71
3
 72
23
 73
19
 74
17
 42
0.0000001
 43
0.0000001
 44
0.0000000001
 12
0.359969576
 22
0.9978268927
 32
0.0
 13
0.1357483736
 23
-1.0520498955
 33
0.0
 40
0.0
 40
0.0
 40
0.0
 40
0.0
 40
0.079828561
 40
0.1893471136
 40
0.252931641
 40
0.322277794
 40
0.3983621185
 40
0.4395068157
 40
0.4830801905
 40
0.5370931167
 40
0.5873706499
 40
0.6784900216
 40
0.7593486609
 40
0.8310612156
 40
0.8931649411
 40
0.9439081722
 40
0.9806071038
 40
1.0
 40
1.0
 40
1.0
 40
1.0
 10
-2.2890554607
 20
-2.0265595282
 30
0.0
 10
-2.2794768429
 20
-2.0000078332
 30
0.0
 10
-2.2468034727
 20
-1.9407228526
 30
0.0
 10
-2.1870793774
 20
-1.8729232137
 30
0.0
 10
-2.1183155114
 20
-1.8212180009
 30
0.0
 10
-2.0527259195
 20
-1.7864469159
 30
0.0
 10
-1.9897234537
 20
-1.7657280767
 30
0.0
 10
-1.9338481395
 20
-1.7548944173
 30
0.0
 10
-1.8850092674
 20
-1.7497391444
 30
0.0
 10
-1.8326471063
 20
-1.7487904586
 30
0.0
 10
-1.7636784224
 20
-1.7541819006
 30
0.0
 10
-1.686482433
 20
-1.771614694
 30
0.0
 10
-1.6071758297
 20
-1.8064731441
 30
0.0
 10
-1.5436780224
 20
-1.8487499222
 30
0.0
 10
-1.4954412492
 20
-1.8928755995
 30
0.0
 10
-1.4609447112
 20
-1.9334556926
 30
0.0
 10
-1.4411533626
 20
-1.9652145705
 30
0.0
 10
-1.4313527101
 20
-1.9831746142
 30
0.0
 10
-1.4304751921
 20
-1.989975379
 30
0.0
 11
-2.2890554607
 21
-2.0265595282
 31
0.0
 11
-2.2497872522
 21
-1.9515349347
 31
0.0
 11
-2.1729422149
 21
-1.864406979
 31
0.0
 11
-2.1190316828
 21
-1.8238733231
 31
0.0
 11
-2.0540509002
 21
-1.789396726
 31
0.0
 11
-1.9774411861
 21
-1.7640048208
 31
0.0
 11
-1.9346008919
 21
-1.7556617631
 31
0.0
 11
-1.8886438595
 21
-1.7507252407
 31
0.0
 11
-1.8313573339
 21
-1.7497177787
 31
0.0
 11
-1.778193658
 21
-1.7539640473
 31
0.0
 11
-1.6839753823
 21
-1.7755386471
 31
0.0
 11
-1.6054700862
 21
-1.8100907806
 31
0.0
 11
-1.5421588239
 21
-1.8522621887
 31
0.0
 11
-1.4935208473
 21
-1.8966946271
 31
0.0
 11
-1.4590426165
 21
-1.9380297909
 31
0.0
 11
-1.4382001399
 21
-1.9709094633
 31
0.0
 11
-1.4304751921
 21
-1.989975379
 31
0.0
  0
SPLINE
  5
5C3
100
AcDbEntity
  8
ASSI
100
AcDbSpline
 62
7
  6
CONTINUOUS
 70
0
 71
3
 72
8
 73
4
 74
2
 42
0.0000001
 43
0.0000001
 44
0.0000000001
 12
0.0253486975
 22
0.0635704013
 32
0.0
 13
0.0439790954
 23
0.0534848382
 33
0.0
 40
0.0
 40
0.0
 40
0.0
 40
0.0
 40
1.0
 40
1.0
 40
1.0
 40
1.0
 10
-1.4204304849
 20
-1.989975379
 30
0.0
 10
-1.4119809191
 20
-1.9687852452
 30
0.0
 10
-1.399814716
 20
-1.9489362672
 30
0.0
 10
-1.3851550176
 20
-1.9311079878
 30
0.0
 11
-1.4204304849
 21
-1.989975379
 31
0.0
 11
-1.3851550176
 21
-1.9311079878
 31
0.0
  0
SPLINE
  5
5C4
100
AcDbEntity
  8
ASSI
100
AcDbSpline
 62
7
  6
CONTINUOUS
 70
0
 71
3
 72
10
 73
6
 74
4
 42
0.0000001
 43
0.0000001
 44
0.0000000001
 12
0.2161007798
 22
0.2628092995
 32
0.0
 13
0.3244560378
 23
0.0883936536
 33
0.0
 40
0.0
 40
0.0
 40
0.0
 40
0.0
 40
0.0997774862
 40
0.4054370801
 40
1.0
 40
1.0
 40
1.0
 40
1.0
 10
-1.3851550176
 20
-1.9311079878
 30
0.0
 10
-1.3779676867
 20
-1.9223671708
 30
0.0
 10
-1.3463271164
 20
-1.8888233099
 30
0.0
 10
-1.2497476893
 20
-1.8291304981
 30
0.0
 10
-1.1512409008
 20
-1.8029416134
 30
0.0
 10
-1.0869377244
 20
-1.7854230838
 30
0.0
 11
-1.3851550176
 21
-1.9311079878
 31
0.0
 11
-1.3619390668
 21
-1.9064227829
 31
0.0
 11
-1.2763166619
 21
-1.8495518386
 31
0.0
 11
-1.0869377244
 21
-1.7854230838
 31
0.0
  0
SPLINE
  5
5C5
100
AcDbEntity
  8
ASSI
100
AcDbSpline
 62
7
  6
CONTINUOUS
 70
0
 71
3
 72
9
 73
5
 74
3
 42
0.0000001
 43
0.0000001
 44
0.0000000001
 12
0.4589786715
 22
0.125042516
 32
0.0
 13
0.4590762626
 23
0.1246838126
 33
0.0
 40
0.0
 40
0.0
 40
0.0
 40
0.0
 40
0.8019458722
 40
1.0
 40
1.0
 40
1.0
 40
1.0
 10
-1.0869377245
 20
-1.7854230832
 30
0.0
 10
-0.9642457075
 20
-1.7519973067
 30
0.0
 10
-0.8106263045
 20
-1.7126591795
 30
0.0
 10
-0.6572569229
 20
-1.6723783845
 30
0.0
 10
-0.6269496066
 20
-1.6641470033
 30
0.0
 11
-1.0869377245
 21
-1.7854230832
 31
0.0
 11
-0.7180176083
 21
-1.6882969634
 31
0.0
 11
-0.6269496066
 21
-1.6641470033
 31
0.0
  0
SPLINE
  5
5C6
100
AcDbEntity
  8
ASSI
100
AcDbSpline
 62
7
  6
CONTINUOUS
 70
0
 71
3
 72
11
 73
7
 74
5
 42
0.0000001
 43
0.0000001
 44
0.0000000001
 12
-0.5175092969
 22
-0.1487860009
 32
0.0
 13
-0.5040440549
 23
-0.1894590043
 33
0.0
 40
0.0
 40
0.0
 40
0.0
 40
0.0
 40
0.1342305347
 40
0.4412509806
 40
0.7775650777
 40
1.0
 40
1.0
 40
1.0
 40
1.0
 10
-0.6269496066
 20
-2.0054503466
 30
0.0
 10
-0.6501047898
 20
-2.0121075548
 30
0.0
 10
-0.7261748513
 20
-2.034148685
 30
0.0
 10
-0.860218416
 20
-2.0730816654
 30
0.0
 10
-1.0088755535
 20
-2.1181492991
 30
0.0
 10
-1.1051619516
 20
-2.1466095693
 30
0.0
 10
-1.142534285
 20
-2.1606570023
 30
0.0
 11
-0.6269496066
 21
-2.0054503466
 31
0.0
 11
-0.6963861943
 21
-2.0255224329
 31
0.0
 11
-0.8550683482
 21
-2.0719057086
 31
0.0
 11
-1.0285546541
 21
-2.1238506992
 31
0.0
 11
-1.142534285
 21
-2.1606570023
 31
0.0
  0
SPLINE
  5
5C7
100
AcDbEntity
  8
ASSI
100
AcDbSpline
 62
7
  6
CONTINUOUS
 70
0
 71
3
 72
9
 73
5
 74
3
 42
0.0000001
 43
0.0000001
 44
0.0000000001
 12
-0.2438689275
 22
-0.0916651113
 32
0.0
 13
0.0
 23
-0.2604910834
 33
0.0
 40
0.0
 40
0.0
 40
0.0
 40
0.0
 40
0.6438952445
 40
1.0
 40
1.0
 40
1.0
 40
1.0
 10
-1.1425342936
 20
-2.1606569795
 30
0.0
 10
-1.1948763078
 20
-2.1803312226
 30
0.0
 10
-1.2734685627
 20
-2.2387465708
 30
0.0
 10
-1.2921820092
 20
-2.3276495382
 30
0.0
 10
-1.2921820092
 20
-2.3585702427
 30
0.0
 11
-1.1425342936
 21
-2.1606569795
 31
0.0
 11
-1.2712608472
 21
-2.2681981525
 31
0.0
 11
-1.2921820092
 21
-2.3585702427
 31
0.0
  0
SPLINE
  5
5C8
100
AcDbEntity
  8
ASSI
100
AcDbSpline
 62
253
  6
CONTINUOUS
 70
0
 71
3
 72
15
 73
11
 74
9
 42
0.0000001
 43
0.0000001
 44
0.0000000001
 12
-0.2881576716
 22
0.0038542319
 32
0.0
 13
-0.0214951041
 23
0.2873806871
 33
0.0
 40
0.0
 40
0.0
 40
0.0
 40
0.0
 40
0.1661006305
 40
0.3273703266
 40
0.47908113
 40
0.6171090564
 40
0.7383291943
 40
0.8411944316
 40
0.9267165463
 40
1.0
 40
1.0
 40
1.0
 40
1.0
 10
5.3502887827
 20
-6.9787046414
 30
0.0
 10
5.3343343923
 20
-6.9784912447
 30
0.0
 10
5.30289096
 20
-6.9768064553
 30
0.0
 10
5.2572421775
 20
-6.9705566779
 30
0.0
 10
5.214954461
 20
-6.9608297736
 30
0.0
 10
5.1775353464
 20
-6.9479814583
 30
0.0
 10
5.1462600363
 20
-6.9324667551
 30
0.0
 10
5.1221427271
 20
-6.9147203558
 30
0.0
 10
5.1058905987
 20
-6.8950753292
 30
0.0
 10
5.1009661544
 20
-6.8800701591
 30
0.0
 10
5.1004410759
 20
-6.873050076
 30
0.0
 11
5.3502887827
 21
-6.9787046414
 31
0.0
 11
5.3024913829
 21
-6.9761159057
 31
0.0
 11
5.2564577962
 21
-6.9697238489
 31
0.0
 11
5.2138867475
 21
-6.95976435
 31
0.0
 11
5.1763491877
 21
-6.946604933
 31
0.0
 11
5.1452303227
 21
-6.9307312048
 31
0.0
 11
5.1216784965
 21
-6.9127289357
 31
0.0
 11
5.1065628153
 21
-6.8932624428
 31
0.0
 11
5.1004410759
 21
-6.873050076
 31
0.0
  0
SPLINE
  5
5C9
100
AcDbEntity
  8
ASSI
100
AcDbSpline
 62
7
  6
CONTINUOUS
 70
0
 71
3
 72
17
 73
13
 74
11
 42
0.0000001
 43
0.0000001
 44
0.0000000001
 12
-0.3573152673
 22
-0.0104647825
 32
0.0
 13
-0.0148532747
 23
-0.3571597571
 33
0.0
 40
0.0
 40
0.0
 40
0.0
 40
0.0
 40
0.1289111824
 40
0.2505325819
 40
0.3645536477
 40
0.4713211985
 40
0.5715020992
 40
0.6658608772
 40
0.7551733224
 40
0.840186145
 40
0.9215951935
 40
1.0
 40
1.0
 40
1.0
 40
1.0
 10
5.2910870647
 20
-6.0185331727
 30
0.0
 10
5.2757330869
 20
-6.0189828485
 30
0.0
 10
5.2459089559
 20
-6.0221651694
 30
0.0
 10
5.2037469947
 20
-6.0332216561
 30
0.0
 10
5.1660640641
 20
-6.0492330269
 30
0.0
 10
5.1332521813
 20
-6.0691350895
 30
0.0
 10
5.1054419983
 20
-6.0920391272
 30
0.0
 10
5.0826542943
 20
-6.1171986258
 30
0.0
 10
5.0648582921
 20
-6.1439578754
 30
0.0
 10
5.0519889182
 20
-6.1717144771
 30
0.0
 10
5.0439384431
 20
-6.199872906
 30
0.0
 10
5.0416275473
 20
-6.2188681223
 30
0.0
 10
5.041239358
 20
-6.2282024695
 30
0.0
 11
5.2910870647
 21
-6.0185331727
 31
0.0
 11
5.2452659727
 21
-6.0234269576
 31
0.0
 11
5.2032196114
 21
-6.0344836347
 31
0.0
 11
5.1657265429
 21
-6.0504699018
 31
0.0
 11
5.1331257619
 21
-6.0703151837
 31
0.0
 11
5.1055246405
 21
-6.0931327785
 31
0.0
 11
5.082930075
 21
-6.1181770989
 31
0.0
 11
5.0653015481
 21
-6.1447953072
 31
0.0
 11
5.0525649671
 21
-6.1723868892
 31
0.0
 11
5.044603629
 21
-6.2003778717
 31
0.0
 11
5.041239358
 21
-6.2282024695
 31
0.0
  0
SPLINE
  5
5CA
100
AcDbEntity
  8
ASSI
100
AcDbSpline
 62
253
  6
CONTINUOUS
 70
0
 71
3
 72
15
 73
11
 74
9
 42
0.0000001
 43
0.0000001
 44
0.0000000001
 12
0.3882348029
 22
-0.0023184616
 32
0.0
 13
0.0023876314
 23
-0.3882343837
 33
0.0
 40
0.0
 40
0.0
 40
0.0
 40
0.0
 40
0.1257290456
 40
0.2514557317
 40
0.3770343051
 40
0.502340937
 40
0.627292244
 40
0.751858067
 40
0.8760664778
 40
1.0
 40
1.0
 40
1.0
 40
1.0
 10
-5.7675101174
 20
-6.2744709924
 30
0.0
 10
-5.7512393203
 20
-6.2745681584
 30
0.0
 10
-5.7186304482
 20
-6.2779136384
 30
0.0
 10
-5.6716668553
 20
-6.2921761594
 30
0.0
 10
-5.6283316642
 20
-6.3151443134
 30
0.0
 10
-5.5902979117
 20
-6.3459481941
 30
0.0
 10
-5.5590101355
 20
-6.3834178291
 30
0.0
 10
-5.5356671075
 20
-6.4261362201
 30
0.0
 10
-5.5211649912
 20
-6.472451805
 30
0.0
 10
-5.5177610465
 20
-6.5046345124
 30
0.0
 10
-5.5176624106
 20
-6.5206729306
 30
0.0
 11
-5.7675101174
 21
-6.2744709924
 31
0.0
 11
-5.7189520015
 21
-6.2794553568
 31
0.0
 11
-5.6722456215
 21
-6.2936384152
 31
0.0
 11
-5.6291720984
 21
-6.3164793047
 31
0.0
 11
-5.5913740165
 21
-6.3471070012
 31
0.0
 11
-5.5602927838
 21
-6.3843535349
 31
0.0
 11
-5.5371136655
 21
-6.4267985307
 31
0.0
 11
-5.5227205837
 21
-6.4728233729
 31
0.0
 11
-5.5176624106
 21
-6.5206729306
 31
0.0
  0
SPLINE
  5
5CB
100
AcDbEntity
  8
ASSI
100
AcDbSpline
 62
7
  6
CONTINUOUS
 70
0
 71
3
 72
17
 73
13
 74
11
 42
0.0000001
 43
0.0000001
 44
0.0000000001
 12
-0.0148532747
 22
0.3571597571
 32
0.0
 13
-0.3573152673
 23
0.0104647825
 33
0.0
 40
0.0
 40
0.0
 40
0.0
 40
0.0
 40
0.0784048065
 40
0.159813855
 40
0.2448266776
 40
0.3341391228
 40
0.4284979008
 40
0.5286788015
 40
0.6354463523
 40
0.7494674181
 40
0.8710888176
 40
1.0
 40
1.0
 40
1.0
 40
1.0
 10
-5.4597399446
 20
-6.2282024695
 30
0.0
 10
-5.4601281339
 20
-6.2188681223
 30
0.0
 10
-5.4624390296
 20
-6.199872906
 30
0.0
 10
-5.4704895047
 20
-6.1717144771
 30
0.0
 10
-5.4833588787
 20
-6.1439578754
 30
0.0
 10
-5.5011548809
 20
-6.1171986258
 30
0.0
 10
-5.5239425849
 20
-6.0920391272
 30
0.0
 10
-5.5517527679
 20
-6.0691350895
 30
0.0
 10
-5.5845646507
 20
-6.0492330269
 30
0.0
 10
-5.6222475813
 20
-6.0332216561
 30
0.0
 10
-5.6644095425
 20
-6.0221651694
 30
0.0
 10
-5.6942336735
 20
-6.0189828485
 30
0.0
 10
-5.7095876513
 20
-6.0185331727
 30
0.0
 11
-5.4597399446
 21
-6.2282024695
 31
0.0
 11
-5.4631042156
 21
-6.2003778717
 31
0.0
 11
-5.4710655537
 21
-6.1723868892
 31
0.0
 11
-5.4838021347
 21
-6.1447953072
 31
0.0
 11
-5.5014306616
 21
-6.1181770989
 31
0.0
 11
-5.5240252271
 21
-6.0931327785
 31
0.0
 11
-5.5516263485
 21
-6.0703151837
 31
0.0
 11
-5.5842271295
 21
-6.0504699018
 31
0.0
 11
-5.621720198
 21
-6.0344836347
 31
0.0
 11
-5.6637665593
 21
-6.0234269576
 31
0.0
 11
-5.7095876513
 21
-6.0185331727
 31
0.0
  0
SPLINE
  5
5CC
100
AcDbEntity
  8
ASSI
100
AcDbSpline
 62
253
  6
CONTINUOUS
 70
0
 71
3
 72
15
 73
11
 74
9
 42
0.0000001
 43
0.0000001
 44
0.0000000001
 12
0.2881576673
 22
0.0038542516
 32
0.0
 13
0.0214951096
 23
0.2873806826
 33
0.0
 40
0.0
 40
0.0
 40
0.0
 40
0.0
 40
0.1661012139
 40
0.3273713521
 40
0.4790823685
 40
0.6171102583
 40
0.7383301595
 40
0.8411950579
 40
0.9267168348
 40
1.0
 40
1.0
 40
1.0
 40
1.0
 10
-5.7687893693
 20
-6.9787046414
 30
0.0
 10
-5.7528349231
 20
-6.9784912428
 30
0.0
 10
-5.7213913928
 20
-6.9768064418
 30
0.0
 10
-5.6757424955
 20
-6.9705566268
 30
0.0
 10
-5.6334547285
 20
-6.9608296777
 30
0.0
 10
-5.5960356326
 20
-6.9479813259
 30
0.0
 10
-5.5647603959
 20
-6.932466608
 30
0.0
 10
-5.5406431853
 20
-6.9147202236
 30
0.0
 10
-5.5243911497
 20
-6.8950752433
 30
0.0
 10
-5.5194667391
 20
-6.8800701314
 30
0.0
 10
-5.5189416625
 20
-6.873050076
 30
0.0
 11
-5.7687893693
 21
-6.9787046414
 31
0.0
 11
-5.7209918028
 21
-6.9761158867
 31
0.0
 11
-5.6749580937
 21
-6.9697237899
 31
0.0
 11
-5.6323869935
 21
-6.9597642442
 31
0.0
 11
-5.5948494582
 21
-6.9466047909
 31
0.0
 11
-5.5637306758
 21
-6.930731052
 31
0.0
 11
-5.5401789557
 21
-6.9127288056
 31
0.0
 11
-5.5250633636
 21
-6.8932623673
 31
0.0
 11
-5.5189416625
 21
-6.873050076
 31
0.0
  0
SPLINE
  5
5CD
100
AcDbEntity
  8
ASSI
100
AcDbSpline
 62
253
  6
CONTINUOUS
 70
0
 71
3
 72
15
 73
11
 74
9
 42
0.0000001
 43
0.0000001
 44
0.0000000001
 12
-0.3882348025
 22
-0.0023184634
 32
0.0
 13
-0.0023876319
 23
-0.3882343833
 33
0.0
 40
0.0
 40
0.0
 40
0.0
 40
0.0
 40
0.125729459
 40
0.2514564959
 40
0.3770353051
 40
0.5023420228
 40
0.6272932526
 40
0.7518588458
 40
0.8760669051
 40
1.0
 40
1.0
 40
1.0
 40
1.0
 10
-5.8509904692
 20
-6.2744709924
 30
0.0
 10
-5.8672613198
 20
-6.2745681588
 30
0.0
 10
-5.8998702915
 20
-6.2779136596
 30
0.0
 10
-5.9468339974
 20
-6.2921762615
 30
0.0
 10
-5.9901692357
 20
-6.3151445161
 30
0.0
 10
-6.0282029633
 20
-6.3459484786
 30
0.0
 10
-6.0594906594
 20
-6.3834181425
 30
0.0
 10
-6.0828335855
 20
-6.4261364901
 30
0.0
 10
-6.0973356176
 20
-6.4724519619
 30
0.0
 10
-6.1007395404
 20
-6.5046345677
 30
0.0
 10
-6.100838176
 20
-6.5206729306
 30
0.0
 11
-5.8509904692
 21
-6.2744709924
 31
0.0
 11
-5.8995487431
 21
-6.2794553888
 31
0.0
 11
-5.9462552405
 21
-6.2936385292
 31
0.0
 11
-5.9893288133
 21
-6.3164795203
 31
0.0
 11
-6.0271268715
 21
-6.3471072989
 31
0.0
 11
-6.0582080239
 21
-6.3843538604
 31
0.0
 11
-6.0813870397
 21
-6.4267988105
 31
0.0
 11
-6.0957800366
 21
-6.4728235362
 31
0.0
 11
-6.100838176
 21
-6.5206729306
 31
0.0
  0
SPLINE
  5
5CE
100
AcDbEntity
  8
ASSI
100
AcDbSpline
 62
253
  6
CONTINUOUS
 70
0
 71
3
 72
9
 73
5
 74
3
 42
0.0000001
 43
0.0000001
 44
0.0000000001
 12
-0.0042345483
 22
6.0071907318
 32
0.0
 13
-0.0029682127
 23
6.007191491
 33
0.0
 40
0.0
 40
0.0
 40
0.0
 40
0.0
 40
0.4999497374
 40
1.0
 40
1.0
 40
1.0
 40
1.0
 10
9.6279525492
 20
-9.0256186982
 30
0.0
 10
9.6272468621
 20
-8.0245208886
 30
0.0
 10
9.6259409309
 20
-6.0221239022
 30
0.0
 10
9.6248460501
 20
-4.0197267893
 30
0.0
 10
9.6243512982
 20
-3.0184275617
 30
0.0
 11
9.6279525492
 21
-9.0256186982
 31
0.0
 11
9.6259938142
 21
-6.0223251619
 31
0.0
 11
9.6243512982
 21
-3.0184275617
 31
0.0
  0
SPLINE
  5
5CF
100
AcDbEntity
  8
ASSI
100
AcDbSpline
 62
253
  6
CONTINUOUS
 70
0
 71
3
 72
15
 73
11
 74
9
 42
0.0000001
 43
0.0000001
 44
0.0000000001
 12
-0.2881576716
 22
0.0038542319
 32
0.0
 13
-0.0214951041
 23
0.2873806871
 33
0.0
 40
0.0
 40
0.0
 40
0.0
 40
0.0
 40
0.1661006305
 40
0.3273703266
 40
0.47908113
 40
0.6171090564
 40
0.7383291943
 40
0.8411944316
 40
0.9267165463
 40
1.0
 40
1.0
 40
1.0
 40
1.0
 10
-5.8497112173
 20
-6.9787046414
 30
0.0
 10
-5.8656656077
 20
-6.9784912447
 30
0.0
 10
-5.89710904
 20
-6.9768064553
 30
0.0
 10
-5.9427578225
 20
-6.9705566779
 30
0.0
 10
-5.985045539
 20
-6.9608297736
 30
0.0
 10
-6.0224646536
 20
-6.9479814583
 30
0.0
 10
-6.0537399637
 20
-6.9324667551
 30
0.0
 10
-6.0778572729
 20
-6.9147203558
 30
0.0
 10
-6.0941094013
 20
-6.8950753292
 30
0.0
 10
-6.0990338456
 20
-6.8800701591
 30
0.0
 10
-6.0995589241
 20
-6.873050076
 30
0.0
 11
-5.8497112173
 21
-6.9787046414
 31
0.0
 11
-5.8975086171
 21
-6.9761159057
 31
0.0
 11
-5.9435422038
 21
-6.9697238489
 31
0.0
 11
-5.9861132525
 21
-6.95976435
 31
0.0
 11
-6.0236508123
 21
-6.946604933
 31
0.0
 11
-6.0547696773
 21
-6.9307312048
 31
0.0
 11
-6.0783215035
 21
-6.9127289357
 31
0.0
 11
-6.0934371847
 21
-6.8932624428
 31
0.0
 11
-6.0995589241
 21
-6.873050076
 31
0.0
  0
SPLINE
  5
5D0
100
AcDbEntity
  8
ASSI
100
AcDbSpline
 62
7
  6
CONTINUOUS
 70
0
 71
3
 72
17
 73
13
 74
11
 42
0.0000001
 43
0.0000001
 44
0.0000000001
 12
0.0148532747
 22
0.3571597571
 32
0.0
 13
0.3573152673
 23
0.0104647825
 33
0.0
 40
0.0
 40
0.0
 40
0.0
 40
0.0
 40
0.0784048065
 40
0.159813855
 40
0.2448266776
 40
0.3341391228
 40
0.4284979008
 40
0.5286788015
 40
0.6354463523
 40
0.7494674181
 40
0.8710888176
 40
1.0
 40
1.0
 40
1.0
 40
1.0
 10
-6.158760642
 20
-6.2282024695
 30
0.0
 10
-6.1583724527
 20
-6.2188681223
 30
0.0
 10
-6.1560615569
 20
-6.199872906
 30
0.0
 10
-6.1480110818
 20
-6.1717144771
 30
0.0
 10
-6.1351417079
 20
-6.1439578754
 30
0.0
 10
-6.1173457057
 20
-6.1171986258
 30
0.0
 10
-6.0945580017
 20
-6.0920391272
 30
0.0
 10
-6.0667478187
 20
-6.0691350895
 30
0.0
 10
-6.0339359359
 20
-6.0492330269
 30
0.0
 10
-5.9962530053
 20
-6.0332216561
 30
0.0
 10
-5.9540910441
 20
-6.0221651694
 30
0.0
 10
-5.9242669131
 20
-6.0189828485
 30
0.0
 10
-5.9089129353
 20
-6.0185331727
 30
0.0
 11
-6.158760642
 21
-6.2282024695
 31
0.0
 11
-6.155396371
 21
-6.2003778717
 31
0.0
 11
-6.1474350329
 21
-6.1723868892
 31
0.0
 11
-6.1346984519
 21
-6.1447953072
 31
0.0
 11
-6.117069925
 21
-6.1181770989
 31
0.0
 11
-6.0944753595
 21
-6.0931327785
 31
0.0
 11
-6.0668742381
 21
-6.0703151837
 31
0.0
 11
-6.0342734571
 21
-6.0504699018
 31
0.0
 11
-5.9967803886
 21
-6.0344836347
 31
0.0
 11
-5.9547340273
 21
-6.0234269576
 31
0.0
 11
-5.9089129353
 21
-6.0185331727
 31
0.0
  0
SPLINE
  5
5D1
100
AcDbEntity
  8
ASSI
100
AcDbSpline
 62
253
  6
CONTINUOUS
 70
0
 71
3
 72
9
 73
5
 74
3
 42
0.0000001
 43
0.0000001
 44
0.0000000001
 12
-0.0004118646
 22
-8.9925039188
 32
0.0
 13
-0.0032451975
 23
-8.9925033427
 33
0.0
 40
0.0
 40
0.0
 40
0.0
 40
0.0
 40
0.5000414317
 40
1.0
 40
1.0
 40
1.0
 40
1.0
 10
-10.0393990491
 20
9.7740761527
 30
0.0
 10
-10.0394676989
 20
8.2752013079
 30
0.0
 10
-10.0398410572
 20
5.2777000078
 30
0.0
 10
-10.0406866096
 20
2.2801988037
 30
0.0
 10
-10.041227431
 20
0.7815724383
 30
0.0
 11
-10.0393990491
 21
9.7740761527
 31
0.0
 11
-10.0399591562
 21
5.2774516485
 31
0.0
 11
-10.041227431
 21
0.7815724383
 31
0.0
  0
SPLINE
  5
5D2
100
AcDbEntity
  8
ASSI
100
AcDbSpline
 62
253
  6
CONTINUOUS
 70
0
 71
3
 72
9
 73
5
 74
3
 42
0.0000001
 43
0.0000001
 44
0.0000000001
 12
-0.0032451975
 22
8.9925033427
 32
0.0
 13
-0.0004118646
 23
8.9925039188
 33
0.0
 40
0.0
 40
0.0
 40
0.0
 40
0.0
 40
0.4999585687
 40
1.0
 40
1.0
 40
1.0
 40
1.0
 10
9.6227268444
 20
0.7815724383
 30
0.0
 10
9.622186023
 20
2.2801988051
 30
0.0
 10
9.6213404706
 20
5.2777000092
 30
0.0
 10
9.6209671123
 20
8.2752013093
 30
0.0
 10
9.6208984625
 20
9.7740761527
 30
0.0
 11
9.6227268444
 21
0.7815724383
 31
0.0
 11
9.6214585696
 21
5.2774516527
 31
0.0
 11
9.6208984625
 21
9.7740761527
 31
0.0
  0
SPLINE
  5
5D3
100
AcDbEntity
  8
ASSI
100
AcDbSpline
 62
253
  6
CONTINUOUS
 70
0
 71
3
 72
15
 73
11
 74
9
 42
0.0000001
 43
0.0000001
 44
0.0000000001
 12
0.00000131
 22
0.2954494977
 32
0.0
 13
0.00976487
 23
0.2952880848
 33
0.0
 40
0.0
 40
0.0
 40
0.0
 40
0.0
 40
0.1762543538
 40
0.3472428692
 40
0.5076801248
 40
0.6526883366
 40
0.7778610396
 40
0.8793945376
 40
0.9542028934
 40
1.0
 40
1.0
 40
1.0
 40
1.0
 10
5.4310470405
 20
-6.5699133183
 30
0.0
 10
5.4310471175
 20
-6.5525552315
 30
0.0
 10
5.4310641599
 20
-6.5183576525
 30
0.0
 10
5.4311406843
 20
-6.4683597531
 30
0.0
 10
5.4312659536
 20
-6.4214391906
 30
0.0
 10
5.4314345523
 20
-6.3790308425
 30
0.0
 10
5.4316430776
 20
-6.3424238813
 30
0.0
 10
5.4318756597
 20
-6.3127304393
 30
0.0
 10
5.4321392177
 20
-6.2908554519
 30
0.0
 10
5.432340815
 20
-6.2789787723
 30
0.0
 10
5.4324898826
 20
-6.2744709924
 30
0.0
 11
5.4310470405
 21
-6.5699133183
 31
0.0
 11
5.4310735127
 21
-6.5178390647
 31
0.0
 11
5.4311521723
 21
-6.4673206549
 31
0.0
 11
5.4312808472
 21
-6.419919723
 31
0.0
 11
5.4314555066
 21
-6.3770774757
 31
0.0
 11
5.4316708798
 21
-6.3400958906
 31
0.0
 11
5.4319205405
 21
-6.3100989085
 31
0.0
 11
5.4321961471
 21
-6.2879985358
 31
0.0
 11
5.4324898826
 21
-6.2744709924
 31
0.0
  0
SPLINE
  5
5D4
100
AcDbEntity
  8
ASSI
100
AcDbSpline
 62
253
  6
CONTINUOUS
 70
0
 71
3
 72
15
 73
11
 74
9
 42
0.0000001
 43
0.0000001
 44
0.0000000001
 12
0.0097648701
 22
-0.2952880848
 32
0.0
 13
0.00000131
 23
-0.2954494977
 33
0.0
 40
0.0
 40
0.0
 40
0.0
 40
0.0
 40
0.0457971067
 40
0.1206054626
 40
0.2221389606
 40
0.3473116637
 40
0.4923198754
 40
0.652757131
 40
0.8237456464
 40
1.0
 40
1.0
 40
1.0
 40
1.0
 10
5.3490095308
 20
-6.2744709924
 30
0.0
 10
5.3491585984
 20
-6.2789787724
 30
0.0
 10
5.3493601957
 20
-6.2908554519
 30
0.0
 10
5.3496237538
 20
-6.3127304393
 30
0.0
 10
5.3498563358
 20
-6.3424238814
 30
0.0
 10
5.3500648612
 20
-6.3790308426
 30
0.0
 10
5.3502334599
 20
-6.4214391907
 30
0.0
 10
5.3503587291
 20
-6.4683597532
 30
0.0
 10
5.3504352535
 20
-6.5183576525
 30
0.0
 10
5.3504522959
 20
-6.5525552315
 30
0.0
 10
5.3504523729
 20
-6.5699133183
 30
0.0
 11
5.3490095308
 21
-6.2744709924
 31
0.0
 11
5.3493032663
 21
-6.2879985359
 31
0.0
 11
5.3495788729
 21
-6.3100989086
 31
0.0
 11
5.3498285336
 21
-6.3400958906
 31
0.0
 11
5.3500439068
 21
-6.3770774758
 31
0.0
 11
5.3502185662
 21
-6.4199197231
 31
0.0
 11
5.3503472411
 21
-6.467320655
 31
0.0
 11
5.3504259007
 21
-6.5178390648
 31
0.0
 11
5.3504523729
 21
-6.5699133183
 31
0.0
  0
SPLINE
  5
5D5
100
AcDbEntity
  8
ASSI
100
AcDbSpline
 62
253
  6
CONTINUOUS
 70
0
 71
3
 72
16
 73
12
 74
10
 42
0.0000001
 43
0.0000001
 44
0.0000000001
 12
0.0000012478
 22
0.2999696776
 32
0.0
 13
0.0949852704
 23
0.2845340153
 33
0.0
 40
0.0
 40
0.0
 40
0.0
 40
0.0
 40
0.1716903986
 40
0.3383600475
 40
0.4949773352
 40
0.6368827949
 40
0.7598615728
 40
0.8602569174
 40
0.9350874649
 40
0.9821296043
 40
1.0
 40
1.0
 40
1.0
 40
1.0
 10
5.4904123487
 20
-4.8426853477
 30
0.0
 10
5.4904124201
 20
-4.8255180432
 30
0.0
 10
5.4904286494
 20
-4.7916853554
 30
0.0
 10
5.4905055062
 20
-4.742193105
 30
0.0
 10
5.4906216858
 20
-4.6956772796
 30
0.0
 10
5.4908076206
 20
-4.6535363028
 30
0.0
 10
5.490949949
 20
-4.6169987688
 30
0.0
 10
5.4913501319
 20
-4.5872201017
 30
0.0
 10
5.4911985778
 20
-4.5649059393
 30
0.0
 10
5.4921978166
 20
-4.5511051326
 30
0.0
 10
5.4915621823
 20
-4.5444257221
 30
0.0
 10
5.4921279904
 20
-4.5427308103
 30
0.0
 11
5.4904123487
 21
-4.8426853477
 31
0.0
 11
5.4904382389
 21
-4.7911834407
 31
0.0
 11
5.4905151847
 21
-4.7411876591
 31
0.0
 11
5.4906410853
 21
-4.6942073905
 31
0.0
 11
5.4908120558
 21
-4.6516403988
 31
0.0
 11
5.4910232271
 21
-4.6147510989
 31
0.0
 11
5.491268026
 21
-4.5846365347
 31
0.0
 11
5.4915395005
 21
-4.5621912811
 31
0.0
 11
5.4918288088
 21
-4.5480830317
 31
0.0
 11
5.4921279904
 21
-4.5427308103
 31
0.0
  0
SPLINE
  5
5D6
100
AcDbEntity
  8
ASSI
100
AcDbSpline
 62
253
  6
CONTINUOUS
 70
0
 71
3
 72
16
 73
12
 74
10
 42
0.0000001
 43
0.0000001
 44
0.0000000001
 12
0.0949852718
 22
-0.2845340149
 32
0.0
 13
0.0000012478
 23
-0.2999696776
 33
0.0
 40
0.0
 40
0.0
 40
0.0
 40
0.0
 40
0.0178703958
 40
0.0649125353
 40
0.1397430829
 40
0.2401384275
 40
0.3631172055
 40
0.5050226653
 40
0.661639953
 40
0.8283096018
 40
1.0
 40
1.0
 40
1.0
 40
1.0
 10
5.289371423
 20
-4.5427308103
 30
0.0
 10
5.2899372311
 20
-4.5444257221
 30
0.0
 10
5.2893015968
 20
-4.5511051326
 30
0.0
 10
5.2903008356
 20
-4.5649059393
 30
0.0
 10
5.2901492815
 20
-4.5872201018
 30
0.0
 10
5.2905494644
 20
-4.6169987689
 30
0.0
 10
5.2906917928
 20
-4.653536303
 30
0.0
 10
5.2908777276
 20
-4.6956772797
 30
0.0
 10
5.2909939072
 20
-4.7421931052
 30
0.0
 10
5.291070764
 20
-4.7916853555
 30
0.0
 10
5.2910869933
 20
-4.8255180432
 30
0.0
 10
5.2910870647
 20
-4.8426853477
 30
0.0
 11
5.289371423
 21
-4.5427308103
 31
0.0
 11
5.2896706046
 21
-4.5480830318
 31
0.0
 11
5.2899599129
 21
-4.5621912812
 31
0.0
 11
5.2902313874
 21
-4.5846365348
 31
0.0
 11
5.2904761863
 21
-4.614751099
 31
0.0
 11
5.2906873576
 21
-4.6516403989
 31
0.0
 11
5.2908583281
 21
-4.6942073906
 31
0.0
 11
5.2909842287
 21
-4.7411876592
 31
0.0
 11
5.2910611745
 21
-4.7911834408
 31
0.0
 11
5.2910870647
 21
-4.8426853477
 31
0.0
  0
SPLINE
  5
5D7
100
AcDbEntity
  8
ASSI
100
AcDbSpline
 62
253
  6
CONTINUOUS
 70
0
 71
3
 72
9
 73
5
 74
3
 42
0.0000001
 43
0.0000001
 44
0.0000000001
 12
-0.0029682127
 22
-6.007191491
 32
0.0
 13
-0.0042345483
 23
-6.0071907318
 33
0.0
 40
0.0
 40
0.0
 40
0.0
 40
0.0
 40
0.5000502626
 40
1.0
 40
1.0
 40
1.0
 40
1.0
 10
-10.0428518848
 20
-3.0184275617
 30
0.0
 10
-10.0433466367
 20
-4.0197267893
 30
0.0
 10
-10.0444415175
 20
-6.0221239022
 30
0.0
 10
-10.0457474487
 20
-8.0245208886
 30
0.0
 10
-10.0464531358
 20
-9.0256186982
 30
0.0
 11
-10.0428518848
 21
-3.0184275617
 31
0.0
 11
-10.0444944008
 21
-6.0223251619
 31
0.0
 11
-10.0464531358
 21
-9.0256186982
 31
0.0
  0
SPLINE
  5
5D8
100
AcDbEntity
  8
ASSI
100
AcDbSpline
 62
253
  6
CONTINUOUS
 70
0
 71
3
 72
15
 73
11
 74
9
 42
0.0000001
 43
0.0000001
 44
0.0000000001
 12
0.00000131
 22
0.2954494977
 32
0.0
 13
0.00976487
 23
0.2952880848
 33
0.0
 40
0.0
 40
0.0
 40
0.0
 40
0.0
 40
0.1762543538
 40
0.3472428692
 40
0.5076801248
 40
0.6526883366
 40
0.7778610396
 40
0.8793945376
 40
0.9542028934
 40
1.0
 40
1.0
 40
1.0
 40
1.0
 10
-5.7689529595
 20
-6.5699133183
 30
0.0
 10
-5.7689528825
 20
-6.5525552315
 30
0.0
 10
-5.7689358401
 20
-6.5183576525
 30
0.0
 10
-5.7688593157
 20
-6.4683597531
 30
0.0
 10
-5.7687340464
 20
-6.4214391906
 30
0.0
 10
-5.7685654477
 20
-6.3790308425
 30
0.0
 10
-5.7683569224
 20
-6.3424238813
 30
0.0
 10
-5.7681243403
 20
-6.3127304393
 30
0.0
 10
-5.7678607823
 20
-6.2908554519
 30
0.0
 10
-5.767659185
 20
-6.2789787723
 30
0.0
 10
-5.7675101174
 20
-6.2744709924
 30
0.0
 11
-5.7689529595
 21
-6.5699133183
 31
0.0
 11
-5.7689264873
 21
-6.5178390647
 31
0.0
 11
-5.7688478277
 21
-6.4673206549
 31
0.0
 11
-5.7687191528
 21
-6.419919723
 31
0.0
 11
-5.7685444934
 21
-6.3770774757
 31
0.0
 11
-5.7683291202
 21
-6.3400958906
 31
0.0
 11
-5.7680794595
 21
-6.3100989085
 31
0.0
 11
-5.7678038529
 21
-6.2879985358
 31
0.0
 11
-5.7675101174
 21
-6.2744709924
 31
0.0
  0
SPLINE
  5
5D9
100
AcDbEntity
  8
ASSI
100
AcDbSpline
 62
253
  6
CONTINUOUS
 70
0
 71
3
 72
15
 73
11
 74
9
 42
0.0000001
 43
0.0000001
 44
0.0000000001
 12
0.0097648701
 22
-0.2952880848
 32
0.0
 13
0.00000131
 23
-0.2954494977
 33
0.0
 40
0.0
 40
0.0
 40
0.0
 40
0.0
 40
0.0457971067
 40
0.1206054626
 40
0.2221389606
 40
0.3473116637
 40
0.4923198754
 40
0.652757131
 40
0.8237456464
 40
1.0
 40
1.0
 40
1.0
 40
1.0
 10
-5.8509904692
 20
-6.2744709924
 30
0.0
 10
-5.8508414016
 20
-6.2789787724
 30
0.0
 10
-5.8506398043
 20
-6.2908554519
 30
0.0
 10
-5.8503762462
 20
-6.3127304393
 30
0.0
 10
-5.8501436642
 20
-6.3424238814
 30
0.0
 10
-5.8499351388
 20
-6.3790308426
 30
0.0
 10
-5.8497665401
 20
-6.4214391907
 30
0.0
 10
-5.8496412709
 20
-6.4683597532
 30
0.0
 10
-5.8495647465
 20
-6.5183576525
 30
0.0
 10
-5.8495477041
 20
-6.5525552315
 30
0.0
 10
-5.8495476271
 20
-6.5699133183
 30
0.0
 11
-5.8509904692
 21
-6.2744709924
 31
0.0
 11
-5.8506967337
 21
-6.2879985359
 31
0.0
 11
-5.8504211271
 21
-6.3100989086
 31
0.0
 11
-5.8501714664
 21
-6.3400958906
 31
0.0
 11
-5.8499560932
 21
-6.3770774758
 31
0.0
 11
-5.8497814338
 21
-6.4199197231
 31
0.0
 11
-5.8496527589
 21
-6.467320655
 31
0.0
 11
-5.8495740993
 21
-6.5178390648
 31
0.0
 11
-5.8495476271
 21
-6.5699133183
 31
0.0
  0
SPLINE
  5
5DA
100
AcDbEntity
  8
ASSI
100
AcDbSpline
 62
253
  6
CONTINUOUS
 70
0
 71
3
 72
16
 73
12
 74
10
 42
0.0000001
 43
0.0000001
 44
0.0000000001
 12
0.0000012478
 22
0.2999696776
 32
0.0
 13
0.0949852704
 23
0.2845340153
 33
0.0
 40
0.0
 40
0.0
 40
0.0
 40
0.0
 40
0.1716903986
 40
0.3383600475
 40
0.4949773352
 40
0.6368827949
 40
0.7598615728
 40
0.8602569174
 40
0.9350874649
 40
0.9821296043
 40
1.0
 40
1.0
 40
1.0
 40
1.0
 10
-5.7095876513
 20
-4.8426853477
 30
0.0
 10
-5.7095875799
 20
-4.8255180432
 30
0.0
 10
-5.7095713506
 20
-4.7916853554
 30
0.0
 10
-5.7094944938
 20
-4.742193105
 30
0.0
 10
-5.7093783142
 20
-4.6956772796
 30
0.0
 10
-5.7091923794
 20
-4.6535363028
 30
0.0
 10
-5.709050051
 20
-4.6169987688
 30
0.0
 10
-5.7086498681
 20
-4.5872201017
 30
0.0
 10
-5.7088014222
 20
-4.5649059393
 30
0.0
 10
-5.7078021834
 20
-4.5511051326
 30
0.0
 10
-5.7084378177
 20
-4.5444257221
 30
0.0
 10
-5.7078720096
 20
-4.5427308103
 30
0.0
 11
-5.7095876513
 21
-4.8426853477
 31
0.0
 11
-5.7095617611
 21
-4.7911834407
 31
0.0
 11
-5.7094848153
 21
-4.7411876591
 31
0.0
 11
-5.7093589147
 21
-4.6942073905
 31
0.0
 11
-5.7091879442
 21
-4.6516403988
 31
0.0
 11
-5.7089767729
 21
-4.6147510989
 31
0.0
 11
-5.708731974
 21
-4.5846365347
 31
0.0
 11
-5.7084604995
 21
-4.5621912811
 31
0.0
 11
-5.7081711912
 21
-4.5480830317
 31
0.0
 11
-5.7078720096
 21
-4.5427308103
 31
0.0
  0
SPLINE
  5
5DB
100
AcDbEntity
  8
ASSI
100
AcDbSpline
 62
253
  6
CONTINUOUS
 70
0
 71
3
 72
16
 73
12
 74
10
 42
0.0000001
 43
0.0000001
 44
0.0000000001
 12
0.0949852718
 22
-0.2845340149
 32
0.0
 13
0.0000012478
 23
-0.2999696776
 33
0.0
 40
0.0
 40
0.0
 40
0.0
 40
0.0
 40
0.0178703958
 40
0.0649125353
 40
0.1397430829
 40
0.2401384275
 40
0.3631172055
 40
0.5050226653
 40
0.661639953
 40
0.8283096018
 40
1.0
 40
1.0
 40
1.0
 40
1.0
 10
-5.910628577
 20
-4.5427308103
 30
0.0
 10
-5.9100627689
 20
-4.5444257221
 30
0.0
 10
-5.9106984032
 20
-4.5511051326
 30
0.0
 10
-5.9096991644
 20
-4.5649059393
 30
0.0
 10
-5.9098507185
 20
-4.5872201018
 30
0.0
 10
-5.9094505356
 20
-4.6169987689
 30
0.0
 10
-5.9093082072
 20
-4.653536303
 30
0.0
 10
-5.9091222724
 20
-4.6956772797
 30
0.0
 10
-5.9090060928
 20
-4.7421931052
 30
0.0
 10
-5.908929236
 20
-4.7916853555
 30
0.0
 10
-5.9089130067
 20
-4.8255180432
 30
0.0
 10
-5.9089129353
 20
-4.8426853477
 30
0.0
 11
-5.910628577
 21
-4.5427308103
 31
0.0
 11
-5.9103293954
 21
-4.5480830318
 31
0.0
 11
-5.9100400871
 21
-4.5621912812
 31
0.0
 11
-5.9097686126
 21
-4.5846365348
 31
0.0
 11
-5.9095238137
 21
-4.614751099
 31
0.0
 11
-5.9093126424
 21
-4.6516403989
 31
0.0
 11
-5.9091416719
 21
-4.6942073906
 31
0.0
 11
-5.9090157713
 21
-4.7411876592
 31
0.0
 11
-5.9089388255
 21
-4.7911834408
 31
0.0
 11
-5.9089129353
 21
-4.8426853477
 31
0.0
  0
SPLINE
  5
5DC
100
AcDbEntity
  8
ASSI
100
AcDbSpline
 62
253
  6
CONTINUOUS
 70
0
 71
3
 72
9
 73
5
 74
3
 42
0.0000001
 43
0.0000001
 44
0.0000000001
 12
-0.0043623264
 22
-1.6181841037
 32
0.0
 13
-0.0062751532
 23
-1.6181778165
 33
0.0
 40
0.0
 40
0.0
 40
0.0
 40
0.0
 40
0.5000111748
 40
1.0
 40
1.0
 40
1.0
 40
1.0
 10
3.9610394004
 20
7.3909181747
 30
0.0
 10
3.9603123298
 20
7.1212147964
 30
0.0
 10
3.9586988013
 20
6.5818205132
 30
0.0
 10
3.9567665017
 20
6.0424272778
 30
0.0
 10
3.9557206662
 20
5.7727370026
 30
0.0
 11
3.9610394004
 21
7.3909181747
 31
0.0
 11
3.9586190689
 21
6.5818087199
 31
0.0
 11
3.9557206662
 21
5.7727370026
 31
0.0
  0
SPLINE
  5
5DD
100
AcDbEntity
  8
ASSI
100
AcDbSpline
 62
253
  6
CONTINUOUS
 70
0
 71
3
 72
9
 73
5
 74
3
 42
0.0000001
 43
0.0000001
 44
0.0000000001
 12
-0.0062751532
 22
1.6181778165
 32
0.0
 13
-0.0043623264
 23
1.6181841037
 33
0.0
 40
0.0
 40
0.0
 40
0.0
 40
0.0
 40
0.4999892045
 40
1.0
 40
1.0
 40
1.0
 40
1.0
 10
-4.3742212528
 20
5.7727370026
 30
0.0
 10
-4.375267089
 20
6.0424274824
 30
0.0
 10
-4.3771993885
 20
6.5818207179
 30
0.0
 10
-4.3788129169
 20
7.1212150011
 30
0.0
 10
-4.379539987
 20
7.3909181747
 30
0.0
 11
-4.3742212528
 21
5.7727370026
 31
0.0
 11
-4.3771196575
 21
6.5818093338
 31
0.0
 11
-4.379539987
 21
7.3909181747
 31
0.0
  0
SPLINE
  5
5DE
100
AcDbEntity
  8
ASSI
100
AcDbSpline
 62
253
  6
CONTINUOUS
 70
0
 71
3
 72
15
 73
11
 74
9
 42
0.0000001
 43
0.0000001
 44
0.0000000001
 12
0.4014143357
 22
-0.0070088487
 32
0.0
 13
0.0139942489
 23
-0.4012315464
 33
0.0
 40
0.0
 40
0.0
 40
0.0
 40
0.0
 40
0.1440044844
 40
0.2856956272
 40
0.4226390599
 40
0.5528844372
 40
0.67524257
 40
0.7895686166
 40
0.89699843
 40
1.0
 40
1.0
 40
1.0
 40
1.0
 10
6.9941735213
 20
7.1280190477
 30
0.0
 10
7.0134420094
 20
7.1276826125
 30
0.0
 10
7.0516761637
 20
7.1244133392
 30
0.0
 10
7.1070104188
 20
7.1118739748
 30
0.0
 10
7.1582721455
 20
7.0921469179
 30
0.0
 10
7.2035964715
 20
7.0659096821
 30
0.0
 10
7.2413375794
 20
7.0340452983
 30
0.0
 10
7.270067643
 20
6.9975874965
 30
0.0
 10
7.2885738373
 20
6.9577981536
 30
0.0
 10
7.2935102928
 20
6.9296628397
 30
0.0
 10
7.2939907694
 20
6.9158870133
 30
0.0
 11
6.9941735213
 21
7.1280190477
 31
0.0
 11
7.0517750595
 21
7.1230639282
 31
0.0
 11
7.1072318011
 21
7.1103945639
 31
0.0
 11
7.1584788108
 21
7.0904826993
 31
0.0
 11
7.2036079033
 21
7.064069754
 31
0.0
 11
7.240938694
 21
7.0321392155
 31
0.0
 11
7.2690811688
 21
6.9958800192
 31
0.0
 11
7.286987441
 21
6.9566422786
 31
0.0
 11
7.2939907694
 21
6.9158870133
 31
0.0
  0
SPLINE
  5
5DF
100
AcDbEntity
  8
ASSI
100
AcDbSpline
 62
7
  6
CONTINUOUS
 70
0
 71
3
 72
15
 73
11
 74
9
 42
0.0000001
 43
0.0000001
 44
0.0000000001
 12
0.0895635424
 22
-0.1791816741
 32
0.0
 13
0.2003189968
 23
0.0
 33
0.0
 40
0.0
 40
0.0
 40
0.0
 40
0.0
 40
0.0228702366
 40
0.0820374114
 40
0.1750076777
 40
0.3001514248
 40
0.4519007439
 40
0.6225386226
 40
0.8086061726
 40
1.0
 40
1.0
 40
1.0
 40
1.0
 10
-10.0393990491
 20
9.7740761527
 30
0.0
 10
-10.0387162693
 20
9.772710177
 30
0.0
 10
-10.0317897654
 20
9.7729327965
 30
0.0
 10
-10.0214816348
 20
9.7707972074
 30
0.0
 10
-10.0022935064
 20
9.770251547
 30
0.0
 10
-9.977908157
 20
9.7690362731
 30
0.0
 10
-9.9479306602
 20
9.7683018651
 30
0.0
 10
-9.9140187566
 20
9.7676658644
 30
0.0
 10
-9.8774115898
 20
9.7673000153
 30
0.0
 10
-9.8522097407
 20
9.7672144952
 30
0.0
 10
-9.8394298009
 20
9.7672144952
 30
0.0
 11
-10.0393990491
 21
9.7740761527
 31
0.0
 11
-10.0350171259
 21
9.7727391966
 31
0.0
 11
-10.0232356645
 21
9.7714452115
 31
0.0
 11
-10.0046495377
 21
9.7702626373
 31
0.0
 11
-9.9796026964
 21
9.7692167165
 31
0.0
 11
-9.9492164793
 21
9.7683607313
 31
0.0
 11
-9.915040239
 21
9.7677327836
 31
0.0
 11
-9.8777694016
 21
9.7673440122
 31
0.0
 11
-9.8394298009
 21
9.7672144952
 31
0.0
  0
SPLINE
  5
5E0
100
AcDbEntity
  8
ASSI
100
AcDbSpline
 62
7
  6
CONTINUOUS
 70
0
 71
3
 72
15
 73
11
 74
9
 42
0.0000001
 43
0.0000001
 44
0.0000000001
 12
0.2003189965
 22
-0.0
 32
0.0
 13
0.0895635422
 23
0.1791816739
 33
0.0
 40
0.0
 40
0.0
 40
0.0
 40
0.0
 40
0.1913938261
 40
0.3774613764
 40
0.5480992554
 40
0.6998485747
 40
0.824992322
 40
0.9179625885
 40
0.9771297633
 40
1.0
 40
1.0
 40
1.0
 40
1.0
 10
9.4209292146
 20
9.7672144952
 30
0.0
 10
9.4337091543
 20
9.7672144952
 30
0.0
 10
9.4589110033
 20
9.7673000153
 30
0.0
 10
9.49551817
 20
9.7676658644
 30
0.0
 10
9.5294300736
 20
9.7683018651
 30
0.0
 10
9.5594075704
 20
9.7690362731
 30
0.0
 10
9.5837929198
 20
9.770251547
 30
0.0
 10
9.6029810482
 20
9.7707972074
 30
0.0
 10
9.6132891788
 20
9.7729327965
 30
0.0
 10
9.6202156827
 20
9.772710177
 30
0.0
 10
9.6208984625
 20
9.7740761527
 30
0.0
 11
9.4209292146
 21
9.7672144952
 31
0.0
 11
9.459268815
 21
9.7673440122
 31
0.0
 11
9.4965396524
 21
9.7677327836
 31
0.0
 11
9.5307158927
 21
9.7683607313
 31
0.0
 11
9.5611021098
 21
9.7692167165
 31
0.0
 11
9.5861489511
 21
9.7702626373
 31
0.0
 11
9.6047350779
 21
9.7714452115
 31
0.0
 11
9.6165165393
 21
9.7727391966
 31
0.0
 11
9.6208984625
 21
9.7740761527
 31
0.0
  0
SPLINE
  5
5E1
100
AcDbEntity
  8
ASSI
100
AcDbSpline
 62
253
  6
CONTINUOUS
 70
0
 71
3
 72
17
 73
13
 74
11
 42
0.0000001
 43
0.0000001
 44
0.0000000001
 12
-0.1414238943
 22
0.1417076164
 32
0.0
 13
-0.0000004892
 23
0.2002043117
 33
0.0
 40
0.0
 40
0.0
 40
0.0
 40
0.0
 40
0.0178774913
 40
0.058389992
 40
0.1209323587
 40
0.2041033138
 40
0.3059766177
 40
0.4241622179
 40
0.5558804402
 40
0.698040467
 40
0.8472808104
 40
1.0
 40
1.0
 40
1.0
 40
1.0
 10
-7.0013144315
 20
5.2234538246
 30
0.0
 10
-7.0021571997
 20
5.2242982835
 30
0.0
 10
-7.0024726564
 20
5.2285917805
 30
0.0
 10
-7.0037533816
 20
5.2362394696
 30
0.0
 10
-7.004474057
 20
5.2488267288
 30
0.0
 10
-7.005414222
 20
5.2652488966
 30
0.0
 10
-7.0061606391
 20
5.2854991282
 30
0.0
 10
-7.0068351692
 20
5.3089561498
 30
0.0
 10
-7.0073681044
 20
5.3351182133
 30
0.0
 10
-7.0077619005
 20
5.3633514631
 30
0.0
 10
-7.0080013214
 20
5.3929891287
 30
0.0
 10
-7.0080548171
 20
5.4131403099
 30
0.0
 10
-7.008054842
 20
5.42333199
 30
0.0
 11
-7.0013144315
 21
5.2234538246
 31
0.0
 11
-7.0023787652
 21
5.2268710625
 31
0.0
 11
-7.0034130442
 21
5.2349156243
 31
0.0
 11
-7.004392278
 21
5.2473985262
 31
0.0
 11
-7.0052932692
 21
5.264025316
 31
0.0
 11
-7.006094827
 21
5.2844050337
 31
0.0
 11
-7.0067780219
 21
5.3080564351
 31
0.0
 11
-7.0073267592
 21
5.3344212812
 31
0.0
 11
-7.0077281517
 21
5.362879501
 31
0.0
 11
-7.0079727499
 21
5.39275706
 31
0.0
 11
-7.008054842
 21
5.42333199
 31
0.0
  0
SPLINE
  5
5E2
100
AcDbEntity
  8
ASSI
100
AcDbSpline
 62
253
  6
CONTINUOUS
 70
0
 71
3
 72
13
 73
9
 74
7
 42
0.0000001
 43
0.0000001
 44
0.0000000001
 12
0.0000002346
 22
0.141442405
 32
0.0
 13
0.0049357932
 23
0.1413562587
 33
0.0
 40
0.0
 40
0.0
 40
0.0
 40
0.0
 40
0.1844732589
 40
0.3659045925
 40
0.541117895
 40
0.7070849145
 40
0.8609356791
 40
1.0
 40
1.0
 40
1.0
 40
1.0
 10
-7.008054842
 20
6.7744656571
 30
0.0
 10
-7.0080548275
 20
6.7831631042
 30
0.0
 10
-7.008015721
 20
6.800414606
 30
0.0
 10
-7.0078401079
 20
6.825926431
 30
0.0
 10
-7.0075508314
 20
6.8505646536
 30
0.0
 10
-7.0071531573
 20
6.8739008553
 30
0.0
 10
-7.0066545155
 20
6.8955303717
 30
0.0
 10
-7.0062380282
 20
6.909334476
 30
0.0
 10
-7.0060092306
 20
6.9158870133
 30
0.0
 11
-7.008054842
 21
6.7744656571
 31
0.0
 11
-7.0079951527
 21
6.8005579302
 31
0.0
 11
-7.0078169554
 21
6.8262193957
 31
0.0
 11
-7.0075232352
 21
6.8510002459
 31
0.0
 11
-7.0071190229
 21
6.87447154
 31
0.0
 11
-7.0066113588
 21
6.8962266397
 31
0.0
 11
-7.0060092306
 21
6.9158870133
 31
0.0
  0
SPLINE
  5
5E3
100
AcDbEntity
  8
ASSI
100
AcDbSpline
 62
253
  6
CONTINUOUS
 70
0
 71
3
 72
13
 73
9
 74
7
 42
0.0000001
 43
0.0000001
 44
0.0000000001
 12
0.0197318509
 22
0.5654254321
 32
0.0
 13
0.0000091903
 23
0.565769622
 33
0.0
 40
0.0
 40
0.0
 40
0.0
 40
0.0
 40
0.1361522584
 40
0.2904133641
 40
0.4589859497
 40
0.637088475
 40
0.8192974361
 40
1.0
 40
1.0
 40
1.0
 40
1.0
 10
-6.9848085947
 20
7.5229937945
 30
0.0
 10
-6.9839130827
 20
7.548655111
 30
0.0
 10
-6.9822553553
 20
7.6033997248
 30
0.0
 10
-6.9802510267
 20
7.6899371755
 30
0.0
 10
-6.9786378015
 20
7.7843954285
 30
0.0
 10
-6.9774716219
 20
7.8841312263
 30
0.0
 10
-6.9767779825
 20
7.9861590074
 30
0.0
 10
-6.976626703
 20
8.0546005457
 30
0.0
 10
-6.9766261494
 20
8.0886792195
 30
0.0
 11
-6.9848085947
 21
7.5229937945
 31
0.0
 11
-6.9824443405
 21
7.5999883155
 31
0.0
 11
-6.9803980287
 21
7.6872405704
 31
0.0
 11
-6.9787517268
 21
7.7825996084
 31
0.0
 11
-6.9775619228
 21
7.8833575822
 31
0.0
 11
-6.9768552074
 21
7.9864434548
 31
0.0
 11
-6.9766261494
 21
8.0886792195
 31
0.0
  0
SPLINE
  5
5E4
100
AcDbEntity
  8
ASSI
100
AcDbSpline
 62
253
  6
CONTINUOUS
 70
0
 71
3
 72
13
 73
9
 74
7
 42
0.0000001
 43
0.0000001
 44
0.0000000001
 12
0.0000092097
 22
-0.565769622
 32
0.0
 13
0.0197318825
 23
-0.565425431
 33
0.0
 40
0.0
 40
0.0
 40
0.0
 40
0.0
 40
0.1807025814
 40
0.3629115369
 40
0.5410140573
 40
0.709586639
 40
0.8638477379
 40
1.0
 40
1.0
 40
1.0
 40
1.0
 10
-7.7418744372
 20
8.0886792195
 30
0.0
 10
-7.7418738824
 20
8.0546005424
 30
0.0
 10
-7.7417226047
 20
7.9861590019
 30
0.0
 10
-7.7410289644
 20
7.8841312194
 30
0.0
 10
-7.7398627849
 20
7.7843954244
 30
0.0
 10
-7.7382495602
 20
7.6899371743
 30
0.0
 10
-7.7362452304
 20
7.6033997249
 30
0.0
 10
-7.7345875054
 20
7.5486551117
 30
0.0
 10
-7.7336919919
 20
7.5229937945
 30
0.0
 11
-7.7418744372
 21
8.0886792195
 31
0.0
 11
-7.7416453792
 21
7.9864434449
 31
0.0
 11
-7.7409386637
 21
7.8833575755
 31
0.0
 11
-7.7397488598
 21
7.7825996045
 31
0.0
 11
-7.7381025579
 21
7.6872405687
 31
0.0
 11
-7.736056246
 21
7.5999883176
 31
0.0
 11
-7.7336919919
 21
7.5229937945
 31
0.0
  0
SPLINE
  5
5E5
100
AcDbEntity
  8
ASSI
100
AcDbSpline
 62
253
  6
CONTINUOUS
 70
0
 71
3
 72
13
 73
9
 74
7
 42
0.0000001
 43
0.0000001
 44
0.0000000001
 12
0.0049357932
 22
-0.1413562587
 32
0.0
 13
0.0000002346
 23
-0.141442405
 33
0.0
 40
0.0
 40
0.0
 40
0.0
 40
0.0
 40
0.1390643219
 40
0.2929150865
 40
0.4588821061
 40
0.6340954086
 40
0.8155267422
 40
1.0
 40
1.0
 40
1.0
 40
1.0
 10
-7.712491356
 20
6.9158870133
 30
0.0
 10
-7.7122625584
 20
6.9093344759
 30
0.0
 10
-7.7118460711
 20
6.8955303716
 30
0.0
 10
-7.7113474293
 20
6.8739008551
 30
0.0
 10
-7.7109497552
 20
6.8505646534
 30
0.0
 10
-7.7106604787
 20
6.8259264309
 30
0.0
 10
-7.7104848655
 20
6.8004146059
 30
0.0
 10
-7.7104457591
 20
6.7831631042
 30
0.0
 10
-7.7104457446
 20
6.7744656571
 30
0.0
 11
-7.712491356
 21
6.9158870133
 31
0.0
 11
-7.7118892278
 21
6.8962266396
 31
0.0
 11
-7.7113815637
 21
6.8744715399
 31
0.0
 11
-7.7109773514
 21
6.8510002458
 31
0.0
 11
-7.7106836312
 21
6.8262193955
 31
0.0
 11
-7.7105054339
 21
6.8005579301
 31
0.0
 11
-7.7104457446
 21
6.7744656571
 31
0.0
  0
SPLINE
  5
5E6
100
AcDbEntity
  8
ASSI
100
AcDbSpline
 62
253
  6
CONTINUOUS
 70
0
 71
3
 72
17
 73
13
 74
11
 42
0.0000001
 43
0.0000001
 44
0.0000000001
 12
-0.0000004892
 22
-0.2002043117
 32
0.0
 13
-0.1414238981
 23
-0.1417076126
 33
0.0
 40
0.0
 40
0.0
 40
0.0
 40
0.0
 40
0.1527191901
 40
0.3019595335
 40
0.4441195603
 40
0.5758377826
 40
0.6940233827
 40
0.7958966866
 40
0.8790676415
 40
0.9416100082
 40
0.9821225088
 40
1.0
 40
1.0
 40
1.0
 40
1.0
 10
-7.7104457446
 20
5.42333199
 30
0.0
 10
-7.7104457695
 20
5.4131403099
 30
0.0
 10
-7.7104992652
 20
5.3929891287
 30
0.0
 10
-7.7107386861
 20
5.363351463
 30
0.0
 10
-7.7111324822
 20
5.3351182132
 30
0.0
 10
-7.7116654174
 20
5.3089561497
 30
0.0
 10
-7.7123399475
 20
5.2854991281
 30
0.0
 10
-7.7130863646
 20
5.2652488965
 30
0.0
 10
-7.7140265296
 20
5.2488267287
 30
0.0
 10
-7.714747205
 20
5.2362394696
 30
0.0
 10
-7.7160279302
 20
5.2285917805
 30
0.0
 10
-7.7163433869
 20
5.2242982835
 30
0.0
 10
-7.7171861551
 20
5.2234538246
 30
0.0
 11
-7.7104457446
 21
5.42333199
 31
0.0
 11
-7.7105278367
 21
5.3927570599
 31
0.0
 11
-7.7107724349
 21
5.3628795009
 31
0.0
 11
-7.7111738274
 21
5.3344212811
 31
0.0
 11
-7.7117225647
 21
5.308056435
 31
0.0
 11
-7.7124057596
 21
5.2844050336
 31
0.0
 11
-7.7132073174
 21
5.2640253159
 31
0.0
 11
-7.7141083086
 21
5.2473985262
 31
0.0
 11
-7.7150875424
 21
5.2349156243
 31
0.0
 11
-7.7161218214
 21
5.2268710624
 31
0.0
 11
-7.7171861551
 21
5.2234538246
 31
0.0
  0
SPLINE
  5
5E7
100
AcDbEntity
  8
ASSI
100
AcDbSpline
 62
253
  6
CONTINUOUS
 70
0
 71
3
 72
13
 73
9
 74
7
 42
0.0000001
 43
0.0000001
 44
0.0000000001
 12
0.0000092097
 22
-0.565769622
 32
0.0
 13
0.0197318825
 23
-0.565425431
 33
0.0
 40
0.0
 40
0.0
 40
0.0
 40
0.0
 40
0.1807025814
 40
0.3629115369
 40
0.5410140573
 40
0.709586639
 40
0.8638477379
 40
1.0
 40
1.0
 40
1.0
 40
1.0
 10
6.5581255628
 20
8.0886792195
 30
0.0
 10
6.5581261176
 20
8.0546005424
 30
0.0
 10
6.5582773953
 20
7.9861590019
 30
0.0
 10
6.5589710356
 20
7.8841312194
 30
0.0
 10
6.5601372151
 20
7.7843954244
 30
0.0
 10
6.5617504398
 20
7.6899371743
 30
0.0
 10
6.5637547696
 20
7.6033997249
 30
0.0
 10
6.5654124946
 20
7.5486551117
 30
0.0
 10
6.5663080081
 20
7.5229937945
 30
0.0
 11
6.5581255628
 21
8.0886792195
 31
0.0
 11
6.5583546208
 21
7.9864434449
 31
0.0
 11
6.5590613363
 21
7.8833575755
 31
0.0
 11
6.5602511402
 21
7.7825996045
 31
0.0
 11
6.5618974421
 21
7.6872405687
 31
0.0
 11
6.563943754
 21
7.5999883176
 31
0.0
 11
6.5663080081
 21
7.5229937945
 31
0.0
  0
SPLINE
  5
5E8
100
AcDbEntity
  8
ASSI
100
AcDbSpline
 62
253
  6
CONTINUOUS
 70
0
 71
3
 72
13
 73
9
 74
7
 42
0.0000001
 43
0.0000001
 44
0.0000000001
 12
0.0049357932
 22
-0.1413562587
 32
0.0
 13
0.0000002346
 23
-0.141442405
 33
0.0
 40
0.0
 40
0.0
 40
0.0
 40
0.0
 40
0.1390643219
 40
0.2929150865
 40
0.4588821061
 40
0.6340954086
 40
0.8155267422
 40
1.0
 40
1.0
 40
1.0
 40
1.0
 10
6.587508644
 20
6.9158870133
 30
0.0
 10
6.5877374416
 20
6.9093344759
 30
0.0
 10
6.5881539289
 20
6.8955303716
 30
0.0
 10
6.5886525707
 20
6.8739008551
 30
0.0
 10
6.5890502448
 20
6.8505646534
 30
0.0
 10
6.5893395213
 20
6.8259264309
 30
0.0
 10
6.5895151345
 20
6.8004146059
 30
0.0
 10
6.5895542409
 20
6.7831631042
 30
0.0
 10
6.5895542554
 20
6.7744656571
 30
0.0
 11
6.587508644
 21
6.9158870133
 31
0.0
 11
6.5881107722
 21
6.8962266396
 31
0.0
 11
6.5886184363
 21
6.8744715399
 31
0.0
 11
6.5890226486
 21
6.8510002458
 31
0.0
 11
6.5893163688
 21
6.8262193955
 31
0.0
 11
6.5894945661
 21
6.8005579301
 31
0.0
 11
6.5895542554
 21
6.7744656571
 31
0.0
  0
SPLINE
  5
5E9
100
AcDbEntity
  8
ASSI
100
AcDbSpline
 62
253
  6
CONTINUOUS
 70
0
 71
3
 72
17
 73
13
 74
11
 42
0.0000001
 43
0.0000001
 44
0.0000000001
 12
-0.0000004892
 22
-0.2002043117
 32
0.0
 13
-0.1414238981
 23
-0.1417076126
 33
0.0
 40
0.0
 40
0.0
 40
0.0
 40
0.0
 40
0.1527191901
 40
0.3019595335
 40
0.4441195603
 40
0.5758377826
 40
0.6940233827
 40
0.7958966866
 40
0.8790676415
 40
0.9416100082
 40
0.9821225088
 40
1.0
 40
1.0
 40
1.0
 40
1.0
 10
6.5895542554
 20
5.42333199
 30
0.0
 10
6.5895542305
 20
5.4131403099
 30
0.0
 10
6.5895007348
 20
5.3929891287
 30
0.0
 10
6.5892613139
 20
5.363351463
 30
0.0
 10
6.5888675178
 20
5.3351182132
 30
0.0
 10
6.5883345826
 20
5.3089561497
 30
0.0
 10
6.5876600525
 20
5.2854991281
 30
0.0
 10
6.5869136354
 20
5.2652488965
 30
0.0
 10
6.5859734704
 20
5.2488267287
 30
0.0
 10
6.585252795
 20
5.2362394696
 30
0.0
 10
6.5839720698
 20
5.2285917805
 30
0.0
 10
6.5836566131
 20
5.2242982835
 30
0.0
 10
6.5828138449
 20
5.2234538246
 30
0.0
 11
6.5895542554
 21
5.42333199
 31
0.0
 11
6.5894721633
 21
5.3927570599
 31
0.0
 11
6.5892275651
 21
5.3628795009
 31
0.0
 11
6.5888261726
 21
5.3344212811
 31
0.0
 11
6.5882774353
 21
5.308056435
 31
0.0
 11
6.5875942404
 21
5.2844050336
 31
0.0
 11
6.5867926826
 21
5.2640253159
 31
0.0
 11
6.5858916914
 21
5.2473985262
 31
0.0
 11
6.5849124576
 21
5.2349156243
 31
0.0
 11
6.5838781786
 21
5.2268710624
 31
0.0
 11
6.5828138449
 21
5.2234538246
 31
0.0
  0
SPLINE
  5
5EA
100
AcDbEntity
  8
ASSI
100
AcDbSpline
 62
253
  6
CONTINUOUS
 70
0
 71
3
 72
17
 73
13
 74
11
 42
0.0000001
 43
0.0000001
 44
0.0000000001
 12
-0.1414238943
 22
0.1417076164
 32
0.0
 13
-0.0000004892
 23
0.2002043117
 33
0.0
 40
0.0
 40
0.0
 40
0.0
 40
0.0
 40
0.0178774913
 40
0.058389992
 40
0.1209323587
 40
0.2041033138
 40
0.3059766177
 40
0.4241622179
 40
0.5558804402
 40
0.698040467
 40
0.8472808104
 40
1.0
 40
1.0
 40
1.0
 40
1.0
 10
7.2986855685
 20
5.2234538246
 30
0.0
 10
7.2978428003
 20
5.2242982835
 30
0.0
 10
7.2975273436
 20
5.2285917805
 30
0.0
 10
7.2962466184
 20
5.2362394696
 30
0.0
 10
7.295525943
 20
5.2488267288
 30
0.0
 10
7.294585778
 20
5.2652488966
 30
0.0
 10
7.2938393609
 20
5.2854991282
 30
0.0
 10
7.2931648308
 20
5.3089561498
 30
0.0
 10
7.2926318956
 20
5.3351182133
 30
0.0
 10
7.2922380995
 20
5.3633514631
 30
0.0
 10
7.2919986786
 20
5.3929891287
 30
0.0
 10
7.2919451829
 20
5.4131403099
 30
0.0
 10
7.291945158
 20
5.42333199
 30
0.0
 11
7.2986855685
 21
5.2234538246
 31
0.0
 11
7.2976212348
 21
5.2268710625
 31
0.0
 11
7.2965869558
 21
5.2349156243
 31
0.0
 11
7.295607722
 21
5.2473985262
 31
0.0
 11
7.2947067308
 21
5.264025316
 31
0.0
 11
7.293905173
 21
5.2844050337
 31
0.0
 11
7.2932219781
 21
5.3080564351
 31
0.0
 11
7.2926732408
 21
5.3344212812
 31
0.0
 11
7.2922718483
 21
5.362879501
 31
0.0
 11
7.2920272501
 21
5.39275706
 31
0.0
 11
7.291945158
 21
5.42333199
 31
0.0
  0
SPLINE
  5
5EB
100
AcDbEntity
  8
ASSI
100
AcDbSpline
 62
253
  6
CONTINUOUS
 70
0
 71
3
 72
13
 73
9
 74
7
 42
0.0000001
 43
0.0000001
 44
0.0000000001
 12
0.0000002346
 22
0.141442405
 32
0.0
 13
0.0049357932
 23
0.1413562587
 33
0.0
 40
0.0
 40
0.0
 40
0.0
 40
0.0
 40
0.1844732589
 40
0.3659045925
 40
0.541117895
 40
0.7070849145
 40
0.8609356791
 40
1.0
 40
1.0
 40
1.0
 40
1.0
 10
7.291945158
 20
6.7744656571
 30
0.0
 10
7.2919451725
 20
6.7831631042
 30
0.0
 10
7.291984279
 20
6.800414606
 30
0.0
 10
7.2921598921
 20
6.825926431
 30
0.0
 10
7.2924491686
 20
6.8505646536
 30
0.0
 10
7.2928468427
 20
6.8739008553
 30
0.0
 10
7.2933454845
 20
6.8955303717
 30
0.0
 10
7.2937619718
 20
6.909334476
 30
0.0
 10
7.2939907694
 20
6.9158870133
 30
0.0
 11
7.291945158
 21
6.7744656571
 31
0.0
 11
7.2920048473
 21
6.8005579302
 31
0.0
 11
7.2921830446
 21
6.8262193957
 31
0.0
 11
7.2924767648
 21
6.8510002459
 31
0.0
 11
7.2928809771
 21
6.87447154
 31
0.0
 11
7.2933886412
 21
6.8962266397
 31
0.0
 11
7.2939907694
 21
6.9158870133
 31
0.0
  0
SPLINE
  5
5EC
100
AcDbEntity
  8
ASSI
100
AcDbSpline
 62
253
  6
CONTINUOUS
 70
0
 71
3
 72
13
 73
9
 74
7
 42
0.0000001
 43
0.0000001
 44
0.0000000001
 12
0.0197318509
 22
0.5654254321
 32
0.0
 13
0.0000091903
 23
0.565769622
 33
0.0
 40
0.0
 40
0.0
 40
0.0
 40
0.0
 40
0.1361522584
 40
0.2904133641
 40
0.4589859497
 40
0.637088475
 40
0.8192974361
 40
1.0
 40
1.0
 40
1.0
 40
1.0
 10
7.3151914053
 20
7.5229937945
 30
0.0
 10
7.3160869173
 20
7.548655111
 30
0.0
 10
7.3177446447
 20
7.6033997248
 30
0.0
 10
7.3197489733
 20
7.6899371755
 30
0.0
 10
7.3213621985
 20
7.7843954285
 30
0.0
 10
7.3225283781
 20
7.8841312263
 30
0.0
 10
7.3232220175
 20
7.9861590074
 30
0.0
 10
7.323373297
 20
8.0546005457
 30
0.0
 10
7.3233738506
 20
8.0886792195
 30
0.0
 11
7.3151914053
 21
7.5229937945
 31
0.0
 11
7.3175556595
 21
7.5999883155
 31
0.0
 11
7.3196019713
 21
7.6872405704
 31
0.0
 11
7.3212482732
 21
7.7825996084
 31
0.0
 11
7.3224380772
 21
7.8833575822
 31
0.0
 11
7.3231447926
 21
7.9864434548
 31
0.0
 11
7.3233738506
 21
8.0886792195
 31
0.0
  0
SPLINE
  5
5ED
100
AcDbEntity
  8
ASSI
100
AcDbSpline
 62
253
  6
CONTINUOUS
 70
0
 71
3
 72
15
 73
11
 74
9
 42
0.0000001
 43
0.0000001
 44
0.0000000001
 12
0.0000001707
 22
0.0492833389
 32
0.0
 13
0.0095687383
 23
0.0483454935
 33
0.0
 40
0.0
 40
0.0
 40
0.0
 40
0.0
 40
0.1760003266
 40
0.3468630124
 40
0.5072188018
 40
0.6521964061
 40
0.7773808262
 40
0.8789617246
 40
0.9539026917
 40
1.0
 40
1.0
 40
1.0
 40
1.0
 10
-5.5191052527
 20
-6.5699133183
 30
0.0
 10
-5.5191052427
 20
-6.5670220237
 30
0.0
 10
-5.5190881191
 20
-6.5613238222
 30
0.0
 10
-5.5190114768
 20
-6.5529916261
 30
0.0
 10
-5.5188862992
 20
-6.5451697628
 30
0.0
 10
-5.5187176729
 20
-6.5380990801
 30
0.0
 10
-5.5185092498
 20
-6.5319960302
 30
0.0
 10
-5.5182764931
 20
-6.5270437699
 30
0.0
 10
-5.5180136781
 20
-6.523398107
 30
0.0
 10
-5.5178094417
 20
-6.5214157963
 30
0.0
 10
-5.5176624106
 20
-6.5206729306
 30
0.0
 11
-5.5191052527
 21
-6.5699133183
 31
0.0
 11
-5.5190787801
 21
-6.5612394749
 31
0.0
 11
-5.5190000379
 21
-6.5528191594
 31
0.0
 11
-5.5188714086
 21
-6.5449173376
 31
0.0
 11
-5.5186967735
 21
-6.5377744917
 31
0.0
 11
-5.5184814481
 21
-6.5316087442
 31
0.0
 11
-5.5182320276
 21
-6.5266087155
 31
0.0
 11
-5.5179561105
 21
-6.5229256953
 31
0.0
 11
-5.5176624106
 21
-6.5206729306
 31
0.0
  0
SPLINE
  5
5EE
100
AcDbEntity
  8
ASSI
100
AcDbSpline
 62
253
  6
CONTINUOUS
 70
0
 71
3
 72
15
 73
11
 74
9
 42
0.0000001
 43
0.0000001
 44
0.0000000001
 12
0.0000001618
 22
0.050068276
 32
0.0
 13
0.0447346513
 23
0.0224865123
 33
0.0
 40
0.0
 40
0.0
 40
0.0
 40
0.0
 40
0.1713418136
 40
0.3377810062
 40
0.4942125627
 40
0.6359871151
 40
0.7588983147
 40
0.8592833316
 40
0.9341930349
 40
1.0
 40
1.0
 40
1.0
 40
1.0
 10
-5.4597399446
 20
-4.8426853477
 30
0.0
 10
-5.4597399353
 20
-4.8398257513
 30
0.0
 10
-5.4597227317
 20
-4.8341887816
 30
0.0
 10
-5.4596496347
 20
-4.8259391529
 30
0.0
 10
-5.4595206844
 20
-4.818191357
 30
0.0
 10
-5.4593758427
 20
-4.8111459045
 30
0.0
 10
-5.4591099847
 20
-4.8051137145
 30
0.0
 10
-5.4590494671
 20
-4.7999844692
 30
0.0
 10
-5.4583296008
 20
-4.7963796367
 30
0.0
 10
-5.4590056625
 20
-4.7931862193
 30
0.0
 10
-5.4580243787
 20
-4.7926929629
 30
0.0
 11
-5.4597399446
 21
-4.8426853477
 31
0.0
 11
-5.4597140535
 21
-4.8341065976
 31
0.0
 11
-5.4596370334
 21
-4.8257736301
 31
0.0
 11
-5.4595111661
 21
-4.8179423832
 31
0.0
 11
-5.459340172
 21
-4.8108460356
 31
0.0
 11
-5.4591291195
 21
-4.8046957039
 31
0.0
 11
-5.4588843227
 21
-4.7996755641
 31
0.0
 11
-5.4586130763
 21
-4.7959347856
 31
0.0
 11
-5.4580243787
 21
-4.7926929629
 31
0.0
  0
SPLINE
  5
5EF
100
AcDbEntity
  8
ASSI
100
AcDbSpline
 62
253
  6
CONTINUOUS
 70
0
 71
3
 72
15
 73
11
 74
9
 42
0.0000001
 43
0.0000001
 44
0.0000000001
 12
0.0447346513
 22
-0.0224865123
 32
0.0
 13
0.0000001618
 23
-0.050068276
 33
0.0
 40
0.0
 40
0.0
 40
0.0
 40
0.0
 40
0.0658069653
 40
0.1407166687
 40
0.2411016857
 40
0.3640128853
 40
0.5057874378
 40
0.6622189942
 40
0.8286581869
 40
1.0
 40
1.0
 40
1.0
 40
1.0
 10
-6.1604762079
 20
-4.7926929629
 30
0.0
 10
-6.159494924
 20
-4.7931862193
 30
0.0
 10
-6.1601709858
 20
-4.7963796367
 30
0.0
 10
-6.1594511195
 20
-4.7999844692
 30
0.0
 10
-6.1593906019
 20
-4.8051137145
 30
0.0
 10
-6.1591247439
 20
-4.8111459045
 30
0.0
 10
-6.1589799022
 20
-4.8181913571
 30
0.0
 10
-6.1588509519
 20
-4.8259391529
 30
0.0
 10
-6.1587778549
 20
-4.8341887816
 30
0.0
 10
-6.1587606513
 20
-4.8398257513
 30
0.0
 10
-6.158760642
 20
-4.8426853477
 30
0.0
 11
-6.1604762079
 21
-4.7926929629
 31
0.0
 11
-6.1598875103
 21
-4.7959347856
 31
0.0
 11
-6.1596162639
 21
-4.7996755641
 31
0.0
 11
-6.1593714671
 21
-4.8046957039
 31
0.0
 11
-6.1591604146
 21
-4.8108460356
 31
0.0
 11
-6.1589894205
 21
-4.8179423832
 31
0.0
 11
-6.1588635532
 21
-4.8257736301
 31
0.0
 11
-6.1587865331
 21
-4.8341065976
 31
0.0
 11
-6.158760642
 21
-4.8426853477
 31
0.0
  0
SPLINE
  5
5F0
100
AcDbEntity
  8
ASSI
100
AcDbSpline
 62
253
  6
CONTINUOUS
 70
0
 71
3
 72
15
 73
11
 74
9
 42
0.0000001
 43
0.0000001
 44
0.0000000001
 12
0.0095687383
 22
-0.0483454935
 32
0.0
 13
0.0000001707
 23
-0.0492833389
 33
0.0
 40
0.0
 40
0.0
 40
0.0
 40
0.0
 40
0.0460973084
 40
0.1210382755
 40
0.222619174
 40
0.3478035941
 40
0.4927811984
 40
0.6531369878
 40
0.8239996736
 40
1.0
 40
1.0
 40
1.0
 40
1.0
 10
-6.100838176
 20
-6.5206729306
 30
0.0
 10
-6.1006911449
 20
-6.5214157963
 30
0.0
 10
-6.1004869085
 20
-6.523398107
 30
0.0
 10
-6.1002240935
 20
-6.5270437699
 30
0.0
 10
-6.0999913368
 20
-6.5319960302
 30
0.0
 10
-6.0997829137
 20
-6.5380990801
 30
0.0
 10
-6.0996142874
 20
-6.5451697628
 30
0.0
 10
-6.0994891098
 20
-6.5529916261
 30
0.0
 10
-6.0994124674
 20
-6.5613238222
 30
0.0
 10
-6.0993953439
 20
-6.5670220237
 30
0.0
 10
-6.0993953339
 20
-6.5699133183
 30
0.0
 11
-6.100838176
 21
-6.5206729306
 31
0.0
 11
-6.1005444761
 21
-6.5229256953
 31
0.0
 11
-6.100268559
 21
-6.5266087155
 31
0.0
 11
-6.1000191385
 21
-6.5316087442
 31
0.0
 11
-6.0998038131
 21
-6.5377744917
 31
0.0
 11
-6.099629178
 21
-6.5449173376
 31
0.0
 11
-6.0995005487
 21
-6.5528191594
 31
0.0
 11
-6.0994218065
 21
-6.5612394749
 31
0.0
 11
-6.0993953339
 21
-6.5699133183
 31
0.0
  0
SPLINE
  5
5F1
100
AcDbEntity
  8
ASSI
100
AcDbSpline
 62
253
  6
CONTINUOUS
 70
0
 71
3
 72
15
 73
11
 74
9
 42
0.0000001
 43
0.0000001
 44
0.0000000001
 12
0.0000001707
 22
0.0492833389
 32
0.0
 13
0.0095687383
 23
0.0483454935
 33
0.0
 40
0.0
 40
0.0
 40
0.0
 40
0.0
 40
0.1760003266
 40
0.3468630124
 40
0.5072188018
 40
0.6521964061
 40
0.7773808262
 40
0.8789617246
 40
0.9539026917
 40
1.0
 40
1.0
 40
1.0
 40
1.0
 10
5.6808947473
 20
-6.5699133183
 30
0.0
 10
5.6808947573
 20
-6.5670220237
 30
0.0
 10
5.6809118809
 20
-6.5613238222
 30
0.0
 10
5.6809885232
 20
-6.5529916261
 30
0.0
 10
5.6811137008
 20
-6.5451697628
 30
0.0
 10
5.6812823271
 20
-6.5380990801
 30
0.0
 10
5.6814907502
 20
-6.5319960302
 30
0.0
 10
5.6817235069
 20
-6.5270437699
 30
0.0
 10
5.6819863219
 20
-6.523398107
 30
0.0
 10
5.6821905583
 20
-6.5214157963
 30
0.0
 10
5.6823375894
 20
-6.5206729306
 30
0.0
 11
5.6808947473
 21
-6.5699133183
 31
0.0
 11
5.6809212199
 21
-6.5612394749
 31
0.0
 11
5.6809999621
 21
-6.5528191594
 31
0.0
 11
5.6811285914
 21
-6.5449173376
 31
0.0
 11
5.6813032265
 21
-6.5377744917
 31
0.0
 11
5.6815185519
 21
-6.5316087442
 31
0.0
 11
5.6817679724
 21
-6.5266087155
 31
0.0
 11
5.6820438895
 21
-6.5229256953
 31
0.0
 11
5.6823375894
 21
-6.5206729306
 31
0.0
  0
SPLINE
  5
5F2
100
AcDbEntity
  8
ASSI
100
AcDbSpline
 62
253
  6
CONTINUOUS
 70
0
 71
3
 72
15
 73
11
 74
9
 42
0.0000001
 43
0.0000001
 44
0.0000000001
 12
0.0000001618
 22
0.050068276
 32
0.0
 13
0.0447346513
 23
0.0224865123
 33
0.0
 40
0.0
 40
0.0
 40
0.0
 40
0.0
 40
0.1713418136
 40
0.3377810062
 40
0.4942125627
 40
0.6359871151
 40
0.7588983147
 40
0.8592833316
 40
0.9341930349
 40
1.0
 40
1.0
 40
1.0
 40
1.0
 10
5.7402600554
 20
-4.8426853477
 30
0.0
 10
5.7402600647
 20
-4.8398257513
 30
0.0
 10
5.7402772683
 20
-4.8341887816
 30
0.0
 10
5.7403503653
 20
-4.8259391529
 30
0.0
 10
5.7404793156
 20
-4.818191357
 30
0.0
 10
5.7406241573
 20
-4.8111459045
 30
0.0
 10
5.7408900153
 20
-4.8051137145
 30
0.0
 10
5.7409505329
 20
-4.7999844692
 30
0.0
 10
5.7416703992
 20
-4.7963796367
 30
0.0
 10
5.7409943375
 20
-4.7931862193
 30
0.0
 10
5.7419756213
 20
-4.7926929629
 30
0.0
 11
5.7402600554
 21
-4.8426853477
 31
0.0
 11
5.7402859465
 21
-4.8341065976
 31
0.0
 11
5.7403629666
 21
-4.8257736301
 31
0.0
 11
5.7404888339
 21
-4.8179423832
 31
0.0
 11
5.740659828
 21
-4.8108460356
 31
0.0
 11
5.7408708805
 21
-4.8046957039
 31
0.0
 11
5.7411156773
 21
-4.7996755641
 31
0.0
 11
5.7413869237
 21
-4.7959347856
 31
0.0
 11
5.7419756213
 21
-4.7926929629
 31
0.0
  0
SPLINE
  5
5F3
100
AcDbEntity
  8
ASSI
100
AcDbSpline
 62
253
  6
CONTINUOUS
 70
0
 71
3
 72
15
 73
11
 74
9
 42
0.0000001
 43
0.0000001
 44
0.0000000001
 12
0.0447346513
 22
-0.0224865123
 32
0.0
 13
0.0000001618
 23
-0.050068276
 33
0.0
 40
0.0
 40
0.0
 40
0.0
 40
0.0
 40
0.0658069653
 40
0.1407166687
 40
0.2411016857
 40
0.3640128853
 40
0.5057874378
 40
0.6622189942
 40
0.8286581869
 40
1.0
 40
1.0
 40
1.0
 40
1.0
 10
5.0395237921
 20
-4.7926929629
 30
0.0
 10
5.040505076
 20
-4.7931862193
 30
0.0
 10
5.0398290142
 20
-4.7963796367
 30
0.0
 10
5.0405488805
 20
-4.7999844692
 30
0.0
 10
5.0406093981
 20
-4.8051137145
 30
0.0
 10
5.0408752561
 20
-4.8111459045
 30
0.0
 10
5.0410200978
 20
-4.8181913571
 30
0.0
 10
5.0411490481
 20
-4.8259391529
 30
0.0
 10
5.0412221451
 20
-4.8341887816
 30
0.0
 10
5.0412393487
 20
-4.8398257513
 30
0.0
 10
5.041239358
 20
-4.8426853477
 30
0.0
 11
5.0395237921
 21
-4.7926929629
 31
0.0
 11
5.0401124897
 21
-4.7959347856
 31
0.0
 11
5.0403837361
 21
-4.7996755641
 31
0.0
 11
5.0406285329
 21
-4.8046957039
 31
0.0
 11
5.0408395854
 21
-4.8108460356
 31
0.0
 11
5.0410105795
 21
-4.8179423832
 31
0.0
 11
5.0411364468
 21
-4.8257736301
 31
0.0
 11
5.0412134669
 21
-4.8341065976
 31
0.0
 11
5.041239358
 21
-4.8426853477
 31
0.0
  0
SPLINE
  5
5F4
100
AcDbEntity
  8
ASSI
100
AcDbSpline
 62
253
  6
CONTINUOUS
 70
0
 71
3
 72
15
 73
11
 74
9
 42
0.0000001
 43
0.0000001
 44
0.0000000001
 12
0.0095687383
 22
-0.0483454935
 32
0.0
 13
0.0000001707
 23
-0.0492833389
 33
0.0
 40
0.0
 40
0.0
 40
0.0
 40
0.0
 40
0.0460973084
 40
0.1210382755
 40
0.222619174
 40
0.3478035941
 40
0.4927811984
 40
0.6531369878
 40
0.8239996736
 40
1.0
 40
1.0
 40
1.0
 40
1.0
 10
5.099161824
 20
-6.5206729306
 30
0.0
 10
5.0993088551
 20
-6.5214157963
 30
0.0
 10
5.0995130915
 20
-6.523398107
 30
0.0
 10
5.0997759065
 20
-6.5270437699
 30
0.0
 10
5.1000086632
 20
-6.5319960302
 30
0.0
 10
5.1002170863
 20
-6.5380990801
 30
0.0
 10
5.1003857126
 20
-6.5451697628
 30
0.0
 10
5.1005108902
 20
-6.5529916261
 30
0.0
 10
5.1005875326
 20
-6.5613238222
 30
0.0
 10
5.1006046561
 20
-6.5670220237
 30
0.0
 10
5.1006046661
 20
-6.5699133183
 30
0.0
 11
5.099161824
 21
-6.5206729306
 31
0.0
 11
5.0994555239
 21
-6.5229256953
 31
0.0
 11
5.099731441
 21
-6.5266087155
 31
0.0
 11
5.0999808615
 21
-6.5316087442
 31
0.0
 11
5.1001961869
 21
-6.5377744917
 31
0.0
 11
5.100370822
 21
-6.5449173376
 31
0.0
 11
5.1004994513
 21
-6.5528191594
 31
0.0
 11
5.1005781935
 21
-6.5612394749
 31
0.0
 11
5.1006046661
 21
-6.5699133183
 31
0.0
  0
SPLINE
  5
5F5
100
AcDbEntity
  8
ASSI
100
AcDbSpline
 62
253
  6
CONTINUOUS
 70
0
 71
3
 72
15
 73
11
 74
9
 42
0.0000001
 43
0.0000001
 44
0.0000000001
 12
0.4014143351
 22
-0.007008849
 32
0.0
 13
0.0139942489
 23
-0.4012315459
 33
0.0
 40
0.0
 40
0.0
 40
0.0
 40
0.0
 40
0.1440042721
 40
0.2856952433
 40
0.4226385679
 40
0.5528839124
 40
0.6752420872
 40
0.7895682409
 40
0.8969982159
 40
1.0
 40
1.0
 40
1.0
 40
1.0
 10
7.0153741572
 20
7.7351258289
 30
0.0
 10
7.0346426169
 20
7.7347893941
 30
0.0
 10
7.0728767197
 20
7.7315201291
 30
0.0
 10
7.1282109135
 20
7.7189807956
 30
0.0
 10
7.1794726099
 20
7.6992537784
 30
0.0
 10
7.2247969409
 20
7.6730165788
 30
0.0
 10
7.2625380853
 20
7.6411522146
 30
0.0
 10
7.291268205
 20
7.6046944036
 30
0.0
 10
7.3097744548
 20
7.5649050138
 30
0.0
 10
7.3147109278
 20
7.5367696495
 30
0.0
 10
7.3151914053
 20
7.5229937945
 30
0.0
 11
7.0153741572
 21
7.7351258289
 31
0.0
 11
7.072975611
 21
7.7301707225
 31
0.0
 11
7.1284322891
 21
7.7175013902
 31
0.0
 11
7.179679268
 21
7.6975895664
 31
0.0
 11
7.2248083664
 21
7.6711766574
 31
0.0
 11
7.262139195
 21
7.6392461373
 31
0.0
 11
7.2902817257
 21
7.60298693
 31
0.0
 11
7.3081880512
 21
7.5637491425
 31
0.0
 11
7.3151914053
 21
7.5229937945
 31
0.0
  0
SPLINE
  5
5F6
100
AcDbEntity
  8
ASSI
100
AcDbSpline
 62
253
  6
CONTINUOUS
 70
0
 71
3
 72
15
 73
11
 74
9
 42
0.0000001
 43
0.0000001
 44
0.0000000001
 12
-0.4014143357
 22
-0.0070088488
 32
0.0
 13
-0.0139942489
 23
-0.4012315464
 33
0.0
 40
0.0
 40
0.0
 40
0.0
 40
0.0
 40
0.1440044844
 40
0.2856956272
 40
0.4226390599
 40
0.5528844372
 40
0.67524257
 40
0.7895686166
 40
0.89699843
 40
1.0
 40
1.0
 40
1.0
 40
1.0
 10
6.8661252562
 20
7.7351258289
 30
0.0
 10
6.846856768
 20
7.7347893937
 30
0.0
 10
6.8086226137
 20
7.7315201204
 30
0.0
 10
6.7532883586
 20
7.718980756
 30
0.0
 10
6.702026632
 20
7.6992536991
 30
0.0
 10
6.6567023059
 20
7.6730164632
 30
0.0
 10
6.6189611981
 20
7.6411520795
 30
0.0
 10
6.5902311344
 20
7.6046942777
 30
0.0
 10
6.5717249402
 20
7.5649049348
 30
0.0
 10
6.5667884846
 20
7.5367696209
 30
0.0
 10
6.5663080081
 20
7.5229937945
 30
0.0
 11
6.8661252562
 21
7.7351258289
 31
0.0
 11
6.8085237179
 21
7.7301707094
 31
0.0
 11
6.7530669764
 21
7.7175013451
 31
0.0
 11
6.7018199667
 21
7.6975894805
 31
0.0
 11
6.6566908742
 21
7.6711765352
 31
0.0
 11
6.6193600834
 21
7.6392459966
 31
0.0
 11
6.5912176086
 21
7.6029868004
 31
0.0
 11
6.5733113364
 21
7.5637490598
 31
0.0
 11
6.5663080081
 21
7.5229937945
 31
0.0
  0
SPLINE
  5
5F7
100
AcDbEntity
  8
ASSI
100
AcDbSpline
 62
253
  6
CONTINUOUS
 70
0
 71
3
 72
15
 73
11
 74
9
 42
0.0000001
 43
0.0000001
 44
0.0000000001
 12
-0.4014143352
 22
-0.0070088515
 32
0.0
 13
-0.0139942492
 23
-0.401231546
 33
0.0
 40
0.0
 40
0.0
 40
0.0
 40
0.0
 40
0.1440045699
 40
0.2856957779
 40
0.4226392486
 40
0.5528846346
 40
0.6752427483
 40
0.7895687529
 40
0.8969985064
 40
1.0
 40
1.0
 40
1.0
 40
1.0
 10
6.8873258922
 20
7.1280190477
 30
0.0
 10
6.8680573926
 20
7.1276826121
 30
0.0
 10
6.8298232181
 20
7.1244133354
 30
0.0
 10
6.7744889397
 20
7.1118739587
 30
0.0
 10
6.7232272026
 20
7.0921468867
 30
0.0
 10
6.6779028797
 20
7.0659096379
 30
0.0
 10
6.6401617864
 20
7.0340452478
 30
0.0
 10
6.6114317437
 20
6.9975874504
 30
0.0
 10
6.5929255696
 20
6.9577981251
 30
0.0
 10
6.5879891202
 20
6.9296628295
 30
0.0
 10
6.587508644
 20
6.9158870133
 30
0.0
 11
6.8873258922
 21
7.1280190477
 31
0.0
 11
6.82972432
 21
7.1230639225
 31
0.0
 11
6.7742675546
 21
7.1103945456
 31
0.0
 11
6.7230205344
 21
7.0904826657
 31
0.0
 11
6.6778914456
 21
7.0640697074
 31
0.0
 11
6.6405606699
 21
7.0321391631
 31
0.0
 11
6.6124182161
 21
6.9958799719
 31
0.0
 11
6.5945119633
 21
6.956642249
 31
0.0
 11
6.587508644
 21
6.9158870133
 31
0.0
  0
SPLINE
  5
5F8
100
AcDbEntity
  8
ASSI
100
AcDbSpline
 62
253
  6
CONTINUOUS
 70
0
 71
3
 72
15
 73
11
 74
9
 42
0.0000001
 43
0.0000001
 44
0.0000000001
 12
0.4014143357
 22
-0.0070088487
 32
0.0
 13
0.0139942489
 23
-0.4012315464
 33
0.0
 40
0.0
 40
0.0
 40
0.0
 40
0.0
 40
0.1440044844
 40
0.2856956272
 40
0.4226390599
 40
0.5528844372
 40
0.67524257
 40
0.7895686166
 40
0.89699843
 40
1.0
 40
1.0
 40
1.0
 40
1.0
 10
-7.3058264787
 20
7.1280190477
 30
0.0
 10
-7.2865579906
 20
7.1276826125
 30
0.0
 10
-7.2483238363
 20
7.1244133392
 30
0.0
 10
-7.1929895812
 20
7.1118739748
 30
0.0
 10
-7.1417278545
 20
7.0921469179
 30
0.0
 10
-7.0964035285
 20
7.0659096821
 30
0.0
 10
-7.0586624206
 20
7.0340452983
 30
0.0
 10
-7.029932357
 20
6.9975874965
 30
0.0
 10
-7.0114261627
 20
6.9577981536
 30
0.0
 10
-7.0064897072
 20
6.9296628397
 30
0.0
 10
-7.0060092306
 20
6.9158870133
 30
0.0
 11
-7.3058264787
 21
7.1280190477
 31
0.0
 11
-7.2482249405
 21
7.1230639282
 31
0.0
 11
-7.1927681989
 21
7.1103945639
 31
0.0
 11
-7.1415211892
 21
7.0904826993
 31
0.0
 11
-7.0963920967
 21
7.064069754
 31
0.0
 11
-7.059061306
 21
7.0321392155
 31
0.0
 11
-7.0309188312
 21
6.9958800192
 31
0.0
 11
-7.013012559
 21
6.9566422786
 31
0.0
 11
-7.0060092306
 21
6.9158870133
 31
0.0
  0
SPLINE
  5
5F9
100
AcDbEntity
  8
ASSI
100
AcDbSpline
 62
253
  6
CONTINUOUS
 70
0
 71
3
 72
15
 73
11
 74
9
 42
0.0000001
 43
0.0000001
 44
0.0000000001
 12
0.3882348029
 22
-0.0023184616
 32
0.0
 13
0.0023876314
 23
-0.3882343837
 33
0.0
 40
0.0
 40
0.0
 40
0.0
 40
0.0
 40
0.1257290456
 40
0.2514557317
 40
0.3770343051
 40
0.502340937
 40
0.627292244
 40
0.751858067
 40
0.8760664778
 40
1.0
 40
1.0
 40
1.0
 40
1.0
 10
5.4324898826
 20
-6.2744709924
 30
0.0
 10
5.4487606797
 20
-6.2745681584
 30
0.0
 10
5.4813695518
 20
-6.2779136384
 30
0.0
 10
5.5283331447
 20
-6.2921761594
 30
0.0
 10
5.5716683358
 20
-6.3151443134
 30
0.0
 10
5.6097020883
 20
-6.3459481941
 30
0.0
 10
5.6409898645
 20
-6.3834178291
 30
0.0
 10
5.6643328925
 20
-6.4261362201
 30
0.0
 10
5.6788350088
 20
-6.472451805
 30
0.0
 10
5.6822389535
 20
-6.5046345124
 30
0.0
 10
5.6823375894
 20
-6.5206729306
 30
0.0
 11
5.4324898826
 21
-6.2744709924
 31
0.0
 11
5.4810479985
 21
-6.2794553568
 31
0.0
 11
5.5277543785
 21
-6.2936384152
 31
0.0
 11
5.5708279016
 21
-6.3164793047
 31
0.0
 11
5.6086259835
 21
-6.3471070012
 31
0.0
 11
5.6397072162
 21
-6.3843535349
 31
0.0
 11
5.6628863345
 21
-6.4267985307
 31
0.0
 11
5.6772794163
 21
-6.4728233729
 31
0.0
 11
5.6823375894
 21
-6.5206729306
 31
0.0
  0
SPLINE
  5
5FA
100
AcDbEntity
  8
ASSI
100
AcDbSpline
 62
7
  6
CONTINUOUS
 70
0
 71
3
 72
17
 73
13
 74
11
 42
0.0000001
 43
0.0000001
 44
0.0000000001
 12
-0.0148532747
 22
0.3571597571
 32
0.0
 13
-0.3573152673
 23
0.0104647825
 33
0.0
 40
0.0
 40
0.0
 40
0.0
 40
0.0
 40
0.0784048065
 40
0.159813855
 40
0.2448266776
 40
0.3341391228
 40
0.4284979008
 40
0.5286788015
 40
0.6354463523
 40
0.7494674181
 40
0.8710888176
 40
1.0
 40
1.0
 40
1.0
 40
1.0
 10
5.7402600554
 20
-6.2282024695
 30
0.0
 10
5.7398718661
 20
-6.2188681223
 30
0.0
 10
5.7375609704
 20
-6.199872906
 30
0.0
 10
5.7295104953
 20
-6.1717144771
 30
0.0
 10
5.7166411213
 20
-6.1439578754
 30
0.0
 10
5.6988451191
 20
-6.1171986258
 30
0.0
 10
5.6760574151
 20
-6.0920391272
 30
0.0
 10
5.6482472321
 20
-6.0691350895
 30
0.0
 10
5.6154353493
 20
-6.0492330269
 30
0.0
 10
5.5777524187
 20
-6.0332216561
 30
0.0
 10
5.5355904575
 20
-6.0221651694
 30
0.0
 10
5.5057663265
 20
-6.0189828485
 30
0.0
 10
5.4904123487
 20
-6.0185331727
 30
0.0
 11
5.7402600554
 21
-6.2282024695
 31
0.0
 11
5.7368957844
 21
-6.2003778717
 31
0.0
 11
5.7289344463
 21
-6.1723868892
 31
0.0
 11
5.7161978653
 21
-6.1447953072
 31
0.0
 11
5.6985693384
 21
-6.1181770989
 31
0.0
 11
5.6759747729
 21
-6.0931327785
 31
0.0
 11
5.6483736515
 21
-6.0703151837
 31
0.0
 11
5.6157728705
 21
-6.0504699018
 31
0.0
 11
5.578279802
 21
-6.0344836347
 31
0.0
 11
5.5362334407
 21
-6.0234269576
 31
0.0
 11
5.4904123487
 21
-6.0185331727
 31
0.0
  0
SPLINE
  5
5FB
100
AcDbEntity
  8
ASSI
100
AcDbSpline
 62
253
  6
CONTINUOUS
 70
0
 71
3
 72
15
 73
11
 74
9
 42
0.0000001
 43
0.0000001
 44
0.0000000001
 12
0.4014143351
 22
-0.007008849
 32
0.0
 13
0.0139942489
 23
-0.4012315459
 33
0.0
 40
0.0
 40
0.0
 40
0.0
 40
0.0
 40
0.1440042721
 40
0.2856952433
 40
0.4226385679
 40
0.5528839124
 40
0.6752420872
 40
0.7895682409
 40
0.8969982159
 40
1.0
 40
1.0
 40
1.0
 40
1.0
 10
-7.2846258428
 20
7.7351258289
 30
0.0
 10
-7.2653573831
 20
7.7347893941
 30
0.0
 10
-7.2271232803
 20
7.7315201291
 30
0.0
 10
-7.1717890865
 20
7.7189807956
 30
0.0
 10
-7.1205273901
 20
7.6992537784
 30
0.0
 10
-7.0752030591
 20
7.6730165788
 30
0.0
 10
-7.0374619147
 20
7.6411522146
 30
0.0
 10
-7.008731795
 20
7.6046944036
 30
0.0
 10
-6.9902255452
 20
7.5649050138
 30
0.0
 10
-6.9852890722
 20
7.5367696495
 30
0.0
 10
-6.9848085947
 20
7.5229937945
 30
0.0
 11
-7.2846258428
 21
7.7351258289
 31
0.0
 11
-7.227024389
 21
7.7301707225
 31
0.0
 11
-7.1715677109
 21
7.7175013902
 31
0.0
 11
-7.120320732
 21
7.6975895664
 31
0.0
 11
-7.0751916336
 21
7.6711766574
 31
0.0
 11
-7.037860805
 21
7.6392461373
 31
0.0
 11
-7.0097182743
 21
7.60298693
 31
0.0
 11
-6.9918119488
 21
7.5637491425
 31
0.0
 11
-6.9848085947
 21
7.5229937945
 31
0.0
  0
SPLINE
  5
5FC
100
AcDbEntity
  8
ASSI
100
AcDbSpline
 62
7
  6
CONTINUOUS
 70
0
 71
3
 72
14
 73
10
 74
8
 42
0.0000001
 43
0.0000001
 44
0.0000000001
 12
-0.187164952
 22
-0.0179573555
 32
0.0
 13
-0.188024429
 23
0.0
 33
0.0
 40
0.0
 40
0.0
 40
0.0
 40
0.0
 40
0.0778830372
 40
0.1849747095
 40
0.3167251878
 40
0.4673848541
 40
0.636225452
 40
0.8166806958
 40
1.0
 40
1.0
 40
1.0
 40
1.0
 10
-4.3742212528
 20
5.7727370026
 30
0.0
 10
-4.3790802444
 20
5.7722708115
 30
0.0
 10
-4.3906489087
 20
5.7714727516
 30
0.0
 10
-4.4104768042
 20
5.7705206937
 30
0.0
 10
-4.4348756815
 20
5.7696954658
 30
0.0
 10
-4.4631498661
 20
5.7690184682
 30
0.0
 10
-4.4944807962
 20
5.7685173774
 30
0.0
 10
-4.5278611536
 20
5.7682109561
 30
0.0
 10
-4.5506607192
 20
5.7681428832
 30
0.0
 10
-4.5621502217
 20
5.7681428832
 30
0.0
 11
-4.3742212528
 21
5.7727370026
 31
0.0
 11
-4.3888241453
 21
5.7716416785
 31
0.0
 11
-4.408934937
 21
5.7706374211
 31
0.0
 11
-4.4336921778
 21
5.7697735382
 31
0.0
 11
-4.4620114119
 21
5.7690811239
 31
0.0
 11
-4.4937533546
 21
5.7685638637
 31
0.0
 11
-4.5276818725
 21
5.7682473531
 31
0.0
 11
-4.5621502217
 21
5.7681428832
 31
0.0
  0
SPLINE
  5
5FD
100
AcDbEntity
  8
ASSI
100
AcDbSpline
 62
7
  6
CONTINUOUS
 70
0
 71
3
 72
14
 73
10
 74
8
 42
0.0000001
 43
0.0000001
 44
0.0000000001
 12
0.1880504183
 22
0.0
 32
0.0
 13
0.1871908232
 23
-0.0179598313
 33
0.0
 40
0.0
 40
0.0
 40
0.0
 40
0.0
 40
0.1832425357
 40
0.3636522946
 40
0.53247933
 40
0.6831485856
 40
0.8149281021
 40
0.9220655165
 40
1.0
 40
1.0
 40
1.0
 40
1.0
 10
-4.5674948646
 20
7.3955149865
 30
0.0
 10
-4.5560085861
 20
7.3955149865
 30
0.0
 10
-4.5332135323
 20
7.3954469032
 30
0.0
 10
-4.4998370748
 20
7.3951404267
 30
0.0
 10
-4.4685049161
 20
7.3946391719
 30
0.0
 10
-4.4402252566
 20
7.3939618639
 30
0.0
 10
-4.4158177277
 20
7.393136152
 30
0.0
 10
-4.3959791955
 20
7.39218342
 30
0.0
 10
-4.3844028604
 20
7.3913847381
 30
0.0
 10
-4.379539987
 20
7.3909181747
 30
0.0
 11
-4.5674948646
 21
7.3955149865
 31
0.0
 11
-4.5330361875
 21
7.3954105151
 31
0.0
 11
-4.4991115338
 21
7.3950939527
 31
0.0
 11
-4.467367756
 21
7.3945765224
 31
0.0
 11
-4.439042809
 21
7.3938837953
 31
0.0
 11
-4.4142766951
 21
7.3930194217
 31
0.0
 11
-4.39415454
 21
7.3920144462
 31
0.0
 11
-4.379539987
 21
7.3909181747
 31
0.0
  0
SPLINE
  5
5FE
100
AcDbEntity
  8
ASSI
100
AcDbSpline
 62
7
  6
CONTINUOUS
 70
0
 71
3
 72
14
 73
10
 74
8
 42
0.0000001
 43
0.0000001
 44
0.0000000001
 12
0.1871908232
 22
0.0179598313
 32
0.0
 13
0.1880504183
 23
0.0
 33
0.0
 40
0.0
 40
0.0
 40
0.0
 40
0.0
 40
0.0779344835
 40
0.1850718979
 40
0.3168514144
 40
0.46752067
 40
0.6363477055
 40
0.8167574643
 40
1.0
 40
1.0
 40
1.0
 40
1.0
 10
3.9610394004
 20
7.3909181747
 30
0.0
 10
3.9659022738
 20
7.3913847381
 30
0.0
 10
3.9774786089
 20
7.39218342
 30
0.0
 10
3.9973171411
 20
7.393136152
 30
0.0
 10
4.0217246701
 20
7.3939618639
 30
0.0
 10
4.0500043295
 20
7.3946391719
 30
0.0
 10
4.0813364882
 20
7.3951404267
 30
0.0
 10
4.1147129458
 20
7.3954469032
 30
0.0
 10
4.1375079995
 20
7.3955149865
 30
0.0
 10
4.148994278
 20
7.3955149865
 30
0.0
 11
3.9610394004
 21
7.3909181747
 31
0.0
 11
3.9756539534
 21
7.3920144462
 31
0.0
 11
3.9957761085
 21
7.3930194217
 31
0.0
 11
4.0205422224
 21
7.3938837953
 31
0.0
 11
4.0488671694
 21
7.3945765224
 31
0.0
 11
4.0806109472
 21
7.3950939527
 31
0.0
 11
4.1145356009
 21
7.3954105151
 31
0.0
 11
4.148994278
 21
7.3955149865
 31
0.0
  0
SPLINE
  5
5FF
100
AcDbEntity
  8
ASSI
100
AcDbSpline
 62
7
  6
CONTINUOUS
 70
0
 71
3
 72
14
 73
10
 74
8
 42
0.0000001
 43
0.0000001
 44
0.0000000001
 12
-0.188024429
 22
0.0
 32
0.0
 13
-0.187164952
 23
0.0179573555
 33
0.0
 40
0.0
 40
0.0
 40
0.0
 40
0.0
 40
0.1833193042
 40
0.363774548
 40
0.5326151459
 40
0.6832748122
 40
0.8150252905
 40
0.9221169628
 40
1.0
 40
1.0
 40
1.0
 40
1.0
 10
4.1436496351
 20
5.7681428832
 30
0.0
 10
4.1321601326
 20
5.7681428832
 30
0.0
 10
4.109360567
 20
5.7682109561
 30
0.0
 10
4.0759802096
 20
5.7685173774
 30
0.0
 10
4.0446492795
 20
5.7690184682
 30
0.0
 10
4.0163750949
 20
5.7696954658
 30
0.0
 10
3.9919762176
 20
5.7705206937
 30
0.0
 10
3.9721483221
 20
5.7714727516
 30
0.0
 10
3.9605796578
 20
5.7722708115
 30
0.0
 10
3.9557206662
 20
5.7727370026
 30
0.0
 11
4.1436496351
 21
5.7681428832
 31
0.0
 11
4.1091812859
 21
5.7682473531
 31
0.0
 11
4.075252768
 21
5.7685638637
 31
0.0
 11
4.0435108253
 21
5.7690811239
 31
0.0
 11
4.0151915912
 21
5.7697735382
 31
0.0
 11
3.9904343504
 21
5.7706374211
 31
0.0
 11
3.9703235587
 21
5.7716416785
 31
0.0
 11
3.9557206662
 21
5.7727370026
 31
0.0
  0
SPLINE
  5
600
100
AcDbEntity
  8
ASSI
100
AcDbSpline
 62
253
  6
CONTINUOUS
 70
0
 71
3
 72
15
 73
11
 74
9
 42
0.0000001
 43
0.0000001
 44
0.0000000001
 12
0.2881576673
 22
0.0038542516
 32
0.0
 13
0.0214951096
 23
0.2873806826
 33
0.0
 40
0.0
 40
0.0
 40
0.0
 40
0.0
 40
0.1661012139
 40
0.3273713521
 40
0.4790823685
 40
0.6171102583
 40
0.7383301595
 40
0.8411950579
 40
0.9267168348
 40
1.0
 40
1.0
 40
1.0
 40
1.0
 10
5.4312106307
 20
-6.9787046414
 30
0.0
 10
5.4471650769
 20
-6.9784912428
 30
0.0
 10
5.4786086072
 20
-6.9768064418
 30
0.0
 10
5.5242575045
 20
-6.9705566268
 30
0.0
 10
5.5665452715
 20
-6.9608296777
 30
0.0
 10
5.6039643674
 20
-6.9479813259
 30
0.0
 10
5.6352396041
 20
-6.932466608
 30
0.0
 10
5.6593568147
 20
-6.9147202236
 30
0.0
 10
5.6756088503
 20
-6.8950752433
 30
0.0
 10
5.6805332609
 20
-6.8800701314
 30
0.0
 10
5.6810583375
 20
-6.873050076
 30
0.0
 11
5.4312106307
 21
-6.9787046414
 31
0.0
 11
5.4790081972
 21
-6.9761158867
 31
0.0
 11
5.5250419063
 21
-6.9697237899
 31
0.0
 11
5.5676130065
 21
-6.9597642442
 31
0.0
 11
5.6051505418
 21
-6.9466047909
 31
0.0
 11
5.6362693242
 21
-6.930731052
 31
0.0
 11
5.6598210443
 21
-6.9127288056
 31
0.0
 11
5.6749366364
 21
-6.8932623673
 31
0.0
 11
5.6810583375
 21
-6.873050076
 31
0.0
  0
SPLINE
  5
601
100
AcDbEntity
  8
ASSI
100
AcDbSpline
 62
253
  6
CONTINUOUS
 70
0
 71
3
 72
14
 73
10
 74
8
 42
0.0000001
 43
0.0000001
 44
0.0000000001
 12
0.2004260331
 22
0.0001424279
 32
0.0
 13
0.0795097631
 23
0.183980468
 33
0.0
 40
0.0
 40
0.0
 40
0.0
 40
0.0
 40
0.219626445
 40
0.4285016891
 40
0.6164034558
 40
0.7741463891
 40
0.8940461608
 40
0.9703499162
 40
1.0
 40
1.0
 40
1.0
 40
1.0
 10
9.4279830097
 20
-9.0336890106
 30
0.0
 10
9.4426559621
 20
-9.0336785837
 30
0.0
 10
9.4712945619
 20
-9.0335405267
 30
0.0
 10
9.5124266659
 20
-9.0329191208
 30
0.0
 10
9.5496039329
 20
-9.0320990883
 30
0.0
 10
9.5802822386
 20
-9.0306072713
 30
0.0
 10
9.604881619
 20
-9.0299363578
 30
0.0
 10
9.6180209939
 20
-9.0271357131
 30
0.0
 10
9.6271667251
 20
-9.0274370405
 30
0.0
 10
9.6279525488
 20
-9.0256186951
 30
0.0
 11
9.4279830097
 21
-9.0336890106
 31
0.0
 11
9.4720012815
 21
-9.0334598487
 31
0.0
 11
9.5138608312
 21
-9.0328462199
 31
0.0
 11
9.5515088039
 21
-9.0318782174
 31
0.0
 11
9.5830988866
 21
-9.0306033135
 31
0.0
 11
9.6070818544
 21
-9.0290840315
 31
0.0
 11
9.622281547
 21
-9.0273948792
 31
0.0
 11
9.6279525488
 21
-9.0256186951
 31
0.0
  0
SPLINE
  5
602
100
AcDbEntity
  8
ASSI
100
AcDbSpline
 62
253
  6
CONTINUOUS
 70
0
 71
3
 72
15
 73
11
 74
9
 42
0.0000001
 43
0.0000001
 44
0.0000000001
 12
-0.0006690231
 22
-0.3122541311
 32
0.0
 13
-0.3122541518
 23
-0.0006592875
 33
0.0
 40
0.0
 40
0.0
 40
0.0
 40
0.0
 40
0.1239311267
 40
0.2485008945
 40
0.3733674625
 40
0.4983911403
 40
0.623641287
 40
0.7490227936
 40
0.8745020714
 40
1.0
 40
1.0
 40
1.0
 40
1.0
 10
9.6279525488
 20
-9.0256186951
 30
0.0
 10
9.6279249112
 20
-9.0385180305
 30
0.0
 10
9.6253130043
 20
-9.0644491481
 30
0.0
 10
9.6138542611
 20
-9.1018351041
 30
0.0
 10
9.5952478113
 20
-9.1363727018
 30
0.0
 10
9.5702161163
 20
-9.166665545
 30
0.0
 10
9.5397294283
 20
-9.1915442637
 30
0.0
 10
9.5049494752
 20
-9.2100554785
 30
0.0
 10
9.4672340622
 20
-9.2214884245
 30
0.0
 10
9.4410454262
 20
-9.2241003457
 30
0.0
 10
9.4279830097
 20
-9.2241279254
 30
0.0
 11
9.6279525488
 21
-9.0256186951
 31
0.0
 11
9.62407249
 21
-9.0641217821
 31
0.0
 11
9.6126814591
 21
-9.101313999
 31
0.0
 11
9.5941925823
 21
-9.1356417786
 31
0.0
 11
9.5693300103
 21
-9.165740209
 31
0.0
 11
9.5390317586
 21
-9.1904708649
 31
0.0
 11
9.5044735572
 21
-9.2088700553
 31
0.0
 11
9.4669765017
 21
-9.2202349913
 31
0.0
 11
9.4279830097
 21
-9.2241279254
 31
0.0
  0
SPLINE
  5
603
100
AcDbEntity
  8
ASSI
100
AcDbSpline
 62
253
  6
CONTINUOUS
 70
0
 71
3
 72
14
 73
10
 74
8
 42
0.0000001
 43
0.0000001
 44
0.0000000001
 12
0.0619574506
 22
-0.1906092583
 32
0.0
 13
0.2004085935
 23
-0.0026477693
 33
0.0
 40
0.0
 40
0.0
 40
0.0
 40
0.0
 40
0.0296500838
 40
0.1059538392
 40
0.2258536109
 40
0.3835965442
 40
0.5714983109
 40
0.780373555
 40
1.0
 40
1.0
 40
1.0
 40
1.0
 10
-10.0464531354
 20
-9.0256186951
 30
0.0
 10
-10.0458407875
 20
-9.0275025553
 30
0.0
 10
-10.0363089858
 20
-9.0270554156
 30
0.0
 10
-10.0235062306
 20
-9.0299833086
 30
0.0
 10
-9.9987300828
 20
-9.0305866005
 30
0.0
 10
-9.9681235582
 20
-9.0321103223
 30
0.0
 10
-9.930920959
 20
-9.032897745
 30
0.0
 10
-9.8897976542
 20
-9.0336224302
 30
0.0
 10
-9.861155272
 20
-9.0334951706
 30
0.0
 10
-9.8464835963
 20
-9.0336890106
 30
0.0
 11
-10.0464531354
 21
-9.0256186951
 31
0.0
 11
-10.0407821336
 21
-9.0273948792
 31
0.0
 11
-10.025582441
 21
-9.0290840315
 31
0.0
 11
-10.0015994732
 21
-9.0306033135
 31
0.0
 11
-9.9700093905
 21
-9.0318782174
 31
0.0
 11
-9.9323614178
 21
-9.0328462199
 31
0.0
 11
-9.8905018681
 21
-9.0334598487
 31
0.0
 11
-9.8464835963
 21
-9.0336890106
 31
0.0
  0
SPLINE
  5
604
100
AcDbEntity
  8
ASSI
100
AcDbSpline
 62
253
  6
CONTINUOUS
 70
0
 71
3
 72
15
 73
11
 74
9
 42
0.0000001
 43
0.0000001
 44
0.0000000001
 12
-0.3122541466
 22
0.0006592875
 32
0.0
 13
-0.0006690231
 23
0.3122541259
 33
0.0
 40
0.0
 40
0.0
 40
0.0
 40
0.0
 40
0.1253892911
 40
0.2507579262
 40
0.376037153
 40
0.5011716683
 40
0.6261279947
 40
0.7508996291
 40
0.8755081425
 40
1.0
 40
1.0
 40
1.0
 40
1.0
 10
-9.8464835963
 20
-9.2241279254
 30
0.0
 10
-9.859534705
 20
-9.2241003696
 30
0.0
 10
-9.885700343
 20
-9.2214929682
 30
0.0
 10
-9.9233860399
 20
-9.2100795454
 30
0.0
 10
-9.9581430518
 20
-9.1915993484
 30
0.0
 10
-9.9886209705
 20
-9.1667579379
 30
0.0
 10
-10.0136563768
 20
-9.1365062746
 30
0.0
 10
-10.0322865825
 20
-9.1019966375
 30
0.0
 10
-10.0437953536
 20
-9.0645708525
 30
0.0
 10
-10.0464253727
 20
-9.0385763938
 30
0.0
 10
-10.0464531354
 20
-9.0256186951
 30
0.0
 11
-9.8464835963
 21
-9.2241279254
 31
0.0
 11
-9.8854436616
 21
-9.220241656
 31
0.0
 11
-9.9229105523
 21
-9.2088963111
 31
0.0
 11
-9.9574483207
 21
-9.1905267098
 31
0.0
 11
-9.9877332803
 21
-9.1658368812
 31
0.0
 11
-10.0126047365
 21
-9.1357730823
 31
0.0
 11
-10.0311094715
 21
-9.1014875313
 31
0.0
 11
-10.0425382771
 21
-9.0642942484
 31
0.0
 11
-10.0464531354
 21
-9.0256186951
 31
0.0
  0
SPLINE
  5
605
100
AcDbEntity
  8
ASSI
100
AcDbSpline
 62
253
  6
CONTINUOUS
 70
0
 71
3
 72
15
 73
11
 74
9
 42
0.0000001
 43
0.0000001
 44
0.0000000001
 12
-0.3882348025
 22
-0.0023184634
 32
0.0
 13
-0.0023876319
 23
-0.3882343833
 33
0.0
 40
0.0
 40
0.0
 40
0.0
 40
0.0
 40
0.125729459
 40
0.2514564959
 40
0.3770353051
 40
0.5023420228
 40
0.6272932526
 40
0.7518588458
 40
0.8760669051
 40
1.0
 40
1.0
 40
1.0
 40
1.0
 10
5.3490095308
 20
-6.2744709924
 30
0.0
 10
5.3327386802
 20
-6.2745681588
 30
0.0
 10
5.3001297085
 20
-6.2779136596
 30
0.0
 10
5.2531660026
 20
-6.2921762615
 30
0.0
 10
5.2098307643
 20
-6.3151445161
 30
0.0
 10
5.1717970367
 20
-6.3459484786
 30
0.0
 10
5.1405093406
 20
-6.3834181425
 30
0.0
 10
5.1171664145
 20
-6.4261364901
 30
0.0
 10
5.1026643824
 20
-6.4724519619
 30
0.0
 10
5.0992604596
 20
-6.5046345677
 30
0.0
 10
5.099161824
 20
-6.5206729306
 30
0.0
 11
5.3490095308
 21
-6.2744709924
 31
0.0
 11
5.3004512569
 21
-6.2794553888
 31
0.0
 11
5.2537447595
 21
-6.2936385292
 31
0.0
 11
5.2106711867
 21
-6.3164795203
 31
0.0
 11
5.1728731285
 21
-6.3471072989
 31
0.0
 11
5.1417919761
 21
-6.3843538604
 31
0.0
 11
5.1186129603
 21
-6.4267988105
 31
0.0
 11
5.1042199634
 21
-6.4728235362
 31
0.0
 11
5.099161824
 21
-6.5206729306
 31
0.0
  0
SPLINE
  5
606
100
AcDbEntity
  8
ASSI
100
AcDbSpline
 62
253
  6
CONTINUOUS
 70
0
 71
3
 72
13
 73
9
 74
7
 42
0.0000001
 43
0.0000001
 44
0.0000000001
 12
0.0000009478
 22
-0.3537064006
 32
0.0
 13
0.0197326764
 23
-0.3531555455
 33
0.0
 40
0.0
 40
0.0
 40
0.0
 40
0.0
 40
0.1807365394
 40
0.3628821371
 40
0.5409121621
 40
0.7094442518
 40
0.8637208192
 40
1.0
 40
1.0
 40
1.0
 40
1.0
 10
6.8579427717
 20
8.0886901834
 30
0.0
 10
6.8579428288
 20
8.0673809598
 30
0.0
 10
6.8580949207
 20
8.0245962224
 30
0.0
 10
6.8587883575
 20
7.9608247095
 30
0.0
 10
6.8599545971
 20
7.8984991569
 30
0.0
 10
6.8615675527
 20
7.8394703908
 30
0.0
 10
6.8635723386
 20
7.7853792128
 30
0.0
 10
6.8652292553
 20
7.7511610573
 30
0.0
 10
6.8661256397
 20
7.7351184745
 30
0.0
 11
6.8579427717
 21
8.0886901834
 31
0.0
 11
6.8581720021
 21
8.0247629235
 31
0.0
 11
6.858878733
 21
7.9603407362
 31
0.0
 11
6.860068345
 21
7.8973816147
 31
0.0
 11
6.8617143296
 21
7.8377934648
 31
0.0
 11
6.8637603458
 21
7.783263226
 31
0.0
 11
6.8661256397
 21
7.7351184745
 31
0.0
  0
SPLINE
  5
607
100
AcDbEntity
  8
ASSI
100
AcDbSpline
 62
253
  6
CONTINUOUS
 70
0
 71
3
 72
13
 73
9
 74
7
 42
0.0000001
 43
0.0000001
 44
0.0000000001
 12
0.0197326329
 22
0.3531555552
 32
0.0
 13
0.0000009482
 23
0.3537064079
 33
0.0
 40
0.0
 40
0.0
 40
0.0
 40
0.0
 40
0.1362791858
 40
0.2905557542
 40
0.4590878453
 40
0.6371178717
 40
0.8192634707
 40
1.0
 40
1.0
 40
1.0
 40
1.0
 10
7.0153737736
 20
7.7351184711
 30
0.0
 10
7.016270156
 20
7.7511610549
 30
0.0
 10
7.0179270767
 20
7.7853792116
 30
0.0
 10
7.0199318597
 20
7.8394703917
 30
0.0
 10
7.021544817
 20
7.8984991594
 30
0.0
 10
7.0227110555
 20
7.9608247139
 30
0.0
 10
7.0234044929
 20
8.0245962271
 30
0.0
 10
7.0235565846
 20
8.0673809644
 30
0.0
 10
7.0235566417
 20
8.0886901872
 30
0.0
 11
7.0153737736
 21
7.7351184711
 31
0.0
 11
7.0177390679
 21
7.7832632253
 31
0.0
 11
7.0197850835
 21
7.8377934656
 31
0.0
 11
7.0214310687
 21
7.8973816172
 31
0.0
 11
7.0226206804
 21
7.9603407405
 31
0.0
 11
7.0233274114
 21
8.0247629296
 31
0.0
 11
7.0235566417
 21
8.0886901872
 31
0.0
  0
SPLINE
  5
608
100
AcDbEntity
  8
ASSI
100
AcDbSpline
 62
253
  6
CONTINUOUS
 70
0
 71
3
 72
13
 73
9
 74
7
 42
0.0000001
 43
0.0000001
 44
0.0000000001
 12
0.0000009478
 22
-0.3537064006
 32
0.0
 13
0.0197326764
 23
-0.3531555455
 33
0.0
 40
0.0
 40
0.0
 40
0.0
 40
0.0
 40
0.1807365394
 40
0.3628821371
 40
0.5409121621
 40
0.7094442518
 40
0.8637208192
 40
1.0
 40
1.0
 40
1.0
 40
1.0
 10
-7.4420572283
 20
8.0886901834
 30
0.0
 10
-7.4420571712
 20
8.0673809598
 30
0.0
 10
-7.4419050793
 20
8.0245962224
 30
0.0
 10
-7.4412116425
 20
7.9608247095
 30
0.0
 10
-7.4400454029
 20
7.8984991569
 30
0.0
 10
-7.4384324473
 20
7.8394703908
 30
0.0
 10
-7.4364276614
 20
7.7853792128
 30
0.0
 10
-7.4347707447
 20
7.7511610573
 30
0.0
 10
-7.4338743603
 20
7.7351184745
 30
0.0
 11
-7.4420572283
 21
8.0886901834
 31
0.0
 11
-7.4418279979
 21
8.0247629235
 31
0.0
 11
-7.441121267
 21
7.9603407362
 31
0.0
 11
-7.439931655
 21
7.8973816147
 31
0.0
 11
-7.4382856704
 21
7.8377934648
 31
0.0
 11
-7.4362396542
 21
7.783263226
 31
0.0
 11
-7.4338743603
 21
7.7351184745
 31
0.0
  0
SPLINE
  5
609
100
AcDbEntity
  8
ASSI
100
AcDbSpline
 62
253
  6
CONTINUOUS
 70
0
 71
3
 72
13
 73
9
 74
7
 42
0.0000001
 43
0.0000001
 44
0.0000000001
 12
0.0197326329
 22
0.3531555552
 32
0.0
 13
0.0000009482
 23
0.3537064079
 33
0.0
 40
0.0
 40
0.0
 40
0.0
 40
0.0
 40
0.1362791858
 40
0.2905557542
 40
0.4590878453
 40
0.6371178717
 40
0.8192634707
 40
1.0
 40
1.0
 40
1.0
 40
1.0
 10
-7.2846262264
 20
7.7351184711
 30
0.0
 10
-7.283729844
 20
7.7511610549
 30
0.0
 10
-7.2820729233
 20
7.7853792116
 30
0.0
 10
-7.2800681403
 20
7.8394703917
 30
0.0
 10
-7.278455183
 20
7.8984991594
 30
0.0
 10
-7.2772889445
 20
7.9608247139
 30
0.0
 10
-7.2765955071
 20
8.0245962271
 30
0.0
 10
-7.2764434154
 20
8.0673809644
 30
0.0
 10
-7.2764433583
 20
8.0886901872
 30
0.0
 11
-7.2846262264
 21
7.7351184711
 31
0.0
 11
-7.2822609321
 21
7.7832632253
 31
0.0
 11
-7.2802149165
 21
7.8377934656
 31
0.0
 11
-7.2785689313
 21
7.8973816172
 31
0.0
 11
-7.2773793196
 21
7.9603407405
 31
0.0
 11
-7.2766725886
 21
8.0247629296
 31
0.0
 11
-7.2764433583
 21
8.0886901872
 31
0.0
  0
SPLINE
  5
60A
100
AcDbEntity
  8
ASSI
100
AcDbSpline
 62
253
  6
CONTINUOUS
 70
0
 71
3
 72
13
 73
9
 74
7
 42
0.0000001
 43
0.0000001
 44
0.0000000001
 12
0.0049371296
 22
-0.3535273384
 32
0.0
 13
0.000000663
 23
-0.3535618111
 33
0.0
 40
0.0
 40
0.0
 40
0.0
 40
0.0
 40
0.1390722399
 40
0.2928914527
 40
0.4588232532
 40
0.6340132458
 40
0.8154446221
 40
1.0
 40
1.0
 40
1.0
 40
1.0
 10
6.8873258922
 20
7.1280190477
 30
0.0
 10
6.8875547647
 20
7.1116304347
 30
0.0
 10
6.887971338
 20
7.0771144651
 30
0.0
 10
6.8884697834
 20
7.023042582
 30
0.0
 10
6.8888675149
 20
6.9647131411
 30
0.0
 10
6.8891567607
 20
6.9031288302
 30
0.0
 10
6.8893323774
 20
6.8393492255
 30
0.0
 10
6.8893714627
 20
6.796216235
 30
0.0
 10
6.8893715035
 20
6.7744656571
 30
0.0
 11
6.8873258922
 21
7.1280190477
 31
0.0
 11
6.887928181
 21
7.0788521035
 31
0.0
 11
6.8884357015
 21
7.0244698722
 31
0.0
 11
6.8888398909
 21
6.9658041167
 31
0.0
 11
6.8891335965
 21
6.903864322
 31
0.0
 11
6.8893117821
 21
6.8397173634
 31
0.0
 11
6.8893715035
 21
6.7744656571
 31
0.0
  0
SPLINE
  5
60B
100
AcDbEntity
  8
ASSI
100
AcDbSpline
 62
253
  6
CONTINUOUS
 70
0
 71
3
 72
13
 73
9
 74
7
 42
0.0000001
 43
0.0000001
 44
0.0000000001
 12
0.000000663
 22
0.3535618111
 32
0.0
 13
0.0049371293
 23
0.3535273384
 33
0.0
 40
0.0
 40
0.0
 40
0.0
 40
0.0
 40
0.184555379
 40
0.3659867553
 40
0.5411767479
 40
0.7071085483
 40
0.8609277611
 40
1.0
 40
1.0
 40
1.0
 40
1.0
 10
6.9921279099
 20
6.7744656571
 30
0.0
 10
6.9921279507
 20
6.7962162351
 30
0.0
 10
6.992167036
 20
6.8393492258
 30
0.0
 10
6.9923426527
 20
6.9031288306
 30
0.0
 10
6.9926318985
 20
6.9647131415
 30
0.0
 10
6.99302963
 20
7.0230425824
 30
0.0
 10
6.9935280754
 20
7.0771144653
 30
0.0
 10
6.9939446487
 20
7.1116304349
 30
0.0
 10
6.9941735213
 20
7.1280190477
 30
0.0
 11
6.9921279099
 21
6.7744656571
 31
0.0
 11
6.9921876313
 21
6.8397173638
 31
0.0
 11
6.9923658169
 21
6.9038643223
 31
0.0
 11
6.9926595225
 21
6.9658041171
 31
0.0
 11
6.9930637119
 21
7.0244698726
 31
0.0
 11
6.9935712324
 21
7.0788521039
 31
0.0
 11
6.9941735213
 21
7.1280190477
 31
0.0
  0
SPLINE
  5
60C
100
AcDbEntity
  8
ASSI
100
AcDbSpline
 62
253
  6
CONTINUOUS
 70
0
 71
3
 72
17
 73
13
 74
11
 42
0.0000001
 43
0.0000001
 44
0.0000000001
 12
-0.000001509
 22
-0.4998432663
 32
0.0
 13
-0.185506915
 23
-0.4641448862
 33
0.0
 40
0.0
 40
0.0
 40
0.0
 40
0.0
 40
0.1530153495
 40
0.3024422212
 40
0.4447665503
 40
0.5766197167
 40
0.6949031276
 40
0.7968310081
 40
0.8800040106
 40
0.9424699896
 40
0.9827635986
 40
1.0
 40
1.0
 40
1.0
 40
1.0
 10
6.88937152
 20
5.4233474506
 30
0.0
 10
6.889371443
 20
5.3978528865
 30
0.0
 10
6.8893179195
 20
5.3474616781
 30
0.0
 10
6.8890787548
 20
5.2733572905
 30
0.0
 10
6.8886839504
 20
5.202780376
 30
0.0
 10
6.8881542312
 20
5.1373906498
 30
0.0
 10
6.8874698953
 20
5.0787421962
 30
0.0
 10
6.8867530201
 20
5.0281791771
 30
0.0
 10
6.8857325774
 20
4.9869961602
 30
0.0
 10
6.8852083735
 20
4.9558927499
 30
0.0
 10
6.8835552976
 20
4.9361851334
 30
0.0
 10
6.8836967073
 20
4.9263027784
 30
0.0
 10
6.8826308834
 20
4.9236360492
 30
0.0
 11
6.88937152
 21
5.4233474506
 31
0.0
 11
6.8892893561
 21
5.3468638026
 31
0.0
 11
6.8890447603
 21
5.2721741875
 31
0.0
 11
6.8886433297
 21
5.2010354625
 31
0.0
 11
6.8880946278
 21
5.1351318293
 31
0.0
 11
6.8874114735
 21
5.0760126098
 31
0.0
 11
6.8866099773
 21
5.02507095
 31
0.0
 11
6.8857090963
 21
4.9835072467
 31
0.0
 11
6.8847298107
 21
4.9522994087
 31
0.0
 11
6.8836958079
 21
4.9321854797
 31
0.0
 11
6.8826308834
 21
4.9236360492
 31
0.0
  0
SPLINE
  5
60D
100
AcDbEntity
  8
ASSI
100
AcDbSpline
 62
253
  6
CONTINUOUS
 70
0
 71
3
 72
17
 73
13
 74
11
 42
0.0000001
 43
0.0000001
 44
0.0000000001
 12
-0.1855069271
 22
0.4641448815
 32
0.0
 13
-0.000001509
 23
0.4998432665
 33
0.0
 40
0.0
 40
0.0
 40
0.0
 40
0.0
 40
0.0172364015
 40
0.0575300106
 40
0.1199959897
 40
0.2031689922
 40
0.3050968727
 40
0.4233802836
 40
0.5552334501
 40
0.6975577792
 40
0.8469846509
 40
1.0
 40
1.0
 40
1.0
 40
1.0
 10
6.99886853
 20
4.9236360492
 30
0.0
 10
6.997802706
 20
4.9263027784
 30
0.0
 10
6.9979441159
 20
4.9361851335
 30
0.0
 10
6.9962910399
 20
4.95589275
 30
0.0
 10
6.9957668361
 20
4.9869961604
 30
0.0
 10
6.9947463933
 20
5.0281791773
 30
0.0
 10
6.9940295181
 20
5.0787421964
 30
0.0
 10
6.9933451822
 20
5.1373906501
 30
0.0
 10
6.992815463
 20
5.2027803762
 30
0.0
 10
6.9924206586
 20
5.2733572908
 30
0.0
 10
6.9921814939
 20
5.3474616784
 30
0.0
 10
6.9921279704
 20
5.3978528867
 30
0.0
 10
6.9921278934
 20
5.4233474507
 30
0.0
 11
6.99886853
 21
4.9236360492
 31
0.0
 11
6.9978036055
 21
4.9321854797
 31
0.0
 11
6.9967696027
 21
4.9522994088
 31
0.0
 11
6.9957903171
 21
4.9835072469
 31
0.0
 11
6.9948894361
 21
5.0250709501
 31
0.0
 11
6.9940879399
 21
5.0760126101
 31
0.0
 11
6.9934047856
 21
5.1351318296
 31
0.0
 11
6.9928560837
 21
5.2010354628
 31
0.0
 11
6.9924546531
 21
5.2721741878
 31
0.0
 11
6.9922100573
 21
5.3468638029
 31
0.0
 11
6.9921278934
 21
5.4233474507
 31
0.0
  0
SPLINE
  5
60E
100
AcDbEntity
  8
ASSI
100
AcDbSpline
 62
253
  6
CONTINUOUS
 70
0
 71
3
 72
17
 73
13
 74
11
 42
0.0000001
 43
0.0000001
 44
0.0000000001
 12
-0.000001509
 22
-0.4998432663
 32
0.0
 13
-0.185506915
 23
-0.4641448862
 33
0.0
 40
0.0
 40
0.0
 40
0.0
 40
0.0
 40
0.1530153495
 40
0.3024422212
 40
0.4447665503
 40
0.5766197167
 40
0.6949031276
 40
0.7968310081
 40
0.8800040106
 40
0.9424699896
 40
0.9827635986
 40
1.0
 40
1.0
 40
1.0
 40
1.0
 10
-7.41062848
 20
5.4233474506
 30
0.0
 10
-7.410628557
 20
5.3978528865
 30
0.0
 10
-7.4106820805
 20
5.3474616781
 30
0.0
 10
-7.4109212452
 20
5.2733572905
 30
0.0
 10
-7.4113160496
 20
5.202780376
 30
0.0
 10
-7.4118457688
 20
5.1373906498
 30
0.0
 10
-7.4125301047
 20
5.0787421962
 30
0.0
 10
-7.4132469799
 20
5.0281791771
 30
0.0
 10
-7.4142674226
 20
4.9869961602
 30
0.0
 10
-7.4147916265
 20
4.9558927499
 30
0.0
 10
-7.4164447024
 20
4.9361851334
 30
0.0
 10
-7.4163032927
 20
4.9263027784
 30
0.0
 10
-7.4173691166
 20
4.9236360492
 30
0.0
 11
-7.41062848
 21
5.4233474506
 31
0.0
 11
-7.4107106439
 21
5.3468638026
 31
0.0
 11
-7.4109552397
 21
5.2721741875
 31
0.0
 11
-7.4113566703
 21
5.2010354625
 31
0.0
 11
-7.4119053722
 21
5.1351318293
 31
0.0
 11
-7.4125885265
 21
5.0760126098
 31
0.0
 11
-7.4133900227
 21
5.02507095
 31
0.0
 11
-7.4142909037
 21
4.9835072467
 31
0.0
 11
-7.4152701893
 21
4.9522994087
 31
0.0
 11
-7.4163041921
 21
4.9321854797
 31
0.0
 11
-7.4173691166
 21
4.9236360492
 31
0.0
  0
SPLINE
  5
60F
100
AcDbEntity
  8
ASSI
100
AcDbSpline
 62
253
  6
CONTINUOUS
 70
0
 71
3
 72
17
 73
13
 74
11
 42
0.0000001
 43
0.0000001
 44
0.0000000001
 12
-0.1855069271
 22
0.4641448815
 32
0.0
 13
-0.000001509
 23
0.4998432665
 33
0.0
 40
0.0
 40
0.0
 40
0.0
 40
0.0
 40
0.0172364015
 40
0.0575300106
 40
0.1199959897
 40
0.2031689922
 40
0.3050968727
 40
0.4233802836
 40
0.5552334501
 40
0.6975577792
 40
0.8469846509
 40
1.0
 40
1.0
 40
1.0
 40
1.0
 10
-7.30113147
 20
4.9236360492
 30
0.0
 10
-7.302197294
 20
4.9263027784
 30
0.0
 10
-7.3020558841
 20
4.9361851335
 30
0.0
 10
-7.3037089601
 20
4.95589275
 30
0.0
 10
-7.3042331639
 20
4.9869961604
 30
0.0
 10
-7.3052536067
 20
5.0281791773
 30
0.0
 10
-7.3059704819
 20
5.0787421964
 30
0.0
 10
-7.3066548178
 20
5.1373906501
 30
0.0
 10
-7.307184537
 20
5.2027803762
 30
0.0
 10
-7.3075793414
 20
5.2733572908
 30
0.0
 10
-7.3078185061
 20
5.3474616784
 30
0.0
 10
-7.3078720296
 20
5.3978528867
 30
0.0
 10
-7.3078721066
 20
5.4233474507
 30
0.0
 11
-7.30113147
 21
4.9236360492
 31
0.0
 11
-7.3021963945
 21
4.9321854797
 31
0.0
 11
-7.3032303973
 21
4.9522994088
 31
0.0
 11
-7.3042096829
 21
4.9835072469
 31
0.0
 11
-7.3051105639
 21
5.0250709501
 31
0.0
 11
-7.3059120601
 21
5.0760126101
 31
0.0
 11
-7.3065952144
 21
5.1351318296
 31
0.0
 11
-7.3071439163
 21
5.2010354628
 31
0.0
 11
-7.3075453469
 21
5.2721741878
 31
0.0
 11
-7.3077899427
 21
5.3468638029
 31
0.0
 11
-7.3078721066
 21
5.4233474507
 31
0.0
  0
SPLINE
  5
610
100
AcDbEntity
  8
ASSI
100
AcDbSpline
 62
253
  6
CONTINUOUS
 70
0
 71
3
 72
13
 73
9
 74
7
 42
0.0000001
 43
0.0000001
 44
0.0000000001
 12
0.0049371296
 22
-0.3535273384
 32
0.0
 13
0.000000663
 23
-0.3535618111
 33
0.0
 40
0.0
 40
0.0
 40
0.0
 40
0.0
 40
0.1390722399
 40
0.2928914527
 40
0.4588232532
 40
0.6340132458
 40
0.8154446221
 40
1.0
 40
1.0
 40
1.0
 40
1.0
 10
-7.4126741078
 20
7.1280190477
 30
0.0
 10
-7.4124452353
 20
7.1116304347
 30
0.0
 10
-7.412028662
 20
7.0771144651
 30
0.0
 10
-7.4115302166
 20
7.023042582
 30
0.0
 10
-7.4111324851
 20
6.9647131411
 30
0.0
 10
-7.4108432393
 20
6.9031288302
 30
0.0
 10
-7.4106676226
 20
6.8393492255
 30
0.0
 10
-7.4106285373
 20
6.796216235
 30
0.0
 10
-7.4106284965
 20
6.7744656571
 30
0.0
 11
-7.4126741078
 21
7.1280190477
 31
0.0
 11
-7.412071819
 21
7.0788521035
 31
0.0
 11
-7.4115642985
 21
7.0244698722
 31
0.0
 11
-7.4111601091
 21
6.9658041167
 31
0.0
 11
-7.4108664035
 21
6.903864322
 31
0.0
 11
-7.4106882179
 21
6.8397173634
 31
0.0
 11
-7.4106284965
 21
6.7744656571
 31
0.0
  0
SPLINE
  5
611
100
AcDbEntity
  8
ASSI
100
AcDbSpline
 62
253
  6
CONTINUOUS
 70
0
 71
3
 72
13
 73
9
 74
7
 42
0.0000001
 43
0.0000001
 44
0.0000000001
 12
0.000000663
 22
0.3535618111
 32
0.0
 13
0.0049371293
 23
0.3535273384
 33
0.0
 40
0.0
 40
0.0
 40
0.0
 40
0.0
 40
0.184555379
 40
0.3659867553
 40
0.5411767479
 40
0.7071085483
 40
0.8609277611
 40
1.0
 40
1.0
 40
1.0
 40
1.0
 10
-7.3078720901
 20
6.7744656571
 30
0.0
 10
-7.3078720493
 20
6.7962162351
 30
0.0
 10
-7.307832964
 20
6.8393492258
 30
0.0
 10
-7.3076573473
 20
6.9031288306
 30
0.0
 10
-7.3073681015
 20
6.9647131415
 30
0.0
 10
-7.30697037
 20
7.0230425824
 30
0.0
 10
-7.3064719246
 20
7.0771144653
 30
0.0
 10
-7.3060553513
 20
7.1116304349
 30
0.0
 10
-7.3058264787
 20
7.1280190477
 30
0.0
 11
-7.3078720901
 21
6.7744656571
 31
0.0
 11
-7.3078123687
 21
6.8397173638
 31
0.0
 11
-7.3076341831
 21
6.9038643223
 31
0.0
 11
-7.3073404775
 21
6.9658041171
 31
0.0
 11
-7.3069362881
 21
7.0244698726
 31
0.0
 11
-7.3064287676
 21
7.0788521039
 31
0.0
 11
-7.3058264787
 21
7.1280190477
 31
0.0
  0
SPLINE
  5
612
100
AcDbEntity
  8
ASSI
100
AcDbSpline
 62
253
  6
CONTINUOUS
 70
0
 71
3
 72
15
 73
11
 74
9
 42
0.0000001
 43
0.0000001
 44
0.0000000001
 12
-0.4014143352
 22
-0.0070088515
 32
0.0
 13
-0.0139942492
 23
-0.401231546
 33
0.0
 40
0.0
 40
0.0
 40
0.0
 40
0.0
 40
0.1440045699
 40
0.2856957779
 40
0.4226392486
 40
0.5528846346
 40
0.6752427483
 40
0.7895687529
 40
0.8969985064
 40
1.0
 40
1.0
 40
1.0
 40
1.0
 10
-7.4126741078
 20
7.1280190477
 30
0.0
 10
-7.4319426074
 20
7.1276826121
 30
0.0
 10
-7.4701767819
 20
7.1244133354
 30
0.0
 10
-7.5255110603
 20
7.1118739587
 30
0.0
 10
-7.5767727974
 20
7.0921468867
 30
0.0
 10
-7.6220971203
 20
7.0659096379
 30
0.0
 10
-7.6598382136
 20
7.0340452478
 30
0.0
 10
-7.6885682563
 20
6.9975874504
 30
0.0
 10
-7.7070744304
 20
6.9577981251
 30
0.0
 10
-7.7120108798
 20
6.9296628295
 30
0.0
 10
-7.712491356
 20
6.9158870133
 30
0.0
 11
-7.4126741078
 21
7.1280190477
 31
0.0
 11
-7.47027568
 21
7.1230639225
 31
0.0
 11
-7.5257324454
 21
7.1103945456
 31
0.0
 11
-7.5769794656
 21
7.0904826657
 31
0.0
 11
-7.6221085544
 21
7.0640697074
 31
0.0
 11
-7.6594393301
 21
7.0321391631
 31
0.0
 11
-7.6875817839
 21
6.9958799719
 31
0.0
 11
-7.7054880367
 21
6.956642249
 31
0.0
 11
-7.712491356
 21
6.9158870133
 31
0.0
  0
SPLINE
  5
613
100
AcDbEntity
  8
ASSI
100
AcDbSpline
 62
253
  6
CONTINUOUS
 70
0
 71
3
 72
15
 73
11
 74
9
 42
0.0000001
 43
0.0000001
 44
0.0000000001
 12
-0.4014143357
 22
-0.0070088488
 32
0.0
 13
-0.0139942489
 23
-0.4012315464
 33
0.0
 40
0.0
 40
0.0
 40
0.0
 40
0.0
 40
0.1440044844
 40
0.2856956272
 40
0.4226390599
 40
0.5528844372
 40
0.67524257
 40
0.7895686166
 40
0.89699843
 40
1.0
 40
1.0
 40
1.0
 40
1.0
 10
-7.4338747438
 20
7.7351258289
 30
0.0
 10
-7.453143232
 20
7.7347893937
 30
0.0
 10
-7.4913773863
 20
7.7315201204
 30
0.0
 10
-7.5467116414
 20
7.718980756
 30
0.0
 10
-7.597973368
 20
7.6992536991
 30
0.0
 10
-7.6432976941
 20
7.6730164632
 30
0.0
 10
-7.6810388019
 20
7.6411520795
 30
0.0
 10
-7.7097688656
 20
7.6046942777
 30
0.0
 10
-7.7282750598
 20
7.5649049348
 30
0.0
 10
-7.7332115154
 20
7.5367696209
 30
0.0
 10
-7.7336919919
 20
7.5229937945
 30
0.0
 11
-7.4338747438
 21
7.7351258289
 31
0.0
 11
-7.4914762821
 21
7.7301707094
 31
0.0
 11
-7.5469330236
 21
7.7175013451
 31
0.0
 11
-7.5981800333
 21
7.6975894805
 31
0.0
 11
-7.6433091258
 21
7.6711765352
 31
0.0
 11
-7.6806399166
 21
7.6392459966
 31
0.0
 11
-7.7087823914
 21
7.6029868004
 31
0.0
 11
-7.7266886636
 21
7.5637490598
 31
0.0
 11
-7.7336919919
 21
7.5229937945
 31
0.0
  0
ELLIPSE
  5
614
100
AcDbEntity
  8
RACCORDO
100
AcDbEllipse
 62
7
  6
CONTINUOUS
 10
10.4276000006
 20
-10.579339306
 30
0.0
 11
0.498078285
 21
0.0448076117
 31
0.0
 40
0.9965957691
 41
-1.6608206152
 42
-0.0909376769
  0
ELLIPSE
  5
615
100
AcDbEntity
  8
RACCORDO
100
AcDbEllipse
 62
7
  6
CONTINUOUS
 10
-10.8461005871
 20
-10.579339306
 30
0.0
 11
0.498078285
 21
-0.0448076117
 31
0.0
 40
0.9965957691
 41
-3.0506549766
 42
-1.4807720384
  0
ELLIPSE
  5
616
100
AcDbEntity
  8
RACCORDO
100
AcDbEllipse
 62
7
  6
CONTINUOUS
 10
10.7407192411
 20
10.7815648226
 30
0.0
 11
-0.1789222233
 21
-0.0894542984
 31
-0.0
 40
0.9998096356
 41
2.6780516535
 42
4.2486956813
  0
ELLIPSE
  5
617
100
AcDbEntity
  8
RACCORDO
100
AcDbEllipse
 62
7
  6
CONTINUOUS
 10
-11.1592198277
 20
10.7815648226
 30
0.0
 11
-0.1789222233
 21
0.0894542984
 31
-0.0
 40
0.9998096356
 41
-1.1071030277
 42
0.4635410001
  0
ELLIPSE
  5
618
100
AcDbEntity
  8
RACCORDO
100
AcDbEllipse
 62
7
  6
CONTINUOUS
 10
-7.4937802395
 20
-11.0511478874
 30
0.0
 11
0.2
 21
0.0
 31
0.0
 40
0.0524077793
 41
1.5707963268
 42
2.617993878
  0
ELLIPSE
  5
619
100
AcDbEntity
  8
RACCORDO
100
AcDbEllipse
 62
7
  6
CONTINUOUS
 10
-4.1247203471
 20
-11.0511478874
 30
0.0
 11
0.2
 21
-0.0
 31
0.0
 40
0.0524077793
 41
0.5235987756
 42
1.5707963268
  0
ELLIPSE
  5
61A
100
AcDbEntity
  8
RACCORDO
100
AcDbEllipse
 62
7
  6
CONTINUOUS
 10
3.7062197605
 20
-11.0511478874
 30
0.0
 11
0.2
 21
-0.0
 31
0.0
 40
0.0524077793
 41
1.5707963268
 42
2.617993878
  0
ELLIPSE
  5
61B
100
AcDbEntity
  8
RACCORDO
100
AcDbEllipse
 62
7
  6
CONTINUOUS
 10
7.0752796529
 20
-11.0511478874
 30
0.0
 11
0.2
 21
-0.0
 31
0.0
 40
0.0524077793
 41
0.5235987756
 42
1.5707963268
  0
ELLIPSE
  5
61C
100
AcDbEntity
  8
RACCORDO
100
AcDbEllipse
 62
7
  6
CONTINUOUS
 10
5.3207697188
 20
-8.6858347785
 30
0.0
 11
0.0096324734
 21
0.5915363915
 31
0.0
 40
0.4225722455
 41
-4.6738730357
 42
-3.1347116709
  0
ELLIPSE
  5
61D
100
AcDbEntity
  8
RACCORDO
100
AcDbEllipse
 62
7
  6
CONTINUOUS
 10
-5.7392703054
 20
-8.6858347785
 30
0.0
 11
-0.0096324734
 21
0.5915363915
 31
0.0
 40
0.4225722455
 41
-3.1484736363
 42
-1.6093122714
  0
ELLIPSE
  5
61E
100
AcDbEntity
  8
RACCORDO
100
AcDbEllipse
 62
7
  6
CONTINUOUS
 10
-5.8792302812
 20
-8.6858347785
 30
0.0
 11
0.0096324734
 21
0.5915363915
 31
0.0
 40
0.4225722455
 41
-4.6738730357
 42
-3.1347116709
  0
ELLIPSE
  5
61F
100
AcDbEntity
  8
RACCORDO
100
AcDbEllipse
 62
7
  6
CONTINUOUS
 10
-5.7183178437
 20
-6.2722842147
 30
0.0
 11
0.0493464685
 21
0.2491672984
 31
0.0
 40
0.9842259085
 41
0.1636613736
 42
0.1925076875
  0
ELLIPSE
  5
620
100
AcDbEntity
  8
RACCORDO
100
AcDbEllipse
 62
7
  6
CONTINUOUS
 10
-5.9001827429
 20
-6.2722842147
 30
0.0
 11
-0.0493464685
 21
0.2491672984
 31
0.0
 40
0.9842259085
 41
-0.1925076875
 42
-0.1636613736
  0
ELLIPSE
  5
621
100
AcDbEntity
  8
RACCORDO
100
AcDbEllipse
 62
7
  6
CONTINUOUS
 10
5.4816821563
 20
-6.2722842147
 30
0.0
 11
0.0493464685
 21
0.2491672984
 31
0.0
 40
0.9842259085
 41
0.1636613736
 42
0.1925076875
  0
ELLIPSE
  5
622
100
AcDbEntity
  8
RACCORDO
100
AcDbEllipse
 62
7
  6
CONTINUOUS
 10
5.2998172571
 20
-6.2722842147
 30
0.0
 11
-0.0493464685
 21
0.2491672984
 31
0.0
 40
0.9842259085
 41
-0.1925076875
 42
-0.1636613736
  0
ELLIPSE
  5
623
100
AcDbEntity
  8
RACCORDO
100
AcDbEllipse
 62
7
  6
CONTINUOUS
 10
9.6343348467
 20
11.0815724383
 30
0.0
 11
0.0
 21
498.5
 31
0.0
 40
0.0349207695
 41
-4.7097523516
 42
-4.7005263624
  0
ELLIPSE
  5
624
100
AcDbEntity
  8
RACCORDO
100
AcDbEllipse
 62
7
  6
CONTINUOUS
 10
-24.3528354333
 20
11.0815724383
 30
0.0
 11
0.0
 21
498.5
 31
0.0
 40
0.0349207695
 41
-1.5826589448
 42
-1.5734329556
  0
ELLIPSE
  5
625
100
AcDbEntity
  8
RACCORDO
100
AcDbEllipse
 62
7
  6
CONTINUOUS
 10
23.9343348467
 20
11.0815724383
 30
0.0
 11
0.0
 21
498.5
 31
0.0
 40
0.0349207695
 41
-4.7097523516
 42
-4.7005263624
  0
ELLIPSE
  5
626
100
AcDbEntity
  8
RACCORDO
100
AcDbEllipse
 62
7
  6
CONTINUOUS
 10
-10.0528354333
 20
11.0815724383
 30
0.0
 11
0.0
 21
498.5
 31
0.0
 40
0.0349207695
 41
-1.5826589448
 42
-1.5734329556
  0
ELLIPSE
  5
627
100
AcDbEntity
  8
RACCORDO
100
AcDbEllipse
 62
7
  6
CONTINUOUS
 10
7.0235566025
 20
9.7985826792
 30
0.0
 11
0.3
 21
0.0
 31
0.0
 40
0.0349207695
 41
0.034906585
 42
1.5707963268
  0
ELLIPSE
  5
628
100
AcDbEntity
  8
RACCORDO
100
AcDbEllipse
 62
7
  6
CONTINUOUS
 10
-22.8028354333
 20
11.0815724383
 30
0.0
 11
0.0
 21
498.5
 31
0.0
 40
0.0349207695
 41
-1.6111588629
 42
-1.6025912052
  0
ELLIPSE
  5
629
100
AcDbEntity
  8
RACCORDO
100
AcDbEllipse
 62
7
  6
CONTINUOUS
 10
-5.4159883703
 20
-9.0256186951
 30
0.0
 11
-0.0
 21
0.2
 31
0.0
 40
0.0349207695
 41
-3.019419606
 42
-1.6111588629
  0
ELLIPSE
  5
62A
100
AcDbEntity
  8
RACCORDO
100
AcDbEllipse
 62
7
  6
CONTINUOUS
 10
-6.2025122163
 20
-9.0256186951
 30
0.0
 11
0.0
 21
0.2
 31
0.0
 40
0.0349207695
 41
-4.6720264443
 42
-3.2637657012
  0
ELLIPSE
  5
62B
100
AcDbEntity
  8
RACCORDO
100
AcDbEllipse
 62
7
  6
CONTINUOUS
 10
11.1843348467
 20
11.0815724383
 30
0.0
 11
0.0
 21
498.5
 31
0.0
 40
0.0349207695
 41
-4.680594102
 42
-4.6720264443
  0
ELLIPSE
  5
62C
100
AcDbEntity
  8
RACCORDO
100
AcDbEllipse
 62
7
  6
CONTINUOUS
 10
-11.6028354333
 20
11.0815724383
 30
0.0
 11
0.0
 21
498.5
 31
0.0
 40
0.0349207695
 41
-1.6111588629
 42
-1.6025912052
  0
ELLIPSE
  5
62D
100
AcDbEntity
  8
RACCORDO
100
AcDbEllipse
 62
7
  6
CONTINUOUS
 10
5.7840116297
 20
-9.0256186951
 30
0.0
 11
0.0
 21
0.2
 31
0.0
 40
0.0349207695
 41
-3.019419606
 42
-1.6111588629
  0
ELLIPSE
  5
62E
100
AcDbEntity
  8
RACCORDO
100
AcDbEllipse
 62
7
  6
CONTINUOUS
 10
4.9974877837
 20
-9.0256186951
 30
0.0
 11
-0.0
 21
0.2
 31
0.0
 40
0.0349207695
 41
-4.6720264443
 42
-3.2637657012
  0
ELLIPSE
  5
62F
100
AcDbEntity
  8
RACCORDO
100
AcDbEllipse
 62
7
  6
CONTINUOUS
 10
22.3843348467
 20
11.0815724383
 30
0.0
 11
0.0
 21
498.5
 31
0.0
 40
0.0349207695
 41
-4.680594102
 42
-4.6720264443
  0
ELLIPSE
  5
630
100
AcDbEntity
  8
RACCORDO
100
AcDbEllipse
 62
7
  6
CONTINUOUS
 10
3.3306874452
 20
7.3610701204
 30
0.0
 11
0.3
 21
-0.0
 31
0.0
 40
0.0349207695
 41
-1.5707963268
 42
-0.3490658504
  0
ELLIPSE
  5
631
100
AcDbEntity
  8
RACCORDO
100
AcDbEllipse
 62
7
  6
CONTINUOUS
 10
-3.7491880318
 20
7.3610701204
 30
0.0
 11
0.3
 21
-0.0
 31
0.0
 40
0.0349207695
 41
-2.7925268032
 42
-1.5707963268
  0
ELLIPSE
  5
632
100
AcDbEntity
  8
RACCORDO
100
AcDbEllipse
 62
7
  6
CONTINUOUS
 10
3.3306874452
 20
5.8020747562
 30
0.0
 11
0.3
 21
-0.0
 31
0.0
 40
0.0349207695
 41
0.3490658504
 42
1.5707963268
  0
ELLIPSE
  5
633
100
AcDbEntity
  8
RACCORDO
100
AcDbEllipse
 62
7
  6
CONTINUOUS
 10
-3.7491880318
 20
5.8020747562
 30
0.0
 11
0.3
 21
0.0
 31
0.0
 40
0.0349207695
 41
1.5707963268
 42
2.7925268032
  0
ELLIPSE
  5
634
100
AcDbEntity
  8
RACCORDO
100
AcDbEllipse
 62
7
  6
CONTINUOUS
 10
6.8579428109
 20
9.7985826792
 30
0.0
 11
0.3
 21
-0.0
 31
0.0
 40
0.0349207695
 41
1.5707963268
 42
3.1066860685
  0
ELLIPSE
  5
635
100
AcDbEntity
  8
RACCORDO
100
AcDbEllipse
 62
7
  6
CONTINUOUS
 10
-7.2764433975
 20
9.7985826792
 30
0.0
 11
0.3
 21
0.0
 31
0.0
 40
0.0349207695
 41
0.034906585
 42
1.5707963268
  0
ELLIPSE
  5
636
100
AcDbEntity
  8
RACCORDO
100
AcDbEllipse
 62
7
  6
CONTINUOUS
 10
-7.4937802395
 20
-9.5088076325
 30
0.0
 11
0.2
 21
-0.0
 31
0.0
 40
0.1227845609
 41
1.5707963268
 42
2.617993878
  0
ELLIPSE
  5
637
100
AcDbEntity
  8
RACCORDO
100
AcDbEllipse
 62
7
  6
CONTINUOUS
 10
-4.1247203471
 20
-9.5088076325
 30
0.0
 11
0.2
 21
-0.0
 31
0.0
 40
0.1227845609
 41
0.5235987756
 42
1.5707963268
  0
ELLIPSE
  5
638
100
AcDbEntity
  8
RACCORDO
100
AcDbEllipse
 62
7
  6
CONTINUOUS
 10
3.7062197605
 20
-9.5088076325
 30
0.0
 11
0.2
 21
-0.0
 31
0.0
 40
0.1227845609
 41
1.5707963268
 42
2.617993878
  0
ELLIPSE
  5
639
100
AcDbEntity
  8
RACCORDO
100
AcDbEllipse
 62
7
  6
CONTINUOUS
 10
7.0752796529
 20
-9.5088076325
 30
0.0
 11
0.2
 21
-0.0
 31
0.0
 40
0.1227845609
 41
0.5235987756
 42
1.5707963268
  0
ELLIPSE
  5
63A
100
AcDbEntity
  8
RACCORDO
100
AcDbEllipse
 62
7
  6
CONTINUOUS
 10
-7.4420571891
 20
9.7985826792
 30
0.0
 11
0.3
 21
0.0
 31
0.0
 40
0.0349207695
 41
1.5707963268
 42
3.1066860685
  0
ELLIPSE
  5
63B
100
AcDbEntity
  8
RACCORDO
100
AcDbEllipse
 62
7
  6
CONTINUOUS
 10
9.4794653804
 20
-9.3877623079
 30
0.0
 11
0.1992395838
 21
-0.0178260286
 31
0.0
 40
0.9965982379
 41
-1.4812606428
 42
0.0874087691
  0
ELLIPSE
  5
63C
100
AcDbEntity
  8
RACCORDO
100
AcDbEllipse
 62
7
  6
CONTINUOUS
 10
5.4607296946
 20
-8.6858347785
 30
0.0
 11
-0.0096324734
 21
0.5915363915
 31
0.0
 40
0.4225722455
 41
-3.1484736363
 42
-1.6093122714
  0
ELLIPSE
  5
63D
100
AcDbEntity
  8
RACCORDO
100
AcDbEllipse
 62
7
  6
CONTINUOUS
 10
-9.897965967
 20
-9.3877623079
 30
0.0
 11
0.1992395838
 21
0.0178260286
 31
0.0
 40
0.9965982379
 41
3.0541838845
 42
4.6228532963
  0
ELLIPSE
  5
63E
100
AcDbEntity
  8
ASSI
100
AcDbEllipse
 62
7
  6
CONTINUOUS
 10
10.4276000006
 20
-10.579339306
 30
0.0
 11
0.498078285
 21
0.0448076117
 31
0.0
 40
0.9965957691
 41
-1.6608206152
 42
-0.0909376769
  0
ELLIPSE
  5
63F
100
AcDbEntity
  8
ASSI
100
AcDbEllipse
 62
7
  6
CONTINUOUS
 10
-10.8461005871
 20
-10.579339306
 30
0.0
 11
0.498078285
 21
-0.0448076117
 31
0.0
 40
0.9965957691
 41
-3.0506549766
 42
-1.4807720384
  0
ELLIPSE
  5
640
100
AcDbEntity
  8
ASSI
100
AcDbEllipse
 62
7
  6
CONTINUOUS
 10
10.7407192411
 20
10.7815648226
 30
0.0
 11
-0.1789222233
 21
-0.0894542984
 31
-0.0
 40
0.9998096356
 41
2.6780516535
 42
4.2486956813
  0
ELLIPSE
  5
641
100
AcDbEntity
  8
ASSI
100
AcDbEllipse
 62
7
  6
CONTINUOUS
 10
-11.1592198277
 20
10.7815648226
 30
0.0
 11
-0.1789222233
 21
0.0894542984
 31
-0.0
 40
0.9998096356
 41
-1.1071030277
 42
0.4635410001
  0
ELLIPSE
  5
642
100
AcDbEntity
  8
ASSI
100
AcDbEllipse
 62
7
  6
CONTINUOUS
 10
-7.4937802395
 20
-11.0511478874
 30
0.0
 11
0.2
 21
0.0
 31
0.0
 40
0.0524077793
 41
1.5707963268
 42
2.617993878
  0
ELLIPSE
  5
643
100
AcDbEntity
  8
ASSI
100
AcDbEllipse
 62
7
  6
CONTINUOUS
 10
-4.1247203471
 20
-11.0511478874
 30
0.0
 11
0.2
 21
-0.0
 31
0.0
 40
0.0524077793
 41
0.5235987756
 42
1.5707963268
  0
ELLIPSE
  5
644
100
AcDbEntity
  8
ASSI
100
AcDbEllipse
 62
7
  6
CONTINUOUS
 10
3.7062197605
 20
-11.0511478874
 30
0.0
 11
0.2
 21
-0.0
 31
0.0
 40
0.0524077793
 41
1.5707963268
 42
2.617993878
  0
ELLIPSE
  5
645
100
AcDbEntity
  8
ASSI
100
AcDbEllipse
 62
7
  6
CONTINUOUS
 10
7.0752796529
 20
-11.0511478874
 30
0.0
 11
0.2
 21
-0.0
 31
0.0
 40
0.0524077793
 41
0.5235987756
 42
1.5707963268
  0
ELLIPSE
  5
646
100
AcDbEntity
  8
ASSI
100
AcDbEllipse
 62
7
  6
CONTINUOUS
 10
5.3207697188
 20
-8.6858347785
 30
0.0
 11
0.0096324734
 21
0.5915363915
 31
0.0
 40
0.4225722455
 41
-4.6738730357
 42
-3.1347116709
  0
ELLIPSE
  5
647
100
AcDbEntity
  8
ASSI
100
AcDbEllipse
 62
7
  6
CONTINUOUS
 10
-5.7392703054
 20
-8.6858347785
 30
0.0
 11
-0.0096324734
 21
0.5915363915
 31
0.0
 40
0.4225722455
 41
-3.1484736363
 42
-1.6093122714
  0
ELLIPSE
  5
648
100
AcDbEntity
  8
ASSI
100
AcDbEllipse
 62
7
  6
CONTINUOUS
 10
-5.8792302812
 20
-8.6858347785
 30
0.0
 11
0.0096324734
 21
0.5915363915
 31
0.0
 40
0.4225722455
 41
-4.6738730357
 42
-3.1347116709
  0
ELLIPSE
  5
649
100
AcDbEntity
  8
ASSI
100
AcDbEllipse
 62
7
  6
CONTINUOUS
 10
-5.7183178437
 20
-6.2722842147
 30
0.0
 11
0.0493464685
 21
0.2491672984
 31
0.0
 40
0.9842259085
 41
0.1636613736
 42
0.1925076875
  0
ELLIPSE
  5
64A
100
AcDbEntity
  8
ASSI
100
AcDbEllipse
 62
7
  6
CONTINUOUS
 10
-5.9001827429
 20
-6.2722842147
 30
0.0
 11
-0.0493464685
 21
0.2491672984
 31
0.0
 40
0.9842259085
 41
-0.1925076875
 42
-0.1636613736
  0
ELLIPSE
  5
64B
100
AcDbEntity
  8
ASSI
100
AcDbEllipse
 62
7
  6
CONTINUOUS
 10
5.4816821563
 20
-6.2722842147
 30
0.0
 11
0.0493464685
 21
0.2491672984
 31
0.0
 40
0.9842259085
 41
0.1636613736
 42
0.1925076875
  0
ELLIPSE
  5
64C
100
AcDbEntity
  8
ASSI
100
AcDbEllipse
 62
7
  6
CONTINUOUS
 10
5.2998172571
 20
-6.2722842147
 30
0.0
 11
-0.0493464685
 21
0.2491672984
 31
0.0
 40
0.9842259085
 41
-0.1925076875
 42
-0.1636613736
  0
ELLIPSE
  5
64D
100
AcDbEntity
  8
ASSI
100
AcDbEllipse
 62
7
  6
CONTINUOUS
 10
9.6343348467
 20
11.0815724383
 30
0.0
 11
0.0
 21
498.5
 31
0.0
 40
0.0349207695
 41
-4.7097523516
 42
-4.7005263624
  0
ELLIPSE
  5
64E
100
AcDbEntity
  8
ASSI
100
AcDbEllipse
 62
7
  6
CONTINUOUS
 10
-24.3528354333
 20
11.0815724383
 30
0.0
 11
0.0
 21
498.5
 31
0.0
 40
0.0349207695
 41
-1.5826589448
 42
-1.5734329556
  0
ELLIPSE
  5
64F
100
AcDbEntity
  8
ASSI
100
AcDbEllipse
 62
7
  6
CONTINUOUS
 10
23.9343348467
 20
11.0815724383
 30
0.0
 11
0.0
 21
498.5
 31
0.0
 40
0.0349207695
 41
-4.7097523516
 42
-4.7005263624
  0
ELLIPSE
  5
650
100
AcDbEntity
  8
ASSI
100
AcDbEllipse
 62
7
  6
CONTINUOUS
 10
-22.8028354333
 20
11.0815724383
 30
0.0
 11
0.0
 21
498.5
 31
0.0
 40
0.0349207695
 41
-1.6111588629
 42
-1.6025912052
  0
ELLIPSE
  5
651
100
AcDbEntity
  8
ASSI
100
AcDbEllipse
 62
7
  6
CONTINUOUS
 10
-5.4159883703
 20
-9.0256186951
 30
0.0
 11
-0.0
 21
0.2
 31
0.0
 40
0.0349207695
 41
-3.019419606
 42
-1.6111588629
  0
ELLIPSE
  5
652
100
AcDbEntity
  8
ASSI
100
AcDbEllipse
 62
7
  6
CONTINUOUS
 10
-6.2025122163
 20
-9.0256186951
 30
0.0
 11
0.0
 21
0.2
 31
0.0
 40
0.0349207695
 41
-4.6720264443
 42
-3.2637657012
  0
ELLIPSE
  5
653
100
AcDbEntity
  8
ASSI
100
AcDbEllipse
 62
7
  6
CONTINUOUS
 10
11.1843348467
 20
11.0815724383
 30
0.0
 11
0.0
 21
498.5
 31
0.0
 40
0.0349207695
 41
-4.680594102
 42
-4.6720264443
  0
ELLIPSE
  5
654
100
AcDbEntity
  8
ASSI
100
AcDbEllipse
 62
7
  6
CONTINUOUS
 10
-11.6028354333
 20
11.0815724383
 30
0.0
 11
0.0
 21
498.5
 31
0.0
 40
0.0349207695
 41
-1.6111588629
 42
-1.6025912052
  0
ELLIPSE
  5
655
100
AcDbEntity
  8
ASSI
100
AcDbEllipse
 62
7
  6
CONTINUOUS
 10
5.7840116297
 20
-9.0256186951
 30
0.0
 11
0.0
 21
0.2
 31
0.0
 40
0.0349207695
 41
-3.019419606
 42
-1.6111588629
  0
ELLIPSE
  5
656
100
AcDbEntity
  8
ASSI
100
AcDbEllipse
 62
7
  6
CONTINUOUS
 10
4.9974877837
 20
-9.0256186951
 30
0.0
 11
-0.0
 21
0.2
 31
0.0
 40
0.0349207695
 41
-4.6720264443
 42
-3.2637657012
  0
ELLIPSE
  5
657
100
AcDbEntity
  8
ASSI
100
AcDbEllipse
 62
7
  6
CONTINUOUS
 10
22.3843348467
 20
11.0815724383
 30
0.0
 11
0.0
 21
498.5
 31
0.0
 40
0.0349207695
 41
-4.680594102
 42
-4.6720264443
  0
ELLIPSE
  5
658
100
AcDbEntity
  8
ASSI
100
AcDbEllipse
 62
7
  6
CONTINUOUS
 10
3.3306874452
 20
7.3610701204
 30
0.0
 11
0.3
 21
-0.0
 31
0.0
 40
0.0349207695
 41
-1.5707963268
 42
-0.3490658504
  0
ELLIPSE
  5
659
100
AcDbEntity
  8
ASSI
100
AcDbEllipse
 62
7
  6
CONTINUOUS
 10
-10.0528354333
 20
11.0815724383
 30
0.0
 11
0.0
 21
498.5
 31
0.0
 40
0.0349207695
 41
-1.5826589448
 42
-1.5734329556
  0
ELLIPSE
  5
65A
100
AcDbEntity
  8
ASSI
100
AcDbEllipse
 62
7
  6
CONTINUOUS
 10
-3.7491880318
 20
7.3610701204
 30
0.0
 11
0.3
 21
-0.0
 31
0.0
 40
0.0349207695
 41
-2.7925268032
 42
-1.5707963268
  0
ELLIPSE
  5
65B
100
AcDbEntity
  8
ASSI
100
AcDbEllipse
 62
7
  6
CONTINUOUS
 10
3.3306874452
 20
5.8020747562
 30
0.0
 11
0.3
 21
-0.0
 31
0.0
 40
0.0349207695
 41
0.3490658504
 42
1.5707963268
  0
ELLIPSE
  5
65C
100
AcDbEntity
  8
ASSI
100
AcDbEllipse
 62
7
  6
CONTINUOUS
 10
-3.7491880318
 20
5.8020747562
 30
0.0
 11
0.3
 21
0.0
 31
0.0
 40
0.0349207695
 41
1.5707963268
 42
2.7925268032
  0
ELLIPSE
  5
65D
100
AcDbEntity
  8
ASSI
100
AcDbEllipse
 62
7
  6
CONTINUOUS
 10
7.0235566025
 20
9.7985826792
 30
0.0
 11
0.3
 21
0.0
 31
0.0
 40
0.0349207695
 41
0.034906585
 42
1.5707963268
  0
ELLIPSE
  5
65E
100
AcDbEntity
  8
ASSI
100
AcDbEllipse
 62
7
  6
CONTINUOUS
 10
6.8579428109
 20
9.7985826792
 30
0.0
 11
0.3
 21
-0.0
 31
0.0
 40
0.0349207695
 41
1.5707963268
 42
3.1066860685
  0
ELLIPSE
  5
65F
100
AcDbEntity
  8
ASSI
100
AcDbEllipse
 62
7
  6
CONTINUOUS
 10
-7.4937802395
 20
-9.5088076325
 30
0.0
 11
0.2
 21
-0.0
 31
0.0
 40
0.1227845609
 41
1.5707963268
 42
2.617993878
  0
ELLIPSE
  5
660
100
AcDbEntity
  8
ASSI
100
AcDbEllipse
 62
7
  6
CONTINUOUS
 10
-4.1247203471
 20
-9.5088076325
 30
0.0
 11
0.2
 21
-0.0
 31
0.0
 40
0.1227845609
 41
0.5235987756
 42
1.5707963268
  0
ELLIPSE
  5
661
100
AcDbEntity
  8
ASSI
100
AcDbEllipse
 62
7
  6
CONTINUOUS
 10
3.7062197605
 20
-9.5088076325
 30
0.0
 11
0.2
 21
-0.0
 31
0.0
 40
0.1227845609
 41
1.5707963268
 42
2.617993878
  0
ELLIPSE
  5
662
100
AcDbEntity
  8
ASSI
100
AcDbEllipse
 62
7
  6
CONTINUOUS
 10
7.0752796529
 20
-9.5088076325
 30
0.0
 11
0.2
 21
-0.0
 31
0.0
 40
0.1227845609
 41
0.5235987756
 42
1.5707963268
  0
ELLIPSE
  5
663
100
AcDbEntity
  8
ASSI
100
AcDbEllipse
 62
7
  6
CONTINUOUS
 10
-7.2764433975
 20
9.7985826792
 30
0.0
 11
0.3
 21
0.0
 31
0.0
 40
0.0349207695
 41
0.034906585
 42
1.5707963268
  0
ELLIPSE
  5
664
100
AcDbEntity
  8
ASSI
100
AcDbEllipse
 62
7
  6
CONTINUOUS
 10
-7.4420571891
 20
9.7985826792
 30
0.0
 11
0.3
 21
0.0
 31
0.0
 40
0.0349207695
 41
1.5707963268
 42
3.1066860685
  0
ELLIPSE
  5
665
100
AcDbEntity
  8
ASSI
100
AcDbEllipse
 62
7
  6
CONTINUOUS
 10
9.4794653804
 20
-9.3877623079
 30
0.0
 11
0.1992395838
 21
-0.0178260286
 31
0.0
 40
0.9965982379
 41
-1.4812606428
 42
0.0874087691
  0
ELLIPSE
  5
666
100
AcDbEntity
  8
ASSI
100
AcDbEllipse
 62
7
  6
CONTINUOUS
 10
-9.897965967
 20
-9.3877623079
 30
0.0
 11
0.1992395838
 21
0.0178260286
 31
0.0
 40
0.9965982379
 41
3.0541838845
 42
4.6228532963
  0
ELLIPSE
  5
667
100
AcDbEntity
  8
ASSI
100
AcDbEllipse
 62
7
  6
CONTINUOUS
 10
5.4607296946
 20
-8.6858347785
 30
0.0
 11
-0.0096324734
 21
0.5915363915
 31
0.0
 40
0.4225722455
 41
-3.1484736363
 42
-1.6093122714
  0
ENDSEC
  0
SECTION
  2
OBJECTS
  0
DICTIONARY
  5
C
100
AcDbDictionary
280
0
281
1
  3
ACAD_GROUP
350
D
  3
ACAD_MLINESTYLE
350
17
  3
ACAD_LAYOUT
350
1A
  3
ACAD_PLOTSETTINGS
350
19
  3
ACAD_PLOTSTYLENAME
350
E
  0
DICTIONARY
  5
D
102
{ACAD_REACTORS
330
C
102
}
100
AcDbDictionary
280
0
281
1
  0
ACDBDICTIONARYWDFLT
  5
E
102
{ACAD_REACTORS
330
C
102
}
100
AcDbDictionary
281
1
  3
Normal
350
F
100
AcDbDictionaryWithDefault
340
F
  0
DICTIONARY
  5
17
102
{ACAD_REACTORS
330
C
102
}
100
AcDbDictionary
280
0
281
1
  3
Standard
350
18
  0
DICTIONARY
  5
19
102
{ACAD_REACTORS
330
C
102
}
100
AcDbDictionary
281
1
  0
DICTIONARY
  5
1A
102
{ACAD_REACTORS
330
C
102
}
100
AcDbDictionary
281
1
  3
Model
350
668
  3
Layout1
350
669
  0
ACDBPLACEHOLDER
  5
F
102
{ACAD_REACTORS
330
E
102
}
  0
MLINESTYLE
  5
18
102
{ACAD_REACTORS
330
17
102
}
100
AcDbMlineStyle
  2
STANDARD
 70
0
  3

 62
256
 51
90.0
 52
90.0
 71
2
 49
0.5
 62
256
  6
BYLAYER
 49
-0.5
 62
256
  6
BYLAYER
  0
LAYOUT
  5
668
102
{ACAD_REACTORS
330
1A
102
}
100
AcDbPlotSettings
  1

  2
none_device
  4
ISO_A4_(297.00_x_210.00_MM)
  6

 40
0.0
 41
0.0
 42
0.0
 43
0.0
 44
297.0
 45
210.0
 46
0.0
 47
0.0
 48
0.0
 49
0.0
140
0.0
141
0.0
142
1.0
143
1.0
 70
1024
 72
1
 73
0
 74
0
  7

 75
0
147
1.0
148
0.0
149
0.0
100
AcDbLayout
  1
Model
 70
0
 71
0
 10
0.0
 20
0.0
 11
297.0
 21
210.0
 12
0.0
 22
0.0
 32
0.0
 14
0.0
 24
0.0
 34
0.0
 15
0.0
 25
0.0
 35
0.0
146
0.0
 13
0.0
 23
0.0
 33
0.0
 16
1.0
 26
0.0
 36
0.0
 17
0.0
 27
1.0
 37
0.0
 76
0
330
214
345
0
346
0
  0
LAYOUT
  5
669
102
{ACAD_REACTORS
330
1A
102
}
100
AcDbPlotSettings
  1

  2
none_device
  4
ISO_A4_(297.00_x_210.00_MM)
  6

 40
0.0
 41
0.0
 42
0.0
 43
0.0
 44
297.0
 45
210.0
 46
0.0
 47
0.0
 48
0.0
 49
0.0
140
0.0
141
0.0
142
1.0
143
1.0
 70
0
 72
1
 73
0
 74
0
  7

 75
0
147
1.0
148
0.0
149
0.0
100
AcDbLayout
  1
Layout1
 70
0
 71
1
 10
0.0
 20
0.0
 11
297.0
 21
210.0
 12
0.0
 22
0.0
 32
0.0
 14
0.0
 24
0.0
 34
0.0
 15
0.0
 25
0.0
 35
0.0
146
0.0
 13
0.0
 23
0.0
 33
0.0
 16
1.0
 26
0.0
 36
0.0
 17
0.0
 27
1.0
 37
0.0
 76
0
330
215
345
0
346
0
  0
ENDSEC
  0
EOF
