  0
SECTION
  2
HEADER
  9
$ACADVER
  1
AC1015
  9
$DWGCODEPAGE
  3
ANSI_1252
  9
$EXTMAX
 10
297.0
 20
210.0
 30
0.0
  9
$EXTMIN
 10
0.0
 20
0.0
 30
0.0
  9
$LIMMIN
 10
0.0
 20
0.0
  9
$LIMMAX
 10
297.0
 20
210.0
  9
$VIEWCTR
 10
148.5
 20
105.0
  9
$VIEWSIZE
 40
210.0
  9
$CLAYER
  8
0
  9
$LTSCALE
 40
16.335
  9
$CELTYPE
  6
BYLAYER
  9
$DIMSCALE
 40
1.0
  9
$DIMASZ
 40
3.0
  9
$DIMEXO
 40
1.85625
  9
$DIMDLI
 40
11.286
  9
$DIMEXE
 40
5.346
  9
$DIMCEN
 40
2.673
  9
$DIMLFAC
 40
1.0
  9
$DIMBLK
  1
_FILLED
  9
$DIMTXT
 40
3.0
  9
$DIMTOL
 70
1
  9
$DIMLIM
 70
0
  9
$DIMTFAC
 40
1.0
  9
$DIMTP
 40
0.01
  9
$DIMTM
 40
0.01
  9
$PDMODE
 70
3
  9
$PDSIZE
 40
3.0
  9
$HANDSEED
  5
66A
  9
$TILEMODE
 70
1
  9
$MEASUREMENT
 70
1
  9
$INSUNITS
 70
4
  0
ENDSEC
  0
SECTION
  2
CLASSES
  0
CLASS
  1
ACDBDICTIONARYWDFLT
  2
AcDbDictionaryWithDefault
  3
AutoCAD 2000
 90
0
280
0
281
0
  0
CLASS
  1
ACDBPLACEHOLDER
  2
AcDbPlaceHolder
  3
AutoCAD 2000
 90
0
280
0
281
0
  0
CLASS
  1
LAYOUT
  2
AcDbLayout
  3
AutoCAD 2000
 90
0
280
0
281
0
  0
ENDSEC
  0
SECTION
  2
TABLES
  0
TABLE
  2
VPORT
  5
8
100
AcDbSymbolTable
 70
2
  0
VPORT
  5
1F4
100
AcDbSymbolTableRecord
100
AcDbViewportTableRecord
  2
*ACTIVE
 70
0
 10
0.0
 20
0.0
 11
1.0
 21
1.0
 12
148.5
 22
105.0
 13
0.0
 23
0.0
 14
1.0
 24
1.0
 15
0.0
 25
0.0
 16
0.0
 26
0.0
 36
1.0
 17
0.0
 27
0.0
 37
0.0
 40
210.0
 41
1.4142857143
 42
50.0
 43
0.0
 44
0.0
 50
0.0
 51
0.0
 71
0
 72
100
 73
1
 74
1
 75
0
 76
0
 77
0
 78
0
  0
ENDTAB
  0
TABLE
  2
LTYPE
  5
5
100
AcDbSymbolTable
 70
6
  0
LTYPE
  5
14
100
AcDbSymbolTableRecord
100
AcDbLinetypeTableRecord
  2
BYBLOCK
 70
0
  3

 72
65
 73
0
 40
0.0
  0
LTYPE
  5
15
100
AcDbSymbolTableRecord
100
AcDbLinetypeTableRecord
  2
BYLAYER
 70
0
  3

 72
65
 73
0
 40
0.0
  0
LTYPE
  5
16
100
AcDbSymbolTableRecord
100
AcDbLinetypeTableRecord
  2
CONTINUOUS
 70
64
  3
Solid line
 72
65
 73
0
 40
0.0
  0
LTYPE
  5
1F5
100
AcDbSymbolTableRecord
100
AcDbLinetypeTableRecord
  2
CENTER
 70
64
  3
____ _ ____ _ ____ _ ____ _ ____ _ ____ _ ____
 72
65
 73
4
 40
0.6
 49
0.375
 74
0
 49
-0.075
 74
0
 49
0.075
 74
0
 49
-0.075
 74
0
  0
LTYPE
  5
1F6
100
AcDbSymbolTableRecord
100
AcDbLinetypeTableRecord
  2
HIDDEN
 70
64
  3
- - - - - - - - - - - - - - - - - - - -
 72
65
 73
2
 40
0.2
 49
0.1
 74
0
 49
-0.1
 74
0
  0
LTYPE
  5
1F7
100
AcDbSymbolTableRecord
100
AcDbLinetypeTableRecord
  2
PHANTOM
 70
64
  3
_____ _ _ _____ _ _ _____ _ _ _____
 72
65
 73
6
 40
0.8
 49
0.45
 74
0
 49
-0.05
 74
0
 49
0.1
 74
0
 49
-0.05
 74
0
 49
0.1
 74
0
 49
-0.05
 74
0
  0
LTYPE
  5
1F8
100
AcDbSymbolTableRecord
100
AcDbLinetypeTableRecord
  2
DOT
 70
64
  3
. . . . . . . . . . . . . . . . . . . .
 72
65
 73
2
 40
0.2
 49
0.1
 74
0
 49
-0.1
 74
0
  0
LTYPE
  5
1F9
100
AcDbSymbolTableRecord
100
AcDbLinetypeTableRecord
  2
DASHED
 70
64
  3
- - - - - - - - - - - - - - - - - - - -
 72
65
 73
2
 40
0.2
 49
0.1
 74
0
 49
-0.1
 74
0
  0
ENDTAB
  0
TABLE
  2
LAYER
  5
2
100
AcDbSymbolTable
 70
36
  0
LAYER
  5
10
100
AcDbSymbolTableRecord
100
AcDbLayerTableRecord
  2
0
 70
0
 62
7
  6
CONTINUOUS
370
-3
390
F
  0
LAYER
  5
1FA
100
AcDbSymbolTableRecord
100
AcDbLayerTableRecord
  2
DEFAULT_1
 70
0
 62
7
  6
CENTER
370
-3
390
F
  0
LAYER
  5
1FB
100
AcDbSymbolTableRecord
100
AcDbLayerTableRecord
  2
DEFAULT_2
 70
0
 62
7
  6
HIDDEN
370
-3
390
F
  0
LAYER
  5
1FC
100
AcDbSymbolTableRecord
100
AcDbLayerTableRecord
  2
DEFAULT_3
 70
0
 62
7
  6
PHANTOM
370
-3
390
F
  0
LAYER
  5
1FD
100
AcDbSymbolTableRecord
100
AcDbLayerTableRecord
  2
ASSI
 70
0
 62
7
  6
CONTINUOUS
370
-3
390
F
  0
LAYER
  5
1FE
100
AcDbSymbolTableRecord
100
AcDbLayerTableRecord
  2
COORDINATE
 70
0
 62
7
  6
CONTINUOUS
370
-3
390
F
  0
LAYER
  5
1FF
100
AcDbSymbolTableRecord
100
AcDbLayerTableRecord
  2
COORD_ORIGINE
 70
0
 62
7
  6
CONTINUOUS
370
-3
390
F
  0
LAYER
  5
200
100
AcDbSymbolTableRecord
100
AcDbLayerTableRecord
  2
COPY_PUBLISH
 70
0
 62
7
  6
CONTINUOUS
370
-3
390
F
  0
LAYER
  5
201
100
AcDbSymbolTableRecord
100
AcDbLayerTableRecord
  2
COSMETIC
 70
0
 62
7
  6
CONTINUOUS
370
-3
390
F
  0
LAYER
  5
202
100
AcDbSymbolTableRecord
100
AcDbLayerTableRecord
  2
CURVE
 70
0
 62
7
  6
CONTINUOUS
370
-3
390
F
  0
LAYER
  5
203
100
AcDbSymbolTableRecord
100
AcDbLayerTableRecord
  2
DRAFT
 70
0
 62
7
  6
CONTINUOUS
370
-3
390
F
  0
LAYER
  5
204
100
AcDbSymbolTableRecord
100
AcDbLayerTableRecord
  2
IGES
 70
0
 62
7
  6
CONTINUOUS
370
-3
390
F
  0
LAYER
  5
205
100
AcDbSymbolTableRecord
100
AcDbLayerTableRecord
  2
IMPORT_IGES
 70
0
 62
7
  6
CONTINUOUS
370
-3
390
F
  0
LAYER
  5
206
100
AcDbSymbolTableRecord
100
AcDbLayerTableRecord
  2
INTF_6
 70
0
 62
7
  6
CONTINUOUS
370
-3
390
F
  0
LAYER
  5
207
100
AcDbSymbolTableRecord
100
AcDbLayerTableRecord
  2
NOTE
 70
0
 62
7
  6
CONTINUOUS
370
-3
390
F
  0
LAYER
  5
208
100
AcDbSymbolTableRecord
100
AcDbLayerTableRecord
  2
PIANI
 70
0
 62
7
  6
CONTINUOUS
370
-3
390
F
  0
LAYER
  5
209
100
AcDbSymbolTableRecord
100
AcDbLayerTableRecord
  2
PIANI_ORIGINE
 70
0
 62
7
  6
CONTINUOUS
370
-3
390
F
  0
LAYER
  5
20A
100
AcDbSymbolTableRecord
100
AcDbLayerTableRecord
  2
PIANI_RIFERIMENTO
 70
0
 62
7
  6
CONTINUOUS
370
-3
390
F
  0
LAYER
  5
20B
100
AcDbSymbolTableRecord
100
AcDbLayerTableRecord
  2
PUNTI
 70
0
 62
7
  6
CONTINUOUS
370
-3
390
F
  0
LAYER
  5
20C
100
AcDbSymbolTableRecord
100
AcDbLayerTableRecord
  2
RACCORDO
 70
0
 62
7
  6
CONTINUOUS
370
-3
390
F
  0
LAYER
  5
20D
100
AcDbSymbolTableRecord
100
AcDbLayerTableRecord
  2
SMUSSO
 70
0
 62
7
  6
CONTINUOUS
370
-3
390
F
  0
LAYER
  5
20E
100
AcDbSymbolTableRecord
100
AcDbLayerTableRecord
  2
SNAPLINE
 70
0
 62
7
  6
CONTINUOUS
370
-3
390
F
  0
LAYER
  5
20F
100
AcDbSymbolTableRecord
100
AcDbLayerTableRecord
  2
SUPERFICI
 70
0
 62
7
  6
CONTINUOUS
370
-3
390
F
  0
LAYER
  5
210
100
AcDbSymbolTableRecord
100
AcDbLayerTableRecord
  2
TRASH
 70
0
 62
7
  6
CONTINUOUS
370
-3
390
F
  0
LAYER
  5
211
100
AcDbSymbolTableRecord
100
AcDbLayerTableRecord
  2
XSEC_DATUMS
 70
0
 62
7
  6
CONTINUOUS
370
-3
390
F
  0
ENDTAB
  0
TABLE
  2
STYLE
  5
3
100
AcDbSymbolTable
 70
1
  0
STYLE
  5
11
100
AcDbSymbolTableRecord
100
AcDbTextStyleTableRecord
  2
STANDARD
 70
0
 40
0.0
 41
0.8
 50
0.0
 71
0
 42
0.2
  3
txt
  4

  0
STYLE
  5
212
100
AcDbSymbolTableRecord
100
AcDbTextStyleTableRecord
  2
TEXTSTYLE_1
 70
0
 40
0.0
 41
0.8
 50
0.0
 71
0
 42
0.2
  3
gdt
  4

  0
ENDTAB
  0
TABLE
  2
VIEW
  5
6
100
AcDbSymbolTable
 70
0
  0
ENDTAB
  0
TABLE
  2
UCS
  5
7
100
AcDbSymbolTable
 70
0
  0
ENDTAB
  0
TABLE
  2
APPID
  5
9
100
AcDbSymbolTable
 70
1
  0
APPID
  5
213
100
AcDbSymbolTableRecord
100
AcDbRegAppTableRecord
  2
ACAD
 70
0
  0
ENDTAB
  0
TABLE
  2
BLOCK_RECORD
  5
1
100
AcDbSymbolTable
 70
0
  0
BLOCK_RECORD
  5
214
100
AcDbSymbolTableRecord
100
AcDbBlockTableRecord
  2
*Model_Space
  0
BLOCK_RECORD
  5
215
100
AcDbSymbolTableRecord
100
AcDbBlockTableRecord
  2
*Paper_Space
  0
ENDTAB
  0
TABLE
  2
DIMSTYLE
  5
A
100
AcDbSymbolTable
 70
1
100
AcDbDimStyleTable
 71
0
  0
DIMSTYLE
105
216
100
AcDbSymbolTableRecord
100
AcDbDimStyleTableRecord
  2
STANDARD
 70
0
  3

  4

 40
1.0
 41
3.0
 42
0.0625
 43
0.38
 44
0.18
 45
0.0
 46
0.0
 47
0.01
 48
0.01
140
3.0
141
0.09
142
0.0
143
25.4
144
1.0
145
0.0
146
1.0
147
0.09
 71
1.0
 72
0.0
 73
0
 74
0
 75
0
 76
0
 77
1
 78
8
170
0
171
2
172
0
173
0
174
0
175
0
176
0
177
0
178
0
270
2
271
2
272
2
273
2
274
2
275
0
280
0
281
0
282
0
283
1
284
8
285
0
286
0
287
3
288
0
340
11
  0
ENDTAB
  0
ENDSEC
  0
SECTION
  2
BLOCKS
  0
BLOCK
  5
20
100
AcDbEntity
  8
0
100
AcDbBlockBegin
  2
*Model_Space
 70
0
 10
0.0
 20
0.0
 30
0.0
  3
*Model_Space
  1

  0
ENDBLK
  5
21
100
AcDbEntity
  8
0
100
AcDbBlockEnd
  0
BLOCK
  5
1C
100
AcDbEntity
  8
0
100
AcDbBlockBegin
  2
*Paper_Space
 70
0
 10
0.0
 20
0.0
 30
0.0
  3
*Paper_Space
  1

  0
ENDBLK
  5
1D
100
AcDbEntity
  8
0
100
AcDbBlockEnd
  0
ENDSEC
  0
SECTION
  2
ENTITIES
  0
LINE
  5
217
100
AcDbEntity
  8
RACCORDO
100
AcDbLine
 62
7
  6
CONTINUOUS
 10
-7.6930541093
 20
9.7475175779
 11
-7.6613203102
 21
9.7792513771
  0
LINE
  5
218
100
AcDbEntity
  8
ASSI
100
AcDbLine
 62
7
  6
CONTINUOUS
 10
-7.6930541093
 20
9.7475175779
 11
-7.6613203102
 21
9.7792513771
  0
LINE
  5
219
100
AcDbEntity
  8
RACCORDO
100
AcDbLine
 62
7
  6
CONTINUOUS
 10
-11.2786961663
 20
-2.038124479
 11
-11.265621929
 21
-10.599491457
  0
LINE
  5
21A
100
AcDbEntity
  8
ASSI
100
AcDbLine
 62
7
  6
CONTINUOUS
 10
-11.2786961663
 20
-2.038124479
 11
-11.265621929
 21
-10.599491457
  0
LINE
  5
21B
100
AcDbEntity
  8
RACCORDO
100
AcDbLine
 62
7
  6
CONTINUOUS
 10
-11.2786961663
 20
10.7618983662
 11
-11.2786961663
 21
-2.038124479
  0
LINE
  5
21C
100
AcDbEntity
  8
ASSI
100
AcDbLine
 62
7
  6
CONTINUOUS
 10
-11.2786961663
 20
10.7618983662
 11
-11.2786961663
 21
-2.038124479
  0
LINE
  5
21D
100
AcDbEntity
  8
RACCORDO
100
AcDbLine
 62
7
  6
CONTINUOUS
 10
3.2628788407
 20
-11.0974371848
 11
3.6135688068
 21
-11.0656040268
  0
LINE
  5
21E
100
AcDbEntity
  8
ASSI
100
AcDbLine
 62
7
  6
CONTINUOUS
 10
3.2628788407
 20
-11.0974371848
 11
3.6135688068
 21
-11.0656040268
  0
LINE
  5
21F
100
AcDbEntity
  8
RACCORDO
100
AcDbLine
 62
7
  6
CONTINUOUS
 10
10.5078497731
 20
-11.0974371848
 11
7.6797288267
 21
-11.0974371848
  0
LINE
  5
220
100
AcDbEntity
  8
ASSI
100
AcDbLine
 62
7
  6
CONTINUOUS
 10
10.5078497731
 20
-11.0974371848
 11
7.6797288267
 21
-11.0974371848
  0
LINE
  5
221
100
AcDbEntity
  8
DRAFT
100
AcDbLine
 62
7
  6
CONTINUOUS
 10
3.2628788407
 20
-11.0974371848
 11
-3.5202711733
 21
-11.0974371848
  0
LINE
  5
222
100
AcDbEntity
  8
ASSI
100
AcDbLine
 62
7
  6
CONTINUOUS
 10
3.2628788407
 20
-11.0974371848
 11
-3.5202711733
 21
-11.0974371848
  0
LINE
  5
223
100
AcDbEntity
  8
RACCORDO
100
AcDbLine
 62
7
  6
CONTINUOUS
 10
-7.9371211593
 20
-11.0974371848
 11
-10.7652421057
 21
-11.0974371848
  0
LINE
  5
224
100
AcDbEntity
  8
ASSI
100
AcDbLine
 62
7
  6
CONTINUOUS
 10
-7.9371211593
 20
-11.0974371848
 11
-10.7652421057
 21
-11.0974371848
  0
LINE
  5
225
100
AcDbEntity
  8
RACCORDO
100
AcDbLine
 62
7
  6
CONTINUOUS
 10
7.1558337799
 20
-11.0603632488
 11
3.7867738876
 21
-11.0603632488
  0
LINE
  5
226
100
AcDbEntity
  8
ASSI
100
AcDbLine
 62
7
  6
CONTINUOUS
 10
7.1558337799
 20
-11.0603632488
 11
3.7867738876
 21
-11.0603632488
  0
LINE
  5
227
100
AcDbEntity
  8
RACCORDO
100
AcDbLine
 62
7
  6
CONTINUOUS
 10
-4.0441662201
 20
-11.0603632488
 11
-7.4132261124
 21
-11.0603632488
  0
LINE
  5
228
100
AcDbEntity
  8
ASSI
100
AcDbLine
 62
7
  6
CONTINUOUS
 10
-4.0441662201
 20
-11.0603632488
 11
-7.4132261124
 21
-11.0603632488
  0
LINE
  5
229
100
AcDbEntity
  8
RACCORDO
100
AcDbLine
 62
7
  6
CONTINUOUS
 10
-3.5202711733
 20
-11.0974371848
 11
-3.8709611394
 21
-11.0656040268
  0
LINE
  5
22A
100
AcDbEntity
  8
ASSI
100
AcDbLine
 62
7
  6
CONTINUOUS
 10
-3.5202711733
 20
-11.0974371848
 11
-3.8709611394
 21
-11.0656040268
  0
LINE
  5
22B
100
AcDbEntity
  8
RACCORDO
100
AcDbLine
 62
7
  6
CONTINUOUS
 10
-10.017441658
 20
-9.4078832475
 11
-10.0286961663
 21
-2.038124479
  0
LINE
  5
22C
100
AcDbEntity
  8
ASSI
100
AcDbLine
 62
7
  6
CONTINUOUS
 10
-10.017441658
 20
-9.4078832475
 11
-10.0286961663
 21
-2.038124479
  0
LINE
  5
22D
100
AcDbEntity
  8
DRAFT
100
AcDbLine
 62
7
  6
CONTINUOUS
 10
-10.0286961663
 20
-2.038124479
 11
-10.0286961663
 21
9.8941243012
  0
LINE
  5
22E
100
AcDbEntity
  8
ASSI
100
AcDbLine
 62
7
  6
CONTINUOUS
 10
-10.0286961663
 20
-2.038124479
 11
-10.0286961663
 21
9.8941243012
  0
LINE
  5
22F
100
AcDbEntity
  8
DRAFT
100
AcDbLine
 62
7
  6
CONTINUOUS
 10
-10.0118192672
 20
-3.038124479
 11
-10.0118192672
 21
0.761875521
  0
LINE
  5
230
100
AcDbEntity
  8
ASSI
100
AcDbLine
 62
7
  6
CONTINUOUS
 10
-10.0118192672
 20
-3.038124479
 11
-10.0118192672
 21
0.761875521
  0
LINE
  5
231
100
AcDbEntity
  8
RACCORDO
100
AcDbLine
 62
253
  6
CONTINUOUS
 10
-9.7659294693
 20
-9.053385928
 11
-9.7659294693
 21
-9.2438248428
  0
LINE
  5
232
100
AcDbEntity
  8
0
100
AcDbLine
 62
7
  6
CONTINUOUS
 10
-9.6286961663
 20
-3.038124479
 11
-9.6286961663
 21
0.761875521
  0
LINE
  5
233
100
AcDbEntity
  8
ASSI
100
AcDbLine
 62
7
  6
CONTINUOUS
 10
-9.6286961663
 20
-3.038124479
 11
-9.6286961663
 21
0.761875521
  0
LINE
  5
234
100
AcDbEntity
  8
ASSI
100
AcDbLine
 62
253
  6
CONTINUOUS
 10
-9.7588756739
 20
9.7475175779
 11
-9.760702274
 21
0.761875521
  0
LINE
  5
235
100
AcDbEntity
  8
ASSI
100
AcDbLine
 62
253
  6
CONTINUOUS
 10
-9.7623254242
 20
-3.038124479
 11
-9.7659294693
 21
-9.2438248428
  0
LINE
  5
236
100
AcDbEntity
  8
RACCORDO
100
AcDbLine
 62
7
  6
CONTINUOUS
 10
3.6135688068
 20
-9.5162260938
 11
3.1875853569
 21
-9.6068196098
  0
LINE
  5
237
100
AcDbEntity
  8
ASSI
100
AcDbLine
 62
7
  6
CONTINUOUS
 10
3.6135688068
 20
-9.5162260938
 11
3.1875853569
 21
-9.6068196098
  0
LINE
  5
238
100
AcDbEntity
  8
RACCORDO
100
AcDbLine
 62
7
  6
CONTINUOUS
 10
-7.9371211593
 20
-11.0974371848
 11
-7.5864311932
 21
-11.0656040268
  0
LINE
  5
239
100
AcDbEntity
  8
ASSI
100
AcDbLine
 62
7
  6
CONTINUOUS
 10
-7.9371211593
 20
-11.0974371848
 11
-7.5864311932
 21
-11.0656040268
  0
LINE
  5
23A
100
AcDbEntity
  8
RACCORDO
100
AcDbLine
 62
7
  6
CONTINUOUS
 10
9.5601405076
 20
-9.6068196098
 11
7.7550223105
 21
-9.6068196098
  0
LINE
  5
23B
100
AcDbEntity
  8
ASSI
100
AcDbLine
 62
7
  6
CONTINUOUS
 10
9.5601405076
 20
-9.6068196098
 11
7.7550223105
 21
-9.6068196098
  0
LINE
  5
23C
100
AcDbEntity
  8
DRAFT
100
AcDbLine
 62
7
  6
CONTINUOUS
 10
3.1875853569
 20
-9.6068196098
 11
-3.4449776895
 21
-9.6068196098
  0
LINE
  5
23D
100
AcDbEntity
  8
ASSI
100
AcDbLine
 62
7
  6
CONTINUOUS
 10
3.1875853569
 20
-9.6068196098
 11
-3.4449776895
 21
-9.6068196098
  0
LINE
  5
23E
100
AcDbEntity
  8
RACCORDO
100
AcDbLine
 62
7
  6
CONTINUOUS
 10
-8.0124146431
 20
-9.6068196098
 11
-9.8175328401
 21
-9.6068196098
  0
LINE
  5
23F
100
AcDbEntity
  8
ASSI
100
AcDbLine
 62
7
  6
CONTINUOUS
 10
-8.0124146431
 20
-9.6068196098
 11
-9.8175328401
 21
-9.6068196098
  0
LINE
  5
240
100
AcDbEntity
  8
RACCORDO
100
AcDbLine
 62
7
  6
CONTINUOUS
 10
7.1558337799
 20
-9.5039476377
 11
5.7914362077
 21
-9.5039476377
  0
LINE
  5
241
100
AcDbEntity
  8
ASSI
100
AcDbLine
 62
7
  6
CONTINUOUS
 10
7.1558337799
 20
-9.5039476377
 11
5.7914362077
 21
-9.5039476377
  0
LINE
  5
242
100
AcDbEntity
  8
RACCORDO
100
AcDbLine
 62
7
  6
CONTINUOUS
 10
5.1511714597
 20
-9.5039476377
 11
3.7867738876
 21
-9.5039476377
  0
LINE
  5
243
100
AcDbEntity
  8
ASSI
100
AcDbLine
 62
7
  6
CONTINUOUS
 10
5.1511714597
 20
-9.5039476377
 11
3.7867738876
 21
-9.5039476377
  0
LINE
  5
244
100
AcDbEntity
  8
RACCORDO
100
AcDbLine
 62
7
  6
CONTINUOUS
 10
-4.0441662201
 20
-9.5039476377
 11
-5.4085637923
 21
-9.5039476377
  0
LINE
  5
245
100
AcDbEntity
  8
ASSI
100
AcDbLine
 62
7
  6
CONTINUOUS
 10
-4.0441662201
 20
-9.5039476377
 11
-5.4085637923
 21
-9.5039476377
  0
LINE
  5
246
100
AcDbEntity
  8
RACCORDO
100
AcDbLine
 62
7
  6
CONTINUOUS
 10
-6.0488285403
 20
-9.5039476377
 11
-7.4132261124
 21
-9.5039476377
  0
LINE
  5
247
100
AcDbEntity
  8
ASSI
100
AcDbLine
 62
7
  6
CONTINUOUS
 10
-6.0488285403
 20
-9.5039476377
 11
-7.4132261124
 21
-9.5039476377
  0
LINE
  5
248
100
AcDbEntity
  8
RACCORDO
100
AcDbLine
 62
7
  6
CONTINUOUS
 10
7.6797288267
 20
-11.0974371848
 11
7.3290388606
 21
-11.0656040268
  0
LINE
  5
249
100
AcDbEntity
  8
ASSI
100
AcDbLine
 62
7
  6
CONTINUOUS
 10
7.6797288267
 20
-11.0974371848
 11
7.3290388606
 21
-11.0656040268
  0
LINE
  5
24A
100
AcDbEntity
  8
RACCORDO
100
AcDbLine
 62
7
  6
CONTINUOUS
 10
-3.8709611394
 20
-9.5162260938
 11
-3.4449776895
 21
-9.6068196098
  0
LINE
  5
24B
100
AcDbEntity
  8
ASSI
100
AcDbLine
 62
7
  6
CONTINUOUS
 10
-3.8709611394
 20
-9.5162260938
 11
-3.4449776895
 21
-9.6068196098
  0
LINE
  5
24C
100
AcDbEntity
  8
DRAFT
100
AcDbLine
 62
7
  6
CONTINUOUS
 10
-7.9371211593
 20
-11.0974371848
 11
-8.0124146431
 21
-9.6068196098
  0
LINE
  5
24D
100
AcDbEntity
  8
ASSI
100
AcDbLine
 62
7
  6
CONTINUOUS
 10
-7.9371211593
 20
-11.0974371848
 11
-8.0124146431
 21
-9.6068196098
  0
LINE
  5
24E
100
AcDbEntity
  8
DRAFT
100
AcDbLine
 62
7
  6
CONTINUOUS
 10
-8.6411621569
 20
10.961875521
 11
-8.6411621569
 21
9.8941243012
  0
LINE
  5
24F
100
AcDbEntity
  8
ASSI
100
AcDbLine
 62
7
  6
CONTINUOUS
 10
-8.6411621569
 20
10.961875521
 11
-8.6411621569
 21
9.8941243012
  0
LINE
  5
250
100
AcDbEntity
  8
DRAFT
100
AcDbLine
 62
7
  6
CONTINUOUS
 10
-8.3786961663
 20
9.7893619927
 11
-8.3786961663
 21
10.9356949176
  0
LINE
  5
251
100
AcDbEntity
  8
ASSI
100
AcDbLine
 62
7
  6
CONTINUOUS
 10
-8.3786961663
 20
9.7893619927
 11
-8.3786961663
 21
10.9356949176
  0
LINE
  5
252
100
AcDbEntity
  8
RACCORDO
100
AcDbLine
 62
253
  6
CONTINUOUS
 10
-9.9658990088
 20
-9.0453156155
 11
-10.017441658
 21
-9.4078832475
  0
LINE
  5
253
100
AcDbEntity
  8
ASSI
100
AcDbLine
 62
253
  6
CONTINUOUS
 10
-9.9658990088
 20
-9.0453156155
 11
-10.017441658
 21
-9.4078832475
  0
LINE
  5
254
100
AcDbEntity
  8
RACCORDO
100
AcDbLine
 62
253
  6
CONTINUOUS
 10
-9.7659294693
 20
-9.2438248428
 11
-9.8175328401
 21
-9.6068196098
  0
LINE
  5
255
100
AcDbEntity
  8
ASSI
100
AcDbLine
 62
253
  6
CONTINUOUS
 10
-9.7659294693
 20
-9.2438248428
 11
-9.8175328401
 21
-9.6068196098
  0
LINE
  5
256
100
AcDbEntity
  8
RACCORDO
100
AcDbLine
 62
253
  6
CONTINUOUS
 10
-7.6366320281
 20
5.2037569073
 11
-7.6918897903
 21
5.1484991451
  0
LINE
  5
257
100
AcDbEntity
  8
ASSI
100
AcDbLine
 62
253
  6
CONTINUOUS
 10
-7.6366320281
 20
5.2037569073
 11
-7.6918897903
 21
5.1484991451
  0
LINE
  5
258
100
AcDbEntity
  8
RACCORDO
100
AcDbLine
 62
253
  6
CONTINUOUS
 10
-7.3368153075
 20
4.9039391316
 11
-7.3919452428
 21
4.8488091964
  0
LINE
  5
259
100
AcDbEntity
  8
ASSI
100
AcDbLine
 62
253
  6
CONTINUOUS
 10
-7.3368153075
 20
4.9039391316
 11
-7.3919452428
 21
4.8488091964
  0
LINE
  5
25A
100
AcDbEntity
  8
RACCORDO
100
AcDbLine
 62
7
  6
CONTINUOUS
 10
5.3934116045
 20
-9.2970820916
 11
5.549196063
 21
-9.2970820916
  0
LINE
  5
25B
100
AcDbEntity
  8
ASSI
100
AcDbLine
 62
7
  6
CONTINUOUS
 10
5.3934116045
 20
-9.2970820916
 11
5.549196063
 21
-9.2970820916
  0
LINE
  5
25C
100
AcDbEntity
  8
RACCORDO
100
AcDbLine
 62
7
  6
CONTINUOUS
 10
-5.650803937
 20
-9.2970820916
 11
-5.8065883955
 21
-9.2970820916
  0
LINE
  5
25D
100
AcDbEntity
  8
ASSI
100
AcDbLine
 62
7
  6
CONTINUOUS
 10
-5.650803937
 20
-9.2970820916
 11
-5.8065883955
 21
-9.2970820916
  0
LINE
  5
25E
100
AcDbEntity
  8
RACCORDO
100
AcDbLine
 62
253
  6
CONTINUOUS
 10
-9.7659294693
 20
-9.2438248428
 11
-6.1228092435
 21
-9.2438248428
  0
LINE
  5
25F
100
AcDbEntity
  8
ASSI
100
AcDbLine
 62
253
  6
CONTINUOUS
 10
-9.7659294693
 20
-9.2438248428
 11
-6.1228092435
 21
-9.2438248428
  0
LINE
  5
260
100
AcDbEntity
  8
RACCORDO
100
AcDbLine
 62
253
  6
CONTINUOUS
 10
-5.3345830891
 20
-9.2438248428
 11
5.0771907565
 21
-9.2438248428
  0
LINE
  5
261
100
AcDbEntity
  8
ASSI
100
AcDbLine
 62
253
  6
CONTINUOUS
 10
-5.3345830891
 20
-9.2438248428
 11
5.0771907565
 21
-9.2438248428
  0
LINE
  5
262
100
AcDbEntity
  8
RACCORDO
100
AcDbLine
 62
253
  6
CONTINUOUS
 10
5.8654169109
 20
-9.2438248428
 11
9.5085371368
 21
-9.2438248428
  0
LINE
  5
263
100
AcDbEntity
  8
ASSI
100
AcDbLine
 62
253
  6
CONTINUOUS
 10
5.8654169109
 20
-9.2438248428
 11
9.5085371368
 21
-9.2438248428
  0
LINE
  5
264
100
AcDbEntity
  8
RACCORDO
100
AcDbLine
 62
253
  6
CONTINUOUS
 10
-9.7659294588
 20
-9.053385928
 11
-6.1289365548
 21
-9.053385928
  0
LINE
  5
265
100
AcDbEntity
  8
ASSI
100
AcDbLine
 62
253
  6
CONTINUOUS
 10
-9.7659294588
 20
-9.053385928
 11
-6.1289365548
 21
-9.053385928
  0
LINE
  5
266
100
AcDbEntity
  8
RACCORDO
100
AcDbLine
 62
253
  6
CONTINUOUS
 10
-5.3284557777
 20
-9.053385928
 11
5.0710634452
 21
-9.053385928
  0
LINE
  5
267
100
AcDbEntity
  8
ASSI
100
AcDbLine
 62
253
  6
CONTINUOUS
 10
-5.3284557777
 20
-9.053385928
 11
5.0710634452
 21
-9.053385928
  0
LINE
  5
268
100
AcDbEntity
  8
RACCORDO
100
AcDbLine
 62
253
  6
CONTINUOUS
 10
5.8715442223
 20
-9.053385928
 11
9.5085371262
 21
-9.053385928
  0
LINE
  5
269
100
AcDbEntity
  8
ASSI
100
AcDbLine
 62
253
  6
CONTINUOUS
 10
5.8715442223
 20
-9.053385928
 11
9.5085371262
 21
-9.053385928
  0
LINE
  5
26A
100
AcDbEntity
  8
RACCORDO
100
AcDbLine
 62
7
  6
CONTINUOUS
 10
-6.0488285403
 20
-9.5039476377
 11
-6.1228092435
 21
-9.2438248428
  0
LINE
  5
26B
100
AcDbEntity
  8
ASSI
100
AcDbLine
 62
7
  6
CONTINUOUS
 10
-6.0488285403
 20
-9.5039476377
 11
-6.1228092435
 21
-9.2438248428
  0
LINE
  5
26C
100
AcDbEntity
  8
RACCORDO
100
AcDbLine
 62
253
  6
CONTINUOUS
 10
-7.6531378649
 20
7.5032968772
 11
-7.6319372289
 21
6.896190096
  0
LINE
  5
26D
100
AcDbEntity
  8
ASSI
100
AcDbLine
 62
253
  6
CONTINUOUS
 10
-7.6531378649
 20
7.5032968772
 11
-7.6319372289
 21
6.896190096
  0
LINE
  5
26E
100
AcDbEntity
  8
RACCORDO
100
AcDbLine
 62
253
  6
CONTINUOUS
 10
-7.6613203102
 20
9.7792513771
 11
-7.6613203102
 21
8.0689823021
  0
LINE
  5
26F
100
AcDbEntity
  8
ASSI
100
AcDbLine
 62
253
  6
CONTINUOUS
 10
-7.6613203102
 20
9.7792513771
 11
-7.6613203102
 21
8.0689823021
  0
LINE
  5
270
100
AcDbEntity
  8
RACCORDO
100
AcDbLine
 62
253
  6
CONTINUOUS
 10
-7.6298916176
 20
6.7547687398
 11
-7.6298916176
 21
5.4036350727
  0
LINE
  5
271
100
AcDbEntity
  8
ASSI
100
AcDbLine
 62
253
  6
CONTINUOUS
 10
-7.6298916176
 20
6.7547687398
 11
-7.6298916176
 21
5.4036350727
  0
LINE
  5
272
100
AcDbEntity
  8
RACCORDO
100
AcDbLine
 62
253
  6
CONTINUOUS
 10
-7.5864311932
 20
-11.0656040268
 11
-7.5864311932
 21
-9.5162260938
  0
LINE
  5
273
100
AcDbEntity
  8
ASSI
100
AcDbLine
 62
253
  6
CONTINUOUS
 10
-7.5864311932
 20
-11.0656040268
 11
-7.5864311932
 21
-9.5162260938
  0
LINE
  5
274
100
AcDbEntity
  8
RACCORDO
100
AcDbLine
 62
253
  6
CONTINUOUS
 10
-7.4132261124
 20
-11.0603632488
 11
-7.4132261124
 21
-9.5039476377
  0
LINE
  5
275
100
AcDbEntity
  8
ASSI
100
AcDbLine
 62
253
  6
CONTINUOUS
 10
-7.4132261124
 20
-11.0603632488
 11
-7.4132261124
 21
-9.5039476377
  0
LINE
  5
276
100
AcDbEntity
  8
RACCORDO
100
AcDbLine
 62
253
  6
CONTINUOUS
 10
-7.3615030621
 20
9.7893619927
 11
-7.3615030621
 21
8.068993266
  0
LINE
  5
277
100
AcDbEntity
  8
ASSI
100
AcDbLine
 62
253
  6
CONTINUOUS
 10
-7.3615030621
 20
9.7893619927
 11
-7.3615030621
 21
8.068993266
  0
LINE
  5
278
100
AcDbEntity
  8
RACCORDO
100
AcDbLine
 62
253
  6
CONTINUOUS
 10
-7.3300743695
 20
6.7547687398
 11
-7.3300743695
 21
5.4036505332
  0
LINE
  5
279
100
AcDbEntity
  8
ASSI
100
AcDbLine
 62
253
  6
CONTINUOUS
 10
-7.3300743695
 20
6.7547687398
 11
-7.3300743695
 21
5.4036505332
  0
LINE
  5
27A
100
AcDbEntity
  8
RACCORDO
100
AcDbLine
 62
253
  6
CONTINUOUS
 10
-7.2252723517
 20
7.1083221304
 11
-7.2040719727
 21
7.7154215537
  0
LINE
  5
27B
100
AcDbEntity
  8
ASSI
100
AcDbLine
 62
253
  6
CONTINUOUS
 10
-7.2252723517
 20
7.1083221304
 11
-7.2040719727
 21
7.7154215537
  0
LINE
  5
27C
100
AcDbEntity
  8
DRAFT
100
AcDbLine
 62
7
  6
CONTINUOUS
 10
-2.6252051533
 20
8.9828215989
 11
-2.6286961663
 21
8.9793305859
  0
LINE
  5
27D
100
AcDbEntity
  8
RACCORDO
100
AcDbLine
 62
7
  6
CONTINUOUS
 10
-7.5864311932
 20
-9.5162260938
 11
-8.0124146431
 21
-9.6068196098
  0
LINE
  5
27E
100
AcDbEntity
  8
ASSI
100
AcDbLine
 62
7
  6
CONTINUOUS
 10
-7.5864311932
 20
-9.5162260938
 11
-8.0124146431
 21
-9.6068196098
  0
LINE
  5
27F
100
AcDbEntity
  8
0
100
AcDbLine
 62
7
  6
CONTINUOUS
 10
0.8138570619
 20
-8.279290479
 11
0.5244952929
 21
-8.279290479
  0
LINE
  5
280
100
AcDbEntity
  8
ASSI
100
AcDbLine
 62
7
  6
CONTINUOUS
 10
0.8138570619
 20
-8.279290479
 11
0.5244952929
 21
-8.279290479
  0
LINE
  5
281
100
AcDbEntity
  8
0
100
AcDbLine
 62
7
  6
CONTINUOUS
 10
1.9713038337
 20
-8.066790479
 11
0.5606655014
 21
-8.066790479
  0
LINE
  5
282
100
AcDbEntity
  8
ASSI
100
AcDbLine
 62
7
  6
CONTINUOUS
 10
1.9713038337
 20
-8.066790479
 11
0.5606655014
 21
-8.066790479
  0
LINE
  5
283
100
AcDbEntity
  8
0
100
AcDbLine
 62
7
  6
CONTINUOUS
 10
1.9713038337
 20
-7.854290479
 11
0.2713038337
 21
-7.854290479
  0
LINE
  5
284
100
AcDbEntity
  8
ASSI
100
AcDbLine
 62
7
  6
CONTINUOUS
 10
1.9713038337
 20
-7.854290479
 11
0.2713038337
 21
-7.854290479
  0
LINE
  5
285
100
AcDbEntity
  8
0
100
AcDbLine
 62
7
  6
CONTINUOUS
 10
1.4649208647
 20
-7.5709571626
 11
1.2478995633
 21
-7.5709571626
  0
LINE
  5
286
100
AcDbEntity
  8
ASSI
100
AcDbLine
 62
7
  6
CONTINUOUS
 10
1.4649208647
 20
-7.5709571626
 11
1.2478995633
 21
-7.5709571626
  0
LINE
  5
287
100
AcDbEntity
  8
RACCORDO
100
AcDbLine
 62
7
  6
CONTINUOUS
 10
7.3290388606
 20
-9.5162260938
 11
7.7550223105
 21
-9.6068196098
  0
LINE
  5
288
100
AcDbEntity
  8
ASSI
100
AcDbLine
 62
7
  6
CONTINUOUS
 10
7.3290388606
 20
-9.5162260938
 11
7.7550223105
 21
-9.6068196098
  0
LINE
  5
289
100
AcDbEntity
  8
0
100
AcDbLine
 62
7
  6
CONTINUOUS
 10
-2.2462581663
 20
-7.235890479
 11
-1.0761901663
 21
-7.569812479
  0
LINE
  5
28A
100
AcDbEntity
  8
ASSI
100
AcDbLine
 62
7
  6
CONTINUOUS
 10
-2.2462581663
 20
-7.235890479
 11
-1.0761901663
 21
-7.569812479
  0
LINE
  5
28B
100
AcDbEntity
  8
RACCORDO
100
AcDbLine
 62
253
  6
CONTINUOUS
 10
-7.35332036
 20
7.7154215571
 11
-7.3321199808
 21
7.1083221304
  0
LINE
  5
28C
100
AcDbEntity
  8
ASSI
100
AcDbLine
 62
253
  6
CONTINUOUS
 10
-7.35332036
 20
7.7154215571
 11
-7.3321199808
 21
7.1083221304
  0
LINE
  5
28D
100
AcDbEntity
  8
RACCORDO
100
AcDbLine
 62
253
  6
CONTINUOUS
 10
-7.227317963
 20
5.4036505334
 11
-7.227317963
 21
6.7547687398
  0
LINE
  5
28E
100
AcDbEntity
  8
ASSI
100
AcDbLine
 62
253
  6
CONTINUOUS
 10
-7.227317963
 20
5.4036505334
 11
-7.227317963
 21
6.7547687398
  0
LINE
  5
28F
100
AcDbEntity
  8
RACCORDO
100
AcDbLine
 62
253
  6
CONTINUOUS
 10
-7.1958892705
 20
8.0689932699
 11
-7.1958892705
 21
9.7893619927
  0
LINE
  5
290
100
AcDbEntity
  8
ASSI
100
AcDbLine
 62
253
  6
CONTINUOUS
 10
-7.1958892705
 20
8.0689932699
 11
-7.1958892705
 21
9.7893619927
  0
LINE
  5
291
100
AcDbEntity
  8
RACCORDO
100
AcDbLine
 62
253
  6
CONTINUOUS
 10
-6.9275007149
 20
5.4036350727
 11
-6.9275007149
 21
6.7547687398
  0
LINE
  5
292
100
AcDbEntity
  8
ASSI
100
AcDbLine
 62
253
  6
CONTINUOUS
 10
-6.9275007149
 20
5.4036350727
 11
-6.9275007149
 21
6.7547687398
  0
LINE
  5
293
100
AcDbEntity
  8
RACCORDO
100
AcDbLine
 62
253
  6
CONTINUOUS
 10
-6.8960720224
 20
8.0689823021
 11
-6.8960720224
 21
9.7792513771
  0
LINE
  5
294
100
AcDbEntity
  8
ASSI
100
AcDbLine
 62
253
  6
CONTINUOUS
 10
-6.8960720224
 20
8.0689823021
 11
-6.8960720224
 21
9.7792513771
  0
LINE
  5
295
100
AcDbEntity
  8
RACCORDO
100
AcDbLine
 62
253
  6
CONTINUOUS
 10
-6.9254551036
 20
6.896190096
 11
-6.9042544677
 21
7.5032968772
  0
LINE
  5
296
100
AcDbEntity
  8
ASSI
100
AcDbLine
 62
253
  6
CONTINUOUS
 10
-6.9254551036
 20
6.896190096
 11
-6.9042544677
 21
7.5032968772
  0
LINE
  5
297
100
AcDbEntity
  8
0
100
AcDbLine
 62
7
  6
CONTINUOUS
 10
-2.2462581663
 20
-7.893837479
 11
-1.0761901663
 21
-7.569812479
  0
LINE
  5
298
100
AcDbEntity
  8
ASSI
100
AcDbLine
 62
7
  6
CONTINUOUS
 10
-2.2462581663
 20
-7.893837479
 11
-1.0761901663
 21
-7.569812479
  0
LINE
  5
299
100
AcDbEntity
  8
RACCORDO
100
AcDbLine
 62
253
  6
CONTINUOUS
 10
5.5117647578
 20
-6.9984015588
 11
5.4308429097
 21
-6.9984015588
  0
LINE
  5
29A
100
AcDbEntity
  8
ASSI
100
AcDbLine
 62
253
  6
CONTINUOUS
 10
5.5117647578
 20
-6.9984015588
 11
5.4308429097
 21
-6.9984015588
  0
LINE
  5
29B
100
AcDbEntity
  8
RACCORDO
100
AcDbLine
 62
253
  6
CONTINUOUS
 10
-5.6882352422
 20
-6.9984015588
 11
-5.7691570903
 21
-6.9984015588
  0
LINE
  5
29C
100
AcDbEntity
  8
ASSI
100
AcDbLine
 62
253
  6
CONTINUOUS
 10
-5.6882352422
 20
-6.9984015588
 11
-5.7691570903
 21
-6.9984015588
  0
LINE
  5
29D
100
AcDbEntity
  8
RACCORDO
100
AcDbLine
 62
253
  6
CONTINUOUS
 10
5.1811587931
 20
-6.8716160803
 11
5.7614488743
 21
-6.8716160803
  0
LINE
  5
29E
100
AcDbEntity
  8
ASSI
100
AcDbLine
 62
253
  6
CONTINUOUS
 10
5.1811587931
 20
-6.8716160803
 11
5.7614488743
 21
-6.8716160803
  0
LINE
  5
29F
100
AcDbEntity
  8
RACCORDO
100
AcDbLine
 62
253
  6
CONTINUOUS
 10
-5.4385511257
 20
-6.8716160803
 11
-6.0188412069
 21
-6.8716160803
  0
LINE
  5
2A0
100
AcDbEntity
  8
ASSI
100
AcDbLine
 62
253
  6
CONTINUOUS
 10
-5.4385511257
 20
-6.8716160803
 11
-6.0188412069
 21
-6.8716160803
  0
LINE
  5
2A1
100
AcDbEntity
  8
0
100
AcDbLine
 62
7
  6
CONTINUOUS
 10
-2.2463601663
 20
-6.749626479
 11
-0.5463951663
 21
-6.749626479
  0
LINE
  5
2A2
100
AcDbEntity
  8
ASSI
100
AcDbLine
 62
7
  6
CONTINUOUS
 10
-2.2463601663
 20
-6.749626479
 11
-0.5463951663
 21
-6.749626479
  0
LINE
  5
2A3
100
AcDbEntity
  8
0
100
AcDbLine
 62
7
  6
CONTINUOUS
 10
1.9713038337
 20
-6.7209571119
 11
1.4649208647
 21
-6.7209571119
  0
LINE
  5
2A4
100
AcDbEntity
  8
ASSI
100
AcDbLine
 62
7
  6
CONTINUOUS
 10
1.9713038337
 20
-6.7209571119
 11
1.4649208647
 21
-6.7209571119
  0
LINE
  5
2A5
100
AcDbEntity
  8
0
100
AcDbLine
 62
7
  6
CONTINUOUS
 10
1.2478995633
 20
-6.7209571119
 11
0.5606655014
 21
-6.7209571119
  0
LINE
  5
2A6
100
AcDbEntity
  8
ASSI
100
AcDbLine
 62
7
  6
CONTINUOUS
 10
1.2478995633
 20
-6.7209571119
 11
0.5606655014
 21
-6.7209571119
  0
LINE
  5
2A7
100
AcDbEntity
  8
RACCORDO
100
AcDbLine
 62
253
  6
CONTINUOUS
 10
5.1811587931
 20
-6.5896102356
 11
5.7614488743
 21
-6.5896102356
  0
LINE
  5
2A8
100
AcDbEntity
  8
ASSI
100
AcDbLine
 62
253
  6
CONTINUOUS
 10
5.1811587931
 20
-6.5896102356
 11
5.7614488743
 21
-6.5896102356
  0
LINE
  5
2A9
100
AcDbEntity
  8
RACCORDO
100
AcDbLine
 62
253
  6
CONTINUOUS
 10
-5.4385511257
 20
-6.5896102356
 11
-6.0188412069
 21
-6.5896102356
  0
LINE
  5
2AA
100
AcDbEntity
  8
ASSI
100
AcDbLine
 62
253
  6
CONTINUOUS
 10
-5.4385511257
 20
-6.5896102356
 11
-6.0188412069
 21
-6.5896102356
  0
LINE
  5
2AB
100
AcDbEntity
  8
0
100
AcDbLine
 62
7
  6
CONTINUOUS
 10
1.9713038337
 20
-6.5084572133
 11
1.4649208647
 21
-6.5084572133
  0
LINE
  5
2AC
100
AcDbEntity
  8
ASSI
100
AcDbLine
 62
7
  6
CONTINUOUS
 10
1.9713038337
 20
-6.5084572133
 11
1.4649208647
 21
-6.5084572133
  0
LINE
  5
2AD
100
AcDbEntity
  8
0
100
AcDbLine
 62
7
  6
CONTINUOUS
 10
1.2478995633
 20
-6.5084572133
 11
0.2713038337
 21
-6.5084572133
  0
LINE
  5
2AE
100
AcDbEntity
  8
ASSI
100
AcDbLine
 62
7
  6
CONTINUOUS
 10
1.2478995633
 20
-6.5084572133
 11
0.2713038337
 21
-6.5084572133
  0
LINE
  5
2AF
100
AcDbEntity
  8
0
100
AcDbLine
 62
7
  6
CONTINUOUS
 10
-2.2463601663
 20
-6.394798479
 11
-0.5463951663
 21
-6.394798479
  0
LINE
  5
2B0
100
AcDbEntity
  8
ASSI
100
AcDbLine
 62
7
  6
CONTINUOUS
 10
-2.2463601663
 20
-6.394798479
 11
-0.5463951663
 21
-6.394798479
  0
LINE
  5
2B1
100
AcDbEntity
  8
RACCORDO
100
AcDbLine
 62
253
  6
CONTINUOUS
 10
5.5130440096
 20
-6.2941679097
 11
5.4295636578
 21
-6.2941679097
  0
LINE
  5
2B2
100
AcDbEntity
  8
ASSI
100
AcDbLine
 62
253
  6
CONTINUOUS
 10
5.5130440096
 20
-6.2941679097
 11
5.4295636578
 21
-6.2941679097
  0
LINE
  5
2B3
100
AcDbEntity
  8
RACCORDO
100
AcDbLine
 62
253
  6
CONTINUOUS
 10
-5.6869559904
 20
-6.2941679097
 11
-5.7704363422
 21
-6.2941679097
  0
LINE
  5
2B4
100
AcDbEntity
  8
ASSI
100
AcDbLine
 62
253
  6
CONTINUOUS
 10
-5.6869559904
 20
-6.2941679097
 11
-5.7704363422
 21
-6.2941679097
  0
LINE
  5
2B5
100
AcDbEntity
  8
0
100
AcDbLine
 62
7
  6
CONTINUOUS
 10
-2.2462581663
 20
-6.050296479
 11
-0.5463951663
 21
-6.203783479
  0
LINE
  5
2B6
100
AcDbEntity
  8
ASSI
100
AcDbLine
 62
7
  6
CONTINUOUS
 10
-2.2462581663
 20
-6.050296479
 11
-0.5463951663
 21
-6.203783479
  0
LINE
  5
2B7
100
AcDbEntity
  8
0
100
AcDbLine
 62
7
  6
CONTINUOUS
 10
-2.2462581663
 20
-6.881304479
 11
-0.5463951663
 21
-7.427708479
  0
LINE
  5
2B8
100
AcDbEntity
  8
ASSI
100
AcDbLine
 62
7
  6
CONTINUOUS
 10
-2.2462581663
 20
-6.881304479
 11
-0.5463951663
 21
-7.427708479
  0
LINE
  5
2B9
100
AcDbEntity
  8
RACCORDO
100
AcDbLine
 62
253
  6
CONTINUOUS
 10
-6.1343163593
 20
-4.7852010275
 11
-6.0799220809
 21
-4.8123898803
  0
LINE
  5
2BA
100
AcDbEntity
  8
ASSI
100
AcDbLine
 62
253
  6
CONTINUOUS
 10
-6.1343163593
 20
-4.7852010275
 11
-6.0799220809
 21
-4.8123898803
  0
LINE
  5
2BB
100
AcDbEntity
  8
RACCORDO
100
AcDbLine
 62
253
  6
CONTINUOUS
 10
-5.8845918384
 20
-4.5351775295
 11
-5.8300748326
 21
-4.5624277274
  0
LINE
  5
2BC
100
AcDbEntity
  8
ASSI
100
AcDbLine
 62
253
  6
CONTINUOUS
 10
-5.8845918384
 20
-4.5351775295
 11
-5.8300748326
 21
-4.5624277274
  0
LINE
  5
2BD
100
AcDbEntity
  8
RACCORDO
100
AcDbLine
 62
253
  6
CONTINUOUS
 10
-6.078206515
 20
-6.2478993868
 11
-6.0202840489
 21
-6.540369848
  0
LINE
  5
2BE
100
AcDbEntity
  8
ASSI
100
AcDbLine
 62
253
  6
CONTINUOUS
 10
-6.078206515
 20
-6.2478993868
 11
-6.0202840489
 21
-6.540369848
  0
LINE
  5
2BF
100
AcDbEntity
  8
RACCORDO
100
AcDbLine
 62
253
  6
CONTINUOUS
 10
-5.8211445979
 20
-6.038124479
 11
-5.7704363422
 21
-6.2941679097
  0
LINE
  5
2C0
100
AcDbEntity
  8
ASSI
100
AcDbLine
 62
253
  6
CONTINUOUS
 10
-5.8211445979
 20
-6.038124479
 11
-5.7704363422
 21
-6.2941679097
  0
LINE
  5
2C1
100
AcDbEntity
  8
RACCORDO
100
AcDbLine
 62
253
  6
CONTINUOUS
 10
-5.650803937
 20
-9.2970820916
 11
-5.6882352422
 21
-6.9984015588
  0
LINE
  5
2C2
100
AcDbEntity
  8
ASSI
100
AcDbLine
 62
253
  6
CONTINUOUS
 10
-5.650803937
 20
-9.2970820916
 11
-5.6882352422
 21
-6.9984015588
  0
LINE
  5
2C3
100
AcDbEntity
  8
RACCORDO
100
AcDbLine
 62
253
  6
CONTINUOUS
 10
-5.4085637923
 20
-8.7242422489
 11
-5.4383875355
 21
-6.8927469933
  0
LINE
  5
2C4
100
AcDbEntity
  8
ASSI
100
AcDbLine
 62
253
  6
CONTINUOUS
 10
-5.4085637923
 20
-8.7242422489
 11
-5.4383875355
 21
-6.8927469933
  0
LINE
  5
2C5
100
AcDbEntity
  8
RACCORDO
100
AcDbLine
 62
253
  6
CONTINUOUS
 10
-6.078206515
 20
-4.862382265
 11
-6.078206515
 21
-6.2478993868
  0
LINE
  5
2C6
100
AcDbEntity
  8
ASSI
100
AcDbLine
 62
253
  6
CONTINUOUS
 10
-6.078206515
 20
-4.862382265
 11
-6.078206515
 21
-6.2478993868
  0
LINE
  5
2C7
100
AcDbEntity
  8
RACCORDO
100
AcDbLine
 62
7
  6
CONTINUOUS
 10
-6.0488285403
 20
-9.5039476377
 11
-6.0488285403
 21
-8.7242422489
  0
LINE
  5
2C8
100
AcDbEntity
  8
ASSI
100
AcDbLine
 62
7
  6
CONTINUOUS
 10
-6.0488285403
 20
-9.5039476377
 11
-6.0488285403
 21
-8.7242422489
  0
LINE
  5
2C9
100
AcDbEntity
  8
RACCORDO
100
AcDbLine
 62
253
  6
CONTINUOUS
 10
-6.0188412069
 20
-6.5896102356
 11
-6.0188412069
 21
-6.8716160803
  0
LINE
  5
2CA
100
AcDbEntity
  8
ASSI
100
AcDbLine
 62
253
  6
CONTINUOUS
 10
-6.0188412069
 20
-6.5896102356
 11
-6.0188412069
 21
-6.8716160803
  0
LINE
  5
2CB
100
AcDbEntity
  8
RACCORDO
100
AcDbLine
 62
253
  6
CONTINUOUS
 10
-5.8283588083
 20
-4.862382265
 11
-5.8283588083
 21
-6.03823009
  0
LINE
  5
2CC
100
AcDbEntity
  8
ASSI
100
AcDbLine
 62
253
  6
CONTINUOUS
 10
-5.8283588083
 20
-4.862382265
 11
-5.8283588083
 21
-6.03823009
  0
LINE
  5
2CD
100
AcDbEntity
  8
RACCORDO
100
AcDbLine
 62
253
  6
CONTINUOUS
 10
-5.7689935001
 20
-6.5896102356
 11
-5.7689935001
 21
-6.8716160803
  0
LINE
  5
2CE
100
AcDbEntity
  8
ASSI
100
AcDbLine
 62
253
  6
CONTINUOUS
 10
-5.7689935001
 20
-6.5896102356
 11
-5.7689935001
 21
-6.8716160803
  0
LINE
  5
2CF
100
AcDbEntity
  8
RACCORDO
100
AcDbLine
 62
253
  6
CONTINUOUS
 10
-5.6883988324
 20
-6.8716160803
 11
-5.6883988324
 21
-6.5896102356
  0
LINE
  5
2D0
100
AcDbEntity
  8
ASSI
100
AcDbLine
 62
253
  6
CONTINUOUS
 10
-5.6883988324
 20
-6.8716160803
 11
-5.6883988324
 21
-6.5896102356
  0
LINE
  5
2D1
100
AcDbEntity
  8
RACCORDO
100
AcDbLine
 62
253
  6
CONTINUOUS
 10
-5.6290335243
 20
-6.03823009
 11
-5.6290335243
 21
-4.862382265
  0
LINE
  5
2D2
100
AcDbEntity
  8
ASSI
100
AcDbLine
 62
253
  6
CONTINUOUS
 10
-5.6290335243
 20
-6.03823009
 11
-5.6290335243
 21
-4.862382265
  0
LINE
  5
2D3
100
AcDbEntity
  8
RACCORDO
100
AcDbLine
 62
253
  6
CONTINUOUS
 10
-5.4385511257
 20
-6.8716160803
 11
-5.4385511257
 21
-6.5896102356
  0
LINE
  5
2D4
100
AcDbEntity
  8
ASSI
100
AcDbLine
 62
253
  6
CONTINUOUS
 10
-5.4385511257
 20
-6.8716160803
 11
-5.4385511257
 21
-6.5896102356
  0
LINE
  5
2D5
100
AcDbEntity
  8
RACCORDO
100
AcDbLine
 62
7
  6
CONTINUOUS
 10
-5.4085637923
 20
-8.7242422489
 11
-5.4085637923
 21
-9.5039476377
  0
LINE
  5
2D6
100
AcDbEntity
  8
ASSI
100
AcDbLine
 62
7
  6
CONTINUOUS
 10
-5.4085637923
 20
-8.7242422489
 11
-5.4085637923
 21
-9.5039476377
  0
LINE
  5
2D7
100
AcDbEntity
  8
RACCORDO
100
AcDbLine
 62
253
  6
CONTINUOUS
 10
-5.3791858176
 20
-6.2478993868
 11
-5.3791858176
 21
-4.862382265
  0
LINE
  5
2D8
100
AcDbEntity
  8
ASSI
100
AcDbLine
 62
253
  6
CONTINUOUS
 10
-5.3791858176
 20
-6.2478993868
 11
-5.3791858176
 21
-4.862382265
  0
LINE
  5
2D9
100
AcDbEntity
  8
RACCORDO
100
AcDbLine
 62
253
  6
CONTINUOUS
 10
-6.0190047971
 20
-6.8927469933
 11
-6.0488285403
 21
-8.7242422489
  0
LINE
  5
2DA
100
AcDbEntity
  8
ASSI
100
AcDbLine
 62
253
  6
CONTINUOUS
 10
-6.0190047971
 20
-6.8927469933
 11
-6.0488285403
 21
-8.7242422489
  0
LINE
  5
2DB
100
AcDbEntity
  8
RACCORDO
100
AcDbLine
 62
253
  6
CONTINUOUS
 10
-5.7691570903
 20
-6.9984015588
 11
-5.8065883955
 21
-9.2970820916
  0
LINE
  5
2DC
100
AcDbEntity
  8
ASSI
100
AcDbLine
 62
253
  6
CONTINUOUS
 10
-5.7691570903
 20
-6.9984015588
 11
-5.8065883955
 21
-9.2970820916
  0
LINE
  5
2DD
100
AcDbEntity
  8
DRAFT
100
AcDbLine
 62
7
  6
CONTINUOUS
 10
8.3837698243
 20
9.8941243012
 11
8.1213038337
 21
9.7893619927
  0
LINE
  5
2DE
100
AcDbEntity
  8
ASSI
100
AcDbLine
 62
7
  6
CONTINUOUS
 10
8.3837698243
 20
9.8941243012
 11
8.1213038337
 21
9.7893619927
  0
LINE
  5
2DF
100
AcDbEntity
  8
0
100
AcDbLine
 62
7
  6
CONTINUOUS
 10
1.4649208647
 20
-6.154290479
 11
1.2478995633
 21
-6.154290479
  0
LINE
  5
2E0
100
AcDbEntity
  8
ASSI
100
AcDbLine
 62
7
  6
CONTINUOUS
 10
1.4649208647
 20
-6.154290479
 11
1.2478995633
 21
-6.154290479
  0
LINE
  5
2E1
100
AcDbEntity
  8
RACCORDO
100
AcDbLine
 62
7
  6
CONTINUOUS
 10
-5.8211445979
 20
-6.038124479
 11
-5.6362477347
 21
-6.038124479
  0
LINE
  5
2E2
100
AcDbEntity
  8
ASSI
100
AcDbLine
 62
7
  6
CONTINUOUS
 10
-5.8211445979
 20
-6.038124479
 11
-5.6362477347
 21
-6.038124479
  0
LINE
  5
2E3
100
AcDbEntity
  8
RACCORDO
100
AcDbLine
 62
7
  6
CONTINUOUS
 10
5.5637522653
 20
-6.038124479
 11
5.3788554021
 21
-6.038124479
  0
LINE
  5
2E4
100
AcDbEntity
  8
ASSI
100
AcDbLine
 62
7
  6
CONTINUOUS
 10
5.5637522653
 20
-6.038124479
 11
5.3788554021
 21
-6.038124479
  0
LINE
  5
2E5
100
AcDbEntity
  8
0
100
AcDbLine
 62
7
  6
CONTINUOUS
 10
1.5372612816
 20
-5.8709572133
 11
1.4287506562
 21
-5.8709572133
  0
LINE
  5
2E6
100
AcDbEntity
  8
ASSI
100
AcDbLine
 62
7
  6
CONTINUOUS
 10
1.5372612816
 20
-5.8709572133
 11
1.4287506562
 21
-5.8709572133
  0
LINE
  5
2E7
100
AcDbEntity
  8
0
100
AcDbLine
 62
7
  6
CONTINUOUS
 10
0.8138570619
 20
-5.835540479
 11
0.7053464365
 21
-5.835540479
  0
LINE
  5
2E8
100
AcDbEntity
  8
ASSI
100
AcDbLine
 62
7
  6
CONTINUOUS
 10
0.8138570619
 20
-5.835540479
 11
0.7053464365
 21
-5.835540479
  0
LINE
  5
2E9
100
AcDbEntity
  8
0
100
AcDbLine
 62
7
  6
CONTINUOUS
 10
1.5372612816
 20
-5.6938737448
 11
1.4287506562
 21
-5.6938737448
  0
LINE
  5
2EA
100
AcDbEntity
  8
ASSI
100
AcDbLine
 62
7
  6
CONTINUOUS
 10
1.5372612816
 20
-5.6938737448
 11
1.4287506562
 21
-5.6938737448
  0
LINE
  5
2EB
100
AcDbEntity
  8
0
100
AcDbLine
 62
7
  6
CONTINUOUS
 10
0.7776868534
 20
-5.6584572133
 11
0.7053464365
 21
-5.6584572133
  0
LINE
  5
2EC
100
AcDbEntity
  8
ASSI
100
AcDbLine
 62
7
  6
CONTINUOUS
 10
0.7776868534
 20
-5.6584572133
 11
0.7053464365
 21
-5.6584572133
  0
LINE
  5
2ED
100
AcDbEntity
  8
0
100
AcDbLine
 62
7
  6
CONTINUOUS
 10
-1.6563741663
 20
-5.787756479
 11
-0.5463951663
 21
-5.864328479
  0
LINE
  5
2EE
100
AcDbEntity
  8
ASSI
100
AcDbLine
 62
7
  6
CONTINUOUS
 10
-1.6563741663
 20
-5.787756479
 11
-0.5463951663
 21
-5.864328479
  0
LINE
  5
2EF
100
AcDbEntity
  8
0
100
AcDbLine
 62
7
  6
CONTINUOUS
 10
-2.2462581663
 20
-4.989852479
 11
-1.3024891663
 21
-5.344680479
  0
LINE
  5
2F0
100
AcDbEntity
  8
ASSI
100
AcDbLine
 62
7
  6
CONTINUOUS
 10
-2.2462581663
 20
-4.989852479
 11
-1.3024891663
 21
-5.344680479
  0
LINE
  5
2F1
100
AcDbEntity
  8
0
100
AcDbLine
 62
7
  6
CONTINUOUS
 10
0.2713038337
 20
-8.066790479
 11
0.5244952929
 21
-8.279290479
  0
LINE
  5
2F2
100
AcDbEntity
  8
ASSI
100
AcDbLine
 62
7
  6
CONTINUOUS
 10
0.2713038337
 20
-8.066790479
 11
0.5244952929
 21
-8.279290479
  0
LINE
  5
2F3
100
AcDbEntity
  8
0
100
AcDbLine
 62
7
  6
CONTINUOUS
 10
0.5606655014
 20
-8.066790479
 11
0.8138570619
 21
-8.279290479
  0
LINE
  5
2F4
100
AcDbEntity
  8
ASSI
100
AcDbLine
 62
7
  6
CONTINUOUS
 10
0.5606655014
 20
-8.066790479
 11
0.8138570619
 21
-8.279290479
  0
LINE
  5
2F5
100
AcDbEntity
  8
ASSI
100
AcDbLine
 62
253
  6
CONTINUOUS
 10
-4.4815960947
 20
5.7484459658
 11
-4.4869407376
 21
7.3758180692
  0
LINE
  5
2F6
100
AcDbEntity
  8
RACCORDO
100
AcDbLine
 62
253
  6
CONTINUOUS
 10
-5.6869559904
 20
-6.2941679097
 11
-5.6362477347
 21
-6.038124479
  0
LINE
  5
2F7
100
AcDbEntity
  8
ASSI
100
AcDbLine
 62
253
  6
CONTINUOUS
 10
-5.6869559904
 20
-6.2941679097
 11
-5.6362477347
 21
-6.038124479
  0
LINE
  5
2F8
100
AcDbEntity
  8
0
100
AcDbLine
 62
7
  6
CONTINUOUS
 10
-2.2462581663
 20
-4.638785479
 11
-0.5463951663
 21
-4.479828479
  0
LINE
  5
2F9
100
AcDbEntity
  8
ASSI
100
AcDbLine
 62
7
  6
CONTINUOUS
 10
-2.2462581663
 20
-4.638785479
 11
-0.5463951663
 21
-4.479828479
  0
LINE
  5
2FA
100
AcDbEntity
  8
0
100
AcDbLine
 62
7
  6
CONTINUOUS
 10
-1.6517471663
 20
-4.899845479
 11
-0.5463951663
 21
-4.826944479
  0
LINE
  5
2FB
100
AcDbEntity
  8
ASSI
100
AcDbLine
 62
7
  6
CONTINUOUS
 10
-1.6517471663
 20
-4.899845479
 11
-0.5463951663
 21
-4.826944479
  0
LINE
  5
2FC
100
AcDbEntity
  8
RACCORDO
100
AcDbLine
 62
253
  6
CONTINUOUS
 10
5.121793485
 20
-4.862382265
 11
5.8208141824
 21
-4.862382265
  0
LINE
  5
2FD
100
AcDbEntity
  8
ASSI
100
AcDbLine
 62
253
  6
CONTINUOUS
 10
5.121793485
 20
-4.862382265
 11
5.8208141824
 21
-4.862382265
  0
LINE
  5
2FE
100
AcDbEntity
  8
RACCORDO
100
AcDbLine
 62
253
  6
CONTINUOUS
 10
-5.3791858176
 20
-4.862382265
 11
-6.078206515
 21
-4.862382265
  0
LINE
  5
2FF
100
AcDbEntity
  8
ASSI
100
AcDbLine
 62
253
  6
CONTINUOUS
 10
-5.3791858176
 20
-4.862382265
 11
-6.078206515
 21
-4.862382265
  0
LINE
  5
300
100
AcDbEntity
  8
0
100
AcDbLine
 62
7
  6
CONTINUOUS
 10
0.7776868534
 20
-4.8084570106
 11
0.7053464365
 21
-4.8084570106
  0
LINE
  5
301
100
AcDbEntity
  8
ASSI
100
AcDbLine
 62
7
  6
CONTINUOUS
 10
0.7776868534
 20
-4.8084570106
 11
0.7053464365
 21
-4.8084570106
  0
LINE
  5
302
100
AcDbEntity
  8
0
100
AcDbLine
 62
7
  6
CONTINUOUS
 10
1.5372612816
 20
-4.773040479
 11
1.4287506562
 21
-4.773040479
  0
LINE
  5
303
100
AcDbEntity
  8
ASSI
100
AcDbLine
 62
7
  6
CONTINUOUS
 10
1.5372612816
 20
-4.773040479
 11
1.4287506562
 21
-4.773040479
  0
LINE
  5
304
100
AcDbEntity
  8
0
100
AcDbLine
 62
7
  6
CONTINUOUS
 10
0.8138570619
 20
-4.6313739475
 11
0.7053464365
 21
-4.6313739475
  0
LINE
  5
305
100
AcDbEntity
  8
ASSI
100
AcDbLine
 62
7
  6
CONTINUOUS
 10
0.8138570619
 20
-4.6313739475
 11
0.7053464365
 21
-4.6313739475
  0
LINE
  5
306
100
AcDbEntity
  8
0
100
AcDbLine
 62
7
  6
CONTINUOUS
 10
1.5372612816
 20
-4.5959570106
 11
1.4287506562
 21
-4.5959570106
  0
LINE
  5
307
100
AcDbEntity
  8
ASSI
100
AcDbLine
 62
7
  6
CONTINUOUS
 10
1.5372612816
 20
-4.5959570106
 11
1.4287506562
 21
-4.5959570106
  0
LINE
  5
308
100
AcDbEntity
  8
RACCORDO
100
AcDbLine
 62
253
  6
CONTINUOUS
 10
5.5726825
 20
-4.5624277274
 11
5.3699251674
 21
-4.5624277274
  0
LINE
  5
309
100
AcDbEntity
  8
ASSI
100
AcDbLine
 62
253
  6
CONTINUOUS
 10
5.5726825
 20
-4.5624277274
 11
5.3699251674
 21
-4.5624277274
  0
LINE
  5
30A
100
AcDbEntity
  8
RACCORDO
100
AcDbLine
 62
253
  6
CONTINUOUS
 10
-5.6273175
 20
-4.5624277274
 11
-5.8300748326
 21
-4.5624277274
  0
LINE
  5
30B
100
AcDbEntity
  8
ASSI
100
AcDbLine
 62
253
  6
CONTINUOUS
 10
-5.6273175
 20
-4.5624277274
 11
-5.8300748326
 21
-4.5624277274
  0
LINE
  5
30C
100
AcDbEntity
  8
RACCORDO
100
AcDbLine
 62
7
  6
CONTINUOUS
 10
5.6271995058
 20
-4.5351775295
 11
5.3154081616
 21
-4.5351775295
  0
LINE
  5
30D
100
AcDbEntity
  8
ASSI
100
AcDbLine
 62
7
  6
CONTINUOUS
 10
5.6271995058
 20
-4.5351775295
 11
5.3154081616
 21
-4.5351775295
  0
LINE
  5
30E
100
AcDbEntity
  8
RACCORDO
100
AcDbLine
 62
7
  6
CONTINUOUS
 10
-5.5728004942
 20
-4.5351775295
 11
-5.8845918384
 21
-4.5351775295
  0
LINE
  5
30F
100
AcDbEntity
  8
ASSI
100
AcDbLine
 62
7
  6
CONTINUOUS
 10
-5.5728004942
 20
-4.5351775295
 11
-5.8845918384
 21
-4.5351775295
  0
LINE
  5
310
100
AcDbEntity
  8
0
100
AcDbLine
 62
7
  6
CONTINUOUS
 10
1.4649208647
 20
-4.3126239475
 11
1.2478995633
 21
-4.3126239475
  0
LINE
  5
311
100
AcDbEntity
  8
ASSI
100
AcDbLine
 62
7
  6
CONTINUOUS
 10
1.4649208647
 20
-4.3126239475
 11
1.2478995633
 21
-4.3126239475
  0
LINE
  5
312
100
AcDbEntity
  8
0
100
AcDbLine
 62
7
  6
CONTINUOUS
 10
-2.2462581663
 20
-3.890926479
 11
-0.5463951663
 21
-4.424111479
  0
LINE
  5
313
100
AcDbEntity
  8
ASSI
100
AcDbLine
 62
7
  6
CONTINUOUS
 10
-2.2462581663
 20
-3.890926479
 11
-0.5463951663
 21
-4.424111479
  0
LINE
  5
314
100
AcDbEntity
  8
0
100
AcDbLine
 62
7
  6
CONTINUOUS
 10
-1.6517471663
 20
-4.899845479
 11
-0.5463951663
 21
-5.321736479
  0
LINE
  5
315
100
AcDbEntity
  8
ASSI
100
AcDbLine
 62
7
  6
CONTINUOUS
 10
-1.6517471663
 20
-4.899845479
 11
-0.5463951663
 21
-5.321736479
  0
LINE
  5
316
100
AcDbEntity
  8
0
100
AcDbLine
 62
7
  6
CONTINUOUS
 10
0.5244952929
 20
-5.7647072133
 11
0.7053464365
 21
-5.835540479
  0
LINE
  5
317
100
AcDbEntity
  8
ASSI
100
AcDbLine
 62
7
  6
CONTINUOUS
 10
0.5244952929
 20
-5.7647072133
 11
0.7053464365
 21
-5.835540479
  0
LINE
  5
318
100
AcDbEntity
  8
0
100
AcDbLine
 62
7
  6
CONTINUOUS
 10
1.2478995633
 20
-5.8001237448
 11
1.4287506562
 21
-5.8709572133
  0
LINE
  5
319
100
AcDbEntity
  8
ASSI
100
AcDbLine
 62
7
  6
CONTINUOUS
 10
1.2478995633
 20
-5.8001237448
 11
1.4287506562
 21
-5.8709572133
  0
LINE
  5
31A
100
AcDbEntity
  8
0
100
AcDbLine
 62
7
  6
CONTINUOUS
 10
0.5968357098
 20
-5.5876237448
 11
0.7053464365
 21
-5.6584572133
  0
LINE
  5
31B
100
AcDbEntity
  8
ASSI
100
AcDbLine
 62
7
  6
CONTINUOUS
 10
0.5968357098
 20
-5.5876237448
 11
0.7053464365
 21
-5.6584572133
  0
LINE
  5
31C
100
AcDbEntity
  8
0
100
AcDbLine
 62
7
  6
CONTINUOUS
 10
0.2713038337
 20
-6.7209571119
 11
1.2478995633
 21
-7.5709571626
  0
LINE
  5
31D
100
AcDbEntity
  8
ASSI
100
AcDbLine
 62
7
  6
CONTINUOUS
 10
0.2713038337
 20
-6.7209571119
 11
1.2478995633
 21
-7.5709571626
  0
LINE
  5
31E
100
AcDbEntity
  8
0
100
AcDbLine
 62
7
  6
CONTINUOUS
 10
0.5606655014
 20
-6.7209571119
 11
1.2478995633
 21
-7.323040479
  0
LINE
  5
31F
100
AcDbEntity
  8
ASSI
100
AcDbLine
 62
7
  6
CONTINUOUS
 10
0.5606655014
 20
-6.7209571119
 11
1.2478995633
 21
-7.323040479
  0
LINE
  5
320
100
AcDbEntity
  8
RACCORDO
100
AcDbLine
 62
7
  6
CONTINUOUS
 10
-10.0286961663
 20
9.8941243012
 11
-9.9588449221
 21
9.7543792354
  0
LINE
  5
321
100
AcDbEntity
  8
ASSI
100
AcDbLine
 62
7
  6
CONTINUOUS
 10
-10.0286961663
 20
9.8941243012
 11
-9.9588449221
 21
9.7543792354
  0
LINE
  5
322
100
AcDbEntity
  8
RACCORDO
100
AcDbLine
 62
253
  6
CONTINUOUS
 10
-4.0441662201
 20
-9.5039476377
 11
-4.0441662201
 21
-11.0603632488
  0
LINE
  5
323
100
AcDbEntity
  8
ASSI
100
AcDbLine
 62
253
  6
CONTINUOUS
 10
-4.0441662201
 20
-9.5039476377
 11
-4.0441662201
 21
-11.0603632488
  0
LINE
  5
324
100
AcDbEntity
  8
RACCORDO
100
AcDbLine
 62
253
  6
CONTINUOUS
 10
-3.9505416911
 20
7.3377901211
 11
-3.9505416911
 21
5.7859609208
  0
LINE
  5
325
100
AcDbEntity
  8
ASSI
100
AcDbLine
 62
253
  6
CONTINUOUS
 10
-3.9505416911
 20
7.3377901211
 11
-3.9505416911
 21
5.7859609208
  0
LINE
  5
326
100
AcDbEntity
  8
RACCORDO
100
AcDbLine
 62
253
  6
CONTINUOUS
 10
-3.8709611394
 20
-9.5162260938
 11
-3.8709611394
 21
-11.0656040268
  0
LINE
  5
327
100
AcDbEntity
  8
ASSI
100
AcDbLine
 62
253
  6
CONTINUOUS
 10
-3.8709611394
 20
-9.5162260938
 11
-3.8709611394
 21
-11.0656040268
  0
LINE
  5
328
100
AcDbEntity
  8
RACCORDO
100
AcDbLine
 62
253
  6
CONTINUOUS
 10
-3.6686339048
 20
7.3308969722
 11
-3.6686339048
 21
5.7928540697
  0
LINE
  5
329
100
AcDbEntity
  8
ASSI
100
AcDbLine
 62
253
  6
CONTINUOUS
 10
-3.6686339048
 20
7.3308969722
 11
-3.6686339048
 21
5.7928540697
  0
LINE
  5
32A
100
AcDbEntity
  8
DRAFT
100
AcDbLine
 62
7
  6
CONTINUOUS
 10
-3.1983319267
 20
7.3308969722
 11
-3.1983319267
 21
5.7928540697
  0
LINE
  5
32B
100
AcDbEntity
  8
ASSI
100
AcDbLine
 62
7
  6
CONTINUOUS
 10
-3.1983319267
 20
7.3308969722
 11
-3.1983319267
 21
5.7928540697
  0
LINE
  5
32C
100
AcDbEntity
  8
DRAFT
100
AcDbLine
 62
7
  6
CONTINUOUS
 10
-3.1286961663
 20
2.5136859199
 11
-3.1286961663
 21
5.7753936849
  0
LINE
  5
32D
100
AcDbEntity
  8
ASSI
100
AcDbLine
 62
7
  6
CONTINUOUS
 10
-3.1286961663
 20
2.5136859199
 11
-3.1286961663
 21
5.7753936849
  0
LINE
  5
32E
100
AcDbEntity
  8
DRAFT
100
AcDbLine
 62
7
  6
CONTINUOUS
 10
-3.1286961663
 20
7.348357357
 11
-3.1286961663
 21
9.0978231481
  0
LINE
  5
32F
100
AcDbEntity
  8
ASSI
100
AcDbLine
 62
7
  6
CONTINUOUS
 10
-3.1286961663
 20
7.348357357
 11
-3.1286961663
 21
9.0978231481
  0
LINE
  5
330
100
AcDbEntity
  8
RACCORDO
100
AcDbLine
 62
253
  6
CONTINUOUS
 10
-5.4371082836
 20
-6.540369848
 11
-5.3791858176
 21
-6.2478993868
  0
LINE
  5
331
100
AcDbEntity
  8
ASSI
100
AcDbLine
 62
253
  6
CONTINUOUS
 10
-5.4371082836
 20
-6.540369848
 11
-5.3791858176
 21
-6.2478993868
  0
LINE
  5
332
100
AcDbEntity
  8
0
100
AcDbLine
 62
7
  6
CONTINUOUS
 10
-0.8857481663
 20
-3.492005479
 11
-0.5463951663
 21
-3.400086479
  0
LINE
  5
333
100
AcDbEntity
  8
ASSI
100
AcDbLine
 62
7
  6
CONTINUOUS
 10
-0.8857481663
 20
-3.492005479
 11
-0.5463951663
 21
-3.400086479
  0
LINE
  5
334
100
AcDbEntity
  8
0
100
AcDbLine
 62
7
  6
CONTINUOUS
 10
-1.7791791663
 20
-3.725966479
 11
-1.1483381663
 21
-3.562918479
  0
LINE
  5
335
100
AcDbEntity
  8
ASSI
100
AcDbLine
 62
7
  6
CONTINUOUS
 10
-1.7791791663
 20
-3.725966479
 11
-1.1483381663
 21
-3.562918479
  0
LINE
  5
336
100
AcDbEntity
  8
0
100
AcDbLine
 62
7
  6
CONTINUOUS
 10
1.9713038337
 20
-3.4626239475
 11
1.4649208647
 21
-3.4626239475
  0
LINE
  5
337
100
AcDbEntity
  8
ASSI
100
AcDbLine
 62
7
  6
CONTINUOUS
 10
1.9713038337
 20
-3.4626239475
 11
1.4649208647
 21
-3.4626239475
  0
LINE
  5
338
100
AcDbEntity
  8
0
100
AcDbLine
 62
7
  6
CONTINUOUS
 10
1.2478995633
 20
-3.4626239475
 11
0.5606655014
 21
-3.4626239475
  0
LINE
  5
339
100
AcDbEntity
  8
ASSI
100
AcDbLine
 62
7
  6
CONTINUOUS
 10
1.2478995633
 20
-3.4626239475
 11
0.5606655014
 21
-3.4626239475
  0
LINE
  5
33A
100
AcDbEntity
  8
0
100
AcDbLine
 62
7
  6
CONTINUOUS
 10
1.9713038337
 20
-3.2501239475
 11
1.4649208647
 21
-3.2501239475
  0
LINE
  5
33B
100
AcDbEntity
  8
ASSI
100
AcDbLine
 62
7
  6
CONTINUOUS
 10
1.9713038337
 20
-3.2501239475
 11
1.4649208647
 21
-3.2501239475
  0
LINE
  5
33C
100
AcDbEntity
  8
0
100
AcDbLine
 62
7
  6
CONTINUOUS
 10
1.2478995633
 20
-3.2501239475
 11
0.2713038337
 21
-3.2501239475
  0
LINE
  5
33D
100
AcDbEntity
  8
ASSI
100
AcDbLine
 62
7
  6
CONTINUOUS
 10
1.2478995633
 20
-3.2501239475
 11
0.2713038337
 21
-3.2501239475
  0
LINE
  5
33E
100
AcDbEntity
  8
0
100
AcDbLine
 62
7
  6
CONTINUOUS
 10
-1.7791791663
 20
-3.725966479
 11
-1.1483381663
 21
-3.902640479
  0
LINE
  5
33F
100
AcDbEntity
  8
ASSI
100
AcDbLine
 62
7
  6
CONTINUOUS
 10
-1.7791791663
 20
-3.725966479
 11
-1.1483381663
 21
-3.902640479
  0
LINE
  5
340
100
AcDbEntity
  8
0
100
AcDbLine
 62
7
  6
CONTINUOUS
 10
-0.8857481663
 20
-3.975222479
 11
-0.5463951663
 21
-4.073133479
  0
LINE
  5
341
100
AcDbEntity
  8
ASSI
100
AcDbLine
 62
7
  6
CONTINUOUS
 10
-0.8857481663
 20
-3.975222479
 11
-0.5463951663
 21
-4.073133479
  0
LINE
  5
342
100
AcDbEntity
  8
0
100
AcDbLine
 62
7
  6
CONTINUOUS
 10
1.5372612816
 20
-4.5959570106
 11
1.7181123492
 21
-4.666790479
  0
LINE
  5
343
100
AcDbEntity
  8
ASSI
100
AcDbLine
 62
7
  6
CONTINUOUS
 10
1.5372612816
 20
-4.5959570106
 11
1.7181123492
 21
-4.666790479
  0
LINE
  5
344
100
AcDbEntity
  8
0
100
AcDbLine
 62
7
  6
CONTINUOUS
 10
0.8138570619
 20
-4.6313739475
 11
0.9585378957
 21
-4.7022070106
  0
LINE
  5
345
100
AcDbEntity
  8
ASSI
100
AcDbLine
 62
7
  6
CONTINUOUS
 10
0.8138570619
 20
-4.6313739475
 11
0.9585378957
 21
-4.7022070106
  0
LINE
  5
346
100
AcDbEntity
  8
0
100
AcDbLine
 62
7
  6
CONTINUOUS
 10
0.7776868534
 20
-4.8084570106
 11
0.8861974788
 21
-4.879290479
  0
LINE
  5
347
100
AcDbEntity
  8
ASSI
100
AcDbLine
 62
7
  6
CONTINUOUS
 10
0.7776868534
 20
-4.8084570106
 11
0.8861974788
 21
-4.879290479
  0
LINE
  5
348
100
AcDbEntity
  8
0
100
AcDbLine
 62
7
  6
CONTINUOUS
 10
1.2840697718
 20
-5.5876237448
 11
1.4287506562
 21
-5.6938737448
  0
LINE
  5
349
100
AcDbEntity
  8
ASSI
100
AcDbLine
 62
7
  6
CONTINUOUS
 10
1.2840697718
 20
-5.5876237448
 11
1.4287506562
 21
-5.6938737448
  0
LINE
  5
34A
100
AcDbEntity
  8
0
100
AcDbLine
 62
7
  6
CONTINUOUS
 10
0.4159846675
 20
-5.6584572133
 11
0.5244952929
 21
-5.7647072133
  0
LINE
  5
34B
100
AcDbEntity
  8
ASSI
100
AcDbLine
 62
7
  6
CONTINUOUS
 10
0.4159846675
 20
-5.6584572133
 11
0.5244952929
 21
-5.7647072133
  0
LINE
  5
34C
100
AcDbEntity
  8
DRAFT
100
AcDbLine
 62
7
  6
CONTINUOUS
 10
-3.0961512312
 20
4.144420456
 11
-3.0961512312
 21
5.7753936849
  0
LINE
  5
34D
100
AcDbEntity
  8
DRAFT
100
AcDbLine
 62
7
  6
CONTINUOUS
 10
-3.0961512312
 20
7.348357357
 11
-3.0961512312
 21
8.9793305859
  0
LINE
  5
34E
100
AcDbEntity
  8
DRAFT
100
AcDbLine
 62
7
  6
CONTINUOUS
 10
-3.0286961663
 20
7.3393570515
 11
-3.0286961663
 21
5.7843939904
  0
LINE
  5
34F
100
AcDbEntity
  8
ASSI
100
AcDbLine
 62
7
  6
CONTINUOUS
 10
-3.0286961663
 20
7.3393570515
 11
-3.0286961663
 21
5.7843939904
  0
LINE
  5
350
100
AcDbEntity
  8
DRAFT
100
AcDbLine
 62
7
  6
CONTINUOUS
 10
-2.6286961663
 20
4.144420456
 11
-2.6286961663
 21
8.9793305859
  0
LINE
  5
351
100
AcDbEntity
  8
DRAFT
100
AcDbLine
 62
7
  6
CONTINUOUS
 10
-2.6252051533
 20
8.9828215989
 11
-2.6252051533
 21
4.140929443
  0
LINE
  5
352
100
AcDbEntity
  8
0
100
AcDbLine
 62
7
  6
CONTINUOUS
 10
-2.2463601663
 20
-6.394798479
 11
-2.2463601663
 21
-6.749626479
  0
LINE
  5
353
100
AcDbEntity
  8
ASSI
100
AcDbLine
 62
7
  6
CONTINUOUS
 10
-2.2463601663
 20
-6.394798479
 11
-2.2463601663
 21
-6.749626479
  0
LINE
  5
354
100
AcDbEntity
  8
0
100
AcDbLine
 62
7
  6
CONTINUOUS
 10
-2.2462581663
 20
-3.547672479
 11
-2.2462581663
 21
-3.890926479
  0
LINE
  5
355
100
AcDbEntity
  8
ASSI
100
AcDbLine
 62
7
  6
CONTINUOUS
 10
-2.2462581663
 20
-3.547672479
 11
-2.2462581663
 21
-3.890926479
  0
LINE
  5
356
100
AcDbEntity
  8
0
100
AcDbLine
 62
7
  6
CONTINUOUS
 10
-2.2462581663
 20
-4.638785479
 11
-2.2462581663
 21
-4.989852479
  0
LINE
  5
357
100
AcDbEntity
  8
ASSI
100
AcDbLine
 62
7
  6
CONTINUOUS
 10
-2.2462581663
 20
-4.638785479
 11
-2.2462581663
 21
-4.989852479
  0
LINE
  5
358
100
AcDbEntity
  8
0
100
AcDbLine
 62
7
  6
CONTINUOUS
 10
-2.2462581663
 20
-5.695761479
 11
-2.2462581663
 21
-6.050296479
  0
LINE
  5
359
100
AcDbEntity
  8
ASSI
100
AcDbLine
 62
7
  6
CONTINUOUS
 10
-2.2462581663
 20
-5.695761479
 11
-2.2462581663
 21
-6.050296479
  0
LINE
  5
35A
100
AcDbEntity
  8
0
100
AcDbLine
 62
7
  6
CONTINUOUS
 10
-2.2462581663
 20
-6.881304479
 11
-2.2462581663
 21
-7.235890479
  0
LINE
  5
35B
100
AcDbEntity
  8
ASSI
100
AcDbLine
 62
7
  6
CONTINUOUS
 10
-2.2462581663
 20
-6.881304479
 11
-2.2462581663
 21
-7.235890479
  0
LINE
  5
35C
100
AcDbEntity
  8
0
100
AcDbLine
 62
7
  6
CONTINUOUS
 10
-2.2462581663
 20
-7.893837479
 11
-2.2462581663
 21
-8.279290479
  0
LINE
  5
35D
100
AcDbEntity
  8
ASSI
100
AcDbLine
 62
7
  6
CONTINUOUS
 10
-2.2462581663
 20
-7.893837479
 11
-2.2462581663
 21
-8.279290479
  0
LINE
  5
35E
100
AcDbEntity
  8
DRAFT
100
AcDbLine
 62
7
  6
CONTINUOUS
 10
-3.5202711733
 20
-11.0974371848
 11
-3.4449776895
 21
-9.6068196098
  0
LINE
  5
35F
100
AcDbEntity
  8
ASSI
100
AcDbLine
 62
7
  6
CONTINUOUS
 10
-3.5202711733
 20
-11.0974371848
 11
-3.4449776895
 21
-9.6068196098
  0
LINE
  5
360
100
AcDbEntity
  8
RACCORDO
100
AcDbLine
 62
7
  6
CONTINUOUS
 10
-5.3345830891
 20
-9.2438248428
 11
-5.4085637923
 21
-9.5039476377
  0
LINE
  5
361
100
AcDbEntity
  8
ASSI
100
AcDbLine
 62
7
  6
CONTINUOUS
 10
-5.3345830891
 20
-9.2438248428
 11
-5.4085637923
 21
-9.5039476377
  0
LINE
  5
362
100
AcDbEntity
  8
RACCORDO
100
AcDbLine
 62
7
  6
CONTINUOUS
 10
6.6069458907
 20
9.7475175779
 11
6.6386796898
 21
9.7792513771
  0
LINE
  5
363
100
AcDbEntity
  8
ASSI
100
AcDbLine
 62
7
  6
CONTINUOUS
 10
6.6069458907
 20
9.7475175779
 11
6.6386796898
 21
9.7792513771
  0
LINE
  5
364
100
AcDbEntity
  8
DRAFT
100
AcDbLine
 62
7
  6
CONTINUOUS
 10
-10.0118192672
 20
-3.038124479
 11
-9.6286961663
 21
-3.038124479
  0
LINE
  5
365
100
AcDbEntity
  8
ASSI
100
AcDbLine
 62
7
  6
CONTINUOUS
 10
-10.0118192672
 20
-3.038124479
 11
-9.6286961663
 21
-3.038124479
  0
LINE
  5
366
100
AcDbEntity
  8
DRAFT
100
AcDbLine
 62
7
  6
CONTINUOUS
 10
9.3713038337
 20
-3.038124479
 11
9.7544269347
 21
-3.038124479
  0
LINE
  5
367
100
AcDbEntity
  8
ASSI
100
AcDbLine
 62
7
  6
CONTINUOUS
 10
9.3713038337
 20
-3.038124479
 11
9.7544269347
 21
-3.038124479
  0
LINE
  5
368
100
AcDbEntity
  8
0
100
AcDbLine
 62
7
  6
CONTINUOUS
 10
-2.2263982485
 20
-2.9219178151
 11
-0.5463954796
 21
-2.9219178151
  0
LINE
  5
369
100
AcDbEntity
  8
ASSI
100
AcDbLine
 62
7
  6
CONTINUOUS
 10
-2.2263982485
 20
-2.9219178151
 11
-0.5463954796
 21
-2.9219178151
  0
LINE
  5
36A
100
AcDbEntity
  8
0
100
AcDbLine
 62
7
  6
CONTINUOUS
 10
1.4649208647
 20
-2.8959570106
 11
1.2478995633
 21
-2.8959570106
  0
LINE
  5
36B
100
AcDbEntity
  8
ASSI
100
AcDbLine
 62
7
  6
CONTINUOUS
 10
1.4649208647
 20
-2.8959570106
 11
1.2478995633
 21
-2.8959570106
  0
LINE
  5
36C
100
AcDbEntity
  8
0
100
AcDbLine
 62
7
  6
CONTINUOUS
 10
0.8138570619
 20
-2.6126239475
 11
0.5244952929
 21
-2.6126239475
  0
LINE
  5
36D
100
AcDbEntity
  8
ASSI
100
AcDbLine
 62
7
  6
CONTINUOUS
 10
0.8138570619
 20
-2.6126239475
 11
0.5244952929
 21
-2.6126239475
  0
LINE
  5
36E
100
AcDbEntity
  8
0
100
AcDbLine
 62
7
  6
CONTINUOUS
 10
-1.9566698173
 20
-2.5802830474
 11
-1.4900243348
 21
-2.5802830474
  0
LINE
  5
36F
100
AcDbEntity
  8
ASSI
100
AcDbLine
 62
7
  6
CONTINUOUS
 10
-1.9566698173
 20
-2.5802830474
 11
-1.4900243348
 21
-2.5802830474
  0
LINE
  5
370
100
AcDbEntity
  8
0
100
AcDbLine
 62
7
  6
CONTINUOUS
 10
-1.2116278822
 20
-2.5685174831
 11
-0.5463954796
 21
-2.5685174831
  0
LINE
  5
371
100
AcDbEntity
  8
ASSI
100
AcDbLine
 62
7
  6
CONTINUOUS
 10
-1.2116278822
 20
-2.5685174831
 11
-0.5463954796
 21
-2.5685174831
  0
LINE
  5
372
100
AcDbEntity
  8
0
100
AcDbLine
 62
7
  6
CONTINUOUS
 10
1.9713038337
 20
-2.4001239475
 11
0.5606655014
 21
-2.4001239475
  0
LINE
  5
373
100
AcDbEntity
  8
ASSI
100
AcDbLine
 62
7
  6
CONTINUOUS
 10
1.9713038337
 20
-2.4001239475
 11
0.5606655014
 21
-2.4001239475
  0
LINE
  5
374
100
AcDbEntity
  8
0
100
AcDbLine
 62
7
  6
CONTINUOUS
 10
1.9713038337
 20
-2.1876239475
 11
0.2713038337
 21
-2.1876239475
  0
LINE
  5
375
100
AcDbEntity
  8
ASSI
100
AcDbLine
 62
7
  6
CONTINUOUS
 10
1.9713038337
 20
-2.1876239475
 11
0.2713038337
 21
-2.1876239475
  0
LINE
  5
376
100
AcDbEntity
  8
DRAFT
100
AcDbLine
 62
7
  6
CONTINUOUS
 10
11.0213038337
 20
-2.038124479
 11
9.7713038337
 21
-2.038124479
  0
LINE
  5
377
100
AcDbEntity
  8
ASSI
100
AcDbLine
 62
7
  6
CONTINUOUS
 10
11.0213038337
 20
-2.038124479
 11
9.7713038337
 21
-2.038124479
  0
LINE
  5
378
100
AcDbEntity
  8
DRAFT
100
AcDbLine
 62
7
  6
CONTINUOUS
 10
-10.0286961663
 20
-2.038124479
 11
-11.2786961663
 21
-2.038124479
  0
LINE
  5
379
100
AcDbEntity
  8
ASSI
100
AcDbLine
 62
7
  6
CONTINUOUS
 10
-10.0286961663
 20
-2.038124479
 11
-11.2786961663
 21
-2.038124479
  0
LINE
  5
37A
100
AcDbEntity
  8
0
100
AcDbLine
 62
7
  6
CONTINUOUS
 10
1.5372612816
 20
-4.773040479
 11
1.6819421408
 21
-4.879290479
  0
LINE
  5
37B
100
AcDbEntity
  8
ASSI
100
AcDbLine
 62
7
  6
CONTINUOUS
 10
1.5372612816
 20
-4.773040479
 11
1.6819421408
 21
-4.879290479
  0
LINE
  5
37C
100
AcDbEntity
  8
0
100
AcDbLine
 62
7
  6
CONTINUOUS
 10
0.2713038337
 20
-3.4626239475
 11
1.2478995633
 21
-4.3126239475
  0
LINE
  5
37D
100
AcDbEntity
  8
ASSI
100
AcDbLine
 62
7
  6
CONTINUOUS
 10
0.2713038337
 20
-3.4626239475
 11
1.2478995633
 21
-4.3126239475
  0
LINE
  5
37E
100
AcDbEntity
  8
0
100
AcDbLine
 62
7
  6
CONTINUOUS
 10
0.5606655014
 20
-3.4626239475
 11
1.2478995633
 21
-4.0647070106
  0
LINE
  5
37F
100
AcDbEntity
  8
ASSI
100
AcDbLine
 62
7
  6
CONTINUOUS
 10
0.5606655014
 20
-3.4626239475
 11
1.2478995633
 21
-4.0647070106
  0
LINE
  5
380
100
AcDbEntity
  8
0
100
AcDbLine
 62
7
  6
CONTINUOUS
 10
0.9585378957
 20
-4.7022070106
 11
1.067048521
 21
-4.8084570106
  0
LINE
  5
381
100
AcDbEntity
  8
ASSI
100
AcDbLine
 62
7
  6
CONTINUOUS
 10
0.9585378957
 20
-4.7022070106
 11
1.067048521
 21
-4.8084570106
  0
LINE
  5
382
100
AcDbEntity
  8
0
100
AcDbLine
 62
7
  6
CONTINUOUS
 10
1.7181123492
 20
-4.666790479
 11
1.8266229872
 21
-4.773040479
  0
LINE
  5
383
100
AcDbEntity
  8
ASSI
100
AcDbLine
 62
7
  6
CONTINUOUS
 10
1.7181123492
 20
-4.666790479
 11
1.8266229872
 21
-4.773040479
  0
LINE
  5
384
100
AcDbEntity
  8
0
100
AcDbLine
 62
7
  6
CONTINUOUS
 10
0.4883250844
 20
-5.4459572133
 11
0.5968357098
 21
-5.5876237448
  0
LINE
  5
385
100
AcDbEntity
  8
ASSI
100
AcDbLine
 62
7
  6
CONTINUOUS
 10
0.4883250844
 20
-5.4459572133
 11
0.5968357098
 21
-5.5876237448
  0
LINE
  5
386
100
AcDbEntity
  8
0
100
AcDbLine
 62
7
  6
CONTINUOUS
 10
1.1393889379
 20
-5.6584572133
 11
1.2478995633
 21
-5.8001237448
  0
LINE
  5
387
100
AcDbEntity
  8
ASSI
100
AcDbLine
 62
7
  6
CONTINUOUS
 10
1.1393889379
 20
-5.6584572133
 11
1.2478995633
 21
-5.8001237448
  0
LINE
  5
388
100
AcDbEntity
  8
0
100
AcDbLine
 62
7
  6
CONTINUOUS
 10
0.8861974788
 20
-4.879290479
 11
0.9947081041
 21
-5.0209572133
  0
LINE
  5
389
100
AcDbEntity
  8
ASSI
100
AcDbLine
 62
7
  6
CONTINUOUS
 10
0.8861974788
 20
-4.879290479
 11
0.9947081041
 21
-5.0209572133
  0
LINE
  5
38A
100
AcDbEntity
  8
0
100
AcDbLine
 62
7
  6
CONTINUOUS
 10
0.3074740422
 20
-5.4813737448
 11
0.4159846675
 21
-5.6584572133
  0
LINE
  5
38B
100
AcDbEntity
  8
ASSI
100
AcDbLine
 62
7
  6
CONTINUOUS
 10
0.3074740422
 20
-5.4813737448
 11
0.4159846675
 21
-5.6584572133
  0
LINE
  5
38C
100
AcDbEntity
  8
0
100
AcDbLine
 62
7
  6
CONTINUOUS
 10
-1.4900243348
 20
-2.3775023346
 11
-1.4900243348
 21
-2.5802830474
  0
LINE
  5
38D
100
AcDbEntity
  8
ASSI
100
AcDbLine
 62
7
  6
CONTINUOUS
 10
-1.4900243348
 20
-2.3775023346
 11
-1.4900243348
 21
-2.5802830474
  0
LINE
  5
38E
100
AcDbEntity
  8
0
100
AcDbLine
 62
7
  6
CONTINUOUS
 10
-1.2116278822
 20
-2.37826716
 11
-1.2116278822
 21
-2.5685174831
  0
LINE
  5
38F
100
AcDbEntity
  8
ASSI
100
AcDbLine
 62
7
  6
CONTINUOUS
 10
-1.2116278822
 20
-2.37826716
 11
-1.2116278822
 21
-2.5685174831
  0
LINE
  5
390
100
AcDbEntity
  8
0
100
AcDbLine
 62
7
  6
CONTINUOUS
 10
-1.1483381663
 20
-3.562918479
 11
-1.1483381663
 21
-3.902640479
  0
LINE
  5
391
100
AcDbEntity
  8
ASSI
100
AcDbLine
 62
7
  6
CONTINUOUS
 10
-1.1483381663
 20
-3.562918479
 11
-1.1483381663
 21
-3.902640479
  0
LINE
  5
392
100
AcDbEntity
  8
DRAFT
100
AcDbLine
 62
7
  6
CONTINUOUS
 10
2.3678128207
 20
4.140929443
 11
2.3713038337
 21
4.144420456
  0
LINE
  5
393
100
AcDbEntity
  8
0
100
AcDbLine
 62
7
  6
CONTINUOUS
 10
-1.3499210651
 20
-2.0096722963
 11
-1.3398763579
 21
-2.0096722963
  0
LINE
  5
394
100
AcDbEntity
  8
ASSI
100
AcDbLine
 62
7
  6
CONTINUOUS
 10
-1.3499210651
 20
-2.0096722963
 11
-1.3398763579
 21
-2.0096722963
  0
LINE
  5
395
100
AcDbEntity
  8
RACCORDO
100
AcDbLine
 62
253
  6
CONTINUOUS
 10
5.0656836407
 20
-4.7852010275
 11
5.1200779191
 21
-4.8123898803
  0
LINE
  5
396
100
AcDbEntity
  8
ASSI
100
AcDbLine
 62
253
  6
CONTINUOUS
 10
5.0656836407
 20
-4.7852010275
 11
5.1200779191
 21
-4.8123898803
  0
LINE
  5
397
100
AcDbEntity
  8
RACCORDO
100
AcDbLine
 62
253
  6
CONTINUOUS
 10
5.3154081616
 20
-4.5351775295
 11
5.3699251674
 21
-4.5624277274
  0
LINE
  5
398
100
AcDbEntity
  8
ASSI
100
AcDbLine
 62
253
  6
CONTINUOUS
 10
5.3154081616
 20
-4.5351775295
 11
5.3699251674
 21
-4.5624277274
  0
LINE
  5
399
100
AcDbEntity
  8
0
100
AcDbLine
 62
7
  6
CONTINUOUS
 10
0.2713038337
 20
-2.4001239475
 11
0.5244952929
 21
-2.6126239475
  0
LINE
  5
39A
100
AcDbEntity
  8
ASSI
100
AcDbLine
 62
7
  6
CONTINUOUS
 10
0.2713038337
 20
-2.4001239475
 11
0.5244952929
 21
-2.6126239475
  0
LINE
  5
39B
100
AcDbEntity
  8
0
100
AcDbLine
 62
7
  6
CONTINUOUS
 10
0.5606655014
 20
-2.4001239475
 11
0.8138570619
 21
-2.6126239475
  0
LINE
  5
39C
100
AcDbEntity
  8
ASSI
100
AcDbLine
 62
7
  6
CONTINUOUS
 10
0.5606655014
 20
-2.4001239475
 11
0.8138570619
 21
-2.6126239475
  0
LINE
  5
39D
100
AcDbEntity
  8
RACCORDO
100
AcDbLine
 62
253
  6
CONTINUOUS
 10
-7.1654470898
 20
4.8488091964
 11
-7.2205770251
 21
4.9039391316
  0
LINE
  5
39E
100
AcDbEntity
  8
ASSI
100
AcDbLine
 62
253
  6
CONTINUOUS
 10
-7.1654470898
 20
4.8488091964
 11
-7.2205770251
 21
4.9039391316
  0
LINE
  5
39F
100
AcDbEntity
  8
RACCORDO
100
AcDbLine
 62
253
  6
CONTINUOUS
 10
-6.8655025423
 20
5.1484991451
 11
-6.9207603045
 21
5.2037569073
  0
LINE
  5
3A0
100
AcDbEntity
  8
ASSI
100
AcDbLine
 62
253
  6
CONTINUOUS
 10
-6.8655025423
 20
5.1484991451
 11
-6.9207603045
 21
5.2037569073
  0
LINE
  5
3A1
100
AcDbEntity
  8
0
100
AcDbLine
 62
7
  6
CONTINUOUS
 10
1.1032187295
 20
-5.5876237448
 11
1.1393889379
 21
-5.6584572133
  0
LINE
  5
3A2
100
AcDbEntity
  8
ASSI
100
AcDbLine
 62
7
  6
CONTINUOUS
 10
1.1032187295
 20
-5.5876237448
 11
1.1393889379
 21
-5.6584572133
  0
LINE
  5
3A3
100
AcDbEntity
  8
0
100
AcDbLine
 62
7
  6
CONTINUOUS
 10
1.2117293549
 20
-5.4459572133
 11
1.2840697718
 21
-5.5876237448
  0
LINE
  5
3A4
100
AcDbEntity
  8
ASSI
100
AcDbLine
 62
7
  6
CONTINUOUS
 10
1.2117293549
 20
-5.4459572133
 11
1.2840697718
 21
-5.5876237448
  0
LINE
  5
3A5
100
AcDbEntity
  8
0
100
AcDbLine
 62
7
  6
CONTINUOUS
 10
1.067048521
 20
-4.8084570106
 11
1.1032187295
 21
-4.879290479
  0
LINE
  5
3A6
100
AcDbEntity
  8
ASSI
100
AcDbLine
 62
7
  6
CONTINUOUS
 10
1.067048521
 20
-4.8084570106
 11
1.1032187295
 21
-4.879290479
  0
LINE
  5
3A7
100
AcDbEntity
  8
0
100
AcDbLine
 62
7
  6
CONTINUOUS
 10
-0.8857481663
 20
-3.492005479
 11
-0.8857481663
 21
-3.975222479
  0
LINE
  5
3A8
100
AcDbEntity
  8
ASSI
100
AcDbLine
 62
7
  6
CONTINUOUS
 10
-0.8857481663
 20
-3.492005479
 11
-0.8857481663
 21
-3.975222479
  0
LINE
  5
3A9
100
AcDbEntity
  8
0
100
AcDbLine
 62
7
  6
CONTINUOUS
 10
-0.5463954796
 20
-1.6838439206
 11
-0.5463954796
 21
-2.0251472639
  0
LINE
  5
3AA
100
AcDbEntity
  8
ASSI
100
AcDbLine
 62
7
  6
CONTINUOUS
 10
-0.5463954796
 20
-1.6838439206
 11
-0.5463954796
 21
-2.0251472639
  0
LINE
  5
3AB
100
AcDbEntity
  8
0
100
AcDbLine
 62
7
  6
CONTINUOUS
 10
-0.5463954796
 20
-2.5685174831
 11
-0.5463954796
 21
-2.9219178151
  0
LINE
  5
3AC
100
AcDbEntity
  8
ASSI
100
AcDbLine
 62
7
  6
CONTINUOUS
 10
-0.5463954796
 20
-2.5685174831
 11
-0.5463954796
 21
-2.9219178151
  0
LINE
  5
3AD
100
AcDbEntity
  8
0
100
AcDbLine
 62
7
  6
CONTINUOUS
 10
-0.5463951663
 20
-3.026112479
 11
-0.5463951663
 21
-3.400086479
  0
LINE
  5
3AE
100
AcDbEntity
  8
ASSI
100
AcDbLine
 62
7
  6
CONTINUOUS
 10
-0.5463951663
 20
-3.026112479
 11
-0.5463951663
 21
-3.400086479
  0
LINE
  5
3AF
100
AcDbEntity
  8
0
100
AcDbLine
 62
7
  6
CONTINUOUS
 10
-0.5463951663
 20
-4.073133479
 11
-0.5463951663
 21
-4.424111479
  0
LINE
  5
3B0
100
AcDbEntity
  8
ASSI
100
AcDbLine
 62
7
  6
CONTINUOUS
 10
-0.5463951663
 20
-4.073133479
 11
-0.5463951663
 21
-4.424111479
  0
LINE
  5
3B1
100
AcDbEntity
  8
0
100
AcDbLine
 62
7
  6
CONTINUOUS
 10
-0.5463951663
 20
-4.479828479
 11
-0.5463951663
 21
-4.826944479
  0
LINE
  5
3B2
100
AcDbEntity
  8
ASSI
100
AcDbLine
 62
7
  6
CONTINUOUS
 10
-0.5463951663
 20
-4.479828479
 11
-0.5463951663
 21
-4.826944479
  0
LINE
  5
3B3
100
AcDbEntity
  8
0
100
AcDbLine
 62
7
  6
CONTINUOUS
 10
-0.5463951663
 20
-5.321736479
 11
-0.5463951663
 21
-5.371500479
  0
LINE
  5
3B4
100
AcDbEntity
  8
ASSI
100
AcDbLine
 62
7
  6
CONTINUOUS
 10
-0.5463951663
 20
-5.321736479
 11
-0.5463951663
 21
-5.371500479
  0
LINE
  5
3B5
100
AcDbEntity
  8
0
100
AcDbLine
 62
7
  6
CONTINUOUS
 10
-0.5463951663
 20
-5.864328479
 11
-0.5463951663
 21
-6.203783479
  0
LINE
  5
3B6
100
AcDbEntity
  8
ASSI
100
AcDbLine
 62
7
  6
CONTINUOUS
 10
-0.5463951663
 20
-5.864328479
 11
-0.5463951663
 21
-6.203783479
  0
LINE
  5
3B7
100
AcDbEntity
  8
0
100
AcDbLine
 62
7
  6
CONTINUOUS
 10
-0.5463951663
 20
-6.394798479
 11
-0.5463951663
 21
-6.749626479
  0
LINE
  5
3B8
100
AcDbEntity
  8
ASSI
100
AcDbLine
 62
7
  6
CONTINUOUS
 10
-0.5463951663
 20
-6.394798479
 11
-0.5463951663
 21
-6.749626479
  0
LINE
  5
3B9
100
AcDbEntity
  8
0
100
AcDbLine
 62
7
  6
CONTINUOUS
 10
-0.5463951663
 20
-7.427708479
 11
-0.5463951663
 21
-7.740400479
  0
LINE
  5
3BA
100
AcDbEntity
  8
ASSI
100
AcDbLine
 62
7
  6
CONTINUOUS
 10
-0.5463951663
 20
-7.427708479
 11
-0.5463951663
 21
-7.740400479
  0
LINE
  5
3BB
100
AcDbEntity
  8
0
100
AcDbLine
 62
7
  6
CONTINUOUS
 10
1.8266229872
 20
-4.773040479
 11
1.9351336221
 21
-4.9501237448
  0
LINE
  5
3BC
100
AcDbEntity
  8
ASSI
100
AcDbLine
 62
7
  6
CONTINUOUS
 10
1.8266229872
 20
-4.773040479
 11
1.9351336221
 21
-4.9501237448
  0
LINE
  5
3BD
100
AcDbEntity
  8
0
100
AcDbLine
 62
7
  6
CONTINUOUS
 10
1.6819421408
 20
-4.879290479
 11
1.7542825577
 21
-5.0209572133
  0
LINE
  5
3BE
100
AcDbEntity
  8
ASSI
100
AcDbLine
 62
7
  6
CONTINUOUS
 10
1.6819421408
 20
-4.879290479
 11
1.7542825577
 21
-5.0209572133
  0
LINE
  5
3BF
100
AcDbEntity
  8
0
100
AcDbLine
 62
7
  6
CONTINUOUS
 10
0.452154876
 20
-5.304290479
 11
0.4883250844
 21
-5.4459572133
  0
LINE
  5
3C0
100
AcDbEntity
  8
ASSI
100
AcDbLine
 62
7
  6
CONTINUOUS
 10
0.452154876
 20
-5.304290479
 11
0.4883250844
 21
-5.4459572133
  0
LINE
  5
3C1
100
AcDbEntity
  8
0
100
AcDbLine
 62
7
  6
CONTINUOUS
 10
0.9947081041
 20
-5.0209572133
 11
1.0308783126
 21
-5.1626237448
  0
LINE
  5
3C2
100
AcDbEntity
  8
ASSI
100
AcDbLine
 62
7
  6
CONTINUOUS
 10
0.9947081041
 20
-5.0209572133
 11
1.0308783126
 21
-5.1626237448
  0
LINE
  5
3C3
100
AcDbEntity
  8
0
100
AcDbLine
 62
7
  6
CONTINUOUS
 10
1.1755591464
 20
-5.304290479
 11
1.2117293549
 21
-5.4459572133
  0
LINE
  5
3C4
100
AcDbEntity
  8
ASSI
100
AcDbLine
 62
7
  6
CONTINUOUS
 10
1.1755591464
 20
-5.304290479
 11
1.2117293549
 21
-5.4459572133
  0
LINE
  5
3C5
100
AcDbEntity
  8
0
100
AcDbLine
 62
7
  6
CONTINUOUS
 10
0.2713038337
 20
-5.304290479
 11
0.3074740422
 21
-5.4813737448
  0
LINE
  5
3C6
100
AcDbEntity
  8
ASSI
100
AcDbLine
 62
7
  6
CONTINUOUS
 10
0.2713038337
 20
-5.304290479
 11
0.3074740422
 21
-5.4813737448
  0
LINE
  5
3C7
100
AcDbEntity
  8
0
100
AcDbLine
 62
7
  6
CONTINUOUS
 10
0.2713038337
 20
-2.1876239475
 11
0.2713038337
 21
-2.4001239475
  0
LINE
  5
3C8
100
AcDbEntity
  8
ASSI
100
AcDbLine
 62
7
  6
CONTINUOUS
 10
0.2713038337
 20
-2.1876239475
 11
0.2713038337
 21
-2.4001239475
  0
LINE
  5
3C9
100
AcDbEntity
  8
0
100
AcDbLine
 62
7
  6
CONTINUOUS
 10
0.2713038337
 20
-3.2501239475
 11
0.2713038337
 21
-3.4626239475
  0
LINE
  5
3CA
100
AcDbEntity
  8
ASSI
100
AcDbLine
 62
7
  6
CONTINUOUS
 10
0.2713038337
 20
-3.2501239475
 11
0.2713038337
 21
-3.4626239475
  0
LINE
  5
3CB
100
AcDbEntity
  8
0
100
AcDbLine
 62
7
  6
CONTINUOUS
 10
0.2713038337
 20
-5.1626237448
 11
0.2713038337
 21
-5.304290479
  0
LINE
  5
3CC
100
AcDbEntity
  8
ASSI
100
AcDbLine
 62
7
  6
CONTINUOUS
 10
0.2713038337
 20
-5.1626237448
 11
0.2713038337
 21
-5.304290479
  0
LINE
  5
3CD
100
AcDbEntity
  8
0
100
AcDbLine
 62
7
  6
CONTINUOUS
 10
0.2713038337
 20
-6.5084572133
 11
0.2713038337
 21
-6.7209571119
  0
LINE
  5
3CE
100
AcDbEntity
  8
ASSI
100
AcDbLine
 62
7
  6
CONTINUOUS
 10
0.2713038337
 20
-6.5084572133
 11
0.2713038337
 21
-6.7209571119
  0
LINE
  5
3CF
100
AcDbEntity
  8
0
100
AcDbLine
 62
7
  6
CONTINUOUS
 10
0.2713038337
 20
-7.854290479
 11
0.2713038337
 21
-8.066790479
  0
LINE
  5
3D0
100
AcDbEntity
  8
ASSI
100
AcDbLine
 62
7
  6
CONTINUOUS
 10
0.2713038337
 20
-7.854290479
 11
0.2713038337
 21
-8.066790479
  0
LINE
  5
3D1
100
AcDbEntity
  8
0
100
AcDbLine
 62
7
  6
CONTINUOUS
 10
0.452154876
 20
-5.1626237448
 11
0.452154876
 21
-5.304290479
  0
LINE
  5
3D2
100
AcDbEntity
  8
ASSI
100
AcDbLine
 62
7
  6
CONTINUOUS
 10
0.452154876
 20
-5.1626237448
 11
0.452154876
 21
-5.304290479
  0
LINE
  5
3D3
100
AcDbEntity
  8
0
100
AcDbLine
 62
7
  6
CONTINUOUS
 10
1.0308783126
 20
-5.1626237448
 11
1.0308783126
 21
-5.304290479
  0
LINE
  5
3D4
100
AcDbEntity
  8
ASSI
100
AcDbLine
 62
7
  6
CONTINUOUS
 10
1.0308783126
 20
-5.1626237448
 11
1.0308783126
 21
-5.304290479
  0
LINE
  5
3D5
100
AcDbEntity
  8
RACCORDO
100
AcDbLine
 62
253
  6
CONTINUOUS
 10
6.6633679719
 20
5.2037569073
 11
6.6081102097
 21
5.1484991451
  0
LINE
  5
3D6
100
AcDbEntity
  8
ASSI
100
AcDbLine
 62
253
  6
CONTINUOUS
 10
6.6633679719
 20
5.2037569073
 11
6.6081102097
 21
5.1484991451
  0
LINE
  5
3D7
100
AcDbEntity
  8
DRAFT
100
AcDbLine
 62
7
  6
CONTINUOUS
 10
-10.0118192672
 20
0.761875521
 11
-9.6286961663
 21
0.761875521
  0
LINE
  5
3D8
100
AcDbEntity
  8
ASSI
100
AcDbLine
 62
7
  6
CONTINUOUS
 10
-10.0118192672
 20
0.761875521
 11
-9.6286961663
 21
0.761875521
  0
LINE
  5
3D9
100
AcDbEntity
  8
DRAFT
100
AcDbLine
 62
7
  6
CONTINUOUS
 10
9.3713038337
 20
0.761875521
 11
9.7544269347
 21
0.761875521
  0
LINE
  5
3DA
100
AcDbEntity
  8
ASSI
100
AcDbLine
 62
7
  6
CONTINUOUS
 10
9.3713038337
 20
0.761875521
 11
9.7544269347
 21
0.761875521
  0
LINE
  5
3DB
100
AcDbEntity
  8
0
100
AcDbLine
 62
7
  6
CONTINUOUS
 10
1.7542825577
 20
-5.0209572133
 11
1.7904527661
 21
-5.1626237448
  0
LINE
  5
3DC
100
AcDbEntity
  8
ASSI
100
AcDbLine
 62
7
  6
CONTINUOUS
 10
1.7542825577
 20
-5.0209572133
 11
1.7904527661
 21
-5.1626237448
  0
LINE
  5
3DD
100
AcDbEntity
  8
0
100
AcDbLine
 62
7
  6
CONTINUOUS
 10
1.9351336221
 20
-4.9501237448
 11
1.9713038337
 21
-5.1272072133
  0
LINE
  5
3DE
100
AcDbEntity
  8
ASSI
100
AcDbLine
 62
7
  6
CONTINUOUS
 10
1.9351336221
 20
-4.9501237448
 11
1.9713038337
 21
-5.1272072133
  0
LINE
  5
3DF
100
AcDbEntity
  8
0
100
AcDbLine
 62
7
  6
CONTINUOUS
 10
1.1755591464
 20
-5.1626237448
 11
1.1755591464
 21
-5.304290479
  0
LINE
  5
3E0
100
AcDbEntity
  8
ASSI
100
AcDbLine
 62
7
  6
CONTINUOUS
 10
1.1755591464
 20
-5.1626237448
 11
1.1755591464
 21
-5.304290479
  0
LINE
  5
3E1
100
AcDbEntity
  8
0
100
AcDbLine
 62
7
  6
CONTINUOUS
 10
1.2478995633
 20
-2.8959570106
 11
1.2478995633
 21
-3.2501239475
  0
LINE
  5
3E2
100
AcDbEntity
  8
ASSI
100
AcDbLine
 62
7
  6
CONTINUOUS
 10
1.2478995633
 20
-2.8959570106
 11
1.2478995633
 21
-3.2501239475
  0
LINE
  5
3E3
100
AcDbEntity
  8
0
100
AcDbLine
 62
7
  6
CONTINUOUS
 10
1.2478995633
 20
-3.4626239475
 11
1.2478995633
 21
-4.0647070106
  0
LINE
  5
3E4
100
AcDbEntity
  8
ASSI
100
AcDbLine
 62
7
  6
CONTINUOUS
 10
1.2478995633
 20
-3.4626239475
 11
1.2478995633
 21
-4.0647070106
  0
LINE
  5
3E5
100
AcDbEntity
  8
0
100
AcDbLine
 62
7
  6
CONTINUOUS
 10
1.2478995633
 20
-6.154290479
 11
1.2478995633
 21
-6.5084572133
  0
LINE
  5
3E6
100
AcDbEntity
  8
ASSI
100
AcDbLine
 62
7
  6
CONTINUOUS
 10
1.2478995633
 20
-6.154290479
 11
1.2478995633
 21
-6.5084572133
  0
LINE
  5
3E7
100
AcDbEntity
  8
0
100
AcDbLine
 62
7
  6
CONTINUOUS
 10
1.2478995633
 20
-6.7209571119
 11
1.2478995633
 21
-7.323040479
  0
LINE
  5
3E8
100
AcDbEntity
  8
ASSI
100
AcDbLine
 62
7
  6
CONTINUOUS
 10
1.2478995633
 20
-6.7209571119
 11
1.2478995633
 21
-7.323040479
  0
LINE
  5
3E9
100
AcDbEntity
  8
0
100
AcDbLine
 62
7
  6
CONTINUOUS
 10
1.4649208647
 20
-2.8959570106
 11
1.4649208647
 21
-3.2501239475
  0
LINE
  5
3EA
100
AcDbEntity
  8
ASSI
100
AcDbLine
 62
7
  6
CONTINUOUS
 10
1.4649208647
 20
-2.8959570106
 11
1.4649208647
 21
-3.2501239475
  0
LINE
  5
3EB
100
AcDbEntity
  8
0
100
AcDbLine
 62
7
  6
CONTINUOUS
 10
1.4649208647
 20
-3.4626239475
 11
1.4649208647
 21
-4.3126239475
  0
LINE
  5
3EC
100
AcDbEntity
  8
ASSI
100
AcDbLine
 62
7
  6
CONTINUOUS
 10
1.4649208647
 20
-3.4626239475
 11
1.4649208647
 21
-4.3126239475
  0
LINE
  5
3ED
100
AcDbEntity
  8
0
100
AcDbLine
 62
7
  6
CONTINUOUS
 10
1.4649208647
 20
-6.154290479
 11
1.4649208647
 21
-6.5084572133
  0
LINE
  5
3EE
100
AcDbEntity
  8
ASSI
100
AcDbLine
 62
7
  6
CONTINUOUS
 10
1.4649208647
 20
-6.154290479
 11
1.4649208647
 21
-6.5084572133
  0
LINE
  5
3EF
100
AcDbEntity
  8
0
100
AcDbLine
 62
7
  6
CONTINUOUS
 10
1.4649208647
 20
-6.7209571119
 11
1.4649208647
 21
-7.5709571626
  0
LINE
  5
3F0
100
AcDbEntity
  8
ASSI
100
AcDbLine
 62
7
  6
CONTINUOUS
 10
1.4649208647
 20
-6.7209571119
 11
1.4649208647
 21
-7.5709571626
  0
LINE
  5
3F1
100
AcDbEntity
  8
0
100
AcDbLine
 62
7
  6
CONTINUOUS
 10
1.7904527661
 20
-5.1626237448
 11
1.7904527661
 21
-5.304290479
  0
LINE
  5
3F2
100
AcDbEntity
  8
ASSI
100
AcDbLine
 62
7
  6
CONTINUOUS
 10
1.7904527661
 20
-5.1626237448
 11
1.7904527661
 21
-5.304290479
  0
LINE
  5
3F3
100
AcDbEntity
  8
0
100
AcDbLine
 62
7
  6
CONTINUOUS
 10
1.9713038337
 20
-2.1876239475
 11
1.9713038337
 21
-2.4001239475
  0
LINE
  5
3F4
100
AcDbEntity
  8
ASSI
100
AcDbLine
 62
7
  6
CONTINUOUS
 10
1.9713038337
 20
-2.1876239475
 11
1.9713038337
 21
-2.4001239475
  0
LINE
  5
3F5
100
AcDbEntity
  8
0
100
AcDbLine
 62
7
  6
CONTINUOUS
 10
1.9713038337
 20
-3.2501239475
 11
1.9713038337
 21
-3.4626239475
  0
LINE
  5
3F6
100
AcDbEntity
  8
ASSI
100
AcDbLine
 62
7
  6
CONTINUOUS
 10
1.9713038337
 20
-3.2501239475
 11
1.9713038337
 21
-3.4626239475
  0
LINE
  5
3F7
100
AcDbEntity
  8
0
100
AcDbLine
 62
7
  6
CONTINUOUS
 10
1.9713038337
 20
-5.1272072133
 11
1.9713038337
 21
-5.3397072133
  0
LINE
  5
3F8
100
AcDbEntity
  8
ASSI
100
AcDbLine
 62
7
  6
CONTINUOUS
 10
1.9713038337
 20
-5.1272072133
 11
1.9713038337
 21
-5.3397072133
  0
LINE
  5
3F9
100
AcDbEntity
  8
0
100
AcDbLine
 62
7
  6
CONTINUOUS
 10
1.9713038337
 20
-6.5084572133
 11
1.9713038337
 21
-6.7209571119
  0
LINE
  5
3FA
100
AcDbEntity
  8
ASSI
100
AcDbLine
 62
7
  6
CONTINUOUS
 10
1.9713038337
 20
-6.5084572133
 11
1.9713038337
 21
-6.7209571119
  0
LINE
  5
3FB
100
AcDbEntity
  8
0
100
AcDbLine
 62
7
  6
CONTINUOUS
 10
1.9713038337
 20
-7.854290479
 11
1.9713038337
 21
-8.066790479
  0
LINE
  5
3FC
100
AcDbEntity
  8
ASSI
100
AcDbLine
 62
7
  6
CONTINUOUS
 10
1.9713038337
 20
-7.854290479
 11
1.9713038337
 21
-8.066790479
  0
LINE
  5
3FD
100
AcDbEntity
  8
0
100
AcDbLine
 62
7
  6
CONTINUOUS
 10
0.3074740422
 20
-4.985540479
 11
0.2713038337
 21
-5.1626237448
  0
LINE
  5
3FE
100
AcDbEntity
  8
ASSI
100
AcDbLine
 62
7
  6
CONTINUOUS
 10
0.3074740422
 20
-4.985540479
 11
0.2713038337
 21
-5.1626237448
  0
LINE
  5
3FF
100
AcDbEntity
  8
0
100
AcDbLine
 62
7
  6
CONTINUOUS
 10
0.4883250844
 20
-5.0209572133
 11
0.452154876
 21
-5.1626237448
  0
LINE
  5
400
100
AcDbEntity
  8
ASSI
100
AcDbLine
 62
7
  6
CONTINUOUS
 10
0.4883250844
 20
-5.0209572133
 11
0.452154876
 21
-5.1626237448
  0
LINE
  5
401
100
AcDbEntity
  8
RACCORDO
100
AcDbLine
 62
253
  6
CONTINUOUS
 10
6.9631846925
 20
4.9039391316
 11
6.9080547572
 21
4.8488091964
  0
LINE
  5
402
100
AcDbEntity
  8
ASSI
100
AcDbLine
 62
253
  6
CONTINUOUS
 10
6.9631846925
 20
4.9039391316
 11
6.9080547572
 21
4.8488091964
  0
LINE
  5
403
100
AcDbEntity
  8
RACCORDO
100
AcDbLine
 62
253
  6
CONTINUOUS
 10
-5.6273175
 20
-4.5624277274
 11
-5.5728004942
 21
-4.5351775295
  0
LINE
  5
404
100
AcDbEntity
  8
ASSI
100
AcDbLine
 62
253
  6
CONTINUOUS
 10
-5.6273175
 20
-4.5624277274
 11
-5.5728004942
 21
-4.5351775295
  0
LINE
  5
405
100
AcDbEntity
  8
RACCORDO
100
AcDbLine
 62
253
  6
CONTINUOUS
 10
-5.3774702516
 20
-4.8123898803
 11
-5.3230759732
 21
-4.7852010275
  0
LINE
  5
406
100
AcDbEntity
  8
ASSI
100
AcDbLine
 62
253
  6
CONTINUOUS
 10
-5.3774702516
 20
-4.8123898803
 11
-5.3230759732
 21
-4.7852010275
  0
LINE
  5
407
100
AcDbEntity
  8
DRAFT
100
AcDbLine
 62
7
  6
CONTINUOUS
 10
-2.6252051533
 20
4.140929443
 11
-2.6286961663
 21
4.144420456
  0
LINE
  5
408
100
AcDbEntity
  8
RACCORDO
100
AcDbLine
 62
7
  6
CONTINUOUS
 10
-6.8960720224
 20
9.7792513771
 11
-6.8643382232
 21
9.7475175779
  0
LINE
  5
409
100
AcDbEntity
  8
ASSI
100
AcDbLine
 62
7
  6
CONTINUOUS
 10
-6.8960720224
 20
9.7792513771
 11
-6.8643382232
 21
9.7475175779
  0
LINE
  5
40A
100
AcDbEntity
  8
DRAFT
100
AcDbLine
 62
7
  6
CONTINUOUS
 10
3.2628788407
 20
-11.0974371848
 11
3.1875853569
 21
-9.6068196098
  0
LINE
  5
40B
100
AcDbEntity
  8
ASSI
100
AcDbLine
 62
7
  6
CONTINUOUS
 10
3.2628788407
 20
-11.0974371848
 11
3.1875853569
 21
-9.6068196098
  0
LINE
  5
40C
100
AcDbEntity
  8
DRAFT
100
AcDbLine
 62
7
  6
CONTINUOUS
 10
2.3678128207
 20
8.9828215989
 11
2.3678128207
 21
4.140929443
  0
LINE
  5
40D
100
AcDbEntity
  8
DRAFT
100
AcDbLine
 62
7
  6
CONTINUOUS
 10
2.3713038337
 20
4.144420456
 11
2.3713038337
 21
8.9793305859
  0
LINE
  5
40E
100
AcDbEntity
  8
DRAFT
100
AcDbLine
 62
7
  6
CONTINUOUS
 10
2.7713038337
 20
7.3393570515
 11
2.7713038337
 21
5.7843939904
  0
LINE
  5
40F
100
AcDbEntity
  8
ASSI
100
AcDbLine
 62
7
  6
CONTINUOUS
 10
2.7713038337
 20
7.3393570515
 11
2.7713038337
 21
5.7843939904
  0
LINE
  5
410
100
AcDbEntity
  8
DRAFT
100
AcDbLine
 62
7
  6
CONTINUOUS
 10
2.8387588986
 20
8.9793305859
 11
2.8387588986
 21
7.348357357
  0
LINE
  5
411
100
AcDbEntity
  8
DRAFT
100
AcDbLine
 62
7
  6
CONTINUOUS
 10
2.8387588986
 20
5.7753936849
 11
2.8387588986
 21
4.144420456
  0
LINE
  5
412
100
AcDbEntity
  8
DRAFT
100
AcDbLine
 62
7
  6
CONTINUOUS
 10
2.8713038337
 20
2.5136859199
 11
2.8713038337
 21
5.7753936849
  0
LINE
  5
413
100
AcDbEntity
  8
ASSI
100
AcDbLine
 62
7
  6
CONTINUOUS
 10
2.8713038337
 20
2.5136859199
 11
2.8713038337
 21
5.7753936849
  0
LINE
  5
414
100
AcDbEntity
  8
DRAFT
100
AcDbLine
 62
7
  6
CONTINUOUS
 10
2.8713038337
 20
7.348357357
 11
2.8713038337
 21
9.0978231481
  0
LINE
  5
415
100
AcDbEntity
  8
ASSI
100
AcDbLine
 62
7
  6
CONTINUOUS
 10
2.8713038337
 20
7.348357357
 11
2.8713038337
 21
9.0978231481
  0
LINE
  5
416
100
AcDbEntity
  8
DRAFT
100
AcDbLine
 62
7
  6
CONTINUOUS
 10
2.9409395941
 20
7.3308969722
 11
2.9409395941
 21
5.7928540697
  0
LINE
  5
417
100
AcDbEntity
  8
ASSI
100
AcDbLine
 62
7
  6
CONTINUOUS
 10
2.9409395941
 20
7.3308969722
 11
2.9409395941
 21
5.7928540697
  0
LINE
  5
418
100
AcDbEntity
  8
0
100
AcDbLine
 62
7
  6
CONTINUOUS
 10
1.9713038337
 20
-5.3397072133
 11
1.9351336221
 21
-5.516790479
  0
LINE
  5
419
100
AcDbEntity
  8
ASSI
100
AcDbLine
 62
7
  6
CONTINUOUS
 10
1.9713038337
 20
-5.3397072133
 11
1.9351336221
 21
-5.516790479
  0
LINE
  5
41A
100
AcDbEntity
  8
0
100
AcDbLine
 62
7
  6
CONTINUOUS
 10
1.0308783126
 20
-5.304290479
 11
0.9947081041
 21
-5.4459572133
  0
LINE
  5
41B
100
AcDbEntity
  8
ASSI
100
AcDbLine
 62
7
  6
CONTINUOUS
 10
1.0308783126
 20
-5.304290479
 11
0.9947081041
 21
-5.4459572133
  0
LINE
  5
41C
100
AcDbEntity
  8
0
100
AcDbLine
 62
7
  6
CONTINUOUS
 10
1.2117293549
 20
-5.0209572133
 11
1.1755591464
 21
-5.1626237448
  0
LINE
  5
41D
100
AcDbEntity
  8
ASSI
100
AcDbLine
 62
7
  6
CONTINUOUS
 10
1.2117293549
 20
-5.0209572133
 11
1.1755591464
 21
-5.1626237448
  0
LINE
  5
41E
100
AcDbEntity
  8
0
100
AcDbLine
 62
7
  6
CONTINUOUS
 10
1.7904527661
 20
-5.304290479
 11
1.7542825577
 21
-5.4459572133
  0
LINE
  5
41F
100
AcDbEntity
  8
ASSI
100
AcDbLine
 62
7
  6
CONTINUOUS
 10
1.7904527661
 20
-5.304290479
 11
1.7542825577
 21
-5.4459572133
  0
LINE
  5
420
100
AcDbEntity
  8
0
100
AcDbLine
 62
7
  6
CONTINUOUS
 10
0.4159846675
 20
-4.8084570106
 11
0.3074740422
 21
-4.985540479
  0
LINE
  5
421
100
AcDbEntity
  8
ASSI
100
AcDbLine
 62
7
  6
CONTINUOUS
 10
0.4159846675
 20
-4.8084570106
 11
0.3074740422
 21
-4.985540479
  0
LINE
  5
422
100
AcDbEntity
  8
0
100
AcDbLine
 62
7
  6
CONTINUOUS
 10
-2.2462581663
 20
-3.547672479
 11
-0.5463951663
 21
-3.026112479
  0
LINE
  5
423
100
AcDbEntity
  8
ASSI
100
AcDbLine
 62
7
  6
CONTINUOUS
 10
-2.2462581663
 20
-3.547672479
 11
-0.5463951663
 21
-3.026112479
  0
LINE
  5
424
100
AcDbEntity
  8
DRAFT
100
AcDbLine
 62
7
  6
CONTINUOUS
 10
2.8713038337
 20
2.5136859199
 11
-3.1286961663
 21
2.5136859199
  0
LINE
  5
425
100
AcDbEntity
  8
ASSI
100
AcDbLine
 62
7
  6
CONTINUOUS
 10
2.8713038337
 20
2.5136859199
 11
-3.1286961663
 21
2.5136859199
  0
LINE
  5
426
100
AcDbEntity
  8
DRAFT
100
AcDbLine
 62
7
  6
CONTINUOUS
 10
2.8713038337
 20
2.561875521
 11
-3.1286961663
 21
2.561875521
  0
LINE
  5
427
100
AcDbEntity
  8
ASSI
100
AcDbLine
 62
7
  6
CONTINUOUS
 10
2.8713038337
 20
2.561875521
 11
-3.1286961663
 21
2.561875521
  0
LINE
  5
428
100
AcDbEntity
  8
RACCORDO
100
AcDbLine
 62
7
  6
CONTINUOUS
 10
5.1511714597
 20
-9.5039476377
 11
5.0771907565
 21
-9.2438248428
  0
LINE
  5
429
100
AcDbEntity
  8
ASSI
100
AcDbLine
 62
7
  6
CONTINUOUS
 10
5.1511714597
 20
-9.5039476377
 11
5.0771907565
 21
-9.2438248428
  0
LINE
  5
42A
100
AcDbEntity
  8
RACCORDO
100
AcDbLine
 62
253
  6
CONTINUOUS
 10
3.4112415723
 20
7.3308969722
 11
3.4112415723
 21
5.7928540697
  0
LINE
  5
42B
100
AcDbEntity
  8
ASSI
100
AcDbLine
 62
253
  6
CONTINUOUS
 10
3.4112415723
 20
7.3308969722
 11
3.4112415723
 21
5.7928540697
  0
LINE
  5
42C
100
AcDbEntity
  8
RACCORDO
100
AcDbLine
 62
253
  6
CONTINUOUS
 10
3.6135688068
 20
-11.0656040268
 11
3.6135688068
 21
-9.5162260938
  0
LINE
  5
42D
100
AcDbEntity
  8
ASSI
100
AcDbLine
 62
253
  6
CONTINUOUS
 10
3.6135688068
 20
-11.0656040268
 11
3.6135688068
 21
-9.5162260938
  0
LINE
  5
42E
100
AcDbEntity
  8
RACCORDO
100
AcDbLine
 62
253
  6
CONTINUOUS
 10
3.6931493585
 20
7.3377901211
 11
3.6931493585
 21
5.7859609208
  0
LINE
  5
42F
100
AcDbEntity
  8
ASSI
100
AcDbLine
 62
253
  6
CONTINUOUS
 10
3.6931493585
 20
7.3377901211
 11
3.6931493585
 21
5.7859609208
  0
LINE
  5
430
100
AcDbEntity
  8
RACCORDO
100
AcDbLine
 62
253
  6
CONTINUOUS
 10
3.7867738876
 20
-11.0603632488
 11
3.7867738876
 21
-9.5039476377
  0
LINE
  5
431
100
AcDbEntity
  8
ASSI
100
AcDbLine
 62
253
  6
CONTINUOUS
 10
3.7867738876
 20
-11.0603632488
 11
3.7867738876
 21
-9.5039476377
  0
LINE
  5
432
100
AcDbEntity
  8
0
100
AcDbLine
 62
7
  6
CONTINUOUS
 10
1.1393889379
 20
-4.8084570106
 11
1.1032187295
 21
-4.879290479
  0
LINE
  5
433
100
AcDbEntity
  8
ASSI
100
AcDbLine
 62
7
  6
CONTINUOUS
 10
1.1393889379
 20
-4.8084570106
 11
1.1032187295
 21
-4.879290479
  0
LINE
  5
434
100
AcDbEntity
  8
0
100
AcDbLine
 62
7
  6
CONTINUOUS
 10
1.2840697718
 20
-4.879290479
 11
1.2117293549
 21
-5.0209572133
  0
LINE
  5
435
100
AcDbEntity
  8
ASSI
100
AcDbLine
 62
7
  6
CONTINUOUS
 10
1.2840697718
 20
-4.879290479
 11
1.2117293549
 21
-5.0209572133
  0
LINE
  5
436
100
AcDbEntity
  8
0
100
AcDbLine
 62
7
  6
CONTINUOUS
 10
1.1032187295
 20
-5.5876237448
 11
1.067048521
 21
-5.6584572133
  0
LINE
  5
437
100
AcDbEntity
  8
ASSI
100
AcDbLine
 62
7
  6
CONTINUOUS
 10
1.1032187295
 20
-5.5876237448
 11
1.067048521
 21
-5.6584572133
  0
LINE
  5
438
100
AcDbEntity
  8
0
100
AcDbLine
 62
7
  6
CONTINUOUS
 10
1.7542825577
 20
-5.4459572133
 11
1.6819421408
 21
-5.5876237448
  0
LINE
  5
439
100
AcDbEntity
  8
ASSI
100
AcDbLine
 62
7
  6
CONTINUOUS
 10
1.7542825577
 20
-5.4459572133
 11
1.6819421408
 21
-5.5876237448
  0
LINE
  5
43A
100
AcDbEntity
  8
0
100
AcDbLine
 62
7
  6
CONTINUOUS
 10
0.5968357098
 20
-4.879290479
 11
0.4883250844
 21
-5.0209572133
  0
LINE
  5
43B
100
AcDbEntity
  8
ASSI
100
AcDbLine
 62
7
  6
CONTINUOUS
 10
0.5968357098
 20
-4.879290479
 11
0.4883250844
 21
-5.0209572133
  0
LINE
  5
43C
100
AcDbEntity
  8
0
100
AcDbLine
 62
7
  6
CONTINUOUS
 10
1.2478995633
 20
-4.666790479
 11
1.1393889379
 21
-4.8084570106
  0
LINE
  5
43D
100
AcDbEntity
  8
ASSI
100
AcDbLine
 62
7
  6
CONTINUOUS
 10
1.2478995633
 20
-4.666790479
 11
1.1393889379
 21
-4.8084570106
  0
LINE
  5
43E
100
AcDbEntity
  8
0
100
AcDbLine
 62
7
  6
CONTINUOUS
 10
0.9947081041
 20
-5.4459572133
 11
0.8861974788
 21
-5.5876237448
  0
LINE
  5
43F
100
AcDbEntity
  8
ASSI
100
AcDbLine
 62
7
  6
CONTINUOUS
 10
0.9947081041
 20
-5.4459572133
 11
0.8861974788
 21
-5.5876237448
  0
LINE
  5
440
100
AcDbEntity
  8
0
100
AcDbLine
 62
7
  6
CONTINUOUS
 10
0.5244952929
 20
-4.7022070106
 11
0.4159846675
 21
-4.8084570106
  0
LINE
  5
441
100
AcDbEntity
  8
ASSI
100
AcDbLine
 62
7
  6
CONTINUOUS
 10
0.5244952929
 20
-4.7022070106
 11
0.4159846675
 21
-4.8084570106
  0
LINE
  5
442
100
AcDbEntity
  8
DRAFT
100
AcDbLine
 62
7
  6
CONTINUOUS
 10
2.3678128207
 20
4.140929443
 11
-2.6252051533
 21
4.140929443
  0
LINE
  5
443
100
AcDbEntity
  8
DRAFT
100
AcDbLine
 62
7
  6
CONTINUOUS
 10
-3.0961512312
 20
4.144420456
 11
-2.6286961663
 21
4.144420456
  0
LINE
  5
444
100
AcDbEntity
  8
DRAFT
100
AcDbLine
 62
7
  6
CONTINUOUS
 10
2.8387588986
 20
4.144420456
 11
2.3713038337
 21
4.144420456
  0
LINE
  5
445
100
AcDbEntity
  8
RACCORDO
100
AcDbLine
 62
253
  6
CONTINUOUS
 10
5.121793485
 20
-6.2478993868
 11
5.1797159511
 21
-6.540369848
  0
LINE
  5
446
100
AcDbEntity
  8
ASSI
100
AcDbLine
 62
253
  6
CONTINUOUS
 10
5.121793485
 20
-6.2478993868
 11
5.1797159511
 21
-6.540369848
  0
LINE
  5
447
100
AcDbEntity
  8
RACCORDO
100
AcDbLine
 62
253
  6
CONTINUOUS
 10
5.3788554021
 20
-6.038124479
 11
5.4295636578
 21
-6.2941679097
  0
LINE
  5
448
100
AcDbEntity
  8
ASSI
100
AcDbLine
 62
253
  6
CONTINUOUS
 10
5.3788554021
 20
-6.038124479
 11
5.4295636578
 21
-6.2941679097
  0
LINE
  5
449
100
AcDbEntity
  8
RACCORDO
100
AcDbLine
 62
253
  6
CONTINUOUS
 10
5.121793485
 20
-4.862382265
 11
5.121793485
 21
-6.2478993868
  0
LINE
  5
44A
100
AcDbEntity
  8
ASSI
100
AcDbLine
 62
253
  6
CONTINUOUS
 10
5.121793485
 20
-4.862382265
 11
5.121793485
 21
-6.2478993868
  0
LINE
  5
44B
100
AcDbEntity
  8
RACCORDO
100
AcDbLine
 62
7
  6
CONTINUOUS
 10
5.1511714597
 20
-9.5039476377
 11
5.1511714597
 21
-8.7242422489
  0
LINE
  5
44C
100
AcDbEntity
  8
ASSI
100
AcDbLine
 62
7
  6
CONTINUOUS
 10
5.1511714597
 20
-9.5039476377
 11
5.1511714597
 21
-8.7242422489
  0
LINE
  5
44D
100
AcDbEntity
  8
RACCORDO
100
AcDbLine
 62
253
  6
CONTINUOUS
 10
5.1811587931
 20
-6.5896102356
 11
5.1811587931
 21
-6.8716160803
  0
LINE
  5
44E
100
AcDbEntity
  8
ASSI
100
AcDbLine
 62
253
  6
CONTINUOUS
 10
5.1811587931
 20
-6.5896102356
 11
5.1811587931
 21
-6.8716160803
  0
LINE
  5
44F
100
AcDbEntity
  8
ASSI
100
AcDbLine
 62
253
  6
CONTINUOUS
 10
4.229548405
 20
7.3758180692
 11
4.2242037621
 21
5.7484459658
  0
LINE
  5
450
100
AcDbEntity
  8
RACCORDO
100
AcDbLine
 62
7
  6
CONTINUOUS
 10
9.7014525895
 20
9.7543792354
 11
9.7713038337
 21
9.8941243012
  0
LINE
  5
451
100
AcDbEntity
  8
ASSI
100
AcDbLine
 62
7
  6
CONTINUOUS
 10
9.7014525895
 20
9.7543792354
 11
9.7713038337
 21
9.8941243012
  0
LINE
  5
452
100
AcDbEntity
  8
0
100
AcDbLine
 62
7
  6
CONTINUOUS
 10
1.9351336221
 20
-5.516790479
 11
1.8266229872
 21
-5.6938737448
  0
LINE
  5
453
100
AcDbEntity
  8
ASSI
100
AcDbLine
 62
7
  6
CONTINUOUS
 10
1.9351336221
 20
-5.516790479
 11
1.8266229872
 21
-5.6938737448
  0
LINE
  5
454
100
AcDbEntity
  8
0
100
AcDbLine
 62
7
  6
CONTINUOUS
 10
1.067048521
 20
-5.6584572133
 11
0.9585378957
 21
-5.7647072133
  0
LINE
  5
455
100
AcDbEntity
  8
ASSI
100
AcDbLine
 62
7
  6
CONTINUOUS
 10
1.067048521
 20
-5.6584572133
 11
0.9585378957
 21
-5.7647072133
  0
LINE
  5
456
100
AcDbEntity
  8
0
100
AcDbLine
 62
7
  6
CONTINUOUS
 10
1.4287506562
 20
-4.773040479
 11
1.2840697718
 21
-4.879290479
  0
LINE
  5
457
100
AcDbEntity
  8
ASSI
100
AcDbLine
 62
7
  6
CONTINUOUS
 10
1.4287506562
 20
-4.773040479
 11
1.2840697718
 21
-4.879290479
  0
LINE
  5
458
100
AcDbEntity
  8
0
100
AcDbLine
 62
7
  6
CONTINUOUS
 10
0.7053464365
 20
-4.8084570106
 11
0.5968357098
 21
-4.879290479
  0
LINE
  5
459
100
AcDbEntity
  8
ASSI
100
AcDbLine
 62
7
  6
CONTINUOUS
 10
0.7053464365
 20
-4.8084570106
 11
0.5968357098
 21
-4.879290479
  0
LINE
  5
45A
100
AcDbEntity
  8
0
100
AcDbLine
 62
7
  6
CONTINUOUS
 10
0.8861974788
 20
-5.5876237448
 11
0.7776868534
 21
-5.6584572133
  0
LINE
  5
45B
100
AcDbEntity
  8
ASSI
100
AcDbLine
 62
7
  6
CONTINUOUS
 10
0.8861974788
 20
-5.5876237448
 11
0.7776868534
 21
-5.6584572133
  0
LINE
  5
45C
100
AcDbEntity
  8
0
100
AcDbLine
 62
7
  6
CONTINUOUS
 10
0.7053464365
 20
-4.6313739475
 11
0.5244952929
 21
-4.7022070106
  0
LINE
  5
45D
100
AcDbEntity
  8
ASSI
100
AcDbLine
 62
7
  6
CONTINUOUS
 10
0.7053464365
 20
-4.6313739475
 11
0.5244952929
 21
-4.7022070106
  0
LINE
  5
45E
100
AcDbEntity
  8
0
100
AcDbLine
 62
7
  6
CONTINUOUS
 10
1.4287506562
 20
-4.5959570106
 11
1.2478995633
 21
-4.666790479
  0
LINE
  5
45F
100
AcDbEntity
  8
ASSI
100
AcDbLine
 62
7
  6
CONTINUOUS
 10
1.4287506562
 20
-4.5959570106
 11
1.2478995633
 21
-4.666790479
  0
LINE
  5
460
100
AcDbEntity
  8
0
100
AcDbLine
 62
7
  6
CONTINUOUS
 10
-1.6563741663
 20
-5.787756479
 11
-0.5463951663
 21
-5.371500479
  0
LINE
  5
461
100
AcDbEntity
  8
ASSI
100
AcDbLine
 62
7
  6
CONTINUOUS
 10
-1.6563741663
 20
-5.787756479
 11
-0.5463951663
 21
-5.371500479
  0
LINE
  5
462
100
AcDbEntity
  8
0
100
AcDbLine
 62
7
  6
CONTINUOUS
 10
-2.2462581663
 20
-5.695761479
 11
-1.3024891663
 21
-5.344680479
  0
LINE
  5
463
100
AcDbEntity
  8
ASSI
100
AcDbLine
 62
7
  6
CONTINUOUS
 10
-2.2462581663
 20
-5.695761479
 11
-1.3024891663
 21
-5.344680479
  0
LINE
  5
464
100
AcDbEntity
  8
RACCORDO
100
AcDbLine
 62
7
  6
CONTINUOUS
 10
7.1345529102
 20
4.8488091964
 11
6.9080547572
 21
4.8488091964
  0
LINE
  5
465
100
AcDbEntity
  8
ASSI
100
AcDbLine
 62
7
  6
CONTINUOUS
 10
7.1345529102
 20
4.8488091964
 11
6.9080547572
 21
4.8488091964
  0
LINE
  5
466
100
AcDbEntity
  8
RACCORDO
100
AcDbLine
 62
7
  6
CONTINUOUS
 10
-7.1654470898
 20
4.8488091964
 11
-7.3919452428
 21
4.8488091964
  0
LINE
  5
467
100
AcDbEntity
  8
ASSI
100
AcDbLine
 62
7
  6
CONTINUOUS
 10
-7.1654470898
 20
4.8488091964
 11
-7.3919452428
 21
4.8488091964
  0
LINE
  5
468
100
AcDbEntity
  8
RACCORDO
100
AcDbLine
 62
253
  6
CONTINUOUS
 10
-7.3368153075
 20
4.9039391316
 11
-7.2205770251
 21
4.9039391316
  0
LINE
  5
469
100
AcDbEntity
  8
ASSI
100
AcDbLine
 62
253
  6
CONTINUOUS
 10
-7.3368153075
 20
4.9039391316
 11
-7.2205770251
 21
4.9039391316
  0
LINE
  5
46A
100
AcDbEntity
  8
RACCORDO
100
AcDbLine
 62
253
  6
CONTINUOUS
 10
6.9631846925
 20
4.9039391316
 11
7.0794229749
 21
4.9039391316
  0
LINE
  5
46B
100
AcDbEntity
  8
ASSI
100
AcDbLine
 62
253
  6
CONTINUOUS
 10
6.9631846925
 20
4.9039391316
 11
7.0794229749
 21
4.9039391316
  0
LINE
  5
46C
100
AcDbEntity
  8
RACCORDO
100
AcDbLine
 62
253
  6
CONTINUOUS
 10
5.549196063
 20
-9.2970820916
 11
5.5117647578
 21
-6.9984015588
  0
LINE
  5
46D
100
AcDbEntity
  8
ASSI
100
AcDbLine
 62
253
  6
CONTINUOUS
 10
5.549196063
 20
-9.2970820916
 11
5.5117647578
 21
-6.9984015588
  0
LINE
  5
46E
100
AcDbEntity
  8
RACCORDO
100
AcDbLine
 62
253
  6
CONTINUOUS
 10
5.7914362077
 20
-8.7242422489
 11
5.7616124645
 21
-6.8927469933
  0
LINE
  5
46F
100
AcDbEntity
  8
ASSI
100
AcDbLine
 62
253
  6
CONTINUOUS
 10
5.7914362077
 20
-8.7242422489
 11
5.7616124645
 21
-6.8927469933
  0
LINE
  5
470
100
AcDbEntity
  8
RACCORDO
100
AcDbLine
 62
253
  6
CONTINUOUS
 10
5.3716411917
 20
-4.862382265
 11
5.3716411917
 21
-6.03823009
  0
LINE
  5
471
100
AcDbEntity
  8
ASSI
100
AcDbLine
 62
253
  6
CONTINUOUS
 10
5.3716411917
 20
-4.862382265
 11
5.3716411917
 21
-6.03823009
  0
LINE
  5
472
100
AcDbEntity
  8
RACCORDO
100
AcDbLine
 62
253
  6
CONTINUOUS
 10
5.4310064999
 20
-6.5896102356
 11
5.4310064999
 21
-6.8716160803
  0
LINE
  5
473
100
AcDbEntity
  8
ASSI
100
AcDbLine
 62
253
  6
CONTINUOUS
 10
5.4310064999
 20
-6.5896102356
 11
5.4310064999
 21
-6.8716160803
  0
LINE
  5
474
100
AcDbEntity
  8
RACCORDO
100
AcDbLine
 62
253
  6
CONTINUOUS
 10
5.5116011676
 20
-6.8716160803
 11
5.5116011676
 21
-6.5896102356
  0
LINE
  5
475
100
AcDbEntity
  8
ASSI
100
AcDbLine
 62
253
  6
CONTINUOUS
 10
5.5116011676
 20
-6.8716160803
 11
5.5116011676
 21
-6.5896102356
  0
LINE
  5
476
100
AcDbEntity
  8
RACCORDO
100
AcDbLine
 62
253
  6
CONTINUOUS
 10
5.5709664757
 20
-6.03823009
 11
5.5709664757
 21
-4.862382265
  0
LINE
  5
477
100
AcDbEntity
  8
ASSI
100
AcDbLine
 62
253
  6
CONTINUOUS
 10
5.5709664757
 20
-6.03823009
 11
5.5709664757
 21
-4.862382265
  0
LINE
  5
478
100
AcDbEntity
  8
RACCORDO
100
AcDbLine
 62
253
  6
CONTINUOUS
 10
5.7614488743
 20
-6.8716160803
 11
5.7614488743
 21
-6.5896102356
  0
LINE
  5
479
100
AcDbEntity
  8
ASSI
100
AcDbLine
 62
253
  6
CONTINUOUS
 10
5.7614488743
 20
-6.8716160803
 11
5.7614488743
 21
-6.5896102356
  0
LINE
  5
47A
100
AcDbEntity
  8
RACCORDO
100
AcDbLine
 62
7
  6
CONTINUOUS
 10
5.7914362077
 20
-8.7242422489
 11
5.7914362077
 21
-9.5039476377
  0
LINE
  5
47B
100
AcDbEntity
  8
ASSI
100
AcDbLine
 62
7
  6
CONTINUOUS
 10
5.7914362077
 20
-8.7242422489
 11
5.7914362077
 21
-9.5039476377
  0
LINE
  5
47C
100
AcDbEntity
  8
RACCORDO
100
AcDbLine
 62
253
  6
CONTINUOUS
 10
5.8208141824
 20
-6.2478993868
 11
5.8208141824
 21
-4.862382265
  0
LINE
  5
47D
100
AcDbEntity
  8
ASSI
100
AcDbLine
 62
253
  6
CONTINUOUS
 10
5.8208141824
 20
-6.2478993868
 11
5.8208141824
 21
-4.862382265
  0
LINE
  5
47E
100
AcDbEntity
  8
RACCORDO
100
AcDbLine
 62
253
  6
CONTINUOUS
 10
5.1809952029
 20
-6.8927469933
 11
5.1511714597
 21
-8.7242422489
  0
LINE
  5
47F
100
AcDbEntity
  8
ASSI
100
AcDbLine
 62
253
  6
CONTINUOUS
 10
5.1809952029
 20
-6.8927469933
 11
5.1511714597
 21
-8.7242422489
  0
LINE
  5
480
100
AcDbEntity
  8
RACCORDO
100
AcDbLine
 62
253
  6
CONTINUOUS
 10
5.4308429097
 20
-6.9984015588
 11
5.3934116045
 21
-9.2970820916
  0
LINE
  5
481
100
AcDbEntity
  8
ASSI
100
AcDbLine
 62
253
  6
CONTINUOUS
 10
5.4308429097
 20
-6.9984015588
 11
5.3934116045
 21
-9.2970820916
  0
LINE
  5
482
100
AcDbEntity
  8
0
100
AcDbLine
 62
7
  6
CONTINUOUS
 10
1.8266229872
 20
-5.6938737448
 11
1.7181123492
 21
-5.8001237448
  0
LINE
  5
483
100
AcDbEntity
  8
ASSI
100
AcDbLine
 62
7
  6
CONTINUOUS
 10
1.8266229872
 20
-5.6938737448
 11
1.7181123492
 21
-5.8001237448
  0
LINE
  5
484
100
AcDbEntity
  8
0
100
AcDbLine
 62
7
  6
CONTINUOUS
 10
1.6819421408
 20
-5.5876237448
 11
1.5372612816
 21
-5.6938737448
  0
LINE
  5
485
100
AcDbEntity
  8
ASSI
100
AcDbLine
 62
7
  6
CONTINUOUS
 10
1.6819421408
 20
-5.5876237448
 11
1.5372612816
 21
-5.6938737448
  0
LINE
  5
486
100
AcDbEntity
  8
0
100
AcDbLine
 62
7
  6
CONTINUOUS
 10
0.9585378957
 20
-5.7647072133
 11
0.8138570619
 21
-5.835540479
  0
LINE
  5
487
100
AcDbEntity
  8
ASSI
100
AcDbLine
 62
7
  6
CONTINUOUS
 10
0.9585378957
 20
-5.7647072133
 11
0.8138570619
 21
-5.835540479
  0
LINE
  5
488
100
AcDbEntity
  8
0
100
AcDbLine
 62
7
  6
CONTINUOUS
 10
1.7181123492
 20
-5.8001237448
 11
1.5372612816
 21
-5.8709572133
  0
LINE
  5
489
100
AcDbEntity
  8
ASSI
100
AcDbLine
 62
7
  6
CONTINUOUS
 10
1.7181123492
 20
-5.8001237448
 11
1.5372612816
 21
-5.8709572133
  0
LINE
  5
48A
100
AcDbEntity
  8
RACCORDO
100
AcDbLine
 62
7
  6
CONTINUOUS
 10
-4.2936671257
 20
5.7530400853
 11
-3.9505416911
 21
5.7859609208
  0
LINE
  5
48B
100
AcDbEntity
  8
ASSI
100
AcDbLine
 62
7
  6
CONTINUOUS
 10
-4.2936671257
 20
5.7530400853
 11
-3.9505416911
 21
5.7859609208
  0
LINE
  5
48C
100
AcDbEntity
  8
DRAFT
100
AcDbLine
 62
7
  6
CONTINUOUS
 10
2.7713038337
 20
5.7843939904
 11
2.9409395941
 21
5.7928540697
  0
LINE
  5
48D
100
AcDbEntity
  8
ASSI
100
AcDbLine
 62
7
  6
CONTINUOUS
 10
2.7713038337
 20
5.7843939904
 11
2.9409395941
 21
5.7928540697
  0
LINE
  5
48E
100
AcDbEntity
  8
DRAFT
100
AcDbLine
 62
7
  6
CONTINUOUS
 10
-3.0286961663
 20
5.7774098365
 11
-3.1286961663
 21
5.7753936849
  0
LINE
  5
48F
100
AcDbEntity
  8
ASSI
100
AcDbLine
 62
7
  6
CONTINUOUS
 10
-3.0286961663
 20
5.7774098365
 11
-3.1286961663
 21
5.7753936849
  0
LINE
  5
490
100
AcDbEntity
  8
RACCORDO
100
AcDbLine
 62
253
  6
CONTINUOUS
 10
-7.6298916176
 20
5.4036350727
 11
-6.9275007149
 21
5.4036350727
  0
LINE
  5
491
100
AcDbEntity
  8
ASSI
100
AcDbLine
 62
253
  6
CONTINUOUS
 10
-7.6298916176
 20
5.4036350727
 11
-6.9275007149
 21
5.4036350727
  0
LINE
  5
492
100
AcDbEntity
  8
RACCORDO
100
AcDbLine
 62
253
  6
CONTINUOUS
 10
6.6701083824
 20
5.4036350727
 11
7.3724992851
 21
5.4036350727
  0
LINE
  5
493
100
AcDbEntity
  8
ASSI
100
AcDbLine
 62
253
  6
CONTINUOUS
 10
6.6701083824
 20
5.4036350727
 11
7.3724992851
 21
5.4036350727
  0
LINE
  5
494
100
AcDbEntity
  8
RACCORDO
100
AcDbLine
 62
7
  6
CONTINUOUS
 10
4.2242037621
 20
5.7484459658
 11
2.8713038337
 21
5.7484459658
  0
LINE
  5
495
100
AcDbEntity
  8
ASSI
100
AcDbLine
 62
7
  6
CONTINUOUS
 10
4.2242037621
 20
5.7484459658
 11
2.8713038337
 21
5.7484459658
  0
LINE
  5
496
100
AcDbEntity
  8
RACCORDO
100
AcDbLine
 62
7
  6
CONTINUOUS
 10
-3.1286961663
 20
5.7484459658
 11
-4.4815960947
 21
5.7484459658
  0
LINE
  5
497
100
AcDbEntity
  8
ASSI
100
AcDbLine
 62
7
  6
CONTINUOUS
 10
-3.1286961663
 20
5.7484459658
 11
-4.4815960947
 21
5.7484459658
  0
LINE
  5
498
100
AcDbEntity
  8
RACCORDO
100
AcDbLine
 62
7
  6
CONTINUOUS
 10
-3.6686339048
 20
5.7928540697
 11
-3.1983319267
 21
5.7928540697
  0
LINE
  5
499
100
AcDbEntity
  8
ASSI
100
AcDbLine
 62
7
  6
CONTINUOUS
 10
-3.6686339048
 20
5.7928540697
 11
-3.1983319267
 21
5.7928540697
  0
LINE
  5
49A
100
AcDbEntity
  8
RACCORDO
100
AcDbLine
 62
7
  6
CONTINUOUS
 10
2.9409395941
 20
5.7928540697
 11
3.4112415723
 21
5.7928540697
  0
LINE
  5
49B
100
AcDbEntity
  8
ASSI
100
AcDbLine
 62
7
  6
CONTINUOUS
 10
2.9409395941
 20
5.7928540697
 11
3.4112415723
 21
5.7928540697
  0
LINE
  5
49C
100
AcDbEntity
  8
DRAFT
100
AcDbLine
 62
7
  6
CONTINUOUS
 10
2.8713038337
 20
5.7753936849
 11
2.7713038337
 21
5.7774098365
  0
LINE
  5
49D
100
AcDbEntity
  8
ASSI
100
AcDbLine
 62
7
  6
CONTINUOUS
 10
2.8713038337
 20
5.7753936849
 11
2.7713038337
 21
5.7774098365
  0
LINE
  5
49E
100
AcDbEntity
  8
DRAFT
100
AcDbLine
 62
7
  6
CONTINUOUS
 10
-3.1983319267
 20
5.7928540697
 11
-3.0286961663
 21
5.7843939904
  0
LINE
  5
49F
100
AcDbEntity
  8
ASSI
100
AcDbLine
 62
7
  6
CONTINUOUS
 10
-3.1983319267
 20
5.7928540697
 11
-3.0286961663
 21
5.7843939904
  0
LINE
  5
4A0
100
AcDbEntity
  8
RACCORDO
100
AcDbLine
 62
7
  6
CONTINUOUS
 10
3.6931493585
 20
5.7859609208
 11
4.0362747932
 21
5.7530400853
  0
LINE
  5
4A1
100
AcDbEntity
  8
ASSI
100
AcDbLine
 62
7
  6
CONTINUOUS
 10
3.6931493585
 20
5.7859609208
 11
4.0362747932
 21
5.7530400853
  0
LINE
  5
4A2
100
AcDbEntity
  8
DRAFT
100
AcDbLine
 62
7
  6
CONTINUOUS
 10
-8.6411621569
 20
9.8941243012
 11
-8.3786961663
 21
9.7893619927
  0
LINE
  5
4A3
100
AcDbEntity
  8
ASSI
100
AcDbLine
 62
7
  6
CONTINUOUS
 10
-8.6411621569
 20
9.8941243012
 11
-8.3786961663
 21
9.7893619927
  0
LINE
  5
4A4
100
AcDbEntity
  8
RACCORDO
100
AcDbLine
 62
253
  6
CONTINUOUS
 10
6.6468621351
 20
7.5032968772
 11
6.6680627711
 21
6.896190096
  0
LINE
  5
4A5
100
AcDbEntity
  8
ASSI
100
AcDbLine
 62
253
  6
CONTINUOUS
 10
6.6468621351
 20
7.5032968772
 11
6.6680627711
 21
6.896190096
  0
LINE
  5
4A6
100
AcDbEntity
  8
RACCORDO
100
AcDbLine
 62
253
  6
CONTINUOUS
 10
6.94667964
 20
7.7154215571
 11
6.9678800192
 21
7.1083221304
  0
LINE
  5
4A7
100
AcDbEntity
  8
ASSI
100
AcDbLine
 62
253
  6
CONTINUOUS
 10
6.94667964
 20
7.7154215571
 11
6.9678800192
 21
7.1083221304
  0
LINE
  5
4A8
100
AcDbEntity
  8
RACCORDO
100
AcDbLine
 62
253
  6
CONTINUOUS
 10
6.6386796898
 20
9.7792513771
 11
6.6386796898
 21
8.0689823021
  0
LINE
  5
4A9
100
AcDbEntity
  8
ASSI
100
AcDbLine
 62
253
  6
CONTINUOUS
 10
6.6386796898
 20
9.7792513771
 11
6.6386796898
 21
8.0689823021
  0
LINE
  5
4AA
100
AcDbEntity
  8
RACCORDO
100
AcDbLine
 62
253
  6
CONTINUOUS
 10
6.6701083824
 20
6.7547687398
 11
6.6701083824
 21
5.4036350727
  0
LINE
  5
4AB
100
AcDbEntity
  8
ASSI
100
AcDbLine
 62
253
  6
CONTINUOUS
 10
6.6701083824
 20
6.7547687398
 11
6.6701083824
 21
5.4036350727
  0
LINE
  5
4AC
100
AcDbEntity
  8
RACCORDO
100
AcDbLine
 62
253
  6
CONTINUOUS
 10
6.9384969379
 20
9.7893619927
 11
6.9384969379
 21
8.068993266
  0
LINE
  5
4AD
100
AcDbEntity
  8
ASSI
100
AcDbLine
 62
253
  6
CONTINUOUS
 10
6.9384969379
 20
9.7893619927
 11
6.9384969379
 21
8.068993266
  0
LINE
  5
4AE
100
AcDbEntity
  8
RACCORDO
100
AcDbLine
 62
253
  6
CONTINUOUS
 10
6.9699256305
 20
6.7547687398
 11
6.9699256305
 21
5.4036505332
  0
LINE
  5
4AF
100
AcDbEntity
  8
ASSI
100
AcDbLine
 62
253
  6
CONTINUOUS
 10
6.9699256305
 20
6.7547687398
 11
6.9699256305
 21
5.4036505332
  0
LINE
  5
4B0
100
AcDbEntity
  8
RACCORDO
100
AcDbLine
 62
253
  6
CONTINUOUS
 10
7.072682037
 20
5.4036505334
 11
7.072682037
 21
6.7547687398
  0
LINE
  5
4B1
100
AcDbEntity
  8
ASSI
100
AcDbLine
 62
253
  6
CONTINUOUS
 10
7.072682037
 20
5.4036505334
 11
7.072682037
 21
6.7547687398
  0
LINE
  5
4B2
100
AcDbEntity
  8
RACCORDO
100
AcDbLine
 62
253
  6
CONTINUOUS
 10
7.1041107295
 20
8.0689932699
 11
7.1041107295
 21
9.7893619927
  0
LINE
  5
4B3
100
AcDbEntity
  8
ASSI
100
AcDbLine
 62
253
  6
CONTINUOUS
 10
7.1041107295
 20
8.0689932699
 11
7.1041107295
 21
9.7893619927
  0
LINE
  5
4B4
100
AcDbEntity
  8
RACCORDO
100
AcDbLine
 62
253
  6
CONTINUOUS
 10
7.1558337799
 20
-9.5039476377
 11
7.1558337799
 21
-11.0603632488
  0
LINE
  5
4B5
100
AcDbEntity
  8
ASSI
100
AcDbLine
 62
253
  6
CONTINUOUS
 10
7.1558337799
 20
-9.5039476377
 11
7.1558337799
 21
-11.0603632488
  0
LINE
  5
4B6
100
AcDbEntity
  8
RACCORDO
100
AcDbLine
 62
253
  6
CONTINUOUS
 10
7.3290388606
 20
-9.5162260938
 11
7.3290388606
 21
-11.0656040268
  0
LINE
  5
4B7
100
AcDbEntity
  8
ASSI
100
AcDbLine
 62
253
  6
CONTINUOUS
 10
7.3290388606
 20
-9.5162260938
 11
7.3290388606
 21
-11.0656040268
  0
LINE
  5
4B8
100
AcDbEntity
  8
RACCORDO
100
AcDbLine
 62
253
  6
CONTINUOUS
 10
7.0747276483
 20
7.1083221304
 11
7.0959280273
 21
7.7154215537
  0
LINE
  5
4B9
100
AcDbEntity
  8
ASSI
100
AcDbLine
 62
253
  6
CONTINUOUS
 10
7.0747276483
 20
7.1083221304
 11
7.0959280273
 21
7.7154215537
  0
LINE
  5
4BA
100
AcDbEntity
  8
RACCORDO
100
AcDbLine
 62
253
  6
CONTINUOUS
 10
7.3745448964
 20
6.896190096
 11
7.3957455323
 21
7.5032968772
  0
LINE
  5
4BB
100
AcDbEntity
  8
ASSI
100
AcDbLine
 62
253
  6
CONTINUOUS
 10
7.3745448964
 20
6.896190096
 11
7.3957455323
 21
7.5032968772
  0
LINE
  5
4BC
100
AcDbEntity
  8
RACCORDO
100
AcDbLine
 62
253
  6
CONTINUOUS
 10
5.5130440096
 20
-6.2941679097
 11
5.5637522653
 21
-6.038124479
  0
LINE
  5
4BD
100
AcDbEntity
  8
ASSI
100
AcDbLine
 62
253
  6
CONTINUOUS
 10
5.5130440096
 20
-6.2941679097
 11
5.5637522653
 21
-6.038124479
  0
LINE
  5
4BE
100
AcDbEntity
  8
RACCORDO
100
AcDbLine
 62
253
  6
CONTINUOUS
 10
5.7628917164
 20
-6.540369848
 11
5.8208141824
 21
-6.2478993868
  0
LINE
  5
4BF
100
AcDbEntity
  8
ASSI
100
AcDbLine
 62
253
  6
CONTINUOUS
 10
5.7628917164
 20
-6.540369848
 11
5.8208141824
 21
-6.2478993868
  0
LINE
  5
4C0
100
AcDbEntity
  8
RACCORDO
100
AcDbLine
 62
253
  6
CONTINUOUS
 10
5.5726825
 20
-4.5624277274
 11
5.6271995058
 21
-4.5351775295
  0
LINE
  5
4C1
100
AcDbEntity
  8
ASSI
100
AcDbLine
 62
253
  6
CONTINUOUS
 10
5.5726825
 20
-4.5624277274
 11
5.6271995058
 21
-4.5351775295
  0
LINE
  5
4C2
100
AcDbEntity
  8
RACCORDO
100
AcDbLine
 62
253
  6
CONTINUOUS
 10
5.8225297484
 20
-4.8123898803
 11
5.8769240268
 21
-4.7852010275
  0
LINE
  5
4C3
100
AcDbEntity
  8
ASSI
100
AcDbLine
 62
253
  6
CONTINUOUS
 10
5.8225297484
 20
-4.8123898803
 11
5.8769240268
 21
-4.7852010275
  0
LINE
  5
4C4
100
AcDbEntity
  8
0
100
AcDbLine
 62
7
  6
CONTINUOUS
 10
-2.2462581663
 20
-8.279290479
 11
-0.5463951663
 21
-7.740400479
  0
LINE
  5
4C5
100
AcDbEntity
  8
ASSI
100
AcDbLine
 62
7
  6
CONTINUOUS
 10
-2.2462581663
 20
-8.279290479
 11
-0.5463951663
 21
-7.740400479
  0
LINE
  5
4C6
100
AcDbEntity
  8
RACCORDO
100
AcDbLine
 62
7
  6
CONTINUOUS
 10
4.0415935275
 20
7.3712212574
 11
3.6931493585
 21
7.3377901211
  0
LINE
  5
4C7
100
AcDbEntity
  8
ASSI
100
AcDbLine
 62
7
  6
CONTINUOUS
 10
4.0415935275
 20
7.3712212574
 11
3.6931493585
 21
7.3377901211
  0
LINE
  5
4C8
100
AcDbEntity
  8
DRAFT
100
AcDbLine
 62
7
  6
CONTINUOUS
 10
2.8713038337
 20
7.348357357
 11
2.7713038337
 21
7.3463412054
  0
LINE
  5
4C9
100
AcDbEntity
  8
ASSI
100
AcDbLine
 62
7
  6
CONTINUOUS
 10
2.8713038337
 20
7.348357357
 11
2.7713038337
 21
7.3463412054
  0
LINE
  5
4CA
100
AcDbEntity
  8
RACCORDO
100
AcDbLine
 62
253
  6
CONTINUOUS
 10
6.6701083824
 20
6.7547687398
 11
7.3724992851
 21
6.7547687398
  0
LINE
  5
4CB
100
AcDbEntity
  8
ASSI
100
AcDbLine
 62
253
  6
CONTINUOUS
 10
6.6701083824
 20
6.7547687398
 11
7.3724992851
 21
6.7547687398
  0
LINE
  5
4CC
100
AcDbEntity
  8
RACCORDO
100
AcDbLine
 62
253
  6
CONTINUOUS
 10
-6.9275007149
 20
6.7547687398
 11
-7.6298916176
 21
6.7547687398
  0
LINE
  5
4CD
100
AcDbEntity
  8
ASSI
100
AcDbLine
 62
253
  6
CONTINUOUS
 10
-6.9275007149
 20
6.7547687398
 11
-7.6298916176
 21
6.7547687398
  0
LINE
  5
4CE
100
AcDbEntity
  8
RACCORDO
100
AcDbLine
 62
253
  6
CONTINUOUS
 10
7.0747276483
 20
7.1083221304
 11
6.9678800192
 21
7.1083221304
  0
LINE
  5
4CF
100
AcDbEntity
  8
ASSI
100
AcDbLine
 62
253
  6
CONTINUOUS
 10
7.0747276483
 20
7.1083221304
 11
6.9678800192
 21
7.1083221304
  0
LINE
  5
4D0
100
AcDbEntity
  8
RACCORDO
100
AcDbLine
 62
253
  6
CONTINUOUS
 10
-7.2252723517
 20
7.1083221304
 11
-7.3321199808
 21
7.1083221304
  0
LINE
  5
4D1
100
AcDbEntity
  8
ASSI
100
AcDbLine
 62
253
  6
CONTINUOUS
 10
-7.2252723517
 20
7.1083221304
 11
-7.3321199808
 21
7.1083221304
  0
LINE
  5
4D2
100
AcDbEntity
  8
RACCORDO
100
AcDbLine
 62
7
  6
CONTINUOUS
 10
-3.6686339048
 20
7.3308969722
 11
-3.1983319267
 21
7.3308969722
  0
LINE
  5
4D3
100
AcDbEntity
  8
ASSI
100
AcDbLine
 62
7
  6
CONTINUOUS
 10
-3.6686339048
 20
7.3308969722
 11
-3.1983319267
 21
7.3308969722
  0
LINE
  5
4D4
100
AcDbEntity
  8
RACCORDO
100
AcDbLine
 62
7
  6
CONTINUOUS
 10
2.9409395941
 20
7.3308969722
 11
3.4112415723
 21
7.3308969722
  0
LINE
  5
4D5
100
AcDbEntity
  8
ASSI
100
AcDbLine
 62
7
  6
CONTINUOUS
 10
2.9409395941
 20
7.3308969722
 11
3.4112415723
 21
7.3308969722
  0
LINE
  5
4D6
100
AcDbEntity
  8
RACCORDO
100
AcDbLine
 62
7
  6
CONTINUOUS
 10
-4.4869407376
 20
7.3758180692
 11
-3.1286961663
 21
7.3758180692
  0
LINE
  5
4D7
100
AcDbEntity
  8
ASSI
100
AcDbLine
 62
7
  6
CONTINUOUS
 10
-4.4869407376
 20
7.3758180692
 11
-3.1286961663
 21
7.3758180692
  0
LINE
  5
4D8
100
AcDbEntity
  8
RACCORDO
100
AcDbLine
 62
7
  6
CONTINUOUS
 10
2.8713038337
 20
7.3758180692
 11
4.229548405
 21
7.3758180692
  0
LINE
  5
4D9
100
AcDbEntity
  8
ASSI
100
AcDbLine
 62
7
  6
CONTINUOUS
 10
2.8713038337
 20
7.3758180692
 11
4.229548405
 21
7.3758180692
  0
LINE
  5
4DA
100
AcDbEntity
  8
DRAFT
100
AcDbLine
 62
7
  6
CONTINUOUS
 10
-3.0286961663
 20
7.3463412054
 11
-3.1286961663
 21
7.348357357
  0
LINE
  5
4DB
100
AcDbEntity
  8
ASSI
100
AcDbLine
 62
7
  6
CONTINUOUS
 10
-3.0286961663
 20
7.3463412054
 11
-3.1286961663
 21
7.348357357
  0
LINE
  5
4DC
100
AcDbEntity
  8
RACCORDO
100
AcDbLine
 62
7
  6
CONTINUOUS
 10
-3.9505416911
 20
7.3377901211
 11
-4.29898586
 21
7.3712212574
  0
LINE
  5
4DD
100
AcDbEntity
  8
ASSI
100
AcDbLine
 62
7
  6
CONTINUOUS
 10
-3.9505416911
 20
7.3377901211
 11
-4.29898586
 21
7.3712212574
  0
LINE
  5
4DE
100
AcDbEntity
  8
RACCORDO
100
AcDbLine
 62
253
  6
CONTINUOUS
 10
7.3724992851
 20
5.4036350727
 11
7.3724992851
 21
6.7547687398
  0
LINE
  5
4DF
100
AcDbEntity
  8
ASSI
100
AcDbLine
 62
253
  6
CONTINUOUS
 10
7.3724992851
 20
5.4036350727
 11
7.3724992851
 21
6.7547687398
  0
LINE
  5
4E0
100
AcDbEntity
  8
RACCORDO
100
AcDbLine
 62
253
  6
CONTINUOUS
 10
7.4039279776
 20
8.0689823021
 11
7.4039279776
 21
9.7792513771
  0
LINE
  5
4E1
100
AcDbEntity
  8
ASSI
100
AcDbLine
 62
253
  6
CONTINUOUS
 10
7.4039279776
 20
8.0689823021
 11
7.4039279776
 21
9.7792513771
  0
LINE
  5
4E2
100
AcDbEntity
  8
DRAFT
100
AcDbLine
 62
7
  6
CONTINUOUS
 10
8.1213038337
 20
9.7893619927
 11
8.1213038337
 21
10.9356949176
  0
LINE
  5
4E3
100
AcDbEntity
  8
ASSI
100
AcDbLine
 62
7
  6
CONTINUOUS
 10
8.1213038337
 20
9.7893619927
 11
8.1213038337
 21
10.9356949176
  0
LINE
  5
4E4
100
AcDbEntity
  8
DRAFT
100
AcDbLine
 62
7
  6
CONTINUOUS
 10
7.6797288267
 20
-11.0974371848
 11
7.7550223105
 21
-9.6068196098
  0
LINE
  5
4E5
100
AcDbEntity
  8
ASSI
100
AcDbLine
 62
7
  6
CONTINUOUS
 10
7.6797288267
 20
-11.0974371848
 11
7.7550223105
 21
-9.6068196098
  0
LINE
  5
4E6
100
AcDbEntity
  8
RACCORDO
100
AcDbLine
 62
7
  6
CONTINUOUS
 10
5.8654169109
 20
-9.2438248428
 11
5.7914362077
 21
-9.5039476377
  0
LINE
  5
4E7
100
AcDbEntity
  8
ASSI
100
AcDbLine
 62
7
  6
CONTINUOUS
 10
5.8654169109
 20
-9.2438248428
 11
5.7914362077
 21
-9.5039476377
  0
LINE
  5
4E8
100
AcDbEntity
  8
DRAFT
100
AcDbLine
 62
7
  6
CONTINUOUS
 10
-3.1983319267
 20
7.3308969722
 11
-3.0286961663
 21
7.3393570515
  0
LINE
  5
4E9
100
AcDbEntity
  8
ASSI
100
AcDbLine
 62
7
  6
CONTINUOUS
 10
-3.1983319267
 20
7.3308969722
 11
-3.0286961663
 21
7.3393570515
  0
LINE
  5
4EA
100
AcDbEntity
  8
RACCORDO
100
AcDbLine
 62
253
  6
CONTINUOUS
 10
-7.35332036
 20
7.7154215571
 11
-7.2040719727
 21
7.7154215537
  0
LINE
  5
4EB
100
AcDbEntity
  8
ASSI
100
AcDbLine
 62
253
  6
CONTINUOUS
 10
-7.35332036
 20
7.7154215571
 11
-7.2040719727
 21
7.7154215537
  0
LINE
  5
4EC
100
AcDbEntity
  8
RACCORDO
100
AcDbLine
 62
253
  6
CONTINUOUS
 10
6.94667964
 20
7.7154215571
 11
7.0959280273
 21
7.7154215537
  0
LINE
  5
4ED
100
AcDbEntity
  8
ASSI
100
AcDbLine
 62
253
  6
CONTINUOUS
 10
6.94667964
 20
7.7154215571
 11
7.0959280273
 21
7.7154215537
  0
LINE
  5
4EE
100
AcDbEntity
  8
RACCORDO
100
AcDbLine
 62
253
  6
CONTINUOUS
 10
-7.6613203102
 20
8.0689823022
 11
-6.8960720224
 21
8.0689823021
  0
LINE
  5
4EF
100
AcDbEntity
  8
ASSI
100
AcDbLine
 62
253
  6
CONTINUOUS
 10
-7.6613203102
 20
8.0689823022
 11
-6.8960720224
 21
8.0689823021
  0
LINE
  5
4F0
100
AcDbEntity
  8
RACCORDO
100
AcDbLine
 62
253
  6
CONTINUOUS
 10
6.6386796898
 20
8.0689823022
 11
7.4039279776
 21
8.0689823021
  0
LINE
  5
4F1
100
AcDbEntity
  8
ASSI
100
AcDbLine
 62
253
  6
CONTINUOUS
 10
6.6386796898
 20
8.0689823022
 11
7.4039279776
 21
8.0689823021
  0
LINE
  5
4F2
100
AcDbEntity
  8
DRAFT
100
AcDbLine
 62
7
  6
CONTINUOUS
 10
2.7713038337
 20
7.3393570515
 11
2.9409395941
 21
7.3308969722
  0
LINE
  5
4F3
100
AcDbEntity
  8
ASSI
100
AcDbLine
 62
7
  6
CONTINUOUS
 10
2.7713038337
 20
7.3393570515
 11
2.9409395941
 21
7.3308969722
  0
LINE
  5
4F4
100
AcDbEntity
  8
DRAFT
100
AcDbLine
 62
7
  6
CONTINUOUS
 10
2.3678128207
 20
8.9828215989
 11
2.3713038337
 21
8.9793305859
  0
LINE
  5
4F5
100
AcDbEntity
  8
RACCORDO
100
AcDbLine
 62
253
  6
CONTINUOUS
 10
9.5601405076
 20
-9.6068196098
 11
9.5085371368
 21
-9.2438248428
  0
LINE
  5
4F6
100
AcDbEntity
  8
ASSI
100
AcDbLine
 62
253
  6
CONTINUOUS
 10
9.5601405076
 20
-9.6068196098
 11
9.5085371368
 21
-9.2438248428
  0
LINE
  5
4F7
100
AcDbEntity
  8
RACCORDO
100
AcDbLine
 62
253
  6
CONTINUOUS
 10
9.7600493255
 20
-9.4078832475
 11
9.7085066762
 21
-9.0453156155
  0
LINE
  5
4F8
100
AcDbEntity
  8
ASSI
100
AcDbLine
 62
253
  6
CONTINUOUS
 10
9.7600493255
 20
-9.4078832475
 11
9.7085066762
 21
-9.0453156155
  0
LINE
  5
4F9
100
AcDbEntity
  8
DRAFT
100
AcDbLine
 62
7
  6
CONTINUOUS
 10
8.3837698243
 20
10.961875521
 11
8.3837698243
 21
9.8941243012
  0
LINE
  5
4FA
100
AcDbEntity
  8
ASSI
100
AcDbLine
 62
7
  6
CONTINUOUS
 10
8.3837698243
 20
10.961875521
 11
8.3837698243
 21
9.8941243012
  0
LINE
  5
4FB
100
AcDbEntity
  8
0
100
AcDbLine
 62
7
  6
CONTINUOUS
 10
9.3713038337
 20
-3.038124479
 11
9.3713038337
 21
0.761875521
  0
LINE
  5
4FC
100
AcDbEntity
  8
ASSI
100
AcDbLine
 62
7
  6
CONTINUOUS
 10
9.3713038337
 20
-3.038124479
 11
9.3713038337
 21
0.761875521
  0
LINE
  5
4FD
100
AcDbEntity
  8
DRAFT
100
AcDbLine
 62
7
  6
CONTINUOUS
 10
-3.0961512312
 20
8.9793305859
 11
-2.6286961663
 21
8.9793305859
  0
LINE
  5
4FE
100
AcDbEntity
  8
DRAFT
100
AcDbLine
 62
7
  6
CONTINUOUS
 10
2.8387588986
 20
8.9793305859
 11
2.3713038337
 21
8.9793305859
  0
LINE
  5
4FF
100
AcDbEntity
  8
DRAFT
100
AcDbLine
 62
7
  6
CONTINUOUS
 10
-2.6252051533
 20
8.9828215989
 11
2.3678128207
 21
8.9828215989
  0
LINE
  5
500
100
AcDbEntity
  8
DRAFT
100
AcDbLine
 62
7
  6
CONTINUOUS
 10
2.8713038337
 20
9.061875521
 11
-3.1286961663
 21
9.061875521
  0
LINE
  5
501
100
AcDbEntity
  8
ASSI
100
AcDbLine
 62
7
  6
CONTINUOUS
 10
2.8713038337
 20
9.061875521
 11
-3.1286961663
 21
9.061875521
  0
LINE
  5
502
100
AcDbEntity
  8
DRAFT
100
AcDbLine
 62
7
  6
CONTINUOUS
 10
2.8713038337
 20
9.0978231481
 11
-3.1286961663
 21
9.0978231481
  0
LINE
  5
503
100
AcDbEntity
  8
ASSI
100
AcDbLine
 62
7
  6
CONTINUOUS
 10
2.8713038337
 20
9.0978231481
 11
-3.1286961663
 21
9.0978231481
  0
LINE
  5
504
100
AcDbEntity
  8
RACCORDO
100
AcDbLine
 62
253
  6
CONTINUOUS
 10
7.1345529102
 20
4.8488091964
 11
7.0794229749
 21
4.9039391316
  0
LINE
  5
505
100
AcDbEntity
  8
ASSI
100
AcDbLine
 62
253
  6
CONTINUOUS
 10
7.1345529102
 20
4.8488091964
 11
7.0794229749
 21
4.9039391316
  0
LINE
  5
506
100
AcDbEntity
  8
RACCORDO
100
AcDbLine
 62
253
  6
CONTINUOUS
 10
7.4344974577
 20
5.1484991451
 11
7.3792396955
 21
5.2037569073
  0
LINE
  5
507
100
AcDbEntity
  8
ASSI
100
AcDbLine
 62
253
  6
CONTINUOUS
 10
7.4344974577
 20
5.1484991451
 11
7.3792396955
 21
5.2037569073
  0
LINE
  5
508
100
AcDbEntity
  8
ASSI
100
AcDbLine
 62
253
  6
CONTINUOUS
 10
9.5033099414
 20
0.761875521
 11
9.5014833413
 21
9.7475175779
  0
LINE
  5
509
100
AcDbEntity
  8
RACCORDO
100
AcDbLine
 62
253
  6
CONTINUOUS
 10
9.5085371368
 20
-9.2438248428
 11
9.5085371368
 21
-9.053385928
  0
LINE
  5
50A
100
AcDbEntity
  8
ASSI
100
AcDbLine
 62
253
  6
CONTINUOUS
 10
9.5085371368
 20
-9.2438248428
 11
9.5049330917
 21
-3.038124479
  0
LINE
  5
50B
100
AcDbEntity
  8
DRAFT
100
AcDbLine
 62
7
  6
CONTINUOUS
 10
9.7544269347
 20
-3.038124479
 11
9.7544269347
 21
0.761875521
  0
LINE
  5
50C
100
AcDbEntity
  8
ASSI
100
AcDbLine
 62
7
  6
CONTINUOUS
 10
9.7544269347
 20
-3.038124479
 11
9.7544269347
 21
0.761875521
  0
LINE
  5
50D
100
AcDbEntity
  8
DRAFT
100
AcDbLine
 62
7
  6
CONTINUOUS
 10
9.7713038337
 20
9.8941243012
 11
9.7713038337
 21
-2.038124479
  0
LINE
  5
50E
100
AcDbEntity
  8
ASSI
100
AcDbLine
 62
7
  6
CONTINUOUS
 10
9.7713038337
 20
9.8941243012
 11
9.7713038337
 21
-2.038124479
  0
LINE
  5
50F
100
AcDbEntity
  8
RACCORDO
100
AcDbLine
 62
7
  6
CONTINUOUS
 10
9.7600493255
 20
-9.4078832475
 11
9.7713038337
 21
-2.038124479
  0
LINE
  5
510
100
AcDbEntity
  8
ASSI
100
AcDbLine
 62
7
  6
CONTINUOUS
 10
9.7600493255
 20
-9.4078832475
 11
9.7713038337
 21
-2.038124479
  0
LINE
  5
511
100
AcDbEntity
  8
DRAFT
100
AcDbLine
 62
7
  6
CONTINUOUS
 10
8.3837698243
 20
10.961875521
 11
8.1213038337
 21
10.9356949176
  0
LINE
  5
512
100
AcDbEntity
  8
ASSI
100
AcDbLine
 62
7
  6
CONTINUOUS
 10
8.3837698243
 20
10.961875521
 11
8.1213038337
 21
10.9356949176
  0
LINE
  5
513
100
AcDbEntity
  8
RACCORDO
100
AcDbLine
 62
7
  6
CONTINUOUS
 10
9.5014833416
 20
9.7475175779
 11
7.4356617768
 21
9.7475175779
  0
LINE
  5
514
100
AcDbEntity
  8
ASSI
100
AcDbLine
 62
7
  6
CONTINUOUS
 10
9.5014833416
 20
9.7475175779
 11
7.4356617768
 21
9.7475175779
  0
LINE
  5
515
100
AcDbEntity
  8
DRAFT
100
AcDbLine
 62
7
  6
CONTINUOUS
 10
6.6069458907
 20
9.7475175779
 11
-6.8643382232
 21
9.7475175779
  0
LINE
  5
516
100
AcDbEntity
  8
ASSI
100
AcDbLine
 62
7
  6
CONTINUOUS
 10
6.6069458907
 20
9.7475175779
 11
-6.8643382232
 21
9.7475175779
  0
LINE
  5
517
100
AcDbEntity
  8
RACCORDO
100
AcDbLine
 62
7
  6
CONTINUOUS
 10
-7.6930541093
 20
9.7475175779
 11
-9.7588756739
 21
9.7475175779
  0
LINE
  5
518
100
AcDbEntity
  8
ASSI
100
AcDbLine
 62
7
  6
CONTINUOUS
 10
-7.6930541093
 20
9.7475175779
 11
-9.7588756739
 21
9.7475175779
  0
LINE
  5
519
100
AcDbEntity
  8
RACCORDO
100
AcDbLine
 62
7
  6
CONTINUOUS
 10
-8.3786961663
 20
9.7893619927
 11
-7.3615030621
 21
9.7893619927
  0
LINE
  5
51A
100
AcDbEntity
  8
ASSI
100
AcDbLine
 62
7
  6
CONTINUOUS
 10
-8.3786961663
 20
9.7893619927
 11
-7.3615030621
 21
9.7893619927
  0
LINE
  5
51B
100
AcDbEntity
  8
RACCORDO
100
AcDbLine
 62
7
  6
CONTINUOUS
 10
-7.1958892705
 20
9.7893619927
 11
6.9384969379
 21
9.7893619927
  0
LINE
  5
51C
100
AcDbEntity
  8
ASSI
100
AcDbLine
 62
7
  6
CONTINUOUS
 10
-7.1958892705
 20
9.7893619927
 11
6.9384969379
 21
9.7893619927
  0
LINE
  5
51D
100
AcDbEntity
  8
RACCORDO
100
AcDbLine
 62
7
  6
CONTINUOUS
 10
7.1041107295
 20
9.7893619927
 11
8.1213038337
 21
9.7893619927
  0
LINE
  5
51E
100
AcDbEntity
  8
ASSI
100
AcDbLine
 62
7
  6
CONTINUOUS
 10
7.1041107295
 20
9.7893619927
 11
8.1213038337
 21
9.7893619927
  0
LINE
  5
51F
100
AcDbEntity
  8
DRAFT
100
AcDbLine
 62
7
  6
CONTINUOUS
 10
9.7713038337
 20
9.8941243012
 11
8.3837698243
 21
9.8941243012
  0
LINE
  5
520
100
AcDbEntity
  8
ASSI
100
AcDbLine
 62
7
  6
CONTINUOUS
 10
9.7713038337
 20
9.8941243012
 11
8.3837698243
 21
9.8941243012
  0
LINE
  5
521
100
AcDbEntity
  8
DRAFT
100
AcDbLine
 62
7
  6
CONTINUOUS
 10
-8.6411621569
 20
9.8941243012
 11
-10.0286961663
 21
9.8941243012
  0
LINE
  5
522
100
AcDbEntity
  8
ASSI
100
AcDbLine
 62
7
  6
CONTINUOUS
 10
-8.6411621569
 20
9.8941243012
 11
-10.0286961663
 21
9.8941243012
  0
LINE
  5
523
100
AcDbEntity
  8
DRAFT
100
AcDbLine
 62
7
  6
CONTINUOUS
 10
-8.6411621569
 20
10.961875521
 11
-8.3786961663
 21
10.9356949176
  0
LINE
  5
524
100
AcDbEntity
  8
ASSI
100
AcDbLine
 62
7
  6
CONTINUOUS
 10
-8.6411621569
 20
10.961875521
 11
-8.3786961663
 21
10.9356949176
  0
LINE
  5
525
100
AcDbEntity
  8
RACCORDO
100
AcDbLine
 62
7
  6
CONTINUOUS
 10
11.0213038337
 20
10.7618983662
 11
11.0213038337
 21
-2.038124479
  0
LINE
  5
526
100
AcDbEntity
  8
ASSI
100
AcDbLine
 62
7
  6
CONTINUOUS
 10
11.0213038337
 20
10.7618983662
 11
11.0213038337
 21
-2.038124479
  0
LINE
  5
527
100
AcDbEntity
  8
RACCORDO
100
AcDbLine
 62
7
  6
CONTINUOUS
 10
11.0213038337
 20
-2.038124479
 11
11.0082295964
 21
-10.599491457
  0
LINE
  5
528
100
AcDbEntity
  8
ASSI
100
AcDbLine
 62
7
  6
CONTINUOUS
 10
11.0213038337
 20
-2.038124479
 11
11.0082295964
 21
-10.599491457
  0
LINE
  5
529
100
AcDbEntity
  8
DRAFT
100
AcDbLine
 62
7
  6
CONTINUOUS
 10
8.1213038337
 20
10.9356949176
 11
-8.3786961663
 21
10.9356949176
  0
LINE
  5
52A
100
AcDbEntity
  8
ASSI
100
AcDbLine
 62
7
  6
CONTINUOUS
 10
8.1213038337
 20
10.9356949176
 11
-8.3786961663
 21
10.9356949176
  0
LINE
  5
52B
100
AcDbEntity
  8
RACCORDO
100
AcDbLine
 62
7
  6
CONTINUOUS
 10
10.8213038326
 20
10.961875521
 11
8.3837698243
 21
10.961875521
  0
LINE
  5
52C
100
AcDbEntity
  8
ASSI
100
AcDbLine
 62
7
  6
CONTINUOUS
 10
10.8213038326
 20
10.961875521
 11
8.3837698243
 21
10.961875521
  0
LINE
  5
52D
100
AcDbEntity
  8
RACCORDO
100
AcDbLine
 62
7
  6
CONTINUOUS
 10
-8.6411621569
 20
10.961875521
 11
-11.0786961651
 21
10.961875521
  0
LINE
  5
52E
100
AcDbEntity
  8
ASSI
100
AcDbLine
 62
7
  6
CONTINUOUS
 10
-8.6411621569
 20
10.961875521
 11
-11.0786961651
 21
10.961875521
  0
LINE
  5
52F
100
AcDbEntity
  8
RACCORDO
100
AcDbLine
 62
7
  6
CONTINUOUS
 10
7.4039279776
 20
9.7792513771
 11
7.4356617768
 21
9.7475175779
  0
LINE
  5
530
100
AcDbEntity
  8
ASSI
100
AcDbLine
 62
7
  6
CONTINUOUS
 10
7.4039279776
 20
9.7792513771
 11
7.4356617768
 21
9.7475175779
  0
ARC
  5
531
100
AcDbEntity
  8
RACCORDO
100
AcDbCircle
 62
253
  6
CONTINUOUS
 10
-52.2163205251
 20
-6.875222579
 40
46.447326629
100
AcDbArc
 50
359.8480505891
 51
0.0044488492
  0
ARC
  5
532
100
AcDbEntity
  8
ASSI
100
AcDbCircle
 62
253
  6
CONTINUOUS
 10
-52.2163205251
 20
-6.875222579
 40
46.447326629
100
AcDbArc
 50
359.8480505891
 51
0.0044488492
  0
ARC
  5
533
100
AcDbEntity
  8
RACCORDO
100
AcDbCircle
 62
253
  6
CONTINUOUS
 10
-41.0163205238
 20
-6.875222579
 40
46.4473266277
100
AcDbArc
 50
359.8480505891
 51
0.0044488492
  0
ARC
  5
534
100
AcDbEntity
  8
ASSI
100
AcDbCircle
 62
253
  6
CONTINUOUS
 10
-41.0163205238
 20
-6.875222579
 40
46.4473266277
100
AcDbArc
 50
359.8480505891
 51
0.0044488492
  0
ARC
  5
535
100
AcDbEntity
  8
RACCORDO
100
AcDbCircle
 62
253
  6
CONTINUOUS
 10
-4.1028669828
 20
-6.8718654769
 40
1.3356842781
100
AcDbArc
 50
179.9893018286
 51
180.8957745167
  0
ARC
  5
536
100
AcDbEntity
  8
ASSI
100
AcDbCircle
 62
253
  6
CONTINUOUS
 10
-4.1028669828
 20
-6.8718654769
 40
1.3356842781
100
AcDbArc
 50
179.9893018286
 51
180.8957745167
  0
ARC
  5
537
100
AcDbEntity
  8
RACCORDO
100
AcDbCircle
 62
253
  6
CONTINUOUS
 10
-7.311607559
 20
-6.8721962378
 40
1.2927659852
100
AcDbArc
 50
359.0891460249
 51
0.0257127486
  0
ARC
  5
538
100
AcDbEntity
  8
ASSI
100
AcDbCircle
 62
253
  6
CONTINUOUS
 10
-7.311607559
 20
-6.8721962378
 40
1.2927659852
100
AcDbArc
 50
359.0891460249
 51
0.0257127486
  0
ARC
  5
539
100
AcDbEntity
  8
RACCORDO
100
AcDbCircle
 62
253
  6
CONTINUOUS
 10
-5.6275643059
 20
-4.8125088413
 40
0.2500887179
100
AcDbArc
 50
0.0272536006
 51
89.9435595895
  0
ARC
  5
53A
100
AcDbEntity
  8
RACCORDO
100
AcDbCircle
 62
253
  6
CONTINUOUS
 10
-5.8298279976
 20
-4.8125088703
 40
0.2500887181
100
AcDbArc
 50
90.0564470492
 51
179.972739764
  0
ARC
  5
53B
100
AcDbEntity
  8
ASSI
100
AcDbCircle
 62
253
  6
CONTINUOUS
 10
-5.6275643059
 20
-4.8125088413
 40
0.2500887179
100
AcDbArc
 50
0.0272536006
 51
89.9435595895
  0
ARC
  5
53C
100
AcDbEntity
  8
ASSI
100
AcDbCircle
 62
253
  6
CONTINUOUS
 10
-5.8298279976
 20
-4.8125088703
 40
0.2500887181
100
AcDbArc
 50
90.0564470492
 51
179.972739764
  0
ARC
  5
53D
100
AcDbEntity
  8
RACCORDO
100
AcDbCircle
 62
7
  6
CONTINUOUS
 10
-5.5727249374
 20
-4.7848242386
 40
0.2496440616
100
AcDbArc
 50
359.9135250016
 51
90.0173408389
  0
ARC
  5
53E
100
AcDbEntity
  8
RACCORDO
100
AcDbCircle
 62
7
  6
CONTINUOUS
 10
-5.8846673953
 20
-4.7848242389
 40
0.2496440616
100
AcDbArc
 50
89.9826591193
 51
180.0864749415
  0
ARC
  5
53F
100
AcDbEntity
  8
ASSI
100
AcDbCircle
 62
7
  6
CONTINUOUS
 10
-5.5727249374
 20
-4.7848242386
 40
0.2496440616
100
AcDbArc
 50
359.9135250016
 51
90.0173408389
  0
ARC
  5
540
100
AcDbEntity
  8
ASSI
100
AcDbCircle
 62
7
  6
CONTINUOUS
 10
-5.8846673953
 20
-4.7848242389
 40
0.2496440616
100
AcDbArc
 50
89.9826591193
 51
180.0864749415
  0
CIRCLE
  5
541
100
AcDbEntity
  8
0
100
AcDbCircle
 62
7
  6
CONTINUOUS
 10
-0.1286961663
 20
6.561875521
 40
1.1
  0
CIRCLE
  5
542
100
AcDbEntity
  8
0
100
AcDbCircle
 62
7
  6
CONTINUOUS
 10
-0.1286961663
 20
6.561875521
 40
0.9
  0
ARC
  5
543
100
AcDbEntity
  8
RACCORDO
100
AcDbCircle
 62
253
  6
CONTINUOUS
 10
-7.2210159602
 20
5.2041953148
 40
0.3002587517
100
AcDbArc
 50
270.0836583225
 51
359.9163416774
  0
ARC
  5
544
100
AcDbEntity
  8
RACCORDO
100
AcDbCircle
 62
253
  6
CONTINUOUS
 10
-7.3363763889
 20
5.2041952983
 40
0.3002587515
100
AcDbArc
 50
180.0836551819
 51
269.9163448181
  0
ARC
  5
545
100
AcDbEntity
  8
ASSI
100
AcDbCircle
 62
253
  6
CONTINUOUS
 10
-7.2210159602
 20
5.2041953148
 40
0.3002587517
100
AcDbArc
 50
270.0836583225
 51
359.9163416774
  0
ARC
  5
546
100
AcDbEntity
  8
ASSI
100
AcDbCircle
 62
253
  6
CONTINUOUS
 10
-7.3363763889
 20
5.2041952983
 40
0.3002587515
100
AcDbArc
 50
180.0836551819
 51
269.9163448181
  0
ARC
  5
547
100
AcDbEntity
  8
RACCORDO
100
AcDbCircle
 62
7
  6
CONTINUOUS
 10
-7.165324782
 20
5.1486472112
 40
0.299827954
100
AcDbArc
 50
269.9766283031
 51
359.9717046961
  0
ARC
  5
548
100
AcDbEntity
  8
RACCORDO
100
AcDbCircle
 62
7
  6
CONTINUOUS
 10
-7.3920675506
 20
5.1486472112
 40
0.299827954
100
AcDbArc
 50
180.0282953048
 51
270.0233716975
  0
ARC
  5
549
100
AcDbEntity
  8
ASSI
100
AcDbCircle
 62
7
  6
CONTINUOUS
 10
-7.165324782
 20
5.1486472112
 40
0.299827954
100
AcDbArc
 50
269.9766283031
 51
359.9717046961
  0
ARC
  5
54A
100
AcDbEntity
  8
ASSI
100
AcDbCircle
 62
7
  6
CONTINUOUS
 10
-7.3920675506
 20
5.1486472112
 40
0.299827954
100
AcDbArc
 50
180.0282953048
 51
270.0233716975
  0
ARC
  5
54B
100
AcDbEntity
  8
RACCORDO
100
AcDbCircle
 62
253
  6
CONTINUOUS
 10
53.6224564344
 20
-6.8730860832
 40
48.1108554102
100
AcDbArc
 50
179.9982493564
 51
180.1492398337
  0
ARC
  5
54C
100
AcDbEntity
  8
ASSI
100
AcDbCircle
 62
253
  6
CONTINUOUS
 10
53.6224564344
 20
-6.8730860832
 40
48.1108554102
100
AcDbArc
 50
179.9982493564
 51
180.1492398337
  0
ARC
  5
54D
100
AcDbEntity
  8
RACCORDO
100
AcDbCircle
 62
253
  6
CONTINUOUS
 10
42.422456433
 20
-6.8730860832
 40
48.1108554088
100
AcDbArc
 50
179.9982493564
 51
180.1492398337
  0
ARC
  5
54E
100
AcDbEntity
  8
ASSI
100
AcDbCircle
 62
253
  6
CONTINUOUS
 10
42.422456433
 20
-6.8730860832
 40
48.1108554088
100
AcDbArc
 50
179.9982493564
 51
180.1492398337
  0
ARC
  5
54F
100
AcDbEntity
  8
RACCORDO
100
AcDbCircle
 62
253
  6
CONTINUOUS
 10
7.0971330172
 20
-6.8718654769
 40
1.3356842781
100
AcDbArc
 50
179.9893018286
 51
180.8957745167
  0
ARC
  5
550
100
AcDbEntity
  8
ASSI
100
AcDbCircle
 62
253
  6
CONTINUOUS
 10
7.0971330172
 20
-6.8718654769
 40
1.3356842781
100
AcDbArc
 50
179.9893018286
 51
180.8957745167
  0
ARC
  5
551
100
AcDbEntity
  8
RACCORDO
100
AcDbCircle
 62
253
  6
CONTINUOUS
 10
3.888392441
 20
-6.8721962378
 40
1.2927659852
100
AcDbArc
 50
359.0891460249
 51
0.0257127486
  0
ARC
  5
552
100
AcDbEntity
  8
ASSI
100
AcDbCircle
 62
253
  6
CONTINUOUS
 10
3.888392441
 20
-6.8721962378
 40
1.2927659852
100
AcDbArc
 50
359.0891460249
 51
0.0257127486
  0
ARC
  5
553
100
AcDbEntity
  8
RACCORDO
100
AcDbCircle
 62
253
  6
CONTINUOUS
 10
5.3701720024
 20
-4.8125088703
 40
0.2500887181
100
AcDbArc
 50
90.0564470504
 51
179.9727397652
  0
ARC
  5
554
100
AcDbEntity
  8
RACCORDO
100
AcDbCircle
 62
253
  6
CONTINUOUS
 10
5.5724356941
 20
-4.8125088413
 40
0.2500887179
100
AcDbArc
 50
0.0272536006
 51
89.9435595895
  0
ARC
  5
555
100
AcDbEntity
  8
ASSI
100
AcDbCircle
 62
253
  6
CONTINUOUS
 10
5.3701720024
 20
-4.8125088703
 40
0.2500887181
100
AcDbArc
 50
90.0564470504
 51
179.9727397652
  0
ARC
  5
556
100
AcDbEntity
  8
ASSI
100
AcDbCircle
 62
253
  6
CONTINUOUS
 10
5.5724356941
 20
-4.8125088413
 40
0.2500887179
100
AcDbArc
 50
0.0272536006
 51
89.9435595895
  0
ARC
  5
557
100
AcDbEntity
  8
RACCORDO
100
AcDbCircle
 62
7
  6
CONTINUOUS
 10
5.3153326046
 20
-4.7848242388
 40
0.2496440615
100
AcDbArc
 50
89.9826590959
 51
180.086474966
  0
ARC
  5
558
100
AcDbEntity
  8
RACCORDO
100
AcDbCircle
 62
7
  6
CONTINUOUS
 10
5.6272750626
 20
-4.7848242386
 40
0.2496440616
100
AcDbArc
 50
359.9135250008
 51
90.0173408392
  0
ARC
  5
559
100
AcDbEntity
  8
ASSI
100
AcDbCircle
 62
7
  6
CONTINUOUS
 10
5.3153326046
 20
-4.7848242388
 40
0.2496440615
100
AcDbArc
 50
89.9826590959
 51
180.086474966
  0
ARC
  5
55A
100
AcDbEntity
  8
ASSI
100
AcDbCircle
 62
7
  6
CONTINUOUS
 10
5.6272750626
 20
-4.7848242386
 40
0.2496440616
100
AcDbArc
 50
359.9135250008
 51
90.0173408392
  0
ARC
  5
55B
100
AcDbEntity
  8
RACCORDO
100
AcDbCircle
 62
253
  6
CONTINUOUS
 10
7.0789840398
 20
5.2041953148
 40
0.3002587517
100
AcDbArc
 50
270.0836583225
 51
359.9163416774
  0
ARC
  5
55C
100
AcDbEntity
  8
RACCORDO
100
AcDbCircle
 62
253
  6
CONTINUOUS
 10
6.9636236111
 20
5.2041952983
 40
0.3002587515
100
AcDbArc
 50
180.0836551819
 51
269.9163448181
  0
ARC
  5
55D
100
AcDbEntity
  8
ASSI
100
AcDbCircle
 62
253
  6
CONTINUOUS
 10
7.0789840398
 20
5.2041953148
 40
0.3002587517
100
AcDbArc
 50
270.0836583225
 51
359.9163416774
  0
ARC
  5
55E
100
AcDbEntity
  8
ASSI
100
AcDbCircle
 62
253
  6
CONTINUOUS
 10
6.9636236111
 20
5.2041952983
 40
0.3002587515
100
AcDbArc
 50
180.0836551819
 51
269.9163448181
  0
ARC
  5
55F
100
AcDbEntity
  8
RACCORDO
100
AcDbCircle
 62
7
  6
CONTINUOUS
 10
7.134675218
 20
5.1486472112
 40
0.299827954
100
AcDbArc
 50
269.9766283071
 51
359.971704692
  0
ARC
  5
560
100
AcDbEntity
  8
RACCORDO
100
AcDbCircle
 62
7
  6
CONTINUOUS
 10
6.9079324495
 20
5.1486472112
 40
0.2998279541
100
AcDbArc
 50
180.0282953137
 51
270.0233716853
  0
ARC
  5
561
100
AcDbEntity
  8
ASSI
100
AcDbCircle
 62
7
  6
CONTINUOUS
 10
7.134675218
 20
5.1486472112
 40
0.299827954
100
AcDbArc
 50
269.9766283071
 51
359.971704692
  0
ARC
  5
562
100
AcDbEntity
  8
ASSI
100
AcDbCircle
 62
7
  6
CONTINUOUS
 10
6.9079324495
 20
5.1486472112
 40
0.2998279541
100
AcDbArc
 50
180.0282953137
 51
270.0233716853
  0
SPLINE
  5
563
100
AcDbEntity
  8
0
100
AcDbSpline
 62
7
  6
CONTINUOUS
 70
0
 71
3
 72
10
 73
6
 74
4
 42
0.0000001
 43
0.0000001
 44
0.0000000001
 12
-0.0095948202
 22
0.4295727449
 32
0.0
 13
-0.4296447263
 23
-0.0065610381
 33
0.0
 40
0.0
 40
0.0
 40
0.0
 40
0.0
 40
0.4724875075
 40
0.7072006687
 40
1.0
 40
1.0
 40
1.0
 40
1.0
 10
-1.4900243348
 20
-2.3775023346
 30
0.0
 10
-1.491535479
 20
-2.3098464161
 30
0.0
 10
-1.513677214
 20
-2.1992137417
 30
0.0
 10
-1.6342399127
 20
-2.1102896272
 30
0.0
 10
-1.7121751078
 20
-2.1012305096
 30
0.0
 10
-1.7541083373
 20
-2.1018708654
 30
0.0
 11
-1.4900243348
 21
-2.3775023346
 31
0.0
 11
-1.5492967114
 21
-2.1833290945
 31
0.0
 11
-1.6300752219
 21
-2.1229481194
 31
0.0
 11
-1.7541083373
 21
-2.1018708654
 31
0.0
  0
SPLINE
  5
564
100
AcDbEntity
  8
0
100
AcDbSpline
 62
7
  6
CONTINUOUS
 70
0
 71
3
 72
9
 73
5
 74
3
 42
0.0000001
 43
0.0000001
 44
0.0000000001
 12
-0.3133068914
 22
-0.0047845217
 32
0.0
 13
-0.0361262538
 23
-0.3112658327
 33
0.0
 40
0.0
 40
0.0
 40
0.0
 40
0.0
 40
0.4987528619
 40
1.0
 40
1.0
 40
1.0
 40
1.0
 10
-1.7541083375
 20
-2.1018708576
 30
0.0
 10
-1.806195907
 20
-2.1026662889
 30
0.0
 10
-1.9148337672
 20
-2.1450951238
 30
0.0
 10
-1.9606412684
 20
-2.2503092213
 30
0.0
 10
-1.9666773289
 20
-2.3023162573
 30
0.0
 11
-1.7541083375
 21
-2.1018708576
 31
0.0
 11
-1.898933465
 21
-2.160607406
 31
0.0
 11
-1.9666773289
 21
-2.3023162573
 31
0.0
  0
SPLINE
  5
565
100
AcDbEntity
  8
0
100
AcDbSpline
 62
7
  6
CONTINUOUS
 70
0
 71
3
 72
9
 73
5
 74
3
 42
0.0000001
 43
0.0000001
 44
0.0000000001
 12
-0.0321345864
 22
-0.2768734101
 32
0.0
 13
0.0468836161
 23
-0.274760569
 33
0.0
 40
0.0
 40
0.0
 40
0.0
 40
0.0
 40
0.7295958324
 40
1.0
 40
1.0
 40
1.0
 40
1.0
 10
-1.9666773288
 20
-2.3023162573
 30
0.0
 10
-1.9744924155
 20
-2.369651486
 30
0.0
 10
-1.9747936635
 20
-2.4636441747
 30
0.0
 10
-1.960895659
 20
-2.5555175798
 30
0.0
 10
-1.9566698173
 20
-2.5802830474
 30
0.0
 11
-1.9666773288
 21
-2.3023162573
 31
0.0
 11
-1.9673735888
 21
-2.5056767179
 31
0.0
 11
-1.9566698173
 21
-2.5802830474
 31
0.0
  0
SPLINE
  5
566
100
AcDbEntity
  8
0
100
AcDbSpline
 62
7
  6
CONTINUOUS
 70
0
 71
3
 72
10
 73
6
 74
4
 42
0.0000001
 43
0.0000001
 44
0.0000000001
 12
-0.1284599377
 22
0.8731819798
 32
0.0
 13
0.2998855628
 23
0.8300707046
 33
0.0
 40
0.0
 40
0.0
 40
0.0
 40
0.0
 40
0.4151262789
 40
0.7045762354
 40
1.0
 40
1.0
 40
1.0
 40
1.0
 10
-2.2263982485
 20
-2.9219178151
 30
0.0
 10
-2.2441739471
 20
-2.8010908864
 30
0.0
 10
-2.2666859411
 20
-2.5944694859
 30
0.0
 10
-2.2667411772
 20
-2.3001669008
 30
0.0
 10
-2.238032441
 20
-2.1279973163
 30
0.0
 10
-2.2085013336
 20
-2.0462564455
 30
0.0
 11
-2.2263982485
 21
-2.9219178151
 31
0.0
 11
-2.2629001391
 21
-2.5573582022
 31
0.0
 11
-2.2597016153
 21
-2.3019152758
 31
0.0
 11
-2.2085013336
 21
-2.0462564455
 31
0.0
  0
SPLINE
  5
567
100
AcDbEntity
  8
0
100
AcDbSpline
 62
7
  6
CONTINUOUS
 70
0
 71
3
 72
23
 73
19
 74
17
 42
0.0000001
 43
0.0000001
 44
0.0000000001
 12
0.359969576
 22
0.9978268927
 32
0.0
 13
0.1357483736
 23
-1.0520498955
 33
0.0
 40
0.0
 40
0.0
 40
0.0
 40
0.0
 40
0.079828561
 40
0.1893471136
 40
0.252931641
 40
0.322277794
 40
0.3983621185
 40
0.4395068157
 40
0.4830801905
 40
0.5370931167
 40
0.5873706499
 40
0.6784900216
 40
0.7593486609
 40
0.8310612156
 40
0.8931649411
 40
0.9439081722
 40
0.9806071038
 40
1.0
 40
1.0
 40
1.0
 40
1.0
 10
-2.2085013336
 20
-2.0462564455
 30
0.0
 10
-2.1989227159
 20
-2.0197047505
 30
0.0
 10
-2.1662493457
 20
-1.9604197699
 30
0.0
 10
-2.1065252504
 20
-1.892620131
 30
0.0
 10
-2.0377613844
 20
-1.8409149182
 30
0.0
 10
-1.9721717924
 20
-1.8061438333
 30
0.0
 10
-1.9091693267
 20
-1.785424994
 30
0.0
 10
-1.8532940125
 20
-1.7745913347
 30
0.0
 10
-1.8044551404
 20
-1.7694360617
 30
0.0
 10
-1.7520929792
 20
-1.7684873759
 30
0.0
 10
-1.6831242954
 20
-1.7738788179
 30
0.0
 10
-1.605928306
 20
-1.7913116114
 30
0.0
 10
-1.5266217027
 20
-1.8261700614
 30
0.0
 10
-1.4631238954
 20
-1.8684468395
 30
0.0
 10
-1.4148871222
 20
-1.9125725168
 30
0.0
 10
-1.3803905842
 20
-1.9531526099
 30
0.0
 10
-1.3605992356
 20
-1.9849114878
 30
0.0
 10
-1.3507985831
 20
-2.0028715315
 30
0.0
 10
-1.3499210651
 20
-2.0096722963
 30
0.0
 11
-2.2085013336
 21
-2.0462564455
 31
0.0
 11
-2.1692331252
 21
-1.971231852
 31
0.0
 11
-2.0923880879
 21
-1.8841038963
 31
0.0
 11
-2.0384775558
 21
-1.8435702404
 31
0.0
 11
-1.9734967732
 21
-1.8090936433
 31
0.0
 11
-1.8968870591
 21
-1.7837017382
 31
0.0
 11
-1.8540467649
 21
-1.7753586804
 31
0.0
 11
-1.8080897325
 21
-1.770422158
 31
0.0
 11
-1.7508032069
 21
-1.769414696
 31
0.0
 11
-1.697639531
 21
-1.7736609647
 31
0.0
 11
-1.6034212552
 21
-1.7952355644
 31
0.0
 11
-1.5249159592
 21
-1.829787698
 31
0.0
 11
-1.4616046969
 21
-1.871959106
 31
0.0
 11
-1.4129667202
 21
-1.9163915444
 31
0.0
 11
-1.3784884895
 21
-1.9577267082
 31
0.0
 11
-1.3576460128
 21
-1.9906063806
 31
0.0
 11
-1.3499210651
 21
-2.0096722963
 31
0.0
  0
SPLINE
  5
568
100
AcDbEntity
  8
0
100
AcDbSpline
 62
7
  6
CONTINUOUS
 70
0
 71
3
 72
10
 73
6
 74
4
 42
0.0000001
 43
0.0000001
 44
0.0000000001
 12
0.1499049954
 22
0.3759372924
 32
0.0
 13
0.3904867251
 23
0.1063828202
 33
0.0
 40
0.0
 40
0.0
 40
0.0
 40
0.0
 40
0.2520036888
 40
0.5059767291
 40
1.0
 40
1.0
 40
1.0
 40
1.0
 10
-1.3398763579
 20
-2.0096722963
 30
0.0
 10
-1.327284154
 20
-1.9780931015
 30
0.0
 10
-1.2854280588
 20
-1.9206684289
 30
0.0
 10
-1.1691935623
 20
-1.8488274154
 30
0.0
 10
-1.0706867737
 20
-1.8226385308
 30
0.0
 10
-1.0063835973
 20
-1.8051200012
 30
0.0
 11
-1.3398763579
 21
-2.0096722963
 31
0.0
 11
-1.2813849397
 21
-1.9261197002
 31
0.0
 11
-1.1957625349
 21
-1.8692487559
 31
0.0
 11
-1.0063835973
 21
-1.8051200012
 31
0.0
  0
SPLINE
  5
569
100
AcDbEntity
  8
0
100
AcDbSpline
 62
7
  6
CONTINUOUS
 70
0
 71
3
 72
9
 73
5
 74
3
 42
0.0000001
 43
0.0000001
 44
0.0000000001
 12
0.4589786715
 22
0.125042516
 32
0.0
 13
0.4590762626
 23
0.1246838126
 33
0.0
 40
0.0
 40
0.0
 40
0.0
 40
0.0
 40
0.8019458722
 40
1.0
 40
1.0
 40
1.0
 40
1.0
 10
-1.0063835975
 20
-1.8051200005
 30
0.0
 10
-0.8836915805
 20
-1.771694224
 30
0.0
 10
-0.7300721775
 20
-1.7323560968
 30
0.0
 10
-0.5767027958
 20
-1.6920753018
 30
0.0
 10
-0.5463954796
 20
-1.6838439206
 30
0.0
 11
-1.0063835975
 21
-1.8051200005
 31
0.0
 11
-0.6374634813
 21
-1.7079938807
 31
0.0
 11
-0.5463954796
 21
-1.6838439206
 31
0.0
  0
SPLINE
  5
56A
100
AcDbEntity
  8
0
100
AcDbSpline
 62
7
  6
CONTINUOUS
 70
0
 71
3
 72
11
 73
7
 74
5
 42
0.0000001
 43
0.0000001
 44
0.0000000001
 12
-0.5175092969
 22
-0.1487860009
 32
0.0
 13
-0.5040440549
 23
-0.1894590043
 33
0.0
 40
0.0
 40
0.0
 40
0.0
 40
0.0
 40
0.1342305347
 40
0.4412509806
 40
0.7775650777
 40
1.0
 40
1.0
 40
1.0
 40
1.0
 10
-0.5463954796
 20
-2.0251472639
 30
0.0
 10
-0.5695506628
 20
-2.0318044721
 30
0.0
 10
-0.6456207242
 20
-2.0538456023
 30
0.0
 10
-0.779664289
 20
-2.0927785828
 30
0.0
 10
-0.9283214264
 20
-2.1378462164
 30
0.0
 10
-1.0246078246
 20
-2.1663064866
 30
0.0
 10
-1.061980158
 20
-2.1803539196
 30
0.0
 11
-0.5463954796
 21
-2.0251472639
 31
0.0
 11
-0.6158320673
 21
-2.0452193502
 31
0.0
 11
-0.7745142212
 21
-2.0916026259
 31
0.0
 11
-0.9480005271
 21
-2.1435476165
 31
0.0
 11
-1.061980158
 21
-2.1803539196
 31
0.0
  0
SPLINE
  5
56B
100
AcDbEntity
  8
0
100
AcDbSpline
 62
7
  6
CONTINUOUS
 70
0
 71
3
 72
9
 73
5
 74
3
 42
0.0000001
 43
0.0000001
 44
0.0000000001
 12
-0.2438689275
 22
-0.0916651113
 32
0.0
 13
0.0
 23
-0.2604910834
 33
0.0
 40
0.0
 40
0.0
 40
0.0
 40
0.0
 40
0.6438952445
 40
1.0
 40
1.0
 40
1.0
 40
1.0
 10
-1.0619801665
 20
-2.1803538969
 30
0.0
 10
-1.1143221808
 20
-2.2000281399
 30
0.0
 10
-1.1929144357
 20
-2.2584434882
 30
0.0
 10
-1.2116278822
 20
-2.3473464555
 30
0.0
 10
-1.2116278822
 20
-2.37826716
 30
0.0
 11
-1.0619801665
 21
-2.1803538969
 31
0.0
 11
-1.1907067202
 21
-2.2878950698
 31
0.0
 11
-1.2116278822
 21
-2.37826716
 31
0.0
  0
SPLINE
  5
56C
100
AcDbEntity
  8
RACCORDO
100
AcDbSpline
 62
253
  6
CONTINUOUS
 70
0
 71
3
 72
15
 73
11
 74
9
 42
0.0000001
 43
0.0000001
 44
0.0000000001
 12
-0.2881576716
 22
0.0038542319
 32
0.0
 13
-0.0214951041
 23
0.2873806871
 33
0.0
 40
0.0
 40
0.0
 40
0.0
 40
0.0
 40
0.1661006305
 40
0.3273703266
 40
0.47908113
 40
0.6171090564
 40
0.7383291943
 40
0.8411944316
 40
0.9267165463
 40
1.0
 40
1.0
 40
1.0
 40
1.0
 10
5.4308429097
 20
-6.9984015588
 30
0.0
 10
5.4148885194
 20
-6.998188162
 30
0.0
 10
5.383445087
 20
-6.9965033726
 30
0.0
 10
5.3377963045
 20
-6.9902535952
 30
0.0
 10
5.2955085881
 20
-6.9805266909
 30
0.0
 10
5.2580894734
 20
-6.9676783756
 30
0.0
 10
5.2268141633
 20
-6.9521636725
 30
0.0
 10
5.2026968541
 20
-6.9344172732
 30
0.0
 10
5.1864447257
 20
-6.9147722465
 30
0.0
 10
5.1815202814
 20
-6.8997670764
 30
0.0
 10
5.1809952029
 20
-6.8927469933
 30
0.0
 11
5.4308429097
 21
-6.9984015588
 31
0.0
 11
5.3830455099
 21
-6.995812823
 31
0.0
 11
5.3370119232
 21
-6.9894207662
 31
0.0
 11
5.2944408745
 21
-6.9794612673
 31
0.0
 11
5.2569033147
 21
-6.9663018503
 31
0.0
 11
5.2257844497
 21
-6.9504281222
 31
0.0
 11
5.2022326235
 21
-6.932425853
 31
0.0
 11
5.1871169423
 21
-6.9129593602
 31
0.0
 11
5.1809952029
 21
-6.8927469933
 31
0.0
  0
SPLINE
  5
56D
100
AcDbEntity
  8
RACCORDO
100
AcDbSpline
 62
7
  6
CONTINUOUS
 70
0
 71
3
 72
17
 73
13
 74
11
 42
0.0000001
 43
0.0000001
 44
0.0000000001
 12
-0.3573152673
 22
-0.0104647825
 32
0.0
 13
-0.0148532747
 23
-0.3571597571
 33
0.0
 40
0.0
 40
0.0
 40
0.0
 40
0.0
 40
0.1289111824
 40
0.2505325819
 40
0.3645536477
 40
0.4713211985
 40
0.5715020992
 40
0.6658608772
 40
0.7551733224
 40
0.840186145
 40
0.9215951935
 40
1.0
 40
1.0
 40
1.0
 40
1.0
 10
5.3716411917
 20
-6.03823009
 30
0.0
 10
5.3562872139
 20
-6.0386797659
 30
0.0
 10
5.326463083
 20
-6.0418620867
 30
0.0
 10
5.2843011217
 20
-6.0529185734
 30
0.0
 10
5.2466181911
 20
-6.0689299443
 30
0.0
 10
5.2138063084
 20
-6.0888320068
 30
0.0
 10
5.1859961253
 20
-6.1117360445
 30
0.0
 10
5.1632084214
 20
-6.1368955431
 30
0.0
 10
5.1454124191
 20
-6.1636547928
 30
0.0
 10
5.1325430452
 20
-6.1914113944
 30
0.0
 10
5.1244925701
 20
-6.2195698233
 30
0.0
 10
5.1221816744
 20
-6.2385650396
 30
0.0
 10
5.121793485
 20
-6.2478993868
 30
0.0
 11
5.3716411917
 21
-6.03823009
 31
0.0
 11
5.3258200998
 21
-6.043123875
 31
0.0
 11
5.2837737384
 21
-6.0541805521
 31
0.0
 11
5.2462806699
 21
-6.0701668191
 31
0.0
 11
5.2136798889
 21
-6.0900121011
 31
0.0
 11
5.1860787675
 21
-6.1128296959
 31
0.0
 11
5.163484202
 21
-6.1378740162
 31
0.0
 11
5.1458556751
 21
-6.1644922246
 31
0.0
 11
5.1331190941
 21
-6.1920838065
 31
0.0
 11
5.125157756
 21
-6.2200747891
 31
0.0
 11
5.121793485
 21
-6.2478993868
 31
0.0
  0
SPLINE
  5
56E
100
AcDbEntity
  8
RACCORDO
100
AcDbSpline
 62
253
  6
CONTINUOUS
 70
0
 71
3
 72
15
 73
11
 74
9
 42
0.0000001
 43
0.0000001
 44
0.0000000001
 12
0.3882348029
 22
-0.0023184616
 32
0.0
 13
0.0023876314
 23
-0.3882343837
 33
0.0
 40
0.0
 40
0.0
 40
0.0
 40
0.0
 40
0.1257290456
 40
0.2514557317
 40
0.3770343051
 40
0.502340937
 40
0.627292244
 40
0.751858067
 40
0.8760664778
 40
1.0
 40
1.0
 40
1.0
 40
1.0
 10
-5.6869559904
 20
-6.2941679097
 30
0.0
 10
-5.6706851933
 20
-6.2942650757
 30
0.0
 10
-5.6380763212
 20
-6.2976105557
 30
0.0
 10
-5.5911127283
 20
-6.3118730767
 30
0.0
 10
-5.5477775372
 20
-6.3348412308
 30
0.0
 10
-5.5097437847
 20
-6.3656451114
 30
0.0
 10
-5.4784560085
 20
-6.4031147465
 30
0.0
 10
-5.4551129805
 20
-6.4458331374
 30
0.0
 10
-5.4406108641
 20
-6.4921487223
 30
0.0
 10
-5.4372069195
 20
-6.5243314298
 30
0.0
 10
-5.4371082836
 20
-6.540369848
 30
0.0
 11
-5.6869559904
 21
-6.2941679097
 31
0.0
 11
-5.6383978744
 21
-6.2991522741
 31
0.0
 11
-5.5916914944
 21
-6.3133353325
 31
0.0
 11
-5.5486179714
 21
-6.3361762221
 31
0.0
 11
-5.5108198895
 21
-6.3668039185
 31
0.0
 11
-5.4797386568
 21
-6.4040504523
 31
0.0
 11
-5.4565595384
 21
-6.446495448
 31
0.0
 11
-5.4421664567
 21
-6.4925202903
 31
0.0
 11
-5.4371082836
 21
-6.540369848
 31
0.0
  0
SPLINE
  5
56F
100
AcDbEntity
  8
RACCORDO
100
AcDbSpline
 62
7
  6
CONTINUOUS
 70
0
 71
3
 72
17
 73
13
 74
11
 42
0.0000001
 43
0.0000001
 44
0.0000000001
 12
-0.0148532747
 22
0.3571597571
 32
0.0
 13
-0.3573152673
 23
0.0104647825
 33
0.0
 40
0.0
 40
0.0
 40
0.0
 40
0.0
 40
0.0784048065
 40
0.159813855
 40
0.2448266776
 40
0.3341391228
 40
0.4284979008
 40
0.5286788015
 40
0.6354463523
 40
0.7494674181
 40
0.8710888176
 40
1.0
 40
1.0
 40
1.0
 40
1.0
 10
-5.3791858176
 20
-6.2478993868
 30
0.0
 10
-5.3795740069
 20
-6.2385650396
 30
0.0
 10
-5.3818849026
 20
-6.2195698233
 30
0.0
 10
-5.3899353777
 20
-6.1914113944
 30
0.0
 10
-5.4028047517
 20
-6.1636547928
 30
0.0
 10
-5.4206007539
 20
-6.1368955431
 30
0.0
 10
-5.4433884578
 20
-6.1117360445
 30
0.0
 10
-5.4711986409
 20
-6.0888320068
 30
0.0
 10
-5.5040105236
 20
-6.0689299443
 30
0.0
 10
-5.5416934542
 20
-6.0529185734
 30
0.0
 10
-5.5838554155
 20
-6.0418620867
 30
0.0
 10
-5.6136795464
 20
-6.0386797659
 30
0.0
 10
-5.6290335243
 20
-6.03823009
 30
0.0
 11
-5.3791858176
 21
-6.2478993868
 31
0.0
 11
-5.3825500885
 21
-6.2200747891
 31
0.0
 11
-5.3905114267
 21
-6.1920838065
 31
0.0
 11
-5.4032480077
 21
-6.1644922246
 31
0.0
 11
-5.4208765346
 21
-6.1378740162
 31
0.0
 11
-5.4434711001
 21
-6.1128296959
 31
0.0
 11
-5.4710722215
 21
-6.0900121011
 31
0.0
 11
-5.5036730024
 21
-6.0701668191
 31
0.0
 11
-5.541166071
 21
-6.0541805521
 31
0.0
 11
-5.5832124323
 21
-6.043123875
 31
0.0
 11
-5.6290335243
 21
-6.03823009
 31
0.0
  0
SPLINE
  5
570
100
AcDbEntity
  8
RACCORDO
100
AcDbSpline
 62
253
  6
CONTINUOUS
 70
0
 71
3
 72
15
 73
11
 74
9
 42
0.0000001
 43
0.0000001
 44
0.0000000001
 12
0.2881576673
 22
0.0038542516
 32
0.0
 13
0.0214951096
 23
0.2873806826
 33
0.0
 40
0.0
 40
0.0
 40
0.0
 40
0.0
 40
0.1661012139
 40
0.3273713521
 40
0.4790823685
 40
0.6171102583
 40
0.7383301595
 40
0.8411950579
 40
0.9267168348
 40
1.0
 40
1.0
 40
1.0
 40
1.0
 10
-5.6882352422
 20
-6.9984015588
 30
0.0
 10
-5.6722807961
 20
-6.9981881602
 30
0.0
 10
-5.6408372658
 20
-6.9965033592
 30
0.0
 10
-5.5951883685
 20
-6.9902535441
 30
0.0
 10
-5.5529006015
 20
-6.9805265951
 30
0.0
 10
-5.5154815056
 20
-6.9676782433
 30
0.0
 10
-5.4842062689
 20
-6.9521635254
 30
0.0
 10
-5.4600890583
 20
-6.9344171409
 30
0.0
 10
-5.4438370227
 20
-6.9147721606
 30
0.0
 10
-5.438912612
 20
-6.8997670487
 30
0.0
 10
-5.4383875355
 20
-6.8927469933
 30
0.0
 11
-5.6882352422
 21
-6.9984015588
 31
0.0
 11
-5.6404376758
 21
-6.995812804
 31
0.0
 11
-5.5944039667
 21
-6.9894207072
 31
0.0
 11
-5.5518328665
 21
-6.9794611615
 31
0.0
 11
-5.5142953312
 21
-6.9663017082
 31
0.0
 11
-5.4831765488
 21
-6.9504279693
 31
0.0
 11
-5.4596248287
 21
-6.9324257229
 31
0.0
 11
-5.4445092366
 21
-6.9129592846
 31
0.0
 11
-5.4383875355
 21
-6.8927469933
 31
0.0
  0
SPLINE
  5
571
100
AcDbEntity
  8
RACCORDO
100
AcDbSpline
 62
253
  6
CONTINUOUS
 70
0
 71
3
 72
15
 73
11
 74
9
 42
0.0000001
 43
0.0000001
 44
0.0000000001
 12
-0.3882348025
 22
-0.0023184634
 32
0.0
 13
-0.0023876319
 23
-0.3882343833
 33
0.0
 40
0.0
 40
0.0
 40
0.0
 40
0.0
 40
0.125729459
 40
0.2514564959
 40
0.3770353051
 40
0.5023420228
 40
0.6272932526
 40
0.7518588458
 40
0.8760669051
 40
1.0
 40
1.0
 40
1.0
 40
1.0
 10
-5.7704363422
 20
-6.2941679097
 30
0.0
 10
-5.7867071928
 20
-6.2942650761
 30
0.0
 10
-5.8193161645
 20
-6.2976105769
 30
0.0
 10
-5.8662798704
 20
-6.3118731788
 30
0.0
 10
-5.9096151086
 20
-6.3348414334
 30
0.0
 10
-5.9476488363
 20
-6.3656453959
 30
0.0
 10
-5.9789365324
 20
-6.4031150598
 30
0.0
 10
-6.0022794585
 20
-6.4458334074
 30
0.0
 10
-6.0167814906
 20
-6.4921488792
 30
0.0
 10
-6.0201854134
 20
-6.5243314851
 30
0.0
 10
-6.0202840489
 20
-6.540369848
 30
0.0
 11
-5.7704363422
 21
-6.2941679097
 31
0.0
 11
-5.8189946161
 21
-6.2991523061
 31
0.0
 11
-5.8657011135
 21
-6.3133354465
 31
0.0
 11
-5.9087746863
 21
-6.3361764376
 31
0.0
 11
-5.9465727444
 21
-6.3668042162
 31
0.0
 11
-5.9776538969
 21
-6.4040507778
 31
0.0
 11
-6.0008329127
 21
-6.4464957278
 31
0.0
 11
-6.0152259096
 21
-6.4925204536
 31
0.0
 11
-6.0202840489
 21
-6.540369848
 31
0.0
  0
SPLINE
  5
572
100
AcDbEntity
  8
RACCORDO
100
AcDbSpline
 62
253
  6
CONTINUOUS
 70
0
 71
3
 72
9
 73
5
 74
3
 42
0.0000001
 43
0.0000001
 44
0.0000000001
 12
-0.0004118646
 22
-8.9925039188
 32
0.0
 13
-0.0032451975
 23
-8.9925033427
 33
0.0
 40
0.0
 40
0.0
 40
0.0
 40
0.0
 40
0.5000414317
 40
1.0
 40
1.0
 40
1.0
 40
1.0
 10
-9.9588449221
 20
9.7543792354
 30
0.0
 10
-9.9589135719
 20
8.2555043906
 30
0.0
 10
-9.9592869302
 20
5.2580030905
 30
0.0
 10
-9.9601324825
 20
2.2605018864
 30
0.0
 10
-9.960673304
 20
0.761875521
 30
0.0
 11
-9.9588449221
 21
9.7543792354
 31
0.0
 11
-9.9594050292
 21
5.2577547312
 31
0.0
 11
-9.960673304
 21
0.761875521
 31
0.0
  0
SPLINE
  5
573
100
AcDbEntity
  8
RACCORDO
100
AcDbSpline
 62
253
  6
CONTINUOUS
 70
0
 71
3
 72
15
 73
11
 74
9
 42
0.0000001
 43
0.0000001
 44
0.0000000001
 12
-0.2881576716
 22
0.0038542319
 32
0.0
 13
-0.0214951041
 23
0.2873806871
 33
0.0
 40
0.0
 40
0.0
 40
0.0
 40
0.0
 40
0.1661006305
 40
0.3273703266
 40
0.47908113
 40
0.6171090564
 40
0.7383291943
 40
0.8411944316
 40
0.9267165463
 40
1.0
 40
1.0
 40
1.0
 40
1.0
 10
-5.7691570903
 20
-6.9984015588
 30
0.0
 10
-5.7851114806
 20
-6.998188162
 30
0.0
 10
-5.816554913
 20
-6.9965033726
 30
0.0
 10
-5.8622036955
 20
-6.9902535952
 30
0.0
 10
-5.9044914119
 20
-6.9805266909
 30
0.0
 10
-5.9419105266
 20
-6.9676783756
 30
0.0
 10
-5.9731858367
 20
-6.9521636725
 30
0.0
 10
-5.9973031459
 20
-6.9344172732
 30
0.0
 10
-6.0135552743
 20
-6.9147722465
 30
0.0
 10
-6.0184797186
 20
-6.8997670764
 30
0.0
 10
-6.0190047971
 20
-6.8927469933
 30
0.0
 11
-5.7691570903
 21
-6.9984015588
 31
0.0
 11
-5.8169544901
 21
-6.995812823
 31
0.0
 11
-5.8629880768
 21
-6.9894207662
 31
0.0
 11
-5.9055591255
 21
-6.9794612673
 31
0.0
 11
-5.9430966853
 21
-6.9663018503
 31
0.0
 11
-5.9742155503
 21
-6.9504281222
 31
0.0
 11
-5.9977673765
 21
-6.932425853
 31
0.0
 11
-6.0128830577
 21
-6.9129593602
 31
0.0
 11
-6.0190047971
 21
-6.8927469933
 31
0.0
  0
SPLINE
  5
574
100
AcDbEntity
  8
RACCORDO
100
AcDbSpline
 62
253
  6
CONTINUOUS
 70
0
 71
3
 72
9
 73
5
 74
3
 42
0.0000001
 43
0.0000001
 44
0.0000000001
 12
-0.0029682127
 22
-6.007191491
 32
0.0
 13
-0.0042345483
 23
-6.0071907318
 33
0.0
 40
0.0
 40
0.0
 40
0.0
 40
0.0
 40
0.5000502626
 40
1.0
 40
1.0
 40
1.0
 40
1.0
 10
-9.9622977578
 20
-3.038124479
 30
0.0
 10
-9.9627925097
 20
-4.0394237066
 30
0.0
 10
-9.9638873905
 20
-6.0418208195
 30
0.0
 10
-9.9651933217
 20
-8.0442178059
 30
0.0
 10
-9.9658990088
 20
-9.0453156155
 30
0.0
 11
-9.9622977578
 21
-3.038124479
 31
0.0
 11
-9.9639402738
 21
-6.0420220793
 31
0.0
 11
-9.9658990088
 21
-9.0453156155
 31
0.0
  0
SPLINE
  5
575
100
AcDbEntity
  8
RACCORDO
100
AcDbSpline
 62
253
  6
CONTINUOUS
 70
0
 71
3
 72
9
 73
5
 74
3
 42
0.0000001
 43
0.0000001
 44
0.0000000001
 12
-0.0042345483
 22
6.0071907318
 32
0.0
 13
-0.0029682127
 23
6.007191491
 33
0.0
 40
0.0
 40
0.0
 40
0.0
 40
0.0
 40
0.4999497374
 40
1.0
 40
1.0
 40
1.0
 40
1.0
 10
9.7085066762
 20
-9.0453156155
 30
0.0
 10
9.7078009891
 20
-8.0442178059
 30
0.0
 10
9.706495058
 20
-6.0418208195
 30
0.0
 10
9.7054001771
 20
-4.0394237066
 30
0.0
 10
9.7049054252
 20
-3.038124479
 30
0.0
 11
9.7085066762
 21
-9.0453156155
 31
0.0
 11
9.7065479412
 21
-6.0420220793
 31
0.0
 11
9.7049054252
 21
-3.038124479
 31
0.0
  0
SPLINE
  5
576
100
AcDbEntity
  8
RACCORDO
100
AcDbSpline
 62
253
  6
CONTINUOUS
 70
0
 71
3
 72
9
 73
5
 74
3
 42
0.0000001
 43
0.0000001
 44
0.0000000001
 12
-0.0032451975
 22
8.9925033427
 32
0.0
 13
-0.0004118646
 23
8.9925039188
 33
0.0
 40
0.0
 40
0.0
 40
0.0
 40
0.0
 40
0.4999585687
 40
1.0
 40
1.0
 40
1.0
 40
1.0
 10
9.7032809714
 20
0.761875521
 30
0.0
 10
9.70274015
 20
2.2605018878
 30
0.0
 10
9.7018945976
 20
5.2580030919
 30
0.0
 10
9.7015212393
 20
8.255504392
 30
0.0
 10
9.7014525895
 20
9.7543792354
 30
0.0
 11
9.7032809714
 21
0.761875521
 31
0.0
 11
9.7020126966
 21
5.2577547354
 31
0.0
 11
9.7014525895
 21
9.7543792354
 31
0.0
  0
SPLINE
  5
577
100
AcDbEntity
  8
RACCORDO
100
AcDbSpline
 62
7
  6
CONTINUOUS
 70
0
 71
3
 72
17
 73
13
 74
11
 42
0.0000001
 43
0.0000001
 44
0.0000000001
 12
0.0148532747
 22
0.3571597571
 32
0.0
 13
0.3573152673
 23
0.0104647825
 33
0.0
 40
0.0
 40
0.0
 40
0.0
 40
0.0
 40
0.0784048065
 40
0.159813855
 40
0.2448266776
 40
0.3341391228
 40
0.4284979008
 40
0.5286788015
 40
0.6354463523
 40
0.7494674181
 40
0.8710888176
 40
1.0
 40
1.0
 40
1.0
 40
1.0
 10
-6.078206515
 20
-6.2478993868
 30
0.0
 10
-6.0778183256
 20
-6.2385650396
 30
0.0
 10
-6.0755074299
 20
-6.2195698233
 30
0.0
 10
-6.0674569548
 20
-6.1914113944
 30
0.0
 10
-6.0545875809
 20
-6.1636547928
 30
0.0
 10
-6.0367915786
 20
-6.1368955431
 30
0.0
 10
-6.0140038747
 20
-6.1117360445
 30
0.0
 10
-5.9861936916
 20
-6.0888320068
 30
0.0
 10
-5.9533818089
 20
-6.0689299443
 30
0.0
 10
-5.9156988783
 20
-6.0529185734
 30
0.0
 10
-5.873536917
 20
-6.0418620867
 30
0.0
 10
-5.8437127861
 20
-6.0386797659
 30
0.0
 10
-5.8283588083
 20
-6.03823009
 30
0.0
 11
-6.078206515
 21
-6.2478993868
 31
0.0
 11
-6.074842244
 21
-6.2200747891
 31
0.0
 11
-6.0668809059
 21
-6.1920838065
 31
0.0
 11
-6.0541443249
 21
-6.1644922246
 31
0.0
 11
-6.036515798
 21
-6.1378740162
 31
0.0
 11
-6.0139212325
 21
-6.1128296959
 31
0.0
 11
-5.9863201111
 21
-6.0900121011
 31
0.0
 11
-5.9537193301
 21
-6.0701668191
 31
0.0
 11
-5.9162262616
 21
-6.0541805521
 31
0.0
 11
-5.8741799002
 21
-6.043123875
 31
0.0
 11
-5.8283588083
 21
-6.03823009
 31
0.0
  0
SPLINE
  5
578
100
AcDbEntity
  8
RACCORDO
100
AcDbSpline
 62
253
  6
CONTINUOUS
 70
0
 71
3
 72
9
 73
5
 74
3
 42
0.0000001
 43
0.0000001
 44
0.0000000001
 12
-0.006311189
 22
1.6273687137
 32
0.0
 13
-0.0043781238
 23
1.6273750623
 33
0.0
 40
0.0
 40
0.0
 40
0.0
 40
0.0
 40
0.499990412
 40
1.0
 40
1.0
 40
1.0
 40
1.0
 10
-4.4815960947
 20
5.7484459658
 30
0.0
 10
-4.4826479393
 20
6.0196688837
 30
0.0
 10
-4.4845905761
 20
6.5621257583
 30
0.0
 10
-4.4862110363
 20
7.104583691
 30
0.0
 10
-4.4869407376
 20
7.3758180692
 30
0.0
 11
-4.4815960947
 21
5.7484459658
 31
0.0
 11
-4.4845099978
 21
6.5621156207
 31
0.0
 11
-4.4869407376
 21
7.3758180692
 31
0.0
  0
SPLINE
  5
579
100
AcDbEntity
  8
RACCORDO
100
AcDbSpline
 62
253
  6
CONTINUOUS
 70
0
 71
3
 72
15
 73
11
 74
9
 42
0.0000001
 43
0.0000001
 44
0.0000000001
 12
0.00000131
 22
0.2954494977
 32
0.0
 13
0.00976487
 23
0.2952880848
 33
0.0
 40
0.0
 40
0.0
 40
0.0
 40
0.0
 40
0.1762543538
 40
0.3472428692
 40
0.5076801248
 40
0.6526883366
 40
0.7778610396
 40
0.8793945376
 40
0.9542028934
 40
1.0
 40
1.0
 40
1.0
 40
1.0
 10
5.5116011676
 20
-6.5896102356
 30
0.0
 10
5.5116012445
 20
-6.5722521488
 30
0.0
 10
5.5116182869
 20
-6.5380545698
 30
0.0
 10
5.5116948113
 20
-6.4880566704
 30
0.0
 10
5.5118200806
 20
-6.4411361079
 30
0.0
 10
5.5119886793
 20
-6.3987277598
 30
0.0
 10
5.5121972046
 20
-6.3621207986
 30
0.0
 10
5.5124297867
 20
-6.3324273566
 30
0.0
 10
5.5126933447
 20
-6.3105523692
 30
0.0
 10
5.512894942
 20
-6.2986756897
 30
0.0
 10
5.5130440096
 20
-6.2941679097
 30
0.0
 11
5.5116011676
 21
-6.5896102356
 31
0.0
 11
5.5116276397
 21
-6.537535982
 31
0.0
 11
5.5117062994
 21
-6.4870175723
 31
0.0
 11
5.5118349742
 21
-6.4396166403
 31
0.0
 11
5.5120096336
 21
-6.396774393
 31
0.0
 11
5.5122250068
 21
-6.3597928079
 31
0.0
 11
5.5124746675
 21
-6.3297958259
 31
0.0
 11
5.5127502742
 21
-6.3076954532
 31
0.0
 11
5.5130440096
 21
-6.2941679097
 31
0.0
  0
SPLINE
  5
57A
100
AcDbEntity
  8
RACCORDO
100
AcDbSpline
 62
253
  6
CONTINUOUS
 70
0
 71
3
 72
9
 73
5
 74
3
 42
0.0000001
 43
0.0000001
 44
0.0000000001
 12
-0.0043781238
 22
-1.6273750623
 32
0.0
 13
-0.006311189
 23
-1.6273687137
 33
0.0
 40
0.0
 40
0.0
 40
0.0
 40
0.0
 40
0.5000088287
 40
1.0
 40
1.0
 40
1.0
 40
1.0
 10
4.229548405
 20
7.3758180692
 30
0.0
 10
4.2288187048
 20
7.1045841029
 30
0.0
 10
4.2271982449
 20
6.5621261702
 30
0.0
 10
4.2252556084
 20
6.0196692956
 30
0.0
 10
4.2242037621
 20
5.7484459658
 30
0.0
 11
4.229548405
 21
7.3758180692
 31
0.0
 11
4.2271176693
 21
6.5621168563
 31
0.0
 11
4.2242037621
 21
5.7484459658
 31
0.0
  0
SPLINE
  5
57B
100
AcDbEntity
  8
RACCORDO
100
AcDbSpline
 62
253
  6
CONTINUOUS
 70
0
 71
3
 72
15
 73
11
 74
9
 42
0.0000001
 43
0.0000001
 44
0.0000000001
 12
0.0097648701
 22
-0.2952880848
 32
0.0
 13
0.00000131
 23
-0.2954494977
 33
0.0
 40
0.0
 40
0.0
 40
0.0
 40
0.0
 40
0.0457971067
 40
0.1206054626
 40
0.2221389606
 40
0.3473116637
 40
0.4923198754
 40
0.652757131
 40
0.8237456464
 40
1.0
 40
1.0
 40
1.0
 40
1.0
 10
5.4295636578
 20
-6.2941679097
 30
0.0
 10
5.4297127254
 20
-6.2986756897
 30
0.0
 10
5.4299143227
 20
-6.3105523692
 30
0.0
 10
5.4301778808
 20
-6.3324273566
 30
0.0
 10
5.4304104628
 20
-6.3621207987
 30
0.0
 10
5.4306189882
 20
-6.3987277599
 30
0.0
 10
5.4307875869
 20
-6.441136108
 30
0.0
 10
5.4309128561
 20
-6.4880566705
 30
0.0
 10
5.4309893805
 20
-6.5380545698
 30
0.0
 10
5.4310064229
 20
-6.5722521489
 30
0.0
 10
5.4310064999
 20
-6.5896102356
 30
0.0
 11
5.4295636578
 21
-6.2941679097
 31
0.0
 11
5.4298573933
 21
-6.3076954532
 31
0.0
 11
5.4301329999
 21
-6.3297958259
 31
0.0
 11
5.4303826606
 21
-6.359792808
 31
0.0
 11
5.4305980338
 21
-6.3967743931
 31
0.0
 11
5.4307726932
 21
-6.4396166404
 31
0.0
 11
5.4309013681
 21
-6.4870175723
 31
0.0
 11
5.4309800277
 21
-6.5375359821
 31
0.0
 11
5.4310064999
 21
-6.5896102356
 31
0.0
  0
SPLINE
  5
57C
100
AcDbEntity
  8
RACCORDO
100
AcDbSpline
 62
253
  6
CONTINUOUS
 70
0
 71
3
 72
16
 73
12
 74
10
 42
0.0000001
 43
0.0000001
 44
0.0000000001
 12
0.0000012478
 22
0.2999696776
 32
0.0
 13
0.0949852704
 23
0.2845340153
 33
0.0
 40
0.0
 40
0.0
 40
0.0
 40
0.0
 40
0.1716903986
 40
0.3383600475
 40
0.4949773352
 40
0.6368827949
 40
0.7598615728
 40
0.8602569174
 40
0.9350874649
 40
0.9821296043
 40
1.0
 40
1.0
 40
1.0
 40
1.0
 10
5.5709664757
 20
-4.862382265
 30
0.0
 10
5.5709665471
 20
-4.8452149605
 30
0.0
 10
5.5709827764
 20
-4.8113822727
 30
0.0
 10
5.5710596333
 20
-4.7618900224
 30
0.0
 10
5.5711758128
 20
-4.7153741969
 30
0.0
 10
5.5713617476
 20
-4.6732332202
 30
0.0
 10
5.5715040761
 20
-4.6366956861
 30
0.0
 10
5.5719042589
 20
-4.606917019
 30
0.0
 10
5.5717527048
 20
-4.5846028566
 30
0.0
 10
5.5727519436
 20
-4.5708020499
 30
0.0
 10
5.5721163093
 20
-4.5641226394
 30
0.0
 10
5.5726821175
 20
-4.5624277276
 30
0.0
 11
5.5709664757
 21
-4.862382265
 31
0.0
 11
5.5709923659
 21
-4.810880358
 31
0.0
 11
5.5710693117
 21
-4.7608845764
 31
0.0
 11
5.5711952123
 21
-4.7139043078
 31
0.0
 11
5.5713661828
 21
-4.6713373161
 31
0.0
 11
5.5715773541
 21
-4.6344480162
 31
0.0
 11
5.571822153
 21
-4.604333452
 31
0.0
 11
5.5720936276
 21
-4.5818881985
 31
0.0
 11
5.5723829358
 21
-4.5677799491
 31
0.0
 11
5.5726821175
 21
-4.5624277276
 31
0.0
  0
SPLINE
  5
57D
100
AcDbEntity
  8
RACCORDO
100
AcDbSpline
 62
253
  6
CONTINUOUS
 70
0
 71
3
 72
16
 73
12
 74
10
 42
0.0000001
 43
0.0000001
 44
0.0000000001
 12
0.0949852718
 22
-0.2845340149
 32
0.0
 13
0.0000012478
 23
-0.2999696776
 33
0.0
 40
0.0
 40
0.0
 40
0.0
 40
0.0
 40
0.0178703958
 40
0.0649125353
 40
0.1397430829
 40
0.2401384275
 40
0.3631172055
 40
0.5050226653
 40
0.661639953
 40
0.8283096018
 40
1.0
 40
1.0
 40
1.0
 40
1.0
 10
5.36992555
 20
-4.5624277276
 30
0.0
 10
5.3704913581
 20
-4.5641226395
 30
0.0
 10
5.3698557238
 20
-4.57080205
 30
0.0
 10
5.3708549626
 20
-4.5846028567
 30
0.0
 10
5.3707034085
 20
-4.6069170191
 30
0.0
 10
5.3711035914
 20
-4.6366956862
 30
0.0
 10
5.3712459198
 20
-4.6732332203
 30
0.0
 10
5.3714318546
 20
-4.7153741971
 30
0.0
 10
5.3715480342
 20
-4.7618900225
 30
0.0
 10
5.371624891
 20
-4.8113822728
 30
0.0
 10
5.3716411203
 20
-4.8452149606
 30
0.0
 10
5.3716411917
 20
-4.862382265
 30
0.0
 11
5.36992555
 21
-4.5624277276
 31
0.0
 11
5.3702247316
 21
-4.5677799491
 31
0.0
 11
5.3705140399
 21
-4.5818881985
 31
0.0
 11
5.3707855144
 21
-4.6043334521
 31
0.0
 11
5.3710303133
 21
-4.6344480163
 31
0.0
 11
5.3712414846
 21
-4.6713373162
 31
0.0
 11
5.3714124552
 21
-4.7139043079
 31
0.0
 11
5.3715383557
 21
-4.7608845765
 31
0.0
 11
5.3716153016
 21
-4.8108803581
 31
0.0
 11
5.3716411917
 21
-4.862382265
 31
0.0
  0
SPLINE
  5
57E
100
AcDbEntity
  8
RACCORDO
100
AcDbSpline
 62
253
  6
CONTINUOUS
 70
0
 71
3
 72
15
 73
11
 74
9
 42
0.0000001
 43
0.0000001
 44
0.0000000001
 12
0.00000131
 22
0.2954494977
 32
0.0
 13
0.00976487
 23
0.2952880848
 33
0.0
 40
0.0
 40
0.0
 40
0.0
 40
0.0
 40
0.1762543538
 40
0.3472428692
 40
0.5076801248
 40
0.6526883366
 40
0.7778610396
 40
0.8793945376
 40
0.9542028934
 40
1.0
 40
1.0
 40
1.0
 40
1.0
 10
-5.6883988324
 20
-6.5896102356
 30
0.0
 10
-5.6883987555
 20
-6.5722521488
 30
0.0
 10
-5.6883817131
 20
-6.5380545698
 30
0.0
 10
-5.6883051887
 20
-6.4880566704
 30
0.0
 10
-5.6881799194
 20
-6.4411361079
 30
0.0
 10
-5.6880113207
 20
-6.3987277598
 30
0.0
 10
-5.6878027954
 20
-6.3621207986
 30
0.0
 10
-5.6875702133
 20
-6.3324273566
 30
0.0
 10
-5.6873066553
 20
-6.3105523692
 30
0.0
 10
-5.687105058
 20
-6.2986756897
 30
0.0
 10
-5.6869559904
 20
-6.2941679097
 30
0.0
 11
-5.6883988324
 21
-6.5896102356
 31
0.0
 11
-5.6883723603
 21
-6.537535982
 31
0.0
 11
-5.6882937006
 21
-6.4870175723
 31
0.0
 11
-5.6881650258
 21
-6.4396166403
 31
0.0
 11
-5.6879903664
 21
-6.396774393
 31
0.0
 11
-5.6877749932
 21
-6.3597928079
 31
0.0
 11
-5.6875253325
 21
-6.3297958259
 31
0.0
 11
-5.6872497258
 21
-6.3076954532
 31
0.0
 11
-5.6869559904
 21
-6.2941679097
 31
0.0
  0
SPLINE
  5
57F
100
AcDbEntity
  8
RACCORDO
100
AcDbSpline
 62
253
  6
CONTINUOUS
 70
0
 71
3
 72
15
 73
11
 74
9
 42
0.0000001
 43
0.0000001
 44
0.0000000001
 12
0.0097648701
 22
-0.2952880848
 32
0.0
 13
0.00000131
 23
-0.2954494977
 33
0.0
 40
0.0
 40
0.0
 40
0.0
 40
0.0
 40
0.0457971067
 40
0.1206054626
 40
0.2221389606
 40
0.3473116637
 40
0.4923198754
 40
0.652757131
 40
0.8237456464
 40
1.0
 40
1.0
 40
1.0
 40
1.0
 10
-5.7704363422
 20
-6.2941679097
 30
0.0
 10
-5.7702872746
 20
-6.2986756897
 30
0.0
 10
-5.7700856773
 20
-6.3105523692
 30
0.0
 10
-5.7698221192
 20
-6.3324273566
 30
0.0
 10
-5.7695895372
 20
-6.3621207987
 30
0.0
 10
-5.7693810118
 20
-6.3987277599
 30
0.0
 10
-5.7692124131
 20
-6.441136108
 30
0.0
 10
-5.7690871439
 20
-6.4880566705
 30
0.0
 10
-5.7690106195
 20
-6.5380545698
 30
0.0
 10
-5.7689935771
 20
-6.5722521489
 30
0.0
 10
-5.7689935001
 20
-6.5896102356
 30
0.0
 11
-5.7704363422
 21
-6.2941679097
 31
0.0
 11
-5.7701426067
 21
-6.3076954532
 31
0.0
 11
-5.7698670001
 21
-6.3297958259
 31
0.0
 11
-5.7696173394
 21
-6.359792808
 31
0.0
 11
-5.7694019662
 21
-6.3967743931
 31
0.0
 11
-5.7692273068
 21
-6.4396166404
 31
0.0
 11
-5.7690986319
 21
-6.4870175723
 31
0.0
 11
-5.7690199723
 21
-6.5375359821
 31
0.0
 11
-5.7689935001
 21
-6.5896102356
 31
0.0
  0
SPLINE
  5
580
100
AcDbEntity
  8
RACCORDO
100
AcDbSpline
 62
253
  6
CONTINUOUS
 70
0
 71
3
 72
9
 73
5
 74
3
 42
0.0000001
 43
0.0000001
 44
0.0000000001
 12
-0.002969815
 22
-6.0152618038
 32
0.0
 13
-0.004238536
 23
-6.0152610437
 33
0.0
 40
0.0
 40
0.0
 40
0.0
 40
0.0
 40
0.5000541149
 40
1.0
 40
1.0
 40
1.0
 40
1.0
 10
-9.7623254242
 20
-3.038124479
 30
0.0
 10
-9.762820447
 20
-4.0407766181
 30
0.0
 10
-9.7639160668
 20
-6.0458638352
 30
0.0
 10
-9.7652231126
 20
-8.0509509257
 30
0.0
 10
-9.7659294588
 20
-9.053385928
 30
0.0
 11
-9.7623254242
 21
-3.038124479
 31
0.0
 11
-9.7639690533
 21
-6.0460808136
 31
0.0
 11
-9.7659294588
 21
-9.053385928
 31
0.0
  0
SPLINE
  5
581
100
AcDbEntity
  8
RACCORDO
100
AcDbSpline
 62
253
  6
CONTINUOUS
 70
0
 71
3
 72
16
 73
12
 74
10
 42
0.0000001
 43
0.0000001
 44
0.0000000001
 12
0.0000012478
 22
0.2999696776
 32
0.0
 13
0.0949852704
 23
0.2845340153
 33
0.0
 40
0.0
 40
0.0
 40
0.0
 40
0.0
 40
0.1716903986
 40
0.3383600475
 40
0.4949773352
 40
0.6368827949
 40
0.7598615728
 40
0.8602569174
 40
0.9350874649
 40
0.9821296043
 40
1.0
 40
1.0
 40
1.0
 40
1.0
 10
-5.6290335243
 20
-4.862382265
 30
0.0
 10
-5.6290334529
 20
-4.8452149605
 30
0.0
 10
-5.6290172236
 20
-4.8113822727
 30
0.0
 10
-5.6289403667
 20
-4.7618900224
 30
0.0
 10
-5.6288241872
 20
-4.7153741969
 30
0.0
 10
-5.6286382524
 20
-4.6732332202
 30
0.0
 10
-5.6284959239
 20
-4.6366956861
 30
0.0
 10
-5.6280957411
 20
-4.606917019
 30
0.0
 10
-5.6282472952
 20
-4.5846028566
 30
0.0
 10
-5.6272480564
 20
-4.5708020499
 30
0.0
 10
-5.6278836907
 20
-4.5641226394
 30
0.0
 10
-5.6273178825
 20
-4.5624277276
 30
0.0
 11
-5.6290335243
 21
-4.862382265
 31
0.0
 11
-5.6290076341
 21
-4.810880358
 31
0.0
 11
-5.6289306883
 21
-4.7608845764
 31
0.0
 11
-5.6288047877
 21
-4.7139043078
 31
0.0
 11
-5.6286338172
 21
-4.6713373161
 31
0.0
 11
-5.6284226459
 21
-4.6344480162
 31
0.0
 11
-5.628177847
 21
-4.604333452
 31
0.0
 11
-5.6279063724
 21
-4.5818881985
 31
0.0
 11
-5.6276170642
 21
-4.5677799491
 31
0.0
 11
-5.6273178825
 21
-4.5624277276
 31
0.0
  0
SPLINE
  5
582
100
AcDbEntity
  8
RACCORDO
100
AcDbSpline
 62
253
  6
CONTINUOUS
 70
0
 71
3
 72
9
 73
5
 74
3
 42
0.0000001
 43
0.0000001
 44
0.0000000001
 12
-0.0004133782
 22
-8.9856422609
 32
0.0
 13
-0.0032401193
 23
-8.9856416862
 33
0.0
 40
0.0
 40
0.0
 40
0.0
 40
0.0
 40
0.5000412892
 40
1.0
 40
1.0
 40
1.0
 40
1.0
 10
-9.7588756739
 20
9.7475175779
 30
0.0
 10
-9.7589445759
 20
8.2497868644
 30
0.0
 10
-9.7593178895
 20
5.2545727836
 30
0.0
 10
-9.7601622987
 20
2.2593587986
 30
0.0
 10
-9.760702274
 20
0.761875521
 30
0.0
 11
-9.7588756739
 21
9.7475175779
 31
0.0
 11
-9.7594357137
 21
5.2543254674
 31
0.0
 11
-9.760702274
 21
0.761875521
 31
0.0
  0
SPLINE
  5
583
100
AcDbEntity
  8
RACCORDO
100
AcDbSpline
 62
253
  6
CONTINUOUS
 70
0
 71
3
 72
16
 73
12
 74
10
 42
0.0000001
 43
0.0000001
 44
0.0000000001
 12
0.0949852718
 22
-0.2845340149
 32
0.0
 13
0.0000012478
 23
-0.2999696776
 33
0.0
 40
0.0
 40
0.0
 40
0.0
 40
0.0
 40
0.0178703958
 40
0.0649125353
 40
0.1397430829
 40
0.2401384275
 40
0.3631172055
 40
0.5050226653
 40
0.661639953
 40
0.8283096018
 40
1.0
 40
1.0
 40
1.0
 40
1.0
 10
-5.83007445
 20
-4.5624277276
 30
0.0
 10
-5.8295086419
 20
-4.5641226395
 30
0.0
 10
-5.8301442762
 20
-4.57080205
 30
0.0
 10
-5.8291450374
 20
-4.5846028567
 30
0.0
 10
-5.8292965915
 20
-4.6069170191
 30
0.0
 10
-5.8288964086
 20
-4.6366956862
 30
0.0
 10
-5.8287540802
 20
-4.6732332203
 30
0.0
 10
-5.8285681454
 20
-4.7153741971
 30
0.0
 10
-5.8284519658
 20
-4.7618900225
 30
0.0
 10
-5.828375109
 20
-4.8113822728
 30
0.0
 10
-5.8283588797
 20
-4.8452149606
 30
0.0
 10
-5.8283588083
 20
-4.862382265
 30
0.0
 11
-5.83007445
 21
-4.5624277276
 31
0.0
 11
-5.8297752684
 21
-4.5677799491
 31
0.0
 11
-5.8294859601
 21
-4.5818881985
 31
0.0
 11
-5.8292144856
 21
-4.6043334521
 31
0.0
 11
-5.8289696867
 21
-4.6344480163
 31
0.0
 11
-5.8287585154
 21
-4.6713373162
 31
0.0
 11
-5.8285875448
 21
-4.7139043079
 31
0.0
 11
-5.8284616443
 21
-4.7608845765
 31
0.0
 11
-5.8283846984
 21
-4.8108803581
 31
0.0
 11
-5.8283588083
 21
-4.862382265
 31
0.0
  0
SPLINE
  5
584
100
AcDbEntity
  8
RACCORDO
100
AcDbSpline
 62
253
  6
CONTINUOUS
 70
0
 71
3
 72
9
 73
5
 74
3
 42
0.0000001
 43
0.0000001
 44
0.0000000001
 12
-0.0043623264
 22
-1.6181841037
 32
0.0
 13
-0.0062751532
 23
-1.6181778165
 33
0.0
 40
0.0
 40
0.0
 40
0.0
 40
0.0
 40
0.5000111748
 40
1.0
 40
1.0
 40
1.0
 40
1.0
 10
4.0415935275
 20
7.3712212574
 30
0.0
 10
4.0408664568
 20
7.1015178791
 30
0.0
 10
4.0392529283
 20
6.5621235959
 30
0.0
 10
4.0373206287
 20
6.0227303604
 30
0.0
 10
4.0362747932
 20
5.7530400853
 30
0.0
 11
4.0415935275
 21
7.3712212574
 31
0.0
 11
4.0391731959
 21
6.5621118026
 31
0.0
 11
4.0362747932
 21
5.7530400853
 31
0.0
  0
SPLINE
  5
585
100
AcDbEntity
  8
RACCORDO
100
AcDbSpline
 62
253
  6
CONTINUOUS
 70
0
 71
3
 72
9
 73
5
 74
3
 42
0.0000001
 43
0.0000001
 44
0.0000000001
 12
-0.0062751532
 22
1.6181778165
 32
0.0
 13
-0.0043623264
 23
1.6181841037
 33
0.0
 40
0.0
 40
0.0
 40
0.0
 40
0.0
 40
0.4999892045
 40
1.0
 40
1.0
 40
1.0
 40
1.0
 10
-4.2936671257
 20
5.7530400853
 30
0.0
 10
-4.294712962
 20
6.0227305651
 30
0.0
 10
-4.2966452615
 20
6.5621238005
 30
0.0
 10
-4.2982587899
 20
7.1015180838
 30
0.0
 10
-4.29898586
 20
7.3712212574
 30
0.0
 11
-4.2936671257
 21
5.7530400853
 31
0.0
 11
-4.2965655305
 21
6.5621124165
 31
0.0
 11
-4.29898586
 21
7.3712212574
 31
0.0
  0
SPLINE
  5
586
100
AcDbEntity
  8
RACCORDO
100
AcDbSpline
 62
253
  6
CONTINUOUS
 70
0
 71
3
 72
9
 73
5
 74
3
 42
0.0000001
 43
0.0000001
 44
0.0000000001
 12
-0.0032401193
 22
8.9856416862
 32
0.0
 13
-0.0004133782
 23
8.9856422609
 33
0.0
 40
0.0
 40
0.0
 40
0.0
 40
0.0
 40
0.4999587091
 40
1.0
 40
1.0
 40
1.0
 40
1.0
 10
9.5033099414
 20
0.761875521
 30
0.0
 10
9.5027699661
 20
2.2593587937
 30
0.0
 10
9.501925557
 20
5.2545727787
 30
0.0
 10
9.5015522434
 20
8.2497868594
 30
0.0
 10
9.5014833413
 20
9.7475175779
 30
0.0
 11
9.5033099414
 21
0.761875521
 31
0.0
 11
9.5020433811
 21
5.2543254526
 31
0.0
 11
9.5014833413
 21
9.7475175779
 31
0.0
  0
SPLINE
  5
587
100
AcDbEntity
  8
RACCORDO
100
AcDbSpline
 62
253
  6
CONTINUOUS
 70
0
 71
3
 72
9
 73
5
 74
3
 42
0.0000001
 43
0.0000001
 44
0.0000000001
 12
-0.004238536
 22
6.0152610437
 32
0.0
 13
-0.002969815
 23
6.0152618038
 33
0.0
 40
0.0
 40
0.0
 40
0.0
 40
0.0
 40
0.4999458851
 40
1.0
 40
1.0
 40
1.0
 40
1.0
 10
9.5085371262
 20
-9.053385928
 30
0.0
 10
9.50783078
 20
-8.0509509257
 30
0.0
 10
9.5065237342
 20
-6.0458638352
 30
0.0
 10
9.5054281144
 20
-4.0407766181
 30
0.0
 10
9.5049330917
 20
-3.038124479
 30
0.0
 11
9.5085371262
 21
-9.053385928
 31
0.0
 11
9.5065767207
 21
-6.0460808136
 31
0.0
 11
9.5049330917
 21
-3.038124479
 31
0.0
  0
SPLINE
  5
588
100
AcDbEntity
  8
RACCORDO
100
AcDbSpline
 62
253
  6
CONTINUOUS
 70
0
 71
3
 72
15
 73
11
 74
9
 42
0.0000001
 43
0.0000001
 44
0.0000000001
 12
0.4014143357
 22
-0.0070088487
 32
0.0
 13
0.0139942489
 23
-0.4012315464
 33
0.0
 40
0.0
 40
0.0
 40
0.0
 40
0.0
 40
0.1440044844
 40
0.2856956272
 40
0.4226390599
 40
0.5528844372
 40
0.67524257
 40
0.7895686166
 40
0.89699843
 40
1.0
 40
1.0
 40
1.0
 40
1.0
 10
7.0747276483
 20
7.1083221304
 30
0.0
 10
7.0939961364
 20
7.1079856951
 30
0.0
 10
7.1322302907
 20
7.1047164219
 30
0.0
 10
7.1875645458
 20
7.0921770575
 30
0.0
 10
7.2388262725
 20
7.0724500005
 30
0.0
 10
7.2841505985
 20
7.0462127647
 30
0.0
 10
7.3218917064
 20
7.014348381
 30
0.0
 10
7.3506217701
 20
6.9778905792
 30
0.0
 10
7.3691279643
 20
6.9381012363
 30
0.0
 10
7.3740644198
 20
6.9099659224
 30
0.0
 10
7.3745448964
 20
6.896190096
 30
0.0
 11
7.0747276483
 21
7.1083221304
 31
0.0
 11
7.1323291865
 21
7.1033670109
 31
0.0
 11
7.1877859281
 21
7.0906976466
 31
0.0
 11
7.2390329378
 21
7.070785782
 31
0.0
 11
7.2841620303
 21
7.0443728367
 31
0.0
 11
7.321492821
 21
7.0124422981
 31
0.0
 11
7.3496352959
 21
6.9761831019
 31
0.0
 11
7.367541568
 21
6.9369453613
 31
0.0
 11
7.3745448964
 21
6.896190096
 31
0.0
  0
SPLINE
  5
589
100
AcDbEntity
  8
RACCORDO
100
AcDbSpline
 62
253
  6
CONTINUOUS
 70
0
 71
3
 72
15
 73
11
 74
9
 42
0.0000001
 43
0.0000001
 44
0.0000000001
 12
0.4014143351
 22
-0.007008849
 32
0.0
 13
0.0139942489
 23
-0.4012315459
 33
0.0
 40
0.0
 40
0.0
 40
0.0
 40
0.0
 40
0.1440042721
 40
0.2856952433
 40
0.4226385679
 40
0.5528839124
 40
0.6752420872
 40
0.7895682409
 40
0.8969982159
 40
1.0
 40
1.0
 40
1.0
 40
1.0
 10
7.0959282842
 20
7.7154289115
 30
0.0
 10
7.1151967439
 20
7.7150924768
 30
0.0
 10
7.1534308467
 20
7.7118232117
 30
0.0
 10
7.2087650405
 20
7.6992838783
 30
0.0
 10
7.2600267369
 20
7.6795568611
 30
0.0
 10
7.3053510679
 20
7.6533196615
 30
0.0
 10
7.3430922123
 20
7.6214552973
 30
0.0
 10
7.371822332
 20
7.5849974862
 30
0.0
 10
7.3903285819
 20
7.5452080964
 30
0.0
 10
7.3952650548
 20
7.5170727322
 30
0.0
 10
7.3957455323
 20
7.5032968772
 30
0.0
 11
7.0959282842
 21
7.7154289115
 31
0.0
 11
7.153529738
 21
7.7104738052
 31
0.0
 11
7.2089864161
 21
7.6978044729
 31
0.0
 11
7.260233395
 21
7.6778926491
 31
0.0
 11
7.3053624934
 21
7.6514797401
 31
0.0
 11
7.342693322
 21
7.6195492199
 31
0.0
 11
7.3708358528
 21
7.5832900127
 31
0.0
 11
7.3887421782
 21
7.5440522252
 31
0.0
 11
7.3957455323
 21
7.5032968772
 31
0.0
  0
SPLINE
  5
58A
100
AcDbEntity
  8
RACCORDO
100
AcDbSpline
 62
7
  6
CONTINUOUS
 70
0
 71
3
 72
15
 73
11
 74
9
 42
0.0000001
 43
0.0000001
 44
0.0000000001
 12
0.0895635424
 22
-0.1791816741
 32
0.0
 13
0.2003189968
 23
0.0
 33
0.0
 40
0.0
 40
0.0
 40
0.0
 40
0.0
 40
0.0228702366
 40
0.0820374114
 40
0.1750076777
 40
0.3001514248
 40
0.4519007439
 40
0.6225386226
 40
0.8086061726
 40
1.0
 40
1.0
 40
1.0
 40
1.0
 10
-9.9588449221
 20
9.7543792354
 30
0.0
 10
-9.9581621423
 20
9.7530132596
 30
0.0
 10
-9.9512356384
 20
9.7532358791
 30
0.0
 10
-9.9409275078
 20
9.7511002901
 30
0.0
 10
-9.9217393794
 20
9.7505546297
 30
0.0
 10
-9.89735403
 20
9.7493393558
 30
0.0
 10
-9.8673765332
 20
9.7486049477
 30
0.0
 10
-9.8334646296
 20
9.7479689471
 30
0.0
 10
-9.7968574628
 20
9.747603098
 30
0.0
 10
-9.7716556137
 20
9.7475175779
 30
0.0
 10
-9.7588756739
 20
9.7475175779
 30
0.0
 11
-9.9588449221
 21
9.7543792354
 31
0.0
 11
-9.9544629989
 21
9.7530422793
 31
0.0
 11
-9.9426815375
 21
9.7517482942
 31
0.0
 11
-9.9240954107
 21
9.75056572
 31
0.0
 11
-9.8990485694
 21
9.7495197992
 31
0.0
 11
-9.8686623522
 21
9.7486638139
 31
0.0
 11
-9.834486112
 21
9.7480358663
 31
0.0
 11
-9.7972152746
 21
9.7476470949
 31
0.0
 11
-9.7588756739
 21
9.7475175779
 31
0.0
  0
SPLINE
  5
58B
100
AcDbEntity
  8
RACCORDO
100
AcDbSpline
 62
7
  6
CONTINUOUS
 70
0
 71
3
 72
15
 73
11
 74
9
 42
0.0000001
 43
0.0000001
 44
0.0000000001
 12
0.2003189965
 22
-0.0
 32
0.0
 13
0.0895635422
 23
0.1791816739
 33
0.0
 40
0.0
 40
0.0
 40
0.0
 40
0.0
 40
0.1913938261
 40
0.3774613764
 40
0.5480992554
 40
0.6998485747
 40
0.824992322
 40
0.9179625885
 40
0.9771297633
 40
1.0
 40
1.0
 40
1.0
 40
1.0
 10
9.5014833416
 20
9.7475175779
 30
0.0
 10
9.5142632813
 20
9.7475175779
 30
0.0
 10
9.5394651304
 20
9.747603098
 30
0.0
 10
9.5760722971
 20
9.7479689471
 30
0.0
 10
9.6099842007
 20
9.7486049477
 30
0.0
 10
9.6399616974
 20
9.7493393558
 30
0.0
 10
9.6643470468
 20
9.7505546297
 30
0.0
 10
9.6835351752
 20
9.7511002901
 30
0.0
 10
9.6938433058
 20
9.7532358791
 30
0.0
 10
9.7007698097
 20
9.7530132596
 30
0.0
 10
9.7014525895
 20
9.7543792354
 30
0.0
 11
9.5014833416
 21
9.7475175779
 31
0.0
 11
9.539822942
 21
9.7476470949
 31
0.0
 11
9.5770937794
 21
9.7480358663
 31
0.0
 11
9.6112700197
 21
9.7486638139
 31
0.0
 11
9.6416562368
 21
9.7495197992
 31
0.0
 11
9.6667030781
 21
9.75056572
 31
0.0
 11
9.6852892049
 21
9.7517482942
 31
0.0
 11
9.6970706663
 21
9.7530422793
 31
0.0
 11
9.7014525895
 21
9.7543792354
 31
0.0
  0
SPLINE
  5
58C
100
AcDbEntity
  8
RACCORDO
100
AcDbSpline
 62
253
  6
CONTINUOUS
 70
0
 71
3
 72
17
 73
13
 74
11
 42
0.0000001
 43
0.0000001
 44
0.0000000001
 12
-0.1414238943
 22
0.1417076164
 32
0.0
 13
-0.0000004892
 23
0.2002043117
 33
0.0
 40
0.0
 40
0.0
 40
0.0
 40
0.0
 40
0.0178774913
 40
0.058389992
 40
0.1209323587
 40
0.2041033138
 40
0.3059766177
 40
0.4241622179
 40
0.5558804402
 40
0.698040467
 40
0.8472808104
 40
1.0
 40
1.0
 40
1.0
 40
1.0
 10
-6.9207603045
 20
5.2037569073
 30
0.0
 10
-6.9216030726
 20
5.2046013662
 30
0.0
 10
-6.9219185294
 20
5.2088948632
 30
0.0
 10
-6.9231992546
 20
5.2165425523
 30
0.0
 10
-6.92391993
 20
5.2291298114
 30
0.0
 10
-6.9248600949
 20
5.2455519792
 30
0.0
 10
-6.9256065121
 20
5.2658022109
 30
0.0
 10
-6.9262810421
 20
5.2892592324
 30
0.0
 10
-6.9268139774
 20
5.315421296
 30
0.0
 10
-6.9272077735
 20
5.3436545457
 30
0.0
 10
-6.9274471944
 20
5.3732922114
 30
0.0
 10
-6.92750069
 20
5.3934433926
 30
0.0
 10
-6.9275007149
 20
5.4036350727
 30
0.0
 11
-6.9207603045
 21
5.2037569073
 31
0.0
 11
-6.9218246382
 21
5.2071741451
 31
0.0
 11
-6.9228589172
 21
5.215218707
 31
0.0
 11
-6.923838151
 21
5.2277016089
 31
0.0
 11
-6.9247391422
 21
5.2443283986
 31
0.0
 11
-6.9255407
 21
5.2647081163
 31
0.0
 11
-6.9262238949
 21
5.2883595177
 31
0.0
 11
-6.9267726322
 21
5.3147243639
 31
0.0
 11
-6.9271740247
 21
5.3431825836
 31
0.0
 11
-6.9274186229
 21
5.3730601427
 31
0.0
 11
-6.9275007149
 21
5.4036350727
 31
0.0
  0
SPLINE
  5
58D
100
AcDbEntity
  8
RACCORDO
100
AcDbSpline
 62
253
  6
CONTINUOUS
 70
0
 71
3
 72
13
 73
9
 74
7
 42
0.0000001
 43
0.0000001
 44
0.0000000001
 12
0.0000002346
 22
0.141442405
 32
0.0
 13
0.0049357932
 23
0.1413562587
 33
0.0
 40
0.0
 40
0.0
 40
0.0
 40
0.0
 40
0.1844732589
 40
0.3659045925
 40
0.541117895
 40
0.7070849145
 40
0.8609356791
 40
1.0
 40
1.0
 40
1.0
 40
1.0
 10
-6.9275007149
 20
6.7547687398
 30
0.0
 10
-6.9275007005
 20
6.7634661869
 30
0.0
 10
-6.927461594
 20
6.7807176887
 30
0.0
 10
-6.9272859809
 20
6.8062295137
 30
0.0
 10
-6.9269967044
 20
6.8308677363
 30
0.0
 10
-6.9265990303
 20
6.8542039379
 30
0.0
 10
-6.9261003885
 20
6.8758334544
 30
0.0
 10
-6.9256839012
 20
6.8896375586
 30
0.0
 10
-6.9254551036
 20
6.896190096
 30
0.0
 11
-6.9275007149
 21
6.7547687398
 31
0.0
 11
-6.9274410257
 21
6.7808610129
 31
0.0
 11
-6.9272628284
 21
6.8065224784
 31
0.0
 11
-6.9269691082
 21
6.8313033286
 31
0.0
 11
-6.9265648959
 21
6.8547746227
 31
0.0
 11
-6.9260572318
 21
6.8765297224
 31
0.0
 11
-6.9254551036
 21
6.896190096
 31
0.0
  0
SPLINE
  5
58E
100
AcDbEntity
  8
RACCORDO
100
AcDbSpline
 62
253
  6
CONTINUOUS
 70
0
 71
3
 72
13
 73
9
 74
7
 42
0.0000001
 43
0.0000001
 44
0.0000000001
 12
0.0197318509
 22
0.5654254321
 32
0.0
 13
0.0000091903
 23
0.565769622
 33
0.0
 40
0.0
 40
0.0
 40
0.0
 40
0.0
 40
0.1361522584
 40
0.2904133641
 40
0.4589859497
 40
0.637088475
 40
0.8192974361
 40
1.0
 40
1.0
 40
1.0
 40
1.0
 10
-6.9042544677
 20
7.5032968772
 30
0.0
 10
-6.9033589556
 20
7.5289581937
 30
0.0
 10
-6.9017012283
 20
7.5837028075
 30
0.0
 10
-6.8996968997
 20
7.6702402581
 30
0.0
 10
-6.8980836745
 20
7.7646985112
 30
0.0
 10
-6.8969174949
 20
7.864434309
 30
0.0
 10
-6.8962238555
 20
7.9664620901
 30
0.0
 10
-6.896072576
 20
8.0349036284
 30
0.0
 10
-6.8960720224
 20
8.0689823021
 30
0.0
 11
-6.9042544677
 21
7.5032968772
 31
0.0
 11
-6.9018902135
 21
7.5802913982
 31
0.0
 11
-6.8998439017
 21
7.6675436531
 31
0.0
 11
-6.8981975997
 21
7.7629026911
 31
0.0
 11
-6.8970077958
 21
7.8636606649
 31
0.0
 11
-6.8963010804
 21
7.9667465375
 31
0.0
 11
-6.8960720224
 21
8.0689823021
 31
0.0
  0
SPLINE
  5
58F
100
AcDbEntity
  8
RACCORDO
100
AcDbSpline
 62
253
  6
CONTINUOUS
 70
0
 71
3
 72
13
 73
9
 74
7
 42
0.0000001
 43
0.0000001
 44
0.0000000001
 12
0.0000092097
 22
-0.565769622
 32
0.0
 13
0.0197318825
 23
-0.565425431
 33
0.0
 40
0.0
 40
0.0
 40
0.0
 40
0.0
 40
0.1807025814
 40
0.3629115369
 40
0.5410140573
 40
0.709586639
 40
0.8638477379
 40
1.0
 40
1.0
 40
1.0
 40
1.0
 10
-7.6613203102
 20
8.0689823021
 30
0.0
 10
-7.6613197554
 20
8.0349036251
 30
0.0
 10
-7.6611684777
 20
7.9664620845
 30
0.0
 10
-7.6604748374
 20
7.8644343021
 30
0.0
 10
-7.6593086579
 20
7.7646985071
 30
0.0
 10
-7.6576954332
 20
7.6702402569
 30
0.0
 10
-7.6556911034
 20
7.5837028076
 30
0.0
 10
-7.6540333784
 20
7.5289581943
 30
0.0
 10
-7.6531378649
 20
7.5032968772
 30
0.0
 11
-7.6613203102
 21
8.0689823021
 31
0.0
 11
-7.6610912522
 21
7.9667465275
 31
0.0
 11
-7.6603845367
 21
7.8636606581
 31
0.0
 11
-7.6591947328
 21
7.7629026872
 31
0.0
 11
-7.6575484309
 21
7.6675436513
 31
0.0
 11
-7.655502119
 21
7.5802914003
 31
0.0
 11
-7.6531378649
 21
7.5032968772
 31
0.0
  0
SPLINE
  5
590
100
AcDbEntity
  8
RACCORDO
100
AcDbSpline
 62
253
  6
CONTINUOUS
 70
0
 71
3
 72
13
 73
9
 74
7
 42
0.0000001
 43
0.0000001
 44
0.0000000001
 12
0.0049357932
 22
-0.1413562587
 32
0.0
 13
0.0000002346
 23
-0.141442405
 33
0.0
 40
0.0
 40
0.0
 40
0.0
 40
0.0
 40
0.1390643219
 40
0.2929150865
 40
0.4588821061
 40
0.6340954086
 40
0.8155267422
 40
1.0
 40
1.0
 40
1.0
 40
1.0
 10
-7.6319372289
 20
6.896190096
 30
0.0
 10
-7.6317084314
 20
6.8896375586
 30
0.0
 10
-7.631291944
 20
6.8758334543
 30
0.0
 10
-7.6307933023
 20
6.8542039378
 30
0.0
 10
-7.6303956281
 20
6.8308677361
 30
0.0
 10
-7.6301063517
 20
6.8062295135
 30
0.0
 10
-7.6299307385
 20
6.7807176885
 30
0.0
 10
-7.629891632
 20
6.7634661868
 30
0.0
 10
-7.6298916176
 20
6.7547687398
 30
0.0
 11
-7.6319372289
 21
6.896190096
 31
0.0
 11
-7.6313351008
 21
6.8765297222
 31
0.0
 11
-7.6308274367
 21
6.8547746225
 31
0.0
 11
-7.6304232243
 21
6.8313033285
 31
0.0
 11
-7.6301295042
 21
6.8065224782
 31
0.0
 11
-7.6299513069
 21
6.7808610127
 31
0.0
 11
-7.6298916176
 21
6.7547687398
 31
0.0
  0
SPLINE
  5
591
100
AcDbEntity
  8
RACCORDO
100
AcDbSpline
 62
253
  6
CONTINUOUS
 70
0
 71
3
 72
17
 73
13
 74
11
 42
0.0000001
 43
0.0000001
 44
0.0000000001
 12
-0.0000004892
 22
-0.2002043117
 32
0.0
 13
-0.1414238981
 23
-0.1417076126
 33
0.0
 40
0.0
 40
0.0
 40
0.0
 40
0.0
 40
0.1527191901
 40
0.3019595335
 40
0.4441195603
 40
0.5758377826
 40
0.6940233827
 40
0.7958966866
 40
0.8790676415
 40
0.9416100082
 40
0.9821225088
 40
1.0
 40
1.0
 40
1.0
 40
1.0
 10
-7.6298916176
 20
5.4036350727
 30
0.0
 10
-7.6298916425
 20
5.3934433926
 30
0.0
 10
-7.6299451382
 20
5.3732922113
 30
0.0
 10
-7.6301845591
 20
5.3436545456
 30
0.0
 10
-7.6305783552
 20
5.3154212959
 30
0.0
 10
-7.6311112904
 20
5.2892592323
 30
0.0
 10
-7.6317858205
 20
5.2658022108
 30
0.0
 10
-7.6325322376
 20
5.2455519792
 30
0.0
 10
-7.6334724026
 20
5.2291298114
 30
0.0
 10
-7.6341930779
 20
5.2165425522
 30
0.0
 10
-7.6354738032
 20
5.2088948632
 30
0.0
 10
-7.6357892599
 20
5.2046013661
 30
0.0
 10
-7.6366320281
 20
5.2037569073
 30
0.0
 11
-7.6298916176
 21
5.4036350727
 31
0.0
 11
-7.6299737097
 21
5.3730601425
 31
0.0
 11
-7.6302183079
 21
5.3431825835
 31
0.0
 11
-7.6306197004
 21
5.3147243638
 31
0.0
 11
-7.6311684377
 21
5.2883595176
 31
0.0
 11
-7.6318516326
 21
5.2647081163
 31
0.0
 11
-7.6326531904
 21
5.2443283986
 31
0.0
 11
-7.6335541816
 21
5.2277016088
 31
0.0
 11
-7.6345334154
 21
5.215218707
 31
0.0
 11
-7.6355676944
 21
5.2071741451
 31
0.0
 11
-7.6366320281
 21
5.2037569073
 31
0.0
  0
SPLINE
  5
592
100
AcDbEntity
  8
RACCORDO
100
AcDbSpline
 62
253
  6
CONTINUOUS
 70
0
 71
3
 72
13
 73
9
 74
7
 42
0.0000001
 43
0.0000001
 44
0.0000000001
 12
0.0000092097
 22
-0.565769622
 32
0.0
 13
0.0197318825
 23
-0.565425431
 33
0.0
 40
0.0
 40
0.0
 40
0.0
 40
0.0
 40
0.1807025814
 40
0.3629115369
 40
0.5410140573
 40
0.709586639
 40
0.8638477379
 40
1.0
 40
1.0
 40
1.0
 40
1.0
 10
6.6386796898
 20
8.0689823021
 30
0.0
 10
6.6386802446
 20
8.0349036251
 30
0.0
 10
6.6388315223
 20
7.9664620845
 30
0.0
 10
6.6395251626
 20
7.8644343021
 30
0.0
 10
6.6406913421
 20
7.7646985071
 30
0.0
 10
6.6423045668
 20
7.6702402569
 30
0.0
 10
6.6443088966
 20
7.5837028076
 30
0.0
 10
6.6459666216
 20
7.5289581943
 30
0.0
 10
6.6468621351
 20
7.5032968772
 30
0.0
 11
6.6386796898
 21
8.0689823021
 31
0.0
 11
6.6389087478
 21
7.9667465275
 31
0.0
 11
6.6396154633
 21
7.8636606581
 31
0.0
 11
6.6408052672
 21
7.7629026872
 31
0.0
 11
6.6424515691
 21
7.6675436513
 31
0.0
 11
6.644497881
 21
7.5802914003
 31
0.0
 11
6.6468621351
 21
7.5032968772
 31
0.0
  0
SPLINE
  5
593
100
AcDbEntity
  8
RACCORDO
100
AcDbSpline
 62
253
  6
CONTINUOUS
 70
0
 71
3
 72
13
 73
9
 74
7
 42
0.0000001
 43
0.0000001
 44
0.0000000001
 12
0.0049357932
 22
-0.1413562587
 32
0.0
 13
0.0000002346
 23
-0.141442405
 33
0.0
 40
0.0
 40
0.0
 40
0.0
 40
0.0
 40
0.1390643219
 40
0.2929150865
 40
0.4588821061
 40
0.6340954086
 40
0.8155267422
 40
1.0
 40
1.0
 40
1.0
 40
1.0
 10
6.6680627711
 20
6.896190096
 30
0.0
 10
6.6682915686
 20
6.8896375586
 30
0.0
 10
6.668708056
 20
6.8758334543
 30
0.0
 10
6.6692066977
 20
6.8542039378
 30
0.0
 10
6.6696043719
 20
6.8308677361
 30
0.0
 10
6.6698936483
 20
6.8062295135
 30
0.0
 10
6.6700692615
 20
6.7807176885
 30
0.0
 10
6.670108368
 20
6.7634661868
 30
0.0
 10
6.6701083824
 20
6.7547687398
 30
0.0
 11
6.6680627711
 21
6.896190096
 31
0.0
 11
6.6686648992
 21
6.8765297222
 31
0.0
 11
6.6691725633
 21
6.8547746225
 31
0.0
 11
6.6695767757
 21
6.8313033285
 31
0.0
 11
6.6698704958
 21
6.8065224782
 31
0.0
 11
6.6700486931
 21
6.7808610127
 31
0.0
 11
6.6701083824
 21
6.7547687398
 31
0.0
  0
SPLINE
  5
594
100
AcDbEntity
  8
RACCORDO
100
AcDbSpline
 62
253
  6
CONTINUOUS
 70
0
 71
3
 72
17
 73
13
 74
11
 42
0.0000001
 43
0.0000001
 44
0.0000000001
 12
-0.0000004892
 22
-0.2002043117
 32
0.0
 13
-0.1414238981
 23
-0.1417076126
 33
0.0
 40
0.0
 40
0.0
 40
0.0
 40
0.0
 40
0.1527191901
 40
0.3019595335
 40
0.4441195603
 40
0.5758377826
 40
0.6940233827
 40
0.7958966866
 40
0.8790676415
 40
0.9416100082
 40
0.9821225088
 40
1.0
 40
1.0
 40
1.0
 40
1.0
 10
6.6701083824
 20
5.4036350727
 30
0.0
 10
6.6701083575
 20
5.3934433926
 30
0.0
 10
6.6700548618
 20
5.3732922113
 30
0.0
 10
6.6698154409
 20
5.3436545456
 30
0.0
 10
6.6694216448
 20
5.3154212959
 30
0.0
 10
6.6688887096
 20
5.2892592323
 30
0.0
 10
6.6682141795
 20
5.2658022108
 30
0.0
 10
6.6674677624
 20
5.2455519792
 30
0.0
 10
6.6665275974
 20
5.2291298114
 30
0.0
 10
6.6658069221
 20
5.2165425522
 30
0.0
 10
6.6645261968
 20
5.2088948632
 30
0.0
 10
6.6642107401
 20
5.2046013661
 30
0.0
 10
6.6633679719
 20
5.2037569073
 30
0.0
 11
6.6701083824
 21
5.4036350727
 31
0.0
 11
6.6700262903
 21
5.3730601425
 31
0.0
 11
6.6697816921
 21
5.3431825835
 31
0.0
 11
6.6693802996
 21
5.3147243638
 31
0.0
 11
6.6688315623
 21
5.2883595176
 31
0.0
 11
6.6681483674
 21
5.2647081163
 31
0.0
 11
6.6673468096
 21
5.2443283986
 31
0.0
 11
6.6664458184
 21
5.2277016088
 31
0.0
 11
6.6654665846
 21
5.215218707
 31
0.0
 11
6.6644323056
 21
5.2071741451
 31
0.0
 11
6.6633679719
 21
5.2037569073
 31
0.0
  0
SPLINE
  5
595
100
AcDbEntity
  8
RACCORDO
100
AcDbSpline
 62
253
  6
CONTINUOUS
 70
0
 71
3
 72
17
 73
13
 74
11
 42
0.0000001
 43
0.0000001
 44
0.0000000001
 12
-0.1414238943
 22
0.1417076164
 32
0.0
 13
-0.0000004892
 23
0.2002043117
 33
0.0
 40
0.0
 40
0.0
 40
0.0
 40
0.0
 40
0.0178774913
 40
0.058389992
 40
0.1209323587
 40
0.2041033138
 40
0.3059766177
 40
0.4241622179
 40
0.5558804402
 40
0.698040467
 40
0.8472808104
 40
1.0
 40
1.0
 40
1.0
 40
1.0
 10
7.3792396955
 20
5.2037569073
 30
0.0
 10
7.3783969274
 20
5.2046013662
 30
0.0
 10
7.3780814706
 20
5.2088948632
 30
0.0
 10
7.3768007454
 20
5.2165425523
 30
0.0
 10
7.37608007
 20
5.2291298114
 30
0.0
 10
7.3751399051
 20
5.2455519792
 30
0.0
 10
7.3743934879
 20
5.2658022109
 30
0.0
 10
7.3737189579
 20
5.2892592324
 30
0.0
 10
7.3731860226
 20
5.315421296
 30
0.0
 10
7.3727922265
 20
5.3436545457
 30
0.0
 10
7.3725528056
 20
5.3732922114
 30
0.0
 10
7.37249931
 20
5.3934433926
 30
0.0
 10
7.3724992851
 20
5.4036350727
 30
0.0
 11
7.3792396955
 21
5.2037569073
 31
0.0
 11
7.3781753618
 21
5.2071741451
 31
0.0
 11
7.3771410828
 21
5.215218707
 31
0.0
 11
7.376161849
 21
5.2277016089
 31
0.0
 11
7.3752608578
 21
5.2443283986
 31
0.0
 11
7.3744593
 21
5.2647081163
 31
0.0
 11
7.3737761051
 21
5.2883595177
 31
0.0
 11
7.3732273678
 21
5.3147243639
 31
0.0
 11
7.3728259753
 21
5.3431825836
 31
0.0
 11
7.3725813771
 21
5.3730601427
 31
0.0
 11
7.3724992851
 21
5.4036350727
 31
0.0
  0
SPLINE
  5
596
100
AcDbEntity
  8
RACCORDO
100
AcDbSpline
 62
253
  6
CONTINUOUS
 70
0
 71
3
 72
13
 73
9
 74
7
 42
0.0000001
 43
0.0000001
 44
0.0000000001
 12
0.0000002346
 22
0.141442405
 32
0.0
 13
0.0049357932
 23
0.1413562587
 33
0.0
 40
0.0
 40
0.0
 40
0.0
 40
0.0
 40
0.1844732589
 40
0.3659045925
 40
0.541117895
 40
0.7070849145
 40
0.8609356791
 40
1.0
 40
1.0
 40
1.0
 40
1.0
 10
7.3724992851
 20
6.7547687398
 30
0.0
 10
7.3724992995
 20
6.7634661869
 30
0.0
 10
7.372538406
 20
6.7807176887
 30
0.0
 10
7.3727140191
 20
6.8062295137
 30
0.0
 10
7.3730032956
 20
6.8308677363
 30
0.0
 10
7.3734009697
 20
6.8542039379
 30
0.0
 10
7.3738996115
 20
6.8758334544
 30
0.0
 10
7.3743160988
 20
6.8896375586
 30
0.0
 10
7.3745448964
 20
6.896190096
 30
0.0
 11
7.3724992851
 21
6.7547687398
 31
0.0
 11
7.3725589743
 21
6.7808610129
 31
0.0
 11
7.3727371716
 21
6.8065224784
 31
0.0
 11
7.3730308918
 21
6.8313033286
 31
0.0
 11
7.3734351041
 21
6.8547746227
 31
0.0
 11
7.3739427682
 21
6.8765297224
 31
0.0
 11
7.3745448964
 21
6.896190096
 31
0.0
  0
SPLINE
  5
597
100
AcDbEntity
  8
RACCORDO
100
AcDbSpline
 62
253
  6
CONTINUOUS
 70
0
 71
3
 72
13
 73
9
 74
7
 42
0.0000001
 43
0.0000001
 44
0.0000000001
 12
0.0197318509
 22
0.5654254321
 32
0.0
 13
0.0000091903
 23
0.565769622
 33
0.0
 40
0.0
 40
0.0
 40
0.0
 40
0.0
 40
0.1361522584
 40
0.2904133641
 40
0.4589859497
 40
0.637088475
 40
0.8192974361
 40
1.0
 40
1.0
 40
1.0
 40
1.0
 10
7.3957455323
 20
7.5032968772
 30
0.0
 10
7.3966410444
 20
7.5289581937
 30
0.0
 10
7.3982987717
 20
7.5837028075
 30
0.0
 10
7.4003031003
 20
7.6702402581
 30
0.0
 10
7.4019163255
 20
7.7646985112
 30
0.0
 10
7.4030825051
 20
7.864434309
 30
0.0
 10
7.4037761445
 20
7.9664620901
 30
0.0
 10
7.403927424
 20
8.0349036284
 30
0.0
 10
7.4039279776
 20
8.0689823021
 30
0.0
 11
7.3957455323
 21
7.5032968772
 31
0.0
 11
7.3981097865
 21
7.5802913982
 31
0.0
 11
7.4001560983
 21
7.6675436531
 31
0.0
 11
7.4018024003
 21
7.7629026911
 31
0.0
 11
7.4029922042
 21
7.8636606649
 31
0.0
 11
7.4036989196
 21
7.9667465375
 31
0.0
 11
7.4039279776
 21
8.0689823021
 31
0.0
  0
SPLINE
  5
598
100
AcDbEntity
  8
RACCORDO
100
AcDbSpline
 62
253
  6
CONTINUOUS
 70
0
 71
3
 72
15
 73
11
 74
9
 42
0.0000001
 43
0.0000001
 44
0.0000000001
 12
0.0000001707
 22
0.0492833389
 32
0.0
 13
0.0095687383
 23
0.0483454935
 33
0.0
 40
0.0
 40
0.0
 40
0.0
 40
0.0
 40
0.1760003266
 40
0.3468630124
 40
0.5072188018
 40
0.6521964061
 40
0.7773808262
 40
0.8789617246
 40
0.9539026917
 40
1.0
 40
1.0
 40
1.0
 40
1.0
 10
-5.4385511257
 20
-6.5896102356
 30
0.0
 10
-5.4385511157
 20
-6.586718941
 30
0.0
 10
-5.4385339921
 20
-6.5810207395
 30
0.0
 10
-5.4384573498
 20
-6.5726885434
 30
0.0
 10
-5.4383321722
 20
-6.5648666801
 30
0.0
 10
-5.4381635459
 20
-6.5577959974
 30
0.0
 10
-5.4379551228
 20
-6.5516929476
 30
0.0
 10
-5.4377223661
 20
-6.5467406872
 30
0.0
 10
-5.4374595511
 20
-6.5430950244
 30
0.0
 10
-5.4372553146
 20
-6.5411127137
 30
0.0
 10
-5.4371082836
 20
-6.540369848
 30
0.0
 11
-5.4385511257
 21
-6.5896102356
 31
0.0
 11
-5.4385246531
 21
-6.5809363922
 31
0.0
 11
-5.4384459109
 21
-6.5725160768
 31
0.0
 11
-5.4383172816
 21
-6.5646142549
 31
0.0
 11
-5.4381426465
 21
-6.557471409
 31
0.0
 11
-5.4379273211
 21
-6.5513056615
 31
0.0
 11
-5.4376779006
 21
-6.5463056329
 31
0.0
 11
-5.4374019835
 21
-6.5426226126
 31
0.0
 11
-5.4371082836
 21
-6.540369848
 31
0.0
  0
SPLINE
  5
599
100
AcDbEntity
  8
RACCORDO
100
AcDbSpline
 62
253
  6
CONTINUOUS
 70
0
 71
3
 72
16
 73
12
 74
10
 42
0.0000001
 43
0.0000001
 44
0.0000000001
 12
0.0000001618
 22
0.0500818853
 32
0.0
 13
0.0447468108
 23
0.0224926245
 33
0.0
 40
0.0
 40
0.0
 40
0.0
 40
0.0
 40
0.1712952529
 40
0.3376892171
 40
0.4940782646
 40
0.6358142909
 40
0.7586920905
 40
0.8590498286
 40
0.9339391758
 40
0.981233087
 40
1.0
 40
1.0
 40
1.0
 40
1.0
 10
-5.3791858176
 20
-4.862382265
 30
0.0
 10
-5.3791858083
 20
-4.8595226686
 30
0.0
 10
-5.3791691657
 20
-4.853885135
 30
0.0
 10
-5.3790936531
 20
-4.8456379343
 30
0.0
 10
-5.3789727399
 20
-4.83788206
 30
0.0
 10
-5.3788021537
 20
-4.8308624846
 30
0.0
 10
-5.378613564
 20
-4.8247526284
 30
0.0
 10
-5.3783407939
 20
-4.8198367284
 30
0.0
 10
-5.3781863725
 20
-4.8159956666
 30
0.0
 10
-5.3777560879
 20
-4.8139078082
 30
0.0
 10
-5.3777501715
 20
-4.812530586
 30
0.0
 10
-5.3774702516
 20
-4.8123898803
 30
0.0
 11
-5.3791858176
 21
-4.862382265
 31
0.0
 11
-5.3791599265
 21
-4.8538035149
 31
0.0
 11
-5.3790829063
 21
-4.8454705474
 31
0.0
 11
-5.3789570391
 21
-4.8376393005
 31
0.0
 11
-5.378786045
 21
-4.8305429529
 31
0.0
 11
-5.3785749924
 21
-4.8243926212
 31
0.0
 11
-5.3783301957
 21
-4.8193724814
 31
0.0
 11
-5.3780589492
 21
-4.8156317029
 31
0.0
 11
-5.3777693309
 21
-4.813280908
 31
0.0
 11
-5.3774702516
 21
-4.8123898803
 31
0.0
  0
SPLINE
  5
59A
100
AcDbEntity
  8
RACCORDO
100
AcDbSpline
 62
253
  6
CONTINUOUS
 70
0
 71
3
 72
16
 73
12
 74
10
 42
0.0000001
 43
0.0000001
 44
0.0000000001
 12
0.0447468108
 22
-0.0224926245
 32
0.0
 13
0.0000001618
 23
-0.0500818853
 33
0.0
 40
0.0
 40
0.0
 40
0.0
 40
0.0
 40
0.0187669131
 40
0.0660608243
 40
0.1409501717
 40
0.2413079099
 40
0.3641857095
 40
0.5059217359
 40
0.6623107834
 40
0.8287047476
 40
1.0
 40
1.0
 40
1.0
 40
1.0
 10
-6.0799220809
 20
-4.8123898803
 30
0.0
 10
-6.0796421611
 20
-4.812530586
 30
0.0
 10
-6.0796362447
 20
-4.8139078082
 30
0.0
 10
-6.0792059601
 20
-4.8159956666
 30
0.0
 10
-6.0790515386
 20
-4.8198367284
 30
0.0
 10
-6.0787787686
 20
-4.8247526284
 30
0.0
 10
-6.0785901789
 20
-4.8308624846
 30
0.0
 10
-6.0784195926
 20
-4.83788206
 30
0.0
 10
-6.0782986794
 20
-4.8456379343
 30
0.0
 10
-6.0782231669
 20
-4.853885135
 30
0.0
 10
-6.0782065242
 20
-4.8595226686
 30
0.0
 10
-6.078206515
 20
-4.862382265
 30
0.0
 11
-6.0799220809
 21
-4.8123898803
 31
0.0
 11
-6.0796230016
 21
-4.813280908
 31
0.0
 11
-6.0793333833
 21
-4.815631703
 31
0.0
 11
-6.0790621369
 21
-4.8193724814
 31
0.0
 11
-6.0788173401
 21
-4.8243926212
 31
0.0
 11
-6.0786062876
 21
-4.8305429529
 31
0.0
 11
-6.0784352935
 21
-4.8376393005
 31
0.0
 11
-6.0783094262
 21
-4.8454705474
 31
0.0
 11
-6.0782324061
 21
-4.8538035149
 31
0.0
 11
-6.078206515
 21
-4.862382265
 31
0.0
  0
SPLINE
  5
59B
100
AcDbEntity
  8
RACCORDO
100
AcDbSpline
 62
253
  6
CONTINUOUS
 70
0
 71
3
 72
15
 73
11
 74
9
 42
0.0000001
 43
0.0000001
 44
0.0000000001
 12
0.0095687383
 22
-0.0483454935
 32
0.0
 13
0.0000001707
 23
-0.0492833389
 33
0.0
 40
0.0
 40
0.0
 40
0.0
 40
0.0
 40
0.0460973084
 40
0.1210382755
 40
0.222619174
 40
0.3478035941
 40
0.4927811984
 40
0.6531369878
 40
0.8239996736
 40
1.0
 40
1.0
 40
1.0
 40
1.0
 10
-6.0202840489
 20
-6.540369848
 30
0.0
 10
-6.0201370179
 20
-6.5411127137
 30
0.0
 10
-6.0199327814
 20
-6.5430950244
 30
0.0
 10
-6.0196699665
 20
-6.5467406872
 30
0.0
 10
-6.0194372097
 20
-6.5516929476
 30
0.0
 10
-6.0192287867
 20
-6.5577959974
 30
0.0
 10
-6.0190601604
 20
-6.5648666801
 30
0.0
 10
-6.0189349827
 20
-6.5726885434
 30
0.0
 10
-6.0188583404
 20
-6.5810207395
 30
0.0
 10
-6.0188412169
 20
-6.586718941
 30
0.0
 10
-6.0188412069
 20
-6.5896102356
 30
0.0
 11
-6.0202840489
 21
-6.540369848
 31
0.0
 11
-6.0199903491
 21
-6.5426226126
 31
0.0
 11
-6.0197144319
 21
-6.5463056329
 31
0.0
 11
-6.0194650115
 21
-6.5513056616
 31
0.0
 11
-6.0192496861
 21
-6.557471409
 31
0.0
 11
-6.0190750509
 21
-6.5646142549
 31
0.0
 11
-6.0189464217
 21
-6.5725160768
 31
0.0
 11
-6.0188676795
 21
-6.5809363923
 31
0.0
 11
-6.0188412069
 21
-6.5896102356
 31
0.0
  0
SPLINE
  5
59C
100
AcDbEntity
  8
RACCORDO
100
AcDbSpline
 62
253
  6
CONTINUOUS
 70
0
 71
3
 72
15
 73
11
 74
9
 42
0.0000001
 43
0.0000001
 44
0.0000000001
 12
0.0000001707
 22
0.0492833389
 32
0.0
 13
0.0095687383
 23
0.0483454935
 33
0.0
 40
0.0
 40
0.0
 40
0.0
 40
0.0
 40
0.1760003266
 40
0.3468630124
 40
0.5072188018
 40
0.6521964061
 40
0.7773808262
 40
0.8789617246
 40
0.9539026917
 40
1.0
 40
1.0
 40
1.0
 40
1.0
 10
5.7614488743
 20
-6.5896102356
 30
0.0
 10
5.7614488843
 20
-6.586718941
 30
0.0
 10
5.7614660079
 20
-6.5810207395
 30
0.0
 10
5.7615426502
 20
-6.5726885434
 30
0.0
 10
5.7616678278
 20
-6.5648666801
 30
0.0
 10
5.7618364541
 20
-6.5577959974
 30
0.0
 10
5.7620448772
 20
-6.5516929476
 30
0.0
 10
5.7622776339
 20
-6.5467406872
 30
0.0
 10
5.7625404489
 20
-6.5430950244
 30
0.0
 10
5.7627446854
 20
-6.5411127137
 30
0.0
 10
5.7628917164
 20
-6.540369848
 30
0.0
 11
5.7614488743
 21
-6.5896102356
 31
0.0
 11
5.7614753469
 21
-6.5809363922
 31
0.0
 11
5.7615540891
 21
-6.5725160768
 31
0.0
 11
5.7616827184
 21
-6.5646142549
 31
0.0
 11
5.7618573535
 21
-6.557471409
 31
0.0
 11
5.7620726789
 21
-6.5513056615
 31
0.0
 11
5.7623220994
 21
-6.5463056329
 31
0.0
 11
5.7625980165
 21
-6.5426226126
 31
0.0
 11
5.7628917164
 21
-6.540369848
 31
0.0
  0
SPLINE
  5
59D
100
AcDbEntity
  8
RACCORDO
100
AcDbSpline
 62
253
  6
CONTINUOUS
 70
0
 71
3
 72
16
 73
12
 74
10
 42
0.0000001
 43
0.0000001
 44
0.0000000001
 12
0.0000001618
 22
0.0500818853
 32
0.0
 13
0.0447468108
 23
0.0224926245
 33
0.0
 40
0.0
 40
0.0
 40
0.0
 40
0.0
 40
0.1712952529
 40
0.3376892171
 40
0.4940782646
 40
0.6358142909
 40
0.7586920905
 40
0.8590498286
 40
0.9339391758
 40
0.981233087
 40
1.0
 40
1.0
 40
1.0
 40
1.0
 10
5.8208141824
 20
-4.862382265
 30
0.0
 10
5.8208141917
 20
-4.8595226686
 30
0.0
 10
5.8208308343
 20
-4.853885135
 30
0.0
 10
5.8209063469
 20
-4.8456379343
 30
0.0
 10
5.8210272601
 20
-4.83788206
 30
0.0
 10
5.8211978463
 20
-4.8308624846
 30
0.0
 10
5.821386436
 20
-4.8247526284
 30
0.0
 10
5.8216592061
 20
-4.8198367284
 30
0.0
 10
5.8218136275
 20
-4.8159956666
 30
0.0
 10
5.8222439121
 20
-4.8139078082
 30
0.0
 10
5.8222498285
 20
-4.812530586
 30
0.0
 10
5.8225297484
 20
-4.8123898803
 30
0.0
 11
5.8208141824
 21
-4.862382265
 31
0.0
 11
5.8208400735
 21
-4.8538035149
 31
0.0
 11
5.8209170937
 21
-4.8454705474
 31
0.0
 11
5.8210429609
 21
-4.8376393005
 31
0.0
 11
5.821213955
 21
-4.8305429529
 31
0.0
 11
5.8214250076
 21
-4.8243926212
 31
0.0
 11
5.8216698043
 21
-4.8193724814
 31
0.0
 11
5.8219410508
 21
-4.8156317029
 31
0.0
 11
5.8222306691
 21
-4.813280908
 31
0.0
 11
5.8225297484
 21
-4.8123898803
 31
0.0
  0
SPLINE
  5
59E
100
AcDbEntity
  8
RACCORDO
100
AcDbSpline
 62
253
  6
CONTINUOUS
 70
0
 71
3
 72
16
 73
12
 74
10
 42
0.0000001
 43
0.0000001
 44
0.0000000001
 12
0.0447468108
 22
-0.0224926245
 32
0.0
 13
0.0000001618
 23
-0.0500818853
 33
0.0
 40
0.0
 40
0.0
 40
0.0
 40
0.0
 40
0.0187669131
 40
0.0660608243
 40
0.1409501717
 40
0.2413079099
 40
0.3641857095
 40
0.5059217359
 40
0.6623107834
 40
0.8287047476
 40
1.0
 40
1.0
 40
1.0
 40
1.0
 10
5.1200779191
 20
-4.8123898803
 30
0.0
 10
5.1203578389
 20
-4.812530586
 30
0.0
 10
5.1203637553
 20
-4.8139078082
 30
0.0
 10
5.1207940399
 20
-4.8159956666
 30
0.0
 10
5.1209484614
 20
-4.8198367284
 30
0.0
 10
5.1212212314
 20
-4.8247526284
 30
0.0
 10
5.1214098211
 20
-4.8308624846
 30
0.0
 10
5.1215804074
 20
-4.83788206
 30
0.0
 10
5.1217013206
 20
-4.8456379343
 30
0.0
 10
5.1217768331
 20
-4.853885135
 30
0.0
 10
5.1217934758
 20
-4.8595226686
 30
0.0
 10
5.121793485
 20
-4.862382265
 30
0.0
 11
5.1200779191
 21
-4.8123898803
 31
0.0
 11
5.1203769984
 21
-4.813280908
 31
0.0
 11
5.1206666167
 21
-4.815631703
 31
0.0
 11
5.1209378631
 21
-4.8193724814
 31
0.0
 11
5.1211826599
 21
-4.8243926212
 31
0.0
 11
5.1213937124
 21
-4.8305429529
 31
0.0
 11
5.1215647065
 21
-4.8376393005
 31
0.0
 11
5.1216905738
 21
-4.8454705474
 31
0.0
 11
5.1217675939
 21
-4.8538035149
 31
0.0
 11
5.121793485
 21
-4.862382265
 31
0.0
  0
SPLINE
  5
59F
100
AcDbEntity
  8
RACCORDO
100
AcDbSpline
 62
253
  6
CONTINUOUS
 70
0
 71
3
 72
15
 73
11
 74
9
 42
0.0000001
 43
0.0000001
 44
0.0000000001
 12
0.0095687383
 22
-0.0483454935
 32
0.0
 13
0.0000001707
 23
-0.0492833389
 33
0.0
 40
0.0
 40
0.0
 40
0.0
 40
0.0
 40
0.0460973084
 40
0.1210382755
 40
0.222619174
 40
0.3478035941
 40
0.4927811984
 40
0.6531369878
 40
0.8239996736
 40
1.0
 40
1.0
 40
1.0
 40
1.0
 10
5.1797159511
 20
-6.540369848
 30
0.0
 10
5.1798629821
 20
-6.5411127137
 30
0.0
 10
5.1800672186
 20
-6.5430950244
 30
0.0
 10
5.1803300335
 20
-6.5467406872
 30
0.0
 10
5.1805627903
 20
-6.5516929476
 30
0.0
 10
5.1807712133
 20
-6.5577959974
 30
0.0
 10
5.1809398396
 20
-6.5648666801
 30
0.0
 10
5.1810650173
 20
-6.5726885434
 30
0.0
 10
5.1811416596
 20
-6.5810207395
 30
0.0
 10
5.1811587831
 20
-6.586718941
 30
0.0
 10
5.1811587931
 20
-6.5896102356
 30
0.0
 11
5.1797159511
 21
-6.540369848
 31
0.0
 11
5.1800096509
 21
-6.5426226126
 31
0.0
 11
5.1802855681
 21
-6.5463056329
 31
0.0
 11
5.1805349885
 21
-6.5513056616
 31
0.0
 11
5.1807503139
 21
-6.557471409
 31
0.0
 11
5.1809249491
 21
-6.5646142549
 31
0.0
 11
5.1810535783
 21
-6.5725160768
 31
0.0
 11
5.1811323205
 21
-6.5809363923
 31
0.0
 11
5.1811587931
 21
-6.5896102356
 31
0.0
  0
SPLINE
  5
5A0
100
AcDbEntity
  8
RACCORDO
100
AcDbSpline
 62
253
  6
CONTINUOUS
 70
0
 71
3
 72
15
 73
11
 74
9
 42
0.0000001
 43
0.0000001
 44
0.0000000001
 12
-0.4014143357
 22
-0.0070088488
 32
0.0
 13
-0.0139942489
 23
-0.4012315464
 33
0.0
 40
0.0
 40
0.0
 40
0.0
 40
0.0
 40
0.1440044844
 40
0.2856956272
 40
0.4226390599
 40
0.5528844372
 40
0.67524257
 40
0.7895686166
 40
0.89699843
 40
1.0
 40
1.0
 40
1.0
 40
1.0
 10
6.9466793832
 20
7.7154289115
 30
0.0
 10
6.9274108951
 20
7.7150924763
 30
0.0
 10
6.8891767407
 20
7.711823203
 30
0.0
 10
6.8338424856
 20
7.6992838386
 30
0.0
 10
6.782580759
 20
7.6795567817
 30
0.0
 10
6.7372564329
 20
7.6533195459
 30
0.0
 10
6.6995153251
 20
7.6214551621
 30
0.0
 10
6.6707852614
 20
7.5849973604
 30
0.0
 10
6.6522790672
 20
7.5452080175
 30
0.0
 10
6.6473426116
 20
7.5170727036
 30
0.0
 10
6.6468621351
 20
7.5032968772
 30
0.0
 11
6.9466793832
 21
7.7154289115
 31
0.0
 11
6.889077845
 21
7.710473792
 31
0.0
 11
6.8336211034
 21
7.6978044277
 31
0.0
 11
6.7823740937
 21
7.6778925632
 31
0.0
 11
6.7372450012
 21
7.6514796178
 31
0.0
 11
6.6999142104
 21
7.6195490793
 31
0.0
 11
6.6717717356
 21
7.5832898831
 31
0.0
 11
6.6538654635
 21
7.5440521425
 31
0.0
 11
6.6468621351
 21
7.5032968772
 31
0.0
  0
SPLINE
  5
5A1
100
AcDbEntity
  8
RACCORDO
100
AcDbSpline
 62
253
  6
CONTINUOUS
 70
0
 71
3
 72
15
 73
11
 74
9
 42
0.0000001
 43
0.0000001
 44
0.0000000001
 12
-0.4014143352
 22
-0.0070088515
 32
0.0
 13
-0.0139942492
 23
-0.401231546
 33
0.0
 40
0.0
 40
0.0
 40
0.0
 40
0.0
 40
0.1440045699
 40
0.2856957779
 40
0.4226392486
 40
0.5528846346
 40
0.6752427483
 40
0.7895687529
 40
0.8969985064
 40
1.0
 40
1.0
 40
1.0
 40
1.0
 10
6.9678800192
 20
7.1083221304
 30
0.0
 10
6.9486115196
 20
7.1079856948
 30
0.0
 10
6.9103773451
 20
7.104716418
 30
0.0
 10
6.8550430667
 20
7.0921770413
 30
0.0
 10
6.8037813296
 20
7.0724499694
 30
0.0
 10
6.7584570067
 20
7.0462127205
 30
0.0
 10
6.7207159134
 20
7.0143483305
 30
0.0
 10
6.6919858707
 20
6.977890533
 30
0.0
 10
6.6734796966
 20
6.9381012077
 30
0.0
 10
6.6685432473
 20
6.9099659122
 30
0.0
 10
6.6680627711
 20
6.896190096
 30
0.0
 11
6.9678800192
 21
7.1083221304
 31
0.0
 11
6.910278447
 21
7.1033670052
 31
0.0
 11
6.8548216816
 21
7.0906976283
 31
0.0
 11
6.8035746614
 21
7.0707857484
 31
0.0
 11
6.7584455726
 21
7.0443727901
 31
0.0
 11
6.721114797
 21
7.0124422458
 31
0.0
 11
6.6929723432
 21
6.9761830546
 31
0.0
 11
6.6750660903
 21
6.9369453317
 31
0.0
 11
6.6680627711
 21
6.896190096
 31
0.0
  0
SPLINE
  5
5A2
100
AcDbEntity
  8
RACCORDO
100
AcDbSpline
 62
253
  6
CONTINUOUS
 70
0
 71
3
 72
15
 73
11
 74
9
 42
0.0000001
 43
0.0000001
 44
0.0000000001
 12
0.4014143357
 22
-0.0070088487
 32
0.0
 13
0.0139942489
 23
-0.4012315464
 33
0.0
 40
0.0
 40
0.0
 40
0.0
 40
0.0
 40
0.1440044844
 40
0.2856956272
 40
0.4226390599
 40
0.5528844372
 40
0.67524257
 40
0.7895686166
 40
0.89699843
 40
1.0
 40
1.0
 40
1.0
 40
1.0
 10
-7.2252723517
 20
7.1083221304
 30
0.0
 10
-7.2060038636
 20
7.1079856951
 30
0.0
 10
-7.1677697093
 20
7.1047164219
 30
0.0
 10
-7.1124354542
 20
7.0921770575
 30
0.0
 10
-7.0611737275
 20
7.0724500005
 30
0.0
 10
-7.0158494015
 20
7.0462127647
 30
0.0
 10
-6.9781082936
 20
7.014348381
 30
0.0
 10
-6.9493782299
 20
6.9778905792
 30
0.0
 10
-6.9308720357
 20
6.9381012363
 30
0.0
 10
-6.9259355802
 20
6.9099659224
 30
0.0
 10
-6.9254551036
 20
6.896190096
 30
0.0
 11
-7.2252723517
 21
7.1083221304
 31
0.0
 11
-7.1676708135
 21
7.1033670109
 31
0.0
 11
-7.1122140719
 21
7.0906976466
 31
0.0
 11
-7.0609670622
 21
7.070785782
 31
0.0
 11
-7.0158379697
 21
7.0443728367
 31
0.0
 11
-6.978507179
 21
7.0124422981
 31
0.0
 11
-6.9503647041
 21
6.9761831019
 31
0.0
 11
-6.932458432
 21
6.9369453613
 31
0.0
 11
-6.9254551036
 21
6.896190096
 31
0.0
  0
SPLINE
  5
5A3
100
AcDbEntity
  8
RACCORDO
100
AcDbSpline
 62
253
  6
CONTINUOUS
 70
0
 71
3
 72
15
 73
11
 74
9
 42
0.0000001
 43
0.0000001
 44
0.0000000001
 12
0.4014143351
 22
-0.007008849
 32
0.0
 13
0.0139942489
 23
-0.4012315459
 33
0.0
 40
0.0
 40
0.0
 40
0.0
 40
0.0
 40
0.1440042721
 40
0.2856952433
 40
0.4226385679
 40
0.5528839124
 40
0.6752420872
 40
0.7895682409
 40
0.8969982159
 40
1.0
 40
1.0
 40
1.0
 40
1.0
 10
-7.2040717158
 20
7.7154289115
 30
0.0
 10
-7.1848032561
 20
7.7150924768
 30
0.0
 10
-7.1465691533
 20
7.7118232117
 30
0.0
 10
-7.0912349595
 20
7.6992838783
 30
0.0
 10
-7.0399732631
 20
7.6795568611
 30
0.0
 10
-6.9946489321
 20
7.6533196615
 30
0.0
 10
-6.9569077877
 20
7.6214552973
 30
0.0
 10
-6.928177668
 20
7.5849974862
 30
0.0
 10
-6.9096714181
 20
7.5452080964
 30
0.0
 10
-6.9047349452
 20
7.5170727322
 30
0.0
 10
-6.9042544677
 20
7.5032968772
 30
0.0
 11
-7.2040717158
 21
7.7154289115
 31
0.0
 11
-7.146470262
 21
7.7104738052
 31
0.0
 11
-7.0910135839
 21
7.6978044729
 31
0.0
 11
-7.039766605
 21
7.6778926491
 31
0.0
 11
-6.9946375066
 21
7.6514797401
 31
0.0
 11
-6.957306678
 21
7.6195492199
 31
0.0
 11
-6.9291641472
 21
7.5832900127
 31
0.0
 11
-6.9112578218
 21
7.5440522252
 31
0.0
 11
-6.9042544677
 21
7.5032968772
 31
0.0
  0
SPLINE
  5
5A4
100
AcDbEntity
  8
RACCORDO
100
AcDbSpline
 62
253
  6
CONTINUOUS
 70
0
 71
3
 72
15
 73
11
 74
9
 42
0.0000001
 43
0.0000001
 44
0.0000000001
 12
0.3882348029
 22
-0.0023184616
 32
0.0
 13
0.0023876314
 23
-0.3882343837
 33
0.0
 40
0.0
 40
0.0
 40
0.0
 40
0.0
 40
0.1257290456
 40
0.2514557317
 40
0.3770343051
 40
0.502340937
 40
0.627292244
 40
0.751858067
 40
0.8760664778
 40
1.0
 40
1.0
 40
1.0
 40
1.0
 10
5.5130440096
 20
-6.2941679097
 30
0.0
 10
5.5293148067
 20
-6.2942650757
 30
0.0
 10
5.5619236788
 20
-6.2976105557
 30
0.0
 10
5.6088872717
 20
-6.3118730767
 30
0.0
 10
5.6522224628
 20
-6.3348412308
 30
0.0
 10
5.6902562153
 20
-6.3656451114
 30
0.0
 10
5.7215439915
 20
-6.4031147465
 30
0.0
 10
5.7448870195
 20
-6.4458331374
 30
0.0
 10
5.7593891359
 20
-6.4921487223
 30
0.0
 10
5.7627930805
 20
-6.5243314298
 30
0.0
 10
5.7628917164
 20
-6.540369848
 30
0.0
 11
5.5130440096
 21
-6.2941679097
 31
0.0
 11
5.5616021256
 21
-6.2991522741
 31
0.0
 11
5.6083085056
 21
-6.3133353325
 31
0.0
 11
5.6513820286
 21
-6.3361762221
 31
0.0
 11
5.6891801105
 21
-6.3668039185
 31
0.0
 11
5.7202613432
 21
-6.4040504523
 31
0.0
 11
5.7434404616
 21
-6.446495448
 31
0.0
 11
5.7578335433
 21
-6.4925202903
 31
0.0
 11
5.7628917164
 21
-6.540369848
 31
0.0
  0
SPLINE
  5
5A5
100
AcDbEntity
  8
RACCORDO
100
AcDbSpline
 62
7
  6
CONTINUOUS
 70
0
 71
3
 72
17
 73
13
 74
11
 42
0.0000001
 43
0.0000001
 44
0.0000000001
 12
-0.0148532747
 22
0.3571597571
 32
0.0
 13
-0.3573152673
 23
0.0104647825
 33
0.0
 40
0.0
 40
0.0
 40
0.0
 40
0.0
 40
0.0784048065
 40
0.159813855
 40
0.2448266776
 40
0.3341391228
 40
0.4284979008
 40
0.5286788015
 40
0.6354463523
 40
0.7494674181
 40
0.8710888176
 40
1.0
 40
1.0
 40
1.0
 40
1.0
 10
5.8208141824
 20
-6.2478993868
 30
0.0
 10
5.8204259931
 20
-6.2385650396
 30
0.0
 10
5.8181150974
 20
-6.2195698233
 30
0.0
 10
5.8100646223
 20
-6.1914113944
 30
0.0
 10
5.7971952483
 20
-6.1636547928
 30
0.0
 10
5.7793992461
 20
-6.1368955431
 30
0.0
 10
5.7566115422
 20
-6.1117360445
 30
0.0
 10
5.7288013591
 20
-6.0888320068
 30
0.0
 10
5.6959894764
 20
-6.0689299443
 30
0.0
 10
5.6583065458
 20
-6.0529185734
 30
0.0
 10
5.6161445845
 20
-6.0418620867
 30
0.0
 10
5.5863204536
 20
-6.0386797659
 30
0.0
 10
5.5709664757
 20
-6.03823009
 30
0.0
 11
5.8208141824
 21
-6.2478993868
 31
0.0
 11
5.8174499115
 21
-6.2200747891
 31
0.0
 11
5.8094885733
 21
-6.1920838065
 31
0.0
 11
5.7967519923
 21
-6.1644922246
 31
0.0
 11
5.7791234654
 21
-6.1378740162
 31
0.0
 11
5.7565288999
 21
-6.1128296959
 31
0.0
 11
5.7289277785
 21
-6.0900121011
 31
0.0
 11
5.6963269976
 21
-6.0701668191
 31
0.0
 11
5.658833929
 21
-6.0541805521
 31
0.0
 11
5.6167875677
 21
-6.043123875
 31
0.0
 11
5.5709664757
 21
-6.03823009
 31
0.0
  0
SPLINE
  5
5A6
100
AcDbEntity
  8
RACCORDO
100
AcDbSpline
 62
253
  6
CONTINUOUS
 70
0
 71
3
 72
15
 73
11
 74
9
 42
0.0000001
 43
0.0000001
 44
0.0000000001
 12
-0.4014143357
 22
-0.0070088488
 32
0.0
 13
-0.0139942489
 23
-0.4012315464
 33
0.0
 40
0.0
 40
0.0
 40
0.0
 40
0.0
 40
0.1440044844
 40
0.2856956272
 40
0.4226390599
 40
0.5528844372
 40
0.67524257
 40
0.7895686166
 40
0.89699843
 40
1.0
 40
1.0
 40
1.0
 40
1.0
 10
-7.3533206168
 20
7.7154289115
 30
0.0
 10
-7.3725891049
 20
7.7150924763
 30
0.0
 10
-7.4108232593
 20
7.711823203
 30
0.0
 10
-7.4661575144
 20
7.6992838386
 30
0.0
 10
-7.517419241
 20
7.6795567817
 30
0.0
 10
-7.5627435671
 20
7.6533195459
 30
0.0
 10
-7.6004846749
 20
7.6214551621
 30
0.0
 10
-7.6292147386
 20
7.5849973604
 30
0.0
 10
-7.6477209328
 20
7.5452080175
 30
0.0
 10
-7.6526573884
 20
7.5170727036
 30
0.0
 10
-7.6531378649
 20
7.5032968772
 30
0.0
 11
-7.3533206168
 21
7.7154289115
 31
0.0
 11
-7.410922155
 21
7.710473792
 31
0.0
 11
-7.4663788966
 21
7.6978044277
 31
0.0
 11
-7.5176259063
 21
7.6778925632
 31
0.0
 11
-7.5627549988
 21
7.6514796178
 31
0.0
 11
-7.6000857896
 21
7.6195490793
 31
0.0
 11
-7.6282282644
 21
7.5832898831
 31
0.0
 11
-7.6461345365
 21
7.5440521425
 31
0.0
 11
-7.6531378649
 21
7.5032968772
 31
0.0
  0
SPLINE
  5
5A7
100
AcDbEntity
  8
RACCORDO
100
AcDbSpline
 62
253
  6
CONTINUOUS
 70
0
 71
3
 72
15
 73
11
 74
9
 42
0.0000001
 43
0.0000001
 44
0.0000000001
 12
-0.4014143352
 22
-0.0070088515
 32
0.0
 13
-0.0139942492
 23
-0.401231546
 33
0.0
 40
0.0
 40
0.0
 40
0.0
 40
0.0
 40
0.1440045699
 40
0.2856957779
 40
0.4226392486
 40
0.5528846346
 40
0.6752427483
 40
0.7895687529
 40
0.8969985064
 40
1.0
 40
1.0
 40
1.0
 40
1.0
 10
-7.3321199808
 20
7.1083221304
 30
0.0
 10
-7.3513884804
 20
7.1079856948
 30
0.0
 10
-7.3896226549
 20
7.104716418
 30
0.0
 10
-7.4449569333
 20
7.0921770413
 30
0.0
 10
-7.4962186704
 20
7.0724499694
 30
0.0
 10
-7.5415429933
 20
7.0462127205
 30
0.0
 10
-7.5792840866
 20
7.0143483305
 30
0.0
 10
-7.6080141293
 20
6.977890533
 30
0.0
 10
-7.6265203034
 20
6.9381012077
 30
0.0
 10
-7.6314567527
 20
6.9099659122
 30
0.0
 10
-7.6319372289
 20
6.896190096
 30
0.0
 11
-7.3321199808
 21
7.1083221304
 31
0.0
 11
-7.389721553
 21
7.1033670052
 31
0.0
 11
-7.4451783184
 21
7.0906976283
 31
0.0
 11
-7.4964253386
 21
7.0707857484
 31
0.0
 11
-7.5415544274
 21
7.0443727901
 31
0.0
 11
-7.578885203
 21
7.0124422458
 31
0.0
 11
-7.6070276568
 21
6.9761830546
 31
0.0
 11
-7.6249339097
 21
6.9369453317
 31
0.0
 11
-7.6319372289
 21
6.896190096
 31
0.0
  0
SPLINE
  5
5A8
100
AcDbEntity
  8
RACCORDO
100
AcDbSpline
 62
7
  6
CONTINUOUS
 70
0
 71
3
 72
14
 73
10
 74
8
 42
0.0000001
 43
0.0000001
 44
0.0000000001
 12
-0.187164952
 22
-0.0179573555
 32
0.0
 13
-0.188024429
 23
-0.0
 33
0.0
 40
0.0
 40
0.0
 40
0.0
 40
0.0
 40
0.0778830372
 40
0.1849747095
 40
0.3167251878
 40
0.4673848541
 40
0.636225452
 40
0.8166806958
 40
1.0
 40
1.0
 40
1.0
 40
1.0
 10
-4.2936671257
 20
5.7530400853
 30
0.0
 10
-4.2985261174
 20
5.7525738942
 30
0.0
 10
-4.3100947817
 20
5.7517758343
 30
0.0
 10
-4.3299226772
 20
5.7508237764
 30
0.0
 10
-4.3543215545
 20
5.7499985484
 30
0.0
 10
-4.3825957391
 20
5.7493215509
 30
0.0
 10
-4.4139266691
 20
5.7488204601
 30
0.0
 10
-4.4473070266
 20
5.7485140388
 30
0.0
 10
-4.4701065922
 20
5.7484459658
 30
0.0
 10
-4.4815960947
 20
5.7484459658
 30
0.0
 11
-4.2936671257
 21
5.7530400853
 31
0.0
 11
-4.3082700183
 21
5.7519447612
 31
0.0
 11
-4.32838081
 21
5.7509405038
 31
0.0
 11
-4.3531380508
 21
5.7500766209
 31
0.0
 11
-4.3814572849
 21
5.7493842066
 31
0.0
 11
-4.4131992276
 21
5.7488669463
 31
0.0
 11
-4.4471277455
 21
5.7485504358
 31
0.0
 11
-4.4815960947
 21
5.7484459658
 31
0.0
  0
SPLINE
  5
5A9
100
AcDbEntity
  8
RACCORDO
100
AcDbSpline
 62
7
  6
CONTINUOUS
 70
0
 71
3
 72
14
 73
10
 74
8
 42
0.0000001
 43
0.0000001
 44
0.0000000001
 12
0.1880504183
 22
0.0
 32
0.0
 13
0.1871908232
 23
-0.0179598313
 33
0.0
 40
0.0
 40
0.0
 40
0.0
 40
0.0
 40
0.1832425357
 40
0.3636522946
 40
0.53247933
 40
0.6831485856
 40
0.8149281021
 40
0.9220655165
 40
1.0
 40
1.0
 40
1.0
 40
1.0
 10
-4.4869407376
 20
7.3758180692
 30
0.0
 10
-4.4754544591
 20
7.3758180692
 30
0.0
 10
-4.4526594053
 20
7.3757499859
 30
0.0
 10
-4.4192829477
 20
7.3754435093
 30
0.0
 10
-4.3879507891
 20
7.3749422546
 30
0.0
 10
-4.3596711296
 20
7.3742649466
 30
0.0
 10
-4.3352636007
 20
7.3734392346
 30
0.0
 10
-4.3154250685
 20
7.3724865027
 30
0.0
 10
-4.3038487334
 20
7.3716878208
 30
0.0
 10
-4.29898586
 20
7.3712212574
 30
0.0
 11
-4.4869407376
 21
7.3758180692
 31
0.0
 11
-4.4524820604
 21
7.3757135978
 31
0.0
 11
-4.4185574068
 21
7.3753970354
 31
0.0
 11
-4.3868136289
 21
7.3748796051
 31
0.0
 11
-4.358488682
 21
7.374186878
 31
0.0
 11
-4.3337225681
 21
7.3733225044
 31
0.0
 11
-4.313600413
 21
7.3723175289
 31
0.0
 11
-4.29898586
 21
7.3712212574
 31
0.0
  0
SPLINE
  5
5AA
100
AcDbEntity
  8
RACCORDO
100
AcDbSpline
 62
7
  6
CONTINUOUS
 70
0
 71
3
 72
14
 73
10
 74
8
 42
0.0000001
 43
0.0000001
 44
0.0000000001
 12
0.1871908232
 22
0.0179598313
 32
0.0
 13
0.1880504183
 23
0.0
 33
0.0
 40
0.0
 40
0.0
 40
0.0
 40
0.0
 40
0.0779344835
 40
0.1850718979
 40
0.3168514144
 40
0.46752067
 40
0.6363477055
 40
0.8167574643
 40
1.0
 40
1.0
 40
1.0
 40
1.0
 10
4.0415935275
 20
7.3712212574
 30
0.0
 10
4.0464564008
 20
7.3716878208
 30
0.0
 10
4.0580327359
 20
7.3724865027
 30
0.0
 10
4.0778712682
 20
7.3734392346
 30
0.0
 10
4.1022787971
 20
7.3742649466
 30
0.0
 10
4.1305584565
 20
7.3749422546
 30
0.0
 10
4.1618906152
 20
7.3754435093
 30
0.0
 10
4.1952670728
 20
7.3757499859
 30
0.0
 10
4.2180621265
 20
7.3758180692
 30
0.0
 10
4.229548405
 20
7.3758180692
 30
0.0
 11
4.0415935275
 21
7.3712212574
 31
0.0
 11
4.0562080804
 21
7.3723175289
 31
0.0
 11
4.0763302355
 21
7.3733225044
 31
0.0
 11
4.1010963494
 21
7.374186878
 31
0.0
 11
4.1294212964
 21
7.3748796051
 31
0.0
 11
4.1611650742
 21
7.3753970354
 31
0.0
 11
4.1950897279
 21
7.3757135978
 31
0.0
 11
4.229548405
 21
7.3758180692
 31
0.0
  0
SPLINE
  5
5AB
100
AcDbEntity
  8
RACCORDO
100
AcDbSpline
 62
7
  6
CONTINUOUS
 70
0
 71
3
 72
14
 73
10
 74
8
 42
0.0000001
 43
0.0000001
 44
0.0000000001
 12
-0.188024429
 22
0.0
 32
0.0
 13
-0.187164952
 23
0.0179573555
 33
0.0
 40
0.0
 40
0.0
 40
0.0
 40
0.0
 40
0.1833193042
 40
0.363774548
 40
0.5326151459
 40
0.6832748122
 40
0.8150252905
 40
0.9221169628
 40
1.0
 40
1.0
 40
1.0
 40
1.0
 10
4.2242037621
 20
5.7484459658
 30
0.0
 10
4.2127142596
 20
5.7484459658
 30
0.0
 10
4.189914694
 20
5.7485140388
 30
0.0
 10
4.1565343366
 20
5.7488204601
 30
0.0
 10
4.1252034065
 20
5.7493215509
 30
0.0
 10
4.0969292219
 20
5.7499985484
 30
0.0
 10
4.0725303446
 20
5.7508237764
 30
0.0
 10
4.0527024491
 20
5.7517758343
 30
0.0
 10
4.0411337848
 20
5.7525738942
 30
0.0
 10
4.0362747932
 20
5.7530400853
 30
0.0
 11
4.2242037621
 21
5.7484459658
 31
0.0
 11
4.1897354129
 21
5.7485504358
 31
0.0
 11
4.1558068951
 21
5.7488669463
 31
0.0
 11
4.1240649524
 21
5.7493842066
 31
0.0
 11
4.0957457182
 21
5.7500766209
 31
0.0
 11
4.0709884774
 21
5.7509405038
 31
0.0
 11
4.0508776857
 21
5.7519447612
 31
0.0
 11
4.0362747932
 21
5.7530400853
 31
0.0
  0
SPLINE
  5
5AC
100
AcDbEntity
  8
RACCORDO
100
AcDbSpline
 62
253
  6
CONTINUOUS
 70
0
 71
3
 72
15
 73
11
 74
9
 42
0.0000001
 43
0.0000001
 44
0.0000000001
 12
0.2881576673
 22
0.0038542516
 32
0.0
 13
0.0214951096
 23
0.2873806826
 33
0.0
 40
0.0
 40
0.0
 40
0.0
 40
0.0
 40
0.1661012139
 40
0.3273713521
 40
0.4790823685
 40
0.6171102583
 40
0.7383301595
 40
0.8411950579
 40
0.9267168348
 40
1.0
 40
1.0
 40
1.0
 40
1.0
 10
5.5117647578
 20
-6.9984015588
 30
0.0
 10
5.5277192039
 20
-6.9981881602
 30
0.0
 10
5.5591627342
 20
-6.9965033592
 30
0.0
 10
5.6048116315
 20
-6.9902535441
 30
0.0
 10
5.6470993985
 20
-6.9805265951
 30
0.0
 10
5.6845184944
 20
-6.9676782433
 30
0.0
 10
5.7157937311
 20
-6.9521635254
 30
0.0
 10
5.7399109417
 20
-6.9344171409
 30
0.0
 10
5.7561629773
 20
-6.9147721606
 30
0.0
 10
5.761087388
 20
-6.8997670487
 30
0.0
 10
5.7616124645
 20
-6.8927469933
 30
0.0
 11
5.5117647578
 21
-6.9984015588
 31
0.0
 11
5.5595623242
 21
-6.995812804
 31
0.0
 11
5.6055960333
 21
-6.9894207072
 31
0.0
 11
5.6481671335
 21
-6.9794611615
 31
0.0
 11
5.6857046688
 21
-6.9663017082
 31
0.0
 11
5.7168234512
 21
-6.9504279693
 31
0.0
 11
5.7403751713
 21
-6.9324257229
 31
0.0
 11
5.7554907634
 21
-6.9129592846
 31
0.0
 11
5.7616124645
 21
-6.8927469933
 31
0.0
  0
SPLINE
  5
5AD
100
AcDbEntity
  8
RACCORDO
100
AcDbSpline
 62
253
  6
CONTINUOUS
 70
0
 71
3
 72
14
 73
10
 74
8
 42
0.0000001
 43
0.0000001
 44
0.0000000001
 12
0.2004260331
 22
0.0001424279
 32
0.0
 13
0.0795097631
 23
0.183980468
 33
0.0
 40
0.0
 40
0.0
 40
0.0
 40
0.0
 40
0.219626445
 40
0.4285016891
 40
0.6164034558
 40
0.7741463891
 40
0.8940461608
 40
0.9703499162
 40
1.0
 40
1.0
 40
1.0
 40
1.0
 10
9.5085371368
 20
-9.053385928
 30
0.0
 10
9.5232100891
 20
-9.053375501
 30
0.0
 10
9.5518486889
 20
-9.0532374441
 30
0.0
 10
9.5929807929
 20
-9.0526160382
 30
0.0
 10
9.6301580599
 20
-9.0517960057
 30
0.0
 10
9.6608363656
 20
-9.0503041886
 30
0.0
 10
9.685435746
 20
-9.0496332751
 30
0.0
 10
9.6985751209
 20
-9.0468326304
 30
0.0
 10
9.7077208521
 20
-9.0471339579
 30
0.0
 10
9.7085066758
 20
-9.0453156124
 30
0.0
 11
9.5085371368
 21
-9.053385928
 31
0.0
 11
9.5525554085
 21
-9.0531567661
 31
0.0
 11
9.5944149582
 21
-9.0525431372
 31
0.0
 11
9.6320629309
 21
-9.0515751347
 31
0.0
 11
9.6636530136
 21
-9.0503002308
 31
0.0
 11
9.6876359815
 21
-9.0487809488
 31
0.0
 11
9.702835674
 21
-9.0470917965
 31
0.0
 11
9.7085066758
 21
-9.0453156124
 31
0.0
  0
SPLINE
  5
5AE
100
AcDbEntity
  8
RACCORDO
100
AcDbSpline
 62
253
  6
CONTINUOUS
 70
0
 71
3
 72
15
 73
11
 74
9
 42
0.0000001
 43
0.0000001
 44
0.0000000001
 12
-0.0006690231
 22
-0.3122541311
 32
0.0
 13
-0.3122541518
 23
-0.0006592875
 33
0.0
 40
0.0
 40
0.0
 40
0.0
 40
0.0
 40
0.1239311267
 40
0.2485008945
 40
0.3733674625
 40
0.4983911403
 40
0.623641287
 40
0.7490227936
 40
0.8745020714
 40
1.0
 40
1.0
 40
1.0
 40
1.0
 10
9.7085066758
 20
-9.0453156124
 30
0.0
 10
9.7084790382
 20
-9.0582149479
 30
0.0
 10
9.7058671313
 20
-9.0841460654
 30
0.0
 10
9.6944083881
 20
-9.1215320214
 30
0.0
 10
9.6758019383
 20
-9.1560696192
 30
0.0
 10
9.6507702433
 20
-9.1863624623
 30
0.0
 10
9.6202835553
 20
-9.211241181
 30
0.0
 10
9.5855036022
 20
-9.2297523958
 30
0.0
 10
9.5477881892
 20
-9.2411853419
 30
0.0
 10
9.5215995532
 20
-9.243797263
 30
0.0
 10
9.5085371368
 20
-9.2438248428
 30
0.0
 11
9.7085066758
 21
-9.0453156124
 31
0.0
 11
9.704626617
 21
-9.0838186994
 31
0.0
 11
9.6932355861
 21
-9.1210109164
 31
0.0
 11
9.6747467093
 21
-9.1553386959
 31
0.0
 11
9.6498841373
 21
-9.1854371263
 31
0.0
 11
9.6195858856
 21
-9.2101677822
 31
0.0
 11
9.5850276842
 21
-9.2285669727
 31
0.0
 11
9.5475306287
 21
-9.2399319086
 31
0.0
 11
9.5085371368
 21
-9.2438248428
 31
0.0
  0
SPLINE
  5
5AF
100
AcDbEntity
  8
RACCORDO
100
AcDbSpline
 62
253
  6
CONTINUOUS
 70
0
 71
3
 72
15
 73
11
 74
9
 42
0.0000001
 43
0.0000001
 44
0.0000000001
 12
-0.3882348025
 22
-0.0023184634
 32
0.0
 13
-0.0023876319
 23
-0.3882343833
 33
0.0
 40
0.0
 40
0.0
 40
0.0
 40
0.0
 40
0.125729459
 40
0.2514564959
 40
0.3770353051
 40
0.5023420228
 40
0.6272932526
 40
0.7518588458
 40
0.8760669051
 40
1.0
 40
1.0
 40
1.0
 40
1.0
 10
5.4295636578
 20
-6.2941679097
 30
0.0
 10
5.4132928072
 20
-6.2942650761
 30
0.0
 10
5.3806838355
 20
-6.2976105769
 30
0.0
 10
5.3337201296
 20
-6.3118731788
 30
0.0
 10
5.2903848914
 20
-6.3348414334
 30
0.0
 10
5.2523511637
 20
-6.3656453959
 30
0.0
 10
5.2210634676
 20
-6.4031150598
 30
0.0
 10
5.1977205415
 20
-6.4458334074
 30
0.0
 10
5.1832185094
 20
-6.4921488792
 30
0.0
 10
5.1798145866
 20
-6.5243314851
 30
0.0
 10
5.1797159511
 20
-6.540369848
 30
0.0
 11
5.4295636578
 21
-6.2941679097
 31
0.0
 11
5.3810053839
 21
-6.2991523061
 31
0.0
 11
5.3342988865
 21
-6.3133354465
 31
0.0
 11
5.2912253137
 21
-6.3361764376
 31
0.0
 11
5.2534272556
 21
-6.3668042162
 31
0.0
 11
5.2223461031
 21
-6.4040507778
 31
0.0
 11
5.1991670873
 21
-6.4464957278
 31
0.0
 11
5.1847740904
 21
-6.4925204536
 31
0.0
 11
5.1797159511
 21
-6.540369848
 31
0.0
  0
SPLINE
  5
5B0
100
AcDbEntity
  8
RACCORDO
100
AcDbSpline
 62
253
  6
CONTINUOUS
 70
0
 71
3
 72
14
 73
10
 74
8
 42
0.0000001
 43
0.0000001
 44
0.0000000001
 12
0.0619574506
 22
-0.1906092583
 32
0.0
 13
0.2004085935
 23
-0.0026477693
 33
0.0
 40
0.0
 40
0.0
 40
0.0
 40
0.0
 40
0.0296500838
 40
0.1059538392
 40
0.2258536109
 40
0.3835965442
 40
0.5714983109
 40
0.780373555
 40
1.0
 40
1.0
 40
1.0
 40
1.0
 10
-9.9658990084
 20
-9.0453156124
 30
0.0
 10
-9.9652866605
 20
-9.0471994726
 30
0.0
 10
-9.9557548588
 20
-9.0467523329
 30
0.0
 10
-9.9429521036
 20
-9.0496802259
 30
0.0
 10
-9.9181759558
 20
-9.0502835179
 30
0.0
 10
-9.8875694312
 20
-9.0518072396
 30
0.0
 10
-9.850366832
 20
-9.0525946623
 30
0.0
 10
-9.8092435271
 20
-9.0533193475
 30
0.0
 10
-9.780601145
 20
-9.0531920879
 30
0.0
 10
-9.7659294693
 20
-9.053385928
 30
0.0
 11
-9.9658990084
 21
-9.0453156124
 31
0.0
 11
-9.9602280066
 21
-9.0470917965
 31
0.0
 11
-9.945028314
 21
-9.0487809488
 31
0.0
 11
-9.9210453462
 21
-9.0503002308
 31
0.0
 11
-9.8894552635
 21
-9.0515751347
 31
0.0
 11
-9.8518072908
 21
-9.0525431372
 31
0.0
 11
-9.8099477411
 21
-9.0531567661
 31
0.0
 11
-9.7659294693
 21
-9.053385928
 31
0.0
  0
SPLINE
  5
5B1
100
AcDbEntity
  8
RACCORDO
100
AcDbSpline
 62
253
  6
CONTINUOUS
 70
0
 71
3
 72
15
 73
11
 74
9
 42
0.0000001
 43
0.0000001
 44
0.0000000001
 12
-0.3122541466
 22
0.0006592875
 32
0.0
 13
-0.0006690231
 23
0.3122541259
 33
0.0
 40
0.0
 40
0.0
 40
0.0
 40
0.0
 40
0.1253892911
 40
0.2507579262
 40
0.376037153
 40
0.5011716683
 40
0.6261279947
 40
0.7508996291
 40
0.8755081425
 40
1.0
 40
1.0
 40
1.0
 40
1.0
 10
-9.7659294693
 20
-9.2438248428
 30
0.0
 10
-9.778980578
 20
-9.2437972869
 30
0.0
 10
-9.805146216
 20
-9.2411898855
 30
0.0
 10
-9.8428319129
 20
-9.2297764627
 30
0.0
 10
-9.8775889248
 20
-9.2112962657
 30
0.0
 10
-9.9080668435
 20
-9.1864548552
 30
0.0
 10
-9.9331022498
 20
-9.1562031919
 30
0.0
 10
-9.9517324555
 20
-9.1216935549
 30
0.0
 10
-9.9632412266
 20
-9.0842677698
 30
0.0
 10
-9.9658712457
 20
-9.0582733112
 30
0.0
 10
-9.9658990084
 20
-9.0453156124
 30
0.0
 11
-9.7659294693
 21
-9.2438248428
 31
0.0
 11
-9.8048895346
 21
-9.2399385733
 31
0.0
 11
-9.8423564252
 21
-9.2285932284
 31
0.0
 11
-9.8768941937
 21
-9.2102236271
 31
0.0
 11
-9.9071791533
 21
-9.1855337986
 31
0.0
 11
-9.9320506095
 21
-9.1554699996
 31
0.0
 11
-9.9505553445
 21
-9.1211844486
 31
0.0
 11
-9.96198415
 21
-9.0839911658
 31
0.0
 11
-9.9658990084
 21
-9.0453156124
 31
0.0
  0
SPLINE
  5
5B2
100
AcDbEntity
  8
RACCORDO
100
AcDbSpline
 62
253
  6
CONTINUOUS
 70
0
 71
3
 72
13
 73
9
 74
7
 42
0.0000001
 43
0.0000001
 44
0.0000000001
 12
0.0000009478
 22
-0.3537064006
 32
0.0
 13
0.0197326764
 23
-0.3531555455
 33
0.0
 40
0.0
 40
0.0
 40
0.0
 40
0.0
 40
0.1807365394
 40
0.3628821371
 40
0.5409121621
 40
0.7094442518
 40
0.8637208192
 40
1.0
 40
1.0
 40
1.0
 40
1.0
 10
6.9384968987
 20
8.068993266
 30
0.0
 10
6.9384969558
 20
8.0476840424
 30
0.0
 10
6.9386490477
 20
8.0048993051
 30
0.0
 10
6.9393424846
 20
7.9411277922
 30
0.0
 10
6.9405087241
 20
7.8788022395
 30
0.0
 10
6.9421216797
 20
7.8197734735
 30
0.0
 10
6.9441264656
 20
7.7656822955
 30
0.0
 10
6.9457833823
 20
7.73146414
 30
0.0
 10
6.9466797667
 20
7.7154215572
 30
0.0
 11
6.9384968987
 21
8.068993266
 31
0.0
 11
6.9387261291
 21
8.0050660062
 31
0.0
 11
6.93943286
 21
7.9406438189
 31
0.0
 11
6.940622472
 21
7.8776846974
 31
0.0
 11
6.9422684566
 21
7.8180965475
 31
0.0
 11
6.9443144729
 21
7.7635663087
 31
0.0
 11
6.9466797667
 21
7.7154215572
 31
0.0
  0
SPLINE
  5
5B3
100
AcDbEntity
  8
RACCORDO
100
AcDbSpline
 62
253
  6
CONTINUOUS
 70
0
 71
3
 72
13
 73
9
 74
7
 42
0.0000001
 43
0.0000001
 44
0.0000000001
 12
0.0197326329
 22
0.3531555552
 32
0.0
 13
0.0000009482
 23
0.3537064079
 33
0.0
 40
0.0
 40
0.0
 40
0.0
 40
0.0
 40
0.1362791858
 40
0.2905557542
 40
0.4590878453
 40
0.6371178717
 40
0.8192634707
 40
1.0
 40
1.0
 40
1.0
 40
1.0
 10
7.0959279006
 20
7.7154215537
 30
0.0
 10
7.096824283
 20
7.7314641376
 30
0.0
 10
7.0984812037
 20
7.7656822943
 30
0.0
 10
7.1004859867
 20
7.8197734744
 30
0.0
 10
7.102098944
 20
7.878802242
 30
0.0
 10
7.1032651826
 20
7.9411277965
 30
0.0
 10
7.1039586199
 20
8.0048993098
 30
0.0
 10
7.1041107116
 20
8.047684047
 30
0.0
 10
7.1041107687
 20
8.0689932699
 30
0.0
 11
7.0959279006
 21
7.7154215537
 31
0.0
 11
7.0982931949
 21
7.763566308
 31
0.0
 11
7.1003392105
 21
7.8180965483
 31
0.0
 11
7.1019851957
 21
7.8776846999
 31
0.0
 11
7.1031748074
 21
7.9406438232
 31
0.0
 11
7.1038815384
 21
8.0050660123
 31
0.0
 11
7.1041107687
 21
8.0689932699
 31
0.0
  0
SPLINE
  5
5B4
100
AcDbEntity
  8
RACCORDO
100
AcDbSpline
 62
253
  6
CONTINUOUS
 70
0
 71
3
 72
13
 73
9
 74
7
 42
0.0000001
 43
0.0000001
 44
0.0000000001
 12
0.0000009478
 22
-0.3537064006
 32
0.0
 13
0.0197326764
 23
-0.3531555455
 33
0.0
 40
0.0
 40
0.0
 40
0.0
 40
0.0
 40
0.1807365394
 40
0.3628821371
 40
0.5409121621
 40
0.7094442518
 40
0.8637208192
 40
1.0
 40
1.0
 40
1.0
 40
1.0
 10
-7.3615031013
 20
8.068993266
 30
0.0
 10
-7.3615030442
 20
8.0476840424
 30
0.0
 10
-7.3613509523
 20
8.0048993051
 30
0.0
 10
-7.3606575154
 20
7.9411277922
 30
0.0
 10
-7.3594912759
 20
7.8788022395
 30
0.0
 10
-7.3578783203
 20
7.8197734735
 30
0.0
 10
-7.3558735344
 20
7.7656822955
 30
0.0
 10
-7.3542166177
 20
7.73146414
 30
0.0
 10
-7.3533202333
 20
7.7154215572
 30
0.0
 11
-7.3615031013
 21
8.068993266
 31
0.0
 11
-7.3612738709
 21
8.0050660062
 31
0.0
 11
-7.36056714
 21
7.9406438189
 31
0.0
 11
-7.359377528
 21
7.8776846974
 31
0.0
 11
-7.3577315434
 21
7.8180965475
 31
0.0
 11
-7.3556855271
 21
7.7635663087
 31
0.0
 11
-7.3533202333
 21
7.7154215572
 31
0.0
  0
SPLINE
  5
5B5
100
AcDbEntity
  8
RACCORDO
100
AcDbSpline
 62
253
  6
CONTINUOUS
 70
0
 71
3
 72
13
 73
9
 74
7
 42
0.0000001
 43
0.0000001
 44
0.0000000001
 12
0.0197326329
 22
0.3531555552
 32
0.0
 13
0.0000009482
 23
0.3537064079
 33
0.0
 40
0.0
 40
0.0
 40
0.0
 40
0.0
 40
0.1362791858
 40
0.2905557542
 40
0.4590878453
 40
0.6371178717
 40
0.8192634707
 40
1.0
 40
1.0
 40
1.0
 40
1.0
 10
-7.2040720994
 20
7.7154215537
 30
0.0
 10
-7.203175717
 20
7.7314641376
 30
0.0
 10
-7.2015187963
 20
7.7656822943
 30
0.0
 10
-7.1995140133
 20
7.8197734744
 30
0.0
 10
-7.197901056
 20
7.878802242
 30
0.0
 10
-7.1967348174
 20
7.9411277965
 30
0.0
 10
-7.1960413801
 20
8.0048993098
 30
0.0
 10
-7.1958892884
 20
8.047684047
 30
0.0
 10
-7.1958892313
 20
8.0689932699
 30
0.0
 11
-7.2040720994
 21
7.7154215537
 31
0.0
 11
-7.2017068051
 21
7.763566308
 31
0.0
 11
-7.1996607895
 21
7.8180965483
 31
0.0
 11
-7.1980148043
 21
7.8776846999
 31
0.0
 11
-7.1968251926
 21
7.9406438232
 31
0.0
 11
-7.1961184616
 21
8.0050660123
 31
0.0
 11
-7.1958892313
 21
8.0689932699
 31
0.0
  0
SPLINE
  5
5B6
100
AcDbEntity
  8
RACCORDO
100
AcDbSpline
 62
253
  6
CONTINUOUS
 70
0
 71
3
 72
13
 73
9
 74
7
 42
0.0000001
 43
0.0000001
 44
0.0000000001
 12
0.0049371296
 22
-0.3535273384
 32
0.0
 13
0.000000663
 23
-0.3535618111
 33
0.0
 40
0.0
 40
0.0
 40
0.0
 40
0.0
 40
0.1390722399
 40
0.2928914527
 40
0.4588232532
 40
0.6340132458
 40
0.8154446221
 40
1.0
 40
1.0
 40
1.0
 40
1.0
 10
6.9678800192
 20
7.1083221304
 30
0.0
 10
6.9681088917
 20
7.0919335174
 30
0.0
 10
6.968525465
 20
7.0574175477
 30
0.0
 10
6.9690239104
 20
7.0033456647
 30
0.0
 10
6.9694216419
 20
6.9450162238
 30
0.0
 10
6.9697108877
 20
6.8834319129
 30
0.0
 10
6.9698865044
 20
6.8196523082
 30
0.0
 10
6.9699255897
 20
6.7765193177
 30
0.0
 10
6.9699256305
 20
6.7547687398
 30
0.0
 11
6.9678800192
 21
7.1083221304
 31
0.0
 11
6.9684823081
 21
7.0591551862
 31
0.0
 11
6.9689898285
 21
7.0047729549
 31
0.0
 11
6.969394018
 21
6.9461071994
 31
0.0
 11
6.9696877235
 21
6.8841674046
 31
0.0
 11
6.9698659091
 21
6.8200204461
 31
0.0
 11
6.9699256305
 21
6.7547687398
 31
0.0
  0
SPLINE
  5
5B7
100
AcDbEntity
  8
RACCORDO
100
AcDbSpline
 62
253
  6
CONTINUOUS
 70
0
 71
3
 72
13
 73
9
 74
7
 42
0.0000001
 43
0.0000001
 44
0.0000000001
 12
0.000000663
 22
0.3535618111
 32
0.0
 13
0.0049371293
 23
0.3535273384
 33
0.0
 40
0.0
 40
0.0
 40
0.0
 40
0.0
 40
0.184555379
 40
0.3659867553
 40
0.5411767479
 40
0.7071085483
 40
0.8609277611
 40
1.0
 40
1.0
 40
1.0
 40
1.0
 10
7.072682037
 20
6.7547687398
 30
0.0
 10
7.0726820777
 20
6.7765193178
 30
0.0
 10
7.072721163
 20
6.8196523084
 30
0.0
 10
7.0728967797
 20
6.8834319133
 30
0.0
 10
7.0731860255
 20
6.9450162241
 30
0.0
 10
7.073583757
 20
7.0033456651
 30
0.0
 10
7.0740822024
 20
7.057417548
 30
0.0
 10
7.0744987757
 20
7.0919335175
 30
0.0
 10
7.0747276483
 20
7.1083221304
 30
0.0
 11
7.072682037
 21
6.7547687398
 31
0.0
 11
7.0727417583
 21
6.8200204465
 31
0.0
 11
7.072919944
 21
6.884167405
 31
0.0
 11
7.0732136495
 21
6.9461071997
 31
0.0
 11
7.0736178389
 21
7.0047729553
 31
0.0
 11
7.0741253594
 21
7.0591551865
 31
0.0
 11
7.0747276483
 21
7.1083221304
 31
0.0
  0
SPLINE
  5
5B8
100
AcDbEntity
  8
RACCORDO
100
AcDbSpline
 62
253
  6
CONTINUOUS
 70
0
 71
3
 72
17
 73
13
 74
11
 42
0.0000001
 43
0.0000001
 44
0.0000000001
 12
-0.000001509
 22
-0.4998432663
 32
0.0
 13
-0.185506915
 23
-0.4641448862
 33
0.0
 40
0.0
 40
0.0
 40
0.0
 40
0.0
 40
0.1530153495
 40
0.3024422212
 40
0.4447665503
 40
0.5766197167
 40
0.6949031276
 40
0.7968310081
 40
0.8800040106
 40
0.9424699896
 40
0.9827635986
 40
1.0
 40
1.0
 40
1.0
 40
1.0
 10
6.969925647
 20
5.4036505332
 30
0.0
 10
6.9699255701
 20
5.3781559692
 30
0.0
 10
6.9698720466
 20
5.3277647608
 30
0.0
 10
6.9696328818
 20
5.2536603732
 30
0.0
 10
6.9692380774
 20
5.1830834586
 30
0.0
 10
6.9687083583
 20
5.1176937325
 30
0.0
 10
6.9680240223
 20
5.0590452788
 30
0.0
 10
6.9673071471
 20
5.0084822598
 30
0.0
 10
6.9662867044
 20
4.9672992429
 30
0.0
 10
6.9657625005
 20
4.9361958326
 30
0.0
 10
6.9641094246
 20
4.9164882161
 30
0.0
 10
6.9642508343
 20
4.906605861
 30
0.0
 10
6.9631850104
 20
4.9039391318
 30
0.0
 11
6.969925647
 21
5.4036505332
 31
0.0
 11
6.9698434831
 21
5.3271668853
 31
0.0
 11
6.9695988873
 21
5.2524772702
 31
0.0
 11
6.9691974567
 21
5.1813385452
 31
0.0
 11
6.9686487549
 21
5.115434912
 31
0.0
 11
6.9679656005
 21
5.0563156925
 31
0.0
 11
6.9671641043
 21
5.0053740326
 31
0.0
 11
6.9662632233
 21
4.9638103294
 31
0.0
 11
6.9652839377
 21
4.9326024914
 31
0.0
 11
6.9642499349
 21
4.9124885623
 31
0.0
 11
6.9631850104
 21
4.9039391318
 31
0.0
  0
SPLINE
  5
5B9
100
AcDbEntity
  8
RACCORDO
100
AcDbSpline
 62
253
  6
CONTINUOUS
 70
0
 71
3
 72
17
 73
13
 74
11
 42
0.0000001
 43
0.0000001
 44
0.0000000001
 12
-0.1855069271
 22
0.4641448815
 32
0.0
 13
-0.000001509
 23
0.4998432665
 33
0.0
 40
0.0
 40
0.0
 40
0.0
 40
0.0
 40
0.0172364015
 40
0.0575300106
 40
0.1199959897
 40
0.2031689922
 40
0.3050968727
 40
0.4233802836
 40
0.5552334501
 40
0.6975577792
 40
0.8469846509
 40
1.0
 40
1.0
 40
1.0
 40
1.0
 10
7.079422657
 20
4.9039391318
 30
0.0
 10
7.0783568331
 20
4.906605861
 30
0.0
 10
7.078498243
 20
4.9164882162
 30
0.0
 10
7.0768451669
 20
4.9361958327
 30
0.0
 10
7.0763209631
 20
4.967299243
 30
0.0
 10
7.0753005203
 20
5.00848226
 30
0.0
 10
7.0745836451
 20
5.059045279
 30
0.0
 10
7.0738993092
 20
5.1176937327
 30
0.0
 10
7.07336959
 20
5.1830834589
 30
0.0
 10
7.0729747856
 20
5.2536603734
 30
0.0
 10
7.0727356209
 20
5.327764761
 30
0.0
 10
7.0726820974
 20
5.3781559694
 30
0.0
 10
7.0726820204
 20
5.4036505334
 30
0.0
 11
7.079422657
 21
4.9039391318
 31
0.0
 11
7.0783577325
 21
4.9124885624
 31
0.0
 11
7.0773237297
 21
4.9326024915
 31
0.0
 11
7.0763444442
 21
4.9638103296
 31
0.0
 11
7.0754435632
 21
5.0053740328
 31
0.0
 11
7.0746420669
 21
5.0563156927
 31
0.0
 11
7.0739589126
 21
5.1154349122
 31
0.0
 11
7.0734102108
 21
5.1813385455
 31
0.0
 11
7.0730087801
 21
5.2524772704
 31
0.0
 11
7.0727641843
 21
5.3271668856
 31
0.0
 11
7.0726820204
 21
5.4036505334
 31
0.0
  0
SPLINE
  5
5BA
100
AcDbEntity
  8
RACCORDO
100
AcDbSpline
 62
253
  6
CONTINUOUS
 70
0
 71
3
 72
17
 73
13
 74
11
 42
0.0000001
 43
0.0000001
 44
0.0000000001
 12
-0.000001509
 22
-0.4998432663
 32
0.0
 13
-0.185506915
 23
-0.4641448862
 33
0.0
 40
0.0
 40
0.0
 40
0.0
 40
0.0
 40
0.1530153495
 40
0.3024422212
 40
0.4447665503
 40
0.5766197167
 40
0.6949031276
 40
0.7968310081
 40
0.8800040106
 40
0.9424699896
 40
0.9827635986
 40
1.0
 40
1.0
 40
1.0
 40
1.0
 10
-7.330074353
 20
5.4036505332
 30
0.0
 10
-7.3300744299
 20
5.3781559692
 30
0.0
 10
-7.3301279534
 20
5.3277647608
 30
0.0
 10
-7.3303671182
 20
5.2536603732
 30
0.0
 10
-7.3307619226
 20
5.1830834586
 30
0.0
 10
-7.3312916417
 20
5.1176937325
 30
0.0
 10
-7.3319759777
 20
5.0590452788
 30
0.0
 10
-7.3326928529
 20
5.0084822598
 30
0.0
 10
-7.3337132956
 20
4.9672992429
 30
0.0
 10
-7.3342374995
 20
4.9361958326
 30
0.0
 10
-7.3358905754
 20
4.9164882161
 30
0.0
 10
-7.3357491657
 20
4.906605861
 30
0.0
 10
-7.3368149896
 20
4.9039391318
 30
0.0
 11
-7.330074353
 21
5.4036505332
 31
0.0
 11
-7.3301565169
 21
5.3271668853
 31
0.0
 11
-7.3304011127
 21
5.2524772702
 31
0.0
 11
-7.3308025433
 21
5.1813385452
 31
0.0
 11
-7.3313512451
 21
5.115434912
 31
0.0
 11
-7.3320343995
 21
5.0563156925
 31
0.0
 11
-7.3328358957
 21
5.0053740326
 31
0.0
 11
-7.3337367767
 21
4.9638103294
 31
0.0
 11
-7.3347160623
 21
4.9326024914
 31
0.0
 11
-7.3357500651
 21
4.9124885623
 31
0.0
 11
-7.3368149896
 21
4.9039391318
 31
0.0
  0
SPLINE
  5
5BB
100
AcDbEntity
  8
RACCORDO
100
AcDbSpline
 62
253
  6
CONTINUOUS
 70
0
 71
3
 72
17
 73
13
 74
11
 42
0.0000001
 43
0.0000001
 44
0.0000000001
 12
-0.1855069271
 22
0.4641448815
 32
0.0
 13
-0.000001509
 23
0.4998432665
 33
0.0
 40
0.0
 40
0.0
 40
0.0
 40
0.0
 40
0.0172364015
 40
0.0575300106
 40
0.1199959897
 40
0.2031689922
 40
0.3050968727
 40
0.4233802836
 40
0.5552334501
 40
0.6975577792
 40
0.8469846509
 40
1.0
 40
1.0
 40
1.0
 40
1.0
 10
-7.220577343
 20
4.9039391318
 30
0.0
 10
-7.2216431669
 20
4.906605861
 30
0.0
 10
-7.221501757
 20
4.9164882162
 30
0.0
 10
-7.2231548331
 20
4.9361958327
 30
0.0
 10
-7.2236790369
 20
4.967299243
 30
0.0
 10
-7.2246994797
 20
5.00848226
 30
0.0
 10
-7.2254163549
 20
5.059045279
 30
0.0
 10
-7.2261006908
 20
5.1176937327
 30
0.0
 10
-7.22663041
 20
5.1830834589
 30
0.0
 10
-7.2270252144
 20
5.2536603734
 30
0.0
 10
-7.2272643791
 20
5.327764761
 30
0.0
 10
-7.2273179026
 20
5.3781559694
 30
0.0
 10
-7.2273179796
 20
5.4036505334
 30
0.0
 11
-7.220577343
 21
4.9039391318
 31
0.0
 11
-7.2216422675
 21
4.9124885624
 31
0.0
 11
-7.2226762703
 21
4.9326024915
 31
0.0
 11
-7.2236555558
 21
4.9638103296
 31
0.0
 11
-7.2245564368
 21
5.0053740328
 31
0.0
 11
-7.2253579331
 21
5.0563156927
 31
0.0
 11
-7.2260410874
 21
5.1154349122
 31
0.0
 11
-7.2265897892
 21
5.1813385455
 31
0.0
 11
-7.2269912199
 21
5.2524772704
 31
0.0
 11
-7.2272358157
 21
5.3271668856
 31
0.0
 11
-7.2273179796
 21
5.4036505334
 31
0.0
  0
SPLINE
  5
5BC
100
AcDbEntity
  8
RACCORDO
100
AcDbSpline
 62
253
  6
CONTINUOUS
 70
0
 71
3
 72
13
 73
9
 74
7
 42
0.0000001
 43
0.0000001
 44
0.0000000001
 12
0.0049371296
 22
-0.3535273384
 32
0.0
 13
0.000000663
 23
-0.3535618111
 33
0.0
 40
0.0
 40
0.0
 40
0.0
 40
0.0
 40
0.1390722399
 40
0.2928914527
 40
0.4588232532
 40
0.6340132458
 40
0.8154446221
 40
1.0
 40
1.0
 40
1.0
 40
1.0
 10
-7.3321199808
 20
7.1083221304
 30
0.0
 10
-7.3318911083
 20
7.0919335174
 30
0.0
 10
-7.331474535
 20
7.0574175477
 30
0.0
 10
-7.3309760896
 20
7.0033456647
 30
0.0
 10
-7.3305783581
 20
6.9450162238
 30
0.0
 10
-7.3302891123
 20
6.8834319129
 30
0.0
 10
-7.3301134956
 20
6.8196523082
 30
0.0
 10
-7.3300744103
 20
6.7765193177
 30
0.0
 10
-7.3300743695
 20
6.7547687398
 30
0.0
 11
-7.3321199808
 21
7.1083221304
 31
0.0
 11
-7.3315176919
 21
7.0591551862
 31
0.0
 11
-7.3310101715
 21
7.0047729549
 31
0.0
 11
-7.330605982
 21
6.9461071994
 31
0.0
 11
-7.3303122765
 21
6.8841674046
 31
0.0
 11
-7.3301340909
 21
6.8200204461
 31
0.0
 11
-7.3300743695
 21
6.7547687398
 31
0.0
  0
SPLINE
  5
5BD
100
AcDbEntity
  8
RACCORDO
100
AcDbSpline
 62
253
  6
CONTINUOUS
 70
0
 71
3
 72
13
 73
9
 74
7
 42
0.0000001
 43
0.0000001
 44
0.0000000001
 12
0.000000663
 22
0.3535618111
 32
0.0
 13
0.0049371293
 23
0.3535273384
 33
0.0
 40
0.0
 40
0.0
 40
0.0
 40
0.0
 40
0.184555379
 40
0.3659867553
 40
0.5411767479
 40
0.7071085483
 40
0.8609277611
 40
1.0
 40
1.0
 40
1.0
 40
1.0
 10
-7.227317963
 20
6.7547687398
 30
0.0
 10
-7.2273179223
 20
6.7765193178
 30
0.0
 10
-7.227278837
 20
6.8196523084
 30
0.0
 10
-7.2271032203
 20
6.8834319133
 30
0.0
 10
-7.2268139745
 20
6.9450162241
 30
0.0
 10
-7.226416243
 20
7.0033456651
 30
0.0
 10
-7.2259177976
 20
7.057417548
 30
0.0
 10
-7.2255012243
 20
7.0919335175
 30
0.0
 10
-7.2252723517
 20
7.1083221304
 30
0.0
 11
-7.227317963
 21
6.7547687398
 31
0.0
 11
-7.2272582417
 21
6.8200204465
 31
0.0
 11
-7.227080056
 21
6.884167405
 31
0.0
 11
-7.2267863505
 21
6.9461071997
 31
0.0
 11
-7.2263821611
 21
7.0047729553
 31
0.0
 11
-7.2258746406
 21
7.0591551865
 31
0.0
 11
-7.2252723517
 21
7.1083221304
 31
0.0
  0
SPLINE
  5
5BE
100
AcDbEntity
  8
ASSI
100
AcDbSpline
 62
7
  6
CONTINUOUS
 70
0
 71
3
 72
10
 73
6
 74
4
 42
0.0000001
 43
0.0000001
 44
0.0000000001
 12
-0.0095948202
 22
0.4295727449
 32
0.0
 13
-0.4296447263
 23
-0.0065610381
 33
0.0
 40
0.0
 40
0.0
 40
0.0
 40
0.0
 40
0.4724875075
 40
0.7072006687
 40
1.0
 40
1.0
 40
1.0
 40
1.0
 10
-1.4900243348
 20
-2.3775023346
 30
0.0
 10
-1.491535479
 20
-2.3098464161
 30
0.0
 10
-1.513677214
 20
-2.1992137417
 30
0.0
 10
-1.6342399127
 20
-2.1102896272
 30
0.0
 10
-1.7121751078
 20
-2.1012305096
 30
0.0
 10
-1.7541083373
 20
-2.1018708654
 30
0.0
 11
-1.4900243348
 21
-2.3775023346
 31
0.0
 11
-1.5492967114
 21
-2.1833290945
 31
0.0
 11
-1.6300752219
 21
-2.1229481194
 31
0.0
 11
-1.7541083373
 21
-2.1018708654
 31
0.0
  0
SPLINE
  5
5BF
100
AcDbEntity
  8
ASSI
100
AcDbSpline
 62
7
  6
CONTINUOUS
 70
0
 71
3
 72
9
 73
5
 74
3
 42
0.0000001
 43
0.0000001
 44
0.0000000001
 12
-0.3133068914
 22
-0.0047845217
 32
0.0
 13
-0.0361262538
 23
-0.3112658327
 33
0.0
 40
0.0
 40
0.0
 40
0.0
 40
0.0
 40
0.4987528619
 40
1.0
 40
1.0
 40
1.0
 40
1.0
 10
-1.7541083375
 20
-2.1018708576
 30
0.0
 10
-1.806195907
 20
-2.1026662889
 30
0.0
 10
-1.9148337672
 20
-2.1450951238
 30
0.0
 10
-1.9606412684
 20
-2.2503092213
 30
0.0
 10
-1.9666773289
 20
-2.3023162573
 30
0.0
 11
-1.7541083375
 21
-2.1018708576
 31
0.0
 11
-1.898933465
 21
-2.160607406
 31
0.0
 11
-1.9666773289
 21
-2.3023162573
 31
0.0
  0
SPLINE
  5
5C0
100
AcDbEntity
  8
ASSI
100
AcDbSpline
 62
7
  6
CONTINUOUS
 70
0
 71
3
 72
9
 73
5
 74
3
 42
0.0000001
 43
0.0000001
 44
0.0000000001
 12
-0.0321345864
 22
-0.2768734101
 32
0.0
 13
0.0468836161
 23
-0.274760569
 33
0.0
 40
0.0
 40
0.0
 40
0.0
 40
0.0
 40
0.7295958324
 40
1.0
 40
1.0
 40
1.0
 40
1.0
 10
-1.9666773288
 20
-2.3023162573
 30
0.0
 10
-1.9744924155
 20
-2.369651486
 30
0.0
 10
-1.9747936635
 20
-2.4636441747
 30
0.0
 10
-1.960895659
 20
-2.5555175798
 30
0.0
 10
-1.9566698173
 20
-2.5802830474
 30
0.0
 11
-1.9666773288
 21
-2.3023162573
 31
0.0
 11
-1.9673735888
 21
-2.5056767179
 31
0.0
 11
-1.9566698173
 21
-2.5802830474
 31
0.0
  0
SPLINE
  5
5C1
100
AcDbEntity
  8
ASSI
100
AcDbSpline
 62
7
  6
CONTINUOUS
 70
0
 71
3
 72
10
 73
6
 74
4
 42
0.0000001
 43
0.0000001
 44
0.0000000001
 12
-0.1284599377
 22
0.8731819798
 32
0.0
 13
0.2998855628
 23
0.8300707046
 33
0.0
 40
0.0
 40
0.0
 40
0.0
 40
0.0
 40
0.4151262789
 40
0.7045762354
 40
1.0
 40
1.0
 40
1.0
 40
1.0
 10
-2.2263982485
 20
-2.9219178151
 30
0.0
 10
-2.2441739471
 20
-2.8010908864
 30
0.0
 10
-2.2666859411
 20
-2.5944694859
 30
0.0
 10
-2.2667411772
 20
-2.3001669008
 30
0.0
 10
-2.238032441
 20
-2.1279973163
 30
0.0
 10
-2.2085013336
 20
-2.0462564455
 30
0.0
 11
-2.2263982485
 21
-2.9219178151
 31
0.0
 11
-2.2629001391
 21
-2.5573582022
 31
0.0
 11
-2.2597016153
 21
-2.3019152758
 31
0.0
 11
-2.2085013336
 21
-2.0462564455
 31
0.0
  0
SPLINE
  5
5C2
100
AcDbEntity
  8
ASSI
100
AcDbSpline
 62
7
  6
CONTINUOUS
 70
0
 71
3
 72
23
 73
19
 74
17
 42
0.0000001
 43
0.0000001
 44
0.0000000001
 12
0.359969576
 22
0.9978268927
 32
0.0
 13
0.1357483736
 23
-1.0520498955
 33
0.0
 40
0.0
 40
0.0
 40
0.0
 40
0.0
 40
0.079828561
 40
0.1893471136
 40
0.252931641
 40
0.322277794
 40
0.3983621185
 40
0.4395068157
 40
0.4830801905
 40
0.5370931167
 40
0.5873706499
 40
0.6784900216
 40
0.7593486609
 40
0.8310612156
 40
0.8931649411
 40
0.9439081722
 40
0.9806071038
 40
1.0
 40
1.0
 40
1.0
 40
1.0
 10
-2.2085013336
 20
-2.0462564455
 30
0.0
 10
-2.1989227159
 20
-2.0197047505
 30
0.0
 10
-2.1662493457
 20
-1.9604197699
 30
0.0
 10
-2.1065252504
 20
-1.892620131
 30
0.0
 10
-2.0377613844
 20
-1.8409149182
 30
0.0
 10
-1.9721717924
 20
-1.8061438333
 30
0.0
 10
-1.9091693267
 20
-1.785424994
 30
0.0
 10
-1.8532940125
 20
-1.7745913347
 30
0.0
 10
-1.8044551404
 20
-1.7694360617
 30
0.0
 10
-1.7520929792
 20
-1.7684873759
 30
0.0
 10
-1.6831242954
 20
-1.7738788179
 30
0.0
 10
-1.605928306
 20
-1.7913116114
 30
0.0
 10
-1.5266217027
 20
-1.8261700614
 30
0.0
 10
-1.4631238954
 20
-1.8684468395
 30
0.0
 10
-1.4148871222
 20
-1.9125725168
 30
0.0
 10
-1.3803905842
 20
-1.9531526099
 30
0.0
 10
-1.3605992356
 20
-1.9849114878
 30
0.0
 10
-1.3507985831
 20
-2.0028715315
 30
0.0
 10
-1.3499210651
 20
-2.0096722963
 30
0.0
 11
-2.2085013336
 21
-2.0462564455
 31
0.0
 11
-2.1692331252
 21
-1.971231852
 31
0.0
 11
-2.0923880879
 21
-1.8841038963
 31
0.0
 11
-2.0384775558
 21
-1.8435702404
 31
0.0
 11
-1.9734967732
 21
-1.8090936433
 31
0.0
 11
-1.8968870591
 21
-1.7837017382
 31
0.0
 11
-1.8540467649
 21
-1.7753586804
 31
0.0
 11
-1.8080897325
 21
-1.770422158
 31
0.0
 11
-1.7508032069
 21
-1.769414696
 31
0.0
 11
-1.697639531
 21
-1.7736609647
 31
0.0
 11
-1.6034212552
 21
-1.7952355644
 31
0.0
 11
-1.5249159592
 21
-1.829787698
 31
0.0
 11
-1.4616046969
 21
-1.871959106
 31
0.0
 11
-1.4129667202
 21
-1.9163915444
 31
0.0
 11
-1.3784884895
 21
-1.9577267082
 31
0.0
 11
-1.3576460128
 21
-1.9906063806
 31
0.0
 11
-1.3499210651
 21
-2.0096722963
 31
0.0
  0
SPLINE
  5
5C3
100
AcDbEntity
  8
ASSI
100
AcDbSpline
 62
7
  6
CONTINUOUS
 70
0
 71
3
 72
8
 73
4
 74
2
 42
0.0000001
 43
0.0000001
 44
0.0000000001
 12
0.0253486975
 22
0.0635704013
 32
0.0
 13
0.0439790954
 23
0.0534848382
 33
0.0
 40
0.0
 40
0.0
 40
0.0
 40
0.0
 40
1.0
 40
1.0
 40
1.0
 40
1.0
 10
-1.3398763579
 20
-2.0096722963
 30
0.0
 10
-1.3314267921
 20
-1.9884821625
 30
0.0
 10
-1.319260589
 20
-1.9686331846
 30
0.0
 10
-1.3046008906
 20
-1.9508049052
 30
0.0
 11
-1.3398763579
 21
-2.0096722963
 31
0.0
 11
-1.3046008906
 21
-1.9508049052
 31
0.0
  0
SPLINE
  5
5C4
100
AcDbEntity
  8
ASSI
100
AcDbSpline
 62
7
  6
CONTINUOUS
 70
0
 71
3
 72
10
 73
6
 74
4
 42
0.0000001
 43
0.0000001
 44
0.0000000001
 12
0.2161007798
 22
0.2628092995
 32
0.0
 13
0.3244560378
 23
0.0883936536
 33
0.0
 40
0.0
 40
0.0
 40
0.0
 40
0.0
 40
0.0997774862
 40
0.4054370801
 40
1.0
 40
1.0
 40
1.0
 40
1.0
 10
-1.3046008906
 20
-1.9508049052
 30
0.0
 10
-1.2974135597
 20
-1.9420640881
 30
0.0
 10
-1.2657729893
 20
-1.9085202272
 30
0.0
 10
-1.1691935623
 20
-1.8488274154
 30
0.0
 10
-1.0706867737
 20
-1.8226385308
 30
0.0
 10
-1.0063835973
 20
-1.8051200012
 30
0.0
 11
-1.3046008906
 21
-1.9508049052
 31
0.0
 11
-1.2813849397
 21
-1.9261197002
 31
0.0
 11
-1.1957625349
 21
-1.8692487559
 31
0.0
 11
-1.0063835973
 21
-1.8051200012
 31
0.0
  0
SPLINE
  5
5C5
100
AcDbEntity
  8
ASSI
100
AcDbSpline
 62
7
  6
CONTINUOUS
 70
0
 71
3
 72
9
 73
5
 74
3
 42
0.0000001
 43
0.0000001
 44
0.0000000001
 12
0.4589786715
 22
0.125042516
 32
0.0
 13
0.4590762626
 23
0.1246838126
 33
0.0
 40
0.0
 40
0.0
 40
0.0
 40
0.0
 40
0.8019458722
 40
1.0
 40
1.0
 40
1.0
 40
1.0
 10
-1.0063835975
 20
-1.8051200005
 30
0.0
 10
-0.8836915805
 20
-1.771694224
 30
0.0
 10
-0.7300721775
 20
-1.7323560968
 30
0.0
 10
-0.5767027958
 20
-1.6920753018
 30
0.0
 10
-0.5463954796
 20
-1.6838439206
 30
0.0
 11
-1.0063835975
 21
-1.8051200005
 31
0.0
 11
-0.6374634813
 21
-1.7079938807
 31
0.0
 11
-0.5463954796
 21
-1.6838439206
 31
0.0
  0
SPLINE
  5
5C6
100
AcDbEntity
  8
ASSI
100
AcDbSpline
 62
7
  6
CONTINUOUS
 70
0
 71
3
 72
11
 73
7
 74
5
 42
0.0000001
 43
0.0000001
 44
0.0000000001
 12
-0.5175092969
 22
-0.1487860009
 32
0.0
 13
-0.5040440549
 23
-0.1894590043
 33
0.0
 40
0.0
 40
0.0
 40
0.0
 40
0.0
 40
0.1342305347
 40
0.4412509806
 40
0.7775650777
 40
1.0
 40
1.0
 40
1.0
 40
1.0
 10
-0.5463954796
 20
-2.0251472639
 30
0.0
 10
-0.5695506628
 20
-2.0318044721
 30
0.0
 10
-0.6456207242
 20
-2.0538456023
 30
0.0
 10
-0.779664289
 20
-2.0927785828
 30
0.0
 10
-0.9283214264
 20
-2.1378462164
 30
0.0
 10
-1.0246078246
 20
-2.1663064866
 30
0.0
 10
-1.061980158
 20
-2.1803539196
 30
0.0
 11
-0.5463954796
 21
-2.0251472639
 31
0.0
 11
-0.6158320673
 21
-2.0452193502
 31
0.0
 11
-0.7745142212
 21
-2.0916026259
 31
0.0
 11
-0.9480005271
 21
-2.1435476165
 31
0.0
 11
-1.061980158
 21
-2.1803539196
 31
0.0
  0
SPLINE
  5
5C7
100
AcDbEntity
  8
ASSI
100
AcDbSpline
 62
7
  6
CONTINUOUS
 70
0
 71
3
 72
9
 73
5
 74
3
 42
0.0000001
 43
0.0000001
 44
0.0000000001
 12
-0.2438689275
 22
-0.0916651113
 32
0.0
 13
0.0
 23
-0.2604910834
 33
0.0
 40
0.0
 40
0.0
 40
0.0
 40
0.0
 40
0.6438952445
 40
1.0
 40
1.0
 40
1.0
 40
1.0
 10
-1.0619801665
 20
-2.1803538969
 30
0.0
 10
-1.1143221808
 20
-2.2000281399
 30
0.0
 10
-1.1929144357
 20
-2.2584434882
 30
0.0
 10
-1.2116278822
 20
-2.3473464555
 30
0.0
 10
-1.2116278822
 20
-2.37826716
 30
0.0
 11
-1.0619801665
 21
-2.1803538969
 31
0.0
 11
-1.1907067202
 21
-2.2878950698
 31
0.0
 11
-1.2116278822
 21
-2.37826716
 31
0.0
  0
SPLINE
  5
5C8
100
AcDbEntity
  8
ASSI
100
AcDbSpline
 62
253
  6
CONTINUOUS
 70
0
 71
3
 72
15
 73
11
 74
9
 42
0.0000001
 43
0.0000001
 44
0.0000000001
 12
-0.2881576716
 22
0.0038542319
 32
0.0
 13
-0.0214951041
 23
0.2873806871
 33
0.0
 40
0.0
 40
0.0
 40
0.0
 40
0.0
 40
0.1661006305
 40
0.3273703266
 40
0.47908113
 40
0.6171090564
 40
0.7383291943
 40
0.8411944316
 40
0.9267165463
 40
1.0
 40
1.0
 40
1.0
 40
1.0
 10
5.4308429097
 20
-6.9984015588
 30
0.0
 10
5.4148885194
 20
-6.998188162
 30
0.0
 10
5.383445087
 20
-6.9965033726
 30
0.0
 10
5.3377963045
 20
-6.9902535952
 30
0.0
 10
5.2955085881
 20
-6.9805266909
 30
0.0
 10
5.2580894734
 20
-6.9676783756
 30
0.0
 10
5.2268141633
 20
-6.9521636725
 30
0.0
 10
5.2026968541
 20
-6.9344172732
 30
0.0
 10
5.1864447257
 20
-6.9147722465
 30
0.0
 10
5.1815202814
 20
-6.8997670764
 30
0.0
 10
5.1809952029
 20
-6.8927469933
 30
0.0
 11
5.4308429097
 21
-6.9984015588
 31
0.0
 11
5.3830455099
 21
-6.995812823
 31
0.0
 11
5.3370119232
 21
-6.9894207662
 31
0.0
 11
5.2944408745
 21
-6.9794612673
 31
0.0
 11
5.2569033147
 21
-6.9663018503
 31
0.0
 11
5.2257844497
 21
-6.9504281222
 31
0.0
 11
5.2022326235
 21
-6.932425853
 31
0.0
 11
5.1871169423
 21
-6.9129593602
 31
0.0
 11
5.1809952029
 21
-6.8927469933
 31
0.0
  0
SPLINE
  5
5C9
100
AcDbEntity
  8
ASSI
100
AcDbSpline
 62
7
  6
CONTINUOUS
 70
0
 71
3
 72
17
 73
13
 74
11
 42
0.0000001
 43
0.0000001
 44
0.0000000001
 12
-0.3573152673
 22
-0.0104647825
 32
0.0
 13
-0.0148532747
 23
-0.3571597571
 33
0.0
 40
0.0
 40
0.0
 40
0.0
 40
0.0
 40
0.1289111824
 40
0.2505325819
 40
0.3645536477
 40
0.4713211985
 40
0.5715020992
 40
0.6658608772
 40
0.7551733224
 40
0.840186145
 40
0.9215951935
 40
1.0
 40
1.0
 40
1.0
 40
1.0
 10
5.3716411917
 20
-6.03823009
 30
0.0
 10
5.3562872139
 20
-6.0386797659
 30
0.0
 10
5.326463083
 20
-6.0418620867
 30
0.0
 10
5.2843011217
 20
-6.0529185734
 30
0.0
 10
5.2466181911
 20
-6.0689299443
 30
0.0
 10
5.2138063084
 20
-6.0888320068
 30
0.0
 10
5.1859961253
 20
-6.1117360445
 30
0.0
 10
5.1632084214
 20
-6.1368955431
 30
0.0
 10
5.1454124191
 20
-6.1636547928
 30
0.0
 10
5.1325430452
 20
-6.1914113944
 30
0.0
 10
5.1244925701
 20
-6.2195698233
 30
0.0
 10
5.1221816744
 20
-6.2385650396
 30
0.0
 10
5.121793485
 20
-6.2478993868
 30
0.0
 11
5.3716411917
 21
-6.03823009
 31
0.0
 11
5.3258200998
 21
-6.043123875
 31
0.0
 11
5.2837737384
 21
-6.0541805521
 31
0.0
 11
5.2462806699
 21
-6.0701668191
 31
0.0
 11
5.2136798889
 21
-6.0900121011
 31
0.0
 11
5.1860787675
 21
-6.1128296959
 31
0.0
 11
5.163484202
 21
-6.1378740162
 31
0.0
 11
5.1458556751
 21
-6.1644922246
 31
0.0
 11
5.1331190941
 21
-6.1920838065
 31
0.0
 11
5.125157756
 21
-6.2200747891
 31
0.0
 11
5.121793485
 21
-6.2478993868
 31
0.0
  0
SPLINE
  5
5CA
100
AcDbEntity
  8
ASSI
100
AcDbSpline
 62
253
  6
CONTINUOUS
 70
0
 71
3
 72
15
 73
11
 74
9
 42
0.0000001
 43
0.0000001
 44
0.0000000001
 12
0.3882348029
 22
-0.0023184616
 32
0.0
 13
0.0023876314
 23
-0.3882343837
 33
0.0
 40
0.0
 40
0.0
 40
0.0
 40
0.0
 40
0.1257290456
 40
0.2514557317
 40
0.3770343051
 40
0.502340937
 40
0.627292244
 40
0.751858067
 40
0.8760664778
 40
1.0
 40
1.0
 40
1.0
 40
1.0
 10
-5.6869559904
 20
-6.2941679097
 30
0.0
 10
-5.6706851933
 20
-6.2942650757
 30
0.0
 10
-5.6380763212
 20
-6.2976105557
 30
0.0
 10
-5.5911127283
 20
-6.3118730767
 30
0.0
 10
-5.5477775372
 20
-6.3348412308
 30
0.0
 10
-5.5097437847
 20
-6.3656451114
 30
0.0
 10
-5.4784560085
 20
-6.4031147465
 30
0.0
 10
-5.4551129805
 20
-6.4458331374
 30
0.0
 10
-5.4406108641
 20
-6.4921487223
 30
0.0
 10
-5.4372069195
 20
-6.5243314298
 30
0.0
 10
-5.4371082836
 20
-6.540369848
 30
0.0
 11
-5.6869559904
 21
-6.2941679097
 31
0.0
 11
-5.6383978744
 21
-6.2991522741
 31
0.0
 11
-5.5916914944
 21
-6.3133353325
 31
0.0
 11
-5.5486179714
 21
-6.3361762221
 31
0.0
 11
-5.5108198895
 21
-6.3668039185
 31
0.0
 11
-5.4797386568
 21
-6.4040504523
 31
0.0
 11
-5.4565595384
 21
-6.446495448
 31
0.0
 11
-5.4421664567
 21
-6.4925202903
 31
0.0
 11
-5.4371082836
 21
-6.540369848
 31
0.0
  0
SPLINE
  5
5CB
100
AcDbEntity
  8
ASSI
100
AcDbSpline
 62
7
  6
CONTINUOUS
 70
0
 71
3
 72
17
 73
13
 74
11
 42
0.0000001
 43
0.0000001
 44
0.0000000001
 12
-0.0148532747
 22
0.3571597571
 32
0.0
 13
-0.3573152673
 23
0.0104647825
 33
0.0
 40
0.0
 40
0.0
 40
0.0
 40
0.0
 40
0.0784048065
 40
0.159813855
 40
0.2448266776
 40
0.3341391228
 40
0.4284979008
 40
0.5286788015
 40
0.6354463523
 40
0.7494674181
 40
0.8710888176
 40
1.0
 40
1.0
 40
1.0
 40
1.0
 10
-5.3791858176
 20
-6.2478993868
 30
0.0
 10
-5.3795740069
 20
-6.2385650396
 30
0.0
 10
-5.3818849026
 20
-6.2195698233
 30
0.0
 10
-5.3899353777
 20
-6.1914113944
 30
0.0
 10
-5.4028047517
 20
-6.1636547928
 30
0.0
 10
-5.4206007539
 20
-6.1368955431
 30
0.0
 10
-5.4433884578
 20
-6.1117360445
 30
0.0
 10
-5.4711986409
 20
-6.0888320068
 30
0.0
 10
-5.5040105236
 20
-6.0689299443
 30
0.0
 10
-5.5416934542
 20
-6.0529185734
 30
0.0
 10
-5.5838554155
 20
-6.0418620867
 30
0.0
 10
-5.6136795464
 20
-6.0386797659
 30
0.0
 10
-5.6290335243
 20
-6.03823009
 30
0.0
 11
-5.3791858176
 21
-6.2478993868
 31
0.0
 11
-5.3825500885
 21
-6.2200747891
 31
0.0
 11
-5.3905114267
 21
-6.1920838065
 31
0.0
 11
-5.4032480077
 21
-6.1644922246
 31
0.0
 11
-5.4208765346
 21
-6.1378740162
 31
0.0
 11
-5.4434711001
 21
-6.1128296959
 31
0.0
 11
-5.4710722215
 21
-6.0900121011
 31
0.0
 11
-5.5036730024
 21
-6.0701668191
 31
0.0
 11
-5.541166071
 21
-6.0541805521
 31
0.0
 11
-5.5832124323
 21
-6.043123875
 31
0.0
 11
-5.6290335243
 21
-6.03823009
 31
0.0
  0
SPLINE
  5
5CC
100
AcDbEntity
  8
ASSI
100
AcDbSpline
 62
253
  6
CONTINUOUS
 70
0
 71
3
 72
15
 73
11
 74
9
 42
0.0000001
 43
0.0000001
 44
0.0000000001
 12
0.2881576673
 22
0.0038542516
 32
0.0
 13
0.0214951096
 23
0.2873806826
 33
0.0
 40
0.0
 40
0.0
 40
0.0
 40
0.0
 40
0.1661012139
 40
0.3273713521
 40
0.4790823685
 40
0.6171102583
 40
0.7383301595
 40
0.8411950579
 40
0.9267168348
 40
1.0
 40
1.0
 40
1.0
 40
1.0
 10
-5.6882352422
 20
-6.9984015588
 30
0.0
 10
-5.6722807961
 20
-6.9981881602
 30
0.0
 10
-5.6408372658
 20
-6.9965033592
 30
0.0
 10
-5.5951883685
 20
-6.9902535441
 30
0.0
 10
-5.5529006015
 20
-6.9805265951
 30
0.0
 10
-5.5154815056
 20
-6.9676782433
 30
0.0
 10
-5.4842062689
 20
-6.9521635254
 30
0.0
 10
-5.4600890583
 20
-6.9344171409
 30
0.0
 10
-5.4438370227
 20
-6.9147721606
 30
0.0
 10
-5.438912612
 20
-6.8997670487
 30
0.0
 10
-5.4383875355
 20
-6.8927469933
 30
0.0
 11
-5.6882352422
 21
-6.9984015588
 31
0.0
 11
-5.6404376758
 21
-6.995812804
 31
0.0
 11
-5.5944039667
 21
-6.9894207072
 31
0.0
 11
-5.5518328665
 21
-6.9794611615
 31
0.0
 11
-5.5142953312
 21
-6.9663017082
 31
0.0
 11
-5.4831765488
 21
-6.9504279693
 31
0.0
 11
-5.4596248287
 21
-6.9324257229
 31
0.0
 11
-5.4445092366
 21
-6.9129592846
 31
0.0
 11
-5.4383875355
 21
-6.8927469933
 31
0.0
  0
SPLINE
  5
5CD
100
AcDbEntity
  8
ASSI
100
AcDbSpline
 62
253
  6
CONTINUOUS
 70
0
 71
3
 72
15
 73
11
 74
9
 42
0.0000001
 43
0.0000001
 44
0.0000000001
 12
-0.3882348025
 22
-0.0023184634
 32
0.0
 13
-0.0023876319
 23
-0.3882343833
 33
0.0
 40
0.0
 40
0.0
 40
0.0
 40
0.0
 40
0.125729459
 40
0.2514564959
 40
0.3770353051
 40
0.5023420228
 40
0.6272932526
 40
0.7518588458
 40
0.8760669051
 40
1.0
 40
1.0
 40
1.0
 40
1.0
 10
-5.7704363422
 20
-6.2941679097
 30
0.0
 10
-5.7867071928
 20
-6.2942650761
 30
0.0
 10
-5.8193161645
 20
-6.2976105769
 30
0.0
 10
-5.8662798704
 20
-6.3118731788
 30
0.0
 10
-5.9096151086
 20
-6.3348414334
 30
0.0
 10
-5.9476488363
 20
-6.3656453959
 30
0.0
 10
-5.9789365324
 20
-6.4031150598
 30
0.0
 10
-6.0022794585
 20
-6.4458334074
 30
0.0
 10
-6.0167814906
 20
-6.4921488792
 30
0.0
 10
-6.0201854134
 20
-6.5243314851
 30
0.0
 10
-6.0202840489
 20
-6.540369848
 30
0.0
 11
-5.7704363422
 21
-6.2941679097
 31
0.0
 11
-5.8189946161
 21
-6.2991523061
 31
0.0
 11
-5.8657011135
 21
-6.3133354465
 31
0.0
 11
-5.9087746863
 21
-6.3361764376
 31
0.0
 11
-5.9465727444
 21
-6.3668042162
 31
0.0
 11
-5.9776538969
 21
-6.4040507778
 31
0.0
 11
-6.0008329127
 21
-6.4464957278
 31
0.0
 11
-6.0152259096
 21
-6.4925204536
 31
0.0
 11
-6.0202840489
 21
-6.540369848
 31
0.0
  0
SPLINE
  5
5CE
100
AcDbEntity
  8
ASSI
100
AcDbSpline
 62
253
  6
CONTINUOUS
 70
0
 71
3
 72
9
 73
5
 74
3
 42
0.0000001
 43
0.0000001
 44
0.0000000001
 12
-0.0042345483
 22
6.0071907318
 32
0.0
 13
-0.0029682127
 23
6.007191491
 33
0.0
 40
0.0
 40
0.0
 40
0.0
 40
0.0
 40
0.4999497374
 40
1.0
 40
1.0
 40
1.0
 40
1.0
 10
9.7085066762
 20
-9.0453156155
 30
0.0
 10
9.7078009891
 20
-8.0442178059
 30
0.0
 10
9.706495058
 20
-6.0418208195
 30
0.0
 10
9.7054001771
 20
-4.0394237066
 30
0.0
 10
9.7049054252
 20
-3.038124479
 30
0.0
 11
9.7085066762
 21
-9.0453156155
 31
0.0
 11
9.7065479412
 21
-6.0420220793
 31
0.0
 11
9.7049054252
 21
-3.038124479
 31
0.0
  0
SPLINE
  5
5CF
100
AcDbEntity
  8
ASSI
100
AcDbSpline
 62
253
  6
CONTINUOUS
 70
0
 71
3
 72
15
 73
11
 74
9
 42
0.0000001
 43
0.0000001
 44
0.0000000001
 12
-0.3882348025
 22
-0.0023184634
 32
0.0
 13
-0.0023876319
 23
-0.3882343833
 33
0.0
 40
0.0
 40
0.0
 40
0.0
 40
0.0
 40
0.125729459
 40
0.2514564959
 40
0.3770353051
 40
0.5023420228
 40
0.6272932526
 40
0.7518588458
 40
0.8760669051
 40
1.0
 40
1.0
 40
1.0
 40
1.0
 10
5.4295636578
 20
-6.2941679097
 30
0.0
 10
5.4132928072
 20
-6.2942650761
 30
0.0
 10
5.3806838355
 20
-6.2976105769
 30
0.0
 10
5.3337201296
 20
-6.3118731788
 30
0.0
 10
5.2903848914
 20
-6.3348414334
 30
0.0
 10
5.2523511637
 20
-6.3656453959
 30
0.0
 10
5.2210634676
 20
-6.4031150598
 30
0.0
 10
5.1977205415
 20
-6.4458334074
 30
0.0
 10
5.1832185094
 20
-6.4921488792
 30
0.0
 10
5.1798145866
 20
-6.5243314851
 30
0.0
 10
5.1797159511
 20
-6.540369848
 30
0.0
 11
5.4295636578
 21
-6.2941679097
 31
0.0
 11
5.3810053839
 21
-6.2991523061
 31
0.0
 11
5.3342988865
 21
-6.3133354465
 31
0.0
 11
5.2912253137
 21
-6.3361764376
 31
0.0
 11
5.2534272556
 21
-6.3668042162
 31
0.0
 11
5.2223461031
 21
-6.4040507778
 31
0.0
 11
5.1991670873
 21
-6.4464957278
 31
0.0
 11
5.1847740904
 21
-6.4925204536
 31
0.0
 11
5.1797159511
 21
-6.540369848
 31
0.0
  0
SPLINE
  5
5D0
100
AcDbEntity
  8
ASSI
100
AcDbSpline
 62
253
  6
CONTINUOUS
 70
0
 71
3
 72
15
 73
11
 74
9
 42
0.0000001
 43
0.0000001
 44
0.0000000001
 12
-0.2881576716
 22
0.0038542319
 32
0.0
 13
-0.0214951041
 23
0.2873806871
 33
0.0
 40
0.0
 40
0.0
 40
0.0
 40
0.0
 40
0.1661006305
 40
0.3273703266
 40
0.47908113
 40
0.6171090564
 40
0.7383291943
 40
0.8411944316
 40
0.9267165463
 40
1.0
 40
1.0
 40
1.0
 40
1.0
 10
-5.7691570903
 20
-6.9984015588
 30
0.0
 10
-5.7851114806
 20
-6.998188162
 30
0.0
 10
-5.816554913
 20
-6.9965033726
 30
0.0
 10
-5.8622036955
 20
-6.9902535952
 30
0.0
 10
-5.9044914119
 20
-6.9805266909
 30
0.0
 10
-5.9419105266
 20
-6.9676783756
 30
0.0
 10
-5.9731858367
 20
-6.9521636725
 30
0.0
 10
-5.9973031459
 20
-6.9344172732
 30
0.0
 10
-6.0135552743
 20
-6.9147722465
 30
0.0
 10
-6.0184797186
 20
-6.8997670764
 30
0.0
 10
-6.0190047971
 20
-6.8927469933
 30
0.0
 11
-5.7691570903
 21
-6.9984015588
 31
0.0
 11
-5.8169544901
 21
-6.995812823
 31
0.0
 11
-5.8629880768
 21
-6.9894207662
 31
0.0
 11
-5.9055591255
 21
-6.9794612673
 31
0.0
 11
-5.9430966853
 21
-6.9663018503
 31
0.0
 11
-5.9742155503
 21
-6.9504281222
 31
0.0
 11
-5.9977673765
 21
-6.932425853
 31
0.0
 11
-6.0128830577
 21
-6.9129593602
 31
0.0
 11
-6.0190047971
 21
-6.8927469933
 31
0.0
  0
SPLINE
  5
5D1
100
AcDbEntity
  8
ASSI
100
AcDbSpline
 62
7
  6
CONTINUOUS
 70
0
 71
3
 72
17
 73
13
 74
11
 42
0.0000001
 43
0.0000001
 44
0.0000000001
 12
0.0148532747
 22
0.3571597571
 32
0.0
 13
0.3573152673
 23
0.0104647825
 33
0.0
 40
0.0
 40
0.0
 40
0.0
 40
0.0
 40
0.0784048065
 40
0.159813855
 40
0.2448266776
 40
0.3341391228
 40
0.4284979008
 40
0.5286788015
 40
0.6354463523
 40
0.7494674181
 40
0.8710888176
 40
1.0
 40
1.0
 40
1.0
 40
1.0
 10
-6.078206515
 20
-6.2478993868
 30
0.0
 10
-6.0778183256
 20
-6.2385650396
 30
0.0
 10
-6.0755074299
 20
-6.2195698233
 30
0.0
 10
-6.0674569548
 20
-6.1914113944
 30
0.0
 10
-6.0545875809
 20
-6.1636547928
 30
0.0
 10
-6.0367915786
 20
-6.1368955431
 30
0.0
 10
-6.0140038747
 20
-6.1117360445
 30
0.0
 10
-5.9861936916
 20
-6.0888320068
 30
0.0
 10
-5.9533818089
 20
-6.0689299443
 30
0.0
 10
-5.9156988783
 20
-6.0529185734
 30
0.0
 10
-5.873536917
 20
-6.0418620867
 30
0.0
 10
-5.8437127861
 20
-6.0386797659
 30
0.0
 10
-5.8283588083
 20
-6.03823009
 30
0.0
 11
-6.078206515
 21
-6.2478993868
 31
0.0
 11
-6.074842244
 21
-6.2200747891
 31
0.0
 11
-6.0668809059
 21
-6.1920838065
 31
0.0
 11
-6.0541443249
 21
-6.1644922246
 31
0.0
 11
-6.036515798
 21
-6.1378740162
 31
0.0
 11
-6.0139212325
 21
-6.1128296959
 31
0.0
 11
-5.9863201111
 21
-6.0900121011
 31
0.0
 11
-5.9537193301
 21
-6.0701668191
 31
0.0
 11
-5.9162262616
 21
-6.0541805521
 31
0.0
 11
-5.8741799002
 21
-6.043123875
 31
0.0
 11
-5.8283588083
 21
-6.03823009
 31
0.0
  0
SPLINE
  5
5D2
100
AcDbEntity
  8
ASSI
100
AcDbSpline
 62
253
  6
CONTINUOUS
 70
0
 71
3
 72
15
 73
11
 74
9
 42
0.0000001
 43
0.0000001
 44
0.0000000001
 12
0.00000131
 22
0.2954494977
 32
0.0
 13
0.00976487
 23
0.2952880848
 33
0.0
 40
0.0
 40
0.0
 40
0.0
 40
0.0
 40
0.1762543538
 40
0.3472428692
 40
0.5076801248
 40
0.6526883366
 40
0.7778610396
 40
0.8793945376
 40
0.9542028934
 40
1.0
 40
1.0
 40
1.0
 40
1.0
 10
5.5116011676
 20
-6.5896102356
 30
0.0
 10
5.5116012445
 20
-6.5722521488
 30
0.0
 10
5.5116182869
 20
-6.5380545698
 30
0.0
 10
5.5116948113
 20
-6.4880566704
 30
0.0
 10
5.5118200806
 20
-6.4411361079
 30
0.0
 10
5.5119886793
 20
-6.3987277598
 30
0.0
 10
5.5121972046
 20
-6.3621207986
 30
0.0
 10
5.5124297867
 20
-6.3324273566
 30
0.0
 10
5.5126933447
 20
-6.3105523692
 30
0.0
 10
5.512894942
 20
-6.2986756897
 30
0.0
 10
5.5130440096
 20
-6.2941679097
 30
0.0
 11
5.5116011676
 21
-6.5896102356
 31
0.0
 11
5.5116276397
 21
-6.537535982
 31
0.0
 11
5.5117062994
 21
-6.4870175723
 31
0.0
 11
5.5118349742
 21
-6.4396166403
 31
0.0
 11
5.5120096336
 21
-6.396774393
 31
0.0
 11
5.5122250068
 21
-6.3597928079
 31
0.0
 11
5.5124746675
 21
-6.3297958259
 31
0.0
 11
5.5127502742
 21
-6.3076954532
 31
0.0
 11
5.5130440096
 21
-6.2941679097
 31
0.0
  0
SPLINE
  5
5D3
100
AcDbEntity
  8
ASSI
100
AcDbSpline
 62
253
  6
CONTINUOUS
 70
0
 71
3
 72
15
 73
11
 74
9
 42
0.0000001
 43
0.0000001
 44
0.0000000001
 12
0.0097648701
 22
-0.2952880848
 32
0.0
 13
0.00000131
 23
-0.2954494977
 33
0.0
 40
0.0
 40
0.0
 40
0.0
 40
0.0
 40
0.0457971067
 40
0.1206054626
 40
0.2221389606
 40
0.3473116637
 40
0.4923198754
 40
0.652757131
 40
0.8237456464
 40
1.0
 40
1.0
 40
1.0
 40
1.0
 10
5.4295636578
 20
-6.2941679097
 30
0.0
 10
5.4297127254
 20
-6.2986756897
 30
0.0
 10
5.4299143227
 20
-6.3105523692
 30
0.0
 10
5.4301778808
 20
-6.3324273566
 30
0.0
 10
5.4304104628
 20
-6.3621207987
 30
0.0
 10
5.4306189882
 20
-6.3987277599
 30
0.0
 10
5.4307875869
 20
-6.441136108
 30
0.0
 10
5.4309128561
 20
-6.4880566705
 30
0.0
 10
5.4309893805
 20
-6.5380545698
 30
0.0
 10
5.4310064229
 20
-6.5722521489
 30
0.0
 10
5.4310064999
 20
-6.5896102356
 30
0.0
 11
5.4295636578
 21
-6.2941679097
 31
0.0
 11
5.4298573933
 21
-6.3076954532
 31
0.0
 11
5.4301329999
 21
-6.3297958259
 31
0.0
 11
5.4303826606
 21
-6.359792808
 31
0.0
 11
5.4305980338
 21
-6.3967743931
 31
0.0
 11
5.4307726932
 21
-6.4396166404
 31
0.0
 11
5.4309013681
 21
-6.4870175723
 31
0.0
 11
5.4309800277
 21
-6.5375359821
 31
0.0
 11
5.4310064999
 21
-6.5896102356
 31
0.0
  0
SPLINE
  5
5D4
100
AcDbEntity
  8
ASSI
100
AcDbSpline
 62
253
  6
CONTINUOUS
 70
0
 71
3
 72
16
 73
12
 74
10
 42
0.0000001
 43
0.0000001
 44
0.0000000001
 12
0.0000012478
 22
0.2999696776
 32
0.0
 13
0.0949852704
 23
0.2845340153
 33
0.0
 40
0.0
 40
0.0
 40
0.0
 40
0.0
 40
0.1716903986
 40
0.3383600475
 40
0.4949773352
 40
0.6368827949
 40
0.7598615728
 40
0.8602569174
 40
0.9350874649
 40
0.9821296043
 40
1.0
 40
1.0
 40
1.0
 40
1.0
 10
5.5709664757
 20
-4.862382265
 30
0.0
 10
5.5709665471
 20
-4.8452149605
 30
0.0
 10
5.5709827764
 20
-4.8113822727
 30
0.0
 10
5.5710596333
 20
-4.7618900224
 30
0.0
 10
5.5711758128
 20
-4.7153741969
 30
0.0
 10
5.5713617476
 20
-4.6732332202
 30
0.0
 10
5.5715040761
 20
-4.6366956861
 30
0.0
 10
5.5719042589
 20
-4.606917019
 30
0.0
 10
5.5717527048
 20
-4.5846028566
 30
0.0
 10
5.5727519436
 20
-4.5708020499
 30
0.0
 10
5.5721163093
 20
-4.5641226394
 30
0.0
 10
5.5726821175
 20
-4.5624277276
 30
0.0
 11
5.5709664757
 21
-4.862382265
 31
0.0
 11
5.5709923659
 21
-4.810880358
 31
0.0
 11
5.5710693117
 21
-4.7608845764
 31
0.0
 11
5.5711952123
 21
-4.7139043078
 31
0.0
 11
5.5713661828
 21
-4.6713373161
 31
0.0
 11
5.5715773541
 21
-4.6344480162
 31
0.0
 11
5.571822153
 21
-4.604333452
 31
0.0
 11
5.5720936276
 21
-4.5818881985
 31
0.0
 11
5.5723829358
 21
-4.5677799491
 31
0.0
 11
5.5726821175
 21
-4.5624277276
 31
0.0
  0
SPLINE
  5
5D5
100
AcDbEntity
  8
ASSI
100
AcDbSpline
 62
253
  6
CONTINUOUS
 70
0
 71
3
 72
16
 73
12
 74
10
 42
0.0000001
 43
0.0000001
 44
0.0000000001
 12
0.0949852718
 22
-0.2845340149
 32
0.0
 13
0.0000012478
 23
-0.2999696776
 33
0.0
 40
0.0
 40
0.0
 40
0.0
 40
0.0
 40
0.0178703958
 40
0.0649125353
 40
0.1397430829
 40
0.2401384275
 40
0.3631172055
 40
0.5050226653
 40
0.661639953
 40
0.8283096018
 40
1.0
 40
1.0
 40
1.0
 40
1.0
 10
5.36992555
 20
-4.5624277276
 30
0.0
 10
5.3704913581
 20
-4.5641226395
 30
0.0
 10
5.3698557238
 20
-4.57080205
 30
0.0
 10
5.3708549626
 20
-4.5846028567
 30
0.0
 10
5.3707034085
 20
-4.6069170191
 30
0.0
 10
5.3711035914
 20
-4.6366956862
 30
0.0
 10
5.3712459198
 20
-4.6732332203
 30
0.0
 10
5.3714318546
 20
-4.7153741971
 30
0.0
 10
5.3715480342
 20
-4.7618900225
 30
0.0
 10
5.371624891
 20
-4.8113822728
 30
0.0
 10
5.3716411203
 20
-4.8452149606
 30
0.0
 10
5.3716411917
 20
-4.862382265
 30
0.0
 11
5.36992555
 21
-4.5624277276
 31
0.0
 11
5.3702247316
 21
-4.5677799491
 31
0.0
 11
5.3705140399
 21
-4.5818881985
 31
0.0
 11
5.3707855144
 21
-4.6043334521
 31
0.0
 11
5.3710303133
 21
-4.6344480163
 31
0.0
 11
5.3712414846
 21
-4.6713373162
 31
0.0
 11
5.3714124552
 21
-4.7139043079
 31
0.0
 11
5.3715383557
 21
-4.7608845765
 31
0.0
 11
5.3716153016
 21
-4.8108803581
 31
0.0
 11
5.3716411917
 21
-4.862382265
 31
0.0
  0
SPLINE
  5
5D6
100
AcDbEntity
  8
ASSI
100
AcDbSpline
 62
253
  6
CONTINUOUS
 70
0
 71
3
 72
9
 73
5
 74
3
 42
0.0000001
 43
0.0000001
 44
0.0000000001
 12
-0.0004118646
 22
-8.9925039188
 32
0.0
 13
-0.0032451975
 23
-8.9925033427
 33
0.0
 40
0.0
 40
0.0
 40
0.0
 40
0.0
 40
0.5000414317
 40
1.0
 40
1.0
 40
1.0
 40
1.0
 10
-9.9588449221
 20
9.7543792354
 30
0.0
 10
-9.9589135719
 20
8.2555043906
 30
0.0
 10
-9.9592869302
 20
5.2580030905
 30
0.0
 10
-9.9601324825
 20
2.2605018864
 30
0.0
 10
-9.960673304
 20
0.761875521
 30
0.0
 11
-9.9588449221
 21
9.7543792354
 31
0.0
 11
-9.9594050292
 21
5.2577547312
 31
0.0
 11
-9.960673304
 21
0.761875521
 31
0.0
  0
SPLINE
  5
5D7
100
AcDbEntity
  8
ASSI
100
AcDbSpline
 62
253
  6
CONTINUOUS
 70
0
 71
3
 72
9
 73
5
 74
3
 42
0.0000001
 43
0.0000001
 44
0.0000000001
 12
-0.0032451975
 22
8.9925033427
 32
0.0
 13
-0.0004118646
 23
8.9925039188
 33
0.0
 40
0.0
 40
0.0
 40
0.0
 40
0.0
 40
0.4999585687
 40
1.0
 40
1.0
 40
1.0
 40
1.0
 10
9.7032809714
 20
0.761875521
 30
0.0
 10
9.70274015
 20
2.2605018878
 30
0.0
 10
9.7018945976
 20
5.2580030919
 30
0.0
 10
9.7015212393
 20
8.255504392
 30
0.0
 10
9.7014525895
 20
9.7543792354
 30
0.0
 11
9.7032809714
 21
0.761875521
 31
0.0
 11
9.7020126966
 21
5.2577547354
 31
0.0
 11
9.7014525895
 21
9.7543792354
 31
0.0
  0
SPLINE
  5
5D8
100
AcDbEntity
  8
ASSI
100
AcDbSpline
 62
253
  6
CONTINUOUS
 70
0
 71
3
 72
9
 73
5
 74
3
 42
0.0000001
 43
0.0000001
 44
0.0000000001
 12
-0.0029682127
 22
-6.007191491
 32
0.0
 13
-0.0042345483
 23
-6.0071907318
 33
0.0
 40
0.0
 40
0.0
 40
0.0
 40
0.0
 40
0.5000502626
 40
1.0
 40
1.0
 40
1.0
 40
1.0
 10
-9.9622977578
 20
-3.038124479
 30
0.0
 10
-9.9627925097
 20
-4.0394237066
 30
0.0
 10
-9.9638873905
 20
-6.0418208195
 30
0.0
 10
-9.9651933217
 20
-8.0442178059
 30
0.0
 10
-9.9658990088
 20
-9.0453156155
 30
0.0
 11
-9.9622977578
 21
-3.038124479
 31
0.0
 11
-9.9639402738
 21
-6.0420220793
 31
0.0
 11
-9.9658990088
 21
-9.0453156155
 31
0.0
  0
SPLINE
  5
5D9
100
AcDbEntity
  8
ASSI
100
AcDbSpline
 62
253
  6
CONTINUOUS
 70
0
 71
3
 72
15
 73
11
 74
9
 42
0.0000001
 43
0.0000001
 44
0.0000000001
 12
0.00000131
 22
0.2954494977
 32
0.0
 13
0.00976487
 23
0.2952880848
 33
0.0
 40
0.0
 40
0.0
 40
0.0
 40
0.0
 40
0.1762543538
 40
0.3472428692
 40
0.5076801248
 40
0.6526883366
 40
0.7778610396
 40
0.8793945376
 40
0.9542028934
 40
1.0
 40
1.0
 40
1.0
 40
1.0
 10
-5.6883988324
 20
-6.5896102356
 30
0.0
 10
-5.6883987555
 20
-6.5722521488
 30
0.0
 10
-5.6883817131
 20
-6.5380545698
 30
0.0
 10
-5.6883051887
 20
-6.4880566704
 30
0.0
 10
-5.6881799194
 20
-6.4411361079
 30
0.0
 10
-5.6880113207
 20
-6.3987277598
 30
0.0
 10
-5.6878027954
 20
-6.3621207986
 30
0.0
 10
-5.6875702133
 20
-6.3324273566
 30
0.0
 10
-5.6873066553
 20
-6.3105523692
 30
0.0
 10
-5.687105058
 20
-6.2986756897
 30
0.0
 10
-5.6869559904
 20
-6.2941679097
 30
0.0
 11
-5.6883988324
 21
-6.5896102356
 31
0.0
 11
-5.6883723603
 21
-6.537535982
 31
0.0
 11
-5.6882937006
 21
-6.4870175723
 31
0.0
 11
-5.6881650258
 21
-6.4396166403
 31
0.0
 11
-5.6879903664
 21
-6.396774393
 31
0.0
 11
-5.6877749932
 21
-6.3597928079
 31
0.0
 11
-5.6875253325
 21
-6.3297958259
 31
0.0
 11
-5.6872497258
 21
-6.3076954532
 31
0.0
 11
-5.6869559904
 21
-6.2941679097
 31
0.0
  0
SPLINE
  5
5DA
100
AcDbEntity
  8
ASSI
100
AcDbSpline
 62
253
  6
CONTINUOUS
 70
0
 71
3
 72
15
 73
11
 74
9
 42
0.0000001
 43
0.0000001
 44
0.0000000001
 12
0.0097648701
 22
-0.2952880848
 32
0.0
 13
0.00000131
 23
-0.2954494977
 33
0.0
 40
0.0
 40
0.0
 40
0.0
 40
0.0
 40
0.0457971067
 40
0.1206054626
 40
0.2221389606
 40
0.3473116637
 40
0.4923198754
 40
0.652757131
 40
0.8237456464
 40
1.0
 40
1.0
 40
1.0
 40
1.0
 10
-5.7704363422
 20
-6.2941679097
 30
0.0
 10
-5.7702872746
 20
-6.2986756897
 30
0.0
 10
-5.7700856773
 20
-6.3105523692
 30
0.0
 10
-5.7698221192
 20
-6.3324273566
 30
0.0
 10
-5.7695895372
 20
-6.3621207987
 30
0.0
 10
-5.7693810118
 20
-6.3987277599
 30
0.0
 10
-5.7692124131
 20
-6.441136108
 30
0.0
 10
-5.7690871439
 20
-6.4880566705
 30
0.0
 10
-5.7690106195
 20
-6.5380545698
 30
0.0
 10
-5.7689935771
 20
-6.5722521489
 30
0.0
 10
-5.7689935001
 20
-6.5896102356
 30
0.0
 11
-5.7704363422
 21
-6.2941679097
 31
0.0
 11
-5.7701426067
 21
-6.3076954532
 31
0.0
 11
-5.7698670001
 21
-6.3297958259
 31
0.0
 11
-5.7696173394
 21
-6.359792808
 31
0.0
 11
-5.7694019662
 21
-6.3967743931
 31
0.0
 11
-5.7692273068
 21
-6.4396166404
 31
0.0
 11
-5.7690986319
 21
-6.4870175723
 31
0.0
 11
-5.7690199723
 21
-6.5375359821
 31
0.0
 11
-5.7689935001
 21
-6.5896102356
 31
0.0
  0
SPLINE
  5
5DB
100
AcDbEntity
  8
ASSI
100
AcDbSpline
 62
253
  6
CONTINUOUS
 70
0
 71
3
 72
16
 73
12
 74
10
 42
0.0000001
 43
0.0000001
 44
0.0000000001
 12
0.0000012478
 22
0.2999696776
 32
0.0
 13
0.0949852704
 23
0.2845340153
 33
0.0
 40
0.0
 40
0.0
 40
0.0
 40
0.0
 40
0.1716903986
 40
0.3383600475
 40
0.4949773352
 40
0.6368827949
 40
0.7598615728
 40
0.8602569174
 40
0.9350874649
 40
0.9821296043
 40
1.0
 40
1.0
 40
1.0
 40
1.0
 10
-5.6290335243
 20
-4.862382265
 30
0.0
 10
-5.6290334529
 20
-4.8452149605
 30
0.0
 10
-5.6290172236
 20
-4.8113822727
 30
0.0
 10
-5.6289403667
 20
-4.7618900224
 30
0.0
 10
-5.6288241872
 20
-4.7153741969
 30
0.0
 10
-5.6286382524
 20
-4.6732332202
 30
0.0
 10
-5.6284959239
 20
-4.6366956861
 30
0.0
 10
-5.6280957411
 20
-4.606917019
 30
0.0
 10
-5.6282472952
 20
-4.5846028566
 30
0.0
 10
-5.6272480564
 20
-4.5708020499
 30
0.0
 10
-5.6278836907
 20
-4.5641226394
 30
0.0
 10
-5.6273178825
 20
-4.5624277276
 30
0.0
 11
-5.6290335243
 21
-4.862382265
 31
0.0
 11
-5.6290076341
 21
-4.810880358
 31
0.0
 11
-5.6289306883
 21
-4.7608845764
 31
0.0
 11
-5.6288047877
 21
-4.7139043078
 31
0.0
 11
-5.6286338172
 21
-4.6713373161
 31
0.0
 11
-5.6284226459
 21
-4.6344480162
 31
0.0
 11
-5.628177847
 21
-4.604333452
 31
0.0
 11
-5.6279063724
 21
-4.5818881985
 31
0.0
 11
-5.6276170642
 21
-4.5677799491
 31
0.0
 11
-5.6273178825
 21
-4.5624277276
 31
0.0
  0
SPLINE
  5
5DC
100
AcDbEntity
  8
ASSI
100
AcDbSpline
 62
253
  6
CONTINUOUS
 70
0
 71
3
 72
9
 73
5
 74
3
 42
0.0000001
 43
0.0000001
 44
0.0000000001
 12
-0.0043623264
 22
-1.6181841037
 32
0.0
 13
-0.0062751532
 23
-1.6181778165
 33
0.0
 40
0.0
 40
0.0
 40
0.0
 40
0.0
 40
0.5000111748
 40
1.0
 40
1.0
 40
1.0
 40
1.0
 10
4.0415935275
 20
7.3712212574
 30
0.0
 10
4.0408664568
 20
7.1015178791
 30
0.0
 10
4.0392529283
 20
6.5621235959
 30
0.0
 10
4.0373206287
 20
6.0227303604
 30
0.0
 10
4.0362747932
 20
5.7530400853
 30
0.0
 11
4.0415935275
 21
7.3712212574
 31
0.0
 11
4.0391731959
 21
6.5621118026
 31
0.0
 11
4.0362747932
 21
5.7530400853
 31
0.0
  0
SPLINE
  5
5DD
100
AcDbEntity
  8
ASSI
100
AcDbSpline
 62
253
  6
CONTINUOUS
 70
0
 71
3
 72
9
 73
5
 74
3
 42
0.0000001
 43
0.0000001
 44
0.0000000001
 12
-0.0062751532
 22
1.6181778165
 32
0.0
 13
-0.0043623264
 23
1.6181841037
 33
0.0
 40
0.0
 40
0.0
 40
0.0
 40
0.0
 40
0.4999892045
 40
1.0
 40
1.0
 40
1.0
 40
1.0
 10
-4.2936671257
 20
5.7530400853
 30
0.0
 10
-4.294712962
 20
6.0227305651
 30
0.0
 10
-4.2966452615
 20
6.5621238005
 30
0.0
 10
-4.2982587899
 20
7.1015180838
 30
0.0
 10
-4.29898586
 20
7.3712212574
 30
0.0
 11
-4.2936671257
 21
5.7530400853
 31
0.0
 11
-4.2965655305
 21
6.5621124165
 31
0.0
 11
-4.29898586
 21
7.3712212574
 31
0.0
  0
SPLINE
  5
5DE
100
AcDbEntity
  8
ASSI
100
AcDbSpline
 62
253
  6
CONTINUOUS
 70
0
 71
3
 72
16
 73
12
 74
10
 42
0.0000001
 43
0.0000001
 44
0.0000000001
 12
0.0949852718
 22
-0.2845340149
 32
0.0
 13
0.0000012478
 23
-0.2999696776
 33
0.0
 40
0.0
 40
0.0
 40
0.0
 40
0.0
 40
0.0178703958
 40
0.0649125353
 40
0.1397430829
 40
0.2401384275
 40
0.3631172055
 40
0.5050226653
 40
0.661639953
 40
0.8283096018
 40
1.0
 40
1.0
 40
1.0
 40
1.0
 10
-5.83007445
 20
-4.5624277276
 30
0.0
 10
-5.8295086419
 20
-4.5641226395
 30
0.0
 10
-5.8301442762
 20
-4.57080205
 30
0.0
 10
-5.8291450374
 20
-4.5846028567
 30
0.0
 10
-5.8292965915
 20
-4.6069170191
 30
0.0
 10
-5.8288964086
 20
-4.6366956862
 30
0.0
 10
-5.8287540802
 20
-4.6732332203
 30
0.0
 10
-5.8285681454
 20
-4.7153741971
 30
0.0
 10
-5.8284519658
 20
-4.7618900225
 30
0.0
 10
-5.828375109
 20
-4.8113822728
 30
0.0
 10
-5.8283588797
 20
-4.8452149606
 30
0.0
 10
-5.8283588083
 20
-4.862382265
 30
0.0
 11
-5.83007445
 21
-4.5624277276
 31
0.0
 11
-5.8297752684
 21
-4.5677799491
 31
0.0
 11
-5.8294859601
 21
-4.5818881985
 31
0.0
 11
-5.8292144856
 21
-4.6043334521
 31
0.0
 11
-5.8289696867
 21
-4.6344480163
 31
0.0
 11
-5.8287585154
 21
-4.6713373162
 31
0.0
 11
-5.8285875448
 21
-4.7139043079
 31
0.0
 11
-5.8284616443
 21
-4.7608845765
 31
0.0
 11
-5.8283846984
 21
-4.8108803581
 31
0.0
 11
-5.8283588083
 21
-4.862382265
 31
0.0
  0
SPLINE
  5
5DF
100
AcDbEntity
  8
ASSI
100
AcDbSpline
 62
7
  6
CONTINUOUS
 70
0
 71
3
 72
15
 73
11
 74
9
 42
0.0000001
 43
0.0000001
 44
0.0000000001
 12
0.0895635424
 22
-0.1791816741
 32
0.0
 13
0.2003189968
 23
0.0
 33
0.0
 40
0.0
 40
0.0
 40
0.0
 40
0.0
 40
0.0228702366
 40
0.0820374114
 40
0.1750076777
 40
0.3001514248
 40
0.4519007439
 40
0.6225386226
 40
0.8086061726
 40
1.0
 40
1.0
 40
1.0
 40
1.0
 10
-9.9588449221
 20
9.7543792354
 30
0.0
 10
-9.9581621423
 20
9.7530132596
 30
0.0
 10
-9.9512356384
 20
9.7532358791
 30
0.0
 10
-9.9409275078
 20
9.7511002901
 30
0.0
 10
-9.9217393794
 20
9.7505546297
 30
0.0
 10
-9.89735403
 20
9.7493393558
 30
0.0
 10
-9.8673765332
 20
9.7486049477
 30
0.0
 10
-9.8334646296
 20
9.7479689471
 30
0.0
 10
-9.7968574628
 20
9.747603098
 30
0.0
 10
-9.7716556137
 20
9.7475175779
 30
0.0
 10
-9.7588756739
 20
9.7475175779
 30
0.0
 11
-9.9588449221
 21
9.7543792354
 31
0.0
 11
-9.9544629989
 21
9.7530422793
 31
0.0
 11
-9.9426815375
 21
9.7517482942
 31
0.0
 11
-9.9240954107
 21
9.75056572
 31
0.0
 11
-9.8990485694
 21
9.7495197992
 31
0.0
 11
-9.8686623522
 21
9.7486638139
 31
0.0
 11
-9.834486112
 21
9.7480358663
 31
0.0
 11
-9.7972152746
 21
9.7476470949
 31
0.0
 11
-9.7588756739
 21
9.7475175779
 31
0.0
  0
SPLINE
  5
5E0
100
AcDbEntity
  8
ASSI
100
AcDbSpline
 62
7
  6
CONTINUOUS
 70
0
 71
3
 72
15
 73
11
 74
9
 42
0.0000001
 43
0.0000001
 44
0.0000000001
 12
0.2003189965
 22
-0.0
 32
0.0
 13
0.0895635422
 23
0.1791816739
 33
0.0
 40
0.0
 40
0.0
 40
0.0
 40
0.0
 40
0.1913938261
 40
0.3774613764
 40
0.5480992554
 40
0.6998485747
 40
0.824992322
 40
0.9179625885
 40
0.9771297633
 40
1.0
 40
1.0
 40
1.0
 40
1.0
 10
9.5014833416
 20
9.7475175779
 30
0.0
 10
9.5142632813
 20
9.7475175779
 30
0.0
 10
9.5394651304
 20
9.747603098
 30
0.0
 10
9.5760722971
 20
9.7479689471
 30
0.0
 10
9.6099842007
 20
9.7486049477
 30
0.0
 10
9.6399616974
 20
9.7493393558
 30
0.0
 10
9.6643470468
 20
9.7505546297
 30
0.0
 10
9.6835351752
 20
9.7511002901
 30
0.0
 10
9.6938433058
 20
9.7532358791
 30
0.0
 10
9.7007698097
 20
9.7530132596
 30
0.0
 10
9.7014525895
 20
9.7543792354
 30
0.0
 11
9.5014833416
 21
9.7475175779
 31
0.0
 11
9.539822942
 21
9.7476470949
 31
0.0
 11
9.5770937794
 21
9.7480358663
 31
0.0
 11
9.6112700197
 21
9.7486638139
 31
0.0
 11
9.6416562368
 21
9.7495197992
 31
0.0
 11
9.6667030781
 21
9.75056572
 31
0.0
 11
9.6852892049
 21
9.7517482942
 31
0.0
 11
9.6970706663
 21
9.7530422793
 31
0.0
 11
9.7014525895
 21
9.7543792354
 31
0.0
  0
SPLINE
  5
5E1
100
AcDbEntity
  8
ASSI
100
AcDbSpline
 62
253
  6
CONTINUOUS
 70
0
 71
3
 72
17
 73
13
 74
11
 42
0.0000001
 43
0.0000001
 44
0.0000000001
 12
-0.1414238943
 22
0.1417076164
 32
0.0
 13
-0.0000004892
 23
0.2002043117
 33
0.0
 40
0.0
 40
0.0
 40
0.0
 40
0.0
 40
0.0178774913
 40
0.058389992
 40
0.1209323587
 40
0.2041033138
 40
0.3059766177
 40
0.4241622179
 40
0.5558804402
 40
0.698040467
 40
0.8472808104
 40
1.0
 40
1.0
 40
1.0
 40
1.0
 10
-6.9207603045
 20
5.2037569073
 30
0.0
 10
-6.9216030726
 20
5.2046013662
 30
0.0
 10
-6.9219185294
 20
5.2088948632
 30
0.0
 10
-6.9231992546
 20
5.2165425523
 30
0.0
 10
-6.92391993
 20
5.2291298114
 30
0.0
 10
-6.9248600949
 20
5.2455519792
 30
0.0
 10
-6.9256065121
 20
5.2658022109
 30
0.0
 10
-6.9262810421
 20
5.2892592324
 30
0.0
 10
-6.9268139774
 20
5.315421296
 30
0.0
 10
-6.9272077735
 20
5.3436545457
 30
0.0
 10
-6.9274471944
 20
5.3732922114
 30
0.0
 10
-6.92750069
 20
5.3934433926
 30
0.0
 10
-6.9275007149
 20
5.4036350727
 30
0.0
 11
-6.9207603045
 21
5.2037569073
 31
0.0
 11
-6.9218246382
 21
5.2071741451
 31
0.0
 11
-6.9228589172
 21
5.215218707
 31
0.0
 11
-6.923838151
 21
5.2277016089
 31
0.0
 11
-6.9247391422
 21
5.2443283986
 31
0.0
 11
-6.9255407
 21
5.2647081163
 31
0.0
 11
-6.9262238949
 21
5.2883595177
 31
0.0
 11
-6.9267726322
 21
5.3147243639
 31
0.0
 11
-6.9271740247
 21
5.3431825836
 31
0.0
 11
-6.9274186229
 21
5.3730601427
 31
0.0
 11
-6.9275007149
 21
5.4036350727
 31
0.0
  0
SPLINE
  5
5E2
100
AcDbEntity
  8
ASSI
100
AcDbSpline
 62
253
  6
CONTINUOUS
 70
0
 71
3
 72
13
 73
9
 74
7
 42
0.0000001
 43
0.0000001
 44
0.0000000001
 12
0.0000002346
 22
0.141442405
 32
0.0
 13
0.0049357932
 23
0.1413562587
 33
0.0
 40
0.0
 40
0.0
 40
0.0
 40
0.0
 40
0.1844732589
 40
0.3659045925
 40
0.541117895
 40
0.7070849145
 40
0.8609356791
 40
1.0
 40
1.0
 40
1.0
 40
1.0
 10
-6.9275007149
 20
6.7547687398
 30
0.0
 10
-6.9275007005
 20
6.7634661869
 30
0.0
 10
-6.927461594
 20
6.7807176887
 30
0.0
 10
-6.9272859809
 20
6.8062295137
 30
0.0
 10
-6.9269967044
 20
6.8308677363
 30
0.0
 10
-6.9265990303
 20
6.8542039379
 30
0.0
 10
-6.9261003885
 20
6.8758334544
 30
0.0
 10
-6.9256839012
 20
6.8896375586
 30
0.0
 10
-6.9254551036
 20
6.896190096
 30
0.0
 11
-6.9275007149
 21
6.7547687398
 31
0.0
 11
-6.9274410257
 21
6.7808610129
 31
0.0
 11
-6.9272628284
 21
6.8065224784
 31
0.0
 11
-6.9269691082
 21
6.8313033286
 31
0.0
 11
-6.9265648959
 21
6.8547746227
 31
0.0
 11
-6.9260572318
 21
6.8765297224
 31
0.0
 11
-6.9254551036
 21
6.896190096
 31
0.0
  0
SPLINE
  5
5E3
100
AcDbEntity
  8
ASSI
100
AcDbSpline
 62
253
  6
CONTINUOUS
 70
0
 71
3
 72
13
 73
9
 74
7
 42
0.0000001
 43
0.0000001
 44
0.0000000001
 12
0.0197318509
 22
0.5654254321
 32
0.0
 13
0.0000091903
 23
0.565769622
 33
0.0
 40
0.0
 40
0.0
 40
0.0
 40
0.0
 40
0.1361522584
 40
0.2904133641
 40
0.4589859497
 40
0.637088475
 40
0.8192974361
 40
1.0
 40
1.0
 40
1.0
 40
1.0
 10
-6.9042544677
 20
7.5032968772
 30
0.0
 10
-6.9033589556
 20
7.5289581937
 30
0.0
 10
-6.9017012283
 20
7.5837028075
 30
0.0
 10
-6.8996968997
 20
7.6702402581
 30
0.0
 10
-6.8980836745
 20
7.7646985112
 30
0.0
 10
-6.8969174949
 20
7.864434309
 30
0.0
 10
-6.8962238555
 20
7.9664620901
 30
0.0
 10
-6.896072576
 20
8.0349036284
 30
0.0
 10
-6.8960720224
 20
8.0689823021
 30
0.0
 11
-6.9042544677
 21
7.5032968772
 31
0.0
 11
-6.9018902135
 21
7.5802913982
 31
0.0
 11
-6.8998439017
 21
7.6675436531
 31
0.0
 11
-6.8981975997
 21
7.7629026911
 31
0.0
 11
-6.8970077958
 21
7.8636606649
 31
0.0
 11
-6.8963010804
 21
7.9667465375
 31
0.0
 11
-6.8960720224
 21
8.0689823021
 31
0.0
  0
SPLINE
  5
5E4
100
AcDbEntity
  8
ASSI
100
AcDbSpline
 62
253
  6
CONTINUOUS
 70
0
 71
3
 72
13
 73
9
 74
7
 42
0.0000001
 43
0.0000001
 44
0.0000000001
 12
0.0000092097
 22
-0.565769622
 32
0.0
 13
0.0197318825
 23
-0.565425431
 33
0.0
 40
0.0
 40
0.0
 40
0.0
 40
0.0
 40
0.1807025814
 40
0.3629115369
 40
0.5410140573
 40
0.709586639
 40
0.8638477379
 40
1.0
 40
1.0
 40
1.0
 40
1.0
 10
-7.6613203102
 20
8.0689823021
 30
0.0
 10
-7.6613197554
 20
8.0349036251
 30
0.0
 10
-7.6611684777
 20
7.9664620845
 30
0.0
 10
-7.6604748374
 20
7.8644343021
 30
0.0
 10
-7.6593086579
 20
7.7646985071
 30
0.0
 10
-7.6576954332
 20
7.6702402569
 30
0.0
 10
-7.6556911034
 20
7.5837028076
 30
0.0
 10
-7.6540333784
 20
7.5289581943
 30
0.0
 10
-7.6531378649
 20
7.5032968772
 30
0.0
 11
-7.6613203102
 21
8.0689823021
 31
0.0
 11
-7.6610912522
 21
7.9667465275
 31
0.0
 11
-7.6603845367
 21
7.8636606581
 31
0.0
 11
-7.6591947328
 21
7.7629026872
 31
0.0
 11
-7.6575484309
 21
7.6675436513
 31
0.0
 11
-7.655502119
 21
7.5802914003
 31
0.0
 11
-7.6531378649
 21
7.5032968772
 31
0.0
  0
SPLINE
  5
5E5
100
AcDbEntity
  8
ASSI
100
AcDbSpline
 62
253
  6
CONTINUOUS
 70
0
 71
3
 72
13
 73
9
 74
7
 42
0.0000001
 43
0.0000001
 44
0.0000000001
 12
0.0049357932
 22
-0.1413562587
 32
0.0
 13
0.0000002346
 23
-0.141442405
 33
0.0
 40
0.0
 40
0.0
 40
0.0
 40
0.0
 40
0.1390643219
 40
0.2929150865
 40
0.4588821061
 40
0.6340954086
 40
0.8155267422
 40
1.0
 40
1.0
 40
1.0
 40
1.0
 10
-7.6319372289
 20
6.896190096
 30
0.0
 10
-7.6317084314
 20
6.8896375586
 30
0.0
 10
-7.631291944
 20
6.8758334543
 30
0.0
 10
-7.6307933023
 20
6.8542039378
 30
0.0
 10
-7.6303956281
 20
6.8308677361
 30
0.0
 10
-7.6301063517
 20
6.8062295135
 30
0.0
 10
-7.6299307385
 20
6.7807176885
 30
0.0
 10
-7.629891632
 20
6.7634661868
 30
0.0
 10
-7.6298916176
 20
6.7547687398
 30
0.0
 11
-7.6319372289
 21
6.896190096
 31
0.0
 11
-7.6313351008
 21
6.8765297222
 31
0.0
 11
-7.6308274367
 21
6.8547746225
 31
0.0
 11
-7.6304232243
 21
6.8313033285
 31
0.0
 11
-7.6301295042
 21
6.8065224782
 31
0.0
 11
-7.6299513069
 21
6.7808610127
 31
0.0
 11
-7.6298916176
 21
6.7547687398
 31
0.0
  0
SPLINE
  5
5E6
100
AcDbEntity
  8
ASSI
100
AcDbSpline
 62
253
  6
CONTINUOUS
 70
0
 71
3
 72
17
 73
13
 74
11
 42
0.0000001
 43
0.0000001
 44
0.0000000001
 12
-0.0000004892
 22
-0.2002043117
 32
0.0
 13
-0.1414238981
 23
-0.1417076126
 33
0.0
 40
0.0
 40
0.0
 40
0.0
 40
0.0
 40
0.1527191901
 40
0.3019595335
 40
0.4441195603
 40
0.5758377826
 40
0.6940233827
 40
0.7958966866
 40
0.8790676415
 40
0.9416100082
 40
0.9821225088
 40
1.0
 40
1.0
 40
1.0
 40
1.0
 10
-7.6298916176
 20
5.4036350727
 30
0.0
 10
-7.6298916425
 20
5.3934433926
 30
0.0
 10
-7.6299451382
 20
5.3732922113
 30
0.0
 10
-7.6301845591
 20
5.3436545456
 30
0.0
 10
-7.6305783552
 20
5.3154212959
 30
0.0
 10
-7.6311112904
 20
5.2892592323
 30
0.0
 10
-7.6317858205
 20
5.2658022108
 30
0.0
 10
-7.6325322376
 20
5.2455519792
 30
0.0
 10
-7.6334724026
 20
5.2291298114
 30
0.0
 10
-7.6341930779
 20
5.2165425522
 30
0.0
 10
-7.6354738032
 20
5.2088948632
 30
0.0
 10
-7.6357892599
 20
5.2046013661
 30
0.0
 10
-7.6366320281
 20
5.2037569073
 30
0.0
 11
-7.6298916176
 21
5.4036350727
 31
0.0
 11
-7.6299737097
 21
5.3730601425
 31
0.0
 11
-7.6302183079
 21
5.3431825835
 31
0.0
 11
-7.6306197004
 21
5.3147243638
 31
0.0
 11
-7.6311684377
 21
5.2883595176
 31
0.0
 11
-7.6318516326
 21
5.2647081163
 31
0.0
 11
-7.6326531904
 21
5.2443283986
 31
0.0
 11
-7.6335541816
 21
5.2277016088
 31
0.0
 11
-7.6345334154
 21
5.215218707
 31
0.0
 11
-7.6355676944
 21
5.2071741451
 31
0.0
 11
-7.6366320281
 21
5.2037569073
 31
0.0
  0
SPLINE
  5
5E7
100
AcDbEntity
  8
ASSI
100
AcDbSpline
 62
253
  6
CONTINUOUS
 70
0
 71
3
 72
13
 73
9
 74
7
 42
0.0000001
 43
0.0000001
 44
0.0000000001
 12
0.0000092097
 22
-0.565769622
 32
0.0
 13
0.0197318825
 23
-0.565425431
 33
0.0
 40
0.0
 40
0.0
 40
0.0
 40
0.0
 40
0.1807025814
 40
0.3629115369
 40
0.5410140573
 40
0.709586639
 40
0.8638477379
 40
1.0
 40
1.0
 40
1.0
 40
1.0
 10
6.6386796898
 20
8.0689823021
 30
0.0
 10
6.6386802446
 20
8.0349036251
 30
0.0
 10
6.6388315223
 20
7.9664620845
 30
0.0
 10
6.6395251626
 20
7.8644343021
 30
0.0
 10
6.6406913421
 20
7.7646985071
 30
0.0
 10
6.6423045668
 20
7.6702402569
 30
0.0
 10
6.6443088966
 20
7.5837028076
 30
0.0
 10
6.6459666216
 20
7.5289581943
 30
0.0
 10
6.6468621351
 20
7.5032968772
 30
0.0
 11
6.6386796898
 21
8.0689823021
 31
0.0
 11
6.6389087478
 21
7.9667465275
 31
0.0
 11
6.6396154633
 21
7.8636606581
 31
0.0
 11
6.6408052672
 21
7.7629026872
 31
0.0
 11
6.6424515691
 21
7.6675436513
 31
0.0
 11
6.644497881
 21
7.5802914003
 31
0.0
 11
6.6468621351
 21
7.5032968772
 31
0.0
  0
SPLINE
  5
5E8
100
AcDbEntity
  8
ASSI
100
AcDbSpline
 62
253
  6
CONTINUOUS
 70
0
 71
3
 72
13
 73
9
 74
7
 42
0.0000001
 43
0.0000001
 44
0.0000000001
 12
0.0049357932
 22
-0.1413562587
 32
0.0
 13
0.0000002346
 23
-0.141442405
 33
0.0
 40
0.0
 40
0.0
 40
0.0
 40
0.0
 40
0.1390643219
 40
0.2929150865
 40
0.4588821061
 40
0.6340954086
 40
0.8155267422
 40
1.0
 40
1.0
 40
1.0
 40
1.0
 10
6.6680627711
 20
6.896190096
 30
0.0
 10
6.6682915686
 20
6.8896375586
 30
0.0
 10
6.668708056
 20
6.8758334543
 30
0.0
 10
6.6692066977
 20
6.8542039378
 30
0.0
 10
6.6696043719
 20
6.8308677361
 30
0.0
 10
6.6698936483
 20
6.8062295135
 30
0.0
 10
6.6700692615
 20
6.7807176885
 30
0.0
 10
6.670108368
 20
6.7634661868
 30
0.0
 10
6.6701083824
 20
6.7547687398
 30
0.0
 11
6.6680627711
 21
6.896190096
 31
0.0
 11
6.6686648992
 21
6.8765297222
 31
0.0
 11
6.6691725633
 21
6.8547746225
 31
0.0
 11
6.6695767757
 21
6.8313033285
 31
0.0
 11
6.6698704958
 21
6.8065224782
 31
0.0
 11
6.6700486931
 21
6.7808610127
 31
0.0
 11
6.6701083824
 21
6.7547687398
 31
0.0
  0
SPLINE
  5
5E9
100
AcDbEntity
  8
ASSI
100
AcDbSpline
 62
253
  6
CONTINUOUS
 70
0
 71
3
 72
17
 73
13
 74
11
 42
0.0000001
 43
0.0000001
 44
0.0000000001
 12
-0.0000004892
 22
-0.2002043117
 32
0.0
 13
-0.1414238981
 23
-0.1417076126
 33
0.0
 40
0.0
 40
0.0
 40
0.0
 40
0.0
 40
0.1527191901
 40
0.3019595335
 40
0.4441195603
 40
0.5758377826
 40
0.6940233827
 40
0.7958966866
 40
0.8790676415
 40
0.9416100082
 40
0.9821225088
 40
1.0
 40
1.0
 40
1.0
 40
1.0
 10
6.6701083824
 20
5.4036350727
 30
0.0
 10
6.6701083575
 20
5.3934433926
 30
0.0
 10
6.6700548618
 20
5.3732922113
 30
0.0
 10
6.6698154409
 20
5.3436545456
 30
0.0
 10
6.6694216448
 20
5.3154212959
 30
0.0
 10
6.6688887096
 20
5.2892592323
 30
0.0
 10
6.6682141795
 20
5.2658022108
 30
0.0
 10
6.6674677624
 20
5.2455519792
 30
0.0
 10
6.6665275974
 20
5.2291298114
 30
0.0
 10
6.6658069221
 20
5.2165425522
 30
0.0
 10
6.6645261968
 20
5.2088948632
 30
0.0
 10
6.6642107401
 20
5.2046013661
 30
0.0
 10
6.6633679719
 20
5.2037569073
 30
0.0
 11
6.6701083824
 21
5.4036350727
 31
0.0
 11
6.6700262903
 21
5.3730601425
 31
0.0
 11
6.6697816921
 21
5.3431825835
 31
0.0
 11
6.6693802996
 21
5.3147243638
 31
0.0
 11
6.6688315623
 21
5.2883595176
 31
0.0
 11
6.6681483674
 21
5.2647081163
 31
0.0
 11
6.6673468096
 21
5.2443283986
 31
0.0
 11
6.6664458184
 21
5.2277016088
 31
0.0
 11
6.6654665846
 21
5.215218707
 31
0.0
 11
6.6644323056
 21
5.2071741451
 31
0.0
 11
6.6633679719
 21
5.2037569073
 31
0.0
  0
SPLINE
  5
5EA
100
AcDbEntity
  8
ASSI
100
AcDbSpline
 62
253
  6
CONTINUOUS
 70
0
 71
3
 72
17
 73
13
 74
11
 42
0.0000001
 43
0.0000001
 44
0.0000000001
 12
-0.1414238943
 22
0.1417076164
 32
0.0
 13
-0.0000004892
 23
0.2002043117
 33
0.0
 40
0.0
 40
0.0
 40
0.0
 40
0.0
 40
0.0178774913
 40
0.058389992
 40
0.1209323587
 40
0.2041033138
 40
0.3059766177
 40
0.4241622179
 40
0.5558804402
 40
0.698040467
 40
0.8472808104
 40
1.0
 40
1.0
 40
1.0
 40
1.0
 10
7.3792396955
 20
5.2037569073
 30
0.0
 10
7.3783969274
 20
5.2046013662
 30
0.0
 10
7.3780814706
 20
5.2088948632
 30
0.0
 10
7.3768007454
 20
5.2165425523
 30
0.0
 10
7.37608007
 20
5.2291298114
 30
0.0
 10
7.3751399051
 20
5.2455519792
 30
0.0
 10
7.3743934879
 20
5.2658022109
 30
0.0
 10
7.3737189579
 20
5.2892592324
 30
0.0
 10
7.3731860226
 20
5.315421296
 30
0.0
 10
7.3727922265
 20
5.3436545457
 30
0.0
 10
7.3725528056
 20
5.3732922114
 30
0.0
 10
7.37249931
 20
5.3934433926
 30
0.0
 10
7.3724992851
 20
5.4036350727
 30
0.0
 11
7.3792396955
 21
5.2037569073
 31
0.0
 11
7.3781753618
 21
5.2071741451
 31
0.0
 11
7.3771410828
 21
5.215218707
 31
0.0
 11
7.376161849
 21
5.2277016089
 31
0.0
 11
7.3752608578
 21
5.2443283986
 31
0.0
 11
7.3744593
 21
5.2647081163
 31
0.0
 11
7.3737761051
 21
5.2883595177
 31
0.0
 11
7.3732273678
 21
5.3147243639
 31
0.0
 11
7.3728259753
 21
5.3431825836
 31
0.0
 11
7.3725813771
 21
5.3730601427
 31
0.0
 11
7.3724992851
 21
5.4036350727
 31
0.0
  0
SPLINE
  5
5EB
100
AcDbEntity
  8
ASSI
100
AcDbSpline
 62
253
  6
CONTINUOUS
 70
0
 71
3
 72
13
 73
9
 74
7
 42
0.0000001
 43
0.0000001
 44
0.0000000001
 12
0.0000002346
 22
0.141442405
 32
0.0
 13
0.0049357932
 23
0.1413562587
 33
0.0
 40
0.0
 40
0.0
 40
0.0
 40
0.0
 40
0.1844732589
 40
0.3659045925
 40
0.541117895
 40
0.7070849145
 40
0.8609356791
 40
1.0
 40
1.0
 40
1.0
 40
1.0
 10
7.3724992851
 20
6.7547687398
 30
0.0
 10
7.3724992995
 20
6.7634661869
 30
0.0
 10
7.372538406
 20
6.7807176887
 30
0.0
 10
7.3727140191
 20
6.8062295137
 30
0.0
 10
7.3730032956
 20
6.8308677363
 30
0.0
 10
7.3734009697
 20
6.8542039379
 30
0.0
 10
7.3738996115
 20
6.8758334544
 30
0.0
 10
7.3743160988
 20
6.8896375586
 30
0.0
 10
7.3745448964
 20
6.896190096
 30
0.0
 11
7.3724992851
 21
6.7547687398
 31
0.0
 11
7.3725589743
 21
6.7808610129
 31
0.0
 11
7.3727371716
 21
6.8065224784
 31
0.0
 11
7.3730308918
 21
6.8313033286
 31
0.0
 11
7.3734351041
 21
6.8547746227
 31
0.0
 11
7.3739427682
 21
6.8765297224
 31
0.0
 11
7.3745448964
 21
6.896190096
 31
0.0
  0
SPLINE
  5
5EC
100
AcDbEntity
  8
ASSI
100
AcDbSpline
 62
253
  6
CONTINUOUS
 70
0
 71
3
 72
13
 73
9
 74
7
 42
0.0000001
 43
0.0000001
 44
0.0000000001
 12
0.0197318509
 22
0.5654254321
 32
0.0
 13
0.0000091903
 23
0.565769622
 33
0.0
 40
0.0
 40
0.0
 40
0.0
 40
0.0
 40
0.1361522584
 40
0.2904133641
 40
0.4589859497
 40
0.637088475
 40
0.8192974361
 40
1.0
 40
1.0
 40
1.0
 40
1.0
 10
7.3957455323
 20
7.5032968772
 30
0.0
 10
7.3966410444
 20
7.5289581937
 30
0.0
 10
7.3982987717
 20
7.5837028075
 30
0.0
 10
7.4003031003
 20
7.6702402581
 30
0.0
 10
7.4019163255
 20
7.7646985112
 30
0.0
 10
7.4030825051
 20
7.864434309
 30
0.0
 10
7.4037761445
 20
7.9664620901
 30
0.0
 10
7.403927424
 20
8.0349036284
 30
0.0
 10
7.4039279776
 20
8.0689823021
 30
0.0
 11
7.3957455323
 21
7.5032968772
 31
0.0
 11
7.3981097865
 21
7.5802913982
 31
0.0
 11
7.4001560983
 21
7.6675436531
 31
0.0
 11
7.4018024003
 21
7.7629026911
 31
0.0
 11
7.4029922042
 21
7.8636606649
 31
0.0
 11
7.4036989196
 21
7.9667465375
 31
0.0
 11
7.4039279776
 21
8.0689823021
 31
0.0
  0
SPLINE
  5
5ED
100
AcDbEntity
  8
ASSI
100
AcDbSpline
 62
253
  6
CONTINUOUS
 70
0
 71
3
 72
15
 73
11
 74
9
 42
0.0000001
 43
0.0000001
 44
0.0000000001
 12
0.0000001707
 22
0.0492833389
 32
0.0
 13
0.0095687383
 23
0.0483454935
 33
0.0
 40
0.0
 40
0.0
 40
0.0
 40
0.0
 40
0.1760003266
 40
0.3468630124
 40
0.5072188018
 40
0.6521964061
 40
0.7773808262
 40
0.8789617246
 40
0.9539026917
 40
1.0
 40
1.0
 40
1.0
 40
1.0
 10
-5.4385511257
 20
-6.5896102356
 30
0.0
 10
-5.4385511157
 20
-6.586718941
 30
0.0
 10
-5.4385339921
 20
-6.5810207395
 30
0.0
 10
-5.4384573498
 20
-6.5726885434
 30
0.0
 10
-5.4383321722
 20
-6.5648666801
 30
0.0
 10
-5.4381635459
 20
-6.5577959974
 30
0.0
 10
-5.4379551228
 20
-6.5516929476
 30
0.0
 10
-5.4377223661
 20
-6.5467406872
 30
0.0
 10
-5.4374595511
 20
-6.5430950244
 30
0.0
 10
-5.4372553146
 20
-6.5411127137
 30
0.0
 10
-5.4371082836
 20
-6.540369848
 30
0.0
 11
-5.4385511257
 21
-6.5896102356
 31
0.0
 11
-5.4385246531
 21
-6.5809363922
 31
0.0
 11
-5.4384459109
 21
-6.5725160768
 31
0.0
 11
-5.4383172816
 21
-6.5646142549
 31
0.0
 11
-5.4381426465
 21
-6.557471409
 31
0.0
 11
-5.4379273211
 21
-6.5513056615
 31
0.0
 11
-5.4376779006
 21
-6.5463056329
 31
0.0
 11
-5.4374019835
 21
-6.5426226126
 31
0.0
 11
-5.4371082836
 21
-6.540369848
 31
0.0
  0
SPLINE
  5
5EE
100
AcDbEntity
  8
ASSI
100
AcDbSpline
 62
253
  6
CONTINUOUS
 70
0
 71
3
 72
15
 73
11
 74
9
 42
0.0000001
 43
0.0000001
 44
0.0000000001
 12
0.0000001618
 22
0.050068276
 32
0.0
 13
0.0447346513
 23
0.0224865123
 33
0.0
 40
0.0
 40
0.0
 40
0.0
 40
0.0
 40
0.1713418136
 40
0.3377810062
 40
0.4942125627
 40
0.6359871151
 40
0.7588983147
 40
0.8592833316
 40
0.9341930349
 40
1.0
 40
1.0
 40
1.0
 40
1.0
 10
-5.3791858176
 20
-4.862382265
 30
0.0
 10
-5.3791858083
 20
-4.8595226686
 30
0.0
 10
-5.3791686046
 20
-4.8538856989
 30
0.0
 10
-5.3790955076
 20
-4.8456360702
 30
0.0
 10
-5.3789665574
 20
-4.8378882744
 30
0.0
 10
-5.3788217157
 20
-4.8308428219
 30
0.0
 10
-5.3785558577
 20
-4.8248106318
 30
0.0
 10
-5.3784953401
 20
-4.8196813865
 30
0.0
 10
-5.3777754737
 20
-4.816076554
 30
0.0
 10
-5.3784515355
 20
-4.8128831366
 30
0.0
 10
-5.3774702516
 20
-4.8123898803
 30
0.0
 11
-5.3791858176
 21
-4.862382265
 31
0.0
 11
-5.3791599265
 21
-4.8538035149
 31
0.0
 11
-5.3790829063
 21
-4.8454705474
 31
0.0
 11
-5.3789570391
 21
-4.8376393005
 31
0.0
 11
-5.378786045
 21
-4.8305429529
 31
0.0
 11
-5.3785749924
 21
-4.8243926212
 31
0.0
 11
-5.3783301957
 21
-4.8193724814
 31
0.0
 11
-5.3780589492
 21
-4.8156317029
 31
0.0
 11
-5.3774702516
 21
-4.8123898803
 31
0.0
  0
SPLINE
  5
5EF
100
AcDbEntity
  8
ASSI
100
AcDbSpline
 62
253
  6
CONTINUOUS
 70
0
 71
3
 72
15
 73
11
 74
9
 42
0.0000001
 43
0.0000001
 44
0.0000000001
 12
0.0447346513
 22
-0.0224865123
 32
0.0
 13
0.0000001618
 23
-0.050068276
 33
0.0
 40
0.0
 40
0.0
 40
0.0
 40
0.0
 40
0.0658069653
 40
0.1407166687
 40
0.2411016857
 40
0.3640128853
 40
0.5057874378
 40
0.6622189942
 40
0.8286581869
 40
1.0
 40
1.0
 40
1.0
 40
1.0
 10
-6.0799220809
 20
-4.8123898803
 30
0.0
 10
-6.078940797
 20
-4.8128831366
 30
0.0
 10
-6.0796168588
 20
-4.816076554
 30
0.0
 10
-6.0788969925
 20
-4.8196813866
 30
0.0
 10
-6.0788364749
 20
-4.8248106319
 30
0.0
 10
-6.0785706168
 20
-4.8308428219
 30
0.0
 10
-6.0784257752
 20
-4.8378882744
 30
0.0
 10
-6.0782968249
 20
-4.8456360702
 30
0.0
 10
-6.0782237279
 20
-4.8538856989
 30
0.0
 10
-6.0782065242
 20
-4.8595226686
 30
0.0
 10
-6.078206515
 20
-4.862382265
 30
0.0
 11
-6.0799220809
 21
-4.8123898803
 31
0.0
 11
-6.0793333833
 21
-4.815631703
 31
0.0
 11
-6.0790621369
 21
-4.8193724814
 31
0.0
 11
-6.0788173401
 21
-4.8243926212
 31
0.0
 11
-6.0786062876
 21
-4.8305429529
 31
0.0
 11
-6.0784352935
 21
-4.8376393005
 31
0.0
 11
-6.0783094262
 21
-4.8454705474
 31
0.0
 11
-6.0782324061
 21
-4.8538035149
 31
0.0
 11
-6.078206515
 21
-4.862382265
 31
0.0
  0
SPLINE
  5
5F0
100
AcDbEntity
  8
ASSI
100
AcDbSpline
 62
253
  6
CONTINUOUS
 70
0
 71
3
 72
15
 73
11
 74
9
 42
0.0000001
 43
0.0000001
 44
0.0000000001
 12
0.0095687383
 22
-0.0483454935
 32
0.0
 13
0.0000001707
 23
-0.0492833389
 33
0.0
 40
0.0
 40
0.0
 40
0.0
 40
0.0
 40
0.0460973084
 40
0.1210382755
 40
0.222619174
 40
0.3478035941
 40
0.4927811984
 40
0.6531369878
 40
0.8239996736
 40
1.0
 40
1.0
 40
1.0
 40
1.0
 10
-6.0202840489
 20
-6.540369848
 30
0.0
 10
-6.0201370179
 20
-6.5411127137
 30
0.0
 10
-6.0199327814
 20
-6.5430950244
 30
0.0
 10
-6.0196699665
 20
-6.5467406872
 30
0.0
 10
-6.0194372097
 20
-6.5516929476
 30
0.0
 10
-6.0192287867
 20
-6.5577959974
 30
0.0
 10
-6.0190601604
 20
-6.5648666801
 30
0.0
 10
-6.0189349827
 20
-6.5726885434
 30
0.0
 10
-6.0188583404
 20
-6.5810207395
 30
0.0
 10
-6.0188412169
 20
-6.586718941
 30
0.0
 10
-6.0188412069
 20
-6.5896102356
 30
0.0
 11
-6.0202840489
 21
-6.540369848
 31
0.0
 11
-6.0199903491
 21
-6.5426226126
 31
0.0
 11
-6.0197144319
 21
-6.5463056329
 31
0.0
 11
-6.0194650115
 21
-6.5513056616
 31
0.0
 11
-6.0192496861
 21
-6.557471409
 31
0.0
 11
-6.0190750509
 21
-6.5646142549
 31
0.0
 11
-6.0189464217
 21
-6.5725160768
 31
0.0
 11
-6.0188676795
 21
-6.5809363923
 31
0.0
 11
-6.0188412069
 21
-6.5896102356
 31
0.0
  0
SPLINE
  5
5F1
100
AcDbEntity
  8
ASSI
100
AcDbSpline
 62
253
  6
CONTINUOUS
 70
0
 71
3
 72
15
 73
11
 74
9
 42
0.0000001
 43
0.0000001
 44
0.0000000001
 12
0.0000001707
 22
0.0492833389
 32
0.0
 13
0.0095687383
 23
0.0483454935
 33
0.0
 40
0.0
 40
0.0
 40
0.0
 40
0.0
 40
0.1760003266
 40
0.3468630124
 40
0.5072188018
 40
0.6521964061
 40
0.7773808262
 40
0.8789617246
 40
0.9539026917
 40
1.0
 40
1.0
 40
1.0
 40
1.0
 10
5.7614488743
 20
-6.5896102356
 30
0.0
 10
5.7614488843
 20
-6.586718941
 30
0.0
 10
5.7614660079
 20
-6.5810207395
 30
0.0
 10
5.7615426502
 20
-6.5726885434
 30
0.0
 10
5.7616678278
 20
-6.5648666801
 30
0.0
 10
5.7618364541
 20
-6.5577959974
 30
0.0
 10
5.7620448772
 20
-6.5516929476
 30
0.0
 10
5.7622776339
 20
-6.5467406872
 30
0.0
 10
5.7625404489
 20
-6.5430950244
 30
0.0
 10
5.7627446854
 20
-6.5411127137
 30
0.0
 10
5.7628917164
 20
-6.540369848
 30
0.0
 11
5.7614488743
 21
-6.5896102356
 31
0.0
 11
5.7614753469
 21
-6.5809363922
 31
0.0
 11
5.7615540891
 21
-6.5725160768
 31
0.0
 11
5.7616827184
 21
-6.5646142549
 31
0.0
 11
5.7618573535
 21
-6.557471409
 31
0.0
 11
5.7620726789
 21
-6.5513056615
 31
0.0
 11
5.7623220994
 21
-6.5463056329
 31
0.0
 11
5.7625980165
 21
-6.5426226126
 31
0.0
 11
5.7628917164
 21
-6.540369848
 31
0.0
  0
SPLINE
  5
5F2
100
AcDbEntity
  8
ASSI
100
AcDbSpline
 62
253
  6
CONTINUOUS
 70
0
 71
3
 72
15
 73
11
 74
9
 42
0.0000001
 43
0.0000001
 44
0.0000000001
 12
0.0000001618
 22
0.050068276
 32
0.0
 13
0.0447346513
 23
0.0224865123
 33
0.0
 40
0.0
 40
0.0
 40
0.0
 40
0.0
 40
0.1713418136
 40
0.3377810062
 40
0.4942125627
 40
0.6359871151
 40
0.7588983147
 40
0.8592833316
 40
0.9341930349
 40
1.0
 40
1.0
 40
1.0
 40
1.0
 10
5.8208141824
 20
-4.862382265
 30
0.0
 10
5.8208141917
 20
-4.8595226686
 30
0.0
 10
5.8208313954
 20
-4.8538856989
 30
0.0
 10
5.8209044924
 20
-4.8456360702
 30
0.0
 10
5.8210334426
 20
-4.8378882744
 30
0.0
 10
5.8211782843
 20
-4.8308428219
 30
0.0
 10
5.8214441423
 20
-4.8248106318
 30
0.0
 10
5.8215046599
 20
-4.8196813865
 30
0.0
 10
5.8222245263
 20
-4.816076554
 30
0.0
 10
5.8215484645
 20
-4.8128831366
 30
0.0
 10
5.8225297484
 20
-4.8123898803
 30
0.0
 11
5.8208141824
 21
-4.862382265
 31
0.0
 11
5.8208400735
 21
-4.8538035149
 31
0.0
 11
5.8209170937
 21
-4.8454705474
 31
0.0
 11
5.8210429609
 21
-4.8376393005
 31
0.0
 11
5.821213955
 21
-4.8305429529
 31
0.0
 11
5.8214250076
 21
-4.8243926212
 31
0.0
 11
5.8216698043
 21
-4.8193724814
 31
0.0
 11
5.8219410508
 21
-4.8156317029
 31
0.0
 11
5.8225297484
 21
-4.8123898803
 31
0.0
  0
SPLINE
  5
5F3
100
AcDbEntity
  8
ASSI
100
AcDbSpline
 62
253
  6
CONTINUOUS
 70
0
 71
3
 72
15
 73
11
 74
9
 42
0.0000001
 43
0.0000001
 44
0.0000000001
 12
0.0447346513
 22
-0.0224865123
 32
0.0
 13
0.0000001618
 23
-0.050068276
 33
0.0
 40
0.0
 40
0.0
 40
0.0
 40
0.0
 40
0.0658069653
 40
0.1407166687
 40
0.2411016857
 40
0.3640128853
 40
0.5057874378
 40
0.6622189942
 40
0.8286581869
 40
1.0
 40
1.0
 40
1.0
 40
1.0
 10
5.1200779191
 20
-4.8123898803
 30
0.0
 10
5.121059203
 20
-4.8128831366
 30
0.0
 10
5.1203831412
 20
-4.816076554
 30
0.0
 10
5.1211030075
 20
-4.8196813866
 30
0.0
 10
5.1211635251
 20
-4.8248106319
 30
0.0
 10
5.1214293832
 20
-4.8308428219
 30
0.0
 10
5.1215742248
 20
-4.8378882744
 30
0.0
 10
5.1217031751
 20
-4.8456360702
 30
0.0
 10
5.1217762721
 20
-4.8538856989
 30
0.0
 10
5.1217934758
 20
-4.8595226686
 30
0.0
 10
5.121793485
 20
-4.862382265
 30
0.0
 11
5.1200779191
 21
-4.8123898803
 31
0.0
 11
5.1206666167
 21
-4.815631703
 31
0.0
 11
5.1209378631
 21
-4.8193724814
 31
0.0
 11
5.1211826599
 21
-4.8243926212
 31
0.0
 11
5.1213937124
 21
-4.8305429529
 31
0.0
 11
5.1215647065
 21
-4.8376393005
 31
0.0
 11
5.1216905738
 21
-4.8454705474
 31
0.0
 11
5.1217675939
 21
-4.8538035149
 31
0.0
 11
5.121793485
 21
-4.862382265
 31
0.0
  0
SPLINE
  5
5F4
100
AcDbEntity
  8
ASSI
100
AcDbSpline
 62
253
  6
CONTINUOUS
 70
0
 71
3
 72
15
 73
11
 74
9
 42
0.0000001
 43
0.0000001
 44
0.0000000001
 12
0.0095687383
 22
-0.0483454935
 32
0.0
 13
0.0000001707
 23
-0.0492833389
 33
0.0
 40
0.0
 40
0.0
 40
0.0
 40
0.0
 40
0.0460973084
 40
0.1210382755
 40
0.222619174
 40
0.3478035941
 40
0.4927811984
 40
0.6531369878
 40
0.8239996736
 40
1.0
 40
1.0
 40
1.0
 40
1.0
 10
5.1797159511
 20
-6.540369848
 30
0.0
 10
5.1798629821
 20
-6.5411127137
 30
0.0
 10
5.1800672186
 20
-6.5430950244
 30
0.0
 10
5.1803300335
 20
-6.5467406872
 30
0.0
 10
5.1805627903
 20
-6.5516929476
 30
0.0
 10
5.1807712133
 20
-6.5577959974
 30
0.0
 10
5.1809398396
 20
-6.5648666801
 30
0.0
 10
5.1810650173
 20
-6.5726885434
 30
0.0
 10
5.1811416596
 20
-6.5810207395
 30
0.0
 10
5.1811587831
 20
-6.586718941
 30
0.0
 10
5.1811587931
 20
-6.5896102356
 30
0.0
 11
5.1797159511
 21
-6.540369848
 31
0.0
 11
5.1800096509
 21
-6.5426226126
 31
0.0
 11
5.1802855681
 21
-6.5463056329
 31
0.0
 11
5.1805349885
 21
-6.5513056616
 31
0.0
 11
5.1807503139
 21
-6.557471409
 31
0.0
 11
5.1809249491
 21
-6.5646142549
 31
0.0
 11
5.1810535783
 21
-6.5725160768
 31
0.0
 11
5.1811323205
 21
-6.5809363923
 31
0.0
 11
5.1811587931
 21
-6.5896102356
 31
0.0
  0
SPLINE
  5
5F5
100
AcDbEntity
  8
ASSI
100
AcDbSpline
 62
253
  6
CONTINUOUS
 70
0
 71
3
 72
15
 73
11
 74
9
 42
0.0000001
 43
0.0000001
 44
0.0000000001
 12
0.4014143357
 22
-0.0070088487
 32
0.0
 13
0.0139942489
 23
-0.4012315464
 33
0.0
 40
0.0
 40
0.0
 40
0.0
 40
0.0
 40
0.1440044844
 40
0.2856956272
 40
0.4226390599
 40
0.5528844372
 40
0.67524257
 40
0.7895686166
 40
0.89699843
 40
1.0
 40
1.0
 40
1.0
 40
1.0
 10
7.0747276483
 20
7.1083221304
 30
0.0
 10
7.0939961364
 20
7.1079856951
 30
0.0
 10
7.1322302907
 20
7.1047164219
 30
0.0
 10
7.1875645458
 20
7.0921770575
 30
0.0
 10
7.2388262725
 20
7.0724500005
 30
0.0
 10
7.2841505985
 20
7.0462127647
 30
0.0
 10
7.3218917064
 20
7.014348381
 30
0.0
 10
7.3506217701
 20
6.9778905792
 30
0.0
 10
7.3691279643
 20
6.9381012363
 30
0.0
 10
7.3740644198
 20
6.9099659224
 30
0.0
 10
7.3745448964
 20
6.896190096
 30
0.0
 11
7.0747276483
 21
7.1083221304
 31
0.0
 11
7.1323291865
 21
7.1033670109
 31
0.0
 11
7.1877859281
 21
7.0906976466
 31
0.0
 11
7.2390329378
 21
7.070785782
 31
0.0
 11
7.2841620303
 21
7.0443728367
 31
0.0
 11
7.321492821
 21
7.0124422981
 31
0.0
 11
7.3496352959
 21
6.9761831019
 31
0.0
 11
7.367541568
 21
6.9369453613
 31
0.0
 11
7.3745448964
 21
6.896190096
 31
0.0
  0
SPLINE
  5
5F6
100
AcDbEntity
  8
ASSI
100
AcDbSpline
 62
253
  6
CONTINUOUS
 70
0
 71
3
 72
15
 73
11
 74
9
 42
0.0000001
 43
0.0000001
 44
0.0000000001
 12
0.4014143351
 22
-0.007008849
 32
0.0
 13
0.0139942489
 23
-0.4012315459
 33
0.0
 40
0.0
 40
0.0
 40
0.0
 40
0.0
 40
0.1440042721
 40
0.2856952433
 40
0.4226385679
 40
0.5528839124
 40
0.6752420872
 40
0.7895682409
 40
0.8969982159
 40
1.0
 40
1.0
 40
1.0
 40
1.0
 10
7.0959282842
 20
7.7154289115
 30
0.0
 10
7.1151967439
 20
7.7150924768
 30
0.0
 10
7.1534308467
 20
7.7118232117
 30
0.0
 10
7.2087650405
 20
7.6992838783
 30
0.0
 10
7.2600267369
 20
7.6795568611
 30
0.0
 10
7.3053510679
 20
7.6533196615
 30
0.0
 10
7.3430922123
 20
7.6214552973
 30
0.0
 10
7.371822332
 20
7.5849974862
 30
0.0
 10
7.3903285819
 20
7.5452080964
 30
0.0
 10
7.3952650548
 20
7.5170727322
 30
0.0
 10
7.3957455323
 20
7.5032968772
 30
0.0
 11
7.0959282842
 21
7.7154289115
 31
0.0
 11
7.153529738
 21
7.7104738052
 31
0.0
 11
7.2089864161
 21
7.6978044729
 31
0.0
 11
7.260233395
 21
7.6778926491
 31
0.0
 11
7.3053624934
 21
7.6514797401
 31
0.0
 11
7.342693322
 21
7.6195492199
 31
0.0
 11
7.3708358528
 21
7.5832900127
 31
0.0
 11
7.3887421782
 21
7.5440522252
 31
0.0
 11
7.3957455323
 21
7.5032968772
 31
0.0
  0
SPLINE
  5
5F7
100
AcDbEntity
  8
ASSI
100
AcDbSpline
 62
253
  6
CONTINUOUS
 70
0
 71
3
 72
15
 73
11
 74
9
 42
0.0000001
 43
0.0000001
 44
0.0000000001
 12
-0.4014143357
 22
-0.0070088488
 32
0.0
 13
-0.0139942489
 23
-0.4012315464
 33
0.0
 40
0.0
 40
0.0
 40
0.0
 40
0.0
 40
0.1440044844
 40
0.2856956272
 40
0.4226390599
 40
0.5528844372
 40
0.67524257
 40
0.7895686166
 40
0.89699843
 40
1.0
 40
1.0
 40
1.0
 40
1.0
 10
6.9466793832
 20
7.7154289115
 30
0.0
 10
6.9274108951
 20
7.7150924763
 30
0.0
 10
6.8891767407
 20
7.711823203
 30
0.0
 10
6.8338424856
 20
7.6992838386
 30
0.0
 10
6.782580759
 20
7.6795567817
 30
0.0
 10
6.7372564329
 20
7.6533195459
 30
0.0
 10
6.6995153251
 20
7.6214551621
 30
0.0
 10
6.6707852614
 20
7.5849973604
 30
0.0
 10
6.6522790672
 20
7.5452080175
 30
0.0
 10
6.6473426116
 20
7.5170727036
 30
0.0
 10
6.6468621351
 20
7.5032968772
 30
0.0
 11
6.9466793832
 21
7.7154289115
 31
0.0
 11
6.889077845
 21
7.710473792
 31
0.0
 11
6.8336211034
 21
7.6978044277
 31
0.0
 11
6.7823740937
 21
7.6778925632
 31
0.0
 11
6.7372450012
 21
7.6514796178
 31
0.0
 11
6.6999142104
 21
7.6195490793
 31
0.0
 11
6.6717717356
 21
7.5832898831
 31
0.0
 11
6.6538654635
 21
7.5440521425
 31
0.0
 11
6.6468621351
 21
7.5032968772
 31
0.0
  0
SPLINE
  5
5F8
100
AcDbEntity
  8
ASSI
100
AcDbSpline
 62
253
  6
CONTINUOUS
 70
0
 71
3
 72
15
 73
11
 74
9
 42
0.0000001
 43
0.0000001
 44
0.0000000001
 12
-0.4014143352
 22
-0.0070088515
 32
0.0
 13
-0.0139942492
 23
-0.401231546
 33
0.0
 40
0.0
 40
0.0
 40
0.0
 40
0.0
 40
0.1440045699
 40
0.2856957779
 40
0.4226392486
 40
0.5528846346
 40
0.6752427483
 40
0.7895687529
 40
0.8969985064
 40
1.0
 40
1.0
 40
1.0
 40
1.0
 10
6.9678800192
 20
7.1083221304
 30
0.0
 10
6.9486115196
 20
7.1079856948
 30
0.0
 10
6.9103773451
 20
7.104716418
 30
0.0
 10
6.8550430667
 20
7.0921770413
 30
0.0
 10
6.8037813296
 20
7.0724499694
 30
0.0
 10
6.7584570067
 20
7.0462127205
 30
0.0
 10
6.7207159134
 20
7.0143483305
 30
0.0
 10
6.6919858707
 20
6.977890533
 30
0.0
 10
6.6734796966
 20
6.9381012077
 30
0.0
 10
6.6685432473
 20
6.9099659122
 30
0.0
 10
6.6680627711
 20
6.896190096
 30
0.0
 11
6.9678800192
 21
7.1083221304
 31
0.0
 11
6.910278447
 21
7.1033670052
 31
0.0
 11
6.8548216816
 21
7.0906976283
 31
0.0
 11
6.8035746614
 21
7.0707857484
 31
0.0
 11
6.7584455726
 21
7.0443727901
 31
0.0
 11
6.721114797
 21
7.0124422458
 31
0.0
 11
6.6929723432
 21
6.9761830546
 31
0.0
 11
6.6750660903
 21
6.9369453317
 31
0.0
 11
6.6680627711
 21
6.896190096
 31
0.0
  0
SPLINE
  5
5F9
100
AcDbEntity
  8
ASSI
100
AcDbSpline
 62
253
  6
CONTINUOUS
 70
0
 71
3
 72
15
 73
11
 74
9
 42
0.0000001
 43
0.0000001
 44
0.0000000001
 12
0.3882348029
 22
-0.0023184616
 32
0.0
 13
0.0023876314
 23
-0.3882343837
 33
0.0
 40
0.0
 40
0.0
 40
0.0
 40
0.0
 40
0.1257290456
 40
0.2514557317
 40
0.3770343051
 40
0.502340937
 40
0.627292244
 40
0.751858067
 40
0.8760664778
 40
1.0
 40
1.0
 40
1.0
 40
1.0
 10
5.5130440096
 20
-6.2941679097
 30
0.0
 10
5.5293148067
 20
-6.2942650757
 30
0.0
 10
5.5619236788
 20
-6.2976105557
 30
0.0
 10
5.6088872717
 20
-6.3118730767
 30
0.0
 10
5.6522224628
 20
-6.3348412308
 30
0.0
 10
5.6902562153
 20
-6.3656451114
 30
0.0
 10
5.7215439915
 20
-6.4031147465
 30
0.0
 10
5.7448870195
 20
-6.4458331374
 30
0.0
 10
5.7593891359
 20
-6.4921487223
 30
0.0
 10
5.7627930805
 20
-6.5243314298
 30
0.0
 10
5.7628917164
 20
-6.540369848
 30
0.0
 11
5.5130440096
 21
-6.2941679097
 31
0.0
 11
5.5616021256
 21
-6.2991522741
 31
0.0
 11
5.6083085056
 21
-6.3133353325
 31
0.0
 11
5.6513820286
 21
-6.3361762221
 31
0.0
 11
5.6891801105
 21
-6.3668039185
 31
0.0
 11
5.7202613432
 21
-6.4040504523
 31
0.0
 11
5.7434404616
 21
-6.446495448
 31
0.0
 11
5.7578335433
 21
-6.4925202903
 31
0.0
 11
5.7628917164
 21
-6.540369848
 31
0.0
  0
SPLINE
  5
5FA
100
AcDbEntity
  8
ASSI
100
AcDbSpline
 62
7
  6
CONTINUOUS
 70
0
 71
3
 72
17
 73
13
 74
11
 42
0.0000001
 43
0.0000001
 44
0.0000000001
 12
-0.0148532747
 22
0.3571597571
 32
0.0
 13
-0.3573152673
 23
0.0104647825
 33
0.0
 40
0.0
 40
0.0
 40
0.0
 40
0.0
 40
0.0784048065
 40
0.159813855
 40
0.2448266776
 40
0.3341391228
 40
0.4284979008
 40
0.5286788015
 40
0.6354463523
 40
0.7494674181
 40
0.8710888176
 40
1.0
 40
1.0
 40
1.0
 40
1.0
 10
5.8208141824
 20
-6.2478993868
 30
0.0
 10
5.8204259931
 20
-6.2385650396
 30
0.0
 10
5.8181150974
 20
-6.2195698233
 30
0.0
 10
5.8100646223
 20
-6.1914113944
 30
0.0
 10
5.7971952483
 20
-6.1636547928
 30
0.0
 10
5.7793992461
 20
-6.1368955431
 30
0.0
 10
5.7566115422
 20
-6.1117360445
 30
0.0
 10
5.7288013591
 20
-6.0888320068
 30
0.0
 10
5.6959894764
 20
-6.0689299443
 30
0.0
 10
5.6583065458
 20
-6.0529185734
 30
0.0
 10
5.6161445845
 20
-6.0418620867
 30
0.0
 10
5.5863204536
 20
-6.0386797659
 30
0.0
 10
5.5709664757
 20
-6.03823009
 30
0.0
 11
5.8208141824
 21
-6.2478993868
 31
0.0
 11
5.8174499115
 21
-6.2200747891
 31
0.0
 11
5.8094885733
 21
-6.1920838065
 31
0.0
 11
5.7967519923
 21
-6.1644922246
 31
0.0
 11
5.7791234654
 21
-6.1378740162
 31
0.0
 11
5.7565288999
 21
-6.1128296959
 31
0.0
 11
5.7289277785
 21
-6.0900121011
 31
0.0
 11
5.6963269976
 21
-6.0701668191
 31
0.0
 11
5.658833929
 21
-6.0541805521
 31
0.0
 11
5.6167875677
 21
-6.043123875
 31
0.0
 11
5.5709664757
 21
-6.03823009
 31
0.0
  0
SPLINE
  5
5FB
100
AcDbEntity
  8
ASSI
100
AcDbSpline
 62
253
  6
CONTINUOUS
 70
0
 71
3
 72
15
 73
11
 74
9
 42
0.0000001
 43
0.0000001
 44
0.0000000001
 12
0.4014143357
 22
-0.0070088487
 32
0.0
 13
0.0139942489
 23
-0.4012315464
 33
0.0
 40
0.0
 40
0.0
 40
0.0
 40
0.0
 40
0.1440044844
 40
0.2856956272
 40
0.4226390599
 40
0.5528844372
 40
0.67524257
 40
0.7895686166
 40
0.89699843
 40
1.0
 40
1.0
 40
1.0
 40
1.0
 10
-7.2252723517
 20
7.1083221304
 30
0.0
 10
-7.2060038636
 20
7.1079856951
 30
0.0
 10
-7.1677697093
 20
7.1047164219
 30
0.0
 10
-7.1124354542
 20
7.0921770575
 30
0.0
 10
-7.0611737275
 20
7.0724500005
 30
0.0
 10
-7.0158494015
 20
7.0462127647
 30
0.0
 10
-6.9781082936
 20
7.014348381
 30
0.0
 10
-6.9493782299
 20
6.9778905792
 30
0.0
 10
-6.9308720357
 20
6.9381012363
 30
0.0
 10
-6.9259355802
 20
6.9099659224
 30
0.0
 10
-6.9254551036
 20
6.896190096
 30
0.0
 11
-7.2252723517
 21
7.1083221304
 31
0.0
 11
-7.1676708135
 21
7.1033670109
 31
0.0
 11
-7.1122140719
 21
7.0906976466
 31
0.0
 11
-7.0609670622
 21
7.070785782
 31
0.0
 11
-7.0158379697
 21
7.0443728367
 31
0.0
 11
-6.978507179
 21
7.0124422981
 31
0.0
 11
-6.9503647041
 21
6.9761831019
 31
0.0
 11
-6.932458432
 21
6.9369453613
 31
0.0
 11
-6.9254551036
 21
6.896190096
 31
0.0
  0
SPLINE
  5
5FC
100
AcDbEntity
  8
ASSI
100
AcDbSpline
 62
253
  6
CONTINUOUS
 70
0
 71
3
 72
15
 73
11
 74
9
 42
0.0000001
 43
0.0000001
 44
0.0000000001
 12
0.4014143351
 22
-0.007008849
 32
0.0
 13
0.0139942489
 23
-0.4012315459
 33
0.0
 40
0.0
 40
0.0
 40
0.0
 40
0.0
 40
0.1440042721
 40
0.2856952433
 40
0.4226385679
 40
0.5528839124
 40
0.6752420872
 40
0.7895682409
 40
0.8969982159
 40
1.0
 40
1.0
 40
1.0
 40
1.0
 10
-7.2040717158
 20
7.7154289115
 30
0.0
 10
-7.1848032561
 20
7.7150924768
 30
0.0
 10
-7.1465691533
 20
7.7118232117
 30
0.0
 10
-7.0912349595
 20
7.6992838783
 30
0.0
 10
-7.0399732631
 20
7.6795568611
 30
0.0
 10
-6.9946489321
 20
7.6533196615
 30
0.0
 10
-6.9569077877
 20
7.6214552973
 30
0.0
 10
-6.928177668
 20
7.5849974862
 30
0.0
 10
-6.9096714181
 20
7.5452080964
 30
0.0
 10
-6.9047349452
 20
7.5170727322
 30
0.0
 10
-6.9042544677
 20
7.5032968772
 30
0.0
 11
-7.2040717158
 21
7.7154289115
 31
0.0
 11
-7.146470262
 21
7.7104738052
 31
0.0
 11
-7.0910135839
 21
7.6978044729
 31
0.0
 11
-7.039766605
 21
7.6778926491
 31
0.0
 11
-6.9946375066
 21
7.6514797401
 31
0.0
 11
-6.957306678
 21
7.6195492199
 31
0.0
 11
-6.9291641472
 21
7.5832900127
 31
0.0
 11
-6.9112578218
 21
7.5440522252
 31
0.0
 11
-6.9042544677
 21
7.5032968772
 31
0.0
  0
SPLINE
  5
5FD
100
AcDbEntity
  8
ASSI
100
AcDbSpline
 62
7
  6
CONTINUOUS
 70
0
 71
3
 72
14
 73
10
 74
8
 42
0.0000001
 43
0.0000001
 44
0.0000000001
 12
-0.187164952
 22
-0.0179573555
 32
0.0
 13
-0.188024429
 23
-0.0
 33
0.0
 40
0.0
 40
0.0
 40
0.0
 40
0.0
 40
0.0778830372
 40
0.1849747095
 40
0.3167251878
 40
0.4673848541
 40
0.636225452
 40
0.8166806958
 40
1.0
 40
1.0
 40
1.0
 40
1.0
 10
-4.2936671257
 20
5.7530400853
 30
0.0
 10
-4.2985261174
 20
5.7525738942
 30
0.0
 10
-4.3100947817
 20
5.7517758343
 30
0.0
 10
-4.3299226772
 20
5.7508237764
 30
0.0
 10
-4.3543215545
 20
5.7499985484
 30
0.0
 10
-4.3825957391
 20
5.7493215509
 30
0.0
 10
-4.4139266691
 20
5.7488204601
 30
0.0
 10
-4.4473070266
 20
5.7485140388
 30
0.0
 10
-4.4701065922
 20
5.7484459658
 30
0.0
 10
-4.4815960947
 20
5.7484459658
 30
0.0
 11
-4.2936671257
 21
5.7530400853
 31
0.0
 11
-4.3082700183
 21
5.7519447612
 31
0.0
 11
-4.32838081
 21
5.7509405038
 31
0.0
 11
-4.3531380508
 21
5.7500766209
 31
0.0
 11
-4.3814572849
 21
5.7493842066
 31
0.0
 11
-4.4131992276
 21
5.7488669463
 31
0.0
 11
-4.4471277455
 21
5.7485504358
 31
0.0
 11
-4.4815960947
 21
5.7484459658
 31
0.0
  0
SPLINE
  5
5FE
100
AcDbEntity
  8
ASSI
100
AcDbSpline
 62
7
  6
CONTINUOUS
 70
0
 71
3
 72
14
 73
10
 74
8
 42
0.0000001
 43
0.0000001
 44
0.0000000001
 12
0.1880504183
 22
0.0
 32
0.0
 13
0.1871908232
 23
-0.0179598313
 33
0.0
 40
0.0
 40
0.0
 40
0.0
 40
0.0
 40
0.1832425357
 40
0.3636522946
 40
0.53247933
 40
0.6831485856
 40
0.8149281021
 40
0.9220655165
 40
1.0
 40
1.0
 40
1.0
 40
1.0
 10
-4.4869407376
 20
7.3758180692
 30
0.0
 10
-4.4754544591
 20
7.3758180692
 30
0.0
 10
-4.4526594053
 20
7.3757499859
 30
0.0
 10
-4.4192829477
 20
7.3754435093
 30
0.0
 10
-4.3879507891
 20
7.3749422546
 30
0.0
 10
-4.3596711296
 20
7.3742649466
 30
0.0
 10
-4.3352636007
 20
7.3734392346
 30
0.0
 10
-4.3154250685
 20
7.3724865027
 30
0.0
 10
-4.3038487334
 20
7.3716878208
 30
0.0
 10
-4.29898586
 20
7.3712212574
 30
0.0
 11
-4.4869407376
 21
7.3758180692
 31
0.0
 11
-4.4524820604
 21
7.3757135978
 31
0.0
 11
-4.4185574068
 21
7.3753970354
 31
0.0
 11
-4.3868136289
 21
7.3748796051
 31
0.0
 11
-4.358488682
 21
7.374186878
 31
0.0
 11
-4.3337225681
 21
7.3733225044
 31
0.0
 11
-4.313600413
 21
7.3723175289
 31
0.0
 11
-4.29898586
 21
7.3712212574
 31
0.0
  0
SPLINE
  5
5FF
100
AcDbEntity
  8
ASSI
100
AcDbSpline
 62
7
  6
CONTINUOUS
 70
0
 71
3
 72
14
 73
10
 74
8
 42
0.0000001
 43
0.0000001
 44
0.0000000001
 12
0.1871908232
 22
0.0179598313
 32
0.0
 13
0.1880504183
 23
0.0
 33
0.0
 40
0.0
 40
0.0
 40
0.0
 40
0.0
 40
0.0779344835
 40
0.1850718979
 40
0.3168514144
 40
0.46752067
 40
0.6363477055
 40
0.8167574643
 40
1.0
 40
1.0
 40
1.0
 40
1.0
 10
4.0415935275
 20
7.3712212574
 30
0.0
 10
4.0464564008
 20
7.3716878208
 30
0.0
 10
4.0580327359
 20
7.3724865027
 30
0.0
 10
4.0778712682
 20
7.3734392346
 30
0.0
 10
4.1022787971
 20
7.3742649466
 30
0.0
 10
4.1305584565
 20
7.3749422546
 30
0.0
 10
4.1618906152
 20
7.3754435093
 30
0.0
 10
4.1952670728
 20
7.3757499859
 30
0.0
 10
4.2180621265
 20
7.3758180692
 30
0.0
 10
4.229548405
 20
7.3758180692
 30
0.0
 11
4.0415935275
 21
7.3712212574
 31
0.0
 11
4.0562080804
 21
7.3723175289
 31
0.0
 11
4.0763302355
 21
7.3733225044
 31
0.0
 11
4.1010963494
 21
7.374186878
 31
0.0
 11
4.1294212964
 21
7.3748796051
 31
0.0
 11
4.1611650742
 21
7.3753970354
 31
0.0
 11
4.1950897279
 21
7.3757135978
 31
0.0
 11
4.229548405
 21
7.3758180692
 31
0.0
  0
SPLINE
  5
600
100
AcDbEntity
  8
ASSI
100
AcDbSpline
 62
7
  6
CONTINUOUS
 70
0
 71
3
 72
14
 73
10
 74
8
 42
0.0000001
 43
0.0000001
 44
0.0000000001
 12
-0.188024429
 22
0.0
 32
0.0
 13
-0.187164952
 23
0.0179573555
 33
0.0
 40
0.0
 40
0.0
 40
0.0
 40
0.0
 40
0.1833193042
 40
0.363774548
 40
0.5326151459
 40
0.6832748122
 40
0.8150252905
 40
0.9221169628
 40
1.0
 40
1.0
 40
1.0
 40
1.0
 10
4.2242037621
 20
5.7484459658
 30
0.0
 10
4.2127142596
 20
5.7484459658
 30
0.0
 10
4.189914694
 20
5.7485140388
 30
0.0
 10
4.1565343366
 20
5.7488204601
 30
0.0
 10
4.1252034065
 20
5.7493215509
 30
0.0
 10
4.0969292219
 20
5.7499985484
 30
0.0
 10
4.0725303446
 20
5.7508237764
 30
0.0
 10
4.0527024491
 20
5.7517758343
 30
0.0
 10
4.0411337848
 20
5.7525738942
 30
0.0
 10
4.0362747932
 20
5.7530400853
 30
0.0
 11
4.2242037621
 21
5.7484459658
 31
0.0
 11
4.1897354129
 21
5.7485504358
 31
0.0
 11
4.1558068951
 21
5.7488669463
 31
0.0
 11
4.1240649524
 21
5.7493842066
 31
0.0
 11
4.0957457182
 21
5.7500766209
 31
0.0
 11
4.0709884774
 21
5.7509405038
 31
0.0
 11
4.0508776857
 21
5.7519447612
 31
0.0
 11
4.0362747932
 21
5.7530400853
 31
0.0
  0
SPLINE
  5
601
100
AcDbEntity
  8
ASSI
100
AcDbSpline
 62
253
  6
CONTINUOUS
 70
0
 71
3
 72
14
 73
10
 74
8
 42
0.0000001
 43
0.0000001
 44
0.0000000001
 12
0.2004260331
 22
0.0001424279
 32
0.0
 13
0.0795097631
 23
0.183980468
 33
0.0
 40
0.0
 40
0.0
 40
0.0
 40
0.0
 40
0.219626445
 40
0.4285016891
 40
0.6164034558
 40
0.7741463891
 40
0.8940461608
 40
0.9703499162
 40
1.0
 40
1.0
 40
1.0
 40
1.0
 10
9.5085371368
 20
-9.053385928
 30
0.0
 10
9.5232100891
 20
-9.053375501
 30
0.0
 10
9.5518486889
 20
-9.0532374441
 30
0.0
 10
9.5929807929
 20
-9.0526160382
 30
0.0
 10
9.6301580599
 20
-9.0517960057
 30
0.0
 10
9.6608363656
 20
-9.0503041886
 30
0.0
 10
9.685435746
 20
-9.0496332751
 30
0.0
 10
9.6985751209
 20
-9.0468326304
 30
0.0
 10
9.7077208521
 20
-9.0471339579
 30
0.0
 10
9.7085066758
 20
-9.0453156124
 30
0.0
 11
9.5085371368
 21
-9.053385928
 31
0.0
 11
9.5525554085
 21
-9.0531567661
 31
0.0
 11
9.5944149582
 21
-9.0525431372
 31
0.0
 11
9.6320629309
 21
-9.0515751347
 31
0.0
 11
9.6636530136
 21
-9.0503002308
 31
0.0
 11
9.6876359815
 21
-9.0487809488
 31
0.0
 11
9.702835674
 21
-9.0470917965
 31
0.0
 11
9.7085066758
 21
-9.0453156124
 31
0.0
  0
SPLINE
  5
602
100
AcDbEntity
  8
ASSI
100
AcDbSpline
 62
253
  6
CONTINUOUS
 70
0
 71
3
 72
15
 73
11
 74
9
 42
0.0000001
 43
0.0000001
 44
0.0000000001
 12
-0.0006690231
 22
-0.3122541311
 32
0.0
 13
-0.3122541518
 23
-0.0006592875
 33
0.0
 40
0.0
 40
0.0
 40
0.0
 40
0.0
 40
0.1239311267
 40
0.2485008945
 40
0.3733674625
 40
0.4983911403
 40
0.623641287
 40
0.7490227936
 40
0.8745020714
 40
1.0
 40
1.0
 40
1.0
 40
1.0
 10
9.7085066758
 20
-9.0453156124
 30
0.0
 10
9.7084790382
 20
-9.0582149479
 30
0.0
 10
9.7058671313
 20
-9.0841460654
 30
0.0
 10
9.6944083881
 20
-9.1215320214
 30
0.0
 10
9.6758019383
 20
-9.1560696192
 30
0.0
 10
9.6507702433
 20
-9.1863624623
 30
0.0
 10
9.6202835553
 20
-9.211241181
 30
0.0
 10
9.5855036022
 20
-9.2297523958
 30
0.0
 10
9.5477881892
 20
-9.2411853419
 30
0.0
 10
9.5215995532
 20
-9.243797263
 30
0.0
 10
9.5085371368
 20
-9.2438248428
 30
0.0
 11
9.7085066758
 21
-9.0453156124
 31
0.0
 11
9.704626617
 21
-9.0838186994
 31
0.0
 11
9.6932355861
 21
-9.1210109164
 31
0.0
 11
9.6747467093
 21
-9.1553386959
 31
0.0
 11
9.6498841373
 21
-9.1854371263
 31
0.0
 11
9.6195858856
 21
-9.2101677822
 31
0.0
 11
9.5850276842
 21
-9.2285669727
 31
0.0
 11
9.5475306287
 21
-9.2399319086
 31
0.0
 11
9.5085371368
 21
-9.2438248428
 31
0.0
  0
SPLINE
  5
603
100
AcDbEntity
  8
ASSI
100
AcDbSpline
 62
253
  6
CONTINUOUS
 70
0
 71
3
 72
15
 73
11
 74
9
 42
0.0000001
 43
0.0000001
 44
0.0000000001
 12
0.2881576673
 22
0.0038542516
 32
0.0
 13
0.0214951096
 23
0.2873806826
 33
0.0
 40
0.0
 40
0.0
 40
0.0
 40
0.0
 40
0.1661012139
 40
0.3273713521
 40
0.4790823685
 40
0.6171102583
 40
0.7383301595
 40
0.8411950579
 40
0.9267168348
 40
1.0
 40
1.0
 40
1.0
 40
1.0
 10
5.5117647578
 20
-6.9984015588
 30
0.0
 10
5.5277192039
 20
-6.9981881602
 30
0.0
 10
5.5591627342
 20
-6.9965033592
 30
0.0
 10
5.6048116315
 20
-6.9902535441
 30
0.0
 10
5.6470993985
 20
-6.9805265951
 30
0.0
 10
5.6845184944
 20
-6.9676782433
 30
0.0
 10
5.7157937311
 20
-6.9521635254
 30
0.0
 10
5.7399109417
 20
-6.9344171409
 30
0.0
 10
5.7561629773
 20
-6.9147721606
 30
0.0
 10
5.761087388
 20
-6.8997670487
 30
0.0
 10
5.7616124645
 20
-6.8927469933
 30
0.0
 11
5.5117647578
 21
-6.9984015588
 31
0.0
 11
5.5595623242
 21
-6.995812804
 31
0.0
 11
5.6055960333
 21
-6.9894207072
 31
0.0
 11
5.6481671335
 21
-6.9794611615
 31
0.0
 11
5.6857046688
 21
-6.9663017082
 31
0.0
 11
5.7168234512
 21
-6.9504279693
 31
0.0
 11
5.7403751713
 21
-6.9324257229
 31
0.0
 11
5.7554907634
 21
-6.9129592846
 31
0.0
 11
5.7616124645
 21
-6.8927469933
 31
0.0
  0
SPLINE
  5
604
100
AcDbEntity
  8
ASSI
100
AcDbSpline
 62
253
  6
CONTINUOUS
 70
0
 71
3
 72
14
 73
10
 74
8
 42
0.0000001
 43
0.0000001
 44
0.0000000001
 12
0.0619574506
 22
-0.1906092583
 32
0.0
 13
0.2004085935
 23
-0.0026477693
 33
0.0
 40
0.0
 40
0.0
 40
0.0
 40
0.0
 40
0.0296500838
 40
0.1059538392
 40
0.2258536109
 40
0.3835965442
 40
0.5714983109
 40
0.780373555
 40
1.0
 40
1.0
 40
1.0
 40
1.0
 10
-9.9658990084
 20
-9.0453156124
 30
0.0
 10
-9.9652866605
 20
-9.0471994726
 30
0.0
 10
-9.9557548588
 20
-9.0467523329
 30
0.0
 10
-9.9429521036
 20
-9.0496802259
 30
0.0
 10
-9.9181759558
 20
-9.0502835179
 30
0.0
 10
-9.8875694312
 20
-9.0518072396
 30
0.0
 10
-9.850366832
 20
-9.0525946623
 30
0.0
 10
-9.8092435271
 20
-9.0533193475
 30
0.0
 10
-9.780601145
 20
-9.0531920879
 30
0.0
 10
-9.7659294693
 20
-9.053385928
 30
0.0
 11
-9.9658990084
 21
-9.0453156124
 31
0.0
 11
-9.9602280066
 21
-9.0470917965
 31
0.0
 11
-9.945028314
 21
-9.0487809488
 31
0.0
 11
-9.9210453462
 21
-9.0503002308
 31
0.0
 11
-9.8894552635
 21
-9.0515751347
 31
0.0
 11
-9.8518072908
 21
-9.0525431372
 31
0.0
 11
-9.8099477411
 21
-9.0531567661
 31
0.0
 11
-9.7659294693
 21
-9.053385928
 31
0.0
  0
SPLINE
  5
605
100
AcDbEntity
  8
ASSI
100
AcDbSpline
 62
253
  6
CONTINUOUS
 70
0
 71
3
 72
15
 73
11
 74
9
 42
0.0000001
 43
0.0000001
 44
0.0000000001
 12
-0.3122541466
 22
0.0006592875
 32
0.0
 13
-0.0006690231
 23
0.3122541259
 33
0.0
 40
0.0
 40
0.0
 40
0.0
 40
0.0
 40
0.1253892911
 40
0.2507579262
 40
0.376037153
 40
0.5011716683
 40
0.6261279947
 40
0.7508996291
 40
0.8755081425
 40
1.0
 40
1.0
 40
1.0
 40
1.0
 10
-9.7659294693
 20
-9.2438248428
 30
0.0
 10
-9.778980578
 20
-9.2437972869
 30
0.0
 10
-9.805146216
 20
-9.2411898855
 30
0.0
 10
-9.8428319129
 20
-9.2297764627
 30
0.0
 10
-9.8775889248
 20
-9.2112962657
 30
0.0
 10
-9.9080668435
 20
-9.1864548552
 30
0.0
 10
-9.9331022498
 20
-9.1562031919
 30
0.0
 10
-9.9517324555
 20
-9.1216935549
 30
0.0
 10
-9.9632412266
 20
-9.0842677698
 30
0.0
 10
-9.9658712457
 20
-9.0582733112
 30
0.0
 10
-9.9658990084
 20
-9.0453156124
 30
0.0
 11
-9.7659294693
 21
-9.2438248428
 31
0.0
 11
-9.8048895346
 21
-9.2399385733
 31
0.0
 11
-9.8423564252
 21
-9.2285932284
 31
0.0
 11
-9.8768941937
 21
-9.2102236271
 31
0.0
 11
-9.9071791533
 21
-9.1855337986
 31
0.0
 11
-9.9320506095
 21
-9.1554699996
 31
0.0
 11
-9.9505553445
 21
-9.1211844486
 31
0.0
 11
-9.96198415
 21
-9.0839911658
 31
0.0
 11
-9.9658990084
 21
-9.0453156124
 31
0.0
  0
SPLINE
  5
606
100
AcDbEntity
  8
ASSI
100
AcDbSpline
 62
253
  6
CONTINUOUS
 70
0
 71
3
 72
13
 73
9
 74
7
 42
0.0000001
 43
0.0000001
 44
0.0000000001
 12
0.0000009478
 22
-0.3537064006
 32
0.0
 13
0.0197326764
 23
-0.3531555455
 33
0.0
 40
0.0
 40
0.0
 40
0.0
 40
0.0
 40
0.1807365394
 40
0.3628821371
 40
0.5409121621
 40
0.7094442518
 40
0.8637208192
 40
1.0
 40
1.0
 40
1.0
 40
1.0
 10
6.9384968987
 20
8.068993266
 30
0.0
 10
6.9384969558
 20
8.0476840424
 30
0.0
 10
6.9386490477
 20
8.0048993051
 30
0.0
 10
6.9393424846
 20
7.9411277922
 30
0.0
 10
6.9405087241
 20
7.8788022395
 30
0.0
 10
6.9421216797
 20
7.8197734735
 30
0.0
 10
6.9441264656
 20
7.7656822955
 30
0.0
 10
6.9457833823
 20
7.73146414
 30
0.0
 10
6.9466797667
 20
7.7154215572
 30
0.0
 11
6.9384968987
 21
8.068993266
 31
0.0
 11
6.9387261291
 21
8.0050660062
 31
0.0
 11
6.93943286
 21
7.9406438189
 31
0.0
 11
6.940622472
 21
7.8776846974
 31
0.0
 11
6.9422684566
 21
7.8180965475
 31
0.0
 11
6.9443144729
 21
7.7635663087
 31
0.0
 11
6.9466797667
 21
7.7154215572
 31
0.0
  0
SPLINE
  5
607
100
AcDbEntity
  8
ASSI
100
AcDbSpline
 62
253
  6
CONTINUOUS
 70
0
 71
3
 72
13
 73
9
 74
7
 42
0.0000001
 43
0.0000001
 44
0.0000000001
 12
0.0197326329
 22
0.3531555552
 32
0.0
 13
0.0000009482
 23
0.3537064079
 33
0.0
 40
0.0
 40
0.0
 40
0.0
 40
0.0
 40
0.1362791858
 40
0.2905557542
 40
0.4590878453
 40
0.6371178717
 40
0.8192634707
 40
1.0
 40
1.0
 40
1.0
 40
1.0
 10
7.0959279006
 20
7.7154215537
 30
0.0
 10
7.096824283
 20
7.7314641376
 30
0.0
 10
7.0984812037
 20
7.7656822943
 30
0.0
 10
7.1004859867
 20
7.8197734744
 30
0.0
 10
7.102098944
 20
7.878802242
 30
0.0
 10
7.1032651826
 20
7.9411277965
 30
0.0
 10
7.1039586199
 20
8.0048993098
 30
0.0
 10
7.1041107116
 20
8.047684047
 30
0.0
 10
7.1041107687
 20
8.0689932699
 30
0.0
 11
7.0959279006
 21
7.7154215537
 31
0.0
 11
7.0982931949
 21
7.763566308
 31
0.0
 11
7.1003392105
 21
7.8180965483
 31
0.0
 11
7.1019851957
 21
7.8776846999
 31
0.0
 11
7.1031748074
 21
7.9406438232
 31
0.0
 11
7.1038815384
 21
8.0050660123
 31
0.0
 11
7.1041107687
 21
8.0689932699
 31
0.0
  0
SPLINE
  5
608
100
AcDbEntity
  8
ASSI
100
AcDbSpline
 62
253
  6
CONTINUOUS
 70
0
 71
3
 72
13
 73
9
 74
7
 42
0.0000001
 43
0.0000001
 44
0.0000000001
 12
0.0000009478
 22
-0.3537064006
 32
0.0
 13
0.0197326764
 23
-0.3531555455
 33
0.0
 40
0.0
 40
0.0
 40
0.0
 40
0.0
 40
0.1807365394
 40
0.3628821371
 40
0.5409121621
 40
0.7094442518
 40
0.8637208192
 40
1.0
 40
1.0
 40
1.0
 40
1.0
 10
-7.3615031013
 20
8.068993266
 30
0.0
 10
-7.3615030442
 20
8.0476840424
 30
0.0
 10
-7.3613509523
 20
8.0048993051
 30
0.0
 10
-7.3606575154
 20
7.9411277922
 30
0.0
 10
-7.3594912759
 20
7.8788022395
 30
0.0
 10
-7.3578783203
 20
7.8197734735
 30
0.0
 10
-7.3558735344
 20
7.7656822955
 30
0.0
 10
-7.3542166177
 20
7.73146414
 30
0.0
 10
-7.3533202333
 20
7.7154215572
 30
0.0
 11
-7.3615031013
 21
8.068993266
 31
0.0
 11
-7.3612738709
 21
8.0050660062
 31
0.0
 11
-7.36056714
 21
7.9406438189
 31
0.0
 11
-7.359377528
 21
7.8776846974
 31
0.0
 11
-7.3577315434
 21
7.8180965475
 31
0.0
 11
-7.3556855271
 21
7.7635663087
 31
0.0
 11
-7.3533202333
 21
7.7154215572
 31
0.0
  0
SPLINE
  5
609
100
AcDbEntity
  8
ASSI
100
AcDbSpline
 62
253
  6
CONTINUOUS
 70
0
 71
3
 72
13
 73
9
 74
7
 42
0.0000001
 43
0.0000001
 44
0.0000000001
 12
0.0197326329
 22
0.3531555552
 32
0.0
 13
0.0000009482
 23
0.3537064079
 33
0.0
 40
0.0
 40
0.0
 40
0.0
 40
0.0
 40
0.1362791858
 40
0.2905557542
 40
0.4590878453
 40
0.6371178717
 40
0.8192634707
 40
1.0
 40
1.0
 40
1.0
 40
1.0
 10
-7.2040720994
 20
7.7154215537
 30
0.0
 10
-7.203175717
 20
7.7314641376
 30
0.0
 10
-7.2015187963
 20
7.7656822943
 30
0.0
 10
-7.1995140133
 20
7.8197734744
 30
0.0
 10
-7.197901056
 20
7.878802242
 30
0.0
 10
-7.1967348174
 20
7.9411277965
 30
0.0
 10
-7.1960413801
 20
8.0048993098
 30
0.0
 10
-7.1958892884
 20
8.047684047
 30
0.0
 10
-7.1958892313
 20
8.0689932699
 30
0.0
 11
-7.2040720994
 21
7.7154215537
 31
0.0
 11
-7.2017068051
 21
7.763566308
 31
0.0
 11
-7.1996607895
 21
7.8180965483
 31
0.0
 11
-7.1980148043
 21
7.8776846999
 31
0.0
 11
-7.1968251926
 21
7.9406438232
 31
0.0
 11
-7.1961184616
 21
8.0050660123
 31
0.0
 11
-7.1958892313
 21
8.0689932699
 31
0.0
  0
SPLINE
  5
60A
100
AcDbEntity
  8
ASSI
100
AcDbSpline
 62
253
  6
CONTINUOUS
 70
0
 71
3
 72
13
 73
9
 74
7
 42
0.0000001
 43
0.0000001
 44
0.0000000001
 12
0.0049371296
 22
-0.3535273384
 32
0.0
 13
0.000000663
 23
-0.3535618111
 33
0.0
 40
0.0
 40
0.0
 40
0.0
 40
0.0
 40
0.1390722399
 40
0.2928914527
 40
0.4588232532
 40
0.6340132458
 40
0.8154446221
 40
1.0
 40
1.0
 40
1.0
 40
1.0
 10
6.9678800192
 20
7.1083221304
 30
0.0
 10
6.9681088917
 20
7.0919335174
 30
0.0
 10
6.968525465
 20
7.0574175477
 30
0.0
 10
6.9690239104
 20
7.0033456647
 30
0.0
 10
6.9694216419
 20
6.9450162238
 30
0.0
 10
6.9697108877
 20
6.8834319129
 30
0.0
 10
6.9698865044
 20
6.8196523082
 30
0.0
 10
6.9699255897
 20
6.7765193177
 30
0.0
 10
6.9699256305
 20
6.7547687398
 30
0.0
 11
6.9678800192
 21
7.1083221304
 31
0.0
 11
6.9684823081
 21
7.0591551862
 31
0.0
 11
6.9689898285
 21
7.0047729549
 31
0.0
 11
6.969394018
 21
6.9461071994
 31
0.0
 11
6.9696877235
 21
6.8841674046
 31
0.0
 11
6.9698659091
 21
6.8200204461
 31
0.0
 11
6.9699256305
 21
6.7547687398
 31
0.0
  0
SPLINE
  5
60B
100
AcDbEntity
  8
ASSI
100
AcDbSpline
 62
253
  6
CONTINUOUS
 70
0
 71
3
 72
13
 73
9
 74
7
 42
0.0000001
 43
0.0000001
 44
0.0000000001
 12
0.000000663
 22
0.3535618111
 32
0.0
 13
0.0049371293
 23
0.3535273384
 33
0.0
 40
0.0
 40
0.0
 40
0.0
 40
0.0
 40
0.184555379
 40
0.3659867553
 40
0.5411767479
 40
0.7071085483
 40
0.8609277611
 40
1.0
 40
1.0
 40
1.0
 40
1.0
 10
7.072682037
 20
6.7547687398
 30
0.0
 10
7.0726820777
 20
6.7765193178
 30
0.0
 10
7.072721163
 20
6.8196523084
 30
0.0
 10
7.0728967797
 20
6.8834319133
 30
0.0
 10
7.0731860255
 20
6.9450162241
 30
0.0
 10
7.073583757
 20
7.0033456651
 30
0.0
 10
7.0740822024
 20
7.057417548
 30
0.0
 10
7.0744987757
 20
7.0919335175
 30
0.0
 10
7.0747276483
 20
7.1083221304
 30
0.0
 11
7.072682037
 21
6.7547687398
 31
0.0
 11
7.0727417583
 21
6.8200204465
 31
0.0
 11
7.072919944
 21
6.884167405
 31
0.0
 11
7.0732136495
 21
6.9461071997
 31
0.0
 11
7.0736178389
 21
7.0047729553
 31
0.0
 11
7.0741253594
 21
7.0591551865
 31
0.0
 11
7.0747276483
 21
7.1083221304
 31
0.0
  0
SPLINE
  5
60C
100
AcDbEntity
  8
ASSI
100
AcDbSpline
 62
253
  6
CONTINUOUS
 70
0
 71
3
 72
17
 73
13
 74
11
 42
0.0000001
 43
0.0000001
 44
0.0000000001
 12
-0.000001509
 22
-0.4998432663
 32
0.0
 13
-0.185506915
 23
-0.4641448862
 33
0.0
 40
0.0
 40
0.0
 40
0.0
 40
0.0
 40
0.1530153495
 40
0.3024422212
 40
0.4447665503
 40
0.5766197167
 40
0.6949031276
 40
0.7968310081
 40
0.8800040106
 40
0.9424699896
 40
0.9827635986
 40
1.0
 40
1.0
 40
1.0
 40
1.0
 10
6.969925647
 20
5.4036505332
 30
0.0
 10
6.9699255701
 20
5.3781559692
 30
0.0
 10
6.9698720466
 20
5.3277647608
 30
0.0
 10
6.9696328818
 20
5.2536603732
 30
0.0
 10
6.9692380774
 20
5.1830834586
 30
0.0
 10
6.9687083583
 20
5.1176937325
 30
0.0
 10
6.9680240223
 20
5.0590452788
 30
0.0
 10
6.9673071471
 20
5.0084822598
 30
0.0
 10
6.9662867044
 20
4.9672992429
 30
0.0
 10
6.9657625005
 20
4.9361958326
 30
0.0
 10
6.9641094246
 20
4.9164882161
 30
0.0
 10
6.9642508343
 20
4.906605861
 30
0.0
 10
6.9631850104
 20
4.9039391318
 30
0.0
 11
6.969925647
 21
5.4036505332
 31
0.0
 11
6.9698434831
 21
5.3271668853
 31
0.0
 11
6.9695988873
 21
5.2524772702
 31
0.0
 11
6.9691974567
 21
5.1813385452
 31
0.0
 11
6.9686487549
 21
5.115434912
 31
0.0
 11
6.9679656005
 21
5.0563156925
 31
0.0
 11
6.9671641043
 21
5.0053740326
 31
0.0
 11
6.9662632233
 21
4.9638103294
 31
0.0
 11
6.9652839377
 21
4.9326024914
 31
0.0
 11
6.9642499349
 21
4.9124885623
 31
0.0
 11
6.9631850104
 21
4.9039391318
 31
0.0
  0
SPLINE
  5
60D
100
AcDbEntity
  8
ASSI
100
AcDbSpline
 62
253
  6
CONTINUOUS
 70
0
 71
3
 72
17
 73
13
 74
11
 42
0.0000001
 43
0.0000001
 44
0.0000000001
 12
-0.1855069271
 22
0.4641448815
 32
0.0
 13
-0.000001509
 23
0.4998432665
 33
0.0
 40
0.0
 40
0.0
 40
0.0
 40
0.0
 40
0.0172364015
 40
0.0575300106
 40
0.1199959897
 40
0.2031689922
 40
0.3050968727
 40
0.4233802836
 40
0.5552334501
 40
0.6975577792
 40
0.8469846509
 40
1.0
 40
1.0
 40
1.0
 40
1.0
 10
7.079422657
 20
4.9039391318
 30
0.0
 10
7.0783568331
 20
4.906605861
 30
0.0
 10
7.078498243
 20
4.9164882162
 30
0.0
 10
7.0768451669
 20
4.9361958327
 30
0.0
 10
7.0763209631
 20
4.967299243
 30
0.0
 10
7.0753005203
 20
5.00848226
 30
0.0
 10
7.0745836451
 20
5.059045279
 30
0.0
 10
7.0738993092
 20
5.1176937327
 30
0.0
 10
7.07336959
 20
5.1830834589
 30
0.0
 10
7.0729747856
 20
5.2536603734
 30
0.0
 10
7.0727356209
 20
5.327764761
 30
0.0
 10
7.0726820974
 20
5.3781559694
 30
0.0
 10
7.0726820204
 20
5.4036505334
 30
0.0
 11
7.079422657
 21
4.9039391318
 31
0.0
 11
7.0783577325
 21
4.9124885624
 31
0.0
 11
7.0773237297
 21
4.9326024915
 31
0.0
 11
7.0763444442
 21
4.9638103296
 31
0.0
 11
7.0754435632
 21
5.0053740328
 31
0.0
 11
7.0746420669
 21
5.0563156927
 31
0.0
 11
7.0739589126
 21
5.1154349122
 31
0.0
 11
7.0734102108
 21
5.1813385455
 31
0.0
 11
7.0730087801
 21
5.2524772704
 31
0.0
 11
7.0727641843
 21
5.3271668856
 31
0.0
 11
7.0726820204
 21
5.4036505334
 31
0.0
  0
SPLINE
  5
60E
100
AcDbEntity
  8
ASSI
100
AcDbSpline
 62
253
  6
CONTINUOUS
 70
0
 71
3
 72
17
 73
13
 74
11
 42
0.0000001
 43
0.0000001
 44
0.0000000001
 12
-0.000001509
 22
-0.4998432663
 32
0.0
 13
-0.185506915
 23
-0.4641448862
 33
0.0
 40
0.0
 40
0.0
 40
0.0
 40
0.0
 40
0.1530153495
 40
0.3024422212
 40
0.4447665503
 40
0.5766197167
 40
0.6949031276
 40
0.7968310081
 40
0.8800040106
 40
0.9424699896
 40
0.9827635986
 40
1.0
 40
1.0
 40
1.0
 40
1.0
 10
-7.330074353
 20
5.4036505332
 30
0.0
 10
-7.3300744299
 20
5.3781559692
 30
0.0
 10
-7.3301279534
 20
5.3277647608
 30
0.0
 10
-7.3303671182
 20
5.2536603732
 30
0.0
 10
-7.3307619226
 20
5.1830834586
 30
0.0
 10
-7.3312916417
 20
5.1176937325
 30
0.0
 10
-7.3319759777
 20
5.0590452788
 30
0.0
 10
-7.3326928529
 20
5.0084822598
 30
0.0
 10
-7.3337132956
 20
4.9672992429
 30
0.0
 10
-7.3342374995
 20
4.9361958326
 30
0.0
 10
-7.3358905754
 20
4.9164882161
 30
0.0
 10
-7.3357491657
 20
4.906605861
 30
0.0
 10
-7.3368149896
 20
4.9039391318
 30
0.0
 11
-7.330074353
 21
5.4036505332
 31
0.0
 11
-7.3301565169
 21
5.3271668853
 31
0.0
 11
-7.3304011127
 21
5.2524772702
 31
0.0
 11
-7.3308025433
 21
5.1813385452
 31
0.0
 11
-7.3313512451
 21
5.115434912
 31
0.0
 11
-7.3320343995
 21
5.0563156925
 31
0.0
 11
-7.3328358957
 21
5.0053740326
 31
0.0
 11
-7.3337367767
 21
4.9638103294
 31
0.0
 11
-7.3347160623
 21
4.9326024914
 31
0.0
 11
-7.3357500651
 21
4.9124885623
 31
0.0
 11
-7.3368149896
 21
4.9039391318
 31
0.0
  0
SPLINE
  5
60F
100
AcDbEntity
  8
ASSI
100
AcDbSpline
 62
253
  6
CONTINUOUS
 70
0
 71
3
 72
17
 73
13
 74
11
 42
0.0000001
 43
0.0000001
 44
0.0000000001
 12
-0.1855069271
 22
0.4641448815
 32
0.0
 13
-0.000001509
 23
0.4998432665
 33
0.0
 40
0.0
 40
0.0
 40
0.0
 40
0.0
 40
0.0172364015
 40
0.0575300106
 40
0.1199959897
 40
0.2031689922
 40
0.3050968727
 40
0.4233802836
 40
0.5552334501
 40
0.6975577792
 40
0.8469846509
 40
1.0
 40
1.0
 40
1.0
 40
1.0
 10
-7.220577343
 20
4.9039391318
 30
0.0
 10
-7.2216431669
 20
4.906605861
 30
0.0
 10
-7.221501757
 20
4.9164882162
 30
0.0
 10
-7.2231548331
 20
4.9361958327
 30
0.0
 10
-7.2236790369
 20
4.967299243
 30
0.0
 10
-7.2246994797
 20
5.00848226
 30
0.0
 10
-7.2254163549
 20
5.059045279
 30
0.0
 10
-7.2261006908
 20
5.1176937327
 30
0.0
 10
-7.22663041
 20
5.1830834589
 30
0.0
 10
-7.2270252144
 20
5.2536603734
 30
0.0
 10
-7.2272643791
 20
5.327764761
 30
0.0
 10
-7.2273179026
 20
5.3781559694
 30
0.0
 10
-7.2273179796
 20
5.4036505334
 30
0.0
 11
-7.220577343
 21
4.9039391318
 31
0.0
 11
-7.2216422675
 21
4.9124885624
 31
0.0
 11
-7.2226762703
 21
4.9326024915
 31
0.0
 11
-7.2236555558
 21
4.9638103296
 31
0.0
 11
-7.2245564368
 21
5.0053740328
 31
0.0
 11
-7.2253579331
 21
5.0563156927
 31
0.0
 11
-7.2260410874
 21
5.1154349122
 31
0.0
 11
-7.2265897892
 21
5.1813385455
 31
0.0
 11
-7.2269912199
 21
5.2524772704
 31
0.0
 11
-7.2272358157
 21
5.3271668856
 31
0.0
 11
-7.2273179796
 21
5.4036505334
 31
0.0
  0
SPLINE
  5
610
100
AcDbEntity
  8
ASSI
100
AcDbSpline
 62
253
  6
CONTINUOUS
 70
0
 71
3
 72
13
 73
9
 74
7
 42
0.0000001
 43
0.0000001
 44
0.0000000001
 12
0.0049371296
 22
-0.3535273384
 32
0.0
 13
0.000000663
 23
-0.3535618111
 33
0.0
 40
0.0
 40
0.0
 40
0.0
 40
0.0
 40
0.1390722399
 40
0.2928914527
 40
0.4588232532
 40
0.6340132458
 40
0.8154446221
 40
1.0
 40
1.0
 40
1.0
 40
1.0
 10
-7.3321199808
 20
7.1083221304
 30
0.0
 10
-7.3318911083
 20
7.0919335174
 30
0.0
 10
-7.331474535
 20
7.0574175477
 30
0.0
 10
-7.3309760896
 20
7.0033456647
 30
0.0
 10
-7.3305783581
 20
6.9450162238
 30
0.0
 10
-7.3302891123
 20
6.8834319129
 30
0.0
 10
-7.3301134956
 20
6.8196523082
 30
0.0
 10
-7.3300744103
 20
6.7765193177
 30
0.0
 10
-7.3300743695
 20
6.7547687398
 30
0.0
 11
-7.3321199808
 21
7.1083221304
 31
0.0
 11
-7.3315176919
 21
7.0591551862
 31
0.0
 11
-7.3310101715
 21
7.0047729549
 31
0.0
 11
-7.330605982
 21
6.9461071994
 31
0.0
 11
-7.3303122765
 21
6.8841674046
 31
0.0
 11
-7.3301340909
 21
6.8200204461
 31
0.0
 11
-7.3300743695
 21
6.7547687398
 31
0.0
  0
SPLINE
  5
611
100
AcDbEntity
  8
ASSI
100
AcDbSpline
 62
253
  6
CONTINUOUS
 70
0
 71
3
 72
13
 73
9
 74
7
 42
0.0000001
 43
0.0000001
 44
0.0000000001
 12
0.000000663
 22
0.3535618111
 32
0.0
 13
0.0049371293
 23
0.3535273384
 33
0.0
 40
0.0
 40
0.0
 40
0.0
 40
0.0
 40
0.184555379
 40
0.3659867553
 40
0.5411767479
 40
0.7071085483
 40
0.8609277611
 40
1.0
 40
1.0
 40
1.0
 40
1.0
 10
-7.227317963
 20
6.7547687398
 30
0.0
 10
-7.2273179223
 20
6.7765193178
 30
0.0
 10
-7.227278837
 20
6.8196523084
 30
0.0
 10
-7.2271032203
 20
6.8834319133
 30
0.0
 10
-7.2268139745
 20
6.9450162241
 30
0.0
 10
-7.226416243
 20
7.0033456651
 30
0.0
 10
-7.2259177976
 20
7.057417548
 30
0.0
 10
-7.2255012243
 20
7.0919335175
 30
0.0
 10
-7.2252723517
 20
7.1083221304
 30
0.0
 11
-7.227317963
 21
6.7547687398
 31
0.0
 11
-7.2272582417
 21
6.8200204465
 31
0.0
 11
-7.227080056
 21
6.884167405
 31
0.0
 11
-7.2267863505
 21
6.9461071997
 31
0.0
 11
-7.2263821611
 21
7.0047729553
 31
0.0
 11
-7.2258746406
 21
7.0591551865
 31
0.0
 11
-7.2252723517
 21
7.1083221304
 31
0.0
  0
SPLINE
  5
612
100
AcDbEntity
  8
ASSI
100
AcDbSpline
 62
253
  6
CONTINUOUS
 70
0
 71
3
 72
15
 73
11
 74
9
 42
0.0000001
 43
0.0000001
 44
0.0000000001
 12
-0.4014143352
 22
-0.0070088515
 32
0.0
 13
-0.0139942492
 23
-0.401231546
 33
0.0
 40
0.0
 40
0.0
 40
0.0
 40
0.0
 40
0.1440045699
 40
0.2856957779
 40
0.4226392486
 40
0.5528846346
 40
0.6752427483
 40
0.7895687529
 40
0.8969985064
 40
1.0
 40
1.0
 40
1.0
 40
1.0
 10
-7.3321199808
 20
7.1083221304
 30
0.0
 10
-7.3513884804
 20
7.1079856948
 30
0.0
 10
-7.3896226549
 20
7.104716418
 30
0.0
 10
-7.4449569333
 20
7.0921770413
 30
0.0
 10
-7.4962186704
 20
7.0724499694
 30
0.0
 10
-7.5415429933
 20
7.0462127205
 30
0.0
 10
-7.5792840866
 20
7.0143483305
 30
0.0
 10
-7.6080141293
 20
6.977890533
 30
0.0
 10
-7.6265203034
 20
6.9381012077
 30
0.0
 10
-7.6314567527
 20
6.9099659122
 30
0.0
 10
-7.6319372289
 20
6.896190096
 30
0.0
 11
-7.3321199808
 21
7.1083221304
 31
0.0
 11
-7.389721553
 21
7.1033670052
 31
0.0
 11
-7.4451783184
 21
7.0906976283
 31
0.0
 11
-7.4964253386
 21
7.0707857484
 31
0.0
 11
-7.5415544274
 21
7.0443727901
 31
0.0
 11
-7.578885203
 21
7.0124422458
 31
0.0
 11
-7.6070276568
 21
6.9761830546
 31
0.0
 11
-7.6249339097
 21
6.9369453317
 31
0.0
 11
-7.6319372289
 21
6.896190096
 31
0.0
  0
SPLINE
  5
613
100
AcDbEntity
  8
ASSI
100
AcDbSpline
 62
253
  6
CONTINUOUS
 70
0
 71
3
 72
15
 73
11
 74
9
 42
0.0000001
 43
0.0000001
 44
0.0000000001
 12
-0.4014143357
 22
-0.0070088488
 32
0.0
 13
-0.0139942489
 23
-0.4012315464
 33
0.0
 40
0.0
 40
0.0
 40
0.0
 40
0.0
 40
0.1440044844
 40
0.2856956272
 40
0.4226390599
 40
0.5528844372
 40
0.67524257
 40
0.7895686166
 40
0.89699843
 40
1.0
 40
1.0
 40
1.0
 40
1.0
 10
-7.3533206168
 20
7.7154289115
 30
0.0
 10
-7.3725891049
 20
7.7150924763
 30
0.0
 10
-7.4108232593
 20
7.711823203
 30
0.0
 10
-7.4661575144
 20
7.6992838386
 30
0.0
 10
-7.517419241
 20
7.6795567817
 30
0.0
 10
-7.5627435671
 20
7.6533195459
 30
0.0
 10
-7.6004846749
 20
7.6214551621
 30
0.0
 10
-7.6292147386
 20
7.5849973604
 30
0.0
 10
-7.6477209328
 20
7.5452080175
 30
0.0
 10
-7.6526573884
 20
7.5170727036
 30
0.0
 10
-7.6531378649
 20
7.5032968772
 30
0.0
 11
-7.3533206168
 21
7.7154289115
 31
0.0
 11
-7.410922155
 21
7.710473792
 31
0.0
 11
-7.4663788966
 21
7.6978044277
 31
0.0
 11
-7.5176259063
 21
7.6778925632
 31
0.0
 11
-7.5627549988
 21
7.6514796178
 31
0.0
 11
-7.6000857896
 21
7.6195490793
 31
0.0
 11
-7.6282282644
 21
7.5832898831
 31
0.0
 11
-7.6461345365
 21
7.5440521425
 31
0.0
 11
-7.6531378649
 21
7.5032968772
 31
0.0
  0
ELLIPSE
  5
614
100
AcDbEntity
  8
RACCORDO
100
AcDbEllipse
 62
7
  6
CONTINUOUS
 10
10.5081541276
 20
-10.5990362233
 30
0.0
 11
0.498078285
 21
0.0448076117
 31
0.0
 40
0.9965957691
 41
-1.6608206152
 42
-0.0909376769
  0
ELLIPSE
  5
615
100
AcDbEntity
  8
RACCORDO
100
AcDbEllipse
 62
7
  6
CONTINUOUS
 10
-10.7655464601
 20
-10.5990362233
 30
0.0
 11
0.498078285
 21
-0.0448076117
 31
0.0
 40
0.9965957691
 41
-3.0506549766
 42
-1.4807720384
  0
ELLIPSE
  5
616
100
AcDbEntity
  8
RACCORDO
100
AcDbEllipse
 62
7
  6
CONTINUOUS
 10
10.8212733681
 20
10.7618679053
 30
0.0
 11
-0.1789222233
 21
-0.0894542984
 31
-0.0
 40
0.9998096356
 41
2.6780516535
 42
4.2486956813
  0
ELLIPSE
  5
617
100
AcDbEntity
  8
RACCORDO
100
AcDbEllipse
 62
7
  6
CONTINUOUS
 10
-11.0786657007
 20
10.7618679053
 30
0.0
 11
-0.1789222233
 21
0.0894542984
 31
-0.0
 40
0.9998096356
 41
-1.1071030277
 42
0.4635410001
  0
ELLIPSE
  5
618
100
AcDbEntity
  8
RACCORDO
100
AcDbEllipse
 62
7
  6
CONTINUOUS
 10
-7.4132261124
 20
-11.0708448047
 30
0.0
 11
0.2
 21
0.0
 31
0.0
 40
0.0524077793
 41
1.5707963268
 42
2.617993878
  0
ELLIPSE
  5
619
100
AcDbEntity
  8
RACCORDO
100
AcDbEllipse
 62
7
  6
CONTINUOUS
 10
-4.0441662201
 20
-11.0708448047
 30
0.0
 11
0.2
 21
-0.0
 31
0.0
 40
0.0524077793
 41
0.5235987756
 42
1.5707963268
  0
ELLIPSE
  5
61A
100
AcDbEntity
  8
RACCORDO
100
AcDbEllipse
 62
7
  6
CONTINUOUS
 10
3.7867738876
 20
-11.0708448047
 30
0.0
 11
0.2
 21
0.0
 31
0.0
 40
0.0524077793
 41
1.5707963268
 42
2.617993878
  0
ELLIPSE
  5
61B
100
AcDbEntity
  8
RACCORDO
100
AcDbEllipse
 62
7
  6
CONTINUOUS
 10
7.1558337799
 20
-11.0708448047
 30
0.0
 11
0.2
 21
-0.0
 31
0.0
 40
0.0524077793
 41
0.5235987756
 42
1.5707963268
  0
ELLIPSE
  5
61C
100
AcDbEntity
  8
RACCORDO
100
AcDbEllipse
 62
7
  6
CONTINUOUS
 10
5.4013238458
 20
-8.7055316958
 30
0.0
 11
0.0096324734
 21
0.5915363915
 31
0.0
 40
0.4225722455
 41
-4.6738730357
 42
-3.1347116709
  0
ELLIPSE
  5
61D
100
AcDbEntity
  8
RACCORDO
100
AcDbEllipse
 62
7
  6
CONTINUOUS
 10
-5.6587161784
 20
-8.7055316958
 30
0.0
 11
-0.0096324734
 21
0.5915363915
 31
0.0
 40
0.4225722455
 41
-3.1484736363
 42
-1.6093122714
  0
ELLIPSE
  5
61E
100
AcDbEntity
  8
RACCORDO
100
AcDbEllipse
 62
7
  6
CONTINUOUS
 10
-5.7986761542
 20
-8.7055316958
 30
0.0
 11
0.0096324734
 21
0.5915363915
 31
0.0
 40
0.4225722455
 41
-4.6738730357
 42
-3.1347116709
  0
ELLIPSE
  5
61F
100
AcDbEntity
  8
RACCORDO
100
AcDbEllipse
 62
7
  6
CONTINUOUS
 10
-5.6377637167
 20
-6.291981132
 30
0.0
 11
0.0493464685
 21
0.2491672984
 31
0.0
 40
0.9842259085
 41
0.1636613736
 42
0.1925076875
  0
ELLIPSE
  5
620
100
AcDbEntity
  8
RACCORDO
100
AcDbEllipse
 62
7
  6
CONTINUOUS
 10
-5.8196286159
 20
-6.291981132
 30
0.0
 11
-0.0493464685
 21
0.2491672984
 31
0.0
 40
0.9842259085
 41
-0.1925076875
 42
-0.1636613736
  0
ELLIPSE
  5
621
100
AcDbEntity
  8
RACCORDO
100
AcDbEllipse
 62
7
  6
CONTINUOUS
 10
5.5622362833
 20
-6.291981132
 30
0.0
 11
0.0493464685
 21
0.2491672984
 31
0.0
 40
0.9842259085
 41
0.1636613736
 42
0.1925076875
  0
ELLIPSE
  5
622
100
AcDbEntity
  8
RACCORDO
100
AcDbEllipse
 62
7
  6
CONTINUOUS
 10
5.3803713841
 20
-6.291981132
 30
0.0
 11
-0.0493464685
 21
0.2491672984
 31
0.0
 40
0.9842259085
 41
-0.1925076875
 42
-0.1636613736
  0
ELLIPSE
  5
623
100
AcDbEntity
  8
RACCORDO
100
AcDbEllipse
 62
7
  6
CONTINUOUS
 10
9.7148889737
 20
11.061875521
 30
0.0
 11
0.0
 21
498.5
 31
0.0
 40
0.0349207695
 41
-4.7097523516
 42
-4.7005263624
  0
ELLIPSE
  5
624
100
AcDbEntity
  8
RACCORDO
100
AcDbEllipse
 62
7
  6
CONTINUOUS
 10
-24.2722813063
 20
11.061875521
 30
0.0
 11
0.0
 21
498.5
 31
0.0
 40
0.0349207695
 41
-1.5826589448
 42
-1.5734329556
  0
ELLIPSE
  5
625
100
AcDbEntity
  8
RACCORDO
100
AcDbEllipse
 62
7
  6
CONTINUOUS
 10
24.0148889737
 20
11.061875521
 30
0.0
 11
0.0
 21
498.5
 31
0.0
 40
0.0349207695
 41
-4.7097523516
 42
-4.7005263624
  0
ELLIPSE
  5
626
100
AcDbEntity
  8
RACCORDO
100
AcDbEllipse
 62
7
  6
CONTINUOUS
 10
-9.9722813063
 20
11.061875521
 30
0.0
 11
0.0
 21
498.5
 31
0.0
 40
0.0349207695
 41
-1.5826589448
 42
-1.5734329556
  0
ELLIPSE
  5
627
100
AcDbEntity
  8
RACCORDO
100
AcDbEllipse
 62
7
  6
CONTINUOUS
 10
7.1041107295
 20
9.7788857619
 30
0.0
 11
0.3
 21
-0.0
 31
0.0
 40
0.0349207695
 41
0.034906585
 42
1.5707963268
  0
ELLIPSE
  5
628
100
AcDbEntity
  8
RACCORDO
100
AcDbEllipse
 62
7
  6
CONTINUOUS
 10
-22.7222813063
 20
11.061875521
 30
0.0
 11
0.0
 21
498.5
 31
0.0
 40
0.0349207695
 41
-1.6111588629
 42
-1.6025912052
  0
ELLIPSE
  5
629
100
AcDbEntity
  8
RACCORDO
100
AcDbEllipse
 62
7
  6
CONTINUOUS
 10
-5.3354342433
 20
-9.0453156124
 30
0.0
 11
-0.0
 21
0.2
 31
0.0
 40
0.0349207695
 41
-3.019419606
 42
-1.6111588629
  0
ELLIPSE
  5
62A
100
AcDbEntity
  8
RACCORDO
100
AcDbEllipse
 62
7
  6
CONTINUOUS
 10
-6.1219580892
 20
-9.0453156124
 30
0.0
 11
0.0
 21
0.2
 31
0.0
 40
0.0349207695
 41
-4.6720264443
 42
-3.2637657012
  0
ELLIPSE
  5
62B
100
AcDbEntity
  8
RACCORDO
100
AcDbEllipse
 62
7
  6
CONTINUOUS
 10
11.2648889737
 20
11.061875521
 30
0.0
 11
0.0
 21
498.5
 31
0.0
 40
0.0349207695
 41
-4.680594102
 42
-4.6720264443
  0
ELLIPSE
  5
62C
100
AcDbEntity
  8
RACCORDO
100
AcDbEllipse
 62
7
  6
CONTINUOUS
 10
-11.5222813063
 20
11.061875521
 30
0.0
 11
0.0
 21
498.5
 31
0.0
 40
0.0349207695
 41
-1.6111588629
 42
-1.6025912052
  0
ELLIPSE
  5
62D
100
AcDbEntity
  8
RACCORDO
100
AcDbEllipse
 62
7
  6
CONTINUOUS
 10
5.8645657567
 20
-9.0453156124
 30
0.0
 11
0.0
 21
0.2
 31
0.0
 40
0.0349207695
 41
-3.019419606
 42
-1.6111588629
  0
ELLIPSE
  5
62E
100
AcDbEntity
  8
RACCORDO
100
AcDbEllipse
 62
7
  6
CONTINUOUS
 10
5.0780419108
 20
-9.0453156124
 30
0.0
 11
-0.0
 21
0.2
 31
0.0
 40
0.0349207695
 41
-4.6720264443
 42
-3.2637657012
  0
ELLIPSE
  5
62F
100
AcDbEntity
  8
RACCORDO
100
AcDbEllipse
 62
7
  6
CONTINUOUS
 10
22.4648889737
 20
11.061875521
 30
0.0
 11
0.0
 21
498.5
 31
0.0
 40
0.0349207695
 41
-4.680594102
 42
-4.6720264443
  0
ELLIPSE
  5
630
100
AcDbEntity
  8
RACCORDO
100
AcDbEllipse
 62
7
  6
CONTINUOUS
 10
3.4112415723
 20
7.3413732031
 30
0.0
 11
0.3
 21
-0.0
 31
0.0
 40
0.0349207695
 41
-1.5707963268
 42
-0.3490658504
  0
ELLIPSE
  5
631
100
AcDbEntity
  8
RACCORDO
100
AcDbEllipse
 62
7
  6
CONTINUOUS
 10
-3.6686339048
 20
7.3413732031
 30
0.0
 11
0.3
 21
0.0
 31
0.0
 40
0.0349207695
 41
-2.7925268032
 42
-1.5707963268
  0
ELLIPSE
  5
632
100
AcDbEntity
  8
RACCORDO
100
AcDbEllipse
 62
7
  6
CONTINUOUS
 10
3.4112415723
 20
5.7823778388
 30
0.0
 11
0.3
 21
-0.0
 31
0.0
 40
0.0349207695
 41
0.3490658504
 42
1.5707963268
  0
ELLIPSE
  5
633
100
AcDbEntity
  8
RACCORDO
100
AcDbEllipse
 62
7
  6
CONTINUOUS
 10
-3.6686339048
 20
5.7823778388
 30
0.0
 11
0.3
 21
-0.0
 31
0.0
 40
0.0349207695
 41
1.5707963268
 42
2.7925268032
  0
ELLIPSE
  5
634
100
AcDbEntity
  8
RACCORDO
100
AcDbEllipse
 62
7
  6
CONTINUOUS
 10
6.9384969379
 20
9.7788857619
 30
0.0
 11
0.3
 21
0.0
 31
0.0
 40
0.0349207695
 41
1.5707963268
 42
3.1066860685
  0
ELLIPSE
  5
635
100
AcDbEntity
  8
RACCORDO
100
AcDbEllipse
 62
7
  6
CONTINUOUS
 10
-7.1958892705
 20
9.7788857619
 30
0.0
 11
0.3
 21
0.0
 31
0.0
 40
0.0349207695
 41
0.034906585
 42
1.5707963268
  0
ELLIPSE
  5
636
100
AcDbEntity
  8
RACCORDO
100
AcDbEllipse
 62
7
  6
CONTINUOUS
 10
-7.4132261124
 20
-9.5285045499
 30
0.0
 11
0.2
 21
-0.0
 31
0.0
 40
0.1227845609
 41
1.5707963268
 42
2.617993878
  0
ELLIPSE
  5
637
100
AcDbEntity
  8
RACCORDO
100
AcDbEllipse
 62
7
  6
CONTINUOUS
 10
-4.0441662201
 20
-9.5285045499
 30
0.0
 11
0.2
 21
-0.0
 31
0.0
 40
0.1227845609
 41
0.5235987756
 42
1.5707963268
  0
ELLIPSE
  5
638
100
AcDbEntity
  8
RACCORDO
100
AcDbEllipse
 62
7
  6
CONTINUOUS
 10
3.7867738876
 20
-9.5285045499
 30
0.0
 11
0.2
 21
0.0
 31
0.0
 40
0.1227845609
 41
1.5707963268
 42
2.617993878
  0
ELLIPSE
  5
639
100
AcDbEntity
  8
RACCORDO
100
AcDbEllipse
 62
7
  6
CONTINUOUS
 10
7.1558337799
 20
-9.5285045499
 30
0.0
 11
0.2
 21
-0.0
 31
0.0
 40
0.1227845609
 41
0.5235987756
 42
1.5707963268
  0
ELLIPSE
  5
63A
100
AcDbEntity
  8
RACCORDO
100
AcDbEllipse
 62
7
  6
CONTINUOUS
 10
-7.3615030621
 20
9.7788857619
 30
0.0
 11
0.3
 21
0.0
 31
0.0
 40
0.0349207695
 41
1.5707963268
 42
3.1066860685
  0
ELLIPSE
  5
63B
100
AcDbEntity
  8
RACCORDO
100
AcDbEllipse
 62
7
  6
CONTINUOUS
 10
9.5600195074
 20
-9.4074592252
 30
0.0
 11
0.1992395838
 21
-0.0178260286
 31
0.0
 40
0.9965982379
 41
-1.4812606428
 42
0.0874087691
  0
ELLIPSE
  5
63C
100
AcDbEntity
  8
RACCORDO
100
AcDbEllipse
 62
7
  6
CONTINUOUS
 10
5.5412838216
 20
-8.7055316958
 30
0.0
 11
-0.0096324734
 21
0.5915363915
 31
0.0
 40
0.4225722455
 41
-3.1484736363
 42
-1.6093122714
  0
ELLIPSE
  5
63D
100
AcDbEntity
  8
RACCORDO
100
AcDbEllipse
 62
7
  6
CONTINUOUS
 10
-9.81741184
 20
-9.4074592252
 30
0.0
 11
0.1992395838
 21
0.0178260286
 31
0.0
 40
0.9965982379
 41
3.0541838845
 42
4.6228532963
  0
ELLIPSE
  5
63E
100
AcDbEntity
  8
ASSI
100
AcDbEllipse
 62
7
  6
CONTINUOUS
 10
10.5081541276
 20
-10.5990362233
 30
0.0
 11
0.498078285
 21
0.0448076117
 31
0.0
 40
0.9965957691
 41
-1.6608206152
 42
-0.0909376769
  0
ELLIPSE
  5
63F
100
AcDbEntity
  8
ASSI
100
AcDbEllipse
 62
7
  6
CONTINUOUS
 10
-10.7655464601
 20
-10.5990362233
 30
0.0
 11
0.498078285
 21
-0.0448076117
 31
0.0
 40
0.9965957691
 41
-3.0506549766
 42
-1.4807720384
  0
ELLIPSE
  5
640
100
AcDbEntity
  8
ASSI
100
AcDbEllipse
 62
7
  6
CONTINUOUS
 10
10.8212733681
 20
10.7618679053
 30
0.0
 11
-0.1789222233
 21
-0.0894542984
 31
-0.0
 40
0.9998096356
 41
2.6780516535
 42
4.2486956813
  0
ELLIPSE
  5
641
100
AcDbEntity
  8
ASSI
100
AcDbEllipse
 62
7
  6
CONTINUOUS
 10
-11.0786657007
 20
10.7618679053
 30
0.0
 11
-0.1789222233
 21
0.0894542984
 31
-0.0
 40
0.9998096356
 41
-1.1071030277
 42
0.4635410001
  0
ELLIPSE
  5
642
100
AcDbEntity
  8
ASSI
100
AcDbEllipse
 62
7
  6
CONTINUOUS
 10
-7.4132261124
 20
-11.0708448047
 30
0.0
 11
0.2
 21
0.0
 31
0.0
 40
0.0524077793
 41
1.5707963268
 42
2.617993878
  0
ELLIPSE
  5
643
100
AcDbEntity
  8
ASSI
100
AcDbEllipse
 62
7
  6
CONTINUOUS
 10
-4.0441662201
 20
-11.0708448047
 30
0.0
 11
0.2
 21
-0.0
 31
0.0
 40
0.0524077793
 41
0.5235987756
 42
1.5707963268
  0
ELLIPSE
  5
644
100
AcDbEntity
  8
ASSI
100
AcDbEllipse
 62
7
  6
CONTINUOUS
 10
3.7867738876
 20
-11.0708448047
 30
0.0
 11
0.2
 21
0.0
 31
0.0
 40
0.0524077793
 41
1.5707963268
 42
2.617993878
  0
ELLIPSE
  5
645
100
AcDbEntity
  8
ASSI
100
AcDbEllipse
 62
7
  6
CONTINUOUS
 10
7.1558337799
 20
-11.0708448047
 30
0.0
 11
0.2
 21
-0.0
 31
0.0
 40
0.0524077793
 41
0.5235987756
 42
1.5707963268
  0
ELLIPSE
  5
646
100
AcDbEntity
  8
ASSI
100
AcDbEllipse
 62
7
  6
CONTINUOUS
 10
5.4013238458
 20
-8.7055316958
 30
0.0
 11
0.0096324734
 21
0.5915363915
 31
0.0
 40
0.4225722455
 41
-4.6738730357
 42
-3.1347116709
  0
ELLIPSE
  5
647
100
AcDbEntity
  8
ASSI
100
AcDbEllipse
 62
7
  6
CONTINUOUS
 10
-9.9722813063
 20
11.061875521
 30
0.0
 11
0.0
 21
498.5
 31
0.0
 40
0.0349207695
 41
-1.5826589448
 42
-1.5734329556
  0
ELLIPSE
  5
648
100
AcDbEntity
  8
ASSI
100
AcDbEllipse
 62
7
  6
CONTINUOUS
 10
-5.6587161784
 20
-8.7055316958
 30
0.0
 11
-0.0096324734
 21
0.5915363915
 31
0.0
 40
0.4225722455
 41
-3.1484736363
 42
-1.6093122714
  0
ELLIPSE
  5
649
100
AcDbEntity
  8
ASSI
100
AcDbEllipse
 62
7
  6
CONTINUOUS
 10
-5.7986761542
 20
-8.7055316958
 30
0.0
 11
0.0096324734
 21
0.5915363915
 31
0.0
 40
0.4225722455
 41
-4.6738730357
 42
-3.1347116709
  0
ELLIPSE
  5
64A
100
AcDbEntity
  8
ASSI
100
AcDbEllipse
 62
7
  6
CONTINUOUS
 10
-5.6377637167
 20
-6.291981132
 30
0.0
 11
0.0493464685
 21
0.2491672984
 31
0.0
 40
0.9842259085
 41
0.1636613736
 42
0.1925076875
  0
ELLIPSE
  5
64B
100
AcDbEntity
  8
ASSI
100
AcDbEllipse
 62
7
  6
CONTINUOUS
 10
-5.8196286159
 20
-6.291981132
 30
0.0
 11
-0.0493464685
 21
0.2491672984
 31
0.0
 40
0.9842259085
 41
-0.1925076875
 42
-0.1636613736
  0
ELLIPSE
  5
64C
100
AcDbEntity
  8
ASSI
100
AcDbEllipse
 62
7
  6
CONTINUOUS
 10
5.5622362833
 20
-6.291981132
 30
0.0
 11
0.0493464685
 21
0.2491672984
 31
0.0
 40
0.9842259085
 41
0.1636613736
 42
0.1925076875
  0
ELLIPSE
  5
64D
100
AcDbEntity
  8
ASSI
100
AcDbEllipse
 62
7
  6
CONTINUOUS
 10
5.3803713841
 20
-6.291981132
 30
0.0
 11
-0.0493464685
 21
0.2491672984
 31
0.0
 40
0.9842259085
 41
-0.1925076875
 42
-0.1636613736
  0
ELLIPSE
  5
64E
100
AcDbEntity
  8
ASSI
100
AcDbEllipse
 62
7
  6
CONTINUOUS
 10
9.7148889737
 20
11.061875521
 30
0.0
 11
0.0
 21
498.5
 31
0.0
 40
0.0349207695
 41
-4.7097523516
 42
-4.7005263624
  0
ELLIPSE
  5
64F
100
AcDbEntity
  8
ASSI
100
AcDbEllipse
 62
7
  6
CONTINUOUS
 10
-22.7222813063
 20
11.061875521
 30
0.0
 11
0.0
 21
498.5
 31
0.0
 40
0.0349207695
 41
-1.6111588629
 42
-1.6025912052
  0
ELLIPSE
  5
650
100
AcDbEntity
  8
ASSI
100
AcDbEllipse
 62
7
  6
CONTINUOUS
 10
-5.3354342433
 20
-9.0453156124
 30
0.0
 11
-0.0
 21
0.2
 31
0.0
 40
0.0349207695
 41
-3.019419606
 42
-1.6111588629
  0
ELLIPSE
  5
651
100
AcDbEntity
  8
ASSI
100
AcDbEllipse
 62
7
  6
CONTINUOUS
 10
-6.1219580892
 20
-9.0453156124
 30
0.0
 11
0.0
 21
0.2
 31
0.0
 40
0.0349207695
 41
-4.6720264443
 42
-3.2637657012
  0
ELLIPSE
  5
652
100
AcDbEntity
  8
ASSI
100
AcDbEllipse
 62
7
  6
CONTINUOUS
 10
11.2648889737
 20
11.061875521
 30
0.0
 11
0.0
 21
498.5
 31
0.0
 40
0.0349207695
 41
-4.680594102
 42
-4.6720264443
  0
ELLIPSE
  5
653
100
AcDbEntity
  8
ASSI
100
AcDbEllipse
 62
7
  6
CONTINUOUS
 10
-11.5222813063
 20
11.061875521
 30
0.0
 11
0.0
 21
498.5
 31
0.0
 40
0.0349207695
 41
-1.6111588629
 42
-1.6025912052
  0
ELLIPSE
  5
654
100
AcDbEntity
  8
ASSI
100
AcDbEllipse
 62
7
  6
CONTINUOUS
 10
5.8645657567
 20
-9.0453156124
 30
0.0
 11
0.0
 21
0.2
 31
0.0
 40
0.0349207695
 41
-3.019419606
 42
-1.6111588629
  0
ELLIPSE
  5
655
100
AcDbEntity
  8
ASSI
100
AcDbEllipse
 62
7
  6
CONTINUOUS
 10
5.0780419108
 20
-9.0453156124
 30
0.0
 11
-0.0
 21
0.2
 31
0.0
 40
0.0349207695
 41
-4.6720264443
 42
-3.2637657012
  0
ELLIPSE
  5
656
100
AcDbEntity
  8
ASSI
100
AcDbEllipse
 62
7
  6
CONTINUOUS
 10
22.4648889737
 20
11.061875521
 30
0.0
 11
0.0
 21
498.5
 31
0.0
 40
0.0349207695
 41
-4.680594102
 42
-4.6720264443
  0
ELLIPSE
  5
657
100
AcDbEntity
  8
ASSI
100
AcDbEllipse
 62
7
  6
CONTINUOUS
 10
3.4112415723
 20
7.3413732031
 30
0.0
 11
0.3
 21
-0.0
 31
0.0
 40
0.0349207695
 41
-1.5707963268
 42
-0.3490658504
  0
ELLIPSE
  5
658
100
AcDbEntity
  8
ASSI
100
AcDbEllipse
 62
7
  6
CONTINUOUS
 10
-24.2722813063
 20
11.061875521
 30
0.0
 11
0.0
 21
498.5
 31
0.0
 40
0.0349207695
 41
-1.5826589448
 42
-1.5734329556
  0
ELLIPSE
  5
659
100
AcDbEntity
  8
ASSI
100
AcDbEllipse
 62
7
  6
CONTINUOUS
 10
-3.6686339048
 20
7.3413732031
 30
0.0
 11
0.3
 21
0.0
 31
0.0
 40
0.0349207695
 41
-2.7925268032
 42
-1.5707963268
  0
ELLIPSE
  5
65A
100
AcDbEntity
  8
ASSI
100
AcDbEllipse
 62
7
  6
CONTINUOUS
 10
3.4112415723
 20
5.7823778388
 30
0.0
 11
0.3
 21
-0.0
 31
0.0
 40
0.0349207695
 41
0.3490658504
 42
1.5707963268
  0
ELLIPSE
  5
65B
100
AcDbEntity
  8
ASSI
100
AcDbEllipse
 62
7
  6
CONTINUOUS
 10
24.0148889737
 20
11.061875521
 30
0.0
 11
0.0
 21
498.5
 31
0.0
 40
0.0349207695
 41
-4.7097523516
 42
-4.7005263624
  0
ELLIPSE
  5
65C
100
AcDbEntity
  8
ASSI
100
AcDbEllipse
 62
7
  6
CONTINUOUS
 10
-3.6686339048
 20
5.7823778388
 30
0.0
 11
0.3
 21
-0.0
 31
0.0
 40
0.0349207695
 41
1.5707963268
 42
2.7925268032
  0
ELLIPSE
  5
65D
100
AcDbEntity
  8
ASSI
100
AcDbEllipse
 62
7
  6
CONTINUOUS
 10
7.1041107295
 20
9.7788857619
 30
0.0
 11
0.3
 21
-0.0
 31
0.0
 40
0.0349207695
 41
0.034906585
 42
1.5707963268
  0
ELLIPSE
  5
65E
100
AcDbEntity
  8
ASSI
100
AcDbEllipse
 62
7
  6
CONTINUOUS
 10
6.9384969379
 20
9.7788857619
 30
0.0
 11
0.3
 21
0.0
 31
0.0
 40
0.0349207695
 41
1.5707963268
 42
3.1066860685
  0
ELLIPSE
  5
65F
100
AcDbEntity
  8
ASSI
100
AcDbEllipse
 62
7
  6
CONTINUOUS
 10
-7.4132261124
 20
-9.5285045499
 30
0.0
 11
0.2
 21
-0.0
 31
0.0
 40
0.1227845609
 41
1.5707963268
 42
2.617993878
  0
ELLIPSE
  5
660
100
AcDbEntity
  8
ASSI
100
AcDbEllipse
 62
7
  6
CONTINUOUS
 10
-4.0441662201
 20
-9.5285045499
 30
0.0
 11
0.2
 21
-0.0
 31
0.0
 40
0.1227845609
 41
0.5235987756
 42
1.5707963268
  0
ELLIPSE
  5
661
100
AcDbEntity
  8
ASSI
100
AcDbEllipse
 62
7
  6
CONTINUOUS
 10
3.7867738876
 20
-9.5285045499
 30
0.0
 11
0.2
 21
0.0
 31
0.0
 40
0.1227845609
 41
1.5707963268
 42
2.617993878
  0
ELLIPSE
  5
662
100
AcDbEntity
  8
ASSI
100
AcDbEllipse
 62
7
  6
CONTINUOUS
 10
7.1558337799
 20
-9.5285045499
 30
0.0
 11
0.2
 21
-0.0
 31
0.0
 40
0.1227845609
 41
0.5235987756
 42
1.5707963268
  0
ELLIPSE
  5
663
100
AcDbEntity
  8
ASSI
100
AcDbEllipse
 62
7
  6
CONTINUOUS
 10
-7.1958892705
 20
9.7788857619
 30
0.0
 11
0.3
 21
0.0
 31
0.0
 40
0.0349207695
 41
0.034906585
 42
1.5707963268
  0
ELLIPSE
  5
664
100
AcDbEntity
  8
ASSI
100
AcDbEllipse
 62
7
  6
CONTINUOUS
 10
9.5600195074
 20
-9.4074592252
 30
0.0
 11
0.1992395838
 21
-0.0178260286
 31
0.0
 40
0.9965982379
 41
-1.4812606428
 42
0.0874087691
  0
ELLIPSE
  5
665
100
AcDbEntity
  8
ASSI
100
AcDbEllipse
 62
7
  6
CONTINUOUS
 10
-9.81741184
 20
-9.4074592252
 30
0.0
 11
0.1992395838
 21
0.0178260286
 31
0.0
 40
0.9965982379
 41
3.0541838845
 42
4.6228532963
  0
ELLIPSE
  5
666
100
AcDbEntity
  8
ASSI
100
AcDbEllipse
 62
7
  6
CONTINUOUS
 10
5.5412838216
 20
-8.7055316958
 30
0.0
 11
-0.0096324734
 21
0.5915363915
 31
0.0
 40
0.4225722455
 41
-3.1484736363
 42
-1.6093122714
  0
ELLIPSE
  5
667
100
AcDbEntity
  8
ASSI
100
AcDbEllipse
 62
7
  6
CONTINUOUS
 10
-7.3615030621
 20
9.7788857619
 30
0.0
 11
0.3
 21
0.0
 31
0.0
 40
0.0349207695
 41
1.5707963268
 42
3.1066860685
  0
ENDSEC
  0
SECTION
  2
OBJECTS
  0
DICTIONARY
  5
C
100
AcDbDictionary
280
0
281
1
  3
ACAD_GROUP
350
D
  3
ACAD_MLINESTYLE
350
17
  3
ACAD_LAYOUT
350
1A
  3
ACAD_PLOTSETTINGS
350
19
  3
ACAD_PLOTSTYLENAME
350
E
  0
DICTIONARY
  5
D
102
{ACAD_REACTORS
330
C
102
}
100
AcDbDictionary
280
0
281
1
  0
ACDBDICTIONARYWDFLT
  5
E
102
{ACAD_REACTORS
330
C
102
}
100
AcDbDictionary
281
1
  3
Normal
350
F
100
AcDbDictionaryWithDefault
340
F
  0
DICTIONARY
  5
17
102
{ACAD_REACTORS
330
C
102
}
100
AcDbDictionary
280
0
281
1
  3
Standard
350
18
  0
DICTIONARY
  5
19
102
{ACAD_REACTORS
330
C
102
}
100
AcDbDictionary
281
1
  0
DICTIONARY
  5
1A
102
{ACAD_REACTORS
330
C
102
}
100
AcDbDictionary
281
1
  3
Model
350
668
  3
Layout1
350
669
  0
ACDBPLACEHOLDER
  5
F
102
{ACAD_REACTORS
330
E
102
}
  0
MLINESTYLE
  5
18
102
{ACAD_REACTORS
330
17
102
}
100
AcDbMlineStyle
  2
STANDARD
 70
0
  3

 62
256
 51
90.0
 52
90.0
 71
2
 49
0.5
 62
256
  6
BYLAYER
 49
-0.5
 62
256
  6
BYLAYER
  0
LAYOUT
  5
668
102
{ACAD_REACTORS
330
1A
102
}
100
AcDbPlotSettings
  1

  2
none_device
  4
ISO_A4_(297.00_x_210.00_MM)
  6

 40
0.0
 41
0.0
 42
0.0
 43
0.0
 44
297.0
 45
210.0
 46
0.0
 47
0.0
 48
0.0
 49
0.0
140
0.0
141
0.0
142
1.0
143
1.0
 70
1024
 72
1
 73
0
 74
0
  7

 75
0
147
1.0
148
0.0
149
0.0
100
AcDbLayout
  1
Model
 70
0
 71
0
 10
0.0
 20
0.0
 11
297.0
 21
210.0
 12
0.0
 22
0.0
 32
0.0
 14
0.0
 24
0.0
 34
0.0
 15
0.0
 25
0.0
 35
0.0
146
0.0
 13
0.0
 23
0.0
 33
0.0
 16
1.0
 26
0.0
 36
0.0
 17
0.0
 27
1.0
 37
0.0
 76
0
330
214
345
0
346
0
  0
LAYOUT
  5
669
102
{ACAD_REACTORS
330
1A
102
}
100
AcDbPlotSettings
  1

  2
none_device
  4
ISO_A4_(297.00_x_210.00_MM)
  6

 40
0.0
 41
0.0
 42
0.0
 43
0.0
 44
297.0
 45
210.0
 46
0.0
 47
0.0
 48
0.0
 49
0.0
140
0.0
141
0.0
142
1.0
143
1.0
 70
0
 72
1
 73
0
 74
0
  7

 75
0
147
1.0
148
0.0
149
0.0
100
AcDbLayout
  1
Layout1
 70
0
 71
1
 10
0.0
 20
0.0
 11
297.0
 21
210.0
 12
0.0
 22
0.0
 32
0.0
 14
0.0
 24
0.0
 34
0.0
 15
0.0
 25
0.0
 35
0.0
146
0.0
 13
0.0
 23
0.0
 33
0.0
 16
1.0
 26
0.0
 36
0.0
 17
0.0
 27
1.0
 37
0.0
 76
0
330
215
345
0
346
0
  0
ENDSEC
  0
EOF
