  0
SECTION
  2
HEADER
  9
$ACADVER
  1
AC1015
  9
$DWGCODEPAGE
  3
ANSI_1252
  9
$EXTMAX
 10
297.0
 20
210.0
 30
0.0
  9
$EXTMIN
 10
0.0
 20
0.0
 30
0.0
  9
$LIMMIN
 10
0.0
 20
0.0
  9
$LIMMAX
 10
297.0
 20
210.0
  9
$VIEWCTR
 10
148.5
 20
105.0
  9
$VIEWSIZE
 40
210.0
  9
$CLAYER
  8
0
  9
$LTSCALE
 40
16.335
  9
$CELTYPE
  6
BYLAYER
  9
$DIMSCALE
 40
1.0
  9
$DIMASZ
 40
3.0
  9
$DIMEXO
 40
1.85625
  9
$DIMDLI
 40
11.286
  9
$DIMEXE
 40
5.346
  9
$DIMCEN
 40
2.673
  9
$DIMLFAC
 40
1.0
  9
$DIMBLK
  1
_FILLED
  9
$DIMTXT
 40
3.0
  9
$DIMTOL
 70
1
  9
$DIMLIM
 70
0
  9
$DIMTFAC
 40
1.0
  9
$DIMTP
 40
0.01
  9
$DIMTM
 40
0.01
  9
$PDMODE
 70
3
  9
$PDSIZE
 40
3.0
  9
$HANDSEED
  5
314
  9
$TILEMODE
 70
1
  9
$MEASUREMENT
 70
1
  9
$INSUNITS
 70
4
  0
ENDSEC
  0
SECTION
  2
CLASSES
  0
CLASS
  1
ACDBDICTIONARYWDFLT
  2
AcDbDictionaryWithDefault
  3
AutoCAD 2000
 90
0
280
0
281
0
  0
CLASS
  1
ACDBPLACEHOLDER
  2
AcDbPlaceHolder
  3
AutoCAD 2000
 90
0
280
0
281
0
  0
CLASS
  1
LAYOUT
  2
AcDbLayout
  3
AutoCAD 2000
 90
0
280
0
281
0
  0
ENDSEC
  0
SECTION
  2
TABLES
  0
TABLE
  2
VPORT
  5
8
100
AcDbSymbolTable
 70
2
  0
VPORT
  5
1F4
100
AcDbSymbolTableRecord
100
AcDbViewportTableRecord
  2
*ACTIVE
 70
0
 10
0.0
 20
0.0
 11
1.0
 21
1.0
 12
148.5
 22
105.0
 13
0.0
 23
0.0
 14
1.0
 24
1.0
 15
0.0
 25
0.0
 16
0.0
 26
0.0
 36
1.0
 17
0.0
 27
0.0
 37
0.0
 40
210.0
 41
1.4142857143
 42
50.0
 43
0.0
 44
0.0
 50
0.0
 51
0.0
 71
0
 72
100
 73
1
 74
1
 75
0
 76
0
 77
0
 78
0
  0
ENDTAB
  0
TABLE
  2
LTYPE
  5
5
100
AcDbSymbolTable
 70
6
  0
LTYPE
  5
14
100
AcDbSymbolTableRecord
100
AcDbLinetypeTableRecord
  2
BYBLOCK
 70
0
  3

 72
65
 73
0
 40
0.0
  0
LTYPE
  5
15
100
AcDbSymbolTableRecord
100
AcDbLinetypeTableRecord
  2
BYLAYER
 70
0
  3

 72
65
 73
0
 40
0.0
  0
LTYPE
  5
16
100
AcDbSymbolTableRecord
100
AcDbLinetypeTableRecord
  2
CONTINUOUS
 70
64
  3
Solid line
 72
65
 73
0
 40
0.0
  0
LTYPE
  5
1F5
100
AcDbSymbolTableRecord
100
AcDbLinetypeTableRecord
  2
CENTER
 70
64
  3
____ _ ____ _ ____ _ ____ _ ____ _ ____ _ ____
 72
65
 73
4
 40
0.6
 49
0.375
 74
0
 49
-0.075
 74
0
 49
0.075
 74
0
 49
-0.075
 74
0
  0
LTYPE
  5
1F6
100
AcDbSymbolTableRecord
100
AcDbLinetypeTableRecord
  2
HIDDEN
 70
64
  3
- - - - - - - - - - - - - - - - - - - -
 72
65
 73
2
 40
0.2
 49
0.1
 74
0
 49
-0.1
 74
0
  0
LTYPE
  5
1F7
100
AcDbSymbolTableRecord
100
AcDbLinetypeTableRecord
  2
PHANTOM
 70
64
  3
_____ _ _ _____ _ _ _____ _ _ _____
 72
65
 73
6
 40
0.8
 49
0.45
 74
0
 49
-0.05
 74
0
 49
0.1
 74
0
 49
-0.05
 74
0
 49
0.1
 74
0
 49
-0.05
 74
0
  0
LTYPE
  5
1F8
100
AcDbSymbolTableRecord
100
AcDbLinetypeTableRecord
  2
DOT
 70
64
  3
. . . . . . . . . . . . . . . . . . . .
 72
65
 73
2
 40
0.2
 49
0.1
 74
0
 49
-0.1
 74
0
  0
LTYPE
  5
1F9
100
AcDbSymbolTableRecord
100
AcDbLinetypeTableRecord
  2
DASHED
 70
64
  3
- - - - - - - - - - - - - - - - - - - -
 72
65
 73
2
 40
0.2
 49
0.1
 74
0
 49
-0.1
 74
0
  0
ENDTAB
  0
TABLE
  2
LAYER
  5
2
100
AcDbSymbolTable
 70
36
  0
LAYER
  5
10
100
AcDbSymbolTableRecord
100
AcDbLayerTableRecord
  2
0
 70
0
 62
7
  6
CONTINUOUS
370
-3
390
F
  0
LAYER
  5
1FA
100
AcDbSymbolTableRecord
100
AcDbLayerTableRecord
  2
DEFAULT_1
 70
0
 62
7
  6
CENTER
370
-3
390
F
  0
LAYER
  5
1FB
100
AcDbSymbolTableRecord
100
AcDbLayerTableRecord
  2
DEFAULT_2
 70
0
 62
7
  6
HIDDEN
370
-3
390
F
  0
LAYER
  5
1FC
100
AcDbSymbolTableRecord
100
AcDbLayerTableRecord
  2
DEFAULT_3
 70
0
 62
7
  6
PHANTOM
370
-3
390
F
  0
LAYER
  5
1FD
100
AcDbSymbolTableRecord
100
AcDbLayerTableRecord
  2
ASSI
 70
0
 62
7
  6
CONTINUOUS
370
-3
390
F
  0
LAYER
  5
1FE
100
AcDbSymbolTableRecord
100
AcDbLayerTableRecord
  2
COLORE_MATERIALE
 70
0
 62
7
  6
CONTINUOUS
370
-3
390
F
  0
LAYER
  5
1FF
100
AcDbSymbolTableRecord
100
AcDbLayerTableRecord
  2
COORDINATE
 70
0
 62
7
  6
CONTINUOUS
370
-3
390
F
  0
LAYER
  5
200
100
AcDbSymbolTableRecord
100
AcDbLayerTableRecord
  2
COORD_ORIGINE
 70
0
 62
7
  6
CONTINUOUS
370
-3
390
F
  0
LAYER
  5
201
100
AcDbSymbolTableRecord
100
AcDbLayerTableRecord
  2
COPY
 70
0
 62
7
  6
CONTINUOUS
370
-3
390
F
  0
LAYER
  5
202
100
AcDbSymbolTableRecord
100
AcDbLayerTableRecord
  2
CURVE
 70
0
 62
7
  6
CONTINUOUS
370
-3
390
F
  0
LAYER
  5
203
100
AcDbSymbolTableRecord
100
AcDbLayerTableRecord
  2
DRAFT
 70
0
 62
7
  6
CONTINUOUS
370
-3
390
F
  0
LAYER
  5
204
100
AcDbSymbolTableRecord
100
AcDbLayerTableRecord
  2
IGS
 70
0
 62
7
  6
CONTINUOUS
370
-3
390
F
  0
LAYER
  5
205
100
AcDbSymbolTableRecord
100
AcDbLayerTableRecord
  2
PIANI
 70
0
 62
7
  6
CONTINUOUS
370
-3
390
F
  0
LAYER
  5
206
100
AcDbSymbolTableRecord
100
AcDbLayerTableRecord
  2
PIANI_ORIGINE
 70
0
 62
7
  6
CONTINUOUS
370
-3
390
F
  0
LAYER
  5
207
100
AcDbSymbolTableRecord
100
AcDbLayerTableRecord
  2
PIANI_RIFERIMENTO
 70
0
 62
7
  6
CONTINUOUS
370
-3
390
F
  0
LAYER
  5
208
100
AcDbSymbolTableRecord
100
AcDbLayerTableRecord
  2
RACCORDO
 70
0
 62
7
  6
CONTINUOUS
370
-3
390
F
  0
LAYER
  5
209
100
AcDbSymbolTableRecord
100
AcDbLayerTableRecord
  2
SMUSSO
 70
0
 62
7
  6
CONTINUOUS
370
-3
390
F
  0
LAYER
  5
20A
100
AcDbSymbolTableRecord
100
AcDbLayerTableRecord
  2
SNAPLINE
 70
0
 62
7
  6
CONTINUOUS
370
-3
390
F
  0
LAYER
  5
20B
100
AcDbSymbolTableRecord
100
AcDbLayerTableRecord
  2
SUPERFICI
 70
0
 62
7
  6
CONTINUOUS
370
-3
390
F
  0
LAYER
  5
20C
100
AcDbSymbolTableRecord
100
AcDbLayerTableRecord
  2
TRASH
 70
0
 62
7
  6
CONTINUOUS
370
-3
390
F
  0
ENDTAB
  0
TABLE
  2
STYLE
  5
3
100
AcDbSymbolTable
 70
1
  0
STYLE
  5
11
100
AcDbSymbolTableRecord
100
AcDbTextStyleTableRecord
  2
STANDARD
 70
0
 40
0.0
 41
0.8
 50
0.0
 71
0
 42
0.2
  3
txt
  4

  0
STYLE
  5
20D
100
AcDbSymbolTableRecord
100
AcDbTextStyleTableRecord
  2
TEXTSTYLE_1
 70
0
 40
0.0
 41
0.8
 50
0.0
 71
0
 42
0.2
  3
gdt
  4

  0
ENDTAB
  0
TABLE
  2
VIEW
  5
6
100
AcDbSymbolTable
 70
0
  0
ENDTAB
  0
TABLE
  2
UCS
  5
7
100
AcDbSymbolTable
 70
0
  0
ENDTAB
  0
TABLE
  2
APPID
  5
9
100
AcDbSymbolTable
 70
1
  0
APPID
  5
20E
100
AcDbSymbolTableRecord
100
AcDbRegAppTableRecord
  2
ACAD
 70
0
  0
ENDTAB
  0
TABLE
  2
BLOCK_RECORD
  5
1
100
AcDbSymbolTable
 70
0
  0
BLOCK_RECORD
  5
20F
100
AcDbSymbolTableRecord
100
AcDbBlockTableRecord
  2
*Model_Space
  0
BLOCK_RECORD
  5
210
100
AcDbSymbolTableRecord
100
AcDbBlockTableRecord
  2
*Paper_Space
  0
ENDTAB
  0
TABLE
  2
DIMSTYLE
  5
A
100
AcDbSymbolTable
 70
1
100
AcDbDimStyleTable
 71
0
  0
DIMSTYLE
105
211
100
AcDbSymbolTableRecord
100
AcDbDimStyleTableRecord
  2
STANDARD
 70
0
  3

  4

 40
1.0
 41
3.0
 42
0.0625
 43
0.38
 44
0.18
 45
0.0
 46
0.0
 47
0.01
 48
0.01
140
3.0
141
0.09
142
0.0
143
25.4
144
1.0
145
0.0
146
1.0
147
0.09
 71
1.0
 72
0.0
 73
0
 74
0
 75
0
 76
0
 77
1
 78
8
170
0
171
2
172
0
173
0
174
0
175
0
176
0
177
0
178
0
270
2
271
2
272
2
273
2
274
2
275
0
280
0
281
0
282
0
283
1
284
8
285
0
286
0
287
3
288
0
340
11
  0
ENDTAB
  0
ENDSEC
  0
SECTION
  2
BLOCKS
  0
BLOCK
  5
20
100
AcDbEntity
  8
0
100
AcDbBlockBegin
  2
*Model_Space
 70
0
 10
0.0
 20
0.0
 30
0.0
  3
*Model_Space
  1

  0
ENDBLK
  5
21
100
AcDbEntity
  8
0
100
AcDbBlockEnd
  0
BLOCK
  5
1C
100
AcDbEntity
  8
0
100
AcDbBlockBegin
  2
*Paper_Space
 70
0
 10
0.0
 20
0.0
 30
0.0
  3
*Paper_Space
  1

  0
ENDBLK
  5
1D
100
AcDbEntity
  8
0
100
AcDbBlockEnd
  0
ENDSEC
  0
SECTION
  2
ENTITIES
  0
LINE
  5
212
100
AcDbEntity
  8
DRAFT
100
AcDbLine
 62
7
  6
CONTINUOUS
 10
-22.4591663053
 20
7.0466334572
 11
-22.4591663053
 21
-2.0018749653
  0
LINE
  5
213
100
AcDbEntity
  8
RACCORDO
100
AcDbLine
 62
7
  6
CONTINUOUS
 10
-22.4591663053
 20
-2.0018749653
 11
-22.4591663053
 21
-10.5629910414
  0
LINE
  5
214
100
AcDbEntity
  8
RACCORDO
100
AcDbLine
 62
7
  6
CONTINUOUS
 10
-22.4190196559
 20
10.878076084
 11
-22.4190196559
 21
7.0867801065
  0
LINE
  5
215
100
AcDbEntity
  8
0
100
AcDbLine
 62
253
  6
CONTINUOUS
 10
-22.2153686142
 20
-1.9816322966
 11
-22.2153686142
 21
2.1551925097
  0
LINE
  5
216
100
AcDbEntity
  8
0
100
AcDbLine
 62
253
  6
CONTINUOUS
 10
-21.5192032874
 20
-1.9761620334
 11
-21.5192032874
 21
2.1497222465
  0
LINE
  5
217
100
AcDbEntity
  8
DRAFT
100
AcDbLine
 62
7
  6
CONTINUOUS
 10
-21.3091663053
 20
2.1497222465
 11
-21.3091663053
 21
-1.9761620334
  0
LINE
  5
218
100
AcDbEntity
  8
RACCORDO
100
AcDbLine
 62
7
  6
CONTINUOUS
 10
-21.3091663053
 20
-2.0018749653
 11
-21.3091663053
 21
-9.4331181115
  0
LINE
  5
219
100
AcDbEntity
  8
DRAFT
100
AcDbLine
 62
7
  6
CONTINUOUS
 10
-21.3091663053
 20
-2.0018749653
 11
-21.3091663053
 21
-1.9900936938
  0
LINE
  5
21A
100
AcDbEntity
  8
DRAFT
100
AcDbLine
 62
7
  6
CONTINUOUS
 10
-21.3091663053
 20
2.1636539069
 11
-21.3091663053
 21
7.0466334572
  0
LINE
  5
21B
100
AcDbEntity
  8
RACCORDO
100
AcDbLine
 62
7
  6
CONTINUOUS
 10
-21.2690196559
 20
7.0867801065
 11
-21.2690196559
 21
9.7217206974
  0
LINE
  5
21C
100
AcDbEntity
  8
RACCORDO
100
AcDbLine
 62
253
  6
CONTINUOUS
 10
-21.0277663592
 20
-8.9768590469
 11
-21.0277663592
 21
-9.1474678977
  0
LINE
  5
21D
100
AcDbEntity
  8
RACCORDO
100
AcDbLine
 62
253
  6
CONTINUOUS
 10
-21.0113984919
 20
9.8640386114
 11
-21.0113984919
 21
9.6634582777
  0
LINE
  5
21E
100
AcDbEntity
  8
DRAFT
100
AcDbLine
 62
7
  6
CONTINUOUS
 10
-20.7091663053
 20
-1.9870706181
 11
-20.7091663053
 21
2.1606308312
  0
LINE
  5
21F
100
AcDbEntity
  8
DRAFT
100
AcDbLine
 62
7
  6
CONTINUOUS
 10
-20.1525419782
 20
-11.0632198935
 11
-20.1525419782
 21
-9.6332198935
  0
LINE
  5
220
100
AcDbEntity
  8
DRAFT
100
AcDbLine
 62
7
  6
CONTINUOUS
 10
-22.4591663053
 20
7.0466334572
 11
-22.4190196559
 21
7.0867801065
  0
LINE
  5
221
100
AcDbEntity
  8
DRAFT
100
AcDbLine
 62
7
  6
CONTINUOUS
 10
-21.3091663053
 20
7.0466334572
 11
-21.2690196559
 21
7.0867801065
  0
LINE
  5
222
100
AcDbEntity
  8
DRAFT
100
AcDbLine
 62
7
  6
CONTINUOUS
 10
-19.7841436323
 20
11.0780532388
 11
-19.7841436323
 21
9.9216902364
  0
LINE
  5
223
100
AcDbEntity
  8
DRAFT
100
AcDbLine
 62
7
  6
CONTINUOUS
 10
-19.6091663053
 20
9.8867801065
 11
-19.6091663053
 21
11.0605995032
  0
LINE
  5
224
100
AcDbEntity
  8
RACCORDO
100
AcDbLine
 62
253
  6
CONTINUOUS
 10
-18.7669013322
 20
-10.9374412232
 11
-18.7669013322
 21
-9.4281568765
  0
LINE
  5
225
100
AcDbEntity
  8
RACCORDO
100
AcDbLine
 62
253
  6
CONTINUOUS
 10
-18.5936962514
 20
-10.9322004452
 11
-18.5936962514
 21
-9.4158784204
  0
LINE
  5
226
100
AcDbEntity
  8
RACCORDO
100
AcDbLine
 62
253
  6
CONTINUOUS
 10
-21.2277358972
 20
-8.9489586602
 11
-21.2867207295
 21
-9.3638770098
  0
LINE
  5
227
100
AcDbEntity
  8
RACCORDO
100
AcDbLine
 62
253
  6
CONTINUOUS
 10
-21.0277663592
 20
-9.1474678977
 11
-21.0868697027
 21
-9.5632198935
  0
LINE
  5
228
100
AcDbEntity
  8
RACCORDO
100
AcDbLine
 62
253
  6
CONTINUOUS
 10
-21.2867207295
 20
-9.3638770098
 11
-21.3091663053
 21
-9.4331181115
  0
LINE
  5
229
100
AcDbEntity
  8
RACCORDO
100
AcDbLine
 62
253
  6
CONTINUOUS
 10
-21.0866319609
 20
-9.5632198935
 11
-21.1093235454
 21
-9.6332198935
  0
LINE
  5
22A
100
AcDbEntity
  8
RACCORDO
100
AcDbLine
 62
253
  6
CONTINUOUS
 10
-15.3246363591
 20
-9.4158784204
 11
-15.3246363591
 21
-10.9322004452
  0
LINE
  5
22B
100
AcDbEntity
  8
RACCORDO
100
AcDbLine
 62
253
  6
CONTINUOUS
 10
-15.1514312783
 20
-9.4281568765
 11
-15.1514312783
 21
-10.9374412232
  0
LINE
  5
22C
100
AcDbEntity
  8
DRAFT
100
AcDbLine
 62
7
  6
CONTINUOUS
 10
-13.7657906323
 20
-11.0632198935
 11
-13.7657906323
 21
-9.6332198935
  0
LINE
  5
22D
100
AcDbEntity
  8
RACCORDO
100
AcDbLine
 62
7
  6
CONTINUOUS
 10
-21.3091663053
 20
2.1754351784
 11
-21.2127337966
 21
2.2236477607
  0
LINE
  5
22E
100
AcDbEntity
  8
RACCORDO
100
AcDbLine
 62
7
  6
CONTINUOUS
 10
14.2980133717
 20
-9.5632198935
 11
14.9330986678
 21
-9.4281568765
  0
LINE
  5
22F
100
AcDbEntity
  8
RACCORDO
100
AcDbLine
 62
7
  6
CONTINUOUS
 10
13.5474580218
 20
-11.0632198935
 11
14.9330986678
 21
-10.9374412232
  0
LINE
  5
230
100
AcDbEntity
  8
RACCORDO
100
AcDbLine
 62
7
  6
CONTINUOUS
 10
-13.7657906323
 20
-11.0632198935
 11
-15.1514312783
 21
-10.9374412232
  0
LINE
  5
231
100
AcDbEntity
  8
RACCORDO
100
AcDbLine
 62
7
  6
CONTINUOUS
 10
-14.5163459822
 20
-9.5632198935
 11
-15.1514312783
 21
-9.4281568765
  0
LINE
  5
232
100
AcDbEntity
  8
DRAFT
100
AcDbLine
 62
7
  6
CONTINUOUS
 10
14.2980133717
 20
-9.5632198935
 11
13.5474580218
 21
-9.6332198935
  0
LINE
  5
233
100
AcDbEntity
  8
RACCORDO
100
AcDbLine
 62
7
  6
CONTINUOUS
 10
3.2134834255
 20
-9.6332198935
 11
3.7330986678
 21
-9.584758355
  0
LINE
  5
234
100
AcDbEntity
  8
RACCORDO
100
AcDbLine
 62
7
  6
CONTINUOUS
 10
3.2134834255
 20
-11.0632198935
 11
3.7330986678
 21
-11.0160528921
  0
LINE
  5
235
100
AcDbEntity
  8
RACCORDO
100
AcDbLine
 62
7
  6
CONTINUOUS
 10
-8.0865165745
 20
-11.0632198935
 11
-7.5669013322
 21
-11.0160528921
  0
LINE
  5
236
100
AcDbEntity
  8
RACCORDO
100
AcDbLine
 62
7
  6
CONTINUOUS
 10
-21.959546905
 20
-11.0632198935
 11
-20.1525419782
 21
-11.0632198935
  0
LINE
  5
237
100
AcDbEntity
  8
DRAFT
100
AcDbLine
 62
7
  6
CONTINUOUS
 10
-13.7657906323
 20
-11.0632198935
 11
-8.0865165745
 21
-11.0632198935
  0
LINE
  5
238
100
AcDbEntity
  8
DRAFT
100
AcDbLine
 62
7
  6
CONTINUOUS
 10
-3.4318160361
 20
-11.0632198935
 11
3.2134834255
 21
-11.0632198935
  0
LINE
  5
239
100
AcDbEntity
  8
DRAFT
100
AcDbLine
 62
7
  6
CONTINUOUS
 10
7.8681839639
 20
-11.0632198935
 11
13.5474580218
 21
-11.0632198935
  0
LINE
  5
23A
100
AcDbEntity
  8
RACCORDO
100
AcDbLine
 62
7
  6
CONTINUOUS
 10
19.9342093677
 20
-11.0632198935
 11
21.7412142945
 21
-11.0632198935
  0
LINE
  5
23B
100
AcDbEntity
  8
RACCORDO
100
AcDbLine
 62
7
  6
CONTINUOUS
 10
-7.3936962514
 20
-11.0108121142
 11
-4.1246363591
 21
-11.0108121142
  0
LINE
  5
23C
100
AcDbEntity
  8
RACCORDO
100
AcDbLine
 62
7
  6
CONTINUOUS
 10
3.9063037486
 20
-11.0108121142
 11
7.1753636409
 21
-11.0108121142
  0
LINE
  5
23D
100
AcDbEntity
  8
RACCORDO
100
AcDbLine
 62
7
  6
CONTINUOUS
 10
-18.5936962514
 20
-10.9322004452
 11
-15.3246363591
 21
-10.9322004452
  0
LINE
  5
23E
100
AcDbEntity
  8
RACCORDO
100
AcDbLine
 62
7
  6
CONTINUOUS
 10
15.1063037486
 20
-10.9322004452
 11
18.3753636409
 21
-10.9322004452
  0
LINE
  5
23F
100
AcDbEntity
  8
RACCORDO
100
AcDbLine
 62
7
  6
CONTINUOUS
 10
-3.4318160361
 20
-11.0632198935
 11
-3.9514312783
 21
-11.0160528921
  0
LINE
  5
240
100
AcDbEntity
  8
RACCORDO
100
AcDbLine
 62
7
  6
CONTINUOUS
 10
7.8681839639
 20
-11.0632198935
 11
7.3485687217
 21
-11.0160528921
  0
LINE
  5
241
100
AcDbEntity
  8
DRAFT
100
AcDbLine
 62
7
  6
CONTINUOUS
 10
-14.5163459822
 20
-9.5632198935
 11
-13.7657906323
 21
-9.6332198935
  0
LINE
  5
242
100
AcDbEntity
  8
RACCORDO
100
AcDbLine
 62
7
  6
CONTINUOUS
 10
-3.4318160361
 20
-9.6332198935
 11
-3.9514312783
 21
-9.584758355
  0
LINE
  5
243
100
AcDbEntity
  8
RACCORDO
100
AcDbLine
 62
7
  6
CONTINUOUS
 10
-21.2155526714
 20
-2.0486782175
 11
-21.3091663053
 21
-2.0018749653
  0
LINE
  5
244
100
AcDbEntity
  8
RACCORDO
100
AcDbLine
 62
7
  6
CONTINUOUS
 10
-8.0865165745
 20
-9.6332198935
 11
-7.5669013322
 21
-9.584758355
  0
LINE
  5
245
100
AcDbEntity
  8
RACCORDO
100
AcDbLine
 62
7
  6
CONTINUOUS
 10
-20.1525419782
 20
-11.0632198935
 11
-18.7669013322
 21
-10.9374412232
  0
LINE
  5
246
100
AcDbEntity
  8
RACCORDO
100
AcDbLine
 62
7
  6
CONTINUOUS
 10
-21.1093235454
 20
-9.6332198935
 11
-20.1525419782
 21
-9.6332198935
  0
LINE
  5
247
100
AcDbEntity
  8
DRAFT
100
AcDbLine
 62
7
  6
CONTINUOUS
 10
-13.7657906323
 20
-9.6332198935
 11
-8.0865165745
 21
-9.6332198935
  0
LINE
  5
248
100
AcDbEntity
  8
DRAFT
100
AcDbLine
 62
7
  6
CONTINUOUS
 10
-3.4318160361
 20
-9.6332198935
 11
3.2134834255
 21
-9.6332198935
  0
LINE
  5
249
100
AcDbEntity
  8
DRAFT
100
AcDbLine
 62
7
  6
CONTINUOUS
 10
7.8681839639
 20
-9.6332198935
 11
13.5474580218
 21
-9.6332198935
  0
LINE
  5
24A
100
AcDbEntity
  8
RACCORDO
100
AcDbLine
 62
7
  6
CONTINUOUS
 10
19.9342093677
 20
-9.6332198935
 11
20.8909909348
 21
-9.6332198935
  0
LINE
  5
24B
100
AcDbEntity
  8
RACCORDO
100
AcDbLine
 62
7
  6
CONTINUOUS
 10
-7.3936962514
 20
-9.5793737396
 11
-4.1246363591
 21
-9.5793737396
  0
LINE
  5
24C
100
AcDbEntity
  8
RACCORDO
100
AcDbLine
 62
7
  6
CONTINUOUS
 10
3.9063037486
 20
-9.5793737396
 11
7.1753636409
 21
-9.5793737396
  0
LINE
  5
24D
100
AcDbEntity
  8
RACCORDO
100
AcDbLine
 62
7
  6
CONTINUOUS
 10
20.8685370922
 20
-9.5632198935
 11
19.1836540178
 21
-9.5632198935
  0
LINE
  5
24E
100
AcDbEntity
  8
DRAFT
100
AcDbLine
 62
7
  6
CONTINUOUS
 10
14.2980133717
 20
-9.5632198935
 11
-14.5163459822
 21
-9.5632198935
  0
LINE
  5
24F
100
AcDbEntity
  8
RACCORDO
100
AcDbLine
 62
7
  6
CONTINUOUS
 10
-19.4019866283
 20
-9.5632198935
 11
-21.0868697027
 21
-9.5632198935
  0
LINE
  5
250
100
AcDbEntity
  8
RACCORDO
100
AcDbLine
 62
7
  6
CONTINUOUS
 10
-18.5936962514
 20
-9.4158784204
 11
-15.3246363591
 21
-9.4158784204
  0
LINE
  5
251
100
AcDbEntity
  8
RACCORDO
100
AcDbLine
 62
7
  6
CONTINUOUS
 10
15.1063037486
 20
-9.4158784204
 11
18.3753636409
 21
-9.4158784204
  0
LINE
  5
252
100
AcDbEntity
  8
RACCORDO
100
AcDbLine
 62
253
  6
CONTINUOUS
 10
20.8094337487
 20
-9.1474678977
 11
-21.0277663592
 21
-9.1474678977
  0
LINE
  5
253
100
AcDbEntity
  8
RACCORDO
100
AcDbLine
 62
253
  6
CONTINUOUS
 10
20.809433668
 20
-8.9768590469
 11
-21.0277662786
 21
-8.9768590469
  0
LINE
  5
254
100
AcDbEntity
  8
RACCORDO
100
AcDbLine
 62
7
  6
CONTINUOUS
 10
19.9342093677
 20
-11.0632198935
 11
18.5485687217
 21
-10.9374412232
  0
LINE
  5
255
100
AcDbEntity
  8
RACCORDO
100
AcDbLine
 62
7
  6
CONTINUOUS
 10
7.8681839639
 20
-9.6332198935
 11
7.3485687217
 21
-9.584758355
  0
LINE
  5
256
100
AcDbEntity
  8
RACCORDO
100
AcDbLine
 62
253
  6
CONTINUOUS
 10
-21.2690196559
 20
9.7217206974
 11
-21.2113680311
 21
9.6640690726
  0
LINE
  5
257
100
AcDbEntity
  8
DRAFT
100
AcDbLine
 62
7
  6
CONTINUOUS
 10
-8.0865165745
 20
-11.0632198935
 11
-8.0865165745
 21
-9.6332198935
  0
LINE
  5
258
100
AcDbEntity
  8
RACCORDO
100
AcDbLine
 62
253
  6
CONTINUOUS
 10
-7.5669013322
 20
-11.0160528921
 11
-7.5669013322
 21
-9.584758355
  0
LINE
  5
259
100
AcDbEntity
  8
RACCORDO
100
AcDbLine
 62
253
  6
CONTINUOUS
 10
-7.3936962514
 20
-11.0108121142
 11
-7.3936962514
 21
-9.5793737396
  0
LINE
  5
25A
100
AcDbEntity
  8
DRAFT
100
AcDbLine
 62
7
  6
CONTINUOUS
 10
-19.4019866283
 20
-9.5632198935
 11
-20.1525419782
 21
-9.6332198935
  0
LINE
  5
25B
100
AcDbEntity
  8
DRAFT
100
AcDbLine
 62
7
  6
CONTINUOUS
 10
19.1836540178
 20
-9.5632198935
 11
19.9342093677
 21
-9.6332198935
  0
LINE
  5
25C
100
AcDbEntity
  8
RACCORDO
100
AcDbLine
 62
253
  6
CONTINUOUS
 10
-21.0690501169
 20
9.9216902364
 11
-21.0113984919
 21
9.8640386114
  0
LINE
  5
25D
100
AcDbEntity
  8
RACCORDO
100
AcDbLine
 62
7
  6
CONTINUOUS
 10
-19.4019866283
 20
-9.5632198935
 11
-18.7669013322
 21
-9.4281568765
  0
LINE
  5
25E
100
AcDbEntity
  8
RACCORDO
100
AcDbLine
 62
7
  6
CONTINUOUS
 10
19.1836540178
 20
-9.5632198935
 11
18.5485687217
 21
-9.4281568765
  0
LINE
  5
25F
100
AcDbEntity
  8
RACCORDO
100
AcDbLine
 62
253
  6
CONTINUOUS
 10
-4.1246363591
 20
-9.5793737396
 11
-4.1246363591
 21
-11.0108121142
  0
LINE
  5
260
100
AcDbEntity
  8
RACCORDO
100
AcDbLine
 62
253
  6
CONTINUOUS
 10
-3.9514312783
 20
-9.584758355
 11
-3.9514312783
 21
-11.0160528921
  0
LINE
  5
261
100
AcDbEntity
  8
DRAFT
100
AcDbLine
 62
7
  6
CONTINUOUS
 10
-3.4318160361
 20
-11.0632198935
 11
-3.4318160361
 21
-9.6332198935
  0
LINE
  5
262
100
AcDbEntity
  8
0
100
AcDbLine
 62
7
  6
CONTINUOUS
 10
-2.7408543053
 20
6.8842741065
 11
-2.4069323053
 21
8.0543421065
  0
LINE
  5
263
100
AcDbEntity
  8
0
100
AcDbLine
 62
7
  6
CONTINUOUS
 10
-2.5987503053
 20
6.3544791065
 11
-2.0523463053
 21
8.0543421065
  0
LINE
  5
264
100
AcDbEntity
  8
0
100
AcDbLine
 62
7
  6
CONTINUOUS
 10
-1.9206683053
 20
6.3544791065
 11
-1.9206683053
 21
8.0544441065
  0
LINE
  5
265
100
AcDbEntity
  8
0
100
AcDbLine
 62
7
  6
CONTINUOUS
 10
-1.5658403053
 20
6.3544791065
 11
-1.5658403053
 21
8.0544441065
  0
LINE
  5
266
100
AcDbEntity
  8
0
100
AcDbLine
 62
7
  6
CONTINUOUS
 10
-1.3748253053
 20
6.3544791065
 11
-1.2213383053
 21
8.0543421065
  0
LINE
  5
267
100
AcDbEntity
  8
0
100
AcDbLine
 62
7
  6
CONTINUOUS
 10
-0.5157223053
 20
7.1105731065
 11
-0.1608943053
 21
8.0543421065
  0
LINE
  5
268
100
AcDbEntity
  8
0
100
AcDbLine
 62
7
  6
CONTINUOUS
 10
-0.4927783053
 20
6.3544791065
 11
-0.0708873053
 21
7.4598311065
  0
LINE
  5
269
100
AcDbEntity
  8
DRAFT
100
AcDbLine
 62
7
  6
CONTINUOUS
 10
21.0908336947
 20
-1.9761620334
 11
20.4908336947
 21
-1.9813981541
  0
LINE
  5
26A
100
AcDbEntity
  8
DRAFT
100
AcDbLine
 62
7
  6
CONTINUOUS
 10
-21.3091663053
 20
-1.9900936938
 11
-20.7091663053
 21
-1.9870706181
  0
LINE
  5
26B
100
AcDbEntity
  8
DRAFT
100
AcDbLine
 62
7
  6
CONTINUOUS
 10
-22.4591663053
 20
-2.0018749653
 11
-21.3091663053
 21
-2.0018749653
  0
LINE
  5
26C
100
AcDbEntity
  8
DRAFT
100
AcDbLine
 62
7
  6
CONTINUOUS
 10
21.0908336947
 20
-2.0018749653
 11
22.2408336947
 21
-2.0018749653
  0
LINE
  5
26D
100
AcDbEntity
  8
0
100
AcDbLine
 62
7
  6
CONTINUOUS
 10
21.3008706769
 20
-1.9761620334
 11
21.0908336947
 21
-1.9761620334
  0
LINE
  5
26E
100
AcDbEntity
  8
0
100
AcDbLine
 62
7
  6
CONTINUOUS
 10
-21.3091663053
 20
-1.9761620334
 11
-21.5192032874
 21
-1.9761620334
  0
LINE
  5
26F
100
AcDbEntity
  8
DRAFT
100
AcDbLine
 62
7
  6
CONTINUOUS
 10
20.4908336947
 20
-1.9870706181
 11
21.0908336947
 21
-1.9900936938
  0
LINE
  5
270
100
AcDbEntity
  8
DRAFT
100
AcDbLine
 62
7
  6
CONTINUOUS
 10
-20.7091663053
 20
-1.9813981541
 11
-21.3091663053
 21
-1.9761620334
  0
LINE
  5
271
100
AcDbEntity
  8
0
100
AcDbLine
 62
7
  6
CONTINUOUS
 10
-1.0353703053
 20
6.3544791065
 11
-0.9587983053
 21
7.4644581065
  0
LINE
  5
272
100
AcDbEntity
  8
0
100
AcDbLine
 62
7
  6
CONTINUOUS
 10
0.9263176947
 20
6.9564221065
 11
1.1029916947
 21
7.5872631065
  0
LINE
  5
273
100
AcDbEntity
  8
0
100
AcDbLine
 62
7
  6
CONTINUOUS
 10
0.7558246947
 20
6.3544791065
 11
0.8537356947
 21
6.6938321065
  0
LINE
  5
274
100
AcDbEntity
  8
0
100
AcDbLine
 62
7
  6
CONTINUOUS
 10
0.4048466947
 20
6.3544791065
 11
0.9380316947
 21
8.0543421065
  0
LINE
  5
275
100
AcDbEntity
  8
0
100
AcDbLine
 62
7
  6
CONTINUOUS
 10
-22.2153686142
 20
-1.9816322966
 11
-22.4591663053
 21
-2.0018749653
  0
LINE
  5
276
100
AcDbEntity
  8
0
100
AcDbLine
 62
7
  6
CONTINUOUS
 10
22.2408336947
 20
-2.0018749653
 11
21.9970360037
 21
-1.9816322966
  0
LINE
  5
277
100
AcDbEntity
  8
0
100
AcDbLine
 62
7
  6
CONTINUOUS
 10
-2.9114423053
 20
6.3544791065
 11
-3.4503323053
 21
8.0543421065
  0
LINE
  5
278
100
AcDbEntity
  8
0
100
AcDbLine
 62
7
  6
CONTINUOUS
 10
-2.7408543053
 20
6.8842741065
 11
-3.0648793053
 21
8.0543421065
  0
LINE
  5
279
100
AcDbEntity
  8
0
100
AcDbLine
 62
7
  6
CONTINUOUS
 10
0.3491296947
 20
6.3544791065
 11
0.1901726947
 21
8.0543421065
  0
LINE
  5
27A
100
AcDbEntity
  8
0
100
AcDbLine
 62
7
  6
CONTINUOUS
 10
0.0020136947
 20
6.3544791065
 11
-0.0708873053
 21
7.4598311065
  0
LINE
  5
27B
100
AcDbEntity
  8
0
100
AcDbLine
 62
7
  6
CONTINUOUS
 10
22.2408336947
 20
2.1754351784
 11
21.9970360037
 21
2.1551925097
  0
LINE
  5
27C
100
AcDbEntity
  8
DRAFT
100
AcDbLine
 62
253
  6
CONTINUOUS
 10
20.4908336947
 20
1.6208502109
 11
-20.7091663053
 21
1.6208502109
  0
LINE
  5
27D
100
AcDbEntity
  8
0
100
AcDbLine
 62
7
  6
CONTINUOUS
 10
-22.2153686142
 20
2.1551925097
 11
-22.4591663053
 21
2.1754351784
  0
LINE
  5
27E
100
AcDbEntity
  8
0
100
AcDbLine
 62
7
  6
CONTINUOUS
 10
-0.5425423053
 20
6.3544791065
 11
-0.9587983053
 21
7.4644581065
  0
LINE
  5
27F
100
AcDbEntity
  8
0
100
AcDbLine
 62
7
  6
CONTINUOUS
 10
1.9070403587
 20
6.3544794198
 11
1.9070403587
 21
8.0344821887
  0
LINE
  5
280
100
AcDbEntity
  8
0
100
AcDbLine
 62
7
  6
CONTINUOUS
 10
2.2486751264
 20
7.298108275
 11
2.2486751264
 21
7.7647537575
  0
LINE
  5
281
100
AcDbEntity
  8
0
100
AcDbLine
 62
7
  6
CONTINUOUS
 10
2.2604406907
 20
6.3544794198
 11
2.2604406907
 21
7.0197118224
  0
LINE
  5
282
100
AcDbEntity
  8
0
100
AcDbLine
 62
7
  6
CONTINUOUS
 10
2.8192858775
 20
7.1479602982
 11
2.8192858775
 21
7.1580050053
  0
LINE
  5
283
100
AcDbEntity
  8
DRAFT
100
AcDbLine
 62
7
  6
CONTINUOUS
 10
3.2134834255
 20
-11.0632198935
 11
3.2134834255
 21
-9.6332198935
  0
LINE
  5
284
100
AcDbEntity
  8
DRAFT
100
AcDbLine
 62
7
  6
CONTINUOUS
 10
-20.7091663053
 20
2.1549583672
 11
-21.3091663053
 21
2.1497222465
  0
LINE
  5
285
100
AcDbEntity
  8
DRAFT
100
AcDbLine
 62
7
  6
CONTINUOUS
 10
20.4908336947
 20
2.1606308312
 11
21.0908336947
 21
2.1636539069
  0
LINE
  5
286
100
AcDbEntity
  8
0
100
AcDbLine
 62
7
  6
CONTINUOUS
 10
21.3008706769
 20
2.1497222465
 11
21.0908336947
 21
2.1497222465
  0
LINE
  5
287
100
AcDbEntity
  8
0
100
AcDbLine
 62
7
  6
CONTINUOUS
 10
-21.3091663053
 20
2.1497222465
 11
-21.5192032874
 21
2.1497222465
  0
LINE
  5
288
100
AcDbEntity
  8
DRAFT
100
AcDbLine
 62
7
  6
CONTINUOUS
 10
-22.4591663053
 20
2.1754351784
 11
-21.3091663053
 21
2.1754351784
  0
LINE
  5
289
100
AcDbEntity
  8
DRAFT
100
AcDbLine
 62
7
  6
CONTINUOUS
 10
21.0908336947
 20
2.1754351784
 11
22.2408336947
 21
2.1754351784
  0
LINE
  5
28A
100
AcDbEntity
  8
DRAFT
100
AcDbLine
 62
7
  6
CONTINUOUS
 10
-21.3091663053
 20
2.1636539069
 11
-20.7091663053
 21
2.1606308312
  0
LINE
  5
28B
100
AcDbEntity
  8
DRAFT
100
AcDbLine
 62
7
  6
CONTINUOUS
 10
21.0908336947
 20
2.1497222465
 11
20.4908336947
 21
2.1549583672
  0
LINE
  5
28C
100
AcDbEntity
  8
0
100
AcDbLine
 62
7
  6
CONTINUOUS
 10
-0.5157223053
 20
7.1105731065
 11
-0.8668033053
 21
8.0543421065
  0
LINE
  5
28D
100
AcDbEntity
  8
0
100
AcDbLine
 62
7
  6
CONTINUOUS
 10
1.4288716947
 20
6.3544791065
 11
1.3369526947
 21
6.6938321065
  0
LINE
  5
28E
100
AcDbEntity
  8
0
100
AcDbLine
 62
7
  6
CONTINUOUS
 10
1.2660396947
 20
6.9564221065
 11
1.1029916947
 21
7.5872631065
  0
LINE
  5
28F
100
AcDbEntity
  8
RACCORDO
100
AcDbLine
 62
253
  6
CONTINUOUS
 10
3.7330986678
 20
-11.0160528921
 11
3.7330986678
 21
-9.584758355
  0
LINE
  5
290
100
AcDbEntity
  8
RACCORDO
100
AcDbLine
 62
253
  6
CONTINUOUS
 10
3.9063037486
 20
-11.0108121142
 11
3.9063037486
 21
-9.5793737396
  0
LINE
  5
291
100
AcDbEntity
  8
0
100
AcDbLine
 62
7
  6
CONTINUOUS
 10
1.8028456947
 20
6.3544791065
 11
1.2812856947
 21
8.0543421065
  0
LINE
  5
292
100
AcDbEntity
  8
DRAFT
100
AcDbLine
 62
7
  6
CONTINUOUS
 10
19.5658110218
 20
9.9216902364
 11
19.3908336947
 21
9.8867801065
  0
LINE
  5
293
100
AcDbEntity
  8
0
100
AcDbLine
 62
7
  6
CONTINUOUS
 10
-2.9114423053
 20
6.3544791065
 11
-2.5987503053
 21
6.3544791065
  0
LINE
  5
294
100
AcDbEntity
  8
0
100
AcDbLine
 62
7
  6
CONTINUOUS
 10
-1.9206683053
 20
6.3544791065
 11
-1.5658403053
 21
6.3544791065
  0
LINE
  5
295
100
AcDbEntity
  8
0
100
AcDbLine
 62
7
  6
CONTINUOUS
 10
-1.3748253053
 20
6.3544791065
 11
-1.0353703053
 21
6.3544791065
  0
LINE
  5
296
100
AcDbEntity
  8
0
100
AcDbLine
 62
7
  6
CONTINUOUS
 10
-0.5425423053
 20
6.3544791065
 11
-0.4927783053
 21
6.3544791065
  0
LINE
  5
297
100
AcDbEntity
  8
0
100
AcDbLine
 62
7
  6
CONTINUOUS
 10
0.0020136947
 20
6.3544791065
 11
0.3491296947
 21
6.3544791065
  0
LINE
  5
298
100
AcDbEntity
  8
0
100
AcDbLine
 62
7
  6
CONTINUOUS
 10
0.4048466947
 20
6.3544791065
 11
0.7558246947
 21
6.3544791065
  0
LINE
  5
299
100
AcDbEntity
  8
0
100
AcDbLine
 62
7
  6
CONTINUOUS
 10
1.4288716947
 20
6.3544791065
 11
1.8028456947
 21
6.3544791065
  0
LINE
  5
29A
100
AcDbEntity
  8
0
100
AcDbLine
 62
7
  6
CONTINUOUS
 10
1.9070403587
 20
6.3544794198
 11
2.2604406907
 21
6.3544794198
  0
LINE
  5
29B
100
AcDbEntity
  8
0
100
AcDbLine
 62
7
  6
CONTINUOUS
 10
2.8038109098
 20
6.3544794198
 11
3.1451142532
 21
6.3544794198
  0
LINE
  5
29C
100
AcDbEntity
  8
0
100
AcDbLine
 62
7
  6
CONTINUOUS
 10
0.8537356947
 20
6.6938321065
 11
1.3369526947
 21
6.6938321065
  0
LINE
  5
29D
100
AcDbEntity
  8
DRAFT
100
AcDbLine
 62
7
  6
CONTINUOUS
 10
-19.7841436323
 20
9.9216902364
 11
-19.6091663053
 21
9.8867801065
  0
LINE
  5
29E
100
AcDbEntity
  8
RACCORDO
100
AcDbLine
 62
253
  6
CONTINUOUS
 10
7.1753636409
 20
-9.5793737396
 11
7.1753636409
 21
-11.0108121142
  0
LINE
  5
29F
100
AcDbEntity
  8
RACCORDO
100
AcDbLine
 62
253
  6
CONTINUOUS
 10
7.3485687217
 20
-9.584758355
 11
7.3485687217
 21
-11.0160528921
  0
LINE
  5
2A0
100
AcDbEntity
  8
DRAFT
100
AcDbLine
 62
7
  6
CONTINUOUS
 10
7.8681839639
 20
-11.0632198935
 11
7.8681839639
 21
-9.6332198935
  0
LINE
  5
2A1
100
AcDbEntity
  8
RACCORDO
100
AcDbLine
 62
253
  6
CONTINUOUS
 10
20.7930658814
 20
9.8640386114
 11
20.8507175064
 21
9.9216902364
  0
LINE
  5
2A2
100
AcDbEntity
  8
RACCORDO
100
AcDbLine
 62
253
  6
CONTINUOUS
 10
20.9930354206
 20
9.6640690726
 11
21.0506870454
 21
9.7217206974
  0
LINE
  5
2A3
100
AcDbEntity
  8
0
100
AcDbLine
 62
7
  6
CONTINUOUS
 10
0.9263176947
 20
6.9564221065
 11
1.2660396947
 21
6.9564221065
  0
LINE
  5
2A4
100
AcDbEntity
  8
0
100
AcDbLine
 62
7
  6
CONTINUOUS
 10
2.2604406907
 20
7.0197118224
 11
2.4506910138
 21
7.0197118224
  0
LINE
  5
2A5
100
AcDbEntity
  8
DRAFT
100
AcDbLine
 62
7
  6
CONTINUOUS
 10
-22.4591663053
 20
7.0466334572
 11
-21.3091663053
 21
7.0466334572
  0
LINE
  5
2A6
100
AcDbEntity
  8
DRAFT
100
AcDbLine
 62
7
  6
CONTINUOUS
 10
21.0908336947
 20
7.0466334572
 11
22.2408336947
 21
7.0466334572
  0
LINE
  5
2A7
100
AcDbEntity
  8
DRAFT
100
AcDbLine
 62
7
  6
CONTINUOUS
 10
-22.4190196559
 20
7.0867801065
 11
-21.2690196559
 21
7.0867801065
  0
LINE
  5
2A8
100
AcDbEntity
  8
DRAFT
100
AcDbLine
 62
7
  6
CONTINUOUS
 10
21.0506870454
 20
7.0867801065
 11
22.2006870454
 21
7.0867801065
  0
LINE
  5
2A9
100
AcDbEntity
  8
0
100
AcDbLine
 62
7
  6
CONTINUOUS
 10
2.2486751264
 20
7.298108275
 11
2.4514558392
 21
7.298108275
  0
LINE
  5
2AA
100
AcDbEntity
  8
0
100
AcDbLine
 62
7
  6
CONTINUOUS
 10
-3.4503323053
 20
8.0543421065
 11
-3.0648793053
 21
8.0543421065
  0
LINE
  5
2AB
100
AcDbEntity
  8
0
100
AcDbLine
 62
7
  6
CONTINUOUS
 10
-2.4069323053
 20
8.0543421065
 11
-2.0523463053
 21
8.0543421065
  0
LINE
  5
2AC
100
AcDbEntity
  8
0
100
AcDbLine
 62
7
  6
CONTINUOUS
 10
-1.2213383053
 20
8.0543421065
 11
-0.8668033053
 21
8.0543421065
  0
LINE
  5
2AD
100
AcDbEntity
  8
0
100
AcDbLine
 62
7
  6
CONTINUOUS
 10
-0.1608943053
 20
8.0543421065
 11
0.1901726947
 21
8.0543421065
  0
LINE
  5
2AE
100
AcDbEntity
  8
0
100
AcDbLine
 62
7
  6
CONTINUOUS
 10
0.9380316947
 20
8.0543421065
 11
1.2812856947
 21
8.0543421065
  0
LINE
  5
2AF
100
AcDbEntity
  8
0
100
AcDbLine
 62
7
  6
CONTINUOUS
 10
-1.9206683053
 20
8.0544441065
 11
-1.5658403053
 21
8.0544441065
  0
LINE
  5
2B0
100
AcDbEntity
  8
DRAFT
100
AcDbLine
 62
7
  6
CONTINUOUS
 10
19.5658110218
 20
11.0780532388
 11
19.3908336947
 21
11.0605995032
  0
LINE
  5
2B1
100
AcDbEntity
  8
RACCORDO
100
AcDbLine
 62
253
  6
CONTINUOUS
 10
-21.0113984923
 20
9.6634582777
 11
20.7930658818
 21
9.6634582777
  0
LINE
  5
2B2
100
AcDbEntity
  8
RACCORDO
100
AcDbLine
 62
253
  6
CONTINUOUS
 10
-21.0113984919
 20
9.8640386114
 11
20.7930658814
 21
9.8640386114
  0
LINE
  5
2B3
100
AcDbEntity
  8
DRAFT
100
AcDbLine
 62
7
  6
CONTINUOUS
 10
-19.6091663053
 20
9.8867801065
 11
19.3908336947
 21
9.8867801065
  0
LINE
  5
2B4
100
AcDbEntity
  8
RACCORDO
100
AcDbLine
 62
7
  6
CONTINUOUS
 10
-21.0690501169
 20
9.9216902364
 11
-19.7841436323
 21
9.9216902364
  0
LINE
  5
2B5
100
AcDbEntity
  8
RACCORDO
100
AcDbLine
 62
7
  6
CONTINUOUS
 10
19.5658110218
 20
9.9216902364
 11
20.8507175064
 21
9.9216902364
  0
LINE
  5
2B6
100
AcDbEntity
  8
DRAFT
100
AcDbLine
 62
7
  6
CONTINUOUS
 10
-19.7841436323
 20
11.0780532388
 11
-19.6091663053
 21
11.0605995032
  0
LINE
  5
2B7
100
AcDbEntity
  8
RACCORDO
100
AcDbLine
 62
7
  6
CONTINUOUS
 10
20.9972200609
 20
-2.0486782175
 11
21.0908336947
 21
-2.0018749653
  0
LINE
  5
2B8
100
AcDbEntity
  8
DRAFT
100
AcDbLine
 62
7
  6
CONTINUOUS
 10
-19.6091663053
 20
11.0605995032
 11
19.3908336947
 21
11.0605995032
  0
LINE
  5
2B9
100
AcDbEntity
  8
RACCORDO
100
AcDbLine
 62
7
  6
CONTINUOUS
 10
-22.2190196548
 20
11.0780532388
 11
-19.7841436323
 21
11.0780532388
  0
LINE
  5
2BA
100
AcDbEntity
  8
RACCORDO
100
AcDbLine
 62
7
  6
CONTINUOUS
 10
19.5658110218
 20
11.0780532388
 11
22.0006870442
 21
11.0780532388
  0
LINE
  5
2BB
100
AcDbEntity
  8
RACCORDO
100
AcDbLine
 62
7
  6
CONTINUOUS
 10
21.0908336947
 20
2.1754351784
 11
20.9944011861
 21
2.2236477607
  0
LINE
  5
2BC
100
AcDbEntity
  8
DRAFT
100
AcDbLine
 62
7
  6
CONTINUOUS
 10
13.5474580218
 20
-11.0632198935
 11
13.5474580218
 21
-9.6332198935
  0
LINE
  5
2BD
100
AcDbEntity
  8
RACCORDO
100
AcDbLine
 62
253
  6
CONTINUOUS
 10
14.9330986678
 20
-10.9374412232
 11
14.9330986678
 21
-9.4281568765
  0
LINE
  5
2BE
100
AcDbEntity
  8
RACCORDO
100
AcDbLine
 62
253
  6
CONTINUOUS
 10
15.1063037486
 20
-10.9322004452
 11
15.1063037486
 21
-9.4158784204
  0
LINE
  5
2BF
100
AcDbEntity
  8
RACCORDO
100
AcDbLine
 62
253
  6
CONTINUOUS
 10
18.3753636409
 20
-9.4158784204
 11
18.3753636409
 21
-10.9322004452
  0
LINE
  5
2C0
100
AcDbEntity
  8
RACCORDO
100
AcDbLine
 62
253
  6
CONTINUOUS
 10
20.8909909348
 20
-9.6332198935
 11
20.8682993504
 21
-9.5632198935
  0
LINE
  5
2C1
100
AcDbEntity
  8
RACCORDO
100
AcDbLine
 62
253
  6
CONTINUOUS
 10
21.0908336947
 20
-9.4331181115
 11
21.068388119
 21
-9.3638770098
  0
LINE
  5
2C2
100
AcDbEntity
  8
RACCORDO
100
AcDbLine
 62
253
  6
CONTINUOUS
 10
18.5485687217
 20
-9.4281568765
 11
18.5485687217
 21
-10.9374412232
  0
LINE
  5
2C3
100
AcDbEntity
  8
DRAFT
100
AcDbLine
 62
7
  6
CONTINUOUS
 10
19.3908336947
 20
9.8867801065
 11
19.3908336947
 21
11.0605995032
  0
LINE
  5
2C4
100
AcDbEntity
  8
DRAFT
100
AcDbLine
 62
7
  6
CONTINUOUS
 10
19.5658110218
 20
11.0780532388
 11
19.5658110218
 21
9.9216902364
  0
LINE
  5
2C5
100
AcDbEntity
  8
DRAFT
100
AcDbLine
 62
7
  6
CONTINUOUS
 10
19.9342093677
 20
-11.0632198935
 11
19.9342093677
 21
-9.6332198935
  0
LINE
  5
2C6
100
AcDbEntity
  8
DRAFT
100
AcDbLine
 62
7
  6
CONTINUOUS
 10
21.0908336947
 20
7.0466334572
 11
21.0506870454
 21
7.0867801065
  0
LINE
  5
2C7
100
AcDbEntity
  8
RACCORDO
100
AcDbLine
 62
253
  6
CONTINUOUS
 10
20.8685370922
 20
-9.5632198935
 11
20.8094337487
 21
-9.1474678977
  0
LINE
  5
2C8
100
AcDbEntity
  8
RACCORDO
100
AcDbLine
 62
253
  6
CONTINUOUS
 10
21.068388119
 20
-9.3638770098
 11
21.0094032867
 21
-8.9489586602
  0
LINE
  5
2C9
100
AcDbEntity
  8
DRAFT
100
AcDbLine
 62
7
  6
CONTINUOUS
 10
20.4908336947
 20
-1.9870706181
 11
20.4908336947
 21
2.1606308312
  0
LINE
  5
2CA
100
AcDbEntity
  8
RACCORDO
100
AcDbLine
 62
253
  6
CONTINUOUS
 10
20.7930658814
 20
9.6634582777
 11
20.7930658814
 21
9.8640386114
  0
LINE
  5
2CB
100
AcDbEntity
  8
RACCORDO
100
AcDbLine
 62
253
  6
CONTINUOUS
 10
20.8094337487
 20
-9.1474678977
 11
20.8094337487
 21
-8.9768590469
  0
LINE
  5
2CC
100
AcDbEntity
  8
RACCORDO
100
AcDbLine
 62
7
  6
CONTINUOUS
 10
21.0506870454
 20
9.7217206974
 11
21.0506870454
 21
7.0867801065
  0
LINE
  5
2CD
100
AcDbEntity
  8
DRAFT
100
AcDbLine
 62
7
  6
CONTINUOUS
 10
21.0908336947
 20
2.1497222465
 11
21.0908336947
 21
-1.9761620334
  0
LINE
  5
2CE
100
AcDbEntity
  8
RACCORDO
100
AcDbLine
 62
7
  6
CONTINUOUS
 10
21.0908336947
 20
-2.0018749653
 11
21.0908336947
 21
-9.4331181115
  0
LINE
  5
2CF
100
AcDbEntity
  8
DRAFT
100
AcDbLine
 62
7
  6
CONTINUOUS
 10
21.0908336947
 20
-2.0018749653
 11
21.0908336947
 21
-1.9900936938
  0
LINE
  5
2D0
100
AcDbEntity
  8
DRAFT
100
AcDbLine
 62
7
  6
CONTINUOUS
 10
21.0908336947
 20
2.1636539069
 11
21.0908336947
 21
7.0466334572
  0
LINE
  5
2D1
100
AcDbEntity
  8
0
100
AcDbLine
 62
253
  6
CONTINUOUS
 10
21.3008706769
 20
-1.9761620334
 11
21.3008706769
 21
2.1497222465
  0
LINE
  5
2D2
100
AcDbEntity
  8
DRAFT
100
AcDbLine
 62
7
  6
CONTINUOUS
 10
22.2408336947
 20
7.0466334572
 11
22.2006870454
 21
7.0867801065
  0
LINE
  5
2D3
100
AcDbEntity
  8
0
100
AcDbLine
 62
253
  6
CONTINUOUS
 10
21.9970360037
 20
-1.9816322966
 11
21.9970360037
 21
2.1551925097
  0
LINE
  5
2D4
100
AcDbEntity
  8
RACCORDO
100
AcDbLine
 62
7
  6
CONTINUOUS
 10
22.2006870454
 20
10.878076084
 11
22.2006870454
 21
7.0867801065
  0
LINE
  5
2D5
100
AcDbEntity
  8
DRAFT
100
AcDbLine
 62
7
  6
CONTINUOUS
 10
22.2408336947
 20
7.0466334572
 11
22.2408336947
 21
-2.0018749653
  0
LINE
  5
2D6
100
AcDbEntity
  8
RACCORDO
100
AcDbLine
 62
7
  6
CONTINUOUS
 10
22.2408336947
 20
-2.0018749653
 11
22.2408336947
 21
-10.5629910414
  0
ARC
  5
2D7
100
AcDbEntity
  8
RACCORDO
100
AcDbCircle
 62
253
  6
CONTINUOUS
 10
-21.0113255134
 20
9.6639960938
 40
0.2000430124
100
AcDbArc
 50
90.0209023625
 51
179.9790976307
  0
ARC
  5
2D8
100
AcDbEntity
  8
RACCORDO
100
AcDbCircle
 62
253
  6
CONTINUOUS
 10
20.7929928995
 20
9.6639960905
 40
0.2000430123
100
AcDbArc
 50
0.0209033102
 51
89.9790966898
  0
SPLINE
  5
2D9
100
AcDbEntity
  8
0
100
AcDbSpline
 62
7
  6
CONTINUOUS
 70
0
 71
3
 72
11
 73
7
 74
5
 42
0.0000001
 43
0.0000001
 44
0.0000000001
 12
0.4322500232
 22
0.0096546192
 32
0.0
 13
-0.0065848298
 23
0.4323262756
 33
0.0
 40
0.0
 40
0.0
 40
0.0
 40
0.0
 40
0.2466908156
 40
0.4757966845
 40
0.7090560749
 40
1.0
 40
1.0
 40
1.0
 40
1.0
 10
2.4514558392
 20
7.298108275
 30
0.0
 10
2.4869998761
 20
7.298902177
 30
0.0
 10
2.5557740773
 20
7.3069398905
 30
0.0
 10
2.651352836
 20
7.3508965731
 30
0.0
 10
2.7186309286
 20
7.442331604
 30
0.0
 10
2.7277261898
 20
7.5202466126
 30
0.0
 10
2.7270875844
 20
7.5621741805
 30
0.0
 11
2.4514558392
 21
7.298108275
 31
0.0
 11
2.5570690676
 21
7.313005441
 31
0.0
 11
2.6456290793
 21
7.3573806517
 31
0.0
 11
2.7060100544
 21
7.4381591622
 31
0.0
 11
2.7270875844
 21
7.5621741805
 31
0.0
  0
SPLINE
  5
2DA
100
AcDbEntity
  8
0
100
AcDbSpline
 62
7
  6
CONTINUOUS
 70
0
 71
3
 72
10
 73
6
 74
4
 42
0.0000001
 43
0.0000001
 44
0.0000000001
 12
-0.0048163605
 22
0.3162129876
 32
0.0
 13
-0.3141485589
 23
0.0364615628
 33
0.0
 40
0.0
 40
0.0
 40
0.0
 40
0.0
 40
0.2590177802
 40
0.5033555222
 40
1.0
 40
1.0
 40
1.0
 40
1.0
 10
2.727087594
 20
7.5621741806
 30
0.0
 10
2.726671753
 20
7.589475776
 30
0.0
 10
2.7161979535
 20
7.6430925868
 30
0.0
 10
2.6572945962
 20
7.7331091823
 30
0.0
 10
2.578649629
 20
7.7687250088
 30
0.0
 10
2.5266429133
 20
7.7747611534
 30
0.0
 11
2.727087594
 21
7.5621741806
 31
0.0
 11
2.7108149108
 21
7.6424567788
 31
0.0
 11
2.6683507678
 21
7.7070174053
 31
0.0
 11
2.5266429133
 21
7.7747611534
 31
0.0
  0
SPLINE
  5
2DB
100
AcDbEntity
  8
0
100
AcDbSpline
 62
7
  6
CONTINUOUS
 70
0
 71
3
 72
9
 73
5
 74
3
 42
0.0000001
 43
0.0000001
 44
0.0000000001
 12
-0.2771140238
 22
0.0321631587
 32
0.0
 13
-0.2749994517
 23
-0.0469243777
 33
0.0
 40
0.0
 40
0.0
 40
0.0
 40
0.0
 40
0.4842460787
 40
1.0
 40
1.0
 40
1.0
 40
1.0
 10
2.5266429133
 20
7.7747611533
 30
0.0
 10
2.4819124535
 20
7.7799527812
 30
0.0
 10
2.3885646912
 20
7.7846603659
 30
0.0
 10
2.2959524749
 20
7.7728209015
 30
0.0
 10
2.2486751264
 20
7.7647537575
 30
0.0
 11
2.5266429133
 21
7.7747611533
 31
0.0
 11
2.3916783591
 21
7.7806318519
 31
0.0
 11
2.2486751264
 21
7.7647537575
 31
0.0
  0
SPLINE
  5
2DC
100
AcDbEntity
  8
0
100
AcDbSpline
 62
7
  6
CONTINUOUS
 70
0
 71
3
 72
10
 73
6
 74
4
 42
0.0000001
 43
0.0000001
 44
0.0000000001
 12
0.8731819798
 22
0.1284599377
 32
0.0
 13
0.8300707046
 23
-0.2998855628
 33
0.0
 40
0.0
 40
0.0
 40
0.0
 40
0.0
 40
0.4151262789
 40
0.7045762354
 40
1.0
 40
1.0
 40
1.0
 40
1.0
 10
1.9070403587
 20
8.0344821887
 30
0.0
 10
2.0278672873
 20
8.0522578874
 30
0.0
 10
2.2344886879
 20
8.0747698814
 30
0.0
 10
2.5287912729
 20
8.0748251175
 30
0.0
 10
2.7009608575
 20
8.0461163812
 30
0.0
 10
2.7827017283
 20
8.0165852739
 30
0.0
 11
1.9070403587
 21
8.0344821887
 31
0.0
 11
2.2715999716
 21
8.0709840794
 31
0.0
 11
2.527042898
 21
8.0677855556
 31
0.0
 11
2.7827017283
 21
8.0165852739
 31
0.0
  0
SPLINE
  5
2DD
100
AcDbEntity
  8
0
100
AcDbSpline
 62
7
  6
CONTINUOUS
 70
0
 71
3
 72
28
 73
24
 74
22
 42
0.0000001
 43
0.0000001
 44
0.0000000001
 12
0.9982555359
 22
-0.3601242106
 32
0.0
 13
-1.0525018316
 23
-0.1358066879
 33
0.0
 40
0.0
 40
0.0
 40
0.0
 40
0.0
 40
0.0797942832
 40
0.1315485265
 40
0.1894923392
 40
0.253049564
 40
0.3223659403
 40
0.3594887382
 40
0.3984871576
 40
0.4396141877
 40
0.4610725976
 40
0.4831786022
 40
0.5106820829
 40
0.537183969
 40
0.5874399135
 40
0.634454631
 40
0.6786281854
 40
0.7594521046
 40
0.8311338665
 40
0.8932096617
 40
0.9439322028
 40
0.9806155629
 40
1.0
 40
1.0
 40
1.0
 40
1.0
 10
2.7827017283
 20
8.0165852739
 30
0.0
 10
2.8092534233
 20
8.0070066562
 30
0.0
 10
2.8505155258
 20
7.984215484
 30
0.0
 10
2.9037497072
 20
7.9433971717
 30
0.0
 10
2.9473158447
 20
7.8999779601
 30
0.0
 10
2.9880472341
 20
7.845855049
 30
0.0
 10
3.0163381893
 20
7.7924538406
 30
0.0
 10
3.0346417164
 20
7.7443183477
 30
0.0
 10
3.0460274723
 20
7.7043810594
 30
0.0
 10
3.0528718919
 20
7.6690563119
 30
0.0
 10
3.0567054111
 20
7.6393360879
 30
0.0
 10
3.0588540466
 20
7.6142810525
 30
0.0
 10
3.0599587169
 20
7.5873686318
 30
0.0
 10
3.0597232241
 20
7.550476727
 30
0.0
 10
3.0562865307
 20
7.5067521748
 30
0.0
 10
3.0474601464
 20
7.4574184239
 30
0.0
 10
3.0309366929
 20
7.3987734905
 30
0.0
 10
3.0027871447
 20
7.3346961184
 30
0.0
 10
2.9605122905
 20
7.2712098152
 30
0.0
 10
2.9163844092
 20
7.2229724901
 30
0.0
 10
2.8758059611
 20
7.1884747411
 30
0.0
 10
2.8440468934
 20
7.1686825667
 30
0.0
 10
2.826086596
 20
7.1588825174
 30
0.0
 10
2.8192858775
 20
7.1580050053
 30
0.0
 11
2.7827017283
 21
8.0165852739
 31
0.0
 11
2.8577263217
 21
7.9773170655
 31
0.0
 11
2.9012911959
 21
7.943870991
 31
0.0
 11
2.9448542775
 21
7.9004720282
 31
0.0
 11
2.9853879334
 21
7.846561496
 31
0.0
 11
3.0198645305
 21
7.7815807134
 31
0.0
 11
3.0338852966
 21
7.7447643904
 31
0.0
 11
3.0452564356
 21
7.7049709994
 31
0.0
 11
3.0535994934
 21
7.6621307052
 31
0.0
 11
3.0565172249
 21
7.6395461459
 31
0.0
 11
3.0585360157
 21
7.6161736727
 31
0.0
 11
3.0597383245
 21
7.5870109995
 31
0.0
 11
3.0595434778
 21
7.5588871472
 31
0.0
 11
3.0552972091
 21
7.5057234713
 31
0.0
 11
3.0464669922
 21
7.4566177768
 31
0.0
 11
3.0337226094
 21
7.4115051955
 31
0.0
 11
2.9991704758
 21
7.3329998995
 31
0.0
 11
2.9569990678
 21
7.2696886372
 31
0.0
 11
2.9125666446
 21
7.2210524626
 31
0.0
 11
2.8712314656
 21
7.1865724298
 31
0.0
 11
2.83835179
 21
7.165729588
 31
0.0
 11
2.8192858775
 21
7.1580050053
 31
0.0
  0
SPLINE
  5
2DE
100
AcDbEntity
  8
0
100
AcDbSpline
 62
7
  6
CONTINUOUS
 70
0
 71
3
 72
10
 73
6
 74
4
 42
0.0000001
 43
0.0000001
 44
0.0000000001
 12
0.3759372604
 22
-0.1499049826
 32
0.0
 13
0.1063828106
 23
-0.3904866934
 33
0.0
 40
0.0
 40
0.0
 40
0.0
 40
0.0
 40
0.2520037103
 40
0.5059767722
 40
1.0
 40
1.0
 40
1.0
 40
1.0
 10
2.8192858775
 20
7.1479602982
 30
0.0
 10
2.8508650723
 20
7.1353680942
 30
0.0
 10
2.9082897449
 20
7.093511999
 30
0.0
 10
2.9801307523
 20
6.9772775125
 30
0.0
 10
3.006319637
 20
6.8787707365
 30
0.0
 10
3.0238381635
 20
6.8144675709
 30
0.0
 11
2.8192858775
 21
7.1479602982
 31
0.0
 11
2.9028384736
 21
7.08946888
 31
0.0
 11
2.9597094179
 21
7.0038464751
 31
0.0
 11
3.0238381635
 21
6.8144675709
 31
0.0
  0
SPLINE
  5
2DF
100
AcDbEntity
  8
0
100
AcDbSpline
 62
7
  6
CONTINUOUS
 70
0
 71
3
 72
9
 73
5
 74
3
 42
0.0000001
 43
0.0000001
 44
0.0000000001
 12
0.1250425264
 22
-0.4589787045
 32
0.0
 13
0.1246838217
 23
-0.4590762959
 33
0.0
 40
0.0
 40
0.0
 40
0.0
 40
0.0
 40
0.8019458866
 40
1.0
 40
1.0
 40
1.0
 40
1.0
 10
3.0238381642
 20
6.8144675711
 30
0.0
 10
3.0572639441
 20
6.691775543
 30
0.0
 10
3.096602074
 20
6.5381561289
 30
0.0
 10
3.1368828719
 20
6.3847867361
 30
0.0
 10
3.1451142532
 20
6.3544794198
 30
0.0
 11
3.0238381642
 21
6.8144675711
 31
0.0
 11
3.1209642931
 21
6.4455474215
 31
0.0
 11
3.1451142532
 21
6.3544794198
 31
0.0
  0
SPLINE
  5
2E0
100
AcDbEntity
  8
0
100
AcDbSpline
 62
7
  6
CONTINUOUS
 70
0
 71
3
 72
11
 73
7
 74
5
 42
0.0000001
 43
0.0000001
 44
0.0000000001
 12
-0.1488018179
 22
0.517564312
 32
0.0
 13
-0.1895141915
 23
0.5040852743
 33
0.0
 40
0.0
 40
0.0
 40
0.0
 40
0.0
 40
0.1342162665
 40
0.4412040772
 40
0.7774824254
 40
1.0
 40
1.0
 40
1.0
 40
1.0
 10
2.8038109098
 20
6.3544794198
 30
0.0
 10
2.7971537017
 20
6.377634603
 30
0.0
 10
2.7751125715
 20
6.4537046645
 30
0.0
 10
2.736179591
 20
6.5877482292
 30
0.0
 10
2.6911064235
 20
6.7364236203
 30
0.0
 10
2.6626408575
 20
6.8327284038
 30
0.0
 10
2.6485841114
 20
6.8701176813
 30
0.0
 11
2.8038109098
 21
6.3544794198
 31
0.0
 11
2.7837388236
 21
6.4239160076
 31
0.0
 11
2.7373555478
 21
6.5825981615
 31
0.0
 11
2.6854105573
 21
6.7560844673
 31
0.0
 11
2.6485841114
 21
6.8701176813
 31
0.0
  0
SPLINE
  5
2E1
100
AcDbEntity
  8
0
100
AcDbSpline
 62
7
  6
CONTINUOUS
 70
0
 71
3
 72
10
 73
6
 74
4
 42
0.0000001
 43
0.0000001
 44
0.0000000001
 12
-0.0927466177
 22
0.246694254
 32
0.0
 13
-0.2635312833
 23
0.0
 33
0.0
 40
0.0
 40
0.0
 40
0.0
 40
0.0
 40
0.3693225484
 40
0.6480034082
 40
1.0
 40
1.0
 40
1.0
 40
1.0
 10
2.6485841434
 20
6.8701176934
 30
0.0
 10
2.6371663377
 20
6.9004876102
 30
0.0
 10
2.6089916188
 20
6.9519278532
 30
0.0
 10
2.5382075773
 20
7.0072104084
 30
0.0
 10
2.4816117183
 20
7.0197118224
 30
0.0
 10
2.4506910138
 20
7.0197118224
 30
0.0
 11
2.6485841434
 21
6.8701176934
 31
0.0
 11
2.5993031655
 21
6.9540503652
 31
0.0
 11
2.541063104
 21
6.9987906604
 31
0.0
 11
2.4506910138
 21
7.0197118224
 31
0.0
  0
SPLINE
  5
2E2
100
AcDbEntity
  8
RACCORDO
100
AcDbSpline
 62
7
  6
CONTINUOUS
 70
0
 71
3
 72
21
 73
17
 74
15
 42
0.0000001
 43
0.0000001
 44
0.0000000001
 12
-0.1788844533
 22
0.0894353823
 32
0.0
 13
-0.1999958381
 23
0.0
 33
0.0
 40
0.0
 40
0.0
 40
0.0
 40
0.0
 40
0.0080948662
 40
0.0284124748
 40
0.0606486724
 40
0.1042665215
 40
0.1591714056
 40
0.2245470256
 40
0.2991197067
 40
0.382288435
 40
0.4735097
 40
0.5711122984
 40
0.6734015867
 40
0.780081717
 40
0.8896561946
 40
1.0
 40
1.0
 40
1.0
 40
1.0
 10
20.9944011861
 20
2.2236477607
 30
0.0
 10
20.9939185042
 20
2.2238890832
 30
0.0
 10
20.9919240208
 20
2.2237581322
 30
0.0
 10
20.9879744948
 20
2.224157175
 30
0.0
 10
20.9815173059
 20
2.2242055381
 30
0.0
 10
20.972822199
 20
2.2244289887
 30
0.0
 10
20.9618894028
 20
2.2245730623
 30
0.0
 10
20.9489030241
 20
2.2247335269
 30
0.0
 10
20.9340286434
 20
2.2248719228
 30
0.0
 10
20.9174322247
 20
2.2249986597
 30
0.0
 10
20.8993000029
 20
2.2251080933
 30
0.0
 10
20.8798930996
 20
2.2251997274
 30
0.0
 10
20.8594555072
 20
2.2252721087
 30
0.0
 10
20.8382197522
 20
2.2253245135
 30
0.0
 10
20.8164469968
 20
2.2253561843
 30
0.0
 10
20.8017860821
 20
2.2253632243
 30
0.0
 10
20.7944299815
 20
2.2253632243
 30
0.0
 11
20.9944011861
 21
2.2236477607
 31
0.0
 11
20.9927937329
 21
2.2238402696
 31
0.0
 11
20.9887347756
 21
2.2240310238
 31
0.0
 11
20.9822903341
 21
2.2242163361
 31
0.0
 11
20.9735687486
 21
2.2243936761
 31
0.0
 11
20.9625892976
 21
2.2245624664
 31
0.0
 11
20.9495153917
 21
2.2247197463
 31
0.0
 11
20.9346018507
 21
2.2248626697
 31
0.0
 11
20.9179689411
 21
2.2249903276
 31
0.0
 11
20.8997254075
 21
2.2251016668
 31
0.0
 11
20.8802055148
 21
2.2251945029
 31
0.0
 11
20.859748213
 21
2.2252674878
 31
0.0
 11
20.8384126968
 21
2.2253204829
 31
0.0
 11
20.8164982808
 21
2.2253525632
 31
0.0
 11
20.7944299815
 21
2.2253632243
 31
0.0
  0
SPLINE
  5
2E3
100
AcDbEntity
  8
RACCORDO
100
AcDbSpline
 62
7
  6
CONTINUOUS
 70
0
 71
3
 72
21
 73
17
 74
15
 42
0.0000001
 43
0.0000001
 44
0.0000000001
 12
-0.1999958381
 22
0.0
 32
0.0
 13
-0.1788844533
 23
-0.0894353823
 33
0.0
 40
0.0
 40
0.0
 40
0.0
 40
0.0
 40
0.1103438054
 40
0.219918283
 40
0.3265984133
 40
0.4288877016
 40
0.5264903
 40
0.617711565
 40
0.7008802933
 40
0.7754529744
 40
0.8408285944
 40
0.8957334785
 40
0.9393513276
 40
0.9715875252
 40
0.9919051338
 40
1.0
 40
1.0
 40
1.0
 40
1.0
 10
-21.012762592
 20
2.2253632243
 30
0.0
 10
-21.0201186927
 20
2.2253632243
 30
0.0
 10
-21.0347796073
 20
2.2253561843
 30
0.0
 10
-21.0565523627
 20
2.2253245135
 30
0.0
 10
-21.0777881177
 20
2.2252721087
 30
0.0
 10
-21.0982257101
 20
2.2251997274
 30
0.0
 10
-21.1176326134
 20
2.2251080933
 30
0.0
 10
-21.1357648352
 20
2.2249986597
 30
0.0
 10
-21.152361254
 20
2.2248719228
 30
0.0
 10
-21.1672356346
 20
2.2247335269
 30
0.0
 10
-21.1802220133
 20
2.2245730623
 30
0.0
 10
-21.1911548095
 20
2.2244289887
 30
0.0
 10
-21.1998499164
 20
2.2242055381
 30
0.0
 10
-21.2063071053
 20
2.224157175
 30
0.0
 10
-21.2102566313
 20
2.2237581322
 30
0.0
 10
-21.2122511147
 20
2.2238890832
 30
0.0
 10
-21.2127337966
 20
2.2236477607
 30
0.0
 11
-21.012762592
 21
2.2253632243
 31
0.0
 11
-21.0348308913
 21
2.2253525632
 31
0.0
 11
-21.0567453073
 21
2.2253204829
 31
0.0
 11
-21.0780808235
 21
2.2252674878
 31
0.0
 11
-21.0985381253
 21
2.2251945029
 31
0.0
 11
-21.118058018
 21
2.2251016668
 31
0.0
 11
-21.1363015516
 21
2.2249903276
 31
0.0
 11
-21.1529344612
 21
2.2248626697
 31
0.0
 11
-21.1678480023
 21
2.2247197463
 31
0.0
 11
-21.1809219082
 21
2.2245624664
 31
0.0
 11
-21.1919013591
 21
2.2243936761
 31
0.0
 11
-21.2006229446
 21
2.2242163361
 31
0.0
 11
-21.2070673861
 21
2.2240310238
 31
0.0
 11
-21.2111263435
 21
2.2238402696
 31
0.0
 11
-21.2127337966
 21
2.2236477607
 31
0.0
  0
SPLINE
  5
2E4
100
AcDbEntity
  8
RACCORDO
100
AcDbSpline
 62
7
  6
CONTINUOUS
 70
0
 71
3
 72
21
 73
17
 74
15
 42
0.0000001
 43
0.0000001
 44
0.0000000001
 12
0.2000056115
 22
0.0
 32
0.0
 13
0.1788934063
 23
0.0894393305
 33
0.0
 40
0.0
 40
0.0
 40
0.0
 40
0.0
 40
0.1102731237
 40
0.2197867998
 40
0.3264192079
 40
0.4286752635
 40
0.5262603498
 40
0.617482217
 40
0.7006684637
 40
0.7752682643
 40
0.8406811748
 40
0.895627569
 40
0.9392846465
 40
0.971553742
 40
0.991894625
 40
1.0
 40
1.0
 40
1.0
 40
1.0
 10
20.7972391287
 20
-2.0503955224
 30
0.0
 10
20.8045908766
 20
-2.0503955224
 30
0.0
 10
20.8192437419
 20
-2.0503884829
 30
0.0
 10
20.841005614
 20
-2.0503568137
 30
0.0
 10
20.862232956
 20
-2.0503044055
 30
0.0
 10
20.8826649824
 20
-2.0502320102
 30
0.0
 10
20.902069491
 20
-2.0501403449
 30
0.0
 10
20.9202026391
 20
-2.0500308546
 30
0.0
 10
20.9368028846
 20
-2.0499040304
 30
0.0
 10
20.9516834532
 20
-2.0497655104
 30
0.0
 10
20.9646775263
 20
-2.0496048842
 30
0.0
 10
20.9756187269
 20
-2.0494606168
 30
0.0
 10
20.984321819
 20
-2.049236905
 30
0.0
 10
20.990785718
 20
-2.049188374
 30
0.0
 10
20.9947397901
 20
-2.0487888726
 30
0.0
 10
20.9967367282
 20
-2.048919864
 30
0.0
 10
20.9972200609
 20
-2.0486782175
 30
0.0
 11
20.7972391287
 21
-2.0503955224
 31
0.0
 11
20.8192943697
 21
-2.0503848628
 31
0.0
 11
20.841197696
 21
-2.0503527845
 31
0.0
 11
20.8625247101
 21
-2.0502997865
 31
0.0
 11
20.8829763648
 21
-2.0502267883
 31
0.0
 11
20.9024937087
 21
-2.0501339218
 31
0.0
 11
20.920738254
 21
-2.0500225256
 31
0.0
 11
20.9373754796
 21
-2.0498947762
 31
0.0
 11
20.9522951726
 21
-2.0497517289
 31
0.0
 11
20.9653771744
 21
-2.0495942809
 31
0.0
 11
20.976365462
 21
-2.0494252796
 31
0.0
 11
20.9850953164
 21
-2.0492476935
 31
0.0
 11
20.9915466477
 21
-2.0490621044
 31
0.0
 11
20.9956104496
 21
-2.048871047
 31
0.0
 11
20.9972200609
 21
-2.0486782175
 31
0.0
  0
SPLINE
  5
2E5
100
AcDbEntity
  8
RACCORDO
100
AcDbSpline
 62
7
  6
CONTINUOUS
 70
0
 71
3
 72
21
 73
17
 74
15
 42
0.0000001
 43
0.0000001
 44
0.0000000001
 12
0.1788934063
 22
-0.0894393305
 32
0.0
 13
0.2000056115
 23
-0.0
 33
0.0
 40
0.0
 40
0.0
 40
0.0
 40
0.0
 40
0.008105375
 40
0.028446258
 40
0.0607153535
 40
0.104372431
 40
0.1593188252
 40
0.2247317357
 40
0.2993315363
 40
0.382517783
 40
0.4737396502
 40
0.5713247365
 40
0.6735807921
 40
0.7802132002
 40
0.8897268763
 40
1.0
 40
1.0
 40
1.0
 40
1.0
 10
-21.2155526714
 20
-2.0486782175
 30
0.0
 10
-21.2150693387
 20
-2.048919864
 30
0.0
 10
-21.2130724006
 20
-2.0487888726
 30
0.0
 10
-21.2091183285
 20
-2.049188374
 30
0.0
 10
-21.2026544295
 20
-2.049236905
 30
0.0
 10
-21.1939513374
 20
-2.0494606168
 30
0.0
 10
-21.1830101368
 20
-2.0496048842
 30
0.0
 10
-21.1700160637
 20
-2.0497655104
 30
0.0
 10
-21.1551354951
 20
-2.0499040304
 30
0.0
 10
-21.1385352496
 20
-2.0500308546
 30
0.0
 10
-21.1204021015
 20
-2.0501403449
 30
0.0
 10
-21.100997593
 20
-2.0502320102
 30
0.0
 10
-21.0805655665
 20
-2.0503044055
 30
0.0
 10
-21.0593382245
 20
-2.0503568137
 30
0.0
 10
-21.0375763524
 20
-2.0503884829
 30
0.0
 10
-21.0229234871
 20
-2.0503955224
 30
0.0
 10
-21.0155717393
 20
-2.0503955224
 30
0.0
 11
-21.2155526714
 21
-2.0486782175
 31
0.0
 11
-21.2139430602
 21
-2.048871047
 31
0.0
 11
-21.2098792582
 21
-2.0490621044
 31
0.0
 11
-21.2034279269
 21
-2.0492476935
 31
0.0
 11
-21.1946980725
 21
-2.0494252796
 31
0.0
 11
-21.1837097849
 21
-2.0495942809
 31
0.0
 11
-21.1706277832
 21
-2.0497517289
 31
0.0
 11
-21.1557080902
 21
-2.0498947762
 31
0.0
 11
-21.1390708645
 21
-2.0500225256
 31
0.0
 11
-21.1208263192
 21
-2.0501339218
 31
0.0
 11
-21.1013089753
 21
-2.0502267883
 31
0.0
 11
-21.0808573206
 21
-2.0502997865
 31
0.0
 11
-21.0595303065
 21
-2.0503527845
 31
0.0
 11
-21.0376269802
 21
-2.0503848628
 31
0.0
 11
-21.0155717393
 21
-2.0503955224
 31
0.0
  0
SPLINE
  5
2E6
100
AcDbEntity
  8
RACCORDO
100
AcDbSpline
 62
253
  6
CONTINUOUS
 70
0
 71
3
 72
12
 73
8
 74
6
 42
0.0000001
 43
0.0000001
 44
0.0000000001
 12
-0.0074329445
 22
-6.9264707984
 32
0.0
 13
-0.0169941987
 23
-6.9264539389
 33
0.0
 40
0.0
 40
0.0
 40
0.0
 40
0.0
 40
0.2005837684
 40
0.4009253421
 40
0.6009751995
 40
0.8006833638
 40
1.0
 40
1.0
 40
1.0
 40
1.0
 10
-21.0155717393
 20
-2.0503955224
 30
0.0
 10
-21.0160687153
 20
-2.5135080605
 30
0.0
 10
-21.0171888892
 20
-3.4391738208
 30
0.0
 10
-21.0192492283
 20
-4.8267188301
 30
0.0
 10
-21.0216882406
 20
-6.2122416071
 30
0.0
 10
-21.0245053951
 20
-7.5953972595
 30
0.0
 10
-21.0266372031
 20
-8.5166732136
 30
0.0
 10
-21.0277662786
 20
-8.9768590469
 30
0.0
 11
-21.0155717393
 21
-2.0503955224
 31
0.0
 11
-21.017253225
 21
-3.4397329191
 31
0.0
 11
-21.0193139854
 21
-4.8273922478
 31
0.0
 11
-21.0217535162
 21
-6.2130303942
 31
0.0
 11
-21.0245712091
 21
-7.596301089
 31
0.0
 11
-21.0277662786
 21
-8.9768590469
 31
0.0
  0
SPLINE
  5
2E7
100
AcDbEntity
  8
RACCORDO
100
AcDbSpline
 62
253
  6
CONTINUOUS
 70
0
 71
3
 72
12
 73
8
 74
6
 42
0.0000001
 43
0.0000001
 44
0.0000000001
 12
-0.0169941987
 22
6.9264539389
 32
0.0
 13
-0.0074329445
 23
6.9264707984
 33
0.0
 40
0.0
 40
0.0
 40
0.0
 40
0.0
 40
0.1993166362
 40
0.3990248005
 40
0.5990746579
 40
0.7994162316
 40
1.0
 40
1.0
 40
1.0
 40
1.0
 10
20.809433668
 20
-8.9768590469
 30
0.0
 10
20.8083045925
 20
-8.5166732136
 30
0.0
 10
20.8061727846
 20
-7.5953972595
 30
0.0
 10
20.80335563
 20
-6.2122416071
 30
0.0
 10
20.8009166178
 20
-4.8267188301
 30
0.0
 10
20.7988562787
 20
-3.4391738208
 30
0.0
 10
20.7977361048
 20
-2.5135080605
 30
0.0
 10
20.7972391287
 20
-2.0503955224
 30
0.0
 11
20.809433668
 21
-8.9768590469
 31
0.0
 11
20.8062385986
 21
-7.596301089
 31
0.0
 11
20.8034209057
 21
-6.2130303942
 31
0.0
 11
20.8009813749
 21
-4.8273922478
 31
0.0
 11
20.7989206145
 21
-3.4397329191
 31
0.0
 11
20.7972391287
 21
-2.0503955224
 31
0.0
  0
SPLINE
  5
2E8
100
AcDbEntity
  8
RACCORDO
100
AcDbSpline
 62
253
  6
CONTINUOUS
 70
0
 71
3
 72
10
 73
6
 74
4
 42
0.0000001
 43
0.0000001
 44
0.0000000001
 12
-0.0003963479
 22
-7.4380951866
 32
0.0
 13
-0.0023320039
 23
-7.4380948316
 33
0.0
 40
0.0
 40
0.0
 40
0.0
 40
0.0
 40
0.3333506822
 40
0.666684726
 40
1.0
 40
1.0
 40
1.0
 40
1.0
 10
-21.0113984923
 20
9.6634582777
 30
0.0
 10
-21.0114425332
 20
8.8369602428
 30
0.0
 10
-21.0116022956
 20
7.1840054287
 30
0.0
 10
-21.0120569904
 20
4.7046404018
 30
0.0
 10
-21.0125034945
 20
3.05177343
 30
0.0
 10
-21.012762592
 20
2.2253632243
 30
0.0
 11
-21.0113984923
 21
9.6634582777
 31
0.0
 11
-21.0116381453
 21
7.1839641811
 31
0.0
 11
-21.0120928465
 21
4.7045938728
 31
0.0
 11
-21.012762592
 21
2.2253632243
 31
0.0
  0
SPLINE
  5
2E9
100
AcDbEntity
  8
RACCORDO
100
AcDbSpline
 62
253
  6
CONTINUOUS
 70
0
 71
3
 72
10
 73
6
 74
4
 42
0.0000001
 43
0.0000001
 44
0.0000000001
 12
-0.0023320039
 22
7.4380948316
 32
0.0
 13
-0.0003963479
 23
7.4380951866
 33
0.0
 40
0.0
 40
0.0
 40
0.0
 40
0.0
 40
0.333315274
 40
0.6666493178
 40
1.0
 40
1.0
 40
1.0
 40
1.0
 10
20.7944299815
 20
2.2253632243
 30
0.0
 10
20.794170884
 20
3.05177343
 30
0.0
 10
20.7937243799
 20
4.7046404018
 30
0.0
 10
20.7932696851
 20
7.1840054287
 30
0.0
 10
20.7931099227
 20
8.8369602428
 30
0.0
 10
20.7930658818
 20
9.6634582777
 30
0.0
 11
20.7944299815
 21
2.2253632243
 31
0.0
 11
20.793760236
 21
4.7045938728
 31
0.0
 11
20.7933055348
 21
7.1839641811
 31
0.0
 11
20.7930658818
 21
9.6634582777
 31
0.0
  0
SPLINE
  5
2EA
100
AcDbEntity
  8
RACCORDO
100
AcDbSpline
 62
253
  6
CONTINUOUS
 70
0
 71
3
 72
12
 73
8
 74
6
 42
0.0000001
 43
0.0000001
 44
0.0000000001
 12
-0.0169681745
 22
6.9002708616
 32
0.0
 13
-0.0074360309
 23
6.9002877178
 33
0.0
 40
0.0
 40
0.0
 40
0.0
 40
0.0
 40
0.1993150844
 40
0.3990234975
 40
0.5990742742
 40
0.7994160735
 40
1.0
 40
1.0
 40
1.0
 40
1.0
 10
21.0094032867
 20
-8.9489586602
 30
0.0
 10
21.008275949
 20
-8.4905159704
 30
0.0
 10
21.0061470987
 20
-7.5727255795
 30
0.0
 10
21.0033334263
 20
-6.19479935
 30
0.0
 10
21.0008966703
 20
-4.8145108532
 30
0.0
 10
20.9988374473
 20
-3.4322079749
 30
0.0
 10
20.9977172437
 20
-2.5100404856
 30
0.0
 10
20.9972200609
 20
-2.0486782175
 30
0.0
 11
21.0094032867
 21
-8.9489586602
 31
0.0
 11
21.0062127608
 21
-7.5736301334
 31
0.0
 11
21.0033984995
 21
-6.1955866968
 31
0.0
 11
21.0009612335
 21
-4.8151801296
 31
0.0
 11
20.9989015886
 21
-3.432764804
 31
0.0
 11
20.9972200609
 21
-2.0486782175
 31
0.0
  0
SPLINE
  5
2EB
100
AcDbEntity
  8
RACCORDO
100
AcDbSpline
 62
253
  6
CONTINUOUS
 70
0
 71
3
 72
10
 73
6
 74
4
 42
0.0000001
 43
0.0000001
 44
0.0000000001
 12
-0.0023350524
 22
7.4404210895
 32
0.0
 13
-0.0003966309
 23
7.4404214453
 33
0.0
 40
0.0
 40
0.0
 40
0.0
 40
0.0
 40
0.3333148751
 40
0.6666492143
 40
1.0
 40
1.0
 40
1.0
 40
1.0
 10
20.9944011861
 20
2.2236477607
 30
0.0
 10
20.9941417502
 20
3.0503154361
 30
0.0
 10
20.9936946711
 20
4.7036990841
 30
0.0
 10
20.9932394211
 20
7.1838395304
 30
0.0
 10
20.993079493
 20
8.8373122943
 30
0.0
 10
20.9930354206
 20
9.6640690726
 30
0.0
 11
20.9944011861
 21
2.2236477607
 31
0.0
 11
20.9937305788
 21
4.7036508184
 31
0.0
 11
20.9932753219
 21
7.183798746
 31
0.0
 11
20.9930354206
 21
9.6640690726
 31
0.0
  0
SPLINE
  5
2EC
100
AcDbEntity
  8
RACCORDO
100
AcDbSpline
 62
253
  6
CONTINUOUS
 70
0
 71
3
 72
20
 73
16
 74
14
 42
0.0000001
 43
0.0000001
 44
0.0000000001
 12
-0.1999725599
 22
0.0000097714
 32
0.0
 13
-0.1969700028
 23
0.0345230762
 33
0.0
 40
0.0
 40
0.0
 40
0.0
 40
0.0
 40
0.1192201661
 40
0.2367402247
 40
0.350884311
 40
0.4600247046
 40
0.5626050422
 40
0.6571625138
 40
0.7423487258
 40
0.8169489347
 40
0.8798993795
 40
0.9303024761
 40
0.9674396848
 40
0.9907820292
 40
1.0
 40
1.0
 40
1.0
 40
1.0
 10
-21.0113984919
 20
9.6634582777
 30
0.0
 10
-21.0193454125
 20
9.663458666
 30
0.0
 10
-21.0351259288
 20
9.6634622989
 30
0.0
 10
-21.0585150028
 20
9.663476308
 30
0.0
 10
-21.081232179
 20
9.6634986364
 30
0.0
 10
-21.1029534949
 20
9.6635290034
 30
0.0
 10
-21.1233692201
 20
9.6635667721
 30
0.0
 10
-21.1421881404
 20
9.663611959
 30
0.0
 10
-21.159142146
 20
9.6636619253
 30
0.0
 10
-21.1739886755
 20
9.6637218494
 30
0.0
 10
-21.1865183676
 20
9.6637728446
 30
0.0
 10
-21.1965460195
 20
9.663863268
 30
0.0
 10
-21.2039451525
 20
9.6638658891
 30
0.0
 10
-21.2085751885
 20
9.6640450029
 30
0.0
 10
-21.2107628097
 20
9.6639629948
 30
0.0
 10
-21.2113680309
 20
9.6640690724
 30
0.0
 11
-21.0113984919
 21
9.6634582777
 31
0.0
 11
-21.0352392531
 21
9.6634638007
 31
0.0
 11
-21.0587400358
 21
9.6634779684
 31
0.0
 11
-21.0815657098
 21
9.6635005789
 31
0.0
 11
-21.103390772
 21
9.6635313096
 31
0.0
 11
-21.1239039888
 21
9.6635697224
 31
0.0
 11
-21.1428128336
 21
9.6636152695
 31
0.0
 11
-21.1598476591
 21
9.6636673013
 31
0.0
 11
-21.1747655419
 21
9.6637250759
 31
0.0
 11
-21.1873537474
 21
9.6637877694
 31
0.0
 11
-21.1974327629
 21
9.6638544877
 31
0.0
 11
-21.2048588576
 21
9.6639242794
 31
0.0
 11
-21.2095261327
 21
9.6639961492
 31
0.0
 11
-21.2113680309
 21
9.6640690724
 31
0.0
  0
SPLINE
  5
2ED
100
AcDbEntity
  8
RACCORDO
100
AcDbSpline
 62
253
  6
CONTINUOUS
 70
0
 71
3
 72
20
 73
16
 74
14
 42
0.0000001
 43
0.0000001
 44
0.0000000001
 12
-0.1994033216
 22
-0.0150778031
 32
0.0
 13
-0.1999712846
 23
0.0007142419
 33
0.0
 40
0.0
 40
0.0
 40
0.0
 40
0.0
 40
0.0092179708
 40
0.0325603152
 40
0.0696975239
 40
0.1201006205
 40
0.1830510653
 40
0.2576512742
 40
0.3428374862
 40
0.4373949578
 40
0.5399752954
 40
0.649115689
 40
0.7632597753
 40
0.8807798339
 40
1.0
 40
1.0
 40
1.0
 40
1.0
 10
20.9930354204
 20
9.6640690724
 30
0.0
 10
20.9924227224
 20
9.6640227434
 30
0.0
 10
20.990251586
 20
9.6639730174
 30
0.0
 10
20.9856072386
 20
9.6639082698
 30
0.0
 10
20.9782157477
 20
9.6638445786
 30
0.0
 10
20.9681848614
 20
9.6637800025
 30
0.0
 10
20.9556563797
 20
9.6637193335
 30
0.0
 10
20.9408094312
 20
9.6636627607
 30
0.0
 10
20.9238555628
 20
9.6636116837
 30
0.0
 10
20.9050365996
 20
9.6635669032
 30
0.0
 10
20.884620887
 20
9.6635287683
 30
0.0
 10
20.8628995691
 20
9.6634995016
 30
0.0
 10
20.8401823865
 20
9.6634729044
 30
0.0
 10
20.8167933414
 20
9.6634754712
 30
0.0
 10
20.8010127513
 20
9.6634298937
 30
0.0
 10
20.7930658814
 20
9.6634582777
 30
0.0
 11
20.9930354204
 21
9.6640690724
 31
0.0
 11
20.9911935222
 21
9.6639961492
 31
0.0
 11
20.9865262471
 21
9.6639242794
 31
0.0
 11
20.9791001524
 21
9.6638544877
 31
0.0
 11
20.9690211369
 21
9.6637877694
 31
0.0
 11
20.9564329314
 21
9.6637250759
 31
0.0
 11
20.9415150485
 21
9.6636673013
 31
0.0
 11
20.9244802231
 21
9.6636152695
 31
0.0
 11
20.9055713783
 21
9.6635697224
 31
0.0
 11
20.8850581615
 21
9.6635313096
 31
0.0
 11
20.8632330992
 21
9.6635005789
 31
0.0
 11
20.8404074253
 21
9.6634779684
 31
0.0
 11
20.8169066426
 21
9.6634638007
 31
0.0
 11
20.7930658814
 21
9.6634582777
 31
0.0
  0
SPLINE
  5
2EE
100
AcDbEntity
  8
RACCORDO
100
AcDbSpline
 62
253
  6
CONTINUOUS
 70
0
 71
3
 72
12
 73
8
 74
6
 42
0.0000001
 43
0.0000001
 44
0.0000000001
 12
-0.0074360309
 22
-6.9002877178
 32
0.0
 13
-0.0169681745
 23
-6.9002708616
 33
0.0
 40
0.0
 40
0.0
 40
0.0
 40
0.0
 40
0.2005839265
 40
0.4009257258
 40
0.6009765025
 40
0.8006849156
 40
1.0
 40
1.0
 40
1.0
 40
1.0
 10
-21.2155526714
 20
-2.0486782175
 30
0.0
 10
-21.2160498542
 20
-2.5100404856
 30
0.0
 10
-21.2171700578
 20
-3.4322079749
 30
0.0
 10
-21.2192292808
 20
-4.8145108532
 30
0.0
 10
-21.2216660368
 20
-6.19479935
 30
0.0
 10
-21.2244797092
 20
-7.5727255795
 30
0.0
 10
-21.2266085595
 20
-8.4905159704
 30
0.0
 10
-21.2277358972
 20
-8.9489586602
 30
0.0
 11
-21.2155526714
 21
-2.0486782175
 31
0.0
 11
-21.2172341992
 21
-3.432764804
 31
0.0
 11
-21.219293844
 21
-4.8151801296
 31
0.0
 11
-21.22173111
 21
-6.1955866968
 31
0.0
 11
-21.2245453713
 21
-7.5736301334
 31
0.0
 11
-21.2277358972
 21
-8.9489586602
 31
0.0
  0
SPLINE
  5
2EF
100
AcDbEntity
  8
RACCORDO
100
AcDbSpline
 62
253
  6
CONTINUOUS
 70
0
 71
3
 72
20
 73
16
 74
14
 42
0.0000001
 43
0.0000001
 44
0.0000000001
 12
0.0244885415
 22
-0.2035912216
 32
0.0
 13
0.2050548652
 23
-0.001255569
 33
0.0
 40
0.0
 40
0.0
 40
0.0
 40
0.0
 40
0.0185313924
 40
0.0463342055
 40
0.0857273999
 40
0.1370656688
 40
0.2000161607
 40
0.273893183
 40
0.3577726999
 40
0.450546259
 40
0.5509552863
 40
0.6576184703
 40
0.7690567688
 40
0.8837177633
 40
1.0
 40
1.0
 40
1.0
 40
1.0
 10
-21.2277358982
 20
-8.9489586674
 30
0.0
 10
-21.2275846293
 20
-8.950216277
 30
0.0
 10
-21.2256257365
 20
-8.9530366039
 30
0.0
 10
-21.2206134056
 20
-8.9560831515
 30
0.0
 10
-21.2130893474
 20
-8.9591803597
 30
0.0
 10
-21.2029940788
 20
-8.962110567
 30
0.0
 10
-21.1904332104
 20
-8.9649084453
 30
0.0
 10
-21.1755662073
 20
-8.9674917826
 30
0.0
 10
-21.1585991626
 20
-8.9698291405
 30
0.0
 10
-21.139770384
 20
-8.9718796214
 30
0.0
 10
-21.1193467765
 20
-8.9736123849
 30
0.0
 10
-21.0976186119
 20
-8.9750024703
 30
0.0
 10
-21.0748951328
 20
-8.9760224066
 30
0.0
 10
-21.0515002168
 20
-8.9766835071
 30
0.0
 10
-21.0357144387
 20
-8.9768103801
 30
0.0
 10
-21.0277663592
 20
-8.9768590469
 30
0.0
 11
-21.2277358982
 21
-8.9489586674
 31
0.0
 11
-21.2258977084
 21
-8.952284511
 31
0.0
 11
-21.22123347
 21
-8.9555630264
 31
0.0
 11
-21.2138097111
 21
-8.9587474505
 31
0.0
 11
-21.2037323203
 21
-8.961792362
 31
0.0
 11
-21.1911450365
 21
-8.96465433
 31
0.0
 11
-21.1762273982
 21
-8.9672925325
 31
0.0
 11
-21.1591921834
 21
-8.9696693396
 31
0.0
 11
-21.140282374
 21
-8.9717508495
 31
0.0
 11
-21.1197676903
 21
-8.9735073727
 31
0.0
 11
-21.0979407439
 21
-8.9749138549
 31
0.0
 11
-21.0751128638
 21
-8.9759502346
 31
0.0
 11
-21.0516096561
 21
-8.9766017295
 31
0.0
 11
-21.0277663592
 21
-8.9768590469
 31
0.0
  0
SPLINE
  5
2F0
100
AcDbEntity
  8
RACCORDO
100
AcDbSpline
 62
253
  6
CONTINUOUS
 70
0
 71
3
 72
20
 73
16
 74
14
 42
0.0000001
 43
0.0000001
 44
0.0000000001
 12
-0.3125643916
 22
0.0006599426
 32
0.0
 13
-0.0006696878
 23
0.3125643708
 33
0.0
 40
0.0
 40
0.0
 40
0.0
 40
0.0
 40
0.0771601701
 40
0.1543230816
 40
0.2314718525
 40
0.3085904118
 40
0.3856644219
 40
0.4626821051
 40
0.5396349266
 40
0.6165180944
 40
0.6933308462
 40
0.7700765045
 40
0.846762294
 40
0.9233989301
 40
1.0
 40
1.0
 40
1.0
 40
1.0
 10
-21.0277663592
 20
-9.1474678977
 30
0.0
 10
-21.0358055331
 20
-9.1474509239
 30
0.0
 10
-21.0518987326
 20
-9.1464521894
 30
0.0
 10
-21.075672124
 20
-9.1420827667
 30
0.0
 10
-21.098752675
 20
-9.1349053393
 30
0.0
 10
-21.120800384
 20
-9.1250241644
 30
0.0
 10
-21.1414959554
 20
-9.1125827506
 30
0.0
 10
-21.1605381453
 20
-9.0977618113
 30
0.0
 10
-21.1776500847
 20
-9.080776651
 30
0.0
 10
-21.1925827867
 20
-9.0618741023
 30
0.0
 10
-21.2051189208
 20
-9.041328819
 30
0.0
 10
-21.2150759562
 20
-9.0194398387
 30
0.0
 10
-21.222308859
 20
-8.9965242469
 30
0.0
 10
-21.2267122139
 20
-8.9729200183
 30
0.0
 10
-21.2277187986
 20
-8.9569395891
 30
0.0
 10
-21.2277358982
 20
-8.9489586674
 30
0.0
 11
-21.0277663592
 21
-9.1474678977
 31
0.0
 11
-21.0518375995
 21
-9.1459736305
 31
0.0
 11
-21.0755587756
 21
-9.1416142068
 31
0.0
 11
-21.0985849145
 21
-9.1344530251
 31
0.0
 11
-21.1205811506
 21
-9.1245942293
 31
0.0
 11
-21.1412275965
 21
-9.1121811942
 31
0.0
 11
-21.160223994
 21
-9.0973944405
 31
0.0
 11
-21.1772940819
 21
-9.0804490097
 31
0.0
 11
-21.1921896125
 21
-9.0615913363
 31
0.0
 11
-21.2046939625
 21
-9.0410956643
 31
0.0
 11
-21.2146252834
 21
-9.0192600591
 31
0.0
 11
-21.2218391454
 21
-8.9964020722
 31
0.0
 11
-21.2262306386
 21
-8.9728541236
 31
0.0
 11
-21.2277358982
 21
-8.9489586674
 31
0.0
  0
SPLINE
  5
2F1
100
AcDbEntity
  8
RACCORDO
100
AcDbSpline
 62
253
  6
CONTINUOUS
 70
0
 71
3
 72
10
 73
6
 74
4
 42
0.0000001
 43
0.0000001
 44
0.0000000001
 12
-0.0003966309
 22
-7.4404214453
 32
0.0
 13
-0.0023350524
 23
-7.4404210895
 33
0.0
 40
0.0
 40
0.0
 40
0.0
 40
0.0
 40
0.3333507857
 40
0.6666851249
 40
1.0
 40
1.0
 40
1.0
 40
1.0
 10
-21.2113680311
 20
9.6640690726
 30
0.0
 10
-21.2114121035
 20
8.8373122943
 30
0.0
 10
-21.2115720316
 20
7.1838395304
 30
0.0
 10
-21.2120272816
 20
4.7036990841
 30
0.0
 10
-21.2124743607
 20
3.0503154361
 30
0.0
 10
-21.2127337966
 20
2.2236477607
 30
0.0
 11
-21.2113680311
 21
9.6640690726
 31
0.0
 11
-21.2116079324
 21
7.183798746
 31
0.0
 11
-21.2120631893
 21
4.7036508184
 31
0.0
 11
-21.2127337966
 21
2.2236477607
 31
0.0
  0
SPLINE
  5
2F2
100
AcDbEntity
  8
RACCORDO
100
AcDbSpline
 62
253
  6
CONTINUOUS
 70
0
 71
3
 72
20
 73
16
 74
14
 42
0.0000001
 43
0.0000001
 44
0.0000000001
 12
0.2050580948
 22
0.0005019347
 32
0.0
 13
0.0252131962
 23
0.2035027492
 33
0.0
 40
0.0
 40
0.0
 40
0.0
 40
0.0
 40
0.1162822367
 40
0.2309432312
 40
0.3423815297
 40
0.4490447137
 40
0.549453741
 40
0.6422273001
 40
0.726106817
 40
0.7999838393
 40
0.8629343312
 40
0.9142726001
 40
0.9536657945
 40
0.9814686076
 40
1.0
 40
1.0
 40
1.0
 40
1.0
 10
20.8094337487
 20
-8.9768590469
 30
0.0
 10
20.8173819533
 20
-8.9768395915
 30
0.0
 10
20.833167549
 20
-8.9766701303
 30
0.0
 10
20.8565625371
 20
-8.9760258639
 30
0.0
 10
20.8792859974
 20
-8.9750015967
 30
0.0
 10
20.9010141676
 20
-8.9736126003
 30
0.0
 10
20.9214377709
 20
-8.9718795695
 30
0.0
 10
20.9402665598
 20
-8.9698291534
 30
0.0
 10
20.9572335726
 20
-8.9674917769
 30
0.0
 10
20.9721006738
 20
-8.9649084549
 30
0.0
 10
20.9846612543
 20
-8.9621105407
 30
0.0
 10
20.9947573149
 20
-8.9591804303
 30
0.0
 10
21.002279374
 20
-8.956082978
 30
0.0
 10
21.0072962599
 20
-8.9530369865
 30
0.0
 10
21.0092475425
 20
-8.9502157305
 30
0.0
 10
21.0094032877
 20
-8.9489586674
 30
0.0
 11
20.8094337487
 21
-8.9768590469
 31
0.0
 11
20.8332770456
 21
-8.9766017295
 31
0.0
 11
20.8567802533
 21
-8.9759502346
 31
0.0
 11
20.8796081334
 21
-8.9749138549
 31
0.0
 11
20.9014350798
 21
-8.9735073727
 31
0.0
 11
20.9219497635
 21
-8.9717508495
 31
0.0
 11
20.9408595729
 21
-8.9696693396
 31
0.0
 11
20.9578947877
 21
-8.9672925325
 31
0.0
 11
20.9728124259
 21
-8.96465433
 31
0.0
 11
20.9853997098
 21
-8.961792362
 31
0.0
 11
20.9954771006
 21
-8.9587474505
 31
0.0
 11
21.0029008595
 21
-8.9555630264
 31
0.0
 11
21.0075650979
 21
-8.952284511
 31
0.0
 11
21.0094032877
 21
-8.9489586674
 31
0.0
  0
SPLINE
  5
2F3
100
AcDbEntity
  8
RACCORDO
100
AcDbSpline
 62
253
  6
CONTINUOUS
 70
0
 71
3
 72
20
 73
16
 74
14
 42
0.0000001
 43
0.0000001
 44
0.0000000001
 12
-0.0006696878
 22
-0.3125643712
 32
0.0
 13
-0.3125643919
 23
-0.0006599426
 33
0.0
 40
0.0
 40
0.0
 40
0.0
 40
0.0
 40
0.0765364734
 40
0.1531740651
 40
0.2298608472
 40
0.3066122546
 40
0.3834306183
 40
0.4603199493
 40
0.5372790324
 40
0.6143031195
 40
0.6913836094
 40
0.7685086922
 40
0.8456639981
 40
0.9228333692
 40
1.0
 40
1.0
 40
1.0
 40
1.0
 10
21.0094032877
 20
-8.9489586674
 30
0.0
 10
21.0093862025
 20
-8.9569328589
 30
0.0
 10
21.0083808617
 20
-8.9729066159
 30
0.0
 10
21.0039811066
 20
-8.9965048761
 30
0.0
 10
20.9967502524
 20
-9.0194219549
 30
0.0
 10
20.9867947452
 20
-9.0413130594
 30
0.0
 10
20.9742594041
 20
-9.0618609803
 30
0.0
 10
20.9593269597
 20
-9.0807661456
 30
0.0
 10
20.9422147352
 20
-9.0977538237
 30
0.0
 10
20.9231717855
 20
-9.1125770581
 30
0.0
 10
20.9024750352
 20
-9.1250204641
 30
0.0
 10
20.8804258045
 20
-9.134903257
 30
0.0
 10
20.857343478
 20
-9.1420818735
 30
0.0
 10
20.8335681452
 20
-9.1464520232
 30
0.0
 10
20.8174735957
 20
-9.1474509225
 30
0.0
 10
20.8094337487
 20
-9.1474678977
 30
0.0
 11
21.0094032877
 21
-8.9489586674
 31
0.0
 11
21.007900522
 21
-8.9728340501
 31
0.0
 11
21.0035113688
 21
-8.9963827388
 31
0.0
 11
20.9962996983
 21
-9.0192417426
 31
0.0
 11
20.9863696951
 21
-9.0410799211
 31
0.0
 11
20.973866178
 21
-9.0615781559
 31
0.0
 11
20.9589708815
 21
-9.0804384691
 31
0.0
 11
20.9419005196
 21
-9.0973864019
 31
0.0
 11
20.9229033666
 21
-9.1121754437
 31
0.0
 11
20.9022557506
 21
-9.1245904632
 31
0.0
 11
20.8802580024
 21
-9.1344508708
 31
0.0
 11
20.8572300933
 21
-9.1416132387
 31
0.0
 11
20.833506997
 21
-9.1459733845
 31
0.0
 11
20.8094337487
 21
-9.1474678977
 31
0.0
  0
SPLINE
  5
2F4
100
AcDbEntity
  8
RACCORDO
100
AcDbSpline
 62
7
  6
CONTINUOUS
 70
0
 71
3
 72
20
 73
16
 74
14
 42
0.0000001
 43
0.0000001
 44
0.0000000001
 12
-0.0004823989
 22
-0.3133952733
 32
0.0
 13
-0.3133956446
 23
0.0
 33
0.0
 40
0.0
 40
0.0
 40
0.0
 40
0.0
 40
0.076665964
 40
0.1533814449
 40
0.230147769
 40
0.306964616
 40
0.383829791
 40
0.4607391046
 40
0.537686365
 40
0.6146635014
 40
0.691660804
 40
0.7686672649
 40
0.8456710097
 40
0.9226597773
 40
1.0
 40
1.0
 40
1.0
 40
1.0
 10
21.068388119
 20
-9.3638770098
 30
0.0
 10
21.0683757911
 20
-9.3718859267
 30
0.0
 10
21.0673800599
 20
-9.3879243083
 30
0.0
 10
21.0629948154
 20
-9.4116202318
 30
0.0
 10
21.0557784953
 20
-9.4346329067
 30
0.0
 10
21.045834092
 20
-9.4566209988
 30
0.0
 10
21.0333050571
 20
-9.4772637072
 30
0.0
 10
21.018373229
 20
-9.4962582192
 30
0.0
 10
21.0012561324
 20
-9.5133263121
 30
0.0
 10
20.9822037668
 20
-9.5282179913
 30
0.0
 10
20.9614946969
 20
-9.5407156433
 30
0.0
 10
20.939432379
 20
-9.5506364822
 30
0.0
 10
20.9163385313
 20
-9.5578383098
 30
0.0
 10
20.8925168172
 20
-9.5622175518
 30
0.0
 10
20.8763787134
 20
-9.5632198935
 30
0.0
 10
20.8682993504
 20
-9.5632198935
 30
0.0
 11
21.068388119
 21
-9.3638770098
 31
0.0
 11
21.0668989911
 21
-9.3878575982
 31
0.0
 11
21.062524885
 21
-9.4114986486
 31
0.0
 11
21.0553266231
 21
-9.4344547706
 31
0.0
 11
21.0454068314
 21
-9.4563900926
 31
0.0
 11
21.0329085038
 21
-9.4769833414
 31
0.0
 11
21.0180129369
 21
-9.4959327164
 31
0.0
 11
21.0009370641
 21
-9.5129604796
 31
0.0
 11
20.9819302223
 21
-9.5278171879
 31
0.0
 11
20.9612704028
 21
-9.5402854936
 31
0.0
 11
20.9392600439
 21
-9.5501834434
 31
0.0
 11
20.9162214338
 21
-9.5573672219
 31
0.0
 11
20.892491807
 21
-9.5617332859
 31
0.0
 11
20.8682993504
 21
-9.5632198935
 31
0.0
  0
SPLINE
  5
2F5
100
AcDbEntity
  8
RACCORDO
100
AcDbSpline
 62
7
  6
CONTINUOUS
 70
0
 71
3
 72
20
 73
16
 74
14
 42
0.0000001
 43
0.0000001
 44
0.0000000001
 12
0.0004820336
 22
-0.3131579843
 32
0.0
 13
0.3131583552
 23
-0.0
 33
0.0
 40
0.0
 40
0.0
 40
0.0
 40
0.0
 40
0.0768237643
 40
0.1536472829
 40
0.2304809105
 40
0.3073333486
 40
0.3842114308
 40
0.4611200129
 40
0.5380619711
 40
0.6150383251
 40
0.6920484723
 40
0.7690905191
 40
0.8461617
 40
0.9232588437
 40
1.0
 40
1.0
 40
1.0
 40
1.0
 10
-21.2867207295
 20
-9.3638770098
 30
0.0
 10
-21.2867083856
 20
-9.3718963349
 30
0.0
 10
-21.2857104133
 20
-9.3879503967
 30
0.0
 10
-21.2813174678
 20
-9.4116618549
 30
0.0
 10
-21.2740944115
 20
-9.4346764275
 30
0.0
 10
-21.2641474582
 20
-9.4566565715
 30
0.0
 10
-21.2516216737
 20
-9.4772856305
 30
0.0
 10
-21.236698937
 20
-9.4962648173
 30
0.0
 10
-21.2195953757
 20
-9.5133194235
 30
0.0
 10
-21.2005583793
 20
-9.5282020076
 30
0.0
 10
-21.1798630059
 20
-9.5406965316
 30
0.0
 10
-21.1578086483
 20
-9.5506194952
 30
0.0
 10
-21.1347129429
 20
-9.5578296131
 30
0.0
 10
-21.1109534302
 20
-9.5621963429
 30
0.0
 10
-21.0948804141
 20
-9.5632198935
 30
0.0
 10
-21.0868697027
 20
-9.5632198935
 30
0.0
 11
-21.2867207295
 21
-9.3638770098
 31
0.0
 11
-21.2852277774
 21
-9.3878886452
 31
0.0
 11
-21.2808461773
 21
-9.4115442031
 31
0.0
 11
-21.2736414831
 21
-9.4345013055
 31
0.0
 11
-21.2637195221
 21
-9.4564278731
 31
0.0
 11
-21.2512248905
 21
-9.4770067571
 31
0.0
 11
-21.2363389216
 21
-9.4959401722
 31
0.0
 11
-21.2192771537
 21
-9.5129538703
 31
0.0
 11
-21.2002863229
 21
-9.5278010041
 31
0.0
 11
-21.1796409189
 21
-9.5402656198
 31
0.0
 11
-21.1576393492
 21
-9.5501657314
 31
0.0
 11
-21.1345997596
 21
-9.557355927
 31
0.0
 11
-21.1108555759
 21
-9.5617294692
 31
0.0
 11
-21.0868697027
 21
-9.5632198935
 31
0.0
  0
ELLIPSE
  5
2F6
100
AcDbEntity
  8
RACCORDO
100
AcDbEllipse
 62
7
  6
CONTINUOUS
 10
-21.9590901412
 20
-10.5625337205
 30
0.0
 11
-0.1582391023
 21
-0.4751033573
 31
0.0
 40
0.9984778551
 41
-1.2488325878
 42
0.3210503505
  0
ELLIPSE
  5
2F7
100
AcDbEntity
  8
RACCORDO
100
AcDbEllipse
 62
7
  6
CONTINUOUS
 10
21.7407575307
 20
-10.5625337205
 30
0.0
 11
-0.1582391023
 21
0.4751033573
 31
0.0
 40
0.9984778551
 41
2.8205423031
 42
4.3904252414
  0
ELLIPSE
  5
2F8
100
AcDbEntity
  8
RACCORDO
100
AcDbEllipse
 62
7
  6
CONTINUOUS
 10
18.3753636409
 20
-10.9426820011
 30
0.0
 11
0.2
 21
-0.0
 31
0.0
 40
0.0524077793
 41
0.5235987756
 42
1.5707963268
  0
ELLIPSE
  5
2F9
100
AcDbEntity
  8
RACCORDO
100
AcDbEllipse
 62
7
  6
CONTINUOUS
 10
15.1063037486
 20
-10.9426820011
 30
0.0
 11
0.2
 21
0.0
 31
0.0
 40
0.0524077793
 41
1.5707963268
 42
2.617993878
  0
ELLIPSE
  5
2FA
100
AcDbEntity
  8
RACCORDO
100
AcDbEllipse
 62
7
  6
CONTINUOUS
 10
3.9063037486
 20
-11.02129367
 30
0.0
 11
0.2
 21
-0.0
 31
0.0
 40
0.0524077793
 41
1.5707963268
 42
2.617993878
  0
ELLIPSE
  5
2FB
100
AcDbEntity
  8
RACCORDO
100
AcDbEllipse
 62
7
  6
CONTINUOUS
 10
7.1753636409
 20
-11.02129367
 30
0.0
 11
0.2
 21
0.0
 31
0.0
 40
0.0524077793
 41
0.5235987756
 42
1.5707963268
  0
ELLIPSE
  5
2FC
100
AcDbEntity
  8
RACCORDO
100
AcDbEllipse
 62
7
  6
CONTINUOUS
 10
-7.3936962514
 20
-11.02129367
 30
0.0
 11
0.2
 21
0.0
 31
0.0
 40
0.0524077793
 41
1.5707963268
 42
2.617993878
  0
ELLIPSE
  5
2FD
100
AcDbEntity
  8
RACCORDO
100
AcDbEllipse
 62
7
  6
CONTINUOUS
 10
-4.1246363591
 20
-11.02129367
 30
0.0
 11
0.2
 21
-0.0
 31
0.0
 40
0.0524077793
 41
0.5235987756
 42
1.5707963268
  0
ELLIPSE
  5
2FE
100
AcDbEntity
  8
RACCORDO
100
AcDbEllipse
 62
7
  6
CONTINUOUS
 10
-18.5936962514
 20
-10.9426820011
 30
0.0
 11
0.2
 21
-0.0
 31
0.0
 40
0.0524077793
 41
1.5707963268
 42
2.617993878
  0
ELLIPSE
  5
2FF
100
AcDbEntity
  8
RACCORDO
100
AcDbEllipse
 62
7
  6
CONTINUOUS
 10
-15.3246363591
 20
-10.9426820011
 30
0.0
 11
0.2
 21
0.0
 31
0.0
 40
0.0524077793
 41
0.5235987756
 42
1.5707963268
  0
ELLIPSE
  5
300
100
AcDbEntity
  8
RACCORDO
100
AcDbEllipse
 62
7
  6
CONTINUOUS
 10
22.0006565798
 20
10.8780456231
 30
0.0
 11
-0.1789222233
 21
-0.0894542984
 31
0.0
 40
0.9998096356
 41
2.6780516535
 42
4.2486956813
  0
ELLIPSE
  5
301
100
AcDbEntity
  8
RACCORDO
100
AcDbEllipse
 62
7
  6
CONTINUOUS
 10
-22.2189891903
 20
10.8780456231
 30
0.0
 11
-0.1789222233
 21
0.0894542984
 31
0.0
 40
0.9998096356
 41
-1.1071030277
 42
0.4635410001
  0
ELLIPSE
  5
302
100
AcDbEntity
  8
RACCORDO
100
AcDbEllipse
 62
7
  6
CONTINUOUS
 10
18.3753636409
 20
-9.4404353326
 30
0.0
 11
0.2
 21
0.0
 31
0.0
 40
0.1227845609
 41
0.5235987756
 42
1.5707963268
  0
ELLIPSE
  5
303
100
AcDbEntity
  8
RACCORDO
100
AcDbEllipse
 62
7
  6
CONTINUOUS
 10
15.1063037486
 20
-9.4404353326
 30
0.0
 11
0.2
 21
0.0
 31
0.0
 40
0.1227845609
 41
1.5707963268
 42
2.617993878
  0
ELLIPSE
  5
304
100
AcDbEntity
  8
RACCORDO
100
AcDbEllipse
 62
7
  6
CONTINUOUS
 10
3.9063037486
 20
-9.5901429704
 30
0.0
 11
0.2
 21
0.0
 31
0.0
 40
0.0538461538
 41
1.5707963268
 42
2.617993878
  0
ELLIPSE
  5
305
100
AcDbEntity
  8
RACCORDO
100
AcDbEllipse
 62
7
  6
CONTINUOUS
 10
7.1753636409
 20
-9.5901429704
 30
0.0
 11
0.2
 21
-0.0
 31
0.0
 40
0.0538461538
 41
0.5235987756
 42
1.5707963268
  0
ELLIPSE
  5
306
100
AcDbEntity
  8
RACCORDO
100
AcDbEllipse
 62
7
  6
CONTINUOUS
 10
-7.3936962514
 20
-9.5901429704
 30
0.0
 11
0.2
 21
-0.0
 31
0.0
 40
0.0538461538
 41
1.5707963268
 42
2.617993878
  0
ELLIPSE
  5
307
100
AcDbEntity
  8
RACCORDO
100
AcDbEllipse
 62
7
  6
CONTINUOUS
 10
-4.1246363591
 20
-9.5901429704
 30
0.0
 11
0.2
 21
-0.0
 31
0.0
 40
0.0538461538
 41
0.5235987756
 42
1.5707963268
  0
ELLIPSE
  5
308
100
AcDbEntity
  8
RACCORDO
100
AcDbEllipse
 62
7
  6
CONTINUOUS
 10
-18.5936962514
 20
-9.4404353326
 30
0.0
 11
0.2
 21
0.0
 31
0.0
 40
0.1227845609
 41
1.5707963268
 42
2.617993878
  0
ELLIPSE
  5
309
100
AcDbEntity
  8
RACCORDO
100
AcDbEllipse
 62
7
  6
CONTINUOUS
 10
-15.3246363591
 20
-9.4404353326
 30
0.0
 11
0.2
 21
0.0
 31
0.0
 40
0.1227845609
 41
0.5235987756
 42
1.5707963268
  0
ELLIPSE
  5
30A
100
AcDbEntity
  8
RACCORDO
100
AcDbEllipse
 62
7
  6
CONTINUOUS
 10
20.8506565798
 20
9.7216597708
 30
0.0
 11
0.1414644378
 21
0.1414644378
 31
0.0
 40
0.9996954599
 41
-0.7852458702
 42
0.7852458701
  0
ELLIPSE
  5
30B
100
AcDbEntity
  8
RACCORDO
100
AcDbEllipse
 62
7
  6
CONTINUOUS
 10
-21.0689891903
 20
9.7216597708
 30
0.0
 11
0.1414644378
 21
-0.1414644378
 31
0.0
 40
0.9996954599
 41
2.3563467834
 42
3.9268385237
  0
ELLIPSE
  5
30C
100
AcDbEntity
  8
0
100
AcDbEllipse
 62
7
  6
CONTINUOUS
 10
-21.5192032874
 20
2.1558310539
 30
0.0
 11
0.7
 21
0.0
 31
0.0
 40
0.0087268678
 41
-3.0368728985
 42
-1.5707963268
  0
ELLIPSE
  5
30D
100
AcDbEntity
  8
0
100
AcDbEllipse
 62
7
  6
CONTINUOUS
 10
21.3008706769
 20
2.1558310539
 30
0.0
 11
0.7
 21
0.0
 31
0.0
 40
0.0087268678
 41
-1.5707963268
 42
-0.1047197551
  0
ELLIPSE
  5
30E
100
AcDbEntity
  8
0
100
AcDbEllipse
 62
7
  6
CONTINUOUS
 10
-21.5192032874
 20
-1.9822708408
 30
0.0
 11
0.7
 21
0.0
 31
0.0
 40
0.0087268678
 41
1.5707963268
 42
3.0368728985
  0
ELLIPSE
  5
30F
100
AcDbEntity
  8
0
100
AcDbEllipse
 62
7
  6
CONTINUOUS
 10
21.3008706769
 20
-1.9822708408
 30
0.0
 11
0.7
 21
-0.0
 31
0.0
 40
0.0087268678
 41
0.1047197551
 42
1.5707963268
  0
ELLIPSE
  5
310
100
AcDbEntity
  8
RACCORDO
100
AcDbEllipse
 62
7
  6
CONTINUOUS
 10
20.8908032291
 20
-9.4329301625
 30
0.0
 11
-0.0617723213
 21
0.1905579802
 31
0.0
 40
0.9984017958
 41
-3.4546006943
 42
-1.8847427532
  0
ELLIPSE
  5
311
100
AcDbEntity
  8
RACCORDO
100
AcDbEllipse
 62
7
  6
CONTINUOUS
 10
-21.1091358397
 20
-9.4329301625
 30
0.0
 11
0.0617723213
 21
0.1905579802
 31
0.0
 40
0.9984017958
 41
-4.398442554
 42
-2.8285846129
  0
ENDSEC
  0
SECTION
  2
OBJECTS
  0
DICTIONARY
  5
C
100
AcDbDictionary
280
0
281
1
  3
ACAD_GROUP
350
D
  3
ACAD_MLINESTYLE
350
17
  3
ACAD_LAYOUT
350
1A
  3
ACAD_PLOTSETTINGS
350
19
  3
ACAD_PLOTSTYLENAME
350
E
  0
DICTIONARY
  5
D
102
{ACAD_REACTORS
330
C
102
}
100
AcDbDictionary
280
0
281
1
  0
ACDBDICTIONARYWDFLT
  5
E
102
{ACAD_REACTORS
330
C
102
}
100
AcDbDictionary
281
1
  3
Normal
350
F
100
AcDbDictionaryWithDefault
340
F
  0
DICTIONARY
  5
17
102
{ACAD_REACTORS
330
C
102
}
100
AcDbDictionary
280
0
281
1
  3
Standard
350
18
  0
DICTIONARY
  5
19
102
{ACAD_REACTORS
330
C
102
}
100
AcDbDictionary
281
1
  0
DICTIONARY
  5
1A
102
{ACAD_REACTORS
330
C
102
}
100
AcDbDictionary
281
1
  3
Model
350
312
  3
Layout1
350
313
  0
ACDBPLACEHOLDER
  5
F
102
{ACAD_REACTORS
330
E
102
}
  0
MLINESTYLE
  5
18
102
{ACAD_REACTORS
330
17
102
}
100
AcDbMlineStyle
  2
STANDARD
 70
0
  3

 62
256
 51
90.0
 52
90.0
 71
2
 49
0.5
 62
256
  6
BYLAYER
 49
-0.5
 62
256
  6
BYLAYER
  0
LAYOUT
  5
312
102
{ACAD_REACTORS
330
1A
102
}
100
AcDbPlotSettings
  1

  2
none_device
  4
ISO_A4_(297.00_x_210.00_MM)
  6

 40
0.0
 41
0.0
 42
0.0
 43
0.0
 44
297.0
 45
210.0
 46
0.0
 47
0.0
 48
0.0
 49
0.0
140
0.0
141
0.0
142
1.0
143
1.0
 70
1024
 72
1
 73
0
 74
0
  7

 75
0
147
1.0
148
0.0
149
0.0
100
AcDbLayout
  1
Model
 70
0
 71
0
 10
0.0
 20
0.0
 11
297.0
 21
210.0
 12
0.0
 22
0.0
 32
0.0
 14
0.0
 24
0.0
 34
0.0
 15
0.0
 25
0.0
 35
0.0
146
0.0
 13
0.0
 23
0.0
 33
0.0
 16
1.0
 26
0.0
 36
0.0
 17
0.0
 27
1.0
 37
0.0
 76
0
330
20F
345
0
346
0
  0
LAYOUT
  5
313
102
{ACAD_REACTORS
330
1A
102
}
100
AcDbPlotSettings
  1

  2
none_device
  4
ISO_A4_(297.00_x_210.00_MM)
  6

 40
0.0
 41
0.0
 42
0.0
 43
0.0
 44
297.0
 45
210.0
 46
0.0
 47
0.0
 48
0.0
 49
0.0
140
0.0
141
0.0
142
1.0
143
1.0
 70
0
 72
1
 73
0
 74
0
  7

 75
0
147
1.0
148
0.0
149
0.0
100
AcDbLayout
  1
Layout1
 70
0
 71
1
 10
0.0
 20
0.0
 11
297.0
 21
210.0
 12
0.0
 22
0.0
 32
0.0
 14
0.0
 24
0.0
 34
0.0
 15
0.0
 25
0.0
 35
0.0
146
0.0
 13
0.0
 23
0.0
 33
0.0
 16
1.0
 26
0.0
 36
0.0
 17
0.0
 27
1.0
 37
0.0
 76
0
330
210
345
0
346
0
  0
ENDSEC
  0
EOF
