  0
SECTION
  2
HEADER
  9
$ACADVER
  1
AC1024
  9
$DWGCODEPAGE
  3
ANSI_1252
  9
$EXTMAX
 10
297.0
 20
210.0
 30
0.0
  9
$EXTMIN
 10
0.0
 20
0.0
 30
0.0
  9
$LIMMIN
 10
0.0
 20
0.0
  9
$LIMMAX
 10
297.0
 20
210.0
  9
$VIEWCTR
 10
148.5
 20
105.0
  9
$VIEWSIZE
 40
210.0
  9
$CLAYER
  8
0
  9
$LTSCALE
 40
16.335
  9
$CELTYPE
  6
BYLAYER
  9
$DIMSCALE
 40
1.0
  9
$DIMASZ
 40
3.0
  9
$DIMEXO
 40
0.5
  9
$DIMDLI
 40
11.286
  9
$DIMEXE
 40
1.5
  9
$DIMCEN
 40
2.673
  9
$DIMLFAC
 40
1.0
  9
$DIMBLK
  1
_FILLED
  9
$DIMALT
 70
0
  9
$DIMALTF
 40
0.0393700787
  9
$DIMTXT
 40
3.0
  9
$DIMTOL
 70
1
  9
$DIMLIM
 70
0
  9
$DIMTFAC
 40
1.0
  9
$DIMTP
 40
0.01
  9
$DIMTM
 40
0.01
  9
$DIMGAP
 40
0.625
  9
$DIMDSEP
 70
44
  9
$AUNITS
 70
0
  9
$PDMODE
 70
3
  9
$PDSIZE
 40
3.0
  9
$HANDSEED
  5
578
  9
$TILEMODE
 70
1
  9
$MEASUREMENT
 70
1
  9
$INSUNITS
 70
4
  0
ENDSEC
  0
SECTION
  2
CLASSES
  0
CLASS
  1
ACDBDICTIONARYWDFLT
  2
AcDbDictionaryWithDefault
  3
AutoCAD 2000
 90
0
 91
1
280
0
281
0
  0
CLASS
  1
ACDBPLACEHOLDER
  2
AcDbPlaceHolder
  3
AutoCAD 2000
 90
0
 91
1
280
0
281
0
  0
CLASS
  1
LAYOUT
  2
AcDbLayout
  3
AutoCAD 2000
 90
0
 91
0
280
0
281
0
  0
ENDSEC
  0
SECTION
  2
TABLES
  0
TABLE
  2
VPORT
  5
8
100
AcDbSymbolTable
 70
2
  0
VPORT
  5
1F4
100
AcDbSymbolTableRecord
100
AcDbViewportTableRecord
  2
*ACTIVE
 70
0
 10
0.0
 20
0.0
 11
1.0
 21
1.0
 12
148.5
 22
105.0
 13
0.0
 23
0.0
 14
1.0
 24
1.0
 15
0.0
 25
0.0
 16
0.0
 26
0.0
 36
1.0
 17
0.0
 27
0.0
 37
0.0
 40
210.0
 41
1.4142857143
 42
50.0
 43
0.0
 44
0.0
 50
0.0
 51
0.0
 71
0
 72
100
 73
1
 74
1
 75
0
 76
0
 77
0
 78
0
  0
ENDTAB
  0
TABLE
  2
LTYPE
  5
5
100
AcDbSymbolTable
 70
6
  0
LTYPE
  5
14
100
AcDbSymbolTableRecord
100
AcDbLinetypeTableRecord
  2
BYBLOCK
 70
0
  3

 72
65
 73
0
 40
0.0
  0
LTYPE
  5
15
100
AcDbSymbolTableRecord
100
AcDbLinetypeTableRecord
  2
BYLAYER
 70
0
  3

 72
65
 73
0
 40
0.0
  0
LTYPE
  5
16
100
AcDbSymbolTableRecord
100
AcDbLinetypeTableRecord
  2
CONTINUOUS
 70
64
  3
Solid line
 72
65
 73
0
 40
0.0
  0
LTYPE
  5
1F5
100
AcDbSymbolTableRecord
100
AcDbLinetypeTableRecord
  2
CENTER
 70
64
  3
____ _ ____ _ ____ _ ____ _ ____ _ ____ _ ____
 72
65
 73
4
 40
0.6
 49
0.375
 74
0
 49
-0.075
 74
0
 49
0.075
 74
0
 49
-0.075
 74
0
  0
LTYPE
  5
1F6
100
AcDbSymbolTableRecord
100
AcDbLinetypeTableRecord
  2
HIDDEN
 70
64
  3
- - - - - - - - - - - - - - - - - - - -
 72
65
 73
2
 40
0.2
 49
0.1
 74
0
 49
-0.1
 74
0
  0
LTYPE
  5
1F7
100
AcDbSymbolTableRecord
100
AcDbLinetypeTableRecord
  2
PHANTOM
 70
64
  3
_____ _ _ _____ _ _ _____ _ _ _____
 72
65
 73
6
 40
0.8
 49
0.45
 74
0
 49
-0.05
 74
0
 49
0.1
 74
0
 49
-0.05
 74
0
 49
0.1
 74
0
 49
-0.05
 74
0
  0
LTYPE
  5
1F8
100
AcDbSymbolTableRecord
100
AcDbLinetypeTableRecord
  2
DOT
 70
64
  3
. . . . . . . . . . . . . . . . . . . .
 72
65
 73
2
 40
0.2
 49
0.1
 74
0
 49
-0.1
 74
0
  0
LTYPE
  5
1F9
100
AcDbSymbolTableRecord
100
AcDbLinetypeTableRecord
  2
DASHED
 70
64
  3
- - - - - - - - - - - - - - - - - - - -
 72
65
 73
2
 40
0.2
 49
0.1
 74
0
 49
-0.1
 74
0
  0
ENDTAB
  0
TABLE
  2
LAYER
  5
2
100
AcDbSymbolTable
 70
36
  0
LAYER
  5
10
100
AcDbSymbolTableRecord
100
AcDbLayerTableRecord
  2
0
 70
0
 62
7
  6
CONTINUOUS
370
-3
390
F
  0
LAYER
  5
1FA
100
AcDbSymbolTableRecord
100
AcDbLayerTableRecord
  2
DEFAULT_1
 70
0
 62
7
  6
CENTER
370
-3
390
F
  0
LAYER
  5
1FB
100
AcDbSymbolTableRecord
100
AcDbLayerTableRecord
  2
DEFAULT_2
 70
0
 62
7
  6
HIDDEN
370
-3
390
F
  0
LAYER
  5
1FC
100
AcDbSymbolTableRecord
100
AcDbLayerTableRecord
  2
DEFAULT_3
 70
0
 62
7
  6
PHANTOM
370
-3
390
F
  0
LAYER
  5
1FD
100
AcDbSymbolTableRecord
100
AcDbLayerTableRecord
  2
ASSI
 70
0
 62
7
  6
CONTINUOUS
370
-3
390
F
  0
LAYER
  5
1FE
100
AcDbSymbolTableRecord
100
AcDbLayerTableRecord
  2
COLOR5
 70
0
 62
7
  6
CONTINUOUS
370
-3
390
F
  0
LAYER
  5
1FF
100
AcDbSymbolTableRecord
100
AcDbLayerTableRecord
  2
COORDINATE
 70
0
 62
7
  6
CONTINUOUS
370
-3
390
F
  0
LAYER
  5
200
100
AcDbSymbolTableRecord
100
AcDbLayerTableRecord
  2
COORD_ORIGINE
 70
0
 62
7
  6
CONTINUOUS
370
-3
390
F
  0
LAYER
  5
201
100
AcDbSymbolTableRecord
100
AcDbLayerTableRecord
  2
COPERCHIO
 70
0
 62
7
  6
CONTINUOUS
370
-3
390
F
  0
LAYER
  5
202
100
AcDbSymbolTableRecord
100
AcDbLayerTableRecord
  2
COPY_PABLISH
 70
0
 62
7
  6
CONTINUOUS
370
-3
390
F
  0
LAYER
  5
203
100
AcDbSymbolTableRecord
100
AcDbLayerTableRecord
  2
CURVE
 70
0
 62
7
  6
CONTINUOUS
370
-3
390
F
  0
LAYER
  5
204
100
AcDbSymbolTableRecord
100
AcDbLayerTableRecord
  2
DRAFT
 70
0
 62
7
  6
CONTINUOUS
370
-3
390
F
  0
LAYER
  5
205
100
AcDbSymbolTableRecord
100
AcDbLayerTableRecord
  2
IGES_SCRITTE
 70
0
 62
7
  6
CONTINUOUS
370
-3
390
F
  0
LAYER
  5
206
100
AcDbSymbolTableRecord
100
AcDbLayerTableRecord
  2
IMPORT_IGES
 70
0
 62
7
  6
CONTINUOUS
370
-3
390
F
  0
LAYER
  5
207
100
AcDbSymbolTableRecord
100
AcDbLayerTableRecord
  2
IMPOT_ESTER
 70
0
 62
7
  6
CONTINUOUS
370
-3
390
F
  0
LAYER
  5
208
100
AcDbSymbolTableRecord
100
AcDbLayerTableRecord
  2
INTF_1
 70
0
 62
7
  6
CONTINUOUS
370
-3
390
F
  0
LAYER
  5
209
100
AcDbSymbolTableRecord
100
AcDbLayerTableRecord
  2
INTF_7
 70
0
 62
7
  6
CONTINUOUS
370
-3
390
F
  0
LAYER
  5
20A
100
AcDbSymbolTableRecord
100
AcDbLayerTableRecord
  2
NOTE
 70
0
 62
7
  6
CONTINUOUS
370
-3
390
F
  0
LAYER
  5
20B
100
AcDbSymbolTableRecord
100
AcDbLayerTableRecord
  2
PIANI
 70
0
 62
7
  6
CONTINUOUS
370
-3
390
F
  0
LAYER
  5
20C
100
AcDbSymbolTableRecord
100
AcDbLayerTableRecord
  2
PIANI_ORIGINE
 70
0
 62
7
  6
CONTINUOUS
370
-3
390
F
  0
LAYER
  5
20D
100
AcDbSymbolTableRecord
100
AcDbLayerTableRecord
  2
PUNTI
 70
0
 62
7
  6
CONTINUOUS
370
-3
390
F
  0
LAYER
  5
20E
100
AcDbSymbolTableRecord
100
AcDbLayerTableRecord
  2
RACCORDO
 70
0
 62
7
  6
CONTINUOUS
370
-3
390
F
  0
LAYER
  5
20F
100
AcDbSymbolTableRecord
100
AcDbLayerTableRecord
  2
RGB__255__255__255__
 70
0
 62
7
  6
CONTINUOUS
370
-3
390
F
  0
LAYER
  5
210
100
AcDbSymbolTableRecord
100
AcDbLayerTableRecord
  2
RGB____0____0____0__
 70
0
 62
7
  6
CONTINUOUS
370
-3
390
F
  0
LAYER
  5
211
100
AcDbSymbolTableRecord
100
AcDbLayerTableRecord
  2
SKEL_CALOTTA
 70
0
 62
7
  6
CONTINUOUS
370
-3
390
F
  0
LAYER
  5
212
100
AcDbSymbolTableRecord
100
AcDbLayerTableRecord
  2
SKEL_COPERCHIO
 70
0
 62
7
  6
CONTINUOUS
370
-3
390
F
  0
LAYER
  5
213
100
AcDbSymbolTableRecord
100
AcDbLayerTableRecord
  2
SMUSSO
 70
0
 62
7
  6
CONTINUOUS
370
-3
390
F
  0
LAYER
  5
214
100
AcDbSymbolTableRecord
100
AcDbLayerTableRecord
  2
SNAPLINE
 70
0
 62
7
  6
CONTINUOUS
370
-3
390
F
  0
LAYER
  5
215
100
AcDbSymbolTableRecord
100
AcDbLayerTableRecord
  2
SUPERFICI
 70
0
 62
7
  6
CONTINUOUS
370
-3
390
F
  0
LAYER
  5
216
100
AcDbSymbolTableRecord
100
AcDbLayerTableRecord
  2
SUP_APPO
 70
0
 62
7
  6
CONTINUOUS
370
-3
390
F
  0
LAYER
  5
217
100
AcDbSymbolTableRecord
100
AcDbLayerTableRecord
  2
TRASH
 70
0
 62
7
  6
CONTINUOUS
370
-3
390
F
  0
LAYER
  5
218
100
AcDbSymbolTableRecord
100
AcDbLayerTableRecord
  2
XSEC_DATUMS
 70
0
 62
7
  6
CONTINUOUS
370
-3
390
F
  0
ENDTAB
  0
TABLE
  2
STYLE
  5
3
100
AcDbSymbolTable
 70
1
  0
STYLE
  5
11
100
AcDbSymbolTableRecord
100
AcDbTextStyleTableRecord
  2
STANDARD
 70
0
 40
0.0
 41
0.8
 50
0.0
 71
0
 42
0.2
  3
txt
  4

  0
STYLE
  5
219
100
AcDbSymbolTableRecord
100
AcDbTextStyleTableRecord
  2
TEXTSTYLE_1
 70
0
 40
0.0
 41
0.8
 50
0.0
 71
0
 42
0.2
  3
gdt
  4

  0
ENDTAB
  0
TABLE
  2
VIEW
  5
6
100
AcDbSymbolTable
 70
0
  0
ENDTAB
  0
TABLE
  2
UCS
  5
7
100
AcDbSymbolTable
 70
0
  0
ENDTAB
  0
TABLE
  2
APPID
  5
9
100
AcDbSymbolTable
 70
1
  0
APPID
  5
21A
100
AcDbSymbolTableRecord
100
AcDbRegAppTableRecord
  2
ACAD
 70
0
  0
ENDTAB
  0
TABLE
  2
BLOCK_RECORD
  5
1
100
AcDbSymbolTable
 70
0
  0
BLOCK_RECORD
  5
21B
100
AcDbSymbolTableRecord
100
AcDbBlockTableRecord
  2
*Model_Space
  0
BLOCK_RECORD
  5
21C
100
AcDbSymbolTableRecord
100
AcDbBlockTableRecord
  2
*Paper_Space
  0
BLOCK_RECORD
  5
21D
100
AcDbSymbolTableRecord
100
AcDbBlockTableRecord
  2
_FILLED
  0
ENDTAB
  0
TABLE
  2
DIMSTYLE
  5
A
100
AcDbSymbolTable
 70
1
100
AcDbDimStyleTable
 71
0
  0
DIMSTYLE
105
21E
100
AcDbSymbolTableRecord
100
AcDbDimStyleTableRecord
  2
STANDARD
 70
0
  3

  4

 40
1.0
 41
3.0
 42
0.5
 43
0.38
 44
1.5
 45
0.0
 46
0.0
 47
0.01
 48
0.01
140
3.0
141
0.09
142
0.0
143
25.4
144
1.0
145
0.0
146
1.0
147
0.625
 71
1
 72
0
 73
0
 74
0
 75
0
 76
0
 77
1
 78
8
 79
2
170
0
171
1
172
0
173
0
174
0
175
0
176
0
177
0
178
0
270
2
179
2
271
2
272
2
273
2
274
2
275
0
280
0
281
0
282
0
283
1
284
8
285
0
286
0
287
3
288
0
340
11
278
44
341
21D
342
21D
343
21D
344
21D
  0
ENDTAB
  0
ENDSEC
  0
SECTION
  2
BLOCKS
  0
BLOCK
  5
20
100
AcDbEntity
  8
0
100
AcDbBlockBegin
  2
*Model_Space
 70
0
 10
0.0
 20
0.0
 30
0.0
  3
*Model_Space
  1

  0
ENDBLK
  5
21
100
AcDbEntity
  8
0
100
AcDbBlockEnd
  0
BLOCK
  5
1C
100
AcDbEntity
  8
0
100
AcDbBlockBegin
  2
*Paper_Space
 70
0
 10
0.0
 20
0.0
 30
0.0
  3
*Paper_Space
  1

  0
ENDBLK
  5
1D
100
AcDbEntity
  8
0
100
AcDbBlockEnd
  0
BLOCK
  5
21F
100
AcDbEntity
  8
0
100
AcDbBlockBegin
  2
_FILLED
 70
64
 10
0.0
 20
0.0
  3
_FILLED
  1

  0
SOLID
  5
220
100
AcDbEntity
  8
0
  6
BYBLOCK
 62
0
100
AcDbTrace
 10
0.0
 20
0.0
 11
-1.0
 21
0.3166666667
 12
-1.0
 22
-0.3166666667
 13
-1.0
 23
-0.3166666667
  0
ENDBLK
  5
221
100
AcDbEntity
  8
0
  6
BYBLOCK
 62
0
100
AcDbBlockEnd
  0
ENDSEC
  0
SECTION
  2
ENTITIES
  0
LINE
  5
222
100
AcDbEntity
  8
DRAFT
100
AcDbLine
 62
7
  6
CONTINUOUS
 10
-26.5
 20
-43.6659437343
 11
-26.2242099741
 21
-43.9417337602
  0
LINE
  5
223
100
AcDbEntity
  8
DRAFT
100
AcDbLine
 62
7
  6
CONTINUOUS
 10
-32.0
 20
-38.1659437343
 11
-32.2757899725
 21
-37.8901537618
  0
LWPOLYLINE
  5
224
100
AcDbEntity
  8
0
100
AcDbPolyline
 62
250
  6
CONTINUOUS
 90
9
 70
0
 10
-33.4499217485
 20
-34.2853396703
 10
-33.4512328023
 20
-34.2833366875
 10
-33.4525326416
 20
-34.2757187207
 10
-33.4538212666
 20
-34.2624857699
 10
-33.4551075974
 20
-34.2435713775
 10
-33.4563827137
 20
-34.2190420011
 10
-33.4576198546
 20
-34.1890970141
 10
-33.4588184195
 20
-34.153562094
 10
-33.4599790088
 20
-34.1126115633
  0
LINE
  5
225
100
AcDbEntity
  8
DRAFT
100
AcDbLine
 62
7
  6
CONTINUOUS
 10
-32.0
 20
29.8340562657
 11
-32.2757899725
 21
29.5582662932
  0
LINE
  5
226
100
AcDbEntity
  8
DRAFT
100
AcDbLine
 62
7
  6
CONTINUOUS
 10
-26.5
 20
35.3340562657
 11
-26.2242099741
 21
35.6098462916
  0
LWPOLYLINE
  5
227
100
AcDbEntity
  8
0
100
AcDbPolyline
 62
250
  6
CONTINUOUS
 90
8
 70
0
 10
-21.119395936
 20
36.7839780141
 10
-21.1173897144
 20
36.7852887924
 10
-21.1097772139
 20
36.7865881904
 10
-21.0965584344
 20
36.787876208
 10
-21.0776678813
 20
36.7891616648
 10
-21.0531710492
 20
36.7904357413
 10
-21.0232644223
 20
36.7916719791
 10
-20.9877775347
 20
36.7928698227
  0
LWPOLYLINE
  5
228
100
AcDbEntity
  8
RACCORDO
100
AcDbPolyline
 62
250
  6
CONTINUOUS
 90
14
 70
0
 10
-11.6029478427
 20
41.0791389699
 10
-11.6245070891
 20
41.0706341873
 10
-11.6241849012
 20
41.060968696
 10
-11.5975265094
 20
41.051322702
 10
-11.5447355019
 20
41.0417289731
 10
-11.4659827773
 20
41.0321979814
 10
-11.3613102828
 20
41.022734812
 10
-11.2307234976
 20
41.0133503547
 10
-11.0745575014
 20
41.0040770455
 10
-10.8934338171
 20
40.9949517919
 10
-10.6880761014
 20
40.9860050324
 10
-10.4588172465
 20
40.9772459823
 10
-10.2057797442
 20
40.9686793283
 10
-9.6297565967
 20
40.9521839713
  0
LWPOLYLINE
  5
229
100
AcDbEntity
  8
RACCORDO
100
AcDbPolyline
 62
250
  6
CONTINUOUS
 90
12
 70
0
 10
-9.8566649333
 20
42.9170615042
 10
-9.8747660933
 20
42.9099938724
 10
-9.874373019
 20
42.9013943182
 10
-9.8493671663
 20
42.8927964672
 10
-9.7996413733
 20
42.884209503
 10
-9.7252584537
 20
42.8756675142
 10
-9.6265642215
 20
42.8672102835
 10
-9.5040751963
 20
42.8588705301
 10
-9.3580505421
 20
42.8506566412
 10
-9.1885465643
 20
42.8425717265
 10
-8.9956319706
 20
42.834625573
 10
-8.5424391979
 20
42.8192799533
  0
LWPOLYLINE
  5
22A
100
AcDbEntity
  8
0
100
AcDbPolyline
 62
7
  6
CONTINUOUS
 90
13
 70
0
 10
-5.9872670073
 20
45.2555990785
 10
-5.9980733731
 20
45.2513956213
 10
-5.9980733731
 20
45.2461657929
 10
-5.9832227831
 20
45.2409553873
 10
-5.9534110239
 20
45.235764549
 10
-5.9087486747
 20
45.2305931335
 10
-5.8495674731
 20
45.2254795524
 10
-5.7757593101
 20
45.2204242363
 10
-5.6874322948
 20
45.2154267545
 10
-5.5852424919
 20
45.2105242268
 10
-5.4690866775
 20
45.2057173602
 10
-5.3390680756
 20
45.2010054477
 10
-5.0402436859
 20
45.1919724481
  0
LWPOLYLINE
  5
22B
100
AcDbEntity
  8
RACCORDO
100
AcDbPolyline
 62
250
  6
CONTINUOUS
 90
12
 70
0
 10
-8.1103821128
 20
44.6880069191
 10
-8.1249731585
 20
44.6824038986
 10
-8.1247383769
 20
44.6749728945
 10
-8.1021705227
 20
44.6675445711
 10
-8.0571841342
 20
44.6601291779
 10
-7.989849716
 20
44.6527576665
 10
-7.9004930747
 20
44.645465709
 10
-7.7895984668
 20
44.6382830995
 10
-7.6574296715
 20
44.631219123
 10
-7.504074804
 20
44.6242784937
 10
-7.3296350103
 20
44.6174714338
 10
-6.9202926879
 20
44.6043772393
  0
LWPOLYLINE
  5
22C
100
AcDbEntity
  8
RACCORDO
100
AcDbPolyline
 62
250
  6
CONTINUOUS
 90
11
 70
0
 10
-3.8694092543
 20
46.3819544506
 10
-3.8761810479
 20
46.3794057611
 10
-3.8753250683
 20
46.3752049839
 10
-3.8595653656
 20
46.3710183567
 10
-3.8290780315
 20
46.3668685528
 10
-3.7840204692
 20
46.3627645873
 10
-3.7244592314
 20
46.3587123557
 10
-3.6504477333
 20
46.3547214908
 10
-3.5623023411
 20
46.3508138971
 10
-3.4605577042
 20
46.347013329
 10
-3.2184400229
 20
46.3397995705
  0
LWPOLYLINE
  5
22D
100
AcDbEntity
  8
0
100
AcDbPolyline
 62
7
  6
CONTINUOUS
 90
11
 70
0
 10
-0.9978905893
 20
47.1496243066
 10
-0.9991191665
 20
47.1491970743
 10
-0.9991191665
 20
47.1477855815
 10
-0.9927088741
 20
47.1463876727
 10
-0.9797641084
 20
47.1450036112
 10
-0.9604090503
 20
47.1436331338
 10
-0.9350162427
 20
47.1423026193
 10
-0.9034687216
 20
47.1410128416
 10
-0.865883451
 20
47.1397630268
 10
-0.8229838659
 20
47.138577231
 10
-0.7210358529
 20
47.1364001769
  0
LWPOLYLINE
  5
22E
100
AcDbEntity
  8
0
100
AcDbPolyline
 62
250
  6
CONTINUOUS
 90
8
 70
0
 10
13.8806040641
 20
-45.1158654516
 10
13.9797329699
 20
-45.1097152919
 10
14.0773338563
 20
-45.0913302297
 10
14.1719022565
 20
-45.0609936611
 10
14.261980448
 20
-45.0191732084
 10
14.3461799222
 20
-44.9665135119
 10
14.4232027882
 20
-44.9038262932
 10
14.437348211
 20
-44.890450428
  0
LWPOLYLINE
  5
22F
100
AcDbEntity
  8
0
100
AcDbPolyline
 62
7
  6
CONTINUOUS
 90
19
 70
0
 10
13.9233915413
 20
-45.0389718072
 10
13.9655663556
 20
-45.0370482485
 10
14.007480448
 20
-45.0329718278
 10
14.0491338183
 20
-45.026742194
 10
14.0906144522
 20
-45.0183680856
 10
14.1318343641
 20
-45.0078550908
 10
14.1725295968
 20
-44.9951948809
 10
14.21265612
 20
-44.980417782
 10
14.252257964
 20
-44.9635187729
 10
14.2912032618
 20
-44.9443973186
 10
14.3295559877
 20
-44.9230191664
 10
14.3672521674
 20
-44.899392378
 10
14.4039680116
 20
-44.8734336847
 10
14.4397077556
 20
-44.8451661085
 10
14.4744671641
 20
-44.8145521997
 10
14.5079097422
 20
-44.7813706732
 10
14.5399233252
 20
-44.7455153559
 10
14.5706200777
 20
-44.7070407407
 10
14.6
 20
-44.6659437343
  0
LINE
  5
230
100
AcDbEntity
  8
0
100
AcDbLine
 62
250
  6
CONTINUOUS
 10
20.9877775347
 20
-45.1247572913
 11
20.9012822569
 21
-45.1270146706
  0
LINE
  5
231
100
AcDbEntity
  8
0
100
AcDbLine
 62
250
  6
CONTINUOUS
 10
20.9012822569
 20
-45.1270146706
 11
20.7957368149
 21
-45.1290175831
  0
LINE
  5
232
100
AcDbEntity
  8
0
100
AcDbLine
 62
7
  6
CONTINUOUS
 10
7.7474999019
 20
-45.4302533717
 11
6.6435225932
 21
-45.445750742
  0
LINE
  5
233
100
AcDbEntity
  8
0
100
AcDbLine
 62
7
  6
CONTINUOUS
 10
-7.7474999019
 20
-45.1336112401
 11
-6.6435225932
 21
-45.1181138698
  0
LINE
  5
234
100
AcDbEntity
  8
0
100
AcDbLine
 62
250
  6
CONTINUOUS
 10
20.7957368149
 20
-45.1290175831
 11
20.6083525596
 21
-45.1314347832
  0
LINE
  5
235
100
AcDbEntity
  8
0
100
AcDbLine
 62
7
  6
CONTINUOUS
 10
6.6435225932
 20
-45.445750742
 11
5.4412503899
 21
-45.4587425827
  0
LINE
  5
236
100
AcDbEntity
  8
0
100
AcDbLine
 62
7
  6
CONTINUOUS
 10
-6.6435225932
 20
-45.1181138698
 11
-5.4412503899
 21
-45.1051220291
  0
LINE
  5
237
100
AcDbEntity
  8
0
100
AcDbLine
 62
7
  6
CONTINUOUS
 10
5.4412503899
 20
-45.4587425827
 11
4.1542791612
 21
-45.4690819758
  0
LINE
  5
238
100
AcDbEntity
  8
0
100
AcDbLine
 62
7
  6
CONTINUOUS
 10
-5.4412503899
 20
-45.1051220291
 11
-4.1542791612
 21
-45.094782636
  0
LINE
  5
239
100
AcDbEntity
  8
0
100
AcDbLine
 62
250
  6
CONTINUOUS
 10
20.6083525596
 20
-45.1314347832
 11
20.3966311253
 21
-45.1330347268
  0
LINE
  5
23A
100
AcDbEntity
  8
0
100
AcDbLine
 62
7
  6
CONTINUOUS
 10
4.1542791612
 20
-45.4690819758
 11
2.8040759678
 21
-45.4765727781
  0
LINE
  5
23B
100
AcDbEntity
  8
0
100
AcDbLine
 62
7
  6
CONTINUOUS
 10
-4.1542791612
 20
-45.094782636
 11
-2.8040759678
 21
-45.0872918337
  0
LINE
  5
23C
100
AcDbEntity
  8
0
100
AcDbLine
 62
7
  6
CONTINUOUS
 10
2.8040759678
 20
-45.4765727781
 11
1.4167418309
 21
-45.4811032298
  0
LINE
  5
23D
100
AcDbEntity
  8
0
100
AcDbLine
 62
7
  6
CONTINUOUS
 10
-2.8040759678
 20
-45.0872918337
 11
-1.4167418309
 21
-45.082761382
  0
LINE
  5
23E
100
AcDbEntity
  8
0
100
AcDbLine
 62
7
  6
CONTINUOUS
 10
1.4167418309
 20
-45.4811032298
 11
-0.0
 21
-45.4826349799
  0
LINE
  5
23F
100
AcDbEntity
  8
0
100
AcDbLine
 62
250
  6
CONTINUOUS
 10
20.3966311253
 20
-45.1330347268
 11
20.1
 21
-45.1338066745
  0
LINE
  5
240
100
AcDbEntity
  8
0
100
AcDbLine
 62
7
  6
CONTINUOUS
 10
-1.4167418309
 20
-45.082761382
 11
-0.0
 21
-45.0812296319
  0
LINE
  5
241
100
AcDbEntity
  8
DRAFT
100
AcDbLine
 62
7
  6
CONTINUOUS
 10
-28.0
 20
-45.6659437343
 11
28.0
 21
-45.6659437343
  0
LINE
  5
242
100
AcDbEntity
  8
ASSI
100
AcDbLine
 62
7
  6
CONTINUOUS
 10
28.0
 20
-45.6659437343
 11
-28.0
 21
-45.6659437343
  0
LINE
  5
243
100
AcDbEntity
  8
0
100
AcDbLine
 62
250
  6
CONTINUOUS
 10
-28.0
 20
-45.0389718072
 11
13.923397555
 21
-45.0389718072
  0
LINE
  5
244
100
AcDbEntity
  8
0
100
AcDbLine
 62
250
  6
CONTINUOUS
 10
21.0766024408
 20
-45.0389718072
 11
28.0
 21
-45.0389718072
  0
LINE
  5
245
100
AcDbEntity
  8
0
100
AcDbLine
 62
7
  6
CONTINUOUS
 10
14.6
 20
-44.6659437343
 11
20.4
 21
-44.6659437343
  0
LINE
  5
246
100
AcDbEntity
  8
RACCORDO
100
AcDbLine
 62
7
  6
CONTINUOUS
 10
-28.0
 20
-43.9417337068
 11
-26.2242100275
 21
-43.9417337068
  0
LINE
  5
247
100
AcDbEntity
  8
RACCORDO
100
AcDbLine
 62
7
  6
CONTINUOUS
 10
28.0
 20
-43.9417337068
 11
26.2242100275
 21
-43.9417337068
  0
LINE
  5
248
100
AcDbEntity
  8
RACCORDO
100
AcDbLine
 62
250
  6
CONTINUOUS
 10
-26.2242099741
 20
-43.9391393425
 11
26.2242099741
 21
-43.9391393425
  0
LINE
  5
249
100
AcDbEntity
  8
DRAFT
100
AcDbLine
 62
7
  6
CONTINUOUS
 10
-28.0
 20
-43.6659437343
 11
-26.5
 21
-43.6659437343
  0
LINE
  5
24A
100
AcDbEntity
  8
DRAFT
100
AcDbLine
 62
7
  6
CONTINUOUS
 10
28.0
 20
-43.6659437343
 11
26.5
 21
-43.6659437343
  0
LINE
  5
24B
100
AcDbEntity
  8
0
100
AcDbLine
 62
7
  6
CONTINUOUS
 10
-0.0
 20
-45.4826349799
 11
-1.4167418309
 21
-45.4811032298
  0
LINE
  5
24C
100
AcDbEntity
  8
0
100
AcDbLine
 62
7
  6
CONTINUOUS
 10
-0.0
 20
-45.0812296319
 11
1.4167418309
 21
-45.082761382
  0
LINE
  5
24D
100
AcDbEntity
  8
0
100
AcDbLine
 62
250
  6
CONTINUOUS
 10
20.1
 20
-45.1338066745
 11
14.6768780084
 21
-45.1333752731
  0
LINE
  5
24E
100
AcDbEntity
  8
0
100
AcDbLine
 62
7
  6
CONTINUOUS
 10
-1.4167418309
 20
-45.4811032298
 11
-2.8040759678
 21
-45.4765727781
  0
LINE
  5
24F
100
AcDbEntity
  8
0
100
AcDbLine
 62
7
  6
CONTINUOUS
 10
1.4167418309
 20
-45.082761382
 11
2.8040759678
 21
-45.0872918337
  0
LINE
  5
250
100
AcDbEntity
  8
0
100
AcDbLine
 62
7
  6
CONTINUOUS
 10
-2.8040759678
 20
-45.4765727781
 11
-4.1542791612
 21
-45.4690819758
  0
LINE
  5
251
100
AcDbEntity
  8
0
100
AcDbLine
 62
7
  6
CONTINUOUS
 10
2.8040759678
 20
-45.0872918337
 11
4.1542791612
 21
-45.094782636
  0
LINE
  5
252
100
AcDbEntity
  8
0
100
AcDbLine
 62
250
  6
CONTINUOUS
 10
14.6768780084
 20
-45.1333752731
 11
14.4600371372
 21
-45.1320646071
  0
LINE
  5
253
100
AcDbEntity
  8
0
100
AcDbLine
 62
7
  6
CONTINUOUS
 10
-4.1542791612
 20
-45.4690819758
 11
-5.4412503899
 21
-45.4587425827
  0
LINE
  5
254
100
AcDbEntity
  8
0
100
AcDbLine
 62
7
  6
CONTINUOUS
 10
4.1542791612
 20
-45.094782636
 11
5.4412503899
 21
-45.1051220291
  0
LINE
  5
255
100
AcDbEntity
  8
0
100
AcDbLine
 62
7
  6
CONTINUOUS
 10
-5.4412503899
 20
-45.4587425827
 11
-6.6435225932
 21
-45.445750742
  0
LINE
  5
256
100
AcDbEntity
  8
0
100
AcDbLine
 62
7
  6
CONTINUOUS
 10
5.4412503899
 20
-45.1051220291
 11
6.6435225932
 21
-45.1181138698
  0
LINE
  5
257
100
AcDbEntity
  8
0
100
AcDbLine
 62
250
  6
CONTINUOUS
 10
14.4600371372
 20
-45.1320646071
 11
14.2630832044
 21
-45.1299071399
  0
LWPOLYLINE
  5
258
100
AcDbEntity
  8
0
100
AcDbPolyline
 62
7
  6
CONTINUOUS
 90
16
 70
0
 10
-6.6435225932
 20
-45.445750742
 10
-7.7474999019
 20
-45.4302533717
 10
-8.2551838284
 20
-45.4216565001
 10
-8.7335531086
 20
-45.4124984178
 10
-9.1771981137
 20
-45.4028826889
 10
-9.5857246794
 20
-45.3928041183
 10
-9.95952697
 20
-45.3822679011
 10
-10.2943778506
 20
-45.3713931858
 10
-10.5898351732
 20
-45.36017613
 10
-10.8463410857
 20
-45.3486205761
 10
-11.0609948965
 20
-45.3368571998
 10
-11.2333215313
 20
-45.3248836421
 10
-11.3637960644
 20
-45.312702262
 10
-11.4509430274
 20
-45.3004508124
 10
-11.4942705975
 20
-45.2881284979
 10
-11.5
 20
-45.2819323059
  0
LWPOLYLINE
  5
259
100
AcDbEntity
  8
0
100
AcDbPolyline
 62
7
  6
CONTINUOUS
 90
16
 70
0
 10
6.6435225932
 20
-45.1181138698
 10
7.7474999019
 20
-45.1336112401
 10
8.2551838284
 20
-45.1422081117
 10
8.7335531086
 20
-45.1513661939
 10
9.1771981137
 20
-45.1609819229
 10
9.5857246794
 20
-45.1710604934
 10
9.95952697
 20
-45.1815967106
 10
10.2943778506
 20
-45.192471426
 10
10.5898351732
 20
-45.2036884818
 10
10.8463410857
 20
-45.2152440357
 10
11.0609948965
 20
-45.227007412
 10
11.2333215313
 20
-45.2389809697
 10
11.3637960644
 20
-45.2511623498
 10
11.4509430274
 20
-45.2634137994
 10
11.4942705975
 20
-45.2757361139
 10
11.5
 20
-45.2819323059
  0
LINE
  5
25A
100
AcDbEntity
  8
0
100
AcDbLine
 62
250
  6
CONTINUOUS
 10
14.2630832044
 20
-45.1299071399
 11
14.1491987609
 21
-45.1280485753
  0
LWPOLYLINE
  5
25B
100
AcDbEntity
  8
0
100
AcDbPolyline
 62
250
  6
CONTINUOUS
 90
10
 70
0
 10
14.1491987609
 20
-45.1280485753
 10
14.0531623698
 20
-45.1259184014
 10
14.0122548231
 20
-45.1247582786
 10
13.9767582441
 20
-45.1235602917
 10
13.9468438943
 20
-45.1223238793
 10
13.9223405122
 20
-45.1210496028
 10
13.9034451345
 20
-45.1197639737
 10
13.89022344
 20
-45.1184758292
 10
13.8826097498
 20
-45.1171763323
 10
13.880604064
 20
-45.1158654828
  0
LWPOLYLINE
  5
25C
100
AcDbEntity
  8
0
100
AcDbPolyline
 62
250
  6
CONTINUOUS
 90
7
 70
0
 10
21.1193959357
 20
-45.1158749058
 10
21.0202668787
 20
-45.1097229608
 10
20.9226660438
 20
-45.0913362217
 10
20.8280978689
 20
-45.0609981055
 10
20.7380200463
 20
-45.0191762494
 10
20.6538210528
 20
-44.9665153038
 10
20.5742287326
 20
-44.9014448752
  0
LWPOLYLINE
  5
25D
100
AcDbEntity
  8
0
100
AcDbPolyline
 62
7
  6
CONTINUOUS
 90
4
 70
0
 10
-33.223983283
 20
-27.603831637
 10
-33.1661341088
 20
-27.6578055128
 10
-33.0864303921
 20
-27.7170422847
 10
-33.0
 20
-27.7659437343
  0
LWPOLYLINE
  5
25E
100
AcDbEntity
  8
RACCORDO
100
AcDbPolyline
 62
250
  6
CONTINUOUS
 90
14
 70
0
 10
-13.2306563413
 20
39.3532885533
 10
-13.2553630748
 20
39.3434975141
 10
-13.255369705
 20
39.3329366166
 10
-13.2278026906
 20
39.3223960789
 10
-13.1728741175
 20
39.311910158
 10
-13.0907544712
 20
39.3014879734
 10
-12.9814686333
 20
39.291132625
 10
-12.844996965
 20
39.2808538704
 10
-12.6816642906
 20
39.2706855077
 10
-12.492091023
 20
39.2606662365
 10
-12.2769960466
 20
39.2508275443
 10
-12.0366908881
 20
39.2411779676
 10
-11.771274175
 20
39.2317214024
 10
-11.1664154588
 20
39.2134482051
  0
LINE
  5
25F
100
AcDbEntity
  8
DRAFT
100
AcDbLine
 62
250
  6
CONTINUOUS
 10
-26.5
 20
-39.6659437343
 11
-26.2242099741
 21
-39.6659437343
  0
LINE
  5
260
100
AcDbEntity
  8
DRAFT
100
AcDbLine
 62
250
  6
CONTINUOUS
 10
26.5
 20
-39.6659437343
 11
26.2242099741
 21
-39.6659437343
  0
LINE
  5
261
100
AcDbEntity
  8
RACCORDO
100
AcDbLine
 62
250
  6
CONTINUOUS
 10
32.0
 20
-39.6659437343
 11
34.0
 21
-39.6659437343
  0
LINE
  5
262
100
AcDbEntity
  8
RACCORDO
100
AcDbLine
 62
250
  6
CONTINUOUS
 10
-32.0
 20
-39.6659437343
 11
-34.0
 21
-39.6659437343
  0
LWPOLYLINE
  5
263
100
AcDbEntity
  8
0
100
AcDbPolyline
 62
250
  6
CONTINUOUS
 90
10
 70
0
 10
-33.4499217485
 20
-27.0465477983
 10
-33.441287266
 20
-27.0508103638
 10
-33.4326754337
 20
-27.0551944969
 10
-33.4240862517
 20
-27.0597001977
 10
-33.4155196734
 20
-27.0643254675
 10
-33.4069757452
 20
-27.069072305
 10
-33.3984546071
 20
-27.0739467064
 10
-33.3899563057
 20
-27.0789506702
 10
-33.3814807943
 20
-27.0840821979
 10
-33.3730280729
 20
-27.0893412893
  0
LWPOLYLINE
  5
264
100
AcDbEntity
  8
0
100
AcDbPolyline
 62
250
  6
CONTINUOUS
 90
8
 70
0
 10
-33.4499217173
 20
-27.0465477984
 10
-33.4437715575
 20
-27.1456767042
 10
-33.4253864954
 20
-27.2432775906
 10
-33.3950499268
 20
-27.3378459909
 10
-33.3532294741
 20
-27.4279241823
 10
-33.3005697776
 20
-27.5121236565
 10
-33.2378825589
 20
-27.5891465225
 10
-33.223983283
 20
-27.603831637
  0
LWPOLYLINE
  5
265
100
AcDbEntity
  8
0
100
AcDbPolyline
 62
7
  6
CONTINUOUS
 90
19
 70
0
 10
-33.3730280729
 20
-27.0893352756
 10
-33.3711045091
 20
-27.1315101609
 10
-33.3670280777
 20
-27.173424311
 10
-33.3607984293
 20
-27.2150777259
 10
-33.3524243049
 20
-27.2565583896
 10
-33.3419112943
 20
-27.297778318
 10
-33.3292510692
 20
-27.3384735593
 10
-33.3144739562
 20
-27.3786000845
 10
-33.2975749356
 20
-27.4182019226
 10
-33.2784534733
 20
-27.4571472085
 10
-33.2570753183
 20
-27.4954999147
 10
-33.2334485325
 20
-27.5331960687
 10
-33.2074898448
 20
-27.5699118873
 10
-33.1792222755
 20
-27.6056516079
 10
-33.1486083764
 20
-27.6404109931
 10
-33.1154268642
 20
-27.6738535479
 10
-33.0795715665
 20
-27.7058671072
 10
-33.0410969761
 20
-27.736563836
 10
-33.0
 20
-27.7659437343
  0
LWPOLYLINE
  5
266
100
AcDbEntity
  8
0
100
AcDbPolyline
 62
7
  6
CONTINUOUS
 90
4
 70
0
 10
-14.437348211
 20
36.5585629594
 10
-14.4918617785
 20
36.5001903745
 10
-14.5510985504
 20
36.4204866578
 10
-14.6
 20
36.3340562657
  0
LWPOLYLINE
  5
267
100
AcDbEntity
  8
0
100
AcDbPolyline
 62
7
  6
CONTINUOUS
 90
9
 70
0
 10
3.6
 20
45.2487807071
 10
3.5938615534
 20
45.2451317351
 10
3.5755693092
 20
45.2414827631
 10
3.5453079108
 20
45.2378706242
 10
3.5029561329
 20
45.2342956914
 10
3.4486352008
 20
45.2307575916
 10
3.3828934348
 20
45.2272920387
 10
3.3056151629
 20
45.2238997675
 10
3.216916057
 20
45.2205800432
  0
LINE
  5
268
100
AcDbEntity
  8
DRAFT
100
AcDbLine
 62
7
  6
CONTINUOUS
 10
28.0
 20
-38.1659437343
 11
32.0
 21
-38.1659437343
  0
LINE
  5
269
100
AcDbEntity
  8
DRAFT
100
AcDbLine
 62
7
  6
CONTINUOUS
 10
-28.0
 20
-38.1659437343
 11
-32.0
 21
-38.1659437343
  0
LINE
  5
26A
100
AcDbEntity
  8
DRAFT
100
AcDbLine
 62
7
  6
CONTINUOUS
 10
28.0
 20
-37.8901537084
 11
32.2731956082
 21
-37.8901537084
  0
LINE
  5
26B
100
AcDbEntity
  8
DRAFT
100
AcDbLine
 62
7
  6
CONTINUOUS
 10
-28.0
 20
-37.8901537084
 11
-32.2731956082
 21
-37.8901537084
  0
LINE
  5
26C
100
AcDbEntity
  8
0
100
AcDbLine
 62
250
  6
CONTINUOUS
 10
-33.4599790088
 20
-34.1126115633
 11
-33.4621093046
 21
-34.0165113968
  0
LWPOLYLINE
  5
26D
100
AcDbEntity
  8
0
100
AcDbPolyline
 62
7
  6
CONTINUOUS
 90
15
 70
0
 10
-33.7643096374
 20
-11.9134436362
 10
-33.7557127658
 20
-12.4211275627
 10
-33.7465546835
 20
-12.8994968429
 10
-33.7369389546
 20
-13.343141848
 10
-33.726860384
 20
-13.7516684137
 10
-33.7163241668
 20
-14.1254707043
 10
-33.7054494515
 20
-14.4603215849
 10
-33.6942323957
 20
-14.7557789075
 10
-33.6826768418
 20
-15.01228482
 10
-33.6709134655
 20
-15.2269386308
 10
-33.6589399077
 20
-15.3992652656
 10
-33.6467585277
 20
-15.5297397987
 10
-33.6345070781
 20
-15.6168867617
 10
-33.6221847636
 20
-15.6602143318
 10
-33.6159885716
 20
-15.6659437343
  0
LWPOLYLINE
  5
26E
100
AcDbEntity
  8
0
100
AcDbPolyline
 62
7
  6
CONTINUOUS
 90
15
 70
0
 10
-33.4676675058
 20
3.5815561676
 10
-33.4762643774
 20
4.0892400941
 10
-33.4854224596
 20
4.5676093743
 10
-33.4950381886
 20
5.0112543794
 10
-33.5051167591
 20
5.4197809451
 10
-33.5156529763
 20
5.7935832357
 10
-33.5265276917
 20
6.1284341163
 10
-33.5377447475
 20
6.4238914389
 10
-33.5493003014
 20
6.6803973514
 10
-33.5610636777
 20
6.8950511622
 10
-33.5730372354
 20
7.067377797
 10
-33.5852186155
 20
7.1978523301
 10
-33.5974700651
 20
7.2849992931
 10
-33.6097923796
 20
7.3283268632
 10
-33.6159885716
 20
7.3340562657
  0
LINE
  5
26F
100
AcDbEntity
  8
0
100
AcDbLine
 62
250
  6
CONTINUOUS
 10
-33.4621093046
 20
-34.0165113968
 11
-33.4639670552
 21
-33.9025990767
  0
LINE
  5
270
100
AcDbEntity
  8
0
100
AcDbLine
 62
7
  6
CONTINUOUS
 10
-33.7798070077
 20
-10.8094663275
 11
-33.7643096374
 21
-11.9134436362
  0
LINE
  5
271
100
AcDbEntity
  8
0
100
AcDbLine
 62
7
  6
CONTINUOUS
 10
-33.4521701355
 20
2.4775788589
 11
-33.4676675058
 21
3.5815561676
  0
LINE
  5
272
100
AcDbEntity
  8
0
100
AcDbLine
 62
7
  6
CONTINUOUS
 10
-33.7927988484
 20
-9.6071941242
 11
-33.7798070077
 21
-10.8094663275
  0
LINE
  5
273
100
AcDbEntity
  8
0
100
AcDbLine
 62
7
  6
CONTINUOUS
 10
-33.4391782948
 20
1.2753066556
 11
-33.4521701355
 21
2.4775788589
  0
LINE
  5
274
100
AcDbEntity
  8
0
100
AcDbLine
 62
250
  6
CONTINUOUS
 10
-33.4639670552
 20
-33.9025990767
 11
-33.4661224884
 21
-33.7057129546
  0
LINE
  5
275
100
AcDbEntity
  8
0
100
AcDbLine
 62
7
  6
CONTINUOUS
 10
-33.8031382415
 20
-8.3202228955
 11
-33.7927988484
 21
-9.6071941242
  0
LINE
  5
276
100
AcDbEntity
  8
0
100
AcDbLine
 62
7
  6
CONTINUOUS
 10
-33.4288389017
 20
-0.0116645732
 11
-33.4391782948
 21
1.2753066556
  0
LINE
  5
277
100
AcDbEntity
  8
0
100
AcDbLine
 62
7
  6
CONTINUOUS
 10
-33.8106290438
 20
-6.9700197021
 11
-33.8031382415
 21
-8.3202228955
  0
LINE
  5
278
100
AcDbEntity
  8
0
100
AcDbLine
 62
7
  6
CONTINUOUS
 10
-33.4213480994
 20
-1.3618677665
 11
-33.4288389017
 21
-0.0116645732
  0
LINE
  5
279
100
AcDbEntity
  8
0
100
AcDbLine
 62
250
  6
CONTINUOUS
 10
-33.4661224884
 20
-33.7057129546
 11
-33.4676730878
 21
-33.4153522055
  0
LINE
  5
27A
100
AcDbEntity
  8
0
100
AcDbLine
 62
7
  6
CONTINUOUS
 10
-33.8151594955
 20
-5.5826855652
 11
-33.8106290438
 21
-6.9700197021
  0
LINE
  5
27B
100
AcDbEntity
  8
0
100
AcDbLine
 62
7
  6
CONTINUOUS
 10
-33.4168176477
 20
-2.7492019034
 11
-33.4213480994
 21
-1.3618677665
  0
LINE
  5
27C
100
AcDbEntity
  8
0
100
AcDbLine
 62
7
  6
CONTINUOUS
 10
-33.8166912456
 20
-4.1659437343
 11
-33.8151594955
 21
-5.5826855652
  0
LINE
  5
27D
100
AcDbEntity
  8
0
100
AcDbLine
 62
7
  6
CONTINUOUS
 10
-33.4152858976
 20
-4.1659437343
 11
-33.4168176477
 21
-2.7492019034
  0
LINE
  5
27E
100
AcDbEntity
  8
DRAFT
100
AcDbLine
 62
7
  6
CONTINUOUS
 10
-34.0
 20
31.3340562657
 11
-34.0
 21
-39.6659437343
  0
LINE
  5
27F
100
AcDbEntity
  8
ASSI
100
AcDbLine
 62
7
  6
CONTINUOUS
 10
-34.0
 20
-39.6659437343
 11
-34.0
 21
31.3340562657
  0
LINE
  5
280
100
AcDbEntity
  8
0
100
AcDbLine
 62
250
  6
CONTINUOUS
 10
-33.4676730878
 20
-33.4153522055
 11
-33.4678629402
 21
-28.0659437343
  0
LINE
  5
281
100
AcDbEntity
  8
0
100
AcDbLine
 62
250
  6
CONTINUOUS
 10
-33.3730280729
 20
31.3340562657
 11
-33.3730280729
 21
-27.0893412893
  0
LINE
  5
282
100
AcDbEntity
  8
0
100
AcDbLine
 62
250
  6
CONTINUOUS
 10
-33.3730280729
 20
-34.2425461751
 11
-33.3730280729
 21
-39.6659437343
  0
LINE
  5
283
100
AcDbEntity
  8
0
100
AcDbLine
 62
7
  6
CONTINUOUS
 10
-33.0
 20
-27.7659437343
 11
-33.0
 21
-33.5659437343
  0
LINE
  5
284
100
AcDbEntity
  8
RACCORDO
100
AcDbLine
 62
7
  6
CONTINUOUS
 10
-32.2757899725
 20
-37.8901537618
 11
-32.2757899725
 21
-39.6659437343
  0
LINE
  5
285
100
AcDbEntity
  8
RACCORDO
100
AcDbLine
 62
7
  6
CONTINUOUS
 10
-32.2757899725
 20
29.5582662932
 11
-32.2757899725
 21
31.3340562657
  0
LINE
  5
286
100
AcDbEntity
  8
RACCORDO
100
AcDbLine
 62
250
  6
CONTINUOUS
 10
-32.2731956082
 20
29.5582662398
 11
-32.2731956082
 21
-37.8901537084
  0
LINE
  5
287
100
AcDbEntity
  8
DRAFT
100
AcDbLine
 62
7
  6
CONTINUOUS
 10
-32.0
 20
-38.1659437343
 11
-32.0
 21
-39.6659437343
  0
LINE
  5
288
100
AcDbEntity
  8
DRAFT
100
AcDbLine
 62
7
  6
CONTINUOUS
 10
-32.0
 20
29.8340562657
 11
-32.0
 21
31.3340562657
  0
LINE
  5
289
100
AcDbEntity
  8
0
100
AcDbLine
 62
7
  6
CONTINUOUS
 10
-33.8151594955
 20
-2.7492019034
 11
-33.8166912456
 21
-4.1659437343
  0
LINE
  5
28A
100
AcDbEntity
  8
0
100
AcDbLine
 62
7
  6
CONTINUOUS
 10
-33.4168176477
 20
-5.5826855652
 11
-33.4152858976
 21
-4.1659437343
  0
LINE
  5
28B
100
AcDbEntity
  8
0
100
AcDbLine
 62
7
  6
CONTINUOUS
 10
-33.8106290438
 20
-1.3618677665
 11
-33.8151594955
 21
-2.7492019034
  0
LINE
  5
28C
100
AcDbEntity
  8
0
100
AcDbLine
 62
7
  6
CONTINUOUS
 10
-33.4213480994
 20
-6.9700197021
 11
-33.4168176477
 21
-5.5826855652
  0
LINE
  5
28D
100
AcDbEntity
  8
0
100
AcDbLine
 62
250
  6
CONTINUOUS
 10
-33.4678629402
 20
-28.0659437343
 11
-33.4670900992
 21
-27.7691573014
  0
LINE
  5
28E
100
AcDbEntity
  8
0
100
AcDbLine
 62
7
  6
CONTINUOUS
 10
-33.8031382415
 20
-0.0116645732
 11
-33.8106290438
 21
-1.3618677665
  0
LINE
  5
28F
100
AcDbEntity
  8
0
100
AcDbLine
 62
7
  6
CONTINUOUS
 10
-33.4288389017
 20
-8.3202228955
 11
-33.4213480994
 21
-6.9700197021
  0
LINE
  5
290
100
AcDbEntity
  8
0
100
AcDbLine
 62
7
  6
CONTINUOUS
 10
-33.7927988484
 20
1.2753066556
 11
-33.8031382415
 21
-0.0116645732
  0
LINE
  5
291
100
AcDbEntity
  8
0
100
AcDbLine
 62
7
  6
CONTINUOUS
 10
-33.4391782948
 20
-9.6071941242
 11
-33.4288389017
 21
-8.3202228955
  0
LINE
  5
292
100
AcDbEntity
  8
0
100
AcDbLine
 62
250
  6
CONTINUOUS
 10
-33.4670900992
 20
-27.7691573014
 11
-33.4654875535
 21
-27.5572472632
  0
LINE
  5
293
100
AcDbEntity
  8
0
100
AcDbLine
 62
7
  6
CONTINUOUS
 10
-33.7798070077
 20
2.4775788589
 11
-33.7927988484
 21
1.2753066556
  0
LINE
  5
294
100
AcDbEntity
  8
0
100
AcDbLine
 62
7
  6
CONTINUOUS
 10
-33.4521701355
 20
-10.8094663275
 11
-33.4391782948
 21
-9.6071941242
  0
LINE
  5
295
100
AcDbEntity
  8
0
100
AcDbLine
 62
250
  6
CONTINUOUS
 10
-33.4654875535
 20
-27.5572472632
 11
-33.4630674496
 21
-27.3698121788
  0
LINE
  5
296
100
AcDbEntity
  8
0
100
AcDbLine
 62
250
  6
CONTINUOUS
 10
-33.4630674496
 20
-27.3698121788
 11
-33.4610637884
 21
-27.2643394901
  0
LWPOLYLINE
  5
297
100
AcDbEntity
  8
0
100
AcDbPolyline
 62
250
  6
CONTINUOUS
 90
9
 70
0
 10
-33.4610637884
 20
-27.2643394901
 10
-33.4588074186
 20
-27.1779656316
 10
-33.457610445
 20
-27.1425380734
 10
-33.4563753107
 20
-27.1126792865
 10
-33.4551025154
 20
-27.0882234387
 10
-33.4538181522
 20
-27.0693631081
 10
-33.4525309188
 20
-27.0561624875
 10
-33.4512321176
 20
-27.0485573843
 10
-33.4499217485
 20
-27.0465477983
  0
LWPOLYLINE
  5
298
100
AcDbEntity
  8
0
100
AcDbPolyline
 62
250
  6
CONTINUOUS
 90
7
 70
0
 10
-33.4499312882
 20
-34.28533967
 10
-33.4437794014
 20
-34.1862106421
 10
-33.4253926968
 20
-34.0886098253
 10
-33.3950545928
 20
-33.9940416589
 10
-33.3532327293
 20
-33.9039638364
 10
-33.3005717592
 20
-33.8197648363
 10
-33.2349977679
 20
-33.7396321466
  0
LINE
  5
299
100
AcDbEntity
  8
0
100
AcDbLine
 62
250
  6
CONTINUOUS
 10
-33.4678629402
 20
-33.2659437343
 11
-33.0
 21
-33.2659437343
  0
LINE
  5
29A
100
AcDbEntity
  8
DRAFT
100
AcDbLine
 62
250
  6
CONTINUOUS
 10
-28.0
 20
29.8340562657
 11
-28.0
 21
29.5582662398
  0
LINE
  5
29B
100
AcDbEntity
  8
DRAFT
100
AcDbLine
 62
250
  6
CONTINUOUS
 10
-28.0
 20
-38.1659437343
 11
-28.0
 21
-37.8901537084
  0
LINE
  5
29C
100
AcDbEntity
  8
RACCORDO
100
AcDbLine
 62
250
  6
CONTINUOUS
 10
-28.0
 20
-43.6659437343
 11
-28.0
 21
-45.6659437343
  0
LINE
  5
29D
100
AcDbEntity
  8
RACCORDO
100
AcDbLine
 62
250
  6
CONTINUOUS
 10
-28.0
 20
35.3340562657
 11
-28.0
 21
37.3340562657
  0
LWPOLYLINE
  5
29E
100
AcDbEntity
  8
0
100
AcDbPolyline
 62
250
  6
CONTINUOUS
 90
10
 70
0
 10
-13.880604064
 20
36.7839780141
 10
-13.8848666295
 20
36.7753435317
 10
-13.8892507626
 20
36.7667316994
 10
-13.8937564634
 20
36.7581425174
 10
-13.8983817332
 20
36.749575939
 10
-13.9031285707
 20
36.7410320109
 10
-13.9080029721
 20
36.7325108728
 10
-13.9130069359
 20
36.7240125714
 10
-13.9181384636
 20
36.7155370599
 10
-13.923397555
 20
36.7070843386
  0
LWPOLYLINE
  5
29F
100
AcDbEntity
  8
0
100
AcDbPolyline
 62
7
  6
CONTINUOUS
 90
16
 70
0
 10
-33.6159885716
 20
7.3340562657
 10
-33.6221847636
 20
7.3283268632
 10
-33.6345070781
 20
7.2849992931
 10
-33.6467585277
 20
7.1978523301
 10
-33.6589399077
 20
7.067377797
 10
-33.6709134655
 20
6.8950511622
 10
-33.6826768418
 20
6.6803973514
 10
-33.6942323957
 20
6.4238914389
 10
-33.7054494515
 20
6.1284341163
 10
-33.7163241668
 20
5.7935832357
 10
-33.726860384
 20
5.4197809451
 10
-33.7369389546
 20
5.0112543794
 10
-33.7465546835
 20
4.5676093743
 10
-33.7557127658
 20
4.0892400941
 10
-33.7643096374
 20
3.5815561676
 10
-33.7798070077
 20
2.4775788589
  0
LWPOLYLINE
  5
2A0
100
AcDbEntity
  8
0
100
AcDbPolyline
 62
7
  6
CONTINUOUS
 90
9
 70
0
 10
10.1
 20
42.1492528521
 10
10.0903444761
 20
42.141569018
 10
10.0614874188
 20
42.1338851839
 10
10.0135930999
 20
42.1262450909
 10
9.9465529418
 20
42.1186489883
 10
9.8604755222
 20
42.1110966268
 10
9.7558508455
 20
42.1036309989
 10
9.632573129
 20
42.0962525993
 10
9.4907481555
 20
42.0889609332
  0
LWPOLYLINE
  5
2A1
100
AcDbEntity
  8
0
100
AcDbPolyline
 62
7
  6
CONTINUOUS
 90
10
 70
0
 10
7.85
 20
43.4490548558
 10
7.8411086126
 20
43.4425360672
 10
7.8144545922
 20
43.4360320457
 10
7.7700983188
 20
43.4295575251
 10
7.7081402735
 20
43.4231271722
 10
7.6287208113
 20
43.4167555538
 10
7.5320198429
 20
43.4104571037
 10
7.4182564269
 20
43.40424609
 10
7.2876882742
 20
43.3981365826
 10
7.1406111635
 20
43.3921424214
  0
LINE
  5
2A2
100
AcDbEntity
  8
0
100
AcDbLine
 62
250
  6
CONTINUOUS
 10
-33.4678629402
 20
-28.0659437343
 11
-33.0
 21
-28.0659437397
  0
LINE
  5
2A3
100
AcDbEntity
  8
DRAFT
100
AcDbLine
 62
7
  6
CONTINUOUS
 10
-26.5
 20
35.3340562657
 11
-26.5
 21
31.3340562657
  0
LINE
  5
2A4
100
AcDbEntity
  8
DRAFT
100
AcDbLine
 62
7
  6
CONTINUOUS
 10
-26.5
 20
-43.6659437343
 11
-26.5
 21
-39.6659437343
  0
LINE
  5
2A5
100
AcDbEntity
  8
DRAFT
100
AcDbLine
 62
7
  6
CONTINUOUS
 10
-26.2242099741
 20
35.6072518739
 11
-26.2242099741
 21
31.3340562657
  0
LINE
  5
2A6
100
AcDbEntity
  8
DRAFT
100
AcDbLine
 62
7
  6
CONTINUOUS
 10
-26.2242099741
 20
-43.9391393425
 11
-26.2242099741
 21
-39.6659437343
  0
LWPOLYLINE
  5
2A7
100
AcDbEntity
  8
0
100
AcDbPolyline
 62
7
  6
CONTINUOUS
 90
10
 70
0
 10
4.1
 20
45.7487045546
 10
4.098380347
 20
45.7467289336
 10
4.0859964213
 20
45.7427956006
 10
4.0611159696
 20
45.7388803394
 10
4.0238515922
 20
45.7349829872
 10
3.9745410904
 20
45.7311388734
 10
3.9130749351
 20
45.7273484822
 10
3.8395626554
 20
45.7236113293
 10
3.7546706393
 20
45.7199612922
 10
3.658295417
 20
45.7163991629
  0
LWPOLYLINE
  5
2A8
100
AcDbEntity
  8
0
100
AcDbPolyline
 62
7
  6
CONTINUOUS
 90
8
 70
0
 10
11.85
 20
40.3495270008
 10
11.8403533544
 20
40.3412040997
 10
11.811506744
 20
40.3328811985
 10
11.7636001581
 20
40.3245986875
 10
11.6965409508
 20
40.3163567628
 10
11.6104217681
 20
40.3081552283
 10
11.5056605365
 20
40.3000338851
 10
11.3821666418
 20
40.2919931228
  0
LWPOLYLINE
  5
2A9
100
AcDbEntity
  8
0
100
AcDbPolyline
 62
7
  6
CONTINUOUS
 90
9
 70
0
 10
-1.8558092975
 20
26.2181077358
 10
-1.9357404166
 20
26.1660501283
 10
-2.0085527581
 20
26.105324075
 10
-2.0743885913
 20
26.0363875991
 10
-2.133105647
 20
25.9587826774
 10
-2.1838442801
 20
25.8720536493
 10
-2.2263179426
 20
25.7760486278
 10
-2.2608131825
 20
25.6709195
 10
-2.28733
 20
25.5566662657
  0
LWPOLYLINE
  5
2AA
100
AcDbEntity
  8
0
100
AcDbPolyline
 62
7
  6
CONTINUOUS
 90
10
 70
0
 10
-19.5160718602
 20
-3.0334127343
 10
-19.5185325202
 20
-2.9489004238
 10
-19.5168607977
 20
-2.8671026311
 10
-19.5110566925
 20
-2.7880193563
 10
-19.5012273654
 20
-2.7113279001
 10
-19.4872656557
 20
-2.6373509616
 10
-19.4688500817
 20
-2.5670566392
 10
-19.4458734829
 20
-2.5007676321
 10
-19.4184430197
 20
-2.438161241
 10
-19.3865586922
 20
-2.3792374658
  0
LINE
  5
2AB
100
AcDbEntity
  8
0
100
AcDbLine
 62
7
  6
CONTINUOUS
 10
-21.065387
 20
-4.2810327343
 11
-21.065387
 21
-5.7420647343
  0
LINE
  5
2AC
100
AcDbEntity
  8
0
100
AcDbLine
 62
7
  6
CONTINUOUS
 10
-20.793534
 20
-5.4589547343
 11
-20.793534
 21
-4.2810327343
  0
LINE
  5
2AD
100
AcDbEntity
  8
0
100
AcDbLine
 62
250
  6
CONTINUOUS
 10
-20.1
 20
36.8019192059
 11
-20.1
 21
36.3340562657
  0
LWPOLYLINE
  5
2AE
100
AcDbEntity
  8
0
100
AcDbPolyline
 62
7
  6
CONTINUOUS
 90
16
 70
0
 10
-20.8437946685
 20
-2.7729470658
 10
-20.8409247288
 20
-2.7082693815
 10
-20.83372807
 20
-2.6469712729
 10
-20.822204692
 20
-2.58905274
 10
-20.8064414318
 20
-2.5339794528
 10
-20.7863514524
 20
-2.4822857413
 10
-20.7616742437
 20
-2.4355745954
 10
-20.7323707342
 20
-2.3945066838
 10
-20.6984799953
 20
-2.3584213378
 10
-20.6598587313
 20
-2.3269395408
 10
-20.6160936553
 20
-2.2999548251
 10
-20.567598054
 20
-2.2775736586
 10
-20.5154684922
 20
-2.2597364279
 10
-20.4600704915
 20
-2.2464232623
 10
-20.4010385301
 20
-2.2376540326
 10
-20.3383726082
 20
-2.2334287389
  0
LWPOLYLINE
  5
2AF
100
AcDbEntity
  8
0
100
AcDbPolyline
 62
7
  6
CONTINUOUS
 90
29
 70
0
 10
-0.9264113834
 20
24.9550786562
 10
-0.8458648801
 20
24.9972332654
 10
-0.7741025287
 20
25.0445438057
 10
-0.7111243292
 20
25.0970102771
 10
-0.6569695105
 20
25.1549605096
 10
-0.6115988438
 20
25.2180666731
 10
-0.5748946421
 20
25.2853452773
 10
-0.5465021452
 20
25.3568286123
 10
-0.5267761134
 20
25.4324843878
 10
-0.5166631412
 20
25.5112322435
 10
-0.5163364145
 20
25.5943915405
 10
-0.5256227473
 20
25.6806429177
 10
-0.5449491768
 20
25.7649479312
 10
-0.5749855689
 20
25.847046618
 10
-0.6150620578
 20
25.9271989412
 10
-0.6635960826
 20
26.0011463463
 10
-0.7198204994
 20
26.0676311156
 10
-0.7845024522
 20
26.1279109669
 10
-0.8583608129
 20
26.1815004992
 10
-0.9425979847
 20
26.2294238005
 10
-1.0360115645
 20
26.2706567828
 10
-1.1357132143
 20
26.301641781
 10
-1.2441106614
 20
26.3213651398
 10
-1.3587961785
 20
26.3308405144
 10
-1.4696582466
 20
26.3295512065
 10
-1.5742805232
 20
26.3169323738
 10
-1.6750793508
 20
26.2935488586
 10
-1.7691922373
 20
26.2605784883
 10
-1.8558092975
 20
26.2181077358
  0
LINE
  5
2B0
100
AcDbEntity
  8
0
100
AcDbLine
 62
7
  6
CONTINUOUS
 10
-17.6
 20
-20.6659437343
 11
-17.4
 21
-20.6659437343
  0
LWPOLYLINE
  5
2B1
100
AcDbEntity
  8
0
100
AcDbPolyline
 62
7
  6
CONTINUOUS
 90
13
 70
0
 10
-19.5275902179
 20
-5.7697467304
 10
-19.5826248977
 20
-5.6577320666
 10
-19.6265135819
 20
-5.5480345994
 10
-19.6592562703
 20
-5.4406543289
 10
-19.6804101346
 20
-5.3347174235
 10
-19.6904180032
 20
-5.2310977148
 10
-19.690608361
 20
-5.1324166971
 10
-19.6810306855
 20
-5.039031972
 10
-19.6616354992
 20
-4.9505859379
 10
-19.6336028542
 20
-4.8686272844
 10
-19.5973261012
 20
-4.7936722413
 10
-19.5524118895
 20
-4.7252045788
 10
-19.4988602192
 20
-4.6632242969
  0
LINE
  5
2B2
100
AcDbEntity
  8
0
100
AcDbLine
 62
7
  6
CONTINUOUS
 10
-18.7037187644
 20
-5.6808092583
 11
-18.5737469122
 21
-5.9698739295
  0
LWPOLYLINE
  5
2B3
100
AcDbEntity
  8
0
100
AcDbPolyline
 62
7
  6
CONTINUOUS
 90
13
 70
0
 10
-19.6658613271
 20
-2.4503443447
 10
-19.6955802854
 20
-2.3761436181
 10
-19.7314092241
 20
-2.306963707
 10
-19.7733481433
 20
-2.2428046115
 10
-19.8224913876
 20
-2.1829981688
 10
-19.8777446125
 20
-2.1282125416
 10
-19.9358247837
 20
-2.0804522183
 10
-19.9952852269
 20
-2.040422454
 10
-20.0575726164
 20
-2.0074179935
 10
-20.1237439415
 20
-1.9813275596
 10
-20.1941515317
 20
-1.9621140596
 10
-20.2684430575
 20
-1.949814586
 10
-20.3466185187
 20
-1.9444291389
  0
LINE
  5
2B4
100
AcDbEntity
  8
0
100
AcDbLine
 62
7
  6
CONTINUOUS
 10
-18.7410220488
 20
-3.3950555749
 11
-18.6454738397
 21
-3.7070912577
  0
LINE
  5
2B5
100
AcDbEntity
  8
0
100
AcDbLine
 62
7
  6
CONTINUOUS
 10
-17.6
 20
12.3340562657
 11
-17.6
 21
-20.6659437343
  0
LINE
  5
2B6
100
AcDbEntity
  8
0
100
AcDbLine
 62
7
  6
CONTINUOUS
 10
-17.4
 20
-20.6659437343
 11
-17.4
 21
12.3340562657
  0
LWPOLYLINE
  5
2B7
100
AcDbEntity
  8
RACCORDO
100
AcDbPolyline
 62
7
  6
CONTINUOUS
 90
22
 70
0
 10
-14.0
 20
38.3724358193
 10
-13.9965050021
 20
38.4561345768
 10
-13.9860246986
 20
38.5393691341
 10
-13.9686026373
 20
38.6215574488
 10
-13.9441910494
 20
38.70252403
 10
-13.9130042037
 20
38.7812694254
 10
-13.8758502065
 20
38.8561081121
 10
-13.8329293378
 20
38.9271282325
 10
-13.7850024674
 20
38.9934875915
 10
-13.734617981
 20
39.0527406578
 10
-13.6832237356
 20
39.1047541902
 10
-13.631344367
 20
39.1503605759
 10
-13.5807201164
 20
39.1893003652
 10
-13.5329097152
 20
39.2217308431
 10
-13.4878437359
 20
39.2488792441
 10
-13.4446340587
 20
39.272092105
 10
-13.4032076049
 20
39.2919716843
 10
-13.3641570212
 20
39.3087378846
 10
-13.3273292663
 20
39.3229118197
 10
-13.2927153045
 20
39.3348749355
 10
-13.260483344
 20
39.3449034776
 10
-13.2306563462
 20
39.353288552
  0
LWPOLYLINE
  5
2B8
100
AcDbEntity
  8
0
100
AcDbPolyline
 62
7
  6
CONTINUOUS
 90
13
 70
0
 10
-18.3215925954
 20
-5.1185819553
 10
-18.3259606532
 20
-5.1780767761
 10
-18.3361949838
 20
-5.2368538985
 10
-18.3522955871
 20
-5.2949133225
 10
-18.3748888602
 20
-5.3535612577
 10
-18.403348406
 20
-5.4114914944
 10
-18.4357950335
 20
-5.4647854039
 10
-18.4718514703
 20
-5.5120826831
 10
-18.5118949888
 20
-5.5547436351
 10
-18.5551782148
 20
-5.5929305406
 10
-18.6014520237
 20
-5.626697493
 10
-18.6509655403
 20
-5.6559903989
 10
-18.7037187644
 20
-5.6808092583
  0
LINE
  5
2B9
100
AcDbEntity
  8
0
100
AcDbLine
 62
7
  6
CONTINUOUS
 10
-20.6483798375
 20
-3.590208416
 11
-20.5157908992
 21
-3.330527537
  0
LWPOLYLINE
  5
2BA
100
AcDbEntity
  8
0
100
AcDbPolyline
 62
7
  6
CONTINUOUS
 90
9
 70
0
 10
8.35
 20
43.9489787034
 10
8.3477766773
 20
43.9456569079
 10
8.3305342227
 20
43.9390339007
 10
8.295942249
 20
43.9324316049
 10
8.2441078207
 20
43.9258498928
 10
8.1753521321
 20
43.9193295482
 10
8.0895701131
 20
43.9128709521
 10
7.9868668338
 20
43.9064737236
 10
7.8678786997
 20
43.9001775033
  0
LWPOLYLINE
  5
2BB
100
AcDbEntity
  8
0
100
AcDbPolyline
 62
7
  6
CONTINUOUS
 90
11
 70
0
 10
14.0
 20
36.9500448373
 10
13.9901779926
 20
36.9409131977
 10
13.9607939714
 20
36.9317815581
 10
13.9119709385
 20
36.9226881437
 10
13.8436274081
 20
36.9136331146
 10
13.7558448659
 20
36.9046163107
 10
13.6489907705
 20
36.8956754764
 10
13.5229851768
 20
36.8868109301
 10
13.3779080298
 20
36.8780223533
 10
13.2143666243
 20
36.8693465353
 10
13.0322835606
 20
36.8607839486
  0
LWPOLYLINE
  5
2BC
100
AcDbEntity
  8
0
100
AcDbPolyline
 62
7
  6
CONTINUOUS
 90
4
 70
0
 10
20.5742287326
 20
-44.9014448752
 10
20.5081403684
 20
-44.832077611
 10
20.4489042276
 20
-44.7523731124
 10
20.4000034028
 20
-44.6659420789
  0
LWPOLYLINE
  5
2BD
100
AcDbEntity
  8
0
100
AcDbPolyline
 62
7
  6
CONTINUOUS
 90
19
 70
0
 10
-18.4881469242
 20
-2.3302200521
 10
-18.4410073715
 20
-2.3849085468
 10
-18.401678094
 20
-2.4440997444
 10
-18.3701590916
 20
-2.5077936449
 10
-18.3465904975
 20
-2.5767694036
 10
-18.3308321785
 20
-2.6502478652
 10
-18.3224637352
 20
-2.7258915637
 10
-18.321658262
 20
-2.8051744609
 10
-18.3282426644
 20
-2.886622595
 10
-18.3412772609
 20
-2.9634766146
 10
-18.360587595
 20
-3.0339750553
 10
-18.386348123
 20
-3.0998793815
 10
-18.4181425319
 20
-3.1597146352
 10
-18.4556011548
 20
-3.2127399097
 10
-18.4990936586
 20
-3.2596961117
 10
-18.549312731
 20
-3.301331003
 10
-18.6064892682
 20
-3.3378938376
 10
-18.6703923741
 20
-3.3691353616
 10
-18.7410220488
 20
-3.3950555749
  0
LINE
  5
2BE
100
AcDbEntity
  8
0
100
AcDbLine
 62
250
  6
CONTINUOUS
 10
-14.9
 20
36.8019192059
 11
-14.9000000056
 21
36.3340562657
  0
LINE
  5
2BF
100
AcDbEntity
  8
0
100
AcDbLine
 62
7
  6
CONTINUOUS
 10
-14.0
 20
38.3724358193
 11
-14.0
 21
36.9500448373
  0
LINE
  5
2C0
100
AcDbEntity
  8
0
100
AcDbLine
 62
7
  6
CONTINUOUS
 10
-11.85
 20
40.7761858505
 11
-11.85
 21
40.3495270008
  0
LINE
  5
2C1
100
AcDbEntity
  8
0
100
AcDbLine
 62
7
  6
CONTINUOUS
 10
-11.35
 20
40.290191574
 11
-11.35
 21
39.8496031532
  0
LWPOLYLINE
  5
2C2
100
AcDbEntity
  8
RACCORDO
100
AcDbPolyline
 62
7
  6
CONTINUOUS
 90
19
 70
0
 10
-10.1
 20
42.6160979591
 10
-10.0980070969
 20
42.6507920662
 10
-10.0922281186
 20
42.6842867952
 10
-10.0829879742
 20
42.7162098185
 10
-10.0704880559
 20
42.7465659052
 10
-10.0551778453
 20
42.7747643467
 10
-10.0380622784
 20
42.7997918378
 10
-10.0199139172
 20
42.8215277086
 10
-10.0011269299
 20
42.840329989
 10
-9.9823700798
 20
42.8562302989
 10
-9.9641100067
 20
42.8694816728
 10
-9.9466210521
 20
42.8804379931
 10
-9.9302179977
 20
42.8893746147
 10
-9.9153193684
 20
42.8964949355
 10
-9.9018479142
 20
42.9021979758
 10
-9.8892764217
 20
42.9069485688
 10
-9.877440047
 20
42.9109628863
 10
-9.8665663843
 20
42.9142951435
 10
-9.8566649279
 20
42.9170615056
  0
LWPOLYLINE
  5
2C3
100
AcDbEntity
  8
RACCORDO
100
AcDbPolyline
 62
7
  6
CONTINUOUS
 90
19
 70
0
 10
-11.85
 20
40.7761858505
 10
-11.8478693272
 20
40.812086751
 10
-11.8417297006
 20
40.846561726
 10
-11.8319848211
 20
40.879216473
 10
-11.8189247747
 20
40.9100161672
 10
-11.8030627015
 20
40.9384191208
 10
-11.7854060287
 20
40.9635348142
 10
-11.7666918968
 20
40.9853290408
 10
-11.747378118
 20
41.0041034553
 10
-11.7282722857
 20
41.0198205717
 10
-11.7099733048
 20
41.0327135802
 10
-11.6926705384
 20
41.0432612149
 10
-11.6764828863
 20
41.0518706337
 10
-11.6617754096
 20
41.0587567978
 10
-11.6484959529
 20
41.0642863621
 10
-11.6360201657
 20
41.0689433135
 10
-11.6241442312
 20
41.0729380757
 10
-11.6131181859
 20
41.0763016251
 10
-11.6029478526
 20
41.0791389673
  0
LWPOLYLINE
  5
2C4
100
AcDbEntity
  8
0
100
AcDbPolyline
 62
7
  6
CONTINUOUS
 90
11
 70
0
 10
9.45
 20
41.6493290045
 10
9.4475513618
 20
41.6455747786
 10
9.4279698689
 20
41.638074108
 10
9.3888474687
 20
41.630596765
 10
9.3302652484
 20
41.6231582473
 10
9.2523446286
 20
41.6157739726
 10
9.1552471117
 20
41.6084592457
 10
9.039173947
 20
41.6012292277
 10
8.904365714
 20
41.5940989038
 10
8.7511018233
 20
41.5870830528
 10
8.5796999378
 20
41.5801962159
  0
LWPOLYLINE
  5
2C5
100
AcDbEntity
  8
0
100
AcDbPolyline
 62
7
  6
CONTINUOUS
 90
10
 70
0
 10
-19.3865586922
 20
-2.3792374658
 10
-19.3561281389
 20
-2.3369337664
 10
-19.319494111
 20
-2.2983101626
 10
-19.2766566083
 20
-2.2633666545
 10
-19.2268657783
 20
-2.2312856031
 10
-19.1708714735
 20
-2.2028846474
 10
-19.1109232525
 20
-2.1806167041
 10
-19.047770968
 20
-2.1652994122
 10
-18.9806647673
 20
-2.1561151328
 10
-18.9096046502
 20
-2.1530638658
  0
LWPOLYLINE
  5
2C6
100
AcDbEntity
  8
0
100
AcDbPolyline
 62
7
  6
CONTINUOUS
 90
29
 70
0
 10
0.40649
 20
24.6976462657
 10
0.45255666
 20
24.7601356174
 10
0.5037068019
 20
24.8153807914
 10
0.5599404255
 20
24.8633817876
 10
0.6214891594
 20
24.9045512117
 10
0.6881213751
 20
24.938476458
 10
0.7591421871
 20
24.9639197102
 10
0.8362800167
 20
24.9804157178
 10
0.9178064427
 20
24.9884297312
 10
0.9978413154
 20
24.9881196856
 10
1.0757524158
 20
24.9793082526
 10
1.152171963
 20
24.9621727605
 10
1.2231164651
 20
24.9374031301
 10
1.2874168698
 20
24.9049182148
 10
1.3462422294
 20
24.8647991612
 10
1.399116209
 20
24.8179793303
 10
1.4463117286
 20
24.764645415
 10
1.4875558684
 20
24.7046107225
 10
1.5215535339
 20
24.6382485344
 10
1.5480384403
 20
24.5649271407
 10
1.5672768726
 20
24.4852782515
 10
1.5787725913
 20
24.4015702786
 10
1.5825074153
 20
24.3118528347
 10
1.5784995257
 20
24.2180763071
 10
1.5663072267
 20
24.1283602688
 10
1.54551662
 20
24.0445669283
 10
1.5165416038
 20
23.9648340772
 10
1.4801821778
 20
23.8916946627
 10
1.4355737991
 20
23.8254142346
  0
LWPOLYLINE
  5
2C7
100
AcDbEntity
  8
0
100
AcDbPolyline
 62
7
  6
CONTINUOUS
 90
21
 70
0
 10
1.4355737991
 20
23.8254142346
 10
1.3835810104
 20
23.765727243
 10
1.3275974394
 20
23.7143699856
 10
1.2686693255
 20
23.6719026192
 10
1.2057504294
 20
23.6377649869
 10
1.1390956606
 20
23.6120129154
 10
1.0668233221
 20
23.5946997922
 10
0.9908151109
 20
23.5857722298
 10
0.9169710289
 20
23.5851258923
 10
0.846488308
 20
23.5929937325
 10
0.7781697162
 20
23.6091427976
 10
0.7143235588
 20
23.6327698924
 10
0.6553552661
 20
23.6639666321
 10
0.6008594078
 20
23.7026414016
 10
0.5519279985
 20
23.7477161599
 10
0.5089278946
 20
23.7989501574
 10
0.4714922396
 20
23.8565841438
 10
0.4396124782
 20
23.920262327
 10
0.4132857585
 20
23.9898661097
 10
0.3925149325
 20
24.0655140893
 10
0.3773
 20
24.1472062657
  0
LWPOLYLINE
  5
2C8
100
AcDbEntity
  8
0
100
AcDbPolyline
 62
7
  6
CONTINUOUS
 90
16
 70
0
 10
-33.6159885716
 20
-15.6659437343
 10
-33.6097923796
 20
-15.6602143318
 10
-33.5974700651
 20
-15.6168867617
 10
-33.5852186155
 20
-15.5297397987
 10
-33.5730372354
 20
-15.3992652656
 10
-33.5610636777
 20
-15.2269386308
 10
-33.5493003014
 20
-15.01228482
 10
-33.5377447475
 20
-14.7557789075
 10
-33.5265276917
 20
-14.4603215849
 10
-33.5156529763
 20
-14.1254707043
 10
-33.5051167591
 20
-13.7516684137
 10
-33.4950381886
 20
-13.343141848
 10
-33.4854224596
 20
-12.8994968429
 10
-33.4762643774
 20
-12.4211275627
 10
-33.4676675058
 20
-11.9134436362
 10
-33.4521701355
 20
-10.8094663275
  0
LWPOLYLINE
  5
2C9
100
AcDbEntity
  8
0
100
AcDbPolyline
 62
7
  6
CONTINUOUS
 90
10
 70
0
 10
-20.5157908992
 20
-3.330527537
 10
-20.5749281532
 20
-3.2917276671
 10
-20.6294804738
 20
-3.2452774526
 10
-20.6794478611
 20
-3.1911768934
 10
-20.726281201
 20
-3.1269433687
 10
-20.7685296076
 20
-3.0550594992
 10
-20.8018404233
 20
-2.9829731479
 10
-20.8247627625
 20
-2.9131669357
 10
-20.8387475109
 20
-2.8431582417
 10
-20.8437946685
 20
-2.7729470658
  0
LINE
  5
2CA
100
AcDbEntity
  8
0
100
AcDbLine
 62
7
  6
CONTINUOUS
 10
-10.1
 20
42.6160979591
 11
-10.1
 21
42.1492528521
  0
LINE
  5
2CB
100
AcDbEntity
  8
0
100
AcDbLine
 62
7
  6
CONTINUOUS
 10
-9.45
 20
42.0871316064
 11
-9.45
 21
41.6493290045
  0
LINE
  5
2CC
100
AcDbEntity
  8
0
100
AcDbLine
 62
7
  6
CONTINUOUS
 10
-8.35
 20
44.3890329722
 11
-8.35
 21
43.9489787034
  0
LINE
  5
2CD
100
AcDbEntity
  8
0
100
AcDbLine
 62
7
  6
CONTINUOUS
 10
-7.85
 20
43.8993593917
 11
-7.85
 21
43.4490548558
  0
LINE
  5
2CE
100
AcDbEntity
  8
0
100
AcDbLine
 62
7
  6
CONTINUOUS
 10
-7.5
 20
22.4340562657
 11
-7.5
 21
22.2340562657
  0
LWPOLYLINE
  5
2CF
100
AcDbEntity
  8
RACCORDO
100
AcDbPolyline
 62
7
  6
CONTINUOUS
 90
19
 70
0
 10
-8.35
 20
44.3890329722
 10
-8.3481548083
 20
44.4223911341
 10
-8.3427596077
 20
44.4548185325
 10
-8.334050278
 20
44.4859650612
 10
-8.3221246187
 20
44.5158864983
 10
-8.3073602175
 20
44.5439262957
 10
-8.2907705733
 20
44.5689086046
 10
-8.2731551789
 20
44.5906328129
 10
-8.2548529672
 20
44.6095057262
 10
-8.2364552897
 20
44.6255853205
 10
-8.2183771842
 20
44.6391128032
 10
-8.2009220808
 20
44.6503796653
 10
-8.1844488859
 20
44.6596118471
 10
-8.1693354281
 20
44.6670208347
 10
-8.1555542536
 20
44.6729788275
 10
-8.1427692086
 20
44.6778868418
 10
-8.1308888786
 20
44.6819595195
 10
-8.1200877699
 20
44.6852898617
 10
-8.1103821083
 20
44.6880069203
  0
LWPOLYLINE
  5
2D0
100
AcDbEntity
  8
0
100
AcDbPolyline
 62
7
  6
CONTINUOUS
 90
11
 70
0
 10
11.35
 20
39.8496031532
 10
11.3475107574
 20
39.8454547779
 10
11.3276033677
 20
39.8371653049
 10
11.2878235124
 20
39.8288976521
 10
11.2282409791
 20
39.8206663238
 10
11.1489602958
 20
39.8124857606
 10
11.0501205476
 20
39.8043703138
 10
10.9318951332
 20
39.7963342208
 10
10.7944914599
 20
39.7883915797
 10
10.6381505807
 20
39.7805563244
 10
10.4631467705
 20
39.7728422007
  0
LWPOLYLINE
  5
2D1
100
AcDbEntity
  8
0
100
AcDbPolyline
 62
7
  6
CONTINUOUS
 90
10
 70
0
 10
-19.4988602192
 20
-4.6632242969
 10
-19.4586866128
 20
-4.627151788
 10
-19.4139600481
 20
-4.5944035931
 10
-19.3646805252
 20
-4.5649797124
 10
-19.3104109729
 20
-4.5384726626
 10
-19.2515884624
 20
-4.5152899269
 10
-19.189524207
 20
-4.4966539545
 10
-19.1246552777
 20
-4.4829722284
 10
-19.0565446035
 20
-4.4738372655
 10
-18.9851921845
 20
-4.4692490658
  0
LWPOLYLINE
  5
2D2
100
AcDbEntity
  8
0
100
AcDbPolyline
 62
7
  6
CONTINUOUS
 90
8
 70
0
 10
-19.3057995519
 20
-1.9589098001
 10
-19.3807683489
 20
-2.0049691873
 10
-19.4474527518
 20
-2.058330523
 10
-19.5064658371
 20
-2.1197076397
 10
-19.5578127253
 20
-2.1895523944
 10
-19.6014951231
 20
-2.2680154064
 10
-19.6375113237
 20
-2.3549460565
 10
-19.6658613271
 20
-2.4503443447
  0
LWPOLYLINE
  5
2D3
100
AcDbEntity
  8
0
100
AcDbPolyline
 62
7
  6
CONTINUOUS
 90
19
 70
0
 10
20.4
 20
-44.6659437343
 10
20.4293900351
 20
-44.7070537748
 10
20.4600977877
 20
-44.7455399132
 10
20.4921232579
 20
-44.7814052179
 10
20.5255792049
 20
-44.8145955342
 10
20.5603528695
 20
-44.8452166494
 10
20.5961059739
 20
-44.8734889391
 10
20.6328342688
 20
-44.8994500001
 10
20.6705420035
 20
-44.9230771103
 10
20.7089036477
 20
-44.9444532182
 10
20.7478552581
 20
-44.963570709
 10
20.787460778
 20
-44.9804642204
 10
20.8275865075
 20
-44.9952342456
 10
20.8682763771
 20
-45.0078864423
 10
20.9094864563
 20
-45.0183911449
 10
20.9509512533
 20
-45.026757098
 10
20.9925822707
 20
-45.0329795325
 10
21.0344680058
 20
-45.0370506938
 10
21.0766084587
 20
-45.0389718072
  0
LINE
  5
2D4
100
AcDbEntity
  8
0
100
AcDbLine
 62
7
  6
CONTINUOUS
 10
-4.1
 20
46.0878123061
 11
-4.1
 21
45.7487045546
  0
LINE
  5
2D5
100
AcDbEntity
  8
0
100
AcDbLine
 62
7
  6
CONTINUOUS
 10
-3.6
 20
45.714519181
 11
-3.6
 21
45.2487807071
  0
LWPOLYLINE
  5
2D6
100
AcDbEntity
  8
RACCORDO
100
AcDbPolyline
 62
7
  6
CONTINUOUS
 90
16
 70
0
 10
-4.1
 20
46.0878123061
 10
-4.0978397369
 20
46.1238190855
 10
-4.0914748844
 20
46.1589628406
 10
-4.0811192876
 20
46.1927747428
 10
-4.0667690726
 20
46.2253475812
 10
-4.0488748812
 20
46.255716216
 10
-4.0289142172
 20
46.2822041865
 10
-4.0079453076
 20
46.3046500295
 10
-3.9864304239
 20
46.3235787091
 10
-3.9654430166
 20
46.3389396954
 10
-3.9458453364
 20
46.3510062632
 10
-3.9277515241
 20
46.3604665981
 10
-3.9109780656
 20
46.3679574514
 10
-3.895524904
 20
46.3738730173
 10
-3.8816498909
 20
46.3784482713
 10
-3.8694093559
 20
46.3819544234
  0
LINE
  5
2D7
100
AcDbEntity
  8
0
100
AcDbLine
 62
7
  6
CONTINUOUS
 10
-1.5603169999
 20
25.0729462664
 11
-1.6011039925
 21
24.7518563249
  0
LWPOLYLINE
  5
2D8
100
AcDbEntity
  8
0
100
AcDbPolyline
 62
7
  6
CONTINUOUS
 90
27
 70
0
 10
-1.92037
 20
25.4899462657
 10
-1.9060225318
 20
25.5692239569
 10
-1.8863472053
 20
25.6427241151
 10
-1.8613440205
 20
25.7104467406
 10
-1.8309325585
 20
25.7726803874
 10
-1.7951932382
 20
25.8291365013
 10
-1.7543673161
 20
25.8789494195
 10
-1.7083063656
 20
25.9220229463
 10
-1.6571588134
 20
25.9584532773
 10
-1.6016111955
 20
25.987663336
 10
-1.5407336131
 20
26.0095551397
 10
-1.4754559651
 20
26.0242266711
 10
-1.4092544841
 20
26.0313948024
 10
-1.3414296787
 20
26.0308062235
 10
-1.2726810403
 20
26.0227142445
 10
-1.2085832756
 20
26.0075956673
 10
-1.1507883457
 20
25.9852157272
 10
-1.0976442895
 20
25.955809189
 10
-1.0497699296
 20
25.9205571491
 10
-1.0067255191
 20
25.8791392341
 10
-0.968950805
 20
25.8318758175
 10
-0.9383838515
 20
25.7809091153
 10
-0.9157599206
 20
25.7261155506
 10
-0.9003437503
 20
25.6676187003
 10
-0.8918676192
 20
25.6079315111
 10
-0.8904739457
 20
25.5460729478
 10
-0.8960203115
 20
25.4830240455
  0
LINE
  5
2D9
100
AcDbEntity
  8
0
100
AcDbLine
 62
7
  6
CONTINUOUS
 10
0.34811
 20
26.2822462657
 11
0.06038
 21
24.7476862657
  0
LINE
  5
2DA
100
AcDbEntity
  8
0
100
AcDbLine
 62
7
  6
CONTINUOUS
 10
0.4812889101
 20
25.1266348108
 11
0.640531
 21
25.9319662657
  0
LWPOLYLINE
  5
2DB
100
AcDbEntity
  8
0
100
AcDbPolyline
 62
7
  6
CONTINUOUS
 90
17
 70
0
 10
-0.8960203115
 20
25.4830240455
 10
-0.9078117396
 20
25.4242408562
 10
-0.9255811969
 20
25.3715533228
 10
-0.9495957166
 20
25.3231315025
 10
-0.9799614214
 20
25.2789416181
 10
-1.0177484478
 20
25.238980541
 10
-1.0618866594
 20
25.2032513998
 10
-1.1092717691
 20
25.1717298046
 10
-1.1602064466
 20
25.144340501
 10
-1.2143880223
 20
25.1211587432
 10
-1.2678042004
 20
25.1023859039
 10
-1.3192614873
 20
25.0884517973
 10
-1.3699533767
 20
25.078926609
 10
-1.419448054
 20
25.0727222689
 10
-1.4676015813
 20
25.0694760867
 10
-1.5145578966
 20
25.0695507525
 10
-1.5603169999
 20
25.0729462664
  0
LWPOLYLINE
  5
2DC
100
AcDbEntity
  8
0
100
AcDbPolyline
 62
250
  6
CONTINUOUS
 90
10
 70
0
 10
33.3730280729
 20
25.9106587065
 10
33.3814807923
 20
25.9159177998
 10
33.3899563021
 20
25.9210493283
 10
33.3984546023
 20
25.9260532922
 10
33.4069757393
 20
25.930927692
 10
33.4155196666
 20
25.9356745271
 10
33.4240862451
 20
25.9402997959
 10
33.4326754284
 20
25.9448054976
 10
33.4412872628
 20
25.9491896328
 10
33.4499217485
 20
25.9534522017
  0
LWPOLYLINE
  5
2DD
100
AcDbEntity
  8
0
100
AcDbPolyline
 62
7
  6
CONTINUOUS
 90
14
 70
0
 10
-19.5148910901
 20
-4.2985057041
 10
-19.5970028595
 20
-4.3478089075
 10
-19.6699582215
 20
-4.4023929303
 10
-19.7344229312
 20
-4.463668912
 10
-19.7916842363
 20
-4.5332102376
 10
-19.8430440627
 20
-4.6117786534
 10
-19.8872004845
 20
-4.6986124131
 10
-19.9215349722
 20
-4.7929996624
 10
-19.9459932047
 20
-4.8962511169
 10
-19.960629503
 20
-5.0070560611
 10
-19.9629883001
 20
-5.1207704947
 10
-19.9522510736
 20
-5.2358464178
 10
-19.9292363459
 20
-5.3538318303
 10
-19.8939441169
 20
-5.4747267323
  0
LWPOLYLINE
  5
2DE
100
AcDbEntity
  8
0
100
AcDbPolyline
 62
7
  6
CONTINUOUS
 90
30
 70
0
 10
-18.5737469122
 20
-5.9698739295
 10
-18.4731466365
 20
-5.9132157353
 10
-18.3836096879
 20
-5.8511839349
 10
-18.3051360663
 20
-5.7837785282
 10
-18.2381282216
 20
-5.7114446055
 10
-18.1821837039
 20
-5.6337370766
 10
-18.1360951643
 20
-5.5493206706
 10
-18.0990720664
 20
-5.4573100539
 10
-18.0719049466
 20
-5.3585905601
 10
-18.0557580646
 20
-5.2544829193
 10
-18.0510205617
 20
-5.1418453074
 10
-18.0573032967
 20
-5.0238195484
 10
-18.0746031065
 20
-4.9111518449
 10
-18.1035853242
 20
-4.8067167588
 10
-18.1435846167
 20
-4.7076397281
 10
-18.1926018218
 20
-4.6160432695
 10
-18.2506930447
 20
-4.5321597639
 10
-18.3178021803
 20
-4.4557568305
 10
-18.3917617506
 20
-4.3882598436
 10
-18.4714885478
 20
-4.3298300059
 10
-18.5580657797
 20
-4.2803061148
 10
-18.6525755913
 20
-4.2406299366
 10
-18.757692672
 20
-4.2106940291
 10
-18.8707423325
 20
-4.1906058344
 10
-18.984782649
 20
-4.1816294458
 10
-19.1004234109
 20
-4.1847728317
 10
-19.2170548288
 20
-4.1990280235
 10
-19.3259056118
 20
-4.2226352084
 10
-19.4242886685
 20
-4.2558944598
 10
-19.5148910901
 20
-4.2985057041
  0
LWPOLYLINE
  5
2DF
100
AcDbEntity
  8
0
100
AcDbPolyline
 62
7
  6
CONTINUOUS
 90
33
 70
0
 10
-18.6454738397
 20
-3.7070912577
 10
-18.5390591039
 20
-3.6548757725
 10
-18.4435216648
 20
-3.5967929165
 10
-18.3588615223
 20
-3.5328426898
 10
-18.2855035578
 20
-3.4633828878
 10
-18.2230228899
 20
-3.388055715
 10
-18.1701448747
 20
-3.305787785
 10
-18.1263861349
 20
-3.214745108
 10
-18.0922300477
 20
-3.1167616737
 10
-18.0678521006
 20
-3.0162660657
 10
-18.0540533363
 20
-2.9123036208
 10
-18.050032712
 20
-2.8058290022
 10
-18.0535625871
 20
-2.704134783
 10
-18.0644500339
 20
-2.6093005736
 10
-18.08288798
 20
-2.5192467636
 10
-18.1072275682
 20
-2.4350270948
 10
-18.1375558601
 20
-2.3570846531
 10
-18.173785794
 20
-2.2849763526
 10
-18.2140073279
 20
-2.2184266765
 10
-18.2565403205
 20
-2.1577001853
 10
-18.3030649129
 20
-2.1025323185
 10
-18.3567114869
 20
-2.0518538782
 10
-18.4184624773
 20
-2.0042894715
 10
-18.4873354492
 20
-1.9612144912
 10
-18.5635134795
 20
-1.9256859177
 10
-18.6485269247
 20
-1.898151447
 10
-18.7408454285
 20
-1.8781633832
 10
-18.8360609985
 20
-1.8674356181
 10
-18.9356157291
 20
-1.8663910753
 10
-19.038067526
 20
-1.8746068314
 10
-19.1346821139
 20
-1.8925280084
 10
-19.2231594374
 20
-1.9208661938
 10
-19.3057995519
 20
-1.9589098001
  0
LINE
  5
2E0
100
AcDbEntity
  8
0
100
AcDbLine
 62
7
  6
CONTINUOUS
 10
11.1960930686
 20
-5.2659437343
 11
10.0700680665
 21
-5.2659437343
  0
LINE
  5
2E1
100
AcDbEntity
  8
0
100
AcDbLine
 62
7
  6
CONTINUOUS
 10
-10.0700680665
 20
-5.2659437343
 11
-11.1960930686
 21
-5.2659437343
  0
LINE
  5
2E2
100
AcDbEntity
  8
0
100
AcDbLine
 62
7
  6
CONTINUOUS
 10
-20.793534
 20
-4.2810327343
 11
-21.065387
 21
-4.2810327343
  0
LINE
  5
2E3
100
AcDbEntity
  8
0
100
AcDbLine
 62
7
  6
CONTINUOUS
 10
-19.8939441169
 20
-5.4747267323
 11
-20.793534
 21
-5.4589547343
  0
LINE
  5
2E4
100
AcDbEntity
  8
0
100
AcDbLine
 62
7
  6
CONTINUOUS
 10
-21.065387
 20
-5.7420647343
 11
-19.5275902179
 21
-5.7697467304
  0
LWPOLYLINE
  5
2E5
100
AcDbEntity
  8
0
100
AcDbPolyline
 62
7
  6
CONTINUOUS
 90
16
 70
0
 10
-18.9851921845
 20
-4.4692490658
 10
-18.9087681232
 20
-4.4741743069
 10
-18.836601956
 20
-4.4854532067
 10
-18.7686936828
 20
-4.5030857653
 10
-18.7052620382
 20
-4.5272327779
 10
-18.6460882877
 20
-4.5577334493
 10
-18.5905162277
 20
-4.5941053938
 10
-18.5374565991
 20
-4.6370933591
 10
-18.4879986611
 20
-4.6859525973
 10
-18.4447539869
 20
-4.7379664793
 10
-18.4085706948
 20
-4.7919436127
 10
-18.3786006666
 20
-4.8490753898
 10
-18.3549111207
 20
-4.9102193579
 10
-18.3375244633
 20
-4.9756613661
 10
-18.3264182882
 20
-5.0451155652
 10
-18.3215925954
 20
-5.1185819553
  0
LWPOLYLINE
  5
2E6
100
AcDbEntity
  8
0
100
AcDbPolyline
 62
7
  6
CONTINUOUS
 90
10
 70
0
 10
-18.9096046502
 20
-2.1530638658
 10
-18.8513615281
 20
-2.157365009
 10
-18.7955450288
 20
-2.1658622479
 10
-18.7421551522
 20
-2.1785555825
 10
-18.6906225669
 20
-2.1959121814
 10
-18.6415166044
 20
-2.2174648759
 10
-18.5965452594
 20
-2.2418121608
 10
-18.5562778635
 20
-2.2684868676
 10
-18.5201450851
 20
-2.2979561647
 10
-18.4881469242
 20
-2.3302200521
  0
LWPOLYLINE
  5
2E7
100
AcDbEntity
  8
0
100
AcDbPolyline
 62
250
  6
CONTINUOUS
 90
10
 70
0
 10
21.0766024408
 20
-45.0389718072
 10
21.0818615341
 20
-45.0474245266
 10
21.0869930626
 20
-45.0559000365
 10
21.0919970265
 20
-45.0643983366
 10
21.0968714263
 20
-45.0729194736
 10
21.1016182615
 20
-45.0814634009
 10
21.1062435302
 20
-45.0900299794
 10
21.1107492319
 20
-45.0986191627
 10
21.1151333671
 20
-45.1072309971
 10
21.119395936
 20
-45.1158654828
  0
LINE
  5
2E8
100
AcDbEntity
  8
0
100
AcDbLine
 62
7
  6
CONTINUOUS
 10
-1.1
 20
-15.3620368029
 11
-1.1
 21
-14.2360118008
  0
LINE
  5
2E9
100
AcDbEntity
  8
0
100
AcDbLine
 62
7
  6
CONTINUOUS
 10
-1.1
 20
5.9041243322
 11
-1.1
 21
7.0301493343
  0
LWPOLYLINE
  5
2EA
100
AcDbEntity
  8
0
100
AcDbPolyline
 62
7
  6
CONTINUOUS
 90
19
 70
0
 10
33.0
 20
25.2340562657
 10
33.041110003
 20
25.2634462711
 10
33.0795961106
 20
25.2941539942
 10
33.115461391
 20
25.3261794351
 10
33.1486516896
 20
25.3596353531
 10
33.1792727926
 20
25.3944089887
 10
33.2075450737
 20
25.4301620641
 10
33.233506128
 20
25.4668903274
 10
33.2571332349
 20
25.5045980304
 10
33.2785093464
 20
25.5429596505
 10
33.2976268473
 20
25.5819112461
 10
33.3145203729
 20
25.6215167588
 10
33.3292904156
 20
25.6616424908
 10
33.3419426311
 20
25.7023323713
 10
33.3524473533
 20
25.743542471
 10
33.3608133262
 20
25.7850073048
 10
33.3670357787
 20
25.8266383774
 10
33.3711069533
 20
25.8685241839
 10
33.3730280729
 20
25.9106647244
  0
LWPOLYLINE
  5
2EB
100
AcDbEntity
  8
0
100
AcDbPolyline
 62
7
  6
CONTINUOUS
 90
34
 70
0
 10
-20.3466185187
 20
-1.9444291389
 10
-20.418100646
 20
-1.9476313714
 10
-20.4859921296
 20
-1.9552023496
 10
-20.5502929695
 20
-1.9671420736
 10
-20.6112349449
 20
-1.9837903675
 10
-20.6685862766
 20
-2.004807407
 10
-20.7216516272
 20
-2.0291737198
 10
-20.7701047345
 20
-2.0570218798
 10
-20.8142718606
 20
-2.0882193129
 10
-20.8544364551
 20
-2.1213488244
 10
-20.8900388691
 20
-2.1556542198
 10
-20.9216387515
 20
-2.1918916935
 10
-20.9511984983
 20
-2.2309126341
 10
-20.9794817746
 20
-2.2728386966
 10
-21.0057249154
 20
-2.3175482259
 10
-21.0295993224
 20
-2.3655276453
 10
-21.0513064841
 20
-2.4169953505
 10
-21.0706449119
 20
-2.4717329458
 10
-21.0866815421
 20
-2.5295716671
 10
-21.0993365533
 20
-2.5905927329
 10
-21.1086897668
 20
-2.6547149248
 10
-21.1140475823
 20
-2.7215258234
 10
-21.1159229565
 20
-2.791100798
 10
-21.1138029327
 20
-2.8633644794
 10
-21.105455041
 20
-2.9376783401
 10
-21.0912064273
 20
-3.0147360576
 10
-21.0707299458
 20
-3.0938439545
 10
-21.0408116888
 20
-3.1722824707
 10
-21.000684695
 20
-3.2503750506
 10
-20.9511159258
 20
-3.3277982499
 10
-20.8911923578
 20
-3.4008621754
 10
-20.8206096498
 20
-3.4683368627
 10
-20.739672143
 20
-3.5314522762
 10
-20.6483798375
 20
-3.590208416
  0
LINE
  5
2EC
100
AcDbEntity
  8
0
100
AcDbLine
 62
7
  6
CONTINUOUS
 10
-11.1960930686
 20
-3.0659437343
 11
-10.0700680665
 21
-3.0659437343
  0
LINE
  5
2ED
100
AcDbEntity
  8
0
100
AcDbLine
 62
7
  6
CONTINUOUS
 10
10.0700680665
 20
-3.0659437343
 11
11.1960930686
 21
-3.0659437343
  0
LINE
  5
2EE
100
AcDbEntity
  8
0
100
AcDbLine
 62
7
  6
CONTINUOUS
 10
-19.7875325974
 20
-3.0334127343
 11
-19.5160718602
 21
-3.0334127343
  0
LWPOLYLINE
  5
2EF
100
AcDbEntity
  8
0
100
AcDbPolyline
 62
7
  6
CONTINUOUS
 90
19
 70
0
 10
-20.3383726082
 20
-2.2334287389
 10
-20.2708328301
 20
-2.2367056298
 10
-20.2076249399
 20
-2.2453998741
 10
-20.1487489375
 20
-2.2595114717
 10
-20.0939612788
 20
-2.2791627486
 10
-20.0435055081
 20
-2.3042313788
 10
-19.9981122574
 20
-2.3343503847
 10
-19.9584853538
 20
-2.3695534117
 10
-19.9239209704
 20
-2.4098068145
 10
-19.8930382578
 20
-2.4546426791
 10
-19.8651428691
 20
-2.5041403309
 10
-19.8409291513
 20
-2.5582204445
 10
-19.8210992961
 20
-2.6161771293
 10
-19.8061856291
 20
-2.678164004
 10
-19.7956558246
 20
-2.74402745
 10
-19.7886150977
 20
-2.8126007206
 10
-19.7847651867
 20
-2.8834949005
 10
-19.7844043533
 20
-2.9570989051
 10
-19.7875325974
 20
-3.0334127343
  0
LINE
  5
2F0
100
AcDbEntity
  8
0
100
AcDbLine
 62
7
  6
CONTINUOUS
 10
1.1
 20
7.0301493343
 11
1.1
 21
5.9041243322
  0
LINE
  5
2F1
100
AcDbEntity
  8
0
100
AcDbLine
 62
7
  6
CONTINUOUS
 10
1.1
 20
-14.2360118008
 11
1.1
 21
-15.3620368029
  0
LINE
  5
2F2
100
AcDbEntity
  8
0
100
AcDbLine
 62
7
  6
CONTINUOUS
 10
1.82846
 20
25.9319662657
 11
1.82846
 21
26.2822462657
  0
LINE
  5
2F3
100
AcDbEntity
  8
0
100
AcDbLine
 62
7
  6
CONTINUOUS
 10
3.6
 20
45.714519181
 11
3.6
 21
45.2487807071
  0
LINE
  5
2F4
100
AcDbEntity
  8
0
100
AcDbLine
 62
7
  6
CONTINUOUS
 10
4.1
 20
46.0878123061
 11
4.1
 21
45.7487045546
  0
LWPOLYLINE
  5
2F5
100
AcDbEntity
  8
0
100
AcDbPolyline
 62
7
  6
CONTINUOUS
 90
4
 70
0
 10
-33.2349977679
 20
-33.7396321466
 10
-33.1661339813
 20
-33.6740841271
 10
-33.0864294304
 20
-33.6148479728
 10
-32.9999983446
 20
-33.5659471371
  0
LWPOLYLINE
  5
2F6
100
AcDbEntity
  8
0
100
AcDbPolyline
 62
250
  6
CONTINUOUS
 90
10
 70
0
 10
-21.0766024408
 20
36.7070843386
 10
-21.0818615341
 20
36.715537058
 10
-21.0869930626
 20
36.7240125678
 10
-21.0919970265
 20
36.732510868
 10
-21.0968714263
 20
36.741032005
 10
-21.1016182615
 20
36.7495759323
 10
-21.1062435302
 20
36.7581425108
 10
-21.1107492319
 20
36.7667316941
 10
-21.1151333671
 20
36.7753435285
 10
-21.119395936
 20
36.7839780141
  0
LWPOLYLINE
  5
2F7
100
AcDbEntity
  8
0
100
AcDbPolyline
 62
7
  6
CONTINUOUS
 90
30
 70
0
 10
-2.32486
 20
24.1263562657
 10
-2.3075609938
 20
24.0139230481
 10
-2.2803659352
 20
23.9087824964
 10
-2.2432748244
 20
23.8109346106
 10
-2.1958314346
 20
23.7202445943
 10
-2.1384919926
 20
23.6368472439
 10
-2.0726251781
 20
23.561146948
 10
-1.9980270685
 20
23.4924286294
 10
-1.9149015865
 20
23.4314073654
 10
-1.8252291792
 20
23.3806327765
 10
-1.7294142988
 20
23.3407374138
 10
-1.6270524931
 20
23.3110887261
 10
-1.5189108522
 20
23.2923386809
 10
-1.4015763605
 20
23.2846488379
 10
-1.2784620335
 20
23.2878576374
 10
-1.1605740077
 20
23.3021323669
 10
-1.0511981019
 20
23.3276568956
 10
-0.9470484974
 20
23.3642473543
 10
-0.8492738741
 20
23.4115194228
 10
-0.7569833128
 20
23.4709516395
 10
-0.6710677327
 20
23.5410654661
 10
-0.5953485715
 20
23.6170409671
 10
-0.5308288766
 20
23.6977327566
 10
-0.4765056005
 20
23.7842862205
 10
-0.4331910391
 20
23.8753175811
 10
-0.4014170463
 20
23.9722688126
 10
-0.380651768
 20
24.0736979407
 10
-0.3701119385
 20
24.1738952654
 10
-0.37000754
 20
24.2727095154
 10
-0.3801285901
 20
24.3702919619
  0
LWPOLYLINE
  5
2F8
100
AcDbEntity
  8
0
100
AcDbPolyline
 62
7
  6
CONTINUOUS
 90
31
 70
0
 10
-0.00634
 20
24.1180162657
 10
0.010460814
 20
24.0068427686
 10
0.0365608272
 20
23.9032078098
 10
0.0719600394
 20
23.8071113892
 10
0.1169500197
 20
23.7186056322
 10
0.171239199
 20
23.6376384135
 10
0.233952871
 20
23.5640533568
 10
0.3051679741
 20
23.4971169025
 10
0.3848075698
 20
23.4375626103
 10
0.4717661363
 20
23.3874347822
 10
0.5663297986
 20
23.3471320855
 10
0.6682124316
 20
23.3162558529
 10
0.7754501387
 20
23.2956543845
 10
0.8909818078
 20
23.2855230053
 10
1.0118685508
 20
23.2856663902
 10
1.1273298074
 20
23.2963468635
 10
1.234070097
 20
23.3177551501
 10
1.3353849001
 20
23.349700525
 10
1.4303800978
 20
23.3918731375
 10
1.5186619756
 20
23.4440543772
 10
1.600624248
 20
23.5064628544
 10
1.6765539386
 20
23.5794445499
 10
1.7481634934
 20
23.664491942
 10
1.8137404664
 20
23.7601125524
 10
1.8684345434
 20
23.8621749258
 10
1.9108749053
 20
23.9708273677
 10
1.9424323712
 20
24.0859215727
 10
1.9623690844
 20
24.2028811693
 10
1.9700835153
 20
24.3231320165
 10
1.9661771936
 20
24.4452482553
 10
1.9517168513
 20
24.5603759373
  0
LINE
  5
2F9
100
AcDbEntity
  8
0
100
AcDbLine
 62
7
  6
CONTINUOUS
 10
7.5
 20
22.2340562657
 11
7.5
 21
22.4340562657
  0
LINE
  5
2FA
100
AcDbEntity
  8
0
100
AcDbLine
 62
7
  6
CONTINUOUS
 10
7.85
 20
43.8993593917
 11
7.85
 21
43.4490548558
  0
LWPOLYLINE
  5
2FB
100
AcDbEntity
  8
0
100
AcDbPolyline
 62
7
  6
CONTINUOUS
 90
4
 70
0
 10
33.2355011409
 20
25.4082849983
 10
33.1661338767
 20
25.3421966341
 10
33.086429378
 20
25.2829604933
 10
32.9999983446
 20
25.2340596685
  0
LWPOLYLINE
  5
2FC
100
AcDbEntity
  8
0
100
AcDbPolyline
 62
7
  6
CONTINUOUS
 90
19
 70
0
 10
-33.0
 20
-33.5659437343
 10
-33.0411100405
 20
-33.5953337694
 10
-33.0795961789
 20
-33.626041522
 10
-33.1154614836
 20
-33.6580669922
 10
-33.1486517999
 20
-33.6915229392
 10
-33.1792729151
 20
-33.7262966038
 10
-33.2075452047
 20
-33.7620497082
 10
-33.2335062658
 20
-33.7987780031
 10
-33.257133376
 20
-33.8364857378
 10
-33.2785094839
 20
-33.874847382
 10
-33.2976269747
 20
-33.9137989924
 10
-33.3145204861
 20
-33.9534045123
 10
-33.3292905113
 20
-33.9935302418
 10
-33.341942708
 20
-34.0342201114
 10
-33.3524474106
 20
-34.0754301906
 10
-33.3608133637
 20
-34.1168949876
 10
-33.3670357982
 20
-34.158526005
 10
-33.3711069595
 20
-34.2004117401
 10
-33.3730280729
 20
-34.2425521931
  0
LWPOLYLINE
  5
2FD
100
AcDbEntity
  8
0
100
AcDbPolyline
 62
7
  6
CONTINUOUS
 90
19
 70
0
 10
-20.4
 20
36.3340562657
 10
-20.4293900351
 20
36.3751663062
 10
-20.4600977877
 20
36.4136524445
 10
-20.4921232579
 20
36.4495177493
 10
-20.5255792049
 20
36.4827080656
 10
-20.5603528695
 20
36.5133291808
 10
-20.5961059739
 20
36.5416014704
 10
-20.6328342688
 20
36.5675625315
 10
-20.6705420035
 20
36.5911896417
 10
-20.7089036477
 20
36.6125657496
 10
-20.7478552581
 20
36.6316832404
 10
-20.787460778
 20
36.6485767518
 10
-20.8275865075
 20
36.663346777
 10
-20.8682763771
 20
36.6759989737
 10
-20.9094864563
 20
36.6865036763
 10
-20.9509512533
 20
36.6948696294
 10
-20.9925822707
 20
36.7010920639
 10
-21.0344680058
 20
36.7051632252
 10
-21.0766084587
 20
36.7070843386
  0
LWPOLYLINE
  5
2FE
100
AcDbEntity
  8
0
100
AcDbPolyline
 62
7
  6
CONTINUOUS
 90
19
 70
0
 10
1.9517168513
 20
24.5603759373
 10
1.9269627721
 20
24.6652661099
 10
1.8916546724
 20
24.7631677256
 10
1.8460784328
 20
24.8549736944
 10
1.7890867742
 20
24.9420006878
 10
1.7218269759
 20
25.0229320341
 10
1.6480267555
 20
25.0947106281
 10
1.5684531226
 20
25.1568040733
 10
1.4823390676
 20
25.2097447662
 10
1.3911112804
 20
25.2520727906
 10
1.2936509606
 20
25.2834549956
 10
1.1910769085
 20
25.3042245321
 10
1.0881722143
 20
25.3139209365
 10
0.9862378281
 20
25.3128354562
 10
0.8839727999
 20
25.3006768439
 10
0.78225737
 20
25.2761108937
 10
0.6813849517
 20
25.2386928706
 10
0.5810621318
 20
25.1888675096
 10
0.4812889101
 20
25.1266348108
  0
LWPOLYLINE
  5
2FF
100
AcDbEntity
  8
0
100
AcDbPolyline
 62
7
  6
CONTINUOUS
 90
11
 70
0
 10
-0.3801285901
 20
24.3702919619
 10
-0.3990618756
 20
24.4613867186
 10
-0.4267832429
 20
24.5444428623
 10
-0.4633168454
 20
24.6210113162
 10
-0.50732193
 20
24.6904889643
 10
-0.5583204924
 20
24.7527548804
 10
-0.6167905367
 20
24.8079299908
 10
-0.6828253221
 20
24.8557739573
 10
-0.7564559349
 20
24.8962066674
 10
-0.8376512886
 20
24.9293082337
 10
-0.9264113834
 20
24.9550786562
  0
LINE
  5
300
100
AcDbEntity
  8
0
100
AcDbLine
 62
7
  6
CONTINUOUS
 10
8.35
 20
44.3890329722
 11
8.35
 21
43.9489787034
  0
LINE
  5
301
100
AcDbEntity
  8
0
100
AcDbLine
 62
7
  6
CONTINUOUS
 10
9.45
 20
42.0871316064
 11
9.45
 21
41.6493290045
  0
LINE
  5
302
100
AcDbEntity
  8
0
100
AcDbLine
 62
7
  6
CONTINUOUS
 10
10.1
 20
42.6160979591
 11
10.1
 21
42.1492528521
  0
LINE
  5
303
100
AcDbEntity
  8
0
100
AcDbLine
 62
7
  6
CONTINUOUS
 10
11.35
 20
40.290191574
 11
11.35
 21
39.8496031532
  0
LINE
  5
304
100
AcDbEntity
  8
0
100
AcDbLine
 62
7
  6
CONTINUOUS
 10
11.85
 20
40.7761858505
 11
11.85
 21
40.3495270008
  0
LWPOLYLINE
  5
305
100
AcDbEntity
  8
0
100
AcDbPolyline
 62
250
  6
CONTINUOUS
 90
10
 70
0
 10
-33.3730280729
 20
-34.2425461751
 10
-33.3814807923
 20
-34.2478052684
 10
-33.3899563021
 20
-34.2529367969
 10
-33.3984546023
 20
-34.2579407608
 10
-33.4069757393
 20
-34.2628151606
 10
-33.4155196666
 20
-34.2675619958
 10
-33.4240862451
 20
-34.2721872645
 10
-33.4326754284
 20
-34.2766929662
 10
-33.4412872628
 20
-34.2810771015
 10
-33.4499217485
 20
-34.2853396703
  0
LWPOLYLINE
  5
306
100
AcDbEntity
  8
ASSI
100
AcDbPolyline
 62
7
  6
CONTINUOUS
 90
15
 70
0
 10
33.6159885716
 20
-15.6659437343
 10
33.6097923796
 20
-15.6602143318
 10
33.5974700651
 20
-15.6168867617
 10
33.5852186155
 20
-15.5297397987
 10
33.5730372354
 20
-15.3992652656
 10
33.5610636777
 20
-15.2269386308
 10
33.5493003014
 20
-15.01228482
 10
33.5377447475
 20
-14.7557789075
 10
33.5265276917
 20
-14.4603215849
 10
33.5156529763
 20
-14.1254707043
 10
33.5051167591
 20
-13.7516684137
 10
33.4950381886
 20
-13.343141848
 10
33.4854224596
 20
-12.8994968429
 10
33.4762643774
 20
-12.4211275627
 10
33.4676675058
 20
-11.9134436362
  0
LWPOLYLINE
  5
307
100
AcDbEntity
  8
0
100
AcDbPolyline
 62
7
  6
CONTINUOUS
 90
4
 70
0
 10
-20.5742287326
 20
36.5695574066
 10
-20.5081403684
 20
36.5001901424
 10
-20.4489042276
 20
36.4204856437
 10
-20.4000034028
 20
36.3340546103
  0
LWPOLYLINE
  5
308
100
AcDbEntity
  8
RACCORDO
100
AcDbPolyline
 62
250
  6
CONTINUOUS
 90
14
 70
0
 10
-14.0
 20
38.3724358193
 10
-13.996357841
 20
38.3668628644
 10
-13.9672498017
 20
38.3557331007
 10
-13.9092506655
 20
38.3446610071
 10
-13.8225404487
 20
38.3336562126
 10
-13.7071454262
 20
38.32272199
 10
-13.5630448641
 20
38.3118686415
 10
-13.3905817419
 20
38.3011318553
 10
-13.1904111479
 20
38.2905524958
 10
-12.9632921481
 20
38.280163812
 10
-12.7095536892
 20
38.2699748163
 10
-12.4292999207
 20
38.2599896202
 10
-12.1227039327
 20
38.2502190595
 10
-11.43428343
 20
38.2314519564
  0
LWPOLYLINE
  5
309
100
AcDbEntity
  8
0
100
AcDbPolyline
 62
7
  6
CONTINUOUS
 90
12
 70
0
 10
-11.35
 20
39.8496031532
 10
-11.3475107574
 20
39.8454547779
 10
-11.3276033677
 20
39.8371653049
 10
-11.2878235124
 20
39.8288976521
 10
-11.2282409791
 20
39.8206663238
 10
-11.1489602958
 20
39.8124857606
 10
-11.0501205476
 20
39.8043703138
 10
-10.9318951332
 20
39.7963342208
 10
-10.7944914599
 20
39.7883915797
 10
-10.6381505807
 20
39.7805563244
 10
-10.4631467705
 20
39.7728422007
 10
-10.0584106243
 20
39.7578312447
  0
LINE
  5
30A
100
AcDbEntity
  8
0
100
AcDbLine
 62
7
  6
CONTINUOUS
 10
14.0
 20
38.3724358193
 11
14.0
 21
36.9500448373
  0
LINE
  5
30B
100
AcDbEntity
  8
0
100
AcDbLine
 62
250
  6
CONTINUOUS
 10
14.9
 20
-45.1338066745
 11
14.9000000056
 21
-44.6659437343
  0
LINE
  5
30C
100
AcDbEntity
  8
0
100
AcDbLine
 62
7
  6
CONTINUOUS
 10
-17.4
 20
12.3340562657
 11
-17.6
 21
12.3340562657
  0
LWPOLYLINE
  5
30D
100
AcDbEntity
  8
RACCORDO
100
AcDbPolyline
 62
250
  6
CONTINUOUS
 90
12
 70
0
 10
-11.85
 20
40.7761858505
 10
-11.8464730111
 20
40.7711404085
 10
-11.8193048304
 20
40.761309956
 10
-11.7655043028
 20
40.751532768
 10
-11.6852455955
 20
40.7418195167
 10
-11.5785714618
 20
40.7321753835
 10
-11.4454874903
 20
40.7226114651
 10
-11.2863351633
 20
40.713160819
 10
-11.101747879
 20
40.7038610614
 10
-10.8924631242
 20
40.6947432149
 10
-10.658820166
 20
40.685816669
 10
-10.1190187678
 20
40.6685624214
  0
LWPOLYLINE
  5
30E
100
AcDbEntity
  8
0
100
AcDbPolyline
 62
7
  6
CONTINUOUS
 90
12
 70
0
 10
-9.45
 20
41.6493290045
 10
-9.4475513618
 20
41.6455747786
 10
-9.4279698689
 20
41.638074108
 10
-9.3888474687
 20
41.630596765
 10
-9.3302652484
 20
41.6231582473
 10
-9.2523446286
 20
41.6157739726
 10
-9.1552471117
 20
41.6084592457
 10
-9.039173947
 20
41.6012292277
 10
-8.904365714
 20
41.5940989038
 10
-8.7511018233
 20
41.5870830528
 10
-8.5796999378
 20
41.5801962159
 10
-8.1839400658
 20
41.5668663841
  0
LINE
  5
30F
100
AcDbEntity
  8
0
100
AcDbLine
 62
250
  6
CONTINUOUS
 10
33.4678629402
 20
19.7340562657
 11
33.0
 21
19.7340562713
  0
LWPOLYLINE
  5
310
100
AcDbEntity
  8
0
100
AcDbPolyline
 62
7
  6
CONTINUOUS
 90
13
 70
0
 10
-14.0
 20
36.9500448373
 10
-13.9901779926
 20
36.9409131977
 10
-13.9607939714
 20
36.9317815581
 10
-13.9119709385
 20
36.9226881437
 10
-13.8436274081
 20
36.9136331146
 10
-13.7558448659
 20
36.9046163107
 10
-13.6489907705
 20
36.8956754764
 10
-13.5229851768
 20
36.8868109301
 10
-13.3779080298
 20
36.8780223533
 10
-13.2143666243
 20
36.8693465353
 10
-13.0322835606
 20
36.8607839486
 10
-12.8317362383
 20
36.8523341205
 10
-12.3776934171
 20
36.8358794746
  0
LWPOLYLINE
  5
311
100
AcDbEntity
  8
RACCORDO
100
AcDbPolyline
 62
250
  6
CONTINUOUS
 90
12
 70
0
 10
-10.1
 20
42.6160979591
 10
-10.0966536286
 20
42.6115608199
 10
-10.0710848777
 20
42.6027694227
 10
-10.0202397219
 20
42.5939891565
 10
-9.9441823884
 20
42.5852548778
 10
-9.8432664702
 20
42.576607266
 10
-9.7180201074
 20
42.5680797787
 10
-9.5687083051
 20
42.5596809901
 10
-9.3953886501
 20
42.5514140761
 10
-9.1981314063
 20
42.5432890413
 10
-8.9775814778
 20
42.5353383176
 10
-8.4706347243
 20
42.5200964828
  0
LWPOLYLINE
  5
312
100
AcDbEntity
  8
0
100
AcDbPolyline
 62
7
  6
CONTINUOUS
 90
9
 70
0
 10
-8.35
 20
43.9489787034
 10
-8.3477766773
 20
43.9456569079
 10
-8.3305342227
 20
43.9390339007
 10
-8.295942249
 20
43.9324316049
 10
-8.2441078207
 20
43.9258498928
 10
-8.1753521321
 20
43.9193295482
 10
-8.0895701131
 20
43.9128709521
 10
-7.9868668338
 20
43.9064737236
 10
-7.8678786997
 20
43.9001775033
  0
LINE
  5
313
100
AcDbEntity
  8
0
100
AcDbLine
 62
250
  6
CONTINUOUS
 10
20.1
 20
-45.1338066745
 11
20.1
 21
-44.6659437343
  0
LWPOLYLINE
  5
314
100
AcDbEntity
  8
0
100
AcDbPolyline
 62
7
  6
CONTINUOUS
 90
15
 70
0
 10
-11.5
 20
-45.2819323059
 10
-11.4942705975
 20
-45.2757361139
 10
-11.4509430274
 20
-45.2634137994
 10
-11.3637960644
 20
-45.2511623498
 10
-11.2333215313
 20
-45.2389809697
 10
-11.0609948965
 20
-45.227007412
 10
-10.8463410857
 20
-45.2152440357
 10
-10.5898351732
 20
-45.2036884818
 10
-10.2943778506
 20
-45.192471426
 10
-9.95952697
 20
-45.1815967106
 10
-9.5857246794
 20
-45.1710604934
 10
-9.1771981137
 20
-45.1609819229
 10
-8.7335531086
 20
-45.1513661939
 10
-8.2551838284
 20
-45.1422081117
 10
-7.7474999019
 20
-45.1336112401
  0
LWPOLYLINE
  5
315
100
AcDbEntity
  8
0
100
AcDbPolyline
 62
7
  6
CONTINUOUS
 90
16
 70
0
 10
-1.2224018465
 20
23.6048428776
 10
-1.2973145275
 20
23.5925488341
 10
-1.3753847237
 20
23.5886658996
 10
-1.4497047141
 20
23.5928837863
 10
-1.5184332025
 20
23.6055432862
 10
-1.5834114851
 20
23.6263036071
 10
-1.6432557285
 20
23.6538320843
 10
-1.6974580738
 20
23.6878628272
 10
-1.74652638
 20
23.7286617263
 10
-1.7906003912
 20
23.775693789
 10
-1.8294505313
 20
23.8291998086
 10
-1.8633063764
 20
23.8889389919
 10
-1.8929963986
 20
23.9536539664
 10
-1.9187967553
 20
24.0229256082
 10
-1.9404312891
 20
24.0971730413
 10
-1.9579
 20
24.1763962657
  0
LINE
  5
316
100
AcDbEntity
  8
0
100
AcDbLine
 62
7
  6
CONTINUOUS
 10
-7.5
 20
22.2340562657
 11
7.5
 21
22.2340562657
  0
LINE
  5
317
100
AcDbEntity
  8
0
100
AcDbLine
 62
7
  6
CONTINUOUS
 10
7.5
 20
22.4340562657
 11
-7.5
 21
22.4340562657
  0
LWPOLYLINE
  5
318
100
AcDbEntity
  8
0
100
AcDbPolyline
 62
7
  6
CONTINUOUS
 90
8
 70
0
 10
-11.85
 20
40.3495270008
 10
-11.8403533544
 20
40.3412040997
 10
-11.811506744
 20
40.3328811985
 10
-11.7636001581
 20
40.3245986875
 10
-11.6965409508
 20
40.3163567628
 10
-11.6104217681
 20
40.3081552283
 10
-11.5056605365
 20
40.3000338851
 10
-11.3821666418
 20
40.2919931228
  0
LWPOLYLINE
  5
319
100
AcDbEntity
  8
RACCORDO
100
AcDbPolyline
 62
250
  6
CONTINUOUS
 90
11
 70
0
 10
-8.35
 20
44.3890329722
 10
-8.3470131209
 20
44.3851354953
 10
-8.3238278659
 20
44.3775039482
 10
-8.2776107565
 20
44.3698856846
 10
-8.2084342269
 20
44.362312503
 10
-8.116632992
 20
44.3548210524
 10
-8.0027045495
 20
44.3474419439
 10
-7.8669199024
 20
44.3401847148
 10
-7.7093695919
 20
44.333054204
 10
-7.5301575434
 20
44.3260609096
 10
-7.1096165921
 20
44.3126084665
  0
LINE
  5
31A
100
AcDbEntity
  8
DRAFT
100
AcDbLine
 62
7
  6
CONTINUOUS
 10
26.2242099741
 20
35.6072518739
 11
26.2242099741
 21
31.3340562657
  0
LINE
  5
31B
100
AcDbEntity
  8
DRAFT
100
AcDbLine
 62
7
  6
CONTINUOUS
 10
26.2242099741
 20
-43.9391393425
 11
26.2242099741
 21
-39.6659437343
  0
LINE
  5
31C
100
AcDbEntity
  8
DRAFT
100
AcDbLine
 62
7
  6
CONTINUOUS
 10
26.5
 20
35.3340562657
 11
26.5
 21
31.3340562657
  0
LINE
  5
31D
100
AcDbEntity
  8
DRAFT
100
AcDbLine
 62
7
  6
CONTINUOUS
 10
26.5
 20
-43.6659437343
 11
26.5
 21
-39.6659437343
  0
LWPOLYLINE
  5
31E
100
AcDbEntity
  8
0
100
AcDbPolyline
 62
7
  6
CONTINUOUS
 90
28
 70
0
 10
-1.6011039925
 20
24.7518563249
 10
-1.5212605535
 20
24.7729594895
 10
-1.4427512274
 20
24.786369827
 10
-1.365576014
 20
24.7920873373
 10
-1.288664234
 20
24.7901936836
 10
-1.2130865668
 20
24.7806072027
 10
-1.1420550507
 20
24.7630829056
 10
-1.0763842114
 20
24.737226871
 10
-1.0152595233
 20
24.7034330201
 10
-0.9594494484
 20
24.6626381268
 10
-0.9083206834
 20
24.6143087468
 10
-0.8625065316
 20
24.5589783244
 10
-0.8246753648
 20
24.4991839672
 10
-0.7956185104
 20
24.4355088902
 10
-0.7745446411
 20
24.3673698784
 10
-0.7617481464
 20
24.2955543939
 10
-0.7572568832
 20
24.2178470104
 10
-0.7610429947
 20
24.1364631541
 10
-0.7733173002
 20
24.058836566
 10
-0.7942286002
 20
23.9872357228
 10
-0.8236280943
 20
23.9193921478
 10
-0.861280201
 20
23.8559341519
 10
-0.9084999007
 20
23.7957266199
 10
-0.963972213
 20
23.739904667
 10
-1.0235166159
 20
23.6925019506
 10
-1.0860444606
 20
23.6548657322
 10
-1.1526443959
 20
23.6256487504
 10
-1.2224018465
 20
23.6048428776
  0
LINE
  5
31F
100
AcDbEntity
  8
0
100
AcDbLine
 62
7
  6
CONTINUOUS
 10
-1.9579
 20
24.1763962657
 11
-2.32486
 21
24.1263562657
  0
LINE
  5
320
100
AcDbEntity
  8
0
100
AcDbLine
 62
7
  6
CONTINUOUS
 10
0.3773
 20
24.1472062657
 11
-0.00634
 21
24.1180162657
  0
LINE
  5
321
100
AcDbEntity
  8
0
100
AcDbLine
 62
250
  6
CONTINUOUS
 10
33.4678629402
 20
24.9340562657
 11
33.0
 21
24.9340562657
  0
LINE
  5
322
100
AcDbEntity
  8
0
100
AcDbLine
 62
7
  6
CONTINUOUS
 10
0.640531
 20
25.9319662657
 11
1.82846
 21
25.9319662657
  0
LINE
  5
323
100
AcDbEntity
  8
0
100
AcDbLine
 62
7
  6
CONTINUOUS
 10
1.82846
 20
26.2822462657
 11
0.34811
 21
26.2822462657
  0
LINE
  5
324
100
AcDbEntity
  8
0
100
AcDbLine
 62
7
  6
CONTINUOUS
 10
0.06038
 20
24.7476862657
 11
0.40649
 21
24.6976462657
  0
LINE
  5
325
100
AcDbEntity
  8
0
100
AcDbLine
 62
7
  6
CONTINUOUS
 10
-2.28733
 20
25.5566662657
 11
-1.92037
 21
25.4899462657
  0
LWPOLYLINE
  5
326
100
AcDbEntity
  8
0
100
AcDbPolyline
 62
7
  6
CONTINUOUS
 90
9
 70
0
 10
-10.1
 20
42.1492528521
 10
-10.0903444761
 20
42.141569018
 10
-10.0614874188
 20
42.1338851839
 10
-10.0135930999
 20
42.1262450909
 10
-9.9465529418
 20
42.1186489883
 10
-9.8604755222
 20
42.1110966268
 10
-9.7558508455
 20
42.1036309989
 10
-9.632573129
 20
42.0962525993
 10
-9.4907481555
 20
42.0889609332
  0
LWPOLYLINE
  5
327
100
AcDbEntity
  8
0
100
AcDbPolyline
 62
7
  6
CONTINUOUS
 90
10
 70
0
 10
-4.1
 20
45.7487045546
 10
-4.098380347
 20
45.7467289336
 10
-4.0859964213
 20
45.7427956006
 10
-4.0611159696
 20
45.7388803394
 10
-4.0238515922
 20
45.7349829872
 10
-3.9745410904
 20
45.7311388734
 10
-3.9130749351
 20
45.7273484822
 10
-3.8395626554
 20
45.7236113293
 10
-3.7546706393
 20
45.7199612922
 10
-3.658295417
 20
45.7163991629
  0
LINE
  5
328
100
AcDbEntity
  8
DRAFT
100
AcDbLine
 62
250
  6
CONTINUOUS
 10
28.0
 20
29.8340562657
 11
28.0
 21
29.5582662398
  0
LINE
  5
329
100
AcDbEntity
  8
DRAFT
100
AcDbLine
 62
250
  6
CONTINUOUS
 10
28.0
 20
-38.1659437343
 11
28.0
 21
-37.8901537084
  0
LINE
  5
32A
100
AcDbEntity
  8
RACCORDO
100
AcDbLine
 62
250
  6
CONTINUOUS
 10
28.0
 20
-43.6659437343
 11
28.0
 21
-45.6659437343
  0
LINE
  5
32B
100
AcDbEntity
  8
RACCORDO
100
AcDbLine
 62
250
  6
CONTINUOUS
 10
28.0
 20
35.3340562657
 11
28.0
 21
37.3340562657
  0
LINE
  5
32C
100
AcDbEntity
  8
DRAFT
100
AcDbLine
 62
7
  6
CONTINUOUS
 10
28.0
 20
29.5582662398
 11
32.2731956082
 21
29.5582662398
  0
LINE
  5
32D
100
AcDbEntity
  8
DRAFT
100
AcDbLine
 62
7
  6
CONTINUOUS
 10
-28.0
 20
29.5582662398
 11
-32.2731956082
 21
29.5582662398
  0
LINE
  5
32E
100
AcDbEntity
  8
DRAFT
100
AcDbLine
 62
7
  6
CONTINUOUS
 10
28.0
 20
29.8340562657
 11
32.0
 21
29.8340562657
  0
LINE
  5
32F
100
AcDbEntity
  8
DRAFT
100
AcDbLine
 62
7
  6
CONTINUOUS
 10
-28.0
 20
29.8340562657
 11
-32.0
 21
29.8340562657
  0
LINE
  5
330
100
AcDbEntity
  8
DRAFT
100
AcDbLine
 62
250
  6
CONTINUOUS
 10
-26.5
 20
31.3340562657
 11
-26.2242099741
 21
31.3340562657
  0
LINE
  5
331
100
AcDbEntity
  8
DRAFT
100
AcDbLine
 62
250
  6
CONTINUOUS
 10
26.5
 20
31.3340562657
 11
26.2242099741
 21
31.3340562657
  0
LINE
  5
332
100
AcDbEntity
  8
RACCORDO
100
AcDbLine
 62
250
  6
CONTINUOUS
 10
-32.0
 20
31.3340562657
 11
-34.0
 21
31.3340562657
  0
LINE
  5
333
100
AcDbEntity
  8
RACCORDO
100
AcDbLine
 62
250
  6
CONTINUOUS
 10
32.0
 20
31.3340562657
 11
34.0
 21
31.3340562657
  0
LWPOLYLINE
  5
334
100
AcDbEntity
  8
0
100
AcDbPolyline
 62
7
  6
CONTINUOUS
 90
11
 70
0
 10
-7.85
 20
43.4490548558
 10
-7.8411086126
 20
43.4425360672
 10
-7.8144545922
 20
43.4360320457
 10
-7.7700983188
 20
43.4295575251
 10
-7.7081402735
 20
43.4231271722
 10
-7.6287208113
 20
43.4167555538
 10
-7.5320198429
 20
43.4104571037
 10
-7.4182564269
 20
43.40424609
 10
-7.2876882742
 20
43.3981365826
 10
-7.1406111635
 20
43.3921424214
 10
-6.7982994197
 20
43.3805541605
  0
LWPOLYLINE
  5
335
100
AcDbEntity
  8
ASSI
100
AcDbPolyline
 62
7
  6
CONTINUOUS
 90
15
 70
0
 10
33.6159885716
 20
7.3340562657
 10
33.6221847636
 20
7.3283268632
 10
33.6345070781
 20
7.2849992931
 10
33.6467585277
 20
7.1978523301
 10
33.6589399077
 20
7.067377797
 10
33.6709134655
 20
6.8950511622
 10
33.6826768418
 20
6.6803973514
 10
33.6942323957
 20
6.4238914389
 10
33.7054494515
 20
6.1284341163
 10
33.7163241668
 20
5.7935832357
 10
33.726860384
 20
5.4197809451
 10
33.7369389546
 20
5.0112543794
 10
33.7465546835
 20
4.5676093743
 10
33.7557127658
 20
4.0892400941
 10
33.7643096374
 20
3.5815561676
  0
LWPOLYLINE
  5
336
100
AcDbEntity
  8
RACCORDO
100
AcDbPolyline
 62
250
  6
CONTINUOUS
 90
10
 70
0
 10
-4.1
 20
46.0878123061
 10
-4.0975463148
 20
46.085337128
 10
-4.0808828735
 20
46.0809104369
 10
-4.0486473036
 20
46.0765226755
 10
-4.0010060243
 20
46.0721833778
 10
-3.9380294019
 20
46.067898778
 10
-3.8597739195
 20
46.0636790598
 10
-3.7665740779
 20
46.059547385
 10
-3.6589951647
 20
46.0555288751
 10
-3.4029938098
 20
46.0479014638
  0
LWPOLYLINE
  5
337
100
AcDbEntity
  8
0
100
AcDbPolyline
 62
250
  6
CONTINUOUS
 90
8
 70
0
 10
33.4499217173
 20
18.7146603298
 10
33.4437715575
 20
18.8137892356
 10
33.4253864954
 20
18.911390122
 10
33.3950499268
 20
19.0059585222
 10
33.3532294741
 20
19.0960367137
 10
33.3005697776
 20
19.1802361879
 10
33.2378825589
 20
19.2572590539
 10
33.2245066937
 20
19.2714044767
  0
LWPOLYLINE
  5
338
100
AcDbEntity
  8
0
100
AcDbPolyline
 62
7
  6
CONTINUOUS
 90
19
 70
0
 10
33.3730280729
 20
18.7574478069
 10
33.3711045142
 20
18.7996226213
 10
33.3670280935
 20
18.8415367137
 10
33.3607984597
 20
18.883190084
 10
33.3524243513
 20
18.9246707179
 10
33.3419113565
 20
18.9658906298
 10
33.3292511465
 20
19.0065858625
 10
33.3144740477
 20
19.0467123857
 10
33.2975750386
 20
19.0863142297
 10
33.2784535843
 20
19.1252595275
 10
33.2570754321
 20
19.1636122534
 10
33.2334486437
 20
19.2013084331
 10
33.2074899504
 20
19.2380242773
 10
33.1792223742
 20
19.2737640213
 10
33.1486084654
 20
19.3085234298
 10
33.1154269389
 20
19.3419660079
 10
33.0795716216
 20
19.3739795908
 10
33.0410970064
 20
19.4046763434
 10
33.0
 20
19.4340562657
  0
LINE
  5
339
100
AcDbEntity
  8
0
100
AcDbLine
 62
250
  6
CONTINUOUS
 10
33.458813557
 20
25.8218338004
 11
33.4610709363
 21
25.7353385226
  0
LINE
  5
33A
100
AcDbEntity
  8
0
100
AcDbLine
 62
250
  6
CONTINUOUS
 10
33.4610709363
 20
25.7353385226
 11
33.4630738488
 21
25.6297930806
  0
LINE
  5
33B
100
AcDbEntity
  8
ASSI
100
AcDbLine
 62
7
  6
CONTINUOUS
 10
33.4676675058
 20
-11.9134436362
 11
33.4521701355
 21
-10.8094663275
  0
LINE
  5
33C
100
AcDbEntity
  8
ASSI
100
AcDbLine
 62
7
  6
CONTINUOUS
 10
33.7643096374
 20
3.5815561676
 11
33.7798070077
 21
2.4775788589
  0
LINE
  5
33D
100
AcDbEntity
  8
0
100
AcDbLine
 62
250
  6
CONTINUOUS
 10
33.4630738488
 20
25.6297930806
 11
33.4654910489
 21
25.4424088253
  0
LINE
  5
33E
100
AcDbEntity
  8
ASSI
100
AcDbLine
 62
7
  6
CONTINUOUS
 10
33.4521701355
 20
-10.8094663275
 11
33.4391782948
 21
-9.6071941242
  0
LINE
  5
33F
100
AcDbEntity
  8
ASSI
100
AcDbLine
 62
7
  6
CONTINUOUS
 10
33.7798070077
 20
2.4775788589
 11
33.7927988484
 21
1.2753066556
  0
LINE
  5
340
100
AcDbEntity
  8
ASSI
100
AcDbLine
 62
7
  6
CONTINUOUS
 10
33.4391782948
 20
-9.6071941242
 11
33.4288389017
 21
-8.3202228955
  0
LINE
  5
341
100
AcDbEntity
  8
ASSI
100
AcDbLine
 62
7
  6
CONTINUOUS
 10
33.7927988484
 20
1.2753066556
 11
33.8031382415
 21
-0.0116645732
  0
LINE
  5
342
100
AcDbEntity
  8
0
100
AcDbLine
 62
250
  6
CONTINUOUS
 10
33.4654910489
 20
25.4424088253
 11
33.4670909925
 21
25.230687391
  0
LINE
  5
343
100
AcDbEntity
  8
ASSI
100
AcDbLine
 62
7
  6
CONTINUOUS
 10
33.4288389017
 20
-8.3202228955
 11
33.4213480994
 21
-6.9700197021
  0
LINE
  5
344
100
AcDbEntity
  8
ASSI
100
AcDbLine
 62
7
  6
CONTINUOUS
 10
33.8031382415
 20
-0.0116645732
 11
33.8106290438
 21
-1.3618677665
  0
LINE
  5
345
100
AcDbEntity
  8
ASSI
100
AcDbLine
 62
7
  6
CONTINUOUS
 10
33.4213480994
 20
-6.9700197021
 11
33.4168176477
 21
-5.5826855652
  0
LINE
  5
346
100
AcDbEntity
  8
ASSI
100
AcDbLine
 62
7
  6
CONTINUOUS
 10
33.8106290438
 20
-1.3618677665
 11
33.8151594955
 21
-2.7492019034
  0
LINE
  5
347
100
AcDbEntity
  8
ASSI
100
AcDbLine
 62
7
  6
CONTINUOUS
 10
33.4168176477
 20
-5.5826855652
 11
33.4152858976
 21
-4.1659437343
  0
LINE
  5
348
100
AcDbEntity
  8
0
100
AcDbLine
 62
250
  6
CONTINUOUS
 10
33.4670909925
 20
25.230687391
 11
33.4678629402
 21
24.9340562657
  0
LINE
  5
349
100
AcDbEntity
  8
ASSI
100
AcDbLine
 62
7
  6
CONTINUOUS
 10
33.8151594955
 20
-2.7492019034
 11
33.8166912456
 21
-4.1659437343
  0
LINE
  5
34A
100
AcDbEntity
  8
DRAFT
100
AcDbLine
 62
7
  6
CONTINUOUS
 10
32.0
 20
-38.1659437343
 11
32.0
 21
-39.6659437343
  0
LINE
  5
34B
100
AcDbEntity
  8
DRAFT
100
AcDbLine
 62
7
  6
CONTINUOUS
 10
32.0
 20
29.8340562657
 11
32.0
 21
31.3340562657
  0
LINE
  5
34C
100
AcDbEntity
  8
RACCORDO
100
AcDbLine
 62
250
  6
CONTINUOUS
 10
32.2731956082
 20
-37.8901537084
 11
32.2731956082
 21
29.5582662398
  0
LINE
  5
34D
100
AcDbEntity
  8
RACCORDO
100
AcDbLine
 62
7
  6
CONTINUOUS
 10
32.2757899725
 20
-37.8901537618
 11
32.2757899725
 21
-39.6659437343
  0
LINE
  5
34E
100
AcDbEntity
  8
RACCORDO
100
AcDbLine
 62
7
  6
CONTINUOUS
 10
32.2757899725
 20
29.5582662932
 11
32.2757899725
 21
31.3340562657
  0
LINE
  5
34F
100
AcDbEntity
  8
0
100
AcDbLine
 62
7
  6
CONTINUOUS
 10
33.0
 20
19.4340562657
 11
33.0
 21
25.2340562657
  0
LINE
  5
350
100
AcDbEntity
  8
0
100
AcDbLine
 62
250
  6
CONTINUOUS
 10
33.3730280729
 20
-39.6659437343
 11
33.3730280729
 21
18.7574538207
  0
LINE
  5
351
100
AcDbEntity
  8
0
100
AcDbLine
 62
250
  6
CONTINUOUS
 10
33.3730280729
 20
25.9106587065
 11
33.3730280729
 21
31.3340562657
  0
LINE
  5
352
100
AcDbEntity
  8
ASSI
100
AcDbLine
 62
7
  6
CONTINUOUS
 10
34.0
 20
31.3340562657
 11
34.0
 21
-39.6659437343
  0
LINE
  5
353
100
AcDbEntity
  8
DRAFT
100
AcDbLine
 62
7
  6
CONTINUOUS
 10
34.0
 20
-39.6659437343
 11
34.0
 21
31.3340562657
  0
LINE
  5
354
100
AcDbEntity
  8
ASSI
100
AcDbLine
 62
7
  6
CONTINUOUS
 10
33.4152858976
 20
-4.1659437343
 11
33.4168176477
 21
-2.7492019034
  0
LINE
  5
355
100
AcDbEntity
  8
ASSI
100
AcDbLine
 62
7
  6
CONTINUOUS
 10
33.8166912456
 20
-4.1659437343
 11
33.8151594955
 21
-5.5826855652
  0
LINE
  5
356
100
AcDbEntity
  8
0
100
AcDbLine
 62
250
  6
CONTINUOUS
 10
33.4678629402
 20
24.9340562657
 11
33.4674315388
 21
19.5109342741
  0
LINE
  5
357
100
AcDbEntity
  8
ASSI
100
AcDbLine
 62
7
  6
CONTINUOUS
 10
33.4168176477
 20
-2.7492019034
 11
33.4213480994
 21
-1.3618677665
  0
LINE
  5
358
100
AcDbEntity
  8
ASSI
100
AcDbLine
 62
7
  6
CONTINUOUS
 10
33.8151594955
 20
-5.5826855652
 11
33.8106290438
 21
-6.9700197021
  0
LINE
  5
359
100
AcDbEntity
  8
ASSI
100
AcDbLine
 62
7
  6
CONTINUOUS
 10
33.4213480994
 20
-1.3618677665
 11
33.4288389017
 21
-0.0116645732
  0
LINE
  5
35A
100
AcDbEntity
  8
ASSI
100
AcDbLine
 62
7
  6
CONTINUOUS
 10
33.8106290438
 20
-6.9700197021
 11
33.8031382415
 21
-8.3202228955
  0
LINE
  5
35B
100
AcDbEntity
  8
0
100
AcDbLine
 62
250
  6
CONTINUOUS
 10
33.4674315388
 20
19.5109342741
 11
33.4661208728
 21
19.2940934029
  0
LINE
  5
35C
100
AcDbEntity
  8
ASSI
100
AcDbLine
 62
7
  6
CONTINUOUS
 10
33.4288389017
 20
-0.0116645732
 11
33.4391782948
 21
1.2753066556
  0
LINE
  5
35D
100
AcDbEntity
  8
ASSI
100
AcDbLine
 62
7
  6
CONTINUOUS
 10
33.8031382415
 20
-8.3202228955
 11
33.7927988484
 21
-9.6071941242
  0
LINE
  5
35E
100
AcDbEntity
  8
ASSI
100
AcDbLine
 62
7
  6
CONTINUOUS
 10
33.4391782948
 20
1.2753066556
 11
33.4521701355
 21
2.4775788589
  0
LINE
  5
35F
100
AcDbEntity
  8
ASSI
100
AcDbLine
 62
7
  6
CONTINUOUS
 10
33.7927988484
 20
-9.6071941242
 11
33.7798070077
 21
-10.8094663275
  0
LINE
  5
360
100
AcDbEntity
  8
0
100
AcDbLine
 62
250
  6
CONTINUOUS
 10
33.4661208728
 20
19.2940934029
 11
33.4639634056
 21
19.0971394701
  0
LWPOLYLINE
  5
361
100
AcDbEntity
  8
ASSI
100
AcDbPolyline
 62
7
  6
CONTINUOUS
 90
16
 70
0
 10
33.4521701355
 20
2.4775788589
 10
33.4676675058
 20
3.5815561676
 10
33.4762643774
 20
4.0892400941
 10
33.4854224596
 20
4.5676093743
 10
33.4950381886
 20
5.0112543794
 10
33.5051167591
 20
5.4197809451
 10
33.5156529763
 20
5.7935832357
 10
33.5265276917
 20
6.1284341163
 10
33.5377447475
 20
6.4238914389
 10
33.5493003014
 20
6.6803973514
 10
33.5610636777
 20
6.8950511622
 10
33.5730372354
 20
7.067377797
 10
33.5852186155
 20
7.1978523301
 10
33.5974700651
 20
7.2849992931
 10
33.6097923796
 20
7.3283268632
 10
33.6159885716
 20
7.3340562657
  0
LWPOLYLINE
  5
362
100
AcDbEntity
  8
ASSI
100
AcDbPolyline
 62
7
  6
CONTINUOUS
 90
16
 70
0
 10
33.7798070077
 20
-10.8094663275
 10
33.7643096374
 20
-11.9134436362
 10
33.7557127658
 20
-12.4211275627
 10
33.7465546835
 20
-12.8994968429
 10
33.7369389546
 20
-13.343141848
 10
33.726860384
 20
-13.7516684137
 10
33.7163241668
 20
-14.1254707043
 10
33.7054494515
 20
-14.4603215849
 10
33.6942323957
 20
-14.7557789075
 10
33.6826768418
 20
-15.01228482
 10
33.6709134655
 20
-15.2269386308
 10
33.6589399077
 20
-15.3992652656
 10
33.6467585277
 20
-15.5297397987
 10
33.6345070781
 20
-15.6168867617
 10
33.6221847636
 20
-15.6602143318
 10
33.6159885716
 20
-15.6659437343
  0
LINE
  5
363
100
AcDbEntity
  8
0
100
AcDbLine
 62
250
  6
CONTINUOUS
 10
33.4639634056
 20
19.0971394701
 11
33.462104841
 21
18.9832550266
  0
LWPOLYLINE
  5
364
100
AcDbEntity
  8
0
100
AcDbPolyline
 62
250
  6
CONTINUOUS
 90
10
 70
0
 10
33.462104841
 20
18.9832550266
 10
33.4599746671
 20
18.8872186355
 10
33.4588145443
 20
18.8463110888
 10
33.4576165574
 20
18.8108145098
 10
33.456380145
 20
18.78090016
 10
33.4551058685
 20
18.7563967779
 10
33.4538202393
 20
18.7375014002
 10
33.4525320949
 20
18.7242797057
 10
33.451232598
 20
18.7166660155
 10
33.4499217485
 20
18.7146603297
  0
LWPOLYLINE
  5
365
100
AcDbEntity
  8
0
100
AcDbPolyline
 62
250
  6
CONTINUOUS
 90
7
 70
0
 10
33.4499311715
 20
25.9534522014
 10
33.4437792264
 20
25.8543231444
 10
33.4253924874
 20
25.7567223094
 10
33.3950543711
 20
25.6621541346
 10
33.3532325151
 20
25.572076312
 10
33.3005715695
 20
25.4878773185
 10
33.2355011409
 20
25.4082849983
  0
LWPOLYLINE
  5
366
100
AcDbEntity
  8
0
100
AcDbPolyline
 62
250
  6
CONTINUOUS
 90
10
 70
0
 10
13.880604064
 20
-45.1158654828
 10
13.8848666295
 20
-45.1072310003
 10
13.8892507626
 20
-45.098619168
 10
13.8937564634
 20
-45.090029986
 10
13.8983817332
 20
-45.0814634077
 10
13.9031285707
 20
-45.0729194795
 10
13.9080029721
 20
-45.0643983414
 10
13.9130069359
 20
-45.05590004
 10
13.9181384636
 20
-45.0474245286
 10
13.923397555
 20
-45.0389718072
  0
LINE
  5
367
100
AcDbEntity
  8
DRAFT
100
AcDbLine
 62
7
  6
CONTINUOUS
 10
-28.0
 20
35.3340562657
 11
-26.5
 21
35.3340562657
  0
LINE
  5
368
100
AcDbEntity
  8
DRAFT
100
AcDbLine
 62
7
  6
CONTINUOUS
 10
28.0
 20
35.3340562657
 11
26.5
 21
35.3340562657
  0
LWPOLYLINE
  5
369
100
AcDbEntity
  8
0
100
AcDbPolyline
 62
250
  6
CONTINUOUS
 90
7
 70
0
 10
-21.1193959357
 20
36.7839874371
 10
-21.0202668787
 20
36.7778354921
 10
-20.9226660438
 20
36.7594487531
 10
-20.8280978689
 20
36.7291106368
 10
-20.7380200463
 20
36.6872887808
 10
-20.6538210528
 20
36.6346278352
 10
-20.5742287326
 20
36.5695574066
  0
LWPOLYLINE
  5
36A
100
AcDbEntity
  8
0
100
AcDbPolyline
 62
250
  6
CONTINUOUS
 90
10
 70
0
 10
33.4499217485
 20
18.7146603297
 10
33.441287266
 20
18.7189228951
 10
33.4326754337
 20
18.7233070283
 10
33.4240862517
 20
18.7278127291
 10
33.4155196734
 20
18.7324379989
 10
33.4069757452
 20
18.7371848364
 10
33.3984546071
 20
18.7420592378
 10
33.3899563057
 20
18.7470632016
 10
33.3814807943
 20
18.7521947293
 10
33.3730280729
 20
18.7574538207
  0
LWPOLYLINE
  5
36B
100
AcDbEntity
  8
0
100
AcDbPolyline
 62
7
  6
CONTINUOUS
 90
15
 70
0
 10
11.5
 20
-45.2819323059
 10
11.4942705975
 20
-45.2881284979
 10
11.4509430274
 20
-45.3004508124
 10
11.3637960644
 20
-45.312702262
 10
11.2333215313
 20
-45.3248836421
 10
11.0609948965
 20
-45.3368571998
 10
10.8463410857
 20
-45.3486205761
 10
10.5898351732
 20
-45.36017613
 10
10.2943778506
 20
-45.3713931858
 10
9.95952697
 20
-45.3822679011
 10
9.5857246794
 20
-45.3928041183
 10
9.1771981137
 20
-45.4028826889
 10
8.7335531086
 20
-45.4124984178
 10
8.2551838284
 20
-45.4216565001
 10
7.7474999019
 20
-45.4302533717
  0
LWPOLYLINE
  5
36C
100
AcDbEntity
  8
0
100
AcDbPolyline
 62
250
  6
CONTINUOUS
 90
8
 70
0
 10
-13.8806040641
 20
36.783977983
 10
-13.9797329699
 20
36.7778278232
 10
-14.0773338563
 20
36.7594427611
 10
-14.1719022565
 20
36.7291061925
 10
-14.261980448
 20
36.6872857398
 10
-14.3461799222
 20
36.6346260433
 10
-14.4232027882
 20
36.5719388246
 10
-14.437348211
 20
36.5585629594
  0
LWPOLYLINE
  5
36D
100
AcDbEntity
  8
0
100
AcDbPolyline
 62
7
  6
CONTINUOUS
 90
19
 70
0
 10
-13.9233915413
 20
36.7070843386
 10
-13.9655663556
 20
36.7051607799
 10
-14.007480448
 20
36.7010843592
 10
-14.0491338183
 20
36.6948547254
 10
-14.0906144522
 20
36.686480617
 10
-14.1318343641
 20
36.6759676222
 10
-14.1725295968
 20
36.6633074122
 10
-14.21265612
 20
36.6485303134
 10
-14.252257964
 20
36.6316313043
 10
-14.2912032618
 20
36.61250985
 10
-14.3295559877
 20
36.5911316978
 10
-14.3672521674
 20
36.5675049094
 10
-14.4039680116
 20
36.5415462161
 10
-14.4397077556
 20
36.5132786399
 10
-14.4744671641
 20
36.4826647311
 10
-14.5079097422
 20
36.4494832046
 10
-14.5399233252
 20
36.4136278873
 10
-14.5706200777
 20
36.3751532721
 10
-14.6
 20
36.3340562657
  0
LINE
  5
36E
100
AcDbEntity
  8
0
100
AcDbLine
 62
7
  6
CONTINUOUS
 10
13.0322835606
 20
36.8607839486
 11
12.6135641506
 21
36.8440324222
  0
LWPOLYLINE
  5
36F
100
AcDbEntity
  8
RACCORDO
100
AcDbPolyline
 62
250
  6
CONTINUOUS
 90
13
 70
0
 10
11.771156282
 20
39.231717435
 10
12.0365812922
 20
39.2411738289
 10
12.2768967653
 20
39.2508232986
 10
12.4920019656
 20
39.2606618697
 10
12.6815847278
 20
39.2706809589
 10
12.8449273525
 20
39.2808491235
 10
12.9814102383
 20
39.2911277214
 10
13.0907085205
 20
39.3014829855
 10
13.1728411475
 20
39.3119051309
 10
13.2277828506
 20
39.3223910285
 10
13.2553630748
 20
39.332931549
 10
13.255369705
 20
39.3434924455
 10
13.2306563448
 20
39.3532885524
  0
LWPOLYLINE
  5
370
100
AcDbEntity
  8
RACCORDO
100
AcDbPolyline
 62
250
  6
CONTINUOUS
 90
13
 70
0
 10
12.1225753081
 20
38.2502151739
 10
12.4291754424
 20
38.2599854296
 10
12.7094379726
 20
38.2699704447
 10
12.9631873246
 20
38.2801593269
 10
13.1903171206
 20
38.2905478828
 10
13.3904977378
 20
38.3011270507
 10
13.5629713631
 20
38.3118636286
 10
13.7070837674
 20
38.3227168121
 10
13.8224919306
 20
38.3336509456
 10
13.909215856
 20
38.3446556981
 10
13.967228857
 20
38.355727767
 10
13.996350842
 20
38.3668575131
 10
14.0
 20
38.3724358193
  0
LINE
  5
371
100
AcDbEntity
  8
0
100
AcDbLine
 62
7
  6
CONTINUOUS
 10
12.6135641506
 20
36.8440324222
 11
12.1241979183
 21
36.8278746567
  0
LINE
  5
372
100
AcDbEntity
  8
RACCORDO
100
AcDbLine
 62
250
  6
CONTINUOUS
 10
11.1662929118
 20
39.2134448676
 11
11.771156282
 21
39.231717435
  0
LINE
  5
373
100
AcDbEntity
  8
0
100
AcDbLine
 62
7
  6
CONTINUOUS
 10
12.1241979183
 20
36.8278746567
 11
11.5674465973
 21
36.8124106962
  0
LINE
  5
374
100
AcDbEntity
  8
RACCORDO
100
AcDbLine
 62
250
  6
CONTINUOUS
 10
11.4341531213
 20
38.231448738
 11
12.1225753081
 21
38.2502151739
  0
LINE
  5
375
100
AcDbEntity
  8
0
100
AcDbLine
 62
250
  6
CONTINUOUS
 10
-20.9877775347
 20
36.7928698227
 11
-20.9012822569
 21
36.795127202
  0
LINE
  5
376
100
AcDbEntity
  8
RACCORDO
100
AcDbLine
 62
250
  6
CONTINUOUS
 10
10.4694677519
 20
39.1962303142
 11
11.1662929118
 21
39.2134448676
  0
LINE
  5
377
100
AcDbEntity
  8
0
100
AcDbLine
 62
7
  6
CONTINUOUS
 10
11.5674465973
 20
36.8124106962
 11
10.9456407546
 21
36.7977052732
  0
LINE
  5
378
100
AcDbEntity
  8
RACCORDO
100
AcDbLine
 62
250
  6
CONTINUOUS
 10
10.652699554
 20
38.2138972617
 11
11.4341531213
 21
38.231448738
  0
LINE
  5
379
100
AcDbEntity
  8
0
100
AcDbLine
 62
7
  6
CONTINUOUS
 10
10.9456407546
 20
36.7977052732
 11
10.262529897
 21
36.783853083
  0
LINE
  5
37A
100
AcDbEntity
  8
RACCORDO
100
AcDbLine
 62
250
  6
CONTINUOUS
 10
9.6868413266
 20
39.1802134939
 11
10.4694677519
 21
39.1962303142
  0
LINE
  5
37B
100
AcDbEntity
  8
RACCORDO
100
AcDbLine
 62
250
  6
CONTINUOUS
 10
9.7820795021
 20
38.1976406519
 11
10.652699554
 21
38.2138972617
  0
LINE
  5
37C
100
AcDbEntity
  8
0
100
AcDbLine
 62
250
  6
CONTINUOUS
 10
-20.9012822569
 20
36.795127202
 11
-20.7957368149
 21
36.7971301145
  0
LINE
  5
37D
100
AcDbEntity
  8
0
100
AcDbLine
 62
7
  6
CONTINUOUS
 10
10.262529897
 20
36.783853083
 11
9.5225695601
 21
36.7709389944
  0
LINE
  5
37E
100
AcDbEntity
  8
RACCORDO
100
AcDbLine
 62
250
  6
CONTINUOUS
 10
8.8220033156
 20
39.1654722727
 11
9.6868413266
 21
39.1802134939
  0
LINE
  5
37F
100
AcDbEntity
  8
RACCORDO
100
AcDbLine
 62
250
  6
CONTINUOUS
 10
8.8291589668
 20
38.1828172522
 11
9.7820795021
 21
38.1976406519
  0
LINE
  5
380
100
AcDbEntity
  8
0
100
AcDbLine
 62
7
  6
CONTINUOUS
 10
9.5225695601
 20
36.7709389944
 11
8.728857226
 21
36.7590170661
  0
LINE
  5
381
100
AcDbEntity
  8
RACCORDO
100
AcDbLine
 62
250
  6
CONTINUOUS
 10
7.884756538
 20
39.1521790337
 11
8.8220033156
 21
39.1654722727
  0
LINE
  5
382
100
AcDbEntity
  8
0
100
AcDbLine
 62
7
  6
CONTINUOUS
 10
8.728857226
 20
36.7590170661
 11
7.886255774
 21
36.7481650578
  0
LINE
  5
383
100
AcDbEntity
  8
RACCORDO
100
AcDbLine
 62
250
  6
CONTINUOUS
 10
7.8049487999
 20
38.16959503
 11
8.8291589668
 21
38.1828172522
  0
LINE
  5
384
100
AcDbEntity
  8
RACCORDO
100
AcDbLine
 62
250
  6
CONTINUOUS
 10
6.8831696147
 20
39.1404407958
 11
7.884756538
 21
39.1521790337
  0
LINE
  5
385
100
AcDbEntity
  8
0
100
AcDbLine
 62
250
  6
CONTINUOUS
 10
-20.7957368149
 20
36.7971301145
 11
-20.6083525596
 21
36.7995473146
  0
LINE
  5
386
100
AcDbEntity
  8
0
100
AcDbLine
 62
7
  6
CONTINUOUS
 10
7.886255774
 20
36.7481650578
 11
7.0001911224
 21
36.7384484075
  0
LINE
  5
387
100
AcDbEntity
  8
RACCORDO
100
AcDbLine
 62
250
  6
CONTINUOUS
 10
6.7152307701
 20
38.1580440539
 11
7.8049487999
 21
38.16959503
  0
LINE
  5
388
100
AcDbEntity
  8
RACCORDO
100
AcDbLine
 62
250
  6
CONTINUOUS
 10
5.8227821908
 20
39.1303245628
 11
6.8831696147
 21
39.1404407958
  0
LINE
  5
389
100
AcDbEntity
  8
0
100
AcDbLine
 62
7
  6
CONTINUOUS
 10
7.0001911224
 20
36.7384484075
 11
6.0743723476
 21
36.7299077891
  0
LINE
  5
38A
100
AcDbEntity
  8
RACCORDO
100
AcDbLine
 62
250
  6
CONTINUOUS
 10
5.5687749508
 20
38.1482632431
 11
6.7152307701
 21
38.1580440539
  0
LINE
  5
38B
100
AcDbEntity
  8
0
100
AcDbLine
 62
7
  6
CONTINUOUS
 10
6.0743723476
 20
36.7299077891
 11
5.1145318564
 21
36.7226001278
  0
LINE
  5
38C
100
AcDbEntity
  8
RACCORDO
100
AcDbLine
 62
250
  6
CONTINUOUS
 10
4.7144668222
 20
39.1219384455
 11
5.8227821908
 21
39.1303245628
  0
LINE
  5
38D
100
AcDbEntity
  8
RACCORDO
100
AcDbLine
 62
250
  6
CONTINUOUS
 10
4.3771480375
 20
38.1403512673
 11
5.5687749508
 21
38.1482632431
  0
LINE
  5
38E
100
AcDbEntity
  8
0
100
AcDbLine
 62
250
  6
CONTINUOUS
 10
-20.6083525596
 20
36.7995473146
 11
-20.3966311253
 21
36.8011472582
  0
LINE
  5
38F
100
AcDbEntity
  8
0
100
AcDbLine
 62
7
  6
CONTINUOUS
 10
5.1145318564
 20
36.7226001278
 11
4.1267938716
 21
36.7165681491
  0
LINE
  5
390
100
AcDbEntity
  8
RACCORDO
100
AcDbLine
 62
250
  6
CONTINUOUS
 10
3.5682703527
 20
39.1153537818
 11
4.7144668222
 21
39.1219384455
  0
LINE
  5
391
100
AcDbEntity
  8
0
100
AcDbLine
 62
7
  6
CONTINUOUS
 10
4.1267938716
 20
36.7165681491
 11
3.1152930754
 21
36.7118371029
  0
LINE
  5
392
100
AcDbEntity
  8
RACCORDO
100
AcDbLine
 62
250
  6
CONTINUOUS
 10
3.1513444041
 20
38.1343725765
 11
4.3771480375
 21
38.1403512673
  0
LINE
  5
393
100
AcDbEntity
  8
RACCORDO
100
AcDbLine
 62
250
  6
CONTINUOUS
 10
2.3950962972
 20
39.110622787
 11
3.5682703527
 21
39.1153537818
  0
LINE
  5
394
100
AcDbEntity
  8
0
100
AcDbLine
 62
7
  6
CONTINUOUS
 10
3.1152930754
 20
36.7118371029
 11
2.086343955
 21
36.7084402252
  0
LINE
  5
395
100
AcDbEntity
  8
RACCORDO
100
AcDbLine
 62
250
  6
CONTINUOUS
 10
1.9014262907
 20
38.1303660762
 11
3.1513444041
 21
38.1343725765
  0
LINE
  5
396
100
AcDbEntity
  8
RACCORDO
100
AcDbLine
 62
250
  6
CONTINUOUS
 10
1.2025612621
 20
39.1077696534
 11
2.3950962972
 21
39.110622787
  0
LINE
  5
397
100
AcDbEntity
  8
0
100
AcDbLine
 62
7
  6
CONTINUOUS
 10
2.086343955
 20
36.7084402252
 11
1.0471920276
 21
36.7063961023
  0
LINE
  5
398
100
AcDbEntity
  8
RACCORDO
100
AcDbLine
 62
250
  6
CONTINUOUS
 10
0.6355407745
 20
38.1283539948
 11
1.9014262907
 21
38.1303660762
  0
LINE
  5
399
100
AcDbEntity
  8
0
100
AcDbLine
 62
250
  6
CONTINUOUS
 10
-20.3966311253
 20
36.8011472582
 11
-20.1
 21
36.8019192059
  0
LINE
  5
39A
100
AcDbEntity
  8
0
100
AcDbLine
 62
7
  6
CONTINUOUS
 10
1.0471920276
 20
36.7063961023
 11
-0.0
 21
36.7057111472
  0
LINE
  5
39B
100
AcDbEntity
  8
RACCORDO
100
AcDbLine
 62
250
  6
CONTINUOUS
 10
26.2242099741
 20
35.6072518739
 11
-26.2242099741
 21
35.6072518739
  0
LINE
  5
39C
100
AcDbEntity
  8
RACCORDO
100
AcDbLine
 62
7
  6
CONTINUOUS
 10
-28.0
 20
35.6098462382
 11
-26.2242100275
 21
35.6098462382
  0
LINE
  5
39D
100
AcDbEntity
  8
RACCORDO
100
AcDbLine
 62
7
  6
CONTINUOUS
 10
28.0
 20
35.6098462382
 11
26.2242100275
 21
35.6098462382
  0
LINE
  5
39E
100
AcDbEntity
  8
0
100
AcDbLine
 62
7
  6
CONTINUOUS
 10
-14.6
 20
36.3340562657
 11
-20.4
 21
36.3340562657
  0
LINE
  5
39F
100
AcDbEntity
  8
0
100
AcDbLine
 62
250
  6
CONTINUOUS
 10
28.0
 20
36.7070843386
 11
1.4678073572
 21
36.7070843386
  0
LINE
  5
3A0
100
AcDbEntity
  8
0
100
AcDbLine
 62
250
  6
CONTINUOUS
 10
-1.5675026654
 20
36.7072474661
 11
-13.923397555
 21
36.7070843386
  0
LINE
  5
3A1
100
AcDbEntity
  8
0
100
AcDbLine
 62
250
  6
CONTINUOUS
 10
-21.0766024408
 20
36.7070843386
 11
-28.0
 21
36.7070843386
  0
LINE
  5
3A2
100
AcDbEntity
  8
ASSI
100
AcDbLine
 62
7
  6
CONTINUOUS
 10
-28.0
 20
37.3340562657
 11
-14.0
 21
37.3340562657
  0
LINE
  5
3A3
100
AcDbEntity
  8
DRAFT
100
AcDbLine
 62
7
  6
CONTINUOUS
 10
28.0
 20
37.3340562657
 11
14.0
 21
37.3340562657
  0
LINE
  5
3A4
100
AcDbEntity
  8
ASSI
100
AcDbLine
 62
7
  6
CONTINUOUS
 10
14.0
 20
37.3340562657
 11
28.0
 21
37.3340562657
  0
LINE
  5
3A5
100
AcDbEntity
  8
DRAFT
100
AcDbLine
 62
7
  6
CONTINUOUS
 10
-14.0
 20
37.3340562657
 11
-28.0
 21
37.3340562657
  0
LINE
  5
3A6
100
AcDbEntity
  8
RACCORDO
100
AcDbLine
 62
250
  6
CONTINUOUS
 10
-0.6355415611
 20
38.1283539967
 11
0.6355407745
 21
38.1283539948
  0
LINE
  5
3A7
100
AcDbEntity
  8
RACCORDO
100
AcDbLine
 62
250
  6
CONTINUOUS
 10
-0.6018950709
 20
39.107054588
 11
1.2025612621
 21
39.1077696534
  0
LINE
  5
3A8
100
AcDbEntity
  8
0
100
AcDbLine
 62
7
  6
CONTINUOUS
 10
-1.5675026654
 20
36.7072474661
 11
-0.0
 21
36.7057111472
  0
LINE
  5
3A9
100
AcDbEntity
  8
RACCORDO
100
AcDbLine
 62
250
  6
CONTINUOUS
 10
-1.90142673
 20
38.130366079
 11
-0.6355415611
 21
38.1283539967
  0
LINE
  5
3AA
100
AcDbEntity
  8
RACCORDO
100
AcDbLine
 62
250
  6
CONTINUOUS
 10
-2.3950945575
 20
39.1106227894
 11
-0.6018950709
 21
39.107054588
  0
LINE
  5
3AB
100
AcDbEntity
  8
0
100
AcDbLine
 62
250
  6
CONTINUOUS
 10
-20.1
 20
36.8019192059
 11
-14.6768780084
 21
36.8014878045
  0
LINE
  5
3AC
100
AcDbEntity
  8
0
100
AcDbLine
 62
7
  6
CONTINUOUS
 10
-3.1152930754
 20
36.7118371029
 11
-1.5675026654
 21
36.7072474661
  0
LINE
  5
3AD
100
AcDbEntity
  8
RACCORDO
100
AcDbLine
 62
250
  6
CONTINUOUS
 10
-3.1513397198
 20
38.1343725565
 11
-1.90142673
 21
38.130366079
  0
LINE
  5
3AE
100
AcDbEntity
  8
RACCORDO
100
AcDbLine
 62
250
  6
CONTINUOUS
 10
-3.5682659273
 20
39.1153537429
 11
-2.3950945575
 21
39.1106227894
  0
LINE
  5
3AF
100
AcDbEntity
  8
RACCORDO
100
AcDbLine
 62
250
  6
CONTINUOUS
 10
-4.3771453006
 20
38.1403512496
 11
-3.1513397198
 21
38.1343725565
  0
LINE
  5
3B0
100
AcDbEntity
  8
0
100
AcDbLine
 62
7
  6
CONTINUOUS
 10
-4.6239068674
 20
36.7194223401
 11
-3.1152930754
 21
36.7118371029
  0
LINE
  5
3B1
100
AcDbEntity
  8
RACCORDO
100
AcDbLine
 62
250
  6
CONTINUOUS
 10
-4.7144685924
 20
39.1219384504
 11
-3.5682659273
 21
39.1153537429
  0
LINE
  5
3B2
100
AcDbEntity
  8
RACCORDO
100
AcDbLine
 62
250
  6
CONTINUOUS
 10
-5.5687894167
 20
38.1482633523
 11
-4.3771453006
 21
38.1403512496
  0
LINE
  5
3B3
100
AcDbEntity
  8
0
100
AcDbLine
 62
250
  6
CONTINUOUS
 10
-14.6768780084
 20
36.8014878045
 11
-14.4600371372
 21
36.8001771385
  0
LINE
  5
3B4
100
AcDbEntity
  8
0
100
AcDbLine
 62
7
  6
CONTINUOUS
 10
-6.0743723476
 20
36.7299077891
 11
-4.6239068674
 21
36.7194223401
  0
LINE
  5
3B5
100
AcDbEntity
  8
RACCORDO
100
AcDbLine
 62
250
  6
CONTINUOUS
 10
-5.822821507
 20
39.1303248969
 11
-4.7144685924
 21
39.1219384504
  0
LINE
  5
3B6
100
AcDbEntity
  8
RACCORDO
100
AcDbLine
 62
250
  6
CONTINUOUS
 10
-6.7153058365
 20
38.1580447695
 11
-5.5687894167
 21
38.1482633523
  0
LINE
  5
3B7
100
AcDbEntity
  8
RACCORDO
100
AcDbLine
 62
250
  6
CONTINUOUS
 10
-6.8832639634
 20
39.1404417901
 11
-5.822821507
 21
39.1303248969
  0
LINE
  5
3B8
100
AcDbEntity
  8
0
100
AcDbLine
 62
7
  6
CONTINUOUS
 10
-7.4484490712
 20
36.7431615892
 11
-6.0743723476
 21
36.7299077891
  0
LINE
  5
3B9
100
AcDbEntity
  8
RACCORDO
100
AcDbLine
 62
250
  6
CONTINUOUS
 10
-7.8050560244
 20
38.1695962859
 11
-6.7153058365
 21
38.1580447695
  0
LINE
  5
3BA
100
AcDbEntity
  8
RACCORDO
100
AcDbLine
 62
250
  6
CONTINUOUS
 10
-7.8848581358
 20
39.1521803403
 11
-6.8832639634
 21
39.1404417901
  0
LINE
  5
3BB
100
AcDbEntity
  8
0
100
AcDbLine
 62
250
  6
CONTINUOUS
 10
-14.4600371372
 20
36.8001771385
 11
-14.2630832044
 21
36.7980196713
  0
LINE
  5
3BC
100
AcDbEntity
  8
0
100
AcDbLine
 62
7
  6
CONTINUOUS
 10
-8.728857226
 20
36.7590170661
 11
-7.4484490712
 21
36.7431615892
  0
LINE
  5
3BD
100
AcDbEntity
  8
RACCORDO
100
AcDbLine
 62
250
  6
CONTINUOUS
 10
-8.8292693254
 20
38.1828188168
 11
-7.8050560244
 21
38.1695962859
  0
LINE
  5
3BE
100
AcDbEntity
  8
RACCORDO
100
AcDbLine
 62
250
  6
CONTINUOUS
 10
-8.8221186399
 20
39.165474063
 11
-7.8848581358
 21
39.1521803403
  0
LINE
  5
3BF
100
AcDbEntity
  8
RACCORDO
100
AcDbLine
 62
250
  6
CONTINUOUS
 10
-9.7822143742
 20
38.1976429504
 11
-8.8292693254
 21
38.1828188168
  0
LINE
  5
3C0
100
AcDbEntity
  8
0
100
AcDbLine
 62
7
  6
CONTINUOUS
 10
-9.8994949366
 20
36.7772748281
 11
-8.728857226
 21
36.7590170661
  0
LINE
  5
3C1
100
AcDbEntity
  8
0
100
AcDbLine
 62
250
  6
CONTINUOUS
 10
-14.2630832044
 20
36.7980196713
 11
-14.1491987609
 21
36.7961611067
  0
LINE
  5
3C2
100
AcDbEntity
  8
RACCORDO
100
AcDbLine
 62
250
  6
CONTINUOUS
 10
-9.6869761674
 20
39.1802160088
 11
-8.8221186399
 21
39.165474063
  0
LINE
  5
3C3
100
AcDbEntity
  8
0
100
AcDbLine
 62
7
  6
CONTINUOUS
 10
-10.6117324248
 20
36.7906727471
 11
-9.8994949366
 21
36.7772748281
  0
LINE
  5
3C4
100
AcDbEntity
  8
RACCORDO
100
AcDbLine
 62
250
  6
CONTINUOUS
 10
-10.6528402899
 20
38.2139001416
 11
-9.7822143742
 21
38.1976429504
  0
LINE
  5
3C5
100
AcDbEntity
  8
RACCORDO
100
AcDbLine
 62
250
  6
CONTINUOUS
 10
-10.469595515
 20
39.1962331801
 11
-9.6869761674
 21
39.1802160088
  0
LINE
  5
3C6
100
AcDbEntity
  8
0
100
AcDbLine
 62
7
  6
CONTINUOUS
 10
-11.264190775
 20
36.8049515537
 11
-10.6117324248
 21
36.7906727471
  0
LINE
  5
3C7
100
AcDbEntity
  8
RACCORDO
100
AcDbLine
 62
250
  6
CONTINUOUS
 10
-11.43428343
 20
38.2314519564
 11
-10.6528402899
 21
38.2139001416
  0
LWPOLYLINE
  5
3C8
100
AcDbEntity
  8
0
100
AcDbPolyline
 62
250
  6
CONTINUOUS
 90
10
 70
0
 10
-14.1491987609
 20
36.7961611067
 10
-14.0531623698
 20
36.7940309327
 10
-14.0122548231
 20
36.79287081
 10
-13.9767582441
 20
36.7916728231
 10
-13.9468438943
 20
36.7904364107
 10
-13.9223405122
 20
36.7891621342
 10
-13.9034451345
 20
36.787876505
 10
-13.89022344
 20
36.7865883606
 10
-13.8826097498
 20
36.7852888637
 10
-13.880604064
 20
36.7839780141
  0
LINE
  5
3C9
100
AcDbEntity
  8
RACCORDO
100
AcDbLine
 62
250
  6
CONTINUOUS
 10
-11.1664154588
 20
39.2134482051
 11
-10.469595515
 21
39.1962331801
  0
LINE
  5
3CA
100
AcDbEntity
  8
0
100
AcDbLine
 62
7
  6
CONTINUOUS
 10
-11.8541387892
 20
36.8200514768
 11
-11.264190775
 21
36.8049515537
  0
LINE
  5
3CB
100
AcDbEntity
  8
0
100
AcDbLine
 62
7
  6
CONTINUOUS
 10
-12.3776934171
 20
36.8358794746
 11
-11.8541387892
 21
36.8200514768
  0
LWPOLYLINE
  5
3CC
100
AcDbEntity
  8
0
100
AcDbPolyline
 62
7
  6
CONTINUOUS
 90
10
 70
0
 10
-3.6
 20
45.2487807071
 10
-3.5938615534
 20
45.2451317351
 10
-3.5755693092
 20
45.2414827631
 10
-3.5453079108
 20
45.2378706242
 10
-3.5029561329
 20
45.2342956914
 10
-3.4486352008
 20
45.2307575916
 10
-3.3828934348
 20
45.2272920387
 10
-3.3056151629
 20
45.2238997675
 10
-3.216916057
 20
45.2205800432
 10
-3.0078347488
 20
45.2142598384
  0
LWPOLYLINE
  5
3CD
100
AcDbEntity
  8
0
100
AcDbPolyline
 62
7
  6
CONTINUOUS
 90
4
 70
0
 10
33.2245066937
 20
19.2714044767
 10
33.1661341088
 20
19.3259180442
 10
33.0864303921
 20
19.3851548161
 10
33.0
 20
19.4340562657
  0
LWPOLYLINE
  5
3CE
100
AcDbEntity
  8
0
100
AcDbPolyline
 62
7
  6
CONTINUOUS
 90
4
 70
0
 10
14.437348211
 20
-44.890450428
 10
14.4918617785
 20
-44.8320778431
 10
14.5510985504
 20
-44.7523741264
 10
14.6
 20
-44.6659437343
  0
LINE
  5
3CF
100
AcDbEntity
  8
0
100
AcDbLine
 62
7
  6
CONTINUOUS
 10
-11.3516115151
 20
39.8556311296
 11
-13.2306563404
 21
39.3532885536
  0
LINE
  5
3D0
100
AcDbEntity
  8
0
100
AcDbLine
 62
7
  6
CONTINUOUS
 10
-9.4513417461
 20
41.6543478923
 11
-11.6029477407
 21
41.0791389972
  0
LWPOLYLINE
  5
3D1
100
AcDbEntity
  8
0
100
AcDbPolyline
 62
7
  6
CONTINUOUS
 90
4
 70
0
 10
11.3821666418
 20
40.2919931228
 10
11.2400306983
 20
40.2840325518
 10
11.0799424758
 20
40.2761908037
 10
10.9018147128
 20
40.2684684563
  0
LINE
  5
3D2
100
AcDbEntity
  8
0
100
AcDbLine
 62
7
  6
CONTINUOUS
 10
9.4907481555
 20
42.0889609332
 11
9.3311832784
 21
42.0817975094
  0
LWPOLYLINE
  5
3D3
100
AcDbEntity
  8
RACCORDO
100
AcDbPolyline
 62
250
  6
CONTINUOUS
 90
10
 70
0
 10
9.2047877118
 20
42.5435457161
 10
9.4012943911
 20
42.5516759674
 10
9.5738572425
 20
42.5599476864
 10
9.7224022957
 20
42.5683507352
 10
9.8468688278
 20
42.5768817609
 10
9.9469921523
 20
42.5855320883
 10
10.0222490995
 20
42.5942683335
 10
10.0722906698
 20
42.6030498992
 10
10.0970555488
 20
42.6118419598
 10
10.1
 20
42.6160979591
  0
LWPOLYLINE
  5
3D4
100
AcDbEntity
  8
RACCORDO
100
AcDbPolyline
 62
250
  6
CONTINUOUS
 90
11
 70
0
 10
9.0021417036
 20
42.8348766062
 10
9.1943222636
 20
42.8428278591
 10
9.3630860978
 20
42.8509174733
 10
9.5083608783
 20
42.8591355298
 10
9.6300872405
 20
42.8674787436
 10
9.7280063381
 20
42.8759386275
 10
9.8016065069
 20
42.8844825355
 10
9.8505464158
 20
42.8930707682
 10
9.8747660934
 20
42.9016692681
 10
9.874373019
 20
42.9102688237
 10
9.8566649295
 20
42.9170615052
  0
LWPOLYLINE
  5
3D5
100
AcDbEntity
  8
RACCORDO
100
AcDbPolyline
 62
250
  6
CONTINUOUS
 90
11
 70
0
 10
10.6648530882
 20
40.6860337253
 10
10.8978970479
 20
40.6949649318
 10
11.1065705722
 20
40.7040869415
 10
11.2905347372
 20
40.7133903433
 10
11.4490544915
 20
40.722844115
 10
11.5814991791
 20
40.7324106478
 10
11.6875294499
 20
40.7420568883
 10
11.7671401408
 20
40.751771731
 10
11.8202886307
 20
40.7615499845
 10
11.846801364
 20
40.77138097
 10
11.85
 20
40.7761858505
  0
LWPOLYLINE
  5
3D6
100
AcDbEntity
  8
RACCORDO
100
AcDbPolyline
 62
250
  6
CONTINUOUS
 90
12
 70
0
 10
10.4647369492
 20
40.9774589708
 10
10.6934080422
 20
40.9862225948
 10
10.8981659957
 20
40.9951734396
 10
11.0786782574
 20
41.0043022675
 10
11.2342235575
 20
41.0135786418
 10
11.3641830592
 20
41.0229656631
 10
11.4682237718
 20
41.0324309004
 10
11.5463406365
 20
41.0419634543
 10
11.5984918407
 20
41.0515582288
 10
11.624507089
 20
41.0612047445
 10
11.6241849013
 20
41.0708702338
 10
11.6029478508
 20
41.0791389677
  0
LINE
  5
3D7
100
AcDbEntity
  8
0
100
AcDbLine
 62
7
  6
CONTINUOUS
 10
9.3311832784
 20
42.0817975094
 11
8.9586314566
 21
42.0678568511
  0
LINE
  5
3D8
100
AcDbEntity
  8
0
100
AcDbLine
 62
7
  6
CONTINUOUS
 10
10.4631467705
 20
39.7728422007
 11
10.0584106243
 21
39.7578312447
  0
LINE
  5
3D9
100
AcDbEntity
  8
0
100
AcDbLine
 62
7
  6
CONTINUOUS
 10
10.9018147128
 20
40.2684684563
 11
10.492653904
 21
40.2534171293
  0
LINE
  5
3DA
100
AcDbEntity
  8
RACCORDO
100
AcDbLine
 62
250
  6
CONTINUOUS
 10
8.7428512083
 20
42.5278423438
 11
9.2047877118
 21
42.5435457161
  0
LINE
  5
3DB
100
AcDbEntity
  8
RACCORDO
100
AcDbLine
 62
250
  6
CONTINUOUS
 10
8.5503747886
 20
42.8195189705
 11
9.0021417036
 21
42.8348766062
  0
LINE
  5
3DC
100
AcDbEntity
  8
0
100
AcDbLine
 62
7
  6
CONTINUOUS
 10
7.1406111635
 20
43.3921424214
 11
6.7982994197
 21
43.3805541605
  0
LINE
  5
3DD
100
AcDbEntity
  8
0
100
AcDbLine
 62
7
  6
CONTINUOUS
 10
8.5796999378
 20
41.5801962159
 11
8.1839400658
 21
41.5668663841
  0
LINE
  5
3DE
100
AcDbEntity
  8
RACCORDO
100
AcDbLine
 62
250
  6
CONTINUOUS
 10
10.1262145657
 20
40.6687687658
 11
10.6648530882
 21
40.6860337253
  0
LINE
  5
3DF
100
AcDbEntity
  8
RACCORDO
100
AcDbLine
 62
250
  6
CONTINUOUS
 10
9.9362054581
 20
40.9605179799
 11
10.4647369492
 21
40.9774589708
  0
LINE
  5
3E0
100
AcDbEntity
  8
0
100
AcDbLine
 62
7
  6
CONTINUOUS
 10
10.0584106243
 20
39.7578312447
 11
9.5831219544
 21
39.7434640027
  0
LINE
  5
3E1
100
AcDbEntity
  8
0
100
AcDbLine
 62
7
  6
CONTINUOUS
 10
10.492653904
 20
40.2534171293
 11
10.0153249243
 21
40.2389902044
  0
LINE
  5
3E2
100
AcDbEntity
  8
0
100
AcDbLine
 62
7
  6
CONTINUOUS
 10
8.9586314566
 20
42.0678568511
 11
8.5183578418
 21
42.0545480601
  0
LINE
  5
3E3
100
AcDbEntity
  8
0
100
AcDbLine
 62
7
  6
CONTINUOUS
 10
8.1839400658
 20
41.5668663841
 11
7.7203654889
 21
41.5542198635
  0
LINE
  5
3E4
100
AcDbEntity
  8
RACCORDO
100
AcDbLine
 62
250
  6
CONTINUOUS
 10
8.1951524033
 20
42.5130703934
 11
8.7428512083
 21
42.5278423438
  0
LINE
  5
3E5
100
AcDbEntity
  8
RACCORDO
100
AcDbLine
 62
250
  6
CONTINUOUS
 10
8.0147337126
 20
42.8050722353
 11
8.5503747886
 21
42.8195189705
  0
LINE
  5
3E6
100
AcDbEntity
  8
RACCORDO
100
AcDbLine
 62
250
  6
CONTINUOUS
 10
9.4951200261
 20
40.6524518654
 11
10.1262145657
 21
40.6687687658
  0
LINE
  5
3E7
100
AcDbEntity
  8
RACCORDO
100
AcDbLine
 62
250
  6
CONTINUOUS
 10
9.3169527716
 20
40.9445072695
 11
9.9362054581
 21
40.9605179799
  0
LINE
  5
3E8
100
AcDbEntity
  8
0
100
AcDbLine
 62
7
  6
CONTINUOUS
 10
10.0153249243
 20
40.2389902044
 11
9.4735146301
 21
40.2252909776
  0
LINE
  5
3E9
100
AcDbEntity
  8
0
100
AcDbLine
 62
7
  6
CONTINUOUS
 10
9.5831219544
 20
39.7434640027
 11
9.0406145696
 21
39.7298412506
  0
LINE
  5
3EA
100
AcDbEntity
  8
0
100
AcDbLine
 62
7
  6
CONTINUOUS
 10
8.5183578418
 20
42.0545480601
 11
8.0128687369
 21
42.0419468981
  0
LINE
  5
3EB
100
AcDbEntity
  8
0
100
AcDbLine
 62
7
  6
CONTINUOUS
 10
7.7203654889
 20
41.5542198635
 11
7.1928175323
 21
41.5423614472
  0
LINE
  5
3EC
100
AcDbEntity
  8
RACCORDO
100
AcDbLine
 62
250
  6
CONTINUOUS
 10
7.5647935589
 20
42.4993051094
 11
8.1951524033
 21
42.5130703934
  0
LINE
  5
3ED
100
AcDbEntity
  8
RACCORDO
100
AcDbLine
 62
250
  6
CONTINUOUS
 10
7.3982524043
 20
42.7916099979
 11
8.0147337126
 21
42.8050722353
  0
LINE
  5
3EE
100
AcDbEntity
  8
0
100
AcDbLine
 62
7
  6
CONTINUOUS
 10
9.4735146301
 20
40.2252909776
 11
8.8698523658
 21
40.2123859299
  0
LINE
  5
3EF
100
AcDbEntity
  8
0
100
AcDbLine
 62
7
  6
CONTINUOUS
 10
9.0406145696
 20
39.7298412506
 11
8.4346937692
 21
39.7170585422
  0
LINE
  5
3F0
100
AcDbEntity
  8
RACCORDO
100
AcDbLine
 62
250
  6
CONTINUOUS
 10
8.7801548685
 20
40.6372978293
 11
9.4951200261
 21
40.6524518654
  0
LINE
  5
3F1
100
AcDbEntity
  8
RACCORDO
100
AcDbLine
 62
250
  6
CONTINUOUS
 10
8.6154032894
 20
40.9296375825
 11
9.3169527716
 21
40.9445072695
  0
LINE
  5
3F2
100
AcDbEntity
  8
0
100
AcDbLine
 62
7
  6
CONTINUOUS
 10
8.0128687369
 20
42.0419468981
 11
7.4462714621
 21
42.0301640784
  0
LINE
  5
3F3
100
AcDbEntity
  8
0
100
AcDbLine
 62
7
  6
CONTINUOUS
 10
7.1928175323
 20
41.5423614472
 11
6.6056676242
 21
41.5313893978
  0
LINE
  5
3F4
100
AcDbEntity
  8
0
100
AcDbLine
 62
7
  6
CONTINUOUS
 10
8.8698523658
 20
40.2123859299
 11
8.2085648699
 21
40.2003718538
  0
LINE
  5
3F5
100
AcDbEntity
  8
0
100
AcDbLine
 62
7
  6
CONTINUOUS
 10
8.4346937692
 20
39.7170585422
 11
7.7696096523
 21
39.7052055389
  0
LINE
  5
3F6
100
AcDbEntity
  8
RACCORDO
100
AcDbLine
 62
250
  6
CONTINUOUS
 10
6.8577514401
 20
42.4866895219
 11
7.5647935589
 21
42.4993051094
  0
LINE
  5
3F7
100
AcDbEntity
  8
RACCORDO
100
AcDbLine
 62
250
  6
CONTINUOUS
 10
6.7067760093
 20
42.7792721526
 11
7.3982524043
 21
42.7916099979
  0
LINE
  5
3F8
100
AcDbEntity
  8
RACCORDO
100
AcDbLine
 62
250
  6
CONTINUOUS
 10
7.9847820301
 20
40.6233743557
 11
8.7801548685
 21
40.6372978293
  0
LINE
  5
3F9
100
AcDbEntity
  8
RACCORDO
100
AcDbLine
 62
250
  6
CONTINUOUS
 10
7.8349548859
 20
40.9159753738
 11
8.6154032894
 21
40.9296375825
  0
LINE
  5
3FA
100
AcDbEntity
  8
0
100
AcDbLine
 62
7
  6
CONTINUOUS
 10
7.4462714621
 20
42.0301640784
 11
6.8236305449
 21
42.0192974961
  0
LINE
  5
3FB
100
AcDbEntity
  8
0
100
AcDbLine
 62
7
  6
CONTINUOUS
 10
8.2085648699
 20
40.2003718538
 11
7.4946483119
 21
40.1893336451
  0
LINE
  5
3FC
100
AcDbEntity
  8
0
100
AcDbLine
 62
7
  6
CONTINUOUS
 10
6.6056676242
 20
41.5313893978
 11
5.9637810739
 21
41.5213946331
  0
LINE
  5
3FD
100
AcDbEntity
  8
0
100
AcDbLine
 62
7
  6
CONTINUOUS
 10
7.7696096523
 20
39.7052055389
 11
7.0500273062
 21
39.6943653812
  0
LINE
  5
3FE
100
AcDbEntity
  8
0
100
AcDbLine
 62
7
  6
CONTINUOUS
 10
6.8236305449
 20
42.0192974961
 11
6.148490433
 21
42.0094090102
  0
LINE
  5
3FF
100
AcDbEntity
  8
RACCORDO
100
AcDbLine
 62
250
  6
CONTINUOUS
 10
7.1161615574
 20
40.6108177454
 11
7.9847820301
 21
40.6233743557
  0
LINE
  5
400
100
AcDbEntity
  8
RACCORDO
100
AcDbLine
 62
250
  6
CONTINUOUS
 10
6.9826332462
 20
40.9036543933
 11
7.8349548859
 21
40.9159753738
  0
LINE
  5
401
100
AcDbEntity
  8
RACCORDO
100
AcDbLine
 62
250
  6
CONTINUOUS
 10
6.0801329217
 20
42.4753467343
 11
6.8577514401
 21
42.4866895219
  0
LINE
  5
402
100
AcDbEntity
  8
RACCORDO
100
AcDbLine
 62
250
  6
CONTINUOUS
 10
5.9462768263
 20
42.7681791534
 11
6.7067760093
 21
42.7792721526
  0
LINE
  5
403
100
AcDbEntity
  8
0
100
AcDbLine
 62
7
  6
CONTINUOUS
 10
7.4946483119
 20
40.1893336451
 11
6.7315672488
 21
40.1793248711
  0
LINE
  5
404
100
AcDbEntity
  8
0
100
AcDbLine
 62
7
  6
CONTINUOUS
 10
5.9637810739
 20
41.5213946331
 11
5.2724767553
 21
41.5124599729
  0
LINE
  5
405
100
AcDbEntity
  8
0
100
AcDbLine
 62
7
  6
CONTINUOUS
 10
7.0500273062
 20
39.6943653812
 11
6.2809940839
 21
39.684614105
  0
LINE
  5
406
100
AcDbEntity
  8
0
100
AcDbLine
 62
7
  6
CONTINUOUS
 10
6.148490433
 20
42.0094090102
 11
5.4264603731
 21
42.0005870089
  0
LINE
  5
407
100
AcDbEntity
  8
RACCORDO
100
AcDbLine
 62
250
  6
CONTINUOUS
 10
6.1858012876
 20
40.5997884148
 11
7.1161615574
 21
40.6108177454
  0
LINE
  5
408
100
AcDbEntity
  8
RACCORDO
100
AcDbLine
 62
250
  6
CONTINUOUS
 10
6.0697302609
 20
40.89283206
 11
6.9826332462
 21
40.9036543933
  0
LINE
  5
409
100
AcDbEntity
  8
RACCORDO
100
AcDbLine
 62
250
  6
CONTINUOUS
 10
5.2641949363
 20
42.4656644497
 11
6.0801329217
 21
42.4753467343
  0
LINE
  5
40A
100
AcDbEntity
  8
RACCORDO
100
AcDbLine
 62
250
  6
CONTINUOUS
 10
5.1483019173
 20
42.7587100596
 11
5.9462768263
 21
42.7681791534
  0
LINE
  5
40B
100
AcDbEntity
  8
0
100
AcDbLine
 62
7
  6
CONTINUOUS
 10
6.7315672488
 20
40.1793248711
 11
5.9247528622
 21
40.1704218582
  0
LINE
  5
40C
100
AcDbEntity
  8
0
100
AcDbLine
 62
7
  6
CONTINUOUS
 10
6.2809940839
 20
39.684614105
 11
5.4679042011
 21
39.6760201083
  0
LINE
  5
40D
100
AcDbEntity
  8
0
100
AcDbLine
 62
7
  6
CONTINUOUS
 10
5.2724767553
 20
41.5124599729
 11
4.5374830339
 21
41.5046594526
  0
LINE
  5
40E
100
AcDbEntity
  8
0
100
AcDbLine
 62
7
  6
CONTINUOUS
 10
5.4264603731
 20
42.0005870089
 11
4.663884103
 21
41.9929031748
  0
LINE
  5
40F
100
AcDbEntity
  8
RACCORDO
100
AcDbLine
 62
250
  6
CONTINUOUS
 10
5.2077120957
 20
40.5904162928
 11
6.1858012876
 21
40.5997884148
  0
LINE
  5
410
100
AcDbEntity
  8
RACCORDO
100
AcDbLine
 62
250
  6
CONTINUOUS
 10
5.109994073
 20
40.8836357757
 11
6.0697302609
 21
40.89283206
  0
LINE
  5
411
100
AcDbEntity
  8
0
100
AcDbLine
 62
7
  6
CONTINUOUS
 10
5.9247528622
 20
40.1704218582
 11
5.0802202758
 21
40.1626861681
  0
LINE
  5
412
100
AcDbEntity
  8
0
100
AcDbLine
 62
7
  6
CONTINUOUS
 10
5.4679042011
 20
39.6760201083
 11
4.6164608989
 21
39.668643672
  0
LINE
  5
413
100
AcDbEntity
  8
0
100
AcDbLine
 62
7
  6
CONTINUOUS
 10
4.5374830339
 20
41.5046594526
 11
3.764890299
 21
41.4980577097
  0
LINE
  5
414
100
AcDbEntity
  8
RACCORDO
100
AcDbLine
 62
250
  6
CONTINUOUS
 10
4.0147732843
 20
42.4543530454
 11
5.2641949363
 21
42.4656644497
  0
LINE
  5
415
100
AcDbEntity
  8
RACCORDO
100
AcDbLine
 62
250
  6
CONTINUOUS
 10
3.9263867565
 20
42.7476476431
 11
5.1483019173
 21
42.7587100596
  0
LINE
  5
416
100
AcDbEntity
  8
0
100
AcDbLine
 62
7
  6
CONTINUOUS
 10
4.663884103
 20
41.9929031748
 11
3.8651026669
 21
41.986401249
  0
LINE
  5
417
100
AcDbEntity
  8
0
100
AcDbLine
 62
7
  6
CONTINUOUS
 10
5.0802202758
 20
40.1626861681
 11
4.2020679115
 21
40.1561553414
  0
LINE
  5
418
100
AcDbEntity
  8
RACCORDO
100
AcDbLine
 62
250
  6
CONTINUOUS
 10
4.1967200972
 20
40.5827788221
 11
5.2077120957
 21
40.5904162928
  0
LINE
  5
419
100
AcDbEntity
  8
0
100
AcDbLine
 62
7
  6
CONTINUOUS
 10
4.6164608989
 20
39.668643672
 11
3.7326364405
 21
39.6625365365
  0
LINE
  5
41A
100
AcDbEntity
  8
RACCORDO
100
AcDbLine
 62
250
  6
CONTINUOUS
 10
3.6135634828
 20
40.8730374825
 11
5.109994073
 21
40.8836357757
  0
LINE
  5
41B
100
AcDbEntity
  8
0
100
AcDbLine
 62
7
  6
CONTINUOUS
 10
3.764890299
 20
41.4980577097
 11
2.9611004975
 21
41.4927094485
  0
LINE
  5
41C
100
AcDbEntity
  8
0
100
AcDbLine
 62
7
  6
CONTINUOUS
 10
3.8651026669
 20
41.986401249
 11
3.0368449772
 21
41.9811412708
  0
LINE
  5
41D
100
AcDbEntity
  8
0
100
AcDbLine
 62
7
  6
CONTINUOUS
 10
4.2020679115
 20
40.1561553414
 11
3.2966157537
 21
40.1508808024
  0
LINE
  5
41E
100
AcDbEntity
  8
RACCORDO
100
AcDbLine
 62
250
  6
CONTINUOUS
 10
2.7896690501
 20
42.4466857524
 11
4.0147732843
 21
42.4543530454
  0
LINE
  5
41F
100
AcDbEntity
  8
0
100
AcDbLine
 62
7
  6
CONTINUOUS
 10
3.7326364405
 20
39.6625365365
 11
2.8226302193
 21
39.6577415388
  0
LINE
  5
420
100
AcDbEntity
  8
RACCORDO
100
AcDbLine
 62
250
  6
CONTINUOUS
 10
2.3439069966
 20
42.7383668709
 11
3.9263867565
 21
42.7476476431
  0
LINE
  5
421
100
AcDbEntity
  8
RACCORDO
100
AcDbLine
 62
250
  6
CONTINUOUS
 10
2.6635116582
 20
40.5746667089
 11
4.1967200972
 21
40.5827788221
  0
LINE
  5
422
100
AcDbEntity
  8
0
100
AcDbLine
 62
7
  6
CONTINUOUS
 10
2.9611004975
 20
41.4927094485
 11
2.1327740846
 21
41.4886589862
  0
LINE
  5
423
100
AcDbEntity
  8
0
100
AcDbLine
 62
7
  6
CONTINUOUS
 10
3.0368449772
 20
41.9811412708
 11
2.1863016669
 21
41.9771638256
  0
LINE
  5
424
100
AcDbEntity
  8
0
100
AcDbLine
 62
7
  6
CONTINUOUS
 10
3.2966157537
 20
40.1508808024
 11
2.3705483031
 21
40.1468972012
  0
LINE
  5
425
100
AcDbEntity
  8
RACCORDO
100
AcDbLine
 62
250
  6
CONTINUOUS
 10
2.1384044406
 20
40.8664505194
 11
3.6135634828
 21
40.8730374825
  0
LINE
  5
426
100
AcDbEntity
  8
0
100
AcDbLine
 62
7
  6
CONTINUOUS
 10
2.8226302193
 20
39.6577415388
 11
1.8928252752
 21
39.6542923125
  0
LINE
  5
427
100
AcDbEntity
  8
0
100
AcDbLine
 62
7
  6
CONTINUOUS
 10
2.1327740846
 20
41.4886589862
 11
1.286774834
 21
41.4859398863
  0
LINE
  5
428
100
AcDbEntity
  8
0
100
AcDbLine
 62
7
  6
CONTINUOUS
 10
2.1863016669
 20
41.9771638256
 11
1.3183145414
 21
41.9744915554
  0
LINE
  5
429
100
AcDbEntity
  8
0
100
AcDbLine
 62
7
  6
CONTINUOUS
 10
2.3705483031
 20
40.1468972012
 11
1.428359661
 21
40.1442238697
  0
LINE
  5
42A
100
AcDbEntity
  8
RACCORDO
100
AcDbLine
 62
250
  6
CONTINUOUS
 10
0.9550942614
 20
42.4406185498
 11
2.7896690501
 21
42.4466857524
  0
LINE
  5
42B
100
AcDbEntity
  8
0
100
AcDbLine
 62
7
  6
CONTINUOUS
 10
1.8928252752
 20
39.6542923125
 11
0.9497435218
 21
39.6522130515
  0
LINE
  5
42C
100
AcDbEntity
  8
RACCORDO
100
AcDbLine
 62
250
  6
CONTINUOUS
 10
0.8210144891
 20
40.569871801
 11
2.6635116582
 21
40.5746667089
  0
LINE
  5
42D
100
AcDbEntity
  8
RACCORDO
100
AcDbLine
 62
250
  6
CONTINUOUS
 10
0.6106332244
 20
42.7337725319
 11
2.3439069966
 21
42.7383668709
  0
LINE
  5
42E
100
AcDbEntity
  8
0
100
AcDbLine
 62
7
  6
CONTINUOUS
 10
1.286774834
 20
41.4859398863
 11
0.4301129618
 21
41.48457468
  0
LINE
  5
42F
100
AcDbEntity
  8
0
100
AcDbLine
 62
7
  6
CONTINUOUS
 10
1.428359661
 20
40.1442238697
 11
0.478434187
 21
40.1428859705
  0
LINE
  5
430
100
AcDbEntity
  8
0
100
AcDbLine
 62
7
  6
CONTINUOUS
 10
1.3183145414
 20
41.9744915554
 11
0.4419444835
 21
41.9731539705
  0
LINE
  5
431
100
AcDbEntity
  8
RACCORDO
100
AcDbLine
 62
250
  6
CONTINUOUS
 10
0.3939981935
 20
40.8631055084
 11
2.1384044406
 21
40.8664505194
  0
LINE
  5
432
100
AcDbEntity
  8
0
100
AcDbLine
 62
7
  6
CONTINUOUS
 10
0.9497435218
 20
39.6522130515
 11
-0.0
 21
39.6515183402
  0
LINE
  5
433
100
AcDbEntity
  8
RACCORDO
100
AcDbLine
 62
250
  6
CONTINUOUS
 10
-0.8187066735
 20
40.5698690083
 11
0.8210144891
 21
40.569871801
  0
LINE
  5
434
100
AcDbEntity
  8
0
100
AcDbLine
 62
7
  6
CONTINUOUS
 10
-0.954554074
 20
40.1433885989
 11
0.478434187
 21
40.1428859705
  0
LINE
  5
435
100
AcDbEntity
  8
0
100
AcDbLine
 62
7
  6
CONTINUOUS
 10
-0.8593344488
 20
41.4850870749
 11
0.4301129618
 21
41.48457468
  0
LINE
  5
436
100
AcDbEntity
  8
0
100
AcDbLine
 62
7
  6
CONTINUOUS
 10
-0.881382664
 20
41.9736566399
 11
0.4419444835
 21
41.9731539705
  0
LINE
  5
437
100
AcDbEntity
  8
RACCORDO
100
AcDbLine
 62
250
  6
CONTINUOUS
 10
-0.9523190617
 20
42.4406139561
 11
0.9550942614
 21
42.4406185498
  0
LINE
  5
438
100
AcDbEntity
  8
RACCORDO
100
AcDbLine
 62
250
  6
CONTINUOUS
 10
-1.2307323565
 20
40.8641289166
 11
0.3939981935
 21
40.8631055084
  0
LINE
  5
439
100
AcDbEntity
  8
0
100
AcDbLine
 62
7
  6
CONTINUOUS
 10
-1.422532201
 20
39.6530802981
 11
-0.0
 21
39.6515183402
  0
LINE
  5
43A
100
AcDbEntity
  8
RACCORDO
100
AcDbLine
 62
250
  6
CONTINUOUS
 10
-1.264265682
 20
42.7348607739
 11
0.6106332244
 21
42.7337725319
  0
LINE
  5
43B
100
AcDbEntity
  8
RACCORDO
100
AcDbLine
 62
250
  6
CONTINUOUS
 10
-2.1730567133
 20
40.5728819354
 11
-0.8187066735
 21
40.5698690083
  0
LINE
  5
43C
100
AcDbEntity
  8
0
100
AcDbLine
 62
7
  6
CONTINUOUS
 10
-2.3705483031
 20
40.1468972012
 11
-0.954554074
 21
40.1433885989
  0
LINE
  5
43D
100
AcDbEntity
  8
0
100
AcDbLine
 62
7
  6
CONTINUOUS
 10
-2.1863016669
 20
41.9771638256
 11
-0.881382664
 21
41.9736566399
  0
LINE
  5
43E
100
AcDbEntity
  8
RACCORDO
100
AcDbLine
 62
250
  6
CONTINUOUS
 10
-2.6061432027
 20
40.8681521962
 11
-1.2307323565
 21
40.8641289166
  0
LINE
  5
43F
100
AcDbEntity
  8
0
100
AcDbLine
 62
7
  6
CONTINUOUS
 10
-2.1327740846
 20
41.4886589862
 11
-0.8593344488
 21
41.4850870749
  0
LINE
  5
440
100
AcDbEntity
  8
RACCORDO
100
AcDbLine
 62
250
  6
CONTINUOUS
 10
-2.3895498174
 20
42.4448329843
 11
-0.9523190617
 21
42.4406139561
  0
LINE
  5
441
100
AcDbEntity
  8
0
100
AcDbLine
 62
7
  6
CONTINUOUS
 10
-2.8226302193
 20
39.6577415388
 11
-1.422532201
 21
39.6530802981
  0
LINE
  5
442
100
AcDbEntity
  8
RACCORDO
100
AcDbLine
 62
250
  6
CONTINUOUS
 10
-2.7201318767
 20
42.740108472
 11
-1.264265682
 21
42.7348607739
  0
LINE
  5
443
100
AcDbEntity
  8
RACCORDO
100
AcDbLine
 62
250
  6
CONTINUOUS
 10
-3.6727880715
 20
40.579559011
 11
-2.1730567133
 21
40.5728819354
  0
LINE
  5
444
100
AcDbEntity
  8
0
100
AcDbLine
 62
7
  6
CONTINUOUS
 10
-3.7527460333
 20
40.1533614167
 11
-2.3705483031
 21
40.1468972012
  0
LINE
  5
445
100
AcDbEntity
  8
0
100
AcDbLine
 62
7
  6
CONTINUOUS
 10
-3.4546478764
 20
41.9836164579
 11
-2.1863016669
 21
41.9771638256
  0
LINE
  5
446
100
AcDbEntity
  8
RACCORDO
100
AcDbLine
 62
250
  6
CONTINUOUS
 10
-4.1074134586
 20
40.876071874
 11
-2.6061432027
 21
40.8681521962
  0
LINE
  5
447
100
AcDbEntity
  8
0
100
AcDbLine
 62
7
  6
CONTINUOUS
 10
-3.3664841745
 20
41.4952238759
 11
-2.1327740846
 21
41.4886589862
  0
LINE
  5
448
100
AcDbEntity
  8
RACCORDO
100
AcDbLine
 62
250
  6
CONTINUOUS
 10
-3.5896922551
 20
42.4513375336
 11
-2.3895498174
 21
42.4448329843
  0
LINE
  5
449
100
AcDbEntity
  8
0
100
AcDbLine
 62
7
  6
CONTINUOUS
 10
-4.178213673
 20
39.6654285518
 11
-2.8226302193
 21
39.6577415388
  0
LINE
  5
44A
100
AcDbEntity
  8
RACCORDO
100
AcDbLine
 62
250
  6
CONTINUOUS
 10
-3.9155194825
 20
42.7475655941
 11
-2.7201318767
 21
42.740108472
  0
LINE
  5
44B
100
AcDbEntity
  8
0
100
AcDbLine
 62
7
  6
CONTINUOUS
 10
-5.0802202758
 20
40.1626861681
 11
-3.7527460333
 21
40.1533614167
  0
LINE
  5
44C
100
AcDbEntity
  8
RACCORDO
100
AcDbLine
 62
250
  6
CONTINUOUS
 10
-5.1960031525
 20
40.5903164542
 11
-3.6727880715
 21
40.579559011
  0
LINE
  5
44D
100
AcDbEntity
  8
0
100
AcDbLine
 62
7
  6
CONTINUOUS
 10
-4.663884103
 20
41.9929031748
 11
-3.4546478764
 21
41.9836164579
  0
LINE
  5
44E
100
AcDbEntity
  8
RACCORDO
100
AcDbLine
 62
250
  6
CONTINUOUS
 10
-5.5834214706
 20
40.8879156659
 11
-4.1074134586
 21
40.876071874
  0
LINE
  5
44F
100
AcDbEntity
  8
0
100
AcDbLine
 62
7
  6
CONTINUOUS
 10
-4.5374830339
 20
41.5046594526
 11
-3.3664841745
 21
41.4952238759
  0
LINE
  5
450
100
AcDbEntity
  8
RACCORDO
100
AcDbLine
 62
250
  6
CONTINUOUS
 10
-4.8360399192
 20
42.4613484345
 11
-3.5896922551
 21
42.4513375336
  0
LINE
  5
451
100
AcDbEntity
  8
0
100
AcDbLine
 62
7
  6
CONTINUOUS
 10
-5.4679042011
 20
39.6760201083
 11
-4.178213673
 21
39.6654285518
  0
LINE
  5
452
100
AcDbEntity
  8
RACCORDO
100
AcDbLine
 62
250
  6
CONTINUOUS
 10
-6.1740255665
 20
40.5996628013
 11
-5.1960031525
 21
40.5903164542
  0
LINE
  5
453
100
AcDbEntity
  8
RACCORDO
100
AcDbLine
 62
250
  6
CONTINUOUS
 10
-5.1357743271
 20
42.758576726
 11
-3.9155194825
 21
42.7475655941
  0
LINE
  5
454
100
AcDbEntity
  8
0
100
AcDbLine
 62
7
  6
CONTINUOUS
 10
-6.3336134671
 20
40.1747354796
 11
-5.0802202758
 21
40.1626861681
  0
LINE
  5
455
100
AcDbEntity
  8
RACCORDO
100
AcDbLine
 62
250
  6
CONTINUOUS
 10
-5.6618738181
 20
42.4701294943
 11
-4.8360399192
 21
42.4613484345
  0
LINE
  5
456
100
AcDbEntity
  8
RACCORDO
100
AcDbLine
 62
250
  6
CONTINUOUS
 10
-6.5218896911
 20
40.8979161173
 11
-5.5834214706
 21
40.8879156659
  0
LINE
  5
457
100
AcDbEntity
  8
0
100
AcDbLine
 62
7
  6
CONTINUOUS
 10
-5.7933199795
 20
42.004865078
 11
-4.663884103
 21
41.9929031748
  0
LINE
  5
458
100
AcDbEntity
  8
0
100
AcDbLine
 62
7
  6
CONTINUOUS
 10
-6.6713626135
 20
39.6893491731
 11
-5.4679042011
 21
39.6760201083
  0
LINE
  5
459
100
AcDbEntity
  8
RACCORDO
100
AcDbLine
 62
250
  6
CONTINUOUS
 10
-7.1049987666
 20
40.610671613
 11
-6.1740255665
 21
40.5996628013
  0
LINE
  5
45A
100
AcDbEntity
  8
0
100
AcDbLine
 62
7
  6
CONTINUOUS
 10
-5.6239571696
 20
41.5167899493
 11
-4.5374830339
 21
41.5046594526
  0
LINE
  5
45B
100
AcDbEntity
  8
RACCORDO
100
AcDbLine
 62
250
  6
CONTINUOUS
 10
-5.9337260574
 20
42.7680142632
 11
-5.1357743271
 21
42.758576726
  0
LINE
  5
45C
100
AcDbEntity
  8
0
100
AcDbLine
 62
7
  6
CONTINUOUS
 10
-7.4946483119
 20
40.1893336451
 11
-6.3336134671
 21
40.1747354796
  0
LINE
  5
45D
100
AcDbEntity
  8
RACCORDO
100
AcDbLine
 62
250
  6
CONTINUOUS
 10
-7.4062984516
 20
40.9094804216
 11
-6.5218896911
 21
40.8979161173
  0
LINE
  5
45E
100
AcDbEntity
  8
RACCORDO
100
AcDbLine
 62
250
  6
CONTINUOUS
 10
-6.4644452065
 20
42.4806635242
 11
-5.6618738181
 21
42.4701294943
  0
LINE
  5
45F
100
AcDbEntity
  8
RACCORDO
100
AcDbLine
 62
250
  6
CONTINUOUS
 10
-7.9744815291
 20
40.6232106121
 11
-7.1049987666
 21
40.610671613
  0
LINE
  5
460
100
AcDbEntity
  8
0
100
AcDbLine
 62
7
  6
CONTINUOUS
 10
-6.8236305449
 20
42.0192974961
 11
-5.7933199795
 21
42.004865078
  0
LINE
  5
461
100
AcDbEntity
  8
RACCORDO
100
AcDbLine
 62
250
  6
CONTINUOUS
 10
-6.6950753381
 20
42.7790835785
 11
-5.9337260574
 21
42.7680142632
  0
LINE
  5
462
100
AcDbEntity
  8
0
100
AcDbLine
 62
7
  6
CONTINUOUS
 10
-7.7696096523
 20
39.7052055389
 11
-6.6713626135
 21
39.6893491731
  0
LINE
  5
463
100
AcDbEntity
  8
0
100
AcDbLine
 62
7
  6
CONTINUOUS
 10
-6.6056676242
 20
41.5313893978
 11
-5.6239571696
 21
41.5167899493
  0
LINE
  5
464
100
AcDbEntity
  8
RACCORDO
100
AcDbLine
 62
250
  6
CONTINUOUS
 10
-8.2252941211
 20
40.9224837688
 11
-7.4062984516
 21
40.9094804216
  0
LINE
  5
465
100
AcDbEntity
  8
RACCORDO
100
AcDbLine
 62
250
  6
CONTINUOUS
 10
-7.2087341295
 20
42.4926363366
 11
-6.4644452065
 21
42.4806635242
  0
LINE
  5
466
100
AcDbEntity
  8
0
100
AcDbLine
 62
7
  6
CONTINUOUS
 10
-8.5463943079
 20
40.2062677904
 11
-7.4946483119
 21
40.1893336451
  0
LINE
  5
467
100
AcDbEntity
  8
RACCORDO
100
AcDbLine
 62
250
  6
CONTINUOUS
 10
-8.7708239457
 20
40.6371183715
 11
-7.9744815291
 21
40.6232106121
  0
LINE
  5
468
100
AcDbEntity
  8
0
100
AcDbLine
 62
7
  6
CONTINUOUS
 10
-8.4346937692
 20
39.7170585422
 11
-7.7696096523
 21
39.7052055389
  0
LINE
  5
469
100
AcDbEntity
  8
RACCORDO
100
AcDbLine
 62
250
  6
CONTINUOUS
 10
-7.387730049
 20
42.7914027264
 11
-6.6950753381
 21
42.7790835785
  0
LINE
  5
46A
100
AcDbEntity
  8
0
100
AcDbLine
 62
7
  6
CONTINUOUS
 10
-7.1928175323
 20
41.5423614472
 11
-6.6056676242
 21
41.5313893978
  0
LINE
  5
46B
100
AcDbEntity
  8
0
100
AcDbLine
 62
7
  6
CONTINUOUS
 10
-7.7371868999
 20
42.0359534863
 11
-6.8236305449
 21
42.0192974961
  0
LINE
  5
46C
100
AcDbEntity
  8
RACCORDO
100
AcDbLine
 62
250
  6
CONTINUOUS
 10
-8.9674813069
 20
40.9367405317
 11
-8.2252941211
 21
40.9224837688
  0
LINE
  5
46D
100
AcDbEntity
  8
0
100
AcDbLine
 62
7
  6
CONTINUOUS
 10
-9.178869188
 20
40.2187273524
 11
-8.5463943079
 21
40.2062677904
  0
LINE
  5
46E
100
AcDbEntity
  8
RACCORDO
100
AcDbLine
 62
250
  6
CONTINUOUS
 10
-7.8800752384
 20
42.5058374001
 11
-7.2087341295
 21
42.4926363366
  0
LINE
  5
46F
100
AcDbEntity
  8
0
100
AcDbLine
 62
7
  6
CONTINUOUS
 10
-9.0406145696
 20
39.7298412506
 11
-8.4346937692
 21
39.7170585422
  0
LINE
  5
470
100
AcDbEntity
  8
RACCORDO
100
AcDbLine
 62
250
  6
CONTINUOUS
 10
-9.4868181336
 20
40.652258058
 11
-8.7708239457
 21
40.6371183715
  0
LINE
  5
471
100
AcDbEntity
  8
RACCORDO
100
AcDbLine
 62
250
  6
CONTINUOUS
 10
-8.0054823004
 20
42.8048484536
 11
-7.387730049
 21
42.7914027264
  0
LINE
  5
472
100
AcDbEntity
  8
0
100
AcDbLine
 62
7
  6
CONTINUOUS
 10
-7.7203654889
 20
41.5542198635
 11
-7.1928175323
 21
41.5423614472
  0
LINE
  5
473
100
AcDbEntity
  8
0
100
AcDbLine
 62
7
  6
CONTINUOUS
 10
-8.2732300897
 20
42.0481454772
 11
-7.7371868999
 21
42.0359534863
  0
LINE
  5
474
100
AcDbEntity
  8
0
100
AcDbLine
 62
7
  6
CONTINUOUS
 10
-9.7523588108
 20
40.2320449532
 11
-9.178869188
 21
40.2187273524
  0
LINE
  5
475
100
AcDbEntity
  8
RACCORDO
100
AcDbLine
 62
250
  6
CONTINUOUS
 10
-9.6297565967
 20
40.9521839713
 11
-8.9674813069
 21
40.9367405317
  0
LINE
  5
476
100
AcDbEntity
  8
RACCORDO
100
AcDbLine
 62
250
  6
CONTINUOUS
 10
-8.4706347243
 20
42.5200964828
 11
-7.8800752384
 21
42.5058374001
  0
LINE
  5
477
100
AcDbEntity
  8
0
100
AcDbLine
 62
7
  6
CONTINUOUS
 10
-9.5831219544
 20
39.7434640027
 11
-9.0406145696
 21
39.7298412506
  0
LINE
  5
478
100
AcDbEntity
  8
RACCORDO
100
AcDbLine
 62
250
  6
CONTINUOUS
 10
-10.1190187678
 20
40.6685624214
 11
-9.4868181336
 21
40.652258058
  0
LINE
  5
479
100
AcDbEntity
  8
RACCORDO
100
AcDbLine
 62
250
  6
CONTINUOUS
 10
-8.5424391979
 20
42.8192799533
 11
-8.0054823004
 21
42.8048484536
  0
LINE
  5
47A
100
AcDbEntity
  8
0
100
AcDbLine
 62
7
  6
CONTINUOUS
 10
-8.1839400658
 20
41.5668663841
 11
-7.7203654889
 21
41.5542198635
  0
LINE
  5
47B
100
AcDbEntity
  8
0
100
AcDbLine
 62
7
  6
CONTINUOUS
 10
-8.7468565782
 20
42.0611181996
 11
-8.2732300897
 21
42.0481454772
  0
LINE
  5
47C
100
AcDbEntity
  8
0
100
AcDbLine
 62
7
  6
CONTINUOUS
 10
-10.2624897764
 20
40.2461258058
 11
-9.7523588108
 21
40.2320449532
  0
LINE
  5
47D
100
AcDbEntity
  8
0
100
AcDbLine
 62
7
  6
CONTINUOUS
 10
-10.0584106243
 20
39.7578312447
 11
-9.5831219544
 21
39.7434640027
  0
LWPOLYLINE
  5
47E
100
AcDbEntity
  8
0
100
AcDbPolyline
 62
7
  6
CONTINUOUS
 90
4
 70
0
 10
-9.4907481555
 20
42.0889609332
 10
-9.3311832784
 20
42.0817975094
 10
-9.1537773193
 20
42.0747630592
 10
-8.7468565782
 20
42.0611181996
  0
LWPOLYLINE
  5
47F
100
AcDbEntity
  8
0
100
AcDbPolyline
 62
7
  6
CONTINUOUS
 90
6
 70
0
 10
-11.3821666418
 20
40.2919931228
 10
-11.2400306983
 20
40.2840325518
 10
-11.0799424758
 20
40.2761908037
 10
-10.9018147128
 20
40.2684684563
 10
-10.7057346707
 20
40.2608649318
 10
-10.2624897764
 20
40.2461258058
  0
LINE
  5
480
100
AcDbEntity
  8
0
100
AcDbLine
 62
7
  6
CONTINUOUS
 10
11.3516115151
 20
39.8556311296
 11
13.2306563404
 21
39.3532885536
  0
LINE
  5
481
100
AcDbEntity
  8
0
100
AcDbLine
 62
7
  6
CONTINUOUS
 10
9.4513417461
 20
41.6543478923
 11
11.6029477407
 21
41.0791389972
  0
LWPOLYLINE
  5
482
100
AcDbEntity
  8
RACCORDO
100
AcDbPolyline
 62
7
  6
CONTINUOUS
 90
19
 70
0
 10
11.6029478521
 20
41.0791389674
 10
11.61316013
 20
41.076289416
 10
11.6242276743
 20
41.0729113985
 10
11.6361451014
 20
41.0688990934
 10
11.6486645694
 20
41.0642199707
 10
11.6619880024
 20
41.0586631513
 10
11.6767338185
 20
41.0517457105
 10
11.6929627663
 20
41.0430950966
 10
11.7102995585
 20
41.0325001317
 10
11.7285944665
 20
41.0195758102
 10
11.7476645248
 20
41.0038479066
 10
11.7669144419
 20
40.9850928077
 10
11.7855166751
 20
40.9633929897
 10
11.8029764534
 20
40.9385558173
 10
11.8186651001
 20
40.910544328
 10
11.831707652
 20
40.8799819257
 10
11.841556552
 20
40.8472844737
 10
11.847813162
 20
40.8125552306
 10
11.85
 20
40.7761858505
  0
LWPOLYLINE
  5
483
100
AcDbEntity
  8
RACCORDO
100
AcDbPolyline
 62
7
  6
CONTINUOUS
 90
22
 70
0
 10
13.2306563456
 20
39.3532885522
 10
13.2611312349
 20
39.3447120053
 10
13.2940463617
 20
39.3344382378
 10
13.3293788913
 20
39.322162996
 10
13.3670342718
 20
39.307564959
 10
13.4069372391
 20
39.2902724482
 10
13.449011005
 20
39.2698592503
 10
13.4926535491
 20
39.2461295635
 10
13.5379562718
 20
39.2184910433
 10
13.5856461896
 20
39.1857291142
 10
13.6357848008
 20
39.1466963407
 10
13.6868999927
 20
39.1012759285
 10
13.7372726449
 20
39.0498407725
 10
13.786285585
 20
38.9918515687
 10
13.8328146155
 20
38.9273014615
 10
13.874823424
 20
38.857972442
 10
13.9115414517
 20
38.7845359542
 10
13.9426473572
 20
38.7069263285
 10
13.9673756276
 20
38.6263001383
 10
13.985331715
 20
38.543428272
 10
13.9962947756
 20
38.4586106062
 10
14.0
 20
38.3724358193
  0
LWPOLYLINE
  5
484
100
AcDbEntity
  8
0
100
AcDbPolyline
 62
250
  6
CONTINUOUS
 90
8
 70
0
 10
33.4499217485
 20
25.9534522017
 10
33.4512325267
 20
25.9514459801
 10
33.4525319247
 20
25.9438334796
 10
33.4538199423
 20
25.9306147001
 10
33.4551053991
 20
25.911724147
 10
33.4563794756
 20
25.8872273149
 10
33.4576157134
 20
25.857320688
 10
33.458813557
 20
25.8218338004
  0
LINE
  5
485
100
AcDbEntity
  8
0
100
AcDbLine
 62
7
  6
CONTINUOUS
 10
-7.8511145721
 20
43.4532239848
 11
-9.8566648691
 21
42.9170615213
  0
LINE
  5
486
100
AcDbEntity
  8
0
100
AcDbLine
 62
7
  6
CONTINUOUS
 10
-5.9872555597
 20
45.2556021396
 11
-8.1103819975
 21
44.6880069499
  0
LINE
  5
487
100
AcDbEntity
  8
0
100
AcDbLine
 62
7
  6
CONTINUOUS
 10
-0.9978759266
 20
47.1496282333
 11
-3.8694093095
 21
46.3819544358
  0
LWPOLYLINE
  5
488
100
AcDbEntity
  8
0
100
AcDbPolyline
 62
7
  6
CONTINUOUS
 90
3
 70
0
 10
7.8678786997
 20
43.9001775033
 10
7.7325045921
 20
43.8939829184
 10
7.5808456296
 20
43.8878893418
  0
LWPOLYLINE
  5
489
100
AcDbEntity
  8
0
100
AcDbPolyline
 62
7
  6
CONTINUOUS
 90
9
 70
0
 10
-5.4690866775
 20
45.2918440539
 10
-5.5852424919
 20
45.2870371873
 10
-5.6874322948
 20
45.2821346596
 10
-5.7757593101
 20
45.2771371779
 10
-5.8495674731
 20
45.2720818618
 10
-5.9087486747
 20
45.2669682806
 10
-5.9534110239
 20
45.2617968651
 10
-5.9832227831
 20
45.2566060269
 10
-5.9872670073
 20
45.2555990785
  0
LWPOLYLINE
  5
48A
100
AcDbEntity
  8
RACCORDO
100
AcDbPolyline
 62
250
  6
CONTINUOUS
 90
10
 70
0
 10
7.534139656
 20
44.3262061541
 10
7.7129068755
 20
44.3332028164
 10
7.8700049777
 20
44.340336313
 10
8.005330063
 20
44.3475961288
 10
8.118791398
 20
44.3549774018
 10
8.2101184676
 20
44.3624705783
 10
8.2788159027
 20
44.3700450491
 10
8.3245513611
 20
44.3776641708
 10
8.3472543223
 20
44.3852961481
 10
8.35
 20
44.3890329722
  0
LWPOLYLINE
  5
48B
100
AcDbEntity
  8
RACCORDO
100
AcDbPolyline
 62
250
  6
CONTINUOUS
 90
11
 70
0
 10
7.3335110297
 20
44.6176128255
 10
7.5075178519
 20
44.6244231599
 10
7.6604325518
 20
44.6313666955
 10
7.7921540157
 20
44.6384331916
 10
7.902593954
 20
44.6456179079
 10
7.9914890717
 20
44.6529115414
 10
8.0583571755
 20
44.6602843018
 10
8.102874755
 20
44.6677005263
 10
8.1249731586
 20
44.6751292685
 10
8.1247383769
 20
44.6825602743
 10
8.1103821084
 20
44.6880069203
  0
LWPOLYLINE
  5
48C
100
AcDbEntity
  8
RACCORDO
100
AcDbPolyline
 62
250
  6
CONTINUOUS
 90
9
 70
0
 10
3.6719523175
 20
46.0559801394
 10
3.7778862537
 20
46.0600110403
 10
3.8694579068
 20
46.0641561239
 10
3.9460310388
 20
46.0683872338
 10
4.0072690536
 20
46.0726800098
 10
4.0531440918
 20
46.0770253263
 10
4.083592038
 20
46.0814171036
 10
4.0984514285
 20
46.0858458414
 10
4.1
 20
46.0878123061
  0
LWPOLYLINE
  5
48D
100
AcDbEntity
  8
RACCORDO
100
AcDbPolyline
 62
250
  6
CONTINUOUS
 90
10
 70
0
 10
3.4728118361
 20
46.3474402038
 10
3.5730007603
 20
46.3512524749
 10
3.6596063468
 20
46.3551727281
 10
3.7320267957
 20
46.3591743506
 10
3.7899437244
 20
46.3632343122
 10
3.8333308195
 20
46.367343973
 10
3.8621274883
 20
46.3714975722
 10
3.8761810479
 20
46.3756861192
 10
3.8753250683
 20
46.3798868711
 10
3.8694093371
 20
46.3819544285
  0
LINE
  5
48E
100
AcDbEntity
  8
0
100
AcDbLine
 62
7
  6
CONTINUOUS
 10
5.4690866775
 20
45.2057173602
 11
5.1961524227
 21
45.1964234878
  0
LINE
  5
48F
100
AcDbEntity
  8
0
100
AcDbLine
 62
7
  6
CONTINUOUS
 10
-5.1961524227
 20
45.3011379264
 11
-5.4690866775
 21
45.2918440539
  0
LINE
  5
490
100
AcDbEntity
  8
0
100
AcDbLine
 62
7
  6
CONTINUOUS
 10
7.5808456296
 20
43.8878893418
 11
7.2313971409
 21
43.8761193521
  0
LINE
  5
491
100
AcDbEntity
  8
RACCORDO
100
AcDbLine
 62
250
  6
CONTINUOUS
 10
7.1144571206
 20
44.3127457952
 11
7.534139656
 21
44.3262061541
  0
LINE
  5
492
100
AcDbEntity
  8
RACCORDO
100
AcDbLine
 62
250
  6
CONTINUOUS
 10
6.9250042363
 20
44.6045109353
 11
7.3335110297
 21
44.6176128255
  0
LINE
  5
493
100
AcDbEntity
  8
0
100
AcDbLine
 62
7
  6
CONTINUOUS
 10
3.216916057
 20
45.2205800432
 11
3.0078347488
 21
45.2142598384
  0
LINE
  5
494
100
AcDbEntity
  8
0
100
AcDbLine
 62
7
  6
CONTINUOUS
 10
3.658295417
 20
45.7163991629
 11
3.4323825609
 21
45.7095677523
  0
LINE
  5
495
100
AcDbEntity
  8
RACCORDO
100
AcDbLine
 62
250
  6
CONTINUOUS
 10
3.4194363129
 20
46.0483318509
 11
3.6719523175
 21
46.0559801394
  0
LINE
  5
496
100
AcDbEntity
  8
RACCORDO
100
AcDbLine
 62
250
  6
CONTINUOUS
 10
3.233990518
 20
46.3402066978
 11
3.4728118361
 21
46.3474402038
  0
LINE
  5
497
100
AcDbEntity
  8
0
100
AcDbLine
 62
7
  6
CONTINUOUS
 10
7.2313971409
 20
43.8761193521
 11
6.8216986066
 21
43.8649404677
  0
LINE
  5
498
100
AcDbEntity
  8
0
100
AcDbLine
 62
7
  6
CONTINUOUS
 10
6.7982994197
 20
43.3805541605
 11
6.3944212236
 21
43.3695862526
  0
LINE
  5
499
100
AcDbEntity
  8
0
100
AcDbLine
 62
7
  6
CONTINUOUS
 10
5.1961524227
 20
45.1964234878
 11
4.8714378982
 21
45.1876513612
  0
LINE
  5
49A
100
AcDbEntity
  8
0
100
AcDbLine
 62
7
  6
CONTINUOUS
 10
-4.8714378982
 20
45.309910053
 11
-5.1961524227
 21
45.3011379264
  0
LINE
  5
49B
100
AcDbEntity
  8
RACCORDO
100
AcDbLine
 62
250
  6
CONTINUOUS
 10
6.6179560015
 20
44.3001709878
 11
7.1144571206
 21
44.3127457952
  0
LINE
  5
49C
100
AcDbEntity
  8
RACCORDO
100
AcDbLine
 62
250
  6
CONTINUOUS
 10
6.4417245943
 20
44.5922709831
 11
6.9250042363
 21
44.6045109353
  0
LINE
  5
49D
100
AcDbEntity
  8
0
100
AcDbLine
 62
7
  6
CONTINUOUS
 10
3.4323825609
 20
45.7095677523
 11
3.1646687731
 21
45.7032129653
  0
LINE
  5
49E
100
AcDbEntity
  8
0
100
AcDbLine
 62
7
  6
CONTINUOUS
 10
3.0078347488
 20
45.2142598384
 11
2.7577599952
 21
45.2083952208
  0
LINE
  5
49F
100
AcDbEntity
  8
RACCORDO
100
AcDbLine
 62
250
  6
CONTINUOUS
 10
3.1149646864
 20
46.0412860533
 11
3.4194363129
 21
46.0483318509
  0
LINE
  5
4A0
100
AcDbEntity
  8
RACCORDO
100
AcDbLine
 62
250
  6
CONTINUOUS
 10
2.9460310974
 20
46.3335430645
 11
3.233990518
 21
46.3402066978
  0
LINE
  5
4A1
100
AcDbEntity
  8
0
100
AcDbLine
 62
7
  6
CONTINUOUS
 10
6.8216986066
 20
43.8649404677
 11
6.3553467982
 21
43.8544595092
  0
LINE
  5
4A2
100
AcDbEntity
  8
0
100
AcDbLine
 62
7
  6
CONTINUOUS
 10
6.3944212236
 20
43.3695862526
 11
5.9326341587
 21
43.3593380246
  0
LINE
  5
4A3
100
AcDbEntity
  8
0
100
AcDbLine
 62
7
  6
CONTINUOUS
 10
4.8714378982
 20
45.1876513612
 11
4.4988099791
 21
45.1794965387
  0
LINE
  5
4A4
100
AcDbEntity
  8
RACCORDO
100
AcDbLine
 62
250
  6
CONTINUOUS
 10
6.0476128613
 20
44.2885506372
 11
6.6179560015
 21
44.3001709878
  0
LINE
  5
4A5
100
AcDbEntity
  8
RACCORDO
100
AcDbLine
 62
250
  6
CONTINUOUS
 10
5.8865692538
 20
44.5809600841
 11
6.4417245943
 21
44.5922709831
  0
LINE
  5
4A6
100
AcDbEntity
  8
0
100
AcDbLine
 62
7
  6
CONTINUOUS
 10
-4.2949878479
 20
45.3218986109
 11
-4.8714378982
 21
45.309910053
  0
LINE
  5
4A7
100
AcDbEntity
  8
0
100
AcDbLine
 62
7
  6
CONTINUOUS
 10
6.3553467982
 20
43.8544595092
 11
5.8369045243
 21
43.8447713969
  0
LINE
  5
4A8
100
AcDbEntity
  8
0
100
AcDbLine
 62
7
  6
CONTINUOUS
 10
5.9326341587
 20
43.3593380246
 11
5.4171202401
 21
43.3499022862
  0
LINE
  5
4A9
100
AcDbEntity
  8
0
100
AcDbLine
 62
7
  6
CONTINUOUS
 10
4.4988099791
 20
45.1794965387
 11
4.0810364266
 21
45.1720195918
  0
LINE
  5
4AA
100
AcDbEntity
  8
0
100
AcDbLine
 62
7
  6
CONTINUOUS
 10
3.1646687731
 20
45.7032129653
 11
2.6924731734
 21
45.6947426734
  0
LINE
  5
4AB
100
AcDbEntity
  8
RACCORDO
100
AcDbLine
 62
250
  6
CONTINUOUS
 10
5.4096538493
 20
44.2780239507
 11
6.0476128613
 21
44.2885506372
  0
LINE
  5
4AC
100
AcDbEntity
  8
RACCORDO
100
AcDbLine
 62
250
  6
CONTINUOUS
 10
5.2655985565
 20
44.5707137471
 11
5.8865692538
 21
44.5809600841
  0
LINE
  5
4AD
100
AcDbEntity
  8
0
100
AcDbLine
 62
7
  6
CONTINUOUS
 10
2.7577599952
 20
45.2083952208
 11
2.3140353949
 21
45.2006511588
  0
LINE
  5
4AE
100
AcDbEntity
  8
0
100
AcDbLine
 62
7
  6
CONTINUOUS
 10
5.8369045243
 20
43.8447713969
 11
5.2695843351
 21
43.8359361635
  0
LINE
  5
4AF
100
AcDbEntity
  8
RACCORDO
100
AcDbLine
 62
250
  6
CONTINUOUS
 10
2.5708856919
 20
46.0320723301
 11
3.1149646864
 21
46.0412860533
  0
LINE
  5
4B0
100
AcDbEntity
  8
RACCORDO
100
AcDbLine
 62
250
  6
CONTINUOUS
 10
2.4314589858
 20
46.3248290669
 11
2.9460310974
 21
46.3335430645
  0
LINE
  5
4B1
100
AcDbEntity
  8
0
100
AcDbLine
 62
7
  6
CONTINUOUS
 10
5.4171202401
 20
43.3499022862
 11
4.8525480418
 21
43.3413644888
  0
LINE
  5
4B2
100
AcDbEntity
  8
0
100
AcDbLine
 62
7
  6
CONTINUOUS
 10
-3.6225948663
 20
45.3322538357
 11
-4.2949878479
 21
45.3218986109
  0
LINE
  5
4B3
100
AcDbEntity
  8
RACCORDO
100
AcDbLine
 62
250
  6
CONTINUOUS
 10
4.7145388775
 20
44.268756115
 11
5.4096538493
 21
44.2780239507
  0
LINE
  5
4B4
100
AcDbEntity
  8
RACCORDO
100
AcDbLine
 62
250
  6
CONTINUOUS
 10
4.5889938834
 20
44.5616927662
 11
5.2655985565
 21
44.5707137471
  0
LINE
  5
4B5
100
AcDbEntity
  8
0
100
AcDbLine
 62
7
  6
CONTINUOUS
 10
4.0810364266
 20
45.1720195918
 11
3.3799203484
 21
45.1622615776
  0
LINE
  5
4B6
100
AcDbEntity
  8
0
100
AcDbLine
 62
7
  6
CONTINUOUS
 10
-3.6010511318
 20
45.3325242482
 11
-3.6225948663
 21
45.3322538357
  0
LINE
  5
4B7
100
AcDbEntity
  8
0
100
AcDbLine
 62
7
  6
CONTINUOUS
 10
5.2695843351
 20
43.8359361635
 11
4.6585009686
 21
43.828039733
  0
LINE
  5
4B8
100
AcDbEntity
  8
0
100
AcDbLine
 62
7
  6
CONTINUOUS
 10
4.8525480418
 20
43.3413644888
 11
4.244030417
 21
43.333801952
  0
LINE
  5
4B9
100
AcDbEntity
  8
0
100
AcDbLine
 62
7
  6
CONTINUOUS
 10
2.6924731734
 20
45.6947426734
 11
2.1468339244
 21
45.6877443209
  0
LINE
  5
4BA
100
AcDbEntity
  8
0
100
AcDbLine
 62
7
  6
CONTINUOUS
 10
2.3140353949
 20
45.2006511588
 11
1.8
 21
45.1943694887
  0
LINE
  5
4BB
100
AcDbEntity
  8
0
100
AcDbLine
 62
7
  6
CONTINUOUS
 10
4.6585009686
 20
43.828039733
 11
4.0095154012
 21
43.8211520209
  0
LINE
  5
4BC
100
AcDbEntity
  8
RACCORDO
100
AcDbLine
 62
250
  6
CONTINUOUS
 10
1.9396032433
 20
46.0247709015
 11
2.5708856919
 21
46.0320723301
  0
LINE
  5
4BD
100
AcDbEntity
  8
RACCORDO
100
AcDbLine
 62
250
  6
CONTINUOUS
 10
1.8344125384
 20
46.3179237769
 11
2.4314589858
 21
46.3248290669
  0
LINE
  5
4BE
100
AcDbEntity
  8
0
100
AcDbLine
 62
7
  6
CONTINUOUS
 10
4.244030417
 20
43.333801952
 11
3.5970781956
 21
43.3272831634
  0
LINE
  5
4BF
100
AcDbEntity
  8
RACCORDO
100
AcDbLine
 62
250
  6
CONTINUOUS
 10
3.5936885469
 20
44.257492416
 11
4.7145388775
 21
44.268756115
  0
LINE
  5
4C0
100
AcDbEntity
  8
RACCORDO
100
AcDbLine
 62
250
  6
CONTINUOUS
 10
3.497991157
 20
44.5507289409
 11
4.5889938834
 21
44.5616927662
  0
LINE
  5
4C1
100
AcDbEntity
  8
0
100
AcDbLine
 62
7
  6
CONTINUOUS
 10
3.3799203484
 20
45.1622615776
 11
2.6033024347
 21
45.1544362579
  0
LINE
  5
4C2
100
AcDbEntity
  8
0
100
AcDbLine
 62
7
  6
CONTINUOUS
 10
4.0095154012
 20
43.8211520209
 11
3.3266491002
 21
43.8153157074
  0
LINE
  5
4C3
100
AcDbEntity
  8
0
100
AcDbLine
 62
7
  6
CONTINUOUS
 10
2.1468339244
 20
45.6877443209
 11
1.5426346422
 21
45.6824088047
  0
LINE
  5
4C4
100
AcDbEntity
  8
0
100
AcDbLine
 62
7
  6
CONTINUOUS
 10
3.5970781956
 20
43.3272831634
 11
2.9175502769
 21
43.321867158
  0
LINE
  5
4C5
100
AcDbEntity
  8
0
100
AcDbLine
 62
7
  6
CONTINUOUS
 10
1.8
 20
45.1943694887
 11
1.231272516
 21
45.1897410759
  0
LINE
  5
4C6
100
AcDbEntity
  8
RACCORDO
100
AcDbLine
 62
250
  6
CONTINUOUS
 10
2.422970268
 20
44.2495755846
 11
3.5936885469
 21
44.257492416
  0
LINE
  5
4C7
100
AcDbEntity
  8
RACCORDO
100
AcDbLine
 62
250
  6
CONTINUOUS
 10
2.3584479985
 20
44.5430231875
 11
3.497991157
 21
44.5507289409
  0
LINE
  5
4C8
100
AcDbEntity
  8
0
100
AcDbLine
 62
7
  6
CONTINUOUS
 10
2.6033024347
 20
45.1544362579
 11
1.7685310465
 21
45.1487184371
  0
LINE
  5
4C9
100
AcDbEntity
  8
0
100
AcDbLine
 62
7
  6
CONTINUOUS
 10
2.9175502769
 20
43.321867158
 11
2.2116005712
 21
43.3176029842
  0
LINE
  5
4CA
100
AcDbEntity
  8
0
100
AcDbLine
 62
7
  6
CONTINUOUS
 10
3.3266491002
 20
43.8153157074
 11
2.2528030392
 21
43.8086550841
  0
LINE
  5
4CB
100
AcDbEntity
  8
RACCORDO
100
AcDbLine
 62
250
  6
CONTINUOUS
 10
0.9999163474
 20
46.0184180355
 11
1.9396032433
 21
46.0247709015
  0
LINE
  5
4CC
100
AcDbEntity
  8
RACCORDO
100
AcDbLine
 62
250
  6
CONTINUOUS
 10
0.9456883427
 20
46.3119148539
 11
1.8344125384
 21
46.3179237769
  0
LINE
  5
4CD
100
AcDbEntity
  8
0
100
AcDbLine
 62
7
  6
CONTINUOUS
 10
1.5426346422
 20
45.6824088047
 11
0.8963563083
 21
45.6788816637
  0
LINE
  5
4CE
100
AcDbEntity
  8
0
100
AcDbLine
 62
7
  6
CONTINUOUS
 10
1.231272516
 20
45.1897410759
 11
0.6251334396
 21
45.1869065525
  0
LINE
  5
4CF
100
AcDbEntity
  8
0
100
AcDbLine
 62
7
  6
CONTINUOUS
 10
2.2116005712
 20
43.3176029842
 11
1.1171714804
 21
43.3134479419
  0
LINE
  5
4D0
100
AcDbEntity
  8
0
100
AcDbLine
 62
7
  6
CONTINUOUS
 10
1.7685310465
 20
45.1487184371
 11
0.8942535971
 21
45.1452358422
  0
LINE
  5
4D1
100
AcDbEntity
  8
0
100
AcDbLine
 62
7
  6
CONTINUOUS
 10
2.2528030392
 20
43.8086550841
 11
1.13699152
 21
43.8046084243
  0
LINE
  5
4D2
100
AcDbEntity
  8
RACCORDO
100
AcDbLine
 62
250
  6
CONTINUOUS
 10
0.963857474
 20
44.2442795088
 11
2.422970268
 21
44.2495755846
  0
LINE
  5
4D3
100
AcDbEntity
  8
RACCORDO
100
AcDbLine
 62
250
  6
CONTINUOUS
 10
0.9381907088
 20
44.537867698
 11
2.3584479985
 21
44.5430231875
  0
LINE
  5
4D4
100
AcDbEntity
  8
0
100
AcDbLine
 62
7
  6
CONTINUOUS
 10
0.8963563083
 20
45.6788816637
 11
0.226991253
 21
45.6772610811
  0
LINE
  5
4D5
100
AcDbEntity
  8
0
100
AcDbLine
 62
7
  6
CONTINUOUS
 10
0.6251334396
 20
45.1869065525
 11
-0.0
 21
45.1859520439
  0
LINE
  5
4D6
100
AcDbEntity
  8
RACCORDO
100
AcDbLine
 62
250
  6
CONTINUOUS
 10
-0.0
 20
46.0162574397
 11
0.9999163474
 21
46.0184180355
  0
LINE
  5
4D7
100
AcDbEntity
  8
0
100
AcDbLine
 62
7
  6
CONTINUOUS
 10
1.1171714804
 20
43.3134479419
 11
-0.0
 21
43.3120534653
  0
LINE
  5
4D8
100
AcDbEntity
  8
0
100
AcDbLine
 62
7
  6
CONTINUOUS
 10
1.13699152
 20
43.8046084243
 11
-0.0
 21
43.8032511096
  0
LINE
  5
4D9
100
AcDbEntity
  8
0
100
AcDbLine
 62
7
  6
CONTINUOUS
 10
0.8942535971
 20
45.1452358422
 11
-0.0
 21
45.1440662684
  0
LINE
  5
4DA
100
AcDbEntity
  8
RACCORDO
100
AcDbLine
 62
250
  6
CONTINUOUS
 10
-0.220934874
 20
46.3099814139
 11
0.9456883427
 21
46.3119148539
  0
LINE
  5
4DB
100
AcDbEntity
  8
RACCORDO
100
AcDbLine
 62
250
  6
CONTINUOUS
 10
-0.6276275683
 20
44.2437176205
 11
0.963857474
 21
44.2442795088
  0
LINE
  5
4DC
100
AcDbEntity
  8
RACCORDO
100
AcDbLine
 62
250
  6
CONTINUOUS
 10
-0.6109143459
 20
44.5373207543
 11
0.9381907088
 21
44.537867698
  0
LINE
  5
4DD
100
AcDbEntity
  8
0
100
AcDbLine
 62
7
  6
CONTINUOUS
 10
-1.5120518582
 20
43.8056612867
 11
-0.0
 21
43.8032511096
  0
LINE
  5
4DE
100
AcDbEntity
  8
0
100
AcDbLine
 62
7
  6
CONTINUOUS
 10
-1.4856222682
 20
43.3145292589
 11
-0.0
 21
43.3120534653
  0
LINE
  5
4DF
100
AcDbEntity
  8
0
100
AcDbLine
 62
7
  6
CONTINUOUS
 10
-1.1886223156
 20
45.1461425861
 11
-0.0
 21
45.1440662684
  0
LINE
  5
4E0
100
AcDbEntity
  8
0
100
AcDbLine
 62
7
  6
CONTINUOUS
 10
-0.8963563083
 20
45.6788816637
 11
0.226991253
 21
45.6772610811
  0
LINE
  5
4E1
100
AcDbEntity
  8
RACCORDO
100
AcDbLine
 62
250
  6
CONTINUOUS
 10
-0.9569536857
 20
46.018233795
 11
-0.0
 21
46.0162574397
  0
LINE
  5
4E2
100
AcDbEntity
  8
RACCORDO
100
AcDbLine
 62
250
  6
CONTINUOUS
 10
-2.0337923339
 20
44.2476941585
 11
-0.6276275683
 21
44.2437176205
  0
LINE
  5
4E3
100
AcDbEntity
  8
RACCORDO
100
AcDbLine
 62
250
  6
CONTINUOUS
 10
-1.97963365
 20
44.5411918554
 11
-0.6109143459
 21
44.5373207543
  0
LINE
  5
4E4
100
AcDbEntity
  8
0
100
AcDbLine
 62
7
  6
CONTINUOUS
 10
-1.0327008812
 20
45.1885937239
 11
-0.0
 21
45.1859520439
  0
LINE
  5
4E5
100
AcDbEntity
  8
RACCORDO
100
AcDbLine
 62
250
  6
CONTINUOUS
 10
-1.1375528713
 20
46.3128494932
 11
-0.220934874
 21
46.3099814139
  0
LINE
  5
4E6
100
AcDbEntity
  8
0
100
AcDbLine
 62
7
  6
CONTINUOUS
 10
-2.9748449989
 20
43.81281425
 11
-1.5120518582
 21
43.8056612867
  0
LINE
  5
4E7
100
AcDbEntity
  8
0
100
AcDbLine
 62
7
  6
CONTINUOUS
 10
-2.9175502769
 20
43.321867158
 11
-1.4856222682
 21
43.3145292589
  0
LINE
  5
4E8
100
AcDbEntity
  8
RACCORDO
100
AcDbLine
 62
250
  6
CONTINUOUS
 10
-3.2002726265
 20
44.2544334429
 11
-2.0337923339
 21
44.2476941585
  0
LINE
  5
4E9
100
AcDbEntity
  8
RACCORDO
100
AcDbLine
 62
250
  6
CONTINUOUS
 10
-3.115051669
 20
44.5477513958
 11
-1.97963365
 21
44.5411918554
  0
LINE
  5
4EA
100
AcDbEntity
  8
0
100
AcDbLine
 62
7
  6
CONTINUOUS
 10
-2.3308161575
 20
45.1522914204
 11
-1.1886223156
 21
45.1461425861
  0
LINE
  5
4EB
100
AcDbEntity
  8
0
100
AcDbLine
 62
7
  6
CONTINUOUS
 10
-1.7499666256
 20
45.6839960006
 11
-0.8963563083
 21
45.6788816637
  0
LINE
  5
4EC
100
AcDbEntity
  8
RACCORDO
100
AcDbLine
 62
250
  6
CONTINUOUS
 10
-1.9073031151
 20
46.0244714102
 11
-0.9569536857
 21
46.018233795
  0
LINE
  5
4ED
100
AcDbEntity
  8
0
100
AcDbLine
 62
7
  6
CONTINUOUS
 10
-4.0095154012
 20
43.8211520209
 11
-2.9748449989
 21
43.81281425
  0
LINE
  5
4EE
100
AcDbEntity
  8
0
100
AcDbLine
 62
7
  6
CONTINUOUS
 10
-1.8
 20
45.1943694887
 11
-1.0327008812
 21
45.1885937239
  0
LINE
  5
4EF
100
AcDbEntity
  8
0
100
AcDbLine
 62
7
  6
CONTINUOUS
 10
-3.925
 20
43.3304081712
 11
-2.9175502769
 21
43.321867158
  0
LINE
  5
4F0
100
AcDbEntity
  8
RACCORDO
100
AcDbLine
 62
250
  6
CONTINUOUS
 10
-2.0128771564
 20
46.3197037969
 11
-1.1375528713
 21
46.3128494932
  0
LINE
  5
4F1
100
AcDbEntity
  8
RACCORDO
100
AcDbLine
 62
250
  6
CONTINUOUS
 10
-4.3423046564
 20
44.2645606249
 11
-3.2002726265
 21
44.2544334429
  0
LINE
  5
4F2
100
AcDbEntity
  8
RACCORDO
100
AcDbLine
 62
250
  6
CONTINUOUS
 10
-4.2266720666
 20
44.5576089699
 11
-3.115051669
 21
44.5477513958
  0
LINE
  5
4F3
100
AcDbEntity
  8
0
100
AcDbLine
 62
7
  6
CONTINUOUS
 10
-3.3799203484
 20
45.1622615776
 11
-2.3308161575
 21
45.1522914204
  0
LINE
  5
4F4
100
AcDbEntity
  8
0
100
AcDbLine
 62
7
  6
CONTINUOUS
 10
-4.9694961177
 20
43.8318709611
 11
-4.0095154012
 21
43.8211520209
  0
LINE
  5
4F5
100
AcDbEntity
  8
0
100
AcDbLine
 62
7
  6
CONTINUOUS
 10
-2.518272122
 20
45.6922377109
 11
-1.7499666256
 21
45.6839960006
  0
LINE
  5
4F6
100
AcDbEntity
  8
RACCORDO
100
AcDbLine
 62
250
  6
CONTINUOUS
 10
-2.5442782196
 20
46.0317016856
 11
-1.9073031151
 21
46.0244714102
  0
LINE
  5
4F7
100
AcDbEntity
  8
0
100
AcDbLine
 62
7
  6
CONTINUOUS
 10
-4.8525480418
 20
43.3413644888
 11
-3.925
 21
43.3304081712
  0
LINE
  5
4F8
100
AcDbEntity
  8
0
100
AcDbLine
 62
7
  6
CONTINUOUS
 10
-2.3140353949
 20
45.2006511588
 11
-1.8
 21
45.1943694887
  0
LINE
  5
4F9
100
AcDbEntity
  8
RACCORDO
100
AcDbLine
 62
250
  6
CONTINUOUS
 10
-5.4025894036
 20
44.2779192086
 11
-4.3423046564
 21
44.2645606249
  0
LINE
  5
4FA
100
AcDbEntity
  8
RACCORDO
100
AcDbLine
 62
250
  6
CONTINUOUS
 10
-5.2587223104
 20
44.5706117625
 11
-4.2266720666
 21
44.5576089699
  0
LINE
  5
4FB
100
AcDbEntity
  8
RACCORDO
100
AcDbLine
 62
250
  6
CONTINUOUS
 10
-2.5896700569
 20
46.3271761357
 11
-2.0128771564
 21
46.3197037969
  0
LINE
  5
4FC
100
AcDbEntity
  8
0
100
AcDbLine
 62
7
  6
CONTINUOUS
 10
-4.0810364266
 20
45.1720195918
 11
-3.3799203484
 21
45.1622615776
  0
LINE
  5
4FD
100
AcDbEntity
  8
0
100
AcDbLine
 62
7
  6
CONTINUOUS
 10
3.6010511318
 20
45.3325242482
 11
4.0810364266
 21
45.3255418223
  0
LINE
  5
4FE
100
AcDbEntity
  8
0
100
AcDbLine
 62
7
  6
CONTINUOUS
 10
-5.8369045243
 20
43.8447713969
 11
-4.9694961177
 21
43.8318709611
  0
LINE
  5
4FF
100
AcDbEntity
  8
0
100
AcDbLine
 62
7
  6
CONTINUOUS
 10
-5.6813121991
 20
43.3545130716
 11
-4.8525480418
 21
43.3413644888
  0
LINE
  5
500
100
AcDbEntity
  8
RACCORDO
100
AcDbLine
 62
250
  6
CONTINUOUS
 10
-6.0412169494
 20
44.288433517
 11
-5.4025894036
 21
44.2779192086
  0
LINE
  5
501
100
AcDbEntity
  8
RACCORDO
100
AcDbLine
 62
250
  6
CONTINUOUS
 10
-5.8803437311
 20
44.5808460573
 11
-5.2587223104
 21
44.5706117625
  0
LINE
  5
502
100
AcDbEntity
  8
0
100
AcDbLine
 62
7
  6
CONTINUOUS
 10
-3.0164680338
 20
45.7002417623
 11
-2.518272122
 21
45.6922377109
  0
LINE
  5
503
100
AcDbEntity
  8
0
100
AcDbLine
 62
7
  6
CONTINUOUS
 10
4.0810364266
 20
45.3255418223
 11
4.4988099791
 21
45.3180648754
  0
LINE
  5
504
100
AcDbEntity
  8
RACCORDO
100
AcDbLine
 62
250
  6
CONTINUOUS
 10
-3.0945693377
 20
46.0408733204
 11
-2.5442782196
 21
46.0317016856
  0
LINE
  5
505
100
AcDbEntity
  8
RACCORDO
100
AcDbLine
 62
250
  6
CONTINUOUS
 10
-2.9267421651
 20
46.3331526145
 11
-2.5896700569
 21
46.3271761357
  0
LINE
  5
506
100
AcDbEntity
  8
0
100
AcDbLine
 62
7
  6
CONTINUOUS
 10
-2.7577599952
 20
45.2083952208
 11
-2.3140353949
 21
45.2006511588
  0
LINE
  5
507
100
AcDbEntity
  8
0
100
AcDbLine
 62
7
  6
CONTINUOUS
 10
-4.6909888948
 20
45.1834923225
 11
-4.0810364266
 21
45.1720195918
  0
LINE
  5
508
100
AcDbEntity
  8
0
100
AcDbLine
 62
7
  6
CONTINUOUS
 10
-6.5955824434
 20
43.8596130177
 11
-5.8369045243
 21
43.8447713969
  0
LINE
  5
509
100
AcDbEntity
  8
RACCORDO
100
AcDbLine
 62
250
  6
CONTINUOUS
 10
-6.6123135801
 20
44.3000431401
 11
-6.0412169494
 21
44.288433517
  0
LINE
  5
50A
100
AcDbEntity
  8
RACCORDO
100
AcDbLine
 62
250
  6
CONTINUOUS
 10
-6.4362324988
 20
44.5921465163
 11
-5.8803437311
 21
44.5808460573
  0
LINE
  5
50B
100
AcDbEntity
  8
0
100
AcDbLine
 62
7
  6
CONTINUOUS
 10
-3.3037271364
 20
45.7063310505
 11
-3.0164680338
 21
45.7002417623
  0
LINE
  5
50C
100
AcDbEntity
  8
0
100
AcDbLine
 62
7
  6
CONTINUOUS
 10
4.4988099791
 20
45.3180648754
 11
4.8714378982
 21
45.309910053
  0
LINE
  5
50D
100
AcDbEntity
  8
0
100
AcDbLine
 62
7
  6
CONTINUOUS
 10
-6.3944212236
 20
43.3695862526
 11
-5.6813121991
 21
43.3545130716
  0
LINE
  5
50E
100
AcDbEntity
  8
RACCORDO
100
AcDbLine
 62
250
  6
CONTINUOUS
 10
-3.4029938098
 20
46.0479014638
 11
-3.0945693377
 21
46.0408733204
  0
LINE
  5
50F
100
AcDbEntity
  8
RACCORDO
100
AcDbLine
 62
250
  6
CONTINUOUS
 10
-3.2184400229
 20
46.3397995705
 11
-2.9267421651
 21
46.3331526145
  0
LINE
  5
510
100
AcDbEntity
  8
0
100
AcDbLine
 62
7
  6
CONTINUOUS
 10
-3.0078347488
 20
45.2142598384
 11
-2.7577599952
 21
45.2083952208
  0
LINE
  5
511
100
AcDbEntity
  8
0
100
AcDbLine
 62
7
  6
CONTINUOUS
 10
-5.0402436859
 20
45.1919724481
 11
-4.6909888948
 21
45.1834923225
  0
LINE
  5
512
100
AcDbEntity
  8
0
100
AcDbLine
 62
7
  6
CONTINUOUS
 10
-7.0336076148
 20
43.8704429392
 11
-6.5955824434
 21
43.8596130177
  0
LINE
  5
513
100
AcDbEntity
  8
RACCORDO
100
AcDbLine
 62
250
  6
CONTINUOUS
 10
-7.1096165921
 20
44.3126084665
 11
-6.6123135801
 21
44.3000431401
  0
LINE
  5
514
100
AcDbEntity
  8
RACCORDO
100
AcDbLine
 62
250
  6
CONTINUOUS
 10
-6.9202926879
 20
44.6043772393
 11
-6.4362324988
 21
44.5921465163
  0
LINE
  5
515
100
AcDbEntity
  8
0
100
AcDbLine
 62
7
  6
CONTINUOUS
 10
-6.7982994197
 20
43.3805541605
 11
-6.3944212236
 21
43.3695862526
  0
LINE
  5
516
100
AcDbEntity
  8
0
100
AcDbLine
 62
7
  6
CONTINUOUS
 10
4.8714378982
 20
45.309910053
 11
5.1961524227
 21
45.3011379264
  0
LWPOLYLINE
  5
517
100
AcDbEntity
  8
0
100
AcDbPolyline
 62
7
  6
CONTINUOUS
 90
3
 70
0
 10
-3.658295417
 20
45.7163991629
 10
-3.5505404583
 20
45.7129241492
 10
-3.3037271364
 20
45.7063310505
  0
LWPOLYLINE
  5
518
100
AcDbEntity
  8
0
100
AcDbPolyline
 62
7
  6
CONTINUOUS
 90
10
 70
0
 10
5.1961524227
 20
45.3011379264
 10
5.4690866775
 20
45.2918440539
 10
5.5852424919
 20
45.2870371873
 10
5.6874322948
 20
45.2821346596
 10
5.7757593101
 20
45.2771371779
 10
5.8495674731
 20
45.2720818618
 10
5.9087486747
 20
45.2669682806
 10
5.9534110239
 20
45.2617968651
 10
5.9832227831
 20
45.2566060269
 10
5.9872670073
 20
45.2555990785
  0
LWPOLYLINE
  5
519
100
AcDbEntity
  8
0
100
AcDbPolyline
 62
7
  6
CONTINUOUS
 90
5
 70
0
 10
-7.8678786997
 20
43.9001775033
 10
-7.7325045921
 20
43.8939829184
 10
-7.5808456296
 20
43.8878893418
 10
-7.4138415737
 20
43.8819345325
 10
-7.0336076148
 20
43.8704429392
  0
LINE
  5
51A
100
AcDbEntity
  8
0
100
AcDbLine
 62
7
  6
CONTINUOUS
 10
7.8511145721
 20
43.4532239848
 11
9.8566648691
 21
42.9170615213
  0
LINE
  5
51B
100
AcDbEntity
  8
0
100
AcDbLine
 62
7
  6
CONTINUOUS
 10
5.9872555597
 20
45.2556021396
 11
8.1103819975
 21
44.6880069499
  0
LINE
  5
51C
100
AcDbEntity
  8
0
100
AcDbLine
 62
7
  6
CONTINUOUS
 10
0.9978759266
 20
47.1496282333
 11
3.8694093095
 21
46.3819544358
  0
LWPOLYLINE
  5
51D
100
AcDbEntity
  8
RACCORDO
100
AcDbPolyline
 62
7
  6
CONTINUOUS
 90
19
 70
0
 10
9.8566649278
 20
42.9170615056
 10
9.8666201597
 20
42.9142794458
 10
9.8775505009
 20
42.9109273493
 10
9.8894467828
 20
42.9068876495
 10
9.9020840694
 20
42.9021036259
 10
9.9156242185
 20
42.8963580758
 10
9.9305859423
 20
42.8891872182
 10
9.9470623922
 20
42.8801804093
 10
9.9646151802
 20
42.8691412528
 10
9.982874038
 20
42.8558353501
 10
10.001561173
 20
42.8399305202
 10
10.020233583
 20
42.8211783703
 10
10.0382238843
 20
42.7995788249
 10
10.055102348
 20
42.7748873875
 10
10.0702095464
 20
42.7471488169
 10
10.0826847285
 20
42.7170724332
 10
10.0920375167
 20
42.6851070156
 10
10.0979451083
 20
42.6513257623
 10
10.1
 20
42.6160979591
  0
LWPOLYLINE
  5
51E
100
AcDbEntity
  8
RACCORDO
100
AcDbPolyline
 62
7
  6
CONTINUOUS
 90
19
 70
0
 10
8.1103821084
 20
44.6880069203
 10
8.1201597338
 20
44.6852687725
 10
8.1310414165
 20
44.681910027
 10
8.1430110344
 20
44.6777992091
 10
8.1558981223
 20
44.6728388411
 10
8.169788504
 20
44.6668124598
 10
8.1850035886
 20
44.6593213164
 10
8.2015992569
 20
44.6499722923
 10
8.2191618563
 20
44.6385670214
 10
8.2372343684
 20
44.6249548748
 10
8.2554875466
 20
44.6089033962
 10
8.2735732223
 20
44.5901620016
 10
8.2909546789
 20
44.5686587138
 10
8.3072665291
 20
44.5440835994
 10
8.3218089508
 20
44.5165681975
 10
8.3337118753
 20
44.4869600754
 10
8.3425475184
 20
44.4557633638
 10
8.3480860254
 20
44.4230053069
 10
8.35
 20
44.3890329722
  0
LWPOLYLINE
  5
51F
100
AcDbEntity
  8
RACCORDO
100
AcDbPolyline
 62
7
  6
CONTINUOUS
 90
16
 70
0
 10
3.8694093471
 20
46.3819544258
 10
3.8818743255
 20
46.3783794918
 10
3.895934283
 20
46.3737277638
 10
3.9115344834
 20
46.367727372
 10
3.9284348509
 20
46.3601362714
 10
3.9466184696
 20
46.350567664
 10
3.9662212776
 20
46.3384176578
 10
3.9871280242
 20
46.3230193057
 10
4.0084977881
 20
46.3041143246
 10
4.0292591288
 20
46.2817945028
 10
4.0489098911
 20
46.2556640144
 10
4.0665314517
 20
46.2258097637
 10
4.0808209518
 20
46.1935738242
 10
4.0912806993
 20
46.1597569059
 10
4.0977755302
 20
46.1243483467
 10
4.1
 20
46.0878123061
  0
LWPOLYLINE
  5
520
100
AcDbEntity
  8
0
100
AcDbPolyline
 62
7
  6
CONTINUOUS
 90
10
 70
0
 10
0.9978905893
 20
47.1496243066
 10
0.9991191665
 20
47.1491970743
 10
0.9991191665
 20
47.1477855815
 10
0.9927088741
 20
47.1463876727
 10
0.9797641084
 20
47.1450036112
 10
0.9604090503
 20
47.1436331338
 10
0.9350162427
 20
47.1423026193
 10
0.9034687216
 20
47.1410128416
 10
0.865883451
 20
47.1397630268
 10
0.8229838659
 20
47.138577231
  0
LWPOLYLINE
  5
521
100
AcDbEntity
  8
0
100
AcDbPolyline
 62
7
  6
CONTINUOUS
 90
11
 70
0
 10
5.9872670073
 20
45.2555990785
 10
5.9980733731
 20
45.2513956213
 10
5.9980733731
 20
45.2461657929
 10
5.9832227831
 20
45.2409553873
 10
5.9534110239
 20
45.235764549
 10
5.9087486747
 20
45.2305931335
 10
5.8495674731
 20
45.2254795524
 10
5.7757593101
 20
45.2204242363
 10
5.6874322948
 20
45.2154267545
 10
5.5852424919
 20
45.2105242268
 10
5.4690866775
 20
45.2057173602
  0
LINE
  5
522
100
AcDbEntity
  8
DRAFT
100
AcDbLine
 62
7
  6
CONTINUOUS
 10
32.0
 20
29.8340562657
 11
32.2757899725
 21
29.5582662932
  0
LINE
  5
523
100
AcDbEntity
  8
DRAFT
100
AcDbLine
 62
7
  6
CONTINUOUS
 10
26.5
 20
35.3340562657
 11
26.2242099741
 21
35.6098462916
  0
LINE
  5
524
100
AcDbEntity
  8
DRAFT
100
AcDbLine
 62
7
  6
CONTINUOUS
 10
26.5
 20
-43.6659437343
 11
26.2242099741
 21
-43.9417337602
  0
LINE
  5
525
100
AcDbEntity
  8
DRAFT
100
AcDbLine
 62
7
  6
CONTINUOUS
 10
32.0
 20
-38.1659437343
 11
32.2757899725
 21
-37.8901537618
  0
LWPOLYLINE
  5
526
100
AcDbEntity
  8
0
100
AcDbPolyline
 62
250
  6
CONTINUOUS
 90
8
 70
0
 10
21.119395936
 20
-45.1158654828
 10
21.1173897144
 20
-45.117176261
 10
21.1097772139
 20
-45.118475659
 10
21.0965584344
 20
-45.1197636766
 10
21.0776678813
 20
-45.1210491334
 10
21.0531710492
 20
-45.1223232099
 10
21.0232644223
 20
-45.1235594477
 10
20.9877775347
 20
-45.1247572913
  0
LWPOLYLINE
  5
527
100
AcDbEntity
  8
0
100
AcDbPolyline
 62
7
  6
CONTINUOUS
 90
8
 70
0
 10
-0.8229838659
 20
47.1584054247
 10
-0.865883451
 20
47.1572196289
 10
-0.9034687216
 20
47.1559698141
 10
-0.9350162427
 20
47.1546800365
 10
-0.9604090503
 20
47.1533495219
 10
-0.9797641084
 20
47.1519790445
 10
-0.9927088741
 20
47.150594983
 10
-0.9978905893
 20
47.1496243066
  0
LINE
  5
528
100
AcDbEntity
  8
0
100
AcDbLine
 62
7
  6
CONTINUOUS
 10
0.8229838659
 20
47.138577231
 11
0.7210358529
 21
47.1364001769
  0
LINE
  5
529
100
AcDbEntity
  8
0
100
AcDbLine
 62
7
  6
CONTINUOUS
 10
-0.7210358529
 20
47.1605824788
 11
-0.8229838659
 21
47.1584054247
  0
LINE
  5
52A
100
AcDbEntity
  8
0
100
AcDbLine
 62
7
  6
CONTINUOUS
 10
0.7210358529
 20
47.1364001769
 11
0.6008444806
 21
47.1345418401
  0
LINE
  5
52B
100
AcDbEntity
  8
0
100
AcDbLine
 62
7
  6
CONTINUOUS
 10
-0.6008444806
 20
47.1624408157
 11
-0.7210358529
 21
47.1605824788
  0
LINE
  5
52C
100
AcDbEntity
  8
0
100
AcDbLine
 62
7
  6
CONTINUOUS
 10
0.6008444806
 20
47.1345418401
 11
0.3921030472
 21
47.1324376792
  0
LINE
  5
52D
100
AcDbEntity
  8
0
100
AcDbLine
 62
7
  6
CONTINUOUS
 10
-0.3921030472
 20
47.1645449765
 11
-0.6008444806
 21
47.1624408157
  0
LINE
  5
52E
100
AcDbEntity
  8
0
100
AcDbLine
 62
7
  6
CONTINUOUS
 10
0.3921030472
 20
47.1324376792
 11
0.1610891269
 21
47.1312675896
  0
LINE
  5
52F
100
AcDbEntity
  8
0
100
AcDbLine
 62
7
  6
CONTINUOUS
 10
-0.1610891269
 20
47.1657150661
 11
-0.3921030472
 21
47.1645449765
  0
LINE
  5
530
100
AcDbEntity
  8
0
100
AcDbLine
 62
7
  6
CONTINUOUS
 10
-0.1610891269
 20
47.1312675896
 11
0.1610891269
 21
47.1312675896
  0
LINE
  5
531
100
AcDbEntity
  8
0
100
AcDbLine
 62
7
  6
CONTINUOUS
 10
-0.1610891269
 20
47.1657150661
 11
0.1610891269
 21
47.1657150661
  0
LINE
  5
532
100
AcDbEntity
  8
0
100
AcDbLine
 62
7
  6
CONTINUOUS
 10
-0.3921030472
 20
47.1324376792
 11
-0.1610891269
 21
47.1312675896
  0
LINE
  5
533
100
AcDbEntity
  8
0
100
AcDbLine
 62
7
  6
CONTINUOUS
 10
0.1610891269
 20
47.1657150661
 11
0.3921030472
 21
47.1645449765
  0
LINE
  5
534
100
AcDbEntity
  8
0
100
AcDbLine
 62
7
  6
CONTINUOUS
 10
-0.6008444806
 20
47.1345418401
 11
-0.3921030472
 21
47.1324376792
  0
LINE
  5
535
100
AcDbEntity
  8
0
100
AcDbLine
 62
7
  6
CONTINUOUS
 10
0.3921030472
 20
47.1645449765
 11
0.6008444806
 21
47.1624408157
  0
LINE
  5
536
100
AcDbEntity
  8
0
100
AcDbLine
 62
7
  6
CONTINUOUS
 10
-0.7210358529
 20
47.1364001769
 11
-0.6008444806
 21
47.1345418401
  0
LINE
  5
537
100
AcDbEntity
  8
0
100
AcDbLine
 62
7
  6
CONTINUOUS
 10
0.6008444806
 20
47.1624408157
 11
0.7210358529
 21
47.1605824788
  0
LWPOLYLINE
  5
538
100
AcDbEntity
  8
0
100
AcDbPolyline
 62
7
  6
CONTINUOUS
 90
9
 70
0
 10
0.7210358529
 20
47.1605824788
 10
0.8229838659
 20
47.1584054247
 10
0.865883451
 20
47.1572196289
 10
0.9034687216
 20
47.1559698141
 10
0.9350162427
 20
47.1546800365
 10
0.9604090503
 20
47.1533495219
 10
0.9797641084
 20
47.1519790445
 10
0.9927088741
 20
47.150594983
 10
0.9978905893
 20
47.1496243066
  0
CIRCLE
  5
539
100
AcDbEntity
  8
RACCORDO
100
AcDbCircle
 62
7
  6
CONTINUOUS
 10
-17.5
 20
-30.6659437343
 40
9.5
  0
CIRCLE
  5
53A
100
AcDbEntity
  8
RACCORDO
100
AcDbCircle
 62
250
  6
CONTINUOUS
 10
-17.5
 20
-30.6659437343
 40
8.9999990565
  0
ARC
  5
53B
100
AcDbEntity
  8
ASSI
100
AcDbCircle
 62
7
  6
CONTINUOUS
 10
-28.0
 20
-39.6659437343
 40
6.0
100
AcDbArc
 50
180.0
 51
270.0
  0
ARC
  5
53C
100
AcDbEntity
  8
DRAFT
100
AcDbCircle
 62
7
  6
CONTINUOUS
 10
-28.0
 20
-39.6659437343
 40
6.0
100
AcDbArc
 50
180.0
 51
270.0
  0
ARC
  5
53D
100
AcDbEntity
  8
RACCORDO
100
AcDbCircle
 62
250
  6
CONTINUOUS
 10
-28.0
 20
-39.6659437343
 40
5.3730280717
100
AcDbArc
 50
180.0
 51
270.0
  0
ARC
  5
53E
100
AcDbEntity
  8
RACCORDO
100
AcDbCircle
 62
7
  6
CONTINUOUS
 10
-28.0
 20
-39.6659437343
 40
4.2757899725
100
AcDbArc
 50
180.0
 51
270.0
  0
ARC
  5
53F
100
AcDbEntity
  8
DRAFT
100
AcDbCircle
 62
7
  6
CONTINUOUS
 10
-28.0
 20
-39.6659437343
 40
4.0
100
AcDbArc
 50
180.0
 51
270.0
  0
CIRCLE
  5
540
100
AcDbEntity
  8
0
100
AcDbCircle
 62
7
  6
CONTINUOUS
 10
-17.5
 20
-30.6659437343
 40
2.25
  0
CIRCLE
  5
541
100
AcDbEntity
  8
0
100
AcDbCircle
 62
7
  6
CONTINUOUS
 10
-17.5
 20
-30.6659437343
 40
1.8
  0
ARC
  5
542
100
AcDbEntity
  8
DRAFT
100
AcDbCircle
 62
7
  6
CONTINUOUS
 10
-28.0
 20
-39.6659437343
 40
1.7757900259
100
AcDbArc
 50
0.0
 51
90.0
  0
CIRCLE
  5
543
100
AcDbEntity
  8
0
100
AcDbCircle
 62
7
  6
CONTINUOUS
 10
-17.5
 20
-30.6659437343
 40
1.5
  0
ARC
  5
544
100
AcDbEntity
  8
DRAFT
100
AcDbCircle
 62
7
  6
CONTINUOUS
 10
-28.0
 20
-39.6659437343
 40
1.5
100
AcDbArc
 50
0.0
 51
90.0
  0
CIRCLE
  5
545
100
AcDbEntity
  8
RACCORDO
100
AcDbCircle
 62
7
  6
CONTINUOUS
 10
-17.5
 20
22.3340562657
 40
9.5
  0
CIRCLE
  5
546
100
AcDbEntity
  8
RACCORDO
100
AcDbCircle
 62
250
  6
CONTINUOUS
 10
-17.5
 20
22.3340562657
 40
8.9999990565
  0
ARC
  5
547
100
AcDbEntity
  8
ASSI
100
AcDbCircle
 62
7
  6
CONTINUOUS
 10
-28.0
 20
31.3340562657
 40
6.0
100
AcDbArc
 50
90.0
 51
180.0
  0
ARC
  5
548
100
AcDbEntity
  8
DRAFT
100
AcDbCircle
 62
7
  6
CONTINUOUS
 10
-28.0
 20
31.3340562657
 40
6.0
100
AcDbArc
 50
90.0
 51
180.0
  0
ARC
  5
549
100
AcDbEntity
  8
RACCORDO
100
AcDbCircle
 62
250
  6
CONTINUOUS
 10
-28.0
 20
31.3340562657
 40
5.3730280717
100
AcDbArc
 50
90.0
 51
180.0
  0
ARC
  5
54A
100
AcDbEntity
  8
RACCORDO
100
AcDbCircle
 62
7
  6
CONTINUOUS
 10
-28.0
 20
31.3340562657
 40
4.2757899725
100
AcDbArc
 50
90.0
 51
180.0
  0
ARC
  5
54B
100
AcDbEntity
  8
DRAFT
100
AcDbCircle
 62
7
  6
CONTINUOUS
 10
-28.0
 20
31.3340562657
 40
4.0
100
AcDbArc
 50
90.0
 51
180.0
  0
CIRCLE
  5
54C
100
AcDbEntity
  8
0
100
AcDbCircle
 62
7
  6
CONTINUOUS
 10
-17.5
 20
22.3340562657
 40
2.25
  0
CIRCLE
  5
54D
100
AcDbEntity
  8
0
100
AcDbCircle
 62
7
  6
CONTINUOUS
 10
-17.5
 20
22.3340562657
 40
1.8
  0
ARC
  5
54E
100
AcDbEntity
  8
DRAFT
100
AcDbCircle
 62
7
  6
CONTINUOUS
 10
-28.0
 20
31.3340562657
 40
1.7757900259
100
AcDbArc
 50
270.0
 51
360.0
  0
CIRCLE
  5
54F
100
AcDbEntity
  8
0
100
AcDbCircle
 62
7
  6
CONTINUOUS
 10
-17.5
 20
22.3340562657
 40
1.5
  0
ARC
  5
550
100
AcDbEntity
  8
DRAFT
100
AcDbCircle
 62
7
  6
CONTINUOUS
 10
-28.0
 20
31.3340562657
 40
1.5
100
AcDbArc
 50
270.0
 51
360.0
  0
CIRCLE
  5
551
100
AcDbEntity
  8
RACCORDO
100
AcDbCircle
 62
7
  6
CONTINUOUS
 10
17.5
 20
-30.6659437343
 40
9.5
  0
CIRCLE
  5
552
100
AcDbEntity
  8
RACCORDO
100
AcDbCircle
 62
250
  6
CONTINUOUS
 10
17.5
 20
-30.6659437343
 40
8.9999990565
  0
ARC
  5
553
100
AcDbEntity
  8
ASSI
100
AcDbCircle
 62
7
  6
CONTINUOUS
 10
28.0
 20
-39.6659437343
 40
6.0
100
AcDbArc
 50
270.0
 51
360.0
  0
ARC
  5
554
100
AcDbEntity
  8
DRAFT
100
AcDbCircle
 62
7
  6
CONTINUOUS
 10
28.0
 20
-39.6659437343
 40
6.0
100
AcDbArc
 50
270.0
 51
360.0
  0
ARC
  5
555
100
AcDbEntity
  8
RACCORDO
100
AcDbCircle
 62
250
  6
CONTINUOUS
 10
28.0
 20
-39.6659437343
 40
5.3730280717
100
AcDbArc
 50
270.0
 51
360.0
  0
CIRCLE
  5
556
100
AcDbEntity
  8
RACCORDO
100
AcDbCircle
 62
7
  6
CONTINUOUS
 10
-0.0
 20
-22.9659437343
 40
4.8
  0
CIRCLE
  5
557
100
AcDbEntity
  8
RACCORDO
100
AcDbCircle
 62
250
  6
CONTINUOUS
 10
-0.0
 20
-22.9659437343
 40
4.2999972642
  0
ARC
  5
558
100
AcDbEntity
  8
RACCORDO
100
AcDbCircle
 62
7
  6
CONTINUOUS
 10
28.0
 20
-39.6659437343
 40
4.2757899725
100
AcDbArc
 50
270.0
 51
360.0
  0
ARC
  5
559
100
AcDbEntity
  8
DRAFT
100
AcDbCircle
 62
7
  6
CONTINUOUS
 10
28.0
 20
-39.6659437343
 40
4.0
100
AcDbArc
 50
270.0
 51
360.0
  0
CIRCLE
  5
55A
100
AcDbEntity
  8
0
100
AcDbCircle
 62
7
  6
CONTINUOUS
 10
17.5
 20
-30.6659437343
 40
2.25
  0
CIRCLE
  5
55B
100
AcDbEntity
  8
0
100
AcDbCircle
 62
7
  6
CONTINUOUS
 10
17.5
 20
-30.6659437343
 40
1.8
  0
ARC
  5
55C
100
AcDbEntity
  8
DRAFT
100
AcDbCircle
 62
7
  6
CONTINUOUS
 10
28.0
 20
-39.6659437343
 40
1.7757900259
100
AcDbArc
 50
90.0
 51
180.0
  0
CIRCLE
  5
55D
100
AcDbEntity
  8
0
100
AcDbCircle
 62
7
  6
CONTINUOUS
 10
17.5
 20
-30.6659437343
 40
1.5
  0
ARC
  5
55E
100
AcDbEntity
  8
DRAFT
100
AcDbCircle
 62
7
  6
CONTINUOUS
 10
28.0
 20
-39.6659437343
 40
1.5
100
AcDbArc
 50
90.0
 51
180.0
  0
CIRCLE
  5
55F
100
AcDbEntity
  8
0
100
AcDbCircle
 62
7
  6
CONTINUOUS
 10
-0.0
 20
-4.1659437343
 40
11.25
  0
ARC
  5
560
100
AcDbEntity
  8
0
100
AcDbCircle
 62
7
  6
CONTINUOUS
 10
-0.0
 20
-4.1659437343
 40
11.0
100
AcDbArc
 50
185.7391704773
 51
264.2608295227
  0
ARC
  5
561
100
AcDbEntity
  8
0
100
AcDbCircle
 62
7
  6
CONTINUOUS
 10
-0.0
 20
-4.1659437343
 40
11.0
100
AcDbArc
 50
275.7391704773
 51
354.2608295227
  0
ARC
  5
562
100
AcDbEntity
  8
0
100
AcDbCircle
 62
7
  6
CONTINUOUS
 10
-0.0
 20
-4.1659437343
 40
11.0
100
AcDbArc
 50
95.7391704773
 51
174.2608295227
  0
ARC
  5
563
100
AcDbEntity
  8
0
100
AcDbCircle
 62
7
  6
CONTINUOUS
 10
-0.0
 20
-4.1659437343
 40
11.0
100
AcDbArc
 50
5.7391704773
 51
84.2608295227
  0
ARC
  5
564
100
AcDbEntity
  8
0
100
AcDbCircle
 62
7
  6
CONTINUOUS
 10
-0.0
 20
-4.1659437343
 40
10.1299689469
100
AcDbArc
 50
6.233965798
 51
83.766034202
  0
ARC
  5
565
100
AcDbEntity
  8
0
100
AcDbCircle
 62
7
  6
CONTINUOUS
 10
-0.0
 20
-4.1659437343
 40
10.1299689469
100
AcDbArc
 50
96.233965798
 51
173.766034202
  0
ARC
  5
566
100
AcDbEntity
  8
0
100
AcDbCircle
 62
7
  6
CONTINUOUS
 10
-0.0
 20
-4.1659437343
 40
10.1299689469
100
AcDbArc
 50
186.233965798
 51
263.766034202
  0
ARC
  5
567
100
AcDbEntity
  8
0
100
AcDbCircle
 62
7
  6
CONTINUOUS
 10
-0.0
 20
-4.1659437343
 40
10.1299689469
100
AcDbArc
 50
276.233965798
 51
353.766034202
  0
CIRCLE
  5
568
100
AcDbEntity
  8
RACCORDO
100
AcDbCircle
 62
7
  6
CONTINUOUS
 10
-0.0
 20
14.6340562657
 40
4.8
  0
CIRCLE
  5
569
100
AcDbEntity
  8
RACCORDO
100
AcDbCircle
 62
250
  6
CONTINUOUS
 10
-0.0
 20
14.6340562657
 40
4.2999972642
  0
CIRCLE
  5
56A
100
AcDbEntity
  8
RACCORDO
100
AcDbCircle
 62
7
  6
CONTINUOUS
 10
17.5
 20
22.3340562657
 40
9.5
  0
CIRCLE
  5
56B
100
AcDbEntity
  8
RACCORDO
100
AcDbCircle
 62
250
  6
CONTINUOUS
 10
17.5
 20
22.3340562657
 40
8.9999990565
  0
ARC
  5
56C
100
AcDbEntity
  8
ASSI
100
AcDbCircle
 62
7
  6
CONTINUOUS
 10
28.0
 20
31.3340562657
 40
6.0
100
AcDbArc
 50
0.0
 51
90.0
  0
ARC
  5
56D
100
AcDbEntity
  8
DRAFT
100
AcDbCircle
 62
7
  6
CONTINUOUS
 10
28.0
 20
31.3340562657
 40
6.0
100
AcDbArc
 50
0.0
 51
90.0
  0
ARC
  5
56E
100
AcDbEntity
  8
RACCORDO
100
AcDbCircle
 62
250
  6
CONTINUOUS
 10
28.0
 20
31.3340562657
 40
5.3730280717
100
AcDbArc
 50
0.0
 51
90.0
  0
ARC
  5
56F
100
AcDbEntity
  8
RACCORDO
100
AcDbCircle
 62
7
  6
CONTINUOUS
 10
28.0
 20
31.3340562657
 40
4.2757899725
100
AcDbArc
 50
0.0
 51
90.0
  0
ARC
  5
570
100
AcDbEntity
  8
DRAFT
100
AcDbCircle
 62
7
  6
CONTINUOUS
 10
28.0
 20
31.3340562657
 40
4.0
100
AcDbArc
 50
0.0
 51
90.0
  0
CIRCLE
  5
571
100
AcDbEntity
  8
0
100
AcDbCircle
 62
7
  6
CONTINUOUS
 10
17.5
 20
22.3340562657
 40
2.25
  0
CIRCLE
  5
572
100
AcDbEntity
  8
0
100
AcDbCircle
 62
7
  6
CONTINUOUS
 10
17.5
 20
22.3340562657
 40
1.8
  0
ARC
  5
573
100
AcDbEntity
  8
DRAFT
100
AcDbCircle
 62
7
  6
CONTINUOUS
 10
28.0
 20
31.3340562657
 40
1.7757900259
100
AcDbArc
 50
180.0
 51
270.0
  0
CIRCLE
  5
574
100
AcDbEntity
  8
0
100
AcDbCircle
 62
7
  6
CONTINUOUS
 10
17.5
 20
22.3340562657
 40
1.5
  0
ARC
  5
575
100
AcDbEntity
  8
DRAFT
100
AcDbCircle
 62
7
  6
CONTINUOUS
 10
28.0
 20
31.3340562657
 40
1.5
100
AcDbArc
 50
180.0
 51
270.0
  0
ENDSEC
  0
SECTION
  2
OBJECTS
  0
DICTIONARY
  5
C
100
AcDbDictionary
280
0
281
1
  3
ACAD_GROUP
350
D
  3
ACAD_MLINESTYLE
350
17
  3
ACAD_LAYOUT
350
1A
  3
ACAD_PLOTSETTINGS
350
19
  3
ACAD_PLOTSTYLENAME
350
E
  0
DICTIONARY
  5
D
102
{ACAD_REACTORS
330
C
102
}
100
AcDbDictionary
280
0
281
1
  0
ACDBDICTIONARYWDFLT
  5
E
102
{ACAD_REACTORS
330
C
102
}
100
AcDbDictionary
281
1
  3
Normal
350
F
100
AcDbDictionaryWithDefault
340
F
  0
DICTIONARY
  5
17
102
{ACAD_REACTORS
330
C
102
}
100
AcDbDictionary
280
0
281
1
  3
Standard
350
18
  0
DICTIONARY
  5
19
102
{ACAD_REACTORS
330
C
102
}
100
AcDbDictionary
281
1
  0
DICTIONARY
  5
1A
102
{ACAD_REACTORS
330
C
102
}
100
AcDbDictionary
281
1
  3
Model
350
576
  3
Layout1
350
577
  0
ACDBPLACEHOLDER
  5
F
102
{ACAD_REACTORS
330
E
102
}
  0
MLINESTYLE
  5
18
102
{ACAD_REACTORS
330
17
102
}
100
AcDbMlineStyle
  2
STANDARD
 70
0
  3

 62
256
 51
90.0
 52
90.0
 71
2
 49
0.5
 62
256
  6
BYLAYER
 49
-0.5
 62
256
  6
BYLAYER
  0
LAYOUT
  5
576
102
{ACAD_REACTORS
330
1A
102
}
100
AcDbPlotSettings
  1

  2
none_device
  4
ISO_A4_(297.00_x_210.00_MM)
  6

 40
0.0
 41
0.0
 42
0.0
 43
0.0
 44
297.0
 45
210.0
 46
0.0
 47
0.0
 48
0.0
 49
0.0
140
0.0
141
0.0
142
1.0
143
1.0
 70
1024
 72
1
 73
0
 74
0
  7

 75
0
147
1.0
148
0.0
149
0.0
100
AcDbLayout
  1
Model
 70
0
 71
0
 10
0.0
 20
0.0
 11
297.0
 21
210.0
 12
0.0
 22
0.0
 32
0.0
 14
0.0
 24
0.0
 34
0.0
 15
0.0
 25
0.0
 35
0.0
146
0.0
 13
0.0
 23
0.0
 33
0.0
 16
1.0
 26
0.0
 36
0.0
 17
0.0
 27
1.0
 37
0.0
 76
0
330
21B
345
0
346
0
  0
LAYOUT
  5
577
102
{ACAD_REACTORS
330
1A
102
}
100
AcDbPlotSettings
  1

  2
none_device
  4
ISO_A4_(297.00_x_210.00_MM)
  6

 40
0.0
 41
0.0
 42
0.0
 43
0.0
 44
297.0
 45
210.0
 46
0.0
 47
0.0
 48
0.0
 49
0.0
140
0.0
141
0.0
142
1.0
143
1.0
 70
0
 72
1
 73
0
 74
0
  7

 75
0
147
1.0
148
0.0
149
0.0
100
AcDbLayout
  1
Layout1
 70
0
 71
1
 10
0.0
 20
0.0
 11
297.0
 21
210.0
 12
0.0
 22
0.0
 32
0.0
 14
0.0
 24
0.0
 34
0.0
 15
0.0
 25
0.0
 35
0.0
146
0.0
 13
0.0
 23
0.0
 33
0.0
 16
1.0
 26
0.0
 36
0.0
 17
0.0
 27
1.0
 37
0.0
 76
0
330
21C
345
0
346
0
  0
ENDSEC
  0
EOF
