  0
SECTION
  2
HEADER
  9
$ACADVER
  1
AC1024
  9
$DWGCODEPAGE
  3
ANSI_1252
  9
$EXTMAX
 10
297.0
 20
210.0
 30
0.0
  9
$EXTMIN
 10
0.0
 20
0.0
 30
0.0
  9
$LIMMIN
 10
0.0
 20
0.0
  9
$LIMMAX
 10
297.0
 20
210.0
  9
$VIEWCTR
 10
148.5
 20
105.0
  9
$VIEWSIZE
 40
210.0
  9
$CLAYER
  8
0
  9
$LTSCALE
 40
16.335
  9
$CELTYPE
  6
BYLAYER
  9
$DIMSCALE
 40
1.0
  9
$DIMASZ
 40
3.0
  9
$DIMEXO
 40
0.5
  9
$DIMDLI
 40
11.286
  9
$DIMEXE
 40
1.5
  9
$DIMCEN
 40
2.673
  9
$DIMLFAC
 40
1.0
  9
$DIMBLK
  1
_FILLED
  9
$DIMALT
 70
0
  9
$DIMALTF
 40
0.0393700787
  9
$DIMTXT
 40
3.0
  9
$DIMTOL
 70
1
  9
$DIMLIM
 70
0
  9
$DIMTFAC
 40
1.0
  9
$DIMTP
 40
0.01
  9
$DIMTM
 40
0.01
  9
$DIMGAP
 40
0.625
  9
$DIMDSEP
 70
44
  9
$AUNITS
 70
0
  9
$PDMODE
 70
3
  9
$PDSIZE
 40
3.0
  9
$HANDSEED
  5
45B
  9
$TILEMODE
 70
1
  9
$MEASUREMENT
 70
1
  9
$INSUNITS
 70
4
  0
ENDSEC
  0
SECTION
  2
CLASSES
  0
CLASS
  1
ACDBDICTIONARYWDFLT
  2
AcDbDictionaryWithDefault
  3
AutoCAD 2000
 90
0
 91
1
280
0
281
0
  0
CLASS
  1
ACDBPLACEHOLDER
  2
AcDbPlaceHolder
  3
AutoCAD 2000
 90
0
 91
1
280
0
281
0
  0
CLASS
  1
LAYOUT
  2
AcDbLayout
  3
AutoCAD 2000
 90
0
 91
0
280
0
281
0
  0
ENDSEC
  0
SECTION
  2
TABLES
  0
TABLE
  2
VPORT
  5
8
100
AcDbSymbolTable
 70
2
  0
VPORT
  5
1F4
100
AcDbSymbolTableRecord
100
AcDbViewportTableRecord
  2
*ACTIVE
 70
0
 10
0.0
 20
0.0
 11
1.0
 21
1.0
 12
148.5
 22
105.0
 13
0.0
 23
0.0
 14
1.0
 24
1.0
 15
0.0
 25
0.0
 16
0.0
 26
0.0
 36
1.0
 17
0.0
 27
0.0
 37
0.0
 40
210.0
 41
1.4142857143
 42
50.0
 43
0.0
 44
0.0
 50
0.0
 51
0.0
 71
0
 72
100
 73
1
 74
1
 75
0
 76
0
 77
0
 78
0
  0
ENDTAB
  0
TABLE
  2
LTYPE
  5
5
100
AcDbSymbolTable
 70
6
  0
LTYPE
  5
14
100
AcDbSymbolTableRecord
100
AcDbLinetypeTableRecord
  2
BYBLOCK
 70
0
  3

 72
65
 73
0
 40
0.0
  0
LTYPE
  5
15
100
AcDbSymbolTableRecord
100
AcDbLinetypeTableRecord
  2
BYLAYER
 70
0
  3

 72
65
 73
0
 40
0.0
  0
LTYPE
  5
16
100
AcDbSymbolTableRecord
100
AcDbLinetypeTableRecord
  2
CONTINUOUS
 70
64
  3
Solid line
 72
65
 73
0
 40
0.0
  0
LTYPE
  5
1F5
100
AcDbSymbolTableRecord
100
AcDbLinetypeTableRecord
  2
CENTER
 70
64
  3
____ _ ____ _ ____ _ ____ _ ____ _ ____ _ ____
 72
65
 73
4
 40
0.6
 49
0.375
 74
0
 49
-0.075
 74
0
 49
0.075
 74
0
 49
-0.075
 74
0
  0
LTYPE
  5
1F6
100
AcDbSymbolTableRecord
100
AcDbLinetypeTableRecord
  2
HIDDEN
 70
64
  3
- - - - - - - - - - - - - - - - - - - -
 72
65
 73
2
 40
0.2
 49
0.1
 74
0
 49
-0.1
 74
0
  0
LTYPE
  5
1F7
100
AcDbSymbolTableRecord
100
AcDbLinetypeTableRecord
  2
PHANTOM
 70
64
  3
_____ _ _ _____ _ _ _____ _ _ _____
 72
65
 73
6
 40
0.8
 49
0.45
 74
0
 49
-0.05
 74
0
 49
0.1
 74
0
 49
-0.05
 74
0
 49
0.1
 74
0
 49
-0.05
 74
0
  0
LTYPE
  5
1F8
100
AcDbSymbolTableRecord
100
AcDbLinetypeTableRecord
  2
DOT
 70
64
  3
. . . . . . . . . . . . . . . . . . . .
 72
65
 73
2
 40
0.2
 49
0.1
 74
0
 49
-0.1
 74
0
  0
LTYPE
  5
1F9
100
AcDbSymbolTableRecord
100
AcDbLinetypeTableRecord
  2
DASHED
 70
64
  3
- - - - - - - - - - - - - - - - - - - -
 72
65
 73
2
 40
0.2
 49
0.1
 74
0
 49
-0.1
 74
0
  0
ENDTAB
  0
TABLE
  2
LAYER
  5
2
100
AcDbSymbolTable
 70
36
  0
LAYER
  5
10
100
AcDbSymbolTableRecord
100
AcDbLayerTableRecord
  2
0
 70
0
 62
7
  6
CONTINUOUS
370
-3
390
F
  0
LAYER
  5
1FA
100
AcDbSymbolTableRecord
100
AcDbLayerTableRecord
  2
DEFAULT_1
 70
0
 62
7
  6
CENTER
370
-3
390
F
  0
LAYER
  5
1FB
100
AcDbSymbolTableRecord
100
AcDbLayerTableRecord
  2
DEFAULT_2
 70
0
 62
7
  6
HIDDEN
370
-3
390
F
  0
LAYER
  5
1FC
100
AcDbSymbolTableRecord
100
AcDbLayerTableRecord
  2
DEFAULT_3
 70
0
 62
7
  6
PHANTOM
370
-3
390
F
  0
LAYER
  5
1FD
100
AcDbSymbolTableRecord
100
AcDbLayerTableRecord
  2
ASSI
 70
0
 62
7
  6
CONTINUOUS
370
-3
390
F
  0
LAYER
  5
1FE
100
AcDbSymbolTableRecord
100
AcDbLayerTableRecord
  2
COLOR5
 70
0
 62
7
  6
CONTINUOUS
370
-3
390
F
  0
LAYER
  5
1FF
100
AcDbSymbolTableRecord
100
AcDbLayerTableRecord
  2
COLORE_TOP
 70
0
 62
7
  6
CONTINUOUS
370
-3
390
F
  0
LAYER
  5
200
100
AcDbSymbolTableRecord
100
AcDbLayerTableRecord
  2
COORDINATE
 70
0
 62
7
  6
CONTINUOUS
370
-3
390
F
  0
LAYER
  5
201
100
AcDbSymbolTableRecord
100
AcDbLayerTableRecord
  2
COORD_ORIGINE
 70
0
 62
7
  6
CONTINUOUS
370
-3
390
F
  0
LAYER
  5
202
100
AcDbSymbolTableRecord
100
AcDbLayerTableRecord
  2
COPY-PUBBLISH
 70
0
 62
7
  6
CONTINUOUS
370
-3
390
F
  0
LAYER
  5
203
100
AcDbSymbolTableRecord
100
AcDbLayerTableRecord
  2
COPY_PABLISH
 70
0
 62
7
  6
CONTINUOUS
370
-3
390
F
  0
LAYER
  5
204
100
AcDbSymbolTableRecord
100
AcDbLayerTableRecord
  2
COPY_PUBLISH
 70
0
 62
7
  6
CONTINUOUS
370
-3
390
F
  0
LAYER
  5
205
100
AcDbSymbolTableRecord
100
AcDbLayerTableRecord
  2
COSMETICHE
 70
0
 62
7
  6
CONTINUOUS
370
-3
390
F
  0
LAYER
  5
206
100
AcDbSymbolTableRecord
100
AcDbLayerTableRecord
  2
COSMETICI
 70
0
 62
7
  6
CONTINUOUS
370
-3
390
F
  0
LAYER
  5
207
100
AcDbSymbolTableRecord
100
AcDbLayerTableRecord
  2
CURVE
 70
0
 62
7
  6
CONTINUOUS
370
-3
390
F
  0
LAYER
  5
208
100
AcDbSymbolTableRecord
100
AcDbLayerTableRecord
  2
DRAFT
 70
0
 62
7
  6
CONTINUOUS
370
-3
390
F
  0
LAYER
  5
209
100
AcDbSymbolTableRecord
100
AcDbLayerTableRecord
  2
IGES_SCRITTE
 70
0
 62
7
  6
CONTINUOUS
370
-3
390
F
  0
LAYER
  5
20A
100
AcDbSymbolTableRecord
100
AcDbLayerTableRecord
  2
IMPORTED
 70
0
 62
7
  6
CONTINUOUS
370
-3
390
F
  0
LAYER
  5
20B
100
AcDbSymbolTableRecord
100
AcDbLayerTableRecord
  2
IMPORT_IGES
 70
0
 62
7
  6
CONTINUOUS
370
-3
390
F
  0
LAYER
  5
20C
100
AcDbSymbolTableRecord
100
AcDbLayerTableRecord
  2
INTF_1
 70
0
 62
7
  6
CONTINUOUS
370
-3
390
F
  0
LAYER
  5
20D
100
AcDbSymbolTableRecord
100
AcDbLayerTableRecord
  2
INTF_11
 70
0
 62
7
  6
CONTINUOUS
370
-3
390
F
  0
LAYER
  5
20E
100
AcDbSymbolTableRecord
100
AcDbLayerTableRecord
  2
INTF_12
 70
0
 62
7
  6
CONTINUOUS
370
-3
390
F
  0
LAYER
  5
20F
100
AcDbSymbolTableRecord
100
AcDbLayerTableRecord
  2
INTF_2
 70
0
 62
7
  6
CONTINUOUS
370
-3
390
F
  0
LAYER
  5
210
100
AcDbSymbolTableRecord
100
AcDbLayerTableRecord
  2
INTF_3
 70
0
 62
7
  6
CONTINUOUS
370
-3
390
F
  0
LAYER
  5
211
100
AcDbSymbolTableRecord
100
AcDbLayerTableRecord
  2
INTF_4
 70
0
 62
7
  6
CONTINUOUS
370
-3
390
F
  0
LAYER
  5
212
100
AcDbSymbolTableRecord
100
AcDbLayerTableRecord
  2
INTF_7
 70
0
 62
7
  6
CONTINUOUS
370
-3
390
F
  0
LAYER
  5
213
100
AcDbSymbolTableRecord
100
AcDbLayerTableRecord
  2
INTF_MAGENTA
 70
0
 62
7
  6
CONTINUOUS
370
-3
390
F
  0
LAYER
  5
214
100
AcDbSymbolTableRecord
100
AcDbLayerTableRecord
  2
NOTE
 70
0
 62
7
  6
CONTINUOUS
370
-3
390
F
  0
LAYER
  5
215
100
AcDbSymbolTableRecord
100
AcDbLayerTableRecord
  2
PIANI
 70
0
 62
7
  6
CONTINUOUS
370
-3
390
F
  0
LAYER
  5
216
100
AcDbSymbolTableRecord
100
AcDbLayerTableRecord
  2
PIANI-RIFERIMENTO
 70
0
 62
7
  6
CONTINUOUS
370
-3
390
F
  0
LAYER
  5
217
100
AcDbSymbolTableRecord
100
AcDbLayerTableRecord
  2
PIANI_ORIGINE
 70
0
 62
7
  6
CONTINUOUS
370
-3
390
F
  0
LAYER
  5
218
100
AcDbSymbolTableRecord
100
AcDbLayerTableRecord
  2
PIANI_RIFERIMENTO
 70
0
 62
7
  6
CONTINUOUS
370
-3
390
F
  0
LAYER
  5
219
100
AcDbSymbolTableRecord
100
AcDbLayerTableRecord
  2
PUNTI
 70
0
 62
7
  6
CONTINUOUS
370
-3
390
F
  0
LAYER
  5
21A
100
AcDbSymbolTableRecord
100
AcDbLayerTableRecord
  2
RACCORDO
 70
0
 62
7
  6
CONTINUOUS
370
-3
390
F
  0
LAYER
  5
21B
100
AcDbSymbolTableRecord
100
AcDbLayerTableRecord
  2
RGB__255__255__255__
 70
0
 62
7
  6
CONTINUOUS
370
-3
390
F
  0
LAYER
  5
21C
100
AcDbSymbolTableRecord
100
AcDbLayerTableRecord
  2
RGB____0____0____0__
 70
0
 62
7
  6
CONTINUOUS
370
-3
390
F
  0
LAYER
  5
21D
100
AcDbSymbolTableRecord
100
AcDbLayerTableRecord
  2
RINTRACCIABILITA
 70
0
 62
7
  6
CONTINUOUS
370
-3
390
F
  0
LAYER
  5
21E
100
AcDbSymbolTableRecord
100
AcDbLayerTableRecord
  2
SIMBOLI
 70
0
 62
7
  6
CONTINUOUS
370
-3
390
F
  0
LAYER
  5
21F
100
AcDbSymbolTableRecord
100
AcDbLayerTableRecord
  2
SMUSSO
 70
0
 62
7
  6
CONTINUOUS
370
-3
390
F
  0
LAYER
  5
220
100
AcDbSymbolTableRecord
100
AcDbLayerTableRecord
  2
SNAPLINE
 70
0
 62
7
  6
CONTINUOUS
370
-3
390
F
  0
LAYER
  5
221
100
AcDbSymbolTableRecord
100
AcDbLayerTableRecord
  2
SUPERFICI
 70
0
 62
7
  6
CONTINUOUS
370
-3
390
F
  0
LAYER
  5
222
100
AcDbSymbolTableRecord
100
AcDbLayerTableRecord
  2
TESTO
 70
0
 62
7
  6
CONTINUOUS
370
-3
390
F
  0
LAYER
  5
223
100
AcDbSymbolTableRecord
100
AcDbLayerTableRecord
  2
TRASH
 70
0
 62
7
  6
CONTINUOUS
370
-3
390
F
  0
LAYER
  5
224
100
AcDbSymbolTableRecord
100
AcDbLayerTableRecord
  2
XSEC_DATUMS
 70
0
 62
7
  6
CONTINUOUS
370
-3
390
F
  0
ENDTAB
  0
TABLE
  2
STYLE
  5
3
100
AcDbSymbolTable
 70
1
  0
STYLE
  5
11
100
AcDbSymbolTableRecord
100
AcDbTextStyleTableRecord
  2
STANDARD
 70
0
 40
0.0
 41
0.8
 50
0.0
 71
0
 42
0.2
  3
txt
  4

  0
STYLE
  5
225
100
AcDbSymbolTableRecord
100
AcDbTextStyleTableRecord
  2
TEXTSTYLE_1
 70
0
 40
0.0
 41
0.8
 50
0.0
 71
0
 42
0.2
  3
gdt
  4

  0
ENDTAB
  0
TABLE
  2
VIEW
  5
6
100
AcDbSymbolTable
 70
0
  0
ENDTAB
  0
TABLE
  2
UCS
  5
7
100
AcDbSymbolTable
 70
0
  0
ENDTAB
  0
TABLE
  2
APPID
  5
9
100
AcDbSymbolTable
 70
1
  0
APPID
  5
226
100
AcDbSymbolTableRecord
100
AcDbRegAppTableRecord
  2
ACAD
 70
0
  0
ENDTAB
  0
TABLE
  2
BLOCK_RECORD
  5
1
100
AcDbSymbolTable
 70
0
  0
BLOCK_RECORD
  5
227
100
AcDbSymbolTableRecord
100
AcDbBlockTableRecord
  2
*Model_Space
  0
BLOCK_RECORD
  5
228
100
AcDbSymbolTableRecord
100
AcDbBlockTableRecord
  2
*Paper_Space
  0
BLOCK_RECORD
  5
229
100
AcDbSymbolTableRecord
100
AcDbBlockTableRecord
  2
_FILLED
  0
ENDTAB
  0
TABLE
  2
DIMSTYLE
  5
A
100
AcDbSymbolTable
 70
1
100
AcDbDimStyleTable
 71
0
  0
DIMSTYLE
105
22A
100
AcDbSymbolTableRecord
100
AcDbDimStyleTableRecord
  2
STANDARD
 70
0
  3

  4

 40
1.0
 41
3.0
 42
0.5
 43
0.38
 44
1.5
 45
0.0
 46
0.0
 47
0.01
 48
0.01
140
3.0
141
0.09
142
0.0
143
25.4
144
1.0
145
0.0
146
1.0
147
0.625
 71
1
 72
0
 73
0
 74
0
 75
0
 76
0
 77
1
 78
8
 79
2
170
0
171
1
172
0
173
0
174
0
175
0
176
0
177
0
178
0
270
2
179
2
271
2
272
2
273
2
274
2
275
0
280
0
281
0
282
0
283
1
284
8
285
0
286
0
287
3
288
0
340
11
278
44
341
229
342
229
343
229
344
229
  0
ENDTAB
  0
ENDSEC
  0
SECTION
  2
BLOCKS
  0
BLOCK
  5
20
100
AcDbEntity
  8
0
100
AcDbBlockBegin
  2
*Model_Space
 70
0
 10
0.0
 20
0.0
 30
0.0
  3
*Model_Space
  1

  0
ENDBLK
  5
21
100
AcDbEntity
  8
0
100
AcDbBlockEnd
  0
BLOCK
  5
1C
100
AcDbEntity
  8
0
100
AcDbBlockBegin
  2
*Paper_Space
 70
0
 10
0.0
 20
0.0
 30
0.0
  3
*Paper_Space
  1

  0
ENDBLK
  5
1D
100
AcDbEntity
  8
0
100
AcDbBlockEnd
  0
BLOCK
  5
22B
100
AcDbEntity
  8
0
100
AcDbBlockBegin
  2
_FILLED
 70
64
 10
0.0
 20
0.0
  3
_FILLED
  1

  0
SOLID
  5
22C
100
AcDbEntity
  8
0
  6
BYBLOCK
 62
0
100
AcDbTrace
 10
0.0
 20
0.0
 11
-1.0
 21
0.3166666667
 12
-1.0
 22
-0.3166666667
 13
-1.0
 23
-0.3166666667
  0
ENDBLK
  5
22D
100
AcDbEntity
  8
0
  6
BYBLOCK
 62
0
100
AcDbBlockEnd
  0
ENDSEC
  0
SECTION
  2
ENTITIES
  0
LINE
  5
22E
100
AcDbEntity
  8
DRAFT
100
AcDbLine
 62
7
  6
CONTINUOUS
 10
-26.5
 20
-44.4159115417
 11
-26.2242099741
 21
-44.6917015676
  0
LINE
  5
22F
100
AcDbEntity
  8
DRAFT
100
AcDbLine
 62
7
  6
CONTINUOUS
 10
-32.0
 20
-38.9159115417
 11
-32.2757899725
 21
-38.6401215692
  0
LWPOLYLINE
  5
230
100
AcDbEntity
  8
0
100
AcDbPolyline
 62
250
  6
CONTINUOUS
 90
8
 70
0
 10
13.8806040641
 20
-45.865833259
 10
13.9797329699
 20
-45.8596830992
 10
14.0773338563
 20
-45.8412980371
 10
14.1719022565
 20
-45.8109614685
 10
14.261980448
 20
-45.7691410158
 10
14.3461799222
 20
-45.7164813193
 10
14.4232027882
 20
-45.6537941006
 10
14.437348211
 20
-45.6404182354
  0
LWPOLYLINE
  5
231
100
AcDbEntity
  8
0
100
AcDbPolyline
 62
7
  6
CONTINUOUS
 90
19
 70
0
 10
13.9233915413
 20
-45.7889396146
 10
13.9655663556
 20
-45.7870160559
 10
14.007480448
 20
-45.7829396352
 10
14.0491338183
 20
-45.7767100014
 10
14.0906144522
 20
-45.768335893
 10
14.1318343641
 20
-45.7578228982
 10
14.1725295968
 20
-45.7451626882
 10
14.21265612
 20
-45.7303855894
 10
14.252257964
 20
-45.7134865803
 10
14.2912032618
 20
-45.694365126
 10
14.3295559877
 20
-45.6729869738
 10
14.3672521674
 20
-45.6493601854
 10
14.4039680116
 20
-45.6234014921
 10
14.4397077556
 20
-45.5951339159
 10
14.4744671641
 20
-45.5645200071
 10
14.5079097422
 20
-45.5313384806
 10
14.5399233252
 20
-45.4954831633
 10
14.5706200777
 20
-45.4570085481
 10
14.6
 20
-45.4159115417
  0
LINE
  5
232
100
AcDbEntity
  8
0
100
AcDbLine
 62
250
  6
CONTINUOUS
 10
20.9877775347
 20
-45.8747250987
 11
20.9012822569
 21
-45.876982478
  0
LINE
  5
233
100
AcDbEntity
  8
0
100
AcDbLine
 62
250
  6
CONTINUOUS
 10
20.9012822569
 20
-45.876982478
 11
20.7957368149
 21
-45.8789853905
  0
LINE
  5
234
100
AcDbEntity
  8
0
100
AcDbLine
 62
250
  6
CONTINUOUS
 10
20.7957368149
 20
-45.8789853905
 11
20.6744828485
 21
-45.880679061
  0
LINE
  5
235
100
AcDbEntity
  8
0
100
AcDbLine
 62
250
  6
CONTINUOUS
 10
20.6744828485
 20
-45.880679061
 11
20.5400111366
 21
-45.882032011
  0
LINE
  5
236
100
AcDbEntity
  8
0
100
AcDbLine
 62
250
  6
CONTINUOUS
 10
20.5400111366
 20
-45.882032011
 11
20.3231391919
 21
-45.8833430149
  0
LINE
  5
237
100
AcDbEntity
  8
0
100
AcDbLine
 62
250
  6
CONTINUOUS
 10
20.3231391919
 20
-45.8833430149
 11
20.1
 21
-45.8837744819
  0
LINE
  5
238
100
AcDbEntity
  8
DRAFT
100
AcDbLine
 62
7
  6
CONTINUOUS
 10
-28.0
 20
-46.4159115417
 11
28.0
 21
-46.4159115417
  0
LINE
  5
239
100
AcDbEntity
  8
ASSI
100
AcDbLine
 62
7
  6
CONTINUOUS
 10
28.0
 20
-46.4159115417
 11
-28.0
 21
-46.4159115417
  0
LINE
  5
23A
100
AcDbEntity
  8
0
100
AcDbLine
 62
250
  6
CONTINUOUS
 10
-28.0
 20
-45.7889396146
 11
13.923397555
 21
-45.7889396146
  0
LINE
  5
23B
100
AcDbEntity
  8
0
100
AcDbLine
 62
250
  6
CONTINUOUS
 10
21.0766024408
 20
-45.7889396146
 11
28.0
 21
-45.7889396146
  0
LWPOLYLINE
  5
23C
100
AcDbEntity
  8
0
100
AcDbPolyline
 62
7
  6
CONTINUOUS
 90
27
 70
0
 10
-0.0
 20
-46.2326027873
 10
-0.7123686793
 20
-46.232210152
 10
-1.4167418309
 20
-46.2310710372
 10
-2.1131194549
 20
-46.2291854429
 10
-2.8040759678
 20
-46.2265405855
 10
-3.487036953
 20
-46.2231492487
 10
-4.1542791612
 20
-46.2190497832
 10
-4.8056241641
 20
-46.2142341509
 10
-5.4412503899
 20
-46.2087103901
 10
-6.0539698731
 20
-46.2025409659
 10
-6.6435225932
 20
-46.1957185494
 10
-7.2101685707
 20
-46.1882504696
 10
-7.7474999019
 20
-46.1802211791
 10
-8.2551838284
 20
-46.1716243075
 10
-8.7335531086
 20
-46.1624662252
 10
-9.1771981137
 20
-46.1528504963
 10
-9.5857246794
 20
-46.1427719257
 10
-9.95952697
 20
-46.1322357085
 10
-10.2943778506
 20
-46.1213609932
 10
-10.5898351732
 20
-46.1101439374
 10
-10.8463410857
 20
-46.0985883835
 10
-11.0609948965
 20
-46.0868250072
 10
-11.2333215313
 20
-46.0748514495
 10
-11.3637960644
 20
-46.0626700694
 10
-11.4509430274
 20
-46.0504186198
 10
-11.4942705975
 20
-46.0380963053
 10
-11.5
 20
-46.0319001133
  0
LWPOLYLINE
  5
23D
100
AcDbEntity
  8
0
100
AcDbPolyline
 62
7
  6
CONTINUOUS
 90
27
 70
0
 10
-0.0
 20
-45.8311974393
 10
0.7123686793
 20
-45.8315900746
 10
1.4167418309
 20
-45.8327291894
 10
2.1131194549
 20
-45.8346147837
 10
2.8040759678
 20
-45.8372596411
 10
3.487036953
 20
-45.8406509779
 10
4.1542791612
 20
-45.8447504434
 10
4.8056241641
 20
-45.8495660756
 10
5.4412503899
 20
-45.8550898365
 10
6.0539698731
 20
-45.8612592606
 10
6.6435225932
 20
-45.8680816772
 10
7.2101685707
 20
-45.875549757
 10
7.7474999019
 20
-45.8835790475
 10
8.2551838284
 20
-45.8921759191
 10
8.7335531086
 20
-45.9013340013
 10
9.1771981137
 20
-45.9109497303
 10
9.5857246794
 20
-45.9210283008
 10
9.95952697
 20
-45.931564518
 10
10.2943778506
 20
-45.9424392334
 10
10.5898351732
 20
-45.9536562892
 10
10.8463410857
 20
-45.9652118431
 10
11.0609948965
 20
-45.9769752194
 10
11.2333215313
 20
-45.9889487771
 10
11.3637960644
 20
-46.0011301572
 10
11.4509430274
 20
-46.0133816068
 10
11.4942705975
 20
-46.0257039213
 10
11.5
 20
-46.0319001133
  0
LINE
  5
23E
100
AcDbEntity
  8
0
100
AcDbLine
 62
250
  6
CONTINUOUS
 10
20.1
 20
-45.8837744819
 11
14.7505541033
 21
-45.883584577
  0
LINE
  5
23F
100
AcDbEntity
  8
0
100
AcDbLine
 62
250
  6
CONTINUOUS
 10
14.7505541033
 20
-45.883584577
 11
14.5306116869
 21
-45.8825645945
  0
LINE
  5
240
100
AcDbEntity
  8
0
100
AcDbLine
 62
250
  6
CONTINUOUS
 10
14.5306116869
 20
-45.8825645945
 11
14.3917038015
 21
-45.8814031641
  0
LINE
  5
241
100
AcDbEntity
  8
0
100
AcDbLine
 62
250
  6
CONTINUOUS
 10
14.3917038015
 20
-45.8814031641
 11
14.2630832044
 21
-45.8798749473
  0
LINE
  5
242
100
AcDbEntity
  8
0
100
AcDbLine
 62
250
  6
CONTINUOUS
 10
14.2630832044
 20
-45.8798749473
 11
14.1491987609
 21
-45.8780163827
  0
LWPOLYLINE
  5
243
100
AcDbEntity
  8
0
100
AcDbPolyline
 62
250
  6
CONTINUOUS
 90
10
 70
0
 10
14.1491987609
 20
-45.8780163827
 10
14.0531623698
 20
-45.8758862088
 10
14.0122548231
 20
-45.874726086
 10
13.9767582441
 20
-45.8735280991
 10
13.9468438943
 20
-45.8722916867
 10
13.9223405122
 20
-45.8710174102
 10
13.9034451345
 20
-45.8697317811
 10
13.89022344
 20
-45.8684436366
 10
13.8826097498
 20
-45.8671441397
 10
13.880604064
 20
-45.8658332902
  0
LWPOLYLINE
  5
244
100
AcDbEntity
  8
0
100
AcDbPolyline
 62
250
  6
CONTINUOUS
 90
8
 70
0
 10
-33.4499217485
 20
-35.0353074777
 10
-33.4512328023
 20
-35.0333044949
 10
-33.4525326416
 20
-35.0256865281
 10
-33.4538212666
 20
-35.0124535773
 10
-33.4551075974
 20
-34.9935391849
 10
-33.4563827137
 20
-34.9690098085
 10
-33.4576198546
 20
-34.9390648215
 10
-33.4588184195
 20
-34.9035299014
  0
LINE
  5
245
100
AcDbEntity
  8
DRAFT
100
AcDbLine
 62
7
  6
CONTINUOUS
 10
-32.0
 20
29.0840884583
 11
-32.2757899725
 21
28.8082984858
  0
LINE
  5
246
100
AcDbEntity
  8
DRAFT
100
AcDbLine
 62
7
  6
CONTINUOUS
 10
-26.5
 20
34.5840884583
 11
-26.2242099741
 21
34.8598784842
  0
LWPOLYLINE
  5
247
100
AcDbEntity
  8
0
100
AcDbPolyline
 62
250
  6
CONTINUOUS
 90
8
 70
0
 10
-21.119395936
 20
36.0340102067
 10
-21.1173897144
 20
36.035320985
 10
-21.1097772139
 20
36.036620383
 10
-21.0965584344
 20
36.0379084006
 10
-21.0776678813
 20
36.0391938574
 10
-21.0531710492
 20
36.0404679339
 10
-21.0232644223
 20
36.0417041717
 10
-20.9877775347
 20
36.0429020153
  0
LWPOLYLINE
  5
248
100
AcDbEntity
  8
RACCORDO
100
AcDbPolyline
 62
7
  6
CONTINUOUS
 90
6
 70
0
 10
-3.9318001715
 20
45.6085116801
 10
-3.916171827
 20
45.615793874
 10
-3.9019257866
 20
45.6215638872
 10
-3.8891890334
 20
45.6260771385
 10
-3.8783802719
 20
45.6294637743
 10
-3.8694209107
 20
45.6319835259
  0
LWPOLYLINE
  5
249
100
AcDbEntity
  8
RACCORDO
100
AcDbPolyline
 62
7
  6
CONTINUOUS
 90
6
 70
0
 10
-8.1792111858
 20
43.9123209373
 10
-8.1609122323
 20
43.9207799341
 10
-8.144029736
 20
43.9274598113
 10
-8.1287099056
 20
43.9326910881
 10
-8.1154742322
 20
43.9366445659
 10
-8.1105197227
 20
43.9380022492
  0
LWPOLYLINE
  5
24A
100
AcDbEntity
  8
RACCORDO
100
AcDbPolyline
 62
7
  6
CONTINUOUS
 90
6
 70
0
 10
-9.928145133
 20
42.1404518146
 10
-9.9086191812
 20
42.1494458931
 10
-9.8905001707
 20
42.1565406649
 10
-9.8739424547
 20
42.1621024871
 10
-9.8595146254
 20
42.1663221066
 10
-9.8568936068
 20
42.1670323952
  0
LINE
  5
24B
100
AcDbEntity
  8
0
100
AcDbLine
 62
7
  6
CONTINUOUS
 10
-0.999390827
 20
46.3991326007
 11
-0.997906418
 21
46.3996522448
  0
LINE
  5
24C
100
AcDbEntity
  8
RACCORDO
100
AcDbLine
 62
250
  6
CONTINUOUS
 10
-11.6032888661
 20
40.3290796759
 11
-11.6205624659
 21
40.3230338252
  0
LINE
  5
24D
100
AcDbEntity
  8
RACCORDO
100
AcDbLine
 62
250
  6
CONTINUOUS
 10
-9.8568937803
 20
42.1670323489
 11
-9.8716285186
 21
42.1618800435
  0
LINE
  5
24E
100
AcDbEntity
  8
RACCORDO
100
AcDbLine
 62
250
  6
CONTINUOUS
 10
-8.1105200038
 20
43.938002174
 11
-8.1226945714
 21
43.9337491662
  0
LINE
  5
24F
100
AcDbEntity
  8
0
100
AcDbLine
 62
7
  6
CONTINUOUS
 10
-5.9963449621
 20
44.5024673809
 11
-5.9873182282
 21
44.5056175577
  0
LINE
  5
250
100
AcDbEntity
  8
RACCORDO
100
AcDbLine
 62
250
  6
CONTINUOUS
 10
-3.8694213154
 20
45.6319834177
 11
-3.8752835565
 21
45.6299399093
  0
LINE
  5
251
100
AcDbEntity
  8
0
100
AcDbLine
 62
7
  6
CONTINUOUS
 10
14.6
 20
-45.4159115417
 11
20.4
 21
-45.4159115417
  0
LINE
  5
252
100
AcDbEntity
  8
RACCORDO
100
AcDbLine
 62
7
  6
CONTINUOUS
 10
-28.0
 20
-44.6917015142
 11
-26.2242100275
 21
-44.6917015142
  0
LINE
  5
253
100
AcDbEntity
  8
RACCORDO
100
AcDbLine
 62
7
  6
CONTINUOUS
 10
28.0
 20
-44.6917015142
 11
26.2242100275
 21
-44.6917015142
  0
LINE
  5
254
100
AcDbEntity
  8
RACCORDO
100
AcDbLine
 62
250
  6
CONTINUOUS
 10
-26.2242099741
 20
-44.6891071499
 11
26.2242099741
 21
-44.6891071499
  0
LINE
  5
255
100
AcDbEntity
  8
DRAFT
100
AcDbLine
 62
7
  6
CONTINUOUS
 10
-28.0
 20
-44.4159115417
 11
-26.5
 21
-44.4159115417
  0
LINE
  5
256
100
AcDbEntity
  8
DRAFT
100
AcDbLine
 62
7
  6
CONTINUOUS
 10
28.0
 20
-44.4159115417
 11
26.5
 21
-44.4159115417
  0
LWPOLYLINE
  5
257
100
AcDbEntity
  8
0
100
AcDbPolyline
 62
250
  6
CONTINUOUS
 90
7
 70
0
 10
21.1193959357
 20
-45.8658427132
 10
21.0202668787
 20
-45.8596907682
 10
20.9226660438
 20
-45.8413040291
 10
20.8280978689
 20
-45.8109659128
 10
20.7380200463
 20
-45.7691440568
 10
20.6538210528
 20
-45.7164831112
 10
20.5742287326
 20
-45.6514126826
  0
LWPOLYLINE
  5
258
100
AcDbEntity
  8
0
100
AcDbPolyline
 62
7
  6
CONTINUOUS
 90
4
 70
0
 10
-33.223983283
 20
-28.3537994444
 10
-33.1661341088
 20
-28.4077733202
 10
-33.0864303921
 20
-28.4670100921
 10
-33.0
 20
-28.5159115417
  0
LWPOLYLINE
  5
259
100
AcDbEntity
  8
RACCORDO
100
AcDbPolyline
 62
250
  6
CONTINUOUS
 90
5
 70
0
 10
-9.8716285186
 20
42.1618800435
 10
-9.8775406806
 20
42.1566594325
 10
-9.8740584304
 20
42.1512179387
 10
-9.8599905161
 20
42.1455612309
 10
-9.8342077684
 20
42.1397144941
  0
LWPOLYLINE
  5
25A
100
AcDbEntity
  8
RACCORDO
100
AcDbPolyline
 62
7
  6
CONTINUOUS
 90
8
 70
0
 10
-13.4391308455
 20
38.5248949775
 10
-13.3991818181
 20
38.5438184218
 10
-13.362127859
 20
38.5595914037
 10
-13.3281837226
 20
38.5726324008
 10
-13.2980631538
 20
38.5831414667
 10
-13.2713471077
 20
38.5916710338
 10
-13.2464462527
 20
38.5989855037
 10
-13.230702613
 20
38.6033083706
  0
LWPOLYLINE
  5
25B
100
AcDbEntity
  8
RACCORDO
100
AcDbPolyline
 62
7
  6
CONTINUOUS
 90
5
 70
0
 10
-11.6770790803
 20
40.3016055963
 10
-11.6560314091
 20
40.3112559814
 10
-11.6363741342
 20
40.3188493992
 10
-11.6182720307
 20
40.3248008468
 10
-11.6032886099
 20
40.3290797444
  0
LINE
  5
25C
100
AcDbEntity
  8
RACCORDO
100
AcDbLine
 62
250
  6
CONTINUOUS
 10
-13.2307031077
 20
38.6033082383
 11
-13.2507421308
 21
38.5963224072
  0
LINE
  5
25D
100
AcDbEntity
  8
RACCORDO
100
AcDbLine
 62
250
  6
CONTINUOUS
 10
8.1067765589
 20
43.9186401921
 11
8.1226945714
 21
43.92384839
  0
LINE
  5
25E
100
AcDbEntity
  8
DRAFT
100
AcDbLine
 62
250
  6
CONTINUOUS
 10
-26.5
 20
-40.4159115417
 11
-26.2242099741
 21
-40.4159115417
  0
LINE
  5
25F
100
AcDbEntity
  8
DRAFT
100
AcDbLine
 62
250
  6
CONTINUOUS
 10
26.5
 20
-40.4159115417
 11
26.2242099741
 21
-40.4159115417
  0
LINE
  5
260
100
AcDbEntity
  8
RACCORDO
100
AcDbLine
 62
250
  6
CONTINUOUS
 10
32.0
 20
-40.4159115417
 11
34.0
 21
-40.4159115417
  0
LINE
  5
261
100
AcDbEntity
  8
RACCORDO
100
AcDbLine
 62
250
  6
CONTINUOUS
 10
-32.0
 20
-40.4159115417
 11
-34.0
 21
-40.4159115417
  0
LINE
  5
262
100
AcDbEntity
  8
DRAFT
100
AcDbLine
 62
7
  6
CONTINUOUS
 10
28.0
 20
-38.9159115417
 11
32.0
 21
-38.9159115417
  0
LINE
  5
263
100
AcDbEntity
  8
DRAFT
100
AcDbLine
 62
7
  6
CONTINUOUS
 10
-28.0
 20
-38.9159115417
 11
-32.0
 21
-38.9159115417
  0
LINE
  5
264
100
AcDbEntity
  8
DRAFT
100
AcDbLine
 62
7
  6
CONTINUOUS
 10
28.0
 20
-38.6401215158
 11
32.2731956082
 21
-38.6401215158
  0
LINE
  5
265
100
AcDbEntity
  8
DRAFT
100
AcDbLine
 62
7
  6
CONTINUOUS
 10
-28.0
 20
-38.6401215158
 11
-32.2731956082
 21
-38.6401215158
  0
LWPOLYLINE
  5
266
100
AcDbEntity
  8
0
100
AcDbPolyline
 62
250
  6
CONTINUOUS
 90
10
 70
0
 10
-33.4499217485
 20
-27.7965156057
 10
-33.441287266
 20
-27.8007781712
 10
-33.4326754337
 20
-27.8051623043
 10
-33.4240862517
 20
-27.8096680051
 10
-33.4155196734
 20
-27.8142932749
 10
-33.4069757452
 20
-27.8190401124
 10
-33.3984546071
 20
-27.8239145138
 10
-33.3899563057
 20
-27.8289184776
 10
-33.3814807943
 20
-27.8340500053
 10
-33.3730280729
 20
-27.8393090967
  0
LWPOLYLINE
  5
267
100
AcDbEntity
  8
0
100
AcDbPolyline
 62
250
  6
CONTINUOUS
 90
8
 70
0
 10
-33.4499217173
 20
-27.7965156058
 10
-33.4437715575
 20
-27.8956445116
 10
-33.4253864954
 20
-27.993245398
 10
-33.3950499268
 20
-28.0878137983
 10
-33.3532294741
 20
-28.1778919897
 10
-33.3005697776
 20
-28.2620914639
 10
-33.2378825589
 20
-28.3391143299
 10
-33.223983283
 20
-28.3537994444
  0
LWPOLYLINE
  5
268
100
AcDbEntity
  8
0
100
AcDbPolyline
 62
7
  6
CONTINUOUS
 90
19
 70
0
 10
-33.3730280729
 20
-27.839303083
 10
-33.3711045091
 20
-27.8814779683
 10
-33.3670280777
 20
-27.9233921184
 10
-33.3607984293
 20
-27.9650455333
 10
-33.3524243049
 20
-28.006526197
 10
-33.3419112943
 20
-28.0477461254
 10
-33.3292510692
 20
-28.0884413667
 10
-33.3144739562
 20
-28.1285678919
 10
-33.2975749356
 20
-28.16816973
 10
-33.2784534733
 20
-28.2071150159
 10
-33.2570753183
 20
-28.2454677221
 10
-33.2334485325
 20
-28.2831638761
 10
-33.2074898448
 20
-28.3198796947
 10
-33.1792222755
 20
-28.3556194153
 10
-33.1486083764
 20
-28.3903788005
 10
-33.1154268642
 20
-28.4238213553
 10
-33.0795715665
 20
-28.4558349146
 10
-33.0410969761
 20
-28.4865316434
 10
-33.0
 20
-28.5159115417
  0
LINE
  5
269
100
AcDbEntity
  8
0
100
AcDbLine
 62
250
  6
CONTINUOUS
 10
-33.4588184195
 20
-34.9035299014
 11
-33.4610766631
 21
-34.8169355696
  0
LINE
  5
26A
100
AcDbEntity
  8
0
100
AcDbLine
 62
250
  6
CONTINUOUS
 10
-33.4610766631
 20
-34.8169355696
 11
-33.4630790109
 21
-34.7113295684
  0
LWPOLYLINE
  5
26B
100
AcDbEntity
  8
0
100
AcDbPolyline
 62
7
  6
CONTINUOUS
 90
4
 70
0
 10
-14.437348211
 20
35.808595152
 10
-14.4918617785
 20
35.7502225671
 10
-14.5510985504
 20
35.6705188504
 10
-14.6
 20
35.5840884583
  0
LWPOLYLINE
  5
26C
100
AcDbEntity
  8
RACCORDO
100
AcDbPolyline
 62
250
  6
CONTINUOUS
 90
4
 70
0
 10
-8.1226945714
 20
43.9337491662
 10
-8.1276305203
 20
43.9285210695
 10
-8.1209747138
 20
43.9230525203
 10
-8.1011401975
 20
43.917352266
  0
LWPOLYLINE
  5
26D
100
AcDbEntity
  8
RACCORDO
100
AcDbPolyline
 62
250
  6
CONTINUOUS
 90
4
 70
0
 10
-11.6205624659
 20
40.3230338252
 10
-11.6276400298
 20
40.3161576472
 10
-11.620753814
 20
40.3089654428
 10
-11.5979880179
 20
40.3014668365
  0
LINE
  5
26E
100
AcDbEntity
  8
RACCORDO
100
AcDbLine
 62
250
  6
CONTINUOUS
 10
9.8567155421
 20
42.1446472775
 11
9.8716285186
 21
42.1498474866
  0
LINE
  5
26F
100
AcDbEntity
  8
RACCORDO
100
AcDbLine
 62
250
  6
CONTINUOUS
 10
11.6002150753
 20
40.3020206516
 11
11.6205624659
 21
40.3088694876
  0
LINE
  5
270
100
AcDbEntity
  8
0
100
AcDbLine
 62
250
  6
CONTINUOUS
 10
-33.4678629402
 20
-34.0159115417
 11
-33.0
 21
-34.0159115417
  0
LINE
  5
271
100
AcDbEntity
  8
0
100
AcDbLine
 62
250
  6
CONTINUOUS
 10
-33.4630790109
 20
-34.7113295684
 11
-33.4647713122
 21
-34.5900812245
  0
LINE
  5
272
100
AcDbEntity
  8
0
100
AcDbLine
 62
250
  6
CONTINUOUS
 10
-33.4647713122
 20
-34.5900812245
 11
-33.4661224884
 21
-34.455680762
  0
LINE
  5
273
100
AcDbEntity
  8
0
100
AcDbLine
 62
250
  6
CONTINUOUS
 10
-33.4661224884
 20
-34.455680762
 11
-33.4674317998
 21
-34.2389672244
  0
LWPOLYLINE
  5
274
100
AcDbEntity
  8
0
100
AcDbPolyline
 62
7
  6
CONTINUOUS
 90
27
 70
0
 10
-33.8166912456
 20
-4.9159115417
 10
-33.8162986103
 20
-5.628280221
 10
-33.8151594955
 20
-6.3326533726
 10
-33.8132739012
 20
-7.0290309966
 10
-33.8106290438
 20
-7.7199875095
 10
-33.8072377069
 20
-8.4029484947
 10
-33.8031382415
 20
-9.0701907029
 10
-33.7983226092
 20
-9.7215357058
 10
-33.7927988484
 20
-10.3571619316
 10
-33.7866294242
 20
-10.9698814148
 10
-33.7798070077
 20
-11.5594341349
 10
-33.7723389279
 20
-12.1260801124
 10
-33.7643096374
 20
-12.6634114436
 10
-33.7557127658
 20
-13.1710953701
 10
-33.7465546835
 20
-13.6494646503
 10
-33.7369389546
 20
-14.0931096554
 10
-33.726860384
 20
-14.5016362211
 10
-33.7163241668
 20
-14.8754385117
 10
-33.7054494515
 20
-15.2102893923
 10
-33.6942323957
 20
-15.5057467149
 10
-33.6826768418
 20
-15.7622526274
 10
-33.6709134655
 20
-15.9769064382
 10
-33.6589399077
 20
-16.149233073
 10
-33.6467585277
 20
-16.2797076061
 10
-33.6345070781
 20
-16.3668545691
 10
-33.6221847636
 20
-16.4101821392
 10
-33.6159885716
 20
-16.4159115417
  0
LINE
  5
275
100
AcDbEntity
  8
0
100
AcDbLine
 62
250
  6
CONTINUOUS
 10
-33.4674317998
 20
-34.2389672244
 11
-33.4678629402
 21
-34.0159115417
  0
LWPOLYLINE
  5
276
100
AcDbEntity
  8
0
100
AcDbPolyline
 62
7
  6
CONTINUOUS
 90
27
 70
0
 10
-33.4152858976
 20
-4.9159115417
 10
-33.4156785329
 20
-4.2035428624
 10
-33.4168176477
 20
-3.4991697108
 10
-33.418703242
 20
-2.8027920868
 10
-33.4213480994
 20
-2.1118355739
 10
-33.4247394362
 20
-1.4288745887
 10
-33.4288389017
 20
-0.7616323806
 10
-33.4336545339
 20
-0.1102873776
 10
-33.4391782948
 20
0.5253388482
 10
-33.4453477189
 20
1.1380583314
 10
-33.4521701355
 20
1.7276110515
 10
-33.4596382153
 20
2.294257029
 10
-33.4676675058
 20
2.8315883602
 10
-33.4762643774
 20
3.3392722867
 10
-33.4854224596
 20
3.8176415669
 10
-33.4950381886
 20
4.261286572
 10
-33.5051167591
 20
4.6698131377
 10
-33.5156529763
 20
5.0436154283
 10
-33.5265276917
 20
5.3784663089
 10
-33.5377447475
 20
5.6739236315
 10
-33.5493003014
 20
5.930429544
 10
-33.5610636777
 20
6.1450833548
 10
-33.5730372354
 20
6.3174099896
 10
-33.5852186155
 20
6.4478845227
 10
-33.5974700651
 20
6.5350314857
 10
-33.6097923796
 20
6.5783590558
 10
-33.6159885716
 20
6.5840884583
  0
LINE
  5
277
100
AcDbEntity
  8
DRAFT
100
AcDbLine
 62
7
  6
CONTINUOUS
 10
-34.0
 20
30.5840884583
 11
-34.0
 21
-40.4159115417
  0
LINE
  5
278
100
AcDbEntity
  8
ASSI
100
AcDbLine
 62
7
  6
CONTINUOUS
 10
-34.0
 20
-40.4159115417
 11
-34.0
 21
30.5840884583
  0
LINE
  5
279
100
AcDbEntity
  8
0
100
AcDbLine
 62
250
  6
CONTINUOUS
 10
-33.3730280729
 20
30.5840884583
 11
-33.3730280729
 21
-27.8393090967
  0
LINE
  5
27A
100
AcDbEntity
  8
0
100
AcDbLine
 62
250
  6
CONTINUOUS
 10
-33.3730280729
 20
-34.9925139825
 11
-33.3730280729
 21
-40.4159115417
  0
LINE
  5
27B
100
AcDbEntity
  8
0
100
AcDbLine
 62
7
  6
CONTINUOUS
 10
-33.0
 20
-28.5159115417
 11
-33.0
 21
-34.3159115417
  0
LINE
  5
27C
100
AcDbEntity
  8
RACCORDO
100
AcDbLine
 62
7
  6
CONTINUOUS
 10
-32.2757899725
 20
-38.6401215692
 11
-32.2757899725
 21
-40.4159115417
  0
LINE
  5
27D
100
AcDbEntity
  8
RACCORDO
100
AcDbLine
 62
7
  6
CONTINUOUS
 10
-32.2757899725
 20
28.8082984858
 11
-32.2757899725
 21
30.5840884583
  0
LINE
  5
27E
100
AcDbEntity
  8
RACCORDO
100
AcDbLine
 62
250
  6
CONTINUOUS
 10
-32.2731956082
 20
28.8082984324
 11
-32.2731956082
 21
-38.6401215158
  0
LINE
  5
27F
100
AcDbEntity
  8
DRAFT
100
AcDbLine
 62
7
  6
CONTINUOUS
 10
-32.0
 20
-38.9159115417
 11
-32.0
 21
-40.4159115417
  0
LINE
  5
280
100
AcDbEntity
  8
DRAFT
100
AcDbLine
 62
7
  6
CONTINUOUS
 10
-32.0
 20
29.0840884583
 11
-32.0
 21
30.5840884583
  0
LINE
  5
281
100
AcDbEntity
  8
0
100
AcDbLine
 62
250
  6
CONTINUOUS
 10
-33.4678629402
 20
-34.0159115417
 11
-33.4676729668
 21
-28.6664053759
  0
LINE
  5
282
100
AcDbEntity
  8
0
100
AcDbLine
 62
250
  6
CONTINUOUS
 10
-33.4676729668
 20
-28.6664053759
 11
-33.4666511766
 21
-28.4462556667
  0
LINE
  5
283
100
AcDbEntity
  8
0
100
AcDbLine
 62
250
  6
CONTINUOUS
 10
-33.4666511766
 20
-28.4462556667
 11
-33.4654875535
 21
-28.3072150706
  0
LINE
  5
284
100
AcDbEntity
  8
0
100
AcDbLine
 62
250
  6
CONTINUOUS
 10
-33.4654875535
 20
-28.3072150706
 11
-33.4639568348
 21
-28.1785244905
  0
LINE
  5
285
100
AcDbEntity
  8
0
100
AcDbLine
 62
250
  6
CONTINUOUS
 10
-33.4639568348
 20
-28.1785244905
 11
-33.4620967466
 21
-28.0646872098
  0
LWPOLYLINE
  5
286
100
AcDbEntity
  8
0
100
AcDbPolyline
 62
250
  6
CONTINUOUS
 90
10
 70
0
 10
-33.4620967466
 20
-28.0646872098
 10
-33.4599667311
 20
-27.9687639362
 10
-33.4588074186
 20
-27.927933439
 10
-33.457610445
 20
-27.8925058808
 10
-33.4563753107
 20
-27.8626470939
 10
-33.4551025154
 20
-27.8381912461
 10
-33.4538181522
 20
-27.8193309155
 10
-33.4525309188
 20
-27.8061302949
 10
-33.4512321176
 20
-27.7985251917
 10
-33.4499217485
 20
-27.7965156057
  0
LWPOLYLINE
  5
287
100
AcDbEntity
  8
0
100
AcDbPolyline
 62
250
  6
CONTINUOUS
 90
7
 70
0
 10
-33.4499312882
 20
-35.0353074774
 10
-33.4437794014
 20
-34.9361784495
 10
-33.4253926968
 20
-34.8385776327
 10
-33.3950545928
 20
-34.7440094663
 10
-33.3532327293
 20
-34.6539316438
 10
-33.3005717592
 20
-34.5697326437
 10
-33.2349977679
 20
-34.489599954
  0
LWPOLYLINE
  5
288
100
AcDbEntity
  8
RACCORDO
100
AcDbPolyline
 62
250
  6
CONTINUOUS
 90
4
 70
0
 10
-13.2507421308
 20
38.5963224072
 10
-13.2580882242
 20
38.5858157808
 10
-13.2380971733
 20
38.5753140196
 10
-13.1908083427
 20
38.5648387792
  0
LINE
  5
289
100
AcDbEntity
  8
RACCORDO
100
AcDbLine
 62
250
  6
CONTINUOUS
 10
13.2160765053
 20
38.5696810604
 11
13.2507421308
 21
38.5801710389
  0
LINE
  5
28A
100
AcDbEntity
  8
RACCORDO
100
AcDbLine
 62
250
  6
CONTINUOUS
 10
13.9548673832
 20
37.6028646856
 11
13.9914715783
 21
37.6139408891
  0
LINE
  5
28B
100
AcDbEntity
  8
DRAFT
100
AcDbLine
 62
250
  6
CONTINUOUS
 10
-28.0
 20
29.0840884583
 11
-28.0
 21
28.8082984324
  0
LINE
  5
28C
100
AcDbEntity
  8
DRAFT
100
AcDbLine
 62
250
  6
CONTINUOUS
 10
-28.0
 20
-38.9159115417
 11
-28.0
 21
-38.6401215158
  0
LINE
  5
28D
100
AcDbEntity
  8
RACCORDO
100
AcDbLine
 62
250
  6
CONTINUOUS
 10
-28.0
 20
-44.4159115417
 11
-28.0
 21
-46.4159115417
  0
LINE
  5
28E
100
AcDbEntity
  8
RACCORDO
100
AcDbLine
 62
250
  6
CONTINUOUS
 10
-28.0
 20
34.5840884583
 11
-28.0
 21
36.5840884583
  0
LINE
  5
28F
100
AcDbEntity
  8
DRAFT
100
AcDbLine
 62
7
  6
CONTINUOUS
 10
-26.5
 20
34.5840884583
 11
-26.5
 21
30.5840884583
  0
LINE
  5
290
100
AcDbEntity
  8
DRAFT
100
AcDbLine
 62
7
  6
CONTINUOUS
 10
-26.5
 20
-44.4159115417
 11
-26.5
 21
-40.4159115417
  0
LWPOLYLINE
  5
291
100
AcDbEntity
  8
0
100
AcDbPolyline
 62
250
  6
CONTINUOUS
 90
10
 70
0
 10
-13.880604064
 20
36.0340102067
 10
-13.8848666295
 20
36.0253757243
 10
-13.8892507626
 20
36.016763892
 10
-13.8937564634
 20
36.00817471
 10
-13.8983817332
 20
35.9996081316
 10
-13.9031285707
 20
35.9910642035
 10
-13.9080029721
 20
35.9825430654
 10
-13.9130069359
 20
35.974044764
 10
-13.9181384636
 20
35.9655692526
 10
-13.923397555
 20
35.9571165312
  0
LWPOLYLINE
  5
292
100
AcDbEntity
  8
0
100
AcDbPolyline
 62
7
  6
CONTINUOUS
 90
21
 70
0
 10
-5.9963449621
 20
44.5024673809
 10
-5.9992176117
 20
44.4972249077
 10
-5.9872958723
 20
44.4920121785
 10
-5.9605797437
 20
44.4868291934
 10
-5.918929475
 20
44.4816632356
 10
-5.8624848173
 20
44.4765270218
 10
-5.7916650233
 20
44.4714587021
 10
-5.7063630542
 20
44.4664587822
 10
-5.6066859488
 20
44.4615267565
 10
-5.4933740768
 20
44.4566992584
 10
-5.3663259122
 20
44.4519770664
 10
-5.2256429809
 20
44.447359402
 10
-5.0723702309
 20
44.4428805638
 10
-4.9064139169
 20
44.4385415856
 10
-4.727867784
 20
44.4343414336
 10
-4.5380580159
 20
44.4303113052
 10
-4.3369007423
 20
44.4264524665
 10
-4.1244798334
 20
44.4227636513
 10
-3.9023730838
 20
44.4192722591
 10
-3.6705083716
 20
44.4159797598
 10
-3.1795155854
 20
44.4100100194
  0
LINE
  5
293
100
AcDbEntity
  8
RACCORDO
100
AcDbLine
 62
250
  6
CONTINUOUS
 10
4.0975023908
 20
45.3353472699
 11
4.1
 21
45.3378444987
  0
LINE
  5
294
100
AcDbEntity
  8
0
100
AcDbLine
 62
7
  6
CONTINUOUS
 10
4.0999998988
 20
44.9987208516
 11
4.0975023908
 21
44.9962395184
  0
LINE
  5
295
100
AcDbEntity
  8
0
100
AcDbLine
 62
7
  6
CONTINUOUS
 10
3.5999998856
 20
44.4987970571
 11
3.5978069773
 21
44.496620211
  0
LWPOLYLINE
  5
296
100
AcDbEntity
  8
0
100
AcDbPolyline
 62
7
  6
CONTINUOUS
 90
27
 70
0
 10
-33.6159885716
 20
6.5840884583
 10
-33.6221847636
 20
6.5783590558
 10
-33.6345070781
 20
6.5350314857
 10
-33.6467585277
 20
6.4478845227
 10
-33.6589399077
 20
6.3174099896
 10
-33.6709134655
 20
6.1450833548
 10
-33.6826768418
 20
5.930429544
 10
-33.6942323957
 20
5.6739236315
 10
-33.7054494515
 20
5.3784663089
 10
-33.7163241668
 20
5.0436154283
 10
-33.726860384
 20
4.6698131377
 10
-33.7369389546
 20
4.261286572
 10
-33.7465546835
 20
3.8176415669
 10
-33.7557127658
 20
3.3392722867
 10
-33.7643096374
 20
2.8315883602
 10
-33.7723389279
 20
2.294257029
 10
-33.7798070077
 20
1.7276110515
 10
-33.7866294242
 20
1.1380583314
 10
-33.7927988484
 20
0.5253388482
 10
-33.7983226092
 20
-0.1102873776
 10
-33.8031382415
 20
-0.7616323806
 10
-33.8072377069
 20
-1.4288745887
 10
-33.8106290438
 20
-2.1118355739
 10
-33.8132739012
 20
-2.8027920868
 10
-33.8151594955
 20
-3.4991697108
 10
-33.8162986103
 20
-4.2035428624
 10
-33.8166912456
 20
-4.9159115417
  0
LINE
  5
297
100
AcDbEntity
  8
0
100
AcDbLine
 62
250
  6
CONTINUOUS
 10
-33.4678629402
 20
-28.8159115417
 11
-33.0
 21
-28.8159115471
  0
LINE
  5
298
100
AcDbEntity
  8
DRAFT
100
AcDbLine
 62
7
  6
CONTINUOUS
 10
-26.2242099741
 20
34.8572840665
 11
-26.2242099741
 21
30.5840884583
  0
LINE
  5
299
100
AcDbEntity
  8
DRAFT
100
AcDbLine
 62
7
  6
CONTINUOUS
 10
-26.2242099741
 20
-44.6891071499
 11
-26.2242099741
 21
-40.4159115417
  0
LWPOLYLINE
  5
29A
100
AcDbEntity
  8
RACCORDO
100
AcDbPolyline
 62
250
  6
CONTINUOUS
 90
4
 70
0
 10
8.1226945714
 20
43.92384839
 10
8.1276305203
 20
43.9290762872
 10
8.1209747138
 20
43.9345447713
 10
8.1103944079
 20
43.9380358242
  0
LINE
  5
29B
100
AcDbEntity
  8
RACCORDO
100
AcDbLine
 62
250
  6
CONTINUOUS
 10
8.3449134056
 20
43.6339793451
 11
8.35
 21
43.6390651648
  0
LINE
  5
29C
100
AcDbEntity
  8
0
100
AcDbLine
 62
7
  6
CONTINUOUS
 10
7.85
 20
42.6990870484
 11
7.8452179921
 21
42.6943057688
  0
LINE
  5
29D
100
AcDbEntity
  8
0
100
AcDbLine
 62
7
  6
CONTINUOUS
 10
8.3499999181
 20
43.1989904792
 11
8.3449134056
 21
43.1939250763
  0
LWPOLYLINE
  5
29E
100
AcDbEntity
  8
RACCORDO
100
AcDbPolyline
 62
250
  6
CONTINUOUS
 90
4
 70
0
 10
9.8716285186
 20
42.1498474866
 10
9.8775406806
 20
42.1550679935
 10
9.8740584304
 20
42.1605094503
 10
9.8599905161
 20
42.1661661883
  0
LWPOLYLINE
  5
29F
100
AcDbEntity
  8
RACCORDO
100
AcDbPolyline
 62
250
  6
CONTINUOUS
 90
3
 70
0
 10
10.0938473529
 20
41.8599784417
 10
10.099892404
 20
41.8653165178
 10
10.1
 20
41.8661301517
  0
LWPOLYLINE
  5
2A0
100
AcDbEntity
  8
0
100
AcDbPolyline
 62
7
  6
CONTINUOUS
 90
10
 70
0
 10
-19.5160718602
 20
-3.7833805417
 10
-19.5185325202
 20
-3.6988682312
 10
-19.5168607977
 20
-3.6170704385
 10
-19.5110566925
 20
-3.5379871637
 10
-19.5012273654
 20
-3.4612957075
 10
-19.4872656557
 20
-3.387318769
 10
-19.4688500817
 20
-3.3170244466
 10
-19.4458734829
 20
-3.2507354395
 10
-19.4184430197
 20
-3.1881290484
 10
-19.3865586922
 20
-3.1292052732
  0
LINE
  5
2A1
100
AcDbEntity
  8
0
100
AcDbLine
 62
7
  6
CONTINUOUS
 10
-21.065387
 20
-5.0310005417
 11
-21.065387
 21
-6.4920325417
  0
LINE
  5
2A2
100
AcDbEntity
  8
0
100
AcDbLine
 62
7
  6
CONTINUOUS
 10
-20.793534
 20
-6.2089225417
 11
-20.793534
 21
-5.0310005417
  0
LINE
  5
2A3
100
AcDbEntity
  8
0
100
AcDbLine
 62
250
  6
CONTINUOUS
 10
-20.1
 20
36.0519513985
 11
-20.1
 21
35.5840884583
  0
LWPOLYLINE
  5
2A4
100
AcDbEntity
  8
0
100
AcDbPolyline
 62
7
  6
CONTINUOUS
 90
16
 70
0
 10
-20.8437946685
 20
-3.5229148732
 10
-20.8409247288
 20
-3.4582371889
 10
-20.83372807
 20
-3.3969390803
 10
-20.822204692
 20
-3.3390205474
 10
-20.8064414318
 20
-3.2839472602
 10
-20.7863514524
 20
-3.2322535487
 10
-20.7616742437
 20
-3.1855424028
 10
-20.7323707342
 20
-3.1444744912
 10
-20.6984799953
 20
-3.1083891452
 10
-20.6598587313
 20
-3.0769073482
 10
-20.6160936553
 20
-3.0499226325
 10
-20.567598054
 20
-3.0275414659
 10
-20.5154684922
 20
-3.0097042353
 10
-20.4600704915
 20
-2.9963910697
 10
-20.4010385301
 20
-2.98762184
 10
-20.3383726082
 20
-2.9833965463
  0
LINE
  5
2A5
100
AcDbEntity
  8
0
100
AcDbLine
 62
7
  6
CONTINUOUS
 10
9.45
 20
40.8993611971
 11
9.4442433153
 21
40.8936053892
  0
LINE
  5
2A6
100
AcDbEntity
  8
RACCORDO
100
AcDbLine
 62
250
  6
CONTINUOUS
 10
11.8427813002
 20
40.0190004427
 11
11.85
 21
40.0262180431
  0
LINE
  5
2A7
100
AcDbEntity
  8
0
100
AcDbLine
 62
7
  6
CONTINUOUS
 10
11.35
 20
39.0996353458
 11
11.3430858867
 21
39.0927222855
  0
LINE
  5
2A8
100
AcDbEntity
  8
0
100
AcDbLine
 62
7
  6
CONTINUOUS
 10
11.8499999372
 20
39.5995379084
 11
11.8427813002
 21
39.592341593
  0
LINE
  5
2A9
100
AcDbEntity
  8
0
100
AcDbLine
 62
7
  6
CONTINUOUS
 10
10.0999999198
 20
41.3992628289
 11
10.0938473529
 21
41.3931333347
  0
LWPOLYLINE
  5
2AA
100
AcDbEntity
  8
RACCORDO
100
AcDbPolyline
 62
250
  6
CONTINUOUS
 90
4
 70
0
 10
11.6205624659
 20
40.3088694876
 10
11.6276400298
 20
40.3157454987
 10
11.620753814
 20
40.3229376415
 10
11.6029577355
 20
40.3291685175
  0
LWPOLYLINE
  5
2AB
100
AcDbEntity
  8
0
100
AcDbPolyline
 62
7
  6
CONTINUOUS
 90
9
 70
0
 10
-1.8558092975
 20
25.4681399284
 10
-1.9357404166
 20
25.4160823209
 10
-2.0085527581
 20
25.3553562676
 10
-2.0743885913
 20
25.2864197917
 10
-2.133105647
 20
25.20881487
 10
-2.1838442801
 20
25.1220858419
 10
-2.2263179426
 20
25.0260808204
 10
-2.2608131825
 20
24.9209516926
 10
-2.28733
 20
24.8066984583
  0
LWPOLYLINE
  5
2AC
100
AcDbEntity
  8
0
100
AcDbPolyline
 62
7
  6
CONTINUOUS
 90
29
 70
0
 10
-0.9264113834
 20
24.2051108488
 10
-0.8458648801
 20
24.247265458
 10
-0.7741025287
 20
24.2945759983
 10
-0.7111243292
 20
24.3470424697
 10
-0.6569695105
 20
24.4049927022
 10
-0.6115988438
 20
24.4680988657
 10
-0.5748946421
 20
24.5353774699
 10
-0.5465021452
 20
24.6068608049
 10
-0.5267761134
 20
24.6825165804
 10
-0.5166631412
 20
24.7612644361
 10
-0.5163364145
 20
24.8444237331
 10
-0.5256227473
 20
24.9306751103
 10
-0.5449491768
 20
25.0149801238
 10
-0.5749855689
 20
25.0970788106
 10
-0.6150620578
 20
25.1772311338
 10
-0.6635960826
 20
25.2511785389
 10
-0.7198204994
 20
25.3176633082
 10
-0.7845024522
 20
25.3779431595
 10
-0.8583608129
 20
25.4315326918
 10
-0.9425979847
 20
25.4794559931
 10
-1.0360115645
 20
25.5206889754
 10
-1.1357132143
 20
25.5516739736
 10
-1.2441106614
 20
25.5713973324
 10
-1.3587961785
 20
25.580872707
 10
-1.4696582466
 20
25.5795833991
 10
-1.5742805232
 20
25.5669645664
 10
-1.6750793508
 20
25.5435810512
 10
-1.7691922373
 20
25.5106106809
 10
-1.8558092975
 20
25.4681399284
  0
LINE
  5
2AD
100
AcDbEntity
  8
0
100
AcDbLine
 62
7
  6
CONTINUOUS
 10
-17.6
 20
-21.4159115417
 11
-17.4
 21
-21.4159115417
  0
LWPOLYLINE
  5
2AE
100
AcDbEntity
  8
0
100
AcDbPolyline
 62
7
  6
CONTINUOUS
 90
13
 70
0
 10
-19.5275902179
 20
-6.5197145378
 10
-19.5826248977
 20
-6.407699874
 10
-19.6265135819
 20
-6.2980024068
 10
-19.6592562703
 20
-6.1906221363
 10
-19.6804101346
 20
-6.0846852309
 10
-19.6904180032
 20
-5.9810655222
 10
-19.690608361
 20
-5.8823845045
 10
-19.6810306855
 20
-5.7889997794
 10
-19.6616354992
 20
-5.7005537453
 10
-19.6336028542
 20
-5.6185950918
 10
-19.5973261012
 20
-5.5436400487
 10
-19.5524118895
 20
-5.4751723862
 10
-19.4988602192
 20
-5.4131921043
  0
LINE
  5
2AF
100
AcDbEntity
  8
0
100
AcDbLine
 62
7
  6
CONTINUOUS
 10
-18.7037187644
 20
-6.4307770657
 11
-18.5737469122
 21
-6.7198417369
  0
LWPOLYLINE
  5
2B0
100
AcDbEntity
  8
0
100
AcDbPolyline
 62
7
  6
CONTINUOUS
 90
13
 70
0
 10
-19.6658613271
 20
-3.2003121521
 10
-19.6955802854
 20
-3.1261114255
 10
-19.7314092241
 20
-3.0569315144
 10
-19.7733481433
 20
-2.9927724189
 10
-19.8224913876
 20
-2.9329659762
 10
-19.8777446125
 20
-2.878180349
 10
-19.9358247837
 20
-2.8304200256
 10
-19.9952852269
 20
-2.7903902614
 10
-20.0575726164
 20
-2.7573858009
 10
-20.1237439415
 20
-2.731295367
 10
-20.1941515317
 20
-2.712081867
 10
-20.2684430575
 20
-2.6997823934
 10
-20.3466185187
 20
-2.6943969463
  0
LINE
  5
2B1
100
AcDbEntity
  8
0
100
AcDbLine
 62
7
  6
CONTINUOUS
 10
-18.7410220488
 20
-4.1450233823
 11
-18.6454738397
 21
-4.4570590651
  0
LINE
  5
2B2
100
AcDbEntity
  8
0
100
AcDbLine
 62
7
  6
CONTINUOUS
 10
-17.6
 20
11.5840884583
 11
-17.6
 21
-21.4159115417
  0
LINE
  5
2B3
100
AcDbEntity
  8
0
100
AcDbLine
 62
7
  6
CONTINUOUS
 10
-17.4
 20
-21.4159115417
 11
-17.4
 21
11.5840884583
  0
LINE
  5
2B4
100
AcDbEntity
  8
0
100
AcDbLine
 62
250
  6
CONTINUOUS
 10
-14.9
 20
36.0519513985
 11
-14.9000000056
 21
35.5840884583
  0
LWPOLYLINE
  5
2B5
100
AcDbEntity
  8
RACCORDO
100
AcDbPolyline
 62
7
  6
CONTINUOUS
 90
16
 70
0
 10
-14.0
 20
37.6224680119
 10
-13.9963851536
 20
37.7075872099
 10
-13.9855789491
 20
37.7920237643
 10
-13.9676770818
 20
37.8751759349
 10
-13.9426876586
 20
37.9568444165
 10
-13.9108777285
 20
38.0360401247
 10
-13.873095751
 20
38.1111206788
 10
-13.8295888037
 20
38.1821730223
 10
-13.781153477
 20
38.2483860852
 10
-13.7303322773
 20
38.3074070329
 10
-13.6785840298
 20
38.3591268931
 10
-13.6264436166
 20
38.4043880983
 10
-13.5756125478
 20
38.4429883535
 10
-13.5271908744
 20
38.4753843621
 10
-13.4815258185
 20
38.5024715467
 10
-13.4391308455
 20
38.5248949775
  0
LWPOLYLINE
  5
2B6
100
AcDbEntity
  8
0
100
AcDbPolyline
 62
7
  6
CONTINUOUS
 90
13
 70
0
 10
-18.3215925954
 20
-5.8685497627
 10
-18.3259606532
 20
-5.9280445835
 10
-18.3361949838
 20
-5.9868217059
 10
-18.3522955871
 20
-6.0448811299
 10
-18.3748888602
 20
-6.1035290651
 10
-18.403348406
 20
-6.1614593018
 10
-18.4357950335
 20
-6.2147532113
 10
-18.4718514703
 20
-6.2620504905
 10
-18.5118949888
 20
-6.3047114425
 10
-18.5551782148
 20
-6.342898348
 10
-18.6014520237
 20
-6.3766653004
 10
-18.6509655403
 20
-6.4059582063
 10
-18.7037187644
 20
-6.4307770657
  0
LINE
  5
2B7
100
AcDbEntity
  8
0
100
AcDbLine
 62
7
  6
CONTINUOUS
 10
-20.6483798375
 20
-4.3401762234
 11
-20.5157908992
 21
-4.0804953444
  0
LINE
  5
2B8
100
AcDbEntity
  8
RACCORDO
100
AcDbLine
 62
250
  6
CONTINUOUS
 10
13.9914715783
 20
37.6139408891
 11
14.0
 21
37.6224680119
  0
LINE
  5
2B9
100
AcDbEntity
  8
0
100
AcDbLine
 62
7
  6
CONTINUOUS
 10
13.9999999495
 20
36.2000562791
 11
13.9914715783
 21
36.1915499071
  0
LWPOLYLINE
  5
2BA
100
AcDbEntity
  8
0
100
AcDbPolyline
 62
7
  6
CONTINUOUS
 90
4
 70
0
 10
20.5742287326
 20
-45.6514126826
 10
20.5081403684
 20
-45.5820454184
 10
20.4489042276
 20
-45.5023409198
 10
20.4000034028
 20
-45.4159098863
  0
LWPOLYLINE
  5
2BB
100
AcDbEntity
  8
0
100
AcDbPolyline
 62
7
  6
CONTINUOUS
 90
19
 70
0
 10
-18.4881469242
 20
-3.0801878595
 10
-18.4410073715
 20
-3.1348763542
 10
-18.401678094
 20
-3.1940675518
 10
-18.3701590916
 20
-3.2577614523
 10
-18.3465904975
 20
-3.326737211
 10
-18.3308321785
 20
-3.4002156726
 10
-18.3224637352
 20
-3.4758593711
 10
-18.321658262
 20
-3.5551422683
 10
-18.3282426644
 20
-3.6365904023
 10
-18.3412772609
 20
-3.713444422
 10
-18.360587595
 20
-3.7839428627
 10
-18.386348123
 20
-3.8498471889
 10
-18.4181425319
 20
-3.9096824426
 10
-18.4556011548
 20
-3.9627077171
 10
-18.4990936586
 20
-4.0096639191
 10
-18.549312731
 20
-4.0512988104
 10
-18.6064892682
 20
-4.087861645
 10
-18.6703923741
 20
-4.119103169
 10
-18.7410220488
 20
-4.1450233823
  0
LINE
  5
2BC
100
AcDbEntity
  8
0
100
AcDbLine
 62
7
  6
CONTINUOUS
 10
-14.0
 20
37.6224680119
 11
-14.0
 21
36.2000770299
  0
LINE
  5
2BD
100
AcDbEntity
  8
0
100
AcDbLine
 62
7
  6
CONTINUOUS
 10
-11.85
 20
40.0262180431
 11
-11.85
 21
39.5995591934
  0
LINE
  5
2BE
100
AcDbEntity
  8
0
100
AcDbLine
 62
7
  6
CONTINUOUS
 10
-11.35
 20
39.5401725833
 11
-11.35
 21
39.0996353458
  0
LWPOLYLINE
  5
2BF
100
AcDbEntity
  8
RACCORDO
100
AcDbPolyline
 62
7
  6
CONTINUOUS
 90
13
 70
0
 10
-10.1
 20
41.8661301517
 10
-10.0979440174
 20
41.9013672216
 10
-10.0919993666
 20
41.9353021281
 10
-10.0825264298
 20
41.9675516528
 10
-10.0697654386
 20
41.9981039823
 10
-10.0541959658
 20
42.0263866494
 10
-10.036831016
 20
42.0514343814
 10
-10.0184500151
 20
42.0731460054
 10
-9.9994633221
 20
42.0918785376
 10
-9.9805442281
 20
42.1076795482
 10
-9.9621801595
 20
42.1208014129
 10
-9.9446306016
 20
42.1316203408
 10
-9.928145133
 20
42.1404518146
  0
LWPOLYLINE
  5
2C0
100
AcDbEntity
  8
RACCORDO
100
AcDbPolyline
 62
7
  6
CONTINUOUS
 90
13
 70
0
 10
-11.85
 20
40.0262180431
 10
-11.8478685288
 20
40.0621256632
 10
-11.841736071
 20
40.0965671843
 10
-11.8320196829
 20
40.1291519331
 10
-11.8190323695
 20
40.1598287634
 10
-11.8032906074
 20
40.1880893245
 10
-11.7857608808
 20
40.2131115568
 10
-11.7671492389
 20
40.2348752227
 10
-11.7479183539
 20
40.2536530881
 10
-11.7288709829
 20
40.2693974128
 10
-11.7105594067
 20
40.2823619238
 10
-11.6932111389
 20
40.2929858061
 10
-11.6770790803
 20
40.3016055963
  0
LWPOLYLINE
  5
2C1
100
AcDbEntity
  8
RACCORDO
100
AcDbPolyline
 62
250
  6
CONTINUOUS
 90
4
 70
0
 10
-3.8752835565
 20
45.6299399093
 10
-3.8762668844
 20
45.6257719951
 10
-3.8625491358
 20
45.6216111237
 10
-3.834181923
 20
45.6174730773
  0
LWPOLYLINE
  5
2C2
100
AcDbEntity
  8
RACCORDO
100
AcDbPolyline
 62
250
  6
CONTINUOUS
 90
3
 70
0
 10
13.2507421308
 20
38.5801710389
 10
13.2580882242
 20
38.5906772731
 10
13.2380971733
 20
38.6011788258
  0
LWPOLYLINE
  5
2C3
100
AcDbEntity
  8
0
100
AcDbPolyline
 62
7
  6
CONTINUOUS
 90
10
 70
0
 10
-19.3865586922
 20
-3.1292052732
 10
-19.3561281389
 20
-3.0869015738
 10
-19.319494111
 20
-3.04827797
 10
-19.2766566083
 20
-3.0133344619
 10
-19.2268657783
 20
-2.9812534105
 10
-19.1708714735
 20
-2.9528524548
 10
-19.1109232525
 20
-2.9305845115
 10
-19.047770968
 20
-2.9152672196
 10
-18.9806647673
 20
-2.9060829402
 10
-18.9096046502
 20
-2.9030316732
  0
LWPOLYLINE
  5
2C4
100
AcDbEntity
  8
0
100
AcDbPolyline
 62
7
  6
CONTINUOUS
 90
29
 70
0
 10
0.40649
 20
23.9476784583
 10
0.45255666
 20
24.01016781
 10
0.5037068019
 20
24.065412984
 10
0.5599404255
 20
24.1134139802
 10
0.6214891594
 20
24.1545834043
 10
0.6881213751
 20
24.1885086506
 10
0.7591421871
 20
24.2139519028
 10
0.8362800167
 20
24.2304479104
 10
0.9178064427
 20
24.2384619238
 10
0.9978413154
 20
24.2381518782
 10
1.0757524158
 20
24.2293404452
 10
1.152171963
 20
24.2122049531
 10
1.2231164651
 20
24.1874353227
 10
1.2874168698
 20
24.1549504074
 10
1.3462422294
 20
24.1148313538
 10
1.399116209
 20
24.0680115229
 10
1.4463117286
 20
24.0146776076
 10
1.4875558684
 20
23.9546429151
 10
1.5215535339
 20
23.888280727
 10
1.5480384403
 20
23.8149593333
 10
1.5672768726
 20
23.7353104441
 10
1.5787725913
 20
23.6516024712
 10
1.5825074153
 20
23.5618850273
 10
1.5784995257
 20
23.4681084997
 10
1.5663072267
 20
23.3783924614
 10
1.54551662
 20
23.294599121
 10
1.5165416038
 20
23.2148662698
 10
1.4801821778
 20
23.1417268553
 10
1.4355737991
 20
23.0754464272
  0
LWPOLYLINE
  5
2C5
100
AcDbEntity
  8
0
100
AcDbPolyline
 62
7
  6
CONTINUOUS
 90
21
 70
0
 10
1.4355737991
 20
23.0754464272
 10
1.3835810104
 20
23.0157594356
 10
1.3275974394
 20
22.9644021782
 10
1.2686693255
 20
22.9219348118
 10
1.2057504294
 20
22.8877971795
 10
1.1390956606
 20
22.862045108
 10
1.0668233221
 20
22.8447319848
 10
0.9908151109
 20
22.8358044224
 10
0.9169710289
 20
22.8351580849
 10
0.846488308
 20
22.8430259251
 10
0.7781697162
 20
22.8591749902
 10
0.7143235588
 20
22.882802085
 10
0.6553552661
 20
22.9139988247
 10
0.6008594078
 20
22.9526735942
 10
0.5519279985
 20
22.9977483525
 10
0.5089278946
 20
23.04898235
 10
0.4714922396
 20
23.1066163364
 10
0.4396124782
 20
23.1702945196
 10
0.4132857585
 20
23.2398983023
 10
0.3925149325
 20
23.3155462819
 10
0.3773
 20
23.3972384583
  0
LWPOLYLINE
  5
2C6
100
AcDbEntity
  8
0
100
AcDbPolyline
 62
7
  6
CONTINUOUS
 90
10
 70
0
 10
-20.5157908992
 20
-4.0804953444
 10
-20.5749281532
 20
-4.0416954745
 10
-20.6294804738
 20
-3.99524526
 10
-20.6794478611
 20
-3.9411447008
 10
-20.726281201
 20
-3.8769111761
 10
-20.7685296076
 20
-3.8050273066
 10
-20.8018404233
 20
-3.7329409553
 10
-20.8247627625
 20
-3.6631347431
 10
-20.8387475109
 20
-3.5931260491
 10
-20.8437946685
 20
-3.5229148732
  0
LINE
  5
2C7
100
AcDbEntity
  8
0
100
AcDbLine
 62
7
  6
CONTINUOUS
 10
-10.1
 20
41.8661301517
 11
-10.1
 21
41.3992850447
  0
LINE
  5
2C8
100
AcDbEntity
  8
0
100
AcDbLine
 62
7
  6
CONTINUOUS
 10
-9.45
 20
41.3370999094
 11
-9.45
 21
40.8993611971
  0
LINE
  5
2C9
100
AcDbEntity
  8
0
100
AcDbLine
 62
7
  6
CONTINUOUS
 10
-8.35
 20
43.6390651648
 11
-8.35
 21
43.199010896
  0
LINE
  5
2CA
100
AcDbEntity
  8
0
100
AcDbLine
 62
7
  6
CONTINUOUS
 10
-7.85
 20
43.1494475584
 11
-7.85
 21
42.6990870484
  0
LINE
  5
2CB
100
AcDbEntity
  8
0
100
AcDbLine
 62
7
  6
CONTINUOUS
 10
-7.5
 20
21.6840884583
 11
-7.5
 21
21.4840884583
  0
LWPOLYLINE
  5
2CC
100
AcDbEntity
  8
RACCORDO
100
AcDbPolyline
 62
7
  6
CONTINUOUS
 90
13
 70
0
 10
-8.35
 20
43.6390651648
 10
-8.3480257339
 20
43.6735666495
 10
-8.3422804945
 20
43.706965446
 10
-8.3330575032
 20
43.7388849838
 10
-8.3205091722
 20
43.7693617746
 10
-8.3050713097
 20
43.7977413415
 10
-8.2878180201
 20
43.8228771682
 10
-8.2696018721
 20
43.8445896465
 10
-8.2507866607
 20
43.8633176287
 10
-8.2319610404
 20
43.8791742981
 10
-8.2135721924
 20
43.8924107606
 10
-8.1959051459
 20
43.9033594555
 10
-8.1792111858
 20
43.9123209373
  0
LWPOLYLINE
  5
2CD
100
AcDbEntity
  8
0
100
AcDbPolyline
 62
7
  6
CONTINUOUS
 90
27
 70
0
 10
-33.6159885716
 20
-16.4159115417
 10
-33.6097923796
 20
-16.4101821392
 10
-33.5974700651
 20
-16.3668545691
 10
-33.5852186155
 20
-16.2797076061
 10
-33.5730372354
 20
-16.149233073
 10
-33.5610636777
 20
-15.9769064382
 10
-33.5493003014
 20
-15.7622526274
 10
-33.5377447475
 20
-15.5057467149
 10
-33.5265276917
 20
-15.2102893923
 10
-33.5156529763
 20
-14.8754385117
 10
-33.5051167591
 20
-14.5016362211
 10
-33.4950381886
 20
-14.0931096554
 10
-33.4854224596
 20
-13.6494646503
 10
-33.4762643774
 20
-13.1710953701
 10
-33.4676675058
 20
-12.6634114436
 10
-33.4596382153
 20
-12.1260801124
 10
-33.4521701355
 20
-11.5594341349
 10
-33.4453477189
 20
-10.9698814148
 10
-33.4391782948
 20
-10.3571619316
 10
-33.4336545339
 20
-9.7215357058
 10
-33.4288389017
 20
-9.0701907029
 10
-33.4247394362
 20
-8.4029484947
 10
-33.4213480994
 20
-7.7199875095
 10
-33.418703242
 20
-7.0290309966
 10
-33.4168176477
 20
-6.3326533726
 10
-33.4156785329
 20
-5.628280221
 10
-33.4152858976
 20
-4.9159115417
  0
LWPOLYLINE
  5
2CE
100
AcDbEntity
  8
0
100
AcDbPolyline
 62
7
  6
CONTINUOUS
 90
10
 70
0
 10
-19.4988602192
 20
-5.4131921043
 10
-19.4586866128
 20
-5.3771195954
 10
-19.4139600481
 20
-5.3443714005
 10
-19.3646805252
 20
-5.3149475198
 10
-19.3104109729
 20
-5.28844047
 10
-19.2515884624
 20
-5.2652577343
 10
-19.189524207
 20
-5.2466217619
 10
-19.1246552777
 20
-5.2329400358
 10
-19.0565446035
 20
-5.2238050729
 10
-18.9851921845
 20
-5.2192168732
  0
LWPOLYLINE
  5
2CF
100
AcDbEntity
  8
0
100
AcDbPolyline
 62
7
  6
CONTINUOUS
 90
8
 70
0
 10
-19.3057995519
 20
-2.7088776075
 10
-19.3807683489
 20
-2.7549369947
 10
-19.4474527518
 20
-2.8082983304
 10
-19.5064658371
 20
-2.8696754471
 10
-19.5578127253
 20
-2.9395202018
 10
-19.6014951231
 20
-3.0179832138
 10
-19.6375113237
 20
-3.1049138639
 10
-19.6658613271
 20
-3.2003121521
  0
LWPOLYLINE
  5
2D0
100
AcDbEntity
  8
0
100
AcDbPolyline
 62
7
  6
CONTINUOUS
 90
19
 70
0
 10
20.4
 20
-45.4159115417
 10
20.4293900351
 20
-45.4570215822
 10
20.4600977877
 20
-45.4955077206
 10
20.4921232579
 20
-45.5313730253
 10
20.5255792049
 20
-45.5645633416
 10
20.5603528695
 20
-45.5951844568
 10
20.5961059739
 20
-45.6234567465
 10
20.6328342688
 20
-45.6494178075
 10
20.6705420035
 20
-45.6730449177
 10
20.7089036477
 20
-45.6944210256
 10
20.7478552581
 20
-45.7135385164
 10
20.787460778
 20
-45.7304320278
 10
20.8275865075
 20
-45.745202053
 10
20.8682763771
 20
-45.7578542497
 10
20.9094864563
 20
-45.7683589523
 10
20.9509512533
 20
-45.7767249054
 10
20.9925822707
 20
-45.7829473399
 10
21.0344680058
 20
-45.7870185012
 10
21.0766084587
 20
-45.7889396146
  0
LINE
  5
2D1
100
AcDbEntity
  8
0
100
AcDbLine
 62
7
  6
CONTINUOUS
 10
-4.1
 20
45.3378444987
 11
-4.1
 21
44.9987367473
  0
LINE
  5
2D2
100
AcDbEntity
  8
0
100
AcDbLine
 62
7
  6
CONTINUOUS
 10
-3.6
 20
44.96454365
 11
-3.6
 21
44.4988128997
  0
LWPOLYLINE
  5
2D3
100
AcDbEntity
  8
RACCORDO
100
AcDbPolyline
 62
7
  6
CONTINUOUS
 90
13
 70
0
 10
-4.1
 20
45.3378444987
 10
-4.0982611887
 20
45.3701599654
 10
-4.0931062056
 20
45.4019139135
 10
-4.0846547086
 20
45.4327558896
 10
-4.0728825879
 20
45.4627483385
 10
-4.0580721022
 20
45.4911536207
 10
-4.0412098137
 20
45.5166471712
 10
-4.02297054
 20
45.5390732721
 10
-4.0037454429
 20
45.5586674288
 10
-3.9845217231
 20
45.5751244244
 10
-3.9659683193
 20
45.5886199005
 10
-3.9482946678
 20
45.5996388181
 10
-3.9318001715
 20
45.6085116801
  0
LINE
  5
2D4
100
AcDbEntity
  8
0
100
AcDbLine
 62
7
  6
CONTINUOUS
 10
-1.5603169999
 20
24.322978459
 11
-1.6011039925
 21
24.0018885175
  0
LWPOLYLINE
  5
2D5
100
AcDbEntity
  8
0
100
AcDbPolyline
 62
7
  6
CONTINUOUS
 90
27
 70
0
 10
-1.92037
 20
24.7399784583
 10
-1.9060225318
 20
24.8192561495
 10
-1.8863472053
 20
24.8927563078
 10
-1.8613440205
 20
24.9604789332
 10
-1.8309325585
 20
25.02271258
 10
-1.7951932382
 20
25.0791686939
 10
-1.7543673161
 20
25.1289816121
 10
-1.7083063656
 20
25.1720551389
 10
-1.6571588134
 20
25.2084854699
 10
-1.6016111955
 20
25.2376955286
 10
-1.5407336131
 20
25.2595873323
 10
-1.4754559651
 20
25.2742588637
 10
-1.4092544841
 20
25.281426995
 10
-1.3414296787
 20
25.2808384161
 10
-1.2726810403
 20
25.2727464371
 10
-1.2085832756
 20
25.2576278599
 10
-1.1507883457
 20
25.2352479199
 10
-1.0976442895
 20
25.2058413816
 10
-1.0497699296
 20
25.1705893417
 10
-1.0067255191
 20
25.1291714267
 10
-0.968950805
 20
25.0819080101
 10
-0.9383838515
 20
25.0309413079
 10
-0.9157599206
 20
24.9761477432
 10
-0.9003437503
 20
24.9176508929
 10
-0.8918676192
 20
24.8579637037
 10
-0.8904739457
 20
24.7961051404
 10
-0.8960203115
 20
24.7330562381
  0
LINE
  5
2D6
100
AcDbEntity
  8
0
100
AcDbLine
 62
7
  6
CONTINUOUS
 10
0.34811
 20
25.5322784583
 11
0.06038
 21
23.9977184583
  0
LINE
  5
2D7
100
AcDbEntity
  8
0
100
AcDbLine
 62
7
  6
CONTINUOUS
 10
0.4812889101
 20
24.3766670034
 11
0.640531
 21
25.1819984583
  0
LWPOLYLINE
  5
2D8
100
AcDbEntity
  8
0
100
AcDbPolyline
 62
7
  6
CONTINUOUS
 90
17
 70
0
 10
-0.8960203115
 20
24.7330562381
 10
-0.9078117396
 20
24.6742730488
 10
-0.9255811969
 20
24.6215855154
 10
-0.9495957166
 20
24.5731636951
 10
-0.9799614214
 20
24.5289738107
 10
-1.0177484478
 20
24.4890127336
 10
-1.0618866594
 20
24.4532835924
 10
-1.1092717691
 20
24.4217619972
 10
-1.1602064466
 20
24.3943726936
 10
-1.2143880223
 20
24.3711909358
 10
-1.2678042004
 20
24.3524180965
 10
-1.3192614873
 20
24.3384839899
 10
-1.3699533767
 20
24.3289588016
 10
-1.419448054
 20
24.3227544615
 10
-1.4676015813
 20
24.3195082793
 10
-1.5145578966
 20
24.3195829451
 10
-1.5603169999
 20
24.322978459
  0
LWPOLYLINE
  5
2D9
100
AcDbEntity
  8
RACCORDO
100
AcDbPolyline
 62
250
  6
CONTINUOUS
 90
3
 70
0
 10
3.8752835565
 20
45.6252163148
 10
3.8762668844
 20
45.6293833236
 10
3.8694362658
 20
45.631979417
  0
LWPOLYLINE
  5
2DA
100
AcDbEntity
  8
0
100
AcDbPolyline
 62
250
  6
CONTINUOUS
 90
10
 70
0
 10
33.3730280729
 20
25.1606908991
 10
33.3814807923
 20
25.1659499924
 10
33.3899563021
 20
25.1710815209
 10
33.3984546023
 20
25.1760854848
 10
33.4069757393
 20
25.1809598846
 10
33.4155196666
 20
25.1857067197
 10
33.4240862451
 20
25.1903319885
 10
33.4326754284
 20
25.1948376902
 10
33.4412872628
 20
25.1992218254
 10
33.4499217485
 20
25.2034843943
  0
LWPOLYLINE
  5
2DB
100
AcDbEntity
  8
0
100
AcDbPolyline
 62
7
  6
CONTINUOUS
 90
14
 70
0
 10
-19.5148910901
 20
-5.0484735115
 10
-19.5970028595
 20
-5.0977767149
 10
-19.6699582215
 20
-5.1523607377
 10
-19.7344229312
 20
-5.2136367194
 10
-19.7916842363
 20
-5.283178045
 10
-19.8430440627
 20
-5.3617464608
 10
-19.8872004845
 20
-5.4485802205
 10
-19.9215349722
 20
-5.5429674698
 10
-19.9459932047
 20
-5.6462189243
 10
-19.960629503
 20
-5.7570238685
 10
-19.9629883001
 20
-5.8707383021
 10
-19.9522510736
 20
-5.9858142252
 10
-19.9292363459
 20
-6.1037996377
 10
-19.8939441169
 20
-6.2246945397
  0
LWPOLYLINE
  5
2DC
100
AcDbEntity
  8
0
100
AcDbPolyline
 62
7
  6
CONTINUOUS
 90
33
 70
0
 10
-18.6454738397
 20
-4.4570590651
 10
-18.5390591039
 20
-4.4048435799
 10
-18.4435216648
 20
-4.3467607239
 10
-18.3588615223
 20
-4.2828104972
 10
-18.2855035578
 20
-4.2133506951
 10
-18.2230228899
 20
-4.1380235224
 10
-18.1701448747
 20
-4.0557555924
 10
-18.1263861349
 20
-3.9647129154
 10
-18.0922300477
 20
-3.8667294811
 10
-18.0678521006
 20
-3.7662338731
 10
-18.0540533363
 20
-3.6622714282
 10
-18.050032712
 20
-3.5557968096
 10
-18.0535625871
 20
-3.4541025904
 10
-18.0644500339
 20
-3.359268381
 10
-18.08288798
 20
-3.269214571
 10
-18.1072275682
 20
-3.1849949022
 10
-18.1375558601
 20
-3.1070524605
 10
-18.173785794
 20
-3.03494416
 10
-18.2140073279
 20
-2.9683944839
 10
-18.2565403205
 20
-2.9076679926
 10
-18.3030649129
 20
-2.8525001259
 10
-18.3567114869
 20
-2.8018216856
 10
-18.4184624773
 20
-2.7542572789
 10
-18.4873354492
 20
-2.7111822986
 10
-18.5635134795
 20
-2.6756537251
 10
-18.6485269247
 20
-2.6481192544
 10
-18.7408454285
 20
-2.6281311906
 10
-18.8360609985
 20
-2.6174034255
 10
-18.9356157291
 20
-2.6163588827
 10
-19.038067526
 20
-2.6245746388
 10
-19.1346821139
 20
-2.6424958158
 10
-19.2231594374
 20
-2.6708340012
 10
-19.3057995519
 20
-2.7088776075
  0
LINE
  5
2DD
100
AcDbEntity
  8
0
100
AcDbLine
 62
7
  6
CONTINUOUS
 10
11.1960930686
 20
-6.0159115417
 11
10.0700680665
 21
-6.0159115417
  0
LINE
  5
2DE
100
AcDbEntity
  8
0
100
AcDbLine
 62
7
  6
CONTINUOUS
 10
-10.0700680665
 20
-6.0159115417
 11
-11.1960930686
 21
-6.0159115417
  0
LINE
  5
2DF
100
AcDbEntity
  8
0
100
AcDbLine
 62
7
  6
CONTINUOUS
 10
-20.793534
 20
-5.0310005417
 11
-21.065387
 21
-5.0310005417
  0
LINE
  5
2E0
100
AcDbEntity
  8
0
100
AcDbLine
 62
7
  6
CONTINUOUS
 10
-11.1960930686
 20
-3.8159115417
 11
-10.0700680665
 21
-3.8159115417
  0
LINE
  5
2E1
100
AcDbEntity
  8
0
100
AcDbLine
 62
7
  6
CONTINUOUS
 10
10.0700680665
 20
-3.8159115417
 11
11.1960930686
 21
-3.8159115417
  0
LINE
  5
2E2
100
AcDbEntity
  8
0
100
AcDbLine
 62
7
  6
CONTINUOUS
 10
-19.7875325974
 20
-3.7833805417
 11
-19.5160718602
 21
-3.7833805417
  0
LINE
  5
2E3
100
AcDbEntity
  8
0
100
AcDbLine
 62
7
  6
CONTINUOUS
 10
-19.8939441169
 20
-6.2246945397
 11
-20.793534
 21
-6.2089225417
  0
LINE
  5
2E4
100
AcDbEntity
  8
0
100
AcDbLine
 62
7
  6
CONTINUOUS
 10
-21.065387
 20
-6.4920325417
 11
-19.5275902179
 21
-6.5197145378
  0
LWPOLYLINE
  5
2E5
100
AcDbEntity
  8
0
100
AcDbPolyline
 62
7
  6
CONTINUOUS
 90
19
 70
0
 10
-20.3383726082
 20
-2.9833965463
 10
-20.2708328301
 20
-2.9866734372
 10
-20.2076249399
 20
-2.9953676815
 10
-20.1487489375
 20
-3.0094792791
 10
-20.0939612788
 20
-3.029130556
 10
-20.0435055081
 20
-3.0541991862
 10
-19.9981122574
 20
-3.0843181921
 10
-19.9584853538
 20
-3.1195212191
 10
-19.9239209704
 20
-3.1597746219
 10
-19.8930382578
 20
-3.2046104865
 10
-19.8651428691
 20
-3.2541081383
 10
-19.8409291513
 20
-3.3081882519
 10
-19.8210992961
 20
-3.3661449367
 10
-19.8061856291
 20
-3.4281318114
 10
-19.7956558246
 20
-3.4939952574
 10
-19.7886150977
 20
-3.562568528
 10
-19.7847651867
 20
-3.6334627079
 10
-19.7844043533
 20
-3.7070667124
 10
-19.7875325974
 20
-3.7833805417
  0
LWPOLYLINE
  5
2E6
100
AcDbEntity
  8
0
100
AcDbPolyline
 62
7
  6
CONTINUOUS
 90
16
 70
0
 10
-18.9851921845
 20
-5.2192168732
 10
-18.9087681232
 20
-5.2241421143
 10
-18.836601956
 20
-5.2354210141
 10
-18.7686936828
 20
-5.2530535727
 10
-18.7052620382
 20
-5.2772005853
 10
-18.6460882877
 20
-5.3077012567
 10
-18.5905162277
 20
-5.3440732012
 10
-18.5374565991
 20
-5.3870611664
 10
-18.4879986611
 20
-5.4359204047
 10
-18.4447539869
 20
-5.4879342867
 10
-18.4085706948
 20
-5.5419114201
 10
-18.3786006666
 20
-5.5990431972
 10
-18.3549111207
 20
-5.6601871653
 10
-18.3375244633
 20
-5.7256291735
 10
-18.3264182882
 20
-5.7950833726
 10
-18.3215925954
 20
-5.8685497627
  0
LWPOLYLINE
  5
2E7
100
AcDbEntity
  8
0
100
AcDbPolyline
 62
7
  6
CONTINUOUS
 90
10
 70
0
 10
-18.9096046502
 20
-2.9030316732
 10
-18.8513615281
 20
-2.9073328164
 10
-18.7955450288
 20
-2.9158300553
 10
-18.7421551522
 20
-2.9285233899
 10
-18.6906225669
 20
-2.9458799888
 10
-18.6415166044
 20
-2.9674326833
 10
-18.5965452594
 20
-2.9917799682
 10
-18.5562778635
 20
-3.018454675
 10
-18.5201450851
 20
-3.0479239721
 10
-18.4881469242
 20
-3.0801878595
  0
LWPOLYLINE
  5
2E8
100
AcDbEntity
  8
0
100
AcDbPolyline
 62
250
  6
CONTINUOUS
 90
10
 70
0
 10
21.0766024408
 20
-45.7889396146
 10
21.0818615341
 20
-45.797392334
 10
21.0869930626
 20
-45.8058678438
 10
21.0919970265
 20
-45.814366144
 10
21.0968714263
 20
-45.822887281
 10
21.1016182615
 20
-45.8314312083
 10
21.1062435302
 20
-45.8399977868
 10
21.1107492319
 20
-45.8485869701
 10
21.1151333671
 20
-45.8571988045
 10
21.119395936
 20
-45.8658332902
  0
LWPOLYLINE
  5
2E9
100
AcDbEntity
  8
0
100
AcDbPolyline
 62
7
  6
CONTINUOUS
 90
76
 70
0
 10
-11.35
 20
39.0996353458
 10
-11.3497234085
 20
39.0982524642
 10
-11.3364496588
 20
39.0899589483
 10
-11.3032879243
 20
39.0816824081
 10
-11.2502963819
 20
39.0734373635
 10
-11.1775679967
 20
39.065238279
 10
-11.0852303591
 20
39.0570995387
 10
-10.9734454607
 20
39.0490354206
 10
-10.8424094101
 20
39.041060072
 10
-10.6923520891
 20
39.0331874843
 10
-10.5235367493
 20
39.0254314688
 10
-10.3362595502
 20
39.0178056321
 10
-10.1308490394
 20
39.0103233525
 10
-9.907665577
 20
39.0029977564
 10
-9.6671007025
 20
38.9958416956
 10
-9.4095764485
 20
38.9888677241
 10
-9.1355446
 20
38.9820880766
 10
-8.845485902
 20
38.975514647
 10
-8.539909216
 20
38.9691589673
 10
-8.2193506273
 20
38.9630321874
 10
-7.8843725047
 20
38.957145056
 10
-7.5355625136
 20
38.9515079009
 10
-7.1735325852
 20
38.9461306117
 10
-6.7989178432
 20
38.9410226219
 10
-6.4123754889
 20
38.9361928928
 10
-6.014583649
 20
38.9316498972
 10
-5.6062401857
 20
38.9274016053
 10
-5.1880614721
 20
38.9234554698
 10
-4.7607811358
 20
38.9198184137
 10
-4.3251487716
 20
38.9164968176
 10
-3.8819286267
 20
38.9134965087
 10
-3.43189826
 20
38.9108227506
 10
-2.9758471776
 20
38.9084802339
 10
-2.514575448
 20
38.9064730683
 10
-2.0488922986
 20
38.9048047749
 10
-1.5796146959
 20
38.9034782806
 10
-1.1075659123
 20
38.9024959123
 10
-0.6335740817
 20
38.9018593937
 10
-0.1584707468
 20
38.9015698413
 10
0.3169105995
 20
38.9016277631
 10
0.791735977
 20
38.9020330574
 10
1.2651723805
 20
38.9027850133
 10
1.7363892418
 20
38.9038823116
 10
2.2045598863
 20
38.9053230273
 10
2.6688629837
 20
38.9071046327
 10
3.1284839885
 20
38.9092240025
 10
3.5826165693
 20
38.9116774184
 10
4.0304640233
 20
38.9144605765
 10
4.4712406739
 20
38.917568594
 10
4.9041732489
 20
38.9209960184
 10
5.3285022376
 20
38.924736837
 10
5.7434832228
 20
38.9287844869
 10
6.1483881867
 20
38.9331318673
 10
6.5425067885
 20
38.9377713514
 10
6.9251476103
 20
38.9426947999
 10
7.2956393699
 20
38.9478935755
 10
7.6533320991
 20
38.9533585577
 10
7.9975982831
 20
38.9590801591
 10
8.3278339621
 20
38.9650483421
 10
8.6434597905
 20
38.9712526364
 10
8.9439220534
 20
38.9776821576
 10
9.2286936379
 20
38.9843256261
 10
9.4972749578
 20
38.9911713871
 10
9.7491948302
 20
38.9982074307
 10
9.984011302
 20
39.0054214133
 10
10.2013124255
 20
39.0128006792
 10
10.4007169805
 20
39.0203322826
 10
10.5818751438
 20
39.0280030105
 10
10.7444691023
 20
39.0357994058
 10
10.888213611
 20
39.0437077911
 10
11.0128564932
 20
39.0517142924
 10
11.118179083
 20
39.0598048634
 10
11.2039966086
 20
39.0679653107
 10
11.270158517
 20
39.0761813179
 10
11.3165487378
 20
39.0844384715
 10
11.3430858867
 20
39.0927222855
  0
LINE
  5
2EA
100
AcDbEntity
  8
0
100
AcDbLine
 62
7
  6
CONTINUOUS
 10
-1.1
 20
-16.1120046103
 11
-1.1
 21
-14.9859796082
  0
LINE
  5
2EB
100
AcDbEntity
  8
0
100
AcDbLine
 62
7
  6
CONTINUOUS
 10
-1.1
 20
5.1541565248
 11
-1.1
 21
6.2801815269
  0
LWPOLYLINE
  5
2EC
100
AcDbEntity
  8
0
100
AcDbPolyline
 62
7
  6
CONTINUOUS
 90
19
 70
0
 10
33.0
 20
24.4840884583
 10
33.041110003
 20
24.5134784637
 10
33.0795961106
 20
24.5441861868
 10
33.115461391
 20
24.5762116277
 10
33.1486516896
 20
24.6096675457
 10
33.1792727926
 20
24.6444411813
 10
33.2075450737
 20
24.6801942567
 10
33.233506128
 20
24.71692252
 10
33.2571332349
 20
24.754630223
 10
33.2785093464
 20
24.7929918431
 10
33.2976268473
 20
24.8319434387
 10
33.3145203729
 20
24.8715489514
 10
33.3292904156
 20
24.9116746834
 10
33.3419426311
 20
24.9523645639
 10
33.3524473533
 20
24.9935746636
 10
33.3608133262
 20
25.0350394974
 10
33.3670357787
 20
25.07667057
 10
33.3711069533
 20
25.1185563765
 10
33.3730280729
 20
25.160696917
  0
LWPOLYLINE
  5
2ED
100
AcDbEntity
  8
0
100
AcDbPolyline
 62
7
  6
CONTINUOUS
 90
30
 70
0
 10
-18.5737469122
 20
-6.7198417369
 10
-18.4731466365
 20
-6.6631835427
 10
-18.3836096879
 20
-6.6011517423
 10
-18.3051360663
 20
-6.5337463356
 10
-18.2381282216
 20
-6.4614124129
 10
-18.1821837039
 20
-6.383704884
 10
-18.1360951643
 20
-6.299288478
 10
-18.0990720664
 20
-6.2072778613
 10
-18.0719049466
 20
-6.1085583675
 10
-18.0557580646
 20
-6.0044507267
 10
-18.0510205617
 20
-5.8918131148
 10
-18.0573032967
 20
-5.7737873558
 10
-18.0746031065
 20
-5.6611196523
 10
-18.1035853242
 20
-5.5566845662
 10
-18.1435846167
 20
-5.4576075355
 10
-18.1926018218
 20
-5.3660110769
 10
-18.2506930447
 20
-5.2821275713
 10
-18.3178021803
 20
-5.2057246379
 10
-18.3917617506
 20
-5.138227651
 10
-18.4714885478
 20
-5.0797978133
 10
-18.5580657797
 20
-5.0302739222
 10
-18.6525755913
 20
-4.990597744
 10
-18.757692672
 20
-4.9606618365
 10
-18.8707423325
 20
-4.9405736418
 10
-18.984782649
 20
-4.9315972532
 10
-19.1004234109
 20
-4.9347406391
 10
-19.2170548288
 20
-4.9489958309
 10
-19.3259056118
 20
-4.9726030157
 10
-19.4242886685
 20
-5.0058622672
 10
-19.5148910901
 20
-5.0484735115
  0
LWPOLYLINE
  5
2EE
100
AcDbEntity
  8
0
100
AcDbPolyline
 62
7
  6
CONTINUOUS
 90
34
 70
0
 10
-20.3466185187
 20
-2.6943969463
 10
-20.418100646
 20
-2.6975991788
 10
-20.4859921296
 20
-2.705170157
 10
-20.5502929695
 20
-2.717109881
 10
-20.6112349449
 20
-2.7337581749
 10
-20.6685862766
 20
-2.7547752144
 10
-20.7216516272
 20
-2.7791415272
 10
-20.7701047345
 20
-2.8069896872
 10
-20.8142718606
 20
-2.8381871203
 10
-20.8544364551
 20
-2.8713166318
 10
-20.8900388691
 20
-2.9056220272
 10
-20.9216387515
 20
-2.9418595009
 10
-20.9511984983
 20
-2.9808804415
 10
-20.9794817746
 20
-3.022806504
 10
-21.0057249154
 20
-3.0675160333
 10
-21.0295993224
 20
-3.1154954527
 10
-21.0513064841
 20
-3.1669631579
 10
-21.0706449119
 20
-3.2217007532
 10
-21.0866815421
 20
-3.2795394745
 10
-21.0993365533
 20
-3.3405605403
 10
-21.1086897668
 20
-3.4046827322
 10
-21.1140475823
 20
-3.4714936308
 10
-21.1159229565
 20
-3.5410686054
 10
-21.1138029327
 20
-3.6133322868
 10
-21.105455041
 20
-3.6876461475
 10
-21.0912064273
 20
-3.764703865
 10
-21.0707299458
 20
-3.8438117619
 10
-21.0408116888
 20
-3.922250278
 10
-21.000684695
 20
-4.000342858
 10
-20.9511159258
 20
-4.0777660573
 10
-20.8911923578
 20
-4.1508299828
 10
-20.8206096498
 20
-4.2183046701
 10
-20.739672143
 20
-4.2814200836
 10
-20.6483798375
 20
-4.3401762234
  0
LWPOLYLINE
  5
2EF
100
AcDbEntity
  8
RACCORDO
100
AcDbPolyline
 62
250
  6
CONTINUOUS
 90
69
 70
0
 10
-14.0
 20
37.6224680119
 10
-13.9992275527
 20
37.6199013621
 10
-13.9781185734
 20
37.6088126415
 10
-13.9281862066
 20
37.5977518382
 10
-13.8495576313
 20
37.58674486
 10
-13.7423829482
 20
37.57581127
 10
-13.60675475
 20
37.5649644788
 10
-13.4428011845
 20
37.5542224394
 10
-13.2508426282
 20
37.5436125522
 10
-13.0313172335
 20
37.5331622006
 10
-12.7846138545
 20
37.5228919005
 10
-12.5112419963
 20
37.5128246358
 10
-12.2120162898
 20
37.5029901917
 10
-11.8878201935
 20
37.4934148992
 10
-11.5391733371
 20
37.484111618
 10
-11.1664099983
 20
37.4750894045
 10
-10.7699362888
 20
37.4663606803
 10
-10.3508224242
 20
37.4579514486
 10
-9.9104793418
 20
37.4498899217
 10
-9.4502916249
 20
37.4421989419
 10
-8.9708644373
 20
37.4348862313
 10
-8.4725000464
 20
37.4279564675
 10
-7.9556665461
 20
37.4214185868
 10
-7.4218884307
 20
37.4152942221
 10
-6.873106783
 20
37.4096055941
 10
-6.3111080671
 20
37.4043688462
 10
-5.7365098625
 20
37.3995874206
 10
-5.1495485709
 20
37.3952633186
 10
-4.5507315752
 20
37.3914026054
 10
-3.9419337177
 20
37.3880196576
 10
-3.3254687926
 20
37.3851273105
 10
-2.7033666278
 20
37.3827327916
 10
-2.0762194877
 20
37.3808361122
 10
-1.4442155617
 20
37.379437853
 10
-0.8079005312
 20
37.3785414913
 10
-0.1693373528
 20
37.3781521958
 10
0.4690108807
 20
37.3782714684
 10
1.1050649891
 20
37.3788966657
 10
1.7382672998
 20
37.3800249839
 10
2.3684294865
 20
37.3816560791
 10
2.9949623359
 20
37.3837906725
 10
3.6158102357
 20
37.3864240274
 10
4.2286102553
 20
37.3895461437
 10
4.8314319262
 20
37.3931449422
 10
5.423747702
 20
37.3972150002
 10
6.0053185235
 20
37.4017546449
 10
6.5755178653
 20
37.4067612359
 10
7.1324950501
 20
37.4122208247
 10
7.6742187902
 20
37.41811355
 10
8.19907782
 20
37.4244196287
 10
8.706574067
 20
37.4311307555
 10
9.1963939259
 20
37.4382427232
 10
9.6679067646
 20
37.4457486491
 10
10.1196346485
 20
37.4536273739
 10
10.5500501112
 20
37.4618523484
 10
10.9579772276
 20
37.4703988228
 10
11.3429669195
 20
37.4792549887
 10
11.7046570579
 20
37.4884123998
 10
12.0424820181
 20
37.4978590213
 10
12.3554482745
 20
37.5075695277
 10
12.6426155748
 20
37.5175149319
 10
12.9033817538
 20
37.5276727884
 10
13.1372816533
 20
37.5380232149
 10
13.3437717383
 20
37.5485395206
 10
13.5224235259
 20
37.5591947744
 10
13.673037466
 20
37.5699712068
 10
13.7954684899
 20
37.5808556104
 10
13.889488706
 20
37.5918286731
 10
13.9548673832
 20
37.6028646856
  0
LWPOLYLINE
  5
2F0
100
AcDbEntity
  8
0
100
AcDbPolyline
 62
7
  6
CONTINUOUS
 90
9
 70
0
 10
-11.8499999372
 20
39.5995804784
 10
-11.849744374
 20
39.59842612
 10
-11.8375783153
 20
39.5901042026
 10
-11.806283124
 20
39.5818110417
 10
-11.755746106
 20
39.5735332934
 10
-11.6860799555
 20
39.5652843015
 10
-11.5976227544
 20
39.5571040976
 10
-11.490283164
 20
39.5489930158
 10
-11.3641525231
 20
39.540950722
  0
LINE
  5
2F1
100
AcDbEntity
  8
0
100
AcDbLine
 62
7
  6
CONTINUOUS
 10
1.1
 20
6.2801815269
 11
1.1
 21
5.1541565248
  0
LINE
  5
2F2
100
AcDbEntity
  8
0
100
AcDbLine
 62
7
  6
CONTINUOUS
 10
1.1
 20
-14.9859796082
 11
1.1
 21
-16.1120046103
  0
LINE
  5
2F3
100
AcDbEntity
  8
0
100
AcDbLine
 62
7
  6
CONTINUOUS
 10
1.82846
 20
25.1819984583
 11
1.82846
 21
25.5322784583
  0
LINE
  5
2F4
100
AcDbEntity
  8
0
100
AcDbLine
 62
7
  6
CONTINUOUS
 10
3.6
 20
44.9645486389
 11
3.6
 21
44.4988128997
  0
LINE
  5
2F5
100
AcDbEntity
  8
0
100
AcDbLine
 62
7
  6
CONTINUOUS
 10
4.1
 20
45.3378444987
 11
4.1
 21
44.9987367473
  0
LWPOLYLINE
  5
2F6
100
AcDbEntity
  8
0
100
AcDbPolyline
 62
7
  6
CONTINUOUS
 90
4
 70
0
 10
-33.2349977679
 20
-34.489599954
 10
-33.1661339813
 20
-34.4240519345
 10
-33.0864294304
 20
-34.3648157802
 10
-32.9999983446
 20
-34.3159149445
  0
LWPOLYLINE
  5
2F7
100
AcDbEntity
  8
0
100
AcDbPolyline
 62
7
  6
CONTINUOUS
 90
19
 70
0
 10
-20.4
 20
35.5840884583
 10
-20.4293900351
 20
35.6251984988
 10
-20.4600977877
 20
35.6636846371
 10
-20.4921232579
 20
35.6995499419
 10
-20.5255792049
 20
35.7327402582
 10
-20.5603528695
 20
35.7633613734
 10
-20.5961059739
 20
35.791633663
 10
-20.6328342688
 20
35.8175947241
 10
-20.6705420035
 20
35.8412218343
 10
-20.7089036477
 20
35.8625979422
 10
-20.7478552581
 20
35.881715433
 10
-20.787460778
 20
35.8986089444
 10
-20.8275865075
 20
35.9133789696
 10
-20.8682763771
 20
35.9260311663
 10
-20.9094864563
 20
35.9365358689
 10
-20.9509512533
 20
35.944901822
 10
-20.9925822707
 20
35.9511242565
 10
-21.0344680058
 20
35.9551954178
 10
-21.0766084587
 20
35.9571165312
  0
LWPOLYLINE
  5
2F8
100
AcDbEntity
  8
0
100
AcDbPolyline
 62
250
  6
CONTINUOUS
 90
10
 70
0
 10
-21.0766024408
 20
35.9571165312
 10
-21.0818615341
 20
35.9655692506
 10
-21.0869930626
 20
35.9740447604
 10
-21.0919970265
 20
35.9825430606
 10
-21.0968714263
 20
35.9910641976
 10
-21.1016182615
 20
35.9996081249
 10
-21.1062435302
 20
36.0081747034
 10
-21.1107492319
 20
36.0167638867
 10
-21.1151333671
 20
36.0253757211
 10
-21.119395936
 20
36.0340102067
  0
LWPOLYLINE
  5
2F9
100
AcDbEntity
  8
0
100
AcDbPolyline
 62
7
  6
CONTINUOUS
 90
10
 70
0
 10
-10.0999999198
 20
41.3993072605
 10
-10.0995119031
 20
41.3977225108
 10
-10.0860633199
 20
41.3900403861
 10
-10.0535016035
 20
41.3823903805
 10
-10.0016921758
 20
41.3747580725
 10
-9.9307696147
 20
41.3671578836
 10
-9.8411376543
 20
41.3596330787
 10
-9.732689587
 20
41.3521840878
 10
-9.6055321203
 20
41.3448104809
 10
-9.4603891114
 20
41.337554233
  0
LWPOLYLINE
  5
2FA
100
AcDbEntity
  8
0
100
AcDbPolyline
 62
7
  6
CONTINUOUS
 90
70
 70
0
 10
-9.45
 20
40.8993611971
 10
-9.449466723
 20
40.8976091067
 10
-9.4351046679
 20
40.8901048398
 10
-9.4011869175
 20
40.8826197581
 10
-9.3477837717
 20
40.8751693756
 10
-9.2750059165
 20
40.8677691344
 10
-9.1830041952
 20
40.8604343725
 10
-9.0719692954
 20
40.8531802924
 10
-8.9421313538
 20
40.8460219294
 10
-8.7937594796
 20
40.83897412
 10
-8.6271611959
 20
40.8320514722
 10
-8.4426818032
 20
40.825268334
 10
-8.2407036633
 20
40.8186387645
 10
-8.0216454066
 20
40.8121765047
 10
-7.7859610648
 20
40.8058949484
 10
-7.5341391298
 20
40.7998071152
 10
-7.2667015409
 20
40.7939256231
 10
-6.9842026034
 20
40.7882626622
 10
-6.6872278394
 20
40.7828299701
 10
-6.3763927746
 20
40.7776388067
 10
-6.052341662
 20
40.7726999316
 10
-5.7157461471
 20
40.7680235812
 10
-5.3673038755
 20
40.7636194482
 10
-5.007737047
 20
40.7594966606
 10
-4.6377909187
 20
40.7556637637
 10
-4.2582322606
 20
40.7521287016
 10
-3.8698477658
 20
40.7488988013
 10
-3.4734424206
 20
40.7459807574
 10
-3.0698378355
 20
40.7433806178
 10
-2.6598705427
 20
40.7411037718
 10
-2.2443902621
 20
40.7391549385
 10
-1.8242581399
 20
40.7375381571
 10
-1.4003449641
 20
40.7362567787
 10
-0.9735293596
 20
40.7353134591
 10
-0.5446959668
 20
40.7347101535
 10
-0.1147336084
 20
40.7344481123
 10
0.3154665529
 20
40.7345278786
 10
0.7450128616
 20
40.7349492872
 10
1.1730150174
 20
40.7357114646
 10
1.5985859204
 20
40.736812831
 10
2.02084351
 20
40.7382511038
 10
2.4389125928
 20
40.7400233018
 10
2.8519266568
 20
40.742125752
 10
3.2590296673
 20
40.7445540966
 10
3.6593778412
 20
40.7473033025
 10
4.0521413957
 20
40.7503676717
 10
4.4365062683
 20
40.7537408527
 10
4.8116758042
 20
40.7574158541
 10
5.1768724073
 20
40.7613850589
 10
5.5313391517
 20
40.7656402404
 10
5.8743413511
 20
40.7701725789
 10
6.205168081
 20
40.7749726805
 10
6.5231336524
 20
40.7800305964
 10
6.8275790333
 20
40.7853358432
 10
7.1178732139
 20
40.7908774249
 10
7.3934145154
 20
40.7966438558
 10
7.6536318363
 20
40.802623184
 10
7.8979858365
 20
40.8088030166
 10
8.1259700549
 20
40.8151705449
 10
8.3371119595
 20
40.8217125711
 10
8.5309739264
 20
40.8284155359
 10
8.7071541471
 20
40.8352655465
 10
8.8652874613
 20
40.8422484051
 10
9.0050461133
 20
40.8493496387
 10
9.1261404322
 20
40.8565545288
 10
9.2283194314
 20
40.8638481424
 10
9.3113713294
 20
40.8712153621
 10
9.3751239883
 20
40.8786409184
 10
9.4194452712
 20
40.8861094206
 10
9.4442433153
 20
40.8936053892
  0
LWPOLYLINE
  5
2FB
100
AcDbEntity
  8
0
100
AcDbPolyline
 62
7
  6
CONTINUOUS
 90
30
 70
0
 10
-2.32486
 20
23.3763884583
 10
-2.3075609938
 20
23.2639552407
 10
-2.2803659352
 20
23.158814689
 10
-2.2432748244
 20
23.0609668032
 10
-2.1958314346
 20
22.9702767869
 10
-2.1384919926
 20
22.8868794365
 10
-2.0726251781
 20
22.8111791406
 10
-1.9980270685
 20
22.742460822
 10
-1.9149015865
 20
22.681439558
 10
-1.8252291792
 20
22.6306649691
 10
-1.7294142988
 20
22.5907696064
 10
-1.6270524931
 20
22.5611209187
 10
-1.5189108522
 20
22.5423708735
 10
-1.4015763605
 20
22.5346810305
 10
-1.2784620335
 20
22.53788983
 10
-1.1605740077
 20
22.5521645595
 10
-1.0511981019
 20
22.5776890882
 10
-0.9470484974
 20
22.6142795469
 10
-0.8492738741
 20
22.6615516154
 10
-0.7569833128
 20
22.7209838321
 10
-0.6710677327
 20
22.7910976587
 10
-0.5953485715
 20
22.8670731597
 10
-0.5308288766
 20
22.9477649492
 10
-0.4765056005
 20
23.0343184131
 10
-0.4331910391
 20
23.1253497737
 10
-0.4014170463
 20
23.2223010052
 10
-0.380651768
 20
23.3237301333
 10
-0.3701119385
 20
23.423927458
 10
-0.37000754
 20
23.522741708
 10
-0.3801285901
 20
23.6203241545
  0
LWPOLYLINE
  5
2FC
100
AcDbEntity
  8
0
100
AcDbPolyline
 62
7
  6
CONTINUOUS
 90
31
 70
0
 10
-0.00634
 20
23.3680484583
 10
0.010460814
 20
23.2568749612
 10
0.0365608272
 20
23.1532400024
 10
0.0719600394
 20
23.0571435818
 10
0.1169500196
 20
22.9686378248
 10
0.171239199
 20
22.8876706061
 10
0.233952871
 20
22.8140855494
 10
0.3051679741
 20
22.7471490952
 10
0.3848075698
 20
22.6875948029
 10
0.4717661363
 20
22.6374669748
 10
0.5663297986
 20
22.5971642781
 10
0.6682124316
 20
22.5662880455
 10
0.7754501387
 20
22.5456865771
 10
0.8909818078
 20
22.5355551979
 10
1.0118685508
 20
22.5356985828
 10
1.1273298074
 20
22.5463790561
 10
1.234070097
 20
22.5677873427
 10
1.3353849001
 20
22.5997327176
 10
1.4303800978
 20
22.6419053301
 10
1.5186619756
 20
22.6940865698
 10
1.600624248
 20
22.756495047
 10
1.6765539386
 20
22.8294767425
 10
1.7481634934
 20
22.9145241347
 10
1.8137404664
 20
23.010144745
 10
1.8684345434
 20
23.1122071184
 10
1.9108749053
 20
23.2208595603
 10
1.9424323712
 20
23.3359537653
 10
1.9623690844
 20
23.4529133619
 10
1.9700835153
 20
23.5731642091
 10
1.9661771936
 20
23.6952804479
 10
1.9517168513
 20
23.8104081299
  0
LINE
  5
2FD
100
AcDbEntity
  8
0
100
AcDbLine
 62
7
  6
CONTINUOUS
 10
7.5
 20
21.4840884583
 11
7.5
 21
21.6840884583
  0
LINE
  5
2FE
100
AcDbEntity
  8
0
100
AcDbLine
 62
7
  6
CONTINUOUS
 10
7.85
 20
43.1493944099
 11
7.85
 21
42.6990870484
  0
LWPOLYLINE
  5
2FF
100
AcDbEntity
  8
0
100
AcDbPolyline
 62
7
  6
CONTINUOUS
 90
4
 70
0
 10
33.2355011409
 20
24.6583171909
 10
33.1661338767
 20
24.5922288267
 10
33.086429378
 20
24.5329926859
 10
32.9999983446
 20
24.4840918611
  0
LWPOLYLINE
  5
300
100
AcDbEntity
  8
0
100
AcDbPolyline
 62
7
  6
CONTINUOUS
 90
27
 70
0
 10
-7.85
 20
42.6990870484
 10
-7.8493676127
 20
42.6973480948
 10
-7.8357358909
 20
42.690831801
 10
-7.8043537072
 20
42.6843342079
 10
-7.7552921522
 20
42.6778700348
 10
-7.6886623661
 20
42.6714539251
 10
-7.6046152867
 20
42.6651004132
 10
-7.5033413079
 20
42.658823892
 10
-7.3850698477
 20
42.6526385798
 10
-7.2500688289
 20
42.6465584884
 10
-7.0986440724
 20
42.640597391
 10
-6.9311386039
 20
42.6347687915
 10
-6.7479318772
 20
42.6290858935
 10
-6.5494389144
 20
42.6235615707
 10
-6.336109366
 20
42.6182083374
 10
-6.1084264919
 20
42.6130383203
 10
-5.8669060672
 20
42.6080632313
 10
-5.6120952132
 20
42.6032943405
 10
-5.3445711585
 20
42.5987424511
 10
-5.0649399312
 20
42.5944178744
 10
-4.7738349858
 20
42.590330407
 10
-4.4719157688
 20
42.5864893085
 10
-4.1598662242
 20
42.58290328
 10
-3.8383932447
 20
42.5795804451
 10
-3.5082250699
 20
42.5765283311
 10
-3.170109637
 20
42.5737538521
 10
-2.4731170256
 20
42.5690622958
  0
LWPOLYLINE
  5
301
100
AcDbEntity
  8
0
100
AcDbPolyline
 62
7
  6
CONTINUOUS
 90
9
 70
0
 10
-8.3499999181
 20
43.1990313128
 10
-8.3494253638
 20
43.1974399246
 10
-8.3367438498
 20
43.1908137514
 10
-8.3068688636
 20
43.1842181959
 10
-8.2596673966
 20
43.1776397335
 10
-8.1952724573
 20
43.1710918889
 10
-8.1140830719
 20
43.1646152361
 10
-8.0159949575
 20
43.1582102172
 10
-7.9011123969
 20
43.15187639
  0
LWPOLYLINE
  5
302
100
AcDbEntity
  8
0
100
AcDbPolyline
 62
7
  6
CONTINUOUS
 90
19
 70
0
 10
1.9517168513
 20
23.8104081299
 10
1.9269627721
 20
23.9152983025
 10
1.8916546724
 20
24.0131999182
 10
1.8460784328
 20
24.105005887
 10
1.7890867742
 20
24.1920328804
 10
1.7218269759
 20
24.2729642267
 10
1.6480267555
 20
24.3447428207
 10
1.5684531226
 20
24.4068362659
 10
1.4823390676
 20
24.4597769588
 10
1.3911112804
 20
24.5021049832
 10
1.2936509606
 20
24.5334871882
 10
1.1910769085
 20
24.5542567247
 10
1.0881722143
 20
24.5639531291
 10
0.9862378281
 20
24.5628676488
 10
0.8839727999
 20
24.5507090365
 10
0.78225737
 20
24.5261430863
 10
0.6813849517
 20
24.4887250632
 10
0.5810621318
 20
24.4388997022
 10
0.4812889101
 20
24.3766670034
  0
LWPOLYLINE
  5
303
100
AcDbEntity
  8
0
100
AcDbPolyline
 62
7
  6
CONTINUOUS
 90
11
 70
0
 10
-0.3801285901
 20
23.6203241545
 10
-0.3990618756
 20
23.7114189112
 10
-0.4267832429
 20
23.7944750549
 10
-0.4633168454
 20
23.8710435088
 10
-0.50732193
 20
23.9405211569
 10
-0.5583204924
 20
24.0027870731
 10
-0.6167905367
 20
24.0579621834
 10
-0.6828253221
 20
24.1058061499
 10
-0.7564559349
 20
24.14623886
 10
-0.8376512886
 20
24.1793404263
 10
-0.9264113834
 20
24.2051108488
  0
LINE
  5
304
100
AcDbEntity
  8
0
100
AcDbLine
 62
7
  6
CONTINUOUS
 10
8.35
 20
43.6390651648
 11
8.35
 21
43.199010896
  0
LINE
  5
305
100
AcDbEntity
  8
0
100
AcDbLine
 62
7
  6
CONTINUOUS
 10
9.45
 20
41.3371923233
 11
9.45
 21
40.8993611971
  0
LINE
  5
306
100
AcDbEntity
  8
0
100
AcDbLine
 62
7
  6
CONTINUOUS
 10
10.1
 20
41.8661301517
 11
10.1
 21
41.3992850447
  0
LINE
  5
307
100
AcDbEntity
  8
0
100
AcDbLine
 62
7
  6
CONTINUOUS
 10
11.35
 20
39.540253269
 11
11.35
 21
39.0996353458
  0
LINE
  5
308
100
AcDbEntity
  8
0
100
AcDbLine
 62
7
  6
CONTINUOUS
 10
11.85
 20
40.0262180431
 11
11.85
 21
39.5995591934
  0
LWPOLYLINE
  5
309
100
AcDbEntity
  8
0
100
AcDbPolyline
 62
7
  6
CONTINUOUS
 90
19
 70
0
 10
-33.0
 20
-34.3159115417
 10
-33.0411100405
 20
-34.3453015768
 10
-33.0795961789
 20
-34.3760093294
 10
-33.1154614836
 20
-34.4080347996
 10
-33.1486517999
 20
-34.4414907466
 10
-33.1792729151
 20
-34.4762644112
 10
-33.2075452047
 20
-34.5120175156
 10
-33.2335062658
 20
-34.5487458105
 10
-33.257133376
 20
-34.5864535452
 10
-33.2785094839
 20
-34.6248151894
 10
-33.2976269747
 20
-34.6637667998
 10
-33.3145204861
 20
-34.7033723197
 10
-33.3292905113
 20
-34.7434980492
 10
-33.341942708
 20
-34.7841879188
 10
-33.3524474106
 20
-34.825397998
 10
-33.3608133637
 20
-34.866862795
 10
-33.3670357982
 20
-34.9084938124
 10
-33.3711069595
 20
-34.9503795475
 10
-33.3730280729
 20
-34.9925200005
  0
LINE
  5
30A
100
AcDbEntity
  8
0
100
AcDbLine
 62
7
  6
CONTINUOUS
 10
-17.4
 20
11.5840884583
 11
-17.6
 21
11.5840884583
  0
LWPOLYLINE
  5
30B
100
AcDbEntity
  8
ASSI
100
AcDbPolyline
 62
7
  6
CONTINUOUS
 90
27
 70
0
 10
33.6159885716
 20
-16.4159115417
 10
33.6097923796
 20
-16.4101821392
 10
33.5974700651
 20
-16.3668545691
 10
33.5852186155
 20
-16.2797076061
 10
33.5730372354
 20
-16.149233073
 10
33.5610636777
 20
-15.9769064382
 10
33.5493003014
 20
-15.7622526274
 10
33.5377447475
 20
-15.5057467149
 10
33.5265276917
 20
-15.2102893923
 10
33.5156529763
 20
-14.8754385117
 10
33.5051167591
 20
-14.5016362211
 10
33.4950381886
 20
-14.0931096554
 10
33.4854224596
 20
-13.6494646503
 10
33.4762643774
 20
-13.1710953701
 10
33.4676675058
 20
-12.6634114436
 10
33.4596382153
 20
-12.1260801124
 10
33.4521701355
 20
-11.5594341349
 10
33.4453477189
 20
-10.9698814148
 10
33.4391782948
 20
-10.3571619316
 10
33.4336545339
 20
-9.7215357058
 10
33.4288389017
 20
-9.0701907029
 10
33.4247394362
 20
-8.4029484947
 10
33.4213480994
 20
-7.7199875095
 10
33.418703242
 20
-7.0290309966
 10
33.4168176477
 20
-6.3326533726
 10
33.4156785329
 20
-5.628280221
 10
33.4152858976
 20
-4.9159115417
  0
LWPOLYLINE
  5
30C
100
AcDbEntity
  8
0
100
AcDbPolyline
 62
7
  6
CONTINUOUS
 90
4
 70
0
 10
-20.5742287326
 20
35.8195895992
 10
-20.5081403684
 20
35.750222335
 10
-20.4489042276
 20
35.6705178363
 10
-20.4000034028
 20
35.5840868029
  0
LINE
  5
30D
100
AcDbEntity
  8
0
100
AcDbLine
 62
7
  6
CONTINUOUS
 10
14.0
 20
37.6224680119
 11
14.0
 21
36.2000770299
  0
LINE
  5
30E
100
AcDbEntity
  8
0
100
AcDbLine
 62
250
  6
CONTINUOUS
 10
14.9
 20
-45.8837744819
 11
14.9000000056
 21
-45.4159115417
  0
LWPOLYLINE
  5
30F
100
AcDbEntity
  8
0
100
AcDbPolyline
 62
250
  6
CONTINUOUS
 90
10
 70
0
 10
-33.3730280729
 20
-34.9925139825
 10
-33.3814807923
 20
-34.9977730758
 10
-33.3899563021
 20
-35.0029046043
 10
-33.3984546023
 20
-35.0079085682
 10
-33.4069757393
 20
-35.012782968
 10
-33.4155196666
 20
-35.0175298032
 10
-33.4240862451
 20
-35.0221550719
 10
-33.4326754284
 20
-35.0266607736
 10
-33.4412872628
 20
-35.0310449088
 10
-33.4499217485
 20
-35.0353074777
  0
LINE
  5
310
100
AcDbEntity
  8
0
100
AcDbLine
 62
250
  6
CONTINUOUS
 10
33.4678629402
 20
18.9840884583
 11
33.0
 21
18.9840884639
  0
LWPOLYLINE
  5
311
100
AcDbEntity
  8
0
100
AcDbPolyline
 62
7
  6
CONTINUOUS
 90
16
 70
0
 10
-13.9999999495
 20
36.2000977807
 10
-13.988794932
 20
36.1903153605
 10
-13.9582011958
 20
36.1812105073
 10
-13.9080065983
 20
36.1721193676
 10
-13.8383083921
 20
36.1630545899
 10
-13.7493983346
 20
36.1540541193
 10
-13.6411958924
 20
36.1451182256
 10
-13.5137815988
 20
36.136246639
 10
-13.3676888117
 20
36.1274764962
 10
-13.2028392332
 20
36.1188082224
 10
-13.0193111611
 20
36.1102413923
 10
-12.8178728459
 20
36.1018118669
 10
-12.5984492103
 20
36.0935202216
 10
-12.3611153316
 20
36.0853658809
 10
-12.1068646919
 20
36.077382979
 10
-11.8587505989
 20
36.0702381337
  0
LWPOLYLINE
  5
312
100
AcDbEntity
  8
RACCORDO
100
AcDbPolyline
 62
250
  6
CONTINUOUS
 90
67
 70
0
 10
-11.85
 20
40.0262180431
 10
-11.842975873
 20
40.0190983457
 10
-11.819774813
 20
40.0114563234
 10
-11.7784224305
 20
40.0035214275
 10
-11.7168431909
 20
39.995301739
 10
-11.6327045742
 20
39.9867946038
 10
-11.5225832349
 20
39.9779389584
 10
-11.3848974757
 20
39.9688460412
 10
-11.2216817412
 20
39.9597696053
 10
-11.0337010017
 20
39.9507882229
 10
-10.8196145247
 20
39.9418695691
 10
-10.5806025277
 20
39.933091265
 10
-10.3170662379
 20
39.9244828763
 10
-10.0290467594
 20
39.9160593186
 10
-9.7179540153
 20
39.9078708216
 10
-9.3844970581
 20
39.8999396454
 10
-9.0292293678
 20
39.8922823186
 10
-8.6538010519
 20
39.8849352069
 10
-8.2596766877
 20
39.8779236821
 10
-7.8472872801
 20
39.8712522893
 10
-7.4168511774
 20
39.8649245527
 10
-6.9687727084
 20
39.8589490362
 10
-6.5045085452
 20
39.8533476912
 10
-6.0259043177
 20
39.8481427867
 10
-5.5346498332
 20
39.8433503405
 10
-5.0313482808
 20
39.8389739458
 10
-4.5162700951
 20
39.8350159557
 10
-3.9899423547
 20
39.8314826099
 10
-3.4541158539
 20
39.8283878118
 10
-2.9109222277
 20
39.8257438739
 10
-2.3622424017
 20
39.8235578689
 10
-1.8087121293
 20
39.8218302741
 10
-1.2506271957
 20
39.820562014
 10
-0.6885930434
 20
39.8197564884
 10
-0.1245148471
 20
39.8194184441
 10
0.4393622127
 20
39.8195492275
 10
1.0011186
 20
39.8201463852
 10
1.5601371083
 20
39.8212072519
 10
2.1161195437
 20
39.8227312628
 10
2.6684302697
 20
39.8247187077
 10
3.2151643703
 20
39.8271647841
 10
3.7541456941
 20
39.8300597573
 10
4.2835720135
 20
39.8333918466
 10
4.8028938209
 20
39.8371554624
 10
5.3118335212
 20
39.8413485938
 10
5.8097761369
 20
39.8459683926
 10
6.2949715833
 20
39.8510008962
 10
6.765489208
 20
39.8564260805
 10
7.2197881719
 20
39.8622237712
 10
7.657432769
 20
39.8683859224
 10
8.0781933468
 20
39.8749093118
 10
8.4816356558
 20
39.8817901739
 10
8.866183217
 20
39.8890047269
 10
9.23001074
 20
39.8965178925
 10
9.5725198014
 20
39.9043140621
 10
9.8929075619
 20
39.9123715174
 10
10.1895145932
 20
39.9206399427
 10
10.4622471964
 20
39.9291037805
 10
10.7106304536
 20
39.937734352
 10
10.9331971602
 20
39.9464552008
 10
11.1314186256
 20
39.9552959272
 10
11.3042727633
 20
39.9641799223
 10
11.4487905719
 20
39.9728590693
 10
11.5661133528
 20
39.9812208815
 10
11.6598931925
 20
39.9893220291
 10
11.7324823861
 20
39.9971643335
 10
11.7859103855
 20
40.0047379885
  0
LWPOLYLINE
  5
313
100
AcDbEntity
  8
RACCORDO
100
AcDbPolyline
 62
250
  6
CONTINUOUS
 90
66
 70
0
 10
-10.1
 20
41.8661301517
 10
-10.0963316948
 20
41.8613798135
 10
-10.0819471578
 20
41.8555957541
 10
-10.0555842931
 20
41.8496173319
 10
-10.0159323505
 20
41.8434346542
 10
-9.9611558228
 20
41.8370030708
 10
-9.8891880096
 20
41.8303039787
 10
-9.7985424873
 20
41.8233857815
 10
-9.6881538851
 20
41.8163076666
 10
-9.5565209962
 20
41.8090874642
 10
-9.4022397634
 20
41.8017502039
 10
-9.2250565968
 20
41.7943663174
 10
-9.0239978438
 20
41.7869618768
 10
-8.7981102617
 20
41.7795633126
 10
-8.5479559524
 20
41.7722393793
 10
-8.2721417279
 20
41.7649939971
 10
-7.9711482566
 20
41.7578819027
 10
-7.6497490271
 20
41.7510350876
 10
-7.310227589
 20
41.744499812
 10
-6.9520081428
 20
41.7382627401
 10
-6.5766850311
 20
41.7323517799
 10
-6.185755105
 20
41.7267877615
 10
-5.779767921
 20
41.721575882
 10
-5.3589717213
 20
41.7167193882
 10
-4.9238058187
 20
41.7122259156
 10
-4.4758584805
 20
41.7081143545
 10
-4.0171474826
 20
41.7044031869
 10
-3.5494999057
 20
41.7011047057
 10
-3.0734936987
 20
41.6982205543
 10
-2.5893187128
 20
41.6957519086
 10
-2.0974624696
 20
41.6937036878
 10
-1.5998184249
 20
41.6920861821
 10
-1.0986991546
 20
41.6909068958
 10
-0.5960967722
 20
41.6901681138
 10
-0.0925543782
 20
41.6898682479
 10
0.4117666343
 20
41.690007397
 10
0.9163323712
 20
41.6905878
 10
1.4191445928
 20
41.6916095532
 10
1.917861484
 20
41.6930679087
 10
2.4105487038
 20
41.6949548225
 10
2.8967060184
 20
41.6972659717
 10
3.376149562
 20
41.700000463
 10
3.8483039999
 20
41.7031574202
 10
4.3112896402
 20
41.7067267268
 10
4.7630069148
 20
41.7106922326
 10
5.201786997
 20
41.7150368462
 10
5.6271739229
 20
41.7197535492
 10
6.0389262644
 20
41.7248396172
 10
6.4365039867
 20
41.7302909804
 10
6.8182985606
 20
41.736088287
 10
7.1825428954
 20
41.7422044543
 10
7.5298825319
 20
41.7486521639
 10
7.8578556894
 20
41.7553876545
 10
8.1611105093
 20
41.7622828048
 10
8.4389271112
 20
41.7692818688
 10
8.6927683779
 20
41.7763803588
 10
8.9219015595
 20
41.7835124637
 10
9.1272032568
 20
41.7906514547
 10
9.3095272465
 20
41.7977694971
 10
9.4688599752
 20
41.8047962064
 10
9.6064975203
 20
41.8117043729
 10
9.7238869147
 20
41.8184751092
 10
9.8218892986
 20
41.8250502564
 10
9.9017929237
 20
41.8313805944
 10
9.9657112157
 20
41.8374816155
 10
10.0156424607
 20
41.8433957124
  0
LWPOLYLINE
  5
314
100
AcDbEntity
  8
0
100
AcDbPolyline
 62
7
  6
CONTINUOUS
 90
9
 70
0
 10
-0.999390827
 20
46.3991326007
 10
-0.9988145124
 20
46.3977122029
 10
-0.9919183507
 20
46.39631494
 10
-0.9787023421
 20
46.394940812
 10
-0.9589995266
 20
46.3935812444
 10
-0.9329768642
 20
46.3922448116
 10
-0.9011352346
 20
46.3909572372
 10
-0.8633619121
 20
46.3897194677
 10
-0.7711974227
 20
46.3874133874
  0
LINE
  5
315
100
AcDbEntity
  8
0
100
AcDbLine
 62
250
  6
CONTINUOUS
 10
20.1
 20
-45.8837744819
 11
20.1
 21
-45.4159115417
  0
LWPOLYLINE
  5
316
100
AcDbEntity
  8
0
100
AcDbPolyline
 62
7
  6
CONTINUOUS
 90
27
 70
0
 10
-11.5
 20
-46.0319001133
 10
-11.4942705975
 20
-46.0257039213
 10
-11.4509430274
 20
-46.0133816068
 10
-11.3637960644
 20
-46.0011301572
 10
-11.2333215313
 20
-45.9889487771
 10
-11.0609948965
 20
-45.9769752194
 10
-10.8463410857
 20
-45.9652118431
 10
-10.5898351732
 20
-45.9536562892
 10
-10.2943778506
 20
-45.9424392334
 10
-9.95952697
 20
-45.931564518
 10
-9.5857246794
 20
-45.9210283008
 10
-9.1771981137
 20
-45.9109497303
 10
-8.7335531086
 20
-45.9013340013
 10
-8.2551838284
 20
-45.8921759191
 10
-7.7474999019
 20
-45.8835790475
 10
-7.2101685707
 20
-45.875549757
 10
-6.6435225932
 20
-45.8680816772
 10
-6.0539698731
 20
-45.8612592606
 10
-5.4412503899
 20
-45.8550898365
 10
-4.8056241641
 20
-45.8495660756
 10
-4.1542791612
 20
-45.8447504434
 10
-3.487036953
 20
-45.8406509779
 10
-2.8040759678
 20
-45.8372596411
 10
-2.1131194549
 20
-45.8346147837
 10
-1.4167418309
 20
-45.8327291894
 10
-0.7123686793
 20
-45.8315900746
 10
-0.0
 20
-45.8311974393
  0
LWPOLYLINE
  5
317
100
AcDbEntity
  8
0
100
AcDbPolyline
 62
7
  6
CONTINUOUS
 90
16
 70
0
 10
-1.2224018465
 20
22.8548750702
 10
-1.2973145275
 20
22.8425810267
 10
-1.3753847237
 20
22.8386980922
 10
-1.4497047141
 20
22.8429159789
 10
-1.5184332025
 20
22.8555754788
 10
-1.5834114851
 20
22.8763357997
 10
-1.6432557285
 20
22.9038642769
 10
-1.6974580738
 20
22.9378950198
 10
-1.74652638
 20
22.9786939189
 10
-1.7906003912
 20
23.0257259816
 10
-1.8294505313
 20
23.0792320012
 10
-1.8633063764
 20
23.1389711845
 10
-1.8929963986
 20
23.203686159
 10
-1.9187967553
 20
23.2729578008
 10
-1.9404312891
 20
23.3472052339
 10
-1.9579
 20
23.4264284583
  0
LINE
  5
318
100
AcDbEntity
  8
0
100
AcDbLine
 62
7
  6
CONTINUOUS
 10
-1.9579
 20
23.4264284583
 11
-2.32486
 21
23.3763884583
  0
LINE
  5
319
100
AcDbEntity
  8
0
100
AcDbLine
 62
7
  6
CONTINUOUS
 10
0.3773
 20
23.3972384583
 11
-0.00634
 21
23.3680484583
  0
LINE
  5
31A
100
AcDbEntity
  8
0
100
AcDbLine
 62
7
  6
CONTINUOUS
 10
-7.5
 20
21.4840884583
 11
7.5
 21
21.4840884583
  0
LINE
  5
31B
100
AcDbEntity
  8
0
100
AcDbLine
 62
7
  6
CONTINUOUS
 10
7.5
 20
21.6840884583
 11
-7.5
 21
21.6840884583
  0
LWPOLYLINE
  5
31C
100
AcDbEntity
  8
0
100
AcDbPolyline
 62
7
  6
CONTINUOUS
 90
14
 70
0
 10
-3.5999998856
 20
44.4988287422
 10
-3.598895185
 20
44.4973304851
 10
-3.5879478751
 20
44.4936849022
 10
-3.5649650475
 20
44.4900688398
 10
-3.5297878458
 20
44.4864702891
 10
-3.4825751264
 20
44.4829012588
 10
-3.4238034587
 20
44.479397775
 10
-3.3533557716
 20
44.4759605016
 10
-3.2713491361
 20
44.4725887748
 10
-3.1786113343
 20
44.469316629
 10
-3.0750336791
 20
44.4661450728
 10
-2.9607248577
 20
44.4630730976
 10
-2.836838713
 20
44.4601317122
 10
-2.5601404526
 20
44.4546433562
  0
LWPOLYLINE
  5
31D
100
AcDbEntity
  8
0
100
AcDbPolyline
 62
7
  6
CONTINUOUS
 90
11
 70
0
 10
-4.0999998988
 20
44.9987526429
 10
-4.0990454959
 20
44.9972709582
 10
-4.0882677987
 20
44.9933361487
 10
-4.0651692991
 20
44.9894295478
 10
-4.0296053054
 20
44.985539486
 10
-3.9817205094
 20
44.9816776328
 10
-3.9219489861
 20
44.9778789956
 10
-3.8501826561
 20
44.9741441494
 10
-3.7665295988
 20
44.9704725193
 10
-3.6717481285
 20
44.9668973885
 10
-3.5657370605
 20
44.9634196347
  0
LINE
  5
31E
100
AcDbEntity
  8
DRAFT
100
AcDbLine
 62
7
  6
CONTINUOUS
 10
26.2242099741
 20
34.8572840665
 11
26.2242099741
 21
30.5840884583
  0
LINE
  5
31F
100
AcDbEntity
  8
DRAFT
100
AcDbLine
 62
7
  6
CONTINUOUS
 10
26.2242099741
 20
-44.6891071499
 11
26.2242099741
 21
-40.4159115417
  0
LINE
  5
320
100
AcDbEntity
  8
DRAFT
100
AcDbLine
 62
7
  6
CONTINUOUS
 10
26.5
 20
34.5840884583
 11
26.5
 21
30.5840884583
  0
LINE
  5
321
100
AcDbEntity
  8
DRAFT
100
AcDbLine
 62
7
  6
CONTINUOUS
 10
26.5
 20
-44.4159115417
 11
26.5
 21
-40.4159115417
  0
LWPOLYLINE
  5
322
100
AcDbEntity
  8
0
100
AcDbPolyline
 62
7
  6
CONTINUOUS
 90
28
 70
0
 10
-1.6011039925
 20
24.0018885175
 10
-1.5212605535
 20
24.0229916821
 10
-1.4427512274
 20
24.0364020196
 10
-1.365576014
 20
24.0421195299
 10
-1.288664234
 20
24.0402258762
 10
-1.2130865668
 20
24.0306393953
 10
-1.1420550507
 20
24.0131150982
 10
-1.0763842114
 20
23.9872590636
 10
-1.0152595233
 20
23.9534652127
 10
-0.9594494484
 20
23.9126703194
 10
-0.9083206834
 20
23.8643409394
 10
-0.8625065316
 20
23.809010517
 10
-0.8246753648
 20
23.7492161598
 10
-0.7956185104
 20
23.6855410828
 10
-0.7745446411
 20
23.617402071
 10
-0.7617481464
 20
23.5455865865
 10
-0.7572568832
 20
23.467879203
 10
-0.7610429947
 20
23.3864953467
 10
-0.7733173002
 20
23.3088687586
 10
-0.7942286002
 20
23.2372679154
 10
-0.8236280943
 20
23.1694243404
 10
-0.861280201
 20
23.1059663445
 10
-0.9084999007
 20
23.0457588125
 10
-0.963972213
 20
22.9899368596
 10
-1.0235166159
 20
22.9425341432
 10
-1.0860444606
 20
22.9048979248
 10
-1.1526443959
 20
22.875680943
 10
-1.2224018465
 20
22.8548750702
  0
LINE
  5
323
100
AcDbEntity
  8
0
100
AcDbLine
 62
250
  6
CONTINUOUS
 10
33.4678629402
 20
24.1840884583
 11
33.0
 21
24.1840884583
  0
LINE
  5
324
100
AcDbEntity
  8
0
100
AcDbLine
 62
7
  6
CONTINUOUS
 10
0.640531
 20
25.1819984583
 11
1.82846
 21
25.1819984583
  0
LINE
  5
325
100
AcDbEntity
  8
0
100
AcDbLine
 62
7
  6
CONTINUOUS
 10
1.82846
 20
25.5322784583
 11
0.34811
 21
25.5322784583
  0
LINE
  5
326
100
AcDbEntity
  8
0
100
AcDbLine
 62
7
  6
CONTINUOUS
 10
0.06038
 20
23.9977184583
 11
0.40649
 21
23.9476784583
  0
LINE
  5
327
100
AcDbEntity
  8
0
100
AcDbLine
 62
7
  6
CONTINUOUS
 10
-2.28733
 20
24.8066984583
 11
-1.92037
 21
24.7399784583
  0
LWPOLYLINE
  5
328
100
AcDbEntity
  8
RACCORDO
100
AcDbPolyline
 62
250
  6
CONTINUOUS
 90
17
 70
0
 10
-4.1
 20
45.3378444987
 10
-4.0985403192
 20
45.3359352443
 10
-4.0840351156
 20
45.3315359881
 10
-4.0540413518
 20
45.3271606428
 10
-4.0086744915
 20
45.3228259974
 10
-3.9481052418
 20
45.3185482933
 10
-3.8725527833
 20
45.3143431888
 10
-3.7823007547
 20
45.3102267521
 10
-3.6776838635
 20
45.306214549
 10
-3.5590672325
 20
45.3023210909
 10
-3.4268752606
 20
45.2985609956
 10
-3.281606504
 20
45.2949490217
 10
-3.1238086207
 20
45.2914992169
 10
-2.9540480031
 20
45.2882244235
 10
-2.7729814933
 20
45.2851377561
 10
-2.5813784685
 20
45.2822524112
 10
-2.1698811192
 20
45.2771321737
  0
LINE
  5
329
100
AcDbEntity
  8
DRAFT
100
AcDbLine
 62
250
  6
CONTINUOUS
 10
28.0
 20
29.0840884583
 11
28.0
 21
28.8082984324
  0
LINE
  5
32A
100
AcDbEntity
  8
DRAFT
100
AcDbLine
 62
250
  6
CONTINUOUS
 10
28.0
 20
-38.9159115417
 11
28.0
 21
-38.6401215158
  0
LINE
  5
32B
100
AcDbEntity
  8
RACCORDO
100
AcDbLine
 62
250
  6
CONTINUOUS
 10
28.0
 20
-44.4159115417
 11
28.0
 21
-46.4159115417
  0
LINE
  5
32C
100
AcDbEntity
  8
RACCORDO
100
AcDbLine
 62
250
  6
CONTINUOUS
 10
28.0
 20
34.5840884583
 11
28.0
 21
36.5840884583
  0
LINE
  5
32D
100
AcDbEntity
  8
DRAFT
100
AcDbLine
 62
7
  6
CONTINUOUS
 10
28.0
 20
28.8082984324
 11
32.2731956082
 21
28.8082984324
  0
LINE
  5
32E
100
AcDbEntity
  8
DRAFT
100
AcDbLine
 62
7
  6
CONTINUOUS
 10
-28.0
 20
28.8082984324
 11
-32.2731956082
 21
28.8082984324
  0
LINE
  5
32F
100
AcDbEntity
  8
DRAFT
100
AcDbLine
 62
7
  6
CONTINUOUS
 10
28.0
 20
29.0840884583
 11
32.0
 21
29.0840884583
  0
LINE
  5
330
100
AcDbEntity
  8
DRAFT
100
AcDbLine
 62
7
  6
CONTINUOUS
 10
-28.0
 20
29.0840884583
 11
-32.0
 21
29.0840884583
  0
LINE
  5
331
100
AcDbEntity
  8
DRAFT
100
AcDbLine
 62
250
  6
CONTINUOUS
 10
-26.5
 20
30.5840884583
 11
-26.2242099741
 21
30.5840884583
  0
LINE
  5
332
100
AcDbEntity
  8
DRAFT
100
AcDbLine
 62
250
  6
CONTINUOUS
 10
26.5
 20
30.5840884583
 11
26.2242099741
 21
30.5840884583
  0
LINE
  5
333
100
AcDbEntity
  8
RACCORDO
100
AcDbLine
 62
250
  6
CONTINUOUS
 10
32.0
 20
30.5840884583
 11
34.0
 21
30.5840884583
  0
LINE
  5
334
100
AcDbEntity
  8
RACCORDO
100
AcDbLine
 62
250
  6
CONTINUOUS
 10
-32.0
 20
30.5840884583
 11
-34.0
 21
30.5840884583
  0
LWPOLYLINE
  5
335
100
AcDbEntity
  8
0
100
AcDbPolyline
 62
250
  6
CONTINUOUS
 90
10
 70
0
 10
33.4499217485
 20
17.9646925223
 10
33.441287266
 20
17.9689550878
 10
33.4326754337
 20
17.9733392209
 10
33.4240862517
 20
17.9778449217
 10
33.4155196734
 20
17.9824701915
 10
33.4069757452
 20
17.987217029
 10
33.3984546071
 20
17.9920914304
 10
33.3899563057
 20
17.9970953942
 10
33.3814807943
 20
18.0022269219
 10
33.3730280729
 20
18.0074860133
  0
LWPOLYLINE
  5
336
100
AcDbEntity
  8
RACCORDO
100
AcDbPolyline
 62
250
  6
CONTINUOUS
 90
60
 70
0
 10
-8.35
 20
43.6390651648
 10
-8.3431459896
 20
43.6331618324
 10
-8.3227689783
 20
43.6273055995
 10
-8.2872248291
 20
43.6212294902
 10
-8.2347858384
 20
43.6149404159
 10
-8.163464635
 20
43.6084346289
 10
-8.0704195261
 20
43.6016712808
 10
-7.9543219803
 20
43.594737228
 10
-7.8166752168
 20
43.587818984
 10
-7.6579282622
 20
43.5809755642
 10
-7.476990181
 20
43.5741921651
 10
-7.2749292559
 20
43.5675360594
 10
-7.0520436329
 20
43.5610328527
 10
-6.8084250545
 20
43.5546997138
 10
-6.545591207
 20
43.5485853666
 10
-6.2642853452
 20
43.5427107697
 10
-5.9650576181
 20
43.5370908505
 10
-5.6496383952
 20
43.5317590001
 10
-5.3195370213
 20
43.5267375087
 10
-4.9751767417
 20
43.5220297475
 10
-4.6167836234
 20
43.5176387937
 10
-4.2447781595
 20
43.5135723434
 10
-3.8606391176
 20
43.5098490233
 10
-3.4662225962
 20
43.5064868247
 10
-3.0632142302
 20
43.5034977994
 10
-2.6522125001
 20
43.5008841262
 10
-2.2334926313
 20
43.4986475565
 10
-1.807592238
 20
43.4967931418
 10
-1.3762468501
 20
43.4953305907
 10
-0.9415432338
 20
43.4942669792
 10
-0.5052996492
 20
43.4936046469
 10
-0.0681222908
 20
43.4933424207
 10
0.3696981343
 20
43.4934804757
 10
0.8075616899
 20
43.4940207107
 10
1.2436449613
 20
43.494962972
 10
1.6758375922
 20
43.4963027008
 10
2.1023693011
 20
43.4980322878
 10
2.5226845097
 20
43.5001473392
 10
2.9365029678
 20
43.5026464451
 10
3.3432199106
 20
43.5055281595
 10
3.7411051514
 20
43.5087824765
 10
4.1282344584
 20
43.5123936581
 10
4.5030584307
 20
43.5163448825
 10
4.8651282065
 20
43.5206289816
 10
5.2142070896
 20
43.5252431675
 10
5.5498701765
 20
43.5301847511
 10
5.8705121761
 20
43.5354331571
 10
6.1742471515
 20
43.5409566068
 10
6.4604760227
 20
43.5467408698
 10
6.7283758753
 20
43.5527657886
 10
6.9762138631
 20
43.5589836512
 10
7.2038385007
 20
43.56537713
 10
7.4108728136
 20
43.5719211003
 10
7.5959906733
 20
43.5785492784
 10
7.7603448811
 20
43.5852745279
 10
7.9032875112
 20
43.5920389753
 10
8.0226183014
 20
43.5986595864
 10
8.1193209087
 20
43.6050480828
 10
8.1963970524
 20
43.6112419875
 10
8.2558608169
 20
43.6172443341
  0
LWPOLYLINE
  5
337
100
AcDbEntity
  8
ASSI
100
AcDbPolyline
 62
7
  6
CONTINUOUS
 90
27
 70
0
 10
33.6159885716
 20
6.5840884583
 10
33.6221847636
 20
6.5783590558
 10
33.6345070781
 20
6.5350314857
 10
33.6467585277
 20
6.4478845227
 10
33.6589399077
 20
6.3174099896
 10
33.6709134655
 20
6.1450833548
 10
33.6826768418
 20
5.930429544
 10
33.6942323957
 20
5.6739236315
 10
33.7054494515
 20
5.3784663089
 10
33.7163241668
 20
5.0436154283
 10
33.726860384
 20
4.6698131377
 10
33.7369389546
 20
4.261286572
 10
33.7465546835
 20
3.8176415669
 10
33.7557127658
 20
3.3392722867
 10
33.7643096374
 20
2.8315883602
 10
33.7723389279
 20
2.294257029
 10
33.7798070077
 20
1.7276110515
 10
33.7866294242
 20
1.1380583314
 10
33.7927988484
 20
0.5253388482
 10
33.7983226092
 20
-0.1102873776
 10
33.8031382415
 20
-0.7616323806
 10
33.8072377069
 20
-1.4288745887
 10
33.8106290438
 20
-2.1118355739
 10
33.8132739012
 20
-2.8027920868
 10
33.8151594955
 20
-3.4991697108
 10
33.8162986103
 20
-4.2035428624
 10
33.8166912456
 20
-4.9159115417
  0
LWPOLYLINE
  5
338
100
AcDbEntity
  8
0
100
AcDbPolyline
 62
250
  6
CONTINUOUS
 90
8
 70
0
 10
33.4499217173
 20
17.9646925224
 10
33.4437715575
 20
18.0638214282
 10
33.4253864954
 20
18.1614223146
 10
33.3950499268
 20
18.2559907148
 10
33.3532294741
 20
18.3460689063
 10
33.3005697776
 20
18.4302683805
 10
33.2378825589
 20
18.5072912465
 10
33.2245066937
 20
18.5214366693
  0
LWPOLYLINE
  5
339
100
AcDbEntity
  8
0
100
AcDbPolyline
 62
7
  6
CONTINUOUS
 90
19
 70
0
 10
33.3730280729
 20
18.0074799995
 10
33.3711045142
 20
18.0496548139
 10
33.3670280935
 20
18.0915689063
 10
33.3607984597
 20
18.1332222766
 10
33.3524243513
 20
18.1747029105
 10
33.3419113565
 20
18.2159228224
 10
33.3292511465
 20
18.2566180551
 10
33.3144740477
 20
18.2967445783
 10
33.2975750386
 20
18.3363464223
 10
33.2784535843
 20
18.3752917201
 10
33.2570754321
 20
18.413644446
 10
33.2334486437
 20
18.4513406257
 10
33.2074899504
 20
18.4880564699
 10
33.1792223742
 20
18.5237962139
 10
33.1486084654
 20
18.5585556224
 10
33.1154269389
 20
18.5919982005
 10
33.0795716216
 20
18.6240117835
 10
33.0410970064
 20
18.654708536
 10
33.0
 20
18.6840884583
  0
LINE
  5
33A
100
AcDbEntity
  8
0
100
AcDbLine
 62
250
  6
CONTINUOUS
 10
33.458813557
 20
25.071865993
 11
33.4610709363
 21
24.9853707152
  0
LINE
  5
33B
100
AcDbEntity
  8
0
100
AcDbLine
 62
250
  6
CONTINUOUS
 10
33.4610709363
 20
24.9853707152
 11
33.4630738488
 21
24.8798252732
  0
LINE
  5
33C
100
AcDbEntity
  8
0
100
AcDbLine
 62
250
  6
CONTINUOUS
 10
33.4630738488
 20
24.8798252732
 11
33.4647675193
 21
24.7585713068
  0
LINE
  5
33D
100
AcDbEntity
  8
0
100
AcDbLine
 62
250
  6
CONTINUOUS
 10
33.4647675193
 20
24.7585713068
 11
33.4661204693
 21
24.6240995949
  0
LINE
  5
33E
100
AcDbEntity
  8
0
100
AcDbLine
 62
250
  6
CONTINUOUS
 10
33.4661204693
 20
24.6240995949
 11
33.4674314732
 21
24.4072276502
  0
LINE
  5
33F
100
AcDbEntity
  8
0
100
AcDbLine
 62
250
  6
CONTINUOUS
 10
33.4674314732
 20
24.4072276502
 11
33.4678629402
 21
24.1840884583
  0
LINE
  5
340
100
AcDbEntity
  8
DRAFT
100
AcDbLine
 62
7
  6
CONTINUOUS
 10
32.0
 20
-38.9159115417
 11
32.0
 21
-40.4159115417
  0
LINE
  5
341
100
AcDbEntity
  8
DRAFT
100
AcDbLine
 62
7
  6
CONTINUOUS
 10
32.0
 20
29.0840884583
 11
32.0
 21
30.5840884583
  0
LINE
  5
342
100
AcDbEntity
  8
RACCORDO
100
AcDbLine
 62
250
  6
CONTINUOUS
 10
32.2731956082
 20
-38.6401215158
 11
32.2731956082
 21
28.8082984324
  0
LINE
  5
343
100
AcDbEntity
  8
RACCORDO
100
AcDbLine
 62
7
  6
CONTINUOUS
 10
32.2757899725
 20
-38.6401215692
 11
32.2757899725
 21
-40.4159115417
  0
LINE
  5
344
100
AcDbEntity
  8
RACCORDO
100
AcDbLine
 62
7
  6
CONTINUOUS
 10
32.2757899725
 20
28.8082984858
 11
32.2757899725
 21
30.5840884583
  0
LINE
  5
345
100
AcDbEntity
  8
0
100
AcDbLine
 62
7
  6
CONTINUOUS
 10
33.0
 20
18.6840884583
 11
33.0
 21
24.4840884583
  0
LINE
  5
346
100
AcDbEntity
  8
0
100
AcDbLine
 62
250
  6
CONTINUOUS
 10
33.3730280729
 20
-40.4159115417
 11
33.3730280729
 21
18.0074860133
  0
LINE
  5
347
100
AcDbEntity
  8
0
100
AcDbLine
 62
250
  6
CONTINUOUS
 10
33.3730280729
 20
25.1606908991
 11
33.3730280729
 21
30.5840884583
  0
LINE
  5
348
100
AcDbEntity
  8
ASSI
100
AcDbLine
 62
7
  6
CONTINUOUS
 10
34.0
 20
30.5840884583
 11
34.0
 21
-40.4159115417
  0
LINE
  5
349
100
AcDbEntity
  8
DRAFT
100
AcDbLine
 62
7
  6
CONTINUOUS
 10
34.0
 20
-40.4159115417
 11
34.0
 21
30.5840884583
  0
LWPOLYLINE
  5
34A
100
AcDbEntity
  8
ASSI
100
AcDbPolyline
 62
7
  6
CONTINUOUS
 90
27
 70
0
 10
33.4152858976
 20
-4.9159115417
 10
33.4156785329
 20
-4.2035428624
 10
33.4168176477
 20
-3.4991697108
 10
33.418703242
 20
-2.8027920868
 10
33.4213480994
 20
-2.1118355739
 10
33.4247394362
 20
-1.4288745887
 10
33.4288389017
 20
-0.7616323806
 10
33.4336545339
 20
-0.1102873776
 10
33.4391782948
 20
0.5253388482
 10
33.4453477189
 20
1.1380583314
 10
33.4521701355
 20
1.7276110515
 10
33.4596382153
 20
2.294257029
 10
33.4676675058
 20
2.8315883602
 10
33.4762643774
 20
3.3392722867
 10
33.4854224596
 20
3.8176415669
 10
33.4950381886
 20
4.261286572
 10
33.5051167591
 20
4.6698131377
 10
33.5156529763
 20
5.0436154283
 10
33.5265276917
 20
5.3784663089
 10
33.5377447475
 20
5.6739236315
 10
33.5493003014
 20
5.930429544
 10
33.5610636777
 20
6.1450833548
 10
33.5730372354
 20
6.3174099896
 10
33.5852186155
 20
6.4478845227
 10
33.5974700651
 20
6.5350314857
 10
33.6097923796
 20
6.5783590558
 10
33.6159885716
 20
6.5840884583
  0
LWPOLYLINE
  5
34B
100
AcDbEntity
  8
ASSI
100
AcDbPolyline
 62
7
  6
CONTINUOUS
 90
27
 70
0
 10
33.8166912456
 20
-4.9159115417
 10
33.8162986103
 20
-5.628280221
 10
33.8151594955
 20
-6.3326533726
 10
33.8132739012
 20
-7.0290309966
 10
33.8106290438
 20
-7.7199875095
 10
33.8072377069
 20
-8.4029484947
 10
33.8031382415
 20
-9.0701907029
 10
33.7983226092
 20
-9.7215357058
 10
33.7927988484
 20
-10.3571619316
 10
33.7866294242
 20
-10.9698814148
 10
33.7798070077
 20
-11.5594341349
 10
33.7723389279
 20
-12.1260801124
 10
33.7643096374
 20
-12.6634114436
 10
33.7557127658
 20
-13.1710953701
 10
33.7465546835
 20
-13.6494646503
 10
33.7369389546
 20
-14.0931096554
 10
33.726860384
 20
-14.5016362211
 10
33.7163241668
 20
-14.8754385117
 10
33.7054494515
 20
-15.2102893923
 10
33.6942323957
 20
-15.5057467149
 10
33.6826768418
 20
-15.7622526274
 10
33.6709134655
 20
-15.9769064382
 10
33.6589399077
 20
-16.149233073
 10
33.6467585277
 20
-16.2797076061
 10
33.6345070781
 20
-16.3668545691
 10
33.6221847636
 20
-16.4101821392
 10
33.6159885716
 20
-16.4159115417
  0
LINE
  5
34C
100
AcDbEntity
  8
0
100
AcDbLine
 62
250
  6
CONTINUOUS
 10
33.4678629402
 20
24.1840884583
 11
33.4676730353
 21
18.8346425616
  0
LINE
  5
34D
100
AcDbEntity
  8
0
100
AcDbLine
 62
250
  6
CONTINUOUS
 10
33.4676730353
 20
18.8346425616
 11
33.4666530528
 21
18.6147001452
  0
LINE
  5
34E
100
AcDbEntity
  8
0
100
AcDbLine
 62
250
  6
CONTINUOUS
 10
33.4666530528
 20
18.6147001452
 11
33.4654916224
 21
18.4757922598
  0
LINE
  5
34F
100
AcDbEntity
  8
0
100
AcDbLine
 62
250
  6
CONTINUOUS
 10
33.4654916224
 20
18.4757922598
 11
33.4639634056
 21
18.3471716627
  0
LINE
  5
350
100
AcDbEntity
  8
0
100
AcDbLine
 62
250
  6
CONTINUOUS
 10
33.4639634056
 20
18.3471716627
 11
33.462104841
 21
18.2332872192
  0
LWPOLYLINE
  5
351
100
AcDbEntity
  8
0
100
AcDbPolyline
 62
250
  6
CONTINUOUS
 90
10
 70
0
 10
33.462104841
 20
18.2332872192
 10
33.4599746671
 20
18.1372508281
 10
33.4588145443
 20
18.0963432814
 10
33.4576165574
 20
18.0608467024
 10
33.456380145
 20
18.0309323526
 10
33.4551058685
 20
18.0064289705
 10
33.4538202393
 20
17.9875335928
 10
33.4525320949
 20
17.9743118983
 10
33.451232598
 20
17.9666982081
 10
33.4499217485
 20
17.9646925223
  0
LWPOLYLINE
  5
352
100
AcDbEntity
  8
0
100
AcDbPolyline
 62
250
  6
CONTINUOUS
 90
7
 70
0
 10
33.4499311715
 20
25.203484394
 10
33.4437792264
 20
25.104355337
 10
33.4253924874
 20
25.0067545021
 10
33.3950543711
 20
24.9121863272
 10
33.3532325151
 20
24.8221085046
 10
33.3005715695
 20
24.7379095111
 10
33.2355011409
 20
24.6583171909
  0
LWPOLYLINE
  5
353
100
AcDbEntity
  8
0
100
AcDbPolyline
 62
250
  6
CONTINUOUS
 90
10
 70
0
 10
13.880604064
 20
-45.8658332902
 10
13.8848666295
 20
-45.8571988077
 10
13.8892507626
 20
-45.8485869754
 10
13.8937564634
 20
-45.8399977934
 10
13.8983817332
 20
-45.8314312151
 10
13.9031285707
 20
-45.8228872869
 10
13.9080029721
 20
-45.8143661488
 10
13.9130069359
 20
-45.8058678474
 10
13.9181384636
 20
-45.797392336
 10
13.923397555
 20
-45.7889396146
  0
LINE
  5
354
100
AcDbEntity
  8
DRAFT
100
AcDbLine
 62
7
  6
CONTINUOUS
 10
-28.0
 20
34.5840884583
 11
-26.5
 21
34.5840884583
  0
LINE
  5
355
100
AcDbEntity
  8
DRAFT
100
AcDbLine
 62
7
  6
CONTINUOUS
 10
28.0
 20
34.5840884583
 11
26.5
 21
34.5840884583
  0
LINE
  5
356
100
AcDbEntity
  8
RACCORDO
100
AcDbLine
 62
250
  6
CONTINUOUS
 10
26.2242099741
 20
34.8572840665
 11
-26.2242099741
 21
34.8572840665
  0
LINE
  5
357
100
AcDbEntity
  8
RACCORDO
100
AcDbLine
 62
7
  6
CONTINUOUS
 10
-28.0
 20
34.8598784308
 11
-26.2242100275
 21
34.8598784308
  0
LINE
  5
358
100
AcDbEntity
  8
RACCORDO
100
AcDbLine
 62
7
  6
CONTINUOUS
 10
28.0
 20
34.8598784308
 11
26.2242100275
 21
34.8598784308
  0
LWPOLYLINE
  5
359
100
AcDbEntity
  8
0
100
AcDbPolyline
 62
250
  6
CONTINUOUS
 90
7
 70
0
 10
-21.1193959357
 20
36.0340196298
 10
-21.0202668787
 20
36.0278676847
 10
-20.9226660438
 20
36.0094809457
 10
-20.8280978689
 20
35.9791428294
 10
-20.7380200463
 20
35.9373209734
 10
-20.6538210528
 20
35.8846600278
 10
-20.5742287326
 20
35.8195895992
  0
LWPOLYLINE
  5
35A
100
AcDbEntity
  8
RACCORDO
100
AcDbPolyline
 62
250
  6
CONTINUOUS
 90
3
 70
0
 10
11.7859103855
 20
40.0047379885
 10
11.8220445237
 20
40.0120207114
 10
11.8427813002
 20
40.0190004427
  0
LWPOLYLINE
  5
35B
100
AcDbEntity
  8
0
100
AcDbPolyline
 62
250
  6
CONTINUOUS
 90
8
 70
0
 10
-13.8806040641
 20
36.0340101756
 10
-13.9797329699
 20
36.0278600158
 10
-14.0773338563
 20
36.0094749537
 10
-14.1719022565
 20
35.9791383851
 10
-14.261980448
 20
35.9373179324
 10
-14.3461799222
 20
35.8846582359
 10
-14.4232027882
 20
35.8219710172
 10
-14.437348211
 20
35.808595152
  0
LWPOLYLINE
  5
35C
100
AcDbEntity
  8
0
100
AcDbPolyline
 62
7
  6
CONTINUOUS
 90
8
 70
0
 10
11.2601827028
 20
39.5351277111
 10
11.3996804436
 20
39.5430883575
 10
11.5206180701
 20
39.5511409455
 10
11.6230853622
 20
39.5592850304
 10
11.7065850574
 20
39.5674810898
 10
11.7709514018
 20
39.5757159496
 10
11.8163501494
 20
39.5840027841
 10
11.8427813002
 20
39.592341593
  0
LWPOLYLINE
  5
35D
100
AcDbEntity
  8
0
100
AcDbPolyline
 62
7
  6
CONTINUOUS
 90
19
 70
0
 10
-13.9233915413
 20
35.9571165312
 10
-13.9655663556
 20
35.9551929725
 10
-14.007480448
 20
35.9511165518
 10
-14.0491338183
 20
35.944886918
 10
-14.0906144522
 20
35.9365128096
 10
-14.1318343641
 20
35.9259998148
 10
-14.1725295968
 20
35.9133396048
 10
-14.21265612
 20
35.898562506
 10
-14.252257964
 20
35.8816634969
 10
-14.2912032618
 20
35.8625420426
 10
-14.3295559877
 20
35.8411638904
 10
-14.3672521674
 20
35.817537102
 10
-14.4039680116
 20
35.7915784087
 10
-14.4397077556
 20
35.7633108325
 10
-14.4744671641
 20
35.7326969237
 10
-14.5079097422
 20
35.6995153972
 10
-14.5399233252
 20
35.6636600799
 10
-14.5706200777
 20
35.6251854647
 10
-14.6
 20
35.5840884583
  0
LWPOLYLINE
  5
35E
100
AcDbEntity
  8
0
100
AcDbPolyline
 62
7
  6
CONTINUOUS
 90
14
 70
0
 10
12.1418573112
 20
36.0784422056
 10
12.3938877704
 20
36.0864465225
 10
12.6285278214
 20
36.0946102794
 10
12.8458500579
 20
36.1029328106
 10
13.0449447667
 20
36.111379278
 10
13.2257355406
 20
36.1199502012
 10
13.3882987868
 20
36.1286450605
 10
13.5319540137
 20
36.1374274593
 10
13.6566219617
 20
36.1462977644
 10
13.7623818904
 20
36.1552556089
 10
13.8487910876
 20
36.1642634952
 10
13.9157019826
 20
36.173308924
 10
13.9632621462
 20
36.1824043947
 10
13.9914715783
 20
36.1915499071
  0
LINE
  5
35F
100
AcDbEntity
  8
0
100
AcDbLine
 62
7
  6
CONTINUOUS
 10
11.8584762796
 20
36.0702205119
 11
12.1418573112
 21
36.0784422056
  0
LINE
  5
360
100
AcDbEntity
  8
0
100
AcDbLine
 62
250
  6
CONTINUOUS
 10
-20.9877775347
 20
36.0429020153
 11
-20.9012822569
 21
36.0451593946
  0
LINE
  5
361
100
AcDbEntity
  8
0
100
AcDbLine
 62
250
  6
CONTINUOUS
 10
-20.9012822569
 20
36.0451593946
 11
-20.7957368149
 21
36.0471623071
  0
LINE
  5
362
100
AcDbEntity
  8
0
100
AcDbLine
 62
250
  6
CONTINUOUS
 10
-20.7957368149
 20
36.0471623071
 11
-20.6744828485
 21
36.0488559776
  0
LINE
  5
363
100
AcDbEntity
  8
0
100
AcDbLine
 62
250
  6
CONTINUOUS
 10
-20.6744828485
 20
36.0488559776
 11
-20.5400111366
 21
36.0502089276
  0
LINE
  5
364
100
AcDbEntity
  8
0
100
AcDbLine
 62
250
  6
CONTINUOUS
 10
-20.5400111366
 20
36.0502089276
 11
-20.3231391919
 21
36.0515199315
  0
LWPOLYLINE
  5
365
100
AcDbEntity
  8
0
100
AcDbPolyline
 62
7
  6
CONTINUOUS
 90
27
 70
0
 10
0.5585997845
 20
35.9559386247
 10
1.0810270013
 20
35.9564728295
 10
1.6019373816
 20
35.957348846
 10
2.1213372572
 20
35.9585652474
 10
2.6370524146
 20
35.9601169419
 10
3.149067408
 20
35.9620053349
 10
3.6573976831
 20
35.9642290209
 10
4.1599153638
 20
35.9667786916
 10
4.6565960846
 20
35.9696557135
 10
5.147464211
 20
35.97285872
 10
5.6304649637
 20
35.9763743033
 10
6.1055653636
 20
35.9802037738
 10
6.5727983898
 20
35.9843458211
 10
7.0302081997
 20
35.9887831066
 10
7.4777536157
 20
35.9935168679
 10
7.9154758153
 20
35.9985458673
 10
8.3415424886
 20
36.0038490536
 10
8.7559047773
 20
36.0094275759
 10
9.1586115397
 20
36.0152802849
 10
9.5479770409
 20
36.0213826812
 10
9.9239453561
 20
36.0277358113
 10
10.2865724101
 20
36.0343386287
 10
10.634340242
 20
36.0411634939
 10
10.967186564
 20
36.0482113376
 10
11.285173664
 20
36.0554812291
 10
11.5869704443
 20
36.0629427366
 10
11.8584762796
 20
36.0702205119
  0
LINE
  5
366
100
AcDbEntity
  8
0
100
AcDbLine
 62
250
  6
CONTINUOUS
 10
-20.3231391919
 20
36.0515199315
 11
-20.1
 21
36.0519513985
  0
LINE
  5
367
100
AcDbEntity
  8
0
100
AcDbLine
 62
7
  6
CONTINUOUS
 10
-14.6
 20
35.5840884583
 11
-20.4
 21
35.5840884583
  0
LINE
  5
368
100
AcDbEntity
  8
0
100
AcDbLine
 62
250
  6
CONTINUOUS
 10
28.0
 20
35.9571165312
 11
1.4637947958
 21
35.9571165312
  0
LINE
  5
369
100
AcDbEntity
  8
0
100
AcDbLine
 62
250
  6
CONTINUOUS
 10
-1.4722384709
 20
35.9571165312
 11
-13.923397555
 21
35.9571165312
  0
LINE
  5
36A
100
AcDbEntity
  8
0
100
AcDbLine
 62
250
  6
CONTINUOUS
 10
-21.0766024408
 20
35.9571165312
 11
-28.0
 21
35.9571165312
  0
LINE
  5
36B
100
AcDbEntity
  8
ASSI
100
AcDbLine
 62
7
  6
CONTINUOUS
 10
-28.0
 20
36.5840884583
 11
-14.0
 21
36.5840884583
  0
LINE
  5
36C
100
AcDbEntity
  8
DRAFT
100
AcDbLine
 62
7
  6
CONTINUOUS
 10
28.0
 20
36.5840884583
 11
14.0
 21
36.5840884583
  0
LINE
  5
36D
100
AcDbEntity
  8
ASSI
100
AcDbLine
 62
7
  6
CONTINUOUS
 10
14.0
 20
36.5840884583
 11
28.0
 21
36.5840884583
  0
LINE
  5
36E
100
AcDbEntity
  8
DRAFT
100
AcDbLine
 62
7
  6
CONTINUOUS
 10
-14.0
 20
36.5840884583
 11
-28.0
 21
36.5840884583
  0
LINE
  5
36F
100
AcDbEntity
  8
0
100
AcDbLine
 62
7
  6
CONTINUOUS
 10
-0.4885929538
 20
35.9558921812
 11
0.5585997845
 21
35.9559386247
  0
LINE
  5
370
100
AcDbEntity
  8
0
100
AcDbLine
 62
250
  6
CONTINUOUS
 10
-20.1
 20
36.0519513985
 11
-14.7505541033
 21
36.0517614936
  0
LINE
  5
371
100
AcDbEntity
  8
0
100
AcDbLine
 62
250
  6
CONTINUOUS
 10
-14.7505541033
 20
36.0517614936
 11
-14.5306116869
 21
36.0507415111
  0
LINE
  5
372
100
AcDbEntity
  8
0
100
AcDbLine
 62
250
  6
CONTINUOUS
 10
-14.5306116869
 20
36.0507415111
 11
-14.3917038015
 21
36.0495800807
  0
LINE
  5
373
100
AcDbEntity
  8
0
100
AcDbLine
 62
250
  6
CONTINUOUS
 10
-14.3917038015
 20
36.0495800807
 11
-14.2630832044
 21
36.0480518639
  0
LINE
  5
374
100
AcDbEntity
  8
0
100
AcDbLine
 62
250
  6
CONTINUOUS
 10
-14.2630832044
 20
36.0480518639
 11
-14.1491987609
 21
36.0461932993
  0
LWPOLYLINE
  5
375
100
AcDbEntity
  8
0
100
AcDbPolyline
 62
250
  6
CONTINUOUS
 90
10
 70
0
 10
-14.1491987609
 20
36.0461932993
 10
-14.0531623698
 20
36.0440631254
 10
-14.0122548231
 20
36.0429030026
 10
-13.9767582441
 20
36.0417050157
 10
-13.9468438943
 20
36.0404686033
 10
-13.9223405122
 20
36.0391943268
 10
-13.9034451345
 20
36.0379086976
 10
-13.89022344
 20
36.0366205532
 10
-13.8826097498
 20
36.0353210563
 10
-13.880604064
 20
36.0340102067
  0
LWPOLYLINE
  5
376
100
AcDbEntity
  8
0
100
AcDbPolyline
 62
7
  6
CONTINUOUS
 90
26
 70
0
 10
-11.5474713046
 20
36.0619329288
 10
-11.2436056899
 20
36.0544970401
 10
-10.9239636783
 20
36.047265421
 10
-10.588611126
 20
36.0402372189
 10
-10.2389518227
 20
36.0334418539
 10
-9.8749257963
 20
36.0268803021
 10
-9.4965930189
 20
36.0205515873
 10
-9.1055371955
 20
36.0144822018
 10
-8.7017049929
 20
36.0086732325
 10
-8.2851497444
 20
36.0031235924
 10
-7.8576151549
 20
35.9978565123
 10
-7.4190552004
 20
35.9928731767
 10
-6.9695159048
 20
35.9881724012
 10
-6.5108790446
 20
35.9837738632
 10
-6.0431064841
 20
35.9796788296
 10
-5.5662363589
 20
35.9758860336
 10
-5.0822648527
 20
35.9724113519
 10
-4.5911621974
 20
35.9692561178
 10
-4.0929581611
 20
35.9664189979
 10
-3.5897382314
 20
35.9639118685
 10
-3.0814813823
 20
35.9617361128
 10
-2.5682086397
 20
35.9598903476
 10
-2.0520685691
 20
35.9583822992
 10
-1.5330491509
 20
35.9572133832
 10
-1.0111624046
 20
35.9563821841
 10
-0.4885929538
 20
35.9558921812
  0
LINE
  5
377
100
AcDbEntity
  8
0
100
AcDbLine
 62
7
  6
CONTINUOUS
 10
-11.8587505989
 20
36.0702381337
 11
-11.5474713046
 21
36.0619329288
  0
LWPOLYLINE
  5
378
100
AcDbEntity
  8
0
100
AcDbPolyline
 62
7
  6
CONTINUOUS
 90
64
 70
0
 10
-11.3641525231
 20
39.540950722
 10
-11.2198429295
 20
39.5330162444
 10
-11.0572660197
 20
39.525190107
 10
-10.8765101571
 20
39.5174717859
 10
-10.6784525297
 20
39.5098987372
 10
-10.4630090379
 20
39.502471667
 10
-10.2302637813
 20
39.4951898691
 10
-9.9813462464
 20
39.4880886814
 10
-9.7161778238
 20
39.4811689817
 10
-9.4348371229
 20
39.4744298921
 10
-9.1386894587
 20
39.4679041166
 10
-8.827662858
 20
39.4615926922
 10
-8.5018292939
 20
39.455494582
 10
-8.1627700001
 20
39.4496393794
 10
-7.8104206896
 20
39.4440282651
 10
-7.4448456494
 20
39.4386600584
 10
-7.067818974
 20
39.4335608106
 10
-6.679285
 20
39.4287318291
 10
-6.2792993909
 20
39.4241718064
 10
-5.869803232
 20
39.419902872
 10
-5.4507502947
 20
39.4159264407
 10
-5.0221868076
 20
39.4122410976
 10
-4.5861925411
 20
39.4088647272
 10
-4.1427313761
 20
39.4057988314
 10
-3.6918394317
 20
39.4030419083
 10
-3.2357048358
 20
39.4006073371
 10
-2.7743021054
 20
39.3984966844
 10
-2.3076567235
 20
39.3967083836
 10
-1.8380332678
 20
39.395251113
 10
-1.3654172628
 20
39.3941264816
 10
-0.8898231839
 20
39.3933328805
 10
-0.4135590359
 20
39.3928741608
 10
0.0633784382
 20
39.3927519504
 10
0.5409859814
 20
39.3929646214
 10
1.016945818
 20
39.3935111418
 10
1.4912499388
 20
39.3943931344
 10
1.9639063529
 20
39.3956089764
 10
2.4326213119
 20
39.3971527674
 10
2.8973756573
 20
39.3990261015
 10
3.3581885475
 20
39.4012273848
 10
3.8128237093
 20
39.4037459344
 10
4.2612511144
 20
39.4065832927
 10
4.703500791
 20
39.4097379175
 10
5.1374265513
 20
39.4131944997
 10
5.5629879347
 20
39.4169545071
 10
5.9802254017
 20
39.4210164719
 10
6.3871141457
 20
39.4253606819
 10
6.7836038642
 20
39.429988509
 10
7.1697448597
 20
39.4348985813
 10
7.5436632333
 20
39.4400670707
 10
7.905299574
 20
39.4454952333
 10
8.2547132928
 20
39.4511818131
 10
8.5902087242
 20
39.4570992137
 10
8.9117182148
 20
39.4632485571
 10
9.2193094181
 20
39.4696287213
 10
9.5114896284
 20
39.476208744
 10
9.7881839367
 20
39.4829895969
 10
10.049467252
 20
39.4899703083
 10
10.2940715957
 20
39.4971170017
 10
10.5219158956
 20
39.5044304839
 10
10.7330812239
 20
39.511909948
 10
10.926542819
 20
39.5195190972
 10
11.1022146275
 20
39.5272585617
 10
11.2601827028
 20
39.5351277111
  0
LWPOLYLINE
  5
379
100
AcDbEntity
  8
RACCORDO
100
AcDbPolyline
 62
250
  6
CONTINUOUS
 90
66
 70
0
 10
-13.1908083427
 20
38.5648387792
 10
-13.1163419686
 20
38.5544146482
 10
-13.0148404294
 20
38.5440601035
 10
-12.8863920577
 20
38.5337876908
 10
-12.7311185527
 20
38.5236143262
 10
-12.5493229696
 20
38.5135660438
 10
-12.3414198591
 20
38.5036688779
 10
-12.10777732
 20
38.4939423042
 10
-11.8488780682
 20
38.4844080444
 10
-11.5654937419
 20
38.4750942721
 10
-11.2584610779
 20
38.4660259094
 10
-10.9282721397
 20
38.4572151496
 10
-10.5752434775
 20
38.4486705782
 10
-10.1997596943
 20
38.4404039619
 10
-9.8028343562
 20
38.4324399245
 10
-9.3858037022
 20
38.4248051853
 10
-8.9499790112
 20
38.4175213782
 10
-8.4959334126
 20
38.4105958155
 10
-8.0239531793
 20
38.4040329243
 10
-7.5344816274
 20
38.3978411656
 10
-7.0289625363
 20
38.3920410293
 10
-6.5092342175
 20
38.3866535626
 10
-5.9769885543
 20
38.3816940565
 10
-5.4328104356
 20
38.3771657689
 10
-4.8769237526
 20
38.3730705924
 10
-4.3098090283
 20
38.3694142694
 10
-3.7332418448
 20
38.366210417
 10
-3.1494134978
 20
38.3634711931
 10
-2.5602463525
 20
38.3612034436
 10
-1.9663013201
 20
38.3594071783
 10
-1.3677566277
 20
38.3580829457
 10
-0.7651290676
 20
38.3572340386
 10
-0.1603723799
 20
38.3568653525
 10
0.4441807427
 20
38.3569783102
 10
1.0465611946
 20
38.3575704082
 10
1.6462408276
 20
38.358638991
 10
2.2430412849
 20
38.3601837337
 10
2.8364045463
 20
38.36220532
 10
3.4243838267
 20
38.3646992632
 10
4.0047412941
 20
38.3676560912
 10
4.575648684
 20
38.371064363
 10
5.1366063782
 20
38.3749189443
 10
5.6873879703
 20
38.3792182531
 10
6.2274001002
 20
38.3839597904
 10
6.7548900702
 20
38.3891303444
 10
7.2679341375
 20
38.3947111026
 10
7.7650063442
 20
38.4006833276
 10
8.2456349833
 20
38.4070391554
 10
8.7095230462
 20
38.4137746043
 10
9.1560732841
 20
38.4208831568
 10
9.5838860082
 20
38.4283447727
 10
9.9915146195
 20
38.4361343083
 10
10.3778454401
 20
38.4442283263
 10
10.7424531736
 20
38.4526156411
 10
11.0849948896
 20
38.4612882456
 10
11.4049349586
 20
38.4702347288
 10
11.7013324101
 20
38.4794311196
 10
11.9732966492
 20
38.4888499982
 10
12.2202572215
 20
38.4984701497
 10
12.4417737458
 20
38.5082727011
 10
12.6373318321
 20
38.518232281
 10
12.8065260168
 20
38.5283233043
 10
12.9491670097
 20
38.5385290235
 10
13.0651168288
 20
38.5488370766
 10
13.1541594355
 20
38.5592292214
 10
13.2160765053
 20
38.5696810604
  0
LWPOLYLINE
  5
37A
100
AcDbEntity
  8
RACCORDO
100
AcDbPolyline
 62
250
  6
CONTINUOUS
 90
66
 70
0
 10
-11.5979880179
 20
40.3014668365
 10
-11.5574111424
 20
40.2936809431
 10
-11.4969867575
 20
40.2856156527
 10
-11.4144265736
 20
40.2772682407
 10
-11.3063717619
 20
40.268578713
 10
-11.1712700067
 20
40.2596562954
 10
-11.0111171764
 20
40.2507500864
 10
-10.8266637027
 20
40.2419372371
 10
-10.6165942122
 20
40.2331859768
 10
-10.3820669609
 20
40.2245724188
 10
-10.1234757208
 20
40.2161255509
 10
-9.8408607412
 20
40.2078600316
 10
-9.5356054308
 20
40.1998251653
 10
-9.2084055199
 20
40.1920428007
 10
-8.859804123
 20
40.18452915
 10
-8.4914203876
 20
40.1773198962
 10
-8.1046914058
 20
40.1704399366
 10
-7.7000401012
 20
40.1638937293
 10
-7.2776807396
 20
40.1576847266
 10
-6.8380100707
 20
40.1518213275
 10
-6.3824574217
 20
40.1463250756
 10
-5.9128337768
 20
40.1412178288
 10
-5.4307972301
 20
40.1365153084
 10
-4.9369396621
 20
40.1322210361
 10
-4.4315264427
 20
40.1283373153
 10
-3.9150747633
 20
40.1248702652
 10
-3.3893025599
 20
40.1218335317
 10
-2.8563014645
 20
40.1192392004
 10
-2.3179171083
 20
40.1170942132
 10
-1.7747733187
 20
40.1153990365
 10
-1.2271603324
 20
40.1141545751
 10
-0.6756722315
 20
40.1133641639
 10
-0.1221784412
 20
40.1130324617
 10
0.4311179872
 20
40.1131607902
 10
0.9823335358
 20
40.113746742
 10
1.5308625794
 20
40.1147877019
 10
2.0764125186
 20
40.1162831167
 10
2.6183596423
 20
40.1182332722
 10
3.1548347785
 20
40.1206334547
 10
3.6837026119
 20
40.1234741093
 10
4.203194736
 20
40.1267436739
 10
4.7127719527
 20
40.1304366663
 10
5.2121618691
 20
40.1345511177
 10
5.7007610398
 20
40.1390842365
 10
6.1768522226
 20
40.144022319
 10
6.6385410024
 20
40.1493457111
 10
7.0843154621
 20
40.1550346136
 10
7.5137480654
 20
40.1610811352
 10
7.9266134572
 20
40.167482119
 10
8.3224855317
 20
40.1742338717
 10
8.6998173938
 20
40.181313056
 10
9.0568180001
 20
40.1886852527
 10
9.3929001386
 20
40.1963351515
 10
9.7072760495
 20
40.204241436
 10
9.9983174924
 20
40.2123547192
 10
10.2659325992
 20
40.220659715
 10
10.5096553011
 20
40.2291283033
 10
10.7280457641
 20
40.2376855088
 10
10.9225475126
 20
40.2463604231
 10
11.0921577977
 20
40.2550778271
 10
11.2339636812
 20
40.2635941635
 10
11.3490853142
 20
40.2717989893
 10
11.4411060107
 20
40.2797479797
 10
11.5123335178
 20
40.2874430305
 10
11.5647590634
 20
40.2948745548
 10
11.6002150753
 20
40.3020206516
  0
LWPOLYLINE
  5
37B
100
AcDbEntity
  8
0
100
AcDbPolyline
 62
7
  6
CONTINUOUS
 90
4
 70
0
 10
33.2245066937
 20
18.5214366693
 10
33.1661341088
 20
18.5759502368
 10
33.0864303921
 20
18.6351870087
 10
33.0
 20
18.6840884583
  0
LWPOLYLINE
  5
37C
100
AcDbEntity
  8
0
100
AcDbPolyline
 62
7
  6
CONTINUOUS
 90
27
 70
0
 10
11.5
 20
-46.0319001133
 10
11.4942705975
 20
-46.0380963053
 10
11.4509430274
 20
-46.0504186198
 10
11.3637960644
 20
-46.0626700694
 10
11.2333215313
 20
-46.0748514495
 10
11.0609948965
 20
-46.0868250072
 10
10.8463410857
 20
-46.0985883835
 10
10.5898351732
 20
-46.1101439374
 10
10.2943778506
 20
-46.1213609932
 10
9.95952697
 20
-46.1322357085
 10
9.5857246794
 20
-46.1427719257
 10
9.1771981137
 20
-46.1528504963
 10
8.7335531086
 20
-46.1624662252
 10
8.2551838284
 20
-46.1716243075
 10
7.7474999019
 20
-46.1802211791
 10
7.2101685707
 20
-46.1882504696
 10
6.6435225932
 20
-46.1957185494
 10
6.0539698731
 20
-46.2025409659
 10
5.4412503899
 20
-46.2087103901
 10
4.8056241641
 20
-46.2142341509
 10
4.1542791612
 20
-46.2190497832
 10
3.487036953
 20
-46.2231492487
 10
2.8040759678
 20
-46.2265405855
 10
2.1131194549
 20
-46.2291854429
 10
1.4167418309
 20
-46.2310710372
 10
0.7123686793
 20
-46.232210152
 10
-0.0
 20
-46.2326027873
  0
LWPOLYLINE
  5
37D
100
AcDbEntity
  8
0
100
AcDbPolyline
 62
7
  6
CONTINUOUS
 90
4
 70
0
 10
14.437348211
 20
-45.6404182354
 10
14.4918617785
 20
-45.5820456505
 10
14.5510985504
 20
-45.5023419338
 10
14.6
 20
-45.4159115417
  0
LINE
  5
37E
100
AcDbEntity
  8
RACCORDO
100
AcDbLine
 62
250
  6
CONTINUOUS
 10
-11.6029479997
 20
40.3291711205
 11
-11.6032888661
 21
40.3290796759
  0
LINE
  5
37F
100
AcDbEntity
  8
0
100
AcDbLine
 62
7
  6
CONTINUOUS
 10
-11.3516115151
 20
39.1056633222
 11
-13.2306563404
 21
38.6033207462
  0
LINE
  5
380
100
AcDbEntity
  8
RACCORDO
100
AcDbLine
 62
250
  6
CONTINUOUS
 10
-13.2306568359
 20
38.6033206137
 11
-13.2307031077
 21
38.6033082383
  0
LINE
  5
381
100
AcDbEntity
  8
0
100
AcDbLine
 62
7
  6
CONTINUOUS
 10
-9.4513417461
 20
40.9043800849
 11
-11.6029477407
 21
40.3291711898
  0
LWPOLYLINE
  5
382
100
AcDbEntity
  8
RACCORDO
100
AcDbPolyline
 62
250
  6
CONTINUOUS
 90
4
 70
0
 10
10.0156424607
 20
41.8433957124
 10
10.0529246709
 20
41.8491312408
 10
10.0785984939
 20
41.8546612177
 10
10.0938473529
 20
41.8599784417
  0
LWPOLYLINE
  5
383
100
AcDbEntity
  8
RACCORDO
100
AcDbPolyline
 62
250
  6
CONTINUOUS
 90
4
 70
0
 10
8.2558608169
 20
43.6172443341
 10
8.2994026916
 20
43.6230467885
 10
8.3285595794
 20
43.6286287481
 10
8.3449134056
 20
43.6339793451
  0
LWPOLYLINE
  5
384
100
AcDbEntity
  8
0
100
AcDbPolyline
 62
7
  6
CONTINUOUS
 90
8
 70
0
 10
7.8333899416
 20
43.1485507864
 10
7.9568396874
 20
43.1548207888
 10
8.0637181859
 20
43.1611828233
 10
8.1541276989
 20
43.1676363221
 10
8.227508
 20
43.1741412957
 10
8.2836723471
 20
43.1806844144
 10
8.3228074823
 20
43.1872790079
 10
8.3449134056
 20
43.1939250763
  0
LWPOLYLINE
  5
385
100
AcDbEntity
  8
0
100
AcDbPolyline
 62
7
  6
CONTINUOUS
 90
9
 70
0
 10
9.364401176
 20
41.3332492273
 10
9.5207208645
 20
41.3404500686
 10
9.6586780352
 20
41.3477488875
 10
9.7781679591
 20
41.3551462427
 10
9.8792953652
 20
41.3626415755
 10
9.9614845755
 20
41.3701922179
 10
10.0245436972
 20
41.3777839472
 10
10.068664623
 20
41.3854309862
 10
10.0938473529
 20
41.3931333347
  0
LWPOLYLINE
  5
386
100
AcDbEntity
  8
0
100
AcDbPolyline
 62
7
  6
CONTINUOUS
 90
24
 70
0
 10
3.3513806607
 20
42.5751986269
 10
3.6853517679
 20
42.5781220004
 10
4.0109743679
 20
42.5813193987
 10
4.327510821
 20
42.5847835785
 10
4.6342440702
 20
42.5885066925
 10
4.930479266
 20
42.5924803066
 10
5.2155453405
 20
42.5966954192
 10
5.4887965273
 20
42.6011424818
 10
5.7496138246
 20
42.6058114203
 10
5.9974063972
 20
42.6106916581
 10
6.2316129155
 20
42.61577214
 10
6.4517028261
 20
42.6210413568
 10
6.6571775548
 20
42.6264873723
 10
6.8475716352
 20
42.6320978494
 10
7.0224537634
 20
42.6378600786
 10
7.1814277751
 20
42.6437610066
 10
7.3241335432
 20
42.6497872658
 10
7.4502477931
 20
42.6559252049
 10
7.5594848354
 20
42.6621609195
 10
7.6515972133
 20
42.6684802836
 10
7.7263762624
 20
42.6748689819
 10
7.7836525843
 20
42.6813125419
 10
7.8232964295
 20
42.6877963668
 10
7.8452179921
 20
42.6943057688
  0
LINE
  5
387
100
AcDbEntity
  8
0
100
AcDbLine
 62
7
  6
CONTINUOUS
 10
2.6614363312
 20
42.5701998078
 11
3.3513806607
 21
42.5751986269
  0
LINE
  5
388
100
AcDbEntity
  8
0
100
AcDbLine
 62
7
  6
CONTINUOUS
 10
1.9473896222
 20
42.5663682116
 11
2.6614363312
 21
42.5701998078
  0
LINE
  5
389
100
AcDbEntity
  8
0
100
AcDbLine
 62
7
  6
CONTINUOUS
 10
1.2157070512
 20
42.5637385377
 11
1.9473896222
 21
42.5663682116
  0
LINE
  5
38A
100
AcDbEntity
  8
0
100
AcDbLine
 62
7
  6
CONTINUOUS
 10
0.4730148489
 20
42.5623346009
 11
1.2157070512
 21
42.5637385377
  0
LINE
  5
38B
100
AcDbEntity
  8
0
100
AcDbLine
 62
7
  6
CONTINUOUS
 10
-0.2739610491
 20
42.5621691154
 11
0.4730148489
 21
42.5623346009
  0
LINE
  5
38C
100
AcDbEntity
  8
0
100
AcDbLine
 62
7
  6
CONTINUOUS
 10
-1.0184559135
 20
42.5632435799
 11
-0.2739610491
 21
42.5621691154
  0
LINE
  5
38D
100
AcDbEntity
  8
0
100
AcDbLine
 62
7
  6
CONTINUOUS
 10
-1.7537274833
 20
42.5655482639
 11
-1.0184559135
 21
42.5632435799
  0
LINE
  5
38E
100
AcDbEntity
  8
0
100
AcDbLine
 62
7
  6
CONTINUOUS
 10
-2.4731170256
 20
42.5690622958
 11
-1.7537274833
 21
42.5655482639
  0
LWPOLYLINE
  5
38F
100
AcDbEntity
  8
0
100
AcDbPolyline
 62
7
  6
CONTINUOUS
 90
56
 70
0
 10
-9.4603891114
 20
41.337554233
 10
-9.297157981
 20
41.3304160135
 10
-9.1159413083
 20
41.323395153
 10
-8.9177706879
 20
41.3165316186
 10
-8.7025494243
 20
41.3098263074
 10
-8.470374213
 20
41.3032783223
 10
-8.2225667354
 20
41.2969249383
 10
-7.9590378341
 20
41.2907672652
 10
-7.6798766665
 20
41.2848041932
 10
-7.3866723864
 20
41.2790696677
 10
-7.0793448999
 20
41.2735649922
 10
-6.7579743009
 20
41.2682888632
 10
-6.4243900248
 20
41.2632713156
 10
-6.0785224117
 20
41.2585138242
 10
-5.7204411214
 20
41.2540149142
 10
-5.3521845688
 20
41.2498001962
 10
-4.9736947198
 20
41.2458712909
 10
-4.5850296084
 20
41.2422265775
 10
-4.1884017508
 20
41.2388868039
 10
-3.7837657322
 20
41.2358537093
 10
-3.3711669675
 20
41.2331255546
 10
-2.9529542177
 20
41.23071787
 10
-2.5290954639
 20
41.2286324833
 10
-2.0996227251
 20
41.2268675667
 10
-1.6669808192
 20
41.2254331672
 10
-1.2311516711
 20
41.2243311698
 10
-0.7921533558
 20
41.2235596896
 10
-0.3524849167
 20
41.2231231182
 10
0.0878574683
 20
41.2230233657
 10
0.5288699771
 20
41.2232585221
 10
0.9680421005
 20
41.2238272486
 10
1.4053633419
 20
41.2247314478
 10
1.840844198
 20
41.2259692171
 10
2.2720056489
 20
41.2275335105
 10
2.6988230592
 20
41.2294261903
 10
3.1213210643
 20
41.2316453941
 10
3.5370945507
 20
41.2341784889
 10
3.9461051656
 20
41.2370272649
 10
4.3483912618
 20
41.2401899319
 10
4.7416627841
 20
41.2436484861
 10
5.1258683186
 20
41.2474046151
 10
5.5010592792
 20
41.2514566312
 10
5.8650998527
 20
41.2557814681
 10
6.2179264435
 20
41.2603806816
 10
6.5596026472
 20
41.2652527157
 10
6.8881834366
 20
41.270369836
 10
7.2035941231
 20
41.2757334402
 10
7.5059093952
 20
41.2813421305
 10
7.7934082922
 20
41.2871639789
 10
8.0660063099
 20
41.293200201
 10
8.3237879525
 20
41.2994495812
 10
8.5652857712
 20
41.3058765443
 10
8.7904068925
 20
41.3124821029
 10
8.99924419
 20
41.3192652444
 10
9.1906088359
 20
41.326187355
 10
9.364401176
 20
41.3332492273
  0
LWPOLYLINE
  5
390
100
AcDbEntity
  8
RACCORDO
100
AcDbPolyline
 62
250
  6
CONTINUOUS
 90
65
 70
0
 10
-9.8342077684
 20
42.1397144941
 10
-9.795428383
 20
42.1336680312
 10
-9.7418575241
 20
42.1273781075
 10
-9.6714741359
 20
42.1208264907
 10
-9.5828243674
 20
42.1140605571
 10
-9.4748661199
 20
42.1071382385
 10
-9.3461311613
 20
42.1000769937
 10
-9.1952464246
 20
42.0929012806
 10
-9.0219639546
 20
42.0856799664
 10
-8.8253315362
 20
42.0784385485
 10
-8.6044169103
 20
42.0712028763
 10
-8.3597698422
 20
42.0640401787
 10
-8.0900278487
 20
42.0569542776
 10
-7.7956609717
 20
42.0499987166
 10
-7.4813375347
 20
42.0433026052
 10
-7.1492907852
 20
42.036911197
 10
-6.7989576393
 20
42.0308114383
 10
-6.4318973718
 20
42.0250306114
 10
-6.0495738869
 20
42.019589085
 10
-5.6525246343
 20
42.0144919446
 10
-5.2409923957
 20
42.0097423633
 10
-4.8154068159
 20
42.0053478056
 10
-4.3773211885
 20
42.0013267489
 10
-3.9287088563
 20
41.9976972749
 10
-3.4713566726
 20
41.99447141
 10
-3.0058298716
 20
41.9916507573
 10
-2.5323141329
 20
41.9892364607
 10
-2.0512862467
 20
41.9872333276
 10
-1.5645979787
 20
41.9856514251
 10
-1.07451099
 20
41.9844980964
 10
-0.5829735378
 20
41.9837755777
 10
-0.0905167681
 20
41.9834823142
 10
0.4027014783
 20
41.9836184012
 10
0.8961590607
 20
41.9841860285
 10
1.3879017308
 20
41.98518529
 10
1.8756392301
 20
41.986611541
 10
2.3574798047
 20
41.9884569128
 10
2.8329342333
 20
41.9907171793
 10
3.3018226934
 20
41.9933914709
 10
3.7635825109
 20
41.9964789335
 10
4.2163753776
 20
41.9999696704
 10
4.6581479547
 20
42.0038478822
 10
5.0872681609
 20
42.0080968516
 10
5.5032900676
 20
42.0127097167
 10
5.9059775596
 20
42.0176838149
 10
6.294802498
 20
42.0230151629
 10
6.66819176
 20
42.0286848379
 10
7.0244171309
 20
42.0346663636
 10
7.3641099057
 20
42.0409721529
 10
7.6848625245
 20
42.0475593971
 10
7.9814410154
 20
42.0543027741
 10
8.2531413861
 20
42.0611477542
 10
8.5013942848
 20
42.0680899595
 10
8.7254830588
 20
42.0750650391
 10
8.9262650104
 20
42.0820468524
 10
9.1045751198
 20
42.0890081776
 10
9.2604000913
 20
42.0958801911
 10
9.3950074018
 20
42.1026363
 10
9.5098122894
 20
42.1092580144
 10
9.6056570927
 20
42.1156884143
 10
9.6838018348
 20
42.1218793291
 10
9.7463132888
 20
42.1278459446
 10
9.795145518
 20
42.1336297804
 10
9.8316069983
 20
42.1392390277
 10
9.8567155421
 20
42.1446472775
  0
LWPOLYLINE
  5
391
100
AcDbEntity
  8
RACCORDO
100
AcDbPolyline
 62
250
  6
CONTINUOUS
 90
60
 70
0
 10
-8.1011401975
 20
43.917352266
 10
-8.0665419871
 20
43.9114381049
 10
-8.0154985918
 20
43.9053167148
 10
-7.9460761559
 20
43.8989842962
 10
-7.8555090131
 20
43.8924009928
 10
-7.7425036299
 20
43.8856514415
 10
-7.6085226904
 20
43.8789173214
 10
-7.454003037
 20
43.872256142
 10
-7.2778830365
 20
43.8656534296
 10
-7.0812027471
 20
43.8591746038
 10
-6.8642524619
 20
43.8528445602
 10
-6.6271213786
 20
43.8466800378
 10
-6.3712866981
 20
43.8407284841
 10
-6.0974718643
 20
43.8350103064
 10
-5.8062123977
 20
43.8295400278
 10
-5.499192587
 20
43.8243501515
 10
-5.1778815774
 20
43.8194623779
 10
-4.8426913555
 20
43.814879985
 10
-4.4938419908
 20
43.8106059581
 10
-4.1317427894
 20
43.806647782
 10
-3.7578331227
 20
43.8030235937
 10
-3.373919644
 20
43.7997509157
 10
-2.9816430954
 20
43.7968414848
 10
-2.5815860333
 20
43.7942974156
 10
-2.1740163651
 20
43.7921204055
 10
-1.7594573907
 20
43.7903153669
 10
-1.3395984173
 20
43.7888917542
 10
-0.9164706383
 20
43.7878564599
 10
-0.491843896
 20
43.7872117637
 10
-0.066308245
 20
43.7869565212
 10
0.3598533481
 20
43.7870909012
 10
0.7860569223
 20
43.7876167519
 10
1.2105276191
 20
43.7885339238
 10
1.6312112799
 20
43.7898379779
 10
2.046384767
 20
43.791521506
 10
2.4555072959
 20
43.7935802331
 10
2.8583060742
 20
43.796012791
 10
3.254192434
 20
43.798817776
 10
3.6414822645
 20
43.8019854448
 10
4.0183025858
 20
43.8055004718
 10
4.3831452679
 20
43.8093464786
 10
4.7355733956
 20
43.8135164926
 10
5.0753565605
 20
43.8180078071
 10
5.4020811658
 20
43.8228178073
 10
5.7141846722
 20
43.8279264631
 10
6.0098313641
 20
43.8333028414
 10
6.2884380968
 20
43.8389330966
 10
6.5492038839
 20
43.8447976021
 10
6.7904420806
 20
43.8508498989
 10
7.0120053187
 20
43.8570730972
 10
7.213526593
 20
43.8634427654
 10
7.3937149068
 20
43.8698944371
 10
7.5536921531
 20
43.8764406884
 10
7.6928278451
 20
43.8830251308
 10
7.808980733
 20
43.8894694911
 10
7.9031086023
 20
43.8956877615
 10
7.9781329455
 20
43.9017165478
 10
8.0360137144
 20
43.9075589328
 10
8.0783962059
 20
43.9132068469
 10
8.1067765589
 20
43.9186401921
  0
LINE
  5
392
100
AcDbEntity
  8
0
100
AcDbLine
 62
7
  6
CONTINUOUS
 10
11.3516115151
 20
39.1056633222
 11
13.2306563404
 21
38.6033207462
  0
LINE
  5
393
100
AcDbEntity
  8
0
100
AcDbLine
 62
7
  6
CONTINUOUS
 10
9.4513417461
 20
40.9043800849
 11
11.6029477407
 21
40.3291711898
  0
LWPOLYLINE
  5
394
100
AcDbEntity
  8
RACCORDO
100
AcDbPolyline
 62
7
  6
CONTINUOUS
 90
20
 70
0
 10
11.6029573645
 20
40.3291686167
 10
11.6040650184
 20
40.3288711154
 10
11.6139176191
 20
40.326100469
 10
11.6239667219
 20
40.3230270024
 10
11.6348256901
 20
40.3193959058
 10
11.6463087691
 20
40.3151711784
 10
11.6585557728
 20
40.3101869893
 10
11.6725745349
 20
40.3038155126
 10
11.6888297882
 20
40.2954402936
 10
11.7064689339
 20
40.2850031451
 10
11.724499556
 20
40.2726710957
 10
11.7422111226
 20
40.2586394532
 10
11.7598951534
 20
40.2423447675
 10
11.7779117338
 20
40.2227937697
 10
11.7958833718
 20
40.1993171229
 10
11.8127497906
 20
40.1719675772
 10
11.8275449168
 20
40.1408178456
 10
11.8393322816
 20
40.1059879405
 10
11.8471605013
 20
40.0676387894
 10
11.85
 20
40.0262180431
  0
LWPOLYLINE
  5
395
100
AcDbEntity
  8
RACCORDO
100
AcDbPolyline
 62
7
  6
CONTINUOUS
 90
25
 70
0
 10
13.2305953404
 20
38.603337045
 10
13.233978137
 20
38.6024276974
 10
13.2637801487
 20
38.5939571293
 10
13.2955646088
 20
38.5839700856
 10
13.3296866619
 20
38.5720823405
 10
13.3657325581
 20
38.5581289954
 10
13.402871643
 20
38.5421560861
 10
13.4399304846
 20
38.5244948957
 10
13.4779474627
 20
38.5044621259
 10
13.5192014792
 20
38.4803556817
 10
13.5656387797
 20
38.449991551
 10
13.6141766843
 20
38.4141693903
 10
13.6598158643
 20
38.3761421289
 10
13.6999361087
 20
38.3386876784
 10
13.7373838738
 20
38.2997509546
 10
13.7753806964
 20
38.2555710302
 10
13.8149152863
 20
38.2034535524
 10
13.8532063428
 20
38.145249851
 10
13.8876913917
 20
38.0839323701
 10
13.9168682782
 20
38.02251875
 10
13.9420577441
 20
37.9586229011
 10
13.9644874898
 20
37.8871381243
 10
13.9830398235
 20
37.8062291841
 10
13.9954589223
 20
37.7178492073
 10
14.0
 20
37.6224680119
  0
LINE
  5
396
100
AcDbEntity
  8
RACCORDO
100
AcDbLine
 62
250
  6
CONTINUOUS
 10
13.233978137
 20
38.6024276974
 11
13.2306574963
 21
38.6033204372
  0
LWPOLYLINE
  5
397
100
AcDbEntity
  8
0
100
AcDbPolyline
 62
250
  6
CONTINUOUS
 90
8
 70
0
 10
33.4499217485
 20
25.2034843943
 10
33.4512325267
 20
25.2014781727
 10
33.4525319247
 20
25.1938656722
 10
33.4538199423
 20
25.1806468927
 10
33.4551053991
 20
25.1617563396
 10
33.4563794756
 20
25.1372595075
 10
33.4576157134
 20
25.1073528806
 10
33.458813557
 20
25.071865993
  0
LINE
  5
398
100
AcDbEntity
  8
RACCORDO
100
AcDbLine
 62
250
  6
CONTINUOUS
 10
3.8612783823
 20
45.6213664743
 11
3.8752835565
 21
45.6252163148
  0
LINE
  5
399
100
AcDbEntity
  8
RACCORDO
100
AcDbLine
 62
250
  6
CONTINUOUS
 10
-9.856665044
 20
42.1670936672
 11
-9.8568937803
 21
42.1670323489
  0
LINE
  5
39A
100
AcDbEntity
  8
RACCORDO
100
AcDbLine
 62
250
  6
CONTINUOUS
 10
-8.1103822804
 20
43.9380390669
 11
-8.1105200038
 21
43.938002174
  0
LINE
  5
39B
100
AcDbEntity
  8
0
100
AcDbLine
 62
7
  6
CONTINUOUS
 10
-7.8511145721
 20
42.7032561774
 11
-9.8566648691
 21
42.1670937139
  0
LINE
  5
39C
100
AcDbEntity
  8
0
100
AcDbLine
 62
7
  6
CONTINUOUS
 10
-5.9872555597
 20
44.5056343322
 11
-8.1103819975
 21
43.9380391425
  0
LINE
  5
39D
100
AcDbEntity
  8
0
100
AcDbLine
 62
7
  6
CONTINUOUS
 10
-0.9978759266
 20
46.3996604259
 11
-3.8694093095
 21
45.6319866284
  0
LWPOLYLINE
  5
39E
100
AcDbEntity
  8
0
100
AcDbPolyline
 62
7
  6
CONTINUOUS
 90
17
 70
0
 10
-5.9873182282
 20
44.5056175577
 10
-5.9782566875
 20
44.5077005809
 10
-5.9455289478
 20
44.5128860983
 10
-5.8981617428
 20
44.5180239333
 10
-5.8359648339
 20
44.5231266013
 10
-5.7591284598
 20
44.5281815868
 10
-5.6682233365
 20
44.533151343
 10
-5.5631447064
 20
44.5380352351
 10
-5.4439973272
 20
44.542833898
 10
-5.3116661873
 20
44.5475116885
 10
-5.1660531191
 20
44.5520677068
 10
-5.0072562902
 20
44.5565028528
 10
-4.8364551928
 20
44.5607841837
 10
-4.6535604417
 20
44.5649105541
 10
-4.458661422
 20
44.5688831094
 10
-4.2532057813
 20
44.5726723427
 10
-4.0371149138
 20
44.576276889
  0
LWPOLYLINE
  5
39F
100
AcDbEntity
  8
0
100
AcDbPolyline
 62
7
  6
CONTINUOUS
 90
8
 70
0
 10
-0.997906418
 20
46.3996522448
 10
-0.9931386509
 20
46.4005488368
 10
-0.9806744918
 20
46.4019343006
 10
-0.9619983497
 20
46.4032889919
 10
-0.9369093994
 20
46.4046212611
 10
-0.9056084662
 20
46.4059227578
 10
-0.868698025
 20
46.4071684312
 10
-0.8260694077
 20
46.4083571997
  0
LWPOLYLINE
  5
3A0
100
AcDbEntity
  8
RACCORDO
100
AcDbPolyline
 62
250
  6
CONTINUOUS
 90
3
 70
0
 10
3.7928523249
 20
45.6135028057
 10
3.8340377759
 20
45.6174569878
 10
3.8612783823
 20
45.6213664743
  0
LWPOLYLINE
  5
3A1
100
AcDbEntity
  8
0
100
AcDbPolyline
 62
7
  6
CONTINUOUS
 90
10
 70
0
 10
3.5355434679
 20
44.9625048941
 10
3.6443836899
 20
44.9659559273
 10
3.7425083109
 20
44.9695167728
 10
3.8290278321
 20
44.9731551515
 10
3.9038367346
 20
44.9768717684
 10
3.9670405374
 20
44.9806659185
 10
4.0180662986
 20
44.984503208
 10
4.0567230376
 20
44.9883721722
 10
4.083201735
 20
44.9922842756
 10
4.0975023908
 20
44.9962395184
  0
LWPOLYLINE
  5
3A2
100
AcDbEntity
  8
0
100
AcDbPolyline
 62
7
  6
CONTINUOUS
 90
8
 70
0
 10
0.8260694077
 20
46.3886898413
 10
0.868698025
 20
46.3898786098
 10
0.9056084662
 20
46.3911242831
 10
0.9369093994
 20
46.3924257799
 10
0.9619983497
 20
46.3937580491
 10
0.9806744918
 20
46.3951127404
 10
0.9931386509
 20
46.3964982041
 10
0.999390827
 20
46.3979144403
  0
LWPOLYLINE
  5
3A3
100
AcDbEntity
  8
0
100
AcDbPolyline
 62
7
  6
CONTINUOUS
 90
11
 70
0
 10
2.9369712352
 20
44.4624810476
 10
3.0529731462
 20
44.4655187807
 10
3.1585636612
 20
44.468670055
 10
3.2538471712
 20
44.4719337322
 10
3.3378618764
 20
44.4752768682
 10
3.4104936444
 20
44.4787002679
 10
3.4718566075
 20
44.4822031266
 10
3.5213313626
 20
44.4857500861
 10
3.5587114421
 20
44.4893293603
 10
3.5842033137
 20
44.4929527352
 10
3.5978069773
 20
44.496620211
  0
LWPOLYLINE
  5
3A4
100
AcDbEntity
  8
0
100
AcDbPolyline
 62
7
  6
CONTINUOUS
 90
3
 70
0
 10
3.2855213583
 20
44.9559342616
 10
3.4158902136
 20
44.9591646717
 10
3.5355434679
 20
44.9625048941
  0
LINE
  5
3A5
100
AcDbEntity
  8
0
100
AcDbLine
 62
7
  6
CONTINUOUS
 10
2.6753213717
 20
44.4567723182
 11
2.9369712352
 21
44.4624810476
  0
LINE
  5
3A6
100
AcDbEntity
  8
0
100
AcDbLine
 62
7
  6
CONTINUOUS
 10
0.7249121286
 20
46.3865015813
 11
0.8260694077
 21
46.3886898413
  0
LINE
  5
3A7
100
AcDbEntity
  8
0
100
AcDbLine
 62
7
  6
CONTINUOUS
 10
-0.8260694077
 20
46.4083571997
 11
-0.7249121286
 21
46.4105454597
  0
LINE
  5
3A8
100
AcDbEntity
  8
0
100
AcDbLine
 62
7
  6
CONTINUOUS
 10
2.9960955358
 20
44.9498919937
 11
3.2855213583
 21
44.9559342616
  0
LWPOLYLINE
  5
3A9
100
AcDbEntity
  8
RACCORDO
100
AcDbPolyline
 62
250
  6
CONTINUOUS
 90
11
 70
0
 10
2.6221000173
 20
45.5777219471
 10
2.7939928911
 20
45.5806519022
 10
2.9548729023
 20
45.5837561208
 10
3.1043339492
 20
45.5870252717
 10
3.242013861
 20
45.5904513592
 10
3.367476524
 20
45.5940250201
 10
3.4800845554
 20
45.5977295641
 10
3.5792511521
 20
45.601545266
 10
3.6650759775
 20
45.6054795315
 10
3.7366624582
 20
45.6094957236
 10
3.7928523249
 20
45.6135028057
  0
LWPOLYLINE
  5
3AA
100
AcDbEntity
  8
0
100
AcDbPolyline
 62
7
  6
CONTINUOUS
 90
17
 70
0
 10
4.0371149138
 20
44.4213489104
 10
4.2532057813
 20
44.4249534567
 10
4.458661422
 20
44.42874269
 10
4.6535604417
 20
44.4327152453
 10
4.8364551928
 20
44.4368416157
 10
5.0072562902
 20
44.4411229466
 10
5.1660531191
 20
44.4455580925
 10
5.3116661873
 20
44.4501141108
 10
5.4439973272
 20
44.4547919014
 10
5.5631447064
 20
44.4595905642
 10
5.6682233365
 20
44.4644744564
 10
5.7591284598
 20
44.4694442125
 10
5.8359648339
 20
44.474499198
 10
5.8981617428
 20
44.4796018661
 10
5.9455289478
 20
44.484739701
 10
5.9782566875
 20
44.4899252185
 10
5.9963449621
 20
44.4951584185
  0
LINE
  5
3AB
100
AcDbEntity
  8
0
100
AcDbLine
 62
7
  6
CONTINUOUS
 10
2.3773604253
 20
44.451634189
 11
2.6753213717
 21
44.4567723182
  0
LINE
  5
3AC
100
AcDbEntity
  8
0
100
AcDbLine
 62
7
  6
CONTINUOUS
 10
2.6698896428
 20
44.9444328637
 11
2.9960955358
 21
44.9498919937
  0
LWPOLYLINE
  5
3AD
100
AcDbEntity
  8
RACCORDO
100
AcDbPolyline
 62
250
  6
CONTINUOUS
 90
15
 70
0
 10
2.5799055171
 20
45.2822315784
 10
2.7724583015
 20
45.2851293616
 10
2.9542080389
 20
45.2882273074
 10
3.1243132772
 20
45.2915095529
 10
3.2823446987
 20
45.2949662038
 10
3.4279195644
 20
45.2985887459
 10
3.5605770248
 20
45.3023672083
 10
3.6796429274
 20
45.3062840163
 10
3.7844962479
 20
45.310318467
 10
3.8752418644
 20
45.3144785093
 10
3.9509322095
 20
45.3187252831
 10
4.0103434081
 20
45.3229623241
 10
4.0538904523
 20
45.3271432642
 10
4.0826934142
 20
45.3312768482
 10
4.0975023908
 20
45.3353472699
  0
LINE
  5
3AE
100
AcDbEntity
  8
0
100
AcDbLine
 62
7
  6
CONTINUOUS
 10
0.604849372
 20
46.3846268496
 11
0.7249121286
 21
46.3865015813
  0
LINE
  5
3AF
100
AcDbEntity
  8
0
100
AcDbLine
 62
7
  6
CONTINUOUS
 10
-0.7249121286
 20
46.4105454597
 11
-0.604849372
 21
46.4124201914
  0
LINE
  5
3B0
100
AcDbEntity
  8
0
100
AcDbLine
 62
7
  6
CONTINUOUS
 10
3.5749467808
 20
44.4147151955
 11
4.0371149138
 21
44.4213489104
  0
LINE
  5
3B1
100
AcDbEntity
  8
0
100
AcDbLine
 62
7
  6
CONTINUOUS
 10
-4.0371149138
 20
44.576276889
 11
-3.6011422151
 21
44.5825532993
  0
LINE
  5
3B2
100
AcDbEntity
  8
RACCORDO
100
AcDbLine
 62
250
  6
CONTINUOUS
 10
2.2486779744
 20
45.5724451539
 11
2.6221000173
 21
45.5777219471
  0
LINE
  5
3B3
100
AcDbEntity
  8
0
100
AcDbLine
 62
7
  6
CONTINUOUS
 10
2.0478437869
 20
44.4471411261
 11
2.3773604253
 21
44.451634189
  0
LINE
  5
3B4
100
AcDbEntity
  8
0
100
AcDbLine
 62
7
  6
CONTINUOUS
 10
2.3111687626
 20
44.9396350682
 11
2.6698896428
 21
44.9444328637
  0
LINE
  5
3B5
100
AcDbEntity
  8
RACCORDO
100
AcDbLine
 62
250
  6
CONTINUOUS
 10
2.1666832616
 20
45.2770973816
 11
2.5799055171
 21
45.2822315784
  0
LINE
  5
3B6
100
AcDbEntity
  8
0
100
AcDbLine
 62
7
  6
CONTINUOUS
 10
3.0771538829
 20
44.4089195242
 11
3.5749467808
 21
44.4147151955
  0
LINE
  5
3B7
100
AcDbEntity
  8
RACCORDO
100
AcDbLine
 62
250
  6
CONTINUOUS
 10
1.8420422778
 20
45.5680272723
 11
2.2486779744
 21
45.5724451539
  0
LINE
  5
3B8
100
AcDbEntity
  8
0
100
AcDbLine
 62
7
  6
CONTINUOUS
 10
-0.604849372
 20
46.4124201914
 11
-0.4695966469
 21
46.413930678
  0
LINE
  5
3B9
100
AcDbEntity
  8
0
100
AcDbLine
 62
7
  6
CONTINUOUS
 10
1.690097626
 20
44.4433384828
 11
2.0478437869
 21
44.4471411261
  0
LWPOLYLINE
  5
3BA
100
AcDbEntity
  8
0
100
AcDbPolyline
 62
7
  6
CONTINUOUS
 90
17
 70
0
 10
3.9198300078
 20
43.0703397401
 10
4.2517856475
 20
43.0735914366
 10
4.5742735027
 20
43.0770954723
 10
4.8872347845
 20
43.0808534142
 10
5.1907282817
 20
43.0848636954
 10
5.4828733837
 20
43.089101466
 10
5.7635996241
 20
43.0935681386
 10
6.0329774693
 20
43.0982623006
 10
6.2893377076
 20
43.1031548644
 10
6.5325995079
 20
43.108247062
 10
6.7628437014
 20
43.1135376615
 10
6.9786435698
 20
43.1189938793
 10
7.179909423
 20
43.124616744
 10
7.3667309511
 20
43.130405227
 10
7.5379505064
 20
43.1363234599
 10
7.6934712104
 20
43.1423722482
 10
7.8333899416
 20
43.1485507864
  0
LINE
  5
3BB
100
AcDbEntity
  8
0
100
AcDbLine
 62
7
  6
CONTINUOUS
 10
1.9250093203
 20
44.9355603017
 11
2.3111687626
 21
44.9396350682
  0
LINE
  5
3BC
100
AcDbEntity
  8
0
100
AcDbLine
 62
7
  6
CONTINUOUS
 10
2.5494613318
 20
44.4040227436
 11
3.0771538829
 21
44.4089195242
  0
LINE
  5
3BD
100
AcDbEntity
  8
RACCORDO
100
AcDbLine
 62
250
  6
CONTINUOUS
 10
1.7209745345
 20
45.2728984568
 11
2.1666832616
 21
45.2770973816
  0
LINE
  5
3BE
100
AcDbEntity
  8
0
100
AcDbLine
 62
7
  6
CONTINUOUS
 10
0.3967158145
 20
46.382504427
 11
0.604849372
 21
46.3846268496
  0
LINE
  5
3BF
100
AcDbEntity
  8
0
100
AcDbLine
 62
7
  6
CONTINUOUS
 10
3.2336402914
 20
43.064655505
 11
3.9198300078
 21
43.0703397401
  0
LINE
  5
3C0
100
AcDbEntity
  8
0
100
AcDbLine
 62
7
  6
CONTINUOUS
 10
1.5149118473
 20
44.9322455017
 11
1.9250093203
 21
44.9355603017
  0
LINE
  5
3C1
100
AcDbEntity
  8
0
100
AcDbLine
 62
7
  6
CONTINUOUS
 10
1.309412436
 20
44.4402887718
 11
1.690097626
 21
44.4433384828
  0
LINE
  5
3C2
100
AcDbEntity
  8
RACCORDO
100
AcDbLine
 62
250
  6
CONTINUOUS
 10
1.4064551197
 20
45.5645123181
 11
1.8420422778
 21
45.5680272723
  0
LINE
  5
3C3
100
AcDbEntity
  8
0
100
AcDbLine
 62
7
  6
CONTINUOUS
 10
1.995788659
 20
44.4000612254
 11
2.5494613318
 21
44.4040227436
  0
LINE
  5
3C4
100
AcDbEntity
  8
0
100
AcDbLine
 62
7
  6
CONTINUOUS
 10
-0.4695966469
 20
46.413930678
 11
-0.321757275
 21
46.4150478461
  0
LINE
  5
3C5
100
AcDbEntity
  8
RACCORDO
100
AcDbLine
 62
250
  6
CONTINUOUS
 10
1.2472568834
 20
45.2696809536
 11
1.7209745345
 21
45.2728984568
  0
LINE
  5
3C6
100
AcDbEntity
  8
0
100
AcDbLine
 62
7
  6
CONTINUOUS
 10
2.5199563581
 20
43.0600779894
 11
3.2336402914
 21
43.064655505
  0
LINE
  5
3C7
100
AcDbEntity
  8
0
100
AcDbLine
 62
7
  6
CONTINUOUS
 10
1.0863651701
 20
44.9297404589
 11
1.5149118473
 21
44.9322455017
  0
LINE
  5
3C8
100
AcDbEntity
  8
0
100
AcDbLine
 62
7
  6
CONTINUOUS
 10
0.9117161549
 20
44.4380335831
 11
1.309412436
 21
44.4402887718
  0
LINE
  5
3C9
100
AcDbEntity
  8
RACCORDO
100
AcDbLine
 62
250
  6
CONTINUOUS
 10
0.9484992948
 20
45.5619596494
 11
1.4064551197
 21
45.5645123181
  0
LINE
  5
3CA
100
AcDbEntity
  8
0
100
AcDbLine
 62
7
  6
CONTINUOUS
 10
1.4222277175
 20
44.3970837793
 11
1.995788659
 21
44.4000612254
  0
LINE
  5
3CB
100
AcDbEntity
  8
0
100
AcDbLine
 62
7
  6
CONTINUOUS
 10
1.7853445319
 20
43.0566542927
 11
2.5199563581
 21
43.0600779894
  0
LINE
  5
3CC
100
AcDbEntity
  8
RACCORDO
100
AcDbLine
 62
250
  6
CONTINUOUS
 10
0.7553384322
 20
45.2675144099
 11
1.2472568834
 21
45.2696809536
  0
LINE
  5
3CD
100
AcDbEntity
  8
0
100
AcDbLine
 62
7
  6
CONTINUOUS
 10
0.1655265759
 20
46.3813129759
 11
0.3967158145
 21
46.382504427
  0
LINE
  5
3CE
100
AcDbEntity
  8
0
100
AcDbLine
 62
7
  6
CONTINUOUS
 10
-0.321757275
 20
46.4150478461
 11
-0.1655265759
 21
46.4157340651
  0
LINE
  5
3CF
100
AcDbEntity
  8
0
100
AcDbLine
 62
7
  6
CONTINUOUS
 10
0.6453184753
 20
44.9280747577
 11
1.0863651701
 21
44.9297404589
  0
LINE
  5
3D0
100
AcDbEntity
  8
0
100
AcDbLine
 62
7
  6
CONTINUOUS
 10
0.5010231635
 20
44.4365956807
 11
0.9117161549
 21
44.4380335831
  0
LINE
  5
3D1
100
AcDbEntity
  8
0
100
AcDbLine
 62
7
  6
CONTINUOUS
 10
0.8352769224
 20
44.3951190982
 11
1.4222277175
 21
44.3970837793
  0
LINE
  5
3D2
100
AcDbEntity
  8
0
100
AcDbLine
 62
7
  6
CONTINUOUS
 10
1.0367279936
 20
43.0544118392
 11
1.7853445319
 21
43.0566542927
  0
LINE
  5
3D3
100
AcDbEntity
  8
RACCORDO
100
AcDbLine
 62
250
  6
CONTINUOUS
 10
0.4777932655
 20
45.5604195559
 11
0.9484992948
 21
45.5619596494
  0
LINE
  5
3D4
100
AcDbEntity
  8
RACCORDO
100
AcDbLine
 62
250
  6
CONTINUOUS
 10
0.2528063757
 20
45.2664257863
 11
0.7553384322
 21
45.2675144099
  0
LINE
  5
3D5
100
AcDbEntity
  8
0
100
AcDbLine
 62
7
  6
CONTINUOUS
 10
0.1957698469
 20
44.9272634979
 11
0.6453184753
 21
44.9280747577
  0
LINE
  5
3D6
100
AcDbEntity
  8
0
100
AcDbLine
 62
7
  6
CONTINUOUS
 10
0.2392959564
 20
44.394181775
 11
0.8352769224
 21
44.3951190982
  0
LINE
  5
3D7
100
AcDbEntity
  8
0
100
AcDbLine
 62
7
  6
CONTINUOUS
 10
0.2787455785
 20
43.0533645246
 11
1.0367279936
 21
43.0544118392
  0
LINE
  5
3D8
100
AcDbEntity
  8
0
100
AcDbLine
 62
7
  6
CONTINUOUS
 10
0.083529982
 20
44.4360022281
 11
0.5010231635
 21
44.4365956807
  0
LINE
  5
3D9
100
AcDbEntity
  8
0
100
AcDbLine
 62
7
  6
CONTINUOUS
 10
-0.1655265759
 20
46.4157340651
 11
-0.0055449536
 21
46.4159745623
  0
LINE
  5
3DA
100
AcDbEntity
  8
RACCORDO
100
AcDbLine
 62
250
  6
CONTINUOUS
 10
-0.0011956067
 20
45.5599038748
 11
0.4777932655
 21
45.5604195559
  0
LINE
  5
3DB
100
AcDbEntity
  8
RACCORDO
100
AcDbLine
 62
250
  6
CONTINUOUS
 10
-0.2556412861
 20
45.2664288635
 11
0.2528063757
 21
45.2664257863
  0
LINE
  5
3DC
100
AcDbEntity
  8
0
100
AcDbLine
 62
7
  6
CONTINUOUS
 10
-0.4815517806
 20
43.0535267832
 11
0.2787455785
 21
43.0533645246
  0
LINE
  5
3DD
100
AcDbEntity
  8
0
100
AcDbLine
 62
7
  6
CONTINUOUS
 10
-0.3590696219
 20
44.3942871132
 11
0.2392959564
 21
44.394181775
  0
LINE
  5
3DE
100
AcDbEntity
  8
0
100
AcDbLine
 62
7
  6
CONTINUOUS
 10
-0.2561629453
 20
44.927322668
 11
0.1957698469
 21
44.9272634979
  0
LINE
  5
3DF
100
AcDbEntity
  8
0
100
AcDbLine
 62
7
  6
CONTINUOUS
 10
-0.0752824657
 20
46.3811217391
 11
0.1655265759
 21
46.3813129759
  0
LINE
  5
3E0
100
AcDbEntity
  8
0
100
AcDbLine
 62
7
  6
CONTINUOUS
 10
-0.3343779009
 20
44.4362569227
 11
0.083529982
 21
44.4360022281
  0
LINE
  5
3E1
100
AcDbEntity
  8
RACCORDO
100
AcDbLine
 62
250
  6
CONTINUOUS
 10
-0.4811392804
 20
45.5604268693
 11
-0.0011956067
 21
45.5599038748
  0
LINE
  5
3E2
100
AcDbEntity
  8
0
100
AcDbLine
 62
7
  6
CONTINUOUS
 10
-0.0055449536
 20
46.4159745623
 11
0.1551082926
 21
46.4157647087
  0
LINE
  5
3E3
100
AcDbEntity
  8
0
100
AcDbLine
 62
7
  6
CONTINUOUS
 10
-1.2370736767
 20
43.0548924241
 11
-0.4815517806
 21
43.0535267832
  0
LINE
  5
3E4
100
AcDbEntity
  8
0
100
AcDbLine
 62
7
  6
CONTINUOUS
 10
-0.9531255071
 20
44.3954291021
 11
-0.3590696219
 21
44.3942871132
  0
LINE
  5
3E5
100
AcDbEntity
  8
0
100
AcDbLine
 62
7
  6
CONTINUOUS
 10
-0.7043026396
 20
44.9282465368
 11
-0.2561629453
 21
44.927322668
  0
LINE
  5
3E6
100
AcDbEntity
  8
RACCORDO
100
AcDbLine
 62
250
  6
CONTINUOUS
 10
-0.7591562398
 20
45.2675269369
 11
-0.2556412861
 21
45.2664288635
  0
LINE
  5
3E7
100
AcDbEntity
  8
0
100
AcDbLine
 62
7
  6
CONTINUOUS
 10
-0.7484820869
 20
44.4373571935
 11
-0.3343779009
 21
44.4362569227
  0
LINE
  5
3E8
100
AcDbEntity
  8
0
100
AcDbLine
 62
7
  6
CONTINUOUS
 10
-1.9831384856
 20
43.0574529849
 11
-1.2370736767
 21
43.0548924241
  0
LINE
  5
3E9
100
AcDbEntity
  8
RACCORDO
100
AcDbLine
 62
250
  6
CONTINUOUS
 10
-0.9518054329
 20
45.5619742622
 11
-0.4811392804
 21
45.5604268693
  0
LINE
  5
3EA
100
AcDbEntity
  8
0
100
AcDbLine
 62
7
  6
CONTINUOUS
 10
-1.538459242
 20
44.3975992591
 11
-0.9531255071
 21
44.3954291021
  0
LINE
  5
3EB
100
AcDbEntity
  8
0
100
AcDbLine
 62
7
  6
CONTINUOUS
 10
-1.1445868541
 20
44.9300267296
 11
-0.7043026396
 21
44.9282465368
  0
LINE
  5
3EC
100
AcDbEntity
  8
RACCORDO
100
AcDbLine
 62
250
  6
CONTINUOUS
 10
-1.2500679331
 20
45.2696966441
 11
-0.7591562398
 21
45.2675269369
  0
LINE
  5
3ED
100
AcDbEntity
  8
0
100
AcDbLine
 62
7
  6
CONTINUOUS
 10
-0.3117163639
 20
46.3819418305
 11
-0.0752824657
 21
46.3811217391
  0
LINE
  5
3EE
100
AcDbEntity
  8
0
100
AcDbLine
 62
7
  6
CONTINUOUS
 10
0.1551082926
 20
46.4157647087
 11
0.3117163639
 21
46.4151052104
  0
LINE
  5
3EF
100
AcDbEntity
  8
0
100
AcDbLine
 62
7
  6
CONTINUOUS
 10
-1.1524274205
 20
44.4392915784
 11
-0.7484820869
 21
44.4373571935
  0
LINE
  5
3F0
100
AcDbEntity
  8
0
100
AcDbLine
 62
7
  6
CONTINUOUS
 10
-2.7127336004
 20
43.0611891649
 11
-1.9831384856
 21
43.0574529849
  0
LINE
  5
3F1
100
AcDbEntity
  8
0
100
AcDbLine
 62
7
  6
CONTINUOUS
 10
-2.1084620497
 20
44.400778022
 11
-1.538459242
 21
44.3975992591
  0
LINE
  5
3F2
100
AcDbEntity
  8
RACCORDO
100
AcDbLine
 62
250
  6
CONTINUOUS
 10
-1.408895353
 20
45.5645289555
 11
-0.9518054329
 21
45.5619742622
  0
LINE
  5
3F3
100
AcDbEntity
  8
0
100
AcDbLine
 62
7
  6
CONTINUOUS
 10
-1.5709318308
 20
44.9326437006
 11
-1.1445868541
 21
44.9300267296
  0
LINE
  5
3F4
100
AcDbEntity
  8
0
100
AcDbLine
 62
7
  6
CONTINUOUS
 10
-3.4191272517
 20
43.0660616167
 11
-2.7127336004
 21
43.0611891649
  0
LINE
  5
3F5
100
AcDbEntity
  8
RACCORDO
100
AcDbLine
 62
250
  6
CONTINUOUS
 10
-1.723852846
 20
45.2729217225
 11
-1.2500679331
 21
45.2696966441
  0
LINE
  5
3F6
100
AcDbEntity
  8
0
100
AcDbLine
 62
7
  6
CONTINUOUS
 10
-1.5401410469
 20
44.4420254364
 11
-1.1524274205
 21
44.4392915784
  0
LINE
  5
3F7
100
AcDbEntity
  8
0
100
AcDbLine
 62
7
  6
CONTINUOUS
 10
-2.6568385526
 20
44.4049252101
 11
-2.1084620497
 21
44.400778022
  0
LINE
  5
3F8
100
AcDbEntity
  8
0
100
AcDbLine
 62
7
  6
CONTINUOUS
 10
0.3117163639
 20
46.4151052104
 11
0.4597770218
 21
46.4140206231
  0
LINE
  5
3F9
100
AcDbEntity
  8
RACCORDO
100
AcDbLine
 62
250
  6
CONTINUOUS
 10
-1.8451734089
 20
45.5680569076
 11
-1.408895353
 21
45.5645289555
  0
LINE
  5
3FA
100
AcDbEntity
  8
0
100
AcDbLine
 62
7
  6
CONTINUOUS
 10
-1.9776016352
 20
44.936057024
 11
-1.5709318308
 21
44.9326437006
  0
LINE
  5
3FB
100
AcDbEntity
  8
0
100
AcDbLine
 62
7
  6
CONTINUOUS
 10
-0.5300344402
 20
46.3837255895
 11
-0.3117163639
 21
46.3819418305
  0
LINE
  5
3FC
100
AcDbEntity
  8
RACCORDO
100
AcDbLine
 62
250
  6
CONTINUOUS
 10
-2.1698811192
 20
45.2771321737
 11
-1.723852846
 21
45.2729217225
  0
LINE
  5
3FD
100
AcDbEntity
  8
0
100
AcDbLine
 62
7
  6
CONTINUOUS
 10
-3.1795155854
 20
44.4100100194
 11
-2.6568385526
 21
44.4049252101
  0
LINE
  5
3FE
100
AcDbEntity
  8
0
100
AcDbLine
 62
7
  6
CONTINUOUS
 10
-1.9077093512
 20
44.4455311715
 11
-1.5401410469
 21
44.4420254364
  0
LINE
  5
3FF
100
AcDbEntity
  8
0
100
AcDbLine
 62
7
  6
CONTINUOUS
 10
-2.3609098094
 20
44.940235758
 11
-1.9776016352
 21
44.936057024
  0
LINE
  5
400
100
AcDbEntity
  8
RACCORDO
100
AcDbLine
 62
250
  6
CONTINUOUS
 10
-2.2510562006
 20
45.572474814
 11
-1.8451734089
 21
45.5680569076
  0
LINE
  5
401
100
AcDbEntity
  8
0
100
AcDbLine
 62
7
  6
CONTINUOUS
 10
0.4597770218
 20
46.4140206231
 11
0.5964404197
 21
46.4125318228
  0
LINE
  5
402
100
AcDbEntity
  8
0
100
AcDbLine
 62
7
  6
CONTINUOUS
 10
-2.2493850681
 20
44.4497600785
 11
-1.9077093512
 21
44.4455311715
  0
LINE
  5
403
100
AcDbEntity
  8
0
100
AcDbLine
 62
7
  6
CONTINUOUS
 10
-0.65892035
 20
46.3853970559
 11
-0.5300344402
 21
46.3837255895
  0
LWPOLYLINE
  5
404
100
AcDbEntity
  8
0
100
AcDbPolyline
 62
7
  6
CONTINUOUS
 90
18
 70
0
 10
3.6010727717
 20
44.5825357435
 10
3.9023730838
 20
44.5783535403
 10
4.1244798334
 20
44.5748621481
 10
4.3369007423
 20
44.5711733329
 10
4.5380580159
 20
44.5673144941
 10
4.727867784
 20
44.5632843657
 10
4.9064139169
 20
44.5590842137
 10
5.0723702309
 20
44.5547452355
 10
5.2256429809
 20
44.5502663974
 10
5.3663259122
 20
44.545648733
 10
5.4933740768
 20
44.5409265409
 10
5.6066859488
 20
44.5360990429
 10
5.7063630542
 20
44.5311670172
 10
5.7916650233
 20
44.5261670972
 10
5.8624848173
 20
44.5210987776
 10
5.918929475
 20
44.5159625638
 10
5.9605797437
 20
44.510796606
 10
5.9873197887
 20
44.5056171395
  0
LINE
  5
405
100
AcDbEntity
  8
0
100
AcDbLine
 62
7
  6
CONTINUOUS
 10
-2.7154658769
 20
44.9451269404
 11
-2.3609098094
 21
44.940235758
  0
LINE
  5
406
100
AcDbEntity
  8
0
100
AcDbLine
 62
7
  6
CONTINUOUS
 10
0.5964404197
 20
46.4125318228
 11
0.7175488414
 21
46.4106776904
  0
LINE
  5
407
100
AcDbEntity
  8
0
100
AcDbLine
 62
7
  6
CONTINUOUS
 10
-2.5601404526
 20
44.4546433562
 11
-2.2493850681
 21
44.4497600785
  0
LINE
  5
408
100
AcDbEntity
  8
0
100
AcDbLine
 62
7
  6
CONTINUOUS
 10
-3.0365968079
 20
44.9506598317
 11
-2.7154658769
 21
44.9451269404
  0
LINE
  5
409
100
AcDbEntity
  8
0
100
AcDbLine
 62
7
  6
CONTINUOUS
 10
-0.7711974227
 20
46.3874133874
 11
-0.65892035
 21
46.3853970559
  0
LWPOLYLINE
  5
40A
100
AcDbEntity
  8
0
100
AcDbPolyline
 62
7
  6
CONTINUOUS
 90
9
 70
0
 10
0.7175488414
 20
46.4106776904
 10
0.8197696224
 20
46.4085164845
 10
0.8633619121
 20
46.4073275733
 10
0.9011352346
 20
46.4060898037
 10
0.9329768642
 20
46.4048022293
 10
0.9589995266
 20
46.4034657966
 10
0.9787023421
 20
46.402106229
 10
0.9919183507
 20
46.400732101
 10
0.997933936
 20
46.39964481
  0
LWPOLYLINE
  5
40B
100
AcDbEntity
  8
0
100
AcDbPolyline
 62
7
  6
CONTINUOUS
 90
4
 70
0
 10
-3.5657370605
 20
44.9634196347
 10
-3.4485975794
 20
44.9600383802
 10
-3.3213915535
 20
44.9567842762
 10
-3.0365968079
 20
44.9506598317
  0
LWPOLYLINE
  5
40C
100
AcDbEntity
  8
0
100
AcDbPolyline
 62
7
  6
CONTINUOUS
 90
18
 70
0
 10
-7.9011123969
 20
43.15187639
 10
-7.770147265
 20
43.1456530025
 10
-7.6229996992
 20
43.1395407403
 10
-7.459769562
 20
43.1335389178
 10
-7.2814683162
 20
43.1276847254
 10
-7.0880023798
 20
43.1219790799
 10
-6.8794653346
 20
43.1164210646
 10
-6.6571493898
 20
43.1110451199
 10
-6.420968987
 20
43.1058523765
 10
-6.1710096845
 20
43.1008417037
 10
-5.9088203661
 20
43.0960441504
 10
-5.634325091
 20
43.09146104
 10
-5.3475997999
 20
43.0870910491
 10
-5.0504211988
 20
43.0829612565
 10
-4.742724379
 20
43.0790731538
 10
-4.4245742492
 20
43.0754252495
 10
-4.0979422404
 20
43.0720401479
 10
-3.4191272517
 20
43.0660616167
  0
LWPOLYLINE
  5
40D
100
AcDbEntity
  8
RACCORDO
100
AcDbPolyline
 62
250
  6
CONTINUOUS
 90
12
 70
0
 10
-3.7912738863
 20
45.6133738797
 10
-3.7339871143
 20
45.6093287528
 10
-3.6625306538
 20
45.6053520763
 10
-3.57717366
 20
45.6014587995
 10
-3.4782316511
 20
45.5976638837
 10
-3.3660487833
 20
45.5939813534
 10
-3.2410259839
 20
45.5904251726
 10
-3.1036353142
 20
45.5870091635
 10
-2.9543951209
 20
45.5837465012
 10
-2.7938412201
 20
45.5806492797
 10
-2.6225946469
 20
45.5777299532
 10
-2.2510562006
 20
45.572474814
  0
LINE
  5
40E
100
AcDbEntity
  8
RACCORDO
100
AcDbLine
 62
250
  6
CONTINUOUS
 10
-3.834181923
 20
45.6174730773
 11
-3.7912738863
 21
45.6133738797
  0
LINE
  5
40F
100
AcDbEntity
  8
0
100
AcDbLine
 62
7
  6
CONTINUOUS
 10
7.8511145721
 20
42.7032561774
 11
9.8566648691
 21
42.1670937139
  0
LINE
  5
410
100
AcDbEntity
  8
0
100
AcDbLine
 62
7
  6
CONTINUOUS
 10
5.9872555597
 20
44.5056343322
 11
8.1103819975
 21
43.9380391425
  0
LINE
  5
411
100
AcDbEntity
  8
0
100
AcDbLine
 62
7
  6
CONTINUOUS
 10
0.9978759266
 20
46.3996604259
 11
3.8694093095
 21
45.6319866284
  0
LWPOLYLINE
  5
412
100
AcDbEntity
  8
RACCORDO
100
AcDbPolyline
 62
7
  6
CONTINUOUS
 90
21
 70
0
 10
8.1103939649
 20
43.9380359426
 10
8.1134125978
 20
43.9372172849
 10
8.1223172894
 20
43.9346621301
 10
8.1314382401
 20
43.9318131876
 10
8.1409687547
 20
43.9285653831
 10
8.1516594529
 20
43.924566784
 10
8.1633923908
 20
43.9197113482
 10
8.1761679477
 20
43.9138222283
 10
8.1908004333
 20
43.9062345771
 10
8.2081670792
 20
43.895932253
 10
8.2268074032
 20
43.8830906738
 10
8.2442218443
 20
43.8691411924
 10
8.2590100299
 20
43.8555285734
 10
8.2727095685
 20
43.84116469
 10
8.2871424312
 20
43.8237595454
 10
8.3023147927
 20
43.8021385233
 10
8.3168234551
 20
43.7768256161
 10
8.3297923617
 20
43.7477798069
 10
8.3403076867
 20
43.7150240866
 10
8.3473963099
 20
43.6786662804
 10
8.35
 20
43.6390651648
  0
LWPOLYLINE
  5
413
100
AcDbEntity
  8
RACCORDO
100
AcDbPolyline
 62
7
  6
CONTINUOUS
 90
20
 70
0
 10
3.8694339741
 20
45.6319800296
 10
3.8730863082
 20
45.63098298
 10
3.8855813809
 20
45.6272511953
 10
3.8992099104
 20
45.6225757287
 10
3.9135517237
 20
45.6169151307
 10
3.928552928
 20
45.6101111769
 10
3.9441591586
 20
45.6019848959
 10
3.9599559299
 20
45.592556177
 10
3.9761089861
 20
45.5815082997
 10
3.992167595
 20
45.5689084484
 10
4.0069438282
 20
45.5556464092
 10
4.0194189288
 20
45.5429684731
 10
4.0307852496
 20
45.5299961175
 10
4.0429326271
 20
45.5142850274
 10
4.0557895587
 20
45.4949522212
 10
4.0682992751
 20
45.4723554439
 10
4.0801061597
 20
45.4454930858
 10
4.090233482
 20
45.4139201996
 10
4.0973189672
 20
45.3779401888
 10
4.1
 20
45.3378444987
  0
LWPOLYLINE
  5
414
100
AcDbEntity
  8
RACCORDO
100
AcDbPolyline
 62
7
  6
CONTINUOUS
 90
20
 70
0
 10
9.8566886079
 20
42.1670873658
 10
9.8648764781
 20
42.1648169104
 10
9.874234049
 20
42.1620114825
 10
9.8839036485
 20
42.1588554713
 10
9.894557947
 20
42.1550487841
 10
9.9059785894
 20
42.1505515603
 10
9.9183050174
 20
42.1451712708
 10
9.9326311511
 20
42.1381672084
 10
9.9498158521
 20
42.1285841791
 10
9.9684565388
 20
42.1165380511
 10
9.9863714092
 20
42.1030801915
 10
10.0023061628
 20
42.0892737419
 10
10.0174756606
 20
42.074189401
 10
10.0332938364
 20
42.055941094
 10
10.0496710226
 20
42.0334462573
 10
10.065228296
 20
42.0071087413
 10
10.0789679579
 20
41.9770675902
 10
10.0899708885
 20
41.9434461983
 10
10.0973207395
 20
41.9063349573
 10
10.1
 20
41.8661301517
  0
LWPOLYLINE
  5
415
100
AcDbEntity
  8
0
100
AcDbPolyline
 62
7
  6
CONTINUOUS
 90
3
 70
0
 10
0.997933936
 20
46.39964481
 10
0.9988145124
 20
46.3993348381
 10
0.999390827
 20
46.3979144403
  0
LWPOLYLINE
  5
416
100
AcDbEntity
  8
0
100
AcDbPolyline
 62
7
  6
CONTINUOUS
 90
3
 70
0
 10
5.9873197887
 20
44.5056171395
 10
5.9992176117
 20
44.5004008917
 10
5.9963449621
 20
44.4951584185
  0
LINE
  5
417
100
AcDbEntity
  8
DRAFT
100
AcDbLine
 62
7
  6
CONTINUOUS
 10
32.0
 20
29.0840884583
 11
32.2757899725
 21
28.8082984858
  0
LINE
  5
418
100
AcDbEntity
  8
DRAFT
100
AcDbLine
 62
7
  6
CONTINUOUS
 10
26.5
 20
34.5840884583
 11
26.2242099741
 21
34.8598784842
  0
LINE
  5
419
100
AcDbEntity
  8
DRAFT
100
AcDbLine
 62
7
  6
CONTINUOUS
 10
26.5
 20
-44.4159115417
 11
26.2242099741
 21
-44.6917015676
  0
LINE
  5
41A
100
AcDbEntity
  8
DRAFT
100
AcDbLine
 62
7
  6
CONTINUOUS
 10
32.0
 20
-38.9159115417
 11
32.2757899725
 21
-38.6401215692
  0
LWPOLYLINE
  5
41B
100
AcDbEntity
  8
0
100
AcDbPolyline
 62
250
  6
CONTINUOUS
 90
8
 70
0
 10
21.119395936
 20
-45.8658332902
 10
21.1173897144
 20
-45.8671440684
 10
21.1097772139
 20
-45.8684434664
 10
21.0965584344
 20
-45.869731484
 10
21.0776678813
 20
-45.8710169408
 10
21.0531710492
 20
-45.8722910173
 10
21.0232644223
 20
-45.8735272551
 10
20.9877775347
 20
-45.8747250987
  0
CIRCLE
  5
41C
100
AcDbEntity
  8
RACCORDO
100
AcDbCircle
 62
7
  6
CONTINUOUS
 10
-17.5
 20
-31.4159115417
 40
9.5
  0
CIRCLE
  5
41D
100
AcDbEntity
  8
RACCORDO
100
AcDbCircle
 62
250
  6
CONTINUOUS
 10
-17.5
 20
-31.4159115417
 40
8.9999990565
  0
ARC
  5
41E
100
AcDbEntity
  8
ASSI
100
AcDbCircle
 62
7
  6
CONTINUOUS
 10
-28.0
 20
-40.4159115417
 40
6.0
100
AcDbArc
 50
180.0
 51
270.0
  0
ARC
  5
41F
100
AcDbEntity
  8
DRAFT
100
AcDbCircle
 62
7
  6
CONTINUOUS
 10
-28.0
 20
-40.4159115417
 40
6.0
100
AcDbArc
 50
180.0
 51
270.0
  0
ARC
  5
420
100
AcDbEntity
  8
RACCORDO
100
AcDbCircle
 62
250
  6
CONTINUOUS
 10
-28.0
 20
-40.4159115417
 40
5.3730280717
100
AcDbArc
 50
180.0
 51
270.0
  0
ARC
  5
421
100
AcDbEntity
  8
RACCORDO
100
AcDbCircle
 62
7
  6
CONTINUOUS
 10
-28.0
 20
-40.4159115417
 40
4.2757899725
100
AcDbArc
 50
180.0
 51
270.0
  0
ARC
  5
422
100
AcDbEntity
  8
DRAFT
100
AcDbCircle
 62
7
  6
CONTINUOUS
 10
-28.0
 20
-40.4159115417
 40
4.0
100
AcDbArc
 50
180.0
 51
270.0
  0
CIRCLE
  5
423
100
AcDbEntity
  8
0
100
AcDbCircle
 62
7
  6
CONTINUOUS
 10
-17.5
 20
-31.4159115417
 40
2.25
  0
CIRCLE
  5
424
100
AcDbEntity
  8
0
100
AcDbCircle
 62
7
  6
CONTINUOUS
 10
-17.5
 20
-31.4159115417
 40
1.8
  0
ARC
  5
425
100
AcDbEntity
  8
DRAFT
100
AcDbCircle
 62
7
  6
CONTINUOUS
 10
-28.0
 20
-40.4159115417
 40
1.7757900259
100
AcDbArc
 50
0.0
 51
90.0
  0
CIRCLE
  5
426
100
AcDbEntity
  8
0
100
AcDbCircle
 62
7
  6
CONTINUOUS
 10
-17.5
 20
-31.4159115417
 40
1.5
  0
ARC
  5
427
100
AcDbEntity
  8
DRAFT
100
AcDbCircle
 62
7
  6
CONTINUOUS
 10
-28.0
 20
-40.4159115417
 40
1.5
100
AcDbArc
 50
0.0
 51
90.0
  0
CIRCLE
  5
428
100
AcDbEntity
  8
RACCORDO
100
AcDbCircle
 62
7
  6
CONTINUOUS
 10
-17.5
 20
21.5840884583
 40
9.5
  0
CIRCLE
  5
429
100
AcDbEntity
  8
RACCORDO
100
AcDbCircle
 62
250
  6
CONTINUOUS
 10
-17.5
 20
21.5840884583
 40
8.9999990565
  0
ARC
  5
42A
100
AcDbEntity
  8
ASSI
100
AcDbCircle
 62
7
  6
CONTINUOUS
 10
-28.0
 20
30.5840884583
 40
6.0
100
AcDbArc
 50
90.0
 51
180.0
  0
ARC
  5
42B
100
AcDbEntity
  8
DRAFT
100
AcDbCircle
 62
7
  6
CONTINUOUS
 10
-28.0
 20
30.5840884583
 40
6.0
100
AcDbArc
 50
90.0
 51
180.0
  0
ARC
  5
42C
100
AcDbEntity
  8
RACCORDO
100
AcDbCircle
 62
250
  6
CONTINUOUS
 10
-28.0
 20
30.5840884583
 40
5.3730280717
100
AcDbArc
 50
90.0
 51
180.0
  0
ARC
  5
42D
100
AcDbEntity
  8
RACCORDO
100
AcDbCircle
 62
7
  6
CONTINUOUS
 10
-28.0
 20
30.5840884583
 40
4.2757899725
100
AcDbArc
 50
90.0
 51
180.0
  0
ARC
  5
42E
100
AcDbEntity
  8
DRAFT
100
AcDbCircle
 62
7
  6
CONTINUOUS
 10
-28.0
 20
30.5840884583
 40
4.0
100
AcDbArc
 50
90.0
 51
180.0
  0
CIRCLE
  5
42F
100
AcDbEntity
  8
0
100
AcDbCircle
 62
7
  6
CONTINUOUS
 10
-17.5
 20
21.5840884583
 40
2.25
  0
CIRCLE
  5
430
100
AcDbEntity
  8
0
100
AcDbCircle
 62
7
  6
CONTINUOUS
 10
-17.5
 20
21.5840884583
 40
1.8
  0
ARC
  5
431
100
AcDbEntity
  8
DRAFT
100
AcDbCircle
 62
7
  6
CONTINUOUS
 10
-28.0
 20
30.5840884583
 40
1.7757900259
100
AcDbArc
 50
270.0
 51
360.0
  0
CIRCLE
  5
432
100
AcDbEntity
  8
0
100
AcDbCircle
 62
7
  6
CONTINUOUS
 10
-17.5
 20
21.5840884583
 40
1.5
  0
ARC
  5
433
100
AcDbEntity
  8
DRAFT
100
AcDbCircle
 62
7
  6
CONTINUOUS
 10
-28.0
 20
30.5840884583
 40
1.5
100
AcDbArc
 50
270.0
 51
360.0
  0
CIRCLE
  5
434
100
AcDbEntity
  8
RACCORDO
100
AcDbCircle
 62
7
  6
CONTINUOUS
 10
17.5
 20
-31.4159115417
 40
9.5
  0
CIRCLE
  5
435
100
AcDbEntity
  8
RACCORDO
100
AcDbCircle
 62
250
  6
CONTINUOUS
 10
17.5
 20
-31.4159115417
 40
8.9999990565
  0
ARC
  5
436
100
AcDbEntity
  8
ASSI
100
AcDbCircle
 62
7
  6
CONTINUOUS
 10
28.0
 20
-40.4159115417
 40
6.0
100
AcDbArc
 50
270.0
 51
360.0
  0
ARC
  5
437
100
AcDbEntity
  8
DRAFT
100
AcDbCircle
 62
7
  6
CONTINUOUS
 10
28.0
 20
-40.4159115417
 40
6.0
100
AcDbArc
 50
270.0
 51
360.0
  0
ARC
  5
438
100
AcDbEntity
  8
RACCORDO
100
AcDbCircle
 62
250
  6
CONTINUOUS
 10
28.0
 20
-40.4159115417
 40
5.3730280717
100
AcDbArc
 50
270.0
 51
360.0
  0
CIRCLE
  5
439
100
AcDbEntity
  8
RACCORDO
100
AcDbCircle
 62
7
  6
CONTINUOUS
 10
-0.0
 20
-23.7159115417
 40
4.8
  0
CIRCLE
  5
43A
100
AcDbEntity
  8
RACCORDO
100
AcDbCircle
 62
250
  6
CONTINUOUS
 10
-0.0
 20
-23.7159115417
 40
4.2999972642
  0
ARC
  5
43B
100
AcDbEntity
  8
RACCORDO
100
AcDbCircle
 62
7
  6
CONTINUOUS
 10
28.0
 20
-40.4159115417
 40
4.2757899725
100
AcDbArc
 50
270.0
 51
360.0
  0
ARC
  5
43C
100
AcDbEntity
  8
DRAFT
100
AcDbCircle
 62
7
  6
CONTINUOUS
 10
28.0
 20
-40.4159115417
 40
4.0
100
AcDbArc
 50
270.0
 51
360.0
  0
CIRCLE
  5
43D
100
AcDbEntity
  8
0
100
AcDbCircle
 62
7
  6
CONTINUOUS
 10
17.5
 20
-31.4159115417
 40
2.25
  0
CIRCLE
  5
43E
100
AcDbEntity
  8
0
100
AcDbCircle
 62
7
  6
CONTINUOUS
 10
17.5
 20
-31.4159115417
 40
1.8
  0
ARC
  5
43F
100
AcDbEntity
  8
DRAFT
100
AcDbCircle
 62
7
  6
CONTINUOUS
 10
28.0
 20
-40.4159115417
 40
1.7757900259
100
AcDbArc
 50
90.0
 51
180.0
  0
CIRCLE
  5
440
100
AcDbEntity
  8
0
100
AcDbCircle
 62
7
  6
CONTINUOUS
 10
17.5
 20
-31.4159115417
 40
1.5
  0
ARC
  5
441
100
AcDbEntity
  8
DRAFT
100
AcDbCircle
 62
7
  6
CONTINUOUS
 10
28.0
 20
-40.4159115417
 40
1.5
100
AcDbArc
 50
90.0
 51
180.0
  0
CIRCLE
  5
442
100
AcDbEntity
  8
0
100
AcDbCircle
 62
7
  6
CONTINUOUS
 10
-0.0
 20
-4.9159115417
 40
11.25
  0
ARC
  5
443
100
AcDbEntity
  8
0
100
AcDbCircle
 62
7
  6
CONTINUOUS
 10
-0.0
 20
-4.9159115417
 40
11.0
100
AcDbArc
 50
185.7391704773
 51
264.2608295227
  0
ARC
  5
444
100
AcDbEntity
  8
0
100
AcDbCircle
 62
7
  6
CONTINUOUS
 10
-0.0
 20
-4.9159115417
 40
11.0
100
AcDbArc
 50
275.7391704773
 51
354.2608295227
  0
ARC
  5
445
100
AcDbEntity
  8
0
100
AcDbCircle
 62
7
  6
CONTINUOUS
 10
-0.0
 20
-4.9159115417
 40
11.0
100
AcDbArc
 50
95.7391704773
 51
174.2608295227
  0
ARC
  5
446
100
AcDbEntity
  8
0
100
AcDbCircle
 62
7
  6
CONTINUOUS
 10
-0.0
 20
-4.9159115417
 40
11.0
100
AcDbArc
 50
5.7391704773
 51
84.2608295227
  0
ARC
  5
447
100
AcDbEntity
  8
0
100
AcDbCircle
 62
7
  6
CONTINUOUS
 10
-0.0
 20
-4.9159115417
 40
10.1299689469
100
AcDbArc
 50
6.233965798
 51
83.766034202
  0
ARC
  5
448
100
AcDbEntity
  8
0
100
AcDbCircle
 62
7
  6
CONTINUOUS
 10
-0.0
 20
-4.9159115417
 40
10.1299689469
100
AcDbArc
 50
96.233965798
 51
173.766034202
  0
ARC
  5
449
100
AcDbEntity
  8
0
100
AcDbCircle
 62
7
  6
CONTINUOUS
 10
-0.0
 20
-4.9159115417
 40
10.1299689469
100
AcDbArc
 50
186.233965798
 51
263.766034202
  0
ARC
  5
44A
100
AcDbEntity
  8
0
100
AcDbCircle
 62
7
  6
CONTINUOUS
 10
-0.0
 20
-4.9159115417
 40
10.1299689469
100
AcDbArc
 50
276.233965798
 51
353.766034202
  0
CIRCLE
  5
44B
100
AcDbEntity
  8
RACCORDO
100
AcDbCircle
 62
7
  6
CONTINUOUS
 10
-0.0
 20
13.8840884583
 40
4.8
  0
CIRCLE
  5
44C
100
AcDbEntity
  8
RACCORDO
100
AcDbCircle
 62
250
  6
CONTINUOUS
 10
-0.0
 20
13.8840884583
 40
4.2999972642
  0
CIRCLE
  5
44D
100
AcDbEntity
  8
RACCORDO
100
AcDbCircle
 62
7
  6
CONTINUOUS
 10
17.5
 20
21.5840884583
 40
9.5
  0
CIRCLE
  5
44E
100
AcDbEntity
  8
RACCORDO
100
AcDbCircle
 62
250
  6
CONTINUOUS
 10
17.5
 20
21.5840884583
 40
8.9999990565
  0
ARC
  5
44F
100
AcDbEntity
  8
ASSI
100
AcDbCircle
 62
7
  6
CONTINUOUS
 10
28.0
 20
30.5840884583
 40
6.0
100
AcDbArc
 50
0.0
 51
90.0
  0
ARC
  5
450
100
AcDbEntity
  8
DRAFT
100
AcDbCircle
 62
7
  6
CONTINUOUS
 10
28.0
 20
30.5840884583
 40
6.0
100
AcDbArc
 50
0.0
 51
90.0
  0
ARC
  5
451
100
AcDbEntity
  8
RACCORDO
100
AcDbCircle
 62
250
  6
CONTINUOUS
 10
28.0
 20
30.5840884583
 40
5.3730280717
100
AcDbArc
 50
0.0
 51
90.0
  0
ARC
  5
452
100
AcDbEntity
  8
RACCORDO
100
AcDbCircle
 62
7
  6
CONTINUOUS
 10
28.0
 20
30.5840884583
 40
4.2757899725
100
AcDbArc
 50
0.0
 51
90.0
  0
ARC
  5
453
100
AcDbEntity
  8
DRAFT
100
AcDbCircle
 62
7
  6
CONTINUOUS
 10
28.0
 20
30.5840884583
 40
4.0
100
AcDbArc
 50
0.0
 51
90.0
  0
CIRCLE
  5
454
100
AcDbEntity
  8
0
100
AcDbCircle
 62
7
  6
CONTINUOUS
 10
17.5
 20
21.5840884583
 40
2.25
  0
CIRCLE
  5
455
100
AcDbEntity
  8
0
100
AcDbCircle
 62
7
  6
CONTINUOUS
 10
17.5
 20
21.5840884583
 40
1.8
  0
ARC
  5
456
100
AcDbEntity
  8
DRAFT
100
AcDbCircle
 62
7
  6
CONTINUOUS
 10
28.0
 20
30.5840884583
 40
1.7757900259
100
AcDbArc
 50
180.0
 51
270.0
  0
CIRCLE
  5
457
100
AcDbEntity
  8
0
100
AcDbCircle
 62
7
  6
CONTINUOUS
 10
17.5
 20
21.5840884583
 40
1.5
  0
ARC
  5
458
100
AcDbEntity
  8
DRAFT
100
AcDbCircle
 62
7
  6
CONTINUOUS
 10
28.0
 20
30.5840884583
 40
1.5
100
AcDbArc
 50
180.0
 51
270.0
  0
ENDSEC
  0
SECTION
  2
OBJECTS
  0
DICTIONARY
  5
C
100
AcDbDictionary
280
0
281
1
  3
ACAD_GROUP
350
D
  3
ACAD_MLINESTYLE
350
17
  3
ACAD_LAYOUT
350
1A
  3
ACAD_PLOTSETTINGS
350
19
  3
ACAD_PLOTSTYLENAME
350
E
  0
DICTIONARY
  5
D
102
{ACAD_REACTORS
330
C
102
}
100
AcDbDictionary
280
0
281
1
  0
ACDBDICTIONARYWDFLT
  5
E
102
{ACAD_REACTORS
330
C
102
}
100
AcDbDictionary
281
1
  3
Normal
350
F
100
AcDbDictionaryWithDefault
340
F
  0
DICTIONARY
  5
17
102
{ACAD_REACTORS
330
C
102
}
100
AcDbDictionary
280
0
281
1
  3
Standard
350
18
  0
DICTIONARY
  5
19
102
{ACAD_REACTORS
330
C
102
}
100
AcDbDictionary
281
1
  0
DICTIONARY
  5
1A
102
{ACAD_REACTORS
330
C
102
}
100
AcDbDictionary
281
1
  3
Model
350
459
  3
Layout1
350
45A
  0
ACDBPLACEHOLDER
  5
F
102
{ACAD_REACTORS
330
E
102
}
  0
MLINESTYLE
  5
18
102
{ACAD_REACTORS
330
17
102
}
100
AcDbMlineStyle
  2
STANDARD
 70
0
  3

 62
256
 51
90.0
 52
90.0
 71
2
 49
0.5
 62
256
  6
BYLAYER
 49
-0.5
 62
256
  6
BYLAYER
  0
LAYOUT
  5
459
102
{ACAD_REACTORS
330
1A
102
}
100
AcDbPlotSettings
  1

  2
none_device
  4
ISO_A4_(297.00_x_210.00_MM)
  6

 40
0.0
 41
0.0
 42
0.0
 43
0.0
 44
297.0
 45
210.0
 46
0.0
 47
0.0
 48
0.0
 49
0.0
140
0.0
141
0.0
142
1.0
143
1.0
 70
1024
 72
1
 73
0
 74
0
  7

 75
0
147
1.0
148
0.0
149
0.0
100
AcDbLayout
  1
Model
 70
0
 71
0
 10
0.0
 20
0.0
 11
297.0
 21
210.0
 12
0.0
 22
0.0
 32
0.0
 14
0.0
 24
0.0
 34
0.0
 15
0.0
 25
0.0
 35
0.0
146
0.0
 13
0.0
 23
0.0
 33
0.0
 16
1.0
 26
0.0
 36
0.0
 17
0.0
 27
1.0
 37
0.0
 76
0
330
227
345
0
346
0
  0
LAYOUT
  5
45A
102
{ACAD_REACTORS
330
1A
102
}
100
AcDbPlotSettings
  1

  2
none_device
  4
ISO_A4_(297.00_x_210.00_MM)
  6

 40
0.0
 41
0.0
 42
0.0
 43
0.0
 44
297.0
 45
210.0
 46
0.0
 47
0.0
 48
0.0
 49
0.0
140
0.0
141
0.0
142
1.0
143
1.0
 70
0
 72
1
 73
0
 74
0
  7

 75
0
147
1.0
148
0.0
149
0.0
100
AcDbLayout
  1
Layout1
 70
0
 71
1
 10
0.0
 20
0.0
 11
297.0
 21
210.0
 12
0.0
 22
0.0
 32
0.0
 14
0.0
 24
0.0
 34
0.0
 15
0.0
 25
0.0
 35
0.0
146
0.0
 13
0.0
 23
0.0
 33
0.0
 16
1.0
 26
0.0
 36
0.0
 17
0.0
 27
1.0
 37
0.0
 76
0
330
228
345
0
346
0
  0
ENDSEC
  0
EOF
