  0
SECTION
  2
HEADER
  9
$ACADVER
  1
AC1024
  9
$DWGCODEPAGE
  3
ANSI_1252
  9
$EXTMAX
 10
297.0
 20
210.0
 30
0.0
  9
$EXTMIN
 10
0.0
 20
0.0
 30
0.0
  9
$LIMMIN
 10
0.0
 20
0.0
  9
$LIMMAX
 10
297.0
 20
210.0
  9
$VIEWCTR
 10
148.5
 20
105.0
  9
$VIEWSIZE
 40
210.0
  9
$CLAYER
  8
0
  9
$LTSCALE
 40
16.335
  9
$CELTYPE
  6
BYLAYER
  9
$DIMSCALE
 40
1.0
  9
$DIMASZ
 40
3.0
  9
$DIMEXO
 40
0.5
  9
$DIMDLI
 40
11.286
  9
$DIMEXE
 40
1.5
  9
$DIMCEN
 40
2.673
  9
$DIMLFAC
 40
1.0
  9
$DIMBLK
  1
_FILLED
  9
$DIMALT
 70
0
  9
$DIMALTF
 40
0.0393700787
  9
$DIMTXT
 40
3.0
  9
$DIMTOL
 70
1
  9
$DIMLIM
 70
0
  9
$DIMTFAC
 40
1.0
  9
$DIMTP
 40
0.01
  9
$DIMTM
 40
0.01
  9
$DIMGAP
 40
0.625
  9
$DIMDSEP
 70
44
  9
$AUNITS
 70
0
  9
$PDMODE
 70
3
  9
$PDSIZE
 40
3.0
  9
$HANDSEED
  5
556
  9
$TILEMODE
 70
1
  9
$MEASUREMENT
 70
1
  9
$INSUNITS
 70
4
  0
ENDSEC
  0
SECTION
  2
CLASSES
  0
CLASS
  1
ACDBDICTIONARYWDFLT
  2
AcDbDictionaryWithDefault
  3
AutoCAD 2000
 90
0
 91
1
280
0
281
0
  0
CLASS
  1
ACDBPLACEHOLDER
  2
AcDbPlaceHolder
  3
AutoCAD 2000
 90
0
 91
1
280
0
281
0
  0
CLASS
  1
LAYOUT
  2
AcDbLayout
  3
AutoCAD 2000
 90
0
 91
0
280
0
281
0
  0
ENDSEC
  0
SECTION
  2
TABLES
  0
TABLE
  2
VPORT
  5
8
100
AcDbSymbolTable
 70
2
  0
VPORT
  5
1F4
100
AcDbSymbolTableRecord
100
AcDbViewportTableRecord
  2
*ACTIVE
 70
0
 10
0.0
 20
0.0
 11
1.0
 21
1.0
 12
148.5
 22
105.0
 13
0.0
 23
0.0
 14
1.0
 24
1.0
 15
0.0
 25
0.0
 16
0.0
 26
0.0
 36
1.0
 17
0.0
 27
0.0
 37
0.0
 40
210.0
 41
1.4142857143
 42
50.0
 43
0.0
 44
0.0
 50
0.0
 51
0.0
 71
0
 72
100
 73
1
 74
1
 75
0
 76
0
 77
0
 78
0
  0
ENDTAB
  0
TABLE
  2
LTYPE
  5
5
100
AcDbSymbolTable
 70
6
  0
LTYPE
  5
14
100
AcDbSymbolTableRecord
100
AcDbLinetypeTableRecord
  2
BYBLOCK
 70
0
  3

 72
65
 73
0
 40
0.0
  0
LTYPE
  5
15
100
AcDbSymbolTableRecord
100
AcDbLinetypeTableRecord
  2
BYLAYER
 70
0
  3

 72
65
 73
0
 40
0.0
  0
LTYPE
  5
16
100
AcDbSymbolTableRecord
100
AcDbLinetypeTableRecord
  2
CONTINUOUS
 70
64
  3
Solid line
 72
65
 73
0
 40
0.0
  0
LTYPE
  5
1F5
100
AcDbSymbolTableRecord
100
AcDbLinetypeTableRecord
  2
CENTER
 70
64
  3
____ _ ____ _ ____ _ ____ _ ____ _ ____ _ ____
 72
65
 73
4
 40
0.6
 49
0.375
 74
0
 49
-0.075
 74
0
 49
0.075
 74
0
 49
-0.075
 74
0
  0
LTYPE
  5
1F6
100
AcDbSymbolTableRecord
100
AcDbLinetypeTableRecord
  2
HIDDEN
 70
64
  3
- - - - - - - - - - - - - - - - - - - -
 72
65
 73
2
 40
0.2
 49
0.1
 74
0
 49
-0.1
 74
0
  0
LTYPE
  5
1F7
100
AcDbSymbolTableRecord
100
AcDbLinetypeTableRecord
  2
PHANTOM
 70
64
  3
_____ _ _ _____ _ _ _____ _ _ _____
 72
65
 73
6
 40
0.8
 49
0.45
 74
0
 49
-0.05
 74
0
 49
0.1
 74
0
 49
-0.05
 74
0
 49
0.1
 74
0
 49
-0.05
 74
0
  0
LTYPE
  5
1F8
100
AcDbSymbolTableRecord
100
AcDbLinetypeTableRecord
  2
DOT
 70
64
  3
. . . . . . . . . . . . . . . . . . . .
 72
65
 73
2
 40
0.2
 49
0.1
 74
0
 49
-0.1
 74
0
  0
LTYPE
  5
1F9
100
AcDbSymbolTableRecord
100
AcDbLinetypeTableRecord
  2
DASHED
 70
64
  3
- - - - - - - - - - - - - - - - - - - -
 72
65
 73
2
 40
0.2
 49
0.1
 74
0
 49
-0.1
 74
0
  0
ENDTAB
  0
TABLE
  2
LAYER
  5
2
100
AcDbSymbolTable
 70
36
  0
LAYER
  5
10
100
AcDbSymbolTableRecord
100
AcDbLayerTableRecord
  2
0
 70
0
 62
7
  6
CONTINUOUS
370
-3
390
F
  0
LAYER
  5
1FA
100
AcDbSymbolTableRecord
100
AcDbLayerTableRecord
  2
DEFAULT_1
 70
0
 62
7
  6
CENTER
370
-3
390
F
  0
LAYER
  5
1FB
100
AcDbSymbolTableRecord
100
AcDbLayerTableRecord
  2
DEFAULT_2
 70
0
 62
7
  6
HIDDEN
370
-3
390
F
  0
LAYER
  5
1FC
100
AcDbSymbolTableRecord
100
AcDbLayerTableRecord
  2
DEFAULT_3
 70
0
 62
7
  6
PHANTOM
370
-3
390
F
  0
LAYER
  5
1FD
100
AcDbSymbolTableRecord
100
AcDbLayerTableRecord
  2
ASSI
 70
0
 62
7
  6
CONTINUOUS
370
-3
390
F
  0
LAYER
  5
1FE
100
AcDbSymbolTableRecord
100
AcDbLayerTableRecord
  2
COLOR5
 70
0
 62
7
  6
CONTINUOUS
370
-3
390
F
  0
LAYER
  5
1FF
100
AcDbSymbolTableRecord
100
AcDbLayerTableRecord
  2
COORDINATE
 70
0
 62
7
  6
CONTINUOUS
370
-3
390
F
  0
LAYER
  5
200
100
AcDbSymbolTableRecord
100
AcDbLayerTableRecord
  2
COORD_ORIGINE
 70
0
 62
7
  6
CONTINUOUS
370
-3
390
F
  0
LAYER
  5
201
100
AcDbSymbolTableRecord
100
AcDbLayerTableRecord
  2
COPY_PABLISH
 70
0
 62
7
  6
CONTINUOUS
370
-3
390
F
  0
LAYER
  5
202
100
AcDbSymbolTableRecord
100
AcDbLayerTableRecord
  2
CURVE
 70
0
 62
7
  6
CONTINUOUS
370
-3
390
F
  0
LAYER
  5
203
100
AcDbSymbolTableRecord
100
AcDbLayerTableRecord
  2
DRAFT
 70
0
 62
7
  6
CONTINUOUS
370
-3
390
F
  0
LAYER
  5
204
100
AcDbSymbolTableRecord
100
AcDbLayerTableRecord
  2
IMPORT_GEOMET
 70
0
 62
7
  6
CONTINUOUS
370
-3
390
F
  0
LAYER
  5
205
100
AcDbSymbolTableRecord
100
AcDbLayerTableRecord
  2
IMPORT_IGES
 70
0
 62
7
  6
CONTINUOUS
370
-3
390
F
  0
LAYER
  5
206
100
AcDbSymbolTableRecord
100
AcDbLayerTableRecord
  2
INTF_1
 70
0
 62
7
  6
CONTINUOUS
370
-3
390
F
  0
LAYER
  5
207
100
AcDbSymbolTableRecord
100
AcDbLayerTableRecord
  2
INTF_2
 70
0
 62
7
  6
CONTINUOUS
370
-3
390
F
  0
LAYER
  5
208
100
AcDbSymbolTableRecord
100
AcDbLayerTableRecord
  2
INTF_7
 70
0
 62
7
  6
CONTINUOUS
370
-3
390
F
  0
LAYER
  5
209
100
AcDbSymbolTableRecord
100
AcDbLayerTableRecord
  2
NOTE
 70
0
 62
7
  6
CONTINUOUS
370
-3
390
F
  0
LAYER
  5
20A
100
AcDbSymbolTableRecord
100
AcDbLayerTableRecord
  2
PIANI
 70
0
 62
7
  6
CONTINUOUS
370
-3
390
F
  0
LAYER
  5
20B
100
AcDbSymbolTableRecord
100
AcDbLayerTableRecord
  2
PIANI_ORIGINE
 70
0
 62
7
  6
CONTINUOUS
370
-3
390
F
  0
LAYER
  5
20C
100
AcDbSymbolTableRecord
100
AcDbLayerTableRecord
  2
PIANI_RIF
 70
0
 62
7
  6
CONTINUOUS
370
-3
390
F
  0
LAYER
  5
20D
100
AcDbSymbolTableRecord
100
AcDbLayerTableRecord
  2
PUNTI
 70
0
 62
7
  6
CONTINUOUS
370
-3
390
F
  0
LAYER
  5
20E
100
AcDbSymbolTableRecord
100
AcDbLayerTableRecord
  2
RACCORDO
 70
0
 62
7
  6
CONTINUOUS
370
-3
390
F
  0
LAYER
  5
20F
100
AcDbSymbolTableRecord
100
AcDbLayerTableRecord
  2
RGB__255__255__255__
 70
0
 62
7
  6
CONTINUOUS
370
-3
390
F
  0
LAYER
  5
210
100
AcDbSymbolTableRecord
100
AcDbLayerTableRecord
  2
RGB____0____0____0__
 70
0
 62
7
  6
CONTINUOUS
370
-3
390
F
  0
LAYER
  5
211
100
AcDbSymbolTableRecord
100
AcDbLayerTableRecord
  2
SKEL_ASSIEMI
 70
0
 62
7
  6
CONTINUOUS
370
-3
390
F
  0
LAYER
  5
212
100
AcDbSymbolTableRecord
100
AcDbLayerTableRecord
  2
SMUSSO
 70
0
 62
7
  6
CONTINUOUS
370
-3
390
F
  0
LAYER
  5
213
100
AcDbSymbolTableRecord
100
AcDbLayerTableRecord
  2
SNAPLINE
 70
0
 62
7
  6
CONTINUOUS
370
-3
390
F
  0
LAYER
  5
214
100
AcDbSymbolTableRecord
100
AcDbLayerTableRecord
  2
SOLIDO
 70
0
 62
7
  6
CONTINUOUS
370
-3
390
F
  0
LAYER
  5
215
100
AcDbSymbolTableRecord
100
AcDbLayerTableRecord
  2
SUPERFICI
 70
0
 62
7
  6
CONTINUOUS
370
-3
390
F
  0
LAYER
  5
216
100
AcDbSymbolTableRecord
100
AcDbLayerTableRecord
  2
TRASH
 70
0
 62
7
  6
CONTINUOUS
370
-3
390
F
  0
LAYER
  5
217
100
AcDbSymbolTableRecord
100
AcDbLayerTableRecord
  2
XSEC_DATUMS
 70
0
 62
7
  6
CONTINUOUS
370
-3
390
F
  0
ENDTAB
  0
TABLE
  2
STYLE
  5
3
100
AcDbSymbolTable
 70
1
  0
STYLE
  5
11
100
AcDbSymbolTableRecord
100
AcDbTextStyleTableRecord
  2
STANDARD
 70
0
 40
0.0
 41
0.8
 50
0.0
 71
0
 42
0.2
  3
txt
  4

  0
STYLE
  5
218
100
AcDbSymbolTableRecord
100
AcDbTextStyleTableRecord
  2
TEXTSTYLE_1
 70
0
 40
0.0
 41
0.8
 50
0.0
 71
0
 42
0.2
  3
gdt
  4

  0
ENDTAB
  0
TABLE
  2
VIEW
  5
6
100
AcDbSymbolTable
 70
0
  0
ENDTAB
  0
TABLE
  2
UCS
  5
7
100
AcDbSymbolTable
 70
0
  0
ENDTAB
  0
TABLE
  2
APPID
  5
9
100
AcDbSymbolTable
 70
1
  0
APPID
  5
219
100
AcDbSymbolTableRecord
100
AcDbRegAppTableRecord
  2
ACAD
 70
0
  0
ENDTAB
  0
TABLE
  2
BLOCK_RECORD
  5
1
100
AcDbSymbolTable
 70
0
  0
BLOCK_RECORD
  5
21A
100
AcDbSymbolTableRecord
100
AcDbBlockTableRecord
  2
*Model_Space
  0
BLOCK_RECORD
  5
21B
100
AcDbSymbolTableRecord
100
AcDbBlockTableRecord
  2
*Paper_Space
  0
BLOCK_RECORD
  5
21C
100
AcDbSymbolTableRecord
100
AcDbBlockTableRecord
  2
_FILLED
  0
ENDTAB
  0
TABLE
  2
DIMSTYLE
  5
A
100
AcDbSymbolTable
 70
1
100
AcDbDimStyleTable
 71
0
  0
DIMSTYLE
105
21D
100
AcDbSymbolTableRecord
100
AcDbDimStyleTableRecord
  2
STANDARD
 70
0
  3

  4

 40
1.0
 41
3.0
 42
0.5
 43
0.38
 44
1.5
 45
0.0
 46
0.0
 47
0.01
 48
0.01
140
3.0
141
0.09
142
0.0
143
25.4
144
1.0
145
0.0
146
1.0
147
0.625
 71
1
 72
0
 73
0
 74
0
 75
0
 76
0
 77
1
 78
8
 79
2
170
0
171
1
172
0
173
0
174
0
175
0
176
0
177
0
178
0
270
2
179
2
271
2
272
2
273
2
274
2
275
0
280
0
281
0
282
0
283
1
284
8
285
0
286
0
287
3
288
0
340
11
278
44
341
21C
342
21C
343
21C
344
21C
  0
ENDTAB
  0
ENDSEC
  0
SECTION
  2
BLOCKS
  0
BLOCK
  5
20
100
AcDbEntity
  8
0
100
AcDbBlockBegin
  2
*Model_Space
 70
0
 10
0.0
 20
0.0
 30
0.0
  3
*Model_Space
  1

  0
ENDBLK
  5
21
100
AcDbEntity
  8
0
100
AcDbBlockEnd
  0
BLOCK
  5
1C
100
AcDbEntity
  8
0
100
AcDbBlockBegin
  2
*Paper_Space
 70
0
 10
0.0
 20
0.0
 30
0.0
  3
*Paper_Space
  1

  0
ENDBLK
  5
1D
100
AcDbEntity
  8
0
100
AcDbBlockEnd
  0
BLOCK
  5
21E
100
AcDbEntity
  8
0
100
AcDbBlockBegin
  2
_FILLED
 70
64
 10
0.0
 20
0.0
  3
_FILLED
  1

  0
SOLID
  5
21F
100
AcDbEntity
  8
0
  6
BYBLOCK
 62
0
100
AcDbTrace
 10
0.0
 20
0.0
 11
-1.0
 21
0.3166666667
 12
-1.0
 22
-0.3166666667
 13
-1.0
 23
-0.3166666667
  0
ENDBLK
  5
220
100
AcDbEntity
  8
0
  6
BYBLOCK
 62
0
100
AcDbBlockEnd
  0
ENDSEC
  0
SECTION
  2
ENTITIES
  0
LINE
  5
221
100
AcDbEntity
  8
DRAFT
100
AcDbLine
 62
7
  6
CONTINUOUS
 10
-43.5
 20
-43.6659437343
 11
-43.2242099741
 21
-43.9417337602
  0
LINE
  5
222
100
AcDbEntity
  8
DRAFT
100
AcDbLine
 62
7
  6
CONTINUOUS
 10
-49.0
 20
-38.1659437343
 11
-49.2757899725
 21
-37.8901537618
  0
LWPOLYLINE
  5
223
100
AcDbEntity
  8
0
100
AcDbPolyline
 62
250
  6
CONTINUOUS
 90
8
 70
0
 10
-50.4499217485
 20
-34.2853396703
 10
-50.4512321701
 20
-34.2833355306
 10
-50.4525312777
 20
-34.2757263289
 10
-50.4538190714
 20
-34.2625120651
 10
-50.4551043842
 20
-34.2436275826
 10
-50.456378383
 20
-34.2191380379
 10
-50.4576145688
 20
-34.1892389013
 10
-50.4588123654
 20
-34.1537601435
  0
LINE
  5
224
100
AcDbEntity
  8
DRAFT
100
AcDbLine
 62
7
  6
CONTINUOUS
 10
-49.0
 20
29.8340562657
 11
-49.2757899725
 21
29.5582662932
  0
LINE
  5
225
100
AcDbEntity
  8
DRAFT
100
AcDbLine
 62
7
  6
CONTINUOUS
 10
-43.5
 20
35.3340562657
 11
-43.2242099741
 21
35.6098462916
  0
LWPOLYLINE
  5
226
100
AcDbEntity
  8
0
100
AcDbPolyline
 62
7
  6
CONTINUOUS
 90
5
 70
0
 10
-50.2501264901
 20
-27.5755702099
 10
-50.2378825585
 20
-27.5891465223
 10
-50.1661341085
 20
-27.6578055126
 10
-50.086430392
 20
-27.7170422847
 10
-50.0
 20
-27.7659437343
  0
LWPOLYLINE
  5
227
100
AcDbEntity
  8
0
100
AcDbPolyline
 62
250
  6
CONTINUOUS
 90
7
 70
0
 10
-50.4499217156
 20
-27.0465477984
 10
-50.443771556
 20
-27.1456767042
 10
-50.4253864941
 20
-27.2432775905
 10
-50.3950499258
 20
-27.3378459907
 10
-50.3532294733
 20
-27.4279241821
 10
-50.300569777
 20
-27.5121236564
 10
-50.2501264901
 20
-27.5755702099
  0
LWPOLYLINE
  5
228
100
AcDbEntity
  8
0
100
AcDbPolyline
 62
7
  6
CONTINUOUS
 90
16
 70
0
 10
-50.3730280729
 20
-27.0893352756
 10
-50.3704969741
 20
-27.1396025087
 10
-50.3649046485
 20
-27.1895040454
 10
-50.3562345166
 20
-27.2390398858
 10
-50.3444938128
 20
-27.2883507805
 10
-50.3296757168
 20
-27.3372959788
 10
-50.3117255478
 20
-27.3854532289
 10
-50.2906597744
 20
-27.432809694
 10
-50.2664595982
 20
-27.4793782109
 10
-50.2389422007
 20
-27.5247750383
 10
-50.208070657
 20
-27.5690885331
 10
-50.17382556
 20
-27.6122303385
 10
-50.1359556849
 20
-27.6535516425
 10
-50.094331806
 20
-27.6928361745
 10
-50.0490113624
 20
-27.7303002051
 10
-50.0
 20
-27.7659437343
  0
LINE
  5
229
100
AcDbEntity
  8
0
100
AcDbLine
 62
250
  6
CONTINUOUS
 10
-50.4588123654
 20
-34.1537601435
 11
-50.46106975
 21
-34.0672794093
  0
LINE
  5
22A
100
AcDbEntity
  8
0
100
AcDbLine
 62
250
  6
CONTINUOUS
 10
-50.46106975
 20
-34.0672794093
 11
-50.4630728921
 21
-33.9617396373
  0
LWPOLYLINE
  5
22B
100
AcDbEntity
  8
0
100
AcDbPolyline
 62
7
  6
CONTINUOUS
 90
17
 70
0
 10
-50.7897880096
 20
-9.9167197289
 10
-50.7828667461
 20
-10.555001414
 10
-50.7752237955
 20
-11.1656527581
 10
-50.7668682854
 20
-11.7490232239
 10
-50.7579067934
 20
-12.297671718
 10
-50.7483315569
 20
-12.8111534583
 10
-50.7381503384
 20
-13.2899132268
 10
-50.727493003
 20
-13.7278442758
 10
-50.7163534516
 20
-14.124423597
 10
-50.7047377832
 20
-14.4801741988
 10
-50.6927941598
 20
-14.7905583582
 10
-50.6805183802
 20
-15.0549949395
 10
-50.6679146456
 20
-15.2740650784
 10
-50.6551437209
 20
-15.4449744589
 10
-50.6422034645
 20
-15.5671061508
 10
-50.629096018
 20
-15.6410770843
 10
-50.6159885716
 20
-15.6659437343
  0
LINE
  5
22C
100
AcDbEntity
  8
0
100
AcDbLine
 62
250
  6
CONTINUOUS
 10
-50.4630728921
 20
-33.9617396373
 11
-50.4654906561
 21
-33.7743348023
  0
LWPOLYLINE
  5
22D
100
AcDbEntity
  8
0
100
AcDbPolyline
 62
7
  6
CONTINUOUS
 90
17
 70
0
 10
-50.4421891335
 20
1.5848322603
 10
-50.449110397
 20
2.2231139454
 10
-50.4567533477
 20
2.8337652894
 10
-50.4651088577
 20
3.4171357553
 10
-50.4740703498
 20
3.9657842493
 10
-50.4836455863
 20
4.4792659896
 10
-50.4938268048
 20
4.9580257582
 10
-50.5044841402
 20
5.3959568072
 10
-50.5156236916
 20
5.7925361284
 10
-50.52723936
 20
6.1482867302
 10
-50.5391829834
 20
6.4586708896
 10
-50.551458763
 20
6.7231074709
 10
-50.5640624976
 20
6.9421776098
 10
-50.5768334223
 20
7.1130869903
 10
-50.5897736787
 20
7.2352186822
 10
-50.6028811251
 20
7.3091896156
 10
-50.6159885716
 20
7.3340562657
  0
LINE
  5
22E
100
AcDbEntity
  8
0
100
AcDbLine
 62
7
  6
CONTINUOUS
 10
-50.8014136642
 20
-8.5668032065
 11
-50.7897880096
 21
-9.9167197289
  0
LINE
  5
22F
100
AcDbEntity
  8
0
100
AcDbLine
 62
7
  6
CONTINUOUS
 10
-50.4305634789
 20
0.2349157379
 11
-50.4421891335
 21
1.5848322603
  0
LINE
  5
230
100
AcDbEntity
  8
0
100
AcDbLine
 62
250
  6
CONTINUOUS
 10
-50.4654906561
 20
-33.7743348023
 11
-50.4670909979
 21
-33.5625662826
  0
LINE
  5
231
100
AcDbEntity
  8
0
100
AcDbLine
 62
7
  6
CONTINUOUS
 10
-50.80985202
 20
-7.1412396727
 11
-50.8014136642
 21
-8.5668032065
  0
LINE
  5
232
100
AcDbEntity
  8
0
100
AcDbLine
 62
7
  6
CONTINUOUS
 10
-50.4221251231
 20
-1.1906477959
 11
-50.4305634789
 21
0.2349157379
  0
LINE
  5
233
100
AcDbEntity
  8
0
100
AcDbLine
 62
7
  6
CONTINUOUS
 10
-50.814960803
 20
-5.6712159736
 11
-50.80985202
 21
-7.1412396727
  0
LINE
  5
234
100
AcDbEntity
  8
0
100
AcDbLine
 62
7
  6
CONTINUOUS
 10
-50.4170163402
 20
-2.6606714951
 11
-50.4221251231
 21
-1.1906477959
  0
LINE
  5
235
100
AcDbEntity
  8
0
100
AcDbLine
 62
7
  6
CONTINUOUS
 10
-50.8166912456
 20
-4.1659437343
 11
-50.814960803
 21
-5.6712159736
  0
LINE
  5
236
100
AcDbEntity
  8
0
100
AcDbLine
 62
250
  6
CONTINUOUS
 10
-50.4670909979
 20
-33.5625662826
 11
-50.4678629402
 21
-33.2659437343
  0
LINE
  5
237
100
AcDbEntity
  8
0
100
AcDbLine
 62
7
  6
CONTINUOUS
 10
-50.4152858976
 20
-4.1659437343
 11
-50.4170163402
 21
-2.6606714951
  0
LINE
  5
238
100
AcDbEntity
  8
DRAFT
100
AcDbLine
 62
7
  6
CONTINUOUS
 10
-51.0
 20
31.3340562657
 11
-51.0
 21
-39.6659437343
  0
LINE
  5
239
100
AcDbEntity
  8
ASSI
100
AcDbLine
 62
7
  6
CONTINUOUS
 10
-51.0
 20
-39.6659437343
 11
-51.0
 21
31.3340562657
  0
LINE
  5
23A
100
AcDbEntity
  8
0
100
AcDbLine
 62
250
  6
CONTINUOUS
 10
-50.3730280729
 20
31.3340562657
 11
-50.3730280729
 21
-27.0893415928
  0
LINE
  5
23B
100
AcDbEntity
  8
0
100
AcDbLine
 62
250
  6
CONTINUOUS
 10
-50.3730280729
 20
-34.2425458714
 11
-50.3730280729
 21
-39.6659437343
  0
LINE
  5
23C
100
AcDbEntity
  8
0
100
AcDbLine
 62
7
  6
CONTINUOUS
 10
-50.814960803
 20
-2.6606714951
 11
-50.8166912456
 21
-4.1659437343
  0
LINE
  5
23D
100
AcDbEntity
  8
0
100
AcDbLine
 62
7
  6
CONTINUOUS
 10
-50.4170163402
 20
-5.6712159736
 11
-50.4152858976
 21
-4.1659437343
  0
LWPOLYLINE
  5
23E
100
AcDbEntity
  8
0
100
AcDbPolyline
 62
250
  6
CONTINUOUS
 90
3
 70
0
 10
-50.4678629402
 20
-33.2659437343
 10
-50.4674317524
 20
-27.842880189
 10
-50.4670915141
 20
-27.7694121336
  0
LINE
  5
23F
100
AcDbEntity
  8
0
100
AcDbLine
 62
7
  6
CONTINUOUS
 10
-50.80985202
 20
-1.1906477959
 11
-50.814960803
 21
-2.6606714951
  0
LINE
  5
240
100
AcDbEntity
  8
0
100
AcDbLine
 62
7
  6
CONTINUOUS
 10
-50.4221251231
 20
-7.1412396727
 11
-50.4170163402
 21
-5.6712159736
  0
LINE
  5
241
100
AcDbEntity
  8
0
100
AcDbLine
 62
7
  6
CONTINUOUS
 10
-50.8014136642
 20
0.2349157379
 11
-50.80985202
 21
-1.1906477959
  0
LINE
  5
242
100
AcDbEntity
  8
0
100
AcDbLine
 62
7
  6
CONTINUOUS
 10
-50.4305634789
 20
-8.5668032065
 11
-50.4221251231
 21
-7.1412396727
  0
LWPOLYLINE
  5
243
100
AcDbEntity
  8
0
100
AcDbPolyline
 62
250
  6
CONTINUOUS
 90
8
 70
0
 10
-38.119395936
 20
36.7839780141
 10
-38.1173922733
 20
36.7852885532
 10
-38.1097812694
 20
36.7865878093
 10
-38.0965629243
 20
36.7878757824
 10
-38.0776717726
 20
36.7891613291
 10
-38.0531732796
 20
36.7904355929
 10
-38.0232638417
 20
36.7916720045
 10
-37.9877724809
 20
36.7928699774
  0
LINE
  5
244
100
AcDbEntity
  8
0
100
AcDbLine
 62
7
  6
CONTINUOUS
 10
-50.0
 20
-27.7659437343
 11
-50.0
 21
-33.5659437343
  0
LINE
  5
245
100
AcDbEntity
  8
RACCORDO
100
AcDbLine
 62
7
  6
CONTINUOUS
 10
-49.2757899725
 20
-37.8901537618
 11
-49.2757899725
 21
-39.6659437343
  0
LINE
  5
246
100
AcDbEntity
  8
RACCORDO
100
AcDbLine
 62
7
  6
CONTINUOUS
 10
-49.2757899725
 20
29.5582662932
 11
-49.2757899725
 21
31.3340562657
  0
LINE
  5
247
100
AcDbEntity
  8
RACCORDO
100
AcDbLine
 62
250
  6
CONTINUOUS
 10
-49.2731956082
 20
29.5582662398
 11
-49.2731956082
 21
-37.8901537084
  0
LINE
  5
248
100
AcDbEntity
  8
DRAFT
100
AcDbLine
 62
7
  6
CONTINUOUS
 10
-49.0
 20
-38.1659437343
 11
-49.0
 21
-39.6659437343
  0
LINE
  5
249
100
AcDbEntity
  8
DRAFT
100
AcDbLine
 62
7
  6
CONTINUOUS
 10
-49.0
 20
29.8340562657
 11
-49.0
 21
31.3340562657
  0
LINE
  5
24A
100
AcDbEntity
  8
0
100
AcDbLine
 62
250
  6
CONTINUOUS
 10
-50.4670915141
 20
-27.7694121336
 11
-50.4654926421
 21
-27.5577480603
  0
LINE
  5
24B
100
AcDbEntity
  8
0
100
AcDbLine
 62
250
  6
CONTINUOUS
 10
-50.4654926421
 20
-27.5577480603
 11
-50.4630765168
 21
-27.3703715945
  0
LINE
  5
24C
100
AcDbEntity
  8
0
100
AcDbLine
 62
250
  6
CONTINUOUS
 10
-50.4630765168
 20
-27.3703715945
 11
-50.461073793
 21
-27.2647902848
  0
LWPOLYLINE
  5
24D
100
AcDbEntity
  8
0
100
AcDbPolyline
 62
250
  6
CONTINUOUS
 90
9
 70
0
 10
-50.461073793
 20
-27.2647902848
 10
-50.4588158229
 20
-27.1782404803
 10
-50.4576175308
 20
-27.1427280602
 10
-50.4563807264
 20
-27.1128019106
 10
-50.4551060132
 20
-27.0882893187
 10
-50.4538200891
 20
-27.0693878545
 10
-50.4525318532
 20
-27.0561633747
 10
-50.4512324063
 20
-27.0485500226
 10
-50.4499217485
 20
-27.0465477983
  0
LWPOLYLINE
  5
24E
100
AcDbEntity
  8
0
100
AcDbPolyline
 62
250
  6
CONTINUOUS
 90
7
 70
0
 10
-50.4499333541
 20
-34.2853396699
 10
-50.4437810948
 20
-34.1862106087
 10
-50.4253940369
 20
-34.0886098005
 10
-50.3950556036
 20
-33.9940416787
 10
-50.3532334382
 20
-33.9039639305
 10
-50.3005721962
 20
-33.8197650282
 10
-50.2616130488
 20
-33.7696427391
  0
LWPOLYLINE
  5
24F
100
AcDbEntity
  8
0
100
AcDbPolyline
 62
7
  6
CONTINUOUS
 90
18
 70
0
 10
-50.6159885716
 20
7.3340562657
 10
-50.629096018
 20
7.3091896156
 10
-50.6422034645
 20
7.2352186822
 10
-50.6551437209
 20
7.1130869903
 10
-50.6679146456
 20
6.9421776098
 10
-50.6805183802
 20
6.7231074709
 10
-50.6927941598
 20
6.4586708896
 10
-50.7047377832
 20
6.1482867302
 10
-50.7163534516
 20
5.7925361284
 10
-50.727493003
 20
5.3959568072
 10
-50.7381503384
 20
4.9580257582
 10
-50.7483315569
 20
4.4792659896
 10
-50.7579067934
 20
3.9657842493
 10
-50.7668682854
 20
3.4171357553
 10
-50.7752237955
 20
2.8337652894
 10
-50.7828667461
 20
2.2231139454
 10
-50.7897880096
 20
1.5848322603
 10
-50.8014136642
 20
0.2349157379
  0
LWPOLYLINE
  5
250
100
AcDbEntity
  8
0
100
AcDbPolyline
 62
7
  6
CONTINUOUS
 90
5
 70
0
 10
-31.408874807
 20
36.584844399
 10
-31.423202788
 20
36.5719388242
 10
-31.4918617783
 20
36.5001903742
 10
-31.5510985504
 20
36.4204866577
 10
-31.6
 20
36.3340562657
  0
LWPOLYLINE
  5
251
100
AcDbEntity
  8
0
100
AcDbPolyline
 62
250
  6
CONTINUOUS
 90
7
 70
0
 10
30.8806040641
 20
-45.1158654499
 10
30.9797329699
 20
-45.1097152904
 10
31.0773338562
 20
-45.0913302284
 10
31.1719022564
 20
-45.0609936601
 10
31.2619804478
 20
-45.0191732076
 10
31.346179922
 20
-44.9665135113
 10
31.408874807
 20
-44.9167318676
  0
LWPOLYLINE
  5
252
100
AcDbEntity
  8
0
100
AcDbPolyline
 62
7
  6
CONTINUOUS
 90
16
 70
0
 10
30.9233915413
 20
-45.0389718072
 10
30.973658803
 20
-45.0364407061
 10
31.0235603626
 20
-45.0308483754
 10
31.0730962199
 20
-45.0221782369
 10
31.1224071251
 20
-45.0104375258
 10
31.1713523282
 20
-44.9956194228
 10
31.219509579
 20
-44.9776692477
 10
31.2668660403
 20
-44.9566034699
 10
31.3134345495
 20
-44.9324032915
 10
31.3588313681
 20
-44.9048858934
 10
31.4031448541
 20
-44.8740143501
 10
31.4462866496
 20
-44.8397692553
 10
31.4876079431
 20
-44.801899385
 10
31.5268924641
 20
-44.7602755142
 10
31.5643564831
 20
-44.7149550818
 10
31.6
 20
-44.6659437343
  0
LINE
  5
253
100
AcDbEntity
  8
0
100
AcDbLine
 62
250
  6
CONTINUOUS
 10
37.9877724809
 20
-45.124757446
 11
37.9012662548
 21
-45.1270150252
  0
LWPOLYLINE
  5
254
100
AcDbEntity
  8
0
100
AcDbPolyline
 62
250
  6
CONTINUOUS
 90
3
 70
0
 10
37.9012662548
 20
-45.1270150252
 10
37.7957117065
 20
-45.1290179908
 10
37.7369541358
 20
-45.1299066184
  0
LWPOLYLINE
  5
255
100
AcDbEntity
  8
0
100
AcDbPolyline
 62
250
  6
CONTINUOUS
 90
10
 70
0
 10
-50.4499217485
 20
-27.0465477983
 10
-50.441295107
 20
-27.0508062852
 10
-50.432689154
 20
-27.0551872898
 10
-50.4241038895
 20
-27.0596908121
 10
-50.4155392647
 20
-27.0643147495
 10
-50.4069953283
 20
-27.0690612045
 10
-50.3984722264
 20
-27.0739364856
 10
-50.3899700075
 20
-27.0789426953
 10
-50.381488623
 20
-27.0840777311
 10
-50.3730280729
 20
-27.0893415928
  0
LINE
  5
256
100
AcDbEntity
  8
DRAFT
100
AcDbLine
 62
250
  6
CONTINUOUS
 10
-45.0
 20
29.8340562657
 11
-45.0
 21
29.5582662398
  0
LINE
  5
257
100
AcDbEntity
  8
DRAFT
100
AcDbLine
 62
250
  6
CONTINUOUS
 10
-45.0
 20
-38.1659437343
 11
-45.0
 21
-37.8901537084
  0
LINE
  5
258
100
AcDbEntity
  8
RACCORDO
100
AcDbLine
 62
250
  6
CONTINUOUS
 10
-45.0
 20
-43.6659437343
 11
-45.0
 21
-45.6659437343
  0
LINE
  5
259
100
AcDbEntity
  8
RACCORDO
100
AcDbLine
 62
250
  6
CONTINUOUS
 10
-45.0
 20
35.3340562657
 11
-45.0
 21
37.3340562657
  0
LINE
  5
25A
100
AcDbEntity
  8
DRAFT
100
AcDbLine
 62
7
  6
CONTINUOUS
 10
-43.5
 20
35.3340562657
 11
-43.5
 21
31.3340562657
  0
LINE
  5
25B
100
AcDbEntity
  8
DRAFT
100
AcDbLine
 62
7
  6
CONTINUOUS
 10
-43.5
 20
-43.6659437343
 11
-43.5
 21
-39.6659437343
  0
LINE
  5
25C
100
AcDbEntity
  8
DRAFT
100
AcDbLine
 62
7
  6
CONTINUOUS
 10
-43.2242099741
 20
35.6072518739
 11
-43.2242099741
 21
31.3340562657
  0
LINE
  5
25D
100
AcDbEntity
  8
DRAFT
100
AcDbLine
 62
7
  6
CONTINUOUS
 10
-43.2242099741
 20
-43.9391393425
 11
-43.2242099741
 21
-39.6659437343
  0
LWPOLYLINE
  5
25E
100
AcDbEntity
  8
0
100
AcDbPolyline
 62
250
  6
CONTINUOUS
 90
10
 70
0
 10
-30.880604064
 20
36.7839780141
 10
-30.8848625509
 20
36.7753513727
 10
-30.8892435555
 20
36.7667454197
 10
-30.8937470778
 20
36.7581601552
 10
-30.8983710152
 20
36.7495955304
 10
-30.9031174702
 20
36.741051594
 10
-30.9079927513
 20
36.7325284921
 10
-30.912998961
 20
36.7240262732
 10
-30.9181339968
 20
36.7155448887
 10
-30.9233978585
 20
36.7070843386
  0
LWPOLYLINE
  5
25F
100
AcDbEntity
  8
RACCORDO
100
AcDbPolyline
 62
250
  6
CONTINUOUS
 90
14
 70
0
 10
-13.2306563413
 20
39.3532885533
 10
-13.2553630748
 20
39.3434975141
 10
-13.255369705
 20
39.3329366166
 10
-13.2278026906
 20
39.3223960789
 10
-13.1728741175
 20
39.311910158
 10
-13.0907544712
 20
39.3014879734
 10
-12.9814686333
 20
39.291132625
 10
-12.844996965
 20
39.2808538704
 10
-12.6816642906
 20
39.2706855077
 10
-12.492091023
 20
39.2606662365
 10
-12.2769960466
 20
39.2508275443
 10
-12.0366908881
 20
39.2411779676
 10
-11.771274175
 20
39.2317214024
 10
-11.1664154588
 20
39.2134482051
  0
LWPOLYLINE
  5
260
100
AcDbEntity
  8
RACCORDO
100
AcDbPolyline
 62
250
  6
CONTINUOUS
 90
14
 70
0
 10
-11.6029478427
 20
41.0791389699
 10
-11.6245070891
 20
41.0706341873
 10
-11.6241849012
 20
41.060968696
 10
-11.5975265094
 20
41.051322702
 10
-11.5447355019
 20
41.0417289731
 10
-11.4659827773
 20
41.0321979814
 10
-11.3613102828
 20
41.022734812
 10
-11.2307234976
 20
41.0133503547
 10
-11.0745575014
 20
41.0040770455
 10
-10.8934338171
 20
40.9949517919
 10
-10.6880761014
 20
40.9860050324
 10
-10.4588172465
 20
40.9772459823
 10
-10.2057797442
 20
40.9686793283
 10
-9.6297565967
 20
40.9521839713
  0
LWPOLYLINE
  5
261
100
AcDbEntity
  8
RACCORDO
100
AcDbPolyline
 62
250
  6
CONTINUOUS
 90
12
 70
0
 10
-9.8566649333
 20
42.9170615042
 10
-9.8747660933
 20
42.9099938724
 10
-9.874373019
 20
42.9013943182
 10
-9.8493671663
 20
42.8927964672
 10
-9.7996413733
 20
42.884209503
 10
-9.7252584537
 20
42.8756675142
 10
-9.6265642215
 20
42.8672102835
 10
-9.5040751963
 20
42.8588705301
 10
-9.3580505421
 20
42.8506566412
 10
-9.1885465643
 20
42.8425717265
 10
-8.9956319706
 20
42.834625573
 10
-8.5424391979
 20
42.8192799533
  0
LWPOLYLINE
  5
262
100
AcDbEntity
  8
0
100
AcDbPolyline
 62
7
  6
CONTINUOUS
 90
13
 70
0
 10
-5.9872670073
 20
45.2555990785
 10
-5.9980733731
 20
45.2513956213
 10
-5.9980733731
 20
45.2461657929
 10
-5.9832227831
 20
45.2409553873
 10
-5.9534110239
 20
45.235764549
 10
-5.9087486747
 20
45.2305931335
 10
-5.8495674731
 20
45.2254795524
 10
-5.7757593101
 20
45.2204242363
 10
-5.6874322948
 20
45.2154267545
 10
-5.5852424919
 20
45.2105242268
 10
-5.4690866775
 20
45.2057173602
 10
-5.3390680756
 20
45.2010054477
 10
-5.0402436859
 20
45.1919724481
  0
LWPOLYLINE
  5
263
100
AcDbEntity
  8
RACCORDO
100
AcDbPolyline
 62
250
  6
CONTINUOUS
 90
12
 70
0
 10
-8.1103821128
 20
44.6880069191
 10
-8.1249731585
 20
44.6824038986
 10
-8.1247383769
 20
44.6749728945
 10
-8.1021705227
 20
44.6675445711
 10
-8.0571841342
 20
44.6601291779
 10
-7.989849716
 20
44.6527576665
 10
-7.9004930747
 20
44.645465709
 10
-7.7895984668
 20
44.6382830995
 10
-7.6574296715
 20
44.631219123
 10
-7.504074804
 20
44.6242784937
 10
-7.3296350103
 20
44.6174714338
 10
-6.9202926879
 20
44.6043772393
  0
LWPOLYLINE
  5
264
100
AcDbEntity
  8
RACCORDO
100
AcDbPolyline
 62
250
  6
CONTINUOUS
 90
11
 70
0
 10
-3.8694092543
 20
46.3819544506
 10
-3.8761810479
 20
46.3794057611
 10
-3.8753250683
 20
46.3752049839
 10
-3.8595653656
 20
46.3710183567
 10
-3.8290780315
 20
46.3668685528
 10
-3.7840204692
 20
46.3627645873
 10
-3.7244592314
 20
46.3587123557
 10
-3.6504477333
 20
46.3547214908
 10
-3.5623023411
 20
46.3508138971
 10
-3.4605577042
 20
46.347013329
 10
-3.2184400229
 20
46.3397995705
  0
LWPOLYLINE
  5
265
100
AcDbEntity
  8
0
100
AcDbPolyline
 62
7
  6
CONTINUOUS
 90
11
 70
0
 10
-0.9978905893
 20
47.1496243066
 10
-0.9991191665
 20
47.1491970743
 10
-0.9991191665
 20
47.1477855815
 10
-0.9927088741
 20
47.1463876727
 10
-0.9797641084
 20
47.1450036112
 10
-0.9604090503
 20
47.1436331338
 10
-0.9350162427
 20
47.1423026193
 10
-0.9034687216
 20
47.1410128416
 10
-0.865883451
 20
47.1397630268
 10
-0.8229838659
 20
47.138577231
 10
-0.7210358529
 20
47.1364001769
  0
LINE
  5
266
100
AcDbEntity
  8
0
100
AcDbLine
 62
250
  6
CONTINUOUS
 10
37.7369541358
 20
-45.1299066184
 11
37.5399766131
 21
-45.1320644937
  0
LINE
  5
267
100
AcDbEntity
  8
0
100
AcDbLine
 62
7
  6
CONTINUOUS
 10
5.7507759946
 20
-45.4557317439
 11
4.4008594722
 21
-45.4673573985
  0
LINE
  5
268
100
AcDbEntity
  8
0
100
AcDbLine
 62
7
  6
CONTINUOUS
 10
-5.7507759946
 20
-45.1081328678
 11
-4.4008594722
 21
-45.0965072132
  0
LINE
  5
269
100
AcDbEntity
  8
0
100
AcDbLine
 62
7
  6
CONTINUOUS
 10
4.4008594722
 20
-45.4673573985
 11
2.9752959384
 21
-45.4757957543
  0
LINE
  5
26A
100
AcDbEntity
  8
0
100
AcDbLine
 62
7
  6
CONTINUOUS
 10
-4.4008594722
 20
-45.0965072132
 11
-2.9752959384
 21
-45.0880688574
  0
LINE
  5
26B
100
AcDbEntity
  8
0
100
AcDbLine
 62
250
  6
CONTINUOUS
 10
37.5399766131
 20
-45.1320644937
 11
37.2494273972
 21
-45.1336168386
  0
LINE
  5
26C
100
AcDbEntity
  8
0
100
AcDbLine
 62
7
  6
CONTINUOUS
 10
2.9752959384
 20
-45.4757957543
 11
1.5052722393
 21
-45.4809045373
  0
LINE
  5
26D
100
AcDbEntity
  8
0
100
AcDbLine
 62
7
  6
CONTINUOUS
 10
-2.9752959384
 20
-45.0880688574
 11
-1.5052722393
 21
-45.0829600745
  0
LINE
  5
26E
100
AcDbEntity
  8
0
100
AcDbLine
 62
7
  6
CONTINUOUS
 10
1.5052722393
 20
-45.4809045373
 11
-0.0
 21
-45.4826349799
  0
LINE
  5
26F
100
AcDbEntity
  8
0
100
AcDbLine
 62
7
  6
CONTINUOUS
 10
-1.5052722393
 20
-45.0829600745
 11
-0.0
 21
-45.0812296319
  0
LINE
  5
270
100
AcDbEntity
  8
DRAFT
100
AcDbLine
 62
7
  6
CONTINUOUS
 10
-45.0
 20
-45.6659437343
 11
45.0
 21
-45.6659437343
  0
LINE
  5
271
100
AcDbEntity
  8
ASSI
100
AcDbLine
 62
7
  6
CONTINUOUS
 10
45.0
 20
-45.6659437343
 11
-45.0
 21
-45.6659437343
  0
LINE
  5
272
100
AcDbEntity
  8
0
100
AcDbLine
 62
250
  6
CONTINUOUS
 10
37.2494273972
 20
-45.1336168386
 11
31.9
 21
-45.1338066745
  0
LINE
  5
273
100
AcDbEntity
  8
0
100
AcDbLine
 62
250
  6
CONTINUOUS
 10
-45.0
 20
-45.0389718072
 11
30.9233978585
 21
-45.0389718072
  0
LINE
  5
274
100
AcDbEntity
  8
0
100
AcDbLine
 62
250
  6
CONTINUOUS
 10
38.0766021371
 20
-45.0389718072
 11
45.0
 21
-45.0389718072
  0
LINE
  5
275
100
AcDbEntity
  8
0
100
AcDbLine
 62
7
  6
CONTINUOUS
 10
31.6
 20
-44.6659437343
 11
37.4
 21
-44.6659437343
  0
LINE
  5
276
100
AcDbEntity
  8
RACCORDO
100
AcDbLine
 62
7
  6
CONTINUOUS
 10
-45.0
 20
-43.9417337068
 11
-43.2242100275
 21
-43.9417337068
  0
LINE
  5
277
100
AcDbEntity
  8
RACCORDO
100
AcDbLine
 62
7
  6
CONTINUOUS
 10
45.0
 20
-43.9417337068
 11
43.2242100275
 21
-43.9417337068
  0
LINE
  5
278
100
AcDbEntity
  8
RACCORDO
100
AcDbLine
 62
250
  6
CONTINUOUS
 10
-43.2242099741
 20
-43.9391393425
 11
43.2242099741
 21
-43.9391393425
  0
LINE
  5
279
100
AcDbEntity
  8
DRAFT
100
AcDbLine
 62
7
  6
CONTINUOUS
 10
-45.0
 20
-43.6659437343
 11
-43.5
 21
-43.6659437343
  0
LINE
  5
27A
100
AcDbEntity
  8
DRAFT
100
AcDbLine
 62
7
  6
CONTINUOUS
 10
45.0
 20
-43.6659437343
 11
43.5
 21
-43.6659437343
  0
LINE
  5
27B
100
AcDbEntity
  8
0
100
AcDbLine
 62
7
  6
CONTINUOUS
 10
-0.0
 20
-45.4826349799
 11
-1.5052722393
 21
-45.4809045373
  0
LINE
  5
27C
100
AcDbEntity
  8
0
100
AcDbLine
 62
7
  6
CONTINUOUS
 10
-0.0
 20
-45.0812296319
 11
1.5052722393
 21
-45.0829600745
  0
LINE
  5
27D
100
AcDbEntity
  8
0
100
AcDbLine
 62
7
  6
CONTINUOUS
 10
-1.5052722393
 20
-45.4809045373
 11
-2.9752959384
 21
-45.4757957543
  0
LINE
  5
27E
100
AcDbEntity
  8
0
100
AcDbLine
 62
7
  6
CONTINUOUS
 10
1.5052722393
 20
-45.0829600745
 11
2.9752959384
 21
-45.0880688574
  0
LINE
  5
27F
100
AcDbEntity
  8
0
100
AcDbLine
 62
250
  6
CONTINUOUS
 10
31.9
 20
-45.1338066745
 11
31.6034101874
 21
-45.1330349206
  0
LINE
  5
280
100
AcDbEntity
  8
0
100
AcDbLine
 62
7
  6
CONTINUOUS
 10
-2.9752959384
 20
-45.4757957543
 11
-4.4008594722
 21
-45.4673573985
  0
LINE
  5
281
100
AcDbEntity
  8
0
100
AcDbLine
 62
7
  6
CONTINUOUS
 10
2.9752959384
 20
-45.0880688574
 11
4.4008594722
 21
-45.0965072132
  0
LINE
  5
282
100
AcDbEntity
  8
0
100
AcDbLine
 62
250
  6
CONTINUOUS
 10
31.6034101874
 20
-45.1330349206
 11
31.3916841109
 21
-45.1314351567
  0
LWPOLYLINE
  5
283
100
AcDbEntity
  8
0
100
AcDbPolyline
 62
7
  6
CONTINUOUS
 90
18
 70
0
 10
-4.4008594722
 20
-45.4673573985
 10
-5.7507759946
 20
-45.4557317439
 10
-6.3890576797
 20
-45.4488104804
 10
-6.9997090237
 20
-45.4411675298
 10
-7.5830794896
 20
-45.4328120197
 10
-8.1317279836
 20
-45.4238505277
 10
-8.6452097239
 20
-45.4142752912
 10
-9.1239694925
 20
-45.4040940727
 10
-9.5619005415
 20
-45.3934367373
 10
-9.9584798627
 20
-45.3822971859
 10
-10.3142304645
 20
-45.3706815175
 10
-10.6246146239
 20
-45.3587378941
 10
-10.8890512052
 20
-45.3464621145
 10
-11.1081213441
 20
-45.3338583799
 10
-11.2790307246
 20
-45.3210874552
 10
-11.4011624165
 20
-45.3081471988
 10
-11.4751333499
 20
-45.2950397523
 10
-11.5
 20
-45.2819323059
  0
LWPOLYLINE
  5
284
100
AcDbEntity
  8
0
100
AcDbPolyline
 62
7
  6
CONTINUOUS
 90
18
 70
0
 10
4.4008594722
 20
-45.0965072132
 10
5.7507759946
 20
-45.1081328678
 10
6.3890576797
 20
-45.1150541313
 10
6.9997090237
 20
-45.122697082
 10
7.5830794896
 20
-45.131052592
 10
8.1317279836
 20
-45.1400140841
 10
8.6452097239
 20
-45.1495893206
 10
9.1239694925
 20
-45.1597705391
 10
9.5619005415
 20
-45.1704278745
 10
9.9584798627
 20
-45.1815674259
 10
10.3142304645
 20
-45.1931830943
 10
10.6246146239
 20
-45.2051267177
 10
10.8890512052
 20
-45.2174024973
 10
11.1081213441
 20
-45.2300062319
 10
11.2790307246
 20
-45.2427771566
 10
11.4011624165
 20
-45.255717413
 10
11.4751333499
 20
-45.2688248594
 10
11.5
 20
-45.2819323059
  0
LINE
  5
285
100
AcDbEntity
  8
0
100
AcDbLine
 62
250
  6
CONTINUOUS
 10
31.3916841109
 20
-45.1314351567
 11
31.2042925094
 21
-45.1290180589
  0
LINE
  5
286
100
AcDbEntity
  8
0
100
AcDbLine
 62
250
  6
CONTINUOUS
 10
31.2042925094
 20
-45.1290180589
 11
31.0987371009
 21
-45.1270151
  0
LWPOLYLINE
  5
287
100
AcDbEntity
  8
0
100
AcDbPolyline
 62
250
  6
CONTINUOUS
 90
9
 70
0
 10
31.0987371009
 20
-45.1270151
 10
31.0122294961
 20
-45.1247575042
 10
30.9767374976
 20
-45.123559522
 10
30.9468276152
 20
-45.1223231057
 10
30.922328787
 20
-45.1210488384
 10
30.9034373809
 20
-45.1197632859
 10
30.8902188531
 20
-45.1184753034
 10
30.8826077474
 20
-45.1171760357
 10
30.880604064
 20
-45.1158654828
  0
LWPOLYLINE
  5
288
100
AcDbEntity
  8
0
100
AcDbPolyline
 62
250
  6
CONTINUOUS
 90
7
 70
0
 10
38.1193959356
 20
-45.1158769108
 10
38.0202668465
 20
-45.1097245857
 10
37.9226660227
 20
-45.0913374899
 10
37.8280978962
 20
-45.0609990444
 10
37.7380201527
 20
-45.0191768902
 10
37.6538212623
 20
-44.9665156792
 10
37.6044767013
 20
-44.9282113512
  0
LWPOLYLINE
  5
289
100
AcDbEntity
  8
0
100
AcDbPolyline
 62
7
  6
CONTINUOUS
 90
10
 70
0
 10
-36.4160718603
 20
-3.0334127343
 10
-36.41854856
 20
-2.9492784048
 10
-36.4169008989
 20
-2.8677543581
 10
-36.4111288771
 20
-2.788840594
 10
-36.4013556975
 20
-2.7122014269
 10
-36.3874581572
 20
-2.6381725424
 10
-36.3690666474
 20
-2.5677609983
 10
-36.3460579652
 20
-2.5013024805
 10
-36.3185553135
 20
-2.438461303
 10
-36.2865586922
 20
-2.3792374658
  0
LINE
  5
28A
100
AcDbEntity
  8
0
100
AcDbLine
 62
7
  6
CONTINUOUS
 10
-37.965387
 20
-4.2810327343
 11
-37.965387
 21
-5.7420647343
  0
LINE
  5
28B
100
AcDbEntity
  8
0
100
AcDbLine
 62
7
  6
CONTINUOUS
 10
-37.693534
 20
-5.4589547343
 11
-37.693534
 21
-4.2810327343
  0
LINE
  5
28C
100
AcDbEntity
  8
0
100
AcDbLine
 62
250
  6
CONTINUOUS
 10
-37.1
 20
36.8019192059
 11
-37.1
 21
36.3340562657
  0
LWPOLYLINE
  5
28D
100
AcDbEntity
  8
0
100
AcDbPolyline
 62
7
  6
CONTINUOUS
 90
16
 70
0
 10
-37.7437946685
 20
-2.7729470658
 10
-37.7409760009
 20
-2.7085150429
 10
-37.7338167285
 20
-2.6473752134
 10
-37.7223168514
 20
-2.5895275774
 10
-37.7065718705
 20
-2.5344102209
 10
-37.6864862849
 20
-2.4825850577
 10
-37.6617735917
 20
-2.4357378299
 10
-37.6323693602
 20
-2.394541096
 10
-37.5983380211
 20
-2.3583222973
 10
-37.5595863641
 20
-2.3267495001
 10
-37.5156903822
 20
-2.2997411761
 10
-37.4670740822
 20
-2.2773788534
 10
-37.4149162739
 20
-2.2595751833
 10
-37.3596098937
 20
-2.2463010493
 10
-37.3007620052
 20
-2.2375855679
 10
-37.2383726082
 20
-2.2334287389
  0
LWPOLYLINE
  5
28E
100
AcDbEntity
  8
0
100
AcDbPolyline
 62
7
  6
CONTINUOUS
 90
18
 70
0
 10
-50.6159885716
 20
-15.6659437343
 10
-50.6028811251
 20
-15.6410770843
 10
-50.5897736787
 20
-15.5671061508
 10
-50.5768334223
 20
-15.4449744589
 10
-50.5640624976
 20
-15.2740650784
 10
-50.551458763
 20
-15.0549949395
 10
-50.5391829834
 20
-14.7905583582
 10
-50.52723936
 20
-14.4801741988
 10
-50.5156236916
 20
-14.124423597
 10
-50.5044841402
 20
-13.7278442758
 10
-50.4938268048
 20
-13.2899132268
 10
-50.4836455863
 20
-12.8111534583
 10
-50.4740703498
 20
-12.297671718
 10
-50.4651088577
 20
-11.7490232239
 10
-50.4567533477
 20
-11.1656527581
 10
-50.449110397
 20
-10.555001414
 10
-50.4421891335
 20
-9.9167197289
 10
-50.4305634789
 20
-8.5668032065
  0
LWPOLYLINE
  5
28F
100
AcDbEntity
  8
0
100
AcDbPolyline
 62
7
  6
CONTINUOUS
 90
9
 70
0
 10
3.6
 20
45.2487807071
 10
3.5938615534
 20
45.2451317351
 10
3.5755693092
 20
45.2414827631
 10
3.5453079108
 20
45.2378706242
 10
3.5029561329
 20
45.2342956914
 10
3.4486352008
 20
45.2307575916
 10
3.3828934348
 20
45.2272920387
 10
3.3056151629
 20
45.2238997675
 10
3.216916057
 20
45.2205800432
  0
LINE
  5
290
100
AcDbEntity
  8
DRAFT
100
AcDbLine
 62
250
  6
CONTINUOUS
 10
-43.5
 20
-39.6659437343
 11
-43.2242099741
 21
-39.6659437343
  0
LINE
  5
291
100
AcDbEntity
  8
DRAFT
100
AcDbLine
 62
250
  6
CONTINUOUS
 10
43.5
 20
-39.6659437343
 11
43.2242099741
 21
-39.6659437343
  0
LINE
  5
292
100
AcDbEntity
  8
RACCORDO
100
AcDbLine
 62
250
  6
CONTINUOUS
 10
49.0
 20
-39.6659437343
 11
51.0
 21
-39.6659437343
  0
LINE
  5
293
100
AcDbEntity
  8
RACCORDO
100
AcDbLine
 62
250
  6
CONTINUOUS
 10
-49.0
 20
-39.6659437343
 11
-51.0
 21
-39.6659437343
  0
LINE
  5
294
100
AcDbEntity
  8
DRAFT
100
AcDbLine
 62
7
  6
CONTINUOUS
 10
45.0
 20
-38.1659437343
 11
49.0
 21
-38.1659437343
  0
LINE
  5
295
100
AcDbEntity
  8
DRAFT
100
AcDbLine
 62
7
  6
CONTINUOUS
 10
-45.0
 20
-38.1659437343
 11
-49.0
 21
-38.1659437343
  0
LINE
  5
296
100
AcDbEntity
  8
DRAFT
100
AcDbLine
 62
7
  6
CONTINUOUS
 10
45.0
 20
-37.8901537084
 11
49.2731956082
 21
-37.8901537084
  0
LINE
  5
297
100
AcDbEntity
  8
DRAFT
100
AcDbLine
 62
7
  6
CONTINUOUS
 10
-45.0
 20
-37.8901537084
 11
-49.2731956082
 21
-37.8901537084
  0
LINE
  5
298
100
AcDbEntity
  8
0
100
AcDbLine
 62
7
  6
CONTINUOUS
 10
-34.6
 20
12.3340562657
 11
-34.6
 21
-20.6659437343
  0
LINE
  5
299
100
AcDbEntity
  8
0
100
AcDbLine
 62
7
  6
CONTINUOUS
 10
-34.4
 20
-20.6659437343
 11
-34.4
 21
12.3340562657
  0
LINE
  5
29A
100
AcDbEntity
  8
0
100
AcDbLine
 62
250
  6
CONTINUOUS
 10
-31.9
 20
36.8019192059
 11
-31.9000000066
 21
36.3340562657
  0
LWPOLYLINE
  5
29B
100
AcDbEntity
  8
0
100
AcDbPolyline
 62
7
  6
CONTINUOUS
 90
10
 70
0
 10
-35.2215925954
 20
-5.1185819553
 10
-35.2300452796
 20
-5.2011689751
 10
-35.2478221965
 20
-5.2798522846
 10
-35.2749233461
 20
-5.3546318837
 10
-35.3124457793
 20
-5.4270085982
 10
-35.3592924453
 20
-5.4954816023
 10
-35.4121721917
 20
-5.5555484188
 10
-35.4699879677
 20
-5.6057082221
 10
-35.5338368241
 20
-5.6474618379
 10
-35.6037187609
 20
-5.6808092661
  0
LINE
  5
29C
100
AcDbEntity
  8
0
100
AcDbLine
 62
7
  6
CONTINUOUS
 10
-37.5483798357
 20
-3.5902084126
 11
-37.415790899
 21
-3.3305275366
  0
LINE
  5
29D
100
AcDbEntity
  8
0
100
AcDbLine
 62
250
  6
CONTINUOUS
 10
-50.4678629402
 20
-33.2659437343
 11
-50.0
 21
-33.2659437343
  0
LWPOLYLINE
  5
29E
100
AcDbEntity
  8
0
100
AcDbPolyline
 62
7
  6
CONTINUOUS
 90
13
 70
0
 10
-36.4275902185
 20
-5.7697467304
 10
-36.4822919071
 20
-5.658745946
 10
-36.5259904898
 20
-5.5498424848
 10
-36.5586859665
 20
-5.4430363465
 10
-36.5799929568
 20
-5.3374451247
 10
-36.5902968411
 20
-5.2339512258
 10
-36.5907537613
 20
-5.1352018701
 10
-36.5813846941
 20
-5.0415021044
 10
-36.5621686627
 20
-4.9525468817
 10
-36.5341988784
 20
-4.8700682817
 10
-36.4978397449
 20
-4.7946436641
 10
-36.4527268585
 20
-4.7256956692
 10
-36.3988602192
 20
-4.6632242969
  0
LINE
  5
29F
100
AcDbEntity
  8
0
100
AcDbLine
 62
7
  6
CONTINUOUS
 10
-35.6037187609
 20
-5.6808092661
 11
-35.4737469122
 21
-5.9698739296
  0
LWPOLYLINE
  5
2A0
100
AcDbEntity
  8
0
100
AcDbPolyline
 62
7
  6
CONTINUOUS
 90
13
 70
0
 10
-36.5658681522
 20
-2.4503299692
 10
-36.5956499529
 20
-2.3760428735
 10
-36.6315196285
 20
-2.3068094826
 10
-36.6734771789
 20
-2.2426297963
 10
-36.7225996534
 20
-2.1828532086
 10
-36.7778100028
 20
-2.1281303257
 10
-36.8358770798
 20
-2.0804129658
 10
-36.8953975397
 20
-2.0403776349
 10
-36.9577747273
 20
-2.007347827
 10
-37.0239875302
 20
-1.9812458434
 10
-37.0943622444
 20
-1.9620457843
 10
-37.1685725739
 20
-1.9497735495
 10
-37.2466185187
 20
-1.9444291389
  0
LINE
  5
2A1
100
AcDbEntity
  8
0
100
AcDbLine
 62
7
  6
CONTINUOUS
 10
-35.6410220488
 20
-3.3950555749
 11
-35.5454738397
 21
-3.7070912577
  0
LWPOLYLINE
  5
2A2
100
AcDbEntity
  8
0
100
AcDbPolyline
 62
7
  6
CONTINUOUS
 90
10
 70
0
 10
-36.2865586922
 20
-2.3792374658
 10
-36.2558399848
 20
-2.3366789856
 10
-36.2189727776
 20
-2.2978839804
 10
-36.1759570704
 20
-2.2628524503
 10
-36.1260202591
 20
-2.2307930017
 10
-36.0699349478
 20
-2.2024970282
 10
-36.01001895
 20
-2.1803387098
 10
-35.94704487
 20
-2.16510944
 10
-35.8802401034
 20
-2.1560178253
 10
-35.8096046502
 20
-2.1530638658
  0
LWPOLYLINE
  5
2A3
100
AcDbEntity
  8
0
100
AcDbPolyline
 62
7
  6
CONTINUOUS
 90
10
 70
0
 10
7.85
 20
43.4490548558
 10
7.8411086126
 20
43.4425360672
 10
7.8144545922
 20
43.4360320457
 10
7.7700983188
 20
43.4295575251
 10
7.7081402735
 20
43.4231271722
 10
7.6287208113
 20
43.4167555538
 10
7.5320198429
 20
43.4104571037
 10
7.4182564269
 20
43.40424609
 10
7.2876882742
 20
43.3981365826
 10
7.1406111635
 20
43.3921424214
  0
LINE
  5
2A4
100
AcDbEntity
  8
0
100
AcDbLine
 62
250
  6
CONTINUOUS
 10
-50.4678629402
 20
-28.0659437343
 11
-50.0
 21
-28.0659437404
  0
LWPOLYLINE
  5
2A5
100
AcDbEntity
  8
0
100
AcDbPolyline
 62
7
  6
CONTINUOUS
 90
19
 70
0
 10
-35.3881469242
 20
-2.3302200521
 10
-35.3409013454
 20
-2.3850835113
 10
-35.3015060276
 20
-2.4444312534
 10
-35.2699609709
 20
-2.5082632785
 10
-35.2464266649
 20
-2.5774035892
 10
-35.2307426198
 20
-2.6510281828
 10
-35.2224273674
 20
-2.7266650515
 10
-35.2216321391
 20
-2.8056558975
 10
-35.2282057034
 20
-2.8866590186
 10
-35.2412128968
 20
-2.9631772997
 10
-35.2604581069
 20
-3.0335542037
 10
-35.2861369461
 20
-3.0994462678
 10
-35.3179010883
 20
-3.1593259888
 10
-35.3554328916
 20
-3.2124706633
 10
-35.3990499979
 20
-3.2596029948
 10
-35.4493570068
 20
-3.3013635909
 10
-35.5065554516
 20
-3.3379659876
 10
-35.5704437989
 20
-3.3691966489
 10
-35.6410220488
 20
-3.3950555749
  0
LINE
  5
2A6
100
AcDbEntity
  8
0
100
AcDbLine
 62
7
  6
CONTINUOUS
 10
-24.5
 20
22.4340562657
 11
-24.5
 21
22.2340562657
  0
LWPOLYLINE
  5
2A7
100
AcDbEntity
  8
0
100
AcDbPolyline
 62
7
  6
CONTINUOUS
 90
10
 70
0
 10
4.1
 20
45.7487045546
 10
4.098380347
 20
45.7467289336
 10
4.0859964213
 20
45.7427956006
 10
4.0611159696
 20
45.7388803394
 10
4.0238515922
 20
45.7349829872
 10
3.9745410904
 20
45.7311388734
 10
3.9130749351
 20
45.7273484822
 10
3.8395626554
 20
45.7236113293
 10
3.7546706393
 20
45.7199612922
 10
3.658295417
 20
45.7163991629
  0
LWPOLYLINE
  5
2A8
100
AcDbEntity
  8
0
100
AcDbPolyline
 62
7
  6
CONTINUOUS
 90
8
 70
0
 10
11.85
 20
40.3495270008
 10
11.8403533544
 20
40.3412040997
 10
11.811506744
 20
40.3328811985
 10
11.7636001581
 20
40.3245986875
 10
11.6965409508
 20
40.3163567628
 10
11.6104217681
 20
40.3081552283
 10
11.5056605365
 20
40.3000338851
 10
11.3821666418
 20
40.2919931228
  0
LWPOLYLINE
  5
2A9
100
AcDbEntity
  8
0
100
AcDbPolyline
 62
7
  6
CONTINUOUS
 90
9
 70
0
 10
10.1
 20
42.1492528521
 10
10.0903444761
 20
42.141569018
 10
10.0614874188
 20
42.1338851839
 10
10.0135930999
 20
42.1262450909
 10
9.9465529418
 20
42.1186489883
 10
9.8604755222
 20
42.1110966268
 10
9.7558508455
 20
42.1036309989
 10
9.632573129
 20
42.0962525993
 10
9.4907481555
 20
42.0889609332
  0
LWPOLYLINE
  5
2AA
100
AcDbEntity
  8
0
100
AcDbPolyline
 62
7
  6
CONTINUOUS
 90
10
 70
0
 10
-37.415790899
 20
-3.3305275366
 10
-37.4755894959
 20
-3.2908455023
 10
-37.5304995829
 20
-3.2439679517
 10
-37.58052116
 20
-3.1898948847
 10
-37.6269207919
 20
-3.1264560634
 10
-37.668431914
 20
-3.0558217258
 10
-37.7012548321
 20
-2.9845025858
 10
-37.7241229815
 20
-2.9146688815
 10
-37.738302927
 20
-2.8441503748
 10
-37.7437946685
 20
-2.7729470658
  0
LWPOLYLINE
  5
2AB
100
AcDbEntity
  8
0
100
AcDbPolyline
 62
7
  6
CONTINUOUS
 90
10
 70
0
 10
-36.3988602192
 20
-4.6632242969
 10
-36.3584182012
 20
-4.6269810675
 10
-36.3134787476
 20
-4.5941170293
 10
-36.2640418583
 20
-4.5646321825
 10
-36.2096550218
 20
-4.5381353065
 10
-36.1507707495
 20
-4.5150176218
 10
-36.0887465762
 20
-4.4964527893
 10
-36.0240350134
 20
-4.4828320293
 10
-35.9561835495
 20
-4.4737641214
 10
-35.8851921845
 20
-4.4692490658
  0
LINE
  5
2AC
100
AcDbEntity
  8
0
100
AcDbLine
 62
7
  6
CONTINUOUS
 10
-34.6
 20
-20.6659437343
 11
-34.4
 21
-20.6659437343
  0
LINE
  5
2AD
100
AcDbEntity
  8
0
100
AcDbLine
 62
7
  6
CONTINUOUS
 10
-14.0
 20
38.3724358193
 11
-14.0
 21
36.9500448373
  0
LWPOLYLINE
  5
2AE
100
AcDbEntity
  8
RACCORDO
100
AcDbPolyline
 62
7
  6
CONTINUOUS
 90
22
 70
0
 10
-14.0
 20
38.3724358193
 10
-13.9965050021
 20
38.4561345768
 10
-13.9860246986
 20
38.5393691341
 10
-13.9686026373
 20
38.6215574488
 10
-13.9441910494
 20
38.70252403
 10
-13.9130042037
 20
38.7812694254
 10
-13.8758502065
 20
38.8561081121
 10
-13.8329293378
 20
38.9271282325
 10
-13.7850024674
 20
38.9934875915
 10
-13.734617981
 20
39.0527406578
 10
-13.6832237356
 20
39.1047541902
 10
-13.631344367
 20
39.1503605759
 10
-13.5807201164
 20
39.1893003652
 10
-13.5329097152
 20
39.2217308431
 10
-13.4878437359
 20
39.2488792441
 10
-13.4446340587
 20
39.272092105
 10
-13.4032076049
 20
39.2919716843
 10
-13.3641570212
 20
39.3087378846
 10
-13.3273292663
 20
39.3229118197
 10
-13.2927153045
 20
39.3348749355
 10
-13.260483344
 20
39.3449034776
 10
-13.2306563462
 20
39.353288552
  0
LWPOLYLINE
  5
2AF
100
AcDbEntity
  8
RACCORDO
100
AcDbPolyline
 62
7
  6
CONTINUOUS
 90
19
 70
0
 10
-11.85
 20
40.7761858505
 10
-11.8478693272
 20
40.812086751
 10
-11.8417297006
 20
40.846561726
 10
-11.8319848211
 20
40.879216473
 10
-11.8189247747
 20
40.9100161672
 10
-11.8030627015
 20
40.9384191208
 10
-11.7854060287
 20
40.9635348142
 10
-11.7666918968
 20
40.9853290408
 10
-11.747378118
 20
41.0041034553
 10
-11.7282722857
 20
41.0198205717
 10
-11.7099733048
 20
41.0327135802
 10
-11.6926705384
 20
41.0432612149
 10
-11.6764828863
 20
41.0518706337
 10
-11.6617754096
 20
41.0587567978
 10
-11.6484959529
 20
41.0642863621
 10
-11.6360201657
 20
41.0689433135
 10
-11.6241442312
 20
41.0729380757
 10
-11.6131181859
 20
41.0763016251
 10
-11.6029478526
 20
41.0791389673
  0
LWPOLYLINE
  5
2B0
100
AcDbEntity
  8
0
100
AcDbPolyline
 62
7
  6
CONTINUOUS
 90
11
 70
0
 10
9.45
 20
41.6493290045
 10
9.4475513618
 20
41.6455747786
 10
9.4279698689
 20
41.638074108
 10
9.3888474687
 20
41.630596765
 10
9.3302652484
 20
41.6231582473
 10
9.2523446286
 20
41.6157739726
 10
9.1552471117
 20
41.6084592457
 10
9.039173947
 20
41.6012292277
 10
8.904365714
 20
41.5940989038
 10
8.7511018233
 20
41.5870830528
 10
8.5796999378
 20
41.5801962159
  0
LWPOLYLINE
  5
2B1
100
AcDbEntity
  8
0
100
AcDbPolyline
 62
7
  6
CONTINUOUS
 90
9
 70
0
 10
8.35
 20
43.9489787034
 10
8.3477766773
 20
43.9456569079
 10
8.3305342227
 20
43.9390339007
 10
8.295942249
 20
43.9324316049
 10
8.2441078207
 20
43.9258498928
 10
8.1753521321
 20
43.9193295482
 10
8.0895701131
 20
43.9128709521
 10
7.9868668338
 20
43.9064737236
 10
7.8678786997
 20
43.9001775033
  0
LWPOLYLINE
  5
2B2
100
AcDbEntity
  8
0
100
AcDbPolyline
 62
7
  6
CONTINUOUS
 90
5
 70
0
 10
-50.2616130488
 20
-33.7696427391
 10
-50.2378836086
 20
-33.7427428268
 10
-50.1661339693
 20
-33.6740845593
 10
-50.0864292411
 20
-33.6148485355
 10
-49.9999980075
 20
-33.5659478301
  0
LWPOLYLINE
  5
2B3
100
AcDbEntity
  8
0
100
AcDbPolyline
 62
7
  6
CONTINUOUS
 90
11
 70
0
 10
14.0
 20
36.9500448373
 10
13.9901779926
 20
36.9409131977
 10
13.9607939714
 20
36.9317815581
 10
13.9119709385
 20
36.9226881437
 10
13.8436274081
 20
36.9136331146
 10
13.7558448659
 20
36.9046163107
 10
13.6489907705
 20
36.8956754764
 10
13.5229851768
 20
36.8868109301
 10
13.3779080298
 20
36.8780223533
 10
13.2143666243
 20
36.8693465353
 10
13.0322835606
 20
36.8607839486
  0
LWPOLYLINE
  5
2B4
100
AcDbEntity
  8
0
100
AcDbPolyline
 62
7
  6
CONTINUOUS
 90
8
 70
0
 10
-36.2032076419
 20
-1.9576028405
 10
-36.2788421548
 20
-2.0036295883
 10
-36.3460489669
 20
-2.0570773872
 10
-36.4055325656
 20
-2.1186378417
 10
-36.4572596169
 20
-2.1887040202
 10
-36.5012190094
 20
-2.2674069458
 10
-36.5374218545
 20
-2.3546155954
 10
-36.5658681522
 20
-2.4503299692
  0
LWPOLYLINE
  5
2B5
100
AcDbEntity
  8
0
100
AcDbPolyline
 62
7
  6
CONTINUOUS
 90
14
 70
0
 10
-36.4140707444
 20
-4.2980653884
 10
-36.4961592038
 20
-4.3472321415
 10
-36.5692132656
 20
-4.4018021588
 10
-36.6338956878
 20
-4.463134822
 10
-36.6913561374
 20
-4.5327733993
 10
-36.7428575687
 20
-4.6115250218
 10
-36.7871370272
 20
-4.6985825585
 10
-36.8215553165
 20
-4.793067884
 10
-36.8460385559
 20
-4.8961505279
 10
-36.8606606259
 20
-5.0066609606
 10
-36.8630039725
 20
-5.1202124688
 10
-36.8522627441
 20
-5.2353428146
 10
-36.8292427923
 20
-5.3535142357
 10
-36.7939441169
 20
-5.4747267323
  0
LINE
  5
2B6
100
AcDbEntity
  8
0
100
AcDbLine
 62
7
  6
CONTINUOUS
 10
-11.85
 20
40.7761858505
 11
-11.85
 21
40.3495270008
  0
LINE
  5
2B7
100
AcDbEntity
  8
0
100
AcDbLine
 62
7
  6
CONTINUOUS
 10
-11.35
 20
40.290191574
 11
-11.35
 21
39.8496031532
  0
LINE
  5
2B8
100
AcDbEntity
  8
0
100
AcDbLine
 62
7
  6
CONTINUOUS
 10
-10.1
 20
42.6160979591
 11
-10.1
 21
42.1492528521
  0
LINE
  5
2B9
100
AcDbEntity
  8
0
100
AcDbLine
 62
7
  6
CONTINUOUS
 10
-9.45
 20
42.0871316064
 11
-9.45
 21
41.6493290045
  0
LWPOLYLINE
  5
2BA
100
AcDbEntity
  8
RACCORDO
100
AcDbPolyline
 62
7
  6
CONTINUOUS
 90
19
 70
0
 10
-8.35
 20
44.3890329722
 10
-8.3481548083
 20
44.4223911341
 10
-8.3427596077
 20
44.4548185325
 10
-8.334050278
 20
44.4859650612
 10
-8.3221246187
 20
44.5158864983
 10
-8.3073602175
 20
44.5439262957
 10
-8.2907705733
 20
44.5689086046
 10
-8.2731551789
 20
44.5906328129
 10
-8.2548529672
 20
44.6095057262
 10
-8.2364552897
 20
44.6255853205
 10
-8.2183771842
 20
44.6391128032
 10
-8.2009220808
 20
44.6503796653
 10
-8.1844488859
 20
44.6596118471
 10
-8.1693354281
 20
44.6670208347
 10
-8.1555542536
 20
44.6729788275
 10
-8.1427692086
 20
44.6778868418
 10
-8.1308888786
 20
44.6819595195
 10
-8.1200877699
 20
44.6852898617
 10
-8.1103821083
 20
44.6880069203
  0
LWPOLYLINE
  5
2BB
100
AcDbEntity
  8
RACCORDO
100
AcDbPolyline
 62
7
  6
CONTINUOUS
 90
19
 70
0
 10
-10.1
 20
42.6160979591
 10
-10.0980070969
 20
42.6507920662
 10
-10.0922281186
 20
42.6842867952
 10
-10.0829879742
 20
42.7162098185
 10
-10.0704880559
 20
42.7465659052
 10
-10.0551778453
 20
42.7747643467
 10
-10.0380622784
 20
42.7997918378
 10
-10.0199139172
 20
42.8215277086
 10
-10.0011269299
 20
42.840329989
 10
-9.9823700798
 20
42.8562302989
 10
-9.9641100067
 20
42.8694816728
 10
-9.9466210521
 20
42.8804379931
 10
-9.9302179977
 20
42.8893746147
 10
-9.9153193684
 20
42.8964949355
 10
-9.9018479142
 20
42.9021979758
 10
-9.8892764217
 20
42.9069485688
 10
-9.877440047
 20
42.9109628863
 10
-9.8665663843
 20
42.9142951435
 10
-9.8566649279
 20
42.9170615056
  0
LWPOLYLINE
  5
2BC
100
AcDbEntity
  8
0
100
AcDbPolyline
 62
7
  6
CONTINUOUS
 90
11
 70
0
 10
11.35
 20
39.8496031532
 10
11.3475107574
 20
39.8454547779
 10
11.3276033677
 20
39.8371653049
 10
11.2878235124
 20
39.8288976521
 10
11.2282409791
 20
39.8206663238
 10
11.1489602958
 20
39.8124857606
 10
11.0501205476
 20
39.8043703138
 10
10.9318951332
 20
39.7963342208
 10
10.7944914599
 20
39.7883915797
 10
10.6381505807
 20
39.7805563244
 10
10.4631467705
 20
39.7728422007
  0
LWPOLYLINE
  5
2BD
100
AcDbEntity
  8
0
100
AcDbPolyline
 62
7
  6
CONTINUOUS
 90
30
 70
0
 10
-35.4737469122
 20
-5.9698739296
 10
-35.3733504842
 20
-5.9134366148
 10
-35.2839237113
 20
-5.851511831
 10
-35.2054665934
 20
-5.7840995781
 10
-35.1383282175
 20
-5.7116013063
 10
-35.0821594965
 20
-5.6336155655
 10
-35.03591317
 20
-5.5489380057
 10
-34.9988721063
 20
-5.456685432
 10
-34.9717534369
 20
-5.3577410393
 10
-34.9556612957
 20
-5.2535500613
 10
-34.9509541729
 20
-5.1411099486
 10
-34.9572735782
 20
-5.0234232506
 10
-34.9746481747
 20
-4.9109428493
 10
-35.0037580447
 20
-4.8063778983
 10
-35.0439231059
 20
-4.707019244
 10
-35.0931317734
 20
-4.6151923079
 10
-35.1514249338
 20
-4.5312018287
 10
-35.2187617007
 20
-4.4547430679
 10
-35.2930078295
 20
-4.3872272314
 10
-35.3731568753
 20
-4.3287988355
 10
-35.4602152831
 20
-4.279313364
 10
-35.5550681437
 20
-4.2397484745
 10
-35.6603816536
 20
-4.2100630892
 10
-35.7734896164
 20
-4.190298286
 10
-35.8872785337
 20
-4.181554956
 10
-36.002115235
 20
-4.1847747132
 10
-36.1176328909
 20
-4.1990159436
 10
-36.2256175143
 20
-4.2225546967
 10
-36.3236106456
 20
-4.2556612813
 10
-36.4140707444
 20
-4.2980653884
  0
LWPOLYLINE
  5
2BE
100
AcDbEntity
  8
0
100
AcDbPolyline
 62
7
  6
CONTINUOUS
 90
33
 70
0
 10
-35.5454738397
 20
-3.7070912577
 10
-35.4391872356
 20
-3.6550445216
 10
-35.3436876315
 20
-3.5969939531
 10
-35.2589750274
 20
-3.5329395524
 10
-35.1854124542
 20
-3.4632023571
 10
-35.122636881
 20
-3.3874613296
 10
-35.069559215
 20
-3.3047533562
 10
-35.0257814992
 20
-3.2131094801
 10
-34.9917016906
 20
-3.1144986581
 10
-34.9674245672
 20
-3.0138646465
 10
-34.9537714251
 20
-2.9106543535
 10
-34.9499209684
 20
-2.8054208708
 10
-34.9535140875
 20
-2.7047672307
 10
-34.9642708691
 20
-2.6105347839
 10
-34.9824712266
 20
-2.5208821795
 10
-35.0065957906
 20
-2.4368883969
 10
-35.0367576146
 20
-2.3589657275
 10
-35.072843645
 20
-2.2867018798
 10
-35.1129953514
 20
-2.2199389587
 10
-35.1556015625
 20
-2.1589360378
 10
-35.2022734496
 20
-2.1034340436
 10
-35.2559859955
 20
-2.0524978599
 10
-35.3177035807
 20
-2.0048244641
 10
-35.3864618248
 20
-1.9617168788
 10
-35.462342569
 20
-1.9261490566
 10
-35.5467229991
 20
-1.8985736478
 10
-35.6382259294
 20
-1.8785380021
 10
-35.7328016436
 20
-1.8676581199
 10
-35.8319833029
 20
-1.8662597895
 10
-35.9342377462
 20
-1.8740172227
 10
-36.030915773
 20
-1.8915690555
 10
-36.1198499156
 20
-1.9196887482
 10
-36.2032076419
 20
-1.9576028405
  0
LWPOLYLINE
  5
2BF
100
AcDbEntity
  8
0
100
AcDbPolyline
 62
7
  6
CONTINUOUS
 90
5
 70
0
 10
37.6044767013
 20
-44.9282113512
 10
37.5767990778
 20
-44.9038271383
 10
37.5081408292
 20
-44.832077557
 10
37.448904824
 20
-44.7523728926
 10
37.4000041336
 20
-44.6659417234
  0
LWPOLYLINE
  5
2C0
100
AcDbEntity
  8
0
100
AcDbPolyline
 62
7
  6
CONTINUOUS
 90
16
 70
0
 10
-37.4
 20
36.3340562657
 10
-37.4356605337
 20
36.3830885798
 10
-37.4731423989
 20
36.4284264192
 10
-37.5124455956
 20
36.4700642017
 10
-37.5537877144
 20
36.5079452589
 10
-37.5969511646
 20
36.5421981993
 10
-37.6412831748
 20
36.5730727451
 10
-37.6866952603
 20
36.600588885
 10
-37.7332759057
 20
36.6247843836
 10
-37.7806377933
 20
36.6458418463
 10
-37.828793747
 20
36.6637813039
 10
-37.8777309429
 20
36.6785874039
 10
-37.927023591
 20
36.6903154107
 10
-37.9765297614
 20
36.6989737704
 10
-38.026391384
 20
36.7045572987
 10
-38.0766084587
 20
36.7070843386
  0
LWPOLYLINE
  5
2C1
100
AcDbEntity
  8
0
100
AcDbPolyline
 62
250
  6
CONTINUOUS
 90
10
 70
0
 10
-38.0766021371
 20
36.7070843386
 10
-38.0818660007
 20
36.7155448868
 10
-38.0870010375
 20
36.7240262698
 10
-38.0920072474
 20
36.7325284875
 10
-38.096882527
 20
36.7410515884
 10
-38.1016289797
 20
36.749595524
 10
-38.1062529159
 20
36.7581601489
 10
-38.1107564391
 20
36.7667454147
 10
-38.1151374458
 20
36.7753513698
 10
-38.119395936
 20
36.7839780141
  0
LINE
  5
2C2
100
AcDbEntity
  8
0
100
AcDbLine
 62
7
  6
CONTINUOUS
 10
-8.35
 20
44.3890329722
 11
-8.35
 21
43.9489787034
  0
LINE
  5
2C3
100
AcDbEntity
  8
0
100
AcDbLine
 62
7
  6
CONTINUOUS
 10
-7.85
 20
43.8993593917
 11
-7.85
 21
43.4490548558
  0
LINE
  5
2C4
100
AcDbEntity
  8
0
100
AcDbLine
 62
7
  6
CONTINUOUS
 10
-4.1
 20
46.0878123061
 11
-4.1
 21
45.7487045546
  0
LWPOLYLINE
  5
2C5
100
AcDbEntity
  8
0
100
AcDbPolyline
 62
7
  6
CONTINUOUS
 90
28
 70
0
 10
-2.9301
 20
24.2854484561
 10
-2.9258352853
 20
24.3701553298
 10
-2.9139281649
 20
24.4494163306
 10
-2.8943786389
 20
24.5232314584
 10
-2.8669054405
 20
24.5916347209
 10
-2.8317898365
 20
24.6545921106
 10
-2.7898756269
 20
24.7120016041
 10
-2.7402958324
 20
24.7647315064
 10
-2.6839174324
 20
24.8119135126
 10
-2.624185165
 20
24.8508406852
 10
-2.5619029409
 20
24.8805690732
 10
-2.4962668494
 20
24.9020426277
 10
-2.4283098967
 20
24.9153862641
 10
-2.3562979469
 20
24.9205193149
 10
-2.281965136
 20
24.9175224476
 10
-2.2115468772
 20
24.9067625804
 10
-2.1470943619
 20
24.8883126098
 10
-2.0865563988
 20
24.8620996393
 10
-2.0300148266
 20
24.8282718976
 10
-1.9766689102
 20
24.7864085074
 10
-1.9273193846
 20
24.7369303459
 10
-1.8844502936
 20
24.6812482745
 10
-1.8486610864
 20
24.6194994241
 10
-1.8193523138
 20
24.5515466637
 10
-1.797209672
 20
24.4783894609
 10
-1.7824617262
 20
24.4003609715
 10
-1.7748799113
 20
24.3171280397
 10
-1.7744642271
 20
24.2286906655
  0
LWPOLYLINE
  5
2C6
100
AcDbEntity
  8
RACCORDO
100
AcDbPolyline
 62
7
  6
CONTINUOUS
 90
16
 70
0
 10
-4.1
 20
46.0878123061
 10
-4.0978397369
 20
46.1238190855
 10
-4.0914748844
 20
46.1589628406
 10
-4.0811192876
 20
46.1927747428
 10
-4.0667690726
 20
46.2253475812
 10
-4.0488748812
 20
46.255716216
 10
-4.0289142172
 20
46.2822041865
 10
-4.0079453076
 20
46.3046500295
 10
-3.9864304239
 20
46.3235787091
 10
-3.9654430166
 20
46.3389396954
 10
-3.9458453364
 20
46.3510062632
 10
-3.9277515241
 20
46.3604665981
 10
-3.9109780656
 20
46.3679574514
 10
-3.895524904
 20
46.3738730173
 10
-3.8816498909
 20
46.3784482713
 10
-3.8694093559
 20
46.3819544234
  0
LINE
  5
2C7
100
AcDbEntity
  8
0
100
AcDbLine
 62
7
  6
CONTINUOUS
 10
11.1960930686
 20
-5.2659437343
 11
10.0700680665
 21
-5.2659437343
  0
LINE
  5
2C8
100
AcDbEntity
  8
0
100
AcDbLine
 62
7
  6
CONTINUOUS
 10
-10.0700680665
 20
-5.2659437343
 11
-11.1960930686
 21
-5.2659437343
  0
LINE
  5
2C9
100
AcDbEntity
  8
0
100
AcDbLine
 62
7
  6
CONTINUOUS
 10
-37.693534
 20
-4.2810327343
 11
-37.965387
 21
-4.2810327343
  0
LINE
  5
2CA
100
AcDbEntity
  8
0
100
AcDbLine
 62
7
  6
CONTINUOUS
 10
-36.7939441169
 20
-5.4747267323
 11
-37.693534
 21
-5.4589547343
  0
LINE
  5
2CB
100
AcDbEntity
  8
0
100
AcDbLine
 62
7
  6
CONTINUOUS
 10
-37.965387
 20
-5.7420647343
 11
-36.4275902185
 21
-5.7697467304
  0
LWPOLYLINE
  5
2CC
100
AcDbEntity
  8
0
100
AcDbPolyline
 62
7
  6
CONTINUOUS
 90
10
 70
0
 10
-35.8096046502
 20
-2.1530638658
 10
-35.7513505837
 20
-2.1573790815
 10
-35.6955482582
 20
-2.1658722073
 10
-35.6421976738
 20
-2.1785432432
 10
-35.5907593418
 20
-2.1958398008
 10
-35.5417727509
 20
-2.2173142685
 10
-35.4968563671
 20
-2.241623811
 10
-35.456549679
 20
-2.2683208166
 10
-35.4203131981
 20
-2.297852897
 10
-35.3881469242
 20
-2.3302200521
  0
LWPOLYLINE
  5
2CD
100
AcDbEntity
  8
0
100
AcDbPolyline
 62
7
  6
CONTINUOUS
 90
13
 70
0
 10
-35.8851921845
 20
-4.4692490658
 10
-35.7910713219
 20
-4.4763491009
 10
-35.7030850698
 20
-4.4934218571
 10
-35.6212334279
 20
-4.5204673342
 10
-35.5450295624
 20
-4.5585178437
 10
-35.4749603073
 20
-4.6065410743
 10
-35.4124861644
 20
-4.6614400918
 10
-35.357296452
 20
-4.7225696182
 10
-35.3097018519
 20
-4.7905749316
 10
-35.2720949115
 20
-4.864294932
 10
-35.2452731465
 20
-4.9433425861
 10
-35.2284390411
 20
-5.0281049272
 10
-35.2215925954
 20
-5.1185819553
  0
LWPOLYLINE
  5
2CE
100
AcDbEntity
  8
0
100
AcDbPolyline
 62
7
  6
CONTINUOUS
 90
31
 70
0
 10
0.518
 20
24.7167812813
 10
0.5182634261
 20
24.6057995651
 10
0.5133271006
 20
24.4990755801
 10
0.5031910234
 20
24.3966093262
 10
0.4875067509
 20
24.2982264852
 10
0.4666227268
 20
24.2041013753
 10
0.4415842817
 20
24.1147569521
 10
0.4131436743
 20
24.0295051649
 10
0.380548646
 20
23.9490340645
 10
0.3425877514
 20
23.8759307583
 10
0.2981983385
 20
23.8107129596
 10
0.2484430592
 20
23.7528629553
 10
0.1952984239
 20
23.703414713
 10
0.1393625501
 20
23.662887399
 10
0.0800373202
 20
23.6307618471
 10
0.0175048913
 20
23.6065145266
 10
-0.0501287155
 20
23.5901881055
 10
-0.1209695212
 20
23.5817399159
 10
-0.1891534322
 20
23.5805184228
 10
-0.2536191405
 20
23.5866868014
 10
-0.315427954
 20
23.6000818766
 10
-0.3718997027
 20
23.6195625877
 10
-0.4219848058
 20
23.6449041735
 10
-0.4667328441
 20
23.6763313953
 10
-0.5066123892
 20
23.7133774758
 10
-0.5415606849
 20
23.7562334956
 10
-0.5716404874
 20
23.8047083741
 10
-0.5975086362
 20
23.8577620923
 10
-0.6193840779
 20
23.9150479771
 10
-0.6370478658
 20
23.9769127016
 10
-0.6505
 20
24.0433562657
  0
LINE
  5
2CF
100
AcDbEntity
  8
0
100
AcDbLine
 62
7
  6
CONTINUOUS
 10
-3.6
 20
45.714519181
 11
-3.6
 21
45.2487807071
  0
LINE
  5
2D0
100
AcDbEntity
  8
0
100
AcDbLine
 62
7
  6
CONTINUOUS
 10
-1.1
 20
-15.3620368029
 11
-1.1
 21
-14.2360118008
  0
LINE
  5
2D1
100
AcDbEntity
  8
0
100
AcDbLine
 62
7
  6
CONTINUOUS
 10
-1.1
 20
5.9041243322
 11
-1.1
 21
7.0301493343
  0
LWPOLYLINE
  5
2D2
100
AcDbEntity
  8
0
100
AcDbPolyline
 62
7
  6
CONTINUOUS
 90
31
 70
0
 10
-2.9875
 20
24.8501594396
 10
-2.9856291367
 20
24.9643616771
 10
-2.9791298355
 20
25.0741571139
 10
-2.9680020964
 20
25.1795457499
 10
-2.9526886913
 20
25.2810784184
 10
-2.9327468482
 20
25.3782042861
 10
-2.9068482513
 20
25.4692708533
 10
-2.8740459546
 20
25.5541005873
 10
-2.835286904
 20
25.6328710209
 10
-2.7920836216
 20
25.7044622526
 10
-2.7444875893
 20
25.7689726043
 10
-2.6924473252
 20
25.8263037543
 10
-2.6373209053
 20
25.875040836
 10
-2.5794082483
 20
25.9147395985
 10
-2.5184094356
 20
25.9458442929
 10
-2.454782787
 20
25.9682728058
 10
-2.3866562674
 20
25.9816626623
 10
-2.3159019119
 20
25.9863763375
 10
-2.2485941464
 20
25.9834191429
 10
-2.186120461
 20
25.9722287024
 10
-2.1270933657
 20
25.9533673922
 10
-2.0734248157
 20
25.9295276528
 10
-2.025895324
 20
25.9013368275
 10
-1.9837243777
 20
25.8681675731
 10
-1.9464823933
 20
25.8308302996
 10
-1.9145772697
 20
25.7895004329
 10
-1.887601108
 20
25.7440025472
 10
-1.8639006282
 20
25.6946207744
 10
-1.8429247369
 20
25.6414498252
 10
-1.8252245275
 20
25.584394989
 10
-1.8108
 20
25.5234562657
  0
LWPOLYLINE
  5
2D3
100
AcDbEntity
  8
0
100
AcDbPolyline
 62
7
  6
CONTINUOUS
 90
28
 70
0
 10
0.477
 20
25.309423503
 10
0.4738158441
 20
25.2226922671
 10
0.4636656909
 20
25.1413628942
 10
0.4465495403
 20
25.0654353843
 10
0.4222168783
 20
24.9946236911
 10
0.390918219
 20
24.9292138609
 10
0.3534051042
 20
24.8700640325
 10
0.3092209869
 20
24.8170346346
 10
0.2588224141
 20
24.7702652385
 10
0.2043305687
 20
24.731032697
 10
0.1463304914
 20
24.699676501
 10
0.0842371416
 20
24.6758571597
 10
0.0184165811
 20
24.6598330523
 10
-0.0532283334
 20
24.6516131287
 10
-0.1286004586
 20
24.6511884391
 10
-0.2010423028
 20
24.6587905141
 10
-0.2686011948
 20
24.674476306
 10
-0.3332298059
 20
24.6981888624
 10
-0.3941286582
 20
24.7299888562
 10
-0.4520851621
 20
24.7707317886
 10
-0.5063119074
 20
24.8195621583
 10
-0.5536471853
 20
24.873974134
 10
-0.593328495
 20
24.9332040305
 10
-0.6261183374
 20
24.9980155331
 10
-0.6511425069
 20
25.068193866
 10
-0.6681096015
 20
25.1436674373
 10
-0.6773110231
 20
25.224507839
 10
-0.6787467717
 20
25.3107150709
  0
LWPOLYLINE
  5
2D4
100
AcDbEntity
  8
0
100
AcDbPolyline
 62
7
  6
CONTINUOUS
 90
25
 70
0
 10
-1.7744642271
 20
24.2286906655
 10
-1.782347704
 20
24.129551414
 10
-1.799050511
 20
24.0378933188
 10
-1.8245726481
 20
23.9537163798
 10
-1.8599726841
 20
23.8765460355
 10
-1.9041920501
 20
23.8068568475
 10
-1.9540550396
 20
23.7460724999
 10
-2.0092397551
 20
23.6943331344
 10
-2.0700680942
 20
23.6514986093
 10
-2.1343300431
 20
23.6185721842
 10
-2.2020460253
 20
23.5957764739
 10
-2.2731956173
 20
23.5828888637
 10
-2.3455075344
 20
23.5802447686
 10
-2.419967045
 20
23.5881859977
 10
-2.4955888806
 20
23.6063707419
 10
-2.567145952
 20
23.6341089882
 10
-2.6337055467
 20
23.6713180864
 10
-2.696200377
 20
23.7180806868
 10
-2.7522014902
 20
23.7739547269
 10
-2.8015245021
 20
23.8393190235
 10
-2.8443537969
 20
23.9137947598
 10
-2.8788135741
 20
23.9958034226
 10
-2.9042785669
 20
24.0848188407
 10
-2.9213740422
 20
24.1813671852
 10
-2.9301
 20
24.2854484561
  0
LWPOLYLINE
  5
2D5
100
AcDbEntity
  8
0
100
AcDbPolyline
 62
7
  6
CONTINUOUS
 90
25
 70
0
 10
-0.6787467717
 20
25.3107150709
 10
-0.6698046677
 20
25.4124806403
 10
-0.65129674
 20
25.5067677334
 10
-0.6232229887
 20
25.5935763504
 10
-0.5842041101
 20
25.6734796585
 10
-0.5356194079
 20
25.7459044903
 10
-0.4816067924
 20
25.8091313438
 10
-0.4227712513
 20
25.8629332931
 10
-0.3585077968
 20
25.9075372641
 10
-0.2911393762
 20
25.9419045314
 10
-0.220106985
 20
25.9655568991
 10
-0.1459696276
 20
25.9789725632
 10
-0.0727272645
 20
25.9825473868
 10
-0.0008311866
 20
25.9764300238
 10
0.0701698971
 20
25.9604718203
 10
0.1376298993
 20
25.9346226775
 10
0.2016348123
 20
25.8983554531
 10
0.2620986438
 20
25.8521972894
 10
0.31611733
 20
25.7976795143
 10
0.3635403783
 20
25.7348925771
 10
0.4045182814
 20
25.6637460285
 10
0.4365984536
 20
25.5854998488
 10
0.4589633665
 20
25.5005740314
 10
0.4724305487
 20
25.4085485828
 10
0.477
 20
25.309423503
  0
LWPOLYLINE
  5
2D6
100
AcDbEntity
  8
0
100
AcDbPolyline
 62
7
  6
CONTINUOUS
 90
16
 70
0
 10
-50.0
 20
-33.5659437343
 10
-50.0490323284
 20
-33.6016042798
 10
-50.0943701787
 20
-33.6390861562
 10
-50.1360079689
 20
-33.6783893635
 10
-50.1738890307
 20
-33.7197314925
 10
-50.2081419733
 20
-33.7628949523
 10
-50.2390165195
 20
-33.807226971
 10
-50.2665326588
 20
-33.8526390649
 10
-50.2907281553
 20
-33.8992197177
 10
-50.3117856137
 20
-33.9465816088
 10
-50.3297250654
 20
-33.9947375619
 10
-50.3445311587
 20
-34.0436747532
 10
-50.3562591585
 20
-34.0929673912
 10
-50.3649175117
 20
-34.1424735452
 10
-50.3705010353
 20
-34.1923351458
 10
-50.3730280729
 20
-34.2425521931
  0
LWPOLYLINE
  5
2D7
100
AcDbEntity
  8
0
100
AcDbPolyline
 62
7
  6
CONTINUOUS
 90
31
 70
0
 10
-37.2466185187
 20
-1.9444291389
 10
-37.3247673102
 20
-1.9482212146
 10
-37.3985956223
 20
-1.9572177559
 10
-37.4681034552
 20
-1.9714187628
 10
-37.5335672695
 20
-1.991307989
 10
-37.5947106046
 20
-2.0164016807
 10
-37.6507040777
 20
-2.0452485772
 10
-37.7009555467
 20
-2.0777910338
 10
-37.7460571537
 20
-2.114086695
 10
-37.786955943
 20
-2.152857234
 10
-37.8233642601
 20
-2.1932502853
 10
-37.8555697595
 20
-2.2361182143
 10
-37.8853824485
 20
-2.2827397897
 10
-37.9137840977
 20
-2.3335196197
 10
-37.9397929365
 20
-2.3880530961
 10
-37.9622736605
 20
-2.4464051624
 10
-37.981159022
 20
-2.5087609029
 10
-37.9965162687
 20
-2.5749352335
 10
-38.0074118391
 20
-2.6444378444
 10
-38.0141738049
 20
-2.71733521
 10
-38.0164740945
 20
-2.793560856
 10
-38.0123949313
 20
-2.8724250506
 10
-38.0027260219
 20
-2.9544973253
 10
-37.9866776597
 20
-3.0392081486
 10
-37.9599629483
 20
-3.1241591944
 10
-37.9218465416
 20
-3.2101771347
 10
-37.8730637858
 20
-3.2964352976
 10
-37.8115338231
 20
-3.378055341
 10
-37.7365630342
 20
-3.453411151
 10
-37.6488450384
 20
-3.5241288415
 10
-37.5483798357
 20
-3.5902084126
  0
LINE
  5
2D8
100
AcDbEntity
  8
0
100
AcDbLine
 62
7
  6
CONTINUOUS
 10
-11.1960930686
 20
-3.0659437343
 11
-10.0700680665
 21
-3.0659437343
  0
LINE
  5
2D9
100
AcDbEntity
  8
0
100
AcDbLine
 62
7
  6
CONTINUOUS
 10
10.0700680665
 20
-3.0659437343
 11
11.1960930686
 21
-3.0659437343
  0
LINE
  5
2DA
100
AcDbEntity
  8
0
100
AcDbLine
 62
7
  6
CONTINUOUS
 10
-36.6875325973
 20
-3.0334127343
 11
-36.4160718603
 21
-3.0334127343
  0
LWPOLYLINE
  5
2DB
100
AcDbEntity
  8
0
100
AcDbPolyline
 62
7
  6
CONTINUOUS
 90
19
 70
0
 10
-37.2383726082
 20
-2.2334287389
 10
-37.1709903474
 20
-2.2366411789
 10
-37.1078539628
 20
-2.2453145291
 10
-37.0489634545
 20
-2.2594487897
 10
-36.9940399423
 20
-2.2791592065
 10
-36.9433623063
 20
-2.3043305336
 10
-36.8977671876
 20
-2.3346170331
 10
-36.857979384
 20
-2.3700916822
 10
-36.8232740976
 20
-2.4106815037
 10
-36.7923135761
 20
-2.4558218278
 10
-36.7644285836
 20
-2.5055851823
 10
-36.7402883559
 20
-2.5598990395
 10
-36.7205628476
 20
-2.6179811462
 10
-36.7057985698
 20
-2.6799644472
 10
-36.6954490114
 20
-2.7457159978
 10
-36.6885445929
 20
-2.8140547106
 10
-36.6847621211
 20
-2.8845868897
 10
-36.6844247893
 20
-2.9577062309
 10
-36.6875325973
 20
-3.0334127343
  0
LINE
  5
2DC
100
AcDbEntity
  8
0
100
AcDbLine
 62
7
  6
CONTINUOUS
 10
1.1
 20
7.0301493343
 11
1.1
 21
5.9041243322
  0
LINE
  5
2DD
100
AcDbEntity
  8
0
100
AcDbLine
 62
7
  6
CONTINUOUS
 10
1.1
 20
-14.2360118008
 11
1.1
 21
-15.3620368029
  0
LINE
  5
2DE
100
AcDbEntity
  8
0
100
AcDbLine
 62
7
  6
CONTINUOUS
 10
3.6
 20
45.714519181
 11
3.6
 21
45.2487807071
  0
LINE
  5
2DF
100
AcDbEntity
  8
0
100
AcDbLine
 62
7
  6
CONTINUOUS
 10
4.1
 20
46.0878123061
 11
4.1
 21
45.7487045546
  0
LWPOLYLINE
  5
2E0
100
AcDbEntity
  8
0
100
AcDbPolyline
 62
250
  6
CONTINUOUS
 90
10
 70
0
 10
-50.3730280729
 20
-34.2425458714
 10
-50.3814886211
 20
-34.247809735
 10
-50.3899700041
 20
-34.2529447718
 10
-50.3984722218
 20
-34.2579509817
 10
-50.4069953227
 20
-34.2628262613
 10
-50.4155392583
 20
-34.267572714
 10
-50.4241038832
 20
-34.2721966502
 10
-50.432689149
 20
-34.2767001734
 10
-50.4412951041
 20
-34.2810811801
 10
-50.4499217485
 20
-34.2853396703
  0
LWPOLYLINE
  5
2E1
100
AcDbEntity
  8
0
100
AcDbPolyline
 62
250
  6
CONTINUOUS
 90
10
 70
0
 10
50.3730280729
 20
25.9106584028
 10
50.3814886211
 20
25.9159222664
 10
50.3899700041
 20
25.9210573032
 10
50.3984722218
 20
25.9260635131
 10
50.4069953227
 20
25.9309387927
 10
50.4155392583
 20
25.9356852454
 10
50.4241038832
 20
25.9403091816
 10
50.432689149
 20
25.9448127048
 10
50.4412951041
 20
25.9491937115
 10
50.4499217485
 20
25.9534522017
  0
LWPOLYLINE
  5
2E2
100
AcDbEntity
  8
0
100
AcDbPolyline
 62
7
  6
CONTINUOUS
 90
5
 70
0
 10
-37.6044767013
 20
36.5963238825
 10
-37.5767990778
 20
36.5719396697
 10
-37.5081408292
 20
36.5001900884
 10
-37.448904824
 20
36.420485424
 10
-37.4000041336
 20
36.3340542548
  0
LWPOLYLINE
  5
2E3
100
AcDbEntity
  8
0
100
AcDbPolyline
 62
7
  6
CONTINUOUS
 90
16
 70
0
 10
37.4
 20
-44.6659437343
 10
37.4356605298
 20
-44.7149760437
 10
37.4731423913
 20
-44.7603138796
 10
37.5124455845
 20
-44.8019516595
 10
37.5537877
 20
-44.8398327151
 10
37.5969511471
 20
-44.8740856548
 10
37.6412831545
 20
-44.9049602005
 10
37.6866952372
 20
-44.9324763406
 10
37.7332758802
 20
-44.9566718399
 10
37.7806377666
 20
-44.977729304
 10
37.8287937205
 20
-44.9956687635
 10
37.8777309179
 20
-45.0104748657
 10
37.9270235694
 20
-45.0222028748
 10
37.9765297451
 20
-45.0308612366
 10
38.0263913749
 20
-45.0364447666
 10
38.0766084587
 20
-45.0389718072
  0
LWPOLYLINE
  5
2E4
100
AcDbEntity
  8
0
100
AcDbPolyline
 62
7
  6
CONTINUOUS
 90
21
 70
0
 10
-1.0309299326
 20
25.079967289
 10
-1.0051890394
 20
24.965046779
 10
-0.968812113
 20
24.8585988885
 10
-0.9213285765
 20
24.7620478863
 10
-0.8632090068
 20
24.6739695036
 10
-0.7967075278
 20
24.5948002758
 10
-0.7213358967
 20
24.523730543
 10
-0.6375823563
 20
24.4615699651
 10
-0.5491657589
 20
24.4111840586
 10
-0.4562858543
 20
24.3735511681
 10
-0.3587428926
 20
24.3476929489
 10
-0.2596564765
 20
24.3335398825
 10
-0.1583610789
 20
24.3309514343
 10
-0.0555222268
 20
24.340068139
 10
0.0437438962
 20
24.3612420816
 10
0.139068227
 20
24.3955317581
 10
0.2308198286
 20
24.4418786726
 10
0.3149897062
 20
24.4974594224
 10
0.3902415282
 20
24.5613328734
 10
0.4579116261
 20
24.6344401597
 10
0.518
 20
24.7167812813
  0
LWPOLYLINE
  5
2E5
100
AcDbEntity
  8
0
100
AcDbPolyline
 62
7
  6
CONTINUOUS
 90
30
 70
0
 10
-3.3033617255
 20
24.1934512066
 10
-3.2774297953
 20
24.0729771208
 10
-3.244867135
 20
23.9588059511
 10
-3.2046347337
 20
23.8532336626
 10
-3.1570119155
 20
23.75750921
 10
-3.1017193563
 20
23.6703836386
 10
-3.0368800731
 20
23.5904060506
 10
-2.9610521161
 20
23.5157690316
 10
-2.8756774351
 20
23.448279996
 10
-2.7832048962
 20
23.391910288
 10
-2.6832483289
 20
23.3475758493
 10
-2.5761939038
 20
23.3143607383
 10
-2.465648998
 20
23.2934884745
 10
-2.3494906785
 20
23.285466357
 10
-2.2298418784
 20
23.2897870867
 10
-2.1166787746
 20
23.3061522859
 10
-2.0129885709
 20
23.3349611577
 10
-1.9157840636
 20
23.3758144991
 10
-1.8260798185
 20
23.4272163232
 10
-1.744079008
 20
23.4884589492
 10
-1.6695784596
 20
23.5602500579
 10
-1.602983222
 20
23.6432167051
 10
-1.5430993698
 20
23.7387047182
 10
-1.4911208283
 20
23.8453682698
 10
-1.451034422
 20
23.9597969331
 10
-1.4238632168
 20
24.0849529435
 10
-1.4085841468
 20
24.2178740656
 10
-1.4061148396
 20
24.346263167
 10
-1.4172833292
 20
24.4672460866
 10
-1.4412615816
 20
24.5836969855
  0
LWPOLYLINE
  5
2E6
100
AcDbEntity
  8
0
100
AcDbPolyline
 62
7
  6
CONTINUOUS
 90
34
 70
0
 10
-1.4541
 20
25.5521562657
 10
-1.4745600344
 20
25.6630939889
 10
-1.5042655582
 20
25.7651204451
 10
-1.5432165715
 20
25.8582356342
 10
-1.5917882098
 20
25.9424597634
 10
-1.6496053375
 20
26.0177726254
 10
-1.7155425479
 20
26.0841135992
 10
-1.7893521248
 20
26.1418972327
 10
-1.8712817843
 20
26.1907089779
 10
-1.9609492678
 20
26.229244569
 10
-2.0598135403
 20
26.2574238799
 10
-2.1664156368
 20
26.2753270367
 10
-2.2759964027
 20
26.2818901523
 10
-2.3903393865
 20
26.2767876572
 10
-2.5076610397
 20
26.2603451208
 10
-2.6178515629
 20
26.2324753645
 10
-2.7172986312
 20
26.1933002819
 10
-2.8096145694
 20
26.1426979795
 10
-2.8955265526
 20
26.0802155981
 10
-2.9759662887
 20
26.0052770707
 10
-3.0500020698
 20
25.9184584644
 10
-3.1155659476
 20
25.8210351212
 10
-3.1718080329
 20
25.7127630606
 10
-3.2195782148
 20
25.5938862632
 10
-3.2593582122
 20
25.4664120123
 10
-3.2908936207
 20
25.328588645
 10
-3.3144388446
 20
25.1821678243
 10
-3.3312388159
 20
25.0344118217
 10
-3.3413202332
 20
24.8855528881
 10
-3.3446563979
 20
24.7353587726
 10
-3.3424121459
 20
24.5903949948
 10
-3.3353258603
 20
24.4524925349
 10
-3.322659158
 20
24.3198204127
 10
-3.3033617255
 20
24.1934512066
  0
LWPOLYLINE
  5
2E7
100
AcDbEntity
  8
0
100
AcDbPolyline
 62
7
  6
CONTINUOUS
 90
34
 70
0
 10
-0.9949
 20
24.0146562657
 10
-0.9755547202
 20
23.9056499759
 10
-0.9474818134
 20
23.8052599086
 10
-0.9106812795
 20
23.7134860638
 10
-0.8649115478
 20
23.6303394474
 10
-0.810414189
 20
23.5558090536
 10
-0.7479139159
 20
23.4898618648
 10
-0.6775156128
 20
23.4320749224
 10
-0.5991143954
 20
23.382871185
 10
-0.513120323
 20
23.3434865118
 10
-0.4184378114
 20
23.3139127811
 10
-0.3161624448
 20
23.2941581146
 10
-0.2099910352
 20
23.2854827365
 10
-0.0979544848
 20
23.2880773315
 10
0.0179781086
 20
23.3017512149
 10
0.1282026399
 20
23.3271925571
 10
0.229924597
 20
23.3647828578
 10
0.325938492
 20
23.4141406172
 10
0.4150237557
 20
23.4748095062
 10
0.4971249836
 20
23.5465855215
 10
0.5722975802
 20
23.6296726663
 10
0.6394871904
 20
23.724226621
 10
0.6986318891
 20
23.8311155598
 10
0.7497936013
 20
23.9494713086
 10
0.7921037478
 20
24.0768450257
 10
0.8245583274
 20
24.2146537436
 10
0.8481613411
 20
24.3614804298
 10
0.8650562123
 20
24.5106251455
 10
0.8754831473
 20
24.6623369933
 10
0.8792019397
 20
24.8163668705
 10
0.8776353941
 20
24.9652675299
 10
0.8720127652
 20
25.1069955821
 10
0.8611047982
 20
25.2435944164
 10
0.8426465335
 20
25.373746954
  0
LINE
  5
2E8
100
AcDbEntity
  8
0
100
AcDbLine
 62
7
  6
CONTINUOUS
 10
7.85
 20
43.8993593917
 11
7.85
 21
43.4490548558
  0
LINE
  5
2E9
100
AcDbEntity
  8
0
100
AcDbLine
 62
7
  6
CONTINUOUS
 10
8.35
 20
44.3890329722
 11
8.35
 21
43.9489787034
  0
LINE
  5
2EA
100
AcDbEntity
  8
0
100
AcDbLine
 62
7
  6
CONTINUOUS
 10
9.45
 20
42.0871316064
 11
9.45
 21
41.6493290045
  0
LWPOLYLINE
  5
2EB
100
AcDbEntity
  8
0
100
AcDbPolyline
 62
7
  6
CONTINUOUS
 90
16
 70
0
 10
50.0
 20
25.2340562657
 10
50.0490323284
 20
25.2697168112
 10
50.0943701787
 20
25.3071986876
 10
50.1360079689
 20
25.3465018949
 10
50.1738890307
 20
25.3878440238
 10
50.2081419733
 20
25.4310074837
 10
50.2390165195
 20
25.4753395024
 10
50.2665326588
 20
25.5207515963
 10
50.2907281553
 20
25.5673322491
 10
50.3117856137
 20
25.6146941402
 10
50.3297250654
 20
25.6628500933
 10
50.3445311587
 20
25.7117872846
 10
50.3562591585
 20
25.7610799226
 10
50.3649175117
 20
25.8105860766
 10
50.3705010353
 20
25.8604476772
 10
50.3730280729
 20
25.9106647244
  0
LWPOLYLINE
  5
2EC
100
AcDbEntity
  8
RACCORDO
100
AcDbPolyline
 62
250
  6
CONTINUOUS
 90
14
 70
0
 10
-14.0
 20
38.3724358193
 10
-13.996357841
 20
38.3668628644
 10
-13.9672498017
 20
38.3557331007
 10
-13.9092506655
 20
38.3446610071
 10
-13.8225404487
 20
38.3336562126
 10
-13.7071454262
 20
38.32272199
 10
-13.5630448641
 20
38.3118686415
 10
-13.3905817419
 20
38.3011318553
 10
-13.1904111479
 20
38.2905524958
 10
-12.9632921481
 20
38.280163812
 10
-12.7095536892
 20
38.2699748163
 10
-12.4292999207
 20
38.2599896202
 10
-12.1227039327
 20
38.2502190595
 10
-11.43428343
 20
38.2314519564
  0
LWPOLYLINE
  5
2ED
100
AcDbEntity
  8
0
100
AcDbPolyline
 62
250
  6
CONTINUOUS
 90
10
 70
0
 10
38.0766021371
 20
-45.0389718072
 10
38.0818660007
 20
-45.0474323554
 10
38.0870010375
 20
-45.0559137384
 10
38.0920072474
 20
-45.0644159561
 10
38.096882527
 20
-45.072939057
 10
38.1016289797
 20
-45.0814829926
 10
38.1062529159
 20
-45.0900476175
 10
38.1107564391
 20
-45.0986328833
 10
38.1151374458
 20
-45.1072388384
 10
38.119395936
 20
-45.1158654828
  0
LWPOLYLINE
  5
2EE
100
AcDbEntity
  8
0
100
AcDbPolyline
 62
7
  6
CONTINUOUS
 90
20
 70
0
 10
-1.4412615816
 20
24.5836969855
 10
-1.4764831216
 20
24.6919412135
 10
-1.5232405987
 20
24.7909900896
 10
-1.5812413636
 20
24.8818322949
 10
-1.6480409931
 20
24.9637592225
 10
-1.7242936704
 20
25.0376413506
 10
-1.8093452124
 20
25.1026082011
 10
-1.8987886473
 20
25.155339732
 10
-1.9916864537
 20
25.1947003222
 10
-2.088976153
 20
25.2218255928
 10
-2.1890633374
 20
25.236802365
 10
-2.2940679746
 20
25.2393616695
 10
-2.401870097
 20
25.2297724755
 10
-2.504515394
 20
25.2089285114
 10
-2.5996741037
 20
25.1770959301
 10
-2.689675988
 20
25.1340085787
 10
-2.7735560223
 20
25.0797617269
 10
-2.8509925316
 20
25.0143871315
 10
-2.9223071908
 20
24.9378530357
 10
-2.9875
 20
24.8501594396
  0
LWPOLYLINE
  5
2EF
100
AcDbEntity
  8
0
100
AcDbPolyline
 62
7
  6
CONTINUOUS
 90
29
 70
0
 10
0.8426465335
 20
25.373746954
 10
0.8168226994
 20
25.4973229545
 10
0.7834485677
 20
25.6144526581
 10
0.7397049945
 20
25.7242097069
 10
0.683976684
 20
25.8273850444
 10
0.617878932
 20
25.9231877269
 10
0.5434384817
 20
26.0083185653
 10
0.4604473051
 20
26.0820201014
 10
0.3691134302
 20
26.1450497933
 10
0.2720876844
 20
26.1963808263
 10
0.1689376341
 20
26.2359817097
 10
0.0600957128
 20
26.2638839342
 10
-0.0504899511
 20
26.2791551568
 10
-0.1643030673
 20
26.281120486
 10
-0.2798599261
 20
26.2704548133
 10
-0.3887612706
 20
26.2482504701
 10
-0.4880351567
 20
26.2147376307
 10
-0.5806535284
 20
26.1696861207
 10
-0.6671329605
 20
26.1134977481
 10
-0.7491218712
 20
26.0452221621
 10
-0.8249718423
 20
25.9658097135
 10
-0.8902541941
 20
25.8785132631
 10
-0.9437141275
 20
25.7843069188
 10
-0.9866064415
 20
25.6822165728
 10
-1.0182668539
 20
25.5725727618
 10
-1.0385561123
 20
25.4517134174
 10
-1.047613469
 20
25.3233006082
 10
-1.0451924
 20
25.1986510764
 10
-1.0309299326
 20
25.079967289
  0
LINE
  5
2F0
100
AcDbEntity
  8
0
100
AcDbLine
 62
7
  6
CONTINUOUS
 10
10.1
 20
42.6160979591
 11
10.1
 21
42.1492528521
  0
LINE
  5
2F1
100
AcDbEntity
  8
0
100
AcDbLine
 62
7
  6
CONTINUOUS
 10
11.35
 20
40.290191574
 11
11.35
 21
39.8496031532
  0
LINE
  5
2F2
100
AcDbEntity
  8
0
100
AcDbLine
 62
7
  6
CONTINUOUS
 10
11.85
 20
40.7761858505
 11
11.85
 21
40.3495270008
  0
LINE
  5
2F3
100
AcDbEntity
  8
0
100
AcDbLine
 62
7
  6
CONTINUOUS
 10
14.0
 20
38.3724358193
 11
14.0
 21
36.9500448373
  0
LINE
  5
2F4
100
AcDbEntity
  8
0
100
AcDbLine
 62
7
  6
CONTINUOUS
 10
-34.4
 20
12.3340562657
 11
-34.6
 21
12.3340562657
  0
LWPOLYLINE
  5
2F5
100
AcDbEntity
  8
RACCORDO
100
AcDbPolyline
 62
250
  6
CONTINUOUS
 90
12
 70
0
 10
-11.85
 20
40.7761858505
 10
-11.8464730111
 20
40.7711404085
 10
-11.8193048304
 20
40.761309956
 10
-11.7655043028
 20
40.751532768
 10
-11.6852455955
 20
40.7418195167
 10
-11.5785714618
 20
40.7321753835
 10
-11.4454874903
 20
40.7226114651
 10
-11.2863351633
 20
40.713160819
 10
-11.101747879
 20
40.7038610614
 10
-10.8924631242
 20
40.6947432149
 10
-10.658820166
 20
40.685816669
 10
-10.1190187678
 20
40.6685624214
  0
LWPOLYLINE
  5
2F6
100
AcDbEntity
  8
0
100
AcDbPolyline
 62
7
  6
CONTINUOUS
 90
12
 70
0
 10
-11.35
 20
39.8496031532
 10
-11.3475107574
 20
39.8454547779
 10
-11.3276033677
 20
39.8371653049
 10
-11.2878235124
 20
39.8288976521
 10
-11.2282409791
 20
39.8206663238
 10
-11.1489602958
 20
39.8124857606
 10
-11.0501205476
 20
39.8043703138
 10
-10.9318951332
 20
39.7963342208
 10
-10.7944914599
 20
39.7883915797
 10
-10.6381505807
 20
39.7805563244
 10
-10.4631467705
 20
39.7728422007
 10
-10.0584106243
 20
39.7578312447
  0
LWPOLYLINE
  5
2F7
100
AcDbEntity
  8
0
100
AcDbPolyline
 62
7
  6
CONTINUOUS
 90
13
 70
0
 10
-14.0
 20
36.9500448373
 10
-13.9901779926
 20
36.9409131977
 10
-13.9607939714
 20
36.9317815581
 10
-13.9119709385
 20
36.9226881437
 10
-13.8436274081
 20
36.9136331146
 10
-13.7558448659
 20
36.9046163107
 10
-13.6489907705
 20
36.8956754764
 10
-13.5229851768
 20
36.8868109301
 10
-13.3779080298
 20
36.8780223533
 10
-13.2143666243
 20
36.8693465353
 10
-13.0322835606
 20
36.8607839486
 10
-12.8317362383
 20
36.8523341205
 10
-12.3776934171
 20
36.8358794746
  0
LWPOLYLINE
  5
2F8
100
AcDbEntity
  8
RACCORDO
100
AcDbPolyline
 62
250
  6
CONTINUOUS
 90
11
 70
0
 10
-10.1
 20
42.6160979591
 10
-10.0966536286
 20
42.6115608199
 10
-10.0710848777
 20
42.6027694227
 10
-10.0202397219
 20
42.5939891565
 10
-9.9441823884
 20
42.5852548778
 10
-9.8432664702
 20
42.576607266
 10
-9.7180201074
 20
42.5680797787
 10
-9.5687083051
 20
42.5596809901
 10
-9.3953886501
 20
42.5514140761
 10
-9.1981314063
 20
42.5432890413
 10
-8.7347369306
 20
42.5275979611
  0
LWPOLYLINE
  5
2F9
100
AcDbEntity
  8
0
100
AcDbPolyline
 62
7
  6
CONTINUOUS
 90
9
 70
0
 10
-8.35
 20
43.9489787034
 10
-8.3477766773
 20
43.9456569079
 10
-8.3305342227
 20
43.9390339007
 10
-8.295942249
 20
43.9324316049
 10
-8.2441078207
 20
43.9258498928
 10
-8.1753521321
 20
43.9193295482
 10
-8.0895701131
 20
43.9128709521
 10
-7.9868668338
 20
43.9064737236
 10
-7.8678786997
 20
43.9001775033
  0
LWPOLYLINE
  5
2FA
100
AcDbEntity
  8
0
100
AcDbPolyline
 62
7
  6
CONTINUOUS
 90
12
 70
0
 10
-9.45
 20
41.6493290045
 10
-9.4475513618
 20
41.6455747786
 10
-9.4279698689
 20
41.638074108
 10
-9.3888474687
 20
41.630596765
 10
-9.3302652484
 20
41.6231582473
 10
-9.2523446286
 20
41.6157739726
 10
-9.1552471117
 20
41.6084592457
 10
-9.039173947
 20
41.6012292277
 10
-8.904365714
 20
41.5940989038
 10
-8.7511018233
 20
41.5870830528
 10
-8.5796999378
 20
41.5801962159
 10
-8.1839400658
 20
41.5668663841
  0
LWPOLYLINE
  5
2FB
100
AcDbEntity
  8
0
100
AcDbPolyline
 62
7
  6
CONTINUOUS
 90
5
 70
0
 10
50.2622676169
 20
25.438532967
 10
50.237883404
 20
25.4108553434
 10
50.1661338227
 20
25.3421970949
 10
50.0864291583
 20
25.2829610897
 10
49.9999979891
 20
25.2340603993
  0
LINE
  5
2FC
100
AcDbEntity
  8
0
100
AcDbLine
 62
250
  6
CONTINUOUS
 10
50.4678629402
 20
19.7340562657
 11
50.0
 21
19.7340562723
  0
LINE
  5
2FD
100
AcDbEntity
  8
0
100
AcDbLine
 62
7
  6
CONTINUOUS
 10
-24.5
 20
22.2340562657
 11
24.5
 21
22.2340562657
  0
LINE
  5
2FE
100
AcDbEntity
  8
0
100
AcDbLine
 62
7
  6
CONTINUOUS
 10
24.5
 20
22.4340562657
 11
-24.5
 21
22.4340562657
  0
LWPOLYLINE
  5
2FF
100
AcDbEntity
  8
0
100
AcDbPolyline
 62
7
  6
CONTINUOUS
 90
8
 70
0
 10
-11.85
 20
40.3495270008
 10
-11.8403533544
 20
40.3412040997
 10
-11.811506744
 20
40.3328811985
 10
-11.7636001581
 20
40.3245986875
 10
-11.6965409508
 20
40.3163567628
 10
-11.6104217681
 20
40.3081552283
 10
-11.5056605365
 20
40.3000338851
 10
-11.3821666418
 20
40.2919931228
  0
LWPOLYLINE
  5
300
100
AcDbEntity
  8
RACCORDO
100
AcDbPolyline
 62
250
  6
CONTINUOUS
 90
11
 70
0
 10
-8.35
 20
44.3890329722
 10
-8.3470131209
 20
44.3851354953
 10
-8.3238278659
 20
44.3775039482
 10
-8.2776107565
 20
44.3698856846
 10
-8.2084342269
 20
44.362312503
 10
-8.116632992
 20
44.3548210524
 10
-8.0027045495
 20
44.3474419439
 10
-7.8669199024
 20
44.3401847148
 10
-7.7093695919
 20
44.333054204
 10
-7.5301575434
 20
44.3260609096
 10
-7.1096165921
 20
44.3126084665
  0
LINE
  5
301
100
AcDbEntity
  8
0
100
AcDbLine
 62
7
  6
CONTINUOUS
 10
24.5
 20
22.2340562657
 11
24.5
 21
22.4340562657
  0
LINE
  5
302
100
AcDbEntity
  8
0
100
AcDbLine
 62
7
  6
CONTINUOUS
 10
-0.6505
 20
24.0433562657
 11
-0.9949
 21
24.0146562657
  0
LINE
  5
303
100
AcDbEntity
  8
0
100
AcDbLine
 62
7
  6
CONTINUOUS
 10
-1.8108
 20
25.5234562657
 11
-1.4541
 21
25.5521562657
  0
LINE
  5
304
100
AcDbEntity
  8
0
100
AcDbLine
 62
250
  6
CONTINUOUS
 10
50.4678629402
 20
24.9340562657
 11
50.0
 21
24.9340562657
  0
LWPOLYLINE
  5
305
100
AcDbEntity
  8
0
100
AcDbPolyline
 62
7
  6
CONTINUOUS
 90
9
 70
0
 10
-10.1
 20
42.1492528521
 10
-10.0903444761
 20
42.141569018
 10
-10.0614874188
 20
42.1338851839
 10
-10.0135930999
 20
42.1262450909
 10
-9.9465529418
 20
42.1186489883
 10
-9.8604755222
 20
42.1110966268
 10
-9.7558508455
 20
42.1036309989
 10
-9.632573129
 20
42.0962525993
 10
-9.4907481555
 20
42.0889609332
  0
LWPOLYLINE
  5
306
100
AcDbEntity
  8
0
100
AcDbPolyline
 62
7
  6
CONTINUOUS
 90
10
 70
0
 10
-4.1
 20
45.7487045546
 10
-4.098380347
 20
45.7467289336
 10
-4.0859964213
 20
45.7427956006
 10
-4.0611159696
 20
45.7388803394
 10
-4.0238515922
 20
45.7349829872
 10
-3.9745410904
 20
45.7311388734
 10
-3.9130749351
 20
45.7273484822
 10
-3.8395626554
 20
45.7236113293
 10
-3.7546706393
 20
45.7199612922
 10
-3.658295417
 20
45.7163991629
  0
LINE
  5
307
100
AcDbEntity
  8
0
100
AcDbLine
 62
250
  6
CONTINUOUS
 10
31.9
 20
-45.1338066745
 11
31.9000000066
 21
-44.6659437343
  0
LINE
  5
308
100
AcDbEntity
  8
DRAFT
100
AcDbLine
 62
7
  6
CONTINUOUS
 10
45.0
 20
29.5582662398
 11
49.2731956082
 21
29.5582662398
  0
LINE
  5
309
100
AcDbEntity
  8
DRAFT
100
AcDbLine
 62
7
  6
CONTINUOUS
 10
-45.0
 20
29.5582662398
 11
-49.2731956082
 21
29.5582662398
  0
LINE
  5
30A
100
AcDbEntity
  8
DRAFT
100
AcDbLine
 62
7
  6
CONTINUOUS
 10
45.0
 20
29.8340562657
 11
49.0
 21
29.8340562657
  0
LINE
  5
30B
100
AcDbEntity
  8
DRAFT
100
AcDbLine
 62
7
  6
CONTINUOUS
 10
-45.0
 20
29.8340562657
 11
-49.0
 21
29.8340562657
  0
LINE
  5
30C
100
AcDbEntity
  8
DRAFT
100
AcDbLine
 62
250
  6
CONTINUOUS
 10
-43.5
 20
31.3340562657
 11
-43.2242099741
 21
31.3340562657
  0
LINE
  5
30D
100
AcDbEntity
  8
DRAFT
100
AcDbLine
 62
250
  6
CONTINUOUS
 10
43.5
 20
31.3340562657
 11
43.2242099741
 21
31.3340562657
  0
LINE
  5
30E
100
AcDbEntity
  8
RACCORDO
100
AcDbLine
 62
250
  6
CONTINUOUS
 10
-49.0
 20
31.3340562657
 11
-51.0
 21
31.3340562657
  0
LINE
  5
30F
100
AcDbEntity
  8
RACCORDO
100
AcDbLine
 62
250
  6
CONTINUOUS
 10
49.0
 20
31.3340562657
 11
51.0
 21
31.3340562657
  0
LWPOLYLINE
  5
310
100
AcDbEntity
  8
0
100
AcDbPolyline
 62
7
  6
CONTINUOUS
 90
11
 70
0
 10
-7.85
 20
43.4490548558
 10
-7.8411086126
 20
43.4425360672
 10
-7.8144545922
 20
43.4360320457
 10
-7.7700983188
 20
43.4295575251
 10
-7.7081402735
 20
43.4231271722
 10
-7.6287208113
 20
43.4167555538
 10
-7.5320198429
 20
43.4104571037
 10
-7.4182564269
 20
43.40424609
 10
-7.2876882742
 20
43.3981365826
 10
-7.1406111635
 20
43.3921424214
 10
-6.7982994197
 20
43.3805541605
  0
LWPOLYLINE
  5
311
100
AcDbEntity
  8
RACCORDO
100
AcDbPolyline
 62
250
  6
CONTINUOUS
 90
10
 70
0
 10
-4.1
 20
46.0878123061
 10
-4.0975463148
 20
46.085337128
 10
-4.0808828735
 20
46.0809104369
 10
-4.0486473036
 20
46.0765226755
 10
-4.0010060243
 20
46.0721833778
 10
-3.9380294019
 20
46.067898778
 10
-3.8597739195
 20
46.0636790598
 10
-3.7665740779
 20
46.059547385
 10
-3.6589951647
 20
46.0555288751
 10
-3.4029938098
 20
46.0479014638
  0
LINE
  5
312
100
AcDbEntity
  8
0
100
AcDbLine
 62
250
  6
CONTINUOUS
 10
37.1
 20
-45.1338066745
 11
37.1
 21
-44.6659437343
  0
LWPOLYLINE
  5
313
100
AcDbEntity
  8
0
100
AcDbPolyline
 62
7
  6
CONTINUOUS
 90
17
 70
0
 10
-11.5
 20
-45.2819323059
 10
-11.4751333499
 20
-45.2688248594
 10
-11.4011624165
 20
-45.255717413
 10
-11.2790307246
 20
-45.2427771566
 10
-11.1081213441
 20
-45.2300062319
 10
-10.8890512052
 20
-45.2174024973
 10
-10.6246146239
 20
-45.2051267177
 10
-10.3142304645
 20
-45.1931830943
 10
-9.9584798627
 20
-45.1815674259
 10
-9.5619005415
 20
-45.1704278745
 10
-9.1239694925
 20
-45.1597705391
 10
-8.6452097239
 20
-45.1495893206
 10
-8.1317279836
 20
-45.1400140841
 10
-7.5830794896
 20
-45.131052592
 10
-6.9997090237
 20
-45.122697082
 10
-6.3890576797
 20
-45.1150541313
 10
-5.7507759946
 20
-45.1081328678
  0
LINE
  5
314
100
AcDbEntity
  8
0
100
AcDbLine
 62
7
  6
CONTINUOUS
 10
13.0322835606
 20
36.8607839486
 11
12.6135641506
 21
36.8440324222
  0
LINE
  5
315
100
AcDbEntity
  8
0
100
AcDbLine
 62
7
  6
CONTINUOUS
 10
12.6135641506
 20
36.8440324222
 11
12.1241979183
 21
36.8278746567
  0
LINE
  5
316
100
AcDbEntity
  8
0
100
AcDbLine
 62
7
  6
CONTINUOUS
 10
12.1241979183
 20
36.8278746567
 11
11.5674465973
 21
36.8124106962
  0
LINE
  5
317
100
AcDbEntity
  8
0
100
AcDbLine
 62
7
  6
CONTINUOUS
 10
11.5674465973
 20
36.8124106962
 11
10.9456407546
 21
36.7977052732
  0
LINE
  5
318
100
AcDbEntity
  8
0
100
AcDbLine
 62
7
  6
CONTINUOUS
 10
10.9456407546
 20
36.7977052732
 11
10.262529897
 21
36.783853083
  0
LINE
  5
319
100
AcDbEntity
  8
0
100
AcDbLine
 62
250
  6
CONTINUOUS
 10
-37.9012662548
 20
36.7951275566
 11
-37.7957117065
 21
36.7971305222
  0
LINE
  5
31A
100
AcDbEntity
  8
0
100
AcDbLine
 62
7
  6
CONTINUOUS
 10
10.262529897
 20
36.783853083
 11
9.5225695601
 21
36.7709389944
  0
LINE
  5
31B
100
AcDbEntity
  8
0
100
AcDbLine
 62
7
  6
CONTINUOUS
 10
9.5225695601
 20
36.7709389944
 11
8.728857226
 21
36.7590170661
  0
LINE
  5
31C
100
AcDbEntity
  8
0
100
AcDbLine
 62
7
  6
CONTINUOUS
 10
8.728857226
 20
36.7590170661
 11
7.886255774
 21
36.7481650578
  0
LINE
  5
31D
100
AcDbEntity
  8
0
100
AcDbLine
 62
250
  6
CONTINUOUS
 10
-37.7957117065
 20
36.7971305222
 11
-37.6083194091
 21
36.7995476512
  0
LINE
  5
31E
100
AcDbEntity
  8
0
100
AcDbLine
 62
7
  6
CONTINUOUS
 10
7.886255774
 20
36.7481650578
 11
7.0001911224
 21
36.7384484075
  0
LINE
  5
31F
100
AcDbEntity
  8
0
100
AcDbLine
 62
7
  6
CONTINUOUS
 10
7.0001911224
 20
36.7384484075
 11
6.0743723476
 21
36.7299077891
  0
LINE
  5
320
100
AcDbEntity
  8
0
100
AcDbLine
 62
7
  6
CONTINUOUS
 10
6.0743723476
 20
36.7299077891
 11
5.1145318564
 21
36.7226001278
  0
LINE
  5
321
100
AcDbEntity
  8
0
100
AcDbLine
 62
250
  6
CONTINUOUS
 10
-37.6083194091
 20
36.7995476512
 11
-37.3965924537
 21
36.8011474403
  0
LINE
  5
322
100
AcDbEntity
  8
0
100
AcDbLine
 62
7
  6
CONTINUOUS
 10
5.1145318564
 20
36.7226001278
 11
4.1267938716
 21
36.7165681491
  0
LINE
  5
323
100
AcDbEntity
  8
0
100
AcDbLine
 62
7
  6
CONTINUOUS
 10
4.1267938716
 20
36.7165681491
 11
3.1152930754
 21
36.7118371029
  0
LINE
  5
324
100
AcDbEntity
  8
0
100
AcDbLine
 62
7
  6
CONTINUOUS
 10
3.1152930754
 20
36.7118371029
 11
2.086343955
 21
36.7084402252
  0
LINE
  5
325
100
AcDbEntity
  8
0
100
AcDbLine
 62
7
  6
CONTINUOUS
 10
2.086343955
 20
36.7084402252
 11
1.0471920276
 21
36.7063961023
  0
LINE
  5
326
100
AcDbEntity
  8
0
100
AcDbLine
 62
250
  6
CONTINUOUS
 10
-37.3965924537
 20
36.8011474403
 11
-37.1
 21
36.8019192059
  0
LINE
  5
327
100
AcDbEntity
  8
0
100
AcDbLine
 62
7
  6
CONTINUOUS
 10
1.0471920276
 20
36.7063961023
 11
-0.0
 21
36.7057111472
  0
LINE
  5
328
100
AcDbEntity
  8
DRAFT
100
AcDbLine
 62
7
  6
CONTINUOUS
 10
-45.0
 20
35.3340562657
 11
-43.5
 21
35.3340562657
  0
LINE
  5
329
100
AcDbEntity
  8
DRAFT
100
AcDbLine
 62
7
  6
CONTINUOUS
 10
45.0
 20
35.3340562657
 11
43.5
 21
35.3340562657
  0
LINE
  5
32A
100
AcDbEntity
  8
RACCORDO
100
AcDbLine
 62
250
  6
CONTINUOUS
 10
43.2242099741
 20
35.6072518739
 11
-43.2242099741
 21
35.6072518739
  0
LINE
  5
32B
100
AcDbEntity
  8
RACCORDO
100
AcDbLine
 62
7
  6
CONTINUOUS
 10
-45.0
 20
35.6098462382
 11
-43.2242100275
 21
35.6098462382
  0
LINE
  5
32C
100
AcDbEntity
  8
RACCORDO
100
AcDbLine
 62
7
  6
CONTINUOUS
 10
45.0
 20
35.6098462382
 11
43.2242100275
 21
35.6098462382
  0
LINE
  5
32D
100
AcDbEntity
  8
0
100
AcDbLine
 62
7
  6
CONTINUOUS
 10
-31.6
 20
36.3340562657
 11
-37.4
 21
36.3340562657
  0
LINE
  5
32E
100
AcDbEntity
  8
0
100
AcDbLine
 62
250
  6
CONTINUOUS
 10
45.0
 20
36.7070843386
 11
1.4678073572
 21
36.7070843386
  0
LINE
  5
32F
100
AcDbEntity
  8
0
100
AcDbLine
 62
250
  6
CONTINUOUS
 10
-1.5675026654
 20
36.7072474661
 11
-30.9233978585
 21
36.7070843386
  0
LINE
  5
330
100
AcDbEntity
  8
0
100
AcDbLine
 62
250
  6
CONTINUOUS
 10
-38.0766021371
 20
36.7070843386
 11
-45.0
 21
36.7070843386
  0
LINE
  5
331
100
AcDbEntity
  8
ASSI
100
AcDbLine
 62
7
  6
CONTINUOUS
 10
-45.0
 20
37.3340562657
 11
-14.0
 21
37.3340562657
  0
LINE
  5
332
100
AcDbEntity
  8
DRAFT
100
AcDbLine
 62
7
  6
CONTINUOUS
 10
45.0
 20
37.3340562657
 11
14.0
 21
37.3340562657
  0
LINE
  5
333
100
AcDbEntity
  8
ASSI
100
AcDbLine
 62
7
  6
CONTINUOUS
 10
14.0
 20
37.3340562657
 11
45.0
 21
37.3340562657
  0
LINE
  5
334
100
AcDbEntity
  8
DRAFT
100
AcDbLine
 62
7
  6
CONTINUOUS
 10
-14.0
 20
37.3340562657
 11
-45.0
 21
37.3340562657
  0
LINE
  5
335
100
AcDbEntity
  8
0
100
AcDbLine
 62
7
  6
CONTINUOUS
 10
-1.5675026654
 20
36.7072474661
 11
-0.0
 21
36.7057111472
  0
LINE
  5
336
100
AcDbEntity
  8
0
100
AcDbLine
 62
250
  6
CONTINUOUS
 10
-37.1
 20
36.8019192059
 11
-31.6768993984
 21
36.8014878746
  0
LINE
  5
337
100
AcDbEntity
  8
0
100
AcDbLine
 62
7
  6
CONTINUOUS
 10
-3.1152930754
 20
36.7118371029
 11
-1.5675026654
 21
36.7072474661
  0
LINE
  5
338
100
AcDbEntity
  8
0
100
AcDbLine
 62
7
  6
CONTINUOUS
 10
-4.6239068674
 20
36.7194223401
 11
-3.1152930754
 21
36.7118371029
  0
LINE
  5
339
100
AcDbEntity
  8
0
100
AcDbLine
 62
250
  6
CONTINUOUS
 10
-31.6768993984
 20
36.8014878746
 11
-31.4600264328
 21
36.800177051
  0
LINE
  5
33A
100
AcDbEntity
  8
0
100
AcDbLine
 62
7
  6
CONTINUOUS
 10
-6.0743723476
 20
36.7299077891
 11
-4.6239068674
 21
36.7194223401
  0
LINE
  5
33B
100
AcDbEntity
  8
0
100
AcDbLine
 62
7
  6
CONTINUOUS
 10
-7.4484490712
 20
36.7431615892
 11
-6.0743723476
 21
36.7299077891
  0
LINE
  5
33C
100
AcDbEntity
  8
0
100
AcDbLine
 62
250
  6
CONTINUOUS
 10
-31.4600264328
 20
36.800177051
 11
-31.2630502004
 21
36.79801921
  0
LINE
  5
33D
100
AcDbEntity
  8
0
100
AcDbLine
 62
7
  6
CONTINUOUS
 10
-8.728857226
 20
36.7590170661
 11
-7.4484490712
 21
36.7431615892
  0
LINE
  5
33E
100
AcDbEntity
  8
0
100
AcDbLine
 62
7
  6
CONTINUOUS
 10
-9.8994949366
 20
36.7772748281
 11
-8.728857226
 21
36.7590170661
  0
LINE
  5
33F
100
AcDbEntity
  8
0
100
AcDbLine
 62
250
  6
CONTINUOUS
 10
-31.2630502004
 20
36.79801921
 11
-31.1491640554
 21
36.7961604441
  0
LINE
  5
340
100
AcDbEntity
  8
0
100
AcDbLine
 62
7
  6
CONTINUOUS
 10
-10.6117324248
 20
36.7906727471
 11
-9.8994949366
 21
36.7772748281
  0
LWPOLYLINE
  5
341
100
AcDbEntity
  8
0
100
AcDbPolyline
 62
250
  6
CONTINUOUS
 90
10
 70
0
 10
-31.1491640554
 20
36.7961604441
 10
-31.0531325487
 20
36.7940301668
 10
-31.0122294961
 20
36.7928700356
 10
-30.9767374976
 20
36.7916720534
 10
-30.9468276152
 20
36.7904356371
 10
-30.922328787
 20
36.7891613698
 10
-30.9034373809
 20
36.7878758173
 10
-30.8902188531
 20
36.7865878348
 10
-30.8826077474
 20
36.7852885671
 10
-30.880604064
 20
36.7839780141
  0
LINE
  5
342
100
AcDbEntity
  8
0
100
AcDbLine
 62
7
  6
CONTINUOUS
 10
-11.8541387892
 20
36.8200514768
 11
-10.6117324248
 21
36.7906727471
  0
LINE
  5
343
100
AcDbEntity
  8
0
100
AcDbLine
 62
7
  6
CONTINUOUS
 10
-12.3776934171
 20
36.8358794746
 11
-11.8541387892
 21
36.8200514768
  0
LWPOLYLINE
  5
344
100
AcDbEntity
  8
0
100
AcDbPolyline
 62
250
  6
CONTINUOUS
 90
7
 70
0
 10
-38.1193959356
 20
36.7839894422
 10
-38.0202668465
 20
36.7778371171
 10
-37.9226660227
 20
36.7594500213
 10
-37.8280978962
 20
36.7291115758
 10
-37.7380201527
 20
36.6872894215
 10
-37.6538212623
 20
36.6346282106
 10
-37.6044767013
 20
36.5963238825
  0
LWPOLYLINE
  5
345
100
AcDbEntity
  8
0
100
AcDbPolyline
 62
7
  6
CONTINUOUS
 90
10
 70
0
 10
-3.6
 20
45.2487807071
 10
-3.5938615534
 20
45.2451317351
 10
-3.5755693092
 20
45.2414827631
 10
-3.5453079108
 20
45.2378706242
 10
-3.5029561329
 20
45.2342956914
 10
-3.4486352008
 20
45.2307575916
 10
-3.3828934348
 20
45.2272920387
 10
-3.3056151629
 20
45.2238997675
 10
-3.216916057
 20
45.2205800432
 10
-3.0078347488
 20
45.2142598384
  0
LWPOLYLINE
  5
346
100
AcDbEntity
  8
0
100
AcDbPolyline
 62
7
  6
CONTINUOUS
 90
17
 70
0
 10
50.6160501144
 20
-15.6659431937
 10
50.6028811251
 20
-15.6410770843
 10
50.5897736787
 20
-15.5671061508
 10
50.5768334223
 20
-15.4449744589
 10
50.5640624976
 20
-15.2740650784
 10
50.551458763
 20
-15.0549949395
 10
50.5391829834
 20
-14.7905583582
 10
50.52723936
 20
-14.4801741988
 10
50.5156236916
 20
-14.124423597
 10
50.5044841402
 20
-13.7278442758
 10
50.4938268048
 20
-13.2899132268
 10
50.4836455863
 20
-12.8111534583
 10
50.4740703498
 20
-12.297671718
 10
50.4651088577
 20
-11.7490232239
 10
50.4567533477
 20
-11.1656527581
 10
50.449110397
 20
-10.555001414
 10
50.4421891335
 20
-9.9167197289
  0
LINE
  5
347
100
AcDbEntity
  8
0
100
AcDbLine
 62
7
  6
CONTINUOUS
 10
-11.3516115151
 20
39.8556311296
 11
-13.2306563404
 21
39.3532885536
  0
LWPOLYLINE
  5
348
100
AcDbEntity
  8
0
100
AcDbPolyline
 62
250
  6
CONTINUOUS
 90
7
 70
0
 10
-30.8806040641
 20
36.7839779813
 10
-30.9797329699
 20
36.7778278217
 10
-31.0773338562
 20
36.7594427598
 10
-31.1719022564
 20
36.7291061915
 10
-31.2619804478
 20
36.687285739
 10
-31.346179922
 20
36.6346260427
 10
-31.408874807
 20
36.584844399
  0
LWPOLYLINE
  5
349
100
AcDbEntity
  8
0
100
AcDbPolyline
 62
7
  6
CONTINUOUS
 90
4
 70
0
 10
11.3821666418
 20
40.2919931228
 10
11.2400306983
 20
40.2840325518
 10
11.0799424758
 20
40.2761908037
 10
10.9018147128
 20
40.2684684563
  0
LWPOLYLINE
  5
34A
100
AcDbEntity
  8
0
100
AcDbPolyline
 62
7
  6
CONTINUOUS
 90
16
 70
0
 10
-30.9233915413
 20
36.7070843386
 10
-30.9736587743
 20
36.7045532398
 10
-31.0235603111
 20
36.6989609141
 10
-31.0730961515
 20
36.6902907823
 10
-31.1224070462
 20
36.6785500785
 10
-31.1713522445
 20
36.6637319825
 10
-31.2195094946
 20
36.6457818135
 10
-31.2668659597
 20
36.6247160401
 10
-31.3134344766
 20
36.6005158639
 10
-31.358831304
 20
36.5729984664
 10
-31.4031447988
 20
36.5421269227
 10
-31.4462866042
 20
36.5078818257
 10
-31.4876079082
 20
36.4700119506
 10
-31.5268924401
 20
36.4283880717
 10
-31.5643564708
 20
36.383067628
 10
-31.6
 20
36.3340562657
  0
LINE
  5
34B
100
AcDbEntity
  8
0
100
AcDbLine
 62
7
  6
CONTINUOUS
 10
9.4907481555
 20
42.0889609332
 11
9.3311832784
 21
42.0817975094
  0
LWPOLYLINE
  5
34C
100
AcDbEntity
  8
RACCORDO
100
AcDbPolyline
 62
250
  6
CONTINUOUS
 90
10
 70
0
 10
9.2047877118
 20
42.5435457161
 10
9.4012943911
 20
42.5516759674
 10
9.5738572425
 20
42.5599476864
 10
9.7224022957
 20
42.5683507352
 10
9.8468688278
 20
42.5768817609
 10
9.9469921523
 20
42.5855320883
 10
10.0222490995
 20
42.5942683335
 10
10.0722906698
 20
42.6030498992
 10
10.0970555488
 20
42.6118419598
 10
10.1
 20
42.6160979591
  0
LWPOLYLINE
  5
34D
100
AcDbEntity
  8
RACCORDO
100
AcDbPolyline
 62
250
  6
CONTINUOUS
 90
11
 70
0
 10
10.6648530882
 20
40.6860337253
 10
10.8978970479
 20
40.6949649318
 10
11.1065705722
 20
40.7040869415
 10
11.2905347372
 20
40.7133903433
 10
11.4490544915
 20
40.722844115
 10
11.5814991791
 20
40.7324106478
 10
11.6875294499
 20
40.7420568883
 10
11.7671401408
 20
40.751771731
 10
11.8202886307
 20
40.7615499845
 10
11.846801364
 20
40.77138097
 10
11.85
 20
40.7761858505
  0
LWPOLYLINE
  5
34E
100
AcDbEntity
  8
RACCORDO
100
AcDbPolyline
 62
250
  6
CONTINUOUS
 90
12
 70
0
 10
10.4647369492
 20
40.9774589708
 10
10.6934080422
 20
40.9862225948
 10
10.8981659957
 20
40.9951734396
 10
11.0786782574
 20
41.0043022675
 10
11.2342235575
 20
41.0135786418
 10
11.3641830592
 20
41.0229656631
 10
11.4682237718
 20
41.0324309004
 10
11.5463406365
 20
41.0419634543
 10
11.5984918407
 20
41.0515582288
 10
11.624507089
 20
41.0612047445
 10
11.6241849013
 20
41.0708702338
 10
11.6029478508
 20
41.0791389677
  0
LWPOLYLINE
  5
34F
100
AcDbEntity
  8
RACCORDO
100
AcDbPolyline
 62
250
  6
CONTINUOUS
 90
13
 70
0
 10
11.771156282
 20
39.231717435
 10
12.0365812922
 20
39.2411738289
 10
12.2768967653
 20
39.2508232986
 10
12.4920019656
 20
39.2606618697
 10
12.6815847278
 20
39.2706809589
 10
12.8449273525
 20
39.2808491235
 10
12.9814102383
 20
39.2911277214
 10
13.0907085205
 20
39.3014829855
 10
13.1728411475
 20
39.3119051309
 10
13.2277828506
 20
39.3223910285
 10
13.2553630748
 20
39.332931549
 10
13.255369705
 20
39.3434924455
 10
13.2306563448
 20
39.3532885524
  0
LINE
  5
350
100
AcDbEntity
  8
0
100
AcDbLine
 62
7
  6
CONTINUOUS
 10
9.3311832784
 20
42.0817975094
 11
8.9586314566
 21
42.0678568511
  0
LINE
  5
351
100
AcDbEntity
  8
0
100
AcDbLine
 62
7
  6
CONTINUOUS
 10
10.4631467705
 20
39.7728422007
 11
10.0584106243
 21
39.7578312447
  0
LINE
  5
352
100
AcDbEntity
  8
0
100
AcDbLine
 62
7
  6
CONTINUOUS
 10
10.9018147128
 20
40.2684684563
 11
10.492653904
 21
40.2534171293
  0
LINE
  5
353
100
AcDbEntity
  8
RACCORDO
100
AcDbLine
 62
250
  6
CONTINUOUS
 10
8.7428512083
 20
42.5278423438
 11
9.2047877118
 21
42.5435457161
  0
LWPOLYLINE
  5
354
100
AcDbEntity
  8
RACCORDO
100
AcDbPolyline
 62
250
  6
CONTINUOUS
 90
13
 70
0
 10
12.1225753081
 20
38.2502151739
 10
12.4291754424
 20
38.2599854296
 10
12.7094379726
 20
38.2699704447
 10
12.9631873246
 20
38.2801593269
 10
13.1903171206
 20
38.2905478828
 10
13.3904977378
 20
38.3011270507
 10
13.5629713631
 20
38.3118636286
 10
13.7070837674
 20
38.3227168121
 10
13.8224919306
 20
38.3336509456
 10
13.909215856
 20
38.3446556981
 10
13.967228857
 20
38.355727767
 10
13.996350842
 20
38.3668575131
 10
14.0
 20
38.3724358193
  0
LINE
  5
355
100
AcDbEntity
  8
0
100
AcDbLine
 62
7
  6
CONTINUOUS
 10
8.5796999378
 20
41.5801962159
 11
8.1839400658
 21
41.5668663841
  0
LINE
  5
356
100
AcDbEntity
  8
RACCORDO
100
AcDbLine
 62
250
  6
CONTINUOUS
 10
10.1262145657
 20
40.6687687658
 11
10.6648530882
 21
40.6860337253
  0
LINE
  5
357
100
AcDbEntity
  8
RACCORDO
100
AcDbLine
 62
250
  6
CONTINUOUS
 10
9.9362054581
 20
40.9605179799
 11
10.4647369492
 21
40.9774589708
  0
LINE
  5
358
100
AcDbEntity
  8
0
100
AcDbLine
 62
7
  6
CONTINUOUS
 10
10.0584106243
 20
39.7578312447
 11
9.5831219544
 21
39.7434640027
  0
LINE
  5
359
100
AcDbEntity
  8
0
100
AcDbLine
 62
7
  6
CONTINUOUS
 10
10.492653904
 20
40.2534171293
 11
10.0153249243
 21
40.2389902044
  0
LINE
  5
35A
100
AcDbEntity
  8
RACCORDO
100
AcDbLine
 62
250
  6
CONTINUOUS
 10
11.1662929118
 20
39.2134448676
 11
11.771156282
 21
39.231717435
  0
LINE
  5
35B
100
AcDbEntity
  8
0
100
AcDbLine
 62
7
  6
CONTINUOUS
 10
8.9586314566
 20
42.0678568511
 11
8.5183578418
 21
42.0545480601
  0
LINE
  5
35C
100
AcDbEntity
  8
RACCORDO
100
AcDbLine
 62
250
  6
CONTINUOUS
 10
11.4341531213
 20
38.231448738
 11
12.1225753081
 21
38.2502151739
  0
LINE
  5
35D
100
AcDbEntity
  8
0
100
AcDbLine
 62
7
  6
CONTINUOUS
 10
8.1839400658
 20
41.5668663841
 11
7.7203654889
 21
41.5542198635
  0
LINE
  5
35E
100
AcDbEntity
  8
RACCORDO
100
AcDbLine
 62
250
  6
CONTINUOUS
 10
8.1951524033
 20
42.5130703934
 11
8.7428512083
 21
42.5278423438
  0
LINE
  5
35F
100
AcDbEntity
  8
RACCORDO
100
AcDbLine
 62
250
  6
CONTINUOUS
 10
9.4951200261
 20
40.6524518654
 11
10.1262145657
 21
40.6687687658
  0
LINE
  5
360
100
AcDbEntity
  8
RACCORDO
100
AcDbLine
 62
250
  6
CONTINUOUS
 10
9.3169527716
 20
40.9445072695
 11
9.9362054581
 21
40.9605179799
  0
LINE
  5
361
100
AcDbEntity
  8
0
100
AcDbLine
 62
7
  6
CONTINUOUS
 10
10.0153249243
 20
40.2389902044
 11
9.4735146301
 21
40.2252909776
  0
LINE
  5
362
100
AcDbEntity
  8
0
100
AcDbLine
 62
250
  6
CONTINUOUS
 10
-37.9877724809
 20
36.7928699774
 11
-37.9012662548
 21
36.7951275566
  0
LINE
  5
363
100
AcDbEntity
  8
0
100
AcDbLine
 62
7
  6
CONTINUOUS
 10
9.5831219544
 20
39.7434640027
 11
9.0406145696
 21
39.7298412506
  0
LINE
  5
364
100
AcDbEntity
  8
0
100
AcDbLine
 62
7
  6
CONTINUOUS
 10
8.5183578418
 20
42.0545480601
 11
8.0128687369
 21
42.0419468981
  0
LINE
  5
365
100
AcDbEntity
  8
RACCORDO
100
AcDbLine
 62
250
  6
CONTINUOUS
 10
10.4694677519
 20
39.1962303142
 11
11.1662929118
 21
39.2134448676
  0
LINE
  5
366
100
AcDbEntity
  8
RACCORDO
100
AcDbLine
 62
250
  6
CONTINUOUS
 10
10.652699554
 20
38.2138972617
 11
11.4341531213
 21
38.231448738
  0
LINE
  5
367
100
AcDbEntity
  8
0
100
AcDbLine
 62
7
  6
CONTINUOUS
 10
7.7203654889
 20
41.5542198635
 11
7.1928175323
 21
41.5423614472
  0
LINE
  5
368
100
AcDbEntity
  8
0
100
AcDbLine
 62
7
  6
CONTINUOUS
 10
9.4735146301
 20
40.2252909776
 11
8.8698523658
 21
40.2123859299
  0
LINE
  5
369
100
AcDbEntity
  8
0
100
AcDbLine
 62
7
  6
CONTINUOUS
 10
9.0406145696
 20
39.7298412506
 11
8.4346937692
 21
39.7170585422
  0
LINE
  5
36A
100
AcDbEntity
  8
RACCORDO
100
AcDbLine
 62
250
  6
CONTINUOUS
 10
8.7801548685
 20
40.6372978293
 11
9.4951200261
 21
40.6524518654
  0
LINE
  5
36B
100
AcDbEntity
  8
RACCORDO
100
AcDbLine
 62
250
  6
CONTINUOUS
 10
8.6154032894
 20
40.9296375825
 11
9.3169527716
 21
40.9445072695
  0
LINE
  5
36C
100
AcDbEntity
  8
0
100
AcDbLine
 62
7
  6
CONTINUOUS
 10
8.0128687369
 20
42.0419468981
 11
7.4462714621
 21
42.0301640784
  0
LINE
  5
36D
100
AcDbEntity
  8
RACCORDO
100
AcDbLine
 62
250
  6
CONTINUOUS
 10
9.6868413266
 20
39.1802134939
 11
10.4694677519
 21
39.1962303142
  0
LINE
  5
36E
100
AcDbEntity
  8
RACCORDO
100
AcDbLine
 62
250
  6
CONTINUOUS
 10
9.7820795021
 20
38.1976406519
 11
10.652699554
 21
38.2138972617
  0
LINE
  5
36F
100
AcDbEntity
  8
0
100
AcDbLine
 62
7
  6
CONTINUOUS
 10
7.1928175323
 20
41.5423614472
 11
6.6056676242
 21
41.5313893978
  0
LINE
  5
370
100
AcDbEntity
  8
0
100
AcDbLine
 62
7
  6
CONTINUOUS
 10
8.8698523658
 20
40.2123859299
 11
8.2085648699
 21
40.2003718538
  0
LINE
  5
371
100
AcDbEntity
  8
0
100
AcDbLine
 62
7
  6
CONTINUOUS
 10
8.4346937692
 20
39.7170585422
 11
7.7696096523
 21
39.7052055389
  0
LINE
  5
372
100
AcDbEntity
  8
RACCORDO
100
AcDbLine
 62
250
  6
CONTINUOUS
 10
7.9847820301
 20
40.6233743557
 11
8.7801548685
 21
40.6372978293
  0
LINE
  5
373
100
AcDbEntity
  8
RACCORDO
100
AcDbLine
 62
250
  6
CONTINUOUS
 10
7.8349548859
 20
40.9159753738
 11
8.6154032894
 21
40.9296375825
  0
LINE
  5
374
100
AcDbEntity
  8
0
100
AcDbLine
 62
7
  6
CONTINUOUS
 10
7.4462714621
 20
42.0301640784
 11
6.8236305449
 21
42.0192974961
  0
LINE
  5
375
100
AcDbEntity
  8
RACCORDO
100
AcDbLine
 62
250
  6
CONTINUOUS
 10
8.8220033156
 20
39.1654722727
 11
9.6868413266
 21
39.1802134939
  0
LINE
  5
376
100
AcDbEntity
  8
RACCORDO
100
AcDbLine
 62
250
  6
CONTINUOUS
 10
8.8291589668
 20
38.1828172522
 11
9.7820795021
 21
38.1976406519
  0
LINE
  5
377
100
AcDbEntity
  8
0
100
AcDbLine
 62
7
  6
CONTINUOUS
 10
8.2085648699
 20
40.2003718538
 11
7.4946483119
 21
40.1893336451
  0
LINE
  5
378
100
AcDbEntity
  8
0
100
AcDbLine
 62
7
  6
CONTINUOUS
 10
6.6056676242
 20
41.5313893978
 11
5.9637810739
 21
41.5213946331
  0
LINE
  5
379
100
AcDbEntity
  8
0
100
AcDbLine
 62
7
  6
CONTINUOUS
 10
7.7696096523
 20
39.7052055389
 11
7.0500273062
 21
39.6943653812
  0
LINE
  5
37A
100
AcDbEntity
  8
0
100
AcDbLine
 62
7
  6
CONTINUOUS
 10
6.8236305449
 20
42.0192974961
 11
6.148490433
 21
42.0094090102
  0
LINE
  5
37B
100
AcDbEntity
  8
RACCORDO
100
AcDbLine
 62
250
  6
CONTINUOUS
 10
7.1161615574
 20
40.6108177454
 11
7.9847820301
 21
40.6233743557
  0
LINE
  5
37C
100
AcDbEntity
  8
RACCORDO
100
AcDbLine
 62
250
  6
CONTINUOUS
 10
6.9826332462
 20
40.9036543933
 11
7.8349548859
 21
40.9159753738
  0
LINE
  5
37D
100
AcDbEntity
  8
RACCORDO
100
AcDbLine
 62
250
  6
CONTINUOUS
 10
7.884756538
 20
39.1521790337
 11
8.8220033156
 21
39.1654722727
  0
LINE
  5
37E
100
AcDbEntity
  8
0
100
AcDbLine
 62
7
  6
CONTINUOUS
 10
7.4946483119
 20
40.1893336451
 11
6.7315672488
 21
40.1793248711
  0
LINE
  5
37F
100
AcDbEntity
  8
RACCORDO
100
AcDbLine
 62
250
  6
CONTINUOUS
 10
7.8049487999
 20
38.16959503
 11
8.8291589668
 21
38.1828172522
  0
LINE
  5
380
100
AcDbEntity
  8
0
100
AcDbLine
 62
7
  6
CONTINUOUS
 10
5.9637810739
 20
41.5213946331
 11
5.2724767553
 21
41.5124599729
  0
LINE
  5
381
100
AcDbEntity
  8
0
100
AcDbLine
 62
7
  6
CONTINUOUS
 10
7.0500273062
 20
39.6943653812
 11
6.2809940839
 21
39.684614105
  0
LINE
  5
382
100
AcDbEntity
  8
0
100
AcDbLine
 62
7
  6
CONTINUOUS
 10
6.148490433
 20
42.0094090102
 11
5.4264603731
 21
42.0005870089
  0
LINE
  5
383
100
AcDbEntity
  8
RACCORDO
100
AcDbLine
 62
250
  6
CONTINUOUS
 10
6.8831696147
 20
39.1404407958
 11
7.884756538
 21
39.1521790337
  0
LINE
  5
384
100
AcDbEntity
  8
RACCORDO
100
AcDbLine
 62
250
  6
CONTINUOUS
 10
6.1858012876
 20
40.5997884148
 11
7.1161615574
 21
40.6108177454
  0
LINE
  5
385
100
AcDbEntity
  8
RACCORDO
100
AcDbLine
 62
250
  6
CONTINUOUS
 10
6.0697302609
 20
40.89283206
 11
6.9826332462
 21
40.9036543933
  0
LINE
  5
386
100
AcDbEntity
  8
0
100
AcDbLine
 62
7
  6
CONTINUOUS
 10
6.7315672488
 20
40.1793248711
 11
5.9247528622
 21
40.1704218582
  0
LINE
  5
387
100
AcDbEntity
  8
RACCORDO
100
AcDbLine
 62
250
  6
CONTINUOUS
 10
6.7152307701
 20
38.1580440539
 11
7.8049487999
 21
38.16959503
  0
LINE
  5
388
100
AcDbEntity
  8
0
100
AcDbLine
 62
7
  6
CONTINUOUS
 10
6.2809940839
 20
39.684614105
 11
5.4679042011
 21
39.6760201083
  0
LINE
  5
389
100
AcDbEntity
  8
0
100
AcDbLine
 62
7
  6
CONTINUOUS
 10
5.2724767553
 20
41.5124599729
 11
4.5374830339
 21
41.5046594526
  0
LINE
  5
38A
100
AcDbEntity
  8
0
100
AcDbLine
 62
7
  6
CONTINUOUS
 10
5.4264603731
 20
42.0005870089
 11
4.663884103
 21
41.9929031748
  0
LINE
  5
38B
100
AcDbEntity
  8
RACCORDO
100
AcDbLine
 62
250
  6
CONTINUOUS
 10
5.8227821908
 20
39.1303245628
 11
6.8831696147
 21
39.1404407958
  0
LINE
  5
38C
100
AcDbEntity
  8
RACCORDO
100
AcDbLine
 62
250
  6
CONTINUOUS
 10
5.2077120957
 20
40.5904162928
 11
6.1858012876
 21
40.5997884148
  0
LINE
  5
38D
100
AcDbEntity
  8
RACCORDO
100
AcDbLine
 62
250
  6
CONTINUOUS
 10
5.109994073
 20
40.8836357757
 11
6.0697302609
 21
40.89283206
  0
LINE
  5
38E
100
AcDbEntity
  8
0
100
AcDbLine
 62
7
  6
CONTINUOUS
 10
5.9247528622
 20
40.1704218582
 11
5.0802202758
 21
40.1626861681
  0
LINE
  5
38F
100
AcDbEntity
  8
0
100
AcDbLine
 62
7
  6
CONTINUOUS
 10
5.4679042011
 20
39.6760201083
 11
4.6164608989
 21
39.668643672
  0
LINE
  5
390
100
AcDbEntity
  8
RACCORDO
100
AcDbLine
 62
250
  6
CONTINUOUS
 10
5.5687749508
 20
38.1482632431
 11
6.7152307701
 21
38.1580440539
  0
LINE
  5
391
100
AcDbEntity
  8
0
100
AcDbLine
 62
7
  6
CONTINUOUS
 10
4.5374830339
 20
41.5046594526
 11
3.764890299
 21
41.4980577097
  0
LINE
  5
392
100
AcDbEntity
  8
0
100
AcDbLine
 62
7
  6
CONTINUOUS
 10
4.663884103
 20
41.9929031748
 11
3.8651026669
 21
41.986401249
  0
LINE
  5
393
100
AcDbEntity
  8
RACCORDO
100
AcDbLine
 62
250
  6
CONTINUOUS
 10
4.7144668222
 20
39.1219384455
 11
5.8227821908
 21
39.1303245628
  0
LINE
  5
394
100
AcDbEntity
  8
0
100
AcDbLine
 62
7
  6
CONTINUOUS
 10
5.0802202758
 20
40.1626861681
 11
4.2020679115
 21
40.1561553414
  0
LINE
  5
395
100
AcDbEntity
  8
RACCORDO
100
AcDbLine
 62
250
  6
CONTINUOUS
 10
4.1967200972
 20
40.5827788221
 11
5.2077120957
 21
40.5904162928
  0
LINE
  5
396
100
AcDbEntity
  8
0
100
AcDbLine
 62
7
  6
CONTINUOUS
 10
4.6164608989
 20
39.668643672
 11
3.7326364405
 21
39.6625365365
  0
LINE
  5
397
100
AcDbEntity
  8
RACCORDO
100
AcDbLine
 62
250
  6
CONTINUOUS
 10
4.3771480375
 20
38.1403512673
 11
5.5687749508
 21
38.1482632431
  0
LINE
  5
398
100
AcDbEntity
  8
RACCORDO
100
AcDbLine
 62
250
  6
CONTINUOUS
 10
3.6135634828
 20
40.8730374825
 11
5.109994073
 21
40.8836357757
  0
LINE
  5
399
100
AcDbEntity
  8
0
100
AcDbLine
 62
7
  6
CONTINUOUS
 10
3.764890299
 20
41.4980577097
 11
2.9611004975
 21
41.4927094485
  0
LINE
  5
39A
100
AcDbEntity
  8
0
100
AcDbLine
 62
7
  6
CONTINUOUS
 10
3.8651026669
 20
41.986401249
 11
3.0368449772
 21
41.9811412708
  0
LINE
  5
39B
100
AcDbEntity
  8
0
100
AcDbLine
 62
7
  6
CONTINUOUS
 10
4.2020679115
 20
40.1561553414
 11
3.2966157537
 21
40.1508808024
  0
LINE
  5
39C
100
AcDbEntity
  8
RACCORDO
100
AcDbLine
 62
250
  6
CONTINUOUS
 10
3.5682703527
 20
39.1153537818
 11
4.7144668222
 21
39.1219384455
  0
LINE
  5
39D
100
AcDbEntity
  8
0
100
AcDbLine
 62
7
  6
CONTINUOUS
 10
3.7326364405
 20
39.6625365365
 11
2.8226302193
 21
39.6577415388
  0
LINE
  5
39E
100
AcDbEntity
  8
RACCORDO
100
AcDbLine
 62
250
  6
CONTINUOUS
 10
3.1513444041
 20
38.1343725765
 11
4.3771480375
 21
38.1403512673
  0
LINE
  5
39F
100
AcDbEntity
  8
RACCORDO
100
AcDbLine
 62
250
  6
CONTINUOUS
 10
2.6635116582
 20
40.5746667089
 11
4.1967200972
 21
40.5827788221
  0
LINE
  5
3A0
100
AcDbEntity
  8
0
100
AcDbLine
 62
7
  6
CONTINUOUS
 10
2.9611004975
 20
41.4927094485
 11
2.1327740846
 21
41.4886589862
  0
LINE
  5
3A1
100
AcDbEntity
  8
0
100
AcDbLine
 62
7
  6
CONTINUOUS
 10
3.0368449772
 20
41.9811412708
 11
2.1863016669
 21
41.9771638256
  0
LINE
  5
3A2
100
AcDbEntity
  8
0
100
AcDbLine
 62
7
  6
CONTINUOUS
 10
3.2966157537
 20
40.1508808024
 11
2.3705483031
 21
40.1468972012
  0
LINE
  5
3A3
100
AcDbEntity
  8
RACCORDO
100
AcDbLine
 62
250
  6
CONTINUOUS
 10
2.1384044406
 20
40.8664505194
 11
3.6135634828
 21
40.8730374825
  0
LINE
  5
3A4
100
AcDbEntity
  8
RACCORDO
100
AcDbLine
 62
250
  6
CONTINUOUS
 10
2.3950962972
 20
39.110622787
 11
3.5682703527
 21
39.1153537818
  0
LINE
  5
3A5
100
AcDbEntity
  8
0
100
AcDbLine
 62
7
  6
CONTINUOUS
 10
2.8226302193
 20
39.6577415388
 11
1.8928252752
 21
39.6542923125
  0
LINE
  5
3A6
100
AcDbEntity
  8
RACCORDO
100
AcDbLine
 62
250
  6
CONTINUOUS
 10
1.9014262907
 20
38.1303660762
 11
3.1513444041
 21
38.1343725765
  0
LINE
  5
3A7
100
AcDbEntity
  8
0
100
AcDbLine
 62
7
  6
CONTINUOUS
 10
2.1327740846
 20
41.4886589862
 11
1.286774834
 21
41.4859398863
  0
LINE
  5
3A8
100
AcDbEntity
  8
0
100
AcDbLine
 62
7
  6
CONTINUOUS
 10
2.1863016669
 20
41.9771638256
 11
1.3183145414
 21
41.9744915554
  0
LINE
  5
3A9
100
AcDbEntity
  8
0
100
AcDbLine
 62
7
  6
CONTINUOUS
 10
2.3705483031
 20
40.1468972012
 11
1.428359661
 21
40.1442238697
  0
LINE
  5
3AA
100
AcDbEntity
  8
RACCORDO
100
AcDbLine
 62
250
  6
CONTINUOUS
 10
1.2025612621
 20
39.1077696534
 11
2.3950962972
 21
39.110622787
  0
LINE
  5
3AB
100
AcDbEntity
  8
0
100
AcDbLine
 62
7
  6
CONTINUOUS
 10
1.8928252752
 20
39.6542923125
 11
0.9497435218
 21
39.6522130515
  0
LINE
  5
3AC
100
AcDbEntity
  8
RACCORDO
100
AcDbLine
 62
250
  6
CONTINUOUS
 10
0.8210144891
 20
40.569871801
 11
2.6635116582
 21
40.5746667089
  0
LINE
  5
3AD
100
AcDbEntity
  8
RACCORDO
100
AcDbLine
 62
250
  6
CONTINUOUS
 10
0.6355407745
 20
38.1283539948
 11
1.9014262907
 21
38.1303660762
  0
LINE
  5
3AE
100
AcDbEntity
  8
0
100
AcDbLine
 62
7
  6
CONTINUOUS
 10
1.286774834
 20
41.4859398863
 11
0.4301129618
 21
41.48457468
  0
LINE
  5
3AF
100
AcDbEntity
  8
0
100
AcDbLine
 62
7
  6
CONTINUOUS
 10
1.428359661
 20
40.1442238697
 11
0.478434187
 21
40.1428859705
  0
LINE
  5
3B0
100
AcDbEntity
  8
0
100
AcDbLine
 62
7
  6
CONTINUOUS
 10
1.3183145414
 20
41.9744915554
 11
0.4419444835
 21
41.9731539705
  0
LINE
  5
3B1
100
AcDbEntity
  8
RACCORDO
100
AcDbLine
 62
250
  6
CONTINUOUS
 10
0.3939981935
 20
40.8631055084
 11
2.1384044406
 21
40.8664505194
  0
LINE
  5
3B2
100
AcDbEntity
  8
0
100
AcDbLine
 62
7
  6
CONTINUOUS
 10
0.9497435218
 20
39.6522130515
 11
-0.0
 21
39.6515183402
  0
LINE
  5
3B3
100
AcDbEntity
  8
RACCORDO
100
AcDbLine
 62
250
  6
CONTINUOUS
 10
-0.6355415611
 20
38.1283539967
 11
0.6355407745
 21
38.1283539948
  0
LINE
  5
3B4
100
AcDbEntity
  8
RACCORDO
100
AcDbLine
 62
250
  6
CONTINUOUS
 10
-0.6018950709
 20
39.107054588
 11
1.2025612621
 21
39.1077696534
  0
LINE
  5
3B5
100
AcDbEntity
  8
RACCORDO
100
AcDbLine
 62
250
  6
CONTINUOUS
 10
-0.8187066735
 20
40.5698690083
 11
0.8210144891
 21
40.569871801
  0
LINE
  5
3B6
100
AcDbEntity
  8
0
100
AcDbLine
 62
7
  6
CONTINUOUS
 10
-0.954554074
 20
40.1433885989
 11
0.478434187
 21
40.1428859705
  0
LINE
  5
3B7
100
AcDbEntity
  8
0
100
AcDbLine
 62
7
  6
CONTINUOUS
 10
-0.8593344488
 20
41.4850870749
 11
0.4301129618
 21
41.48457468
  0
LINE
  5
3B8
100
AcDbEntity
  8
0
100
AcDbLine
 62
7
  6
CONTINUOUS
 10
-0.881382664
 20
41.9736566399
 11
0.4419444835
 21
41.9731539705
  0
LINE
  5
3B9
100
AcDbEntity
  8
RACCORDO
100
AcDbLine
 62
250
  6
CONTINUOUS
 10
-1.2307323565
 20
40.8641289166
 11
0.3939981935
 21
40.8631055084
  0
LINE
  5
3BA
100
AcDbEntity
  8
0
100
AcDbLine
 62
7
  6
CONTINUOUS
 10
-1.422532201
 20
39.6530802981
 11
-0.0
 21
39.6515183402
  0
LINE
  5
3BB
100
AcDbEntity
  8
RACCORDO
100
AcDbLine
 62
250
  6
CONTINUOUS
 10
-1.90142673
 20
38.130366079
 11
-0.6355415611
 21
38.1283539967
  0
LINE
  5
3BC
100
AcDbEntity
  8
RACCORDO
100
AcDbLine
 62
250
  6
CONTINUOUS
 10
-2.3950945575
 20
39.1106227894
 11
-0.6018950709
 21
39.107054588
  0
LINE
  5
3BD
100
AcDbEntity
  8
RACCORDO
100
AcDbLine
 62
250
  6
CONTINUOUS
 10
-2.1730567133
 20
40.5728819354
 11
-0.8187066735
 21
40.5698690083
  0
LINE
  5
3BE
100
AcDbEntity
  8
0
100
AcDbLine
 62
7
  6
CONTINUOUS
 10
-2.3705483031
 20
40.1468972012
 11
-0.954554074
 21
40.1433885989
  0
LINE
  5
3BF
100
AcDbEntity
  8
0
100
AcDbLine
 62
7
  6
CONTINUOUS
 10
-2.1863016669
 20
41.9771638256
 11
-0.881382664
 21
41.9736566399
  0
LINE
  5
3C0
100
AcDbEntity
  8
RACCORDO
100
AcDbLine
 62
250
  6
CONTINUOUS
 10
-3.1513397198
 20
38.1343725565
 11
-1.90142673
 21
38.130366079
  0
LINE
  5
3C1
100
AcDbEntity
  8
RACCORDO
100
AcDbLine
 62
250
  6
CONTINUOUS
 10
-2.6061432027
 20
40.8681521962
 11
-1.2307323565
 21
40.8641289166
  0
LINE
  5
3C2
100
AcDbEntity
  8
0
100
AcDbLine
 62
7
  6
CONTINUOUS
 10
-2.1327740846
 20
41.4886589862
 11
-0.8593344488
 21
41.4850870749
  0
LINE
  5
3C3
100
AcDbEntity
  8
0
100
AcDbLine
 62
7
  6
CONTINUOUS
 10
-2.8226302193
 20
39.6577415388
 11
-1.422532201
 21
39.6530802981
  0
LINE
  5
3C4
100
AcDbEntity
  8
RACCORDO
100
AcDbLine
 62
250
  6
CONTINUOUS
 10
-3.5682659273
 20
39.1153537429
 11
-2.3950945575
 21
39.1106227894
  0
LINE
  5
3C5
100
AcDbEntity
  8
RACCORDO
100
AcDbLine
 62
250
  6
CONTINUOUS
 10
-3.6727880715
 20
40.579559011
 11
-2.1730567133
 21
40.5728819354
  0
LINE
  5
3C6
100
AcDbEntity
  8
RACCORDO
100
AcDbLine
 62
250
  6
CONTINUOUS
 10
-4.3771453006
 20
38.1403512496
 11
-3.1513397198
 21
38.1343725565
  0
LINE
  5
3C7
100
AcDbEntity
  8
0
100
AcDbLine
 62
7
  6
CONTINUOUS
 10
-3.7527460333
 20
40.1533614167
 11
-2.3705483031
 21
40.1468972012
  0
LINE
  5
3C8
100
AcDbEntity
  8
0
100
AcDbLine
 62
7
  6
CONTINUOUS
 10
-3.4546478764
 20
41.9836164579
 11
-2.1863016669
 21
41.9771638256
  0
LINE
  5
3C9
100
AcDbEntity
  8
RACCORDO
100
AcDbLine
 62
250
  6
CONTINUOUS
 10
-4.1074134586
 20
40.876071874
 11
-2.6061432027
 21
40.8681521962
  0
LINE
  5
3CA
100
AcDbEntity
  8
RACCORDO
100
AcDbLine
 62
250
  6
CONTINUOUS
 10
-4.7144685924
 20
39.1219384504
 11
-3.5682659273
 21
39.1153537429
  0
LINE
  5
3CB
100
AcDbEntity
  8
0
100
AcDbLine
 62
7
  6
CONTINUOUS
 10
-3.3664841745
 20
41.4952238759
 11
-2.1327740846
 21
41.4886589862
  0
LINE
  5
3CC
100
AcDbEntity
  8
0
100
AcDbLine
 62
7
  6
CONTINUOUS
 10
-4.178213673
 20
39.6654285518
 11
-2.8226302193
 21
39.6577415388
  0
LINE
  5
3CD
100
AcDbEntity
  8
RACCORDO
100
AcDbLine
 62
250
  6
CONTINUOUS
 10
-5.5687894167
 20
38.1482633523
 11
-4.3771453006
 21
38.1403512496
  0
LINE
  5
3CE
100
AcDbEntity
  8
0
100
AcDbLine
 62
7
  6
CONTINUOUS
 10
-5.0802202758
 20
40.1626861681
 11
-3.7527460333
 21
40.1533614167
  0
LINE
  5
3CF
100
AcDbEntity
  8
RACCORDO
100
AcDbLine
 62
250
  6
CONTINUOUS
 10
-5.822821507
 20
39.1303248969
 11
-4.7144685924
 21
39.1219384504
  0
LINE
  5
3D0
100
AcDbEntity
  8
RACCORDO
100
AcDbLine
 62
250
  6
CONTINUOUS
 10
-5.1960031525
 20
40.5903164542
 11
-3.6727880715
 21
40.579559011
  0
LINE
  5
3D1
100
AcDbEntity
  8
0
100
AcDbLine
 62
7
  6
CONTINUOUS
 10
-4.663884103
 20
41.9929031748
 11
-3.4546478764
 21
41.9836164579
  0
LINE
  5
3D2
100
AcDbEntity
  8
RACCORDO
100
AcDbLine
 62
250
  6
CONTINUOUS
 10
-6.7153058365
 20
38.1580447695
 11
-5.5687894167
 21
38.1482633523
  0
LINE
  5
3D3
100
AcDbEntity
  8
RACCORDO
100
AcDbLine
 62
250
  6
CONTINUOUS
 10
-5.5834214706
 20
40.8879156659
 11
-4.1074134586
 21
40.876071874
  0
LINE
  5
3D4
100
AcDbEntity
  8
0
100
AcDbLine
 62
7
  6
CONTINUOUS
 10
-4.5374830339
 20
41.5046594526
 11
-3.3664841745
 21
41.4952238759
  0
LINE
  5
3D5
100
AcDbEntity
  8
0
100
AcDbLine
 62
7
  6
CONTINUOUS
 10
-5.4679042011
 20
39.6760201083
 11
-4.178213673
 21
39.6654285518
  0
LINE
  5
3D6
100
AcDbEntity
  8
RACCORDO
100
AcDbLine
 62
250
  6
CONTINUOUS
 10
-6.8832639634
 20
39.1404417901
 11
-5.822821507
 21
39.1303248969
  0
LINE
  5
3D7
100
AcDbEntity
  8
RACCORDO
100
AcDbLine
 62
250
  6
CONTINUOUS
 10
-6.1740255665
 20
40.5996628013
 11
-5.1960031525
 21
40.5903164542
  0
LINE
  5
3D8
100
AcDbEntity
  8
0
100
AcDbLine
 62
7
  6
CONTINUOUS
 10
-6.3336134671
 20
40.1747354796
 11
-5.0802202758
 21
40.1626861681
  0
LINE
  5
3D9
100
AcDbEntity
  8
RACCORDO
100
AcDbLine
 62
250
  6
CONTINUOUS
 10
-7.8050560244
 20
38.1695962859
 11
-6.7153058365
 21
38.1580447695
  0
LINE
  5
3DA
100
AcDbEntity
  8
RACCORDO
100
AcDbLine
 62
250
  6
CONTINUOUS
 10
-6.5218896911
 20
40.8979161173
 11
-5.5834214706
 21
40.8879156659
  0
LINE
  5
3DB
100
AcDbEntity
  8
0
100
AcDbLine
 62
7
  6
CONTINUOUS
 10
-5.7933199795
 20
42.004865078
 11
-4.663884103
 21
41.9929031748
  0
LINE
  5
3DC
100
AcDbEntity
  8
0
100
AcDbLine
 62
7
  6
CONTINUOUS
 10
-6.6713626135
 20
39.6893491731
 11
-5.4679042011
 21
39.6760201083
  0
LINE
  5
3DD
100
AcDbEntity
  8
RACCORDO
100
AcDbLine
 62
250
  6
CONTINUOUS
 10
-7.8848581358
 20
39.1521803403
 11
-6.8832639634
 21
39.1404417901
  0
LINE
  5
3DE
100
AcDbEntity
  8
RACCORDO
100
AcDbLine
 62
250
  6
CONTINUOUS
 10
-7.1049987666
 20
40.610671613
 11
-6.1740255665
 21
40.5996628013
  0
LINE
  5
3DF
100
AcDbEntity
  8
0
100
AcDbLine
 62
7
  6
CONTINUOUS
 10
-5.6239571696
 20
41.5167899493
 11
-4.5374830339
 21
41.5046594526
  0
LINE
  5
3E0
100
AcDbEntity
  8
RACCORDO
100
AcDbLine
 62
250
  6
CONTINUOUS
 10
-8.8292693254
 20
38.1828188168
 11
-7.8050560244
 21
38.1695962859
  0
LINE
  5
3E1
100
AcDbEntity
  8
0
100
AcDbLine
 62
7
  6
CONTINUOUS
 10
-7.4946483119
 20
40.1893336451
 11
-6.3336134671
 21
40.1747354796
  0
LINE
  5
3E2
100
AcDbEntity
  8
RACCORDO
100
AcDbLine
 62
250
  6
CONTINUOUS
 10
-7.4062984516
 20
40.9094804216
 11
-6.5218896911
 21
40.8979161173
  0
LINE
  5
3E3
100
AcDbEntity
  8
RACCORDO
100
AcDbLine
 62
250
  6
CONTINUOUS
 10
-8.8221186399
 20
39.165474063
 11
-7.8848581358
 21
39.1521803403
  0
LINE
  5
3E4
100
AcDbEntity
  8
RACCORDO
100
AcDbLine
 62
250
  6
CONTINUOUS
 10
-7.9744815291
 20
40.6232106121
 11
-7.1049987666
 21
40.610671613
  0
LINE
  5
3E5
100
AcDbEntity
  8
0
100
AcDbLine
 62
7
  6
CONTINUOUS
 10
-6.8236305449
 20
42.0192974961
 11
-5.7933199795
 21
42.004865078
  0
LINE
  5
3E6
100
AcDbEntity
  8
0
100
AcDbLine
 62
7
  6
CONTINUOUS
 10
-7.7696096523
 20
39.7052055389
 11
-6.6713626135
 21
39.6893491731
  0
LINE
  5
3E7
100
AcDbEntity
  8
RACCORDO
100
AcDbLine
 62
250
  6
CONTINUOUS
 10
-9.7822143742
 20
38.1976429504
 11
-8.8292693254
 21
38.1828188168
  0
LINE
  5
3E8
100
AcDbEntity
  8
0
100
AcDbLine
 62
7
  6
CONTINUOUS
 10
-6.6056676242
 20
41.5313893978
 11
-5.6239571696
 21
41.5167899493
  0
LINE
  5
3E9
100
AcDbEntity
  8
RACCORDO
100
AcDbLine
 62
250
  6
CONTINUOUS
 10
-8.2252941211
 20
40.9224837688
 11
-7.4062984516
 21
40.9094804216
  0
LINE
  5
3EA
100
AcDbEntity
  8
0
100
AcDbLine
 62
7
  6
CONTINUOUS
 10
-8.5463943079
 20
40.2062677904
 11
-7.4946483119
 21
40.1893336451
  0
LINE
  5
3EB
100
AcDbEntity
  8
RACCORDO
100
AcDbLine
 62
250
  6
CONTINUOUS
 10
-9.6869761674
 20
39.1802160088
 11
-8.8221186399
 21
39.165474063
  0
LINE
  5
3EC
100
AcDbEntity
  8
RACCORDO
100
AcDbLine
 62
250
  6
CONTINUOUS
 10
-8.7708239457
 20
40.6371183715
 11
-7.9744815291
 21
40.6232106121
  0
LINE
  5
3ED
100
AcDbEntity
  8
0
100
AcDbLine
 62
7
  6
CONTINUOUS
 10
-8.4346937692
 20
39.7170585422
 11
-7.7696096523
 21
39.7052055389
  0
LINE
  5
3EE
100
AcDbEntity
  8
RACCORDO
100
AcDbLine
 62
250
  6
CONTINUOUS
 10
-10.6528402899
 20
38.2139001416
 11
-9.7822143742
 21
38.1976429504
  0
LINE
  5
3EF
100
AcDbEntity
  8
0
100
AcDbLine
 62
7
  6
CONTINUOUS
 10
-7.1928175323
 20
41.5423614472
 11
-6.6056676242
 21
41.5313893978
  0
LINE
  5
3F0
100
AcDbEntity
  8
0
100
AcDbLine
 62
7
  6
CONTINUOUS
 10
-7.7371868999
 20
42.0359534863
 11
-6.8236305449
 21
42.0192974961
  0
LINE
  5
3F1
100
AcDbEntity
  8
RACCORDO
100
AcDbLine
 62
250
  6
CONTINUOUS
 10
-8.9674813069
 20
40.9367405317
 11
-8.2252941211
 21
40.9224837688
  0
LINE
  5
3F2
100
AcDbEntity
  8
0
100
AcDbLine
 62
7
  6
CONTINUOUS
 10
-9.178869188
 20
40.2187273524
 11
-8.5463943079
 21
40.2062677904
  0
LINE
  5
3F3
100
AcDbEntity
  8
RACCORDO
100
AcDbLine
 62
250
  6
CONTINUOUS
 10
-10.469595515
 20
39.1962331801
 11
-9.6869761674
 21
39.1802160088
  0
LINE
  5
3F4
100
AcDbEntity
  8
0
100
AcDbLine
 62
7
  6
CONTINUOUS
 10
-9.0406145696
 20
39.7298412506
 11
-8.4346937692
 21
39.7170585422
  0
LINE
  5
3F5
100
AcDbEntity
  8
RACCORDO
100
AcDbLine
 62
250
  6
CONTINUOUS
 10
-9.4868181336
 20
40.652258058
 11
-8.7708239457
 21
40.6371183715
  0
LINE
  5
3F6
100
AcDbEntity
  8
RACCORDO
100
AcDbLine
 62
250
  6
CONTINUOUS
 10
-11.43428343
 20
38.2314519564
 11
-10.6528402899
 21
38.2139001416
  0
LINE
  5
3F7
100
AcDbEntity
  8
0
100
AcDbLine
 62
7
  6
CONTINUOUS
 10
-7.7203654889
 20
41.5542198635
 11
-7.1928175323
 21
41.5423614472
  0
LINE
  5
3F8
100
AcDbEntity
  8
0
100
AcDbLine
 62
7
  6
CONTINUOUS
 10
-8.2732300897
 20
42.0481454772
 11
-7.7371868999
 21
42.0359534863
  0
LINE
  5
3F9
100
AcDbEntity
  8
0
100
AcDbLine
 62
7
  6
CONTINUOUS
 10
-9.7523588108
 20
40.2320449532
 11
-9.178869188
 21
40.2187273524
  0
LINE
  5
3FA
100
AcDbEntity
  8
RACCORDO
100
AcDbLine
 62
250
  6
CONTINUOUS
 10
-9.6297565967
 20
40.9521839713
 11
-8.9674813069
 21
40.9367405317
  0
LINE
  5
3FB
100
AcDbEntity
  8
RACCORDO
100
AcDbLine
 62
250
  6
CONTINUOUS
 10
-11.1664154588
 20
39.2134482051
 11
-10.469595515
 21
39.1962331801
  0
LINE
  5
3FC
100
AcDbEntity
  8
0
100
AcDbLine
 62
7
  6
CONTINUOUS
 10
-9.5831219544
 20
39.7434640027
 11
-9.0406145696
 21
39.7298412506
  0
LINE
  5
3FD
100
AcDbEntity
  8
RACCORDO
100
AcDbLine
 62
250
  6
CONTINUOUS
 10
-10.1190187678
 20
40.6685624214
 11
-9.4868181336
 21
40.652258058
  0
LINE
  5
3FE
100
AcDbEntity
  8
RACCORDO
100
AcDbLine
 62
250
  6
CONTINUOUS
 10
-8.7347369306
 20
42.5275979611
 11
-8.1856926834
 21
42.5128415904
  0
LINE
  5
3FF
100
AcDbEntity
  8
0
100
AcDbLine
 62
7
  6
CONTINUOUS
 10
-8.1839400658
 20
41.5668663841
 11
-7.7203654889
 21
41.5542198635
  0
LINE
  5
400
100
AcDbEntity
  8
0
100
AcDbLine
 62
7
  6
CONTINUOUS
 10
-8.7468565782
 20
42.0611181996
 11
-8.2732300897
 21
42.0481454772
  0
LINE
  5
401
100
AcDbEntity
  8
0
100
AcDbLine
 62
7
  6
CONTINUOUS
 10
-10.2624897764
 20
40.2461258058
 11
-9.7523588108
 21
40.2320449532
  0
LINE
  5
402
100
AcDbEntity
  8
0
100
AcDbLine
 62
7
  6
CONTINUOUS
 10
-10.0584106243
 20
39.7578312447
 11
-9.5831219544
 21
39.7434640027
  0
LWPOLYLINE
  5
403
100
AcDbEntity
  8
0
100
AcDbPolyline
 62
7
  6
CONTINUOUS
 90
4
 70
0
 10
-9.4907481555
 20
42.0889609332
 10
-9.3311832784
 20
42.0817975094
 10
-9.1537773193
 20
42.0747630592
 10
-8.7468565782
 20
42.0611181996
  0
LWPOLYLINE
  5
404
100
AcDbEntity
  8
0
100
AcDbPolyline
 62
7
  6
CONTINUOUS
 90
6
 70
0
 10
-11.3821666418
 20
40.2919931228
 10
-11.2400306983
 20
40.2840325518
 10
-11.0799424758
 20
40.2761908037
 10
-10.9018147128
 20
40.2684684563
 10
-10.7057346707
 20
40.2608649318
 10
-10.2624897764
 20
40.2461258058
  0
LINE
  5
405
100
AcDbEntity
  8
0
100
AcDbLine
 62
7
  6
CONTINUOUS
 10
11.3516115151
 20
39.8556311296
 11
13.2306563404
 21
39.3532885536
  0
LWPOLYLINE
  5
406
100
AcDbEntity
  8
RACCORDO
100
AcDbPolyline
 62
7
  6
CONTINUOUS
 90
22
 70
0
 10
13.2306563456
 20
39.3532885522
 10
13.2611312349
 20
39.3447120053
 10
13.2940463617
 20
39.3344382378
 10
13.3293788913
 20
39.322162996
 10
13.3670342718
 20
39.307564959
 10
13.4069372391
 20
39.2902724482
 10
13.449011005
 20
39.2698592503
 10
13.4926535491
 20
39.2461295635
 10
13.5379562718
 20
39.2184910433
 10
13.5856461896
 20
39.1857291142
 10
13.6357848008
 20
39.1466963407
 10
13.6868999927
 20
39.1012759285
 10
13.7372726449
 20
39.0498407725
 10
13.786285585
 20
38.9918515687
 10
13.8328146155
 20
38.9273014615
 10
13.874823424
 20
38.857972442
 10
13.9115414517
 20
38.7845359542
 10
13.9426473572
 20
38.7069263285
 10
13.9673756276
 20
38.6263001383
 10
13.985331715
 20
38.543428272
 10
13.9962947756
 20
38.4586106062
 10
14.0
 20
38.3724358193
  0
LWPOLYLINE
  5
407
100
AcDbEntity
  8
0
100
AcDbPolyline
 62
250
  6
CONTINUOUS
 90
10
 70
0
 10
50.4499217485
 20
18.7146603297
 10
50.441295107
 20
18.7189188166
 10
50.432689154
 20
18.7232998212
 10
50.4241038895
 20
18.7278033435
 10
50.4155392647
 20
18.7324272808
 10
50.4069953283
 20
18.7371737359
 10
50.3984722264
 20
18.742049017
 10
50.3899700075
 20
18.7470552267
 10
50.381488623
 20
18.7521902625
 10
50.3730280729
 20
18.7574541242
  0
LINE
  5
408
100
AcDbEntity
  8
DRAFT
100
AcDbLine
 62
7
  6
CONTINUOUS
 10
43.2242099741
 20
35.6072518739
 11
43.2242099741
 21
31.3340562657
  0
LINE
  5
409
100
AcDbEntity
  8
DRAFT
100
AcDbLine
 62
7
  6
CONTINUOUS
 10
43.2242099741
 20
-43.9391393425
 11
43.2242099741
 21
-39.6659437343
  0
LINE
  5
40A
100
AcDbEntity
  8
DRAFT
100
AcDbLine
 62
7
  6
CONTINUOUS
 10
43.5
 20
35.3340562657
 11
43.5
 21
31.3340562657
  0
LINE
  5
40B
100
AcDbEntity
  8
DRAFT
100
AcDbLine
 62
7
  6
CONTINUOUS
 10
43.5
 20
-43.6659437343
 11
43.5
 21
-39.6659437343
  0
LINE
  5
40C
100
AcDbEntity
  8
DRAFT
100
AcDbLine
 62
250
  6
CONTINUOUS
 10
45.0
 20
29.8340562657
 11
45.0
 21
29.5582662398
  0
LINE
  5
40D
100
AcDbEntity
  8
DRAFT
100
AcDbLine
 62
250
  6
CONTINUOUS
 10
45.0
 20
-38.1659437343
 11
45.0
 21
-37.8901537084
  0
LINE
  5
40E
100
AcDbEntity
  8
RACCORDO
100
AcDbLine
 62
250
  6
CONTINUOUS
 10
45.0
 20
-43.6659437343
 11
45.0
 21
-45.6659437343
  0
LINE
  5
40F
100
AcDbEntity
  8
RACCORDO
100
AcDbLine
 62
250
  6
CONTINUOUS
 10
45.0
 20
35.3340562657
 11
45.0
 21
37.3340562657
  0
LWPOLYLINE
  5
410
100
AcDbEntity
  8
0
100
AcDbPolyline
 62
7
  6
CONTINUOUS
 90
17
 70
0
 10
11.5
 20
-45.2819323059
 10
11.4751333499
 20
-45.2950397523
 10
11.4011624165
 20
-45.3081471988
 10
11.2790307246
 20
-45.3210874552
 10
11.1081213441
 20
-45.3338583799
 10
10.8890512052
 20
-45.3464621145
 10
10.6246146239
 20
-45.3587378941
 10
10.3142304645
 20
-45.3706815175
 10
9.9584798627
 20
-45.3822971859
 10
9.5619005415
 20
-45.3934367373
 10
9.1239694925
 20
-45.4040940727
 10
8.6452097239
 20
-45.4142752912
 10
8.1317279836
 20
-45.4238505277
 10
7.5830794896
 20
-45.4328120197
 10
6.9997090237
 20
-45.4411675298
 10
6.3890576797
 20
-45.4488104804
 10
5.7507759946
 20
-45.4557317439
  0
LINE
  5
411
100
AcDbEntity
  8
0
100
AcDbLine
 62
7
  6
CONTINUOUS
 10
-9.4513417461
 20
41.6543478923
 11
-11.6029477407
 21
41.0791389972
  0
LINE
  5
412
100
AcDbEntity
  8
0
100
AcDbLine
 62
7
  6
CONTINUOUS
 10
-7.8511145721
 20
43.4532239848
 11
-9.8566648691
 21
42.9170615213
  0
LINE
  5
413
100
AcDbEntity
  8
0
100
AcDbLine
 62
7
  6
CONTINUOUS
 10
-5.9872555597
 20
45.2556021396
 11
-8.1103819975
 21
44.6880069499
  0
LINE
  5
414
100
AcDbEntity
  8
0
100
AcDbLine
 62
7
  6
CONTINUOUS
 10
-0.9978759266
 20
47.1496282333
 11
-3.8694093095
 21
46.3819544358
  0
LWPOLYLINE
  5
415
100
AcDbEntity
  8
0
100
AcDbPolyline
 62
7
  6
CONTINUOUS
 90
3
 70
0
 10
7.8678786997
 20
43.9001775033
 10
7.7325045921
 20
43.8939829184
 10
7.5808456296
 20
43.8878893418
  0
LWPOLYLINE
  5
416
100
AcDbEntity
  8
RACCORDO
100
AcDbPolyline
 62
250
  6
CONTINUOUS
 90
11
 70
0
 10
9.0021417036
 20
42.8348766062
 10
9.1943222636
 20
42.8428278591
 10
9.3630860978
 20
42.8509174733
 10
9.5083608783
 20
42.8591355298
 10
9.6300872405
 20
42.8674787436
 10
9.7280063381
 20
42.8759386275
 10
9.8016065069
 20
42.8844825355
 10
9.8505464158
 20
42.8930707682
 10
9.8747660934
 20
42.9016692681
 10
9.874373019
 20
42.9102688237
 10
9.8566649295
 20
42.9170615052
  0
LWPOLYLINE
  5
417
100
AcDbEntity
  8
0
100
AcDbPolyline
 62
7
  6
CONTINUOUS
 90
9
 70
0
 10
-5.4690866775
 20
45.2918440539
 10
-5.5852424919
 20
45.2870371873
 10
-5.6874322948
 20
45.2821346596
 10
-5.7757593101
 20
45.2771371779
 10
-5.8495674731
 20
45.2720818618
 10
-5.9087486747
 20
45.2669682806
 10
-5.9534110239
 20
45.2617968651
 10
-5.9832227831
 20
45.2566060269
 10
-5.9872670073
 20
45.2555990785
  0
LWPOLYLINE
  5
418
100
AcDbEntity
  8
RACCORDO
100
AcDbPolyline
 62
250
  6
CONTINUOUS
 90
10
 70
0
 10
7.534139656
 20
44.3262061541
 10
7.7129068755
 20
44.3332028164
 10
7.8700049777
 20
44.340336313
 10
8.005330063
 20
44.3475961288
 10
8.118791398
 20
44.3549774018
 10
8.2101184676
 20
44.3624705783
 10
8.2788159027
 20
44.3700450491
 10
8.3245513611
 20
44.3776641708
 10
8.3472543223
 20
44.3852961481
 10
8.35
 20
44.3890329722
  0
LWPOLYLINE
  5
419
100
AcDbEntity
  8
RACCORDO
100
AcDbPolyline
 62
250
  6
CONTINUOUS
 90
11
 70
0
 10
7.3335110297
 20
44.6176128255
 10
7.5075178519
 20
44.6244231599
 10
7.6604325518
 20
44.6313666955
 10
7.7921540157
 20
44.6384331916
 10
7.902593954
 20
44.6456179079
 10
7.9914890717
 20
44.6529115414
 10
8.0583571755
 20
44.6602843018
 10
8.102874755
 20
44.6677005263
 10
8.1249731586
 20
44.6751292685
 10
8.1247383769
 20
44.6825602743
 10
8.1103821084
 20
44.6880069203
  0
LWPOLYLINE
  5
41A
100
AcDbEntity
  8
RACCORDO
100
AcDbPolyline
 62
250
  6
CONTINUOUS
 90
9
 70
0
 10
3.6719523175
 20
46.0559801394
 10
3.7778862537
 20
46.0600110403
 10
3.8694579068
 20
46.0641561239
 10
3.9460310388
 20
46.0683872338
 10
4.0072690536
 20
46.0726800098
 10
4.0531440918
 20
46.0770253263
 10
4.083592038
 20
46.0814171036
 10
4.0984514285
 20
46.0858458414
 10
4.1
 20
46.0878123061
  0
LWPOLYLINE
  5
41B
100
AcDbEntity
  8
RACCORDO
100
AcDbPolyline
 62
250
  6
CONTINUOUS
 90
10
 70
0
 10
3.4728118361
 20
46.3474402038
 10
3.5730007603
 20
46.3512524749
 10
3.6596063468
 20
46.3551727281
 10
3.7320267957
 20
46.3591743506
 10
3.7899437244
 20
46.3632343122
 10
3.8333308195
 20
46.367343973
 10
3.8621274883
 20
46.3714975722
 10
3.8761810479
 20
46.3756861192
 10
3.8753250683
 20
46.3798868711
 10
3.8694093371
 20
46.3819544285
  0
LINE
  5
41C
100
AcDbEntity
  8
RACCORDO
100
AcDbLine
 62
250
  6
CONTINUOUS
 10
8.5503747886
 20
42.8195189705
 11
9.0021417036
 21
42.8348766062
  0
LINE
  5
41D
100
AcDbEntity
  8
0
100
AcDbLine
 62
7
  6
CONTINUOUS
 10
7.1406111635
 20
43.3921424214
 11
6.7982994197
 21
43.3805541605
  0
LINE
  5
41E
100
AcDbEntity
  8
0
100
AcDbLine
 62
7
  6
CONTINUOUS
 10
5.4690866775
 20
45.2057173602
 11
5.1961524227
 21
45.1964234878
  0
LINE
  5
41F
100
AcDbEntity
  8
0
100
AcDbLine
 62
7
  6
CONTINUOUS
 10
-5.1961524227
 20
45.3011379264
 11
-5.4690866775
 21
45.2918440539
  0
LINE
  5
420
100
AcDbEntity
  8
0
100
AcDbLine
 62
7
  6
CONTINUOUS
 10
7.5808456296
 20
43.8878893418
 11
7.2313971409
 21
43.8761193521
  0
LINE
  5
421
100
AcDbEntity
  8
RACCORDO
100
AcDbLine
 62
250
  6
CONTINUOUS
 10
7.1144571206
 20
44.3127457952
 11
7.534139656
 21
44.3262061541
  0
LINE
  5
422
100
AcDbEntity
  8
RACCORDO
100
AcDbLine
 62
250
  6
CONTINUOUS
 10
6.9250042363
 20
44.6045109353
 11
7.3335110297
 21
44.6176128255
  0
LINE
  5
423
100
AcDbEntity
  8
0
100
AcDbLine
 62
7
  6
CONTINUOUS
 10
3.216916057
 20
45.2205800432
 11
3.0078347488
 21
45.2142598384
  0
LINE
  5
424
100
AcDbEntity
  8
0
100
AcDbLine
 62
7
  6
CONTINUOUS
 10
3.658295417
 20
45.7163991629
 11
3.4323825609
 21
45.7095677523
  0
LINE
  5
425
100
AcDbEntity
  8
RACCORDO
100
AcDbLine
 62
250
  6
CONTINUOUS
 10
3.4194363129
 20
46.0483318509
 11
3.6719523175
 21
46.0559801394
  0
LINE
  5
426
100
AcDbEntity
  8
RACCORDO
100
AcDbLine
 62
250
  6
CONTINUOUS
 10
3.233990518
 20
46.3402066978
 11
3.4728118361
 21
46.3474402038
  0
LINE
  5
427
100
AcDbEntity
  8
0
100
AcDbLine
 62
7
  6
CONTINUOUS
 10
7.2313971409
 20
43.8761193521
 11
6.8216986066
 21
43.8649404677
  0
LINE
  5
428
100
AcDbEntity
  8
0
100
AcDbLine
 62
7
  6
CONTINUOUS
 10
6.7982994197
 20
43.3805541605
 11
6.3944212236
 21
43.3695862526
  0
LINE
  5
429
100
AcDbEntity
  8
RACCORDO
100
AcDbLine
 62
250
  6
CONTINUOUS
 10
8.0147337126
 20
42.8050722353
 11
8.5503747886
 21
42.8195189705
  0
LINE
  5
42A
100
AcDbEntity
  8
0
100
AcDbLine
 62
7
  6
CONTINUOUS
 10
5.1961524227
 20
45.1964234878
 11
4.8714378982
 21
45.1876513612
  0
LINE
  5
42B
100
AcDbEntity
  8
0
100
AcDbLine
 62
7
  6
CONTINUOUS
 10
-4.8714378982
 20
45.309910053
 11
-5.1961524227
 21
45.3011379264
  0
LINE
  5
42C
100
AcDbEntity
  8
RACCORDO
100
AcDbLine
 62
250
  6
CONTINUOUS
 10
6.6179560015
 20
44.3001709878
 11
7.1144571206
 21
44.3127457952
  0
LINE
  5
42D
100
AcDbEntity
  8
RACCORDO
100
AcDbLine
 62
250
  6
CONTINUOUS
 10
6.4417245943
 20
44.5922709831
 11
6.9250042363
 21
44.6045109353
  0
LINE
  5
42E
100
AcDbEntity
  8
0
100
AcDbLine
 62
7
  6
CONTINUOUS
 10
3.4323825609
 20
45.7095677523
 11
3.1646687731
 21
45.7032129653
  0
LINE
  5
42F
100
AcDbEntity
  8
0
100
AcDbLine
 62
7
  6
CONTINUOUS
 10
3.0078347488
 20
45.2142598384
 11
2.7577599952
 21
45.2083952208
  0
LINE
  5
430
100
AcDbEntity
  8
RACCORDO
100
AcDbLine
 62
250
  6
CONTINUOUS
 10
3.1149646864
 20
46.0412860533
 11
3.4194363129
 21
46.0483318509
  0
LINE
  5
431
100
AcDbEntity
  8
RACCORDO
100
AcDbLine
 62
250
  6
CONTINUOUS
 10
2.9460310974
 20
46.3335430645
 11
3.233990518
 21
46.3402066978
  0
LINE
  5
432
100
AcDbEntity
  8
0
100
AcDbLine
 62
7
  6
CONTINUOUS
 10
6.8216986066
 20
43.8649404677
 11
6.3553467982
 21
43.8544595092
  0
LINE
  5
433
100
AcDbEntity
  8
0
100
AcDbLine
 62
7
  6
CONTINUOUS
 10
6.3944212236
 20
43.3695862526
 11
5.9326341587
 21
43.3593380246
  0
LINE
  5
434
100
AcDbEntity
  8
RACCORDO
100
AcDbLine
 62
250
  6
CONTINUOUS
 10
7.5647935589
 20
42.4993051094
 11
8.1951524033
 21
42.5130703934
  0
LINE
  5
435
100
AcDbEntity
  8
RACCORDO
100
AcDbLine
 62
250
  6
CONTINUOUS
 10
7.3982524043
 20
42.7916099979
 11
8.0147337126
 21
42.8050722353
  0
LINE
  5
436
100
AcDbEntity
  8
0
100
AcDbLine
 62
7
  6
CONTINUOUS
 10
4.8714378982
 20
45.1876513612
 11
4.4988099791
 21
45.1794965387
  0
LINE
  5
437
100
AcDbEntity
  8
RACCORDO
100
AcDbLine
 62
250
  6
CONTINUOUS
 10
6.0476128613
 20
44.2885506372
 11
6.6179560015
 21
44.3001709878
  0
LINE
  5
438
100
AcDbEntity
  8
RACCORDO
100
AcDbLine
 62
250
  6
CONTINUOUS
 10
5.8865692538
 20
44.5809600841
 11
6.4417245943
 21
44.5922709831
  0
LINE
  5
439
100
AcDbEntity
  8
0
100
AcDbLine
 62
7
  6
CONTINUOUS
 10
-4.2949878479
 20
45.3218986109
 11
-4.8714378982
 21
45.309910053
  0
LINE
  5
43A
100
AcDbEntity
  8
0
100
AcDbLine
 62
7
  6
CONTINUOUS
 10
6.3553467982
 20
43.8544595092
 11
5.8369045243
 21
43.8447713969
  0
LINE
  5
43B
100
AcDbEntity
  8
0
100
AcDbLine
 62
7
  6
CONTINUOUS
 10
5.9326341587
 20
43.3593380246
 11
5.4171202401
 21
43.3499022862
  0
LINE
  5
43C
100
AcDbEntity
  8
RACCORDO
100
AcDbLine
 62
250
  6
CONTINUOUS
 10
6.8577514401
 20
42.4866895219
 11
7.5647935589
 21
42.4993051094
  0
LINE
  5
43D
100
AcDbEntity
  8
RACCORDO
100
AcDbLine
 62
250
  6
CONTINUOUS
 10
6.7067760093
 20
42.7792721526
 11
7.3982524043
 21
42.7916099979
  0
LINE
  5
43E
100
AcDbEntity
  8
0
100
AcDbLine
 62
7
  6
CONTINUOUS
 10
4.4988099791
 20
45.1794965387
 11
4.0810364266
 21
45.1720195918
  0
LINE
  5
43F
100
AcDbEntity
  8
0
100
AcDbLine
 62
7
  6
CONTINUOUS
 10
3.1646687731
 20
45.7032129653
 11
2.6924731734
 21
45.6947426734
  0
LINE
  5
440
100
AcDbEntity
  8
RACCORDO
100
AcDbLine
 62
250
  6
CONTINUOUS
 10
5.4096538493
 20
44.2780239507
 11
6.0476128613
 21
44.2885506372
  0
LINE
  5
441
100
AcDbEntity
  8
RACCORDO
100
AcDbLine
 62
250
  6
CONTINUOUS
 10
5.2655985565
 20
44.5707137471
 11
5.8865692538
 21
44.5809600841
  0
LINE
  5
442
100
AcDbEntity
  8
0
100
AcDbLine
 62
7
  6
CONTINUOUS
 10
2.7577599952
 20
45.2083952208
 11
2.3140353949
 21
45.2006511588
  0
LINE
  5
443
100
AcDbEntity
  8
0
100
AcDbLine
 62
7
  6
CONTINUOUS
 10
5.8369045243
 20
43.8447713969
 11
5.2695843351
 21
43.8359361635
  0
LINE
  5
444
100
AcDbEntity
  8
RACCORDO
100
AcDbLine
 62
250
  6
CONTINUOUS
 10
2.5708856919
 20
46.0320723301
 11
3.1149646864
 21
46.0412860533
  0
LINE
  5
445
100
AcDbEntity
  8
RACCORDO
100
AcDbLine
 62
250
  6
CONTINUOUS
 10
2.4314589858
 20
46.3248290669
 11
2.9460310974
 21
46.3335430645
  0
LINE
  5
446
100
AcDbEntity
  8
0
100
AcDbLine
 62
7
  6
CONTINUOUS
 10
5.4171202401
 20
43.3499022862
 11
4.8525480418
 21
43.3413644888
  0
LINE
  5
447
100
AcDbEntity
  8
0
100
AcDbLine
 62
7
  6
CONTINUOUS
 10
-3.6225948663
 20
45.3322538357
 11
-4.2949878479
 21
45.3218986109
  0
LINE
  5
448
100
AcDbEntity
  8
RACCORDO
100
AcDbLine
 62
250
  6
CONTINUOUS
 10
6.0801329217
 20
42.4753467343
 11
6.8577514401
 21
42.4866895219
  0
LINE
  5
449
100
AcDbEntity
  8
RACCORDO
100
AcDbLine
 62
250
  6
CONTINUOUS
 10
5.9462768263
 20
42.7681791534
 11
6.7067760093
 21
42.7792721526
  0
LINE
  5
44A
100
AcDbEntity
  8
RACCORDO
100
AcDbLine
 62
250
  6
CONTINUOUS
 10
4.7145388775
 20
44.268756115
 11
5.4096538493
 21
44.2780239507
  0
LINE
  5
44B
100
AcDbEntity
  8
RACCORDO
100
AcDbLine
 62
250
  6
CONTINUOUS
 10
4.5889938834
 20
44.5616927662
 11
5.2655985565
 21
44.5707137471
  0
LINE
  5
44C
100
AcDbEntity
  8
0
100
AcDbLine
 62
7
  6
CONTINUOUS
 10
4.0810364266
 20
45.1720195918
 11
3.3799203484
 21
45.1622615776
  0
LINE
  5
44D
100
AcDbEntity
  8
0
100
AcDbLine
 62
7
  6
CONTINUOUS
 10
-3.6010511318
 20
45.3325242482
 11
-3.6225948663
 21
45.3322538357
  0
LINE
  5
44E
100
AcDbEntity
  8
0
100
AcDbLine
 62
7
  6
CONTINUOUS
 10
5.2695843351
 20
43.8359361635
 11
4.6585009686
 21
43.828039733
  0
LINE
  5
44F
100
AcDbEntity
  8
0
100
AcDbLine
 62
7
  6
CONTINUOUS
 10
4.8525480418
 20
43.3413644888
 11
4.244030417
 21
43.333801952
  0
LINE
  5
450
100
AcDbEntity
  8
0
100
AcDbLine
 62
7
  6
CONTINUOUS
 10
2.6924731734
 20
45.6947426734
 11
2.1468339244
 21
45.6877443209
  0
LINE
  5
451
100
AcDbEntity
  8
RACCORDO
100
AcDbLine
 62
250
  6
CONTINUOUS
 10
5.2641949363
 20
42.4656644497
 11
6.0801329217
 21
42.4753467343
  0
LINE
  5
452
100
AcDbEntity
  8
RACCORDO
100
AcDbLine
 62
250
  6
CONTINUOUS
 10
5.1483019173
 20
42.7587100596
 11
5.9462768263
 21
42.7681791534
  0
LINE
  5
453
100
AcDbEntity
  8
0
100
AcDbLine
 62
7
  6
CONTINUOUS
 10
2.3140353949
 20
45.2006511588
 11
1.8
 21
45.1943694887
  0
LINE
  5
454
100
AcDbEntity
  8
0
100
AcDbLine
 62
7
  6
CONTINUOUS
 10
4.6585009686
 20
43.828039733
 11
4.0095154012
 21
43.8211520209
  0
LINE
  5
455
100
AcDbEntity
  8
RACCORDO
100
AcDbLine
 62
250
  6
CONTINUOUS
 10
1.9396032433
 20
46.0247709015
 11
2.5708856919
 21
46.0320723301
  0
LINE
  5
456
100
AcDbEntity
  8
RACCORDO
100
AcDbLine
 62
250
  6
CONTINUOUS
 10
1.8344125384
 20
46.3179237769
 11
2.4314589858
 21
46.3248290669
  0
LINE
  5
457
100
AcDbEntity
  8
0
100
AcDbLine
 62
7
  6
CONTINUOUS
 10
4.244030417
 20
43.333801952
 11
3.5970781956
 21
43.3272831634
  0
LINE
  5
458
100
AcDbEntity
  8
RACCORDO
100
AcDbLine
 62
250
  6
CONTINUOUS
 10
3.5936885469
 20
44.257492416
 11
4.7145388775
 21
44.268756115
  0
LINE
  5
459
100
AcDbEntity
  8
RACCORDO
100
AcDbLine
 62
250
  6
CONTINUOUS
 10
3.497991157
 20
44.5507289409
 11
4.5889938834
 21
44.5616927662
  0
LINE
  5
45A
100
AcDbEntity
  8
0
100
AcDbLine
 62
7
  6
CONTINUOUS
 10
3.3799203484
 20
45.1622615776
 11
2.6033024347
 21
45.1544362579
  0
LINE
  5
45B
100
AcDbEntity
  8
RACCORDO
100
AcDbLine
 62
250
  6
CONTINUOUS
 10
4.0147732843
 20
42.4543530454
 11
5.2641949363
 21
42.4656644497
  0
LINE
  5
45C
100
AcDbEntity
  8
RACCORDO
100
AcDbLine
 62
250
  6
CONTINUOUS
 10
3.9263867565
 20
42.7476476431
 11
5.1483019173
 21
42.7587100596
  0
LINE
  5
45D
100
AcDbEntity
  8
0
100
AcDbLine
 62
7
  6
CONTINUOUS
 10
4.0095154012
 20
43.8211520209
 11
3.3266491002
 21
43.8153157074
  0
LINE
  5
45E
100
AcDbEntity
  8
0
100
AcDbLine
 62
7
  6
CONTINUOUS
 10
2.1468339244
 20
45.6877443209
 11
1.5426346422
 21
45.6824088047
  0
LINE
  5
45F
100
AcDbEntity
  8
0
100
AcDbLine
 62
7
  6
CONTINUOUS
 10
3.5970781956
 20
43.3272831634
 11
2.9175502769
 21
43.321867158
  0
LINE
  5
460
100
AcDbEntity
  8
0
100
AcDbLine
 62
7
  6
CONTINUOUS
 10
1.8
 20
45.1943694887
 11
1.231272516
 21
45.1897410759
  0
LINE
  5
461
100
AcDbEntity
  8
RACCORDO
100
AcDbLine
 62
250
  6
CONTINUOUS
 10
2.422970268
 20
44.2495755846
 11
3.5936885469
 21
44.257492416
  0
LINE
  5
462
100
AcDbEntity
  8
RACCORDO
100
AcDbLine
 62
250
  6
CONTINUOUS
 10
2.3584479985
 20
44.5430231875
 11
3.497991157
 21
44.5507289409
  0
LINE
  5
463
100
AcDbEntity
  8
0
100
AcDbLine
 62
7
  6
CONTINUOUS
 10
2.6033024347
 20
45.1544362579
 11
1.7685310465
 21
45.1487184371
  0
LINE
  5
464
100
AcDbEntity
  8
0
100
AcDbLine
 62
7
  6
CONTINUOUS
 10
2.9175502769
 20
43.321867158
 11
2.2116005712
 21
43.3176029842
  0
LINE
  5
465
100
AcDbEntity
  8
RACCORDO
100
AcDbLine
 62
250
  6
CONTINUOUS
 10
2.7896690501
 20
42.4466857524
 11
4.0147732843
 21
42.4543530454
  0
LINE
  5
466
100
AcDbEntity
  8
0
100
AcDbLine
 62
7
  6
CONTINUOUS
 10
3.3266491002
 20
43.8153157074
 11
2.2528030392
 21
43.8086550841
  0
LINE
  5
467
100
AcDbEntity
  8
RACCORDO
100
AcDbLine
 62
250
  6
CONTINUOUS
 10
0.9999163474
 20
46.0184180355
 11
1.9396032433
 21
46.0247709015
  0
LINE
  5
468
100
AcDbEntity
  8
RACCORDO
100
AcDbLine
 62
250
  6
CONTINUOUS
 10
0.9456883427
 20
46.3119148539
 11
1.8344125384
 21
46.3179237769
  0
LINE
  5
469
100
AcDbEntity
  8
RACCORDO
100
AcDbLine
 62
250
  6
CONTINUOUS
 10
2.3439069966
 20
42.7383668709
 11
3.9263867565
 21
42.7476476431
  0
LINE
  5
46A
100
AcDbEntity
  8
0
100
AcDbLine
 62
7
  6
CONTINUOUS
 10
1.5426346422
 20
45.6824088047
 11
0.8963563083
 21
45.6788816637
  0
LINE
  5
46B
100
AcDbEntity
  8
0
100
AcDbLine
 62
7
  6
CONTINUOUS
 10
1.231272516
 20
45.1897410759
 11
0.6251334396
 21
45.1869065525
  0
LINE
  5
46C
100
AcDbEntity
  8
0
100
AcDbLine
 62
7
  6
CONTINUOUS
 10
2.2116005712
 20
43.3176029842
 11
1.1171714804
 21
43.3134479419
  0
LINE
  5
46D
100
AcDbEntity
  8
0
100
AcDbLine
 62
7
  6
CONTINUOUS
 10
1.7685310465
 20
45.1487184371
 11
0.8942535971
 21
45.1452358422
  0
LINE
  5
46E
100
AcDbEntity
  8
0
100
AcDbLine
 62
7
  6
CONTINUOUS
 10
2.2528030392
 20
43.8086550841
 11
1.13699152
 21
43.8046084243
  0
LINE
  5
46F
100
AcDbEntity
  8
RACCORDO
100
AcDbLine
 62
250
  6
CONTINUOUS
 10
0.963857474
 20
44.2442795088
 11
2.422970268
 21
44.2495755846
  0
LINE
  5
470
100
AcDbEntity
  8
RACCORDO
100
AcDbLine
 62
250
  6
CONTINUOUS
 10
0.9381907088
 20
44.537867698
 11
2.3584479985
 21
44.5430231875
  0
LINE
  5
471
100
AcDbEntity
  8
RACCORDO
100
AcDbLine
 62
250
  6
CONTINUOUS
 10
0.9550942614
 20
42.4406185498
 11
2.7896690501
 21
42.4466857524
  0
LINE
  5
472
100
AcDbEntity
  8
RACCORDO
100
AcDbLine
 62
250
  6
CONTINUOUS
 10
0.6106332244
 20
42.7337725319
 11
2.3439069966
 21
42.7383668709
  0
LINE
  5
473
100
AcDbEntity
  8
0
100
AcDbLine
 62
7
  6
CONTINUOUS
 10
0.8963563083
 20
45.6788816637
 11
0.226991253
 21
45.6772610811
  0
LINE
  5
474
100
AcDbEntity
  8
0
100
AcDbLine
 62
7
  6
CONTINUOUS
 10
0.6251334396
 20
45.1869065525
 11
-0.0
 21
45.1859520439
  0
LINE
  5
475
100
AcDbEntity
  8
RACCORDO
100
AcDbLine
 62
250
  6
CONTINUOUS
 10
-0.0
 20
46.0162574397
 11
0.9999163474
 21
46.0184180355
  0
LINE
  5
476
100
AcDbEntity
  8
0
100
AcDbLine
 62
7
  6
CONTINUOUS
 10
1.1171714804
 20
43.3134479419
 11
-0.0
 21
43.3120534653
  0
LINE
  5
477
100
AcDbEntity
  8
0
100
AcDbLine
 62
7
  6
CONTINUOUS
 10
1.13699152
 20
43.8046084243
 11
-0.0
 21
43.8032511096
  0
LINE
  5
478
100
AcDbEntity
  8
0
100
AcDbLine
 62
7
  6
CONTINUOUS
 10
0.8942535971
 20
45.1452358422
 11
-0.0
 21
45.1440662684
  0
LINE
  5
479
100
AcDbEntity
  8
RACCORDO
100
AcDbLine
 62
250
  6
CONTINUOUS
 10
-0.220934874
 20
46.3099814139
 11
0.9456883427
 21
46.3119148539
  0
LINE
  5
47A
100
AcDbEntity
  8
RACCORDO
100
AcDbLine
 62
250
  6
CONTINUOUS
 10
-0.6276275683
 20
44.2437176205
 11
0.963857474
 21
44.2442795088
  0
LINE
  5
47B
100
AcDbEntity
  8
RACCORDO
100
AcDbLine
 62
250
  6
CONTINUOUS
 10
-0.6109143459
 20
44.5373207543
 11
0.9381907088
 21
44.537867698
  0
LINE
  5
47C
100
AcDbEntity
  8
RACCORDO
100
AcDbLine
 62
250
  6
CONTINUOUS
 10
-0.9523190617
 20
42.4406139561
 11
0.9550942614
 21
42.4406185498
  0
LINE
  5
47D
100
AcDbEntity
  8
RACCORDO
100
AcDbLine
 62
250
  6
CONTINUOUS
 10
-1.264265682
 20
42.7348607739
 11
0.6106332244
 21
42.7337725319
  0
LINE
  5
47E
100
AcDbEntity
  8
0
100
AcDbLine
 62
7
  6
CONTINUOUS
 10
-1.5120518582
 20
43.8056612867
 11
-0.0
 21
43.8032511096
  0
LINE
  5
47F
100
AcDbEntity
  8
0
100
AcDbLine
 62
7
  6
CONTINUOUS
 10
-1.4856222682
 20
43.3145292589
 11
-0.0
 21
43.3120534653
  0
LINE
  5
480
100
AcDbEntity
  8
0
100
AcDbLine
 62
7
  6
CONTINUOUS
 10
-1.1886223156
 20
45.1461425861
 11
-0.0
 21
45.1440662684
  0
LINE
  5
481
100
AcDbEntity
  8
0
100
AcDbLine
 62
7
  6
CONTINUOUS
 10
-0.8963563083
 20
45.6788816637
 11
0.226991253
 21
45.6772610811
  0
LINE
  5
482
100
AcDbEntity
  8
RACCORDO
100
AcDbLine
 62
250
  6
CONTINUOUS
 10
-0.9569536857
 20
46.018233795
 11
-0.0
 21
46.0162574397
  0
LINE
  5
483
100
AcDbEntity
  8
RACCORDO
100
AcDbLine
 62
250
  6
CONTINUOUS
 10
-2.3895498174
 20
42.4448329843
 11
-0.9523190617
 21
42.4406139561
  0
LINE
  5
484
100
AcDbEntity
  8
RACCORDO
100
AcDbLine
 62
250
  6
CONTINUOUS
 10
-2.0337923339
 20
44.2476941585
 11
-0.6276275683
 21
44.2437176205
  0
LINE
  5
485
100
AcDbEntity
  8
RACCORDO
100
AcDbLine
 62
250
  6
CONTINUOUS
 10
-1.97963365
 20
44.5411918554
 11
-0.6109143459
 21
44.5373207543
  0
LINE
  5
486
100
AcDbEntity
  8
RACCORDO
100
AcDbLine
 62
250
  6
CONTINUOUS
 10
-2.7201318767
 20
42.740108472
 11
-1.264265682
 21
42.7348607739
  0
LINE
  5
487
100
AcDbEntity
  8
0
100
AcDbLine
 62
7
  6
CONTINUOUS
 10
-1.0327008812
 20
45.1885937239
 11
-0.0
 21
45.1859520439
  0
LINE
  5
488
100
AcDbEntity
  8
RACCORDO
100
AcDbLine
 62
250
  6
CONTINUOUS
 10
-1.1375528713
 20
46.3128494932
 11
-0.220934874
 21
46.3099814139
  0
LINE
  5
489
100
AcDbEntity
  8
RACCORDO
100
AcDbLine
 62
250
  6
CONTINUOUS
 10
-3.5896922551
 20
42.4513375336
 11
-2.3895498174
 21
42.4448329843
  0
LINE
  5
48A
100
AcDbEntity
  8
0
100
AcDbLine
 62
7
  6
CONTINUOUS
 10
-2.9748449989
 20
43.81281425
 11
-1.5120518582
 21
43.8056612867
  0
LINE
  5
48B
100
AcDbEntity
  8
0
100
AcDbLine
 62
7
  6
CONTINUOUS
 10
-2.9175502769
 20
43.321867158
 11
-1.4856222682
 21
43.3145292589
  0
LINE
  5
48C
100
AcDbEntity
  8
RACCORDO
100
AcDbLine
 62
250
  6
CONTINUOUS
 10
-3.2002726265
 20
44.2544334429
 11
-2.0337923339
 21
44.2476941585
  0
LINE
  5
48D
100
AcDbEntity
  8
RACCORDO
100
AcDbLine
 62
250
  6
CONTINUOUS
 10
-3.115051669
 20
44.5477513958
 11
-1.97963365
 21
44.5411918554
  0
LINE
  5
48E
100
AcDbEntity
  8
0
100
AcDbLine
 62
7
  6
CONTINUOUS
 10
-2.3308161575
 20
45.1522914204
 11
-1.1886223156
 21
45.1461425861
  0
LINE
  5
48F
100
AcDbEntity
  8
RACCORDO
100
AcDbLine
 62
250
  6
CONTINUOUS
 10
-3.9155194825
 20
42.7475655941
 11
-2.7201318767
 21
42.740108472
  0
LINE
  5
490
100
AcDbEntity
  8
0
100
AcDbLine
 62
7
  6
CONTINUOUS
 10
-1.7499666256
 20
45.6839960006
 11
-0.8963563083
 21
45.6788816637
  0
LINE
  5
491
100
AcDbEntity
  8
RACCORDO
100
AcDbLine
 62
250
  6
CONTINUOUS
 10
-1.9073031151
 20
46.0244714102
 11
-0.9569536857
 21
46.018233795
  0
LINE
  5
492
100
AcDbEntity
  8
RACCORDO
100
AcDbLine
 62
250
  6
CONTINUOUS
 10
-4.8360399192
 20
42.4613484345
 11
-3.5896922551
 21
42.4513375336
  0
LINE
  5
493
100
AcDbEntity
  8
0
100
AcDbLine
 62
7
  6
CONTINUOUS
 10
-4.0095154012
 20
43.8211520209
 11
-2.9748449989
 21
43.81281425
  0
LINE
  5
494
100
AcDbEntity
  8
0
100
AcDbLine
 62
7
  6
CONTINUOUS
 10
-1.8
 20
45.1943694887
 11
-1.0327008812
 21
45.1885937239
  0
LINE
  5
495
100
AcDbEntity
  8
0
100
AcDbLine
 62
7
  6
CONTINUOUS
 10
-3.925
 20
43.3304081712
 11
-2.9175502769
 21
43.321867158
  0
LINE
  5
496
100
AcDbEntity
  8
RACCORDO
100
AcDbLine
 62
250
  6
CONTINUOUS
 10
-2.0128771564
 20
46.3197037969
 11
-1.1375528713
 21
46.3128494932
  0
LINE
  5
497
100
AcDbEntity
  8
RACCORDO
100
AcDbLine
 62
250
  6
CONTINUOUS
 10
-5.1357743271
 20
42.758576726
 11
-3.9155194825
 21
42.7475655941
  0
LINE
  5
498
100
AcDbEntity
  8
RACCORDO
100
AcDbLine
 62
250
  6
CONTINUOUS
 10
-4.3423046564
 20
44.2645606249
 11
-3.2002726265
 21
44.2544334429
  0
LINE
  5
499
100
AcDbEntity
  8
RACCORDO
100
AcDbLine
 62
250
  6
CONTINUOUS
 10
-4.2266720666
 20
44.5576089699
 11
-3.115051669
 21
44.5477513958
  0
LINE
  5
49A
100
AcDbEntity
  8
RACCORDO
100
AcDbLine
 62
250
  6
CONTINUOUS
 10
-5.6618738181
 20
42.4701294943
 11
-4.8360399192
 21
42.4613484345
  0
LINE
  5
49B
100
AcDbEntity
  8
0
100
AcDbLine
 62
7
  6
CONTINUOUS
 10
-3.3799203484
 20
45.1622615776
 11
-2.3308161575
 21
45.1522914204
  0
LINE
  5
49C
100
AcDbEntity
  8
0
100
AcDbLine
 62
7
  6
CONTINUOUS
 10
-4.9694961177
 20
43.8318709611
 11
-4.0095154012
 21
43.8211520209
  0
LINE
  5
49D
100
AcDbEntity
  8
RACCORDO
100
AcDbLine
 62
250
  6
CONTINUOUS
 10
-5.9337260574
 20
42.7680142632
 11
-5.1357743271
 21
42.758576726
  0
LINE
  5
49E
100
AcDbEntity
  8
0
100
AcDbLine
 62
7
  6
CONTINUOUS
 10
-2.518272122
 20
45.6922377109
 11
-1.7499666256
 21
45.6839960006
  0
LINE
  5
49F
100
AcDbEntity
  8
RACCORDO
100
AcDbLine
 62
250
  6
CONTINUOUS
 10
-2.5442782196
 20
46.0317016856
 11
-1.9073031151
 21
46.0244714102
  0
LINE
  5
4A0
100
AcDbEntity
  8
0
100
AcDbLine
 62
7
  6
CONTINUOUS
 10
-4.8525480418
 20
43.3413644888
 11
-3.925
 21
43.3304081712
  0
LINE
  5
4A1
100
AcDbEntity
  8
RACCORDO
100
AcDbLine
 62
250
  6
CONTINUOUS
 10
-6.4644452065
 20
42.4806635242
 11
-5.6618738181
 21
42.4701294943
  0
LINE
  5
4A2
100
AcDbEntity
  8
0
100
AcDbLine
 62
7
  6
CONTINUOUS
 10
-2.3140353949
 20
45.2006511588
 11
-1.8
 21
45.1943694887
  0
LINE
  5
4A3
100
AcDbEntity
  8
RACCORDO
100
AcDbLine
 62
250
  6
CONTINUOUS
 10
-5.4025894036
 20
44.2779192086
 11
-4.3423046564
 21
44.2645606249
  0
LINE
  5
4A4
100
AcDbEntity
  8
RACCORDO
100
AcDbLine
 62
250
  6
CONTINUOUS
 10
-5.2587223104
 20
44.5706117625
 11
-4.2266720666
 21
44.5576089699
  0
LINE
  5
4A5
100
AcDbEntity
  8
RACCORDO
100
AcDbLine
 62
250
  6
CONTINUOUS
 10
-2.5896700569
 20
46.3271761357
 11
-2.0128771564
 21
46.3197037969
  0
LINE
  5
4A6
100
AcDbEntity
  8
RACCORDO
100
AcDbLine
 62
250
  6
CONTINUOUS
 10
-6.6950753381
 20
42.7790835785
 11
-5.9337260574
 21
42.7680142632
  0
LINE
  5
4A7
100
AcDbEntity
  8
0
100
AcDbLine
 62
7
  6
CONTINUOUS
 10
-4.0810364266
 20
45.1720195918
 11
-3.3799203484
 21
45.1622615776
  0
LINE
  5
4A8
100
AcDbEntity
  8
0
100
AcDbLine
 62
7
  6
CONTINUOUS
 10
3.6010511318
 20
45.3325242482
 11
4.0810364266
 21
45.3255418223
  0
LINE
  5
4A9
100
AcDbEntity
  8
0
100
AcDbLine
 62
7
  6
CONTINUOUS
 10
-5.8369045243
 20
43.8447713969
 11
-4.9694961177
 21
43.8318709611
  0
LINE
  5
4AA
100
AcDbEntity
  8
RACCORDO
100
AcDbLine
 62
250
  6
CONTINUOUS
 10
-7.2087341295
 20
42.4926363366
 11
-6.4644452065
 21
42.4806635242
  0
LINE
  5
4AB
100
AcDbEntity
  8
0
100
AcDbLine
 62
7
  6
CONTINUOUS
 10
-5.6813121991
 20
43.3545130716
 11
-4.8525480418
 21
43.3413644888
  0
LINE
  5
4AC
100
AcDbEntity
  8
RACCORDO
100
AcDbLine
 62
250
  6
CONTINUOUS
 10
-6.0412169494
 20
44.288433517
 11
-5.4025894036
 21
44.2779192086
  0
LINE
  5
4AD
100
AcDbEntity
  8
RACCORDO
100
AcDbLine
 62
250
  6
CONTINUOUS
 10
-5.8803437311
 20
44.5808460573
 11
-5.2587223104
 21
44.5706117625
  0
LINE
  5
4AE
100
AcDbEntity
  8
0
100
AcDbLine
 62
7
  6
CONTINUOUS
 10
-3.0164680338
 20
45.7002417623
 11
-2.518272122
 21
45.6922377109
  0
LINE
  5
4AF
100
AcDbEntity
  8
RACCORDO
100
AcDbLine
 62
250
  6
CONTINUOUS
 10
-7.387730049
 20
42.7914027264
 11
-6.6950753381
 21
42.7790835785
  0
LINE
  5
4B0
100
AcDbEntity
  8
0
100
AcDbLine
 62
7
  6
CONTINUOUS
 10
4.0810364266
 20
45.3255418223
 11
4.4988099791
 21
45.3180648754
  0
LINE
  5
4B1
100
AcDbEntity
  8
RACCORDO
100
AcDbLine
 62
250
  6
CONTINUOUS
 10
-3.0945693377
 20
46.0408733204
 11
-2.5442782196
 21
46.0317016856
  0
LINE
  5
4B2
100
AcDbEntity
  8
RACCORDO
100
AcDbLine
 62
250
  6
CONTINUOUS
 10
-2.9267421651
 20
46.3331526145
 11
-2.5896700569
 21
46.3271761357
  0
LINE
  5
4B3
100
AcDbEntity
  8
0
100
AcDbLine
 62
7
  6
CONTINUOUS
 10
-2.7577599952
 20
45.2083952208
 11
-2.3140353949
 21
45.2006511588
  0
LINE
  5
4B4
100
AcDbEntity
  8
0
100
AcDbLine
 62
7
  6
CONTINUOUS
 10
-4.6909888948
 20
45.1834923225
 11
-4.0810364266
 21
45.1720195918
  0
LINE
  5
4B5
100
AcDbEntity
  8
0
100
AcDbLine
 62
7
  6
CONTINUOUS
 10
-6.5955824434
 20
43.8596130177
 11
-5.8369045243
 21
43.8447713969
  0
LINE
  5
4B6
100
AcDbEntity
  8
RACCORDO
100
AcDbLine
 62
250
  6
CONTINUOUS
 10
-6.6123135801
 20
44.3000431401
 11
-6.0412169494
 21
44.288433517
  0
LINE
  5
4B7
100
AcDbEntity
  8
RACCORDO
100
AcDbLine
 62
250
  6
CONTINUOUS
 10
-6.4362324988
 20
44.5921465163
 11
-5.8803437311
 21
44.5808460573
  0
LINE
  5
4B8
100
AcDbEntity
  8
0
100
AcDbLine
 62
7
  6
CONTINUOUS
 10
-3.3037271364
 20
45.7063310505
 11
-3.0164680338
 21
45.7002417623
  0
LWPOLYLINE
  5
4B9
100
AcDbEntity
  8
RACCORDO
100
AcDbPolyline
 62
250
  6
CONTINUOUS
 90
3
 70
0
 10
-8.1856926834
 20
42.5128415904
 10
-7.8800752384
 20
42.5058374001
 10
-7.2087341295
 20
42.4926363366
  0
LINE
  5
4BA
100
AcDbEntity
  8
RACCORDO
100
AcDbLine
 62
250
  6
CONTINUOUS
 10
-8.0054823004
 20
42.8048484536
 11
-7.387730049
 21
42.7914027264
  0
LINE
  5
4BB
100
AcDbEntity
  8
0
100
AcDbLine
 62
7
  6
CONTINUOUS
 10
4.4988099791
 20
45.3180648754
 11
4.8714378982
 21
45.309910053
  0
LINE
  5
4BC
100
AcDbEntity
  8
0
100
AcDbLine
 62
7
  6
CONTINUOUS
 10
-6.3944212236
 20
43.3695862526
 11
-5.6813121991
 21
43.3545130716
  0
LINE
  5
4BD
100
AcDbEntity
  8
RACCORDO
100
AcDbLine
 62
250
  6
CONTINUOUS
 10
-3.4029938098
 20
46.0479014638
 11
-3.0945693377
 21
46.0408733204
  0
LINE
  5
4BE
100
AcDbEntity
  8
RACCORDO
100
AcDbLine
 62
250
  6
CONTINUOUS
 10
-3.2184400229
 20
46.3397995705
 11
-2.9267421651
 21
46.3331526145
  0
LINE
  5
4BF
100
AcDbEntity
  8
0
100
AcDbLine
 62
7
  6
CONTINUOUS
 10
-3.0078347488
 20
45.2142598384
 11
-2.7577599952
 21
45.2083952208
  0
LINE
  5
4C0
100
AcDbEntity
  8
0
100
AcDbLine
 62
7
  6
CONTINUOUS
 10
-5.0402436859
 20
45.1919724481
 11
-4.6909888948
 21
45.1834923225
  0
LINE
  5
4C1
100
AcDbEntity
  8
0
100
AcDbLine
 62
7
  6
CONTINUOUS
 10
-7.0336076148
 20
43.8704429392
 11
-6.5955824434
 21
43.8596130177
  0
LINE
  5
4C2
100
AcDbEntity
  8
RACCORDO
100
AcDbLine
 62
250
  6
CONTINUOUS
 10
-7.1096165921
 20
44.3126084665
 11
-6.6123135801
 21
44.3000431401
  0
LINE
  5
4C3
100
AcDbEntity
  8
RACCORDO
100
AcDbLine
 62
250
  6
CONTINUOUS
 10
-6.9202926879
 20
44.6043772393
 11
-6.4362324988
 21
44.5921465163
  0
LINE
  5
4C4
100
AcDbEntity
  8
RACCORDO
100
AcDbLine
 62
250
  6
CONTINUOUS
 10
-8.5424391979
 20
42.8192799533
 11
-8.0054823004
 21
42.8048484536
  0
LINE
  5
4C5
100
AcDbEntity
  8
0
100
AcDbLine
 62
7
  6
CONTINUOUS
 10
-6.7982994197
 20
43.3805541605
 11
-6.3944212236
 21
43.3695862526
  0
LINE
  5
4C6
100
AcDbEntity
  8
0
100
AcDbLine
 62
7
  6
CONTINUOUS
 10
4.8714378982
 20
45.309910053
 11
5.1961524227
 21
45.3011379264
  0
LWPOLYLINE
  5
4C7
100
AcDbEntity
  8
0
100
AcDbPolyline
 62
7
  6
CONTINUOUS
 90
3
 70
0
 10
-3.658295417
 20
45.7163991629
 10
-3.5505404583
 20
45.7129241492
 10
-3.3037271364
 20
45.7063310505
  0
LWPOLYLINE
  5
4C8
100
AcDbEntity
  8
0
100
AcDbPolyline
 62
7
  6
CONTINUOUS
 90
10
 70
0
 10
5.1961524227
 20
45.3011379264
 10
5.4690866775
 20
45.2918440539
 10
5.5852424919
 20
45.2870371873
 10
5.6874322948
 20
45.2821346596
 10
5.7757593101
 20
45.2771371779
 10
5.8495674731
 20
45.2720818618
 10
5.9087486747
 20
45.2669682806
 10
5.9534110239
 20
45.2617968651
 10
5.9832227831
 20
45.2566060269
 10
5.9872670073
 20
45.2555990785
  0
LWPOLYLINE
  5
4C9
100
AcDbEntity
  8
0
100
AcDbPolyline
 62
7
  6
CONTINUOUS
 90
5
 70
0
 10
-7.8678786997
 20
43.9001775033
 10
-7.7325045921
 20
43.8939829184
 10
-7.5808456296
 20
43.8878893418
 10
-7.4138415737
 20
43.8819345325
 10
-7.0336076148
 20
43.8704429392
  0
LINE
  5
4CA
100
AcDbEntity
  8
0
100
AcDbLine
 62
7
  6
CONTINUOUS
 10
9.4513417461
 20
41.6543478923
 11
11.6029477407
 21
41.0791389972
  0
LINE
  5
4CB
100
AcDbEntity
  8
0
100
AcDbLine
 62
7
  6
CONTINUOUS
 10
7.8511145721
 20
43.4532239848
 11
9.8566648691
 21
42.9170615213
  0
LINE
  5
4CC
100
AcDbEntity
  8
0
100
AcDbLine
 62
7
  6
CONTINUOUS
 10
5.9872555597
 20
45.2556021396
 11
8.1103819975
 21
44.6880069499
  0
LINE
  5
4CD
100
AcDbEntity
  8
0
100
AcDbLine
 62
7
  6
CONTINUOUS
 10
0.9978759266
 20
47.1496282333
 11
3.8694093095
 21
46.3819544358
  0
LWPOLYLINE
  5
4CE
100
AcDbEntity
  8
RACCORDO
100
AcDbPolyline
 62
7
  6
CONTINUOUS
 90
19
 70
0
 10
11.6029478521
 20
41.0791389674
 10
11.61316013
 20
41.076289416
 10
11.6242276743
 20
41.0729113985
 10
11.6361451014
 20
41.0688990934
 10
11.6486645694
 20
41.0642199707
 10
11.6619880024
 20
41.0586631513
 10
11.6767338185
 20
41.0517457105
 10
11.6929627663
 20
41.0430950966
 10
11.7102995585
 20
41.0325001317
 10
11.7285944665
 20
41.0195758102
 10
11.7476645248
 20
41.0038479066
 10
11.7669144419
 20
40.9850928077
 10
11.7855166751
 20
40.9633929897
 10
11.8029764534
 20
40.9385558173
 10
11.8186651001
 20
40.910544328
 10
11.831707652
 20
40.8799819257
 10
11.841556552
 20
40.8472844737
 10
11.847813162
 20
40.8125552306
 10
11.85
 20
40.7761858505
  0
LWPOLYLINE
  5
4CF
100
AcDbEntity
  8
RACCORDO
100
AcDbPolyline
 62
7
  6
CONTINUOUS
 90
19
 70
0
 10
9.8566649278
 20
42.9170615056
 10
9.8666201597
 20
42.9142794458
 10
9.8775505009
 20
42.9109273493
 10
9.8894467828
 20
42.9068876495
 10
9.9020840694
 20
42.9021036259
 10
9.9156242185
 20
42.8963580758
 10
9.9305859423
 20
42.8891872182
 10
9.9470623922
 20
42.8801804093
 10
9.9646151802
 20
42.8691412528
 10
9.982874038
 20
42.8558353501
 10
10.001561173
 20
42.8399305202
 10
10.020233583
 20
42.8211783703
 10
10.0382238843
 20
42.7995788249
 10
10.055102348
 20
42.7748873875
 10
10.0702095464
 20
42.7471488169
 10
10.0826847285
 20
42.7170724332
 10
10.0920375167
 20
42.6851070156
 10
10.0979451083
 20
42.6513257623
 10
10.1
 20
42.6160979591
  0
LWPOLYLINE
  5
4D0
100
AcDbEntity
  8
RACCORDO
100
AcDbPolyline
 62
7
  6
CONTINUOUS
 90
19
 70
0
 10
8.1103821084
 20
44.6880069203
 10
8.1201597338
 20
44.6852687725
 10
8.1310414165
 20
44.681910027
 10
8.1430110344
 20
44.6777992091
 10
8.1558981223
 20
44.6728388411
 10
8.169788504
 20
44.6668124598
 10
8.1850035886
 20
44.6593213164
 10
8.2015992569
 20
44.6499722923
 10
8.2191618563
 20
44.6385670214
 10
8.2372343684
 20
44.6249548748
 10
8.2554875466
 20
44.6089033962
 10
8.2735732223
 20
44.5901620016
 10
8.2909546789
 20
44.5686587138
 10
8.3072665291
 20
44.5440835994
 10
8.3218089508
 20
44.5165681975
 10
8.3337118753
 20
44.4869600754
 10
8.3425475184
 20
44.4557633638
 10
8.3480860254
 20
44.4230053069
 10
8.35
 20
44.3890329722
  0
LWPOLYLINE
  5
4D1
100
AcDbEntity
  8
RACCORDO
100
AcDbPolyline
 62
7
  6
CONTINUOUS
 90
16
 70
0
 10
3.8694093471
 20
46.3819544258
 10
3.8818743255
 20
46.3783794918
 10
3.895934283
 20
46.3737277638
 10
3.9115344834
 20
46.367727372
 10
3.9284348509
 20
46.3601362714
 10
3.9466184696
 20
46.350567664
 10
3.9662212776
 20
46.3384176578
 10
3.9871280242
 20
46.3230193057
 10
4.0084977881
 20
46.3041143246
 10
4.0292591288
 20
46.2817945028
 10
4.0489098911
 20
46.2556640144
 10
4.0665314517
 20
46.2258097637
 10
4.0808209518
 20
46.1935738242
 10
4.0912806993
 20
46.1597569059
 10
4.0977755302
 20
46.1243483467
 10
4.1
 20
46.0878123061
  0
LWPOLYLINE
  5
4D2
100
AcDbEntity
  8
0
100
AcDbPolyline
 62
7
  6
CONTINUOUS
 90
10
 70
0
 10
0.9978905893
 20
47.1496243066
 10
0.9991191665
 20
47.1491970743
 10
0.9991191665
 20
47.1477855815
 10
0.9927088741
 20
47.1463876727
 10
0.9797641084
 20
47.1450036112
 10
0.9604090503
 20
47.1436331338
 10
0.9350162427
 20
47.1423026193
 10
0.9034687216
 20
47.1410128416
 10
0.865883451
 20
47.1397630268
 10
0.8229838659
 20
47.138577231
  0
LWPOLYLINE
  5
4D3
100
AcDbEntity
  8
0
100
AcDbPolyline
 62
7
  6
CONTINUOUS
 90
11
 70
0
 10
5.9872670073
 20
45.2555990785
 10
5.9980733731
 20
45.2513956213
 10
5.9980733731
 20
45.2461657929
 10
5.9832227831
 20
45.2409553873
 10
5.9534110239
 20
45.235764549
 10
5.9087486747
 20
45.2305931335
 10
5.8495674731
 20
45.2254795524
 10
5.7757593101
 20
45.2204242363
 10
5.6874322948
 20
45.2154267545
 10
5.5852424919
 20
45.2105242268
 10
5.4690866775
 20
45.2057173602
  0
LWPOLYLINE
  5
4D4
100
AcDbEntity
  8
0
100
AcDbPolyline
 62
250
  6
CONTINUOUS
 90
7
 70
0
 10
50.4499217156
 20
18.7146603298
 10
50.443771556
 20
18.8137892356
 10
50.4253864941
 20
18.9113901219
 10
50.3950499258
 20
19.0059585221
 10
50.3532294733
 20
19.0960367135
 10
50.300569777
 20
19.1802361877
 10
50.2507881333
 20
19.2429310727
  0
LWPOLYLINE
  5
4D5
100
AcDbEntity
  8
0
100
AcDbPolyline
 62
7
  6
CONTINUOUS
 90
16
 70
0
 10
50.3730280729
 20
18.7574478069
 10
50.3704969741
 20
18.80771504
 10
50.3649046485
 20
18.8576165768
 10
50.3562345166
 20
18.9071524172
 10
50.3444938128
 20
18.9564633119
 10
50.3296757168
 20
19.0054085102
 10
50.3117255478
 20
19.0535657603
 10
50.2906597744
 20
19.1009222254
 10
50.2664595982
 20
19.1474907423
 10
50.2389422007
 20
19.1928875697
 10
50.208070657
 20
19.2372010645
 10
50.17382556
 20
19.2803428699
 10
50.1359556849
 20
19.3216641739
 10
50.094331806
 20
19.3609487058
 10
50.0490113624
 20
19.3984127365
 10
50.0
 20
19.4340562657
  0
LINE
  5
4D6
100
AcDbEntity
  8
0
100
AcDbLine
 62
250
  6
CONTINUOUS
 10
50.4588137117
 20
25.8218287466
 11
50.4610712909
 21
25.7353225204
  0
LINE
  5
4D7
100
AcDbEntity
  8
0
100
AcDbLine
 62
250
  6
CONTINUOUS
 10
50.4610712909
 20
25.7353225204
 11
50.4630742565
 21
25.6297679722
  0
LINE
  5
4D8
100
AcDbEntity
  8
0
100
AcDbLine
 62
250
  6
CONTINUOUS
 10
50.4630742565
 20
25.6297679722
 11
50.4654913855
 21
25.4423756748
  0
LINE
  5
4D9
100
AcDbEntity
  8
0
100
AcDbLine
 62
7
  6
CONTINUOUS
 10
50.4421891335
 20
-9.9167197289
 11
50.4305634789
 21
-8.5668032065
  0
LINE
  5
4DA
100
AcDbEntity
  8
0
100
AcDbLine
 62
7
  6
CONTINUOUS
 10
50.7897880096
 20
1.5848322603
 11
50.8014136642
 21
0.2349157379
  0
LINE
  5
4DB
100
AcDbEntity
  8
0
100
AcDbLine
 62
250
  6
CONTINUOUS
 10
50.4654913855
 20
25.4423756748
 11
50.4670911746
 21
25.2306487194
  0
LINE
  5
4DC
100
AcDbEntity
  8
0
100
AcDbLine
 62
7
  6
CONTINUOUS
 10
50.4305634789
 20
-8.5668032065
 11
50.4221251231
 21
-7.1412396727
  0
LINE
  5
4DD
100
AcDbEntity
  8
0
100
AcDbLine
 62
7
  6
CONTINUOUS
 10
50.8014136642
 20
0.2349157379
 11
50.80985202
 21
-1.1906477959
  0
LINE
  5
4DE
100
AcDbEntity
  8
0
100
AcDbLine
 62
7
  6
CONTINUOUS
 10
50.4221251231
 20
-7.1412396727
 11
50.4170163402
 21
-5.6712159736
  0
LINE
  5
4DF
100
AcDbEntity
  8
0
100
AcDbLine
 62
7
  6
CONTINUOUS
 10
50.80985202
 20
-1.1906477959
 11
50.814960803
 21
-2.6606714951
  0
LINE
  5
4E0
100
AcDbEntity
  8
0
100
AcDbLine
 62
7
  6
CONTINUOUS
 10
50.4170163402
 20
-5.6712159736
 11
50.4152858976
 21
-4.1659437343
  0
LINE
  5
4E1
100
AcDbEntity
  8
0
100
AcDbLine
 62
250
  6
CONTINUOUS
 10
50.4670911746
 20
25.2306487194
 11
50.4678629402
 21
24.9340562657
  0
LINE
  5
4E2
100
AcDbEntity
  8
0
100
AcDbLine
 62
7
  6
CONTINUOUS
 10
50.814960803
 20
-2.6606714951
 11
50.8166912456
 21
-4.1659437343
  0
LINE
  5
4E3
100
AcDbEntity
  8
DRAFT
100
AcDbLine
 62
7
  6
CONTINUOUS
 10
49.0
 20
-38.1659437343
 11
49.0
 21
-39.6659437343
  0
LINE
  5
4E4
100
AcDbEntity
  8
DRAFT
100
AcDbLine
 62
7
  6
CONTINUOUS
 10
49.0
 20
29.8340562657
 11
49.0
 21
31.3340562657
  0
LINE
  5
4E5
100
AcDbEntity
  8
RACCORDO
100
AcDbLine
 62
250
  6
CONTINUOUS
 10
49.2731956082
 20
-37.8901537084
 11
49.2731956082
 21
29.5582662398
  0
LINE
  5
4E6
100
AcDbEntity
  8
RACCORDO
100
AcDbLine
 62
7
  6
CONTINUOUS
 10
49.2757899725
 20
-37.8901537618
 11
49.2757899725
 21
-39.6659437343
  0
LINE
  5
4E7
100
AcDbEntity
  8
RACCORDO
100
AcDbLine
 62
7
  6
CONTINUOUS
 10
49.2757899725
 20
29.5582662932
 11
49.2757899725
 21
31.3340562657
  0
LINE
  5
4E8
100
AcDbEntity
  8
0
100
AcDbLine
 62
7
  6
CONTINUOUS
 10
50.0
 20
19.4340562657
 11
50.0
 21
25.2340562657
  0
LINE
  5
4E9
100
AcDbEntity
  8
0
100
AcDbLine
 62
250
  6
CONTINUOUS
 10
50.3730280729
 20
-39.6659437343
 11
50.3730280729
 21
18.7574541242
  0
LINE
  5
4EA
100
AcDbEntity
  8
0
100
AcDbLine
 62
250
  6
CONTINUOUS
 10
50.3730280729
 20
25.9106584028
 11
50.3730280729
 21
31.3340562657
  0
LINE
  5
4EB
100
AcDbEntity
  8
ASSI
100
AcDbLine
 62
7
  6
CONTINUOUS
 10
51.0
 20
31.3340562657
 11
51.0
 21
-39.6659437343
  0
LINE
  5
4EC
100
AcDbEntity
  8
DRAFT
100
AcDbLine
 62
7
  6
CONTINUOUS
 10
51.0
 20
-39.6659437343
 11
51.0
 21
31.3340562657
  0
LINE
  5
4ED
100
AcDbEntity
  8
0
100
AcDbLine
 62
7
  6
CONTINUOUS
 10
50.4152858976
 20
-4.1659437343
 11
50.4170163402
 21
-2.6606714951
  0
LINE
  5
4EE
100
AcDbEntity
  8
0
100
AcDbLine
 62
7
  6
CONTINUOUS
 10
50.8166912456
 20
-4.1659437343
 11
50.814960803
 21
-5.6712159736
  0
LINE
  5
4EF
100
AcDbEntity
  8
0
100
AcDbLine
 62
250
  6
CONTINUOUS
 10
50.4678629402
 20
24.9340562657
 11
50.4674316089
 21
19.5109556641
  0
LINE
  5
4F0
100
AcDbEntity
  8
0
100
AcDbLine
 62
7
  6
CONTINUOUS
 10
50.4170163402
 20
-2.6606714951
 11
50.4221251231
 21
-1.1906477959
  0
LINE
  5
4F1
100
AcDbEntity
  8
0
100
AcDbLine
 62
7
  6
CONTINUOUS
 10
50.814960803
 20
-5.6712159736
 11
50.80985202
 21
-7.1412396727
  0
LINE
  5
4F2
100
AcDbEntity
  8
0
100
AcDbLine
 62
7
  6
CONTINUOUS
 10
50.4221251231
 20
-1.1906477959
 11
50.4305634789
 21
0.2349157379
  0
LINE
  5
4F3
100
AcDbEntity
  8
0
100
AcDbLine
 62
7
  6
CONTINUOUS
 10
50.80985202
 20
-7.1412396727
 11
50.8014136642
 21
-8.5668032065
  0
LINE
  5
4F4
100
AcDbEntity
  8
0
100
AcDbLine
 62
250
  6
CONTINUOUS
 10
50.4674316089
 20
19.5109556641
 11
50.4661207853
 21
19.2940826985
  0
LWPOLYLINE
  5
4F5
100
AcDbEntity
  8
0
100
AcDbPolyline
 62
7
  6
CONTINUOUS
 90
18
 70
0
 10
50.4305634789
 20
0.2349157379
 10
50.4421891335
 20
1.5848322603
 10
50.449110397
 20
2.2231139454
 10
50.4567533477
 20
2.8337652894
 10
50.4651088577
 20
3.4171357553
 10
50.4740703498
 20
3.9657842493
 10
50.4836455863
 20
4.4792659896
 10
50.4938268048
 20
4.9580257582
 10
50.5044841402
 20
5.3959568072
 10
50.5156236916
 20
5.7925361284
 10
50.52723936
 20
6.1482867302
 10
50.5391829834
 20
6.4586708896
 10
50.551458763
 20
6.7231074709
 10
50.5640624976
 20
6.9421776098
 10
50.5768334223
 20
7.1130869903
 10
50.5897736787
 20
7.2352186822
 10
50.6028811251
 20
7.3091896156
 10
50.6160501144
 20
7.334055725
  0
LWPOLYLINE
  5
4F6
100
AcDbEntity
  8
0
100
AcDbPolyline
 62
7
  6
CONTINUOUS
 90
18
 70
0
 10
50.8014136642
 20
-8.5668032065
 10
50.7897880096
 20
-9.9167197289
 10
50.7828667461
 20
-10.555001414
 10
50.7752237955
 20
-11.1656527581
 10
50.7668682854
 20
-11.7490232239
 10
50.7579067934
 20
-12.297671718
 10
50.7483315569
 20
-12.8111534583
 10
50.7381503384
 20
-13.2899132268
 10
50.727493003
 20
-13.7278442758
 10
50.7163534516
 20
-14.124423597
 10
50.7047377832
 20
-14.4801741988
 10
50.6927941598
 20
-14.7905583582
 10
50.6805183802
 20
-15.0549949395
 10
50.6679146456
 20
-15.2740650784
 10
50.6551437209
 20
-15.4449744589
 10
50.6422034645
 20
-15.5671061508
 10
50.629096018
 20
-15.6410770843
 10
50.6160501144
 20
-15.6659431937
  0
LINE
  5
4F7
100
AcDbEntity
  8
0
100
AcDbLine
 62
250
  6
CONTINUOUS
 10
50.4661207853
 20
19.2940826985
 11
50.4639629443
 21
19.0971064661
  0
LINE
  5
4F8
100
AcDbEntity
  8
0
100
AcDbLine
 62
250
  6
CONTINUOUS
 10
50.4639629443
 20
19.0971064661
 11
50.4621041784
 21
18.983220321
  0
LWPOLYLINE
  5
4F9
100
AcDbEntity
  8
0
100
AcDbPolyline
 62
250
  6
CONTINUOUS
 90
10
 70
0
 10
50.4621041784
 20
18.983220321
 10
50.4599739011
 20
18.8871888144
 10
50.4588137699
 20
18.8462857618
 10
50.4576157877
 20
18.8107937633
 10
50.4563793714
 20
18.7808838809
 10
50.4551051041
 20
18.7563850527
 10
50.4538195516
 20
18.7374936466
 10
50.4525315691
 20
18.7242751188
 10
50.4512323014
 20
18.7166640131
 10
50.4499217485
 20
18.7146603297
  0
LWPOLYLINE
  5
4FA
100
AcDbEntity
  8
0
100
AcDbPolyline
 62
250
  6
CONTINUOUS
 90
7
 70
0
 10
50.4499331765
 20
25.9534522013
 10
50.4437808514
 20
25.8543231122
 10
50.4253937556
 20
25.7567222884
 10
50.3950553101
 20
25.6621541619
 10
50.3532331559
 20
25.5720764184
 10
50.3005719449
 20
25.487877528
 10
50.2622676169
 20
25.438532967
  0
LWPOLYLINE
  5
4FB
100
AcDbEntity
  8
0
100
AcDbPolyline
 62
250
  6
CONTINUOUS
 90
10
 70
0
 10
30.880604064
 20
-45.1158654828
 10
30.8848625509
 20
-45.1072388413
 10
30.8892435555
 20
-45.0986328883
 10
30.8937470778
 20
-45.0900476238
 10
30.8983710152
 20
-45.081482999
 10
30.9031174702
 20
-45.0729390626
 10
30.9079927513
 20
-45.0644159607
 10
30.912998961
 20
-45.0559137418
 10
30.9181339968
 20
-45.0474323573
 10
30.9233978585
 20
-45.0389718072
  0
LWPOLYLINE
  5
4FC
100
AcDbEntity
  8
0
100
AcDbPolyline
 62
7
  6
CONTINUOUS
 90
8
 70
0
 10
-0.8229838659
 20
47.1584054247
 10
-0.865883451
 20
47.1572196289
 10
-0.9034687216
 20
47.1559698141
 10
-0.9350162427
 20
47.1546800365
 10
-0.9604090503
 20
47.1533495219
 10
-0.9797641084
 20
47.1519790445
 10
-0.9927088741
 20
47.150594983
 10
-0.9978905893
 20
47.1496243066
  0
LINE
  5
4FD
100
AcDbEntity
  8
0
100
AcDbLine
 62
7
  6
CONTINUOUS
 10
0.8229838659
 20
47.138577231
 11
0.7210358529
 21
47.1364001769
  0
LINE
  5
4FE
100
AcDbEntity
  8
0
100
AcDbLine
 62
7
  6
CONTINUOUS
 10
-0.7210358529
 20
47.1605824788
 11
-0.8229838659
 21
47.1584054247
  0
LINE
  5
4FF
100
AcDbEntity
  8
0
100
AcDbLine
 62
7
  6
CONTINUOUS
 10
0.7210358529
 20
47.1364001769
 11
0.6008444806
 21
47.1345418401
  0
LINE
  5
500
100
AcDbEntity
  8
0
100
AcDbLine
 62
7
  6
CONTINUOUS
 10
-0.6008444806
 20
47.1624408157
 11
-0.7210358529
 21
47.1605824788
  0
LINE
  5
501
100
AcDbEntity
  8
0
100
AcDbLine
 62
7
  6
CONTINUOUS
 10
0.6008444806
 20
47.1345418401
 11
0.3921030472
 21
47.1324376792
  0
LINE
  5
502
100
AcDbEntity
  8
0
100
AcDbLine
 62
7
  6
CONTINUOUS
 10
-0.3921030472
 20
47.1645449765
 11
-0.6008444806
 21
47.1624408157
  0
LINE
  5
503
100
AcDbEntity
  8
0
100
AcDbLine
 62
7
  6
CONTINUOUS
 10
0.3921030472
 20
47.1324376792
 11
0.1610891269
 21
47.1312675896
  0
LINE
  5
504
100
AcDbEntity
  8
0
100
AcDbLine
 62
7
  6
CONTINUOUS
 10
-0.1610891269
 20
47.1657150661
 11
-0.3921030472
 21
47.1645449765
  0
LINE
  5
505
100
AcDbEntity
  8
0
100
AcDbLine
 62
7
  6
CONTINUOUS
 10
-0.1610891269
 20
47.1312675896
 11
0.1610891269
 21
47.1312675896
  0
LINE
  5
506
100
AcDbEntity
  8
0
100
AcDbLine
 62
7
  6
CONTINUOUS
 10
-0.1610891269
 20
47.1657150661
 11
0.1610891269
 21
47.1657150661
  0
LINE
  5
507
100
AcDbEntity
  8
0
100
AcDbLine
 62
7
  6
CONTINUOUS
 10
-0.3921030472
 20
47.1324376792
 11
-0.1610891269
 21
47.1312675896
  0
LINE
  5
508
100
AcDbEntity
  8
0
100
AcDbLine
 62
7
  6
CONTINUOUS
 10
0.1610891269
 20
47.1657150661
 11
0.3921030472
 21
47.1645449765
  0
LINE
  5
509
100
AcDbEntity
  8
0
100
AcDbLine
 62
7
  6
CONTINUOUS
 10
-0.6008444806
 20
47.1345418401
 11
-0.3921030472
 21
47.1324376792
  0
LINE
  5
50A
100
AcDbEntity
  8
0
100
AcDbLine
 62
7
  6
CONTINUOUS
 10
0.3921030472
 20
47.1645449765
 11
0.6008444806
 21
47.1624408157
  0
LINE
  5
50B
100
AcDbEntity
  8
0
100
AcDbLine
 62
7
  6
CONTINUOUS
 10
-0.7210358529
 20
47.1364001769
 11
-0.6008444806
 21
47.1345418401
  0
LINE
  5
50C
100
AcDbEntity
  8
0
100
AcDbLine
 62
7
  6
CONTINUOUS
 10
0.6008444806
 20
47.1624408157
 11
0.7210358529
 21
47.1605824788
  0
LWPOLYLINE
  5
50D
100
AcDbEntity
  8
0
100
AcDbPolyline
 62
7
  6
CONTINUOUS
 90
9
 70
0
 10
0.7210358529
 20
47.1605824788
 10
0.8229838659
 20
47.1584054247
 10
0.865883451
 20
47.1572196289
 10
0.9034687216
 20
47.1559698141
 10
0.9350162427
 20
47.1546800365
 10
0.9604090503
 20
47.1533495219
 10
0.9797641084
 20
47.1519790445
 10
0.9927088741
 20
47.150594983
 10
0.9978905893
 20
47.1496243066
  0
LWPOLYLINE
  5
50E
100
AcDbEntity
  8
0
100
AcDbPolyline
 62
7
  6
CONTINUOUS
 90
5
 70
0
 10
50.2507881333
 20
19.2429310727
 10
50.2378825585
 20
19.2572590537
 10
50.1661341085
 20
19.325918044
 10
50.086430392
 20
19.385154816
 10
50.0
 20
19.4340562657
  0
LWPOLYLINE
  5
50F
100
AcDbEntity
  8
0
100
AcDbPolyline
 62
7
  6
CONTINUOUS
 90
17
 70
0
 10
50.6160501144
 20
7.334055725
 10
50.629096018
 20
7.3091896156
 10
50.6422034645
 20
7.2352186822
 10
50.6551437209
 20
7.1130869903
 10
50.6679146456
 20
6.9421776098
 10
50.6805183802
 20
6.7231074709
 10
50.6927941598
 20
6.4586708896
 10
50.7047377832
 20
6.1482867302
 10
50.7163534516
 20
5.7925361284
 10
50.727493003
 20
5.3959568072
 10
50.7381503384
 20
4.9580257582
 10
50.7483315569
 20
4.4792659896
 10
50.7579067934
 20
3.9657842493
 10
50.7668682854
 20
3.4171357553
 10
50.7752237955
 20
2.8337652894
 10
50.7828667461
 20
2.2231139454
 10
50.7897880096
 20
1.5848322603
  0
LWPOLYLINE
  5
510
100
AcDbEntity
  8
0
100
AcDbPolyline
 62
7
  6
CONTINUOUS
 90
5
 70
0
 10
31.408874807
 20
-44.9167318676
 10
31.423202788
 20
-44.9038262928
 10
31.4918617783
 20
-44.8320778428
 10
31.5510985504
 20
-44.7523741263
 10
31.6
 20
-44.6659437343
  0
LINE
  5
511
100
AcDbEntity
  8
DRAFT
100
AcDbLine
 62
7
  6
CONTINUOUS
 10
49.0
 20
29.8340562657
 11
49.2757899725
 21
29.5582662932
  0
LINE
  5
512
100
AcDbEntity
  8
DRAFT
100
AcDbLine
 62
7
  6
CONTINUOUS
 10
43.5
 20
35.3340562657
 11
43.2242099741
 21
35.6098462916
  0
LWPOLYLINE
  5
513
100
AcDbEntity
  8
0
100
AcDbPolyline
 62
250
  6
CONTINUOUS
 90
8
 70
0
 10
38.119395936
 20
-45.1158654828
 10
38.1173922733
 20
-45.1171760218
 10
38.1097812694
 20
-45.1184752779
 10
38.0965629243
 20
-45.1197632511
 10
38.0776717726
 20
-45.1210487978
 10
38.0531732796
 20
-45.1223230615
 10
38.0232638417
 20
-45.1235594731
 10
37.9877724809
 20
-45.124757446
  0
LWPOLYLINE
  5
514
100
AcDbEntity
  8
0
100
AcDbPolyline
 62
250
  6
CONTINUOUS
 90
8
 70
0
 10
50.4499217485
 20
25.9534522017
 10
50.4512322875
 20
25.951448539
 10
50.4525315436
 20
25.9438375351
 10
50.4538195167
 20
25.93061919
 10
50.4551050635
 20
25.9117280383
 10
50.4563793272
 20
25.8872295453
 10
50.4576157388
 20
25.8573201074
 10
50.4588137117
 20
25.8218287466
  0
LINE
  5
515
100
AcDbEntity
  8
DRAFT
100
AcDbLine
 62
7
  6
CONTINUOUS
 10
43.5
 20
-43.6659437343
 11
43.2242099741
 21
-43.9417337602
  0
LINE
  5
516
100
AcDbEntity
  8
DRAFT
100
AcDbLine
 62
7
  6
CONTINUOUS
 10
49.0
 20
-38.1659437343
 11
49.2757899725
 21
-37.8901537618
  0
CIRCLE
  5
517
100
AcDbEntity
  8
RACCORDO
100
AcDbCircle
 62
7
  6
CONTINUOUS
 10
-34.5
 20
-30.6659437343
 40
9.5
  0
CIRCLE
  5
518
100
AcDbEntity
  8
RACCORDO
100
AcDbCircle
 62
250
  6
CONTINUOUS
 10
-34.5
 20
-30.6659437343
 40
8.9999983613
  0
ARC
  5
519
100
AcDbEntity
  8
ASSI
100
AcDbCircle
 62
7
  6
CONTINUOUS
 10
-45.0
 20
-39.6659437343
 40
6.0
100
AcDbArc
 50
180.0
 51
264.9524228029
  0
ARC
  5
51A
100
AcDbEntity
  8
DRAFT
100
AcDbCircle
 62
7
  6
CONTINUOUS
 10
-45.0
 20
-39.6659437343
 40
6.0
100
AcDbArc
 50
180.0
 51
270.0
  0
ARC
  5
51B
100
AcDbEntity
  8
RACCORDO
100
AcDbCircle
 62
250
  6
CONTINUOUS
 10
-45.0
 20
-39.6659437343
 40
5.3730280706
100
AcDbArc
 50
180.0
 51
270.0
  0
ARC
  5
51C
100
AcDbEntity
  8
RACCORDO
100
AcDbCircle
 62
7
  6
CONTINUOUS
 10
-45.0
 20
-39.6659437343
 40
4.2757899725
100
AcDbArc
 50
180.0
 51
270.0
  0
ARC
  5
51D
100
AcDbEntity
  8
DRAFT
100
AcDbCircle
 62
7
  6
CONTINUOUS
 10
-45.0
 20
-39.6659437343
 40
4.0
100
AcDbArc
 50
180.0
 51
270.0
  0
CIRCLE
  5
51E
100
AcDbEntity
  8
0
100
AcDbCircle
 62
7
  6
CONTINUOUS
 10
-34.5
 20
-30.6659437343
 40
2.25
  0
CIRCLE
  5
51F
100
AcDbEntity
  8
0
100
AcDbCircle
 62
7
  6
CONTINUOUS
 10
-34.5
 20
-30.6659437343
 40
1.8
  0
ARC
  5
520
100
AcDbEntity
  8
DRAFT
100
AcDbCircle
 62
7
  6
CONTINUOUS
 10
-45.0
 20
-39.6659437343
 40
1.7757900259
100
AcDbArc
 50
0.0
 51
90.0
  0
CIRCLE
  5
521
100
AcDbEntity
  8
0
100
AcDbCircle
 62
7
  6
CONTINUOUS
 10
-34.5
 20
-30.6659437343
 40
1.5
  0
ARC
  5
522
100
AcDbEntity
  8
DRAFT
100
AcDbCircle
 62
7
  6
CONTINUOUS
 10
-45.0
 20
-39.6659437343
 40
1.5
100
AcDbArc
 50
0.0
 51
90.0
  0
CIRCLE
  5
523
100
AcDbEntity
  8
RACCORDO
100
AcDbCircle
 62
7
  6
CONTINUOUS
 10
-34.5
 20
22.3340562657
 40
9.5
  0
CIRCLE
  5
524
100
AcDbEntity
  8
RACCORDO
100
AcDbCircle
 62
250
  6
CONTINUOUS
 10
-34.5
 20
22.3340562657
 40
8.9999983613
  0
ARC
  5
525
100
AcDbEntity
  8
ASSI
100
AcDbCircle
 62
7
  6
CONTINUOUS
 10
-45.0
 20
31.3340562657
 40
6.0
100
AcDbArc
 50
90.0
 51
174.9524228029
  0
ARC
  5
526
100
AcDbEntity
  8
DRAFT
100
AcDbCircle
 62
7
  6
CONTINUOUS
 10
-45.0
 20
31.3340562657
 40
6.0
100
AcDbArc
 50
90.0
 51
180.0
  0
ARC
  5
527
100
AcDbEntity
  8
RACCORDO
100
AcDbCircle
 62
250
  6
CONTINUOUS
 10
-45.0
 20
31.3340562657
 40
5.3730280706
100
AcDbArc
 50
90.0
 51
180.0
  0
CIRCLE
  5
528
100
AcDbEntity
  8
RACCORDO
100
AcDbCircle
 62
7
  6
CONTINUOUS
 10
-28.3
 20
-4.1659437343
 40
4.8
  0
CIRCLE
  5
529
100
AcDbEntity
  8
RACCORDO
100
AcDbCircle
 62
250
  6
CONTINUOUS
 10
-28.3
 20
-4.1659437343
 40
4.2999957281
  0
ARC
  5
52A
100
AcDbEntity
  8
RACCORDO
100
AcDbCircle
 62
7
  6
CONTINUOUS
 10
-45.0
 20
31.3340562657
 40
4.2757899725
100
AcDbArc
 50
90.0
 51
180.0
  0
ARC
  5
52B
100
AcDbEntity
  8
DRAFT
100
AcDbCircle
 62
7
  6
CONTINUOUS
 10
-45.0
 20
31.3340562657
 40
4.0
100
AcDbArc
 50
90.0
 51
180.0
  0
CIRCLE
  5
52C
100
AcDbEntity
  8
0
100
AcDbCircle
 62
7
  6
CONTINUOUS
 10
-34.5
 20
22.3340562657
 40
2.25
  0
CIRCLE
  5
52D
100
AcDbEntity
  8
0
100
AcDbCircle
 62
7
  6
CONTINUOUS
 10
-34.5
 20
22.3340562657
 40
1.8
  0
ARC
  5
52E
100
AcDbEntity
  8
DRAFT
100
AcDbCircle
 62
7
  6
CONTINUOUS
 10
-45.0
 20
31.3340562657
 40
1.7757900259
100
AcDbArc
 50
270.0
 51
360.0
  0
CIRCLE
  5
52F
100
AcDbEntity
  8
0
100
AcDbCircle
 62
7
  6
CONTINUOUS
 10
-34.5
 20
22.3340562657
 40
1.5
  0
ARC
  5
530
100
AcDbEntity
  8
DRAFT
100
AcDbCircle
 62
7
  6
CONTINUOUS
 10
-45.0
 20
31.3340562657
 40
1.5
100
AcDbArc
 50
270.0
 51
360.0
  0
CIRCLE
  5
531
100
AcDbEntity
  8
RACCORDO
100
AcDbCircle
 62
7
  6
CONTINUOUS
 10
34.5
 20
-30.6659437343
 40
9.5
  0
CIRCLE
  5
532
100
AcDbEntity
  8
RACCORDO
100
AcDbCircle
 62
250
  6
CONTINUOUS
 10
34.5
 20
-30.6659437343
 40
8.9999983613
  0
ARC
  5
533
100
AcDbEntity
  8
ASSI
100
AcDbCircle
 62
7
  6
CONTINUOUS
 10
45.0
 20
-39.6659437343
 40
6.0
100
AcDbArc
 50
270.0
 51
354.9524228029
  0
ARC
  5
534
100
AcDbEntity
  8
DRAFT
100
AcDbCircle
 62
7
  6
CONTINUOUS
 10
45.0
 20
-39.6659437343
 40
6.0
100
AcDbArc
 50
270.0
 51
360.0
  0
ARC
  5
535
100
AcDbEntity
  8
RACCORDO
100
AcDbCircle
 62
250
  6
CONTINUOUS
 10
45.0
 20
-39.6659437343
 40
5.3730280706
100
AcDbArc
 50
270.0
 51
360.0
  0
ARC
  5
536
100
AcDbEntity
  8
RACCORDO
100
AcDbCircle
 62
7
  6
CONTINUOUS
 10
45.0
 20
-39.6659437343
 40
4.2757899725
100
AcDbArc
 50
270.0
 51
360.0
  0
ARC
  5
537
100
AcDbEntity
  8
DRAFT
100
AcDbCircle
 62
7
  6
CONTINUOUS
 10
45.0
 20
-39.6659437343
 40
4.0
100
AcDbArc
 50
270.0
 51
360.0
  0
CIRCLE
  5
538
100
AcDbEntity
  8
0
100
AcDbCircle
 62
7
  6
CONTINUOUS
 10
34.5
 20
-30.6659437343
 40
2.25
  0
CIRCLE
  5
539
100
AcDbEntity
  8
0
100
AcDbCircle
 62
7
  6
CONTINUOUS
 10
34.5
 20
-30.6659437343
 40
1.8
  0
ARC
  5
53A
100
AcDbEntity
  8
DRAFT
100
AcDbCircle
 62
7
  6
CONTINUOUS
 10
45.0
 20
-39.6659437343
 40
1.7757900259
100
AcDbArc
 50
90.0
 51
180.0
  0
CIRCLE
  5
53B
100
AcDbEntity
  8
0
100
AcDbCircle
 62
7
  6
CONTINUOUS
 10
34.5
 20
-30.6659437343
 40
1.5
  0
ARC
  5
53C
100
AcDbEntity
  8
DRAFT
100
AcDbCircle
 62
7
  6
CONTINUOUS
 10
45.0
 20
-39.6659437343
 40
1.5
100
AcDbArc
 50
90.0
 51
180.0
  0
CIRCLE
  5
53D
100
AcDbEntity
  8
0
100
AcDbCircle
 62
7
  6
CONTINUOUS
 10
-0.0
 20
-4.1659437343
 40
11.25
  0
ARC
  5
53E
100
AcDbEntity
  8
0
100
AcDbCircle
 62
7
  6
CONTINUOUS
 10
-0.0
 20
-4.1659437343
 40
11.0
100
AcDbArc
 50
185.7391704773
 51
264.2608295227
  0
ARC
  5
53F
100
AcDbEntity
  8
0
100
AcDbCircle
 62
7
  6
CONTINUOUS
 10
-0.0
 20
-4.1659437343
 40
11.0
100
AcDbArc
 50
275.7391704773
 51
354.2608295227
  0
ARC
  5
540
100
AcDbEntity
  8
0
100
AcDbCircle
 62
7
  6
CONTINUOUS
 10
-0.0
 20
-4.1659437343
 40
11.0
100
AcDbArc
 50
95.7391704773
 51
174.2608295227
  0
ARC
  5
541
100
AcDbEntity
  8
0
100
AcDbCircle
 62
7
  6
CONTINUOUS
 10
-0.0
 20
-4.1659437343
 40
11.0
100
AcDbArc
 50
5.7391704773
 51
84.2608295227
  0
ARC
  5
542
100
AcDbEntity
  8
0
100
AcDbCircle
 62
7
  6
CONTINUOUS
 10
-0.0
 20
-4.1659437343
 40
10.1299689469
100
AcDbArc
 50
6.233965798
 51
83.766034202
  0
ARC
  5
543
100
AcDbEntity
  8
0
100
AcDbCircle
 62
7
  6
CONTINUOUS
 10
-0.0
 20
-4.1659437343
 40
10.1299689469
100
AcDbArc
 50
96.233965798
 51
173.766034202
  0
ARC
  5
544
100
AcDbEntity
  8
0
100
AcDbCircle
 62
7
  6
CONTINUOUS
 10
-0.0
 20
-4.1659437343
 40
10.1299689469
100
AcDbArc
 50
186.233965798
 51
263.766034202
  0
ARC
  5
545
100
AcDbEntity
  8
0
100
AcDbCircle
 62
7
  6
CONTINUOUS
 10
-0.0
 20
-4.1659437343
 40
10.1299689469
100
AcDbArc
 50
276.233965798
 51
353.766034202
  0
CIRCLE
  5
546
100
AcDbEntity
  8
RACCORDO
100
AcDbCircle
 62
7
  6
CONTINUOUS
 10
28.3
 20
-4.1659437343
 40
4.8
  0
CIRCLE
  5
547
100
AcDbEntity
  8
RACCORDO
100
AcDbCircle
 62
250
  6
CONTINUOUS
 10
28.3
 20
-4.1659437343
 40
4.2999957281
  0
CIRCLE
  5
548
100
AcDbEntity
  8
RACCORDO
100
AcDbCircle
 62
7
  6
CONTINUOUS
 10
34.5
 20
22.3340562657
 40
9.5
  0
CIRCLE
  5
549
100
AcDbEntity
  8
RACCORDO
100
AcDbCircle
 62
250
  6
CONTINUOUS
 10
34.5
 20
22.3340562657
 40
8.9999983613
  0
ARC
  5
54A
100
AcDbEntity
  8
ASSI
100
AcDbCircle
 62
7
  6
CONTINUOUS
 10
45.0
 20
31.3340562657
 40
6.0
100
AcDbArc
 50
0.0
 51
84.952422803
  0
ARC
  5
54B
100
AcDbEntity
  8
DRAFT
100
AcDbCircle
 62
7
  6
CONTINUOUS
 10
45.0
 20
31.3340562657
 40
6.0
100
AcDbArc
 50
0.0
 51
90.0
  0
ARC
  5
54C
100
AcDbEntity
  8
RACCORDO
100
AcDbCircle
 62
250
  6
CONTINUOUS
 10
45.0
 20
31.3340562657
 40
5.3730280706
100
AcDbArc
 50
0.0
 51
90.0
  0
ARC
  5
54D
100
AcDbEntity
  8
RACCORDO
100
AcDbCircle
 62
7
  6
CONTINUOUS
 10
45.0
 20
31.3340562657
 40
4.2757899725
100
AcDbArc
 50
0.0
 51
90.0
  0
ARC
  5
54E
100
AcDbEntity
  8
DRAFT
100
AcDbCircle
 62
7
  6
CONTINUOUS
 10
45.0
 20
31.3340562657
 40
4.0
100
AcDbArc
 50
0.0
 51
90.0
  0
CIRCLE
  5
54F
100
AcDbEntity
  8
0
100
AcDbCircle
 62
7
  6
CONTINUOUS
 10
34.5
 20
22.3340562657
 40
2.25
  0
CIRCLE
  5
550
100
AcDbEntity
  8
0
100
AcDbCircle
 62
7
  6
CONTINUOUS
 10
34.5
 20
22.3340562657
 40
1.8
  0
ARC
  5
551
100
AcDbEntity
  8
DRAFT
100
AcDbCircle
 62
7
  6
CONTINUOUS
 10
45.0
 20
31.3340562657
 40
1.7757900259
100
AcDbArc
 50
180.0
 51
270.0
  0
CIRCLE
  5
552
100
AcDbEntity
  8
0
100
AcDbCircle
 62
7
  6
CONTINUOUS
 10
34.5
 20
22.3340562657
 40
1.5
  0
ARC
  5
553
100
AcDbEntity
  8
DRAFT
100
AcDbCircle
 62
7
  6
CONTINUOUS
 10
45.0
 20
31.3340562657
 40
1.5
100
AcDbArc
 50
180.0
 51
270.0
  0
ENDSEC
  0
SECTION
  2
OBJECTS
  0
DICTIONARY
  5
C
100
AcDbDictionary
280
0
281
1
  3
ACAD_GROUP
350
D
  3
ACAD_MLINESTYLE
350
17
  3
ACAD_LAYOUT
350
1A
  3
ACAD_PLOTSETTINGS
350
19
  3
ACAD_PLOTSTYLENAME
350
E
  0
DICTIONARY
  5
D
102
{ACAD_REACTORS
330
C
102
}
100
AcDbDictionary
280
0
281
1
  0
ACDBDICTIONARYWDFLT
  5
E
102
{ACAD_REACTORS
330
C
102
}
100
AcDbDictionary
281
1
  3
Normal
350
F
100
AcDbDictionaryWithDefault
340
F
  0
DICTIONARY
  5
17
102
{ACAD_REACTORS
330
C
102
}
100
AcDbDictionary
280
0
281
1
  3
Standard
350
18
  0
DICTIONARY
  5
19
102
{ACAD_REACTORS
330
C
102
}
100
AcDbDictionary
281
1
  0
DICTIONARY
  5
1A
102
{ACAD_REACTORS
330
C
102
}
100
AcDbDictionary
281
1
  3
Model
350
554
  3
Layout1
350
555
  0
ACDBPLACEHOLDER
  5
F
102
{ACAD_REACTORS
330
E
102
}
  0
MLINESTYLE
  5
18
102
{ACAD_REACTORS
330
17
102
}
100
AcDbMlineStyle
  2
STANDARD
 70
0
  3

 62
256
 51
90.0
 52
90.0
 71
2
 49
0.5
 62
256
  6
BYLAYER
 49
-0.5
 62
256
  6
BYLAYER
  0
LAYOUT
  5
554
102
{ACAD_REACTORS
330
1A
102
}
100
AcDbPlotSettings
  1

  2
none_device
  4
ISO_A4_(297.00_x_210.00_MM)
  6

 40
0.0
 41
0.0
 42
0.0
 43
0.0
 44
297.0
 45
210.0
 46
0.0
 47
0.0
 48
0.0
 49
0.0
140
0.0
141
0.0
142
1.0
143
1.0
 70
1024
 72
1
 73
0
 74
0
  7

 75
0
147
1.0
148
0.0
149
0.0
100
AcDbLayout
  1
Model
 70
0
 71
0
 10
0.0
 20
0.0
 11
297.0
 21
210.0
 12
0.0
 22
0.0
 32
0.0
 14
0.0
 24
0.0
 34
0.0
 15
0.0
 25
0.0
 35
0.0
146
0.0
 13
0.0
 23
0.0
 33
0.0
 16
1.0
 26
0.0
 36
0.0
 17
0.0
 27
1.0
 37
0.0
 76
0
330
21A
345
0
346
0
  0
LAYOUT
  5
555
102
{ACAD_REACTORS
330
1A
102
}
100
AcDbPlotSettings
  1

  2
none_device
  4
ISO_A4_(297.00_x_210.00_MM)
  6

 40
0.0
 41
0.0
 42
0.0
 43
0.0
 44
297.0
 45
210.0
 46
0.0
 47
0.0
 48
0.0
 49
0.0
140
0.0
141
0.0
142
1.0
143
1.0
 70
0
 72
1
 73
0
 74
0
  7

 75
0
147
1.0
148
0.0
149
0.0
100
AcDbLayout
  1
Layout1
 70
0
 71
1
 10
0.0
 20
0.0
 11
297.0
 21
210.0
 12
0.0
 22
0.0
 32
0.0
 14
0.0
 24
0.0
 34
0.0
 15
0.0
 25
0.0
 35
0.0
146
0.0
 13
0.0
 23
0.0
 33
0.0
 16
1.0
 26
0.0
 36
0.0
 17
0.0
 27
1.0
 37
0.0
 76
0
330
21B
345
0
346
0
  0
ENDSEC
  0
EOF
