  0
SECTION
  2
HEADER
  9
$ACADVER
  1
AC1024
  9
$DWGCODEPAGE
  3
ANSI_1252
  9
$EXTMAX
 10
297.0
 20
210.0
 30
0.0
  9
$EXTMIN
 10
0.0
 20
0.0
 30
0.0
  9
$LIMMIN
 10
0.0
 20
0.0
  9
$LIMMAX
 10
297.0
 20
210.0
  9
$VIEWCTR
 10
148.5
 20
105.0
  9
$VIEWSIZE
 40
210.0
  9
$CLAYER
  8
0
  9
$LTSCALE
 40
16.335
  9
$CELTYPE
  6
BYLAYER
  9
$DIMSCALE
 40
1.0
  9
$DIMASZ
 40
3.0
  9
$DIMEXO
 40
0.5
  9
$DIMDLI
 40
11.286
  9
$DIMEXE
 40
1.5
  9
$DIMCEN
 40
2.673
  9
$DIMLFAC
 40
1.0
  9
$DIMBLK
  1
_FILLED
  9
$DIMALT
 70
0
  9
$DIMALTF
 40
0.0393700787
  9
$DIMTXT
 40
3.0
  9
$DIMTOL
 70
1
  9
$DIMLIM
 70
0
  9
$DIMTFAC
 40
1.0
  9
$DIMTP
 40
0.01
  9
$DIMTM
 40
0.01
  9
$DIMGAP
 40
0.625
  9
$DIMDSEP
 70
44
  9
$AUNITS
 70
0
  9
$PDMODE
 70
3
  9
$PDSIZE
 40
3.0
  9
$HANDSEED
  5
254
  9
$TILEMODE
 70
1
  9
$MEASUREMENT
 70
1
  9
$INSUNITS
 70
4
  0
ENDSEC
  0
SECTION
  2
CLASSES
  0
CLASS
  1
ACDBDICTIONARYWDFLT
  2
AcDbDictionaryWithDefault
  3
AutoCAD 2000
 90
0
 91
1
280
0
281
0
  0
CLASS
  1
ACDBPLACEHOLDER
  2
AcDbPlaceHolder
  3
AutoCAD 2000
 90
0
 91
1
280
0
281
0
  0
CLASS
  1
LAYOUT
  2
AcDbLayout
  3
AutoCAD 2000
 90
0
 91
0
280
0
281
0
  0
ENDSEC
  0
SECTION
  2
TABLES
  0
TABLE
  2
VPORT
  5
8
100
AcDbSymbolTable
 70
2
  0
VPORT
  5
1F4
100
AcDbSymbolTableRecord
100
AcDbViewportTableRecord
  2
*ACTIVE
 70
0
 10
0.0
 20
0.0
 11
1.0
 21
1.0
 12
148.5
 22
105.0
 13
0.0
 23
0.0
 14
1.0
 24
1.0
 15
0.0
 25
0.0
 16
0.0
 26
0.0
 36
1.0
 17
0.0
 27
0.0
 37
0.0
 40
210.0
 41
1.4142857143
 42
50.0
 43
0.0
 44
0.0
 50
0.0
 51
0.0
 71
0
 72
100
 73
1
 74
1
 75
0
 76
0
 77
0
 78
0
  0
ENDTAB
  0
TABLE
  2
LTYPE
  5
5
100
AcDbSymbolTable
 70
6
  0
LTYPE
  5
14
100
AcDbSymbolTableRecord
100
AcDbLinetypeTableRecord
  2
BYBLOCK
 70
0
  3

 72
65
 73
0
 40
0.0
  0
LTYPE
  5
15
100
AcDbSymbolTableRecord
100
AcDbLinetypeTableRecord
  2
BYLAYER
 70
0
  3

 72
65
 73
0
 40
0.0
  0
LTYPE
  5
16
100
AcDbSymbolTableRecord
100
AcDbLinetypeTableRecord
  2
CONTINUOUS
 70
64
  3
Solid line
 72
65
 73
0
 40
0.0
  0
LTYPE
  5
1F5
100
AcDbSymbolTableRecord
100
AcDbLinetypeTableRecord
  2
CENTER
 70
64
  3
____ _ ____ _ ____ _ ____ _ ____ _ ____ _ ____
 72
65
 73
4
 40
0.6
 49
0.375
 74
0
 49
-0.075
 74
0
 49
0.075
 74
0
 49
-0.075
 74
0
  0
LTYPE
  5
1F6
100
AcDbSymbolTableRecord
100
AcDbLinetypeTableRecord
  2
HIDDEN
 70
64
  3
- - - - - - - - - - - - - - - - - - - -
 72
65
 73
2
 40
0.2
 49
0.1
 74
0
 49
-0.1
 74
0
  0
LTYPE
  5
1F7
100
AcDbSymbolTableRecord
100
AcDbLinetypeTableRecord
  2
PHANTOM
 70
64
  3
_____ _ _ _____ _ _ _____ _ _ _____
 72
65
 73
6
 40
0.8
 49
0.45
 74
0
 49
-0.05
 74
0
 49
0.1
 74
0
 49
-0.05
 74
0
 49
0.1
 74
0
 49
-0.05
 74
0
  0
LTYPE
  5
1F8
100
AcDbSymbolTableRecord
100
AcDbLinetypeTableRecord
  2
DOT
 70
64
  3
. . . . . . . . . . . . . . . . . . . .
 72
65
 73
2
 40
0.2
 49
0.1
 74
0
 49
-0.1
 74
0
  0
LTYPE
  5
1F9
100
AcDbSymbolTableRecord
100
AcDbLinetypeTableRecord
  2
DASHED
 70
64
  3
- - - - - - - - - - - - - - - - - - - -
 72
65
 73
2
 40
0.2
 49
0.1
 74
0
 49
-0.1
 74
0
  0
ENDTAB
  0
TABLE
  2
LAYER
  5
2
100
AcDbSymbolTable
 70
36
  0
LAYER
  5
10
100
AcDbSymbolTableRecord
100
AcDbLayerTableRecord
  2
0
 70
0
 62
7
  6
CONTINUOUS
370
-3
390
F
  0
LAYER
  5
1FA
100
AcDbSymbolTableRecord
100
AcDbLayerTableRecord
  2
DEFAULT_1
 70
0
 62
7
  6
CENTER
370
-3
390
F
  0
LAYER
  5
1FB
100
AcDbSymbolTableRecord
100
AcDbLayerTableRecord
  2
DEFAULT_2
 70
0
 62
7
  6
HIDDEN
370
-3
390
F
  0
LAYER
  5
1FC
100
AcDbSymbolTableRecord
100
AcDbLayerTableRecord
  2
DEFAULT_3
 70
0
 62
7
  6
PHANTOM
370
-3
390
F
  0
LAYER
  5
1FD
100
AcDbSymbolTableRecord
100
AcDbLayerTableRecord
  2
ASSI
 70
0
 62
7
  6
CONTINUOUS
370
-3
390
F
  0
LAYER
  5
1FE
100
AcDbSymbolTableRecord
100
AcDbLayerTableRecord
  2
COORDINATE
 70
0
 62
7
  6
CONTINUOUS
370
-3
390
F
  0
LAYER
  5
1FF
100
AcDbSymbolTableRecord
100
AcDbLayerTableRecord
  2
COPY_PUBLISH
 70
0
 62
7
  6
CONTINUOUS
370
-3
390
F
  0
LAYER
  5
200
100
AcDbSymbolTableRecord
100
AcDbLayerTableRecord
  2
COSMETICI
 70
0
 62
7
  6
CONTINUOUS
370
-3
390
F
  0
LAYER
  5
201
100
AcDbSymbolTableRecord
100
AcDbLayerTableRecord
  2
CURVE
 70
0
 62
7
  6
CONTINUOUS
370
-3
390
F
  0
LAYER
  5
202
100
AcDbSymbolTableRecord
100
AcDbLayerTableRecord
  2
IMPORT_IGES
 70
0
 62
7
  6
CONTINUOUS
370
-3
390
F
  0
LAYER
  5
203
100
AcDbSymbolTableRecord
100
AcDbLayerTableRecord
  2
NOTE
 70
0
 62
7
  6
CONTINUOUS
370
-3
390
F
  0
LAYER
  5
204
100
AcDbSymbolTableRecord
100
AcDbLayerTableRecord
  2
PIANI
 70
0
 62
7
  6
CONTINUOUS
370
-3
390
F
  0
LAYER
  5
205
100
AcDbSymbolTableRecord
100
AcDbLayerTableRecord
  2
PUNTI
 70
0
 62
7
  6
CONTINUOUS
370
-3
390
F
  0
LAYER
  5
206
100
AcDbSymbolTableRecord
100
AcDbLayerTableRecord
  2
RACCORDO
 70
0
 62
7
  6
CONTINUOUS
370
-3
390
F
  0
LAYER
  5
207
100
AcDbSymbolTableRecord
100
AcDbLayerTableRecord
  2
SIMBOLI
 70
0
 62
7
  6
CONTINUOUS
370
-3
390
F
  0
LAYER
  5
208
100
AcDbSymbolTableRecord
100
AcDbLayerTableRecord
  2
SMUSSO
 70
0
 62
7
  6
CONTINUOUS
370
-3
390
F
  0
LAYER
  5
209
100
AcDbSymbolTableRecord
100
AcDbLayerTableRecord
  2
SUPERFICI
 70
0
 62
7
  6
CONTINUOUS
370
-3
390
F
  0
LAYER
  5
20A
100
AcDbSymbolTableRecord
100
AcDbLayerTableRecord
  2
TRASH
 70
0
 62
7
  6
CONTINUOUS
370
-3
390
F
  0
ENDTAB
  0
TABLE
  2
STYLE
  5
3
100
AcDbSymbolTable
 70
1
  0
STYLE
  5
11
100
AcDbSymbolTableRecord
100
AcDbTextStyleTableRecord
  2
STANDARD
 70
0
 40
0.0
 41
0.8
 50
0.0
 71
0
 42
0.2
  3
txt
  4

  0
STYLE
  5
20B
100
AcDbSymbolTableRecord
100
AcDbTextStyleTableRecord
  2
TEXTSTYLE_1
 70
0
 40
0.0
 41
0.8
 50
0.0
 71
0
 42
0.2
  3
gdt
  4

  0
ENDTAB
  0
TABLE
  2
VIEW
  5
6
100
AcDbSymbolTable
 70
0
  0
ENDTAB
  0
TABLE
  2
UCS
  5
7
100
AcDbSymbolTable
 70
0
  0
ENDTAB
  0
TABLE
  2
APPID
  5
9
100
AcDbSymbolTable
 70
1
  0
APPID
  5
20C
100
AcDbSymbolTableRecord
100
AcDbRegAppTableRecord
  2
ACAD
 70
0
  0
ENDTAB
  0
TABLE
  2
BLOCK_RECORD
  5
1
100
AcDbSymbolTable
 70
0
  0
BLOCK_RECORD
  5
20D
100
AcDbSymbolTableRecord
100
AcDbBlockTableRecord
  2
*Model_Space
  0
BLOCK_RECORD
  5
20E
100
AcDbSymbolTableRecord
100
AcDbBlockTableRecord
  2
*Paper_Space
  0
BLOCK_RECORD
  5
20F
100
AcDbSymbolTableRecord
100
AcDbBlockTableRecord
  2
_FILLED
  0
ENDTAB
  0
TABLE
  2
DIMSTYLE
  5
A
100
AcDbSymbolTable
 70
1
100
AcDbDimStyleTable
 71
0
  0
DIMSTYLE
105
210
100
AcDbSymbolTableRecord
100
AcDbDimStyleTableRecord
  2
STANDARD
 70
0
  3

  4

 40
1.0
 41
3.0
 42
0.5
 43
0.38
 44
1.5
 45
0.0
 46
0.0
 47
0.01
 48
0.01
140
3.0
141
0.09
142
0.0
143
25.4
144
1.0
145
0.0
146
1.0
147
0.625
 71
1
 72
0
 73
0
 74
0
 75
0
 76
0
 77
1
 78
8
 79
2
170
0
171
1
172
0
173
0
174
0
175
0
176
0
177
0
178
0
270
2
179
2
271
2
272
2
273
2
274
2
275
0
280
0
281
0
282
0
283
1
284
8
285
0
286
0
287
3
288
0
340
11
278
44
341
20F
342
20F
343
20F
344
20F
  0
ENDTAB
  0
ENDSEC
  0
SECTION
  2
BLOCKS
  0
BLOCK
  5
20
100
AcDbEntity
  8
0
100
AcDbBlockBegin
  2
*Model_Space
 70
0
 10
0.0
 20
0.0
 30
0.0
  3
*Model_Space
  1

  0
ENDBLK
  5
21
100
AcDbEntity
  8
0
100
AcDbBlockEnd
  0
BLOCK
  5
1C
100
AcDbEntity
  8
0
100
AcDbBlockBegin
  2
*Paper_Space
 70
0
 10
0.0
 20
0.0
 30
0.0
  3
*Paper_Space
  1

  0
ENDBLK
  5
1D
100
AcDbEntity
  8
0
100
AcDbBlockEnd
  0
BLOCK
  5
211
100
AcDbEntity
  8
0
100
AcDbBlockBegin
  2
_FILLED
 70
64
 10
0.0
 20
0.0
  3
_FILLED
  1

  0
SOLID
  5
212
100
AcDbEntity
  8
0
  6
BYBLOCK
 62
0
100
AcDbTrace
 10
0.0
 20
0.0
 11
-1.0
 21
0.3166666667
 12
-1.0
 22
-0.3166666667
 13
-1.0
 23
-0.3166666667
  0
ENDBLK
  5
213
100
AcDbEntity
  8
0
  6
BYBLOCK
 62
0
100
AcDbBlockEnd
  0
ENDSEC
  0
SECTION
  2
ENTITIES
  0
LINE
  5
214
100
AcDbEntity
  8
0
100
AcDbLine
 62
7
  6
CONTINUOUS
 10
-25.5
 20
-7.8711973981
 11
-25.5
 21
-24.0068089004
  0
LINE
  5
215
100
AcDbEntity
  8
0
100
AcDbLine
 62
7
  6
CONTINUOUS
 10
-25.5
 20
-7.8711973981
 11
-25.5
 21
7.8712003874
  0
LINE
  5
216
100
AcDbEntity
  8
0
100
AcDbLine
 62
7
  6
CONTINUOUS
 10
-25.5
 20
7.8712003874
 11
-25.5
 21
24.0068118897
  0
LWPOLYLINE
  5
217
100
AcDbEntity
  8
0
100
AcDbPolyline
 62
7
  6
CONTINUOUS
 90
22
 70
0
 10
-22.4364787504
 20
-12.4993214457
 10
-22.4182264341
 20
-12.5369277233
 10
-22.3935877936
 20
-12.5802098621
 10
-22.3660254038
 20
-12.6221092497
 10
-22.3355096525
 20
-12.6626118814
 10
-22.3020701518
 20
-12.701731762
 10
-22.2660444431
 20
-12.739074012
 10
-22.2274063328
 20
-12.7746206273
 10
-22.1861820144
 20
-12.808389612
 10
-22.1427876097
 20
-12.8400400991
 10
-22.0972011398
 20
-12.8695506321
 10
-22.0494445836
 20
-12.8969426674
 10
-22.0
 20
-12.9219397074
 10
-21.9488502923
 20
-12.9445174954
 10
-21.8960125572
 20
-12.9647002882
 10
-21.8420201433
 20
-12.9822843588
 10
-21.7868613559
 20
-12.9972433872
 10
-21.7305478897
 20
-13.0096036934
 10
-21.6736481777
 20
-13.0192405116
 10
-21.6163516976
 20
-13.0261122531
 10
-21.5584689717
 20
-13.0302605065
 10
-21.5
 20
-13.0316852718
  0
LINE
  5
218
100
AcDbEntity
  8
0
100
AcDbLine
 62
7
  6
CONTINUOUS
 10
-25.5
 20
-24.0068089006
 11
25.5
 21
-24.0068089006
  0
LINE
  5
219
100
AcDbEntity
  8
0
100
AcDbLine
 62
250
  6
CONTINUOUS
 10
-25.5
 20
-23.1539617733
 11
25.5
 21
-23.1539617733
  0
LINE
  5
21A
100
AcDbEntity
  8
0
100
AcDbLine
 62
250
  6
CONTINUOUS
 10
-21.5
 20
-13.0316852718
 11
-21.5
 21
-13.6052617082
  0
LINE
  5
21B
100
AcDbEntity
  8
0
100
AcDbLine
 62
250
  6
CONTINUOUS
 10
-21.5
 20
13.0316882611
 11
-21.5
 21
13.6052646974
  0
LWPOLYLINE
  5
21C
100
AcDbEntity
  8
0
100
AcDbPolyline
 62
7
  6
CONTINUOUS
 90
28
 70
0
 10
-22.5
 20
12.7861126531
 10
-22.4982948759
 20
12.8336874812
 10
-22.493213697
 20
12.8812623092
 10
-22.484807753
 20
12.9283569129
 10
-22.4730433702
 20
12.9749664283
 10
-22.4579542224
 20
13.0210957192
 10
-22.4396926208
 20
13.0662791527
 10
-22.4182264341
 20
13.110507149
 10
-22.3935877936
 20
13.1537892877
 10
-22.3660254038
 20
13.1956886753
 10
-22.3355096525
 20
13.236191307
 10
-22.3020701518
 20
13.2753111876
 10
-22.2660444431
 20
13.3126534377
 10
-22.2274063328
 20
13.348200053
 10
-22.1861820144
 20
13.3819690377
 10
-22.1427876097
 20
13.4136195247
 10
-22.0972011398
 20
13.4431300577
 10
-22.0494445836
 20
13.470522093
 10
-22.0
 20
13.4955191331
 10
-21.9488502923
 20
13.518096921
 10
-21.8960125572
 20
13.5382797138
 10
-21.8420201433
 20
13.5558637845
 10
-21.7868613559
 20
13.5708228128
 10
-21.7305478897
 20
13.5831831191
 10
-21.6736481777
 20
13.5928199373
 10
-21.6163516976
 20
13.5996916787
 10
-21.5584689717
 20
13.6038399321
 10
-21.5
 20
13.6052646974
  0
LWPOLYLINE
  5
21D
100
AcDbEntity
  8
0
100
AcDbPolyline
 62
7
  6
CONTINUOUS
 90
28
 70
0
 10
-22.5
 20
-12.7861096639
 10
-22.4982948759
 20
-12.7385348358
 10
-22.493213697
 20
-12.6909600078
 10
-22.484807753
 20
-12.6438654041
 10
-22.4730433702
 20
-12.5972558887
 10
-22.4579542224
 20
-12.5511265978
 10
-22.4396926208
 20
-12.5059431643
 10
-22.4182264341
 20
-12.4617151681
 10
-22.3935877936
 20
-12.4184330293
 10
-22.3660254038
 20
-12.3765336417
 10
-22.3355096525
 20
-12.33603101
 10
-22.3020701518
 20
-12.2969111294
 10
-22.2660444431
 20
-12.2595688794
 10
-22.2274063328
 20
-12.2240222641
 10
-22.1861820144
 20
-12.1902532793
 10
-22.1427876097
 20
-12.1586027923
 10
-22.0972011398
 20
-12.1290922593
 10
-22.0494445836
 20
-12.101700224
 10
-22.0
 20
-12.076703184
 10
-21.9488502923
 20
-12.054125396
 10
-21.8960125572
 20
-12.0339426032
 10
-21.8420201433
 20
-12.0163585326
 10
-21.7868613559
 20
-12.0013995042
 10
-21.7305478897
 20
-11.989039198
 10
-21.6736481777
 20
-11.9794023798
 10
-21.6163516976
 20
-11.9725306383
 10
-21.5584689717
 20
-11.9683823849
 10
-21.5
 20
-11.9669576196
  0
LINE
  5
21E
100
AcDbEntity
  8
0
100
AcDbLine
 62
250
  6
CONTINUOUS
 10
-16.0
 20
-13.6052617082
 11
-16.0
 21
-13.0316852718
  0
LINE
  5
21F
100
AcDbEntity
  8
0
100
AcDbLine
 62
250
  6
CONTINUOUS
 10
-16.0
 20
13.0316882611
 11
-16.0
 21
13.6052646974
  0
LWPOLYLINE
  5
220
100
AcDbEntity
  8
0
100
AcDbPolyline
 62
7
  6
CONTINUOUS
 90
28
 70
0
 10
-15.0
 20
12.7861126531
 10
-15.0017051241
 20
12.7385378251
 10
-15.006786303
 20
12.690962997
 10
-15.015192247
 20
12.6438683934
 10
-15.0269566298
 20
12.597258878
 10
-15.0420457776
 20
12.551129587
 10
-15.0603073792
 20
12.5059461536
 10
-15.0817735659
 20
12.4617181573
 10
-15.1064122064
 20
12.4184360186
 10
-15.1339745962
 20
12.376536631
 10
-15.1644903475
 20
12.3360339993
 10
-15.1979298482
 20
12.2969141187
 10
-15.2339555569
 20
12.2595718686
 10
-15.2725936672
 20
12.2240252533
 10
-15.3138179856
 20
12.1902562686
 10
-15.3572123903
 20
12.1586057815
 10
-15.4027988602
 20
12.1290952486
 10
-15.4505554164
 20
12.1017032133
 10
-15.5
 20
12.0767061732
 10
-15.5511497077
 20
12.0541283853
 10
-15.6039874428
 20
12.0339455925
 10
-15.6579798567
 20
12.0163615218
 10
-15.7131386441
 20
12.0014024935
 10
-15.7694521103
 20
11.9890421872
 10
-15.8263518223
 20
11.979405369
 10
-15.8836483024
 20
11.9725336276
 10
-15.9415310283
 20
11.9683853742
 10
-16.0
 20
11.9669606089
  0
LWPOLYLINE
  5
221
100
AcDbEntity
  8
0
100
AcDbPolyline
 62
7
  6
CONTINUOUS
 90
28
 70
0
 10
-15.0
 20
-12.7861096639
 10
-15.0017051241
 20
-12.8336844919
 10
-15.006786303
 20
-12.88125932
 10
-15.015192247
 20
-12.9283539236
 10
-15.0269566298
 20
-12.974963439
 10
-15.0420457776
 20
-13.02109273
 10
-15.0603073792
 20
-13.0662761635
 10
-15.0817735659
 20
-13.1105041597
 10
-15.1064122064
 20
-13.1537862984
 10
-15.1339745962
 20
-13.195685686
 10
-15.1644903475
 20
-13.2361883178
 10
-15.1979298482
 20
-13.2753081984
 10
-15.2339555569
 20
-13.3126504484
 10
-15.2725936672
 20
-13.3481970637
 10
-15.3138179856
 20
-13.3819660484
 10
-15.3572123903
 20
-13.4136165355
 10
-15.4027988602
 20
-13.4431270684
 10
-15.4505554164
 20
-13.4705191037
 10
-15.5
 20
-13.4955161438
 10
-15.5511497077
 20
-13.5180939318
 10
-15.6039874428
 20
-13.5382767245
 10
-15.6579798567
 20
-13.5558607952
 10
-15.7131386441
 20
-13.5708198235
 10
-15.7694521103
 20
-13.5831801298
 10
-15.8263518223
 20
-13.592816948
 10
-15.8836483024
 20
-13.5996886894
 10
-15.9415310283
 20
-13.6038369428
 10
-16.0
 20
-13.6052617082
  0
LWPOLYLINE
  5
222
100
AcDbEntity
  8
0
100
AcDbPolyline
 62
7
  6
CONTINUOUS
 90
28
 70
0
 10
-21.5
 20
-13.6052617082
 10
-21.5584689717
 20
-13.6038369428
 10
-21.6163516976
 20
-13.5996886894
 10
-21.6736481777
 20
-13.592816948
 10
-21.7305478897
 20
-13.5831801298
 10
-21.7868613559
 20
-13.5708198235
 10
-21.8420201433
 20
-13.5558607952
 10
-21.8960125572
 20
-13.5382767245
 10
-21.9488502923
 20
-13.5180939318
 10
-22.0
 20
-13.4955161438
 10
-22.0494445836
 20
-13.4705191037
 10
-22.0972011398
 20
-13.4431270684
 10
-22.1427876097
 20
-13.4136165355
 10
-22.1861820144
 20
-13.3819660484
 10
-22.2274063328
 20
-13.3481970637
 10
-22.2660444431
 20
-13.3126504484
 10
-22.3020701518
 20
-13.2753081984
 10
-22.3355096525
 20
-13.2361883178
 10
-22.3660254038
 20
-13.195685686
 10
-22.3935877936
 20
-13.1537862984
 10
-22.4182264341
 20
-13.1105041597
 10
-22.4396926208
 20
-13.0662761635
 10
-22.4579542224
 20
-13.02109273
 10
-22.4730433702
 20
-12.974963439
 10
-22.484807753
 20
-12.9283539236
 10
-22.493213697
 20
-12.88125932
 10
-22.4982948759
 20
-12.8336844919
 10
-22.5
 20
-12.7861096639
  0
LWPOLYLINE
  5
223
100
AcDbEntity
  8
0
100
AcDbPolyline
 62
7
  6
CONTINUOUS
 90
22
 70
0
 10
21.5
 20
-13.0316852718
 10
21.5584689717
 20
-13.0302605065
 10
21.6163516976
 20
-13.0261122531
 10
21.6736481777
 20
-13.0192405116
 10
21.7305478897
 20
-13.0096036934
 10
21.7868613559
 20
-12.9972433872
 10
21.8420201433
 20
-12.9822843588
 10
21.8960125572
 20
-12.9647002882
 10
21.9488502923
 20
-12.9445174954
 10
22.0
 20
-12.9219397074
 10
22.0494445836
 20
-12.8969426674
 10
22.0972011398
 20
-12.8695506321
 10
22.1427876097
 20
-12.8400400991
 10
22.1861820144
 20
-12.808389612
 10
22.2274063328
 20
-12.7746206273
 10
22.2660444431
 20
-12.739074012
 10
22.3020701518
 20
-12.701731762
 10
22.3355096525
 20
-12.6626118814
 10
22.3660254038
 20
-12.6221092497
 10
22.3935877936
 20
-12.5802098621
 10
22.4182264341
 20
-12.5369277233
 10
22.4364787504
 20
-12.4993214457
  0
LWPOLYLINE
  5
224
100
AcDbEntity
  8
0
100
AcDbPolyline
 62
7
  6
CONTINUOUS
 90
22
 70
0
 10
-16.0
 20
-13.0316852718
 10
-15.9415310283
 20
-13.0302605065
 10
-15.8836483024
 20
-13.0261122531
 10
-15.8263518223
 20
-13.0192405116
 10
-15.7694521103
 20
-13.0096036934
 10
-15.7131386441
 20
-12.9972433872
 10
-15.6579798567
 20
-12.9822843588
 10
-15.6039874428
 20
-12.9647002882
 10
-15.5511497077
 20
-12.9445174954
 10
-15.5
 20
-12.9219397074
 10
-15.4505554164
 20
-12.8969426674
 10
-15.4027988602
 20
-12.8695506321
 10
-15.3572123903
 20
-12.8400400991
 10
-15.3138179856
 20
-12.808389612
 10
-15.2725936672
 20
-12.7746206273
 10
-15.2339555569
 20
-12.739074012
 10
-15.1979298482
 20
-12.701731762
 10
-15.1644903475
 20
-12.6626118814
 10
-15.1339745962
 20
-12.6221092497
 10
-15.1064122064
 20
-12.5802098621
 10
-15.0817735659
 20
-12.5369277233
 10
-15.0635212496
 20
-12.4993214457
  0
LINE
  5
225
100
AcDbEntity
  8
0
100
AcDbLine
 62
7
  6
CONTINUOUS
 10
21.5
 20
-13.6052617082
 11
16.0
 21
-13.6052617082
  0
LINE
  5
226
100
AcDbEntity
  8
0
100
AcDbLine
 62
7
  6
CONTINUOUS
 10
-16.0
 20
-13.6052617082
 11
-21.5
 21
-13.6052617082
  0
LINE
  5
227
100
AcDbEntity
  8
0
100
AcDbLine
 62
7
  6
CONTINUOUS
 10
21.5
 20
-13.0316852718
 11
16.0
 21
-13.0316852718
  0
LINE
  5
228
100
AcDbEntity
  8
0
100
AcDbLine
 62
7
  6
CONTINUOUS
 10
-16.0
 20
-13.0316852718
 11
-21.5
 21
-13.0316852718
  0
LINE
  5
229
100
AcDbEntity
  8
0
100
AcDbLine
 62
7
  6
CONTINUOUS
 10
-21.5
 20
-11.9669576196
 11
-16.0
 21
-11.9669576196
  0
LINE
  5
22A
100
AcDbEntity
  8
0
100
AcDbLine
 62
7
  6
CONTINUOUS
 10
16.0
 20
-11.9669576196
 11
21.5
 21
-11.9669576196
  0
LWPOLYLINE
  5
22B
100
AcDbEntity
  8
0
100
AcDbPolyline
 62
7
  6
CONTINUOUS
 90
28
 70
0
 10
16.0
 20
-13.6052617082
 10
15.9415310283
 20
-13.6038369428
 10
15.8836483024
 20
-13.5996886894
 10
15.8263518223
 20
-13.592816948
 10
15.7694521103
 20
-13.5831801298
 10
15.7131386441
 20
-13.5708198235
 10
15.6579798567
 20
-13.5558607952
 10
15.6039874428
 20
-13.5382767245
 10
15.5511497077
 20
-13.5180939318
 10
15.5
 20
-13.4955161438
 10
15.4505554164
 20
-13.4705191037
 10
15.4027988602
 20
-13.4431270684
 10
15.3572123903
 20
-13.4136165355
 10
15.3138179856
 20
-13.3819660484
 10
15.2725936672
 20
-13.3481970637
 10
15.2339555569
 20
-13.3126504484
 10
15.1979298482
 20
-13.2753081984
 10
15.1644903475
 20
-13.2361883178
 10
15.1339745962
 20
-13.195685686
 10
15.1064122064
 20
-13.1537862984
 10
15.0817735659
 20
-13.1105041597
 10
15.0603073792
 20
-13.0662761635
 10
15.0420457776
 20
-13.02109273
 10
15.0269566298
 20
-12.974963439
 10
15.015192247
 20
-12.9283539236
 10
15.006786303
 20
-12.88125932
 10
15.0017051241
 20
-12.8336844919
 10
15.0
 20
-12.7861096639
  0
LWPOLYLINE
  5
22C
100
AcDbEntity
  8
0
100
AcDbPolyline
 62
7
  6
CONTINUOUS
 90
28
 70
0
 10
-16.0
 20
-11.9669576196
 10
-15.9415310283
 20
-11.9683823849
 10
-15.8836483024
 20
-11.9725306383
 10
-15.8263518223
 20
-11.9794023798
 10
-15.7694521103
 20
-11.989039198
 10
-15.7131386441
 20
-12.0013995042
 10
-15.6579798567
 20
-12.0163585326
 10
-15.6039874428
 20
-12.0339426032
 10
-15.5511497077
 20
-12.054125396
 10
-15.5
 20
-12.076703184
 10
-15.4505554164
 20
-12.101700224
 10
-15.4027988602
 20
-12.1290922593
 10
-15.3572123903
 20
-12.1586027923
 10
-15.3138179856
 20
-12.1902532793
 10
-15.2725936672
 20
-12.2240222641
 10
-15.2339555569
 20
-12.2595688794
 10
-15.1979298482
 20
-12.2969111294
 10
-15.1644903475
 20
-12.33603101
 10
-15.1339745962
 20
-12.3765336417
 10
-15.1064122064
 20
-12.4184330293
 10
-15.0817735659
 20
-12.4617151681
 10
-15.0603073792
 20
-12.5059431643
 10
-15.0420457776
 20
-12.5511265978
 10
-15.0269566298
 20
-12.5972558887
 10
-15.015192247
 20
-12.6438654041
 10
-15.006786303
 20
-12.6909600078
 10
-15.0017051241
 20
-12.7385348358
 10
-15.0
 20
-12.7861096639
  0
LWPOLYLINE
  5
22D
100
AcDbEntity
  8
0
100
AcDbPolyline
 62
7
  6
CONTINUOUS
 90
28
 70
0
 10
21.5
 20
-11.9669576196
 10
21.5584689717
 20
-11.9683823849
 10
21.6163516976
 20
-11.9725306383
 10
21.6736481777
 20
-11.9794023798
 10
21.7305478897
 20
-11.989039198
 10
21.7868613559
 20
-12.0013995042
 10
21.8420201433
 20
-12.0163585326
 10
21.8960125572
 20
-12.0339426032
 10
21.9488502923
 20
-12.054125396
 10
22.0
 20
-12.076703184
 10
22.0494445836
 20
-12.101700224
 10
22.0972011398
 20
-12.1290922593
 10
22.1427876097
 20
-12.1586027923
 10
22.1861820144
 20
-12.1902532793
 10
22.2274063328
 20
-12.2240222641
 10
22.2660444431
 20
-12.2595688794
 10
22.3020701518
 20
-12.2969111294
 10
22.3355096525
 20
-12.33603101
 10
22.3660254038
 20
-12.3765336417
 10
22.3935877936
 20
-12.4184330293
 10
22.4182264341
 20
-12.4617151681
 10
22.4396926208
 20
-12.5059431643
 10
22.4579542224
 20
-12.5511265978
 10
22.4730433702
 20
-12.5972558887
 10
22.484807753
 20
-12.6438654041
 10
22.493213697
 20
-12.6909600078
 10
22.4982948759
 20
-12.7385348358
 10
22.5
 20
-12.7861096639
  0
LINE
  5
22E
100
AcDbEntity
  8
0
100
AcDbLine
 62
7
  6
CONTINUOUS
 10
25.5
 20
-7.8711973981
 11
-25.5
 21
-7.8711973981
  0
LINE
  5
22F
100
AcDbEntity
  8
0
100
AcDbLine
 62
7
  6
CONTINUOUS
 10
25.5
 20
-7.2976209618
 11
-25.5
 21
-7.2976209618
  0
LWPOLYLINE
  5
230
100
AcDbEntity
  8
0
100
AcDbPolyline
 62
7
  6
CONTINUOUS
 90
22
 70
0
 10
-15.0635212496
 20
12.499324435
 10
-15.0817735659
 20
12.5369307126
 10
-15.1064122064
 20
12.5802128513
 10
-15.1339745962
 20
12.6221122389
 10
-15.1644903475
 20
12.6626148707
 10
-15.1979298482
 20
12.7017347513
 10
-15.2339555569
 20
12.7390770013
 10
-15.2725936672
 20
12.7746236166
 10
-15.3138179856
 20
12.8083926013
 10
-15.3572123903
 20
12.8400430884
 10
-15.4027988602
 20
12.8695536213
 10
-15.4505554164
 20
12.8969456566
 10
-15.5
 20
12.9219426967
 10
-15.5511497077
 20
12.9445204847
 10
-15.6039874428
 20
12.9647032774
 10
-15.6579798567
 20
12.9822873481
 10
-15.7131386441
 20
12.9972463764
 10
-15.7694521103
 20
13.0096066827
 10
-15.8263518223
 20
13.0192435009
 10
-15.8836483024
 20
13.0261152424
 10
-15.9415310283
 20
13.0302634958
 10
-16.0
 20
13.0316882611
  0
LINE
  5
231
100
AcDbEntity
  8
0
100
AcDbLine
 62
7
  6
CONTINUOUS
 10
-25.5
 20
7.2976239511
 11
25.5
 21
7.2976239511
  0
LINE
  5
232
100
AcDbEntity
  8
0
100
AcDbLine
 62
7
  6
CONTINUOUS
 10
-25.5
 20
7.8712003874
 11
25.5
 21
7.8712003874
  0
LWPOLYLINE
  5
233
100
AcDbEntity
  8
0
100
AcDbPolyline
 62
7
  6
CONTINUOUS
 90
22
 70
0
 10
15.0635212496
 20
-12.4993214457
 10
15.0817735659
 20
-12.5369277233
 10
15.1064122064
 20
-12.5802098621
 10
15.1339745962
 20
-12.6221092497
 10
15.1644903475
 20
-12.6626118814
 10
15.1979298482
 20
-12.701731762
 10
15.2339555569
 20
-12.739074012
 10
15.2725936672
 20
-12.7746206273
 10
15.3138179856
 20
-12.808389612
 10
15.3572123903
 20
-12.8400400991
 10
15.4027988602
 20
-12.8695506321
 10
15.4505554164
 20
-12.8969426674
 10
15.5
 20
-12.9219397074
 10
15.5511497077
 20
-12.9445174954
 10
15.6039874428
 20
-12.9647002882
 10
15.6579798567
 20
-12.9822843588
 10
15.7131386441
 20
-12.9972433872
 10
15.7694521103
 20
-13.0096036934
 10
15.8263518223
 20
-13.0192405116
 10
15.8836483024
 20
-13.0261122531
 10
15.9415310283
 20
-13.0302605065
 10
16.0
 20
-13.0316852718
  0
LINE
  5
234
100
AcDbEntity
  8
0
100
AcDbLine
 62
7
  6
CONTINUOUS
 10
21.5
 20
11.9669606089
 11
16.0
 21
11.9669606089
  0
LINE
  5
235
100
AcDbEntity
  8
0
100
AcDbLine
 62
7
  6
CONTINUOUS
 10
-16.0
 20
11.9669606089
 11
-21.5
 21
11.9669606089
  0
LWPOLYLINE
  5
236
100
AcDbEntity
  8
0
100
AcDbPolyline
 62
7
  6
CONTINUOUS
 90
28
 70
0
 10
-21.5
 20
11.9669606089
 10
-21.5584689717
 20
11.9683853742
 10
-21.6163516976
 20
11.9725336276
 10
-21.6736481777
 20
11.979405369
 10
-21.7305478897
 20
11.9890421872
 10
-21.7868613559
 20
12.0014024935
 10
-21.8420201433
 20
12.0163615218
 10
-21.8960125572
 20
12.0339455925
 10
-21.9488502923
 20
12.0541283853
 10
-22.0
 20
12.0767061732
 10
-22.0494445836
 20
12.1017032133
 10
-22.0972011398
 20
12.1290952486
 10
-22.1427876097
 20
12.1586057815
 10
-22.1861820144
 20
12.1902562686
 10
-22.2274063328
 20
12.2240252533
 10
-22.2660444431
 20
12.2595718686
 10
-22.3020701518
 20
12.2969141187
 10
-22.3355096525
 20
12.3360339993
 10
-22.3660254038
 20
12.376536631
 10
-22.3935877936
 20
12.4184360186
 10
-22.4182264341
 20
12.4617181573
 10
-22.4396926208
 20
12.5059461536
 10
-22.4579542224
 20
12.551129587
 10
-22.4730433702
 20
12.597258878
 10
-22.484807753
 20
12.6438683934
 10
-22.493213697
 20
12.690962997
 10
-22.4982948759
 20
12.7385378251
 10
-22.5
 20
12.7861126531
  0
LWPOLYLINE
  5
237
100
AcDbEntity
  8
0
100
AcDbPolyline
 62
7
  6
CONTINUOUS
 90
22
 70
0
 10
16.0
 20
13.0316882611
 10
15.9415310283
 20
13.0302634958
 10
15.8836483024
 20
13.0261152424
 10
15.8263518223
 20
13.0192435009
 10
15.7694521103
 20
13.0096066827
 10
15.7131386441
 20
12.9972463764
 10
15.6579798567
 20
12.9822873481
 10
15.6039874428
 20
12.9647032774
 10
15.5511497077
 20
12.9445204847
 10
15.5
 20
12.9219426967
 10
15.4505554164
 20
12.8969456566
 10
15.4027988602
 20
12.8695536213
 10
15.3572123903
 20
12.8400430884
 10
15.3138179856
 20
12.8083926013
 10
15.2725936672
 20
12.7746236166
 10
15.2339555569
 20
12.7390770013
 10
15.1979298482
 20
12.7017347513
 10
15.1644903475
 20
12.6626148707
 10
15.1339745962
 20
12.6221122389
 10
15.1064122064
 20
12.5802128513
 10
15.0817735659
 20
12.5369307126
 10
15.0635212496
 20
12.499324435
  0
LWPOLYLINE
  5
238
100
AcDbEntity
  8
0
100
AcDbPolyline
 62
7
  6
CONTINUOUS
 90
22
 70
0
 10
-21.5
 20
13.0316882611
 10
-21.5584689717
 20
13.0302634958
 10
-21.6163516976
 20
13.0261152424
 10
-21.6736481777
 20
13.0192435009
 10
-21.7305478897
 20
13.0096066827
 10
-21.7868613559
 20
12.9972463764
 10
-21.8420201433
 20
12.9822873481
 10
-21.8960125572
 20
12.9647032774
 10
-21.9488502923
 20
12.9445204847
 10
-22.0
 20
12.9219426967
 10
-22.0494445836
 20
12.8969456566
 10
-22.0972011398
 20
12.8695536213
 10
-22.1427876097
 20
12.8400430884
 10
-22.1861820144
 20
12.8083926013
 10
-22.2274063328
 20
12.7746236166
 10
-22.2660444431
 20
12.7390770013
 10
-22.3020701518
 20
12.7017347513
 10
-22.3355096525
 20
12.6626148707
 10
-22.3660254038
 20
12.6221122389
 10
-22.3935877936
 20
12.5802128513
 10
-22.4182264341
 20
12.5369307126
 10
-22.4364787504
 20
12.499324435
  0
LINE
  5
239
100
AcDbEntity
  8
0
100
AcDbLine
 62
7
  6
CONTINUOUS
 10
-21.5
 20
13.0316882611
 11
-16.0
 21
13.0316882611
  0
LINE
  5
23A
100
AcDbEntity
  8
0
100
AcDbLine
 62
7
  6
CONTINUOUS
 10
16.0
 20
13.0316882611
 11
21.5
 21
13.0316882611
  0
LINE
  5
23B
100
AcDbEntity
  8
0
100
AcDbLine
 62
7
  6
CONTINUOUS
 10
-21.5
 20
13.6052646974
 11
-16.0
 21
13.6052646974
  0
LINE
  5
23C
100
AcDbEntity
  8
0
100
AcDbLine
 62
7
  6
CONTINUOUS
 10
16.0
 20
13.6052646974
 11
21.5
 21
13.6052646974
  0
LWPOLYLINE
  5
23D
100
AcDbEntity
  8
0
100
AcDbPolyline
 62
7
  6
CONTINUOUS
 90
28
 70
0
 10
16.0
 20
11.9669606089
 10
15.9415310283
 20
11.9683853742
 10
15.8836483024
 20
11.9725336276
 10
15.8263518223
 20
11.979405369
 10
15.7694521103
 20
11.9890421872
 10
15.7131386441
 20
12.0014024935
 10
15.6579798567
 20
12.0163615218
 10
15.6039874428
 20
12.0339455925
 10
15.5511497077
 20
12.0541283853
 10
15.5
 20
12.0767061732
 10
15.4505554164
 20
12.1017032133
 10
15.4027988602
 20
12.1290952486
 10
15.3572123903
 20
12.1586057815
 10
15.3138179856
 20
12.1902562686
 10
15.2725936672
 20
12.2240252533
 10
15.2339555569
 20
12.2595718686
 10
15.1979298482
 20
12.2969141187
 10
15.1644903475
 20
12.3360339993
 10
15.1339745962
 20
12.376536631
 10
15.1064122064
 20
12.4184360186
 10
15.0817735659
 20
12.4617181573
 10
15.0603073792
 20
12.5059461536
 10
15.0420457776
 20
12.551129587
 10
15.0269566298
 20
12.597258878
 10
15.015192247
 20
12.6438683934
 10
15.006786303
 20
12.690962997
 10
15.0017051241
 20
12.7385378251
 10
15.0
 20
12.7861126531
  0
LWPOLYLINE
  5
23E
100
AcDbEntity
  8
0
100
AcDbPolyline
 62
7
  6
CONTINUOUS
 90
28
 70
0
 10
-16.0
 20
13.6052646974
 10
-15.9415310283
 20
13.6038399321
 10
-15.8836483024
 20
13.5996916787
 10
-15.8263518223
 20
13.5928199373
 10
-15.7694521103
 20
13.5831831191
 10
-15.7131386441
 20
13.5708228128
 10
-15.6579798567
 20
13.5558637845
 10
-15.6039874428
 20
13.5382797138
 10
-15.5511497077
 20
13.518096921
 10
-15.5
 20
13.4955191331
 10
-15.4505554164
 20
13.470522093
 10
-15.4027988602
 20
13.4431300577
 10
-15.3572123903
 20
13.4136195247
 10
-15.3138179856
 20
13.3819690377
 10
-15.2725936672
 20
13.348200053
 10
-15.2339555569
 20
13.3126534377
 10
-15.1979298482
 20
13.2753111876
 10
-15.1644903475
 20
13.236191307
 10
-15.1339745962
 20
13.1956886753
 10
-15.1064122064
 20
13.1537892877
 10
-15.0817735659
 20
13.110507149
 10
-15.0603073792
 20
13.0662791527
 10
-15.0420457776
 20
13.0210957192
 10
-15.0269566298
 20
12.9749664283
 10
-15.015192247
 20
12.9283569129
 10
-15.006786303
 20
12.8812623092
 10
-15.0017051241
 20
12.8336874812
 10
-15.0
 20
12.7861126531
  0
LWPOLYLINE
  5
23F
100
AcDbEntity
  8
0
100
AcDbPolyline
 62
7
  6
CONTINUOUS
 90
28
 70
0
 10
21.5
 20
13.6052646974
 10
21.5584689717
 20
13.6038399321
 10
21.6163516976
 20
13.5996916787
 10
21.6736481777
 20
13.5928199373
 10
21.7305478897
 20
13.5831831191
 10
21.7868613559
 20
13.5708228128
 10
21.8420201433
 20
13.5558637845
 10
21.8960125572
 20
13.5382797138
 10
21.9488502923
 20
13.518096921
 10
22.0
 20
13.4955191331
 10
22.0494445836
 20
13.470522093
 10
22.0972011398
 20
13.4431300577
 10
22.1427876097
 20
13.4136195247
 10
22.1861820144
 20
13.3819690377
 10
22.2274063328
 20
13.348200053
 10
22.2660444431
 20
13.3126534377
 10
22.3020701518
 20
13.2753111876
 10
22.3355096525
 20
13.236191307
 10
22.3660254038
 20
13.1956886753
 10
22.3935877936
 20
13.1537892877
 10
22.4182264341
 20
13.110507149
 10
22.4396926208
 20
13.0662791527
 10
22.4579542224
 20
13.0210957192
 10
22.4730433702
 20
12.9749664283
 10
22.484807753
 20
12.9283569129
 10
22.493213697
 20
12.8812623092
 10
22.4982948759
 20
12.8336874812
 10
22.5
 20
12.7861126531
  0
LINE
  5
240
100
AcDbEntity
  8
0
100
AcDbLine
 62
250
  6
CONTINUOUS
 10
16.0
 20
-13.0316852718
 11
16.0
 21
-13.6052617082
  0
LINE
  5
241
100
AcDbEntity
  8
0
100
AcDbLine
 62
250
  6
CONTINUOUS
 10
16.0
 20
13.0316882611
 11
16.0
 21
13.6052646974
  0
LWPOLYLINE
  5
242
100
AcDbEntity
  8
0
100
AcDbPolyline
 62
7
  6
CONTINUOUS
 90
28
 70
0
 10
15.0
 20
12.7861126531
 10
15.0017051241
 20
12.8336874812
 10
15.006786303
 20
12.8812623092
 10
15.015192247
 20
12.9283569129
 10
15.0269566298
 20
12.9749664283
 10
15.0420457776
 20
13.0210957192
 10
15.0603073792
 20
13.0662791527
 10
15.0817735659
 20
13.110507149
 10
15.1064122064
 20
13.1537892877
 10
15.1339745962
 20
13.1956886753
 10
15.1644903475
 20
13.236191307
 10
15.1979298482
 20
13.2753111876
 10
15.2339555569
 20
13.3126534377
 10
15.2725936672
 20
13.348200053
 10
15.3138179856
 20
13.3819690377
 10
15.3572123903
 20
13.4136195247
 10
15.4027988602
 20
13.4431300577
 10
15.4505554164
 20
13.470522093
 10
15.5
 20
13.4955191331
 10
15.5511497077
 20
13.518096921
 10
15.6039874428
 20
13.5382797138
 10
15.6579798567
 20
13.5558637845
 10
15.7131386441
 20
13.5708228128
 10
15.7694521103
 20
13.5831831191
 10
15.8263518223
 20
13.5928199373
 10
15.8836483024
 20
13.5996916787
 10
15.9415310283
 20
13.6038399321
 10
16.0
 20
13.6052646974
  0
LWPOLYLINE
  5
243
100
AcDbEntity
  8
0
100
AcDbPolyline
 62
7
  6
CONTINUOUS
 90
28
 70
0
 10
15.0
 20
-12.7861096639
 10
15.0017051241
 20
-12.7385348358
 10
15.006786303
 20
-12.6909600078
 10
15.015192247
 20
-12.6438654041
 10
15.0269566298
 20
-12.5972558887
 10
15.0420457776
 20
-12.5511265978
 10
15.0603073792
 20
-12.5059431643
 10
15.0817735659
 20
-12.4617151681
 10
15.1064122064
 20
-12.4184330293
 10
15.1339745962
 20
-12.3765336417
 10
15.1644903475
 20
-12.33603101
 10
15.1979298482
 20
-12.2969111294
 10
15.2339555569
 20
-12.2595688794
 10
15.2725936672
 20
-12.2240222641
 10
15.3138179856
 20
-12.1902532793
 10
15.3572123903
 20
-12.1586027923
 10
15.4027988602
 20
-12.1290922593
 10
15.4505554164
 20
-12.101700224
 10
15.5
 20
-12.076703184
 10
15.5511497077
 20
-12.054125396
 10
15.6039874428
 20
-12.0339426032
 10
15.6579798567
 20
-12.0163585326
 10
15.7131386441
 20
-12.0013995042
 10
15.7694521103
 20
-11.989039198
 10
15.8263518223
 20
-11.9794023798
 10
15.8836483024
 20
-11.9725306383
 10
15.9415310283
 20
-11.9683823849
 10
16.0
 20
-11.9669576196
  0
LINE
  5
244
100
AcDbEntity
  8
0
100
AcDbLine
 62
250
  6
CONTINUOUS
 10
21.5
 20
13.6052646974
 11
21.5
 21
13.0316882611
  0
LINE
  5
245
100
AcDbEntity
  8
0
100
AcDbLine
 62
250
  6
CONTINUOUS
 10
21.5
 20
-13.0316852718
 11
21.5
 21
-13.6052617082
  0
LWPOLYLINE
  5
246
100
AcDbEntity
  8
0
100
AcDbPolyline
 62
7
  6
CONTINUOUS
 90
28
 70
0
 10
22.5
 20
12.7861126531
 10
22.4982948759
 20
12.7385378251
 10
22.493213697
 20
12.690962997
 10
22.484807753
 20
12.6438683934
 10
22.4730433702
 20
12.597258878
 10
22.4579542224
 20
12.551129587
 10
22.4396926208
 20
12.5059461536
 10
22.4182264341
 20
12.4617181573
 10
22.3935877936
 20
12.4184360186
 10
22.3660254038
 20
12.376536631
 10
22.3355096525
 20
12.3360339993
 10
22.3020701518
 20
12.2969141187
 10
22.2660444431
 20
12.2595718686
 10
22.2274063328
 20
12.2240252533
 10
22.1861820144
 20
12.1902562686
 10
22.1427876097
 20
12.1586057815
 10
22.0972011398
 20
12.1290952486
 10
22.0494445836
 20
12.1017032133
 10
22.0
 20
12.0767061732
 10
21.9488502923
 20
12.0541283853
 10
21.8960125572
 20
12.0339455925
 10
21.8420201433
 20
12.0163615218
 10
21.7868613559
 20
12.0014024935
 10
21.7305478897
 20
11.9890421872
 10
21.6736481777
 20
11.979405369
 10
21.6163516976
 20
11.9725336276
 10
21.5584689717
 20
11.9683853742
 10
21.5
 20
11.9669606089
  0
LWPOLYLINE
  5
247
100
AcDbEntity
  8
0
100
AcDbPolyline
 62
7
  6
CONTINUOUS
 90
28
 70
0
 10
22.5
 20
-12.7861096639
 10
22.4982948759
 20
-12.8336844919
 10
22.493213697
 20
-12.88125932
 10
22.484807753
 20
-12.9283539236
 10
22.4730433702
 20
-12.974963439
 10
22.4579542224
 20
-13.02109273
 10
22.4396926208
 20
-13.0662761635
 10
22.4182264341
 20
-13.1105041597
 10
22.3935877936
 20
-13.1537862984
 10
22.3660254038
 20
-13.195685686
 10
22.3355096525
 20
-13.2361883178
 10
22.3020701518
 20
-13.2753081984
 10
22.2660444431
 20
-13.3126504484
 10
22.2274063328
 20
-13.3481970637
 10
22.1861820144
 20
-13.3819660484
 10
22.1427876097
 20
-13.4136165355
 10
22.0972011398
 20
-13.4431270684
 10
22.0494445836
 20
-13.4705191037
 10
22.0
 20
-13.4955161438
 10
21.9488502923
 20
-13.5180939318
 10
21.8960125572
 20
-13.5382767245
 10
21.8420201433
 20
-13.5558607952
 10
21.7868613559
 20
-13.5708198235
 10
21.7305478897
 20
-13.5831801298
 10
21.6736481777
 20
-13.592816948
 10
21.6163516976
 20
-13.5996886894
 10
21.5584689717
 20
-13.6038369428
 10
21.5
 20
-13.6052617082
  0
LINE
  5
248
100
AcDbEntity
  8
0
100
AcDbLine
 62
250
  6
CONTINUOUS
 10
25.5
 20
23.1539647626
 11
-25.5
 21
23.1539647626
  0
LINE
  5
249
100
AcDbEntity
  8
0
100
AcDbLine
 62
7
  6
CONTINUOUS
 10
25.5
 20
-24.0068089004
 11
25.5
 21
-7.8711973981
  0
LINE
  5
24A
100
AcDbEntity
  8
0
100
AcDbLine
 62
7
  6
CONTINUOUS
 10
25.5
 20
-7.8711973981
 11
25.5
 21
7.8712003874
  0
LINE
  5
24B
100
AcDbEntity
  8
0
100
AcDbLine
 62
7
  6
CONTINUOUS
 10
25.5
 20
7.8712003874
 11
25.5
 21
24.0068118897
  0
LINE
  5
24C
100
AcDbEntity
  8
0
100
AcDbLine
 62
7
  6
CONTINUOUS
 10
25.5
 20
24.0068118899
 11
-25.5
 21
24.0068118899
  0
LWPOLYLINE
  5
24D
100
AcDbEntity
  8
0
100
AcDbPolyline
 62
7
  6
CONTINUOUS
 90
22
 70
0
 10
22.4364787504
 20
12.499324435
 10
22.4182264341
 20
12.5369307126
 10
22.3935877936
 20
12.5802128513
 10
22.3660254038
 20
12.6221122389
 10
22.3355096525
 20
12.6626148707
 10
22.3020701518
 20
12.7017347513
 10
22.2660444431
 20
12.7390770013
 10
22.2274063328
 20
12.7746236166
 10
22.1861820144
 20
12.8083926013
 10
22.1427876097
 20
12.8400430884
 10
22.0972011398
 20
12.8695536213
 10
22.0494445836
 20
12.8969456566
 10
22.0
 20
12.9219426967
 10
21.9488502923
 20
12.9445204847
 10
21.8960125572
 20
12.9647032774
 10
21.8420201433
 20
12.9822873481
 10
21.7868613559
 20
12.9972463764
 10
21.7305478897
 20
13.0096066827
 10
21.6736481777
 20
13.0192435009
 10
21.6163516976
 20
13.0261152424
 10
21.5584689717
 20
13.0302634958
 10
21.5
 20
13.0316882611
  0
ARC
  5
24E
100
AcDbEntity
  8
0
100
AcDbCircle
 62
7
  6
CONTINUOUS
 10
17.25
 20
13.2500014946
 40
1.1
100
AcDbArc
 50
191.4494491325
 51
348.5505508675
  0
ARC
  5
24F
100
AcDbEntity
  8
0
100
AcDbCircle
 62
7
  6
CONTINUOUS
 10
17.25
 20
-13.2499985054
 40
1.1
100
AcDbArc
 50
11.4494491325
 51
168.5505508675
  0
ARC
  5
250
100
AcDbEntity
  8
0
100
AcDbCircle
 62
7
  6
CONTINUOUS
 10
-17.25
 20
13.2500014946
 40
1.1
100
AcDbArc
 50
191.4494491325
 51
348.5505508675
  0
ARC
  5
251
100
AcDbEntity
  8
0
100
AcDbCircle
 62
7
  6
CONTINUOUS
 10
-17.25
 20
-13.2499985054
 40
1.1
100
AcDbArc
 50
11.4494491325
 51
168.5505508675
  0
ENDSEC
  0
SECTION
  2
OBJECTS
  0
DICTIONARY
  5
C
100
AcDbDictionary
280
0
281
1
  3
ACAD_GROUP
350
D
  3
ACAD_MLINESTYLE
350
17
  3
ACAD_LAYOUT
350
1A
  3
ACAD_PLOTSETTINGS
350
19
  3
ACAD_PLOTSTYLENAME
350
E
  0
DICTIONARY
  5
D
102
{ACAD_REACTORS
330
C
102
}
100
AcDbDictionary
280
0
281
1
  0
ACDBDICTIONARYWDFLT
  5
E
102
{ACAD_REACTORS
330
C
102
}
100
AcDbDictionary
281
1
  3
Normal
350
F
100
AcDbDictionaryWithDefault
340
F
  0
DICTIONARY
  5
17
102
{ACAD_REACTORS
330
C
102
}
100
AcDbDictionary
280
0
281
1
  3
Standard
350
18
  0
DICTIONARY
  5
19
102
{ACAD_REACTORS
330
C
102
}
100
AcDbDictionary
281
1
  0
DICTIONARY
  5
1A
102
{ACAD_REACTORS
330
C
102
}
100
AcDbDictionary
281
1
  3
Model
350
252
  3
Layout1
350
253
  0
ACDBPLACEHOLDER
  5
F
102
{ACAD_REACTORS
330
E
102
}
  0
MLINESTYLE
  5
18
102
{ACAD_REACTORS
330
17
102
}
100
AcDbMlineStyle
  2
STANDARD
 70
0
  3

 62
256
 51
90.0
 52
90.0
 71
2
 49
0.5
 62
256
  6
BYLAYER
 49
-0.5
 62
256
  6
BYLAYER
  0
LAYOUT
  5
252
102
{ACAD_REACTORS
330
1A
102
}
100
AcDbPlotSettings
  1

  2
none_device
  4
ISO_A4_(297.00_x_210.00_MM)
  6

 40
0.0
 41
0.0
 42
0.0
 43
0.0
 44
297.0
 45
210.0
 46
0.0
 47
0.0
 48
0.0
 49
0.0
140
0.0
141
0.0
142
1.0
143
1.0
 70
1024
 72
1
 73
0
 74
0
  7

 75
0
147
1.0
148
0.0
149
0.0
100
AcDbLayout
  1
Model
 70
0
 71
0
 10
0.0
 20
0.0
 11
297.0
 21
210.0
 12
0.0
 22
0.0
 32
0.0
 14
0.0
 24
0.0
 34
0.0
 15
0.0
 25
0.0
 35
0.0
146
0.0
 13
0.0
 23
0.0
 33
0.0
 16
1.0
 26
0.0
 36
0.0
 17
0.0
 27
1.0
 37
0.0
 76
0
330
20D
345
0
346
0
  0
LAYOUT
  5
253
102
{ACAD_REACTORS
330
1A
102
}
100
AcDbPlotSettings
  1

  2
none_device
  4
ISO_A4_(297.00_x_210.00_MM)
  6

 40
0.0
 41
0.0
 42
0.0
 43
0.0
 44
297.0
 45
210.0
 46
0.0
 47
0.0
 48
0.0
 49
0.0
140
0.0
141
0.0
142
1.0
143
1.0
 70
0
 72
1
 73
0
 74
0
  7

 75
0
147
1.0
148
0.0
149
0.0
100
AcDbLayout
  1
Layout1
 70
0
 71
1
 10
0.0
 20
0.0
 11
297.0
 21
210.0
 12
0.0
 22
0.0
 32
0.0
 14
0.0
 24
0.0
 34
0.0
 15
0.0
 25
0.0
 35
0.0
146
0.0
 13
0.0
 23
0.0
 33
0.0
 16
1.0
 26
0.0
 36
0.0
 17
0.0
 27
1.0
 37
0.0
 76
0
330
20E
345
0
346
0
  0
ENDSEC
  0
EOF
