0
SECTION
2
HEADER
9
$ACADVER
1
AC1014
9
$HANDSEED
5
       37E
9
$EXTMAX
10
297.0000000000
20
210.0000000000
9
$EXTMIN
10
0.0000000000
20
0.0000000000
9
$LIMMIN
10
0.0000000000
20
0.0000000000
9
$LIMMAX
10
297.0000000000
20
210.0000000000
9
$VIEWCTR
10
148.5000000000
20
105.0000000000
9
$VIEWSIZE
40
210.0000000000
9
$CLAYER
8
0
9
$LTSCALE
40
16.3350000000
9
$CELTYPE
6
BYLAYER
9
$DIMSCALE
40
1
9
$DIMASZ
40
3.0000000000
9
$DIMEXO
40
1.8562500000
9
$DIMDLI
40
11.2860000000
9
$DIMEXE
40
5.3460000000
9
$DIMCEN
40
2.6730000000
9
$DIMLFAC
40
1.0000000000
9
$DIMTXT
40
3.0000000000
9
$DIMTOL
70
1
9
$DIMLIM
70
0
9
$DIMTFAC
40
1.0000000000
9
$DIMTP
40
0.0100000000
9
$DIMTM
40
0.0100000000
9
$MEASUREMENT
70
1
0
ENDSEC
0
SECTION
2
CLASSES
0
ENDSEC
0
SECTION
2
TABLES
0
TABLE
2
VPORT
5
8
100
AcDbSymbolTable
70
2
0
VPORT
5
1F4
100
AcDbSymbolTableRecord
100
AcDbViewportTableRecord
2
*ACTIVE
70
0
10
0.0
20
0.0
11
1.0
21
1.0
12
148.5000000000
22
105.0000000000
13
0.0
23
0.0
14
1.0
24
1.0
15
0.0
25
0.0
16
0.0
26
0.0
36
1.0
17
0.0
27
0.0
37
0.0
40
210.0000000000
41
1.4142857143
42
50.0
43
0.0
44
0.0
50
0.0
51
0.0
71
0
72
100
73
1
74
1
75
0
76
0
77
0
78
0
0
ENDTAB
0
TABLE
2
LTYPE
5
5
100
AcDbSymbolTable
70
6
0
LTYPE
5
14
100
AcDbSymbolTableRecord
100
AcDbLinetypeTableRecord
2
BYBLOCK
70
0
3

72
65
73
0
40
0.0
0
LTYPE
5
15
100
AcDbSymbolTableRecord
100
AcDbLinetypeTableRecord
2
BYLAYER
70
0
3

72
65
73
0
40
0.0
0
LTYPE
5
16
100
AcDbSymbolTableRecord
100
AcDbLinetypeTableRecord
2
CONTINUOUS
70
64
3
Solid line
72
65
73
0
40
0
0
LTYPE
5
1F5
100
AcDbSymbolTableRecord
100
AcDbLinetypeTableRecord
2
CENTER
70
64
3
____ _ ____ _ ____ _ ____ _ ____ _ ____ _ ____
72
65
73
4
40
0.6
49
0.375
74
0
49
-0.075
74
0
49
0.075
74
0
49
-0.075
74
0
0
LTYPE
5
1F6
100
AcDbSymbolTableRecord
100
AcDbLinetypeTableRecord
2
HIDDEN
70
64
3
- - - - - - - - - - - - - - - - - - - -
72
65
73
2
40
0.2
49
0.1
74
0
49
-0.1
74
0
0
LTYPE
5
1F7
100
AcDbSymbolTableRecord
100
AcDbLinetypeTableRecord
2
PHANTOM
70
64
3
_____ _ _ _____ _ _ _____ _ _ _____
72
65
73
6
40
0.8
49
0.45
74
0
49
-0.05
74
0
49
0.1
74
0
49
-0.05
74
0
49
0.1
74
0
49
-0.05
74
0
0
LTYPE
5
1F8
100
AcDbSymbolTableRecord
100
AcDbLinetypeTableRecord
2
DOT
70
64
3
. . . . . . . . . . . . . . . . . . . .
72
65
73
2
40
0.2
49
0.1
74
0
49
-0.1
74
0
0
LTYPE
5
1F9
100
AcDbSymbolTableRecord
100
AcDbLinetypeTableRecord
2
DASHED
70
64
3
- - - - - - - - - - - - - - - - - - - -
72
65
73
2
40
0.2
49
0.1
74
0
49
-0.1
74
0
0
ENDTAB
0
TABLE
2
LAYER
5
2
100
AcDbSymbolTable
70
36
0
LAYER
5
10
100
AcDbSymbolTableRecord
100
AcDbLayerTableRecord
2
0
70
0
62
7
6
CONTINUOUS
0
LAYER
5
1FA
100
AcDbSymbolTableRecord
100
AcDbLayerTableRecord
2
DEFAULT_1
70
0
62
7
6
CENTER
0
LAYER
5
1FB
100
AcDbSymbolTableRecord
100
AcDbLayerTableRecord
2
DEFAULT_2
70
0
62
8
6
HIDDEN
0
LAYER
5
1FC
100
AcDbSymbolTableRecord
100
AcDbLayerTableRecord
2
DEFAULT_3
70
0
62
7
6
PHANTOM
0
LAYER
5
1FD
100
AcDbSymbolTableRecord
100
AcDbLayerTableRecord
2
_BLACK_HOLE
70
0
62
7
6
CONTINUOUS
0
LAYER
5
1FE
100
AcDbSymbolTableRecord
100
AcDbLayerTableRecord
2
617_IDEA
70
0
62
7
6
CONTINUOUS
0
LAYER
5
1FF
100
AcDbSymbolTableRecord
100
AcDbLayerTableRecord
2
ASSI
70
0
62
7
6
CONTINUOUS
0
LAYER
5
200
100
AcDbSymbolTableRecord
100
AcDbLayerTableRecord
2
CIRCUITO_LETTORE_SA
70
0
62
7
6
CONTINUOUS
0
LAYER
5
201
100
AcDbSymbolTableRecord
100
AcDbLayerTableRecord
2
COLOR5
70
0
62
7
6
CONTINUOUS
0
LAYER
5
202
100
AcDbSymbolTableRecord
100
AcDbLayerTableRecord
2
CONNETTORE_L26
70
0
62
7
6
CONTINUOUS
0
LAYER
5
203
100
AcDbSymbolTableRecord
100
AcDbLayerTableRecord
2
COORDINATE
70
0
62
7
6
CONTINUOUS
0
LAYER
5
204
100
AcDbSymbolTableRecord
100
AcDbLayerTableRecord
2
COORD_ORIGINE
70
0
62
7
6
CONTINUOUS
0
LAYER
5
205
100
AcDbSymbolTableRecord
100
AcDbLayerTableRecord
2
CORPO
70
0
62
7
6
CONTINUOUS
0
LAYER
5
206
100
AcDbSymbolTableRecord
100
AcDbLayerTableRecord
2
COSMETICI
70
0
62
7
6
CONTINUOUS
0
LAYER
5
207
100
AcDbSymbolTableRecord
100
AcDbLayerTableRecord
2
CURVE
70
0
62
7
6
CONTINUOUS
0
LAYER
5
208
100
AcDbSymbolTableRecord
100
AcDbLayerTableRecord
2
DRAFT
70
0
62
7
6
CONTINUOUS
0
LAYER
5
209
100
AcDbSymbolTableRecord
100
AcDbLayerTableRecord
2
IGES_SCRITTE
70
0
62
7
6
CONTINUOUS
0
LAYER
5
20A
100
AcDbSymbolTableRecord
100
AcDbLayerTableRecord
2
NOTE
70
0
62
7
6
CONTINUOUS
0
LAYER
5
20B
100
AcDbSymbolTableRecord
100
AcDbLayerTableRecord
2
PIANI
70
0
62
7
6
CONTINUOUS
0
LAYER
5
20C
100
AcDbSymbolTableRecord
100
AcDbLayerTableRecord
2
PIANI_DI_RIFERIMENTO
70
0
62
7
6
CONTINUOUS
0
LAYER
5
20D
100
AcDbSymbolTableRecord
100
AcDbLayerTableRecord
2
PIANI_ORIGINE
70
0
62
7
6
CONTINUOUS
0
LAYER
5
20E
100
AcDbSymbolTableRecord
100
AcDbLayerTableRecord
2
PIANI_RIF
70
0
62
7
6
CONTINUOUS
0
LAYER
5
20F
100
AcDbSymbolTableRecord
100
AcDbLayerTableRecord
2
PUNTI
70
0
62
7
6
CONTINUOUS
0
LAYER
5
210
100
AcDbSymbolTableRecord
100
AcDbLayerTableRecord
2
RACCORDO
70
0
62
7
6
CONTINUOUS
0
LAYER
5
211
100
AcDbSymbolTableRecord
100
AcDbLayerTableRecord
2
SCRITTE
70
0
62
7
6
CONTINUOUS
0
LAYER
5
212
100
AcDbSymbolTableRecord
100
AcDbLayerTableRecord
2
SMUSSO
70
0
62
7
6
CONTINUOUS
0
LAYER
5
213
100
AcDbSymbolTableRecord
100
AcDbLayerTableRecord
2
SUPERFICI
70
0
62
7
6
CONTINUOUS
0
LAYER
5
214
100
AcDbSymbolTableRecord
100
AcDbLayerTableRecord
2
TRASH
70
0
62
7
6
CONTINUOUS
0
LAYER
5
215
100
AcDbSymbolTableRecord
100
AcDbLayerTableRecord
2
XSEC_DATUMS
70
0
62
7
6
CONTINUOUS
0
ENDTAB
0
TABLE
2
STYLE
5
3
100
AcDbSymbolTable
70
1
0
STYLE
5
11
100
AcDbSymbolTableRecord
100
AcDbTextStyleTableRecord
2
STANDARD
70
0
40
0.0
41
0.8000000000
50
0.0
71
0
42
0.2
3
txt
4

0
ENDTAB
0
TABLE
2
VIEW
5
6
100
AcDbSymbolTable
70
0
0
ENDTAB
0
TABLE
2
UCS
5
7
100
AcDbSymbolTable
70
0
0
ENDTAB
0
TABLE
2
APPID
5
9
100
AcDbSymbolTable
70
1
0
APPID
5
216
100
AcDbSymbolTableRecord
100
AcDbRegAppTableRecord
2
ACAD
70
0
0
ENDTAB
0
TABLE
2
DIMSTYLE
5
A
100
AcDbSymbolTable
70
1
0
DIMSTYLE
105
217
100
AcDbSymbolTableRecord
100
AcDbDimStyleTableRecord
2
STANDARD
70
0
3

4

5

6

7

40
1.0
41
3.0000000000
42
0.0625
43
0.38
44
0.18
45
0.0
46
0.0
47
0.0100000000
48
0.0100000000
140
3.0000000000
141
0.09
142
0.0
143
25.4
144
1.0000000000
145
0.0
146
1.0000000000
147
0.09
71
1
72
0
73
0
74
0
75
0
76
0
77
1
78
8
170
0
171
2
172
0
173
0
174
0
175
0
176
0
177
0
178
0
270
2
271
2
272
2
273
2
274
2
340
11
275
0
280
0
281
0
282
0
283
1
284
8
285
0
286
0
287
3
288
0
0
ENDTAB
0
TABLE
2
BLOCK_RECORD
5
1
100
AcDbSymbolTable
70
0
0
BLOCK_RECORD
5
1B
100
AcDbSymbolTableRecord
100
AcDbBlockTableRecord
2
*MODEL_SPACE
0
BLOCK_RECORD
5
1C
100
AcDbSymbolTableRecord
100
AcDbBlockTableRecord
2
*PAPER_SPACE
0
ENDTAB
0
ENDSEC
0
SECTION
2
BLOCKS
0
BLOCK
5
1E
100
AcDbEntity
8
0
100
AcDbBlockBegin
2
*MODEL_SPACE
70
0
10
0.0
20
0.0
30
0.0
3
*MODEL_SPACE
1

0
ENDBLK
5
1F
100
AcDbEntity
8
0
100
AcDbBlockEnd
0
BLOCK
5
20
100
AcDbEntity
8
0
100
AcDbBlockBegin
2
*PAPER_SPACE
70
0
10
0.0
20
0.0
30
0.0
3
*PAPER_SPACE
1

0
ENDBLK
5
21
100
AcDbEntity
8
0
100
AcDbBlockEnd
0
ENDSEC
0
SECTION
2
ENTITIES
0
LINE
5
218
100
AcDbEntity
8
0
100
AcDbLine
62
7
6
CONTINUOUS
10
-59.8785048747
20
-57.8129082192
11
60.5970024330
21
-57.8129082192
0
LINE
5
219
100
AcDbEntity
8
0
100
AcDbLine
62
7
6
CONTINUOUS
10
-58.1407512209
20
-55.8432927132
11
58.8592487791
21
-55.8432927132
0
LINE
5
21A
100
AcDbEntity
8
0
100
AcDbLine
62
7
6
CONTINUOUS
10
-57.5907512209
20
-55.5297433857
11
58.3092487791
21
-55.5297433857
0
LINE
5
21B
100
AcDbEntity
8
0
100
AcDbLine
62
9
6
CONTINUOUS
10
-58.1407513356
20
-52.4961684264
11
-58.0907512209
21
-52.4961684264
0
LINE
5
21C
100
AcDbEntity
8
0
100
AcDbLine
62
9
6
CONTINUOUS
10
58.8092487791
20
-52.4961684264
11
58.8592488938
21
-52.4961684264
0
LINE
5
21D
100
AcDbEntity
8
0
100
AcDbLine
62
7
6
CONTINUOUS
10
58.8092487791
20
-49.9448970203
11
55.8092487791
21
-49.9448970203
0
LINE
5
21E
100
AcDbEntity
8
0
100
AcDbLine
62
7
6
CONTINUOUS
10
-55.0907512209
20
-49.9448970203
11
-58.0907512209
21
-49.9448970203
0
LINE
5
21F
100
AcDbEntity
8
0
100
AcDbLine
62
7
6
CONTINUOUS
10
-60.0580779783
20
-49.9344461951
11
-58.3907512209
21
-49.9344461951
0
LINE
5
220
100
AcDbEntity
8
0
100
AcDbLine
62
7
6
CONTINUOUS
10
59.1092487791
20
-49.9344461951
11
60.7765755366
21
-49.9344461951
0
LINE
5
221
100
AcDbEntity
8
0
100
AcDbLine
62
9
6
CONTINUOUS
10
-58.0907512209
20
-46.8297257848
11
-56.0907512209
21
-46.8297257848
0
LINE
5
222
100
AcDbEntity
8
0
100
AcDbLine
62
9
6
CONTINUOUS
10
58.8092487791
20
-46.8297257848
11
56.8092487791
21
-46.8297257848
0
LINE
5
223
100
AcDbEntity
8
0
100
AcDbLine
62
9
6
CONTINUOUS
10
-60.5698069553
20
-46.5873219083
11
-58.3907512209
21
-46.5873219083
0
LINE
5
224
100
AcDbEntity
8
0
100
AcDbLine
62
9
6
CONTINUOUS
10
59.1092487791
20
-46.5873219083
11
61.2883045135
21
-46.5873219083
0
LINE
5
225
100
AcDbEntity
8
0
100
AcDbLine
62
9
6
CONTINUOUS
10
-58.1407512209
20
-43.7696288721
11
-58.0907512209
21
-43.7696288721
0
LINE
5
226
100
AcDbEntity
8
0
100
AcDbLine
62
9
6
CONTINUOUS
10
58.8092487791
20
-43.7696288721
11
58.8592487791
21
-43.7696288721
0
LINE
5
227
100
AcDbEntity
8
0
100
AcDbLine
62
9
6
CONTINUOUS
10
-60.4201173768
20
-40.7696288721
11
-58.3907512209
21
-40.7696288721
0
LINE
5
228
100
AcDbEntity
8
0
100
AcDbLine
62
9
6
CONTINUOUS
10
-58.0907512209
20
-40.7696288721
11
-56.0907512209
21
-40.7696288721
0
LINE
5
229
100
AcDbEntity
8
0
100
AcDbLine
62
9
6
CONTINUOUS
10
58.8092487791
20
-40.7696288721
11
56.8092487791
21
-40.7696288721
0
LINE
5
22A
100
AcDbEntity
8
0
100
AcDbLine
62
9
6
CONTINUOUS
10
59.1092487791
20
-40.7696288721
11
61.1386149350
21
-40.7696288721
0
LINE
5
22B
100
AcDbEntity
8
0
100
AcDbLine
62
7
6
CONTINUOUS
10
13.2258797791
20
-40.6200943906
11
14.7465027791
21
-40.6200796682
0
LINE
5
22C
100
AcDbEntity
8
0
100
AcDbLine
62
7
6
CONTINUOUS
10
2.7597177791
20
-40.6201091130
11
4.1097677791
21
-40.6200943906
0
LINE
5
22D
100
AcDbEntity
8
0
100
AcDbLine
62
7
6
CONTINUOUS
10
-4.7432282209
20
-40.6201091130
11
-3.3931772209
21
-40.6201091130
0
LINE
5
22E
100
AcDbEntity
8
0
100
AcDbLine
62
7
6
CONTINUOUS
10
0.5096387791
20
-40.6201091130
11
1.8596897791
21
-40.6201091130
0
LINE
5
22F
100
AcDbEntity
8
0
100
AcDbLine
62
7
6
CONTINUOUS
10
9.3444437791
20
-40.6200943906
11
10.6945117791
21
-40.6200943906
0
LINE
5
230
100
AcDbEntity
8
0
100
AcDbLine
62
7
6
CONTINUOUS
10
-2.1167862209
20
-40.6201091130
11
-0.7667692209
21
-40.6200943906
0
LINE
5
231
100
AcDbEntity
8
0
100
AcDbLine
62
7
6
CONTINUOUS
10
-7.4432952209
20
-40.6201238354
11
-6.0932452209
21
-40.6201091130
0
LINE
5
232
100
AcDbEntity
8
0
100
AcDbLine
62
7
6
CONTINUOUS
10
7.0943477791
20
-40.6200943906
11
8.4444157791
21
-40.6201091130
0
LINE
5
233
100
AcDbEntity
8
0
100
AcDbLine
62
7
6
CONTINUOUS
10
-11.8607152209
20
-40.6201238354
11
-10.5106142209
21
-40.6201091130
0
LINE
5
234
100
AcDbEntity
8
0
100
AcDbLine
62
7
6
CONTINUOUS
10
4.5359797791
20
-39.4704551933
11
6.6681527791
21
-39.4704551933
0
LINE
5
235
100
AcDbEntity
8
0
100
AcDbLine
62
7
6
CONTINUOUS
10
6.2563357791
20
-38.3597343117
11
4.9477807791
21
-38.3597343117
0
LINE
5
236
100
AcDbEntity
8
0
100
AcDbLine
62
7
6
CONTINUOUS
10
10.6946627791
20
-38.3597195893
11
11.8729597791
21
-38.3597343117
0
LINE
5
237
100
AcDbEntity
8
0
100
AcDbLine
62
7
6
CONTINUOUS
10
12.3184449489
20
-37.2782261990
11
10.6758977791
21
-37.2782261990
0
LINE
5
238
100
AcDbEntity
8
0
100
AcDbLine
62
7
6
CONTINUOUS
10
10.6758817791
20
-35.8556530336
11
12.3184170041
21
-35.8556530336
0
LINE
5
239
100
AcDbEntity
8
0
100
AcDbLine
62
7
6
CONTINUOUS
10
1.8596897791
20
-34.7741743657
11
-0.1812242209
21
-34.7741743657
0
LINE
5
23A
100
AcDbEntity
8
0
100
AcDbLine
62
7
6
CONTINUOUS
10
-2.7023152209
20
-34.7741743657
11
-4.7432282209
21
-34.7741743657
0
LINE
5
23B
100
AcDbEntity
8
0
100
AcDbLine
62
7
6
CONTINUOUS
10
-6.0932282209
20
-34.7741743657
11
-7.4432792209
21
-34.7741743657
0
LINE
5
23C
100
AcDbEntity
8
0
100
AcDbLine
62
7
6
CONTINUOUS
10
-8.3433072209
20
-34.7741743657
11
-9.6933742209
21
-34.7741743657
0
LINE
5
23D
100
AcDbEntity
8
0
100
AcDbLine
62
7
6
CONTINUOUS
10
-12.6779372209
20
-34.7741743657
11
-14.0280052209
21
-34.7741743657
0
LINE
5
23E
100
AcDbEntity
8
0
100
AcDbLine
62
7
6
CONTINUOUS
10
12.5058376598
20
-34.7741596433
11
9.3444437791
21
-34.7741596433
0
LINE
5
23F
100
AcDbEntity
8
0
100
AcDbLine
62
7
6
CONTINUOUS
10
6.2771087791
20
-34.7741596433
11
4.9269907791
21
-34.7741596433
0
LINE
5
240
100
AcDbEntity
8
0
100
AcDbLine
62
7
6
CONTINUOUS
10
-60.9000088442
20
-56.7072052294
11
-61.0583207380
21
-49.7615423310
0
LINE
5
241
100
AcDbEntity
8
0
100
AcDbLine
62
9
6
CONTINUOUS
10
-59.8785048747
20
-57.8129082192
11
-60.0580779783
21
-49.9344461951
0
LINE
5
242
100
AcDbEntity
8
0
100
AcDbLine
62
7
6
CONTINUOUS
10
-60.4201173768
20
30.4869199855
11
-60.4201173768
21
-40.7696288721
0
LINE
5
243
100
AcDbEntity
8
0
100
AcDbLine
62
9
6
CONTINUOUS
10
-58.3907512209
20
29.1619224835
11
-58.3907512209
21
-49.9344461951
0
LINE
5
244
100
AcDbEntity
8
0
100
AcDbLine
62
7
6
CONTINUOUS
10
-58.1407512209
20
29.0369224835
11
-58.1407512209
21
-49.9448970203
0
LINE
5
245
100
AcDbEntity
8
0
100
AcDbLine
62
7
6
CONTINUOUS
10
-58.1407512209
20
-50.1806481333
11
-58.1407512209
21
-55.8432927132
0
LINE
5
246
100
AcDbEntity
8
0
100
AcDbLine
62
7
6
CONTINUOUS
10
-58.0907512209
20
29.1184892431
11
-58.0907512209
21
-55.0220300798
0
LINE
5
247
100
AcDbEntity
8
0
100
AcDbLine
62
9
6
CONTINUOUS
10
-57.8907512207
20
29.3299707880
11
-57.8907512206
21
29.5949351851
0
LINE
5
248
100
AcDbEntity
8
0
100
AcDbLine
62
7
6
CONTINUOUS
10
-56.0907512209
20
52.2698776639
11
-56.0907512209
21
-49.7685700396
0
LINE
5
249
100
AcDbEntity
8
0
100
AcDbLine
62
9
6
CONTINUOUS
10
-55.0907512209
20
53.2702566110
11
-55.0907512209
21
-49.9448970203
0
LINE
5
24A
100
AcDbEntity
8
0
100
AcDbLine
62
7
6
CONTINUOUS
10
-61.0579723500
20
-49.7561556088
11
-61.0582805273
21
-49.7615399091
0
LINE
5
24B
100
AcDbEntity
8
0
100
AcDbLine
62
7
6
CONTINUOUS
10
-47.4758655211
20
21.9738464139
11
-47.4760835225
21
21.9769686873
0
LINE
5
24C
100
AcDbEntity
8
0
100
AcDbLine
62
7
6
CONTINUOUS
10
-47.4760835225
20
21.9769686873
11
-47.4850262717
21
22.1793308225
0
LINE
5
24D
100
AcDbEntity
8
0
100
AcDbLine
62
7
6
CONTINUOUS
10
-41.7964761701
20
22.1793308225
11
-41.8052211064
21
21.9798327092
0
LINE
5
24E
100
AcDbEntity
8
0
100
AcDbLine
62
7
6
CONTINUOUS
10
-41.8052211064
20
21.9798327092
11
-41.8056296354
21
21.9739501846
0
LINE
5
24F
100
AcDbEntity
8
0
100
AcDbLine
62
7
6
CONTINUOUS
10
-60.5698069553
20
-46.5873219083
11
-61.0579723500
21
-49.7561556088
0
LINE
5
250
100
AcDbEntity
8
0
100
AcDbLine
62
7
6
CONTINUOUS
10
-14.0280052209
20
-34.7741743657
11
-11.8607152209
21
-40.6201238354
0
LINE
5
251
100
AcDbEntity
8
0
100
AcDbLine
62
7
6
CONTINUOUS
10
-11.1856472209
20
-38.7994162752
11
-12.6779372209
21
-34.7741743657
0
LINE
5
252
100
AcDbEntity
8
0
100
AcDbLine
62
7
6
CONTINUOUS
10
11.8729597791
20
-38.3597343117
11
13.2258797791
21
-40.6200943906
0
LINE
5
253
100
AcDbEntity
8
0
100
AcDbLine
62
7
6
CONTINUOUS
10
14.7465027791
20
-40.6200796682
11
13.3094421812
21
-38.2191264169
0
LINE
5
254
100
AcDbEntity
8
0
100
AcDbLine
62
7
6
CONTINUOUS
10
-8.8857842209
20
18.7718120422
11
-7.1311032209
21
18.7718120422
0
LINE
5
255
100
AcDbEntity
8
0
100
AcDbLine
62
7
6
CONTINUOUS
10
-5.0910715651
20
18.7718120422
11
-1.8785252209
21
18.7718120422
0
LINE
5
256
100
AcDbEntity
8
0
100
AcDbLine
62
7
6
CONTINUOUS
10
0.0009735944
20
18.7718120422
11
2.7340837791
21
18.7718120422
0
LINE
5
257
100
AcDbEntity
8
0
100
AcDbLine
62
7
6
CONTINUOUS
10
5.2239942480
20
18.7718120422
11
8.4303527791
21
18.7718120422
0
LINE
5
258
100
AcDbEntity
8
0
100
AcDbLine
62
7
6
CONTINUOUS
10
5.6020417791
20
-36.5948672035
11
6.2563357791
21
-38.3597343117
0
LINE
5
259
100
AcDbEntity
8
0
100
AcDbLine
62
7
6
CONTINUOUS
10
6.6681527791
20
-39.4704551933
11
7.0943477791
21
-40.6200943906
0
LINE
5
25A
100
AcDbEntity
8
0
100
AcDbLine
62
7
6
CONTINUOUS
10
-3.3931772209
20
-36.7651078793
11
-2.1167862209
21
-40.6201091130
0
LINE
5
25B
100
AcDbEntity
8
0
100
AcDbLine
62
7
6
CONTINUOUS
10
-1.4417692209
20
-38.5812558158
11
-2.7023152209
21
-34.7741743657
0
LINE
5
25C
100
AcDbEntity
8
0
100
AcDbLine
62
7
6
CONTINUOUS
10
8.8640797522
20
23.5332162481
11
6.3202053501
21
23.5332162481
0
LINE
5
25D
100
AcDbEntity
8
0
100
AcDbLine
62
7
6
CONTINUOUS
10
3.4465923489
20
23.5332162481
11
1.2855415782
21
23.5332162481
0
LINE
5
25E
100
AcDbEntity
8
0
100
AcDbLine
62
7
6
CONTINUOUS
10
-2.1362242209
20
23.5332162481
11
-3.5275320566
21
23.5332162481
0
LINE
5
25F
100
AcDbEntity
8
0
100
AcDbLine
62
7
6
CONTINUOUS
10
56.8092487791
20
25.0483018155
11
56.9092487791
21
25.0483018155
0
LINE
5
260
100
AcDbEntity
8
0
100
AcDbLine
62
9
6
CONTINUOUS
10
56.9092487791
20
29.2534288344
11
56.8092487791
21
29.2534288344
0
LINE
5
261
100
AcDbEntity
8
0
100
AcDbLine
62
7
6
CONTINUOUS
10
-57.8407512209
20
29.3351275642
11
-56.0907512209
21
29.3351275642
0
LINE
5
262
100
AcDbEntity
8
0
100
AcDbLine
62
7
6
CONTINUOUS
10
56.9092487791
20
29.3351275642
11
58.5592487791
21
29.3351275642
0
LINE
5
263
100
AcDbEntity
8
0
100
AcDbLine
62
9
6
CONTINUOUS
10
58.6092487791
20
29.5949351853
11
56.8092487791
21
29.5949351853
0
LINE
5
264
100
AcDbEntity
8
0
100
AcDbLine
62
9
6
CONTINUOUS
10
-56.0907512209
20
29.5949351853
11
-57.8907512209
21
29.5949351853
0
LINE
5
265
100
AcDbEntity
8
0
100
AcDbLine
62
7
6
CONTINUOUS
10
8.4444157791
20
-40.6201091130
11
6.2771087791
21
-34.7741596433
0
LINE
5
266
100
AcDbEntity
8
0
100
AcDbLine
62
7
6
CONTINUOUS
10
-10.2728469747
20
39.3214601950
11
-10.2729371000
21
39.3229712063
0
LINE
5
267
100
AcDbEntity
8
0
100
AcDbLine
62
7
6
CONTINUOUS
10
-7.4432792209
20
-34.7741743657
11
-7.4432952209
21
-40.6201238354
0
LINE
5
268
100
AcDbEntity
8
0
100
AcDbLine
62
7
6
CONTINUOUS
10
-59.4207265498
20
31.3524178300
11
-56.0907512209
21
31.3524178300
0
LINE
5
269
100
AcDbEntity
8
0
100
AcDbLine
62
7
6
CONTINUOUS
10
56.8092487791
20
31.3524178300
11
60.1392241080
21
31.3524178300
0
LINE
5
26A
100
AcDbEntity
8
0
100
AcDbLine
62
7
6
CONTINUOUS
10
-6.0932452209
20
-40.6201091130
11
-6.0932282209
21
-34.7741743657
0
LINE
5
26B
100
AcDbEntity
8
0
100
AcDbLine
62
7
6
CONTINUOUS
10
-4.7432282209
20
-34.7741743657
11
-4.7432282209
21
-40.6201091130
0
LINE
5
26C
100
AcDbEntity
8
0
100
AcDbLine
62
7
6
CONTINUOUS
10
-3.8907512209
20
50.8351275642
11
-3.8907512209
21
52.8181262131
0
LINE
5
26D
100
AcDbEntity
8
0
100
AcDbLine
62
7
6
CONTINUOUS
10
-3.3931772209
20
-40.6201091130
11
-3.3931772209
21
-36.7651078793
0
LINE
5
26E
100
AcDbEntity
8
0
100
AcDbLine
62
7
6
CONTINUOUS
10
0.5096217791
20
-36.7651078793
11
0.5096387791
21
-40.6201091130
0
LINE
5
26F
100
AcDbEntity
8
0
100
AcDbLine
62
7
6
CONTINUOUS
10
-4.5085691385
20
39.3229073590
11
-4.5086071366
21
39.3222693014
0
LINE
5
270
100
AcDbEntity
8
0
100
AcDbLine
62
7
6
CONTINUOUS
10
-7.1311032209
20
18.7718120422
11
-5.7035682209
21
23.5332162481
0
LINE
5
271
100
AcDbEntity
8
0
100
AcDbLine
62
7
6
CONTINUOUS
10
-5.4151922209
20
24.4950630327
11
-4.9899602209
21
25.9133831474
0
LINE
5
272
100
AcDbEntity
8
0
100
AcDbLine
62
7
6
CONTINUOUS
10
-7.6623982209
20
22.7967084076
11
-8.8857842209
21
18.7718120422
0
LINE
5
273
100
AcDbEntity
8
0
100
AcDbLine
62
7
6
CONTINUOUS
10
-6.9118512209
20
25.1907646223
11
-7.3437142209
21
23.7699512205
0
LINE
5
274
100
AcDbEntity
8
0
100
AcDbLine
62
9
6
CONTINUOUS
10
56.8092487791
20
44.2702566143
11
-56.0907512209
21
44.2702566143
0
LINE
5
275
100
AcDbEntity
8
0
100
AcDbLine
62
7
6
CONTINUOUS
10
5.2271530253
20
39.3214601950
11
5.2270629000
21
39.3229712063
0
LINE
5
276
100
AcDbEntity
8
0
100
AcDbLine
62
7
6
CONTINUOUS
10
1.8596897791
20
-40.6201091130
11
1.8596897791
21
-34.7741743657
0
LINE
5
277
100
AcDbEntity
8
0
100
AcDbLine
62
7
6
CONTINUOUS
10
4.6092487791
20
52.8181262131
11
4.6092487791
21
50.8351275642
0
LINE
5
278
100
AcDbEntity
8
0
100
AcDbLine
62
7
6
CONTINUOUS
10
9.3444437791
20
-34.7741596433
11
9.3444437791
21
-40.6200943906
0
LINE
5
279
100
AcDbEntity
8
0
100
AcDbLine
62
7
6
CONTINUOUS
10
-4.8783743790
20
23.0279643757
11
-5.8605732209
21
19.7519345609
0
LINE
5
27A
100
AcDbEntity
8
0
100
AcDbLine
62
7
6
CONTINUOUS
10
-4.1746962209
20
19.7931495759
11
-3.2741883307
21
22.7967080414
0
LINE
5
27B
100
AcDbEntity
8
0
100
AcDbLine
62
7
6
CONTINUOUS
10
-2.3176692209
20
23.0338478138
11
-3.4448911728
21
19.2741095350
0
LINE
5
27C
100
AcDbEntity
8
0
100
AcDbLine
62
7
6
CONTINUOUS
10
-1.8785252209
20
18.7718120422
11
0.2626167791
21
25.9133831474
0
LINE
5
27D
100
AcDbEntity
8
0
100
AcDbLine
62
7
6
CONTINUOUS
10
0.3131346952
20
23.0989994910
11
-0.7472522209
21
19.5621814667
0
LINE
5
27E
100
AcDbEntity
8
0
100
AcDbLine
62
7
6
CONTINUOUS
10
1.3184257791
20
20.8464114040
11
1.8742073896
21
22.7001695244
0
LINE
5
27F
100
AcDbEntity
8
0
100
AcDbLine
62
7
6
CONTINUOUS
10
2.8029577791
20
23.0201975214
11
2.2570337791
21
21.1993228183
0
LINE
5
280
100
AcDbEntity
8
0
100
AcDbLine
62
7
6
CONTINUOUS
10
-1.6111682209
20
25.2088515628
11
-2.1362242209
21
23.5332162481
0
LINE
5
281
100
AcDbEntity
8
0
100
AcDbLine
62
9
6
CONTINUOUS
10
-3.8324034495
20
50.4508897643
11
4.5510833272
21
50.4508897643
0
LINE
5
282
100
AcDbEntity
8
0
100
AcDbLine
62
7
6
CONTINUOUS
10
-55.0907512209
20
53.2702566143
11
-3.2246177683
21
53.2702566143
0
LINE
5
283
100
AcDbEntity
8
0
100
AcDbLine
62
7
6
CONTINUOUS
10
3.9451861591
20
53.2702566143
11
55.8092487791
21
53.2702566143
0
LINE
5
284
100
AcDbEntity
8
0
100
AcDbLine
62
7
6
CONTINUOUS
10
10.6758977791
20
-37.2782261990
11
10.6758817791
21
-35.8556530336
0
LINE
5
285
100
AcDbEntity
8
0
100
AcDbLine
62
7
6
CONTINUOUS
10
10.6945117791
20
-40.6200943906
11
10.6946627791
21
-38.3597195893
0
LINE
5
286
100
AcDbEntity
8
0
100
AcDbLine
62
7
6
CONTINUOUS
10
10.9914308615
20
39.3229073590
11
10.9913928634
21
39.3222693014
0
LINE
5
287
100
AcDbEntity
8
0
100
AcDbLine
62
7
6
CONTINUOUS
10
3.9961637791
20
21.2213995378
11
4.3757097791
21
22.4873390186
0
LINE
5
288
100
AcDbEntity
8
0
100
AcDbLine
62
7
6
CONTINUOUS
10
3.4320006265
20
19.3396867783
11
3.7226807791
21
20.3092219082
0
LINE
5
289
100
AcDbEntity
8
0
100
AcDbLine
62
7
6
CONTINUOUS
10
5.3121138539
20
22.8597789611
11
4.9256887791
21
21.5708953479
0
LINE
5
28A
100
AcDbEntity
8
0
100
AcDbLine
62
7
6
CONTINUOUS
10
4.6522047791
20
20.6587177183
11
4.3723567791
21
19.7253120740
0
LINE
5
28B
100
AcDbEntity
8
0
100
AcDbLine
62
7
6
CONTINUOUS
10
6.1473773002
20
19.9048509970
11
6.4012587791
21
20.7516483063
0
LINE
5
28C
100
AcDbEntity
8
0
100
AcDbLine
62
7
6
CONTINUOUS
10
7.3210337791
20
21.0974782308
11
6.7609825196
21
19.2294805895
0
LINE
5
28D
100
AcDbEntity
8
0
100
AcDbLine
62
7
6
CONTINUOUS
10
7.9043398562
20
23.0430374665
11
7.5118497791
21
21.7339263622
0
LINE
5
28E
100
AcDbEntity
8
0
100
AcDbLine
62
7
6
CONTINUOUS
10
8.4303527791
20
18.7718120422
11
9.6042817791
21
22.6873389254
0
LINE
5
28F
100
AcDbEntity
8
0
100
AcDbLine
62
7
6
CONTINUOUS
10
-4.9899602209
20
25.9133831474
11
-6.9118512209
21
25.1907646223
0
LINE
5
290
100
AcDbEntity
8
0
100
AcDbLine
62
7
6
CONTINUOUS
10
-0.1812242209
20
-34.7741743657
11
-1.4417692209
21
-38.5812558158
0
LINE
5
291
100
AcDbEntity
8
0
100
AcDbLine
62
7
6
CONTINUOUS
10
-9.6933742209
20
-34.7741743657
11
-11.1856472209
21
-38.7994162752
0
LINE
5
292
100
AcDbEntity
8
0
100
AcDbLine
62
7
6
CONTINUOUS
10
-10.5106142209
20
-40.6201091130
11
-8.3433072209
21
-34.7741743657
0
LINE
5
293
100
AcDbEntity
8
0
100
AcDbLine
62
7
6
CONTINUOUS
10
-7.3437142209
20
23.7699512205
11
-5.4151922209
21
24.4950630327
0
LINE
5
294
100
AcDbEntity
8
0
100
AcDbLine
62
7
6
CONTINUOUS
10
0.2626167791
20
25.9133831474
11
-1.6111682209
21
25.2088515628
0
LINE
5
295
100
AcDbEntity
8
0
100
AcDbLine
62
7
6
CONTINUOUS
10
-5.7035682209
20
23.5332162481
11
-7.6623982209
21
22.7967084076
0
LINE
5
296
100
AcDbEntity
8
0
100
AcDbLine
62
7
6
CONTINUOUS
10
2.2570337791
20
21.1993228183
11
1.3184257791
21
20.8464114040
0
LINE
5
297
100
AcDbEntity
8
0
100
AcDbLine
62
7
6
CONTINUOUS
10
1.0845837277
20
20.1266637338
11
3.9961637791
21
21.2213995378
0
LINE
5
298
100
AcDbEntity
8
0
100
AcDbLine
62
7
6
CONTINUOUS
10
4.9256887791
20
21.5708953479
11
6.6896316085
21
22.2341269828
0
LINE
5
299
100
AcDbEntity
8
0
100
AcDbLine
62
7
6
CONTINUOUS
10
7.5118497791
20
21.7339263622
11
4.6522047791
21
20.6587177183
0
LINE
5
29A
100
AcDbEntity
8
0
100
AcDbLine
62
7
6
CONTINUOUS
10
3.7226807791
20
20.3092219082
11
1.8067605883
21
19.5888480492
0
LINE
5
29B
100
AcDbEntity
8
0
100
AcDbLine
62
7
6
CONTINUOUS
10
-0.7667692209
20
-40.6200943906
11
0.5096217791
21
-36.7651078793
0
LINE
5
29C
100
AcDbEntity
8
0
100
AcDbLine
62
7
6
CONTINUOUS
10
4.9269907791
20
-34.7741596433
11
2.7597177791
21
-40.6201091130
0
LINE
5
29D
100
AcDbEntity
8
0
100
AcDbLine
62
7
6
CONTINUOUS
10
6.4012587791
20
20.7516483063
11
7.3210337791
21
21.0974782308
0
LINE
5
29E
100
AcDbEntity
8
0
100
AcDbLine
62
7
6
CONTINUOUS
10
42.5241344789
20
21.9738464139
11
42.5239164775
21
21.9769686873
0
LINE
5
29F
100
AcDbEntity
8
0
100
AcDbLine
62
7
6
CONTINUOUS
10
42.5239164775
20
21.9769686873
11
42.5149737283
21
22.1793308225
0
LINE
5
2A0
100
AcDbEntity
8
0
100
AcDbLine
62
7
6
CONTINUOUS
10
4.9477807791
20
-38.3597343117
11
5.6020417791
21
-36.5948672035
0
LINE
5
2A1
100
AcDbEntity
8
0
100
AcDbLine
62
7
6
CONTINUOUS
10
4.1097677791
20
-40.6200943906
11
4.5359797791
21
-39.4704551933
0
LINE
5
2A2
100
AcDbEntity
8
0
100
AcDbLine
62
7
6
CONTINUOUS
10
48.2035238299
20
22.1793308225
11
48.1947788936
21
21.9798327092
0
LINE
5
2A3
100
AcDbEntity
8
0
100
AcDbLine
62
7
6
CONTINUOUS
10
61.2883045135
20
-46.5873219083
11
61.7764699082
21
-49.7561556088
0
LINE
5
2A4
100
AcDbEntity
8
0
100
AcDbLine
62
7
6
CONTINUOUS
10
61.7767780735
20
-49.7615399143
11
61.7764699082
21
-49.7561556088
0
LINE
5
2A5
100
AcDbEntity
8
0
100
AcDbLine
62
9
6
CONTINUOUS
10
55.8092487791
20
-49.9448970203
11
55.8092487791
21
53.2702566110
0
LINE
5
2A6
100
AcDbEntity
8
0
100
AcDbLine
62
7
6
CONTINUOUS
10
56.8092487791
20
-49.7685700396
11
56.8092487791
21
52.2698776640
0
LINE
5
2A7
100
AcDbEntity
8
0
100
AcDbLine
62
7
6
CONTINUOUS
10
56.8219468554
20
28.0095218805
11
56.8219468554
21
25.0483018155
0
LINE
5
2A8
100
AcDbEntity
8
0
100
AcDbLine
62
7
6
CONTINUOUS
10
56.9092487791
20
29.3351275642
11
56.9092487791
21
25.0483018155
0
LINE
5
2A9
100
AcDbEntity
8
0
100
AcDbLine
62
7
6
CONTINUOUS
10
48.1947788936
20
21.9798327092
11
48.1943703646
21
21.9739501846
0
LINE
5
2AA
100
AcDbEntity
8
0
100
AcDbLine
62
9
6
CONTINUOUS
10
58.6092487791
20
29.3299707880
11
58.6092487791
21
29.5949351853
0
LINE
5
2AB
100
AcDbEntity
8
0
100
AcDbLine
62
7
6
CONTINUOUS
10
58.8092487791
20
-55.0220300798
11
58.8092487791
21
29.1184892431
0
LINE
5
2AC
100
AcDbEntity
8
0
100
AcDbLine
62
7
6
CONTINUOUS
10
58.8592487791
20
-55.8432927132
11
58.8592487791
21
29.0369224835
0
LINE
5
2AD
100
AcDbEntity
8
0
100
AcDbLine
62
9
6
CONTINUOUS
10
59.1092487791
20
-49.9344461951
11
59.1092487791
21
29.1619224835
0
LINE
5
2AE
100
AcDbEntity
8
0
100
AcDbLine
62
7
6
CONTINUOUS
10
61.1386149350
20
30.4869199855
11
61.1386149350
21
-40.7696288721
0
LINE
5
2AF
100
AcDbEntity
8
0
100
AcDbLine
62
9
6
CONTINUOUS
10
60.7765755366
20
-49.9344461951
11
60.5970024330
21
-57.8129082192
0
LINE
5
2B0
100
AcDbEntity
8
0
100
AcDbLine
62
7
6
CONTINUOUS
10
61.7768182962
20
-49.7615423308
11
61.6185064024
21
-56.7072052294
0
LINE
5
2B1
100
AcDbEntity
8
0
100
AcDbLine
62
7
6
CONTINUOUS
10
56.9092487791
20
29.3351275642
11
56.8219468554
21
28.0095218805
0
CIRCLE
5
2B2
100
AcDbEntity
8
0
100
AcDbCircle
62
7
6
CONTINUOUS
10
45.3592487791
20
36.3704253849
40
6.0000000000
0
CIRCLE
5
2B3
100
AcDbEntity
8
0
100
AcDbCircle
62
7
6
CONTINUOUS
10
45.3592487791
20
36.3704253849
40
4.0481345110
0
CIRCLE
5
2B4
100
AcDbEntity
8
0
100
AcDbCircle
62
7
6
CONTINUOUS
10
-44.6407512209
20
36.3704253849
40
6.0000000000
0
CIRCLE
5
2B5
100
AcDbEntity
8
0
100
AcDbCircle
62
7
6
CONTINUOUS
10
-44.6407512209
20
36.3704253849
40
4.0481345110
0
CIRCLE
5
2B6
100
AcDbEntity
8
0
100
AcDbCircle
62
7
6
CONTINUOUS
10
-46.3907512209
20
-42.3195746151
40
6.0000000000
0
CIRCLE
5
2B7
100
AcDbEntity
8
0
100
AcDbCircle
62
7
6
CONTINUOUS
10
-46.3907512209
20
-42.3195746151
40
4.0481345110
0
CIRCLE
5
2B8
100
AcDbEntity
8
0
100
AcDbCircle
62
7
6
CONTINUOUS
10
47.1092487791
20
-42.3195746151
40
6.0000000000
0
CIRCLE
5
2B9
100
AcDbEntity
8
0
100
AcDbCircle
62
7
6
CONTINUOUS
10
47.1092487791
20
-42.3195746151
40
4.0481345110
0
ARC
5
2BA
100
AcDbEntity
8
0
100
AcDbCircle
62
7
6
CONTINUOUS
10
55.8092487791
20
52.2702566143
40
1.0000000000
100
AcDbArc
50
0.0000000000
51
90.0000000000
0
ARC
5
2BB
100
AcDbEntity
8
0
100
AcDbCircle
62
7
6
CONTINUOUS
10
-55.0907512209
20
52.2702566143
40
1.0000000000
100
AcDbArc
50
90.0000000000
51
180.0000000000
0
ARC
5
2BC
100
AcDbEntity
8
0
100
AcDbCircle
62
7
6
CONTINUOUS
10
0.3592487791
20
50.8351275642
40
4.2500000000
100
AcDbArc
50
180.0000000000
51
360.0000000000
0
CIRCLE
5
2BD
100
AcDbEntity
8
0
100
AcDbCircle
62
9
6
CONTINUOUS
10
-44.6407512209
20
36.3704253849
40
6.2443362090
0
CIRCLE
5
2BE
100
AcDbEntity
8
0
100
AcDbCircle
62
9
6
CONTINUOUS
10
45.3592487791
20
36.3704253849
40
6.2443362091
0
CIRCLE
5
2BF
100
AcDbEntity
8
0
100
AcDbCircle
62
9
6
CONTINUOUS
10
-46.3907512209
20
-42.3195746151
40
6.2443362090
0
CIRCLE
5
2C0
100
AcDbEntity
8
0
100
AcDbCircle
62
9
6
CONTINUOUS
10
47.1092487791
20
-42.3195746151
40
6.2443362091
0
CIRCLE
5
2C1
100
AcDbEntity
8
0
100
AcDbCircle
62
7
6
CONTINUOUS
10
0.3592487791
20
-1.1295746151
40
13.0000000000
0
CIRCLE
5
2C2
100
AcDbEntity
8
0
100
AcDbCircle
62
7
6
CONTINUOUS
10
-46.3907512209
20
-42.3195746151
40
6.9660254038
0
CIRCLE
5
2C3
100
AcDbEntity
8
0
100
AcDbCircle
62
7
6
CONTINUOUS
10
47.1092487791
20
-42.3195746151
40
6.9660254038
0
CIRCLE
5
2C4
100
AcDbEntity
8
0
100
AcDbCircle
62
7
6
CONTINUOUS
10
-44.6407512209
20
36.3704253849
40
6.9660254038
0
CIRCLE
5
2C5
100
AcDbEntity
8
0
100
AcDbCircle
62
7
6
CONTINUOUS
10
45.3592487791
20
36.3704253849
40
6.9660254038
0
SPLINE
5
2C6
100
AcDbEntity
8
0
100
AcDbSpline
62
7
6
CONTINUOUS
70
0
71
3
72
15
73
11
74
9
42
0.0000001000
43
0.0000001000
44
0.0000000001
12
0.0000000000
22
-5.8217924872
32
0.0000000000
13
-0.8864027910
23
-5.7539167405
33
0.0000000000
40
0.0000000000
40
0.0000000000
40
0.0000000000
40
0.0000000000
40
0.1882327614
40
0.3619757856
40
0.5191661470
40
0.6579414841
40
0.7766637806
40
0.8739428268
40
0.9486583248
40
1.0000000000
40
1.0000000000
40
1.0000000000
40
1.0000000000
10
-60.4201173768
20
-40.7696288721
30
0.0000000000
10
-60.4201173768
20
-41.1349128975
30
0.0000000000
10
-60.4215982160
20
-41.8373634680
30
0.0000000000
10
-60.4287671884
20
-42.8448357986
30
0.0000000000
10
-60.4406969863
20
-43.7562782314
30
0.0000000000
10
-60.4571723662
20
-44.5608663970
30
0.0000000000
10
-60.4779901260
20
-45.2490302111
30
0.0000000000
10
-60.5025183768
20
-45.8127238255
30
0.0000000000
10
-60.5306910694
20
-46.2451701693
30
0.0000000000
10
-60.5546371539
20
-46.4888500001
30
0.0000000000
10
-60.5698069553
20
-46.5873219083
30
0.0000000000
11
-60.4201173768
21
-40.7696288721
31
0.0000000000
11
-60.4226086930
21
-41.8654781162
31
0.0000000000
11
-60.4300529281
21
-42.8769465555
31
0.0000000000
11
-60.4423611498
21
-43.7919934460
31
0.0000000000
11
-60.4593862795
21
-44.5997352575
31
0.0000000000
11
-60.4809249669
21
-45.2905761521
31
0.0000000000
11
-60.5067204755
21
-45.8563268021
31
0.0000000000
11
-60.5364656870
21
-46.2902866983
31
0.0000000000
11
-60.5698069553
21
-46.5873219083
31
0.0000000000
0
SPLINE
5
2C7
100
AcDbEntity
8
0
100
AcDbSpline
62
7
6
CONTINUOUS
70
0
71
3
72
15
73
11
74
9
42
0.0000001000
43
0.0000001000
44
0.0000000001
12
0.0000000000
22
-5.8217924872
32
0.0000000000
13
0.8864027910
23
-5.7539167405
33
0.0000000000
40
0.0000000000
40
0.0000000000
40
0.0000000000
40
0.0000000000
40
0.1882327614
40
0.3619757856
40
0.5191661470
40
0.6579414841
40
0.7766637806
40
0.8739428268
40
0.9486583248
40
1.0000000000
40
1.0000000000
40
1.0000000000
40
1.0000000000
10
61.1386149350
20
-40.7696288721
30
0.0000000000
10
61.1386149350
20
-41.1349128975
30
0.0000000000
10
61.1400957742
20
-41.8373634680
30
0.0000000000
10
61.1472647466
20
-42.8448357986
30
0.0000000000
10
61.1591945446
20
-43.7562782314
30
0.0000000000
10
61.1756699244
20
-44.5608663970
30
0.0000000000
10
61.1964876842
20
-45.2490302111
30
0.0000000000
10
61.2210159350
20
-45.8127238255
30
0.0000000000
10
61.2491886276
20
-46.2451701693
30
0.0000000000
10
61.2731347121
20
-46.4888500001
30
0.0000000000
10
61.2883045135
20
-46.5873219083
30
0.0000000000
11
61.1386149350
21
-40.7696288721
31
0.0000000000
11
61.1411062512
21
-41.8654781162
31
0.0000000000
11
61.1485504864
21
-42.8769465555
31
0.0000000000
11
61.1608587080
21
-43.7919934460
31
0.0000000000
11
61.1778838378
21
-44.5997352575
31
0.0000000000
11
61.1994225251
21
-45.2905761521
31
0.0000000000
11
61.2252180337
21
-45.8563268021
31
0.0000000000
11
61.2549632452
21
-46.2902866983
31
0.0000000000
11
61.2883045135
21
-46.5873219083
31
0.0000000000
0
SPLINE
5
2C8
100
AcDbEntity
8
0
100
AcDbSpline
62
7
6
CONTINUOUS
70
0
71
3
72
9
73
5
74
3
42
0.0000001000
43
0.0000001000
44
0.0000000001
12
0.0000000000
22
0.1938281476
32
0.0000000000
13
-0.0944488720
23
0.1709620767
33
0.0000000000
40
0.0000000000
40
0.0000000000
40
0.0000000000
40
0.0000000000
40
0.8771766747
40
1.0000000000
40
1.0000000000
40
1.0000000000
40
1.0000000000
10
58.8592487791
20
13.6870858833
30
0.0000000000
10
58.8592487791
20
13.7437597266
30
0.0000000000
10
58.8438900923
20
13.8091885764
30
0.0000000000
10
58.8140849435
20
13.8671413577
30
0.0000000000
10
58.8102181020
20
13.8741407346
30
0.0000000000
11
58.8592487791
21
13.6870858833
31
0.0000000000
11
58.8211885454
21
13.8527926703
31
0.0000000000
11
58.8102181020
21
13.8741407346
31
0.0000000000
0
SPLINE
5
2C9
100
AcDbEntity
8
0
100
AcDbSpline
62
7
6
CONTINUOUS
70
0
71
3
72
9
73
5
74
3
42
0.0000001000
43
0.0000001000
44
0.0000000001
12
0.0000000000
22
0.1938281476
32
0.0000000000
13
-0.0944488720
23
0.1709620767
33
0.0000000000
40
0.0000000000
40
0.0000000000
40
0.0000000000
40
0.0000000000
40
0.8771766747
40
1.0000000000
40
1.0000000000
40
1.0000000000
40
1.0000000000
10
58.8592487791
20
-15.7577778454
30
0.0000000000
10
58.8592487791
20
-15.7011040020
30
0.0000000000
10
58.8438900923
20
-15.6356751523
30
0.0000000000
10
58.8140849435
20
-15.5777223710
30
0.0000000000
10
58.8102181020
20
-15.5707229941
30
0.0000000000
11
58.8592487791
21
-15.7577778454
31
0.0000000000
11
58.8211885454
21
-15.5920710583
31
0.0000000000
11
58.8102181020
21
-15.5707229941
31
0.0000000000
0
SPLINE
5
2CA
100
AcDbEntity
8
0
100
AcDbSpline
62
7
6
CONTINUOUS
70
0
71
3
72
13
73
9
74
7
42
0.0000001000
43
0.0000001000
44
0.0000000001
12
0.0358276543
22
-1.6237586457
32
0.0000000000
13
1.6229136247
23
-0.0253017218
33
0.0000000000
40
0.0000000000
40
0.0000000000
40
0.0000000000
40
0.0000000000
40
0.1326185751
40
0.2921409971
40
0.4555471709
40
0.6242837820
40
0.8028780084
40
1.0000000000
40
1.0000000000
40
1.0000000000
40
1.0000000000
10
-60.9000300797
20
-56.7067152315
30
0.0000000000
10
-60.8984462755
20
-56.7784954175
30
0.0000000000
10
-60.8821473106
20
-56.9366185180
30
0.0000000000
10
-60.8125640518
20
-57.1747639692
30
0.0000000000
10
-60.6842475433
20
-57.4104199774
30
0.0000000000
10
-60.4952811263
20
-57.6163027712
30
0.0000000000
10
-60.2392545595
20
-57.7712698193
30
0.0000000000
10
-60.0343073615
20
-57.8110358171
30
0.0000000000
10
-59.9276700396
20
-57.8126983257
30
0.0000000000
11
-60.9000300797
21
-56.7067152315
31
0.0000000000
11
-60.8778113517
21
-56.9209436072
31
0.0000000000
11
-60.8046279984
21
-57.1693084509
31
0.0000000000
11
-60.6768756482
21
-57.4017398268
31
0.0000000000
11
-60.4907097951
21
-57.6026167948
31
0.0000000000
11
-60.2415799027
21
-57.7508182871
31
0.0000000000
11
-59.9276700396
21
-57.8126983257
31
0.0000000000
0
SPLINE
5
2CB
100
AcDbEntity
8
0
100
AcDbSpline
62
7
6
CONTINUOUS
70
0
71
3
72
9
73
5
74
3
42
0.0000001000
43
0.0000001000
44
0.0000000001
12
0.0000000000
22
-0.1938281476
32
0.0000000000
13
-0.0944488720
23
-0.1709620767
33
0.0000000000
40
0.0000000000
40
0.0000000000
40
0.0000000000
40
0.0000000000
40
0.8771766747
40
1.0000000000
40
1.0000000000
40
1.0000000000
40
1.0000000000
10
58.8592487791
20
-0.9013713848
30
0.0000000000
10
58.8592487791
20
-0.9580452281
30
0.0000000000
10
58.8438900923
20
-1.0234740779
30
0.0000000000
10
58.8140849435
20
-1.0814268592
30
0.0000000000
10
58.8102181020
20
-1.0884262361
30
0.0000000000
11
58.8592487791
21
-0.9013713848
31
0.0000000000
11
58.8211885454
21
-1.0670781718
31
0.0000000000
11
58.8102181020
21
-1.0884262361
31
0.0000000000
0
SPLINE
5
2CC
100
AcDbEntity
8
0
100
AcDbSpline
62
7
6
CONTINUOUS
70
0
71
3
72
9
73
5
74
3
42
0.0000001000
43
0.0000001000
44
0.0000000001
12
0.0000000000
22
-0.1938281476
32
0.0000000000
13
-0.0944488720
23
-0.1709620767
33
0.0000000000
40
0.0000000000
40
0.0000000000
40
0.0000000000
40
0.0000000000
40
0.8771766747
40
1.0000000000
40
1.0000000000
40
1.0000000000
40
1.0000000000
10
58.8592487791
20
-30.3462351135
30
0.0000000000
10
58.8592487791
20
-30.4029089568
30
0.0000000000
10
58.8438900923
20
-30.4683378066
30
0.0000000000
10
58.8140849435
20
-30.5262905879
30
0.0000000000
10
58.8102181020
20
-30.5332899648
30
0.0000000000
11
58.8592487791
21
-30.3462351135
31
0.0000000000
11
58.8211885454
21
-30.5119419005
31
0.0000000000
11
58.8102181020
21
-30.5332899648
31
0.0000000000
0
SPLINE
5
2CD
100
AcDbEntity
8
0
100
AcDbSpline
62
7
6
CONTINUOUS
70
0
71
3
72
9
73
5
74
3
42
0.0000001000
43
0.0000001000
44
0.0000000001
12
-0.0944488720
22
-0.1709620767
32
0.0000000000
13
0.0000000000
23
-0.1938281476
33
0.0000000000
40
0.0000000000
40
0.0000000000
40
0.0000000000
40
0.0000000000
40
0.1228233253
40
1.0000000000
40
1.0000000000
40
1.0000000000
40
1.0000000000
10
-58.0917205438
20
-15.5707229941
30
0.0000000000
10
-58.0955873853
20
-15.5777223710
30
0.0000000000
10
-58.1253925340
20
-15.6356751523
30
0.0000000000
10
-58.1407512209
20
-15.7011040020
30
0.0000000000
10
-58.1407512209
20
-15.7577778454
30
0.0000000000
11
-58.0917205438
21
-15.5707229941
31
0.0000000000
11
-58.1026909871
21
-15.5920710583
31
0.0000000000
11
-58.1407512209
21
-15.7577778454
31
0.0000000000
0
SPLINE
5
2CE
100
AcDbEntity
8
0
100
AcDbSpline
62
7
6
CONTINUOUS
70
0
71
3
72
9
73
5
74
3
42
0.0000001000
43
0.0000001000
44
0.0000000001
12
-0.0944488720
22
0.1709620767
32
0.0000000000
13
0.0000000000
23
0.1938281476
33
0.0000000000
40
0.0000000000
40
0.0000000000
40
0.0000000000
40
0.0000000000
40
0.1228233253
40
1.0000000000
40
1.0000000000
40
1.0000000000
40
1.0000000000
10
-58.0917205438
20
-30.5332899648
30
0.0000000000
10
-58.0955873853
20
-30.5262905879
30
0.0000000000
10
-58.1253925340
20
-30.4683378066
30
0.0000000000
10
-58.1407512209
20
-30.4029089568
30
0.0000000000
10
-58.1407512209
20
-30.3462351135
30
0.0000000000
11
-58.0917205438
21
-30.5332899648
31
0.0000000000
11
-58.1026909871
21
-30.5119419005
31
0.0000000000
11
-58.1407512209
21
-30.3462351135
31
0.0000000000
0
SPLINE
5
2CF
100
AcDbEntity
8
0
100
AcDbSpline
62
7
6
CONTINUOUS
70
0
71
3
72
9
73
5
74
3
42
0.0000001000
43
0.0000001000
44
0.0000000001
12
-0.0944488720
22
0.1709620767
32
0.0000000000
13
0.0000000000
23
0.1938281476
33
0.0000000000
40
0.0000000000
40
0.0000000000
40
0.0000000000
40
0.0000000000
40
0.1228233253
40
1.0000000000
40
1.0000000000
40
1.0000000000
40
1.0000000000
10
-58.0917205438
20
-1.0884262361
30
0.0000000000
10
-58.0955873853
20
-1.0814268592
30
0.0000000000
10
-58.1253925340
20
-1.0234740779
30
0.0000000000
10
-58.1407512209
20
-0.9580452281
30
0.0000000000
10
-58.1407512209
20
-0.9013713848
30
0.0000000000
11
-58.0917205438
21
-1.0884262361
31
0.0000000000
11
-58.1026909871
21
-1.0670781718
31
0.0000000000
11
-58.1407512209
21
-0.9013713848
31
0.0000000000
0
SPLINE
5
2D0
100
AcDbEntity
8
0
100
AcDbSpline
62
7
6
CONTINUOUS
70
0
71
3
72
9
73
5
74
3
42
0.0000001000
43
0.0000001000
44
0.0000000001
12
-0.0944488720
22
-0.1709620767
32
0.0000000000
13
0.0000000000
23
-0.1938281476
33
0.0000000000
40
0.0000000000
40
0.0000000000
40
0.0000000000
40
0.0000000000
40
0.1228233253
40
1.0000000000
40
1.0000000000
40
1.0000000000
40
1.0000000000
10
-58.0917205438
20
13.8741407346
30
0.0000000000
10
-58.0955873853
20
13.8671413577
30
0.0000000000
10
-58.1253925340
20
13.8091885764
30
0.0000000000
10
-58.1407512209
20
13.7437597266
30
0.0000000000
10
-58.1407512209
20
13.6870858833
30
0.0000000000
11
-58.0917205438
21
13.8741407346
31
0.0000000000
11
-58.1026909871
21
13.8527926703
31
0.0000000000
11
-58.1407512209
21
13.6870858833
31
0.0000000000
0
SPLINE
5
2D1
100
AcDbEntity
8
0
100
AcDbSpline
62
7
6
CONTINUOUS
70
0
71
3
72
8
73
4
74
2
42
0.0000001000
43
0.0000001000
44
0.0000000001
12
0.1106718921
22
0.0017254088
32
0.0000000000
13
0.1102337003
23
0.0154247607
33
0.0000000000
40
0.0000000000
40
0.0000000000
40
0.0000000000
40
0.0000000000
40
1.0000000000
40
1.0000000000
40
1.0000000000
40
1.0000000000
10
60.6461675978
20
-57.8126983257
30
0.0000000000
10
60.6830582285
20
-57.8121231894
30
0.0000000000
10
60.7200553219
20
-57.8092501210
30
0.0000000000
10
60.7567998886
20
-57.8041085341
30
0.0000000000
11
60.6461675978
21
-57.8126983257
31
0.0000000000
11
60.7567998886
21
-57.8041085341
31
0.0000000000
0
SPLINE
5
2D2
100
AcDbEntity
8
0
100
AcDbSpline
62
7
6
CONTINUOUS
70
0
71
3
72
8
73
4
74
2
42
0.0000001000
43
0.0000001000
44
0.0000000001
12
0.1059888712
22
0.0148307910
32
0.0000000000
13
0.1036308722
23
0.0273353897
33
0.0000000000
40
0.0000000000
40
0.0000000000
40
0.0000000000
40
0.0000000000
40
1.0000000000
40
1.0000000000
40
1.0000000000
40
1.0000000000
10
60.7567998886
20
-57.8041085341
30
0.0000000000
10
60.7921295124
20
-57.7991649371
30
0.0000000000
10
60.8272256834
20
-57.7921241679
30
0.0000000000
10
60.8617693075
20
-57.7830123714
30
0.0000000000
11
60.7567998886
21
-57.8041085341
31
0.0000000000
11
60.8617693075
21
-57.7830123714
31
0.0000000000
0
SPLINE
5
2D3
100
AcDbEntity
8
0
100
AcDbSpline
62
7
6
CONTINUOUS
70
0
71
3
72
13
73
9
74
7
42
0.0000001000
43
0.0000001000
44
0.0000000001
12
1.3691127698
22
0.3611397865
32
0.0000000000
13
0.0310353217
23
1.4065635337
33
0.0000000000
40
0.0000000000
40
0.0000000000
40
0.0000000000
40
0.0000000000
40
0.0731452392
40
0.2793171698
40
0.4741093172
40
0.6627479254
40
0.8469030707
40
1.0000000000
40
1.0000000000
40
1.0000000000
40
1.0000000000
10
60.8617693075
20
-57.7830123714
30
0.0000000000
10
60.8951506678
20
-57.7742071527
30
0.0000000000
10
61.0206525086
20
-57.7331976457
30
0.0000000000
10
61.2137786845
20
-57.6163027712
30
0.0000000000
10
61.4027451015
20
-57.4104199774
30
0.0000000000
10
61.5310616100
20
-57.1747639692
30
0.0000000000
10
61.6006448688
20
-56.9366185180
30
0.0000000000
10
61.6169438337
20
-56.7784954175
30
0.0000000000
10
61.6185276379
20
-56.7067152315
30
0.0000000000
11
60.8617693075
21
-57.7830123714
31
0.0000000000
11
60.9600774609
21
-57.7508182871
31
0.0000000000
11
61.2092073534
21
-57.6026167948
31
0.0000000000
11
61.3953732064
21
-57.4017398268
31
0.0000000000
11
61.5231255566
21
-57.1693084509
31
0.0000000000
11
61.5963089099
21
-56.9209436072
31
0.0000000000
11
61.6185276379
21
-56.7067152315
31
0.0000000000
0
SPLINE
5
2D4
100
AcDbEntity
8
0
100
AcDbSpline
62
7
6
CONTINUOUS
70
0
71
3
72
9
73
5
74
3
42
0.0000001000
43
0.0000001000
44
0.0000000001
12
-0.0491657250
22
0.0000000000
32
0.0000000000
13
-0.0491639308
23
0.0004200305
33
0.0000000000
40
0.0000000000
40
0.0000000000
40
0.0000000000
40
0.0000000000
40
0.5011830152
40
1.0000000000
40
1.0000000000
40
1.0000000000
40
1.0000000000
10
-59.8785048747
20
-57.8129082192
30
0.0000000000
10
-59.8867185502
20
-57.8129082192
30
0.0000000000
10
-59.9031071440
20
-57.8128731796
30
0.0000000000
10
-59.9194954383
20
-57.8127681651
30
0.0000000000
10
-59.9276700396
20
-57.8126983257
30
0.0000000000
11
-59.8785048747
21
-57.8129082192
31
0.0000000000
11
-59.9031458447
21
-57.8128555201
31
0.0000000000
11
-59.9276700396
21
-57.8126983257
31
0.0000000000
0
SPLINE
5
2D5
100
AcDbEntity
8
0
100
AcDbSpline
62
7
6
CONTINUOUS
70
0
71
3
72
9
73
5
74
3
42
0.0000001000
43
0.0000001000
44
0.0000000001
12
-0.0491639307
22
-0.0004200305
32
0.0000000000
13
-0.0491657250
23
0.0000000000
33
0.0000000000
40
0.0000000000
40
0.0000000000
40
0.0000000000
40
0.0000000000
40
0.4988169204
40
1.0000000000
40
1.0000000000
40
1.0000000000
40
1.0000000000
10
60.6461675978
20
-57.8126983257
30
0.0000000000
10
60.6379929976
20
-57.8127681651
30
0.0000000000
10
60.6216047033
20
-57.8128731796
30
0.0000000000
10
60.6052161094
20
-57.8129082192
30
0.0000000000
10
60.5970024330
20
-57.8129082192
30
0.0000000000
11
60.6461675978
21
-57.8126983257
31
0.0000000000
11
60.6216434061
21
-57.8128555201
31
0.0000000000
11
60.5970024330
21
-57.8129082192
31
0.0000000000
0
SPLINE
5
2D6
100
AcDbEntity
8
0
100
AcDbSpline
62
7
6
CONTINUOUS
70
0
71
3
72
15
73
11
74
9
42
0.0000001000
43
0.0000001000
44
0.0000000001
12
0.0000000000
22
1.4642931493
32
0.0000000000
13
-1.4642931493
23
0.0000000000
33
0.0000000000
40
0.0000000000
40
0.0000000000
40
0.0000000000
40
0.0000000000
40
0.1160610672
40
0.2335506786
40
0.3536400635
40
0.4770435067
40
0.6039375375
40
0.7339728117
40
0.8663586319
40
1.0000000000
40
1.0000000000
40
1.0000000000
40
1.0000000000
10
61.1386149350
20
30.4869199855
30
0.0000000000
10
61.1386149350
20
30.5435691273
30
0.0000000000
10
61.1255531091
20
30.6579754568
30
0.0000000000
10
61.0677327647
20
30.8220431831
30
0.0000000000
10
60.9741158017
20
30.9728818613
30
0.0000000000
10
60.8485604562
20
31.1046238320
30
0.0000000000
10
60.6960628347
20
31.2124087221
30
0.0000000000
10
60.5225070205
20
31.2922938568
30
0.0000000000
10
60.3345755426
20
31.3413956741
30
0.0000000000
10
60.2044541546
20
31.3524178300
30
0.0000000000
10
60.1392241080
20
31.3524178300
30
0.0000000000
11
61.1386149350
21
30.4869199855
31
0.0000000000
11
61.1194286456
21
30.6557809157
31
0.0000000000
11
61.0625894036
21
30.8181594804
31
0.0000000000
11
60.9702580993
21
30.9678149793
31
0.0000000000
11
60.8459731301
21
31.0989839874
31
0.0000000000
11
60.6945122028
21
31.2066174668
31
0.0000000000
11
60.5217054790
21
31.2865781656
31
0.0000000000
11
60.3342075626
21
31.3358020766
31
0.0000000000
11
60.1392241080
21
31.3524178300
31
0.0000000000
0
SPLINE
5
2D7
100
AcDbEntity
8
0
100
AcDbSpline
62
7
6
CONTINUOUS
70
0
71
3
72
15
73
11
74
9
42
0.0000001000
43
0.0000001000
44
0.0000000001
12
-1.4642931513
22
0.0000000000
32
0.0000000000
13
0.0000000000
23
-1.4642931513
33
0.0000000000
40
0.0000000000
40
0.0000000000
40
0.0000000000
40
0.0000000000
40
0.1336416113
40
0.2660279484
40
0.3960637299
40
0.5229579413
40
0.6463611354
40
0.7664500074
40
0.8839391455
40
1.0000000000
40
1.0000000000
40
1.0000000000
40
1.0000000000
10
-59.4207265498
20
31.3524178300
30
0.0000000000
10
-59.4859567152
20
31.3524178300
30
0.0000000000
10
-59.6160784758
20
31.3413956225
30
0.0000000000
10
-59.8040105311
20
31.2922935238
30
0.0000000000
10
-59.9775667799
20
31.2124078964
30
0.0000000000
10
-60.1300643643
20
31.1046225706
30
0.0000000000
10
-60.2556192265
20
30.9728805370
30
0.0000000000
10
-60.3492356100
20
30.8220422256
30
0.0000000000
10
-60.4070556134
20
30.6579750162
30
0.0000000000
10
-60.4201173768
20
30.5435690236
30
0.0000000000
10
-60.4201173768
20
30.4869199855
30
0.0000000000
11
-59.4207265498
21
31.3524178300
31
0.0000000000
11
-59.6157103568
21
31.3358020159
31
0.0000000000
11
-59.8032089729
21
31.2865777884
31
0.0000000000
11
-59.9760162582
21
31.2066165333
31
0.0000000000
11
-60.1274771824
21
31.0989825927
31
0.0000000000
11
-60.2517616190
21
30.9678135819
31
0.0000000000
11
-60.3440922810
21
30.8181585692
31
0.0000000000
11
-60.4009311575
21
30.6557806105
31
0.0000000000
11
-60.4201173768
21
30.4869199855
31
0.0000000000
0
SPLINE
5
2D8
100
AcDbEntity
8
0
100
AcDbSpline
62
9
6
CONTINUOUS
70
0
71
3
72
9
73
5
74
3
42
0.0000001000
43
0.0000001000
44
0.0000000001
12
0.0000000000
22
0.1702685859
32
0.0000000000
13
0.1116492301
23
0.1310218833
33
0.0000000000
40
0.0000000000
40
0.0000000000
40
0.0000000000
40
0.0000000000
40
0.7492857375
40
1.0000000000
40
1.0000000000
40
1.0000000000
40
1.0000000000
10
58.8592487791
20
-46.8335238465
30
0.0000000000
10
58.8592487791
20
-46.7909972389
30
0.0000000000
10
58.8749796164
20
-46.7331419707
30
0.0000000000
10
58.9083828388
20
-46.6861920990
30
0.0000000000
10
58.9177135236
20
-46.6752424140
30
0.0000000000
11
58.8592487791
21
-46.8335238465
31
0.0000000000
11
58.8927443547
21
-46.7104195914
31
0.0000000000
11
58.9177135236
21
-46.6752424140
31
0.0000000000
0
SPLINE
5
2D9
100
AcDbEntity
8
0
100
AcDbSpline
62
9
6
CONTINUOUS
70
0
71
3
72
8
73
4
74
2
42
0.0000001000
43
0.0000001000
44
0.0000000001
12
0.0280903085
22
0.0329643573
32
0.0000000000
13
0.0333973906
23
0.0275900010
33
0.0000000000
40
0.0000000000
40
0.0000000000
40
0.0000000000
40
0.0000000000
40
1.0000000000
40
1.0000000000
40
1.0000000000
40
1.0000000000
10
58.9177135236
20
-46.6752424140
30
0.0000000000
10
58.9270769598
20
-46.6642542949
30
0.0000000000
10
58.9374031396
20
-46.6540932692
30
0.0000000000
10
58.9485356031
20
-46.6448966022
30
0.0000000000
11
58.9177135236
21
-46.6752424140
31
0.0000000000
11
58.9485356031
21
-46.6448966022
31
0.0000000000
0
SPLINE
5
2DA
100
AcDbEntity
8
0
100
AcDbSpline
62
9
6
CONTINUOUS
70
0
71
3
72
9
73
5
74
3
42
0.0000001000
43
0.0000001000
44
0.0000000001
12
0.1342316271
22
0.1108904215
32
0.0000000000
13
0.1721779859
23
-0.0000000001
33
0.0000000000
40
0.0000000000
40
0.0000000000
40
0.0000000000
40
0.0000000000
40
0.2491743288
40
1.0000000000
40
1.0000000000
40
1.0000000000
40
1.0000000000
10
58.9485356031
20
-46.6448966022
30
0.0000000000
10
58.9596846283
20
-46.6356862534
30
0.0000000000
10
59.0076739607
20
-46.6026045205
30
0.0000000000
10
59.0661568952
20
-46.5873219086
30
0.0000000000
10
59.1092487791
20
-46.5873219086
30
0.0000000000
11
58.9485356031
21
-46.6448966022
31
0.0000000000
11
58.9842515729
21
-46.6203051253
31
0.0000000000
11
59.1092487791
21
-46.5873219086
31
0.0000000000
0
SPLINE
5
2DB
100
AcDbEntity
8
0
100
AcDbSpline
62
9
6
CONTINUOUS
70
0
71
3
72
10
73
6
74
4
42
0.0000001000
43
0.0000001000
44
0.0000000001
12
-0.0000000007
22
0.3793819323
32
0.0000000000
13
-0.3038127842
23
0.2304107836
33
0.0000000000
40
0.0000000000
40
0.0000000000
40
0.0000000000
40
0.0000000000
40
0.3336443547
40
0.7196153111
40
1.0000000000
40
1.0000000000
40
1.0000000000
40
1.0000000000
10
59.1092487791
20
29.1619224835
30
0.0000000000
10
59.1092487790
20
29.2041153635
30
0.0000000000
10
59.0934902556
20
29.2957856450
30
0.0000000000
10
59.0288606564
20
29.4075903820
30
0.0000000000
10
58.9669892564
20
29.4661493855
30
0.0000000000
10
58.9385944388
20
29.4876839374
30
0.0000000000
11
59.1092487791
21
29.1619224835
31
0.0000000000
11
59.0880259889
21
29.2867092828
31
0.0000000000
11
59.0157274803
21
29.4140465900
31
0.0000000000
11
58.9385944388
21
29.4876839374
31
0.0000000000
0
SPLINE
5
2DC
100
AcDbEntity
8
0
100
AcDbSpline
62
9
6
CONTINUOUS
70
0
71
3
72
10
73
6
74
4
42
0.0000001000
43
0.0000001000
44
0.0000000001
12
-0.2813002223
22
0.2133373183
32
0.0000000000
13
-0.3512696879
23
-0.0000000002
33
0.0000000000
40
0.0000000000
40
0.0000000000
40
0.0000000000
40
0.0000000000
40
0.1518081730
40
0.5977773671
40
1.0000000000
40
1.0000000000
40
1.0000000000
40
1.0000000000
10
58.9385944388
20
29.4876839374
30
0.0000000000
10
58.9243598812
20
29.4984793869
30
0.0000000000
10
58.8659718479
20
29.5379156153
30
0.0000000000
10
58.7560709804
20
29.5827188889
30
0.0000000000
10
58.6563449854
20
29.5949351854
30
0.0000000000
10
58.6092487791
20
29.5949351853
30
0.0000000000
11
58.9385944388
21
29.4876839374
31
0.0000000000
11
58.8942327615
21
29.5176933096
31
0.0000000000
11
58.7494637680
21
29.5775504023
31
0.0000000000
11
58.6092487791
21
29.5949351853
31
0.0000000000
0
SPLINE
5
2DD
100
AcDbEntity
8
0
100
AcDbSpline
62
9
6
CONTINUOUS
70
0
71
3
72
10
73
6
74
4
42
0.0000001000
43
0.0000001000
44
0.0000000001
12
-0.3512696890
22
0.0000000002
32
0.0000000000
13
-0.2813002561
23
-0.2133372906
33
0.0000000000
40
0.0000000000
40
0.0000000000
40
0.0000000000
40
0.0000000000
40
0.4022226394
40
0.8481918293
40
1.0000000000
40
1.0000000000
40
1.0000000000
40
1.0000000000
10
-57.8907512209
20
29.5949351853
30
0.0000000000
10
-57.9378474280
20
29.5949351854
30
0.0000000000
10
-58.0375734304
20
29.5827189171
30
0.0000000000
10
-58.1474742815
20
29.5379156068
30
0.0000000000
10
-58.2058623203
20
29.4984793818
30
0.0000000000
10
-58.2200968794
20
29.4876839338
30
0.0000000000
11
-57.8907512209
21
29.5949351853
31
0.0000000000
11
-58.0309662141
21
29.5775504154
31
0.0000000000
11
-58.1757351990
21
29.5176933043
31
0.0000000000
11
-58.2200968794
21
29.4876839338
31
0.0000000000
0
SPLINE
5
2DE
100
AcDbEntity
8
0
100
AcDbSpline
62
9
6
CONTINUOUS
70
0
71
3
72
8
73
4
74
2
42
0.0000001000
43
0.0000001000
44
0.0000000001
12
-0.0851844649
22
-0.0646036488
32
0.0000000000
13
-0.0681131599
23
-0.0823881849
33
0.0000000000
40
0.0000000000
40
0.0000000000
40
0.0000000000
40
0.0000000000
40
1.0000000000
40
1.0000000000
40
1.0000000000
40
1.0000000000
10
-58.2200968794
20
29.4876839338
30
0.0000000000
10
-58.2484917010
20
29.4661493842
30
0.0000000000
10
-58.2745255410
20
29.4415093217
30
0.0000000000
10
-58.2972299276
20
29.4140465934
30
0.0000000000
11
-58.2200968794
21
29.4876839338
31
0.0000000000
11
-58.2972299276
21
29.4140465934
31
0.0000000000
0
SPLINE
5
2DF
100
AcDbEntity
8
0
100
AcDbSpline
62
9
6
CONTINUOUS
70
0
71
3
72
9
73
5
74
3
42
0.0000001000
43
0.0000001000
44
0.0000000001
12
-0.1748143633
22
-0.2114516210
32
0.0000000000
13
-0.0000000005
23
-0.2730090429
33
0.0000000000
40
0.0000000000
40
0.0000000000
40
0.0000000000
40
0.0000000000
40
0.5363573398
40
1.0000000000
40
1.0000000000
40
1.0000000000
40
1.0000000000
10
-58.2972299276
20
29.4140465934
30
0.0000000000
10
-58.3284842499
20
29.3762420505
30
0.0000000000
10
-58.3749926710
20
29.2957856352
30
0.0000000000
10
-58.3907512208
20
29.2041153631
30
0.0000000000
10
-58.3907512209
20
29.1619224835
30
0.0000000000
11
-58.2972299276
21
29.4140465934
31
0.0000000000
11
-58.3695284177
21
29.2867092794
31
0.0000000000
11
-58.3907512209
21
29.1619224835
31
0.0000000000
0
SPLINE
5
2E0
100
AcDbEntity
8
0
100
AcDbSpline
62
9
6
CONTINUOUS
70
0
71
3
72
10
73
6
74
4
42
0.0000001000
43
0.0000001000
44
0.0000000001
12
-0.0974903881
22
-0.0975680875
32
0.0000000000
13
-0.0148995642
23
-0.1370471965
33
0.0000000000
40
0.0000000000
40
0.0000000000
40
0.0000000000
40
0.0000000000
40
0.1529897025
40
0.6862436702
40
1.0000000000
40
1.0000000000
40
1.0000000000
40
1.0000000000
10
-58.0798419508
20
29.1785474723
30
0.0000000000
10
-58.0848136260
20
29.1735718348
30
0.0000000000
10
-58.1060828075
20
29.1502268036
30
0.0000000000
10
-58.1294589683
20
29.1097540713
30
0.0000000000
10
-58.1380941111
20
29.0714085352
30
0.0000000000
10
-58.1396523886
20
29.0570753934
30
0.0000000000
11
-58.0798419508
21
29.1785474723
31
0.0000000000
11
-58.0940372275
21
29.1629427184
31
0.0000000000
11
-58.1301647273
21
29.0992593080
31
0.0000000000
11
-58.1396523886
21
29.0570753934
31
0.0000000000
0
SPLINE
5
2E1
100
AcDbEntity
8
0
100
AcDbSpline
62
9
6
CONTINUOUS
70
0
71
3
72
8
73
4
74
2
42
0.0000001000
43
0.0000001000
44
0.0000000001
12
-0.0021865688
22
-0.0201122071
32
0.0000000000
13
-0.0000000000
23
-0.0201497281
33
0.0000000000
40
0.0000000000
40
0.0000000000
40
0.0000000000
40
0.0000000000
40
1.0000000000
40
1.0000000000
40
1.0000000000
40
1.0000000000
10
-58.1396523886
20
29.0570753934
30
0.0000000000
10
-58.1403812448
20
29.0503713243
30
0.0000000000
10
-58.1407512209
20
29.0436390595
30
0.0000000000
10
-58.1407512209
20
29.0369224835
30
0.0000000000
11
-58.1396523886
21
29.0570753934
31
0.0000000000
11
-58.1407512209
21
29.0369224835
31
0.0000000000
0
SPLINE
5
2E2
100
AcDbEntity
8
0
100
AcDbSpline
62
9
6
CONTINUOUS
70
0
71
3
72
9
73
5
74
3
42
0.0000001000
43
0.0000001000
44
0.0000000001
12
0.0000000000
22
0.1355164649
32
0.0000000000
13
0.1261233275
23
0.0506924031
33
0.0000000000
40
0.0000000000
40
0.0000000000
40
0.0000000000
40
0.0000000000
40
0.5232414925
40
1.0000000000
40
1.0000000000
40
1.0000000000
40
1.0000000000
10
58.8592487791
20
29.0369224835
30
0.0000000000
10
58.8592487791
20
29.0605584292
30
0.0000000000
10
58.8885181502
20
29.1029404885
30
0.0000000000
10
58.9282443070
20
29.1252744325
30
0.0000000000
10
58.9482877634
20
29.1333304440
30
0.0000000000
11
58.8592487791
21
29.0369224835
31
0.0000000000
11
58.8927415541
21
29.0994217269
31
0.0000000000
11
58.9482877634
21
29.1333304440
31
0.0000000000
0
SPLINE
5
2E3
100
AcDbEntity
8
0
100
AcDbSpline
62
9
6
CONTINUOUS
70
0
71
3
72
9
73
5
74
3
42
0.0000001000
43
0.0000001000
44
0.0000000001
12
0.1524618298
22
0.0612785651
32
0.0000000000
13
0.1638165487
23
0.0000000003
33
0.0000000000
40
0.0000000000
40
0.0000000000
40
0.0000000000
40
0.0000000000
40
0.2301230043
40
1.0000000000
40
1.0000000000
40
1.0000000000
40
1.0000000000
10
58.9482877634
20
29.1333304440
30
0.0000000000
10
58.9599827549
20
29.1380309798
30
0.0000000000
10
59.0124361725
20
29.1546226526
30
0.0000000000
10
59.0672092481
20
29.1619224841
30
0.0000000000
10
59.1092487789
20
29.1619224842
30
0.0000000000
11
58.9482877634
21
29.1333304440
31
0.0000000000
11
58.9842470722
21
29.1451751667
31
0.0000000000
11
59.1092487789
21
29.1619224842
31
0.0000000000
0
SPLINE
5
2E4
100
AcDbEntity
8
0
100
AcDbSpline
62
7
6
CONTINUOUS
70
0
71
3
72
15
73
11
74
9
42
0.0000001000
43
0.0000001000
44
0.0000000001
12
0.0556344249
22
-1.0225479694
32
0.0000000000
13
1.0375709053
23
0.0000000000
33
0.0000000000
40
0.0000000000
40
0.0000000000
40
0.0000000000
40
0.0000000000
40
0.0308701028
40
0.0918230927
40
0.1842138381
40
0.3067171269
40
0.4554061530
40
0.6248849675
40
0.8087615798
40
1.0000000000
40
1.0000000000
40
1.0000000000
40
1.0000000000
10
-61.0582287565
20
-49.7615370924
30
0.0000000000
10
-61.0576562764
20
-49.7720591461
30
0.0000000000
10
-61.0380001054
20
-49.8026600354
30
0.0000000000
10
-60.9801529571
20
-49.8294626718
30
0.0000000000
10
-60.8894002729
20
-49.8597980406
30
0.0000000000
10
-60.7659846602
20
-49.8848482277
30
0.0000000000
10
-60.6150716378
20
-49.9064339473
30
0.0000000000
10
-60.4420953773
20
-49.9223361849
30
0.0000000000
10
-60.2539688086
20
-49.9322385691
30
0.0000000000
10
-60.1242191186
20
-49.9344461951
30
0.0000000000
10
-60.0580779783
20
-49.9344461951
30
0.0000000000
11
-61.0582287565
21
-49.7615370924
31
0.0000000000
11
-61.0434024492
21
-49.7906859977
31
0.0000000000
11
-60.9896622833
21
-49.8240278304
31
0.0000000000
11
-60.8988922438
21
-49.8548549819
31
0.0000000000
11
-60.7747061487
21
-49.8819420716
31
0.0000000000
11
-60.6220466797
21
-49.9042128561
31
0.0000000000
11
-60.4469828830
21
-49.9207834246
31
0.0000000000
11
-60.2564714052
21
-49.9309962534
31
0.0000000000
11
-60.0580779783
21
-49.9344461951
31
0.0000000000
0
SPLINE
5
2E5
100
AcDbEntity
8
0
100
AcDbSpline
62
9
6
CONTINUOUS
70
0
71
3
72
9
73
5
74
3
42
0.0000001000
43
0.0000001000
44
0.0000000001
12
0.0000000000
22
0.1355181300
32
0.0000000000
13
0.1261251308
23
0.0506922052
33
0.0000000000
40
0.0000000000
40
0.0000000000
40
0.0000000000
40
0.0000000000
40
0.5232430313
40
1.0000000000
40
1.0000000000
40
1.0000000000
40
1.0000000000
10
58.8592487791
20
-40.8946288721
30
0.0000000000
10
58.8592487791
20
-40.8709925664
30
0.0000000000
10
58.8885189188
20
-40.8286101188
30
0.0000000000
10
58.9282457084
20
-40.8062761806
30
0.0000000000
10
58.9482893867
20
-40.7982202266
30
0.0000000000
11
58.8592487791
21
-40.8946288721
31
0.0000000000
11
58.8927424282
21
-40.8321288721
31
0.0000000000
11
58.9482893867
21
-40.7982202266
31
0.0000000000
0
SPLINE
5
2E6
100
AcDbEntity
8
0
100
AcDbSpline
62
9
6
CONTINUOUS
70
0
71
3
72
9
73
5
74
3
42
0.0000001000
43
0.0000001000
44
0.0000000001
12
0.1524605397
22
0.0612769311
32
0.0000000000
13
0.1638148329
23
-0.0000000000
33
0.0000000000
40
0.0000000000
40
0.0000000000
40
0.0000000000
40
0.0000000000
40
0.2301256670
40
1.0000000000
40
1.0000000000
40
1.0000000000
40
1.0000000000
10
58.9482893867
20
-40.7982202266
30
0.0000000000
10
58.9599844145
20
-40.7935197617
30
0.0000000000
10
59.0124373297
20
-40.7769285581
30
0.0000000000
10
59.0672098340
20
-40.7696288721
30
0.0000000000
10
59.1092487791
20
-40.7696288721
30
0.0000000000
11
58.9482893867
21
-40.7982202266
31
0.0000000000
11
58.9842487791
21
-40.7863756967
31
0.0000000000
11
59.1092487791
21
-40.7696288721
31
0.0000000000
0
SPLINE
5
2E7
100
AcDbEntity
8
0
100
AcDbSpline
62
9
6
CONTINUOUS
70
0
71
3
72
9
73
5
74
3
42
0.0000001000
43
0.0000001000
44
0.0000000001
12
0.0000000000
22
0.1355228876
32
0.0000000000
13
-0.1261301940
23
0.0506916126
33
0.0000000000
40
0.0000000000
40
0.0000000000
40
0.0000000000
40
0.0000000000
40
0.5232529279
40
1.0000000000
40
1.0000000000
40
1.0000000000
40
1.0000000000
10
-58.1407512209
20
-40.8946288721
30
0.0000000000
10
-58.1407512209
20
-40.8709912896
30
0.0000000000
10
-58.1700238344
20
-40.8286078057
30
0.0000000000
10
-58.2097524510
20
-40.8062739545
30
0.0000000000
10
-58.2297965179
20
-40.7982182619
30
0.0000000000
11
-58.1407512209
21
-40.8946288721
31
0.0000000000
11
-58.1742479694
21
-40.8321261871
31
0.0000000000
11
-58.2297965179
21
-40.7982182619
31
0.0000000000
0
SPLINE
5
2E8
100
AcDbEntity
8
0
100
AcDbSpline
62
9
6
CONTINUOUS
70
0
71
3
72
9
73
5
74
3
42
0.0000001000
43
0.0000001000
44
0.0000000001
12
-0.1524567234
22
0.0612722213
32
0.0000000000
13
-0.1638099072
23
0.0000000010
33
0.0000000000
40
0.0000000000
40
0.0000000000
40
0.0000000000
40
0.0000000000
40
0.2301307738
40
1.0000000000
40
1.0000000000
40
1.0000000000
40
1.0000000000
10
-58.2297965179
20
-40.7982182619
30
0.0000000000
10
-58.2414915124
20
-40.7935180540
30
0.0000000000
10
-58.2939429146
20
-40.7769281632
30
0.0000000000
10
-58.3487138187
20
-40.7696288696
30
0.0000000000
10
-58.3907512209
20
-40.7696288693
30
0.0000000000
11
-58.2297965179
21
-40.7982182619
31
0.0000000000
11
-58.2657557172
21
-40.7863743968
31
0.0000000000
11
-58.3907512209
21
-40.7696288693
31
0.0000000000
0
SPLINE
5
2E9
100
AcDbEntity
8
0
100
AcDbSpline
62
9
6
CONTINUOUS
70
0
71
3
72
9
73
5
74
3
42
0.0000001000
43
0.0000001000
44
0.0000000001
12
0.0000000000
22
0.1355181300
32
0.0000000000
13
-0.1261251308
23
0.0506922052
33
0.0000000000
40
0.0000000000
40
0.0000000000
40
0.0000000000
40
0.0000000000
40
0.5232430313
40
1.0000000000
40
1.0000000000
40
1.0000000000
40
1.0000000000
10
-58.1407512209
20
29.0369224835
30
0.0000000000
10
-58.1407512209
20
29.0605587892
30
0.0000000000
10
-58.1700213606
20
29.1029412368
30
0.0000000000
10
-58.2097481502
20
29.1252751750
30
0.0000000000
10
-58.2297918285
20
29.1333311290
30
0.0000000000
11
-58.1407512209
21
29.0369224835
31
0.0000000000
11
-58.1742448699
21
29.0994224835
31
0.0000000000
11
-58.2297918285
21
29.1333311290
31
0.0000000000
0
SPLINE
5
2EA
100
AcDbEntity
8
0
100
AcDbSpline
62
9
6
CONTINUOUS
70
0
71
3
72
9
73
5
74
3
42
0.0000001000
43
0.0000001000
44
0.0000000001
12
-0.1524605397
22
0.0612769311
32
0.0000000000
13
-0.1638148329
23
0.0000000000
33
0.0000000000
40
0.0000000000
40
0.0000000000
40
0.0000000000
40
0.0000000000
40
0.2301256670
40
1.0000000000
40
1.0000000000
40
1.0000000000
40
1.0000000000
10
-58.2297918285
20
29.1333311290
30
0.0000000000
10
-58.2414868563
20
29.1380315939
30
0.0000000000
10
-58.2939397715
20
29.1546227975
30
0.0000000000
10
-58.3487122758
20
29.1619224835
30
0.0000000000
10
-58.3907512209
20
29.1619224835
30
0.0000000000
11
-58.2297918285
21
29.1333311290
31
0.0000000000
11
-58.2657512209
21
29.1451756589
31
0.0000000000
11
-58.3907512209
21
29.1619224835
31
0.0000000000
0
SPLINE
5
2EB
100
AcDbEntity
8
0
100
AcDbSpline
62
7
6
CONTINUOUS
70
0
71
3
72
10
73
6
74
4
42
0.0000001000
43
0.0000001000
44
0.0000000001
12
0.0000000000
22
0.3852851787
32
0.0000000000
13
-0.3852851787
23
-0.0000000000
33
0.0000000000
40
0.0000000000
40
0.0000000000
40
0.0000000000
40
0.0000000000
40
0.3311099050
40
0.6644711046
40
1.0000000000
40
1.0000000000
40
1.0000000000
40
1.0000000000
10
-58.1407512209
20
-50.1806481333
30
0.0000000000
10
-58.1407512209
20
-50.1381242203
30
0.0000000000
10
-58.1644018532
20
-50.0511350041
30
0.0000000000
10
-58.2601234868
20
-49.9573205925
30
0.0000000000
10
-58.3476597841
20
-49.9344461951
30
0.0000000000
10
-58.3907512209
20
-49.9344461951
30
0.0000000000
11
-58.1407512209
21
-50.1806481333
31
0.0000000000
11
-58.1742425605
21
-50.0575511035
31
0.0000000000
11
-58.2657552210
21
-49.9674287260
31
0.0000000000
11
-58.3907512209
21
-49.9344461951
31
0.0000000000
0
SPLINE
5
2EC
100
AcDbEntity
8
0
100
AcDbSpline
62
9
6
CONTINUOUS
70
0
71
3
72
9
73
5
74
3
42
0.0000001000
43
0.0000001000
44
0.0000000001
12
0.0000000000
22
0.1702646917
32
0.0000000000
13
-0.1116445397
23
0.1310207131
33
0.0000000000
40
0.0000000000
40
0.0000000000
40
0.0000000000
40
0.0000000000
40
0.7492812815
40
1.0000000000
40
1.0000000000
40
1.0000000000
40
1.0000000000
10
-58.1407512209
20
-46.8335238465
30
0.0000000000
10
-58.1407512209
20
-46.7909984644
30
0.0000000000
10
-58.1564811850
20
-46.7331445919
30
0.0000000000
10
-58.1898828933
20
-46.6861952719
30
0.0000000000
10
-58.1992133520
20
-46.6752454902
30
0.0000000000
11
-58.1407512209
21
-46.8335238465
31
0.0000000000
11
-58.1742448699
21
-46.7104228774
31
0.0000000000
11
-58.1992133520
21
-46.6752454902
31
0.0000000000
0
SPLINE
5
2ED
100
AcDbEntity
8
0
100
AcDbSpline
62
9
6
CONTINUOUS
70
0
71
3
72
8
73
4
74
2
42
0.0000001000
43
0.0000001000
44
0.0000000001
12
-0.0280899390
22
0.0329650142
32
0.0000000000
13
-0.0333971778
23
0.0275906825
33
0.0000000000
40
0.0000000000
40
0.0000000000
40
0.0000000000
40
0.0000000000
40
1.0000000000
40
1.0000000000
40
1.0000000000
40
1.0000000000
10
-58.1992133520
20
-46.6752454902
30
0.0000000000
10
-58.2085766650
20
-46.6642571521
30
0.0000000000
10
-58.2189027476
20
-46.6540958997
30
0.0000000000
10
-58.2300351402
20
-46.6448990055
30
0.0000000000
11
-58.1992133520
21
-46.6752454902
31
0.0000000000
11
-58.2300351402
21
-46.6448990055
31
0.0000000000
0
SPLINE
5
2EE
100
AcDbEntity
8
0
100
AcDbSpline
62
9
6
CONTINUOUS
70
0
71
3
72
9
73
5
74
3
42
0.0000001000
43
0.0000001000
44
0.0000000001
12
-0.1342328068
22
0.1108948419
32
0.0000000000
13
-0.1721816271
23
0.0000000000
33
0.0000000000
40
0.0000000000
40
0.0000000000
40
0.0000000000
40
0.0000000000
40
0.2491721642
40
1.0000000000
40
1.0000000000
40
1.0000000000
40
1.0000000000
10
-58.2300351402
20
-46.6448990055
30
0.0000000000
10
-58.2411841665
20
-46.6356883696
30
0.0000000000
10
-58.2891740680
20
-46.6026052455
30
0.0000000000
10
-58.3476583014
20
-46.5873219083
30
0.0000000000
10
-58.3907512209
20
-46.5873219083
30
0.0000000000
11
-58.2300351402
21
-46.6448990055
31
0.0000000000
11
-58.2657512209
21
-46.6203067136
31
0.0000000000
11
-58.3907512209
21
-46.5873219083
31
0.0000000000
0
SPLINE
5
2EF
100
AcDbEntity
8
0
100
AcDbSpline
62
7
6
CONTINUOUS
70
0
71
3
72
9
73
5
74
3
42
0.0000001000
43
0.0000001000
44
0.0000000001
12
-0.0653798651
22
-0.0765609616
32
0.0000000000
13
-0.0215967247
23
-0.0986533412
33
0.0000000000
40
0.0000000000
40
0.0000000000
40
0.0000000000
40
0.0000000000
40
0.2586616719
40
1.0000000000
40
1.0000000000
40
1.0000000000
40
1.0000000000
10
-58.0915836409
20
26.2910022094
30
0.0000000000
10
-58.0972207293
20
26.2844010806
30
0.0000000000
10
-58.1174937115
20
26.2575426735
30
0.0000000000
10
-58.1310627220
20
26.2256861259
30
0.0000000000
10
-58.1363995486
20
26.2013076249
30
0.0000000000
11
-58.0915836409
21
26.2910022094
31
0.0000000000
11
-58.1072598812
21
26.2701721947
31
0.0000000000
11
-58.1363995486
21
26.2013076249
31
0.0000000000
0
SPLINE
5
2F0
100
AcDbEntity
8
0
100
AcDbSpline
62
7
6
CONTINUOUS
70
0
71
3
72
8
73
4
74
2
42
0.0000001000
43
0.0000001000
44
0.0000000001
12
-0.0085455092
22
-0.0390356891
32
0.0000000000
13
0.0000000000
23
-0.0394327843
33
0.0000000000
40
0.0000000000
40
0.0000000000
40
0.0000000000
40
0.0000000000
40
1.0000000000
40
1.0000000000
40
1.0000000000
40
1.0000000000
10
-58.1363995486
20
26.2013076249
30
0.0000000000
10
-58.1392480516
20
26.1882957285
30
0.0000000000
10
-58.1407512209
20
26.1750667449
30
0.0000000000
10
-58.1407512209
20
26.1619224835
30
0.0000000000
11
-58.1363995486
21
26.2013076249
31
0.0000000000
11
-58.1407512209
21
26.1619224835
31
0.0000000000
0
SPLINE
5
2F1
100
AcDbEntity
8
0
100
AcDbSpline
62
9
6
CONTINUOUS
70
0
71
3
72
10
73
6
74
4
42
0.0000001000
43
0.0000001000
44
0.0000000001
12
-0.0000000002
22
0.1574525975
32
0.0000000000
13
-0.1117974802
23
0.1118865823
33
0.0000000000
40
0.0000000000
40
0.0000000000
40
0.0000000000
40
0.0000000000
40
0.4015771951
40
0.8665888942
40
1.0000000000
40
1.0000000000
40
1.0000000000
40
1.0000000000
10
58.8592487791
20
29.0369224835
30
0.0000000000
10
58.8592487791
20
29.0579989409
30
0.0000000000
10
58.8513870687
20
29.1038145410
30
0.0000000000
10
58.8245803657
20
29.1502268036
30
0.0000000000
10
58.8033111842
20
29.1735718348
30
0.0000000000
10
58.7983395090
20
29.1785474723
30
0.0000000000
11
58.8592487791
21
29.0369224835
31
0.0000000000
11
58.8486622856
21
29.0992593080
31
0.0000000000
11
58.8125347858
21
29.1629427184
31
0.0000000000
11
58.7983395090
21
29.1785474723
31
0.0000000000
0
SPLINE
5
2F2
100
AcDbEntity
8
0
100
AcDbSpline
62
7
6
CONTINUOUS
70
0
71
3
72
9
73
5
74
3
42
0.0000001000
43
0.0000001000
44
0.0000000001
12
0.0000000000
22
0.1390896883
32
0.0000000000
13
-0.0912497248
23
0.1068550181
33
0.0000000000
40
0.0000000000
40
0.0000000000
40
0.0000000000
40
0.0000000000
40
0.8146705071
40
1.0000000000
40
1.0000000000
40
1.0000000000
40
1.0000000000
10
58.8592487791
20
26.1619224835
30
0.0000000000
10
58.8592487791
20
26.1996932391
30
0.0000000000
10
58.8440129932
20
26.2469151933
30
0.0000000000
10
58.8157182875
20
26.2844010806
30
0.0000000000
10
58.8100811991
20
26.2910022094
30
0.0000000000
11
58.8592487791
21
26.1619224835
31
0.0000000000
11
58.8257574395
21
26.2701721947
31
0.0000000000
11
58.8100811991
21
26.2910022094
31
0.0000000000
0
SPLINE
5
2F3
100
AcDbEntity
8
0
100
AcDbSpline
62
7
6
CONTINUOUS
70
0
71
3
72
9
73
5
74
3
42
0.0000001000
43
0.0000001000
44
0.0000000001
12
0.0944488720
22
-0.1709620767
32
0.0000000000
13
0.0000000000
23
-0.1938281476
33
0.0000000000
40
0.0000000000
40
0.0000000000
40
0.0000000000
40
0.0000000000
40
0.1228233253
40
1.0000000000
40
1.0000000000
40
1.0000000000
40
1.0000000000
10
58.8102181020
20
14.8741407346
30
0.0000000000
10
58.8140849435
20
14.8671413577
30
0.0000000000
10
58.8438900923
20
14.8091885764
30
0.0000000000
10
58.8592487791
20
14.7437597266
30
0.0000000000
10
58.8592487791
20
14.6870858833
30
0.0000000000
11
58.8102181020
21
14.8741407346
31
0.0000000000
11
58.8211885454
21
14.8527926703
31
0.0000000000
11
58.8592487791
21
14.6870858833
31
0.0000000000
0
SPLINE
5
2F4
100
AcDbEntity
8
0
100
AcDbSpline
62
7
6
CONTINUOUS
70
0
71
3
72
9
73
5
74
3
42
0.0000001000
43
0.0000001000
44
0.0000000001
12
0.0944488720
22
-0.1709620767
32
0.0000000000
13
0.0000000000
23
-0.1938281476
33
0.0000000000
40
0.0000000000
40
0.0000000000
40
0.0000000000
40
0.0000000000
40
0.1228233253
40
1.0000000000
40
1.0000000000
40
1.0000000000
40
1.0000000000
10
58.8102181020
20
-14.5707229941
30
0.0000000000
10
58.8140849435
20
-14.5777223710
30
0.0000000000
10
58.8438900923
20
-14.6356751523
30
0.0000000000
10
58.8592487791
20
-14.7011040020
30
0.0000000000
10
58.8592487791
20
-14.7577778454
30
0.0000000000
11
58.8102181020
21
-14.5707229941
31
0.0000000000
11
58.8211885454
21
-14.5920710583
31
0.0000000000
11
58.8592487791
21
-14.7577778454
31
0.0000000000
0
SPLINE
5
2F5
100
AcDbEntity
8
0
100
AcDbSpline
62
7
6
CONTINUOUS
70
0
71
3
72
9
73
5
74
3
42
0.0000001000
43
0.0000001000
44
0.0000000001
12
0.0000000000
22
0.1938281476
32
0.0000000000
13
0.0944488720
23
0.1709620767
33
0.0000000000
40
0.0000000000
40
0.0000000000
40
0.0000000000
40
0.0000000000
40
0.8771766747
40
1.0000000000
40
1.0000000000
40
1.0000000000
40
1.0000000000
10
-58.1407512209
20
-14.7577778454
30
0.0000000000
10
-58.1407512209
20
-14.7011040020
30
0.0000000000
10
-58.1253925340
20
-14.6356751523
30
0.0000000000
10
-58.0955873853
20
-14.5777223710
30
0.0000000000
10
-58.0917205438
20
-14.5707229941
30
0.0000000000
11
-58.1407512209
21
-14.7577778454
31
0.0000000000
11
-58.1026909871
21
-14.5920710583
31
0.0000000000
11
-58.0917205438
21
-14.5707229941
31
0.0000000000
0
SPLINE
5
2F6
100
AcDbEntity
8
0
100
AcDbSpline
62
7
6
CONTINUOUS
70
0
71
3
72
9
73
5
74
3
42
0.0000001000
43
0.0000001000
44
0.0000000001
12
0.0000000000
22
0.1938281476
32
0.0000000000
13
0.0944488720
23
0.1709620767
33
0.0000000000
40
0.0000000000
40
0.0000000000
40
0.0000000000
40
0.0000000000
40
0.8771766747
40
1.0000000000
40
1.0000000000
40
1.0000000000
40
1.0000000000
10
-58.1407512209
20
14.6870858833
30
0.0000000000
10
-58.1407512209
20
14.7437597266
30
0.0000000000
10
-58.1253925340
20
14.8091885764
30
0.0000000000
10
-58.0955873853
20
14.8671413577
30
0.0000000000
10
-58.0917205438
20
14.8741407346
30
0.0000000000
11
-58.1407512209
21
14.6870858833
31
0.0000000000
11
-58.1026909871
21
14.8527926703
31
0.0000000000
11
-58.0917205438
21
14.8741407346
31
0.0000000000
0
SPLINE
5
2F7
100
AcDbEntity
8
0
100
AcDbSpline
62
7
6
CONTINUOUS
70
0
71
3
72
15
73
11
74
9
42
0.0000001000
43
0.0000001000
44
0.0000000001
12
1.0375709101
22
0.0000000000
32
0.0000000000
13
0.0556346446
23
1.0225481418
33
0.0000000000
40
0.0000000000
40
0.0000000000
40
0.0000000000
40
0.0000000000
40
0.1912388382
40
0.3751162808
40
0.5445957627
40
0.6932847875
40
0.8157874515
40
0.9081774421
40
0.9691299984
40
1.0000000000
40
1.0000000000
40
1.0000000000
40
1.0000000000
10
60.7765755366
20
-49.9344461951
30
0.0000000000
10
60.8427168217
20
-49.9344461951
30
0.0000000000
10
60.9724669441
20
-49.9322385570
30
0.0000000000
10
61.1605941742
20
-49.9223361075
30
0.0000000000
10
61.3335709457
20
-49.9064337553
30
0.0000000000
10
61.4844839687
20
-49.8848479294
30
0.0000000000
10
61.6078990880
20
-49.8597977042
30
0.0000000000
10
61.6986511365
20
-49.8294624189
30
0.0000000000
10
61.7564978314
20
-49.8026598487
30
0.0000000000
10
61.7761538339
20
-49.7720591191
30
0.0000000000
10
61.7767263144
20
-49.7615370982
30
0.0000000000
11
60.7765755366
21
-49.9344461951
31
0.0000000000
11
60.9749693979
21
-49.9309962381
31
0.0000000000
11
61.1654817350
21
-49.9207833298
31
0.0000000000
11
61.3405462147
21
-49.9042126218
31
0.0000000000
11
61.4932056664
21
-49.8819417223
31
0.0000000000
11
61.6173910987
21
-49.8548546325
31
0.0000000000
11
61.7081603530
21
-49.8240276033
31
0.0000000000
11
61.7619000837
21
-49.7906859219
31
0.0000000000
11
61.7767263144
21
-49.7615370982
31
0.0000000000
0
SPLINE
5
2F8
100
AcDbEntity
8
0
100
AcDbSpline
62
7
6
CONTINUOUS
70
0
71
3
72
10
73
6
74
4
42
0.0000001000
43
0.0000001000
44
0.0000000001
12
-0.3852851787
22
0.0000000000
32
0.0000000000
13
0.0000000000
23
-0.3852851787
33
0.0000000000
40
0.0000000000
40
0.0000000000
40
0.0000000000
40
0.0000000000
40
0.3355288954
40
0.6688900950
40
1.0000000000
40
1.0000000000
40
1.0000000000
40
1.0000000000
10
59.1092487791
20
-49.9344461951
30
0.0000000000
10
59.0661573423
20
-49.9344461951
30
0.0000000000
10
58.9786210450
20
-49.9573205925
30
0.0000000000
10
58.8828994114
20
-50.0511350041
30
0.0000000000
10
58.8592487791
20
-50.1381242203
30
0.0000000000
10
58.8592487791
20
-50.1806481333
30
0.0000000000
11
59.1092487791
21
-49.9344461951
31
0.0000000000
11
58.9842527792
21
-49.9674287260
31
0.0000000000
11
58.8927401188
21
-50.0575511035
31
0.0000000000
11
58.8592487791
21
-50.1806481333
31
0.0000000000
0
SPLINE
5
2F9
100
AcDbEntity
8
0
100
AcDbSpline
62
7
6
CONTINUOUS
70
0
71
3
72
13
73
9
74
7
42
0.0000001000
43
0.0000001000
44
0.0000000001
12
-4.6985762793
22
0.0024727295
32
0.0000000000
13
-0.2807694123
23
4.6780500447
33
0.0000000000
40
0.0000000000
40
0.0000000000
40
0.0000000000
40
0.0000000000
40
0.1035620529
40
0.2712741994
40
0.4476276884
40
0.6323417777
40
0.8255075039
40
1.0000000000
40
1.0000000000
40
1.0000000000
40
1.0000000000
10
-7.3907510607
20
36.1748136830
30
0.0000000000
10
-7.5529491292
20
36.1748990433
30
0.0000000000
10
-7.9788217584
20
36.2167687429
30
0.0000000000
10
-8.6435537899
20
36.4637108230
30
0.0000000000
10
-9.3080469849
20
36.9720876320
30
0.0000000000
10
-9.8323571424
20
37.6725704239
30
0.0000000000
10
-10.1625102218
20
38.4778313030
30
0.0000000000
10
-10.2565112320
20
39.0493402516
30
0.0000000000
10
-10.2728419505
20
39.3214351281
30
0.0000000000
11
-7.3907510607
21
36.1748136830
31
0.0000000000
11
-7.8747566350
21
36.2225761249
31
0.0000000000
11
-8.6120531256
21
36.4924404518
31
0.0000000000
11
-9.2707832635
21
36.9901021887
31
0.0000000000
11
-9.7929124550
21
37.6794002075
31
0.0000000000
11
-10.1389596612
21
38.5148608263
31
0.0000000000
11
-10.2728419505
21
39.3214351281
31
0.0000000000
0
SPLINE
5
2FA
100
AcDbEntity
8
0
100
AcDbSpline
62
7
6
CONTINUOUS
70
0
71
3
72
14
73
10
74
8
42
0.0000001000
43
0.0000001000
44
0.0000000001
12
-0.2816709139
22
-4.7162692235
32
0.0000000000
13
-4.7148742666
23
0.0003778553
33
0.0000000000
40
0.0000000000
40
0.0000000000
40
0.0000000000
40
0.0000000000
40
0.0441147271
40
0.2318181544
40
0.4090112741
40
0.5728628805
40
0.7235239730
40
0.8647438086
40
1.0000000000
40
1.0000000000
40
1.0000000000
40
1.0000000000
10
-4.5086025625
20
39.3222690283
30
0.0000000000
10
-4.5127445077
20
39.2529167183
30
0.0000000000
10
-4.5438935995
20
38.8890311394
30
0.0000000000
10
-4.6858355234
20
38.2565598379
30
0.0000000000
10
-5.0476375706
20
37.5003375229
30
0.0000000000
10
-5.5379002544
20
36.8935245203
30
0.0000000000
10
-6.1150961134
20
36.4569448014
30
0.0000000000
10
-6.7416310252
20
36.1966371435
30
0.0000000000
10
-7.1781792422
20
36.1387860481
30
0.0000000000
10
-7.3907512209
20
36.1388030838
30
0.0000000000
11
-4.5086025625
21
39.3222690283
31
0.0000000000
11
-4.5263851245
21
39.1146188200
31
0.0000000000
11
-4.7220437252
21
38.2515201690
31
0.0000000000
11
-5.0855640984
21
37.4993111438
31
0.0000000000
11
-5.5740534756
21
36.9008165698
31
0.0000000000
11
-6.1426305014
21
36.4750060447
31
0.0000000000
11
-6.7584683036
21
36.2218689039
31
0.0000000000
11
-7.3907512209
21
36.1388030838
31
0.0000000000
0
SPLINE
5
2FB
100
AcDbEntity
8
0
100
AcDbSpline
62
7
6
CONTINUOUS
70
0
71
3
72
13
73
9
74
7
42
0.0000001000
43
0.0000001000
44
0.0000000001
12
-0.2798241068
22
-4.6790004242
32
0.0000000000
13
-4.6983886195
23
-0.0027514589
33
0.0000000000
40
0.0000000000
40
0.0000000000
40
0.0000000000
40
0.0000000000
40
0.1737854938
40
0.3661146703
40
0.5500106827
40
0.7256439450
40
0.8926396385
40
1.0000000000
40
1.0000000000
40
1.0000000000
40
1.0000000000
10
-4.5086084034
20
39.3222455674
30
0.0000000000
10
-4.5248181936
20
39.0511981011
30
0.0000000000
10
-4.6181024403
20
38.4819608416
30
0.0000000000
10
-4.9456247294
20
37.6795430630
30
0.0000000000
10
-5.4657299521
20
36.9805159143
30
0.0000000000
10
-6.1251500029
20
36.4713651400
30
0.0000000000
10
-6.7918240082
20
36.2188452396
30
0.0000000000
10
-7.2226109224
20
36.1749840968
30
0.0000000000
10
-7.3907511560
20
36.1748856309
30
0.0000000000
11
-4.5086084034
21
39.3222455674
31
0.0000000000
11
-4.6414815382
21
38.5187030273
31
0.0000000000
11
-4.9847614420
21
37.6861403553
31
0.0000000000
11
-5.5026705043
21
36.9982375607
31
0.0000000000
11
-6.1565966122
21
36.4995499686
31
0.0000000000
11
-6.8891859064
21
36.2261707583
31
0.0000000000
11
-7.3907511560
21
36.1748856309
31
0.0000000000
0
SPLINE
5
2FC
100
AcDbEntity
8
0
100
AcDbSpline
62
7
6
CONTINUOUS
70
0
71
3
72
13
73
9
74
7
42
0.0000001000
43
0.0000001000
44
0.0000000001
12
-4.6985762793
22
0.0024727295
32
0.0000000000
13
-0.2807694123
23
4.6780500447
33
0.0000000000
40
0.0000000000
40
0.0000000000
40
0.0000000000
40
0.0000000000
40
0.1035620529
40
0.2712741994
40
0.4476276884
40
0.6323417777
40
0.8255075039
40
1.0000000000
40
1.0000000000
40
1.0000000000
40
1.0000000000
10
8.1092489393
20
36.1748136830
30
0.0000000000
10
7.9470508708
20
36.1748990433
30
0.0000000000
10
7.5211782416
20
36.2167687429
30
0.0000000000
10
6.8564462101
20
36.4637108230
30
0.0000000000
10
6.1919530151
20
36.9720876320
30
0.0000000000
10
5.6676428576
20
37.6725704239
30
0.0000000000
10
5.3374897782
20
38.4778313030
30
0.0000000000
10
5.2434887680
20
39.0493402516
30
0.0000000000
10
5.2271580495
20
39.3214351281
30
0.0000000000
11
8.1092489393
21
36.1748136830
31
0.0000000000
11
7.6252433650
21
36.2225761249
31
0.0000000000
11
6.8879468744
21
36.4924404518
31
0.0000000000
11
6.2292167365
21
36.9901021887
31
0.0000000000
11
5.7070875450
21
37.6794002075
31
0.0000000000
11
5.3610403388
21
38.5148608263
31
0.0000000000
11
5.2271580495
21
39.3214351281
31
0.0000000000
0
SPLINE
5
2FD
100
AcDbEntity
8
0
100
AcDbSpline
62
7
6
CONTINUOUS
70
0
71
3
72
14
73
10
74
8
42
0.0000001000
43
0.0000001000
44
0.0000000001
12
-0.2816709139
22
-4.7162692235
32
0.0000000000
13
-4.7148742666
23
0.0003778553
33
0.0000000000
40
0.0000000000
40
0.0000000000
40
0.0000000000
40
0.0000000000
40
0.0441147271
40
0.2318181544
40
0.4090112741
40
0.5728628805
40
0.7235239730
40
0.8647438086
40
1.0000000000
40
1.0000000000
40
1.0000000000
40
1.0000000000
10
10.9913974375
20
39.3222690283
30
0.0000000000
10
10.9872554923
20
39.2529167183
30
0.0000000000
10
10.9561064005
20
38.8890311394
30
0.0000000000
10
10.8141644766
20
38.2565598379
30
0.0000000000
10
10.4523624294
20
37.5003375229
30
0.0000000000
10
9.9620997456
20
36.8935245203
30
0.0000000000
10
9.3849038866
20
36.4569448014
30
0.0000000000
10
8.7583689748
20
36.1966371435
30
0.0000000000
10
8.3218207578
20
36.1387860481
30
0.0000000000
10
8.1092487791
20
36.1388030838
30
0.0000000000
11
10.9913974375
21
39.3222690283
31
0.0000000000
11
10.9736148755
21
39.1146188200
31
0.0000000000
11
10.7779562748
21
38.2515201690
31
0.0000000000
11
10.4144359016
21
37.4993111438
31
0.0000000000
11
9.9259465244
21
36.9008165698
31
0.0000000000
11
9.3573694986
21
36.4750060447
31
0.0000000000
11
8.7415316964
21
36.2218689039
31
0.0000000000
11
8.1092487791
21
36.1388030838
31
0.0000000000
0
SPLINE
5
2FE
100
AcDbEntity
8
0
100
AcDbSpline
62
7
6
CONTINUOUS
70
0
71
3
72
13
73
9
74
7
42
0.0000001000
43
0.0000001000
44
0.0000000001
12
-0.2798241068
22
-4.6790004242
32
0.0000000000
13
-4.6983886195
23
-0.0027514589
33
0.0000000000
40
0.0000000000
40
0.0000000000
40
0.0000000000
40
0.0000000000
40
0.1737854938
40
0.3661146703
40
0.5500106827
40
0.7256439450
40
0.8926396385
40
1.0000000000
40
1.0000000000
40
1.0000000000
40
1.0000000000
10
10.9913915966
20
39.3222455674
30
0.0000000000
10
10.9751818064
20
39.0511981011
30
0.0000000000
10
10.8818975597
20
38.4819608416
30
0.0000000000
10
10.5543752706
20
37.6795430630
30
0.0000000000
10
10.0342700479
20
36.9805159143
30
0.0000000000
10
9.3748499971
20
36.4713651400
30
0.0000000000
10
8.7081759918
20
36.2188452396
30
0.0000000000
10
8.2773890776
20
36.1749840968
30
0.0000000000
10
8.1092488440
20
36.1748856309
30
0.0000000000
11
10.9913915966
21
39.3222455674
31
0.0000000000
11
10.8585184618
21
38.5187030273
31
0.0000000000
11
10.5152385580
21
37.6861403553
31
0.0000000000
11
9.9973294957
21
36.9982375607
31
0.0000000000
11
9.3434033878
21
36.4995499686
31
0.0000000000
11
8.6108140936
21
36.2261707583
31
0.0000000000
11
8.1092488440
21
36.1748856309
31
0.0000000000
0
SPLINE
5
2FF
100
AcDbEntity
8
0
100
AcDbSpline
62
7
6
CONTINUOUS
70
0
71
3
72
8
73
4
74
2
42
0.0000001000
43
0.0000001000
44
0.0000000001
12
-0.0108482399
22
-0.1572095412
32
0.0000000000
13
-0.0172428272
23
-0.1568203264
33
0.0000000000
40
0.0000000000
40
0.0000000000
40
0.0000000000
40
0.0000000000
40
1.0000000000
40
1.0000000000
40
1.0000000000
40
1.0000000000
10
-41.8052855378
20
21.9797690358
30
0.0000000000
10
-41.8089016177
20
21.9273658554
30
0.0000000000
10
-41.8135830484
20
21.8750007557
30
0.0000000000
10
-41.8193306575
20
21.8227273136
30
0.0000000000
11
-41.8052855378
21
21.9797690358
31
0.0000000000
11
-41.8193306575
21
21.8227273136
31
0.0000000000
0
SPLINE
5
300
100
AcDbEntity
8
0
100
AcDbSpline
62
7
6
CONTINUOUS
70
0
71
3
72
8
73
4
74
2
42
0.0000001000
43
0.0000001000
44
0.0000000001
12
-0.0155294390
22
-0.1412373776
32
0.0000000000
13
-0.0207201580
23
-0.1406738763
33
0.0000000000
40
0.0000000000
40
0.0000000000
40
0.0000000000
40
0.0000000000
40
1.0000000000
40
1.0000000000
40
1.0000000000
40
1.0000000000
10
-41.8193306575
20
21.8227273136
30
0.0000000000
10
-41.8245071371
20
21.7756481877
30
0.0000000000
10
-41.8305484343
20
21.7286434088
30
0.0000000000
10
-41.8374551536
20
21.6817521167
30
0.0000000000
11
-41.8193306575
21
21.8227273136
31
0.0000000000
11
-41.8374551536
21
21.6817521167
31
0.0000000000
0
SPLINE
5
301
100
AcDbEntity
8
0
100
AcDbSpline
62
7
6
CONTINUOUS
70
0
71
3
72
8
73
4
74
2
42
0.0000001000
43
0.0000001000
44
0.0000000001
12
-0.0305821175
22
-0.2076289679
32
0.0000000000
13
-0.0418996595
23
-0.2057680695
33
0.0000000000
40
0.0000000000
40
0.0000000000
40
0.0000000000
40
0.0000000000
40
1.0000000000
40
1.0000000000
40
1.0000000000
40
1.0000000000
10
-41.8374551536
20
21.6817521167
30
0.0000000000
10
-41.8476491928
20
21.6125424607
30
0.0000000000
10
-41.8597285168
20
21.5435800309
30
0.0000000000
10
-41.8736950700
20
21.4749906744
30
0.0000000000
11
-41.8374551536
21
21.6817521167
31
0.0000000000
11
-41.8736950700
21
21.4749906744
31
0.0000000000
0
SPLINE
5
302
100
AcDbEntity
8
0
100
AcDbSpline
62
7
6
CONTINUOUS
70
0
71
3
72
8
73
4
74
2
42
0.0000001000
43
0.0000001000
44
0.0000000001
12
-0.0178836016
22
-0.0878258730
32
0.0000000000
13
-0.0199468918
23
-0.0873887289
33
0.0000000000
40
0.0000000000
40
0.0000000000
40
0.0000000000
40
0.0000000000
40
1.0000000000
40
1.0000000000
40
1.0000000000
40
1.0000000000
10
-41.8736950700
20
21.4749906744
30
0.0000000000
10
-41.8796562705
20
21.4457153834
30
0.0000000000
10
-41.8859612772
20
21.4165080571
30
0.0000000000
10
-41.8926102411
20
21.3873784808
30
0.0000000000
11
-41.8736950700
21
21.4749906744
31
0.0000000000
11
-41.8926102411
21
21.3873784808
31
0.0000000000
0
SPLINE
5
303
100
AcDbEntity
8
0
100
AcDbSpline
62
7
6
CONTINUOUS
70
0
71
3
72
8
73
4
74
2
42
0.0000001000
43
0.0000001000
44
0.0000000001
12
-0.0567633976
22
-0.2486844169
32
0.0000000000
13
-0.0734863742
23
-0.2442301099
33
0.0000000000
40
0.0000000000
40
0.0000000000
40
0.0000000000
40
0.0000000000
40
1.0000000000
40
1.0000000000
40
1.0000000000
40
1.0000000000
10
-41.8926102411
20
21.3873784808
30
0.0000000000
10
-41.9115313737
20
21.3044836751
30
0.0000000000
10
-41.9332379271
20
21.2222185015
30
0.0000000000
10
-41.9577333851
20
21.1408084649
30
0.0000000000
11
-41.8926102411
21
21.3873784808
31
0.0000000000
11
-41.9577333851
21
21.1408084649
31
0.0000000000
0
SPLINE
5
304
100
AcDbEntity
8
0
100
AcDbSpline
62
7
6
CONTINUOUS
70
0
71
3
72
9
73
5
74
3
42
0.0000001000
43
0.0000001000
44
0.0000000001
12
-0.0088827826
22
-0.0295217039
32
0.0000000000
13
-0.0091272739
23
-0.0294455502
33
0.0000000000
40
0.0000000000
40
0.0000000000
40
0.0000000000
40
0.0000000000
40
0.4881920052
40
1.0000000000
40
1.0000000000
40
1.0000000000
40
1.0000000000
10
-41.9577333851
20
21.1408084649
30
0.0000000000
10
-41.9591788863
20
21.1360043783
30
0.0000000000
10
-41.9621597072
20
21.1261699100
30
0.0000000000
10
-41.9651812803
20
21.1163481308
30
0.0000000000
10
-41.9667384175
20
21.1113246414
30
0.0000000000
11
-41.9577333851
21
21.1408084649
31
0.0000000000
11
-41.9620990247
21
21.1264051849
31
0.0000000000
11
-41.9667384175
21
21.1113246414
31
0.0000000000
0
SPLINE
5
305
100
AcDbEntity
8
0
100
AcDbSpline
62
7
6
CONTINUOUS
70
0
71
3
72
16
73
12
74
10
42
0.0000001000
43
0.0000001000
44
0.0000000001
12
-2.1949393833
22
-7.0811063961
32
0.0000000000
13
-2.1903249993
23
7.0824204293
33
0.0000000000
40
0.0000000000
40
0.0000000000
40
0.0000000000
40
0.0000000000
40
0.1221853171
40
0.2383911584
40
0.3472309752
40
0.4500558633
40
0.5505522040
40
0.6533831865
40
0.7621356371
40
0.8781319374
40
1.0000000000
40
1.0000000000
40
1.0000000000
40
1.0000000000
10
-41.9667384175
20
21.1113246414
30
0.0000000000
10
-42.0561348724
20
20.8229222313
30
0.0000000000
10
-42.2991814091
20
20.2819399719
30
0.0000000000
10
-42.8451887154
20
19.6101805925
30
0.0000000000
10
-43.5174351912
20
19.1427387949
30
0.0000000000
10
-44.2612284281
20
18.9055419683
30
0.0000000000
10
-45.0273178784
20
18.9066616470
30
0.0000000000
10
-45.7702337586
20
19.1458785253
30
0.0000000000
10
-46.4407256128
20
19.6144883891
30
0.0000000000
10
-46.9845715585
20
20.2859581467
30
0.0000000000
10
-47.2265154718
20
20.8259570486
30
0.0000000000
10
-47.3154923598
20
21.1136640006
30
0.0000000000
11
-41.9667384175
21
21.1113246414
31
0.0000000000
11
-42.3399051010
21
20.2893304861
31
0.0000000000
11
-42.8854465368
21
19.6264682275
31
0.0000000000
11
-43.5483700414
21
19.1714278012
31
0.0000000000
11
-44.2729956856
21
18.9434761518
31
0.0000000000
11
-45.0154267283
21
18.9445456623
31
0.0000000000
11
-45.7394589930
21
19.1745238437
31
0.0000000000
11
-46.4007556596
21
19.6307897235
31
0.0000000000
11
-46.9441418619
21
20.2934191508
31
0.0000000000
11
-47.3154923598
21
21.1136640006
31
0.0000000000
0
SPLINE
5
306
100
AcDbEntity
8
0
100
AcDbSpline
62
7
6
CONTINUOUS
70
0
71
3
72
9
73
5
74
3
42
0.0000001000
43
0.0000001000
44
0.0000000001
12
-0.0090520483
22
0.0292698169
32
0.0000000000
13
-0.0088106335
23
0.0293448620
33
0.0000000000
40
0.0000000000
40
0.0000000000
40
0.0000000000
40
0.0000000000
40
0.5233113942
40
1.0000000000
40
1.0000000000
40
1.0000000000
40
1.0000000000
10
-47.3154923598
20
21.1136640006
30
0.0000000000
10
-47.3170713731
20
21.1187697435
30
0.0000000000
10
-47.3200676706
20
21.1285329945
30
0.0000000000
10
-47.3230237289
20
21.1383087454
30
0.0000000000
10
-47.3244237051
20
21.1429715326
30
0.0000000000
11
-47.3154923598
21
21.1136640006
31
0.0000000000
11
-47.3201963466
21
21.1289916077
31
0.0000000000
11
-47.3244237051
21
21.1429715326
31
0.0000000000
0
SPLINE
5
307
100
AcDbEntity
8
0
100
AcDbSpline
62
7
6
CONTINUOUS
70
0
71
3
72
8
73
4
74
2
42
0.0000001000
43
0.0000001000
44
0.0000000001
12
-0.0728594697
22
0.2426671234
32
0.0000000000
13
-0.0563574046
23
0.2470564916
33
0.0000000000
40
0.0000000000
40
0.0000000000
40
0.0000000000
40
0.0000000000
40
1.0000000000
40
1.0000000000
40
1.0000000000
40
1.0000000000
10
-47.3244237051
20
21.1429715326
30
0.0000000000
10
-47.3487101950
20
21.2238605737
30
0.0000000000
10
-47.3702450974
20
21.3055916728
30
0.0000000000
10
-47.3890308989
20
21.3879438367
30
0.0000000000
11
-47.3244237051
21
21.1429715326
31
0.0000000000
11
-47.3890308989
21
21.3879438367
31
0.0000000000
0
SPLINE
5
308
100
AcDbEntity
8
0
100
AcDbSpline
62
7
6
CONTINUOUS
70
0
71
3
72
8
73
4
74
2
42
0.0000001000
43
0.0000001000
44
0.0000000001
12
-0.0201080862
22
0.0881487228
32
0.0000000000
13
-0.0180086081
23
0.0885929908
33
0.0000000000
40
0.0000000000
40
0.0000000000
40
0.0000000000
40
0.0000000000
40
1.0000000000
40
1.0000000000
40
1.0000000000
40
1.0000000000
10
-47.3890308989
20
21.3879438367
30
0.0000000000
10
-47.3957335943
20
21.4173267443
30
0.0000000000
10
-47.4020863203
20
21.4467887154
30
0.0000000000
10
-47.4080891896
20
21.4763197124
30
0.0000000000
11
-47.3890308989
21
21.3879438367
31
0.0000000000
11
-47.4080891896
21
21.4763197124
31
0.0000000000
0
SPLINE
5
309
100
AcDbEntity
8
0
100
AcDbSpline
62
7
6
CONTINUOUS
70
0
71
3
72
8
73
4
74
2
42
0.0000001000
43
0.0000001000
44
0.0000000001
12
-0.0413967765
22
0.2036506219
32
0.0000000000
13
-0.0303087863
23
0.2054732864
33
0.0000000000
40
0.0000000000
40
0.0000000000
40
0.0000000000
40
0.0000000000
40
1.0000000000
40
1.0000000000
40
1.0000000000
40
1.0000000000
10
-47.4080891896
20
21.4763197124
30
0.0000000000
10
-47.4218881151
20
21.5442032530
30
0.0000000000
10
-47.4338383563
20
21.6124515342
30
0.0000000000
10
-47.4439412850
20
21.6809426297
30
0.0000000000
11
-47.4080891896
21
21.4763197124
31
0.0000000000
11
-47.4439412850
21
21.6809426297
31
0.0000000000
0
SPLINE
5
30A
100
AcDbEntity
8
0
100
AcDbSpline
62
7
6
CONTINUOUS
70
0
71
3
72
8
73
4
74
2
42
0.0000001000
43
0.0000001000
44
0.0000000001
12
-0.0210190148
22
0.1424948529
32
0.0000000000
13
-0.0156897491
23
0.1430735249
33
0.0000000000
40
0.0000000000
40
0.0000000000
40
0.0000000000
40
0.0000000000
40
1.0000000000
40
1.0000000000
40
1.0000000000
40
1.0000000000
10
-47.4439412850
20
21.6809426297
30
0.0000000000
10
-47.4509476233
20
21.7284409140
30
0.0000000000
10
-47.4570655218
20
21.7760559765
30
0.0000000000
10
-47.4622954382
20
21.8237471515
30
0.0000000000
11
-47.4439412850
21
21.6809426297
31
0.0000000000
11
-47.4622954382
21
21.8237471515
31
0.0000000000
0
SPLINE
5
30B
100
AcDbEntity
8
0
100
AcDbSpline
62
7
6
CONTINUOUS
70
0
71
3
72
8
73
4
74
2
42
0.0000001000
43
0.0000001000
44
0.0000000001
12
-0.0167954734
22
0.1531565331
32
0.0000000000
13
-0.0106918435
23
0.1535301930
33
0.0000000000
40
0.0000000000
40
0.0000000000
40
0.0000000000
40
0.0000000000
40
1.0000000000
40
1.0000000000
40
1.0000000000
40
1.0000000000
10
-47.4622954382
20
21.8237471515
30
0.0000000000
10
-47.4678939293
20
21.8747993291
30
0.0000000000
10
-47.4724748682
20
21.9259387253
30
0.0000000000
10
-47.4760388160
20
21.9771154563
30
0.0000000000
11
-47.4622954382
21
21.8237471515
31
0.0000000000
11
-47.4760388160
21
21.9771154563
31
0.0000000000
0
SPLINE
5
30C
100
AcDbEntity
8
0
100
AcDbSpline
62
7
6
CONTINUOUS
70
0
71
3
72
8
73
4
74
2
42
0.0000001000
43
0.0000001000
44
0.0000000001
12
-0.0108482399
22
-0.1572095412
32
0.0000000000
13
-0.0172428272
23
-0.1568203264
33
0.0000000000
40
0.0000000000
40
0.0000000000
40
0.0000000000
40
0.0000000000
40
1.0000000000
40
1.0000000000
40
1.0000000000
40
1.0000000000
10
48.1947144622
20
21.9797690358
30
0.0000000000
10
48.1910983823
20
21.9273658554
30
0.0000000000
10
48.1864169516
20
21.8750007557
30
0.0000000000
10
48.1806693425
20
21.8227273136
30
0.0000000000
11
48.1947144622
21
21.9797690358
31
0.0000000000
11
48.1806693425
21
21.8227273136
31
0.0000000000
0
SPLINE
5
30D
100
AcDbEntity
8
0
100
AcDbSpline
62
7
6
CONTINUOUS
70
0
71
3
72
8
73
4
74
2
42
0.0000001000
43
0.0000001000
44
0.0000000001
12
-0.0155294390
22
-0.1412373776
32
0.0000000000
13
-0.0207201580
23
-0.1406738763
33
0.0000000000
40
0.0000000000
40
0.0000000000
40
0.0000000000
40
0.0000000000
40
1.0000000000
40
1.0000000000
40
1.0000000000
40
1.0000000000
10
48.1806693425
20
21.8227273136
30
0.0000000000
10
48.1754928629
20
21.7756481877
30
0.0000000000
10
48.1694515657
20
21.7286434088
30
0.0000000000
10
48.1625448464
20
21.6817521167
30
0.0000000000
11
48.1806693425
21
21.8227273136
31
0.0000000000
11
48.1625448464
21
21.6817521167
31
0.0000000000
0
SPLINE
5
30E
100
AcDbEntity
8
0
100
AcDbSpline
62
7
6
CONTINUOUS
70
0
71
3
72
8
73
4
74
2
42
0.0000001000
43
0.0000001000
44
0.0000000001
12
-0.0305821175
22
-0.2076289679
32
0.0000000000
13
-0.0418996595
23
-0.2057680695
33
0.0000000000
40
0.0000000000
40
0.0000000000
40
0.0000000000
40
0.0000000000
40
1.0000000000
40
1.0000000000
40
1.0000000000
40
1.0000000000
10
48.1625448464
20
21.6817521167
30
0.0000000000
10
48.1523508072
20
21.6125424607
30
0.0000000000
10
48.1402714832
20
21.5435800309
30
0.0000000000
10
48.1263049300
20
21.4749906744
30
0.0000000000
11
48.1625448464
21
21.6817521167
31
0.0000000000
11
48.1263049300
21
21.4749906744
31
0.0000000000
0
SPLINE
5
30F
100
AcDbEntity
8
0
100
AcDbSpline
62
7
6
CONTINUOUS
70
0
71
3
72
8
73
4
74
2
42
0.0000001000
43
0.0000001000
44
0.0000000001
12
-0.0178836016
22
-0.0878258730
32
0.0000000000
13
-0.0199468918
23
-0.0873887289
33
0.0000000000
40
0.0000000000
40
0.0000000000
40
0.0000000000
40
0.0000000000
40
1.0000000000
40
1.0000000000
40
1.0000000000
40
1.0000000000
10
48.1263049300
20
21.4749906744
30
0.0000000000
10
48.1203437295
20
21.4457153834
30
0.0000000000
10
48.1140387228
20
21.4165080571
30
0.0000000000
10
48.1073897589
20
21.3873784808
30
0.0000000000
11
48.1263049300
21
21.4749906744
31
0.0000000000
11
48.1073897589
21
21.3873784808
31
0.0000000000
0
SPLINE
5
310
100
AcDbEntity
8
0
100
AcDbSpline
62
7
6
CONTINUOUS
70
0
71
3
72
8
73
4
74
2
42
0.0000001000
43
0.0000001000
44
0.0000000001
12
-0.0567633976
22
-0.2486844169
32
0.0000000000
13
-0.0734863742
23
-0.2442301099
33
0.0000000000
40
0.0000000000
40
0.0000000000
40
0.0000000000
40
0.0000000000
40
1.0000000000
40
1.0000000000
40
1.0000000000
40
1.0000000000
10
48.1073897589
20
21.3873784808
30
0.0000000000
10
48.0884686263
20
21.3044836751
30
0.0000000000
10
48.0667620729
20
21.2222185015
30
0.0000000000
10
48.0422666149
20
21.1408084649
30
0.0000000000
11
48.1073897589
21
21.3873784808
31
0.0000000000
11
48.0422666149
21
21.1408084649
31
0.0000000000
0
SPLINE
5
311
100
AcDbEntity
8
0
100
AcDbSpline
62
7
6
CONTINUOUS
70
0
71
3
72
9
73
5
74
3
42
0.0000001000
43
0.0000001000
44
0.0000000001
12
-0.0088827826
22
-0.0295217039
32
0.0000000000
13
-0.0091272739
23
-0.0294455502
33
0.0000000000
40
0.0000000000
40
0.0000000000
40
0.0000000000
40
0.0000000000
40
0.4881920052
40
1.0000000000
40
1.0000000000
40
1.0000000000
40
1.0000000000
10
48.0422666149
20
21.1408084649
30
0.0000000000
10
48.0408211137
20
21.1360043783
30
0.0000000000
10
48.0378402928
20
21.1261699100
30
0.0000000000
10
48.0348187197
20
21.1163481308
30
0.0000000000
10
48.0332615825
20
21.1113246414
30
0.0000000000
11
48.0422666149
21
21.1408084649
31
0.0000000000
11
48.0379009753
21
21.1264051849
31
0.0000000000
11
48.0332615825
21
21.1113246414
31
0.0000000000
0
SPLINE
5
312
100
AcDbEntity
8
0
100
AcDbSpline
62
7
6
CONTINUOUS
70
0
71
3
72
16
73
12
74
10
42
0.0000001000
43
0.0000001000
44
0.0000000001
12
-2.1949393833
22
-7.0811063961
32
0.0000000000
13
-2.1903249993
23
7.0824204293
33
0.0000000000
40
0.0000000000
40
0.0000000000
40
0.0000000000
40
0.0000000000
40
0.1221853171
40
0.2383911584
40
0.3472309752
40
0.4500558633
40
0.5505522040
40
0.6533831865
40
0.7621356371
40
0.8781319374
40
1.0000000000
40
1.0000000000
40
1.0000000000
40
1.0000000000
10
48.0332615825
20
21.1113246414
30
0.0000000000
10
47.9438651276
20
20.8229222313
30
0.0000000000
10
47.7008185909
20
20.2819399719
30
0.0000000000
10
47.1548112846
20
19.6101805925
30
0.0000000000
10
46.4825648088
20
19.1427387949
30
0.0000000000
10
45.7387715719
20
18.9055419683
30
0.0000000000
10
44.9726821216
20
18.9066616470
30
0.0000000000
10
44.2297662414
20
19.1458785253
30
0.0000000000
10
43.5592743872
20
19.6144883891
30
0.0000000000
10
43.0154284415
20
20.2859581467
30
0.0000000000
10
42.7734845282
20
20.8259570486
30
0.0000000000
10
42.6845076402
20
21.1136640006
30
0.0000000000
11
48.0332615825
21
21.1113246414
31
0.0000000000
11
47.6600948990
21
20.2893304861
31
0.0000000000
11
47.1145534632
21
19.6264682275
31
0.0000000000
11
46.4516299586
21
19.1714278012
31
0.0000000000
11
45.7270043144
21
18.9434761518
31
0.0000000000
11
44.9845732717
21
18.9445456623
31
0.0000000000
11
44.2605410070
21
19.1745238437
31
0.0000000000
11
43.5992443404
21
19.6307897235
31
0.0000000000
11
43.0558581381
21
20.2934191508
31
0.0000000000
11
42.6845076402
21
21.1136640006
31
0.0000000000
0
SPLINE
5
313
100
AcDbEntity
8
0
100
AcDbSpline
62
7
6
CONTINUOUS
70
0
71
3
72
9
73
5
74
3
42
0.0000001000
43
0.0000001000
44
0.0000000001
12
-0.0090520483
22
0.0292698169
32
0.0000000000
13
-0.0088106335
23
0.0293448620
33
0.0000000000
40
0.0000000000
40
0.0000000000
40
0.0000000000
40
0.0000000000
40
0.5233113942
40
1.0000000000
40
1.0000000000
40
1.0000000000
40
1.0000000000
10
42.6845076402
20
21.1136640006
30
0.0000000000
10
42.6829286269
20
21.1187697435
30
0.0000000000
10
42.6799323294
20
21.1285329945
30
0.0000000000
10
42.6769762711
20
21.1383087454
30
0.0000000000
10
42.6755762949
20
21.1429715326
30
0.0000000000
11
42.6845076402
21
21.1136640006
31
0.0000000000
11
42.6798036534
21
21.1289916077
31
0.0000000000
11
42.6755762949
21
21.1429715326
31
0.0000000000
0
SPLINE
5
314
100
AcDbEntity
8
0
100
AcDbSpline
62
7
6
CONTINUOUS
70
0
71
3
72
8
73
4
74
2
42
0.0000001000
43
0.0000001000
44
0.0000000001
12
-0.0728594697
22
0.2426671234
32
0.0000000000
13
-0.0563574046
23
0.2470564916
33
0.0000000000
40
0.0000000000
40
0.0000000000
40
0.0000000000
40
0.0000000000
40
1.0000000000
40
1.0000000000
40
1.0000000000
40
1.0000000000
10
42.6755762949
20
21.1429715326
30
0.0000000000
10
42.6512898050
20
21.2238605737
30
0.0000000000
10
42.6297549026
20
21.3055916728
30
0.0000000000
10
42.6109691011
20
21.3879438367
30
0.0000000000
11
42.6755762949
21
21.1429715326
31
0.0000000000
11
42.6109691011
21
21.3879438367
31
0.0000000000
0
SPLINE
5
315
100
AcDbEntity
8
0
100
AcDbSpline
62
7
6
CONTINUOUS
70
0
71
3
72
8
73
4
74
2
42
0.0000001000
43
0.0000001000
44
0.0000000001
12
-0.0201080862
22
0.0881487228
32
0.0000000000
13
-0.0180086081
23
0.0885929908
33
0.0000000000
40
0.0000000000
40
0.0000000000
40
0.0000000000
40
0.0000000000
40
1.0000000000
40
1.0000000000
40
1.0000000000
40
1.0000000000
10
42.6109691011
20
21.3879438367
30
0.0000000000
10
42.6042664057
20
21.4173267443
30
0.0000000000
10
42.5979136797
20
21.4467887154
30
0.0000000000
10
42.5919108104
20
21.4763197124
30
0.0000000000
11
42.6109691011
21
21.3879438367
31
0.0000000000
11
42.5919108104
21
21.4763197124
31
0.0000000000
0
SPLINE
5
316
100
AcDbEntity
8
0
100
AcDbSpline
62
7
6
CONTINUOUS
70
0
71
3
72
8
73
4
74
2
42
0.0000001000
43
0.0000001000
44
0.0000000001
12
-0.0413967765
22
0.2036506219
32
0.0000000000
13
-0.0303087863
23
0.2054732864
33
0.0000000000
40
0.0000000000
40
0.0000000000
40
0.0000000000
40
0.0000000000
40
1.0000000000
40
1.0000000000
40
1.0000000000
40
1.0000000000
10
42.5919108104
20
21.4763197124
30
0.0000000000
10
42.5781118849
20
21.5442032530
30
0.0000000000
10
42.5661616437
20
21.6124515342
30
0.0000000000
10
42.5560587150
20
21.6809426297
30
0.0000000000
11
42.5919108104
21
21.4763197124
31
0.0000000000
11
42.5560587150
21
21.6809426297
31
0.0000000000
0
SPLINE
5
317
100
AcDbEntity
8
0
100
AcDbSpline
62
7
6
CONTINUOUS
70
0
71
3
72
8
73
4
74
2
42
0.0000001000
43
0.0000001000
44
0.0000000001
12
-0.0210190148
22
0.1424948529
32
0.0000000000
13
-0.0156897491
23
0.1430735249
33
0.0000000000
40
0.0000000000
40
0.0000000000
40
0.0000000000
40
0.0000000000
40
1.0000000000
40
1.0000000000
40
1.0000000000
40
1.0000000000
10
42.5560587150
20
21.6809426297
30
0.0000000000
10
42.5490523767
20
21.7284409140
30
0.0000000000
10
42.5429344782
20
21.7760559765
30
0.0000000000
10
42.5377045618
20
21.8237471515
30
0.0000000000
11
42.5560587150
21
21.6809426297
31
0.0000000000
11
42.5377045618
21
21.8237471515
31
0.0000000000
0
SPLINE
5
318
100
AcDbEntity
8
0
100
AcDbSpline
62
7
6
CONTINUOUS
70
0
71
3
72
8
73
4
74
2
42
0.0000001000
43
0.0000001000
44
0.0000000001
12
-0.0167954734
22
0.1531565331
32
0.0000000000
13
-0.0106918435
23
0.1535301930
33
0.0000000000
40
0.0000000000
40
0.0000000000
40
0.0000000000
40
0.0000000000
40
1.0000000000
40
1.0000000000
40
1.0000000000
40
1.0000000000
10
42.5377045618
20
21.8237471515
30
0.0000000000
10
42.5321060707
20
21.8747993291
30
0.0000000000
10
42.5275251318
20
21.9259387253
30
0.0000000000
10
42.5239611840
20
21.9771154563
30
0.0000000000
11
42.5377045618
21
21.8237471515
31
0.0000000000
11
42.5239611840
21
21.9771154563
31
0.0000000000
0
SPLINE
5
319
100
AcDbEntity
8
0
100
AcDbSpline
62
7
6
CONTINUOUS
70
0
71
3
72
11
73
7
74
5
42
0.0000001000
43
0.0000001000
44
0.0000000001
12
0.0000000000
22
-0.7863923371
32
0.0000000000
13
0.7863923371
23
0.0000000000
33
0.0000000000
40
0.0000000000
40
0.0000000000
40
0.0000000000
40
0.0000000000
40
0.2531277344
40
0.5038481473
40
0.7531386493
40
1.0000000000
40
1.0000000000
40
1.0000000000
40
1.0000000000
10
-58.0907512209
20
-55.0220300798
30
0.0000000000
10
-58.0907512209
20
-55.0883826500
30
0.0000000000
10
-58.0646476517
20
-55.2218916157
30
0.0000000000
10
-57.9531063705
20
-55.3906893394
30
0.0000000000
10
-57.7869511983
20
-55.5034096023
30
0.0000000000
10
-57.6554611791
20
-55.5297433857
30
0.0000000000
10
-57.5907512209
20
-55.5297433857
30
0.0000000000
11
-58.0907512209
21
-55.0220300798
31
0.0000000000
11
-58.0522774232
21
-55.2173343015
31
0.0000000000
11
-57.9435453920
21
-55.3818068810
31
0.0000000000
11
-57.7810809527
21
-55.4915203381
31
0.0000000000
11
-57.5907512209
21
-55.5297433857
31
0.0000000000
0
SPLINE
5
31A
100
AcDbEntity
8
0
100
AcDbSpline
62
7
6
CONTINUOUS
70
0
71
3
72
8
73
4
74
2
42
0.0000001000
43
0.0000001000
44
0.0000000001
12
0.0000000000
22
0.0767119289
32
0.0000000000
13
-0.0306150238
23
0.0719818295
33
0.0000000000
40
0.0000000000
40
0.0000000000
40
0.0000000000
40
0.0000000000
40
1.0000000000
40
1.0000000000
40
1.0000000000
40
1.0000000000
10
58.8092487791
20
29.1184892431
30
0.0000000000
10
58.8092487791
20
29.1440598860
30
0.0000000000
10
58.8035675745
20
29.1699512526
30
0.0000000000
10
58.7933625665
20
29.1939451957
30
0.0000000000
11
58.8092487791
21
29.1184892431
31
0.0000000000
11
58.7933625665
21
29.1939451957
31
0.0000000000
0
SPLINE
5
31B
100
AcDbEntity
8
0
100
AcDbSpline
62
7
6
CONTINUOUS
70
0
71
3
72
10
73
6
74
4
42
0.0000001000
43
0.0000001000
44
0.0000000001
12
-0.1141701445
22
0.2684360435
32
0.0000000000
13
-0.2860756225
23
-0.0000000000
33
0.0000000000
40
0.0000000000
40
0.0000000000
40
0.0000000000
40
0.0000000000
40
0.1282539665
40
0.5515463969
40
1.0000000000
40
1.0000000000
40
1.0000000000
40
1.0000000000
10
58.7933625665
20
29.1939451957
30
0.0000000000
10
58.7884816419
20
29.2054211915
30
0.0000000000
10
58.7630412654
20
29.2529062282
30
0.0000000000
10
58.6864624520
20
29.3163089853
30
0.0000000000
10
58.6020126603
20
29.3351275642
30
0.0000000000
10
58.5592487791
20
29.3351275642
30
0.0000000000
11
58.7933625665
21
29.1939451957
31
0.0000000000
11
58.7757418493
21
29.2268283344
31
0.0000000000
11
58.6842177804
21
29.3061190388
31
0.0000000000
11
58.5592487791
21
29.3351275642
31
0.0000000000
0
SPLINE
5
31C
100
AcDbEntity
8
0
100
AcDbSpline
62
7
6
CONTINUOUS
70
0
71
3
72
8
73
4
74
2
42
0.0000001000
43
0.0000001000
44
0.0000000001
12
-0.0159213012
22
0.1231790132
32
0.0000000000
13
-0.0226319135
23
0.1221206597
33
0.0000000000
40
0.0000000000
40
0.0000000000
40
0.0000000000
40
0.0000000000
40
1.0000000000
40
1.0000000000
40
1.0000000000
40
1.0000000000
10
4.5759516803
20
50.3023324944
30
0.0000000000
10
4.5706445799
20
50.3433921655
30
0.0000000000
10
4.5643662367
20
50.3843178558
30
0.0000000000
10
4.5568222655
20
50.4250247423
30
0.0000000000
11
4.5759516803
21
50.3023324944
31
0.0000000000
11
4.5568222655
21
50.4250247423
31
0.0000000000
0
SPLINE
5
31D
100
AcDbEntity
8
0
100
AcDbSpline
62
7
6
CONTINUOUS
70
0
71
3
72
9
73
5
74
3
42
0.0000001000
43
0.0000001000
44
0.0000000001
12
-0.0634565980
22
0.3424085904
32
0.0000000000
13
-0.1493065592
23
0.3150384944
33
0.0000000000
40
0.0000000000
40
0.0000000000
40
0.0000000000
40
0.0000000000
40
0.3376430050
40
1.0000000000
40
1.0000000000
40
1.0000000000
40
1.0000000000
10
4.5568222655
20
50.4250247423
30
0.0000000000
10
4.5496803734
20
50.4635620308
30
0.0000000000
10
4.5251686726
20
50.5771174318
30
0.0000000000
10
4.4885161206
20
50.6883213822
30
0.0000000000
10
4.4555513726
20
50.7578773657
30
0.0000000000
11
4.5568222655
21
50.4250247423
31
0.0000000000
11
4.5317438737
21
50.5399763325
31
0.0000000000
11
4.4555513726
21
50.7578773657
31
0.0000000000
0
SPLINE
5
31E
100
AcDbEntity
8
0
100
AcDbSpline
62
7
6
CONTINUOUS
70
0
71
3
72
13
73
9
74
7
42
0.0000001000
43
0.0000001000
44
0.0000000001
12
-0.6448899943
22
1.3607250341
32
0.0000000000
13
-1.5029860322
23
-0.0017850626
33
0.0000000000
40
0.0000000000
40
0.0000000000
40
0.0000000000
40
0.0000000000
40
0.0446896818
40
0.2128326819
40
0.3834844980
40
0.5861740910
40
0.8328964011
40
1.0000000000
40
1.0000000000
40
1.0000000000
40
1.0000000000
10
4.4555513726
20
50.7578773657
30
0.0000000000
10
4.4459447298
20
50.7781474886
30
0.0000000000
10
4.3966796969
20
50.8730244959
30
0.0000000000
10
4.2743614648
20
51.0266384823
30
0.0000000000
10
4.0352531116
20
51.1650793578
30
0.0000000000
10
3.7317280469
20
51.2413608796
30
0.0000000000
10
3.4233084825
20
51.2670210456
30
0.0000000000
10
3.2159902320
20
51.2704072458
30
0.0000000000
10
3.1322721070
20
51.2703078157
30
0.0000000000
11
4.4555513726
21
50.7578773657
31
0.0000000000
11
4.4244348102
21
50.8175669921
31
0.0000000000
11
4.2649296709
21
51.0135413472
31
0.0000000000
11
4.0456618569
21
51.1465413091
31
0.0000000000
11
3.7522990556
21
51.2285026158
31
0.0000000000
11
3.3833727737
21
51.2654162113
31
0.0000000000
11
3.1322721070
21
51.2703078157
31
0.0000000000
0
SPLINE
5
31F
100
AcDbEntity
8
0
100
AcDbSpline
62
7
6
CONTINUOUS
70
0
71
3
72
14
73
10
74
8
42
0.0000001000
43
0.0000001000
44
0.0000000001
12
-0.3094013480
22
5.1957925940
32
0.0000000000
13
5.1942274214
23
-0.0006125857
33
0.0000000000
40
0.0000000000
40
0.0000000000
40
0.0000000000
40
0.0000000000
40
0.1322128310
40
0.3024916555
40
0.4632053390
40
0.6120776324
40
0.7488903354
40
0.8771372104
40
1.0000000000
40
1.0000000000
40
1.0000000000
40
1.0000000000
10
5.2270580881
20
39.3229709198
30
0.0000000000
10
5.2134224787
20
39.5519544025
30
0.0000000000
10
5.2267640217
20
40.0784680327
30
0.0000000000
10
5.4033197288
20
40.8676951355
30
0.0000000000
10
5.7647037931
20
41.6239611556
30
0.0000000000
10
6.2550316985
20
42.2309296685
30
0.0000000000
10
6.8327561090
20
42.6675770900
30
0.0000000000
10
7.4597204140
20
42.9277563793
30
0.0000000000
10
7.8965230222
20
42.9855831244
30
0.0000000000
10
8.1092487791
20
42.9855580364
30
0.0000000000
11
5.2270580881
21
39.3229709198
31
0.0000000000
11
5.2445626804
21
40.0100870714
31
0.0000000000
11
5.4395470009
21
40.8727937960
31
0.0000000000
11
5.8024310559
21
41.6245773645
31
0.0000000000
11
6.2913414004
21
42.2236794459
31
0.0000000000
11
6.8602832917
21
42.6494834768
31
0.0000000000
11
7.4764967767
21
42.9025210693
31
0.0000000000
11
8.1092487791
21
42.9855580364
31
0.0000000000
0
SPLINE
5
320
100
AcDbEntity
8
0
100
AcDbSpline
62
7
6
CONTINUOUS
70
0
71
3
72
14
73
10
74
8
42
0.0000001000
43
0.0000001000
44
0.0000000001
12
-0.3094013480
22
5.1957925940
32
0.0000000000
13
5.1942274214
23
-0.0006125857
33
0.0000000000
40
0.0000000000
40
0.0000000000
40
0.0000000000
40
0.0000000000
40
0.1322128310
40
0.3024916555
40
0.4632053390
40
0.6120776324
40
0.7488903354
40
0.8771372104
40
1.0000000000
40
1.0000000000
40
1.0000000000
40
1.0000000000
10
-10.2729419119
20
39.3229709198
30
0.0000000000
10
-10.2865775213
20
39.5519544025
30
0.0000000000
10
-10.2732359783
20
40.0784680327
30
0.0000000000
10
-10.0966802712
20
40.8676951355
30
0.0000000000
10
-9.7352962069
20
41.6239611556
30
0.0000000000
10
-9.2449683015
20
42.2309296685
30
0.0000000000
10
-8.6672438910
20
42.6675770900
30
0.0000000000
10
-8.0402795860
20
42.9277563793
30
0.0000000000
10
-7.6034769778
20
42.9855831244
30
0.0000000000
10
-7.3907512209
20
42.9855580364
30
0.0000000000
11
-10.2729419119
21
39.3229709198
31
0.0000000000
11
-10.2554373196
21
40.0100870714
31
0.0000000000
11
-10.0604529991
21
40.8727937960
31
0.0000000000
11
-9.6975689441
21
41.6245773645
31
0.0000000000
11
-9.2086585996
21
42.2236794459
31
0.0000000000
11
-8.6397167083
21
42.6494834768
31
0.0000000000
11
-8.0235032233
21
42.9025210693
31
0.0000000000
11
-7.3907512209
21
42.9855580364
31
0.0000000000
0
SPLINE
5
321
100
AcDbEntity
8
0
100
AcDbSpline
62
7
6
CONTINUOUS
70
0
71
3
72
8
73
4
74
2
42
0.0000001000
43
0.0000001000
44
0.0000000001
12
0.0000000000
22
-0.4448045610
32
0.0000000000
13
-0.1555336975
23
-0.4196952584
33
0.0000000000
40
0.0000000000
40
0.0000000000
40
0.0000000000
40
0.0000000000
40
1.0000000000
40
1.0000000000
40
1.0000000000
40
1.0000000000
10
-5.7407512209
20
37.1608064417
30
0.0000000000
10
-5.7407512209
20
37.0125382547
30
0.0000000000
10
-5.7682282484
20
36.8629910786
30
0.0000000000
10
-5.8200728143
20
36.7230926592
30
0.0000000000
11
-5.7407512209
21
37.1608064417
31
0.0000000000
11
-5.8200728143
21
36.7230926592
31
0.0000000000
0
SPLINE
5
322
100
AcDbEntity
8
0
100
AcDbSpline
62
7
6
CONTINUOUS
70
0
71
3
72
8
73
4
74
2
42
0.0000001000
43
0.0000001000
44
0.0000000001
12
-0.1554998081
22
0.4196546198
32
0.0000000000
13
0.0000000000
23
0.4447546008
33
0.0000000000
40
0.0000000000
40
0.0000000000
40
0.0000000000
40
0.0000000000
40
1.0000000000
40
1.0000000000
40
1.0000000000
40
1.0000000000
10
-8.9614470960
20
36.7231397995
30
0.0000000000
10
-9.0132803654
20
36.8630246728
30
0.0000000000
10
-9.0407512209
20
37.0125549081
30
0.0000000000
10
-9.0407512209
20
37.1608064417
30
0.0000000000
11
-8.9614470960
21
36.7231397995
31
0.0000000000
11
-9.0407512209
21
37.1608064417
31
0.0000000000
0
SPLINE
5
323
100
AcDbEntity
8
0
100
AcDbSpline
62
7
6
CONTINUOUS
70
0
71
3
72
8
73
4
74
2
42
0.0000001000
43
0.0000001000
44
0.0000000001
12
0.0891823156
22
0.1347437942
32
0.0000000000
13
0.1037933270
23
0.1237297924
33
0.0000000000
40
0.0000000000
40
0.0000000000
40
0.0000000000
40
0.0000000000
40
1.0000000000
40
1.0000000000
40
1.0000000000
40
1.0000000000
10
-8.8222744362
20
36.6213624519
30
0.0000000000
10
-8.7925469976
20
36.6662770499
30
0.0000000000
10
-8.7602270373
20
36.7094741623
30
0.0000000000
10
-8.7256292616
20
36.7507174264
30
0.0000000000
11
-8.8222744362
21
36.6213624519
31
0.0000000000
11
-8.7256292616
21
36.7507174264
31
0.0000000000
0
SPLINE
5
324
100
AcDbEntity
8
0
100
AcDbSpline
62
7
6
CONTINUOUS
70
0
71
3
72
8
73
4
74
2
42
0.0000001000
43
0.0000001000
44
0.0000000001
12
0.0537198385
22
0.0640382639
32
0.0000000000
13
0.0572548433
23
0.0608591891
33
0.0000000000
40
0.0000000000
40
0.0000000000
40
0.0000000000
40
0.0000000000
40
1.0000000000
40
1.0000000000
40
1.0000000000
40
1.0000000000
10
-8.7256292616
20
36.7507174264
30
0.0000000000
10
-8.7077226488
20
36.7720635144
30
0.0000000000
10
-8.6892058685
20
36.7928862172
30
0.0000000000
10
-8.6701209207
20
36.8131726136
30
0.0000000000
11
-8.7256292616
21
36.7507174264
31
0.0000000000
11
-8.6701209207
21
36.8131726136
31
0.0000000000
0
SPLINE
5
325
100
AcDbEntity
8
0
100
AcDbSpline
62
7
6
CONTINUOUS
70
0
71
3
72
13
73
9
74
7
42
0.0000001000
43
0.0000001000
44
0.0000000001
12
1.9493344476
22
2.0720502718
32
0.0000000000
13
1.9493344476
23
-2.0720502718
33
0.0000000000
40
0.0000000000
40
0.0000000000
40
0.0000000000
40
0.0000000000
40
0.1410138134
40
0.3184085008
40
0.5000000000
40
0.6815914992
40
0.8589861866
40
1.0000000000
40
1.0000000000
40
1.0000000000
40
1.0000000000
10
-8.6701209207
20
36.8131726136
30
0.0000000000
10
-8.5784932260
20
36.9105685171
30
0.0000000000
10
-8.3420270027
20
37.1025749188
30
0.0000000000
10
-7.9030615126
20
37.2936631284
30
0.0000000000
10
-7.3907512209
20
37.3630603577
30
0.0000000000
10
-6.8784409292
20
37.2936631284
30
0.0000000000
10
-6.4394754391
20
37.1025749188
30
0.0000000000
10
-6.2030092157
20
36.9105685171
30
0.0000000000
10
-6.1113815210
20
36.8131726136
30
0.0000000000
11
-8.6701209207
21
36.8131726136
31
0.0000000000
11
-8.3605968872
21
37.0668447359
31
0.0000000000
11
-7.9006292616
21
37.2698109625
31
0.0000000000
11
-7.3907512209
21
37.3397483579
31
0.0000000000
11
-6.8808731802
21
37.2698109625
31
0.0000000000
11
-6.4209055546
21
37.0668447359
31
0.0000000000
11
-6.1113815210
21
36.8131726136
31
0.0000000000
0
SPLINE
5
326
100
AcDbEntity
8
0
100
AcDbSpline
62
7
6
CONTINUOUS
70
0
71
3
72
8
73
4
74
2
42
0.0000001000
43
0.0000001000
44
0.0000000001
12
0.0572548433
22
-0.0608591891
32
0.0000000000
13
0.0537198385
23
-0.0640382639
33
0.0000000000
40
0.0000000000
40
0.0000000000
40
0.0000000000
40
0.0000000000
40
1.0000000000
40
1.0000000000
40
1.0000000000
40
1.0000000000
10
-6.1113815210
20
36.8131726136
30
0.0000000000
10
-6.0922965733
20
36.7928862172
30
0.0000000000
10
-6.0737797930
20
36.7720635144
30
0.0000000000
10
-6.0558731802
20
36.7507174264
30
0.0000000000
11
-6.1113815210
21
36.8131726136
31
0.0000000000
11
-6.0558731802
21
36.7507174264
31
0.0000000000
0
SPLINE
5
327
100
AcDbEntity
8
0
100
AcDbSpline
62
7
6
CONTINUOUS
70
0
71
3
72
8
73
4
74
2
42
0.0000001000
43
0.0000001000
44
0.0000000001
12
0.1034809924
22
-0.1233574650
32
0.0000000000
13
0.0889606075
23
-0.1343074009
33
0.0000000000
40
0.0000000000
40
0.0000000000
40
0.0000000000
40
0.0000000000
40
1.0000000000
40
1.0000000000
40
1.0000000000
40
1.0000000000
10
-6.0558731802
20
36.7507174264
30
0.0000000000
10
-6.0213795161
20
36.7095982714
30
0.0000000000
10
-5.9891499791
20
36.6665370095
30
0.0000000000
10
-5.9594964432
20
36.6217678759
30
0.0000000000
11
-6.0558731802
21
36.7507174264
31
0.0000000000
11
-5.9594964432
21
36.6217678759
31
0.0000000000
0
SPLINE
5
328
100
AcDbEntity
8
0
100
AcDbSpline
62
7
6
CONTINUOUS
70
0
71
3
72
8
73
4
74
2
42
0.0000001000
43
0.0000001000
44
0.0000000001
12
0.0000000000
22
-0.4448045610
32
0.0000000000
13
-0.1555336975
23
-0.4196952584
33
0.0000000000
40
0.0000000000
40
0.0000000000
40
0.0000000000
40
0.0000000000
40
1.0000000000
40
1.0000000000
40
1.0000000000
40
1.0000000000
10
9.7592487791
20
37.1608064417
30
0.0000000000
10
9.7592487791
20
37.0125382547
30
0.0000000000
10
9.7317717516
20
36.8629910786
30
0.0000000000
10
9.6799271857
20
36.7230926592
30
0.0000000000
11
9.7592487791
21
37.1608064417
31
0.0000000000
11
9.6799271857
21
36.7230926592
31
0.0000000000
0
SPLINE
5
329
100
AcDbEntity
8
0
100
AcDbSpline
62
7
6
CONTINUOUS
70
0
71
3
72
8
73
4
74
2
42
0.0000001000
43
0.0000001000
44
0.0000000001
12
-0.1554998081
22
0.4196546198
32
0.0000000000
13
0.0000000000
23
0.4447546008
33
0.0000000000
40
0.0000000000
40
0.0000000000
40
0.0000000000
40
0.0000000000
40
1.0000000000
40
1.0000000000
40
1.0000000000
40
1.0000000000
10
6.5385529040
20
36.7231397995
30
0.0000000000
10
6.4867196346
20
36.8630246728
30
0.0000000000
10
6.4592487791
20
37.0125549081
30
0.0000000000
10
6.4592487791
20
37.1608064417
30
0.0000000000
11
6.5385529040
21
36.7231397995
31
0.0000000000
11
6.4592487791
21
37.1608064417
31
0.0000000000
0
SPLINE
5
32A
100
AcDbEntity
8
0
100
AcDbSpline
62
7
6
CONTINUOUS
70
0
71
3
72
8
73
4
74
2
42
0.0000001000
43
0.0000001000
44
0.0000000001
12
0.0891823156
22
0.1347437942
32
0.0000000000
13
0.1037933270
23
0.1237297924
33
0.0000000000
40
0.0000000000
40
0.0000000000
40
0.0000000000
40
0.0000000000
40
1.0000000000
40
1.0000000000
40
1.0000000000
40
1.0000000000
10
6.6777255638
20
36.6213624519
30
0.0000000000
10
6.7074530024
20
36.6662770499
30
0.0000000000
10
6.7397729627
20
36.7094741623
30
0.0000000000
10
6.7743707384
20
36.7507174264
30
0.0000000000
11
6.6777255638
21
36.6213624519
31
0.0000000000
11
6.7743707384
21
36.7507174264
31
0.0000000000
0
SPLINE
5
32B
100
AcDbEntity
8
0
100
AcDbSpline
62
7
6
CONTINUOUS
70
0
71
3
72
8
73
4
74
2
42
0.0000001000
43
0.0000001000
44
0.0000000001
12
0.0537198385
22
0.0640382639
32
0.0000000000
13
0.0572548433
23
0.0608591891
33
0.0000000000
40
0.0000000000
40
0.0000000000
40
0.0000000000
40
0.0000000000
40
1.0000000000
40
1.0000000000
40
1.0000000000
40
1.0000000000
10
6.7743707384
20
36.7507174264
30
0.0000000000
10
6.7922773512
20
36.7720635144
30
0.0000000000
10
6.8107941315
20
36.7928862172
30
0.0000000000
10
6.8298790793
20
36.8131726136
30
0.0000000000
11
6.7743707384
21
36.7507174264
31
0.0000000000
11
6.8298790793
21
36.8131726136
31
0.0000000000
0
SPLINE
5
32C
100
AcDbEntity
8
0
100
AcDbSpline
62
7
6
CONTINUOUS
70
0
71
3
72
13
73
9
74
7
42
0.0000001000
43
0.0000001000
44
0.0000000001
12
1.9493344476
22
2.0720502718
32
0.0000000000
13
1.9493344476
23
-2.0720502718
33
0.0000000000
40
0.0000000000
40
0.0000000000
40
0.0000000000
40
0.0000000000
40
0.1410138134
40
0.3184085008
40
0.5000000000
40
0.6815914992
40
0.8589861866
40
1.0000000000
40
1.0000000000
40
1.0000000000
40
1.0000000000
10
6.8298790793
20
36.8131726136
30
0.0000000000
10
6.9215067740
20
36.9105685171
30
0.0000000000
10
7.1579729973
20
37.1025749188
30
0.0000000000
10
7.5969384874
20
37.2936631284
30
0.0000000000
10
8.1092487791
20
37.3630603577
30
0.0000000000
10
8.6215590708
20
37.2936631284
30
0.0000000000
10
9.0605245609
20
37.1025749188
30
0.0000000000
10
9.2969907843
20
36.9105685171
30
0.0000000000
10
9.3886184790
20
36.8131726136
30
0.0000000000
11
6.8298790793
21
36.8131726136
31
0.0000000000
11
7.1394031128
21
37.0668447359
31
0.0000000000
11
7.5993707384
21
37.2698109625
31
0.0000000000
11
8.1092487791
21
37.3397483579
31
0.0000000000
11
8.6191268198
21
37.2698109625
31
0.0000000000
11
9.0790944454
21
37.0668447359
31
0.0000000000
11
9.3886184790
21
36.8131726136
31
0.0000000000
0
SPLINE
5
32D
100
AcDbEntity
8
0
100
AcDbSpline
62
7
6
CONTINUOUS
70
0
71
3
72
8
73
4
74
2
42
0.0000001000
43
0.0000001000
44
0.0000000001
12
0.0572548433
22
-0.0608591891
32
0.0000000000
13
0.0537198385
23
-0.0640382639
33
0.0000000000
40
0.0000000000
40
0.0000000000
40
0.0000000000
40
0.0000000000
40
1.0000000000
40
1.0000000000
40
1.0000000000
40
1.0000000000
10
9.3886184790
20
36.8131726136
30
0.0000000000
10
9.4077034267
20
36.7928862172
30
0.0000000000
10
9.4262202070
20
36.7720635144
30
0.0000000000
10
9.4441268198
20
36.7507174264
30
0.0000000000
11
9.3886184790
21
36.8131726136
31
0.0000000000
11
9.4441268198
21
36.7507174264
31
0.0000000000
0
SPLINE
5
32E
100
AcDbEntity
8
0
100
AcDbSpline
62
7
6
CONTINUOUS
70
0
71
3
72
8
73
4
74
2
42
0.0000001000
43
0.0000001000
44
0.0000000001
12
0.1034809924
22
-0.1233574650
32
0.0000000000
13
0.0889606075
23
-0.1343074009
33
0.0000000000
40
0.0000000000
40
0.0000000000
40
0.0000000000
40
0.0000000000
40
1.0000000000
40
1.0000000000
40
1.0000000000
40
1.0000000000
10
9.4441268198
20
36.7507174264
30
0.0000000000
10
9.4786204839
20
36.7095982714
30
0.0000000000
10
9.5108500209
20
36.6665370095
30
0.0000000000
10
9.5405035568
20
36.6217678759
30
0.0000000000
11
9.4441268198
21
36.7507174264
31
0.0000000000
11
9.5405035568
21
36.6217678759
31
0.0000000000
0
SPLINE
5
32F
100
AcDbEntity
8
0
100
AcDbSpline
62
7
6
CONTINUOUS
70
0
71
3
72
8
73
4
74
2
42
0.0000001000
43
0.0000001000
44
0.0000000001
12
-0.0106775273
22
-0.1514119508
32
0.0000000000
13
-0.0164541607
23
-0.1510151401
33
0.0000000000
40
0.0000000000
40
0.0000000000
40
0.0000000000
40
0.0000000000
40
1.0000000000
40
1.0000000000
40
1.0000000000
40
1.0000000000
10
-41.8056478966
20
21.9739514723
30
0.0000000000
10
-41.8092070724
20
21.9234808221
30
0.0000000000
10
-41.8137285339
20
21.8730540906
30
0.0000000000
10
-41.8192132541
20
21.8227157105
30
0.0000000000
11
-41.8056478966
21
21.9739514723
31
0.0000000000
11
-41.8192132541
21
21.8227157105
31
0.0000000000
0
SPLINE
5
330
100
AcDbEntity
8
0
100
AcDbSpline
62
7
6
CONTINUOUS
70
0
71
3
72
8
73
4
74
2
42
0.0000001000
43
0.0000001000
44
0.0000000001
12
-0.0153927330
22
-0.1412734309
32
0.0000000000
13
-0.0204530683
23
-0.1407003790
33
0.0000000000
40
0.0000000000
40
0.0000000000
40
0.0000000000
40
0.0000000000
40
1.0000000000
40
1.0000000000
40
1.0000000000
40
1.0000000000
10
-41.8192132541
20
21.8227157105
30
0.0000000000
10
-41.8243441651
20
21.7756245669
30
0.0000000000
10
-41.8303180671
20
21.7286107436
30
0.0000000000
10
-41.8371357565
20
21.6817106173
30
0.0000000000
11
-41.8192132541
21
21.8227157105
31
0.0000000000
11
-41.8371357565
21
21.6817106173
31
0.0000000000
0
SPLINE
5
331
100
AcDbEntity
8
0
100
AcDbSpline
62
7
6
CONTINUOUS
70
0
71
3
72
8
73
4
74
2
42
0.0000001000
43
0.0000001000
44
0.0000000001
12
-0.0301989712
22
-0.2077442190
32
0.0000000000
13
-0.0412436783
23
-0.2059057526
33
0.0000000000
40
0.0000000000
40
0.0000000000
40
0.0000000000
40
0.0000000000
40
1.0000000000
40
1.0000000000
40
1.0000000000
40
1.0000000000
10
-41.8371357565
20
21.6817106173
30
0.0000000000
10
-41.8472020803
20
21.6124625443
30
0.0000000000
10
-41.8591079067
20
21.5434623369
30
0.0000000000
10
-41.8728557994
20
21.4748270860
30
0.0000000000
11
-41.8371357565
21
21.6817106173
31
0.0000000000
11
-41.8728557994
21
21.4748270860
31
0.0000000000
0
SPLINE
5
332
100
AcDbEntity
8
0
100
AcDbSpline
62
7
6
CONTINUOUS
70
0
71
3
72
8
73
4
74
2
42
0.0000001000
43
0.0000001000
44
0.0000000001
12
-0.0176078604
22
-0.0879058293
32
0.0000000000
13
-0.0196229016
23
-0.0874793877
33
0.0000000000
40
0.0000000000
40
0.0000000000
40
0.0000000000
40
0.0000000000
40
1.0000000000
40
1.0000000000
40
1.0000000000
40
1.0000000000
10
-41.8728557994
20
21.4748270860
30
0.0000000000
10
-41.8787250862
20
21.4455251429
30
0.0000000000
10
-41.8849301135
20
21.4162897178
30
0.0000000000
10
-41.8914710807
20
21.3871299219
30
0.0000000000
11
-41.8728557994
21
21.4748270860
31
0.0000000000
11
-41.8914710807
21
21.3871299219
31
0.0000000000
0
SPLINE
5
333
100
AcDbEntity
8
0
100
AcDbSpline
62
7
6
CONTINUOUS
70
0
71
3
72
9
73
5
74
3
42
0.0000001000
43
0.0000001000
44
0.0000000001
12
-0.0558599062
22
-0.2490248634
32
0.0000000000
13
-0.0722055444
23
-0.2447188366
33
0.0000000000
40
0.0000000000
40
0.0000000000
40
0.0000000000
40
0.0000000000
40
0.5480829547
40
1.0000000000
40
1.0000000000
40
1.0000000000
40
1.0000000000
10
-41.8914710807
20
21.3871299219
30
0.0000000000
10
-41.9016763682
20
21.3416344943
30
0.0000000000
10
-41.9217883818
20
21.2589621061
30
0.0000000000
10
-41.9446252151
20
21.1770177744
30
0.0000000000
10
-41.9555021872
20
21.1401535699
30
0.0000000000
11
-41.8914710807
21
21.3871299219
31
0.0000000000
11
-41.9245409939
21
21.2512305452
31
0.0000000000
11
-41.9555021872
21
21.1401535699
31
0.0000000000
0
SPLINE
5
334
100
AcDbEntity
8
0
100
AcDbSpline
62
7
6
CONTINUOUS
70
0
71
3
72
8
73
4
74
2
42
0.0000001000
43
0.0000001000
44
0.0000000001
12
-0.0087297824
22
-0.0295869549
32
0.0000000000
13
-0.0089688222
23
-0.0295137802
33
0.0000000000
40
0.0000000000
40
0.0000000000
40
0.0000000000
40
0.0000000000
40
1.0000000000
40
1.0000000000
40
1.0000000000
40
1.0000000000
10
-41.9555021872
20
21.1401535699
30
0.0000000000
10
-41.9584121147
20
21.1302912516
30
0.0000000000
10
-41.9613618808
20
21.1204409457
30
0.0000000000
10
-41.9643514883
20
21.1106030190
30
0.0000000000
11
-41.9555021872
21
21.1401535699
31
0.0000000000
11
-41.9643514883
21
21.1106030190
31
0.0000000000
0
SPLINE
5
335
100
AcDbEntity
8
0
100
AcDbSpline
62
7
6
CONTINUOUS
70
0
71
3
72
17
73
13
74
11
42
0.0000001000
43
0.0000001000
44
0.0000000001
12
-2.1714464990
22
-7.1455976100
32
0.0000000000
13
-2.1668865805
23
7.1470559771
33
0.0000000000
40
0.0000000000
40
0.0000000000
40
0.0000000000
40
0.0000000000
40
0.1013702783
40
0.2132045506
40
0.3152614863
40
0.4095550155
40
0.4997794476
40
0.5900189971
40
0.6843248827
40
0.7863672940
40
0.8981632420
40
1.0000000000
40
1.0000000000
40
1.0000000000
40
1.0000000000
10
-41.9643514883
20
21.1106030190
30
0.0000000000
10
-42.0377248669
20
20.8691526130
30
0.0000000000
10
-42.2425195689
20
20.3770107477
30
0.0000000000
10
-42.7025613326
20
19.7335128261
30
0.0000000000
10
-43.2988159244
20
19.2401051365
30
0.0000000000
10
-43.9562553000
20
18.9457704754
30
0.0000000000
10
-44.6403598371
20
18.8482581207
30
0.0000000000
10
-45.3245293155
20
18.9455594873
30
0.0000000000
10
-45.9820807507
20
19.2397317638
30
0.0000000000
10
-46.5783785450
20
19.7329265849
30
0.0000000000
10
-47.0391984427
20
20.3771413354
30
0.0000000000
10
-47.2443058717
20
20.8703383009
30
0.0000000000
10
-47.3178621065
20
21.1129493043
30
0.0000000000
11
-41.9643514883
21
21.1106030190
31
0.0000000000
11
-42.2565036500
21
20.4140409553
31
0.0000000000
11
-42.7446323643
21
19.7392923512
31
0.0000000000
11
-43.3329005956
21
19.2581208196
31
0.0000000000
11
-43.9750214217
21
18.9739809045
31
0.0000000000
11
-44.6403278073
21
18.8802463972
31
0.0000000000
11
-45.3057751462
21
18.9737871429
31
0.0000000000
11
-45.9480559298
21
19.2577929033
31
0.0000000000
11
-46.5363582996
21
19.7387518283
31
0.0000000000
11
-47.0245025396
21
20.4131369226
31
0.0000000000
11
-47.3178621065
21
21.1129493043
31
0.0000000000
0
SPLINE
5
336
100
AcDbEntity
8
0
100
AcDbSpline
62
7
6
CONTINUOUS
70
0
71
3
72
8
73
4
74
2
42
0.0000001000
43
0.0000001000
44
0.0000000001
12
-0.0088946198
22
0.0293371819
32
0.0000000000
13
-0.0086585596
23
0.0294092969
33
0.0000000000
40
0.0000000000
40
0.0000000000
40
0.0000000000
40
0.0000000000
40
1.0000000000
40
1.0000000000
40
1.0000000000
40
1.0000000000
10
-47.3178621065
20
21.1129493043
30
0.0000000000
10
-47.3208269798
20
21.1227283649
30
0.0000000000
10
-47.3237525083
20
21.1325196246
30
0.0000000000
10
-47.3266386949
20
21.1423227236
30
0.0000000000
11
-47.3178621065
21
21.1129493043
31
0.0000000000
11
-47.3266386949
21
21.1423227236
31
0.0000000000
0
SPLINE
5
337
100
AcDbEntity
8
0
100
AcDbSpline
62
7
6
CONTINUOUS
70
0
71
3
72
9
73
5
74
3
42
0.0000001000
43
0.0000001000
44
0.0000000001
12
-0.0715874764
22
0.2431509920
32
0.0000000000
13
-0.0554585240
23
0.2473940514
33
0.0000000000
40
0.0000000000
40
0.0000000000
40
0.0000000000
40
0.0000000000
40
0.4414255174
40
1.0000000000
40
1.0000000000
40
1.0000000000
40
1.0000000000
10
-47.3266386949
20
21.1423227236
30
0.0000000000
10
-47.3371722078
20
21.1781004078
30
0.0000000000
10
-47.3598475733
20
21.2595079815
30
0.0000000000
10
-47.3798343073
20
21.3416350724
30
0.0000000000
10
-47.3901602127
20
21.3876977405
30
0.0000000000
11
-47.3266386949
21
21.1423227236
31
0.0000000000
11
-47.3566672804
21
21.2501113711
31
0.0000000000
11
-47.3901602127
21
21.3876977405
31
0.0000000000
0
SPLINE
5
338
100
AcDbEntity
8
0
100
AcDbSpline
62
7
6
CONTINUOUS
70
0
71
3
72
8
73
4
74
2
42
0.0000001000
43
0.0000001000
44
0.0000000001
12
-0.0197807825
22
0.0882397792
32
0.0000000000
13
-0.0177307586
23
0.0886730526
33
0.0000000000
40
0.0000000000
40
0.0000000000
40
0.0000000000
40
0.0000000000
40
1.0000000000
40
1.0000000000
40
1.0000000000
40
1.0000000000
10
-47.3901602127
20
21.3876977405
30
0.0000000000
10
-47.3967538069
20
21.4171110002
30
0.0000000000
10
-47.4030056401
20
21.4466011487
30
0.0000000000
10
-47.4089158930
20
21.4761588329
30
0.0000000000
11
-47.3901602127
21
21.3876977405
31
0.0000000000
11
-47.4089158930
21
21.4761588329
31
0.0000000000
0
SPLINE
5
339
100
AcDbEntity
8
0
100
AcDbSpline
62
7
6
CONTINUOUS
70
0
71
3
72
8
73
4
74
2
42
0.0000001000
43
0.0000001000
44
0.0000000001
12
-0.0407484710
22
0.2037866175
32
0.0000000000
13
-0.0299304389
23
0.2055862288
33
0.0000000000
40
0.0000000000
40
0.0000000000
40
0.0000000000
40
0.0000000000
40
1.0000000000
40
1.0000000000
40
1.0000000000
40
1.0000000000
10
-47.4089158930
20
21.4761588329
30
0.0000000000
10
-47.4224987167
20
21.5440877054
30
0.0000000000
10
-47.4342774391
20
21.6123732768
30
0.0000000000
10
-47.4442542521
20
21.6809020197
30
0.0000000000
11
-47.4089158930
21
21.4761588329
31
0.0000000000
11
-47.4442542521
21
21.6809020197
31
0.0000000000
0
SPLINE
5
33A
100
AcDbEntity
8
0
100
AcDbSpline
62
7
6
CONTINUOUS
70
0
71
3
72
8
73
4
74
2
42
0.0000001000
43
0.0000001000
44
0.0000000001
12
-0.0207491013
22
0.1425214479
32
0.0000000000
13
-0.0155554415
23
0.1431091691
33
0.0000000000
40
0.0000000000
40
0.0000000000
40
0.0000000000
40
0.0000000000
40
1.0000000000
40
1.0000000000
40
1.0000000000
40
1.0000000000
10
-47.4442542521
20
21.6809020197
30
0.0000000000
10
-47.4511706192
20
21.7284091690
30
0.0000000000
10
-47.4572210112
20
21.7760331835
30
0.0000000000
10
-47.4624061584
20
21.8237362399
30
0.0000000000
11
-47.4442542521
21
21.6809020197
31
0.0000000000
11
-47.4624061584
21
21.8237362399
31
0.0000000000
0
SPLINE
5
33B
100
AcDbEntity
8
0
100
AcDbSpline
62
7
6
CONTINUOUS
70
0
71
3
72
8
73
4
74
2
42
0.0000001000
43
0.0000001000
44
0.0000000001
12
-0.0162929742
22
0.1498944273
32
0.0000000000
13
-0.0106000638
23
0.1502843294
33
0.0000000000
40
0.0000000000
40
0.0000000000
40
0.0000000000
40
0.0000000000
40
1.0000000000
40
1.0000000000
40
1.0000000000
40
1.0000000000
10
-47.4624061584
20
21.8237362399
30
0.0000000000
10
-47.4678371498
20
21.8737010490
30
0.0000000000
10
-47.4723189033
20
21.9237525729
30
0.0000000000
10
-47.4758522579
20
21.9738473494
30
0.0000000000
11
-47.4624061584
21
21.8237362399
31
0.0000000000
11
-47.4758522579
21
21.9738473494
31
0.0000000000
0
SPLINE
5
33C
100
AcDbEntity
8
0
100
AcDbSpline
62
7
6
CONTINUOUS
70
0
71
3
72
15
73
11
74
9
42
0.0000001000
43
0.0000001000
44
0.0000000001
12
5.2072391121
22
1.8996340677
32
0.0000000000
13
-5.6503862237
23
0.0000768973
33
0.0000000000
40
0.0000000000
40
0.0000000000
40
0.0000000000
40
0.0000000000
40
0.1250003238
40
0.2500011088
40
0.3750018939
40
0.5000026790
40
0.6250034640
40
0.7500042491
40
0.8750050341
40
1.0000000000
40
1.0000000000
40
1.0000000000
40
1.0000000000
10
13.3094421812
20
-38.2191264169
30
0.0000000000
10
13.5264110395
20
-38.1399747924
30
0.0000000000
10
13.9321848980
20
-37.9149675827
30
0.0000000000
10
14.3719371518
20
-37.4215806861
30
0.0000000000
10
14.5952284751
20
-36.8284258670
30
0.0000000000
10
14.5750713982
20
-36.2049071743
30
0.0000000000
10
14.3141490984
20
-35.6235123376
30
0.0000000000
10
13.8424821848
20
-35.1519461782
30
0.0000000000
10
13.2160615996
20
-34.8451009393
30
0.0000000000
10
12.7412609376
20
-34.7741581364
30
0.0000000000
10
12.5058376599
20
-34.7741549324
30
0.0000000000
11
13.3094421812
21
-38.2191264169
31
0.0000000000
11
13.9040327858
21
-37.8889887973
31
0.0000000000
11
14.3358602399
21
-37.4049528002
31
0.0000000000
11
14.5546537418
21
-36.8233652214
31
0.0000000000
11
14.5349438611
21
-36.2119278170
31
0.0000000000
11
14.2790249961
21
-35.6418171171
31
0.0000000000
11
13.8166882861
21
-35.1793988713
31
0.0000000000
11
13.2017536685
21
-34.8785025084
31
0.0000000000
11
12.5058376599
21
-34.7741549324
31
0.0000000000
0
SPLINE
5
33D
100
AcDbEntity
8
0
100
AcDbSpline
62
7
6
CONTINUOUS
70
0
71
3
72
11
73
7
74
5
42
0.0000001000
43
0.0000001000
44
0.0000000001
12
2.5743808754
22
0.0000664910
32
0.0000000000
13
-2.5743808763
23
-0.0000137029
33
0.0000000000
40
0.0000000000
40
0.0000000000
40
0.0000000000
40
0.0000000000
40
0.2499927862
40
0.4999945725
40
0.7499963589
40
1.0000000000
40
1.0000000000
40
1.0000000000
40
1.0000000000
10
12.3184449490
20
-37.2782305288
30
0.0000000000
10
12.5329704982
20
-37.2782249881
30
0.0000000000
10
12.9620247960
20
-37.1243093179
30
0.0000000000
10
13.2286093702
20
-36.5669422144
30
0.0000000000
10
12.9620209376
20
-36.0095670439
30
0.0000000000
10
12.5329518684
20
-35.8556527577
30
0.0000000000
10
12.3184170042
20
-35.8556538996
30
0.0000000000
11
12.3184449490
21
-37.2782305288
31
0.0000000000
11
12.8991862562
21
-37.0698990051
31
0.0000000000
11
13.1397467791
21
-36.5669422144
31
0.0000000000
11
12.8991862562
21
-36.0639854236
31
0.0000000000
11
12.3184170042
21
-35.8556538996
31
0.0000000000
0
SPLINE
5
33E
100
AcDbEntity
8
0
100
AcDbSpline
62
7
6
CONTINUOUS
70
0
71
3
72
10
73
6
74
4
42
0.0000001000
43
0.0000001000
44
0.0000000001
12
0.1037191632
22
-0.8930210834
32
0.0000000000
13
1.0316577902
23
0.0855368063
33
0.0000000000
40
0.0000000000
40
0.0000000000
40
0.0000000000
40
0.0000000000
40
0.3333333122
40
0.6666666245
40
1.0000000000
40
1.0000000000
40
1.0000000000
40
1.0000000000
10
-4.1746962209
20
19.7931495759
30
0.0000000000
10
-4.1631718702
20
19.6939250174
30
0.0000000000
10
-4.0776368136
20
19.4970915650
30
0.0000000000
10
-3.7990974475
20
19.2989933212
30
0.0000000000
10
-3.5595198306
20
19.2646054442
30
0.0000000000
10
-3.4448911728
20
19.2741095350
30
0.0000000000
11
-4.1746962209
21
19.7931495759
31
0.0000000000
11
-4.0525973530
21
19.5132835562
31
0.0000000000
11
-3.7856262926
21
19.3234127348
31
0.0000000000
11
-3.4448911728
21
19.2741095350
31
0.0000000000
0
SPLINE
5
33F
100
AcDbEntity
8
0
100
AcDbSpline
62
7
6
CONTINUOUS
70
0
71
3
72
10
73
6
74
4
42
0.0000001000
43
0.0000001000
44
0.0000000001
12
-0.9897162047
22
0.3248357959
32
0.0000000000
13
-0.6412960682
23
-0.7291957087
33
0.0000000000
40
0.0000000000
40
0.0000000000
40
0.0000000000
40
0.0000000000
40
0.3333332027
40
0.6666664053
40
1.0000000000
40
1.0000000000
40
1.0000000000
40
1.0000000000
10
-2.3176692209
20
23.0338478138
30
0.0000000000
10
-2.4276376450
20
23.0699406658
30
0.0000000000
10
-2.6687124796
20
23.1013377064
30
0.0000000000
10
-3.0175633291
20
23.0148508232
30
0.0000000000
10
-3.2029330966
20
22.8777297980
30
0.0000000000
10
-3.2741882712
20
22.7967079890
30
0.0000000000
11
-2.3176692209
21
23.0338478138
31
0.0000000000
11
-2.6665855564
21
23.0790739713
31
0.0000000000
11
-3.0057638285
21
22.9949851075
31
0.0000000000
11
-3.2741882712
21
22.7967079890
31
0.0000000000
0
SPLINE
5
340
100
AcDbEntity
8
0
100
AcDbSpline
62
7
6
CONTINUOUS
70
0
71
3
72
10
73
6
74
4
42
0.0000001000
43
0.0000001000
44
0.0000000001
12
-1.4503094929
22
0.2911607477
32
0.0000000000
13
0.2206480176
23
1.2750720712
33
0.0000000000
40
0.0000000000
40
0.0000000000
40
0.0000000000
40
0.0000000000
40
0.3333336162
40
0.6666668081
40
1.0000000000
40
1.0000000000
40
1.0000000000
40
1.0000000000
10
-5.0910715428
20
18.7718121533
30
0.0000000000
10
-5.2522171787
20
18.8041633750
30
0.0000000000
10
-5.5609172306
20
18.9417506597
30
0.0000000000
10
-5.8508612096
20
19.3110556142
30
0.0000000000
10
-5.8850896569
20
19.6102599464
30
0.0000000000
10
-5.8605732209
20
19.7519345609
30
0.0000000000
11
-5.0910715428
21
18.7718121533
31
0.0000000000
11
-5.5320663841
21
18.9689047994
31
0.0000000000
11
-5.8110943454
21
19.3243058976
31
0.0000000000
11
-5.8605732209
21
19.7519345609
31
0.0000000000
0
SPLINE
5
341
100
AcDbEntity
8
0
100
AcDbSpline
62
7
6
CONTINUOUS
70
0
71
3
72
11
73
7
74
5
42
0.0000001000
43
0.0000001000
44
0.0000000001
12
0.7164654812
22
1.3338336294
32
0.0000000000
13
1.5131456419
23
0.0531558500
33
0.0000000000
40
0.0000000000
40
0.0000000000
40
0.0000000000
40
0.0000000000
40
0.2356156003
40
0.4851541044
40
0.7419065510
40
1.0000000000
40
1.0000000000
40
1.0000000000
40
1.0000000000
10
-4.8783742282
20
23.0279642947
30
0.0000000000
10
-4.8221040801
20
23.1327216318
30
0.0000000000
10
-4.6543650386
20
23.3248748869
30
0.0000000000
10
-4.3020230631
20
23.4754138721
30
0.0000000000
10
-3.9175226137
20
23.5249639694
30
0.0000000000
10
-3.6577097153
20
23.5286431781
30
0.0000000000
10
-3.5275320562
20
23.5332162369
30
0.0000000000
11
-4.8783742282
21
23.0279642947
31
0.0000000000
11
-4.6443982213
21
23.2972579917
31
0.0000000000
11
-4.3019923275
21
23.4569668578
31
0.0000000000
11
-3.9179894395
21
23.5174919329
31
0.0000000000
11
-3.5275320562
21
23.5332162369
31
0.0000000000
0
SPLINE
5
342
100
AcDbEntity
8
0
100
AcDbSpline
62
7
6
CONTINUOUS
70
0
71
3
72
11
73
7
74
5
42
0.0000001000
43
0.0000001000
44
0.0000000001
12
1.7438305569
22
0.0000104545
32
0.0000000000
13
-0.4470723592
23
-1.4597278786
33
0.0000000000
40
0.0000000000
40
0.0000000000
40
0.0000000000
40
0.0000000000
40
0.2500027655
40
0.5000018437
40
0.7500009218
40
1.0000000000
40
1.0000000000
40
1.0000000000
40
1.0000000000
10
3.4465923489
20
23.5332151387
30
0.0000000000
10
3.5919131696
20
23.5332160099
30
0.0000000000
10
3.8868555812
20
23.4741497447
30
0.0000000000
10
4.2353100142
20
23.2262515044
30
0.0000000000
10
4.4226557405
20
22.8710141318
30
0.0000000000
10
4.4129656717
20
22.6089825600
30
0.0000000000
10
4.3757097791
20
22.4873390186
30
0.0000000000
11
3.4465923489
21
23.5332151387
31
0.0000000000
11
3.8711978040
21
23.4475990088
31
0.0000000000
11
4.2084588486
21
23.2083614458
31
0.0000000000
11
4.3890089356
21
22.8647124676
31
0.0000000000
11
4.3757097791
21
22.4873390186
31
0.0000000000
0
SPLINE
5
343
100
AcDbEntity
8
0
100
AcDbSpline
62
7
6
CONTINUOUS
70
0
71
3
72
9
73
5
74
3
42
0.0000001000
43
0.0000001000
44
0.0000000001
12
0.5198038489
22
0.9434565735
32
0.0000000000
13
1.0644927055
23
0.1648066040
33
0.0000000000
40
0.0000000000
40
0.0000000000
40
0.0000000000
40
0.0000000000
40
0.7370616455
40
1.0000000000
40
1.0000000000
40
1.0000000000
40
1.0000000000
10
0.3131348461
20
23.0989994079
30
0.0000000000
10
0.4408440062
20
23.3307946261
30
0.0000000000
10
0.8463695508
20
23.4683988855
30
0.0000000000
10
1.1922429256
20
23.5187715838
30
0.0000000000
10
1.2855415790
20
23.5332162429
30
0.0000000000
11
0.3131348461
21
23.0989994079
31
0.0000000000
11
1.0062320266
21
23.4862508634
31
0.0000000000
11
1.2855415790
21
23.5332162429
31
0.0000000000
0
SPLINE
5
344
100
AcDbEntity
8
0
100
AcDbSpline
62
7
6
CONTINUOUS
70
0
71
3
72
10
73
6
74
4
42
0.0000001000
43
0.0000001000
44
0.0000000001
12
-1.1845642894
22
0.3214073810
32
0.0000000000
13
-0.1316746518
23
1.0689683999
33
0.0000000000
40
0.0000000000
40
0.0000000000
40
0.0000000000
40
0.0000000000
40
0.3333332397
40
0.6666666199
40
1.0000000000
40
1.0000000000
40
1.0000000000
40
1.0000000000
10
0.0009735881
20
18.7718120190
30
0.0000000000
10
-0.1306446294
20
18.8075239402
30
0.0000000000
10
-0.3804356247
20
18.9247464964
30
0.0000000000
10
-0.6488670813
20
19.2082972434
30
0.0000000000
10
-0.7326217020
20
19.4434071834
30
0.0000000000
10
-0.7472522209
20
19.5621814667
30
0.0000000000
11
0.0009735881
21
18.7718120190
31
0.0000000000
11
-0.3627264037
21
18.9426992796
31
0.0000000000
11
-0.6250671541
21
19.2198162639
31
0.0000000000
11
-0.7472522209
21
19.5621814667
31
0.0000000000
0
SPLINE
5
345
100
AcDbEntity
8
0
100
AcDbSpline
62
7
6
CONTINUOUS
70
0
71
3
72
10
73
6
74
4
42
0.0000001000
43
0.0000001000
44
0.0000000001
12
-0.3228366043
22
-0.8122447064
32
0.0000000000
13
-0.9561841060
23
-0.2284584578
33
0.0000000000
40
0.0000000000
40
0.0000000000
40
0.0000000000
40
0.0000000000
40
0.3333356274
40
0.6666678137
40
1.0000000000
40
1.0000000000
40
1.0000000000
40
1.0000000000
10
3.4320001504
20
19.3396869675
30
0.0000000000
10
3.3961291697
20
19.2494369346
30
0.0000000000
10
3.2896490914
20
19.0777527693
30
0.0000000000
10
3.0448153228
20
18.8785390802
30
0.0000000000
10
2.8403260920
20
18.7971962280
30
0.0000000000
10
2.7340837791
20
18.7718120422
30
0.0000000000
11
3.4320001504
21
19.3396869675
31
0.0000000000
11
3.2754627166
21
19.0874706861
31
0.0000000000
11
3.0344985027
21
18.8914055344
31
0.0000000000
11
2.7340837791
21
18.7718120422
31
0.0000000000
0
SPLINE
5
346
100
AcDbEntity
8
0
100
AcDbSpline
62
7
6
CONTINUOUS
70
0
71
3
72
17
73
13
74
11
42
0.0000001000
43
0.0000001000
44
0.0000000001
12
-0.8107689872
22
-1.1065371358
32
0.0000000000
13
0.6118439007
23
1.2487546360
33
0.0000000000
40
0.0000000000
40
0.0000000000
40
0.0000000000
40
0.0000000000
40
0.1397714599
40
0.2780962505
40
0.4180638942
40
0.5645973743
40
0.6397004077
40
0.7179048695
40
0.7966324575
40
0.8763209279
40
0.9543937691
40
1.0000000000
40
1.0000000000
40
1.0000000000
40
1.0000000000
10
1.0845837277
20
20.1266637338
30
0.0000000000
10
1.0468096060
20
20.0751096301
30
0.0000000000
10
0.9986784306
20
19.9481835488
30
0.0000000000
10
1.0327137530
20
19.7572224658
30
0.0000000000
10
1.0847072859
20
19.5677264458
30
0.0000000000
10
1.1974304068
20
19.4389559656
30
0.0000000000
10
1.3096147362
20
19.3601589943
30
0.0000000000
10
1.3990962269
20
19.3038031056
30
0.0000000000
10
1.4981650870
20
19.2551662499
30
0.0000000000
10
1.6102611366
20
19.2586454804
30
0.0000000000
10
1.6974270082
20
19.3037804122
30
0.0000000000
10
1.7289282992
20
19.3516187775
30
0.0000000000
10
1.7382295973
20
19.3706024416
30
0.0000000000
11
1.0845837277
21
20.1266637338
31
0.0000000000
11
1.0163054780
21
19.9474976847
31
0.0000000000
11
1.0353972794
21
19.7587098673
31
0.0000000000
11
1.0968509680
21
19.5768057308
31
0.0000000000
11
1.2257442491
21
19.4225590796
31
0.0000000000
11
1.3088771486
21
19.3617069043
31
0.0000000000
11
1.4001823036
21
19.3053849292
31
0.0000000000
11
1.4999271346
21
19.2639814343
31
0.0000000000
11
1.6091999438
21
19.2670105567
31
0.0000000000
11
1.7027716350
21
19.3191107300
31
0.0000000000
11
1.7382295973
21
19.3706024416
31
0.0000000000
0
SPLINE
5
347
100
AcDbEntity
8
0
100
AcDbSpline
62
7
6
CONTINUOUS
70
0
71
3
72
10
73
6
74
4
42
0.0000001000
43
0.0000001000
44
0.0000000001
12
-1.0250953124
22
0.2596399463
32
0.0000000000
13
-0.5389142805
23
-0.7985653046
33
0.0000000000
40
0.0000000000
40
0.0000000000
40
0.0000000000
40
0.0000000000
40
0.3333328579
40
0.6666657158
40
1.0000000000
40
1.0000000000
40
1.0000000000
40
1.0000000000
10
2.8029577791
20
23.0201975214
30
0.0000000000
10
2.6890584624
20
23.0490463631
30
0.0000000000
10
2.4429553880
20
23.0627561799
30
0.0000000000
10
2.1020422995
20
22.9452848968
30
0.0000000000
10
1.9340871123
20
22.7888991294
30
0.0000000000
10
1.8742075769
20
22.7001693980
30
0.0000000000
11
2.8029577791
21
23.0201975214
31
0.0000000000
11
2.4476623896
21
23.0397502065
31
0.0000000000
11
2.1168728141
21
22.9257672672
31
0.0000000000
11
1.8742075769
21
22.7001693980
31
0.0000000000
0
SPLINE
5
348
100
AcDbEntity
8
0
100
AcDbSpline
62
7
6
CONTINUOUS
70
0
71
3
72
11
73
7
74
5
42
0.0000001000
43
0.0000001000
44
0.0000000001
12
-1.5917453222
22
0.0000089656
32
0.0000000000
13
0.4000264725
23
1.3342497663
33
0.0000000000
40
0.0000000000
40
0.0000000000
40
0.0000000000
40
0.0000000000
40
0.2499973939
40
0.4999982626
40
0.7499991313
40
1.0000000000
40
1.0000000000
40
1.0000000000
40
1.0000000000
10
5.2239942480
20
18.7718110909
30
0.0000000000
10
5.0913501873
20
18.7718118380
30
0.0000000000
10
4.8221557371
20
18.8255655834
30
0.0000000000
10
4.5036392285
20
19.0512554508
30
0.0000000000
10
4.3314455072
20
19.3749662163
30
0.0000000000
10
4.3390211239
20
19.6141242071
30
0.0000000000
10
4.3723567791
20
19.7253120740
30
0.0000000000
11
5.2239942480
21
18.7718110909
31
0.0000000000
11
4.8363700612
21
18.8497413282
31
0.0000000000
11
4.5280266057
21
19.0675920929
31
0.0000000000
11
4.3620383649
21
19.3808039198
31
0.0000000000
11
4.3723567791
21
19.7253120740
31
0.0000000000
0
SPLINE
5
349
100
AcDbEntity
8
0
100
AcDbSpline
62
7
6
CONTINUOUS
70
0
71
3
72
10
73
6
74
4
42
0.0000001000
43
0.0000001000
44
0.0000000001
12
1.2038420403
22
-0.3902498175
32
0.0000000000
13
0.1083200992
23
-1.1092437665
33
0.0000000000
40
0.0000000000
40
0.0000000000
40
0.0000000000
40
0.0000000000
40
0.3333333462
40
0.6666666731
40
1.0000000000
40
1.0000000000
40
1.0000000000
40
1.0000000000
10
8.8640797508
20
23.5332162439
30
0.0000000000
10
8.9978399827
20
23.4898551514
30
0.0000000000
10
9.2488951558
20
23.3578228512
30
0.0000000000
10
9.5133522673
20
23.0556103891
30
0.0000000000
10
9.5922462128
20
22.8105882304
30
0.0000000000
10
9.6042817791
20
22.6873389254
30
0.0000000000
11
8.8640797508
21
23.5332162439
31
0.0000000000
11
9.2302075544
21
23.3404621773
31
0.0000000000
11
9.4889995693
21
23.0447235921
31
0.0000000000
11
9.6042817791
21
22.6873389254
31
0.0000000000
0
SPLINE
5
34A
100
AcDbEntity
8
0
100
AcDbSpline
62
7
6
CONTINUOUS
70
0
71
3
72
9
73
5
74
3
42
0.0000001000
43
0.0000001000
44
0.0000000001
12
0.3591927180
22
1.1444732804
32
0.0000000000
13
1.3660651114
23
0.0058158953
33
0.0000000000
40
0.0000000000
40
0.0000000000
40
0.0000000000
40
0.0000000000
40
0.4012980793
40
1.0000000000
40
1.0000000000
40
1.0000000000
40
1.0000000000
10
5.3118424227
20
22.8598641497
30
0.0000000000
10
5.3598902053
20
23.0129557928
30
0.0000000000
10
5.5930126453
20
23.3687653459
30
0.0000000000
10
6.0475802551
20
23.5327977566
30
0.0000000000
10
6.3202021904
20
23.5339584192
30
0.0000000000
11
5.3118424227
21
22.8598641497
31
0.0000000000
11
5.5826549431
21
23.2676433538
31
0.0000000000
11
6.3202021904
21
23.5339584192
31
0.0000000000
0
SPLINE
5
34B
100
AcDbEntity
8
0
100
AcDbSpline
62
7
6
CONTINUOUS
70
0
71
3
72
14
73
10
74
8
42
0.0000001000
43
0.0000001000
44
0.0000000001
12
-1.5630862526
22
0.3638966695
32
0.0000000000
13
-1.3780304465
23
-0.8226126105
33
0.0000000000
40
0.0000000000
40
0.0000000000
40
0.0000000000
40
0.0000000000
40
0.2635028613
40
0.3939912286
40
0.5205363976
40
0.6401733506
40
0.7574355294
40
0.8758331168
40
1.0000000000
40
1.0000000000
40
1.0000000000
40
1.0000000000
10
7.9043398562
20
23.0430374665
30
0.0000000000
10
7.7670472896
20
23.0750000710
30
0.0000000000
10
7.5460562445
20
23.0692425346
30
0.0000000000
10
7.2836802333
20
22.9779226309
30
0.0000000000
10
7.1032279229
20
22.8769761330
30
0.0000000000
10
6.9960888505
20
22.7074987955
30
0.0000000000
10
6.9358862585
20
22.5284727346
30
0.0000000000
10
6.8525363369
20
22.3508240303
30
0.0000000000
10
6.7466668437
20
22.2681740865
30
0.0000000000
10
6.6896315952
20
22.2341270052
30
0.0000000000
11
7.9043398562
21
23.0430374665
31
0.0000000000
11
7.4814674606
21
23.0389570045
31
0.0000000000
11
7.2833472868
21
22.9710990397
31
0.0000000000
11
7.1119057089
21
22.8622249249
31
0.0000000000
11
7.0029619051
21
22.7041215904
31
0.0000000000
11
6.9324495982
21
22.5296383199
31
0.0000000000
11
6.8420360195
21
22.3625127637
31
0.0000000000
11
6.6896315952
21
22.2341270052
31
0.0000000000
0
SPLINE
5
34C
100
AcDbEntity
8
0
100
AcDbSpline
62
7
6
CONTINUOUS
70
0
71
3
72
11
73
7
74
5
42
0.0000001000
43
0.0000001000
44
0.0000000001
12
-0.0651335509
22
-0.9359641204
32
0.0000000000
13
1.0649214339
23
-0.1715241139
33
0.0000000000
40
0.0000000000
40
0.0000000000
40
0.0000000000
40
0.0000000000
40
0.0008175645
40
0.0398333638
40
0.5818443032
40
1.0000000000
40
1.0000000000
40
1.0000000000
40
1.0000000000
10
6.1475761672
20
19.9048371579
30
0.0000000000
10
6.1475584169
20
19.9045820876
30
0.0000000000
10
6.1467023660
20
19.8921541503
30
0.0000000000
10
6.1404484319
20
19.7103380662
30
0.0000000000
10
6.2896450054
20
19.3981111755
30
0.0000000000
10
6.6126066526
20
19.2537514375
30
0.0000000000
10
6.7610409741
20
19.2298435090
30
0.0000000000
11
6.1475761672
21
19.9048371579
31
0.0000000000
11
6.1475234569
21
19.9040719222
31
0.0000000000
11
6.1462742184
21
19.8675151773
31
0.0000000000
11
6.3653667113
21
19.4090155870
31
0.0000000000
11
6.7610409741
21
19.2298435090
31
0.0000000000
0
SPLINE
5
34D
100
AcDbEntity
8
0
100
AcDbSpline
62
7
6
CONTINUOUS
70
0
71
3
72
8
73
4
74
2
42
0.0000001000
43
0.0000001000
44
0.0000000001
12
-0.0106775273
22
-0.1514119508
32
0.0000000000
13
-0.0164541607
23
-0.1510151401
33
0.0000000000
40
0.0000000000
40
0.0000000000
40
0.0000000000
40
0.0000000000
40
1.0000000000
40
1.0000000000
40
1.0000000000
40
1.0000000000
10
48.1943521034
20
21.9739514723
30
0.0000000000
10
48.1907929276
20
21.9234808221
30
0.0000000000
10
48.1862714661
20
21.8730540906
30
0.0000000000
10
48.1807867459
20
21.8227157105
30
0.0000000000
11
48.1943521034
21
21.9739514723
31
0.0000000000
11
48.1807867459
21
21.8227157105
31
0.0000000000
0
SPLINE
5
34E
100
AcDbEntity
8
0
100
AcDbSpline
62
7
6
CONTINUOUS
70
0
71
3
72
8
73
4
74
2
42
0.0000001000
43
0.0000001000
44
0.0000000001
12
-0.0153927330
22
-0.1412734309
32
0.0000000000
13
-0.0204530683
23
-0.1407003790
33
0.0000000000
40
0.0000000000
40
0.0000000000
40
0.0000000000
40
0.0000000000
40
1.0000000000
40
1.0000000000
40
1.0000000000
40
1.0000000000
10
48.1807867459
20
21.8227157105
30
0.0000000000
10
48.1756558349
20
21.7756245669
30
0.0000000000
10
48.1696819329
20
21.7286107436
30
0.0000000000
10
48.1628642435
20
21.6817106173
30
0.0000000000
11
48.1807867459
21
21.8227157105
31
0.0000000000
11
48.1628642435
21
21.6817106173
31
0.0000000000
0
SPLINE
5
34F
100
AcDbEntity
8
0
100
AcDbSpline
62
7
6
CONTINUOUS
70
0
71
3
72
8
73
4
74
2
42
0.0000001000
43
0.0000001000
44
0.0000000001
12
-0.0301989712
22
-0.2077442190
32
0.0000000000
13
-0.0412436783
23
-0.2059057526
33
0.0000000000
40
0.0000000000
40
0.0000000000
40
0.0000000000
40
0.0000000000
40
1.0000000000
40
1.0000000000
40
1.0000000000
40
1.0000000000
10
48.1628642435
20
21.6817106173
30
0.0000000000
10
48.1527979197
20
21.6124625443
30
0.0000000000
10
48.1408920933
20
21.5434623369
30
0.0000000000
10
48.1271442006
20
21.4748270860
30
0.0000000000
11
48.1628642435
21
21.6817106173
31
0.0000000000
11
48.1271442006
21
21.4748270860
31
0.0000000000
0
SPLINE
5
350
100
AcDbEntity
8
0
100
AcDbSpline
62
7
6
CONTINUOUS
70
0
71
3
72
8
73
4
74
2
42
0.0000001000
43
0.0000001000
44
0.0000000001
12
-0.0176078604
22
-0.0879058293
32
0.0000000000
13
-0.0196229016
23
-0.0874793877
33
0.0000000000
40
0.0000000000
40
0.0000000000
40
0.0000000000
40
0.0000000000
40
1.0000000000
40
1.0000000000
40
1.0000000000
40
1.0000000000
10
48.1271442006
20
21.4748270860
30
0.0000000000
10
48.1212749138
20
21.4455251429
30
0.0000000000
10
48.1150698865
20
21.4162897178
30
0.0000000000
10
48.1085289193
20
21.3871299219
30
0.0000000000
11
48.1271442006
21
21.4748270860
31
0.0000000000
11
48.1085289193
21
21.3871299219
31
0.0000000000
0
SPLINE
5
351
100
AcDbEntity
8
0
100
AcDbSpline
62
7
6
CONTINUOUS
70
0
71
3
72
9
73
5
74
3
42
0.0000001000
43
0.0000001000
44
0.0000000001
12
-0.0558599062
22
-0.2490248634
32
0.0000000000
13
-0.0722055444
23
-0.2447188366
33
0.0000000000
40
0.0000000000
40
0.0000000000
40
0.0000000000
40
0.0000000000
40
0.5480829547
40
1.0000000000
40
1.0000000000
40
1.0000000000
40
1.0000000000
10
48.1085289193
20
21.3871299219
30
0.0000000000
10
48.0983236318
20
21.3416344943
30
0.0000000000
10
48.0782116182
20
21.2589621061
30
0.0000000000
10
48.0553747849
20
21.1770177744
30
0.0000000000
10
48.0444978128
20
21.1401535699
30
0.0000000000
11
48.1085289193
21
21.3871299219
31
0.0000000000
11
48.0754590061
21
21.2512305452
31
0.0000000000
11
48.0444978128
21
21.1401535699
31
0.0000000000
0
SPLINE
5
352
100
AcDbEntity
8
0
100
AcDbSpline
62
7
6
CONTINUOUS
70
0
71
3
72
8
73
4
74
2
42
0.0000001000
43
0.0000001000
44
0.0000000001
12
-0.0087297824
22
-0.0295869549
32
0.0000000000
13
-0.0089688222
23
-0.0295137802
33
0.0000000000
40
0.0000000000
40
0.0000000000
40
0.0000000000
40
0.0000000000
40
1.0000000000
40
1.0000000000
40
1.0000000000
40
1.0000000000
10
48.0444978128
20
21.1401535699
30
0.0000000000
10
48.0415878853
20
21.1302912516
30
0.0000000000
10
48.0386381192
20
21.1204409457
30
0.0000000000
10
48.0356485117
20
21.1106030190
30
0.0000000000
11
48.0444978128
21
21.1401535699
31
0.0000000000
11
48.0356485117
21
21.1106030190
31
0.0000000000
0
SPLINE
5
353
100
AcDbEntity
8
0
100
AcDbSpline
62
7
6
CONTINUOUS
70
0
71
3
72
17
73
13
74
11
42
0.0000001000
43
0.0000001000
44
0.0000000001
12
-2.1714464990
22
-7.1455976100
32
0.0000000000
13
-2.1668865805
23
7.1470559771
33
0.0000000000
40
0.0000000000
40
0.0000000000
40
0.0000000000
40
0.0000000000
40
0.1013702783
40
0.2132045506
40
0.3152614863
40
0.4095550155
40
0.4997794476
40
0.5900189971
40
0.6843248827
40
0.7863672940
40
0.8981632420
40
1.0000000000
40
1.0000000000
40
1.0000000000
40
1.0000000000
10
48.0356485117
20
21.1106030190
30
0.0000000000
10
47.9622751331
20
20.8691526130
30
0.0000000000
10
47.7574804311
20
20.3770107477
30
0.0000000000
10
47.2974386674
20
19.7335128261
30
0.0000000000
10
46.7011840756
20
19.2401051365
30
0.0000000000
10
46.0437447000
20
18.9457704754
30
0.0000000000
10
45.3596401629
20
18.8482581207
30
0.0000000000
10
44.6754706845
20
18.9455594873
30
0.0000000000
10
44.0179192493
20
19.2397317638
30
0.0000000000
10
43.4216214550
20
19.7329265849
30
0.0000000000
10
42.9608015573
20
20.3771413354
30
0.0000000000
10
42.7556941283
20
20.8703383009
30
0.0000000000
10
42.6821378935
20
21.1129493043
30
0.0000000000
11
48.0356485117
21
21.1106030190
31
0.0000000000
11
47.7434963500
21
20.4140409553
31
0.0000000000
11
47.2553676357
21
19.7392923512
31
0.0000000000
11
46.6670994044
21
19.2581208196
31
0.0000000000
11
46.0249785783
21
18.9739809045
31
0.0000000000
11
45.3596721927
21
18.8802463972
31
0.0000000000
11
44.6942248538
21
18.9737871429
31
0.0000000000
11
44.0519440702
21
19.2577929033
31
0.0000000000
11
43.4636417004
21
19.7387518283
31
0.0000000000
11
42.9754974604
21
20.4131369226
31
0.0000000000
11
42.6821378935
21
21.1129493043
31
0.0000000000
0
SPLINE
5
354
100
AcDbEntity
8
0
100
AcDbSpline
62
7
6
CONTINUOUS
70
0
71
3
72
8
73
4
74
2
42
0.0000001000
43
0.0000001000
44
0.0000000001
12
-0.0088946198
22
0.0293371819
32
0.0000000000
13
-0.0086585596
23
0.0294092969
33
0.0000000000
40
0.0000000000
40
0.0000000000
40
0.0000000000
40
0.0000000000
40
1.0000000000
40
1.0000000000
40
1.0000000000
40
1.0000000000
10
42.6821378935
20
21.1129493043
30
0.0000000000
10
42.6791730202
20
21.1227283649
30
0.0000000000
10
42.6762474917
20
21.1325196246
30
0.0000000000
10
42.6733613051
20
21.1423227236
30
0.0000000000
11
42.6821378935
21
21.1129493043
31
0.0000000000
11
42.6733613051
21
21.1423227236
31
0.0000000000
0
SPLINE
5
355
100
AcDbEntity
8
0
100
AcDbSpline
62
7
6
CONTINUOUS
70
0
71
3
72
9
73
5
74
3
42
0.0000001000
43
0.0000001000
44
0.0000000001
12
-0.0715874764
22
0.2431509920
32
0.0000000000
13
-0.0554585240
23
0.2473940514
33
0.0000000000
40
0.0000000000
40
0.0000000000
40
0.0000000000
40
0.0000000000
40
0.4414255174
40
1.0000000000
40
1.0000000000
40
1.0000000000
40
1.0000000000
10
42.6733613051
20
21.1423227236
30
0.0000000000
10
42.6628277922
20
21.1781004078
30
0.0000000000
10
42.6401524267
20
21.2595079815
30
0.0000000000
10
42.6201656927
20
21.3416350724
30
0.0000000000
10
42.6098397873
20
21.3876977405
30
0.0000000000
11
42.6733613051
21
21.1423227236
31
0.0000000000
11
42.6433327196
21
21.2501113711
31
0.0000000000
11
42.6098397873
21
21.3876977405
31
0.0000000000
0
SPLINE
5
356
100
AcDbEntity
8
0
100
AcDbSpline
62
7
6
CONTINUOUS
70
0
71
3
72
8
73
4
74
2
42
0.0000001000
43
0.0000001000
44
0.0000000001
12
-0.0197807825
22
0.0882397792
32
0.0000000000
13
-0.0177307586
23
0.0886730526
33
0.0000000000
40
0.0000000000
40
0.0000000000
40
0.0000000000
40
0.0000000000
40
1.0000000000
40
1.0000000000
40
1.0000000000
40
1.0000000000
10
42.6098397873
20
21.3876977405
30
0.0000000000
10
42.6032461931
20
21.4171110002
30
0.0000000000
10
42.5969943599
20
21.4466011487
30
0.0000000000
10
42.5910841070
20
21.4761588329
30
0.0000000000
11
42.6098397873
21
21.3876977405
31
0.0000000000
11
42.5910841070
21
21.4761588329
31
0.0000000000
0
SPLINE
5
357
100
AcDbEntity
8
0
100
AcDbSpline
62
7
6
CONTINUOUS
70
0
71
3
72
8
73
4
74
2
42
0.0000001000
43
0.0000001000
44
0.0000000001
12
-0.0407484710
22
0.2037866175
32
0.0000000000
13
-0.0299304389
23
0.2055862288
33
0.0000000000
40
0.0000000000
40
0.0000000000
40
0.0000000000
40
0.0000000000
40
1.0000000000
40
1.0000000000
40
1.0000000000
40
1.0000000000
10
42.5910841070
20
21.4761588329
30
0.0000000000
10
42.5775012833
20
21.5440877054
30
0.0000000000
10
42.5657225609
20
21.6123732768
30
0.0000000000
10
42.5557457479
20
21.6809020197
30
0.0000000000
11
42.5910841070
21
21.4761588329
31
0.0000000000
11
42.5557457479
21
21.6809020197
31
0.0000000000
0
SPLINE
5
358
100
AcDbEntity
8
0
100
AcDbSpline
62
7
6
CONTINUOUS
70
0
71
3
72
8
73
4
74
2
42
0.0000001000
43
0.0000001000
44
0.0000000001
12
-0.0207491013
22
0.1425214479
32
0.0000000000
13
-0.0155554415
23
0.1431091691
33
0.0000000000
40
0.0000000000
40
0.0000000000
40
0.0000000000
40
0.0000000000
40
1.0000000000
40
1.0000000000
40
1.0000000000
40
1.0000000000
10
42.5557457479
20
21.6809020197
30
0.0000000000
10
42.5488293808
20
21.7284091690
30
0.0000000000
10
42.5427789888
20
21.7760331835
30
0.0000000000
10
42.5375938416
20
21.8237362399
30
0.0000000000
11
42.5557457479
21
21.6809020197
31
0.0000000000
11
42.5375938416
21
21.8237362399
31
0.0000000000
0
SPLINE
5
359
100
AcDbEntity
8
0
100
AcDbSpline
62
7
6
CONTINUOUS
70
0
71
3
72
8
73
4
74
2
42
0.0000001000
43
0.0000001000
44
0.0000000001
12
-0.0162929742
22
0.1498944273
32
0.0000000000
13
-0.0106000638
23
0.1502843293
33
0.0000000000
40
0.0000000000
40
0.0000000000
40
0.0000000000
40
0.0000000000
40
1.0000000000
40
1.0000000000
40
1.0000000000
40
1.0000000000
10
42.5375938416
20
21.8237362399
30
0.0000000000
10
42.5321628502
20
21.8737010490
30
0.0000000000
10
42.5276810967
20
21.9237525729
30
0.0000000000
10
42.5241477421
20
21.9738473494
30
0.0000000000
11
42.5375938416
21
21.8237362399
31
0.0000000000
11
42.5241477421
21
21.9738473494
31
0.0000000000
0
SPLINE
5
35A
100
AcDbEntity
8
0
100
AcDbSpline
62
7
6
CONTINUOUS
70
0
71
3
72
13
73
9
74
7
42
0.0000001000
43
0.0000001000
44
0.0000000001
12
-1.5635801704
22
0.0002279236
32
0.0000000000
13
-0.5730696808
23
-1.4574448530
33
0.0000000000
40
0.0000000000
40
0.0000000000
40
0.0000000000
40
0.0000000000
40
0.2491871703
40
0.4593979029
40
0.6329389314
40
0.7855846072
40
0.9422106339
40
1.0000000000
40
1.0000000000
40
1.0000000000
40
1.0000000000
10
-2.4218540479
20
51.2702565768
30
0.0000000000
10
-2.5517287539
20
51.2702755087
30
0.0000000000
10
-2.7912587091
20
51.2642931836
30
0.0000000000
10
-3.1192535230
20
51.2210773855
30
0.0000000000
10
-3.3872863526
20
51.1330327691
30
0.0000000000
10
-3.5972270419
20
50.9860700207
30
0.0000000000
10
-3.7077312436
20
50.8255143947
30
0.0000000000
10
-3.7531157195
20
50.7231058028
30
0.0000000000
10
-3.7641548307
20
50.6950308647
30
0.0000000000
11
-2.4218540479
21
51.2702565768
31
0.0000000000
11
-2.8111497722
21
51.2563169988
31
0.0000000000
11
-3.1361237177
21
51.2075351838
31
0.0000000000
11
-3.3917388934
21
51.1166540289
31
0.0000000000
11
-3.5854174286
21
50.9772598113
31
0.0000000000
11
-3.7272594052
21
50.7776819779
31
0.0000000000
11
-3.7641548307
21
50.6950308647
31
0.0000000000
0
SPLINE
5
35B
100
AcDbEntity
8
0
100
AcDbSpline
62
7
6
CONTINUOUS
70
0
71
3
72
8
73
4
74
2
42
0.0000001000
43
0.0000001000
44
0.0000000001
12
-0.0740524538
22
-0.1883320148
32
0.0000000000
13
-0.0449481245
23
-0.1974262305
33
0.0000000000
40
0.0000000000
40
0.0000000000
40
0.0000000000
40
0.0000000000
40
1.0000000000
40
1.0000000000
40
1.0000000000
40
1.0000000000
10
-3.7641548307
20
50.6950308647
30
0.0000000000
10
-3.7888389820
20
50.6322535265
30
0.0000000000
10
-3.8075584575
20
50.5671076354
30
0.0000000000
10
-3.8225411657
20
50.5012988919
30
0.0000000000
11
-3.7641548307
21
50.6950308647
31
0.0000000000
11
-3.8225411657
21
50.5012988919
31
0.0000000000
0
SPLINE
5
35C
100
AcDbEntity
8
0
100
AcDbSpline
62
7
6
CONTINUOUS
70
0
71
3
72
8
73
4
74
2
42
0.0000001000
43
0.0000001000
44
0.0000000001
12
-0.0450570622
22
-0.1979047191
32
0.0000000000
13
-0.0260457005
23
-0.2009542264
33
0.0000000000
40
0.0000000000
40
0.0000000000
40
0.0000000000
40
0.0000000000
40
1.0000000000
40
1.0000000000
40
1.0000000000
40
1.0000000000
10
-3.8225411657
20
50.5012988919
30
0.0000000000
10
-3.8375601864
20
50.4353306522
30
0.0000000000
10
-3.8488243048
20
50.3686963432
30
0.0000000000
10
-3.8575062050
20
50.3017116011
30
0.0000000000
11
-3.8225411657
21
50.5012988919
31
0.0000000000
11
-3.8575062050
21
50.3017116011
31
0.0000000000
0
SPLINE
5
35D
100
AcDbEntity
8
0
100
AcDbSpline
62
7
6
CONTINUOUS
70
0
71
3
72
19
73
15
74
13
42
0.0000001000
43
0.0000001000
44
0.0000000001
12
7.2050172542
22
0.0050625431
32
0.0000000000
13
7.2061477223
23
0.0016293233
33
0.0000000000
40
0.0000000000
40
0.0000000000
40
0.0000000000
40
0.0000000000
40
0.0386058317
40
0.1018789977
40
0.1889450757
40
0.3025609848
40
0.4357585689
40
0.5719244125
40
0.6998855704
40
0.8070937806
40
0.8893833122
40
0.9505406773
40
0.9946218746
40
1.0000000000
40
1.0000000000
40
1.0000000000
40
1.0000000000
10
-3.2310755071
20
53.2702661642
30
0.0000000000
10
-3.1383569458
20
53.2703313121
30
0.0000000000
10
-2.8938577215
20
53.2587636318
30
0.0000000000
10
-2.4423546186
20
53.2144409611
30
0.0000000000
10
-1.8127022288
20
53.1431863948
30
0.0000000000
10
-1.0146748358
20
53.0667560378
30
0.0000000000
10
-0.0961336849
20
53.0177491901
30
0.0000000000
10
0.8582585373
20
53.0193064383
30
0.0000000000
10
1.7487393141
20
53.0685419694
30
0.0000000000
10
2.5075372564
20
53.1408875543
30
0.0000000000
10
3.1055205383
20
53.2080943758
30
0.0000000000
10
3.5534519409
20
53.2536826964
30
0.0000000000
10
3.8186925231
20
53.2694305797
30
0.0000000000
10
3.9374946908
20
53.2702721624
30
0.0000000000
10
3.9504132129
20
53.2702750833
30
0.0000000000
11
-3.2310755071
21
53.2702661642
31
0.0000000000
11
-2.9532074714
21
53.2597937759
31
0.0000000000
11
-2.4993206039
21
53.2190804043
31
0.0000000000
11
-1.8758575446
21
53.1519034990
31
0.0000000000
11
-1.0610471201
21
53.0765185741
31
0.0000000000
11
-0.1030131976
21
53.0268153743
31
0.0000000000
11
0.8776860843
21
53.0283710310
31
0.0000000000
11
1.7979609863
21
53.0779289707
31
0.0000000000
11
2.5668229646
21
53.1490066389
31
0.0000000000
11
3.1560733774
21
53.2125791745
31
0.0000000000
11
3.5945681194
21
53.2542537045
31
0.0000000000
11
3.9116604321
21
53.2700158328
31
0.0000000000
11
3.9504132129
21
53.2702750833
31
0.0000000000
0
SPLINE
5
35E
100
AcDbEntity
8
0
100
AcDbSpline
62
7
6
CONTINUOUS
70
0
71
3
72
14
73
10
74
8
42
0.0000001000
43
0.0000001000
44
0.0000000001
12
-4.7140956384
22
0.0007823604
32
0.0000000000
13
-0.2825652243
23
4.7154121358
33
0.0000000000
40
0.0000000000
40
0.0000000000
40
0.0000000000
40
0.0000000000
40
0.1347134348
40
0.2759071634
40
0.4263164445
40
0.5899756257
40
0.7670201072
40
0.9546547688
40
1.0000000000
40
1.0000000000
40
1.0000000000
40
1.0000000000
10
-7.3907512209
20
36.1388030838
30
0.0000000000
10
-7.6024352260
20
36.1388382153
30
0.0000000000
10
-8.0379944504
20
36.1962236411
30
0.0000000000
10
-8.6635140629
20
36.4553442113
30
0.0000000000
10
-9.2405440795
20
36.8906576428
30
0.0000000000
10
-9.7310209780
20
37.4959158762
30
0.0000000000
10
-10.0936606853
20
38.2508563954
30
0.0000000000
10
-10.2369459653
20
38.8845607776
30
0.0000000000
10
-10.2685806552
20
39.2501860970
30
0.0000000000
10
-10.2728516503
20
39.3214599149
30
0.0000000000
11
-7.3907512209
21
36.1388030838
31
0.0000000000
11
-8.0204385082
21
36.2211741565
31
0.0000000000
11
-8.6363330145
21
36.4735594066
31
0.0000000000
11
-9.2043907797
21
36.8978864133
31
0.0000000000
11
-9.6930995038
21
37.4948653194
31
0.0000000000
11
-10.0574328165
21
38.2457488824
31
0.0000000000
11
-10.2543806482
21
39.1080718472
31
0.0000000000
11
-10.2728516503
21
39.3214599149
31
0.0000000000
0
SPLINE
5
35F
100
AcDbEntity
8
0
100
AcDbSpline
62
7
6
CONTINUOUS
70
0
71
3
72
14
73
10
74
8
42
0.0000001000
43
0.0000001000
44
0.0000000001
12
5.1943199163
22
-0.0006521507
32
0.0000000000
13
-0.3094928856
23
-5.1959050728
33
0.0000000000
40
0.0000000000
40
0.0000000000
40
0.0000000000
40
0.0000000000
40
0.1210809163
40
0.2494461528
40
0.3861219287
40
0.5350353943
40
0.6958140952
40
0.8663236308
40
1.0000000000
40
1.0000000000
40
1.0000000000
40
1.0000000000
10
-7.3907512209
20
42.9855580364
30
0.0000000000
10
-7.1811068826
20
42.9855317154
30
0.0000000000
10
-6.7472590332
20
42.9290377667
30
0.0000000000
10
-6.1222326838
20
42.6721901641
30
0.0000000000
10
-5.5431032676
20
42.2373363164
30
0.0000000000
10
-5.0510524522
20
41.6317721404
30
0.0000000000
10
-4.6875442460
20
40.8758332716
30
0.0000000000
10
-4.5086773258
20
40.0839341104
30
0.0000000000
10
-4.4947738780
20
39.5544303246
30
0.0000000000
10
-4.5085645064
20
39.3229070831
30
0.0000000000
11
-7.3907512209
21
42.9855580364
31
0.0000000000
11
-6.7670113144
21
42.9049027674
31
0.0000000000
11
-6.1493446330
21
42.6537648563
31
0.0000000000
11
-5.5796292975
21
42.2301660022
31
0.0000000000
11
-5.0888606895
21
41.6322906815
31
0.0000000000
11
-4.7239603622
21
40.8810916965
31
0.0000000000
11
-4.5269072691
21
40.0176097566
31
0.0000000000
11
-4.5085645064
21
39.3229070831
31
0.0000000000
0
SPLINE
5
360
100
AcDbEntity
8
0
100
AcDbSpline
62
7
6
CONTINUOUS
70
0
71
3
72
14
73
10
74
8
42
0.0000001000
43
0.0000001000
44
0.0000000001
12
-4.7140956384
22
0.0007823604
32
0.0000000000
13
-0.2825652243
23
4.7154121358
33
0.0000000000
40
0.0000000000
40
0.0000000000
40
0.0000000000
40
0.0000000000
40
0.1347134348
40
0.2759071634
40
0.4263164445
40
0.5899756257
40
0.7670201072
40
0.9546547688
40
1.0000000000
40
1.0000000000
40
1.0000000000
40
1.0000000000
10
8.1092487791
20
36.1388030838
30
0.0000000000
10
7.8975647740
20
36.1388382153
30
0.0000000000
10
7.4620055496
20
36.1962236411
30
0.0000000000
10
6.8364859371
20
36.4553442113
30
0.0000000000
10
6.2594559205
20
36.8906576428
30
0.0000000000
10
5.7689790220
20
37.4959158762
30
0.0000000000
10
5.4063393147
20
38.2508563954
30
0.0000000000
10
5.2630540347
20
38.8845607776
30
0.0000000000
10
5.2314193448
20
39.2501860970
30
0.0000000000
10
5.2271483497
20
39.3214599149
30
0.0000000000
11
8.1092487791
21
36.1388030838
31
0.0000000000
11
7.4795614918
21
36.2211741565
31
0.0000000000
11
6.8636669855
21
36.4735594066
31
0.0000000000
11
6.2956092203
21
36.8978864133
31
0.0000000000
11
5.8069004962
21
37.4948653194
31
0.0000000000
11
5.4425671835
21
38.2457488824
31
0.0000000000
11
5.2456193518
21
39.1080718472
31
0.0000000000
11
5.2271483497
21
39.3214599149
31
0.0000000000
0
SPLINE
5
361
100
AcDbEntity
8
0
100
AcDbSpline
62
7
6
CONTINUOUS
70
0
71
3
72
14
73
10
74
8
42
0.0000001000
43
0.0000001000
44
0.0000000001
12
5.1943199163
22
-0.0006521507
32
0.0000000000
13
-0.3094928856
23
-5.1959050728
33
0.0000000000
40
0.0000000000
40
0.0000000000
40
0.0000000000
40
0.0000000000
40
0.1210809163
40
0.2494461528
40
0.3861219287
40
0.5350353943
40
0.6958140952
40
0.8663236308
40
1.0000000000
40
1.0000000000
40
1.0000000000
40
1.0000000000
10
8.1092487791
20
42.9855580364
30
0.0000000000
10
8.3188931174
20
42.9855317154
30
0.0000000000
10
8.7527409668
20
42.9290377667
30
0.0000000000
10
9.3777673162
20
42.6721901641
30
0.0000000000
10
9.9568967324
20
42.2373363164
30
0.0000000000
10
10.4489475478
20
41.6317721404
30
0.0000000000
10
10.8124557540
20
40.8758332716
30
0.0000000000
10
10.9913226742
20
40.0839341104
30
0.0000000000
10
11.0052261220
20
39.5544303246
30
0.0000000000
10
10.9914354936
20
39.3229070831
30
0.0000000000
11
8.1092487791
21
42.9855580364
31
0.0000000000
11
8.7329886856
21
42.9049027674
31
0.0000000000
11
9.3506553670
21
42.6537648563
31
0.0000000000
11
9.9203707025
21
42.2301660022
31
0.0000000000
11
10.4111393105
21
41.6322906815
31
0.0000000000
11
10.7760396378
21
40.8810916965
31
0.0000000000
11
10.9730927309
21
40.0176097566
31
0.0000000000
11
10.9914354936
21
39.3229070831
31
0.0000000000
0
SPLINE
5
362
100
AcDbEntity
8
0
100
AcDbSpline
62
7
6
CONTINUOUS
70
0
71
3
72
11
73
7
74
5
42
0.0000001000
43
0.0000001000
44
0.0000000001
12
0.7863923371
22
0.0000000000
32
0.0000000000
13
0.0000000000
23
0.7863923371
33
0.0000000000
40
0.0000000000
40
0.0000000000
40
0.0000000000
40
0.0000000000
40
0.2468613507
40
0.4961518527
40
0.7468722656
40
1.0000000000
40
1.0000000000
40
1.0000000000
40
1.0000000000
10
58.3092487791
20
-55.5297433857
30
0.0000000000
10
58.3739587373
20
-55.5297433857
30
0.0000000000
10
58.5054487565
20
-55.5034096023
30
0.0000000000
10
58.6716039288
20
-55.3906893394
30
0.0000000000
10
58.7831452099
20
-55.2218916157
30
0.0000000000
10
58.8092487791
20
-55.0883826500
30
0.0000000000
10
58.8092487791
20
-55.0220300798
30
0.0000000000
11
58.3092487791
21
-55.5297433857
31
0.0000000000
11
58.4995785109
21
-55.4915203381
31
0.0000000000
11
58.6620429502
21
-55.3818068810
31
0.0000000000
11
58.7707749814
21
-55.2173343015
31
0.0000000000
11
58.8092487791
21
-55.0220300798
31
0.0000000000
0
SPLINE
5
363
100
AcDbEntity
8
0
100
AcDbSpline
62
7
6
CONTINUOUS
70
0
71
3
72
10
73
6
74
4
42
0.0000001000
43
0.0000001000
44
0.0000000001
12
-0.3627875514
22
0.0000000000
32
0.0000000000
13
0.0000000000
23
-0.3627875514
33
0.0000000000
40
0.0000000000
40
0.0000000000
40
0.0000000000
40
0.0000000000
40
0.3536274693
40
0.6874141306
40
1.0000000000
40
1.0000000000
40
1.0000000000
40
1.0000000000
10
-57.8407512209
20
29.3351275642
30
0.0000000000
10
-57.8835151021
20
29.3351275642
30
0.0000000000
10
-57.9679648938
20
29.3163089853
30
0.0000000000
10
-58.0650785169
20
29.2359046125
30
0.0000000000
10
-58.0907512209
20
29.1562899971
30
0.0000000000
10
-58.0907512209
20
29.1184892431
30
0.0000000000
11
-57.8407512209
21
29.3351275642
31
0.0000000000
11
-57.9657202222
21
29.3061190388
31
0.0000000000
11
-58.0572442911
21
29.2268283344
31
0.0000000000
11
-58.0907512209
21
29.1184892431
31
0.0000000000
0
SPLINE
5
364
100
AcDbEntity
8
0
100
AcDbSpline
62
7
6
CONTINUOUS
70
0
71
3
72
9
73
5
74
3
42
0.0000001000
43
0.0000001000
44
0.0000000001
12
0.1018492024
22
0.2078710984
32
0.0000000000
13
0.1106893347
23
0.1997284688
33
0.0000000000
40
0.0000000000
40
0.0000000000
40
0.0000000000
40
0.0000000000
40
0.1552468315
40
1.0000000000
40
1.0000000000
40
1.0000000000
40
1.0000000000
10
1.7382295973
20
19.3706024416
30
0.0000000000
10
1.7435001859
20
19.3813595514
30
0.0000000000
10
1.7726624948
20
19.4534285050
30
0.0000000000
10
1.7755921996
20
19.5326076303
30
0.0000000000
10
1.8067605883
20
19.5888480492
30
0.0000000000
11
1.7382295973
21
19.3706024416
31
0.0000000000
11
1.7519226509
21
19.4039078712
31
0.0000000000
11
1.8067605883
21
19.5888480492
31
0.0000000000
0
SPLINE
5
365
100
AcDbEntity
8
0
100
AcDbSpline
62
7
6
CONTINUOUS
70
0
71
3
72
14
73
10
74
8
42
0.0000001000
43
0.0000001000
44
0.0000000001
12
0.9210275170
22
0.0002082460
32
0.0000000000
13
-0.0000000000
23
-0.9205294085
33
0.0000000000
40
0.0000000000
40
0.0000000000
40
0.0000000000
40
0.0000000000
40
0.2075714426
40
0.3913116971
40
0.5309328695
40
0.6459827068
40
0.7543268456
40
0.8696565543
40
1.0000000000
40
1.0000000000
40
1.0000000000
40
1.0000000000
10
3.9504132129
20
53.2702750833
30
0.0000000000
10
4.0141395497
20
53.2702894920
30
0.0000000000
10
4.1342836156
20
53.2662526042
30
0.0000000000
10
4.2959978021
20
53.2415320789
30
0.0000000000
10
4.4234746130
20
53.1946735504
30
0.0000000000
10
4.5144318024
20
53.1271376185
30
0.0000000000
10
4.5733712470
20
53.0392135679
30
0.0000000000
10
4.6042110191
20
52.9337724922
30
0.0000000000
10
4.6092487791
20
52.8581212048
30
0.0000000000
10
4.6092487791
20
52.8181262131
30
0.0000000000
11
3.9504132129
21
53.2702750833
31
0.0000000000
11
4.1413313753
21
53.2620160323
31
0.0000000000
11
4.3079934530
21
53.2331799609
31
0.0000000000
11
4.4275413294
21
53.1859879862
31
0.0000000000
11
4.5115759248
21
53.1215331313
31
0.0000000000
11
4.5675956807
21
53.0390185816
31
0.0000000000
11
4.5992969165
21
52.9376977592
31
0.0000000000
11
4.6092487791
21
52.8181262131
31
0.0000000000
0
SPLINE
5
366
100
AcDbEntity
8
0
100
AcDbSpline
62
7
6
CONTINUOUS
70
0
71
3
72
11
73
7
74
5
42
0.0000001000
43
0.0000001000
44
0.0000000001
12
-1.2675678588
22
2.9089306219
32
0.0000000000
13
-3.1586563043
23
-0.0000000000
33
0.0000000000
40
0.0000000000
40
0.0000000000
40
0.0000000000
40
0.0000000000
40
0.2083645880
40
0.4631630397
40
0.7284435110
40
1.0000000000
40
1.0000000000
40
1.0000000000
40
1.0000000000
10
-4.8176392522
20
38.0011631561
30
0.0000000000
10
-4.9056780038
20
38.2032025329
30
0.0000000000
10
-5.1694988907
20
38.6224347161
30
0.0000000000
10
-5.7624194583
20
39.1283298465
30
0.0000000000
10
-6.5364884854
20
39.4655821613
30
0.0000000000
10
-7.1048333489
20
39.5423763021
30
0.0000000000
10
-7.3907512209
20
39.5423763021
30
0.0000000000
11
-4.8176392522
21
38.0011631561
31
0.0000000000
11
-5.1659544864
21
38.5606580829
31
0.0000000000
11
-5.7743417771
21
39.0875369320
31
0.0000000000
11
-6.5409544864
21
39.4258139764
31
0.0000000000
11
-7.3907512209
21
39.5423763021
31
0.0000000000
0
SPLINE
5
367
100
AcDbEntity
8
0
100
AcDbSpline
62
7
6
CONTINUOUS
70
0
71
3
72
11
73
7
74
5
42
0.0000001000
43
0.0000001000
44
0.0000000001
12
1.2768562295
22
2.8939036353
32
0.0000000000
13
3.1486988232
23
-0.0000000000
33
0.0000000000
40
0.0000000000
40
0.0000000000
40
0.0000000000
40
0.0000000000
40
0.2058611111
40
0.4614653404
40
0.7275847376
40
1.0000000000
40
1.0000000000
40
1.0000000000
40
1.0000000000
10
-9.9598462367
20
38.0103241416
30
0.0000000000
10
-9.8722278893
20
38.2089048809
30
0.0000000000
10
-9.6094376036
20
38.6246240487
30
0.0000000000
10
-9.0190829835
20
39.1283298465
30
0.0000000000
10
-8.2450139564
20
39.4655821613
30
0.0000000000
10
-7.6766690929
20
39.5423763021
30
0.0000000000
10
-7.3907512209
20
39.5423763021
30
0.0000000000
11
-9.9598462367
21
38.0103241416
31
0.0000000000
11
-9.6155479554
21
38.5606580829
31
0.0000000000
11
-9.0071606647
21
39.0875369320
31
0.0000000000
11
-8.2405479554
21
39.4258139764
31
0.0000000000
11
-7.3907512209
21
39.5423763021
31
0.0000000000
0
SPLINE
5
368
100
AcDbEntity
8
0
100
AcDbSpline
62
9
6
CONTINUOUS
70
0
71
3
72
20
73
16
74
14
42
0.0000001000
43
0.0000001000
44
0.0000000001
12
-10.7826910445
22
0.0022385701
32
0.0000000000
13
10.7826910664
23
-0.0021307845
33
0.0000000000
40
0.0000000000
40
0.0000000000
40
0.0000000000
40
0.0000000000
40
0.0648271769
40
0.1328419042
40
0.2048901771
40
0.2827978178
40
0.3666244163
40
0.4551310527
40
0.5452156650
40
0.6335989868
40
0.7172676859
40
0.7951556717
40
0.8671522008
40
0.9349991160
40
1.0000000000
40
1.0000000000
40
1.0000000000
40
1.0000000000
10
-7.3907512209
20
35.8746588838
30
0.0000000000
10
-7.6237550275
20
35.8747072572
30
0.0000000000
10
-8.1033186666
20
35.9359742337
30
0.0000000000
10
-8.7935789018
20
36.2136987274
30
0.0000000000
10
-9.4317128812
20
36.6819132977
30
0.0000000000
10
-9.9743625283
20
37.3340366002
30
0.0000000000
10
-10.3753604142
20
38.1482998439
30
0.0000000000
10
-10.5894131397
20
39.0754351068
30
0.0000000000
10
-10.5889942314
20
40.0433288807
30
0.0000000000
10
-10.3744931959
20
40.9692928751
30
0.0000000000
10
-9.9736589877
20
41.7823878845
30
0.0000000000
10
-9.4314227633
20
42.4337649805
30
0.0000000000
10
-8.7939446780
20
42.9014199786
30
0.0000000000
10
-8.1039696190
20
43.1791829638
30
0.0000000000
10
-7.6243793711
20
43.2408464351
30
0.0000000000
10
-7.3907512209
20
43.2408002674
30
0.0000000000
11
-7.3907512209
21
35.8746588838
31
0.0000000000
11
-8.0841839517
21
35.9627953358
31
0.0000000000
11
-8.7654144660
21
36.2344087744
31
0.0000000000
11
-9.3935660142
21
36.6915294221
31
0.0000000000
11
-9.9336511087
21
37.3349568672
31
0.0000000000
11
-10.3357809810
21
38.1444530001
31
0.0000000000
11
-10.5522789364
21
39.0739114271
31
0.0000000000
11
-10.5518543646
21
40.0452658979
31
0.0000000000
11
-10.3349741885
21
40.9732697706
31
0.0000000000
11
-9.9332782357
21
41.7810802926
31
0.0000000000
11
-9.3932114450
21
42.4242463858
31
0.0000000000
11
-8.7654686508
21
42.8809805028
31
0.0000000000
11
-8.0860055234
21
43.1521408786
31
0.0000000000
11
-7.3907512209
21
43.2408002674
31
0.0000000000
0
SPLINE
5
369
100
AcDbEntity
8
0
100
AcDbSpline
62
7
6
CONTINUOUS
70
0
71
3
72
17
73
13
74
11
42
0.0000001000
43
0.0000001000
44
0.0000000001
12
0.0000000000
22
4.8227353466
32
0.0000000000
13
0.0000000000
23
-4.8227353466
33
0.0000000000
40
0.0000000000
40
0.0000000000
40
0.0000000000
40
0.0000000000
40
0.0930781453
40
0.1889104620
40
0.2890387931
40
0.3932862509
40
0.5000000000
40
0.6067137491
40
0.7109612069
40
0.8110895380
40
0.9069218547
40
1.0000000000
40
1.0000000000
40
1.0000000000
40
1.0000000000
10
-9.0407512209
20
37.1608064417
30
0.0000000000
10
-9.0407512209
20
37.3104368622
30
0.0000000000
10
-8.9839546812
20
37.6167689909
30
0.0000000000
10
-8.7408248493
20
38.0228876787
30
0.0000000000
10
-8.3678131375
20
38.3413498307
30
0.0000000000
10
-7.9030615126
20
38.5436631284
30
0.0000000000
10
-7.3907512209
20
38.6130603577
30
0.0000000000
10
-6.8784409292
20
38.5436631284
30
0.0000000000
10
-6.4136893043
20
38.3413498307
30
0.0000000000
10
-6.0406775925
20
38.0228876787
30
0.0000000000
10
-5.7975477605
20
37.6167689909
30
0.0000000000
10
-5.7407512209
20
37.3104368622
30
0.0000000000
10
-5.7407512209
20
37.1608064417
30
0.0000000000
11
-9.0407512209
21
37.1608064417
31
0.0000000000
11
-8.9599944728
21
37.6023737778
31
0.0000000000
11
-8.7256292616
21
38.0007174264
31
0.0000000000
11
-8.3605968872
21
38.3168447359
31
0.0000000000
11
-7.9006292616
21
38.5198109625
31
0.0000000000
11
-7.3907512209
21
38.5897483579
31
0.0000000000
11
-6.8808731802
21
38.5198109625
31
0.0000000000
11
-6.4209055546
21
38.3168447359
31
0.0000000000
11
-6.0558731802
21
38.0007174264
31
0.0000000000
11
-5.8215079690
21
37.6023737778
31
0.0000000000
11
-5.7407512209
21
37.1608064417
31
0.0000000000
0
SPLINE
5
36A
100
AcDbEntity
8
0
100
AcDbSpline
62
9
6
CONTINUOUS
70
0
71
3
72
20
73
16
74
14
42
0.0000001000
43
0.0000001000
44
0.0000000001
12
10.7826873804
22
-0.0023500624
32
0.0000000000
13
-10.7826875761
23
0.0011412326
33
0.0000000000
40
0.0000000000
40
0.0000000000
40
0.0000000000
40
0.0000000000
40
0.0639755829
40
0.1318882242
40
0.2038307772
40
0.2817768313
40
0.3655360161
40
0.4541011059
40
0.5442919700
40
0.6327956955
40
0.7166511147
40
0.7946282462
40
0.8667928872
40
0.9348262068
40
1.0000000000
40
1.0000000000
40
1.0000000000
40
1.0000000000
10
-7.3907512209
20
43.2408002674
30
0.0000000000
10
-7.1608083174
20
43.2407501519
30
0.0000000000
10
-6.6847597877
20
43.1807074589
30
0.0000000000
10
-5.9971002556
20
42.9068103402
30
0.0000000000
10
-5.3578544180
20
42.4411656843
30
0.0000000000
10
-4.8134034022
20
41.7911361319
30
0.0000000000
10
-4.4099629199
20
40.9779606079
30
0.0000000000
10
-4.1932733395
20
40.0510516951
30
0.0000000000
10
-4.1912986289
20
39.0821067202
30
0.0000000000
10
-4.4040560155
20
38.1541898201
30
0.0000000000
10
-4.8039219343
20
37.3389875197
30
0.0000000000
10
-5.3460315494
20
36.6854055051
30
0.0000000000
10
-5.9841041492
20
36.2158036161
30
0.0000000000
10
-6.6755950360
20
35.9365461471
30
0.0000000000
10
-7.1565016708
20
35.8746340910
30
0.0000000000
10
-7.3907512209
20
35.8746588838
30
0.0000000000
11
-7.3907512209
21
43.2408002674
31
0.0000000000
11
-6.7062882893
21
43.1549272933
31
0.0000000000
11
-6.0251626949
21
42.8860349521
31
0.0000000000
11
-5.3963578672
21
42.4317576731
31
0.0000000000
11
-4.8539335697
21
41.7897590261
31
0.0000000000
11
-4.4497331725
21
40.9821078734
31
0.0000000000
11
-4.2305110842
21
40.0526409289
31
0.0000000000
11
-4.2285106084
21
39.0801430706
31
0.0000000000
11
-4.4435866218
21
38.1503871258
31
0.0000000000
11
-4.8445707062
21
37.3399764149
31
0.0000000000
11
-5.3841143904
21
36.6951179933
31
0.0000000000
11
-6.0126209213
21
36.2363545007
31
0.0000000000
11
-6.6936734578
21
35.9637558149
31
0.0000000000
11
-7.3907512209
21
35.8746588838
31
0.0000000000
0
SPLINE
5
36B
100
AcDbEntity
8
0
100
AcDbSpline
62
9
6
CONTINUOUS
70
0
71
3
72
20
73
16
74
14
42
0.0000001000
43
0.0000001000
44
0.0000000001
12
-10.7826910445
22
0.0022385701
32
0.0000000000
13
10.7826910664
23
-0.0021307845
33
0.0000000000
40
0.0000000000
40
0.0000000000
40
0.0000000000
40
0.0000000000
40
0.0648271769
40
0.1328419042
40
0.2048901771
40
0.2827978178
40
0.3666244163
40
0.4551310527
40
0.5452156650
40
0.6335989868
40
0.7172676859
40
0.7951556717
40
0.8671522008
40
0.9349991160
40
1.0000000000
40
1.0000000000
40
1.0000000000
40
1.0000000000
10
8.1092487791
20
35.8746588838
30
0.0000000000
10
7.8762449725
20
35.8747072572
30
0.0000000000
10
7.3966813334
20
35.9359742337
30
0.0000000000
10
6.7064210982
20
36.2136987274
30
0.0000000000
10
6.0682871188
20
36.6819132977
30
0.0000000000
10
5.5256374717
20
37.3340366002
30
0.0000000000
10
5.1246395858
20
38.1482998439
30
0.0000000000
10
4.9105868603
20
39.0754351068
30
0.0000000000
10
4.9110057686
20
40.0433288807
30
0.0000000000
10
5.1255068041
20
40.9692928751
30
0.0000000000
10
5.5263410123
20
41.7823878845
30
0.0000000000
10
6.0685772367
20
42.4337649805
30
0.0000000000
10
6.7060553220
20
42.9014199786
30
0.0000000000
10
7.3960303810
20
43.1791829638
30
0.0000000000
10
7.8756206289
20
43.2408464351
30
0.0000000000
10
8.1092487791
20
43.2408002674
30
0.0000000000
11
8.1092487791
21
35.8746588838
31
0.0000000000
11
7.4158160483
21
35.9627953358
31
0.0000000000
11
6.7345855340
21
36.2344087744
31
0.0000000000
11
6.1064339858
21
36.6915294221
31
0.0000000000
11
5.5663488913
21
37.3349568672
31
0.0000000000
11
5.1642190190
21
38.1444530001
31
0.0000000000
11
4.9477210636
21
39.0739114271
31
0.0000000000
11
4.9481456354
21
40.0452658979
31
0.0000000000
11
5.1650258115
21
40.9732697706
31
0.0000000000
11
5.5667217643
21
41.7810802926
31
0.0000000000
11
6.1067885550
21
42.4242463858
31
0.0000000000
11
6.7345313492
21
42.8809805028
31
0.0000000000
11
7.4139944766
21
43.1521408786
31
0.0000000000
11
8.1092487791
21
43.2408002674
31
0.0000000000
0
SPLINE
5
36C
100
AcDbEntity
8
0
100
AcDbSpline
62
9
6
CONTINUOUS
70
0
71
3
72
20
73
16
74
14
42
0.0000001000
43
0.0000001000
44
0.0000000001
12
10.7826873804
22
-0.0023500624
32
0.0000000000
13
-10.7826875761
23
0.0011412326
33
0.0000000000
40
0.0000000000
40
0.0000000000
40
0.0000000000
40
0.0000000000
40
0.0639755829
40
0.1318882242
40
0.2038307772
40
0.2817768313
40
0.3655360161
40
0.4541011059
40
0.5442919700
40
0.6327956955
40
0.7166511147
40
0.7946282462
40
0.8667928872
40
0.9348262068
40
1.0000000000
40
1.0000000000
40
1.0000000000
40
1.0000000000
10
8.1092487791
20
43.2408002674
30
0.0000000000
10
8.3391916826
20
43.2407501519
30
0.0000000000
10
8.8152402123
20
43.1807074589
30
0.0000000000
10
9.5028997444
20
42.9068103402
30
0.0000000000
10
10.1421455820
20
42.4411656843
30
0.0000000000
10
10.6865965978
20
41.7911361319
30
0.0000000000
10
11.0900370801
20
40.9779606079
30
0.0000000000
10
11.3067266605
20
40.0510516951
30
0.0000000000
10
11.3087013711
20
39.0821067202
30
0.0000000000
10
11.0959439845
20
38.1541898201
30
0.0000000000
10
10.6960780657
20
37.3389875197
30
0.0000000000
10
10.1539684506
20
36.6854055051
30
0.0000000000
10
9.5158958508
20
36.2158036161
30
0.0000000000
10
8.8244049640
20
35.9365461471
30
0.0000000000
10
8.3434983292
20
35.8746340910
30
0.0000000000
10
8.1092487791
20
35.8746588838
30
0.0000000000
11
8.1092487791
21
43.2408002674
31
0.0000000000
11
8.7937117107
21
43.1549272933
31
0.0000000000
11
9.4748373051
21
42.8860349521
31
0.0000000000
11
10.1036421328
21
42.4317576731
31
0.0000000000
11
10.6460664303
21
41.7897590261
31
0.0000000000
11
11.0502668275
21
40.9821078734
31
0.0000000000
11
11.2694889158
21
40.0526409289
31
0.0000000000
11
11.2714893916
21
39.0801430706
31
0.0000000000
11
11.0564133782
21
38.1503871258
31
0.0000000000
11
10.6554292938
21
37.3399764149
31
0.0000000000
11
10.1158856096
21
36.6951179933
31
0.0000000000
11
9.4873790787
21
36.2363545007
31
0.0000000000
11
8.8063265422
21
35.9637558149
31
0.0000000000
11
8.1092487791
21
35.8746588838
31
0.0000000000
0
SPLINE
5
36D
100
AcDbEntity
8
0
100
AcDbSpline
62
9
6
CONTINUOUS
70
0
71
3
72
20
73
16
74
14
42
0.0000001000
43
0.0000001000
44
0.0000000001
12
-0.1859167361
22
9.9050206024
32
0.0000000000
13
-0.1862612692
23
-9.9050141295
33
0.0000000000
40
0.0000000000
40
0.0000000000
40
0.0000000000
40
0.0000000000
40
0.0898339994
40
0.1770944299
40
0.2587223282
40
0.3337080019
40
0.4028315531
40
0.4681295520
40
0.5321419605
40
0.5975005063
40
0.6666507971
40
0.7414795071
40
0.8228576056
40
0.9100305539
40
1.0000000000
40
1.0000000000
40
1.0000000000
40
1.0000000000
10
-47.4850262717
20
22.1793308225
30
0.0000000000
10
-47.4905934864
20
22.4759333607
30
0.0000000000
10
-47.4363428892
20
23.0640273760
30
0.0000000000
10
-47.1678564003
20
23.8826603959
30
0.0000000000
10
-46.7436780795
20
24.5762340102
30
0.0000000000
10
-46.2082250105
20
25.1057409578
30
0.0000000000
10
-45.6041040783
20
25.4576325984
30
0.0000000000
10
-44.9645340645
20
25.6319621767
30
0.0000000000
10
-44.3140492755
20
25.6315872282
30
0.0000000000
10
-43.6744036935
20
25.4563891679
30
0.0000000000
10
-43.0709375047
20
25.1038401070
30
0.0000000000
10
-42.5368942306
20
24.5747709227
30
0.0000000000
10
-42.1137396350
20
23.8825601167
30
0.0000000000
10
-41.8452698939
20
23.0646454604
30
0.0000000000
10
-41.7908902290
20
22.4763803674
30
0.0000000000
10
-41.7964761701
20
22.1793308225
30
0.0000000000
11
-47.4850262717
21
22.1793308225
31
0.0000000000
11
-47.4022246725
21
23.0654348972
31
0.0000000000
11
-47.1303797144
21
23.8860482552
31
0.0000000000
11
-46.7052074276
21
24.5739240823
31
0.0000000000
11
-46.1743080316
21
25.0935344505
31
0.0000000000
11
-45.5810470459
21
25.4355576056
31
0.0000000000
11
-44.9564862659
21
25.6040599035
31
0.0000000000
11
-44.3223304637
21
25.6036987638
31
0.0000000000
11
-43.6973966779
21
25.4342781103
31
0.0000000000
11
-43.1043436953
21
25.0913648964
31
0.0000000000
11
-42.5750371069
21
24.5723506955
31
0.0000000000
11
-42.1513248621
21
23.8864817215
31
0.0000000000
11
-41.8795542952
21
23.0667567286
31
0.0000000000
11
-41.7964761701
21
22.1793308225
31
0.0000000000
0
SPLINE
5
36E
100
AcDbEntity
8
0
100
AcDbSpline
62
9
6
CONTINUOUS
70
0
71
3
72
20
73
16
74
14
42
0.0000001000
43
0.0000001000
44
0.0000000001
12
-0.1873995835
22
10.7767089429
32
0.0000000000
13
-0.1881611404
23
-10.7766956730
33
0.0000000000
40
0.0000000000
40
0.0000000000
40
0.0000000000
40
0.0000000000
40
0.0885611169
40
0.1751693575
40
0.2565596889
40
0.3317717490
40
0.4015175164
40
0.4676947373
40
0.5326603759
40
0.5988761330
40
0.6686214283
40
0.7436471528
40
0.8247598176
40
0.9112557064
40
1.0000000000
40
1.0000000000
40
1.0000000000
40
1.0000000000
10
-47.7848435198
20
22.1740958980
30
0.0000000000
10
-47.7903756253
20
22.4922283582
30
0.0000000000
10
-47.7295998618
20
23.1251523676
30
0.0000000000
10
-47.4318636253
20
24.0060384090
30
0.0000000000
10
-46.9619783213
20
24.7528106545
30
0.0000000000
10
-46.3697922050
20
25.3221836657
30
0.0000000000
10
-45.7026925882
20
25.7000589875
30
0.0000000000
10
-44.9972762770
20
25.8869851147
30
0.0000000000
10
-44.2802333204
20
25.8864521811
30
0.0000000000
10
-43.5749603544
20
25.6984391839
30
0.0000000000
10
-42.9088719652
20
25.3198918930
30
0.0000000000
10
-42.3184697985
20
24.7511689290
30
0.0000000000
10
-41.8498630086
20
24.0061318153
30
0.0000000000
10
-41.5520609402
20
23.1260861992
30
0.0000000000
10
-41.4910928461
20
22.4928859797
30
0.0000000000
10
-41.4966589220
20
22.1740958980
30
0.0000000000
11
-47.7848435198
21
22.1740958980
31
0.0000000000
11
-47.6924966527
21
23.1241600295
31
0.0000000000
11
-47.3913608197
21
24.0077471608
31
0.0000000000
11
-46.9210975055
21
24.7483039756
31
0.0000000000
11
-46.3342881551
21
25.3076125445
31
0.0000000000
11
-45.6788237773
21
25.6756949965
31
0.0000000000
11
-44.9889571243
21
25.8569490347
31
0.0000000000
11
-44.2887356876
21
25.8564369649
31
0.0000000000
11
-43.5987358510
21
25.6740583625
31
0.0000000000
11
-42.9437966285
21
25.3050526621
31
0.0000000000
11
-42.3589808528
21
24.7465639977
31
0.0000000000
11
-41.8904711063
21
24.0084388732
31
0.0000000000
11
-41.5894154928
21
23.1261038260
31
0.0000000000
11
-41.4966589220
21
22.1740958980
31
0.0000000000
0
SPLINE
5
36F
100
AcDbEntity
8
0
100
AcDbSpline
62
9
6
CONTINUOUS
70
0
71
3
72
19
73
15
74
13
42
0.0000001000
43
0.0000001000
44
0.0000000001
12
-0.1839785506
22
-10.4813432555
32
0.0000000000
13
-0.1831702887
23
10.4813574118
33
0.0000000000
40
0.0000000000
40
0.0000000000
40
0.0000000000
40
0.0000000000
40
0.0958871025
40
0.1888883672
40
0.2754263478
40
0.3549744124
40
0.4289547866
40
0.5000079675
40
0.5710591609
40
0.6450211611
40
0.7245305229
40
0.8110064962
40
0.9039613958
40
1.0000000000
40
1.0000000000
40
1.0000000000
40
1.0000000000
10
-41.4966589220
20
22.1740958980
30
0.0000000000
10
-41.5025393120
20
21.8390873530
30
0.0000000000
10
-41.5934499922
20
21.1776482388
30
0.0000000000
10
-41.9545833215
20
20.2752507222
30
0.0000000000
10
-42.4950837522
20
19.5365193498
30
0.0000000000
10
-43.1554294582
20
19.0034973754
30
0.0000000000
10
-43.8835026377
20
18.6858551435
30
0.0000000000
10
-44.6408211696
20
18.5808171065
30
0.0000000000
10
-45.3980647105
20
18.6859134648
30
0.0000000000
10
-46.1259317935
20
19.0034859899
30
0.0000000000
10
-46.7860013484
20
19.5361643988
30
0.0000000000
10
-47.3263599230
20
20.2743426199
30
0.0000000000
10
-47.6878744692
20
21.1767354288
30
0.0000000000
10
-47.7789797135
20
21.8385575860
30
0.0000000000
10
-47.7848435198
20
22.1740958980
30
0.0000000000
11
-41.4966589220
21
22.1740958980
31
0.0000000000
11
-41.6352344918
21
21.1785133803
31
0.0000000000
11
-42.0003927770
21
20.2745528257
31
0.0000000000
11
-42.5396285964
21
19.5450397023
31
0.0000000000
11
-43.1909911291
21
19.0243532307
31
0.0000000000
11
-43.9029103137
21
18.7167451520
31
0.0000000000
11
-44.6408263933
21
18.6153663832
31
0.0000000000
11
-45.3787132760
21
18.7168045708
31
0.0000000000
11
-46.0904485325
21
19.0243527103
31
0.0000000000
11
-46.7415445024
21
19.5447228636
31
0.0000000000
11
-47.2805630881
21
20.2735882081
31
0.0000000000
11
-47.6458668368
21
21.1769657316
31
0.0000000000
11
-47.7848435198
21
22.1740958980
31
0.0000000000
0
SPLINE
5
370
100
AcDbEntity
8
0
100
AcDbSpline
62
9
6
CONTINUOUS
70
0
71
3
72
20
73
16
74
14
42
0.0000001000
43
0.0000001000
44
0.0000000001
12
-0.1859167361
22
9.9050206024
32
0.0000000000
13
-0.1862612692
23
-9.9050141295
33
0.0000000000
40
0.0000000000
40
0.0000000000
40
0.0000000000
40
0.0000000000
40
0.0898339994
40
0.1770944299
40
0.2587223282
40
0.3337080019
40
0.4028315531
40
0.4681295520
40
0.5321419605
40
0.5975005063
40
0.6666507971
40
0.7414795071
40
0.8228576056
40
0.9100305539
40
1.0000000000
40
1.0000000000
40
1.0000000000
40
1.0000000000
10
42.5149737283
20
22.1793308225
30
0.0000000000
10
42.5094065136
20
22.4759333607
30
0.0000000000
10
42.5636571108
20
23.0640273760
30
0.0000000000
10
42.8321435997
20
23.8826603959
30
0.0000000000
10
43.2563219205
20
24.5762340102
30
0.0000000000
10
43.7917749895
20
25.1057409578
30
0.0000000000
10
44.3958959217
20
25.4576325984
30
0.0000000000
10
45.0354659355
20
25.6319621767
30
0.0000000000
10
45.6859507245
20
25.6315872282
30
0.0000000000
10
46.3255963065
20
25.4563891679
30
0.0000000000
10
46.9290624953
20
25.1038401070
30
0.0000000000
10
47.4631057694
20
24.5747709227
30
0.0000000000
10
47.8862603650
20
23.8825601167
30
0.0000000000
10
48.1547301061
20
23.0646454604
30
0.0000000000
10
48.2091097710
20
22.4763803674
30
0.0000000000
10
48.2035238299
20
22.1793308225
30
0.0000000000
11
42.5149737283
21
22.1793308225
31
0.0000000000
11
42.5977753275
21
23.0654348972
31
0.0000000000
11
42.8696202856
21
23.8860482552
31
0.0000000000
11
43.2947925724
21
24.5739240823
31
0.0000000000
11
43.8256919684
21
25.0935344505
31
0.0000000000
11
44.4189529541
21
25.4355576056
31
0.0000000000
11
45.0435137341
21
25.6040599035
31
0.0000000000
11
45.6776695363
21
25.6036987638
31
0.0000000000
11
46.3026033221
21
25.4342781103
31
0.0000000000
11
46.8956563047
21
25.0913648964
31
0.0000000000
11
47.4249628931
21
24.5723506955
31
0.0000000000
11
47.8486751379
21
23.8864817215
31
0.0000000000
11
48.1204457048
21
23.0667567286
31
0.0000000000
11
48.2035238299
21
22.1793308225
31
0.0000000000
0
SPLINE
5
371
100
AcDbEntity
8
0
100
AcDbSpline
62
9
6
CONTINUOUS
70
0
71
3
72
20
73
16
74
14
42
0.0000001000
43
0.0000001000
44
0.0000000001
12
-0.1873995835
22
10.7767089429
32
0.0000000000
13
-0.1881611404
23
-10.7766956730
33
0.0000000000
40
0.0000000000
40
0.0000000000
40
0.0000000000
40
0.0000000000
40
0.0885611169
40
0.1751693575
40
0.2565596889
40
0.3317717490
40
0.4015175164
40
0.4676947373
40
0.5326603759
40
0.5988761330
40
0.6686214283
40
0.7436471528
40
0.8247598176
40
0.9112557064
40
1.0000000000
40
1.0000000000
40
1.0000000000
40
1.0000000000
10
42.2151564802
20
22.1740958980
30
0.0000000000
10
42.2096243747
20
22.4922283582
30
0.0000000000
10
42.2704001382
20
23.1251523676
30
0.0000000000
10
42.5681363747
20
24.0060384090
30
0.0000000000
10
43.0380216787
20
24.7528106545
30
0.0000000000
10
43.6302077950
20
25.3221836657
30
0.0000000000
10
44.2973074118
20
25.7000589875
30
0.0000000000
10
45.0027237230
20
25.8869851147
30
0.0000000000
10
45.7197666796
20
25.8864521811
30
0.0000000000
10
46.4250396456
20
25.6984391839
30
0.0000000000
10
47.0911280348
20
25.3198918930
30
0.0000000000
10
47.6815302015
20
24.7511689290
30
0.0000000000
10
48.1501369914
20
24.0061318153
30
0.0000000000
10
48.4479390598
20
23.1260861992
30
0.0000000000
10
48.5089071539
20
22.4928859797
30
0.0000000000
10
48.5033410780
20
22.1740958980
30
0.0000000000
11
42.2151564802
21
22.1740958980
31
0.0000000000
11
42.3075033473
21
23.1241600295
31
0.0000000000
11
42.6086391803
21
24.0077471608
31
0.0000000000
11
43.0789024945
21
24.7483039756
31
0.0000000000
11
43.6657118449
21
25.3076125445
31
0.0000000000
11
44.3211762227
21
25.6756949965
31
0.0000000000
11
45.0110428757
21
25.8569490347
31
0.0000000000
11
45.7112643124
21
25.8564369649
31
0.0000000000
11
46.4012641490
21
25.6740583625
31
0.0000000000
11
47.0562033715
21
25.3050526621
31
0.0000000000
11
47.6410191472
21
24.7465639977
31
0.0000000000
11
48.1095288937
21
24.0084388732
31
0.0000000000
11
48.4105845072
21
23.1261038260
31
0.0000000000
11
48.5033410780
21
22.1740958980
31
0.0000000000
0
SPLINE
5
372
100
AcDbEntity
8
0
100
AcDbSpline
62
9
6
CONTINUOUS
70
0
71
3
72
19
73
15
74
13
42
0.0000001000
43
0.0000001000
44
0.0000000001
12
-0.1839785506
22
-10.4813432555
32
0.0000000000
13
-0.1831702887
23
10.4813574118
33
0.0000000000
40
0.0000000000
40
0.0000000000
40
0.0000000000
40
0.0000000000
40
0.0958871025
40
0.1888883672
40
0.2754263478
40
0.3549744124
40
0.4289547866
40
0.5000079675
40
0.5710591609
40
0.6450211611
40
0.7245305229
40
0.8110064962
40
0.9039613958
40
1.0000000000
40
1.0000000000
40
1.0000000000
40
1.0000000000
10
48.5033410780
20
22.1740958980
30
0.0000000000
10
48.4974606880
20
21.8390873530
30
0.0000000000
10
48.4065500078
20
21.1776482388
30
0.0000000000
10
48.0454166785
20
20.2752507222
30
0.0000000000
10
47.5049162478
20
19.5365193498
30
0.0000000000
10
46.8445705418
20
19.0034973754
30
0.0000000000
10
46.1164973623
20
18.6858551435
30
0.0000000000
10
45.3591788304
20
18.5808171065
30
0.0000000000
10
44.6019352895
20
18.6859134648
30
0.0000000000
10
43.8740682065
20
19.0034859899
30
0.0000000000
10
43.2139986516
20
19.5361643988
30
0.0000000000
10
42.6736400770
20
20.2743426199
30
0.0000000000
10
42.3121255308
20
21.1767354288
30
0.0000000000
10
42.2210202865
20
21.8385575860
30
0.0000000000
10
42.2151564802
20
22.1740958980
30
0.0000000000
11
48.5033410780
21
22.1740958980
31
0.0000000000
11
48.3647655082
21
21.1785133803
31
0.0000000000
11
47.9996072230
21
20.2745528257
31
0.0000000000
11
47.4603714036
21
19.5450397023
31
0.0000000000
11
46.8090088709
21
19.0243532307
31
0.0000000000
11
46.0970896863
21
18.7167451520
31
0.0000000000
11
45.3591736067
21
18.6153663832
31
0.0000000000
11
44.6212867240
21
18.7168045708
31
0.0000000000
11
43.9095514675
21
19.0243527103
31
0.0000000000
11
43.2584554976
21
19.5447228636
31
0.0000000000
11
42.7194369119
21
20.2735882081
31
0.0000000000
11
42.3541331632
21
21.1769657316
31
0.0000000000
11
42.2151564802
21
22.1740958980
31
0.0000000000
0
SPLINE
5
373
100
AcDbEntity
8
0
100
AcDbSpline
62
7
6
CONTINUOUS
70
0
71
3
72
11
73
7
74
5
42
0.0000001000
43
0.0000001000
44
0.0000000001
12
-1.2675678588
22
2.9089306219
32
0.0000000000
13
-3.1586563043
23
0.0000000000
33
0.0000000000
40
0.0000000000
40
0.0000000000
40
0.0000000000
40
0.0000000000
40
0.2083645880
40
0.4631630397
40
0.7284435110
40
1.0000000000
40
1.0000000000
40
1.0000000000
40
1.0000000000
10
10.6823607478
20
38.0011631561
30
0.0000000000
10
10.5943219962
20
38.2032025329
30
0.0000000000
10
10.3305011093
20
38.6224347161
30
0.0000000000
10
9.7375805417
20
39.1283298465
30
0.0000000000
10
8.9635115146
20
39.4655821613
30
0.0000000000
10
8.3951666511
20
39.5423763021
30
0.0000000000
10
8.1092487791
20
39.5423763021
30
0.0000000000
11
10.6823607478
21
38.0011631561
31
0.0000000000
11
10.3340455136
21
38.5606580829
31
0.0000000000
11
9.7256582229
21
39.0875369320
31
0.0000000000
11
8.9590455136
21
39.4258139764
31
0.0000000000
11
8.1092487791
21
39.5423763021
31
0.0000000000
0
SPLINE
5
374
100
AcDbEntity
8
0
100
AcDbSpline
62
7
6
CONTINUOUS
70
0
71
3
72
17
73
13
74
11
42
0.0000001000
43
0.0000001000
44
0.0000000001
12
0.0000000000
22
4.8227353466
32
0.0000000000
13
0.0000000000
23
-4.8227353466
33
0.0000000000
40
0.0000000000
40
0.0000000000
40
0.0000000000
40
0.0000000000
40
0.0930781453
40
0.1889104620
40
0.2890387931
40
0.3932862509
40
0.5000000000
40
0.6067137491
40
0.7109612069
40
0.8110895380
40
0.9069218547
40
1.0000000000
40
1.0000000000
40
1.0000000000
40
1.0000000000
10
6.4592487791
20
37.1608064417
30
0.0000000000
10
6.4592487791
20
37.3104368622
30
0.0000000000
10
6.5160453188
20
37.6167689909
30
0.0000000000
10
6.7591751507
20
38.0228876787
30
0.0000000000
10
7.1321868625
20
38.3413498307
30
0.0000000000
10
7.5969384874
20
38.5436631284
30
0.0000000000
10
8.1092487791
20
38.6130603577
30
0.0000000000
10
8.6215590708
20
38.5436631284
30
0.0000000000
10
9.0863106957
20
38.3413498307
30
0.0000000000
10
9.4593224075
20
38.0228876787
30
0.0000000000
10
9.7024522395
20
37.6167689909
30
0.0000000000
10
9.7592487791
20
37.3104368622
30
0.0000000000
10
9.7592487791
20
37.1608064417
30
0.0000000000
11
6.4592487791
21
37.1608064417
31
0.0000000000
11
6.5400055272
21
37.6023737778
31
0.0000000000
11
6.7743707384
21
38.0007174264
31
0.0000000000
11
7.1394031128
21
38.3168447359
31
0.0000000000
11
7.5993707384
21
38.5198109625
31
0.0000000000
11
8.1092487791
21
38.5897483579
31
0.0000000000
11
8.6191268198
21
38.5198109625
31
0.0000000000
11
9.0790944454
21
38.3168447359
31
0.0000000000
11
9.4441268198
21
38.0007174264
31
0.0000000000
11
9.6784920310
21
37.6023737778
31
0.0000000000
11
9.7592487791
21
37.1608064417
31
0.0000000000
0
SPLINE
5
375
100
AcDbEntity
8
0
100
AcDbSpline
62
7
6
CONTINUOUS
70
0
71
3
72
15
73
11
74
9
42
0.0000001000
43
0.0000001000
44
0.0000000001
12
0.0000000000
22
-1.0395016523
32
0.0000000000
13
-1.0395016523
23
0.0000000000
33
0.0000000000
40
0.0000000000
40
0.0000000000
40
0.0000000000
40
0.0000000000
40
0.0375769119
40
0.1001769739
40
0.1928786926
40
0.3144819695
40
0.4615550407
40
0.6290519239
40
0.8108652774
40
1.0000000000
40
1.0000000000
40
1.0000000000
40
1.0000000000
10
56.8092487791
20
-49.7685700396
30
0.0000000000
10
56.8092487791
20
-49.7815904603
30
0.0000000000
10
56.7853715227
20
-49.8129108341
30
0.0000000000
10
56.7252789678
20
-49.8409514785
30
0.0000000000
10
56.6334375796
20
-49.8706254656
30
0.0000000000
10
56.5107117495
20
-49.8956304483
30
0.0000000000
10
56.3609980938
20
-49.9169923452
30
0.0000000000
10
56.1896824103
20
-49.9328320820
30
0.0000000000
10
56.0033297308
20
-49.9426933989
30
0.0000000000
10
55.8747840647
20
-49.9448970203
30
0.0000000000
10
55.8092487791
20
-49.9448970203
30
0.0000000000
11
56.8092487791
21
-49.7685700396
31
0.0000000000
11
56.7903039563
21
-49.8027296046
31
0.0000000000
11
56.7341497636
21
-49.8356109789
31
0.0000000000
11
56.6427052349
21
-49.8660057088
31
0.0000000000
11
56.5191611673
21
-49.8927553685
31
0.0000000000
11
56.3678788715
21
-49.9148186201
31
0.0000000000
11
56.1945458053
21
-49.9312832744
31
0.0000000000
11
56.0058245321
21
-49.9414566411
31
0.0000000000
11
55.8092487791
21
-49.9448970203
31
0.0000000000
0
SPLINE
5
376
100
AcDbEntity
8
0
100
AcDbSpline
62
7
6
CONTINUOUS
70
0
71
3
72
15
73
11
74
9
42
0.0000001000
43
0.0000001000
44
0.0000000001
12
-1.0395021185
22
0.0000000000
32
0.0000000000
13
0.0000000000
23
1.0395021185
33
0.0000000000
40
0.0000000000
40
0.0000000000
40
0.0000000000
40
0.0000000000
40
0.1891585582
40
0.3710191815
40
0.5385540357
40
0.6856272302
40
0.8071952734
40
0.8998541279
40
0.9624290009
40
1.0000000000
40
1.0000000000
40
1.0000000000
40
1.0000000000
10
-55.0907512209
20
-49.9448970203
30
0.0000000000
10
-55.1562947949
20
-49.9448970203
30
0.0000000000
10
-55.2848651613
20
-49.9426926990
30
0.0000000000
10
-55.4712556067
20
-49.9328276387
30
0.0000000000
10
-55.6426005196
20
-49.9169813330
30
0.0000000000
10
-55.7923144185
20
-49.8956133641
30
0.0000000000
10
-55.9150124268
20
-49.8706063844
30
0.0000000000
10
-56.0068173566
20
-49.8409368548
30
0.0000000000
10
-56.0668843919
20
-49.8129006137
30
0.0000000000
10
-56.0907512209
20
-49.7815884173
30
0.0000000000
10
-56.0907512209
20
-49.7685700396
30
0.0000000000
11
-55.0907512209
21
-49.9448970203
31
0.0000000000
11
-55.2873518276
21
-49.9414557625
31
0.0000000000
11
-55.4761221483
21
-49.9312778330
31
0.0000000000
11
-55.6494941848
21
-49.9148052135
31
0.0000000000
11
-55.8007757279
21
-49.8927354379
31
0.0000000000
11
-55.9242823913
21
-49.8659858354
31
0.0000000000
11
-56.0156823223
21
-49.8355980592
31
0.0000000000
11
-56.0718112395
21
-49.8027252813
31
0.0000000000
11
-56.0907512209
21
-49.7685700396
31
0.0000000000
0
SPLINE
5
377
100
AcDbEntity
8
0
100
AcDbSpline
62
7
6
CONTINUOUS
70
0
71
3
72
14
73
10
74
8
42
0.0000001000
43
0.0000001000
44
0.0000000001
12
0.0000000000
22
0.9208892292
32
0.0000000000
13
0.9212429893
23
0.0006473034
33
0.0000000000
40
0.0000000000
40
0.0000000000
40
0.0000000000
40
0.0000000000
40
0.1450922105
40
0.2721228464
40
0.3938187274
40
0.5308793541
40
0.7085552170
40
0.9543105758
40
1.0000000000
40
1.0000000000
40
1.0000000000
40
1.0000000000
10
-3.8907512209
20
52.8181262131
30
0.0000000000
10
-3.8907512209
20
52.8626641644
30
0.0000000000
10
-3.8846160826
20
52.9465946941
30
0.0000000000
10
-3.8447992750
20
53.0628538545
30
0.0000000000
10
-3.7670541657
20
53.1559448983
30
0.0000000000
10
-3.6475204778
20
53.2215603836
30
0.0000000000
10
-3.4787712364
20
53.2611171018
30
0.0000000000
10
-3.3346130200
20
53.2695436418
30
0.0000000000
10
-3.2451058610
20
53.2702563059
30
0.0000000000
10
-3.2310755071
20
53.2702661642
30
0.0000000000
11
-3.8907512209
21
52.8181262131
31
0.0000000000
11
-3.8781314628
21
52.9511427672
31
0.0000000000
11
-3.8377449677
21
53.0609312873
31
0.0000000000
11
-3.7660087270
21
53.1470314841
31
0.0000000000
11
-3.6570219108
21
53.2106928562
31
0.0000000000
11
-3.4988043610
21
53.2523898838
31
0.0000000000
11
-3.2731709894
21
53.2699217148
31
0.0000000000
11
-3.2310755071
21
53.2702661642
31
0.0000000000
0
SPLINE
5
378
100
AcDbEntity
8
0
100
AcDbSpline
62
7
6
CONTINUOUS
70
0
71
3
72
11
73
7
74
5
42
0.0000001000
43
0.0000001000
44
0.0000000001
12
1.2768562295
22
2.8939036353
32
0.0000000000
13
3.1486988232
23
0.0000000000
33
0.0000000000
40
0.0000000000
40
0.0000000000
40
0.0000000000
40
0.0000000000
40
0.2058611111
40
0.4614653404
40
0.7275847376
40
1.0000000000
40
1.0000000000
40
1.0000000000
40
1.0000000000
10
5.5401537633
20
38.0103241416
30
0.0000000000
10
5.6277721107
20
38.2089048809
30
0.0000000000
10
5.8905623964
20
38.6246240487
30
0.0000000000
10
6.4809170165
20
39.1283298465
30
0.0000000000
10
7.2549860436
20
39.4655821613
30
0.0000000000
10
7.8233309071
20
39.5423763021
30
0.0000000000
10
8.1092487791
20
39.5423763021
30
0.0000000000
11
5.5401537633
21
38.0103241416
31
0.0000000000
11
5.8844520446
21
38.5606580829
31
0.0000000000
11
6.4928393353
21
39.0875369320
31
0.0000000000
11
7.2594520446
21
39.4258139764
31
0.0000000000
11
8.1092487791
21
39.5423763021
31
0.0000000000
0
SPLINE
5
379
100
AcDbEntity
8
0
100
AcDbSpline
62
7
6
CONTINUOUS
70
0
71
3
72
17
73
13
74
11
42
0.0000001000
43
0.0000001000
44
0.0000000001
12
-5.5584065635
22
-0.0066015941
32
0.0000000000
13
-5.5587545896
23
0.0008103014
33
0.0000000000
40
0.0000000000
40
0.0000000000
40
0.0000000000
40
0.0000000000
40
0.0339787014
40
0.1263789023
40
0.2332912475
40
0.3514314400
40
0.4738509433
40
0.5955857326
40
0.7135601062
40
0.8226026429
40
0.9180982497
40
1.0000000000
40
1.0000000000
40
1.0000000000
40
1.0000000000
10
3.1322721070
20
51.2703078157
30
0.0000000000
10
3.0693162947
20
51.2702330445
30
0.0000000000
10
2.8351555798
20
51.2668698633
30
0.0000000000
10
2.4033605671
20
51.2480540021
30
0.0000000000
10
1.8161011871
20
51.2168131452
30
0.0000000000
10
1.1729389250
20
51.1895430553
30
0.0000000000
10
0.5018203372
20
51.1765191949
30
0.0000000000
10
-0.1691015856
20
51.1819201305
30
0.0000000000
10
-0.8148714800
20
51.2034899456
30
0.0000000000
10
-1.4115965191
20
51.2333988810
30
0.0000000000
10
-1.9415451478
20
51.2605294663
30
0.0000000000
10
-2.2700968045
20
51.2702344551
30
0.0000000000
10
-2.4218540479
20
51.2702565768
30
0.0000000000
11
3.1322721070
21
51.2703078157
31
0.0000000000
11
2.9434195846
21
51.2679308609
31
0.0000000000
11
2.4302625274
21
51.2484638169
31
0.0000000000
11
1.8368176493
21
51.2189303017
31
0.0000000000
11
1.1807764947
21
51.1923466435
31
0.0000000000
11
0.5005332351
21
51.1796166037
31
0.0000000000
11
-0.1760032847
21
51.1848777938
31
0.0000000000
11
-0.8313230005
21
51.2059360891
31
0.0000000000
11
-1.4366547786
21
51.2347702430
31
0.0000000000
11
-1.9667954039
21
51.2597603050
31
0.0000000000
11
-2.4218540479
21
51.2702565768
31
0.0000000000
0
ENDSEC
0
SECTION
2
OBJECTS
0
DICTIONARY
5
37A
100
AcDbDictionary
3
ACAD_GROUP
350
37B
3
ACAD_MLINESTYLE
350
37C
0
DICTIONARY
5
37B
102
{ACAD_REACTORS
330
37A
102
}
100
AcDbDictionary
0
DICTIONARY
5
37C
102
{ACAD_REACTORS
330
37A
102
}
100
AcDbDictionary
3
STANDARD
350
37D
0
MLINESTYLE
5
37D
102
{ACAD_REACTORS
330
37C
102
}
100
AcDbMlineStyle
2
STANDARD
70
0
3

62
256
51
90.0
52
90.0
71
2
49
0.5
62
256
6
BYLAYER
49
-0.5
62
256
6
BYLAYER
0
ENDSEC
0
EOF
