  0
SECTION
  2
HEADER
  9
$ACADVER
  1
AC1024
  9
$DWGCODEPAGE
  3
ANSI_1252
  9
$EXTMAX
 10
297.0
 20
210.0
 30
0.0
  9
$EXTMIN
 10
0.0
 20
0.0
 30
0.0
  9
$LIMMIN
 10
0.0
 20
0.0
  9
$LIMMAX
 10
297.0
 20
210.0
  9
$VIEWCTR
 10
148.5
 20
105.0
  9
$VIEWSIZE
 40
210.0
  9
$CLAYER
  8
0
  9
$LTSCALE
 40
16.335
  9
$CELTYPE
  6
BYLAYER
  9
$DIMSCALE
 40
1.0
  9
$DIMASZ
 40
3.0
  9
$DIMEXO
 40
0.5
  9
$DIMDLI
 40
11.286
  9
$DIMEXE
 40
1.5
  9
$DIMCEN
 40
2.673
  9
$DIMLFAC
 40
1.0
  9
$DIMBLK
  1
_FILLED
  9
$DIMALT
 70
0
  9
$DIMALTF
 40
0.0393700787
  9
$DIMTXT
 40
3.0
  9
$DIMTOL
 70
1
  9
$DIMLIM
 70
0
  9
$DIMTFAC
 40
1.0
  9
$DIMTP
 40
0.01
  9
$DIMTM
 40
0.01
  9
$DIMGAP
 40
0.625
  9
$DIMDSEP
 70
44
  9
$AUNITS
 70
0
  9
$PDMODE
 70
3
  9
$PDSIZE
 40
3.0
  9
$HANDSEED
  5
60E
  9
$TILEMODE
 70
1
  9
$MEASUREMENT
 70
1
  9
$INSUNITS
 70
4
  0
ENDSEC
  0
SECTION
  2
CLASSES
  0
CLASS
  1
ACDBDICTIONARYWDFLT
  2
AcDbDictionaryWithDefault
  3
AutoCAD 2000
 90
0
 91
1
280
0
281
0
  0
CLASS
  1
ACDBPLACEHOLDER
  2
AcDbPlaceHolder
  3
AutoCAD 2000
 90
0
 91
1
280
0
281
0
  0
CLASS
  1
LAYOUT
  2
AcDbLayout
  3
AutoCAD 2000
 90
0
 91
0
280
0
281
0
  0
ENDSEC
  0
SECTION
  2
TABLES
  0
TABLE
  2
VPORT
  5
8
100
AcDbSymbolTable
 70
2
  0
VPORT
  5
1F4
100
AcDbSymbolTableRecord
100
AcDbViewportTableRecord
  2
*ACTIVE
 70
0
 10
0.0
 20
0.0
 11
1.0
 21
1.0
 12
148.5
 22
105.0
 13
0.0
 23
0.0
 14
1.0
 24
1.0
 15
0.0
 25
0.0
 16
0.0
 26
0.0
 36
1.0
 17
0.0
 27
0.0
 37
0.0
 40
210.0
 41
1.4142857143
 42
50.0
 43
0.0
 44
0.0
 50
0.0
 51
0.0
 71
0
 72
100
 73
1
 74
1
 75
0
 76
0
 77
0
 78
0
  0
ENDTAB
  0
TABLE
  2
LTYPE
  5
5
100
AcDbSymbolTable
 70
6
  0
LTYPE
  5
14
100
AcDbSymbolTableRecord
100
AcDbLinetypeTableRecord
  2
BYBLOCK
 70
0
  3

 72
65
 73
0
 40
0.0
  0
LTYPE
  5
15
100
AcDbSymbolTableRecord
100
AcDbLinetypeTableRecord
  2
BYLAYER
 70
0
  3

 72
65
 73
0
 40
0.0
  0
LTYPE
  5
16
100
AcDbSymbolTableRecord
100
AcDbLinetypeTableRecord
  2
CONTINUOUS
 70
64
  3
Solid line
 72
65
 73
0
 40
0.0
  0
LTYPE
  5
1F5
100
AcDbSymbolTableRecord
100
AcDbLinetypeTableRecord
  2
CENTER
 70
64
  3
____ _ ____ _ ____ _ ____ _ ____ _ ____ _ ____
 72
65
 73
4
 40
0.6
 49
0.375
 74
0
 49
-0.075
 74
0
 49
0.075
 74
0
 49
-0.075
 74
0
  0
LTYPE
  5
1F6
100
AcDbSymbolTableRecord
100
AcDbLinetypeTableRecord
  2
HIDDEN
 70
64
  3
- - - - - - - - - - - - - - - - - - - -
 72
65
 73
2
 40
0.2
 49
0.1
 74
0
 49
-0.1
 74
0
  0
LTYPE
  5
1F7
100
AcDbSymbolTableRecord
100
AcDbLinetypeTableRecord
  2
PHANTOM
 70
64
  3
_____ _ _ _____ _ _ _____ _ _ _____
 72
65
 73
6
 40
0.8
 49
0.45
 74
0
 49
-0.05
 74
0
 49
0.1
 74
0
 49
-0.05
 74
0
 49
0.1
 74
0
 49
-0.05
 74
0
  0
LTYPE
  5
1F8
100
AcDbSymbolTableRecord
100
AcDbLinetypeTableRecord
  2
DOT
 70
64
  3
. . . . . . . . . . . . . . . . . . . .
 72
65
 73
2
 40
0.2
 49
0.1
 74
0
 49
-0.1
 74
0
  0
LTYPE
  5
1F9
100
AcDbSymbolTableRecord
100
AcDbLinetypeTableRecord
  2
DASHED
 70
64
  3
- - - - - - - - - - - - - - - - - - - -
 72
65
 73
2
 40
0.2
 49
0.1
 74
0
 49
-0.1
 74
0
  0
ENDTAB
  0
TABLE
  2
LAYER
  5
2
100
AcDbSymbolTable
 70
36
  0
LAYER
  5
10
100
AcDbSymbolTableRecord
100
AcDbLayerTableRecord
  2
0
 70
0
 62
7
  6
CONTINUOUS
370
-3
390
F
  0
LAYER
  5
1FA
100
AcDbSymbolTableRecord
100
AcDbLayerTableRecord
  2
DEFAULT_1
 70
0
 62
7
  6
CENTER
370
-3
390
F
  0
LAYER
  5
1FB
100
AcDbSymbolTableRecord
100
AcDbLayerTableRecord
  2
DEFAULT_2
 70
0
 62
7
  6
HIDDEN
370
-3
390
F
  0
LAYER
  5
1FC
100
AcDbSymbolTableRecord
100
AcDbLayerTableRecord
  2
DEFAULT_3
 70
0
 62
7
  6
PHANTOM
370
-3
390
F
  0
LAYER
  5
1FD
100
AcDbSymbolTableRecord
100
AcDbLayerTableRecord
  2
320200000
 70
0
 62
7
  6
CONTINUOUS
370
-3
390
F
  0
LAYER
  5
1FE
100
AcDbSymbolTableRecord
100
AcDbLayerTableRecord
  2
361200000
 70
0
 62
7
  6
CONTINUOUS
370
-3
390
F
  0
LAYER
  5
1FF
100
AcDbSymbolTableRecord
100
AcDbLayerTableRecord
  2
ASSI
 70
0
 62
7
  6
CONTINUOUS
370
-3
390
F
  0
LAYER
  5
200
100
AcDbSymbolTableRecord
100
AcDbLayerTableRecord
  2
COLOR5
 70
0
 62
7
  6
CONTINUOUS
370
-3
390
F
  0
LAYER
  5
201
100
AcDbSymbolTableRecord
100
AcDbLayerTableRecord
  2
COLOR7
 70
0
 62
7
  6
CONTINUOUS
370
-3
390
F
  0
LAYER
  5
202
100
AcDbSymbolTableRecord
100
AcDbLayerTableRecord
  2
COORDINATE
 70
0
 62
7
  6
CONTINUOUS
370
-3
390
F
  0
LAYER
  5
203
100
AcDbSymbolTableRecord
100
AcDbLayerTableRecord
  2
COORD_ORIGINE
 70
0
 62
7
  6
CONTINUOUS
370
-3
390
F
  0
LAYER
  5
204
100
AcDbSymbolTableRecord
100
AcDbLayerTableRecord
  2
COPY_PUBLISH
 70
0
 62
7
  6
CONTINUOUS
370
-3
390
F
  0
LAYER
  5
205
100
AcDbSymbolTableRecord
100
AcDbLayerTableRecord
  2
COSMETIC
 70
0
 62
7
  6
CONTINUOUS
370
-3
390
F
  0
LAYER
  5
206
100
AcDbSymbolTableRecord
100
AcDbLayerTableRecord
  2
COSMETICI
 70
0
 62
7
  6
CONTINUOUS
370
-3
390
F
  0
LAYER
  5
207
100
AcDbSymbolTableRecord
100
AcDbLayerTableRecord
  2
CURVE
 70
0
 62
7
  6
CONTINUOUS
370
-3
390
F
  0
LAYER
  5
208
100
AcDbSymbolTableRecord
100
AcDbLayerTableRecord
  2
DRAFT
 70
0
 62
7
  6
CONTINUOUS
370
-3
390
F
  0
LAYER
  5
209
100
AcDbSymbolTableRecord
100
AcDbLayerTableRecord
  2
GUSCI_ESTERNI
 70
0
 62
7
  6
CONTINUOUS
370
-3
390
F
  0
LAYER
  5
20A
100
AcDbSymbolTableRecord
100
AcDbLayerTableRecord
  2
IMPORT_FEATURES
 70
0
 62
7
  6
CONTINUOUS
370
-3
390
F
  0
LAYER
  5
20B
100
AcDbSymbolTableRecord
100
AcDbLayerTableRecord
  2
IMPORT_IGES
 70
0
 62
7
  6
CONTINUOUS
370
-3
390
F
  0
LAYER
  5
20C
100
AcDbSymbolTableRecord
100
AcDbLayerTableRecord
  2
INTF_1
 70
0
 62
7
  6
CONTINUOUS
370
-3
390
F
  0
LAYER
  5
20D
100
AcDbSymbolTableRecord
100
AcDbLayerTableRecord
  2
INTF_YELLOW
 70
0
 62
7
  6
CONTINUOUS
370
-3
390
F
  0
LAYER
  5
20E
100
AcDbSymbolTableRecord
100
AcDbLayerTableRecord
  2
NOTE
 70
0
 62
7
  6
CONTINUOUS
370
-3
390
F
  0
LAYER
  5
20F
100
AcDbSymbolTableRecord
100
AcDbLayerTableRecord
  2
PIANI
 70
0
 62
7
  6
CONTINUOUS
370
-3
390
F
  0
LAYER
  5
210
100
AcDbSymbolTableRecord
100
AcDbLayerTableRecord
  2
PIANI_ORIGINE
 70
0
 62
7
  6
CONTINUOUS
370
-3
390
F
  0
LAYER
  5
211
100
AcDbSymbolTableRecord
100
AcDbLayerTableRecord
  2
PIANI_SFORMI
 70
0
 62
7
  6
CONTINUOUS
370
-3
390
F
  0
LAYER
  5
212
100
AcDbSymbolTableRecord
100
AcDbLayerTableRecord
  2
PRECARICO_MOLLA
 70
0
 62
7
  6
CONTINUOUS
370
-3
390
F
  0
LAYER
  5
213
100
AcDbSymbolTableRecord
100
AcDbLayerTableRecord
  2
PUNTI
 70
0
 62
7
  6
CONTINUOUS
370
-3
390
F
  0
LAYER
  5
214
100
AcDbSymbolTableRecord
100
AcDbLayerTableRecord
  2
RACCORDO
 70
0
 62
7
  6
CONTINUOUS
370
-3
390
F
  0
LAYER
  5
215
100
AcDbSymbolTableRecord
100
AcDbLayerTableRecord
  2
RGB____0____0____0__
 70
0
 62
7
  6
CONTINUOUS
370
-3
390
F
  0
LAYER
  5
216
100
AcDbSymbolTableRecord
100
AcDbLayerTableRecord
  2
SMUSSO
 70
0
 62
7
  6
CONTINUOUS
370
-3
390
F
  0
LAYER
  5
217
100
AcDbSymbolTableRecord
100
AcDbLayerTableRecord
  2
SUPERFICI
 70
0
 62
7
  6
CONTINUOUS
370
-3
390
F
  0
LAYER
  5
218
100
AcDbSymbolTableRecord
100
AcDbLayerTableRecord
  2
TRASH
 70
0
 62
7
  6
CONTINUOUS
370
-3
390
F
  0
LAYER
  5
219
100
AcDbSymbolTableRecord
100
AcDbLayerTableRecord
  2
TRECCIE
 70
0
 62
7
  6
CONTINUOUS
370
-3
390
F
  0
LAYER
  5
21A
100
AcDbSymbolTableRecord
100
AcDbLayerTableRecord
  2
VARIE
 70
0
 62
7
  6
CONTINUOUS
370
-3
390
F
  0
LAYER
  5
21B
100
AcDbSymbolTableRecord
100
AcDbLayerTableRecord
  2
XSEC_DATUMS
 70
0
 62
7
  6
CONTINUOUS
370
-3
390
F
  0
LAYER
  5
21C
100
AcDbSymbolTableRecord
100
AcDbLayerTableRecord
  2
___SHELL
 70
0
 62
7
  6
CONTINUOUS
370
-3
390
F
  0
ENDTAB
  0
TABLE
  2
STYLE
  5
3
100
AcDbSymbolTable
 70
1
  0
STYLE
  5
11
100
AcDbSymbolTableRecord
100
AcDbTextStyleTableRecord
  2
STANDARD
 70
0
 40
0.0
 41
0.8
 50
0.0
 71
0
 42
0.2
  3
txt
  4

  0
STYLE
  5
21D
100
AcDbSymbolTableRecord
100
AcDbTextStyleTableRecord
  2
TEXTSTYLE_1
 70
0
 40
0.0
 41
0.8
 50
0.0
 71
0
 42
0.2
  3
gdt
  4

  0
ENDTAB
  0
TABLE
  2
VIEW
  5
6
100
AcDbSymbolTable
 70
0
  0
ENDTAB
  0
TABLE
  2
UCS
  5
7
100
AcDbSymbolTable
 70
0
  0
ENDTAB
  0
TABLE
  2
APPID
  5
9
100
AcDbSymbolTable
 70
1
  0
APPID
  5
21E
100
AcDbSymbolTableRecord
100
AcDbRegAppTableRecord
  2
ACAD
 70
0
  0
ENDTAB
  0
TABLE
  2
BLOCK_RECORD
  5
1
100
AcDbSymbolTable
 70
0
  0
BLOCK_RECORD
  5
21F
100
AcDbSymbolTableRecord
100
AcDbBlockTableRecord
  2
*Model_Space
  0
BLOCK_RECORD
  5
220
100
AcDbSymbolTableRecord
100
AcDbBlockTableRecord
  2
*Paper_Space
  0
BLOCK_RECORD
  5
221
100
AcDbSymbolTableRecord
100
AcDbBlockTableRecord
  2
_FILLED
  0
ENDTAB
  0
TABLE
  2
DIMSTYLE
  5
A
100
AcDbSymbolTable
 70
1
100
AcDbDimStyleTable
 71
0
  0
DIMSTYLE
105
222
100
AcDbSymbolTableRecord
100
AcDbDimStyleTableRecord
  2
STANDARD
 70
0
  3

  4

 40
1.0
 41
3.0
 42
0.5
 43
0.38
 44
1.5
 45
0.0
 46
0.0
 47
0.01
 48
0.01
140
3.0
141
0.09
142
0.0
143
25.4
144
1.0
145
0.0
146
1.0
147
0.625
 71
1.0
 72
0.0
 73
0
 74
0
 75
0
 76
0
 77
1
 78
8
 79
2
170
0
171
1
172
0
173
0
174
0
175
0
176
0
177
0
178
0
270
2
179
2
271
2
272
2
273
2
274
2
275
0
280
0
281
0
282
0
283
1
284
8
285
0
286
0
287
3
288
0
340
11
278
44
341
221
342
221
343
221
344
221
  0
ENDTAB
  0
ENDSEC
  0
SECTION
  2
BLOCKS
  0
BLOCK
  5
20
100
AcDbEntity
  8
0
100
AcDbBlockBegin
  2
*Model_Space
 70
0
 10
0.0
 20
0.0
 30
0.0
  3
*Model_Space
  1

  0
ENDBLK
  5
21
100
AcDbEntity
  8
0
100
AcDbBlockEnd
  0
BLOCK
  5
1C
100
AcDbEntity
  8
0
100
AcDbBlockBegin
  2
*Paper_Space
 70
0
 10
0.0
 20
0.0
 30
0.0
  3
*Paper_Space
  1

  0
ENDBLK
  5
1D
100
AcDbEntity
  8
0
100
AcDbBlockEnd
  0
BLOCK
  5
223
100
AcDbEntity
  8
0
100
AcDbBlockBegin
  2
_FILLED
 70
64
 10
0.0
 20
0.0
  3
_FILLED
  1

  0
SOLID
  5
224
100
AcDbEntity
  8
0
  6
BYBLOCK
 62
0
100
AcDbTrace
 10
0.0
 20
0.0
 11
-1.0
 21
0.3166666667
 12
-1.0
 22
-0.3166666667
 13
-1.0
 23
-0.3166666667
  0
ENDBLK
  5
225
100
AcDbEntity
  8
0
  6
BYBLOCK
 62
0
100
AcDbBlockEnd
  0
ENDSEC
  0
SECTION
  2
ENTITIES
  0
LINE
  5
226
100
AcDbEntity
  8
0
100
AcDbLine
 62
7
  6
CONTINUOUS
 10
-6.0
 20
-24.9162234303
 11
6.0
 21
-24.9162234303
  0
LINE
  5
227
100
AcDbEntity
  8
0
100
AcDbLine
 62
250
  6
CONTINUOUS
 10
6.0
 20
-24.9043714339
 11
-6.0
 21
-24.9043714339
  0
LINE
  5
228
100
AcDbEntity
  8
RACCORDO
100
AcDbLine
 62
7
  6
CONTINUOUS
 10
4.3
 20
-24.8535432754
 11
1.4
 21
-24.8535432754
  0
LINE
  5
229
100
AcDbEntity
  8
RACCORDO
100
AcDbLine
 62
7
  6
CONTINUOUS
 10
-1.4
 20
-24.8535432754
 11
-4.3
 21
-24.8535432754
  0
LINE
  5
22A
100
AcDbEntity
  8
RACCORDO
100
AcDbLine
 62
7
  6
CONTINUOUS
 10
4.3
 20
-24.4630248726
 11
1.4
 21
-24.4630248726
  0
LINE
  5
22B
100
AcDbEntity
  8
RACCORDO
100
AcDbLine
 62
7
  6
CONTINUOUS
 10
-1.4
 20
-24.4630248726
 11
-4.3
 21
-24.4630248726
  0
LINE
  5
22C
100
AcDbEntity
  8
0
100
AcDbLine
 62
250
  6
CONTINUOUS
 10
4.5
 20
-24.4127334806
 11
1.2
 21
-24.4127334806
  0
LINE
  5
22D
100
AcDbEntity
  8
0
100
AcDbLine
 62
250
  6
CONTINUOUS
 10
-1.2
 20
-24.4127334806
 11
-4.5
 21
-24.4127334806
  0
LINE
  5
22E
100
AcDbEntity
  8
ASSI
100
AcDbLine
 62
7
  6
CONTINUOUS
 10
-12.3245887255
 20
-24.1745506493
 11
-10.4754112745
 21
-24.1745506493
  0
LINE
  5
22F
100
AcDbEntity
  8
RACCORDO
100
AcDbLine
 62
7
  6
CONTINUOUS
 10
-12.3245887255
 20
-24.1745506493
 11
-10.4754112745
 21
-24.1745506493
  0
LINE
  5
230
100
AcDbEntity
  8
ASSI
100
AcDbLine
 62
7
  6
CONTINUOUS
 10
10.4754112745
 20
-24.1745506493
 11
12.3245887255
 21
-24.1745506493
  0
LINE
  5
231
100
AcDbEntity
  8
RACCORDO
100
AcDbLine
 62
7
  6
CONTINUOUS
 10
10.4754112745
 20
-24.1745506493
 11
12.3245887255
 21
-24.1745506493
  0
LINE
  5
232
100
AcDbEntity
  8
RACCORDO
100
AcDbLine
 62
7
  6
CONTINUOUS
 10
-4.3
 20
-24.1392925494
 11
-1.4
 21
-24.1392925494
  0
LINE
  5
233
100
AcDbEntity
  8
RACCORDO
100
AcDbLine
 62
7
  6
CONTINUOUS
 10
1.4
 20
-24.1392925494
 11
4.3
 21
-24.1392925494
  0
LINE
  5
234
100
AcDbEntity
  8
ASSI
100
AcDbLine
 62
7
  6
CONTINUOUS
 10
-12.0223012463
 20
20.2745506493
 11
-11.2223012463
 21
21.0745506493
  0
LINE
  5
235
100
AcDbEntity
  8
DRAFT
100
AcDbLine
 62
7
  6
CONTINUOUS
 10
-12.0223012463
 20
20.2745506493
 11
-11.2223012463
 21
21.0745506493
  0
LINE
  5
236
100
AcDbEntity
  8
ASSI
100
AcDbLine
 62
7
  6
CONTINUOUS
 10
-11.95
 20
20.1
 11
-11.15
 21
20.9
  0
LINE
  5
237
100
AcDbEntity
  8
DRAFT
100
AcDbLine
 62
7
  6
CONTINUOUS
 10
-11.95
 20
20.1
 11
-11.15
 21
20.9
  0
LINE
  5
238
100
AcDbEntity
  8
RACCORDO
100
AcDbLine
 62
7
  6
CONTINUOUS
 10
-6.0
 20
-23.4568669008
 11
-3.95
 21
-23.4568669008
  0
LINE
  5
239
100
AcDbEntity
  8
RACCORDO
100
AcDbLine
 62
7
  6
CONTINUOUS
 10
6.0
 20
-23.4568669008
 11
3.95
 21
-23.4568669008
  0
LINE
  5
23A
100
AcDbEntity
  8
ASSI
100
AcDbLine
 62
7
  6
CONTINUOUS
 10
8.0
 20
-23.25
 11
3.9680327869
 21
-23.25
  0
LINE
  5
23B
100
AcDbEntity
  8
DRAFT
100
AcDbLine
 62
7
  6
CONTINUOUS
 10
8.0
 20
-23.25
 11
3.9680327869
 21
-23.25
  0
LINE
  5
23C
100
AcDbEntity
  8
ASSI
100
AcDbLine
 62
7
  6
CONTINUOUS
 10
-3.9680327869
 20
-23.25
 11
-8.0
 21
-23.25
  0
LINE
  5
23D
100
AcDbEntity
  8
DRAFT
100
AcDbLine
 62
7
  6
CONTINUOUS
 10
-3.9680327869
 20
-23.25
 11
-8.0
 21
-23.25
  0
LINE
  5
23E
100
AcDbEntity
  8
ASSI
100
AcDbLine
 62
250
  6
CONTINUOUS
 10
7.9405004628
 20
-23.1905004628
 11
6.2594995372
 21
-23.1905004628
  0
LINE
  5
23F
100
AcDbEntity
  8
RACCORDO
100
AcDbLine
 62
250
  6
CONTINUOUS
 10
7.9405004628
 20
-23.1905004628
 11
6.2594995372
 21
-23.1905004628
  0
LINE
  5
240
100
AcDbEntity
  8
ASSI
100
AcDbLine
 62
250
  6
CONTINUOUS
 10
-6.2594995372
 20
-23.1905004628
 11
-7.9405004628
 21
-23.1905004628
  0
LINE
  5
241
100
AcDbEntity
  8
RACCORDO
100
AcDbLine
 62
250
  6
CONTINUOUS
 10
-6.2594995372
 20
-23.1905004628
 11
-7.9405004628
 21
-23.1905004628
  0
LINE
  5
242
100
AcDbEntity
  8
RACCORDO
100
AcDbLine
 62
7
  6
CONTINUOUS
 10
3.9680327869
 20
-23.0663484979
 11
3.95
 21
-23.0663484979
  0
LINE
  5
243
100
AcDbEntity
  8
RACCORDO
100
AcDbLine
 62
7
  6
CONTINUOUS
 10
-3.9680327869
 20
-23.0663484979
 11
-3.95
 21
-23.0663484979
  0
LINE
  5
244
100
AcDbEntity
  8
0
100
AcDbLine
 62
250
  6
CONTINUOUS
 10
3.75
 20
-22.997260236
 11
-3.75
 21
-22.997260236
  0
LINE
  5
245
100
AcDbEntity
  8
ASSI
100
AcDbLine
 62
250
  6
CONTINUOUS
 10
7.9319252468
 20
-22.6905766152
 11
6.2680747532
 21
-22.6905766152
  0
LINE
  5
246
100
AcDbEntity
  8
RACCORDO
100
AcDbLine
 62
250
  6
CONTINUOUS
 10
7.9319252468
 20
-22.6905766152
 11
6.2680747532
 21
-22.6905766152
  0
LINE
  5
247
100
AcDbEntity
  8
ASSI
100
AcDbLine
 62
250
  6
CONTINUOUS
 10
-6.2680747532
 20
-22.6905766152
 11
-7.9319252468
 21
-22.6905766152
  0
LINE
  5
248
100
AcDbEntity
  8
RACCORDO
100
AcDbLine
 62
250
  6
CONTINUOUS
 10
-6.2680747532
 20
-22.6905766152
 11
-7.9319252468
 21
-22.6905766152
  0
LINE
  5
249
100
AcDbEntity
  8
ASSI
100
AcDbLine
 62
7
  6
CONTINUOUS
 10
-10.2254493507
 20
-22.6745506493
 11
-7.9319252468
 21
-22.6745506493
  0
LINE
  5
24A
100
AcDbEntity
  8
DRAFT
100
AcDbLine
 62
7
  6
CONTINUOUS
 10
-10.2254493507
 20
-22.6745506493
 11
-7.9319252468
 21
-22.6745506493
  0
LINE
  5
24B
100
AcDbEntity
  8
ASSI
100
AcDbLine
 62
7
  6
CONTINUOUS
 10
7.9319252468
 20
-22.6745506493
 11
10.2254493507
 21
-22.6745506493
  0
LINE
  5
24C
100
AcDbEntity
  8
DRAFT
100
AcDbLine
 62
7
  6
CONTINUOUS
 10
7.9319252468
 20
-22.6745506493
 11
10.2254493507
 21
-22.6745506493
  0
LINE
  5
24D
100
AcDbEntity
  8
ASSI
100
AcDbLine
 62
7
  6
CONTINUOUS
 10
-3.9
 20
-22.4615988572
 11
-3.75
 21
-22.4615988572
  0
LINE
  5
24E
100
AcDbEntity
  8
DRAFT
100
AcDbLine
 62
7
  6
CONTINUOUS
 10
-3.9
 20
-22.4615988572
 11
-3.75
 21
-22.4615988572
  0
LINE
  5
24F
100
AcDbEntity
  8
ASSI
100
AcDbLine
 62
7
  6
CONTINUOUS
 10
3.75
 20
-22.4615988572
 11
3.9
 21
-22.4615988572
  0
LINE
  5
250
100
AcDbEntity
  8
DRAFT
100
AcDbLine
 62
7
  6
CONTINUOUS
 10
3.75
 20
-22.4615988572
 11
3.9
 21
-22.4615988572
  0
LINE
  5
251
100
AcDbEntity
  8
ASSI
100
AcDbLine
 62
7
  6
CONTINUOUS
 10
6.2680747532
 20
-22.4210294095
 11
4.9918368712
 21
-22.4210294095
  0
LINE
  5
252
100
AcDbEntity
  8
RACCORDO
100
AcDbLine
 62
7
  6
CONTINUOUS
 10
6.2680747532
 20
-22.4210294095
 11
4.9918368712
 21
-22.4210294095
  0
LINE
  5
253
100
AcDbEntity
  8
ASSI
100
AcDbLine
 62
7
  6
CONTINUOUS
 10
-4.9918368712
 20
-22.4210294095
 11
-6.2680747532
 21
-22.4210294095
  0
LINE
  5
254
100
AcDbEntity
  8
RACCORDO
100
AcDbLine
 62
7
  6
CONTINUOUS
 10
-4.9918368712
 20
-22.4210294095
 11
-6.2680747532
 21
-22.4210294095
  0
LINE
  5
255
100
AcDbEntity
  8
ASSI
100
AcDbLine
 62
7
  6
CONTINUOUS
 10
-11.2223012463
 20
-21.0745506493
 11
-12.0223012463
 21
-20.2745506493
  0
LINE
  5
256
100
AcDbEntity
  8
DRAFT
100
AcDbLine
 62
7
  6
CONTINUOUS
 10
-11.2223012463
 20
-21.0745506493
 11
-12.0223012463
 21
-20.2745506493
  0
LINE
  5
257
100
AcDbEntity
  8
ASSI
100
AcDbLine
 62
7
  6
CONTINUOUS
 10
-11.15
 20
-20.9
 11
-11.95
 21
-20.1
  0
LINE
  5
258
100
AcDbEntity
  8
DRAFT
100
AcDbLine
 62
7
  6
CONTINUOUS
 10
-11.15
 20
-20.9
 11
-11.95
 21
-20.1
  0
LINE
  5
259
100
AcDbEntity
  8
GUSCI_ESTERNI
100
AcDbLine
 62
7
  6
CONTINUOUS
 10
-10.85
 20
19.1
 11
-8.3755307198
 21
21.5744692802
  0
LINE
  5
25A
100
AcDbEntity
  8
ASSI
100
AcDbLine
 62
7
  6
CONTINUOUS
 10
-10.85
 20
19.1
 11
-8.3755307198
 21
21.5744692802
  0
LINE
  5
25B
100
AcDbEntity
  8
ASSI
100
AcDbLine
 62
7
  6
CONTINUOUS
 10
-6.2594995372
 20
23.1905004628
 11
-6.2
 21
23.25
  0
LINE
  5
25C
100
AcDbEntity
  8
RACCORDO
100
AcDbLine
 62
7
  6
CONTINUOUS
 10
-6.2594995372
 20
23.1905004628
 11
-6.2
 21
23.25
  0
LINE
  5
25D
100
AcDbEntity
  8
GUSCI_ESTERNI
100
AcDbLine
 62
7
  6
CONTINUOUS
 10
5.45
 20
-21.5
 11
8.3755307198
 21
-21.4744692802
  0
LINE
  5
25E
100
AcDbEntity
  8
GUSCI_ESTERNI
100
AcDbLine
 62
250
  6
CONTINUOUS
 10
5.45
 20
-20.5000380769
 11
9.3842960041
 21
-20.4657039959
  0
LINE
  5
25F
100
AcDbEntity
  8
DRAFT
100
AcDbLine
 62
7
  6
CONTINUOUS
 10
-5.45
 20
-21.7587268678
 11
5.45
 21
-21.7587268678
  0
LINE
  5
260
100
AcDbEntity
  8
RACCORDO
100
AcDbLine
 62
250
  6
CONTINUOUS
 10
-5.45
 20
-21.7586507125
 11
-0.0086507125
 21
-21.7586507125
  0
LINE
  5
261
100
AcDbEntity
  8
RACCORDO
100
AcDbLine
 62
250
  6
CONTINUOUS
 10
1.2086507125
 20
-21.7586507125
 11
5.45
 21
-21.7586507125
  0
LINE
  5
262
100
AcDbEntity
  8
RACCORDO
100
AcDbLine
 62
250
  6
CONTINUOUS
 10
-0.0042111233
 20
-21.7542111233
 11
1.2042111233
 21
-21.7542111233
  0
LINE
  5
263
100
AcDbEntity
  8
ASSI
100
AcDbLine
 62
7
  6
CONTINUOUS
 10
11.2223012463
 20
-21.0745506493
 11
8.7754493507
 21
-21.0745506493
  0
LINE
  5
264
100
AcDbEntity
  8
DRAFT
100
AcDbLine
 62
7
  6
CONTINUOUS
 10
11.2223012463
 20
-21.0745506493
 11
8.7754493507
 21
-21.0745506493
  0
LINE
  5
265
100
AcDbEntity
  8
ASSI
100
AcDbLine
 62
7
  6
CONTINUOUS
 10
-8.8754493507
 20
-21.0745506493
 11
-11.2223012463
 21
-21.0745506493
  0
LINE
  5
266
100
AcDbEntity
  8
DRAFT
100
AcDbLine
 62
7
  6
CONTINUOUS
 10
-8.8754493507
 20
-21.0745506493
 11
-11.2223012463
 21
-21.0745506493
  0
LINE
  5
267
100
AcDbEntity
  8
ASSI
100
AcDbLine
 62
7
  6
CONTINUOUS
 10
11.15
 20
-20.9
 11
11.0
 21
-20.9
  0
LINE
  5
268
100
AcDbEntity
  8
ASSI
100
AcDbLine
 62
7
  6
CONTINUOUS
 10
-11.15
 20
-20.9
 11
-11.0
 21
-20.9
  0
LINE
  5
269
100
AcDbEntity
  8
DRAFT
100
AcDbLine
 62
7
  6
CONTINUOUS
 10
11.15
 20
-20.9
 11
11.0
 21
-20.9
  0
LINE
  5
26A
100
AcDbEntity
  8
DRAFT
100
AcDbLine
 62
7
  6
CONTINUOUS
 10
-11.15
 20
-20.9
 11
-11.0
 21
-20.9
  0
LINE
  5
26B
100
AcDbEntity
  8
ASSI
100
AcDbLine
 62
7
  6
CONTINUOUS
 10
-10.8952696104
 20
-20.7952696104
 11
-9.1547303896
 21
-20.7952696104
  0
LINE
  5
26C
100
AcDbEntity
  8
DRAFT
100
AcDbLine
 62
7
  6
CONTINUOUS
 10
-10.8952696104
 20
-20.7952696104
 11
-9.1547303896
 21
-20.7952696104
  0
LINE
  5
26D
100
AcDbEntity
  8
ASSI
100
AcDbLine
 62
7
  6
CONTINUOUS
 10
9.0547303896
 20
-20.7952696104
 11
10.8952696104
 21
-20.7952696104
  0
LINE
  5
26E
100
AcDbEntity
  8
DRAFT
100
AcDbLine
 62
7
  6
CONTINUOUS
 10
9.0547303896
 20
-20.7952696104
 11
10.8952696104
 21
-20.7952696104
  0
LINE
  5
26F
100
AcDbEntity
  8
RACCORDO
100
AcDbLine
 62
250
  6
CONTINUOUS
 10
-5.45
 20
-20.7586887894
 11
-0.0
 21
-20.7586887894
  0
LINE
  5
270
100
AcDbEntity
  8
RACCORDO
100
AcDbLine
 62
250
  6
CONTINUOUS
 10
1.2
 20
-20.7586887894
 11
5.45
 21
-20.7586887894
  0
LINE
  5
271
100
AcDbEntity
  8
ASSI
100
AcDbLine
 62
7
  6
CONTINUOUS
 10
12.5745506493
 20
-20.2745506493
 11
12.0223012463
 21
-20.2745506493
  0
LINE
  5
272
100
AcDbEntity
  8
DRAFT
100
AcDbLine
 62
7
  6
CONTINUOUS
 10
12.5745506493
 20
-20.2745506493
 11
12.0223012463
 21
-20.2745506493
  0
LINE
  5
273
100
AcDbEntity
  8
ASSI
100
AcDbLine
 62
7
  6
CONTINUOUS
 10
-12.0223012463
 20
-20.2745506493
 11
-12.5745506493
 21
-20.2745506493
  0
LINE
  5
274
100
AcDbEntity
  8
DRAFT
100
AcDbLine
 62
7
  6
CONTINUOUS
 10
-12.0223012463
 20
-20.2745506493
 11
-12.5745506493
 21
-20.2745506493
  0
LINE
  5
275
100
AcDbEntity
  8
GUSCI_ESTERNI
100
AcDbLine
 62
7
  6
CONTINUOUS
 10
-5.45
 20
-21.6
 11
-8.3755307198
 21
-21.5744692802
  0
LINE
  5
276
100
AcDbEntity
  8
ASSI
100
AcDbLine
 62
7
  6
CONTINUOUS
 10
-5.45
 20
-21.6
 11
-8.3755307198
 21
-21.5744692802
  0
LINE
  5
277
100
AcDbEntity
  8
GUSCI_ESTERNI
100
AcDbLine
 62
250
  6
CONTINUOUS
 10
-5.45
 20
-20.6000380769
 11
-9.3842960041
 21
-20.5657039959
  0
LINE
  5
278
100
AcDbEntity
  8
ASSI
100
AcDbLine
 62
250
  6
CONTINUOUS
 10
-5.45
 20
-20.6000380769
 11
-9.3842960041
 21
-20.5657039959
  0
LINE
  5
279
100
AcDbEntity
  8
GUSCI_ESTERNI
100
AcDbLine
 62
7
  6
CONTINUOUS
 10
-8.3755307198
 20
-21.5744692802
 11
-10.85
 21
-19.1
  0
LINE
  5
27A
100
AcDbEntity
  8
ASSI
100
AcDbLine
 62
7
  6
CONTINUOUS
 10
-8.3755307198
 20
-21.5744692802
 11
-10.85
 21
-19.1
  0
LINE
  5
27B
100
AcDbEntity
  8
ASSI
100
AcDbLine
 62
7
  6
CONTINUOUS
 10
-6.2594995372
 20
-23.1905004628
 11
-6.2
 21
-23.25
  0
LINE
  5
27C
100
AcDbEntity
  8
RACCORDO
100
AcDbLine
 62
7
  6
CONTINUOUS
 10
-6.2594995372
 20
-23.1905004628
 11
-6.2
 21
-23.25
  0
LINE
  5
27D
100
AcDbEntity
  8
ASSI
100
AcDbLine
 62
7
  6
CONTINUOUS
 10
-12.4
 20
-20.1
 11
-11.95
 21
-20.1
  0
LINE
  5
27E
100
AcDbEntity
  8
DRAFT
100
AcDbLine
 62
7
  6
CONTINUOUS
 10
-12.4
 20
-20.1
 11
-11.95
 21
-20.1
  0
LINE
  5
27F
100
AcDbEntity
  8
ASSI
100
AcDbLine
 62
7
  6
CONTINUOUS
 10
12.4
 20
-20.1
 11
11.95
 21
-20.1
  0
LINE
  5
280
100
AcDbEntity
  8
DRAFT
100
AcDbLine
 62
7
  6
CONTINUOUS
 10
12.4
 20
-20.1
 11
11.95
 21
-20.1
  0
LINE
  5
281
100
AcDbEntity
  8
RACCORDO
100
AcDbLine
 62
250
  6
CONTINUOUS
 10
0.0130903017
 20
-19.7542872771
 11
1.1869096983
 21
-19.7542872771
  0
LINE
  5
282
100
AcDbEntity
  8
ASSI
100
AcDbLine
 62
7
  6
CONTINUOUS
 10
-11.0
 20
-18.65
 11
-10.85
 21
-18.65
  0
LINE
  5
283
100
AcDbEntity
  8
DRAFT
100
AcDbLine
 62
7
  6
CONTINUOUS
 10
-11.0
 20
-18.65
 11
-10.85
 21
-18.65
  0
LINE
  5
284
100
AcDbEntity
  8
ASSI
100
AcDbLine
 62
7
  6
CONTINUOUS
 10
10.85
 20
-18.65
 11
11.0
 21
-18.65
  0
LINE
  5
285
100
AcDbEntity
  8
DRAFT
100
AcDbLine
 62
7
  6
CONTINUOUS
 10
10.85
 20
-18.65
 11
11.0
 21
-18.65
  0
LINE
  5
286
100
AcDbEntity
  8
GUSCI_ESTERNI
100
AcDbLine
 62
7
  6
CONTINUOUS
 10
-10.85
 20
-19.4811503675
 11
-10.4675145008
 21
-19.4824854992
  0
LINE
  5
287
100
AcDbEntity
  8
ASSI
100
AcDbLine
 62
7
  6
CONTINUOUS
 10
-10.85
 20
-19.4811503675
 11
-10.4675145008
 21
-19.4824854992
  0
LINE
  5
288
100
AcDbEntity
  8
GUSCI_ESTERNI
100
AcDbLine
 62
7
  6
CONTINUOUS
 10
5.45
 20
-17.4
 11
8.65
 21
-17.3860370115
  0
LINE
  5
289
100
AcDbEntity
  8
RACCORDO
100
AcDbLine
 62
7
  6
CONTINUOUS
 10
5.45
 20
-17.15
 11
2.25
 21
-17.15
  0
LINE
  5
28A
100
AcDbEntity
  8
RACCORDO
100
AcDbLine
 62
7
  6
CONTINUOUS
 10
-2.25
 20
-17.15
 11
-5.45
 21
-17.15
  0
LINE
  5
28B
100
AcDbEntity
  8
GUSCI_ESTERNI
100
AcDbLine
 62
7
  6
CONTINUOUS
 10
-8.6
 20
-16.9
 11
-5.45
 21
-16.9
  0
LINE
  5
28C
100
AcDbEntity
  8
ASSI
100
AcDbLine
 62
7
  6
CONTINUOUS
 10
-8.6
 20
-16.9
 11
-5.45
 21
-16.9
  0
LINE
  5
28D
100
AcDbEntity
  8
RACCORDO
100
AcDbLine
 62
7
  6
CONTINUOUS
 10
5.45
 20
-16.9
 11
2.25
 21
-16.9
  0
LINE
  5
28E
100
AcDbEntity
  8
RACCORDO
100
AcDbLine
 62
7
  6
CONTINUOUS
 10
-2.25
 20
-16.9
 11
-5.45
 21
-16.9
  0
LINE
  5
28F
100
AcDbEntity
  8
GUSCI_ESTERNI
100
AcDbLine
 62
7
  6
CONTINUOUS
 10
5.45
 20
-16.9
 11
8.65
 21
-16.9
  0
LINE
  5
290
100
AcDbEntity
  8
GUSCI_ESTERNI
100
AcDbLine
 62
7
  6
CONTINUOUS
 10
-5.45
 20
-17.15
 11
-8.6
 21
-17.1431275916
  0
LINE
  5
291
100
AcDbEntity
  8
ASSI
100
AcDbLine
 62
7
  6
CONTINUOUS
 10
-5.45
 20
-17.15
 11
-8.6
 21
-17.1431275916
  0
LINE
  5
292
100
AcDbEntity
  8
GUSCI_ESTERNI
100
AcDbLine
 62
7
  6
CONTINUOUS
 10
9.3
 20
-15.466401559
 11
9.65
 21
-15.4633471553
  0
LINE
  5
293
100
AcDbEntity
  8
GUSCI_ESTERNI
100
AcDbLine
 62
250
  6
CONTINUOUS
 10
9.6317531964
 20
-16.4
 11
9.5160254038
 21
-16.4
  0
LINE
  5
294
100
AcDbEntity
  8
GUSCI_ESTERNI
100
AcDbLine
 62
250
  6
CONTINUOUS
 10
-9.5909655852
 20
-16.15
 11
-9.5682458366
 21
-16.15
  0
LINE
  5
295
100
AcDbEntity
  8
ASSI
100
AcDbLine
 62
250
  6
CONTINUOUS
 10
-9.5909655852
 20
-16.15
 11
-9.5682458366
 21
-16.15
  0
LINE
  5
296
100
AcDbEntity
  8
GUSCI_ESTERNI
100
AcDbLine
 62
7
  6
CONTINUOUS
 10
9.3
 20
-16.533598441
 11
9.4223615036
 21
-16.5346662737
  0
LINE
  5
297
100
AcDbEntity
  8
RACCORDO
100
AcDbLine
 62
250
  6
CONTINUOUS
 10
-2.2499428846
 20
17.65
 11
-2.232489149
 21
17.6674537356
  0
LINE
  5
298
100
AcDbEntity
  8
0
100
AcDbLine
 62
7
  6
CONTINUOUS
 10
-5.45
 20
13.7
 11
-5.75
 21
13.4
  0
LINE
  5
299
100
AcDbEntity
  8
GUSCI_ESTERNI
100
AcDbLine
 62
7
  6
CONTINUOUS
 10
-5.45
 20
-13.15
 11
-8.6
 21
-13.1568724084
  0
LINE
  5
29A
100
AcDbEntity
  8
ASSI
100
AcDbLine
 62
7
  6
CONTINUOUS
 10
-5.45
 20
-13.15
 11
-8.6
 21
-13.1568724084
  0
LINE
  5
29B
100
AcDbEntity
  8
ASSI
100
AcDbLine
 62
7
  6
CONTINUOUS
 10
11.0
 20
-14.55
 11
10.85
 21
-14.55
  0
LINE
  5
29C
100
AcDbEntity
  8
DRAFT
100
AcDbLine
 62
7
  6
CONTINUOUS
 10
11.0
 20
-14.55
 11
10.85
 21
-14.55
  0
LINE
  5
29D
100
AcDbEntity
  8
ASSI
100
AcDbLine
 62
7
  6
CONTINUOUS
 10
-10.85
 20
-14.55
 11
-11.0
 21
-14.55
  0
LINE
  5
29E
100
AcDbEntity
  8
DRAFT
100
AcDbLine
 62
7
  6
CONTINUOUS
 10
-10.85
 20
-14.55
 11
-11.0
 21
-14.55
  0
LINE
  5
29F
100
AcDbEntity
  8
DRAFT
100
AcDbLine
 62
7
  6
CONTINUOUS
 10
0.0130903017
 20
-14.1980762114
 11
1.1869096983
 21
-14.1980762114
  0
LINE
  5
2A0
100
AcDbEntity
  8
GUSCI_ESTERNI
100
AcDbLine
 62
250
  6
CONTINUOUS
 10
-9.5909655852
 20
-14.15
 11
-9.5682458366
 21
-14.15
  0
LINE
  5
2A1
100
AcDbEntity
  8
ASSI
100
AcDbLine
 62
250
  6
CONTINUOUS
 10
-9.5909655852
 20
-14.15
 11
-9.5682458366
 21
-14.15
  0
LINE
  5
2A2
100
AcDbEntity
  8
GUSCI_ESTERNI
100
AcDbLine
 62
250
  6
CONTINUOUS
 10
9.6317531964
 20
-13.9
 11
9.5160254038
 21
-13.9
  0
LINE
  5
2A3
100
AcDbEntity
  8
0
100
AcDbLine
 62
7
  6
CONTINUOUS
 10
9.3
 20
-13.75
 11
7.8
 21
-13.75
  0
LINE
  5
2A4
100
AcDbEntity
  8
0
100
AcDbLine
 62
7
  6
CONTINUOUS
 10
2.3
 20
-13.75
 11
1.490217049
 21
-13.75
  0
LINE
  5
2A5
100
AcDbEntity
  8
0
100
AcDbLine
 62
7
  6
CONTINUOUS
 10
-1.490217049
 20
-13.75
 11
-2.7
 21
-13.75
  0
LINE
  5
2A6
100
AcDbEntity
  8
0
100
AcDbLine
 62
7
  6
CONTINUOUS
 10
-8.2
 20
-13.75
 11
-9.3598629228
 21
-13.75
  0
LINE
  5
2A7
100
AcDbEntity
  8
RACCORDO
100
AcDbLine
 62
7
  6
CONTINUOUS
 10
-5.45
 20
-13.4
 11
-2.25
 21
-13.4
  0
LINE
  5
2A8
100
AcDbEntity
  8
GUSCI_ESTERNI
100
AcDbLine
 62
7
  6
CONTINUOUS
 10
8.65
 20
-13.4
 11
5.45
 21
-13.4
  0
LINE
  5
2A9
100
AcDbEntity
  8
RACCORDO
100
AcDbLine
 62
7
  6
CONTINUOUS
 10
2.25
 20
-13.4
 11
5.45
 21
-13.4
  0
LINE
  5
2AA
100
AcDbEntity
  8
GUSCI_ESTERNI
100
AcDbLine
 62
7
  6
CONTINUOUS
 10
-5.45
 20
-13.4
 11
-8.6
 21
-13.4
  0
LINE
  5
2AB
100
AcDbEntity
  8
ASSI
100
AcDbLine
 62
7
  6
CONTINUOUS
 10
-5.45
 20
-13.4
 11
-8.6
 21
-13.4
  0
LINE
  5
2AC
100
AcDbEntity
  8
RACCORDO
100
AcDbLine
 62
7
  6
CONTINUOUS
 10
-5.45
 20
-13.15
 11
-2.25
 21
-13.15
  0
LINE
  5
2AD
100
AcDbEntity
  8
RACCORDO
100
AcDbLine
 62
7
  6
CONTINUOUS
 10
2.25
 20
-13.15
 11
5.45
 21
-13.15
  0
LINE
  5
2AE
100
AcDbEntity
  8
GUSCI_ESTERNI
100
AcDbLine
 62
7
  6
CONTINUOUS
 10
5.45
 20
-12.9
 11
8.65
 21
-12.9139629885
  0
LINE
  5
2AF
100
AcDbEntity
  8
RACCORDO
100
AcDbLine
 62
7
  6
CONTINUOUS
 10
1.2086507125
 20
-21.7586507125
 11
1.2042111233
 21
-21.7542111233
  0
LINE
  5
2B0
100
AcDbEntity
  8
0
100
AcDbLine
 62
7
  6
CONTINUOUS
 10
-5.8
 20
-13.4
 11
-5.45
 21
-13.75
  0
LINE
  5
2B1
100
AcDbEntity
  8
ASSI
100
AcDbLine
 62
7
  6
CONTINUOUS
 10
-12.5745506493
 20
23.9245887255
 11
-12.5745506493
 21
20.2745506493
  0
LINE
  5
2B2
100
AcDbEntity
  8
RACCORDO
100
AcDbLine
 62
7
  6
CONTINUOUS
 10
-12.5745506493
 20
23.9245887255
 11
-12.5745506493
 21
20.2745506493
  0
LINE
  5
2B3
100
AcDbEntity
  8
ASSI
100
AcDbLine
 62
7
  6
CONTINUOUS
 10
-12.5745506493
 20
-20.2745506493
 11
-12.5745506493
 21
-23.9245887255
  0
LINE
  5
2B4
100
AcDbEntity
  8
RACCORDO
100
AcDbLine
 62
7
  6
CONTINUOUS
 10
-12.5745506493
 20
-20.2745506493
 11
-12.5745506493
 21
-23.9245887255
  0
LINE
  5
2B5
100
AcDbEntity
  8
ASSI
100
AcDbLine
 62
7
  6
CONTINUOUS
 10
-12.4
 20
-20.1
 11
-12.4
 21
20.1
  0
LINE
  5
2B6
100
AcDbEntity
  8
DRAFT
100
AcDbLine
 62
7
  6
CONTINUOUS
 10
-12.4
 20
-20.1
 11
-12.4
 21
20.1
  0
LINE
  5
2B7
100
AcDbEntity
  8
ASSI
100
AcDbLine
 62
7
  6
CONTINUOUS
 10
-11.0
 20
-20.9
 11
-11.0
 21
-18.65
  0
LINE
  5
2B8
100
AcDbEntity
  8
DRAFT
100
AcDbLine
 62
7
  6
CONTINUOUS
 10
-11.0
 20
-20.9
 11
-11.0
 21
-18.65
  0
LINE
  5
2B9
100
AcDbEntity
  8
ASSI
100
AcDbLine
 62
7
  6
CONTINUOUS
 10
-11.0
 20
-14.55
 11
-11.0
 21
14.55
  0
LINE
  5
2BA
100
AcDbEntity
  8
DRAFT
100
AcDbLine
 62
7
  6
CONTINUOUS
 10
-11.0
 20
-14.55
 11
-11.0
 21
14.55
  0
LINE
  5
2BB
100
AcDbEntity
  8
ASSI
100
AcDbLine
 62
7
  6
CONTINUOUS
 10
-11.0
 20
18.65
 11
-11.0
 21
20.9
  0
LINE
  5
2BC
100
AcDbEntity
  8
DRAFT
100
AcDbLine
 62
7
  6
CONTINUOUS
 10
-11.0
 20
18.65
 11
-11.0
 21
20.9
  0
LINE
  5
2BD
100
AcDbEntity
  8
RACCORDO
100
AcDbLine
 62
250
  6
CONTINUOUS
 10
-0.75
 20
16.1500571154
 11
-0.7325462644
 21
16.167510851
  0
LINE
  5
2BE
100
AcDbEntity
  8
DRAFT
100
AcDbLine
 62
7
  6
CONTINUOUS
 10
1.2
 20
-11.6
 11
-0.0
 21
-11.6
  0
LINE
  5
2BF
100
AcDbEntity
  8
GUSCI_ESTERNI
100
AcDbLine
 62
7
  6
CONTINUOUS
 10
-10.85
 20
-11.5980762114
 11
-9.65
 21
-11.5980762114
  0
LINE
  5
2C0
100
AcDbEntity
  8
ASSI
100
AcDbLine
 62
7
  6
CONTINUOUS
 10
-10.85
 20
-11.5980762114
 11
-9.65
 21
-11.5980762114
  0
LINE
  5
2C1
100
AcDbEntity
  8
DRAFT
100
AcDbLine
 62
7
  6
CONTINUOUS
 10
5.45
 20
-11.5
 11
1.45
 21
-11.5
  0
LINE
  5
2C2
100
AcDbEntity
  8
DRAFT
100
AcDbLine
 62
7
  6
CONTINUOUS
 10
1.4552365195
 20
-11.4947634805
 11
5.45
 21
-11.4947634805
  0
LINE
  5
2C3
100
AcDbEntity
  8
GUSCI_ESTERNI
100
AcDbLine
 62
7
  6
CONTINUOUS
 10
-10.4666665554
 20
-6.0776595354
 11
-10.35
 21
-6.1968084574
  0
LINE
  5
2C4
100
AcDbEntity
  8
ASSI
100
AcDbLine
 62
7
  6
CONTINUOUS
 10
-10.4666665554
 20
-6.0776595354
 11
-10.35
 21
-6.1968084574
  0
LINE
  5
2C5
100
AcDbEntity
  8
GUSCI_ESTERNI
100
AcDbLine
 62
7
  6
CONTINUOUS
 10
-10.175
 20
-5.9585106134
 11
-10.2333334446
 21
-5.8989361525
  0
LINE
  5
2C6
100
AcDbEntity
  8
ASSI
100
AcDbLine
 62
7
  6
CONTINUOUS
 10
-10.175
 20
-5.9585106134
 11
-10.2333334446
 21
-5.8989361525
  0
LINE
  5
2C7
100
AcDbEntity
  8
GUSCI_ESTERNI
100
AcDbLine
 62
7
  6
CONTINUOUS
 10
-9.5916665554
 20
-6.0180850744
 11
-9.4166665554
 21
-6.1968084574
  0
LINE
  5
2C8
100
AcDbEntity
  8
ASSI
100
AcDbLine
 62
7
  6
CONTINUOUS
 10
-9.5916665554
 20
-6.0180850744
 11
-9.4166665554
 21
-6.1968084574
  0
LINE
  5
2C9
100
AcDbEntity
  8
GUSCI_ESTERNI
100
AcDbLine
 62
7
  6
CONTINUOUS
 10
-10.2333334446
 20
-5.8989361525
 11
-10.2916665554
 21
-5.7797872305
  0
LINE
  5
2CA
100
AcDbEntity
  8
ASSI
100
AcDbLine
 62
7
  6
CONTINUOUS
 10
-10.2333334446
 20
-5.8989361525
 11
-10.2916665554
 21
-5.7797872305
  0
LINE
  5
2CB
100
AcDbEntity
  8
GUSCI_ESTERNI
100
AcDbLine
 62
7
  6
CONTINUOUS
 10
-9.3
 20
-5.8989361525
 11
-9.3583334446
 21
-5.7797872305
  0
LINE
  5
2CC
100
AcDbEntity
  8
ASSI
100
AcDbLine
 62
7
  6
CONTINUOUS
 10
-9.3
 20
-5.8989361525
 11
-9.3583334446
 21
-5.7797872305
  0
LINE
  5
2CD
100
AcDbEntity
  8
GUSCI_ESTERNI
100
AcDbLine
 62
7
  6
CONTINUOUS
 10
-10.5833334446
 20
-5.7797872305
 11
-10.4666665554
 21
-6.0776595354
  0
LINE
  5
2CE
100
AcDbEntity
  8
ASSI
100
AcDbLine
 62
7
  6
CONTINUOUS
 10
-10.5833334446
 20
-5.7797872305
 11
-10.4666665554
 21
-6.0776595354
  0
LINE
  5
2CF
100
AcDbEntity
  8
ASSI
100
AcDbLine
 62
7
  6
CONTINUOUS
 10
-10.8952696104
 20
20.7952696104
 11
-10.8952696104
 21
18.65
  0
LINE
  5
2D0
100
AcDbEntity
  8
DRAFT
100
AcDbLine
 62
7
  6
CONTINUOUS
 10
-10.8952696104
 20
20.7952696104
 11
-10.8952696104
 21
18.65
  0
LINE
  5
2D1
100
AcDbEntity
  8
ASSI
100
AcDbLine
 62
7
  6
CONTINUOUS
 10
-10.8952696104
 20
-18.65
 11
-10.8952696104
 21
-20.7952696104
  0
LINE
  5
2D2
100
AcDbEntity
  8
DRAFT
100
AcDbLine
 62
7
  6
CONTINUOUS
 10
-10.8952696104
 20
-18.65
 11
-10.8952696104
 21
-20.7952696104
  0
LINE
  5
2D3
100
AcDbEntity
  8
GUSCI_ESTERNI
100
AcDbLine
 62
7
  6
CONTINUOUS
 10
-10.85
 20
-19.4811503675
 11
-10.85
 21
19.4811503675
  0
LINE
  5
2D4
100
AcDbEntity
  8
ASSI
100
AcDbLine
 62
7
  6
CONTINUOUS
 10
-10.85
 20
-19.4811503675
 11
-10.85
 21
19.4811503675
  0
LINE
  5
2D5
100
AcDbEntity
  8
GUSCI_ESTERNI
100
AcDbLine
 62
7
  6
CONTINUOUS
 10
-10.5833334446
 20
-4.35
 11
-10.5833334446
 21
-5.7797872305
  0
LINE
  5
2D6
100
AcDbEntity
  8
ASSI
100
AcDbLine
 62
7
  6
CONTINUOUS
 10
-10.5833334446
 20
-4.35
 11
-10.5833334446
 21
-5.7797872305
  0
LINE
  5
2D7
100
AcDbEntity
  8
GUSCI_ESTERNI
100
AcDbLine
 62
7
  6
CONTINUOUS
 10
-10.2916665554
 20
-5.7797872305
 11
-10.2916665554
 21
-4.35
  0
LINE
  5
2D8
100
AcDbEntity
  8
ASSI
100
AcDbLine
 62
7
  6
CONTINUOUS
 10
-10.2916665554
 20
-5.7797872305
 11
-10.2916665554
 21
-4.35
  0
LINE
  5
2D9
100
AcDbEntity
  8
ASSI
100
AcDbLine
 62
7
  6
CONTINUOUS
 10
-10.2254493507
 20
-23.9245887255
 11
-10.2254493507
 21
-22.6745506493
  0
LINE
  5
2DA
100
AcDbEntity
  8
RACCORDO
100
AcDbLine
 62
7
  6
CONTINUOUS
 10
-10.2254493507
 20
-23.9245887255
 11
-10.2254493507
 21
-22.6745506493
  0
LINE
  5
2DB
100
AcDbEntity
  8
ASSI
100
AcDbLine
 62
7
  6
CONTINUOUS
 10
-10.2254493507
 20
22.5
 11
-10.2254493507
 21
23.9245887255
  0
LINE
  5
2DC
100
AcDbEntity
  8
RACCORDO
100
AcDbLine
 62
7
  6
CONTINUOUS
 10
-10.2254493507
 20
22.5
 11
-10.2254493507
 21
23.9245887255
  0
LINE
  5
2DD
100
AcDbEntity
  8
GUSCI_ESTERNI
100
AcDbLine
 62
7
  6
CONTINUOUS
 10
-10.15
 20
16.175
 11
-10.15
 21
14.125
  0
LINE
  5
2DE
100
AcDbEntity
  8
ASSI
100
AcDbLine
 62
7
  6
CONTINUOUS
 10
-10.15
 20
16.175
 11
-10.15
 21
14.125
  0
LINE
  5
2DF
100
AcDbEntity
  8
GUSCI_ESTERNI
100
AcDbLine
 62
7
  6
CONTINUOUS
 10
-9.65
 20
-4.35
 11
-9.65
 21
-5.7797872305
  0
LINE
  5
2E0
100
AcDbEntity
  8
ASSI
100
AcDbLine
 62
7
  6
CONTINUOUS
 10
-9.65
 20
-4.35
 11
-9.65
 21
-5.7797872305
  0
LINE
  5
2E1
100
AcDbEntity
  8
GUSCI_ESTERNI
100
AcDbLine
 62
7
  6
CONTINUOUS
 10
-9.65
 20
-8.9365154107
 11
-9.65
 21
-20.3
  0
LINE
  5
2E2
100
AcDbEntity
  8
ASSI
100
AcDbLine
 62
7
  6
CONTINUOUS
 10
-9.65
 20
-8.9365154107
 11
-9.65
 21
-20.3
  0
LINE
  5
2E3
100
AcDbEntity
  8
GUSCI_ESTERNI
100
AcDbLine
 62
7
  6
CONTINUOUS
 10
-9.6
 20
15.9
 11
-9.6
 21
14.4
  0
LINE
  5
2E4
100
AcDbEntity
  8
ASSI
100
AcDbLine
 62
7
  6
CONTINUOUS
 10
-9.6
 20
15.9
 11
-9.6
 21
14.4
  0
LINE
  5
2E5
100
AcDbEntity
  8
GUSCI_ESTERNI
100
AcDbLine
 62
7
  6
CONTINUOUS
 10
-9.6
 20
-14.4
 11
-9.6
 21
-15.9
  0
LINE
  5
2E6
100
AcDbEntity
  8
ASSI
100
AcDbLine
 62
7
  6
CONTINUOUS
 10
-9.6
 20
-14.4
 11
-9.6
 21
-15.9
  0
LINE
  5
2E7
100
AcDbEntity
  8
GUSCI_ESTERNI
100
AcDbLine
 62
7
  6
CONTINUOUS
 10
-9.5909655852
 20
-14.15
 11
-9.5909655852
 21
-14.2658835993
  0
LINE
  5
2E8
100
AcDbEntity
  8
ASSI
100
AcDbLine
 62
7
  6
CONTINUOUS
 10
-9.5909655852
 20
-14.15
 11
-9.5909655852
 21
-14.2658835993
  0
LINE
  5
2E9
100
AcDbEntity
  8
GUSCI_ESTERNI
100
AcDbLine
 62
7
  6
CONTINUOUS
 10
-9.5909655852
 20
-16.0341164007
 11
-9.5909655852
 21
-16.15
  0
LINE
  5
2EA
100
AcDbEntity
  8
ASSI
100
AcDbLine
 62
7
  6
CONTINUOUS
 10
-9.5909655852
 20
-16.0341164007
 11
-9.5909655852
 21
-16.15
  0
LINE
  5
2EB
100
AcDbEntity
  8
GUSCI_ESTERNI
100
AcDbLine
 62
7
  6
CONTINUOUS
 10
-9.5909655852
 20
14.15
 11
-9.5909655852
 21
14.2658835993
  0
LINE
  5
2EC
100
AcDbEntity
  8
ASSI
100
AcDbLine
 62
7
  6
CONTINUOUS
 10
-9.5909655852
 20
14.15
 11
-9.5909655852
 21
14.2658835993
  0
LINE
  5
2ED
100
AcDbEntity
  8
GUSCI_ESTERNI
100
AcDbLine
 62
7
  6
CONTINUOUS
 10
-9.5909655852
 20
16.0341164007
 11
-9.5909655852
 21
16.15
  0
LINE
  5
2EE
100
AcDbEntity
  8
ASSI
100
AcDbLine
 62
7
  6
CONTINUOUS
 10
-9.5909655852
 20
16.0341164007
 11
-9.5909655852
 21
16.15
  0
LINE
  5
2EF
100
AcDbEntity
  8
GUSCI_ESTERNI
100
AcDbLine
 62
7
  6
CONTINUOUS
 10
-9.3583334446
 20
-5.7797872305
 11
-9.3583334446
 21
-4.35
  0
LINE
  5
2F0
100
AcDbEntity
  8
ASSI
100
AcDbLine
 62
7
  6
CONTINUOUS
 10
-9.3583334446
 20
-5.7797872305
 11
-9.3583334446
 21
-4.35
  0
LINE
  5
2F1
100
AcDbEntity
  8
ASSI
100
AcDbLine
 62
7
  6
CONTINUOUS
 10
8.0
 20
23.25
 11
7.9405004628
 21
23.1905004628
  0
LINE
  5
2F2
100
AcDbEntity
  8
RACCORDO
100
AcDbLine
 62
7
  6
CONTINUOUS
 10
8.0
 20
23.25
 11
7.9405004628
 21
23.1905004628
  0
LINE
  5
2F3
100
AcDbEntity
  8
RACCORDO
100
AcDbLine
 62
250
  6
CONTINUOUS
 10
0.75
 20
14.1499428846
 11
0.7325462644
 21
14.132489149
  0
LINE
  5
2F4
100
AcDbEntity
  8
0
100
AcDbLine
 62
7
  6
CONTINUOUS
 10
1.8166667461
 20
-9.75
 11
2.3166667461
 21
-9.75
  0
LINE
  5
2F5
100
AcDbEntity
  8
0
100
AcDbLine
 62
7
  6
CONTINUOUS
 10
4.4
 20
-9.75
 11
5.15
 21
-9.75
  0
LINE
  5
2F6
100
AcDbEntity
  8
GUSCI_ESTERNI
100
AcDbLine
 62
7
  6
CONTINUOUS
 10
-10.85
 20
-8.9183769566
 11
-9.65
 21
-8.9365154107
  0
LINE
  5
2F7
100
AcDbEntity
  8
ASSI
100
AcDbLine
 62
7
  6
CONTINUOUS
 10
-10.85
 20
-8.9183769566
 11
-9.65
 21
-8.9365154107
  0
LINE
  5
2F8
100
AcDbEntity
  8
GUSCI_ESTERNI
100
AcDbLine
 62
7
  6
CONTINUOUS
 10
-10.35
 20
-6.1968084574
 11
-10.175
 21
-6.2563829184
  0
LINE
  5
2F9
100
AcDbEntity
  8
ASSI
100
AcDbLine
 62
7
  6
CONTINUOUS
 10
-10.35
 20
-6.1968084574
 11
-10.175
 21
-6.2563829184
  0
LINE
  5
2FA
100
AcDbEntity
  8
GUSCI_ESTERNI
100
AcDbLine
 62
7
  6
CONTINUOUS
 10
-10.0583334446
 20
-6.0180850744
 11
-10.175
 21
-5.9585106134
  0
LINE
  5
2FB
100
AcDbEntity
  8
ASSI
100
AcDbLine
 62
7
  6
CONTINUOUS
 10
-10.0583334446
 20
-6.0180850744
 11
-10.175
 21
-5.9585106134
  0
LINE
  5
2FC
100
AcDbEntity
  8
GUSCI_ESTERNI
100
AcDbLine
 62
7
  6
CONTINUOUS
 10
-9.125
 20
-6.0180850744
 11
-9.2416665554
 21
-5.9585106134
  0
LINE
  5
2FD
100
AcDbEntity
  8
ASSI
100
AcDbLine
 62
7
  6
CONTINUOUS
 10
-9.125
 20
-6.0180850744
 11
-9.2416665554
 21
-5.9585106134
  0
LINE
  5
2FE
100
AcDbEntity
  8
ASSI
100
AcDbLine
 62
7
  6
CONTINUOUS
 10
8.0
 20
-23.25
 11
7.9405004628
 21
-23.1905004628
  0
LINE
  5
2FF
100
AcDbEntity
  8
RACCORDO
100
AcDbLine
 62
7
  6
CONTINUOUS
 10
8.0
 20
-23.25
 11
7.9405004628
 21
-23.1905004628
  0
LINE
  5
300
100
AcDbEntity
  8
GUSCI_ESTERNI
100
AcDbLine
 62
7
  6
CONTINUOUS
 10
-9.2416665554
 20
-5.9585106134
 11
-9.3
 21
-5.8989361525
  0
LINE
  5
301
100
AcDbEntity
  8
ASSI
100
AcDbLine
 62
7
  6
CONTINUOUS
 10
-9.2416665554
 20
-5.9585106134
 11
-9.3
 21
-5.8989361525
  0
LINE
  5
302
100
AcDbEntity
  8
GUSCI_ESTERNI
100
AcDbLine
 62
7
  6
CONTINUOUS
 10
-7.8416667223
 20
-6.0776595354
 11
-7.725
 21
-6.1968084574
  0
LINE
  5
303
100
AcDbEntity
  8
ASSI
100
AcDbLine
 62
7
  6
CONTINUOUS
 10
-7.8416667223
 20
-6.0776595354
 11
-7.725
 21
-6.1968084574
  0
LINE
  5
304
100
AcDbEntity
  8
GUSCI_ESTERNI
100
AcDbLine
 62
7
  6
CONTINUOUS
 10
-7.55
 20
-5.9585106134
 11
-7.6083332777
 21
-5.8989361525
  0
LINE
  5
305
100
AcDbEntity
  8
ASSI
100
AcDbLine
 62
7
  6
CONTINUOUS
 10
-7.55
 20
-5.9585106134
 11
-7.6083332777
 21
-5.8989361525
  0
LINE
  5
306
100
AcDbEntity
  8
GUSCI_ESTERNI
100
AcDbLine
 62
7
  6
CONTINUOUS
 10
-6.9666666389
 20
-6.0180850744
 11
-6.7916666389
 21
-6.1968084574
  0
LINE
  5
307
100
AcDbEntity
  8
ASSI
100
AcDbLine
 62
7
  6
CONTINUOUS
 10
-6.9666666389
 20
-6.0180850744
 11
-6.7916666389
 21
-6.1968084574
  0
LINE
  5
308
100
AcDbEntity
  8
GUSCI_ESTERNI
100
AcDbLine
 62
7
  6
CONTINUOUS
 10
-7.6083332777
 20
-5.8989361525
 11
-7.6666667223
 21
-5.7797872305
  0
LINE
  5
309
100
AcDbEntity
  8
ASSI
100
AcDbLine
 62
7
  6
CONTINUOUS
 10
-7.6083332777
 20
-5.8989361525
 11
-7.6666667223
 21
-5.7797872305
  0
LINE
  5
30A
100
AcDbEntity
  8
GUSCI_ESTERNI
100
AcDbLine
 62
7
  6
CONTINUOUS
 10
-7.9583332777
 20
-5.7797872305
 11
-7.8416667223
 21
-6.0776595354
  0
LINE
  5
30B
100
AcDbEntity
  8
ASSI
100
AcDbLine
 62
7
  6
CONTINUOUS
 10
-7.9583332777
 20
-5.7797872305
 11
-7.8416667223
 21
-6.0776595354
  0
LINE
  5
30C
100
AcDbEntity
  8
ASSI
100
AcDbLine
 62
7
  6
CONTINUOUS
 10
-6.2680747532
 20
-22.4210294095
 11
-6.2
 21
-23.25
  0
LINE
  5
30D
100
AcDbEntity
  8
DRAFT
100
AcDbLine
 62
7
  6
CONTINUOUS
 10
-6.2680747532
 20
-22.4210294095
 11
-6.2
 21
-23.25
  0
LINE
  5
30E
100
AcDbEntity
  8
GUSCI_ESTERNI
100
AcDbLine
 62
7
  6
CONTINUOUS
 10
-8.7166665554
 20
-4.35
 11
-8.7166665554
 21
-5.8393616915
  0
LINE
  5
30F
100
AcDbEntity
  8
ASSI
100
AcDbLine
 62
7
  6
CONTINUOUS
 10
-8.7166665554
 20
-4.35
 11
-8.7166665554
 21
-5.8393616915
  0
LINE
  5
310
100
AcDbEntity
  8
GUSCI_ESTERNI
100
AcDbLine
 62
7
  6
CONTINUOUS
 10
-8.7166665554
 20
-6.0776595354
 11
-8.7166665554
 21
-6.2563829184
  0
LINE
  5
311
100
AcDbEntity
  8
ASSI
100
AcDbLine
 62
7
  6
CONTINUOUS
 10
-8.7166665554
 20
-6.0776595354
 11
-8.7166665554
 21
-6.2563829184
  0
LINE
  5
312
100
AcDbEntity
  8
GUSCI_ESTERNI
100
AcDbLine
 62
250
  6
CONTINUOUS
 10
-8.6
 20
17.1431275916
 11
-8.6
 21
16.9
  0
LINE
  5
313
100
AcDbEntity
  8
ASSI
100
AcDbLine
 62
250
  6
CONTINUOUS
 10
-8.6
 20
17.1431275916
 11
-8.6
 21
16.9
  0
LINE
  5
314
100
AcDbEntity
  8
GUSCI_ESTERNI
100
AcDbLine
 62
250
  6
CONTINUOUS
 10
-8.6
 20
-13.1568724084
 11
-8.6
 21
-13.4
  0
LINE
  5
315
100
AcDbEntity
  8
ASSI
100
AcDbLine
 62
250
  6
CONTINUOUS
 10
-8.6
 20
-13.1568724084
 11
-8.6
 21
-13.4
  0
LINE
  5
316
100
AcDbEntity
  8
GUSCI_ESTERNI
100
AcDbLine
 62
250
  6
CONTINUOUS
 10
-8.6
 20
-17.1431275916
 11
-8.6
 21
-16.9
  0
LINE
  5
317
100
AcDbEntity
  8
ASSI
100
AcDbLine
 62
250
  6
CONTINUOUS
 10
-8.6
 20
-17.1431275916
 11
-8.6
 21
-16.9
  0
LINE
  5
318
100
AcDbEntity
  8
GUSCI_ESTERNI
100
AcDbLine
 62
250
  6
CONTINUOUS
 10
-8.6
 20
13.1568724084
 11
-8.6
 21
13.4
  0
LINE
  5
319
100
AcDbEntity
  8
ASSI
100
AcDbLine
 62
250
  6
CONTINUOUS
 10
-8.6
 20
13.1568724084
 11
-8.6
 21
13.4
  0
LINE
  5
31A
100
AcDbEntity
  8
GUSCI_ESTERNI
100
AcDbLine
 62
7
  6
CONTINUOUS
 10
-8.425
 20
-6.2563829184
 11
-8.425
 21
-4.35
  0
LINE
  5
31B
100
AcDbEntity
  8
ASSI
100
AcDbLine
 62
7
  6
CONTINUOUS
 10
-8.425
 20
-6.2563829184
 11
-8.425
 21
-4.35
  0
LINE
  5
31C
100
AcDbEntity
  8
ASSI
100
AcDbLine
 62
7
  6
CONTINUOUS
 10
-8.0
 20
-23.25
 11
-8.0
 21
-22.6745506493
  0
LINE
  5
31D
100
AcDbEntity
  8
DRAFT
100
AcDbLine
 62
7
  6
CONTINUOUS
 10
-8.0
 20
-23.25
 11
-8.0
 21
-22.6745506493
  0
LINE
  5
31E
100
AcDbEntity
  8
ASSI
100
AcDbLine
 62
7
  6
CONTINUOUS
 10
-8.0
 20
22.5
 11
-8.0
 21
23.25
  0
LINE
  5
31F
100
AcDbEntity
  8
DRAFT
100
AcDbLine
 62
7
  6
CONTINUOUS
 10
-8.0
 20
22.5
 11
-8.0
 21
23.25
  0
LINE
  5
320
100
AcDbEntity
  8
GUSCI_ESTERNI
100
AcDbLine
 62
7
  6
CONTINUOUS
 10
-7.9583332777
 20
-4.35
 11
-7.9583332777
 21
-5.7797872305
  0
LINE
  5
321
100
AcDbEntity
  8
ASSI
100
AcDbLine
 62
7
  6
CONTINUOUS
 10
-7.9583332777
 20
-4.35
 11
-7.9583332777
 21
-5.7797872305
  0
LINE
  5
322
100
AcDbEntity
  8
ASSI
100
AcDbLine
 62
7
  6
CONTINUOUS
 10
-7.9319252468
 20
-22.6905766152
 11
-7.9319252468
 21
-22.6745506493
  0
LINE
  5
323
100
AcDbEntity
  8
RACCORDO
100
AcDbLine
 62
7
  6
CONTINUOUS
 10
-7.9319252468
 20
-22.6905766152
 11
-7.9319252468
 21
-22.6745506493
  0
LINE
  5
324
100
AcDbEntity
  8
ASSI
100
AcDbLine
 62
7
  6
CONTINUOUS
 10
-7.9319252468
 20
22.5
 11
-7.9319252468
 21
22.6905766152
  0
LINE
  5
325
100
AcDbEntity
  8
RACCORDO
100
AcDbLine
 62
7
  6
CONTINUOUS
 10
-7.9319252468
 20
22.5
 11
-7.9319252468
 21
22.6905766152
  0
LINE
  5
326
100
AcDbEntity
  8
GUSCI_ESTERNI
100
AcDbLine
 62
7
  6
CONTINUOUS
 10
-7.6666667223
 20
-5.7797872305
 11
-7.6666667223
 21
-4.35
  0
LINE
  5
327
100
AcDbEntity
  8
ASSI
100
AcDbLine
 62
7
  6
CONTINUOUS
 10
-7.6666667223
 20
-5.7797872305
 11
-7.6666667223
 21
-4.35
  0
LINE
  5
328
100
AcDbEntity
  8
ASSI
100
AcDbLine
 62
7
  6
CONTINUOUS
 10
-6.2
 20
23.25
 11
-6.2680747532
 21
22.4210294095
  0
LINE
  5
329
100
AcDbEntity
  8
DRAFT
100
AcDbLine
 62
7
  6
CONTINUOUS
 10
-6.2
 20
23.25
 11
-6.2680747532
 21
22.4210294095
  0
LINE
  5
32A
100
AcDbEntity
  8
DRAFT
100
AcDbLine
 62
7
  6
CONTINUOUS
 10
0.0
 20
11.65
 11
0.0130903017
 21
11.6630903017
  0
LINE
  5
32B
100
AcDbEntity
  8
RACCORDO
100
AcDbLine
 62
250
  6
CONTINUOUS
 10
2.2499428846
 20
12.65
 11
2.232489149
 21
12.6325462644
  0
LINE
  5
32C
100
AcDbEntity
  8
GUSCI_ESTERNI
100
AcDbLine
 62
7
  6
CONTINUOUS
 10
-9.4166665554
 20
-6.1968084574
 11
-9.2416665554
 21
-6.2563829184
  0
LINE
  5
32D
100
AcDbEntity
  8
ASSI
100
AcDbLine
 62
7
  6
CONTINUOUS
 10
-9.4166665554
 20
-6.1968084574
 11
-9.2416665554
 21
-6.2563829184
  0
LINE
  5
32E
100
AcDbEntity
  8
GUSCI_ESTERNI
100
AcDbLine
 62
7
  6
CONTINUOUS
 10
-7.725
 20
-6.1968084574
 11
-7.55
 21
-6.2563829184
  0
LINE
  5
32F
100
AcDbEntity
  8
ASSI
100
AcDbLine
 62
7
  6
CONTINUOUS
 10
-7.725
 20
-6.1968084574
 11
-7.55
 21
-6.2563829184
  0
LINE
  5
330
100
AcDbEntity
  8
GUSCI_ESTERNI
100
AcDbLine
 62
7
  6
CONTINUOUS
 10
-6.7916666389
 20
-6.1968084574
 11
-6.6166666389
 21
-6.2563829184
  0
LINE
  5
331
100
AcDbEntity
  8
ASSI
100
AcDbLine
 62
7
  6
CONTINUOUS
 10
-6.7916666389
 20
-6.1968084574
 11
-6.6166666389
 21
-6.2563829184
  0
LINE
  5
332
100
AcDbEntity
  8
GUSCI_ESTERNI
100
AcDbLine
 62
7
  6
CONTINUOUS
 10
-7.4333332777
 20
-6.0180850744
 11
-7.55
 21
-5.9585106134
  0
LINE
  5
333
100
AcDbEntity
  8
ASSI
100
AcDbLine
 62
7
  6
CONTINUOUS
 10
-7.4333332777
 20
-6.0180850744
 11
-7.55
 21
-5.9585106134
  0
LINE
  5
334
100
AcDbEntity
  8
GUSCI_ESTERNI
100
AcDbLine
 62
7
  6
CONTINUOUS
 10
-6.5
 20
-6.0180850744
 11
-6.6166666389
 21
-5.9585106134
  0
LINE
  5
335
100
AcDbEntity
  8
ASSI
100
AcDbLine
 62
7
  6
CONTINUOUS
 10
-6.5
 20
-6.0180850744
 11
-6.6166666389
 21
-5.9585106134
  0
LINE
  5
336
100
AcDbEntity
  8
GUSCI_ESTERNI
100
AcDbLine
 62
7
  6
CONTINUOUS
 10
-6.6166666389
 20
-5.9585106134
 11
-6.675
 21
-5.8989361525
  0
LINE
  5
337
100
AcDbEntity
  8
ASSI
100
AcDbLine
 62
7
  6
CONTINUOUS
 10
-6.6166666389
 20
-5.9585106134
 11
-6.675
 21
-5.8989361525
  0
LINE
  5
338
100
AcDbEntity
  8
GUSCI_ESTERNI
100
AcDbLine
 62
7
  6
CONTINUOUS
 10
-6.675
 20
-5.8989361525
 11
-6.7333333611
 21
-5.7797872305
  0
LINE
  5
339
100
AcDbEntity
  8
ASSI
100
AcDbLine
 62
7
  6
CONTINUOUS
 10
-6.675
 20
-5.8989361525
 11
-6.7333333611
 21
-5.7797872305
  0
LINE
  5
33A
100
AcDbEntity
  8
GUSCI_ESTERNI
100
AcDbLine
 62
7
  6
CONTINUOUS
 10
-7.025
 20
-4.35
 11
-7.025
 21
-5.7797872305
  0
LINE
  5
33B
100
AcDbEntity
  8
ASSI
100
AcDbLine
 62
7
  6
CONTINUOUS
 10
-7.025
 20
-4.35
 11
-7.025
 21
-5.7797872305
  0
LINE
  5
33C
100
AcDbEntity
  8
0
100
AcDbLine
 62
7
  6
CONTINUOUS
 10
-6.95
 20
16.9
 11
-6.95
 21
13.4
  0
LINE
  5
33D
100
AcDbEntity
  8
0
100
AcDbLine
 62
7
  6
CONTINUOUS
 10
-6.95
 20
-16.9
 11
-6.95
 21
-13.4
  0
LINE
  5
33E
100
AcDbEntity
  8
GUSCI_ESTERNI
100
AcDbLine
 62
7
  6
CONTINUOUS
 10
-6.7333333611
 20
-5.7797872305
 11
-6.7333333611
 21
-4.35
  0
LINE
  5
33F
100
AcDbEntity
  8
ASSI
100
AcDbLine
 62
7
  6
CONTINUOUS
 10
-6.7333333611
 20
-5.7797872305
 11
-6.7333333611
 21
-4.35
  0
LINE
  5
340
100
AcDbEntity
  8
0
100
AcDbLine
 62
7
  6
CONTINUOUS
 10
-6.6435
 20
-13.4
 11
-6.6435
 21
-16.9
  0
LINE
  5
341
100
AcDbEntity
  8
0
100
AcDbLine
 62
7
  6
CONTINUOUS
 10
-6.6435
 20
13.4
 11
-6.6435
 21
16.9
  0
LINE
  5
342
100
AcDbEntity
  8
ASSI
100
AcDbLine
 62
7
  6
CONTINUOUS
 10
-6.2680747532
 20
22.6905766152
 11
-6.2680747532
 21
22.4210294095
  0
LINE
  5
343
100
AcDbEntity
  8
RACCORDO
100
AcDbLine
 62
7
  6
CONTINUOUS
 10
-6.2680747532
 20
22.6905766152
 11
-6.2680747532
 21
22.4210294095
  0
LINE
  5
344
100
AcDbEntity
  8
ASSI
100
AcDbLine
 62
7
  6
CONTINUOUS
 10
-6.2680747532
 20
-22.4210294095
 11
-6.2680747532
 21
-22.6905766152
  0
LINE
  5
345
100
AcDbEntity
  8
RACCORDO
100
AcDbLine
 62
7
  6
CONTINUOUS
 10
-6.2680747532
 20
-22.4210294095
 11
-6.2680747532
 21
-22.6905766152
  0
LINE
  5
346
100
AcDbEntity
  8
GUSCI_ESTERNI
100
AcDbLine
 62
7
  6
CONTINUOUS
 10
-6.0916666597
 20
-4.35
 11
-6.0916666597
 21
-5.8393616915
  0
LINE
  5
347
100
AcDbEntity
  8
ASSI
100
AcDbLine
 62
7
  6
CONTINUOUS
 10
-6.0916666597
 20
-4.35
 11
-6.0916666597
 21
-5.8393616915
  0
LINE
  5
348
100
AcDbEntity
  8
GUSCI_ESTERNI
100
AcDbLine
 62
7
  6
CONTINUOUS
 10
-6.0916666597
 20
-6.0776595354
 11
-6.0916666597
 21
-6.2563829184
  0
LINE
  5
349
100
AcDbEntity
  8
ASSI
100
AcDbLine
 62
7
  6
CONTINUOUS
 10
-6.0916666597
 20
-6.0776595354
 11
-6.0916666597
 21
-6.2563829184
  0
LINE
  5
34A
100
AcDbEntity
  8
0
100
AcDbLine
 62
7
  6
CONTINUOUS
 10
-6.0
 20
24.9162234303
 11
-6.0
 21
23.25
  0
LINE
  5
34B
100
AcDbEntity
  8
0
100
AcDbLine
 62
7
  6
CONTINUOUS
 10
-6.0
 20
-24.9162234303
 11
-6.0
 21
-23.25
  0
LINE
  5
34C
100
AcDbEntity
  8
GUSCI_ESTERNI
100
AcDbLine
 62
7
  6
CONTINUOUS
 10
-5.8
 20
-6.2563829184
 11
-5.8
 21
-4.35
  0
LINE
  5
34D
100
AcDbEntity
  8
ASSI
100
AcDbLine
 62
7
  6
CONTINUOUS
 10
-5.8
 20
-6.2563829184
 11
-5.8
 21
-4.35
  0
LINE
  5
34E
100
AcDbEntity
  8
GUSCI_ESTERNI
100
AcDbLine
 62
7
  6
CONTINUOUS
 10
-5.45
 20
20.6373394663
 11
-5.45
 21
17.675
  0
LINE
  5
34F
100
AcDbEntity
  8
ASSI
100
AcDbLine
 62
7
  6
CONTINUOUS
 10
-5.45
 20
20.8225121884
 11
-5.45
 21
17.675
  0
LINE
  5
350
100
AcDbEntity
  8
GUSCI_ESTERNI
100
AcDbLine
 62
7
  6
CONTINUOUS
 10
-5.45
 20
17.65
 11
-5.45
 21
16.9
  0
LINE
  5
351
100
AcDbEntity
  8
ASSI
100
AcDbLine
 62
7
  6
CONTINUOUS
 10
-5.45
 20
17.65
 11
-5.45
 21
16.9
  0
LINE
  5
352
100
AcDbEntity
  8
DRAFT
100
AcDbLine
 62
7
  6
CONTINUOUS
 10
-5.45
 20
12.65
 11
-5.45
 21
11.6674537356
  0
LINE
  5
353
100
AcDbEntity
  8
GUSCI_ESTERNI
100
AcDbLine
 62
7
  6
CONTINUOUS
 10
-5.45
 20
12.625
 11
-5.45
 21
-1.1
  0
LINE
  5
354
100
AcDbEntity
  8
ASSI
100
AcDbLine
 62
7
  6
CONTINUOUS
 10
-5.45
 20
12.625
 11
-5.45
 21
-1.1
  0
LINE
  5
355
100
AcDbEntity
  8
GUSCI_ESTERNI
100
AcDbLine
 62
7
  6
CONTINUOUS
 10
-5.45
 20
-1.9
 11
-5.45
 21
-4.0
  0
LINE
  5
356
100
AcDbEntity
  8
GUSCI_ESTERNI
100
AcDbLine
 62
7
  6
CONTINUOUS
 10
-5.45
 20
-6.5
 11
-5.45
 21
-13.4
  0
LINE
  5
357
100
AcDbEntity
  8
RACCORDO
100
AcDbLine
 62
7
  6
CONTINUOUS
 10
-5.45
 20
-21.7587268678
 11
-5.45
 21
-17.15
  0
LINE
  5
358
100
AcDbEntity
  8
SMUSSO
100
AcDbLine
 62
7
  6
CONTINUOUS
 10
-5.45
 20
-17.15
 11
-5.45
 21
-16.9
  0
LINE
  5
359
100
AcDbEntity
  8
GUSCI_ESTERNI
100
AcDbLine
 62
7
  6
CONTINUOUS
 10
-5.45
 20
-20.6373420087
 11
-5.45
 21
-16.9
  0
LINE
  5
35A
100
AcDbEntity
  8
ASSI
100
AcDbLine
 62
7
  6
CONTINUOUS
 10
-5.45
 20
-20.8225266207
 11
-5.45
 21
-16.9
  0
LINE
  5
35B
100
AcDbEntity
  8
SMUSSO
100
AcDbLine
 62
7
  6
CONTINUOUS
 10
-5.45
 20
-13.4
 11
-5.45
 21
-6.5
  0
LINE
  5
35C
100
AcDbEntity
  8
DRAFT
100
AcDbLine
 62
7
  6
CONTINUOUS
 10
-5.45
 20
-6.4947634805
 11
-5.45
 21
-4.0052365195
  0
LINE
  5
35D
100
AcDbEntity
  8
GUSCI_ESTERNI
100
AcDbLine
 62
7
  6
CONTINUOUS
 10
-5.45
 20
-6.4947634805
 11
-5.45
 21
-4.0052365195
  0
LINE
  5
35E
100
AcDbEntity
  8
ASSI
100
AcDbLine
 62
7
  6
CONTINUOUS
 10
-5.45
 20
-13.4
 11
-5.45
 21
-1.9
  0
LINE
  5
35F
100
AcDbEntity
  8
DRAFT
100
AcDbLine
 62
7
  6
CONTINUOUS
 10
-5.45
 20
-4.0
 11
-5.45
 21
-1.9
  0
LINE
  5
360
100
AcDbEntity
  8
DRAFT
100
AcDbLine
 62
7
  6
CONTINUOUS
 10
-5.45
 20
-1.1
 11
-5.45
 21
11.63
  0
LINE
  5
361
100
AcDbEntity
  8
SMUSSO
100
AcDbLine
 62
7
  6
CONTINUOUS
 10
-5.45
 20
12.65
 11
-5.45
 21
13.4
  0
LINE
  5
362
100
AcDbEntity
  8
GUSCI_ESTERNI
100
AcDbLine
 62
7
  6
CONTINUOUS
 10
-5.45
 20
12.65
 11
-5.45
 21
13.4
  0
LINE
  5
363
100
AcDbEntity
  8
ASSI
100
AcDbLine
 62
7
  6
CONTINUOUS
 10
-5.45
 20
12.65
 11
-5.45
 21
13.4
  0
LINE
  5
364
100
AcDbEntity
  8
SMUSSO
100
AcDbLine
 62
7
  6
CONTINUOUS
 10
-5.45
 20
16.9
 11
-5.45
 21
17.65
  0
LINE
  5
365
100
AcDbEntity
  8
DRAFT
100
AcDbLine
 62
7
  6
CONTINUOUS
 10
-5.45
 20
17.65
 11
-5.45
 21
18.6325462644
  0
LINE
  5
366
100
AcDbEntity
  8
RACCORDO
100
AcDbLine
 62
7
  6
CONTINUOUS
 10
-5.45
 20
18.67
 11
-5.45
 21
21.7586507125
  0
LINE
  5
367
100
AcDbEntity
  8
GUSCI_ESTERNI
100
AcDbLine
 62
7
  6
CONTINUOUS
 10
-9.65
 20
-5.7797872305
 11
-9.7083334446
 21
-5.8989361525
  0
LINE
  5
368
100
AcDbEntity
  8
ASSI
100
AcDbLine
 62
7
  6
CONTINUOUS
 10
-9.65
 20
-5.7797872305
 11
-9.7083334446
 21
-5.8989361525
  0
LINE
  5
369
100
AcDbEntity
  8
ASSI
100
AcDbLine
 62
7
  6
CONTINUOUS
 10
11.0
 20
20.9
 11
10.8952696104
 21
20.7952696104
  0
LINE
  5
36A
100
AcDbEntity
  8
DRAFT
100
AcDbLine
 62
7
  6
CONTINUOUS
 10
11.0
 20
20.9
 11
10.8952696104
 21
20.7952696104
  0
LINE
  5
36B
100
AcDbEntity
  8
RACCORDO
100
AcDbLine
 62
7
  6
CONTINUOUS
 10
0.0
 20
9.0
 11
0.0044395892
 21
9.0044395892
  0
LINE
  5
36C
100
AcDbEntity
  8
0
100
AcDbLine
 62
7
  6
CONTINUOUS
 10
5.45
 20
13.7
 11
5.15
 21
13.4
  0
LINE
  5
36D
100
AcDbEntity
  8
ASSI
100
AcDbLine
 62
7
  6
CONTINUOUS
 10
12.5745506493
 20
20.2745506493
 11
12.4
 21
20.1
  0
LINE
  5
36E
100
AcDbEntity
  8
DRAFT
100
AcDbLine
 62
7
  6
CONTINUOUS
 10
12.5745506493
 20
20.2745506493
 11
12.4
 21
20.1
  0
LINE
  5
36F
100
AcDbEntity
  8
GUSCI_ESTERNI
100
AcDbLine
 62
7
  6
CONTINUOUS
 10
-10.85
 20
-6.5471250861
 11
-5.45
 21
-6.5
  0
LINE
  5
370
100
AcDbEntity
  8
ASSI
100
AcDbLine
 62
7
  6
CONTINUOUS
 10
-10.85
 20
-6.5471250861
 11
-5.45
 21
-6.5
  0
LINE
  5
371
100
AcDbEntity
  8
DRAFT
100
AcDbLine
 62
7
  6
CONTINUOUS
 10
-5.45
 20
-6.5
 11
-0.0
 21
-6.5
  0
LINE
  5
372
100
AcDbEntity
  8
DRAFT
100
AcDbLine
 62
7
  6
CONTINUOUS
 10
-5.45
 20
-6.4947634805
 11
-0.0052365195
 21
-6.4947634805
  0
LINE
  5
373
100
AcDbEntity
  8
GUSCI_ESTERNI
100
AcDbLine
 62
7
  6
CONTINUOUS
 10
-10.175
 20
-6.2563829184
 11
-9.9416665554
 21
-6.2563829184
  0
LINE
  5
374
100
AcDbEntity
  8
ASSI
100
AcDbLine
 62
7
  6
CONTINUOUS
 10
-10.175
 20
-6.2563829184
 11
-9.9416665554
 21
-6.2563829184
  0
LINE
  5
375
100
AcDbEntity
  8
GUSCI_ESTERNI
100
AcDbLine
 62
7
  6
CONTINUOUS
 10
-9.2416665554
 20
-6.2563829184
 11
-9.0083334446
 21
-6.2563829184
  0
LINE
  5
376
100
AcDbEntity
  8
ASSI
100
AcDbLine
 62
7
  6
CONTINUOUS
 10
-9.2416665554
 20
-6.2563829184
 11
-9.0083334446
 21
-6.2563829184
  0
LINE
  5
377
100
AcDbEntity
  8
GUSCI_ESTERNI
100
AcDbLine
 62
7
  6
CONTINUOUS
 10
-8.7166665554
 20
-6.2563829184
 11
-8.425
 21
-6.2563829184
  0
LINE
  5
378
100
AcDbEntity
  8
ASSI
100
AcDbLine
 62
7
  6
CONTINUOUS
 10
-8.7166665554
 20
-6.2563829184
 11
-8.425
 21
-6.2563829184
  0
LINE
  5
379
100
AcDbEntity
  8
GUSCI_ESTERNI
100
AcDbLine
 62
7
  6
CONTINUOUS
 10
-7.55
 20
-6.2563829184
 11
-7.3166667223
 21
-6.2563829184
  0
LINE
  5
37A
100
AcDbEntity
  8
ASSI
100
AcDbLine
 62
7
  6
CONTINUOUS
 10
-7.55
 20
-6.2563829184
 11
-7.3166667223
 21
-6.2563829184
  0
LINE
  5
37B
100
AcDbEntity
  8
GUSCI_ESTERNI
100
AcDbLine
 62
7
  6
CONTINUOUS
 10
-6.6166666389
 20
-6.2563829184
 11
-6.3833333194
 21
-6.2563829184
  0
LINE
  5
37C
100
AcDbEntity
  8
ASSI
100
AcDbLine
 62
7
  6
CONTINUOUS
 10
-6.6166666389
 20
-6.2563829184
 11
-6.3833333194
 21
-6.2563829184
  0
LINE
  5
37D
100
AcDbEntity
  8
GUSCI_ESTERNI
100
AcDbLine
 62
7
  6
CONTINUOUS
 10
-6.0916666597
 20
-6.2563829184
 11
-5.8
 21
-6.2563829184
  0
LINE
  5
37E
100
AcDbEntity
  8
ASSI
100
AcDbLine
 62
7
  6
CONTINUOUS
 10
-6.0916666597
 20
-6.2563829184
 11
-5.8
 21
-6.2563829184
  0
LINE
  5
37F
100
AcDbEntity
  8
0
100
AcDbLine
 62
7
  6
CONTINUOUS
 10
-4.8900000429
 20
-6.15
 11
-4.6200000429
 21
-6.15
  0
LINE
  5
380
100
AcDbEntity
  8
0
100
AcDbLine
 62
7
  6
CONTINUOUS
 10
-3.99
 20
-6.15
 11
-3.72
 21
-6.15
  0
LINE
  5
381
100
AcDbEntity
  8
GUSCI_ESTERNI
100
AcDbLine
 62
7
  6
CONTINUOUS
 10
-6.3833333194
 20
-6.0180850744
 11
-6.5
 21
-6.0180850744
  0
LINE
  5
382
100
AcDbEntity
  8
ASSI
100
AcDbLine
 62
7
  6
CONTINUOUS
 10
-6.3833333194
 20
-6.0180850744
 11
-6.5
 21
-6.0180850744
  0
LINE
  5
383
100
AcDbEntity
  8
GUSCI_ESTERNI
100
AcDbLine
 62
7
  6
CONTINUOUS
 10
-7.2583332777
 20
-6.0180850744
 11
-7.4333332777
 21
-6.0180850744
  0
LINE
  5
384
100
AcDbEntity
  8
ASSI
100
AcDbLine
 62
7
  6
CONTINUOUS
 10
-7.2583332777
 20
-6.0180850744
 11
-7.4333332777
 21
-6.0180850744
  0
LINE
  5
385
100
AcDbEntity
  8
GUSCI_ESTERNI
100
AcDbLine
 62
7
  6
CONTINUOUS
 10
-9.0083334446
 20
-6.0180850744
 11
-9.125
 21
-6.0180850744
  0
LINE
  5
386
100
AcDbEntity
  8
ASSI
100
AcDbLine
 62
7
  6
CONTINUOUS
 10
-9.0083334446
 20
-6.0180850744
 11
-9.125
 21
-6.0180850744
  0
LINE
  5
387
100
AcDbEntity
  8
GUSCI_ESTERNI
100
AcDbLine
 62
7
  6
CONTINUOUS
 10
-9.8833334446
 20
-6.0180850744
 11
-10.0583334446
 21
-6.0180850744
  0
LINE
  5
388
100
AcDbEntity
  8
ASSI
100
AcDbLine
 62
7
  6
CONTINUOUS
 10
-9.8833334446
 20
-6.0180850744
 11
-10.0583334446
 21
-6.0180850744
  0
LINE
  5
389
100
AcDbEntity
  8
0
100
AcDbLine
 62
7
  6
CONTINUOUS
 10
5.15
 20
-5.75
 11
4.65
 21
-5.75
  0
LINE
  5
38A
100
AcDbEntity
  8
0
100
AcDbLine
 62
7
  6
CONTINUOUS
 10
2.5666667461
 20
-5.75
 11
1.8166667461
 21
-5.75
  0
LINE
  5
38B
100
AcDbEntity
  8
ASSI
100
AcDbLine
 62
7
  6
CONTINUOUS
 10
10.8952696104
 20
-20.7952696104
 11
11.0
 21
-20.9
  0
LINE
  5
38C
100
AcDbEntity
  8
DRAFT
100
AcDbLine
 62
7
  6
CONTINUOUS
 10
10.8952696104
 20
-20.7952696104
 11
11.0
 21
-20.9
  0
LINE
  5
38D
100
AcDbEntity
  8
0
100
AcDbLine
 62
7
  6
CONTINUOUS
 10
4.7
 20
-13.4
 11
5.05
 21
-13.75
  0
LINE
  5
38E
100
AcDbEntity
  8
ASSI
100
AcDbLine
 62
7
  6
CONTINUOUS
 10
12.5745506493
 20
-20.2745506493
 11
12.4
 21
-20.1
  0
LINE
  5
38F
100
AcDbEntity
  8
DRAFT
100
AcDbLine
 62
7
  6
CONTINUOUS
 10
12.5745506493
 20
-20.2745506493
 11
12.4
 21
-20.1
  0
LINE
  5
390
100
AcDbEntity
  8
ASSI
100
AcDbLine
 62
7
  6
CONTINUOUS
 10
3.9
 20
-22.4615988572
 11
3.9680327869
 21
-22.6064758961
  0
LINE
  5
391
100
AcDbEntity
  8
DRAFT
100
AcDbLine
 62
7
  6
CONTINUOUS
 10
3.9
 20
-22.4615988572
 11
3.9680327869
 21
-22.6064758961
  0
LINE
  5
392
100
AcDbEntity
  8
ASSI
100
AcDbLine
 62
7
  6
CONTINUOUS
 10
-3.9918704627
 20
-22.6318437628
 11
-3.9680327869
 21
-23.25
  0
LINE
  5
393
100
AcDbEntity
  8
RACCORDO
100
AcDbLine
 62
7
  6
CONTINUOUS
 10
-3.9918704627
 20
-22.6318437628
 11
-3.9680327869
 21
-23.25
  0
LINE
  5
394
100
AcDbEntity
  8
ASSI
100
AcDbLine
 62
250
  6
CONTINUOUS
 10
-4.9918368712
 20
-22.4210294095
 11
-4.9918368712
 21
-21.7587268678
  0
LINE
  5
395
100
AcDbEntity
  8
RACCORDO
100
AcDbLine
 62
250
  6
CONTINUOUS
 10
-4.9918368712
 20
-22.4210294095
 11
-4.9918368712
 21
-21.7587268678
  0
LINE
  5
396
100
AcDbEntity
  8
0
100
AcDbLine
 62
7
  6
CONTINUOUS
 10
-4.8900000429
 20
-4.35
 11
-4.8900000429
 21
-6.15
  0
LINE
  5
397
100
AcDbEntity
  8
0
100
AcDbLine
 62
7
  6
CONTINUOUS
 10
-4.6200000429
 20
-5.8436170578
 11
-4.6200000429
 21
-4.35
  0
LINE
  5
398
100
AcDbEntity
  8
RACCORDO
100
AcDbLine
 62
7
  6
CONTINUOUS
 10
-4.5
 20
-24.8102553526
 11
-4.5
 21
-24.1825804722
  0
LINE
  5
399
100
AcDbEntity
  8
RACCORDO
100
AcDbLine
 62
7
  6
CONTINUOUS
 10
-4.5
 20
24.1825804722
 11
-4.5
 21
24.8102553526
  0
LINE
  5
39A
100
AcDbEntity
  8
0
100
AcDbLine
 62
7
  6
CONTINUOUS
 10
-4.3499999785
 20
-5.8819149256
 11
-4.3499999785
 21
-5.5755318761
  0
LINE
  5
39B
100
AcDbEntity
  8
RACCORDO
100
AcDbLine
 62
250
  6
CONTINUOUS
 10
-4.3
 20
24.8535432754
 11
-4.3
 21
24.4630248726
  0
LINE
  5
39C
100
AcDbEntity
  8
RACCORDO
100
AcDbLine
 62
250
  6
CONTINUOUS
 10
-4.3
 20
-24.8535432754
 11
-4.3
 21
-24.4630248726
  0
LINE
  5
39D
100
AcDbEntity
  8
0
100
AcDbLine
 62
7
  6
CONTINUOUS
 10
-4.2565
 20
-13.4
 11
-4.2565
 21
-16.9
  0
LINE
  5
39E
100
AcDbEntity
  8
0
100
AcDbLine
 62
7
  6
CONTINUOUS
 10
-4.2565
 20
13.4
 11
-4.2565
 21
16.9
  0
LINE
  5
39F
100
AcDbEntity
  8
ASSI
100
AcDbLine
 62
7
  6
CONTINUOUS
 10
-4.0
 20
21.7587268678
 11
-4.0
 21
22.4210294095
  0
LINE
  5
3A0
100
AcDbEntity
  8
DRAFT
100
AcDbLine
 62
7
  6
CONTINUOUS
 10
-4.0
 20
21.7587268678
 11
-4.0
 21
22.4210294095
  0
LINE
  5
3A1
100
AcDbEntity
  8
ASSI
100
AcDbLine
 62
250
  6
CONTINUOUS
 10
-3.9918704627
 20
-22.6318437628
 11
-3.9918704627
 21
-21.7587268678
  0
LINE
  5
3A2
100
AcDbEntity
  8
RACCORDO
100
AcDbLine
 62
250
  6
CONTINUOUS
 10
-3.9918704627
 20
-22.6318437628
 11
-3.9918704627
 21
-21.7587268678
  0
LINE
  5
3A3
100
AcDbEntity
  8
0
100
AcDbLine
 62
7
  6
CONTINUOUS
 10
-3.99
 20
-4.35
 11
-3.99
 21
-6.15
  0
LINE
  5
3A4
100
AcDbEntity
  8
ASSI
100
AcDbLine
 62
7
  6
CONTINUOUS
 10
-3.9680327869
 20
-23.25
 11
-3.9680327869
 21
-22.6064758961
  0
LINE
  5
3A5
100
AcDbEntity
  8
DRAFT
100
AcDbLine
 62
7
  6
CONTINUOUS
 10
-3.9680327869
 20
-23.25
 11
-3.9680327869
 21
-22.6064758961
  0
LINE
  5
3A6
100
AcDbEntity
  8
ASSI
100
AcDbLine
 62
7
  6
CONTINUOUS
 10
-3.9680327869
 20
22.7
 11
-3.9680327869
 21
23.25
  0
LINE
  5
3A7
100
AcDbEntity
  8
RACCORDO
100
AcDbLine
 62
7
  6
CONTINUOUS
 10
-3.9680327869
 20
22.7
 11
-3.9680327869
 21
23.25
  0
LINE
  5
3A8
100
AcDbEntity
  8
RACCORDO
100
AcDbLine
 62
250
  6
CONTINUOUS
 10
-3.95
 20
23.4568669008
 11
-3.95
 21
23.0663484979
  0
LINE
  5
3A9
100
AcDbEntity
  8
0
100
AcDbLine
 62
7
  6
CONTINUOUS
 10
-3.95
 20
16.9
 11
-3.95
 21
13.4
  0
LINE
  5
3AA
100
AcDbEntity
  8
RACCORDO
100
AcDbLine
 62
250
  6
CONTINUOUS
 10
-3.95
 20
-23.4568669008
 11
-3.95
 21
-23.0663484979
  0
LINE
  5
3AB
100
AcDbEntity
  8
0
100
AcDbLine
 62
7
  6
CONTINUOUS
 10
-3.95
 20
-16.9
 11
-3.95
 21
-13.4
  0
LINE
  5
3AC
100
AcDbEntity
  8
ASSI
100
AcDbLine
 62
7
  6
CONTINUOUS
 10
-3.9
 20
22.5
 11
-3.9
 21
21.7587268678
  0
LINE
  5
3AD
100
AcDbEntity
  8
DRAFT
100
AcDbLine
 62
7
  6
CONTINUOUS
 10
-3.9
 20
22.5
 11
-3.9
 21
21.7587268678
  0
LINE
  5
3AE
100
AcDbEntity
  8
ASSI
100
AcDbLine
 62
7
  6
CONTINUOUS
 10
-3.9
 20
-21.7587268678
 11
-3.9
 21
-22.4615988572
  0
LINE
  5
3AF
100
AcDbEntity
  8
DRAFT
100
AcDbLine
 62
7
  6
CONTINUOUS
 10
-3.9
 20
-21.7587268678
 11
-3.9
 21
-22.4615988572
  0
LINE
  5
3B0
100
AcDbEntity
  8
ASSI
100
AcDbLine
 62
7
  6
CONTINUOUS
 10
-3.85
 20
-21.7587268678
 11
-3.85
 21
-21.8162234303
  0
LINE
  5
3B1
100
AcDbEntity
  8
ASSI
100
AcDbLine
 62
7
  6
CONTINUOUS
 10
-3.85
 20
21.7587268678
 11
-3.85
 21
21.8162234303
  0
LINE
  5
3B2
100
AcDbEntity
  8
ASSI
100
AcDbLine
 62
7
  6
CONTINUOUS
 10
-3.75
 20
-21.7587268678
 11
-3.75
 21
-22.2162234094
  0
LINE
  5
3B3
100
AcDbEntity
  8
0
100
AcDbLine
 62
7
  6
CONTINUOUS
 10
-3.75
 20
-22.2162234272
 11
-3.75
 21
-22.997260236
  0
LINE
  5
3B4
100
AcDbEntity
  8
RACCORDO
100
AcDbLine
 62
7
  6
CONTINUOUS
 10
-3.75
 20
-22.997260236
 11
-3.75
 21
-23.413578978
  0
LINE
  5
3B5
100
AcDbEntity
  8
ASSI
100
AcDbLine
 62
7
  6
CONTINUOUS
 10
-3.75
 20
21.7587268678
 11
-3.75
 21
22.2162234092
  0
LINE
  5
3B6
100
AcDbEntity
  8
0
100
AcDbLine
 62
7
  6
CONTINUOUS
 10
-3.75
 20
22.2162234271
 11
-3.75
 21
22.997260236
  0
LINE
  5
3B7
100
AcDbEntity
  8
RACCORDO
100
AcDbLine
 62
7
  6
CONTINUOUS
 10
-3.75
 20
22.997260236
 11
-3.75
 21
23.413578978
  0
LINE
  5
3B8
100
AcDbEntity
  8
0
100
AcDbLine
 62
7
  6
CONTINUOUS
 10
-3.72
 20
-5.8436170578
 11
-3.72
 21
-4.35
  0
LINE
  5
3B9
100
AcDbEntity
  8
ASSI
100
AcDbLine
 62
7
  6
CONTINUOUS
 10
-3.9680327869
 20
23.25
 11
-4.0
 21
22.4210294095
  0
LINE
  5
3BA
100
AcDbEntity
  8
0
100
AcDbLine
 62
7
  6
CONTINUOUS
 10
-3.9680327869
 20
23.25
 11
-4.0
 21
22.4210294095
  0
LINE
  5
3BB
100
AcDbEntity
  8
GUSCI_ESTERNI
100
AcDbLine
 62
7
  6
CONTINUOUS
 10
-7.025
 20
-5.7797872305
 11
-7.0833333611
 21
-5.8989361525
  0
LINE
  5
3BC
100
AcDbEntity
  8
ASSI
100
AcDbLine
 62
7
  6
CONTINUOUS
 10
-7.025
 20
-5.7797872305
 11
-7.0833333611
 21
-5.8989361525
  0
LINE
  5
3BD
100
AcDbEntity
  8
0
100
AcDbLine
 62
7
  6
CONTINUOUS
 10
-3.72
 20
-4.35
 11
-3.99
 21
-4.35
  0
LINE
  5
3BE
100
AcDbEntity
  8
0
100
AcDbLine
 62
7
  6
CONTINUOUS
 10
-4.6200000429
 20
-4.35
 11
-4.8900000429
 21
-4.35
  0
LINE
  5
3BF
100
AcDbEntity
  8
GUSCI_ESTERNI
100
AcDbLine
 62
7
  6
CONTINUOUS
 10
-5.8
 20
-4.35
 11
-6.0916666597
 21
-4.35
  0
LINE
  5
3C0
100
AcDbEntity
  8
ASSI
100
AcDbLine
 62
7
  6
CONTINUOUS
 10
-5.8
 20
-4.35
 11
-6.0916666597
 21
-4.35
  0
LINE
  5
3C1
100
AcDbEntity
  8
GUSCI_ESTERNI
100
AcDbLine
 62
7
  6
CONTINUOUS
 10
-6.7333333611
 20
-4.35
 11
-7.025
 21
-4.35
  0
LINE
  5
3C2
100
AcDbEntity
  8
ASSI
100
AcDbLine
 62
7
  6
CONTINUOUS
 10
-6.7333333611
 20
-4.35
 11
-7.025
 21
-4.35
  0
LINE
  5
3C3
100
AcDbEntity
  8
GUSCI_ESTERNI
100
AcDbLine
 62
7
  6
CONTINUOUS
 10
-7.6666667223
 20
-4.35
 11
-7.9583332777
 21
-4.35
  0
LINE
  5
3C4
100
AcDbEntity
  8
ASSI
100
AcDbLine
 62
7
  6
CONTINUOUS
 10
-7.6666667223
 20
-4.35
 11
-7.9583332777
 21
-4.35
  0
LINE
  5
3C5
100
AcDbEntity
  8
GUSCI_ESTERNI
100
AcDbLine
 62
7
  6
CONTINUOUS
 10
-8.425
 20
-4.35
 11
-8.7166665554
 21
-4.35
  0
LINE
  5
3C6
100
AcDbEntity
  8
ASSI
100
AcDbLine
 62
7
  6
CONTINUOUS
 10
-8.425
 20
-4.35
 11
-8.7166665554
 21
-4.35
  0
LINE
  5
3C7
100
AcDbEntity
  8
GUSCI_ESTERNI
100
AcDbLine
 62
7
  6
CONTINUOUS
 10
-9.3583334446
 20
-4.35
 11
-9.65
 21
-4.35
  0
LINE
  5
3C8
100
AcDbEntity
  8
ASSI
100
AcDbLine
 62
7
  6
CONTINUOUS
 10
-9.3583334446
 20
-4.35
 11
-9.65
 21
-4.35
  0
LINE
  5
3C9
100
AcDbEntity
  8
GUSCI_ESTERNI
100
AcDbLine
 62
7
  6
CONTINUOUS
 10
-10.2916665554
 20
-4.35
 11
-10.5833334446
 21
-4.35
  0
LINE
  5
3CA
100
AcDbEntity
  8
ASSI
100
AcDbLine
 62
7
  6
CONTINUOUS
 10
-10.2916665554
 20
-4.35
 11
-10.5833334446
 21
-4.35
  0
LINE
  5
3CB
100
AcDbEntity
  8
DRAFT
100
AcDbLine
 62
7
  6
CONTINUOUS
 10
5.45
 20
-4.0052365195
 11
1.4552365195
 21
-4.0052365195
  0
LINE
  5
3CC
100
AcDbEntity
  8
DRAFT
100
AcDbLine
 62
7
  6
CONTINUOUS
 10
-0.0052365195
 20
-4.0052365195
 11
-5.45
 21
-4.0052365195
  0
LINE
  5
3CD
100
AcDbEntity
  8
DRAFT
100
AcDbLine
 62
7
  6
CONTINUOUS
 10
-5.45
 20
-4.0
 11
0.0
 21
-4.0
  0
LINE
  5
3CE
100
AcDbEntity
  8
DRAFT
100
AcDbLine
 62
7
  6
CONTINUOUS
 10
5.45
 20
-4.0
 11
1.45
 21
-4.0
  0
LINE
  5
3CF
100
AcDbEntity
  8
GUSCI_ESTERNI
100
AcDbLine
 62
7
  6
CONTINUOUS
 10
-10.85
 20
-3.9528749139
 11
-5.45
 21
-4.0
  0
LINE
  5
3D0
100
AcDbEntity
  8
ASSI
100
AcDbLine
 62
7
  6
CONTINUOUS
 10
-10.85
 20
-3.9528749139
 11
-5.45
 21
-4.0
  0
LINE
  5
3D1
100
AcDbEntity
  8
DRAFT
100
AcDbLine
 62
7
  6
CONTINUOUS
 10
-0.0
 20
-6.5
 11
-0.0052365195
 21
-6.4947634805
  0
LINE
  5
3D2
100
AcDbEntity
  8
0
100
AcDbLine
 62
7
  6
CONTINUOUS
 10
-3.45
 20
-5.8819149256
 11
-3.45
 21
-5.5755318761
  0
LINE
  5
3D3
100
AcDbEntity
  8
RACCORDO
100
AcDbLine
 62
250
  6
CONTINUOUS
 10
-2.25
 20
17.15
 11
-2.25
 21
16.9
  0
LINE
  5
3D4
100
AcDbEntity
  8
RACCORDO
100
AcDbLine
 62
250
  6
CONTINUOUS
 10
-2.25
 20
13.4
 11
-2.25
 21
13.15
  0
LINE
  5
3D5
100
AcDbEntity
  8
RACCORDO
100
AcDbLine
 62
250
  6
CONTINUOUS
 10
-2.25
 20
-13.15
 11
-2.25
 21
-13.4
  0
LINE
  5
3D6
100
AcDbEntity
  8
RACCORDO
100
AcDbLine
 62
250
  6
CONTINUOUS
 10
-2.25
 20
-16.9
 11
-2.25
 21
-17.15
  0
LINE
  5
3D7
100
AcDbEntity
  8
ASSI
100
AcDbLine
 62
7
  6
CONTINUOUS
 10
-12.0223012463
 20
-20.2745506493
 11
-11.95
 21
-20.1
  0
LINE
  5
3D8
100
AcDbEntity
  8
DRAFT
100
AcDbLine
 62
7
  6
CONTINUOUS
 10
-12.0223012463
 20
-20.2745506493
 11
-11.95
 21
-20.1
  0
LINE
  5
3D9
100
AcDbEntity
  8
ASSI
100
AcDbLine
 62
7
  6
CONTINUOUS
 10
-11.15
 20
-20.9
 11
-11.2223012463
 21
-21.0745506493
  0
LINE
  5
3DA
100
AcDbEntity
  8
DRAFT
100
AcDbLine
 62
7
  6
CONTINUOUS
 10
-11.15
 20
-20.9
 11
-11.2223012463
 21
-21.0745506493
  0
LINE
  5
3DB
100
AcDbEntity
  8
GUSCI_ESTERNI
100
AcDbLine
 62
7
  6
CONTINUOUS
 10
-9.7083334446
 20
-5.8989361525
 11
-9.7666665554
 21
-5.9585106134
  0
LINE
  5
3DC
100
AcDbEntity
  8
ASSI
100
AcDbLine
 62
7
  6
CONTINUOUS
 10
-9.7083334446
 20
-5.8989361525
 11
-9.7666665554
 21
-5.9585106134
  0
LINE
  5
3DD
100
AcDbEntity
  8
GUSCI_ESTERNI
100
AcDbLine
 62
7
  6
CONTINUOUS
 10
-9.7666665554
 20
-6.1968084574
 11
-9.5916665554
 21
-6.0180850744
  0
LINE
  5
3DE
100
AcDbEntity
  8
ASSI
100
AcDbLine
 62
7
  6
CONTINUOUS
 10
-9.7666665554
 20
-6.1968084574
 11
-9.5916665554
 21
-6.0180850744
  0
LINE
  5
3DF
100
AcDbEntity
  8
GUSCI_ESTERNI
100
AcDbLine
 62
7
  6
CONTINUOUS
 10
-8.7166665554
 20
-5.8393616915
 11
-8.8333334446
 21
-5.9585106134
  0
LINE
  5
3E0
100
AcDbEntity
  8
ASSI
100
AcDbLine
 62
7
  6
CONTINUOUS
 10
-8.7166665554
 20
-5.8393616915
 11
-8.8333334446
 21
-5.9585106134
  0
LINE
  5
3E1
100
AcDbEntity
  8
GUSCI_ESTERNI
100
AcDbLine
 62
7
  6
CONTINUOUS
 10
-8.8333334446
 20
-6.1968084574
 11
-8.7166665554
 21
-6.0776595354
  0
LINE
  5
3E2
100
AcDbEntity
  8
ASSI
100
AcDbLine
 62
7
  6
CONTINUOUS
 10
-8.8333334446
 20
-6.1968084574
 11
-8.7166665554
 21
-6.0776595354
  0
LINE
  5
3E3
100
AcDbEntity
  8
DRAFT
100
AcDbLine
 62
7
  6
CONTINUOUS
 10
1.45
 20
4.0
 11
1.4552365195
 21
4.0052365195
  0
LINE
  5
3E4
100
AcDbEntity
  8
GUSCI_ESTERNI
100
AcDbLine
 62
7
  6
CONTINUOUS
 10
5.45
 20
-1.9
 11
6.05
 21
-1.9
  0
LINE
  5
3E5
100
AcDbEntity
  8
GUSCI_ESTERNI
100
AcDbLine
 62
7
  6
CONTINUOUS
 10
-5.45
 20
-1.9
 11
-6.05
 21
-1.9
  0
LINE
  5
3E6
100
AcDbEntity
  8
ASSI
100
AcDbLine
 62
7
  6
CONTINUOUS
 10
-5.45
 20
-1.9
 11
-6.05
 21
-1.9
  0
LINE
  5
3E7
100
AcDbEntity
  8
DRAFT
100
AcDbLine
 62
7
  6
CONTINUOUS
 10
1.45
 20
-4.0
 11
1.4552365195
 21
-4.0052365195
  0
LINE
  5
3E8
100
AcDbEntity
  8
ASSI
100
AcDbLine
 62
7
  6
CONTINUOUS
 10
-12.0223012463
 20
20.2745506493
 11
-11.95
 21
20.1
  0
LINE
  5
3E9
100
AcDbEntity
  8
DRAFT
100
AcDbLine
 62
7
  6
CONTINUOUS
 10
-12.0223012463
 20
20.2745506493
 11
-11.95
 21
20.1
  0
LINE
  5
3EA
100
AcDbEntity
  8
ASSI
100
AcDbLine
 62
7
  6
CONTINUOUS
 10
-11.2223012463
 20
21.0745506493
 11
-11.15
 21
20.9
  0
LINE
  5
3EB
100
AcDbEntity
  8
DRAFT
100
AcDbLine
 62
7
  6
CONTINUOUS
 10
-11.2223012463
 20
21.0745506493
 11
-11.15
 21
20.9
  0
LINE
  5
3EC
100
AcDbEntity
  8
DRAFT
100
AcDbLine
 62
7
  6
CONTINUOUS
 10
0.0130903017
 20
-14.1980762114
 11
-0.0
 21
-11.6
  0
LINE
  5
3ED
100
AcDbEntity
  8
RACCORDO
100
AcDbLine
 62
250
  6
CONTINUOUS
 10
-1.4
 20
24.8535432754
 11
-1.4
 21
24.4630248726
  0
LINE
  5
3EE
100
AcDbEntity
  8
RACCORDO
100
AcDbLine
 62
250
  6
CONTINUOUS
 10
-1.4
 20
-24.8535432754
 11
-1.4
 21
-24.4630248726
  0
LINE
  5
3EF
100
AcDbEntity
  8
RACCORDO
100
AcDbLine
 62
7
  6
CONTINUOUS
 10
-1.25
 20
16.1192235936
 11
-1.25
 21
14.1807764064
  0
LINE
  5
3F0
100
AcDbEntity
  8
RACCORDO
100
AcDbLine
 62
7
  6
CONTINUOUS
 10
-1.25
 20
-14.1807764064
 11
-1.25
 21
-16.1192235936
  0
LINE
  5
3F1
100
AcDbEntity
  8
RACCORDO
100
AcDbLine
 62
7
  6
CONTINUOUS
 10
-1.2
 20
24.8102553526
 11
-1.2
 21
24.1825804722
  0
LINE
  5
3F2
100
AcDbEntity
  8
RACCORDO
100
AcDbLine
 62
7
  6
CONTINUOUS
 10
-1.2
 20
-24.1825804722
 11
-1.2
 21
-24.8102553526
  0
LINE
  5
3F3
100
AcDbEntity
  8
RACCORDO
100
AcDbLine
 62
7
  6
CONTINUOUS
 10
-0.75
 20
16.1500571154
 11
-0.75
 21
14.1499428846
  0
LINE
  5
3F4
100
AcDbEntity
  8
RACCORDO
100
AcDbLine
 62
7
  6
CONTINUOUS
 10
-0.7325462644
 20
16.167510851
 11
-0.7325462644
 21
14.132489149
  0
LINE
  5
3F5
100
AcDbEntity
  8
DRAFT
100
AcDbLine
 62
7
  6
CONTINUOUS
 10
-0.0052365195
 20
-6.4947634805
 11
-0.0052365195
 21
-4.0052365195
  0
LINE
  5
3F6
100
AcDbEntity
  8
RACCORDO
100
AcDbLine
 62
7
  6
CONTINUOUS
 10
-0.0
 20
-20.7586887894
 11
-0.0
 21
-11.6
  0
LINE
  5
3F7
100
AcDbEntity
  8
DRAFT
100
AcDbLine
 62
7
  6
CONTINUOUS
 10
-0.0
 20
-6.5
 11
0.0
 21
-4.0
  0
LINE
  5
3F8
100
AcDbEntity
  8
DRAFT
100
AcDbLine
 62
7
  6
CONTINUOUS
 10
0.0
 20
9.0
 11
0.0
 21
11.65
  0
LINE
  5
3F9
100
AcDbEntity
  8
RACCORDO
100
AcDbLine
 62
7
  6
CONTINUOUS
 10
0.0130903017
 20
-19.7542872771
 11
0.0130903017
 21
-14.1980762114
  0
LINE
  5
3FA
100
AcDbEntity
  8
RACCORDO
100
AcDbLine
 62
7
  6
CONTINUOUS
 10
0.0130903017
 20
10.0044015123
 11
0.0130903017
 21
11.6630903017
  0
LINE
  5
3FB
100
AcDbEntity
  8
GUSCI_ESTERNI
100
AcDbLine
 62
7
  6
CONTINUOUS
 10
-7.0833333611
 20
-5.8989361525
 11
-7.1416666389
 21
-5.9585106134
  0
LINE
  5
3FC
100
AcDbEntity
  8
ASSI
100
AcDbLine
 62
7
  6
CONTINUOUS
 10
-7.0833333611
 20
-5.8989361525
 11
-7.1416666389
 21
-5.9585106134
  0
LINE
  5
3FD
100
AcDbEntity
  8
GUSCI_ESTERNI
100
AcDbLine
 62
7
  6
CONTINUOUS
 10
-7.1416666389
 20
-6.1968084574
 11
-6.9666666389
 21
-6.0180850744
  0
LINE
  5
3FE
100
AcDbEntity
  8
ASSI
100
AcDbLine
 62
7
  6
CONTINUOUS
 10
-7.1416666389
 20
-6.1968084574
 11
-6.9666666389
 21
-6.0180850744
  0
LINE
  5
3FF
100
AcDbEntity
  8
GUSCI_ESTERNI
100
AcDbLine
 62
7
  6
CONTINUOUS
 10
-6.0916666597
 20
-5.8393616915
 11
-6.2083333194
 21
-5.9585106134
  0
LINE
  5
400
100
AcDbEntity
  8
ASSI
100
AcDbLine
 62
7
  6
CONTINUOUS
 10
-6.0916666597
 20
-5.8393616915
 11
-6.2083333194
 21
-5.9585106134
  0
LINE
  5
401
100
AcDbEntity
  8
GUSCI_ESTERNI
100
AcDbLine
 62
7
  6
CONTINUOUS
 10
-6.2083333194
 20
-6.1968084574
 11
-6.0916666597
 21
-6.0776595354
  0
LINE
  5
402
100
AcDbEntity
  8
ASSI
100
AcDbLine
 62
7
  6
CONTINUOUS
 10
-6.2083333194
 20
-6.1968084574
 11
-6.0916666597
 21
-6.0776595354
  0
LINE
  5
403
100
AcDbEntity
  8
GUSCI_ESTERNI
100
AcDbLine
 62
7
  6
CONTINUOUS
 10
5.45
 20
-1.1
 11
6.05
 21
-1.1
  0
LINE
  5
404
100
AcDbEntity
  8
GUSCI_ESTERNI
100
AcDbLine
 62
7
  6
CONTINUOUS
 10
-5.45
 20
-1.1
 11
-6.05
 21
-1.1
  0
LINE
  5
405
100
AcDbEntity
  8
ASSI
100
AcDbLine
 62
7
  6
CONTINUOUS
 10
-5.45
 20
-1.1
 11
-6.05
 21
-1.1
  0
LINE
  5
406
100
AcDbEntity
  8
0
100
AcDbLine
 62
7
  6
CONTINUOUS
 10
2.3166667461
 20
-6.3457446694
 11
4.4
 21
-9.75
  0
LINE
  5
407
100
AcDbEntity
  8
0
100
AcDbLine
 62
7
  6
CONTINUOUS
 10
4.65
 20
-9.239361763
 11
2.5666667461
 21
-5.75
  0
LINE
  5
408
100
AcDbEntity
  8
RACCORDO
100
AcDbLine
 62
7
  6
CONTINUOUS
 10
0.7325462644
 20
14.132489149
 11
0.7325462644
 21
16.167510851
  0
LINE
  5
409
100
AcDbEntity
  8
RACCORDO
100
AcDbLine
 62
7
  6
CONTINUOUS
 10
0.75
 20
14.1499428846
 11
0.75
 21
16.1500571154
  0
LINE
  5
40A
100
AcDbEntity
  8
RACCORDO
100
AcDbLine
 62
7
  6
CONTINUOUS
 10
1.1869096983
 20
11.6630903017
 11
1.1869096983
 21
10.0044015123
  0
LINE
  5
40B
100
AcDbEntity
  8
RACCORDO
100
AcDbLine
 62
7
  6
CONTINUOUS
 10
1.1869096983
 20
-19.7542872771
 11
1.1869096983
 21
-14.1980762114
  0
LINE
  5
40C
100
AcDbEntity
  8
RACCORDO
100
AcDbLine
 62
7
  6
CONTINUOUS
 10
1.2
 20
-24.8102553526
 11
1.2
 21
-24.1825804722
  0
LINE
  5
40D
100
AcDbEntity
  8
RACCORDO
100
AcDbLine
 62
7
  6
CONTINUOUS
 10
1.2
 20
-20.7586887894
 11
1.2
 21
-11.6
  0
LINE
  5
40E
100
AcDbEntity
  8
DRAFT
100
AcDbLine
 62
7
  6
CONTINUOUS
 10
1.2
 20
9.0
 11
1.2
 21
11.65
  0
LINE
  5
40F
100
AcDbEntity
  8
RACCORDO
100
AcDbLine
 62
7
  6
CONTINUOUS
 10
1.2
 20
24.1825804722
 11
1.2
 21
24.8102553526
  0
LINE
  5
410
100
AcDbEntity
  8
RACCORDO
100
AcDbLine
 62
7
  6
CONTINUOUS
 10
1.25
 20
-16.1192235936
 11
1.25
 21
-14.1807764064
  0
LINE
  5
411
100
AcDbEntity
  8
RACCORDO
100
AcDbLine
 62
7
  6
CONTINUOUS
 10
1.25
 20
14.1807764064
 11
1.25
 21
16.1192235936
  0
LINE
  5
412
100
AcDbEntity
  8
RACCORDO
100
AcDbLine
 62
250
  6
CONTINUOUS
 10
1.4
 20
24.8535432754
 11
1.4
 21
24.4630248726
  0
LINE
  5
413
100
AcDbEntity
  8
RACCORDO
100
AcDbLine
 62
250
  6
CONTINUOUS
 10
1.4
 20
-24.8535432754
 11
1.4
 21
-24.4630248726
  0
LINE
  5
414
100
AcDbEntity
  8
DRAFT
100
AcDbLine
 62
7
  6
CONTINUOUS
 10
1.45
 20
11.5
 11
1.45
 21
4.0
  0
LINE
  5
415
100
AcDbEntity
  8
DRAFT
100
AcDbLine
 62
7
  6
CONTINUOUS
 10
1.45
 20
-4.0
 11
1.45
 21
-11.5
  0
LINE
  5
416
100
AcDbEntity
  8
DRAFT
100
AcDbLine
 62
7
  6
CONTINUOUS
 10
1.4552365195
 20
11.4947634805
 11
1.4552365195
 21
4.0052365195
  0
LINE
  5
417
100
AcDbEntity
  8
DRAFT
100
AcDbLine
 62
7
  6
CONTINUOUS
 10
1.4552365195
 20
-4.0052365195
 11
1.4552365195
 21
-11.4947634805
  0
LINE
  5
418
100
AcDbEntity
  8
0
100
AcDbLine
 62
7
  6
CONTINUOUS
 10
1.8166667461
 20
9.75
 11
1.8166667461
 21
5.75
  0
LINE
  5
419
100
AcDbEntity
  8
0
100
AcDbLine
 62
7
  6
CONTINUOUS
 10
1.8166667461
 20
-5.75
 11
1.8166667461
 21
-9.75
  0
LINE
  5
41A
100
AcDbEntity
  8
DRAFT
100
AcDbLine
 62
7
  6
CONTINUOUS
 10
1.1869096983
 20
-14.1980762114
 11
1.2
 21
-11.6
  0
LINE
  5
41B
100
AcDbEntity
  8
0
100
AcDbLine
 62
7
  6
CONTINUOUS
 10
-4.3499999785
 20
-5.5755318761
 11
-4.6200000429
 21
-5.8436170578
  0
LINE
  5
41C
100
AcDbEntity
  8
0
100
AcDbLine
 62
7
  6
CONTINUOUS
 10
-4.6200000429
 20
-6.15
 11
-4.3499999785
 21
-5.8819149256
  0
LINE
  5
41D
100
AcDbEntity
  8
0
100
AcDbLine
 62
7
  6
CONTINUOUS
 10
-3.45
 20
-5.5755318761
 11
-3.72
 21
-5.8436170578
  0
LINE
  5
41E
100
AcDbEntity
  8
0
100
AcDbLine
 62
7
  6
CONTINUOUS
 10
-3.72
 20
-6.15
 11
-3.45
 21
-5.8819149256
  0
LINE
  5
41F
100
AcDbEntity
  8
GUSCI_ESTERNI
100
AcDbLine
 62
7
  6
CONTINUOUS
 10
-9.7666665554
 20
-5.9585106134
 11
-9.8833334446
 21
-6.0180850744
  0
LINE
  5
420
100
AcDbEntity
  8
ASSI
100
AcDbLine
 62
7
  6
CONTINUOUS
 10
-9.7666665554
 20
-5.9585106134
 11
-9.8833334446
 21
-6.0180850744
  0
LINE
  5
421
100
AcDbEntity
  8
GUSCI_ESTERNI
100
AcDbLine
 62
7
  6
CONTINUOUS
 10
-7.1416666389
 20
-5.9585106134
 11
-7.2583332777
 21
-6.0180850744
  0
LINE
  5
422
100
AcDbEntity
  8
ASSI
100
AcDbLine
 62
7
  6
CONTINUOUS
 10
-7.1416666389
 20
-5.9585106134
 11
-7.2583332777
 21
-6.0180850744
  0
LINE
  5
423
100
AcDbEntity
  8
RACCORDO
100
AcDbLine
 62
250
  6
CONTINUOUS
 10
2.25
 20
-17.15
 11
2.25
 21
-16.9
  0
LINE
  5
424
100
AcDbEntity
  8
RACCORDO
100
AcDbLine
 62
250
  6
CONTINUOUS
 10
2.25
 20
-13.4
 11
2.25
 21
-13.15
  0
LINE
  5
425
100
AcDbEntity
  8
RACCORDO
100
AcDbLine
 62
250
  6
CONTINUOUS
 10
2.25
 20
13.15
 11
2.25
 21
13.4
  0
LINE
  5
426
100
AcDbEntity
  8
RACCORDO
100
AcDbLine
 62
250
  6
CONTINUOUS
 10
2.25
 20
16.9
 11
2.25
 21
17.15
  0
LINE
  5
427
100
AcDbEntity
  8
0
100
AcDbLine
 62
7
  6
CONTINUOUS
 10
2.3166667461
 20
-9.75
 11
2.3166667461
 21
-6.3457446694
  0
LINE
  5
428
100
AcDbEntity
  8
0
100
AcDbLine
 62
7
  6
CONTINUOUS
 10
2.3166667461
 20
5.75
 11
2.3166667461
 21
9.1542553306
  0
LINE
  5
429
100
AcDbEntity
  8
0
100
AcDbLine
 62
7
  6
CONTINUOUS
 10
3.55
 20
-16.9
 11
3.55
 21
-13.4
  0
LINE
  5
42A
100
AcDbEntity
  8
ASSI
100
AcDbLine
 62
7
  6
CONTINUOUS
 10
3.75
 20
-21.7587268678
 11
3.75
 21
-22.2162234092
  0
LINE
  5
42B
100
AcDbEntity
  8
0
100
AcDbLine
 62
7
  6
CONTINUOUS
 10
3.75
 20
-22.2162234271
 11
3.75
 21
-22.997260236
  0
LINE
  5
42C
100
AcDbEntity
  8
RACCORDO
100
AcDbLine
 62
7
  6
CONTINUOUS
 10
3.75
 20
-22.997260236
 11
3.75
 21
-23.413578978
  0
LINE
  5
42D
100
AcDbEntity
  8
ASSI
100
AcDbLine
 62
7
  6
CONTINUOUS
 10
3.75
 20
21.7587268678
 11
3.75
 21
22.2162234094
  0
LINE
  5
42E
100
AcDbEntity
  8
0
100
AcDbLine
 62
7
  6
CONTINUOUS
 10
3.75
 20
22.2162234272
 11
3.75
 21
22.997260236
  0
LINE
  5
42F
100
AcDbEntity
  8
RACCORDO
100
AcDbLine
 62
7
  6
CONTINUOUS
 10
3.75
 20
22.997260236
 11
3.75
 21
23.413578978
  0
LINE
  5
430
100
AcDbEntity
  8
ASSI
100
AcDbLine
 62
7
  6
CONTINUOUS
 10
3.85
 20
-21.7587268678
 11
3.85
 21
-21.8162234303
  0
LINE
  5
431
100
AcDbEntity
  8
ASSI
100
AcDbLine
 62
7
  6
CONTINUOUS
 10
3.85
 20
21.7587268678
 11
3.85
 21
21.8162234303
  0
LINE
  5
432
100
AcDbEntity
  8
0
100
AcDbLine
 62
7
  6
CONTINUOUS
 10
3.8565
 20
-13.4
 11
3.8565
 21
-16.9
  0
LINE
  5
433
100
AcDbEntity
  8
ASSI
100
AcDbLine
 62
7
  6
CONTINUOUS
 10
3.9
 20
22.5
 11
3.9
 21
21.7587268678
  0
LINE
  5
434
100
AcDbEntity
  8
DRAFT
100
AcDbLine
 62
7
  6
CONTINUOUS
 10
3.9
 20
22.5
 11
3.9
 21
21.7587268678
  0
LINE
  5
435
100
AcDbEntity
  8
ASSI
100
AcDbLine
 62
7
  6
CONTINUOUS
 10
3.9
 20
-21.7587268678
 11
3.9
 21
-22.4615988572
  0
LINE
  5
436
100
AcDbEntity
  8
DRAFT
100
AcDbLine
 62
7
  6
CONTINUOUS
 10
3.9
 20
-21.7587268678
 11
3.9
 21
-22.4615988572
  0
LINE
  5
437
100
AcDbEntity
  8
RACCORDO
100
AcDbLine
 62
250
  6
CONTINUOUS
 10
3.95
 20
23.4568669008
 11
3.95
 21
23.0663484979
  0
LINE
  5
438
100
AcDbEntity
  8
0
100
AcDbLine
 62
7
  6
CONTINUOUS
 10
3.95
 20
16.9
 11
3.95
 21
13.4
  0
LINE
  5
439
100
AcDbEntity
  8
RACCORDO
100
AcDbLine
 62
250
  6
CONTINUOUS
 10
3.95
 20
-23.4568669008
 11
3.95
 21
-23.0663484979
  0
LINE
  5
43A
100
AcDbEntity
  8
ASSI
100
AcDbLine
 62
7
  6
CONTINUOUS
 10
3.9680327869
 20
-23.25
 11
3.9680327869
 21
-22.6064758961
  0
LINE
  5
43B
100
AcDbEntity
  8
DRAFT
100
AcDbLine
 62
7
  6
CONTINUOUS
 10
3.9680327869
 20
-23.25
 11
3.9680327869
 21
-22.6064758961
  0
LINE
  5
43C
100
AcDbEntity
  8
ASSI
100
AcDbLine
 62
7
  6
CONTINUOUS
 10
3.9680327869
 20
22.7
 11
3.9680327869
 21
23.25
  0
LINE
  5
43D
100
AcDbEntity
  8
RACCORDO
100
AcDbLine
 62
7
  6
CONTINUOUS
 10
3.9680327869
 20
22.7
 11
3.9680327869
 21
23.25
  0
LINE
  5
43E
100
AcDbEntity
  8
ASSI
100
AcDbLine
 62
7
  6
CONTINUOUS
 10
11.2223012463
 20
21.0745506493
 11
11.15
 21
20.9
  0
LINE
  5
43F
100
AcDbEntity
  8
DRAFT
100
AcDbLine
 62
7
  6
CONTINUOUS
 10
11.2223012463
 20
21.0745506493
 11
11.15
 21
20.9
  0
LINE
  5
440
100
AcDbEntity
  8
ASSI
100
AcDbLine
 62
7
  6
CONTINUOUS
 10
12.0223012463
 20
20.2745506493
 11
11.95
 21
20.1
  0
LINE
  5
441
100
AcDbEntity
  8
DRAFT
100
AcDbLine
 62
7
  6
CONTINUOUS
 10
12.0223012463
 20
20.2745506493
 11
11.95
 21
20.1
  0
LINE
  5
442
100
AcDbEntity
  8
DRAFT
100
AcDbLine
 62
7
  6
CONTINUOUS
 10
0.0
 20
-4.0
 11
-0.0052365195
 21
-4.0052365195
  0
LINE
  5
443
100
AcDbEntity
  8
GUSCI_ESTERNI
100
AcDbLine
 62
7
  6
CONTINUOUS
 10
-9.9416665554
 20
-6.2563829184
 11
-9.7666665554
 21
-6.1968084574
  0
LINE
  5
444
100
AcDbEntity
  8
ASSI
100
AcDbLine
 62
7
  6
CONTINUOUS
 10
-9.9416665554
 20
-6.2563829184
 11
-9.7666665554
 21
-6.1968084574
  0
LINE
  5
445
100
AcDbEntity
  8
GUSCI_ESTERNI
100
AcDbLine
 62
7
  6
CONTINUOUS
 10
-8.8333334446
 20
-5.9585106134
 11
-9.0083334446
 21
-6.0180850744
  0
LINE
  5
446
100
AcDbEntity
  8
ASSI
100
AcDbLine
 62
7
  6
CONTINUOUS
 10
-8.8333334446
 20
-5.9585106134
 11
-9.0083334446
 21
-6.0180850744
  0
LINE
  5
447
100
AcDbEntity
  8
GUSCI_ESTERNI
100
AcDbLine
 62
7
  6
CONTINUOUS
 10
-9.0083334446
 20
-6.2563829184
 11
-8.8333334446
 21
-6.1968084574
  0
LINE
  5
448
100
AcDbEntity
  8
ASSI
100
AcDbLine
 62
7
  6
CONTINUOUS
 10
-9.0083334446
 20
-6.2563829184
 11
-8.8333334446
 21
-6.1968084574
  0
LINE
  5
449
100
AcDbEntity
  8
GUSCI_ESTERNI
100
AcDbLine
 62
7
  6
CONTINUOUS
 10
-7.3166667223
 20
-6.2563829184
 11
-7.1416666389
 21
-6.1968084574
  0
LINE
  5
44A
100
AcDbEntity
  8
ASSI
100
AcDbLine
 62
7
  6
CONTINUOUS
 10
-7.3166667223
 20
-6.2563829184
 11
-7.1416666389
 21
-6.1968084574
  0
LINE
  5
44B
100
AcDbEntity
  8
GUSCI_ESTERNI
100
AcDbLine
 62
7
  6
CONTINUOUS
 10
-6.2083333194
 20
-5.9585106134
 11
-6.3833333194
 21
-6.0180850744
  0
LINE
  5
44C
100
AcDbEntity
  8
ASSI
100
AcDbLine
 62
7
  6
CONTINUOUS
 10
-6.2083333194
 20
-5.9585106134
 11
-6.3833333194
 21
-6.0180850744
  0
LINE
  5
44D
100
AcDbEntity
  8
GUSCI_ESTERNI
100
AcDbLine
 62
7
  6
CONTINUOUS
 10
-6.3833333194
 20
-6.2563829184
 11
-6.2083333194
 21
-6.1968084574
  0
LINE
  5
44E
100
AcDbEntity
  8
ASSI
100
AcDbLine
 62
7
  6
CONTINUOUS
 10
-6.3833333194
 20
-6.2563829184
 11
-6.2083333194
 21
-6.1968084574
  0
LINE
  5
44F
100
AcDbEntity
  8
ASSI
100
AcDbLine
 62
7
  6
CONTINUOUS
 10
11.15
 20
-20.9
 11
11.2223012463
 21
-21.0745506493
  0
LINE
  5
450
100
AcDbEntity
  8
DRAFT
100
AcDbLine
 62
7
  6
CONTINUOUS
 10
11.15
 20
-20.9
 11
11.2223012463
 21
-21.0745506493
  0
LINE
  5
451
100
AcDbEntity
  8
ASSI
100
AcDbLine
 62
7
  6
CONTINUOUS
 10
12.0223012463
 20
-20.2745506493
 11
11.95
 21
-20.1
  0
LINE
  5
452
100
AcDbEntity
  8
DRAFT
100
AcDbLine
 62
7
  6
CONTINUOUS
 10
12.0223012463
 20
-20.2745506493
 11
11.95
 21
-20.1
  0
LINE
  5
453
100
AcDbEntity
  8
ASSI
100
AcDbLine
 62
7
  6
CONTINUOUS
 10
3.9680327869
 20
23.25
 11
4.0
 21
22.4210294095
  0
LINE
  5
454
100
AcDbEntity
  8
0
100
AcDbLine
 62
7
  6
CONTINUOUS
 10
3.9680327869
 20
23.25
 11
4.0
 21
22.4210294095
  0
LINE
  5
455
100
AcDbEntity
  8
ASSI
100
AcDbLine
 62
250
  6
CONTINUOUS
 10
3.9918704627
 20
-21.7587268678
 11
3.9918704627
 21
-22.6318437628
  0
LINE
  5
456
100
AcDbEntity
  8
RACCORDO
100
AcDbLine
 62
250
  6
CONTINUOUS
 10
3.9918704627
 20
-21.7587268678
 11
3.9918704627
 21
-22.6318437628
  0
LINE
  5
457
100
AcDbEntity
  8
ASSI
100
AcDbLine
 62
7
  6
CONTINUOUS
 10
4.0
 20
21.7587268678
 11
4.0
 21
22.4210294095
  0
LINE
  5
458
100
AcDbEntity
  8
DRAFT
100
AcDbLine
 62
7
  6
CONTINUOUS
 10
4.0
 20
21.7587268678
 11
4.0
 21
22.4210294095
  0
LINE
  5
459
100
AcDbEntity
  8
0
100
AcDbLine
 62
7
  6
CONTINUOUS
 10
4.2565
 20
13.4
 11
4.2565
 21
16.9
  0
LINE
  5
45A
100
AcDbEntity
  8
RACCORDO
100
AcDbLine
 62
250
  6
CONTINUOUS
 10
4.3
 20
24.8535432754
 11
4.3
 21
24.4630248726
  0
LINE
  5
45B
100
AcDbEntity
  8
RACCORDO
100
AcDbLine
 62
250
  6
CONTINUOUS
 10
4.3
 20
-24.8535432754
 11
4.3
 21
-24.4630248726
  0
LINE
  5
45C
100
AcDbEntity
  8
RACCORDO
100
AcDbLine
 62
7
  6
CONTINUOUS
 10
4.5
 20
24.8102553526
 11
4.5
 21
24.1825804722
  0
LINE
  5
45D
100
AcDbEntity
  8
RACCORDO
100
AcDbLine
 62
7
  6
CONTINUOUS
 10
4.5
 20
-24.1825804722
 11
4.5
 21
-24.8102553526
  0
LINE
  5
45E
100
AcDbEntity
  8
0
100
AcDbLine
 62
7
  6
CONTINUOUS
 10
4.65
 20
9.75
 11
4.65
 21
6.260638237
  0
LINE
  5
45F
100
AcDbEntity
  8
0
100
AcDbLine
 62
7
  6
CONTINUOUS
 10
4.65
 20
-5.75
 11
4.65
 21
-9.239361763
  0
LINE
  5
460
100
AcDbEntity
  8
ASSI
100
AcDbLine
 62
250
  6
CONTINUOUS
 10
4.9918368712
 20
-21.7587268678
 11
4.9918368712
 21
-22.4210294095
  0
LINE
  5
461
100
AcDbEntity
  8
RACCORDO
100
AcDbLine
 62
250
  6
CONTINUOUS
 10
4.9918368712
 20
-21.7587268678
 11
4.9918368712
 21
-22.4210294095
  0
LINE
  5
462
100
AcDbEntity
  8
0
100
AcDbLine
 62
7
  6
CONTINUOUS
 10
5.15
 20
-9.75
 11
5.15
 21
-5.75
  0
LINE
  5
463
100
AcDbEntity
  8
0
100
AcDbLine
 62
7
  6
CONTINUOUS
 10
5.15
 20
5.75
 11
5.15
 21
9.75
  0
LINE
  5
464
100
AcDbEntity
  8
RACCORDO
100
AcDbLine
 62
7
  6
CONTINUOUS
 10
5.45
 20
21.7586507125
 11
5.45
 21
18.65
  0
LINE
  5
465
100
AcDbEntity
  8
SMUSSO
100
AcDbLine
 62
7
  6
CONTINUOUS
 10
5.45
 20
17.65
 11
5.45
 21
16.9
  0
LINE
  5
466
100
AcDbEntity
  8
SMUSSO
100
AcDbLine
 62
7
  6
CONTINUOUS
 10
5.45
 20
13.4
 11
5.45
 21
12.65
  0
LINE
  5
467
100
AcDbEntity
  8
DRAFT
100
AcDbLine
 62
7
  6
CONTINUOUS
 10
5.45
 20
11.65
 11
5.45
 21
11.5
  0
LINE
  5
468
100
AcDbEntity
  8
DRAFT
100
AcDbLine
 62
7
  6
CONTINUOUS
 10
5.45
 20
4.0
 11
5.45
 21
-0.1
  0
LINE
  5
469
100
AcDbEntity
  8
DRAFT
100
AcDbLine
 62
7
  6
CONTINUOUS
 10
5.45
 20
-0.9
 11
5.45
 21
-4.0
  0
LINE
  5
46A
100
AcDbEntity
  8
SMUSSO
100
AcDbLine
 62
7
  6
CONTINUOUS
 10
5.45
 20
-11.5
 11
5.45
 21
-13.4
  0
LINE
  5
46B
100
AcDbEntity
  8
SMUSSO
100
AcDbLine
 62
7
  6
CONTINUOUS
 10
5.45
 20
-16.9
 11
5.45
 21
-17.15
  0
LINE
  5
46C
100
AcDbEntity
  8
RACCORDO
100
AcDbLine
 62
7
  6
CONTINUOUS
 10
5.45
 20
-17.15
 11
5.45
 21
-21.7586507125
  0
LINE
  5
46D
100
AcDbEntity
  8
GUSCI_ESTERNI
100
AcDbLine
 62
7
  6
CONTINUOUS
 10
5.45
 20
-20.7055718201
 11
5.45
 21
-17.4
  0
LINE
  5
46E
100
AcDbEntity
  8
GUSCI_ESTERNI
100
AcDbLine
 62
7
  6
CONTINUOUS
 10
5.45
 20
-12.9
 11
5.45
 21
-1.9
  0
LINE
  5
46F
100
AcDbEntity
  8
DRAFT
100
AcDbLine
 62
7
  6
CONTINUOUS
 10
5.45
 20
11.6674537356
 11
5.45
 21
12.6325462644
  0
LINE
  5
470
100
AcDbEntity
  8
GUSCI_ESTERNI
100
AcDbLine
 62
7
  6
CONTINUOUS
 10
5.45
 20
-1.1
 11
5.45
 21
12.9
  0
LINE
  5
471
100
AcDbEntity
  8
DRAFT
100
AcDbLine
 62
7
  6
CONTINUOUS
 10
5.45
 20
17.6674537356
 11
5.45
 21
18.6325462644
  0
LINE
  5
472
100
AcDbEntity
  8
GUSCI_ESTERNI
100
AcDbLine
 62
7
  6
CONTINUOUS
 10
5.45
 20
17.4
 11
5.45
 21
20.7054782877
  0
LINE
  5
473
100
AcDbEntity
  8
ASSI
100
AcDbLine
 62
7
  6
CONTINUOUS
 10
3.9918704627
 20
-22.6318437628
 11
3.9680327869
 21
-23.25
  0
LINE
  5
474
100
AcDbEntity
  8
RACCORDO
100
AcDbLine
 62
7
  6
CONTINUOUS
 10
3.9918704627
 20
-22.6318437628
 11
3.9680327869
 21
-23.25
  0
LINE
  5
475
100
AcDbEntity
  8
ASSI
100
AcDbLine
 62
7
  6
CONTINUOUS
 10
-12.5745506493
 20
-20.2745506493
 11
-12.4
 21
-20.1
  0
LINE
  5
476
100
AcDbEntity
  8
DRAFT
100
AcDbLine
 62
7
  6
CONTINUOUS
 10
-12.5745506493
 20
-20.2745506493
 11
-12.4
 21
-20.1
  0
LINE
  5
477
100
AcDbEntity
  8
DRAFT
100
AcDbLine
 62
7
  6
CONTINUOUS
 10
5.45
 20
4.0
 11
1.45
 21
4.0
  0
LINE
  5
478
100
AcDbEntity
  8
DRAFT
100
AcDbLine
 62
7
  6
CONTINUOUS
 10
1.4552365195
 20
4.0052365195
 11
5.45
 21
4.0052365195
  0
LINE
  5
479
100
AcDbEntity
  8
0
100
AcDbLine
 62
7
  6
CONTINUOUS
 10
1.8166667461
 20
5.75
 11
2.3166667461
 21
5.75
  0
LINE
  5
47A
100
AcDbEntity
  8
0
100
AcDbLine
 62
7
  6
CONTINUOUS
 10
4.4
 20
5.75
 11
5.15
 21
5.75
  0
LINE
  5
47B
100
AcDbEntity
  8
ASSI
100
AcDbLine
 62
7
  6
CONTINUOUS
 10
-12.5745506493
 20
20.2745506493
 11
-12.4
 21
20.1
  0
LINE
  5
47C
100
AcDbEntity
  8
DRAFT
100
AcDbLine
 62
7
  6
CONTINUOUS
 10
-12.5745506493
 20
20.2745506493
 11
-12.4
 21
20.1
  0
LINE
  5
47D
100
AcDbEntity
  8
0
100
AcDbLine
 62
7
  6
CONTINUOUS
 10
6.0
 20
24.9162234303
 11
6.0
 21
23.25
  0
LINE
  5
47E
100
AcDbEntity
  8
0
100
AcDbLine
 62
7
  6
CONTINUOUS
 10
6.0
 20
-24.9162234303
 11
6.0
 21
-23.25
  0
LINE
  5
47F
100
AcDbEntity
  8
0
100
AcDbLine
 62
7
  6
CONTINUOUS
 10
6.2435
 20
-13.4
 11
6.2435
 21
-16.9
  0
LINE
  5
480
100
AcDbEntity
  8
ASSI
100
AcDbLine
 62
7
  6
CONTINUOUS
 10
6.2680747532
 20
22.6905766152
 11
6.2680747532
 21
22.4210294095
  0
LINE
  5
481
100
AcDbEntity
  8
RACCORDO
100
AcDbLine
 62
7
  6
CONTINUOUS
 10
6.2680747532
 20
22.6905766152
 11
6.2680747532
 21
22.4210294095
  0
LINE
  5
482
100
AcDbEntity
  8
ASSI
100
AcDbLine
 62
7
  6
CONTINUOUS
 10
6.2680747532
 20
-22.4210294095
 11
6.2680747532
 21
-22.6905766152
  0
LINE
  5
483
100
AcDbEntity
  8
RACCORDO
100
AcDbLine
 62
7
  6
CONTINUOUS
 10
6.2680747532
 20
-22.4210294095
 11
6.2680747532
 21
-22.6905766152
  0
LINE
  5
484
100
AcDbEntity
  8
0
100
AcDbLine
 62
7
  6
CONTINUOUS
 10
6.55
 20
-16.9
 11
6.55
 21
-13.4
  0
LINE
  5
485
100
AcDbEntity
  8
0
100
AcDbLine
 62
7
  6
CONTINUOUS
 10
6.6435
 20
13.4
 11
6.6435
 21
16.9
  0
LINE
  5
486
100
AcDbEntity
  8
0
100
AcDbLine
 62
7
  6
CONTINUOUS
 10
6.95
 20
16.9
 11
6.95
 21
13.4
  0
LINE
  5
487
100
AcDbEntity
  8
ASSI
100
AcDbLine
 62
7
  6
CONTINUOUS
 10
-3.9680327869
 20
-22.6064758961
 11
-3.9
 21
-22.4615988572
  0
LINE
  5
488
100
AcDbEntity
  8
DRAFT
100
AcDbLine
 62
7
  6
CONTINUOUS
 10
-3.9680327869
 20
-22.6064758961
 11
-3.9
 21
-22.4615988572
  0
LINE
  5
489
100
AcDbEntity
  8
0
100
AcDbLine
 62
7
  6
CONTINUOUS
 10
-5.45
 20
-13.75
 11
-5.1
 21
-13.4
  0
LINE
  5
48A
100
AcDbEntity
  8
ASSI
100
AcDbLine
 62
7
  6
CONTINUOUS
 10
-10.8952696104
 20
-20.7952696104
 11
-11.0
 21
-20.9
  0
LINE
  5
48B
100
AcDbEntity
  8
DRAFT
100
AcDbLine
 62
7
  6
CONTINUOUS
 10
-10.8952696104
 20
-20.7952696104
 11
-11.0
 21
-20.9
  0
LINE
  5
48C
100
AcDbEntity
  8
0
100
AcDbLine
 62
7
  6
CONTINUOUS
 10
-5.15
 20
13.4
 11
-5.45
 21
13.7
  0
LINE
  5
48D
100
AcDbEntity
  8
ASSI
100
AcDbLine
 62
7
  6
CONTINUOUS
 10
-11.0
 20
20.9
 11
-10.8952696104
 21
20.7952696104
  0
LINE
  5
48E
100
AcDbEntity
  8
DRAFT
100
AcDbLine
 62
7
  6
CONTINUOUS
 10
-11.0
 20
20.9
 11
-10.8952696104
 21
20.7952696104
  0
LINE
  5
48F
100
AcDbEntity
  8
RACCORDO
100
AcDbLine
 62
7
  6
CONTINUOUS
 10
1.2
 20
9.0
 11
1.1955604108
 21
9.0044395892
  0
LINE
  5
490
100
AcDbEntity
  8
RACCORDO
100
AcDbLine
 62
250
  6
CONTINUOUS
 10
-2.2499428846
 20
12.65
 11
-2.232489149
 21
12.6325462644
  0
LINE
  5
491
100
AcDbEntity
  8
0
100
AcDbLine
 62
7
  6
CONTINUOUS
 10
2.3166667461
 20
9.1542553306
 11
4.4
 21
5.75
  0
LINE
  5
492
100
AcDbEntity
  8
0
100
AcDbLine
 62
7
  6
CONTINUOUS
 10
4.65
 20
6.260638237
 11
2.5666667461
 21
9.75
  0
LINE
  5
493
100
AcDbEntity
  8
ASSI
100
AcDbLine
 62
7
  6
CONTINUOUS
 10
6.2
 20
23.25
 11
6.2680747532
 21
22.4210294095
  0
LINE
  5
494
100
AcDbEntity
  8
DRAFT
100
AcDbLine
 62
7
  6
CONTINUOUS
 10
6.2
 20
23.25
 11
6.2680747532
 21
22.4210294095
  0
LINE
  5
495
100
AcDbEntity
  8
ASSI
100
AcDbLine
 62
7
  6
CONTINUOUS
 10
7.9319252468
 20
22.6905766152
 11
7.9319252468
 21
22.5
  0
LINE
  5
496
100
AcDbEntity
  8
RACCORDO
100
AcDbLine
 62
7
  6
CONTINUOUS
 10
7.9319252468
 20
22.6905766152
 11
7.9319252468
 21
22.5
  0
LINE
  5
497
100
AcDbEntity
  8
ASSI
100
AcDbLine
 62
7
  6
CONTINUOUS
 10
7.9319252468
 20
-22.6745506493
 11
7.9319252468
 21
-22.6905766152
  0
LINE
  5
498
100
AcDbEntity
  8
RACCORDO
100
AcDbLine
 62
7
  6
CONTINUOUS
 10
7.9319252468
 20
-22.6745506493
 11
7.9319252468
 21
-22.6905766152
  0
LINE
  5
499
100
AcDbEntity
  8
ASSI
100
AcDbLine
 62
7
  6
CONTINUOUS
 10
8.0
 20
23.25
 11
8.0
 21
22.5
  0
LINE
  5
49A
100
AcDbEntity
  8
DRAFT
100
AcDbLine
 62
7
  6
CONTINUOUS
 10
8.0
 20
23.25
 11
8.0
 21
22.5
  0
LINE
  5
49B
100
AcDbEntity
  8
ASSI
100
AcDbLine
 62
7
  6
CONTINUOUS
 10
8.0
 20
-22.6745506493
 11
8.0
 21
-23.25
  0
LINE
  5
49C
100
AcDbEntity
  8
DRAFT
100
AcDbLine
 62
7
  6
CONTINUOUS
 10
8.0
 20
-22.6745506493
 11
8.0
 21
-23.25
  0
LINE
  5
49D
100
AcDbEntity
  8
GUSCI_ESTERNI
100
AcDbLine
 62
250
  6
CONTINUOUS
 10
8.65
 20
17.3860370115
 11
8.65
 21
16.9
  0
LINE
  5
49E
100
AcDbEntity
  8
GUSCI_ESTERNI
100
AcDbLine
 62
250
  6
CONTINUOUS
 10
8.65
 20
-12.9139629885
 11
8.65
 21
-13.4
  0
LINE
  5
49F
100
AcDbEntity
  8
GUSCI_ESTERNI
100
AcDbLine
 62
250
  6
CONTINUOUS
 10
8.65
 20
-17.3860370115
 11
8.65
 21
-16.9
  0
LINE
  5
4A0
100
AcDbEntity
  8
GUSCI_ESTERNI
100
AcDbLine
 62
250
  6
CONTINUOUS
 10
8.65
 20
12.9139629885
 11
8.65
 21
13.4
  0
LINE
  5
4A1
100
AcDbEntity
  8
0
100
AcDbLine
 62
7
  6
CONTINUOUS
 10
9.3
 20
-16.6591288248
 11
9.3
 21
-13.6408637903
  0
LINE
  5
4A2
100
AcDbEntity
  8
ASSI
100
AcDbLine
 62
7
  6
CONTINUOUS
 10
6.2680747532
 20
-22.4210294095
 11
6.2
 21
-23.25
  0
LINE
  5
4A3
100
AcDbEntity
  8
DRAFT
100
AcDbLine
 62
7
  6
CONTINUOUS
 10
6.2680747532
 20
-22.4210294095
 11
6.2
 21
-23.25
  0
LINE
  5
4A4
100
AcDbEntity
  8
DRAFT
100
AcDbLine
 62
7
  6
CONTINUOUS
 10
1.45
 20
-11.5
 11
1.4552365195
 21
-11.4947634805
  0
LINE
  5
4A5
100
AcDbEntity
  8
DRAFT
100
AcDbLine
 62
7
  6
CONTINUOUS
 10
0.0
 20
9.0
 11
1.2
 21
9.0
  0
LINE
  5
4A6
100
AcDbEntity
  8
RACCORDO
100
AcDbLine
 62
250
  6
CONTINUOUS
 10
0.0044395892
 20
9.0044395892
 11
1.1955604108
 21
9.0044395892
  0
LINE
  5
4A7
100
AcDbEntity
  8
DRAFT
100
AcDbLine
 62
7
  6
CONTINUOUS
 10
1.2
 20
11.65
 11
1.1869096983
 21
11.6630903017
  0
LINE
  5
4A8
100
AcDbEntity
  8
DRAFT
100
AcDbLine
 62
7
  6
CONTINUOUS
 10
1.45
 20
11.5
 11
1.4552365195
 21
11.4947634805
  0
LINE
  5
4A9
100
AcDbEntity
  8
RACCORDO
100
AcDbLine
 62
250
  6
CONTINUOUS
 10
-0.75
 20
14.1499428846
 11
-0.7325462644
 21
14.132489149
  0
LINE
  5
4AA
100
AcDbEntity
  8
GUSCI_ESTERNI
100
AcDbLine
 62
7
  6
CONTINUOUS
 10
9.6317531964
 20
-13.9
 11
9.6317531964
 21
-14.2098404316
  0
LINE
  5
4AB
100
AcDbEntity
  8
GUSCI_ESTERNI
100
AcDbLine
 62
7
  6
CONTINUOUS
 10
9.6317531964
 20
-16.0901595684
 11
9.6317531964
 21
-16.4
  0
LINE
  5
4AC
100
AcDbEntity
  8
GUSCI_ESTERNI
100
AcDbLine
 62
7
  6
CONTINUOUS
 10
9.6317531964
 20
13.9
 11
9.6317531964
 21
14.2098404316
  0
LINE
  5
4AD
100
AcDbEntity
  8
GUSCI_ESTERNI
100
AcDbLine
 62
7
  6
CONTINUOUS
 10
9.6317531964
 20
16.0901595684
 11
9.6317531964
 21
16.4
  0
LINE
  5
4AE
100
AcDbEntity
  8
GUSCI_ESTERNI
100
AcDbLine
 62
7
  6
CONTINUOUS
 10
9.65
 20
-15.9
 11
9.65
 21
-14.4
  0
LINE
  5
4AF
100
AcDbEntity
  8
GUSCI_ESTERNI
100
AcDbLine
 62
7
  6
CONTINUOUS
 10
9.65
 20
14.4
 11
9.65
 21
15.9
  0
LINE
  5
4B0
100
AcDbEntity
  8
GUSCI_ESTERNI
100
AcDbLine
 62
7
  6
CONTINUOUS
 10
10.15
 20
14.15
 11
10.15
 21
16.15
  0
LINE
  5
4B1
100
AcDbEntity
  8
ASSI
100
AcDbLine
 62
7
  6
CONTINUOUS
 10
10.2254493507
 20
23.9245887255
 11
10.2254493507
 21
22.5
  0
LINE
  5
4B2
100
AcDbEntity
  8
RACCORDO
100
AcDbLine
 62
7
  6
CONTINUOUS
 10
10.2254493507
 20
23.9245887255
 11
10.2254493507
 21
22.5
  0
LINE
  5
4B3
100
AcDbEntity
  8
ASSI
100
AcDbLine
 62
7
  6
CONTINUOUS
 10
10.2254493507
 20
-22.6745506493
 11
10.2254493507
 21
-23.9245887255
  0
LINE
  5
4B4
100
AcDbEntity
  8
RACCORDO
100
AcDbLine
 62
7
  6
CONTINUOUS
 10
10.2254493507
 20
-22.6745506493
 11
10.2254493507
 21
-23.9245887255
  0
LINE
  5
4B5
100
AcDbEntity
  8
GUSCI_ESTERNI
100
AcDbLine
 62
7
  6
CONTINUOUS
 10
10.85
 20
19.0
 11
10.85
 21
-19.0
  0
LINE
  5
4B6
100
AcDbEntity
  8
ASSI
100
AcDbLine
 62
7
  6
CONTINUOUS
 10
10.8952696104
 20
20.7952696104
 11
10.8952696104
 21
18.65
  0
LINE
  5
4B7
100
AcDbEntity
  8
DRAFT
100
AcDbLine
 62
7
  6
CONTINUOUS
 10
10.8952696104
 20
20.7952696104
 11
10.8952696104
 21
18.65
  0
LINE
  5
4B8
100
AcDbEntity
  8
ASSI
100
AcDbLine
 62
7
  6
CONTINUOUS
 10
10.8952696104
 20
-18.65
 11
10.8952696104
 21
-20.7952696104
  0
LINE
  5
4B9
100
AcDbEntity
  8
DRAFT
100
AcDbLine
 62
7
  6
CONTINUOUS
 10
10.8952696104
 20
-18.65
 11
10.8952696104
 21
-20.7952696104
  0
LINE
  5
4BA
100
AcDbEntity
  8
ASSI
100
AcDbLine
 62
7
  6
CONTINUOUS
 10
11.0
 20
-20.9
 11
11.0
 21
-18.65
  0
LINE
  5
4BB
100
AcDbEntity
  8
DRAFT
100
AcDbLine
 62
7
  6
CONTINUOUS
 10
11.0
 20
-20.9
 11
11.0
 21
-18.65
  0
LINE
  5
4BC
100
AcDbEntity
  8
ASSI
100
AcDbLine
 62
7
  6
CONTINUOUS
 10
11.0
 20
-14.55
 11
11.0
 21
14.55
  0
LINE
  5
4BD
100
AcDbEntity
  8
DRAFT
100
AcDbLine
 62
7
  6
CONTINUOUS
 10
11.0
 20
-14.55
 11
11.0
 21
14.55
  0
LINE
  5
4BE
100
AcDbEntity
  8
ASSI
100
AcDbLine
 62
7
  6
CONTINUOUS
 10
11.0
 20
18.65
 11
11.0
 21
20.9
  0
LINE
  5
4BF
100
AcDbEntity
  8
DRAFT
100
AcDbLine
 62
7
  6
CONTINUOUS
 10
11.0
 20
18.65
 11
11.0
 21
20.9
  0
LINE
  5
4C0
100
AcDbEntity
  8
ASSI
100
AcDbLine
 62
7
  6
CONTINUOUS
 10
-8.0
 20
-23.25
 11
-7.9405004628
 21
-23.1905004628
  0
LINE
  5
4C1
100
AcDbEntity
  8
RACCORDO
100
AcDbLine
 62
7
  6
CONTINUOUS
 10
-8.0
 20
-23.25
 11
-7.9405004628
 21
-23.1905004628
  0
LINE
  5
4C2
100
AcDbEntity
  8
0
100
AcDbLine
 62
7
  6
CONTINUOUS
 10
5.15
 20
9.75
 11
4.65
 21
9.75
  0
LINE
  5
4C3
100
AcDbEntity
  8
0
100
AcDbLine
 62
7
  6
CONTINUOUS
 10
2.5666667461
 20
9.75
 11
1.8166667461
 21
9.75
  0
LINE
  5
4C4
100
AcDbEntity
  8
RACCORDO
100
AcDbLine
 62
250
  6
CONTINUOUS
 10
0.0130903017
 20
10.0044015123
 11
1.1869096983
 21
10.0044015123
  0
LINE
  5
4C5
100
AcDbEntity
  8
ASSI
100
AcDbLine
 62
7
  6
CONTINUOUS
 10
-8.0
 20
23.25
 11
-7.9405004628
 21
23.1905004628
  0
LINE
  5
4C6
100
AcDbEntity
  8
RACCORDO
100
AcDbLine
 62
7
  6
CONTINUOUS
 10
-8.0
 20
23.25
 11
-7.9405004628
 21
23.1905004628
  0
LINE
  5
4C7
100
AcDbEntity
  8
ASSI
100
AcDbLine
 62
7
  6
CONTINUOUS
 10
12.4
 20
-20.1
 11
12.4
 21
20.1
  0
LINE
  5
4C8
100
AcDbEntity
  8
DRAFT
100
AcDbLine
 62
7
  6
CONTINUOUS
 10
12.4
 20
-20.1
 11
12.4
 21
20.1
  0
LINE
  5
4C9
100
AcDbEntity
  8
ASSI
100
AcDbLine
 62
7
  6
CONTINUOUS
 10
12.5745506493
 20
-23.9245887255
 11
12.5745506493
 21
-20.2745506493
  0
LINE
  5
4CA
100
AcDbEntity
  8
RACCORDO
100
AcDbLine
 62
7
  6
CONTINUOUS
 10
12.5745506493
 20
-23.9245887255
 11
12.5745506493
 21
-20.2745506493
  0
LINE
  5
4CB
100
AcDbEntity
  8
ASSI
100
AcDbLine
 62
7
  6
CONTINUOUS
 10
12.5745506493
 20
20.2745506493
 11
12.5745506493
 21
23.9245887255
  0
LINE
  5
4CC
100
AcDbEntity
  8
RACCORDO
100
AcDbLine
 62
7
  6
CONTINUOUS
 10
12.5745506493
 20
20.2745506493
 11
12.5745506493
 21
23.9245887255
  0
LINE
  5
4CD
100
AcDbEntity
  8
GUSCI_ESTERNI
100
AcDbLine
 62
7
  6
CONTINUOUS
 10
5.45
 20
12.9
 11
8.65
 21
12.9139629885
  0
LINE
  5
4CE
100
AcDbEntity
  8
DRAFT
100
AcDbLine
 62
7
  6
CONTINUOUS
 10
5.45
 20
11.4947634805
 11
1.4552365195
 21
11.4947634805
  0
LINE
  5
4CF
100
AcDbEntity
  8
DRAFT
100
AcDbLine
 62
7
  6
CONTINUOUS
 10
5.45
 20
11.5
 11
1.45
 21
11.5
  0
LINE
  5
4D0
100
AcDbEntity
  8
GUSCI_ESTERNI
100
AcDbLine
 62
7
  6
CONTINUOUS
 10
-5.45
 20
11.63
 11
-8.35
 21
11.63
  0
LINE
  5
4D1
100
AcDbEntity
  8
ASSI
100
AcDbLine
 62
7
  6
CONTINUOUS
 10
-5.45
 20
11.63
 11
-8.35
 21
11.63
  0
LINE
  5
4D2
100
AcDbEntity
  8
GUSCI_ESTERNI
100
AcDbLine
 62
7
  6
CONTINUOUS
 10
8.35
 20
11.65
 11
5.45
 21
11.65
  0
LINE
  5
4D3
100
AcDbEntity
  8
DRAFT
100
AcDbLine
 62
7
  6
CONTINUOUS
 10
5.45
 20
11.65
 11
1.2
 21
11.65
  0
LINE
  5
4D4
100
AcDbEntity
  8
DRAFT
100
AcDbLine
 62
7
  6
CONTINUOUS
 10
0.0
 20
11.65
 11
-5.45
 21
11.65
  0
LINE
  5
4D5
100
AcDbEntity
  8
DRAFT
100
AcDbLine
 62
7
  6
CONTINUOUS
 10
1.1869096983
 20
11.6630903017
 11
0.0130903017
 21
11.6630903017
  0
LINE
  5
4D6
100
AcDbEntity
  8
DRAFT
100
AcDbLine
 62
7
  6
CONTINUOUS
 10
-5.45
 20
11.6674537356
 11
5.45
 21
11.6674537356
  0
LINE
  5
4D7
100
AcDbEntity
  8
GUSCI_ESTERNI
100
AcDbLine
 62
7
  6
CONTINUOUS
 10
-8.65
 20
12.625
 11
-5.45
 21
12.625
  0
LINE
  5
4D8
100
AcDbEntity
  8
ASSI
100
AcDbLine
 62
7
  6
CONTINUOUS
 10
-8.65
 20
12.625
 11
-5.45
 21
12.625
  0
LINE
  5
4D9
100
AcDbEntity
  8
RACCORDO
100
AcDbLine
 62
7
  6
CONTINUOUS
 10
-5.45
 20
12.6325462644
 11
-2.232489149
 21
12.6325462644
  0
LINE
  5
4DA
100
AcDbEntity
  8
RACCORDO
100
AcDbLine
 62
7
  6
CONTINUOUS
 10
5.45
 20
12.6325462644
 11
2.232489149
 21
12.6325462644
  0
LINE
  5
4DB
100
AcDbEntity
  8
RACCORDO
100
AcDbLine
 62
7
  6
CONTINUOUS
 10
-5.45
 20
12.65
 11
-2.2499428846
 21
12.65
  0
LINE
  5
4DC
100
AcDbEntity
  8
RACCORDO
100
AcDbLine
 62
7
  6
CONTINUOUS
 10
5.45
 20
12.65
 11
2.2499428846
 21
12.65
  0
LINE
  5
4DD
100
AcDbEntity
  8
GUSCI_ESTERNI
100
AcDbLine
 62
7
  6
CONTINUOUS
 10
5.45
 20
12.65
 11
8.65
 21
12.65
  0
LINE
  5
4DE
100
AcDbEntity
  8
RACCORDO
100
AcDbLine
 62
7
  6
CONTINUOUS
 10
5.45
 20
13.15
 11
2.25
 21
13.15
  0
LINE
  5
4DF
100
AcDbEntity
  8
RACCORDO
100
AcDbLine
 62
7
  6
CONTINUOUS
 10
-2.25
 20
13.15
 11
-5.45
 21
13.15
  0
LINE
  5
4E0
100
AcDbEntity
  8
GUSCI_ESTERNI
100
AcDbLine
 62
7
  6
CONTINUOUS
 10
-5.45
 20
13.15
 11
-8.6
 21
13.1568724084
  0
LINE
  5
4E1
100
AcDbEntity
  8
ASSI
100
AcDbLine
 62
7
  6
CONTINUOUS
 10
-5.45
 20
13.15
 11
-8.6
 21
13.1568724084
  0
LINE
  5
4E2
100
AcDbEntity
  8
RACCORDO
100
AcDbLine
 62
250
  6
CONTINUOUS
 10
0.75
 20
16.1500571154
 11
0.7325462644
 21
16.167510851
  0
LINE
  5
4E3
100
AcDbEntity
  8
0
100
AcDbLine
 62
7
  6
CONTINUOUS
 10
5.05
 20
-13.75
 11
5.4
 21
-13.4
  0
LINE
  5
4E4
100
AcDbEntity
  8
GUSCI_ESTERNI
100
AcDbLine
 62
7
  6
CONTINUOUS
 10
-8.6
 20
13.4
 11
-5.45
 21
13.4
  0
LINE
  5
4E5
100
AcDbEntity
  8
ASSI
100
AcDbLine
 62
7
  6
CONTINUOUS
 10
-8.6
 20
13.4
 11
-5.45
 21
13.4
  0
LINE
  5
4E6
100
AcDbEntity
  8
RACCORDO
100
AcDbLine
 62
7
  6
CONTINUOUS
 10
5.45
 20
13.4
 11
2.25
 21
13.4
  0
LINE
  5
4E7
100
AcDbEntity
  8
RACCORDO
100
AcDbLine
 62
7
  6
CONTINUOUS
 10
-2.25
 20
13.4
 11
-5.45
 21
13.4
  0
LINE
  5
4E8
100
AcDbEntity
  8
GUSCI_ESTERNI
100
AcDbLine
 62
7
  6
CONTINUOUS
 10
5.45
 20
13.4
 11
8.65
 21
13.4
  0
LINE
  5
4E9
100
AcDbEntity
  8
0
100
AcDbLine
 62
7
  6
CONTINUOUS
 10
9.3633321378
 20
13.7
 11
8.2
 21
13.7
  0
LINE
  5
4EA
100
AcDbEntity
  8
0
100
AcDbLine
 62
7
  6
CONTINUOUS
 10
2.7
 20
13.7
 11
1.5359935683
 21
13.7
  0
LINE
  5
4EB
100
AcDbEntity
  8
0
100
AcDbLine
 62
7
  6
CONTINUOUS
 10
-1.5359935683
 20
13.7
 11
-2.7
 21
13.7
  0
LINE
  5
4EC
100
AcDbEntity
  8
0
100
AcDbLine
 62
7
  6
CONTINUOUS
 10
-8.2
 20
13.7
 11
-9.3138917984
 21
13.7
  0
LINE
  5
4ED
100
AcDbEntity
  8
GUSCI_ESTERNI
100
AcDbLine
 62
250
  6
CONTINUOUS
 10
9.6317531964
 20
13.9
 11
9.5160254038
 21
13.9
  0
LINE
  5
4EE
100
AcDbEntity
  8
GUSCI_ESTERNI
100
AcDbLine
 62
250
  6
CONTINUOUS
 10
-9.5909655852
 20
14.15
 11
-9.5682458366
 21
14.15
  0
LINE
  5
4EF
100
AcDbEntity
  8
ASSI
100
AcDbLine
 62
250
  6
CONTINUOUS
 10
-9.5909655852
 20
14.15
 11
-9.5682458366
 21
14.15
  0
LINE
  5
4F0
100
AcDbEntity
  8
ASSI
100
AcDbLine
 62
7
  6
CONTINUOUS
 10
-11.0
 20
14.55
 11
-10.85
 21
14.55
  0
LINE
  5
4F1
100
AcDbEntity
  8
DRAFT
100
AcDbLine
 62
7
  6
CONTINUOUS
 10
-11.0
 20
14.55
 11
-10.85
 21
14.55
  0
LINE
  5
4F2
100
AcDbEntity
  8
ASSI
100
AcDbLine
 62
7
  6
CONTINUOUS
 10
10.85
 20
14.55
 11
11.0
 21
14.55
  0
LINE
  5
4F3
100
AcDbEntity
  8
DRAFT
100
AcDbLine
 62
7
  6
CONTINUOUS
 10
10.85
 20
14.55
 11
11.0
 21
14.55
  0
LINE
  5
4F4
100
AcDbEntity
  8
0
100
AcDbLine
 62
7
  6
CONTINUOUS
 10
5.75
 20
13.4
 11
5.45
 21
13.7
  0
LINE
  5
4F5
100
AcDbEntity
  8
RACCORDO
100
AcDbLine
 62
250
  6
CONTINUOUS
 10
2.2499428846
 20
17.65
 11
2.232489149
 21
17.6674537356
  0
LINE
  5
4F6
100
AcDbEntity
  8
RACCORDO
100
AcDbLine
 62
7
  6
CONTINUOUS
 10
-0.0042111233
 20
-21.7542111233
 11
-0.0086507125
 21
-21.7586507125
  0
LINE
  5
4F7
100
AcDbEntity
  8
GUSCI_ESTERNI
100
AcDbLine
 62
250
  6
CONTINUOUS
 10
-9.5909655852
 20
16.15
 11
-9.5682458366
 21
16.15
  0
LINE
  5
4F8
100
AcDbEntity
  8
ASSI
100
AcDbLine
 62
250
  6
CONTINUOUS
 10
-9.5909655852
 20
16.15
 11
-9.5682458366
 21
16.15
  0
LINE
  5
4F9
100
AcDbEntity
  8
GUSCI_ESTERNI
100
AcDbLine
 62
250
  6
CONTINUOUS
 10
9.6317531964
 20
16.4
 11
9.5160254038
 21
16.4
  0
LINE
  5
4FA
100
AcDbEntity
  8
RACCORDO
100
AcDbLine
 62
7
  6
CONTINUOUS
 10
-5.45
 20
16.9
 11
-2.25
 21
16.9
  0
LINE
  5
4FB
100
AcDbEntity
  8
GUSCI_ESTERNI
100
AcDbLine
 62
7
  6
CONTINUOUS
 10
8.65
 20
16.9
 11
5.45
 21
16.9
  0
LINE
  5
4FC
100
AcDbEntity
  8
RACCORDO
100
AcDbLine
 62
7
  6
CONTINUOUS
 10
2.25
 20
16.9
 11
5.45
 21
16.9
  0
LINE
  5
4FD
100
AcDbEntity
  8
GUSCI_ESTERNI
100
AcDbLine
 62
7
  6
CONTINUOUS
 10
-5.45
 20
16.9
 11
-8.6
 21
16.9
  0
LINE
  5
4FE
100
AcDbEntity
  8
ASSI
100
AcDbLine
 62
7
  6
CONTINUOUS
 10
-5.45
 20
16.9
 11
-8.6
 21
16.9
  0
LINE
  5
4FF
100
AcDbEntity
  8
GUSCI_ESTERNI
100
AcDbLine
 62
7
  6
CONTINUOUS
 10
-5.45
 20
17.15
 11
-8.6
 21
17.1431275916
  0
LINE
  5
500
100
AcDbEntity
  8
ASSI
100
AcDbLine
 62
7
  6
CONTINUOUS
 10
-5.45
 20
17.15
 11
-8.6
 21
17.1431275916
  0
LINE
  5
501
100
AcDbEntity
  8
RACCORDO
100
AcDbLine
 62
7
  6
CONTINUOUS
 10
-5.45
 20
17.15
 11
-2.25
 21
17.15
  0
LINE
  5
502
100
AcDbEntity
  8
RACCORDO
100
AcDbLine
 62
7
  6
CONTINUOUS
 10
2.25
 20
17.15
 11
5.45
 21
17.15
  0
LINE
  5
503
100
AcDbEntity
  8
RACCORDO
100
AcDbLine
 62
7
  6
CONTINUOUS
 10
-5.45
 20
17.65
 11
-2.2499428846
 21
17.65
  0
LINE
  5
504
100
AcDbEntity
  8
GUSCI_ESTERNI
100
AcDbLine
 62
7
  6
CONTINUOUS
 10
8.65
 20
17.65
 11
5.45
 21
17.65
  0
LINE
  5
505
100
AcDbEntity
  8
RACCORDO
100
AcDbLine
 62
7
  6
CONTINUOUS
 10
5.45
 20
17.65
 11
2.2499428846
 21
17.65
  0
LINE
  5
506
100
AcDbEntity
  8
RACCORDO
100
AcDbLine
 62
7
  6
CONTINUOUS
 10
-5.45
 20
17.6674537356
 11
-2.232489149
 21
17.6674537356
  0
LINE
  5
507
100
AcDbEntity
  8
RACCORDO
100
AcDbLine
 62
7
  6
CONTINUOUS
 10
5.45
 20
17.6674537356
 11
2.232489149
 21
17.6674537356
  0
LINE
  5
508
100
AcDbEntity
  8
GUSCI_ESTERNI
100
AcDbLine
 62
7
  6
CONTINUOUS
 10
-5.45
 20
17.675
 11
-8.65
 21
17.675
  0
LINE
  5
509
100
AcDbEntity
  8
ASSI
100
AcDbLine
 62
7
  6
CONTINUOUS
 10
-5.45
 20
17.675
 11
-8.65
 21
17.675
  0
LINE
  5
50A
100
AcDbEntity
  8
DRAFT
100
AcDbLine
 62
7
  6
CONTINUOUS
 10
-5.45
 20
18.6325462644
 11
5.45
 21
18.6325462644
  0
LINE
  5
50B
100
AcDbEntity
  8
ASSI
100
AcDbLine
 62
7
  6
CONTINUOUS
 10
11.0
 20
18.65
 11
10.85
 21
18.65
  0
LINE
  5
50C
100
AcDbEntity
  8
DRAFT
100
AcDbLine
 62
7
  6
CONTINUOUS
 10
11.0
 20
18.65
 11
10.85
 21
18.65
  0
LINE
  5
50D
100
AcDbEntity
  8
DRAFT
100
AcDbLine
 62
7
  6
CONTINUOUS
 10
5.45
 20
18.65
 11
-5.45
 21
18.65
  0
LINE
  5
50E
100
AcDbEntity
  8
GUSCI_ESTERNI
100
AcDbLine
 62
7
  6
CONTINUOUS
 10
5.45
 20
18.65
 11
8.35
 21
18.65
  0
LINE
  5
50F
100
AcDbEntity
  8
ASSI
100
AcDbLine
 62
7
  6
CONTINUOUS
 10
-10.85
 20
18.65
 11
-11.0
 21
18.65
  0
LINE
  5
510
100
AcDbEntity
  8
DRAFT
100
AcDbLine
 62
7
  6
CONTINUOUS
 10
-10.85
 20
18.65
 11
-11.0
 21
18.65
  0
LINE
  5
511
100
AcDbEntity
  8
GUSCI_ESTERNI
100
AcDbLine
 62
7
  6
CONTINUOUS
 10
-8.35
 20
18.67
 11
-5.45
 21
18.67
  0
LINE
  5
512
100
AcDbEntity
  8
ASSI
100
AcDbLine
 62
7
  6
CONTINUOUS
 10
-8.35
 20
18.67
 11
-5.45
 21
18.67
  0
LINE
  5
513
100
AcDbEntity
  8
GUSCI_ESTERNI
100
AcDbLine
 62
7
  6
CONTINUOUS
 10
5.45
 20
17.4
 11
8.65
 21
17.3860370115
  0
LINE
  5
514
100
AcDbEntity
  8
GUSCI_ESTERNI
100
AcDbLine
 62
250
  6
CONTINUOUS
 10
-5.45
 20
20.6000380769
 11
-9.3842960041
 21
20.5657039959
  0
LINE
  5
515
100
AcDbEntity
  8
ASSI
100
AcDbLine
 62
250
  6
CONTINUOUS
 10
-5.45
 20
20.6000380769
 11
-9.3842960041
 21
20.5657039959
  0
LINE
  5
516
100
AcDbEntity
  8
GUSCI_ESTERNI
100
AcDbLine
 62
7
  6
CONTINUOUS
 10
-10.85
 20
19.4811503675
 11
-10.4675145008
 21
19.4824854992
  0
LINE
  5
517
100
AcDbEntity
  8
ASSI
100
AcDbLine
 62
7
  6
CONTINUOUS
 10
-10.85
 20
19.4811503675
 11
-10.4675145008
 21
19.4824854992
  0
LINE
  5
518
100
AcDbEntity
  8
ASSI
100
AcDbLine
 62
7
  6
CONTINUOUS
 10
-12.4
 20
20.1
 11
-11.95
 21
20.1
  0
LINE
  5
519
100
AcDbEntity
  8
DRAFT
100
AcDbLine
 62
7
  6
CONTINUOUS
 10
-12.4
 20
20.1
 11
-11.95
 21
20.1
  0
LINE
  5
51A
100
AcDbEntity
  8
ASSI
100
AcDbLine
 62
7
  6
CONTINUOUS
 10
12.4
 20
20.1
 11
11.95
 21
20.1
  0
LINE
  5
51B
100
AcDbEntity
  8
DRAFT
100
AcDbLine
 62
7
  6
CONTINUOUS
 10
12.4
 20
20.1
 11
11.95
 21
20.1
  0
LINE
  5
51C
100
AcDbEntity
  8
ASSI
100
AcDbLine
 62
7
  6
CONTINUOUS
 10
-12.5745506493
 20
20.2745506493
 11
-12.0223012463
 21
20.2745506493
  0
LINE
  5
51D
100
AcDbEntity
  8
DRAFT
100
AcDbLine
 62
7
  6
CONTINUOUS
 10
-12.5745506493
 20
20.2745506493
 11
-12.0223012463
 21
20.2745506493
  0
LINE
  5
51E
100
AcDbEntity
  8
ASSI
100
AcDbLine
 62
7
  6
CONTINUOUS
 10
12.0223012463
 20
20.2745506493
 11
12.5745506493
 21
20.2745506493
  0
LINE
  5
51F
100
AcDbEntity
  8
DRAFT
100
AcDbLine
 62
7
  6
CONTINUOUS
 10
12.0223012463
 20
20.2745506493
 11
12.5745506493
 21
20.2745506493
  0
LINE
  5
520
100
AcDbEntity
  8
GUSCI_ESTERNI
100
AcDbLine
 62
250
  6
CONTINUOUS
 10
5.45
 20
20.5000380769
 11
9.3842960041
 21
20.4657039959
  0
LINE
  5
521
100
AcDbEntity
  8
ASSI
100
AcDbLine
 62
7
  6
CONTINUOUS
 10
6.2594995372
 20
-23.1905004628
 11
6.2
 21
-23.25
  0
LINE
  5
522
100
AcDbEntity
  8
RACCORDO
100
AcDbLine
 62
7
  6
CONTINUOUS
 10
6.2594995372
 20
-23.1905004628
 11
6.2
 21
-23.25
  0
LINE
  5
523
100
AcDbEntity
  8
GUSCI_ESTERNI
100
AcDbLine
 62
7
  6
CONTINUOUS
 10
10.85
 20
-19.0
 11
8.3755307198
 21
-21.4744692802
  0
LINE
  5
524
100
AcDbEntity
  8
GUSCI_ESTERNI
100
AcDbLine
 62
7
  6
CONTINUOUS
 10
-5.45
 20
21.6
 11
-8.3755307198
 21
21.5744692802
  0
LINE
  5
525
100
AcDbEntity
  8
ASSI
100
AcDbLine
 62
7
  6
CONTINUOUS
 10
-5.45
 20
21.6
 11
-8.3755307198
 21
21.5744692802
  0
LINE
  5
526
100
AcDbEntity
  8
RACCORDO
100
AcDbLine
 62
250
  6
CONTINUOUS
 10
-5.45
 20
20.7586887894
 11
5.45
 21
20.7586887894
  0
LINE
  5
527
100
AcDbEntity
  8
ASSI
100
AcDbLine
 62
7
  6
CONTINUOUS
 10
-10.8952696104
 20
20.7952696104
 11
-9.1547303896
 21
20.7952696104
  0
LINE
  5
528
100
AcDbEntity
  8
DRAFT
100
AcDbLine
 62
7
  6
CONTINUOUS
 10
-10.8952696104
 20
20.7952696104
 11
-9.1547303896
 21
20.7952696104
  0
LINE
  5
529
100
AcDbEntity
  8
ASSI
100
AcDbLine
 62
7
  6
CONTINUOUS
 10
9.0547303896
 20
20.7952696104
 11
10.8952696104
 21
20.7952696104
  0
LINE
  5
52A
100
AcDbEntity
  8
DRAFT
100
AcDbLine
 62
7
  6
CONTINUOUS
 10
9.0547303896
 20
20.7952696104
 11
10.8952696104
 21
20.7952696104
  0
LINE
  5
52B
100
AcDbEntity
  8
ASSI
100
AcDbLine
 62
7
  6
CONTINUOUS
 10
11.15
 20
20.9
 11
11.0
 21
20.9
  0
LINE
  5
52C
100
AcDbEntity
  8
ASSI
100
AcDbLine
 62
7
  6
CONTINUOUS
 10
-11.15
 20
20.9
 11
-11.0
 21
20.9
  0
LINE
  5
52D
100
AcDbEntity
  8
DRAFT
100
AcDbLine
 62
7
  6
CONTINUOUS
 10
11.15
 20
20.9
 11
11.0
 21
20.9
  0
LINE
  5
52E
100
AcDbEntity
  8
DRAFT
100
AcDbLine
 62
7
  6
CONTINUOUS
 10
-11.15
 20
20.9
 11
-11.0
 21
20.9
  0
LINE
  5
52F
100
AcDbEntity
  8
ASSI
100
AcDbLine
 62
7
  6
CONTINUOUS
 10
-11.2223012463
 20
21.0745506493
 11
-8.8754493507
 21
21.0745506493
  0
LINE
  5
530
100
AcDbEntity
  8
DRAFT
100
AcDbLine
 62
7
  6
CONTINUOUS
 10
-11.2223012463
 20
21.0745506493
 11
-8.8754493507
 21
21.0745506493
  0
LINE
  5
531
100
AcDbEntity
  8
ASSI
100
AcDbLine
 62
7
  6
CONTINUOUS
 10
8.7754493507
 20
21.0745506493
 11
11.2223012463
 21
21.0745506493
  0
LINE
  5
532
100
AcDbEntity
  8
DRAFT
100
AcDbLine
 62
7
  6
CONTINUOUS
 10
8.7754493507
 20
21.0745506493
 11
11.2223012463
 21
21.0745506493
  0
LINE
  5
533
100
AcDbEntity
  8
RACCORDO
100
AcDbLine
 62
250
  6
CONTINUOUS
 10
-5.45
 20
21.7586507125
 11
5.45
 21
21.7586507125
  0
LINE
  5
534
100
AcDbEntity
  8
DRAFT
100
AcDbLine
 62
7
  6
CONTINUOUS
 10
5.45
 20
21.7587268678
 11
-5.45
 21
21.7587268678
  0
LINE
  5
535
100
AcDbEntity
  8
ASSI
100
AcDbLine
 62
7
  6
CONTINUOUS
 10
6.2680747532
 20
22.4210294095
 11
4.0
 21
22.4210294095
  0
LINE
  5
536
100
AcDbEntity
  8
DRAFT
100
AcDbLine
 62
7
  6
CONTINUOUS
 10
6.2680747532
 20
22.4210294095
 11
4.0
 21
22.4210294095
  0
LINE
  5
537
100
AcDbEntity
  8
ASSI
100
AcDbLine
 62
7
  6
CONTINUOUS
 10
-4.0
 20
22.4210294095
 11
-6.2680747532
 21
22.4210294095
  0
LINE
  5
538
100
AcDbEntity
  8
DRAFT
100
AcDbLine
 62
7
  6
CONTINUOUS
 10
-4.0
 20
22.4210294095
 11
-6.2680747532
 21
22.4210294095
  0
LINE
  5
539
100
AcDbEntity
  8
ASSI
100
AcDbLine
 62
7
  6
CONTINUOUS
 10
10.2254493507
 20
22.5
 11
7.9319252468
 21
22.5
  0
LINE
  5
53A
100
AcDbEntity
  8
DRAFT
100
AcDbLine
 62
7
  6
CONTINUOUS
 10
10.2254493507
 20
22.5
 11
7.9319252468
 21
22.5
  0
LINE
  5
53B
100
AcDbEntity
  8
ASSI
100
AcDbLine
 62
7
  6
CONTINUOUS
 10
-3.9663934426
 20
22.5
 11
-3.75
 21
22.5
  0
LINE
  5
53C
100
AcDbEntity
  8
0
100
AcDbLine
 62
7
  6
CONTINUOUS
 10
-3.9
 20
22.5
 11
-3.75
 21
22.5
  0
LINE
  5
53D
100
AcDbEntity
  8
RACCORDO
100
AcDbLine
 62
7
  6
CONTINUOUS
 10
-3.9663934426
 20
22.5
 11
-3.9
 21
22.5
  0
LINE
  5
53E
100
AcDbEntity
  8
0
100
AcDbLine
 62
7
  6
CONTINUOUS
 10
3.75
 20
22.5
 11
3.9
 21
22.5
  0
LINE
  5
53F
100
AcDbEntity
  8
ASSI
100
AcDbLine
 62
7
  6
CONTINUOUS
 10
3.75
 20
22.5
 11
3.9663934426
 21
22.5
  0
LINE
  5
540
100
AcDbEntity
  8
RACCORDO
100
AcDbLine
 62
7
  6
CONTINUOUS
 10
3.9
 20
22.5
 11
3.9663934426
 21
22.5
  0
LINE
  5
541
100
AcDbEntity
  8
ASSI
100
AcDbLine
 62
7
  6
CONTINUOUS
 10
-7.9319252468
 20
22.5
 11
-10.2254493507
 21
22.5
  0
LINE
  5
542
100
AcDbEntity
  8
DRAFT
100
AcDbLine
 62
7
  6
CONTINUOUS
 10
-7.9319252468
 20
22.5
 11
-10.2254493507
 21
22.5
  0
LINE
  5
543
100
AcDbEntity
  8
GUSCI_ESTERNI
100
AcDbLine
 62
7
  6
CONTINUOUS
 10
5.45
 20
21.5
 11
8.3755307198
 21
21.4744692802
  0
LINE
  5
544
100
AcDbEntity
  8
ASSI
100
AcDbLine
 62
7
  6
CONTINUOUS
 10
6.2594995372
 20
23.1905004628
 11
6.2
 21
23.25
  0
LINE
  5
545
100
AcDbEntity
  8
RACCORDO
100
AcDbLine
 62
7
  6
CONTINUOUS
 10
6.2594995372
 20
23.1905004628
 11
6.2
 21
23.25
  0
LINE
  5
546
100
AcDbEntity
  8
GUSCI_ESTERNI
100
AcDbLine
 62
7
  6
CONTINUOUS
 10
8.3755307198
 20
21.4744692802
 11
10.85
 21
19.0
  0
LINE
  5
547
100
AcDbEntity
  8
ASSI
100
AcDbLine
 62
7
  6
CONTINUOUS
 10
11.95
 20
-20.1
 11
11.15
 21
-20.9
  0
LINE
  5
548
100
AcDbEntity
  8
DRAFT
100
AcDbLine
 62
7
  6
CONTINUOUS
 10
11.95
 20
-20.1
 11
11.15
 21
-20.9
  0
LINE
  5
549
100
AcDbEntity
  8
ASSI
100
AcDbLine
 62
7
  6
CONTINUOUS
 10
12.0223012463
 20
-20.2745506493
 11
11.2223012463
 21
-21.0745506493
  0
LINE
  5
54A
100
AcDbEntity
  8
DRAFT
100
AcDbLine
 62
7
  6
CONTINUOUS
 10
12.0223012463
 20
-20.2745506493
 11
11.2223012463
 21
-21.0745506493
  0
LINE
  5
54B
100
AcDbEntity
  8
ASSI
100
AcDbLine
 62
250
  6
CONTINUOUS
 10
-7.9319252468
 20
22.6905766152
 11
-6.2680747532
 21
22.6905766152
  0
LINE
  5
54C
100
AcDbEntity
  8
RACCORDO
100
AcDbLine
 62
250
  6
CONTINUOUS
 10
-7.9319252468
 20
22.6905766152
 11
-6.2680747532
 21
22.6905766152
  0
LINE
  5
54D
100
AcDbEntity
  8
ASSI
100
AcDbLine
 62
250
  6
CONTINUOUS
 10
6.2680747532
 20
22.6905766152
 11
7.9319252468
 21
22.6905766152
  0
LINE
  5
54E
100
AcDbEntity
  8
RACCORDO
100
AcDbLine
 62
250
  6
CONTINUOUS
 10
6.2680747532
 20
22.6905766152
 11
7.9319252468
 21
22.6905766152
  0
LINE
  5
54F
100
AcDbEntity
  8
0
100
AcDbLine
 62
250
  6
CONTINUOUS
 10
-3.75
 20
22.997260236
 11
3.75
 21
22.997260236
  0
LINE
  5
550
100
AcDbEntity
  8
RACCORDO
100
AcDbLine
 62
7
  6
CONTINUOUS
 10
-3.9680327869
 20
23.0663484979
 11
-3.95
 21
23.0663484979
  0
LINE
  5
551
100
AcDbEntity
  8
RACCORDO
100
AcDbLine
 62
7
  6
CONTINUOUS
 10
3.9680327869
 20
23.0663484979
 11
3.95
 21
23.0663484979
  0
LINE
  5
552
100
AcDbEntity
  8
ASSI
100
AcDbLine
 62
250
  6
CONTINUOUS
 10
-7.9405004628
 20
23.1905004628
 11
-6.2594995372
 21
23.1905004628
  0
LINE
  5
553
100
AcDbEntity
  8
RACCORDO
100
AcDbLine
 62
250
  6
CONTINUOUS
 10
-7.9405004628
 20
23.1905004628
 11
-6.2594995372
 21
23.1905004628
  0
LINE
  5
554
100
AcDbEntity
  8
ASSI
100
AcDbLine
 62
250
  6
CONTINUOUS
 10
6.2594995372
 20
23.1905004628
 11
7.9405004628
 21
23.1905004628
  0
LINE
  5
555
100
AcDbEntity
  8
RACCORDO
100
AcDbLine
 62
250
  6
CONTINUOUS
 10
6.2594995372
 20
23.1905004628
 11
7.9405004628
 21
23.1905004628
  0
LINE
  5
556
100
AcDbEntity
  8
ASSI
100
AcDbLine
 62
7
  6
CONTINUOUS
 10
3.9680327869
 20
23.25
 11
8.0
 21
23.25
  0
LINE
  5
557
100
AcDbEntity
  8
ASSI
100
AcDbLine
 62
7
  6
CONTINUOUS
 10
-3.9680327869
 20
23.25
 11
-8.0
 21
23.25
  0
LINE
  5
558
100
AcDbEntity
  8
DRAFT
100
AcDbLine
 62
7
  6
CONTINUOUS
 10
3.9680327869
 20
23.25
 11
8.0
 21
23.25
  0
LINE
  5
559
100
AcDbEntity
  8
DRAFT
100
AcDbLine
 62
7
  6
CONTINUOUS
 10
-3.9680327869
 20
23.25
 11
-8.0
 21
23.25
  0
LINE
  5
55A
100
AcDbEntity
  8
RACCORDO
100
AcDbLine
 62
7
  6
CONTINUOUS
 10
-6.0
 20
23.4568669008
 11
-3.95
 21
23.4568669008
  0
LINE
  5
55B
100
AcDbEntity
  8
RACCORDO
100
AcDbLine
 62
7
  6
CONTINUOUS
 10
6.0
 20
23.4568669008
 11
3.95
 21
23.4568669008
  0
LINE
  5
55C
100
AcDbEntity
  8
RACCORDO
100
AcDbLine
 62
7
  6
CONTINUOUS
 10
4.3
 20
24.1392925494
 11
1.4
 21
24.1392925494
  0
LINE
  5
55D
100
AcDbEntity
  8
RACCORDO
100
AcDbLine
 62
7
  6
CONTINUOUS
 10
-1.4
 20
24.1392925494
 11
-4.3
 21
24.1392925494
  0
LINE
  5
55E
100
AcDbEntity
  8
ASSI
100
AcDbLine
 62
7
  6
CONTINUOUS
 10
12.3245887255
 20
24.1745506493
 11
10.4754112745
 21
24.1745506493
  0
LINE
  5
55F
100
AcDbEntity
  8
RACCORDO
100
AcDbLine
 62
7
  6
CONTINUOUS
 10
12.3245887255
 20
24.1745506493
 11
10.4754112745
 21
24.1745506493
  0
LINE
  5
560
100
AcDbEntity
  8
ASSI
100
AcDbLine
 62
7
  6
CONTINUOUS
 10
-10.4754112745
 20
24.1745506493
 11
-12.3245887255
 21
24.1745506493
  0
LINE
  5
561
100
AcDbEntity
  8
RACCORDO
100
AcDbLine
 62
7
  6
CONTINUOUS
 10
-10.4754112745
 20
24.1745506493
 11
-12.3245887255
 21
24.1745506493
  0
LINE
  5
562
100
AcDbEntity
  8
0
100
AcDbLine
 62
250
  6
CONTINUOUS
 10
-4.5
 20
24.4127334806
 11
-1.2
 21
24.4127334806
  0
LINE
  5
563
100
AcDbEntity
  8
0
100
AcDbLine
 62
250
  6
CONTINUOUS
 10
1.2
 20
24.4127334806
 11
4.5
 21
24.4127334806
  0
LINE
  5
564
100
AcDbEntity
  8
ASSI
100
AcDbLine
 62
7
  6
CONTINUOUS
 10
11.15
 20
20.9
 11
11.95
 21
20.1
  0
LINE
  5
565
100
AcDbEntity
  8
DRAFT
100
AcDbLine
 62
7
  6
CONTINUOUS
 10
11.15
 20
20.9
 11
11.95
 21
20.1
  0
LINE
  5
566
100
AcDbEntity
  8
ASSI
100
AcDbLine
 62
7
  6
CONTINUOUS
 10
11.2223012463
 20
21.0745506493
 11
12.0223012463
 21
20.2745506493
  0
LINE
  5
567
100
AcDbEntity
  8
DRAFT
100
AcDbLine
 62
7
  6
CONTINUOUS
 10
11.2223012463
 20
21.0745506493
 11
12.0223012463
 21
20.2745506493
  0
LINE
  5
568
100
AcDbEntity
  8
RACCORDO
100
AcDbLine
 62
7
  6
CONTINUOUS
 10
-4.3
 20
24.4630248726
 11
-1.4
 21
24.4630248726
  0
LINE
  5
569
100
AcDbEntity
  8
RACCORDO
100
AcDbLine
 62
7
  6
CONTINUOUS
 10
1.4
 20
24.4630248726
 11
4.3
 21
24.4630248726
  0
LINE
  5
56A
100
AcDbEntity
  8
RACCORDO
100
AcDbLine
 62
7
  6
CONTINUOUS
 10
-4.3
 20
24.8535432754
 11
-1.4
 21
24.8535432754
  0
LINE
  5
56B
100
AcDbEntity
  8
RACCORDO
100
AcDbLine
 62
7
  6
CONTINUOUS
 10
1.4
 20
24.8535432754
 11
4.3
 21
24.8535432754
  0
LINE
  5
56C
100
AcDbEntity
  8
0
100
AcDbLine
 62
250
  6
CONTINUOUS
 10
-6.0
 20
24.9043714339
 11
6.0
 21
24.9043714339
  0
LINE
  5
56D
100
AcDbEntity
  8
0
100
AcDbLine
 62
7
  6
CONTINUOUS
 10
-6.0
 20
24.9162234303
 11
6.0
 21
24.9162234303
  0
ARC
  5
56E
100
AcDbEntity
  8
SMUSSO
100
AcDbCircle
 62
7
  6
CONTINUOUS
 10
-5.05
 20
-1.5
 40
1.35
100
AcDbArc
 50
170.4031420291
 51
189.5968579709
  0
ARC
  5
56F
100
AcDbEntity
  8
RACCORDO
100
AcDbCircle
 62
7
  6
CONTINUOUS
 10
-2.25
 20
-15.9
 40
1.0
100
AcDbArc
 50
270.0
 51
360.0
  0
ARC
  5
570
100
AcDbEntity
  8
RACCORDO
100
AcDbCircle
 62
7
  6
CONTINUOUS
 10
-2.25
 20
-14.4
 40
1.0
100
AcDbArc
 50
0.0
 51
90.0
  0
ARC
  5
571
100
AcDbEntity
  8
GUSCI_ESTERNI
100
AcDbCircle
 62
7
  6
CONTINUOUS
 10
-8.6
 20
-15.9
 40
1.0
100
AcDbArc
 50
180.0
 51
270.0
  0
ARC
  5
572
100
AcDbEntity
  8
GUSCI_ESTERNI
100
AcDbCircle
 62
7
  6
CONTINUOUS
 10
-8.6
 20
-14.4
 40
1.0
100
AcDbArc
 50
90.0
 51
180.0
  0
ARC
  5
573
100
AcDbEntity
  8
ASSI
100
AcDbCircle
 62
7
  6
CONTINUOUS
 10
-8.6
 20
-15.9
 40
1.0
100
AcDbArc
 50
180.0
 51
270.0
  0
ARC
  5
574
100
AcDbEntity
  8
ASSI
100
AcDbCircle
 62
7
  6
CONTINUOUS
 10
-8.6
 20
-14.4
 40
1.0
100
AcDbArc
 50
90.0
 51
180.0
  0
ARC
  5
575
100
AcDbEntity
  8
SMUSSO
100
AcDbCircle
 62
7
  6
CONTINUOUS
 10
-5.05
 20
-1.5
 40
0.85
100
AcDbArc
 50
151.9249350285
 51
208.0750649715
  0
ARC
  5
576
100
AcDbEntity
  8
ASSI
100
AcDbCircle
 62
7
  6
CONTINUOUS
 10
-5.45
 20
-1.5
 40
0.4
100
AcDbArc
 50
270.0
 51
90.0
  0
ARC
  5
577
100
AcDbEntity
  8
GUSCI_ESTERNI
100
AcDbCircle
 62
7
  6
CONTINUOUS
 10
-6.05
 20
-1.5
 40
0.4
100
AcDbArc
 50
90.0
 51
270.0
  0
ARC
  5
578
100
AcDbEntity
  8
ASSI
100
AcDbCircle
 62
7
  6
CONTINUOUS
 10
-6.05
 20
-1.5
 40
0.4
100
AcDbArc
 50
90.0
 51
270.0
  0
ARC
  5
579
100
AcDbEntity
  8
0
100
AcDbCircle
 62
7
  6
CONTINUOUS
 10
-5.05
 20
-1.5
 40
0.2
100
AcDbArc
 50
104.5103154316
 51
255.4896845684
  0
ARC
  5
57A
100
AcDbEntity
  8
0
100
AcDbCircle
 62
7
  6
CONTINUOUS
 10
-7.8196435622
 20
18.8152603286
 40
7.2371706097
100
AcDbArc
 50
311.5601316655
 51
315.0245376775
  0
ARC
  5
57B
100
AcDbEntity
  8
0
100
AcDbCircle
 62
7
  6
CONTINUOUS
 10
-3.2208571884
 20
18.6661245296
 40
7.0323720025
100
AcDbArc
 50
224.9250002878
 51
228.4903222757
  0
ARC
  5
57C
100
AcDbEntity
  8
GUSCI_ESTERNI
100
AcDbCircle
 62
7
  6
CONTINUOUS
 10
-8.35
 20
16.17
 40
2.5
100
AcDbArc
 50
90.0
 51
180.0
  0
ARC
  5
57D
100
AcDbEntity
  8
GUSCI_ESTERNI
100
AcDbCircle
 62
7
  6
CONTINUOUS
 10
-8.35
 20
14.13
 40
2.5
100
AcDbArc
 50
180.0
 51
270.0
  0
ARC
  5
57E
100
AcDbEntity
  8
ASSI
100
AcDbCircle
 62
7
  6
CONTINUOUS
 10
-8.35
 20
16.17
 40
2.5
100
AcDbArc
 50
90.0
 51
180.0
  0
ARC
  5
57F
100
AcDbEntity
  8
ASSI
100
AcDbCircle
 62
7
  6
CONTINUOUS
 10
-8.35
 20
14.13
 40
2.5
100
AcDbArc
 50
180.0
 51
270.0
  0
ARC
  5
580
100
AcDbEntity
  8
GUSCI_ESTERNI
100
AcDbCircle
 62
7
  6
CONTINUOUS
 10
-8.65
 20
14.125
 40
1.5
100
AcDbArc
 50
180.0
 51
270.0
  0
ARC
  5
581
100
AcDbEntity
  8
GUSCI_ESTERNI
100
AcDbCircle
 62
7
  6
CONTINUOUS
 10
-8.65
 20
16.175
 40
1.5
100
AcDbArc
 50
90.0
 51
180.0
  0
ARC
  5
582
100
AcDbEntity
  8
ASSI
100
AcDbCircle
 62
7
  6
CONTINUOUS
 10
-8.65
 20
14.125
 40
1.5
100
AcDbArc
 50
180.0
 51
270.0
  0
ARC
  5
583
100
AcDbEntity
  8
ASSI
100
AcDbCircle
 62
7
  6
CONTINUOUS
 10
-8.65
 20
16.175
 40
1.5
100
AcDbArc
 50
90.0
 51
180.0
  0
ARC
  5
584
100
AcDbEntity
  8
RACCORDO
100
AcDbCircle
 62
7
  6
CONTINUOUS
 10
-2.25
 20
15.9
 40
1.0
100
AcDbArc
 50
0.0
 51
90.0
  0
ARC
  5
585
100
AcDbEntity
  8
RACCORDO
100
AcDbCircle
 62
7
  6
CONTINUOUS
 10
-2.25
 20
14.4
 40
1.0
100
AcDbArc
 50
270.0
 51
360.0
  0
ARC
  5
586
100
AcDbEntity
  8
GUSCI_ESTERNI
100
AcDbCircle
 62
7
  6
CONTINUOUS
 10
-8.6
 20
14.4
 40
1.0
100
AcDbArc
 50
180.0
 51
270.0
  0
ARC
  5
587
100
AcDbEntity
  8
GUSCI_ESTERNI
100
AcDbCircle
 62
7
  6
CONTINUOUS
 10
-8.6
 20
15.9
 40
1.0
100
AcDbArc
 50
90.0
 51
180.0
  0
ARC
  5
588
100
AcDbEntity
  8
ASSI
100
AcDbCircle
 62
7
  6
CONTINUOUS
 10
-8.6
 20
14.4
 40
1.0
100
AcDbArc
 50
180.0
 51
270.0
  0
ARC
  5
589
100
AcDbEntity
  8
ASSI
100
AcDbCircle
 62
7
  6
CONTINUOUS
 10
-8.6
 20
15.9
 40
1.0
100
AcDbArc
 50
90.0
 51
180.0
  0
ARC
  5
58A
100
AcDbEntity
  8
RACCORDO
100
AcDbCircle
 62
7
  6
CONTINUOUS
 10
2.25
 20
-14.4
 40
1.0
100
AcDbArc
 50
90.0
 51
180.0
  0
ARC
  5
58B
100
AcDbEntity
  8
RACCORDO
100
AcDbCircle
 62
7
  6
CONTINUOUS
 10
2.25
 20
-15.9
 40
1.0
100
AcDbArc
 50
180.0
 51
270.0
  0
ARC
  5
58C
100
AcDbEntity
  8
GUSCI_ESTERNI
100
AcDbCircle
 62
7
  6
CONTINUOUS
 10
8.65
 20
-14.4
 40
1.0
100
AcDbArc
 50
0.0
 51
90.0
  0
ARC
  5
58D
100
AcDbEntity
  8
GUSCI_ESTERNI
100
AcDbCircle
 62
7
  6
CONTINUOUS
 10
8.65
 20
-15.9
 40
1.0
100
AcDbArc
 50
270.0
 51
360.0
  0
ARC
  5
58E
100
AcDbEntity
  8
ASSI
100
AcDbCircle
 62
7
  6
CONTINUOUS
 10
5.45
 20
-0.5
 40
0.4
100
AcDbArc
 50
90.0
 51
270.0
  0
ARC
  5
58F
100
AcDbEntity
  8
GUSCI_ESTERNI
100
AcDbCircle
 62
7
  6
CONTINUOUS
 10
6.05
 20
-1.5
 40
0.4
100
AcDbArc
 50
270.0
 51
90.0
  0
ARC
  5
590
100
AcDbEntity
  8
0
100
AcDbCircle
 62
7
  6
CONTINUOUS
 10
3.0803564378
 20
18.8152603286
 40
7.2371706097
100
AcDbArc
 50
311.5601316655
 51
315.0245376775
  0
ARC
  5
591
100
AcDbEntity
  8
0
100
AcDbCircle
 62
7
  6
CONTINUOUS
 10
7.6791428116
 20
18.6661245296
 40
7.0323720025
100
AcDbArc
 50
224.9250002878
 51
228.4903222757
  0
ARC
  5
592
100
AcDbEntity
  8
GUSCI_ESTERNI
100
AcDbCircle
 62
7
  6
CONTINUOUS
 10
8.35
 20
14.15
 40
2.5
100
AcDbArc
 50
270.0
 51
360.0
  0
ARC
  5
593
100
AcDbEntity
  8
GUSCI_ESTERNI
100
AcDbCircle
 62
7
  6
CONTINUOUS
 10
8.35
 20
16.15
 40
2.5
100
AcDbArc
 50
0.0
 51
90.0
  0
ARC
  5
594
100
AcDbEntity
  8
GUSCI_ESTERNI
100
AcDbCircle
 62
7
  6
CONTINUOUS
 10
8.65
 20
16.15
 40
1.5
100
AcDbArc
 50
0.0
 51
90.0
  0
ARC
  5
595
100
AcDbEntity
  8
GUSCI_ESTERNI
100
AcDbCircle
 62
7
  6
CONTINUOUS
 10
8.65
 20
14.15
 40
1.5
100
AcDbArc
 50
270.0
 51
360.0
  0
ARC
  5
596
100
AcDbEntity
  8
RACCORDO
100
AcDbCircle
 62
7
  6
CONTINUOUS
 10
2.25
 20
14.4
 40
1.0
100
AcDbArc
 50
180.0
 51
270.0
  0
ARC
  5
597
100
AcDbEntity
  8
RACCORDO
100
AcDbCircle
 62
7
  6
CONTINUOUS
 10
2.25
 20
15.9
 40
1.0
100
AcDbArc
 50
90.0
 51
180.0
  0
ARC
  5
598
100
AcDbEntity
  8
GUSCI_ESTERNI
100
AcDbCircle
 62
7
  6
CONTINUOUS
 10
8.65
 20
15.9
 40
1.0
100
AcDbArc
 50
0.0
 51
90.0
  0
ARC
  5
599
100
AcDbEntity
  8
GUSCI_ESTERNI
100
AcDbCircle
 62
7
  6
CONTINUOUS
 10
8.65
 20
14.4
 40
1.0
100
AcDbArc
 50
270.0
 51
360.0
  0
SPLINE
  5
59A
100
AcDbEntity
  8
0
100
AcDbSpline
 62
7
  6
CONTINUOUS
 70
0
 71
3
 72
9
 73
5
 74
0
 42
0.0000001
 43
0.0000001
 44
0.0000000001
 40
0.0
 40
0.0
 40
0.0
 40
0.0
 40
0.2524113349
 40
1.0
 40
1.0
 40
1.0
 40
1.0
 10
7.4243387093
 20
-13.3999971474
 30
0.0
 10
7.4570413176
 20
-13.4282324183
 30
0.0
 10
7.5854584643
 20
-13.5414164051
 30
0.0
 10
7.7095153135
 20
-13.6595153135
 30
0.0
 10
7.8
 20
-13.75
 30
0.0
  0
SPLINE
  5
59B
100
AcDbEntity
  8
0
100
AcDbSpline
 62
7
  6
CONTINUOUS
 70
0
 71
3
 72
9
 73
5
 74
0
 42
0.0000001
 43
0.0000001
 44
0.0000000001
 40
0.0
 40
0.0
 40
0.0
 40
0.0
 40
0.2477416241
 40
1.0
 40
1.0
 40
1.0
 40
1.0
 10
2.3
 20
-13.75
 30
0.0
 10
2.3299852641
 20
-13.7200147359
 30
0.0
 10
2.4520046871
 20
-13.599973167
 30
0.0
 10
2.5781996967
 20
-13.4841449941
 30
0.0
 10
2.6756621009
 20
-13.3999964479
 30
0.0
  0
SPLINE
  5
59C
100
AcDbEntity
  8
0
100
AcDbSpline
 62
7
  6
CONTINUOUS
 70
0
 71
3
 72
9
 73
5
 74
0
 42
0.0000001
 43
0.0000001
 44
0.0000000001
 40
0.0
 40
0.0
 40
0.0
 40
0.0
 40
0.2524113349
 40
1.0
 40
1.0
 40
1.0
 40
1.0
 10
-3.0756612907
 20
-13.3999971474
 30
0.0
 10
-3.0429586824
 20
-13.4282324183
 30
0.0
 10
-2.9145415357
 20
-13.5414164051
 30
0.0
 10
-2.7904846865
 20
-13.6595153135
 30
0.0
 10
-2.7
 20
-13.75
 30
0.0
  0
SPLINE
  5
59D
100
AcDbEntity
  8
0
100
AcDbSpline
 62
7
  6
CONTINUOUS
 70
0
 71
3
 72
9
 73
5
 74
0
 42
0.0000001
 43
0.0000001
 44
0.0000000001
 40
0.0
 40
0.0
 40
0.0
 40
0.0
 40
0.2477416241
 40
1.0
 40
1.0
 40
1.0
 40
1.0
 10
-8.2
 20
-13.75
 30
0.0
 10
-8.1700147359
 20
-13.7200147359
 30
0.0
 10
-8.0479953129
 20
-13.599973167
 30
0.0
 10
-7.9218003033
 20
-13.4841449941
 30
0.0
 10
-7.8243378991
 20
-13.3999964479
 30
0.0
  0
SPLINE
  5
59E
100
AcDbEntity
  8
RACCORDO
100
AcDbSpline
 62
7
  6
CONTINUOUS
 70
0
 71
3
 72
16
 73
12
 74
0
 42
0.0000001
 43
0.0000001
 44
0.0000000001
 40
0.0
 40
0.0
 40
0.0
 40
0.0
 40
0.0439340091
 40
0.0737823966
 40
0.1103701043
 40
0.2047872349
 40
0.3265890441
 40
0.4723443811
 40
0.6371645996
 40
0.8152025384
 40
1.0
 40
1.0
 40
1.0
 40
1.0
 10
-4.5
 20
-24.1825804722
 30
0.0
 10
-4.5
 20
-24.1794876999
 30
0.0
 10
-4.4971033462
 20
-24.1744630501
 30
0.0
 10
-4.4911109878
 20
-24.1696114685
 30
0.0
 10
-4.4813033352
 20
-24.1638171764
 30
0.0
 10
-4.4645668221
 20
-24.1575452664
 30
0.0
 10
-4.4398494491
 20
-24.1512544699
 30
0.0
 10
-4.4098274464
 20
-24.1460835797
 30
0.0
 10
-4.3756352352
 20
-24.14221377
 30
0.0
 10
-4.3385544418
 20
-24.1398274433
 30
0.0
 10
-4.3130089763
 20
-24.1392925494
 30
0.0
 10
-4.3
 20
-24.1392925494
 30
0.0
  0
SPLINE
  5
59F
100
AcDbEntity
  8
RACCORDO
100
AcDbSpline
 62
7
  6
CONTINUOUS
 70
0
 71
3
 72
16
 73
12
 74
0
 42
0.0000001
 43
0.0000001
 44
0.0000000001
 40
0.0
 40
0.0
 40
0.0
 40
0.0
 40
0.1847974616
 40
0.3628354004
 40
0.5276556189
 40
0.6734109559
 40
0.7952127651
 40
0.8896298957
 40
0.9262176034
 40
0.9560659909
 40
1.0
 40
1.0
 40
1.0
 40
1.0
 10
-1.4
 20
-24.1392925494
 30
0.0
 10
-1.3869910237
 20
-24.1392925494
 30
0.0
 10
-1.3614455582
 20
-24.1398274433
 30
0.0
 10
-1.3243647648
 20
-24.14221377
 30
0.0
 10
-1.2901725536
 20
-24.1460835797
 30
0.0
 10
-1.2601505509
 20
-24.1512544699
 30
0.0
 10
-1.2354331779
 20
-24.1575452664
 30
0.0
 10
-1.2186966648
 20
-24.1638171764
 30
0.0
 10
-1.2088890122
 20
-24.1696114685
 30
0.0
 10
-1.2028966538
 20
-24.1744630501
 30
0.0
 10
-1.2
 20
-24.1794876999
 30
0.0
 10
-1.2
 20
-24.1825804722
 30
0.0
  0
SPLINE
  5
5A0
100
AcDbEntity
  8
RACCORDO
100
AcDbSpline
 62
7
  6
CONTINUOUS
 70
0
 71
3
 72
16
 73
12
 74
0
 42
0.0000001
 43
0.0000001
 44
0.0000000001
 40
0.0
 40
0.0
 40
0.0
 40
0.0
 40
0.1847974616
 40
0.3628354004
 40
0.5276556189
 40
0.6734109559
 40
0.7952127651
 40
0.8896298957
 40
0.9262176034
 40
0.9560659909
 40
1.0
 40
1.0
 40
1.0
 40
1.0
 10
4.3
 20
-24.1392925494
 30
0.0
 10
4.3130089763
 20
-24.1392925494
 30
0.0
 10
4.3385544418
 20
-24.1398274433
 30
0.0
 10
4.3756352352
 20
-24.14221377
 30
0.0
 10
4.4098274464
 20
-24.1460835797
 30
0.0
 10
4.4398494491
 20
-24.1512544699
 30
0.0
 10
4.4645668221
 20
-24.1575452664
 30
0.0
 10
4.4813033352
 20
-24.1638171764
 30
0.0
 10
4.4911109878
 20
-24.1696114685
 30
0.0
 10
4.4971033462
 20
-24.1744630501
 30
0.0
 10
4.5
 20
-24.1794876999
 30
0.0
 10
4.5
 20
-24.1825804722
 30
0.0
  0
SPLINE
  5
5A1
100
AcDbEntity
  8
RACCORDO
100
AcDbSpline
 62
7
  6
CONTINUOUS
 70
0
 71
3
 72
16
 73
12
 74
0
 42
0.0000001
 43
0.0000001
 44
0.0000000001
 40
0.0
 40
0.0
 40
0.0
 40
0.0
 40
0.0439340091
 40
0.0737823966
 40
0.1103701043
 40
0.2047872349
 40
0.3265890441
 40
0.4723443811
 40
0.6371645996
 40
0.8152025384
 40
1.0
 40
1.0
 40
1.0
 40
1.0
 10
1.2
 20
-24.1825804722
 30
0.0
 10
1.2
 20
-24.1794876999
 30
0.0
 10
1.2028966538
 20
-24.1744630501
 30
0.0
 10
1.2088890122
 20
-24.1696114685
 30
0.0
 10
1.2186966648
 20
-24.1638171764
 30
0.0
 10
1.2354331779
 20
-24.1575452664
 30
0.0
 10
1.2601505509
 20
-24.1512544699
 30
0.0
 10
1.2901725536
 20
-24.1460835797
 30
0.0
 10
1.3243647648
 20
-24.14221377
 30
0.0
 10
1.3614455582
 20
-24.1398274433
 30
0.0
 10
1.3869910237
 20
-24.1392925494
 30
0.0
 10
1.4
 20
-24.1392925494
 30
0.0
  0
SPLINE
  5
5A2
100
AcDbEntity
  8
RACCORDO
100
AcDbSpline
 62
7
  6
CONTINUOUS
 70
0
 71
3
 72
16
 73
12
 74
0
 42
0.0000001
 43
0.0000001
 44
0.0000000001
 40
0.0
 40
0.0
 40
0.0
 40
0.0
 40
0.0439340091
 40
0.0737823966
 40
0.1103701043
 40
0.2047872349
 40
0.3265890441
 40
0.4723443811
 40
0.6371645996
 40
0.8152025384
 40
1.0
 40
1.0
 40
1.0
 40
1.0
 10
4.5
 20
-24.8102553526
 30
0.0
 10
4.5
 20
-24.813348125
 30
0.0
 10
4.4971033462
 20
-24.8183727748
 30
0.0
 10
4.4911109878
 20
-24.8232243563
 30
0.0
 10
4.4813033352
 20
-24.8290186485
 30
0.0
 10
4.4645668221
 20
-24.8352905584
 30
0.0
 10
4.4398494491
 20
-24.8415813549
 30
0.0
 10
4.4098274464
 20
-24.8467522452
 30
0.0
 10
4.3756352352
 20
-24.8506220548
 30
0.0
 10
4.3385544418
 20
-24.8530083816
 30
0.0
 10
4.3130089763
 20
-24.8535432754
 30
0.0
 10
4.3
 20
-24.8535432754
 30
0.0
  0
SPLINE
  5
5A3
100
AcDbEntity
  8
RACCORDO
100
AcDbSpline
 62
7
  6
CONTINUOUS
 70
0
 71
3
 72
16
 73
12
 74
0
 42
0.0000001
 43
0.0000001
 44
0.0000000001
 40
0.0
 40
0.0
 40
0.0
 40
0.0
 40
0.1847974616
 40
0.3628354004
 40
0.5276556189
 40
0.6734109559
 40
0.7952127651
 40
0.8896298957
 40
0.9262176034
 40
0.9560659909
 40
1.0
 40
1.0
 40
1.0
 40
1.0
 10
1.4
 20
-24.8535432754
 30
0.0
 10
1.3869910237
 20
-24.8535432754
 30
0.0
 10
1.3614455582
 20
-24.8530083816
 30
0.0
 10
1.3243647648
 20
-24.8506220548
 30
0.0
 10
1.2901725536
 20
-24.8467522452
 30
0.0
 10
1.2601505509
 20
-24.8415813549
 30
0.0
 10
1.2354331779
 20
-24.8352905584
 30
0.0
 10
1.2186966648
 20
-24.8290186485
 30
0.0
 10
1.2088890122
 20
-24.8232243563
 30
0.0
 10
1.2028966538
 20
-24.8183727748
 30
0.0
 10
1.2
 20
-24.813348125
 30
0.0
 10
1.2
 20
-24.8102553526
 30
0.0
  0
SPLINE
  5
5A4
100
AcDbEntity
  8
RACCORDO
100
AcDbSpline
 62
7
  6
CONTINUOUS
 70
0
 71
3
 72
16
 73
12
 74
0
 42
0.0000001
 43
0.0000001
 44
0.0000000001
 40
0.0
 40
0.0
 40
0.0
 40
0.0
 40
0.1847974616
 40
0.3628354004
 40
0.5276556189
 40
0.6734109559
 40
0.7952127651
 40
0.8896298957
 40
0.9262176034
 40
0.9560659909
 40
1.0
 40
1.0
 40
1.0
 40
1.0
 10
3.95
 20
-23.4568669008
 30
0.0
 10
3.9369910237
 20
-23.4568669008
 30
0.0
 10
3.9114455582
 20
-23.456332007
 30
0.0
 10
3.8743647648
 20
-23.4539456802
 30
0.0
 10
3.8401725536
 20
-23.4500758705
 30
0.0
 10
3.8101505509
 20
-23.4449049803
 30
0.0
 10
3.7854331779
 20
-23.4386141838
 30
0.0
 10
3.7686966648
 20
-23.4323422739
 30
0.0
 10
3.7588890122
 20
-23.4265479817
 30
0.0
 10
3.7528966538
 20
-23.4216964002
 30
0.0
 10
3.75
 20
-23.4166717504
 30
0.0
 10
3.75
 20
-23.413578978
 30
0.0
  0
SPLINE
  5
5A5
100
AcDbEntity
  8
RACCORDO
100
AcDbSpline
 62
7
  6
CONTINUOUS
 70
0
 71
3
 72
16
 73
12
 74
0
 42
0.0000001
 43
0.0000001
 44
0.0000000001
 40
0.0
 40
0.0
 40
0.0
 40
0.0
 40
0.0439340091
 40
0.0737823966
 40
0.1103701043
 40
0.2047872349
 40
0.3265890441
 40
0.4723443811
 40
0.6371645996
 40
0.8152025384
 40
1.0
 40
1.0
 40
1.0
 40
1.0
 10
-1.2
 20
-24.8102553526
 30
0.0
 10
-1.2
 20
-24.813348125
 30
0.0
 10
-1.2028966538
 20
-24.8183727748
 30
0.0
 10
-1.2088890122
 20
-24.8232243563
 30
0.0
 10
-1.2186966648
 20
-24.8290186485
 30
0.0
 10
-1.2354331779
 20
-24.8352905584
 30
0.0
 10
-1.2601505509
 20
-24.8415813549
 30
0.0
 10
-1.2901725536
 20
-24.8467522452
 30
0.0
 10
-1.3243647648
 20
-24.8506220548
 30
0.0
 10
-1.3614455582
 20
-24.8530083816
 30
0.0
 10
-1.3869910237
 20
-24.8535432754
 30
0.0
 10
-1.4
 20
-24.8535432754
 30
0.0
  0
SPLINE
  5
5A6
100
AcDbEntity
  8
RACCORDO
100
AcDbSpline
 62
7
  6
CONTINUOUS
 70
0
 71
3
 72
16
 73
12
 74
0
 42
0.0000001
 43
0.0000001
 44
0.0000000001
 40
0.0
 40
0.0
 40
0.0
 40
0.0
 40
0.0439340091
 40
0.0737823966
 40
0.1103701043
 40
0.2047872349
 40
0.3265890441
 40
0.4723443811
 40
0.6371645996
 40
0.8152025384
 40
1.0
 40
1.0
 40
1.0
 40
1.0
 10
-3.75
 20
-23.413578978
 30
0.0
 10
-3.75
 20
-23.4166717504
 30
0.0
 10
-3.7528966538
 20
-23.4216964002
 30
0.0
 10
-3.7588890122
 20
-23.4265479817
 30
0.0
 10
-3.7686966648
 20
-23.4323422739
 30
0.0
 10
-3.7854331779
 20
-23.4386141838
 30
0.0
 10
-3.8101505509
 20
-23.4449049803
 30
0.0
 10
-3.8401725536
 20
-23.4500758705
 30
0.0
 10
-3.8743647648
 20
-23.4539456802
 30
0.0
 10
-3.9114455582
 20
-23.456332007
 30
0.0
 10
-3.9369910237
 20
-23.4568669008
 30
0.0
 10
-3.95
 20
-23.4568669008
 30
0.0
  0
SPLINE
  5
5A7
100
AcDbEntity
  8
RACCORDO
100
AcDbSpline
 62
7
  6
CONTINUOUS
 70
0
 71
3
 72
16
 73
12
 74
0
 42
0.0000001
 43
0.0000001
 44
0.0000000001
 40
0.0
 40
0.0
 40
0.0
 40
0.0
 40
0.1847974616
 40
0.3628354004
 40
0.5276556189
 40
0.6734109559
 40
0.7952127651
 40
0.8896298957
 40
0.9262176034
 40
0.9560659909
 40
1.0
 40
1.0
 40
1.0
 40
1.0
 10
-4.3
 20
-24.8535432754
 30
0.0
 10
-4.3130089763
 20
-24.8535432754
 30
0.0
 10
-4.3385544418
 20
-24.8530083816
 30
0.0
 10
-4.3756352352
 20
-24.8506220548
 30
0.0
 10
-4.4098274464
 20
-24.8467522452
 30
0.0
 10
-4.4398494491
 20
-24.8415813549
 30
0.0
 10
-4.4645668221
 20
-24.8352905584
 30
0.0
 10
-4.4813033352
 20
-24.8290186485
 30
0.0
 10
-4.4911109878
 20
-24.8232243563
 30
0.0
 10
-4.4971033462
 20
-24.8183727748
 30
0.0
 10
-4.5
 20
-24.813348125
 30
0.0
 10
-4.5
 20
-24.8102553526
 30
0.0
  0
SPLINE
  5
5A8
100
AcDbEntity
  8
RACCORDO
100
AcDbSpline
 62
7
  6
CONTINUOUS
 70
0
 71
3
 72
16
 73
12
 74
0
 42
0.0000001
 43
0.0000001
 44
0.0000000001
 40
0.0
 40
0.0
 40
0.0
 40
0.0
 40
0.0439340091
 40
0.0737823966
 40
0.1103701043
 40
0.2047872349
 40
0.3265890441
 40
0.4723443811
 40
0.6371645996
 40
0.8152025384
 40
1.0
 40
1.0
 40
1.0
 40
1.0
 10
4.5
 20
24.1825804722
 30
0.0
 10
4.5
 20
24.1794876999
 30
0.0
 10
4.4971033462
 20
24.1744630501
 30
0.0
 10
4.4911109878
 20
24.1696114685
 30
0.0
 10
4.4813033352
 20
24.1638171764
 30
0.0
 10
4.4645668221
 20
24.1575452664
 30
0.0
 10
4.4398494491
 20
24.1512544699
 30
0.0
 10
4.4098274464
 20
24.1460835797
 30
0.0
 10
4.3756352352
 20
24.14221377
 30
0.0
 10
4.3385544418
 20
24.1398274433
 30
0.0
 10
4.3130089763
 20
24.1392925494
 30
0.0
 10
4.3
 20
24.1392925494
 30
0.0
  0
SPLINE
  5
5A9
100
AcDbEntity
  8
RACCORDO
100
AcDbSpline
 62
7
  6
CONTINUOUS
 70
0
 71
3
 72
16
 73
12
 74
0
 42
0.0000001
 43
0.0000001
 44
0.0000000001
 40
0.0
 40
0.0
 40
0.0
 40
0.0
 40
0.1847974616
 40
0.3628354004
 40
0.5276556189
 40
0.6734109559
 40
0.7952127651
 40
0.8896298957
 40
0.9262176034
 40
0.9560659909
 40
1.0
 40
1.0
 40
1.0
 40
1.0
 10
1.4
 20
24.1392925494
 30
0.0
 10
1.3869910237
 20
24.1392925494
 30
0.0
 10
1.3614455582
 20
24.1398274433
 30
0.0
 10
1.3243647648
 20
24.14221377
 30
0.0
 10
1.2901725536
 20
24.1460835797
 30
0.0
 10
1.2601505509
 20
24.1512544699
 30
0.0
 10
1.2354331779
 20
24.1575452664
 30
0.0
 10
1.2186966648
 20
24.1638171764
 30
0.0
 10
1.2088890122
 20
24.1696114685
 30
0.0
 10
1.2028966538
 20
24.1744630501
 30
0.0
 10
1.2
 20
24.1794876999
 30
0.0
 10
1.2
 20
24.1825804722
 30
0.0
  0
SPLINE
  5
5AA
100
AcDbEntity
  8
RACCORDO
100
AcDbSpline
 62
7
  6
CONTINUOUS
 70
0
 71
3
 72
16
 73
12
 74
0
 42
0.0000001
 43
0.0000001
 44
0.0000000001
 40
0.0
 40
0.0
 40
0.0
 40
0.0
 40
0.1847974616
 40
0.3628354004
 40
0.5276556189
 40
0.6734109559
 40
0.7952127651
 40
0.8896298957
 40
0.9262176034
 40
0.9560659909
 40
1.0
 40
1.0
 40
1.0
 40
1.0
 10
-4.3
 20
24.1392925494
 30
0.0
 10
-4.3130089763
 20
24.1392925494
 30
0.0
 10
-4.3385544418
 20
24.1398274433
 30
0.0
 10
-4.3756352352
 20
24.14221377
 30
0.0
 10
-4.4098274464
 20
24.1460835797
 30
0.0
 10
-4.4398494491
 20
24.1512544699
 30
0.0
 10
-4.4645668221
 20
24.1575452664
 30
0.0
 10
-4.4813033352
 20
24.1638171764
 30
0.0
 10
-4.4911109878
 20
24.1696114685
 30
0.0
 10
-4.4971033462
 20
24.1744630501
 30
0.0
 10
-4.5
 20
24.1794876999
 30
0.0
 10
-4.5
 20
24.1825804722
 30
0.0
  0
SPLINE
  5
5AB
100
AcDbEntity
  8
RACCORDO
100
AcDbSpline
 62
7
  6
CONTINUOUS
 70
0
 71
3
 72
16
 73
12
 74
0
 42
0.0000001
 43
0.0000001
 44
0.0000000001
 40
0.0
 40
0.0
 40
0.0
 40
0.0
 40
0.0439340091
 40
0.0737823966
 40
0.1103701043
 40
0.2047872349
 40
0.3265890441
 40
0.4723443811
 40
0.6371645996
 40
0.8152025384
 40
1.0
 40
1.0
 40
1.0
 40
1.0
 10
-1.2
 20
24.1825804722
 30
0.0
 10
-1.2
 20
24.1794876999
 30
0.0
 10
-1.2028966538
 20
24.1744630501
 30
0.0
 10
-1.2088890122
 20
24.1696114685
 30
0.0
 10
-1.2186966648
 20
24.1638171764
 30
0.0
 10
-1.2354331779
 20
24.1575452664
 30
0.0
 10
-1.2601505509
 20
24.1512544699
 30
0.0
 10
-1.2901725536
 20
24.1460835797
 30
0.0
 10
-1.3243647648
 20
24.14221377
 30
0.0
 10
-1.3614455582
 20
24.1398274433
 30
0.0
 10
-1.3869910237
 20
24.1392925494
 30
0.0
 10
-1.4
 20
24.1392925494
 30
0.0
  0
SPLINE
  5
5AC
100
AcDbEntity
  8
RACCORDO
100
AcDbSpline
 62
7
  6
CONTINUOUS
 70
0
 71
3
 72
16
 73
12
 74
0
 42
0.0000001
 43
0.0000001
 44
0.0000000001
 40
0.0
 40
0.0
 40
0.0
 40
0.0
 40
0.0439340091
 40
0.0737823966
 40
0.1103701043
 40
0.2047872349
 40
0.3265890441
 40
0.4723443811
 40
0.6371645996
 40
0.8152025384
 40
1.0
 40
1.0
 40
1.0
 40
1.0
 10
-4.5
 20
24.8102553526
 30
0.0
 10
-4.5
 20
24.813348125
 30
0.0
 10
-4.4971033462
 20
24.8183727748
 30
0.0
 10
-4.4911109878
 20
24.8232243563
 30
0.0
 10
-4.4813033352
 20
24.8290186485
 30
0.0
 10
-4.4645668221
 20
24.8352905584
 30
0.0
 10
-4.4398494491
 20
24.8415813549
 30
0.0
 10
-4.4098274464
 20
24.8467522452
 30
0.0
 10
-4.3756352352
 20
24.8506220548
 30
0.0
 10
-4.3385544418
 20
24.8530083816
 30
0.0
 10
-4.3130089763
 20
24.8535432754
 30
0.0
 10
-4.3
 20
24.8535432754
 30
0.0
  0
SPLINE
  5
5AD
100
AcDbEntity
  8
RACCORDO
100
AcDbSpline
 62
7
  6
CONTINUOUS
 70
0
 71
3
 72
16
 73
12
 74
0
 42
0.0000001
 43
0.0000001
 44
0.0000000001
 40
0.0
 40
0.0
 40
0.0
 40
0.0
 40
0.1847974616
 40
0.3628354004
 40
0.5276556189
 40
0.6734109559
 40
0.7952127651
 40
0.8896298957
 40
0.9262176034
 40
0.9560659909
 40
1.0
 40
1.0
 40
1.0
 40
1.0
 10
-1.4
 20
24.8535432754
 30
0.0
 10
-1.3869910237
 20
24.8535432754
 30
0.0
 10
-1.3614455582
 20
24.8530083816
 30
0.0
 10
-1.3243647648
 20
24.8506220548
 30
0.0
 10
-1.2901725536
 20
24.8467522452
 30
0.0
 10
-1.2601505509
 20
24.8415813549
 30
0.0
 10
-1.2354331779
 20
24.8352905584
 30
0.0
 10
-1.2186966648
 20
24.8290186485
 30
0.0
 10
-1.2088890122
 20
24.8232243563
 30
0.0
 10
-1.2028966538
 20
24.8183727748
 30
0.0
 10
-1.2
 20
24.813348125
 30
0.0
 10
-1.2
 20
24.8102553526
 30
0.0
  0
SPLINE
  5
5AE
100
AcDbEntity
  8
RACCORDO
100
AcDbSpline
 62
7
  6
CONTINUOUS
 70
0
 71
3
 72
16
 73
12
 74
0
 42
0.0000001
 43
0.0000001
 44
0.0000000001
 40
0.0
 40
0.0
 40
0.0
 40
0.0
 40
0.1847974616
 40
0.3628354004
 40
0.5276556189
 40
0.6734109559
 40
0.7952127651
 40
0.8896298957
 40
0.9262176034
 40
0.9560659909
 40
1.0
 40
1.0
 40
1.0
 40
1.0
 10
-3.95
 20
23.4568669008
 30
0.0
 10
-3.9369910237
 20
23.4568669008
 30
0.0
 10
-3.9114455582
 20
23.456332007
 30
0.0
 10
-3.8743647648
 20
23.4539456802
 30
0.0
 10
-3.8401725536
 20
23.4500758705
 30
0.0
 10
-3.8101505509
 20
23.4449049803
 30
0.0
 10
-3.7854331779
 20
23.4386141838
 30
0.0
 10
-3.7686966648
 20
23.4323422739
 30
0.0
 10
-3.7588890122
 20
23.4265479817
 30
0.0
 10
-3.7528966538
 20
23.4216964002
 30
0.0
 10
-3.75
 20
23.4166717504
 30
0.0
 10
-3.75
 20
23.413578978
 30
0.0
  0
SPLINE
  5
5AF
100
AcDbEntity
  8
RACCORDO
100
AcDbSpline
 62
7
  6
CONTINUOUS
 70
0
 71
3
 72
16
 73
12
 74
0
 42
0.0000001
 43
0.0000001
 44
0.0000000001
 40
0.0
 40
0.0
 40
0.0
 40
0.0
 40
0.0439340091
 40
0.0737823966
 40
0.1103701043
 40
0.2047872349
 40
0.3265890441
 40
0.4723443811
 40
0.6371645996
 40
0.8152025384
 40
1.0
 40
1.0
 40
1.0
 40
1.0
 10
1.2
 20
24.8102553526
 30
0.0
 10
1.2
 20
24.813348125
 30
0.0
 10
1.2028966538
 20
24.8183727748
 30
0.0
 10
1.2088890122
 20
24.8232243563
 30
0.0
 10
1.2186966648
 20
24.8290186485
 30
0.0
 10
1.2354331779
 20
24.8352905584
 30
0.0
 10
1.2601505509
 20
24.8415813549
 30
0.0
 10
1.2901725536
 20
24.8467522452
 30
0.0
 10
1.3243647648
 20
24.8506220548
 30
0.0
 10
1.3614455582
 20
24.8530083816
 30
0.0
 10
1.3869910237
 20
24.8535432754
 30
0.0
 10
1.4
 20
24.8535432754
 30
0.0
  0
SPLINE
  5
5B0
100
AcDbEntity
  8
RACCORDO
100
AcDbSpline
 62
7
  6
CONTINUOUS
 70
0
 71
3
 72
16
 73
12
 74
0
 42
0.0000001
 43
0.0000001
 44
0.0000000001
 40
0.0
 40
0.0
 40
0.0
 40
0.0
 40
0.0439340091
 40
0.0737823966
 40
0.1103701043
 40
0.2047872349
 40
0.3265890441
 40
0.4723443811
 40
0.6371645996
 40
0.8152025384
 40
1.0
 40
1.0
 40
1.0
 40
1.0
 10
3.75
 20
23.413578978
 30
0.0
 10
3.75
 20
23.4166717504
 30
0.0
 10
3.7528966538
 20
23.4216964002
 30
0.0
 10
3.7588890122
 20
23.4265479817
 30
0.0
 10
3.7686966648
 20
23.4323422739
 30
0.0
 10
3.7854331779
 20
23.4386141838
 30
0.0
 10
3.8101505509
 20
23.4449049803
 30
0.0
 10
3.8401725536
 20
23.4500758705
 30
0.0
 10
3.8743647648
 20
23.4539456802
 30
0.0
 10
3.9114455582
 20
23.456332007
 30
0.0
 10
3.9369910237
 20
23.4568669008
 30
0.0
 10
3.95
 20
23.4568669008
 30
0.0
  0
SPLINE
  5
5B1
100
AcDbEntity
  8
RACCORDO
100
AcDbSpline
 62
7
  6
CONTINUOUS
 70
0
 71
3
 72
16
 73
12
 74
0
 42
0.0000001
 43
0.0000001
 44
0.0000000001
 40
0.0
 40
0.0
 40
0.0
 40
0.0
 40
0.1847974616
 40
0.3628354004
 40
0.5276556189
 40
0.6734109559
 40
0.7952127651
 40
0.8896298957
 40
0.9262176034
 40
0.9560659909
 40
1.0
 40
1.0
 40
1.0
 40
1.0
 10
4.3
 20
24.8535432754
 30
0.0
 10
4.3130089763
 20
24.8535432754
 30
0.0
 10
4.3385544418
 20
24.8530083816
 30
0.0
 10
4.3756352352
 20
24.8506220548
 30
0.0
 10
4.4098274464
 20
24.8467522452
 30
0.0
 10
4.4398494491
 20
24.8415813549
 30
0.0
 10
4.4645668221
 20
24.8352905584
 30
0.0
 10
4.4813033352
 20
24.8290186485
 30
0.0
 10
4.4911109878
 20
24.8232243563
 30
0.0
 10
4.4971033462
 20
24.8183727748
 30
0.0
 10
4.5
 20
24.813348125
 30
0.0
 10
4.5
 20
24.8102553526
 30
0.0
  0
SPLINE
  5
5B2
100
AcDbEntity
  8
ASSI
100
AcDbSpline
 62
7
  6
CONTINUOUS
 70
0
 71
3
 72
14
 73
10
 74
0
 42
0.0000001
 43
0.0000001
 44
0.0000000001
 40
0.0
 40
0.0
 40
0.0
 40
0.0
 40
0.0664138688
 40
0.1356696624
 40
0.219373223
 40
0.3248045666
 40
0.4556904831
 40
0.6121428297
 40
1.0
 40
1.0
 40
1.0
 40
1.0
 10
3.75
 20
-21.845413506
 30
0.0
 10
3.7499559152
 20
-21.8429395693
 30
0.0
 10
3.7509379576
 20
-21.8377598796
 30
0.0
 10
3.7561972971
 20
-21.8311890332
 30
0.0
 10
3.7645133857
 20
-21.8261143576
 30
0.0
 10
3.7758334153
 20
-21.8222018696
 30
0.0
 10
3.7902166151
 20
-21.819358947
 30
0.0
 10
3.8152395616
 20
-21.8166123824
 30
0.0
 10
3.8355499096
 20
-21.8162234303
 30
0.0
 10
3.85
 20
-21.8162234303
 30
0.0
  0
SPLINE
  5
5B3
100
AcDbEntity
  8
RACCORDO
100
AcDbSpline
 62
7
  6
CONTINUOUS
 70
0
 71
3
 72
16
 73
12
 74
0
 42
0.0000001
 43
0.0000001
 44
0.0000000001
 40
0.0
 40
0.0
 40
0.0
 40
0.0
 40
0.1847974616
 40
0.3628354004
 40
0.5276556189
 40
0.6734109559
 40
0.7952127651
 40
0.8896298957
 40
0.9262176034
 40
0.9560659909
 40
1.0
 40
1.0
 40
1.0
 40
1.0
 10
-1.4
 20
-24.4630248726
 30
0.0
 10
-1.3869910237
 20
-24.4630248726
 30
0.0
 10
-1.3614455582
 20
-24.4624899788
 30
0.0
 10
-1.3243647648
 20
-24.460103652
 30
0.0
 10
-1.2901725536
 20
-24.4562338423
 30
0.0
 10
-1.2601505509
 20
-24.4510629521
 30
0.0
 10
-1.2354331779
 20
-24.4447721556
 30
0.0
 10
-1.2186966648
 20
-24.4385002457
 30
0.0
 10
-1.2088890122
 20
-24.4327059535
 30
0.0
 10
-1.2028966538
 20
-24.427854372
 30
0.0
 10
-1.2
 20
-24.4228297222
 30
0.0
 10
-1.2
 20
-24.4197369498
 30
0.0
  0
SPLINE
  5
5B4
100
AcDbEntity
  8
RACCORDO
100
AcDbSpline
 62
7
  6
CONTINUOUS
 70
0
 71
3
 72
16
 73
12
 74
0
 42
0.0000001
 43
0.0000001
 44
0.0000000001
 40
0.0
 40
0.0
 40
0.0
 40
0.0
 40
0.0439340091
 40
0.0737823966
 40
0.1103701043
 40
0.2047872349
 40
0.3265890441
 40
0.4723443811
 40
0.6371645996
 40
0.8152025384
 40
1.0
 40
1.0
 40
1.0
 40
1.0
 10
-4.5
 20
-24.4197369498
 30
0.0
 10
-4.5
 20
-24.4228297222
 30
0.0
 10
-4.4971033462
 20
-24.427854372
 30
0.0
 10
-4.4911109878
 20
-24.4327059535
 30
0.0
 10
-4.4813033352
 20
-24.4385002457
 30
0.0
 10
-4.4645668221
 20
-24.4447721556
 30
0.0
 10
-4.4398494491
 20
-24.4510629521
 30
0.0
 10
-4.4098274464
 20
-24.4562338423
 30
0.0
 10
-4.3756352352
 20
-24.460103652
 30
0.0
 10
-4.3385544418
 20
-24.4624899788
 30
0.0
 10
-4.3130089763
 20
-24.4630248726
 30
0.0
 10
-4.3
 20
-24.4630248726
 30
0.0
  0
SPLINE
  5
5B5
100
AcDbEntity
  8
RACCORDO
100
AcDbSpline
 62
7
  6
CONTINUOUS
 70
0
 71
3
 72
16
 73
12
 74
0
 42
0.0000001
 43
0.0000001
 44
0.0000000001
 40
0.0
 40
0.0
 40
0.0
 40
0.0
 40
0.1847974616
 40
0.3628354004
 40
0.5276556189
 40
0.6734109559
 40
0.7952127651
 40
0.8896298957
 40
0.9262176034
 40
0.9560659909
 40
1.0
 40
1.0
 40
1.0
 40
1.0
 10
4.3
 20
-24.4630248726
 30
0.0
 10
4.3130089763
 20
-24.4630248726
 30
0.0
 10
4.3385544418
 20
-24.4624899788
 30
0.0
 10
4.3756352352
 20
-24.460103652
 30
0.0
 10
4.4098274464
 20
-24.4562338423
 30
0.0
 10
4.4398494491
 20
-24.4510629521
 30
0.0
 10
4.4645668221
 20
-24.4447721556
 30
0.0
 10
4.4813033352
 20
-24.4385002457
 30
0.0
 10
4.4911109878
 20
-24.4327059535
 30
0.0
 10
4.4971033462
 20
-24.427854372
 30
0.0
 10
4.5
 20
-24.4228297222
 30
0.0
 10
4.5
 20
-24.4197369498
 30
0.0
  0
SPLINE
  5
5B6
100
AcDbEntity
  8
RACCORDO
100
AcDbSpline
 62
7
  6
CONTINUOUS
 70
0
 71
3
 72
16
 73
12
 74
0
 42
0.0000001
 43
0.0000001
 44
0.0000000001
 40
0.0
 40
0.0
 40
0.0
 40
0.0
 40
0.0439340091
 40
0.0737823966
 40
0.1103701043
 40
0.2047872349
 40
0.3265890441
 40
0.4723443811
 40
0.6371645996
 40
0.8152025384
 40
1.0
 40
1.0
 40
1.0
 40
1.0
 10
1.2
 20
-24.4197369498
 30
0.0
 10
1.2
 20
-24.4228297222
 30
0.0
 10
1.2028966538
 20
-24.427854372
 30
0.0
 10
1.2088890122
 20
-24.4327059535
 30
0.0
 10
1.2186966648
 20
-24.4385002457
 30
0.0
 10
1.2354331779
 20
-24.4447721556
 30
0.0
 10
1.2601505509
 20
-24.4510629521
 30
0.0
 10
1.2901725536
 20
-24.4562338423
 30
0.0
 10
1.3243647648
 20
-24.460103652
 30
0.0
 10
1.3614455582
 20
-24.4624899788
 30
0.0
 10
1.3869910237
 20
-24.4630248726
 30
0.0
 10
1.4
 20
-24.4630248726
 30
0.0
  0
SPLINE
  5
5B7
100
AcDbEntity
  8
RACCORDO
100
AcDbSpline
 62
7
  6
CONTINUOUS
 70
0
 71
3
 72
16
 73
12
 74
0
 42
0.0000001
 43
0.0000001
 44
0.0000000001
 40
0.0
 40
0.0
 40
0.0
 40
0.0
 40
0.0439340091
 40
0.0737823966
 40
0.1103701043
 40
0.2047872349
 40
0.3265890441
 40
0.4723443811
 40
0.6371645996
 40
0.8152025384
 40
1.0
 40
1.0
 40
1.0
 40
1.0
 10
3.75
 20
-23.0230605751
 30
0.0
 10
3.75
 20
-23.0261533475
 30
0.0
 10
3.7528966538
 20
-23.0311779973
 30
0.0
 10
3.7588890122
 20
-23.0360295788
 30
0.0
 10
3.7686966648
 20
-23.041823871
 30
0.0
 10
3.7854331779
 20
-23.0480957809
 30
0.0
 10
3.8101505509
 20
-23.0543865774
 30
0.0
 10
3.8401725536
 20
-23.0595574677
 30
0.0
 10
3.8743647648
 20
-23.0634272773
 30
0.0
 10
3.9114455582
 20
-23.0658136041
 30
0.0
 10
3.9369910237
 20
-23.0663484979
 30
0.0
 10
3.95
 20
-23.0663484979
 30
0.0
  0
SPLINE
  5
5B8
100
AcDbEntity
  8
RACCORDO
100
AcDbSpline
 62
7
  6
CONTINUOUS
 70
0
 71
3
 72
16
 73
12
 74
0
 42
0.0000001
 43
0.0000001
 44
0.0000000001
 40
0.0
 40
0.0
 40
0.0
 40
0.0
 40
0.1847974616
 40
0.3628354004
 40
0.5276556189
 40
0.6734109559
 40
0.7952127651
 40
0.8896298957
 40
0.9262176034
 40
0.9560659909
 40
1.0
 40
1.0
 40
1.0
 40
1.0
 10
-3.95
 20
-23.0663484979
 30
0.0
 10
-3.9369910237
 20
-23.0663484979
 30
0.0
 10
-3.9114455582
 20
-23.0658136041
 30
0.0
 10
-3.8743647648
 20
-23.0634272773
 30
0.0
 10
-3.8401725536
 20
-23.0595574677
 30
0.0
 10
-3.8101505509
 20
-23.0543865774
 30
0.0
 10
-3.7854331779
 20
-23.0480957809
 30
0.0
 10
-3.7686966648
 20
-23.041823871
 30
0.0
 10
-3.7588890122
 20
-23.0360295788
 30
0.0
 10
-3.7528966538
 20
-23.0311779973
 30
0.0
 10
-3.75
 20
-23.0261533475
 30
0.0
 10
-3.75
 20
-23.0230605751
 30
0.0
  0
SPLINE
  5
5B9
100
AcDbEntity
  8
ASSI
100
AcDbSpline
 62
7
  6
CONTINUOUS
 70
0
 71
3
 72
14
 73
10
 74
0
 42
0.0000001
 43
0.0000001
 44
0.0000000001
 40
0.0
 40
0.0
 40
0.0
 40
0.0
 40
0.3878544518
 40
0.5443070748
 40
0.6751937669
 40
0.7806257422
 40
0.8643297295
 40
0.9335858347
 40
1.0
 40
1.0
 40
1.0
 40
1.0
 10
-3.85
 20
-21.8162234303
 30
0.0
 10
-3.8355500111
 20
-21.8162234303
 30
0.0
 10
-3.815239755
 20
-21.8166123767
 30
0.0
 10
-3.7902168687
 20
-21.819358913
 30
0.0
 10
-3.7758336025
 20
-21.8222018193
 30
0.0
 10
-3.7645134983
 20
-21.8261143006
 30
0.0
 10
-3.7561973524
 20
-21.831188981
 30
0.0
 10
-3.7509379713
 20
-21.8377598457
 30
0.0
 10
-3.7499559173
 20
-21.8429395582
 30
0.0
 10
-3.75
 20
-21.845413506
 30
0.0
  0
SPLINE
  5
5BA
100
AcDbEntity
  8
ASSI
100
AcDbSpline
 62
7
  6
CONTINUOUS
 70
0
 71
3
 72
14
 73
10
 74
0
 42
0.0000001
 43
0.0000001
 44
0.0000000001
 40
0.0
 40
0.0
 40
0.0
 40
0.0
 40
0.0664138688
 40
0.1356696624
 40
0.219373223
 40
0.3248045666
 40
0.4556904831
 40
0.6121428297
 40
1.0
 40
1.0
 40
1.0
 40
1.0
 10
-3.75
 20
21.845413506
 30
0.0
 10
-3.7499559152
 20
21.8429395693
 30
0.0
 10
-3.7509379576
 20
21.8377598796
 30
0.0
 10
-3.7561972971
 20
21.8311890332
 30
0.0
 10
-3.7645133857
 20
21.8261143576
 30
0.0
 10
-3.7758334153
 20
21.8222018696
 30
0.0
 10
-3.7902166151
 20
21.819358947
 30
0.0
 10
-3.8152395616
 20
21.8166123824
 30
0.0
 10
-3.8355499096
 20
21.8162234303
 30
0.0
 10
-3.85
 20
21.8162234303
 30
0.0
  0
SPLINE
  5
5BB
100
AcDbEntity
  8
RACCORDO
100
AcDbSpline
 62
7
  6
CONTINUOUS
 70
0
 71
3
 72
16
 73
12
 74
0
 42
0.0000001
 43
0.0000001
 44
0.0000000001
 40
0.0
 40
0.0
 40
0.0
 40
0.0
 40
0.1847974616
 40
0.3628354004
 40
0.5276556189
 40
0.6734109559
 40
0.7952127651
 40
0.8896298957
 40
0.9262176034
 40
0.9560659909
 40
1.0
 40
1.0
 40
1.0
 40
1.0
 10
1.4
 20
24.4630248726
 30
0.0
 10
1.3869910237
 20
24.4630248726
 30
0.0
 10
1.3614455582
 20
24.4624899788
 30
0.0
 10
1.3243647648
 20
24.460103652
 30
0.0
 10
1.2901725536
 20
24.4562338423
 30
0.0
 10
1.2601505509
 20
24.4510629521
 30
0.0
 10
1.2354331779
 20
24.4447721556
 30
0.0
 10
1.2186966648
 20
24.4385002457
 30
0.0
 10
1.2088890122
 20
24.4327059535
 30
0.0
 10
1.2028966538
 20
24.427854372
 30
0.0
 10
1.2
 20
24.4228297222
 30
0.0
 10
1.2
 20
24.4197369498
 30
0.0
  0
SPLINE
  5
5BC
100
AcDbEntity
  8
RACCORDO
100
AcDbSpline
 62
7
  6
CONTINUOUS
 70
0
 71
3
 72
16
 73
12
 74
0
 42
0.0000001
 43
0.0000001
 44
0.0000000001
 40
0.0
 40
0.0
 40
0.0
 40
0.0
 40
0.0439340091
 40
0.0737823966
 40
0.1103701043
 40
0.2047872349
 40
0.3265890441
 40
0.4723443811
 40
0.6371645996
 40
0.8152025384
 40
1.0
 40
1.0
 40
1.0
 40
1.0
 10
4.5
 20
24.4197369498
 30
0.0
 10
4.5
 20
24.4228297222
 30
0.0
 10
4.4971033462
 20
24.427854372
 30
0.0
 10
4.4911109878
 20
24.4327059535
 30
0.0
 10
4.4813033352
 20
24.4385002457
 30
0.0
 10
4.4645668221
 20
24.4447721556
 30
0.0
 10
4.4398494491
 20
24.4510629521
 30
0.0
 10
4.4098274464
 20
24.4562338423
 30
0.0
 10
4.3756352352
 20
24.460103652
 30
0.0
 10
4.3385544418
 20
24.4624899788
 30
0.0
 10
4.3130089763
 20
24.4630248726
 30
0.0
 10
4.3
 20
24.4630248726
 30
0.0
  0
SPLINE
  5
5BD
100
AcDbEntity
  8
RACCORDO
100
AcDbSpline
 62
7
  6
CONTINUOUS
 70
0
 71
3
 72
16
 73
12
 74
0
 42
0.0000001
 43
0.0000001
 44
0.0000000001
 40
0.0
 40
0.0
 40
0.0
 40
0.0
 40
0.1847974616
 40
0.3628354004
 40
0.5276556189
 40
0.6734109559
 40
0.7952127651
 40
0.8896298957
 40
0.9262176034
 40
0.9560659909
 40
1.0
 40
1.0
 40
1.0
 40
1.0
 10
-4.3
 20
24.4630248726
 30
0.0
 10
-4.3130089763
 20
24.4630248726
 30
0.0
 10
-4.3385544418
 20
24.4624899788
 30
0.0
 10
-4.3756352352
 20
24.460103652
 30
0.0
 10
-4.4098274464
 20
24.4562338423
 30
0.0
 10
-4.4398494491
 20
24.4510629521
 30
0.0
 10
-4.4645668221
 20
24.4447721556
 30
0.0
 10
-4.4813033352
 20
24.4385002457
 30
0.0
 10
-4.4911109878
 20
24.4327059535
 30
0.0
 10
-4.4971033462
 20
24.427854372
 30
0.0
 10
-4.5
 20
24.4228297222
 30
0.0
 10
-4.5
 20
24.4197369498
 30
0.0
  0
SPLINE
  5
5BE
100
AcDbEntity
  8
RACCORDO
100
AcDbSpline
 62
7
  6
CONTINUOUS
 70
0
 71
3
 72
16
 73
12
 74
0
 42
0.0000001
 43
0.0000001
 44
0.0000000001
 40
0.0
 40
0.0
 40
0.0
 40
0.0
 40
0.0439340091
 40
0.0737823966
 40
0.1103701043
 40
0.2047872349
 40
0.3265890441
 40
0.4723443811
 40
0.6371645996
 40
0.8152025384
 40
1.0
 40
1.0
 40
1.0
 40
1.0
 10
-1.2
 20
24.4197369498
 30
0.0
 10
-1.2
 20
24.4228297222
 30
0.0
 10
-1.2028966538
 20
24.427854372
 30
0.0
 10
-1.2088890122
 20
24.4327059535
 30
0.0
 10
-1.2186966648
 20
24.4385002457
 30
0.0
 10
-1.2354331779
 20
24.4447721556
 30
0.0
 10
-1.2601505509
 20
24.4510629521
 30
0.0
 10
-1.2901725536
 20
24.4562338423
 30
0.0
 10
-1.3243647648
 20
24.460103652
 30
0.0
 10
-1.3614455582
 20
24.4624899788
 30
0.0
 10
-1.3869910237
 20
24.4630248726
 30
0.0
 10
-1.4
 20
24.4630248726
 30
0.0
  0
SPLINE
  5
5BF
100
AcDbEntity
  8
RACCORDO
100
AcDbSpline
 62
7
  6
CONTINUOUS
 70
0
 71
3
 72
16
 73
12
 74
0
 42
0.0000001
 43
0.0000001
 44
0.0000000001
 40
0.0
 40
0.0
 40
0.0
 40
0.0
 40
0.0439340091
 40
0.0737823966
 40
0.1103701043
 40
0.2047872349
 40
0.3265890441
 40
0.4723443811
 40
0.6371645996
 40
0.8152025384
 40
1.0
 40
1.0
 40
1.0
 40
1.0
 10
-3.75
 20
23.0230605751
 30
0.0
 10
-3.75
 20
23.0261533475
 30
0.0
 10
-3.7528966538
 20
23.0311779973
 30
0.0
 10
-3.7588890122
 20
23.0360295788
 30
0.0
 10
-3.7686966648
 20
23.041823871
 30
0.0
 10
-3.7854331779
 20
23.0480957809
 30
0.0
 10
-3.8101505509
 20
23.0543865774
 30
0.0
 10
-3.8401725536
 20
23.0595574677
 30
0.0
 10
-3.8743647648
 20
23.0634272773
 30
0.0
 10
-3.9114455582
 20
23.0658136041
 30
0.0
 10
-3.9369910237
 20
23.0663484979
 30
0.0
 10
-3.95
 20
23.0663484979
 30
0.0
  0
SPLINE
  5
5C0
100
AcDbEntity
  8
RACCORDO
100
AcDbSpline
 62
7
  6
CONTINUOUS
 70
0
 71
3
 72
16
 73
12
 74
0
 42
0.0000001
 43
0.0000001
 44
0.0000000001
 40
0.0
 40
0.0
 40
0.0
 40
0.0
 40
0.1847974616
 40
0.3628354004
 40
0.5276556189
 40
0.6734109559
 40
0.7952127651
 40
0.8896298957
 40
0.9262176034
 40
0.9560659909
 40
1.0
 40
1.0
 40
1.0
 40
1.0
 10
3.95
 20
23.0663484979
 30
0.0
 10
3.9369910237
 20
23.0663484979
 30
0.0
 10
3.9114455582
 20
23.0658136041
 30
0.0
 10
3.8743647648
 20
23.0634272773
 30
0.0
 10
3.8401725536
 20
23.0595574677
 30
0.0
 10
3.8101505509
 20
23.0543865774
 30
0.0
 10
3.7854331779
 20
23.0480957809
 30
0.0
 10
3.7686966648
 20
23.041823871
 30
0.0
 10
3.7588890122
 20
23.0360295788
 30
0.0
 10
3.7528966538
 20
23.0311779973
 30
0.0
 10
3.75
 20
23.0261533475
 30
0.0
 10
3.75
 20
23.0230605751
 30
0.0
  0
SPLINE
  5
5C1
100
AcDbEntity
  8
ASSI
100
AcDbSpline
 62
7
  6
CONTINUOUS
 70
0
 71
3
 72
14
 73
10
 74
0
 42
0.0000001
 43
0.0000001
 44
0.0000000001
 40
0.0
 40
0.0
 40
0.0
 40
0.0
 40
0.3878544518
 40
0.5443070748
 40
0.6751937669
 40
0.7806257422
 40
0.8643297295
 40
0.9335858347
 40
1.0
 40
1.0
 40
1.0
 40
1.0
 10
3.85
 20
21.8162234303
 30
0.0
 10
3.8355500111
 20
21.8162234303
 30
0.0
 10
3.815239755
 20
21.8166123767
 30
0.0
 10
3.7902168687
 20
21.819358913
 30
0.0
 10
3.7758336025
 20
21.8222018193
 30
0.0
 10
3.7645134983
 20
21.8261143006
 30
0.0
 10
3.7561973524
 20
21.831188981
 30
0.0
 10
3.7509379713
 20
21.8377598457
 30
0.0
 10
3.7499559173
 20
21.8429395582
 30
0.0
 10
3.75
 20
21.845413506
 30
0.0
  0
ELLIPSE
  5
5C2
100
AcDbEntity
  8
RACCORDO
100
AcDbEllipse
 62
7
  6
CONTINUOUS
 10
-0.0087268678
 20
-20.7586887894
 30
0.0
 11
0.0
 21
1.0
 31
0.0
 40
0.0087268678
 41
-3.1328660073
 42
-1.5707963268
  0
ELLIPSE
  5
5C3
100
AcDbEntity
  8
RACCORDO
100
AcDbEllipse
 62
7
  6
CONTINUOUS
 10
1.2087268678
 20
-20.7586887894
 30
0.0
 11
0.0
 21
1.0
 31
0.0
 40
0.0087268678
 41
1.5707963268
 42
3.1328660073
  0
ELLIPSE
  5
5C4
100
AcDbEntity
  8
RACCORDO
100
AcDbEllipse
 62
7
  6
CONTINUOUS
 10
2.232603382
 20
16.167396618
 30
0.0
 11
-1.0607409467
 21
1.0607409467
 31
0.0
 40
0.9999238505
 41
-0.7853600872
 42
0.7853600872
  0
ELLIPSE
  5
5C5
100
AcDbEntity
  8
RACCORDO
100
AcDbEllipse
 62
7
  6
CONTINUOUS
 10
2.232603382
 20
14.132603382
 30
0.0
 11
1.0607409467
 21
1.0607409467
 31
0.0
 40
0.9999238505
 41
-3.9269527408
 42
-2.3562325664
  0
ELLIPSE
  5
5C6
100
AcDbEntity
  8
RACCORDO
100
AcDbEllipse
 62
7
  6
CONTINUOUS
 10
-2.232603382
 20
14.132603382
 30
0.0
 11
-1.0607409467
 21
1.0607409467
 31
0.0
 40
0.9999238505
 41
-3.9269527408
 42
-2.3562325664
  0
ELLIPSE
  5
5C7
100
AcDbEntity
  8
RACCORDO
100
AcDbEllipse
 62
7
  6
CONTINUOUS
 10
-2.232603382
 20
16.167396618
 30
0.0
 11
1.0607409467
 21
1.0607409467
 31
0.0
 40
0.9999238505
 41
-0.7853600872
 42
0.7853600872
  0
ELLIPSE
  5
5C8
100
AcDbEntity
  8
RACCORDO
100
AcDbEllipse
 62
7
  6
CONTINUOUS
 10
-2.25
 20
16.1192235936
 30
0.0
 11
0.0
 21
1.0307764064
 31
0.0
 40
0.9701425001
 41
-1.5707963268
 42
0.0
  0
ELLIPSE
  5
5C9
100
AcDbEntity
  8
RACCORDO
100
AcDbEllipse
 62
7
  6
CONTINUOUS
 10
-2.25
 20
14.1807764064
 30
0.0
 11
-0.0
 21
1.0307764064
 31
0.0
 40
0.9701425001
 41
-3.1415926536
 42
-1.5707963268
  0
ELLIPSE
  5
5CA
100
AcDbEntity
  8
RACCORDO
100
AcDbEllipse
 62
7
  6
CONTINUOUS
 10
2.25
 20
14.1807764064
 30
0.0
 11
0.0
 21
1.0307764064
 31
0.0
 40
0.9701425001
 41
1.5707963268
 42
3.1415926536
  0
ELLIPSE
  5
5CB
100
AcDbEntity
  8
RACCORDO
100
AcDbEllipse
 62
7
  6
CONTINUOUS
 10
-2.2500571176
 20
16.1499428824
 30
0.0
 11
1.0607409467
 21
1.0607409467
 31
0.0
 40
0.9999238505
 41
-0.7853600872
 42
0.7853600872
  0
ELLIPSE
  5
5CC
100
AcDbEntity
  8
RACCORDO
100
AcDbEllipse
 62
7
  6
CONTINUOUS
 10
-2.2500571176
 20
14.1500571176
 30
0.0
 11
1.0607409467
 21
-1.0607409467
 31
0.0
 40
0.9999238505
 41
-0.7853600872
 42
0.7853600872
  0
ELLIPSE
  5
5CD
100
AcDbEntity
  8
RACCORDO
100
AcDbEllipse
 62
7
  6
CONTINUOUS
 10
2.2500571176
 20
14.1500571176
 30
0.0
 11
-1.0607409467
 21
-1.0607409467
 31
0.0
 40
0.9999238505
 41
-0.7853600872
 42
0.7853600872
  0
ELLIPSE
  5
5CE
100
AcDbEntity
  8
RACCORDO
100
AcDbEllipse
 62
7
  6
CONTINUOUS
 10
2.2500571176
 20
16.1499428824
 30
0.0
 11
-1.0607409467
 21
1.0607409467
 31
0.0
 40
0.9999238505
 41
-0.7853600872
 42
0.7853600872
  0
ELLIPSE
  5
5CF
100
AcDbEntity
  8
RACCORDO
100
AcDbEllipse
 62
7
  6
CONTINUOUS
 10
1.2043634339
 20
-19.7542872771
 30
0.0
 11
0.0
 21
2.0
 31
0.0
 40
0.0087268678
 41
1.5707963268
 42
3.1328660073
  0
ELLIPSE
  5
5D0
100
AcDbEntity
  8
RACCORDO
100
AcDbEllipse
 62
7
  6
CONTINUOUS
 10
1.1956365661
 20
10.0044015123
 30
0.0
 11
-0.0
 21
1.0
 31
0.0
 40
0.0087268678
 41
-4.7123889804
 42
-3.1503192998
  0
ELLIPSE
  5
5D1
100
AcDbEntity
  8
RACCORDO
100
AcDbEllipse
 62
7
  6
CONTINUOUS
 10
-0.0043634339
 20
-19.7542872771
 30
0.0
 11
0.0
 21
2.0
 31
0.0
 40
0.0087268678
 41
-3.1328660073
 42
-1.5707963268
  0
ELLIPSE
  5
5D2
100
AcDbEntity
  8
RACCORDO
100
AcDbEllipse
 62
7
  6
CONTINUOUS
 10
0.0043634339
 20
10.0044015123
 30
0.0
 11
0.0
 21
1.0
 31
0.0
 40
0.0087268678
 41
-3.1328660073
 42
-1.5707963268
  0
ELLIPSE
  5
5D3
100
AcDbEntity
  8
RACCORDO
100
AcDbEllipse
 62
7
  6
CONTINUOUS
 10
2.25
 20
16.1192235936
 30
0.0
 11
0.0
 21
1.0307764064
 31
0.0
 40
0.9701425001
 41
0.0
 42
1.5707963268
  0
ELLIPSE
  5
5D4
100
AcDbEntity
  8
RACCORDO
100
AcDbEllipse
 62
7
  6
CONTINUOUS
 10
2.25
 20
-14.1807764064
 30
0.0
 11
-0.0
 21
1.0307764064
 31
0.0
 40
0.9701425001
 41
0.0
 42
1.5707963268
  0
ELLIPSE
  5
5D5
100
AcDbEntity
  8
RACCORDO
100
AcDbEllipse
 62
7
  6
CONTINUOUS
 10
2.25
 20
-16.1192235936
 30
0.0
 11
0.0
 21
1.0307764064
 31
0.0
 40
0.9701425001
 41
-4.7123889804
 42
-3.1415926536
  0
ELLIPSE
  5
5D6
100
AcDbEntity
  8
RACCORDO
100
AcDbEllipse
 62
7
  6
CONTINUOUS
 10
-2.25
 20
-16.1192235936
 30
0.0
 11
0.0
 21
1.0307764064
 31
0.0
 40
0.9701425001
 41
-3.1415926536
 42
-1.5707963268
  0
ELLIPSE
  5
5D7
100
AcDbEntity
  8
RACCORDO
100
AcDbEllipse
 62
7
  6
CONTINUOUS
 10
-2.25
 20
-14.1807764064
 30
0.0
 11
-0.0
 21
1.0307764064
 31
0.0
 40
0.9701425001
 41
-1.5707963268
 42
0.0
  0
ELLIPSE
  5
5D8
100
AcDbEntity
  8
GUSCI_ESTERNI
100
AcDbEllipse
 62
7
  6
CONTINUOUS
 10
8.6456974108
 20
13.9
 30
0.0
 11
0.9860557856
 21
0.0
 31
0.0
 40
0.9999904802
 41
-1.5664328791
 42
-0.0
  0
ELLIPSE
  5
5D9
100
AcDbEntity
  8
GUSCI_ESTERNI
100
AcDbEllipse
 62
7
  6
CONTINUOUS
 10
8.6456974108
 20
-13.9
 30
0.0
 11
0.9860557856
 21
-0.0
 31
0.0
 40
0.9999904802
 41
0.0
 42
1.5664328791
  0
ELLIPSE
  5
5DA
100
AcDbEntity
  8
GUSCI_ESTERNI
100
AcDbEllipse
 62
7
  6
CONTINUOUS
 10
8.6456974108
 20
-16.4
 30
0.0
 11
0.9860557856
 21
-0.0
 31
0.0
 40
0.9999904802
 41
-1.5664328791
 42
-0.0
  0
ELLIPSE
  5
5DB
100
AcDbEntity
  8
GUSCI_ESTERNI
100
AcDbEllipse
 62
7
  6
CONTINUOUS
 10
8.6456974108
 20
16.4
 30
0.0
 11
0.9860557856
 21
0.0
 31
0.0
 40
0.9999904802
 41
6.2831853072
 42
7.8496181862
  0
ELLIPSE
  5
5DC
100
AcDbEntity
  8
GUSCI_ESTERNI
100
AcDbEllipse
 62
7
  6
CONTINUOUS
 10
-8.5978332664
 20
-16.15
 30
0.0
 11
0.9931323188
 21
0.0
 31
0.0
 40
0.9999976201
 41
3.1415926536
 42
4.7102072617
  0
ELLIPSE
  5
5DD
100
AcDbEntity
  8
GUSCI_ESTERNI
100
AcDbEllipse
 62
7
  6
CONTINUOUS
 10
-8.5978332664
 20
-14.15
 30
0.0
 11
0.9931323188
 21
-0.0
 31
0.0
 40
0.9999976201
 41
1.5729780455
 42
3.1415926536
  0
ELLIPSE
  5
5DE
100
AcDbEntity
  8
GUSCI_ESTERNI
100
AcDbEllipse
 62
7
  6
CONTINUOUS
 10
-8.5978332664
 20
14.15
 30
0.0
 11
0.9931323188
 21
0.0
 31
0.0
 40
0.9999976201
 41
-3.1415926536
 42
-1.5729780455
  0
ELLIPSE
  5
5DF
100
AcDbEntity
  8
GUSCI_ESTERNI
100
AcDbEllipse
 62
7
  6
CONTINUOUS
 10
-8.5978332664
 20
16.15
 30
0.0
 11
0.9931323188
 21
0.0
 31
0.0
 40
0.9999976201
 41
1.5729780455
 42
3.1415926536
  0
ELLIPSE
  5
5E0
100
AcDbEntity
  8
ASSI
100
AcDbEllipse
 62
7
  6
CONTINUOUS
 10
-8.5978332664
 20
16.15
 30
0.0
 11
0.9931323188
 21
0.0
 31
0.0
 40
0.9999976201
 41
1.5729780455
 42
3.1415926536
  0
ELLIPSE
  5
5E1
100
AcDbEntity
  8
ASSI
100
AcDbEllipse
 62
7
  6
CONTINUOUS
 10
-8.5978332664
 20
14.15
 30
0.0
 11
0.9931323188
 21
-0.0
 31
0.0
 40
0.9999976201
 41
-3.1415926536
 42
-1.5729780455
  0
ELLIPSE
  5
5E2
100
AcDbEntity
  8
ASSI
100
AcDbEllipse
 62
7
  6
CONTINUOUS
 10
-8.5978332664
 20
-14.15
 30
0.0
 11
0.9931323188
 21
0.0
 31
0.0
 40
0.9999976201
 41
7.8561633527
 42
9.4247779608
  0
ELLIPSE
  5
5E3
100
AcDbEntity
  8
ASSI
100
AcDbEllipse
 62
7
  6
CONTINUOUS
 10
-8.5978332664
 20
-16.15
 30
0.0
 11
0.9931323188
 21
-0.0
 31
0.0
 40
0.9999976201
 41
3.1415926536
 42
4.7102072617
  0
ELLIPSE
  5
5E4
100
AcDbEntity
  8
ASSI
100
AcDbEllipse
 62
7
  6
CONTINUOUS
 10
-3.9663934426
 20
22.7
 30
0.0
 11
0.0
 21
0.2
 31
0.0
 40
0.0081967213
 41
-4.7123889804
 42
-3.1415926536
  0
ELLIPSE
  5
5E5
100
AcDbEntity
  8
ASSI
100
AcDbEllipse
 62
7
  6
CONTINUOUS
 10
-10.4754874327
 20
-23.9245125673
 30
0.0
 11
0.1768305473
 21
-0.1768305473
 31
0.0
 40
0.9996954599
 41
-0.7852458701
 42
0.7852458701
  0
ELLIPSE
  5
5E6
100
AcDbEntity
  8
ASSI
100
AcDbEllipse
 62
7
  6
CONTINUOUS
 10
-12.3245125673
 20
-23.9245125673
 30
0.0
 11
0.1768305473
 21
0.1768305473
 31
0.0
 40
0.9996954599
 41
2.3563467834
 42
3.9268385237
  0
ELLIPSE
  5
5E7
100
AcDbEntity
  8
ASSI
100
AcDbEllipse
 62
7
  6
CONTINUOUS
 10
12.3245125673
 20
-23.9245125673
 30
0.0
 11
0.1768305473
 21
-0.1768305473
 31
0.0
 40
0.9996954599
 41
-0.7852458701
 42
0.7852458701
  0
ELLIPSE
  5
5E8
100
AcDbEntity
  8
ASSI
100
AcDbEllipse
 62
7
  6
CONTINUOUS
 10
10.4754874327
 20
-23.9245125673
 30
0.0
 11
0.1768305473
 21
0.1768305473
 31
0.0
 40
0.9996954599
 41
2.3563467834
 42
3.9268385237
  0
ELLIPSE
  5
5E9
100
AcDbEntity
  8
ASSI
100
AcDbEllipse
 62
7
  6
CONTINUOUS
 10
10.4754874327
 20
23.9245125673
 30
0.0
 11
-0.1768305473
 21
0.1768305473
 31
0.0
 40
0.9996954599
 41
-0.7852458701
 42
0.7852458701
  0
ELLIPSE
  5
5EA
100
AcDbEntity
  8
ASSI
100
AcDbEllipse
 62
7
  6
CONTINUOUS
 10
12.3245125673
 20
23.9245125673
 30
0.0
 11
-0.1768305473
 21
-0.1768305473
 31
0.0
 40
0.9996954599
 41
2.3563467834
 42
3.9268385237
  0
ELLIPSE
  5
5EB
100
AcDbEntity
  8
ASSI
100
AcDbEllipse
 62
7
  6
CONTINUOUS
 10
-12.3245125673
 20
23.9245125673
 30
0.0
 11
-0.1768305473
 21
0.1768305473
 31
0.0
 40
0.9996954599
 41
-0.7852458701
 42
0.7852458701
  0
ELLIPSE
  5
5EC
100
AcDbEntity
  8
ASSI
100
AcDbEllipse
 62
7
  6
CONTINUOUS
 10
-10.4754874327
 20
23.9245125673
 30
0.0
 11
-0.1768305473
 21
-0.1768305473
 31
0.0
 40
0.9996954599
 41
2.3563467834
 42
3.9268385237
  0
ELLIPSE
  5
5ED
100
AcDbEntity
  8
ASSI
100
AcDbEllipse
 62
7
  6
CONTINUOUS
 10
3.9663934426
 20
22.7
 30
0.0
 11
0.0
 21
0.2
 31
0.0
 40
0.0081967213
 41
-3.1415926536
 42
-1.5707963268
  0
ELLIPSE
  5
5EE
100
AcDbEntity
  8
ASSI
100
AcDbEllipse
 62
7
  6
CONTINUOUS
 10
-6.2593472208
 20
22.6905766152
 30
0.0
 11
-0.0
 21
0.5
 31
0.0
 40
0.0174550649
 41
0.0174532925
 42
1.5707963268
  0
ELLIPSE
  5
5EF
100
AcDbEntity
  8
ASSI
100
AcDbEllipse
 62
7
  6
CONTINUOUS
 10
-7.9406527792
 20
22.6905766152
 30
0.0
 11
-0.0
 21
0.5
 31
0.0
 40
0.0174550649
 41
-1.5707963268
 42
-0.0174532925
  0
ELLIPSE
  5
5F0
100
AcDbEntity
  8
ASSI
100
AcDbEllipse
 62
7
  6
CONTINUOUS
 10
7.9406527792
 20
22.6905766152
 30
0.0
 11
-0.0
 21
0.5
 31
0.0
 40
0.0174550649
 41
0.0174532925
 42
1.5707963268
  0
ELLIPSE
  5
5F1
100
AcDbEntity
  8
ASSI
100
AcDbEllipse
 62
7
  6
CONTINUOUS
 10
6.2593472208
 20
22.6905766152
 30
0.0
 11
-0.0
 21
0.5
 31
0.0
 40
0.0174550649
 41
-1.5707963268
 42
-0.0174532925
  0
ELLIPSE
  5
5F2
100
AcDbEntity
  8
ASSI
100
AcDbEllipse
 62
7
  6
CONTINUOUS
 10
-7.9406527792
 20
-22.6905766152
 30
0.0
 11
-0.0
 21
0.5
 31
0.0
 40
0.0174550649
 41
-3.1241393611
 42
-1.5707963268
  0
ELLIPSE
  5
5F3
100
AcDbEntity
  8
ASSI
100
AcDbEllipse
 62
7
  6
CONTINUOUS
 10
-6.2593472208
 20
-22.6905766152
 30
0.0
 11
-0.0
 21
0.5
 31
0.0
 40
0.0174550649
 41
-4.7123889804
 42
-3.1590459461
  0
ELLIPSE
  5
5F4
100
AcDbEntity
  8
ASSI
100
AcDbEllipse
 62
7
  6
CONTINUOUS
 10
6.2593472208
 20
-22.6905766152
 30
0.0
 11
-0.0
 21
0.5
 31
0.0
 40
0.0174550649
 41
-3.1241393611
 42
-1.5707963268
  0
ELLIPSE
  5
5F5
100
AcDbEntity
  8
ASSI
100
AcDbEllipse
 62
7
  6
CONTINUOUS
 10
7.9406527792
 20
-22.6905766152
 30
0.0
 11
0.0
 21
0.5
 31
0.0
 40
0.0174550649
 41
-4.7123889804
 42
-3.1590459461
  0
ELLIPSE
  5
5F6
100
AcDbEntity
  8
ASSI
100
AcDbEllipse
 62
7
  6
CONTINUOUS
 10
4.9918368712
 20
-22.6335859712
 30
0.0
 11
1.0
 21
-0.0
 31
0.0
 40
0.2125565617
 41
1.5707963268
 42
3.1333961158
  0
ELLIPSE
  5
5F7
100
AcDbEntity
  8
ASSI
100
AcDbEllipse
 62
7
  6
CONTINUOUS
 10
-4.9918368712
 20
-22.6335859712
 30
0.0
 11
1.0
 21
0.0
 31
0.0
 40
0.2125565617
 41
0.0081965377
 42
1.5707963268
  0
ELLIPSE
  5
5F8
100
AcDbEntity
  8
RACCORDO
100
AcDbEllipse
 62
7
  6
CONTINUOUS
 10
-3.9663934426
 20
22.7
 30
0.0
 11
0.0
 21
0.2
 31
0.0
 40
0.0081967213
 41
-4.7123889804
 42
-3.1415926536
  0
ELLIPSE
  5
5F9
100
AcDbEntity
  8
RACCORDO
100
AcDbEllipse
 62
7
  6
CONTINUOUS
 10
3.9663934426
 20
22.7
 30
0.0
 11
0.0
 21
0.2
 31
0.0
 40
0.0081967213
 41
-3.1415926536
 42
-1.5707963268
  0
ELLIPSE
  5
5FA
100
AcDbEntity
  8
RACCORDO
100
AcDbEllipse
 62
7
  6
CONTINUOUS
 10
-10.4754874327
 20
-23.9245125673
 30
0.0
 11
0.1768305473
 21
-0.1768305473
 31
0.0
 40
0.9996954599
 41
-0.7852458701
 42
0.7852458701
  0
ELLIPSE
  5
5FB
100
AcDbEntity
  8
RACCORDO
100
AcDbEllipse
 62
7
  6
CONTINUOUS
 10
-12.3245125673
 20
-23.9245125673
 30
0.0
 11
0.1768305473
 21
0.1768305473
 31
0.0
 40
0.9996954599
 41
2.3563467834
 42
3.9268385237
  0
ELLIPSE
  5
5FC
100
AcDbEntity
  8
RACCORDO
100
AcDbEllipse
 62
7
  6
CONTINUOUS
 10
12.3245125673
 20
-23.9245125673
 30
0.0
 11
0.1768305473
 21
-0.1768305473
 31
0.0
 40
0.9996954599
 41
-0.7852458701
 42
0.7852458701
  0
ELLIPSE
  5
5FD
100
AcDbEntity
  8
RACCORDO
100
AcDbEllipse
 62
7
  6
CONTINUOUS
 10
10.4754874327
 20
-23.9245125673
 30
0.0
 11
0.1768305473
 21
0.1768305473
 31
0.0
 40
0.9996954599
 41
2.3563467834
 42
3.9268385237
  0
ELLIPSE
  5
5FE
100
AcDbEntity
  8
RACCORDO
100
AcDbEllipse
 62
7
  6
CONTINUOUS
 10
10.4754874327
 20
23.9245125673
 30
0.0
 11
-0.1768305473
 21
0.1768305473
 31
0.0
 40
0.9996954599
 41
-0.7852458701
 42
0.7852458701
  0
ELLIPSE
  5
5FF
100
AcDbEntity
  8
RACCORDO
100
AcDbEllipse
 62
7
  6
CONTINUOUS
 10
12.3245125673
 20
23.9245125673
 30
0.0
 11
-0.1768305473
 21
-0.1768305473
 31
0.0
 40
0.9996954599
 41
2.3563467834
 42
3.9268385237
  0
ELLIPSE
  5
600
100
AcDbEntity
  8
RACCORDO
100
AcDbEllipse
 62
7
  6
CONTINUOUS
 10
-10.4754874327
 20
23.9245125673
 30
0.0
 11
-0.1768305473
 21
-0.1768305473
 31
0.0
 40
0.9996954599
 41
2.3563467834
 42
3.9268385237
  0
ELLIPSE
  5
601
100
AcDbEntity
  8
RACCORDO
100
AcDbEllipse
 62
7
  6
CONTINUOUS
 10
-12.3245125673
 20
23.9245125673
 30
0.0
 11
-0.1768305473
 21
0.1768305473
 31
0.0
 40
0.9996954599
 41
-0.7852458701
 42
0.7852458701
  0
ELLIPSE
  5
602
100
AcDbEntity
  8
RACCORDO
100
AcDbEllipse
 62
7
  6
CONTINUOUS
 10
-6.2593472208
 20
22.6905766152
 30
0.0
 11
-0.0
 21
0.5
 31
0.0
 40
0.0174550649
 41
0.0174532925
 42
1.5707963268
  0
ELLIPSE
  5
603
100
AcDbEntity
  8
RACCORDO
100
AcDbEllipse
 62
7
  6
CONTINUOUS
 10
-7.9406527792
 20
22.6905766152
 30
0.0
 11
-0.0
 21
0.5
 31
0.0
 40
0.0174550649
 41
-1.5707963268
 42
-0.0174532925
  0
ELLIPSE
  5
604
100
AcDbEntity
  8
RACCORDO
100
AcDbEllipse
 62
7
  6
CONTINUOUS
 10
7.9406527792
 20
22.6905766152
 30
0.0
 11
-0.0
 21
0.5
 31
0.0
 40
0.0174550649
 41
0.0174532925
 42
1.5707963268
  0
ELLIPSE
  5
605
100
AcDbEntity
  8
RACCORDO
100
AcDbEllipse
 62
7
  6
CONTINUOUS
 10
6.2593472208
 20
22.6905766152
 30
0.0
 11
-0.0
 21
0.5
 31
0.0
 40
0.0174550649
 41
-1.5707963268
 42
-0.0174532925
  0
ELLIPSE
  5
606
100
AcDbEntity
  8
RACCORDO
100
AcDbEllipse
 62
7
  6
CONTINUOUS
 10
-7.9406527792
 20
-22.6905766152
 30
0.0
 11
-0.0
 21
0.5
 31
0.0
 40
0.0174550649
 41
-3.1241393611
 42
-1.5707963268
  0
ELLIPSE
  5
607
100
AcDbEntity
  8
RACCORDO
100
AcDbEllipse
 62
7
  6
CONTINUOUS
 10
-6.2593472208
 20
-22.6905766152
 30
0.0
 11
-0.0
 21
0.5
 31
0.0
 40
0.0174550649
 41
-4.7123889804
 42
-3.1590459461
  0
ELLIPSE
  5
608
100
AcDbEntity
  8
RACCORDO
100
AcDbEllipse
 62
7
  6
CONTINUOUS
 10
6.2593472208
 20
-22.6905766152
 30
0.0
 11
-0.0
 21
0.5
 31
0.0
 40
0.0174550649
 41
-3.1241393611
 42
-1.5707963268
  0
ELLIPSE
  5
609
100
AcDbEntity
  8
RACCORDO
100
AcDbEllipse
 62
7
  6
CONTINUOUS
 10
7.9406527792
 20
-22.6905766152
 30
0.0
 11
0.0
 21
0.5
 31
0.0
 40
0.0174550649
 41
-4.7123889804
 42
-3.1590459461
  0
ELLIPSE
  5
60A
100
AcDbEntity
  8
RACCORDO
100
AcDbEllipse
 62
7
  6
CONTINUOUS
 10
4.9918368712
 20
-22.6335859712
 30
0.0
 11
1.0
 21
-0.0
 31
0.0
 40
0.2125565617
 41
1.5707963268
 42
3.1333961158
  0
ELLIPSE
  5
60B
100
AcDbEntity
  8
RACCORDO
100
AcDbEllipse
 62
7
  6
CONTINUOUS
 10
-4.9918368712
 20
-22.6335859712
 30
0.0
 11
1.0
 21
0.0
 31
0.0
 40
0.2125565617
 41
0.0081965377
 42
1.5707963268
  0
ENDSEC
  0
SECTION
  2
OBJECTS
  0
DICTIONARY
  5
C
100
AcDbDictionary
280
0
281
1
  3
ACAD_GROUP
350
D
  3
ACAD_MLINESTYLE
350
17
  3
ACAD_LAYOUT
350
1A
  3
ACAD_PLOTSETTINGS
350
19
  3
ACAD_PLOTSTYLENAME
350
E
  0
DICTIONARY
  5
D
102
{ACAD_REACTORS
330
C
102
}
100
AcDbDictionary
280
0
281
1
  0
ACDBDICTIONARYWDFLT
  5
E
102
{ACAD_REACTORS
330
C
102
}
100
AcDbDictionary
281
1
  3
Normal
350
F
100
AcDbDictionaryWithDefault
340
F
  0
DICTIONARY
  5
17
102
{ACAD_REACTORS
330
C
102
}
100
AcDbDictionary
280
0
281
1
  3
Standard
350
18
  0
DICTIONARY
  5
19
102
{ACAD_REACTORS
330
C
102
}
100
AcDbDictionary
281
1
  0
DICTIONARY
  5
1A
102
{ACAD_REACTORS
330
C
102
}
100
AcDbDictionary
281
1
  3
Model
350
60C
  3
Layout1
350
60D
  0
ACDBPLACEHOLDER
  5
F
102
{ACAD_REACTORS
330
E
102
}
  0
MLINESTYLE
  5
18
102
{ACAD_REACTORS
330
17
102
}
100
AcDbMlineStyle
  2
STANDARD
 70
0
  3

 62
256
 51
90.0
 52
90.0
 71
2
 49
0.5
 62
256
  6
BYLAYER
 49
-0.5
 62
256
  6
BYLAYER
  0
LAYOUT
  5
60C
102
{ACAD_REACTORS
330
1A
102
}
100
AcDbPlotSettings
  1

  2
none_device
  4
ISO_A4_(297.00_x_210.00_MM)
  6

 40
0.0
 41
0.0
 42
0.0
 43
0.0
 44
297.0
 45
210.0
 46
0.0
 47
0.0
 48
0.0
 49
0.0
140
0.0
141
0.0
142
1.0
143
1.0
 70
1024
 72
1
 73
0
 74
0
  7

 75
0
147
1.0
148
0.0
149
0.0
100
AcDbLayout
  1
Model
 70
0
 71
0
 10
0.0
 20
0.0
 11
297.0
 21
210.0
 12
0.0
 22
0.0
 32
0.0
 14
0.0
 24
0.0
 34
0.0
 15
0.0
 25
0.0
 35
0.0
146
0.0
 13
0.0
 23
0.0
 33
0.0
 16
1.0
 26
0.0
 36
0.0
 17
0.0
 27
1.0
 37
0.0
 76
0
330
21F
345
0
346
0
  0
LAYOUT
  5
60D
102
{ACAD_REACTORS
330
1A
102
}
100
AcDbPlotSettings
  1

  2
none_device
  4
ISO_A4_(297.00_x_210.00_MM)
  6

 40
0.0
 41
0.0
 42
0.0
 43
0.0
 44
297.0
 45
210.0
 46
0.0
 47
0.0
 48
0.0
 49
0.0
140
0.0
141
0.0
142
1.0
143
1.0
 70
0
 72
1
 73
0
 74
0
  7

 75
0
147
1.0
148
0.0
149
0.0
100
AcDbLayout
  1
Layout1
 70
0
 71
1
 10
0.0
 20
0.0
 11
297.0
 21
210.0
 12
0.0
 22
0.0
 32
0.0
 14
0.0
 24
0.0
 34
0.0
 15
0.0
 25
0.0
 35
0.0
146
0.0
 13
0.0
 23
0.0
 33
0.0
 16
1.0
 26
0.0
 36
0.0
 17
0.0
 27
1.0
 37
0.0
 76
0
330
220
345
0
346
0
  0
ENDSEC
  0
EOF
