  0
SECTION
  2
HEADER
  9
$ACADVER
  1
AC1024
  9
$DWGCODEPAGE
  3
ANSI_1252
  9
$EXTMAX
 10
297.0
 20
210.0
 30
0.0
  9
$EXTMIN
 10
0.0
 20
0.0
 30
0.0
  9
$LIMMIN
 10
0.0
 20
0.0
  9
$LIMMAX
 10
297.0
 20
210.0
  9
$VIEWCTR
 10
148.5
 20
105.0
  9
$VIEWSIZE
 40
210.0
  9
$CLAYER
  8
0
  9
$LTSCALE
 40
16.335
  9
$CELTYPE
  6
BYLAYER
  9
$DIMSCALE
 40
1.0
  9
$DIMASZ
 40
3.0
  9
$DIMEXO
 40
0.5
  9
$DIMDLI
 40
11.286
  9
$DIMEXE
 40
1.5
  9
$DIMCEN
 40
2.673
  9
$DIMLFAC
 40
1.0
  9
$DIMBLK
  1
_FILLED
  9
$DIMALT
 70
0
  9
$DIMALTF
 40
0.0393700787
  9
$DIMTXT
 40
3.0
  9
$DIMTOL
 70
1
  9
$DIMLIM
 70
0
  9
$DIMTFAC
 40
1.0
  9
$DIMTP
 40
0.01
  9
$DIMTM
 40
0.01
  9
$DIMGAP
 40
0.625
  9
$DIMDSEP
 70
44
  9
$AUNITS
 70
0
  9
$PDMODE
 70
3
  9
$PDSIZE
 40
3.0
  9
$HANDSEED
  5
4D1
  9
$TILEMODE
 70
1
  9
$MEASUREMENT
 70
1
  9
$INSUNITS
 70
4
  0
ENDSEC
  0
SECTION
  2
CLASSES
  0
CLASS
  1
ACDBDICTIONARYWDFLT
  2
AcDbDictionaryWithDefault
  3
AutoCAD 2000
 90
0
 91
1
280
0
281
0
  0
CLASS
  1
ACDBPLACEHOLDER
  2
AcDbPlaceHolder
  3
AutoCAD 2000
 90
0
 91
1
280
0
281
0
  0
CLASS
  1
LAYOUT
  2
AcDbLayout
  3
AutoCAD 2000
 90
0
 91
0
280
0
281
0
  0
ENDSEC
  0
SECTION
  2
TABLES
  0
TABLE
  2
VPORT
  5
8
100
AcDbSymbolTable
 70
2
  0
VPORT
  5
1F4
100
AcDbSymbolTableRecord
100
AcDbViewportTableRecord
  2
*ACTIVE
 70
0
 10
0.0
 20
0.0
 11
1.0
 21
1.0
 12
148.5
 22
105.0
 13
0.0
 23
0.0
 14
1.0
 24
1.0
 15
0.0
 25
0.0
 16
0.0
 26
0.0
 36
1.0
 17
0.0
 27
0.0
 37
0.0
 40
210.0
 41
1.4142857143
 42
50.0
 43
0.0
 44
0.0
 50
0.0
 51
0.0
 71
0
 72
100
 73
1
 74
1
 75
0
 76
0
 77
0
 78
0
  0
ENDTAB
  0
TABLE
  2
LTYPE
  5
5
100
AcDbSymbolTable
 70
6
  0
LTYPE
  5
14
100
AcDbSymbolTableRecord
100
AcDbLinetypeTableRecord
  2
BYBLOCK
 70
0
  3

 72
65
 73
0
 40
0.0
  0
LTYPE
  5
15
100
AcDbSymbolTableRecord
100
AcDbLinetypeTableRecord
  2
BYLAYER
 70
0
  3

 72
65
 73
0
 40
0.0
  0
LTYPE
  5
16
100
AcDbSymbolTableRecord
100
AcDbLinetypeTableRecord
  2
CONTINUOUS
 70
64
  3
Solid line
 72
65
 73
0
 40
0.0
  0
LTYPE
  5
1F5
100
AcDbSymbolTableRecord
100
AcDbLinetypeTableRecord
  2
CENTER
 70
64
  3
____ _ ____ _ ____ _ ____ _ ____ _ ____ _ ____
 72
65
 73
4
 40
0.6
 49
0.375
 74
0
 49
-0.075
 74
0
 49
0.075
 74
0
 49
-0.075
 74
0
  0
LTYPE
  5
1F6
100
AcDbSymbolTableRecord
100
AcDbLinetypeTableRecord
  2
HIDDEN
 70
64
  3
- - - - - - - - - - - - - - - - - - - -
 72
65
 73
2
 40
0.2
 49
0.1
 74
0
 49
-0.1
 74
0
  0
LTYPE
  5
1F7
100
AcDbSymbolTableRecord
100
AcDbLinetypeTableRecord
  2
PHANTOM
 70
64
  3
_____ _ _ _____ _ _ _____ _ _ _____
 72
65
 73
6
 40
0.8
 49
0.45
 74
0
 49
-0.05
 74
0
 49
0.1
 74
0
 49
-0.05
 74
0
 49
0.1
 74
0
 49
-0.05
 74
0
  0
LTYPE
  5
1F8
100
AcDbSymbolTableRecord
100
AcDbLinetypeTableRecord
  2
DOT
 70
64
  3
. . . . . . . . . . . . . . . . . . . .
 72
65
 73
2
 40
0.2
 49
0.1
 74
0
 49
-0.1
 74
0
  0
LTYPE
  5
1F9
100
AcDbSymbolTableRecord
100
AcDbLinetypeTableRecord
  2
DASHED
 70
64
  3
- - - - - - - - - - - - - - - - - - - -
 72
65
 73
2
 40
0.2
 49
0.1
 74
0
 49
-0.1
 74
0
  0
ENDTAB
  0
TABLE
  2
LAYER
  5
2
100
AcDbSymbolTable
 70
36
  0
LAYER
  5
10
100
AcDbSymbolTableRecord
100
AcDbLayerTableRecord
  2
0
 70
0
 62
7
  6
CONTINUOUS
370
-3
390
F
  0
LAYER
  5
1FA
100
AcDbSymbolTableRecord
100
AcDbLayerTableRecord
  2
DEFAULT_1
 70
0
 62
7
  6
CENTER
370
-3
390
F
  0
LAYER
  5
1FB
100
AcDbSymbolTableRecord
100
AcDbLayerTableRecord
  2
DEFAULT_2
 70
0
 62
7
  6
HIDDEN
370
-3
390
F
  0
LAYER
  5
1FC
100
AcDbSymbolTableRecord
100
AcDbLayerTableRecord
  2
DEFAULT_3
 70
0
 62
7
  6
PHANTOM
370
-3
390
F
  0
LAYER
  5
1FD
100
AcDbSymbolTableRecord
100
AcDbLayerTableRecord
  2
ASSI
 70
0
 62
7
  6
CONTINUOUS
370
-3
390
F
  0
LAYER
  5
1FE
100
AcDbSymbolTableRecord
100
AcDbLayerTableRecord
  2
COLOR6
 70
0
 62
7
  6
CONTINUOUS
370
-3
390
F
  0
LAYER
  5
1FF
100
AcDbSymbolTableRecord
100
AcDbLayerTableRecord
  2
COORDINATE
 70
0
 62
7
  6
CONTINUOUS
370
-3
390
F
  0
LAYER
  5
200
100
AcDbSymbolTableRecord
100
AcDbLayerTableRecord
  2
COORD_ORIGINE
 70
0
 62
7
  6
CONTINUOUS
370
-3
390
F
  0
LAYER
  5
201
100
AcDbSymbolTableRecord
100
AcDbLayerTableRecord
  2
COPY_PUBLISH
 70
0
 62
7
  6
CONTINUOUS
370
-3
390
F
  0
LAYER
  5
202
100
AcDbSymbolTableRecord
100
AcDbLayerTableRecord
  2
COSMETIC
 70
0
 62
7
  6
CONTINUOUS
370
-3
390
F
  0
LAYER
  5
203
100
AcDbSymbolTableRecord
100
AcDbLayerTableRecord
  2
COSMETICI
 70
0
 62
7
  6
CONTINUOUS
370
-3
390
F
  0
LAYER
  5
204
100
AcDbSymbolTableRecord
100
AcDbLayerTableRecord
  2
CURVE
 70
0
 62
7
  6
CONTINUOUS
370
-3
390
F
  0
LAYER
  5
205
100
AcDbSymbolTableRecord
100
AcDbLayerTableRecord
  2
DRAFT
 70
0
 62
7
  6
CONTINUOUS
370
-3
390
F
  0
LAYER
  5
206
100
AcDbSymbolTableRecord
100
AcDbLayerTableRecord
  2
IMPORT_IGES
 70
0
 62
7
  6
CONTINUOUS
370
-3
390
F
  0
LAYER
  5
207
100
AcDbSymbolTableRecord
100
AcDbLayerTableRecord
  2
INTFCLR_2
 70
0
 62
7
  6
CONTINUOUS
370
-3
390
F
  0
LAYER
  5
208
100
AcDbSymbolTableRecord
100
AcDbLayerTableRecord
  2
INTF_14
 70
0
 62
7
  6
CONTINUOUS
370
-3
390
F
  0
LAYER
  5
209
100
AcDbSymbolTableRecord
100
AcDbLayerTableRecord
  2
LINEA_CHIUSURA
 70
0
 62
7
  6
CONTINUOUS
370
-3
390
F
  0
LAYER
  5
20A
100
AcDbSymbolTableRecord
100
AcDbLayerTableRecord
  2
NOTE
 70
0
 62
7
  6
CONTINUOUS
370
-3
390
F
  0
LAYER
  5
20B
100
AcDbSymbolTableRecord
100
AcDbLayerTableRecord
  2
PIANI
 70
0
 62
7
  6
CONTINUOUS
370
-3
390
F
  0
LAYER
  5
20C
100
AcDbSymbolTableRecord
100
AcDbLayerTableRecord
  2
PIANI_ORIGINE
 70
0
 62
7
  6
CONTINUOUS
370
-3
390
F
  0
LAYER
  5
20D
100
AcDbSymbolTableRecord
100
AcDbLayerTableRecord
  2
PUNTI
 70
0
 62
7
  6
CONTINUOUS
370
-3
390
F
  0
LAYER
  5
20E
100
AcDbSymbolTableRecord
100
AcDbLayerTableRecord
  2
RACCORDO
 70
0
 62
7
  6
CONTINUOUS
370
-3
390
F
  0
LAYER
  5
20F
100
AcDbSymbolTableRecord
100
AcDbLayerTableRecord
  2
SIMBOLI
 70
0
 62
7
  6
CONTINUOUS
370
-3
390
F
  0
LAYER
  5
210
100
AcDbSymbolTableRecord
100
AcDbLayerTableRecord
  2
SMUSSO
 70
0
 62
7
  6
CONTINUOUS
370
-3
390
F
  0
LAYER
  5
211
100
AcDbSymbolTableRecord
100
AcDbLayerTableRecord
  2
SNAPLINE
 70
0
 62
7
  6
CONTINUOUS
370
-3
390
F
  0
LAYER
  5
212
100
AcDbSymbolTableRecord
100
AcDbLayerTableRecord
  2
SUPERFICI
 70
0
 62
7
  6
CONTINUOUS
370
-3
390
F
  0
LAYER
  5
213
100
AcDbSymbolTableRecord
100
AcDbLayerTableRecord
  2
TRASH
 70
0
 62
7
  6
CONTINUOUS
370
-3
390
F
  0
LAYER
  5
214
100
AcDbSymbolTableRecord
100
AcDbLayerTableRecord
  2
XSEC_DATUMS
 70
0
 62
7
  6
CONTINUOUS
370
-3
390
F
  0
LAYER
  5
215
100
AcDbSymbolTableRecord
100
AcDbLayerTableRecord
  2
___SHELL
 70
0
 62
7
  6
CONTINUOUS
370
-3
390
F
  0
ENDTAB
  0
TABLE
  2
STYLE
  5
3
100
AcDbSymbolTable
 70
1
  0
STYLE
  5
11
100
AcDbSymbolTableRecord
100
AcDbTextStyleTableRecord
  2
STANDARD
 70
0
 40
0.0
 41
0.8
 50
0.0
 71
0
 42
0.2
  3
txt
  4

  0
STYLE
  5
216
100
AcDbSymbolTableRecord
100
AcDbTextStyleTableRecord
  2
TEXTSTYLE_1
 70
0
 40
0.0
 41
0.8
 50
0.0
 71
0
 42
0.2
  3
gdt
  4

  0
ENDTAB
  0
TABLE
  2
VIEW
  5
6
100
AcDbSymbolTable
 70
0
  0
ENDTAB
  0
TABLE
  2
UCS
  5
7
100
AcDbSymbolTable
 70
0
  0
ENDTAB
  0
TABLE
  2
APPID
  5
9
100
AcDbSymbolTable
 70
1
  0
APPID
  5
217
100
AcDbSymbolTableRecord
100
AcDbRegAppTableRecord
  2
ACAD
 70
0
  0
ENDTAB
  0
TABLE
  2
BLOCK_RECORD
  5
1
100
AcDbSymbolTable
 70
0
  0
BLOCK_RECORD
  5
218
100
AcDbSymbolTableRecord
100
AcDbBlockTableRecord
  2
*Model_Space
  0
BLOCK_RECORD
  5
219
100
AcDbSymbolTableRecord
100
AcDbBlockTableRecord
  2
*Paper_Space
  0
BLOCK_RECORD
  5
21A
100
AcDbSymbolTableRecord
100
AcDbBlockTableRecord
  2
_FILLED
  0
ENDTAB
  0
TABLE
  2
DIMSTYLE
  5
A
100
AcDbSymbolTable
 70
1
100
AcDbDimStyleTable
 71
0
  0
DIMSTYLE
105
21B
100
AcDbSymbolTableRecord
100
AcDbDimStyleTableRecord
  2
STANDARD
 70
0
  3

  4

 40
1.0
 41
3.0
 42
0.5
 43
0.38
 44
1.5
 45
0.0
 46
0.0
 47
0.01
 48
0.01
140
3.0
141
0.09
142
0.0
143
25.4
144
1.0
145
0.0
146
1.0
147
0.625
 71
1
 72
0
 73
0
 74
0
 75
0
 76
0
 77
1
 78
8
 79
2
170
0
171
1
172
0
173
0
174
0
175
0
176
0
177
0
178
0
270
2
179
2
271
2
272
2
273
2
274
2
275
0
280
0
281
0
282
0
283
1
284
8
285
0
286
0
287
3
288
0
340
11
278
44
341
21A
342
21A
343
21A
344
21A
  0
ENDTAB
  0
ENDSEC
  0
SECTION
  2
BLOCKS
  0
BLOCK
  5
20
100
AcDbEntity
  8
0
100
AcDbBlockBegin
  2
*Model_Space
 70
0
 10
0.0
 20
0.0
 30
0.0
  3
*Model_Space
  1

  0
ENDBLK
  5
21
100
AcDbEntity
  8
0
100
AcDbBlockEnd
  0
BLOCK
  5
1C
100
AcDbEntity
  8
0
100
AcDbBlockBegin
  2
*Paper_Space
 70
0
 10
0.0
 20
0.0
 30
0.0
  3
*Paper_Space
  1

  0
ENDBLK
  5
1D
100
AcDbEntity
  8
0
100
AcDbBlockEnd
  0
BLOCK
  5
21C
100
AcDbEntity
  8
0
100
AcDbBlockBegin
  2
_FILLED
 70
64
 10
0.0
 20
0.0
  3
_FILLED
  1

  0
SOLID
  5
21D
100
AcDbEntity
  8
0
  6
BYBLOCK
 62
0
100
AcDbTrace
 10
0.0
 20
0.0
 11
-1.0
 21
0.3166666667
 12
-1.0
 22
-0.3166666667
 13
-1.0
 23
-0.3166666667
  0
ENDBLK
  5
21E
100
AcDbEntity
  8
0
  6
BYBLOCK
 62
0
100
AcDbBlockEnd
  0
ENDSEC
  0
SECTION
  2
ENTITIES
  0
LINE
  5
21F
100
AcDbEntity
  8
DRAFT
100
AcDbLine
 62
7
  6
CONTINUOUS
 10
-44.5470998946
 20
38.9227385121
 11
-44.5470998946
 21
-38.8272614879
  0
LINE
  5
220
100
AcDbEntity
  8
0
100
AcDbLine
 62
7
  6
CONTINUOUS
 10
-40.9319654243
 20
19.2635991947
 11
-40.9370482737
 21
19.2534303977
  0
LINE
  5
221
100
AcDbEntity
  8
0
100
AcDbLine
 62
7
  6
CONTINUOUS
 10
-40.9319654243
 20
16.6635991947
 11
-40.9370482737
 21
16.6534303977
  0
LINE
  5
222
100
AcDbEntity
  8
0
100
AcDbLine
 62
7
  6
CONTINUOUS
 10
-39.5910538213
 20
22.9953573579
 11
-39.5386726671
 21
23.0477385121
  0
LINE
  5
223
100
AcDbEntity
  8
0
100
AcDbLine
 62
7
  6
CONTINUOUS
 10
-39.5910538213
 20
-22.8998803336
 11
-39.5386726671
 21
-22.9522614879
  0
LINE
  5
224
100
AcDbEntity
  8
0
100
AcDbLine
 62
7
  6
CONTINUOUS
 10
-40.9319654243
 20
-19.1681221705
 11
-40.9370482737
 21
-19.1579533735
  0
LINE
  5
225
100
AcDbEntity
  8
0
100
AcDbLine
 62
7
  6
CONTINUOUS
 10
-40.9319654243
 20
-16.5681221705
 11
-40.9370482737
 21
-16.5579533735
  0
LINE
  5
226
100
AcDbEntity
  8
0
100
AcDbLine
 62
7
  6
CONTINUOUS
 10
-42.0386726671
 20
-10.9522614879
 11
-42.0386726671
 21
-22.9522614879
  0
LINE
  5
227
100
AcDbEntity
  8
0
100
AcDbLine
 62
7
  6
CONTINUOUS
 10
-42.0386726671
 20
11.0477385121
 11
-42.0386726671
 21
23.0477385121
  0
LINE
  5
228
100
AcDbEntity
  8
0
100
AcDbLine
 62
7
  6
CONTINUOUS
 10
-41.9862915129
 20
-11.0046426421
 11
-41.9862915129
 21
-22.8998803336
  0
LINE
  5
229
100
AcDbEntity
  8
0
100
AcDbLine
 62
7
  6
CONTINUOUS
 10
-41.9862915129
 20
11.1001196664
 11
-41.9862915129
 21
22.9953573579
  0
LINE
  5
22A
100
AcDbEntity
  8
0
100
AcDbLine
 62
7
  6
CONTINUOUS
 10
-40.9617180534
 20
21.9709362264
 11
-40.9617180534
 21
21.1417059721
  0
LINE
  5
22B
100
AcDbEntity
  8
0
100
AcDbLine
 62
7
  6
CONTINUOUS
 10
-40.9617180534
 20
12.9537710521
 11
-40.9617180534
 21
12.1245407978
  0
LINE
  5
22C
100
AcDbEntity
  8
0
100
AcDbLine
 62
7
  6
CONTINUOUS
 10
-40.9617180534
 20
-12.0290637736
 11
-40.9617180534
 21
-12.8582940279
  0
LINE
  5
22D
100
AcDbEntity
  8
0
100
AcDbLine
 62
7
  6
CONTINUOUS
 10
-40.9617180534
 20
-21.0462289479
 11
-40.9617180534
 21
-21.8754592022
  0
LINE
  5
22E
100
AcDbEntity
  8
0
100
AcDbLine
 62
7
  6
CONTINUOUS
 10
-40.9370482737
 20
-12.9079533735
 11
-40.9370482737
 21
-13.9579533735
  0
LINE
  5
22F
100
AcDbEntity
  8
0
100
AcDbLine
 62
7
  6
CONTINUOUS
 10
-40.9370482737
 20
-14.7465696023
 11
-40.9370482737
 21
-16.5579533735
  0
LINE
  5
230
100
AcDbEntity
  8
0
100
AcDbLine
 62
7
  6
CONTINUOUS
 10
-40.9370482737
 20
-17.3465696023
 11
-40.9370482737
 21
-19.1579533735
  0
LINE
  5
231
100
AcDbEntity
  8
0
100
AcDbLine
 62
7
  6
CONTINUOUS
 10
-40.9370482737
 20
-19.9465696023
 11
-40.9370482737
 21
-20.9965696023
  0
LINE
  5
232
100
AcDbEntity
  8
0
100
AcDbLine
 62
7
  6
CONTINUOUS
 10
-40.9370482737
 20
13.0034303977
 11
-40.9370482737
 21
14.0534303977
  0
LINE
  5
233
100
AcDbEntity
  8
0
100
AcDbLine
 62
7
  6
CONTINUOUS
 10
-40.9370482737
 20
14.8420466265
 11
-40.9370482737
 21
16.6534303977
  0
LINE
  5
234
100
AcDbEntity
  8
0
100
AcDbLine
 62
7
  6
CONTINUOUS
 10
-40.9370482737
 20
17.4420466265
 11
-40.9370482737
 21
19.2534303977
  0
LINE
  5
235
100
AcDbEntity
  8
0
100
AcDbLine
 62
7
  6
CONTINUOUS
 10
-40.9370482737
 20
20.0420466265
 11
-40.9370482737
 21
21.0920466265
  0
LINE
  5
236
100
AcDbEntity
  8
0
100
AcDbLine
 62
7
  6
CONTINUOUS
 10
-40.9319654243
 20
-13.9681221705
 11
-40.9319654243
 21
-14.7364008053
  0
LINE
  5
237
100
AcDbEntity
  8
0
100
AcDbLine
 62
7
  6
CONTINUOUS
 10
-40.9319654243
 20
-16.5681221705
 11
-40.9319654243
 21
-17.3364008053
  0
LINE
  5
238
100
AcDbEntity
  8
0
100
AcDbLine
 62
7
  6
CONTINUOUS
 10
-40.9319654243
 20
-19.1681221705
 11
-40.9319654243
 21
-19.9364008053
  0
LINE
  5
239
100
AcDbEntity
  8
0
100
AcDbLine
 62
7
  6
CONTINUOUS
 10
-40.9319654243
 20
14.0635991947
 11
-40.9319654243
 21
14.8318778295
  0
LINE
  5
23A
100
AcDbEntity
  8
0
100
AcDbLine
 62
7
  6
CONTINUOUS
 10
-40.9319654243
 20
16.6635991947
 11
-40.9319654243
 21
17.4318778295
  0
LINE
  5
23B
100
AcDbEntity
  8
0
100
AcDbLine
 62
7
  6
CONTINUOUS
 10
-40.9319654243
 20
19.2635991947
 11
-40.9319654243
 21
20.0318778295
  0
LINE
  5
23C
100
AcDbEntity
  8
0
100
AcDbLine
 62
250
  6
CONTINUOUS
 10
-39.9617180534
 20
21.9883912914
 11
-39.9617180534
 21
21.1766267416
  0
LINE
  5
23D
100
AcDbEntity
  8
0
100
AcDbLine
 62
250
  6
CONTINUOUS
 10
-39.9617180534
 20
12.9188502826
 11
-39.9617180534
 21
12.1070857329
  0
LINE
  5
23E
100
AcDbEntity
  8
0
100
AcDbLine
 62
250
  6
CONTINUOUS
 10
-39.9617180534
 20
-12.0116087086
 11
-39.9617180534
 21
-12.8233732584
  0
LINE
  5
23F
100
AcDbEntity
  8
0
100
AcDbLine
 62
250
  6
CONTINUOUS
 10
-39.9617180534
 20
-21.0811497174
 11
-39.9617180534
 21
-21.8929142671
  0
LINE
  5
240
100
AcDbEntity
  8
0
100
AcDbLine
 62
7
  6
CONTINUOUS
 10
-39.7319510222
 20
-13.895539843
 11
-39.7319510222
 21
-14.8089831328
  0
LINE
  5
241
100
AcDbEntity
  8
0
100
AcDbLine
 62
7
  6
CONTINUOUS
 10
-39.7319510222
 20
-16.495539843
 11
-39.7319510222
 21
-17.4089831328
  0
LINE
  5
242
100
AcDbEntity
  8
0
100
AcDbLine
 62
7
  6
CONTINUOUS
 10
-39.7319510222
 20
-19.095539843
 11
-39.7319510222
 21
-20.0089831328
  0
LINE
  5
243
100
AcDbEntity
  8
0
100
AcDbLine
 62
7
  6
CONTINUOUS
 10
-39.7319510222
 20
13.9910168672
 11
-39.7319510222
 21
14.904460157
  0
LINE
  5
244
100
AcDbEntity
  8
0
100
AcDbLine
 62
7
  6
CONTINUOUS
 10
-39.7319510222
 20
16.5910168672
 11
-39.7319510222
 21
17.504460157
  0
LINE
  5
245
100
AcDbEntity
  8
0
100
AcDbLine
 62
7
  6
CONTINUOUS
 10
-39.7319510222
 20
19.1910168672
 11
-39.7319510222
 21
20.104460157
  0
LINE
  5
246
100
AcDbEntity
  8
0
100
AcDbLine
 62
7
  6
CONTINUOUS
 10
-39.7208003479
 20
-12.8343891686
 11
-39.7208003479
 21
-13.8843891686
  0
LINE
  5
247
100
AcDbEntity
  8
0
100
AcDbLine
 62
7
  6
CONTINUOUS
 10
-39.7208003479
 20
-14.8201338071
 11
-39.7208003479
 21
-16.4843891686
  0
LINE
  5
248
100
AcDbEntity
  8
0
100
AcDbLine
 62
7
  6
CONTINUOUS
 10
-39.7208003479
 20
-17.4201338071
 11
-39.7208003479
 21
-19.0843891686
  0
LINE
  5
249
100
AcDbEntity
  8
0
100
AcDbLine
 62
7
  6
CONTINUOUS
 10
-39.7208003479
 20
-20.0201338071
 11
-39.7208003479
 21
-21.0701338071
  0
LINE
  5
24A
100
AcDbEntity
  8
0
100
AcDbLine
 62
7
  6
CONTINUOUS
 10
-39.7208003479
 20
12.9298661929
 11
-39.7208003479
 21
13.9798661929
  0
LINE
  5
24B
100
AcDbEntity
  8
0
100
AcDbLine
 62
7
  6
CONTINUOUS
 10
-39.7208003479
 20
14.9156108314
 11
-39.7208003479
 21
16.5798661929
  0
LINE
  5
24C
100
AcDbEntity
  8
0
100
AcDbLine
 62
7
  6
CONTINUOUS
 10
-39.7208003479
 20
17.5156108314
 11
-39.7208003479
 21
19.1798661929
  0
LINE
  5
24D
100
AcDbEntity
  8
0
100
AcDbLine
 62
7
  6
CONTINUOUS
 10
-39.7208003479
 20
20.1156108314
 11
-39.7208003479
 21
21.1656108314
  0
LINE
  5
24E
100
AcDbEntity
  8
0
100
AcDbLine
 62
7
  6
CONTINUOUS
 10
-39.7097844376
 20
-12.0116087086
 11
-39.7097844376
 21
-12.8233732584
  0
LINE
  5
24F
100
AcDbEntity
  8
0
100
AcDbLine
 62
7
  6
CONTINUOUS
 10
-39.7097844376
 20
-21.0811497174
 11
-39.7097844376
 21
-21.8929142671
  0
LINE
  5
250
100
AcDbEntity
  8
0
100
AcDbLine
 62
7
  6
CONTINUOUS
 10
-39.7097844376
 20
12.1070857329
 11
-39.7097844376
 21
12.9188502826
  0
LINE
  5
251
100
AcDbEntity
  8
0
100
AcDbLine
 62
7
  6
CONTINUOUS
 10
-39.7097844376
 20
21.1766267416
 11
-39.7097844376
 21
21.9883912914
  0
LINE
  5
252
100
AcDbEntity
  8
0
100
AcDbLine
 62
7
  6
CONTINUOUS
 10
-40.9615657485
 20
12.9543805036
 11
-40.9616768711
 21
12.9537710548
  0
LINE
  5
253
100
AcDbEntity
  8
0
100
AcDbLine
 62
7
  6
CONTINUOUS
 10
-40.9319654243
 20
14.0635991947
 11
-40.9370482737
 21
14.0534303977
  0
LINE
  5
254
100
AcDbEntity
  8
0
100
AcDbLine
 62
7
  6
CONTINUOUS
 10
-40.9615657485
 20
12.9543805036
 11
-40.9370482737
 21
13.0034303977
  0
LINE
  5
255
100
AcDbEntity
  8
0
100
AcDbLine
 62
7
  6
CONTINUOUS
 10
-39.7097844376
 20
21.1766267416
 11
-39.7208003479
 21
21.1656108314
  0
LINE
  5
256
100
AcDbEntity
  8
0
100
AcDbLine
 62
7
  6
CONTINUOUS
 10
-39.7208003479
 20
20.1156108314
 11
-39.7319510222
 21
20.104460157
  0
LINE
  5
257
100
AcDbEntity
  8
0
100
AcDbLine
 62
7
  6
CONTINUOUS
 10
-27.7274860943
 20
31.0220858452
 11
-31.2630200002
 21
27.4865519393
  0
LINE
  5
258
100
AcDbEntity
  8
0
100
AcDbLine
 62
7
  6
CONTINUOUS
 10
-39.7208003479
 20
17.5156108314
 11
-39.7319510222
 21
17.504460157
  0
LINE
  5
259
100
AcDbEntity
  8
DRAFT
100
AcDbLine
 62
7
  6
CONTINUOUS
 10
-43.1636726671
 20
-40.2106887154
 11
42.5863273329
 21
-40.2106887154
  0
LINE
  5
25A
100
AcDbEntity
  8
0
100
AcDbLine
 62
7
  6
CONTINUOUS
 10
-39.7097844376
 20
-21.0811497174
 11
-39.7208003479
 21
-21.0701338071
  0
LINE
  5
25B
100
AcDbEntity
  8
0
100
AcDbLine
 62
7
  6
CONTINUOUS
 10
-39.7208003479
 20
-20.0201338071
 11
-39.7319510222
 21
-20.0089831328
  0
LINE
  5
25C
100
AcDbEntity
  8
0
100
AcDbLine
 62
7
  6
CONTINUOUS
 10
-31.2630200002
 20
-27.391074915
 11
-27.7274860943
 21
-30.926608821
  0
LINE
  5
25D
100
AcDbEntity
  8
0
100
AcDbLine
 62
7
  6
CONTINUOUS
 10
-39.7208003479
 20
-17.4201338071
 11
-39.7319510222
 21
-17.4089831328
  0
LINE
  5
25E
100
AcDbEntity
  8
0
100
AcDbLine
 62
7
  6
CONTINUOUS
 10
-40.9319654243
 20
-13.9681221705
 11
-40.9370482737
 21
-13.9579533735
  0
LINE
  5
25F
100
AcDbEntity
  8
0
100
AcDbLine
 62
7
  6
CONTINUOUS
 10
-40.9615657485
 20
-12.8589034793
 11
-40.9370482737
 21
-12.9079533735
  0
LINE
  5
260
100
AcDbEntity
  8
0
100
AcDbLine
 62
7
  6
CONTINUOUS
 10
-40.9616768711
 20
-12.8582940306
 11
-40.9615657485
 21
-12.8589034793
  0
LINE
  5
261
100
AcDbEntity
  8
0
100
AcDbLine
 62
7
  6
CONTINUOUS
 10
-39.5910538213
 20
22.9953573579
 11
-39.5910538213
 21
22.3425476911
  0
LINE
  5
262
100
AcDbEntity
  8
0
100
AcDbLine
 62
7
  6
CONTINUOUS
 10
-39.5910538213
 20
11.7529293332
 11
-39.5910538213
 21
11.1001196664
  0
LINE
  5
263
100
AcDbEntity
  8
0
100
AcDbLine
 62
7
  6
CONTINUOUS
 10
-39.5910538213
 20
-22.8998803336
 11
-39.5910538213
 21
-22.2470706668
  0
LINE
  5
264
100
AcDbEntity
  8
0
100
AcDbLine
 62
7
  6
CONTINUOUS
 10
-39.5910538213
 20
-11.6574523089
 11
-39.5910538213
 21
-11.0046426421
  0
LINE
  5
265
100
AcDbEntity
  8
0
100
AcDbLine
 62
7
  6
CONTINUOUS
 10
-39.5386726671
 20
23.0477385121
 11
-39.5386726671
 21
11.0477385121
  0
LINE
  5
266
100
AcDbEntity
  8
0
100
AcDbLine
 62
7
  6
CONTINUOUS
 10
-39.5386726671
 20
-22.9522614879
 11
-39.5386726671
 21
-10.9522614879
  0
LINE
  5
267
100
AcDbEntity
  8
0
100
AcDbLine
 62
7
  6
CONTINUOUS
 10
-40.9615657485
 20
-21.0456194964
 11
-40.9616768711
 21
-21.0462289452
  0
LINE
  5
268
100
AcDbEntity
  8
0
100
AcDbLine
 62
7
  6
CONTINUOUS
 10
-39.7208003479
 20
14.9156108314
 11
-39.7319510222
 21
14.904460157
  0
LINE
  5
269
100
AcDbEntity
  8
0
100
AcDbLine
 62
7
  6
CONTINUOUS
 10
-28.8498592399
 20
25.073391179
 11
-25.314325334
 21
28.608925085
  0
LINE
  5
26A
100
AcDbEntity
  8
0
100
AcDbLine
 62
7
  6
CONTINUOUS
 10
-41.9862915129
 20
11.1001196664
 11
-42.0386726671
 21
11.0477385121
  0
LINE
  5
26B
100
AcDbEntity
  8
0
100
AcDbLine
 62
7
  6
CONTINUOUS
 10
-39.7097844376
 20
21.9883912914
 11
-39.6013472168
 21
22.0425933825
  0
LINE
  5
26C
100
AcDbEntity
  8
0
100
AcDbLine
 62
7
  6
CONTINUOUS
 10
-39.7097844376
 20
-21.8929142671
 11
-39.6013472168
 21
-21.9471163583
  0
LINE
  5
26D
100
AcDbEntity
  8
0
100
AcDbLine
 62
7
  6
CONTINUOUS
 10
-39.7208003479
 20
-14.8201338071
 11
-39.7319510222
 21
-14.8089831328
  0
LINE
  5
26E
100
AcDbEntity
  8
0
100
AcDbLine
 62
7
  6
CONTINUOUS
 10
-25.314325334
 20
-28.5134480607
 11
-28.8498592399
 21
-24.9779141548
  0
LINE
  5
26F
100
AcDbEntity
  8
0
100
AcDbLine
 62
7
  6
CONTINUOUS
 10
-41.9862915129
 20
-11.0046426421
 11
-42.0386726671
 21
-10.9522614879
  0
LINE
  5
270
100
AcDbEntity
  8
0
100
AcDbLine
 62
7
  6
CONTINUOUS
 10
-40.9616768711
 20
21.1417059694
 11
-40.9615657485
 21
21.1410965207
  0
LINE
  5
271
100
AcDbEntity
  8
0
100
AcDbLine
 62
7
  6
CONTINUOUS
 10
-40.9319654243
 20
-14.7364008053
 11
-40.9370482737
 21
-14.7465696023
  0
LINE
  5
272
100
AcDbEntity
  8
0
100
AcDbLine
 62
7
  6
CONTINUOUS
 10
-40.9319654243
 20
-17.3364008053
 11
-40.9370482737
 21
-17.3465696023
  0
LINE
  5
273
100
AcDbEntity
  8
0
100
AcDbLine
 62
7
  6
CONTINUOUS
 10
-40.9319654243
 20
-19.9364008053
 11
-40.9370482737
 21
-19.9465696023
  0
LINE
  5
274
100
AcDbEntity
  8
DRAFT
100
AcDbLine
 62
7
  6
CONTINUOUS
 10
-22.8427833684
 20
18.7701518985
 11
-19.0110860534
 21
22.6018492134
  0
LINE
  5
275
100
AcDbEntity
  8
0
100
AcDbLine
 62
7
  6
CONTINUOUS
 10
-14.4134008856
 20
27.1989047603
 11
-15.9131053181
 21
25.6992003279
  0
LINE
  5
276
100
AcDbEntity
  8
DRAFT
100
AcDbLine
 62
7
  6
CONTINUOUS
 10
-22.816600771
 20
18.7593067115
 11
-19.0002408665
 21
22.575666616
  0
LINE
  5
277
100
AcDbEntity
  8
0
100
AcDbLine
 62
7
  6
CONTINUOUS
 10
-15.8272471655
 20
25.6591640138
 11
-14.37652725
 21
27.1098839292
  0
LINE
  5
278
100
AcDbEntity
  8
DRAFT
100
AcDbLine
 62
7
  6
CONTINUOUS
 10
-16.0483331934
 20
24.958717681
 11
-15.9816621808
 21
25.0198104082
  0
LINE
  5
279
100
AcDbEntity
  8
DRAFT
100
AcDbLine
 62
7
  6
CONTINUOUS
 10
-16.0483331934
 20
-24.8632406567
 11
-15.9816621808
 21
-24.924333384
  0
LINE
  5
27A
100
AcDbEntity
  8
DRAFT
100
AcDbLine
 62
7
  6
CONTINUOUS
 10
-19.0110860534
 20
-22.5063721891
 11
-22.8427833684
 21
-18.6746748742
  0
LINE
  5
27B
100
AcDbEntity
  8
0
100
AcDbLine
 62
7
  6
CONTINUOUS
 10
-15.9131053181
 20
-25.6037233036
 11
-14.4134008856
 21
-27.1034277361
  0
LINE
  5
27C
100
AcDbEntity
  8
DRAFT
100
AcDbLine
 62
7
  6
CONTINUOUS
 10
-19.0002408665
 20
-22.4801895918
 11
-22.816600771
 21
-18.6638296873
  0
LINE
  5
27D
100
AcDbEntity
  8
0
100
AcDbLine
 62
7
  6
CONTINUOUS
 10
-14.37652725
 20
-27.0144069049
 11
-15.8272471655
 21
-25.5636869895
  0
LINE
  5
27E
100
AcDbEntity
  8
0
100
AcDbLine
 62
7
  6
CONTINUOUS
 10
-40.9319654243
 20
14.8318778295
 11
-40.9370482737
 21
14.8420466265
  0
LINE
  5
27F
100
AcDbEntity
  8
0
100
AcDbLine
 62
7
  6
CONTINUOUS
 10
-40.9319654243
 20
17.4318778295
 11
-40.9370482737
 21
17.4420466265
  0
LINE
  5
280
100
AcDbEntity
  8
0
100
AcDbLine
 62
7
  6
CONTINUOUS
 10
-40.9319654243
 20
20.0318778295
 11
-40.9370482737
 21
20.0420466265
  0
LINE
  5
281
100
AcDbEntity
  8
0
100
AcDbLine
 62
7
  6
CONTINUOUS
 10
-40.9615657485
 20
-21.0456194964
 11
-40.9370482737
 21
-20.9965696023
  0
LINE
  5
282
100
AcDbEntity
  8
DRAFT
100
AcDbLine
 62
7
  6
CONTINUOUS
 10
-14.0386726671
 20
24.0477385121
 11
-14.0107445632
 21
24.075666616
  0
LINE
  5
283
100
AcDbEntity
  8
DRAFT
100
AcDbLine
 62
7
  6
CONTINUOUS
 10
-12.0386726671
 20
24.0477385121
 11
-11.949651836
 21
24.1367593433
  0
LINE
  5
284
100
AcDbEntity
  8
DRAFT
100
AcDbLine
 62
7
  6
CONTINUOUS
 10
-12.0386726671
 20
22.5477385121
 11
-11.949651836
 21
22.6367593433
  0
LINE
  5
285
100
AcDbEntity
  8
DRAFT
100
AcDbLine
 62
7
  6
CONTINUOUS
 10
-9.066600771
 20
25.0198104082
 11
-9.0386726671
 21
25.0477385121
  0
LINE
  5
286
100
AcDbEntity
  8
0
100
AcDbLine
 62
250
  6
CONTINUOUS
 10
-7.2500981687
 20
25.6591640138
 11
-7.1642400161
 21
25.6992003279
  0
LINE
  5
287
100
AcDbEntity
  8
0
100
AcDbLine
 62
250
  6
CONTINUOUS
 10
-7.1633850025
 20
25.4732070287
 11
-7.0775268499
 21
25.5132433428
  0
LINE
  5
288
100
AcDbEntity
  8
0
100
AcDbLine
 62
7
  6
CONTINUOUS
 10
39.1434550137
 20
-21.0701338071
 11
40.3597029395
 21
-20.9965696023
  0
LINE
  5
289
100
AcDbEntity
  8
0
100
AcDbLine
 62
7
  6
CONTINUOUS
 10
-14.20130116
 20
-27.191282319
 11
-8.8760441742
 21
-27.191282319
  0
LINE
  5
28A
100
AcDbEntity
  8
0
100
AcDbLine
 62
7
  6
CONTINUOUS
 10
8.29869884
 20
-27.191282319
 11
13.6239558258
 21
-27.191282319
  0
LINE
  5
28B
100
AcDbEntity
  8
0
100
AcDbLine
 62
7
  6
CONTINUOUS
 10
13.5870821902
 20
-27.1022614879
 11
8.3355724756
 21
-27.1022614879
  0
LINE
  5
28C
100
AcDbEntity
  8
0
100
AcDbLine
 62
7
  6
CONTINUOUS
 10
-8.9129178098
 20
-27.1022614879
 11
-14.1644275244
 21
-27.1022614879
  0
LINE
  5
28D
100
AcDbEntity
  8
DRAFT
100
AcDbLine
 62
7
  6
CONTINUOUS
 10
13.4613273329
 20
-24.9522614879
 11
8.4613273329
 21
-24.9522614879
  0
LINE
  5
28E
100
AcDbEntity
  8
DRAFT
100
AcDbLine
 62
7
  6
CONTINUOUS
 10
-9.0386726671
 20
-24.9522614879
 11
-14.0386726671
 21
-24.9522614879
  0
LINE
  5
28F
100
AcDbEntity
  8
DRAFT
100
AcDbLine
 62
7
  6
CONTINUOUS
 10
-15.9816621808
 20
-24.924333384
 11
-14.0107445632
 21
-24.924333384
  0
LINE
  5
290
100
AcDbEntity
  8
DRAFT
100
AcDbLine
 62
7
  6
CONTINUOUS
 10
-9.066600771
 20
-24.924333384
 11
-7.0956831534
 21
-24.924333384
  0
LINE
  5
291
100
AcDbEntity
  8
DRAFT
100
AcDbLine
 62
7
  6
CONTINUOUS
 10
6.5183378192
 20
-24.924333384
 11
8.4892554368
 21
-24.924333384
  0
LINE
  5
292
100
AcDbEntity
  8
DRAFT
100
AcDbLine
 62
7
  6
CONTINUOUS
 10
13.433399229
 20
-24.924333384
 11
15.4043168466
 21
-24.924333384
  0
LINE
  5
293
100
AcDbEntity
  8
DRAFT
100
AcDbLine
 62
7
  6
CONTINUOUS
 10
-16.0483331934
 20
-24.8632406567
 11
-7.0290121408
 21
-24.8632406567
  0
LINE
  5
294
100
AcDbEntity
  8
DRAFT
100
AcDbLine
 62
7
  6
CONTINUOUS
 10
6.4516668066
 20
-24.8632406567
 11
15.4709878592
 21
-24.8632406567
  0
LINE
  5
295
100
AcDbEntity
  8
DRAFT
100
AcDbLine
 62
7
  6
CONTINUOUS
 10
15.5428998956
 20
-24.041282319
 11
11.3723065018
 21
-24.041282319
  0
LINE
  5
296
100
AcDbEntity
  8
DRAFT
100
AcDbLine
 62
7
  6
CONTINUOUS
 10
10.550348164
 20
-24.041282319
 11
6.3797547702
 21
-24.041282319
  0
LINE
  5
297
100
AcDbEntity
  8
DRAFT
100
AcDbLine
 62
7
  6
CONTINUOUS
 10
-6.9571001044
 20
-24.041282319
 11
-11.1276934982
 21
-24.041282319
  0
LINE
  5
298
100
AcDbEntity
  8
DRAFT
100
AcDbLine
 62
7
  6
CONTINUOUS
 10
-11.949651836
 20
-24.041282319
 11
-16.1202452298
 21
-24.041282319
  0
LINE
  5
299
100
AcDbEntity
  8
DRAFT
100
AcDbLine
 62
7
  6
CONTINUOUS
 10
15.4869187251
 20
-23.9801895918
 11
13.433399229
 21
-23.9801895918
  0
LINE
  5
29A
100
AcDbEntity
  8
DRAFT
100
AcDbLine
 62
7
  6
CONTINUOUS
 10
8.4892554368
 20
-23.9801895918
 11
6.4357359407
 21
-23.9801895918
  0
LINE
  5
29B
100
AcDbEntity
  8
DRAFT
100
AcDbLine
 62
7
  6
CONTINUOUS
 10
-7.0130812749
 20
-23.9801895918
 11
-9.066600771
 21
-23.9801895918
  0
LINE
  5
29C
100
AcDbEntity
  8
DRAFT
100
AcDbLine
 62
7
  6
CONTINUOUS
 10
-14.0107445632
 20
-23.9801895918
 11
-16.0642640593
 21
-23.9801895918
  0
LINE
  5
29D
100
AcDbEntity
  8
DRAFT
100
AcDbLine
 62
7
  6
CONTINUOUS
 10
13.4613273329
 20
-23.9522614879
 11
11.4613273329
 21
-23.9522614879
  0
LINE
  5
29E
100
AcDbEntity
  8
DRAFT
100
AcDbLine
 62
7
  6
CONTINUOUS
 10
10.4613273329
 20
-23.9522614879
 11
8.4613273329
 21
-23.9522614879
  0
LINE
  5
29F
100
AcDbEntity
  8
DRAFT
100
AcDbLine
 62
7
  6
CONTINUOUS
 10
-9.0386726671
 20
-23.9522614879
 11
-11.0386726671
 21
-23.9522614879
  0
LINE
  5
2A0
100
AcDbEntity
  8
DRAFT
100
AcDbLine
 62
7
  6
CONTINUOUS
 10
-12.0386726671
 20
-23.9522614879
 11
-14.0386726671
 21
-23.9522614879
  0
LINE
  5
2A1
100
AcDbEntity
  8
0
100
AcDbLine
 62
7
  6
CONTINUOUS
 10
-40.9370482737
 20
-20.9965696023
 11
-39.7208003479
 21
-21.0701338071
  0
LINE
  5
2A2
100
AcDbEntity
  8
0
100
AcDbLine
 62
250
  6
CONTINUOUS
 10
-7.1642400161
 20
-25.6037233036
 11
-7.2500981687
 21
-25.5636869895
  0
LINE
  5
2A3
100
AcDbEntity
  8
0
100
AcDbLine
 62
250
  6
CONTINUOUS
 10
-7.0775268499
 20
-25.4177663185
 11
-7.1633850025
 21
-25.3777300044
  0
LINE
  5
2A4
100
AcDbEntity
  8
DRAFT
100
AcDbLine
 62
7
  6
CONTINUOUS
 10
-14.0107445632
 20
-23.9801895918
 11
-14.0386726671
 21
-23.9522614879
  0
LINE
  5
2A5
100
AcDbEntity
  8
DRAFT
100
AcDbLine
 62
7
  6
CONTINUOUS
 10
-11.949651836
 20
-24.041282319
 11
-12.0386726671
 21
-23.9522614879
  0
LINE
  5
2A6
100
AcDbEntity
  8
DRAFT
100
AcDbLine
 62
7
  6
CONTINUOUS
 10
-12.0386726671
 20
-22.4522614879
 11
-11.949651836
 21
-22.541282319
  0
LINE
  5
2A7
100
AcDbEntity
  8
DRAFT
100
AcDbLine
 62
7
  6
CONTINUOUS
 10
-9.0386726671
 20
-24.9522614879
 11
-9.066600771
 21
-24.924333384
  0
LINE
  5
2A8
100
AcDbEntity
  8
0
100
AcDbLine
 62
7
  6
CONTINUOUS
 10
-40.9615657485
 20
21.1410965207
 11
-40.9370482737
 21
21.0920466265
  0
LINE
  5
2A9
100
AcDbEntity
  8
DRAFT
100
AcDbLine
 62
7
  6
CONTINUOUS
 10
-22.8776934982
 20
-22.541282319
 11
-22.8776934982
 21
22.6367593433
  0
LINE
  5
2AA
100
AcDbEntity
  8
DRAFT
100
AcDbLine
 62
7
  6
CONTINUOUS
 10
-22.8427833684
 20
-22.5063721891
 11
-22.8427833684
 21
-18.6746748742
  0
LINE
  5
2AB
100
AcDbEntity
  8
DRAFT
100
AcDbLine
 62
7
  6
CONTINUOUS
 10
-22.8427833684
 20
18.7701518985
 11
-22.8427833684
 21
22.6018492134
  0
LINE
  5
2AC
100
AcDbEntity
  8
DRAFT
100
AcDbLine
 62
7
  6
CONTINUOUS
 10
-22.7886726671
 20
-18.6917577912
 11
-22.7886726671
 21
18.7872348154
  0
LINE
  5
2AD
100
AcDbEntity
  8
DRAFT
100
AcDbLine
 62
7
  6
CONTINUOUS
 10
-6.9571001044
 20
24.1367593433
 11
-7.0130812749
 21
24.075666616
  0
LINE
  5
2AE
100
AcDbEntity
  8
DRAFT
100
AcDbLine
 62
7
  6
CONTINUOUS
 10
-6.8258671091
 20
22.6367593433
 11
-6.9074396718
 21
22.5477385121
  0
LINE
  5
2AF
100
AcDbEntity
  8
0
100
AcDbLine
 62
7
  6
CONTINUOUS
 10
-39.5910538213
 20
-11.0046426421
 11
-39.5386726671
 21
-10.9522614879
  0
LINE
  5
2B0
100
AcDbEntity
  8
0
100
AcDbLine
 62
7
  6
CONTINUOUS
 10
39.1434550137
 20
-20.0201338071
 11
40.3597029395
 21
-19.9465696023
  0
LINE
  5
2B1
100
AcDbEntity
  8
0
100
AcDbLine
 62
7
  6
CONTINUOUS
 10
40.3546200901
 20
-19.9364008053
 11
39.154605688
 21
-20.0089831328
  0
LINE
  5
2B2
100
AcDbEntity
  8
0
100
AcDbLine
 62
7
  6
CONTINUOUS
 10
39.1434550137
 20
-17.4201338071
 11
40.3597029395
 21
-17.3465696023
  0
LINE
  5
2B3
100
AcDbEntity
  8
0
100
AcDbLine
 62
7
  6
CONTINUOUS
 10
40.3546200901
 20
-17.3364008053
 11
39.154605688
 21
-17.4089831328
  0
LINE
  5
2B4
100
AcDbEntity
  8
0
100
AcDbLine
 62
7
  6
CONTINUOUS
 10
-42.0386726671
 20
-22.9522614879
 11
-39.5386726671
 21
-22.9522614879
  0
LINE
  5
2B5
100
AcDbEntity
  8
0
100
AcDbLine
 62
7
  6
CONTINUOUS
 10
38.9613273329
 20
-22.9522614879
 11
41.4613273329
 21
-22.9522614879
  0
LINE
  5
2B6
100
AcDbEntity
  8
0
100
AcDbLine
 62
7
  6
CONTINUOUS
 10
-41.9862915129
 20
-22.8998803336
 11
-39.5910538213
 21
-22.8998803336
  0
LINE
  5
2B7
100
AcDbEntity
  8
0
100
AcDbLine
 62
7
  6
CONTINUOUS
 10
39.0137084871
 20
-22.8998803336
 11
41.4089461787
 21
-22.8998803336
  0
LINE
  5
2B8
100
AcDbEntity
  8
DRAFT
100
AcDbLine
 62
7
  6
CONTINUOUS
 10
-22.8776934982
 20
-22.541282319
 11
-16.2514782251
 21
-22.541282319
  0
LINE
  5
2B9
100
AcDbEntity
  8
DRAFT
100
AcDbLine
 62
7
  6
CONTINUOUS
 10
-11.949651836
 20
-22.541282319
 11
-11.1276934982
 21
-22.541282319
  0
LINE
  5
2BA
100
AcDbEntity
  8
DRAFT
100
AcDbLine
 62
7
  6
CONTINUOUS
 10
-6.8258671091
 20
-22.541282319
 11
6.2485217749
 21
-22.541282319
  0
LINE
  5
2BB
100
AcDbEntity
  8
DRAFT
100
AcDbLine
 62
7
  6
CONTINUOUS
 10
10.550348164
 20
-22.541282319
 11
11.3723065018
 21
-22.541282319
  0
LINE
  5
2BC
100
AcDbEntity
  8
DRAFT
100
AcDbLine
 62
7
  6
CONTINUOUS
 10
15.6741328909
 20
-22.541282319
 11
22.300348164
 21
-22.541282319
  0
LINE
  5
2BD
100
AcDbEntity
  8
DRAFT
100
AcDbLine
 62
7
  6
CONTINUOUS
 10
22.2654380342
 20
-22.5063721891
 11
18.4337407192
 21
-22.5063721891
  0
LINE
  5
2BE
100
AcDbEntity
  8
DRAFT
100
AcDbLine
 62
7
  6
CONTINUOUS
 10
-19.0110860534
 20
-22.5063721891
 11
-22.8427833684
 21
-22.5063721891
  0
LINE
  5
2BF
100
AcDbEntity
  8
DRAFT
100
AcDbLine
 62
7
  6
CONTINUOUS
 10
-19.0176959314
 20
-22.4627345268
 11
-18.6712176022
 21
-22.4627345268
  0
LINE
  5
2C0
100
AcDbEntity
  8
DRAFT
100
AcDbLine
 62
7
  6
CONTINUOUS
 10
18.4403505972
 20
-22.4627345268
 11
18.093872268
 21
-22.4627345268
  0
LINE
  5
2C1
100
AcDbEntity
  8
DRAFT
100
AcDbLine
 62
7
  6
CONTINUOUS
 10
0.693872268
 20
-22.4627345268
 11
3.8287823978
 21
-22.4627345268
  0
LINE
  5
2C2
100
AcDbEntity
  8
DRAFT
100
AcDbLine
 62
7
  6
CONTINUOUS
 10
-1.2712176022
 20
-22.4627345268
 11
-4.406127732
 21
-22.4627345268
  0
LINE
  5
2C3
100
AcDbEntity
  8
DRAFT
100
AcDbLine
 62
7
  6
CONTINUOUS
 10
18.083399229
 20
-22.4522614879
 11
15.5925603282
 21
-22.4522614879
  0
LINE
  5
2C4
100
AcDbEntity
  8
DRAFT
100
AcDbLine
 62
7
  6
CONTINUOUS
 10
13.4613273329
 20
-22.4522614879
 11
8.4613273329
 21
-22.4522614879
  0
LINE
  5
2C5
100
AcDbEntity
  8
DRAFT
100
AcDbLine
 62
7
  6
CONTINUOUS
 10
6.3300943376
 20
-22.4522614879
 11
3.8392554368
 21
-22.4522614879
  0
LINE
  5
2C6
100
AcDbEntity
  8
DRAFT
100
AcDbLine
 62
7
  6
CONTINUOUS
 10
0.683399229
 20
-22.4522614879
 11
-1.2607445632
 21
-22.4522614879
  0
LINE
  5
2C7
100
AcDbEntity
  8
DRAFT
100
AcDbLine
 62
7
  6
CONTINUOUS
 10
-4.416600771
 20
-22.4522614879
 11
-6.9074396718
 21
-22.4522614879
  0
LINE
  5
2C8
100
AcDbEntity
  8
DRAFT
100
AcDbLine
 62
7
  6
CONTINUOUS
 10
-9.0386726671
 20
-22.4522614879
 11
-14.0386726671
 21
-22.4522614879
  0
LINE
  5
2C9
100
AcDbEntity
  8
DRAFT
100
AcDbLine
 62
7
  6
CONTINUOUS
 10
-16.1699056624
 20
-22.4522614879
 11
-18.6607445632
 21
-22.4522614879
  0
LINE
  5
2CA
100
AcDbEntity
  8
0
100
AcDbLine
 62
7
  6
CONTINUOUS
 10
-39.9617180534
 20
-21.8929142671
 11
-39.7097844376
 21
-21.8929142671
  0
LINE
  5
2CB
100
AcDbEntity
  8
0
100
AcDbLine
 62
7
  6
CONTINUOUS
 10
39.1324391034
 20
-21.8929142671
 11
39.3843727192
 21
-21.8929142671
  0
LINE
  5
2CC
100
AcDbEntity
  8
0
100
AcDbLine
 62
7
  6
CONTINUOUS
 10
39.3843727192
 20
-21.0811497174
 11
39.1324391034
 21
-21.0811497174
  0
LINE
  5
2CD
100
AcDbEntity
  8
0
100
AcDbLine
 62
7
  6
CONTINUOUS
 10
-39.7097844376
 20
-21.0811497174
 11
-39.9617180534
 21
-21.0811497174
  0
LINE
  5
2CE
100
AcDbEntity
  8
0
100
AcDbLine
 62
7
  6
CONTINUOUS
 10
-40.9370482737
 20
-19.9465696023
 11
-39.7208003479
 21
-20.0201338071
  0
LINE
  5
2CF
100
AcDbEntity
  8
0
100
AcDbLine
 62
7
  6
CONTINUOUS
 10
-39.7319510222
 20
-20.0089831328
 11
-40.9319654243
 21
-19.9364008053
  0
LINE
  5
2D0
100
AcDbEntity
  8
0
100
AcDbLine
 62
7
  6
CONTINUOUS
 10
-40.9370482737
 20
-17.3465696023
 11
-39.7208003479
 21
-17.4201338071
  0
LINE
  5
2D1
100
AcDbEntity
  8
0
100
AcDbLine
 62
7
  6
CONTINUOUS
 10
-39.7319510222
 20
-17.4089831328
 11
-40.9319654243
 21
-17.3364008053
  0
LINE
  5
2D2
100
AcDbEntity
  8
0
100
AcDbLine
 62
7
  6
CONTINUOUS
 10
-39.5910538213
 20
11.1001196664
 11
-39.5386726671
 21
11.0477385121
  0
LINE
  5
2D3
100
AcDbEntity
  8
DRAFT
100
AcDbLine
 62
7
  6
CONTINUOUS
 10
-6.9571001044
 20
-24.041282319
 11
-7.0130812749
 21
-23.9801895918
  0
LINE
  5
2D4
100
AcDbEntity
  8
DRAFT
100
AcDbLine
 62
7
  6
CONTINUOUS
 10
-6.9074396718
 20
-22.4522614879
 11
-6.8258671091
 21
-22.541282319
  0
LINE
  5
2D5
100
AcDbEntity
  8
DRAFT
100
AcDbLine
 62
7
  6
CONTINUOUS
 10
-16.2514782251
 20
-22.541282319
 11
-16.1202452298
 21
-24.041282319
  0
LINE
  5
2D6
100
AcDbEntity
  8
0
100
AcDbLine
 62
7
  6
CONTINUOUS
 10
-16.0483331934
 20
-24.8632406567
 11
-15.9998184843
 21
-25.4177663185
  0
LINE
  5
2D7
100
AcDbEntity
  8
0
100
AcDbLine
 62
7
  6
CONTINUOUS
 10
-16.1699056624
 20
-22.4522614879
 11
-16.0364422303
 21
-23.9777554971
  0
LINE
  5
2D8
100
AcDbEntity
  8
0
100
AcDbLine
 62
7
  6
CONTINUOUS
 10
-15.9538403517
 20
-24.9218992893
 11
-15.9139603317
 21
-25.3777300044
  0
LINE
  5
2D9
100
AcDbEntity
  8
0
100
AcDbLine
 62
7
  6
CONTINUOUS
 10
-15.9998184843
 20
25.5132433428
 11
-16.0483331934
 21
24.958717681
  0
LINE
  5
2DA
100
AcDbEntity
  8
DRAFT
100
AcDbLine
 62
7
  6
CONTINUOUS
 10
-16.1202452298
 20
24.1367593433
 11
-16.2514782251
 21
22.6367593433
  0
LINE
  5
2DB
100
AcDbEntity
  8
0
100
AcDbLine
 62
7
  6
CONTINUOUS
 10
-16.1699056624
 20
22.5477385121
 11
-16.0364422303
 21
24.0732325214
  0
LINE
  5
2DC
100
AcDbEntity
  8
0
100
AcDbLine
 62
7
  6
CONTINUOUS
 10
-15.9538403517
 20
25.0173763136
 11
-15.9139603317
 21
25.4732070287
  0
LINE
  5
2DD
100
AcDbEntity
  8
0
100
AcDbLine
 62
250
  6
CONTINUOUS
 10
-8.9129178098
 20
27.1977385121
 11
-8.8760441742
 21
27.2867593433
  0
LINE
  5
2DE
100
AcDbEntity
  8
0
100
AcDbLine
 62
250
  6
CONTINUOUS
 10
-8.7008180842
 20
27.1098839292
 11
-8.6639444486
 21
27.1989047603
  0
LINE
  5
2DF
100
AcDbEntity
  8
DRAFT
100
AcDbLine
 62
7
  6
CONTINUOUS
 10
-4.416600771
 20
22.5477385121
 11
-4.406127732
 21
22.5582115511
  0
LINE
  5
2E0
100
AcDbEntity
  8
0
100
AcDbLine
 62
7
  6
CONTINUOUS
 10
-39.7097844376
 20
-12.8233732584
 11
-39.7208003479
 21
-12.8343891686
  0
LINE
  5
2E1
100
AcDbEntity
  8
0
100
AcDbLine
 62
7
  6
CONTINUOUS
 10
-39.7208003479
 20
-13.8843891686
 11
-39.7319510222
 21
-13.895539843
  0
LINE
  5
2E2
100
AcDbEntity
  8
0
100
AcDbLine
 62
7
  6
CONTINUOUS
 10
-39.7208003479
 20
-16.4843891686
 11
-39.7319510222
 21
-16.495539843
  0
LINE
  5
2E3
100
AcDbEntity
  8
0
100
AcDbLine
 62
250
  6
CONTINUOUS
 10
15.2499018313
 20
25.6591640138
 11
15.3357599839
 21
25.6992003279
  0
LINE
  5
2E4
100
AcDbEntity
  8
0
100
AcDbLine
 62
250
  6
CONTINUOUS
 10
15.3366149975
 20
25.4732070287
 11
15.4224731501
 21
25.5132433428
  0
LINE
  5
2E5
100
AcDbEntity
  8
0
100
AcDbLine
 62
7
  6
CONTINUOUS
 10
39.1434550137
 20
-14.8201338071
 11
40.3597029395
 21
-14.7465696023
  0
LINE
  5
2E6
100
AcDbEntity
  8
0
100
AcDbLine
 62
7
  6
CONTINUOUS
 10
40.3546200901
 20
-14.7364008053
 11
39.154605688
 21
-14.8089831328
  0
LINE
  5
2E7
100
AcDbEntity
  8
0
100
AcDbLine
 62
7
  6
CONTINUOUS
 10
-40.9319654243
 20
-19.1681221705
 11
-39.7319510222
 21
-19.095539843
  0
LINE
  5
2E8
100
AcDbEntity
  8
0
100
AcDbLine
 62
7
  6
CONTINUOUS
 10
-40.9370482737
 20
-19.1579533735
 11
-39.7208003479
 21
-19.0843891686
  0
LINE
  5
2E9
100
AcDbEntity
  8
0
100
AcDbLine
 62
7
  6
CONTINUOUS
 10
-40.9370482737
 20
-14.7465696023
 11
-39.7208003479
 21
-14.8201338071
  0
LINE
  5
2EA
100
AcDbEntity
  8
0
100
AcDbLine
 62
7
  6
CONTINUOUS
 10
-39.7319510222
 20
-14.8089831328
 11
-40.9319654243
 21
-14.7364008053
  0
LINE
  5
2EB
100
AcDbEntity
  8
0
100
AcDbLine
 62
7
  6
CONTINUOUS
 10
39.154605688
 20
-19.095539843
 11
40.3546200901
 21
-19.1681221705
  0
LINE
  5
2EC
100
AcDbEntity
  8
0
100
AcDbLine
 62
7
  6
CONTINUOUS
 10
39.1434550137
 20
-19.0843891686
 11
40.3597029395
 21
-19.1579533735
  0
LINE
  5
2ED
100
AcDbEntity
  8
0
100
AcDbLine
 62
250
  6
CONTINUOUS
 10
15.3357599839
 20
-25.6037233036
 11
15.2499018313
 21
-25.5636869895
  0
LINE
  5
2EE
100
AcDbEntity
  8
0
100
AcDbLine
 62
250
  6
CONTINUOUS
 10
15.4224731501
 20
-25.4177663185
 11
15.3366149975
 21
-25.3777300044
  0
LINE
  5
2EF
100
AcDbEntity
  8
DRAFT
100
AcDbLine
 62
7
  6
CONTINUOUS
 10
-4.416600771
 20
-22.4522614879
 11
-4.406127732
 21
-22.4627345268
  0
LINE
  5
2F0
100
AcDbEntity
  8
0
100
AcDbLine
 62
7
  6
CONTINUOUS
 10
-39.7097844376
 20
12.9188502826
 11
-39.7208003479
 21
12.9298661929
  0
LINE
  5
2F1
100
AcDbEntity
  8
0
100
AcDbLine
 62
7
  6
CONTINUOUS
 10
-39.7208003479
 20
13.9798661929
 11
-39.7319510222
 21
13.9910168672
  0
LINE
  5
2F2
100
AcDbEntity
  8
0
100
AcDbLine
 62
7
  6
CONTINUOUS
 10
-39.7208003479
 20
16.5798661929
 11
-39.7319510222
 21
16.5910168672
  0
LINE
  5
2F3
100
AcDbEntity
  8
0
100
AcDbLine
 62
250
  6
CONTINUOUS
 10
-8.9129178098
 20
-27.1022614879
 11
-8.8760441742
 21
-27.191282319
  0
LINE
  5
2F4
100
AcDbEntity
  8
0
100
AcDbLine
 62
250
  6
CONTINUOUS
 10
-8.7008180842
 20
-27.0144069049
 11
-8.6639444486
 21
-27.1034277361
  0
LINE
  5
2F5
100
AcDbEntity
  8
DRAFT
100
AcDbLine
 62
7
  6
CONTINUOUS
 10
-14.0386726671
 20
-24.9522614879
 11
-14.0386726671
 21
-24.924333384
  0
LINE
  5
2F6
100
AcDbEntity
  8
DRAFT
100
AcDbLine
 62
7
  6
CONTINUOUS
 10
-14.0386726671
 20
-23.9801895918
 11
-14.0386726671
 21
-22.4522614879
  0
LINE
  5
2F7
100
AcDbEntity
  8
DRAFT
100
AcDbLine
 62
7
  6
CONTINUOUS
 10
-14.0386726671
 20
22.5477385121
 11
-14.0386726671
 21
24.075666616
  0
LINE
  5
2F8
100
AcDbEntity
  8
DRAFT
100
AcDbLine
 62
7
  6
CONTINUOUS
 10
-14.0386726671
 20
25.0198104082
 11
-14.0386726671
 21
25.0477385121
  0
LINE
  5
2F9
100
AcDbEntity
  8
DRAFT
100
AcDbLine
 62
7
  6
CONTINUOUS
 10
-12.0386726671
 20
-23.9522614879
 11
-12.0386726671
 21
-22.4522614879
  0
LINE
  5
2FA
100
AcDbEntity
  8
DRAFT
100
AcDbLine
 62
7
  6
CONTINUOUS
 10
-12.0386726671
 20
22.5477385121
 11
-12.0386726671
 21
24.0477385121
  0
LINE
  5
2FB
100
AcDbEntity
  8
DRAFT
100
AcDbLine
 62
7
  6
CONTINUOUS
 10
-11.949651836
 20
-22.541282319
 11
-11.949651836
 21
-24.041282319
  0
LINE
  5
2FC
100
AcDbEntity
  8
DRAFT
100
AcDbLine
 62
7
  6
CONTINUOUS
 10
-11.949651836
 20
22.6367593433
 11
-11.949651836
 21
24.1367593433
  0
LINE
  5
2FD
100
AcDbEntity
  8
DRAFT
100
AcDbLine
 62
7
  6
CONTINUOUS
 10
0.683399229
 20
22.5477385121
 11
0.693872268
 21
22.5582115511
  0
LINE
  5
2FE
100
AcDbEntity
  8
0
100
AcDbLine
 62
7
  6
CONTINUOUS
 10
-39.7208003479
 20
-19.0843891686
 11
-39.7319510222
 21
-19.095539843
  0
LINE
  5
2FF
100
AcDbEntity
  8
0
100
AcDbLine
 62
7
  6
CONTINUOUS
 10
8.0865991144
 20
27.1989047603
 11
6.5868946819
 21
25.6992003279
  0
LINE
  5
300
100
AcDbEntity
  8
0
100
AcDbLine
 62
7
  6
CONTINUOUS
 10
-41.9862915129
 20
-22.8998803336
 11
-42.0386726671
 21
-22.9522614879
  0
LINE
  5
301
100
AcDbEntity
  8
0
100
AcDbLine
 62
7
  6
CONTINUOUS
 10
6.6727528345
 20
25.6591640138
 11
8.12347275
 21
27.1098839292
  0
LINE
  5
302
100
AcDbEntity
  8
DRAFT
100
AcDbLine
 62
7
  6
CONTINUOUS
 10
6.4516668066
 20
24.958717681
 11
6.5183378192
 21
25.0198104082
  0
LINE
  5
303
100
AcDbEntity
  8
0
100
AcDbLine
 62
7
  6
CONTINUOUS
 10
-40.9319654243
 20
-16.5681221705
 11
-39.7319510222
 21
-16.495539843
  0
LINE
  5
304
100
AcDbEntity
  8
0
100
AcDbLine
 62
7
  6
CONTINUOUS
 10
-40.9370482737
 20
-16.5579533735
 11
-39.7208003479
 21
-16.4843891686
  0
LINE
  5
305
100
AcDbEntity
  8
0
100
AcDbLine
 62
7
  6
CONTINUOUS
 10
-40.9319654243
 20
-13.9681221705
 11
-39.7319510222
 21
-13.895539843
  0
LINE
  5
306
100
AcDbEntity
  8
0
100
AcDbLine
 62
7
  6
CONTINUOUS
 10
-40.9370482737
 20
-13.9579533735
 11
-39.7208003479
 21
-13.8843891686
  0
LINE
  5
307
100
AcDbEntity
  8
0
100
AcDbLine
 62
7
  6
CONTINUOUS
 10
-39.9617180534
 20
-12.8233732584
 11
-39.7097844376
 21
-12.8233732584
  0
LINE
  5
308
100
AcDbEntity
  8
0
100
AcDbLine
 62
7
  6
CONTINUOUS
 10
39.1324391034
 20
-12.8233732584
 11
39.3843727192
 21
-12.8233732584
  0
LINE
  5
309
100
AcDbEntity
  8
0
100
AcDbLine
 62
7
  6
CONTINUOUS
 10
39.3843727192
 20
-12.0116087086
 11
39.1324391034
 21
-12.0116087086
  0
LINE
  5
30A
100
AcDbEntity
  8
0
100
AcDbLine
 62
7
  6
CONTINUOUS
 10
-39.7097844376
 20
-12.0116087086
 11
-39.9617180534
 21
-12.0116087086
  0
LINE
  5
30B
100
AcDbEntity
  8
0
100
AcDbLine
 62
7
  6
CONTINUOUS
 10
39.154605688
 20
-16.495539843
 11
40.3546200901
 21
-16.5681221705
  0
LINE
  5
30C
100
AcDbEntity
  8
0
100
AcDbLine
 62
7
  6
CONTINUOUS
 10
39.1434550137
 20
-16.4843891686
 11
40.3597029395
 21
-16.5579533735
  0
LINE
  5
30D
100
AcDbEntity
  8
0
100
AcDbLine
 62
7
  6
CONTINUOUS
 10
39.154605688
 20
-13.895539843
 11
40.3546200901
 21
-13.9681221705
  0
LINE
  5
30E
100
AcDbEntity
  8
0
100
AcDbLine
 62
7
  6
CONTINUOUS
 10
39.1434550137
 20
-13.8843891686
 11
40.3597029395
 21
-13.9579533735
  0
LINE
  5
30F
100
AcDbEntity
  8
DRAFT
100
AcDbLine
 62
7
  6
CONTINUOUS
 10
6.4516668066
 20
-24.8632406567
 11
6.5183378192
 21
-24.924333384
  0
LINE
  5
310
100
AcDbEntity
  8
DRAFT
100
AcDbLine
 62
7
  6
CONTINUOUS
 10
0.683399229
 20
-22.4522614879
 11
0.693872268
 21
-22.4627345268
  0
LINE
  5
311
100
AcDbEntity
  8
0
100
AcDbLine
 62
7
  6
CONTINUOUS
 10
-39.7208003479
 20
19.1798661929
 11
-39.7319510222
 21
19.1910168672
  0
LINE
  5
312
100
AcDbEntity
  8
0
100
AcDbLine
 62
7
  6
CONTINUOUS
 10
6.5868946819
 20
-25.6037233036
 11
8.0865991144
 21
-27.1034277361
  0
LINE
  5
313
100
AcDbEntity
  8
0
100
AcDbLine
 62
7
  6
CONTINUOUS
 10
-41.9862915129
 20
22.9953573579
 11
-42.0386726671
 21
23.0477385121
  0
LINE
  5
314
100
AcDbEntity
  8
0
100
AcDbLine
 62
7
  6
CONTINUOUS
 10
8.12347275
 20
-27.0144069049
 11
6.6727528345
 21
-25.5636869895
  0
LINE
  5
315
100
AcDbEntity
  8
DRAFT
100
AcDbLine
 62
7
  6
CONTINUOUS
 10
-11.1276934982
 20
-22.541282319
 11
-11.1276934982
 21
-24.041282319
  0
LINE
  5
316
100
AcDbEntity
  8
DRAFT
100
AcDbLine
 62
7
  6
CONTINUOUS
 10
-11.1276934982
 20
22.6367593433
 11
-11.1276934982
 21
24.1367593433
  0
LINE
  5
317
100
AcDbEntity
  8
DRAFT
100
AcDbLine
 62
7
  6
CONTINUOUS
 10
-11.0386726671
 20
-23.9522614879
 11
-11.0386726671
 21
-22.4522614879
  0
LINE
  5
318
100
AcDbEntity
  8
DRAFT
100
AcDbLine
 62
7
  6
CONTINUOUS
 10
-11.0386726671
 20
22.5477385121
 11
-11.0386726671
 21
24.0477385121
  0
LINE
  5
319
100
AcDbEntity
  8
DRAFT
100
AcDbLine
 62
7
  6
CONTINUOUS
 10
-9.0386726671
 20
-24.9522614879
 11
-9.0386726671
 21
-24.924333384
  0
LINE
  5
31A
100
AcDbEntity
  8
DRAFT
100
AcDbLine
 62
7
  6
CONTINUOUS
 10
-9.0386726671
 20
-23.9801895918
 11
-9.0386726671
 21
-22.4522614879
  0
LINE
  5
31B
100
AcDbEntity
  8
DRAFT
100
AcDbLine
 62
7
  6
CONTINUOUS
 10
-9.0386726671
 20
22.5477385121
 11
-9.0386726671
 21
24.075666616
  0
LINE
  5
31C
100
AcDbEntity
  8
DRAFT
100
AcDbLine
 62
7
  6
CONTINUOUS
 10
-9.0386726671
 20
25.0198104082
 11
-9.0386726671
 21
25.0477385121
  0
LINE
  5
31D
100
AcDbEntity
  8
DRAFT
100
AcDbLine
 62
7
  6
CONTINUOUS
 10
-19.0002408665
 20
-22.4801895918
 11
-19.0110860534
 21
-22.5063721891
  0
LINE
  5
31E
100
AcDbEntity
  8
DRAFT
100
AcDbLine
 62
7
  6
CONTINUOUS
 10
8.4613273329
 20
24.0477385121
 11
8.4892554368
 21
24.075666616
  0
LINE
  5
31F
100
AcDbEntity
  8
DRAFT
100
AcDbLine
 62
7
  6
CONTINUOUS
 10
10.4613273329
 20
24.0477385121
 11
10.550348164
 21
24.1367593433
  0
LINE
  5
320
100
AcDbEntity
  8
DRAFT
100
AcDbLine
 62
7
  6
CONTINUOUS
 10
10.4613273329
 20
22.5477385121
 11
10.550348164
 21
22.6367593433
  0
LINE
  5
321
100
AcDbEntity
  8
DRAFT
100
AcDbLine
 62
7
  6
CONTINUOUS
 10
13.433399229
 20
25.0198104082
 11
13.4613273329
 21
25.0477385121
  0
LINE
  5
322
100
AcDbEntity
  8
DRAFT
100
AcDbLine
 62
7
  6
CONTINUOUS
 10
22.2392554368
 20
18.7593067115
 11
22.2654380342
 21
18.7701518985
  0
LINE
  5
323
100
AcDbEntity
  8
0
100
AcDbLine
 62
7
  6
CONTINUOUS
 10
-40.9370482737
 20
-12.9079533735
 11
-39.7208003479
 21
-12.8343891686
  0
LINE
  5
324
100
AcDbEntity
  8
0
100
AcDbLine
 62
7
  6
CONTINUOUS
 10
41.4089461787
 20
-11.0046426421
 11
39.0137084871
 21
-11.0046426421
  0
LINE
  5
325
100
AcDbEntity
  8
0
100
AcDbLine
 62
7
  6
CONTINUOUS
 10
-39.5910538213
 20
-11.0046426421
 11
-41.9862915129
 21
-11.0046426421
  0
LINE
  5
326
100
AcDbEntity
  8
0
100
AcDbLine
 62
7
  6
CONTINUOUS
 10
41.4613273329
 20
-10.9522614879
 11
38.9613273329
 21
-10.9522614879
  0
LINE
  5
327
100
AcDbEntity
  8
0
100
AcDbLine
 62
7
  6
CONTINUOUS
 10
-39.5386726671
 20
-10.9522614879
 11
-42.0386726671
 21
-10.9522614879
  0
LINE
  5
328
100
AcDbEntity
  8
0
100
AcDbLine
 62
7
  6
CONTINUOUS
 10
39.1434550137
 20
-12.8343891686
 11
40.3597029395
 21
-12.9079533735
  0
LINE
  5
329
100
AcDbEntity
  8
DRAFT
100
AcDbLine
 62
7
  6
CONTINUOUS
 10
22.2392554368
 20
-18.6638296873
 11
22.2654380342
 21
-18.6746748742
  0
LINE
  5
32A
100
AcDbEntity
  8
DRAFT
100
AcDbLine
 62
7
  6
CONTINUOUS
 10
8.4892554368
 20
-23.9801895918
 11
8.4613273329
 21
-23.9522614879
  0
LINE
  5
32B
100
AcDbEntity
  8
DRAFT
100
AcDbLine
 62
7
  6
CONTINUOUS
 10
10.550348164
 20
-24.041282319
 11
10.4613273329
 21
-23.9522614879
  0
LINE
  5
32C
100
AcDbEntity
  8
DRAFT
100
AcDbLine
 62
7
  6
CONTINUOUS
 10
10.4613273329
 20
-22.4522614879
 11
10.550348164
 21
-22.541282319
  0
LINE
  5
32D
100
AcDbEntity
  8
DRAFT
100
AcDbLine
 62
7
  6
CONTINUOUS
 10
13.4613273329
 20
-24.9522614879
 11
13.433399229
 21
-24.924333384
  0
LINE
  5
32E
100
AcDbEntity
  8
DRAFT
100
AcDbLine
 62
7
  6
CONTINUOUS
 10
-19.0002408665
 20
22.575666616
 11
-19.0110860534
 21
22.6018492134
  0
LINE
  5
32F
100
AcDbEntity
  8
0
100
AcDbLine
 62
7
  6
CONTINUOUS
 10
-6.9074396718
 20
22.5477385121
 11
-7.0409031039
 21
24.0732325214
  0
LINE
  5
330
100
AcDbEntity
  8
0
100
AcDbLine
 62
7
  6
CONTINUOUS
 10
-7.1235049825
 20
25.0173763136
 11
-7.1633850025
 21
25.4732070287
  0
LINE
  5
331
100
AcDbEntity
  8
DRAFT
100
AcDbLine
 62
7
  6
CONTINUOUS
 10
-6.8258671091
 20
22.6367593433
 11
-6.9571001044
 21
24.1367593433
  0
LINE
  5
332
100
AcDbEntity
  8
0
100
AcDbLine
 62
7
  6
CONTINUOUS
 10
-7.0290121408
 20
24.958717681
 11
-7.0775268499
 21
25.5132433428
  0
LINE
  5
333
100
AcDbEntity
  8
0
100
AcDbLine
 62
7
  6
CONTINUOUS
 10
-6.9074396718
 20
-22.4522614879
 11
-7.0409031039
 21
-23.9777554971
  0
LINE
  5
334
100
AcDbEntity
  8
0
100
AcDbLine
 62
7
  6
CONTINUOUS
 10
-7.1235049825
 20
-24.9218992893
 11
-7.1633850025
 21
-25.3777300044
  0
LINE
  5
335
100
AcDbEntity
  8
0
100
AcDbLine
 62
7
  6
CONTINUOUS
 10
-7.0775268499
 20
-25.4177663185
 11
-7.0290121408
 21
-24.8632406567
  0
LINE
  5
336
100
AcDbEntity
  8
DRAFT
100
AcDbLine
 62
7
  6
CONTINUOUS
 10
-6.9571001044
 20
-24.041282319
 11
-6.8258671091
 21
-22.541282319
  0
LINE
  5
337
100
AcDbEntity
  8
DRAFT
100
AcDbLine
 62
7
  6
CONTINUOUS
 10
15.5428998956
 20
24.1367593433
 11
15.4869187251
 21
24.075666616
  0
LINE
  5
338
100
AcDbEntity
  8
DRAFT
100
AcDbLine
 62
7
  6
CONTINUOUS
 10
15.6741328909
 20
22.6367593433
 11
15.5925603282
 21
22.5477385121
  0
LINE
  5
339
100
AcDbEntity
  8
0
100
AcDbLine
 62
7
  6
CONTINUOUS
 10
-39.7097844376
 20
-12.0116087086
 11
-39.6013472168
 21
-11.9574066175
  0
LINE
  5
33A
100
AcDbEntity
  8
0
100
AcDbLine
 62
7
  6
CONTINUOUS
 10
-39.7097844376
 20
12.1070857329
 11
-39.6013472168
 21
12.0528836417
  0
LINE
  5
33B
100
AcDbEntity
  8
DRAFT
100
AcDbLine
 62
7
  6
CONTINUOUS
 10
15.5428998956
 20
-24.041282319
 11
15.4869187251
 21
-23.9801895918
  0
LINE
  5
33C
100
AcDbEntity
  8
DRAFT
100
AcDbLine
 62
7
  6
CONTINUOUS
 10
15.5925603282
 20
-22.4522614879
 11
15.6741328909
 21
-22.541282319
  0
LINE
  5
33D
100
AcDbEntity
  8
0
100
AcDbLine
 62
250
  6
CONTINUOUS
 10
-14.37652725
 20
-27.0144069049
 11
-14.4134008856
 21
-27.1034277361
  0
LINE
  5
33E
100
AcDbEntity
  8
0
100
AcDbLine
 62
250
  6
CONTINUOUS
 10
-14.1644275244
 20
-27.1022614879
 11
-14.20130116
 21
-27.191282319
  0
LINE
  5
33F
100
AcDbEntity
  8
DRAFT
100
AcDbLine
 62
7
  6
CONTINUOUS
 10
18.083399229
 20
22.5477385121
 11
18.093872268
 21
22.5582115511
  0
LINE
  5
340
100
AcDbEntity
  8
DRAFT
100
AcDbLine
 62
7
  6
CONTINUOUS
 10
-22.8427833684
 20
-22.5063721891
 11
-22.8776934982
 21
-22.541282319
  0
LINE
  5
341
100
AcDbEntity
  8
DRAFT
100
AcDbLine
 62
7
  6
CONTINUOUS
 10
22.2654380342
 20
22.6018492134
 11
22.300348164
 21
22.6367593433
  0
LINE
  5
342
100
AcDbEntity
  8
DRAFT
100
AcDbLine
 62
7
  6
CONTINUOUS
 10
18.083399229
 20
-22.4522614879
 11
18.093872268
 21
-22.4627345268
  0
LINE
  5
343
100
AcDbEntity
  8
DRAFT
100
AcDbLine
 62
7
  6
CONTINUOUS
 10
22.2654380342
 20
-22.5063721891
 11
22.300348164
 21
-22.541282319
  0
LINE
  5
344
100
AcDbEntity
  8
DRAFT
100
AcDbLine
 62
7
  6
CONTINUOUS
 10
-22.8427833684
 20
22.6018492134
 11
-22.8776934982
 21
22.6367593433
  0
LINE
  5
345
100
AcDbEntity
  8
0
100
AcDbLine
 62
250
  6
CONTINUOUS
 10
-14.37652725
 20
27.1098839292
 11
-14.4134008856
 21
27.1989047603
  0
LINE
  5
346
100
AcDbEntity
  8
0
100
AcDbLine
 62
250
  6
CONTINUOUS
 10
-14.1644275244
 20
27.1977385121
 11
-14.20130116
 21
27.2867593433
  0
LINE
  5
347
100
AcDbEntity
  8
0
100
AcDbLine
 62
250
  6
CONTINUOUS
 10
13.5870821902
 20
27.1977385121
 11
13.6239558258
 21
27.2867593433
  0
LINE
  5
348
100
AcDbEntity
  8
0
100
AcDbLine
 62
250
  6
CONTINUOUS
 10
13.7991819158
 20
27.1098839292
 11
13.8360555514
 21
27.1989047603
  0
LINE
  5
349
100
AcDbEntity
  8
DRAFT
100
AcDbLine
 62
7
  6
CONTINUOUS
 10
-16.2514782251
 20
-22.541282319
 11
-16.1699056624
 21
-22.4522614879
  0
LINE
  5
34A
100
AcDbEntity
  8
DRAFT
100
AcDbLine
 62
7
  6
CONTINUOUS
 10
-18.6607445632
 20
-22.4522614879
 11
-18.6712176022
 21
-22.4627345268
  0
LINE
  5
34B
100
AcDbEntity
  8
DRAFT
100
AcDbLine
 62
7
  6
CONTINUOUS
 10
-18.6607445632
 20
22.5477385121
 11
-18.6712176022
 21
22.5582115511
  0
LINE
  5
34C
100
AcDbEntity
  8
DRAFT
100
AcDbLine
 62
7
  6
CONTINUOUS
 10
-16.1699056624
 20
22.5477385121
 11
-16.2514782251
 21
22.6367593433
  0
LINE
  5
34D
100
AcDbEntity
  8
0
100
AcDbLine
 62
250
  6
CONTINUOUS
 10
13.5870821902
 20
-27.1022614879
 11
13.6239558258
 21
-27.191282319
  0
LINE
  5
34E
100
AcDbEntity
  8
0
100
AcDbLine
 62
250
  6
CONTINUOUS
 10
13.7991819158
 20
-27.0144069049
 11
13.8360555514
 21
-27.1034277361
  0
LINE
  5
34F
100
AcDbEntity
  8
DRAFT
100
AcDbLine
 62
7
  6
CONTINUOUS
 10
6.2485217749
 20
-22.541282319
 11
6.3797547702
 21
-24.041282319
  0
LINE
  5
350
100
AcDbEntity
  8
0
100
AcDbLine
 62
7
  6
CONTINUOUS
 10
6.4516668066
 20
-24.8632406567
 11
6.5001815157
 21
-25.4177663185
  0
LINE
  5
351
100
AcDbEntity
  8
0
100
AcDbLine
 62
7
  6
CONTINUOUS
 10
6.3300943376
 20
-22.4522614879
 11
6.4635577697
 21
-23.9777554971
  0
LINE
  5
352
100
AcDbEntity
  8
0
100
AcDbLine
 62
7
  6
CONTINUOUS
 10
6.5461596483
 20
-24.9218992893
 11
6.5860396683
 21
-25.3777300044
  0
LINE
  5
353
100
AcDbEntity
  8
0
100
AcDbLine
 62
7
  6
CONTINUOUS
 10
6.5001815157
 20
25.5132433428
 11
6.4516668066
 21
24.958717681
  0
LINE
  5
354
100
AcDbEntity
  8
DRAFT
100
AcDbLine
 62
7
  6
CONTINUOUS
 10
6.3797547702
 20
24.1367593433
 11
6.2485217749
 21
22.6367593433
  0
LINE
  5
355
100
AcDbEntity
  8
0
100
AcDbLine
 62
7
  6
CONTINUOUS
 10
6.3300943376
 20
22.5477385121
 11
6.4635577697
 21
24.0732325214
  0
LINE
  5
356
100
AcDbEntity
  8
0
100
AcDbLine
 62
7
  6
CONTINUOUS
 10
6.5461596483
 20
25.0173763136
 11
6.5860396683
 21
25.4732070287
  0
LINE
  5
357
100
AcDbEntity
  8
DRAFT
100
AcDbLine
 62
7
  6
CONTINUOUS
 10
-16.1202452298
 20
-24.041282319
 11
-16.0642640593
 21
-23.9801895918
  0
LINE
  5
358
100
AcDbEntity
  8
DRAFT
100
AcDbLine
 62
7
  6
CONTINUOUS
 10
-14.0386726671
 20
-24.9522614879
 11
-14.0107445632
 21
-24.924333384
  0
LINE
  5
359
100
AcDbEntity
  8
DRAFT
100
AcDbLine
 62
7
  6
CONTINUOUS
 10
-11.1276934982
 20
-22.541282319
 11
-11.0386726671
 21
-22.4522614879
  0
LINE
  5
35A
100
AcDbEntity
  8
0
100
AcDbLine
 62
7
  6
CONTINUOUS
 10
39.0240018825
 20
12.0528836417
 11
39.1324391034
 21
12.1070857329
  0
LINE
  5
35B
100
AcDbEntity
  8
0
100
AcDbLine
 62
7
  6
CONTINUOUS
 10
39.0240018825
 20
-11.9574066175
 11
39.1324391034
 21
-12.0116087086
  0
LINE
  5
35C
100
AcDbEntity
  8
DRAFT
100
AcDbLine
 62
7
  6
CONTINUOUS
 10
-14.0107445632
 20
25.0198104082
 11
-14.0386726671
 21
25.0477385121
  0
LINE
  5
35D
100
AcDbEntity
  8
DRAFT
100
AcDbLine
 62
7
  6
CONTINUOUS
 10
-11.1276934982
 20
22.6367593433
 11
-11.0386726671
 21
22.5477385121
  0
LINE
  5
35E
100
AcDbEntity
  8
DRAFT
100
AcDbLine
 62
7
  6
CONTINUOUS
 10
-16.1202452298
 20
24.1367593433
 11
-16.0642640593
 21
24.075666616
  0
LINE
  5
35F
100
AcDbEntity
  8
DRAFT
100
AcDbLine
 62
7
  6
CONTINUOUS
 10
8.4613273329
 20
-24.9522614879
 11
8.4613273329
 21
-24.924333384
  0
LINE
  5
360
100
AcDbEntity
  8
DRAFT
100
AcDbLine
 62
7
  6
CONTINUOUS
 10
8.4613273329
 20
-23.9801895918
 11
8.4613273329
 21
-22.4522614879
  0
LINE
  5
361
100
AcDbEntity
  8
DRAFT
100
AcDbLine
 62
7
  6
CONTINUOUS
 10
8.4613273329
 20
22.5477385121
 11
8.4613273329
 21
24.075666616
  0
LINE
  5
362
100
AcDbEntity
  8
DRAFT
100
AcDbLine
 62
7
  6
CONTINUOUS
 10
8.4613273329
 20
25.0198104082
 11
8.4613273329
 21
25.0477385121
  0
LINE
  5
363
100
AcDbEntity
  8
DRAFT
100
AcDbLine
 62
7
  6
CONTINUOUS
 10
10.4613273329
 20
-23.9522614879
 11
10.4613273329
 21
-22.4522614879
  0
LINE
  5
364
100
AcDbEntity
  8
DRAFT
100
AcDbLine
 62
7
  6
CONTINUOUS
 10
10.4613273329
 20
22.5477385121
 11
10.4613273329
 21
24.0477385121
  0
LINE
  5
365
100
AcDbEntity
  8
DRAFT
100
AcDbLine
 62
7
  6
CONTINUOUS
 10
10.550348164
 20
-22.541282319
 11
10.550348164
 21
-24.041282319
  0
LINE
  5
366
100
AcDbEntity
  8
DRAFT
100
AcDbLine
 62
7
  6
CONTINUOUS
 10
10.550348164
 20
22.6367593433
 11
10.550348164
 21
24.1367593433
  0
LINE
  5
367
100
AcDbEntity
  8
DRAFT
100
AcDbLine
 62
7
  6
CONTINUOUS
 10
11.3723065018
 20
-22.541282319
 11
11.3723065018
 21
-24.041282319
  0
LINE
  5
368
100
AcDbEntity
  8
DRAFT
100
AcDbLine
 62
7
  6
CONTINUOUS
 10
11.3723065018
 20
22.6367593433
 11
11.3723065018
 21
24.1367593433
  0
LINE
  5
369
100
AcDbEntity
  8
DRAFT
100
AcDbLine
 62
7
  6
CONTINUOUS
 10
11.4613273329
 20
-23.9522614879
 11
11.4613273329
 21
-22.4522614879
  0
LINE
  5
36A
100
AcDbEntity
  8
DRAFT
100
AcDbLine
 62
7
  6
CONTINUOUS
 10
11.4613273329
 20
22.5477385121
 11
11.4613273329
 21
24.0477385121
  0
LINE
  5
36B
100
AcDbEntity
  8
DRAFT
100
AcDbLine
 62
7
  6
CONTINUOUS
 10
18.4228955323
 20
22.575666616
 11
18.4337407192
 21
22.6018492134
  0
LINE
  5
36C
100
AcDbEntity
  8
DRAFT
100
AcDbLine
 62
7
  6
CONTINUOUS
 10
-11.1276934982
 20
-24.041282319
 11
-11.0386726671
 21
-23.9522614879
  0
LINE
  5
36D
100
AcDbEntity
  8
DRAFT
100
AcDbLine
 62
7
  6
CONTINUOUS
 10
-9.066600771
 20
-23.9801895918
 11
-9.0386726671
 21
-23.9522614879
  0
LINE
  5
36E
100
AcDbEntity
  8
DRAFT
100
AcDbLine
 62
7
  6
CONTINUOUS
 10
-22.816600771
 20
-18.6638296873
 11
-22.8427833684
 21
-18.6746748742
  0
LINE
  5
36F
100
AcDbEntity
  8
0
100
AcDbLine
 62
7
  6
CONTINUOUS
 10
39.1434550137
 20
12.9298661929
 11
40.3597029395
 21
13.0034303977
  0
LINE
  5
370
100
AcDbEntity
  8
0
100
AcDbLine
 62
7
  6
CONTINUOUS
 10
39.1434550137
 20
13.9798661929
 11
40.3597029395
 21
14.0534303977
  0
LINE
  5
371
100
AcDbEntity
  8
0
100
AcDbLine
 62
7
  6
CONTINUOUS
 10
39.154605688
 20
13.9910168672
 11
40.3546200901
 21
14.0635991947
  0
LINE
  5
372
100
AcDbEntity
  8
0
100
AcDbLine
 62
7
  6
CONTINUOUS
 10
41.4613273329
 20
11.0477385121
 11
38.9613273329
 21
11.0477385121
  0
LINE
  5
373
100
AcDbEntity
  8
0
100
AcDbLine
 62
7
  6
CONTINUOUS
 10
-39.5386726671
 20
11.0477385121
 11
-42.0386726671
 21
11.0477385121
  0
LINE
  5
374
100
AcDbEntity
  8
0
100
AcDbLine
 62
7
  6
CONTINUOUS
 10
41.4089461787
 20
11.1001196664
 11
39.0137084871
 21
11.1001196664
  0
LINE
  5
375
100
AcDbEntity
  8
0
100
AcDbLine
 62
7
  6
CONTINUOUS
 10
-39.5910538213
 20
11.1001196664
 11
-41.9862915129
 21
11.1001196664
  0
LINE
  5
376
100
AcDbEntity
  8
0
100
AcDbLine
 62
7
  6
CONTINUOUS
 10
39.3843727192
 20
12.1070857329
 11
39.1324391034
 21
12.1070857329
  0
LINE
  5
377
100
AcDbEntity
  8
0
100
AcDbLine
 62
7
  6
CONTINUOUS
 10
-39.7097844376
 20
12.1070857329
 11
-39.9617180534
 21
12.1070857329
  0
LINE
  5
378
100
AcDbEntity
  8
0
100
AcDbLine
 62
7
  6
CONTINUOUS
 10
-40.9370482737
 20
13.0034303977
 11
-39.7208003479
 21
12.9298661929
  0
LINE
  5
379
100
AcDbEntity
  8
0
100
AcDbLine
 62
7
  6
CONTINUOUS
 10
-40.9370482737
 20
14.0534303977
 11
-39.7208003479
 21
13.9798661929
  0
LINE
  5
37A
100
AcDbEntity
  8
0
100
AcDbLine
 62
7
  6
CONTINUOUS
 10
-40.9319654243
 20
14.0635991947
 11
-39.7319510222
 21
13.9910168672
  0
LINE
  5
37B
100
AcDbEntity
  8
DRAFT
100
AcDbLine
 62
7
  6
CONTINUOUS
 10
-22.816600771
 20
18.7593067115
 11
-22.8427833684
 21
18.7701518985
  0
LINE
  5
37C
100
AcDbEntity
  8
DRAFT
100
AcDbLine
 62
7
  6
CONTINUOUS
 10
-11.0386726671
 20
24.0477385121
 11
-11.1276934982
 21
24.1367593433
  0
LINE
  5
37D
100
AcDbEntity
  8
DRAFT
100
AcDbLine
 62
7
  6
CONTINUOUS
 10
-9.0386726671
 20
24.0477385121
 11
-9.066600771
 21
24.075666616
  0
LINE
  5
37E
100
AcDbEntity
  8
DRAFT
100
AcDbLine
 62
7
  6
CONTINUOUS
 10
18.4228955323
 20
-22.4801895918
 11
18.4337407192
 21
-22.5063721891
  0
LINE
  5
37F
100
AcDbEntity
  8
DRAFT
100
AcDbLine
 62
7
  6
CONTINUOUS
 10
13.4613273329
 20
-24.9522614879
 11
13.4613273329
 21
-24.924333384
  0
LINE
  5
380
100
AcDbEntity
  8
DRAFT
100
AcDbLine
 62
7
  6
CONTINUOUS
 10
13.4613273329
 20
-23.9801895918
 11
13.4613273329
 21
-22.4522614879
  0
LINE
  5
381
100
AcDbEntity
  8
DRAFT
100
AcDbLine
 62
7
  6
CONTINUOUS
 10
13.4613273329
 20
22.5477385121
 11
13.4613273329
 21
24.075666616
  0
LINE
  5
382
100
AcDbEntity
  8
DRAFT
100
AcDbLine
 62
7
  6
CONTINUOUS
 10
13.4613273329
 20
25.0198104082
 11
13.4613273329
 21
25.0477385121
  0
LINE
  5
383
100
AcDbEntity
  8
0
100
AcDbLine
 62
7
  6
CONTINUOUS
 10
-7.2500981687
 20
-25.5636869895
 11
-8.7008180842
 21
-27.0144069049
  0
LINE
  5
384
100
AcDbEntity
  8
0
100
AcDbLine
 62
7
  6
CONTINUOUS
 10
41.4089461787
 20
22.9953573579
 11
41.4613273329
 21
23.0477385121
  0
LINE
  5
385
100
AcDbEntity
  8
0
100
AcDbLine
 62
7
  6
CONTINUOUS
 10
-8.6639444486
 20
-27.1034277361
 11
-7.1642400161
 21
-25.6037233036
  0
LINE
  5
386
100
AcDbEntity
  8
0
100
AcDbLine
 62
7
  6
CONTINUOUS
 10
39.1434550137
 20
19.1798661929
 11
39.154605688
 21
19.1910168672
  0
LINE
  5
387
100
AcDbEntity
  8
DRAFT
100
AcDbLine
 62
7
  6
CONTINUOUS
 10
-1.2607445632
 20
-22.4522614879
 11
-1.2712176022
 21
-22.4627345268
  0
LINE
  5
388
100
AcDbEntity
  8
0
100
AcDbLine
 62
7
  6
CONTINUOUS
 10
39.1434550137
 20
16.5798661929
 11
39.154605688
 21
16.5910168672
  0
LINE
  5
389
100
AcDbEntity
  8
DRAFT
100
AcDbLine
 62
7
  6
CONTINUOUS
 10
-7.0290121408
 20
-24.8632406567
 11
-7.0956831534
 21
-24.924333384
  0
LINE
  5
38A
100
AcDbEntity
  8
0
100
AcDbLine
 62
250
  6
CONTINUOUS
 10
-15.9139603317
 20
-25.3777300044
 11
-15.9998184843
 21
-25.4177663185
  0
LINE
  5
38B
100
AcDbEntity
  8
0
100
AcDbLine
 62
7
  6
CONTINUOUS
 10
39.1434550137
 20
16.5798661929
 11
40.3597029395
 21
16.6534303977
  0
LINE
  5
38C
100
AcDbEntity
  8
0
100
AcDbLine
 62
7
  6
CONTINUOUS
 10
39.154605688
 20
16.5910168672
 11
40.3546200901
 21
16.6635991947
  0
LINE
  5
38D
100
AcDbEntity
  8
0
100
AcDbLine
 62
7
  6
CONTINUOUS
 10
-39.9617180534
 20
12.9188502826
 11
-39.7097844376
 21
12.9188502826
  0
LINE
  5
38E
100
AcDbEntity
  8
0
100
AcDbLine
 62
7
  6
CONTINUOUS
 10
39.1324391034
 20
12.9188502826
 11
39.3843727192
 21
12.9188502826
  0
LINE
  5
38F
100
AcDbEntity
  8
0
100
AcDbLine
 62
7
  6
CONTINUOUS
 10
-40.9370482737
 20
16.6534303977
 11
-39.7208003479
 21
16.5798661929
  0
LINE
  5
390
100
AcDbEntity
  8
0
100
AcDbLine
 62
7
  6
CONTINUOUS
 10
-40.9319654243
 20
16.6635991947
 11
-39.7319510222
 21
16.5910168672
  0
LINE
  5
391
100
AcDbEntity
  8
0
100
AcDbLine
 62
250
  6
CONTINUOUS
 10
-15.9998184843
 20
25.5132433428
 11
-15.9139603317
 21
25.4732070287
  0
LINE
  5
392
100
AcDbEntity
  8
DRAFT
100
AcDbLine
 62
7
  6
CONTINUOUS
 10
-7.0290121408
 20
24.958717681
 11
-7.0956831534
 21
25.0198104082
  0
LINE
  5
393
100
AcDbEntity
  8
0
100
AcDbLine
 62
7
  6
CONTINUOUS
 10
-8.7008180842
 20
27.1098839292
 11
-7.2500981687
 21
25.6591640138
  0
LINE
  5
394
100
AcDbEntity
  8
0
100
AcDbLine
 62
7
  6
CONTINUOUS
 10
41.4089461787
 20
-22.8998803336
 11
41.4613273329
 21
-22.9522614879
  0
LINE
  5
395
100
AcDbEntity
  8
0
100
AcDbLine
 62
7
  6
CONTINUOUS
 10
-7.1642400161
 20
25.6992003279
 11
-8.6639444486
 21
27.1989047603
  0
LINE
  5
396
100
AcDbEntity
  8
0
100
AcDbLine
 62
7
  6
CONTINUOUS
 10
39.1434550137
 20
-19.0843891686
 11
39.154605688
 21
-19.095539843
  0
LINE
  5
397
100
AcDbEntity
  8
DRAFT
100
AcDbLine
 62
7
  6
CONTINUOUS
 10
-1.2607445632
 20
22.5477385121
 11
-1.2712176022
 21
22.5582115511
  0
LINE
  5
398
100
AcDbEntity
  8
0
100
AcDbLine
 62
7
  6
CONTINUOUS
 10
39.1434550137
 20
-16.4843891686
 11
39.154605688
 21
-16.495539843
  0
LINE
  5
399
100
AcDbEntity
  8
0
100
AcDbLine
 62
7
  6
CONTINUOUS
 10
15.5925603282
 20
22.5477385121
 11
15.4590968961
 21
24.0732325214
  0
LINE
  5
39A
100
AcDbEntity
  8
0
100
AcDbLine
 62
7
  6
CONTINUOUS
 10
15.3764950175
 20
25.0173763136
 11
15.3366149975
 21
25.4732070287
  0
LINE
  5
39B
100
AcDbEntity
  8
DRAFT
100
AcDbLine
 62
7
  6
CONTINUOUS
 10
15.6741328909
 20
22.6367593433
 11
15.5428998956
 21
24.1367593433
  0
LINE
  5
39C
100
AcDbEntity
  8
0
100
AcDbLine
 62
7
  6
CONTINUOUS
 10
15.4709878592
 20
24.958717681
 11
15.4224731501
 21
25.5132433428
  0
LINE
  5
39D
100
AcDbEntity
  8
0
100
AcDbLine
 62
7
  6
CONTINUOUS
 10
15.5925603282
 20
-22.4522614879
 11
15.4590968961
 21
-23.9777554971
  0
LINE
  5
39E
100
AcDbEntity
  8
0
100
AcDbLine
 62
7
  6
CONTINUOUS
 10
15.3764950175
 20
-24.9218992893
 11
15.3366149975
 21
-25.3777300044
  0
LINE
  5
39F
100
AcDbEntity
  8
0
100
AcDbLine
 62
7
  6
CONTINUOUS
 10
15.4224731501
 20
-25.4177663185
 11
15.4709878592
 21
-24.8632406567
  0
LINE
  5
3A0
100
AcDbEntity
  8
DRAFT
100
AcDbLine
 62
7
  6
CONTINUOUS
 10
15.5428998956
 20
-24.041282319
 11
15.6741328909
 21
-22.541282319
  0
LINE
  5
3A1
100
AcDbEntity
  8
0
100
AcDbLine
 62
250
  6
CONTINUOUS
 10
8.12347275
 20
-27.0144069049
 11
8.0865991144
 21
-27.1034277361
  0
LINE
  5
3A2
100
AcDbEntity
  8
0
100
AcDbLine
 62
250
  6
CONTINUOUS
 10
8.3355724756
 20
-27.1022614879
 11
8.29869884
 21
-27.191282319
  0
LINE
  5
3A3
100
AcDbEntity
  8
DRAFT
100
AcDbLine
 62
7
  6
CONTINUOUS
 10
6.2485217749
 20
-22.541282319
 11
6.3300943376
 21
-22.4522614879
  0
LINE
  5
3A4
100
AcDbEntity
  8
0
100
AcDbLine
 62
7
  6
CONTINUOUS
 10
39.1434550137
 20
13.9798661929
 11
39.154605688
 21
13.9910168672
  0
LINE
  5
3A5
100
AcDbEntity
  8
0
100
AcDbLine
 62
7
  6
CONTINUOUS
 10
39.1324391034
 20
12.9188502826
 11
39.1434550137
 21
12.9298661929
  0
LINE
  5
3A6
100
AcDbEntity
  8
DRAFT
100
AcDbLine
 62
7
  6
CONTINUOUS
 10
3.8392554368
 20
-22.4522614879
 11
3.8287823978
 21
-22.4627345268
  0
LINE
  5
3A7
100
AcDbEntity
  8
0
100
AcDbLine
 62
7
  6
CONTINUOUS
 10
39.0137084871
 20
11.1001196664
 11
38.9613273329
 21
11.0477385121
  0
LINE
  5
3A8
100
AcDbEntity
  8
0
100
AcDbLine
 62
250
  6
CONTINUOUS
 10
-15.8272471655
 20
-25.5636869895
 11
-15.9131053181
 21
-25.6037233036
  0
LINE
  5
3A9
100
AcDbEntity
  8
0
100
AcDbLine
 62
7
  6
CONTINUOUS
 10
39.1434550137
 20
19.1798661929
 11
40.3597029395
 21
19.2534303977
  0
LINE
  5
3AA
100
AcDbEntity
  8
0
100
AcDbLine
 62
7
  6
CONTINUOUS
 10
39.154605688
 20
19.1910168672
 11
40.3546200901
 21
19.2635991947
  0
LINE
  5
3AB
100
AcDbEntity
  8
0
100
AcDbLine
 62
7
  6
CONTINUOUS
 10
-39.7319510222
 20
14.904460157
 11
-40.9319654243
 21
14.8318778295
  0
LINE
  5
3AC
100
AcDbEntity
  8
0
100
AcDbLine
 62
7
  6
CONTINUOUS
 10
-40.9370482737
 20
14.8420466265
 11
-39.7208003479
 21
14.9156108314
  0
LINE
  5
3AD
100
AcDbEntity
  8
0
100
AcDbLine
 62
7
  6
CONTINUOUS
 10
-39.7319510222
 20
17.504460157
 11
-40.9319654243
 21
17.4318778295
  0
LINE
  5
3AE
100
AcDbEntity
  8
0
100
AcDbLine
 62
7
  6
CONTINUOUS
 10
-40.9370482737
 20
17.4420466265
 11
-39.7208003479
 21
17.5156108314
  0
LINE
  5
3AF
100
AcDbEntity
  8
0
100
AcDbLine
 62
7
  6
CONTINUOUS
 10
-40.9370482737
 20
19.2534303977
 11
-39.7208003479
 21
19.1798661929
  0
LINE
  5
3B0
100
AcDbEntity
  8
0
100
AcDbLine
 62
7
  6
CONTINUOUS
 10
-40.9319654243
 20
19.2635991947
 11
-39.7319510222
 21
19.1910168672
  0
LINE
  5
3B1
100
AcDbEntity
  8
0
100
AcDbLine
 62
7
  6
CONTINUOUS
 10
40.3546200901
 20
14.8318778295
 11
39.154605688
 21
14.904460157
  0
LINE
  5
3B2
100
AcDbEntity
  8
0
100
AcDbLine
 62
7
  6
CONTINUOUS
 10
39.1434550137
 20
14.9156108314
 11
40.3597029395
 21
14.8420466265
  0
LINE
  5
3B3
100
AcDbEntity
  8
0
100
AcDbLine
 62
7
  6
CONTINUOUS
 10
40.3546200901
 20
17.4318778295
 11
39.154605688
 21
17.504460157
  0
LINE
  5
3B4
100
AcDbEntity
  8
0
100
AcDbLine
 62
7
  6
CONTINUOUS
 10
39.1434550137
 20
17.5156108314
 11
40.3597029395
 21
17.4420466265
  0
LINE
  5
3B5
100
AcDbEntity
  8
0
100
AcDbLine
 62
250
  6
CONTINUOUS
 10
-15.9131053181
 20
25.6992003279
 11
-15.8272471655
 21
25.6591640138
  0
LINE
  5
3B6
100
AcDbEntity
  8
0
100
AcDbLine
 62
7
  6
CONTINUOUS
 10
39.1434550137
 20
-13.8843891686
 11
39.154605688
 21
-13.895539843
  0
LINE
  5
3B7
100
AcDbEntity
  8
0
100
AcDbLine
 62
7
  6
CONTINUOUS
 10
39.1324391034
 20
-12.8233732584
 11
39.1434550137
 21
-12.8343891686
  0
LINE
  5
3B8
100
AcDbEntity
  8
DRAFT
100
AcDbLine
 62
7
  6
CONTINUOUS
 10
3.8392554368
 20
22.5477385121
 11
3.8287823978
 21
22.5582115511
  0
LINE
  5
3B9
100
AcDbEntity
  8
0
100
AcDbLine
 62
7
  6
CONTINUOUS
 10
39.0137084871
 20
-11.0046426421
 11
38.9613273329
 21
-10.9522614879
  0
LINE
  5
3BA
100
AcDbEntity
  8
DRAFT
100
AcDbLine
 62
7
  6
CONTINUOUS
 10
6.3300943376
 20
22.5477385121
 11
6.2485217749
 21
22.6367593433
  0
LINE
  5
3BB
100
AcDbEntity
  8
0
100
AcDbLine
 62
250
  6
CONTINUOUS
 10
8.12347275
 20
27.1098839292
 11
8.0865991144
 21
27.1989047603
  0
LINE
  5
3BC
100
AcDbEntity
  8
0
100
AcDbLine
 62
250
  6
CONTINUOUS
 10
8.3355724756
 20
27.1977385121
 11
8.29869884
 21
27.2867593433
  0
LINE
  5
3BD
100
AcDbEntity
  8
DRAFT
100
AcDbLine
 62
7
  6
CONTINUOUS
 10
22.2113273329
 20
18.7872348154
 11
22.2113273329
 21
-18.6917577912
  0
LINE
  5
3BE
100
AcDbEntity
  8
DRAFT
100
AcDbLine
 62
7
  6
CONTINUOUS
 10
22.2654380342
 20
22.6018492134
 11
22.2654380342
 21
18.7701518985
  0
LINE
  5
3BF
100
AcDbEntity
  8
DRAFT
100
AcDbLine
 62
7
  6
CONTINUOUS
 10
22.2654380342
 20
-18.6746748742
 11
22.2654380342
 21
-22.5063721891
  0
LINE
  5
3C0
100
AcDbEntity
  8
DRAFT
100
AcDbLine
 62
7
  6
CONTINUOUS
 10
22.300348164
 20
22.6367593433
 11
22.300348164
 21
-22.541282319
  0
LINE
  5
3C1
100
AcDbEntity
  8
DRAFT
100
AcDbLine
 62
7
  6
CONTINUOUS
 10
6.3797547702
 20
-24.041282319
 11
6.4357359407
 21
-23.9801895918
  0
LINE
  5
3C2
100
AcDbEntity
  8
DRAFT
100
AcDbLine
 62
7
  6
CONTINUOUS
 10
8.4613273329
 20
-24.9522614879
 11
8.4892554368
 21
-24.924333384
  0
LINE
  5
3C3
100
AcDbEntity
  8
DRAFT
100
AcDbLine
 62
7
  6
CONTINUOUS
 10
11.3723065018
 20
-22.541282319
 11
11.4613273329
 21
-22.4522614879
  0
LINE
  5
3C4
100
AcDbEntity
  8
0
100
AcDbLine
 62
7
  6
CONTINUOUS
 10
-39.7319510222
 20
20.104460157
 11
-40.9319654243
 21
20.0318778295
  0
LINE
  5
3C5
100
AcDbEntity
  8
0
100
AcDbLine
 62
7
  6
CONTINUOUS
 10
-40.9370482737
 20
20.0420466265
 11
-39.7208003479
 21
20.1156108314
  0
LINE
  5
3C6
100
AcDbEntity
  8
0
100
AcDbLine
 62
7
  6
CONTINUOUS
 10
-40.9370482737
 20
21.0920466265
 11
-39.7208003479
 21
21.1656108314
  0
LINE
  5
3C7
100
AcDbEntity
  8
0
100
AcDbLine
 62
7
  6
CONTINUOUS
 10
39.3843727192
 20
21.1766267416
 11
39.1324391034
 21
21.1766267416
  0
LINE
  5
3C8
100
AcDbEntity
  8
0
100
AcDbLine
 62
7
  6
CONTINUOUS
 10
-39.7097844376
 20
21.1766267416
 11
-39.9617180534
 21
21.1766267416
  0
LINE
  5
3C9
100
AcDbEntity
  8
0
100
AcDbLine
 62
7
  6
CONTINUOUS
 10
-39.9617180534
 20
21.9883912914
 11
-39.7097844376
 21
21.9883912914
  0
LINE
  5
3CA
100
AcDbEntity
  8
0
100
AcDbLine
 62
7
  6
CONTINUOUS
 10
39.1324391034
 20
21.9883912914
 11
39.3843727192
 21
21.9883912914
  0
LINE
  5
3CB
100
AcDbEntity
  8
DRAFT
100
AcDbLine
 62
7
  6
CONTINUOUS
 10
-18.6607445632
 20
22.5477385121
 11
-16.1699056624
 21
22.5477385121
  0
LINE
  5
3CC
100
AcDbEntity
  8
DRAFT
100
AcDbLine
 62
7
  6
CONTINUOUS
 10
13.4613273329
 20
22.5477385121
 11
8.4613273329
 21
22.5477385121
  0
LINE
  5
3CD
100
AcDbEntity
  8
DRAFT
100
AcDbLine
 62
7
  6
CONTINUOUS
 10
-6.9074396718
 20
22.5477385121
 11
-4.416600771
 21
22.5477385121
  0
LINE
  5
3CE
100
AcDbEntity
  8
DRAFT
100
AcDbLine
 62
7
  6
CONTINUOUS
 10
-1.2607445632
 20
22.5477385121
 11
0.683399229
 21
22.5477385121
  0
LINE
  5
3CF
100
AcDbEntity
  8
DRAFT
100
AcDbLine
 62
7
  6
CONTINUOUS
 10
3.8392554368
 20
22.5477385121
 11
6.3300943376
 21
22.5477385121
  0
LINE
  5
3D0
100
AcDbEntity
  8
DRAFT
100
AcDbLine
 62
7
  6
CONTINUOUS
 10
-9.0386726671
 20
22.5477385121
 11
-14.0386726671
 21
22.5477385121
  0
LINE
  5
3D1
100
AcDbEntity
  8
DRAFT
100
AcDbLine
 62
7
  6
CONTINUOUS
 10
15.5925603282
 20
22.5477385121
 11
18.083399229
 21
22.5477385121
  0
LINE
  5
3D2
100
AcDbEntity
  8
DRAFT
100
AcDbLine
 62
7
  6
CONTINUOUS
 10
-19.0176959314
 20
22.5582115511
 11
-18.6712176022
 21
22.5582115511
  0
LINE
  5
3D3
100
AcDbEntity
  8
DRAFT
100
AcDbLine
 62
7
  6
CONTINUOUS
 10
18.4403505972
 20
22.5582115511
 11
18.093872268
 21
22.5582115511
  0
LINE
  5
3D4
100
AcDbEntity
  8
DRAFT
100
AcDbLine
 62
7
  6
CONTINUOUS
 10
0.693872268
 20
22.5582115511
 11
3.8287823978
 21
22.5582115511
  0
LINE
  5
3D5
100
AcDbEntity
  8
DRAFT
100
AcDbLine
 62
7
  6
CONTINUOUS
 10
-1.2712176022
 20
22.5582115511
 11
-4.406127732
 21
22.5582115511
  0
LINE
  5
3D6
100
AcDbEntity
  8
DRAFT
100
AcDbLine
 62
7
  6
CONTINUOUS
 10
-22.8427833684
 20
22.6018492134
 11
-19.0110860534
 21
22.6018492134
  0
LINE
  5
3D7
100
AcDbEntity
  8
DRAFT
100
AcDbLine
 62
7
  6
CONTINUOUS
 10
18.4337407192
 20
22.6018492134
 11
22.2654380342
 21
22.6018492134
  0
LINE
  5
3D8
100
AcDbEntity
  8
DRAFT
100
AcDbLine
 62
7
  6
CONTINUOUS
 10
22.300348164
 20
22.6367593433
 11
15.6741328909
 21
22.6367593433
  0
LINE
  5
3D9
100
AcDbEntity
  8
DRAFT
100
AcDbLine
 62
7
  6
CONTINUOUS
 10
-11.949651836
 20
22.6367593433
 11
-11.1276934982
 21
22.6367593433
  0
LINE
  5
3DA
100
AcDbEntity
  8
DRAFT
100
AcDbLine
 62
7
  6
CONTINUOUS
 10
6.2485217749
 20
22.6367593433
 11
-6.8258671091
 21
22.6367593433
  0
LINE
  5
3DB
100
AcDbEntity
  8
DRAFT
100
AcDbLine
 62
7
  6
CONTINUOUS
 10
10.550348164
 20
22.6367593433
 11
11.3723065018
 21
22.6367593433
  0
LINE
  5
3DC
100
AcDbEntity
  8
DRAFT
100
AcDbLine
 62
7
  6
CONTINUOUS
 10
-16.2514782251
 20
22.6367593433
 11
-22.8776934982
 21
22.6367593433
  0
LINE
  5
3DD
100
AcDbEntity
  8
0
100
AcDbLine
 62
7
  6
CONTINUOUS
 10
-41.9862915129
 20
22.9953573579
 11
-39.5910538213
 21
22.9953573579
  0
LINE
  5
3DE
100
AcDbEntity
  8
0
100
AcDbLine
 62
7
  6
CONTINUOUS
 10
39.0137084871
 20
22.9953573579
 11
41.4089461787
 21
22.9953573579
  0
LINE
  5
3DF
100
AcDbEntity
  8
0
100
AcDbLine
 62
7
  6
CONTINUOUS
 10
-42.0386726671
 20
23.0477385121
 11
-39.5386726671
 21
23.0477385121
  0
LINE
  5
3E0
100
AcDbEntity
  8
0
100
AcDbLine
 62
7
  6
CONTINUOUS
 10
38.9613273329
 20
23.0477385121
 11
41.4613273329
 21
23.0477385121
  0
LINE
  5
3E1
100
AcDbEntity
  8
DRAFT
100
AcDbLine
 62
7
  6
CONTINUOUS
 10
13.4613273329
 20
24.0477385121
 11
11.4613273329
 21
24.0477385121
  0
LINE
  5
3E2
100
AcDbEntity
  8
DRAFT
100
AcDbLine
 62
7
  6
CONTINUOUS
 10
10.4613273329
 20
24.0477385121
 11
8.4613273329
 21
24.0477385121
  0
LINE
  5
3E3
100
AcDbEntity
  8
DRAFT
100
AcDbLine
 62
7
  6
CONTINUOUS
 10
-9.0386726671
 20
24.0477385121
 11
-11.0386726671
 21
24.0477385121
  0
LINE
  5
3E4
100
AcDbEntity
  8
DRAFT
100
AcDbLine
 62
7
  6
CONTINUOUS
 10
-12.0386726671
 20
24.0477385121
 11
-14.0386726671
 21
24.0477385121
  0
LINE
  5
3E5
100
AcDbEntity
  8
DRAFT
100
AcDbLine
 62
7
  6
CONTINUOUS
 10
-16.0642640593
 20
24.075666616
 11
-14.0107445632
 21
24.075666616
  0
LINE
  5
3E6
100
AcDbEntity
  8
DRAFT
100
AcDbLine
 62
7
  6
CONTINUOUS
 10
-9.066600771
 20
24.075666616
 11
-7.0130812749
 21
24.075666616
  0
LINE
  5
3E7
100
AcDbEntity
  8
DRAFT
100
AcDbLine
 62
7
  6
CONTINUOUS
 10
6.4357359407
 20
24.075666616
 11
8.4892554368
 21
24.075666616
  0
LINE
  5
3E8
100
AcDbEntity
  8
DRAFT
100
AcDbLine
 62
7
  6
CONTINUOUS
 10
13.433399229
 20
24.075666616
 11
15.4869187251
 21
24.075666616
  0
LINE
  5
3E9
100
AcDbEntity
  8
DRAFT
100
AcDbLine
 62
7
  6
CONTINUOUS
 10
-16.1202452298
 20
24.1367593433
 11
-11.949651836
 21
24.1367593433
  0
LINE
  5
3EA
100
AcDbEntity
  8
DRAFT
100
AcDbLine
 62
7
  6
CONTINUOUS
 10
-11.1276934982
 20
24.1367593433
 11
-6.9571001044
 21
24.1367593433
  0
LINE
  5
3EB
100
AcDbEntity
  8
DRAFT
100
AcDbLine
 62
7
  6
CONTINUOUS
 10
6.3797547702
 20
24.1367593433
 11
10.550348164
 21
24.1367593433
  0
LINE
  5
3EC
100
AcDbEntity
  8
DRAFT
100
AcDbLine
 62
7
  6
CONTINUOUS
 10
11.3723065018
 20
24.1367593433
 11
15.5428998956
 21
24.1367593433
  0
LINE
  5
3ED
100
AcDbEntity
  8
0
100
AcDbLine
 62
7
  6
CONTINUOUS
 10
40.3546200901
 20
20.0318778295
 11
39.154605688
 21
20.104460157
  0
LINE
  5
3EE
100
AcDbEntity
  8
0
100
AcDbLine
 62
7
  6
CONTINUOUS
 10
39.1434550137
 20
20.1156108314
 11
40.3597029395
 21
20.0420466265
  0
LINE
  5
3EF
100
AcDbEntity
  8
0
100
AcDbLine
 62
7
  6
CONTINUOUS
 10
39.1434550137
 20
21.1656108314
 11
40.3597029395
 21
21.0920466265
  0
LINE
  5
3F0
100
AcDbEntity
  8
DRAFT
100
AcDbLine
 62
7
  6
CONTINUOUS
 10
8.4892554368
 20
25.0198104082
 11
8.4613273329
 21
25.0477385121
  0
LINE
  5
3F1
100
AcDbEntity
  8
DRAFT
100
AcDbLine
 62
7
  6
CONTINUOUS
 10
11.3723065018
 20
22.6367593433
 11
11.4613273329
 21
22.5477385121
  0
LINE
  5
3F2
100
AcDbEntity
  8
DRAFT
100
AcDbLine
 62
7
  6
CONTINUOUS
 10
6.3797547702
 20
24.1367593433
 11
6.4357359407
 21
24.075666616
  0
LINE
  5
3F3
100
AcDbEntity
  8
0
100
AcDbLine
 62
7
  6
CONTINUOUS
 10
40.3842204143
 20
21.1410965207
 11
40.3597029395
 21
21.0920466265
  0
LINE
  5
3F4
100
AcDbEntity
  8
0
100
AcDbLine
 62
7
  6
CONTINUOUS
 10
40.3597029395
 20
20.0420466265
 11
40.3546200901
 21
20.0318778295
  0
LINE
  5
3F5
100
AcDbEntity
  8
DRAFT
100
AcDbLine
 62
7
  6
CONTINUOUS
 10
11.3723065018
 20
-24.041282319
 11
11.4613273329
 21
-23.9522614879
  0
LINE
  5
3F6
100
AcDbEntity
  8
DRAFT
100
AcDbLine
 62
7
  6
CONTINUOUS
 10
13.433399229
 20
-23.9801895918
 11
13.4613273329
 21
-23.9522614879
  0
LINE
  5
3F7
100
AcDbEntity
  8
0
100
AcDbLine
 62
250
  6
CONTINUOUS
 10
6.5860396683
 20
-25.3777300044
 11
6.5001815157
 21
-25.4177663185
  0
LINE
  5
3F8
100
AcDbEntity
  8
0
100
AcDbLine
 62
250
  6
CONTINUOUS
 10
6.6727528345
 20
-25.5636869895
 11
6.5868946819
 21
-25.6037233036
  0
LINE
  5
3F9
100
AcDbEntity
  8
DRAFT
100
AcDbLine
 62
7
  6
CONTINUOUS
 10
15.4709878592
 20
24.958717681
 11
6.4516668066
 21
24.958717681
  0
LINE
  5
3FA
100
AcDbEntity
  8
DRAFT
100
AcDbLine
 62
7
  6
CONTINUOUS
 10
-7.0290121408
 20
24.958717681
 11
-16.0483331934
 21
24.958717681
  0
LINE
  5
3FB
100
AcDbEntity
  8
DRAFT
100
AcDbLine
 62
7
  6
CONTINUOUS
 10
15.4043168466
 20
25.0198104082
 11
13.433399229
 21
25.0198104082
  0
LINE
  5
3FC
100
AcDbEntity
  8
DRAFT
100
AcDbLine
 62
7
  6
CONTINUOUS
 10
8.4892554368
 20
25.0198104082
 11
6.5183378192
 21
25.0198104082
  0
LINE
  5
3FD
100
AcDbEntity
  8
DRAFT
100
AcDbLine
 62
7
  6
CONTINUOUS
 10
-7.0956831534
 20
25.0198104082
 11
-9.066600771
 21
25.0198104082
  0
LINE
  5
3FE
100
AcDbEntity
  8
DRAFT
100
AcDbLine
 62
7
  6
CONTINUOUS
 10
-14.0107445632
 20
25.0198104082
 11
-15.9816621808
 21
25.0198104082
  0
LINE
  5
3FF
100
AcDbEntity
  8
DRAFT
100
AcDbLine
 62
7
  6
CONTINUOUS
 10
13.4613273329
 20
25.0477385121
 11
8.4613273329
 21
25.0477385121
  0
LINE
  5
400
100
AcDbEntity
  8
DRAFT
100
AcDbLine
 62
7
  6
CONTINUOUS
 10
-9.0386726671
 20
25.0477385121
 11
-14.0386726671
 21
25.0477385121
  0
LINE
  5
401
100
AcDbEntity
  8
0
100
AcDbLine
 62
7
  6
CONTINUOUS
 10
-14.1644275244
 20
27.1977385121
 11
-8.9129178098
 21
27.1977385121
  0
LINE
  5
402
100
AcDbEntity
  8
0
100
AcDbLine
 62
7
  6
CONTINUOUS
 10
8.3355724756
 20
27.1977385121
 11
13.5870821902
 21
27.1977385121
  0
LINE
  5
403
100
AcDbEntity
  8
0
100
AcDbLine
 62
7
  6
CONTINUOUS
 10
13.6239558258
 20
27.2867593433
 11
8.29869884
 21
27.2867593433
  0
LINE
  5
404
100
AcDbEntity
  8
0
100
AcDbLine
 62
7
  6
CONTINUOUS
 10
-8.8760441742
 20
27.2867593433
 11
-14.20130116
 21
27.2867593433
  0
LINE
  5
405
100
AcDbEntity
  8
0
100
AcDbLine
 62
250
  6
CONTINUOUS
 10
6.5001815157
 20
25.5132433428
 11
6.5860396683
 21
25.4732070287
  0
LINE
  5
406
100
AcDbEntity
  8
0
100
AcDbLine
 62
250
  6
CONTINUOUS
 10
6.5868946819
 20
25.6992003279
 11
6.6727528345
 21
25.6591640138
  0
LINE
  5
407
100
AcDbEntity
  8
DRAFT
100
AcDbLine
 62
7
  6
CONTINUOUS
 10
11.4613273329
 20
24.0477385121
 11
11.3723065018
 21
24.1367593433
  0
LINE
  5
408
100
AcDbEntity
  8
DRAFT
100
AcDbLine
 62
7
  6
CONTINUOUS
 10
13.4613273329
 20
24.0477385121
 11
13.433399229
 21
24.075666616
  0
LINE
  5
409
100
AcDbEntity
  8
0
100
AcDbLine
 62
7
  6
CONTINUOUS
 10
40.3842204143
 20
-21.0456194964
 11
40.3597029395
 21
-20.9965696023
  0
LINE
  5
40A
100
AcDbEntity
  8
0
100
AcDbLine
 62
7
  6
CONTINUOUS
 10
40.3597029395
 20
-19.9465696023
 11
40.3546200901
 21
-19.9364008053
  0
LINE
  5
40B
100
AcDbEntity
  8
0
100
AcDbLine
 62
7
  6
CONTINUOUS
 10
40.3597029395
 20
17.4420466265
 11
40.3546200901
 21
17.4318778295
  0
LINE
  5
40C
100
AcDbEntity
  8
0
100
AcDbLine
 62
7
  6
CONTINUOUS
 10
40.3597029395
 20
14.8420466265
 11
40.3546200901
 21
14.8318778295
  0
LINE
  5
40D
100
AcDbEntity
  8
0
100
AcDbLine
 62
7
  6
CONTINUOUS
 10
15.2499018313
 20
-25.5636869895
 11
13.7991819158
 21
-27.0144069049
  0
LINE
  5
40E
100
AcDbEntity
  8
DRAFT
100
AcDbLine
 62
7
  6
CONTINUOUS
 10
22.2392554368
 20
-18.6638296873
 11
18.4228955323
 21
-22.4801895918
  0
LINE
  5
40F
100
AcDbEntity
  8
0
100
AcDbLine
 62
7
  6
CONTINUOUS
 10
13.8360555514
 20
-27.1034277361
 11
15.3357599839
 21
-25.6037233036
  0
LINE
  5
410
100
AcDbEntity
  8
DRAFT
100
AcDbLine
 62
7
  6
CONTINUOUS
 10
22.2654380342
 20
-18.6746748742
 11
18.4337407192
 21
-22.5063721891
  0
LINE
  5
411
100
AcDbEntity
  8
DRAFT
100
AcDbLine
 62
7
  6
CONTINUOUS
 10
15.4709878592
 20
-24.8632406567
 11
15.4043168466
 21
-24.924333384
  0
LINE
  5
412
100
AcDbEntity
  8
DRAFT
100
AcDbLine
 62
7
  6
CONTINUOUS
 10
15.4709878592
 20
24.958717681
 11
15.4043168466
 21
25.0198104082
  0
LINE
  5
413
100
AcDbEntity
  8
0
100
AcDbLine
 62
7
  6
CONTINUOUS
 10
13.7991819158
 20
27.1098839292
 11
15.2499018313
 21
25.6591640138
  0
LINE
  5
414
100
AcDbEntity
  8
DRAFT
100
AcDbLine
 62
7
  6
CONTINUOUS
 10
18.4228955323
 20
22.575666616
 11
22.2392554368
 21
18.7593067115
  0
LINE
  5
415
100
AcDbEntity
  8
0
100
AcDbLine
 62
7
  6
CONTINUOUS
 10
15.3357599839
 20
25.6992003279
 11
13.8360555514
 21
27.1989047603
  0
LINE
  5
416
100
AcDbEntity
  8
DRAFT
100
AcDbLine
 62
7
  6
CONTINUOUS
 10
18.4337407192
 20
22.6018492134
 11
22.2654380342
 21
18.7701518985
  0
LINE
  5
417
100
AcDbEntity
  8
0
100
AcDbLine
 62
7
  6
CONTINUOUS
 10
40.3597029395
 20
-17.3465696023
 11
40.3546200901
 21
-17.3364008053
  0
LINE
  5
418
100
AcDbEntity
  8
0
100
AcDbLine
 62
7
  6
CONTINUOUS
 10
40.3597029395
 20
-14.7465696023
 11
40.3546200901
 21
-14.7364008053
  0
LINE
  5
419
100
AcDbEntity
  8
0
100
AcDbLine
 62
7
  6
CONTINUOUS
 10
40.3842204143
 20
21.1410965207
 11
40.3843315369
 21
21.1417059694
  0
LINE
  5
41A
100
AcDbEntity
  8
0
100
AcDbLine
 62
7
  6
CONTINUOUS
 10
40.3843315369
 20
-21.0462289452
 11
40.3842204143
 21
-21.0456194964
  0
LINE
  5
41B
100
AcDbEntity
  8
0
100
AcDbLine
 62
7
  6
CONTINUOUS
 10
38.9613273329
 20
-10.9522614879
 11
38.9613273329
 21
-22.9522614879
  0
LINE
  5
41C
100
AcDbEntity
  8
0
100
AcDbLine
 62
7
  6
CONTINUOUS
 10
38.9613273329
 20
11.0477385121
 11
38.9613273329
 21
23.0477385121
  0
LINE
  5
41D
100
AcDbEntity
  8
0
100
AcDbLine
 62
7
  6
CONTINUOUS
 10
39.0137084871
 20
-11.0046426421
 11
39.0137084871
 21
-11.6574523089
  0
LINE
  5
41E
100
AcDbEntity
  8
0
100
AcDbLine
 62
7
  6
CONTINUOUS
 10
39.0137084871
 20
-22.2470706668
 11
39.0137084871
 21
-22.8998803336
  0
LINE
  5
41F
100
AcDbEntity
  8
0
100
AcDbLine
 62
7
  6
CONTINUOUS
 10
39.0137084871
 20
11.1001196664
 11
39.0137084871
 21
11.7529293332
  0
LINE
  5
420
100
AcDbEntity
  8
0
100
AcDbLine
 62
7
  6
CONTINUOUS
 10
39.0137084871
 20
22.3425476911
 11
39.0137084871
 21
22.9953573579
  0
LINE
  5
421
100
AcDbEntity
  8
0
100
AcDbLine
 62
7
  6
CONTINUOUS
 10
39.1324391034
 20
-12.0116087086
 11
39.1324391034
 21
-12.8233732584
  0
LINE
  5
422
100
AcDbEntity
  8
0
100
AcDbLine
 62
7
  6
CONTINUOUS
 10
39.1324391034
 20
-21.0811497174
 11
39.1324391034
 21
-21.8929142671
  0
LINE
  5
423
100
AcDbEntity
  8
0
100
AcDbLine
 62
7
  6
CONTINUOUS
 10
39.1324391034
 20
12.1070857329
 11
39.1324391034
 21
12.9188502826
  0
LINE
  5
424
100
AcDbEntity
  8
0
100
AcDbLine
 62
7
  6
CONTINUOUS
 10
39.1324391034
 20
21.1766267416
 11
39.1324391034
 21
21.9883912914
  0
LINE
  5
425
100
AcDbEntity
  8
0
100
AcDbLine
 62
7
  6
CONTINUOUS
 10
39.1434550137
 20
-12.8343891686
 11
39.1434550137
 21
-13.8843891686
  0
LINE
  5
426
100
AcDbEntity
  8
0
100
AcDbLine
 62
7
  6
CONTINUOUS
 10
39.1434550137
 20
-14.8201338071
 11
39.1434550137
 21
-16.4843891686
  0
LINE
  5
427
100
AcDbEntity
  8
0
100
AcDbLine
 62
7
  6
CONTINUOUS
 10
39.1434550137
 20
-17.4201338071
 11
39.1434550137
 21
-19.0843891686
  0
LINE
  5
428
100
AcDbEntity
  8
0
100
AcDbLine
 62
7
  6
CONTINUOUS
 10
39.1434550137
 20
-20.0201338071
 11
39.1434550137
 21
-21.0701338071
  0
LINE
  5
429
100
AcDbEntity
  8
0
100
AcDbLine
 62
7
  6
CONTINUOUS
 10
39.1434550137
 20
12.9298661929
 11
39.1434550137
 21
13.9798661929
  0
LINE
  5
42A
100
AcDbEntity
  8
0
100
AcDbLine
 62
7
  6
CONTINUOUS
 10
39.1434550137
 20
14.9156108314
 11
39.1434550137
 21
16.5798661929
  0
LINE
  5
42B
100
AcDbEntity
  8
0
100
AcDbLine
 62
7
  6
CONTINUOUS
 10
39.1434550137
 20
17.5156108314
 11
39.1434550137
 21
19.1798661929
  0
LINE
  5
42C
100
AcDbEntity
  8
0
100
AcDbLine
 62
7
  6
CONTINUOUS
 10
39.1434550137
 20
20.1156108314
 11
39.1434550137
 21
21.1656108314
  0
LINE
  5
42D
100
AcDbEntity
  8
0
100
AcDbLine
 62
7
  6
CONTINUOUS
 10
39.154605688
 20
20.104460157
 11
39.154605688
 21
19.1910168672
  0
LINE
  5
42E
100
AcDbEntity
  8
0
100
AcDbLine
 62
7
  6
CONTINUOUS
 10
39.154605688
 20
17.504460157
 11
39.154605688
 21
16.5910168672
  0
LINE
  5
42F
100
AcDbEntity
  8
0
100
AcDbLine
 62
7
  6
CONTINUOUS
 10
39.154605688
 20
14.904460157
 11
39.154605688
 21
13.9910168672
  0
LINE
  5
430
100
AcDbEntity
  8
0
100
AcDbLine
 62
7
  6
CONTINUOUS
 10
39.154605688
 20
-20.0089831328
 11
39.154605688
 21
-19.095539843
  0
LINE
  5
431
100
AcDbEntity
  8
0
100
AcDbLine
 62
7
  6
CONTINUOUS
 10
39.154605688
 20
-17.4089831328
 11
39.154605688
 21
-16.495539843
  0
LINE
  5
432
100
AcDbEntity
  8
0
100
AcDbLine
 62
7
  6
CONTINUOUS
 10
39.154605688
 20
-14.8089831328
 11
39.154605688
 21
-13.895539843
  0
LINE
  5
433
100
AcDbEntity
  8
0
100
AcDbLine
 62
250
  6
CONTINUOUS
 10
39.3843727192
 20
-21.8929142671
 11
39.3843727192
 21
-21.0811497174
  0
LINE
  5
434
100
AcDbEntity
  8
0
100
AcDbLine
 62
250
  6
CONTINUOUS
 10
39.3843727192
 20
-12.8233732584
 11
39.3843727192
 21
-12.0116087086
  0
LINE
  5
435
100
AcDbEntity
  8
0
100
AcDbLine
 62
250
  6
CONTINUOUS
 10
39.3843727192
 20
12.1070857329
 11
39.3843727192
 21
12.9188502826
  0
LINE
  5
436
100
AcDbEntity
  8
0
100
AcDbLine
 62
250
  6
CONTINUOUS
 10
39.3843727192
 20
21.1766267416
 11
39.3843727192
 21
21.9883912914
  0
LINE
  5
437
100
AcDbEntity
  8
0
100
AcDbLine
 62
7
  6
CONTINUOUS
 10
41.4089461787
 20
-11.0046426421
 11
41.4613273329
 21
-10.9522614879
  0
LINE
  5
438
100
AcDbEntity
  8
0
100
AcDbLine
 62
7
  6
CONTINUOUS
 10
28.2725139057
 20
-24.9779141548
 11
24.7369799998
 21
-28.5134480607
  0
LINE
  5
439
100
AcDbEntity
  8
0
100
AcDbLine
 62
7
  6
CONTINUOUS
 10
39.1434550137
 20
-14.8201338071
 11
39.154605688
 21
-14.8089831328
  0
LINE
  5
43A
100
AcDbEntity
  8
0
100
AcDbLine
 62
7
  6
CONTINUOUS
 10
39.1434550137
 20
-17.4201338071
 11
39.154605688
 21
-17.4089831328
  0
LINE
  5
43B
100
AcDbEntity
  8
0
100
AcDbLine
 62
7
  6
CONTINUOUS
 10
39.0240018825
 20
-21.9471163583
 11
39.1324391034
 21
-21.8929142671
  0
LINE
  5
43C
100
AcDbEntity
  8
DRAFT
100
AcDbLine
 62
7
  6
CONTINUOUS
 10
42.5863273329
 20
40.3061657396
 11
-43.1636726671
 21
40.3061657396
  0
LINE
  5
43D
100
AcDbEntity
  8
0
100
AcDbLine
 62
7
  6
CONTINUOUS
 10
39.0240018825
 20
22.0425933825
 11
39.1324391034
 21
21.9883912914
  0
LINE
  5
43E
100
AcDbEntity
  8
0
100
AcDbLine
 62
7
  6
CONTINUOUS
 10
41.4089461787
 20
11.1001196664
 11
41.4613273329
 21
11.0477385121
  0
LINE
  5
43F
100
AcDbEntity
  8
0
100
AcDbLine
 62
7
  6
CONTINUOUS
 10
24.7369799998
 20
28.608925085
 11
28.2725139057
 21
25.073391179
  0
LINE
  5
440
100
AcDbEntity
  8
0
100
AcDbLine
 62
7
  6
CONTINUOUS
 10
39.1434550137
 20
14.9156108314
 11
39.154605688
 21
14.904460157
  0
LINE
  5
441
100
AcDbEntity
  8
0
100
AcDbLine
 62
7
  6
CONTINUOUS
 10
39.1434550137
 20
17.5156108314
 11
39.154605688
 21
17.504460157
  0
LINE
  5
442
100
AcDbEntity
  8
0
100
AcDbLine
 62
7
  6
CONTINUOUS
 10
40.3546200901
 20
-13.9681221705
 11
40.3546200901
 21
-14.7364008053
  0
LINE
  5
443
100
AcDbEntity
  8
0
100
AcDbLine
 62
7
  6
CONTINUOUS
 10
40.3546200901
 20
-16.5681221705
 11
40.3546200901
 21
-17.3364008053
  0
LINE
  5
444
100
AcDbEntity
  8
0
100
AcDbLine
 62
7
  6
CONTINUOUS
 10
40.3546200901
 20
-19.1681221705
 11
40.3546200901
 21
-19.9364008053
  0
LINE
  5
445
100
AcDbEntity
  8
0
100
AcDbLine
 62
7
  6
CONTINUOUS
 10
40.3546200901
 20
14.0635991947
 11
40.3546200901
 21
14.8318778295
  0
LINE
  5
446
100
AcDbEntity
  8
0
100
AcDbLine
 62
7
  6
CONTINUOUS
 10
40.3546200901
 20
16.6635991947
 11
40.3546200901
 21
17.4318778295
  0
LINE
  5
447
100
AcDbEntity
  8
0
100
AcDbLine
 62
7
  6
CONTINUOUS
 10
40.3546200901
 20
19.2635991947
 11
40.3546200901
 21
20.0318778295
  0
LINE
  5
448
100
AcDbEntity
  8
0
100
AcDbLine
 62
7
  6
CONTINUOUS
 10
40.3597029395
 20
-12.9079533735
 11
40.3597029395
 21
-13.9579533735
  0
LINE
  5
449
100
AcDbEntity
  8
0
100
AcDbLine
 62
7
  6
CONTINUOUS
 10
40.3597029395
 20
-14.7465696023
 11
40.3597029395
 21
-16.5579533735
  0
LINE
  5
44A
100
AcDbEntity
  8
0
100
AcDbLine
 62
7
  6
CONTINUOUS
 10
40.3597029395
 20
-17.3465696023
 11
40.3597029395
 21
-19.1579533735
  0
LINE
  5
44B
100
AcDbEntity
  8
0
100
AcDbLine
 62
7
  6
CONTINUOUS
 10
40.3597029395
 20
-19.9465696023
 11
40.3597029395
 21
-20.9965696023
  0
LINE
  5
44C
100
AcDbEntity
  8
0
100
AcDbLine
 62
7
  6
CONTINUOUS
 10
40.3597029395
 20
13.0034303977
 11
40.3597029395
 21
14.0534303977
  0
LINE
  5
44D
100
AcDbEntity
  8
0
100
AcDbLine
 62
7
  6
CONTINUOUS
 10
40.3597029395
 20
14.8420466265
 11
40.3597029395
 21
16.6534303977
  0
LINE
  5
44E
100
AcDbEntity
  8
0
100
AcDbLine
 62
7
  6
CONTINUOUS
 10
40.3597029395
 20
17.4420466265
 11
40.3597029395
 21
19.2534303977
  0
LINE
  5
44F
100
AcDbEntity
  8
0
100
AcDbLine
 62
7
  6
CONTINUOUS
 10
40.3597029395
 20
20.0420466265
 11
40.3597029395
 21
21.0920466265
  0
LINE
  5
450
100
AcDbEntity
  8
0
100
AcDbLine
 62
7
  6
CONTINUOUS
 10
40.3843727192
 20
-21.8754592022
 11
40.3843727192
 21
-21.0462289479
  0
LINE
  5
451
100
AcDbEntity
  8
0
100
AcDbLine
 62
7
  6
CONTINUOUS
 10
40.3843727192
 20
-12.8582940279
 11
40.3843727192
 21
-12.0290637736
  0
LINE
  5
452
100
AcDbEntity
  8
0
100
AcDbLine
 62
7
  6
CONTINUOUS
 10
40.3843727192
 20
12.1245407978
 11
40.3843727192
 21
12.9537710521
  0
LINE
  5
453
100
AcDbEntity
  8
0
100
AcDbLine
 62
7
  6
CONTINUOUS
 10
40.3843727192
 20
21.1417059721
 11
40.3843727192
 21
21.9709362264
  0
LINE
  5
454
100
AcDbEntity
  8
0
100
AcDbLine
 62
7
  6
CONTINUOUS
 10
41.4089461787
 20
22.9953573579
 11
41.4089461787
 21
11.1001196664
  0
LINE
  5
455
100
AcDbEntity
  8
0
100
AcDbLine
 62
7
  6
CONTINUOUS
 10
41.4089461787
 20
-22.8998803336
 11
41.4089461787
 21
-11.0046426421
  0
LINE
  5
456
100
AcDbEntity
  8
0
100
AcDbLine
 62
7
  6
CONTINUOUS
 10
41.4613273329
 20
23.0477385121
 11
41.4613273329
 21
11.0477385121
  0
LINE
  5
457
100
AcDbEntity
  8
0
100
AcDbLine
 62
7
  6
CONTINUOUS
 10
41.4613273329
 20
-22.9522614879
 11
41.4613273329
 21
-10.9522614879
  0
LINE
  5
458
100
AcDbEntity
  8
DRAFT
100
AcDbLine
 62
7
  6
CONTINUOUS
 10
43.9697545604
 20
-38.8272614879
 11
43.9697545604
 21
38.9227385121
  0
LINE
  5
459
100
AcDbEntity
  8
0
100
AcDbLine
 62
7
  6
CONTINUOUS
 10
40.3842204143
 20
-12.8589034793
 11
40.3843315369
 21
-12.8582940306
  0
LINE
  5
45A
100
AcDbEntity
  8
0
100
AcDbLine
 62
7
  6
CONTINUOUS
 10
40.3842204143
 20
-12.8589034793
 11
40.3597029395
 21
-12.9079533735
  0
LINE
  5
45B
100
AcDbEntity
  8
0
100
AcDbLine
 62
7
  6
CONTINUOUS
 10
40.3597029395
 20
-13.9579533735
 11
40.3546200901
 21
-13.9681221705
  0
LINE
  5
45C
100
AcDbEntity
  8
0
100
AcDbLine
 62
7
  6
CONTINUOUS
 10
40.3597029395
 20
-16.5579533735
 11
40.3546200901
 21
-16.5681221705
  0
LINE
  5
45D
100
AcDbEntity
  8
0
100
AcDbLine
 62
7
  6
CONTINUOUS
 10
27.1501407601
 20
-30.926608821
 11
30.685674666
 21
-27.391074915
  0
LINE
  5
45E
100
AcDbEntity
  8
0
100
AcDbLine
 62
7
  6
CONTINUOUS
 10
39.1434550137
 20
-20.0201338071
 11
39.154605688
 21
-20.0089831328
  0
LINE
  5
45F
100
AcDbEntity
  8
0
100
AcDbLine
 62
7
  6
CONTINUOUS
 10
39.1324391034
 20
-21.0811497174
 11
39.1434550137
 21
-21.0701338071
  0
LINE
  5
460
100
AcDbEntity
  8
0
100
AcDbLine
 62
7
  6
CONTINUOUS
 10
39.0137084871
 20
-22.8998803336
 11
38.9613273329
 21
-22.9522614879
  0
LINE
  5
461
100
AcDbEntity
  8
0
100
AcDbLine
 62
7
  6
CONTINUOUS
 10
30.685674666
 20
27.4865519393
 11
27.1501407601
 21
31.0220858452
  0
LINE
  5
462
100
AcDbEntity
  8
0
100
AcDbLine
 62
7
  6
CONTINUOUS
 10
39.1434550137
 20
20.1156108314
 11
39.154605688
 21
20.104460157
  0
LINE
  5
463
100
AcDbEntity
  8
0
100
AcDbLine
 62
7
  6
CONTINUOUS
 10
39.1324391034
 20
21.1766267416
 11
39.1434550137
 21
21.1656108314
  0
LINE
  5
464
100
AcDbEntity
  8
0
100
AcDbLine
 62
7
  6
CONTINUOUS
 10
39.0137084871
 20
22.9953573579
 11
38.9613273329
 21
23.0477385121
  0
LINE
  5
465
100
AcDbEntity
  8
0
100
AcDbLine
 62
7
  6
CONTINUOUS
 10
40.3842204143
 20
12.9543805036
 11
40.3597029395
 21
13.0034303977
  0
LINE
  5
466
100
AcDbEntity
  8
0
100
AcDbLine
 62
7
  6
CONTINUOUS
 10
40.3597029395
 20
14.0534303977
 11
40.3546200901
 21
14.0635991947
  0
LINE
  5
467
100
AcDbEntity
  8
0
100
AcDbLine
 62
7
  6
CONTINUOUS
 10
40.3597029395
 20
16.6534303977
 11
40.3546200901
 21
16.6635991947
  0
LINE
  5
468
100
AcDbEntity
  8
0
100
AcDbLine
 62
7
  6
CONTINUOUS
 10
40.3843315369
 20
12.9537710548
 11
40.3842204143
 21
12.9543805036
  0
LINE
  5
469
100
AcDbEntity
  8
0
100
AcDbLine
 62
7
  6
CONTINUOUS
 10
40.3597029395
 20
-19.1579533735
 11
40.3546200901
 21
-19.1681221705
  0
LINE
  5
46A
100
AcDbEntity
  8
0
100
AcDbLine
 62
7
  6
CONTINUOUS
 10
40.3597029395
 20
19.2534303977
 11
40.3546200901
 21
19.2635991947
  0
ARC
  5
46B
100
AcDbEntity
  8
0
100
AcDbCircle
 62
7
  6
CONTINUOUS
 10
-0.2886726671
 20
0.0477385121
 40
31.6063623377
100
AcDbArc
 50
176.5590799622
 51
188.8201478292
  0
ARC
  5
46C
100
AcDbEntity
  8
0
100
AcDbCircle
 62
7
  6
CONTINUOUS
 10
-0.2886726671
 20
0.0477385121
 40
31.6063623377
100
AcDbArc
 50
356.5590799622
 51
8.8201478292
  0
ARC
  5
46D
100
AcDbEntity
  8
0
100
AcDbCircle
 62
7
  6
CONTINUOUS
 10
-0.2886726671
 20
0.0477385121
 40
31.6063623377
100
AcDbArc
 50
86.5590799622
 51
98.8201478292
  0
ARC
  5
46E
100
AcDbEntity
  8
0
100
AcDbCircle
 62
7
  6
CONTINUOUS
 10
-0.2886726671
 20
0.0477385121
 40
31.6063623377
100
AcDbArc
 50
266.5590799622
 51
278.8201478292
  0
ARC
  5
46F
100
AcDbEntity
  8
0
100
AcDbCircle
 62
7
  6
CONTINUOUS
 10
-0.2886726671
 20
0.0477385121
 40
28.3936376623
100
AcDbArc
 50
176.8554908542
 51
188.8201478292
  0
ARC
  5
470
100
AcDbEntity
  8
0
100
AcDbCircle
 62
7
  6
CONTINUOUS
 10
-0.2886726671
 20
0.0477385121
 40
28.3936376623
100
AcDbArc
 50
356.8554908542
 51
8.8201478292
  0
ARC
  5
471
100
AcDbEntity
  8
0
100
AcDbCircle
 62
7
  6
CONTINUOUS
 10
-0.2886726671
 20
0.0477385121
 40
28.3936376623
100
AcDbArc
 50
86.8554908542
 51
98.8201478292
  0
ARC
  5
472
100
AcDbEntity
  8
0
100
AcDbCircle
 62
7
  6
CONTINUOUS
 10
-0.2886726671
 20
0.0477385121
 40
28.3936376623
100
AcDbArc
 50
266.8554908542
 51
278.8201478292
  0
ARC
  5
473
100
AcDbEntity
  8
0
100
AcDbCircle
 62
7
  6
CONTINUOUS
 10
-4.8886726671
 20
-29.5974971928
 40
3.3063623377
100
AcDbArc
 50
23.0461299817
 51
324.8370368861
  0
ARC
  5
474
100
AcDbEntity
  8
0
100
AcDbCircle
 62
7
  6
CONTINUOUS
 10
4.3113273329
 20
29.692974217
 40
3.3063623377
100
AcDbArc
 50
203.0461299817
 51
144.8370368861
  0
ARC
  5
475
100
AcDbEntity
  8
0
100
AcDbCircle
 62
7
  6
CONTINUOUS
 10
29.3565630378
 20
-4.5522614879
 40
3.3063623377
100
AcDbArc
 50
113.0461299817
 51
54.8370368861
  0
ARC
  5
476
100
AcDbEntity
  8
0
100
AcDbCircle
 62
7
  6
CONTINUOUS
 10
-29.933908372
 20
4.6477385121
 40
3.3063623377
100
AcDbArc
 50
293.0461299817
 51
234.8370368861
  0
ARC
  5
477
100
AcDbEntity
  8
0
100
AcDbCircle
 62
7
  6
CONTINUOUS
 10
29.4790942859
 20
-26.1844945349
 40
1.7063623377
100
AcDbArc
 50
315.0
 51
135.0
  0
ARC
  5
478
100
AcDbEntity
  8
0
100
AcDbCircle
 62
7
  6
CONTINUOUS
 10
25.9435603799
 20
-29.7200284408
 40
1.7063623377
100
AcDbArc
 50
135.0
 51
315.0
  0
ARC
  5
479
100
AcDbEntity
  8
0
100
AcDbCircle
 62
7
  6
CONTINUOUS
 10
-26.5209057141
 20
-29.7200284408
 40
1.7063623377
100
AcDbArc
 50
225.0
 51
45.0
  0
ARC
  5
47A
100
AcDbEntity
  8
0
100
AcDbCircle
 62
7
  6
CONTINUOUS
 10
-30.0564396201
 20
-26.1844945349
 40
1.7063623377
100
AcDbArc
 50
45.0
 51
225.0
  0
ARC
  5
47B
100
AcDbEntity
  8
0
100
AcDbCircle
 62
7
  6
CONTINUOUS
 10
25.9435603799
 20
29.8155054651
 40
1.7063623377
100
AcDbArc
 50
45.0
 51
225.0
  0
ARC
  5
47C
100
AcDbEntity
  8
0
100
AcDbCircle
 62
7
  6
CONTINUOUS
 10
29.4790942859
 20
26.2799715592
 40
1.7063623377
100
AcDbArc
 50
225.0
 51
45.0
  0
ARC
  5
47D
100
AcDbEntity
  8
0
100
AcDbCircle
 62
7
  6
CONTINUOUS
 10
-30.0564396201
 20
26.2799715592
 40
1.7063623377
100
AcDbArc
 50
135.0
 51
315.0
  0
ARC
  5
47E
100
AcDbEntity
  8
0
100
AcDbCircle
 62
7
  6
CONTINUOUS
 10
-26.5209057141
 20
29.8155054651
 40
1.7063623377
100
AcDbArc
 50
315.0
 51
135.0
  0
ARC
  5
47F
100
AcDbEntity
  8
0
100
AcDbCircle
 62
7
  6
CONTINUOUS
 10
-29.933908372
 20
-4.5522614879
 40
1.6063623377
100
AcDbArc
 50
188.8201478292
 51
8.8201478292
  0
ARC
  5
480
100
AcDbEntity
  8
0
100
AcDbCircle
 62
7
  6
CONTINUOUS
 10
29.3565630378
 20
4.6477385121
 40
1.6063623377
100
AcDbArc
 50
8.8201478292
 51
188.8201478292
  0
ARC
  5
481
100
AcDbEntity
  8
0
100
AcDbCircle
 62
7
  6
CONTINUOUS
 10
-4.8886726671
 20
29.692974217
 40
1.6063623377
100
AcDbArc
 50
98.8201478292
 51
278.8201478292
  0
ARC
  5
482
100
AcDbEntity
  8
0
100
AcDbCircle
 62
7
  6
CONTINUOUS
 10
4.3113273329
 20
-29.5974971928
 40
1.6063623377
100
AcDbArc
 50
278.8201478292
 51
98.8201478292
  0
ARC
  5
483
100
AcDbEntity
  8
DRAFT
100
AcDbCircle
 62
7
  6
CONTINUOUS
 10
42.5863273329
 20
-38.8272614879
 40
1.3834272275
100
AcDbArc
 50
270.0
 51
360.0
  0
ARC
  5
484
100
AcDbEntity
  8
DRAFT
100
AcDbCircle
 62
7
  6
CONTINUOUS
 10
-43.1636726671
 20
-38.8272614879
 40
1.3834272275
100
AcDbArc
 50
180.0
 51
270.0
  0
ARC
  5
485
100
AcDbEntity
  8
DRAFT
100
AcDbCircle
 62
7
  6
CONTINUOUS
 10
-43.1636726671
 20
38.9227385121
 40
1.3834272275
100
AcDbArc
 50
90.0
 51
180.0
  0
ARC
  5
486
100
AcDbEntity
  8
DRAFT
100
AcDbCircle
 62
7
  6
CONTINUOUS
 10
42.5863273329
 20
38.9227385121
 40
1.3834272275
100
AcDbArc
 50
0.0
 51
90.0
  0
ELLIPSE
  5
487
100
AcDbEntity
  8
0
100
AcDbEllipse
 62
7
  6
CONTINUOUS
 10
-39.9617180534
 20
-12.0290637736
 30
0.0
 11
1.0
 21
0.0
 31
0.0
 40
0.0174550649
 41
1.5707963268
 42
3.1415927304
  0
ELLIPSE
  5
488
100
AcDbEntity
  8
0
100
AcDbEllipse
 62
7
  6
CONTINUOUS
 10
39.3843727192
 20
-21.8754592022
 30
0.0
 11
1.0
 21
0.0
 31
0.0
 40
0.0174550649
 41
-1.5707963268
 42
0.0000000768
  0
ELLIPSE
  5
489
100
AcDbEntity
  8
0
100
AcDbEllipse
 62
7
  6
CONTINUOUS
 10
-39.9617180534
 20
21.9709362264
 30
0.0
 11
1.0
 21
0.0
 31
0.0
 40
0.0174550649
 41
1.5707963268
 42
3.1415927304
  0
ELLIPSE
  5
48A
100
AcDbEntity
  8
0
100
AcDbEllipse
 62
7
  6
CONTINUOUS
 10
39.3843727192
 20
12.1245407978
 30
0.0
 11
1.0
 21
0.0
 31
0.0
 40
0.0174550649
 41
-1.5707963268
 42
0.0000000768
  0
ELLIPSE
  5
48B
100
AcDbEntity
  8
0
100
AcDbEllipse
 62
7
  6
CONTINUOUS
 10
39.024184718
 20
-11.6574523089
 30
0.0
 11
0.0
 21
0.3
 31
0.0
 40
0.0349207695
 41
1.5707963268
 42
3.1241393611
  0
ELLIPSE
  5
48C
100
AcDbEntity
  8
0
100
AcDbEllipse
 62
7
  6
CONTINUOUS
 10
39.024184718
 20
-22.2470706668
 30
0.0
 11
0.0
 21
0.3
 31
0.0
 40
0.0349207695
 41
0.0174532925
 42
1.5707963268
  0
ELLIPSE
  5
48D
100
AcDbEntity
  8
0
100
AcDbEllipse
 62
7
  6
CONTINUOUS
 10
-39.6015300522
 20
-22.2470706668
 30
0.0
 11
0.0
 21
0.3
 31
0.0
 40
0.0349207695
 41
-1.5707963268
 42
-0.0174532925
  0
ELLIPSE
  5
48E
100
AcDbEntity
  8
0
100
AcDbEllipse
 62
7
  6
CONTINUOUS
 10
-39.6015300522
 20
-11.6574523089
 30
0.0
 11
0.0
 21
0.3
 31
0.0
 40
0.0349207695
 41
-3.1241393611
 42
-1.5707963268
  0
ELLIPSE
  5
48F
100
AcDbEntity
  8
0
100
AcDbEllipse
 62
7
  6
CONTINUOUS
 10
-39.9617180534
 20
-21.8754592022
 30
0.0
 11
1.0
 21
0.0
 31
0.0
 40
0.0174550649
 41
3.1415925768
 42
4.7123889804
  0
ELLIPSE
  5
490
100
AcDbEntity
  8
0
100
AcDbEllipse
 62
7
  6
CONTINUOUS
 10
39.3843727192
 20
-12.0290637736
 30
0.0
 11
1.0
 21
0.0
 31
0.0
 40
0.0174550649
 41
-0.0000000768
 42
1.5707963268
  0
ELLIPSE
  5
491
100
AcDbEntity
  8
0
100
AcDbEllipse
 62
7
  6
CONTINUOUS
 10
39.024184718
 20
11.7529293332
 30
0.0
 11
0.0
 21
0.3
 31
0.0
 40
0.0349207695
 41
0.0174532925
 42
1.5707963268
  0
ELLIPSE
  5
492
100
AcDbEntity
  8
0
100
AcDbEllipse
 62
7
  6
CONTINUOUS
 10
39.024184718
 20
22.3425476911
 30
0.0
 11
0.0
 21
0.3
 31
0.0
 40
0.0349207695
 41
-4.7123889804
 42
-3.1590459461
  0
ELLIPSE
  5
493
100
AcDbEntity
  8
0
100
AcDbEllipse
 62
7
  6
CONTINUOUS
 10
-39.6015300522
 20
22.3425476911
 30
0.0
 11
-0.0
 21
0.3
 31
0.0
 40
0.0349207695
 41
-3.1241393611
 42
-1.5707963268
  0
ELLIPSE
  5
494
100
AcDbEntity
  8
0
100
AcDbEllipse
 62
7
  6
CONTINUOUS
 10
-39.6015300522
 20
11.7529293332
 30
0.0
 11
-0.0
 21
0.3
 31
0.0
 40
0.0349207695
 41
-1.5707963268
 42
-0.0174532925
  0
ELLIPSE
  5
495
100
AcDbEntity
  8
0
100
AcDbEllipse
 62
7
  6
CONTINUOUS
 10
39.3843727192
 20
21.9709362264
 30
0.0
 11
1.0
 21
0.0
 31
0.0
 40
0.0174550649
 41
-0.0000000768
 42
1.5707963268
  0
ELLIPSE
  5
496
100
AcDbEntity
  8
0
100
AcDbEllipse
 62
7
  6
CONTINUOUS
 10
-39.9617180534
 20
12.1245407978
 30
0.0
 11
1.0
 21
0.0
 31
0.0
 40
0.0174550649
 41
3.1415925768
 42
4.7123889804
  0
ELLIPSE
  5
497
100
AcDbEntity
  8
0
100
AcDbEllipse
 62
7
  6
CONTINUOUS
 10
15.1824068903
 20
-25.4190175824
 30
0.0
 11
0.0613079453
 21
0.300268975
 31
0.0
 40
0.4792132085
 41
-1.6849937418
 42
-1.3359833253
  0
ELLIPSE
  5
498
100
AcDbEntity
  8
0
100
AcDbEllipse
 62
7
  6
CONTINUOUS
 10
15.1824068903
 20
-25.4190175824
 30
0.0
 11
0.1906113921
 21
0.2399737875
 31
0.0
 40
0.4792132085
 41
-1.8056093283
 42
-1.4565989118
  0
ELLIPSE
  5
499
100
AcDbEntity
  8
0
100
AcDbEllipse
 62
7
  6
CONTINUOUS
 10
13.6491858341
 20
-26.9522386387
 30
0.0
 11
0.2440046096
 21
0.1884669564
 31
0.0
 40
0.473479458
 41
-1.6985795958
 42
-1.3059436001
  0
ELLIPSE
  5
49A
100
AcDbEntity
  8
0
100
AcDbEllipse
 62
7
  6
CONTINUOUS
 10
13.6491858341
 20
-26.9522386387
 30
0.0
 11
0.305803577
 21
0.0392710511
 31
0.0
 40
0.473479458
 41
-1.8356490535
 42
-1.4430130577
  0
ELLIPSE
  5
49B
100
AcDbEntity
  8
0
100
AcDbEllipse
 62
7
  6
CONTINUOUS
 10
8.2734688317
 20
-26.9522386387
 30
0.0
 11
0.305803577
 21
-0.0392710511
 31
0.0
 40
0.473479458
 41
-1.6985795958
 42
-1.3059436001
  0
ELLIPSE
  5
49C
100
AcDbEntity
  8
0
100
AcDbEllipse
 62
7
  6
CONTINUOUS
 10
8.2734688317
 20
-26.9522386387
 30
0.0
 11
0.2440046096
 21
-0.1884669564
 31
0.0
 40
0.473479458
 41
-1.8356490535
 42
-1.4430130577
  0
ELLIPSE
  5
49D
100
AcDbEntity
  8
0
100
AcDbEllipse
 62
7
  6
CONTINUOUS
 10
6.7402477754
 20
-25.4190175824
 30
0.0
 11
-0.1906113921
 21
0.2399737875
 31
0.0
 40
0.4792132085
 41
1.4565989118
 42
1.8056093283
  0
ELLIPSE
  5
49E
100
AcDbEntity
  8
0
100
AcDbEllipse
 62
7
  6
CONTINUOUS
 10
6.7402477754
 20
-25.4190175824
 30
0.0
 11
-0.0613079453
 21
0.300268975
 31
0.0
 40
0.4792132085
 41
1.3359833253
 42
1.6849937418
  0
ELLIPSE
  5
49F
100
AcDbEntity
  8
0
100
AcDbEllipse
 62
7
  6
CONTINUOUS
 10
-7.3175931097
 20
-25.4190175824
 30
0.0
 11
0.0613079453
 21
0.300268975
 31
0.0
 40
0.4792132085
 41
-1.6849937418
 42
-1.3359833253
  0
ELLIPSE
  5
4A0
100
AcDbEntity
  8
0
100
AcDbEllipse
 62
7
  6
CONTINUOUS
 10
-7.3175931097
 20
-25.4190175824
 30
0.0
 11
0.1906113921
 21
0.2399737875
 31
0.0
 40
0.4792132085
 41
-1.8056093283
 42
-1.4565989118
  0
ELLIPSE
  5
4A1
100
AcDbEntity
  8
0
100
AcDbEllipse
 62
7
  6
CONTINUOUS
 10
-8.8508141659
 20
-26.9522386387
 30
0.0
 11
0.2440046096
 21
0.1884669564
 31
0.0
 40
0.473479458
 41
-1.6985795958
 42
-1.3059436001
  0
ELLIPSE
  5
4A2
100
AcDbEntity
  8
0
100
AcDbEllipse
 62
7
  6
CONTINUOUS
 10
-8.8508141659
 20
-26.9522386387
 30
0.0
 11
0.305803577
 21
0.0392710511
 31
0.0
 40
0.473479458
 41
-1.8356490535
 42
-1.4430130577
  0
ELLIPSE
  5
4A3
100
AcDbEntity
  8
0
100
AcDbEllipse
 62
7
  6
CONTINUOUS
 10
-14.2265311683
 20
-26.9522386387
 30
0.0
 11
0.305803577
 21
-0.0392710511
 31
0.0
 40
0.473479458
 41
-1.6985795958
 42
-1.3059436001
  0
ELLIPSE
  5
4A4
100
AcDbEntity
  8
0
100
AcDbEllipse
 62
7
  6
CONTINUOUS
 10
-14.2265311683
 20
-26.9522386387
 30
0.0
 11
0.2440046096
 21
-0.1884669564
 31
0.0
 40
0.473479458
 41
-1.8356490535
 42
-1.4430130577
  0
ELLIPSE
  5
4A5
100
AcDbEntity
  8
0
100
AcDbEllipse
 62
7
  6
CONTINUOUS
 10
-15.7597522246
 20
-25.4190175824
 30
0.0
 11
-0.1906113921
 21
0.2399737875
 31
0.0
 40
0.4792132085
 41
1.4565989118
 42
1.8056093283
  0
ELLIPSE
  5
4A6
100
AcDbEntity
  8
0
100
AcDbEllipse
 62
7
  6
CONTINUOUS
 10
-15.7597522246
 20
-25.4190175824
 30
0.0
 11
-0.0613079453
 21
0.300268975
 31
0.0
 40
0.4792132085
 41
1.3359833253
 42
1.6849937418
  0
ELLIPSE
  5
4A7
100
AcDbEntity
  8
0
100
AcDbEllipse
 62
7
  6
CONTINUOUS
 10
-8.8508141659
 20
27.0477156629
 30
0.0
 11
0.305803577
 21
-0.0392710511
 31
0.0
 40
0.473479458
 41
1.4430130577
 42
1.8356490535
  0
ELLIPSE
  5
4A8
100
AcDbEntity
  8
0
100
AcDbEllipse
 62
7
  6
CONTINUOUS
 10
-8.8508141659
 20
27.0477156629
 30
0.0
 11
0.2440046096
 21
-0.1884669564
 31
0.0
 40
0.473479458
 41
1.3059436001
 42
1.6985795958
  0
ELLIPSE
  5
4A9
100
AcDbEntity
  8
0
100
AcDbEllipse
 62
7
  6
CONTINUOUS
 10
-7.3175931097
 20
25.5144946067
 30
0.0
 11
-0.1906113921
 21
0.2399737875
 31
0.0
 40
0.4792132085
 41
-1.6849937418
 42
-1.3359833253
  0
ELLIPSE
  5
4AA
100
AcDbEntity
  8
0
100
AcDbEllipse
 62
7
  6
CONTINUOUS
 10
-7.3175931097
 20
25.5144946067
 30
0.0
 11
-0.0613079453
 21
0.300268975
 31
0.0
 40
0.4792132085
 41
-1.8056093283
 42
-1.4565989118
  0
ELLIPSE
  5
4AB
100
AcDbEntity
  8
0
100
AcDbEllipse
 62
7
  6
CONTINUOUS
 10
15.1824068903
 20
25.5144946067
 30
0.0
 11
-0.1906113921
 21
0.2399737875
 31
0.0
 40
0.4792132085
 41
-1.6849937418
 42
-1.3359833253
  0
ELLIPSE
  5
4AC
100
AcDbEntity
  8
0
100
AcDbEllipse
 62
7
  6
CONTINUOUS
 10
15.1824068903
 20
25.5144946067
 30
0.0
 11
-0.0613079453
 21
0.300268975
 31
0.0
 40
0.4792132085
 41
-1.8056093283
 42
-1.4565989118
  0
ELLIPSE
  5
4AD
100
AcDbEntity
  8
0
100
AcDbEllipse
 62
7
  6
CONTINUOUS
 10
13.6491858341
 20
27.0477156629
 30
0.0
 11
0.305803577
 21
-0.0392710511
 31
0.0
 40
0.473479458
 41
1.4430130577
 42
1.8356490535
  0
ELLIPSE
  5
4AE
100
AcDbEntity
  8
0
100
AcDbEllipse
 62
7
  6
CONTINUOUS
 10
13.6491858341
 20
27.0477156629
 30
0.0
 11
0.2440046096
 21
-0.1884669564
 31
0.0
 40
0.473479458
 41
1.3059436001
 42
1.6985795958
  0
ELLIPSE
  5
4AF
100
AcDbEntity
  8
0
100
AcDbEllipse
 62
7
  6
CONTINUOUS
 10
8.2734688317
 20
27.0477156629
 30
0.0
 11
0.2440046096
 21
0.1884669564
 31
0.0
 40
0.473479458
 41
1.4430130577
 42
1.8356490535
  0
ELLIPSE
  5
4B0
100
AcDbEntity
  8
0
100
AcDbEllipse
 62
7
  6
CONTINUOUS
 10
8.2734688317
 20
27.0477156629
 30
0.0
 11
0.305803577
 21
0.0392710511
 31
0.0
 40
0.473479458
 41
1.3059436001
 42
1.6985795958
  0
ELLIPSE
  5
4B1
100
AcDbEntity
  8
0
100
AcDbEllipse
 62
7
  6
CONTINUOUS
 10
6.7402477754
 20
25.5144946067
 30
0.0
 11
0.0613079453
 21
0.300268975
 31
0.0
 40
0.4792132085
 41
1.4565989118
 42
1.8056093283
  0
ELLIPSE
  5
4B2
100
AcDbEntity
  8
0
100
AcDbEllipse
 62
7
  6
CONTINUOUS
 10
6.7402477754
 20
25.5144946067
 30
0.0
 11
0.1906113921
 21
0.2399737875
 31
0.0
 40
0.4792132085
 41
1.3359833253
 42
1.6849937418
  0
ELLIPSE
  5
4B3
100
AcDbEntity
  8
0
100
AcDbEllipse
 62
7
  6
CONTINUOUS
 10
-15.7597522246
 20
25.5144946067
 30
0.0
 11
0.0613079453
 21
0.300268975
 31
0.0
 40
0.4792132085
 41
1.4565989118
 42
1.8056093283
  0
ELLIPSE
  5
4B4
100
AcDbEntity
  8
0
100
AcDbEllipse
 62
7
  6
CONTINUOUS
 10
-15.7597522246
 20
25.5144946067
 30
0.0
 11
0.1906113921
 21
0.2399737875
 31
0.0
 40
0.4792132085
 41
1.3359833253
 42
1.6849937418
  0
ELLIPSE
  5
4B5
100
AcDbEntity
  8
0
100
AcDbEllipse
 62
7
  6
CONTINUOUS
 10
-14.2265311683
 20
27.0477156629
 30
0.0
 11
0.2440046096
 21
0.1884669564
 31
0.0
 40
0.473479458
 41
1.4430130577
 42
1.8356490535
  0
ELLIPSE
  5
4B6
100
AcDbEntity
  8
0
100
AcDbEllipse
 62
7
  6
CONTINUOUS
 10
-14.2265311683
 20
27.0477156629
 30
0.0
 11
0.305803577
 21
0.0392710511
 31
0.0
 40
0.473479458
 41
1.3059436001
 42
1.6985795958
  0
ELLIPSE
  5
4B7
100
AcDbEntity
  8
0
100
AcDbEllipse
 62
7
  6
CONTINUOUS
 10
-39.9617180534
 20
12.9537710521
 30
0.0
 11
1.0
 21
0.0
 31
0.0
 40
0.0349207695
 41
3.1415925761
 42
4.7123889804
  0
ELLIPSE
  5
4B8
100
AcDbEntity
  8
0
100
AcDbEllipse
 62
7
  6
CONTINUOUS
 10
39.3843727192
 20
21.1417059721
 30
0.0
 11
1.0
 21
-0.0
 31
0.0
 40
0.0349207695
 41
-0.0000000775
 42
1.5707963268
  0
ELLIPSE
  5
4B9
100
AcDbEntity
  8
0
100
AcDbEllipse
 62
7
  6
CONTINUOUS
 10
-39.9617180534
 20
-21.0462289479
 30
0.0
 11
1.0
 21
0.0
 31
0.0
 40
0.0349207695
 41
3.1415925761
 42
4.7123889804
  0
ELLIPSE
  5
4BA
100
AcDbEntity
  8
0
100
AcDbEllipse
 62
7
  6
CONTINUOUS
 10
39.3843727192
 20
-21.0462289479
 30
0.0
 11
1.0
 21
0.0
 31
0.0
 40
0.0349207695
 41
-1.5707963268
 42
0.0000000775
  0
ELLIPSE
  5
4BB
100
AcDbEntity
  8
0
100
AcDbEllipse
 62
7
  6
CONTINUOUS
 10
15.1235721153
 20
-25.3915824762
 30
0.0
 11
0.2719392391
 21
-0.1268073498
 31
0.0
 40
0.9998275239
 41
-0.3490104165
 42
0.3490104165
  0
ELLIPSE
  5
4BC
100
AcDbEntity
  8
0
100
AcDbEllipse
 62
7
  6
CONTINUOUS
 10
13.6239179709
 20
-26.8912366206
 30
0.0
 11
-0.1148255179
 21
0.2772133227
 31
0.0
 40
0.9998215708
 41
-3.5342286494
 42
-2.7489566578
  0
ELLIPSE
  5
4BD
100
AcDbEntity
  8
0
100
AcDbEllipse
 62
7
  6
CONTINUOUS
 10
8.2987366949
 20
-26.8912366206
 30
0.0
 11
0.1148255179
 21
0.2772133227
 31
0.0
 40
0.9998215708
 41
-3.5342286494
 42
-2.7489566578
  0
ELLIPSE
  5
4BE
100
AcDbEntity
  8
0
100
AcDbEllipse
 62
7
  6
CONTINUOUS
 10
6.7990825505
 20
-25.3915824762
 30
0.0
 11
0.2719392391
 21
0.1268073498
 31
0.0
 40
0.9998275239
 41
2.7925822371
 42
3.4906030701
  0
ELLIPSE
  5
4BF
100
AcDbEntity
  8
0
100
AcDbEllipse
 62
7
  6
CONTINUOUS
 10
-7.3764278847
 20
-25.3915824762
 30
0.0
 11
0.2719392391
 21
-0.1268073498
 31
0.0
 40
0.9998275239
 41
-0.3490104165
 42
0.3490104165
  0
ELLIPSE
  5
4C0
100
AcDbEntity
  8
0
100
AcDbEllipse
 62
7
  6
CONTINUOUS
 10
-8.8760820291
 20
-26.8912366206
 30
0.0
 11
-0.1148255179
 21
0.2772133227
 31
0.0
 40
0.9998215708
 41
-3.5342286494
 42
-2.7489566578
  0
ELLIPSE
  5
4C1
100
AcDbEntity
  8
0
100
AcDbEllipse
 62
7
  6
CONTINUOUS
 10
-14.2012633051
 20
-26.8912366206
 30
0.0
 11
0.1148255179
 21
0.2772133227
 31
0.0
 40
0.9998215708
 41
-3.5342286494
 42
-2.7489566578
  0
ELLIPSE
  5
4C2
100
AcDbEntity
  8
0
100
AcDbEllipse
 62
7
  6
CONTINUOUS
 10
-15.7009174495
 20
-25.3915824762
 30
0.0
 11
0.2719392391
 21
0.1268073498
 31
0.0
 40
0.9998275239
 41
2.7925822371
 42
3.4906030701
  0
ELLIPSE
  5
4C3
100
AcDbEntity
  8
0
100
AcDbEllipse
 62
7
  6
CONTINUOUS
 10
-39.9617180534
 20
-12.8582940279
 30
0.0
 11
1.0
 21
0.0
 31
0.0
 40
0.0349207695
 41
1.5707963268
 42
3.1415927311
  0
ELLIPSE
  5
4C4
100
AcDbEntity
  8
0
100
AcDbEllipse
 62
7
  6
CONTINUOUS
 10
-8.8760820291
 20
26.9867136449
 30
0.0
 11
0.1148255179
 21
0.2772133227
 31
0.0
 40
0.9998215708
 41
-0.3926359958
 42
0.3926359958
  0
ELLIPSE
  5
4C5
100
AcDbEntity
  8
0
100
AcDbEllipse
 62
7
  6
CONTINUOUS
 10
-7.3764278847
 20
25.4870595005
 30
0.0
 11
0.2719392391
 21
0.1268073498
 31
0.0
 40
0.9998275239
 41
-0.3490104165
 42
0.3490104165
  0
ELLIPSE
  5
4C6
100
AcDbEntity
  8
0
100
AcDbEllipse
 62
7
  6
CONTINUOUS
 10
15.1235721153
 20
25.4870595005
 30
0.0
 11
0.2719392391
 21
0.1268073498
 31
0.0
 40
0.9998275239
 41
-0.3490104165
 42
0.3490104165
  0
ELLIPSE
  5
4C7
100
AcDbEntity
  8
0
100
AcDbEllipse
 62
7
  6
CONTINUOUS
 10
13.6239179709
 20
26.9867136449
 30
0.0
 11
0.1148255179
 21
0.2772133227
 31
0.0
 40
0.9998215708
 41
-0.3926359958
 42
0.3926359958
  0
ELLIPSE
  5
4C8
100
AcDbEntity
  8
0
100
AcDbEllipse
 62
7
  6
CONTINUOUS
 10
8.2987366949
 20
26.9867136449
 30
0.0
 11
-0.1148255179
 21
0.2772133227
 31
0.0
 40
0.9998215708
 41
-0.3926359958
 42
0.3926359958
  0
ELLIPSE
  5
4C9
100
AcDbEntity
  8
0
100
AcDbEllipse
 62
7
  6
CONTINUOUS
 10
6.7990825505
 20
25.4870595005
 30
0.0
 11
0.2719392391
 21
-0.1268073498
 31
0.0
 40
0.9998275239
 41
2.7925822371
 42
3.4906030701
  0
ELLIPSE
  5
4CA
100
AcDbEntity
  8
0
100
AcDbEllipse
 62
7
  6
CONTINUOUS
 10
-15.7009174495
 20
25.4870595005
 30
0.0
 11
0.2719392391
 21
-0.1268073498
 31
0.0
 40
0.9998275239
 41
2.7925822371
 42
3.4906030701
  0
ELLIPSE
  5
4CB
100
AcDbEntity
  8
0
100
AcDbEllipse
 62
7
  6
CONTINUOUS
 10
-14.2012633051
 20
26.9867136449
 30
0.0
 11
-0.1148255179
 21
0.2772133227
 31
0.0
 40
0.9998215708
 41
-0.3926359958
 42
0.3926359958
  0
ELLIPSE
  5
4CC
100
AcDbEntity
  8
0
100
AcDbEllipse
 62
7
  6
CONTINUOUS
 10
39.3843727192
 20
-12.8582940279
 30
0.0
 11
1.0
 21
0.0
 31
0.0
 40
0.0349207695
 41
-0.0000000775
 42
1.5707963268
  0
ELLIPSE
  5
4CD
100
AcDbEntity
  8
0
100
AcDbEllipse
 62
7
  6
CONTINUOUS
 10
39.3843727192
 20
12.9537710521
 30
0.0
 11
1.0
 21
-0.0
 31
0.0
 40
0.0349207695
 41
-1.5707963268
 42
0.0000000775
  0
ELLIPSE
  5
4CE
100
AcDbEntity
  8
0
100
AcDbEllipse
 62
7
  6
CONTINUOUS
 10
-39.9617180534
 20
21.1417059721
 30
0.0
 11
1.0
 21
-0.0
 31
0.0
 40
0.0349207695
 41
1.5707963268
 42
3.1415927311
  0
ENDSEC
  0
SECTION
  2
OBJECTS
  0
DICTIONARY
  5
C
100
AcDbDictionary
280
0
281
1
  3
ACAD_GROUP
350
D
  3
ACAD_MLINESTYLE
350
17
  3
ACAD_LAYOUT
350
1A
  3
ACAD_PLOTSETTINGS
350
19
  3
ACAD_PLOTSTYLENAME
350
E
  0
DICTIONARY
  5
D
102
{ACAD_REACTORS
330
C
102
}
100
AcDbDictionary
280
0
281
1
  0
ACDBDICTIONARYWDFLT
  5
E
102
{ACAD_REACTORS
330
C
102
}
100
AcDbDictionary
281
1
  3
Normal
350
F
100
AcDbDictionaryWithDefault
340
F
  0
DICTIONARY
  5
17
102
{ACAD_REACTORS
330
C
102
}
100
AcDbDictionary
280
0
281
1
  3
Standard
350
18
  0
DICTIONARY
  5
19
102
{ACAD_REACTORS
330
C
102
}
100
AcDbDictionary
281
1
  0
DICTIONARY
  5
1A
102
{ACAD_REACTORS
330
C
102
}
100
AcDbDictionary
281
1
  3
Model
350
4CF
  3
Layout1
350
4D0
  0
ACDBPLACEHOLDER
  5
F
102
{ACAD_REACTORS
330
E
102
}
  0
MLINESTYLE
  5
18
102
{ACAD_REACTORS
330
17
102
}
100
AcDbMlineStyle
  2
STANDARD
 70
0
  3

 62
256
 51
90.0
 52
90.0
 71
2
 49
0.5
 62
256
  6
BYLAYER
 49
-0.5
 62
256
  6
BYLAYER
  0
LAYOUT
  5
4CF
102
{ACAD_REACTORS
330
1A
102
}
100
AcDbPlotSettings
  1

  2
none_device
  4
ISO_A4_(297.00_x_210.00_MM)
  6

 40
0.0
 41
0.0
 42
0.0
 43
0.0
 44
297.0
 45
210.0
 46
0.0
 47
0.0
 48
0.0
 49
0.0
140
0.0
141
0.0
142
1.0
143
1.0
 70
1024
 72
1
 73
0
 74
0
  7

 75
0
147
1.0
148
0.0
149
0.0
100
AcDbLayout
  1
Model
 70
0
 71
0
 10
0.0
 20
0.0
 11
297.0
 21
210.0
 12
0.0
 22
0.0
 32
0.0
 14
0.0
 24
0.0
 34
0.0
 15
0.0
 25
0.0
 35
0.0
146
0.0
 13
0.0
 23
0.0
 33
0.0
 16
1.0
 26
0.0
 36
0.0
 17
0.0
 27
1.0
 37
0.0
 76
0
330
218
345
0
346
0
  0
LAYOUT
  5
4D0
102
{ACAD_REACTORS
330
1A
102
}
100
AcDbPlotSettings
  1

  2
none_device
  4
ISO_A4_(297.00_x_210.00_MM)
  6

 40
0.0
 41
0.0
 42
0.0
 43
0.0
 44
297.0
 45
210.0
 46
0.0
 47
0.0
 48
0.0
 49
0.0
140
0.0
141
0.0
142
1.0
143
1.0
 70
0
 72
1
 73
0
 74
0
  7

 75
0
147
1.0
148
0.0
149
0.0
100
AcDbLayout
  1
Layout1
 70
0
 71
1
 10
0.0
 20
0.0
 11
297.0
 21
210.0
 12
0.0
 22
0.0
 32
0.0
 14
0.0
 24
0.0
 34
0.0
 15
0.0
 25
0.0
 35
0.0
146
0.0
 13
0.0
 23
0.0
 33
0.0
 16
1.0
 26
0.0
 36
0.0
 17
0.0
 27
1.0
 37
0.0
 76
0
330
219
345
0
346
0
  0
ENDSEC
  0
EOF
