  0
SECTION
  2
HEADER
  9
$ACADVER
  1
AC1024
  9
$DWGCODEPAGE
  3
ANSI_1252
  9
$EXTMAX
 10
297.0
 20
210.0
 30
0.0
  9
$EXTMIN
 10
0.0
 20
0.0
 30
0.0
  9
$LIMMIN
 10
0.0
 20
0.0
  9
$LIMMAX
 10
297.0
 20
210.0
  9
$VIEWCTR
 10
148.5
 20
105.0
  9
$VIEWSIZE
 40
210.0
  9
$CLAYER
  8
0
  9
$LTSCALE
 40
16.335
  9
$CELTYPE
  6
BYLAYER
  9
$DIMSCALE
 40
1.0
  9
$DIMASZ
 40
3.0
  9
$DIMEXO
 40
0.5
  9
$DIMDLI
 40
11.286
  9
$DIMEXE
 40
1.5
  9
$DIMCEN
 40
2.673
  9
$DIMLFAC
 40
1.0
  9
$DIMBLK
  1
_FILLED
  9
$DIMALT
 70
0
  9
$DIMALTF
 40
0.0393700787
  9
$DIMTXT
 40
3.0
  9
$DIMTOL
 70
1
  9
$DIMLIM
 70
0
  9
$DIMTFAC
 40
1.0
  9
$DIMTP
 40
0.01
  9
$DIMTM
 40
0.01
  9
$DIMGAP
 40
0.625
  9
$DIMDSEP
 70
44
  9
$AUNITS
 70
0
  9
$PDMODE
 70
3
  9
$PDSIZE
 40
3.0
  9
$HANDSEED
  5
4D1
  9
$TILEMODE
 70
1
  9
$MEASUREMENT
 70
1
  9
$INSUNITS
 70
4
  0
ENDSEC
  0
SECTION
  2
CLASSES
  0
CLASS
  1
ACDBDICTIONARYWDFLT
  2
AcDbDictionaryWithDefault
  3
AutoCAD 2000
 90
0
 91
1
280
0
281
0
  0
CLASS
  1
ACDBPLACEHOLDER
  2
AcDbPlaceHolder
  3
AutoCAD 2000
 90
0
 91
1
280
0
281
0
  0
CLASS
  1
LAYOUT
  2
AcDbLayout
  3
AutoCAD 2000
 90
0
 91
0
280
0
281
0
  0
ENDSEC
  0
SECTION
  2
TABLES
  0
TABLE
  2
VPORT
  5
8
100
AcDbSymbolTable
 70
2
  0
VPORT
  5
1F4
100
AcDbSymbolTableRecord
100
AcDbViewportTableRecord
  2
*ACTIVE
 70
0
 10
0.0
 20
0.0
 11
1.0
 21
1.0
 12
148.5
 22
105.0
 13
0.0
 23
0.0
 14
1.0
 24
1.0
 15
0.0
 25
0.0
 16
0.0
 26
0.0
 36
1.0
 17
0.0
 27
0.0
 37
0.0
 40
210.0
 41
1.4142857143
 42
50.0
 43
0.0
 44
0.0
 50
0.0
 51
0.0
 71
0
 72
100
 73
1
 74
1
 75
0
 76
0
 77
0
 78
0
  0
ENDTAB
  0
TABLE
  2
LTYPE
  5
5
100
AcDbSymbolTable
 70
6
  0
LTYPE
  5
14
100
AcDbSymbolTableRecord
100
AcDbLinetypeTableRecord
  2
BYBLOCK
 70
0
  3

 72
65
 73
0
 40
0.0
  0
LTYPE
  5
15
100
AcDbSymbolTableRecord
100
AcDbLinetypeTableRecord
  2
BYLAYER
 70
0
  3

 72
65
 73
0
 40
0.0
  0
LTYPE
  5
16
100
AcDbSymbolTableRecord
100
AcDbLinetypeTableRecord
  2
CONTINUOUS
 70
64
  3
Solid line
 72
65
 73
0
 40
0.0
  0
LTYPE
  5
1F5
100
AcDbSymbolTableRecord
100
AcDbLinetypeTableRecord
  2
CENTER
 70
64
  3
____ _ ____ _ ____ _ ____ _ ____ _ ____ _ ____
 72
65
 73
4
 40
0.6
 49
0.375
 74
0
 49
-0.075
 74
0
 49
0.075
 74
0
 49
-0.075
 74
0
  0
LTYPE
  5
1F6
100
AcDbSymbolTableRecord
100
AcDbLinetypeTableRecord
  2
HIDDEN
 70
64
  3
- - - - - - - - - - - - - - - - - - - -
 72
65
 73
2
 40
0.2
 49
0.1
 74
0
 49
-0.1
 74
0
  0
LTYPE
  5
1F7
100
AcDbSymbolTableRecord
100
AcDbLinetypeTableRecord
  2
PHANTOM
 70
64
  3
_____ _ _ _____ _ _ _____ _ _ _____
 72
65
 73
6
 40
0.8
 49
0.45
 74
0
 49
-0.05
 74
0
 49
0.1
 74
0
 49
-0.05
 74
0
 49
0.1
 74
0
 49
-0.05
 74
0
  0
LTYPE
  5
1F8
100
AcDbSymbolTableRecord
100
AcDbLinetypeTableRecord
  2
DOT
 70
64
  3
. . . . . . . . . . . . . . . . . . . .
 72
65
 73
2
 40
0.2
 49
0.1
 74
0
 49
-0.1
 74
0
  0
LTYPE
  5
1F9
100
AcDbSymbolTableRecord
100
AcDbLinetypeTableRecord
  2
DASHED
 70
64
  3
- - - - - - - - - - - - - - - - - - - -
 72
65
 73
2
 40
0.2
 49
0.1
 74
0
 49
-0.1
 74
0
  0
ENDTAB
  0
TABLE
  2
LAYER
  5
2
100
AcDbSymbolTable
 70
36
  0
LAYER
  5
10
100
AcDbSymbolTableRecord
100
AcDbLayerTableRecord
  2
0
 70
0
 62
7
  6
CONTINUOUS
370
-3
390
F
  0
LAYER
  5
1FA
100
AcDbSymbolTableRecord
100
AcDbLayerTableRecord
  2
DEFAULT_1
 70
0
 62
7
  6
CENTER
370
-3
390
F
  0
LAYER
  5
1FB
100
AcDbSymbolTableRecord
100
AcDbLayerTableRecord
  2
DEFAULT_2
 70
0
 62
7
  6
HIDDEN
370
-3
390
F
  0
LAYER
  5
1FC
100
AcDbSymbolTableRecord
100
AcDbLayerTableRecord
  2
DEFAULT_3
 70
0
 62
7
  6
PHANTOM
370
-3
390
F
  0
LAYER
  5
1FD
100
AcDbSymbolTableRecord
100
AcDbLayerTableRecord
  2
ASSI
 70
0
 62
7
  6
CONTINUOUS
370
-3
390
F
  0
LAYER
  5
1FE
100
AcDbSymbolTableRecord
100
AcDbLayerTableRecord
  2
COLOR6
 70
0
 62
7
  6
CONTINUOUS
370
-3
390
F
  0
LAYER
  5
1FF
100
AcDbSymbolTableRecord
100
AcDbLayerTableRecord
  2
COORDINATE
 70
0
 62
7
  6
CONTINUOUS
370
-3
390
F
  0
LAYER
  5
200
100
AcDbSymbolTableRecord
100
AcDbLayerTableRecord
  2
COORD_ORIGINE
 70
0
 62
7
  6
CONTINUOUS
370
-3
390
F
  0
LAYER
  5
201
100
AcDbSymbolTableRecord
100
AcDbLayerTableRecord
  2
COPY_PUBLISH
 70
0
 62
7
  6
CONTINUOUS
370
-3
390
F
  0
LAYER
  5
202
100
AcDbSymbolTableRecord
100
AcDbLayerTableRecord
  2
COSMETIC
 70
0
 62
7
  6
CONTINUOUS
370
-3
390
F
  0
LAYER
  5
203
100
AcDbSymbolTableRecord
100
AcDbLayerTableRecord
  2
COSMETICI
 70
0
 62
7
  6
CONTINUOUS
370
-3
390
F
  0
LAYER
  5
204
100
AcDbSymbolTableRecord
100
AcDbLayerTableRecord
  2
CURVE
 70
0
 62
7
  6
CONTINUOUS
370
-3
390
F
  0
LAYER
  5
205
100
AcDbSymbolTableRecord
100
AcDbLayerTableRecord
  2
DRAFT
 70
0
 62
7
  6
CONTINUOUS
370
-3
390
F
  0
LAYER
  5
206
100
AcDbSymbolTableRecord
100
AcDbLayerTableRecord
  2
IMPORT_IGES
 70
0
 62
7
  6
CONTINUOUS
370
-3
390
F
  0
LAYER
  5
207
100
AcDbSymbolTableRecord
100
AcDbLayerTableRecord
  2
INTFCLR_2
 70
0
 62
7
  6
CONTINUOUS
370
-3
390
F
  0
LAYER
  5
208
100
AcDbSymbolTableRecord
100
AcDbLayerTableRecord
  2
INTF_14
 70
0
 62
7
  6
CONTINUOUS
370
-3
390
F
  0
LAYER
  5
209
100
AcDbSymbolTableRecord
100
AcDbLayerTableRecord
  2
LINEA_CHIUSURA
 70
0
 62
7
  6
CONTINUOUS
370
-3
390
F
  0
LAYER
  5
20A
100
AcDbSymbolTableRecord
100
AcDbLayerTableRecord
  2
NOTE
 70
0
 62
7
  6
CONTINUOUS
370
-3
390
F
  0
LAYER
  5
20B
100
AcDbSymbolTableRecord
100
AcDbLayerTableRecord
  2
PIANI
 70
0
 62
7
  6
CONTINUOUS
370
-3
390
F
  0
LAYER
  5
20C
100
AcDbSymbolTableRecord
100
AcDbLayerTableRecord
  2
PIANI_ORIGINE
 70
0
 62
7
  6
CONTINUOUS
370
-3
390
F
  0
LAYER
  5
20D
100
AcDbSymbolTableRecord
100
AcDbLayerTableRecord
  2
PUNTI
 70
0
 62
7
  6
CONTINUOUS
370
-3
390
F
  0
LAYER
  5
20E
100
AcDbSymbolTableRecord
100
AcDbLayerTableRecord
  2
RACCORDO
 70
0
 62
7
  6
CONTINUOUS
370
-3
390
F
  0
LAYER
  5
20F
100
AcDbSymbolTableRecord
100
AcDbLayerTableRecord
  2
SIMBOLI
 70
0
 62
7
  6
CONTINUOUS
370
-3
390
F
  0
LAYER
  5
210
100
AcDbSymbolTableRecord
100
AcDbLayerTableRecord
  2
SMUSSO
 70
0
 62
7
  6
CONTINUOUS
370
-3
390
F
  0
LAYER
  5
211
100
AcDbSymbolTableRecord
100
AcDbLayerTableRecord
  2
SNAPLINE
 70
0
 62
7
  6
CONTINUOUS
370
-3
390
F
  0
LAYER
  5
212
100
AcDbSymbolTableRecord
100
AcDbLayerTableRecord
  2
SUPERFICI
 70
0
 62
7
  6
CONTINUOUS
370
-3
390
F
  0
LAYER
  5
213
100
AcDbSymbolTableRecord
100
AcDbLayerTableRecord
  2
TRASH
 70
0
 62
7
  6
CONTINUOUS
370
-3
390
F
  0
LAYER
  5
214
100
AcDbSymbolTableRecord
100
AcDbLayerTableRecord
  2
XSEC_DATUMS
 70
0
 62
7
  6
CONTINUOUS
370
-3
390
F
  0
LAYER
  5
215
100
AcDbSymbolTableRecord
100
AcDbLayerTableRecord
  2
___SHELL
 70
0
 62
7
  6
CONTINUOUS
370
-3
390
F
  0
ENDTAB
  0
TABLE
  2
STYLE
  5
3
100
AcDbSymbolTable
 70
1
  0
STYLE
  5
11
100
AcDbSymbolTableRecord
100
AcDbTextStyleTableRecord
  2
STANDARD
 70
0
 40
0.0
 41
0.8
 50
0.0
 71
0
 42
0.2
  3
txt
  4

  0
STYLE
  5
216
100
AcDbSymbolTableRecord
100
AcDbTextStyleTableRecord
  2
TEXTSTYLE_1
 70
0
 40
0.0
 41
0.8
 50
0.0
 71
0
 42
0.2
  3
gdt
  4

  0
ENDTAB
  0
TABLE
  2
VIEW
  5
6
100
AcDbSymbolTable
 70
0
  0
ENDTAB
  0
TABLE
  2
UCS
  5
7
100
AcDbSymbolTable
 70
0
  0
ENDTAB
  0
TABLE
  2
APPID
  5
9
100
AcDbSymbolTable
 70
1
  0
APPID
  5
217
100
AcDbSymbolTableRecord
100
AcDbRegAppTableRecord
  2
ACAD
 70
0
  0
ENDTAB
  0
TABLE
  2
BLOCK_RECORD
  5
1
100
AcDbSymbolTable
 70
0
  0
BLOCK_RECORD
  5
218
100
AcDbSymbolTableRecord
100
AcDbBlockTableRecord
  2
*Model_Space
  0
BLOCK_RECORD
  5
219
100
AcDbSymbolTableRecord
100
AcDbBlockTableRecord
  2
*Paper_Space
  0
BLOCK_RECORD
  5
21A
100
AcDbSymbolTableRecord
100
AcDbBlockTableRecord
  2
_FILLED
  0
ENDTAB
  0
TABLE
  2
DIMSTYLE
  5
A
100
AcDbSymbolTable
 70
1
100
AcDbDimStyleTable
 71
0
  0
DIMSTYLE
105
21B
100
AcDbSymbolTableRecord
100
AcDbDimStyleTableRecord
  2
STANDARD
 70
0
  3

  4

 40
1.0
 41
3.0
 42
0.5
 43
0.38
 44
1.5
 45
0.0
 46
0.0
 47
0.01
 48
0.01
140
3.0
141
0.09
142
0.0
143
25.4
144
1.0
145
0.0
146
1.0
147
0.625
 71
1
 72
0
 73
0
 74
0
 75
0
 76
0
 77
1
 78
8
 79
2
170
0
171
1
172
0
173
0
174
0
175
0
176
0
177
0
178
0
270
2
179
2
271
2
272
2
273
2
274
2
275
0
280
0
281
0
282
0
283
1
284
8
285
0
286
0
287
3
288
0
340
11
278
44
341
21A
342
21A
343
21A
344
21A
  0
ENDTAB
  0
ENDSEC
  0
SECTION
  2
BLOCKS
  0
BLOCK
  5
20
100
AcDbEntity
  8
0
100
AcDbBlockBegin
  2
*Model_Space
 70
0
 10
0.0
 20
0.0
 30
0.0
  3
*Model_Space
  1

  0
ENDBLK
  5
21
100
AcDbEntity
  8
0
100
AcDbBlockEnd
  0
BLOCK
  5
1C
100
AcDbEntity
  8
0
100
AcDbBlockBegin
  2
*Paper_Space
 70
0
 10
0.0
 20
0.0
 30
0.0
  3
*Paper_Space
  1

  0
ENDBLK
  5
1D
100
AcDbEntity
  8
0
100
AcDbBlockEnd
  0
BLOCK
  5
21C
100
AcDbEntity
  8
0
100
AcDbBlockBegin
  2
_FILLED
 70
64
 10
0.0
 20
0.0
  3
_FILLED
  1

  0
SOLID
  5
21D
100
AcDbEntity
  8
0
  6
BYBLOCK
 62
0
100
AcDbTrace
 10
0.0
 20
0.0
 11
-1.0
 21
0.3166666667
 12
-1.0
 22
-0.3166666667
 13
-1.0
 23
-0.3166666667
  0
ENDBLK
  5
21E
100
AcDbEntity
  8
0
  6
BYBLOCK
 62
0
100
AcDbBlockEnd
  0
ENDSEC
  0
SECTION
  2
ENTITIES
  0
LINE
  5
21F
100
AcDbEntity
  8
0
100
AcDbLine
 62
7
  6
CONTINUOUS
 10
-41.6092754875
 20
19.4520110732
 11
-41.6143583369
 21
19.4418422762
  0
LINE
  5
220
100
AcDbEntity
  8
0
100
AcDbLine
 62
7
  6
CONTINUOUS
 10
-41.6092754875
 20
-18.979710292
 11
-41.6143583369
 21
-18.969541495
  0
LINE
  5
221
100
AcDbEntity
  8
0
100
AcDbLine
 62
7
  6
CONTINUOUS
 10
-42.7159827303
 20
-10.7638496094
 11
-42.7159827303
 21
-22.7638496094
  0
LINE
  5
222
100
AcDbEntity
  8
0
100
AcDbLine
 62
7
  6
CONTINUOUS
 10
-42.7159827303
 20
11.2361503906
 11
-42.7159827303
 21
23.2361503906
  0
LINE
  5
223
100
AcDbEntity
  8
0
100
AcDbLine
 62
7
  6
CONTINUOUS
 10
-42.663601576
 20
-10.8162307636
 11
-42.663601576
 21
-22.7114684551
  0
LINE
  5
224
100
AcDbEntity
  8
0
100
AcDbLine
 62
7
  6
CONTINUOUS
 10
-42.663601576
 20
11.2885315449
 11
-42.663601576
 21
23.1837692364
  0
LINE
  5
225
100
AcDbEntity
  8
0
100
AcDbLine
 62
7
  6
CONTINUOUS
 10
-41.6390281165
 20
22.1593481049
 11
-41.6390281165
 21
21.3301178506
  0
LINE
  5
226
100
AcDbEntity
  8
0
100
AcDbLine
 62
7
  6
CONTINUOUS
 10
-41.6390281165
 20
13.1421829306
 11
-41.6390281165
 21
12.3129526763
  0
LINE
  5
227
100
AcDbEntity
  8
0
100
AcDbLine
 62
7
  6
CONTINUOUS
 10
-41.6390281165
 20
-11.8406518951
 11
-41.6390281165
 21
-12.6698821494
  0
LINE
  5
228
100
AcDbEntity
  8
0
100
AcDbLine
 62
7
  6
CONTINUOUS
 10
-41.6390281165
 20
-20.8578170694
 11
-41.6390281165
 21
-21.6870473237
  0
LINE
  5
229
100
AcDbEntity
  8
0
100
AcDbLine
 62
7
  6
CONTINUOUS
 10
-41.6143583369
 20
-12.719541495
 11
-41.6143583369
 21
-13.769541495
  0
LINE
  5
22A
100
AcDbEntity
  8
0
100
AcDbLine
 62
7
  6
CONTINUOUS
 10
-41.6143583369
 20
-14.5581577238
 11
-41.6143583369
 21
-16.369541495
  0
LINE
  5
22B
100
AcDbEntity
  8
0
100
AcDbLine
 62
7
  6
CONTINUOUS
 10
-41.6143583369
 20
-17.1581577238
 11
-41.6143583369
 21
-18.969541495
  0
LINE
  5
22C
100
AcDbEntity
  8
0
100
AcDbLine
 62
7
  6
CONTINUOUS
 10
-41.6143583369
 20
-19.7581577238
 11
-41.6143583369
 21
-20.8081577238
  0
LINE
  5
22D
100
AcDbEntity
  8
0
100
AcDbLine
 62
7
  6
CONTINUOUS
 10
-41.6143583369
 20
13.1918422762
 11
-41.6143583369
 21
14.2418422762
  0
LINE
  5
22E
100
AcDbEntity
  8
0
100
AcDbLine
 62
7
  6
CONTINUOUS
 10
-41.6143583369
 20
15.030458505
 11
-41.6143583369
 21
16.8418422762
  0
LINE
  5
22F
100
AcDbEntity
  8
0
100
AcDbLine
 62
7
  6
CONTINUOUS
 10
-41.6143583369
 20
17.630458505
 11
-41.6143583369
 21
19.4418422762
  0
LINE
  5
230
100
AcDbEntity
  8
0
100
AcDbLine
 62
7
  6
CONTINUOUS
 10
-41.6143583369
 20
20.230458505
 11
-41.6143583369
 21
21.280458505
  0
LINE
  5
231
100
AcDbEntity
  8
0
100
AcDbLine
 62
7
  6
CONTINUOUS
 10
-41.6092754875
 20
-13.779710292
 11
-41.6092754875
 21
-14.5479889268
  0
LINE
  5
232
100
AcDbEntity
  8
0
100
AcDbLine
 62
7
  6
CONTINUOUS
 10
-41.6092754875
 20
-16.379710292
 11
-41.6092754875
 21
-17.1479889268
  0
LINE
  5
233
100
AcDbEntity
  8
0
100
AcDbLine
 62
7
  6
CONTINUOUS
 10
-41.6092754875
 20
-18.979710292
 11
-41.6092754875
 21
-19.7479889268
  0
LINE
  5
234
100
AcDbEntity
  8
0
100
AcDbLine
 62
7
  6
CONTINUOUS
 10
-41.6092754875
 20
14.2520110732
 11
-41.6092754875
 21
15.020289708
  0
LINE
  5
235
100
AcDbEntity
  8
0
100
AcDbLine
 62
7
  6
CONTINUOUS
 10
-41.6092754875
 20
16.8520110732
 11
-41.6092754875
 21
17.620289708
  0
LINE
  5
236
100
AcDbEntity
  8
0
100
AcDbLine
 62
7
  6
CONTINUOUS
 10
-41.6092754875
 20
19.4520110732
 11
-41.6092754875
 21
20.220289708
  0
LINE
  5
237
100
AcDbEntity
  8
0
100
AcDbLine
 62
7
  6
CONTINUOUS
 10
-41.6388758117
 20
13.1427923821
 11
-41.6390011883
 21
13.1421829317
  0
LINE
  5
238
100
AcDbEntity
  8
0
100
AcDbLine
 62
7
  6
CONTINUOUS
 10
-41.6092754875
 20
16.8520110732
 11
-41.6143583369
 21
16.8418422762
  0
LINE
  5
239
100
AcDbEntity
  8
0
100
AcDbLine
 62
7
  6
CONTINUOUS
 10
-41.6092754875
 20
14.2520110732
 11
-41.6143583369
 21
14.2418422762
  0
LINE
  5
23A
100
AcDbEntity
  8
0
100
AcDbLine
 62
7
  6
CONTINUOUS
 10
-41.6388758117
 20
13.1427923821
 11
-41.6143583369
 21
13.1918422762
  0
LINE
  5
23B
100
AcDbEntity
  8
0
100
AcDbLine
 62
7
  6
CONTINUOUS
 10
-40.2683638845
 20
23.1837692364
 11
-40.2159827303
 21
23.2361503906
  0
LINE
  5
23C
100
AcDbEntity
  8
0
100
AcDbLine
 62
7
  6
CONTINUOUS
 10
-40.3870945008
 20
21.3650386201
 11
-40.398110411
 21
21.3540227098
  0
LINE
  5
23D
100
AcDbEntity
  8
0
100
AcDbLine
 62
7
  6
CONTINUOUS
 10
-40.398110411
 20
20.3040227098
 11
-40.4092610854
 21
20.2928720355
  0
LINE
  5
23E
100
AcDbEntity
  8
0
100
AcDbLine
 62
7
  6
CONTINUOUS
 10
-28.4047961574
 20
31.2104977237
 11
-31.9403300634
 21
27.6749638178
  0
LINE
  5
23F
100
AcDbEntity
  8
0
100
AcDbLine
 62
7
  6
CONTINUOUS
 10
-40.398110411
 20
17.7040227098
 11
-40.4092610854
 21
17.6928720355
  0
LINE
  5
240
100
AcDbEntity
  8
DRAFT
100
AcDbLine
 62
7
  6
CONTINUOUS
 10
-36.7739828784
 20
-40.0222768369
 11
34.8420174179
 21
-40.0222768369
  0
LINE
  5
241
100
AcDbEntity
  8
0
100
AcDbLine
 62
7
  6
CONTINUOUS
 10
-40.2683638845
 20
-22.7114684551
 11
-40.2159827303
 21
-22.7638496094
  0
LINE
  5
242
100
AcDbEntity
  8
0
100
AcDbLine
 62
7
  6
CONTINUOUS
 10
-40.3870945008
 20
-20.8927378389
 11
-40.398110411
 21
-20.8817219286
  0
LINE
  5
243
100
AcDbEntity
  8
0
100
AcDbLine
 62
7
  6
CONTINUOUS
 10
-40.398110411
 20
-19.8317219286
 11
-40.4092610854
 21
-19.8205712543
  0
LINE
  5
244
100
AcDbEntity
  8
0
100
AcDbLine
 62
7
  6
CONTINUOUS
 10
-31.9403300634
 20
-27.2026630365
 11
-28.4047961574
 21
-30.7381969425
  0
LINE
  5
245
100
AcDbEntity
  8
0
100
AcDbLine
 62
7
  6
CONTINUOUS
 10
-40.398110411
 20
-17.2317219286
 11
-40.4092610854
 21
-17.2205712543
  0
LINE
  5
246
100
AcDbEntity
  8
0
100
AcDbLine
 62
7
  6
CONTINUOUS
 10
-41.6092754875
 20
-16.379710292
 11
-41.6143583369
 21
-16.369541495
  0
LINE
  5
247
100
AcDbEntity
  8
0
100
AcDbLine
 62
7
  6
CONTINUOUS
 10
-41.6092754875
 20
-13.779710292
 11
-41.6143583369
 21
-13.769541495
  0
LINE
  5
248
100
AcDbEntity
  8
0
100
AcDbLine
 62
7
  6
CONTINUOUS
 10
-41.6388758117
 20
-12.6704916008
 11
-41.6143583369
 21
-12.719541495
  0
LINE
  5
249
100
AcDbEntity
  8
0
100
AcDbLine
 62
7
  6
CONTINUOUS
 10
-41.6390011883
 20
-12.6698821505
 11
-41.6388758117
 21
-12.6704916008
  0
LINE
  5
24A
100
AcDbEntity
  8
0
100
AcDbLine
 62
250
  6
CONTINUOUS
 10
-40.6390281165
 20
22.1768031699
 11
-40.6390281165
 21
21.3650386201
  0
LINE
  5
24B
100
AcDbEntity
  8
0
100
AcDbLine
 62
250
  6
CONTINUOUS
 10
-40.6390281165
 20
13.1072621611
 11
-40.6390281165
 21
12.2954976114
  0
LINE
  5
24C
100
AcDbEntity
  8
0
100
AcDbLine
 62
250
  6
CONTINUOUS
 10
-40.6390281165
 20
-11.8231968301
 11
-40.6390281165
 21
-12.6349613799
  0
LINE
  5
24D
100
AcDbEntity
  8
0
100
AcDbLine
 62
250
  6
CONTINUOUS
 10
-40.6390281165
 20
-20.8927378389
 11
-40.6390281165
 21
-21.7045023886
  0
LINE
  5
24E
100
AcDbEntity
  8
0
100
AcDbLine
 62
7
  6
CONTINUOUS
 10
-40.4092610854
 20
-13.7071279645
 11
-40.4092610854
 21
-14.6205712543
  0
LINE
  5
24F
100
AcDbEntity
  8
0
100
AcDbLine
 62
7
  6
CONTINUOUS
 10
-40.4092610854
 20
-16.3071279645
 11
-40.4092610854
 21
-17.2205712543
  0
LINE
  5
250
100
AcDbEntity
  8
0
100
AcDbLine
 62
7
  6
CONTINUOUS
 10
-40.4092610854
 20
-18.9071279645
 11
-40.4092610854
 21
-19.8205712543
  0
LINE
  5
251
100
AcDbEntity
  8
0
100
AcDbLine
 62
7
  6
CONTINUOUS
 10
-40.4092610854
 20
14.1794287457
 11
-40.4092610854
 21
15.0928720355
  0
LINE
  5
252
100
AcDbEntity
  8
0
100
AcDbLine
 62
7
  6
CONTINUOUS
 10
-40.4092610854
 20
16.7794287457
 11
-40.4092610854
 21
17.6928720355
  0
LINE
  5
253
100
AcDbEntity
  8
0
100
AcDbLine
 62
7
  6
CONTINUOUS
 10
-40.4092610854
 20
19.3794287457
 11
-40.4092610854
 21
20.2928720355
  0
LINE
  5
254
100
AcDbEntity
  8
0
100
AcDbLine
 62
7
  6
CONTINUOUS
 10
-40.398110411
 20
-12.6459772902
 11
-40.398110411
 21
-13.6959772902
  0
LINE
  5
255
100
AcDbEntity
  8
0
100
AcDbLine
 62
7
  6
CONTINUOUS
 10
-40.398110411
 20
-14.6317219286
 11
-40.398110411
 21
-16.2959772902
  0
LINE
  5
256
100
AcDbEntity
  8
0
100
AcDbLine
 62
7
  6
CONTINUOUS
 10
-40.398110411
 20
-17.2317219286
 11
-40.398110411
 21
-18.8959772902
  0
LINE
  5
257
100
AcDbEntity
  8
0
100
AcDbLine
 62
7
  6
CONTINUOUS
 10
-40.398110411
 20
-19.8317219286
 11
-40.398110411
 21
-20.8817219286
  0
LINE
  5
258
100
AcDbEntity
  8
0
100
AcDbLine
 62
7
  6
CONTINUOUS
 10
-40.398110411
 20
13.1182780714
 11
-40.398110411
 21
14.1682780714
  0
LINE
  5
259
100
AcDbEntity
  8
0
100
AcDbLine
 62
7
  6
CONTINUOUS
 10
-40.398110411
 20
15.1040227098
 11
-40.398110411
 21
16.7682780714
  0
LINE
  5
25A
100
AcDbEntity
  8
0
100
AcDbLine
 62
7
  6
CONTINUOUS
 10
-40.398110411
 20
17.7040227098
 11
-40.398110411
 21
19.3682780714
  0
LINE
  5
25B
100
AcDbEntity
  8
0
100
AcDbLine
 62
7
  6
CONTINUOUS
 10
-40.398110411
 20
20.3040227098
 11
-40.398110411
 21
21.3540227098
  0
LINE
  5
25C
100
AcDbEntity
  8
0
100
AcDbLine
 62
7
  6
CONTINUOUS
 10
-40.3870945008
 20
-11.8231968301
 11
-40.3870945008
 21
-12.6349613799
  0
LINE
  5
25D
100
AcDbEntity
  8
0
100
AcDbLine
 62
7
  6
CONTINUOUS
 10
-40.3870945008
 20
-20.8927378389
 11
-40.3870945008
 21
-21.7045023886
  0
LINE
  5
25E
100
AcDbEntity
  8
0
100
AcDbLine
 62
7
  6
CONTINUOUS
 10
-40.3870945008
 20
12.2954976114
 11
-40.3870945008
 21
13.1072621611
  0
LINE
  5
25F
100
AcDbEntity
  8
0
100
AcDbLine
 62
7
  6
CONTINUOUS
 10
-40.3870945008
 20
21.3650386201
 11
-40.3870945008
 21
22.1768031699
  0
LINE
  5
260
100
AcDbEntity
  8
0
100
AcDbLine
 62
7
  6
CONTINUOUS
 10
-40.2683638845
 20
23.1837692364
 11
-40.2683638845
 21
22.5309595696
  0
LINE
  5
261
100
AcDbEntity
  8
0
100
AcDbLine
 62
7
  6
CONTINUOUS
 10
-40.2683638845
 20
11.9413412117
 11
-40.2683638845
 21
11.2885315449
  0
LINE
  5
262
100
AcDbEntity
  8
0
100
AcDbLine
 62
7
  6
CONTINUOUS
 10
-40.2683638845
 20
-22.7114684551
 11
-40.2683638845
 21
-22.0586587883
  0
LINE
  5
263
100
AcDbEntity
  8
0
100
AcDbLine
 62
7
  6
CONTINUOUS
 10
-40.2683638845
 20
-11.4690404304
 11
-40.2683638845
 21
-10.8162307636
  0
LINE
  5
264
100
AcDbEntity
  8
0
100
AcDbLine
 62
7
  6
CONTINUOUS
 10
-40.2159827303
 20
23.2361503906
 11
-40.2159827303
 21
11.2361503906
  0
LINE
  5
265
100
AcDbEntity
  8
0
100
AcDbLine
 62
7
  6
CONTINUOUS
 10
-40.2159827303
 20
-22.7638496094
 11
-40.2159827303
 21
-10.7638496094
  0
LINE
  5
266
100
AcDbEntity
  8
0
100
AcDbLine
 62
7
  6
CONTINUOUS
 10
-40.398110411
 20
15.1040227098
 11
-40.4092610854
 21
15.0928720355
  0
LINE
  5
267
100
AcDbEntity
  8
0
100
AcDbLine
 62
7
  6
CONTINUOUS
 10
-29.5271693031
 20
25.2618030575
 11
-25.9916353972
 21
28.7973369635
  0
LINE
  5
268
100
AcDbEntity
  8
0
100
AcDbLine
 62
7
  6
CONTINUOUS
 10
-42.663601576
 20
11.2885315449
 11
-42.7159827303
 21
11.2361503906
  0
LINE
  5
269
100
AcDbEntity
  8
0
100
AcDbLine
 62
7
  6
CONTINUOUS
 10
-40.3870945008
 20
22.1768031699
 11
-40.2786572799
 21
22.231005261
  0
LINE
  5
26A
100
AcDbEntity
  8
0
100
AcDbLine
 62
7
  6
CONTINUOUS
 10
-40.3870945008
 20
-21.7045023886
 11
-40.2786572799
 21
-21.7587044798
  0
LINE
  5
26B
100
AcDbEntity
  8
0
100
AcDbLine
 62
7
  6
CONTINUOUS
 10
-40.398110411
 20
-14.6317219286
 11
-40.4092610854
 21
-14.6205712543
  0
LINE
  5
26C
100
AcDbEntity
  8
0
100
AcDbLine
 62
7
  6
CONTINUOUS
 10
-25.9916353972
 20
-28.3250361822
 11
-29.5271693031
 21
-24.7895022763
  0
LINE
  5
26D
100
AcDbEntity
  8
0
100
AcDbLine
 62
7
  6
CONTINUOUS
 10
-42.663601576
 20
-10.8162307636
 11
-42.7159827303
 21
-10.7638496094
  0
LINE
  5
26E
100
AcDbEntity
  8
0
100
AcDbLine
 62
7
  6
CONTINUOUS
 10
-41.6388758117
 20
-20.8572076179
 11
-41.6390011883
 21
-20.8578170683
  0
LINE
  5
26F
100
AcDbEntity
  8
0
100
AcDbLine
 62
7
  6
CONTINUOUS
 10
-41.6390011883
 20
21.3301178495
 11
-41.6388758117
 21
21.3295083992
  0
LINE
  5
270
100
AcDbEntity
  8
0
100
AcDbLine
 62
7
  6
CONTINUOUS
 10
-41.6092754875
 20
-14.5479889268
 11
-41.6143583369
 21
-14.5581577238
  0
LINE
  5
271
100
AcDbEntity
  8
0
100
AcDbLine
 62
7
  6
CONTINUOUS
 10
-41.6092754875
 20
-17.1479889268
 11
-41.6143583369
 21
-17.1581577238
  0
LINE
  5
272
100
AcDbEntity
  8
DRAFT
100
AcDbLine
 62
7
  6
CONTINUOUS
 10
-23.5200934315
 20
18.958563777
 11
-19.6883961166
 21
22.7902610919
  0
LINE
  5
273
100
AcDbEntity
  8
0
100
AcDbLine
 62
7
  6
CONTINUOUS
 10
-15.0907109488
 20
27.3873166388
 11
-16.5904153813
 21
25.8876122064
  0
LINE
  5
274
100
AcDbEntity
  8
DRAFT
100
AcDbLine
 62
7
  6
CONTINUOUS
 10
-23.4939108341
 20
18.94771859
 11
-19.6775509297
 21
22.7640784945
  0
LINE
  5
275
100
AcDbEntity
  8
0
100
AcDbLine
 62
7
  6
CONTINUOUS
 10
-16.5045572286
 20
25.8475758923
 11
-15.0538373132
 21
27.2982958077
  0
LINE
  5
276
100
AcDbEntity
  8
DRAFT
100
AcDbLine
 62
7
  6
CONTINUOUS
 10
-16.7256432565
 20
25.1471295595
 11
-16.6589722439
 21
25.2082222867
  0
LINE
  5
277
100
AcDbEntity
  8
DRAFT
100
AcDbLine
 62
7
  6
CONTINUOUS
 10
-16.7256432565
 20
-24.6748287782
 11
-16.6589722439
 21
-24.7359215055
  0
LINE
  5
278
100
AcDbEntity
  8
DRAFT
100
AcDbLine
 62
7
  6
CONTINUOUS
 10
-19.6883961166
 20
-22.3179603107
 11
-23.5200934315
 21
-18.4862629957
  0
LINE
  5
279
100
AcDbEntity
  8
0
100
AcDbLine
 62
7
  6
CONTINUOUS
 10
-16.5904153813
 20
-25.4153114251
 11
-15.0907109488
 21
-26.9150158576
  0
LINE
  5
27A
100
AcDbEntity
  8
DRAFT
100
AcDbLine
 62
7
  6
CONTINUOUS
 10
-19.6775509297
 20
-22.2917777133
 11
-23.4939108341
 21
-18.4754178088
  0
LINE
  5
27B
100
AcDbEntity
  8
0
100
AcDbLine
 62
7
  6
CONTINUOUS
 10
-15.0538373132
 20
-26.8259950264
 11
-16.5045572286
 21
-25.375275111
  0
LINE
  5
27C
100
AcDbEntity
  8
0
100
AcDbLine
 62
7
  6
CONTINUOUS
 10
-41.6092754875
 20
15.020289708
 11
-41.6143583369
 21
15.030458505
  0
LINE
  5
27D
100
AcDbEntity
  8
0
100
AcDbLine
 62
7
  6
CONTINUOUS
 10
-41.6092754875
 20
17.620289708
 11
-41.6143583369
 21
17.630458505
  0
LINE
  5
27E
100
AcDbEntity
  8
0
100
AcDbLine
 62
7
  6
CONTINUOUS
 10
-41.6092754875
 20
-19.7479889268
 11
-41.6143583369
 21
-19.7581577238
  0
LINE
  5
27F
100
AcDbEntity
  8
0
100
AcDbLine
 62
7
  6
CONTINUOUS
 10
-41.6388758117
 20
-20.8572076179
 11
-41.6143583369
 21
-20.8081577238
  0
LINE
  5
280
100
AcDbEntity
  8
DRAFT
100
AcDbLine
 62
7
  6
CONTINUOUS
 10
-14.7159827303
 20
24.2361503906
 11
-14.6880546264
 21
24.2640784945
  0
LINE
  5
281
100
AcDbEntity
  8
DRAFT
100
AcDbLine
 62
7
  6
CONTINUOUS
 10
-12.7159827303
 20
24.2361503906
 11
-12.6269618991
 21
24.3251712218
  0
LINE
  5
282
100
AcDbEntity
  8
DRAFT
100
AcDbLine
 62
7
  6
CONTINUOUS
 10
-12.7159827303
 20
22.7361503906
 11
-12.6269618991
 21
22.8251712218
  0
LINE
  5
283
100
AcDbEntity
  8
DRAFT
100
AcDbLine
 62
7
  6
CONTINUOUS
 10
-9.7439108341
 20
25.2082222867
 11
-9.7159827303
 21
25.2361503906
  0
LINE
  5
284
100
AcDbEntity
  8
0
100
AcDbLine
 62
250
  6
CONTINUOUS
 10
-7.9274082319
 20
25.8475758923
 11
-7.8415500793
 21
25.8876122064
  0
LINE
  5
285
100
AcDbEntity
  8
0
100
AcDbLine
 62
250
  6
CONTINUOUS
 10
-7.8406950657
 20
25.6616189072
 11
-7.754836913
 21
25.7016552213
  0
LINE
  5
286
100
AcDbEntity
  8
0
100
AcDbLine
 62
7
  6
CONTINUOUS
 10
-14.8786112232
 20
-27.0028704405
 11
-9.5533542374
 21
-27.0028704405
  0
LINE
  5
287
100
AcDbEntity
  8
0
100
AcDbLine
 62
7
  6
CONTINUOUS
 10
7.6213887768
 20
-27.0028704405
 11
12.9466457626
 21
-27.0028704405
  0
LINE
  5
288
100
AcDbEntity
  8
0
100
AcDbLine
 62
7
  6
CONTINUOUS
 10
12.909772127
 20
-26.9138496094
 11
7.6582624124
 21
-26.9138496094
  0
LINE
  5
289
100
AcDbEntity
  8
0
100
AcDbLine
 62
7
  6
CONTINUOUS
 10
-9.590227873
 20
-26.9138496094
 11
-14.8417375876
 21
-26.9138496094
  0
LINE
  5
28A
100
AcDbEntity
  8
DRAFT
100
AcDbLine
 62
7
  6
CONTINUOUS
 10
12.7840172697
 20
-24.7638496094
 11
7.7840172697
 21
-24.7638496094
  0
LINE
  5
28B
100
AcDbEntity
  8
DRAFT
100
AcDbLine
 62
7
  6
CONTINUOUS
 10
-9.7159827303
 20
-24.7638496094
 11
-14.7159827303
 21
-24.7638496094
  0
LINE
  5
28C
100
AcDbEntity
  8
DRAFT
100
AcDbLine
 62
7
  6
CONTINUOUS
 10
-16.6589722439
 20
-24.7359215055
 11
-14.6880546264
 21
-24.7359215055
  0
LINE
  5
28D
100
AcDbEntity
  8
DRAFT
100
AcDbLine
 62
7
  6
CONTINUOUS
 10
-9.7439108341
 20
-24.7359215055
 11
-7.7729932166
 21
-24.7359215055
  0
LINE
  5
28E
100
AcDbEntity
  8
DRAFT
100
AcDbLine
 62
7
  6
CONTINUOUS
 10
5.8410277561
 20
-24.7359215055
 11
7.8119453736
 21
-24.7359215055
  0
LINE
  5
28F
100
AcDbEntity
  8
DRAFT
100
AcDbLine
 62
7
  6
CONTINUOUS
 10
12.7560891659
 20
-24.7359215055
 11
14.7270067834
 21
-24.7359215055
  0
LINE
  5
290
100
AcDbEntity
  8
DRAFT
100
AcDbLine
 62
7
  6
CONTINUOUS
 10
-16.7256432565
 20
-24.6748287782
 11
-7.706322204
 21
-24.6748287782
  0
LINE
  5
291
100
AcDbEntity
  8
DRAFT
100
AcDbLine
 62
7
  6
CONTINUOUS
 10
5.7743567435
 20
-24.6748287782
 11
14.793677796
 21
-24.6748287782
  0
LINE
  5
292
100
AcDbEntity
  8
DRAFT
100
AcDbLine
 62
7
  6
CONTINUOUS
 10
14.8655898324
 20
-23.8528704405
 11
10.6949964386
 21
-23.8528704405
  0
LINE
  5
293
100
AcDbEntity
  8
DRAFT
100
AcDbLine
 62
7
  6
CONTINUOUS
 10
9.8730381009
 20
-23.8528704405
 11
5.702444707
 21
-23.8528704405
  0
LINE
  5
294
100
AcDbEntity
  8
DRAFT
100
AcDbLine
 62
7
  6
CONTINUOUS
 10
-7.6344101676
 20
-23.8528704405
 11
-11.8050035614
 21
-23.8528704405
  0
LINE
  5
295
100
AcDbEntity
  8
DRAFT
100
AcDbLine
 62
7
  6
CONTINUOUS
 10
-12.6269618991
 20
-23.8528704405
 11
-16.797555293
 21
-23.8528704405
  0
LINE
  5
296
100
AcDbEntity
  8
DRAFT
100
AcDbLine
 62
7
  6
CONTINUOUS
 10
14.809608662
 20
-23.7917777133
 11
12.7560891659
 21
-23.7917777133
  0
LINE
  5
297
100
AcDbEntity
  8
DRAFT
100
AcDbLine
 62
7
  6
CONTINUOUS
 10
7.8119453736
 20
-23.7917777133
 11
5.7584258775
 21
-23.7917777133
  0
LINE
  5
298
100
AcDbEntity
  8
DRAFT
100
AcDbLine
 62
7
  6
CONTINUOUS
 10
-7.690391338
 20
-23.7917777133
 11
-9.7439108341
 21
-23.7917777133
  0
LINE
  5
299
100
AcDbEntity
  8
DRAFT
100
AcDbLine
 62
7
  6
CONTINUOUS
 10
-14.6880546264
 20
-23.7917777133
 11
-16.7415741225
 21
-23.7917777133
  0
LINE
  5
29A
100
AcDbEntity
  8
DRAFT
100
AcDbLine
 62
7
  6
CONTINUOUS
 10
12.7840172697
 20
-23.7638496094
 11
10.7840172697
 21
-23.7638496094
  0
LINE
  5
29B
100
AcDbEntity
  8
DRAFT
100
AcDbLine
 62
7
  6
CONTINUOUS
 10
9.7840172697
 20
-23.7638496094
 11
7.7840172697
 21
-23.7638496094
  0
LINE
  5
29C
100
AcDbEntity
  8
DRAFT
100
AcDbLine
 62
7
  6
CONTINUOUS
 10
-9.7159827303
 20
-23.7638496094
 11
-11.7159827303
 21
-23.7638496094
  0
LINE
  5
29D
100
AcDbEntity
  8
DRAFT
100
AcDbLine
 62
7
  6
CONTINUOUS
 10
-12.7159827303
 20
-23.7638496094
 11
-14.7159827303
 21
-23.7638496094
  0
LINE
  5
29E
100
AcDbEntity
  8
0
100
AcDbLine
 62
250
  6
CONTINUOUS
 10
-7.8415500793
 20
-25.4153114251
 11
-7.9274082319
 21
-25.375275111
  0
LINE
  5
29F
100
AcDbEntity
  8
0
100
AcDbLine
 62
250
  6
CONTINUOUS
 10
-7.754836913
 20
-25.22935444
 11
-7.8406950657
 21
-25.1893181259
  0
LINE
  5
2A0
100
AcDbEntity
  8
DRAFT
100
AcDbLine
 62
7
  6
CONTINUOUS
 10
-14.6880546264
 20
-23.7917777133
 11
-14.7159827303
 21
-23.7638496094
  0
LINE
  5
2A1
100
AcDbEntity
  8
DRAFT
100
AcDbLine
 62
7
  6
CONTINUOUS
 10
-12.6269618991
 20
-23.8528704405
 11
-12.7159827303
 21
-23.7638496094
  0
LINE
  5
2A2
100
AcDbEntity
  8
DRAFT
100
AcDbLine
 62
7
  6
CONTINUOUS
 10
-12.7159827303
 20
-22.2638496094
 11
-12.6269618991
 21
-22.3528704405
  0
LINE
  5
2A3
100
AcDbEntity
  8
DRAFT
100
AcDbLine
 62
7
  6
CONTINUOUS
 10
-9.7159827303
 20
-24.7638496094
 11
-9.7439108341
 21
-24.7359215055
  0
LINE
  5
2A4
100
AcDbEntity
  8
0
100
AcDbLine
 62
7
  6
CONTINUOUS
 10
-41.6092754875
 20
20.220289708
 11
-41.6143583369
 21
20.230458505
  0
LINE
  5
2A5
100
AcDbEntity
  8
0
100
AcDbLine
 62
7
  6
CONTINUOUS
 10
-41.6388758117
 20
21.3295083992
 11
-41.6143583369
 21
21.280458505
  0
LINE
  5
2A6
100
AcDbEntity
  8
DRAFT
100
AcDbLine
 62
7
  6
CONTINUOUS
 10
-23.5550035614
 20
-22.3528704405
 11
-23.5550035614
 21
22.8251712218
  0
LINE
  5
2A7
100
AcDbEntity
  8
DRAFT
100
AcDbLine
 62
7
  6
CONTINUOUS
 10
-23.5200934315
 20
-22.3179603107
 11
-23.5200934315
 21
-18.4862629957
  0
LINE
  5
2A8
100
AcDbEntity
  8
DRAFT
100
AcDbLine
 62
7
  6
CONTINUOUS
 10
-23.5200934315
 20
18.958563777
 11
-23.5200934315
 21
22.7902610919
  0
LINE
  5
2A9
100
AcDbEntity
  8
DRAFT
100
AcDbLine
 62
7
  6
CONTINUOUS
 10
-23.4659827303
 20
-18.5033459127
 11
-23.4659827303
 21
18.9756466939
  0
LINE
  5
2AA
100
AcDbEntity
  8
DRAFT
100
AcDbLine
 62
7
  6
CONTINUOUS
 10
-7.6344101676
 20
24.3251712218
 11
-7.690391338
 21
24.2640784945
  0
LINE
  5
2AB
100
AcDbEntity
  8
DRAFT
100
AcDbLine
 62
7
  6
CONTINUOUS
 10
-7.5031771723
 20
22.8251712218
 11
-7.584749735
 21
22.7361503906
  0
LINE
  5
2AC
100
AcDbEntity
  8
0
100
AcDbLine
 62
7
  6
CONTINUOUS
 10
-40.2683638845
 20
-10.8162307636
 11
-40.2159827303
 21
-10.7638496094
  0
LINE
  5
2AD
100
AcDbEntity
  8
0
100
AcDbLine
 62
7
  6
CONTINUOUS
 10
38.4661449505
 20
-20.8817219286
 11
39.6823928763
 21
-20.8081577238
  0
LINE
  5
2AE
100
AcDbEntity
  8
0
100
AcDbLine
 62
7
  6
CONTINUOUS
 10
38.4661449505
 20
-19.8317219286
 11
39.6823928763
 21
-19.7581577238
  0
LINE
  5
2AF
100
AcDbEntity
  8
0
100
AcDbLine
 62
7
  6
CONTINUOUS
 10
39.6773100269
 20
-19.7479889268
 11
38.4772956248
 21
-19.8205712543
  0
LINE
  5
2B0
100
AcDbEntity
  8
0
100
AcDbLine
 62
7
  6
CONTINUOUS
 10
38.4661449505
 20
-17.2317219286
 11
39.6823928763
 21
-17.1581577238
  0
LINE
  5
2B1
100
AcDbEntity
  8
0
100
AcDbLine
 62
7
  6
CONTINUOUS
 10
39.6773100269
 20
-17.1479889268
 11
38.4772956248
 21
-17.2205712543
  0
LINE
  5
2B2
100
AcDbEntity
  8
0
100
AcDbLine
 62
7
  6
CONTINUOUS
 10
-42.7159827303
 20
-22.7638496094
 11
-40.2159827303
 21
-22.7638496094
  0
LINE
  5
2B3
100
AcDbEntity
  8
0
100
AcDbLine
 62
7
  6
CONTINUOUS
 10
38.2840172697
 20
-22.7638496094
 11
40.7840172697
 21
-22.7638496094
  0
LINE
  5
2B4
100
AcDbEntity
  8
0
100
AcDbLine
 62
7
  6
CONTINUOUS
 10
-42.663601576
 20
-22.7114684551
 11
-40.2683638845
 21
-22.7114684551
  0
LINE
  5
2B5
100
AcDbEntity
  8
0
100
AcDbLine
 62
7
  6
CONTINUOUS
 10
38.336398424
 20
-22.7114684551
 11
40.7316361155
 21
-22.7114684551
  0
LINE
  5
2B6
100
AcDbEntity
  8
DRAFT
100
AcDbLine
 62
7
  6
CONTINUOUS
 10
-23.5550035614
 20
-22.3528704405
 11
-16.9287882883
 21
-22.3528704405
  0
LINE
  5
2B7
100
AcDbEntity
  8
DRAFT
100
AcDbLine
 62
7
  6
CONTINUOUS
 10
-12.6269618991
 20
-22.3528704405
 11
-11.8050035614
 21
-22.3528704405
  0
LINE
  5
2B8
100
AcDbEntity
  8
DRAFT
100
AcDbLine
 62
7
  6
CONTINUOUS
 10
-7.5031771723
 20
-22.3528704405
 11
5.5712117117
 21
-22.3528704405
  0
LINE
  5
2B9
100
AcDbEntity
  8
DRAFT
100
AcDbLine
 62
7
  6
CONTINUOUS
 10
9.8730381009
 20
-22.3528704405
 11
10.6949964386
 21
-22.3528704405
  0
LINE
  5
2BA
100
AcDbEntity
  8
DRAFT
100
AcDbLine
 62
7
  6
CONTINUOUS
 10
14.9968228277
 20
-22.3528704405
 11
21.6230381009
 21
-22.3528704405
  0
LINE
  5
2BB
100
AcDbEntity
  8
DRAFT
100
AcDbLine
 62
7
  6
CONTINUOUS
 10
21.588127971
 20
-22.3179603107
 11
17.7564306561
 21
-22.3179603107
  0
LINE
  5
2BC
100
AcDbEntity
  8
DRAFT
100
AcDbLine
 62
7
  6
CONTINUOUS
 10
-19.6883961166
 20
-22.3179603107
 11
-23.5200934315
 21
-22.3179603107
  0
LINE
  5
2BD
100
AcDbEntity
  8
DRAFT
100
AcDbLine
 62
7
  6
CONTINUOUS
 10
-19.6950059946
 20
-22.2743226483
 11
-19.3485276653
 21
-22.2743226483
  0
LINE
  5
2BE
100
AcDbEntity
  8
DRAFT
100
AcDbLine
 62
7
  6
CONTINUOUS
 10
17.7630405341
 20
-22.2743226483
 11
17.4165622048
 21
-22.2743226483
  0
LINE
  5
2BF
100
AcDbEntity
  8
DRAFT
100
AcDbLine
 62
7
  6
CONTINUOUS
 10
0.0165622048
 20
-22.2743226483
 11
3.1514723347
 21
-22.2743226483
  0
LINE
  5
2C0
100
AcDbEntity
  8
DRAFT
100
AcDbLine
 62
7
  6
CONTINUOUS
 10
-1.9485276653
 20
-22.2743226483
 11
-5.0834377952
 21
-22.2743226483
  0
LINE
  5
2C1
100
AcDbEntity
  8
DRAFT
100
AcDbLine
 62
7
  6
CONTINUOUS
 10
17.4060891659
 20
-22.2638496094
 11
14.915250265
 21
-22.2638496094
  0
LINE
  5
2C2
100
AcDbEntity
  8
DRAFT
100
AcDbLine
 62
7
  6
CONTINUOUS
 10
12.7840172697
 20
-22.2638496094
 11
7.7840172697
 21
-22.2638496094
  0
LINE
  5
2C3
100
AcDbEntity
  8
DRAFT
100
AcDbLine
 62
7
  6
CONTINUOUS
 10
5.6527842744
 20
-22.2638496094
 11
3.1619453736
 21
-22.2638496094
  0
LINE
  5
2C4
100
AcDbEntity
  8
DRAFT
100
AcDbLine
 62
7
  6
CONTINUOUS
 10
0.0060891659
 20
-22.2638496094
 11
-1.9380546264
 21
-22.2638496094
  0
LINE
  5
2C5
100
AcDbEntity
  8
DRAFT
100
AcDbLine
 62
7
  6
CONTINUOUS
 10
-5.0939108341
 20
-22.2638496094
 11
-7.584749735
 21
-22.2638496094
  0
LINE
  5
2C6
100
AcDbEntity
  8
DRAFT
100
AcDbLine
 62
7
  6
CONTINUOUS
 10
-9.7159827303
 20
-22.2638496094
 11
-14.7159827303
 21
-22.2638496094
  0
LINE
  5
2C7
100
AcDbEntity
  8
DRAFT
100
AcDbLine
 62
7
  6
CONTINUOUS
 10
-16.8472157256
 20
-22.2638496094
 11
-19.3380546264
 21
-22.2638496094
  0
LINE
  5
2C8
100
AcDbEntity
  8
0
100
AcDbLine
 62
7
  6
CONTINUOUS
 10
-40.6390281165
 20
-21.7045023886
 11
-40.3870945008
 21
-21.7045023886
  0
LINE
  5
2C9
100
AcDbEntity
  8
0
100
AcDbLine
 62
7
  6
CONTINUOUS
 10
38.4551290402
 20
-21.7045023886
 11
38.707062656
 21
-21.7045023886
  0
LINE
  5
2CA
100
AcDbEntity
  8
0
100
AcDbLine
 62
7
  6
CONTINUOUS
 10
38.707062656
 20
-20.8927378389
 11
38.4551290402
 21
-20.8927378389
  0
LINE
  5
2CB
100
AcDbEntity
  8
0
100
AcDbLine
 62
7
  6
CONTINUOUS
 10
-40.3870945008
 20
-20.8927378389
 11
-40.6390281165
 21
-20.8927378389
  0
LINE
  5
2CC
100
AcDbEntity
  8
0
100
AcDbLine
 62
7
  6
CONTINUOUS
 10
-41.6143583369
 20
-20.8081577238
 11
-40.398110411
 21
-20.8817219286
  0
LINE
  5
2CD
100
AcDbEntity
  8
0
100
AcDbLine
 62
7
  6
CONTINUOUS
 10
-41.6143583369
 20
-19.7581577238
 11
-40.398110411
 21
-19.8317219286
  0
LINE
  5
2CE
100
AcDbEntity
  8
0
100
AcDbLine
 62
7
  6
CONTINUOUS
 10
-40.4092610854
 20
-19.8205712543
 11
-41.6092754875
 21
-19.7479889268
  0
LINE
  5
2CF
100
AcDbEntity
  8
0
100
AcDbLine
 62
7
  6
CONTINUOUS
 10
-41.6143583369
 20
-17.1581577238
 11
-40.398110411
 21
-17.2317219286
  0
LINE
  5
2D0
100
AcDbEntity
  8
0
100
AcDbLine
 62
7
  6
CONTINUOUS
 10
-40.4092610854
 20
-17.2205712543
 11
-41.6092754875
 21
-17.1479889268
  0
LINE
  5
2D1
100
AcDbEntity
  8
0
100
AcDbLine
 62
7
  6
CONTINUOUS
 10
-40.2683638845
 20
11.2885315449
 11
-40.2159827303
 21
11.2361503906
  0
LINE
  5
2D2
100
AcDbEntity
  8
DRAFT
100
AcDbLine
 62
7
  6
CONTINUOUS
 10
-7.6344101676
 20
-23.8528704405
 11
-7.690391338
 21
-23.7917777133
  0
LINE
  5
2D3
100
AcDbEntity
  8
DRAFT
100
AcDbLine
 62
7
  6
CONTINUOUS
 10
-7.584749735
 20
-22.2638496094
 11
-7.5031771723
 21
-22.3528704405
  0
LINE
  5
2D4
100
AcDbEntity
  8
DRAFT
100
AcDbLine
 62
7
  6
CONTINUOUS
 10
-16.9287882883
 20
-22.3528704405
 11
-16.797555293
 21
-23.8528704405
  0
LINE
  5
2D5
100
AcDbEntity
  8
0
100
AcDbLine
 62
7
  6
CONTINUOUS
 10
-16.7256432565
 20
-24.6748287782
 11
-16.6771285475
 21
-25.22935444
  0
LINE
  5
2D6
100
AcDbEntity
  8
0
100
AcDbLine
 62
7
  6
CONTINUOUS
 10
-16.8472157256
 20
-22.2638496094
 11
-16.7137522935
 21
-23.7893436186
  0
LINE
  5
2D7
100
AcDbEntity
  8
0
100
AcDbLine
 62
7
  6
CONTINUOUS
 10
-16.6311504149
 20
-24.7334874109
 11
-16.5912703949
 21
-25.1893181259
  0
LINE
  5
2D8
100
AcDbEntity
  8
0
100
AcDbLine
 62
7
  6
CONTINUOUS
 10
-16.6771285475
 20
25.7016552213
 11
-16.7256432565
 21
25.1471295595
  0
LINE
  5
2D9
100
AcDbEntity
  8
DRAFT
100
AcDbLine
 62
7
  6
CONTINUOUS
 10
-16.797555293
 20
24.3251712218
 11
-16.9287882883
 21
22.8251712218
  0
LINE
  5
2DA
100
AcDbEntity
  8
0
100
AcDbLine
 62
7
  6
CONTINUOUS
 10
-16.8472157256
 20
22.7361503906
 11
-16.7137522935
 21
24.2616443999
  0
LINE
  5
2DB
100
AcDbEntity
  8
0
100
AcDbLine
 62
7
  6
CONTINUOUS
 10
-16.6311504149
 20
25.2057881921
 11
-16.5912703949
 21
25.6616189072
  0
LINE
  5
2DC
100
AcDbEntity
  8
0
100
AcDbLine
 62
250
  6
CONTINUOUS
 10
-9.590227873
 20
27.3861503906
 11
-9.5533542374
 21
27.4751712218
  0
LINE
  5
2DD
100
AcDbEntity
  8
0
100
AcDbLine
 62
250
  6
CONTINUOUS
 10
-9.3781281473
 20
27.2982958077
 11
-9.3412545117
 21
27.3873166388
  0
LINE
  5
2DE
100
AcDbEntity
  8
DRAFT
100
AcDbLine
 62
7
  6
CONTINUOUS
 10
-5.0939108341
 20
22.7361503906
 11
-5.0834377952
 21
22.7466234296
  0
LINE
  5
2DF
100
AcDbEntity
  8
0
100
AcDbLine
 62
7
  6
CONTINUOUS
 10
-40.3870945008
 20
-12.6349613799
 11
-40.398110411
 21
-12.6459772902
  0
LINE
  5
2E0
100
AcDbEntity
  8
0
100
AcDbLine
 62
7
  6
CONTINUOUS
 10
-40.398110411
 20
-13.6959772902
 11
-40.4092610854
 21
-13.7071279645
  0
LINE
  5
2E1
100
AcDbEntity
  8
0
100
AcDbLine
 62
7
  6
CONTINUOUS
 10
-40.398110411
 20
-16.2959772902
 11
-40.4092610854
 21
-16.3071279645
  0
LINE
  5
2E2
100
AcDbEntity
  8
0
100
AcDbLine
 62
250
  6
CONTINUOUS
 10
14.5725917681
 20
25.8475758923
 11
14.6584499207
 21
25.8876122064
  0
LINE
  5
2E3
100
AcDbEntity
  8
0
100
AcDbLine
 62
250
  6
CONTINUOUS
 10
14.6593049343
 20
25.6616189072
 11
14.745163087
 21
25.7016552213
  0
LINE
  5
2E4
100
AcDbEntity
  8
0
100
AcDbLine
 62
7
  6
CONTINUOUS
 10
38.4661449505
 20
-14.6317219286
 11
39.6823928763
 21
-14.5581577238
  0
LINE
  5
2E5
100
AcDbEntity
  8
0
100
AcDbLine
 62
7
  6
CONTINUOUS
 10
39.6773100269
 20
-14.5479889268
 11
38.4772956248
 21
-14.6205712543
  0
LINE
  5
2E6
100
AcDbEntity
  8
0
100
AcDbLine
 62
7
  6
CONTINUOUS
 10
-41.6092754875
 20
-18.979710292
 11
-40.4092610854
 21
-18.9071279645
  0
LINE
  5
2E7
100
AcDbEntity
  8
0
100
AcDbLine
 62
7
  6
CONTINUOUS
 10
-41.6143583369
 20
-18.969541495
 11
-40.398110411
 21
-18.8959772902
  0
LINE
  5
2E8
100
AcDbEntity
  8
0
100
AcDbLine
 62
7
  6
CONTINUOUS
 10
-41.6143583369
 20
-14.5581577238
 11
-40.398110411
 21
-14.6317219286
  0
LINE
  5
2E9
100
AcDbEntity
  8
0
100
AcDbLine
 62
7
  6
CONTINUOUS
 10
-40.4092610854
 20
-14.6205712543
 11
-41.6092754875
 21
-14.5479889268
  0
LINE
  5
2EA
100
AcDbEntity
  8
0
100
AcDbLine
 62
7
  6
CONTINUOUS
 10
38.4772956248
 20
-18.9071279645
 11
39.6773100269
 21
-18.979710292
  0
LINE
  5
2EB
100
AcDbEntity
  8
0
100
AcDbLine
 62
7
  6
CONTINUOUS
 10
38.4661449505
 20
-18.8959772902
 11
39.6823928763
 21
-18.969541495
  0
LINE
  5
2EC
100
AcDbEntity
  8
0
100
AcDbLine
 62
250
  6
CONTINUOUS
 10
14.6584499207
 20
-25.4153114251
 11
14.5725917681
 21
-25.375275111
  0
LINE
  5
2ED
100
AcDbEntity
  8
0
100
AcDbLine
 62
250
  6
CONTINUOUS
 10
14.745163087
 20
-25.22935444
 11
14.6593049343
 21
-25.1893181259
  0
LINE
  5
2EE
100
AcDbEntity
  8
DRAFT
100
AcDbLine
 62
7
  6
CONTINUOUS
 10
-5.0939108341
 20
-22.2638496094
 11
-5.0834377952
 21
-22.2743226483
  0
LINE
  5
2EF
100
AcDbEntity
  8
0
100
AcDbLine
 62
7
  6
CONTINUOUS
 10
-40.3870945008
 20
13.1072621611
 11
-40.398110411
 21
13.1182780714
  0
LINE
  5
2F0
100
AcDbEntity
  8
0
100
AcDbLine
 62
7
  6
CONTINUOUS
 10
-40.398110411
 20
14.1682780714
 11
-40.4092610854
 21
14.1794287457
  0
LINE
  5
2F1
100
AcDbEntity
  8
0
100
AcDbLine
 62
7
  6
CONTINUOUS
 10
-40.398110411
 20
16.7682780714
 11
-40.4092610854
 21
16.7794287457
  0
LINE
  5
2F2
100
AcDbEntity
  8
0
100
AcDbLine
 62
250
  6
CONTINUOUS
 10
-9.590227873
 20
-26.9138496094
 11
-9.5533542374
 21
-27.0028704405
  0
LINE
  5
2F3
100
AcDbEntity
  8
0
100
AcDbLine
 62
250
  6
CONTINUOUS
 10
-9.3781281473
 20
-26.8259950264
 11
-9.3412545117
 21
-26.9150158576
  0
LINE
  5
2F4
100
AcDbEntity
  8
DRAFT
100
AcDbLine
 62
7
  6
CONTINUOUS
 10
-14.7159827303
 20
-24.7638496094
 11
-14.7159827303
 21
-24.7359215055
  0
LINE
  5
2F5
100
AcDbEntity
  8
DRAFT
100
AcDbLine
 62
7
  6
CONTINUOUS
 10
-14.7159827303
 20
-23.7917777133
 11
-14.7159827303
 21
-22.2638496094
  0
LINE
  5
2F6
100
AcDbEntity
  8
DRAFT
100
AcDbLine
 62
7
  6
CONTINUOUS
 10
-14.7159827303
 20
22.7361503906
 11
-14.7159827303
 21
24.2640784945
  0
LINE
  5
2F7
100
AcDbEntity
  8
DRAFT
100
AcDbLine
 62
7
  6
CONTINUOUS
 10
-14.7159827303
 20
25.2082222867
 11
-14.7159827303
 21
25.2361503906
  0
LINE
  5
2F8
100
AcDbEntity
  8
DRAFT
100
AcDbLine
 62
7
  6
CONTINUOUS
 10
-12.7159827303
 20
-23.7638496094
 11
-12.7159827303
 21
-22.2638496094
  0
LINE
  5
2F9
100
AcDbEntity
  8
DRAFT
100
AcDbLine
 62
7
  6
CONTINUOUS
 10
-12.7159827303
 20
22.7361503906
 11
-12.7159827303
 21
24.2361503906
  0
LINE
  5
2FA
100
AcDbEntity
  8
DRAFT
100
AcDbLine
 62
7
  6
CONTINUOUS
 10
-12.6269618991
 20
-22.3528704405
 11
-12.6269618991
 21
-23.8528704405
  0
LINE
  5
2FB
100
AcDbEntity
  8
DRAFT
100
AcDbLine
 62
7
  6
CONTINUOUS
 10
-12.6269618991
 20
22.8251712218
 11
-12.6269618991
 21
24.3251712218
  0
LINE
  5
2FC
100
AcDbEntity
  8
DRAFT
100
AcDbLine
 62
7
  6
CONTINUOUS
 10
0.0060891659
 20
22.7361503906
 11
0.0165622048
 21
22.7466234296
  0
LINE
  5
2FD
100
AcDbEntity
  8
0
100
AcDbLine
 62
7
  6
CONTINUOUS
 10
-40.398110411
 20
-18.8959772902
 11
-40.4092610854
 21
-18.9071279645
  0
LINE
  5
2FE
100
AcDbEntity
  8
0
100
AcDbLine
 62
7
  6
CONTINUOUS
 10
7.4092890512
 20
27.3873166388
 11
5.9095846187
 21
25.8876122064
  0
LINE
  5
2FF
100
AcDbEntity
  8
0
100
AcDbLine
 62
7
  6
CONTINUOUS
 10
-42.663601576
 20
-22.7114684551
 11
-42.7159827303
 21
-22.7638496094
  0
LINE
  5
300
100
AcDbEntity
  8
0
100
AcDbLine
 62
7
  6
CONTINUOUS
 10
5.9954427714
 20
25.8475758923
 11
7.4461626868
 21
27.2982958077
  0
LINE
  5
301
100
AcDbEntity
  8
DRAFT
100
AcDbLine
 62
7
  6
CONTINUOUS
 10
5.7743567435
 20
25.1471295595
 11
5.8410277561
 21
25.2082222867
  0
LINE
  5
302
100
AcDbEntity
  8
0
100
AcDbLine
 62
7
  6
CONTINUOUS
 10
-41.6092754875
 20
-16.379710292
 11
-40.4092610854
 21
-16.3071279645
  0
LINE
  5
303
100
AcDbEntity
  8
0
100
AcDbLine
 62
7
  6
CONTINUOUS
 10
-41.6143583369
 20
-16.369541495
 11
-40.398110411
 21
-16.2959772902
  0
LINE
  5
304
100
AcDbEntity
  8
0
100
AcDbLine
 62
7
  6
CONTINUOUS
 10
-40.6390281165
 20
-12.6349613799
 11
-40.3870945008
 21
-12.6349613799
  0
LINE
  5
305
100
AcDbEntity
  8
0
100
AcDbLine
 62
7
  6
CONTINUOUS
 10
38.4551290402
 20
-12.6349613799
 11
38.707062656
 21
-12.6349613799
  0
LINE
  5
306
100
AcDbEntity
  8
0
100
AcDbLine
 62
7
  6
CONTINUOUS
 10
38.707062656
 20
-11.8231968301
 11
38.4551290402
 21
-11.8231968301
  0
LINE
  5
307
100
AcDbEntity
  8
0
100
AcDbLine
 62
7
  6
CONTINUOUS
 10
-40.3870945008
 20
-11.8231968301
 11
-40.6390281165
 21
-11.8231968301
  0
LINE
  5
308
100
AcDbEntity
  8
0
100
AcDbLine
 62
7
  6
CONTINUOUS
 10
38.4772956248
 20
-16.3071279645
 11
39.6773100269
 21
-16.379710292
  0
LINE
  5
309
100
AcDbEntity
  8
0
100
AcDbLine
 62
7
  6
CONTINUOUS
 10
38.4661449505
 20
-16.2959772902
 11
39.6823928763
 21
-16.369541495
  0
LINE
  5
30A
100
AcDbEntity
  8
DRAFT
100
AcDbLine
 62
7
  6
CONTINUOUS
 10
5.7743567435
 20
-24.6748287782
 11
5.8410277561
 21
-24.7359215055
  0
LINE
  5
30B
100
AcDbEntity
  8
DRAFT
100
AcDbLine
 62
7
  6
CONTINUOUS
 10
0.0060891659
 20
-22.2638496094
 11
0.0165622048
 21
-22.2743226483
  0
LINE
  5
30C
100
AcDbEntity
  8
0
100
AcDbLine
 62
7
  6
CONTINUOUS
 10
-40.398110411
 20
19.3682780714
 11
-40.4092610854
 21
19.3794287457
  0
LINE
  5
30D
100
AcDbEntity
  8
0
100
AcDbLine
 62
7
  6
CONTINUOUS
 10
5.9095846187
 20
-25.4153114251
 11
7.4092890512
 21
-26.9150158576
  0
LINE
  5
30E
100
AcDbEntity
  8
0
100
AcDbLine
 62
7
  6
CONTINUOUS
 10
-42.663601576
 20
23.1837692364
 11
-42.7159827303
 21
23.2361503906
  0
LINE
  5
30F
100
AcDbEntity
  8
0
100
AcDbLine
 62
7
  6
CONTINUOUS
 10
7.4461626868
 20
-26.8259950264
 11
5.9954427714
 21
-25.375275111
  0
LINE
  5
310
100
AcDbEntity
  8
DRAFT
100
AcDbLine
 62
7
  6
CONTINUOUS
 10
-11.8050035614
 20
-22.3528704405
 11
-11.8050035614
 21
-23.8528704405
  0
LINE
  5
311
100
AcDbEntity
  8
DRAFT
100
AcDbLine
 62
7
  6
CONTINUOUS
 10
-11.8050035614
 20
22.8251712218
 11
-11.8050035614
 21
24.3251712218
  0
LINE
  5
312
100
AcDbEntity
  8
DRAFT
100
AcDbLine
 62
7
  6
CONTINUOUS
 10
-11.7159827303
 20
-23.7638496094
 11
-11.7159827303
 21
-22.2638496094
  0
LINE
  5
313
100
AcDbEntity
  8
DRAFT
100
AcDbLine
 62
7
  6
CONTINUOUS
 10
-11.7159827303
 20
22.7361503906
 11
-11.7159827303
 21
24.2361503906
  0
LINE
  5
314
100
AcDbEntity
  8
DRAFT
100
AcDbLine
 62
7
  6
CONTINUOUS
 10
-9.7159827303
 20
-24.7638496094
 11
-9.7159827303
 21
-24.7359215055
  0
LINE
  5
315
100
AcDbEntity
  8
DRAFT
100
AcDbLine
 62
7
  6
CONTINUOUS
 10
-9.7159827303
 20
-23.7917777133
 11
-9.7159827303
 21
-22.2638496094
  0
LINE
  5
316
100
AcDbEntity
  8
DRAFT
100
AcDbLine
 62
7
  6
CONTINUOUS
 10
-9.7159827303
 20
22.7361503906
 11
-9.7159827303
 21
24.2640784945
  0
LINE
  5
317
100
AcDbEntity
  8
DRAFT
100
AcDbLine
 62
7
  6
CONTINUOUS
 10
-9.7159827303
 20
25.2082222867
 11
-9.7159827303
 21
25.2361503906
  0
LINE
  5
318
100
AcDbEntity
  8
DRAFT
100
AcDbLine
 62
7
  6
CONTINUOUS
 10
-19.6775509297
 20
-22.2917777133
 11
-19.6883961166
 21
-22.3179603107
  0
LINE
  5
319
100
AcDbEntity
  8
DRAFT
100
AcDbLine
 62
7
  6
CONTINUOUS
 10
7.7840172697
 20
24.2361503906
 11
7.8119453736
 21
24.2640784945
  0
LINE
  5
31A
100
AcDbEntity
  8
DRAFT
100
AcDbLine
 62
7
  6
CONTINUOUS
 10
9.7840172697
 20
24.2361503906
 11
9.8730381009
 21
24.3251712218
  0
LINE
  5
31B
100
AcDbEntity
  8
DRAFT
100
AcDbLine
 62
7
  6
CONTINUOUS
 10
9.7840172697
 20
22.7361503906
 11
9.8730381009
 21
22.8251712218
  0
LINE
  5
31C
100
AcDbEntity
  8
DRAFT
100
AcDbLine
 62
7
  6
CONTINUOUS
 10
12.7560891659
 20
25.2082222867
 11
12.7840172697
 21
25.2361503906
  0
LINE
  5
31D
100
AcDbEntity
  8
DRAFT
100
AcDbLine
 62
7
  6
CONTINUOUS
 10
21.5619453736
 20
18.94771859
 11
21.588127971
 21
18.958563777
  0
LINE
  5
31E
100
AcDbEntity
  8
0
100
AcDbLine
 62
7
  6
CONTINUOUS
 10
-41.6092754875
 20
-13.779710292
 11
-40.4092610854
 21
-13.7071279645
  0
LINE
  5
31F
100
AcDbEntity
  8
0
100
AcDbLine
 62
7
  6
CONTINUOUS
 10
-41.6143583369
 20
-13.769541495
 11
-40.398110411
 21
-13.6959772902
  0
LINE
  5
320
100
AcDbEntity
  8
0
100
AcDbLine
 62
7
  6
CONTINUOUS
 10
-41.6143583369
 20
-12.719541495
 11
-40.398110411
 21
-12.6459772902
  0
LINE
  5
321
100
AcDbEntity
  8
0
100
AcDbLine
 62
7
  6
CONTINUOUS
 10
40.7316361155
 20
-10.8162307636
 11
38.336398424
 21
-10.8162307636
  0
LINE
  5
322
100
AcDbEntity
  8
0
100
AcDbLine
 62
7
  6
CONTINUOUS
 10
-40.2683638845
 20
-10.8162307636
 11
-42.663601576
 21
-10.8162307636
  0
LINE
  5
323
100
AcDbEntity
  8
0
100
AcDbLine
 62
7
  6
CONTINUOUS
 10
40.7840172697
 20
-10.7638496094
 11
38.2840172697
 21
-10.7638496094
  0
LINE
  5
324
100
AcDbEntity
  8
0
100
AcDbLine
 62
7
  6
CONTINUOUS
 10
-40.2159827303
 20
-10.7638496094
 11
-42.7159827303
 21
-10.7638496094
  0
LINE
  5
325
100
AcDbEntity
  8
0
100
AcDbLine
 62
7
  6
CONTINUOUS
 10
38.4772956248
 20
-13.7071279645
 11
39.6773100269
 21
-13.779710292
  0
LINE
  5
326
100
AcDbEntity
  8
0
100
AcDbLine
 62
7
  6
CONTINUOUS
 10
38.4661449505
 20
-13.6959772902
 11
39.6823928763
 21
-13.769541495
  0
LINE
  5
327
100
AcDbEntity
  8
0
100
AcDbLine
 62
7
  6
CONTINUOUS
 10
38.4661449505
 20
-12.6459772902
 11
39.6823928763
 21
-12.719541495
  0
LINE
  5
328
100
AcDbEntity
  8
DRAFT
100
AcDbLine
 62
7
  6
CONTINUOUS
 10
21.5619453736
 20
-18.4754178088
 11
21.588127971
 21
-18.4862629957
  0
LINE
  5
329
100
AcDbEntity
  8
DRAFT
100
AcDbLine
 62
7
  6
CONTINUOUS
 10
7.8119453736
 20
-23.7917777133
 11
7.7840172697
 21
-23.7638496094
  0
LINE
  5
32A
100
AcDbEntity
  8
DRAFT
100
AcDbLine
 62
7
  6
CONTINUOUS
 10
9.8730381009
 20
-23.8528704405
 11
9.7840172697
 21
-23.7638496094
  0
LINE
  5
32B
100
AcDbEntity
  8
DRAFT
100
AcDbLine
 62
7
  6
CONTINUOUS
 10
9.7840172697
 20
-22.2638496094
 11
9.8730381009
 21
-22.3528704405
  0
LINE
  5
32C
100
AcDbEntity
  8
DRAFT
100
AcDbLine
 62
7
  6
CONTINUOUS
 10
12.7840172697
 20
-24.7638496094
 11
12.7560891659
 21
-24.7359215055
  0
LINE
  5
32D
100
AcDbEntity
  8
DRAFT
100
AcDbLine
 62
7
  6
CONTINUOUS
 10
-19.6775509297
 20
22.7640784945
 11
-19.6883961166
 21
22.7902610919
  0
LINE
  5
32E
100
AcDbEntity
  8
0
100
AcDbLine
 62
7
  6
CONTINUOUS
 10
-7.584749735
 20
22.7361503906
 11
-7.7182131671
 21
24.2616443999
  0
LINE
  5
32F
100
AcDbEntity
  8
0
100
AcDbLine
 62
7
  6
CONTINUOUS
 10
-7.8008150456
 20
25.2057881921
 11
-7.8406950657
 21
25.6616189072
  0
LINE
  5
330
100
AcDbEntity
  8
DRAFT
100
AcDbLine
 62
7
  6
CONTINUOUS
 10
-7.5031771723
 20
22.8251712218
 11
-7.6344101676
 21
24.3251712218
  0
LINE
  5
331
100
AcDbEntity
  8
0
100
AcDbLine
 62
7
  6
CONTINUOUS
 10
-7.706322204
 20
25.1471295595
 11
-7.754836913
 21
25.7016552213
  0
LINE
  5
332
100
AcDbEntity
  8
0
100
AcDbLine
 62
7
  6
CONTINUOUS
 10
-7.584749735
 20
-22.2638496094
 11
-7.7182131671
 21
-23.7893436186
  0
LINE
  5
333
100
AcDbEntity
  8
0
100
AcDbLine
 62
7
  6
CONTINUOUS
 10
-7.8008150456
 20
-24.7334874109
 11
-7.8406950657
 21
-25.1893181259
  0
LINE
  5
334
100
AcDbEntity
  8
0
100
AcDbLine
 62
7
  6
CONTINUOUS
 10
-7.754836913
 20
-25.22935444
 11
-7.706322204
 21
-24.6748287782
  0
LINE
  5
335
100
AcDbEntity
  8
DRAFT
100
AcDbLine
 62
7
  6
CONTINUOUS
 10
-7.6344101676
 20
-23.8528704405
 11
-7.5031771723
 21
-22.3528704405
  0
LINE
  5
336
100
AcDbEntity
  8
DRAFT
100
AcDbLine
 62
7
  6
CONTINUOUS
 10
14.8655898324
 20
24.3251712218
 11
14.809608662
 21
24.2640784945
  0
LINE
  5
337
100
AcDbEntity
  8
0
100
AcDbLine
 62
7
  6
CONTINUOUS
 10
-40.3870945008
 20
-11.8231968301
 11
-40.2786572799
 21
-11.768994739
  0
LINE
  5
338
100
AcDbEntity
  8
0
100
AcDbLine
 62
7
  6
CONTINUOUS
 10
-40.3870945008
 20
12.2954976114
 11
-40.2786572799
 21
12.2412955202
  0
LINE
  5
339
100
AcDbEntity
  8
DRAFT
100
AcDbLine
 62
7
  6
CONTINUOUS
 10
14.8655898324
 20
-23.8528704405
 11
14.809608662
 21
-23.7917777133
  0
LINE
  5
33A
100
AcDbEntity
  8
0
100
AcDbLine
 62
250
  6
CONTINUOUS
 10
-15.0538373132
 20
-26.8259950264
 11
-15.0907109488
 21
-26.9150158576
  0
LINE
  5
33B
100
AcDbEntity
  8
0
100
AcDbLine
 62
250
  6
CONTINUOUS
 10
-14.8417375876
 20
-26.9138496094
 11
-14.8786112232
 21
-27.0028704405
  0
LINE
  5
33C
100
AcDbEntity
  8
DRAFT
100
AcDbLine
 62
7
  6
CONTINUOUS
 10
14.9968228277
 20
22.8251712218
 11
14.915250265
 21
22.7361503906
  0
LINE
  5
33D
100
AcDbEntity
  8
DRAFT
100
AcDbLine
 62
7
  6
CONTINUOUS
 10
17.4060891659
 20
22.7361503906
 11
17.4165622048
 21
22.7466234296
  0
LINE
  5
33E
100
AcDbEntity
  8
DRAFT
100
AcDbLine
 62
7
  6
CONTINUOUS
 10
-23.5200934315
 20
-22.3179603107
 11
-23.5550035614
 21
-22.3528704405
  0
LINE
  5
33F
100
AcDbEntity
  8
DRAFT
100
AcDbLine
 62
7
  6
CONTINUOUS
 10
21.588127971
 20
22.7902610919
 11
21.6230381009
 21
22.8251712218
  0
LINE
  5
340
100
AcDbEntity
  8
DRAFT
100
AcDbLine
 62
7
  6
CONTINUOUS
 10
17.4060891659
 20
-22.2638496094
 11
17.4165622048
 21
-22.2743226483
  0
LINE
  5
341
100
AcDbEntity
  8
DRAFT
100
AcDbLine
 62
7
  6
CONTINUOUS
 10
21.588127971
 20
-22.3179603107
 11
21.6230381009
 21
-22.3528704405
  0
LINE
  5
342
100
AcDbEntity
  8
DRAFT
100
AcDbLine
 62
7
  6
CONTINUOUS
 10
-23.5200934315
 20
22.7902610919
 11
-23.5550035614
 21
22.8251712218
  0
LINE
  5
343
100
AcDbEntity
  8
DRAFT
100
AcDbLine
 62
7
  6
CONTINUOUS
 10
14.915250265
 20
-22.2638496094
 11
14.9968228277
 21
-22.3528704405
  0
LINE
  5
344
100
AcDbEntity
  8
0
100
AcDbLine
 62
250
  6
CONTINUOUS
 10
-15.0538373132
 20
27.2982958077
 11
-15.0907109488
 21
27.3873166388
  0
LINE
  5
345
100
AcDbEntity
  8
0
100
AcDbLine
 62
250
  6
CONTINUOUS
 10
-14.8417375876
 20
27.3861503906
 11
-14.8786112232
 21
27.4751712218
  0
LINE
  5
346
100
AcDbEntity
  8
DRAFT
100
AcDbLine
 62
7
  6
CONTINUOUS
 10
5.5712117117
 20
-22.3528704405
 11
5.702444707
 21
-23.8528704405
  0
LINE
  5
347
100
AcDbEntity
  8
0
100
AcDbLine
 62
7
  6
CONTINUOUS
 10
5.7743567435
 20
-24.6748287782
 11
5.8228714525
 21
-25.22935444
  0
LINE
  5
348
100
AcDbEntity
  8
0
100
AcDbLine
 62
7
  6
CONTINUOUS
 10
5.8228714525
 20
25.7016552213
 11
5.7743567435
 21
25.1471295595
  0
LINE
  5
349
100
AcDbEntity
  8
DRAFT
100
AcDbLine
 62
7
  6
CONTINUOUS
 10
5.702444707
 20
24.3251712218
 11
5.5712117117
 21
22.8251712218
  0
LINE
  5
34A
100
AcDbEntity
  8
0
100
AcDbLine
 62
250
  6
CONTINUOUS
 10
12.909772127
 20
27.3861503906
 11
12.9466457626
 21
27.4751712218
  0
LINE
  5
34B
100
AcDbEntity
  8
0
100
AcDbLine
 62
250
  6
CONTINUOUS
 10
13.1218718527
 20
27.2982958077
 11
13.1587454883
 21
27.3873166388
  0
LINE
  5
34C
100
AcDbEntity
  8
DRAFT
100
AcDbLine
 62
7
  6
CONTINUOUS
 10
-16.9287882883
 20
-22.3528704405
 11
-16.8472157256
 21
-22.2638496094
  0
LINE
  5
34D
100
AcDbEntity
  8
DRAFT
100
AcDbLine
 62
7
  6
CONTINUOUS
 10
-16.797555293
 20
-23.8528704405
 11
-16.7415741225
 21
-23.7917777133
  0
LINE
  5
34E
100
AcDbEntity
  8
DRAFT
100
AcDbLine
 62
7
  6
CONTINUOUS
 10
-19.3380546264
 20
-22.2638496094
 11
-19.3485276653
 21
-22.2743226483
  0
LINE
  5
34F
100
AcDbEntity
  8
DRAFT
100
AcDbLine
 62
7
  6
CONTINUOUS
 10
-19.3380546264
 20
22.7361503906
 11
-19.3485276653
 21
22.7466234296
  0
LINE
  5
350
100
AcDbEntity
  8
DRAFT
100
AcDbLine
 62
7
  6
CONTINUOUS
 10
-16.8472157256
 20
22.7361503906
 11
-16.9287882883
 21
22.8251712218
  0
LINE
  5
351
100
AcDbEntity
  8
DRAFT
100
AcDbLine
 62
7
  6
CONTINUOUS
 10
-16.797555293
 20
24.3251712218
 11
-16.7415741225
 21
24.2640784945
  0
LINE
  5
352
100
AcDbEntity
  8
0
100
AcDbLine
 62
250
  6
CONTINUOUS
 10
12.909772127
 20
-26.9138496094
 11
12.9466457626
 21
-27.0028704405
  0
LINE
  5
353
100
AcDbEntity
  8
0
100
AcDbLine
 62
250
  6
CONTINUOUS
 10
13.1218718527
 20
-26.8259950264
 11
13.1587454883
 21
-26.9150158576
  0
LINE
  5
354
100
AcDbEntity
  8
0
100
AcDbLine
 62
7
  6
CONTINUOUS
 10
5.6527842744
 20
-22.2638496094
 11
5.7862477065
 21
-23.7893436186
  0
LINE
  5
355
100
AcDbEntity
  8
0
100
AcDbLine
 62
7
  6
CONTINUOUS
 10
5.8688495851
 20
-24.7334874109
 11
5.9087296051
 21
-25.1893181259
  0
LINE
  5
356
100
AcDbEntity
  8
0
100
AcDbLine
 62
7
  6
CONTINUOUS
 10
5.6527842744
 20
22.7361503906
 11
5.7862477065
 21
24.2616443999
  0
LINE
  5
357
100
AcDbEntity
  8
0
100
AcDbLine
 62
7
  6
CONTINUOUS
 10
5.8688495851
 20
25.2057881921
 11
5.9087296051
 21
25.6616189072
  0
LINE
  5
358
100
AcDbEntity
  8
DRAFT
100
AcDbLine
 62
7
  6
CONTINUOUS
 10
17.7455854691
 20
22.7640784945
 11
17.7564306561
 21
22.7902610919
  0
LINE
  5
359
100
AcDbEntity
  8
DRAFT
100
AcDbLine
 62
7
  6
CONTINUOUS
 10
-14.7159827303
 20
-24.7638496094
 11
-14.6880546264
 21
-24.7359215055
  0
LINE
  5
35A
100
AcDbEntity
  8
DRAFT
100
AcDbLine
 62
7
  6
CONTINUOUS
 10
-11.8050035614
 20
-22.3528704405
 11
-11.7159827303
 21
-22.2638496094
  0
LINE
  5
35B
100
AcDbEntity
  8
0
100
AcDbLine
 62
7
  6
CONTINUOUS
 10
38.3466918194
 20
12.2412955202
 11
38.4551290402
 21
12.2954976114
  0
LINE
  5
35C
100
AcDbEntity
  8
DRAFT
100
AcDbLine
 62
7
  6
CONTINUOUS
 10
-23.4939108341
 20
-18.4754178088
 11
-23.5200934315
 21
-18.4862629957
  0
LINE
  5
35D
100
AcDbEntity
  8
DRAFT
100
AcDbLine
 62
7
  6
CONTINUOUS
 10
-23.4939108341
 20
18.94771859
 11
-23.5200934315
 21
18.958563777
  0
LINE
  5
35E
100
AcDbEntity
  8
0
100
AcDbLine
 62
7
  6
CONTINUOUS
 10
38.3466918194
 20
-11.768994739
 11
38.4551290402
 21
-11.8231968301
  0
LINE
  5
35F
100
AcDbEntity
  8
DRAFT
100
AcDbLine
 62
7
  6
CONTINUOUS
 10
-14.6880546264
 20
25.2082222867
 11
-14.7159827303
 21
25.2361503906
  0
LINE
  5
360
100
AcDbEntity
  8
DRAFT
100
AcDbLine
 62
7
  6
CONTINUOUS
 10
-11.8050035614
 20
22.8251712218
 11
-11.7159827303
 21
22.7361503906
  0
LINE
  5
361
100
AcDbEntity
  8
DRAFT
100
AcDbLine
 62
7
  6
CONTINUOUS
 10
17.7455854691
 20
-22.2917777133
 11
17.7564306561
 21
-22.3179603107
  0
LINE
  5
362
100
AcDbEntity
  8
DRAFT
100
AcDbLine
 62
7
  6
CONTINUOUS
 10
7.7840172697
 20
-24.7638496094
 11
7.7840172697
 21
-24.7359215055
  0
LINE
  5
363
100
AcDbEntity
  8
DRAFT
100
AcDbLine
 62
7
  6
CONTINUOUS
 10
7.7840172697
 20
-23.7917777133
 11
7.7840172697
 21
-22.2638496094
  0
LINE
  5
364
100
AcDbEntity
  8
DRAFT
100
AcDbLine
 62
7
  6
CONTINUOUS
 10
7.7840172697
 20
22.7361503906
 11
7.7840172697
 21
24.2640784945
  0
LINE
  5
365
100
AcDbEntity
  8
DRAFT
100
AcDbLine
 62
7
  6
CONTINUOUS
 10
7.7840172697
 20
25.2082222867
 11
7.7840172697
 21
25.2361503906
  0
LINE
  5
366
100
AcDbEntity
  8
DRAFT
100
AcDbLine
 62
7
  6
CONTINUOUS
 10
9.7840172697
 20
-23.7638496094
 11
9.7840172697
 21
-22.2638496094
  0
LINE
  5
367
100
AcDbEntity
  8
DRAFT
100
AcDbLine
 62
7
  6
CONTINUOUS
 10
9.7840172697
 20
22.7361503906
 11
9.7840172697
 21
24.2361503906
  0
LINE
  5
368
100
AcDbEntity
  8
DRAFT
100
AcDbLine
 62
7
  6
CONTINUOUS
 10
9.8730381009
 20
-22.3528704405
 11
9.8730381009
 21
-23.8528704405
  0
LINE
  5
369
100
AcDbEntity
  8
DRAFT
100
AcDbLine
 62
7
  6
CONTINUOUS
 10
9.8730381009
 20
22.8251712218
 11
9.8730381009
 21
24.3251712218
  0
LINE
  5
36A
100
AcDbEntity
  8
DRAFT
100
AcDbLine
 62
7
  6
CONTINUOUS
 10
10.6949964386
 20
-22.3528704405
 11
10.6949964386
 21
-23.8528704405
  0
LINE
  5
36B
100
AcDbEntity
  8
DRAFT
100
AcDbLine
 62
7
  6
CONTINUOUS
 10
10.6949964386
 20
22.8251712218
 11
10.6949964386
 21
24.3251712218
  0
LINE
  5
36C
100
AcDbEntity
  8
DRAFT
100
AcDbLine
 62
7
  6
CONTINUOUS
 10
10.7840172697
 20
-23.7638496094
 11
10.7840172697
 21
-22.2638496094
  0
LINE
  5
36D
100
AcDbEntity
  8
DRAFT
100
AcDbLine
 62
7
  6
CONTINUOUS
 10
10.7840172697
 20
22.7361503906
 11
10.7840172697
 21
24.2361503906
  0
LINE
  5
36E
100
AcDbEntity
  8
DRAFT
100
AcDbLine
 62
7
  6
CONTINUOUS
 10
-11.8050035614
 20
-23.8528704405
 11
-11.7159827303
 21
-23.7638496094
  0
LINE
  5
36F
100
AcDbEntity
  8
DRAFT
100
AcDbLine
 62
7
  6
CONTINUOUS
 10
-9.7439108341
 20
-23.7917777133
 11
-9.7159827303
 21
-23.7638496094
  0
LINE
  5
370
100
AcDbEntity
  8
0
100
AcDbLine
 62
7
  6
CONTINUOUS
 10
38.4661449505
 20
13.1182780714
 11
39.6823928763
 21
13.1918422762
  0
LINE
  5
371
100
AcDbEntity
  8
0
100
AcDbLine
 62
7
  6
CONTINUOUS
 10
38.4661449505
 20
14.1682780714
 11
39.6823928763
 21
14.2418422762
  0
LINE
  5
372
100
AcDbEntity
  8
0
100
AcDbLine
 62
7
  6
CONTINUOUS
 10
38.4772956248
 20
14.1794287457
 11
39.6773100269
 21
14.2520110732
  0
LINE
  5
373
100
AcDbEntity
  8
0
100
AcDbLine
 62
7
  6
CONTINUOUS
 10
40.7840172697
 20
11.2361503906
 11
38.2840172697
 21
11.2361503906
  0
LINE
  5
374
100
AcDbEntity
  8
0
100
AcDbLine
 62
7
  6
CONTINUOUS
 10
-40.2159827303
 20
11.2361503906
 11
-42.7159827303
 21
11.2361503906
  0
LINE
  5
375
100
AcDbEntity
  8
0
100
AcDbLine
 62
7
  6
CONTINUOUS
 10
40.7316361155
 20
11.2885315449
 11
38.336398424
 21
11.2885315449
  0
LINE
  5
376
100
AcDbEntity
  8
0
100
AcDbLine
 62
7
  6
CONTINUOUS
 10
-40.2683638845
 20
11.2885315449
 11
-42.663601576
 21
11.2885315449
  0
LINE
  5
377
100
AcDbEntity
  8
0
100
AcDbLine
 62
7
  6
CONTINUOUS
 10
38.707062656
 20
12.2954976114
 11
38.4551290402
 21
12.2954976114
  0
LINE
  5
378
100
AcDbEntity
  8
0
100
AcDbLine
 62
7
  6
CONTINUOUS
 10
-40.3870945008
 20
12.2954976114
 11
-40.6390281165
 21
12.2954976114
  0
LINE
  5
379
100
AcDbEntity
  8
0
100
AcDbLine
 62
7
  6
CONTINUOUS
 10
-41.6143583369
 20
13.1918422762
 11
-40.398110411
 21
13.1182780714
  0
LINE
  5
37A
100
AcDbEntity
  8
0
100
AcDbLine
 62
7
  6
CONTINUOUS
 10
-41.6143583369
 20
14.2418422762
 11
-40.398110411
 21
14.1682780714
  0
LINE
  5
37B
100
AcDbEntity
  8
0
100
AcDbLine
 62
7
  6
CONTINUOUS
 10
-41.6092754875
 20
14.2520110732
 11
-40.4092610854
 21
14.1794287457
  0
LINE
  5
37C
100
AcDbEntity
  8
DRAFT
100
AcDbLine
 62
7
  6
CONTINUOUS
 10
-11.7159827303
 20
24.2361503906
 11
-11.8050035614
 21
24.3251712218
  0
LINE
  5
37D
100
AcDbEntity
  8
DRAFT
100
AcDbLine
 62
7
  6
CONTINUOUS
 10
-9.7159827303
 20
24.2361503906
 11
-9.7439108341
 21
24.2640784945
  0
LINE
  5
37E
100
AcDbEntity
  8
DRAFT
100
AcDbLine
 62
7
  6
CONTINUOUS
 10
12.7840172697
 20
-24.7638496094
 11
12.7840172697
 21
-24.7359215055
  0
LINE
  5
37F
100
AcDbEntity
  8
DRAFT
100
AcDbLine
 62
7
  6
CONTINUOUS
 10
12.7840172697
 20
-23.7917777133
 11
12.7840172697
 21
-22.2638496094
  0
LINE
  5
380
100
AcDbEntity
  8
DRAFT
100
AcDbLine
 62
7
  6
CONTINUOUS
 10
12.7840172697
 20
22.7361503906
 11
12.7840172697
 21
24.2640784945
  0
LINE
  5
381
100
AcDbEntity
  8
DRAFT
100
AcDbLine
 62
7
  6
CONTINUOUS
 10
12.7840172697
 20
25.2082222867
 11
12.7840172697
 21
25.2361503906
  0
LINE
  5
382
100
AcDbEntity
  8
0
100
AcDbLine
 62
7
  6
CONTINUOUS
 10
-7.9274082319
 20
-25.375275111
 11
-9.3781281473
 21
-26.8259950264
  0
LINE
  5
383
100
AcDbEntity
  8
0
100
AcDbLine
 62
7
  6
CONTINUOUS
 10
40.7316361155
 20
23.1837692364
 11
40.7840172697
 21
23.2361503906
  0
LINE
  5
384
100
AcDbEntity
  8
0
100
AcDbLine
 62
7
  6
CONTINUOUS
 10
-9.3412545117
 20
-26.9150158576
 11
-7.8415500793
 21
-25.4153114251
  0
LINE
  5
385
100
AcDbEntity
  8
0
100
AcDbLine
 62
7
  6
CONTINUOUS
 10
38.4661449505
 20
19.3682780714
 11
38.4772956248
 21
19.3794287457
  0
LINE
  5
386
100
AcDbEntity
  8
DRAFT
100
AcDbLine
 62
7
  6
CONTINUOUS
 10
-1.9380546264
 20
-22.2638496094
 11
-1.9485276653
 21
-22.2743226483
  0
LINE
  5
387
100
AcDbEntity
  8
0
100
AcDbLine
 62
7
  6
CONTINUOUS
 10
38.4661449505
 20
16.7682780714
 11
38.4772956248
 21
16.7794287457
  0
LINE
  5
388
100
AcDbEntity
  8
DRAFT
100
AcDbLine
 62
7
  6
CONTINUOUS
 10
-7.706322204
 20
-24.6748287782
 11
-7.7729932166
 21
-24.7359215055
  0
LINE
  5
389
100
AcDbEntity
  8
0
100
AcDbLine
 62
250
  6
CONTINUOUS
 10
-16.5912703949
 20
-25.1893181259
 11
-16.6771285475
 21
-25.22935444
  0
LINE
  5
38A
100
AcDbEntity
  8
0
100
AcDbLine
 62
250
  6
CONTINUOUS
 10
-16.5045572286
 20
-25.375275111
 11
-16.5904153813
 21
-25.4153114251
  0
LINE
  5
38B
100
AcDbEntity
  8
0
100
AcDbLine
 62
7
  6
CONTINUOUS
 10
38.4661449505
 20
16.7682780714
 11
39.6823928763
 21
16.8418422762
  0
LINE
  5
38C
100
AcDbEntity
  8
0
100
AcDbLine
 62
7
  6
CONTINUOUS
 10
38.4772956248
 20
16.7794287457
 11
39.6773100269
 21
16.8520110732
  0
LINE
  5
38D
100
AcDbEntity
  8
0
100
AcDbLine
 62
7
  6
CONTINUOUS
 10
38.4661449505
 20
19.3682780714
 11
39.6823928763
 21
19.4418422762
  0
LINE
  5
38E
100
AcDbEntity
  8
0
100
AcDbLine
 62
7
  6
CONTINUOUS
 10
38.4772956248
 20
19.3794287457
 11
39.6773100269
 21
19.4520110732
  0
LINE
  5
38F
100
AcDbEntity
  8
0
100
AcDbLine
 62
7
  6
CONTINUOUS
 10
-40.6390281165
 20
13.1072621611
 11
-40.3870945008
 21
13.1072621611
  0
LINE
  5
390
100
AcDbEntity
  8
0
100
AcDbLine
 62
7
  6
CONTINUOUS
 10
38.4551290402
 20
13.1072621611
 11
38.707062656
 21
13.1072621611
  0
LINE
  5
391
100
AcDbEntity
  8
0
100
AcDbLine
 62
7
  6
CONTINUOUS
 10
-41.6143583369
 20
16.8418422762
 11
-40.398110411
 21
16.7682780714
  0
LINE
  5
392
100
AcDbEntity
  8
0
100
AcDbLine
 62
7
  6
CONTINUOUS
 10
-41.6092754875
 20
16.8520110732
 11
-40.4092610854
 21
16.7794287457
  0
LINE
  5
393
100
AcDbEntity
  8
0
100
AcDbLine
 62
7
  6
CONTINUOUS
 10
-41.6143583369
 20
19.4418422762
 11
-40.398110411
 21
19.3682780714
  0
LINE
  5
394
100
AcDbEntity
  8
0
100
AcDbLine
 62
7
  6
CONTINUOUS
 10
-41.6092754875
 20
19.4520110732
 11
-40.4092610854
 21
19.3794287457
  0
LINE
  5
395
100
AcDbEntity
  8
0
100
AcDbLine
 62
250
  6
CONTINUOUS
 10
-16.6771285475
 20
25.7016552213
 11
-16.5912703949
 21
25.6616189072
  0
LINE
  5
396
100
AcDbEntity
  8
0
100
AcDbLine
 62
250
  6
CONTINUOUS
 10
-16.5904153813
 20
25.8876122064
 11
-16.5045572286
 21
25.8475758923
  0
LINE
  5
397
100
AcDbEntity
  8
DRAFT
100
AcDbLine
 62
7
  6
CONTINUOUS
 10
-7.706322204
 20
25.1471295595
 11
-7.7729932166
 21
25.2082222867
  0
LINE
  5
398
100
AcDbEntity
  8
0
100
AcDbLine
 62
7
  6
CONTINUOUS
 10
-9.3781281473
 20
27.2982958077
 11
-7.9274082319
 21
25.8475758923
  0
LINE
  5
399
100
AcDbEntity
  8
0
100
AcDbLine
 62
7
  6
CONTINUOUS
 10
40.7316361155
 20
-22.7114684551
 11
40.7840172697
 21
-22.7638496094
  0
LINE
  5
39A
100
AcDbEntity
  8
0
100
AcDbLine
 62
7
  6
CONTINUOUS
 10
-7.8415500793
 20
25.8876122064
 11
-9.3412545117
 21
27.3873166388
  0
LINE
  5
39B
100
AcDbEntity
  8
0
100
AcDbLine
 62
7
  6
CONTINUOUS
 10
38.4661449505
 20
-18.8959772902
 11
38.4772956248
 21
-18.9071279645
  0
LINE
  5
39C
100
AcDbEntity
  8
DRAFT
100
AcDbLine
 62
7
  6
CONTINUOUS
 10
-1.9380546264
 20
22.7361503906
 11
-1.9485276653
 21
22.7466234296
  0
LINE
  5
39D
100
AcDbEntity
  8
0
100
AcDbLine
 62
7
  6
CONTINUOUS
 10
38.4661449505
 20
-16.2959772902
 11
38.4772956248
 21
-16.3071279645
  0
LINE
  5
39E
100
AcDbEntity
  8
0
100
AcDbLine
 62
7
  6
CONTINUOUS
 10
14.915250265
 20
22.7361503906
 11
14.7817868329
 21
24.2616443999
  0
LINE
  5
39F
100
AcDbEntity
  8
0
100
AcDbLine
 62
7
  6
CONTINUOUS
 10
14.6991849544
 20
25.2057881921
 11
14.6593049343
 21
25.6616189072
  0
LINE
  5
3A0
100
AcDbEntity
  8
DRAFT
100
AcDbLine
 62
7
  6
CONTINUOUS
 10
14.9968228277
 20
22.8251712218
 11
14.8655898324
 21
24.3251712218
  0
LINE
  5
3A1
100
AcDbEntity
  8
0
100
AcDbLine
 62
7
  6
CONTINUOUS
 10
14.793677796
 20
25.1471295595
 11
14.745163087
 21
25.7016552213
  0
LINE
  5
3A2
100
AcDbEntity
  8
0
100
AcDbLine
 62
7
  6
CONTINUOUS
 10
14.915250265
 20
-22.2638496094
 11
14.7817868329
 21
-23.7893436186
  0
LINE
  5
3A3
100
AcDbEntity
  8
0
100
AcDbLine
 62
7
  6
CONTINUOUS
 10
14.6991849544
 20
-24.7334874109
 11
14.6593049343
 21
-25.1893181259
  0
LINE
  5
3A4
100
AcDbEntity
  8
0
100
AcDbLine
 62
7
  6
CONTINUOUS
 10
14.745163087
 20
-25.22935444
 11
14.793677796
 21
-24.6748287782
  0
LINE
  5
3A5
100
AcDbEntity
  8
DRAFT
100
AcDbLine
 62
7
  6
CONTINUOUS
 10
14.8655898324
 20
-23.8528704405
 11
14.9968228277
 21
-22.3528704405
  0
LINE
  5
3A6
100
AcDbEntity
  8
0
100
AcDbLine
 62
250
  6
CONTINUOUS
 10
7.4461626868
 20
-26.8259950264
 11
7.4092890512
 21
-26.9150158576
  0
LINE
  5
3A7
100
AcDbEntity
  8
0
100
AcDbLine
 62
250
  6
CONTINUOUS
 10
7.6582624124
 20
-26.9138496094
 11
7.6213887768
 21
-27.0028704405
  0
LINE
  5
3A8
100
AcDbEntity
  8
DRAFT
100
AcDbLine
 62
7
  6
CONTINUOUS
 10
5.5712117117
 20
-22.3528704405
 11
5.6527842744
 21
-22.2638496094
  0
LINE
  5
3A9
100
AcDbEntity
  8
0
100
AcDbLine
 62
7
  6
CONTINUOUS
 10
38.4661449505
 20
14.1682780714
 11
38.4772956248
 21
14.1794287457
  0
LINE
  5
3AA
100
AcDbEntity
  8
0
100
AcDbLine
 62
7
  6
CONTINUOUS
 10
38.4551290402
 20
13.1072621611
 11
38.4661449505
 21
13.1182780714
  0
LINE
  5
3AB
100
AcDbEntity
  8
DRAFT
100
AcDbLine
 62
7
  6
CONTINUOUS
 10
3.1619453736
 20
-22.2638496094
 11
3.1514723347
 21
-22.2743226483
  0
LINE
  5
3AC
100
AcDbEntity
  8
0
100
AcDbLine
 62
7
  6
CONTINUOUS
 10
38.336398424
 20
11.2885315449
 11
38.2840172697
 21
11.2361503906
  0
LINE
  5
3AD
100
AcDbEntity
  8
0
100
AcDbLine
 62
7
  6
CONTINUOUS
 10
-40.4092610854
 20
15.0928720355
 11
-41.6092754875
 21
15.020289708
  0
LINE
  5
3AE
100
AcDbEntity
  8
0
100
AcDbLine
 62
7
  6
CONTINUOUS
 10
-41.6143583369
 20
15.030458505
 11
-40.398110411
 21
15.1040227098
  0
LINE
  5
3AF
100
AcDbEntity
  8
0
100
AcDbLine
 62
7
  6
CONTINUOUS
 10
-40.4092610854
 20
17.6928720355
 11
-41.6092754875
 21
17.620289708
  0
LINE
  5
3B0
100
AcDbEntity
  8
0
100
AcDbLine
 62
7
  6
CONTINUOUS
 10
-41.6143583369
 20
17.630458505
 11
-40.398110411
 21
17.7040227098
  0
LINE
  5
3B1
100
AcDbEntity
  8
0
100
AcDbLine
 62
7
  6
CONTINUOUS
 10
39.6773100269
 20
15.020289708
 11
38.4772956248
 21
15.0928720355
  0
LINE
  5
3B2
100
AcDbEntity
  8
0
100
AcDbLine
 62
7
  6
CONTINUOUS
 10
38.4661449505
 20
15.1040227098
 11
39.6823928763
 21
15.030458505
  0
LINE
  5
3B3
100
AcDbEntity
  8
0
100
AcDbLine
 62
7
  6
CONTINUOUS
 10
39.6773100269
 20
17.620289708
 11
38.4772956248
 21
17.6928720355
  0
LINE
  5
3B4
100
AcDbEntity
  8
0
100
AcDbLine
 62
7
  6
CONTINUOUS
 10
38.4661449505
 20
17.7040227098
 11
39.6823928763
 21
17.630458505
  0
LINE
  5
3B5
100
AcDbEntity
  8
0
100
AcDbLine
 62
7
  6
CONTINUOUS
 10
38.4661449505
 20
-13.6959772902
 11
38.4772956248
 21
-13.7071279645
  0
LINE
  5
3B6
100
AcDbEntity
  8
0
100
AcDbLine
 62
7
  6
CONTINUOUS
 10
38.4551290402
 20
-12.6349613799
 11
38.4661449505
 21
-12.6459772902
  0
LINE
  5
3B7
100
AcDbEntity
  8
DRAFT
100
AcDbLine
 62
7
  6
CONTINUOUS
 10
3.1619453736
 20
22.7361503906
 11
3.1514723347
 21
22.7466234296
  0
LINE
  5
3B8
100
AcDbEntity
  8
0
100
AcDbLine
 62
7
  6
CONTINUOUS
 10
38.336398424
 20
-10.8162307636
 11
38.2840172697
 21
-10.7638496094
  0
LINE
  5
3B9
100
AcDbEntity
  8
DRAFT
100
AcDbLine
 62
7
  6
CONTINUOUS
 10
5.6527842744
 20
22.7361503906
 11
5.5712117117
 21
22.8251712218
  0
LINE
  5
3BA
100
AcDbEntity
  8
0
100
AcDbLine
 62
250
  6
CONTINUOUS
 10
7.4461626868
 20
27.2982958077
 11
7.4092890512
 21
27.3873166388
  0
LINE
  5
3BB
100
AcDbEntity
  8
0
100
AcDbLine
 62
250
  6
CONTINUOUS
 10
7.6582624124
 20
27.3861503906
 11
7.6213887768
 21
27.4751712218
  0
LINE
  5
3BC
100
AcDbEntity
  8
DRAFT
100
AcDbLine
 62
7
  6
CONTINUOUS
 10
21.5340172697
 20
18.9756466939
 11
21.5340172697
 21
-18.5033459127
  0
LINE
  5
3BD
100
AcDbEntity
  8
DRAFT
100
AcDbLine
 62
7
  6
CONTINUOUS
 10
21.588127971
 20
22.7902610919
 11
21.588127971
 21
18.958563777
  0
LINE
  5
3BE
100
AcDbEntity
  8
DRAFT
100
AcDbLine
 62
7
  6
CONTINUOUS
 10
21.588127971
 20
-18.4862629957
 11
21.588127971
 21
-22.3179603107
  0
LINE
  5
3BF
100
AcDbEntity
  8
DRAFT
100
AcDbLine
 62
7
  6
CONTINUOUS
 10
21.6230381009
 20
22.8251712218
 11
21.6230381009
 21
-22.3528704405
  0
LINE
  5
3C0
100
AcDbEntity
  8
DRAFT
100
AcDbLine
 62
7
  6
CONTINUOUS
 10
5.702444707
 20
-23.8528704405
 11
5.7584258775
 21
-23.7917777133
  0
LINE
  5
3C1
100
AcDbEntity
  8
DRAFT
100
AcDbLine
 62
7
  6
CONTINUOUS
 10
7.7840172697
 20
-24.7638496094
 11
7.8119453736
 21
-24.7359215055
  0
LINE
  5
3C2
100
AcDbEntity
  8
DRAFT
100
AcDbLine
 62
7
  6
CONTINUOUS
 10
10.6949964386
 20
-22.3528704405
 11
10.7840172697
 21
-22.2638496094
  0
LINE
  5
3C3
100
AcDbEntity
  8
0
100
AcDbLine
 62
7
  6
CONTINUOUS
 10
-40.4092610854
 20
20.2928720355
 11
-41.6092754875
 21
20.220289708
  0
LINE
  5
3C4
100
AcDbEntity
  8
0
100
AcDbLine
 62
7
  6
CONTINUOUS
 10
-41.6143583369
 20
20.230458505
 11
-40.398110411
 21
20.3040227098
  0
LINE
  5
3C5
100
AcDbEntity
  8
0
100
AcDbLine
 62
7
  6
CONTINUOUS
 10
-41.6143583369
 20
21.280458505
 11
-40.398110411
 21
21.3540227098
  0
LINE
  5
3C6
100
AcDbEntity
  8
0
100
AcDbLine
 62
7
  6
CONTINUOUS
 10
38.707062656
 20
21.3650386201
 11
38.4551290402
 21
21.3650386201
  0
LINE
  5
3C7
100
AcDbEntity
  8
0
100
AcDbLine
 62
7
  6
CONTINUOUS
 10
-40.3870945008
 20
21.3650386201
 11
-40.6390281165
 21
21.3650386201
  0
LINE
  5
3C8
100
AcDbEntity
  8
0
100
AcDbLine
 62
7
  6
CONTINUOUS
 10
-40.6390281165
 20
22.1768031699
 11
-40.3870945008
 21
22.1768031699
  0
LINE
  5
3C9
100
AcDbEntity
  8
0
100
AcDbLine
 62
7
  6
CONTINUOUS
 10
38.4551290402
 20
22.1768031699
 11
38.707062656
 21
22.1768031699
  0
LINE
  5
3CA
100
AcDbEntity
  8
DRAFT
100
AcDbLine
 62
7
  6
CONTINUOUS
 10
-19.3380546264
 20
22.7361503906
 11
-16.8472157256
 21
22.7361503906
  0
LINE
  5
3CB
100
AcDbEntity
  8
DRAFT
100
AcDbLine
 62
7
  6
CONTINUOUS
 10
12.7840172697
 20
22.7361503906
 11
7.7840172697
 21
22.7361503906
  0
LINE
  5
3CC
100
AcDbEntity
  8
DRAFT
100
AcDbLine
 62
7
  6
CONTINUOUS
 10
-7.584749735
 20
22.7361503906
 11
-5.0939108341
 21
22.7361503906
  0
LINE
  5
3CD
100
AcDbEntity
  8
DRAFT
100
AcDbLine
 62
7
  6
CONTINUOUS
 10
-1.9380546264
 20
22.7361503906
 11
0.0060891659
 21
22.7361503906
  0
LINE
  5
3CE
100
AcDbEntity
  8
DRAFT
100
AcDbLine
 62
7
  6
CONTINUOUS
 10
3.1619453736
 20
22.7361503906
 11
5.6527842744
 21
22.7361503906
  0
LINE
  5
3CF
100
AcDbEntity
  8
DRAFT
100
AcDbLine
 62
7
  6
CONTINUOUS
 10
-9.7159827303
 20
22.7361503906
 11
-14.7159827303
 21
22.7361503906
  0
LINE
  5
3D0
100
AcDbEntity
  8
DRAFT
100
AcDbLine
 62
7
  6
CONTINUOUS
 10
14.915250265
 20
22.7361503906
 11
17.4060891659
 21
22.7361503906
  0
LINE
  5
3D1
100
AcDbEntity
  8
DRAFT
100
AcDbLine
 62
7
  6
CONTINUOUS
 10
-19.6950059946
 20
22.7466234296
 11
-19.3485276653
 21
22.7466234296
  0
LINE
  5
3D2
100
AcDbEntity
  8
DRAFT
100
AcDbLine
 62
7
  6
CONTINUOUS
 10
17.7630405341
 20
22.7466234296
 11
17.4165622048
 21
22.7466234296
  0
LINE
  5
3D3
100
AcDbEntity
  8
DRAFT
100
AcDbLine
 62
7
  6
CONTINUOUS
 10
0.0165622048
 20
22.7466234296
 11
3.1514723347
 21
22.7466234296
  0
LINE
  5
3D4
100
AcDbEntity
  8
DRAFT
100
AcDbLine
 62
7
  6
CONTINUOUS
 10
-1.9485276653
 20
22.7466234296
 11
-5.0834377952
 21
22.7466234296
  0
LINE
  5
3D5
100
AcDbEntity
  8
DRAFT
100
AcDbLine
 62
7
  6
CONTINUOUS
 10
-23.5200934315
 20
22.7902610919
 11
-19.6883961166
 21
22.7902610919
  0
LINE
  5
3D6
100
AcDbEntity
  8
DRAFT
100
AcDbLine
 62
7
  6
CONTINUOUS
 10
17.7564306561
 20
22.7902610919
 11
21.588127971
 21
22.7902610919
  0
LINE
  5
3D7
100
AcDbEntity
  8
DRAFT
100
AcDbLine
 62
7
  6
CONTINUOUS
 10
21.6230381009
 20
22.8251712218
 11
14.9968228277
 21
22.8251712218
  0
LINE
  5
3D8
100
AcDbEntity
  8
DRAFT
100
AcDbLine
 62
7
  6
CONTINUOUS
 10
-12.6269618991
 20
22.8251712218
 11
-11.8050035614
 21
22.8251712218
  0
LINE
  5
3D9
100
AcDbEntity
  8
DRAFT
100
AcDbLine
 62
7
  6
CONTINUOUS
 10
5.5712117117
 20
22.8251712218
 11
-7.5031771723
 21
22.8251712218
  0
LINE
  5
3DA
100
AcDbEntity
  8
DRAFT
100
AcDbLine
 62
7
  6
CONTINUOUS
 10
9.8730381009
 20
22.8251712218
 11
10.6949964386
 21
22.8251712218
  0
LINE
  5
3DB
100
AcDbEntity
  8
DRAFT
100
AcDbLine
 62
7
  6
CONTINUOUS
 10
-16.9287882883
 20
22.8251712218
 11
-23.5550035614
 21
22.8251712218
  0
LINE
  5
3DC
100
AcDbEntity
  8
0
100
AcDbLine
 62
7
  6
CONTINUOUS
 10
-42.663601576
 20
23.1837692364
 11
-40.2683638845
 21
23.1837692364
  0
LINE
  5
3DD
100
AcDbEntity
  8
0
100
AcDbLine
 62
7
  6
CONTINUOUS
 10
38.336398424
 20
23.1837692364
 11
40.7316361155
 21
23.1837692364
  0
LINE
  5
3DE
100
AcDbEntity
  8
0
100
AcDbLine
 62
7
  6
CONTINUOUS
 10
-42.7159827303
 20
23.2361503906
 11
-40.2159827303
 21
23.2361503906
  0
LINE
  5
3DF
100
AcDbEntity
  8
0
100
AcDbLine
 62
7
  6
CONTINUOUS
 10
38.2840172697
 20
23.2361503906
 11
40.7840172697
 21
23.2361503906
  0
LINE
  5
3E0
100
AcDbEntity
  8
DRAFT
100
AcDbLine
 62
7
  6
CONTINUOUS
 10
12.7840172697
 20
24.2361503906
 11
10.7840172697
 21
24.2361503906
  0
LINE
  5
3E1
100
AcDbEntity
  8
DRAFT
100
AcDbLine
 62
7
  6
CONTINUOUS
 10
9.7840172697
 20
24.2361503906
 11
7.7840172697
 21
24.2361503906
  0
LINE
  5
3E2
100
AcDbEntity
  8
DRAFT
100
AcDbLine
 62
7
  6
CONTINUOUS
 10
-9.7159827303
 20
24.2361503906
 11
-11.7159827303
 21
24.2361503906
  0
LINE
  5
3E3
100
AcDbEntity
  8
DRAFT
100
AcDbLine
 62
7
  6
CONTINUOUS
 10
-12.7159827303
 20
24.2361503906
 11
-14.7159827303
 21
24.2361503906
  0
LINE
  5
3E4
100
AcDbEntity
  8
DRAFT
100
AcDbLine
 62
7
  6
CONTINUOUS
 10
-16.7415741225
 20
24.2640784945
 11
-14.6880546264
 21
24.2640784945
  0
LINE
  5
3E5
100
AcDbEntity
  8
DRAFT
100
AcDbLine
 62
7
  6
CONTINUOUS
 10
-9.7439108341
 20
24.2640784945
 11
-7.690391338
 21
24.2640784945
  0
LINE
  5
3E6
100
AcDbEntity
  8
DRAFT
100
AcDbLine
 62
7
  6
CONTINUOUS
 10
5.7584258775
 20
24.2640784945
 11
7.8119453736
 21
24.2640784945
  0
LINE
  5
3E7
100
AcDbEntity
  8
DRAFT
100
AcDbLine
 62
7
  6
CONTINUOUS
 10
12.7560891659
 20
24.2640784945
 11
14.809608662
 21
24.2640784945
  0
LINE
  5
3E8
100
AcDbEntity
  8
DRAFT
100
AcDbLine
 62
7
  6
CONTINUOUS
 10
-16.797555293
 20
24.3251712218
 11
-12.6269618991
 21
24.3251712218
  0
LINE
  5
3E9
100
AcDbEntity
  8
DRAFT
100
AcDbLine
 62
7
  6
CONTINUOUS
 10
-11.8050035614
 20
24.3251712218
 11
-7.6344101676
 21
24.3251712218
  0
LINE
  5
3EA
100
AcDbEntity
  8
DRAFT
100
AcDbLine
 62
7
  6
CONTINUOUS
 10
5.702444707
 20
24.3251712218
 11
9.8730381009
 21
24.3251712218
  0
LINE
  5
3EB
100
AcDbEntity
  8
DRAFT
100
AcDbLine
 62
7
  6
CONTINUOUS
 10
10.6949964386
 20
24.3251712218
 11
14.8655898324
 21
24.3251712218
  0
LINE
  5
3EC
100
AcDbEntity
  8
DRAFT
100
AcDbLine
 62
7
  6
CONTINUOUS
 10
14.793677796
 20
25.1471295595
 11
5.7743567435
 21
25.1471295595
  0
LINE
  5
3ED
100
AcDbEntity
  8
DRAFT
100
AcDbLine
 62
7
  6
CONTINUOUS
 10
-7.706322204
 20
25.1471295595
 11
-16.7256432565
 21
25.1471295595
  0
LINE
  5
3EE
100
AcDbEntity
  8
0
100
AcDbLine
 62
7
  6
CONTINUOUS
 10
39.6773100269
 20
20.220289708
 11
38.4772956248
 21
20.2928720355
  0
LINE
  5
3EF
100
AcDbEntity
  8
0
100
AcDbLine
 62
7
  6
CONTINUOUS
 10
38.4661449505
 20
20.3040227098
 11
39.6823928763
 21
20.230458505
  0
LINE
  5
3F0
100
AcDbEntity
  8
0
100
AcDbLine
 62
7
  6
CONTINUOUS
 10
38.4661449505
 20
21.3540227098
 11
39.6823928763
 21
21.280458505
  0
LINE
  5
3F1
100
AcDbEntity
  8
DRAFT
100
AcDbLine
 62
7
  6
CONTINUOUS
 10
7.8119453736
 20
25.2082222867
 11
7.7840172697
 21
25.2361503906
  0
LINE
  5
3F2
100
AcDbEntity
  8
DRAFT
100
AcDbLine
 62
7
  6
CONTINUOUS
 10
10.6949964386
 20
22.8251712218
 11
10.7840172697
 21
22.7361503906
  0
LINE
  5
3F3
100
AcDbEntity
  8
DRAFT
100
AcDbLine
 62
7
  6
CONTINUOUS
 10
5.702444707
 20
24.3251712218
 11
5.7584258775
 21
24.2640784945
  0
LINE
  5
3F4
100
AcDbEntity
  8
0
100
AcDbLine
 62
7
  6
CONTINUOUS
 10
39.7069103512
 20
21.3295083992
 11
39.6823928763
 21
21.280458505
  0
LINE
  5
3F5
100
AcDbEntity
  8
0
100
AcDbLine
 62
7
  6
CONTINUOUS
 10
39.6823928763
 20
20.230458505
 11
39.6773100269
 21
20.220289708
  0
LINE
  5
3F6
100
AcDbEntity
  8
0
100
AcDbLine
 62
7
  6
CONTINUOUS
 10
39.6823928763
 20
17.630458505
 11
39.6773100269
 21
17.620289708
  0
LINE
  5
3F7
100
AcDbEntity
  8
DRAFT
100
AcDbLine
 62
7
  6
CONTINUOUS
 10
10.6949964386
 20
-23.8528704405
 11
10.7840172697
 21
-23.7638496094
  0
LINE
  5
3F8
100
AcDbEntity
  8
DRAFT
100
AcDbLine
 62
7
  6
CONTINUOUS
 10
12.7560891659
 20
-23.7917777133
 11
12.7840172697
 21
-23.7638496094
  0
LINE
  5
3F9
100
AcDbEntity
  8
0
100
AcDbLine
 62
250
  6
CONTINUOUS
 10
5.9087296051
 20
-25.1893181259
 11
5.8228714525
 21
-25.22935444
  0
LINE
  5
3FA
100
AcDbEntity
  8
0
100
AcDbLine
 62
250
  6
CONTINUOUS
 10
5.9954427714
 20
-25.375275111
 11
5.9095846187
 21
-25.4153114251
  0
LINE
  5
3FB
100
AcDbEntity
  8
DRAFT
100
AcDbLine
 62
7
  6
CONTINUOUS
 10
14.7270067834
 20
25.2082222867
 11
12.7560891659
 21
25.2082222867
  0
LINE
  5
3FC
100
AcDbEntity
  8
DRAFT
100
AcDbLine
 62
7
  6
CONTINUOUS
 10
7.8119453736
 20
25.2082222867
 11
5.8410277561
 21
25.2082222867
  0
LINE
  5
3FD
100
AcDbEntity
  8
DRAFT
100
AcDbLine
 62
7
  6
CONTINUOUS
 10
-7.7729932166
 20
25.2082222867
 11
-9.7439108341
 21
25.2082222867
  0
LINE
  5
3FE
100
AcDbEntity
  8
DRAFT
100
AcDbLine
 62
7
  6
CONTINUOUS
 10
-14.6880546264
 20
25.2082222867
 11
-16.6589722439
 21
25.2082222867
  0
LINE
  5
3FF
100
AcDbEntity
  8
DRAFT
100
AcDbLine
 62
7
  6
CONTINUOUS
 10
12.7840172697
 20
25.2361503906
 11
7.7840172697
 21
25.2361503906
  0
LINE
  5
400
100
AcDbEntity
  8
DRAFT
100
AcDbLine
 62
7
  6
CONTINUOUS
 10
-9.7159827303
 20
25.2361503906
 11
-14.7159827303
 21
25.2361503906
  0
LINE
  5
401
100
AcDbEntity
  8
0
100
AcDbLine
 62
7
  6
CONTINUOUS
 10
-14.8417375876
 20
27.3861503906
 11
-9.590227873
 21
27.3861503906
  0
LINE
  5
402
100
AcDbEntity
  8
0
100
AcDbLine
 62
7
  6
CONTINUOUS
 10
7.6582624124
 20
27.3861503906
 11
12.909772127
 21
27.3861503906
  0
LINE
  5
403
100
AcDbEntity
  8
0
100
AcDbLine
 62
7
  6
CONTINUOUS
 10
12.9466457626
 20
27.4751712218
 11
7.6213887768
 21
27.4751712218
  0
LINE
  5
404
100
AcDbEntity
  8
0
100
AcDbLine
 62
7
  6
CONTINUOUS
 10
-9.5533542374
 20
27.4751712218
 11
-14.8786112232
 21
27.4751712218
  0
LINE
  5
405
100
AcDbEntity
  8
0
100
AcDbLine
 62
250
  6
CONTINUOUS
 10
5.8228714525
 20
25.7016552213
 11
5.9087296051
 21
25.6616189072
  0
LINE
  5
406
100
AcDbEntity
  8
0
100
AcDbLine
 62
250
  6
CONTINUOUS
 10
5.9095846187
 20
25.8876122064
 11
5.9954427714
 21
25.8475758923
  0
LINE
  5
407
100
AcDbEntity
  8
DRAFT
100
AcDbLine
 62
7
  6
CONTINUOUS
 10
10.7840172697
 20
24.2361503906
 11
10.6949964386
 21
24.3251712218
  0
LINE
  5
408
100
AcDbEntity
  8
DRAFT
100
AcDbLine
 62
7
  6
CONTINUOUS
 10
12.7840172697
 20
24.2361503906
 11
12.7560891659
 21
24.2640784945
  0
LINE
  5
409
100
AcDbEntity
  8
0
100
AcDbLine
 62
7
  6
CONTINUOUS
 10
39.7069103512
 20
-20.8572076179
 11
39.6823928763
 21
-20.8081577238
  0
LINE
  5
40A
100
AcDbEntity
  8
0
100
AcDbLine
 62
7
  6
CONTINUOUS
 10
39.6823928763
 20
-19.7581577238
 11
39.6773100269
 21
-19.7479889268
  0
LINE
  5
40B
100
AcDbEntity
  8
0
100
AcDbLine
 62
7
  6
CONTINUOUS
 10
39.6823928763
 20
-17.1581577238
 11
39.6773100269
 21
-17.1479889268
  0
LINE
  5
40C
100
AcDbEntity
  8
0
100
AcDbLine
 62
7
  6
CONTINUOUS
 10
39.6823928763
 20
15.030458505
 11
39.6773100269
 21
15.020289708
  0
LINE
  5
40D
100
AcDbEntity
  8
0
100
AcDbLine
 62
7
  6
CONTINUOUS
 10
14.5725917681
 20
-25.375275111
 11
13.1218718527
 21
-26.8259950264
  0
LINE
  5
40E
100
AcDbEntity
  8
DRAFT
100
AcDbLine
 62
7
  6
CONTINUOUS
 10
21.5619453736
 20
-18.4754178088
 11
17.7455854691
 21
-22.2917777133
  0
LINE
  5
40F
100
AcDbEntity
  8
0
100
AcDbLine
 62
7
  6
CONTINUOUS
 10
13.1587454883
 20
-26.9150158576
 11
14.6584499207
 21
-25.4153114251
  0
LINE
  5
410
100
AcDbEntity
  8
DRAFT
100
AcDbLine
 62
7
  6
CONTINUOUS
 10
21.588127971
 20
-18.4862629957
 11
17.7564306561
 21
-22.3179603107
  0
LINE
  5
411
100
AcDbEntity
  8
DRAFT
100
AcDbLine
 62
7
  6
CONTINUOUS
 10
14.793677796
 20
-24.6748287782
 11
14.7270067834
 21
-24.7359215055
  0
LINE
  5
412
100
AcDbEntity
  8
DRAFT
100
AcDbLine
 62
7
  6
CONTINUOUS
 10
14.793677796
 20
25.1471295595
 11
14.7270067834
 21
25.2082222867
  0
LINE
  5
413
100
AcDbEntity
  8
0
100
AcDbLine
 62
7
  6
CONTINUOUS
 10
13.1218718527
 20
27.2982958077
 11
14.5725917681
 21
25.8475758923
  0
LINE
  5
414
100
AcDbEntity
  8
DRAFT
100
AcDbLine
 62
7
  6
CONTINUOUS
 10
17.7455854691
 20
22.7640784945
 11
21.5619453736
 21
18.94771859
  0
LINE
  5
415
100
AcDbEntity
  8
0
100
AcDbLine
 62
7
  6
CONTINUOUS
 10
14.6584499207
 20
25.8876122064
 11
13.1587454883
 21
27.3873166388
  0
LINE
  5
416
100
AcDbEntity
  8
DRAFT
100
AcDbLine
 62
7
  6
CONTINUOUS
 10
17.7564306561
 20
22.7902610919
 11
21.588127971
 21
18.958563777
  0
LINE
  5
417
100
AcDbEntity
  8
0
100
AcDbLine
 62
7
  6
CONTINUOUS
 10
39.6823928763
 20
-14.5581577238
 11
39.6773100269
 21
-14.5479889268
  0
LINE
  5
418
100
AcDbEntity
  8
0
100
AcDbLine
 62
7
  6
CONTINUOUS
 10
39.7069103512
 20
21.3295083992
 11
39.7070357278
 21
21.3301178495
  0
LINE
  5
419
100
AcDbEntity
  8
0
100
AcDbLine
 62
7
  6
CONTINUOUS
 10
39.7070357278
 20
-20.8578170683
 11
39.7069103512
 21
-20.8572076179
  0
LINE
  5
41A
100
AcDbEntity
  8
0
100
AcDbLine
 62
7
  6
CONTINUOUS
 10
38.2840172697
 20
-10.7638496094
 11
38.2840172697
 21
-22.7638496094
  0
LINE
  5
41B
100
AcDbEntity
  8
0
100
AcDbLine
 62
7
  6
CONTINUOUS
 10
38.2840172697
 20
11.2361503906
 11
38.2840172697
 21
23.2361503906
  0
LINE
  5
41C
100
AcDbEntity
  8
0
100
AcDbLine
 62
7
  6
CONTINUOUS
 10
38.336398424
 20
-10.8162307636
 11
38.336398424
 21
-11.4690404304
  0
LINE
  5
41D
100
AcDbEntity
  8
0
100
AcDbLine
 62
7
  6
CONTINUOUS
 10
38.336398424
 20
-22.0586587883
 11
38.336398424
 21
-22.7114684551
  0
LINE
  5
41E
100
AcDbEntity
  8
0
100
AcDbLine
 62
7
  6
CONTINUOUS
 10
38.336398424
 20
11.2885315449
 11
38.336398424
 21
11.9413412117
  0
LINE
  5
41F
100
AcDbEntity
  8
0
100
AcDbLine
 62
7
  6
CONTINUOUS
 10
38.336398424
 20
22.5309595696
 11
38.336398424
 21
23.1837692364
  0
LINE
  5
420
100
AcDbEntity
  8
0
100
AcDbLine
 62
7
  6
CONTINUOUS
 10
38.4551290402
 20
22.1768031699
 11
38.4551290402
 21
21.3650386201
  0
LINE
  5
421
100
AcDbEntity
  8
0
100
AcDbLine
 62
7
  6
CONTINUOUS
 10
38.4551290402
 20
13.1072621611
 11
38.4551290402
 21
12.2954976114
  0
LINE
  5
422
100
AcDbEntity
  8
0
100
AcDbLine
 62
7
  6
CONTINUOUS
 10
38.4551290402
 20
-21.7045023886
 11
38.4551290402
 21
-20.8927378389
  0
LINE
  5
423
100
AcDbEntity
  8
0
100
AcDbLine
 62
7
  6
CONTINUOUS
 10
38.4551290402
 20
-12.6349613799
 11
38.4551290402
 21
-11.8231968301
  0
LINE
  5
424
100
AcDbEntity
  8
0
100
AcDbLine
 62
7
  6
CONTINUOUS
 10
38.4661449505
 20
-12.6459772902
 11
38.4661449505
 21
-13.6959772902
  0
LINE
  5
425
100
AcDbEntity
  8
0
100
AcDbLine
 62
7
  6
CONTINUOUS
 10
38.4661449505
 20
-14.6317219286
 11
38.4661449505
 21
-16.2959772902
  0
LINE
  5
426
100
AcDbEntity
  8
0
100
AcDbLine
 62
7
  6
CONTINUOUS
 10
38.4661449505
 20
-17.2317219286
 11
38.4661449505
 21
-18.8959772902
  0
LINE
  5
427
100
AcDbEntity
  8
0
100
AcDbLine
 62
7
  6
CONTINUOUS
 10
38.4661449505
 20
-19.8317219286
 11
38.4661449505
 21
-20.8817219286
  0
LINE
  5
428
100
AcDbEntity
  8
0
100
AcDbLine
 62
7
  6
CONTINUOUS
 10
38.4661449505
 20
13.1182780714
 11
38.4661449505
 21
14.1682780714
  0
LINE
  5
429
100
AcDbEntity
  8
0
100
AcDbLine
 62
7
  6
CONTINUOUS
 10
38.4661449505
 20
15.1040227098
 11
38.4661449505
 21
16.7682780714
  0
LINE
  5
42A
100
AcDbEntity
  8
0
100
AcDbLine
 62
7
  6
CONTINUOUS
 10
38.4661449505
 20
17.7040227098
 11
38.4661449505
 21
19.3682780714
  0
LINE
  5
42B
100
AcDbEntity
  8
0
100
AcDbLine
 62
7
  6
CONTINUOUS
 10
38.4661449505
 20
20.3040227098
 11
38.4661449505
 21
21.3540227098
  0
LINE
  5
42C
100
AcDbEntity
  8
0
100
AcDbLine
 62
7
  6
CONTINUOUS
 10
38.4772956248
 20
20.2928720355
 11
38.4772956248
 21
19.3794287457
  0
LINE
  5
42D
100
AcDbEntity
  8
0
100
AcDbLine
 62
7
  6
CONTINUOUS
 10
38.4772956248
 20
17.6928720355
 11
38.4772956248
 21
16.7794287457
  0
LINE
  5
42E
100
AcDbEntity
  8
0
100
AcDbLine
 62
7
  6
CONTINUOUS
 10
38.4772956248
 20
15.0928720355
 11
38.4772956248
 21
14.1794287457
  0
LINE
  5
42F
100
AcDbEntity
  8
0
100
AcDbLine
 62
7
  6
CONTINUOUS
 10
38.4772956248
 20
-19.8205712543
 11
38.4772956248
 21
-18.9071279645
  0
LINE
  5
430
100
AcDbEntity
  8
0
100
AcDbLine
 62
7
  6
CONTINUOUS
 10
38.4772956248
 20
-17.2205712543
 11
38.4772956248
 21
-16.3071279645
  0
LINE
  5
431
100
AcDbEntity
  8
0
100
AcDbLine
 62
7
  6
CONTINUOUS
 10
38.4772956248
 20
-14.6205712543
 11
38.4772956248
 21
-13.7071279645
  0
LINE
  5
432
100
AcDbEntity
  8
0
100
AcDbLine
 62
250
  6
CONTINUOUS
 10
38.707062656
 20
-21.7045023886
 11
38.707062656
 21
-20.8927378389
  0
LINE
  5
433
100
AcDbEntity
  8
0
100
AcDbLine
 62
250
  6
CONTINUOUS
 10
38.707062656
 20
-12.6349613799
 11
38.707062656
 21
-11.8231968301
  0
LINE
  5
434
100
AcDbEntity
  8
0
100
AcDbLine
 62
250
  6
CONTINUOUS
 10
38.707062656
 20
12.2954976114
 11
38.707062656
 21
13.1072621611
  0
LINE
  5
435
100
AcDbEntity
  8
0
100
AcDbLine
 62
250
  6
CONTINUOUS
 10
38.707062656
 20
21.3650386201
 11
38.707062656
 21
22.1768031699
  0
LINE
  5
436
100
AcDbEntity
  8
0
100
AcDbLine
 62
7
  6
CONTINUOUS
 10
39.6773100269
 20
-13.779710292
 11
39.6773100269
 21
-14.5479889268
  0
LINE
  5
437
100
AcDbEntity
  8
0
100
AcDbLine
 62
7
  6
CONTINUOUS
 10
39.6773100269
 20
-16.379710292
 11
39.6773100269
 21
-17.1479889268
  0
LINE
  5
438
100
AcDbEntity
  8
0
100
AcDbLine
 62
7
  6
CONTINUOUS
 10
39.6773100269
 20
-18.979710292
 11
39.6773100269
 21
-19.7479889268
  0
LINE
  5
439
100
AcDbEntity
  8
0
100
AcDbLine
 62
7
  6
CONTINUOUS
 10
39.6773100269
 20
14.2520110732
 11
39.6773100269
 21
15.020289708
  0
LINE
  5
43A
100
AcDbEntity
  8
0
100
AcDbLine
 62
7
  6
CONTINUOUS
 10
39.6773100269
 20
16.8520110732
 11
39.6773100269
 21
17.620289708
  0
LINE
  5
43B
100
AcDbEntity
  8
0
100
AcDbLine
 62
7
  6
CONTINUOUS
 10
39.6773100269
 20
19.4520110732
 11
39.6773100269
 21
20.220289708
  0
LINE
  5
43C
100
AcDbEntity
  8
0
100
AcDbLine
 62
7
  6
CONTINUOUS
 10
39.6823928763
 20
-12.719541495
 11
39.6823928763
 21
-13.769541495
  0
LINE
  5
43D
100
AcDbEntity
  8
0
100
AcDbLine
 62
7
  6
CONTINUOUS
 10
39.6823928763
 20
-14.5581577238
 11
39.6823928763
 21
-16.369541495
  0
LINE
  5
43E
100
AcDbEntity
  8
0
100
AcDbLine
 62
7
  6
CONTINUOUS
 10
39.6823928763
 20
-17.1581577238
 11
39.6823928763
 21
-18.969541495
  0
LINE
  5
43F
100
AcDbEntity
  8
0
100
AcDbLine
 62
7
  6
CONTINUOUS
 10
39.6823928763
 20
-19.7581577238
 11
39.6823928763
 21
-20.8081577238
  0
LINE
  5
440
100
AcDbEntity
  8
0
100
AcDbLine
 62
7
  6
CONTINUOUS
 10
39.6823928763
 20
13.1918422762
 11
39.6823928763
 21
14.2418422762
  0
LINE
  5
441
100
AcDbEntity
  8
0
100
AcDbLine
 62
7
  6
CONTINUOUS
 10
39.6823928763
 20
15.030458505
 11
39.6823928763
 21
16.8418422762
  0
LINE
  5
442
100
AcDbEntity
  8
0
100
AcDbLine
 62
7
  6
CONTINUOUS
 10
39.6823928763
 20
17.630458505
 11
39.6823928763
 21
19.4418422762
  0
LINE
  5
443
100
AcDbEntity
  8
0
100
AcDbLine
 62
7
  6
CONTINUOUS
 10
39.6823928763
 20
20.230458505
 11
39.6823928763
 21
21.280458505
  0
LINE
  5
444
100
AcDbEntity
  8
0
100
AcDbLine
 62
7
  6
CONTINUOUS
 10
39.707062656
 20
-21.6870473237
 11
39.707062656
 21
-20.8578170694
  0
LINE
  5
445
100
AcDbEntity
  8
0
100
AcDbLine
 62
7
  6
CONTINUOUS
 10
39.707062656
 20
-12.6698821494
 11
39.707062656
 21
-11.8406518951
  0
LINE
  5
446
100
AcDbEntity
  8
0
100
AcDbLine
 62
7
  6
CONTINUOUS
 10
39.707062656
 20
12.3129526763
 11
39.707062656
 21
13.1421829306
  0
LINE
  5
447
100
AcDbEntity
  8
0
100
AcDbLine
 62
7
  6
CONTINUOUS
 10
39.707062656
 20
21.3301178506
 11
39.707062656
 21
22.1593481049
  0
LINE
  5
448
100
AcDbEntity
  8
0
100
AcDbLine
 62
7
  6
CONTINUOUS
 10
40.7316361155
 20
-10.8162307636
 11
40.7840172697
 21
-10.7638496094
  0
LINE
  5
449
100
AcDbEntity
  8
0
100
AcDbLine
 62
7
  6
CONTINUOUS
 10
27.5952038426
 20
-24.7895022763
 11
24.0596699366
 21
-28.3250361822
  0
LINE
  5
44A
100
AcDbEntity
  8
0
100
AcDbLine
 62
7
  6
CONTINUOUS
 10
38.4661449505
 20
-14.6317219286
 11
38.4772956248
 21
-14.6205712543
  0
LINE
  5
44B
100
AcDbEntity
  8
0
100
AcDbLine
 62
7
  6
CONTINUOUS
 10
38.4661449505
 20
-17.2317219286
 11
38.4772956248
 21
-17.2205712543
  0
LINE
  5
44C
100
AcDbEntity
  8
0
100
AcDbLine
 62
7
  6
CONTINUOUS
 10
38.3466918194
 20
-21.7587044798
 11
38.4551290402
 21
-21.7045023886
  0
LINE
  5
44D
100
AcDbEntity
  8
DRAFT
100
AcDbLine
 62
7
  6
CONTINUOUS
 10
34.8420174179
 20
40.4945776181
 11
-36.7739828784
 21
40.4945776181
  0
LINE
  5
44E
100
AcDbEntity
  8
0
100
AcDbLine
 62
7
  6
CONTINUOUS
 10
38.3466918194
 20
22.231005261
 11
38.4551290402
 21
22.1768031699
  0
LINE
  5
44F
100
AcDbEntity
  8
0
100
AcDbLine
 62
7
  6
CONTINUOUS
 10
40.7316361155
 20
11.2885315449
 11
40.7840172697
 21
11.2361503906
  0
LINE
  5
450
100
AcDbEntity
  8
0
100
AcDbLine
 62
7
  6
CONTINUOUS
 10
24.0596699366
 20
28.7973369635
 11
27.5952038426
 21
25.2618030575
  0
LINE
  5
451
100
AcDbEntity
  8
0
100
AcDbLine
 62
7
  6
CONTINUOUS
 10
38.4661449505
 20
15.1040227098
 11
38.4772956248
 21
15.0928720355
  0
LINE
  5
452
100
AcDbEntity
  8
0
100
AcDbLine
 62
7
  6
CONTINUOUS
 10
38.4661449505
 20
17.7040227098
 11
38.4772956248
 21
17.6928720355
  0
LINE
  5
453
100
AcDbEntity
  8
0
100
AcDbLine
 62
7
  6
CONTINUOUS
 10
40.7316361155
 20
23.1837692364
 11
40.7316361155
 21
11.2885315449
  0
LINE
  5
454
100
AcDbEntity
  8
0
100
AcDbLine
 62
7
  6
CONTINUOUS
 10
40.7316361155
 20
-22.7114684551
 11
40.7316361155
 21
-10.8162307636
  0
LINE
  5
455
100
AcDbEntity
  8
0
100
AcDbLine
 62
7
  6
CONTINUOUS
 10
40.7840172697
 20
23.2361503906
 11
40.7840172697
 21
11.2361503906
  0
LINE
  5
456
100
AcDbEntity
  8
0
100
AcDbLine
 62
7
  6
CONTINUOUS
 10
40.7840172697
 20
-22.7638496094
 11
40.7840172697
 21
-10.7638496094
  0
LINE
  5
457
100
AcDbEntity
  8
0
100
AcDbLine
 62
7
  6
CONTINUOUS
 10
39.7069103512
 20
-12.6704916008
 11
39.7070357278
 21
-12.6698821505
  0
LINE
  5
458
100
AcDbEntity
  8
0
100
AcDbLine
 62
7
  6
CONTINUOUS
 10
39.7069103512
 20
-12.6704916008
 11
39.6823928763
 21
-12.719541495
  0
LINE
  5
459
100
AcDbEntity
  8
0
100
AcDbLine
 62
7
  6
CONTINUOUS
 10
39.6823928763
 20
-13.769541495
 11
39.6773100269
 21
-13.779710292
  0
LINE
  5
45A
100
AcDbEntity
  8
0
100
AcDbLine
 62
7
  6
CONTINUOUS
 10
39.6823928763
 20
-16.369541495
 11
39.6773100269
 21
-16.379710292
  0
LINE
  5
45B
100
AcDbEntity
  8
0
100
AcDbLine
 62
7
  6
CONTINUOUS
 10
39.6823928763
 20
-18.969541495
 11
39.6773100269
 21
-18.979710292
  0
LINE
  5
45C
100
AcDbEntity
  8
0
100
AcDbLine
 62
7
  6
CONTINUOUS
 10
26.4728306969
 20
-30.7381969425
 11
30.0083646028
 21
-27.2026630365
  0
LINE
  5
45D
100
AcDbEntity
  8
0
100
AcDbLine
 62
7
  6
CONTINUOUS
 10
38.4661449505
 20
-19.8317219286
 11
38.4772956248
 21
-19.8205712543
  0
LINE
  5
45E
100
AcDbEntity
  8
0
100
AcDbLine
 62
7
  6
CONTINUOUS
 10
38.4551290402
 20
-20.8927378389
 11
38.4661449505
 21
-20.8817219286
  0
LINE
  5
45F
100
AcDbEntity
  8
0
100
AcDbLine
 62
7
  6
CONTINUOUS
 10
38.336398424
 20
-22.7114684551
 11
38.2840172697
 21
-22.7638496094
  0
LINE
  5
460
100
AcDbEntity
  8
0
100
AcDbLine
 62
7
  6
CONTINUOUS
 10
30.0083646028
 20
27.6749638178
 11
26.4728306969
 21
31.2104977237
  0
LINE
  5
461
100
AcDbEntity
  8
0
100
AcDbLine
 62
7
  6
CONTINUOUS
 10
38.4661449505
 20
20.3040227098
 11
38.4772956248
 21
20.2928720355
  0
LINE
  5
462
100
AcDbEntity
  8
0
100
AcDbLine
 62
7
  6
CONTINUOUS
 10
38.4551290402
 20
21.3650386201
 11
38.4661449505
 21
21.3540227098
  0
LINE
  5
463
100
AcDbEntity
  8
0
100
AcDbLine
 62
7
  6
CONTINUOUS
 10
38.336398424
 20
23.1837692364
 11
38.2840172697
 21
23.2361503906
  0
LINE
  5
464
100
AcDbEntity
  8
0
100
AcDbLine
 62
7
  6
CONTINUOUS
 10
39.7069103512
 20
13.1427923821
 11
39.6823928763
 21
13.1918422762
  0
LINE
  5
465
100
AcDbEntity
  8
0
100
AcDbLine
 62
7
  6
CONTINUOUS
 10
39.6823928763
 20
14.2418422762
 11
39.6773100269
 21
14.2520110732
  0
LINE
  5
466
100
AcDbEntity
  8
0
100
AcDbLine
 62
7
  6
CONTINUOUS
 10
39.6823928763
 20
16.8418422762
 11
39.6773100269
 21
16.8520110732
  0
LINE
  5
467
100
AcDbEntity
  8
0
100
AcDbLine
 62
7
  6
CONTINUOUS
 10
39.6823928763
 20
19.4418422762
 11
39.6773100269
 21
19.4520110732
  0
LINE
  5
468
100
AcDbEntity
  8
0
100
AcDbLine
 62
7
  6
CONTINUOUS
 10
39.7070357278
 20
13.1421829317
 11
39.7069103512
 21
13.1427923821
  0
ARC
  5
469
100
AcDbEntity
  8
DRAFT
100
AcDbCircle
 62
7
  6
CONTINUOUS
 10
253.4590172697
 20
0.2361503906
 40
300.1834272275
100
AcDbArc
 50
173.6935680937
 51
186.3064319063
  0
ARC
  5
46A
100
AcDbEntity
  8
DRAFT
100
AcDbCircle
 62
7
  6
CONTINUOUS
 10
-255.3909827303
 20
0.2361503906
 40
300.1834272275
100
AcDbArc
 50
353.6935680937
 51
6.3064319063
  0
ARC
  5
46B
100
AcDbEntity
  8
0
100
AcDbCircle
 62
7
  6
CONTINUOUS
 10
-0.9659827303
 20
0.2361503906
 40
31.6063623377
100
AcDbArc
 50
176.5590799622
 51
188.8201478292
  0
ARC
  5
46C
100
AcDbEntity
  8
0
100
AcDbCircle
 62
7
  6
CONTINUOUS
 10
-0.9659827303
 20
0.2361503906
 40
31.6063623377
100
AcDbArc
 50
356.5590799622
 51
8.8201478292
  0
ARC
  5
46D
100
AcDbEntity
  8
0
100
AcDbCircle
 62
7
  6
CONTINUOUS
 10
-0.9659827303
 20
0.2361503906
 40
31.6063623377
100
AcDbArc
 50
86.5590799622
 51
98.8201478292
  0
ARC
  5
46E
100
AcDbEntity
  8
0
100
AcDbCircle
 62
7
  6
CONTINUOUS
 10
-0.9659827303
 20
0.2361503906
 40
31.6063623377
100
AcDbArc
 50
266.5590799622
 51
278.8201478292
  0
ARC
  5
46F
100
AcDbEntity
  8
0
100
AcDbCircle
 62
7
  6
CONTINUOUS
 10
-0.9659827303
 20
0.2361503906
 40
28.3936376623
100
AcDbArc
 50
176.8554908542
 51
188.8201478292
  0
ARC
  5
470
100
AcDbEntity
  8
0
100
AcDbCircle
 62
7
  6
CONTINUOUS
 10
-0.9659827303
 20
0.2361503906
 40
28.3936376623
100
AcDbArc
 50
356.8554908542
 51
8.8201478292
  0
ARC
  5
471
100
AcDbEntity
  8
0
100
AcDbCircle
 62
7
  6
CONTINUOUS
 10
-0.9659827303
 20
0.2361503906
 40
28.3936376623
100
AcDbArc
 50
86.8554908542
 51
98.8201478292
  0
ARC
  5
472
100
AcDbEntity
  8
0
100
AcDbCircle
 62
7
  6
CONTINUOUS
 10
-0.9659827303
 20
0.2361503906
 40
28.3936376623
100
AcDbArc
 50
266.8554908542
 51
278.8201478292
  0
ARC
  5
473
100
AcDbEntity
  8
DRAFT
100
AcDbCircle
 62
7
  6
CONTINUOUS
 10
34.8420174179
 20
-31.8388496094
 40
8.1834272275
100
AcDbArc
 50
270.0
 51
353.6935680937
  0
ARC
  5
474
100
AcDbEntity
  8
DRAFT
100
AcDbCircle
 62
7
  6
CONTINUOUS
 10
-36.7739828784
 20
-31.8388496094
 40
8.1834272275
100
AcDbArc
 50
186.3064319063
 51
270.0
  0
ARC
  5
475
100
AcDbEntity
  8
DRAFT
100
AcDbCircle
 62
7
  6
CONTINUOUS
 10
-36.7739828784
 20
32.3111503906
 40
8.1834272275
100
AcDbArc
 50
90.0
 51
173.6935680937
  0
ARC
  5
476
100
AcDbEntity
  8
DRAFT
100
AcDbCircle
 62
7
  6
CONTINUOUS
 10
34.8420174179
 20
32.3111503906
 40
8.1834272275
100
AcDbArc
 50
6.3064319063
 51
90.0
  0
ARC
  5
477
100
AcDbEntity
  8
0
100
AcDbCircle
 62
7
  6
CONTINUOUS
 10
-5.5659827303
 20
-29.4090853143
 40
3.3063623377
100
AcDbArc
 50
23.0461299817
 51
324.8370368861
  0
ARC
  5
478
100
AcDbEntity
  8
0
100
AcDbCircle
 62
7
  6
CONTINUOUS
 10
3.6340172697
 20
29.8813860955
 40
3.3063623377
100
AcDbArc
 50
203.0461299817
 51
144.8370368861
  0
ARC
  5
479
100
AcDbEntity
  8
0
100
AcDbCircle
 62
7
  6
CONTINUOUS
 10
28.6792529747
 20
-4.3638496094
 40
3.3063623377
100
AcDbArc
 50
113.0461299817
 51
54.8370368861
  0
ARC
  5
47A
100
AcDbEntity
  8
0
100
AcDbCircle
 62
7
  6
CONTINUOUS
 10
-30.6112184352
 20
4.8361503906
 40
3.3063623377
100
AcDbArc
 50
293.0461299817
 51
234.8370368861
  0
ARC
  5
47B
100
AcDbEntity
  8
0
100
AcDbCircle
 62
7
  6
CONTINUOUS
 10
28.8017842227
 20
-25.9960826564
 40
1.7063623377
100
AcDbArc
 50
315.0
 51
135.0
  0
ARC
  5
47C
100
AcDbEntity
  8
0
100
AcDbCircle
 62
7
  6
CONTINUOUS
 10
25.2662503168
 20
-29.5316165623
 40
1.7063623377
100
AcDbArc
 50
135.0
 51
315.0
  0
ARC
  5
47D
100
AcDbEntity
  8
0
100
AcDbCircle
 62
7
  6
CONTINUOUS
 10
-27.1982157773
 20
-29.5316165623
 40
1.7063623377
100
AcDbArc
 50
225.0
 51
45.0
  0
ARC
  5
47E
100
AcDbEntity
  8
0
100
AcDbCircle
 62
7
  6
CONTINUOUS
 10
-30.7337496832
 20
-25.9960826564
 40
1.7063623377
100
AcDbArc
 50
45.0
 51
225.0
  0
ARC
  5
47F
100
AcDbEntity
  8
0
100
AcDbCircle
 62
7
  6
CONTINUOUS
 10
25.2662503168
 20
30.0039173436
 40
1.7063623377
100
AcDbArc
 50
45.0
 51
225.0
  0
ARC
  5
480
100
AcDbEntity
  8
0
100
AcDbCircle
 62
7
  6
CONTINUOUS
 10
28.8017842227
 20
26.4683834377
 40
1.7063623377
100
AcDbArc
 50
225.0
 51
45.0
  0
ARC
  5
481
100
AcDbEntity
  8
0
100
AcDbCircle
 62
7
  6
CONTINUOUS
 10
-30.7337496832
 20
26.4683834377
 40
1.7063623377
100
AcDbArc
 50
135.0
 51
315.0
  0
ARC
  5
482
100
AcDbEntity
  8
0
100
AcDbCircle
 62
7
  6
CONTINUOUS
 10
-27.1982157773
 20
30.0039173436
 40
1.7063623377
100
AcDbArc
 50
315.0
 51
135.0
  0
ARC
  5
483
100
AcDbEntity
  8
0
100
AcDbCircle
 62
7
  6
CONTINUOUS
 10
-30.6112184352
 20
-4.3638496094
 40
1.6063623377
100
AcDbArc
 50
188.8201478292
 51
8.8201478292
  0
ARC
  5
484
100
AcDbEntity
  8
0
100
AcDbCircle
 62
7
  6
CONTINUOUS
 10
28.6792529747
 20
4.8361503906
 40
1.6063623377
100
AcDbArc
 50
8.8201478292
 51
188.8201478292
  0
ARC
  5
485
100
AcDbEntity
  8
0
100
AcDbCircle
 62
7
  6
CONTINUOUS
 10
-5.5659827303
 20
29.8813860955
 40
1.6063623377
100
AcDbArc
 50
98.8201478292
 51
278.8201478292
  0
ARC
  5
486
100
AcDbEntity
  8
0
100
AcDbCircle
 62
7
  6
CONTINUOUS
 10
3.6340172697
 20
-29.4090853143
 40
1.6063623377
100
AcDbArc
 50
278.8201478292
 51
98.8201478292
  0
ELLIPSE
  5
487
100
AcDbEntity
  8
0
100
AcDbEllipse
 62
7
  6
CONTINUOUS
 10
38.707062656
 20
-21.6870473237
 30
0.0
 11
1.0
 21
0.0
 31
0.0
 40
0.0174550649
 41
-1.5707963268
 42
0.0000000315
  0
ELLIPSE
  5
488
100
AcDbEntity
  8
0
100
AcDbEllipse
 62
7
  6
CONTINUOUS
 10
-40.6390281165
 20
-11.8406518951
 30
0.0
 11
1.0
 21
0.0
 31
0.0
 40
0.0174550649
 41
1.5707963268
 42
3.1415926851
  0
ELLIPSE
  5
489
100
AcDbEntity
  8
0
100
AcDbEllipse
 62
7
  6
CONTINUOUS
 10
38.707062656
 20
12.3129526763
 30
0.0
 11
1.0
 21
0.0
 31
0.0
 40
0.0174550649
 41
-1.5707963268
 42
0.0000000315
  0
ELLIPSE
  5
48A
100
AcDbEntity
  8
0
100
AcDbEllipse
 62
7
  6
CONTINUOUS
 10
-40.6390281165
 20
22.1593481049
 30
0.0
 11
1.0
 21
-0.0
 31
0.0
 40
0.0174550649
 41
1.5707963268
 42
3.1415926851
  0
ELLIPSE
  5
48B
100
AcDbEntity
  8
0
100
AcDbEllipse
 62
7
  6
CONTINUOUS
 10
38.3468746548
 20
-11.4690404304
 30
0.0
 11
-0.0
 21
0.3
 31
0.0
 40
0.0349207695
 41
1.5707963268
 42
3.1241393611
  0
ELLIPSE
  5
48C
100
AcDbEntity
  8
0
100
AcDbEllipse
 62
7
  6
CONTINUOUS
 10
38.3468746548
 20
-22.0586587883
 30
0.0
 11
0.0
 21
0.3
 31
0.0
 40
0.0349207695
 41
0.0174532925
 42
1.5707963268
  0
ELLIPSE
  5
48D
100
AcDbEntity
  8
0
100
AcDbEllipse
 62
7
  6
CONTINUOUS
 10
-40.2788401153
 20
-22.0586587883
 30
0.0
 11
0.0
 21
0.3
 31
0.0
 40
0.0349207695
 41
-1.5707963268
 42
-0.0174532925
  0
ELLIPSE
  5
48E
100
AcDbEntity
  8
0
100
AcDbEllipse
 62
7
  6
CONTINUOUS
 10
-40.2788401153
 20
-11.4690404304
 30
0.0
 11
0.0
 21
0.3
 31
0.0
 40
0.0349207695
 41
-3.1241393611
 42
-1.5707963268
  0
ELLIPSE
  5
48F
100
AcDbEntity
  8
0
100
AcDbEllipse
 62
7
  6
CONTINUOUS
 10
-40.6390281165
 20
-21.6870473237
 30
0.0
 11
1.0
 21
0.0
 31
0.0
 40
0.0174550649
 41
3.1415926221
 42
4.7123889804
  0
ELLIPSE
  5
490
100
AcDbEntity
  8
0
100
AcDbEllipse
 62
7
  6
CONTINUOUS
 10
38.707062656
 20
-11.8406518951
 30
0.0
 11
1.0
 21
0.0
 31
0.0
 40
0.0174550649
 41
-0.0000000315
 42
1.5707963268
  0
ELLIPSE
  5
491
100
AcDbEntity
  8
0
100
AcDbEllipse
 62
7
  6
CONTINUOUS
 10
38.3468746548
 20
11.9413412117
 30
0.0
 11
0.0
 21
0.3
 31
0.0
 40
0.0349207695
 41
0.0174532925
 42
1.5707963268
  0
ELLIPSE
  5
492
100
AcDbEntity
  8
0
100
AcDbEllipse
 62
7
  6
CONTINUOUS
 10
38.3468746548
 20
22.5309595696
 30
0.0
 11
0.0
 21
0.3
 31
0.0
 40
0.0349207695
 41
-4.7123889804
 42
-3.1590459461
  0
ELLIPSE
  5
493
100
AcDbEntity
  8
0
100
AcDbEllipse
 62
7
  6
CONTINUOUS
 10
-40.2788401153
 20
22.5309595696
 30
0.0
 11
-0.0
 21
0.3
 31
0.0
 40
0.0349207695
 41
-3.1241393611
 42
-1.5707963268
  0
ELLIPSE
  5
494
100
AcDbEntity
  8
0
100
AcDbEllipse
 62
7
  6
CONTINUOUS
 10
-40.2788401153
 20
11.9413412117
 30
0.0
 11
0.0
 21
0.3
 31
0.0
 40
0.0349207695
 41
-1.5707963268
 42
-0.0174532925
  0
ELLIPSE
  5
495
100
AcDbEntity
  8
0
100
AcDbEllipse
 62
7
  6
CONTINUOUS
 10
38.707062656
 20
22.1593481049
 30
0.0
 11
1.0
 21
-0.0
 31
0.0
 40
0.0174550649
 41
-0.0000000315
 42
1.5707963268
  0
ELLIPSE
  5
496
100
AcDbEntity
  8
0
100
AcDbEllipse
 62
7
  6
CONTINUOUS
 10
-40.6390281165
 20
12.3129526763
 30
0.0
 11
1.0
 21
-0.0
 31
0.0
 40
0.0174550649
 41
3.1415926221
 42
4.7123889804
  0
ELLIPSE
  5
497
100
AcDbEntity
  8
0
100
AcDbEllipse
 62
7
  6
CONTINUOUS
 10
14.5050968272
 20
-25.2306057039
 30
0.0
 11
0.0613079453
 21
0.300268975
 31
0.0
 40
0.4792132085
 41
-1.6849937418
 42
-1.3359833253
  0
ELLIPSE
  5
498
100
AcDbEntity
  8
0
100
AcDbEllipse
 62
7
  6
CONTINUOUS
 10
14.5050968272
 20
-25.2306057039
 30
0.0
 11
0.1906113921
 21
0.2399737875
 31
0.0
 40
0.4792132085
 41
-1.8056093283
 42
-1.4565989118
  0
ELLIPSE
  5
499
100
AcDbEntity
  8
0
100
AcDbEllipse
 62
7
  6
CONTINUOUS
 10
12.9718757709
 20
-26.7638267602
 30
0.0
 11
0.2440046096
 21
0.1884669564
 31
0.0
 40
0.473479458
 41
-1.6985795958
 42
-1.3059436001
  0
ELLIPSE
  5
49A
100
AcDbEntity
  8
0
100
AcDbEllipse
 62
7
  6
CONTINUOUS
 10
12.9718757709
 20
-26.7638267602
 30
0.0
 11
0.305803577
 21
0.0392710511
 31
0.0
 40
0.473479458
 41
-1.8356490535
 42
-1.4430130577
  0
ELLIPSE
  5
49B
100
AcDbEntity
  8
0
100
AcDbEllipse
 62
7
  6
CONTINUOUS
 10
7.5961587685
 20
-26.7638267602
 30
0.0
 11
0.305803577
 21
-0.0392710511
 31
0.0
 40
0.473479458
 41
-1.6985795958
 42
-1.3059436001
  0
ELLIPSE
  5
49C
100
AcDbEntity
  8
0
100
AcDbEllipse
 62
7
  6
CONTINUOUS
 10
7.5961587685
 20
-26.7638267602
 30
0.0
 11
0.2440046096
 21
-0.1884669564
 31
0.0
 40
0.473479458
 41
-1.8356490535
 42
-1.4430130577
  0
ELLIPSE
  5
49D
100
AcDbEntity
  8
0
100
AcDbEllipse
 62
7
  6
CONTINUOUS
 10
6.0629377123
 20
-25.2306057039
 30
0.0
 11
-0.1906113921
 21
0.2399737875
 31
0.0
 40
0.4792132085
 41
1.4565989118
 42
1.8056093283
  0
ELLIPSE
  5
49E
100
AcDbEntity
  8
0
100
AcDbEllipse
 62
7
  6
CONTINUOUS
 10
6.0629377123
 20
-25.2306057039
 30
0.0
 11
-0.0613079453
 21
0.300268975
 31
0.0
 40
0.4792132085
 41
1.3359833253
 42
1.6849937418
  0
ELLIPSE
  5
49F
100
AcDbEntity
  8
0
100
AcDbEllipse
 62
7
  6
CONTINUOUS
 10
-7.9949031728
 20
-25.2306057039
 30
0.0
 11
0.0613079453
 21
0.300268975
 31
0.0
 40
0.4792132085
 41
-1.6849937418
 42
-1.3359833253
  0
ELLIPSE
  5
4A0
100
AcDbEntity
  8
0
100
AcDbEllipse
 62
7
  6
CONTINUOUS
 10
-7.9949031728
 20
-25.2306057039
 30
0.0
 11
0.1906113921
 21
0.2399737875
 31
0.0
 40
0.4792132085
 41
-1.8056093283
 42
-1.4565989118
  0
ELLIPSE
  5
4A1
100
AcDbEntity
  8
0
100
AcDbEllipse
 62
7
  6
CONTINUOUS
 10
-9.5281242291
 20
-26.7638267602
 30
0.0
 11
0.2440046096
 21
0.1884669564
 31
0.0
 40
0.473479458
 41
-1.6985795958
 42
-1.3059436001
  0
ELLIPSE
  5
4A2
100
AcDbEntity
  8
0
100
AcDbEllipse
 62
7
  6
CONTINUOUS
 10
-9.5281242291
 20
-26.7638267602
 30
0.0
 11
0.305803577
 21
0.0392710511
 31
0.0
 40
0.473479458
 41
-1.8356490535
 42
-1.4430130577
  0
ELLIPSE
  5
4A3
100
AcDbEntity
  8
0
100
AcDbEllipse
 62
7
  6
CONTINUOUS
 10
-14.9038412315
 20
-26.7638267602
 30
0.0
 11
0.305803577
 21
-0.0392710511
 31
0.0
 40
0.473479458
 41
-1.6985795958
 42
-1.3059436001
  0
ELLIPSE
  5
4A4
100
AcDbEntity
  8
0
100
AcDbEllipse
 62
7
  6
CONTINUOUS
 10
-14.9038412315
 20
-26.7638267602
 30
0.0
 11
0.2440046096
 21
-0.1884669564
 31
0.0
 40
0.473479458
 41
-1.8356490535
 42
-1.4430130577
  0
ELLIPSE
  5
4A5
100
AcDbEntity
  8
0
100
AcDbEllipse
 62
7
  6
CONTINUOUS
 10
-16.4370622877
 20
-25.2306057039
 30
0.0
 11
-0.1906113921
 21
0.2399737875
 31
0.0
 40
0.4792132085
 41
1.4565989118
 42
1.8056093283
  0
ELLIPSE
  5
4A6
100
AcDbEntity
  8
0
100
AcDbEllipse
 62
7
  6
CONTINUOUS
 10
-16.4370622877
 20
-25.2306057039
 30
0.0
 11
-0.0613079453
 21
0.300268975
 31
0.0
 40
0.4792132085
 41
1.3359833253
 42
1.6849937418
  0
ELLIPSE
  5
4A7
100
AcDbEntity
  8
0
100
AcDbEllipse
 62
7
  6
CONTINUOUS
 10
-9.5281242291
 20
27.2361275414
 30
0.0
 11
0.305803577
 21
-0.0392710511
 31
0.0
 40
0.473479458
 41
1.4430130577
 42
1.8356490535
  0
ELLIPSE
  5
4A8
100
AcDbEntity
  8
0
100
AcDbEllipse
 62
7
  6
CONTINUOUS
 10
-9.5281242291
 20
27.2361275414
 30
0.0
 11
0.2440046096
 21
-0.1884669564
 31
0.0
 40
0.473479458
 41
1.3059436001
 42
1.6985795958
  0
ELLIPSE
  5
4A9
100
AcDbEntity
  8
0
100
AcDbEllipse
 62
7
  6
CONTINUOUS
 10
-7.9949031728
 20
25.7029064852
 30
0.0
 11
-0.1906113921
 21
0.2399737875
 31
0.0
 40
0.4792132085
 41
-1.6849937418
 42
-1.3359833253
  0
ELLIPSE
  5
4AA
100
AcDbEntity
  8
0
100
AcDbEllipse
 62
7
  6
CONTINUOUS
 10
-7.9949031728
 20
25.7029064852
 30
0.0
 11
-0.0613079453
 21
0.300268975
 31
0.0
 40
0.4792132085
 41
-1.8056093283
 42
-1.4565989118
  0
ELLIPSE
  5
4AB
100
AcDbEntity
  8
0
100
AcDbEllipse
 62
7
  6
CONTINUOUS
 10
14.5050968272
 20
25.7029064852
 30
0.0
 11
-0.1906113921
 21
0.2399737875
 31
0.0
 40
0.4792132085
 41
-1.6849937418
 42
-1.3359833253
  0
ELLIPSE
  5
4AC
100
AcDbEntity
  8
0
100
AcDbEllipse
 62
7
  6
CONTINUOUS
 10
14.5050968272
 20
25.7029064852
 30
0.0
 11
-0.0613079453
 21
0.300268975
 31
0.0
 40
0.4792132085
 41
-1.8056093283
 42
-1.4565989118
  0
ELLIPSE
  5
4AD
100
AcDbEntity
  8
0
100
AcDbEllipse
 62
7
  6
CONTINUOUS
 10
12.9718757709
 20
27.2361275414
 30
0.0
 11
0.305803577
 21
-0.0392710511
 31
0.0
 40
0.473479458
 41
1.4430130577
 42
1.8356490535
  0
ELLIPSE
  5
4AE
100
AcDbEntity
  8
0
100
AcDbEllipse
 62
7
  6
CONTINUOUS
 10
12.9718757709
 20
27.2361275414
 30
0.0
 11
0.2440046096
 21
-0.1884669564
 31
0.0
 40
0.473479458
 41
1.3059436001
 42
1.6985795958
  0
ELLIPSE
  5
4AF
100
AcDbEntity
  8
0
100
AcDbEllipse
 62
7
  6
CONTINUOUS
 10
7.5961587685
 20
27.2361275414
 30
0.0
 11
0.2440046096
 21
0.1884669564
 31
0.0
 40
0.473479458
 41
1.4430130577
 42
1.8356490535
  0
ELLIPSE
  5
4B0
100
AcDbEntity
  8
0
100
AcDbEllipse
 62
7
  6
CONTINUOUS
 10
7.5961587685
 20
27.2361275414
 30
0.0
 11
0.305803577
 21
0.0392710511
 31
0.0
 40
0.473479458
 41
1.3059436001
 42
1.6985795958
  0
ELLIPSE
  5
4B1
100
AcDbEntity
  8
0
100
AcDbEllipse
 62
7
  6
CONTINUOUS
 10
6.0629377123
 20
25.7029064852
 30
0.0
 11
0.0613079453
 21
0.300268975
 31
0.0
 40
0.4792132085
 41
1.4565989118
 42
1.8056093283
  0
ELLIPSE
  5
4B2
100
AcDbEntity
  8
0
100
AcDbEllipse
 62
7
  6
CONTINUOUS
 10
6.0629377123
 20
25.7029064852
 30
0.0
 11
0.1906113921
 21
0.2399737875
 31
0.0
 40
0.4792132085
 41
1.3359833253
 42
1.6849937418
  0
ELLIPSE
  5
4B3
100
AcDbEntity
  8
0
100
AcDbEllipse
 62
7
  6
CONTINUOUS
 10
-16.4370622877
 20
25.7029064852
 30
0.0
 11
0.0613079453
 21
0.300268975
 31
0.0
 40
0.4792132085
 41
1.4565989118
 42
1.8056093283
  0
ELLIPSE
  5
4B4
100
AcDbEntity
  8
0
100
AcDbEllipse
 62
7
  6
CONTINUOUS
 10
-16.4370622877
 20
25.7029064852
 30
0.0
 11
0.1906113921
 21
0.2399737875
 31
0.0
 40
0.4792132085
 41
1.3359833253
 42
1.6849937418
  0
ELLIPSE
  5
4B5
100
AcDbEntity
  8
0
100
AcDbEllipse
 62
7
  6
CONTINUOUS
 10
-14.9038412315
 20
27.2361275414
 30
0.0
 11
0.2440046096
 21
0.1884669564
 31
0.0
 40
0.473479458
 41
1.4430130577
 42
1.8356490535
  0
ELLIPSE
  5
4B6
100
AcDbEntity
  8
0
100
AcDbEllipse
 62
7
  6
CONTINUOUS
 10
-14.9038412315
 20
27.2361275414
 30
0.0
 11
0.305803577
 21
0.0392710511
 31
0.0
 40
0.473479458
 41
1.3059436001
 42
1.6985795958
  0
ELLIPSE
  5
4B7
100
AcDbEntity
  8
0
100
AcDbEllipse
 62
7
  6
CONTINUOUS
 10
38.707062656
 20
21.3301178506
 30
0.0
 11
1.0
 21
0.0
 31
0.0
 40
0.0349207695
 41
-0.0000000318
 42
1.5707963268
  0
ELLIPSE
  5
4B8
100
AcDbEntity
  8
0
100
AcDbEllipse
 62
7
  6
CONTINUOUS
 10
-40.6390281165
 20
13.1421829306
 30
0.0
 11
1.0
 21
0.0
 31
0.0
 40
0.0349207695
 41
3.1415926218
 42
4.7123889804
  0
ELLIPSE
  5
4B9
100
AcDbEntity
  8
0
100
AcDbEllipse
 62
7
  6
CONTINUOUS
 10
38.707062656
 20
-12.6698821494
 30
0.0
 11
1.0
 21
0.0
 31
0.0
 40
0.0349207695
 41
-0.0000000318
 42
1.5707963268
  0
ELLIPSE
  5
4BA
100
AcDbEntity
  8
0
100
AcDbEllipse
 62
7
  6
CONTINUOUS
 10
-40.6390281165
 20
-20.8578170694
 30
0.0
 11
1.0
 21
0.0
 31
0.0
 40
0.0349207695
 41
3.1415926218
 42
4.7123889804
  0
ELLIPSE
  5
4BB
100
AcDbEntity
  8
0
100
AcDbEllipse
 62
7
  6
CONTINUOUS
 10
38.707062656
 20
-20.8578170694
 30
0.0
 11
1.0
 21
0.0
 31
0.0
 40
0.0349207695
 41
-1.5707963268
 42
0.0000000318
  0
ELLIPSE
  5
4BC
100
AcDbEntity
  8
0
100
AcDbEllipse
 62
7
  6
CONTINUOUS
 10
14.4462620521
 20
-25.2031705977
 30
0.0
 11
0.2719392391
 21
-0.1268073498
 31
0.0
 40
0.9998275239
 41
-0.3490104165
 42
0.3490104165
  0
ELLIPSE
  5
4BD
100
AcDbEntity
  8
0
100
AcDbEllipse
 62
7
  6
CONTINUOUS
 10
12.9466079077
 20
-26.7028247421
 30
0.0
 11
-0.1148255179
 21
0.2772133227
 31
0.0
 40
0.9998215708
 41
-3.5342286494
 42
-2.7489566578
  0
ELLIPSE
  5
4BE
100
AcDbEntity
  8
0
100
AcDbEllipse
 62
7
  6
CONTINUOUS
 10
7.6214266318
 20
-26.7028247421
 30
0.0
 11
0.1148255179
 21
0.2772133227
 31
0.0
 40
0.9998215708
 41
-3.5342286494
 42
-2.7489566578
  0
ELLIPSE
  5
4BF
100
AcDbEntity
  8
0
100
AcDbEllipse
 62
7
  6
CONTINUOUS
 10
6.1217724874
 20
-25.2031705977
 30
0.0
 11
0.2719392391
 21
0.1268073498
 31
0.0
 40
0.9998275239
 41
2.7925822371
 42
3.4906030701
  0
ELLIPSE
  5
4C0
100
AcDbEntity
  8
0
100
AcDbEllipse
 62
7
  6
CONTINUOUS
 10
-8.0537379479
 20
-25.2031705977
 30
0.0
 11
0.2719392391
 21
-0.1268073498
 31
0.0
 40
0.9998275239
 41
-0.3490104165
 42
0.3490104165
  0
ELLIPSE
  5
4C1
100
AcDbEntity
  8
0
100
AcDbEllipse
 62
7
  6
CONTINUOUS
 10
-9.5533920923
 20
-26.7028247421
 30
0.0
 11
-0.1148255179
 21
0.2772133227
 31
0.0
 40
0.9998215708
 41
-3.5342286494
 42
-2.7489566578
  0
ELLIPSE
  5
4C2
100
AcDbEntity
  8
0
100
AcDbEllipse
 62
7
  6
CONTINUOUS
 10
-14.8785733682
 20
-26.7028247421
 30
0.0
 11
0.1148255179
 21
0.2772133227
 31
0.0
 40
0.9998215708
 41
-3.5342286494
 42
-2.7489566578
  0
ELLIPSE
  5
4C3
100
AcDbEntity
  8
0
100
AcDbEllipse
 62
7
  6
CONTINUOUS
 10
-16.3782275126
 20
-25.2031705977
 30
0.0
 11
0.2719392391
 21
0.1268073498
 31
0.0
 40
0.9998275239
 41
2.7925822371
 42
3.4906030701
  0
ELLIPSE
  5
4C4
100
AcDbEntity
  8
0
100
AcDbEllipse
 62
7
  6
CONTINUOUS
 10
-40.6390281165
 20
-12.6698821494
 30
0.0
 11
1.0
 21
-0.0
 31
0.0
 40
0.0349207695
 41
1.5707963268
 42
3.1415926854
  0
ELLIPSE
  5
4C5
100
AcDbEntity
  8
0
100
AcDbEllipse
 62
7
  6
CONTINUOUS
 10
-9.5533920923
 20
27.1751255233
 30
0.0
 11
0.1148255179
 21
0.2772133227
 31
0.0
 40
0.9998215708
 41
-0.3926359958
 42
0.3926359958
  0
ELLIPSE
  5
4C6
100
AcDbEntity
  8
0
100
AcDbEllipse
 62
7
  6
CONTINUOUS
 10
-8.0537379479
 20
25.675471379
 30
0.0
 11
0.2719392391
 21
0.1268073498
 31
0.0
 40
0.9998275239
 41
-0.3490104165
 42
0.3490104165
  0
ELLIPSE
  5
4C7
100
AcDbEntity
  8
0
100
AcDbEllipse
 62
7
  6
CONTINUOUS
 10
14.4462620521
 20
25.675471379
 30
0.0
 11
0.2719392391
 21
0.1268073498
 31
0.0
 40
0.9998275239
 41
-0.3490104165
 42
0.3490104165
  0
ELLIPSE
  5
4C8
100
AcDbEntity
  8
0
100
AcDbEllipse
 62
7
  6
CONTINUOUS
 10
12.9466079077
 20
27.1751255233
 30
0.0
 11
0.1148255179
 21
0.2772133227
 31
0.0
 40
0.9998215708
 41
-0.3926359958
 42
0.3926359958
  0
ELLIPSE
  5
4C9
100
AcDbEntity
  8
0
100
AcDbEllipse
 62
7
  6
CONTINUOUS
 10
7.6214266318
 20
27.1751255233
 30
0.0
 11
-0.1148255179
 21
0.2772133227
 31
0.0
 40
0.9998215708
 41
-0.3926359958
 42
0.3926359958
  0
ELLIPSE
  5
4CA
100
AcDbEntity
  8
0
100
AcDbEllipse
 62
7
  6
CONTINUOUS
 10
6.1217724874
 20
25.675471379
 30
0.0
 11
0.2719392391
 21
-0.1268073498
 31
0.0
 40
0.9998275239
 41
2.7925822371
 42
3.4906030701
  0
ELLIPSE
  5
4CB
100
AcDbEntity
  8
0
100
AcDbEllipse
 62
7
  6
CONTINUOUS
 10
-16.3782275126
 20
25.675471379
 30
0.0
 11
0.2719392391
 21
-0.1268073498
 31
0.0
 40
0.9998275239
 41
2.7925822371
 42
3.4906030701
  0
ELLIPSE
  5
4CC
100
AcDbEntity
  8
0
100
AcDbEllipse
 62
7
  6
CONTINUOUS
 10
-14.8785733682
 20
27.1751255233
 30
0.0
 11
-0.1148255179
 21
0.2772133227
 31
0.0
 40
0.9998215708
 41
-0.3926359958
 42
0.3926359958
  0
ELLIPSE
  5
4CD
100
AcDbEntity
  8
0
100
AcDbEllipse
 62
7
  6
CONTINUOUS
 10
38.707062656
 20
13.1421829306
 30
0.0
 11
1.0
 21
0.0
 31
0.0
 40
0.0349207695
 41
-1.5707963268
 42
0.0000000318
  0
ELLIPSE
  5
4CE
100
AcDbEntity
  8
0
100
AcDbEllipse
 62
7
  6
CONTINUOUS
 10
-40.6390281165
 20
21.3301178506
 30
0.0
 11
1.0
 21
0.0
 31
0.0
 40
0.0349207695
 41
1.5707963268
 42
3.1415926854
  0
ENDSEC
  0
SECTION
  2
OBJECTS
  0
DICTIONARY
  5
C
100
AcDbDictionary
280
0
281
1
  3
ACAD_GROUP
350
D
  3
ACAD_MLINESTYLE
350
17
  3
ACAD_LAYOUT
350
1A
  3
ACAD_PLOTSETTINGS
350
19
  3
ACAD_PLOTSTYLENAME
350
E
  0
DICTIONARY
  5
D
102
{ACAD_REACTORS
330
C
102
}
100
AcDbDictionary
280
0
281
1
  0
ACDBDICTIONARYWDFLT
  5
E
102
{ACAD_REACTORS
330
C
102
}
100
AcDbDictionary
281
1
  3
Normal
350
F
100
AcDbDictionaryWithDefault
340
F
  0
DICTIONARY
  5
17
102
{ACAD_REACTORS
330
C
102
}
100
AcDbDictionary
280
0
281
1
  3
Standard
350
18
  0
DICTIONARY
  5
19
102
{ACAD_REACTORS
330
C
102
}
100
AcDbDictionary
281
1
  0
DICTIONARY
  5
1A
102
{ACAD_REACTORS
330
C
102
}
100
AcDbDictionary
281
1
  3
Model
350
4CF
  3
Layout1
350
4D0
  0
ACDBPLACEHOLDER
  5
F
102
{ACAD_REACTORS
330
E
102
}
  0
MLINESTYLE
  5
18
102
{ACAD_REACTORS
330
17
102
}
100
AcDbMlineStyle
  2
STANDARD
 70
0
  3

 62
256
 51
90.0
 52
90.0
 71
2
 49
0.5
 62
256
  6
BYLAYER
 49
-0.5
 62
256
  6
BYLAYER
  0
LAYOUT
  5
4CF
102
{ACAD_REACTORS
330
1A
102
}
100
AcDbPlotSettings
  1

  2
none_device
  4
ISO_A4_(297.00_x_210.00_MM)
  6

 40
0.0
 41
0.0
 42
0.0
 43
0.0
 44
297.0
 45
210.0
 46
0.0
 47
0.0
 48
0.0
 49
0.0
140
0.0
141
0.0
142
1.0
143
1.0
 70
1024
 72
1
 73
0
 74
0
  7

 75
0
147
1.0
148
0.0
149
0.0
100
AcDbLayout
  1
Model
 70
0
 71
0
 10
0.0
 20
0.0
 11
297.0
 21
210.0
 12
0.0
 22
0.0
 32
0.0
 14
0.0
 24
0.0
 34
0.0
 15
0.0
 25
0.0
 35
0.0
146
0.0
 13
0.0
 23
0.0
 33
0.0
 16
1.0
 26
0.0
 36
0.0
 17
0.0
 27
1.0
 37
0.0
 76
0
330
218
345
0
346
0
  0
LAYOUT
  5
4D0
102
{ACAD_REACTORS
330
1A
102
}
100
AcDbPlotSettings
  1

  2
none_device
  4
ISO_A4_(297.00_x_210.00_MM)
  6

 40
0.0
 41
0.0
 42
0.0
 43
0.0
 44
297.0
 45
210.0
 46
0.0
 47
0.0
 48
0.0
 49
0.0
140
0.0
141
0.0
142
1.0
143
1.0
 70
0
 72
1
 73
0
 74
0
  7

 75
0
147
1.0
148
0.0
149
0.0
100
AcDbLayout
  1
Layout1
 70
0
 71
1
 10
0.0
 20
0.0
 11
297.0
 21
210.0
 12
0.0
 22
0.0
 32
0.0
 14
0.0
 24
0.0
 34
0.0
 15
0.0
 25
0.0
 35
0.0
146
0.0
 13
0.0
 23
0.0
 33
0.0
 16
1.0
 26
0.0
 36
0.0
 17
0.0
 27
1.0
 37
0.0
 76
0
330
219
345
0
346
0
  0
ENDSEC
  0
EOF
