  0
SECTION
  2
HEADER
  9
$ACADVER
  1
AC1015
  9
$DWGCODEPAGE
  3
ANSI_1252
  9
$EXTMAX
 10
297.0
 20
210.0
 30
0.0
  9
$EXTMIN
 10
0.0
 20
0.0
 30
0.0
  9
$LIMMIN
 10
0.0
 20
0.0
  9
$LIMMAX
 10
297.0
 20
210.0
  9
$VIEWCTR
 10
148.5
 20
105.0
  9
$VIEWSIZE
 40
210.0
  9
$CLAYER
  8
0
  9
$LTSCALE
 40
16.335
  9
$CELTYPE
  6
BYLAYER
  9
$DIMSCALE
 40
1.0
  9
$DIMASZ
 40
3.0
  9
$DIMEXO
 40
1.85625
  9
$DIMDLI
 40
11.286
  9
$DIMEXE
 40
5.346
  9
$DIMCEN
 40
2.673
  9
$DIMLFAC
 40
1.0
  9
$DIMBLK
  1
_FILLED
  9
$DIMTXT
 40
3.0
  9
$DIMTOL
 70
1
  9
$DIMLIM
 70
0
  9
$DIMTFAC
 40
1.0
  9
$DIMTP
 40
0.01
  9
$DIMTM
 40
0.01
  9
$PDMODE
 70
3
  9
$PDSIZE
 40
3.0
  9
$HANDSEED
  5
8BE
  9
$TILEMODE
 70
1
  9
$MEASUREMENT
 70
1
  9
$INSUNITS
 70
4
  0
ENDSEC
  0
SECTION
  2
CLASSES
  0
CLASS
  1
ACDBDICTIONARYWDFLT
  2
AcDbDictionaryWithDefault
  3
AutoCAD 2000
 90
0
280
0
281
0
  0
CLASS
  1
ACDBPLACEHOLDER
  2
AcDbPlaceHolder
  3
AutoCAD 2000
 90
0
280
0
281
0
  0
CLASS
  1
LAYOUT
  2
AcDbLayout
  3
AutoCAD 2000
 90
0
280
0
281
0
  0
ENDSEC
  0
SECTION
  2
TABLES
  0
TABLE
  2
VPORT
  5
8
100
AcDbSymbolTable
 70
2
  0
VPORT
  5
1F4
100
AcDbSymbolTableRecord
100
AcDbViewportTableRecord
  2
*ACTIVE
 70
0
 10
0.0
 20
0.0
 11
1.0
 21
1.0
 12
148.5
 22
105.0
 13
0.0
 23
0.0
 14
1.0
 24
1.0
 15
0.0
 25
0.0
 16
0.0
 26
0.0
 36
1.0
 17
0.0
 27
0.0
 37
0.0
 40
210.0
 41
1.4142857143
 42
50.0
 43
0.0
 44
0.0
 50
0.0
 51
0.0
 71
0
 72
100
 73
1
 74
1
 75
0
 76
0
 77
0
 78
0
  0
ENDTAB
  0
TABLE
  2
LTYPE
  5
5
100
AcDbSymbolTable
 70
6
  0
LTYPE
  5
14
100
AcDbSymbolTableRecord
100
AcDbLinetypeTableRecord
  2
BYBLOCK
 70
0
  3

 72
65
 73
0
 40
0.0
  0
LTYPE
  5
15
100
AcDbSymbolTableRecord
100
AcDbLinetypeTableRecord
  2
BYLAYER
 70
0
  3

 72
65
 73
0
 40
0.0
  0
LTYPE
  5
16
100
AcDbSymbolTableRecord
100
AcDbLinetypeTableRecord
  2
CONTINUOUS
 70
64
  3
Solid line
 72
65
 73
0
 40
0.0
  0
LTYPE
  5
1F5
100
AcDbSymbolTableRecord
100
AcDbLinetypeTableRecord
  2
CENTER
 70
64
  3
____ _ ____ _ ____ _ ____ _ ____ _ ____ _ ____
 72
65
 73
4
 40
0.6
 49
0.375
 74
0
 49
-0.075
 74
0
 49
0.075
 74
0
 49
-0.075
 74
0
  0
LTYPE
  5
1F6
100
AcDbSymbolTableRecord
100
AcDbLinetypeTableRecord
  2
HIDDEN
 70
64
  3
- - - - - - - - - - - - - - - - - - - -
 72
65
 73
2
 40
0.2
 49
0.1
 74
0
 49
-0.1
 74
0
  0
LTYPE
  5
1F7
100
AcDbSymbolTableRecord
100
AcDbLinetypeTableRecord
  2
PHANTOM
 70
64
  3
_____ _ _ _____ _ _ _____ _ _ _____
 72
65
 73
6
 40
0.8
 49
0.45
 74
0
 49
-0.05
 74
0
 49
0.1
 74
0
 49
-0.05
 74
0
 49
0.1
 74
0
 49
-0.05
 74
0
  0
LTYPE
  5
1F8
100
AcDbSymbolTableRecord
100
AcDbLinetypeTableRecord
  2
DOT
 70
64
  3
. . . . . . . . . . . . . . . . . . . .
 72
65
 73
2
 40
0.2
 49
0.1
 74
0
 49
-0.1
 74
0
  0
LTYPE
  5
1F9
100
AcDbSymbolTableRecord
100
AcDbLinetypeTableRecord
  2
DASHED
 70
64
  3
- - - - - - - - - - - - - - - - - - - -
 72
65
 73
2
 40
0.2
 49
0.1
 74
0
 49
-0.1
 74
0
  0
ENDTAB
  0
TABLE
  2
LAYER
  5
2
100
AcDbSymbolTable
 70
36
  0
LAYER
  5
10
100
AcDbSymbolTableRecord
100
AcDbLayerTableRecord
  2
0
 70
0
 62
7
  6
CONTINUOUS
370
-3
390
F
  0
LAYER
  5
1FA
100
AcDbSymbolTableRecord
100
AcDbLayerTableRecord
  2
DEFAULT_1
 70
0
 62
7
  6
CENTER
370
-3
390
F
  0
LAYER
  5
1FB
100
AcDbSymbolTableRecord
100
AcDbLayerTableRecord
  2
DEFAULT_2
 70
0
 62
7
  6
HIDDEN
370
-3
390
F
  0
LAYER
  5
1FC
100
AcDbSymbolTableRecord
100
AcDbLayerTableRecord
  2
DEFAULT_3
 70
0
 62
7
  6
PHANTOM
370
-3
390
F
  0
LAYER
  5
1FD
100
AcDbSymbolTableRecord
100
AcDbLayerTableRecord
  2
ASSI
 70
0
 62
7
  6
CONTINUOUS
370
-3
390
F
  0
LAYER
  5
1FE
100
AcDbSymbolTableRecord
100
AcDbLayerTableRecord
  2
COLOR4
 70
0
 62
7
  6
CONTINUOUS
370
-3
390
F
  0
LAYER
  5
1FF
100
AcDbSymbolTableRecord
100
AcDbLayerTableRecord
  2
COORDINATE
 70
0
 62
7
  6
CONTINUOUS
370
-3
390
F
  0
LAYER
  5
200
100
AcDbSymbolTableRecord
100
AcDbLayerTableRecord
  2
COORD_ORIGINE
 70
0
 62
7
  6
CONTINUOUS
370
-3
390
F
  0
LAYER
  5
201
100
AcDbSymbolTableRecord
100
AcDbLayerTableRecord
  2
COPY
 70
0
 62
7
  6
CONTINUOUS
370
-3
390
F
  0
LAYER
  5
202
100
AcDbSymbolTableRecord
100
AcDbLayerTableRecord
  2
COPY_PUBLISH
 70
0
 62
7
  6
CONTINUOUS
370
-3
390
F
  0
LAYER
  5
203
100
AcDbSymbolTableRecord
100
AcDbLayerTableRecord
  2
COSMETICI
 70
0
 62
7
  6
CONTINUOUS
370
-3
390
F
  0
LAYER
  5
204
100
AcDbSymbolTableRecord
100
AcDbLayerTableRecord
  2
CURVE
 70
0
 62
7
  6
CONTINUOUS
370
-3
390
F
  0
LAYER
  5
205
100
AcDbSymbolTableRecord
100
AcDbLayerTableRecord
  2
DRAFT
 70
0
 62
7
  6
CONTINUOUS
370
-3
390
F
  0
LAYER
  5
206
100
AcDbSymbolTableRecord
100
AcDbLayerTableRecord
  2
IGES
 70
0
 62
7
  6
CONTINUOUS
370
-3
390
F
  0
LAYER
  5
207
100
AcDbSymbolTableRecord
100
AcDbLayerTableRecord
  2
IMPORT_IGES
 70
0
 62
7
  6
CONTINUOUS
370
-3
390
F
  0
LAYER
  5
208
100
AcDbSymbolTableRecord
100
AcDbLayerTableRecord
  2
INTFCLR_137
 70
0
 62
7
  6
CONTINUOUS
370
-3
390
F
  0
LAYER
  5
209
100
AcDbSymbolTableRecord
100
AcDbLayerTableRecord
  2
INTFCLR_2
 70
0
 62
7
  6
CONTINUOUS
370
-3
390
F
  0
LAYER
  5
20A
100
AcDbSymbolTableRecord
100
AcDbLayerTableRecord
  2
INTFCLR_4627
 70
0
 62
7
  6
CONTINUOUS
370
-3
390
F
  0
LAYER
  5
20B
100
AcDbSymbolTableRecord
100
AcDbLayerTableRecord
  2
INTFCLR_6275
 70
0
 62
7
  6
CONTINUOUS
370
-3
390
F
  0
LAYER
  5
20C
100
AcDbSymbolTableRecord
100
AcDbLayerTableRecord
  2
INTF_1
 70
0
 62
7
  6
CONTINUOUS
370
-3
390
F
  0
LAYER
  5
20D
100
AcDbSymbolTableRecord
100
AcDbLayerTableRecord
  2
INTF_12
 70
0
 62
7
  6
CONTINUOUS
370
-3
390
F
  0
LAYER
  5
20E
100
AcDbSymbolTableRecord
100
AcDbLayerTableRecord
  2
INTF_6
 70
0
 62
7
  6
CONTINUOUS
370
-3
390
F
  0
LAYER
  5
20F
100
AcDbSymbolTableRecord
100
AcDbLayerTableRecord
  2
NOTE
 70
0
 62
7
  6
CONTINUOUS
370
-3
390
F
  0
LAYER
  5
210
100
AcDbSymbolTableRecord
100
AcDbLayerTableRecord
  2
PIANI
 70
0
 62
7
  6
CONTINUOUS
370
-3
390
F
  0
LAYER
  5
211
100
AcDbSymbolTableRecord
100
AcDbLayerTableRecord
  2
PIANI_DI_RIFERIMENTO
 70
0
 62
7
  6
CONTINUOUS
370
-3
390
F
  0
LAYER
  5
212
100
AcDbSymbolTableRecord
100
AcDbLayerTableRecord
  2
PIANI_ORIGINE
 70
0
 62
7
  6
CONTINUOUS
370
-3
390
F
  0
LAYER
  5
213
100
AcDbSymbolTableRecord
100
AcDbLayerTableRecord
  2
PIANI_RIFERIMENTO
 70
0
 62
7
  6
CONTINUOUS
370
-3
390
F
  0
LAYER
  5
214
100
AcDbSymbolTableRecord
100
AcDbLayerTableRecord
  2
PIANI_SFORMO
 70
0
 62
7
  6
CONTINUOUS
370
-3
390
F
  0
LAYER
  5
215
100
AcDbSymbolTableRecord
100
AcDbLayerTableRecord
  2
PUNTI
 70
0
 62
7
  6
CONTINUOUS
370
-3
390
F
  0
LAYER
  5
216
100
AcDbSymbolTableRecord
100
AcDbLayerTableRecord
  2
RACCORDO
 70
0
 62
7
  6
CONTINUOUS
370
-3
390
F
  0
LAYER
  5
217
100
AcDbSymbolTableRecord
100
AcDbLayerTableRecord
  2
SIMBOLI
 70
0
 62
7
  6
CONTINUOUS
370
-3
390
F
  0
LAYER
  5
218
100
AcDbSymbolTableRecord
100
AcDbLayerTableRecord
  2
SMUSSO
 70
0
 62
7
  6
CONTINUOUS
370
-3
390
F
  0
LAYER
  5
219
100
AcDbSymbolTableRecord
100
AcDbLayerTableRecord
  2
SNAPLINE
 70
0
 62
7
  6
CONTINUOUS
370
-3
390
F
  0
LAYER
  5
21A
100
AcDbSymbolTableRecord
100
AcDbLayerTableRecord
  2
SUPERFICI
 70
0
 62
7
  6
CONTINUOUS
370
-3
390
F
  0
LAYER
  5
21B
100
AcDbSymbolTableRecord
100
AcDbLayerTableRecord
  2
TRASH
 70
0
 62
7
  6
CONTINUOUS
370
-3
390
F
  0
LAYER
  5
21C
100
AcDbSymbolTableRecord
100
AcDbLayerTableRecord
  2
XSEC_DATUMS
 70
0
 62
7
  6
CONTINUOUS
370
-3
390
F
  0
ENDTAB
  0
TABLE
  2
STYLE
  5
3
100
AcDbSymbolTable
 70
1
  0
STYLE
  5
11
100
AcDbSymbolTableRecord
100
AcDbTextStyleTableRecord
  2
STANDARD
 70
0
 40
0.0
 41
0.8
 50
0.0
 71
0
 42
0.2
  3
txt
  4

  0
STYLE
  5
21D
100
AcDbSymbolTableRecord
100
AcDbTextStyleTableRecord
  2
TEXTSTYLE_1
 70
0
 40
0.0
 41
0.8
 50
0.0
 71
0
 42
0.2
  3
gdt
  4

  0
ENDTAB
  0
TABLE
  2
VIEW
  5
6
100
AcDbSymbolTable
 70
0
  0
ENDTAB
  0
TABLE
  2
UCS
  5
7
100
AcDbSymbolTable
 70
0
  0
ENDTAB
  0
TABLE
  2
APPID
  5
9
100
AcDbSymbolTable
 70
1
  0
APPID
  5
21E
100
AcDbSymbolTableRecord
100
AcDbRegAppTableRecord
  2
ACAD
 70
0
  0
ENDTAB
  0
TABLE
  2
BLOCK_RECORD
  5
1
100
AcDbSymbolTable
 70
0
  0
BLOCK_RECORD
  5
21F
100
AcDbSymbolTableRecord
100
AcDbBlockTableRecord
  2
*Model_Space
  0
BLOCK_RECORD
  5
220
100
AcDbSymbolTableRecord
100
AcDbBlockTableRecord
  2
*Paper_Space
  0
ENDTAB
  0
TABLE
  2
DIMSTYLE
  5
A
100
AcDbSymbolTable
 70
1
100
AcDbDimStyleTable
 71
0
  0
DIMSTYLE
105
221
100
AcDbSymbolTableRecord
100
AcDbDimStyleTableRecord
  2
STANDARD
 70
0
  3

  4

 40
1.0
 41
3.0
 42
0.0625
 43
0.38
 44
0.18
 45
0.0
 46
0.0
 47
0.01
 48
0.01
140
3.0
141
0.09
142
0.0
143
25.4
144
1.0
145
0.0
146
1.0
147
0.09
 71
1.0
 72
0.0
 73
0
 74
0
 75
0
 76
0
 77
1
 78
8
170
0
171
2
172
0
173
0
174
0
175
0
176
0
177
0
178
0
270
2
271
2
272
2
273
2
274
2
275
0
280
0
281
0
282
0
283
1
284
8
285
0
286
0
287
3
288
0
340
11
  0
ENDTAB
  0
ENDSEC
  0
SECTION
  2
BLOCKS
  0
BLOCK
  5
20
100
AcDbEntity
  8
0
100
AcDbBlockBegin
  2
*Model_Space
 70
0
 10
0.0
 20
0.0
 30
0.0
  3
*Model_Space
  1

  0
ENDBLK
  5
21
100
AcDbEntity
  8
0
100
AcDbBlockEnd
  0
BLOCK
  5
1C
100
AcDbEntity
  8
0
100
AcDbBlockBegin
  2
*Paper_Space
 70
0
 10
0.0
 20
0.0
 30
0.0
  3
*Paper_Space
  1

  0
ENDBLK
  5
1D
100
AcDbEntity
  8
0
100
AcDbBlockEnd
  0
ENDSEC
  0
SECTION
  2
ENTITIES
  0
LWPOLYLINE
  5
222
100
AcDbEntity
  8
RACCORDO
100
AcDbPolyline
 62
7
  6
CONTINUOUS
 90
25
 70
0
 10
4.3
 20
-24.5977429348
 10
4.3131726262
 20
-24.5976059158
 10
4.3261786476
 20
-24.5972100708
 10
4.3390180644
 20
-24.5965553998
 10
4.3517442772
 20
-24.5956368971
 10
4.3643038853
 20
-24.5944595685
 10
4.3765366865
 20
-24.5930384312
 10
4.3884384945
 20
-24.591370362
 10
4.4000134956
 20
-24.589458484
 10
4.4111140466
 20
-24.587327184
 10
4.42173407
 20
-24.5849736512
 10
4.4318796433
 20
-24.5824006963
 10
4.4414213562
 20
-24.5796411384
 10
4.4503514735
 20
-24.5766925869
 10
4.4586777303
 20
-24.5735574323
 10
4.4662939225
 20
-24.5702756646
 10
4.4731909541
 20
-24.5668454057
 10
4.4793779211
 20
-24.5632685337
 10
4.4847759065
 20
-24.5595906727
 10
4.4893748036
 20
-24.5558105293
 10
4.493184719
 20
-24.5519293969
 10
4.4961570561
 20
-24.5479967809
 10
4.4982756158
 20
-24.5440291829
 10
4.4995565971
 20
-24.5400101013
 10
4.5
 20
-24.5359395359
  0
LWPOLYLINE
  5
223
100
AcDbEntity
  8
RACCORDO
100
AcDbPolyline
 62
7
  6
CONTINUOUS
 90
25
 70
0
 10
-1.4
 20
-24.5977429348
 10
-1.3868273738
 20
-24.5976059158
 10
-1.3738213524
 20
-24.5972100708
 10
-1.3609819356
 20
-24.5965553998
 10
-1.3482557228
 20
-24.5956368971
 10
-1.3356961147
 20
-24.5944595685
 10
-1.3234633135
 20
-24.5930384312
 10
-1.3115615055
 20
-24.591370362
 10
-1.2999865044
 20
-24.589458484
 10
-1.2888859534
 20
-24.587327184
 10
-1.27826593
 20
-24.5849736512
 10
-1.2681203567
 20
-24.5824006963
 10
-1.2585786438
 20
-24.5796411384
 10
-1.2496485265
 20
-24.5766925869
 10
-1.2413222697
 20
-24.5735574323
 10
-1.2337060775
 20
-24.5702756646
 10
-1.2268090459
 20
-24.5668454057
 10
-1.2206220789
 20
-24.5632685337
 10
-1.2152240935
 20
-24.5595906727
 10
-1.2106251964
 20
-24.5558105293
 10
-1.206815281
 20
-24.5519293969
 10
-1.2038429439
 20
-24.5479967809
 10
-1.2017243842
 20
-24.5440291829
 10
-1.2004434029
 20
-24.5400101013
 10
-1.2
 20
-24.5359395359
  0
LINE
  5
224
100
AcDbEntity
  8
0
100
AcDbLine
 62
7
  6
CONTINUOUS
 10
6.0
 20
-25.1
 11
-6.0
 21
-25.1
  0
LINE
  5
225
100
AcDbEntity
  8
0
100
AcDbLine
 62
253
  6
CONTINUOUS
 10
6.0
 20
-25.0657395614
 11
-6.0
 21
-25.0657395614
  0
LINE
  5
226
100
AcDbEntity
  8
RACCORDO
100
AcDbLine
 62
7
  6
CONTINUOUS
 10
4.3
 20
-24.9781655413
 11
1.4
 21
-24.9781655413
  0
LINE
  5
227
100
AcDbEntity
  8
RACCORDO
100
AcDbLine
 62
7
  6
CONTINUOUS
 10
-1.4
 20
-24.9781655413
 11
-4.3
 21
-24.9781655413
  0
LINE
  5
228
100
AcDbEntity
  8
RACCORDO
100
AcDbLine
 62
7
  6
CONTINUOUS
 10
4.3
 20
-24.5977429348
 11
1.4
 21
-24.5977429348
  0
LINE
  5
229
100
AcDbEntity
  8
RACCORDO
100
AcDbLine
 62
7
  6
CONTINUOUS
 10
-1.4
 20
-24.5977429348
 11
-4.3
 21
-24.5977429348
  0
LINE
  5
22A
100
AcDbEntity
  8
0
100
AcDbLine
 62
253
  6
CONTINUOUS
 10
4.5
 20
-24.4
 11
1.2
 21
-24.4
  0
LINE
  5
22B
100
AcDbEntity
  8
0
100
AcDbLine
 62
253
  6
CONTINUOUS
 10
-1.2
 20
-24.4
 11
-4.5
 21
-24.4
  0
LINE
  5
22C
100
AcDbEntity
  8
RACCORDO
100
AcDbLine
 62
7
  6
CONTINUOUS
 10
4.5
 20
-24.1
 11
3.9332662348
 21
-24.1
  0
LINE
  5
22D
100
AcDbEntity
  8
RACCORDO
100
AcDbLine
 62
7
  6
CONTINUOUS
 10
-3.9332662348
 20
-24.1
 11
-4.5
 21
-24.1
  0
LWPOLYLINE
  5
22E
100
AcDbEntity
  8
RACCORDO
100
AcDbPolyline
 62
7
  6
CONTINUOUS
 90
25
 70
0
 10
-4.3
 20
-24.9781655413
 10
-4.3131726262
 20
-24.9780285223
 10
-4.3261786476
 20
-24.9776326773
 10
-4.3390180644
 20
-24.9769780063
 10
-4.3517442772
 20
-24.9760595037
 10
-4.3643038853
 20
-24.974882175
 10
-4.3765366865
 20
-24.9734610377
 10
-4.3884384945
 20
-24.9717929685
 10
-4.4000134956
 20
-24.9698810905
 10
-4.4111140466
 20
-24.9677497905
 10
-4.42173407
 20
-24.9653962577
 10
-4.4318796433
 20
-24.9628233029
 10
-4.4414213562
 20
-24.9600637449
 10
-4.4503514735
 20
-24.9571151934
 10
-4.4586777303
 20
-24.9539800388
 10
-4.4662939225
 20
-24.9506982711
 10
-4.4731909541
 20
-24.9472680122
 10
-4.4793779211
 20
-24.9436911402
 10
-4.4847759065
 20
-24.9400132792
 10
-4.4893748036
 20
-24.9362331358
 10
-4.493184719
 20
-24.9323520034
 10
-4.4961570561
 20
-24.9284193874
 10
-4.4982756158
 20
-24.9244517894
 10
-4.4995565971
 20
-24.9204327078
 10
-4.5
 20
-24.9163621424
  0
LWPOLYLINE
  5
22F
100
AcDbEntity
  8
RACCORDO
100
AcDbPolyline
 62
7
  6
CONTINUOUS
 90
25
 70
0
 10
1.4
 20
-24.9781655413
 10
1.3868273738
 20
-24.9780285223
 10
1.3738213524
 20
-24.9776326773
 10
1.3609819356
 20
-24.9769780063
 10
1.3482557228
 20
-24.9760595037
 10
1.3356961147
 20
-24.974882175
 10
1.3234633135
 20
-24.9734610377
 10
1.3115615055
 20
-24.9717929685
 10
1.2999865044
 20
-24.9698810905
 10
1.2888859534
 20
-24.9677497905
 10
1.27826593
 20
-24.9653962577
 10
1.2681203567
 20
-24.9628233029
 10
1.2585786438
 20
-24.9600637449
 10
1.2496485265
 20
-24.9571151934
 10
1.2413222697
 20
-24.9539800388
 10
1.2337060775
 20
-24.9506982711
 10
1.2268090459
 20
-24.9472680122
 10
1.2206220789
 20
-24.9436911402
 10
1.2152240935
 20
-24.9400132792
 10
1.2106251964
 20
-24.9362331358
 10
1.206815281
 20
-24.9323520034
 10
1.2038429439
 20
-24.9284193874
 10
1.2017243842
 20
-24.9244517894
 10
1.2004434029
 20
-24.9204327078
 10
1.2
 20
-24.9163621424
  0
LINE
  5
230
100
AcDbEntity
  8
DRAFT
100
AcDbLine
 62
7
  6
CONTINUOUS
 10
-10.4
 20
22.3935241039
 11
-10.2935241039
 21
22.5
  0
LINE
  5
231
100
AcDbEntity
  8
ASSI
100
AcDbLine
 62
7
  6
CONTINUOUS
 10
-10.2600548477
 20
21.0461777215
 11
-10.4
 21
21.0
  0
LWPOLYLINE
  5
232
100
AcDbEntity
  8
RACCORDO
100
AcDbPolyline
 62
7
  6
CONTINUOUS
 90
25
 70
0
 10
-3.95
 20
-22.5507488485
 10
-3.9368273738
 20
-22.5506118295
 10
-3.9238213524
 20
-22.5502159845
 10
-3.9109819356
 20
-22.5495613135
 10
-3.8982557228
 20
-22.5486428109
 10
-3.8856961147
 20
-22.5474654822
 10
-3.8734633135
 20
-22.5460443449
 10
-3.8615615055
 20
-22.5443762757
 10
-3.8499865044
 20
-22.5424643977
 10
-3.8388859534
 20
-22.5403330977
 10
-3.82826593
 20
-22.5379795649
 10
-3.8181203567
 20
-22.5354066101
 10
-3.8085786438
 20
-22.5326470521
 10
-3.7996485265
 20
-22.5296985006
 10
-3.7913222697
 20
-22.5265633461
 10
-3.7837060775
 20
-22.5232815784
 10
-3.7768090459
 20
-22.5198513194
 10
-3.7706220789
 20
-22.5162744474
 10
-3.7652240935
 20
-22.5125965865
 10
-3.7606251964
 20
-22.508816443
 10
-3.756815281
 20
-22.5049353107
 10
-3.7538429439
 20
-22.5010026946
 10
-3.7517243842
 20
-22.4970350967
 10
-3.7504434029
 20
-22.493016015
 10
-3.75
 20
-22.4889454496
  0
LINE
  5
233
100
AcDbEntity
  8
RACCORDO
100
AcDbLine
 62
7
  6
CONTINUOUS
 10
12.149961918
 20
-24.0
 11
10.650038082
 21
-24.0
  0
LINE
  5
234
100
AcDbEntity
  8
RACCORDO
100
AcDbLine
 62
7
  6
CONTINUOUS
 10
-10.650038082
 20
-24.0
 11
-12.149961918
 21
-24.0
  0
LINE
  5
235
100
AcDbEntity
  8
RACCORDO
100
AcDbLine
 62
7
  6
CONTINUOUS
 10
-4.3
 20
-23.9584094599
 11
-1.4
 21
-23.9584094599
  0
LINE
  5
236
100
AcDbEntity
  8
RACCORDO
100
AcDbLine
 62
7
  6
CONTINUOUS
 10
1.4
 20
-23.9584094599
 11
4.3
 21
-23.9584094599
  0
LINE
  5
237
100
AcDbEntity
  8
DRAFT
100
AcDbLine
 62
7
  6
CONTINUOUS
 10
-6.206982026
 20
-23.25
 11
-3.9776785714
 21
-23.25
  0
LINE
  5
238
100
AcDbEntity
  8
RACCORDO
100
AcDbLine
 62
7
  6
CONTINUOUS
 10
8.1431315324
 20
-23.25
 11
6.206982026
 21
-23.25
  0
LINE
  5
239
100
AcDbEntity
  8
0
100
AcDbLine
 62
7
  6
CONTINUOUS
 10
-3.9776785714
 20
-23.25
 11
-3.9741071429
 21
-23.25
  0
LINE
  5
23A
100
AcDbEntity
  8
0
100
AcDbLine
 62
7
  6
CONTINUOUS
 10
3.9741071429
 20
-23.25
 11
3.9776785714
 21
-23.25
  0
LINE
  5
23B
100
AcDbEntity
  8
DRAFT
100
AcDbLine
 62
7
  6
CONTINUOUS
 10
3.9776785714
 20
-23.25
 11
6.206982026
 21
-23.25
  0
LINE
  5
23C
100
AcDbEntity
  8
RACCORDO
100
AcDbLine
 62
7
  6
CONTINUOUS
 10
-6.206982026
 20
-23.25
 11
-8.1431315324
 21
-23.25
  0
LINE
  5
23D
100
AcDbEntity
  8
RACCORDO
100
AcDbLine
 62
7
  6
CONTINUOUS
 10
3.9741071429
 20
-22.931171455
 11
3.95
 21
-22.931171455
  0
LINE
  5
23E
100
AcDbEntity
  8
RACCORDO
100
AcDbLine
 62
7
  6
CONTINUOUS
 10
-3.9741071429
 20
-22.931171455
 11
-3.95
 21
-22.931171455
  0
LINE
  5
23F
100
AcDbEntity
  8
RACCORDO
100
AcDbLine
 62
7
  6
CONTINUOUS
 10
-3.9741071429
 20
-22.5507488485
 11
-3.95
 21
-22.5507488485
  0
LINE
  5
240
100
AcDbEntity
  8
RACCORDO
100
AcDbLine
 62
7
  6
CONTINUOUS
 10
3.9741071429
 20
-22.5507488485
 11
3.95
 21
-22.5507488485
  0
LINE
  5
241
100
AcDbEntity
  8
DRAFT
100
AcDbLine
 62
7
  6
CONTINUOUS
 10
-10.2935241039
 20
-22.5
 11
-8.1570675254
 21
-22.5
  0
LINE
  5
242
100
AcDbEntity
  8
DRAFT
100
AcDbLine
 62
7
  6
CONTINUOUS
 10
8.1570675254
 20
-22.5
 11
10.2935241039
 21
-22.5
  0
LINE
  5
243
100
AcDbEntity
  8
RACCORDO
100
AcDbLine
 62
253
  6
CONTINUOUS
 10
-6.2437286396
 20
-22.4837654639
 11
-4.1950470118
 21
-22.4837654639
  0
LINE
  5
244
100
AcDbEntity
  8
RACCORDO
100
AcDbLine
 62
253
  6
CONTINUOUS
 10
4.1950470118
 20
-22.4837654639
 11
6.2437286396
 21
-22.4837654639
  0
LINE
  5
245
100
AcDbEntity
  8
RACCORDO
100
AcDbLine
 62
253
  6
CONTINUOUS
 10
8.1570955844
 20
-22.45
 11
6.2506196883
 21
-22.45
  0
LINE
  5
246
100
AcDbEntity
  8
RACCORDO
100
AcDbLine
 62
253
  6
CONTINUOUS
 10
-6.2506196883
 20
-22.45
 11
-8.1570955844
 21
-22.45
  0
LINE
  5
247
100
AcDbEntity
  8
ASSI
100
AcDbLine
 62
7
  6
CONTINUOUS
 10
-9.2602071525
 20
-22.4493803117
 11
-8.1570955844
 21
-22.4493803117
  0
LINE
  5
248
100
AcDbEntity
  8
ASSI
100
AcDbLine
 62
7
  6
CONTINUOUS
 10
8.1570955844
 20
-22.4493803117
 11
9.2602071525
 21
-22.4493803117
  0
LINE
  5
249
100
AcDbEntity
  8
DRAFT
100
AcDbLine
 62
7
  6
CONTINUOUS
 10
-3.9
 20
-22.3551229611
 11
-3.75
 21
-22.3551229611
  0
LINE
  5
24A
100
AcDbEntity
  8
DRAFT
100
AcDbLine
 62
7
  6
CONTINUOUS
 10
3.75
 20
-22.3551229611
 11
3.9
 21
-22.3551229611
  0
LINE
  5
24B
100
AcDbEntity
  8
0
100
AcDbLine
 62
253
  6
CONTINUOUS
 10
3.75
 20
-22.2559508647
 11
-3.75
 21
-22.2559508647
  0
LWPOLYLINE
  5
24C
100
AcDbEntity
  8
RACCORDO
100
AcDbPolyline
 62
7
  6
CONTINUOUS
 90
25
 70
0
 10
-1.4
 20
-23.9584094599
 10
-1.3868273738
 20
-23.9585464789
 10
-1.3738213524
 20
-23.9589423239
 10
-1.3609819356
 20
-23.9595969948
 10
-1.3482557228
 20
-23.9605154975
 10
-1.3356961147
 20
-23.9616928261
 10
-1.3234633135
 20
-23.9631139635
 10
-1.3115615055
 20
-23.9647820327
 10
-1.2999865044
 20
-23.9666939106
 10
-1.2888859534
 20
-23.9688252106
 10
-1.27826593
 20
-23.9711787434
 10
-1.2681203567
 20
-23.9737516983
 10
-1.2585786438
 20
-23.9765112563
 10
-1.2496485265
 20
-23.9794598077
 10
-1.2413222697
 20
-23.9825949623
 10
-1.2337060775
 20
-23.98587673
 10
-1.2268090459
 20
-23.9893069889
 10
-1.2206220789
 20
-23.992883861
 10
-1.2152240935
 20
-23.9965617219
 10
-1.2106251964
 20
-24.0003418654
 10
-1.206815281
 20
-24.0042229977
 10
-1.2038429439
 20
-24.0081556138
 10
-1.2017243842
 20
-24.0121232117
 10
-1.2004434029
 20
-24.0161422934
 10
-1.2
 20
-24.0202128587
  0
LWPOLYLINE
  5
24D
100
AcDbEntity
  8
RACCORDO
100
AcDbPolyline
 62
7
  6
CONTINUOUS
 90
25
 70
0
 10
4.3
 20
-23.9584094599
 10
4.3131726262
 20
-23.9585464789
 10
4.3261786476
 20
-23.9589423239
 10
4.3390180644
 20
-23.9595969948
 10
4.3517442772
 20
-23.9605154975
 10
4.3643038853
 20
-23.9616928261
 10
4.3765366865
 20
-23.9631139635
 10
4.3884384945
 20
-23.9647820327
 10
4.4000134956
 20
-23.9666939106
 10
4.4111140466
 20
-23.9688252106
 10
4.42173407
 20
-23.9711787434
 10
4.4318796433
 20
-23.9737516983
 10
4.4414213562
 20
-23.9765112563
 10
4.4503514735
 20
-23.9794598077
 10
4.4586777303
 20
-23.9825949623
 10
4.4662939225
 20
-23.98587673
 10
4.4731909541
 20
-23.9893069889
 10
4.4793779211
 20
-23.992883861
 10
4.4847759065
 20
-23.9965617219
 10
4.4893748036
 20
-24.0003418654
 10
4.493184719
 20
-24.0042229977
 10
4.4961570561
 20
-24.0081556138
 10
4.4982756158
 20
-24.0121232117
 10
4.4995565971
 20
-24.0161422934
 10
4.5
 20
-24.0202128587
  0
LWPOLYLINE
  5
24E
100
AcDbEntity
  8
RACCORDO
100
AcDbPolyline
 62
7
  6
CONTINUOUS
 90
25
 70
0
 10
3.95
 20
-22.931171455
 10
3.9368273738
 20
-22.931034436
 10
3.9238213524
 20
-22.930638591
 10
3.9109819356
 20
-22.9299839201
 10
3.8982557228
 20
-22.9290654174
 10
3.8856961147
 20
-22.9278880888
 10
3.8734633135
 20
-22.9264669514
 10
3.8615615055
 20
-22.9247988822
 10
3.8499865044
 20
-22.9228870043
 10
3.8388859534
 20
-22.9207557043
 10
3.82826593
 20
-22.9184021715
 10
3.8181203567
 20
-22.9158292166
 10
3.8085786438
 20
-22.9130696586
 10
3.7996485265
 20
-22.9101211071
 10
3.7913222697
 20
-22.9069859526
 10
3.7837060775
 20
-22.9037041849
 10
3.7768090459
 20
-22.900273926
 10
3.7706220789
 20
-22.8966970539
 10
3.7652240935
 20
-22.893019193
 10
3.7606251964
 20
-22.8892390495
 10
3.756815281
 20
-22.8853579172
 10
3.7538429439
 20
-22.8814253011
 10
3.7517243842
 20
-22.8774577032
 10
3.7504434029
 20
-22.8734386215
 10
3.75
 20
-22.8693680562
  0
LINE
  5
24F
100
AcDbEntity
  8
ASSI
100
AcDbLine
 62
7
  6
CONTINUOUS
 10
-10.2600548477
 20
-21.0461777215
 11
-10.4
 21
-21.0
  0
LINE
  5
250
100
AcDbEntity
  8
DRAFT
100
AcDbLine
 62
7
  6
CONTINUOUS
 10
-10.4
 20
-22.3935241039
 11
-10.2935241039
 21
-22.5
  0
LINE
  5
251
100
AcDbEntity
  8
DRAFT
100
AcDbLine
 62
7
  6
CONTINUOUS
 10
-11.0952696104
 20
19.6523651948
 11
-11.1615988572
 21
19.5860359481
  0
LINE
  5
252
100
AcDbEntity
  8
RACCORDO
100
AcDbLine
 62
7
  6
CONTINUOUS
 10
-8.8
 20
20.85
 11
-10.5643027805
 21
19.0856972195
  0
LINE
  5
253
100
AcDbEntity
  8
RACCORDO
100
AcDbLine
 62
7
  6
CONTINUOUS
 10
-8.6272036731
 20
20.85
 11
-10.442117326
 21
19.0350863471
  0
LINE
  5
254
100
AcDbEntity
  8
RACCORDO
100
AcDbLine
 62
7
  6
CONTINUOUS
 10
-4.8183332356
 20
22.0534447674
 11
-4.9911112875
 21
21.9199498914
  0
LINE
  5
255
100
AcDbEntity
  8
RACCORDO
100
AcDbLine
 62
7
  6
CONTINUOUS
 10
-4.7349793258
 20
22.117223919
 11
-4.8183332356
 21
22.0534447674
  0
LINE
  5
256
100
AcDbEntity
  8
RACCORDO
100
AcDbLine
 62
7
  6
CONTINUOUS
 10
-4.681096806
 20
22.1580593615
 11
-4.7349793258
 21
22.117223919
  0
LINE
  5
257
100
AcDbEntity
  8
RACCORDO
100
AcDbLine
 62
7
  6
CONTINUOUS
 10
-4.6289269172
 20
22.1971822016
 11
-4.681096806
 21
22.1580593615
  0
LINE
  5
258
100
AcDbEntity
  8
RACCORDO
100
AcDbLine
 62
7
  6
CONTINUOUS
 10
-4.5787203386
 20
22.2343888733
 11
-4.6289269172
 21
22.1971822016
  0
LWPOLYLINE
  5
259
100
AcDbEntity
  8
RACCORDO
100
AcDbPolyline
 62
7
  6
CONTINUOUS
 90
21
 70
0
 10
-4.1950470118
 20
22.4837654639
 10
-4.2075438466
 20
22.4776636107
 10
-4.2205957796
 20
22.4709922988
 10
-4.2342146221
 20
22.4637515284
 10
-4.2484251396
 20
22.4559419059
 10
-4.2632254298
 20
22.4475628249
 10
-4.2785836575
 20
22.4386124653
 10
-4.2944965695
 20
22.4290914202
 10
-4.3109800497
 20
22.4189990965
 10
-4.3280263234
 20
22.4083318956
 10
-4.3456295192
 20
22.397093709
 10
-4.3638025539
 20
22.385280645
 10
-4.3825648848
 20
22.3728774307
 10
-4.4019197059
 20
22.3598823771
 10
-4.421868474
 20
22.3462971732
 10
-4.4424285238
 20
22.3321116123
 10
-4.4636030709
 20
22.317321606
 10
-4.4853895256
 20
22.3019312429
 10
-4.5077962041
 20
22.2859425821
 10
-4.5308343316
 20
22.2693415838
 10
-4.5787203386
 20
22.2343888733
  0
LINE
  5
25A
100
AcDbEntity
  8
ASSI
100
AcDbLine
 62
253
  6
CONTINUOUS
 10
5.6200514156
 20
-21.4741974154
 11
4.9911112875
 21
-21.5181771935
  0
LINE
  5
25B
100
AcDbEntity
  8
RACCORDO
100
AcDbLine
 62
253
  6
CONTINUOUS
 10
5.6025916957
 20
-20.9742164539
 11
4.17252507
 21
-21.0742164539
  0
LINE
  5
25C
100
AcDbEntity
  8
DRAFT
100
AcDbLine
 62
7
  6
CONTINUOUS
 10
4.1681048807
 20
-20.9476387933
 11
4.8493713639
 21
-20.9
  0
LINE
  5
25D
100
AcDbEntity
  8
RACCORDO
100
AcDbLine
 62
253
  6
CONTINUOUS
 10
5.816255068
 20
-20.3258086927
 11
5.6025680966
 21
-20.326459336
  0
LINE
  5
25E
100
AcDbEntity
  8
RACCORDO
100
AcDbLine
 62
253
  6
CONTINUOUS
 10
-6.2506196883
 20
-21.9199498914
 11
-4.9911112875
 21
-21.9199498914
  0
LINE
  5
25F
100
AcDbEntity
  8
RACCORDO
100
AcDbLine
 62
253
  6
CONTINUOUS
 10
4.9911112875
 20
-21.9199498914
 11
6.2506196883
 21
-21.9199498914
  0
LINE
  5
260
100
AcDbEntity
  8
RACCORDO
100
AcDbLine
 62
253
  6
CONTINUOUS
 10
-6.6741974154
 20
-21.4741974154
 11
-5.6200514156
 21
-21.4741974154
  0
LINE
  5
261
100
AcDbEntity
  8
RACCORDO
100
AcDbLine
 62
253
  6
CONTINUOUS
 10
5.6200514156
 20
-21.4741974154
 11
6.6741974154
 21
-21.4741974154
  0
LINE
  5
262
100
AcDbEntity
  8
ASSI
100
AcDbLine
 62
253
  6
CONTINUOUS
 10
4.17252507
 20
-21.0742164539
 11
4.1276197159
 21
-21.0742164539
  0
LINE
  5
263
100
AcDbEntity
  8
ASSI
100
AcDbLine
 62
253
  6
CONTINUOUS
 10
-4.1276197159
 20
-21.0742164539
 11
-4.17252507
 21
-21.0742164539
  0
LINE
  5
264
100
AcDbEntity
  8
ASSI
100
AcDbLine
 62
7
  6
CONTINUOUS
 10
9.2602071525
 20
-21.051836852
 11
6.8510346798
 21
-21.051836852
  0
LINE
  5
265
100
AcDbEntity
  8
ASSI
100
AcDbLine
 62
7
  6
CONTINUOUS
 10
-6.8510346798
 20
-21.051836852
 11
-9.2602071525
 21
-21.051836852
  0
LINE
  5
266
100
AcDbEntity
  8
DRAFT
100
AcDbLine
 62
7
  6
CONTINUOUS
 10
-11.2
 20
-21.0
 11
-10.4
 21
-21.0
  0
LINE
  5
267
100
AcDbEntity
  8
DRAFT
100
AcDbLine
 62
7
  6
CONTINUOUS
 10
10.4
 20
-21.0
 11
11.2
 21
-21.0
  0
LINE
  5
268
100
AcDbEntity
  8
DRAFT
100
AcDbLine
 62
7
  6
CONTINUOUS
 10
-3.9
 20
-20.9808008909
 11
-3.75
 21
-20.9808008909
  0
LINE
  5
269
100
AcDbEntity
  8
DRAFT
100
AcDbLine
 62
7
  6
CONTINUOUS
 10
3.75
 20
-20.9808008909
 11
3.9
 21
-20.9808008909
  0
LINE
  5
26A
100
AcDbEntity
  8
RACCORDO
100
AcDbLine
 62
253
  6
CONTINUOUS
 10
-6.1742164539
 20
-20.9742164539
 11
-5.6025916957
 21
-20.9742164539
  0
LINE
  5
26B
100
AcDbEntity
  8
RACCORDO
100
AcDbLine
 62
253
  6
CONTINUOUS
 10
5.6025916957
 20
-20.9742164539
 11
6.1742164539
 21
-20.9742164539
  0
LINE
  5
26C
100
AcDbEntity
  8
DRAFT
100
AcDbLine
 62
7
  6
CONTINUOUS
 10
-11.0952696104
 20
-20.9654420987
 11
-7.4345579013
 21
-20.9654420987
  0
LINE
  5
26D
100
AcDbEntity
  8
DRAFT
100
AcDbLine
 62
7
  6
CONTINUOUS
 10
7.4345579013
 20
-20.9654420987
 11
11.0952696104
 21
-20.9654420987
  0
LINE
  5
26E
100
AcDbEntity
  8
DRAFT
100
AcDbLine
 62
7
  6
CONTINUOUS
 10
-4.1681048807
 20
-20.9476387933
 11
-3.75
 21
-20.9476387933
  0
LINE
  5
26F
100
AcDbEntity
  8
DRAFT
100
AcDbLine
 62
7
  6
CONTINUOUS
 10
3.75
 20
-20.9476387933
 11
4.1681048807
 21
-20.9476387933
  0
LINE
  5
270
100
AcDbEntity
  8
0
100
AcDbLine
 62
7
  6
CONTINUOUS
 10
-6.0
 20
-20.9
 11
-4.7438429707
 21
-20.9
  0
LINE
  5
271
100
AcDbEntity
  8
0
100
AcDbLine
 62
7
  6
CONTINUOUS
 10
-4.7325195063
 20
-20.9
 11
-3.95
 21
-20.9
  0
LINE
  5
272
100
AcDbEntity
  8
0
100
AcDbLine
 62
7
  6
CONTINUOUS
 10
6.0
 20
-20.9
 11
4.7438429707
 21
-20.9
  0
LINE
  5
273
100
AcDbEntity
  8
0
100
AcDbLine
 62
7
  6
CONTINUOUS
 10
4.7325195063
 20
-20.9
 11
3.95
 21
-20.9
  0
LINE
  5
274
100
AcDbEntity
  8
DRAFT
100
AcDbLine
 62
7
  6
CONTINUOUS
 10
-8.8
 20
-20.85
 11
-7.4
 21
-20.85
  0
LINE
  5
275
100
AcDbEntity
  8
DRAFT
100
AcDbLine
 62
7
  6
CONTINUOUS
 10
7.4
 20
-20.85
 11
8.8
 21
-20.85
  0
LINE
  5
276
100
AcDbEntity
  8
DRAFT
100
AcDbLine
 62
7
  6
CONTINUOUS
 10
6.0476387933
 20
-20.8476387933
 11
6.0
 21
-20.8476387933
  0
LINE
  5
277
100
AcDbEntity
  8
DRAFT
100
AcDbLine
 62
7
  6
CONTINUOUS
 10
-6.0476387933
 20
-20.8476387933
 11
-6.0
 21
-20.8476387933
  0
LINE
  5
278
100
AcDbEntity
  8
0
100
AcDbLine
 62
7
  6
CONTINUOUS
 10
-6.0
 20
-20.5
 11
6.0
 21
-20.5
  0
LINE
  5
279
100
AcDbEntity
  8
ASSI
100
AcDbLine
 62
7
  6
CONTINUOUS
 10
3.95
 20
-20.5
 11
-3.95
 21
-20.5
  0
LINE
  5
27A
100
AcDbEntity
  8
DRAFT
100
AcDbLine
 62
7
  6
CONTINUOUS
 10
-6.0476387933
 20
-20.4523612067
 11
-5.5981715064
 21
-20.4523612067
  0
LINE
  5
27B
100
AcDbEntity
  8
DRAFT
100
AcDbLine
 62
7
  6
CONTINUOUS
 10
6.0476387933
 20
-20.4523612067
 11
5.5981715064
 21
-20.4523612067
  0
LINE
  5
27C
100
AcDbEntity
  8
RACCORDO
100
AcDbLine
 62
253
  6
CONTINUOUS
 10
5.8698530207
 20
-20.3257835461
 11
5.816255068
 21
-20.3258086927
  0
LINE
  5
27D
100
AcDbEntity
  8
RACCORDO
100
AcDbLine
 62
253
  6
CONTINUOUS
 10
6.1742164539
 20
-20.3257835461
 11
5.8698530207
 21
-20.3257835461
  0
LWPOLYLINE
  5
27E
100
AcDbEntity
  8
ASSI
100
AcDbPolyline
 62
7
  6
CONTINUOUS
 90
25
 70
0
 10
-3.95
 20
-20.9
 10
-3.9295143623
 20
-20.9000844485
 10
-3.9105477684
 20
-20.9003393052
 10
-3.8931002186
 20
-20.9007668005
 10
-3.877295913
 20
-20.9013703865
 10
-3.8630106515
 20
-20.9021515576
 10
-3.8498718325
 20
-20.9031066334
 10
-3.8378411916
 20
-20.9042324803
 10
-3.8269569934
 20
-20.9055297677
 10
-3.81696143
 20
-20.90699756
 10
-3.8078325928
 20
-20.9086307808
 10
-3.7995923905
 20
-20.910431592
 10
-3.7920487414
 20
-20.912413457
 10
-3.7851670305
 20
-20.9145790464
 10
-3.7789818727
 20
-20.9169304655
 10
-3.7734050317
 20
-20.9194872716
 10
-3.7684090232
 20
-20.9222642512
 10
-3.7640213314
 20
-20.9252590179
 10
-3.7602361728
 20
-20.9284670176
 10
-3.757057799
 20
-20.9318963567
 10
-3.7544819583
 20
-20.9355467702
 10
-3.752490112
 20
-20.9393954685
 10
-3.7510760803
 20
-20.9434328673
 10
-3.750246043
 20
-20.9476668341
 10
-3.75
 20
-20.9520967918
  0
LINE
  5
27F
100
AcDbEntity
  8
RACCORDO
100
AcDbLine
 62
253
  6
CONTINUOUS
 10
-5.6494157569
 20
-20.326230502
 11
-6.1742164539
 21
-20.3257835461
  0
LINE
  5
280
100
AcDbEntity
  8
RACCORDO
100
AcDbLine
 62
253
  6
CONTINUOUS
 10
-5.6025680966
 20
-20.326459336
 11
-5.6494157569
 21
-20.326230502
  0
LWPOLYLINE
  5
281
100
AcDbEntity
  8
ASSI
100
AcDbPolyline
 62
7
  6
CONTINUOUS
 90
25
 70
0
 10
-3.95
 20
-20.5
 10
-3.9295143623
 20
-20.5001520073
 10
-3.9105477684
 20
-20.5006107494
 10
-3.8931002186
 20
-20.5013802408
 10
-3.877295913
 20
-20.5024666957
 10
-3.8630106515
 20
-20.5038728037
 10
-3.8498718325
 20
-20.5055919401
 10
-3.8378411916
 20
-20.5076184646
 10
-3.8269569934
 20
-20.5099535819
 10
-3.81696143
 20
-20.512595608
 10
-3.8078325928
 20
-20.5155354054
 10
-3.7995923905
 20
-20.5187768655
 10
-3.7920487414
 20
-20.5223442225
 10
-3.7851670305
 20
-20.5262422836
 10
-3.7789818727
 20
-20.5304748379
 10
-3.7734050317
 20
-20.5350770889
 10
-3.7684090232
 20
-20.5400756521
 10
-3.7640213314
 20
-20.5454662322
 10
-3.7602361728
 20
-20.5512406316
 10
-3.757057799
 20
-20.5574134421
 10
-3.7544819583
 20
-20.5639841863
 10
-3.752490112
 20
-20.5709118434
 10
-3.7510760803
 20
-20.5781791611
 10
-3.750246043
 20
-20.5858003014
 10
-3.75
 20
-20.5937742252
  0
LWPOLYLINE
  5
282
100
AcDbEntity
  8
ASSI
100
AcDbPolyline
 62
7
  6
CONTINUOUS
 90
7
 70
0
 10
4.1276197159
 20
-21.0742164539
 10
4.1344678858
 20
-21.0744510327
 10
4.1415834842
 20
-21.0749572674
 10
4.1489665111
 20
-21.0757404764
 10
4.1566169667
 20
-21.076805853
 10
4.1645348507
 20
-21.0781584556
 10
4.1727201634
 20
-21.0798031965
  0
LINE
  5
283
100
AcDbEntity
  8
ASSI
100
AcDbLine
 62
253
  6
CONTINUOUS
 10
-4.9911112875
 20
-21.5181771935
 11
-5.6200514156
 21
-21.4741974154
  0
LINE
  5
284
100
AcDbEntity
  8
RACCORDO
100
AcDbLine
 62
253
  6
CONTINUOUS
 10
-4.17252507
 20
-21.0742164539
 11
-5.6025916957
 21
-20.9742164539
  0
LINE
  5
285
100
AcDbEntity
  8
DRAFT
100
AcDbLine
 62
7
  6
CONTINUOUS
 10
-4.8493713639
 20
-20.9
 11
-4.1681048807
 21
-20.9476387933
  0
LWPOLYLINE
  5
286
100
AcDbEntity
  8
RACCORDO
100
AcDbPolyline
 62
253
  6
CONTINUOUS
 90
8
 70
0
 10
-4.8698910615
 20
-19.8301279589
 10
-4.8705056172
 20
-19.8300082543
 10
-4.8718707402
 20
-19.8298888508
 10
-4.873985361
 20
-19.8297697482
 10
-4.8768478231
 20
-19.8296508597
 10
-4.8804559454
 20
-19.8295322721
 10
-4.8848070779
 20
-19.8294142466
 10
-4.8957248733
 20
-19.8291798783
  0
LWPOLYLINE
  5
287
100
AcDbEntity
  8
RACCORDO
100
AcDbPolyline
 62
7
  6
CONTINUOUS
 90
9
 70
0
 10
-5.2056327843
 20
-20.3023509737
 10
-5.2060979795
 20
-20.302233782
 10
-5.2071063922
 20
-20.3021552567
 10
-5.2086580224
 20
-20.302115398
 10
-5.2107578819
 20
-20.3021143594
 10
-5.2134009589
 20
-20.3021519873
 10
-5.2165722179
 20
-20.3022278207
 10
-5.220275093
 20
-20.3023420951
 10
-5.2292400509
 20
-20.3026840926
  0
LWPOLYLINE
  5
288
100
AcDbEntity
  8
RACCORDO
100
AcDbPolyline
 62
7
  6
CONTINUOUS
 90
19
 70
0
 10
-4.5077962041
 20
-22.2859425821
 10
-4.4853895256
 20
-22.3019312429
 10
-4.4636030709
 20
-22.317321606
 10
-4.4424285238
 20
-22.3321116123
 10
-4.421868474
 20
-22.3462971732
 10
-4.4019197059
 20
-22.3598823771
 10
-4.3825648848
 20
-22.3728774307
 10
-4.3638025539
 20
-22.385280645
 10
-4.3456295192
 20
-22.397093709
 10
-4.3280263234
 20
-22.4083318956
 10
-4.3109800497
 20
-22.4189990965
 10
-4.2944965695
 20
-22.4290914202
 10
-4.2785836575
 20
-22.4386124653
 10
-4.2632254298
 20
-22.4475628249
 10
-4.2484251396
 20
-22.4559419059
 10
-4.2342146221
 20
-22.4637515284
 10
-4.2205957796
 20
-22.4709922988
 10
-4.2075438466
 20
-22.4776636107
 10
-4.1950470118
 20
-22.4837654639
  0
LINE
  5
289
100
AcDbEntity
  8
RACCORDO
100
AcDbLine
 62
7
  6
CONTINUOUS
 10
-4.5544875885
 20
-22.2521422879
 11
-4.5077962041
 21
-22.2859425821
  0
LINE
  5
28A
100
AcDbEntity
  8
RACCORDO
100
AcDbLine
 62
7
  6
CONTINUOUS
 10
-4.6035414726
 20
-22.2160625968
 11
-4.5544875885
 21
-22.2521422879
  0
LINE
  5
28B
100
AcDbEntity
  8
RACCORDO
100
AcDbLine
 62
7
  6
CONTINUOUS
 10
-4.65478579
 20
-22.1778480954
 11
-4.6035414726
 21
-22.2160625968
  0
LINE
  5
28C
100
AcDbEntity
  8
RACCORDO
100
AcDbLine
 62
7
  6
CONTINUOUS
 10
-4.7078530352
 20
-22.1378169166
 11
-4.65478579
 21
-22.1778480954
  0
LINE
  5
28D
100
AcDbEntity
  8
RACCORDO
100
AcDbLine
 62
7
  6
CONTINUOUS
 10
-4.7902469908
 20
-22.0749942288
 11
-4.7078530352
 21
-22.1378169166
  0
LWPOLYLINE
  5
28E
100
AcDbEntity
  8
RACCORDO
100
AcDbPolyline
 62
7
  6
CONTINUOUS
 90
3
 70
0
 10
-4.9911112875
 20
-21.9199498914
 10
-4.9619904332
 20
-21.9425513861
 10
-4.7902469908
 20
-22.0749942288
  0
LINE
  5
28F
100
AcDbEntity
  8
DRAFT
100
AcDbLine
 62
7
  6
CONTINUOUS
 10
-11.1615988572
 20
-19.5860359481
 11
-11.0952696104
 21
-19.6523651948
  0
LINE
  5
290
100
AcDbEntity
  8
RACCORDO
100
AcDbLine
 62
7
  6
CONTINUOUS
 10
-10.5643027805
 20
-19.0856972195
 11
-8.8
 21
-20.85
  0
LINE
  5
291
100
AcDbEntity
  8
RACCORDO
100
AcDbLine
 62
7
  6
CONTINUOUS
 10
-10.442117326
 20
-19.0350863471
 11
-8.6272036731
 21
-20.85
  0
LINE
  5
292
100
AcDbEntity
  8
RACCORDO
100
AcDbLine
 62
7
  6
CONTINUOUS
 10
-7.4345579013
 20
20.9654420987
 11
-7.3510263866
 21
21.0489736134
  0
LINE
  5
293
100
AcDbEntity
  8
RACCORDO
100
AcDbLine
 62
7
  6
CONTINUOUS
 10
-10.7202082353
 20
17.2983042468
 11
-10.0983042468
 21
17.9202082353
  0
LINE
  5
294
100
AcDbEntity
  8
ASSI
100
AcDbLine
 62
7
  6
CONTINUOUS
 10
-10.7202082353
 20
17.2983042468
 11
-10.0983042468
 21
17.9202082353
  0
LINE
  5
295
100
AcDbEntity
  8
DRAFT
100
AcDbLine
 62
7
  6
CONTINUOUS
 10
-7.4
 20
19.7
 11
-7.4366556363
 21
19.6633443637
  0
LINE
  5
296
100
AcDbEntity
  8
RACCORDO
100
AcDbLine
 62
7
  6
CONTINUOUS
 10
-7.3510263866
 20
19.7489736134
 11
-7.4
 21
19.7
  0
LINE
  5
297
100
AcDbEntity
  8
RACCORDO
100
AcDbLine
 62
7
  6
CONTINUOUS
 10
-6.6741974154
 20
19.8258025846
 11
-6.0476387933
 21
20.4523612067
  0
LINE
  5
298
100
AcDbEntity
  8
RACCORDO
100
AcDbLine
 62
7
  6
CONTINUOUS
 10
-5.0567639172
 20
20.4145023001
 11
-5.2056327843
 21
20.3023509737
  0
LINE
  5
299
100
AcDbEntity
  8
DRAFT
100
AcDbLine
 62
7
  6
CONTINUOUS
 10
-7.4366556363
 20
18.2661694676
 11
-7.4541107013
 21
18.2574425998
  0
LWPOLYLINE
  5
29A
100
AcDbEntity
  8
ASSI
100
AcDbPolyline
 62
7
  6
CONTINUOUS
 90
7
 70
0
 10
-4.1727201634
 20
-21.0798031965
 10
-4.1645331419
 20
-21.0781581193
 10
-4.1566142326
 20
-21.0768054161
 10
-4.1489634353
 20
-21.0757400981
 10
-4.1415807501
 20
-21.0749570314
 10
-4.134466177
 20
-21.0744509474
 10
-4.1276197159
 20
-21.0742164539
  0
LWPOLYLINE
  5
29B
100
AcDbEntity
  8
RACCORDO
100
AcDbPolyline
 62
7
  6
CONTINUOUS
 90
7
 70
0
 10
-5.600711236
 20
-20.3262219715
 10
-5.6012689971
 20
-20.3262771555
 10
-5.6017326359
 20
-20.3263264242
 10
-5.6020950732
 20
-20.3263693221
 10
-5.6023539492
 20
-20.3264056975
 10
-5.6025116237
 20
-20.3264357021
 10
-5.6025680966
 20
-20.326459336
  0
LINE
  5
29C
100
AcDbEntity
  8
RACCORDO
100
AcDbLine
 62
7
  6
CONTINUOUS
 10
-5.5993203443
 20
-20.3260944221
 11
-5.600711236
 21
-20.3262219715
  0
LINE
  5
29D
100
AcDbEntity
  8
RACCORDO
100
AcDbLine
 62
7
  6
CONTINUOUS
 10
-5.5965164369
 20
-20.325856974
 11
-5.5993203443
 21
-20.3260944221
  0
LINE
  5
29E
100
AcDbEntity
  8
RACCORDO
100
AcDbLine
 62
7
  6
CONTINUOUS
 10
-5.589600815
 20
-20.3253129103
 11
-5.5965164369
 21
-20.325856974
  0
LINE
  5
29F
100
AcDbEntity
  8
RACCORDO
100
AcDbLine
 62
7
  6
CONTINUOUS
 10
-5.568883535
 20
-20.3237894375
 11
-5.589600815
 21
-20.3253129103
  0
LINE
  5
2A0
100
AcDbEntity
  8
RACCORDO
100
AcDbLine
 62
7
  6
CONTINUOUS
 10
-5.0567639172
 20
-20.4145023001
 11
-5.5981715064
 21
-20.4523612067
  0
LINE
  5
2A1
100
AcDbEntity
  8
RACCORDO
100
AcDbLine
 62
7
  6
CONTINUOUS
 10
-5.4939090618
 20
-20.3186164564
 11
-5.568883535
 21
-20.3237894375
  0
LINE
  5
2A2
100
AcDbEntity
  8
RACCORDO
100
AcDbLine
 62
7
  6
CONTINUOUS
 10
-5.3833479882
 20
-20.3114253005
 11
-5.4939090618
 21
-20.3186164564
  0
LINE
  5
2A3
100
AcDbEntity
  8
RACCORDO
100
AcDbLine
 62
7
  6
CONTINUOUS
 10
-5.3021245256
 20
-20.3065003403
 11
-5.3833479882
 21
-20.3114253005
  0
LINE
  5
2A4
100
AcDbEntity
  8
RACCORDO
100
AcDbLine
 62
7
  6
CONTINUOUS
 10
-5.2602629348
 20
-20.3041775512
 11
-5.3021245256
 21
-20.3065003403
  0
LINE
  5
2A5
100
AcDbEntity
  8
RACCORDO
100
AcDbLine
 62
7
  6
CONTINUOUS
 10
-5.2402232528
 20
-20.3031747386
 11
-5.2602629348
 21
-20.3041775512
  0
LINE
  5
2A6
100
AcDbEntity
  8
RACCORDO
100
AcDbLine
 62
7
  6
CONTINUOUS
 10
-5.2292400509
 20
-20.3026840926
 11
-5.2402232528
 21
-20.3031747386
  0
LWPOLYLINE
  5
2A7
100
AcDbEntity
  8
RACCORDO
100
AcDbPolyline
 62
253
  6
CONTINUOUS
 90
6
 70
0
 10
4.8804559454
 20
-19.8295322721
 10
4.8768478231
 20
-19.8296508597
 10
4.873985361
 20
-19.8297697482
 10
4.8718707402
 20
-19.8298888508
 10
4.8705056172
 20
-19.8300082543
 10
4.8698910615
 20
-19.8301279589
  0
LINE
  5
2A8
100
AcDbEntity
  8
RACCORDO
100
AcDbLine
 62
253
  6
CONTINUOUS
 10
4.8898980046
 20
-19.8292967814
 11
4.8804559454
 21
-19.8295322721
  0
LINE
  5
2A9
100
AcDbEntity
  8
RACCORDO
100
AcDbLine
 62
253
  6
CONTINUOUS
 10
4.9095683016
 20
-19.8289485605
 11
4.8898980046
 21
-19.8292967814
  0
LINE
  5
2AA
100
AcDbEntity
  8
RACCORDO
100
AcDbLine
 62
253
  6
CONTINUOUS
 10
4.9566823892
 20
-19.828387587
 11
4.9095683016
 21
-19.8289485605
  0
LINE
  5
2AB
100
AcDbEntity
  8
RACCORDO
100
AcDbLine
 62
253
  6
CONTINUOUS
 10
5.1188737513
 20
-19.8272847129
 11
4.9566823892
 21
-19.828387587
  0
LWPOLYLINE
  5
2AC
100
AcDbEntity
  8
0
100
AcDbPolyline
 62
7
  6
CONTINUOUS
 90
12
 70
0
 10
-1.6243964614
 20
-19.8846288165
 10
-1.7422682896
 20
-19.8850092905
 10
-1.8551397193
 20
-19.8856281018
 10
-1.9644955018
 20
-19.8865000664
 10
-2.0688508859
 20
-19.8876103683
 10
-2.1637516183
 20
-19.8889145591
 10
-2.2488197026
 20
-19.8904245811
 10
-2.3244331351
 20
-19.8921284921
 10
-2.3872716511
 20
-19.893946017
 10
-2.4362284958
 20
-19.8958503974
 10
-2.4724104239
 20
-19.8978683918
 10
-2.4958174355
 20
-19.9
  0
LINE
  5
2AD
100
AcDbEntity
  8
RACCORDO
100
AcDbLine
 62
253
  6
CONTINUOUS
 10
5.3487932835
 20
-19.8264417574
 11
5.1188737513
 21
-19.8272847129
  0
LINE
  5
2AE
100
AcDbEntity
  8
RACCORDO
100
AcDbLine
 62
253
  6
CONTINUOUS
 10
5.5210819746
 20
-19.8260765649
 11
5.3487932835
 21
-19.8264417574
  0
LINE
  5
2AF
100
AcDbEntity
  8
RACCORDO
100
AcDbLine
 62
253
  6
CONTINUOUS
 10
5.6257047497
 20
-19.8259346303
 11
5.5210819746
 21
-19.8260765649
  0
LINE
  5
2B0
100
AcDbEntity
  8
RACCORDO
100
AcDbLine
 62
253
  6
CONTINUOUS
 10
5.7061655717
 20
-19.825861436
 11
5.6257047497
 21
-19.8259346303
  0
LINE
  5
2B1
100
AcDbEntity
  8
RACCORDO
100
AcDbLine
 62
253
  6
CONTINUOUS
 10
5.8150717894
 20
-19.825809146
 11
5.7061655717
 21
-19.825861436
  0
LINE
  5
2B2
100
AcDbEntity
  8
0
100
AcDbLine
 62
7
  6
CONTINUOUS
 10
-3.4175430786
 20
-20.1
 11
-2.4995269866
 21
-20.1
  0
LINE
  5
2B3
100
AcDbEntity
  8
0
100
AcDbLine
 62
7
  6
CONTINUOUS
 10
2.4995269866
 20
-20.1
 11
3.4175430786
 21
-20.1
  0
LINE
  5
2B4
100
AcDbEntity
  8
0
100
AcDbLine
 62
7
  6
CONTINUOUS
 10
3.5
 20
-19.9
 11
2.4944782802
 21
-19.9
  0
LINE
  5
2B5
100
AcDbEntity
  8
0
100
AcDbLine
 62
7
  6
CONTINUOUS
 10
-2.4944782802
 20
-19.9
 11
-3.5
 21
-19.9
  0
LINE
  5
2B6
100
AcDbEntity
  8
0
100
AcDbLine
 62
7
  6
CONTINUOUS
 10
1.5015242349
 20
-19.8844866796
 11
-1.6243964614
 21
-19.8846288165
  0
LINE
  5
2B7
100
AcDbEntity
  8
DRAFT
100
AcDbLine
 62
7
  6
CONTINUOUS
 10
3.4633443637
 20
-19.8633443637
 11
-3.4633443637
 21
-19.8633443637
  0
LINE
  5
2B8
100
AcDbEntity
  8
RACCORDO
100
AcDbLine
 62
253
  6
CONTINUOUS
 10
6.6741974154
 20
-19.8258025846
 11
5.8150717894
 21
-19.825809146
  0
LINE
  5
2B9
100
AcDbEntity
  8
RACCORDO
100
AcDbLine
 62
7
  6
CONTINUOUS
 10
6.8510346798
 20
-19.751836852
 11
5.8698530207
 21
-19.751836852
  0
LINE
  5
2BA
100
AcDbEntity
  8
RACCORDO
100
AcDbLine
 62
7
  6
CONTINUOUS
 10
-5.8698530207
 20
-19.751836852
 11
-6.8510346798
 21
-19.751836852
  0
LINE
  5
2BB
100
AcDbEntity
  8
DRAFT
100
AcDbLine
 62
7
  6
CONTINUOUS
 10
-7.4
 20
-19.7
 11
-3.5
 21
-19.7
  0
LINE
  5
2BC
100
AcDbEntity
  8
DRAFT
100
AcDbLine
 62
7
  6
CONTINUOUS
 10
3.5
 20
-19.7
 11
7.4
 21
-19.7
  0
LINE
  5
2BD
100
AcDbEntity
  8
DRAFT
100
AcDbLine
 62
7
  6
CONTINUOUS
 10
-7.4366556363
 20
-19.6633443637
 11
-3.4633443637
 21
-19.6633443637
  0
LINE
  5
2BE
100
AcDbEntity
  8
DRAFT
100
AcDbLine
 62
7
  6
CONTINUOUS
 10
3.4633443637
 20
-19.6633443637
 11
7.4366556363
 21
-19.6633443637
  0
LINE
  5
2BF
100
AcDbEntity
  8
DRAFT
100
AcDbLine
 62
7
  6
CONTINUOUS
 10
-11.0952696104
 20
-19.6523651948
 11
-9.9976348052
 21
-19.6523651948
  0
LINE
  5
2C0
100
AcDbEntity
  8
DRAFT
100
AcDbLine
 62
7
  6
CONTINUOUS
 10
9.9976348052
 20
-19.6523651948
 11
11.0952696104
 21
-19.6523651948
  0
LINE
  5
2C1
100
AcDbEntity
  8
RACCORDO
100
AcDbLine
 62
7
  6
CONTINUOUS
 10
-3.7131017248
 20
-19.6130903017
 11
9.3912243901
 21
-19.6130903017
  0
LINE
  5
2C2
100
AcDbEntity
  8
ASSI
100
AcDbLine
 62
7
  6
CONTINUOUS
 10
-3.7131017248
 20
-19.6130903017
 11
9.3912243901
 21
-19.6130903017
  0
LINE
  5
2C3
100
AcDbEntity
  8
DRAFT
100
AcDbLine
 62
7
  6
CONTINUOUS
 10
-11.1615988572
 20
-19.5860359481
 11
-10.0639640519
 21
-19.5860359481
  0
LINE
  5
2C4
100
AcDbEntity
  8
DRAFT
100
AcDbLine
 62
7
  6
CONTINUOUS
 10
10.0639640519
 20
-19.5860359481
 11
11.1615988572
 21
-19.5860359481
  0
LINE
  5
2C5
100
AcDbEntity
  8
ASSI
100
AcDbLine
 62
7
  6
CONTINUOUS
 10
-4.0130903017
 20
-18.6
 11
-9.0
 21
-18.6
  0
LWPOLYLINE
  5
2C6
100
AcDbEntity
  8
0
100
AcDbPolyline
 62
7
  6
CONTINUOUS
 90
13
 70
0
 10
1.5015242349
 20
-19.8844866796
 10
1.6243964614
 20
-19.8846288165
 10
1.7422682896
 20
-19.8850092905
 10
1.8551397193
 20
-19.8856281018
 10
1.9644955018
 20
-19.8865000664
 10
2.0688508859
 20
-19.8876103683
 10
2.1637516183
 20
-19.8889145591
 10
2.2488197026
 20
-19.8904245811
 10
2.3244331351
 20
-19.8921284921
 10
2.3872716511
 20
-19.893946017
 10
2.4362284958
 20
-19.8958503974
 10
2.4724104239
 20
-19.8978683918
 10
2.4958174355
 20
-19.9
  0
LINE
  5
2C7
100
AcDbEntity
  8
RACCORDO
100
AcDbLine
 62
253
  6
CONTINUOUS
 10
-5.156175484
 20
-19.8271095704
 11
-6.6741974154
 21
-19.8258025846
  0
LINE
  5
2C8
100
AcDbEntity
  8
RACCORDO
100
AcDbLine
 62
253
  6
CONTINUOUS
 10
-4.9681934807
 20
-19.8282791005
 11
-5.156175484
 21
-19.8271095704
  0
LINE
  5
2C9
100
AcDbEntity
  8
RACCORDO
100
AcDbLine
 62
253
  6
CONTINUOUS
 10
-4.9175744556
 20
-19.8288341459
 11
-4.9681934807
 21
-19.8282791005
  0
LINE
  5
2CA
100
AcDbEntity
  8
RACCORDO
100
AcDbLine
 62
253
  6
CONTINUOUS
 10
-4.8957248733
 20
-19.8291798783
 11
-4.9175744556
 21
-19.8288341459
  0
LWPOLYLINE
  5
2CB
100
AcDbEntity
  8
RACCORDO
100
AcDbPolyline
 62
7
  6
CONTINUOUS
 90
8
 70
0
 10
5.220275093
 20
-20.3023420951
 10
5.2165722179
 20
-20.3022278207
 10
5.2134009589
 20
-20.3021519873
 10
5.2107578819
 20
-20.3021143594
 10
5.2086580224
 20
-20.302115398
 10
5.2071063922
 20
-20.3021552567
 10
5.2060979795
 20
-20.302233782
 10
5.2056327843
 20
-20.3023509737
  0
LINE
  5
2CC
100
AcDbEntity
  8
RACCORDO
100
AcDbLine
 62
7
  6
CONTINUOUS
 10
5.2292400509
 20
-20.3026840926
 11
5.220275093
 21
-20.3023420951
  0
LINE
  5
2CD
100
AcDbEntity
  8
RACCORDO
100
AcDbLine
 62
7
  6
CONTINUOUS
 10
5.2402232528
 20
-20.3031747386
 11
5.2292400509
 21
-20.3026840926
  0
LINE
  5
2CE
100
AcDbEntity
  8
RACCORDO
100
AcDbLine
 62
7
  6
CONTINUOUS
 10
5.2602629348
 20
-20.3041775512
 11
5.2402232528
 21
-20.3031747386
  0
LINE
  5
2CF
100
AcDbEntity
  8
RACCORDO
100
AcDbLine
 62
7
  6
CONTINUOUS
 10
5.3021245256
 20
-20.3065003403
 11
5.2602629348
 21
-20.3041775512
  0
LINE
  5
2D0
100
AcDbEntity
  8
RACCORDO
100
AcDbLine
 62
7
  6
CONTINUOUS
 10
5.3833479882
 20
-20.3114253005
 11
5.3021245256
 21
-20.3065003403
  0
LINE
  5
2D1
100
AcDbEntity
  8
RACCORDO
100
AcDbLine
 62
7
  6
CONTINUOUS
 10
5.4993249899
 20
-20.3189806483
 11
5.3833479882
 21
-20.3114253005
  0
LINE
  5
2D2
100
AcDbEntity
  8
RACCORDO
100
AcDbLine
 62
7
  6
CONTINUOUS
 10
5.5981715064
 20
-20.4523612067
 11
5.0567639172
 21
-20.4145023001
  0
LINE
  5
2D3
100
AcDbEntity
  8
RACCORDO
100
AcDbLine
 62
7
  6
CONTINUOUS
 10
5.568883535
 20
-20.3237894375
 11
5.4993249899
 21
-20.3189806483
  0
LINE
  5
2D4
100
AcDbEntity
  8
RACCORDO
100
AcDbLine
 62
7
  6
CONTINUOUS
 10
5.589600815
 20
-20.3253129103
 11
5.568883535
 21
-20.3237894375
  0
LINE
  5
2D5
100
AcDbEntity
  8
RACCORDO
100
AcDbLine
 62
7
  6
CONTINUOUS
 10
5.5965164369
 20
-20.325856974
 11
5.589600815
 21
-20.3253129103
  0
LINE
  5
2D6
100
AcDbEntity
  8
RACCORDO
100
AcDbLine
 62
7
  6
CONTINUOUS
 10
5.5993203443
 20
-20.3260944221
 11
5.5965164369
 21
-20.325856974
  0
LWPOLYLINE
  5
2D7
100
AcDbEntity
  8
ASSI
100
AcDbPolyline
 62
7
  6
CONTINUOUS
 90
28
 70
0
 10
4.1727201634
 20
-21.0798031965
 10
4.1829218006
 20
-21.0814632228
 10
4.1935446085
 20
-21.0835288469
 10
4.2045890554
 20
-21.0860067654
 10
4.2160508046
 20
-21.0889038707
 10
4.2279350467
 20
-21.0922254827
 10
4.2402564773
 20
-21.095975035
 10
4.2530085269
 20
-21.1001546214
 10
4.2661983477
 20
-21.1047704811
 10
4.2798612835
 20
-21.1098332082
 10
4.2939985627
 20
-21.115348321
 10
4.3086096203
 20
-21.1213197883
 10
4.3237272944
 20
-21.1277585254
 10
4.3393556903
 20
-21.1346705967
 10
4.3554913132
 20
-21.1420586689
 10
4.3721556884
 20
-21.1499298164
 10
4.3893600995
 20
-21.1582912512
 10
4.4070936546
 20
-21.1671413627
 10
4.4253444922
 20
-21.1764722249
 10
4.4441184058
 20
-21.1862836524
 10
4.4634094045
 20
-21.1965730068
 10
4.4831876583
 20
-21.2073244967
 10
4.5034454786
 20
-21.2185264477
 10
4.5241896894
 20
-21.2301781688
 10
4.5454120475
 20
-21.2422777472
 10
4.5671114687
 20
-21.2548152207
 10
4.5892878106
 20
-21.2677830102
 10
4.6119342107
 20
-21.281182323
  0
LINE
  5
2D8
100
AcDbEntity
  8
RACCORDO
100
AcDbLine
 62
7
  6
CONTINUOUS
 10
-5.0567639172
 20
-20.4145023001
 11
-5.2056327843
 21
-20.3023509737
  0
LINE
  5
2D9
100
AcDbEntity
  8
RACCORDO
100
AcDbLine
 62
7
  6
CONTINUOUS
 10
-7.3510263866
 20
-21.0489736134
 11
-7.4345579013
 21
-20.9654420987
  0
LINE
  5
2DA
100
AcDbEntity
  8
RACCORDO
100
AcDbLine
 62
7
  6
CONTINUOUS
 10
-10.7202082353
 20
-17.2983042468
 11
-10.0983042468
 21
-17.9202082353
  0
LINE
  5
2DB
100
AcDbEntity
  8
ASSI
100
AcDbLine
 62
7
  6
CONTINUOUS
 10
-10.7202082353
 20
-17.2983042468
 11
-10.0983042468
 21
-17.9202082353
  0
LINE
  5
2DC
100
AcDbEntity
  8
RACCORDO
100
AcDbLine
 62
7
  6
CONTINUOUS
 10
-7.4
 20
-19.7
 11
-7.3510263866
 21
-19.7489736134
  0
LINE
  5
2DD
100
AcDbEntity
  8
DRAFT
100
AcDbLine
 62
7
  6
CONTINUOUS
 10
-7.4
 20
-19.7
 11
-7.4366556363
 21
-19.6633443637
  0
LINE
  5
2DE
100
AcDbEntity
  8
RACCORDO
100
AcDbLine
 62
7
  6
CONTINUOUS
 10
-6.0476387933
 20
-20.4523612067
 11
-6.6741974154
 21
-19.8258025846
  0
LINE
  5
2DF
100
AcDbEntity
  8
0
100
AcDbLine
 62
7
  6
CONTINUOUS
 10
-11.15
 20
14.1976348052
 11
-11.1825449351
 21
14.1650898701
  0
LINE
  5
2E0
100
AcDbEntity
  8
RACCORDO
100
AcDbLine
 62
253
  6
CONTINUOUS
 10
-4.8698910615
 20
19.830127977
 11
-4.7476387933
 21
19.9523802452
  0
LINE
  5
2E1
100
AcDbEntity
  8
0
100
AcDbLine
 62
7
  6
CONTINUOUS
 10
-11.1825449351
 20
13.2017455065
 11
-11.1842904416
 21
13.2
  0
LINE
  5
2E2
100
AcDbEntity
  8
0
100
AcDbLine
 62
7
  6
CONTINUOUS
 10
2.5
 20
-18.3
 11
-2.5
 21
-18.3
  0
LINE
  5
2E3
100
AcDbEntity
  8
ASSI
100
AcDbLine
 62
7
  6
CONTINUOUS
 10
2.5
 20
-18.3
 11
-2.5
 21
-18.3
  0
LINE
  5
2E4
100
AcDbEntity
  8
RACCORDO
100
AcDbLine
 62
7
  6
CONTINUOUS
 10
-9.3912243901
 20
-18.2130903017
 11
-4.0130903017
 21
-18.2130903017
  0
LINE
  5
2E5
100
AcDbEntity
  8
ASSI
100
AcDbLine
 62
7
  6
CONTINUOUS
 10
-9.3912243901
 20
-18.2130903017
 11
-4.0130903017
 21
-18.2130903017
  0
LINE
  5
2E6
100
AcDbEntity
  8
ASSI
100
AcDbLine
 62
7
  6
CONTINUOUS
 10
-2.5
 20
-18.2
 11
2.5
 21
-18.2
  0
LINE
  5
2E7
100
AcDbEntity
  8
ASSI
100
AcDbLine
 62
7
  6
CONTINUOUS
 10
-2.5
 20
-17.5
 11
2.5
 21
-17.5
  0
LINE
  5
2E8
100
AcDbEntity
  8
RACCORDO
100
AcDbLine
 62
7
  6
CONTINUOUS
 10
1.6825778872
 20
-17.3
 11
-1.6825778872
 21
-17.3
  0
LINE
  5
2E9
100
AcDbEntity
  8
ASSI
100
AcDbLine
 62
7
  6
CONTINUOUS
 10
1.6825778872
 20
-17.3
 11
-1.6825778872
 21
-17.3
  0
LINE
  5
2EA
100
AcDbEntity
  8
RACCORDO
100
AcDbLine
 62
253
  6
CONTINUOUS
 10
-1.7
 20
-17.2816718427
 11
1.7
 21
-17.2816718427
  0
LINE
  5
2EB
100
AcDbEntity
  8
RACCORDO
100
AcDbLine
 62
7
  6
CONTINUOUS
 10
-1.7
 20
-17.25
 11
1.7
 21
-17.25
  0
LINE
  5
2EC
100
AcDbEntity
  8
0
100
AcDbLine
 62
7
  6
CONTINUOUS
 10
2.5
 20
-17.05
 11
-2.5
 21
-17.05
  0
LINE
  5
2ED
100
AcDbEntity
  8
0
100
AcDbLine
 62
7
  6
CONTINUOUS
 10
-2.5
 20
-16.6
 11
2.5
 21
-16.6
  0
LINE
  5
2EE
100
AcDbEntity
  8
ASSI
100
AcDbLine
 62
7
  6
CONTINUOUS
 10
-2.5
 20
-16.6
 11
2.5
 21
-16.6
  0
LINE
  5
2EF
100
AcDbEntity
  8
RACCORDO
100
AcDbLine
 62
253
  6
CONTINUOUS
 10
1.7
 20
-17.2816718427
 11
1.7520944533
 21
-17.2857483503
  0
LWPOLYLINE
  5
2F0
100
AcDbEntity
  8
RACCORDO
100
AcDbPolyline
 62
253
  6
CONTINUOUS
 90
40
 70
0
 10
5.2056327786
 20
-20.30235099
 10
5.1907513486
 20
-20.2969084018
 10
5.176049817
 20
-20.2909970062
 10
5.1615429493
 20
-20.2846227405
 10
5.1472453152
 20
-20.2777920066
 10
5.1331712745
 20
-20.2705116647
 10
5.1193349623
 20
-20.262789027
 10
5.1057502751
 20
-20.2546318496
 10
5.0924308565
 20
-20.246048325
 10
5.0793900838
 20
-20.2370470741
 10
5.0666410543
 20
-20.2276371371
 10
5.0541965724
 20
-20.217827965
 10
5.0420691367
 20
-20.2076294094
 10
5.0302709273
 20
-20.1970517132
 10
5.0188137935
 20
-20.1861055
 10
5.0077092423
 20
-20.1748017635
 10
4.9969684265
 20
-20.1631518567
 10
4.9866021335
 20
-20.1511674798
 10
4.9766207745
 20
-20.1388606695
 10
4.9670343744
 20
-20.1262437859
 10
4.9578525611
 20
-20.1133295006
 10
4.9490845563
 20
-20.1001307841
 10
4.9407391661
 20
-20.0866608924
 10
4.9328247722
 20
-20.0729333538
 10
4.9253493232
 20
-20.0589619556
 10
4.918320327
 20
-20.0447607297
 10
4.9117448433
 20
-20.030343939
 10
4.9056294761
 20
-20.015726063
 10
4.8999803672
 20
-20.0009217829
 10
4.8948031903
 20
-19.9859459674
 10
4.890103145
 20
-19.9708136573
 10
4.8858849519
 20
-19.9555400506
 10
4.8821528474
 20
-19.9401404873
 10
4.8789105798
 20
-19.9246304337
 10
4.8761614055
 20
-19.9090254673
 10
4.8739080856
 20
-19.8933412607
 10
4.8721528832
 20
-19.8775935664
 10
4.8708975611
 20
-19.8617982003
 10
4.8701433801
 20
-19.8459710265
 10
4.8698910976
 20
-19.8301279408
  0
LWPOLYLINE
  5
2F1
100
AcDbEntity
  8
RACCORDO
100
AcDbPolyline
 62
7
  6
CONTINUOUS
 90
8
 70
0
 10
5.6025680966
 20
-20.326459336
 10
5.6025116237
 20
-20.3264357021
 10
5.6023539492
 20
-20.3264056975
 10
5.6020950732
 20
-20.3263693221
 10
5.6017326359
 20
-20.3263264242
 10
5.6012689971
 20
-20.3262771555
 10
5.600711236
 20
-20.3262219715
 10
5.5993203443
 20
-20.3260944221
  0
LINE
  5
2F2
100
AcDbEntity
  8
0
100
AcDbLine
 62
7
  6
CONTINUOUS
 10
-11.15
 20
-14.1976348052
 11
-11.1825449351
 21
-14.1650898701
  0
LINE
  5
2F3
100
AcDbEntity
  8
RACCORDO
100
AcDbLine
 62
253
  6
CONTINUOUS
 10
-4.7476387933
 20
-19.9523802452
 11
-4.8698910615
 21
-19.830127977
  0
LINE
  5
2F4
100
AcDbEntity
  8
0
100
AcDbLine
 62
7
  6
CONTINUOUS
 10
-11.1825449351
 20
-13.2017455065
 11
-11.1842904416
 21
-13.2
  0
LINE
  5
2F5
100
AcDbEntity
  8
DRAFT
100
AcDbLine
 62
7
  6
CONTINUOUS
 10
-11.1842904416
 20
10.9657095584
 11
-11.1825449351
 21
10.9674550649
  0
LINE
  5
2F6
100
AcDbEntity
  8
ASSI
100
AcDbLine
 62
7
  6
CONTINUOUS
 10
-11.1842904416
 20
10.9657095584
 11
-11.1825449351
 21
10.9674550649
  0
LINE
  5
2F7
100
AcDbEntity
  8
ASSI
100
AcDbLine
 62
7
  6
CONTINUOUS
 10
4.9911112875
 20
21.5181771935
 11
4.8607439072
 21
21.4350873643
  0
LINE
  5
2F8
100
AcDbEntity
  8
ASSI
100
AcDbLine
 62
7
  6
CONTINUOUS
 10
4.8607439072
 20
21.4350873643
 11
4.8086912336
 21
21.4021699341
  0
LINE
  5
2F9
100
AcDbEntity
  8
ASSI
100
AcDbLine
 62
7
  6
CONTINUOUS
 10
4.8086912336
 20
21.4021699341
 11
4.7573083165
 21
21.3699675023
  0
LINE
  5
2FA
100
AcDbEntity
  8
ASSI
100
AcDbLine
 62
7
  6
CONTINUOUS
 10
4.7573083165
 20
21.3699675023
 11
4.7071674228
 21
21.3388905596
  0
LINE
  5
2FB
100
AcDbEntity
  8
ASSI
100
AcDbLine
 62
7
  6
CONTINUOUS
 10
4.7071674228
 20
21.3388905596
 11
4.6586531321
 21
21.3092386833
  0
LWPOLYLINE
  5
2FC
100
AcDbEntity
  8
ASSI
100
AcDbPolyline
 62
7
  6
CONTINUOUS
 90
29
 70
0
 10
4.6586531321
 20
21.3092386833
 10
4.6119343347
 20
21.2811823967
 10
4.5892879543
 20
21.2677830935
 10
4.5671115926
 20
21.2548152914
 10
4.5454121841
 20
21.2422778256
 10
4.5241899433
 20
21.2301783152
 10
4.5034458819
 20
21.218526676
 10
4.4831880995
 20
21.2073247386
 10
4.4634096426
 20
21.1965731297
 10
4.4441183307
 20
21.1862836071
 10
4.4253442398
 20
21.1764720944
 10
4.4070935045
 20
21.1671412916
 10
4.3893601859
 20
21.1582912975
 10
4.3721559562
 20
21.1499299447
 10
4.3554916169
 20
21.1420588081
 10
4.3393559757
 20
21.1346707233
 10
4.3237275908
 20
21.1277586541
 10
4.3086100264
 20
21.1213199605
 10
4.293999107
 20
21.1153485419
 10
4.2798618696
 20
21.1098334312
 10
4.2661987747
 20
21.1047706306
 10
4.2530087001
 20
21.1001546759
 10
4.240256493
 20
21.0959750399
 10
4.2279351178
 20
21.0922255068
 10
4.2160510256
 20
21.0889039325
 10
4.2045893596
 20
21.0860068381
 10
4.1935448766
 20
21.0835289011
 10
4.1829219671
 20
21.0814632502
 10
4.1727201634
 20
21.0798031965
  0
LINE
  5
2FD
100
AcDbEntity
  8
DRAFT
100
AcDbLine
 62
7
  6
CONTINUOUS
 10
11.2
 20
21.0
 11
11.0952696104
 21
20.9654420987
  0
LWPOLYLINE
  5
2FE
100
AcDbEntity
  8
RACCORDO
100
AcDbPolyline
 62
253
  6
CONTINUOUS
 90
3
 70
0
 10
-1.8027519366
 20
-17.2979015438
 10
-1.7521424653
 20
-17.285755926
 10
-1.7
 20
-17.2816718427
  0
LINE
  5
2FF
100
AcDbEntity
  8
0
100
AcDbLine
 62
7
  6
CONTINUOUS
 10
-11.1615988572
 20
-15.3911761874
 11
-11.15
 21
-15.3911761874
  0
LINE
  5
300
100
AcDbEntity
  8
0
100
AcDbLine
 62
7
  6
CONTINUOUS
 10
11.15
 20
-15.3911761874
 11
11.1615988572
 21
-15.3911761874
  0
LINE
  5
301
100
AcDbEntity
  8
CURVE
100
AcDbLine
 62
253
  6
CONTINUOUS
 10
-8.0
 20
-15.3428574085
 11
-6.7
 21
-15.3428574085
  0
LINE
  5
302
100
AcDbEntity
  8
CURVE
100
AcDbLine
 62
253
  6
CONTINUOUS
 10
-4.0
 20
-15.0642858028
 11
-2.7
 21
-15.0642858028
  0
LINE
  5
303
100
AcDbEntity
  8
RACCORDO
100
AcDbLine
 62
253
  6
CONTINUOUS
 10
1.7520944533
 20
-17.2857483503
 11
1.802606043
 21
-17.2978540106
  0
LINE
  5
304
100
AcDbEntity
  8
DRAFT
100
AcDbLine
 62
7
  6
CONTINUOUS
 10
11.2
 20
-21.0
 11
11.0952696104
 21
-20.9654420987
  0
LWPOLYLINE
  5
305
100
AcDbEntity
  8
RACCORDO
100
AcDbPolyline
 62
253
  6
CONTINUOUS
 90
3
 70
0
 10
1.802606043
 20
-17.2978540106
 10
1.85
 20
-17.3176209992
 10
1.8928362829
 20
-17.3444487062
  0
LINE
  5
306
100
AcDbEntity
  8
ASSI
100
AcDbLine
 62
7
  6
CONTINUOUS
 10
4.6119342107
 20
-21.281182323
 11
4.6586533056
 21
-21.3092387864
  0
LINE
  5
307
100
AcDbEntity
  8
ASSI
100
AcDbLine
 62
7
  6
CONTINUOUS
 10
4.6586533056
 20
-21.3092387864
 11
4.7071675534
 21
-21.3388906421
  0
LINE
  5
308
100
AcDbEntity
  8
ASSI
100
AcDbLine
 62
7
  6
CONTINUOUS
 10
4.7071675534
 20
-21.3388906421
 11
4.7573080776
 21
-21.3699673533
  0
LINE
  5
309
100
AcDbEntity
  8
ASSI
100
AcDbLine
 62
7
  6
CONTINUOUS
 10
4.7573080776
 20
-21.3699673533
 11
4.8086909853
 21
-21.4021697772
  0
LINE
  5
30A
100
AcDbEntity
  8
ASSI
100
AcDbLine
 62
7
  6
CONTINUOUS
 10
4.8086909853
 20
-21.4021697772
 11
4.8869508777
 21
-21.4517238224
  0
LINE
  5
30B
100
AcDbEntity
  8
ASSI
100
AcDbLine
 62
7
  6
CONTINUOUS
 10
4.8869508777
 20
-21.4517238224
 11
4.9911112875
 21
-21.5181771935
  0
LWPOLYLINE
  5
30C
100
AcDbEntity
  8
RACCORDO
100
AcDbPolyline
 62
253
  6
CONTINUOUS
 90
4
 70
0
 10
-10.6585359545
 20
11.85
 10
-10.6570164708
 20
11.8553504461
 10
-10.655521434
 20
11.8713400553
 10
-10.6540508441
 20
11.8978371398
  0
LWPOLYLINE
  5
30D
100
AcDbEntity
  8
ASSI
100
AcDbPolyline
 62
253
  6
CONTINUOUS
 90
4
 70
0
 10
-10.6585359545
 20
11.85
 10
-10.6570164708
 20
11.8553504461
 10
-10.655521434
 20
11.8713400553
 10
-10.6540508441
 20
11.8978371398
  0
LINE
  5
30E
100
AcDbEntity
  8
0
100
AcDbLine
 62
7
  6
CONTINUOUS
 10
4.8698910976
 20
19.7461274635
 11
4.8
 21
19.7
  0
LWPOLYLINE
  5
30F
100
AcDbEntity
  8
RACCORDO
100
AcDbPolyline
 62
253
  6
CONTINUOUS
 90
4
 70
0
 10
1.8933221907
 20
17.3448141709
 10
1.8502766567
 20
17.3177640399
 10
1.8027519366
 20
17.2979015438
 10
1.7521424653
 20
17.285755926
  0
LINE
  5
310
100
AcDbEntity
  8
RACCORDO
100
AcDbLine
 62
253
  6
CONTINUOUS
 10
10.5643027805
 20
19.0856972195
 11
10.442117326
 21
19.0350863471
  0
LINE
  5
311
100
AcDbEntity
  8
DRAFT
100
AcDbLine
 62
7
  6
CONTINUOUS
 10
11.15
 20
-13.103753462
 11
11.1842904416
 21
-13.1027030658
  0
LINE
  5
312
100
AcDbEntity
  8
0
100
AcDbLine
 62
7
  6
CONTINUOUS
 10
-11.1852469136
 20
-13.1525595166
 11
-11.15
 21
-13.1518488854
  0
LINE
  5
313
100
AcDbEntity
  8
CURVE
100
AcDbLine
 62
253
  6
CONTINUOUS
 10
-8.0
 20
-14.6
 11
-6.7
 21
-14.6
  0
LINE
  5
314
100
AcDbEntity
  8
CURVE
100
AcDbLine
 62
253
  6
CONTINUOUS
 10
-2.7
 20
-14.2285716057
 11
-4.0
 21
-14.2285716057
  0
LINE
  5
315
100
AcDbEntity
  8
0
100
AcDbLine
 62
7
  6
CONTINUOUS
 10
11.1825449351
 20
-14.1650898701
 11
11.15
 21
-14.1650898701
  0
LINE
  5
316
100
AcDbEntity
  8
0
100
AcDbLine
 62
7
  6
CONTINUOUS
 10
-11.1825449351
 20
-14.1650898701
 11
-11.15
 21
-14.1650898701
  0
LINE
  5
317
100
AcDbEntity
  8
0
100
AcDbLine
 62
7
  6
CONTINUOUS
 10
11.1825449351
 20
-13.2017455065
 11
11.15
 21
-13.2017455065
  0
LINE
  5
318
100
AcDbEntity
  8
0
100
AcDbLine
 62
7
  6
CONTINUOUS
 10
-11.15
 20
-13.2017455065
 11
-11.1825449351
 21
-13.2017455065
  0
LINE
  5
319
100
AcDbEntity
  8
0
100
AcDbLine
 62
7
  6
CONTINUOUS
 10
11.15
 20
-13.1518488854
 11
11.1852469136
 21
-13.1525595166
  0
LINE
  5
31A
100
AcDbEntity
  8
DRAFT
100
AcDbLine
 62
7
  6
CONTINUOUS
 10
-11.1842904416
 20
-13.1027030658
 11
-11.15
 21
-13.103753462
  0
LINE
  5
31B
100
AcDbEntity
  8
CURVE
100
AcDbLine
 62
253
  6
CONTINUOUS
 10
-8.0
 20
-12.2785716057
 11
-6.7
 21
-12.5571425915
  0
LINE
  5
31C
100
AcDbEntity
  8
CURVE
100
AcDbLine
 62
253
  6
CONTINUOUS
 10
-4.0
 20
-12.2785716057
 11
-2.7
 21
-12.5571425915
  0
LINE
  5
31D
100
AcDbEntity
  8
CURVE
100
AcDbLine
 62
253
  6
CONTINUOUS
 10
-8.0
 20
-11.7214283943
 11
-7.0714285493
 21
-12.0
  0
LINE
  5
31E
100
AcDbEntity
  8
RACCORDO
100
AcDbLine
 62
253
  6
CONTINUOUS
 10
10.442117326
 20
-19.0350863471
 11
10.5643027805
 21
-19.0856972195
  0
LINE
  5
31F
100
AcDbEntity
  8
CURVE
100
AcDbLine
 62
253
  6
CONTINUOUS
 10
-7.628571412
 20
-11.0714283943
 11
-7.814285706
 21
-10.9785716057
  0
LINE
  5
320
100
AcDbEntity
  8
0
100
AcDbLine
 62
7
  6
CONTINUOUS
 10
4.8
 20
-19.7
 11
4.8698910976
 21
-19.7461274635
  0
LINE
  5
321
100
AcDbEntity
  8
CURVE
100
AcDbLine
 62
253
  6
CONTINUOUS
 10
-7.814285706
 20
-10.9785716057
 11
-8.0
 21
-10.7928574085
  0
LINE
  5
322
100
AcDbEntity
  8
RACCORDO
100
AcDbLine
 62
7
  6
CONTINUOUS
 10
-12.4
 20
23.75
 11
-12.4
 21
-23.75
  0
LINE
  5
323
100
AcDbEntity
  8
DRAFT
100
AcDbLine
 62
7
  6
CONTINUOUS
 10
-11.2
 20
21.0
 11
-11.2
 21
-21.0
  0
LINE
  5
324
100
AcDbEntity
  8
0
100
AcDbLine
 62
7
  6
CONTINUOUS
 10
-11.1842904416
 20
-13.2
 11
-11.1842904416
 21
-9.0
  0
LINE
  5
325
100
AcDbEntity
  8
0
100
AcDbLine
 62
7
  6
CONTINUOUS
 10
-11.1842904416
 20
9.0
 11
-11.1842904416
 21
13.2
  0
LINE
  5
326
100
AcDbEntity
  8
0
100
AcDbLine
 62
7
  6
CONTINUOUS
 10
-11.1825449351
 20
14.1650898701
 11
-11.1825449351
 21
13.2017455065
  0
LINE
  5
327
100
AcDbEntity
  8
0
100
AcDbLine
 62
7
  6
CONTINUOUS
 10
-11.1825449351
 20
8.9982544935
 11
-11.1825449351
 21
8.0349101299
  0
LINE
  5
328
100
AcDbEntity
  8
0
100
AcDbLine
 62
7
  6
CONTINUOUS
 10
-11.1825449351
 20
-8.0349101299
 11
-11.1825449351
 21
-8.9982544935
  0
LINE
  5
329
100
AcDbEntity
  8
0
100
AcDbLine
 62
7
  6
CONTINUOUS
 10
-11.1825449351
 20
-13.2017455065
 11
-11.1825449351
 21
-14.1650898701
  0
LINE
  5
32A
100
AcDbEntity
  8
DRAFT
100
AcDbLine
 62
7
  6
CONTINUOUS
 10
-11.1825449351
 20
10.3418921558
 11
-11.1825449351
 21
10.9674550649
  0
LINE
  5
32B
100
AcDbEntity
  8
ASSI
100
AcDbLine
 62
7
  6
CONTINUOUS
 10
-11.1825449351
 20
10.3418921558
 11
-11.1825449351
 21
10.9674550649
  0
LINE
  5
32C
100
AcDbEntity
  8
DRAFT
100
AcDbLine
 62
7
  6
CONTINUOUS
 10
-11.1615988572
 20
19.5860359481
 11
-11.1615988572
 21
15.3911761874
  0
LINE
  5
32D
100
AcDbEntity
  8
DRAFT
100
AcDbLine
 62
7
  6
CONTINUOUS
 10
-11.1615988572
 20
-15.3911761874
 11
-11.1615988572
 21
-19.5860359481
  0
LINE
  5
32E
100
AcDbEntity
  8
RACCORDO
100
AcDbLine
 62
7
  6
CONTINUOUS
 10
-11.15
 20
17.6716990487
 11
-11.15
 21
-17.6716990487
  0
LINE
  5
32F
100
AcDbEntity
  8
DRAFT
100
AcDbLine
 62
7
  6
CONTINUOUS
 10
-11.0952696104
 20
-20.9654420987
 11
-11.0952696104
 21
-19.6523651948
  0
LINE
  5
330
100
AcDbEntity
  8
DRAFT
100
AcDbLine
 62
7
  6
CONTINUOUS
 10
-11.0952696104
 20
19.6523651948
 11
-11.0952696104
 21
20.9654420987
  0
LINE
  5
331
100
AcDbEntity
  8
RACCORDO
100
AcDbLine
 62
7
  6
CONTINUOUS
 10
-11.0278145455
 20
17.6210881763
 11
-11.0278145455
 21
-17.6210881763
  0
LINE
  5
332
100
AcDbEntity
  8
RACCORDO
100
AcDbLine
 62
7
  6
CONTINUOUS
 10
-11.0130903017
 20
16.5912243901
 11
-11.0130903017
 21
16.45
  0
LINE
  5
333
100
AcDbEntity
  8
ASSI
100
AcDbLine
 62
7
  6
CONTINUOUS
 10
-11.0130903017
 20
16.5912243901
 11
-11.0130903017
 21
16.45
  0
LINE
  5
334
100
AcDbEntity
  8
RACCORDO
100
AcDbLine
 62
7
  6
CONTINUOUS
 10
-11.0130903017
 20
11.55
 11
-11.0130903017
 21
11.45
  0
LINE
  5
335
100
AcDbEntity
  8
ASSI
100
AcDbLine
 62
7
  6
CONTINUOUS
 10
-11.0130903017
 20
11.55
 11
-11.0130903017
 21
11.45
  0
LINE
  5
336
100
AcDbEntity
  8
RACCORDO
100
AcDbLine
 62
7
  6
CONTINUOUS
 10
-11.0130903017
 20
6.55
 11
-11.0130903017
 21
6.45
  0
LINE
  5
337
100
AcDbEntity
  8
ASSI
100
AcDbLine
 62
7
  6
CONTINUOUS
 10
-11.0130903017
 20
6.55
 11
-11.0130903017
 21
6.45
  0
LINE
  5
338
100
AcDbEntity
  8
RACCORDO
100
AcDbLine
 62
7
  6
CONTINUOUS
 10
-11.0130903017
 20
1.55
 11
-11.0130903017
 21
1.45
  0
LINE
  5
339
100
AcDbEntity
  8
ASSI
100
AcDbLine
 62
7
  6
CONTINUOUS
 10
-11.0130903017
 20
1.55
 11
-11.0130903017
 21
1.45
  0
LINE
  5
33A
100
AcDbEntity
  8
RACCORDO
100
AcDbLine
 62
7
  6
CONTINUOUS
 10
-11.0130903017
 20
-3.45
 11
-11.0130903017
 21
-16.5912243901
  0
LINE
  5
33B
100
AcDbEntity
  8
ASSI
100
AcDbLine
 62
7
  6
CONTINUOUS
 10
-11.0130903017
 20
-3.45
 11
-11.0130903017
 21
-16.5912243901
  0
LINE
  5
33C
100
AcDbEntity
  8
ASSI
100
AcDbLine
 62
7
  6
CONTINUOUS
 10
-11.0
 20
16.363227895
 11
-11.0
 21
11.636772105
  0
LINE
  5
33D
100
AcDbEntity
  8
ASSI
100
AcDbLine
 62
7
  6
CONTINUOUS
 10
-11.0
 20
11.363227895
 11
-11.0
 21
6.636772105
  0
LINE
  5
33E
100
AcDbEntity
  8
ASSI
100
AcDbLine
 62
7
  6
CONTINUOUS
 10
-11.0
 20
6.363227895
 11
-11.0
 21
1.636772105
  0
LINE
  5
33F
100
AcDbEntity
  8
ASSI
100
AcDbLine
 62
7
  6
CONTINUOUS
 10
-11.0
 20
1.363227895
 11
-11.0
 21
-3.363227895
  0
LINE
  5
340
100
AcDbEntity
  8
RACCORDO
100
AcDbLine
 62
7
  6
CONTINUOUS
 10
-10.9372344483
 20
13.7883651599
 11
-10.9376055699
 21
13.4983225723
  0
LINE
  5
341
100
AcDbEntity
  8
ASSI
100
AcDbLine
 62
7
  6
CONTINUOUS
 10
-10.9372312092
 20
13.7925887566
 11
-10.9376827794
 21
13.4577241742
  0
LINE
  5
342
100
AcDbEntity
  8
ASSI
100
AcDbLine
 62
7
  6
CONTINUOUS
 10
-10.9373841085
 20
8.6419488636
 11
-10.9379199485
 21
8.3500445166
  0
LINE
  5
343
100
AcDbEntity
  8
RACCORDO
100
AcDbLine
 62
7
  6
CONTINUOUS
 10
-10.9373840213
 20
8.6420173722
 11
-10.9379005127
 21
8.3581239224
  0
LINE
  5
344
100
AcDbEntity
  8
RACCORDO
100
AcDbLine
 62
7
  6
CONTINUOUS
 10
-10.9376055699
 20
13.4983225723
 11
-10.9382623542
 21
13.2222261076
  0
LINE
  5
345
100
AcDbEntity
  8
ASSI
100
AcDbLine
 62
7
  6
CONTINUOUS
 10
-10.9376827794
 20
13.4577241742
 11
-10.9384004866
 21
13.1764659955
  0
LINE
  5
346
100
AcDbEntity
  8
ASSI
100
AcDbLine
 62
7
  6
CONTINUOUS
 10
-10.9379199485
 20
8.3500445166
 11
-10.9387329867
 21
8.0762660163
  0
LINE
  5
347
100
AcDbEntity
  8
RACCORDO
100
AcDbLine
 62
7
  6
CONTINUOUS
 10
-10.9379005127
 20
8.3581239224
 11
-10.9386804332
 21
8.0912635171
  0
LINE
  5
348
100
AcDbEntity
  8
RACCORDO
100
AcDbLine
 62
7
  6
CONTINUOUS
 10
-10.9382623542
 20
13.2222261076
 11
-10.939153966
 21
12.9654917048
  0
LINE
  5
349
100
AcDbEntity
  8
ASSI
100
AcDbLine
 62
7
  6
CONTINUOUS
 10
-10.9384004866
 20
13.1764659955
 11
-10.9393609442
 21
12.9161625162
  0
LINE
  5
34A
100
AcDbEntity
  8
ASSI
100
AcDbLine
 62
7
  6
CONTINUOUS
 10
-10.9382968641
 20
3.210540189
 11
-10.9393609442
 21
2.9161625162
  0
LINE
  5
34B
100
AcDbEntity
  8
ASSI
100
AcDbLine
 62
7
  6
CONTINUOUS
 10
-10.9387329867
 20
8.0762660163
 11
-10.939779782
 21
7.8243333756
  0
LINE
  5
34C
100
AcDbEntity
  8
RACCORDO
100
AcDbLine
 62
7
  6
CONTINUOUS
 10
-10.9386804332
 20
8.0912635171
 11
-10.9396814894
 21
7.8450377648
  0
LINE
  5
34D
100
AcDbEntity
  8
RACCORDO
100
AcDbLine
 62
7
  6
CONTINUOUS
 10
-10.9383618144
 20
3.1890093973
 11
-10.939963533
 21
2.7868391113
  0
LINE
  5
34E
100
AcDbEntity
  8
RACCORDO
100
AcDbLine
 62
7
  6
CONTINUOUS
 10
-10.939153966
 20
12.9654917048
 11
-10.9402561394
 21
12.7300055088
  0
LINE
  5
34F
100
AcDbEntity
  8
ASSI
100
AcDbLine
 62
7
  6
CONTINUOUS
 10
-10.9393609442
 20
12.9161625162
 11
-10.9405362031
 21
12.6784881031
  0
LINE
  5
350
100
AcDbEntity
  8
ASSI
100
AcDbLine
 62
7
  6
CONTINUOUS
 10
-10.9393609442
 20
2.9161625162
 11
-10.9405362031
 21
2.6784881031
  0
LINE
  5
351
100
AcDbEntity
  8
RACCORDO
100
AcDbLine
 62
7
  6
CONTINUOUS
 10
-10.9396814894
 20
7.8450377648
 11
-10.9410297381
 21
7.593955589
  0
LINE
  5
352
100
AcDbEntity
  8
ASSI
100
AcDbLine
 62
7
  6
CONTINUOUS
 10
-10.939779782
 20
7.8243333756
 11
-10.9410211867
 21
7.5953566
  0
LINE
  5
353
100
AcDbEntity
  8
RACCORDO
100
AcDbLine
 62
7
  6
CONTINUOUS
 10
-10.939963533
 20
2.7868391113
 11
-10.9413566083
 21
2.541958451
  0
LINE
  5
354
100
AcDbEntity
  8
RACCORDO
100
AcDbLine
 62
7
  6
CONTINUOUS
 10
-10.9402561394
 20
12.7300055088
 11
-10.9415237735
 21
12.5164791768
  0
LINE
  5
355
100
AcDbEntity
  8
ASSI
100
AcDbLine
 62
7
  6
CONTINUOUS
 10
-10.9405362031
 20
12.6784881031
 11
-10.9418823636
 21
12.4641421596
  0
LINE
  5
356
100
AcDbEntity
  8
ASSI
100
AcDbLine
 62
7
  6
CONTINUOUS
 10
-10.9405362031
 20
2.6784881031
 11
-10.9418823636
 21
2.4641421596
  0
LINE
  5
357
100
AcDbEntity
  8
RACCORDO
100
AcDbLine
 62
7
  6
CONTINUOUS
 10
-10.9410297381
 20
7.593955589
 11
-10.9423945257
 21
7.394289289
  0
LINE
  5
358
100
AcDbEntity
  8
ASSI
100
AcDbLine
 62
7
  6
CONTINUOUS
 10
-10.9410211867
 20
7.5953566
 11
-10.9424286138
 21
7.3898247797
  0
LINE
  5
359
100
AcDbEntity
  8
RACCORDO
100
AcDbLine
 62
7
  6
CONTINUOUS
 10
-10.9413566083
 20
2.541958451
 11
-10.9427573659
 21
2.3478402153
  0
LINE
  5
35A
100
AcDbEntity
  8
RACCORDO
100
AcDbLine
 62
7
  6
CONTINUOUS
 10
-10.9415237735
 20
12.5164791768
 11
-10.9429413854
 21
12.3251369411
  0
LINE
  5
35B
100
AcDbEntity
  8
ASSI
100
AcDbLine
 62
7
  6
CONTINUOUS
 10
-10.9418823636
 20
12.4641421596
 11
-10.9433784143
 21
12.2733200889
  0
LINE
  5
35C
100
AcDbEntity
  8
ASSI
100
AcDbLine
 62
7
  6
CONTINUOUS
 10
-10.9418823636
 20
2.4641421596
 11
-10.9433784143
 21
2.2733200889
  0
LINE
  5
35D
100
AcDbEntity
  8
ASSI
100
AcDbLine
 62
7
  6
CONTINUOUS
 10
-10.9424286138
 20
7.3898247797
 11
-10.9439687821
 21
7.2078308048
  0
LINE
  5
35E
100
AcDbEntity
  8
RACCORDO
100
AcDbLine
 62
7
  6
CONTINUOUS
 10
-10.9423945257
 20
7.394289289
 11
-10.9438850062
 21
7.2168185327
  0
LINE
  5
35F
100
AcDbEntity
  8
RACCORDO
100
AcDbLine
 62
7
  6
CONTINUOUS
 10
-10.9427573659
 20
2.3478402153
 11
-10.9442739923
 21
2.1759088623
  0
LINE
  5
360
100
AcDbEntity
  8
RACCORDO
100
AcDbLine
 62
7
  6
CONTINUOUS
 10
-10.9429413854
 20
12.3251369411
 11
-10.9444710072
 21
12.1559685468
  0
LINE
  5
361
100
AcDbEntity
  8
ASSI
100
AcDbLine
 62
7
  6
CONTINUOUS
 10
-10.9433784143
 20
12.2733200889
 11
-10.9449880872
 21
12.1059850991
  0
LINE
  5
362
100
AcDbEntity
  8
ASSI
100
AcDbLine
 62
7
  6
CONTINUOUS
 10
-10.9433784143
 20
2.2733200889
 11
-10.9449880872
 21
2.1059850991
  0
LINE
  5
363
100
AcDbEntity
  8
RACCORDO
100
AcDbLine
 62
7
  6
CONTINUOUS
 10
-10.9438850062
 20
7.2168185327
 11
-10.9454798847
 21
7.0613925232
  0
LINE
  5
364
100
AcDbEntity
  8
ASSI
100
AcDbLine
 62
7
  6
CONTINUOUS
 10
-10.9439687821
 20
7.2078308048
 11
-10.945619433
 21
7.0492272176
  0
LINE
  5
365
100
AcDbEntity
  8
RACCORDO
100
AcDbLine
 62
7
  6
CONTINUOUS
 10
-10.9442739923
 20
2.1759088623
 11
-10.9458933558
 21
2.0259403372
  0
LINE
  5
366
100
AcDbEntity
  8
RACCORDO
100
AcDbLine
 62
7
  6
CONTINUOUS
 10
-10.9444710072
 20
12.1559685468
 11
-10.9461018536
 21
12.0087215749
  0
LINE
  5
367
100
AcDbEntity
  8
ASSI
100
AcDbLine
 62
7
  6
CONTINUOUS
 10
-10.9449880872
 20
12.1059850991
 11
-10.9466969796
 21
11.9618256262
  0
LINE
  5
368
100
AcDbEntity
  8
ASSI
100
AcDbLine
 62
7
  6
CONTINUOUS
 10
-10.9449880872
 20
2.1059850991
 11
-10.9466969796
 21
1.9618256262
  0
LINE
  5
369
100
AcDbEntity
  8
RACCORDO
100
AcDbLine
 62
7
  6
CONTINUOUS
 10
-10.9454798847
 20
7.0613925232
 11
-10.9471576649
 21
6.927718052
  0
LINE
  5
36A
100
AcDbEntity
  8
ASSI
100
AcDbLine
 62
7
  6
CONTINUOUS
 10
-10.945619433
 20
7.0492272176
 11
-10.9473542396
 21
6.9137396632
  0
LINE
  5
36B
100
AcDbEntity
  8
RACCORDO
100
AcDbLine
 62
7
  6
CONTINUOUS
 10
-10.9458933558
 20
2.0259403372
 11
-10.9475854756
 21
1.897731349
  0
LINE
  5
36C
100
AcDbEntity
  8
RACCORDO
100
AcDbLine
 62
7
  6
CONTINUOUS
 10
-10.9461018536
 20
12.0087215749
 11
-10.9478005447
 21
11.8832588336
  0
LINE
  5
36D
100
AcDbEntity
  8
ASSI
100
AcDbLine
 62
7
  6
CONTINUOUS
 10
-10.9466969796
 20
11.9618256262
 11
-10.9482417557
 21
11.854799212
  0
LINE
  5
36E
100
AcDbEntity
  8
ASSI
100
AcDbLine
 62
7
  6
CONTINUOUS
 10
-10.9466969796
 20
1.9618256262
 11
-10.9482417557
 21
1.854799212
  0
LINE
  5
36F
100
AcDbEntity
  8
RACCORDO
100
AcDbLine
 62
7
  6
CONTINUOUS
 10
-10.9471576649
 20
6.927718052
 11
-10.9486671815
 21
6.8288785968
  0
LINE
  5
370
100
AcDbEntity
  8
ASSI
100
AcDbLine
 62
7
  6
CONTINUOUS
 10
-10.9473542396
 20
6.9137396632
 11
-10.9489139755
 21
6.814503225
  0
LINE
  5
371
100
AcDbEntity
  8
RACCORDO
100
AcDbLine
 62
7
  6
CONTINUOUS
 10
-10.9475854756
 20
1.897731349
 11
-10.9491033025
 21
1.8037953212
  0
LINE
  5
372
100
AcDbEntity
  8
RACCORDO
100
AcDbLine
 62
7
  6
CONTINUOUS
 10
-10.9478005447
 20
11.8832588336
 11
-10.9493216851
 21
11.7917817527
  0
LINE
  5
373
100
AcDbEntity
  8
ASSI
100
AcDbLine
 62
7
  6
CONTINUOUS
 10
-10.9482417557
 20
11.854799212
 11
-10.9498137879
 21
11.7659963643
  0
LINE
  5
374
100
AcDbEntity
  8
ASSI
100
AcDbLine
 62
7
  6
CONTINUOUS
 10
-10.9482417557
 20
1.854799212
 11
-10.9498137879
 21
1.7659963643
  0
LINE
  5
375
100
AcDbEntity
  8
RACCORDO
100
AcDbLine
 62
7
  6
CONTINUOUS
 10
-10.9486671815
 20
6.8288785968
 11
-10.9501944217
 21
6.7472289844
  0
LINE
  5
376
100
AcDbEntity
  8
RACCORDO
100
AcDbLine
 62
7
  6
CONTINUOUS
 10
-10.9493216851
 20
11.7917817527
 11
-10.9505011364
 21
11.7328619478
  0
LINE
  5
377
100
AcDbEntity
  8
RACCORDO
100
AcDbLine
 62
7
  6
CONTINUOUS
 10
-10.9501944217
 20
6.7472289844
 11
-10.9505011364
 21
6.7328619478
  0
LINE
  5
378
100
AcDbEntity
  8
RACCORDO
100
AcDbLine
 62
7
  6
CONTINUOUS
 10
-10.9491033025
 20
1.8037953212
 11
-10.9505011364
 21
1.7328619478
  0
LINE
  5
379
100
AcDbEntity
  8
ASSI
100
AcDbLine
 62
7
  6
CONTINUOUS
 10
-10.9498137879
 20
11.7659963643
 11
-10.9505005175
 21
11.7328627108
  0
LINE
  5
37A
100
AcDbEntity
  8
ASSI
100
AcDbLine
 62
7
  6
CONTINUOUS
 10
-10.9489139755
 20
6.814503225
 11
-10.9505005175
 21
6.7328627108
  0
LINE
  5
37B
100
AcDbEntity
  8
ASSI
100
AcDbLine
 62
7
  6
CONTINUOUS
 10
-10.9498137879
 20
1.7659963643
 11
-10.9505005175
 21
1.7328627108
  0
LWPOLYLINE
  5
37C
100
AcDbEntity
  8
RACCORDO
100
AcDbPolyline
 62
253
  6
CONTINUOUS
 90
9
 70
0
 10
-10.6540508441
 20
11.8978371398
 10
-10.6525979664
 20
11.9346568188
 10
-10.6511695357
 20
11.9815678226
 10
-10.6497857557
 20
12.0382992647
 10
-10.6484475217
 20
12.1045200894
 10
-10.6471539385
 20
12.1798712137
 10
-10.6459225242
 20
12.2639929856
 10
-10.6447541673
 20
12.3564484105
 10
-10.6426188118
 20
12.5645168339
  0
LWPOLYLINE
  5
37D
100
AcDbEntity
  8
ASSI
100
AcDbPolyline
 62
253
  6
CONTINUOUS
 90
9
 70
0
 10
-10.6540508441
 20
11.8978371398
 10
-10.6525979664
 20
11.9346568188
 10
-10.6511695357
 20
11.9815678226
 10
-10.6497857557
 20
12.0382992647
 10
-10.6484475217
 20
12.1045200894
 10
-10.6471539385
 20
12.1798712137
 10
-10.6459225242
 20
12.2639929856
 10
-10.6447541673
 20
12.3564484105
 10
-10.6426188118
 20
12.5645168339
  0
LWPOLYLINE
  5
37E
100
AcDbEntity
  8
RACCORDO
100
AcDbPolyline
 62
253
  6
CONTINUOUS
 90
4
 70
0
 10
-10.6585359545
 20
6.85
 10
-10.6570164708
 20
6.8553504461
 10
-10.655521434
 20
6.8713400553
 10
-10.6540508441
 20
6.8978371398
  0
LWPOLYLINE
  5
37F
100
AcDbEntity
  8
ASSI
100
AcDbPolyline
 62
253
  6
CONTINUOUS
 90
4
 70
0
 10
-10.6585359545
 20
6.85
 10
-10.6570164708
 20
6.8553504461
 10
-10.655521434
 20
6.8713400553
 10
-10.6540508441
 20
6.8978371398
  0
LINE
  5
380
100
AcDbEntity
  8
DRAFT
100
AcDbLine
 62
7
  6
CONTINUOUS
 10
3.4633443637
 20
19.8633443637
 11
3.5
 21
19.9
  0
LINE
  5
381
100
AcDbEntity
  8
DRAFT
100
AcDbLine
 62
7
  6
CONTINUOUS
 10
3.5
 20
19.7
 11
3.4633443637
 21
19.6633443637
  0
LINE
  5
382
100
AcDbEntity
  8
ASSI
100
AcDbLine
 62
7
  6
CONTINUOUS
 10
3.9
 20
20.9808008909
 11
3.9911511448
 21
21.0698928577
  0
LINE
  5
383
100
AcDbEntity
  8
RACCORDO
100
AcDbLine
 62
253
  6
CONTINUOUS
 10
11.15
 20
17.6716990487
 11
11.0278145455
 21
17.6210881763
  0
LINE
  5
384
100
AcDbEntity
  8
CURVE
100
AcDbLine
 62
253
  6
CONTINUOUS
 10
-3.0714285493
 20
-11.0714283943
 11
-3.628571412
 21
-11.0714283943
  0
LINE
  5
385
100
AcDbEntity
  8
CURVE
100
AcDbLine
 62
253
  6
CONTINUOUS
 10
-7.0714285493
 20
-11.0714283943
 11
-7.628571412
 21
-11.0714283943
  0
LINE
  5
386
100
AcDbEntity
  8
CURVE
100
AcDbLine
 62
253
  6
CONTINUOUS
 10
-4.0
 20
-11.7214283943
 11
-3.0714285493
 21
-12.0
  0
LINE
  5
387
100
AcDbEntity
  8
RACCORDO
100
AcDbLine
 62
253
  6
CONTINUOUS
 10
11.0278145455
 20
-17.6210881763
 11
11.15
 21
-17.6716990487
  0
LINE
  5
388
100
AcDbEntity
  8
CURVE
100
AcDbLine
 62
253
  6
CONTINUOUS
 10
-7.0714285493
 20
-10.4214287043
 11
-6.8857142746
 21
-10.5142858028
  0
LINE
  5
389
100
AcDbEntity
  8
CURVE
100
AcDbLine
 62
253
  6
CONTINUOUS
 10
-7.628571412
 20
-10.05
 11
-7.814285706
 21
-9.9571429014
  0
LINE
  5
38A
100
AcDbEntity
  8
CURVE
100
AcDbLine
 62
253
  6
CONTINUOUS
 10
-7.0714285493
 20
-9.4
 11
-6.8857142746
 21
-9.4928570986
  0
LINE
  5
38B
100
AcDbEntity
  8
CURVE
100
AcDbLine
 62
253
  6
CONTINUOUS
 10
-3.628571412
 20
-11.0714283943
 11
-3.814285706
 21
-10.9785716057
  0
LWPOLYLINE
  5
38C
100
AcDbEntity
  8
RACCORDO
100
AcDbPolyline
 62
253
  6
CONTINUOUS
 90
4
 70
0
 10
1.8928362829
 20
-17.3444487062
 10
1.9298133329
 20
-17.3775219852
 10
1.9598076211
 20
-17.4158359214
 10
1.9819077862
 20
-17.4582263652
  0
LINE
  5
38D
100
AcDbEntity
  8
ASSI
100
AcDbLine
 62
7
  6
CONTINUOUS
 10
3.9911511448
 20
-21.0698928577
 11
3.9
 21
-20.9808008909
  0
LINE
  5
38E
100
AcDbEntity
  8
CURVE
100
AcDbLine
 62
253
  6
CONTINUOUS
 10
-7.814285706
 20
-9.9571429014
 11
-8.0
 21
-9.7714287043
  0
LINE
  5
38F
100
AcDbEntity
  8
CURVE
100
AcDbLine
 62
253
  6
CONTINUOUS
 10
-6.8857142746
 20
-10.5142858028
 11
-6.7
 21
-10.7
  0
LINE
  5
390
100
AcDbEntity
  8
CURVE
100
AcDbLine
 62
253
  6
CONTINUOUS
 10
-8.0
 20
-8.9357141972
 11
-7.907142853
 21
-9.0285712957
  0
LINE
  5
391
100
AcDbEntity
  8
DRAFT
100
AcDbLine
 62
7
  6
CONTINUOUS
 10
3.5
 20
-19.9
 11
3.4633443637
 21
-19.8633443637
  0
LINE
  5
392
100
AcDbEntity
  8
CURVE
100
AcDbLine
 62
253
  6
CONTINUOUS
 10
-6.8857142746
 20
-9.4928570986
 11
-6.7
 21
-9.6785712957
  0
LINE
  5
393
100
AcDbEntity
  8
DRAFT
100
AcDbLine
 62
7
  6
CONTINUOUS
 10
3.5
 20
-19.7
 11
3.4633443637
 21
-19.6633443637
  0
LINE
  5
394
100
AcDbEntity
  8
DRAFT
100
AcDbLine
 62
7
  6
CONTINUOUS
 10
-11.1615988572
 20
15.3911761874
 11
-11.15
 21
15.149318665
  0
LINE
  5
395
100
AcDbEntity
  8
ASSI
100
AcDbLine
 62
7
  6
CONTINUOUS
 10
-10.9505007266
 20
1.2671375469
 11
-10.9491010867
 21
1.1960432517
  0
LINE
  5
396
100
AcDbEntity
  8
ASSI
100
AcDbLine
 62
7
  6
CONTINUOUS
 10
-10.9505007266
 20
6.2671375469
 11
-10.9491010867
 21
6.1960432517
  0
LINE
  5
397
100
AcDbEntity
  8
ASSI
100
AcDbLine
 62
7
  6
CONTINUOUS
 10
-10.9505007266
 20
11.2671375469
 11
-10.9491010867
 21
11.1960432517
  0
LINE
  5
398
100
AcDbEntity
  8
ASSI
100
AcDbLine
 62
7
  6
CONTINUOUS
 10
-10.9505007266
 20
16.2671375469
 11
-10.9491010867
 21
16.1960432517
  0
LINE
  5
399
100
AcDbEntity
  8
RACCORDO
100
AcDbLine
 62
7
  6
CONTINUOUS
 10
-10.9505012062
 20
1.2671381382
 11
-10.9488741344
 21
1.1831787817
  0
LINE
  5
39A
100
AcDbEntity
  8
RACCORDO
100
AcDbLine
 62
7
  6
CONTINUOUS
 10
-10.9505012062
 20
6.2671381382
 11
-10.9488741344
 21
6.1831787817
  0
LINE
  5
39B
100
AcDbEntity
  8
RACCORDO
100
AcDbLine
 62
7
  6
CONTINUOUS
 10
-10.9505012062
 20
11.2671381382
 11
-10.9488741344
 21
11.1831787817
  0
LINE
  5
39C
100
AcDbEntity
  8
RACCORDO
100
AcDbLine
 62
7
  6
CONTINUOUS
 10
-10.9505012062
 20
16.2671381382
 11
-10.9488741344
 21
16.1831787817
  0
LINE
  5
39D
100
AcDbEntity
  8
ASSI
100
AcDbLine
 62
7
  6
CONTINUOUS
 10
-10.9491010867
 20
1.1960432517
 11
-10.9474742789
 21
1.0946800749
  0
LINE
  5
39E
100
AcDbEntity
  8
ASSI
100
AcDbLine
 62
7
  6
CONTINUOUS
 10
-10.9491010867
 20
6.1960432517
 11
-10.9474742789
 21
6.0946800749
  0
LINE
  5
39F
100
AcDbEntity
  8
ASSI
100
AcDbLine
 62
7
  6
CONTINUOUS
 10
-10.9491010867
 20
11.1960432517
 11
-10.9474742789
 21
11.0946800749
  0
LINE
  5
3A0
100
AcDbEntity
  8
ASSI
100
AcDbLine
 62
7
  6
CONTINUOUS
 10
-10.9491010867
 20
16.1960432517
 11
-10.9474742789
 21
16.0946800749
  0
LWPOLYLINE
  5
3A1
100
AcDbEntity
  8
RACCORDO
100
AcDbPolyline
 62
253
  6
CONTINUOUS
 90
10
 70
0
 10
-10.6459190192
 20
0.7357507149
 10
-10.6471505549
 20
0.8199155765
 10
-10.6484443494
 20
0.8953097947
 10
-10.6497828725
 20
0.9615713764
 10
-10.6511670325
 20
1.0183402648
 10
-10.6525959211
 20
1.0652838999
 10
-10.6540492831
 20
1.1021293927
 10
-10.6555203668
 20
1.1286449494
 10
-10.6570159239
 20
1.1446457809
 10
-10.6585359545
 20
1.15
  0
LWPOLYLINE
  5
3A2
100
AcDbEntity
  8
ASSI
100
AcDbPolyline
 62
253
  6
CONTINUOUS
 90
10
 70
0
 10
-10.6459190192
 20
0.7357507149
 10
-10.6471505549
 20
0.8199155765
 10
-10.6484443494
 20
0.8953097947
 10
-10.6497828725
 20
0.9615713764
 10
-10.6511670325
 20
1.0183402648
 10
-10.6525959211
 20
1.0652838999
 10
-10.6540492831
 20
1.1021293927
 10
-10.6555203668
 20
1.1286449494
 10
-10.6570159239
 20
1.1446457809
 10
-10.6585359545
 20
1.15
  0
LWPOLYLINE
  5
3A3
100
AcDbEntity
  8
RACCORDO
100
AcDbPolyline
 62
253
  6
CONTINUOUS
 90
10
 70
0
 10
-10.6459190192
 20
5.7357507149
 10
-10.6471505549
 20
5.8199155765
 10
-10.6484443494
 20
5.8953097947
 10
-10.6497828725
 20
5.9615713764
 10
-10.6511670325
 20
6.0183402648
 10
-10.6525959211
 20
6.0652838999
 10
-10.6540492831
 20
6.1021293927
 10
-10.6555203668
 20
6.1286449494
 10
-10.6570159239
 20
6.1446457809
 10
-10.6585359545
 20
6.15
  0
LWPOLYLINE
  5
3A4
100
AcDbEntity
  8
ASSI
100
AcDbPolyline
 62
253
  6
CONTINUOUS
 90
10
 70
0
 10
-10.6459190192
 20
5.7357507149
 10
-10.6471505549
 20
5.8199155765
 10
-10.6484443494
 20
5.8953097947
 10
-10.6497828725
 20
5.9615713764
 10
-10.6511670325
 20
6.0183402648
 10
-10.6525959211
 20
6.0652838999
 10
-10.6540492831
 20
6.1021293927
 10
-10.6555203668
 20
6.1286449494
 10
-10.6570159239
 20
6.1446457809
 10
-10.6585359545
 20
6.15
  0
LWPOLYLINE
  5
3A5
100
AcDbEntity
  8
RACCORDO
100
AcDbPolyline
 62
253
  6
CONTINUOUS
 90
10
 70
0
 10
-10.6459190192
 20
10.7357507149
 10
-10.6471505549
 20
10.8199155765
 10
-10.6484443494
 20
10.8953097947
 10
-10.6497828725
 20
10.9615713764
 10
-10.6511670325
 20
11.0183402648
 10
-10.6525959211
 20
11.0652838999
 10
-10.6540492831
 20
11.1021293927
 10
-10.6555203668
 20
11.1286449494
 10
-10.6570159239
 20
11.1446457809
 10
-10.6585359545
 20
11.15
  0
LWPOLYLINE
  5
3A6
100
AcDbEntity
  8
ASSI
100
AcDbPolyline
 62
253
  6
CONTINUOUS
 90
10
 70
0
 10
-10.6459190192
 20
10.7357507149
 10
-10.6471505549
 20
10.8199155765
 10
-10.6484443494
 20
10.8953097947
 10
-10.6497828725
 20
10.9615713764
 10
-10.6511670325
 20
11.0183402648
 10
-10.6525959211
 20
11.0652838999
 10
-10.6540492831
 20
11.1021293927
 10
-10.6555203668
 20
11.1286449494
 10
-10.6570159239
 20
11.1446457809
 10
-10.6585359545
 20
11.15
  0
LWPOLYLINE
  5
3A7
100
AcDbEntity
  8
RACCORDO
100
AcDbPolyline
 62
253
  6
CONTINUOUS
 90
10
 70
0
 10
-10.6459190192
 20
15.7357507149
 10
-10.6471505549
 20
15.8199155765
 10
-10.6484443494
 20
15.8953097947
 10
-10.6497828725
 20
15.9615713764
 10
-10.6511670325
 20
16.0183402648
 10
-10.6525959211
 20
16.0652838999
 10
-10.6540492831
 20
16.1021293927
 10
-10.6555203668
 20
16.1286449494
 10
-10.6570159239
 20
16.1446457809
 10
-10.6585359545
 20
16.15
  0
LWPOLYLINE
  5
3A8
100
AcDbEntity
  8
ASSI
100
AcDbPolyline
 62
253
  6
CONTINUOUS
 90
10
 70
0
 10
-10.6459190192
 20
15.7357507149
 10
-10.6471505549
 20
15.8199155765
 10
-10.6484443494
 20
15.8953097947
 10
-10.6497828725
 20
15.9615713764
 10
-10.6511670325
 20
16.0183402648
 10
-10.6525959211
 20
16.0652838999
 10
-10.6540492831
 20
16.1021293927
 10
-10.6555203668
 20
16.1286449494
 10
-10.6570159239
 20
16.1446457809
 10
-10.6585359545
 20
16.15
  0
LINE
  5
3A9
100
AcDbEntity
  8
RACCORDO
100
AcDbLine
 62
7
  6
CONTINUOUS
 10
-10.9488741344
 20
1.1831787817
 11
-10.9473053453
 21
1.0828725919
  0
LINE
  5
3AA
100
AcDbEntity
  8
RACCORDO
100
AcDbLine
 62
7
  6
CONTINUOUS
 10
-10.9488741344
 20
6.1831787817
 11
-10.9473053453
 21
6.0828725919
  0
LINE
  5
3AB
100
AcDbEntity
  8
RACCORDO
100
AcDbLine
 62
7
  6
CONTINUOUS
 10
-10.9488741344
 20
11.1831787817
 11
-10.9473053453
 21
11.0828725919
  0
LINE
  5
3AC
100
AcDbEntity
  8
RACCORDO
100
AcDbLine
 62
7
  6
CONTINUOUS
 10
-10.9488741344
 20
16.1831787817
 11
-10.9473053453
 21
16.0828725919
  0
LINE
  5
3AD
100
AcDbEntity
  8
ASSI
100
AcDbLine
 62
7
  6
CONTINUOUS
 10
-10.9474742789
 20
1.0946800749
 11
-10.9458695659
 21
0.9720278507
  0
LINE
  5
3AE
100
AcDbEntity
  8
ASSI
100
AcDbLine
 62
7
  6
CONTINUOUS
 10
-10.9474742789
 20
6.0946800749
 11
-10.9458695659
 21
5.9720278507
  0
LINE
  5
3AF
100
AcDbEntity
  8
ASSI
100
AcDbLine
 62
7
  6
CONTINUOUS
 10
-10.9474742789
 20
11.0946800749
 11
-10.9458695659
 21
10.9720278507
  0
LINE
  5
3B0
100
AcDbEntity
  8
ASSI
100
AcDbLine
 62
7
  6
CONTINUOUS
 10
-10.9474742789
 20
16.0946800749
 11
-10.9458695659
 21
15.9720278507
  0
LINE
  5
3B1
100
AcDbEntity
  8
RACCORDO
100
AcDbLine
 62
7
  6
CONTINUOUS
 10
-10.9473053453
 20
1.0828725919
 11
-10.9455431852
 21
0.9440986159
  0
LINE
  5
3B2
100
AcDbEntity
  8
RACCORDO
100
AcDbLine
 62
7
  6
CONTINUOUS
 10
-10.9473053453
 20
6.0828725919
 11
-10.9455431852
 21
5.9440986159
  0
LINE
  5
3B3
100
AcDbEntity
  8
RACCORDO
100
AcDbLine
 62
7
  6
CONTINUOUS
 10
-10.9473053453
 20
11.0828725919
 11
-10.9455431852
 21
10.9440986159
  0
LINE
  5
3B4
100
AcDbEntity
  8
RACCORDO
100
AcDbLine
 62
7
  6
CONTINUOUS
 10
-10.9473053453
 20
16.0828725919
 11
-10.9455431852
 21
15.9440986159
  0
LINE
  5
3B5
100
AcDbEntity
  8
RACCORDO
100
AcDbLine
 62
253
  6
CONTINUOUS
 10
-10.6436445193
 20
0.5428954306
 11
-10.6459190192
 21
0.7357507149
  0
LINE
  5
3B6
100
AcDbEntity
  8
ASSI
100
AcDbLine
 62
253
  6
CONTINUOUS
 10
-10.6436445193
 20
0.5428954306
 11
-10.6459190192
 21
0.7357507149
  0
LINE
  5
3B7
100
AcDbEntity
  8
RACCORDO
100
AcDbLine
 62
253
  6
CONTINUOUS
 10
-10.6436445193
 20
5.5428954306
 11
-10.6459190192
 21
5.7357507149
  0
LINE
  5
3B8
100
AcDbEntity
  8
ASSI
100
AcDbLine
 62
253
  6
CONTINUOUS
 10
-10.6436445193
 20
5.5428954306
 11
-10.6459190192
 21
5.7357507149
  0
LINE
  5
3B9
100
AcDbEntity
  8
RACCORDO
100
AcDbLine
 62
253
  6
CONTINUOUS
 10
-10.6436445193
 20
10.5428954306
 11
-10.6459190192
 21
10.7357507149
  0
LINE
  5
3BA
100
AcDbEntity
  8
ASSI
100
AcDbLine
 62
253
  6
CONTINUOUS
 10
-10.6436445193
 20
10.5428954306
 11
-10.6459190192
 21
10.7357507149
  0
LINE
  5
3BB
100
AcDbEntity
  8
RACCORDO
100
AcDbLine
 62
253
  6
CONTINUOUS
 10
-10.6436445193
 20
15.5428954306
 11
-10.6459190192
 21
15.7357507149
  0
LINE
  5
3BC
100
AcDbEntity
  8
ASSI
100
AcDbLine
 62
253
  6
CONTINUOUS
 10
-10.6436445193
 20
15.5428954306
 11
-10.6459190192
 21
15.7357507149
  0
LINE
  5
3BD
100
AcDbEntity
  8
ASSI
100
AcDbLine
 62
7
  6
CONTINUOUS
 10
-10.9458695659
 20
0.9720278507
 11
-10.9443133873
 21
0.828137898
  0
LINE
  5
3BE
100
AcDbEntity
  8
ASSI
100
AcDbLine
 62
7
  6
CONTINUOUS
 10
-10.9458695659
 20
5.9720278507
 11
-10.9443133873
 21
5.828137898
  0
LINE
  5
3BF
100
AcDbEntity
  8
ASSI
100
AcDbLine
 62
7
  6
CONTINUOUS
 10
-10.9458695659
 20
10.9720278507
 11
-10.9443133873
 21
10.828137898
  0
LINE
  5
3C0
100
AcDbEntity
  8
ASSI
100
AcDbLine
 62
7
  6
CONTINUOUS
 10
-10.9458695659
 20
15.9720278507
 11
-10.9443133873
 21
15.828137898
  0
LINE
  5
3C1
100
AcDbEntity
  8
RACCORDO
100
AcDbLine
 62
7
  6
CONTINUOUS
 10
-10.9455431852
 20
0.9440986159
 11
-10.943852135
 21
0.779685549
  0
LINE
  5
3C2
100
AcDbEntity
  8
RACCORDO
100
AcDbLine
 62
7
  6
CONTINUOUS
 10
-10.9455431852
 20
5.9440986159
 11
-10.943852135
 21
5.779685549
  0
LINE
  5
3C3
100
AcDbEntity
  8
RACCORDO
100
AcDbLine
 62
7
  6
CONTINUOUS
 10
-10.9455431852
 20
10.9440986159
 11
-10.943852135
 21
10.779685549
  0
LINE
  5
3C4
100
AcDbEntity
  8
RACCORDO
100
AcDbLine
 62
7
  6
CONTINUOUS
 10
-10.9455431852
 20
15.9440986159
 11
-10.943852135
 21
15.779685549
  0
LINE
  5
3C5
100
AcDbEntity
  8
RACCORDO
100
AcDbLine
 62
253
  6
CONTINUOUS
 10
-10.6416645212
 20
0.3204393538
 11
-10.6436445193
 21
0.5428954306
  0
LINE
  5
3C6
100
AcDbEntity
  8
ASSI
100
AcDbLine
 62
253
  6
CONTINUOUS
 10
-10.6416645212
 20
0.3204393538
 11
-10.6436445193
 21
0.5428954306
  0
LINE
  5
3C7
100
AcDbEntity
  8
RACCORDO
100
AcDbLine
 62
253
  6
CONTINUOUS
 10
-10.6416645212
 20
5.3204393538
 11
-10.6436445193
 21
5.5428954306
  0
LINE
  5
3C8
100
AcDbEntity
  8
ASSI
100
AcDbLine
 62
253
  6
CONTINUOUS
 10
-10.6416645212
 20
5.3204393538
 11
-10.6436445193
 21
5.5428954306
  0
LINE
  5
3C9
100
AcDbEntity
  8
RACCORDO
100
AcDbLine
 62
253
  6
CONTINUOUS
 10
-10.6416645212
 20
10.3204393538
 11
-10.6436445193
 21
10.5428954306
  0
LINE
  5
3CA
100
AcDbEntity
  8
ASSI
100
AcDbLine
 62
253
  6
CONTINUOUS
 10
-10.6416645212
 20
10.3204393538
 11
-10.6436445193
 21
10.5428954306
  0
LINE
  5
3CB
100
AcDbEntity
  8
RACCORDO
100
AcDbLine
 62
253
  6
CONTINUOUS
 10
-10.6416645212
 20
15.3204393538
 11
-10.6436445193
 21
15.5428954306
  0
LINE
  5
3CC
100
AcDbEntity
  8
ASSI
100
AcDbLine
 62
253
  6
CONTINUOUS
 10
-10.6416645212
 20
15.3204393538
 11
-10.6436445193
 21
15.5428954306
  0
LINE
  5
3CD
100
AcDbEntity
  8
ASSI
100
AcDbLine
 62
7
  6
CONTINUOUS
 10
-10.9443133873
 20
0.828137898
 11
-10.9426439115
 21
0.6378256371
  0
LINE
  5
3CE
100
AcDbEntity
  8
ASSI
100
AcDbLine
 62
7
  6
CONTINUOUS
 10
-10.9443133873
 20
5.828137898
 11
-10.9426439115
 21
5.6378256371
  0
LINE
  5
3CF
100
AcDbEntity
  8
ASSI
100
AcDbLine
 62
7
  6
CONTINUOUS
 10
-10.9443133873
 20
10.828137898
 11
-10.9426439115
 21
10.6378256371
  0
LINE
  5
3D0
100
AcDbEntity
  8
ASSI
100
AcDbLine
 62
7
  6
CONTINUOUS
 10
-10.9443133873
 20
15.828137898
 11
-10.9426439115
 21
15.6378256371
  0
LINE
  5
3D1
100
AcDbEntity
  8
RACCORDO
100
AcDbLine
 62
7
  6
CONTINUOUS
 10
-10.943852135
 20
0.779685549
 11
-10.9422748032
 21
0.5897639268
  0
LINE
  5
3D2
100
AcDbEntity
  8
RACCORDO
100
AcDbLine
 62
7
  6
CONTINUOUS
 10
-10.943852135
 20
5.779685549
 11
-10.9422748032
 21
5.5897639268
  0
LINE
  5
3D3
100
AcDbEntity
  8
RACCORDO
100
AcDbLine
 62
7
  6
CONTINUOUS
 10
-10.943852135
 20
10.779685549
 11
-10.9422748032
 21
10.5897639268
  0
LINE
  5
3D4
100
AcDbEntity
  8
RACCORDO
100
AcDbLine
 62
7
  6
CONTINUOUS
 10
-10.943852135
 20
15.779685549
 11
-10.9422748032
 21
15.5897639268
  0
LINE
  5
3D5
100
AcDbEntity
  8
ASSI
100
AcDbLine
 62
7
  6
CONTINUOUS
 10
-10.9426439115
 20
0.6378256371
 11
-10.94111911
 21
0.4206222492
  0
LINE
  5
3D6
100
AcDbEntity
  8
ASSI
100
AcDbLine
 62
7
  6
CONTINUOUS
 10
-10.9426439115
 20
5.6378256371
 11
-10.94111911
 21
5.4206222492
  0
LINE
  5
3D7
100
AcDbEntity
  8
ASSI
100
AcDbLine
 62
7
  6
CONTINUOUS
 10
-10.9426439115
 20
10.6378256371
 11
-10.94111911
 21
10.4206222492
  0
LINE
  5
3D8
100
AcDbEntity
  8
ASSI
100
AcDbLine
 62
7
  6
CONTINUOUS
 10
-10.9426439115
 20
15.6378256371
 11
-10.94111911
 21
15.4206222492
  0
LINE
  5
3D9
100
AcDbEntity
  8
RACCORDO
100
AcDbLine
 62
253
  6
CONTINUOUS
 10
-10.640005827
 20
0.0725938599
 11
-10.6416645212
 21
0.3204393538
  0
LINE
  5
3DA
100
AcDbEntity
  8
ASSI
100
AcDbLine
 62
253
  6
CONTINUOUS
 10
-10.640005827
 20
0.0725938599
 11
-10.6416645212
 21
0.3204393538
  0
LINE
  5
3DB
100
AcDbEntity
  8
RACCORDO
100
AcDbLine
 62
253
  6
CONTINUOUS
 10
-10.640005827
 20
5.0725938599
 11
-10.6416645212
 21
5.3204393538
  0
LINE
  5
3DC
100
AcDbEntity
  8
ASSI
100
AcDbLine
 62
253
  6
CONTINUOUS
 10
-10.640005827
 20
5.0725938599
 11
-10.6416645212
 21
5.3204393538
  0
LINE
  5
3DD
100
AcDbEntity
  8
RACCORDO
100
AcDbLine
 62
253
  6
CONTINUOUS
 10
-10.640005827
 20
10.0725938599
 11
-10.6416645212
 21
10.3204393538
  0
LINE
  5
3DE
100
AcDbEntity
  8
ASSI
100
AcDbLine
 62
253
  6
CONTINUOUS
 10
-10.640005827
 20
10.0725938599
 11
-10.6416645212
 21
10.3204393538
  0
LINE
  5
3DF
100
AcDbEntity
  8
RACCORDO
100
AcDbLine
 62
253
  6
CONTINUOUS
 10
-10.640005827
 20
15.0725938599
 11
-10.6416645212
 21
15.3204393538
  0
LINE
  5
3E0
100
AcDbEntity
  8
ASSI
100
AcDbLine
 62
253
  6
CONTINUOUS
 10
-10.640005827
 20
15.0725938599
 11
-10.6416645212
 21
15.3204393538
  0
LINE
  5
3E1
100
AcDbEntity
  8
RACCORDO
100
AcDbLine
 62
7
  6
CONTINUOUS
 10
-10.9422748032
 20
0.5897639268
 11
-10.9408429026
 21
0.3750454914
  0
LINE
  5
3E2
100
AcDbEntity
  8
RACCORDO
100
AcDbLine
 62
7
  6
CONTINUOUS
 10
-10.9422748032
 20
5.5897639268
 11
-10.9408429026
 21
5.3750454914
  0
LINE
  5
3E3
100
AcDbEntity
  8
RACCORDO
100
AcDbLine
 62
7
  6
CONTINUOUS
 10
-10.9422748032
 20
10.5897639268
 11
-10.9408429026
 21
10.3750454914
  0
LINE
  5
3E4
100
AcDbEntity
  8
RACCORDO
100
AcDbLine
 62
7
  6
CONTINUOUS
 10
-10.9422748032
 20
15.5897639268
 11
-10.9408429026
 21
15.3750454914
  0
LINE
  5
3E5
100
AcDbEntity
  8
ASSI
100
AcDbLine
 62
7
  6
CONTINUOUS
 10
-10.94111911
 20
0.4206222492
 11
-10.9397920586
 21
0.1780875587
  0
LINE
  5
3E6
100
AcDbEntity
  8
ASSI
100
AcDbLine
 62
7
  6
CONTINUOUS
 10
-10.94111911
 20
5.4206222492
 11
-10.9397920586
 21
5.1780875587
  0
LINE
  5
3E7
100
AcDbEntity
  8
ASSI
100
AcDbLine
 62
7
  6
CONTINUOUS
 10
-10.94111911
 20
10.4206222492
 11
-10.9397920586
 21
10.1780875587
  0
LINE
  5
3E8
100
AcDbEntity
  8
ASSI
100
AcDbLine
 62
7
  6
CONTINUOUS
 10
-10.94111911
 20
15.4206222492
 11
-10.9397920586
 21
15.1780875587
  0
LINE
  5
3E9
100
AcDbEntity
  8
RACCORDO
100
AcDbLine
 62
7
  6
CONTINUOUS
 10
-10.9408429026
 20
5.3750454914
 11
-10.9394566949
 21
5.105579406
  0
LINE
  5
3EA
100
AcDbEntity
  8
RACCORDO
100
AcDbLine
 62
7
  6
CONTINUOUS
 10
-10.9408429026
 20
10.3750454914
 11
-10.9394566949
 21
10.105579406
  0
LINE
  5
3EB
100
AcDbEntity
  8
RACCORDO
100
AcDbLine
 62
7
  6
CONTINUOUS
 10
-10.9408429026
 20
15.3750454914
 11
-10.9394566949
 21
15.105579406
  0
LINE
  5
3EC
100
AcDbEntity
  8
RACCORDO
100
AcDbLine
 62
253
  6
CONTINUOUS
 10
-10.6387053736
 20
-0.1961757274
 11
-10.640005827
 21
0.0725938599
  0
LINE
  5
3ED
100
AcDbEntity
  8
ASSI
100
AcDbLine
 62
253
  6
CONTINUOUS
 10
-10.6387053736
 20
-0.1961757274
 11
-10.640005827
 21
0.0725938599
  0
LINE
  5
3EE
100
AcDbEntity
  8
RACCORDO
100
AcDbLine
 62
253
  6
CONTINUOUS
 10
-10.6387053736
 20
4.8038242726
 11
-10.640005827
 21
5.0725938599
  0
LINE
  5
3EF
100
AcDbEntity
  8
ASSI
100
AcDbLine
 62
253
  6
CONTINUOUS
 10
-10.6387053736
 20
4.8038242726
 11
-10.640005827
 21
5.0725938599
  0
LINE
  5
3F0
100
AcDbEntity
  8
RACCORDO
100
AcDbLine
 62
253
  6
CONTINUOUS
 10
-10.6387053736
 20
9.8038242726
 11
-10.640005827
 21
10.0725938599
  0
LINE
  5
3F1
100
AcDbEntity
  8
ASSI
100
AcDbLine
 62
253
  6
CONTINUOUS
 10
-10.6387053736
 20
9.8038242726
 11
-10.640005827
 21
10.0725938599
  0
LINE
  5
3F2
100
AcDbEntity
  8
RACCORDO
100
AcDbLine
 62
253
  6
CONTINUOUS
 10
-10.6387053736
 20
14.8038242726
 11
-10.640005827
 21
15.0725938599
  0
LINE
  5
3F3
100
AcDbEntity
  8
ASSI
100
AcDbLine
 62
253
  6
CONTINUOUS
 10
-10.6387053736
 20
14.8038242726
 11
-10.640005827
 21
15.0725938599
  0
LINE
  5
3F4
100
AcDbEntity
  8
ASSI
100
AcDbLine
 62
7
  6
CONTINUOUS
 10
-10.9397920586
 20
0.1780875587
 11
-10.9386931655
 21
-0.0874242649
  0
LINE
  5
3F5
100
AcDbEntity
  8
ASSI
100
AcDbLine
 62
7
  6
CONTINUOUS
 10
-10.9397920586
 20
5.1780875587
 11
-10.9386931655
 21
4.9125757351
  0
LINE
  5
3F6
100
AcDbEntity
  8
ASSI
100
AcDbLine
 62
7
  6
CONTINUOUS
 10
-10.9397920586
 20
10.1780875587
 11
-10.9386931655
 21
9.9125757351
  0
LINE
  5
3F7
100
AcDbEntity
  8
ASSI
100
AcDbLine
 62
7
  6
CONTINUOUS
 10
-10.9397920586
 20
15.1780875587
 11
-10.9386931655
 21
14.9125757351
  0
LINE
  5
3F8
100
AcDbEntity
  8
RACCORDO
100
AcDbLine
 62
7
  6
CONTINUOUS
 10
-10.9408429026
 20
0.3750454914
 11
-10.9384630496
 21
-0.1564035622
  0
LINE
  5
3F9
100
AcDbEntity
  8
RACCORDO
100
AcDbLine
 62
7
  6
CONTINUOUS
 10
-10.9394566949
 20
5.105579406
 11
-10.9384630496
 21
4.8435964378
  0
LINE
  5
3FA
100
AcDbEntity
  8
RACCORDO
100
AcDbLine
 62
7
  6
CONTINUOUS
 10
-10.9394566949
 20
10.105579406
 11
-10.9384630496
 21
9.8435964378
  0
LINE
  5
3FB
100
AcDbEntity
  8
RACCORDO
100
AcDbLine
 62
7
  6
CONTINUOUS
 10
-10.9394566949
 20
15.105579406
 11
-10.9384630496
 21
14.8435964378
  0
LINE
  5
3FC
100
AcDbEntity
  8
RACCORDO
100
AcDbLine
 62
253
  6
CONTINUOUS
 10
-10.6377894311
 20
-0.4807427344
 11
-10.6387053736
 21
-0.1961757274
  0
LINE
  5
3FD
100
AcDbEntity
  8
ASSI
100
AcDbLine
 62
253
  6
CONTINUOUS
 10
-10.6377894311
 20
-0.4807427344
 11
-10.6387053736
 21
-0.1961757274
  0
LINE
  5
3FE
100
AcDbEntity
  8
RACCORDO
100
AcDbLine
 62
253
  6
CONTINUOUS
 10
-10.6377894311
 20
4.5192572656
 11
-10.6387053736
 21
4.8038242726
  0
LINE
  5
3FF
100
AcDbEntity
  8
ASSI
100
AcDbLine
 62
253
  6
CONTINUOUS
 10
-10.6377894311
 20
4.5192572656
 11
-10.6387053736
 21
4.8038242726
  0
LINE
  5
400
100
AcDbEntity
  8
RACCORDO
100
AcDbLine
 62
253
  6
CONTINUOUS
 10
-10.6377894311
 20
9.5192572656
 11
-10.6387053736
 21
9.8038242726
  0
LINE
  5
401
100
AcDbEntity
  8
ASSI
100
AcDbLine
 62
253
  6
CONTINUOUS
 10
-10.6377894311
 20
9.5192572656
 11
-10.6387053736
 21
9.8038242726
  0
LINE
  5
402
100
AcDbEntity
  8
RACCORDO
100
AcDbLine
 62
253
  6
CONTINUOUS
 10
-10.6377894311
 20
14.5192572656
 11
-10.6387053736
 21
14.8038242726
  0
LINE
  5
403
100
AcDbEntity
  8
ASSI
100
AcDbLine
 62
253
  6
CONTINUOUS
 10
-10.6377894311
 20
14.5192572656
 11
-10.6387053736
 21
14.8038242726
  0
LINE
  5
404
100
AcDbEntity
  8
ASSI
100
AcDbLine
 62
7
  6
CONTINUOUS
 10
-10.9386931655
 20
-0.0874242649
 11
-10.937866895
 21
-0.3726305096
  0
LINE
  5
405
100
AcDbEntity
  8
ASSI
100
AcDbLine
 62
7
  6
CONTINUOUS
 10
-10.9386931655
 20
4.9125757351
 11
-10.9377837508
 21
4.5905704478
  0
LINE
  5
406
100
AcDbEntity
  8
ASSI
100
AcDbLine
 62
7
  6
CONTINUOUS
 10
-10.9386931655
 20
9.9125757351
 11
-10.9377837508
 21
9.5905704478
  0
LINE
  5
407
100
AcDbEntity
  8
ASSI
100
AcDbLine
 62
7
  6
CONTINUOUS
 10
-10.9386931655
 20
14.9125757351
 11
-10.9377837508
 21
14.5905704478
  0
LINE
  5
408
100
AcDbEntity
  8
RACCORDO
100
AcDbLine
 62
7
  6
CONTINUOUS
 10
-10.9384630496
 20
-0.1564035622
 11
-10.9377263633
 21
-0.4363602246
  0
LINE
  5
409
100
AcDbEntity
  8
RACCORDO
100
AcDbLine
 62
7
  6
CONTINUOUS
 10
-10.9384630496
 20
4.8435964378
 11
-10.9377263633
 21
4.5636397754
  0
LINE
  5
40A
100
AcDbEntity
  8
RACCORDO
100
AcDbLine
 62
7
  6
CONTINUOUS
 10
-10.9384630496
 20
9.8435964378
 11
-10.9377263633
 21
9.5636397754
  0
LINE
  5
40B
100
AcDbEntity
  8
RACCORDO
100
AcDbLine
 62
7
  6
CONTINUOUS
 10
-10.9384630496
 20
14.8435964378
 11
-10.9377263633
 21
14.5636397754
  0
LINE
  5
40C
100
AcDbEntity
  8
RACCORDO
100
AcDbLine
 62
253
  6
CONTINUOUS
 10
-10.6372718589
 20
-0.7756430429
 11
-10.6377894311
 21
-0.4807427344
  0
LINE
  5
40D
100
AcDbEntity
  8
ASSI
100
AcDbLine
 62
253
  6
CONTINUOUS
 10
-10.6372718589
 20
-0.7756430429
 11
-10.6377894311
 21
-0.4807427344
  0
LINE
  5
40E
100
AcDbEntity
  8
RACCORDO
100
AcDbLine
 62
253
  6
CONTINUOUS
 10
-10.6372718589
 20
4.2243569571
 11
-10.6377894311
 21
4.5192572656
  0
LINE
  5
40F
100
AcDbEntity
  8
ASSI
100
AcDbLine
 62
253
  6
CONTINUOUS
 10
-10.6372718589
 20
4.2243569571
 11
-10.6377894311
 21
4.5192572656
  0
LINE
  5
410
100
AcDbEntity
  8
RACCORDO
100
AcDbLine
 62
253
  6
CONTINUOUS
 10
-10.6372718589
 20
9.2243569571
 11
-10.6377894311
 21
9.5192572656
  0
LINE
  5
411
100
AcDbEntity
  8
ASSI
100
AcDbLine
 62
253
  6
CONTINUOUS
 10
-10.6372718589
 20
9.2243569571
 11
-10.6377894311
 21
9.5192572656
  0
LINE
  5
412
100
AcDbEntity
  8
RACCORDO
100
AcDbLine
 62
253
  6
CONTINUOUS
 10
-10.6372718589
 20
14.2243569571
 11
-10.6377894311
 21
14.5192572656
  0
LINE
  5
413
100
AcDbEntity
  8
ASSI
100
AcDbLine
 62
253
  6
CONTINUOUS
 10
-10.6372718589
 20
14.2243569571
 11
-10.6377894311
 21
14.5192572656
  0
LINE
  5
414
100
AcDbEntity
  8
ASSI
100
AcDbLine
 62
7
  6
CONTINUOUS
 10
-10.937866895
 20
-0.3726305096
 11
-10.9373467547
 21
-0.6721043962
  0
LINE
  5
415
100
AcDbEntity
  8
RACCORDO
100
AcDbLine
 62
7
  6
CONTINUOUS
 10
-10.9377263633
 20
-0.4363602246
 11
-10.9372866078
 21
-0.7287340661
  0
LINE
  5
416
100
AcDbEntity
  8
ASSI
100
AcDbLine
 62
7
  6
CONTINUOUS
 10
-10.9377837508
 20
4.5905704478
 11
-10.9373050929
 21
4.2898232123
  0
LINE
  5
417
100
AcDbEntity
  8
ASSI
100
AcDbLine
 62
7
  6
CONTINUOUS
 10
-10.9377837508
 20
9.5905704478
 11
-10.9373050929
 21
9.2898232123
  0
LINE
  5
418
100
AcDbEntity
  8
ASSI
100
AcDbLine
 62
7
  6
CONTINUOUS
 10
-10.9377837508
 20
14.5905704478
 11
-10.9373050929
 21
14.2898232123
  0
LINE
  5
419
100
AcDbEntity
  8
0
100
AcDbLine
 62
7
  6
CONTINUOUS
 10
-9.3856165928
 20
18.2509482803
 11
-9.3855760335
 21
18.213096354
  0
LINE
  5
41A
100
AcDbEntity
  8
RACCORDO
100
AcDbLine
 62
7
  6
CONTINUOUS
 10
-10.9377263633
 20
4.5636397754
 11
-10.9372531202
 21
4.2341939819
  0
LINE
  5
41B
100
AcDbEntity
  8
RACCORDO
100
AcDbLine
 62
7
  6
CONTINUOUS
 10
-10.9377263633
 20
9.5636397754
 11
-10.9372531202
 21
9.2341939819
  0
LINE
  5
41C
100
AcDbEntity
  8
RACCORDO
100
AcDbLine
 62
7
  6
CONTINUOUS
 10
-10.9377263633
 20
14.5636397754
 11
-10.9372531202
 21
14.2341939819
  0
LINE
  5
41D
100
AcDbEntity
  8
ASSI
100
AcDbLine
 62
7
  6
CONTINUOUS
 10
-10.9373467547
 20
-0.6721043962
 11
-10.9371528517
 21
-0.9782673416
  0
LINE
  5
41E
100
AcDbEntity
  8
RACCORDO
100
AcDbLine
 62
7
  6
CONTINUOUS
 10
-10.9372866078
 20
-0.7287340661
 11
-10.9371531035
 21
-1.0263364329
  0
LINE
  5
41F
100
AcDbEntity
  8
ASSI
100
AcDbLine
 62
7
  6
CONTINUOUS
 10
-10.9373050929
 20
4.2898232123
 11
-10.9371523524
 21
3.9833963189
  0
LINE
  5
420
100
AcDbEntity
  8
ASSI
100
AcDbLine
 62
7
  6
CONTINUOUS
 10
-10.9373050929
 20
9.2898232123
 11
-10.9371523524
 21
8.9833963189
  0
LINE
  5
421
100
AcDbEntity
  8
ASSI
100
AcDbLine
 62
7
  6
CONTINUOUS
 10
-10.9373050929
 20
14.2898232123
 11
-10.9371523524
 21
13.9833963189
  0
LINE
  5
422
100
AcDbEntity
  8
RACCORDO
100
AcDbLine
 62
253
  6
CONTINUOUS
 10
-10.6371692198
 20
13.9248019577
 11
-10.6372718589
 21
14.2243569571
  0
LINE
  5
423
100
AcDbEntity
  8
ASSI
100
AcDbLine
 62
253
  6
CONTINUOUS
 10
-10.6371692198
 20
13.9248019577
 11
-10.6372718589
 21
14.2243569571
  0
LINE
  5
424
100
AcDbEntity
  8
RACCORDO
100
AcDbLine
 62
253
  6
CONTINUOUS
 10
-10.6371692198
 20
8.9248019577
 11
-10.6372718589
 21
9.2243569571
  0
LINE
  5
425
100
AcDbEntity
  8
ASSI
100
AcDbLine
 62
253
  6
CONTINUOUS
 10
-10.6371692198
 20
8.9248019577
 11
-10.6372718589
 21
9.2243569571
  0
LINE
  5
426
100
AcDbEntity
  8
RACCORDO
100
AcDbLine
 62
253
  6
CONTINUOUS
 10
-10.6371692198
 20
3.9248019577
 11
-10.6372718589
 21
4.2243569571
  0
LINE
  5
427
100
AcDbEntity
  8
ASSI
100
AcDbLine
 62
253
  6
CONTINUOUS
 10
-10.6371692198
 20
3.9248019577
 11
-10.6372718589
 21
4.2243569571
  0
LINE
  5
428
100
AcDbEntity
  8
RACCORDO
100
AcDbLine
 62
253
  6
CONTINUOUS
 10
-10.6371692198
 20
-1.0751980423
 11
-10.6372718589
 21
-0.7756430429
  0
LINE
  5
429
100
AcDbEntity
  8
ASSI
100
AcDbLine
 62
253
  6
CONTINUOUS
 10
-10.6371692198
 20
-1.0751980423
 11
-10.6372718589
 21
-0.7756430429
  0
LINE
  5
42A
100
AcDbEntity
  8
DRAFT
100
AcDbLine
 62
7
  6
CONTINUOUS
 10
-10.4
 20
22.3935241039
 11
-10.4
 21
21.0
  0
LINE
  5
42B
100
AcDbEntity
  8
RACCORDO
100
AcDbLine
 62
7
  6
CONTINUOUS
 10
-10.4
 20
-23.75
 11
-10.4
 21
-22.3935241039
  0
LINE
  5
42C
100
AcDbEntity
  8
DRAFT
100
AcDbLine
 62
7
  6
CONTINUOUS
 10
-10.4
 20
-21.0
 11
-10.4
 21
-22.3935241039
  0
LINE
  5
42D
100
AcDbEntity
  8
RACCORDO
100
AcDbLine
 62
7
  6
CONTINUOUS
 10
-10.4
 20
22.3935241039
 11
-10.4
 21
23.75
  0
LINE
  5
42E
100
AcDbEntity
  8
ASSI
100
AcDbLine
 62
253
  6
CONTINUOUS
 10
-10.2600548477
 20
22.4665307437
 11
-10.2600548477
 21
21.0461777215
  0
LINE
  5
42F
100
AcDbEntity
  8
ASSI
100
AcDbLine
 62
253
  6
CONTINUOUS
 10
-10.2600548477
 20
-21.0461777215
 11
-10.2600548477
 21
-22.4665307437
  0
LINE
  5
430
100
AcDbEntity
  8
ASSI
100
AcDbLine
 62
7
  6
CONTINUOUS
 10
-9.8
 20
-3.15
 11
-9.8
 21
1.15
  0
LINE
  5
431
100
AcDbEntity
  8
ASSI
100
AcDbLine
 62
7
  6
CONTINUOUS
 10
-9.8
 20
1.85
 11
-9.8
 21
6.15
  0
LINE
  5
432
100
AcDbEntity
  8
ASSI
100
AcDbLine
 62
7
  6
CONTINUOUS
 10
-9.8
 20
6.85
 11
-9.8
 21
11.15
  0
LINE
  5
433
100
AcDbEntity
  8
ASSI
100
AcDbLine
 62
7
  6
CONTINUOUS
 10
-9.8
 20
11.85
 11
-9.8
 21
16.15
  0
LINE
  5
434
100
AcDbEntity
  8
DRAFT
100
AcDbLine
 62
7
  6
CONTINUOUS
 10
-9.3938911925
 20
18.2493059832
 11
-9.3938911925
 21
18.2130903017
  0
LINE
  5
435
100
AcDbEntity
  8
ASSI
100
AcDbLine
 62
253
  6
CONTINUOUS
 10
-9.2602071525
 20
22.4493803117
 11
-9.2602071525
 21
21.051836852
  0
LINE
  5
436
100
AcDbEntity
  8
ASSI
100
AcDbLine
 62
253
  6
CONTINUOUS
 10
-9.2602071525
 20
-21.051836852
 11
-9.2602071525
 21
-22.4493803117
  0
LINE
  5
437
100
AcDbEntity
  8
RACCORDO
100
AcDbLine
 62
7
  6
CONTINUOUS
 10
-10.9372531202
 20
14.2341939819
 11
-10.9371592482
 21
13.9364741367
  0
LINE
  5
438
100
AcDbEntity
  8
RACCORDO
100
AcDbLine
 62
7
  6
CONTINUOUS
 10
-10.9372531202
 20
9.2341939819
 11
-10.9371592482
 21
8.9364741367
  0
LINE
  5
439
100
AcDbEntity
  8
RACCORDO
100
AcDbLine
 62
7
  6
CONTINUOUS
 10
-10.9372531202
 20
4.2341939819
 11
-10.9371592482
 21
3.9364741367
  0
LINE
  5
43A
100
AcDbEntity
  8
ASSI
100
AcDbLine
 62
7
  6
CONTINUOUS
 10
-10.9371523524
 20
13.9833963189
 11
-10.9372312092
 21
13.7925887566
  0
LWPOLYLINE
  5
43B
100
AcDbEntity
  8
RACCORDO
100
AcDbPolyline
 62
7
  6
CONTINUOUS
 90
3
 70
0
 10
-10.9371592482
 20
13.9364741367
 10
-10.9372082729
 20
13.8252670015
 10
-10.9372344483
 20
13.7883651599
  0
LINE
  5
43C
100
AcDbEntity
  8
ASSI
100
AcDbLine
 62
7
  6
CONTINUOUS
 10
-10.9371528517
 20
-0.9782673416
 11
-10.9372984282
 21
-1.2830286631
  0
LINE
  5
43D
100
AcDbEntity
  8
RACCORDO
100
AcDbLine
 62
7
  6
CONTINUOUS
 10
-10.9371531035
 20
-1.0263364329
 11
-10.9373400752
 21
-1.321611681
  0
LINE
  5
43E
100
AcDbEntity
  8
RACCORDO
100
AcDbLine
 62
7
  6
CONTINUOUS
 10
-10.9371592482
 20
8.9364741367
 11
-10.9373840213
 21
8.6420173722
  0
LINE
  5
43F
100
AcDbEntity
  8
ASSI
100
AcDbLine
 62
7
  6
CONTINUOUS
 10
-10.9371523524
 20
8.9833963189
 11
-10.9373841085
 21
8.6419488636
  0
LINE
  5
440
100
AcDbEntity
  8
ASSI
100
AcDbLine
 62
7
  6
CONTINUOUS
 10
-10.9371523524
 20
3.9833963189
 11
-10.9373841085
 21
3.6419488636
  0
LINE
  5
441
100
AcDbEntity
  8
RACCORDO
100
AcDbLine
 62
253
  6
CONTINUOUS
 10
-10.6374799304
 20
13.6268428474
 11
-10.6371692198
 21
13.9248019577
  0
LINE
  5
442
100
AcDbEntity
  8
ASSI
100
AcDbLine
 62
253
  6
CONTINUOUS
 10
-10.6374799304
 20
13.6268428474
 11
-10.6371692198
 21
13.9248019577
  0
LINE
  5
443
100
AcDbEntity
  8
RACCORDO
100
AcDbLine
 62
253
  6
CONTINUOUS
 10
-10.6374799304
 20
8.6268428474
 11
-10.6371692198
 21
8.9248019577
  0
LINE
  5
444
100
AcDbEntity
  8
ASSI
100
AcDbLine
 62
253
  6
CONTINUOUS
 10
-10.6374799304
 20
8.6268428474
 11
-10.6371692198
 21
8.9248019577
  0
LINE
  5
445
100
AcDbEntity
  8
RACCORDO
100
AcDbLine
 62
253
  6
CONTINUOUS
 10
-10.6374799304
 20
3.6268428474
 11
-10.6371692198
 21
3.9248019577
  0
LINE
  5
446
100
AcDbEntity
  8
ASSI
100
AcDbLine
 62
253
  6
CONTINUOUS
 10
-10.6374799304
 20
3.6268428474
 11
-10.6371692198
 21
3.9248019577
  0
LINE
  5
447
100
AcDbEntity
  8
RACCORDO
100
AcDbLine
 62
253
  6
CONTINUOUS
 10
-10.6374799304
 20
-1.3731571526
 11
-10.6371692198
 21
-1.0751980423
  0
LINE
  5
448
100
AcDbEntity
  8
ASSI
100
AcDbLine
 62
253
  6
CONTINUOUS
 10
-10.6374799304
 20
-1.3731571526
 11
-10.6371692198
 21
-1.0751980423
  0
LINE
  5
449
100
AcDbEntity
  8
ASSI
100
AcDbLine
 62
7
  6
CONTINUOUS
 10
-10.9372984282
 20
-1.2830286631
 11
-10.9377571462
 21
-1.5784318504
  0
LINE
  5
44A
100
AcDbEntity
  8
RACCORDO
100
AcDbLine
 62
7
  6
CONTINUOUS
 10
-10.9373400752
 20
-1.321611681
 11
-10.9378201102
 21
-1.6071961949
  0
LINE
  5
44B
100
AcDbEntity
  8
ASSI
100
AcDbLine
 62
7
  6
CONTINUOUS
 10
-10.9373841085
 20
3.6419488636
 11
-10.9379199485
 21
3.3500445166
  0
LINE
  5
44C
100
AcDbEntity
  8
RACCORDO
100
AcDbLine
 62
7
  6
CONTINUOUS
 10
-10.9371592482
 20
3.9364741367
 11
-10.9379005127
 21
3.3581239224
  0
LINE
  5
44D
100
AcDbEntity
  8
RACCORDO
100
AcDbLine
 62
253
  6
CONTINUOUS
 10
-10.63819911
 20
13.3363828404
 11
-10.6374799304
 21
13.6268428474
  0
LINE
  5
44E
100
AcDbEntity
  8
ASSI
100
AcDbLine
 62
253
  6
CONTINUOUS
 10
-10.63819911
 20
13.3363828404
 11
-10.6374799304
 21
13.6268428474
  0
LINE
  5
44F
100
AcDbEntity
  8
RACCORDO
100
AcDbLine
 62
253
  6
CONTINUOUS
 10
-10.63819911
 20
8.3363828404
 11
-10.6374799304
 21
8.6268428474
  0
LINE
  5
450
100
AcDbEntity
  8
ASSI
100
AcDbLine
 62
253
  6
CONTINUOUS
 10
-10.63819911
 20
8.3363828404
 11
-10.6374799304
 21
8.6268428474
  0
LINE
  5
451
100
AcDbEntity
  8
RACCORDO
100
AcDbLine
 62
253
  6
CONTINUOUS
 10
-10.63819911
 20
3.3363828404
 11
-10.6374799304
 21
3.6268428474
  0
LINE
  5
452
100
AcDbEntity
  8
ASSI
100
AcDbLine
 62
253
  6
CONTINUOUS
 10
-10.63819911
 20
3.3363828404
 11
-10.6374799304
 21
3.6268428474
  0
LINE
  5
453
100
AcDbEntity
  8
RACCORDO
100
AcDbLine
 62
253
  6
CONTINUOUS
 10
-10.63819911
 20
-1.6636171596
 11
-10.6374799304
 21
-1.3731571526
  0
LINE
  5
454
100
AcDbEntity
  8
ASSI
100
AcDbLine
 62
253
  6
CONTINUOUS
 10
-10.63819911
 20
-1.6636171596
 11
-10.6374799304
 21
-1.3731571526
  0
LINE
  5
455
100
AcDbEntity
  8
ASSI
100
AcDbLine
 62
7
  6
CONTINUOUS
 10
-10.9379199485
 20
3.3500445166
 11
-10.9382968641
 21
3.210540189
  0
LINE
  5
456
100
AcDbEntity
  8
RACCORDO
100
AcDbLine
 62
7
  6
CONTINUOUS
 10
-10.9379005127
 20
3.3581239224
 11
-10.9383618144
 21
3.1890093973
  0
LINE
  5
457
100
AcDbEntity
  8
ASSI
100
AcDbLine
 62
7
  6
CONTINUOUS
 10
-10.9377571462
 20
-1.5784318504
 11
-10.9385076691
 21
-1.8572749028
  0
LINE
  5
458
100
AcDbEntity
  8
RACCORDO
100
AcDbLine
 62
7
  6
CONTINUOUS
 10
-10.9378201102
 20
-1.6071961949
 11
-10.9385707867
 21
-1.8764761488
  0
LINE
  5
459
100
AcDbEntity
  8
ASSI
100
AcDbLine
 62
7
  6
CONTINUOUS
 10
-10.9385076691
 20
-1.8572749028
 11
-10.9394972546
 21
-2.1148025565
  0
LINE
  5
45A
100
AcDbEntity
  8
RACCORDO
100
AcDbLine
 62
7
  6
CONTINUOUS
 10
-10.9385707867
 20
-1.8764761488
 11
-10.9395448378
 21
-2.1253530766
  0
LINE
  5
45B
100
AcDbEntity
  8
RACCORDO
100
AcDbLine
 62
253
  6
CONTINUOUS
 10
-10.6393131867
 20
13.0590618699
 11
-10.63819911
 21
13.3363828404
  0
LINE
  5
45C
100
AcDbEntity
  8
ASSI
100
AcDbLine
 62
253
  6
CONTINUOUS
 10
-10.6393131867
 20
13.0590618699
 11
-10.63819911
 21
13.3363828404
  0
LINE
  5
45D
100
AcDbEntity
  8
RACCORDO
100
AcDbLine
 62
253
  6
CONTINUOUS
 10
-10.6393131867
 20
8.0590618699
 11
-10.63819911
 21
8.3363828404
  0
LINE
  5
45E
100
AcDbEntity
  8
ASSI
100
AcDbLine
 62
253
  6
CONTINUOUS
 10
-10.6393131867
 20
8.0590618699
 11
-10.63819911
 21
8.3363828404
  0
LINE
  5
45F
100
AcDbEntity
  8
RACCORDO
100
AcDbLine
 62
253
  6
CONTINUOUS
 10
-10.6393131867
 20
3.0590618699
 11
-10.63819911
 21
3.3363828404
  0
LINE
  5
460
100
AcDbEntity
  8
ASSI
100
AcDbLine
 62
253
  6
CONTINUOUS
 10
-10.6393131867
 20
3.0590618699
 11
-10.63819911
 21
3.3363828404
  0
LINE
  5
461
100
AcDbEntity
  8
RACCORDO
100
AcDbLine
 62
253
  6
CONTINUOUS
 10
-10.6393131867
 20
-1.9409381301
 11
-10.63819911
 21
-1.6636171596
  0
LINE
  5
462
100
AcDbEntity
  8
ASSI
100
AcDbLine
 62
253
  6
CONTINUOUS
 10
-10.6393131867
 20
-1.9409381301
 11
-10.63819911
 21
-1.6636171596
  0
LINE
  5
463
100
AcDbEntity
  8
ASSI
100
AcDbLine
 62
7
  6
CONTINUOUS
 10
-10.9394972546
 20
-2.1148025565
 11
-10.9406952191
 21
-2.3495889584
  0
LINE
  5
464
100
AcDbEntity
  8
RACCORDO
100
AcDbLine
 62
7
  6
CONTINUOUS
 10
-10.9395448378
 20
-2.1253530766
 11
-10.9408700651
 21
-2.3795254388
  0
LINE
  5
465
100
AcDbEntity
  8
RACCORDO
100
AcDbLine
 62
253
  6
CONTINUOUS
 10
-10.640793427
 20
12.8001537949
 11
-10.6393131867
 21
13.0590618699
  0
LINE
  5
466
100
AcDbEntity
  8
ASSI
100
AcDbLine
 62
253
  6
CONTINUOUS
 10
-10.640793427
 20
12.8001537949
 11
-10.6393131867
 21
13.0590618699
  0
LINE
  5
467
100
AcDbEntity
  8
RACCORDO
100
AcDbLine
 62
253
  6
CONTINUOUS
 10
-10.640793427
 20
7.8001537949
 11
-10.6393131867
 21
8.0590618699
  0
LINE
  5
468
100
AcDbEntity
  8
ASSI
100
AcDbLine
 62
253
  6
CONTINUOUS
 10
-10.640793427
 20
7.8001537949
 11
-10.6393131867
 21
8.0590618699
  0
LINE
  5
469
100
AcDbEntity
  8
RACCORDO
100
AcDbLine
 62
253
  6
CONTINUOUS
 10
-10.640793427
 20
2.8001537949
 11
-10.6393131867
 21
3.0590618699
  0
LINE
  5
46A
100
AcDbEntity
  8
ASSI
100
AcDbLine
 62
253
  6
CONTINUOUS
 10
-10.640793427
 20
2.8001537949
 11
-10.6393131867
 21
3.0590618699
  0
LINE
  5
46B
100
AcDbEntity
  8
RACCORDO
100
AcDbLine
 62
253
  6
CONTINUOUS
 10
-10.640793427
 20
-2.1998462051
 11
-10.6393131867
 21
-1.9409381301
  0
LINE
  5
46C
100
AcDbEntity
  8
ASSI
100
AcDbLine
 62
253
  6
CONTINUOUS
 10
-10.640793427
 20
-2.1998462051
 11
-10.6393131867
 21
-1.9409381301
  0
LINE
  5
46D
100
AcDbEntity
  8
ASSI
100
AcDbLine
 62
7
  6
CONTINUOUS
 10
-10.9406952191
 20
-2.3495889584
 11
-10.9420621687
 21
-2.5609986206
  0
LINE
  5
46E
100
AcDbEntity
  8
RACCORDO
100
AcDbLine
 62
7
  6
CONTINUOUS
 10
-10.9408700651
 20
-2.3795254388
 11
-10.9422160043
 21
-2.5819674335
  0
LINE
  5
46F
100
AcDbEntity
  8
RACCORDO
100
AcDbLine
 62
253
  6
CONTINUOUS
 10
-10.6426188118
 20
12.5645168339
 11
-10.640793427
 21
12.8001537949
  0
LINE
  5
470
100
AcDbEntity
  8
ASSI
100
AcDbLine
 62
253
  6
CONTINUOUS
 10
-10.6426188118
 20
12.5645168339
 11
-10.640793427
 21
12.8001537949
  0
LINE
  5
471
100
AcDbEntity
  8
RACCORDO
100
AcDbLine
 62
253
  6
CONTINUOUS
 10
-10.6426188118
 20
7.5645168339
 11
-10.640793427
 21
7.8001537949
  0
LINE
  5
472
100
AcDbEntity
  8
ASSI
100
AcDbLine
 62
253
  6
CONTINUOUS
 10
-10.6426188118
 20
7.5645168339
 11
-10.640793427
 21
7.8001537949
  0
LINE
  5
473
100
AcDbEntity
  8
RACCORDO
100
AcDbLine
 62
253
  6
CONTINUOUS
 10
-10.6426188118
 20
2.5645168339
 11
-10.640793427
 21
2.8001537949
  0
LINE
  5
474
100
AcDbEntity
  8
ASSI
100
AcDbLine
 62
253
  6
CONTINUOUS
 10
-10.6426188118
 20
2.5645168339
 11
-10.640793427
 21
2.8001537949
  0
LINE
  5
475
100
AcDbEntity
  8
RACCORDO
100
AcDbLine
 62
253
  6
CONTINUOUS
 10
-10.6426188118
 20
-2.4354831661
 11
-10.640793427
 21
-2.1998462051
  0
LINE
  5
476
100
AcDbEntity
  8
ASSI
100
AcDbLine
 62
253
  6
CONTINUOUS
 10
-10.6426188118
 20
-2.4354831661
 11
-10.640793427
 21
-2.1998462051
  0
LINE
  5
477
100
AcDbEntity
  8
ASSI
100
AcDbLine
 62
7
  6
CONTINUOUS
 10
-10.9420621687
 20
-2.5609986206
 11
-10.9435734387
 21
-2.7488756849
  0
LINE
  5
478
100
AcDbEntity
  8
RACCORDO
100
AcDbLine
 62
7
  6
CONTINUOUS
 10
-10.9422160043
 20
-2.5819674335
 11
-10.943693031
 21
-2.7622095139
  0
LINE
  5
479
100
AcDbEntity
  8
ASSI
100
AcDbLine
 62
7
  6
CONTINUOUS
 10
-10.9435734387
 20
-2.7488756849
 11
-10.9451970244
 21
-2.9132956737
  0
LINE
  5
47A
100
AcDbEntity
  8
RACCORDO
100
AcDbLine
 62
7
  6
CONTINUOUS
 10
-10.943693031
 20
-2.7622095139
 11
-10.9452751124
 21
-2.9203726732
  0
LINE
  5
47B
100
AcDbEntity
  8
ASSI
100
AcDbLine
 62
7
  6
CONTINUOUS
 10
-10.9451970244
 20
-2.9132956737
 11
-10.9469152217
 21
-3.0545690442
  0
LINE
  5
47C
100
AcDbEntity
  8
RACCORDO
100
AcDbLine
 62
7
  6
CONTINUOUS
 10
-10.9452751124
 20
-2.9203726732
 11
-10.9469449057
 21
-3.0567659598
  0
LINE
  5
47D
100
AcDbEntity
  8
RACCORDO
100
AcDbLine
 62
7
  6
CONTINUOUS
 10
-10.9469449057
 20
-3.0567659598
 11
-10.9484496988
 21
-3.1580534517
  0
LINE
  5
47E
100
AcDbEntity
  8
ASSI
100
AcDbLine
 62
7
  6
CONTINUOUS
 10
-10.9469152217
 20
-3.0545690442
 11
-10.9484653277
 21
-3.1590052243
  0
LINE
  5
47F
100
AcDbEntity
  8
RACCORDO
100
AcDbLine
 62
7
  6
CONTINUOUS
 10
-10.9484496988
 20
-3.1580534517
 11
-10.9499766584
 21
-3.2421569814
  0
LINE
  5
480
100
AcDbEntity
  8
ASSI
100
AcDbLine
 62
7
  6
CONTINUOUS
 10
-10.9484653277
 20
-3.1590052243
 11
-10.9500384631
 21
-3.2452025661
  0
LINE
  5
481
100
AcDbEntity
  8
RACCORDO
100
AcDbLine
 62
7
  6
CONTINUOUS
 10
-10.9499766584
 20
-3.2421569814
 11
-10.9505011364
 21
-3.2671380522
  0
LINE
  5
482
100
AcDbEntity
  8
ASSI
100
AcDbLine
 62
7
  6
CONTINUOUS
 10
-10.9500384631
 20
-3.2452025661
 11
-10.9505005175
 21
-3.2671372892
  0
LWPOLYLINE
  5
483
100
AcDbEntity
  8
RACCORDO
100
AcDbPolyline
 62
253
  6
CONTINUOUS
 90
9
 70
0
 10
-10.6540508441
 20
6.8978371398
 10
-10.6525979664
 20
6.9346568188
 10
-10.6511695357
 20
6.9815678226
 10
-10.6497857557
 20
7.0382992647
 10
-10.6484475217
 20
7.1045200894
 10
-10.6471539385
 20
7.1798712137
 10
-10.6459225242
 20
7.2639929856
 10
-10.6447541673
 20
7.3564484105
 10
-10.6426188118
 20
7.5645168339
  0
LWPOLYLINE
  5
484
100
AcDbEntity
  8
ASSI
100
AcDbPolyline
 62
253
  6
CONTINUOUS
 90
9
 70
0
 10
-10.6540508441
 20
6.8978371398
 10
-10.6525979664
 20
6.9346568188
 10
-10.6511695357
 20
6.9815678226
 10
-10.6497857557
 20
7.0382992647
 10
-10.6484475217
 20
7.1045200894
 10
-10.6471539385
 20
7.1798712137
 10
-10.6459225242
 20
7.2639929856
 10
-10.6447541673
 20
7.3564484105
 10
-10.6426188118
 20
7.5645168339
  0
LWPOLYLINE
  5
485
100
AcDbEntity
  8
RACCORDO
100
AcDbPolyline
 62
253
  6
CONTINUOUS
 90
9
 70
0
 10
-10.6540508441
 20
1.8978371398
 10
-10.6525979664
 20
1.9346568188
 10
-10.6511695357
 20
1.9815678226
 10
-10.6497857557
 20
2.0382992647
 10
-10.6484475217
 20
2.1045200894
 10
-10.6471539385
 20
2.1798712137
 10
-10.6459225242
 20
2.2639929856
 10
-10.6447541673
 20
2.3564484105
 10
-10.6426188118
 20
2.5645168339
  0
LWPOLYLINE
  5
486
100
AcDbEntity
  8
ASSI
100
AcDbPolyline
 62
253
  6
CONTINUOUS
 90
9
 70
0
 10
-10.6540508441
 20
1.8978371398
 10
-10.6525979664
 20
1.9346568188
 10
-10.6511695357
 20
1.9815678226
 10
-10.6497857557
 20
2.0382992647
 10
-10.6484475217
 20
2.1045200894
 10
-10.6471539385
 20
2.1798712137
 10
-10.6459225242
 20
2.2639929856
 10
-10.6447541673
 20
2.3564484105
 10
-10.6426188118
 20
2.5645168339
  0
LWPOLYLINE
  5
487
100
AcDbEntity
  8
RACCORDO
100
AcDbPolyline
 62
253
  6
CONTINUOUS
 90
9
 70
0
 10
-10.6540508441
 20
-3.1021628602
 10
-10.6525979664
 20
-3.0653431812
 10
-10.6511695357
 20
-3.0184321774
 10
-10.6497857557
 20
-2.9617007353
 10
-10.6484475217
 20
-2.8954799106
 10
-10.6471539385
 20
-2.8201287863
 10
-10.6459225242
 20
-2.7360070144
 10
-10.6447541673
 20
-2.6435515895
 10
-10.6426188118
 20
-2.4354831661
  0
LWPOLYLINE
  5
488
100
AcDbEntity
  8
ASSI
100
AcDbPolyline
 62
253
  6
CONTINUOUS
 90
9
 70
0
 10
-10.6540508441
 20
-3.1021628602
 10
-10.6525979664
 20
-3.0653431812
 10
-10.6511695357
 20
-3.0184321774
 10
-10.6497857557
 20
-2.9617007353
 10
-10.6484475217
 20
-2.8954799106
 10
-10.6471539385
 20
-2.8201287863
 10
-10.6459225242
 20
-2.7360070144
 10
-10.6447541673
 20
-2.6435515895
 10
-10.6426188118
 20
-2.4354831661
  0
LINE
  5
489
100
AcDbEntity
  8
DRAFT
100
AcDbLine
 62
7
  6
CONTINUOUS
 10
-11.15
 20
-15.149318665
 11
-11.1615988572
 21
-15.3911761874
  0
LWPOLYLINE
  5
48A
100
AcDbEntity
  8
RACCORDO
100
AcDbPolyline
 62
253
  6
CONTINUOUS
 90
4
 70
0
 10
-10.6585359545
 20
1.85
 10
-10.6570164708
 20
1.8553504461
 10
-10.655521434
 20
1.8713400553
 10
-10.6540508441
 20
1.8978371398
  0
LWPOLYLINE
  5
48B
100
AcDbEntity
  8
ASSI
100
AcDbPolyline
 62
253
  6
CONTINUOUS
 90
4
 70
0
 10
-10.6585359545
 20
1.85
 10
-10.6570164708
 20
1.8553504461
 10
-10.655521434
 20
1.8713400553
 10
-10.6540508441
 20
1.8978371398
  0
LWPOLYLINE
  5
48C
100
AcDbEntity
  8
RACCORDO
100
AcDbPolyline
 62
253
  6
CONTINUOUS
 90
4
 70
0
 10
-10.6585359545
 20
-3.15
 10
-10.6570164708
 20
-3.1446495539
 10
-10.655521434
 20
-3.1286599447
 10
-10.6540508441
 20
-3.1021628602
  0
LWPOLYLINE
  5
48D
100
AcDbEntity
  8
ASSI
100
AcDbPolyline
 62
253
  6
CONTINUOUS
 90
4
 70
0
 10
-10.6585359545
 20
-3.15
 10
-10.6570164708
 20
-3.1446495539
 10
-10.655521434
 20
-3.1286599447
 10
-10.6540508441
 20
-3.1021628602
  0
LINE
  5
48E
100
AcDbEntity
  8
RACCORDO
100
AcDbLine
 62
7
  6
CONTINUOUS
 10
6.0476387933
 20
20.8476387933
 11
6.6741974154
 21
21.4741974154
  0
LINE
  5
48F
100
AcDbEntity
  8
CURVE
100
AcDbLine
 62
253
  6
CONTINUOUS
 10
-2.7
 20
-11.4428574085
 11
-4.0
 21
-11.7214283943
  0
LINE
  5
490
100
AcDbEntity
  8
CURVE
100
AcDbLine
 62
253
  6
CONTINUOUS
 10
-6.7
 20
-11.4428574085
 11
-8.0
 21
-11.7214283943
  0
LINE
  5
491
100
AcDbEntity
  8
0
100
AcDbLine
 62
7
  6
CONTINUOUS
 10
11.1852469136
 20
-9.0474404834
 11
11.15
 21
-9.0481511146
  0
LINE
  5
492
100
AcDbEntity
  8
CURVE
100
AcDbLine
 62
253
  6
CONTINUOUS
 10
-7.628571412
 20
-10.4214287043
 11
-7.0714285493
 21
-10.4214287043
  0
LINE
  5
493
100
AcDbEntity
  8
CURVE
100
AcDbLine
 62
253
  6
CONTINUOUS
 10
-3.628571412
 20
-10.4214287043
 11
-3.0714285493
 21
-10.4214287043
  0
LINE
  5
494
100
AcDbEntity
  8
CURVE
100
AcDbLine
 62
253
  6
CONTINUOUS
 10
-3.0714285493
 20
-10.05
 11
-3.628571412
 21
-10.05
  0
LINE
  5
495
100
AcDbEntity
  8
CURVE
100
AcDbLine
 62
253
  6
CONTINUOUS
 10
-7.0714285493
 20
-10.05
 11
-7.628571412
 21
-10.05
  0
LINE
  5
496
100
AcDbEntity
  8
CURVE
100
AcDbLine
 62
253
  6
CONTINUOUS
 10
-7.628571412
 20
-9.4
 11
-7.0714285493
 21
-9.4
  0
LINE
  5
497
100
AcDbEntity
  8
CURVE
100
AcDbLine
 62
253
  6
CONTINUOUS
 10
-3.628571412
 20
-9.4
 11
-3.0714285493
 21
-9.4
  0
LINE
  5
498
100
AcDbEntity
  8
0
100
AcDbLine
 62
7
  6
CONTINUOUS
 10
-11.15
 20
-9.0481511146
 11
-11.1852469136
 21
-9.0474404834
  0
LINE
  5
499
100
AcDbEntity
  8
CURVE
100
AcDbLine
 62
253
  6
CONTINUOUS
 10
-3.0714285493
 20
-10.4214287043
 11
-2.8857142746
 21
-10.5142858028
  0
LINE
  5
49A
100
AcDbEntity
  8
CURVE
100
AcDbLine
 62
253
  6
CONTINUOUS
 10
-3.628571412
 20
-10.05
 11
-3.814285706
 21
-9.9571429014
  0
LINE
  5
49B
100
AcDbEntity
  8
CURVE
100
AcDbLine
 62
253
  6
CONTINUOUS
 10
-7.628571412
 20
-7.1714285493
 11
-7.814285706
 21
-7.0785714507
  0
LINE
  5
49C
100
AcDbEntity
  8
CURVE
100
AcDbLine
 62
253
  6
CONTINUOUS
 10
-3.0714285493
 20
-9.4
 11
-2.8857142746
 21
-9.4928570986
  0
LINE
  5
49D
100
AcDbEntity
  8
CURVE
100
AcDbLine
 62
253
  6
CONTINUOUS
 10
-7.814285706
 20
-7.0785714507
 11
-8.0
 21
-6.8928570986
  0
LINE
  5
49E
100
AcDbEntity
  8
RACCORDO
100
AcDbLine
 62
7
  6
CONTINUOUS
 10
6.0476387933
 20
-20.8476387933
 11
6.6741974154
 21
-21.4741974154
  0
LINE
  5
49F
100
AcDbEntity
  8
CURVE
100
AcDbLine
 62
253
  6
CONTINUOUS
 10
-3.814285706
 20
-10.9785716057
 11
-4.0
 21
-10.7928574085
  0
LINE
  5
4A0
100
AcDbEntity
  8
CURVE
100
AcDbLine
 62
253
  6
CONTINUOUS
 10
-3.814285706
 20
-9.9571429014
 11
-4.0
 21
-9.7714287043
  0
LINE
  5
4A1
100
AcDbEntity
  8
CURVE
100
AcDbLine
 62
253
  6
CONTINUOUS
 10
-6.8857142746
 20
-6.6142857254
 11
-6.7
 21
-6.8
  0
LINE
  5
4A2
100
AcDbEntity
  8
CURVE
100
AcDbLine
 62
253
  6
CONTINUOUS
 10
-2.8857142746
 20
-10.5142858028
 11
-2.7
 21
-10.7
  0
LINE
  5
4A3
100
AcDbEntity
  8
CURVE
100
AcDbLine
 62
253
  6
CONTINUOUS
 10
-7.2571428239
 20
-8.8428570986
 11
-7.1642857254
 21
-8.9976190329
  0
LINE
  5
4A4
100
AcDbEntity
  8
RACCORDO
100
AcDbLine
 62
7
  6
CONTINUOUS
 10
-6.206982026
 20
-23.25
 11
-6.2437286396
 21
-22.4837654639
  0
LINE
  5
4A5
100
AcDbEntity
  8
0
100
AcDbLine
 62
253
  6
CONTINUOUS
 10
-9.0
 20
-18.6
 11
-9.0
 21
-18.2130903017
  0
LINE
  5
4A6
100
AcDbEntity
  8
DRAFT
100
AcDbLine
 62
7
  6
CONTINUOUS
 10
-8.6
 20
20.85
 11
-8.6
 21
18.2574425998
  0
LINE
  5
4A7
100
AcDbEntity
  8
DRAFT
100
AcDbLine
 62
7
  6
CONTINUOUS
 10
-8.6
 20
-18.6
 11
-8.6
 21
-20.85
  0
LINE
  5
4A8
100
AcDbEntity
  8
RACCORDO
100
AcDbLine
 62
7
  6
CONTINUOUS
 10
-8.1570955844
 20
22.45
 11
-8.1570955844
 21
22.4493803117
  0
LINE
  5
4A9
100
AcDbEntity
  8
RACCORDO
100
AcDbLine
 62
7
  6
CONTINUOUS
 10
-8.1570955844
 20
-22.4493803117
 11
-8.1570955844
 21
-22.45
  0
LINE
  5
4AA
100
AcDbEntity
  8
CURVE
100
AcDbLine
 62
253
  6
CONTINUOUS
 10
-8.0
 20
-8.4714287043
 11
-8.0
 21
-8.9357141972
  0
LINE
  5
4AB
100
AcDbEntity
  8
CURVE
100
AcDbLine
 62
253
  6
CONTINUOUS
 10
-8.0
 20
-15.3428574085
 11
-8.0
 21
-15.9
  0
LINE
  5
4AC
100
AcDbEntity
  8
CURVE
100
AcDbLine
 62
253
  6
CONTINUOUS
 10
-8.0
 20
-10.7928574085
 11
-8.0
 21
-10.7
  0
LINE
  5
4AD
100
AcDbEntity
  8
CURVE
100
AcDbLine
 62
253
  6
CONTINUOUS
 10
-8.0
 20
-9.7714287043
 11
-8.0
 21
-9.6785712957
  0
LINE
  5
4AE
100
AcDbEntity
  8
CURVE
100
AcDbLine
 62
253
  6
CONTINUOUS
 10
-8.0
 20
-6.8928570986
 11
-8.0
 21
-6.8
  0
LINE
  5
4AF
100
AcDbEntity
  8
CURVE
100
AcDbLine
 62
253
  6
CONTINUOUS
 10
-7.7214285687
 20
-6.15
 11
-7.7214285687
 21
-5.5
  0
LINE
  5
4B0
100
AcDbEntity
  8
CURVE
100
AcDbLine
 62
253
  6
CONTINUOUS
 10
-7.5357142746
 20
-7.5428570986
 11
-7.5357142746
 21
-8.1
  0
LINE
  5
4B1
100
AcDbEntity
  8
DRAFT
100
AcDbLine
 62
7
  6
CONTINUOUS
 10
-7.4541107013
 20
-20.85
 11
-7.4541107013
 21
-18.6
  0
LINE
  5
4B2
100
AcDbEntity
  8
DRAFT
100
AcDbLine
 62
7
  6
CONTINUOUS
 10
-7.4541107013
 20
18.2574425998
 11
-7.4541107013
 21
20.85
  0
LINE
  5
4B3
100
AcDbEntity
  8
DRAFT
100
AcDbLine
 62
7
  6
CONTINUOUS
 10
-7.4366556363
 20
19.6633443637
 11
-7.4366556363
 21
18.2661694676
  0
LINE
  5
4B4
100
AcDbEntity
  8
DRAFT
100
AcDbLine
 62
7
  6
CONTINUOUS
 10
-7.4366556363
 20
-19.6633443637
 11
-7.4366556363
 21
-18.6
  0
LINE
  5
4B5
100
AcDbEntity
  8
DRAFT
100
AcDbLine
 62
7
  6
CONTINUOUS
 10
-7.4345579013
 20
20.9654420987
 11
-7.4345579013
 21
20.85
  0
LINE
  5
4B6
100
AcDbEntity
  8
DRAFT
100
AcDbLine
 62
7
  6
CONTINUOUS
 10
-7.4345579013
 20
-20.85
 11
-7.4345579013
 21
-20.9654420987
  0
LINE
  5
4B7
100
AcDbEntity
  8
DRAFT
100
AcDbLine
 62
7
  6
CONTINUOUS
 10
-7.4
 20
-20.85
 11
-7.4
 21
-19.7
  0
LINE
  5
4B8
100
AcDbEntity
  8
DRAFT
100
AcDbLine
 62
7
  6
CONTINUOUS
 10
-7.4
 20
19.7
 11
-7.4
 21
20.85
  0
LINE
  5
4B9
100
AcDbEntity
  8
RACCORDO
100
AcDbLine
 62
253
  6
CONTINUOUS
 10
-7.3510263866
 20
-19.7489736134
 11
-7.3510263866
 21
-21.0489736134
  0
LINE
  5
4BA
100
AcDbEntity
  8
RACCORDO
100
AcDbLine
 62
253
  6
CONTINUOUS
 10
-7.3510263866
 20
19.7489736134
 11
-7.3510263866
 21
21.0489736134
  0
LINE
  5
4BB
100
AcDbEntity
  8
CURVE
100
AcDbLine
 62
253
  6
CONTINUOUS
 10
-7.2571428239
 20
-15.7142858028
 11
-7.2571428239
 21
-15.3428574085
  0
LINE
  5
4BC
100
AcDbEntity
  8
CURVE
100
AcDbLine
 62
253
  6
CONTINUOUS
 10
-7.2571428239
 20
-8.8428570986
 11
-7.2571428239
 21
-8.6571429014
  0
LINE
  5
4BD
100
AcDbEntity
  8
RACCORDO
100
AcDbLine
 62
7
  6
CONTINUOUS
 10
-6.2437286396
 20
22.4837654639
 11
-6.206982026
 21
23.25
  0
LINE
  5
4BE
100
AcDbEntity
  8
ASSI
100
AcDbLine
 62
7
  6
CONTINUOUS
 10
10.2600548477
 20
22.4665307437
 11
10.2935241039
 21
22.5
  0
LINE
  5
4BF
100
AcDbEntity
  8
SMUSSO
100
AcDbLine
 62
7
  6
CONTINUOUS
 10
-0.25
 20
11.75
 11
0.25
 21
12.25
  0
LINE
  5
4C0
100
AcDbEntity
  8
ASSI
100
AcDbLine
 62
7
  6
CONTINUOUS
 10
-0.25
 20
11.75
 11
0.25
 21
12.25
  0
LINE
  5
4C1
100
AcDbEntity
  8
SMUSSO
100
AcDbLine
 62
7
  6
CONTINUOUS
 10
4.75
 20
16.25
 11
4.25
 21
15.75
  0
LINE
  5
4C2
100
AcDbEntity
  8
ASSI
100
AcDbLine
 62
7
  6
CONTINUOUS
 10
4.75
 20
16.25
 11
4.25
 21
15.75
  0
LINE
  5
4C3
100
AcDbEntity
  8
CURVE
100
AcDbLine
 62
253
  6
CONTINUOUS
 10
10.3
 20
10.5285712957
 11
9.0
 21
10.1571429014
  0
LINE
  5
4C4
100
AcDbEntity
  8
DRAFT
100
AcDbLine
 62
7
  6
CONTINUOUS
 10
-11.1842904416
 20
-9.0972969342
 11
-11.15
 21
-9.096246538
  0
LINE
  5
4C5
100
AcDbEntity
  8
CURVE
100
AcDbLine
 62
253
  6
CONTINUOUS
 10
-7.907142853
 20
-9.0285712957
 11
-7.4428571373
 21
-9.0285712957
  0
LINE
  5
4C6
100
AcDbEntity
  8
CURVE
100
AcDbLine
 62
253
  6
CONTINUOUS
 10
-3.814285706
 20
-9.0285712957
 11
-3.4428571373
 21
-9.0285712957
  0
LINE
  5
4C7
100
AcDbEntity
  8
0
100
AcDbLine
 62
7
  6
CONTINUOUS
 10
-11.1825449351
 20
-8.9982544935
 11
-11.15
 21
-8.9982544935
  0
LINE
  5
4C8
100
AcDbEntity
  8
0
100
AcDbLine
 62
7
  6
CONTINUOUS
 10
11.15
 20
-8.9982544935
 11
11.1825449351
 21
-8.9982544935
  0
LINE
  5
4C9
100
AcDbEntity
  8
CURVE
100
AcDbLine
 62
253
  6
CONTINUOUS
 10
-7.1642857254
 20
-8.9976190329
 11
-6.8857142746
 21
-8.9976190329
  0
LINE
  5
4CA
100
AcDbEntity
  8
CURVE
100
AcDbLine
 62
253
  6
CONTINUOUS
 10
-3.2571428239
 20
-8.4714287043
 11
-2.7
 21
-8.4714287043
  0
LINE
  5
4CB
100
AcDbEntity
  8
0
100
AcDbLine
 62
7
  6
CONTINUOUS
 10
11.1825449351
 20
-8.0349101299
 11
11.15
 21
-8.0349101299
  0
LINE
  5
4CC
100
AcDbEntity
  8
0
100
AcDbLine
 62
7
  6
CONTINUOUS
 10
-11.1825449351
 20
-8.0349101299
 11
-11.15
 21
-8.0349101299
  0
LINE
  5
4CD
100
AcDbEntity
  8
DRAFT
100
AcDbLine
 62
7
  6
CONTINUOUS
 10
11.15
 20
-9.096246538
 11
11.1842904416
 21
-9.0972969342
  0
LINE
  5
4CE
100
AcDbEntity
  8
CURVE
100
AcDbLine
 62
253
  6
CONTINUOUS
 10
-7.7214285687
 20
-5.5
 11
-6.7
 21
-5.7785714313
  0
LINE
  5
4CF
100
AcDbEntity
  8
CURVE
100
AcDbLine
 62
253
  6
CONTINUOUS
 10
-7.0714285493
 20
-6.5214285493
 11
-6.8857142746
 21
-6.6142857254
  0
LINE
  5
4D0
100
AcDbEntity
  8
CURVE
100
AcDbLine
 62
253
  6
CONTINUOUS
 10
-3.628571412
 20
-7.1714285493
 11
-3.814285706
 21
-7.0785714507
  0
LINE
  5
4D1
100
AcDbEntity
  8
CURVE
100
AcDbLine
 62
253
  6
CONTINUOUS
 10
-4.0
 20
-8.8428570986
 11
-3.814285706
 21
-9.0285712957
  0
LINE
  5
4D2
100
AcDbEntity
  8
CURVE
100
AcDbLine
 62
253
  6
CONTINUOUS
 10
-2.8857142746
 20
-9.4928570986
 11
-2.7
 21
-9.6785712957
  0
LINE
  5
4D3
100
AcDbEntity
  8
ASSI
100
AcDbLine
 62
7
  6
CONTINUOUS
 10
10.2935241039
 20
-22.5
 11
10.2600548477
 21
-22.4665307437
  0
LINE
  5
4D4
100
AcDbEntity
  8
CURVE
100
AcDbLine
 62
253
  6
CONTINUOUS
 10
-3.814285706
 20
-7.0785714507
 11
-4.0
 21
-6.8928570986
  0
LWPOLYLINE
  5
4D5
100
AcDbEntity
  8
0
100
AcDbPolyline
 62
7
  6
CONTINUOUS
 90
9
 70
0
 10
3.4175430786
 20
-20.1
 10
3.4185151331
 20
-20.1015222638
 10
3.4194872075
 20
-20.1060773343
 10
3.4204593019
 20
-20.1136303427
 10
3.4214314291
 20
-20.1241234428
 10
3.4224035762
 20
-20.1374766726
 10
3.4233757052
 20
-20.1535889578
 10
3.4243477972
 20
-20.1723382485
 10
3.4253198711
 20
-20.1935816995
  0
LWPOLYLINE
  5
4D6
100
AcDbEntity
  8
RACCORDO
100
AcDbPolyline
 62
7
  6
CONTINUOUS
 90
25
 70
0
 10
-4.5
 20
-24.5359395359
 10
-4.4995565971
 20
-24.5400101013
 10
-4.4982756158
 20
-24.5440291829
 10
-4.4961570561
 20
-24.5479967809
 10
-4.493184719
 20
-24.5519293969
 10
-4.4893748036
 20
-24.5558105293
 10
-4.4847759065
 20
-24.5595906727
 10
-4.4793779211
 20
-24.5632685337
 10
-4.4731909541
 20
-24.5668454057
 10
-4.4662939225
 20
-24.5702756646
 10
-4.4586777303
 20
-24.5735574323
 10
-4.4503514735
 20
-24.5766925869
 10
-4.4414213562
 20
-24.5796411384
 10
-4.4318796433
 20
-24.5824006963
 10
-4.42173407
 20
-24.5849736512
 10
-4.4111140466
 20
-24.587327184
 10
-4.4000134956
 20
-24.589458484
 10
-4.3884384945
 20
-24.591370362
 10
-4.3765366865
 20
-24.5930384312
 10
-4.3643038853
 20
-24.5944595685
 10
-4.3517442772
 20
-24.5956368971
 10
-4.3390180644
 20
-24.5965553998
 10
-4.3261786476
 20
-24.5972100708
 10
-4.3131726262
 20
-24.5976059158
 10
-4.3
 20
-24.5977429348
  0
LINE
  5
4D7
100
AcDbEntity
  8
RACCORDO
100
AcDbLine
 62
7
  6
CONTINUOUS
 10
-5.6025680966
 20
-20.326459336
 11
-5.5981715064
 21
-20.4523612067
  0
LINE
  5
4D8
100
AcDbEntity
  8
RACCORDO
100
AcDbLine
 62
253
  6
CONTINUOUS
 10
-6.8510346798
 20
-19.751836852
 11
-6.8510346798
 21
-21.051836852
  0
LINE
  5
4D9
100
AcDbEntity
  8
RACCORDO
100
AcDbLine
 62
253
  6
CONTINUOUS
 10
-6.8510346798
 20
19.751836852
 11
-6.8510346798
 21
21.051836852
  0
LINE
  5
4DA
100
AcDbEntity
  8
CURVE
100
AcDbLine
 62
253
  6
CONTINUOUS
 10
-6.7
 20
-6.8
 11
-6.7
 21
-6.8928570986
  0
LINE
  5
4DB
100
AcDbEntity
  8
CURVE
100
AcDbLine
 62
253
  6
CONTINUOUS
 10
-6.7
 20
-9.6785712957
 11
-6.7
 21
-9.7714287043
  0
LINE
  5
4DC
100
AcDbEntity
  8
CURVE
100
AcDbLine
 62
253
  6
CONTINUOUS
 10
-6.7
 20
-10.7
 11
-6.7
 21
-10.7928574085
  0
LINE
  5
4DD
100
AcDbEntity
  8
CURVE
100
AcDbLine
 62
253
  6
CONTINUOUS
 10
-6.7
 20
-14.2285716057
 11
-6.7
 21
-14.9714283943
  0
LINE
  5
4DE
100
AcDbEntity
  8
CURVE
100
AcDbLine
 62
253
  6
CONTINUOUS
 10
-6.7
 20
-15.3428574085
 11
-6.7
 21
-15.9
  0
LINE
  5
4DF
100
AcDbEntity
  8
CURVE
100
AcDbLine
 62
253
  6
CONTINUOUS
 10
-6.7
 20
-8.8428570986
 11
-6.7
 21
-8.4714287043
  0
LINE
  5
4E0
100
AcDbEntity
  8
RACCORDO
100
AcDbLine
 62
253
  6
CONTINUOUS
 10
-6.6741974154
 20
-21.4741974154
 11
-6.6741974154
 21
-19.8258025846
  0
LINE
  5
4E1
100
AcDbEntity
  8
RACCORDO
100
AcDbLine
 62
253
  6
CONTINUOUS
 10
-6.6741974154
 20
19.8258025846
 11
-6.6741974154
 21
21.4741974154
  0
LINE
  5
4E2
100
AcDbEntity
  8
RACCORDO
100
AcDbLine
 62
7
  6
CONTINUOUS
 10
-6.2506196883
 20
-22.45
 11
-6.2506196883
 21
-21.9199498914
  0
LINE
  5
4E3
100
AcDbEntity
  8
RACCORDO
100
AcDbLine
 62
7
  6
CONTINUOUS
 10
-6.2506196883
 20
21.9199498914
 11
-6.2506196883
 21
22.45
  0
LINE
  5
4E4
100
AcDbEntity
  8
RACCORDO
100
AcDbLine
 62
253
  6
CONTINUOUS
 10
-6.1742164539
 20
-20.9742164539
 11
-6.1742164539
 21
-20.3257835461
  0
LINE
  5
4E5
100
AcDbEntity
  8
RACCORDO
100
AcDbLine
 62
253
  6
CONTINUOUS
 10
-6.1742164539
 20
20.3257835461
 11
-6.1742164539
 21
20.9742164539
  0
LINE
  5
4E6
100
AcDbEntity
  8
DRAFT
100
AcDbLine
 62
7
  6
CONTINUOUS
 10
-6.0476387933
 20
20.8476387933
 11
-6.0476387933
 21
20.4523612067
  0
LINE
  5
4E7
100
AcDbEntity
  8
DRAFT
100
AcDbLine
 62
7
  6
CONTINUOUS
 10
-6.0476387933
 20
-20.4523612067
 11
-6.0476387933
 21
-20.8476387933
  0
LINE
  5
4E8
100
AcDbEntity
  8
0
100
AcDbLine
 62
7
  6
CONTINUOUS
 10
-6.0
 20
25.1
 11
-6.0
 21
23.25
  0
LINE
  5
4E9
100
AcDbEntity
  8
0
100
AcDbLine
 62
7
  6
CONTINUOUS
 10
-6.0
 20
20.9
 11
-6.0
 21
20.5
  0
LINE
  5
4EA
100
AcDbEntity
  8
0
100
AcDbLine
 62
7
  6
CONTINUOUS
 10
-6.0
 20
-25.1
 11
-6.0
 21
-23.25
  0
LINE
  5
4EB
100
AcDbEntity
  8
0
100
AcDbLine
 62
7
  6
CONTINUOUS
 10
-6.0
 20
-20.5
 11
-6.0
 21
-20.9
  0
LINE
  5
4EC
100
AcDbEntity
  8
CURVE
100
AcDbLine
 62
253
  6
CONTINUOUS
 10
-5.875
 20
9.382444
 11
-5.875
 21
10.842944
  0
LINE
  5
4ED
100
AcDbEntity
  8
RACCORDO
100
AcDbLine
 62
253
  6
CONTINUOUS
 10
-5.8698530207
 20
20.3257835461
 11
-5.8698530207
 21
19.8258025846
  0
LINE
  5
4EE
100
AcDbEntity
  8
RACCORDO
100
AcDbLine
 62
253
  6
CONTINUOUS
 10
-5.8698530207
 20
19.751836852
 11
-5.8698565722
 21
19.8258025846
  0
LINE
  5
4EF
100
AcDbEntity
  8
CURVE
100
AcDbLine
 62
253
  6
CONTINUOUS
 10
-5.5
 20
-4.2
 11
-5.5
 21
-4.5
  0
LINE
  5
4F0
100
AcDbEntity
  8
ASSI
100
AcDbLine
 62
253
  6
CONTINUOUS
 10
-5.5
 20
-18.6
 11
-5.5
 21
-18.2130903017
  0
LINE
  5
4F1
100
AcDbEntity
  8
CURVE
100
AcDbLine
 62
253
  6
CONTINUOUS
 10
-5.5
 20
-1.8
 11
-5.5
 21
-1.5
  0
LINE
  5
4F2
100
AcDbEntity
  8
RACCORDO
100
AcDbLine
 62
253
  6
CONTINUOUS
 10
-5.8698530207
 20
-20.3257835461
 11
-5.8698530207
 21
-19.751836852
  0
LINE
  5
4F3
100
AcDbEntity
  8
RACCORDO
100
AcDbLine
 62
7
  6
CONTINUOUS
 10
-5.6025680966
 20
20.326459336
 11
-5.5981715064
 21
20.4523612067
  0
LWPOLYLINE
  5
4F4
100
AcDbEntity
  8
RACCORDO
100
AcDbPolyline
 62
7
  6
CONTINUOUS
 90
25
 70
0
 10
-4.5
 20
24.9163621424
 10
-4.4995565971
 20
24.9204327078
 10
-4.4982756158
 20
24.9244517894
 10
-4.4961570561
 20
24.9284193874
 10
-4.493184719
 20
24.9323520034
 10
-4.4893748036
 20
24.9362331358
 10
-4.4847759065
 20
24.9400132792
 10
-4.4793779211
 20
24.9436911402
 10
-4.4731909541
 20
24.9472680122
 10
-4.4662939225
 20
24.9506982711
 10
-4.4586777303
 20
24.9539800388
 10
-4.4503514735
 20
24.9571151934
 10
-4.4414213562
 20
24.9600637449
 10
-4.4318796433
 20
24.9628233029
 10
-4.42173407
 20
24.9653962577
 10
-4.4111140466
 20
24.9677497905
 10
-4.4000134956
 20
24.9698810905
 10
-4.3884384945
 20
24.9717929685
 10
-4.3765366865
 20
24.9734610377
 10
-4.3643038853
 20
24.974882175
 10
-4.3517442772
 20
24.9760595037
 10
-4.3390180644
 20
24.9769780063
 10
-4.3261786476
 20
24.9776326773
 10
-4.3131726262
 20
24.9780285223
 10
-4.3
 20
24.9781655413
  0
LINE
  5
4F5
100
AcDbEntity
  8
DRAFT
100
AcDbLine
 62
7
  6
CONTINUOUS
 10
3.9
 20
22.3551229611
 11
3.9741071429
 21
22.5
  0
LINE
  5
4F6
100
AcDbEntity
  8
CURVE
100
AcDbLine
 62
253
  6
CONTINUOUS
 10
9.185714294
 20
11.4571429014
 11
9.371428588
 21
11.55
  0
LINE
  5
4F7
100
AcDbEntity
  8
CURVE
100
AcDbLine
 62
253
  6
CONTINUOUS
 10
-3.0714285493
 20
-7.1714285493
 11
-3.628571412
 21
-7.1714285493
  0
LINE
  5
4F8
100
AcDbEntity
  8
CURVE
100
AcDbLine
 62
253
  6
CONTINUOUS
 10
-7.0714285493
 20
-7.1714285493
 11
-7.628571412
 21
-7.1714285493
  0
LINE
  5
4F9
100
AcDbEntity
  8
CURVE
100
AcDbLine
 62
253
  6
CONTINUOUS
 10
-7.628571412
 20
-6.5214285493
 11
-7.0714285493
 21
-6.5214285493
  0
LINE
  5
4FA
100
AcDbEntity
  8
CURVE
100
AcDbLine
 62
253
  6
CONTINUOUS
 10
-3.628571412
 20
-6.5214285493
 11
-3.0714285493
 21
-6.5214285493
  0
LINE
  5
4FB
100
AcDbEntity
  8
CURVE
100
AcDbLine
 62
253
  6
CONTINUOUS
 10
-8.0
 20
-5.9333333462
 11
-7.35
 21
-5.9333333462
  0
LINE
  5
4FC
100
AcDbEntity
  8
CURVE
100
AcDbLine
 62
253
  6
CONTINUOUS
 10
-4.0
 20
-5.9333333462
 11
-3.35
 21
-5.9333333462
  0
LINE
  5
4FD
100
AcDbEntity
  8
CURVE
100
AcDbLine
 62
253
  6
CONTINUOUS
 10
-3.7214285687
 20
-5.5
 11
-2.7
 21
-5.7785714313
  0
LINE
  5
4FE
100
AcDbEntity
  8
CURVE
100
AcDbLine
 62
253
  6
CONTINUOUS
 10
-3.0714285493
 20
-6.5214285493
 11
-2.8857142746
 21
-6.6142857254
  0
LINE
  5
4FF
100
AcDbEntity
  8
CURVE
100
AcDbLine
 62
253
  6
CONTINUOUS
 10
-2.8857142746
 20
-6.6142857254
 11
-2.7
 21
-6.8
  0
LINE
  5
500
100
AcDbEntity
  8
CURVE
100
AcDbLine
 62
253
  6
CONTINUOUS
 10
-6.3485281374
 20
-2.1514718626
 11
-6.5606601718
 21
-1.9393398282
  0
LINE
  5
501
100
AcDbEntity
  8
DRAFT
100
AcDbLine
 62
7
  6
CONTINUOUS
 10
3.9
 20
-22.3551229611
 11
3.9741071429
 21
-22.5
  0
LINE
  5
502
100
AcDbEntity
  8
RACCORDO
100
AcDbLine
 62
7
  6
CONTINUOUS
 10
-5.6
 20
20.9
 11
-5.6200514156
 21
21.4741974154
  0
LINE
  5
503
100
AcDbEntity
  8
ASSI
100
AcDbLine
 62
7
  6
CONTINUOUS
 10
-3.9776785714
 20
-23.25
 11
-3.9911511448
 21
-22.7007950439
  0
LINE
  5
504
100
AcDbEntity
  8
CURVE
100
AcDbLine
 62
253
  6
CONTINUOUS
 10
-5.125
 20
10.842944
 11
-5.125
 21
9.382444
  0
LINE
  5
505
100
AcDbEntity
  8
0
100
AcDbLine
 62
253
  6
CONTINUOUS
 10
-5.0437253933
 20
20.9
 11
-5.0437253933
 21
20.5
  0
LINE
  5
506
100
AcDbEntity
  8
0
100
AcDbLine
 62
253
  6
CONTINUOUS
 10
-5.0437253933
 20
-20.5
 11
-5.0437253933
 21
-20.9
  0
LINE
  5
507
100
AcDbEntity
  8
RACCORDO
100
AcDbLine
 62
253
  6
CONTINUOUS
 10
-4.9911112875
 20
21.9199498914
 11
-4.9911112875
 21
21.5181771935
  0
LINE
  5
508
100
AcDbEntity
  8
RACCORDO
100
AcDbLine
 62
253
  6
CONTINUOUS
 10
-4.9911112875
 20
-21.5181771935
 11
-4.9911112875
 21
-21.9199498914
  0
LINE
  5
509
100
AcDbEntity
  8
RACCORDO
100
AcDbLine
 62
253
  6
CONTINUOUS
 10
-4.8698910615
 20
-19.830127977
 11
-4.8698910976
 21
-19.7461274635
  0
LINE
  5
50A
100
AcDbEntity
  8
RACCORDO
100
AcDbLine
 62
253
  6
CONTINUOUS
 10
-4.8698910976
 20
19.7461274635
 11
-4.8698910615
 21
19.830127977
  0
LINE
  5
50B
100
AcDbEntity
  8
RACCORDO
100
AcDbLine
 62
7
  6
CONTINUOUS
 10
-4.7476387933
 20
19.9523802452
 11
-4.7476387933
 21
19.7
  0
LINE
  5
50C
100
AcDbEntity
  8
RACCORDO
100
AcDbLine
 62
7
  6
CONTINUOUS
 10
-4.7476387933
 20
-19.7
 11
-4.7476387933
 21
-19.9523802452
  0
LINE
  5
50D
100
AcDbEntity
  8
0
100
AcDbLine
 62
7
  6
CONTINUOUS
 10
-4.7437253933
 20
-20.9
 11
-4.7437253933
 21
-20.5
  0
LINE
  5
50E
100
AcDbEntity
  8
0
100
AcDbLine
 62
7
  6
CONTINUOUS
 10
-4.7437253933
 20
20.5
 11
-4.7437253933
 21
20.9
  0
LINE
  5
50F
100
AcDbEntity
  8
RACCORDO
100
AcDbLine
 62
7
  6
CONTINUOUS
 10
-4.5
 20
-24.9163621424
 11
-4.5
 21
-24.0202128587
  0
LINE
  5
510
100
AcDbEntity
  8
ASSI
100
AcDbLine
 62
7
  6
CONTINUOUS
 10
-4.5
 20
-18.2130903017
 11
-4.5
 21
-18.6
  0
LINE
  5
511
100
AcDbEntity
  8
RACCORDO
100
AcDbLine
 62
7
  6
CONTINUOUS
 10
-4.5
 20
24.0202128587
 11
-4.5
 21
24.9163621424
  0
LINE
  5
512
100
AcDbEntity
  8
0
100
AcDbLine
 62
7
  6
CONTINUOUS
 10
-4.4860316922
 20
18.2661694676
 11
-4.4860316922
 21
18.2130903017
  0
LINE
  5
513
100
AcDbEntity
  8
RACCORDO
100
AcDbLine
 62
253
  6
CONTINUOUS
 10
-4.3
 20
24.9781655413
 11
-4.3
 21
24.5977429348
  0
LINE
  5
514
100
AcDbEntity
  8
RACCORDO
100
AcDbLine
 62
253
  6
CONTINUOUS
 10
-4.3
 20
-24.9781655413
 11
-4.3
 21
-24.5977429348
  0
LINE
  5
515
100
AcDbEntity
  8
RACCORDO
100
AcDbLine
 62
7
  6
CONTINUOUS
 10
-4.0130903017
 20
19.3131017248
 11
-4.0130903017
 21
18.5130788786
  0
LINE
  5
516
100
AcDbEntity
  8
ASSI
100
AcDbLine
 62
7
  6
CONTINUOUS
 10
-4.0130903017
 20
19.3131017248
 11
-4.0130903017
 21
18.5130788786
  0
LINE
  5
517
100
AcDbEntity
  8
RACCORDO
100
AcDbLine
 62
7
  6
CONTINUOUS
 10
-4.0130903017
 20
-19.3131017248
 11
-4.0130903017
 21
-18.2130903017
  0
LINE
  5
518
100
AcDbEntity
  8
ASSI
100
AcDbLine
 62
7
  6
CONTINUOUS
 10
-4.0130903017
 20
-19.3131017248
 11
-4.0130903017
 21
-18.2130903017
  0
LINE
  5
519
100
AcDbEntity
  8
CURVE
100
AcDbLine
 62
253
  6
CONTINUOUS
 10
-4.0
 20
-2.6
 11
-4.0
 21
-3.4
  0
LINE
  5
51A
100
AcDbEntity
  8
CURVE
100
AcDbLine
 62
253
  6
CONTINUOUS
 10
-4.0
 20
-8.4714287043
 11
-4.0
 21
-8.8428570986
  0
LINE
  5
51B
100
AcDbEntity
  8
CURVE
100
AcDbLine
 62
253
  6
CONTINUOUS
 10
-4.0
 20
-14.2285716057
 11
-4.0
 21
-14.6928574085
  0
LINE
  5
51C
100
AcDbEntity
  8
CURVE
100
AcDbLine
 62
253
  6
CONTINUOUS
 10
-4.0
 20
-15.0642858028
 11
-4.0
 21
-15.6214283943
  0
LINE
  5
51D
100
AcDbEntity
  8
CURVE
100
AcDbLine
 62
253
  6
CONTINUOUS
 10
-4.0
 20
-10.7928574085
 11
-4.0
 21
-10.7
  0
LINE
  5
51E
100
AcDbEntity
  8
CURVE
100
AcDbLine
 62
253
  6
CONTINUOUS
 10
-4.0
 20
-9.7714287043
 11
-4.0
 21
-9.6785712957
  0
LINE
  5
51F
100
AcDbEntity
  8
CURVE
100
AcDbLine
 62
253
  6
CONTINUOUS
 10
-4.0
 20
-6.8928570986
 11
-4.0
 21
-6.8
  0
LINE
  5
520
100
AcDbEntity
  8
ASSI
100
AcDbLine
 62
253
  6
CONTINUOUS
 10
-3.9911511448
 20
22.7007950439
 11
-3.9911511448
 21
21.0698928577
  0
LINE
  5
521
100
AcDbEntity
  8
ASSI
100
AcDbLine
 62
253
  6
CONTINUOUS
 10
-3.9911511448
 20
-21.0698928577
 11
-3.9911511448
 21
-22.7007950439
  0
LINE
  5
522
100
AcDbEntity
  8
DRAFT
100
AcDbLine
 62
7
  6
CONTINUOUS
 10
-3.9741071429
 20
23.25
 11
-3.9741071429
 21
22.5
  0
LINE
  5
523
100
AcDbEntity
  8
DRAFT
100
AcDbLine
 62
7
  6
CONTINUOUS
 10
-3.9741071429
 20
-22.5
 11
-3.9741071429
 21
-23.25
  0
LINE
  5
524
100
AcDbEntity
  8
RACCORDO
100
AcDbLine
 62
253
  6
CONTINUOUS
 10
-3.95
 20
22.931171455
 11
-3.95
 21
22.5507488485
  0
LINE
  5
525
100
AcDbEntity
  8
RACCORDO
100
AcDbLine
 62
253
  6
CONTINUOUS
 10
-3.95
 20
-22.931171455
 11
-3.95
 21
-22.5507488485
  0
LINE
  5
526
100
AcDbEntity
  8
ASSI
100
AcDbLine
 62
7
  6
CONTINUOUS
 10
-3.95
 20
-20.5
 11
-3.95
 21
-20.9
  0
LINE
  5
527
100
AcDbEntity
  8
ASSI
100
AcDbLine
 62
7
  6
CONTINUOUS
 10
-3.95
 20
20.5
 11
-3.95
 21
20.9
  0
LINE
  5
528
100
AcDbEntity
  8
DRAFT
100
AcDbLine
 62
7
  6
CONTINUOUS
 10
-3.9
 20
-22.3551229611
 11
-3.9
 21
-20.9808008909
  0
LINE
  5
529
100
AcDbEntity
  8
DRAFT
100
AcDbLine
 62
7
  6
CONTINUOUS
 10
-3.9
 20
20.9808008909
 11
-3.9
 21
22.3551229611
  0
LINE
  5
52A
100
AcDbEntity
  8
ASSI
100
AcDbLine
 62
7
  6
CONTINUOUS
 10
-3.75
 20
-20.5937742252
 11
-3.75
 21
-21.3999999965
  0
LINE
  5
52B
100
AcDbEntity
  8
RACCORDO
100
AcDbLine
 62
7
  6
CONTINUOUS
 10
-3.75
 20
-22.2559508647
 11
-3.75
 21
-22.8693680562
  0
LINE
  5
52C
100
AcDbEntity
  8
0
100
AcDbLine
 62
7
  6
CONTINUOUS
 10
-3.75
 20
-21.3999999968
 11
-3.75
 21
-22.2559508647
  0
LINE
  5
52D
100
AcDbEntity
  8
ASSI
100
AcDbLine
 62
7
  6
CONTINUOUS
 10
-3.75
 20
20.5937742252
 11
-3.75
 21
21.3999999965
  0
LINE
  5
52E
100
AcDbEntity
  8
0
100
AcDbLine
 62
7
  6
CONTINUOUS
 10
-3.75
 20
21.3999999968
 11
-3.75
 21
22.2559508647
  0
LINE
  5
52F
100
AcDbEntity
  8
RACCORDO
100
AcDbLine
 62
7
  6
CONTINUOUS
 10
-3.75
 20
22.2559508647
 11
-3.75
 21
22.8693680562
  0
LINE
  5
530
100
AcDbEntity
  8
CURVE
100
AcDbLine
 62
253
  6
CONTINUOUS
 10
-3.7214285687
 20
-6.15
 11
-3.7214285687
 21
-5.5
  0
LINE
  5
531
100
AcDbEntity
  8
CURVE
100
AcDbLine
 62
253
  6
CONTINUOUS
 10
-3.5357142746
 20
-7.5428570986
 11
-3.5357142746
 21
-8.1
  0
LINE
  5
532
100
AcDbEntity
  8
DRAFT
100
AcDbLine
 62
7
  6
CONTINUOUS
 10
-3.5
 20
-19.9
 11
-3.5
 21
-19.7
  0
LINE
  5
533
100
AcDbEntity
  8
DRAFT
100
AcDbLine
 62
7
  6
CONTINUOUS
 10
-3.5
 20
19.7
 11
-3.5
 21
19.9
  0
LINE
  5
534
100
AcDbEntity
  8
0
100
AcDbLine
 62
7
  6
CONTINUOUS
 10
-4.519077436
 20
18.2661694676
 11
-4.5193050252
 21
18.2130903017
  0
LWPOLYLINE
  5
535
100
AcDbEntity
  8
RACCORDO
100
AcDbPolyline
 62
253
  6
CONTINUOUS
 90
40
 70
0
 10
-4.8698910976
 20
-19.8301279408
 10
-4.8701433801
 20
-19.8459710265
 10
-4.8708975611
 20
-19.8617982003
 10
-4.8721528832
 20
-19.8775935664
 10
-4.8739080856
 20
-19.8933412607
 10
-4.8761614055
 20
-19.9090254673
 10
-4.8789105798
 20
-19.9246304337
 10
-4.8821528474
 20
-19.9401404873
 10
-4.8858849519
 20
-19.9555400506
 10
-4.890103145
 20
-19.9708136573
 10
-4.8948031903
 20
-19.9859459674
 10
-4.8999803672
 20
-20.0009217829
 10
-4.9056294761
 20
-20.015726063
 10
-4.9117448433
 20
-20.030343939
 10
-4.918320327
 20
-20.0447607297
 10
-4.9253493232
 20
-20.0589619556
 10
-4.9328247722
 20
-20.0729333538
 10
-4.9407391661
 20
-20.0866608924
 10
-4.9490845563
 20
-20.1001307841
 10
-4.9578525611
 20
-20.1133295006
 10
-4.9670343744
 20
-20.1262437859
 10
-4.9766207745
 20
-20.1388606695
 10
-4.9866021335
 20
-20.1511674798
 10
-4.9969684265
 20
-20.1631518567
 10
-5.0077092423
 20
-20.1748017635
 10
-5.0188137935
 20
-20.1861055
 10
-5.0302709273
 20
-20.1970517132
 10
-5.0420691367
 20
-20.2076294094
 10
-5.0541965724
 20
-20.217827965
 10
-5.0666410543
 20
-20.2276371371
 10
-5.0793900838
 20
-20.2370470741
 10
-5.0924308565
 20
-20.246048325
 10
-5.1057502751
 20
-20.2546318496
 10
-5.1193349623
 20
-20.262789027
 10
-5.1331712745
 20
-20.2705116647
 10
-5.1472453152
 20
-20.2777920066
 10
-5.1615429493
 20
-20.2846227405
 10
-5.176049817
 20
-20.2909970062
 10
-5.1907513486
 20
-20.2969084018
 10
-5.2056327786
 20
-20.30235099
  0
LINE
  5
536
100
AcDbEntity
  8
ASSI
100
AcDbLine
 62
7
  6
CONTINUOUS
 10
-3.9911511448
 20
22.7007950439
 11
-3.9776785714
 21
23.25
  0
LWPOLYLINE
  5
537
100
AcDbEntity
  8
ASSI
100
AcDbPolyline
 62
7
  6
CONTINUOUS
 90
25
 70
0
 10
-3.75
 20
20.5937742252
 10
-3.7502460638
 20
20.5857998457
 10
-3.7510762028
 20
20.5781782758
 10
-3.7524904171
 20
20.5709105569
 10
-3.7544825384
 20
20.5639825071
 10
-3.757058735
 20
20.5574114053
 10
-3.7602375116
 20
20.5512383342
 10
-3.7640231342
 20
20.5454637724
 10
-3.7684113369
 20
20.5400731085
 10
-3.7734078266
 20
20.5350745545
 10
-3.7789851138
 20
20.5304724017
 10
-3.785170688
 20
20.5262400106
 10
-3.7920527242
 20
20.522342159
 10
-3.7995965948
 20
20.5187750503
 10
-3.8078369274
 20
20.5155338616
 10
-3.8169657805
 20
20.5125943337
 10
-3.8269612335
 20
20.5099525695
 10
-3.837845207
 20
20.5076176991
 10
-3.8498755206
 20
20.5055913889
 10
-3.8630138991
 20
20.5038724329
 10
-3.8772986178
 20
20.502466471
 10
-3.8931023227
 20
20.5013801219
 10
-3.910549229
 20
20.5006106994
 10
-3.9295151214
 20
20.5001519954
 10
-3.95
 20
20.5
  0
LINE
  5
538
100
AcDbEntity
  8
RACCORDO
100
AcDbLine
 62
7
  6
CONTINUOUS
 10
-5.6
 20
-20.9
 11
-5.6200514156
 21
-21.4741974154
  0
LWPOLYLINE
  5
539
100
AcDbEntity
  8
ASSI
100
AcDbPolyline
 62
7
  6
CONTINUOUS
 90
25
 70
0
 10
-3.75
 20
20.9520967918
 10
-3.7502460638
 20
20.9476665809
 10
-3.7510762028
 20
20.9434323754
 10
-3.7524904171
 20
20.9393947538
 10
-3.7544825384
 20
20.9355458373
 10
-3.757058735
 20
20.9318952252
 10
-3.7602375116
 20
20.9284657412
 10
-3.7640231342
 20
20.9252576513
 10
-3.7684113369
 20
20.9222628381
 10
-3.7734078266
 20
20.9194858636
 10
-3.7789851138
 20
20.9169291121
 10
-3.785170688
 20
20.9145777837
 10
-3.7920527242
 20
20.9124123106
 10
-3.7995965948
 20
20.9104305835
 10
-3.8078369274
 20
20.9086299231
 10
-3.8169657805
 20
20.906996852
 10
-3.8269612335
 20
20.9055292053
 10
-3.837845207
 20
20.9042320551
 10
-3.8498755206
 20
20.9031063272
 10
-3.8630138991
 20
20.9021513516
 10
-3.8772986178
 20
20.9013702616
 10
-3.8931023227
 20
20.9007667344
 10
-3.910549229
 20
20.9003392774
 10
-3.9295151214
 20
20.9000844419
 10
-3.95
 20
20.9
  0
LWPOLYLINE
  5
53A
100
AcDbEntity
  8
RACCORDO
100
AcDbPolyline
 62
7
  6
CONTINUOUS
 90
25
 70
0
 10
-1.2
 20
24.0202128587
 10
-1.2004434029
 20
24.0161422934
 10
-1.2017243842
 20
24.0121232117
 10
-1.2038429439
 20
24.0081556138
 10
-1.206815281
 20
24.0042229977
 10
-1.2106251964
 20
24.0003418654
 10
-1.2152240935
 20
23.9965617219
 10
-1.2206220789
 20
23.992883861
 10
-1.2268090459
 20
23.9893069889
 10
-1.2337060775
 20
23.98587673
 10
-1.2413222697
 20
23.9825949623
 10
-1.2496485265
 20
23.9794598077
 10
-1.2585786438
 20
23.9765112563
 10
-1.2681203567
 20
23.9737516983
 10
-1.27826593
 20
23.9711787434
 10
-1.2888859534
 20
23.9688252106
 10
-1.2999865044
 20
23.9666939106
 10
-1.3115615055
 20
23.9647820327
 10
-1.3234633135
 20
23.9631139635
 10
-1.3356961147
 20
23.9616928261
 10
-1.3482557228
 20
23.9605154975
 10
-1.3609819356
 20
23.9595969948
 10
-1.3738213524
 20
23.9589423239
 10
-1.3868273738
 20
23.9585464789
 10
-1.4
 20
23.9584094599
  0
LINE
  5
53B
100
AcDbEntity
  8
SMUSSO
100
AcDbLine
 62
7
  6
CONTINUOUS
 10
-0.25
 20
6.75
 11
0.25
 21
7.25
  0
LINE
  5
53C
100
AcDbEntity
  8
ASSI
100
AcDbLine
 62
7
  6
CONTINUOUS
 10
-0.25
 20
6.75
 11
0.25
 21
7.25
  0
LINE
  5
53D
100
AcDbEntity
  8
SMUSSO
100
AcDbLine
 62
7
  6
CONTINUOUS
 10
4.75
 20
11.25
 11
4.25
 21
10.75
  0
LINE
  5
53E
100
AcDbEntity
  8
ASSI
100
AcDbLine
 62
7
  6
CONTINUOUS
 10
4.75
 20
11.25
 11
4.25
 21
10.75
  0
LINE
  5
53F
100
AcDbEntity
  8
CURVE
100
AcDbLine
 62
253
  6
CONTINUOUS
 10
10.1142857254
 20
10.9928570986
 11
9.9285714507
 21
10.9
  0
LINE
  5
540
100
AcDbEntity
  8
SMUSSO
100
AcDbLine
 62
7
  6
CONTINUOUS
 10
4.75
 20
-3.5
 11
-0.25
 21
-3.5
  0
LINE
  5
541
100
AcDbEntity
  8
ASSI
100
AcDbLine
 62
7
  6
CONTINUOUS
 10
4.75
 20
-3.5
 11
-0.25
 21
-3.5
  0
LINE
  5
542
100
AcDbEntity
  8
0
100
AcDbLine
 62
7
  6
CONTINUOUS
 10
-3.4253198711
 20
20.1935816995
 11
-3.4272640188
 21
20.2428855797
  0
LINE
  5
543
100
AcDbEntity
  8
ASSI
100
AcDbLine
 62
7
  6
CONTINUOUS
 10
-4.17252507
 20
21.0742164539
 11
-4.1727201634
 21
21.0798031965
  0
LINE
  5
544
100
AcDbEntity
  8
RACCORDO
100
AcDbLine
 62
7
  6
CONTINUOUS
 10
-4.1681048807
 20
20.9476387933
 11
-4.17252507
 21
21.0742164539
  0
LINE
  5
545
100
AcDbEntity
  8
0
100
AcDbLine
 62
7
  6
CONTINUOUS
 10
-3.4272640188
 20
20.2428855797
 11
-3.4301803137
 21
20.3309531512
  0
LINE
  5
546
100
AcDbEntity
  8
0
100
AcDbLine
 62
7
  6
CONTINUOUS
 10
-3.4301803137
 20
20.3309531512
 11
-3.4350408113
 21
20.5
  0
LINE
  5
547
100
AcDbEntity
  8
DRAFT
100
AcDbLine
 62
7
  6
CONTINUOUS
 10
-3.4633443637
 20
-19.8633443637
 11
-3.4633443637
 21
-19.6633443637
  0
LINE
  5
548
100
AcDbEntity
  8
DRAFT
100
AcDbLine
 62
7
  6
CONTINUOUS
 10
-3.4633443637
 20
19.6633443637
 11
-3.4633443637
 21
19.8633443637
  0
LINE
  5
549
100
AcDbEntity
  8
0
100
AcDbLine
 62
7
  6
CONTINUOUS
 10
-3.4175430786
 20
20.5
 11
-3.4175430786
 21
20.1
  0
LINE
  5
54A
100
AcDbEntity
  8
0
100
AcDbLine
 62
7
  6
CONTINUOUS
 10
-3.4175430786
 20
-20.5
 11
-3.4175430786
 21
-20.1
  0
LINE
  5
54B
100
AcDbEntity
  8
0
100
AcDbLine
 62
7
  6
CONTINUOUS
 10
-3.3388032814
 20
-20.1
 11
-3.3388032814
 21
-20.5
  0
LINE
  5
54C
100
AcDbEntity
  8
0
100
AcDbLine
 62
7
  6
CONTINUOUS
 10
-3.3388032814
 20
20.1
 11
-3.3388032814
 21
20.5
  0
LINE
  5
54D
100
AcDbEntity
  8
CURVE
100
AcDbLine
 62
253
  6
CONTINUOUS
 10
-3.2571428239
 20
-15.4357141972
 11
-3.2571428239
 21
-15.0642858028
  0
LINE
  5
54E
100
AcDbEntity
  8
CURVE
100
AcDbLine
 62
253
  6
CONTINUOUS
 10
-3.2571428239
 20
-8.8428570986
 11
-3.2571428239
 21
-8.4714287043
  0
LINE
  5
54F
100
AcDbEntity
  8
CURVE
100
AcDbLine
 62
253
  6
CONTINUOUS
 10
-2.7
 20
-6.8
 11
-2.7
 21
-6.8928570986
  0
LINE
  5
550
100
AcDbEntity
  8
CURVE
100
AcDbLine
 62
253
  6
CONTINUOUS
 10
-2.7
 20
-8.4714287043
 11
-2.7
 21
-9.0285712957
  0
LINE
  5
551
100
AcDbEntity
  8
CURVE
100
AcDbLine
 62
253
  6
CONTINUOUS
 10
-2.7
 20
-9.6785712957
 11
-2.7
 21
-9.7714287043
  0
LINE
  5
552
100
AcDbEntity
  8
CURVE
100
AcDbLine
 62
253
  6
CONTINUOUS
 10
-2.7
 20
-10.7
 11
-2.7
 21
-10.7928574085
  0
LINE
  5
553
100
AcDbEntity
  8
CURVE
100
AcDbLine
 62
253
  6
CONTINUOUS
 10
-2.7
 20
-15.0642858028
 11
-2.7
 21
-15.6214283943
  0
LINE
  5
554
100
AcDbEntity
  8
0
100
AcDbLine
 62
7
  6
CONTINUOUS
 10
-2.5
 20
-18.3
 11
-2.5
 21
-16.6
  0
LINE
  5
555
100
AcDbEntity
  8
ASSI
100
AcDbLine
 62
7
  6
CONTINUOUS
 10
-2.5
 20
-18.3
 11
-2.5
 21
-16.6
  0
LINE
  5
556
100
AcDbEntity
  8
0
100
AcDbLine
 62
7
  6
CONTINUOUS
 10
-2.5
 20
16.6
 11
-2.5
 21
18.3
  0
LINE
  5
557
100
AcDbEntity
  8
ASSI
100
AcDbLine
 62
7
  6
CONTINUOUS
 10
-2.5
 20
16.6
 11
-2.5
 21
18.3
  0
LINE
  5
558
100
AcDbEntity
  8
RACCORDO
100
AcDbLine
 62
253
  6
CONTINUOUS
 10
-2.1464466094
 20
18.2325400167
 11
-2.1464466094
 21
18.3
  0
LINE
  5
559
100
AcDbEntity
  8
0
100
AcDbLine
 62
7
  6
CONTINUOUS
 10
-2.1
 20
18.2
 11
-2.1
 21
18.232181202
  0
LINE
  5
55A
100
AcDbEntity
  8
RACCORDO
100
AcDbLine
 62
7
  6
CONTINUOUS
 10
-2.0
 20
18.2
 11
-2.0
 21
18.2330485889
  0
LINE
  5
55B
100
AcDbEntity
  8
RACCORDO
100
AcDbLine
 62
7
  6
CONTINUOUS
 10
-1.9825893107
 20
-18.3
 11
-1.9825893107
 21
-18.2
  0
LINE
  5
55C
100
AcDbEntity
  8
ASSI
100
AcDbLine
 62
7
  6
CONTINUOUS
 10
-1.9825893107
 20
-18.3
 11
-1.9825893107
 21
-18.2
  0
LINE
  5
55D
100
AcDbEntity
  8
RACCORDO
100
AcDbLine
 62
7
  6
CONTINUOUS
 10
-1.9040044543
 20
18.2
 11
-1.9040044543
 21
18.3
  0
LINE
  5
55E
100
AcDbEntity
  8
ASSI
100
AcDbLine
 62
7
  6
CONTINUOUS
 10
-1.9040044543
 20
18.2
 11
-1.9040044543
 21
18.3
  0
LINE
  5
55F
100
AcDbEntity
  8
RACCORDO
100
AcDbLine
 62
253
  6
CONTINUOUS
 10
-1.7
 20
-17.3
 11
-1.7
 21
-17.25
  0
LINE
  5
560
100
AcDbEntity
  8
RACCORDO
100
AcDbLine
 62
253
  6
CONTINUOUS
 10
-1.7
 20
17.25
 11
-1.7
 21
17.3159679184
  0
LINE
  5
561
100
AcDbEntity
  8
0
100
AcDbLine
 62
7
  6
CONTINUOUS
 10
-3.4350408113
 20
-20.5
 11
-3.4301803137
 21
-20.3309531512
  0
LINE
  5
562
100
AcDbEntity
  8
RACCORDO
100
AcDbLine
 62
7
  6
CONTINUOUS
 10
-4.17252507
 20
-21.0742164539
 11
-4.1681048807
 21
-20.9476387933
  0
LINE
  5
563
100
AcDbEntity
  8
ASSI
100
AcDbLine
 62
7
  6
CONTINUOUS
 10
-4.17252507
 20
-21.0742164539
 11
-4.1727201634
 21
-21.0798031965
  0
LINE
  5
564
100
AcDbEntity
  8
0
100
AcDbLine
 62
7
  6
CONTINUOUS
 10
-3.4301803137
 20
-20.3309531512
 11
-3.4272640188
 21
-20.2428855797
  0
LWPOLYLINE
  5
565
100
AcDbEntity
  8
0
100
AcDbPolyline
 62
7
  6
CONTINUOUS
 90
10
 70
0
 10
-3.4272640188
 20
-20.2428855797
 10
-3.4253198711
 20
-20.1935816995
 10
-3.4243477972
 20
-20.1723382485
 10
-3.4233757052
 20
-20.1535889578
 10
-3.4224035762
 20
-20.1374766726
 10
-3.4214314291
 20
-20.1241234428
 10
-3.4204593019
 20
-20.1136303427
 10
-3.4194872075
 20
-20.1060773343
 10
-3.4185151331
 20
-20.1015222638
 10
-3.4175430786
 20
-20.1
  0
LWPOLYLINE
  5
566
100
AcDbEntity
  8
RACCORDO
100
AcDbPolyline
 62
7
  6
CONTINUOUS
 90
25
 70
0
 10
-4.5
 20
-24.0202128587
 10
-4.4995565971
 20
-24.0161422934
 10
-4.4982756158
 20
-24.0121232117
 10
-4.4961570561
 20
-24.0081556138
 10
-4.493184719
 20
-24.0042229977
 10
-4.4893748036
 20
-24.0003418654
 10
-4.4847759065
 20
-23.9965617219
 10
-4.4793779211
 20
-23.992883861
 10
-4.4731909541
 20
-23.9893069889
 10
-4.4662939225
 20
-23.98587673
 10
-4.4586777303
 20
-23.9825949623
 10
-4.4503514735
 20
-23.9794598077
 10
-4.4414213562
 20
-23.9765112563
 10
-4.4318796433
 20
-23.9737516983
 10
-4.42173407
 20
-23.9711787434
 10
-4.4111140466
 20
-23.9688252106
 10
-4.4000134956
 20
-23.9666939106
 10
-4.3884384945
 20
-23.9647820327
 10
-4.3765366865
 20
-23.9631139635
 10
-4.3643038853
 20
-23.9616928261
 10
-4.3517442772
 20
-23.9605154975
 10
-4.3390180644
 20
-23.9595969948
 10
-4.3261786476
 20
-23.9589423239
 10
-4.3131726262
 20
-23.9585464789
 10
-4.3
 20
-23.9584094599
  0
LWPOLYLINE
  5
567
100
AcDbEntity
  8
RACCORDO
100
AcDbPolyline
 62
253
  6
CONTINUOUS
 90
5
 70
0
 10
1.9955473619
 20
17.503941282
 10
1.9822464458
 20
17.4590629059
 10
1.9603851756
 20
17.4167346696
 10
1.930459935
 20
17.3782135783
 10
1.8933221907
 20
17.3448141709
  0
LINE
  5
568
100
AcDbEntity
  8
RACCORDO
100
AcDbLine
 62
7
  6
CONTINUOUS
 10
1.9905723476
 20
18.2316174985
 11
1.981003484
 21
18.2
  0
LINE
  5
569
100
AcDbEntity
  8
0
100
AcDbLine
 62
7
  6
CONTINUOUS
 10
-11.15
 20
-8.0023651948
 11
-11.1825449351
 21
-8.0349101299
  0
LINE
  5
56A
100
AcDbEntity
  8
CURVE
100
AcDbLine
 62
253
  6
CONTINUOUS
 10
10.1142857254
 20
12.85
 11
10.3
 21
13.0357142746
  0
LINE
  5
56B
100
AcDbEntity
  8
CURVE
100
AcDbLine
 62
253
  6
CONTINUOUS
 10
-6.3485281374
 20
-3.8485281374
 11
-6.5606601718
 21
-4.0606601718
  0
LINE
  5
56C
100
AcDbEntity
  8
CURVE
100
AcDbLine
 62
253
  6
CONTINUOUS
 10
9.5571428627
 20
11.9214285493
 11
9.7428571761
 21
12.1071429014
  0
LINE
  5
56D
100
AcDbEntity
  8
CURVE
100
AcDbLine
 62
253
  6
CONTINUOUS
 10
10.1142857254
 20
11.9523809671
 11
10.3
 21
12.1071429014
  0
LINE
  5
56E
100
AcDbEntity
  8
CURVE
100
AcDbLine
 62
253
  6
CONTINUOUS
 10
-4.0
 20
-3.4
 11
-4.583484861
 21
-3.4
  0
LINE
  5
56F
100
AcDbEntity
  8
RACCORDO
100
AcDbLine
 62
7
  6
CONTINUOUS
 10
-10.7130788782
 20
-3.15
 11
-9.8
 21
-3.15
  0
LINE
  5
570
100
AcDbEntity
  8
ASSI
100
AcDbLine
 62
7
  6
CONTINUOUS
 10
-10.7130788782
 20
-3.15
 11
-9.8
 21
-3.15
  0
LINE
  5
571
100
AcDbEntity
  8
SMUSSO
100
AcDbLine
 62
7
  6
CONTINUOUS
 10
4.25
 20
-3.0
 11
0.25
 21
-3.0
  0
LINE
  5
572
100
AcDbEntity
  8
ASSI
100
AcDbLine
 62
7
  6
CONTINUOUS
 10
4.25
 20
-3.0
 11
0.25
 21
-3.0
  0
LINE
  5
573
100
AcDbEntity
  8
CURVE
100
AcDbLine
 62
253
  6
CONTINUOUS
 10
-6.7
 20
-3.0
 11
-7.0
 21
-3.0
  0
LINE
  5
574
100
AcDbEntity
  8
CURVE
100
AcDbLine
 62
253
  6
CONTINUOUS
 10
-4.583484861
 20
-2.6
 11
-4.0
 21
-2.6
  0
LINE
  5
575
100
AcDbEntity
  8
0
100
AcDbLine
 62
7
  6
CONTINUOUS
 10
0.6
 20
-2.5
 11
3.6
 21
-2.5
  0
LINE
  5
576
100
AcDbEntity
  8
CURVE
100
AcDbLine
 62
253
  6
CONTINUOUS
 10
7.3905444566
 20
-1.6215063509
 11
7.8905444566
 21
-1.6215063509
  0
LINE
  5
577
100
AcDbEntity
  8
0
100
AcDbLine
 62
7
  6
CONTINUOUS
 10
-11.15
 20
8.0023651948
 11
-11.1825449351
 21
8.0349101299
  0
LINE
  5
578
100
AcDbEntity
  8
RACCORDO
100
AcDbLine
 62
253
  6
CONTINUOUS
 10
1.9819077862
 20
-17.4582263652
 11
1.9954423259
 21
-17.5034053045
  0
LWPOLYLINE
  5
579
100
AcDbEntity
  8
RACCORDO
100
AcDbPolyline
 62
7
  6
CONTINUOUS
 90
25
 70
0
 10
1.2
 20
-24.5359395359
 10
1.2004434029
 20
-24.5400101013
 10
1.2017243842
 20
-24.5440291829
 10
1.2038429439
 20
-24.5479967809
 10
1.206815281
 20
-24.5519293969
 10
1.2106251964
 20
-24.5558105293
 10
1.2152240935
 20
-24.5595906727
 10
1.2206220789
 20
-24.5632685337
 10
1.2268090459
 20
-24.5668454057
 10
1.2337060775
 20
-24.5702756646
 10
1.2413222697
 20
-24.5735574323
 10
1.2496485265
 20
-24.5766925869
 10
1.2585786438
 20
-24.5796411384
 10
1.2681203567
 20
-24.5824006963
 10
1.27826593
 20
-24.5849736512
 10
1.2888859534
 20
-24.587327184
 10
1.2999865044
 20
-24.589458484
 10
1.3115615055
 20
-24.591370362
 10
1.3234633135
 20
-24.5930384312
 10
1.3356961147
 20
-24.5944595685
 10
1.3482557228
 20
-24.5956368971
 10
1.3609819356
 20
-24.5965553998
 10
1.3738213524
 20
-24.5972100708
 10
1.3868273738
 20
-24.5976059158
 10
1.4
 20
-24.5977429348
  0
LWPOLYLINE
  5
57A
100
AcDbEntity
  8
RACCORDO
100
AcDbPolyline
 62
7
  6
CONTINUOUS
 90
25
 70
0
 10
-3.75
 20
22.4889454496
 10
-3.7504434029
 20
22.493016015
 10
-3.7517243842
 20
22.4970350967
 10
-3.7538429439
 20
22.5010026946
 10
-3.756815281
 20
22.5049353107
 10
-3.7606251964
 20
22.508816443
 10
-3.7652240935
 20
22.5125965865
 10
-3.7706220789
 20
22.5162744474
 10
-3.7768090459
 20
22.5198513194
 10
-3.7837060775
 20
22.5232815784
 10
-3.7913222697
 20
22.5265633461
 10
-3.7996485265
 20
22.5296985006
 10
-3.8085786438
 20
22.5326470521
 10
-3.8181203567
 20
22.5354066101
 10
-3.82826593
 20
22.5379795649
 10
-3.8388859534
 20
22.5403330977
 10
-3.8499865044
 20
22.5424643977
 10
-3.8615615055
 20
22.5443762757
 10
-3.8734633135
 20
22.5460443449
 10
-3.8856961147
 20
22.5474654822
 10
-3.8982557228
 20
22.5486428109
 10
-3.9109819356
 20
22.5495613135
 10
-3.9238213524
 20
22.5502159845
 10
-3.9368273738
 20
22.5506118295
 10
-3.95
 20
22.5507488485
  0
LINE
  5
57B
100
AcDbEntity
  8
0
100
AcDbLine
 62
253
  6
CONTINUOUS
 10
-1.4996298086
 20
-20.5
 11
-1.5015242349
 21
-19.8844866796
  0
LINE
  5
57C
100
AcDbEntity
  8
RACCORDO
100
AcDbLine
 62
253
  6
CONTINUOUS
 10
-1.4
 20
24.9781655413
 11
-1.4
 21
24.5977429348
  0
LINE
  5
57D
100
AcDbEntity
  8
RACCORDO
100
AcDbLine
 62
253
  6
CONTINUOUS
 10
-1.4
 20
-24.9781655413
 11
-1.4
 21
-24.5977429348
  0
LINE
  5
57E
100
AcDbEntity
  8
RACCORDO
100
AcDbLine
 62
7
  6
CONTINUOUS
 10
-1.2
 20
24.9163621424
 11
-1.2
 21
24.0202128587
  0
LINE
  5
57F
100
AcDbEntity
  8
RACCORDO
100
AcDbLine
 62
7
  6
CONTINUOUS
 10
-1.2
 20
-24.0202128587
 11
-1.2
 21
-24.9163621424
  0
LINE
  5
580
100
AcDbEntity
  8
SMUSSO
100
AcDbLine
 62
7
  6
CONTINUOUS
 10
-0.25
 20
-3.5
 11
-0.25
 21
1.5
  0
LINE
  5
581
100
AcDbEntity
  8
ASSI
100
AcDbLine
 62
7
  6
CONTINUOUS
 10
-0.25
 20
-3.5
 11
-0.25
 21
1.5
  0
LINE
  5
582
100
AcDbEntity
  8
SMUSSO
100
AcDbLine
 62
7
  6
CONTINUOUS
 10
-0.25
 20
1.75
 11
-0.25
 21
6.25
  0
LINE
  5
583
100
AcDbEntity
  8
ASSI
100
AcDbLine
 62
7
  6
CONTINUOUS
 10
-0.25
 20
1.75
 11
-0.25
 21
6.25
  0
LINE
  5
584
100
AcDbEntity
  8
SMUSSO
100
AcDbLine
 62
7
  6
CONTINUOUS
 10
-0.25
 20
6.75
 11
-0.25
 21
11.25
  0
LINE
  5
585
100
AcDbEntity
  8
ASSI
100
AcDbLine
 62
7
  6
CONTINUOUS
 10
-0.25
 20
6.75
 11
-0.25
 21
11.25
  0
LINE
  5
586
100
AcDbEntity
  8
SMUSSO
100
AcDbLine
 62
7
  6
CONTINUOUS
 10
-0.25
 20
11.75
 11
-0.25
 21
16.25
  0
LINE
  5
587
100
AcDbEntity
  8
ASSI
100
AcDbLine
 62
7
  6
CONTINUOUS
 10
-0.25
 20
11.75
 11
-0.25
 21
16.25
  0
LINE
  5
588
100
AcDbEntity
  8
SMUSSO
100
AcDbLine
 62
7
  6
CONTINUOUS
 10
0.25
 20
-3.0
 11
0.25
 21
1.0
  0
LINE
  5
589
100
AcDbEntity
  8
ASSI
100
AcDbLine
 62
7
  6
CONTINUOUS
 10
0.25
 20
-3.0
 11
0.25
 21
1.0
  0
LINE
  5
58A
100
AcDbEntity
  8
SMUSSO
100
AcDbLine
 62
7
  6
CONTINUOUS
 10
0.25
 20
2.25
 11
0.25
 21
5.75
  0
LINE
  5
58B
100
AcDbEntity
  8
ASSI
100
AcDbLine
 62
7
  6
CONTINUOUS
 10
0.25
 20
2.25
 11
0.25
 21
5.75
  0
LINE
  5
58C
100
AcDbEntity
  8
SMUSSO
100
AcDbLine
 62
7
  6
CONTINUOUS
 10
0.25
 20
7.25
 11
0.25
 21
10.75
  0
LINE
  5
58D
100
AcDbEntity
  8
ASSI
100
AcDbLine
 62
7
  6
CONTINUOUS
 10
0.25
 20
7.25
 11
0.25
 21
10.75
  0
LINE
  5
58E
100
AcDbEntity
  8
SMUSSO
100
AcDbLine
 62
7
  6
CONTINUOUS
 10
0.25
 20
12.25
 11
0.25
 21
15.75
  0
LINE
  5
58F
100
AcDbEntity
  8
ASSI
100
AcDbLine
 62
7
  6
CONTINUOUS
 10
0.25
 20
12.25
 11
0.25
 21
15.75
  0
LINE
  5
590
100
AcDbEntity
  8
0
100
AcDbLine
 62
253
  6
CONTINUOUS
 10
-1.5015242349
 20
19.8844866796
 11
-1.4996298086
 21
20.5
  0
LWPOLYLINE
  5
591
100
AcDbEntity
  8
RACCORDO
100
AcDbPolyline
 62
7
  6
CONTINUOUS
 90
25
 70
0
 10
1.2
 20
24.9163621424
 10
1.2004434029
 20
24.9204327078
 10
1.2017243842
 20
24.9244517894
 10
1.2038429439
 20
24.9284193874
 10
1.206815281
 20
24.9323520034
 10
1.2106251964
 20
24.9362331358
 10
1.2152240935
 20
24.9400132792
 10
1.2206220789
 20
24.9436911402
 10
1.2268090459
 20
24.9472680122
 10
1.2337060775
 20
24.9506982711
 10
1.2413222697
 20
24.9539800388
 10
1.2496485265
 20
24.9571151934
 10
1.2585786438
 20
24.9600637449
 10
1.2681203567
 20
24.9628233029
 10
1.27826593
 20
24.9653962577
 10
1.2888859534
 20
24.9677497905
 10
1.2999865044
 20
24.9698810905
 10
1.3115615055
 20
24.9717929685
 10
1.3234633135
 20
24.9734610377
 10
1.3356961147
 20
24.974882175
 10
1.3482557228
 20
24.9760595037
 10
1.3609819356
 20
24.9769780063
 10
1.3738213524
 20
24.9776326773
 10
1.3868273738
 20
24.9780285223
 10
1.4
 20
24.9781655413
  0
LWPOLYLINE
  5
592
100
AcDbEntity
  8
RACCORDO
100
AcDbPolyline
 62
7
  6
CONTINUOUS
 90
25
 70
0
 10
-3.75
 20
-22.8693680562
 10
-3.7504434029
 20
-22.8734386215
 10
-3.7517243842
 20
-22.8774577032
 10
-3.7538429439
 20
-22.8814253011
 10
-3.756815281
 20
-22.8853579172
 10
-3.7606251964
 20
-22.8892390495
 10
-3.7652240935
 20
-22.893019193
 10
-3.7706220789
 20
-22.8966970539
 10
-3.7768090459
 20
-22.900273926
 10
-3.7837060775
 20
-22.9037041849
 10
-3.7913222697
 20
-22.9069859526
 10
-3.7996485265
 20
-22.9101211071
 10
-3.8085786438
 20
-22.9130696586
 10
-3.8181203567
 20
-22.9158292166
 10
-3.82826593
 20
-22.9184021715
 10
-3.8388859534
 20
-22.9207557043
 10
-3.8499865044
 20
-22.9228870043
 10
-3.8615615055
 20
-22.9247988822
 10
-3.8734633135
 20
-22.9264669514
 10
-3.8856961147
 20
-22.9278880888
 10
-3.8982557228
 20
-22.9290654174
 10
-3.9109819356
 20
-22.9299839201
 10
-3.9238213524
 20
-22.930638591
 10
-3.9368273738
 20
-22.931034436
 10
-3.95
 20
-22.931171455
  0
LINE
  5
593
100
AcDbEntity
  8
CURVE
100
AcDbLine
 62
253
  6
CONTINUOUS
 10
9.0
 20
11.2714285493
 11
9.185714294
 21
11.4571429014
  0
LINE
  5
594
100
AcDbEntity
  8
0
100
AcDbLine
 62
7
  6
CONTINUOUS
 10
-11.1825449351
 20
-8.9982544935
 11
-11.1842904416
 21
-9.0
  0
LINE
  5
595
100
AcDbEntity
  8
SMUSSO
100
AcDbLine
 62
7
  6
CONTINUOUS
 10
-0.25
 20
1.75
 11
0.25
 21
2.25
  0
LINE
  5
596
100
AcDbEntity
  8
ASSI
100
AcDbLine
 62
7
  6
CONTINUOUS
 10
-0.25
 20
1.75
 11
0.25
 21
2.25
  0
LINE
  5
597
100
AcDbEntity
  8
SMUSSO
100
AcDbLine
 62
7
  6
CONTINUOUS
 10
4.75
 20
6.25
 11
4.25
 21
5.75
  0
LINE
  5
598
100
AcDbEntity
  8
ASSI
100
AcDbLine
 62
7
  6
CONTINUOUS
 10
4.75
 20
6.25
 11
4.25
 21
5.75
  0
LINE
  5
599
100
AcDbEntity
  8
CURVE
100
AcDbLine
 62
253
  6
CONTINUOUS
 10
-8.0
 20
-6.8
 11
-7.814285706
 21
-6.6142857254
  0
LINE
  5
59A
100
AcDbEntity
  8
CURVE
100
AcDbLine
 62
253
  6
CONTINUOUS
 10
7.9
 20
8.8214285553
 11
7.6285714447
 21
8.55
  0
LINE
  5
59B
100
AcDbEntity
  8
CURVE
100
AcDbLine
 62
253
  6
CONTINUOUS
 10
10.3
 20
11.1785714507
 11
10.1142857254
 21
10.9928570986
  0
LINE
  5
59C
100
AcDbEntity
  8
CURVE
100
AcDbLine
 62
253
  6
CONTINUOUS
 10
-6.7
 20
-6.8928570986
 11
-6.8857142746
 21
-7.0785714507
  0
LINE
  5
59D
100
AcDbEntity
  8
CURVE
100
AcDbLine
 62
253
  6
CONTINUOUS
 10
9.185714294
 20
5.3595238686
 11
9.371428588
 21
5.4523806572
  0
LINE
  5
59E
100
AcDbEntity
  8
CURVE
100
AcDbLine
 62
253
  6
CONTINUOUS
 10
7.9
 20
4.6
 11
6.0
 21
3.65
  0
LINE
  5
59F
100
AcDbEntity
  8
CURVE
100
AcDbLine
 62
253
  6
CONTINUOUS
 10
10.1142857254
 20
4.8952380657
 11
9.9285714507
 21
4.8023806572
  0
LINE
  5
5A0
100
AcDbEntity
  8
CURVE
100
AcDbLine
 62
253
  6
CONTINUOUS
 10
10.0
 20
-0.1875
 11
9.9375
 21
-0.1875
  0
LINE
  5
5A1
100
AcDbEntity
  8
CURVE
100
AcDbLine
 62
253
  6
CONTINUOUS
 10
9.125
 20
0.0
 11
8.9375
 21
0.0
  0
LINE
  5
5A2
100
AcDbEntity
  8
0
100
AcDbLine
 62
7
  6
CONTINUOUS
 10
-11.1825449351
 20
8.9982544935
 11
-11.1842904416
 21
9.0
  0
LINE
  5
5A3
100
AcDbEntity
  8
RACCORDO
100
AcDbLine
 62
7
  6
CONTINUOUS
 10
-11.1825449351
 20
10.3418921558
 11
-11.15
 21
10.3093472208
  0
LINE
  5
5A4
100
AcDbEntity
  8
ASSI
100
AcDbLine
 62
7
  6
CONTINUOUS
 10
-11.1825449351
 20
10.3418921558
 11
-11.15
 21
10.3093472208
  0
LWPOLYLINE
  5
5A5
100
AcDbEntity
  8
RACCORDO
100
AcDbPolyline
 62
7
  6
CONTINUOUS
 90
25
 70
0
 10
3.75
 20
-22.4889454496
 10
3.7504434029
 20
-22.493016015
 10
3.7517243842
 20
-22.4970350967
 10
3.7538429439
 20
-22.5010026946
 10
3.756815281
 20
-22.5049353107
 10
3.7606251964
 20
-22.508816443
 10
3.7652240935
 20
-22.5125965865
 10
3.7706220789
 20
-22.5162744474
 10
3.7768090459
 20
-22.5198513194
 10
3.7837060775
 20
-22.5232815784
 10
3.7913222697
 20
-22.5265633461
 10
3.7996485265
 20
-22.5296985006
 10
3.8085786438
 20
-22.5326470521
 10
3.8181203567
 20
-22.5354066101
 10
3.82826593
 20
-22.5379795649
 10
3.8388859534
 20
-22.5403330977
 10
3.8499865044
 20
-22.5424643977
 10
3.8615615055
 20
-22.5443762757
 10
3.8734633135
 20
-22.5460443449
 10
3.8856961147
 20
-22.5474654822
 10
3.8982557228
 20
-22.5486428109
 10
3.9109819356
 20
-22.5495613135
 10
3.9238213524
 20
-22.5502159845
 10
3.9368273738
 20
-22.5506118295
 10
3.95
 20
-22.5507488485
  0
LWPOLYLINE
  5
5A6
100
AcDbEntity
  8
RACCORDO
100
AcDbPolyline
 62
7
  6
CONTINUOUS
 90
25
 70
0
 10
-1.2
 20
24.5359395359
 10
-1.2004434029
 20
24.5400101013
 10
-1.2017243842
 20
24.5440291829
 10
-1.2038429439
 20
24.5479967809
 10
-1.206815281
 20
24.5519293969
 10
-1.2106251964
 20
24.5558105293
 10
-1.2152240935
 20
24.5595906727
 10
-1.2206220789
 20
24.5632685337
 10
-1.2268090459
 20
24.5668454057
 10
-1.2337060775
 20
24.5702756646
 10
-1.2413222697
 20
24.5735574323
 10
-1.2496485265
 20
24.5766925869
 10
-1.2585786438
 20
24.5796411384
 10
-1.2681203567
 20
24.5824006963
 10
-1.27826593
 20
24.5849736512
 10
-1.2888859534
 20
24.587327184
 10
-1.2999865044
 20
24.589458484
 10
-1.3115615055
 20
24.591370362
 10
-1.3234633135
 20
24.5930384312
 10
-1.3356961147
 20
24.5944595685
 10
-1.3482557228
 20
24.5956368971
 10
-1.3609819356
 20
24.5965553998
 10
-1.3738213524
 20
24.5972100708
 10
-1.3868273738
 20
24.5976059158
 10
-1.4
 20
24.5977429348
  0
LINE
  5
5A7
100
AcDbEntity
  8
0
100
AcDbLine
 62
253
  6
CONTINUOUS
 10
1.4996298086
 20
20.5
 11
1.5015242349
 21
19.8844866796
  0
LINE
  5
5A8
100
AcDbEntity
  8
0
100
AcDbLine
 62
7
  6
CONTINUOUS
 10
0.6
 20
15.5
 11
0.6
 21
12.5
  0
LINE
  5
5A9
100
AcDbEntity
  8
0
100
AcDbLine
 62
7
  6
CONTINUOUS
 10
0.6
 20
10.5
 11
0.6
 21
7.5
  0
LINE
  5
5AA
100
AcDbEntity
  8
0
100
AcDbLine
 62
7
  6
CONTINUOUS
 10
0.6
 20
5.5
 11
0.6
 21
2.5
  0
LINE
  5
5AB
100
AcDbEntity
  8
0
100
AcDbLine
 62
7
  6
CONTINUOUS
 10
0.6
 20
0.5
 11
0.6
 21
-2.5
  0
LINE
  5
5AC
100
AcDbEntity
  8
RACCORDO
100
AcDbLine
 62
7
  6
CONTINUOUS
 10
1.2
 20
-24.9163621424
 11
1.2
 21
-24.0202128587
  0
LINE
  5
5AD
100
AcDbEntity
  8
RACCORDO
100
AcDbLine
 62
7
  6
CONTINUOUS
 10
1.2
 20
24.0202128587
 11
1.2
 21
24.9163621424
  0
LINE
  5
5AE
100
AcDbEntity
  8
RACCORDO
100
AcDbLine
 62
253
  6
CONTINUOUS
 10
1.4
 20
24.9781655413
 11
1.4
 21
24.5977429348
  0
LINE
  5
5AF
100
AcDbEntity
  8
RACCORDO
100
AcDbLine
 62
253
  6
CONTINUOUS
 10
1.4
 20
-24.9781655413
 11
1.4
 21
-24.5977429348
  0
LINE
  5
5B0
100
AcDbEntity
  8
RACCORDO
100
AcDbLine
 62
253
  6
CONTINUOUS
 10
1.7
 20
17.3159679184
 11
1.7
 21
17.25
  0
LINE
  5
5B1
100
AcDbEntity
  8
RACCORDO
100
AcDbLine
 62
253
  6
CONTINUOUS
 10
1.7
 20
-17.3
 11
1.7
 21
-17.25
  0
LINE
  5
5B2
100
AcDbEntity
  8
RACCORDO
100
AcDbLine
 62
7
  6
CONTINUOUS
 10
1.9040044543
 20
18.2
 11
1.9040044543
 21
18.3
  0
LINE
  5
5B3
100
AcDbEntity
  8
ASSI
100
AcDbLine
 62
7
  6
CONTINUOUS
 10
1.9040044543
 20
18.2
 11
1.9040044543
 21
18.3
  0
LINE
  5
5B4
100
AcDbEntity
  8
RACCORDO
100
AcDbLine
 62
7
  6
CONTINUOUS
 10
1.9825893107
 20
-18.3
 11
1.9825893107
 21
-18.2
  0
LINE
  5
5B5
100
AcDbEntity
  8
ASSI
100
AcDbLine
 62
7
  6
CONTINUOUS
 10
1.9825893107
 20
-18.3
 11
1.9825893107
 21
-18.2
  0
LINE
  5
5B6
100
AcDbEntity
  8
RACCORDO
100
AcDbLine
 62
7
  6
CONTINUOUS
 10
2.0
 20
18.2330485889
 11
2.0
 21
18.2
  0
LINE
  5
5B7
100
AcDbEntity
  8
0
100
AcDbLine
 62
7
  6
CONTINUOUS
 10
2.1
 20
18.2
 11
2.1
 21
18.232181202
  0
LINE
  5
5B8
100
AcDbEntity
  8
0
100
AcDbLine
 62
253
  6
CONTINUOUS
 10
1.5015242349
 20
-19.8844866796
 11
1.4996298086
 21
-20.5
  0
LWPOLYLINE
  5
5B9
100
AcDbEntity
  8
RACCORDO
100
AcDbPolyline
 62
7
  6
CONTINUOUS
 90
25
 70
0
 10
3.75
 20
22.8693680562
 10
3.7504434029
 20
22.8734386215
 10
3.7517243842
 20
22.8774577032
 10
3.7538429439
 20
22.8814253011
 10
3.756815281
 20
22.8853579172
 10
3.7606251964
 20
22.8892390495
 10
3.7652240935
 20
22.893019193
 10
3.7706220789
 20
22.8966970539
 10
3.7768090459
 20
22.900273926
 10
3.7837060775
 20
22.9037041849
 10
3.7913222697
 20
22.9069859526
 10
3.7996485265
 20
22.9101211071
 10
3.8085786438
 20
22.9130696586
 10
3.8181203567
 20
22.9158292166
 10
3.82826593
 20
22.9184021715
 10
3.8388859534
 20
22.9207557043
 10
3.8499865044
 20
22.9228870043
 10
3.8615615055
 20
22.9247988822
 10
3.8734633135
 20
22.9264669514
 10
3.8856961147
 20
22.9278880888
 10
3.8982557228
 20
22.9290654174
 10
3.9109819356
 20
22.9299839201
 10
3.9238213524
 20
22.930638591
 10
3.9368273738
 20
22.931034436
 10
3.95
 20
22.931171455
  0
LWPOLYLINE
  5
5BA
100
AcDbEntity
  8
RACCORDO
100
AcDbPolyline
 62
7
  6
CONTINUOUS
 90
25
 70
0
 10
-1.2
 20
-24.9163621424
 10
-1.2004434029
 20
-24.9204327078
 10
-1.2017243842
 20
-24.9244517894
 10
-1.2038429439
 20
-24.9284193874
 10
-1.206815281
 20
-24.9323520034
 10
-1.2106251964
 20
-24.9362331358
 10
-1.2152240935
 20
-24.9400132792
 10
-1.2206220789
 20
-24.9436911402
 10
-1.2268090459
 20
-24.9472680122
 10
-1.2337060775
 20
-24.9506982711
 10
-1.2413222697
 20
-24.9539800388
 10
-1.2496485265
 20
-24.9571151934
 10
-1.2585786438
 20
-24.9600637449
 10
-1.2681203567
 20
-24.9628233029
 10
-1.27826593
 20
-24.9653962577
 10
-1.2888859534
 20
-24.9677497905
 10
-1.2999865044
 20
-24.9698810905
 10
-1.3115615055
 20
-24.9717929685
 10
-1.3234633135
 20
-24.9734610377
 10
-1.3356961147
 20
-24.974882175
 10
-1.3482557228
 20
-24.9760595037
 10
-1.3609819356
 20
-24.9769780063
 10
-1.3738213524
 20
-24.9776326773
 10
-1.3868273738
 20
-24.9780285223
 10
-1.4
 20
-24.9781655413
  0
LWPOLYLINE
  5
5BB
100
AcDbEntity
  8
RACCORDO
100
AcDbPolyline
 62
7
  6
CONTINUOUS
 90
25
 70
0
 10
4.5
 20
24.0202128587
 10
4.4995565971
 20
24.0161422934
 10
4.4982756158
 20
24.0121232117
 10
4.4961570561
 20
24.0081556138
 10
4.493184719
 20
24.0042229977
 10
4.4893748036
 20
24.0003418654
 10
4.4847759065
 20
23.9965617219
 10
4.4793779211
 20
23.992883861
 10
4.4731909541
 20
23.9893069889
 10
4.4662939225
 20
23.98587673
 10
4.4586777303
 20
23.9825949623
 10
4.4503514735
 20
23.9794598077
 10
4.4414213562
 20
23.9765112563
 10
4.4318796433
 20
23.9737516983
 10
4.42173407
 20
23.9711787434
 10
4.4111140466
 20
23.9688252106
 10
4.4000134956
 20
23.9666939106
 10
4.3884384945
 20
23.9647820327
 10
4.3765366865
 20
23.9631139635
 10
4.3643038853
 20
23.9616928261
 10
4.3517442772
 20
23.9605154975
 10
4.3390180644
 20
23.9595969948
 10
4.3261786476
 20
23.9589423239
 10
4.3131726262
 20
23.9585464789
 10
4.3
 20
23.9584094599
  0
LINE
  5
5BC
100
AcDbEntity
  8
CURVE
100
AcDbLine
 62
253
  6
CONTINUOUS
 10
9.4952381045
 20
9.1976190329
 11
9.3095238104
 21
8.95
  0
LINE
  5
5BD
100
AcDbEntity
  8
RACCORDO
100
AcDbLine
 62
7
  6
CONTINUOUS
 10
11.15
 20
10.3093472208
 11
11.1825449351
 21
10.3418921558
  0
LINE
  5
5BE
100
AcDbEntity
  8
ASSI
100
AcDbLine
 62
7
  6
CONTINUOUS
 10
11.15
 20
10.3093472208
 11
11.1825449351
 21
10.3418921558
  0
LINE
  5
5BF
100
AcDbEntity
  8
CURVE
100
AcDbLine
 62
253
  6
CONTINUOUS
 10
-7.4428571373
 20
-9.0285712957
 11
-7.2571428239
 21
-8.8428570986
  0
LINE
  5
5C0
100
AcDbEntity
  8
CURVE
100
AcDbLine
 62
253
  6
CONTINUOUS
 10
-8.0
 20
-9.6785712957
 11
-7.814285706
 21
-9.4928570986
  0
LINE
  5
5C1
100
AcDbEntity
  8
0
100
AcDbLine
 62
7
  6
CONTINUOUS
 10
11.1825449351
 20
8.9982544935
 11
11.1842904416
 21
9.0
  0
LINE
  5
5C2
100
AcDbEntity
  8
CURVE
100
AcDbLine
 62
253
  6
CONTINUOUS
 10
-8.0
 20
-10.7
 11
-7.814285706
 21
-10.5142858028
  0
LINE
  5
5C3
100
AcDbEntity
  8
CURVE
100
AcDbLine
 62
253
  6
CONTINUOUS
 10
-4.0
 20
-6.8
 11
-3.814285706
 21
-6.6142857254
  0
LINE
  5
5C4
100
AcDbEntity
  8
0
100
AcDbLine
 62
7
  6
CONTINUOUS
 10
3.6
 20
0.5
 11
0.6
 21
0.5
  0
LINE
  5
5C5
100
AcDbEntity
  8
SMUSSO
100
AcDbLine
 62
7
  6
CONTINUOUS
 10
0.25
 20
1.0
 11
4.25
 21
1.0
  0
LINE
  5
5C6
100
AcDbEntity
  8
ASSI
100
AcDbLine
 62
7
  6
CONTINUOUS
 10
0.25
 20
1.0
 11
4.25
 21
1.0
  0
LINE
  5
5C7
100
AcDbEntity
  8
RACCORDO
100
AcDbLine
 62
7
  6
CONTINUOUS
 10
-10.7130788782
 20
1.15
 11
-9.8
 21
1.15
  0
LINE
  5
5C8
100
AcDbEntity
  8
ASSI
100
AcDbLine
 62
7
  6
CONTINUOUS
 10
-10.7130788782
 20
1.15
 11
-9.8
 21
1.15
  0
LINE
  5
5C9
100
AcDbEntity
  8
SMUSSO
100
AcDbLine
 62
7
  6
CONTINUOUS
 10
-0.25
 20
1.5
 11
4.75
 21
1.5
  0
LINE
  5
5CA
100
AcDbEntity
  8
ASSI
100
AcDbLine
 62
7
  6
CONTINUOUS
 10
-0.25
 20
1.5
 11
4.75
 21
1.5
  0
LINE
  5
5CB
100
AcDbEntity
  8
SMUSSO
100
AcDbLine
 62
7
  6
CONTINUOUS
 10
4.75
 20
1.75
 11
-0.25
 21
1.75
  0
LINE
  5
5CC
100
AcDbEntity
  8
ASSI
100
AcDbLine
 62
7
  6
CONTINUOUS
 10
4.75
 20
1.75
 11
-0.25
 21
1.75
  0
LINE
  5
5CD
100
AcDbEntity
  8
RACCORDO
100
AcDbLine
 62
7
  6
CONTINUOUS
 10
-10.7130788782
 20
1.85
 11
-9.8
 21
1.85
  0
LINE
  5
5CE
100
AcDbEntity
  8
ASSI
100
AcDbLine
 62
7
  6
CONTINUOUS
 10
-10.7130788782
 20
1.85
 11
-9.8
 21
1.85
  0
LINE
  5
5CF
100
AcDbEntity
  8
SMUSSO
100
AcDbLine
 62
7
  6
CONTINUOUS
 10
-0.25
 20
1.5
 11
0.25
 21
1.0
  0
LINE
  5
5D0
100
AcDbEntity
  8
ASSI
100
AcDbLine
 62
7
  6
CONTINUOUS
 10
-0.25
 20
1.5
 11
0.25
 21
1.0
  0
LINE
  5
5D1
100
AcDbEntity
  8
SMUSSO
100
AcDbLine
 62
7
  6
CONTINUOUS
 10
4.75
 20
-3.5
 11
4.25
 21
-3.0
  0
LINE
  5
5D2
100
AcDbEntity
  8
ASSI
100
AcDbLine
 62
7
  6
CONTINUOUS
 10
4.75
 20
-3.5
 11
4.25
 21
-3.0
  0
LINE
  5
5D3
100
AcDbEntity
  8
0
100
AcDbLine
 62
7
  6
CONTINUOUS
 10
11.1825449351
 20
-8.9982544935
 11
11.1842904416
 21
-9.0
  0
LINE
  5
5D4
100
AcDbEntity
  8
0
100
AcDbLine
 62
7
  6
CONTINUOUS
 10
3.4253198711
 20
-20.1935816995
 11
3.4272640188
 21
-20.2428855797
  0
LINE
  5
5D5
100
AcDbEntity
  8
RACCORDO
100
AcDbLine
 62
7
  6
CONTINUOUS
 10
4.1681048807
 20
-20.9476387933
 11
4.17252507
 21
-21.0742164539
  0
LINE
  5
5D6
100
AcDbEntity
  8
ASSI
100
AcDbLine
 62
7
  6
CONTINUOUS
 10
4.17252507
 20
-21.0742164539
 11
4.1727201634
 21
-21.0798031965
  0
LINE
  5
5D7
100
AcDbEntity
  8
0
100
AcDbLine
 62
7
  6
CONTINUOUS
 10
3.4272640188
 20
-20.2428855797
 11
3.4301803137
 21
-20.3309531512
  0
LINE
  5
5D8
100
AcDbEntity
  8
0
100
AcDbLine
 62
7
  6
CONTINUOUS
 10
3.4301803137
 20
-20.3309531512
 11
3.4350408113
 21
-20.5
  0
LINE
  5
5D9
100
AcDbEntity
  8
RACCORDO
100
AcDbLine
 62
253
  6
CONTINUOUS
 10
2.1464466094
 20
18.3
 11
2.1464466094
 21
18.2325400167
  0
LINE
  5
5DA
100
AcDbEntity
  8
0
100
AcDbLine
 62
7
  6
CONTINUOUS
 10
2.5
 20
18.3
 11
2.5
 21
16.6
  0
LINE
  5
5DB
100
AcDbEntity
  8
ASSI
100
AcDbLine
 62
7
  6
CONTINUOUS
 10
2.5
 20
18.3
 11
2.5
 21
16.6
  0
LINE
  5
5DC
100
AcDbEntity
  8
0
100
AcDbLine
 62
7
  6
CONTINUOUS
 10
2.5
 20
-16.6
 11
2.5
 21
-18.3
  0
LINE
  5
5DD
100
AcDbEntity
  8
ASSI
100
AcDbLine
 62
7
  6
CONTINUOUS
 10
2.5
 20
-16.6
 11
2.5
 21
-18.3
  0
LINE
  5
5DE
100
AcDbEntity
  8
0
100
AcDbLine
 62
7
  6
CONTINUOUS
 10
3.3388032814
 20
-20.1
 11
3.3388032814
 21
-20.5
  0
LINE
  5
5DF
100
AcDbEntity
  8
0
100
AcDbLine
 62
7
  6
CONTINUOUS
 10
3.3388032814
 20
20.1
 11
3.3388032814
 21
20.5
  0
LINE
  5
5E0
100
AcDbEntity
  8
0
100
AcDbLine
 62
7
  6
CONTINUOUS
 10
3.4175430786
 20
20.5
 11
3.4175430786
 21
20.1
  0
LINE
  5
5E1
100
AcDbEntity
  8
0
100
AcDbLine
 62
7
  6
CONTINUOUS
 10
3.4175430786
 20
-20.5
 11
3.4175430786
 21
-20.1
  0
LINE
  5
5E2
100
AcDbEntity
  8
DRAFT
100
AcDbLine
 62
7
  6
CONTINUOUS
 10
3.4633443637
 20
-19.8633443637
 11
3.4633443637
 21
-19.6633443637
  0
LINE
  5
5E3
100
AcDbEntity
  8
DRAFT
100
AcDbLine
 62
7
  6
CONTINUOUS
 10
3.4633443637
 20
19.6633443637
 11
3.4633443637
 21
19.8633443637
  0
LINE
  5
5E4
100
AcDbEntity
  8
DRAFT
100
AcDbLine
 62
7
  6
CONTINUOUS
 10
3.5
 20
-19.9
 11
3.5
 21
-19.7
  0
LINE
  5
5E5
100
AcDbEntity
  8
DRAFT
100
AcDbLine
 62
7
  6
CONTINUOUS
 10
3.5
 20
19.7
 11
3.5
 21
19.9
  0
LINE
  5
5E6
100
AcDbEntity
  8
0
100
AcDbLine
 62
7
  6
CONTINUOUS
 10
3.6
 20
-2.5
 11
3.6
 21
0.5
  0
LINE
  5
5E7
100
AcDbEntity
  8
0
100
AcDbLine
 62
7
  6
CONTINUOUS
 10
3.6
 20
2.5
 11
3.6
 21
5.5
  0
LINE
  5
5E8
100
AcDbEntity
  8
0
100
AcDbLine
 62
7
  6
CONTINUOUS
 10
3.6
 20
7.5
 11
3.6
 21
10.5
  0
LINE
  5
5E9
100
AcDbEntity
  8
0
100
AcDbLine
 62
7
  6
CONTINUOUS
 10
3.6
 20
12.5
 11
3.6
 21
15.5
  0
LINE
  5
5EA
100
AcDbEntity
  8
ASSI
100
AcDbLine
 62
7
  6
CONTINUOUS
 10
3.75
 20
-20.5937742252
 11
3.75
 21
-21.3999999965
  0
LINE
  5
5EB
100
AcDbEntity
  8
RACCORDO
100
AcDbLine
 62
7
  6
CONTINUOUS
 10
3.75
 20
-22.2559508647
 11
3.75
 21
-22.8693680562
  0
LINE
  5
5EC
100
AcDbEntity
  8
0
100
AcDbLine
 62
7
  6
CONTINUOUS
 10
3.75
 20
-21.3999999968
 11
3.75
 21
-22.2559508647
  0
LINE
  5
5ED
100
AcDbEntity
  8
ASSI
100
AcDbLine
 62
7
  6
CONTINUOUS
 10
3.75
 20
20.5937742252
 11
3.75
 21
21.3999999965
  0
LINE
  5
5EE
100
AcDbEntity
  8
0
100
AcDbLine
 62
7
  6
CONTINUOUS
 10
3.75
 20
21.3999999968
 11
3.75
 21
22.2559508647
  0
LINE
  5
5EF
100
AcDbEntity
  8
RACCORDO
100
AcDbLine
 62
7
  6
CONTINUOUS
 10
3.75
 20
22.2559508647
 11
3.75
 21
22.8693680562
  0
LINE
  5
5F0
100
AcDbEntity
  8
DRAFT
100
AcDbLine
 62
7
  6
CONTINUOUS
 10
3.9
 20
22.3551229611
 11
3.9
 21
20.9808008909
  0
LINE
  5
5F1
100
AcDbEntity
  8
DRAFT
100
AcDbLine
 62
7
  6
CONTINUOUS
 10
3.9
 20
-20.9808008909
 11
3.9
 21
-22.3551229611
  0
LINE
  5
5F2
100
AcDbEntity
  8
RACCORDO
100
AcDbLine
 62
253
  6
CONTINUOUS
 10
3.95
 20
22.931171455
 11
3.95
 21
22.5507488485
  0
LINE
  5
5F3
100
AcDbEntity
  8
RACCORDO
100
AcDbLine
 62
253
  6
CONTINUOUS
 10
3.95
 20
-22.931171455
 11
3.95
 21
-22.5507488485
  0
LINE
  5
5F4
100
AcDbEntity
  8
ASSI
100
AcDbLine
 62
7
  6
CONTINUOUS
 10
3.95
 20
-20.5
 11
3.95
 21
-20.9
  0
LINE
  5
5F5
100
AcDbEntity
  8
ASSI
100
AcDbLine
 62
7
  6
CONTINUOUS
 10
3.95
 20
20.5
 11
3.95
 21
20.9
  0
LINE
  5
5F6
100
AcDbEntity
  8
DRAFT
100
AcDbLine
 62
7
  6
CONTINUOUS
 10
3.9741071429
 20
23.25
 11
3.9741071429
 21
22.5
  0
LINE
  5
5F7
100
AcDbEntity
  8
DRAFT
100
AcDbLine
 62
7
  6
CONTINUOUS
 10
3.9741071429
 20
-22.5
 11
3.9741071429
 21
-23.25
  0
LINE
  5
5F8
100
AcDbEntity
  8
0
100
AcDbLine
 62
7
  6
CONTINUOUS
 10
3.4350408113
 20
20.5
 11
3.4301803137
 21
20.3309531512
  0
LINE
  5
5F9
100
AcDbEntity
  8
RACCORDO
100
AcDbLine
 62
7
  6
CONTINUOUS
 10
4.17252507
 20
21.0742164539
 11
4.1681048807
 21
20.9476387933
  0
LINE
  5
5FA
100
AcDbEntity
  8
ASSI
100
AcDbLine
 62
7
  6
CONTINUOUS
 10
4.17252507
 20
21.0742164539
 11
4.1727201634
 21
21.0798031965
  0
LINE
  5
5FB
100
AcDbEntity
  8
0
100
AcDbLine
 62
7
  6
CONTINUOUS
 10
3.4301803137
 20
20.3309531512
 11
3.4272640188
 21
20.2428855797
  0
LWPOLYLINE
  5
5FC
100
AcDbEntity
  8
0
100
AcDbPolyline
 62
7
  6
CONTINUOUS
 90
10
 70
0
 10
3.4272640188
 20
20.2428855797
 10
3.4253198711
 20
20.1935816995
 10
3.4243477972
 20
20.1723382485
 10
3.4233757052
 20
20.1535889578
 10
3.4224035762
 20
20.1374766726
 10
3.4214314291
 20
20.1241234428
 10
3.4204593019
 20
20.1136303427
 10
3.4194872075
 20
20.1060773343
 10
3.4185151331
 20
20.1015222638
 10
3.4175430786
 20
20.1
  0
LWPOLYLINE
  5
5FD
100
AcDbEntity
  8
RACCORDO
100
AcDbPolyline
 62
7
  6
CONTINUOUS
 90
25
 70
0
 10
1.2
 20
-24.0202128587
 10
1.2004434029
 20
-24.0161422934
 10
1.2017243842
 20
-24.0121232117
 10
1.2038429439
 20
-24.0081556138
 10
1.206815281
 20
-24.0042229977
 10
1.2106251964
 20
-24.0003418654
 10
1.2152240935
 20
-23.9965617219
 10
1.2206220789
 20
-23.992883861
 10
1.2268090459
 20
-23.9893069889
 10
1.2337060775
 20
-23.98587673
 10
1.2413222697
 20
-23.9825949623
 10
1.2496485265
 20
-23.9794598077
 10
1.2585786438
 20
-23.9765112563
 10
1.2681203567
 20
-23.9737516983
 10
1.27826593
 20
-23.9711787434
 10
1.2888859534
 20
-23.9688252106
 10
1.2999865044
 20
-23.9666939106
 10
1.3115615055
 20
-23.9647820327
 10
1.3234633135
 20
-23.9631139635
 10
1.3356961147
 20
-23.9616928261
 10
1.3482557228
 20
-23.9605154975
 10
1.3609819356
 20
-23.9595969948
 10
1.3738213524
 20
-23.9589423239
 10
1.3868273738
 20
-23.9585464789
 10
1.4
 20
-23.9584094599
  0
LINE
  5
5FE
100
AcDbEntity
  8
RACCORDO
100
AcDbLine
 62
253
  6
CONTINUOUS
 10
-1.9943792568
 20
-17.5
 11
-1.9822464458
 21
-17.4590629059
  0
LINE
  5
5FF
100
AcDbEntity
  8
CURVE
100
AcDbLine
 62
253
  6
CONTINUOUS
 10
-6.7
 20
-9.7714287043
 11
-6.8857142746
 21
-9.9571429014
  0
LINE
  5
600
100
AcDbEntity
  8
0
100
AcDbLine
 62
7
  6
CONTINUOUS
 10
11.15
 20
8.0023651948
 11
11.1825449351
 21
8.0349101299
  0
LINE
  5
601
100
AcDbEntity
  8
SMUSSO
100
AcDbLine
 62
7
  6
CONTINUOUS
 10
4.75
 20
1.5
 11
4.25
 21
1.0
  0
LINE
  5
602
100
AcDbEntity
  8
ASSI
100
AcDbLine
 62
7
  6
CONTINUOUS
 10
4.75
 20
1.5
 11
4.25
 21
1.0
  0
LINE
  5
603
100
AcDbEntity
  8
SMUSSO
100
AcDbLine
 62
7
  6
CONTINUOUS
 10
-0.25
 20
-3.5
 11
0.25
 21
-3.0
  0
LINE
  5
604
100
AcDbEntity
  8
ASSI
100
AcDbLine
 62
7
  6
CONTINUOUS
 10
-0.25
 20
-3.5
 11
0.25
 21
-3.0
  0
LINE
  5
605
100
AcDbEntity
  8
CURVE
100
AcDbLine
 62
253
  6
CONTINUOUS
 10
9.5571428627
 20
5.8238096714
 11
9.7428571761
 21
6.0095238686
  0
LINE
  5
606
100
AcDbEntity
  8
CURVE
100
AcDbLine
 62
253
  6
CONTINUOUS
 10
9.0
 20
5.1738096714
 11
9.185714294
 21
5.3595238686
  0
LINE
  5
607
100
AcDbEntity
  8
CURVE
100
AcDbLine
 62
253
  6
CONTINUOUS
 10
-6.7
 20
-10.7928574085
 11
-6.8857142746
 21
-10.9785716057
  0
LINE
  5
608
100
AcDbEntity
  8
CURVE
100
AcDbLine
 62
253
  6
CONTINUOUS
 10
-2.7
 20
-6.8928570986
 11
-2.8857142746
 21
-7.0785714507
  0
LINE
  5
609
100
AcDbEntity
  8
CURVE
100
AcDbLine
 62
253
  6
CONTINUOUS
 10
10.3
 20
5.0809522629
 11
10.1142857254
 21
4.8952380657
  0
LINE
  5
60A
100
AcDbEntity
  8
CURVE
100
AcDbLine
 62
253
  6
CONTINUOUS
 10
-3.4428571373
 20
-9.0285712957
 11
-3.2571428239
 21
-8.8428570986
  0
LINE
  5
60B
100
AcDbEntity
  8
CURVE
100
AcDbLine
 62
253
  6
CONTINUOUS
 10
-6.8857142746
 20
-8.9976190329
 11
-6.7
 21
-8.8428570986
  0
LINE
  5
60C
100
AcDbEntity
  8
CURVE
100
AcDbLine
 62
253
  6
CONTINUOUS
 10
-7.814285706
 20
-6.6142857254
 11
-7.628571412
 21
-6.5214285493
  0
LINE
  5
60D
100
AcDbEntity
  8
CURVE
100
AcDbLine
 62
253
  6
CONTINUOUS
 10
-6.8857142746
 20
-7.0785714507
 11
-7.0714285493
 21
-7.1714285493
  0
LINE
  5
60E
100
AcDbEntity
  8
CURVE
100
AcDbLine
 62
253
  6
CONTINUOUS
 10
8.9375
 20
0.0
 11
8.75
 21
-0.0625
  0
LINE
  5
60F
100
AcDbEntity
  8
SMUSSO
100
AcDbLine
 62
7
  6
CONTINUOUS
 10
4.25
 20
2.25
 11
0.25
 21
2.25
  0
LINE
  5
610
100
AcDbEntity
  8
ASSI
100
AcDbLine
 62
7
  6
CONTINUOUS
 10
4.25
 20
2.25
 11
0.25
 21
2.25
  0
LINE
  5
611
100
AcDbEntity
  8
0
100
AcDbLine
 62
7
  6
CONTINUOUS
 10
0.6
 20
2.5
 11
3.6
 21
2.5
  0
LINE
  5
612
100
AcDbEntity
  8
CURVE
100
AcDbLine
 62
253
  6
CONTINUOUS
 10
6.0
 20
3.65
 11
7.9
 21
3.65
  0
LINE
  5
613
100
AcDbEntity
  8
CURVE
100
AcDbLine
 62
253
  6
CONTINUOUS
 10
10.3
 20
3.7809522629
 11
9.0
 21
3.7809522629
  0
LINE
  5
614
100
AcDbEntity
  8
CURVE
100
AcDbLine
 62
253
  6
CONTINUOUS
 10
9.3125
 20
-0.0625
 11
9.125
 21
0.0
  0
LINE
  5
615
100
AcDbEntity
  8
CURVE
100
AcDbLine
 62
253
  6
CONTINUOUS
 10
10.1875
 20
-0.25
 11
10.0
 21
-0.1875
  0
LINE
  5
616
100
AcDbEntity
  8
CURVE
100
AcDbLine
 62
253
  6
CONTINUOUS
 10
6.0
 20
-0.53
 11
7.8905444566
 21
-1.6215063509
  0
LINE
  5
617
100
AcDbEntity
  8
0
100
AcDbLine
 62
7
  6
CONTINUOUS
 10
11.15
 20
-8.0023651948
 11
11.1825449351
 21
-8.0349101299
  0
LINE
  5
618
100
AcDbEntity
  8
RACCORDO
100
AcDbLine
 62
7
  6
CONTINUOUS
 10
-1.9810113849
 20
18.2
 11
-1.9905723476
 21
18.2316174985
  0
LWPOLYLINE
  5
619
100
AcDbEntity
  8
RACCORDO
100
AcDbPolyline
 62
253
  6
CONTINUOUS
 90
5
 70
0
 10
-1.9943792568
 20
17.5
 10
-1.9822464458
 20
17.4590629059
 10
-1.9603851756
 20
17.4167346696
 10
-1.930459935
 20
17.3782135783
 10
-1.8933221907
 20
17.3448141709
  0
LINE
  5
61A
100
AcDbEntity
  8
RACCORDO
100
AcDbLine
 62
7
  6
CONTINUOUS
 10
5.6
 20
-20.9
 11
5.6200514156
 21
-21.4741974154
  0
LINE
  5
61B
100
AcDbEntity
  8
ASSI
100
AcDbLine
 62
7
  6
CONTINUOUS
 10
3.9911511448
 20
22.7007950439
 11
3.9776785714
 21
23.25
  0
LINE
  5
61C
100
AcDbEntity
  8
ASSI
100
AcDbLine
 62
253
  6
CONTINUOUS
 10
3.9911511448
 20
22.7007950439
 11
3.9911511448
 21
21.0698928577
  0
LINE
  5
61D
100
AcDbEntity
  8
ASSI
100
AcDbLine
 62
253
  6
CONTINUOUS
 10
3.9911511448
 20
-21.0698928577
 11
3.9911511448
 21
-22.7007950439
  0
LINE
  5
61E
100
AcDbEntity
  8
SMUSSO
100
AcDbLine
 62
7
  6
CONTINUOUS
 10
4.25
 20
15.75
 11
4.25
 21
12.25
  0
LINE
  5
61F
100
AcDbEntity
  8
ASSI
100
AcDbLine
 62
7
  6
CONTINUOUS
 10
4.25
 20
15.75
 11
4.25
 21
12.25
  0
LINE
  5
620
100
AcDbEntity
  8
SMUSSO
100
AcDbLine
 62
7
  6
CONTINUOUS
 10
4.25
 20
10.75
 11
4.25
 21
7.25
  0
LINE
  5
621
100
AcDbEntity
  8
ASSI
100
AcDbLine
 62
7
  6
CONTINUOUS
 10
4.25
 20
10.75
 11
4.25
 21
7.25
  0
LINE
  5
622
100
AcDbEntity
  8
SMUSSO
100
AcDbLine
 62
7
  6
CONTINUOUS
 10
4.25
 20
5.75
 11
4.25
 21
2.25
  0
LINE
  5
623
100
AcDbEntity
  8
ASSI
100
AcDbLine
 62
7
  6
CONTINUOUS
 10
4.25
 20
5.75
 11
4.25
 21
2.25
  0
LINE
  5
624
100
AcDbEntity
  8
SMUSSO
100
AcDbLine
 62
7
  6
CONTINUOUS
 10
4.25
 20
1.0
 11
4.25
 21
-3.0
  0
LINE
  5
625
100
AcDbEntity
  8
ASSI
100
AcDbLine
 62
7
  6
CONTINUOUS
 10
4.25
 20
1.0
 11
4.25
 21
-3.0
  0
LINE
  5
626
100
AcDbEntity
  8
RACCORDO
100
AcDbLine
 62
253
  6
CONTINUOUS
 10
4.3
 20
24.9781655413
 11
4.3
 21
24.5977429348
  0
LINE
  5
627
100
AcDbEntity
  8
RACCORDO
100
AcDbLine
 62
253
  6
CONTINUOUS
 10
4.3
 20
-24.9781655413
 11
4.3
 21
-24.5977429348
  0
LINE
  5
628
100
AcDbEntity
  8
RACCORDO
100
AcDbLine
 62
7
  6
CONTINUOUS
 10
4.5
 20
24.9163621424
 11
4.5
 21
24.0202128587
  0
LINE
  5
629
100
AcDbEntity
  8
RACCORDO
100
AcDbLine
 62
7
  6
CONTINUOUS
 10
4.5
 20
-24.0202128587
 11
4.5
 21
-24.9163621424
  0
LINE
  5
62A
100
AcDbEntity
  8
0
100
AcDbLine
 62
7
  6
CONTINUOUS
 10
4.7437253933
 20
20.9
 11
4.7437253933
 21
20.5
  0
LINE
  5
62B
100
AcDbEntity
  8
0
100
AcDbLine
 62
7
  6
CONTINUOUS
 10
4.7437253933
 20
-20.5
 11
4.7437253933
 21
-20.9
  0
LINE
  5
62C
100
AcDbEntity
  8
RACCORDO
100
AcDbLine
 62
7
  6
CONTINUOUS
 10
4.7476387933
 20
-19.9523802452
 11
4.7476387933
 21
-19.7
  0
LINE
  5
62D
100
AcDbEntity
  8
RACCORDO
100
AcDbLine
 62
7
  6
CONTINUOUS
 10
4.7476387933
 20
19.7
 11
4.7476387933
 21
19.9523802452
  0
LINE
  5
62E
100
AcDbEntity
  8
SMUSSO
100
AcDbLine
 62
7
  6
CONTINUOUS
 10
4.75
 20
16.25
 11
4.75
 21
11.75
  0
LINE
  5
62F
100
AcDbEntity
  8
ASSI
100
AcDbLine
 62
7
  6
CONTINUOUS
 10
4.75
 20
16.25
 11
4.75
 21
11.75
  0
LINE
  5
630
100
AcDbEntity
  8
SMUSSO
100
AcDbLine
 62
7
  6
CONTINUOUS
 10
4.75
 20
11.25
 11
4.75
 21
6.75
  0
LINE
  5
631
100
AcDbEntity
  8
ASSI
100
AcDbLine
 62
7
  6
CONTINUOUS
 10
4.75
 20
11.25
 11
4.75
 21
6.75
  0
LINE
  5
632
100
AcDbEntity
  8
SMUSSO
100
AcDbLine
 62
7
  6
CONTINUOUS
 10
4.75
 20
6.25
 11
4.75
 21
1.75
  0
LINE
  5
633
100
AcDbEntity
  8
ASSI
100
AcDbLine
 62
7
  6
CONTINUOUS
 10
4.75
 20
6.25
 11
4.75
 21
1.75
  0
LINE
  5
634
100
AcDbEntity
  8
SMUSSO
100
AcDbLine
 62
7
  6
CONTINUOUS
 10
4.75
 20
1.5
 11
4.75
 21
-3.5
  0
LINE
  5
635
100
AcDbEntity
  8
ASSI
100
AcDbLine
 62
7
  6
CONTINUOUS
 10
4.75
 20
1.5
 11
4.75
 21
-3.5
  0
LINE
  5
636
100
AcDbEntity
  8
RACCORDO
100
AcDbLine
 62
253
  6
CONTINUOUS
 10
4.8698910615
 20
19.830127977
 11
4.8698910976
 21
19.7461274635
  0
LINE
  5
637
100
AcDbEntity
  8
RACCORDO
100
AcDbLine
 62
253
  6
CONTINUOUS
 10
4.8698910976
 20
-19.7461274635
 11
4.8698910615
 21
-19.830127977
  0
LINE
  5
638
100
AcDbEntity
  8
RACCORDO
100
AcDbLine
 62
253
  6
CONTINUOUS
 10
4.9911112875
 20
21.9199498914
 11
4.9911112875
 21
21.5181771935
  0
LINE
  5
639
100
AcDbEntity
  8
RACCORDO
100
AcDbLine
 62
253
  6
CONTINUOUS
 10
4.9911112875
 20
-21.5181771935
 11
4.9911112875
 21
-21.9199498914
  0
LINE
  5
63A
100
AcDbEntity
  8
0
100
AcDbLine
 62
253
  6
CONTINUOUS
 10
5.0437253933
 20
-20.9
 11
5.0437253933
 21
-20.5
  0
LINE
  5
63B
100
AcDbEntity
  8
0
100
AcDbLine
 62
253
  6
CONTINUOUS
 10
5.0437253933
 20
20.5
 11
5.0437253933
 21
20.9
  0
LWPOLYLINE
  5
63C
100
AcDbEntity
  8
RACCORDO
100
AcDbPolyline
 62
253
  6
CONTINUOUS
 90
40
 70
0
 10
4.8698910976
 20
19.8301279408
 10
4.8701433801
 20
19.8459710265
 10
4.8708975611
 20
19.8617982003
 10
4.8721528832
 20
19.8775935664
 10
4.8739080856
 20
19.8933412607
 10
4.8761614055
 20
19.9090254673
 10
4.8789105798
 20
19.9246304337
 10
4.8821528474
 20
19.9401404873
 10
4.8858849519
 20
19.9555400506
 10
4.890103145
 20
19.9708136573
 10
4.8948031903
 20
19.9859459674
 10
4.8999803672
 20
20.0009217829
 10
4.9056294761
 20
20.015726063
 10
4.9117448433
 20
20.030343939
 10
4.918320327
 20
20.0447607297
 10
4.9253493232
 20
20.0589619556
 10
4.9328247722
 20
20.0729333538
 10
4.9407391661
 20
20.0866608924
 10
4.9490845563
 20
20.1001307841
 10
4.9578525611
 20
20.1133295006
 10
4.9670343744
 20
20.1262437859
 10
4.9766207745
 20
20.1388606695
 10
4.9866021335
 20
20.1511674798
 10
4.9969684265
 20
20.1631518567
 10
5.0077092423
 20
20.1748017635
 10
5.0188137935
 20
20.1861055
 10
5.0302709273
 20
20.1970517132
 10
5.0420691367
 20
20.2076294094
 10
5.0541965724
 20
20.217827965
 10
5.0666410543
 20
20.2276371371
 10
5.0793900838
 20
20.2370470741
 10
5.0924308565
 20
20.246048325
 10
5.1057502751
 20
20.2546318496
 10
5.1193349623
 20
20.262789027
 10
5.1331712745
 20
20.2705116647
 10
5.1472453152
 20
20.2777920066
 10
5.1615429493
 20
20.2846227405
 10
5.176049817
 20
20.2909970062
 10
5.1907513486
 20
20.2969084018
 10
5.2056327786
 20
20.30235099
  0
LINE
  5
63D
100
AcDbEntity
  8
ASSI
100
AcDbLine
 62
7
  6
CONTINUOUS
 10
3.9776785714
 20
-23.25
 11
3.9911511448
 21
-22.7007950439
  0
LWPOLYLINE
  5
63E
100
AcDbEntity
  8
ASSI
100
AcDbPolyline
 62
7
  6
CONTINUOUS
 90
25
 70
0
 10
3.75
 20
-20.5937742252
 10
3.7502460638
 20
-20.5857998457
 10
3.7510762028
 20
-20.5781782758
 10
3.7524904171
 20
-20.5709105569
 10
3.7544825384
 20
-20.5639825071
 10
3.757058735
 20
-20.5574114053
 10
3.7602375116
 20
-20.5512383342
 10
3.7640231342
 20
-20.5454637724
 10
3.7684113369
 20
-20.5400731085
 10
3.7734078266
 20
-20.5350745545
 10
3.7789851138
 20
-20.5304724017
 10
3.785170688
 20
-20.5262400106
 10
3.7920527242
 20
-20.522342159
 10
3.7995965948
 20
-20.5187750503
 10
3.8078369274
 20
-20.5155338616
 10
3.8169657805
 20
-20.5125943337
 10
3.8269612335
 20
-20.5099525695
 10
3.837845207
 20
-20.5076176991
 10
3.8498755206
 20
-20.5055913889
 10
3.8630138991
 20
-20.5038724329
 10
3.8772986178
 20
-20.502466471
 10
3.8931023227
 20
-20.5013801219
 10
3.910549229
 20
-20.5006106994
 10
3.9295151214
 20
-20.5001519954
 10
3.95
 20
-20.5
  0
LINE
  5
63F
100
AcDbEntity
  8
RACCORDO
100
AcDbLine
 62
7
  6
CONTINUOUS
 10
5.6
 20
20.9
 11
5.6200514156
 21
21.4741974154
  0
LWPOLYLINE
  5
640
100
AcDbEntity
  8
ASSI
100
AcDbPolyline
 62
7
  6
CONTINUOUS
 90
25
 70
0
 10
3.75
 20
-20.9520967918
 10
3.7502460638
 20
-20.9476665809
 10
3.7510762028
 20
-20.9434323754
 10
3.7524904171
 20
-20.9393947538
 10
3.7544825384
 20
-20.9355458373
 10
3.757058735
 20
-20.9318952252
 10
3.7602375116
 20
-20.9284657412
 10
3.7640231342
 20
-20.9252576513
 10
3.7684113369
 20
-20.9222628381
 10
3.7734078266
 20
-20.9194858636
 10
3.7789851138
 20
-20.9169291121
 10
3.785170688
 20
-20.9145777837
 10
3.7920527242
 20
-20.9124123106
 10
3.7995965948
 20
-20.9104305835
 10
3.8078369274
 20
-20.9086299231
 10
3.8169657805
 20
-20.906996852
 10
3.8269612335
 20
-20.9055292053
 10
3.837845207
 20
-20.9042320551
 10
3.8498755206
 20
-20.9031063272
 10
3.8630138991
 20
-20.9021513516
 10
3.8772986178
 20
-20.9013702616
 10
3.8931023227
 20
-20.9007667344
 10
3.910549229
 20
-20.9003392774
 10
3.9295151214
 20
-20.9000844419
 10
3.95
 20
-20.9
  0
LINE
  5
641
100
AcDbEntity
  8
CURVE
100
AcDbLine
 62
253
  6
CONTINUOUS
 10
-4.0
 20
-9.6785712957
 11
-3.814285706
 21
-9.4928570986
  0
LINE
  5
642
100
AcDbEntity
  8
CURVE
100
AcDbLine
 62
253
  6
CONTINUOUS
 10
-4.0
 20
-10.7
 11
-3.814285706
 21
-10.5142858028
  0
LINE
  5
643
100
AcDbEntity
  8
CURVE
100
AcDbLine
 62
253
  6
CONTINUOUS
 10
-2.7
 20
-9.7714287043
 11
-2.8857142746
 21
-9.9571429014
  0
LINE
  5
644
100
AcDbEntity
  8
CURVE
100
AcDbLine
 62
253
  6
CONTINUOUS
 10
-2.7
 20
-10.7928574085
 11
-2.8857142746
 21
-10.9785716057
  0
LINE
  5
645
100
AcDbEntity
  8
CURVE
100
AcDbLine
 62
253
  6
CONTINUOUS
 10
-3.814285706
 20
-6.6142857254
 11
-3.628571412
 21
-6.5214285493
  0
LINE
  5
646
100
AcDbEntity
  8
CURVE
100
AcDbLine
 62
253
  6
CONTINUOUS
 10
9.9375
 20
-0.1875
 11
9.8125
 21
-0.25
  0
LINE
  5
647
100
AcDbEntity
  8
CURVE
100
AcDbLine
 62
253
  6
CONTINUOUS
 10
-7.814285706
 20
-9.4928570986
 11
-7.628571412
 21
-9.4
  0
LINE
  5
648
100
AcDbEntity
  8
CURVE
100
AcDbLine
 62
253
  6
CONTINUOUS
 10
-2.8857142746
 20
-7.0785714507
 11
-3.0714285493
 21
-7.1714285493
  0
LINE
  5
649
100
AcDbEntity
  8
CURVE
100
AcDbLine
 62
253
  6
CONTINUOUS
 10
-6.8857142746
 20
-9.9571429014
 11
-7.0714285493
 21
-10.05
  0
LINE
  5
64A
100
AcDbEntity
  8
CURVE
100
AcDbLine
 62
253
  6
CONTINUOUS
 10
9.0
 20
4.4309522629
 11
10.3
 21
4.4309522629
  0
LINE
  5
64B
100
AcDbEntity
  8
CURVE
100
AcDbLine
 62
253
  6
CONTINUOUS
 10
6.0
 20
4.6
 11
7.9
 21
4.6
  0
LINE
  5
64C
100
AcDbEntity
  8
CURVE
100
AcDbLine
 62
253
  6
CONTINUOUS
 10
9.9285714507
 20
4.8023806572
 11
9.371428588
 21
4.8023806572
  0
LINE
  5
64D
100
AcDbEntity
  8
CURVE
100
AcDbLine
 62
253
  6
CONTINUOUS
 10
9.371428588
 20
5.4523806572
 11
9.9285714507
 21
5.4523806572
  0
LINE
  5
64E
100
AcDbEntity
  8
0
100
AcDbLine
 62
7
  6
CONTINUOUS
 10
3.6
 20
5.5
 11
0.6
 21
5.5
  0
LINE
  5
64F
100
AcDbEntity
  8
SMUSSO
100
AcDbLine
 62
7
  6
CONTINUOUS
 10
0.25
 20
5.75
 11
4.25
 21
5.75
  0
LINE
  5
650
100
AcDbEntity
  8
ASSI
100
AcDbLine
 62
7
  6
CONTINUOUS
 10
0.25
 20
5.75
 11
4.25
 21
5.75
  0
LINE
  5
651
100
AcDbEntity
  8
CURVE
100
AcDbLine
 62
253
  6
CONTINUOUS
 10
9.185714294
 20
5.8238096714
 11
9.5571428627
 21
5.8238096714
  0
LINE
  5
652
100
AcDbEntity
  8
SMUSSO
100
AcDbLine
 62
7
  6
CONTINUOUS
 10
-0.25
 20
6.25
 11
0.25
 21
5.75
  0
LINE
  5
653
100
AcDbEntity
  8
ASSI
100
AcDbLine
 62
7
  6
CONTINUOUS
 10
-0.25
 20
6.25
 11
0.25
 21
5.75
  0
LINE
  5
654
100
AcDbEntity
  8
SMUSSO
100
AcDbLine
 62
7
  6
CONTINUOUS
 10
4.75
 20
1.75
 11
4.25
 21
2.25
  0
LINE
  5
655
100
AcDbEntity
  8
ASSI
100
AcDbLine
 62
7
  6
CONTINUOUS
 10
4.75
 20
1.75
 11
4.25
 21
2.25
  0
LINE
  5
656
100
AcDbEntity
  8
CURVE
100
AcDbLine
 62
253
  6
CONTINUOUS
 10
8.6875
 20
-1.125
 11
8.8125
 21
-1.25
  0
LWPOLYLINE
  5
657
100
AcDbEntity
  8
RACCORDO
100
AcDbPolyline
 62
7
  6
CONTINUOUS
 90
25
 70
0
 10
4.5
 20
24.5359395359
 10
4.4995565971
 20
24.5400101013
 10
4.4982756158
 20
24.5440291829
 10
4.4961570561
 20
24.5479967809
 10
4.493184719
 20
24.5519293969
 10
4.4893748036
 20
24.5558105293
 10
4.4847759065
 20
24.5595906727
 10
4.4793779211
 20
24.5632685337
 10
4.4731909541
 20
24.5668454057
 10
4.4662939225
 20
24.5702756646
 10
4.4586777303
 20
24.5735574323
 10
4.4503514735
 20
24.5766925869
 10
4.4414213562
 20
24.5796411384
 10
4.4318796433
 20
24.5824006963
 10
4.42173407
 20
24.5849736512
 10
4.4111140466
 20
24.587327184
 10
4.4000134956
 20
24.589458484
 10
4.3884384945
 20
24.591370362
 10
4.3765366865
 20
24.5930384312
 10
4.3643038853
 20
24.5944595685
 10
4.3517442772
 20
24.5956368971
 10
4.3390180644
 20
24.5965553998
 10
4.3261786476
 20
24.5972100708
 10
4.3131726262
 20
24.5976059158
 10
4.3
 20
24.5977429348
  0
LINE
  5
658
100
AcDbEntity
  8
RACCORDO
100
AcDbLine
 62
7
  6
CONTINUOUS
 10
6.2437286396
 20
22.4837654639
 11
6.206982026
 21
23.25
  0
LINE
  5
659
100
AcDbEntity
  8
RACCORDO
100
AcDbLine
 62
7
  6
CONTINUOUS
 10
5.6025680966
 20
20.326459336
 11
5.5981715064
 21
20.4523612067
  0
LINE
  5
65A
100
AcDbEntity
  8
RACCORDO
100
AcDbLine
 62
253
  6
CONTINUOUS
 10
5.8698530207
 20
-19.751836852
 11
5.8698565722
 21
-19.8258025846
  0
LINE
  5
65B
100
AcDbEntity
  8
RACCORDO
100
AcDbLine
 62
253
  6
CONTINUOUS
 10
5.8698530207
 20
-20.3257835461
 11
5.8698530207
 21
-19.8258025846
  0
LINE
  5
65C
100
AcDbEntity
  8
0
100
AcDbLine
 62
7
  6
CONTINUOUS
 10
6.0
 20
25.1
 11
6.0
 21
23.25
  0
LINE
  5
65D
100
AcDbEntity
  8
CURVE
100
AcDbLine
 62
253
  6
CONTINUOUS
 10
6.0
 20
14.25
 11
6.0
 21
13.5714285553
  0
LINE
  5
65E
100
AcDbEntity
  8
0
100
AcDbLine
 62
7
  6
CONTINUOUS
 10
6.0
 20
-25.1
 11
6.0
 21
-23.25
  0
LINE
  5
65F
100
AcDbEntity
  8
0
100
AcDbLine
 62
7
  6
CONTINUOUS
 10
6.0
 20
-20.9
 11
6.0
 21
-20.5
  0
LINE
  5
660
100
AcDbEntity
  8
0
100
AcDbLine
 62
7
  6
CONTINUOUS
 10
6.0
 20
20.5
 11
6.0
 21
20.9
  0
LINE
  5
661
100
AcDbEntity
  8
DRAFT
100
AcDbLine
 62
7
  6
CONTINUOUS
 10
6.0476387933
 20
-20.8476387933
 11
6.0476387933
 21
-20.4523612067
  0
LINE
  5
662
100
AcDbEntity
  8
DRAFT
100
AcDbLine
 62
7
  6
CONTINUOUS
 10
6.0476387933
 20
20.4523612067
 11
6.0476387933
 21
20.8476387933
  0
LINE
  5
663
100
AcDbEntity
  8
RACCORDO
100
AcDbLine
 62
253
  6
CONTINUOUS
 10
6.1742164539
 20
20.9742164539
 11
6.1742164539
 21
20.3257835461
  0
LINE
  5
664
100
AcDbEntity
  8
RACCORDO
100
AcDbLine
 62
253
  6
CONTINUOUS
 10
6.1742164539
 20
-20.3257835461
 11
6.1742164539
 21
-20.9742164539
  0
LINE
  5
665
100
AcDbEntity
  8
RACCORDO
100
AcDbLine
 62
7
  6
CONTINUOUS
 10
6.2506196883
 20
22.45
 11
6.2506196883
 21
21.9199498914
  0
LINE
  5
666
100
AcDbEntity
  8
RACCORDO
100
AcDbLine
 62
7
  6
CONTINUOUS
 10
6.2506196883
 20
-21.9199498914
 11
6.2506196883
 21
-22.45
  0
LINE
  5
667
100
AcDbEntity
  8
RACCORDO
100
AcDbLine
 62
253
  6
CONTINUOUS
 10
6.6741974154
 20
21.4741974154
 11
6.6741974154
 21
19.8258025846
  0
LINE
  5
668
100
AcDbEntity
  8
RACCORDO
100
AcDbLine
 62
253
  6
CONTINUOUS
 10
6.6741974154
 20
-19.8258025846
 11
6.6741974154
 21
-21.4741974154
  0
LINE
  5
669
100
AcDbEntity
  8
CURVE
100
AcDbLine
 62
253
  6
CONTINUOUS
 10
6.8142857224
 20
8.8214285553
 11
6.8142857224
 21
9.5
  0
LINE
  5
66A
100
AcDbEntity
  8
RACCORDO
100
AcDbLine
 62
253
  6
CONTINUOUS
 10
6.8510346798
 20
21.051836852
 11
6.8510346798
 21
19.751836852
  0
LINE
  5
66B
100
AcDbEntity
  8
RACCORDO
100
AcDbLine
 62
253
  6
CONTINUOUS
 10
6.8510346798
 20
-21.051836852
 11
6.8510346798
 21
-19.751836852
  0
LINE
  5
66C
100
AcDbEntity
  8
RACCORDO
100
AcDbLine
 62
253
  6
CONTINUOUS
 10
7.3510263866
 20
21.0489736134
 11
7.3510263866
 21
19.7489736134
  0
LINE
  5
66D
100
AcDbEntity
  8
RACCORDO
100
AcDbLine
 62
253
  6
CONTINUOUS
 10
7.3510263866
 20
-21.0489736134
 11
7.3510263866
 21
-19.7489736134
  0
LINE
  5
66E
100
AcDbEntity
  8
DRAFT
100
AcDbLine
 62
7
  6
CONTINUOUS
 10
7.4
 20
20.85
 11
7.4
 21
19.7
  0
LINE
  5
66F
100
AcDbEntity
  8
DRAFT
100
AcDbLine
 62
7
  6
CONTINUOUS
 10
7.4
 20
-19.7
 11
7.4
 21
-20.85
  0
LINE
  5
670
100
AcDbEntity
  8
DRAFT
100
AcDbLine
 62
7
  6
CONTINUOUS
 10
7.4345579013
 20
-20.9654420987
 11
7.4345579013
 21
-20.85
  0
LINE
  5
671
100
AcDbEntity
  8
DRAFT
100
AcDbLine
 62
7
  6
CONTINUOUS
 10
7.4345579013
 20
20.85
 11
7.4345579013
 21
20.9654420987
  0
LINE
  5
672
100
AcDbEntity
  8
DRAFT
100
AcDbLine
 62
7
  6
CONTINUOUS
 10
7.4366556363
 20
20.85
 11
7.4366556363
 21
19.6633443637
  0
LINE
  5
673
100
AcDbEntity
  8
DRAFT
100
AcDbLine
 62
7
  6
CONTINUOUS
 10
7.4366556363
 20
-19.6633443637
 11
7.4366556363
 21
-20.85
  0
LINE
  5
674
100
AcDbEntity
  8
RACCORDO
100
AcDbLine
 62
253
  6
CONTINUOUS
 10
5.8698530207
 20
20.3257835461
 11
5.8698530207
 21
19.751836852
  0
LINE
  5
675
100
AcDbEntity
  8
RACCORDO
100
AcDbLine
 62
7
  6
CONTINUOUS
 10
5.6025680966
 20
-20.326459336
 11
5.5981715064
 21
-20.4523612067
  0
LINE
  5
676
100
AcDbEntity
  8
RACCORDO
100
AcDbLine
 62
7
  6
CONTINUOUS
 10
6.206982026
 20
-23.25
 11
6.2437286396
 21
-22.4837654639
  0
LWPOLYLINE
  5
677
100
AcDbEntity
  8
RACCORDO
100
AcDbPolyline
 62
7
  6
CONTINUOUS
 90
25
 70
0
 10
4.5
 20
-24.9163621424
 10
4.4995565971
 20
-24.9204327078
 10
4.4982756158
 20
-24.9244517894
 10
4.4961570561
 20
-24.9284193874
 10
4.493184719
 20
-24.9323520034
 10
4.4893748036
 20
-24.9362331358
 10
4.4847759065
 20
-24.9400132792
 10
4.4793779211
 20
-24.9436911402
 10
4.4731909541
 20
-24.9472680122
 10
4.4662939225
 20
-24.9506982711
 10
4.4586777303
 20
-24.9539800388
 10
4.4503514735
 20
-24.9571151934
 10
4.4414213562
 20
-24.9600637449
 10
4.4318796433
 20
-24.9628233029
 10
4.42173407
 20
-24.9653962577
 10
4.4111140466
 20
-24.9677497905
 10
4.4000134956
 20
-24.9698810905
 10
4.3884384945
 20
-24.9717929685
 10
4.3765366865
 20
-24.9734610377
 10
4.3643038853
 20
-24.974882175
 10
4.3517442772
 20
-24.9760595037
 10
4.3390180644
 20
-24.9769780063
 10
4.3261786476
 20
-24.9776326773
 10
4.3131726262
 20
-24.9780285223
 10
4.3
 20
-24.9781655413
  0
LINE
  5
678
100
AcDbEntity
  8
DRAFT
100
AcDbLine
 62
7
  6
CONTINUOUS
 10
-3.9
 20
-22.3551229611
 11
-3.9741071429
 21
-22.5
  0
LWPOLYLINE
  5
679
100
AcDbEntity
  8
RACCORDO
100
AcDbPolyline
 62
253
  6
CONTINUOUS
 90
4
 70
0
 10
-1.9822464458
 20
-17.4590629059
 10
-1.9603851756
 20
-17.4167346696
 10
-1.930459935
 20
-17.3782135783
 10
-1.8933221907
 20
-17.3448141709
  0
LINE
  5
67A
100
AcDbEntity
  8
CURVE
100
AcDbLine
 62
253
  6
CONTINUOUS
 10
6.8830127019
 20
-0.8666025404
 11
6.7330127019
 21
-1.1264101615
  0
LINE
  5
67B
100
AcDbEntity
  8
CURVE
100
AcDbLine
 62
253
  6
CONTINUOUS
 10
7.6405444566
 20
-1.1884936491
 11
7.3905444566
 21
-1.6215063509
  0
LINE
  5
67C
100
AcDbEntity
  8
CURVE
100
AcDbLine
 62
253
  6
CONTINUOUS
 10
8.75
 20
-0.0625
 11
8.625
 21
-0.1875
  0
LINE
  5
67D
100
AcDbEntity
  8
CURVE
100
AcDbLine
 62
253
  6
CONTINUOUS
 10
9.8125
 20
-0.25
 11
9.75
 21
-0.3125
  0
LINE
  5
67E
100
AcDbEntity
  8
CURVE
100
AcDbLine
 62
253
  6
CONTINUOUS
 10
-7.814285706
 20
-10.5142858028
 11
-7.628571412
 21
-10.4214287043
  0
LINE
  5
67F
100
AcDbEntity
  8
CURVE
100
AcDbLine
 62
253
  6
CONTINUOUS
 10
-6.8857142746
 20
-10.9785716057
 11
-7.0714285493
 21
-11.0714283943
  0
LINE
  5
680
100
AcDbEntity
  8
CURVE
100
AcDbLine
 62
253
  6
CONTINUOUS
 10
-3.814285706
 20
-9.4928570986
 11
-3.628571412
 21
-9.4
  0
LINE
  5
681
100
AcDbEntity
  8
CURVE
100
AcDbLine
 62
253
  6
CONTINUOUS
 10
-2.8857142746
 20
-9.9571429014
 11
-3.0714285493
 21
-10.05
  0
LINE
  5
682
100
AcDbEntity
  8
CURVE
100
AcDbLine
 62
253
  6
CONTINUOUS
 10
-3.814285706
 20
-10.5142858028
 11
-3.628571412
 21
-10.4214287043
  0
LINE
  5
683
100
AcDbEntity
  8
RACCORDO
100
AcDbLine
 62
7
  6
CONTINUOUS
 10
-10.7130788782
 20
6.15
 11
-9.8
 21
6.15
  0
LINE
  5
684
100
AcDbEntity
  8
ASSI
100
AcDbLine
 62
7
  6
CONTINUOUS
 10
-10.7130788782
 20
6.15
 11
-9.8
 21
6.15
  0
LINE
  5
685
100
AcDbEntity
  8
SMUSSO
100
AcDbLine
 62
7
  6
CONTINUOUS
 10
-0.25
 20
6.25
 11
4.75
 21
6.25
  0
LINE
  5
686
100
AcDbEntity
  8
ASSI
100
AcDbLine
 62
7
  6
CONTINUOUS
 10
-0.25
 20
6.25
 11
4.75
 21
6.25
  0
LINE
  5
687
100
AcDbEntity
  8
CURVE
100
AcDbLine
 62
253
  6
CONTINUOUS
 10
9.7428571761
 20
6.3809522629
 11
10.3
 21
6.3809522629
  0
LINE
  5
688
100
AcDbEntity
  8
SMUSSO
100
AcDbLine
 62
7
  6
CONTINUOUS
 10
4.75
 20
6.75
 11
-0.25
 21
6.75
  0
LINE
  5
689
100
AcDbEntity
  8
ASSI
100
AcDbLine
 62
7
  6
CONTINUOUS
 10
4.75
 20
6.75
 11
-0.25
 21
6.75
  0
LINE
  5
68A
100
AcDbEntity
  8
RACCORDO
100
AcDbLine
 62
7
  6
CONTINUOUS
 10
-10.7130788782
 20
6.85
 11
-9.8
 21
6.85
  0
LINE
  5
68B
100
AcDbEntity
  8
ASSI
100
AcDbLine
 62
7
  6
CONTINUOUS
 10
-10.7130788782
 20
6.85
 11
-9.8
 21
6.85
  0
LINE
  5
68C
100
AcDbEntity
  8
SMUSSO
100
AcDbLine
 62
7
  6
CONTINUOUS
 10
4.25
 20
7.25
 11
0.25
 21
7.25
  0
LINE
  5
68D
100
AcDbEntity
  8
ASSI
100
AcDbLine
 62
7
  6
CONTINUOUS
 10
4.25
 20
7.25
 11
0.25
 21
7.25
  0
LINE
  5
68E
100
AcDbEntity
  8
0
100
AcDbLine
 62
7
  6
CONTINUOUS
 10
0.6
 20
7.5
 11
3.6
 21
7.5
  0
LINE
  5
68F
100
AcDbEntity
  8
CURVE
100
AcDbLine
 62
253
  6
CONTINUOUS
 10
9.9285714507
 20
2.8523806572
 11
9.0
 21
3.4095238686
  0
LINE
  5
690
100
AcDbEntity
  8
CURVE
100
AcDbLine
 62
253
  6
CONTINUOUS
 10
9.4375
 20
-0.1875
 11
9.3125
 21
-0.0625
  0
LINE
  5
691
100
AcDbEntity
  8
CURVE
100
AcDbLine
 62
253
  6
CONTINUOUS
 10
10.3125
 20
-0.375
 11
10.1875
 21
-0.25
  0
LINE
  5
692
100
AcDbEntity
  8
CURVE
100
AcDbLine
 62
253
  6
CONTINUOUS
 10
8.5625
 20
-0.9375
 11
8.6875
 21
-1.125
  0
LINE
  5
693
100
AcDbEntity
  8
CURVE
100
AcDbLine
 62
253
  6
CONTINUOUS
 10
7.8905444566
 20
-1.6215063509
 11
7.6405444566
 21
-1.1884936491
  0
LINE
  5
694
100
AcDbEntity
  8
DRAFT
100
AcDbLine
 62
7
  6
CONTINUOUS
 10
-3.9
 20
22.3551229611
 11
-3.9741071429
 21
22.5
  0
LINE
  5
695
100
AcDbEntity
  8
CURVE
100
AcDbLine
 62
253
  6
CONTINUOUS
 10
7.9
 20
9.5
 11
7.9
 21
8.8214285553
  0
LINE
  5
696
100
AcDbEntity
  8
RACCORDO
100
AcDbLine
 62
7
  6
CONTINUOUS
 10
8.1570955844
 20
-22.45
 11
8.1570955844
 21
-22.4493803117
  0
LINE
  5
697
100
AcDbEntity
  8
RACCORDO
100
AcDbLine
 62
7
  6
CONTINUOUS
 10
8.1570955844
 20
22.4493803117
 11
8.1570955844
 21
22.45
  0
LINE
  5
698
100
AcDbEntity
  8
CURVE
100
AcDbLine
 62
253
  6
CONTINUOUS
 10
8.5
 20
-0.5
 11
8.5
 21
-0.6875
  0
LINE
  5
699
100
AcDbEntity
  8
CURVE
100
AcDbLine
 62
253
  6
CONTINUOUS
 10
9.0
 20
12.4785714507
 11
9.0
 21
12.0142856479
  0
LINE
  5
69A
100
AcDbEntity
  8
CURVE
100
AcDbLine
 62
253
  6
CONTINUOUS
 10
9.0
 20
6.3809522629
 11
9.0
 21
6.0095238686
  0
LINE
  5
69B
100
AcDbEntity
  8
CURVE
100
AcDbLine
 62
253
  6
CONTINUOUS
 10
9.0
 20
3.4095238686
 11
9.0
 21
2.8523806572
  0
LINE
  5
69C
100
AcDbEntity
  8
CURVE
100
AcDbLine
 62
253
  6
CONTINUOUS
 10
9.0
 20
5.0809522629
 11
9.0
 21
5.1738096714
  0
LINE
  5
69D
100
AcDbEntity
  8
CURVE
100
AcDbLine
 62
253
  6
CONTINUOUS
 10
9.0
 20
11.1785714507
 11
9.0
 21
11.2714285493
  0
LINE
  5
69E
100
AcDbEntity
  8
CURVE
100
AcDbLine
 62
253
  6
CONTINUOUS
 10
9.0
 20
12.85
 11
9.0
 21
13.5
  0
LINE
  5
69F
100
AcDbEntity
  8
ASSI
100
AcDbLine
 62
253
  6
CONTINUOUS
 10
9.2602071525
 20
22.4493803117
 11
9.2602071525
 21
21.051836852
  0
LINE
  5
6A0
100
AcDbEntity
  8
ASSI
100
AcDbLine
 62
253
  6
CONTINUOUS
 10
9.2602071525
 20
-21.051836852
 11
9.2602071525
 21
-22.4493803117
  0
LINE
  5
6A1
100
AcDbEntity
  8
CURVE
100
AcDbLine
 62
253
  6
CONTINUOUS
 10
8.5625
 20
-0.3125
 11
8.5
 21
-0.5
  0
LINE
  5
6A2
100
AcDbEntity
  8
CURVE
100
AcDbLine
 62
253
  6
CONTINUOUS
 10
9.6875
 20
-0.4375
 11
9.625
 21
-0.625
  0
LINE
  5
6A3
100
AcDbEntity
  8
CURVE
100
AcDbLine
 62
253
  6
CONTINUOUS
 10
8.625
 20
-0.1875
 11
8.5625
 21
-0.3125
  0
LINE
  5
6A4
100
AcDbEntity
  8
CURVE
100
AcDbLine
 62
253
  6
CONTINUOUS
 10
9.75
 20
-0.3125
 11
9.6875
 21
-0.4375
  0
LINE
  5
6A5
100
AcDbEntity
  8
ASSI
100
AcDbLine
 62
7
  6
CONTINUOUS
 10
-10.2935241039
 20
-22.5
 11
-10.2600548477
 21
-22.4665307437
  0
LINE
  5
6A6
100
AcDbEntity
  8
CURVE
100
AcDbLine
 62
253
  6
CONTINUOUS
 10
-2.8857142746
 20
-10.9785716057
 11
-3.0714285493
 21
-11.0714283943
  0
LINE
  5
6A7
100
AcDbEntity
  8
CURVE
100
AcDbLine
 62
253
  6
CONTINUOUS
 10
-7.0714285493
 20
-12.0
 11
-8.0
 21
-12.2785716057
  0
LINE
  5
6A8
100
AcDbEntity
  8
0
100
AcDbLine
 62
7
  6
CONTINUOUS
 10
11.1825449351
 20
8.0349101299
 11
11.15
 21
8.0349101299
  0
LINE
  5
6A9
100
AcDbEntity
  8
0
100
AcDbLine
 62
7
  6
CONTINUOUS
 10
-11.1825449351
 20
8.0349101299
 11
-11.15
 21
8.0349101299
  0
LINE
  5
6AA
100
AcDbEntity
  8
CURVE
100
AcDbLine
 62
253
  6
CONTINUOUS
 10
7.6285714447
 20
8.55
 11
7.0857143342
 21
8.55
  0
LINE
  5
6AB
100
AcDbEntity
  8
CURVE
100
AcDbLine
 62
253
  6
CONTINUOUS
 10
-2.95196
 20
8.982444
 11
-3.70278
 21
8.982444
  0
LINE
  5
6AC
100
AcDbEntity
  8
CURVE
100
AcDbLine
 62
253
  6
CONTINUOUS
 10
-7.29722
 20
8.982444
 11
-8.04804
 21
8.982444
  0
LINE
  5
6AD
100
AcDbEntity
  8
0
100
AcDbLine
 62
7
  6
CONTINUOUS
 10
11.1825449351
 20
8.9982544935
 11
11.15
 21
8.9982544935
  0
LINE
  5
6AE
100
AcDbEntity
  8
0
100
AcDbLine
 62
7
  6
CONTINUOUS
 10
-11.15
 20
8.9982544935
 11
-11.1825449351
 21
8.9982544935
  0
LINE
  5
6AF
100
AcDbEntity
  8
CURVE
100
AcDbLine
 62
253
  6
CONTINUOUS
 10
-5.125
 20
9.382444
 11
-5.875
 21
9.382444
  0
LINE
  5
6B0
100
AcDbEntity
  8
CURVE
100
AcDbLine
 62
253
  6
CONTINUOUS
 10
6.0
 20
9.5
 11
7.9
 21
9.5
  0
LINE
  5
6B1
100
AcDbEntity
  8
CURVE
100
AcDbLine
 62
253
  6
CONTINUOUS
 10
9.371428588
 20
4.8023806572
 11
9.185714294
 21
4.8952380657
  0
LINE
  5
6B2
100
AcDbEntity
  8
CURVE
100
AcDbLine
 62
253
  6
CONTINUOUS
 10
9.9285714507
 20
5.4523806572
 11
10.1142857254
 21
5.3595238686
  0
LINE
  5
6B3
100
AcDbEntity
  8
SMUSSO
100
AcDbLine
 62
7
  6
CONTINUOUS
 10
-0.25
 20
11.25
 11
0.25
 21
10.75
  0
LINE
  5
6B4
100
AcDbEntity
  8
ASSI
100
AcDbLine
 62
7
  6
CONTINUOUS
 10
-0.25
 20
11.25
 11
0.25
 21
10.75
  0
LINE
  5
6B5
100
AcDbEntity
  8
SMUSSO
100
AcDbLine
 62
7
  6
CONTINUOUS
 10
4.75
 20
6.75
 11
4.25
 21
7.25
  0
LINE
  5
6B6
100
AcDbEntity
  8
ASSI
100
AcDbLine
 62
7
  6
CONTINUOUS
 10
4.75
 20
6.75
 11
4.25
 21
7.25
  0
LINE
  5
6B7
100
AcDbEntity
  8
ASSI
100
AcDbLine
 62
7
  6
CONTINUOUS
 10
-10.2600548477
 20
22.4665307437
 11
-10.2935241039
 21
22.5
  0
LWPOLYLINE
  5
6B8
100
AcDbEntity
  8
0
100
AcDbPolyline
 62
7
  6
CONTINUOUS
 90
9
 70
0
 10
-3.4175430786
 20
20.1
 10
-3.4185151331
 20
20.1015222638
 10
-3.4194872075
 20
20.1060773343
 10
-3.4204593019
 20
20.1136303427
 10
-3.4214314291
 20
20.1241234428
 10
-3.4224035762
 20
20.1374766726
 10
-3.4233757052
 20
20.1535889578
 10
-3.4243477972
 20
20.1723382485
 10
-3.4253198711
 20
20.1935816995
  0
LINE
  5
6B9
100
AcDbEntity
  8
CURVE
100
AcDbLine
 62
253
  6
CONTINUOUS
 10
9.5625
 20
-0.4375
 11
9.4375
 21
-0.1875
  0
LINE
  5
6BA
100
AcDbEntity
  8
CURVE
100
AcDbLine
 62
253
  6
CONTINUOUS
 10
8.5
 20
-0.6875
 11
8.5625
 21
-0.9375
  0
LINE
  5
6BB
100
AcDbEntity
  8
CURVE
100
AcDbLine
 62
253
  6
CONTINUOUS
 10
9.625
 20
-0.6875
 11
9.5625
 21
-0.4375
  0
LINE
  5
6BC
100
AcDbEntity
  8
DRAFT
100
AcDbLine
 62
7
  6
CONTINUOUS
 10
11.15
 20
-15.149318665
 11
11.1615988572
 21
-15.3911761874
  0
LINE
  5
6BD
100
AcDbEntity
  8
CURVE
100
AcDbLine
 62
253
  6
CONTINUOUS
 10
9.625
 20
-0.625
 11
9.625
 21
-0.6875
  0
LINE
  5
6BE
100
AcDbEntity
  8
CURVE
100
AcDbLine
 62
253
  6
CONTINUOUS
 10
9.7428571761
 20
4.4309522629
 11
9.7428571761
 21
3.7809522629
  0
LINE
  5
6BF
100
AcDbEntity
  8
CURVE
100
AcDbLine
 62
253
  6
CONTINUOUS
 10
9.7428571761
 20
6.0095238686
 11
9.7428571761
 21
6.3809522629
  0
LINE
  5
6C0
100
AcDbEntity
  8
CURVE
100
AcDbLine
 62
253
  6
CONTINUOUS
 10
9.7428571761
 20
12.1071429014
 11
9.7428571761
 21
12.2928571761
  0
LINE
  5
6C1
100
AcDbEntity
  8
RACCORDO
100
AcDbLine
 62
7
  6
CONTINUOUS
 10
9.7973819397
 20
-19.5263078747
 11
9.7973819397
 21
-19.6026183423
  0
LINE
  5
6C2
100
AcDbEntity
  8
ASSI
100
AcDbLine
 62
7
  6
CONTINUOUS
 10
9.7973819397
 20
-19.5263078747
 11
9.7973819397
 21
-19.6026183423
  0
LINE
  5
6C3
100
AcDbEntity
  8
CURVE
100
AcDbLine
 62
253
  6
CONTINUOUS
 10
9.9285714507
 20
3.4095238686
 11
9.9285714507
 21
2.8523806572
  0
LINE
  5
6C4
100
AcDbEntity
  8
ASSI
100
AcDbLine
 62
253
  6
CONTINUOUS
 10
10.2600548477
 20
22.4665307437
 11
10.2600548477
 21
21.0461777215
  0
LINE
  5
6C5
100
AcDbEntity
  8
ASSI
100
AcDbLine
 62
253
  6
CONTINUOUS
 10
10.2600548477
 20
-21.0461777215
 11
10.2600548477
 21
-22.4665307437
  0
LINE
  5
6C6
100
AcDbEntity
  8
CURVE
100
AcDbLine
 62
253
  6
CONTINUOUS
 10
10.3
 20
11.2714285493
 11
10.3
 21
11.1785714507
  0
LINE
  5
6C7
100
AcDbEntity
  8
CURVE
100
AcDbLine
 62
253
  6
CONTINUOUS
 10
10.3
 20
6.3809522629
 11
10.3
 21
5.8238096714
  0
LINE
  5
6C8
100
AcDbEntity
  8
CURVE
100
AcDbLine
 62
253
  6
CONTINUOUS
 10
10.3
 20
5.1738096714
 11
10.3
 21
5.0809522629
  0
LINE
  5
6C9
100
AcDbEntity
  8
CURVE
100
AcDbLine
 62
253
  6
CONTINUOUS
 10
10.3
 20
12.1071429014
 11
10.3
 21
12.4785714507
  0
LINE
  5
6CA
100
AcDbEntity
  8
CURVE
100
AcDbLine
 62
253
  6
CONTINUOUS
 10
10.3
 20
13.0357142746
 11
10.3
 21
13.314285706
  0
LINE
  5
6CB
100
AcDbEntity
  8
CURVE
100
AcDbLine
 62
253
  6
CONTINUOUS
 10
10.375
 20
-0.6875
 11
10.375
 21
-0.5625
  0
LINE
  5
6CC
100
AcDbEntity
  8
RACCORDO
100
AcDbLine
 62
7
  6
CONTINUOUS
 10
10.4
 20
23.75
 11
10.4
 21
22.3935241039
  0
LINE
  5
6CD
100
AcDbEntity
  8
DRAFT
100
AcDbLine
 62
7
  6
CONTINUOUS
 10
10.4
 20
-22.3935241039
 11
10.4
 21
-21.0
  0
LINE
  5
6CE
100
AcDbEntity
  8
RACCORDO
100
AcDbLine
 62
7
  6
CONTINUOUS
 10
10.4
 20
-22.3935241039
 11
10.4
 21
-23.75
  0
LINE
  5
6CF
100
AcDbEntity
  8
DRAFT
100
AcDbLine
 62
7
  6
CONTINUOUS
 10
10.4
 20
21.0
 11
10.4
 21
22.3935241039
  0
LINE
  5
6D0
100
AcDbEntity
  8
RACCORDO
100
AcDbLine
 62
7
  6
CONTINUOUS
 10
11.0130903017
 20
-17.9912243901
 11
11.0130903017
 21
17.9912243901
  0
LINE
  5
6D1
100
AcDbEntity
  8
ASSI
100
AcDbLine
 62
7
  6
CONTINUOUS
 10
11.0130903017
 20
-17.9912243901
 11
11.0130903017
 21
17.9912243901
  0
LINE
  5
6D2
100
AcDbEntity
  8
RACCORDO
100
AcDbLine
 62
7
  6
CONTINUOUS
 10
11.0278145455
 20
-17.6210881763
 11
11.0278145455
 21
17.6210881763
  0
LINE
  5
6D3
100
AcDbEntity
  8
DRAFT
100
AcDbLine
 62
7
  6
CONTINUOUS
 10
11.0952696104
 20
-20.9654420987
 11
11.0952696104
 21
-19.6523651948
  0
LINE
  5
6D4
100
AcDbEntity
  8
DRAFT
100
AcDbLine
 62
7
  6
CONTINUOUS
 10
11.0952696104
 20
19.6523651948
 11
11.0952696104
 21
20.9654420987
  0
LINE
  5
6D5
100
AcDbEntity
  8
RACCORDO
100
AcDbLine
 62
7
  6
CONTINUOUS
 10
11.15
 20
-17.6716990487
 11
11.15
 21
17.6716990487
  0
LINE
  5
6D6
100
AcDbEntity
  8
DRAFT
100
AcDbLine
 62
7
  6
CONTINUOUS
 10
11.1615988572
 20
19.5860359481
 11
11.1615988572
 21
15.3911761874
  0
LINE
  5
6D7
100
AcDbEntity
  8
DRAFT
100
AcDbLine
 62
7
  6
CONTINUOUS
 10
11.1615988572
 20
-15.3911761874
 11
11.1615988572
 21
-19.5860359481
  0
LINE
  5
6D8
100
AcDbEntity
  8
0
100
AcDbLine
 62
7
  6
CONTINUOUS
 10
11.1825449351
 20
14.1650898701
 11
11.1825449351
 21
13.2017455065
  0
LINE
  5
6D9
100
AcDbEntity
  8
0
100
AcDbLine
 62
7
  6
CONTINUOUS
 10
11.1825449351
 20
8.9982544935
 11
11.1825449351
 21
8.0349101299
  0
LINE
  5
6DA
100
AcDbEntity
  8
0
100
AcDbLine
 62
7
  6
CONTINUOUS
 10
11.1825449351
 20
-8.0349101299
 11
11.1825449351
 21
-8.9982544935
  0
LINE
  5
6DB
100
AcDbEntity
  8
0
100
AcDbLine
 62
7
  6
CONTINUOUS
 10
11.1825449351
 20
-13.2017455065
 11
11.1825449351
 21
-14.1650898701
  0
LINE
  5
6DC
100
AcDbEntity
  8
DRAFT
100
AcDbLine
 62
7
  6
CONTINUOUS
 10
11.1825449351
 20
10.3418921558
 11
11.1825449351
 21
10.9674550649
  0
LINE
  5
6DD
100
AcDbEntity
  8
ASSI
100
AcDbLine
 62
7
  6
CONTINUOUS
 10
11.1825449351
 20
10.3418921558
 11
11.1825449351
 21
10.9674550649
  0
LINE
  5
6DE
100
AcDbEntity
  8
0
100
AcDbLine
 62
7
  6
CONTINUOUS
 10
11.1842904416
 20
-13.2
 11
11.1842904416
 21
-9.0
  0
LINE
  5
6DF
100
AcDbEntity
  8
0
100
AcDbLine
 62
7
  6
CONTINUOUS
 10
11.1842904416
 20
9.0
 11
11.1842904416
 21
13.2
  0
LINE
  5
6E0
100
AcDbEntity
  8
DRAFT
100
AcDbLine
 62
7
  6
CONTINUOUS
 10
11.2
 20
21.0
 11
11.2
 21
-21.0
  0
LINE
  5
6E1
100
AcDbEntity
  8
DRAFT
100
AcDbLine
 62
7
  6
CONTINUOUS
 10
11.1615988572
 20
15.3911761874
 11
11.15
 21
15.149318665
  0
LINE
  5
6E2
100
AcDbEntity
  8
CURVE
100
AcDbLine
 62
253
  6
CONTINUOUS
 10
10.3125
 20
-0.9375
 11
10.375
 21
-0.6875
  0
LINE
  5
6E3
100
AcDbEntity
  8
CURVE
100
AcDbLine
 62
253
  6
CONTINUOUS
 10
10.25
 20
-1.125
 11
10.3125
 21
-0.9375
  0
LINE
  5
6E4
100
AcDbEntity
  8
CURVE
100
AcDbLine
 62
253
  6
CONTINUOUS
 10
10.1875
 20
-1.25
 11
10.25
 21
-1.125
  0
LINE
  5
6E5
100
AcDbEntity
  8
RACCORDO
100
AcDbLine
 62
7
  6
CONTINUOUS
 10
-6.0476387933
 20
-20.8476387933
 11
-6.6741974154
 21
-21.4741974154
  0
LINE
  5
6E6
100
AcDbEntity
  8
CURVE
100
AcDbLine
 62
253
  6
CONTINUOUS
 10
-3.0714285493
 20
-12.0
 11
-4.0
 21
-12.2785716057
  0
LINE
  5
6E7
100
AcDbEntity
  8
DRAFT
100
AcDbLine
 62
7
  6
CONTINUOUS
 10
11.1825449351
 20
10.3418921558
 11
11.15
 21
10.3418921558
  0
LINE
  5
6E8
100
AcDbEntity
  8
ASSI
100
AcDbLine
 62
7
  6
CONTINUOUS
 10
11.1825449351
 20
10.3418921558
 11
11.15
 21
10.3418921558
  0
LINE
  5
6E9
100
AcDbEntity
  8
DRAFT
100
AcDbLine
 62
7
  6
CONTINUOUS
 10
-11.15
 20
10.3418921558
 11
-11.1825449351
 21
10.3418921558
  0
LINE
  5
6EA
100
AcDbEntity
  8
ASSI
100
AcDbLine
 62
7
  6
CONTINUOUS
 10
-11.15
 20
10.3418921558
 11
-11.1825449351
 21
10.3418921558
  0
LINE
  5
6EB
100
AcDbEntity
  8
0
100
AcDbLine
 62
7
  6
CONTINUOUS
 10
3.6
 20
10.5
 11
0.6
 21
10.5
  0
LINE
  5
6EC
100
AcDbEntity
  8
SMUSSO
100
AcDbLine
 62
7
  6
CONTINUOUS
 10
0.25
 20
10.75
 11
4.25
 21
10.75
  0
LINE
  5
6ED
100
AcDbEntity
  8
ASSI
100
AcDbLine
 62
7
  6
CONTINUOUS
 10
0.25
 20
10.75
 11
4.25
 21
10.75
  0
LINE
  5
6EE
100
AcDbEntity
  8
CURVE
100
AcDbLine
 62
253
  6
CONTINUOUS
 10
9.9285714507
 20
10.9
 11
9.371428588
 21
10.9
  0
LINE
  5
6EF
100
AcDbEntity
  8
DRAFT
100
AcDbLine
 62
7
  6
CONTINUOUS
 10
11.1825449351
 20
10.9674550649
 11
11.15
 21
10.9674550649
  0
LINE
  5
6F0
100
AcDbEntity
  8
DRAFT
100
AcDbLine
 62
7
  6
CONTINUOUS
 10
-11.1825449351
 20
10.9674550649
 11
-11.15
 21
10.9674550649
  0
LINE
  5
6F1
100
AcDbEntity
  8
ASSI
100
AcDbLine
 62
7
  6
CONTINUOUS
 10
11.1825449351
 20
10.9674550649
 11
11.15
 21
10.9674550649
  0
LINE
  5
6F2
100
AcDbEntity
  8
ASSI
100
AcDbLine
 62
7
  6
CONTINUOUS
 10
-11.1825449351
 20
10.9674550649
 11
-11.15
 21
10.9674550649
  0
LINE
  5
6F3
100
AcDbEntity
  8
DRAFT
100
AcDbLine
 62
7
  6
CONTINUOUS
 10
11.1842904416
 20
11.0294877581
 11
11.15
 21
11.0294877581
  0
LINE
  5
6F4
100
AcDbEntity
  8
ASSI
100
AcDbLine
 62
7
  6
CONTINUOUS
 10
11.1842904416
 20
11.0294877581
 11
11.15
 21
11.0294877581
  0
LINE
  5
6F5
100
AcDbEntity
  8
DRAFT
100
AcDbLine
 62
7
  6
CONTINUOUS
 10
-11.15
 20
11.0294877581
 11
-11.1842904416
 21
11.0294877581
  0
LINE
  5
6F6
100
AcDbEntity
  8
ASSI
100
AcDbLine
 62
7
  6
CONTINUOUS
 10
-11.15
 20
11.0294877581
 11
-11.1842904416
 21
11.0294877581
  0
LINE
  5
6F7
100
AcDbEntity
  8
RACCORDO
100
AcDbLine
 62
7
  6
CONTINUOUS
 10
-10.7130788782
 20
11.15
 11
-9.8
 21
11.15
  0
LINE
  5
6F8
100
AcDbEntity
  8
ASSI
100
AcDbLine
 62
7
  6
CONTINUOUS
 10
-10.7130788782
 20
11.15
 11
-9.8
 21
11.15
  0
LINE
  5
6F9
100
AcDbEntity
  8
SMUSSO
100
AcDbLine
 62
7
  6
CONTINUOUS
 10
-0.25
 20
11.25
 11
4.75
 21
11.25
  0
LINE
  5
6FA
100
AcDbEntity
  8
ASSI
100
AcDbLine
 62
7
  6
CONTINUOUS
 10
-0.25
 20
11.25
 11
4.75
 21
11.25
  0
LINE
  5
6FB
100
AcDbEntity
  8
CURVE
100
AcDbLine
 62
253
  6
CONTINUOUS
 10
9.185714294
 20
4.8952380657
 11
9.0
 21
5.0809522629
  0
LINE
  5
6FC
100
AcDbEntity
  8
RACCORDO
100
AcDbLine
 62
7
  6
CONTINUOUS
 10
-6.0476387933
 20
20.8476387933
 11
-6.6741974154
 21
21.4741974154
  0
LINE
  5
6FD
100
AcDbEntity
  8
CURVE
100
AcDbLine
 62
253
  6
CONTINUOUS
 10
9.0
 20
6.0095238686
 11
9.185714294
 21
5.8238096714
  0
LINE
  5
6FE
100
AcDbEntity
  8
CURVE
100
AcDbLine
 62
253
  6
CONTINUOUS
 10
10.1142857254
 20
5.3595238686
 11
10.3
 21
5.1738096714
  0
LINE
  5
6FF
100
AcDbEntity
  8
CURVE
100
AcDbLine
 62
253
  6
CONTINUOUS
 10
7.0857143342
 20
8.55
 11
6.8142857224
 21
8.8214285553
  0
LINE
  5
700
100
AcDbEntity
  8
SMUSSO
100
AcDbLine
 62
7
  6
CONTINUOUS
 10
-0.25
 20
16.25
 11
0.25
 21
15.75
  0
LINE
  5
701
100
AcDbEntity
  8
ASSI
100
AcDbLine
 62
7
  6
CONTINUOUS
 10
-0.25
 20
16.25
 11
0.25
 21
15.75
  0
LINE
  5
702
100
AcDbEntity
  8
CURVE
100
AcDbLine
 62
253
  6
CONTINUOUS
 10
10.375
 20
-0.5625
 11
10.3125
 21
-0.375
  0
LINE
  5
703
100
AcDbEntity
  8
RACCORDO
100
AcDbLine
 62
7
  6
CONTINUOUS
 10
12.4
 20
-23.75
 11
12.4
 21
23.75
  0
LINE
  5
704
100
AcDbEntity
  8
DRAFT
100
AcDbLine
 62
7
  6
CONTINUOUS
 10
-3.5
 20
-19.7
 11
-3.4633443637
 21
-19.6633443637
  0
LINE
  5
705
100
AcDbEntity
  8
DRAFT
100
AcDbLine
 62
7
  6
CONTINUOUS
 10
-3.5
 20
-19.9
 11
-3.4633443637
 21
-19.8633443637
  0
LINE
  5
706
100
AcDbEntity
  8
ASSI
100
AcDbLine
 62
7
  6
CONTINUOUS
 10
-3.9
 20
-20.9808008909
 11
-3.9911511448
 21
-21.0698928577
  0
LINE
  5
707
100
AcDbEntity
  8
RACCORDO
100
AcDbLine
 62
253
  6
CONTINUOUS
 10
-11.15
 20
-17.6716990487
 11
-11.0278145455
 21
-17.6210881763
  0
LINE
  5
708
100
AcDbEntity
  8
CURVE
100
AcDbLine
 62
253
  6
CONTINUOUS
 10
9.371428588
 20
11.55
 11
9.9285714507
 21
11.55
  0
LINE
  5
709
100
AcDbEntity
  8
SMUSSO
100
AcDbLine
 62
7
  6
CONTINUOUS
 10
4.75
 20
11.75
 11
-0.25
 21
11.75
  0
LINE
  5
70A
100
AcDbEntity
  8
ASSI
100
AcDbLine
 62
7
  6
CONTINUOUS
 10
4.75
 20
11.75
 11
-0.25
 21
11.75
  0
LINE
  5
70B
100
AcDbEntity
  8
RACCORDO
100
AcDbLine
 62
7
  6
CONTINUOUS
 10
-10.7130788782
 20
11.85
 11
-9.8
 21
11.85
  0
LINE
  5
70C
100
AcDbEntity
  8
ASSI
100
AcDbLine
 62
7
  6
CONTINUOUS
 10
-10.7130788782
 20
11.85
 11
-9.8
 21
11.85
  0
LINE
  5
70D
100
AcDbEntity
  8
CURVE
100
AcDbLine
 62
253
  6
CONTINUOUS
 10
9.092857147
 20
11.9214285493
 11
9.5571428627
 21
11.9214285493
  0
LINE
  5
70E
100
AcDbEntity
  8
CURVE
100
AcDbLine
 62
253
  6
CONTINUOUS
 10
9.8357142746
 20
11.9523809671
 11
10.1142857254
 21
11.9523809671
  0
LINE
  5
70F
100
AcDbEntity
  8
SMUSSO
100
AcDbLine
 62
7
  6
CONTINUOUS
 10
4.25
 20
12.25
 11
0.25
 21
12.25
  0
LINE
  5
710
100
AcDbEntity
  8
ASSI
100
AcDbLine
 62
7
  6
CONTINUOUS
 10
4.25
 20
12.25
 11
0.25
 21
12.25
  0
LINE
  5
711
100
AcDbEntity
  8
0
100
AcDbLine
 62
7
  6
CONTINUOUS
 10
0.6
 20
12.5
 11
3.6
 21
12.5
  0
LINE
  5
712
100
AcDbEntity
  8
CURVE
100
AcDbLine
 62
253
  6
CONTINUOUS
 10
9.9285714507
 20
12.85
 11
10.1142857254
 21
12.85
  0
LINE
  5
713
100
AcDbEntity
  8
0
100
AcDbLine
 62
7
  6
CONTINUOUS
 10
-11.1825449351
 20
13.2017455065
 11
-11.15
 21
13.2017455065
  0
LINE
  5
714
100
AcDbEntity
  8
0
100
AcDbLine
 62
7
  6
CONTINUOUS
 10
11.15
 20
13.2017455065
 11
11.1825449351
 21
13.2017455065
  0
LINE
  5
715
100
AcDbEntity
  8
CURVE
100
AcDbLine
 62
253
  6
CONTINUOUS
 10
9.0
 20
10.1571429014
 11
10.3
 21
9.7857141972
  0
LINE
  5
716
100
AcDbEntity
  8
RACCORDO
100
AcDbLine
 62
253
  6
CONTINUOUS
 10
-11.0278145455
 20
17.6210881763
 11
-11.15
 21
17.6716990487
  0
LINE
  5
717
100
AcDbEntity
  8
ASSI
100
AcDbLine
 62
7
  6
CONTINUOUS
 10
-3.9911511448
 20
21.0698928577
 11
-3.9
 21
20.9808008909
  0
LINE
  5
718
100
AcDbEntity
  8
DRAFT
100
AcDbLine
 62
7
  6
CONTINUOUS
 10
-3.5
 20
19.7
 11
-3.4633443637
 21
19.6633443637
  0
LINE
  5
719
100
AcDbEntity
  8
DRAFT
100
AcDbLine
 62
7
  6
CONTINUOUS
 10
-3.4633443637
 20
19.8633443637
 11
-3.5
 21
19.9
  0
LINE
  5
71A
100
AcDbEntity
  8
SMUSSO
100
AcDbLine
 62
7
  6
CONTINUOUS
 10
4.75
 20
11.75
 11
4.25
 21
12.25
  0
LINE
  5
71B
100
AcDbEntity
  8
ASSI
100
AcDbLine
 62
7
  6
CONTINUOUS
 10
4.75
 20
11.75
 11
4.25
 21
12.25
  0
LINE
  5
71C
100
AcDbEntity
  8
CURVE
100
AcDbLine
 62
253
  6
CONTINUOUS
 10
9.4023809671
 20
9.4142858028
 11
9.4952381045
 21
9.1976190329
  0
LINE
  5
71D
100
AcDbEntity
  8
CURVE
100
AcDbLine
 62
253
  6
CONTINUOUS
 10
9.3095238104
 20
8.95
 11
9.4023809671
 21
8.7023809671
  0
LINE
  5
71E
100
AcDbEntity
  8
0
100
AcDbLine
 62
7
  6
CONTINUOUS
 10
-4.8698910976
 20
-19.7461274635
 11
-4.8
 21
-19.7
  0
LWPOLYLINE
  5
71F
100
AcDbEntity
  8
RACCORDO
100
AcDbPolyline
 62
253
  6
CONTINUOUS
 90
3
 70
0
 10
-1.8933221907
 20
-17.3448141709
 10
-1.8502766567
 20
-17.3177640399
 10
-1.8027519366
 20
-17.2979015438
  0
LINE
  5
720
100
AcDbEntity
  8
RACCORDO
100
AcDbLine
 62
253
  6
CONTINUOUS
 10
-10.5643027805
 20
-19.0856972195
 11
-10.442117326
 21
-19.0350863471
  0
LINE
  5
721
100
AcDbEntity
  8
CURVE
100
AcDbLine
 62
253
  6
CONTINUOUS
 10
-2.95196
 20
13.367554
 11
-3.70278
 21
13.367554
  0
LINE
  5
722
100
AcDbEntity
  8
CURVE
100
AcDbLine
 62
253
  6
CONTINUOUS
 10
-7.29722
 20
13.367554
 11
-8.04804
 21
13.367554
  0
LINE
  5
723
100
AcDbEntity
  8
0
100
AcDbLine
 62
7
  6
CONTINUOUS
 10
11.1825449351
 20
14.1650898701
 11
11.15
 21
14.1650898701
  0
LINE
  5
724
100
AcDbEntity
  8
0
100
AcDbLine
 62
7
  6
CONTINUOUS
 10
-11.1825449351
 20
14.1650898701
 11
-11.15
 21
14.1650898701
  0
LINE
  5
725
100
AcDbEntity
  8
CURVE
100
AcDbLine
 62
253
  6
CONTINUOUS
 10
7.9
 20
14.25
 11
6.0
 21
14.25
  0
LINE
  5
726
100
AcDbEntity
  8
RACCORDO
100
AcDbLine
 62
253
  6
CONTINUOUS
 10
-9.8595407725
 20
14.5655503016
 11
-9.8
 21
14.5655503016
  0
LINE
  5
727
100
AcDbEntity
  8
RACCORDO
100
AcDbLine
 62
253
  6
CONTINUOUS
 10
-9.8586133199
 20
14.8655046102
 11
-9.8
 21
14.8655046102
  0
LINE
  5
728
100
AcDbEntity
  8
RACCORDO
100
AcDbLine
 62
7
  6
CONTINUOUS
 10
-9.8585665218
 20
14.8778145455
 11
-9.8
 21
14.8778145455
  0
LINE
  5
729
100
AcDbEntity
  8
RACCORDO
100
AcDbLine
 62
253
  6
CONTINUOUS
 10
-10.442117326
 20
19.0350863471
 11
-10.5643027805
 21
19.0856972195
  0
LINE
  5
72A
100
AcDbEntity
  8
CURVE
100
AcDbLine
 62
253
  6
CONTINUOUS
 10
9.371428588
 20
10.9
 11
9.185714294
 21
10.9928570986
  0
LINE
  5
72B
100
AcDbEntity
  8
CURVE
100
AcDbLine
 62
253
  6
CONTINUOUS
 10
9.9285714507
 20
11.55
 11
10.1142857254
 21
11.4571429014
  0
LWPOLYLINE
  5
72C
100
AcDbEntity
  8
RACCORDO
100
AcDbPolyline
 62
253
  6
CONTINUOUS
 90
4
 70
0
 10
-1.8933221907
 20
17.3448141709
 10
-1.8502766567
 20
17.3177640399
 10
-1.8027519366
 20
17.2979015438
 10
-1.7521424653
 20
17.285755926
  0
LINE
  5
72D
100
AcDbEntity
  8
0
100
AcDbLine
 62
7
  6
CONTINUOUS
 10
-4.8
 20
19.7
 11
-4.8698910976
 21
19.7461274635
  0
LINE
  5
72E
100
AcDbEntity
  8
CURVE
100
AcDbLine
 62
253
  6
CONTINUOUS
 10
9.185714294
 20
10.9928570986
 11
9.0
 21
11.1785714507
  0
LINE
  5
72F
100
AcDbEntity
  8
CURVE
100
AcDbLine
 62
253
  6
CONTINUOUS
 10
9.0
 20
12.0142856479
 11
9.092857147
 21
11.9214285493
  0
LINE
  5
730
100
AcDbEntity
  8
CURVE
100
AcDbLine
 62
253
  6
CONTINUOUS
 10
9.7428571761
 20
12.1071429014
 11
9.8357142746
 21
11.9523809671
  0
LINE
  5
731
100
AcDbEntity
  8
ASSI
100
AcDbLine
 62
7
  6
CONTINUOUS
 10
-4.9911112875
 20
-21.5181771935
 11
-4.8607919572
 21
-21.4351178528
  0
LINE
  5
732
100
AcDbEntity
  8
ASSI
100
AcDbLine
 62
7
  6
CONTINUOUS
 10
-4.8607919572
 20
-21.4351178528
 11
-4.8087216462
 21
-21.4021890393
  0
LINE
  5
733
100
AcDbEntity
  8
ASSI
100
AcDbLine
 62
7
  6
CONTINUOUS
 10
-4.8087216462
 20
-21.4021890393
 11
-4.7573173725
 21
-21.3699731495
  0
LINE
  5
734
100
AcDbEntity
  8
ASSI
100
AcDbLine
 62
7
  6
CONTINUOUS
 10
-4.7573173725
 20
-21.3699731495
 11
-4.7071707159
 21
-21.338892575
  0
LINE
  5
735
100
AcDbEntity
  8
ASSI
100
AcDbLine
 62
7
  6
CONTINUOUS
 10
-4.7071707159
 20
-21.338892575
 11
-4.6586593221
 21
-21.3092424651
  0
LWPOLYLINE
  5
736
100
AcDbEntity
  8
ASSI
100
AcDbPolyline
 62
7
  6
CONTINUOUS
 90
29
 70
0
 10
-4.6586593221
 20
-21.3092424651
 10
-4.6119492267
 20
-21.2811912533
 10
-4.5893072062
 20
-21.2677944477
 10
-4.5671352457
 20
-21.2548290819
 10
-4.545438666
 20
-21.2422930255
 10
-4.5242169011
 20
-21.2301935537
 10
-4.5034717555
 20
-21.2185411019
 10
-4.4832120783
 20
-21.2073378868
 10
-4.4634307251
 20
-21.1965844528
 10
-4.444135715
 20
-21.1862927622
 10
-4.4253584519
 20
-21.1764794424
 10
-4.4071054491
 20
-21.1671473246
 10
-4.3893703843
 20
-21.1582963088
 10
-4.3721651075
 20
-21.1499343312
 10
-4.3555006957
 20
-21.1420630493
 10
-4.3393656728
 20
-21.1346750985
 10
-4.3237379376
 20
-21.1277631474
 10
-4.3086210083
 20
-21.1213245555
 10
-4.2940107546
 20
-21.1153532108
 10
-4.2798736977
 20
-21.1098379322
 10
-4.2662100455
 20
-21.1047746844
 10
-4.2530189357
 20
-21.1001581459
 10
-4.2402654725
 20
-21.0959778798
 10
-4.2279426097
 20
-21.092227688
 10
-4.2160568131
 20
-21.0889054699
 10
-4.2045935169
 20
-21.0860078313
 10
-4.193547574
 20
-21.0835294668
 10
-4.1829232788
 20
-21.0814634846
 10
-4.1727201634
 20
-21.0798031965
  0
LINE
  5
737
100
AcDbEntity
  8
DRAFT
100
AcDbLine
 62
7
  6
CONTINUOUS
 10
-11.2
 20
-21.0
 11
-11.0952696104
 21
-20.9654420987
  0
LINE
  5
738
100
AcDbEntity
  8
0
100
AcDbLine
 62
7
  6
CONTINUOUS
 10
-11.1615988572
 20
15.3911761874
 11
-11.15
 21
15.3911761874
  0
LINE
  5
739
100
AcDbEntity
  8
0
100
AcDbLine
 62
7
  6
CONTINUOUS
 10
11.1615988572
 20
15.3911761874
 11
11.15
 21
15.3911761874
  0
LINE
  5
73A
100
AcDbEntity
  8
0
100
AcDbLine
 62
7
  6
CONTINUOUS
 10
3.6
 20
15.5
 11
0.6
 21
15.5
  0
LINE
  5
73B
100
AcDbEntity
  8
SMUSSO
100
AcDbLine
 62
7
  6
CONTINUOUS
 10
0.25
 20
15.75
 11
4.25
 21
15.75
  0
LINE
  5
73C
100
AcDbEntity
  8
ASSI
100
AcDbLine
 62
7
  6
CONTINUOUS
 10
0.25
 20
15.75
 11
4.25
 21
15.75
  0
LINE
  5
73D
100
AcDbEntity
  8
RACCORDO
100
AcDbLine
 62
7
  6
CONTINUOUS
 10
-10.7130788782
 20
16.15
 11
-9.8
 21
16.15
  0
LINE
  5
73E
100
AcDbEntity
  8
ASSI
100
AcDbLine
 62
7
  6
CONTINUOUS
 10
-10.7130788782
 20
16.15
 11
-9.8
 21
16.15
  0
LINE
  5
73F
100
AcDbEntity
  8
SMUSSO
100
AcDbLine
 62
7
  6
CONTINUOUS
 10
-0.25
 20
16.25
 11
4.75
 21
16.25
  0
LINE
  5
740
100
AcDbEntity
  8
ASSI
100
AcDbLine
 62
7
  6
CONTINUOUS
 10
-0.25
 20
16.25
 11
4.75
 21
16.25
  0
LINE
  5
741
100
AcDbEntity
  8
0
100
AcDbLine
 62
7
  6
CONTINUOUS
 10
2.5
 20
16.6
 11
-2.5
 21
16.6
  0
LINE
  5
742
100
AcDbEntity
  8
ASSI
100
AcDbLine
 62
7
  6
CONTINUOUS
 10
2.5
 20
16.6
 11
-2.5
 21
16.6
  0
LINE
  5
743
100
AcDbEntity
  8
DRAFT
100
AcDbLine
 62
7
  6
CONTINUOUS
 10
-11.2
 20
21.0
 11
-11.0952696104
 21
20.9654420987
  0
LWPOLYLINE
  5
744
100
AcDbEntity
  8
RACCORDO
100
AcDbPolyline
 62
7
  6
CONTINUOUS
 90
8
 70
0
 10
-5.6025680966
 20
20.326459336
 10
-5.6025116237
 20
20.3264357021
 10
-5.6023539492
 20
20.3264056975
 10
-5.6020950732
 20
20.3263693221
 10
-5.6017326359
 20
20.3263264242
 10
-5.6012689971
 20
20.3262771555
 10
-5.600711236
 20
20.3262219715
 10
-5.5993203443
 20
20.3260944221
  0
LINE
  5
745
100
AcDbEntity
  8
ASSI
100
AcDbLine
 62
7
  6
CONTINUOUS
 10
-4.6119491635
 20
21.2811912157
 11
-4.6586595487
 21
21.3092426004
  0
LINE
  5
746
100
AcDbEntity
  8
ASSI
100
AcDbLine
 62
7
  6
CONTINUOUS
 10
-4.6586595487
 20
21.3092426004
 11
-4.7071708937
 21
21.3388926866
  0
LINE
  5
747
100
AcDbEntity
  8
ASSI
100
AcDbLine
 62
7
  6
CONTINUOUS
 10
-4.7071708937
 20
21.3388926866
 11
-4.7573171759
 21
21.3699730269
  0
LINE
  5
748
100
AcDbEntity
  8
ASSI
100
AcDbLine
 62
7
  6
CONTINUOUS
 10
-4.7573171759
 20
21.3699730269
 11
-4.8087214273
 21
21.402188901
  0
LINE
  5
749
100
AcDbEntity
  8
ASSI
100
AcDbLine
 62
7
  6
CONTINUOUS
 10
-4.8087214273
 20
21.402188901
 11
-4.8870044452
 21
21.4517578821
  0
LINE
  5
74A
100
AcDbEntity
  8
ASSI
100
AcDbLine
 62
7
  6
CONTINUOUS
 10
-4.8870044452
 20
21.4517578821
 11
-4.9911112875
 21
21.5181771935
  0
LINE
  5
74B
100
AcDbEntity
  8
CURVE
100
AcDbLine
 62
253
  6
CONTINUOUS
 10
10.3
 20
13.314285706
 11
10.0214285493
 21
13.5
  0
LINE
  5
74C
100
AcDbEntity
  8
CURVE
100
AcDbLine
 62
253
  6
CONTINUOUS
 10
9.0
 20
13.5
 11
9.9285714507
 21
12.85
  0
LINE
  5
74D
100
AcDbEntity
  8
CURVE
100
AcDbLine
 62
253
  6
CONTINUOUS
 10
10.1142857254
 20
11.4571429014
 11
10.3
 21
11.2714285493
  0
LINE
  5
74E
100
AcDbEntity
  8
DRAFT
100
AcDbLine
 62
7
  6
CONTINUOUS
 10
11.1842904416
 20
10.9657095584
 11
11.1825449351
 21
10.9674550649
  0
LINE
  5
74F
100
AcDbEntity
  8
ASSI
100
AcDbLine
 62
7
  6
CONTINUOUS
 10
11.1842904416
 20
10.9657095584
 11
11.1825449351
 21
10.9674550649
  0
LINE
  5
750
100
AcDbEntity
  8
0
100
AcDbLine
 62
7
  6
CONTINUOUS
 10
11.1825449351
 20
-13.2017455065
 11
11.1842904416
 21
-13.2
  0
LINE
  5
751
100
AcDbEntity
  8
RACCORDO
100
AcDbLine
 62
253
  6
CONTINUOUS
 10
4.8698910615
 20
-19.830127977
 11
4.7476387933
 21
-19.9523802452
  0
LINE
  5
752
100
AcDbEntity
  8
0
100
AcDbLine
 62
7
  6
CONTINUOUS
 10
11.15
 20
-14.1976348052
 11
11.1825449351
 21
-14.1650898701
  0
LINE
  5
753
100
AcDbEntity
  8
RACCORDO
100
AcDbLine
 62
7
  6
CONTINUOUS
 10
6.0476387933
 20
-20.4523612067
 11
6.6741974154
 21
-19.8258025846
  0
LINE
  5
754
100
AcDbEntity
  8
RACCORDO
100
AcDbLine
 62
253
  6
CONTINUOUS
 10
1.7521424653
 20
17.285755926
 11
1.7
 21
17.2816718427
  0
LINE
  5
755
100
AcDbEntity
  8
RACCORDO
100
AcDbLine
 62
7
  6
CONTINUOUS
 10
2.1464466094
 20
18.2325400167
 11
2.5005617456
 21
18.2356303326
  0
LINE
  5
756
100
AcDbEntity
  8
RACCORDO
100
AcDbLine
 62
7
  6
CONTINUOUS
 10
-1.7
 20
17.25
 11
1.7
 21
17.25
  0
LINE
  5
757
100
AcDbEntity
  8
RACCORDO
100
AcDbLine
 62
253
  6
CONTINUOUS
 10
-1.7
 20
17.2816718427
 11
1.7
 21
17.2816718427
  0
LINE
  5
758
100
AcDbEntity
  8
RACCORDO
100
AcDbLine
 62
7
  6
CONTINUOUS
 10
1.6039930308
 20
17.3
 11
-1.6039930308
 21
17.3
  0
LINE
  5
759
100
AcDbEntity
  8
ASSI
100
AcDbLine
 62
7
  6
CONTINUOUS
 10
1.6039930308
 20
17.3
 11
-1.6039930308
 21
17.3
  0
LINE
  5
75A
100
AcDbEntity
  8
ASSI
100
AcDbLine
 62
7
  6
CONTINUOUS
 10
2.5
 20
17.5
 11
-2.5
 21
17.5
  0
LINE
  5
75B
100
AcDbEntity
  8
ASSI
100
AcDbLine
 62
7
  6
CONTINUOUS
 10
2.5
 20
18.2
 11
-2.5
 21
18.2
  0
LINE
  5
75C
100
AcDbEntity
  8
RACCORDO
100
AcDbLine
 62
7
  6
CONTINUOUS
 10
-9.3912243901
 20
18.2130903017
 11
-4.3130788786
 21
18.2130903017
  0
LINE
  5
75D
100
AcDbEntity
  8
ASSI
100
AcDbLine
 62
7
  6
CONTINUOUS
 10
-9.3912243901
 20
18.2130903017
 11
-4.3130788786
 21
18.2130903017
  0
LINE
  5
75E
100
AcDbEntity
  8
DRAFT
100
AcDbLine
 62
7
  6
CONTINUOUS
 10
-8.6
 20
18.2574425998
 11
-7.4541107013
 21
18.2574425998
  0
LINE
  5
75F
100
AcDbEntity
  8
DRAFT
100
AcDbLine
 62
7
  6
CONTINUOUS
 10
-4.1432823548
 20
18.2661694676
 11
-7.4366556363
 21
18.2661694676
  0
LINE
  5
760
100
AcDbEntity
  8
RACCORDO
100
AcDbLine
 62
7
  6
CONTINUOUS
 10
-8.6
 20
18.2661694676
 11
-9.2661885061
 21
18.2661694676
  0
LINE
  5
761
100
AcDbEntity
  8
0
100
AcDbLine
 62
7
  6
CONTINUOUS
 10
-2.5
 20
18.3
 11
2.5
 21
18.3
  0
LINE
  5
762
100
AcDbEntity
  8
ASSI
100
AcDbLine
 62
7
  6
CONTINUOUS
 10
-2.5
 20
18.3
 11
2.5
 21
18.3
  0
LINE
  5
763
100
AcDbEntity
  8
RACCORDO
100
AcDbLine
 62
7
  6
CONTINUOUS
 10
-2.1464466094
 20
18.2325400167
 11
-2.5005617456
 21
18.2356303326
  0
LINE
  5
764
100
AcDbEntity
  8
RACCORDO
100
AcDbLine
 62
253
  6
CONTINUOUS
 10
-1.7521424653
 20
17.285755926
 11
-1.7
 21
17.2816718427
  0
LWPOLYLINE
  5
765
100
AcDbEntity
  8
RACCORDO
100
AcDbPolyline
 62
253
  6
CONTINUOUS
 90
40
 70
0
 10
-5.2056327786
 20
20.30235099
 10
-5.1907513486
 20
20.2969084018
 10
-5.176049817
 20
20.2909970062
 10
-5.1615429493
 20
20.2846227405
 10
-5.1472453152
 20
20.2777920066
 10
-5.1331712745
 20
20.2705116647
 10
-5.1193349623
 20
20.262789027
 10
-5.1057502751
 20
20.2546318496
 10
-5.0924308565
 20
20.246048325
 10
-5.0793900838
 20
20.2370470741
 10
-5.0666410543
 20
20.2276371371
 10
-5.0541965724
 20
20.217827965
 10
-5.0420691367
 20
20.2076294094
 10
-5.0302709273
 20
20.1970517132
 10
-5.0188137935
 20
20.1861055
 10
-5.0077092423
 20
20.1748017635
 10
-4.9969684265
 20
20.1631518567
 10
-4.9866021335
 20
20.1511674798
 10
-4.9766207745
 20
20.1388606695
 10
-4.9670343744
 20
20.1262437859
 10
-4.9578525611
 20
20.1133295006
 10
-4.9490845563
 20
20.1001307841
 10
-4.9407391661
 20
20.0866608924
 10
-4.9328247722
 20
20.0729333538
 10
-4.9253493232
 20
20.0589619556
 10
-4.918320327
 20
20.0447607297
 10
-4.9117448433
 20
20.030343939
 10
-4.9056294761
 20
20.015726063
 10
-4.8999803672
 20
20.0009217829
 10
-4.8948031903
 20
19.9859459674
 10
-4.890103145
 20
19.9708136573
 10
-4.8858849519
 20
19.9555400506
 10
-4.8821528474
 20
19.9401404873
 10
-4.8789105798
 20
19.9246304337
 10
-4.8761614055
 20
19.9090254673
 10
-4.8739080856
 20
19.8933412607
 10
-4.8721528832
 20
19.8775935664
 10
-4.8708975611
 20
19.8617982003
 10
-4.8701433801
 20
19.8459710265
 10
-4.8698910976
 20
19.8301279408
  0
LINE
  5
766
100
AcDbEntity
  8
0
100
AcDbLine
 62
7
  6
CONTINUOUS
 10
11.1825449351
 20
13.2017455065
 11
11.1842904416
 21
13.2
  0
LINE
  5
767
100
AcDbEntity
  8
RACCORDO
100
AcDbLine
 62
253
  6
CONTINUOUS
 10
4.7476387933
 20
19.9523802452
 11
4.8698910615
 21
19.830127977
  0
LINE
  5
768
100
AcDbEntity
  8
0
100
AcDbLine
 62
7
  6
CONTINUOUS
 10
11.15
 20
14.1976348052
 11
11.1825449351
 21
14.1650898701
  0
LINE
  5
769
100
AcDbEntity
  8
RACCORDO
100
AcDbLine
 62
7
  6
CONTINUOUS
 10
6.0476387933
 20
20.4523612067
 11
6.6741974154
 21
19.8258025846
  0
LINE
  5
76A
100
AcDbEntity
  8
RACCORDO
100
AcDbLine
 62
7
  6
CONTINUOUS
 10
7.4
 20
-19.7
 11
7.3510263866
 21
-19.7489736134
  0
LINE
  5
76B
100
AcDbEntity
  8
DRAFT
100
AcDbLine
 62
7
  6
CONTINUOUS
 10
7.4
 20
-19.7
 11
7.4366556363
 21
-19.6633443637
  0
LINE
  5
76C
100
AcDbEntity
  8
RACCORDO
100
AcDbLine
 62
7
  6
CONTINUOUS
 10
7.4345579013
 20
-20.9654420987
 11
7.3510263866
 21
-21.0489736134
  0
LINE
  5
76D
100
AcDbEntity
  8
RACCORDO
100
AcDbLine
 62
7
  6
CONTINUOUS
 10
4.8183298692
 20
-22.053447355
 11
4.9911112875
 21
-21.9199498914
  0
LINE
  5
76E
100
AcDbEntity
  8
RACCORDO
100
AcDbLine
 62
7
  6
CONTINUOUS
 10
4.7349791125
 20
-22.1172240813
 11
4.8183298692
 21
-22.053447355
  0
LINE
  5
76F
100
AcDbEntity
  8
RACCORDO
100
AcDbLine
 62
7
  6
CONTINUOUS
 10
4.6810985611
 20
-22.1580580455
 11
4.7349791125
 21
-22.1172240813
  0
LINE
  5
770
100
AcDbEntity
  8
RACCORDO
100
AcDbLine
 62
7
  6
CONTINUOUS
 10
5.0567639172
 20
-20.4145023001
 11
5.2056327843
 21
-20.3023509737
  0
LINE
  5
771
100
AcDbEntity
  8
RACCORDO
100
AcDbLine
 62
7
  6
CONTINUOUS
 10
4.6289296445
 20
-22.1971801664
 11
4.6810985611
 21
-22.1580580455
  0
LINE
  5
772
100
AcDbEntity
  8
RACCORDO
100
AcDbLine
 62
7
  6
CONTINUOUS
 10
4.5787228668
 20
-22.2343870134
 11
4.6289296445
 21
-22.1971801664
  0
LWPOLYLINE
  5
773
100
AcDbEntity
  8
ASSI
100
AcDbPolyline
 62
7
  6
CONTINUOUS
 90
7
 70
0
 10
4.1727201634
 20
21.0798031965
 10
4.1645346938
 20
21.0781584247
 10
4.1566167156
 20
21.0768058129
 10
4.1489662287
 20
21.0757404416
 10
4.1415832331
 20
21.0749572457
 10
4.1344677289
 20
21.0744510248
 10
4.1276197159
 20
21.0742164539
  0
LWPOLYLINE
  5
774
100
AcDbEntity
  8
RACCORDO
100
AcDbPolyline
 62
7
  6
CONTINUOUS
 90
7
 70
0
 10
5.600711236
 20
20.3262219715
 10
5.6012689971
 20
20.3262771555
 10
5.6017326359
 20
20.3263264242
 10
5.6020950732
 20
20.3263693221
 10
5.6023539492
 20
20.3264056975
 10
5.6025116237
 20
20.3264357021
 10
5.6025680966
 20
20.326459336
  0
LINE
  5
775
100
AcDbEntity
  8
RACCORDO
100
AcDbLine
 62
7
  6
CONTINUOUS
 10
5.5993203443
 20
20.3260944221
 11
5.600711236
 21
20.3262219715
  0
LINE
  5
776
100
AcDbEntity
  8
RACCORDO
100
AcDbLine
 62
7
  6
CONTINUOUS
 10
5.5965164369
 20
20.325856974
 11
5.5993203443
 21
20.3260944221
  0
LINE
  5
777
100
AcDbEntity
  8
RACCORDO
100
AcDbLine
 62
7
  6
CONTINUOUS
 10
5.589600815
 20
20.3253129103
 11
5.5965164369
 21
20.325856974
  0
LINE
  5
778
100
AcDbEntity
  8
RACCORDO
100
AcDbLine
 62
7
  6
CONTINUOUS
 10
5.568883535
 20
20.3237894375
 11
5.589600815
 21
20.3253129103
  0
LINE
  5
779
100
AcDbEntity
  8
RACCORDO
100
AcDbLine
 62
7
  6
CONTINUOUS
 10
5.0567639172
 20
20.4145023001
 11
5.5981715064
 21
20.4523612067
  0
LINE
  5
77A
100
AcDbEntity
  8
RACCORDO
100
AcDbLine
 62
7
  6
CONTINUOUS
 10
5.4939090618
 20
20.3186164564
 11
5.568883535
 21
20.3237894375
  0
LINE
  5
77B
100
AcDbEntity
  8
RACCORDO
100
AcDbLine
 62
7
  6
CONTINUOUS
 10
5.3833479882
 20
20.3114253005
 11
5.4939090618
 21
20.3186164564
  0
LINE
  5
77C
100
AcDbEntity
  8
RACCORDO
100
AcDbLine
 62
7
  6
CONTINUOUS
 10
5.3021245256
 20
20.3065003403
 11
5.3833479882
 21
20.3114253005
  0
LINE
  5
77D
100
AcDbEntity
  8
RACCORDO
100
AcDbLine
 62
7
  6
CONTINUOUS
 10
5.2602629348
 20
20.3041775512
 11
5.3021245256
 21
20.3065003403
  0
LINE
  5
77E
100
AcDbEntity
  8
RACCORDO
100
AcDbLine
 62
7
  6
CONTINUOUS
 10
5.2402232528
 20
20.3031747386
 11
5.2602629348
 21
20.3041775512
  0
LINE
  5
77F
100
AcDbEntity
  8
RACCORDO
100
AcDbLine
 62
7
  6
CONTINUOUS
 10
5.2292400509
 20
20.3026840926
 11
5.2402232528
 21
20.3031747386
  0
LWPOLYLINE
  5
780
100
AcDbEntity
  8
RACCORDO
100
AcDbPolyline
 62
253
  6
CONTINUOUS
 90
6
 70
0
 10
-4.8804559454
 20
19.8295322721
 10
-4.8768478231
 20
19.8296508597
 10
-4.873985361
 20
19.8297697482
 10
-4.8718707402
 20
19.8298888508
 10
-4.8705056172
 20
19.8300082543
 10
-4.8698910615
 20
19.8301279589
  0
LINE
  5
781
100
AcDbEntity
  8
RACCORDO
100
AcDbLine
 62
253
  6
CONTINUOUS
 10
-4.8898980046
 20
19.8292967814
 11
-4.8804559454
 21
19.8295322721
  0
LINE
  5
782
100
AcDbEntity
  8
RACCORDO
100
AcDbLine
 62
253
  6
CONTINUOUS
 10
-4.9095683016
 20
19.8289485605
 11
-4.8898980046
 21
19.8292967814
  0
LINE
  5
783
100
AcDbEntity
  8
RACCORDO
100
AcDbLine
 62
253
  6
CONTINUOUS
 10
-4.9566823892
 20
19.828387587
 11
-4.9095683016
 21
19.8289485605
  0
LINE
  5
784
100
AcDbEntity
  8
RACCORDO
100
AcDbLine
 62
253
  6
CONTINUOUS
 10
-5.1188737513
 20
19.8272847129
 11
-4.9566823892
 21
19.828387587
  0
LWPOLYLINE
  5
785
100
AcDbEntity
  8
0
100
AcDbPolyline
 62
7
  6
CONTINUOUS
 90
12
 70
0
 10
1.6243964614
 20
19.8846288165
 10
1.7422682896
 20
19.8850092905
 10
1.8551397193
 20
19.8856281018
 10
1.9644955018
 20
19.8865000664
 10
2.0688508859
 20
19.8876103683
 10
2.1637516183
 20
19.8889145591
 10
2.2488197026
 20
19.8904245811
 10
2.3244331351
 20
19.8921284921
 10
2.3872716511
 20
19.893946017
 10
2.4362284958
 20
19.8958503974
 10
2.4724104239
 20
19.8978683918
 10
2.4958174355
 20
19.9
  0
LINE
  5
786
100
AcDbEntity
  8
RACCORDO
100
AcDbLine
 62
253
  6
CONTINUOUS
 10
-5.5210819746
 20
19.8260765649
 11
-5.1188737513
 21
19.8272847129
  0
LINE
  5
787
100
AcDbEntity
  8
RACCORDO
100
AcDbLine
 62
253
  6
CONTINUOUS
 10
-5.816255068
 20
20.3258086927
 11
-5.6025680966
 21
20.326459336
  0
LINE
  5
788
100
AcDbEntity
  8
DRAFT
100
AcDbLine
 62
7
  6
CONTINUOUS
 10
-11.1615988572
 20
19.5860359481
 11
-10.0639640519
 21
19.5860359481
  0
LINE
  5
789
100
AcDbEntity
  8
DRAFT
100
AcDbLine
 62
7
  6
CONTINUOUS
 10
10.0639640519
 20
19.5860359481
 11
11.1615988572
 21
19.5860359481
  0
LINE
  5
78A
100
AcDbEntity
  8
RACCORDO
100
AcDbLine
 62
7
  6
CONTINUOUS
 10
9.3912243901
 20
19.6130903017
 11
-3.7131017248
 21
19.6130903017
  0
LINE
  5
78B
100
AcDbEntity
  8
ASSI
100
AcDbLine
 62
7
  6
CONTINUOUS
 10
9.3912243901
 20
19.6130903017
 11
-3.7131017248
 21
19.6130903017
  0
LINE
  5
78C
100
AcDbEntity
  8
DRAFT
100
AcDbLine
 62
7
  6
CONTINUOUS
 10
-11.0952696104
 20
19.6523651948
 11
-9.9976348052
 21
19.6523651948
  0
LINE
  5
78D
100
AcDbEntity
  8
DRAFT
100
AcDbLine
 62
7
  6
CONTINUOUS
 10
9.9976348052
 20
19.6523651948
 11
11.0952696104
 21
19.6523651948
  0
LINE
  5
78E
100
AcDbEntity
  8
DRAFT
100
AcDbLine
 62
7
  6
CONTINUOUS
 10
7.4366556363
 20
19.6633443637
 11
3.4633443637
 21
19.6633443637
  0
LINE
  5
78F
100
AcDbEntity
  8
DRAFT
100
AcDbLine
 62
7
  6
CONTINUOUS
 10
-3.4633443637
 20
19.6633443637
 11
-7.4366556363
 21
19.6633443637
  0
LINE
  5
790
100
AcDbEntity
  8
DRAFT
100
AcDbLine
 62
7
  6
CONTINUOUS
 10
7.4
 20
19.7
 11
3.5
 21
19.7
  0
LINE
  5
791
100
AcDbEntity
  8
DRAFT
100
AcDbLine
 62
7
  6
CONTINUOUS
 10
-3.5
 20
19.7
 11
-7.4
 21
19.7
  0
LINE
  5
792
100
AcDbEntity
  8
RACCORDO
100
AcDbLine
 62
7
  6
CONTINUOUS
 10
-6.8510346798
 20
19.751836852
 11
-5.8698530207
 21
19.751836852
  0
LINE
  5
793
100
AcDbEntity
  8
RACCORDO
100
AcDbLine
 62
7
  6
CONTINUOUS
 10
5.8698530207
 20
19.751836852
 11
6.8510346798
 21
19.751836852
  0
LINE
  5
794
100
AcDbEntity
  8
RACCORDO
100
AcDbLine
 62
253
  6
CONTINUOUS
 10
-6.6741974154
 20
19.8258025846
 11
-5.8698565722
 21
19.8258025846
  0
LINE
  5
795
100
AcDbEntity
  8
RACCORDO
100
AcDbLine
 62
253
  6
CONTINUOUS
 10
-5.8698565722
 20
19.8258025839
 11
-5.5210819746
 21
19.8260765649
  0
LINE
  5
796
100
AcDbEntity
  8
DRAFT
100
AcDbLine
 62
7
  6
CONTINUOUS
 10
3.4633443637
 20
19.8633443637
 11
-3.4633443637
 21
19.8633443637
  0
LINE
  5
797
100
AcDbEntity
  8
0
100
AcDbLine
 62
7
  6
CONTINUOUS
 10
1.6243964614
 20
19.8846288165
 11
-1.5015242349
 21
19.8844866796
  0
LINE
  5
798
100
AcDbEntity
  8
0
100
AcDbLine
 62
7
  6
CONTINUOUS
 10
3.5
 20
19.9
 11
2.4944782802
 21
19.9
  0
LINE
  5
799
100
AcDbEntity
  8
0
100
AcDbLine
 62
7
  6
CONTINUOUS
 10
-2.4944782802
 20
19.9
 11
-3.5
 21
19.9
  0
LINE
  5
79A
100
AcDbEntity
  8
0
100
AcDbLine
 62
7
  6
CONTINUOUS
 10
3.4175430786
 20
20.1
 11
2.4995269866
 21
20.1
  0
LINE
  5
79B
100
AcDbEntity
  8
0
100
AcDbLine
 62
7
  6
CONTINUOUS
 10
-2.4995269866
 20
20.1
 11
-3.4175430786
 21
20.1
  0
LINE
  5
79C
100
AcDbEntity
  8
RACCORDO
100
AcDbLine
 62
253
  6
CONTINUOUS
 10
-6.1742164539
 20
20.3257835461
 11
-5.8698530207
 21
20.3257835461
  0
LINE
  5
79D
100
AcDbEntity
  8
RACCORDO
100
AcDbLine
 62
253
  6
CONTINUOUS
 10
-5.8698530207
 20
20.3257835461
 11
-5.816255068
 21
20.3258086927
  0
LINE
  5
79E
100
AcDbEntity
  8
DRAFT
100
AcDbLine
 62
7
  6
CONTINUOUS
 10
-6.0476387933
 20
20.4523612067
 11
-5.5981715064
 21
20.4523612067
  0
LINE
  5
79F
100
AcDbEntity
  8
DRAFT
100
AcDbLine
 62
7
  6
CONTINUOUS
 10
6.0476387933
 20
20.4523612067
 11
5.5981715064
 21
20.4523612067
  0
LINE
  5
7A0
100
AcDbEntity
  8
ASSI
100
AcDbLine
 62
7
  6
CONTINUOUS
 10
-3.95
 20
20.5
 11
3.95
 21
20.5
  0
LINE
  5
7A1
100
AcDbEntity
  8
0
100
AcDbLine
 62
7
  6
CONTINUOUS
 10
6.0
 20
20.5
 11
-6.0
 21
20.5
  0
LINE
  5
7A2
100
AcDbEntity
  8
RACCORDO
100
AcDbLine
 62
253
  6
CONTINUOUS
 10
5.8424536527
 20
19.825804233
 11
6.6741974154
 21
19.8258025846
  0
LINE
  5
7A3
100
AcDbEntity
  8
RACCORDO
100
AcDbLine
 62
253
  6
CONTINUOUS
 10
5.7604536316
 20
19.8258287742
 11
5.8424536527
 21
19.825804233
  0
LINE
  5
7A4
100
AcDbEntity
  8
RACCORDO
100
AcDbLine
 62
253
  6
CONTINUOUS
 10
5.6791954379
 20
19.8258826214
 11
5.7604536316
 21
19.8258287742
  0
LWPOLYLINE
  5
7A5
100
AcDbEntity
  8
0
100
AcDbPolyline
 62
7
  6
CONTINUOUS
 90
13
 70
0
 10
-1.5015242349
 20
19.8844866796
 10
-1.6243964614
 20
19.8846288165
 10
-1.7422682896
 20
19.8850092905
 10
-1.8551397193
 20
19.8856281018
 10
-1.9644955018
 20
19.8865000664
 10
-2.0688508859
 20
19.8876103683
 10
-2.1637516183
 20
19.8889145591
 10
-2.2488197026
 20
19.8904245811
 10
-2.3244331351
 20
19.8921284921
 10
-2.3872716511
 20
19.893946017
 10
-2.4362284958
 20
19.8958503974
 10
-2.4724104239
 20
19.8978683918
 10
-2.4958174355
 20
19.9
  0
LINE
  5
7A6
100
AcDbEntity
  8
RACCORDO
100
AcDbLine
 62
253
  6
CONTINUOUS
 10
5.5729475498
 20
19.8259993564
 11
5.6791954379
 21
19.8258826214
  0
LINE
  5
7A7
100
AcDbEntity
  8
RACCORDO
100
AcDbLine
 62
253
  6
CONTINUOUS
 10
5.4452952473
 20
19.8262153511
 11
5.5729475498
 21
19.8259993564
  0
LINE
  5
7A8
100
AcDbEntity
  8
RACCORDO
100
AcDbLine
 62
253
  6
CONTINUOUS
 10
5.6494157569
 20
20.326230502
 11
6.1742164539
 21
20.3257835461
  0
LINE
  5
7A9
100
AcDbEntity
  8
RACCORDO
100
AcDbLine
 62
253
  6
CONTINUOUS
 10
5.6025680966
 20
20.326459336
 11
5.6494157569
 21
20.326230502
  0
LINE
  5
7AA
100
AcDbEntity
  8
RACCORDO
100
AcDbLine
 62
253
  6
CONTINUOUS
 10
5.0357152491
 20
19.8277593438
 11
5.4452952473
 21
19.8262153511
  0
LWPOLYLINE
  5
7AB
100
AcDbEntity
  8
ASSI
100
AcDbPolyline
 62
7
  6
CONTINUOUS
 90
25
 70
0
 10
3.95
 20
20.5
 10
3.9295143623
 20
20.5001520073
 10
3.9105477684
 20
20.5006107494
 10
3.8931002186
 20
20.5013802408
 10
3.877295913
 20
20.5024666957
 10
3.8630106515
 20
20.5038728037
 10
3.8498718325
 20
20.5055919401
 10
3.8378411916
 20
20.5076184646
 10
3.8269569934
 20
20.5099535819
 10
3.81696143
 20
20.512595608
 10
3.8078325928
 20
20.5155354054
 10
3.7995923905
 20
20.5187768655
 10
3.7920487414
 20
20.5223442225
 10
3.7851670305
 20
20.5262422836
 10
3.7789818727
 20
20.5304748379
 10
3.7734050317
 20
20.5350770889
 10
3.7684090232
 20
20.5400756521
 10
3.7640213314
 20
20.5454662322
 10
3.7602361728
 20
20.5512406316
 10
3.757057799
 20
20.5574134421
 10
3.7544819583
 20
20.5639841863
 10
3.752490112
 20
20.5709118434
 10
3.7510760803
 20
20.5781791611
 10
3.750246043
 20
20.5858003014
 10
3.75
 20
20.5937742252
  0
LINE
  5
7AC
100
AcDbEntity
  8
RACCORDO
100
AcDbLine
 62
253
  6
CONTINUOUS
 10
4.9357256535
 20
19.8286085715
 11
5.0357152491
 21
19.8277593438
  0
LINE
  5
7AD
100
AcDbEntity
  8
RACCORDO
100
AcDbLine
 62
253
  6
CONTINUOUS
 10
4.9022832868
 20
19.8290638036
 11
4.9357256535
 21
19.8286085715
  0
LINE
  5
7AE
100
AcDbEntity
  8
RACCORDO
100
AcDbLine
 62
253
  6
CONTINUOUS
 10
4.8898980046
 20
19.8292967814
 11
4.9022832868
 21
19.8290638036
  0
LWPOLYLINE
  5
7AF
100
AcDbEntity
  8
RACCORDO
100
AcDbPolyline
 62
7
  6
CONTINUOUS
 90
8
 70
0
 10
-5.220275093
 20
20.3023420951
 10
-5.2165722179
 20
20.3022278207
 10
-5.2134009589
 20
20.3021519873
 10
-5.2107578819
 20
20.3021143594
 10
-5.2086580224
 20
20.302115398
 10
-5.2071063922
 20
20.3021552567
 10
-5.2060979795
 20
20.302233782
 10
-5.2056327843
 20
20.3023509737
  0
LINE
  5
7B0
100
AcDbEntity
  8
RACCORDO
100
AcDbLine
 62
7
  6
CONTINUOUS
 10
-5.2292400509
 20
20.3026840926
 11
-5.220275093
 21
20.3023420951
  0
LINE
  5
7B1
100
AcDbEntity
  8
RACCORDO
100
AcDbLine
 62
7
  6
CONTINUOUS
 10
-5.2402232528
 20
20.3031747386
 11
-5.2292400509
 21
20.3026840926
  0
LINE
  5
7B2
100
AcDbEntity
  8
RACCORDO
100
AcDbLine
 62
7
  6
CONTINUOUS
 10
-5.2602629348
 20
20.3041775512
 11
-5.2402232528
 21
20.3031747386
  0
LINE
  5
7B3
100
AcDbEntity
  8
RACCORDO
100
AcDbLine
 62
7
  6
CONTINUOUS
 10
-5.3021245256
 20
20.3065003403
 11
-5.2602629348
 21
20.3041775512
  0
LINE
  5
7B4
100
AcDbEntity
  8
RACCORDO
100
AcDbLine
 62
7
  6
CONTINUOUS
 10
-5.3833479882
 20
20.3114253005
 11
-5.3021245256
 21
20.3065003403
  0
LINE
  5
7B5
100
AcDbEntity
  8
RACCORDO
100
AcDbLine
 62
7
  6
CONTINUOUS
 10
-5.4993249899
 20
20.3189806483
 11
-5.3833479882
 21
20.3114253005
  0
LINE
  5
7B6
100
AcDbEntity
  8
RACCORDO
100
AcDbLine
 62
7
  6
CONTINUOUS
 10
-5.5981715064
 20
20.4523612067
 11
-5.0567639172
 21
20.4145023001
  0
LINE
  5
7B7
100
AcDbEntity
  8
RACCORDO
100
AcDbLine
 62
7
  6
CONTINUOUS
 10
-5.568883535
 20
20.3237894375
 11
-5.4993249899
 21
20.3189806483
  0
LINE
  5
7B8
100
AcDbEntity
  8
RACCORDO
100
AcDbLine
 62
7
  6
CONTINUOUS
 10
-5.589600815
 20
20.3253129103
 11
-5.568883535
 21
20.3237894375
  0
LINE
  5
7B9
100
AcDbEntity
  8
RACCORDO
100
AcDbLine
 62
7
  6
CONTINUOUS
 10
-5.5965164369
 20
20.325856974
 11
-5.589600815
 21
20.3253129103
  0
LINE
  5
7BA
100
AcDbEntity
  8
RACCORDO
100
AcDbLine
 62
7
  6
CONTINUOUS
 10
-5.5993203443
 20
20.3260944221
 11
-5.5965164369
 21
20.325856974
  0
LWPOLYLINE
  5
7BB
100
AcDbEntity
  8
ASSI
100
AcDbPolyline
 62
7
  6
CONTINUOUS
 90
28
 70
0
 10
-4.1727201634
 20
21.0798031965
 10
-4.1829231403
 20
21.0814634619
 10
-4.1935473568
 20
21.0835294231
 10
-4.2045932809
 20
21.0860077749
 10
-4.2160566717
 20
21.0889054294
 10
-4.2279426243
 20
21.0922276889
 10
-4.2402655461
 20
21.095977903
 10
-4.2530188537
 20
21.1001581223
 10
-4.2662097089
 20
21.1047745675
 10
-4.2798732001
 20
21.1098377428
 10
-4.2940102954
 20
21.1153530239
 10
-4.3086206827
 20
21.1213244169
 10
-4.3237377186
 20
21.1277630523
 10
-4.339365465
 20
21.1346750067
 10
-4.3555004714
 20
21.1420629469
 10
-4.3721649189
 20
21.1499342408
 10
-4.3893703723
 20
21.1582962992
 10
-4.4071056668
 20
21.1671474301
 10
-4.4253587679
 20
21.1764796059
 10
-4.4441358552
 20
21.1862928419
 10
-4.4634305565
 20
21.1965843673
 10
-4.4832117093
 20
21.2073376845
 10
-4.5034714234
 20
21.2185409133
 10
-4.5242167159
 20
21.2301934461
 10
-4.5454385955
 20
21.242292985
 10
-4.5671351863
 20
21.2548290487
 10
-4.5893071254
 20
21.2677944014
 10
-4.6119491635
 20
21.2811912157
  0
LWPOLYLINE
  5
7BC
100
AcDbEntity
  8
RACCORDO
100
AcDbPolyline
 62
253
  6
CONTINUOUS
 90
7
 70
0
 10
4.8698910615
 20
19.8301279589
 10
4.8705056172
 20
19.8300082543
 10
4.8718707402
 20
19.8298888508
 10
4.873985361
 20
19.8297697482
 10
4.8768478231
 20
19.8296508597
 10
4.8804559454
 20
19.8295322721
 10
4.8898980046
 20
19.8292967814
  0
LWPOLYLINE
  5
7BD
100
AcDbEntity
  8
RACCORDO
100
AcDbPolyline
 62
7
  6
CONTINUOUS
 90
19
 70
0
 10
4.5077965356
 20
22.2859423443
 10
4.4853893909
 20
22.3019313388
 10
4.4636026006
 20
22.3173219322
 10
4.4424278715
 20
22.3321120653
 10
4.4218678039
 20
22.3462976357
 10
4.4019191572
 20
22.3598827459
 10
4.3825645655
 20
22.3728776434
 10
4.363802579
 20
22.3852806335
 10
4.3456299832
 20
22.3970934109
 10
4.3280272526
 20
22.4083313082
 10
4.310981485
 20
22.4189982143
 10
4.2944985301
 20
22.4290902402
 10
4.2785860507
 20
22.4386110518
 10
4.263228262
 20
22.4475612152
 10
4.2484283224
 20
22.4559401643
 10
4.2342176991
 20
22.4637498669
 10
4.2205982058
 20
22.470990979
 10
4.2075452363
 20
22.4776628447
 10
4.1950470118
 20
22.4837654639
  0
LINE
  5
7BE
100
AcDbEntity
  8
RACCORDO
100
AcDbLine
 62
7
  6
CONTINUOUS
 10
4.5544894987
 20
22.2521408798
 11
4.5077965356
 21
22.2859423443
  0
LINE
  5
7BF
100
AcDbEntity
  8
RACCORDO
100
AcDbLine
 62
7
  6
CONTINUOUS
 10
4.6035442336
 20
22.2160605567
 11
4.5544894987
 21
22.2521408798
  0
LINE
  5
7C0
100
AcDbEntity
  8
RACCORDO
100
AcDbLine
 62
7
  6
CONTINUOUS
 10
4.6547882099
 20
22.17784628
 11
4.6035442336
 21
22.2160605567
  0
LINE
  5
7C1
100
AcDbEntity
  8
RACCORDO
100
AcDbLine
 62
7
  6
CONTINUOUS
 10
5.0567639172
 20
20.4145023001
 11
5.2056327843
 21
20.3023509737
  0
LINE
  5
7C2
100
AcDbEntity
  8
RACCORDO
100
AcDbLine
 62
7
  6
CONTINUOUS
 10
4.7078538363
 20
22.1378163149
 11
4.6547882099
 21
22.17784628
  0
LINE
  5
7C3
100
AcDbEntity
  8
RACCORDO
100
AcDbLine
 62
7
  6
CONTINUOUS
 10
4.7902444995
 20
22.074996144
 11
4.7078538363
 21
22.1378163149
  0
LINE
  5
7C4
100
AcDbEntity
  8
RACCORDO
100
AcDbLine
 62
7
  6
CONTINUOUS
 10
4.9911112875
 20
21.9199498914
 11
4.7902444995
 21
22.074996144
  0
LINE
  5
7C5
100
AcDbEntity
  8
DRAFT
100
AcDbLine
 62
7
  6
CONTINUOUS
 10
7.4
 20
19.7
 11
7.4366556363
 21
19.6633443637
  0
LINE
  5
7C6
100
AcDbEntity
  8
RACCORDO
100
AcDbLine
 62
7
  6
CONTINUOUS
 10
7.4
 20
19.7
 11
7.3510263866
 21
19.7489736134
  0
LINE
  5
7C7
100
AcDbEntity
  8
RACCORDO
100
AcDbLine
 62
7
  6
CONTINUOUS
 10
7.3510263866
 20
21.0489736134
 11
7.4345579013
 21
20.9654420987
  0
LINE
  5
7C8
100
AcDbEntity
  8
RACCORDO
100
AcDbLine
 62
7
  6
CONTINUOUS
 10
9.9903116728
 20
-19.4133907652
 11
9.8010843877
 21
-19.6026179435
  0
LINE
  5
7C9
100
AcDbEntity
  8
ASSI
100
AcDbLine
 62
7
  6
CONTINUOUS
 10
9.9903116728
 20
-19.4133907652
 11
9.8010843877
 21
-19.6026179435
  0
LINE
  5
7CA
100
AcDbEntity
  8
RACCORDO
100
AcDbLine
 62
7
  6
CONTINUOUS
 10
10.7202082353
 20
-18.6983042468
 11
10.0983042468
 21
-19.3202082353
  0
LINE
  5
7CB
100
AcDbEntity
  8
ASSI
100
AcDbLine
 62
7
  6
CONTINUOUS
 10
10.7202082353
 20
-18.6983042468
 11
10.0983042468
 21
-19.3202082353
  0
LINE
  5
7CC
100
AcDbEntity
  8
RACCORDO
100
AcDbLine
 62
7
  6
CONTINUOUS
 10
8.6272036731
 20
-20.85
 11
10.442117326
 21
-19.0350863471
  0
LINE
  5
7CD
100
AcDbEntity
  8
RACCORDO
100
AcDbLine
 62
7
  6
CONTINUOUS
 10
8.8
 20
-20.85
 11
10.5643027805
 21
-19.0856972195
  0
LINE
  5
7CE
100
AcDbEntity
  8
DRAFT
100
AcDbLine
 62
7
  6
CONTINUOUS
 10
11.0952696104
 20
-19.6523651948
 11
11.1615988572
 21
-19.5860359481
  0
LWPOLYLINE
  5
7CF
100
AcDbEntity
  8
RACCORDO
100
AcDbPolyline
 62
7
  6
CONTINUOUS
 90
21
 70
0
 10
4.1950470118
 20
-22.4837654639
 10
4.2075452363
 20
-22.4776628447
 10
4.2205982058
 20
-22.470990979
 10
4.2342176991
 20
-22.4637498669
 10
4.2484283224
 20
-22.4559401643
 10
4.263228262
 20
-22.4475612152
 10
4.2785860507
 20
-22.4386110518
 10
4.2944985301
 20
-22.4290902402
 10
4.310981485
 20
-22.4189982143
 10
4.3280272526
 20
-22.4083313082
 10
4.3456299832
 20
-22.3970934109
 10
4.363802579
 20
-22.3852806335
 10
4.3825645655
 20
-22.3728776434
 10
4.4019191572
 20
-22.3598827459
 10
4.4218678039
 20
-22.3462976357
 10
4.4424278715
 20
-22.3321120653
 10
4.4636026006
 20
-22.3173219322
 10
4.4853893909
 20
-22.3019313388
 10
4.5077965356
 20
-22.2859423443
 10
4.5308353812
 20
-22.2693408126
 10
4.5787228668
 20
-22.2343870134
  0
LINE
  5
7D0
100
AcDbEntity
  8
DRAFT
100
AcDbLine
 62
7
  6
CONTINUOUS
 10
-4.1681048807
 20
20.9476387933
 11
-4.8493713639
 21
20.9
  0
LINE
  5
7D1
100
AcDbEntity
  8
RACCORDO
100
AcDbLine
 62
253
  6
CONTINUOUS
 10
-5.6025916957
 20
20.9742164539
 11
-4.17252507
 21
21.0742164539
  0
LINE
  5
7D2
100
AcDbEntity
  8
ASSI
100
AcDbLine
 62
253
  6
CONTINUOUS
 10
-5.6200514156
 20
21.4741974154
 11
-4.9911112875
 21
21.5181771935
  0
LWPOLYLINE
  5
7D3
100
AcDbEntity
  8
RACCORDO
100
AcDbPolyline
 62
7
  6
CONTINUOUS
 90
25
 70
0
 10
3.95
 20
22.5507488485
 10
3.9368273738
 20
22.5506118295
 10
3.9238213524
 20
22.5502159845
 10
3.9109819356
 20
22.5495613135
 10
3.8982557228
 20
22.5486428109
 10
3.8856961147
 20
22.5474654822
 10
3.8734633135
 20
22.5460443449
 10
3.8615615055
 20
22.5443762757
 10
3.8499865044
 20
22.5424643977
 10
3.8388859534
 20
22.5403330977
 10
3.82826593
 20
22.5379795649
 10
3.8181203567
 20
22.5354066101
 10
3.8085786438
 20
22.5326470521
 10
3.7996485265
 20
22.5296985006
 10
3.7913222697
 20
22.5265633461
 10
3.7837060775
 20
22.5232815784
 10
3.7768090459
 20
22.5198513194
 10
3.7706220789
 20
22.5162744474
 10
3.7652240935
 20
22.5125965865
 10
3.7606251964
 20
22.508816443
 10
3.756815281
 20
22.5049353107
 10
3.7538429439
 20
22.5010026946
 10
3.7517243842
 20
22.4970350967
 10
3.7504434029
 20
22.493016015
 10
3.75
 20
22.4889454496
  0
LINE
  5
7D4
100
AcDbEntity
  8
DRAFT
100
AcDbLine
 62
7
  6
CONTINUOUS
 10
-6.0476387933
 20
20.8476387933
 11
-6.0
 21
20.8476387933
  0
LINE
  5
7D5
100
AcDbEntity
  8
DRAFT
100
AcDbLine
 62
7
  6
CONTINUOUS
 10
6.0476387933
 20
20.8476387933
 11
6.0
 21
20.8476387933
  0
LINE
  5
7D6
100
AcDbEntity
  8
DRAFT
100
AcDbLine
 62
7
  6
CONTINUOUS
 10
7.4
 20
20.85
 11
8.8
 21
20.85
  0
LINE
  5
7D7
100
AcDbEntity
  8
DRAFT
100
AcDbLine
 62
7
  6
CONTINUOUS
 10
-7.4
 20
20.85
 11
-8.8
 21
20.85
  0
LINE
  5
7D8
100
AcDbEntity
  8
0
100
AcDbLine
 62
7
  6
CONTINUOUS
 10
-6.0
 20
20.9
 11
-4.7438429707
 21
20.9
  0
LINE
  5
7D9
100
AcDbEntity
  8
0
100
AcDbLine
 62
7
  6
CONTINUOUS
 10
-4.7325195063
 20
20.9
 11
-3.95
 21
20.9
  0
LINE
  5
7DA
100
AcDbEntity
  8
0
100
AcDbLine
 62
7
  6
CONTINUOUS
 10
6.0
 20
20.9
 11
4.7438429707
 21
20.9
  0
LINE
  5
7DB
100
AcDbEntity
  8
0
100
AcDbLine
 62
7
  6
CONTINUOUS
 10
4.7325195063
 20
20.9
 11
3.95
 21
20.9
  0
LINE
  5
7DC
100
AcDbEntity
  8
DRAFT
100
AcDbLine
 62
7
  6
CONTINUOUS
 10
4.1681048807
 20
20.9476387933
 11
3.75
 21
20.9476387933
  0
LINE
  5
7DD
100
AcDbEntity
  8
DRAFT
100
AcDbLine
 62
7
  6
CONTINUOUS
 10
-3.75
 20
20.9476387933
 11
-4.1681048807
 21
20.9476387933
  0
LINE
  5
7DE
100
AcDbEntity
  8
DRAFT
100
AcDbLine
 62
7
  6
CONTINUOUS
 10
-11.0952696104
 20
20.9654420987
 11
-7.4345579013
 21
20.9654420987
  0
LINE
  5
7DF
100
AcDbEntity
  8
DRAFT
100
AcDbLine
 62
7
  6
CONTINUOUS
 10
7.4345579013
 20
20.9654420987
 11
11.0952696104
 21
20.9654420987
  0
LINE
  5
7E0
100
AcDbEntity
  8
RACCORDO
100
AcDbLine
 62
253
  6
CONTINUOUS
 10
6.1742164539
 20
20.9742164539
 11
5.6025916957
 21
20.9742164539
  0
LINE
  5
7E1
100
AcDbEntity
  8
RACCORDO
100
AcDbLine
 62
253
  6
CONTINUOUS
 10
-5.6025916957
 20
20.9742164539
 11
-6.1742164539
 21
20.9742164539
  0
LINE
  5
7E2
100
AcDbEntity
  8
DRAFT
100
AcDbLine
 62
7
  6
CONTINUOUS
 10
-3.9
 20
20.9808008909
 11
-3.75
 21
20.9808008909
  0
LINE
  5
7E3
100
AcDbEntity
  8
DRAFT
100
AcDbLine
 62
7
  6
CONTINUOUS
 10
3.75
 20
20.9808008909
 11
3.9
 21
20.9808008909
  0
LINE
  5
7E4
100
AcDbEntity
  8
DRAFT
100
AcDbLine
 62
7
  6
CONTINUOUS
 10
11.2
 20
21.0
 11
10.4
 21
21.0
  0
LINE
  5
7E5
100
AcDbEntity
  8
DRAFT
100
AcDbLine
 62
7
  6
CONTINUOUS
 10
-10.4
 20
21.0
 11
-11.2
 21
21.0
  0
LINE
  5
7E6
100
AcDbEntity
  8
ASSI
100
AcDbLine
 62
7
  6
CONTINUOUS
 10
-9.2602071525
 20
21.051836852
 11
-6.8510346798
 21
21.051836852
  0
LINE
  5
7E7
100
AcDbEntity
  8
ASSI
100
AcDbLine
 62
7
  6
CONTINUOUS
 10
6.8510346798
 20
21.051836852
 11
9.2602071525
 21
21.051836852
  0
LINE
  5
7E8
100
AcDbEntity
  8
ASSI
100
AcDbLine
 62
253
  6
CONTINUOUS
 10
-4.17252507
 20
21.0742164539
 11
-4.1276197159
 21
21.0742164539
  0
LINE
  5
7E9
100
AcDbEntity
  8
ASSI
100
AcDbLine
 62
253
  6
CONTINUOUS
 10
4.1276197159
 20
21.0742164539
 11
4.17252507
 21
21.0742164539
  0
LINE
  5
7EA
100
AcDbEntity
  8
RACCORDO
100
AcDbLine
 62
253
  6
CONTINUOUS
 10
6.6741974154
 20
21.4741974154
 11
5.6200514156
 21
21.4741974154
  0
LINE
  5
7EB
100
AcDbEntity
  8
RACCORDO
100
AcDbLine
 62
253
  6
CONTINUOUS
 10
-5.6200514156
 20
21.4741974154
 11
-6.6741974154
 21
21.4741974154
  0
LINE
  5
7EC
100
AcDbEntity
  8
RACCORDO
100
AcDbLine
 62
253
  6
CONTINUOUS
 10
6.2506196883
 20
21.9199498914
 11
4.9911112875
 21
21.9199498914
  0
LINE
  5
7ED
100
AcDbEntity
  8
RACCORDO
100
AcDbLine
 62
253
  6
CONTINUOUS
 10
-4.9911112875
 20
21.9199498914
 11
-6.2506196883
 21
21.9199498914
  0
LINE
  5
7EE
100
AcDbEntity
  8
0
100
AcDbLine
 62
253
  6
CONTINUOUS
 10
-3.75
 20
22.2559508647
 11
3.75
 21
22.2559508647
  0
LINE
  5
7EF
100
AcDbEntity
  8
DRAFT
100
AcDbLine
 62
7
  6
CONTINUOUS
 10
-3.9
 20
22.3551229611
 11
-3.75
 21
22.3551229611
  0
LINE
  5
7F0
100
AcDbEntity
  8
DRAFT
100
AcDbLine
 62
7
  6
CONTINUOUS
 10
3.75
 20
22.3551229611
 11
3.9
 21
22.3551229611
  0
LINE
  5
7F1
100
AcDbEntity
  8
ASSI
100
AcDbLine
 62
7
  6
CONTINUOUS
 10
-9.2602071525
 20
22.4493803117
 11
-8.1570955844
 21
22.4493803117
  0
LINE
  5
7F2
100
AcDbEntity
  8
ASSI
100
AcDbLine
 62
7
  6
CONTINUOUS
 10
8.1570955844
 20
22.4493803117
 11
9.2602071525
 21
22.4493803117
  0
LINE
  5
7F3
100
AcDbEntity
  8
RACCORDO
100
AcDbLine
 62
253
  6
CONTINUOUS
 10
-8.1570955844
 20
22.45
 11
-6.2506196883
 21
22.45
  0
LINE
  5
7F4
100
AcDbEntity
  8
RACCORDO
100
AcDbLine
 62
253
  6
CONTINUOUS
 10
6.2506196883
 20
22.45
 11
8.1570955844
 21
22.45
  0
LINE
  5
7F5
100
AcDbEntity
  8
RACCORDO
100
AcDbLine
 62
253
  6
CONTINUOUS
 10
6.2437286396
 20
22.4837654639
 11
4.1950470118
 21
22.4837654639
  0
LINE
  5
7F6
100
AcDbEntity
  8
RACCORDO
100
AcDbLine
 62
253
  6
CONTINUOUS
 10
-4.1950470118
 20
22.4837654639
 11
-6.2437286396
 21
22.4837654639
  0
LINE
  5
7F7
100
AcDbEntity
  8
DRAFT
100
AcDbLine
 62
7
  6
CONTINUOUS
 10
-10.2935241039
 20
22.5
 11
-8.1570675254
 21
22.5
  0
LINE
  5
7F8
100
AcDbEntity
  8
DRAFT
100
AcDbLine
 62
7
  6
CONTINUOUS
 10
8.1570675254
 20
22.5
 11
10.2935241039
 21
22.5
  0
LINE
  5
7F9
100
AcDbEntity
  8
RACCORDO
100
AcDbLine
 62
7
  6
CONTINUOUS
 10
3.9741071429
 20
22.5507488485
 11
3.95
 21
22.5507488485
  0
LINE
  5
7FA
100
AcDbEntity
  8
RACCORDO
100
AcDbLine
 62
7
  6
CONTINUOUS
 10
-3.9741071429
 20
22.5507488485
 11
-3.95
 21
22.5507488485
  0
LWPOLYLINE
  5
7FB
100
AcDbEntity
  8
ASSI
100
AcDbPolyline
 62
7
  6
CONTINUOUS
 90
25
 70
0
 10
3.95
 20
20.9
 10
3.9295143623
 20
20.9000844485
 10
3.9105477684
 20
20.9003393052
 10
3.8931002186
 20
20.9007668005
 10
3.877295913
 20
20.9013703865
 10
3.8630106515
 20
20.9021515576
 10
3.8498718325
 20
20.9031066334
 10
3.8378411916
 20
20.9042324803
 10
3.8269569934
 20
20.9055297677
 10
3.81696143
 20
20.90699756
 10
3.8078325928
 20
20.9086307808
 10
3.7995923905
 20
20.910431592
 10
3.7920487414
 20
20.912413457
 10
3.7851670305
 20
20.9145790464
 10
3.7789818727
 20
20.9169304655
 10
3.7734050317
 20
20.9194872716
 10
3.7684090232
 20
20.9222642512
 10
3.7640213314
 20
20.9252590179
 10
3.7602361728
 20
20.9284670176
 10
3.757057799
 20
20.9318963567
 10
3.7544819583
 20
20.9355467702
 10
3.752490112
 20
20.9393954685
 10
3.7510760803
 20
20.9434328673
 10
3.750246043
 20
20.9476668341
 10
3.75
 20
20.9520967918
  0
LWPOLYLINE
  5
7FC
100
AcDbEntity
  8
ASSI
100
AcDbPolyline
 62
7
  6
CONTINUOUS
 90
7
 70
0
 10
-4.1276197159
 20
21.0742164539
 10
-4.1344663377
 20
21.0744509554
 10
-4.1415810072
 20
21.0749570536
 10
-4.1489637246
 20
21.0757401337
 10
-4.1566144897
 20
21.0768054572
 10
-4.1645333026
 20
21.0781581509
 10
-4.1727201634
 20
21.0798031965
  0
LINE
  5
7FD
100
AcDbEntity
  8
DRAFT
100
AcDbLine
 62
7
  6
CONTINUOUS
 10
4.8493713639
 20
20.9
 11
4.1681048807
 21
20.9476387933
  0
LINE
  5
7FE
100
AcDbEntity
  8
RACCORDO
100
AcDbLine
 62
253
  6
CONTINUOUS
 10
4.17252507
 20
21.0742164539
 11
5.6025916957
 21
20.9742164539
  0
LINE
  5
7FF
100
AcDbEntity
  8
ASSI
100
AcDbLine
 62
253
  6
CONTINUOUS
 10
4.9911112875
 20
21.5181771935
 11
5.6200514156
 21
21.4741974154
  0
LWPOLYLINE
  5
800
100
AcDbEntity
  8
RACCORDO
100
AcDbPolyline
 62
7
  6
CONTINUOUS
 90
9
 70
0
 10
5.2056327843
 20
20.3023509737
 10
5.2060979795
 20
20.302233782
 10
5.2071063922
 20
20.3021552567
 10
5.2086580224
 20
20.302115398
 10
5.2107578819
 20
20.3021143594
 10
5.2134009589
 20
20.3021519873
 10
5.2165722179
 20
20.3022278207
 10
5.220275093
 20
20.3023420951
 10
5.2292400509
 20
20.3026840926
  0
LINE
  5
801
100
AcDbEntity
  8
RACCORDO
100
AcDbLine
 62
7
  6
CONTINUOUS
 10
10.0983042468
 20
19.3202082353
 11
10.7202082353
 21
18.6983042468
  0
LINE
  5
802
100
AcDbEntity
  8
ASSI
100
AcDbLine
 62
7
  6
CONTINUOUS
 10
10.0983042468
 20
19.3202082353
 11
10.7202082353
 21
18.6983042468
  0
LINE
  5
803
100
AcDbEntity
  8
RACCORDO
100
AcDbLine
 62
7
  6
CONTINUOUS
 10
10.442117326
 20
19.0350863471
 11
8.6272036731
 21
20.85
  0
LINE
  5
804
100
AcDbEntity
  8
RACCORDO
100
AcDbLine
 62
7
  6
CONTINUOUS
 10
10.5643027805
 20
19.0856972195
 11
8.8
 21
20.85
  0
LINE
  5
805
100
AcDbEntity
  8
DRAFT
100
AcDbLine
 62
7
  6
CONTINUOUS
 10
11.1615988572
 20
19.5860359481
 11
11.0952696104
 21
19.6523651948
  0
LINE
  5
806
100
AcDbEntity
  8
DRAFT
100
AcDbLine
 62
7
  6
CONTINUOUS
 10
10.4
 20
-22.3935241039
 11
10.2935241039
 21
-22.5
  0
LINE
  5
807
100
AcDbEntity
  8
ASSI
100
AcDbLine
 62
7
  6
CONTINUOUS
 10
10.2600548477
 20
-21.0461777215
 11
10.4
 21
-21.0
  0
LINE
  5
808
100
AcDbEntity
  8
RACCORDO
100
AcDbLine
 62
7
  6
CONTINUOUS
 10
-3.9741071429
 20
22.931171455
 11
-3.95
 21
22.931171455
  0
LINE
  5
809
100
AcDbEntity
  8
RACCORDO
100
AcDbLine
 62
7
  6
CONTINUOUS
 10
3.9741071429
 20
22.931171455
 11
3.95
 21
22.931171455
  0
LINE
  5
80A
100
AcDbEntity
  8
DRAFT
100
AcDbLine
 62
7
  6
CONTINUOUS
 10
-6.206982026
 20
23.25
 11
-3.9776785714
 21
23.25
  0
LINE
  5
80B
100
AcDbEntity
  8
RACCORDO
100
AcDbLine
 62
7
  6
CONTINUOUS
 10
-8.1431315324
 20
23.25
 11
-6.206982026
 21
23.25
  0
LINE
  5
80C
100
AcDbEntity
  8
0
100
AcDbLine
 62
7
  6
CONTINUOUS
 10
-3.9776785714
 20
23.25
 11
-3.9741071429
 21
23.25
  0
LINE
  5
80D
100
AcDbEntity
  8
DRAFT
100
AcDbLine
 62
7
  6
CONTINUOUS
 10
3.9776785714
 20
23.25
 11
6.206982026
 21
23.25
  0
LINE
  5
80E
100
AcDbEntity
  8
0
100
AcDbLine
 62
7
  6
CONTINUOUS
 10
3.9741071429
 20
23.25
 11
3.9776785714
 21
23.25
  0
LINE
  5
80F
100
AcDbEntity
  8
RACCORDO
100
AcDbLine
 62
7
  6
CONTINUOUS
 10
6.206982026
 20
23.25
 11
8.1431315324
 21
23.25
  0
LINE
  5
810
100
AcDbEntity
  8
RACCORDO
100
AcDbLine
 62
7
  6
CONTINUOUS
 10
4.3
 20
23.9584094599
 11
1.4
 21
23.9584094599
  0
LINE
  5
811
100
AcDbEntity
  8
RACCORDO
100
AcDbLine
 62
7
  6
CONTINUOUS
 10
-1.4
 20
23.9584094599
 11
-4.3
 21
23.9584094599
  0
LINE
  5
812
100
AcDbEntity
  8
RACCORDO
100
AcDbLine
 62
7
  6
CONTINUOUS
 10
-12.149961918
 20
24.0
 11
-10.650038082
 21
24.0
  0
LINE
  5
813
100
AcDbEntity
  8
RACCORDO
100
AcDbLine
 62
7
  6
CONTINUOUS
 10
10.650038082
 20
24.0
 11
12.149961918
 21
24.0
  0
LINE
  5
814
100
AcDbEntity
  8
RACCORDO
100
AcDbLine
 62
7
  6
CONTINUOUS
 10
-4.5
 20
24.1
 11
-3.9332662348
 21
24.1
  0
LINE
  5
815
100
AcDbEntity
  8
RACCORDO
100
AcDbLine
 62
7
  6
CONTINUOUS
 10
3.9332662348
 20
24.1
 11
4.5
 21
24.1
  0
LINE
  5
816
100
AcDbEntity
  8
0
100
AcDbLine
 62
253
  6
CONTINUOUS
 10
-4.5
 20
24.4
 11
-1.2
 21
24.4
  0
LINE
  5
817
100
AcDbEntity
  8
0
100
AcDbLine
 62
253
  6
CONTINUOUS
 10
1.2
 20
24.4
 11
4.5
 21
24.4
  0
LWPOLYLINE
  5
818
100
AcDbEntity
  8
RACCORDO
100
AcDbPolyline
 62
7
  6
CONTINUOUS
 90
25
 70
0
 10
-3.95
 20
22.931171455
 10
-3.9368273738
 20
22.931034436
 10
-3.9238213524
 20
22.930638591
 10
-3.9109819356
 20
22.9299839201
 10
-3.8982557228
 20
22.9290654174
 10
-3.8856961147
 20
22.9278880888
 10
-3.8734633135
 20
22.9264669514
 10
-3.8615615055
 20
22.9247988822
 10
-3.8499865044
 20
22.9228870043
 10
-3.8388859534
 20
22.9207557043
 10
-3.82826593
 20
22.9184021715
 10
-3.8181203567
 20
22.9158292166
 10
-3.8085786438
 20
22.9130696586
 10
-3.7996485265
 20
22.9101211071
 10
-3.7913222697
 20
22.9069859526
 10
-3.7837060775
 20
22.9037041849
 10
-3.7768090459
 20
22.900273926
 10
-3.7706220789
 20
22.8966970539
 10
-3.7652240935
 20
22.893019193
 10
-3.7606251964
 20
22.8892390495
 10
-3.756815281
 20
22.8853579172
 10
-3.7538429439
 20
22.8814253011
 10
-3.7517243842
 20
22.8774577032
 10
-3.7504434029
 20
22.8734386215
 10
-3.75
 20
22.8693680562
  0
LWPOLYLINE
  5
819
100
AcDbEntity
  8
RACCORDO
100
AcDbPolyline
 62
7
  6
CONTINUOUS
 90
25
 70
0
 10
-4.3
 20
23.9584094599
 10
-4.3131726262
 20
23.9585464789
 10
-4.3261786476
 20
23.9589423239
 10
-4.3390180644
 20
23.9595969948
 10
-4.3517442772
 20
23.9605154975
 10
-4.3643038853
 20
23.9616928261
 10
-4.3765366865
 20
23.9631139635
 10
-4.3884384945
 20
23.9647820327
 10
-4.4000134956
 20
23.9666939106
 10
-4.4111140466
 20
23.9688252106
 10
-4.42173407
 20
23.9711787434
 10
-4.4318796433
 20
23.9737516983
 10
-4.4414213562
 20
23.9765112563
 10
-4.4503514735
 20
23.9794598077
 10
-4.4586777303
 20
23.9825949623
 10
-4.4662939225
 20
23.98587673
 10
-4.4731909541
 20
23.9893069889
 10
-4.4793779211
 20
23.992883861
 10
-4.4847759065
 20
23.9965617219
 10
-4.4893748036
 20
24.0003418654
 10
-4.493184719
 20
24.0042229977
 10
-4.4961570561
 20
24.0081556138
 10
-4.4982756158
 20
24.0121232117
 10
-4.4995565971
 20
24.0161422934
 10
-4.5
 20
24.0202128587
  0
LWPOLYLINE
  5
81A
100
AcDbEntity
  8
RACCORDO
100
AcDbPolyline
 62
7
  6
CONTINUOUS
 90
25
 70
0
 10
1.4
 20
23.9584094599
 10
1.3868273738
 20
23.9585464789
 10
1.3738213524
 20
23.9589423239
 10
1.3609819356
 20
23.9595969948
 10
1.3482557228
 20
23.9605154975
 10
1.3356961147
 20
23.9616928261
 10
1.3234633135
 20
23.9631139635
 10
1.3115615055
 20
23.9647820327
 10
1.2999865044
 20
23.9666939106
 10
1.2888859534
 20
23.9688252106
 10
1.27826593
 20
23.9711787434
 10
1.2681203567
 20
23.9737516983
 10
1.2585786438
 20
23.9765112563
 10
1.2496485265
 20
23.9794598077
 10
1.2413222697
 20
23.9825949623
 10
1.2337060775
 20
23.98587673
 10
1.2268090459
 20
23.9893069889
 10
1.2206220789
 20
23.992883861
 10
1.2152240935
 20
23.9965617219
 10
1.2106251964
 20
24.0003418654
 10
1.206815281
 20
24.0042229977
 10
1.2038429439
 20
24.0081556138
 10
1.2017243842
 20
24.0121232117
 10
1.2004434029
 20
24.0161422934
 10
1.2
 20
24.0202128587
  0
LINE
  5
81B
100
AcDbEntity
  8
ASSI
100
AcDbLine
 62
7
  6
CONTINUOUS
 10
10.2600548477
 20
21.0461777215
 11
10.4
 21
21.0
  0
LINE
  5
81C
100
AcDbEntity
  8
DRAFT
100
AcDbLine
 62
7
  6
CONTINUOUS
 10
10.4
 20
22.3935241039
 11
10.2935241039
 21
22.5
  0
LWPOLYLINE
  5
81D
100
AcDbEntity
  8
RACCORDO
100
AcDbPolyline
 62
7
  6
CONTINUOUS
 90
25
 70
0
 10
1.4
 20
24.5977429348
 10
1.3868273738
 20
24.5976059158
 10
1.3738213524
 20
24.5972100708
 10
1.3609819356
 20
24.5965553998
 10
1.3482557228
 20
24.5956368971
 10
1.3356961147
 20
24.5944595685
 10
1.3234633135
 20
24.5930384312
 10
1.3115615055
 20
24.591370362
 10
1.2999865044
 20
24.589458484
 10
1.2888859534
 20
24.587327184
 10
1.27826593
 20
24.5849736512
 10
1.2681203567
 20
24.5824006963
 10
1.2585786438
 20
24.5796411384
 10
1.2496485265
 20
24.5766925869
 10
1.2413222697
 20
24.5735574323
 10
1.2337060775
 20
24.5702756646
 10
1.2268090459
 20
24.5668454057
 10
1.2206220789
 20
24.5632685337
 10
1.2152240935
 20
24.5595906727
 10
1.2106251964
 20
24.5558105293
 10
1.206815281
 20
24.5519293969
 10
1.2038429439
 20
24.5479967809
 10
1.2017243842
 20
24.5440291829
 10
1.2004434029
 20
24.5400101013
 10
1.2
 20
24.5359395359
  0
LWPOLYLINE
  5
81E
100
AcDbEntity
  8
RACCORDO
100
AcDbPolyline
 62
7
  6
CONTINUOUS
 90
25
 70
0
 10
-4.3
 20
24.5977429348
 10
-4.3131726262
 20
24.5976059158
 10
-4.3261786476
 20
24.5972100708
 10
-4.3390180644
 20
24.5965553998
 10
-4.3517442772
 20
24.5956368971
 10
-4.3643038853
 20
24.5944595685
 10
-4.3765366865
 20
24.5930384312
 10
-4.3884384945
 20
24.591370362
 10
-4.4000134956
 20
24.589458484
 10
-4.4111140466
 20
24.587327184
 10
-4.42173407
 20
24.5849736512
 10
-4.4318796433
 20
24.5824006963
 10
-4.4414213562
 20
24.5796411384
 10
-4.4503514735
 20
24.5766925869
 10
-4.4586777303
 20
24.5735574323
 10
-4.4662939225
 20
24.5702756646
 10
-4.4731909541
 20
24.5668454057
 10
-4.4793779211
 20
24.5632685337
 10
-4.4847759065
 20
24.5595906727
 10
-4.4893748036
 20
24.5558105293
 10
-4.493184719
 20
24.5519293969
 10
-4.4961570561
 20
24.5479967809
 10
-4.4982756158
 20
24.5440291829
 10
-4.4995565971
 20
24.5400101013
 10
-4.5
 20
24.5359395359
  0
LINE
  5
81F
100
AcDbEntity
  8
RACCORDO
100
AcDbLine
 62
7
  6
CONTINUOUS
 10
-4.3
 20
24.5977429348
 11
-1.4
 21
24.5977429348
  0
LINE
  5
820
100
AcDbEntity
  8
RACCORDO
100
AcDbLine
 62
7
  6
CONTINUOUS
 10
1.4
 20
24.5977429348
 11
4.3
 21
24.5977429348
  0
LINE
  5
821
100
AcDbEntity
  8
RACCORDO
100
AcDbLine
 62
7
  6
CONTINUOUS
 10
-4.3
 20
24.9781655413
 11
-1.4
 21
24.9781655413
  0
LINE
  5
822
100
AcDbEntity
  8
RACCORDO
100
AcDbLine
 62
7
  6
CONTINUOUS
 10
1.4
 20
24.9781655413
 11
4.3
 21
24.9781655413
  0
LINE
  5
823
100
AcDbEntity
  8
0
100
AcDbLine
 62
253
  6
CONTINUOUS
 10
-6.0
 20
25.0657395614
 11
6.0
 21
25.0657395614
  0
LINE
  5
824
100
AcDbEntity
  8
0
100
AcDbLine
 62
7
  6
CONTINUOUS
 10
-6.0
 20
25.1
 11
6.0
 21
25.1
  0
LWPOLYLINE
  5
825
100
AcDbEntity
  8
RACCORDO
100
AcDbPolyline
 62
7
  6
CONTINUOUS
 90
25
 70
0
 10
-1.4
 20
24.9781655413
 10
-1.3868273738
 20
24.9780285223
 10
-1.3738213524
 20
24.9776326773
 10
-1.3609819356
 20
24.9769780063
 10
-1.3482557228
 20
24.9760595037
 10
-1.3356961147
 20
24.974882175
 10
-1.3234633135
 20
24.9734610377
 10
-1.3115615055
 20
24.9717929685
 10
-1.2999865044
 20
24.9698810905
 10
-1.2888859534
 20
24.9677497905
 10
-1.27826593
 20
24.9653962577
 10
-1.2681203567
 20
24.9628233029
 10
-1.2585786438
 20
24.9600637449
 10
-1.2496485265
 20
24.9571151934
 10
-1.2413222697
 20
24.9539800388
 10
-1.2337060775
 20
24.9506982711
 10
-1.2268090459
 20
24.9472680122
 10
-1.2206220789
 20
24.9436911402
 10
-1.2152240935
 20
24.9400132792
 10
-1.2106251964
 20
24.9362331358
 10
-1.206815281
 20
24.9323520034
 10
-1.2038429439
 20
24.9284193874
 10
-1.2017243842
 20
24.9244517894
 10
-1.2004434029
 20
24.9204327078
 10
-1.2
 20
24.9163621424
  0
LWPOLYLINE
  5
826
100
AcDbEntity
  8
RACCORDO
100
AcDbPolyline
 62
7
  6
CONTINUOUS
 90
25
 70
0
 10
4.3
 20
24.9781655413
 10
4.3131726262
 20
24.9780285223
 10
4.3261786476
 20
24.9776326773
 10
4.3390180644
 20
24.9769780063
 10
4.3517442772
 20
24.9760595037
 10
4.3643038853
 20
24.974882175
 10
4.3765366865
 20
24.9734610377
 10
4.3884384945
 20
24.9717929685
 10
4.4000134956
 20
24.9698810905
 10
4.4111140466
 20
24.9677497905
 10
4.42173407
 20
24.9653962577
 10
4.4318796433
 20
24.9628233029
 10
4.4414213562
 20
24.9600637449
 10
4.4503514735
 20
24.9571151934
 10
4.4586777303
 20
24.9539800388
 10
4.4662939225
 20
24.9506982711
 10
4.4731909541
 20
24.9472680122
 10
4.4793779211
 20
24.9436911402
 10
4.4847759065
 20
24.9400132792
 10
4.4893748036
 20
24.9362331358
 10
4.493184719
 20
24.9323520034
 10
4.4961570561
 20
24.9284193874
 10
4.4982756158
 20
24.9244517894
 10
4.4995565971
 20
24.9204327078
 10
4.5
 20
24.9163621424
  0
ARC
  5
827
100
AcDbEntity
  8
0
100
AcDbCircle
 62
7
  6
CONTINUOUS
 10
-9.0
 20
-17.2
 40
1.4
100
AcDbArc
 50
201.7133555171
 51
270.0
  0
ARC
  5
828
100
AcDbEntity
  8
CURVE
100
AcDbCircle
 62
253
  6
CONTINUOUS
 10
-5.5
 20
-3.0
 40
1.0
100
AcDbArc
 50
23.5781784782
 51
336.4218215218
  0
ARC
  5
829
100
AcDbEntity
  8
ASSI
100
AcDbCircle
 62
7
  6
CONTINUOUS
 10
-9.5059083707
 20
-17.49
 40
0.71
100
AcDbArc
 50
229.7010712477
 51
265.2998279782
  0
ARC
  5
82A
100
AcDbEntity
  8
ASSI
100
AcDbCircle
 62
7
  6
CONTINUOUS
 10
-10.29
 20
-16.7059083707
 40
0.71
100
AcDbArc
 50
184.7001961556
 51
220.2989529286
  0
ARC
  5
82B
100
AcDbEntity
  8
RACCORDO
100
AcDbCircle
 62
7
  6
CONTINUOUS
 10
-1.7
 20
-17.55
 40
0.3
100
AcDbArc
 50
90.0
 51
170.0
  0
ARC
  5
82C
100
AcDbEntity
  8
RACCORDO
100
AcDbCircle
 62
7
  6
CONTINUOUS
 10
-3.9332662348
 20
-23.9
 40
0.2
100
AcDbArc
 50
270.0
 51
343.014572741
  0
ARC
  5
82D
100
AcDbEntity
  8
CURVE
100
AcDbCircle
 62
253
  6
CONTINUOUS
 10
-5.5
 20
9.082444
 40
2.5499986575
100
AcDbArc
 50
357.7524617393
 51
182.2474682623
  0
ARC
  5
82E
100
AcDbEntity
  8
CURVE
100
AcDbCircle
 62
253
  6
CONTINUOUS
 10
-5.5
 20
13.467554
 40
2.5499985399
100
AcDbArc
 50
357.7525290943
 51
182.2474682623
  0
ARC
  5
82F
100
AcDbEntity
  8
CURVE
100
AcDbCircle
 62
253
  6
CONTINUOUS
 10
-5.5
 20
9.082444
 40
1.7999999246
100
AcDbArc
 50
356.8152613297
 51
77.9753174348
  0
ARC
  5
830
100
AcDbEntity
  8
CURVE
100
AcDbCircle
 62
253
  6
CONTINUOUS
 10
-5.5
 20
13.467554
 40
1.7999999246
100
AcDbArc
 50
356.8152613297
 51
183.1847351336
  0
ARC
  5
831
100
AcDbEntity
  8
CURVE
100
AcDbCircle
 62
253
  6
CONTINUOUS
 10
-5.5
 20
9.082444
 40
1.7999968808
100
AcDbArc
 50
102.0247203293
 51
183.1848322474
  0
ARC
  5
832
100
AcDbEntity
  8
ASSI
100
AcDbCircle
 62
7
  6
CONTINUOUS
 10
-10.29
 20
16.7059083707
 40
0.71
100
AcDbArc
 50
139.7020215745
 51
175.2988538673
  0
ARC
  5
833
100
AcDbEntity
  8
ASSI
100
AcDbCircle
 62
7
  6
CONTINUOUS
 10
-9.5059083707
 20
17.49
 40
0.71
100
AcDbArc
 50
94.7020215745
 51
130.2988538673
  0
ARC
  5
834
100
AcDbEntity
  8
RACCORDO
100
AcDbCircle
 62
7
  6
CONTINUOUS
 10
-1.7
 20
17.55
 40
0.3
100
AcDbArc
 50
189.5979508052
 51
270.0
  0
ARC
  5
835
100
AcDbEntity
  8
RACCORDO
100
AcDbCircle
 62
7
  6
CONTINUOUS
 10
-3.9332662348
 20
23.9
 40
0.2
100
AcDbArc
 50
16.985427259
 51
90.0
  0
ARC
  5
836
100
AcDbEntity
  8
CURVE
100
AcDbCircle
 62
253
  6
CONTINUOUS
 10
7.4258330249
 20
-1.5264101615
 40
0.8
100
AcDbArc
 50
150.0
 51
228.5903778907
  0
ARC
  5
837
100
AcDbEntity
  8
CURVE
100
AcDbCircle
 62
253
  6
CONTINUOUS
 10
6.1901923789
 20
-0.4666025404
 40
0.8
100
AcDbArc
 50
330.0
 51
48.5903778907
  0
ARC
  5
838
100
AcDbEntity
  8
ASSI
100
AcDbCircle
 62
7
  6
CONTINUOUS
 10
9.5059083707
 20
-18.89
 40
0.71
100
AcDbArc
 50
289.9961491498
 51
294.2412807351
  0
ARC
  5
839
100
AcDbEntity
  8
ASSI
100
AcDbCircle
 62
7
  6
CONTINUOUS
 10
10.29
 20
-18.1059083707
 40
0.71
100
AcDbArc
 50
319.7010712477
 51
355.2998279782
  0
ARC
  5
83A
100
AcDbEntity
  8
RACCORDO
100
AcDbCircle
 62
7
  6
CONTINUOUS
 10
1.7
 20
-17.55
 40
0.3
100
AcDbArc
 50
9.8838085533
 51
90.0
  0
ARC
  5
83B
100
AcDbEntity
  8
RACCORDO
100
AcDbCircle
 62
7
  6
CONTINUOUS
 10
3.9332662348
 20
-23.9
 40
0.2
100
AcDbArc
 50
196.985427259
 51
270.0
  0
ARC
  5
83C
100
AcDbEntity
  8
ASSI
100
AcDbCircle
 62
7
  6
CONTINUOUS
 10
9.5059083707
 20
18.89
 40
0.71
100
AcDbArc
 50
49.7020215745
 51
85.2988538673
  0
ARC
  5
83D
100
AcDbEntity
  8
ASSI
100
AcDbCircle
 62
7
  6
CONTINUOUS
 10
10.29
 20
18.1059083707
 40
0.71
100
AcDbArc
 50
4.7020215745
 51
40.2988538673
  0
ARC
  5
83E
100
AcDbEntity
  8
RACCORDO
100
AcDbCircle
 62
7
  6
CONTINUOUS
 10
1.7
 20
17.55
 40
0.3
100
AcDbArc
 50
270.0
 51
350.0
  0
ARC
  5
83F
100
AcDbEntity
  8
RACCORDO
100
AcDbCircle
 62
7
  6
CONTINUOUS
 10
3.9332662348
 20
23.9
 40
0.2
100
AcDbArc
 50
90.0
 51
163.014572741
  0
ELLIPSE
  5
840
100
AcDbEntity
  8
RACCORDO
100
AcDbEllipse
 62
7
  6
CONTINUOUS
 10
-9.2661504284
 20
17.7661504284
 30
0.0
 11
0.3535803156
 21
-0.3535803156
 31
0.0
 40
0.9999238505
 41
2.4902938805
 42
2.8453801602
  0
ELLIPSE
  5
841
100
AcDbEntity
  8
RACCORDO
100
AcDbEllipse
 62
7
  6
CONTINUOUS
 10
-9.2661504284
 20
17.7661504284
 30
0.0
 11
-0.3535803156
 21
0.3535803156
 31
0.0
 40
0.9999238505
 41
-0.7853600872
 42
-0.651298773
  0
ELLIPSE
  5
842
100
AcDbEntity
  8
RACCORDO
100
AcDbEllipse
 62
7
  6
CONTINUOUS
 10
-1.7928932188
 20
18.2356254304
 30
0.0
 11
0.5
 21
0.0
 31
0.0
 40
0.0087268678
 41
-2.3561944902
 42
-1.9981274692
  0
ELLIPSE
  5
843
100
AcDbEntity
  8
RACCORDO
100
AcDbEllipse
 62
7
  6
CONTINUOUS
 10
1.7928932188
 20
18.2356254304
 30
0.0
 11
0.5
 21
0.0
 31
0.0
 40
0.0087268678
 41
-1.1643384736
 42
-0.7853981634
  0
ELLIPSE
  5
844
100
AcDbEntity
  8
RACCORDO
100
AcDbEllipse
 62
7
  6
CONTINUOUS
 10
-9.1496953439
 20
-17.6714466826
 30
0.0
 11
1.8480888181
 21
0.7655034529
 31
0.0
 40
0.9998215708
 41
2.7489566578
 42
3.5342286494
  0
ELLIPSE
  5
845
100
AcDbEntity
  8
RACCORDO
100
AcDbEllipse
 62
7
  6
CONTINUOUS
 10
-9.1496953439
 20
17.6714466826
 30
0.0
 11
1.8480888181
 21
-0.7655034529
 31
0.0
 40
0.9998215708
 41
2.7489566578
 42
3.5342286494
  0
ELLIPSE
  5
846
100
AcDbEntity
  8
RACCORDO
100
AcDbEllipse
 62
7
  6
CONTINUOUS
 10
9.1496953439
 20
17.6714466826
 30
0.0
 11
1.8480888181
 21
0.7655034529
 31
0.0
 40
0.9998215708
 41
-0.3926359958
 42
0.3926359958
  0
ELLIPSE
  5
847
100
AcDbEntity
  8
RACCORDO
100
AcDbEllipse
 62
7
  6
CONTINUOUS
 10
9.1496953439
 20
-17.6714466826
 30
0.0
 11
1.8480888181
 21
-0.7655034529
 31
0.0
 40
0.9998215708
 41
-0.3926359958
 42
0.3926359958
  0
ELLIPSE
  5
848
100
AcDbEntity
  8
0
100
AcDbEllipse
 62
7
  6
CONTINUOUS
 10
1.999923836
 20
141.875642436
 30
0.0
 11
-0.4997620717
 21
162.4815824859
 31
0.0
 40
0.000109066
 41
-3.1061481985
 42
-3.0482865392
  0
ELLIPSE
  5
849
100
AcDbEntity
  8
0
100
AcDbEllipse
 62
7
  6
CONTINUOUS
 10
1.999923836
 20
-141.875642436
 30
0.0
 11
0.4997620717
 21
162.4815824859
 31
0.0
 40
0.000109066
 41
-0.0933061144
 42
-0.0354444551
  0
ELLIPSE
  5
84A
100
AcDbEntity
  8
0
100
AcDbEllipse
 62
7
  6
CONTINUOUS
 10
-1.999923836
 20
141.875642436
 30
0.0
 11
0.4997620717
 21
162.4815824859
 31
0.0
 40
0.000109066
 41
-3.234898768
 42
-3.1770371087
  0
ELLIPSE
  5
84B
100
AcDbEntity
  8
0
100
AcDbEllipse
 62
7
  6
CONTINUOUS
 10
-1.999923836
 20
-141.875642436
 30
0.0
 11
-0.4997620717
 21
162.4815824859
 31
0.0
 40
0.000109066
 41
0.0354444551
 42
0.0933061144
  0
ELLIPSE
  5
84C
100
AcDbEntity
  8
RACCORDO
100
AcDbEllipse
 62
7
  6
CONTINUOUS
 10
-9.0275098894
 20
-17.6208358102
 30
0.0
 11
-1.8480888181
 21
-0.7655034529
 31
0.0
 40
0.9998215708
 41
-0.3926359958
 42
0.3926359958
  0
ELLIPSE
  5
84D
100
AcDbEntity
  8
RACCORDO
100
AcDbEllipse
 62
7
  6
CONTINUOUS
 10
-9.0275098894
 20
17.6208358102
 30
0.0
 11
1.8480888181
 21
-0.7655034529
 31
0.0
 40
0.9998215708
 41
2.7489566578
 42
3.5342286494
  0
ELLIPSE
  5
84E
100
AcDbEntity
  8
RACCORDO
100
AcDbEllipse
 62
7
  6
CONTINUOUS
 10
9.0275098894
 20
17.6208358102
 30
0.0
 11
1.8480888181
 21
0.7655034529
 31
0.0
 40
0.9998215708
 41
-0.3926359958
 42
-0.278861721
  0
ELLIPSE
  5
84F
100
AcDbEntity
  8
RACCORDO
100
AcDbEllipse
 62
7
  6
CONTINUOUS
 10
9.0275098894
 20
17.6208358102
 30
0.0
 11
1.8480888181
 21
0.7655034529
 31
0.0
 40
0.9998215708
 41
6.4756880539
 42
6.675821303
  0
ELLIPSE
  5
850
100
AcDbEntity
  8
RACCORDO
100
AcDbEllipse
 62
7
  6
CONTINUOUS
 10
9.0275098894
 20
-17.6208358102
 30
0.0
 11
-1.8480888181
 21
0.7655034529
 31
0.0
 40
0.9998215708
 41
9.032141965
 42
9.2322752141
  0
ELLIPSE
  5
851
100
AcDbEntity
  8
RACCORDO
100
AcDbEllipse
 62
7
  6
CONTINUOUS
 10
9.0275098894
 20
-17.6208358102
 30
0.0
 11
-1.8480888181
 21
0.7655034529
 31
0.0
 40
0.9998215708
 41
3.4204543746
 42
3.5342286494
  0
ELLIPSE
  5
852
100
AcDbEntity
  8
RACCORDO
100
AcDbEllipse
 62
7
  6
CONTINUOUS
 10
8.1431315324
 20
22.45
 30
0.0
 11
0.0
 21
0.8
 31
0.0
 40
0.0174550649
 41
-1.5707963268
 42
-0.0
  0
ELLIPSE
  5
853
100
AcDbEntity
  8
RACCORDO
100
AcDbEllipse
 62
7
  6
CONTINUOUS
 10
-8.1431315324
 20
-22.45
 30
0.0
 11
0.0
 21
0.8
 31
0.0
 40
0.0174550649
 41
-4.7123889804
 42
-3.1415926536
  0
ELLIPSE
  5
854
100
AcDbEntity
  8
RACCORDO
100
AcDbEllipse
 62
7
  6
CONTINUOUS
 10
12.149961918
 20
-23.75
 30
0.0
 11
0.250038082
 21
0.0
 31
0.0
 40
0.9998476952
 41
-1.5707963268
 42
-0.0
  0
ELLIPSE
  5
855
100
AcDbEntity
  8
RACCORDO
100
AcDbEllipse
 62
7
  6
CONTINUOUS
 10
-12.149961918
 20
23.75
 30
0.0
 11
-0.250038082
 21
-0.0
 31
0.0
 40
0.9998476952
 41
-1.5707963268
 42
-0.0
  0
ELLIPSE
  5
856
100
AcDbEntity
  8
RACCORDO
100
AcDbEllipse
 62
7
  6
CONTINUOUS
 10
12.149961918
 20
23.75
 30
0.0
 11
-0.250038082
 21
-0.0
 31
0.0
 40
0.9998476952
 41
3.1415926536
 42
4.7123889804
  0
ELLIPSE
  5
857
100
AcDbEntity
  8
RACCORDO
100
AcDbEllipse
 62
7
  6
CONTINUOUS
 10
10.650038082
 20
23.75
 30
0.0
 11
-0.250038082
 21
-0.0
 31
0.0
 40
0.9998476952
 41
-1.5707963268
 42
0.0
  0
ELLIPSE
  5
858
100
AcDbEntity
  8
RACCORDO
100
AcDbEllipse
 62
7
  6
CONTINUOUS
 10
10.650038082
 20
-23.75
 30
0.0
 11
0.250038082
 21
0.0
 31
0.0
 40
0.9998476952
 41
-3.1415926536
 42
-1.5707963268
  0
ELLIPSE
  5
859
100
AcDbEntity
  8
RACCORDO
100
AcDbEllipse
 62
7
  6
CONTINUOUS
 10
-10.650038082
 20
23.75
 30
0.0
 11
-0.250038082
 21
-0.0
 31
0.0
 40
0.9998476952
 41
-3.1415926536
 42
-1.5707963268
  0
ELLIPSE
  5
85A
100
AcDbEntity
  8
RACCORDO
100
AcDbEllipse
 62
7
  6
CONTINUOUS
 10
-10.650038082
 20
-23.75
 30
0.0
 11
-0.250038082
 21
-0.0
 31
0.0
 40
0.9998476952
 41
1.5707963268
 42
3.1415926536
  0
ELLIPSE
  5
85B
100
AcDbEntity
  8
RACCORDO
100
AcDbEllipse
 62
7
  6
CONTINUOUS
 10
-12.149961918
 20
-23.75
 30
0.0
 11
-0.250038082
 21
-0.0
 31
0.0
 40
0.9998476952
 41
0.0
 42
1.5707963268
  0
ELLIPSE
  5
85C
100
AcDbEntity
  8
RACCORDO
100
AcDbEllipse
 62
7
  6
CONTINUOUS
 10
-8.1431315324
 20
22.45
 30
0.0
 11
-0.0
 21
0.8
 31
0.0
 40
0.0174550649
 41
-0.0
 42
1.5707963268
  0
ELLIPSE
  5
85D
100
AcDbEntity
  8
RACCORDO
100
AcDbEllipse
 62
7
  6
CONTINUOUS
 10
8.1431315324
 20
-22.45
 30
0.0
 11
0.0
 21
0.8
 31
0.0
 40
0.0174550649
 41
-3.1415926536
 42
-1.5707963268
  0
ELLIPSE
  5
85E
100
AcDbEntity
  8
RACCORDO
100
AcDbEllipse
 62
7
  6
CONTINUOUS
 10
4.9911112875
 20
-22.7040446486
 30
0.0
 11
1.0
 21
-0.0
 31
0.0
 40
0.3639702343
 41
2.491560395
 42
3.1326643194
  0
ELLIPSE
  5
85F
100
AcDbEntity
  8
RACCORDO
100
AcDbEllipse
 62
7
  6
CONTINUOUS
 10
-4.9911112875
 20
-22.7040446486
 30
0.0
 11
1.0
 21
-0.0
 31
0.0
 40
0.3639702343
 41
0.0089283342
 42
0.6500322586
  0
ELLIPSE
  5
860
100
AcDbEntity
  8
RACCORDO
100
AcDbEllipse
 62
7
  6
CONTINUOUS
 10
4.9911112875
 20
22.7040446486
 30
0.0
 11
1.0
 21
0.0
 31
0.0
 40
0.3639702343
 41
-3.1326643194
 42
-2.491560395
  0
ELLIPSE
  5
861
100
AcDbEntity
  8
RACCORDO
100
AcDbEllipse
 62
7
  6
CONTINUOUS
 10
-4.9911112875
 20
22.7040446486
 30
0.0
 11
1.0
 21
0.0
 31
0.0
 40
0.3639702343
 41
-0.6500322586
 42
-0.0089283342
  0
ELLIPSE
  5
862
100
AcDbEntity
  8
RACCORDO
100
AcDbEllipse
 62
7
  6
CONTINUOUS
 10
6.8510346798
 20
-21.0489570269
 30
0.0
 11
0.5
 21
0.0
 31
0.0
 40
0.0057596502
 41
-1.5707963268
 42
-0.0057595865
  0
ELLIPSE
  5
863
100
AcDbEntity
  8
RACCORDO
100
AcDbEllipse
 62
7
  6
CONTINUOUS
 10
6.8510346798
 20
-19.7489570269
 30
0.0
 11
0.5
 21
0.0
 31
0.0
 40
0.0057596502
 41
-1.5707963268
 42
-0.0057595865
  0
ELLIPSE
  5
864
100
AcDbEntity
  8
RACCORDO
100
AcDbEllipse
 62
7
  6
CONTINUOUS
 10
-6.8510346798
 20
-19.7489570269
 30
0.0
 11
0.5
 21
0.0
 31
0.0
 40
0.0057596502
 41
-3.1358330671
 42
-1.5707963268
  0
ELLIPSE
  5
865
100
AcDbEntity
  8
RACCORDO
100
AcDbEllipse
 62
7
  6
CONTINUOUS
 10
-6.8510346798
 20
-21.0489570269
 30
0.0
 11
0.5
 21
-0.0
 31
0.0
 40
0.0057596502
 41
-3.1358330671
 42
-1.5707963268
  0
ELLIPSE
  5
866
100
AcDbEntity
  8
RACCORDO
100
AcDbEllipse
 62
7
  6
CONTINUOUS
 10
-6.2401466493
 20
21.9199498914
 30
0.0
 11
-0.0
 21
0.6
 31
0.0
 40
0.0174550649
 41
0.3490658504
 42
1.5707963268
  0
ELLIPSE
  5
867
100
AcDbEntity
  8
RACCORDO
100
AcDbEllipse
 62
7
  6
CONTINUOUS
 10
6.2401466493
 20
21.9199498914
 30
0.0
 11
-0.0
 21
0.6
 31
0.0
 40
0.0174550649
 41
-1.5707963268
 42
-0.3490658504
  0
ELLIPSE
  5
868
100
AcDbEntity
  8
RACCORDO
100
AcDbEllipse
 62
7
  6
CONTINUOUS
 10
-6.2401466493
 20
-21.9199498914
 30
0.0
 11
0.0
 21
0.6
 31
0.0
 40
0.0174550649
 41
-4.7123889804
 42
-3.490658504
  0
ELLIPSE
  5
869
100
AcDbEntity
  8
RACCORDO
100
AcDbEllipse
 62
7
  6
CONTINUOUS
 10
6.2401466493
 20
-21.9199498914
 30
0.0
 11
0.0
 21
0.6
 31
0.0
 40
0.0174550649
 41
-2.7925268032
 42
-1.5707963268
  0
ELLIPSE
  5
86A
100
AcDbEntity
  8
RACCORDO
100
AcDbEllipse
 62
7
  6
CONTINUOUS
 10
5.2476578324
 20
-19.9523421676
 30
0.0
 11
0.3535803156
 21
0.3535803156
 31
0.0
 40
0.9999238505
 41
-3.9269527408
 42
-2.747870569
  0
ELLIPSE
  5
86B
100
AcDbEntity
  8
RACCORDO
100
AcDbEllipse
 62
7
  6
CONTINUOUS
 10
-5.2476578324
 20
19.9523421676
 30
0.0
 11
0.3535803156
 21
0.3535803155
 31
0.0
 40
0.9999238505
 41
-0.7853600871
 42
0.3937220847
  0
ELLIPSE
  5
86C
100
AcDbEntity
  8
ASSI
100
AcDbEllipse
 62
7
  6
CONTINUOUS
 10
4.9911112875
 20
-21.0698149423
 30
0.0
 11
1.0
 21
0.0
 31
0.0
 40
0.0087268678
 41
-3.1326643194
 42
-2.6129482398
  0
ELLIPSE
  5
86D
100
AcDbEntity
  8
ASSI
100
AcDbEllipse
 62
7
  6
CONTINUOUS
 10
-4.9911112875
 20
-21.0698149423
 30
0.0
 11
1.0
 21
0.0
 31
0.0
 40
0.0087268678
 41
-0.5286444138
 42
-0.0089283342
  0
ELLIPSE
  5
86E
100
AcDbEntity
  8
ASSI
100
AcDbEllipse
 62
7
  6
CONTINUOUS
 10
4.9911112875
 20
21.0698149423
 30
0.0
 11
1.0
 21
-0.0
 31
0.0
 40
0.0087268678
 41
2.6129482398
 42
3.1326643194
  0
ELLIPSE
  5
86F
100
AcDbEntity
  8
ASSI
100
AcDbEllipse
 62
7
  6
CONTINUOUS
 10
-4.9911112875
 20
21.0698149423
 30
0.0
 11
1.0
 21
-0.0
 31
0.0
 40
0.0087268678
 41
0.0089283342
 42
0.5286444138
  0
ELLIPSE
  5
870
100
AcDbEntity
  8
RACCORDO
100
AcDbEllipse
 62
7
  6
CONTINUOUS
 10
-6.2366556363
 20
22.45
 30
0.0
 11
-0.0
 21
0.8
 31
0.0
 40
0.0174550649
 41
-0.0
 42
1.5707963268
  0
ELLIPSE
  5
871
100
AcDbEntity
  8
RACCORDO
100
AcDbEllipse
 62
7
  6
CONTINUOUS
 10
-6.8510346798
 20
19.7489570269
 30
0.0
 11
0.5
 21
0.0
 31
0.0
 40
0.0057596502
 41
1.5707963268
 42
3.1358330671
  0
ELLIPSE
  5
872
100
AcDbEntity
  8
RACCORDO
100
AcDbEllipse
 62
7
  6
CONTINUOUS
 10
-6.8510346798
 20
21.0489570269
 30
0.0
 11
0.5
 21
0.0
 31
0.0
 40
0.0057596502
 41
1.5707963268
 42
3.1358330671
  0
ELLIPSE
  5
873
100
AcDbEntity
  8
RACCORDO
100
AcDbEllipse
 62
7
  6
CONTINUOUS
 10
6.2366556363
 20
-22.45
 30
0.0
 11
-0.0
 21
0.8
 31
0.0
 40
0.0174550649
 41
-3.1415926536
 42
-1.5707963268
  0
ELLIPSE
  5
874
100
AcDbEntity
  8
0
100
AcDbEllipse
 62
7
  6
CONTINUOUS
 10
5.8698530207
 20
-19.7460772018
 30
0.0
 11
1.0
 21
0.0
 31
0.0
 40
0.0057596502
 41
-3.1328660073
 42
-1.5707963268
  0
ELLIPSE
  5
875
100
AcDbEntity
  8
0
100
AcDbEllipse
 62
7
  6
CONTINUOUS
 10
-5.8698530207
 20
-19.7460772018
 30
0.0
 11
1.0
 21
-0.0
 31
0.0
 40
0.0057596502
 41
-1.5707963268
 42
-0.0087266463
  0
ELLIPSE
  5
876
100
AcDbEntity
  8
ASSI
100
AcDbEllipse
 62
7
  6
CONTINUOUS
 10
9.2602071525
 20
-21.0460772018
 30
0.0
 11
1.0
 21
-0.0
 31
0.0
 40
0.0057596502
 41
-1.5707963268
 42
-0.0174532925
  0
ELLIPSE
  5
877
100
AcDbEntity
  8
ASSI
100
AcDbEllipse
 62
7
  6
CONTINUOUS
 10
-9.2602071525
 20
-21.0460772018
 30
0.0
 11
1.0
 21
0.0
 31
0.0
 40
0.0057596502
 41
-3.1241393611
 42
-1.5707963268
  0
ELLIPSE
  5
878
100
AcDbEntity
  8
0
100
AcDbEllipse
 62
7
  6
CONTINUOUS
 10
-5.8698530207
 20
19.7460772018
 30
0.0
 11
1.0
 21
-0.0
 31
0.0
 40
0.0057596502
 41
0.0087266463
 42
1.5707963268
  0
ELLIPSE
  5
879
100
AcDbEntity
  8
0
100
AcDbEllipse
 62
7
  6
CONTINUOUS
 10
5.8698530207
 20
19.7460772018
 30
0.0
 11
1.0
 21
-0.0
 31
0.0
 40
0.0057596502
 41
1.5707963268
 42
3.1328660073
  0
ELLIPSE
  5
87A
100
AcDbEntity
  8
RACCORDO
100
AcDbEllipse
 62
7
  6
CONTINUOUS
 10
6.8510346798
 20
21.0489570269
 30
0.0
 11
0.5
 21
-0.0
 31
0.0
 40
0.0057596502
 41
0.0057595865
 42
1.5707963268
  0
ELLIPSE
  5
87B
100
AcDbEntity
  8
ASSI
100
AcDbEllipse
 62
7
  6
CONTINUOUS
 10
9.2602071525
 20
21.0460772018
 30
0.0
 11
1.0
 21
-0.0
 31
0.0
 40
0.0057596502
 41
0.0174532925
 42
1.5707963268
  0
ELLIPSE
  5
87C
100
AcDbEntity
  8
ASSI
100
AcDbEllipse
 62
7
  6
CONTINUOUS
 10
-9.2602071525
 20
21.0460772018
 30
0.0
 11
1.0
 21
0.0
 31
0.0
 40
0.0057596502
 41
1.5707963268
 42
3.1241393611
  0
ELLIPSE
  5
87D
100
AcDbEntity
  8
RACCORDO
100
AcDbEllipse
 62
7
  6
CONTINUOUS
 10
6.8510346798
 20
19.7489570269
 30
0.0
 11
0.5
 21
-0.0
 31
0.0
 40
0.0057596502
 41
0.0057595865
 42
1.5707963268
  0
ELLIPSE
  5
87E
100
AcDbEntity
  8
RACCORDO
100
AcDbEllipse
 62
7
  6
CONTINUOUS
 10
5.2476578324
 20
19.9523421676
 30
0.0
 11
-0.3535803156
 21
0.3535803156
 31
0.0
 40
0.9999238505
 41
-0.3937220846
 42
0.7853600872
  0
ELLIPSE
  5
87F
100
AcDbEntity
  8
ASSI
100
AcDbEllipse
 62
7
  6
CONTINUOUS
 10
9.2602071525
 20
-22.4668353766
 30
0.0
 11
1.0
 21
-0.0
 31
0.0
 40
0.0174550649
 41
0.0174532925
 42
1.5707963268
  0
ELLIPSE
  5
880
100
AcDbEntity
  8
ASSI
100
AcDbEllipse
 62
7
  6
CONTINUOUS
 10
-9.2602071525
 20
-22.4668353766
 30
0.0
 11
1.0
 21
-0.0
 31
0.0
 40
0.0174550649
 41
1.5707963268
 42
3.1241393611
  0
ELLIPSE
  5
881
100
AcDbEntity
  8
ASSI
100
AcDbEllipse
 62
7
  6
CONTINUOUS
 10
9.2602071525
 20
22.4668353766
 30
0.0
 11
1.0
 21
0.0
 31
0.0
 40
0.0174550649
 41
-1.5707963268
 42
-0.0174532925
  0
ELLIPSE
  5
882
100
AcDbEntity
  8
ASSI
100
AcDbEllipse
 62
7
  6
CONTINUOUS
 10
-9.2602071525
 20
22.4668353766
 30
0.0
 11
1.0
 21
-0.0
 31
0.0
 40
0.0174550649
 41
-3.1241393611
 42
-1.5707963268
  0
ELLIPSE
  5
883
100
AcDbEntity
  8
RACCORDO
100
AcDbEllipse
 62
7
  6
CONTINUOUS
 10
-5.2476578324
 20
-19.9523421676
 30
0.0
 11
0.3535803156
 21
-0.3535803156
 31
0.0
 40
0.9999238505
 41
-0.3937220846
 42
0.7853600872
  0
ELLIPSE
  5
884
100
AcDbEntity
  8
RACCORDO
100
AcDbEllipse
 62
7
  6
CONTINUOUS
 10
6.2366556363
 20
22.45
 30
0.0
 11
0.0
 21
0.8
 31
0.0
 40
0.0174550649
 41
-1.5707963268
 42
-0.0
  0
ELLIPSE
  5
885
100
AcDbEntity
  8
RACCORDO
100
AcDbEllipse
 62
7
  6
CONTINUOUS
 10
-6.2366556363
 20
-22.45
 30
0.0
 11
-0.0
 21
0.8
 31
0.0
 40
0.0174550649
 41
-4.7123889804
 42
-3.1415926536
  0
ELLIPSE
  5
886
100
AcDbEntity
  8
RACCORDO
100
AcDbEllipse
 62
7
  6
CONTINUOUS
 10
-1.6825778872
 20
-17.6
 30
0.0
 11
0.3000114235
 21
0.0
 31
0.0
 40
0.9999619231
 41
1.5707963268
 42
2.80137059
  0
ELLIPSE
  5
887
100
AcDbEntity
  8
RACCORDO
100
AcDbEllipse
 62
7
  6
CONTINUOUS
 10
-10.7130788782
 20
-3.45
 30
0.0
 11
0.3000114235
 21
0.0
 31
0.0
 40
0.9999619231
 41
1.5707963268
 42
3.1415926536
  0
ELLIPSE
  5
888
100
AcDbEntity
  8
RACCORDO
100
AcDbEllipse
 62
7
  6
CONTINUOUS
 10
-10.7130788782
 20
1.55
 30
0.0
 11
0.3000114235
 21
0.0
 31
0.0
 40
0.9999619231
 41
1.5707963268
 42
3.1415926536
  0
ELLIPSE
  5
889
100
AcDbEntity
  8
DRAFT
100
AcDbEllipse
 62
7
  6
CONTINUOUS
 10
-9.841452622
 20
-1.0
 30
0.0
 11
0.0
 21
2.15
 31
0.0
 40
0.0087268678
 41
-0.0
 42
3.1415926536
  0
ELLIPSE
  5
88A
100
AcDbEntity
  8
DRAFT
100
AcDbEllipse
 62
7
  6
CONTINUOUS
 10
-9.841452622
 20
14.0
 30
0.0
 11
0.0
 21
2.15
 31
0.0
 40
0.0087268678
 41
0.0
 42
3.1415926536
  0
ELLIPSE
  5
88B
100
AcDbEntity
  8
DRAFT
100
AcDbEllipse
 62
7
  6
CONTINUOUS
 10
-9.841452622
 20
9.0
 30
0.0
 11
-0.0
 21
2.15
 31
0.0
 40
0.0087268678
 41
-0.0
 42
3.1415926536
  0
ELLIPSE
  5
88C
100
AcDbEntity
  8
DRAFT
100
AcDbEllipse
 62
7
  6
CONTINUOUS
 10
-9.841452622
 20
4.0
 30
0.0
 11
0.0
 21
2.15
 31
0.0
 40
0.0087268678
 41
0.0
 42
3.1415926536
  0
ELLIPSE
  5
88D
100
AcDbEntity
  8
RACCORDO
100
AcDbEllipse
 62
7
  6
CONTINUOUS
 10
-3.7130788782
 20
19.3130788782
 30
0.0
 11
0.2121481893
 21
-0.2121481893
 31
0.0
 40
0.9999238505
 41
2.3562325664
 42
3.9269527408
  0
ELLIPSE
  5
88E
100
AcDbEntity
  8
RACCORDO
100
AcDbEllipse
 62
7
  6
CONTINUOUS
 10
9.3911928455
 20
18.6130522233
 30
0.0
 11
0.3827005044
 21
0.9239207481
 31
0.0
 40
0.9999553905
 41
-0.3926833098
 42
0.3926833098
  0
ELLIPSE
  5
88F
100
AcDbEntity
  8
RACCORDO
100
AcDbEllipse
 62
7
  6
CONTINUOUS
 10
10.0130522233
 20
17.9911928455
 30
0.0
 11
0.9239207481
 21
0.3827005044
 31
0.0
 40
0.9999553905
 41
-0.3926833098
 42
0.3926833098
  0
ELLIPSE
  5
890
100
AcDbEntity
  8
RACCORDO
100
AcDbEllipse
 62
7
  6
CONTINUOUS
 10
10.0130522233
 20
-17.9911928455
 30
0.0
 11
0.9239207481
 21
-0.3827005044
 31
0.0
 40
0.9999553905
 41
-0.3926833098
 42
0.3926833098
  0
ELLIPSE
  5
891
100
AcDbEntity
  8
RACCORDO
100
AcDbEllipse
 62
7
  6
CONTINUOUS
 10
9.3911928455
 20
-18.6130522233
 30
0.0
 11
-0.3827005044
 21
0.9239207481
 31
0.0
 40
0.9999553905
 41
2.7489093438
 42
3.5342759634
  0
ELLIPSE
  5
892
100
AcDbEntity
  8
RACCORDO
100
AcDbEllipse
 62
7
  6
CONTINUOUS
 10
-3.7130788782
 20
-19.3130788782
 30
0.0
 11
-0.2121481893
 21
-0.2121481893
 31
0.0
 40
0.9999238505
 41
-0.7853600872
 42
0.7853600872
  0
ELLIPSE
  5
893
100
AcDbEntity
  8
RACCORDO
100
AcDbEllipse
 62
7
  6
CONTINUOUS
 10
-9.3911928455
 20
-17.2130522233
 30
0.0
 11
-0.3827005044
 21
-0.9239207481
 31
0.0
 40
0.9999553905
 41
-0.3926833098
 42
0.3926833098
  0
ELLIPSE
  5
894
100
AcDbEntity
  8
RACCORDO
100
AcDbEllipse
 62
7
  6
CONTINUOUS
 10
-10.0130522233
 20
-16.5911928455
 30
0.0
 11
0.9239207481
 21
0.3827005044
 31
0.0
 40
0.9999553905
 41
2.7489093438
 42
3.5342759634
  0
ELLIPSE
  5
895
100
AcDbEntity
  8
RACCORDO
100
AcDbEllipse
 62
7
  6
CONTINUOUS
 10
-10.7130788782
 20
1.45
 30
0.0
 11
-0.3000114235
 21
-0.0
 31
0.0
 40
0.9999619231
 41
0.0
 42
1.5707963268
  0
ELLIPSE
  5
896
100
AcDbEntity
  8
RACCORDO
100
AcDbEllipse
 62
7
  6
CONTINUOUS
 10
-10.7130788782
 20
6.45
 30
0.0
 11
-0.3000114235
 21
-0.0
 31
0.0
 40
0.9999619231
 41
0.0
 42
1.5707963268
  0
ELLIPSE
  5
897
100
AcDbEntity
  8
RACCORDO
100
AcDbEllipse
 62
7
  6
CONTINUOUS
 10
-10.7130788782
 20
6.55
 30
0.0
 11
0.3000114235
 21
0.0
 31
0.0
 40
0.9999619231
 41
1.5707963268
 42
3.1415926536
  0
ELLIPSE
  5
898
100
AcDbEntity
  8
RACCORDO
100
AcDbEllipse
 62
7
  6
CONTINUOUS
 10
-10.7130788782
 20
11.45
 30
0.0
 11
-0.3000114235
 21
-0.0
 31
0.0
 40
0.9999619231
 41
0.0
 42
1.5707963268
  0
ELLIPSE
  5
899
100
AcDbEntity
  8
RACCORDO
100
AcDbEllipse
 62
7
  6
CONTINUOUS
 10
-10.7130788782
 20
11.55
 30
0.0
 11
0.3000114235
 21
0.0
 31
0.0
 40
0.9999619231
 41
1.5707963268
 42
3.1415926536
  0
ELLIPSE
  5
89A
100
AcDbEntity
  8
RACCORDO
100
AcDbEllipse
 62
7
  6
CONTINUOUS
 10
-10.7130788782
 20
16.45
 30
0.0
 11
-0.3000114235
 21
-0.0
 31
0.0
 40
0.9999619231
 41
0.0
 42
1.5707963268
  0
ELLIPSE
  5
89B
100
AcDbEntity
  8
RACCORDO
100
AcDbEllipse
 62
7
  6
CONTINUOUS
 10
-10.0130522233
 20
16.5911928455
 30
0.0
 11
-0.9239207481
 21
0.3827005044
 31
0.0
 40
0.9999553905
 41
-0.3926833098
 42
0.3926833098
  0
ELLIPSE
  5
89C
100
AcDbEntity
  8
RACCORDO
100
AcDbEllipse
 62
7
  6
CONTINUOUS
 10
-9.3911928455
 20
17.2130522233
 30
0.0
 11
-0.3827005044
 21
0.9239207481
 31
0.0
 40
0.9999553905
 41
-0.3926833098
 42
0.3926833098
  0
ELLIPSE
  5
89D
100
AcDbEntity
  8
RACCORDO
100
AcDbEllipse
 62
7
  6
CONTINUOUS
 10
-4.3131017252
 20
18.5131017252
 30
0.0
 11
0.2121481893
 21
-0.2121481893
 31
0.0
 40
0.9999238505
 41
-0.7853600872
 42
0.7853600872
  0
ELLIPSE
  5
89E
100
AcDbEntity
  8
RACCORDO
100
AcDbEllipse
 62
7
  6
CONTINUOUS
 10
1.6825778872
 20
-17.6
 30
0.0
 11
0.3000114235
 21
0.0
 31
0.0
 40
0.9999619231
 41
0.3402220636
 42
1.5707963268
  0
ELLIPSE
  5
89F
100
AcDbEntity
  8
RACCORDO
100
AcDbEllipse
 62
7
  6
CONTINUOUS
 10
1.6039930308
 20
17.6
 30
0.0
 11
-0.3000114235
 21
-0.0
 31
0.0
 40
0.9999619231
 41
1.5707963268
 42
2.80137059
  0
ELLIPSE
  5
8A0
100
AcDbEntity
  8
RACCORDO
100
AcDbEllipse
 62
7
  6
CONTINUOUS
 10
-1.6039930308
 20
17.6
 30
0.0
 11
-0.3000114235
 21
-0.0
 31
0.0
 40
0.9999619231
 41
0.3402220636
 42
1.5707963268
  0
ELLIPSE
  5
8A1
100
AcDbEntity
  8
ASSI
100
AcDbEllipse
 62
7
  6
CONTINUOUS
 10
-3.7130788782
 20
19.3130788782
 30
0.0
 11
0.2121481893
 21
-0.2121481893
 31
0.0
 40
0.9999238505
 41
2.3562325664
 42
3.9269527408
  0
ELLIPSE
  5
8A2
100
AcDbEntity
  8
ASSI
100
AcDbEllipse
 62
7
  6
CONTINUOUS
 10
9.3911928455
 20
18.6130522233
 30
0.0
 11
0.3827005044
 21
0.9239207481
 31
0.0
 40
0.9999553905
 41
-0.3926833098
 42
0.3926833098
  0
ELLIPSE
  5
8A3
100
AcDbEntity
  8
ASSI
100
AcDbEllipse
 62
7
  6
CONTINUOUS
 10
10.0130522233
 20
17.9911928455
 30
0.0
 11
0.9239207481
 21
0.3827005044
 31
0.0
 40
0.9999553905
 41
-0.3926833098
 42
0.3926833098
  0
ELLIPSE
  5
8A4
100
AcDbEntity
  8
ASSI
100
AcDbEllipse
 62
7
  6
CONTINUOUS
 10
10.0130522233
 20
-17.9911928455
 30
0.0
 11
0.9239207481
 21
-0.3827005044
 31
0.0
 40
0.9999553905
 41
-0.3926833098
 42
0.3926833098
  0
ELLIPSE
  5
8A5
100
AcDbEntity
  8
ASSI
100
AcDbEllipse
 62
7
  6
CONTINUOUS
 10
9.3911928455
 20
-18.6130522233
 30
0.0
 11
-0.3827005044
 21
0.9239207481
 31
0.0
 40
0.9999553905
 41
2.7489093438
 42
3.5342759634
  0
ELLIPSE
  5
8A6
100
AcDbEntity
  8
ASSI
100
AcDbEllipse
 62
7
  6
CONTINUOUS
 10
-3.7130788782
 20
-19.3130788782
 30
0.0
 11
-0.2121481893
 21
-0.2121481893
 31
0.0
 40
0.9999238505
 41
-0.7853600872
 42
0.7853600872
  0
ELLIPSE
  5
8A7
100
AcDbEntity
  8
ASSI
100
AcDbEllipse
 62
7
  6
CONTINUOUS
 10
-9.3911928455
 20
-17.2130522233
 30
0.0
 11
-0.3827005044
 21
-0.9239207481
 31
0.0
 40
0.9999553905
 41
-0.3926833098
 42
0.3926833098
  0
ELLIPSE
  5
8A8
100
AcDbEntity
  8
ASSI
100
AcDbEllipse
 62
7
  6
CONTINUOUS
 10
-10.0130522233
 20
-16.5911928455
 30
0.0
 11
0.9239207481
 21
0.3827005044
 31
0.0
 40
0.9999553905
 41
2.7489093438
 42
3.5342759634
  0
ELLIPSE
  5
8A9
100
AcDbEntity
  8
ASSI
100
AcDbEllipse
 62
7
  6
CONTINUOUS
 10
-10.7130788782
 20
1.45
 30
0.0
 11
-0.3000114235
 21
-0.0
 31
0.0
 40
0.9999619231
 41
0.0
 42
1.5707963268
  0
ELLIPSE
  5
8AA
100
AcDbEntity
  8
ASSI
100
AcDbEllipse
 62
7
  6
CONTINUOUS
 10
-10.7130788782
 20
6.45
 30
0.0
 11
-0.3000114235
 21
-0.0
 31
0.0
 40
0.9999619231
 41
0.0
 42
1.5707963268
  0
ELLIPSE
  5
8AB
100
AcDbEntity
  8
ASSI
100
AcDbEllipse
 62
7
  6
CONTINUOUS
 10
-10.7130788782
 20
6.55
 30
0.0
 11
0.3000114235
 21
0.0
 31
0.0
 40
0.9999619231
 41
1.5707963268
 42
3.1415926536
  0
ELLIPSE
  5
8AC
100
AcDbEntity
  8
ASSI
100
AcDbEllipse
 62
7
  6
CONTINUOUS
 10
-10.7130788782
 20
11.45
 30
0.0
 11
-0.3000114235
 21
-0.0
 31
0.0
 40
0.9999619231
 41
0.0
 42
1.5707963268
  0
ELLIPSE
  5
8AD
100
AcDbEntity
  8
ASSI
100
AcDbEllipse
 62
7
  6
CONTINUOUS
 10
-10.7130788782
 20
11.55
 30
0.0
 11
0.3000114235
 21
0.0
 31
0.0
 40
0.9999619231
 41
1.5707963268
 42
3.1415926536
  0
ELLIPSE
  5
8AE
100
AcDbEntity
  8
ASSI
100
AcDbEllipse
 62
7
  6
CONTINUOUS
 10
-10.7130788782
 20
16.45
 30
0.0
 11
-0.3000114235
 21
-0.0
 31
0.0
 40
0.9999619231
 41
0.0
 42
1.5707963268
  0
ELLIPSE
  5
8AF
100
AcDbEntity
  8
ASSI
100
AcDbEllipse
 62
7
  6
CONTINUOUS
 10
-10.0130522233
 20
16.5911928455
 30
0.0
 11
-0.9239207481
 21
0.3827005044
 31
0.0
 40
0.9999553905
 41
-0.3926833098
 42
0.3926833098
  0
ELLIPSE
  5
8B0
100
AcDbEntity
  8
ASSI
100
AcDbEllipse
 62
7
  6
CONTINUOUS
 10
-9.3911928455
 20
17.2130522233
 30
0.0
 11
-0.3827005044
 21
0.9239207481
 31
0.0
 40
0.9999553905
 41
-0.3926833098
 42
0.3926833098
  0
ELLIPSE
  5
8B1
100
AcDbEntity
  8
ASSI
100
AcDbEllipse
 62
7
  6
CONTINUOUS
 10
1.6825778872
 20
-17.6
 30
0.0
 11
0.3000114235
 21
0.0
 31
0.0
 40
0.9999619231
 41
0.3402220636
 42
1.5707963268
  0
ELLIPSE
  5
8B2
100
AcDbEntity
  8
ASSI
100
AcDbEllipse
 62
7
  6
CONTINUOUS
 10
1.6039930308
 20
17.6
 30
0.0
 11
-0.3000114235
 21
-0.0
 31
0.0
 40
0.9999619231
 41
1.5707963268
 42
2.80137059
  0
ELLIPSE
  5
8B3
100
AcDbEntity
  8
ASSI
100
AcDbEllipse
 62
7
  6
CONTINUOUS
 10
-1.6039930308
 20
17.6
 30
0.0
 11
-0.3000114235
 21
-0.0
 31
0.0
 40
0.9999619231
 41
0.3402220636
 42
1.5707963268
  0
ELLIPSE
  5
8B4
100
AcDbEntity
  8
ASSI
100
AcDbEllipse
 62
7
  6
CONTINUOUS
 10
-1.6825778872
 20
-17.6
 30
0.0
 11
0.3000114235
 21
0.0
 31
0.0
 40
0.9999619231
 41
1.5707963268
 42
2.80137059
  0
ELLIPSE
  5
8B5
100
AcDbEntity
  8
ASSI
100
AcDbEllipse
 62
7
  6
CONTINUOUS
 10
-10.7130788782
 20
-3.45
 30
0.0
 11
0.3000114235
 21
0.0
 31
0.0
 40
0.9999619231
 41
1.5707963268
 42
3.1415926536
  0
ELLIPSE
  5
8B6
100
AcDbEntity
  8
ASSI
100
AcDbEllipse
 62
7
  6
CONTINUOUS
 10
-10.7130788782
 20
1.55
 30
0.0
 11
0.3000114235
 21
0.0
 31
0.0
 40
0.9999619231
 41
1.5707963268
 42
3.1415926536
  0
ELLIPSE
  5
8B7
100
AcDbEntity
  8
ASSI
100
AcDbEllipse
 62
7
  6
CONTINUOUS
 10
-9.841452622
 20
-1.0
 30
0.0
 11
0.0
 21
2.15
 31
0.0
 40
0.0087268678
 41
-0.0
 42
3.1415926536
  0
ELLIPSE
  5
8B8
100
AcDbEntity
  8
ASSI
100
AcDbEllipse
 62
7
  6
CONTINUOUS
 10
-9.841452622
 20
14.0
 30
0.0
 11
0.0
 21
2.15
 31
0.0
 40
0.0087268678
 41
0.0
 42
3.1415926536
  0
ELLIPSE
  5
8B9
100
AcDbEntity
  8
ASSI
100
AcDbEllipse
 62
7
  6
CONTINUOUS
 10
-9.841452622
 20
9.0
 30
0.0
 11
-0.0
 21
2.15
 31
0.0
 40
0.0087268678
 41
-0.0
 42
3.1415926536
  0
ELLIPSE
  5
8BA
100
AcDbEntity
  8
ASSI
100
AcDbEllipse
 62
7
  6
CONTINUOUS
 10
-9.841452622
 20
4.0
 30
0.0
 11
0.0
 21
2.15
 31
0.0
 40
0.0087268678
 41
0.0
 42
3.1415926536
  0
ELLIPSE
  5
8BB
100
AcDbEntity
  8
ASSI
100
AcDbEllipse
 62
7
  6
CONTINUOUS
 10
-4.3131017252
 20
18.5131017252
 30
0.0
 11
0.2121481893
 21
-0.2121481893
 31
0.0
 40
0.9999238505
 41
-0.7853600872
 42
0.7853600872
  0
ENDSEC
  0
SECTION
  2
OBJECTS
  0
DICTIONARY
  5
C
100
AcDbDictionary
280
0
281
1
  3
ACAD_GROUP
350
D
  3
ACAD_MLINESTYLE
350
17
  3
ACAD_LAYOUT
350
1A
  3
ACAD_PLOTSETTINGS
350
19
  3
ACAD_PLOTSTYLENAME
350
E
  0
DICTIONARY
  5
D
102
{ACAD_REACTORS
330
C
102
}
100
AcDbDictionary
280
0
281
1
  0
ACDBDICTIONARYWDFLT
  5
E
102
{ACAD_REACTORS
330
C
102
}
100
AcDbDictionary
281
1
  3
Normal
350
F
100
AcDbDictionaryWithDefault
340
F
  0
DICTIONARY
  5
17
102
{ACAD_REACTORS
330
C
102
}
100
AcDbDictionary
280
0
281
1
  3
Standard
350
18
  0
DICTIONARY
  5
19
102
{ACAD_REACTORS
330
C
102
}
100
AcDbDictionary
281
1
  0
DICTIONARY
  5
1A
102
{ACAD_REACTORS
330
C
102
}
100
AcDbDictionary
281
1
  3
Model
350
8BC
  3
Layout1
350
8BD
  0
ACDBPLACEHOLDER
  5
F
102
{ACAD_REACTORS
330
E
102
}
  0
MLINESTYLE
  5
18
102
{ACAD_REACTORS
330
17
102
}
100
AcDbMlineStyle
  2
STANDARD
 70
0
  3

 62
256
 51
90.0
 52
90.0
 71
2
 49
0.5
 62
256
  6
BYLAYER
 49
-0.5
 62
256
  6
BYLAYER
  0
LAYOUT
  5
8BC
102
{ACAD_REACTORS
330
1A
102
}
100
AcDbPlotSettings
  1

  2
none_device
  4
ISO_A4_(297.00_x_210.00_MM)
  6

 40
0.0
 41
0.0
 42
0.0
 43
0.0
 44
297.0
 45
210.0
 46
0.0
 47
0.0
 48
0.0
 49
0.0
140
0.0
141
0.0
142
1.0
143
1.0
 70
1024
 72
1
 73
0
 74
0
  7

 75
0
147
1.0
148
0.0
149
0.0
100
AcDbLayout
  1
Model
 70
0
 71
0
 10
0.0
 20
0.0
 11
297.0
 21
210.0
 12
0.0
 22
0.0
 32
0.0
 14
0.0
 24
0.0
 34
0.0
 15
0.0
 25
0.0
 35
0.0
146
0.0
 13
0.0
 23
0.0
 33
0.0
 16
1.0
 26
0.0
 36
0.0
 17
0.0
 27
1.0
 37
0.0
 76
0
330
21F
345
0
346
0
  0
LAYOUT
  5
8BD
102
{ACAD_REACTORS
330
1A
102
}
100
AcDbPlotSettings
  1

  2
none_device
  4
ISO_A4_(297.00_x_210.00_MM)
  6

 40
0.0
 41
0.0
 42
0.0
 43
0.0
 44
297.0
 45
210.0
 46
0.0
 47
0.0
 48
0.0
 49
0.0
140
0.0
141
0.0
142
1.0
143
1.0
 70
0
 72
1
 73
0
 74
0
  7

 75
0
147
1.0
148
0.0
149
0.0
100
AcDbLayout
  1
Layout1
 70
0
 71
1
 10
0.0
 20
0.0
 11
297.0
 21
210.0
 12
0.0
 22
0.0
 32
0.0
 14
0.0
 24
0.0
 34
0.0
 15
0.0
 25
0.0
 35
0.0
146
0.0
 13
0.0
 23
0.0
 33
0.0
 16
1.0
 26
0.0
 36
0.0
 17
0.0
 27
1.0
 37
0.0
 76
0
330
220
345
0
346
0
  0
ENDSEC
  0
EOF
