  0
SECTION
  2
HEADER
  9
$ACADVER
  1
AC1024
  9
$DWGCODEPAGE
  3
ANSI_1252
  9
$EXTMAX
 10
297.0
 20
210.0
 30
0.0
  9
$EXTMIN
 10
0.0
 20
0.0
 30
0.0
  9
$LIMMIN
 10
0.0
 20
0.0
  9
$LIMMAX
 10
297.0
 20
210.0
  9
$VIEWCTR
 10
148.5
 20
105.0
  9
$VIEWSIZE
 40
210.0
  9
$CLAYER
  8
0
  9
$LTSCALE
 40
16.335
  9
$CELTYPE
  6
BYLAYER
  9
$DIMSCALE
 40
1.0
  9
$DIMASZ
 40
3.0
  9
$DIMEXO
 40
0.5
  9
$DIMDLI
 40
11.286
  9
$DIMEXE
 40
1.5
  9
$DIMCEN
 40
2.673
  9
$DIMLFAC
 40
1.0
  9
$DIMBLK
  1
_FILLED
  9
$DIMALT
 70
0
  9
$DIMALTF
 40
0.0393700787
  9
$DIMTXT
 40
3.0
  9
$DIMTOL
 70
1
  9
$DIMLIM
 70
0
  9
$DIMTFAC
 40
1.0
  9
$DIMTP
 40
0.01
  9
$DIMTM
 40
0.01
  9
$DIMGAP
 40
0.625
  9
$DIMDSEP
 70
44
  9
$AUNITS
 70
0
  9
$PDMODE
 70
3
  9
$PDSIZE
 40
3.0
  9
$HANDSEED
  5
450
  9
$TILEMODE
 70
1
  9
$MEASUREMENT
 70
1
  9
$INSUNITS
 70
4
  0
ENDSEC
  0
SECTION
  2
CLASSES
  0
CLASS
  1
ACDBDICTIONARYWDFLT
  2
AcDbDictionaryWithDefault
  3
AutoCAD 2000
 90
0
 91
1
280
0
281
0
  0
CLASS
  1
ACDBPLACEHOLDER
  2
AcDbPlaceHolder
  3
AutoCAD 2000
 90
0
 91
1
280
0
281
0
  0
CLASS
  1
LAYOUT
  2
AcDbLayout
  3
AutoCAD 2000
 90
0
 91
0
280
0
281
0
  0
ENDSEC
  0
SECTION
  2
TABLES
  0
TABLE
  2
VPORT
  5
8
100
AcDbSymbolTable
 70
2
  0
VPORT
  5
1F4
100
AcDbSymbolTableRecord
100
AcDbViewportTableRecord
  2
*ACTIVE
 70
0
 10
0.0
 20
0.0
 11
1.0
 21
1.0
 12
148.5
 22
105.0
 13
0.0
 23
0.0
 14
1.0
 24
1.0
 15
0.0
 25
0.0
 16
0.0
 26
0.0
 36
1.0
 17
0.0
 27
0.0
 37
0.0
 40
210.0
 41
1.4142857143
 42
50.0
 43
0.0
 44
0.0
 50
0.0
 51
0.0
 71
0
 72
100
 73
1
 74
1
 75
0
 76
0
 77
0
 78
0
  0
ENDTAB
  0
TABLE
  2
LTYPE
  5
5
100
AcDbSymbolTable
 70
6
  0
LTYPE
  5
14
100
AcDbSymbolTableRecord
100
AcDbLinetypeTableRecord
  2
BYBLOCK
 70
0
  3

 72
65
 73
0
 40
0.0
  0
LTYPE
  5
15
100
AcDbSymbolTableRecord
100
AcDbLinetypeTableRecord
  2
BYLAYER
 70
0
  3

 72
65
 73
0
 40
0.0
  0
LTYPE
  5
16
100
AcDbSymbolTableRecord
100
AcDbLinetypeTableRecord
  2
CONTINUOUS
 70
64
  3
Solid line
 72
65
 73
0
 40
0.0
  0
LTYPE
  5
1F5
100
AcDbSymbolTableRecord
100
AcDbLinetypeTableRecord
  2
CENTER
 70
64
  3
____ _ ____ _ ____ _ ____ _ ____ _ ____ _ ____
 72
65
 73
4
 40
0.6
 49
0.375
 74
0
 49
-0.075
 74
0
 49
0.075
 74
0
 49
-0.075
 74
0
  0
LTYPE
  5
1F6
100
AcDbSymbolTableRecord
100
AcDbLinetypeTableRecord
  2
HIDDEN
 70
64
  3
- - - - - - - - - - - - - - - - - - - -
 72
65
 73
2
 40
0.2
 49
0.1
 74
0
 49
-0.1
 74
0
  0
LTYPE
  5
1F7
100
AcDbSymbolTableRecord
100
AcDbLinetypeTableRecord
  2
PHANTOM
 70
64
  3
_____ _ _ _____ _ _ _____ _ _ _____
 72
65
 73
6
 40
0.8
 49
0.45
 74
0
 49
-0.05
 74
0
 49
0.1
 74
0
 49
-0.05
 74
0
 49
0.1
 74
0
 49
-0.05
 74
0
  0
LTYPE
  5
1F8
100
AcDbSymbolTableRecord
100
AcDbLinetypeTableRecord
  2
DOT
 70
64
  3
. . . . . . . . . . . . . . . . . . . .
 72
65
 73
2
 40
0.2
 49
0.1
 74
0
 49
-0.1
 74
0
  0
LTYPE
  5
1F9
100
AcDbSymbolTableRecord
100
AcDbLinetypeTableRecord
  2
DASHED
 70
64
  3
- - - - - - - - - - - - - - - - - - - -
 72
65
 73
2
 40
0.2
 49
0.1
 74
0
 49
-0.1
 74
0
  0
ENDTAB
  0
TABLE
  2
LAYER
  5
2
100
AcDbSymbolTable
 70
36
  0
LAYER
  5
10
100
AcDbSymbolTableRecord
100
AcDbLayerTableRecord
  2
0
 70
0
 62
7
  6
CONTINUOUS
370
-3
390
F
  0
LAYER
  5
1FA
100
AcDbSymbolTableRecord
100
AcDbLayerTableRecord
  2
DEFAULT_1
 70
0
 62
7
  6
CENTER
370
-3
390
F
  0
LAYER
  5
1FB
100
AcDbSymbolTableRecord
100
AcDbLayerTableRecord
  2
DEFAULT_2
 70
0
 62
7
  6
HIDDEN
370
-3
390
F
  0
LAYER
  5
1FC
100
AcDbSymbolTableRecord
100
AcDbLayerTableRecord
  2
DEFAULT_3
 70
0
 62
7
  6
PHANTOM
370
-3
390
F
  0
LAYER
  5
1FD
100
AcDbSymbolTableRecord
100
AcDbLayerTableRecord
  2
ASSI
 70
0
 62
7
  6
CONTINUOUS
370
-3
390
F
  0
LAYER
  5
1FE
100
AcDbSymbolTableRecord
100
AcDbLayerTableRecord
  2
COORDINATE
 70
0
 62
7
  6
CONTINUOUS
370
-3
390
F
  0
LAYER
  5
1FF
100
AcDbSymbolTableRecord
100
AcDbLayerTableRecord
  2
COORD_ORIGINE
 70
0
 62
7
  6
CONTINUOUS
370
-3
390
F
  0
LAYER
  5
200
100
AcDbSymbolTableRecord
100
AcDbLayerTableRecord
  2
COPY-PUBBLISH
 70
0
 62
7
  6
CONTINUOUS
370
-3
390
F
  0
LAYER
  5
201
100
AcDbSymbolTableRecord
100
AcDbLayerTableRecord
  2
CURVE
 70
0
 62
7
  6
CONTINUOUS
370
-3
390
F
  0
LAYER
  5
202
100
AcDbSymbolTableRecord
100
AcDbLayerTableRecord
  2
DRAFT
 70
0
 62
7
  6
CONTINUOUS
370
-3
390
F
  0
LAYER
  5
203
100
AcDbSymbolTableRecord
100
AcDbLayerTableRecord
  2
IGES-SCRITTE
 70
0
 62
7
  6
CONTINUOUS
370
-3
390
F
  0
LAYER
  5
204
100
AcDbSymbolTableRecord
100
AcDbLayerTableRecord
  2
NOTE_3D
 70
0
 62
7
  6
CONTINUOUS
370
-3
390
F
  0
LAYER
  5
205
100
AcDbSymbolTableRecord
100
AcDbLayerTableRecord
  2
PIANI
 70
0
 62
7
  6
CONTINUOUS
370
-3
390
F
  0
LAYER
  5
206
100
AcDbSymbolTableRecord
100
AcDbLayerTableRecord
  2
PIANI-RIFERIMENTO
 70
0
 62
7
  6
CONTINUOUS
370
-3
390
F
  0
LAYER
  5
207
100
AcDbSymbolTableRecord
100
AcDbLayerTableRecord
  2
PIANI_ORIGINE
 70
0
 62
7
  6
CONTINUOUS
370
-3
390
F
  0
LAYER
  5
208
100
AcDbSymbolTableRecord
100
AcDbLayerTableRecord
  2
PUNTI
 70
0
 62
7
  6
CONTINUOUS
370
-3
390
F
  0
LAYER
  5
209
100
AcDbSymbolTableRecord
100
AcDbLayerTableRecord
  2
RACCORDI
 70
0
 62
7
  6
CONTINUOUS
370
-3
390
F
  0
LAYER
  5
20A
100
AcDbSymbolTableRecord
100
AcDbLayerTableRecord
  2
RACCORDO
 70
0
 62
7
  6
CONTINUOUS
370
-3
390
F
  0
LAYER
  5
20B
100
AcDbSymbolTableRecord
100
AcDbLayerTableRecord
  2
SFORMI
 70
0
 62
7
  6
CONTINUOUS
370
-3
390
F
  0
LAYER
  5
20C
100
AcDbSymbolTableRecord
100
AcDbLayerTableRecord
  2
SMUSSI
 70
0
 62
7
  6
CONTINUOUS
370
-3
390
F
  0
LAYER
  5
20D
100
AcDbSymbolTableRecord
100
AcDbLayerTableRecord
  2
SMUSSO
 70
0
 62
7
  6
CONTINUOUS
370
-3
390
F
  0
LAYER
  5
20E
100
AcDbSymbolTableRecord
100
AcDbLayerTableRecord
  2
SNAPLINE
 70
0
 62
7
  6
CONTINUOUS
370
-3
390
F
  0
LAYER
  5
20F
100
AcDbSymbolTableRecord
100
AcDbLayerTableRecord
  2
SUPERFICI
 70
0
 62
7
  6
CONTINUOUS
370
-3
390
F
  0
LAYER
  5
210
100
AcDbSymbolTableRecord
100
AcDbLayerTableRecord
  2
TRASH
 70
0
 62
7
  6
CONTINUOUS
370
-3
390
F
  0
LAYER
  5
211
100
AcDbSymbolTableRecord
100
AcDbLayerTableRecord
  2
XSEC_DATUMS
 70
0
 62
7
  6
CONTINUOUS
370
-3
390
F
  0
ENDTAB
  0
TABLE
  2
STYLE
  5
3
100
AcDbSymbolTable
 70
1
  0
STYLE
  5
11
100
AcDbSymbolTableRecord
100
AcDbTextStyleTableRecord
  2
STANDARD
 70
0
 40
0.0
 41
0.8
 50
0.0
 71
0
 42
0.2
  3
txt
  4

  0
STYLE
  5
212
100
AcDbSymbolTableRecord
100
AcDbTextStyleTableRecord
  2
TEXTSTYLE_1
 70
0
 40
0.0
 41
0.8
 50
0.0
 71
0
 42
0.2
  3
gdt
  4

  0
ENDTAB
  0
TABLE
  2
VIEW
  5
6
100
AcDbSymbolTable
 70
0
  0
ENDTAB
  0
TABLE
  2
UCS
  5
7
100
AcDbSymbolTable
 70
0
  0
ENDTAB
  0
TABLE
  2
APPID
  5
9
100
AcDbSymbolTable
 70
1
  0
APPID
  5
213
100
AcDbSymbolTableRecord
100
AcDbRegAppTableRecord
  2
ACAD
 70
0
  0
ENDTAB
  0
TABLE
  2
BLOCK_RECORD
  5
1
100
AcDbSymbolTable
 70
0
  0
BLOCK_RECORD
  5
214
100
AcDbSymbolTableRecord
100
AcDbBlockTableRecord
  2
*Model_Space
  0
BLOCK_RECORD
  5
215
100
AcDbSymbolTableRecord
100
AcDbBlockTableRecord
  2
*Paper_Space
  0
BLOCK_RECORD
  5
216
100
AcDbSymbolTableRecord
100
AcDbBlockTableRecord
  2
_FILLED
  0
ENDTAB
  0
TABLE
  2
DIMSTYLE
  5
A
100
AcDbSymbolTable
 70
1
100
AcDbDimStyleTable
 71
0
  0
DIMSTYLE
105
217
100
AcDbSymbolTableRecord
100
AcDbDimStyleTableRecord
  2
STANDARD
 70
0
  3

  4

 40
1.0
 41
3.0
 42
0.5
 43
0.38
 44
1.5
 45
0.0
 46
0.0
 47
0.01
 48
0.01
140
3.0
141
0.09
142
0.0
143
25.4
144
1.0
145
0.0
146
1.0
147
0.625
 71
1
 72
0
 73
0
 74
0
 75
0
 76
0
 77
1
 78
8
 79
2
170
0
171
1
172
0
173
0
174
0
175
0
176
0
177
0
178
0
270
2
179
2
271
2
272
2
273
2
274
2
275
0
280
0
281
0
282
0
283
1
284
8
285
0
286
0
287
3
288
0
340
11
278
44
341
216
342
216
343
216
344
216
  0
ENDTAB
  0
ENDSEC
  0
SECTION
  2
BLOCKS
  0
BLOCK
  5
20
100
AcDbEntity
  8
0
100
AcDbBlockBegin
  2
*Model_Space
 70
0
 10
0.0
 20
0.0
 30
0.0
  3
*Model_Space
  1

  0
ENDBLK
  5
21
100
AcDbEntity
  8
0
100
AcDbBlockEnd
  0
BLOCK
  5
1C
100
AcDbEntity
  8
0
100
AcDbBlockBegin
  2
*Paper_Space
 70
0
 10
0.0
 20
0.0
 30
0.0
  3
*Paper_Space
  1

  0
ENDBLK
  5
1D
100
AcDbEntity
  8
0
100
AcDbBlockEnd
  0
BLOCK
  5
218
100
AcDbEntity
  8
0
100
AcDbBlockBegin
  2
_FILLED
 70
64
 10
0.0
 20
0.0
  3
_FILLED
  1

  0
SOLID
  5
219
100
AcDbEntity
  8
0
  6
BYBLOCK
 62
0
100
AcDbTrace
 10
0.0
 20
0.0
 11
-1.0
 21
0.3166666667
 12
-1.0
 22
-0.3166666667
 13
-1.0
 23
-0.3166666667
  0
ENDBLK
  5
21A
100
AcDbEntity
  8
0
  6
BYBLOCK
 62
0
100
AcDbBlockEnd
  0
ENDSEC
  0
SECTION
  2
ENTITIES
  0
LINE
  5
21B
100
AcDbEntity
  8
DRAFT
100
AcDbLine
 62
7
  6
CONTINUOUS
 10
-17.7374242503
 20
-38.2501294985
 11
-16.2331103408
 21
-38.2501294985
  0
LINE
  5
21C
100
AcDbEntity
  8
DRAFT
100
AcDbLine
 62
7
  6
CONTINUOUS
 10
16.2582618402
 20
-38.2501294985
 11
17.7625757497
 21
-38.2501294985
  0
LINE
  5
21D
100
AcDbEntity
  8
RACCORDO
100
AcDbLine
 62
7
  6
CONTINUOUS
 10
16.1884468979
 20
-37.9707633426
 11
12.2371699906
 21
-37.9707633426
  0
LINE
  5
21E
100
AcDbEntity
  8
RACCORDO
100
AcDbLine
 62
7
  6
CONTINUOUS
 10
-12.2120184913
 20
-37.9707633426
 11
-16.1632953985
 21
-37.9707633426
  0
LINE
  5
21F
100
AcDbEntity
  8
RACCORDO
100
AcDbLine
 62
7
  6
CONTINUOUS
 10
-15.5874242503
 20
-37.9342494849
 11
15.6125757497
 21
-37.9342494849
  0
LINE
  5
220
100
AcDbEntity
  8
RACCORDO
100
AcDbLine
 62
250
  6
CONTINUOUS
 10
15.9125757497
 20
-37.6342494849
 11
-15.8874242503
 21
-37.6342494849
  0
LINE
  5
221
100
AcDbEntity
  8
RACCORDO
100
AcDbLine
 62
250
  6
CONTINUOUS
 10
-16.1632953985
 20
-36.45360773
 11
-15.8874242503
 21
-36.45360773
  0
LINE
  5
222
100
AcDbEntity
  8
RACCORDO
100
AcDbLine
 62
250
  6
CONTINUOUS
 10
15.9125757497
 20
-36.45360773
 11
16.1884468979
 21
-36.45360773
  0
LINE
  5
223
100
AcDbEntity
  8
RACCORDO
100
AcDbLine
 62
250
  6
CONTINUOUS
 10
-16.1590842463
 20
-35.9539123165
 11
-15.8874242503
 21
-35.9539123165
  0
LINE
  5
224
100
AcDbEntity
  8
RACCORDO
100
AcDbLine
 62
250
  6
CONTINUOUS
 10
15.9125757497
 20
-35.9539123165
 11
16.1842357456
 21
-35.9539123165
  0
LINE
  5
225
100
AcDbEntity
  8
RACCORDO
100
AcDbLine
 62
250
  6
CONTINUOUS
 10
-11.3382258205
 20
32.2690880493
 11
-11.9938457194
 21
31.6134681503
  0
LINE
  5
226
100
AcDbEntity
  8
RACCORDO
100
AcDbLine
 62
250
  6
CONTINUOUS
 10
-10.838530407
 20
31.7693926358
 11
-11.4941503059
 21
31.1137727368
  0
LINE
  5
227
100
AcDbEntity
  8
RACCORDO
100
AcDbLine
 62
7
  6
CONTINUOUS
 10
-11.49232223
 20
30.1152962263
 11
-10.838530407
 21
30.7690880493
  0
LWPOLYLINE
  5
228
100
AcDbEntity
  8
RACCORDO
100
AcDbPolyline
 62
250
  6
CONTINUOUS
 90
14
 70
0
 10
-11.4941503059
 20
31.1137727368
 10
-11.4971315756
 20
31.1083308576
 10
-11.5000806473
 20
31.0981418918
 10
-11.5029975213
 20
31.0832058394
 10
-11.5058920998
 20
31.0634439991
 10
-11.5087544804
 20
31.0389350723
 10
-11.511554956
 20
31.0099151626
 10
-11.5142923557
 20
30.97633943
 10
-11.5169678504
 20
30.9382527147
 10
-11.5195552451
 20
30.8960256409
 10
-11.5220535164
 20
30.849620111
 10
-11.5244636878
 20
30.7990742227
 10
-11.5267626346
 20
30.7448728937
 10
-11.5310249258
 20
30.6254273769
  0
LINE
  5
229
100
AcDbEntity
  8
ASSI
100
AcDbLine
 62
7
  6
CONTINUOUS
 10
-4.1924242503
 20
-25.9342494849
 11
-3.3948422503
 21
-25.9342494849
  0
LINE
  5
22A
100
AcDbEntity
  8
ASSI
100
AcDbLine
 62
7
  6
CONTINUOUS
 10
-2.4675544559
 20
-25.9342494849
 11
-1.0073062503
 21
-25.9342494849
  0
LINE
  5
22B
100
AcDbEntity
  8
ASSI
100
AcDbLine
 62
7
  6
CONTINUOUS
 10
-0.1529888428
 20
-25.9342494849
 11
1.0893337497
 21
-25.9342494849
  0
LINE
  5
22C
100
AcDbEntity
  8
ASSI
100
AcDbLine
 62
7
  6
CONTINUOUS
 10
2.2211136729
 20
-25.9342494849
 11
3.6785467497
 21
-25.9342494849
  0
LINE
  5
22D
100
AcDbEntity
  8
RACCORDO
100
AcDbLine
 62
7
  6
CONTINUOUS
 10
-16.1045618241
 20
31.6134681503
 11
-15.8796721953
 21
32.5133693608
  0
LWPOLYLINE
  5
22E
100
AcDbEntity
  8
RACCORDO
100
AcDbPolyline
 62
250
  6
CONTINUOUS
 90
13
 70
0
 10
-11.9938457194
 20
31.6134681503
 10
-11.9968359457
 20
31.6062627495
 10
-11.9997913528
 20
31.5926112342
 10
-12.0027119406
 20
31.5725596152
 10
-12.0056067444
 20
31.5461761596
 10
-12.0084667289
 20
31.5135471164
 10
-12.0112647882
 20
31.4747731285
 10
-12.014000619
 20
31.4299739674
 10
-12.0166745245
 20
31.3792968137
 10
-12.0192603091
 20
31.3229118184
 10
-12.0217569216
 20
31.2610065637
 10
-12.0241654131
 20
31.1937788536
 10
-12.0286479405
 20
31.0442259
  0
LINE
  5
22F
100
AcDbEntity
  8
DRAFT
100
AcDbLine
 62
7
  6
CONTINUOUS
 10
-15.9451237038
 20
-23.2524208325
 11
-16.0411192494
 21
-23.2608193545
  0
LINE
  5
230
100
AcDbEntity
  8
DRAFT
100
AcDbLine
 62
7
  6
CONTINUOUS
 10
16.2321169962
 20
-23.4301518605
 11
16.2407791355
 21
-23.4300762672
  0
LINE
  5
231
100
AcDbEntity
  8
DRAFT
100
AcDbLine
 62
7
  6
CONTINUOUS
 10
16.2059006334
 20
-23.4303806473
 11
16.2146001181
 21
-23.430304728
  0
LINE
  5
232
100
AcDbEntity
  8
RACCORDO
100
AcDbLine
 62
250
  6
CONTINUOUS
 10
17.7625757497
 20
-22.1168071729
 11
16.2582618402
 21
-22.1299351215
  0
LINE
  5
233
100
AcDbEntity
  8
RACCORDO
100
AcDbLine
 62
250
  6
CONTINUOUS
 10
16.2321169962
 20
-22.1301404375
 11
16.2433981829
 21
-22.130041988
  0
LINE
  5
234
100
AcDbEntity
  8
RACCORDO
100
AcDbLine
 62
7
  6
CONTINUOUS
 10
16.2199058265
 20
-21.8302584258
 11
17.7625757497
 21
-21.8167957493
  0
LINE
  5
235
100
AcDbEntity
  8
ASSI
100
AcDbLine
 62
7
  6
CONTINUOUS
 10
3.8756956903
 20
-23.4351604849
 11
2.7192306308
 21
-23.4351604849
  0
LINE
  5
236
100
AcDbEntity
  8
ASSI
100
AcDbLine
 62
7
  6
CONTINUOUS
 10
1.4132101788
 20
-23.4351604849
 11
0.4309050931
 21
-23.4351604849
  0
LINE
  5
237
100
AcDbEntity
  8
ASSI
100
AcDbLine
 62
7
  6
CONTINUOUS
 10
-1.1244422503
 20
-23.4351604849
 11
-1.8270479412
 21
-23.4354187641
  0
LINE
  5
238
100
AcDbEntity
  8
DRAFT
100
AcDbLine
 62
7
  6
CONTINUOUS
 10
-16.1807491341
 20
-23.4303806473
 11
-16.1894486187
 21
-23.430304728
  0
LINE
  5
239
100
AcDbEntity
  8
DRAFT
100
AcDbLine
 62
7
  6
CONTINUOUS
 10
-16.2069654969
 20
-23.4301518605
 11
-16.2156276362
 21
-23.4300762672
  0
LINE
  5
23A
100
AcDbEntity
  8
RACCORDO
100
AcDbLine
 62
250
  6
CONTINUOUS
 10
-16.2331103408
 20
-22.1299351215
 11
-17.7374242503
 21
-22.1168071729
  0
LINE
  5
23B
100
AcDbEntity
  8
RACCORDO
100
AcDbLine
 62
250
  6
CONTINUOUS
 10
-16.2182466836
 20
-22.130041988
 11
-16.2069654969
 21
-22.1301404375
  0
LINE
  5
23C
100
AcDbEntity
  8
RACCORDO
100
AcDbLine
 62
7
  6
CONTINUOUS
 10
-16.1947543271
 20
-21.8302584258
 11
-17.7374242503
 21
-21.8167957493
  0
LINE
  5
23D
100
AcDbEntity
  8
DRAFT
100
AcDbLine
 62
7
  6
CONTINUOUS
 10
16.0662707488
 20
-23.2608193545
 11
15.9702752031
 21
-23.2524208325
  0
LWPOLYLINE
  5
23E
100
AcDbEntity
  8
ASSI
100
AcDbPolyline
 62
7
  6
CONTINUOUS
 90
22
 70
0
 10
3.4394497786
 20
-23.6924373735
 10
3.3957633822
 20
-23.6850762301
 10
3.3531918368
 20
-23.6819973453
 10
3.3117351424
 20
-23.683200719
 10
3.2708209029
 20
-23.6892330164
 10
3.2310215144
 20
-23.6995475723
 10
3.1940541652
 20
-23.7125043919
 10
3.1602910539
 20
-23.7274231297
 10
3.1293599819
 20
-23.7449841312
 10
3.1018615422
 20
-23.7655884379
 10
3.0782795206
 20
-23.7895974161
 10
3.0581301313
 20
-23.8166496995
 10
3.0405626099
 20
-23.8460622305
 10
3.0263023931
 20
-23.8786035911
 10
3.0146240443
 20
-23.9135051994
 10
3.002500489
 20
-23.9477782514
 10
2.9899243795
 20
-23.9810647778
 10
2.9769030636
 20
-24.013722748
 10
2.9604315099
 20
-24.0438372656
 10
2.9395080412
 20
-24.0707700319
 10
2.9151343346
 20
-24.0951593456
 10
2.8873103902
 20
-24.1170052068
  0
LINE
  5
23F
100
AcDbEntity
  8
0
100
AcDbLine
 62
7
  6
CONTINUOUS
 10
-17.7374242503
 20
8.2657505151
 11
-17.7374242503
 21
2.7657505151
  0
LINE
  5
240
100
AcDbEntity
  8
COPY-PUBBLISH
100
AcDbLine
 62
7
  6
CONTINUOUS
 10
-17.7374242503
 20
-21.8167957493
 11
-17.7374242503
 21
-20.1342494849
  0
LINE
  5
241
100
AcDbEntity
  8
RACCORDO
100
AcDbLine
 62
7
  6
CONTINUOUS
 10
-17.7374242503
 20
-21.8167957493
 11
-17.7374242503
 21
-38.2501294985
  0
LINE
  5
242
100
AcDbEntity
  8
0
100
AcDbLine
 62
7
  6
CONTINUOUS
 10
-17.7374242503
 20
-20.1342494849
 11
-17.7374242503
 21
-14.6342494849
  0
LINE
  5
243
100
AcDbEntity
  8
COPY-PUBBLISH
100
AcDbLine
 62
7
  6
CONTINUOUS
 10
-17.7374242503
 20
-14.6342494849
 11
-17.7374242503
 21
2.7657505151
  0
LINE
  5
244
100
AcDbEntity
  8
COPY-PUBBLISH
100
AcDbLine
 62
7
  6
CONTINUOUS
 10
-17.7374242503
 20
8.2657505151
 11
-17.7374242503
 21
9.790773188
  0
LINE
  5
245
100
AcDbEntity
  8
RACCORDO
100
AcDbLine
 62
7
  6
CONTINUOUS
 10
-17.7374242503
 20
9.790773188
 11
-17.7374242503
 21
38.25134784
  0
LWPOLYLINE
  5
246
100
AcDbEntity
  8
RACCORDO
100
AcDbPolyline
 62
7
  6
CONTINUOUS
 90
7
 70
0
 10
-15.7260350748
 20
26.0312254463
 10
-15.7250157131
 20
26.0428860166
 10
-15.7232137399
 20
26.0588490562
 10
-15.7213663151
 20
26.0710418491
 10
-15.7194875879
 20
26.0793685605
 10
-15.7175634091
 20
26.0837641006
 10
-15.7163734406
 20
26.0844992114
  0
LINE
  5
247
100
AcDbEntity
  8
DRAFT
100
AcDbLine
 62
7
  6
CONTINUOUS
 10
16.2172455616
 20
-20.1342494849
 11
17.7625757497
 21
-20.1342494849
  0
LINE
  5
248
100
AcDbEntity
  8
DRAFT
100
AcDbLine
 62
7
  6
CONTINUOUS
 10
-16.1920940622
 20
-20.1342494849
 11
-17.7374242503
 21
-20.1342494849
  0
LINE
  5
249
100
AcDbEntity
  8
DRAFT
100
AcDbLine
 62
250
  6
CONTINUOUS
 10
-17.7374242503
 20
-19.8342494849
 11
-16.2069297375
 21
-19.8342494849
  0
LINE
  5
24A
100
AcDbEntity
  8
DRAFT
100
AcDbLine
 62
250
  6
CONTINUOUS
 10
17.7625757497
 20
-19.8342494849
 11
16.2320812368
 21
-19.8342494849
  0
LINE
  5
24B
100
AcDbEntity
  8
RACCORDO
100
AcDbLine
 62
7
  6
CONTINUOUS
 10
11.7374745771
 20
-37.9539123165
 11
11.7178117456
 21
-37.9342494849
  0
LINE
  5
24C
100
AcDbEntity
  8
RACCORDO
100
AcDbLine
 62
7
  6
CONTINUOUS
 10
-16.2156276362
 20
-23.4300762672
 11
-16.2183826366
 21
-22.0625580549
  0
LINE
  5
24D
100
AcDbEntity
  8
RACCORDO
100
AcDbLine
 62
7
  6
CONTINUOUS
 10
-16.1894486187
 20
-23.430304728
 11
-16.1922036192
 21
-22.0627865158
  0
LINE
  5
24E
100
AcDbEntity
  8
0
100
AcDbLine
 62
7
  6
CONTINUOUS
 10
-16.9374242503
 20
-1.9342494849
 11
-16.9374242503
 21
-9.9342494849
  0
LINE
  5
24F
100
AcDbEntity
  8
RACCORDO
100
AcDbLine
 62
7
  6
CONTINUOUS
 10
-16.2331103408
 20
-38.2501294985
 11
-16.2331103408
 21
-22.1299351215
  0
LINE
  5
250
100
AcDbEntity
  8
RACCORDO
100
AcDbLine
 62
7
  6
CONTINUOUS
 10
-16.2331103408
 20
10.2614361516
 11
-16.2331103408
 21
30.2373233903
  0
LINE
  5
251
100
AcDbEntity
  8
RACCORDO
100
AcDbLine
 62
7
  6
CONTINUOUS
 10
-16.2069654969
 20
-22.1301404375
 11
-16.2069654969
 21
-23.4301518605
  0
LINE
  5
252
100
AcDbEntity
  8
RACCORDO
100
AcDbLine
 62
7
  6
CONTINUOUS
 10
-16.2069654969
 20
10.2616414676
 11
-16.2069654969
 21
11.5616528907
  0
LINE
  5
253
100
AcDbEntity
  8
DRAFT
100
AcDbLine
 62
7
  6
CONTINUOUS
 10
-16.2069297375
 20
7.9657505151
 11
-16.2069297375
 21
3.0657505151
  0
LINE
  5
254
100
AcDbEntity
  8
DRAFT
100
AcDbLine
 62
7
  6
CONTINUOUS
 10
-16.2069297375
 20
-19.8342494849
 11
-16.2069297375
 21
-14.9342494849
  0
LINE
  5
255
100
AcDbEntity
  8
DRAFT
100
AcDbLine
 62
7
  6
CONTINUOUS
 10
-16.1982028697
 20
0.0254376095
 11
-16.1982028697
 21
-1.9342494849
  0
LINE
  5
256
100
AcDbEntity
  8
DRAFT
100
AcDbLine
 62
7
  6
CONTINUOUS
 10
-16.1982028697
 20
-9.9342494849
 11
-16.1982028697
 21
-11.8939365793
  0
LINE
  5
257
100
AcDbEntity
  8
DRAFT
100
AcDbLine
 62
7
  6
CONTINUOUS
 10
-16.191694989
 20
-1.9342494849
 11
-16.191694989
 21
-9.9342494849
  0
LINE
  5
258
100
AcDbEntity
  8
DRAFT
100
AcDbLine
 62
7
  6
CONTINUOUS
 10
-16.1894760019
 20
-17.9342494849
 11
-16.1894760019
 21
-19.8342494849
  0
LINE
  5
259
100
AcDbEntity
  8
DRAFT
100
AcDbLine
 62
7
  6
CONTINUOUS
 10
-16.1894760019
 20
6.0657505151
 11
-16.1894760019
 21
7.9657505151
  0
LINE
  5
25A
100
AcDbEntity
  8
RACCORDO
100
AcDbLine
 62
7
  6
CONTINUOUS
 10
-16.1810878722
 20
27.7712723534
 11
-16.1810878722
 21
13.5269349777
  0
LINE
  5
25B
100
AcDbEntity
  8
DRAFT
100
AcDbLine
 62
7
  6
CONTINUOUS
 10
-16.1807491341
 20
9.9269646135
 11
-16.1807491341
 21
5.7657505151
  0
LINE
  5
25C
100
AcDbEntity
  8
DRAFT
100
AcDbLine
 62
7
  6
CONTINUOUS
 10
-16.1807491341
 20
2.7657505151
 11
-16.1807491341
 21
0.0269646135
  0
LINE
  5
25D
100
AcDbEntity
  8
DRAFT
100
AcDbLine
 62
7
  6
CONTINUOUS
 10
-16.1807491341
 20
-11.8954635833
 11
-16.1807491341
 21
-14.6342494849
  0
LINE
  5
25E
100
AcDbEntity
  8
DRAFT
100
AcDbLine
 62
7
  6
CONTINUOUS
 10
-16.1807491341
 20
-17.6342494849
 11
-16.1807491341
 21
-23.4303806473
  0
LINE
  5
25F
100
AcDbEntity
  8
RACCORDO
100
AcDbLine
 62
7
  6
CONTINUOUS
 10
-16.1807491341
 20
-9.6342494849
 11
-16.1807491341
 21
-2.2342494849
  0
LINE
  5
260
100
AcDbEntity
  8
RACCORDO
100
AcDbLine
 62
7
  6
CONTINUOUS
 10
-16.1636208004
 20
13.2296047391
 11
-16.1636208004
 21
11.8622707566
  0
LINE
  5
261
100
AcDbEntity
  8
RACCORDO
100
AcDbLine
 62
7
  6
CONTINUOUS
 10
-16.1632953985
 20
-36.45360773
 11
-16.1632953985
 21
-37.9707633426
  0
LINE
  5
262
100
AcDbEntity
  8
RACCORDO
100
AcDbLine
 62
7
  6
CONTINUOUS
 10
-16.1629704931
 20
15.9018393965
 11
-16.1629704931
 21
24.3957826816
  0
LINE
  5
263
100
AcDbEntity
  8
RACCORDO
100
AcDbLine
 62
7
  6
CONTINUOUS
 10
-16.1455300733
 20
10.2289042915
 11
-16.1455300733
 21
15.3025967387
  0
LINE
  5
264
100
AcDbEntity
  8
RACCORDO
100
AcDbLine
 62
7
  6
CONTINUOUS
 10
-16.1298336955
 20
27.5214627151
 11
-16.1298336955
 21
29.6057898458
  0
LINE
  5
265
100
AcDbEntity
  8
RACCORDO
100
AcDbLine
 62
7
  6
CONTINUOUS
 10
-16.1214064331
 20
27.4879401498
 11
-16.1214064331
 21
29.6146864963
  0
LINE
  5
266
100
AcDbEntity
  8
DRAFT
100
AcDbLine
 62
7
  6
CONTINUOUS
 10
-16.1024860494
 20
-16.2342494849
 11
-16.1024860494
 21
-9.6969472029
  0
LINE
  5
267
100
AcDbEntity
  8
DRAFT
100
AcDbLine
 62
7
  6
CONTINUOUS
 10
-16.1024860494
 20
-2.1715517669
 11
-16.1024860494
 21
4.3657505151
  0
LINE
  5
268
100
AcDbEntity
  8
RACCORDO
100
AcDbLine
 62
250
  6
CONTINUOUS
 10
-15.928428422
 20
35.8132308725
 11
-15.928428422
 21
37.3132308725
  0
LINE
  5
269
100
AcDbEntity
  8
RACCORDO
100
AcDbLine
 62
7
  6
CONTINUOUS
 10
-15.8874242503
 20
25.7657505151
 11
-15.8874242503
 21
-1.8842494849
  0
LINE
  5
26A
100
AcDbEntity
  8
RACCORDO
100
AcDbLine
 62
7
  6
CONTINUOUS
 10
-15.8874242503
 20
-9.9842494849
 11
-15.8874242503
 21
-37.6342494849
  0
LINE
  5
26B
100
AcDbEntity
  8
DRAFT
100
AcDbLine
 62
7
  6
CONTINUOUS
 10
-15.8796721953
 20
32.5133693608
 11
-15.8796721953
 21
35.6181316693
  0
LINE
  5
26C
100
AcDbEntity
  8
RACCORDO
100
AcDbLine
 62
250
  6
CONTINUOUS
 10
-15.5874242503
 20
-9.9842494849
 11
-15.5874242503
 21
-37.9342494849
  0
LINE
  5
26D
100
AcDbEntity
  8
RACCORDO
100
AcDbLine
 62
250
  6
CONTINUOUS
 10
-15.5874242503
 20
-1.8842494849
 11
-15.5874242503
 21
26.0657505151
  0
LINE
  5
26E
100
AcDbEntity
  8
RACCORDO
100
AcDbLine
 62
250
  6
CONTINUOUS
 10
-14.4284855374
 20
35.7613068242
 11
-14.4284855374
 21
37.2613068242
  0
LINE
  5
26F
100
AcDbEntity
  8
RACCORDO
100
AcDbLine
 62
7
  6
CONTINUOUS
 10
-16.2156276362
 20
11.5615772973
 11
-16.2183826366
 21
10.1940590851
  0
LINE
  5
270
100
AcDbEntity
  8
RACCORDO
100
AcDbLine
 62
7
  6
CONTINUOUS
 10
-16.1894486187
 20
11.5618057582
 11
-16.1922036192
 21
10.1942875459
  0
LINE
  5
271
100
AcDbEntity
  8
RACCORDO
100
AcDbLine
 62
7
  6
CONTINUOUS
 10
-16.1755146637
 20
37.6655614068
 11
-16.2279982601
 21
31.6515369527
  0
LINE
  5
272
100
AcDbEntity
  8
RACCORDO
100
AcDbLine
 62
7
  6
CONTINUOUS
 10
-16.1642880368
 20
30.5195389139
 11
-16.1759913532
 21
29.1799197135
  0
LINE
  5
273
100
AcDbEntity
  8
DRAFT
100
AcDbLine
 62
250
  6
CONTINUOUS
 10
-16.1024860494
 20
-16.2342494849
 11
-15.8839237765
 21
-16.2342494849
  0
LINE
  5
274
100
AcDbEntity
  8
DRAFT
100
AcDbLine
 62
250
  6
CONTINUOUS
 10
16.1276375487
 20
-16.2342494849
 11
15.9090752759
 21
-16.2342494849
  0
LINE
  5
275
100
AcDbEntity
  8
DRAFT
100
AcDbLine
 62
250
  6
CONTINUOUS
 10
-17.7374242503
 20
-14.9342494849
 11
-16.2069297375
 21
-14.9342494849
  0
LINE
  5
276
100
AcDbEntity
  8
DRAFT
100
AcDbLine
 62
250
  6
CONTINUOUS
 10
17.7625757497
 20
-14.9342494849
 11
16.2320812368
 21
-14.9342494849
  0
LINE
  5
277
100
AcDbEntity
  8
DRAFT
100
AcDbLine
 62
7
  6
CONTINUOUS
 10
-17.7374242503
 20
-14.6342494849
 11
-16.1807491341
 21
-14.6342494849
  0
LINE
  5
278
100
AcDbEntity
  8
DRAFT
100
AcDbLine
 62
7
  6
CONTINUOUS
 10
17.7625757497
 20
-14.6342494849
 11
16.2059006334
 21
-14.6342494849
  0
LINE
  5
279
100
AcDbEntity
  8
RACCORDO
100
AcDbLine
 62
250
  6
CONTINUOUS
 10
-12.2120184913
 20
-37.9342494849
 11
-12.2120184913
 21
-37.9707633426
  0
LINE
  5
27A
100
AcDbEntity
  8
RACCORDO
100
AcDbLine
 62
250
  6
CONTINUOUS
 10
-12.2120184913
 20
26.0657505151
 11
-12.2120184913
 21
26.0844992158
  0
LINE
  5
27B
100
AcDbEntity
  8
RACCORDO
100
AcDbLine
 62
250
  6
CONTINUOUS
 10
-11.7123230778
 20
-37.9342494849
 11
-11.7123230778
 21
-37.9539123165
  0
LINE
  5
27C
100
AcDbEntity
  8
RACCORDO
100
AcDbLine
 62
7
  6
CONTINUOUS
 10
-11.5091732561
 20
26.3651079123
 11
-11.5091732561
 21
29.6156008127
  0
LINE
  5
27D
100
AcDbEntity
  8
RACCORDO
100
AcDbLine
 62
250
  6
CONTINUOUS
 10
-10.838530407
 20
30.7690880493
 11
-10.838530407
 21
31.7693926358
  0
LINE
  5
27E
100
AcDbEntity
  8
RACCORDO
100
AcDbLine
 62
250
  6
CONTINUOUS
 10
-11.5443647568
 20
29.7849593852
 11
-11.5451706337
 21
27.2553629544
  0
LINE
  5
27F
100
AcDbEntity
  8
RACCORDO
100
AcDbLine
 62
250
  6
CONTINUOUS
 10
-12.0436380589
 20
29.954316593
 11
-12.0448697922
 21
27.3134141895
  0
LINE
  5
280
100
AcDbEntity
  8
RACCORDO
100
AcDbLine
 62
250
  6
CONTINUOUS
 10
-12.041378616
 20
30.2839901167
 11
-12.0436380589
 21
29.954316593
  0
LINE
  5
281
100
AcDbEntity
  8
RACCORDO
100
AcDbLine
 62
250
  6
CONTINUOUS
 10
-11.5426017429
 20
30.0352144563
 11
-11.5443647568
 21
29.7849593852
  0
LINE
  5
282
100
AcDbEntity
  8
RACCORDO
100
AcDbLine
 62
250
  6
CONTINUOUS
 10
-11.5451706337
 20
27.2553629544
 11
-11.5477099798
 21
26.9077525161
  0
LINE
  5
283
100
AcDbEntity
  8
RACCORDO
100
AcDbLine
 62
250
  6
CONTINUOUS
 10
-12.0448697922
 20
27.3134141895
 11
-12.0463204829
 21
27.1388207708
  0
LINE
  5
284
100
AcDbEntity
  8
RACCORDO
100
AcDbLine
 62
250
  6
CONTINUOUS
 10
-11.540611009
 20
30.1958567303
 11
-11.5426017429
 21
30.0352144563
  0
LINE
  5
285
100
AcDbEntity
  8
RACCORDO
100
AcDbLine
 62
250
  6
CONTINUOUS
 10
-12.0376848011
 20
30.5943255827
 11
-12.041378616
 21
30.2839901167
  0
LINE
  5
286
100
AcDbEntity
  8
RACCORDO
100
AcDbLine
 62
250
  6
CONTINUOUS
 10
-11.5477099798
 20
26.9077525161
 11
-11.5506122139
 21
26.6831001788
  0
LINE
  5
287
100
AcDbEntity
  8
RACCORDO
100
AcDbLine
 62
250
  6
CONTINUOUS
 10
-12.0463204829
 20
27.1388207708
 11
-12.0487436937
 21
26.9671357972
  0
LINE
  5
288
100
AcDbEntity
  8
RACCORDO
100
AcDbLine
 62
250
  6
CONTINUOUS
 10
-11.5379922693
 20
30.3492680062
 11
-11.540611009
 21
30.1958567303
  0
LINE
  5
289
100
AcDbEntity
  8
RACCORDO
100
AcDbLine
 62
250
  6
CONTINUOUS
 10
-11.5506122139
 20
26.6831001788
 11
-11.5544445811
 21
26.469124744
  0
LINE
  5
28A
100
AcDbEntity
  8
RACCORDO
100
AcDbLine
 62
250
  6
CONTINUOUS
 10
-12.0326646957
 20
30.87618592
 11
-12.0376848011
 21
30.5943255827
  0
LINE
  5
28B
100
AcDbEntity
  8
RACCORDO
100
AcDbLine
 62
250
  6
CONTINUOUS
 10
-12.0487436937
 20
26.9671357972
 11
-12.0521281995
 21
26.8022636447
  0
LINE
  5
28C
100
AcDbEntity
  8
RACCORDO
100
AcDbLine
 62
250
  6
CONTINUOUS
 10
-11.5347802682
 20
30.4931317236
 11
-11.5379922693
 21
30.3492680062
  0
LINE
  5
28D
100
AcDbEntity
  8
RACCORDO
100
AcDbLine
 62
250
  6
CONTINUOUS
 10
-11.5544445811
 20
26.469124744
 11
-11.5591247091
 21
26.2709225587
  0
LINE
  5
28E
100
AcDbEntity
  8
RACCORDO
100
AcDbLine
 62
250
  6
CONTINUOUS
 10
-12.0286479405
 20
31.0442259
 11
-12.0326646957
 21
30.87618592
  0
LINE
  5
28F
100
AcDbEntity
  8
RACCORDO
100
AcDbLine
 62
250
  6
CONTINUOUS
 10
-12.0521281995
 20
26.8022636447
 11
-12.0563837539
 21
26.6476551011
  0
LINE
  5
290
100
AcDbEntity
  8
RACCORDO
100
AcDbLine
 62
250
  6
CONTINUOUS
 10
-11.5310249258
 20
30.6254273769
 11
-11.5347802682
 21
30.4931317236
  0
LWPOLYLINE
  5
291
100
AcDbEntity
  8
RACCORDO
100
AcDbPolyline
 62
250
  6
CONTINUOUS
 90
3
 70
0
 10
-11.5591247091
 20
26.2709225587
 10
-11.5645581728
 20
26.0911225358
 10
-11.5654756971
 20
26.0657505151
  0
LWPOLYLINE
  5
292
100
AcDbEntity
  8
RACCORDO
100
AcDbPolyline
 62
250
  6
CONTINUOUS
 90
11
 70
0
 10
-12.0563837539
 20
26.6476551011
 10
-12.0614546007
 20
26.5057204715
 10
-12.0642585615
 20
26.4401520878
 10
-12.0672439159
 20
26.3783976728
 10
-12.0703917854
 20
26.3204127044
 10
-12.0737078923
 20
26.2663479492
 10
-12.0771865143
 20
26.2165195711
 10
-12.0807916067
 20
26.1711559162
 10
-12.08453062
 20
26.1303944694
 10
-12.0883961036
 20
26.094471751
 10
-12.0915931629
 20
26.0694369929
  0
LINE
  5
293
100
AcDbEntity
  8
DRAFT
100
AcDbLine
 62
7
  6
CONTINUOUS
 10
16.2059006334
 20
-11.8954635833
 11
17.7625757497
 21
-11.7592721579
  0
LINE
  5
294
100
AcDbEntity
  8
DRAFT
100
AcDbLine
 62
7
  6
CONTINUOUS
 10
-17.7374242503
 20
-11.7592721579
 11
-16.1807491341
 21
-11.8954635833
  0
LWPOLYLINE
  5
295
100
AcDbEntity
  8
RACCORDO
100
AcDbPolyline
 62
250
  6
CONTINUOUS
 90
19
 70
0
 10
-11.4941503059
 20
31.1137727368
 10
-11.4961018173
 20
31.1572899796
 10
-11.5018355271
 20
31.2004766079
 10
-11.511307882
 20
31.2430044581
 10
-11.5244469199
 20
31.2845503719
 10
-11.5411528155
 20
31.3247986471
 10
-11.5612986368
 20
31.3634434374
 10
-11.5847313139
 20
31.4001910847
 10
-11.6112727985
 20
31.4347623426
 10
-11.6407214124
 20
31.4668944965
 10
-11.6728533909
 20
31.4963433723
 10
-11.7074245757
 20
31.5228851832
 10
-11.7441722629
 20
31.5463182265
 10
-11.7828172176
 20
31.5664644303
 10
-11.8230657851
 20
31.5831706974
 10
-11.864612111
 20
31.5963100668
 10
-11.9071404864
 20
31.6057826876
 10
-11.9503277476
 20
31.6115165744
 10
-11.9938457194
 20
31.6134681504
  0
LWPOLYLINE
  5
296
100
AcDbEntity
  8
RACCORDO
100
AcDbPolyline
 62
250
  6
CONTINUOUS
 90
19
 70
0
 10
-10.838530407
 20
31.7693926358
 10
-10.8404819565
 20
31.8129103095
 10
-10.8462157689
 20
31.8560973005
 10
-10.855688274
 20
31.898625439
 10
-10.8688274918
 20
31.9401715615
 10
-10.8855335801
 20
31.9804199667
 10
-10.9056795922
 20
32.0190648147
 10
-10.9291124425
 20
32.0558124502
 10
-10.9556540691
 20
32.0903836351
 10
-10.9851027871
 20
32.1225156691
 10
-11.0172348212
 20
32.1519643871
 10
-11.051806006
 20
32.1785060137
 10
-11.0885536416
 20
32.201938864
 10
-11.1271984895
 20
32.2220848762
 10
-11.1674468948
 20
32.2387909644
 10
-11.2089930173
 20
32.2519301823
 10
-11.2515211557
 20
32.2614026873
 10
-11.2947081468
 20
32.2671364997
 10
-11.3382258205
 20
32.2690880493
  0
LINE
  5
297
100
AcDbEntity
  8
RACCORDO
100
AcDbLine
 62
250
  6
CONTINUOUS
 10
-7.8403579259
 20
30.8701942059
 11
-7.8403579259
 21
32.387045232
  0
LINE
  5
298
100
AcDbEntity
  8
RACCORDO
100
AcDbLine
 62
7
  6
CONTINUOUS
 10
-16.1590842463
 20
-35.9539123165
 11
-15.8874242503
 21
-34.866858367
  0
LINE
  5
299
100
AcDbEntity
  8
ASSI
100
AcDbLine
 62
7
  6
CONTINUOUS
 10
-6.0188332503
 20
14.0646465151
 11
-6.8874012503
 21
11.3625185151
  0
LINE
  5
29A
100
AcDbEntity
  8
ASSI
100
AcDbLine
 62
7
  6
CONTINUOUS
 10
-6.4806322503
 20
10.1657505151
 11
-5.2273782503
 21
14.0646465151
  0
LINE
  5
29B
100
AcDbEntity
  8
RACCORDO
100
AcDbLine
 62
250
  6
CONTINUOUS
 10
15.6125757497
 20
-9.9842494849
 11
15.9125757497
 21
-9.9842494849
  0
LINE
  5
29C
100
AcDbEntity
  8
RACCORDO
100
AcDbLine
 62
250
  6
CONTINUOUS
 10
-15.5874242503
 20
-9.9842494849
 11
-15.8874242503
 21
-9.9842494849
  0
LINE
  5
29D
100
AcDbEntity
  8
DRAFT
100
AcDbLine
 62
7
  6
CONTINUOUS
 10
-16.9374242503
 20
-9.9342494849
 11
-16.1982028697
 21
-9.9342494849
  0
LINE
  5
29E
100
AcDbEntity
  8
DRAFT
100
AcDbLine
 62
7
  6
CONTINUOUS
 10
16.9625757497
 20
-9.9342494849
 11
16.223354369
 21
-9.9342494849
  0
LINE
  5
29F
100
AcDbEntity
  8
RACCORDO
100
AcDbLine
 62
7
  6
CONTINUOUS
 10
16.1910649582
 20
-9.9342494849
 11
16.2032825731
 21
-9.9342494849
  0
LINE
  5
2A0
100
AcDbEntity
  8
RACCORDO
100
AcDbLine
 62
7
  6
CONTINUOUS
 10
-16.1659134589
 20
-9.9342494849
 11
-16.1781310738
 21
-9.9342494849
  0
LINE
  5
2A1
100
AcDbEntity
  8
RACCORDO
100
AcDbLine
 62
7
  6
CONTINUOUS
 10
-15.8874242503
 20
22.9983593971
 11
-16.1590842463
 21
24.0854133466
  0
LINE
  5
2A2
100
AcDbEntity
  8
RACCORDO
100
AcDbLine
 62
7
  6
CONTINUOUS
 10
-15.8796721953
 20
35.6181316693
 11
-15.928428422
 21
35.8132308725
  0
LINE
  5
2A3
100
AcDbEntity
  8
RACCORDO
100
AcDbLine
 62
7
  6
CONTINUOUS
 10
-6.2374242503
 20
35.7613068242
 11
-6.2374242503
 21
31.8873498185
  0
LINE
  5
2A4
100
AcDbEntity
  8
DRAFT
100
AcDbLine
 62
7
  6
CONTINUOUS
 10
-5.2374242503
 20
32.3701942059
 11
-5.2374242503
 21
35.7613068242
  0
LINE
  5
2A5
100
AcDbEntity
  8
ASSI
100
AcDbLine
 62
7
  6
CONTINUOUS
 10
-4.7449542503
 20
14.0646465151
 11
-4.7449542503
 21
10.1657505151
  0
LINE
  5
2A6
100
AcDbEntity
  8
ASSI
100
AcDbLine
 62
7
  6
CONTINUOUS
 10
-3.9248192503
 20
10.1657505151
 11
-3.9248192503
 21
14.0646465151
  0
LINE
  5
2A7
100
AcDbEntity
  8
DRAFT
100
AcDbLine
 62
7
  6
CONTINUOUS
 10
-16.2331103408
 20
-38.2501294985
 11
-16.1632953985
 21
-37.9707633426
  0
LINE
  5
2A8
100
AcDbEntity
  8
ASSI
100
AcDbLine
 62
7
  6
CONTINUOUS
 10
-0.3248592503
 20
14.0646465151
 11
-1.0970002503
 21
11.3818325151
  0
LINE
  5
2A9
100
AcDbEntity
  8
ASSI
100
AcDbLine
 62
7
  6
CONTINUOUS
 10
-0.6855332503
 20
10.1657505151
 11
0.0827937497
 21
12.6169365151
  0
LINE
  5
2AA
100
AcDbEntity
  8
ASSI
100
AcDbLine
 62
7
  6
CONTINUOUS
 10
-8.5474242503
 20
14.0646465151
 11
-7.2941702503
 21
10.1657505151
  0
LINE
  5
2AB
100
AcDbEntity
  8
ASSI
100
AcDbLine
 62
7
  6
CONTINUOUS
 10
-6.8874012503
 20
11.3625185151
 11
-7.7559682503
 21
14.0646465151
  0
LINE
  5
2AC
100
AcDbEntity
  8
RACCORDO
100
AcDbLine
 62
7
  6
CONTINUOUS
 10
-16.1625638824
 20
38.2501294985
 11
-15.928428422
 21
37.3132308725
  0
LINE
  5
2AD
100
AcDbEntity
  8
ASSI
100
AcDbLine
 62
7
  6
CONTINUOUS
 10
-3.0530332503
 20
14.0646465151
 11
-3.0530332503
 21
10.1657505151
  0
LINE
  5
2AE
100
AcDbEntity
  8
ASSI
100
AcDbLine
 62
7
  6
CONTINUOUS
 10
-2.2767942503
 20
10.1657505151
 11
-2.2767942503
 21
12.6169365151
  0
LINE
  5
2AF
100
AcDbEntity
  8
ASSI
100
AcDbLine
 62
7
  6
CONTINUOUS
 10
0.0827937497
 20
12.6169365151
 11
0.0827937497
 21
10.1657505151
  0
LINE
  5
2B0
100
AcDbEntity
  8
ASSI
100
AcDbLine
 62
7
  6
CONTINUOUS
 10
2.7051767497
 20
11.6231175151
 11
3.1299497497
 21
13.0225415151
  0
LINE
  5
2B1
100
AcDbEntity
  8
ASSI
100
AcDbLine
 62
7
  6
CONTINUOUS
 10
2.1772937497
 20
10.1657505151
 11
2.4205807497
 21
10.9185775151
  0
LINE
  5
2B2
100
AcDbEntity
  8
ASSI
100
AcDbLine
 62
7
  6
CONTINUOUS
 10
2.6829897497
 20
14.0646465151
 11
1.3672227497
 21
10.1657505151
  0
LINE
  5
2B3
100
AcDbEntity
  8
RACCORDO
100
AcDbLine
 62
7
  6
CONTINUOUS
 10
16.1883245083
 20
38.2513410616
 11
16.1877153817
 21
38.2501294985
  0
LINE
  5
2B4
100
AcDbEntity
  8
RACCORDO
100
AcDbLine
 62
7
  6
CONTINUOUS
 10
16.2032825731
 20
-1.9342494849
 11
16.1910649582
 21
-1.9342494849
  0
LINE
  5
2B5
100
AcDbEntity
  8
RACCORDO
100
AcDbLine
 62
7
  6
CONTINUOUS
 10
-16.1781310738
 20
-1.9342494849
 11
-16.1659134589
 21
-1.9342494849
  0
LINE
  5
2B6
100
AcDbEntity
  8
DRAFT
100
AcDbLine
 62
7
  6
CONTINUOUS
 10
16.9625757497
 20
-1.9342494849
 11
16.223354369
 21
-1.9342494849
  0
LINE
  5
2B7
100
AcDbEntity
  8
DRAFT
100
AcDbLine
 62
7
  6
CONTINUOUS
 10
-16.1982028697
 20
-1.9342494849
 11
-16.9374242503
 21
-1.9342494849
  0
LINE
  5
2B8
100
AcDbEntity
  8
RACCORDO
100
AcDbLine
 62
250
  6
CONTINUOUS
 10
15.6125757497
 20
-1.8842494849
 11
15.9125757497
 21
-1.8842494849
  0
LINE
  5
2B9
100
AcDbEntity
  8
RACCORDO
100
AcDbLine
 62
250
  6
CONTINUOUS
 10
-15.5874242503
 20
-1.8842494849
 11
-15.8874242503
 21
-1.8842494849
  0
LINE
  5
2BA
100
AcDbEntity
  8
ASSI
100
AcDbLine
 62
7
  6
CONTINUOUS
 10
0.8590327497
 20
10.1657505151
 11
0.8590327497
 21
14.0646465151
  0
LINE
  5
2BB
100
AcDbEntity
  8
ASSI
100
AcDbLine
 62
7
  6
CONTINUOUS
 10
-2.6148822503
 20
-22.9303214849
 11
-2.4215952503
 21
-22.1858964849
  0
LINE
  5
2BC
100
AcDbEntity
  8
ASSI
100
AcDbLine
 62
7
  6
CONTINUOUS
 10
-3.3948422503
 20
-25.9342494849
 11
-2.7459622503
 21
-23.4351604849
  0
LINE
  5
2BD
100
AcDbEntity
  8
ASSI
100
AcDbLine
 62
7
  6
CONTINUOUS
 10
-2.3708743384
 20
-23.7003488242
 11
-2.8173282503
 21
-25.4198184849
  0
LINE
  5
2BE
100
AcDbEntity
  8
ASSI
100
AcDbLine
 62
7
  6
CONTINUOUS
 10
-3.6363392503
 20
-23.8217264849
 11
-4.1924242503
 21
-25.9342494849
  0
LINE
  5
2BF
100
AcDbEntity
  8
ASSI
100
AcDbLine
 62
7
  6
CONTINUOUS
 10
-3.2951822503
 20
-22.5651734849
 11
-3.4914832503
 21
-23.3109064849
  0
LINE
  5
2C0
100
AcDbEntity
  8
DRAFT
100
AcDbLine
 62
7
  6
CONTINUOUS
 10
-16.1807491341
 20
0.0269646135
 11
-17.7374242503
 21
-0.109226812
  0
LINE
  5
2C1
100
AcDbEntity
  8
DRAFT
100
AcDbLine
 62
7
  6
CONTINUOUS
 10
-17.7374242503
 20
2.7657505151
 11
-16.1807491341
 21
2.7657505151
  0
LINE
  5
2C2
100
AcDbEntity
  8
DRAFT
100
AcDbLine
 62
7
  6
CONTINUOUS
 10
17.7625757497
 20
2.7657505151
 11
16.2059006334
 21
2.7657505151
  0
LINE
  5
2C3
100
AcDbEntity
  8
DRAFT
100
AcDbLine
 62
250
  6
CONTINUOUS
 10
-17.7374242503
 20
3.0657505151
 11
-16.2069297375
 21
3.0657505151
  0
LINE
  5
2C4
100
AcDbEntity
  8
DRAFT
100
AcDbLine
 62
250
  6
CONTINUOUS
 10
17.7625757497
 20
3.0657505151
 11
16.2320812368
 21
3.0657505151
  0
LINE
  5
2C5
100
AcDbEntity
  8
DRAFT
100
AcDbLine
 62
7
  6
CONTINUOUS
 10
17.7625757497
 20
-0.109226812
 11
16.2059006334
 21
0.0269646135
  0
LINE
  5
2C6
100
AcDbEntity
  8
RACCORDO
100
AcDbLine
 62
7
  6
CONTINUOUS
 10
-16.1625638824
 20
38.2501294985
 11
-16.163173009
 21
38.2513410617
  0
LINE
  5
2C7
100
AcDbEntity
  8
ASSI
100
AcDbLine
 62
7
  6
CONTINUOUS
 10
-2.2767942503
 20
12.6169365151
 11
-1.5084672503
 21
10.1657505151
  0
LINE
  5
2C8
100
AcDbEntity
  8
ASSI
100
AcDbLine
 62
7
  6
CONTINUOUS
 10
-1.0970002503
 20
11.3818325151
 11
-1.8691412503
 21
14.0646465151
  0
LINE
  5
2C9
100
AcDbEntity
  8
DRAFT
100
AcDbLine
 62
7
  6
CONTINUOUS
 10
4.2625757497
 20
32.3701942059
 11
4.2625757497
 21
35.7613068242
  0
LINE
  5
2CA
100
AcDbEntity
  8
RACCORDO
100
AcDbLine
 62
7
  6
CONTINUOUS
 10
5.2625757497
 20
31.8873498185
 11
5.2625757497
 21
35.7613068242
  0
LINE
  5
2CB
100
AcDbEntity
  8
ASSI
100
AcDbLine
 62
7
  6
CONTINUOUS
 10
5.3205367497
 20
14.0646465151
 11
5.3205367497
 21
10.1657505151
  0
LINE
  5
2CC
100
AcDbEntity
  8
ASSI
100
AcDbLine
 62
7
  6
CONTINUOUS
 10
6.1699357497
 20
10.1657505151
 11
6.1699357497
 21
11.7311035151
  0
LINE
  5
2CD
100
AcDbEntity
  8
ASSI
100
AcDbLine
 62
7
  6
CONTINUOUS
 10
6.1699357497
 20
12.4069645151
 11
6.1699357497
 21
13.4082465151
  0
LWPOLYLINE
  5
2CE
100
AcDbEntity
  8
ASSI
100
AcDbPolyline
 62
7
  6
CONTINUOUS
 90
3
 70
0
 10
0.641924068
 20
-25.605631328
 10
0.6510266263
 20
-25.5665042757
 10
0.6678234405
 20
-25.5054166192
  0
LINE
  5
2CF
100
AcDbEntity
  8
RACCORDO
100
AcDbLine
 62
7
  6
CONTINUOUS
 10
16.1877153817
 20
38.2501294985
 11
15.9535799213
 21
37.3132308725
  0
LINE
  5
2D0
100
AcDbEntity
  8
RACCORDO
100
AcDbLine
 62
7
  6
CONTINUOUS
 10
15.9535799213
 20
35.8132308725
 11
15.9048236947
 21
35.6181316693
  0
LINE
  5
2D1
100
AcDbEntity
  8
ASSI
100
AcDbLine
 62
7
  6
CONTINUOUS
 10
-2.0510212503
 20
-25.3981864849
 11
-1.6416997092
 21
-23.8217282524
  0
LINE
  5
2D2
100
AcDbEntity
  8
ASSI
100
AcDbLine
 62
7
  6
CONTINUOUS
 10
-1.2069172503
 20
-23.6972614849
 11
-1.7192914174
 21
-25.6706121285
  0
LINE
  5
2D3
100
AcDbEntity
  8
ASSI
100
AcDbLine
 62
7
  6
CONTINUOUS
 10
-1.0073062503
 20
-25.9342494849
 11
-0.0340602503
 21
-22.1858964849
  0
LINE
  5
2D4
100
AcDbEntity
  8
ASSI
100
AcDbLine
 62
7
  6
CONTINUOUS
 10
-0.011097354
 20
-23.663064884
 11
-0.4930912503
 21
-25.5194124849
  0
LINE
  5
2D5
100
AcDbEntity
  8
ASSI
100
AcDbLine
 62
7
  6
CONTINUOUS
 10
0.4458527497
 20
-24.8453674849
 11
0.6984818852
 21
-23.8723959629
  0
LINE
  5
2D6
100
AcDbEntity
  8
ASSI
100
AcDbLine
 62
7
  6
CONTINUOUS
 10
1.1206397497
 20
-23.7044254849
 11
0.8724927497
 21
-24.6601364849
  0
LINE
  5
2D7
100
AcDbEntity
  8
ASSI
100
AcDbLine
 62
7
  6
CONTINUOUS
 10
-0.8857802503
 20
-22.5556794849
 11
-1.1244422503
 21
-23.4351604849
  0
LINE
  5
2D8
100
AcDbEntity
  8
DRAFT
100
AcDbLine
 62
250
  6
CONTINUOUS
 10
-16.1024860494
 20
4.3657505151
 11
-15.8839237765
 21
4.3657505151
  0
LINE
  5
2D9
100
AcDbEntity
  8
DRAFT
100
AcDbLine
 62
250
  6
CONTINUOUS
 10
16.1276375487
 20
4.3657505151
 11
15.9090752759
 21
4.3657505151
  0
LINE
  5
2DA
100
AcDbEntity
  8
ASSI
100
AcDbLine
 62
7
  6
CONTINUOUS
 10
3.8393187497
 20
10.9185775151
 11
4.0826067497
 21
10.1657505151
  0
LINE
  5
2DB
100
AcDbEntity
  8
ASSI
100
AcDbLine
 62
7
  6
CONTINUOUS
 10
3.1299497497
 20
13.0225415151
 11
3.5547227497
 21
11.6231175151
  0
LINE
  5
2DC
100
AcDbEntity
  8
DRAFT
100
AcDbLine
 62
7
  6
CONTINUOUS
 10
16.2582618402
 20
-38.2501294985
 11
16.1884468979
 21
-37.9707633426
  0
LINE
  5
2DD
100
AcDbEntity
  8
RACCORDO
100
AcDbLine
 62
7
  6
CONTINUOUS
 10
15.9125757497
 20
-34.866858367
 11
16.1842357456
 21
-35.9539123165
  0
LINE
  5
2DE
100
AcDbEntity
  8
ASSI
100
AcDbLine
 62
7
  6
CONTINUOUS
 10
7.5921857497
 20
12.9236335151
 11
7.5921857497
 21
12.8915727962
  0
LINE
  5
2DF
100
AcDbEntity
  8
RACCORDO
100
AcDbLine
 62
250
  6
CONTINUOUS
 10
7.8655094252
 20
32.387045232
 11
7.8655094252
 21
30.8701942059
  0
LINE
  5
2E0
100
AcDbEntity
  8
ASSI
100
AcDbLine
 62
7
  6
CONTINUOUS
 10
8.4540957497
 20
12.8595944703
 11
8.4540957497
 21
12.9478855151
  0
LINE
  5
2E1
100
AcDbEntity
  8
RACCORDO
100
AcDbLine
 62
250
  6
CONTINUOUS
 10
10.8636819063
 20
31.7693926358
 11
10.8636819063
 21
30.7690880493
  0
LINE
  5
2E2
100
AcDbEntity
  8
RACCORDO
100
AcDbLine
 62
7
  6
CONTINUOUS
 10
16.1842357456
 20
24.0854133466
 11
15.9125757497
 21
22.9983593971
  0
LINE
  5
2E3
100
AcDbEntity
  8
ASSI
100
AcDbLine
 62
7
  6
CONTINUOUS
 10
1.4065694073
 20
-25.6361919519
 11
1.5386957497
 21
-25.1273184849
  0
LINE
  5
2E4
100
AcDbEntity
  8
ASSI
100
AcDbLine
 62
7
  6
CONTINUOUS
 10
1.6630067497
 20
-24.6485494849
 11
1.8355277497
 21
-23.9841034849
  0
LINE
  5
2E5
100
AcDbEntity
  8
ASSI
100
AcDbLine
 62
7
  6
CONTINUOUS
 10
2.2611044812
 20
-23.7888594087
 11
2.0855177497
 21
-24.4651114849
  0
LINE
  5
2E6
100
AcDbEntity
  8
ASSI
100
AcDbLine
 62
7
  6
CONTINUOUS
 10
1.9612077497
 20
-24.9438804849
 11
1.8340037497
 21
-25.4337914849
  0
LINE
  5
2E7
100
AcDbEntity
  8
ASSI
100
AcDbLine
 62
7
  6
CONTINUOUS
 10
2.6407377497
 20
-25.3399164849
 11
2.7562317497
 21
-24.8951044849
  0
LINE
  5
2E8
100
AcDbEntity
  8
ASSI
100
AcDbLine
 62
7
  6
CONTINUOUS
 10
3.1743107497
 20
-24.7135914849
 11
2.9197856107
 21
-25.6938700203
  0
LINE
  5
2E9
100
AcDbEntity
  8
ASSI
100
AcDbLine
 62
7
  6
CONTINUOUS
 10
3.4394497786
 20
-23.6924373735
 11
3.2610457497
 21
-24.3795424849
  0
LINE
  5
2EA
100
AcDbEntity
  8
ASSI
100
AcDbLine
 62
7
  6
CONTINUOUS
 10
3.6785467497
 20
-25.9342494849
 11
4.2121507497
 21
-23.8791304849
  0
LINE
  5
2EB
100
AcDbEntity
  8
ASSI
100
AcDbLine
 62
7
  6
CONTINUOUS
 10
0.6353887788
 20
-25.623139853
 11
0.641924068
 21
-25.605631328
  0
LWPOLYLINE
  5
2EC
100
AcDbEntity
  8
ASSI
100
AcDbPolyline
 62
7
  6
CONTINUOUS
 90
12
 70
0
 10
-2.3708743384
 20
-23.7003488242
 10
-2.3457062579
 20
-23.653080603
 10
-2.3151867455
 20
-23.610425783
 10
-2.2793158012
 20
-23.5723843641
 10
-2.2377957242
 20
-23.5387798976
 10
-2.1909242153
 20
-23.5097888322
 10
-2.1395943773
 20
-23.4859405144
 10
-2.0834712985
 20
-23.4680316344
 10
-2.0228898905
 20
-23.4552655021
 10
-1.9597479908
 20
-23.4457813933
 10
-1.8946782119
 20
-23.4389590669
 10
-1.8270479412
 20
-23.4354187641
  0
LINE
  5
2ED
100
AcDbEntity
  8
DRAFT
100
AcDbLine
 62
7
  6
CONTINUOUS
 10
15.9702752031
 20
11.3839218627
 11
16.0662707488
 21
11.3923203847
  0
LINE
  5
2EE
100
AcDbEntity
  8
RACCORDO
100
AcDbLine
 62
7
  6
CONTINUOUS
 10
-16.1947543271
 20
9.961759456
 11
-17.7374242503
 21
9.9482967795
  0
LINE
  5
2EF
100
AcDbEntity
  8
RACCORDO
100
AcDbLine
 62
250
  6
CONTINUOUS
 10
-16.2069654969
 20
10.2616414676
 11
-16.2182466836
 21
10.2615430182
  0
LINE
  5
2F0
100
AcDbEntity
  8
RACCORDO
100
AcDbLine
 62
250
  6
CONTINUOUS
 10
-16.2331103408
 20
10.2614361516
 11
-17.7374242503
 21
10.248308203
  0
LINE
  5
2F1
100
AcDbEntity
  8
DRAFT
100
AcDbLine
 62
250
  6
CONTINUOUS
 10
-17.7374242503
 20
7.9657505151
 11
-16.2069297375
 21
7.9657505151
  0
LINE
  5
2F2
100
AcDbEntity
  8
DRAFT
100
AcDbLine
 62
250
  6
CONTINUOUS
 10
17.7625757497
 20
7.9657505151
 11
16.2320812368
 21
7.9657505151
  0
LINE
  5
2F3
100
AcDbEntity
  8
DRAFT
100
AcDbLine
 62
7
  6
CONTINUOUS
 10
16.2172455616
 20
8.2657505151
 11
17.7625757497
 21
8.2657505151
  0
LINE
  5
2F4
100
AcDbEntity
  8
DRAFT
100
AcDbLine
 62
7
  6
CONTINUOUS
 10
-16.1920940622
 20
8.2657505151
 11
-17.7374242503
 21
8.2657505151
  0
LINE
  5
2F5
100
AcDbEntity
  8
ASSI
100
AcDbLine
 62
7
  6
CONTINUOUS
 10
-7.2941702503
 20
10.1657505151
 11
-6.4806322503
 21
10.1657505151
  0
LINE
  5
2F6
100
AcDbEntity
  8
ASSI
100
AcDbLine
 62
7
  6
CONTINUOUS
 10
-4.7449542503
 20
10.1657505151
 11
-3.9248192503
 21
10.1657505151
  0
LINE
  5
2F7
100
AcDbEntity
  8
ASSI
100
AcDbLine
 62
7
  6
CONTINUOUS
 10
-3.0530332503
 20
10.1657505151
 11
-2.2767942503
 21
10.1657505151
  0
LINE
  5
2F8
100
AcDbEntity
  8
ASSI
100
AcDbLine
 62
7
  6
CONTINUOUS
 10
-1.5084672503
 20
10.1657505151
 11
-0.6855332503
 21
10.1657505151
  0
LINE
  5
2F9
100
AcDbEntity
  8
ASSI
100
AcDbLine
 62
7
  6
CONTINUOUS
 10
0.0827937497
 20
10.1657505151
 11
0.8590327497
 21
10.1657505151
  0
LINE
  5
2FA
100
AcDbEntity
  8
ASSI
100
AcDbLine
 62
7
  6
CONTINUOUS
 10
1.3672227497
 20
10.1657505151
 11
2.1772937497
 21
10.1657505151
  0
LINE
  5
2FB
100
AcDbEntity
  8
ASSI
100
AcDbLine
 62
7
  6
CONTINUOUS
 10
4.0826067497
 20
10.1657505151
 11
4.8926777497
 21
10.1657505151
  0
LINE
  5
2FC
100
AcDbEntity
  8
ASSI
100
AcDbLine
 62
7
  6
CONTINUOUS
 10
5.3205367497
 20
10.1657505151
 11
6.1699357497
 21
10.1657505151
  0
LINE
  5
2FD
100
AcDbEntity
  8
ASSI
100
AcDbLine
 62
7
  6
CONTINUOUS
 10
7.6473117497
 20
10.1657505151
 11
8.5738257497
 21
10.1657505151
  0
LINE
  5
2FE
100
AcDbEntity
  8
ASSI
100
AcDbLine
 62
7
  6
CONTINUOUS
 10
2.4205807497
 20
10.9185775151
 11
3.8393187497
 21
10.9185775151
  0
LINE
  5
2FF
100
AcDbEntity
  8
RACCORDO
100
AcDbLine
 62
7
  6
CONTINUOUS
 10
17.7625757497
 20
9.9482967795
 11
16.2199058265
 21
9.961759456
  0
LINE
  5
300
100
AcDbEntity
  8
RACCORDO
100
AcDbLine
 62
250
  6
CONTINUOUS
 10
16.2433981829
 20
10.2615430182
 11
16.2321169962
 21
10.2616414676
  0
LINE
  5
301
100
AcDbEntity
  8
RACCORDO
100
AcDbLine
 62
250
  6
CONTINUOUS
 10
17.7625757497
 20
10.248308203
 11
16.2582618402
 21
10.2614361516
  0
LINE
  5
302
100
AcDbEntity
  8
DRAFT
100
AcDbLine
 62
7
  6
CONTINUOUS
 10
-16.0411192494
 20
11.3923203847
 11
-15.9451237038
 21
11.3839218627
  0
LINE
  5
303
100
AcDbEntity
  8
RACCORDO
100
AcDbLine
 62
250
  6
CONTINUOUS
 10
17.7625757497
 20
9.4896272368
 11
16.2059006334
 21
9.6258186622
  0
LINE
  5
304
100
AcDbEntity
  8
ASSI
100
AcDbLine
 62
7
  6
CONTINUOUS
 10
4.8926777497
 20
10.1657505151
 11
3.5769097497
 21
14.0646465151
  0
LWPOLYLINE
  5
305
100
AcDbEntity
  8
RACCORDO
100
AcDbPolyline
 62
250
  6
CONTINUOUS
 90
10
 70
0
 10
12.086585955
 20
26.5062223761
 10
12.0893901365
 20
26.4405924006
 10
12.0923756289
 20
26.3787875571
 10
12.0955232267
 20
26.3207629477
 10
12.0988383223
 20
26.266671537
 10
12.1023155233
 20
26.2168229765
 10
12.1059194466
 20
26.1714344658
 10
12.1096574854
 20
26.1306438821
 10
12.1135222464
 20
26.0946889309
 10
12.1167432364
 20
26.0694366728
  0
LINE
  5
306
100
AcDbEntity
  8
RACCORDO
100
AcDbLine
 62
250
  6
CONTINUOUS
 10
11.5519176122
 20
30.74478645
 11
11.5561793753
 21
30.6253343294
  0
LINE
  5
307
100
AcDbEntity
  8
RACCORDO
100
AcDbLine
 62
250
  6
CONTINUOUS
 10
12.0815141248
 20
26.6483329255
 11
12.086585955
 21
26.5062223761
  0
LINE
  5
308
100
AcDbEntity
  8
RACCORDO
100
AcDbLine
 62
250
  6
CONTINUOUS
 10
11.5868879457
 20
26.1790706888
 11
11.5906275718
 21
26.0657505151
  0
LINE
  5
309
100
AcDbEntity
  8
RACCORDO
100
AcDbLine
 62
250
  6
CONTINUOUS
 10
12.0469086754
 20
31.2610021755
 11
12.051614463
 21
31.1214373048
  0
LINE
  5
30A
100
AcDbEntity
  8
RACCORDO
100
AcDbLine
 62
250
  6
CONTINUOUS
 10
11.5561793753
 20
30.6253343294
 11
11.5599339655
 21
30.4930452756
  0
LINE
  5
30B
100
AcDbEntity
  8
RACCORDO
100
AcDbLine
 62
250
  6
CONTINUOUS
 10
12.0772598614
 20
26.8030963772
 11
12.0815141248
 21
26.6483329255
  0
LINE
  5
30C
100
AcDbEntity
  8
RACCORDO
100
AcDbLine
 62
250
  6
CONTINUOUS
 10
12.051614463
 20
31.1214373048
 11
12.0558736423
 21
30.9623795752
  0
LINE
  5
30D
100
AcDbEntity
  8
RACCORDO
100
AcDbLine
 62
250
  6
CONTINUOUS
 10
11.5818127358
 20
26.3688629672
 11
11.5868879457
 21
26.1790706888
  0
LINE
  5
30E
100
AcDbEntity
  8
RACCORDO
100
AcDbLine
 62
250
  6
CONTINUOUS
 10
11.5599339655
 20
30.4930452756
 11
11.5631450921
 21
30.3492001967
  0
LINE
  5
30F
100
AcDbEntity
  8
RACCORDO
100
AcDbLine
 62
250
  6
CONTINUOUS
 10
12.0558736423
 20
30.9623795752
 11
12.0596263491
 21
30.7859124227
  0
LINE
  5
310
100
AcDbEntity
  8
RACCORDO
100
AcDbLine
 62
250
  6
CONTINUOUS
 10
11.5775568193
 20
26.5751645519
 11
11.5818127358
 21
26.3688629672
  0
LINE
  5
311
100
AcDbEntity
  8
RACCORDO
100
AcDbLine
 62
250
  6
CONTINUOUS
 10
12.0738795603
 20
26.9680377285
 11
12.0772598614
 21
26.8030963772
  0
LINE
  5
312
100
AcDbEntity
  8
RACCORDO
100
AcDbLine
 62
250
  6
CONTINUOUS
 10
11.5631450921
 20
30.3492001967
 11
11.565763219
 21
30.1958077699
  0
LINE
  5
313
100
AcDbEntity
  8
RACCORDO
100
AcDbLine
 62
250
  6
CONTINUOUS
 10
11.5741765899
 20
26.7953352949
 11
11.5775568193
 21
26.5751645519
  0
LINE
  5
314
100
AcDbEntity
  8
RACCORDO
100
AcDbLine
 62
250
  6
CONTINUOUS
 10
12.0596263491
 20
30.7859124227
 11
12.0642189946
 21
30.4936061445
  0
LINE
  5
315
100
AcDbEntity
  8
RACCORDO
100
AcDbLine
 62
250
  6
CONTINUOUS
 10
12.0714634413
 20
27.139589392
 11
12.0738795603
 21
26.9680377285
  0
LINE
  5
316
100
AcDbEntity
  8
RACCORDO
100
AcDbLine
 62
250
  6
CONTINUOUS
 10
11.565763219
 20
30.1958077699
 11
11.567753557
 21
30.0351817515
  0
LINE
  5
317
100
AcDbEntity
  8
RACCORDO
100
AcDbLine
 62
250
  6
CONTINUOUS
 10
11.5717619742
 20
27.0244275553
 11
11.5741765899
 21
26.7953352949
  0
LINE
  5
318
100
AcDbEntity
  8
RACCORDO
100
AcDbLine
 62
250
  6
CONTINUOUS
 10
12.0642189946
 20
30.4936061445
 11
12.0674450222
 21
30.1757869868
  0
LINE
  5
319
100
AcDbEntity
  8
RACCORDO
100
AcDbLine
 62
250
  6
CONTINUOUS
 10
12.0700183349
 20
27.3138784829
 11
12.0714634413
 21
27.139589392
  0
LINE
  5
31A
100
AcDbEntity
  8
RACCORDO
100
AcDbLine
 62
250
  6
CONTINUOUS
 10
11.567753557
 20
30.0351817515
 11
11.5695163044
 21
29.7849464897
  0
LINE
  5
31B
100
AcDbEntity
  8
RACCORDO
100
AcDbLine
 62
250
  6
CONTINUOUS
 10
12.0674450222
 20
30.1757869868
 11
12.0692096799
 21
29.841724871
  0
LWPOLYLINE
  5
31C
100
AcDbEntity
  8
RACCORDO
100
AcDbPolyline
 62
250
  6
CONTINUOUS
 90
3
 70
0
 10
11.5698548836
 20
27.4879401498
 10
11.5699651497
 20
27.3717920025
 10
11.5717619742
 20
27.0244275553
  0
LINE
  5
31D
100
AcDbEntity
  8
RACCORDO
100
AcDbLine
 62
7
  6
CONTINUOUS
 10
11.5343247554
 20
26.3651079123
 11
11.5343247554
 21
29.6156008127
  0
LINE
  5
31E
100
AcDbEntity
  8
RACCORDO
100
AcDbLine
 62
250
  6
CONTINUOUS
 10
11.5695163044
 20
29.7849464897
 11
11.5698548836
 21
27.4879401498
  0
LINE
  5
31F
100
AcDbEntity
  8
RACCORDO
100
AcDbLine
 62
250
  6
CONTINUOUS
 10
11.7374745771
 20
-37.9539123165
 11
11.7374745771
 21
-37.9342494849
  0
LINE
  5
320
100
AcDbEntity
  8
RACCORDO
100
AcDbLine
 62
250
  6
CONTINUOUS
 10
12.0692096799
 20
29.841724871
 11
12.0700183349
 21
27.3138784829
  0
LINE
  5
321
100
AcDbEntity
  8
RACCORDO
100
AcDbLine
 62
250
  6
CONTINUOUS
 10
12.2371699906
 20
26.0844992158
 11
12.2371699906
 21
26.0657505151
  0
LINE
  5
322
100
AcDbEntity
  8
RACCORDO
100
AcDbLine
 62
250
  6
CONTINUOUS
 10
12.2371699906
 20
-37.9707633426
 11
12.2371699906
 21
-37.9342494849
  0
LINE
  5
323
100
AcDbEntity
  8
RACCORDO
100
AcDbLine
 62
250
  6
CONTINUOUS
 10
14.4536370367
 20
35.7613068242
 11
14.4536370367
 21
37.2613068242
  0
LWPOLYLINE
  5
324
100
AcDbEntity
  8
ASSI
100
AcDbPolyline
 62
7
  6
CONTINUOUS
 90
28
 70
0
 10
0.3395615416
 20
-25.2231361411
 10
0.3248561907
 20
-25.2535986054
 10
0.3145326965
 20
-25.2846971212
 10
0.3085910588
 20
-25.3164316884
 10
0.3078733585
 20
-25.3493487107
 10
0.3115375149
 20
-25.3829017844
 10
0.3170572857
 20
-25.4154516989
 10
0.3234728071
 20
-25.4468640552
 10
0.3317439429
 20
-25.4772732523
 10
0.3422240429
 20
-25.5054432756
 10
0.3554615691
 20
-25.5310008293
 10
0.3709080593
 20
-25.5543192093
 10
0.3872714766
 20
-25.5752822882
 10
0.4043890714
 20
-25.5934749116
 10
0.4224235933
 20
-25.6093122339
 10
0.4405712531
 20
-25.6239235904
 10
0.4585667593
 20
-25.6380302247
 10
0.4766754034
 20
-25.6509108932
 10
0.4948892712
 20
-25.6615312007
 10
0.513392798
 20
-25.6699985793
 10
0.5320015485
 20
-25.676205597
 10
0.5501543019
 20
-25.678795563
 10
0.568144861
 20
-25.6770393593
 10
0.5856794231
 20
-25.6716661039
 10
0.6013153588
 20
-25.6635064593
 10
0.6146217153
 20
-25.6525110712
 10
0.6260294456
 20
-25.6387292938
 10
0.6353887788
 20
-25.623139853
  0
LWPOLYLINE
  5
325
100
AcDbEntity
  8
ASSI
100
AcDbPolyline
 62
7
  6
CONTINUOUS
 90
13
 70
0
 10
-0.011097354
 20
-23.663064884
 10
0.0075140334
 20
-23.6303878673
 10
0.0299840324
 20
-23.6004410134
 10
0.0563126429
 20
-23.5732243224
 10
0.0868453186
 20
-23.5488505019
 10
0.1212366059
 20
-23.5272068443
 10
0.1584501443
 20
-23.5079552265
 10
0.1984375481
 20
-23.4912363347
 10
0.2412472031
 20
-23.4769094828
 10
0.2859879054
 20
-23.46421449
 10
0.3323625872
 20
-23.4528979626
 10
0.3806683165
 20
-23.4432132942
 10
0.4309050931
 20
-23.4351604849
  0
LINE
  5
326
100
AcDbEntity
  8
RACCORDO
100
AcDbLine
 62
7
  6
CONTINUOUS
 10
-16.1807491341
 20
9.9269646135
 11
-16.1481361814
 21
9.9298178771
  0
LINE
  5
327
100
AcDbEntity
  8
DRAFT
100
AcDbLine
 62
7
  6
CONTINUOUS
 10
-17.7374242503
 20
9.790773188
 11
-16.1807491341
 21
9.9269646135
  0
LINE
  5
328
100
AcDbEntity
  8
RACCORDO
100
AcDbLine
 62
250
  6
CONTINUOUS
 10
-16.1455300733
 20
10.2289042915
 11
-16.1948546485
 21
10.2245889503
  0
LINE
  5
329
100
AcDbEntity
  8
RACCORDO
100
AcDbLine
 62
250
  6
CONTINUOUS
 10
16.2062393715
 20
15.305707643
 11
16.1706815727
 21
15.3025967387
  0
LINE
  5
32A
100
AcDbEntity
  8
RACCORDO
100
AcDbLine
 62
7
  6
CONTINUOUS
 10
16.1732876807
 20
15.601683153
 11
16.2062393715
 21
15.6045660524
  0
LINE
  5
32B
100
AcDbEntity
  8
RACCORDO
100
AcDbLine
 62
250
  6
CONTINUOUS
 10
16.1881219925
 20
15.9018393965
 11
16.2062393715
 21
15.9034244618
  0
LINE
  5
32C
100
AcDbEntity
  8
DRAFT
100
AcDbLine
 62
7
  6
CONTINUOUS
 10
-16.2069654969
 20
11.5616528907
 11
-16.2156276362
 21
11.5615772973
  0
LINE
  5
32D
100
AcDbEntity
  8
RACCORDO
100
AcDbLine
 62
7
  6
CONTINUOUS
 10
-16.1662528697
 20
11.5620081844
 11
-16.1894486187
 21
11.5618057582
  0
LINE
  5
32E
100
AcDbEntity
  8
ASSI
100
AcDbLine
 62
7
  6
CONTINUOUS
 10
3.5547227497
 20
11.6231175151
 11
2.7051767497
 21
11.6231175151
  0
LINE
  5
32F
100
AcDbEntity
  8
ASSI
100
AcDbLine
 62
7
  6
CONTINUOUS
 10
6.1699357497
 20
11.7311035151
 11
6.8357007497
 21
11.7311035151
  0
LINE
  5
330
100
AcDbEntity
  8
ASSI
100
AcDbLine
 62
7
  6
CONTINUOUS
 10
7.0473707497
 20
12.4069645151
 11
6.1699357497
 21
12.4069645151
  0
LINE
  5
331
100
AcDbEntity
  8
ASSI
100
AcDbLine
 62
7
  6
CONTINUOUS
 10
6.1699357497
 20
13.4082465151
 11
7.0473719534
 21
13.4082465151
  0
LINE
  5
332
100
AcDbEntity
  8
ASSI
100
AcDbLine
 62
7
  6
CONTINUOUS
 10
7.5324805122
 20
14.0646465151
 11
5.3205367497
 21
14.0646465151
  0
LINE
  5
333
100
AcDbEntity
  8
ASSI
100
AcDbLine
 62
7
  6
CONTINUOUS
 10
3.5769097497
 20
14.0646465151
 11
2.6829897497
 21
14.0646465151
  0
LINE
  5
334
100
AcDbEntity
  8
ASSI
100
AcDbLine
 62
7
  6
CONTINUOUS
 10
0.8590327497
 20
14.0646465151
 11
-0.3248592503
 21
14.0646465151
  0
LINE
  5
335
100
AcDbEntity
  8
ASSI
100
AcDbLine
 62
7
  6
CONTINUOUS
 10
-1.8691412503
 20
14.0646465151
 11
-3.0530332503
 21
14.0646465151
  0
LINE
  5
336
100
AcDbEntity
  8
ASSI
100
AcDbLine
 62
7
  6
CONTINUOUS
 10
-3.9248192503
 20
14.0646465151
 11
-4.7449542503
 21
14.0646465151
  0
LINE
  5
337
100
AcDbEntity
  8
ASSI
100
AcDbLine
 62
7
  6
CONTINUOUS
 10
-5.2273782503
 20
14.0646465151
 11
-6.0188332503
 21
14.0646465151
  0
LINE
  5
338
100
AcDbEntity
  8
ASSI
100
AcDbLine
 62
7
  6
CONTINUOUS
 10
-7.7559682503
 20
14.0646465151
 11
-8.5474242503
 21
14.0646465151
  0
LINE
  5
339
100
AcDbEntity
  8
RACCORDO
100
AcDbLine
 62
7
  6
CONTINUOUS
 10
16.1914043691
 20
11.5620081844
 11
16.2146001181
 21
11.5618057582
  0
LINE
  5
33A
100
AcDbEntity
  8
DRAFT
100
AcDbLine
 62
7
  6
CONTINUOUS
 10
16.2321169962
 20
11.5616528907
 11
16.2407791355
 21
11.5615772973
  0
LINE
  5
33B
100
AcDbEntity
  8
RACCORDO
100
AcDbLine
 62
7
  6
CONTINUOUS
 10
17.7625757497
 20
9.790773188
 11
16.1732876807
 21
9.9298178771
  0
LINE
  5
33C
100
AcDbEntity
  8
RACCORDO
100
AcDbLine
 62
250
  6
CONTINUOUS
 10
16.2200061479
 20
10.2245889503
 11
16.1706815727
 21
10.2289042915
  0
LINE
  5
33D
100
AcDbEntity
  8
RACCORDO
100
AcDbLine
 62
250
  6
CONTINUOUS
 10
-16.1455300733
 20
15.3025967387
 11
-16.1810878722
 21
15.305707643
  0
LINE
  5
33E
100
AcDbEntity
  8
RACCORDO
100
AcDbLine
 62
7
  6
CONTINUOUS
 10
-16.1481361814
 20
15.601683153
 11
-16.1810878722
 21
15.6045660524
  0
LINE
  5
33F
100
AcDbEntity
  8
RACCORDO
100
AcDbLine
 62
250
  6
CONTINUOUS
 10
-16.1810878722
 20
15.9034244618
 11
-16.1629704931
 21
15.9018393965
  0
LINE
  5
340
100
AcDbEntity
  8
ASSI
100
AcDbLine
 62
7
  6
CONTINUOUS
 10
8.5738257497
 20
10.1657505151
 11
7.7040907497
 21
11.8375285151
  0
LINE
  5
341
100
AcDbEntity
  8
ASSI
100
AcDbLine
 62
7
  6
CONTINUOUS
 10
6.8357007497
 20
11.7311035151
 11
7.6473117497
 21
10.1657505151
  0
LINE
  5
342
100
AcDbEntity
  8
RACCORDO
100
AcDbLine
 62
7
  6
CONTINUOUS
 10
16.1894395362
 20
30.5195389139
 11
16.2011428525
 21
29.1799197135
  0
LINE
  5
343
100
AcDbEntity
  8
RACCORDO
100
AcDbLine
 62
7
  6
CONTINUOUS
 10
16.2006661631
 20
37.6655614068
 11
16.2531497594
 21
31.6515369527
  0
LINE
  5
344
100
AcDbEntity
  8
RACCORDO
100
AcDbLine
 62
7
  6
CONTINUOUS
 10
16.2146001181
 20
11.5618057582
 11
16.2173551185
 21
10.1942875459
  0
LINE
  5
345
100
AcDbEntity
  8
RACCORDO
100
AcDbLine
 62
7
  6
CONTINUOUS
 10
16.2407791355
 20
11.5615772973
 11
16.243534136
 21
10.1940590851
  0
LINE
  5
346
100
AcDbEntity
  8
RACCORDO
100
AcDbLine
 62
250
  6
CONTINUOUS
 10
15.6125757497
 20
-9.9842494849
 11
15.6125757497
 21
-37.9342494849
  0
LINE
  5
347
100
AcDbEntity
  8
RACCORDO
100
AcDbLine
 62
250
  6
CONTINUOUS
 10
15.6125757497
 20
-1.8842494849
 11
15.6125757497
 21
26.0657505151
  0
LINE
  5
348
100
AcDbEntity
  8
DRAFT
100
AcDbLine
 62
7
  6
CONTINUOUS
 10
15.9048236947
 20
35.6181316693
 11
15.9048236947
 21
32.5133693608
  0
LINE
  5
349
100
AcDbEntity
  8
RACCORDO
100
AcDbLine
 62
7
  6
CONTINUOUS
 10
15.9125757497
 20
-37.6342494849
 11
15.9125757497
 21
-9.9842494849
  0
LINE
  5
34A
100
AcDbEntity
  8
RACCORDO
100
AcDbLine
 62
7
  6
CONTINUOUS
 10
15.9125757497
 20
-1.8842494849
 11
15.9125757497
 21
25.7657505151
  0
LINE
  5
34B
100
AcDbEntity
  8
RACCORDO
100
AcDbLine
 62
250
  6
CONTINUOUS
 10
15.9535799213
 20
35.8132308725
 11
15.9535799213
 21
37.3132308725
  0
LINE
  5
34C
100
AcDbEntity
  8
DRAFT
100
AcDbLine
 62
7
  6
CONTINUOUS
 10
16.1276375487
 20
4.3657505151
 11
16.1276375487
 21
-2.1715517669
  0
LINE
  5
34D
100
AcDbEntity
  8
DRAFT
100
AcDbLine
 62
7
  6
CONTINUOUS
 10
16.1276375487
 20
-9.696947203
 11
16.1276375487
 21
-16.2342494849
  0
LINE
  5
34E
100
AcDbEntity
  8
RACCORDO
100
AcDbLine
 62
7
  6
CONTINUOUS
 10
16.1465579325
 20
29.6146864963
 11
16.1465579325
 21
27.4879401498
  0
LINE
  5
34F
100
AcDbEntity
  8
RACCORDO
100
AcDbLine
 62
7
  6
CONTINUOUS
 10
16.1549851949
 20
29.6057898458
 11
16.1549851949
 21
27.5214627151
  0
LINE
  5
350
100
AcDbEntity
  8
RACCORDO
100
AcDbLine
 62
7
  6
CONTINUOUS
 10
16.1706815727
 20
10.2289042915
 11
16.1706815727
 21
15.3025967387
  0
LINE
  5
351
100
AcDbEntity
  8
RACCORDO
100
AcDbLine
 62
7
  6
CONTINUOUS
 10
16.1881219925
 20
24.3957826816
 11
16.1881219925
 21
15.9018393965
  0
LINE
  5
352
100
AcDbEntity
  8
RACCORDO
100
AcDbLine
 62
7
  6
CONTINUOUS
 10
16.1884468979
 20
-36.45360773
 11
16.1884468979
 21
-37.9707633426
  0
LINE
  5
353
100
AcDbEntity
  8
RACCORDO
100
AcDbLine
 62
7
  6
CONTINUOUS
 10
16.1887722998
 20
13.2296047391
 11
16.1887722998
 21
11.8622707566
  0
LINE
  5
354
100
AcDbEntity
  8
RACCORDO
100
AcDbLine
 62
7
  6
CONTINUOUS
 10
16.2059006334
 20
-2.2342494849
 11
16.2059006334
 21
-9.6342494849
  0
LINE
  5
355
100
AcDbEntity
  8
DRAFT
100
AcDbLine
 62
7
  6
CONTINUOUS
 10
16.2059006334
 20
-23.4303806473
 11
16.2059006334
 21
-17.6342494849
  0
LINE
  5
356
100
AcDbEntity
  8
DRAFT
100
AcDbLine
 62
7
  6
CONTINUOUS
 10
16.2059006334
 20
-14.6342494849
 11
16.2059006334
 21
-11.8954635833
  0
LINE
  5
357
100
AcDbEntity
  8
DRAFT
100
AcDbLine
 62
7
  6
CONTINUOUS
 10
16.2059006334
 20
0.0269646135
 11
16.2059006334
 21
2.7657505151
  0
LINE
  5
358
100
AcDbEntity
  8
RACCORDO
100
AcDbLine
 62
7
  6
CONTINUOUS
 10
16.2059006334
 20
5.7657505151
 11
16.2059006334
 21
9.6258186622
  0
LINE
  5
359
100
AcDbEntity
  8
RACCORDO
100
AcDbLine
 62
7
  6
CONTINUOUS
 10
16.2062393715
 20
27.7712723534
 11
16.2062393715
 21
13.5269349777
  0
LINE
  5
35A
100
AcDbEntity
  8
DRAFT
100
AcDbLine
 62
7
  6
CONTINUOUS
 10
16.2146275012
 20
-17.9342494849
 11
16.2146275012
 21
-19.8342494849
  0
LINE
  5
35B
100
AcDbEntity
  8
DRAFT
100
AcDbLine
 62
7
  6
CONTINUOUS
 10
16.2146275012
 20
6.0657505151
 11
16.2146275012
 21
7.9657505151
  0
LINE
  5
35C
100
AcDbEntity
  8
DRAFT
100
AcDbLine
 62
7
  6
CONTINUOUS
 10
16.2168464884
 20
-1.9342494849
 11
16.2168464884
 21
-9.9342494849
  0
LINE
  5
35D
100
AcDbEntity
  8
DRAFT
100
AcDbLine
 62
7
  6
CONTINUOUS
 10
16.223354369
 20
-11.8939365793
 11
16.223354369
 21
-9.9342494849
  0
LINE
  5
35E
100
AcDbEntity
  8
DRAFT
100
AcDbLine
 62
7
  6
CONTINUOUS
 10
16.223354369
 20
-1.9342494849
 11
16.223354369
 21
0.0254376095
  0
LINE
  5
35F
100
AcDbEntity
  8
DRAFT
100
AcDbLine
 62
7
  6
CONTINUOUS
 10
16.2320812368
 20
7.9657505151
 11
16.2320812368
 21
3.0657505151
  0
LINE
  5
360
100
AcDbEntity
  8
DRAFT
100
AcDbLine
 62
7
  6
CONTINUOUS
 10
16.2320812368
 20
-19.8342494849
 11
16.2320812368
 21
-14.9342494849
  0
LINE
  5
361
100
AcDbEntity
  8
RACCORDO
100
AcDbLine
 62
7
  6
CONTINUOUS
 10
16.2321169962
 20
-22.1301404375
 11
16.2321169962
 21
-23.4301518605
  0
LINE
  5
362
100
AcDbEntity
  8
RACCORDO
100
AcDbLine
 62
7
  6
CONTINUOUS
 10
16.2321169962
 20
10.2616414676
 11
16.2321169962
 21
11.5616528907
  0
LINE
  5
363
100
AcDbEntity
  8
RACCORDO
100
AcDbLine
 62
7
  6
CONTINUOUS
 10
16.2582618402
 20
30.2373233903
 11
16.2582618402
 21
10.2614361516
  0
LINE
  5
364
100
AcDbEntity
  8
RACCORDO
100
AcDbLine
 62
7
  6
CONTINUOUS
 10
16.2582618402
 20
-22.1299351215
 11
16.2582618402
 21
-38.2501294985
  0
LINE
  5
365
100
AcDbEntity
  8
0
100
AcDbLine
 62
7
  6
CONTINUOUS
 10
16.9625757497
 20
-1.9342494849
 11
16.9625757497
 21
-9.9342494849
  0
LINE
  5
366
100
AcDbEntity
  8
RACCORDO
100
AcDbLine
 62
7
  6
CONTINUOUS
 10
17.7625757497
 20
38.25134784
 11
17.7625757497
 21
8.2657505151
  0
LINE
  5
367
100
AcDbEntity
  8
0
100
AcDbLine
 62
7
  6
CONTINUOUS
 10
17.7625757497
 20
8.2657505151
 11
17.7625757497
 21
2.7657505151
  0
LINE
  5
368
100
AcDbEntity
  8
RACCORDO
100
AcDbLine
 62
7
  6
CONTINUOUS
 10
17.7625757497
 20
2.7657505151
 11
17.7625757497
 21
-0.109226812
  0
LINE
  5
369
100
AcDbEntity
  8
COPY-PUBBLISH
100
AcDbLine
 62
7
  6
CONTINUOUS
 10
17.7625757497
 20
-20.1342494849
 11
17.7625757497
 21
-21.8167957493
  0
LINE
  5
36A
100
AcDbEntity
  8
RACCORDO
100
AcDbLine
 62
7
  6
CONTINUOUS
 10
17.7625757497
 20
-21.8167957493
 11
17.7625757497
 21
-38.2501294985
  0
LINE
  5
36B
100
AcDbEntity
  8
0
100
AcDbLine
 62
7
  6
CONTINUOUS
 10
17.7625757497
 20
-20.1342494849
 11
17.7625757497
 21
-14.6342494849
  0
LINE
  5
36C
100
AcDbEntity
  8
COPY-PUBBLISH
100
AcDbLine
 62
7
  6
CONTINUOUS
 10
17.7625757497
 20
-14.6342494849
 11
17.7625757497
 21
-0.109226812
  0
LINE
  5
36D
100
AcDbEntity
  8
RACCORDO
100
AcDbLine
 62
7
  6
CONTINUOUS
 10
16.2146001181
 20
-23.430304728
 11
16.2173551185
 21
-22.0627865158
  0
LINE
  5
36E
100
AcDbEntity
  8
RACCORDO
100
AcDbLine
 62
7
  6
CONTINUOUS
 10
16.2407791355
 20
-23.4300762672
 11
16.243534136
 21
-22.0625580549
  0
LINE
  5
36F
100
AcDbEntity
  8
RACCORDO
100
AcDbLine
 62
7
  6
CONTINUOUS
 10
-16.1810878722
 20
13.5269349777
 11
-16.1662308911
 21
13.5282347952
  0
LINE
  5
370
100
AcDbEntity
  8
RACCORDO
100
AcDbLine
 62
7
  6
CONTINUOUS
 10
16.2062393715
 20
13.5269349777
 11
16.1913823904
 21
13.5282347952
  0
LINE
  5
371
100
AcDbEntity
  8
RACCORDO
100
AcDbLine
 62
7
  6
CONTINUOUS
 10
-11.7123230778
 20
-37.9539123165
 11
-11.6926602463
 21
-37.9342494849
  0
LINE
  5
372
100
AcDbEntity
  8
ASSI
100
AcDbLine
 62
7
  6
CONTINUOUS
 10
-2.4215952503
 20
-22.1858964849
 11
-3.2951822503
 21
-22.5651734849
  0
LINE
  5
373
100
AcDbEntity
  8
ASSI
100
AcDbLine
 62
7
  6
CONTINUOUS
 10
-3.4914832503
 20
-23.3109064849
 11
-2.6148822503
 21
-22.9303214849
  0
LINE
  5
374
100
AcDbEntity
  8
ASSI
100
AcDbLine
 62
7
  6
CONTINUOUS
 10
-0.0340602503
 20
-22.1858964849
 11
-0.8857802503
 21
-22.5556794849
  0
LINE
  5
375
100
AcDbEntity
  8
ASSI
100
AcDbLine
 62
7
  6
CONTINUOUS
 10
-2.7459622503
 20
-23.4351604849
 11
-3.6363392503
 21
-23.8217264849
  0
LINE
  5
376
100
AcDbEntity
  8
ASSI
100
AcDbLine
 62
7
  6
CONTINUOUS
 10
0.8724927497
 20
-24.6601364849
 11
0.4458527497
 21
-24.8453674849
  0
LINE
  5
377
100
AcDbEntity
  8
ASSI
100
AcDbLine
 62
7
  6
CONTINUOUS
 10
2.0855177497
 20
-24.4651114849
 11
2.8873103902
 21
-24.1170052068
  0
LINE
  5
378
100
AcDbEntity
  8
ASSI
100
AcDbLine
 62
7
  6
CONTINUOUS
 10
0.3395615416
 20
-25.2231361411
 11
1.6630067497
 21
-24.6485494849
  0
LINE
  5
379
100
AcDbEntity
  8
ASSI
100
AcDbLine
 62
7
  6
CONTINUOUS
 10
3.2610457497
 20
-24.3795424849
 11
1.9612077497
 21
-24.9438804849
  0
LINE
  5
37A
100
AcDbEntity
  8
ASSI
100
AcDbLine
 62
7
  6
CONTINUOUS
 10
1.5386957497
 20
-25.1273184849
 11
0.6678234405
 21
-25.5054166192
  0
LINE
  5
37B
100
AcDbEntity
  8
ASSI
100
AcDbLine
 62
7
  6
CONTINUOUS
 10
2.7562317497
 20
-24.8951044849
 11
3.1743107497
 21
-24.7135914849
  0
LINE
  5
37C
100
AcDbEntity
  8
RACCORDO
100
AcDbLine
 62
250
  6
CONTINUOUS
 10
16.1842357456
 20
24.0854133466
 11
15.9125757497
 21
24.0854133466
  0
LINE
  5
37D
100
AcDbEntity
  8
RACCORDO
100
AcDbLine
 62
250
  6
CONTINUOUS
 10
-15.8874242503
 20
24.0854133466
 11
-16.1590842463
 21
24.0854133466
  0
LWPOLYLINE
  5
37E
100
AcDbEntity
  8
RACCORDO
100
AcDbPolyline
 62
250
  6
CONTINUOUS
 90
13
 70
0
 10
11.5193018053
 20
31.1137727368
 10
11.5222848221
 20
31.1083228292
 10
11.5252352099
 20
31.0981261151
 10
11.5281529686
 20
31.0831825945
 10
11.5310478646
 20
31.0634137426
 10
11.5339101315
 20
31.0388980841
 10
11.5367104701
 20
31.0098711942
 10
11.5394478471
 20
30.9762878455
 10
11.5421232957
 20
30.9381932652
 10
11.5447106165
 20
30.8959587099
 10
11.5472087927
 20
30.8495459119
 10
11.5496188409
 20
30.7989931387
 10
11.5519176122
 20
30.74478645
  0
LWPOLYLINE
  5
37F
100
AcDbEntity
  8
RACCORDO
100
AcDbPolyline
 62
250
  6
CONTINUOUS
 90
11
 70
0
 10
12.0189972188
 20
31.6134681503
 10
12.0219876273
 20
31.6062622011
 10
12.0249431622
 20
31.5926097241
 10
12.0278638234
 20
31.5725570365
 10
12.0307586247
 20
31.5461728822
 10
12.0336185523
 20
31.5135437071
 10
12.0364165651
 20
31.4747697048
 10
12.0391523857
 20
31.4299702963
 10
12.0418262914
 20
31.3792928574
 10
12.044412073
 20
31.3229076166
 10
12.0469086754
 20
31.2610021755
  0
LINE
  5
380
100
AcDbEntity
  8
RACCORDO
100
AcDbLine
 62
7
  6
CONTINUOUS
 10
15.9048236947
 20
32.5133693608
 11
16.1297133235
 21
31.6134681503
  0
LINE
  5
381
100
AcDbEntity
  8
RACCORDO
100
AcDbLine
 62
250
  6
CONTINUOUS
 10
16.1973899118
 20
29.6094997779
 11
16.1549851949
 21
29.6057898458
  0
LINE
  5
382
100
AcDbEntity
  8
RACCORDO
100
AcDbLine
 62
250
  6
CONTINUOUS
 10
-16.1810878722
 20
25.5832101894
 11
-15.8874242503
 21
25.5841073821
  0
LINE
  5
383
100
AcDbEntity
  8
RACCORDO
100
AcDbLine
 62
250
  6
CONTINUOUS
 10
-16.1298336955
 20
27.5214627151
 11
-16.1810878722
 21
27.5213061248
  0
LINE
  5
384
100
AcDbEntity
  8
RACCORDO
100
AcDbLine
 62
250
  6
CONTINUOUS
 10
15.9125757497
 20
25.7657505151
 11
-15.8874242503
 21
25.7657505151
  0
LINE
  5
385
100
AcDbEntity
  8
RACCORDO
100
AcDbLine
 62
7
  6
CONTINUOUS
 10
15.6125757497
 20
26.0657505151
 11
-15.5874242503
 21
26.0657505151
  0
LINE
  5
386
100
AcDbEntity
  8
RACCORDO
100
AcDbLine
 62
7
  6
CONTINUOUS
 10
-12.2120184913
 20
26.0844992158
 11
-16.1810878722
 21
26.0830793851
  0
LINE
  5
387
100
AcDbEntity
  8
RACCORDO
100
AcDbLine
 62
250
  6
CONTINUOUS
 10
11.5698548836
 20
27.48794015
 11
16.1465579325
 21
27.4879401498
  0
LINE
  5
388
100
AcDbEntity
  8
RACCORDO
100
AcDbLine
 62
250
  6
CONTINUOUS
 10
-11.5447033842
 20
27.4879401498
 11
-16.1214064331
 21
27.4879401498
  0
LINE
  5
389
100
AcDbEntity
  8
RACCORDO
100
AcDbLine
 62
250
  6
CONTINUOUS
 10
15.9125757497
 20
25.5841073821
 11
16.2062393715
 21
25.5832101894
  0
LINE
  5
38A
100
AcDbEntity
  8
RACCORDO
100
AcDbLine
 62
7
  6
CONTINUOUS
 10
12.2371699906
 20
26.0844992158
 11
16.2062393715
 21
26.0830793851
  0
LINE
  5
38B
100
AcDbEntity
  8
RACCORDO
100
AcDbLine
 62
250
  6
CONTINUOUS
 10
16.2062393715
 20
27.5213061248
 11
16.1549851949
 21
27.5214627151
  0
LINE
  5
38C
100
AcDbEntity
  8
RACCORDO
100
AcDbLine
 62
250
  6
CONTINUOUS
 10
-16.1298336955
 20
29.6057898458
 11
-16.1722384125
 21
29.6094997779
  0
LINE
  5
38D
100
AcDbEntity
  8
RACCORDO
100
AcDbLine
 62
7
  6
CONTINUOUS
 10
16.1680157352
 20
31.1012219175
 11
16.1771409556
 21
31.1020202709
  0
LWPOLYLINE
  5
38E
100
AcDbEntity
  8
RACCORDO
100
AcDbPolyline
 62
250
  6
CONTINUOUS
 90
15
 70
0
 10
-10.0317373326
 20
31.8486036924
 10
-10.1337399874
 20
31.8439166077
 10
-10.2299581037
 20
31.8390222753
 10
-10.3202227024
 20
31.8339115597
 10
-10.4040979316
 20
31.8285935964
 10
-10.4811578629
 20
31.8231192351
 10
-10.5512176253
 20
31.8174832202
 10
-10.6140478329
 20
31.8116908072
 10
-10.6692991658
 20
31.8058086128
 10
-10.7168896959
 20
31.7998355325
 10
-10.7567647488
 20
31.7937726707
 10
-10.7887967352
 20
31.7876899572
 10
-10.8130240316
 20
31.7816107018
 10
-10.829567763
 20
31.7755115947
 10
-10.838530407
 20
31.7693926358
  0
LWPOLYLINE
  5
38F
100
AcDbEntity
  8
RACCORDO
100
AcDbPolyline
 62
250
  6
CONTINUOUS
 90
19
 70
0
 10
12.0189972188
 20
31.6134681503
 10
11.9754793638
 20
31.6115165847
 10
11.9322922082
 20
31.605782727
 10
11.8897639253
 20
31.5963101514
 10
11.8482176784
 20
31.5831708411
 10
11.8079691736
 20
31.5664646435
 10
11.76932426
 20
31.5463185141
 10
11.7325765923
 20
31.5228855455
 10
11.6980054069
 20
31.4963438058
 10
11.6658734063
 20
31.4668949908
 10
11.6364247515
 20
31.4347628829
 10
11.6098832115
 20
31.4001916528
 10
11.586450467
 20
31.3634440096
 10
11.5663045715
 20
31.3247991965
 10
11.5495986013
 20
31.2845508706
 10
11.5364594937
 20
31.2430048758
 10
11.5269870808
 20
31.2004769141
 10
11.5212533314
 20
31.1572901458
 10
11.5193018053
 20
31.1137727368
  0
LWPOLYLINE
  5
390
100
AcDbEntity
  8
RACCORDO
100
AcDbPolyline
 62
250
  6
CONTINUOUS
 90
19
 70
0
 10
11.3633773198
 20
32.2690880493
 10
11.3198596461
 20
32.2671364997
 10
11.2766726551
 20
32.2614026873
 10
11.2341445166
 20
32.2519301823
 10
11.1925983941
 20
32.2387909644
 10
11.1523499889
 20
32.2220848762
 10
11.113705141
 20
32.201938864
 10
11.0769575054
 20
32.1785060137
 10
11.0423863205
 20
32.1519643871
 10
11.0102542865
 20
32.1225156692
 10
10.9808055685
 20
32.0903836351
 10
10.9542639419
 20
32.0558124503
 10
10.9308310916
 20
32.0190648147
 10
10.9106850794
 20
31.9804199667
 10
10.8939789912
 20
31.9401715615
 10
10.8808397733
 20
31.898625439
 10
10.8713672683
 20
31.8560973005
 10
10.8656334559
 20
31.8129103095
 10
10.8636819063
 20
31.7693926358
  0
LINE
  5
391
100
AcDbEntity
  8
RACCORDO
100
AcDbLine
 62
250
  6
CONTINUOUS
 10
-9.8107962112
 20
31.857286139
 11
-10.0317373326
 21
31.8486036924
  0
LINE
  5
392
100
AcDbEntity
  8
RACCORDO
100
AcDbLine
 62
250
  6
CONTINUOUS
 10
-9.568927762
 20
31.8650216826
 11
-9.8107962112
 21
31.857286139
  0
LINE
  5
393
100
AcDbEntity
  8
RACCORDO
100
AcDbLine
 62
250
  6
CONTINUOUS
 10
-9.3072293866
 20
31.8717437999
 11
-9.568927762
 21
31.8650216826
  0
LINE
  5
394
100
AcDbEntity
  8
RACCORDO
100
AcDbLine
 62
250
  6
CONTINUOUS
 10
-9.0293954289
 20
31.8773346942
 11
-9.3072293866
 21
31.8717437999
  0
LINE
  5
395
100
AcDbEntity
  8
RACCORDO
100
AcDbLine
 62
250
  6
CONTINUOUS
 10
-8.7391063059
 20
31.8817361411
 11
-9.0293954289
 21
31.8773346942
  0
LINE
  5
396
100
AcDbEntity
  8
RACCORDO
100
AcDbLine
 62
250
  6
CONTINUOUS
 10
-8.2906883728
 20
31.8859649828
 11
-8.7391063059
 21
31.8817361411
  0
LINE
  5
397
100
AcDbEntity
  8
RACCORDO
100
AcDbLine
 62
250
  6
CONTINUOUS
 10
-7.8403579259
 20
31.8873498185
 11
-8.2906883728
 21
31.8859649828
  0
LINE
  5
398
100
AcDbEntity
  8
RACCORDO
100
AcDbLine
 62
250
  6
CONTINUOUS
 10
16.1465579325
 20
29.6146864963
 11
11.5698548836
 21
29.6146864963
  0
LINE
  5
399
100
AcDbEntity
  8
RACCORDO
100
AcDbLine
 62
250
  6
CONTINUOUS
 10
-11.5447033842
 20
29.6146864963
 11
-16.1214064331
 21
29.6146864963
  0
LINE
  5
39A
100
AcDbEntity
  8
RACCORDO
100
AcDbLine
 62
250
  6
CONTINUOUS
 10
17.7625757497
 20
30.2373233903
 11
16.2582618402
 21
30.2373233903
  0
LINE
  5
39B
100
AcDbEntity
  8
RACCORDO
100
AcDbLine
 62
250
  6
CONTINUOUS
 10
-16.2331103408
 20
30.2373233903
 11
-17.7374242503
 21
30.2373233903
  0
LINE
  5
39C
100
AcDbEntity
  8
RACCORDO
100
AcDbLine
 62
7
  6
CONTINUOUS
 10
7.8655094252
 20
30.8701942059
 11
-7.8403579259
 21
30.8701942059
  0
LINE
  5
39D
100
AcDbEntity
  8
RACCORDO
100
AcDbLine
 62
250
  6
CONTINUOUS
 10
16.1297133235
 20
31.6134681503
 11
12.0189972188
 21
31.6134681503
  0
LINE
  5
39E
100
AcDbEntity
  8
RACCORDO
100
AcDbLine
 62
250
  6
CONTINUOUS
 10
-11.9938457194
 20
31.6134681503
 11
-16.1045618241
 21
31.6134681503
  0
LINE
  5
39F
100
AcDbEntity
  8
RACCORDO
100
AcDbLine
 62
250
  6
CONTINUOUS
 10
17.7625757497
 20
31.6515369527
 11
16.2531497594
 21
31.6515369527
  0
LINE
  5
3A0
100
AcDbEntity
  8
RACCORDO
100
AcDbLine
 62
250
  6
CONTINUOUS
 10
-16.2279982601
 20
31.6515369527
 11
-17.7374242503
 21
31.6515369527
  0
LINE
  5
3A1
100
AcDbEntity
  8
RACCORDO
100
AcDbLine
 62
250
  6
CONTINUOUS
 10
-6.2374242503
 20
31.8873498185
 11
-7.8403579259
 21
31.8873498185
  0
LINE
  5
3A2
100
AcDbEntity
  8
DRAFT
100
AcDbLine
 62
7
  6
CONTINUOUS
 10
-5.2374242503
 20
32.3701942059
 11
4.2625757497
 21
32.3701942059
  0
LINE
  5
3A3
100
AcDbEntity
  8
RACCORDO
100
AcDbLine
 62
250
  6
CONTINUOUS
 10
-6.2374242503
 20
32.387045232
 11
-8.1903195078
 21
32.3864405563
  0
LINE
  5
3A4
100
AcDbEntity
  8
RACCORDO
100
AcDbLine
 62
250
  6
CONTINUOUS
 10
5.2625757497
 20
32.387045232
 11
8.2152402318
 21
32.3864414567
  0
LINE
  5
3A5
100
AcDbEntity
  8
RACCORDO
100
AcDbLine
 62
250
  6
CONTINUOUS
 10
5.2625757497
 20
31.8873498185
 11
8.1651850427
 21
31.8867435774
  0
LINE
  5
3A6
100
AcDbEntity
  8
RACCORDO
100
AcDbLine
 62
250
  6
CONTINUOUS
 10
8.1651850427
 20
31.8867435774
 11
8.6155636534
 21
31.8834647677
  0
LINE
  5
3A7
100
AcDbEntity
  8
RACCORDO
100
AcDbLine
 62
250
  6
CONTINUOUS
 10
8.6155636534
 20
31.8834647677
 11
8.9100584142
 21
31.8796999284
  0
LINE
  5
3A8
100
AcDbEntity
  8
RACCORDO
100
AcDbLine
 62
250
  6
CONTINUOUS
 10
8.9100584142
 20
31.8796999284
 11
9.1947656227
 21
31.8746972625
  0
LINE
  5
3A9
100
AcDbEntity
  8
RACCORDO
100
AcDbLine
 62
250
  6
CONTINUOUS
 10
9.1947656227
 20
31.8746972625
 11
9.465033367
 21
31.8685225676
  0
LINE
  5
3AA
100
AcDbEntity
  8
RACCORDO
100
AcDbLine
 62
250
  6
CONTINUOUS
 10
9.465033367
 20
31.8685225676
 11
9.7171516908
 21
31.8612954923
  0
LWPOLYLINE
  5
3AB
100
AcDbEntity
  8
RACCORDO
100
AcDbPolyline
 62
250
  6
CONTINUOUS
 90
17
 70
0
 10
9.7171516908
 20
31.8612954923
 10
9.9487250796
 20
31.8530766176
 10
10.0564597587
 20
31.8486224079
 10
10.1584494618
 20
31.8439379633
 10
10.2546598079
 20
31.8390463755
 10
10.3449199525
 20
31.8339387352
 10
10.4287969419
 20
31.8286239517
 10
10.5058772544
 20
31.8231518448
 10
10.5759755762
 20
31.8175169551
 10
10.6388555965
 20
31.811724742
 10
10.6941661661
 20
31.8058414029
 10
10.7418221643
 20
31.7998655769
 10
10.7817621514
 20
31.7937986249
 10
10.8138518316
 20
31.7877108268
 10
10.8381258046
 20
31.7816256092
 10
10.8547027277
 20
31.7755195456
 10
10.8636819063
 20
31.7693926358
  0
LINE
  5
3AC
100
AcDbEntity
  8
RACCORDO
100
AcDbLine
 62
7
  6
CONTINUOUS
 10
-16.1428642358
 20
31.1012219175
 11
-16.1519894563
 21
31.1020202709
  0
LWPOLYLINE
  5
3AD
100
AcDbEntity
  8
RACCORDO
100
AcDbPolyline
 62
7
  6
CONTINUOUS
 90
7
 70
0
 10
15.7415249399
 20
26.0844992114
 10
15.7427149085
 20
26.0837641006
 10
15.7446390872
 20
26.0793685605
 10
15.7465178144
 20
26.0710418491
 10
15.7483652392
 20
26.0588490562
 10
15.7501672125
 20
26.0428860166
 10
15.7511865741
 20
26.0312254463
  0
LINE
  5
3AE
100
AcDbEntity
  8
RACCORDO
100
AcDbLine
 62
7
  6
CONTINUOUS
 10
11.5174737293
 20
30.1152962263
 11
10.8636819063
 21
30.7690880493
  0
LINE
  5
3AF
100
AcDbEntity
  8
RACCORDO
100
AcDbLine
 62
250
  6
CONTINUOUS
 10
10.8636819063
 20
31.7693926358
 11
11.5193018053
 21
31.1137727368
  0
LINE
  5
3B0
100
AcDbEntity
  8
RACCORDO
100
AcDbLine
 62
250
  6
CONTINUOUS
 10
11.3633773198
 20
32.2690880493
 11
12.0189972188
 21
31.6134681503
  0
LWPOLYLINE
  5
3B1
100
AcDbEntity
  8
RACCORDO
100
AcDbPolyline
 62
250
  6
CONTINUOUS
 90
13
 70
0
 10
-10.6283208473
 20
32.338713288
 10
-10.7334954656
 20
32.3336006052
 10
-10.8315649512
 20
32.3282805823
 10
-10.9214533428
 20
32.3228041658
 10
-11.0030429683
 20
32.3171661112
 10
-11.0764514998
 20
32.3113716629
 10
-11.1409559922
 20
32.3054875003
 10
-11.1963645904
 20
32.2995115477
 10
-11.2428691495
 20
32.2934458809
 10
-11.28032229
 20
32.287363407
 10
-11.3086748855
 20
32.2812884282
 10
-11.3279760623
 20
32.2751966423
 10
-11.3382258205
 20
32.2690880493
  0
LINE
  5
3B2
100
AcDbEntity
  8
RACCORDO
100
AcDbLine
 62
250
  6
CONTINUOUS
 10
-10.3968829848
 20
32.3482983557
 11
-10.6283208473
 21
32.338713288
  0
LINE
  5
3B3
100
AcDbEntity
  8
RACCORDO
100
AcDbLine
 62
250
  6
CONTINUOUS
 10
-10.1392439933
 20
32.3569838054
 11
-10.3968829848
 21
32.3482983557
  0
LINE
  5
3B4
100
AcDbEntity
  8
RACCORDO
100
AcDbLine
 62
250
  6
CONTINUOUS
 10
-9.8568395057
 20
32.3647215828
 11
-10.1392439933
 21
32.3569838054
  0
LINE
  5
3B5
100
AcDbEntity
  8
RACCORDO
100
AcDbLine
 62
250
  6
CONTINUOUS
 10
-9.5512304324
 20
32.3714450648
 11
-9.8568395057
 21
32.3647215828
  0
LINE
  5
3B6
100
AcDbEntity
  8
RACCORDO
100
AcDbLine
 62
250
  6
CONTINUOUS
 10
-9.2272659095
 20
32.3770363921
 11
-9.5512304324
 21
32.3714450648
  0
LINE
  5
3B7
100
AcDbEntity
  8
RACCORDO
100
AcDbLine
 62
250
  6
CONTINUOUS
 10
-8.7154843134
 20
32.3831606867
 11
-9.2272659095
 21
32.3770363921
  0
LINE
  5
3B8
100
AcDbEntity
  8
RACCORDO
100
AcDbLine
 62
250
  6
CONTINUOUS
 10
-8.1903195078
 20
32.3864405563
 11
-8.7154843134
 21
32.3831606867
  0
LINE
  5
3B9
100
AcDbEntity
  8
DRAFT
100
AcDbLine
 62
7
  6
CONTINUOUS
 10
15.9048236947
 20
32.5133693608
 11
5.2625757497
 21
32.5133693608
  0
LINE
  5
3BA
100
AcDbEntity
  8
DRAFT
100
AcDbLine
 62
7
  6
CONTINUOUS
 10
4.2625757497
 20
32.5133693608
 11
-5.2374242503
 21
32.5133693608
  0
LINE
  5
3BB
100
AcDbEntity
  8
DRAFT
100
AcDbLine
 62
7
  6
CONTINUOUS
 10
-6.2374242503
 20
32.5133693608
 11
-15.8796721953
 21
32.5133693608
  0
LINE
  5
3BC
100
AcDbEntity
  8
DRAFT
100
AcDbLine
 62
7
  6
CONTINUOUS
 10
-15.8796721953
 20
35.6181316693
 11
-6.2374242503
 21
35.6181316693
  0
LINE
  5
3BD
100
AcDbEntity
  8
DRAFT
100
AcDbLine
 62
7
  6
CONTINUOUS
 10
-5.2374242503
 20
35.6181316693
 11
4.2625757497
 21
35.6181316693
  0
LINE
  5
3BE
100
AcDbEntity
  8
DRAFT
100
AcDbLine
 62
7
  6
CONTINUOUS
 10
5.2625757497
 20
35.6181316693
 11
15.9048236947
 21
35.6181316693
  0
LINE
  5
3BF
100
AcDbEntity
  8
RACCORDO
100
AcDbLine
 62
7
  6
CONTINUOUS
 10
14.4536370367
 20
35.7613068242
 11
5.2625757497
 21
35.7613068242
  0
LINE
  5
3C0
100
AcDbEntity
  8
DRAFT
100
AcDbLine
 62
7
  6
CONTINUOUS
 10
4.2625757497
 20
35.7613068242
 11
-5.2374242503
 21
35.7613068242
  0
LINE
  5
3C1
100
AcDbEntity
  8
RACCORDO
100
AcDbLine
 62
7
  6
CONTINUOUS
 10
-6.2374242503
 20
35.7613068242
 11
-14.4284855374
 21
35.7613068242
  0
LINE
  5
3C2
100
AcDbEntity
  8
RACCORDO
100
AcDbLine
 62
250
  6
CONTINUOUS
 10
8.2152402318
 20
32.3864414567
 11
8.7401698988
 21
32.3831649507
  0
LINE
  5
3C3
100
AcDbEntity
  8
RACCORDO
100
AcDbLine
 62
250
  6
CONTINUOUS
 10
8.7401698988
 20
32.3831649507
 11
9.2518854608
 21
32.3770444331
  0
LINE
  5
3C4
100
AcDbEntity
  8
RACCORDO
100
AcDbLine
 62
250
  6
CONTINUOUS
 10
9.2518854608
 20
32.3770444331
 11
9.5758926455
 21
32.3714545372
  0
LINE
  5
3C5
100
AcDbEntity
  8
RACCORDO
100
AcDbLine
 62
250
  6
CONTINUOUS
 10
9.5758926455
 20
32.3714545372
 11
9.8815826201
 21
32.3647316405
  0
LINE
  5
3C6
100
AcDbEntity
  8
RACCORDO
100
AcDbLine
 62
250
  6
CONTINUOUS
 10
9.8815826201
 20
32.3647316405
 11
10.164030149
 21
32.3569948284
  0
LINE
  5
3C7
100
AcDbEntity
  8
RACCORDO
100
AcDbLine
 62
250
  6
CONTINUOUS
 10
10.164030149
 20
32.3569948284
 11
10.4216659482
 21
32.3483122366
  0
LWPOLYLINE
  5
3C8
100
AcDbEntity
  8
RACCORDO
100
AcDbPolyline
 62
250
  6
CONTINUOUS
 90
14
 70
0
 10
10.4216659482
 20
32.3483122366
 10
10.6530662827
 20
32.3387319435
 10
10.7582315407
 20
32.3336220469
 10
10.8562967824
 20
32.3283049372
 10
10.9461968863
 20
32.3228305528
 10
11.0278213641
 20
32.3171934515
 10
11.1012807042
 20
32.3113990756
 10
11.1658412507
 20
32.3055136906
 10
11.2213134602
 20
32.2995347432
 10
11.2678868761
 20
32.2934647868
 10
11.3053964726
 20
32.2873777467
 10
11.3337872411
 20
32.2812982646
 10
11.3531141901
 20
32.2752016988
 10
11.3633773198
 20
32.2690880493
  0
LINE
  5
3C9
100
AcDbEntity
  8
RACCORDO
100
AcDbLine
 62
7
  6
CONTINUOUS
 10
-14.4284855374
 20
37.2613068242
 11
14.4536370367
 21
37.2613068242
  0
LINE
  5
3CA
100
AcDbEntity
  8
RACCORDO
100
AcDbLine
 62
250
  6
CONTINUOUS
 10
17.7625757497
 20
37.6655614068
 11
16.2006661631
 21
37.6655614068
  0
LINE
  5
3CB
100
AcDbEntity
  8
RACCORDO
100
AcDbLine
 62
250
  6
CONTINUOUS
 10
-16.1755146637
 20
37.6655614068
 11
-17.7374242503
 21
37.6655614068
  0
LINE
  5
3CC
100
AcDbEntity
  8
RACCORDO
100
AcDbLine
 62
7
  6
CONTINUOUS
 10
17.7625757497
 20
38.2513478445
 11
16.1883245083
 21
38.2513478445
  0
LINE
  5
3CD
100
AcDbEntity
  8
RACCORDO
100
AcDbLine
 62
7
  6
CONTINUOUS
 10
-16.163173009
 20
38.2513478445
 11
-17.7374242503
 21
38.2513478445
  0
ARC
  5
3CE
100
AcDbEntity
  8
RACCORDO
100
AcDbCircle
 62
250
  6
CONTINUOUS
 10
-16.1874242503
 20
-9.9842494849
 40
0.6
100
AcDbArc
 50
0.0
 51
90.0
  0
ARC
  5
3CF
100
AcDbEntity
  8
ASSI
100
AcDbCircle
 62
7
  6
CONTINUOUS
 10
-0.0067642503
 20
-25.4675334849
 40
0.4890862721
100
AcDbArc
 50
186.0890080839
 51
252.6039501608
  0
ARC
  5
3D0
100
AcDbEntity
  8
ASSI
100
AcDbCircle
 62
7
  6
CONTINUOUS
 10
-2.3640492503
 20
-25.4877484849
 40
0.4583408521
100
AcDbArc
 50
171.4768805277
 51
256.9485592673
  0
ARC
  5
3D1
100
AcDbEntity
  8
ASSI
100
AcDbCircle
 62
7
  6
CONTINUOUS
 10
-1.3409102503
 20
-24.0508174849
 40
0.3780951854
100
AcDbArc
 50
69.2439612236
 51
142.7061393729
  0
ARC
  5
3D2
100
AcDbEntity
  8
ASSI
100
AcDbCircle
 62
7
  6
CONTINUOUS
 10
-1.7482882503
 20
-25.3677364849
 40
0.3042605327
100
AcDbArc
 50
185.7437026585
 51
275.4687390067
  0
ARC
  5
3D3
100
AcDbEntity
  8
RACCORDO
100
AcDbCircle
 62
7
  6
CONTINUOUS
 10
-15.5874242503
 20
-37.6342494849
 40
0.3
100
AcDbArc
 50
180.0
 51
270.0
  0
ARC
  5
3D4
100
AcDbEntity
  8
RACCORDO
100
AcDbCircle
 62
7
  6
CONTINUOUS
 10
-16.1874242503
 20
-9.9842494849
 40
0.3
100
AcDbArc
 50
0.0
 51
90.0
  0
ARC
  5
3D5
100
AcDbEntity
  8
RACCORDO
100
AcDbCircle
 62
250
  6
CONTINUOUS
 10
-16.1874242503
 20
-1.8842494849
 40
0.6
100
AcDbArc
 50
270.0
 51
360.0
  0
ARC
  5
3D6
100
AcDbEntity
  8
RACCORDO
100
AcDbCircle
 62
7
  6
CONTINUOUS
 10
-12.2120184913
 20
25.5844992158
 40
0.5
100
AcDbArc
 50
74.3333137791
 51
90.0
  0
ARC
  5
3D7
100
AcDbEntity
  8
RACCORDO
100
AcDbCircle
 62
7
  6
CONTINUOUS
 10
-15.5874242503
 20
25.7657505151
 40
0.3
100
AcDbArc
 50
90.0
 51
180.0
  0
ARC
  5
3D8
100
AcDbEntity
  8
RACCORDO
100
AcDbCircle
 62
7
  6
CONTINUOUS
 10
-16.1874242503
 20
-1.8842494849
 40
0.3
100
AcDbArc
 50
270.0
 51
360.0
  0
ARC
  5
3D9
100
AcDbEntity
  8
RACCORDO
100
AcDbCircle
 62
250
  6
CONTINUOUS
 10
16.2125757497
 20
-9.9842494849
 40
0.6
100
AcDbArc
 50
90.0
 51
180.0
  0
ARC
  5
3DA
100
AcDbEntity
  8
ASSI
100
AcDbCircle
 62
7
  6
CONTINUOUS
 10
3.6930767497
 20
-23.9230284849
 40
0.5209269161
100
AcDbArc
 50
4.8339919102
 51
69.4781004559
  0
ARC
  5
3DB
100
AcDbEntity
  8
ASSI
100
AcDbCircle
 62
7
  6
CONTINUOUS
 10
2.7216087497
 20
-23.9120194849
 40
0.477254
100
AcDbArc
 50
90.0
 51
165.4447948104
  0
ARC
  5
3DC
100
AcDbEntity
  8
ASSI
100
AcDbCircle
 62
7
  6
CONTINUOUS
 10
0.9651877497
 20
-25.4842634849
 40
0.4667972038
100
AcDbArc
 50
285.423573031
 51
341.0059682157
  0
ARC
  5
3DD
100
AcDbEntity
  8
ASSI
100
AcDbCircle
 62
7
  6
CONTINUOUS
 10
1.4132037497
 20
-23.8720864849
 40
0.4369271899
100
AcDbArc
 50
345.1449526191
 51
89.9991569212
  0
ARC
  5
3DE
100
AcDbEntity
  8
ASSI
100
AcDbCircle
 62
7
  6
CONTINUOUS
 10
2.2211137497
 20
-25.5343034849
 40
0.3999460142
100
AcDbArc
 50
165.444723266
 51
269.9999890059
  0
ARC
  5
3DF
100
AcDbEntity
  8
ASSI
100
AcDbCircle
 62
7
  6
CONTINUOUS
 10
1.0170597497
 20
-24.0585864849
 40
0.36899706
100
AcDbArc
 50
73.6976041409
 51
149.6961592365
  0
ARC
  5
3E0
100
AcDbEntity
  8
ASSI
100
AcDbCircle
 62
7
  6
CONTINUOUS
 10
2.9803427497
 20
-25.3591544849
 40
0.3401494623
100
AcDbArc
 50
176.7577644052
 51
259.7449096165
  0
ARC
  5
3E1
100
AcDbEntity
  8
RACCORDO
100
AcDbCircle
 62
7
  6
CONTINUOUS
 10
15.6125757497
 20
-37.6342494849
 40
0.3
100
AcDbArc
 50
270.0
 51
360.0
  0
ARC
  5
3E2
100
AcDbEntity
  8
RACCORDO
100
AcDbCircle
 62
7
  6
CONTINUOUS
 10
16.2125757497
 20
-9.9842494849
 40
0.3
100
AcDbArc
 50
90.0
 51
180.0
  0
ARC
  5
3E3
100
AcDbEntity
  8
ASSI
100
AcDbCircle
 62
7
  6
CONTINUOUS
 10
6.4433557497
 20
14.2363505151
 40
2.7099445987
100
AcDbArc
 50
297.7248090933
 51
306.6582901164
  0
ARC
  5
3E4
100
AcDbEntity
  8
ASSI
100
AcDbCircle
 62
7
  6
CONTINUOUS
 10
7.0041447497
 20
12.9478855151
 40
1.449951
100
AcDbArc
 50
0.0
 51
26.1670227722
  0
ARC
  5
3E5
100
AcDbEntity
  8
ASSI
100
AcDbCircle
 62
7
  6
CONTINUOUS
 10
7.2931187497
 20
13.0109895151
 40
1.2206235249
100
AcDbArc
 50
309.0013471031
 51
330.5881505118
  0
ARC
  5
3E6
100
AcDbEntity
  8
ASSI
100
AcDbCircle
 62
7
  6
CONTINUOUS
 10
7.3435287497
 20
12.9790255151
 40
1.1381441018
100
AcDbArc
 50
32.3061272483
 51
58.931036734
  0
ARC
  5
3E7
100
AcDbEntity
  8
ASSI
100
AcDbCircle
 62
7
  6
CONTINUOUS
 10
7.3777227497
 20
12.8595925151
 40
1.0763728599
100
AcDbArc
 50
335.4024432744
 51
0.0001040797
  0
ARC
  5
3E8
100
AcDbEntity
  8
ASSI
100
AcDbCircle
 62
7
  6
CONTINUOUS
 10
7.5324787497
 20
13.2926335151
 40
0.7720131597
100
AcDbArc
 50
58.9311118574
 51
89.9998691896
  0
ARC
  5
3E9
100
AcDbEntity
  8
ASSI
100
AcDbCircle
 62
7
  6
CONTINUOUS
 10
7.0473707497
 20
12.7565585151
 40
0.6516880976
100
AcDbArc
 50
62.1589307671
 51
89.9998941696
  0
ARC
  5
3EA
100
AcDbEntity
  8
ASSI
100
AcDbCircle
 62
7
  6
CONTINUOUS
 10
7.0473707497
 20
13.0586525151
 40
0.651688
100
AcDbArc
 50
270.0
 51
297.8408086568
  0
ARC
  5
3EB
100
AcDbEntity
  8
RACCORDO
100
AcDbCircle
 62
250
  6
CONTINUOUS
 10
16.2125757497
 20
-1.8842494849
 40
0.6
100
AcDbArc
 50
180.0
 51
270.0
  0
ARC
  5
3EC
100
AcDbEntity
  8
RACCORDO
100
AcDbCircle
 62
7
  6
CONTINUOUS
 10
12.2371699906
 20
25.5844992158
 40
0.5
100
AcDbArc
 50
90.0
 51
105.6666862209
  0
ARC
  5
3ED
100
AcDbEntity
  8
ASSI
100
AcDbCircle
 62
7
  6
CONTINUOUS
 10
7.1078307497
 20
12.8915775151
 40
0.4843554524
100
AcDbArc
 50
327.1429582646
 51
359.9994417916
  0
ARC
  5
3EE
100
AcDbEntity
  8
ASSI
100
AcDbCircle
 62
7
  6
CONTINUOUS
 10
7.1078307497
 20
12.9236335151
 40
0.484355
100
AcDbArc
 50
0.0
 51
32.8576612954
  0
ARC
  5
3EF
100
AcDbEntity
  8
ASSI
100
AcDbCircle
 62
7
  6
CONTINUOUS
 10
7.1415307497
 20
12.9350325151
 40
0.449946414
100
AcDbArc
 50
33.9666848201
 51
62.1474204628
  0
ARC
  5
3F0
100
AcDbEntity
  8
ASSI
100
AcDbCircle
 62
7
  6
CONTINUOUS
 10
7.1415307497
 20
12.8801785151
 40
0.4499458322
100
AcDbArc
 50
297.8522021016
 51
326.0339818725
  0
ARC
  5
3F1
100
AcDbEntity
  8
RACCORDO
100
AcDbCircle
 62
7
  6
CONTINUOUS
 10
16.2125757497
 20
-1.8842494849
 40
0.3
100
AcDbArc
 50
180.0
 51
270.0
  0
ARC
  5
3F2
100
AcDbEntity
  8
RACCORDO
100
AcDbCircle
 62
7
  6
CONTINUOUS
 10
15.6125757497
 20
25.7657505151
 40
0.3
100
AcDbArc
 50
0.0
 51
90.0
  0
ELLIPSE
  5
3F3
100
AcDbEntity
  8
RACCORDO
100
AcDbEllipse
 62
7
  6
CONTINUOUS
 10
12.2371699906
 20
-37.9533029578
 30
0.0
 11
0.5
 21
0.0
 31
0.0
 40
0.0349207695
 41
-3.1066860685
 42
-1.5707963268
  0
ELLIPSE
  5
3F4
100
AcDbEntity
  8
RACCORDO
100
AcDbEllipse
 62
7
  6
CONTINUOUS
 10
-12.2120184913
 20
-37.9533029578
 30
0.0
 11
0.5
 21
0.0
 31
0.0
 40
0.0349207695
 41
-1.5707963268
 42
-0.034906585
  0
ELLIPSE
  5
3F5
100
AcDbEntity
  8
RACCORDO
100
AcDbEllipse
 62
7
  6
CONTINUOUS
 10
11.5168643707
 20
26.3651079123
 30
0.0
 11
0.0
 21
0.5
 31
0.0
 40
0.0349207695
 41
-2.2134363842
 42
-1.5707963268
  0
ELLIPSE
  5
3F6
100
AcDbEntity
  8
RACCORDO
100
AcDbEllipse
 62
7
  6
CONTINUOUS
 10
11.5168643707
 20
29.6156008127
 30
0.0
 11
-0.0
 21
0.5
 31
0.0
 40
0.0349207695
 41
-1.5707963268
 42
-0.034906585
  0
ELLIPSE
  5
3F7
100
AcDbEntity
  8
RACCORDO
100
AcDbEllipse
 62
7
  6
CONTINUOUS
 10
-11.4917128714
 20
26.3651079123
 30
0.0
 11
0.0
 21
0.5
 31
0.0
 40
0.0349207695
 41
-4.7123889804
 42
-4.069748923
  0
ELLIPSE
  5
3F8
100
AcDbEntity
  8
RACCORDO
100
AcDbEllipse
 62
7
  6
CONTINUOUS
 10
-11.4917128714
 20
29.6156008127
 30
0.0
 11
0.0
 21
0.5
 31
0.0
 40
0.0349207695
 41
0.034906585
 42
1.5707963268
  0
ELLIPSE
  5
3F9
100
AcDbEntity
  8
RACCORDO
100
AcDbEllipse
 62
7
  6
CONTINUOUS
 10
14.4536370367
 20
37.3136879785
 30
0.0
 11
1.5
 21
0.0
 31
0.0
 40
0.0349207695
 41
-1.5707963268
 42
-0.0087266463
  0
ELLIPSE
  5
3FA
100
AcDbEntity
  8
RACCORDO
100
AcDbEllipse
 62
7
  6
CONTINUOUS
 10
-14.4284855374
 20
37.3136879785
 30
0.0
 11
1.5
 21
0.0
 31
0.0
 40
0.0349207695
 41
-3.1328660073
 42
-1.5707963268
  0
ELLIPSE
  5
3FB
100
AcDbEntity
  8
RACCORDO
100
AcDbEllipse
 62
7
  6
CONTINUOUS
 10
-16.1635540791
 20
27.7643200741
 30
0.0
 11
-0.0000609145
 21
2.00131494
 31
0.0
 40
0.0087610835
 41
0.7850754223
 42
1.5673221974
  0
ELLIPSE
  5
3FC
100
AcDbEntity
  8
RACCORDO
100
AcDbEllipse
 62
7
  6
CONTINUOUS
 10
-16.1519343123
 20
29.0943757713
 30
0.0
 11
-0.00006845
 21
2.0076450814
 31
0.0
 40
0.0087020279
 41
-0.0007616276
 42
0.7814851476
  0
ELLIPSE
  5
3FD
100
AcDbEntity
  8
RACCORDO
100
AcDbEllipse
 62
7
  6
CONTINUOUS
 10
16.1887055784
 20
27.7643200741
 30
0.0
 11
0.0000609145
 21
2.00131494
 31
0.0
 40
0.0087610835
 41
-1.5673221974
 42
-0.7850754223
  0
ELLIPSE
  5
3FE
100
AcDbEntity
  8
RACCORDO
100
AcDbEllipse
 62
7
  6
CONTINUOUS
 10
16.1770858117
 20
29.0943757713
 30
0.0
 11
0.00006845
 21
2.0076450814
 31
0.0
 40
0.0087020279
 41
-0.7814851476
 42
0.0007616276
  0
ELLIPSE
  5
3FF
100
AcDbEntity
  8
RACCORDO
100
AcDbEllipse
 62
7
  6
CONTINUOUS
 10
7.8655094252
 20
30.7654318974
 30
0.0
 11
3.0
 21
-0.0
 31
0.0
 40
0.0349207695
 41
0.034906585
 42
1.5707963268
  0
ELLIPSE
  5
400
100
AcDbEntity
  8
RACCORDO
100
AcDbEllipse
 62
7
  6
CONTINUOUS
 10
-7.8403579259
 20
30.7654318974
 30
0.0
 11
3.0
 21
-0.0
 31
0.0
 40
0.0349207695
 41
1.5707963268
 42
3.1066860685
  0
ELLIPSE
  5
401
100
AcDbEntity
  8
RACCORDO
100
AcDbEllipse
 62
7
  6
CONTINUOUS
 10
16.2460850025
 20
10.2615424173
 30
0.0
 11
-0.0000000408
 21
0.300011423
 31
0.0
 40
0.0087262171
 41
-4.4855117566
 42
-3.1416688073
  0
ELLIPSE
  5
402
100
AcDbEntity
  8
RACCORDO
100
AcDbEllipse
 62
7
  6
CONTINUOUS
 10
16.2460850025
 20
-22.1300413871
 30
0.0
 11
0.0000000408
 21
0.300011423
 31
0.0
 40
0.0087262171
 41
0.5599600376
 42
1.343919103
  0
ELLIPSE
  5
403
100
AcDbEntity
  8
RACCORDO
100
AcDbEllipse
 62
7
  6
CONTINUOUS
 10
16.219905985
 20
10.2617708781
 30
0.0
 11
-0.0000000408
 21
0.300011423
 31
0.0
 40
0.0087262171
 41
-4.4855117566
 42
-3.1416688073
  0
ELLIPSE
  5
404
100
AcDbEntity
  8
RACCORDO
100
AcDbEllipse
 62
7
  6
CONTINUOUS
 10
16.219905985
 20
-22.1302698479
 30
0.0
 11
0.0000000408
 21
0.300011423
 31
0.0
 40
0.0087262171
 41
0.5599600376
 42
1.343919103
  0
ELLIPSE
  5
405
100
AcDbEntity
  8
RACCORDO
100
AcDbEllipse
 62
7
  6
CONTINUOUS
 10
16.1914023687
 20
13.227087096
 30
0.0
 11
-0.0000219895
 21
0.301147787
 31
0.0
 40
0.0087331774
 41
-0.0007646964
 42
1.5624354338
  0
ELLIPSE
  5
406
100
AcDbEntity
  8
RACCORDO
100
AcDbEllipse
 62
7
  6
CONTINUOUS
 10
16.1914023687
 20
11.8620196254
 30
0.0
 11
-0.0000022017
 21
0.3000114419
 31
0.0
 40
0.0087665591
 41
1.5699591901
 42
3.1415160846
  0
ELLIPSE
  5
407
100
AcDbEntity
  8
RACCORDO
100
AcDbEllipse
 62
7
  6
CONTINUOUS
 10
-16.1662508694
 20
11.8620196254
 30
0.0
 11
0.0000022017
 21
0.3000114419
 31
0.0
 40
0.0087665591
 41
-3.1415160846
 42
-1.5699591901
  0
ELLIPSE
  5
408
100
AcDbEntity
  8
RACCORDO
100
AcDbEllipse
 62
7
  6
CONTINUOUS
 10
-16.1662508694
 20
13.227087096
 30
0.0
 11
0.0000219895
 21
0.301147787
 31
0.0
 40
0.0087331774
 41
-1.5624354338
 42
0.0007646964
  0
ELLIPSE
  5
409
100
AcDbEntity
  8
RACCORDO
100
AcDbEllipse
 62
7
  6
CONTINUOUS
 10
-16.2209335032
 20
10.2615424173
 30
0.0
 11
0.0000000408
 21
0.300011423
 31
0.0
 40
0.0087262171
 41
-2.581632616
 42
-1.7976735506
  0
ELLIPSE
  5
40A
100
AcDbEntity
  8
RACCORDO
100
AcDbEllipse
 62
7
  6
CONTINUOUS
 10
-16.1947544857
 20
10.2617708781
 30
0.0
 11
0.0000000408
 21
0.300011423
 31
0.0
 40
0.0087262171
 41
-2.581632616
 42
-1.7976735506
  0
ELLIPSE
  5
40B
100
AcDbEntity
  8
RACCORDO
100
AcDbEllipse
 62
7
  6
CONTINUOUS
 10
-16.2209335032
 20
-22.1300413871
 30
0.0
 11
-0.0000000408
 21
0.300011423
 31
0.0
 40
0.0087262171
 41
-1.343919103
 42
-0.0000761537
  0
ELLIPSE
  5
40C
100
AcDbEntity
  8
RACCORDO
100
AcDbEllipse
 62
7
  6
CONTINUOUS
 10
-16.1947544857
 20
-22.1302698479
 30
0.0
 11
-0.0000000408
 21
0.300011423
 31
0.0
 40
0.0087262171
 41
-1.343919103
 42
-0.0000761537
  0
ELLIPSE
  5
40D
100
AcDbEntity
  8
DRAFT
100
AcDbEllipse
 62
7
  6
CONTINUOUS
 10
16.2120094409
 20
6.0657505151
 30
0.0
 11
0.0
 21
0.3
 31
0.0
 40
0.0087268678
 41
-3.1415926536
 42
-1.5707963268
  0
ELLIPSE
  5
40E
100
AcDbEntity
  8
DRAFT
100
AcDbEllipse
 62
7
  6
CONTINUOUS
 10
16.2172455616
 20
7.9657505151
 30
0.0
 11
-0.0
 21
0.3
 31
0.0
 40
0.0087268678
 41
-0.0
 42
1.5707963268
  0
ELLIPSE
  5
40F
100
AcDbEntity
  8
DRAFT
100
AcDbEllipse
 62
7
  6
CONTINUOUS
 10
16.2172455616
 20
-19.8342494849
 30
0.0
 11
0.0
 21
0.3
 31
0.0
 40
0.0087268678
 41
-4.7123889804
 42
-3.1415926536
  0
ELLIPSE
  5
410
100
AcDbEntity
  8
DRAFT
100
AcDbEllipse
 62
7
  6
CONTINUOUS
 10
16.2120094409
 20
-17.9342494849
 30
0.0
 11
-0.0
 21
0.3
 31
0.0
 40
0.0087268678
 41
-1.5707963268
 42
0.0
  0
ELLIPSE
  5
411
100
AcDbEntity
  8
DRAFT
100
AcDbEllipse
 62
7
  6
CONTINUOUS
 10
16.0663175667
 20
-16.2342494849
 30
0.0
 11
0.0
 21
7.0265719176
 31
0.0
 40
0.0087268703
 41
-3.1423561557
 42
-1.5707963268
  0
ELLIPSE
  5
412
100
AcDbEntity
  8
DRAFT
100
AcDbEllipse
 62
7
  6
CONTINUOUS
 10
16.0663175667
 20
4.3657505151
 30
0.0
 11
0.0
 21
7.0265719176
 31
0.0
 40
0.0087268703
 41
-1.5707963268
 42
0.0007635021
  0
ELLIPSE
  5
413
100
AcDbEntity
  8
DRAFT
100
AcDbEllipse
 62
7
  6
CONTINUOUS
 10
-16.0411660674
 20
4.3657505151
 30
0.0
 11
0.0
 21
7.0265719176
 31
0.0
 40
0.0087268703
 41
-0.0007635021
 42
1.5707963268
  0
ELLIPSE
  5
414
100
AcDbEntity
  8
DRAFT
100
AcDbEllipse
 62
7
  6
CONTINUOUS
 10
-16.0411660674
 20
-16.2342494849
 30
0.0
 11
0.0
 21
7.0265719176
 31
0.0
 40
0.0087268703
 41
-4.7123889804
 42
-3.1408291515
  0
ELLIPSE
  5
415
100
AcDbEntity
  8
DRAFT
100
AcDbEllipse
 62
7
  6
CONTINUOUS
 10
-16.1868579416
 20
-17.9342494849
 30
0.0
 11
0.0
 21
0.3
 31
0.0
 40
0.0087268678
 41
0.0
 42
1.5707963268
  0
ELLIPSE
  5
416
100
AcDbEntity
  8
DRAFT
100
AcDbEllipse
 62
7
  6
CONTINUOUS
 10
-16.1920940622
 20
-19.8342494849
 30
0.0
 11
0.0
 21
0.3
 31
0.0
 40
0.0087268678
 41
-3.1415926536
 42
-1.5707963268
  0
ELLIPSE
  5
417
100
AcDbEntity
  8
DRAFT
100
AcDbEllipse
 62
7
  6
CONTINUOUS
 10
-16.1920940622
 20
7.9657505151
 30
0.0
 11
-0.0
 21
0.3
 31
0.0
 40
0.0087268678
 41
-1.5707963268
 42
-0.0
  0
ELLIPSE
  5
418
100
AcDbEntity
  8
DRAFT
100
AcDbEllipse
 62
7
  6
CONTINUOUS
 10
-16.1868579416
 20
6.0657505151
 30
0.0
 11
0.0
 21
0.3
 31
0.0
 40
0.0087268678
 41
-4.7123889804
 42
-3.1415926536
  0
ELLIPSE
  5
419
100
AcDbEntity
  8
RACCORDO
100
AcDbEllipse
 62
7
  6
CONTINUOUS
 10
-16.1781310738
 20
-9.6342494849
 30
0.0
 11
0.0
 21
0.3
 31
0.0
 40
0.0087268678
 41
-4.7123889804
 42
-3.6652767535
  0
ELLIPSE
  5
41A
100
AcDbEntity
  8
RACCORDO
100
AcDbEllipse
 62
7
  6
CONTINUOUS
 10
-16.1781310738
 20
-2.2342494849
 30
0.0
 11
0.0
 21
0.3
 31
0.0
 40
0.0087268678
 41
0.0
 42
1.5707963268
  0
ELLIPSE
  5
41B
100
AcDbEntity
  8
RACCORDO
100
AcDbEllipse
 62
7
  6
CONTINUOUS
 10
16.2032825731
 20
-2.2342494849
 30
0.0
 11
0.0
 21
0.3
 31
0.0
 40
0.0087268678
 41
-1.5707963268
 42
-0.5236840999
  0
ELLIPSE
  5
41C
100
AcDbEntity
  8
RACCORDO
100
AcDbEllipse
 62
7
  6
CONTINUOUS
 10
16.2032825731
 20
-9.6342494849
 30
0.0
 11
0.0
 21
0.3
 31
0.0
 40
0.0087268678
 41
-3.1415926536
 42
-1.5707963268
  0
ELLIPSE
  5
41D
100
AcDbEntity
  8
RACCORDO
100
AcDbEllipse
 62
7
  6
CONTINUOUS
 10
16.2556437798
 20
-22.1299579689
 30
0.0
 11
0.0000001994
 21
0.3000114244
 31
0.0
 40
0.0087265354
 41
-1.5707201657
 42
0.0000761611
  0
ELLIPSE
  5
41E
100
AcDbEntity
  8
RACCORDO
100
AcDbEllipse
 62
7
  6
CONTINUOUS
 10
-16.2304922805
 20
-22.1299579689
 30
0.0
 11
-0.0000001994
 21
0.3000114244
 31
0.0
 40
0.0087265354
 41
-0.0000761611
 42
1.5707201657
  0
ELLIPSE
  5
41F
100
AcDbEntity
  8
RACCORDO
100
AcDbEllipse
 62
7
  6
CONTINUOUS
 10
-16.2043471375
 20
-22.1301861341
 30
0.0
 11
-0.0000003988
 21
0.3000114261
 31
0.0
 40
0.0087275323
 41
0.5235592795
 42
1.5706439987
  0
ELLIPSE
  5
420
100
AcDbEntity
  8
DRAFT
100
AcDbEllipse
 62
7
  6
CONTINUOUS
 10
16.2294631765
 20
7.9657505151
 30
0.0
 11
0.0
 21
0.3
 31
0.0
 40
0.0087268678
 41
-1.5707963268
 42
-0.0
  0
ELLIPSE
  5
421
100
AcDbEntity
  8
DRAFT
100
AcDbEllipse
 62
7
  6
CONTINUOUS
 10
16.2294631765
 20
3.0657505151
 30
0.0
 11
-0.0
 21
0.3
 31
0.0
 40
0.0087268678
 41
-3.1415926536
 42
-1.5707963268
  0
ELLIPSE
  5
422
100
AcDbEntity
  8
RACCORDO
100
AcDbEllipse
 62
7
  6
CONTINUOUS
 10
14.4536370367
 20
35.8136879785
 30
0.0
 11
1.5
 21
0.0
 31
0.0
 40
0.0349207695
 41
-1.5707963268
 42
-0.0087266463
  0
ELLIPSE
  5
423
100
AcDbEntity
  8
DRAFT
100
AcDbEllipse
 62
7
  6
CONTINUOUS
 10
16.2294631765
 20
-14.9342494849
 30
0.0
 11
0.0
 21
0.3
 31
0.0
 40
0.0087268678
 41
-1.5707963268
 42
-0.0
  0
ELLIPSE
  5
424
100
AcDbEntity
  8
DRAFT
100
AcDbEllipse
 62
7
  6
CONTINUOUS
 10
16.2294631765
 20
-19.8342494849
 30
0.0
 11
-0.0
 21
0.3
 31
0.0
 40
0.0087268678
 41
-3.1415926536
 42
-1.5707963268
  0
ELLIPSE
  5
425
100
AcDbEntity
  8
RACCORDO
100
AcDbEllipse
 62
7
  6
CONTINUOUS
 10
-14.4284855374
 20
35.8136879785
 30
0.0
 11
1.5
 21
0.0
 31
0.0
 40
0.0349207695
 41
-3.1328660073
 42
-1.5707963268
  0
ELLIPSE
  5
426
100
AcDbEntity
  8
DRAFT
100
AcDbEllipse
 62
7
  6
CONTINUOUS
 10
15.9703219651
 20
-16.2342494849
 30
0.0
 11
0.0
 21
7.0181733932
 31
0.0
 40
0.0087268703
 41
-4.3730339262
 42
-3.1423561557
  0
ELLIPSE
  5
427
100
AcDbEntity
  8
RACCORDO
100
AcDbEllipse
 62
7
  6
CONTINUOUS
 10
-16.142963975
 20
29.5955008873
 30
0.0
 11
0.0000897292
 21
1.5057214684
 31
0.0
 40
0.0087200543
 41
-1.5639625124
 42
-0.0007623821
  0
ELLIPSE
  5
428
100
AcDbEntity
  8
DRAFT
100
AcDbEllipse
 62
7
  6
CONTINUOUS
 10
15.9703219651
 20
4.3657505151
 30
0.0
 11
0.0
 21
7.0181733932
 31
0.0
 40
0.0087268703
 41
0.0007635021
 42
1.2314412726
  0
ELLIPSE
  5
429
100
AcDbEntity
  8
RACCORDO
100
AcDbEllipse
 62
7
  6
CONTINUOUS
 10
-16.142963975
 20
27.5218220134
 30
0.0
 11
-0.0000031454
 21
1.5000069904
 31
0.0
 40
0.0087534786
 41
-2.8558955849
 42
-1.5710358763
  0
ELLIPSE
  5
42A
100
AcDbEntity
  8
RACCORDO
100
AcDbEllipse
 62
7
  6
CONTINUOUS
 10
-16.1344967348
 20
27.4879401498
 30
0.0
 11
-0.0
 21
1.5
 31
0.0
 40
0.0087268678
 41
-2.7838960804
 42
-1.5707963268
  0
ELLIPSE
  5
42B
100
AcDbEntity
  8
DRAFT
100
AcDbEllipse
 62
7
  6
CONTINUOUS
 10
-15.9451704657
 20
4.3657505151
 30
0.0
 11
0.0
 21
7.0181733932
 31
0.0
 40
0.0087268703
 41
-1.2314412726
 42
-0.0007635021
  0
ELLIPSE
  5
42C
100
AcDbEntity
  8
RACCORDO
100
AcDbEllipse
 62
7
  6
CONTINUOUS
 10
16.1681154744
 20
29.5955008873
 30
0.0
 11
-0.0000897292
 21
1.5057214684
 31
0.0
 40
0.0087200543
 41
0.0007623821
 42
1.5639625124
  0
ELLIPSE
  5
42D
100
AcDbEntity
  8
DRAFT
100
AcDbEllipse
 62
7
  6
CONTINUOUS
 10
-15.9451704657
 20
-16.2342494849
 30
0.0
 11
0.0
 21
7.0181733932
 31
0.0
 40
0.0087268703
 41
-3.1408291515
 42
-1.910151381
  0
ELLIPSE
  5
42E
100
AcDbEntity
  8
DRAFT
100
AcDbEllipse
 62
7
  6
CONTINUOUS
 10
-16.2043116771
 20
-19.8342494849
 30
0.0
 11
-0.0
 21
0.3
 31
0.0
 40
0.0087268678
 41
-4.7123889804
 42
-3.1415926536
  0
ELLIPSE
  5
42F
100
AcDbEntity
  8
DRAFT
100
AcDbEllipse
 62
7
  6
CONTINUOUS
 10
-16.2043116771
 20
-14.9342494849
 30
0.0
 11
-0.0
 21
0.3
 31
0.0
 40
0.0087268678
 41
-0.0
 42
1.5707963268
  0
ELLIPSE
  5
430
100
AcDbEntity
  8
RACCORDO
100
AcDbEllipse
 62
7
  6
CONTINUOUS
 10
16.2408081046
 20
30.2373233903
 30
0.0
 11
0.0
 21
2.0
 31
0.0
 40
0.0087268678
 41
-1.5707963268
 42
-0.7853981634
  0
ELLIPSE
  5
431
100
AcDbEntity
  8
DRAFT
100
AcDbEllipse
 62
7
  6
CONTINUOUS
 10
-16.2043116771
 20
3.0657505151
 30
0.0
 11
0.0
 21
0.3
 31
0.0
 40
0.0087268678
 41
-4.7123889804
 42
-3.1415926536
  0
ELLIPSE
  5
432
100
AcDbEntity
  8
DRAFT
100
AcDbEllipse
 62
7
  6
CONTINUOUS
 10
-16.2043116771
 20
7.9657505151
 30
0.0
 11
0.0
 21
0.3
 31
0.0
 40
0.0087268678
 41
-0.0
 42
1.5707963268
  0
ELLIPSE
  5
433
100
AcDbEntity
  8
RACCORDO
100
AcDbEllipse
 62
7
  6
CONTINUOUS
 10
16.1883245083
 20
36.2513478445
 30
0.0
 11
0.0
 21
2.0
 31
0.0
 40
0.0087268678
 41
-0.7853981634
 42
-0.0000000001
  0
ELLIPSE
  5
434
100
AcDbEntity
  8
RACCORDO
100
AcDbEllipse
 62
7
  6
CONTINUOUS
 10
-16.1481561292
 20
10.2309620832
 30
0.0
 11
-0.0000179458
 21
0.3011442937
 31
0.0
 40
0.0087200543
 41
-3.1408302715
 42
-1.5776301412
  0
ELLIPSE
  5
435
100
AcDbEntity
  8
RACCORDO
100
AcDbEllipse
 62
7
  6
CONTINUOUS
 10
-16.2156566053
 20
30.2373233903
 30
0.0
 11
0.0
 21
2.0
 31
0.0
 40
0.0087268678
 41
0.7853981634
 42
1.5707963268
  0
ELLIPSE
  5
436
100
AcDbEntity
  8
RACCORDO
100
AcDbEllipse
 62
7
  6
CONTINUOUS
 10
-16.1481561292
 20
15.300538947
 30
0.0
 11
0.0000179458
 21
0.3011442937
 31
0.0
 40
0.0087200543
 41
-1.5639625124
 42
-0.5218073545
  0
ELLIPSE
  5
437
100
AcDbEntity
  8
RACCORDO
100
AcDbEllipse
 62
7
  6
CONTINUOUS
 10
-16.1039526975
 20
29.6146864963
 30
0.0
 11
0.0
 21
2.0
 31
0.0
 40
0.0087268678
 41
0.034906585
 42
1.5707963268
  0
ELLIPSE
  5
438
100
AcDbEntity
  8
RACCORDO
100
AcDbEllipse
 62
7
  6
CONTINUOUS
 10
16.1291041969
 20
29.6146864963
 30
0.0
 11
0.0
 21
2.0
 31
0.0
 40
0.0087268678
 41
-1.5707963268
 42
-0.034906585
  0
ELLIPSE
  5
439
100
AcDbEntity
  8
RACCORDO
100
AcDbEllipse
 62
7
  6
CONTINUOUS
 10
16.1733076286
 20
15.300538947
 30
0.0
 11
-0.0000179458
 21
0.3011442937
 31
0.0
 40
0.0087200543
 41
0.0007623821
 42
1.5639625124
  0
ELLIPSE
  5
43A
100
AcDbEntity
  8
RACCORDO
100
AcDbEllipse
 62
7
  6
CONTINUOUS
 10
16.1733076286
 20
10.2309620832
 30
0.0
 11
0.0000179458
 21
0.3011442937
 31
0.0
 40
0.0087200543
 41
-4.705555166
 42
-3.8590365626
  0
ELLIPSE
  5
43B
100
AcDbEntity
  8
RACCORDO
100
AcDbEllipse
 62
7
  6
CONTINUOUS
 10
16.1910649582
 20
-2.2342494849
 30
0.0
 11
0.0
 21
0.3
 31
0.0
 40
0.0087268678
 41
-0.0
 42
0.7853877527
  0
ELLIPSE
  5
43C
100
AcDbEntity
  8
RACCORDO
100
AcDbEllipse
 62
7
  6
CONTINUOUS
 10
-16.1659134589
 20
-2.2342494849
 30
0.0
 11
0.0
 21
0.3
 31
0.0
 40
0.0087268678
 41
-1.3979219094
 42
-0.7853881478
  0
ELLIPSE
  5
43D
100
AcDbEntity
  8
RACCORDO
100
AcDbEllipse
 62
7
  6
CONTINUOUS
 10
16.1910649582
 20
-9.6342494849
 30
0.0
 11
0.0
 21
0.3
 31
0.0
 40
0.0087268678
 41
-4.539514563
 42
-3.9269808013
  0
ELLIPSE
  5
43E
100
AcDbEntity
  8
RACCORDO
100
AcDbEllipse
 62
7
  6
CONTINUOUS
 10
-16.1659134589
 20
-9.6342494849
 30
0.0
 11
-0.0
 21
0.3
 31
0.0
 40
0.0087268678
 41
-3.1415926536
 42
-2.3562049008
  0
ELLIPSE
  5
43F
100
AcDbEntity
  8
RACCORDO
100
AcDbEllipse
 62
7
  6
CONTINUOUS
 10
21.4776019011
 20
24.5851087601
 30
0.0
 11
5.7150261514
 21
-0.0
 31
0.0
 40
0.0874886635
 41
-2.9119787432
 42
-2.7532530706
  0
ELLIPSE
  5
440
100
AcDbEntity
  8
RACCORDO
100
AcDbEllipse
 62
7
  6
CONTINUOUS
 10
-21.4524504017
 20
24.5851087601
 30
0.0
 11
5.7150261514
 21
-0.0
 31
0.0
 40
0.0874886635
 41
-0.388339583
 42
-0.2296139104
  0
ELLIPSE
  5
441
100
AcDbEntity
  8
RACCORDO
100
AcDbEllipse
 62
7
  6
CONTINUOUS
 10
-16.1589319646
 20
-36.45360773
 30
0.0
 11
-0.0
 21
0.5
 31
0.0
 40
0.0087268678
 41
0.034906585
 42
1.5707963268
  0
ELLIPSE
  5
442
100
AcDbEntity
  8
RACCORDO
100
AcDbEllipse
 62
7
  6
CONTINUOUS
 10
16.1681154744
 20
27.5218220134
 30
0.0
 11
0.0000031454
 21
1.5000069904
 31
0.0
 40
0.0087534786
 41
-4.7121494309
 42
-3.4272897223
  0
ELLIPSE
  5
443
100
AcDbEntity
  8
RACCORDO
100
AcDbEllipse
 62
7
  6
CONTINUOUS
 10
-16.163173009
 20
36.2513478445
 30
0.0
 11
0.0
 21
2.0
 31
0.0
 40
0.0087268678
 41
0.0000000001
 42
0.7853981634
  0
ELLIPSE
  5
444
100
AcDbEntity
  8
RACCORDO
100
AcDbEllipse
 62
7
  6
CONTINUOUS
 10
16.2294986368
 20
10.2616871643
 30
0.0
 11
-0.0000003988
 21
0.3000114261
 31
0.0
 40
0.0087275323
 41
-2.6180333741
 42
-1.5709486548
  0
ELLIPSE
  5
445
100
AcDbEntity
  8
RACCORDO
100
AcDbEllipse
 62
7
  6
CONTINUOUS
 10
16.2294986368
 20
-22.1301861341
 30
0.0
 11
0.0000003988
 21
0.3000114261
 31
0.0
 40
0.0087275323
 41
4.7125413084
 42
6.2832614828
  0
ELLIPSE
  5
446
100
AcDbEntity
  8
RACCORDO
100
AcDbEllipse
 62
7
  6
CONTINUOUS
 10
16.184083464
 20
-36.45360773
 30
0.0
 11
0.0
 21
0.5
 31
0.0
 40
0.0087268678
 41
-1.5707963268
 42
-0.034906585
  0
ELLIPSE
  5
447
100
AcDbEntity
  8
RACCORDO
100
AcDbEllipse
 62
7
  6
CONTINUOUS
 10
16.1596482341
 20
27.4879401498
 30
0.0
 11
0.0
 21
1.5
 31
0.0
 40
0.0087268678
 41
-4.7123889804
 42
-3.4992892268
  0
ELLIPSE
  5
448
100
AcDbEntity
  8
RACCORDO
100
AcDbEllipse
 62
7
  6
CONTINUOUS
 10
-16.1603444372
 20
15.9038971883
 30
0.0
 11
0.0000179458
 21
0.3011442937
 31
0.0
 40
0.0087200543
 41
-4.705555166
 42
-3.1423550357
  0
ELLIPSE
  5
449
100
AcDbEntity
  8
RACCORDO
100
AcDbEllipse
 62
7
  6
CONTINUOUS
 10
16.1854959365
 20
15.9038971883
 30
0.0
 11
-0.0000179458
 21
0.3011442937
 31
0.0
 40
0.0087200543
 41
-3.1408302715
 42
-1.5776301412
  0
ELLIPSE
  5
44A
100
AcDbEntity
  8
RACCORDO
100
AcDbEllipse
 62
7
  6
CONTINUOUS
 10
16.2032825731
 20
9.6260477128
 30
0.0
 11
-0.0000019914
 21
0.3011460384
 31
0.0
 40
0.0086936544
 41
-1.5715569808
 42
-0.000760654
  0
ELLIPSE
  5
44B
100
AcDbEntity
  8
RACCORDO
100
AcDbEllipse
 62
7
  6
CONTINUOUS
 10
16.2556437798
 20
10.2614589991
 30
0.0
 11
-0.0000001994
 21
0.3000114244
 31
0.0
 40
0.0087265354
 41
-3.1416688147
 42
-1.5708724879
  0
ELLIPSE
  5
44C
100
AcDbEntity
  8
RACCORDO
100
AcDbEllipse
 62
7
  6
CONTINUOUS
 10
-16.2304922805
 20
10.2614589991
 30
0.0
 11
0.0000001994
 21
0.3000114244
 31
0.0
 40
0.0087265354
 41
-4.7123128193
 42
-3.1415164925
  0
ELLIPSE
  5
44D
100
AcDbEntity
  8
RACCORDO
100
AcDbEllipse
 62
7
  6
CONTINUOUS
 10
-16.2043471375
 20
10.2616871643
 30
0.0
 11
0.0000003988
 21
0.3000114261
 31
0.0
 40
0.0087275323
 41
1.5709486548
 42
3.1416688292
  0
ENDSEC
  0
SECTION
  2
OBJECTS
  0
DICTIONARY
  5
C
100
AcDbDictionary
280
0
281
1
  3
ACAD_GROUP
350
D
  3
ACAD_MLINESTYLE
350
17
  3
ACAD_LAYOUT
350
1A
  3
ACAD_PLOTSETTINGS
350
19
  3
ACAD_PLOTSTYLENAME
350
E
  0
DICTIONARY
  5
D
102
{ACAD_REACTORS
330
C
102
}
100
AcDbDictionary
280
0
281
1
  0
ACDBDICTIONARYWDFLT
  5
E
102
{ACAD_REACTORS
330
C
102
}
100
AcDbDictionary
281
1
  3
Normal
350
F
100
AcDbDictionaryWithDefault
340
F
  0
DICTIONARY
  5
17
102
{ACAD_REACTORS
330
C
102
}
100
AcDbDictionary
280
0
281
1
  3
Standard
350
18
  0
DICTIONARY
  5
19
102
{ACAD_REACTORS
330
C
102
}
100
AcDbDictionary
281
1
  0
DICTIONARY
  5
1A
102
{ACAD_REACTORS
330
C
102
}
100
AcDbDictionary
281
1
  3
Model
350
44E
  3
Layout1
350
44F
  0
ACDBPLACEHOLDER
  5
F
102
{ACAD_REACTORS
330
E
102
}
  0
MLINESTYLE
  5
18
102
{ACAD_REACTORS
330
17
102
}
100
AcDbMlineStyle
  2
STANDARD
 70
0
  3

 62
256
 51
90.0
 52
90.0
 71
2
 49
0.5
 62
256
  6
BYLAYER
 49
-0.5
 62
256
  6
BYLAYER
  0
LAYOUT
  5
44E
102
{ACAD_REACTORS
330
1A
102
}
100
AcDbPlotSettings
  1

  2
none_device
  4
ISO_A4_(297.00_x_210.00_MM)
  6

 40
0.0
 41
0.0
 42
0.0
 43
0.0
 44
297.0
 45
210.0
 46
0.0
 47
0.0
 48
0.0
 49
0.0
140
0.0
141
0.0
142
1.0
143
1.0
 70
1024
 72
1
 73
0
 74
0
  7

 75
0
147
1.0
148
0.0
149
0.0
100
AcDbLayout
  1
Model
 70
0
 71
0
 10
0.0
 20
0.0
 11
297.0
 21
210.0
 12
0.0
 22
0.0
 32
0.0
 14
0.0
 24
0.0
 34
0.0
 15
0.0
 25
0.0
 35
0.0
146
0.0
 13
0.0
 23
0.0
 33
0.0
 16
1.0
 26
0.0
 36
0.0
 17
0.0
 27
1.0
 37
0.0
 76
0
330
214
345
0
346
0
  0
LAYOUT
  5
44F
102
{ACAD_REACTORS
330
1A
102
}
100
AcDbPlotSettings
  1

  2
none_device
  4
ISO_A4_(297.00_x_210.00_MM)
  6

 40
0.0
 41
0.0
 42
0.0
 43
0.0
 44
297.0
 45
210.0
 46
0.0
 47
0.0
 48
0.0
 49
0.0
140
0.0
141
0.0
142
1.0
143
1.0
 70
0
 72
1
 73
0
 74
0
  7

 75
0
147
1.0
148
0.0
149
0.0
100
AcDbLayout
  1
Layout1
 70
0
 71
1
 10
0.0
 20
0.0
 11
297.0
 21
210.0
 12
0.0
 22
0.0
 32
0.0
 14
0.0
 24
0.0
 34
0.0
 15
0.0
 25
0.0
 35
0.0
146
0.0
 13
0.0
 23
0.0
 33
0.0
 16
1.0
 26
0.0
 36
0.0
 17
0.0
 27
1.0
 37
0.0
 76
0
330
215
345
0
346
0
  0
ENDSEC
  0
EOF
