  0
SECTION
  2
HEADER
  9
$ACADVER
  1
AC1024
  9
$DWGCODEPAGE
  3
ANSI_1252
  9
$EXTMAX
 10
297.0
 20
210.0
 30
0.0
  9
$EXTMIN
 10
0.0
 20
0.0
 30
0.0
  9
$LIMMIN
 10
0.0
 20
0.0
  9
$LIMMAX
 10
297.0
 20
210.0
  9
$VIEWCTR
 10
148.5
 20
105.0
  9
$VIEWSIZE
 40
210.0
  9
$CLAYER
  8
0
  9
$LTSCALE
 40
16.335
  9
$CELTYPE
  6
BYLAYER
  9
$DIMSCALE
 40
1.0
  9
$DIMASZ
 40
3.0
  9
$DIMEXO
 40
0.5
  9
$DIMDLI
 40
11.286
  9
$DIMEXE
 40
1.5
  9
$DIMCEN
 40
2.673
  9
$DIMLFAC
 40
1.0
  9
$DIMBLK
  1
_FILLED
  9
$DIMALT
 70
0
  9
$DIMALTF
 40
0.0393700787
  9
$DIMTXT
 40
3.0
  9
$DIMTOL
 70
1
  9
$DIMLIM
 70
0
  9
$DIMTFAC
 40
1.0
  9
$DIMTP
 40
0.01
  9
$DIMTM
 40
0.01
  9
$DIMGAP
 40
0.625
  9
$DIMDSEP
 70
44
  9
$AUNITS
 70
0
  9
$PDMODE
 70
3
  9
$PDSIZE
 40
3.0
  9
$HANDSEED
  5
4D0
  9
$TILEMODE
 70
1
  9
$MEASUREMENT
 70
1
  9
$INSUNITS
 70
4
  0
ENDSEC
  0
SECTION
  2
CLASSES
  0
CLASS
  1
ACDBDICTIONARYWDFLT
  2
AcDbDictionaryWithDefault
  3
AutoCAD 2000
 90
0
 91
1
280
0
281
0
  0
CLASS
  1
ACDBPLACEHOLDER
  2
AcDbPlaceHolder
  3
AutoCAD 2000
 90
0
 91
1
280
0
281
0
  0
CLASS
  1
LAYOUT
  2
AcDbLayout
  3
AutoCAD 2000
 90
0
 91
0
280
0
281
0
  0
ENDSEC
  0
SECTION
  2
TABLES
  0
TABLE
  2
VPORT
  5
8
100
AcDbSymbolTable
 70
2
  0
VPORT
  5
1F4
100
AcDbSymbolTableRecord
100
AcDbViewportTableRecord
  2
*ACTIVE
 70
0
 10
0.0
 20
0.0
 11
1.0
 21
1.0
 12
148.5
 22
105.0
 13
0.0
 23
0.0
 14
1.0
 24
1.0
 15
0.0
 25
0.0
 16
0.0
 26
0.0
 36
1.0
 17
0.0
 27
0.0
 37
0.0
 40
210.0
 41
1.4142857143
 42
50.0
 43
0.0
 44
0.0
 50
0.0
 51
0.0
 71
0
 72
100
 73
1
 74
1
 75
0
 76
0
 77
0
 78
0
  0
ENDTAB
  0
TABLE
  2
LTYPE
  5
5
100
AcDbSymbolTable
 70
6
  0
LTYPE
  5
14
100
AcDbSymbolTableRecord
100
AcDbLinetypeTableRecord
  2
BYBLOCK
 70
0
  3

 72
65
 73
0
 40
0.0
  0
LTYPE
  5
15
100
AcDbSymbolTableRecord
100
AcDbLinetypeTableRecord
  2
BYLAYER
 70
0
  3

 72
65
 73
0
 40
0.0
  0
LTYPE
  5
16
100
AcDbSymbolTableRecord
100
AcDbLinetypeTableRecord
  2
CONTINUOUS
 70
64
  3
Solid line
 72
65
 73
0
 40
0.0
  0
LTYPE
  5
1F5
100
AcDbSymbolTableRecord
100
AcDbLinetypeTableRecord
  2
CENTER
 70
64
  3
____ _ ____ _ ____ _ ____ _ ____ _ ____ _ ____
 72
65
 73
4
 40
0.6
 49
0.375
 74
0
 49
-0.075
 74
0
 49
0.075
 74
0
 49
-0.075
 74
0
  0
LTYPE
  5
1F6
100
AcDbSymbolTableRecord
100
AcDbLinetypeTableRecord
  2
HIDDEN
 70
64
  3
- - - - - - - - - - - - - - - - - - - -
 72
65
 73
2
 40
0.2
 49
0.1
 74
0
 49
-0.1
 74
0
  0
LTYPE
  5
1F7
100
AcDbSymbolTableRecord
100
AcDbLinetypeTableRecord
  2
PHANTOM
 70
64
  3
_____ _ _ _____ _ _ _____ _ _ _____
 72
65
 73
6
 40
0.8
 49
0.45
 74
0
 49
-0.05
 74
0
 49
0.1
 74
0
 49
-0.05
 74
0
 49
0.1
 74
0
 49
-0.05
 74
0
  0
LTYPE
  5
1F8
100
AcDbSymbolTableRecord
100
AcDbLinetypeTableRecord
  2
DOT
 70
64
  3
. . . . . . . . . . . . . . . . . . . .
 72
65
 73
2
 40
0.2
 49
0.1
 74
0
 49
-0.1
 74
0
  0
LTYPE
  5
1F9
100
AcDbSymbolTableRecord
100
AcDbLinetypeTableRecord
  2
DASHED
 70
64
  3
- - - - - - - - - - - - - - - - - - - -
 72
65
 73
2
 40
0.2
 49
0.1
 74
0
 49
-0.1
 74
0
  0
ENDTAB
  0
TABLE
  2
LAYER
  5
2
100
AcDbSymbolTable
 70
36
  0
LAYER
  5
10
100
AcDbSymbolTableRecord
100
AcDbLayerTableRecord
  2
0
 70
0
 62
7
  6
CONTINUOUS
370
-3
390
F
  0
LAYER
  5
1FA
100
AcDbSymbolTableRecord
100
AcDbLayerTableRecord
  2
DEFAULT_1
 70
0
 62
7
  6
CENTER
370
-3
390
F
  0
LAYER
  5
1FB
100
AcDbSymbolTableRecord
100
AcDbLayerTableRecord
  2
DEFAULT_2
 70
0
 62
7
  6
HIDDEN
370
-3
390
F
  0
LAYER
  5
1FC
100
AcDbSymbolTableRecord
100
AcDbLayerTableRecord
  2
DEFAULT_3
 70
0
 62
7
  6
PHANTOM
370
-3
390
F
  0
LAYER
  5
1FD
100
AcDbSymbolTableRecord
100
AcDbLayerTableRecord
  2
ASSI
 70
0
 62
7
  6
CONTINUOUS
370
-3
390
F
  0
LAYER
  5
1FE
100
AcDbSymbolTableRecord
100
AcDbLayerTableRecord
  2
COORDINATE
 70
0
 62
7
  6
CONTINUOUS
370
-3
390
F
  0
LAYER
  5
1FF
100
AcDbSymbolTableRecord
100
AcDbLayerTableRecord
  2
COORD_ORIGINE
 70
0
 62
7
  6
CONTINUOUS
370
-3
390
F
  0
LAYER
  5
200
100
AcDbSymbolTableRecord
100
AcDbLayerTableRecord
  2
COPY-PUBBLISH
 70
0
 62
7
  6
CONTINUOUS
370
-3
390
F
  0
LAYER
  5
201
100
AcDbSymbolTableRecord
100
AcDbLayerTableRecord
  2
CURVE
 70
0
 62
7
  6
CONTINUOUS
370
-3
390
F
  0
LAYER
  5
202
100
AcDbSymbolTableRecord
100
AcDbLayerTableRecord
  2
DRAFT
 70
0
 62
7
  6
CONTINUOUS
370
-3
390
F
  0
LAYER
  5
203
100
AcDbSymbolTableRecord
100
AcDbLayerTableRecord
  2
IGES-SCRITTE
 70
0
 62
7
  6
CONTINUOUS
370
-3
390
F
  0
LAYER
  5
204
100
AcDbSymbolTableRecord
100
AcDbLayerTableRecord
  2
NOTE_3D
 70
0
 62
7
  6
CONTINUOUS
370
-3
390
F
  0
LAYER
  5
205
100
AcDbSymbolTableRecord
100
AcDbLayerTableRecord
  2
PIANI
 70
0
 62
7
  6
CONTINUOUS
370
-3
390
F
  0
LAYER
  5
206
100
AcDbSymbolTableRecord
100
AcDbLayerTableRecord
  2
PIANI-RIFERIMENTO
 70
0
 62
7
  6
CONTINUOUS
370
-3
390
F
  0
LAYER
  5
207
100
AcDbSymbolTableRecord
100
AcDbLayerTableRecord
  2
PIANI_ORIGINE
 70
0
 62
7
  6
CONTINUOUS
370
-3
390
F
  0
LAYER
  5
208
100
AcDbSymbolTableRecord
100
AcDbLayerTableRecord
  2
PUNTI
 70
0
 62
7
  6
CONTINUOUS
370
-3
390
F
  0
LAYER
  5
209
100
AcDbSymbolTableRecord
100
AcDbLayerTableRecord
  2
RACCORDI
 70
0
 62
7
  6
CONTINUOUS
370
-3
390
F
  0
LAYER
  5
20A
100
AcDbSymbolTableRecord
100
AcDbLayerTableRecord
  2
RACCORDO
 70
0
 62
7
  6
CONTINUOUS
370
-3
390
F
  0
LAYER
  5
20B
100
AcDbSymbolTableRecord
100
AcDbLayerTableRecord
  2
SFORMI
 70
0
 62
7
  6
CONTINUOUS
370
-3
390
F
  0
LAYER
  5
20C
100
AcDbSymbolTableRecord
100
AcDbLayerTableRecord
  2
SMUSSI
 70
0
 62
7
  6
CONTINUOUS
370
-3
390
F
  0
LAYER
  5
20D
100
AcDbSymbolTableRecord
100
AcDbLayerTableRecord
  2
SMUSSO
 70
0
 62
7
  6
CONTINUOUS
370
-3
390
F
  0
LAYER
  5
20E
100
AcDbSymbolTableRecord
100
AcDbLayerTableRecord
  2
SNAPLINE
 70
0
 62
7
  6
CONTINUOUS
370
-3
390
F
  0
LAYER
  5
20F
100
AcDbSymbolTableRecord
100
AcDbLayerTableRecord
  2
SUPERFICI
 70
0
 62
7
  6
CONTINUOUS
370
-3
390
F
  0
LAYER
  5
210
100
AcDbSymbolTableRecord
100
AcDbLayerTableRecord
  2
TRASH
 70
0
 62
7
  6
CONTINUOUS
370
-3
390
F
  0
LAYER
  5
211
100
AcDbSymbolTableRecord
100
AcDbLayerTableRecord
  2
XSEC_DATUMS
 70
0
 62
7
  6
CONTINUOUS
370
-3
390
F
  0
ENDTAB
  0
TABLE
  2
STYLE
  5
3
100
AcDbSymbolTable
 70
1
  0
STYLE
  5
11
100
AcDbSymbolTableRecord
100
AcDbTextStyleTableRecord
  2
STANDARD
 70
0
 40
0.0
 41
0.8
 50
0.0
 71
0
 42
0.2
  3
txt
  4

  0
STYLE
  5
212
100
AcDbSymbolTableRecord
100
AcDbTextStyleTableRecord
  2
TEXTSTYLE_1
 70
0
 40
0.0
 41
0.8
 50
0.0
 71
0
 42
0.2
  3
gdt
  4

  0
ENDTAB
  0
TABLE
  2
VIEW
  5
6
100
AcDbSymbolTable
 70
0
  0
ENDTAB
  0
TABLE
  2
UCS
  5
7
100
AcDbSymbolTable
 70
0
  0
ENDTAB
  0
TABLE
  2
APPID
  5
9
100
AcDbSymbolTable
 70
1
  0
APPID
  5
213
100
AcDbSymbolTableRecord
100
AcDbRegAppTableRecord
  2
ACAD
 70
0
  0
ENDTAB
  0
TABLE
  2
BLOCK_RECORD
  5
1
100
AcDbSymbolTable
 70
0
  0
BLOCK_RECORD
  5
214
100
AcDbSymbolTableRecord
100
AcDbBlockTableRecord
  2
*Model_Space
  0
BLOCK_RECORD
  5
215
100
AcDbSymbolTableRecord
100
AcDbBlockTableRecord
  2
*Paper_Space
  0
BLOCK_RECORD
  5
216
100
AcDbSymbolTableRecord
100
AcDbBlockTableRecord
  2
_FILLED
  0
ENDTAB
  0
TABLE
  2
DIMSTYLE
  5
A
100
AcDbSymbolTable
 70
1
100
AcDbDimStyleTable
 71
0
  0
DIMSTYLE
105
217
100
AcDbSymbolTableRecord
100
AcDbDimStyleTableRecord
  2
STANDARD
 70
0
  3

  4

 40
1.0
 41
3.0
 42
0.5
 43
0.38
 44
1.5
 45
0.0
 46
0.0
 47
0.01
 48
0.01
140
3.0
141
0.09
142
0.0
143
25.4
144
1.0
145
0.0
146
1.0
147
0.625
 71
1
 72
0
 73
0
 74
0
 75
0
 76
0
 77
1
 78
8
 79
2
170
0
171
1
172
0
173
0
174
0
175
0
176
0
177
0
178
0
270
2
179
2
271
2
272
2
273
2
274
2
275
0
280
0
281
0
282
0
283
1
284
8
285
0
286
0
287
3
288
0
340
11
278
44
341
216
342
216
343
216
344
216
  0
ENDTAB
  0
ENDSEC
  0
SECTION
  2
BLOCKS
  0
BLOCK
  5
20
100
AcDbEntity
  8
0
100
AcDbBlockBegin
  2
*Model_Space
 70
0
 10
0.0
 20
0.0
 30
0.0
  3
*Model_Space
  1

  0
ENDBLK
  5
21
100
AcDbEntity
  8
0
100
AcDbBlockEnd
  0
BLOCK
  5
1C
100
AcDbEntity
  8
0
100
AcDbBlockBegin
  2
*Paper_Space
 70
0
 10
0.0
 20
0.0
 30
0.0
  3
*Paper_Space
  1

  0
ENDBLK
  5
1D
100
AcDbEntity
  8
0
100
AcDbBlockEnd
  0
BLOCK
  5
218
100
AcDbEntity
  8
0
100
AcDbBlockBegin
  2
_FILLED
 70
64
 10
0.0
 20
0.0
  3
_FILLED
  1

  0
SOLID
  5
219
100
AcDbEntity
  8
0
  6
BYBLOCK
 62
0
100
AcDbTrace
 10
0.0
 20
0.0
 11
-1.0
 21
0.1333333333
 12
-1.0
 22
-0.1333333333
 13
-1.0
 23
-0.1333333333
  0
ENDBLK
  5
21A
100
AcDbEntity
  8
0
  6
BYBLOCK
 62
0
100
AcDbBlockEnd
  0
ENDSEC
  0
SECTION
  2
ENTITIES
  0
LINE
  5
21B
100
AcDbEntity
  8
RACCORDO
100
AcDbLine
 62
250
  6
CONTINUOUS
 10
-24.2508015701
 20
32.2690880493
 11
-24.9064214691
 21
31.6134681503
  0
LINE
  5
21C
100
AcDbEntity
  8
RACCORDO
100
AcDbLine
 62
250
  6
CONTINUOUS
 10
-23.7511061566
 20
31.7693926358
 11
-24.4067260556
 21
31.1137727368
  0
LINE
  5
21D
100
AcDbEntity
  8
RACCORDO
100
AcDbLine
 62
7
  6
CONTINUOUS
 10
-28.7671375738
 20
31.6134681503
 11
-28.542247945
 21
32.5133693608
  0
LWPOLYLINE
  5
21E
100
AcDbEntity
  8
RACCORDO
100
AcDbPolyline
 62
250
  6
CONTINUOUS
 90
14
 70
0
 10
-24.4067260556
 20
31.1137727368
 10
-24.4097073252
 20
31.1083308576
 10
-24.412656397
 20
31.0981418918
 10
-24.415573271
 20
31.0832058394
 10
-24.4184678495
 20
31.0634439991
 10
-24.4213302301
 20
31.0389350723
 10
-24.4241307057
 20
31.0099151626
 10
-24.4268681054
 20
30.97633943
 10
-24.4295436001
 20
30.9382527147
 10
-24.4321309948
 20
30.8960256409
 10
-24.4346292661
 20
30.849620111
 10
-24.4370394375
 20
30.7990742227
 10
-24.4393383843
 20
30.7448728937
 10
-24.4436006754
 20
30.6254273769
  0
LINE
  5
21F
100
AcDbEntity
  8
RACCORDO
100
AcDbLine
 62
7
  6
CONTINUOUS
 10
-24.4048979797
 20
30.1152962263
 11
-23.7511061566
 21
30.7690880493
  0
LINE
  5
220
100
AcDbEntity
  8
DRAFT
100
AcDbLine
 62
7
  6
CONTINUOUS
 10
-30.65
 20
-38.2501294985
 11
-28.8956860905
 21
-38.2501294985
  0
LINE
  5
221
100
AcDbEntity
  8
DRAFT
100
AcDbLine
 62
7
  6
CONTINUOUS
 10
28.8956860905
 20
-38.2501294985
 11
30.65
 21
-38.2501294985
  0
LINE
  5
222
100
AcDbEntity
  8
RACCORDO
100
AcDbLine
 62
7
  6
CONTINUOUS
 10
28.8258711482
 20
-37.9707633426
 11
25.124594241
 21
-37.9707633426
  0
LINE
  5
223
100
AcDbEntity
  8
RACCORDO
100
AcDbLine
 62
7
  6
CONTINUOUS
 10
-25.124594241
 20
-37.9707633426
 11
-28.8258711482
 21
-37.9707633426
  0
LINE
  5
224
100
AcDbEntity
  8
RACCORDO
100
AcDbLine
 62
7
  6
CONTINUOUS
 10
-28.25
 20
-37.9342494849
 11
28.25
 21
-37.9342494849
  0
LINE
  5
225
100
AcDbEntity
  8
RACCORDO
100
AcDbLine
 62
250
  6
CONTINUOUS
 10
28.55
 20
-37.6342494849
 11
-28.55
 21
-37.6342494849
  0
LINE
  5
226
100
AcDbEntity
  8
RACCORDO
100
AcDbLine
 62
250
  6
CONTINUOUS
 10
-28.8258711482
 20
-36.20360773
 11
-28.55
 21
-36.20360773
  0
LINE
  5
227
100
AcDbEntity
  8
RACCORDO
100
AcDbLine
 62
250
  6
CONTINUOUS
 10
28.55
 20
-36.20360773
 11
28.8258711482
 21
-36.20360773
  0
LINE
  5
228
100
AcDbEntity
  8
RACCORDO
100
AcDbLine
 62
250
  6
CONTINUOUS
 10
-28.8216599959
 20
-35.7039123165
 11
-28.55
 21
-35.7039123165
  0
LINE
  5
229
100
AcDbEntity
  8
RACCORDO
100
AcDbLine
 62
250
  6
CONTINUOUS
 10
28.55
 20
-35.7039123165
 11
28.8216599959
 21
-35.7039123165
  0
LWPOLYLINE
  5
22A
100
AcDbEntity
  8
RACCORDO
100
AcDbPolyline
 62
250
  6
CONTINUOUS
 90
12
 70
0
 10
-24.9064214691
 20
31.6134681503
 10
-24.9094116954
 20
31.6062627495
 10
-24.9123671025
 20
31.5926112342
 10
-24.9152876902
 20
31.5725596152
 10
-24.918182494
 20
31.5461761596
 10
-24.9210424786
 20
31.5135471164
 10
-24.9238405379
 20
31.4747731285
 10
-24.9265763686
 20
31.4299739674
 10
-24.9292502742
 20
31.3792968137
 10
-24.9318360587
 20
31.3229118184
 10
-24.9343326713
 20
31.2610065637
 10
-24.9390384902
 20
31.121441888
  0
LINE
  5
22B
100
AcDbEntity
  8
0
100
AcDbLine
 62
7
  6
CONTINUOUS
 10
-30.65
 20
8.2657505151
 11
-30.65
 21
2.7657505151
  0
LINE
  5
22C
100
AcDbEntity
  8
COPY-PUBBLISH
100
AcDbLine
 62
7
  6
CONTINUOUS
 10
-30.65
 20
-21.8146140324
 11
-30.65
 21
-20.1342494849
  0
LINE
  5
22D
100
AcDbEntity
  8
RACCORDO
100
AcDbLine
 62
7
  6
CONTINUOUS
 10
-30.65
 20
-21.8146140324
 11
-30.65
 21
-38.2501294985
  0
LINE
  5
22E
100
AcDbEntity
  8
0
100
AcDbLine
 62
7
  6
CONTINUOUS
 10
-30.65
 20
-20.1342494849
 11
-30.65
 21
-14.6342494849
  0
LINE
  5
22F
100
AcDbEntity
  8
COPY-PUBBLISH
100
AcDbLine
 62
7
  6
CONTINUOUS
 10
-30.65
 20
-14.6342494849
 11
-30.65
 21
2.7657505151
  0
LINE
  5
230
100
AcDbEntity
  8
COPY-PUBBLISH
100
AcDbLine
 62
7
  6
CONTINUOUS
 10
-30.65
 20
8.2657505151
 11
-30.65
 21
9.7689010221
  0
LINE
  5
231
100
AcDbEntity
  8
RACCORDO
100
AcDbLine
 62
7
  6
CONTINUOUS
 10
-30.65
 20
9.7689010221
 11
-30.65
 21
38.25134784
  0
LINE
  5
232
100
AcDbEntity
  8
0
100
AcDbLine
 62
7
  6
CONTINUOUS
 10
-29.85
 20
-1.9342494849
 11
-29.85
 21
-9.9342494849
  0
LINE
  5
233
100
AcDbEntity
  8
RACCORDO
100
AcDbLine
 62
7
  6
CONTINUOUS
 10
-28.8380904134
 20
37.6655614068
 11
-28.8905740097
 21
31.6515369527
  0
LINE
  5
234
100
AcDbEntity
  8
RACCORDO
100
AcDbLine
 62
7
  6
CONTINUOUS
 10
-28.8268637865
 20
30.5195389139
 11
-28.8385671028
 21
29.1799197135
  0
LWPOLYLINE
  5
235
100
AcDbEntity
  8
RACCORDO
100
AcDbPolyline
 62
7
  6
CONTINUOUS
 90
7
 70
0
 10
-28.3886175471
 20
26.0311485454
 10
-28.3875914628
 20
26.0428860166
 10
-28.3857894895
 20
26.0588490562
 10
-28.3839420648
 20
26.0710418491
 10
-28.3820633375
 20
26.0793685605
 10
-28.3801391588
 20
26.0837641006
 10
-28.3789491903
 20
26.0844992114
  0
LINE
  5
236
100
AcDbEntity
  8
RACCORDO
100
AcDbLine
 62
7
  6
CONTINUOUS
 10
-28.8782033859
 20
-23.4300762672
 11
-28.8809583863
 21
-22.0625580549
  0
LINE
  5
237
100
AcDbEntity
  8
RACCORDO
100
AcDbLine
 62
7
  6
CONTINUOUS
 10
-28.8520243684
 20
-23.430304728
 11
-28.8547793688
 21
-22.0627865158
  0
LINE
  5
238
100
AcDbEntity
  8
RACCORDO
100
AcDbLine
 62
7
  6
CONTINUOUS
 10
-28.8956860905
 20
-38.2501294985
 11
-28.8956860905
 21
-22.1299351215
  0
LINE
  5
239
100
AcDbEntity
  8
RACCORDO
100
AcDbLine
 62
7
  6
CONTINUOUS
 10
-28.8956860905
 20
10.2614361516
 11
-28.8956860905
 21
30.2373233903
  0
LINE
  5
23A
100
AcDbEntity
  8
RACCORDO
100
AcDbLine
 62
7
  6
CONTINUOUS
 10
-28.8695412466
 20
-22.1301404375
 11
-28.8695412466
 21
-23.4301518605
  0
LINE
  5
23B
100
AcDbEntity
  8
RACCORDO
100
AcDbLine
 62
7
  6
CONTINUOUS
 10
-28.8695412466
 20
10.2616414676
 11
-28.8695412466
 21
11.5616528907
  0
LINE
  5
23C
100
AcDbEntity
  8
DRAFT
100
AcDbLine
 62
7
  6
CONTINUOUS
 10
-28.8695054871
 20
7.9657505151
 11
-28.8695054871
 21
3.0657505151
  0
LINE
  5
23D
100
AcDbEntity
  8
DRAFT
100
AcDbLine
 62
7
  6
CONTINUOUS
 10
-28.8695054871
 20
-19.8342494849
 11
-28.8695054871
 21
-14.9342494849
  0
LINE
  5
23E
100
AcDbEntity
  8
DRAFT
100
AcDbLine
 62
7
  6
CONTINUOUS
 10
-28.8607786194
 20
0.0254376095
 11
-28.8607786194
 21
-1.9342494849
  0
LINE
  5
23F
100
AcDbEntity
  8
DRAFT
100
AcDbLine
 62
7
  6
CONTINUOUS
 10
-28.8607786194
 20
-9.9342494849
 11
-28.8607786194
 21
-11.8939365793
  0
LINE
  5
240
100
AcDbEntity
  8
DRAFT
100
AcDbLine
 62
7
  6
CONTINUOUS
 10
-28.8520698146
 20
-1.9342494849
 11
-28.8520698146
 21
-9.9342494849
  0
LINE
  5
241
100
AcDbEntity
  8
DRAFT
100
AcDbLine
 62
7
  6
CONTINUOUS
 10
-28.8520517516
 20
-17.9342494849
 11
-28.8520517516
 21
-19.8342494849
  0
LINE
  5
242
100
AcDbEntity
  8
DRAFT
100
AcDbLine
 62
7
  6
CONTINUOUS
 10
-28.8520517516
 20
6.0657505151
 11
-28.8520517516
 21
7.9657505151
  0
LINE
  5
243
100
AcDbEntity
  8
RACCORDO
100
AcDbLine
 62
7
  6
CONTINUOUS
 10
-28.8436636218
 20
27.7712723534
 11
-28.8436636218
 21
13.5269349777
  0
LINE
  5
244
100
AcDbEntity
  8
DRAFT
100
AcDbLine
 62
7
  6
CONTINUOUS
 10
-28.8433248838
 20
9.9269646135
 11
-28.8433248838
 21
5.7657505151
  0
LINE
  5
245
100
AcDbEntity
  8
DRAFT
100
AcDbLine
 62
7
  6
CONTINUOUS
 10
-28.8433248838
 20
2.7657505151
 11
-28.8433248838
 21
0.0269646135
  0
LINE
  5
246
100
AcDbEntity
  8
DRAFT
100
AcDbLine
 62
7
  6
CONTINUOUS
 10
-28.8433248838
 20
-11.8954635833
 11
-28.8433248838
 21
-14.6342494849
  0
LINE
  5
247
100
AcDbEntity
  8
DRAFT
100
AcDbLine
 62
7
  6
CONTINUOUS
 10
-28.8433248838
 20
-17.6342494849
 11
-28.8433248838
 21
-23.4303806473
  0
LINE
  5
248
100
AcDbEntity
  8
RACCORDO
100
AcDbLine
 62
7
  6
CONTINUOUS
 10
-28.8433248838
 20
-9.6342494849
 11
-28.8433248838
 21
-2.2342494849
  0
LINE
  5
249
100
AcDbEntity
  8
RACCORDO
100
AcDbLine
 62
7
  6
CONTINUOUS
 10
-28.8261965501
 20
13.2296047391
 11
-28.8261965501
 21
11.8622707566
  0
LINE
  5
24A
100
AcDbEntity
  8
RACCORDO
100
AcDbLine
 62
7
  6
CONTINUOUS
 10
-28.8258711482
 20
-36.20360773
 11
-28.8258711482
 21
-37.9707633426
  0
LINE
  5
24B
100
AcDbEntity
  8
RACCORDO
100
AcDbLine
 62
7
  6
CONTINUOUS
 10
-28.8255462428
 20
15.9018393965
 11
-28.8255462428
 21
24.1457826816
  0
LINE
  5
24C
100
AcDbEntity
  8
RACCORDO
100
AcDbLine
 62
7
  6
CONTINUOUS
 10
-28.808105823
 20
10.2289042915
 11
-28.808105823
 21
15.3025967387
  0
LINE
  5
24D
100
AcDbEntity
  8
RACCORDO
100
AcDbLine
 62
7
  6
CONTINUOUS
 10
-28.7924094452
 20
27.5214627151
 11
-28.7924094452
 21
29.6057898458
  0
LINE
  5
24E
100
AcDbEntity
  8
RACCORDO
100
AcDbLine
 62
7
  6
CONTINUOUS
 10
-28.7839821828
 20
27.4879401498
 11
-28.7839821828
 21
29.6146864963
  0
LINE
  5
24F
100
AcDbEntity
  8
DRAFT
100
AcDbLine
 62
7
  6
CONTINUOUS
 10
-28.7650617991
 20
-16.4842494849
 11
-28.7650617991
 21
-9.6969472029
  0
LINE
  5
250
100
AcDbEntity
  8
DRAFT
100
AcDbLine
 62
7
  6
CONTINUOUS
 10
-28.7650617991
 20
-2.1715517669
 11
-28.7650617991
 21
4.6157505151
  0
LINE
  5
251
100
AcDbEntity
  8
RACCORDO
100
AcDbLine
 62
250
  6
CONTINUOUS
 10
-28.5910041716
 20
35.8132308725
 11
-28.5910041716
 21
37.3132308725
  0
LINE
  5
252
100
AcDbEntity
  8
RACCORDO
100
AcDbLine
 62
7
  6
CONTINUOUS
 10
-28.55
 20
25.7657505151
 11
-28.55
 21
-1.8842494849
  0
LINE
  5
253
100
AcDbEntity
  8
RACCORDO
100
AcDbLine
 62
7
  6
CONTINUOUS
 10
-28.55
 20
-9.9842494849
 11
-28.55
 21
-37.6342494849
  0
LINE
  5
254
100
AcDbEntity
  8
DRAFT
100
AcDbLine
 62
7
  6
CONTINUOUS
 10
-28.542247945
 20
32.5133693608
 11
-28.542247945
 21
35.6181316693
  0
LINE
  5
255
100
AcDbEntity
  8
RACCORDO
100
AcDbLine
 62
250
  6
CONTINUOUS
 10
-28.25
 20
-9.9842494849
 11
-28.25
 21
-37.9342494849
  0
LINE
  5
256
100
AcDbEntity
  8
RACCORDO
100
AcDbLine
 62
250
  6
CONTINUOUS
 10
-28.25
 20
-1.8842494849
 11
-28.25
 21
26.0657505151
  0
LINE
  5
257
100
AcDbEntity
  8
RACCORDO
100
AcDbLine
 62
250
  6
CONTINUOUS
 10
-27.091061287
 20
35.7613068242
 11
-27.091061287
 21
37.2613068242
  0
LINE
  5
258
100
AcDbEntity
  8
RACCORDO
100
AcDbLine
 62
7
  6
CONTINUOUS
 10
-28.8782033859
 20
11.5615772973
 11
-28.8809583863
 21
10.1940590851
  0
LINE
  5
259
100
AcDbEntity
  8
RACCORDO
100
AcDbLine
 62
7
  6
CONTINUOUS
 10
-28.8520243684
 20
11.5618057582
 11
-28.8547793688
 21
10.1942875459
  0
LINE
  5
25A
100
AcDbEntity
  8
RACCORDO
100
AcDbLine
 62
250
  6
CONTINUOUS
 10
-24.9390384902
 20
31.121441888
 11
-24.9432977261
 21
30.9623837267
  0
LINE
  5
25B
100
AcDbEntity
  8
RACCORDO
100
AcDbLine
 62
250
  6
CONTINUOUS
 10
-24.9667246555
 20
26.7234703837
 11
-24.9709016083
 21
26.589119608
  0
LWPOLYLINE
  5
25C
100
AcDbEntity
  8
RACCORDO
100
AcDbPolyline
 62
250
  6
CONTINUOUS
 90
12
 70
0
 10
-24.9709016083
 20
26.589119608
 10
-24.9756934868
 20
26.4660007201
 10
-24.9783059907
 20
26.4088059725
 10
-24.9810573957
 20
26.354679938
 10
-24.9839478619
 20
26.30378218
 10
-24.9869619243
 20
26.2561368402
 10
-24.9901058494
 20
26.2118397428
 10
-24.9933733707
 20
26.1711335602
 10
-24.9967302228
 20
26.1342510719
 10
-25.0001797259
 20
26.1012924787
 10
-25.0037185598
 20
26.0723773025
 10
-25.0041459737
 20
26.0694318444
  0
LINE
  5
25D
100
AcDbEntity
  8
ASSI
100
AcDbLine
 62
7
  6
CONTINUOUS
 10
-4.205
 20
-25.9342494849
 11
-3.407418
 21
-25.9342494849
  0
LINE
  5
25E
100
AcDbEntity
  8
ASSI
100
AcDbLine
 62
7
  6
CONTINUOUS
 10
-2.4801302056
 20
-25.9342494849
 11
-1.019882
 21
-25.9342494849
  0
LINE
  5
25F
100
AcDbEntity
  8
ASSI
100
AcDbLine
 62
7
  6
CONTINUOUS
 10
-0.1655645925
 20
-25.9342494849
 11
1.076758
 21
-25.9342494849
  0
LINE
  5
260
100
AcDbEntity
  8
ASSI
100
AcDbLine
 62
7
  6
CONTINUOUS
 10
2.2085379233
 20
-25.9342494849
 11
3.665971
 21
-25.9342494849
  0
LWPOLYLINE
  5
261
100
AcDbEntity
  8
RACCORDO
100
AcDbPolyline
 62
250
  6
CONTINUOUS
 90
19
 70
0
 10
-24.4067260556
 20
31.1137727368
 10
-24.408677567
 20
31.1572899796
 10
-24.4144112768
 20
31.2004766079
 10
-24.4238836316
 20
31.2430044581
 10
-24.4370226696
 20
31.2845503719
 10
-24.4537285651
 20
31.3247986471
 10
-24.4738743865
 20
31.3634434374
 10
-24.4973070636
 20
31.4001910847
 10
-24.5238485481
 20
31.4347623426
 10
-24.5532971621
 20
31.4668944965
 10
-24.5854291406
 20
31.4963433723
 10
-24.6200003253
 20
31.5228851832
 10
-24.6567480126
 20
31.5463182265
 10
-24.6953929673
 20
31.5664644303
 10
-24.7356415348
 20
31.5831706974
 10
-24.7771878607
 20
31.5963100668
 10
-24.819716236
 20
31.6057826876
 10
-24.8629034973
 20
31.6115165744
 10
-24.9064214691
 20
31.6134681504
  0
LINE
  5
262
100
AcDbEntity
  8
RACCORDO
100
AcDbLine
 62
250
  6
CONTINUOUS
 10
-25.124594241
 20
-37.9342494849
 11
-25.124594241
 21
-37.9707633426
  0
LINE
  5
263
100
AcDbEntity
  8
RACCORDO
100
AcDbLine
 62
250
  6
CONTINUOUS
 10
-25.124594241
 20
26.0657505151
 11
-25.124594241
 21
26.0844992158
  0
LINE
  5
264
100
AcDbEntity
  8
RACCORDO
100
AcDbLine
 62
250
  6
CONTINUOUS
 10
-24.6248988275
 20
-37.9342494849
 11
-24.6248988275
 21
-37.9539123165
  0
LINE
  5
265
100
AcDbEntity
  8
RACCORDO
100
AcDbLine
 62
7
  6
CONTINUOUS
 10
-24.4217490058
 20
26.3651079123
 11
-24.4217490058
 21
29.6156008127
  0
LINE
  5
266
100
AcDbEntity
  8
RACCORDO
100
AcDbLine
 62
250
  6
CONTINUOUS
 10
-23.7511061566
 20
30.7690880493
 11
-23.7511061566
 21
31.7693926358
  0
LINE
  5
267
100
AcDbEntity
  8
RACCORDO
100
AcDbLine
 62
250
  6
CONTINUOUS
 10
-24.4569405065
 20
29.7849593852
 11
-24.457657524
 21
27.2786662309
  0
LINE
  5
268
100
AcDbEntity
  8
RACCORDO
100
AcDbLine
 62
250
  6
CONTINUOUS
 10
-24.9562138085
 20
29.954316593
 11
-24.9573552919
 21
27.3309282025
  0
LINE
  5
269
100
AcDbEntity
  8
RACCORDO
100
AcDbLine
 62
250
  6
CONTINUOUS
 10
-24.9539543656
 20
30.2839901167
 11
-24.9562138085
 21
29.954316593
  0
LINE
  5
26A
100
AcDbEntity
  8
RACCORDO
100
AcDbLine
 62
250
  6
CONTINUOUS
 10
-24.457657524
 20
27.2786662309
 11
-24.4597111639
 21
26.9649526288
  0
LINE
  5
26B
100
AcDbEntity
  8
RACCORDO
100
AcDbLine
 62
250
  6
CONTINUOUS
 10
-24.9573552919
 20
27.3309282025
 11
-24.9585282235
 21
27.1735688006
  0
LINE
  5
26C
100
AcDbEntity
  8
RACCORDO
100
AcDbLine
 62
250
  6
CONTINUOUS
 10
-24.4551774925
 20
30.0352144563
 11
-24.4569405065
 21
29.7849593852
  0
LINE
  5
26D
100
AcDbEntity
  8
RACCORDO
100
AcDbLine
 62
250
  6
CONTINUOUS
 10
-24.4531867587
 20
30.1958567303
 11
-24.4551774925
 21
30.0352144563
  0
LINE
  5
26E
100
AcDbEntity
  8
RACCORDO
100
AcDbLine
 62
250
  6
CONTINUOUS
 10
-24.9502605507
 20
30.5943255827
 11
-24.9539543656
 21
30.2839901167
  0
LINE
  5
26F
100
AcDbEntity
  8
RACCORDO
100
AcDbLine
 62
250
  6
CONTINUOUS
 10
-24.9585282235
 20
27.1735688006
 11
-24.9604904102
 21
27.0180186771
  0
LINE
  5
270
100
AcDbEntity
  8
RACCORDO
100
AcDbLine
 62
250
  6
CONTINUOUS
 10
-24.4597111639
 20
26.9649526288
 11
-24.4635384746
 21
26.6605458457
  0
LINE
  5
271
100
AcDbEntity
  8
RACCORDO
100
AcDbLine
 62
250
  6
CONTINUOUS
 10
-24.4505680189
 20
30.3492680062
 11
-24.4531867587
 21
30.1958567303
  0
LINE
  5
272
100
AcDbEntity
  8
RACCORDO
100
AcDbLine
 62
250
  6
CONTINUOUS
 10
-24.4635384746
 20
26.6605458457
 11
-24.4670220744
 21
26.4691145615
  0
LINE
  5
273
100
AcDbEntity
  8
RACCORDO
100
AcDbLine
 62
250
  6
CONTINUOUS
 10
-24.9604904102
 20
27.0180186771
 11
-24.9632409682
 21
26.8671083336
  0
LWPOLYLINE
  5
274
100
AcDbEntity
  8
RACCORDO
100
AcDbPolyline
 62
250
  6
CONTINUOUS
 90
3
 70
0
 10
-24.9432977261
 20
30.9623837267
 10
-24.9452404454
 20
30.87618592
 10
-24.9502605507
 20
30.5943255827
  0
LINE
  5
275
100
AcDbEntity
  8
RACCORDO
100
AcDbLine
 62
250
  6
CONTINUOUS
 10
-24.4473560179
 20
30.4931317236
 11
-24.4505680189
 21
30.3492680062
  0
LINE
  5
276
100
AcDbEntity
  8
RACCORDO
100
AcDbLine
 62
250
  6
CONTINUOUS
 10
-24.4670220744
 20
26.4691145615
 11
-24.4711999928
 21
26.2897558419
  0
LINE
  5
277
100
AcDbEntity
  8
RACCORDO
100
AcDbLine
 62
250
  6
CONTINUOUS
 10
-24.9632409682
 20
26.8671083336
 11
-24.9667246555
 21
26.7234703837
  0
LINE
  5
278
100
AcDbEntity
  8
RACCORDO
100
AcDbLine
 62
250
  6
CONTINUOUS
 10
-24.4436006754
 20
30.6254273769
 11
-24.4473560179
 21
30.4931317236
  0
LWPOLYLINE
  5
279
100
AcDbEntity
  8
RACCORDO
100
AcDbPolyline
 62
250
  6
CONTINUOUS
 90
3
 70
0
 10
-24.4711999928
 20
26.2897558419
 10
-24.4759939135
 20
26.1254107547
 10
-24.4780394588
 20
26.0657505151
  0
LINE
  5
27A
100
AcDbEntity
  8
DRAFT
100
AcDbLine
 62
7
  6
CONTINUOUS
 10
28.8695412466
 20
-23.4301518605
 11
28.8782033859
 21
-23.4300762672
  0
LINE
  5
27B
100
AcDbEntity
  8
DRAFT
100
AcDbLine
 62
7
  6
CONTINUOUS
 10
28.8433248838
 20
-23.4303806473
 11
28.8520243684
 21
-23.430304728
  0
LINE
  5
27C
100
AcDbEntity
  8
ASSI
100
AcDbLine
 62
7
  6
CONTINUOUS
 10
3.8631199406
 20
-23.4351604849
 11
2.7066548812
 21
-23.4351604849
  0
LINE
  5
27D
100
AcDbEntity
  8
ASSI
100
AcDbLine
 62
7
  6
CONTINUOUS
 10
1.4006344291
 20
-23.4351604849
 11
0.4183293438
 21
-23.4351604849
  0
LINE
  5
27E
100
AcDbEntity
  8
ASSI
100
AcDbLine
 62
7
  6
CONTINUOUS
 10
-1.137018
 20
-23.4351604849
 11
-1.8398689273
 21
-23.4354282409
  0
LINE
  5
27F
100
AcDbEntity
  8
DRAFT
100
AcDbLine
 62
7
  6
CONTINUOUS
 10
-28.8433248838
 20
-23.4303806473
 11
-28.8520243684
 21
-23.430304728
  0
LINE
  5
280
100
AcDbEntity
  8
DRAFT
100
AcDbLine
 62
7
  6
CONTINUOUS
 10
-28.8695412466
 20
-23.4301518605
 11
-28.8782033859
 21
-23.4300762672
  0
LWPOLYLINE
  5
281
100
AcDbEntity
  8
ASSI
100
AcDbPolyline
 62
7
  6
CONTINUOUS
 90
22
 70
0
 10
3.4268740289
 20
-23.6924373735
 10
3.3831281709
 20
-23.6850663558
 10
3.340492135
 20
-23.681993309
 10
3.2989659214
 20
-23.6832182329
 10
3.2579609111
 20
-23.6892971233
 10
3.2180657231
 20
-23.6996739845
 10
3.1810462138
 20
-23.7126808299
 10
3.1473041496
 20
-23.7276271114
 10
3.1164377643
 20
-23.7452033771
 10
3.0890076152
 20
-23.7658132842
 10
3.0654915416
 20
-23.7898133117
 10
3.0454117043
 20
-23.8168469807
 10
3.0278951434
 20
-23.8462485115
 10
3.013654067
 20
-23.8788002526
 10
3.001976267
 20
-23.9137198556
 10
2.989852159
 20
-23.9479944962
 10
2.9772778533
 20
-23.9812520207
 10
2.9642572396
 20
-24.0138645828
 10
2.947792403
 20
-24.0439358188
 10
2.9268840385
 20
-24.0708336075
 10
2.902531451
 20
-24.0951900702
 10
2.8747346407
 20
-24.1170052068
  0
LWPOLYLINE
  5
282
100
AcDbEntity
  8
RACCORDO
100
AcDbPolyline
 62
250
  6
CONTINUOUS
 90
19
 70
0
 10
-23.7511061566
 20
31.7693926358
 10
-23.7530577062
 20
31.8129103095
 10
-23.7587915186
 20
31.8560973005
 10
-23.7682640236
 20
31.898625439
 10
-23.7814032415
 20
31.9401715615
 10
-23.7981093297
 20
31.9804199667
 10
-23.8182553419
 20
32.0190648147
 10
-23.8416881922
 20
32.0558124502
 10
-23.8682298188
 20
32.0903836351
 10
-23.8976785368
 20
32.1225156691
 10
-23.9298105709
 20
32.1519643871
 10
-23.9643817557
 20
32.1785060137
 10
-24.0011293913
 20
32.201938864
 10
-24.0397742392
 20
32.2220848762
 10
-24.0800226445
 20
32.2387909644
 10
-24.1215687669
 20
32.2519301823
 10
-24.1640969054
 20
32.2614026873
 10
-24.2072838964
 20
32.2671364997
 10
-24.2508015701
 20
32.2690880493
  0
LINE
  5
283
100
AcDbEntity
  8
ASSI
100
AcDbLine
 62
7
  6
CONTINUOUS
 10
-21.849998
 20
-8.4842464457
 11
-21.849998
 21
-7.7334294849
  0
LINE
  5
284
100
AcDbEntity
  8
ASSI
100
AcDbLine
 62
7
  6
CONTINUOUS
 10
-21.849998
 20
-4.1389894849
 11
-21.849998
 21
-3.3881725242
  0
LINE
  5
285
100
AcDbEntity
  8
RACCORDO
100
AcDbLine
 62
250
  6
CONTINUOUS
 10
-20.7529336756
 20
30.8701942059
 11
-20.7529336756
 21
32.387045232
  0
LINE
  5
286
100
AcDbEntity
  8
RACCORDO
100
AcDbLine
 62
7
  6
CONTINUOUS
 10
-28.8216599959
 20
-35.7039123165
 11
-28.55
 21
-34.616858367
  0
LINE
  5
287
100
AcDbEntity
  8
DRAFT
100
AcDbLine
 62
7
  6
CONTINUOUS
 10
-28.6076994534
 20
-23.5024208325
 11
-28.7036949991
 21
-23.5108193545
  0
LINE
  5
288
100
AcDbEntity
  8
RACCORDO
100
AcDbLine
 62
250
  6
CONTINUOUS
 10
30.65
 20
-22.1146254559
 11
28.8956860905
 21
-22.1299351215
  0
LINE
  5
289
100
AcDbEntity
  8
RACCORDO
100
AcDbLine
 62
250
  6
CONTINUOUS
 10
28.8695412466
 20
-22.1301404375
 11
28.8808224332
 21
-22.130041988
  0
LINE
  5
28A
100
AcDbEntity
  8
RACCORDO
100
AcDbLine
 62
7
  6
CONTINUOUS
 10
28.8573300768
 20
-21.8302584258
 11
30.65
 21
-21.8146140324
  0
LINE
  5
28B
100
AcDbEntity
  8
DRAFT
100
AcDbLine
 62
7
  6
CONTINUOUS
 10
28.8546698119
 20
-20.1342494849
 11
30.65
 21
-20.1342494849
  0
LINE
  5
28C
100
AcDbEntity
  8
DRAFT
100
AcDbLine
 62
7
  6
CONTINUOUS
 10
-28.8546698119
 20
-20.1342494849
 11
-30.65
 21
-20.1342494849
  0
LINE
  5
28D
100
AcDbEntity
  8
DRAFT
100
AcDbLine
 62
250
  6
CONTINUOUS
 10
-30.65
 20
-19.8342494849
 11
-28.8695054871
 21
-19.8342494849
  0
LINE
  5
28E
100
AcDbEntity
  8
DRAFT
100
AcDbLine
 62
250
  6
CONTINUOUS
 10
30.65
 20
-19.8342494849
 11
28.8695054871
 21
-19.8342494849
  0
LINE
  5
28F
100
AcDbEntity
  8
RACCORDO
100
AcDbLine
 62
250
  6
CONTINUOUS
 10
-28.8956860905
 20
-22.1299351215
 11
-30.65
 21
-22.1146254559
  0
LINE
  5
290
100
AcDbEntity
  8
RACCORDO
100
AcDbLine
 62
250
  6
CONTINUOUS
 10
-28.8808224332
 20
-22.130041988
 11
-28.8695412466
 21
-22.1301404375
  0
LINE
  5
291
100
AcDbEntity
  8
RACCORDO
100
AcDbLine
 62
7
  6
CONTINUOUS
 10
-28.8573300768
 20
-21.8302584258
 11
-30.65
 21
-21.8146140324
  0
LINE
  5
292
100
AcDbEntity
  8
DRAFT
100
AcDbLine
 62
7
  6
CONTINUOUS
 10
28.7036949991
 20
-23.5108193545
 11
28.6076994534
 21
-23.5024208325
  0
LINE
  5
293
100
AcDbEntity
  8
RACCORDO
100
AcDbLine
 62
7
  6
CONTINUOUS
 10
-28.55
 20
22.7483593971
 11
-28.8216599959
 21
23.8354133466
  0
LINE
  5
294
100
AcDbEntity
  8
RACCORDO
100
AcDbLine
 62
7
  6
CONTINUOUS
 10
-18.04
 20
35.7613068242
 11
-18.04
 21
31.8873498185
  0
LINE
  5
295
100
AcDbEntity
  8
ASSI
100
AcDbLine
 62
7
  6
CONTINUOUS
 10
-17.864888
 20
-6.3112094849
 11
-17.864888
 21
-5.5612094849
  0
LINE
  5
296
100
AcDbEntity
  8
ASSI
100
AcDbLine
 62
7
  6
CONTINUOUS
 10
-17.464888
 20
-8.4842466027
 11
-17.464888
 21
-7.7334264365
  0
LINE
  5
297
100
AcDbEntity
  8
ASSI
100
AcDbLine
 62
7
  6
CONTINUOUS
 10
-17.464888
 20
-4.1389894849
 11
-17.464888
 21
-3.3881723672
  0
LINE
  5
298
100
AcDbEntity
  8
DRAFT
100
AcDbLine
 62
7
  6
CONTINUOUS
 10
-17.04
 20
32.3701942059
 11
-17.04
 21
35.7613068242
  0
LINE
  5
299
100
AcDbEntity
  8
DRAFT
100
AcDbLine
 62
7
  6
CONTINUOUS
 10
-28.8956860905
 20
-38.2501294985
 11
-28.8258711482
 21
-37.9707633426
  0
LINE
  5
29A
100
AcDbEntity
  8
DRAFT
100
AcDbLine
 62
250
  6
CONTINUOUS
 10
-28.7650617991
 20
-16.4842494849
 11
-28.5464995262
 21
-16.4842494849
  0
LINE
  5
29B
100
AcDbEntity
  8
DRAFT
100
AcDbLine
 62
250
  6
CONTINUOUS
 10
28.7650617991
 20
-16.4842494849
 11
28.5464995262
 21
-16.4842494849
  0
LINE
  5
29C
100
AcDbEntity
  8
RACCORDO
100
AcDbLine
 62
7
  6
CONTINUOUS
 10
-28.542247945
 20
35.6181316693
 11
-28.5910041716
 21
35.8132308725
  0
LINE
  5
29D
100
AcDbEntity
  8
RACCORDO
100
AcDbLine
 62
7
  6
CONTINUOUS
 10
-28.825139632
 20
38.2501294985
 11
-28.5910041716
 21
37.3132308725
  0
LINE
  5
29E
100
AcDbEntity
  8
DRAFT
100
AcDbLine
 62
7
  6
CONTINUOUS
 10
28.8433248838
 20
-11.8954635833
 11
30.65
 21
-11.737399992
  0
LINE
  5
29F
100
AcDbEntity
  8
DRAFT
100
AcDbLine
 62
250
  6
CONTINUOUS
 10
-30.65
 20
-14.9342494849
 11
-28.8695054871
 21
-14.9342494849
  0
LINE
  5
2A0
100
AcDbEntity
  8
DRAFT
100
AcDbLine
 62
250
  6
CONTINUOUS
 10
30.65
 20
-14.9342494849
 11
28.8695054871
 21
-14.9342494849
  0
LINE
  5
2A1
100
AcDbEntity
  8
DRAFT
100
AcDbLine
 62
7
  6
CONTINUOUS
 10
-30.65
 20
-14.6342494849
 11
-28.8433248838
 21
-14.6342494849
  0
LINE
  5
2A2
100
AcDbEntity
  8
DRAFT
100
AcDbLine
 62
7
  6
CONTINUOUS
 10
30.65
 20
-14.6342494849
 11
28.8433248838
 21
-14.6342494849
  0
LINE
  5
2A3
100
AcDbEntity
  8
DRAFT
100
AcDbLine
 62
7
  6
CONTINUOUS
 10
-30.65
 20
-11.737399992
 11
-28.8433248838
 21
-11.8954635833
  0
LINE
  5
2A4
100
AcDbEntity
  8
ASSI
100
AcDbLine
 62
7
  6
CONTINUOUS
 10
-6.031409
 20
14.0646465151
 11
-6.899977
 21
11.3625185151
  0
LINE
  5
2A5
100
AcDbEntity
  8
RACCORDO
100
AcDbLine
 62
250
  6
CONTINUOUS
 10
28.25
 20
-9.9842494849
 11
28.55
 21
-9.9842494849
  0
LINE
  5
2A6
100
AcDbEntity
  8
RACCORDO
100
AcDbLine
 62
250
  6
CONTINUOUS
 10
-28.25
 20
-9.9842494849
 11
-28.55
 21
-9.9842494849
  0
LINE
  5
2A7
100
AcDbEntity
  8
DRAFT
100
AcDbLine
 62
7
  6
CONTINUOUS
 10
-29.85
 20
-9.9342494849
 11
-28.8520698146
 21
-9.9342494849
  0
LINE
  5
2A8
100
AcDbEntity
  8
DRAFT
100
AcDbLine
 62
7
  6
CONTINUOUS
 10
29.85
 20
-9.9342494849
 11
28.8520698146
 21
-9.9342494849
  0
LINE
  5
2A9
100
AcDbEntity
  8
RACCORDO
100
AcDbLine
 62
7
  6
CONTINUOUS
 10
28.8284892085
 20
-9.9342494849
 11
28.8407068234
 21
-9.9342494849
  0
LINE
  5
2AA
100
AcDbEntity
  8
RACCORDO
100
AcDbLine
 62
7
  6
CONTINUOUS
 10
-28.8284892085
 20
-9.9342494849
 11
-28.8407068234
 21
-9.9342494849
  0
LINE
  5
2AB
100
AcDbEntity
  8
ASSI
100
AcDbLine
 62
7
  6
CONTINUOUS
 10
17.658209
 20
-9.5842494849
 11
17.9128
 21
-9.5842494849
  0
LINE
  5
2AC
100
AcDbEntity
  8
ASSI
100
AcDbLine
 62
7
  6
CONTINUOUS
 10
18.823445
 20
-9.5842494849
 11
19.077883
 21
-9.5842494849
  0
LINE
  5
2AD
100
AcDbEntity
  8
ASSI
100
AcDbLine
 62
7
  6
CONTINUOUS
 10
19.788939
 20
-9.5842494849
 11
20.0513
 21
-9.5842494849
  0
LINE
  5
2AE
100
AcDbEntity
  8
ASSI
100
AcDbLine
 62
7
  6
CONTINUOUS
 10
21.190178
 20
-9.5842494849
 11
21.468232
 21
-9.5842494849
  0
LINE
  5
2AF
100
AcDbEntity
  8
ASSI
100
AcDbLine
 62
7
  6
CONTINUOUS
 10
21.701797
 20
-9.5842494849
 11
22.911369
 21
-9.5842494849
  0
LINE
  5
2B0
100
AcDbEntity
  8
ASSI
100
AcDbLine
 62
7
  6
CONTINUOUS
 10
23.315576
 20
-9.5842494849
 11
23.570014
 21
-9.5842494849
  0
LINE
  5
2B1
100
AcDbEntity
  8
RACCORDO
100
AcDbLine
 62
7
  6
CONTINUOUS
 10
24.6248988275
 20
-37.9539123165
 11
24.6052359959
 21
-37.9342494849
  0
LINE
  5
2B2
100
AcDbEntity
  8
DRAFT
100
AcDbLine
 62
7
  6
CONTINUOUS
 10
-6.68
 20
32.3701942059
 11
-6.68
 21
35.7613068242
  0
LINE
  5
2B3
100
AcDbEntity
  8
ASSI
100
AcDbLine
 62
7
  6
CONTINUOUS
 10
-6.493208
 20
10.1657505151
 11
-5.239954
 21
14.0646465151
  0
LINE
  5
2B4
100
AcDbEntity
  8
ASSI
100
AcDbLine
 62
7
  6
CONTINUOUS
 10
22.911369
 20
-9.3587594849
 11
21.956235
 21
-9.3587594849
  0
LINE
  5
2B5
100
AcDbEntity
  8
ASSI
100
AcDbLine
 62
7
  6
CONTINUOUS
 10
20.248147
 20
-9.0357594849
 11
21.003844
 21
-9.0357594849
  0
LINE
  5
2B6
100
AcDbEntity
  8
ASSI
100
AcDbLine
 62
7
  6
CONTINUOUS
 10
20.911972
 20
-8.8102694849
 11
20.326764
 21
-8.8102694849
  0
LINE
  5
2B7
100
AcDbEntity
  8
ASSI
100
AcDbLine
 62
7
  6
CONTINUOUS
 10
18.185825
 20
-7.9250684849
 11
18.823445
 21
-7.9250684849
  0
LINE
  5
2B8
100
AcDbEntity
  8
ASSI
100
AcDbLine
 62
7
  6
CONTINUOUS
 10
19.077883
 20
-7.9250684849
 11
19.715502
 21
-7.9250684849
  0
LINE
  5
2B9
100
AcDbEntity
  8
ASSI
100
AcDbLine
 62
7
  6
CONTINUOUS
 10
24.28107
 20
-7.6995774849
 11
23.981991
 21
-7.6995774849
  0
LINE
  5
2BA
100
AcDbEntity
  8
ASSI
100
AcDbLine
 62
7
  6
CONTINUOUS
 10
22.900857
 20
-7.6995774849
 11
22.604367
 21
-7.6995774849
  0
LINE
  5
2BB
100
AcDbEntity
  8
ASSI
100
AcDbLine
 62
7
  6
CONTINUOUS
 10
21.956235
 20
-7.6995774849
 11
21.701797
 21
-7.6995774849
  0
LINE
  5
2BC
100
AcDbEntity
  8
ASSI
100
AcDbLine
 62
7
  6
CONTINUOUS
 10
20.785972
 20
-7.6995774849
 11
20.497405
 21
-7.6995774849
  0
LINE
  5
2BD
100
AcDbEntity
  8
ASSI
100
AcDbLine
 62
7
  6
CONTINUOUS
 10
19.715502
 20
-7.6995774849
 11
18.185825
 21
-7.6995774849
  0
LINE
  5
2BE
100
AcDbEntity
  8
ASSI
100
AcDbLine
 62
7
  6
CONTINUOUS
 10
17.9128
 20
-7.6995774849
 11
17.658209
 21
-7.6995774849
  0
LINE
  5
2BF
100
AcDbEntity
  8
ASSI
100
AcDbLine
 62
7
  6
CONTINUOUS
 10
19.79549
 20
-6.8753194849
 11
20.050081
 21
-6.8753194849
  0
LINE
  5
2C0
100
AcDbEntity
  8
ASSI
100
AcDbLine
 62
7
  6
CONTINUOUS
 10
20.485521
 20
-6.8753194849
 11
20.732341
 21
-6.8753194849
  0
LINE
  5
2C1
100
AcDbEntity
  8
ASSI
100
AcDbLine
 62
7
  6
CONTINUOUS
 10
21.695246
 20
-6.8753194849
 11
21.981222
 21
-6.8753194849
  0
LINE
  5
2C2
100
AcDbEntity
  8
ASSI
100
AcDbLine
 62
7
  6
CONTINUOUS
 10
-19.325389
 20
-6.3112094849
 11
-17.864888
 21
-6.3112094849
  0
LINE
  5
2C3
100
AcDbEntity
  8
RACCORDO
100
AcDbLine
 62
7
  6
CONTINUOUS
 10
-28.825139632
 20
38.2501294985
 11
-28.8257487586
 21
38.2513410617
  0
LINE
  5
2C4
100
AcDbEntity
  8
DRAFT
100
AcDbLine
 62
7
  6
CONTINUOUS
 10
-5.68
 20
32.3701942059
 11
-5.68
 21
35.7613068242
  0
LINE
  5
2C5
100
AcDbEntity
  8
ASSI
100
AcDbLine
 62
7
  6
CONTINUOUS
 10
-4.75753
 20
14.0646465151
 11
-4.75753
 21
10.1657505151
  0
LINE
  5
2C6
100
AcDbEntity
  8
ASSI
100
AcDbLine
 62
7
  6
CONTINUOUS
 10
-3.937395
 20
10.1657505151
 11
-3.937395
 21
14.0646465151
  0
LINE
  5
2C7
100
AcDbEntity
  8
ASSI
100
AcDbLine
 62
7
  6
CONTINUOUS
 10
-3.065609
 20
14.0646465151
 11
-3.065609
 21
10.1657505151
  0
LINE
  5
2C8
100
AcDbEntity
  8
ASSI
100
AcDbLine
 62
7
  6
CONTINUOUS
 10
-0.337435
 20
14.0646465151
 11
-1.109576
 21
11.3818325151
  0
LINE
  5
2C9
100
AcDbEntity
  8
ASSI
100
AcDbLine
 62
7
  6
CONTINUOUS
 10
-0.698109
 20
10.1657505151
 11
0.070218
 21
12.6169365151
  0
LINE
  5
2CA
100
AcDbEntity
  8
ASSI
100
AcDbLine
 62
7
  6
CONTINUOUS
 10
-17.864888
 20
-5.5612094849
 11
-19.325392112
 21
-5.5612094849
  0
LINE
  5
2CB
100
AcDbEntity
  8
ASSI
100
AcDbLine
 62
7
  6
CONTINUOUS
 10
21.981222
 20
-4.9921714849
 11
21.734706
 21
-4.9921714849
  0
LINE
  5
2CC
100
AcDbEntity
  8
ASSI
100
AcDbLine
 62
7
  6
CONTINUOUS
 10
20.787343
 20
-4.9921714849
 11
20.485521
 21
-4.9921714849
  0
LINE
  5
2CD
100
AcDbEntity
  8
ASSI
100
AcDbLine
 62
7
  6
CONTINUOUS
 10
20.050081
 20
-4.9921714849
 11
19.79549
 21
-4.9921714849
  0
LINE
  5
2CE
100
AcDbEntity
  8
ASSI
100
AcDbLine
 62
7
  6
CONTINUOUS
 10
17.27
 20
-4.1663894849
 11
17.516668
 21
-4.1663894849
  0
LINE
  5
2CF
100
AcDbEntity
  8
ASSI
100
AcDbLine
 62
7
  6
CONTINUOUS
 10
18.046722
 20
-4.1663894849
 11
18.303764
 21
-4.1663894849
  0
LINE
  5
2D0
100
AcDbEntity
  8
ASSI
100
AcDbLine
 62
7
  6
CONTINUOUS
 10
18.833818
 20
-4.1663894849
 11
19.080486
 21
-4.1663894849
  0
LINE
  5
2D1
100
AcDbEntity
  8
ASSI
100
AcDbLine
 62
7
  6
CONTINUOUS
 10
19.300936
 20
-4.1663894849
 11
19.563297
 21
-4.1663894849
  0
LINE
  5
2D2
100
AcDbEntity
  8
ASSI
100
AcDbLine
 62
7
  6
CONTINUOUS
 10
20.702174
 20
-4.1663894849
 11
20.980228
 21
-4.1663894849
  0
LINE
  5
2D3
100
AcDbEntity
  8
ASSI
100
AcDbLine
 62
7
  6
CONTINUOUS
 10
21.226896
 20
-4.1663894849
 11
22.004158
 21
-4.1663894849
  0
LINE
  5
2D4
100
AcDbEntity
  8
ASSI
100
AcDbLine
 62
7
  6
CONTINUOUS
 10
23.134422
 20
-4.1663894849
 11
24.525148
 21
-4.1663894849
  0
LINE
  5
2D5
100
AcDbEntity
  8
ASSI
100
AcDbLine
 62
7
  6
CONTINUOUS
 10
21.959363
 20
-3.9485174849
 11
21.481335
 21
-3.9485174849
  0
LINE
  5
2D6
100
AcDbEntity
  8
ASSI
100
AcDbLine
 62
7
  6
CONTINUOUS
 10
24.525148
 20
-3.9408994849
 11
23.389012
 21
-3.9408994849
  0
LINE
  5
2D7
100
AcDbEntity
  8
ASSI
100
AcDbLine
 62
7
  6
CONTINUOUS
 10
19.760143
 20
-3.6179004849
 11
20.51584
 21
-3.6179004849
  0
LINE
  5
2D8
100
AcDbEntity
  8
ASSI
100
AcDbLine
 62
7
  6
CONTINUOUS
 10
20.423968
 20
-3.3924094849
 11
19.838913
 21
-3.3924094849
  0
LINE
  5
2D9
100
AcDbEntity
  8
ASSI
100
AcDbLine
 62
7
  6
CONTINUOUS
 10
23.389012
 20
-3.3116604849
 11
24.420173
 21
-3.3116604849
  0
LINE
  5
2DA
100
AcDbEntity
  8
ASSI
100
AcDbLine
 62
7
  6
CONTINUOUS
 10
24.420173
 20
-3.0861694849
 11
23.389012
 21
-3.0861694849
  0
LINE
  5
2DB
100
AcDbEntity
  8
ASSI
100
AcDbLine
 62
7
  6
CONTINUOUS
 10
-8.56
 20
14.0646465151
 11
-7.306746
 21
10.1657505151
  0
LINE
  5
2DC
100
AcDbEntity
  8
ASSI
100
AcDbLine
 62
7
  6
CONTINUOUS
 10
-6.899977
 20
11.3625185151
 11
-7.768544
 21
14.0646465151
  0
LINE
  5
2DD
100
AcDbEntity
  8
ASSI
100
AcDbLine
 62
7
  6
CONTINUOUS
 10
-2.28937
 20
10.1657505151
 11
-2.28937
 21
12.6169365151
  0
LINE
  5
2DE
100
AcDbEntity
  8
ASSI
100
AcDbLine
 62
7
  6
CONTINUOUS
 10
0.070218
 20
12.6169365151
 11
0.070218
 21
10.1657505151
  0
LINE
  5
2DF
100
AcDbEntity
  8
ASSI
100
AcDbLine
 62
7
  6
CONTINUOUS
 10
2.692601
 20
11.6231175151
 11
3.117374
 21
13.0225415151
  0
LINE
  5
2E0
100
AcDbEntity
  8
ASSI
100
AcDbLine
 62
7
  6
CONTINUOUS
 10
2.164718
 20
10.1657505151
 11
2.408005
 21
10.9185775151
  0
LINE
  5
2E1
100
AcDbEntity
  8
ASSI
100
AcDbLine
 62
7
  6
CONTINUOUS
 10
2.670414
 20
14.0646465151
 11
1.354647
 21
10.1657505151
  0
LINE
  5
2E2
100
AcDbEntity
  8
ASSI
100
AcDbLine
 62
7
  6
CONTINUOUS
 10
23.389012
 20
-2.5087314849
 11
24.506713
 21
-2.5087314849
  0
LINE
  5
2E3
100
AcDbEntity
  8
ASSI
100
AcDbLine
 62
7
  6
CONTINUOUS
 10
21.481335
 20
-2.5011144849
 11
21.9593736583
 21
-2.5011144849
  0
LINE
  5
2E4
100
AcDbEntity
  8
ASSI
100
AcDbLine
 62
7
  6
CONTINUOUS
 10
24.506713
 20
-2.2832414849
 11
23.134422
 21
-2.2832414849
  0
LINE
  5
2E5
100
AcDbEntity
  8
ASSI
100
AcDbLine
 62
7
  6
CONTINUOUS
 10
22.0041596593
 20
-2.2832414849
 11
21.226896
 21
-2.2832414849
  0
LINE
  5
2E6
100
AcDbEntity
  8
ASSI
100
AcDbLine
 62
7
  6
CONTINUOUS
 10
20.297968
 20
-2.2832414849
 11
20.009401
 21
-2.2832414849
  0
LINE
  5
2E7
100
AcDbEntity
  8
ASSI
100
AcDbLine
 62
7
  6
CONTINUOUS
 10
19.080486
 20
-2.2832414849
 11
18.71574
 21
-2.2832414849
  0
LINE
  5
2E8
100
AcDbEntity
  8
ASSI
100
AcDbLine
 62
7
  6
CONTINUOUS
 10
17.634746
 20
-2.2832414849
 11
17.27
 21
-2.2832414849
  0
LINE
  5
2E9
100
AcDbEntity
  8
RACCORDO
100
AcDbLine
 62
7
  6
CONTINUOUS
 10
28.8407068234
 20
-1.9342494849
 11
28.8284892085
 21
-1.9342494849
  0
LINE
  5
2EA
100
AcDbEntity
  8
RACCORDO
100
AcDbLine
 62
7
  6
CONTINUOUS
 10
-28.8407068234
 20
-1.9342494849
 11
-28.8284892085
 21
-1.9342494849
  0
LINE
  5
2EB
100
AcDbEntity
  8
DRAFT
100
AcDbLine
 62
7
  6
CONTINUOUS
 10
29.85
 20
-1.9342494849
 11
28.8520698146
 21
-1.9342494849
  0
LINE
  5
2EC
100
AcDbEntity
  8
DRAFT
100
AcDbLine
 62
7
  6
CONTINUOUS
 10
-28.8520698146
 20
-1.9342494849
 11
-29.85
 21
-1.9342494849
  0
LINE
  5
2ED
100
AcDbEntity
  8
RACCORDO
100
AcDbLine
 62
250
  6
CONTINUOUS
 10
28.25
 20
-1.8842494849
 11
28.55
 21
-1.8842494849
  0
LINE
  5
2EE
100
AcDbEntity
  8
RACCORDO
100
AcDbLine
 62
250
  6
CONTINUOUS
 10
-28.25
 20
-1.8842494849
 11
-28.55
 21
-1.8842494849
  0
LINE
  5
2EF
100
AcDbEntity
  8
ASSI
100
AcDbLine
 62
7
  6
CONTINUOUS
 10
0.846457
 20
10.1657505151
 11
0.846457
 21
14.0646465151
  0
LINE
  5
2F0
100
AcDbEntity
  8
ASSI
100
AcDbLine
 62
7
  6
CONTINUOUS
 10
-2.627458
 20
-22.9303214849
 11
-2.434171
 21
-22.1858964849
  0
LINE
  5
2F1
100
AcDbEntity
  8
ASSI
100
AcDbLine
 62
7
  6
CONTINUOUS
 10
-3.407418
 20
-25.9342494849
 11
-2.758538
 21
-23.4351604849
  0
LINE
  5
2F2
100
AcDbEntity
  8
ASSI
100
AcDbLine
 62
7
  6
CONTINUOUS
 10
-2.3834500882
 20
-23.7003488245
 11
-2.829904
 21
-25.4198184849
  0
LINE
  5
2F3
100
AcDbEntity
  8
ASSI
100
AcDbLine
 62
7
  6
CONTINUOUS
 10
-3.648915
 20
-23.8217264849
 11
-4.205
 21
-25.9342494849
  0
LINE
  5
2F4
100
AcDbEntity
  8
ASSI
100
AcDbLine
 62
7
  6
CONTINUOUS
 10
-3.307758
 20
-22.5651734849
 11
-3.504059
 21
-23.3109064849
  0
LINE
  5
2F5
100
AcDbEntity
  8
DRAFT
100
AcDbLine
 62
7
  6
CONTINUOUS
 10
-28.8433248838
 20
0.0269646135
 11
-30.65
 21
-0.1310989779
  0
LINE
  5
2F6
100
AcDbEntity
  8
DRAFT
100
AcDbLine
 62
7
  6
CONTINUOUS
 10
-30.65
 20
2.7657505151
 11
-28.8433248838
 21
2.7657505151
  0
LINE
  5
2F7
100
AcDbEntity
  8
DRAFT
100
AcDbLine
 62
7
  6
CONTINUOUS
 10
30.65
 20
2.7657505151
 11
28.8433248838
 21
2.7657505151
  0
LINE
  5
2F8
100
AcDbEntity
  8
DRAFT
100
AcDbLine
 62
250
  6
CONTINUOUS
 10
-30.65
 20
3.0657505151
 11
-28.8695054871
 21
3.0657505151
  0
LINE
  5
2F9
100
AcDbEntity
  8
DRAFT
100
AcDbLine
 62
250
  6
CONTINUOUS
 10
30.65
 20
3.0657505151
 11
28.8695054871
 21
3.0657505151
  0
LINE
  5
2FA
100
AcDbEntity
  8
DRAFT
100
AcDbLine
 62
7
  6
CONTINUOUS
 10
30.65
 20
-0.1310989779
 11
28.8433248838
 21
0.0269646135
  0
LINE
  5
2FB
100
AcDbEntity
  8
ASSI
100
AcDbLine
 62
7
  6
CONTINUOUS
 10
-2.28937
 20
12.6169365151
 11
-1.521043
 21
10.1657505151
  0
LINE
  5
2FC
100
AcDbEntity
  8
ASSI
100
AcDbLine
 62
7
  6
CONTINUOUS
 10
-1.109576
 20
11.3818325151
 11
-1.881717
 21
14.0646465151
  0
LINE
  5
2FD
100
AcDbEntity
  8
DRAFT
100
AcDbLine
 62
7
  6
CONTINUOUS
 10
4.68
 20
32.3701942059
 11
4.68
 21
35.7613068242
  0
LINE
  5
2FE
100
AcDbEntity
  8
ASSI
100
AcDbLine
 62
7
  6
CONTINUOUS
 10
5.307961
 20
14.0646465151
 11
5.307961
 21
10.1657505151
  0
LINE
  5
2FF
100
AcDbEntity
  8
DRAFT
100
AcDbLine
 62
7
  6
CONTINUOUS
 10
5.68
 20
32.3701942059
 11
5.68
 21
35.7613068242
  0
LINE
  5
300
100
AcDbEntity
  8
ASSI
100
AcDbLine
 62
7
  6
CONTINUOUS
 10
6.15736
 20
10.1657505151
 11
6.15736
 21
11.7311035151
  0
LINE
  5
301
100
AcDbEntity
  8
ASSI
100
AcDbLine
 62
7
  6
CONTINUOUS
 10
6.15736
 20
12.4069645151
 11
6.15736
 21
13.4082465151
  0
LINE
  5
302
100
AcDbEntity
  8
ASSI
100
AcDbLine
 62
7
  6
CONTINUOUS
 10
-2.063597
 20
-25.3981864849
 11
-1.6542754589
 21
-23.8217282524
  0
LINE
  5
303
100
AcDbEntity
  8
ASSI
100
AcDbLine
 62
7
  6
CONTINUOUS
 10
-1.219493
 20
-23.6972614849
 11
-1.7318671671
 21
-25.6706121285
  0
LINE
  5
304
100
AcDbEntity
  8
ASSI
100
AcDbLine
 62
7
  6
CONTINUOUS
 10
-1.019882
 20
-25.9342494849
 11
-0.046636
 21
-22.1858964849
  0
LINE
  5
305
100
AcDbEntity
  8
ASSI
100
AcDbLine
 62
7
  6
CONTINUOUS
 10
-0.0236731037
 20
-23.6630648843
 11
-0.505667
 21
-25.5194124849
  0
LINE
  5
306
100
AcDbEntity
  8
ASSI
100
AcDbLine
 62
7
  6
CONTINUOUS
 10
0.433277
 20
-24.8453674849
 11
0.6859061355
 21
-23.8723959629
  0
LINE
  5
307
100
AcDbEntity
  8
ASSI
100
AcDbLine
 62
7
  6
CONTINUOUS
 10
-0.898356
 20
-22.5556794849
 11
-1.137018
 21
-23.4351604849
  0
LINE
  5
308
100
AcDbEntity
  8
DRAFT
100
AcDbLine
 62
250
  6
CONTINUOUS
 10
-28.7650617991
 20
4.6157505151
 11
-28.5464995262
 21
4.6157505151
  0
LINE
  5
309
100
AcDbEntity
  8
DRAFT
100
AcDbLine
 62
250
  6
CONTINUOUS
 10
28.7650617991
 20
4.6157505151
 11
28.5464995262
 21
4.6157505151
  0
LINE
  5
30A
100
AcDbEntity
  8
ASSI
100
AcDbLine
 62
7
  6
CONTINUOUS
 10
3.117374
 20
13.0225415151
 11
3.542147
 21
11.6231175151
  0
LINE
  5
30B
100
AcDbEntity
  8
ASSI
100
AcDbLine
 62
7
  6
CONTINUOUS
 10
7.57961
 20
12.9236335151
 11
7.57961
 21
12.8915727962
  0
LINE
  5
30C
100
AcDbEntity
  8
ASSI
100
AcDbLine
 62
7
  6
CONTINUOUS
 10
8.44152
 20
12.8595944703
 11
8.44152
 21
12.9478855151
  0
LINE
  5
30D
100
AcDbEntity
  8
ASSI
100
AcDbLine
 62
7
  6
CONTINUOUS
 10
1.108064
 20
-23.7044254849
 11
0.859917
 21
-24.6601364849
  0
LINE
  5
30E
100
AcDbEntity
  8
ASSI
100
AcDbLine
 62
7
  6
CONTINUOUS
 10
1.3939936577
 20
-25.6361919519
 11
1.52612
 21
-25.1273184849
  0
LINE
  5
30F
100
AcDbEntity
  8
ASSI
100
AcDbLine
 62
7
  6
CONTINUOUS
 10
1.650431
 20
-24.6485494849
 11
1.822952
 21
-23.9841034849
  0
LINE
  5
310
100
AcDbEntity
  8
ASSI
100
AcDbLine
 62
7
  6
CONTINUOUS
 10
2.2485287315
 20
-23.7888594087
 11
2.072942
 21
-24.4651114849
  0
LINE
  5
311
100
AcDbEntity
  8
ASSI
100
AcDbLine
 62
7
  6
CONTINUOUS
 10
1.948632
 20
-24.9438804849
 11
1.821428
 21
-25.4337914849
  0
LINE
  5
312
100
AcDbEntity
  8
ASSI
100
AcDbLine
 62
7
  6
CONTINUOUS
 10
2.628162
 20
-25.3399164849
 11
2.743656
 21
-24.8951044849
  0
LINE
  5
313
100
AcDbEntity
  8
ASSI
100
AcDbLine
 62
7
  6
CONTINUOUS
 10
3.161735
 20
-24.7135914849
 11
2.907209861
 21
-25.6938700203
  0
LINE
  5
314
100
AcDbEntity
  8
ASSI
100
AcDbLine
 62
7
  6
CONTINUOUS
 10
3.4268740289
 20
-23.6924373735
 11
3.24847
 21
-24.3795424849
  0
LINE
  5
315
100
AcDbEntity
  8
ASSI
100
AcDbLine
 62
7
  6
CONTINUOUS
 10
3.665971
 20
-25.9342494849
 11
4.199575
 21
-23.8791304849
  0
LINE
  5
316
100
AcDbEntity
  8
RACCORDO
100
AcDbLine
 62
7
  6
CONTINUOUS
 10
28.8257487586
 20
38.2513410616
 11
28.825139632
 21
38.2501294985
  0
LWPOLYLINE
  5
317
100
AcDbEntity
  8
ASSI
100
AcDbPolyline
 62
7
  6
CONTINUOUS
 90
12
 70
0
 10
-2.3834500882
 20
-23.7003488245
 10
-2.3583307629
 20
-23.6531594241
 10
-2.3278748899
 20
-23.6105651516
 10
-2.2920824692
 20
-23.5725660071
 10
-2.2506717274
 20
-23.5389853465
 10
-2.2039244379
 20
-23.5099998139
 10
-2.1526859213
 20
-23.4861393414
 10
-2.0966156091
 20
-23.4681917639
 10
-2.0360540698
 20
-23.4553692464
 10
-1.972868329
 20
-23.445838217
 10
-1.9076807289
 20
-23.438987485
 10
-1.8398689273
 20
-23.4354282409
  0
LINE
  5
318
100
AcDbEntity
  8
RACCORDO
100
AcDbLine
 62
7
  6
CONTINUOUS
 10
-24.6248988275
 20
-37.9539123165
 11
-24.6052359959
 21
-37.9342494849
  0
LINE
  5
319
100
AcDbEntity
  8
DRAFT
100
AcDbLine
 62
7
  6
CONTINUOUS
 10
28.6076994534
 20
11.6339218627
 11
28.7036949991
 21
11.6423203847
  0
LINE
  5
31A
100
AcDbEntity
  8
RACCORDO
100
AcDbLine
 62
7
  6
CONTINUOUS
 10
-28.8573300768
 20
9.961759456
 11
-30.65
 21
9.9461150625
  0
LINE
  5
31B
100
AcDbEntity
  8
DRAFT
100
AcDbLine
 62
250
  6
CONTINUOUS
 10
-30.65
 20
7.9657505151
 11
-28.8695054871
 21
7.9657505151
  0
LINE
  5
31C
100
AcDbEntity
  8
DRAFT
100
AcDbLine
 62
250
  6
CONTINUOUS
 10
30.65
 20
7.9657505151
 11
28.8695054871
 21
7.9657505151
  0
LINE
  5
31D
100
AcDbEntity
  8
DRAFT
100
AcDbLine
 62
7
  6
CONTINUOUS
 10
28.8546698119
 20
8.2657505151
 11
30.65
 21
8.2657505151
  0
LINE
  5
31E
100
AcDbEntity
  8
DRAFT
100
AcDbLine
 62
7
  6
CONTINUOUS
 10
-28.8546698119
 20
8.2657505151
 11
-30.65
 21
8.2657505151
  0
LINE
  5
31F
100
AcDbEntity
  8
ASSI
100
AcDbLine
 62
7
  6
CONTINUOUS
 10
-7.306746
 20
10.1657505151
 11
-6.493208
 21
10.1657505151
  0
LINE
  5
320
100
AcDbEntity
  8
ASSI
100
AcDbLine
 62
7
  6
CONTINUOUS
 10
-4.75753
 20
10.1657505151
 11
-3.937395
 21
10.1657505151
  0
LINE
  5
321
100
AcDbEntity
  8
ASSI
100
AcDbLine
 62
7
  6
CONTINUOUS
 10
-3.065609
 20
10.1657505151
 11
-2.28937
 21
10.1657505151
  0
LINE
  5
322
100
AcDbEntity
  8
ASSI
100
AcDbLine
 62
7
  6
CONTINUOUS
 10
-1.521043
 20
10.1657505151
 11
-0.698109
 21
10.1657505151
  0
LINE
  5
323
100
AcDbEntity
  8
ASSI
100
AcDbLine
 62
7
  6
CONTINUOUS
 10
0.070218
 20
10.1657505151
 11
0.846457
 21
10.1657505151
  0
LINE
  5
324
100
AcDbEntity
  8
ASSI
100
AcDbLine
 62
7
  6
CONTINUOUS
 10
1.354647
 20
10.1657505151
 11
2.164718
 21
10.1657505151
  0
LINE
  5
325
100
AcDbEntity
  8
ASSI
100
AcDbLine
 62
7
  6
CONTINUOUS
 10
4.070031
 20
10.1657505151
 11
4.880102
 21
10.1657505151
  0
LINE
  5
326
100
AcDbEntity
  8
ASSI
100
AcDbLine
 62
7
  6
CONTINUOUS
 10
5.307961
 20
10.1657505151
 11
6.15736
 21
10.1657505151
  0
LINE
  5
327
100
AcDbEntity
  8
ASSI
100
AcDbLine
 62
7
  6
CONTINUOUS
 10
7.634736
 20
10.1657505151
 11
8.56125
 21
10.1657505151
  0
LINE
  5
328
100
AcDbEntity
  8
RACCORDO
100
AcDbLine
 62
7
  6
CONTINUOUS
 10
30.65
 20
9.9461150625
 11
28.8573300768
 21
9.961759456
  0
LINE
  5
329
100
AcDbEntity
  8
DRAFT
100
AcDbLine
 62
7
  6
CONTINUOUS
 10
-28.7036949991
 20
11.6423203847
 11
-28.6076994534
 21
11.6339218627
  0
LINE
  5
32A
100
AcDbEntity
  8
ASSI
100
AcDbLine
 62
7
  6
CONTINUOUS
 10
4.880102
 20
10.1657505151
 11
3.564334
 21
14.0646465151
  0
LINE
  5
32B
100
AcDbEntity
  8
ASSI
100
AcDbLine
 62
7
  6
CONTINUOUS
 10
3.826743
 20
10.9185775151
 11
4.070031
 21
10.1657505151
  0
LWPOLYLINE
  5
32C
100
AcDbEntity
  8
ASSI
100
AcDbPolyline
 62
7
  6
CONTINUOUS
 90
8
 70
0
 10
0.6191874465
 20
-25.6294235999
 10
0.6265193289
 20
-25.6140560654
 10
0.6317512481
 20
-25.5974227239
 10
0.635432056
 20
-25.5795161235
 10
0.6394347995
 20
-25.5612689448
 10
0.6443838276
 20
-25.5429920813
 10
0.6496547914
 20
-25.5243746394
 10
0.6552476908
 20
-25.5054166192
  0
LWPOLYLINE
  5
32D
100
AcDbEntity
  8
ASSI
100
AcDbPolyline
 62
7
  6
CONTINUOUS
 90
30
 70
0
 10
0.3269857919
 20
-25.2231361411
 10
0.3130965285
 20
-25.2506587445
 10
0.303079884
 20
-25.2789452912
 10
0.2969358586
 20
-25.3079957812
 10
0.2953946371
 20
-25.3382919349
 10
0.2977260346
 20
-25.3693520319
 10
0.3017394965
 20
-25.3997309112
 10
0.3066229894
 20
-25.4292865486
 10
0.3131885468
 20
-25.4581609682
 10
0.3216817144
 20
-25.4853350812
 10
0.3324525923
 20
-25.5106187531
 10
0.3451510804
 20
-25.5342021183
 10
0.3589724252
 20
-25.5556364907
 10
0.3739232565
 20
-25.5745345163
 10
0.3899969446
 20
-25.5912835492
 10
0.4063688458
 20
-25.6065969652
 10
0.4228868379
 20
-25.6205990344
 10
0.4397030433
 20
-25.6331654867
 10
0.4564491852
 20
-25.6446368885
 10
0.4729265122
 20
-25.6556635536
 10
0.4893337759
 20
-25.6655951683
 10
0.5058989541
 20
-25.672821357
 10
0.5230468663
 20
-25.6768334739
 10
0.540352693
 20
-25.6781401649
 10
0.5567699534
 20
-25.6766569923
 10
0.5722461662
 20
-25.672168621
 10
0.5868338126
 20
-25.6648903861
 10
0.5996438558
 20
-25.6553838563
 10
0.6103044528
 20
-25.6435178756
 10
0.6191874465
 20
-25.6294235999
  0
LWPOLYLINE
  5
32E
100
AcDbEntity
  8
ASSI
100
AcDbPolyline
 62
7
  6
CONTINUOUS
 90
13
 70
0
 10
-0.0236731037
 20
-23.6630648843
 10
-0.0051588572
 20
-23.6305018822
 10
0.0172168285
 20
-23.6006400281
 10
0.0434539535
 20
-23.5734793221
 10
0.0738863585
 20
-23.5491274701
 10
0.1081802027
 20
-23.5274767662
 10
0.1453339638
 20
-23.508204092
 10
0.1853094453
 20
-23.4914498876
 10
0.2281448436
 20
-23.4770737129
 10
0.2729532259
 20
-23.4643311291
 10
0.3194389479
 20
-23.4529739901
 10
0.3678976538
 20
-23.443250442
 10
0.4183293438
 20
-23.4351604849
  0
LINE
  5
32F
100
AcDbEntity
  8
RACCORDO
100
AcDbLine
 62
7
  6
CONTINUOUS
 10
-28.8433248838
 20
9.9269646135
 11
-28.8107119311
 21
9.9298178771
  0
LINE
  5
330
100
AcDbEntity
  8
DRAFT
100
AcDbLine
 62
7
  6
CONTINUOUS
 10
-30.65
 20
9.7689010221
 11
-28.8433248838
 21
9.9269646135
  0
LINE
  5
331
100
AcDbEntity
  8
RACCORDO
100
AcDbLine
 62
250
  6
CONTINUOUS
 10
-28.808105823
 20
10.2289042915
 11
-28.8574303982
 21
10.2245889503
  0
LINE
  5
332
100
AcDbEntity
  8
RACCORDO
100
AcDbLine
 62
250
  6
CONTINUOUS
 10
28.8436636218
 20
15.305707643
 11
28.808105823
 21
15.3025967387
  0
LINE
  5
333
100
AcDbEntity
  8
RACCORDO
100
AcDbLine
 62
7
  6
CONTINUOUS
 10
28.8107119311
 20
15.601683153
 11
28.8436636218
 21
15.6045660524
  0
LINE
  5
334
100
AcDbEntity
  8
RACCORDO
100
AcDbLine
 62
250
  6
CONTINUOUS
 10
28.8255462428
 20
15.9018393965
 11
28.8436636218
 21
15.9034244618
  0
LINE
  5
335
100
AcDbEntity
  8
RACCORDO
100
AcDbLine
 62
250
  6
CONTINUOUS
 10
-28.8695412466
 20
10.2616414676
 11
-28.8808224332
 21
10.2615430182
  0
LINE
  5
336
100
AcDbEntity
  8
RACCORDO
100
AcDbLine
 62
250
  6
CONTINUOUS
 10
-28.8956860905
 20
10.2614361516
 11
-30.65
 21
10.2461264861
  0
LINE
  5
337
100
AcDbEntity
  8
DRAFT
100
AcDbLine
 62
7
  6
CONTINUOUS
 10
-28.8695412466
 20
11.5616528907
 11
-28.8782033859
 21
11.5615772973
  0
LINE
  5
338
100
AcDbEntity
  8
RACCORDO
100
AcDbLine
 62
7
  6
CONTINUOUS
 10
-28.8288286194
 20
11.5620081844
 11
-28.8520243684
 21
11.5618057582
  0
LINE
  5
339
100
AcDbEntity
  8
ASSI
100
AcDbLine
 62
7
  6
CONTINUOUS
 10
2.408005
 20
10.9185775151
 11
3.826743
 21
10.9185775151
  0
LINE
  5
33A
100
AcDbEntity
  8
ASSI
100
AcDbLine
 62
7
  6
CONTINUOUS
 10
3.542147
 20
11.6231175151
 11
2.692601
 21
11.6231175151
  0
LINE
  5
33B
100
AcDbEntity
  8
ASSI
100
AcDbLine
 62
7
  6
CONTINUOUS
 10
6.15736
 20
11.7311035151
 11
6.823125
 21
11.7311035151
  0
LINE
  5
33C
100
AcDbEntity
  8
ASSI
100
AcDbLine
 62
7
  6
CONTINUOUS
 10
7.034795
 20
12.4069645151
 11
6.15736
 21
12.4069645151
  0
LINE
  5
33D
100
AcDbEntity
  8
ASSI
100
AcDbLine
 62
7
  6
CONTINUOUS
 10
6.15736
 20
13.4082465151
 11
7.0347962037
 21
13.4082465151
  0
LINE
  5
33E
100
AcDbEntity
  8
RACCORDO
100
AcDbLine
 62
250
  6
CONTINUOUS
 10
28.8808224332
 20
10.2615430182
 11
28.8695412466
 21
10.2616414676
  0
LINE
  5
33F
100
AcDbEntity
  8
RACCORDO
100
AcDbLine
 62
250
  6
CONTINUOUS
 10
30.65
 20
10.2461264861
 11
28.8956860905
 21
10.2614361516
  0
LINE
  5
340
100
AcDbEntity
  8
RACCORDO
100
AcDbLine
 62
7
  6
CONTINUOUS
 10
28.8288286194
 20
11.5620081844
 11
28.8520243684
 21
11.5618057582
  0
LINE
  5
341
100
AcDbEntity
  8
DRAFT
100
AcDbLine
 62
7
  6
CONTINUOUS
 10
28.8695412466
 20
11.5616528907
 11
28.8782033859
 21
11.5615772973
  0
LINE
  5
342
100
AcDbEntity
  8
RACCORDO
100
AcDbLine
 62
250
  6
CONTINUOUS
 10
30.65
 20
9.4677550709
 11
28.8433248838
 21
9.6258186622
  0
LINE
  5
343
100
AcDbEntity
  8
RACCORDO
100
AcDbLine
 62
7
  6
CONTINUOUS
 10
30.65
 20
9.7689010221
 11
28.8107119311
 21
9.9298178771
  0
LINE
  5
344
100
AcDbEntity
  8
RACCORDO
100
AcDbLine
 62
250
  6
CONTINUOUS
 10
28.8574303982
 20
10.2245889503
 11
28.808105823
 21
10.2289042915
  0
LINE
  5
345
100
AcDbEntity
  8
RACCORDO
100
AcDbLine
 62
250
  6
CONTINUOUS
 10
-28.808105823
 20
15.3025967387
 11
-28.8436636218
 21
15.305707643
  0
LINE
  5
346
100
AcDbEntity
  8
RACCORDO
100
AcDbLine
 62
7
  6
CONTINUOUS
 10
-28.8107119311
 20
15.601683153
 11
-28.8436636218
 21
15.6045660524
  0
LINE
  5
347
100
AcDbEntity
  8
RACCORDO
100
AcDbLine
 62
250
  6
CONTINUOUS
 10
-28.8436636218
 20
15.9034244618
 11
-28.8255462428
 21
15.9018393965
  0
LINE
  5
348
100
AcDbEntity
  8
ASSI
100
AcDbLine
 62
7
  6
CONTINUOUS
 10
8.56125
 20
10.1657505151
 11
7.691515
 21
11.8375285151
  0
LINE
  5
349
100
AcDbEntity
  8
ASSI
100
AcDbLine
 62
7
  6
CONTINUOUS
 10
6.823125
 20
11.7311035151
 11
7.634736
 21
10.1657505151
  0
LINE
  5
34A
100
AcDbEntity
  8
DRAFT
100
AcDbLine
 62
7
  6
CONTINUOUS
 10
16.04
 20
32.3701942059
 11
16.04
 21
35.7613068242
  0
LINE
  5
34B
100
AcDbEntity
  8
RACCORDO
100
AcDbLine
 62
7
  6
CONTINUOUS
 10
-28.8436636218
 20
13.5269349777
 11
-28.8288066407
 21
13.5282347952
  0
LINE
  5
34C
100
AcDbEntity
  8
ASSI
100
AcDbLine
 62
7
  6
CONTINUOUS
 10
7.5199047626
 20
14.0646465151
 11
5.307961
 21
14.0646465151
  0
LINE
  5
34D
100
AcDbEntity
  8
ASSI
100
AcDbLine
 62
7
  6
CONTINUOUS
 10
3.564334
 20
14.0646465151
 11
2.670414
 21
14.0646465151
  0
LINE
  5
34E
100
AcDbEntity
  8
ASSI
100
AcDbLine
 62
7
  6
CONTINUOUS
 10
0.846457
 20
14.0646465151
 11
-0.337435
 21
14.0646465151
  0
LINE
  5
34F
100
AcDbEntity
  8
ASSI
100
AcDbLine
 62
7
  6
CONTINUOUS
 10
-1.881717
 20
14.0646465151
 11
-3.065609
 21
14.0646465151
  0
LINE
  5
350
100
AcDbEntity
  8
ASSI
100
AcDbLine
 62
7
  6
CONTINUOUS
 10
-3.937395
 20
14.0646465151
 11
-4.75753
 21
14.0646465151
  0
LINE
  5
351
100
AcDbEntity
  8
ASSI
100
AcDbLine
 62
7
  6
CONTINUOUS
 10
-5.239954
 20
14.0646465151
 11
-6.031409
 21
14.0646465151
  0
LINE
  5
352
100
AcDbEntity
  8
ASSI
100
AcDbLine
 62
7
  6
CONTINUOUS
 10
-7.768544
 20
14.0646465151
 11
-8.56
 21
14.0646465151
  0
LINE
  5
353
100
AcDbEntity
  8
RACCORDO
100
AcDbLine
 62
7
  6
CONTINUOUS
 10
28.8436636218
 20
13.5269349777
 11
28.8288066407
 21
13.5282347952
  0
LINE
  5
354
100
AcDbEntity
  8
ASSI
100
AcDbLine
 62
7
  6
CONTINUOUS
 10
22.604367
 20
-7.6995774849
 11
23.315576
 21
-8.8255054849
  0
LINE
  5
355
100
AcDbEntity
  8
ASSI
100
AcDbLine
 62
7
  6
CONTINUOUS
 10
20.732341
 20
-5.3450284849
 11
21.695246
 21
-6.8753194849
  0
LINE
  5
356
100
AcDbEntity
  8
ASSI
100
AcDbLine
 62
7
  6
CONTINUOUS
 10
21.734706
 20
-6.5213144849
 11
20.787343
 21
-4.9921714849
  0
LINE
  5
357
100
AcDbEntity
  8
ASSI
100
AcDbLine
 62
7
  6
CONTINUOUS
 10
23.441424
 20
-8.6045854849
 11
22.900857
 21
-7.6995774849
  0
LINE
  5
358
100
AcDbEntity
  8
ASSI
100
AcDbLine
 62
7
  6
CONTINUOUS
 10
18.175243
 20
-3.8832974849
 11
17.634746
 21
-2.2832414849
  0
LINE
  5
359
100
AcDbEntity
  8
ASSI
100
AcDbLine
 62
7
  6
CONTINUOUS
 10
17.516668
 20
-2.5879584849
 11
18.046722
 21
-4.1663894849
  0
LINE
  5
35A
100
AcDbEntity
  8
RACCORDO
100
AcDbLine
 62
7
  6
CONTINUOUS
 10
17.04
 20
31.8873498185
 11
17.04
 21
35.7613068242
  0
LINE
  5
35B
100
AcDbEntity
  8
ASSI
100
AcDbLine
 62
7
  6
CONTINUOUS
 10
17.27
 20
-2.2832414849
 11
17.27
 21
-4.1663894849
  0
LINE
  5
35C
100
AcDbEntity
  8
ASSI
100
AcDbLine
 62
7
  6
CONTINUOUS
 10
17.516668
 20
-4.1663894849
 11
17.516668
 21
-2.5879584849
  0
LINE
  5
35D
100
AcDbEntity
  8
ASSI
100
AcDbLine
 62
7
  6
CONTINUOUS
 10
17.658209
 20
-7.6995774849
 11
17.658209
 21
-9.5842494849
  0
LINE
  5
35E
100
AcDbEntity
  8
ASSI
100
AcDbLine
 62
7
  6
CONTINUOUS
 10
17.9128
 20
-9.5842494849
 11
17.9128
 21
-7.6995774849
  0
LINE
  5
35F
100
AcDbEntity
  8
ASSI
100
AcDbLine
 62
7
  6
CONTINUOUS
 10
18.185825
 20
-7.6995774849
 11
18.185825
 21
-7.9250684849
  0
LINE
  5
360
100
AcDbEntity
  8
ASSI
100
AcDbLine
 62
7
  6
CONTINUOUS
 10
18.823445
 20
-7.9250684849
 11
18.823445
 21
-9.5842494849
  0
LINE
  5
361
100
AcDbEntity
  8
ASSI
100
AcDbLine
 62
7
  6
CONTINUOUS
 10
18.833818
 20
-2.5879584849
 11
18.833818
 21
-4.1663894849
  0
LINE
  5
362
100
AcDbEntity
  8
ASSI
100
AcDbLine
 62
7
  6
CONTINUOUS
 10
19.077883
 20
-9.5842494849
 11
19.077883
 21
-7.9250684849
  0
LINE
  5
363
100
AcDbEntity
  8
ASSI
100
AcDbLine
 62
7
  6
CONTINUOUS
 10
19.080486
 20
-4.1663894849
 11
19.080486
 21
-2.2832414849
  0
LINE
  5
364
100
AcDbEntity
  8
ASSI
100
AcDbLine
 62
7
  6
CONTINUOUS
 10
19.715502
 20
-7.9250684849
 11
19.715502
 21
-7.6995774849
  0
LINE
  5
365
100
AcDbEntity
  8
ASSI
100
AcDbLine
 62
7
  6
CONTINUOUS
 10
19.79549
 20
-4.9921714849
 11
19.79549
 21
-6.8753194849
  0
LINE
  5
366
100
AcDbEntity
  8
RACCORDO
100
AcDbLine
 62
7
  6
CONTINUOUS
 10
28.825139632
 20
38.2501294985
 11
28.5910041716
 21
37.3132308725
  0
LINE
  5
367
100
AcDbEntity
  8
RACCORDO
100
AcDbLine
 62
7
  6
CONTINUOUS
 10
28.5910041716
 20
35.8132308725
 11
28.542247945
 21
35.6181316693
  0
LINE
  5
368
100
AcDbEntity
  8
ASSI
100
AcDbLine
 62
7
  6
CONTINUOUS
 10
18.303764
 20
-4.1663894849
 11
18.833818
 21
-2.5879584849
  0
LINE
  5
369
100
AcDbEntity
  8
ASSI
100
AcDbLine
 62
7
  6
CONTINUOUS
 10
18.71574
 20
-2.2832414849
 11
18.175243
 21
-3.8832974849
  0
LINE
  5
36A
100
AcDbEntity
  8
ASSI
100
AcDbLine
 62
7
  6
CONTINUOUS
 10
19.563297
 20
-4.1663894849
 11
19.760143
 21
-3.6179004849
  0
LINE
  5
36B
100
AcDbEntity
  8
ASSI
100
AcDbLine
 62
7
  6
CONTINUOUS
 10
19.838913
 20
-3.3924094849
 11
20.143277
 21
-2.5561764849
  0
LINE
  5
36C
100
AcDbEntity
  8
ASSI
100
AcDbLine
 62
7
  6
CONTINUOUS
 10
20.009401
 20
-2.2832414849
 11
19.300936
 21
-4.1663894849
  0
LINE
  5
36D
100
AcDbEntity
  8
ASSI
100
AcDbLine
 62
7
  6
CONTINUOUS
 10
-2.434171
 20
-22.1858964849
 11
-3.307758
 21
-22.5651734849
  0
LINE
  5
36E
100
AcDbEntity
  8
ASSI
100
AcDbLine
 62
7
  6
CONTINUOUS
 10
-3.504059
 20
-23.3109064849
 11
-2.627458
 21
-22.9303214849
  0
LINE
  5
36F
100
AcDbEntity
  8
ASSI
100
AcDbLine
 62
7
  6
CONTINUOUS
 10
20.980228
 20
-4.1663894849
 11
20.297968
 21
-2.2832414849
  0
LINE
  5
370
100
AcDbEntity
  8
ASSI
100
AcDbLine
 62
7
  6
CONTINUOUS
 10
21.468232
 20
-9.5842494849
 11
20.785972
 21
-7.6995774849
  0
LINE
  5
371
100
AcDbEntity
  8
ASSI
100
AcDbLine
 62
7
  6
CONTINUOUS
 10
21.003844
 20
-9.0357594849
 11
21.190178
 21
-9.5842494849
  0
LINE
  5
372
100
AcDbEntity
  8
ASSI
100
AcDbLine
 62
7
  6
CONTINUOUS
 10
20.51584
 20
-3.6179004849
 11
20.702174
 21
-4.1663894849
  0
LINE
  5
373
100
AcDbEntity
  8
ASSI
100
AcDbLine
 62
7
  6
CONTINUOUS
 10
20.631281
 20
-7.9740384849
 11
20.911972
 21
-8.8102694849
  0
LINE
  5
374
100
AcDbEntity
  8
ASSI
100
AcDbLine
 62
7
  6
CONTINUOUS
 10
20.143277
 20
-2.5561764849
 11
20.423968
 21
-3.3924094849
  0
LINE
  5
375
100
AcDbEntity
  8
DRAFT
100
AcDbLine
 62
7
  6
CONTINUOUS
 10
28.8956860905
 20
-38.2501294985
 11
28.8258711482
 21
-37.9707633426
  0
LINE
  5
376
100
AcDbEntity
  8
RACCORDO
100
AcDbLine
 62
7
  6
CONTINUOUS
 10
28.55
 20
-34.616858367
 11
28.8216599959
 21
-35.7039123165
  0
LINE
  5
377
100
AcDbEntity
  8
ASSI
100
AcDbLine
 62
7
  6
CONTINUOUS
 10
20.050081
 20
-6.8753194849
 11
20.050081
 21
-4.9921714849
  0
LINE
  5
378
100
AcDbEntity
  8
ASSI
100
AcDbLine
 62
7
  6
CONTINUOUS
 10
20.485521
 20
-4.9921714849
 11
20.485521
 21
-6.8753194849
  0
LINE
  5
379
100
AcDbEntity
  8
ASSI
100
AcDbLine
 62
7
  6
CONTINUOUS
 10
20.732341
 20
-6.8753194849
 11
20.732341
 21
-5.3450284849
  0
LINE
  5
37A
100
AcDbEntity
  8
RACCORDO
100
AcDbLine
 62
250
  6
CONTINUOUS
 10
20.7529336756
 20
32.387045232
 11
20.7529336756
 21
30.8701942059
  0
LINE
  5
37B
100
AcDbEntity
  8
ASSI
100
AcDbLine
 62
7
  6
CONTINUOUS
 10
21.226896
 20
-2.2832414849
 11
21.226896
 21
-4.1663894849
  0
LINE
  5
37C
100
AcDbEntity
  8
ASSI
100
AcDbLine
 62
7
  6
CONTINUOUS
 10
21.481335
 20
-3.9485174849
 11
21.481335
 21
-2.5011144849
  0
LINE
  5
37D
100
AcDbEntity
  8
ASSI
100
AcDbLine
 62
7
  6
CONTINUOUS
 10
21.701797
 20
-7.6995774849
 11
21.701797
 21
-9.5842494849
  0
LINE
  5
37E
100
AcDbEntity
  8
ASSI
100
AcDbLine
 62
7
  6
CONTINUOUS
 10
21.734706
 20
-4.9921714849
 11
21.734706
 21
-6.5213144849
  0
LINE
  5
37F
100
AcDbEntity
  8
ASSI
100
AcDbLine
 62
7
  6
CONTINUOUS
 10
21.956235
 20
-9.3587594849
 11
21.956235
 21
-7.6995774849
  0
LINE
  5
380
100
AcDbEntity
  8
ASSI
100
AcDbLine
 62
7
  6
CONTINUOUS
 10
21.981222
 20
-6.8753194849
 11
21.981222
 21
-4.9921714849
  0
LINE
  5
381
100
AcDbEntity
  8
ASSI
100
AcDbLine
 62
7
  6
CONTINUOUS
 10
22.911369
 20
-9.5842494849
 11
22.911369
 21
-9.3587594849
  0
LINE
  5
382
100
AcDbEntity
  8
ASSI
100
AcDbLine
 62
7
  6
CONTINUOUS
 10
23.134422
 20
-2.2832414849
 11
23.134422
 21
-4.1663894849
  0
LINE
  5
383
100
AcDbEntity
  8
RACCORDO
100
AcDbLine
 62
7
  6
CONTINUOUS
 10
28.8216599959
 20
23.8354133466
 11
28.55
 21
22.7483593971
  0
LINE
  5
384
100
AcDbEntity
  8
ASSI
100
AcDbLine
 62
7
  6
CONTINUOUS
 10
20.0513
 20
-9.5842494849
 11
20.248147
 21
-9.0357594849
  0
LINE
  5
385
100
AcDbEntity
  8
ASSI
100
AcDbLine
 62
7
  6
CONTINUOUS
 10
20.326764
 20
-8.8102694849
 11
20.631281
 21
-7.9740384849
  0
LINE
  5
386
100
AcDbEntity
  8
ASSI
100
AcDbLine
 62
7
  6
CONTINUOUS
 10
20.497405
 20
-7.6995774849
 11
19.788939
 21
-9.5842494849
  0
LINE
  5
387
100
AcDbEntity
  8
ASSI
100
AcDbLine
 62
7
  6
CONTINUOUS
 10
-0.046636
 20
-22.1858964849
 11
-0.898356
 21
-22.5556794849
  0
LINE
  5
388
100
AcDbEntity
  8
ASSI
100
AcDbLine
 62
7
  6
CONTINUOUS
 10
-2.758538
 20
-23.4351604849
 11
-3.648915
 21
-23.8217264849
  0
LINE
  5
389
100
AcDbEntity
  8
ASSI
100
AcDbLine
 62
7
  6
CONTINUOUS
 10
0.859917
 20
-24.6601364849
 11
0.433277
 21
-24.8453674849
  0
LINE
  5
38A
100
AcDbEntity
  8
ASSI
100
AcDbLine
 62
7
  6
CONTINUOUS
 10
2.072942
 20
-24.4651114849
 11
2.8747346407
 21
-24.1170052068
  0
LINE
  5
38B
100
AcDbEntity
  8
ASSI
100
AcDbLine
 62
7
  6
CONTINUOUS
 10
0.3269857919
 20
-25.2231361411
 11
1.650431
 21
-24.6485494849
  0
LWPOLYLINE
  5
38C
100
AcDbEntity
  8
RACCORDO
100
AcDbPolyline
 62
250
  6
CONTINUOUS
 90
10
 70
0
 10
24.9740102053
 20
26.5062223761
 10
24.9768143868
 20
26.4405924006
 10
24.9797998792
 20
26.3787875571
 10
24.982947477
 20
26.3207629477
 10
24.9862625727
 20
26.266671537
 10
24.9897397737
 20
26.2168229765
 10
24.9933436969
 20
26.1714344658
 10
24.9970817357
 20
26.1306438821
 10
25.0009464968
 20
26.0946889309
 10
25.0041674867
 20
26.0694366728
  0
LINE
  5
38D
100
AcDbEntity
  8
RACCORDO
100
AcDbLine
 62
250
  6
CONTINUOUS
 10
24.4393418625
 20
30.74478645
 11
24.4436036256
 21
30.6253343294
  0
LINE
  5
38E
100
AcDbEntity
  8
RACCORDO
100
AcDbLine
 62
250
  6
CONTINUOUS
 10
24.9689383752
 20
26.6483329255
 11
24.9740102053
 21
26.5062223761
  0
LINE
  5
38F
100
AcDbEntity
  8
RACCORDO
100
AcDbLine
 62
250
  6
CONTINUOUS
 10
24.474312196
 20
26.1790706888
 11
24.4780518221
 21
26.0657505151
  0
LINE
  5
390
100
AcDbEntity
  8
RACCORDO
100
AcDbLine
 62
250
  6
CONTINUOUS
 10
24.9343329257
 20
31.2610021755
 11
24.9390387133
 21
31.1214373048
  0
LINE
  5
391
100
AcDbEntity
  8
RACCORDO
100
AcDbLine
 62
250
  6
CONTINUOUS
 10
24.4436036256
 20
30.6253343294
 11
24.4473582158
 21
30.4930452756
  0
LINE
  5
392
100
AcDbEntity
  8
RACCORDO
100
AcDbLine
 62
250
  6
CONTINUOUS
 10
24.9646841117
 20
26.8030963772
 11
24.9689383752
 21
26.6483329255
  0
LINE
  5
393
100
AcDbEntity
  8
RACCORDO
100
AcDbLine
 62
250
  6
CONTINUOUS
 10
24.9390387133
 20
31.1214373048
 11
24.9432978926
 21
30.9623795752
  0
LINE
  5
394
100
AcDbEntity
  8
RACCORDO
100
AcDbLine
 62
250
  6
CONTINUOUS
 10
24.4692369862
 20
26.3688629672
 11
24.474312196
 21
26.1790706888
  0
LINE
  5
395
100
AcDbEntity
  8
RACCORDO
100
AcDbLine
 62
250
  6
CONTINUOUS
 10
24.4473582158
 20
30.4930452756
 11
24.4505693425
 21
30.3492001967
  0
LINE
  5
396
100
AcDbEntity
  8
RACCORDO
100
AcDbLine
 62
250
  6
CONTINUOUS
 10
24.9432978926
 20
30.9623795752
 11
24.9470505994
 21
30.7859124227
  0
LINE
  5
397
100
AcDbEntity
  8
RACCORDO
100
AcDbLine
 62
250
  6
CONTINUOUS
 10
24.4649810696
 20
26.5751645519
 11
24.4692369862
 21
26.3688629672
  0
LINE
  5
398
100
AcDbEntity
  8
RACCORDO
100
AcDbLine
 62
250
  6
CONTINUOUS
 10
24.9613038106
 20
26.9680377285
 11
24.9646841117
 21
26.8030963772
  0
LINE
  5
399
100
AcDbEntity
  8
RACCORDO
100
AcDbLine
 62
250
  6
CONTINUOUS
 10
24.4505693425
 20
30.3492001967
 11
24.4531874693
 21
30.1958077699
  0
LINE
  5
39A
100
AcDbEntity
  8
RACCORDO
100
AcDbLine
 62
250
  6
CONTINUOUS
 10
24.4616008402
 20
26.7953352949
 11
24.4649810696
 21
26.5751645519
  0
LINE
  5
39B
100
AcDbEntity
  8
RACCORDO
100
AcDbLine
 62
250
  6
CONTINUOUS
 10
24.9470505994
 20
30.7859124227
 11
24.951643245
 21
30.4936061445
  0
LINE
  5
39C
100
AcDbEntity
  8
RACCORDO
100
AcDbLine
 62
250
  6
CONTINUOUS
 10
24.9588876916
 20
27.139589392
 11
24.9613038106
 21
26.9680377285
  0
LINE
  5
39D
100
AcDbEntity
  8
RACCORDO
100
AcDbLine
 62
250
  6
CONTINUOUS
 10
24.4531874693
 20
30.1958077699
 11
24.4551778073
 21
30.0351817515
  0
LINE
  5
39E
100
AcDbEntity
  8
RACCORDO
100
AcDbLine
 62
250
  6
CONTINUOUS
 10
24.4591862245
 20
27.0244275553
 11
24.4616008402
 21
26.7953352949
  0
LINE
  5
39F
100
AcDbEntity
  8
RACCORDO
100
AcDbLine
 62
250
  6
CONTINUOUS
 10
24.951643245
 20
30.4936061445
 11
24.9548692725
 21
30.1757869868
  0
LINE
  5
3A0
100
AcDbEntity
  8
RACCORDO
100
AcDbLine
 62
250
  6
CONTINUOUS
 10
24.9574425853
 20
27.3138784829
 11
24.9588876916
 21
27.139589392
  0
LINE
  5
3A1
100
AcDbEntity
  8
RACCORDO
100
AcDbLine
 62
250
  6
CONTINUOUS
 10
24.4551778073
 20
30.0351817515
 11
24.4569405547
 21
29.7849464897
  0
LINE
  5
3A2
100
AcDbEntity
  8
RACCORDO
100
AcDbLine
 62
250
  6
CONTINUOUS
 10
24.9548692725
 20
30.1757869868
 11
24.9566339302
 21
29.841724871
  0
LWPOLYLINE
  5
3A3
100
AcDbEntity
  8
RACCORDO
100
AcDbPolyline
 62
250
  6
CONTINUOUS
 90
3
 70
0
 10
24.4572791339
 20
27.4879401498
 10
24.4573894
 20
27.3717920025
 10
24.4591862245
 20
27.0244275553
  0
LINE
  5
3A4
100
AcDbEntity
  8
ASSI
100
AcDbLine
 62
7
  6
CONTINUOUS
 10
23.315576
 20
-8.8255054849
 11
23.315576
 21
-9.5842494849
  0
LINE
  5
3A5
100
AcDbEntity
  8
ASSI
100
AcDbLine
 62
7
  6
CONTINUOUS
 10
23.389012
 20
-3.9408994849
 11
23.389012
 21
-3.3116604849
  0
LINE
  5
3A6
100
AcDbEntity
  8
ASSI
100
AcDbLine
 62
7
  6
CONTINUOUS
 10
23.389012
 20
-3.0861694849
 11
23.389012
 21
-2.5087314849
  0
LINE
  5
3A7
100
AcDbEntity
  8
ASSI
100
AcDbLine
 62
7
  6
CONTINUOUS
 10
23.570014
 20
-9.5842494849
 11
23.570014
 21
-8.8255054849
  0
LINE
  5
3A8
100
AcDbEntity
  8
RACCORDO
100
AcDbLine
 62
250
  6
CONTINUOUS
 10
23.7511061566
 20
31.7693926358
 11
23.7511061566
 21
30.7690880493
  0
LINE
  5
3A9
100
AcDbEntity
  8
ASSI
100
AcDbLine
 62
7
  6
CONTINUOUS
 10
24.420173
 20
-3.3116604849
 11
24.420173
 21
-3.0861694849
  0
LINE
  5
3AA
100
AcDbEntity
  8
RACCORDO
100
AcDbLine
 62
7
  6
CONTINUOUS
 10
24.4217490058
 20
26.3651079123
 11
24.4217490058
 21
29.6156008127
  0
LINE
  5
3AB
100
AcDbEntity
  8
RACCORDO
100
AcDbLine
 62
250
  6
CONTINUOUS
 10
24.4569405547
 20
29.7849464897
 11
24.4572791339
 21
27.4879401498
  0
LINE
  5
3AC
100
AcDbEntity
  8
ASSI
100
AcDbLine
 62
7
  6
CONTINUOUS
 10
24.506713
 20
-2.5087314849
 11
24.506713
 21
-2.2832414849
  0
LINE
  5
3AD
100
AcDbEntity
  8
ASSI
100
AcDbLine
 62
7
  6
CONTINUOUS
 10
24.525148
 20
-4.1663894849
 11
24.525148
 21
-3.9408994849
  0
LINE
  5
3AE
100
AcDbEntity
  8
RACCORDO
100
AcDbLine
 62
250
  6
CONTINUOUS
 10
24.6248988275
 20
-37.9539123165
 11
24.6248988275
 21
-37.9342494849
  0
LINE
  5
3AF
100
AcDbEntity
  8
RACCORDO
100
AcDbLine
 62
250
  6
CONTINUOUS
 10
24.9566339302
 20
29.841724871
 11
24.9574425853
 21
27.3138784829
  0
LINE
  5
3B0
100
AcDbEntity
  8
RACCORDO
100
AcDbLine
 62
250
  6
CONTINUOUS
 10
25.124594241
 20
26.0844992158
 11
25.124594241
 21
26.0657505151
  0
LINE
  5
3B1
100
AcDbEntity
  8
RACCORDO
100
AcDbLine
 62
250
  6
CONTINUOUS
 10
25.124594241
 20
-37.9707633426
 11
25.124594241
 21
-37.9342494849
  0
LINE
  5
3B2
100
AcDbEntity
  8
ASSI
100
AcDbLine
 62
7
  6
CONTINUOUS
 10
23.981991
 20
-7.6995774849
 11
23.441424
 21
-8.6045854849
  0
LINE
  5
3B3
100
AcDbEntity
  8
ASSI
100
AcDbLine
 62
7
  6
CONTINUOUS
 10
23.570014
 20
-8.8255054849
 11
24.28107
 21
-7.6995774849
  0
LINE
  5
3B4
100
AcDbEntity
  8
ASSI
100
AcDbLine
 62
7
  6
CONTINUOUS
 10
3.24847
 20
-24.3795424849
 11
1.948632
 21
-24.9438804849
  0
LINE
  5
3B5
100
AcDbEntity
  8
ASSI
100
AcDbLine
 62
7
  6
CONTINUOUS
 10
1.52612
 20
-25.1273184849
 11
0.6552476908
 21
-25.5054166192
  0
LINE
  5
3B6
100
AcDbEntity
  8
ASSI
100
AcDbLine
 62
7
  6
CONTINUOUS
 10
2.743656
 20
-24.8951044849
 11
3.161735
 21
-24.7135914849
  0
LINE
  5
3B7
100
AcDbEntity
  8
RACCORDO
100
AcDbLine
 62
250
  6
CONTINUOUS
 10
-28.8436636218
 20
25.5832101894
 11
-28.55
 21
25.5841073821
  0
LINE
  5
3B8
100
AcDbEntity
  8
RACCORDO
100
AcDbLine
 62
250
  6
CONTINUOUS
 10
28.8216599959
 20
23.8354133466
 11
28.55
 21
23.8354133466
  0
LINE
  5
3B9
100
AcDbEntity
  8
RACCORDO
100
AcDbLine
 62
250
  6
CONTINUOUS
 10
-28.55
 20
23.8354133466
 11
-28.8216599959
 21
23.8354133466
  0
LINE
  5
3BA
100
AcDbEntity
  8
RACCORDO
100
AcDbLine
 62
250
  6
CONTINUOUS
 10
28.55
 20
25.7657505151
 11
-28.55
 21
25.7657505151
  0
LINE
  5
3BB
100
AcDbEntity
  8
RACCORDO
100
AcDbLine
 62
7
  6
CONTINUOUS
 10
28.25
 20
26.0657505151
 11
-28.25
 21
26.0657505151
  0
LINE
  5
3BC
100
AcDbEntity
  8
RACCORDO
100
AcDbLine
 62
7
  6
CONTINUOUS
 10
-25.124594241
 20
26.0844992158
 11
-28.8436636218
 21
26.0830793851
  0
LINE
  5
3BD
100
AcDbEntity
  8
RACCORDO
100
AcDbLine
 62
250
  6
CONTINUOUS
 10
28.55
 20
25.5841073821
 11
28.8436636218
 21
25.5832101894
  0
LINE
  5
3BE
100
AcDbEntity
  8
RACCORDO
100
AcDbLine
 62
7
  6
CONTINUOUS
 10
25.124594241
 20
26.0844992158
 11
28.8436636218
 21
26.0830793851
  0
LINE
  5
3BF
100
AcDbEntity
  8
RACCORDO
100
AcDbLine
 62
7
  6
CONTINUOUS
 10
28.8268637865
 20
30.5195389139
 11
28.8385671028
 21
29.1799197135
  0
LINE
  5
3C0
100
AcDbEntity
  8
RACCORDO
100
AcDbLine
 62
7
  6
CONTINUOUS
 10
28.8380904134
 20
37.6655614068
 11
28.8905740097
 21
31.6515369527
  0
LINE
  5
3C1
100
AcDbEntity
  8
RACCORDO
100
AcDbLine
 62
7
  6
CONTINUOUS
 10
28.8520243684
 20
11.5618057582
 11
28.8547793688
 21
10.1942875459
  0
LINE
  5
3C2
100
AcDbEntity
  8
RACCORDO
100
AcDbLine
 62
7
  6
CONTINUOUS
 10
28.8782033859
 20
11.5615772973
 11
28.8809583863
 21
10.1940590851
  0
LINE
  5
3C3
100
AcDbEntity
  8
RACCORDO
100
AcDbLine
 62
250
  6
CONTINUOUS
 10
27.091061287
 20
35.7613068242
 11
27.091061287
 21
37.2613068242
  0
LINE
  5
3C4
100
AcDbEntity
  8
RACCORDO
100
AcDbLine
 62
250
  6
CONTINUOUS
 10
28.25
 20
-9.9842494849
 11
28.25
 21
-37.9342494849
  0
LINE
  5
3C5
100
AcDbEntity
  8
RACCORDO
100
AcDbLine
 62
250
  6
CONTINUOUS
 10
28.25
 20
-1.8842494849
 11
28.25
 21
26.0657505151
  0
LINE
  5
3C6
100
AcDbEntity
  8
DRAFT
100
AcDbLine
 62
7
  6
CONTINUOUS
 10
28.542247945
 20
35.6181316693
 11
28.542247945
 21
32.5133693608
  0
LINE
  5
3C7
100
AcDbEntity
  8
RACCORDO
100
AcDbLine
 62
7
  6
CONTINUOUS
 10
28.55
 20
-37.6342494849
 11
28.55
 21
-9.9842494849
  0
LINE
  5
3C8
100
AcDbEntity
  8
RACCORDO
100
AcDbLine
 62
7
  6
CONTINUOUS
 10
28.55
 20
-1.8842494849
 11
28.55
 21
25.7657505151
  0
LINE
  5
3C9
100
AcDbEntity
  8
RACCORDO
100
AcDbLine
 62
250
  6
CONTINUOUS
 10
28.5910041716
 20
35.8132308725
 11
28.5910041716
 21
37.3132308725
  0
LINE
  5
3CA
100
AcDbEntity
  8
DRAFT
100
AcDbLine
 62
7
  6
CONTINUOUS
 10
28.7650617991
 20
4.6157505151
 11
28.7650617991
 21
-2.1715517669
  0
LINE
  5
3CB
100
AcDbEntity
  8
DRAFT
100
AcDbLine
 62
7
  6
CONTINUOUS
 10
28.7650617991
 20
-9.696947203
 11
28.7650617991
 21
-16.4842494849
  0
LINE
  5
3CC
100
AcDbEntity
  8
RACCORDO
100
AcDbLine
 62
7
  6
CONTINUOUS
 10
28.7839821828
 20
29.6146864963
 11
28.7839821828
 21
27.4879401498
  0
LINE
  5
3CD
100
AcDbEntity
  8
RACCORDO
100
AcDbLine
 62
7
  6
CONTINUOUS
 10
28.7924094452
 20
29.6057898458
 11
28.7924094452
 21
27.5214627151
  0
LINE
  5
3CE
100
AcDbEntity
  8
RACCORDO
100
AcDbLine
 62
7
  6
CONTINUOUS
 10
28.808105823
 20
10.2289042915
 11
28.808105823
 21
15.3025967387
  0
LINE
  5
3CF
100
AcDbEntity
  8
RACCORDO
100
AcDbLine
 62
7
  6
CONTINUOUS
 10
28.8255462428
 20
24.1457826816
 11
28.8255462428
 21
15.9018393965
  0
LINE
  5
3D0
100
AcDbEntity
  8
RACCORDO
100
AcDbLine
 62
7
  6
CONTINUOUS
 10
28.8258711482
 20
-36.20360773
 11
28.8258711482
 21
-37.9707633426
  0
LINE
  5
3D1
100
AcDbEntity
  8
RACCORDO
100
AcDbLine
 62
7
  6
CONTINUOUS
 10
28.8261965501
 20
13.2296047391
 11
28.8261965501
 21
11.8622707566
  0
LINE
  5
3D2
100
AcDbEntity
  8
RACCORDO
100
AcDbLine
 62
7
  6
CONTINUOUS
 10
28.8433248838
 20
-2.2342494849
 11
28.8433248838
 21
-9.6342494849
  0
LINE
  5
3D3
100
AcDbEntity
  8
DRAFT
100
AcDbLine
 62
7
  6
CONTINUOUS
 10
28.8433248838
 20
-23.4303806473
 11
28.8433248838
 21
-17.6342494849
  0
LINE
  5
3D4
100
AcDbEntity
  8
DRAFT
100
AcDbLine
 62
7
  6
CONTINUOUS
 10
28.8433248838
 20
-14.6342494849
 11
28.8433248838
 21
-11.8954635833
  0
LINE
  5
3D5
100
AcDbEntity
  8
DRAFT
100
AcDbLine
 62
7
  6
CONTINUOUS
 10
28.8433248838
 20
0.0269646135
 11
28.8433248838
 21
2.7657505151
  0
LINE
  5
3D6
100
AcDbEntity
  8
RACCORDO
100
AcDbLine
 62
7
  6
CONTINUOUS
 10
28.8433248838
 20
5.7657505151
 11
28.8433248838
 21
9.6258186622
  0
LINE
  5
3D7
100
AcDbEntity
  8
RACCORDO
100
AcDbLine
 62
7
  6
CONTINUOUS
 10
28.8436636218
 20
27.7712723534
 11
28.8436636218
 21
13.5269349777
  0
LINE
  5
3D8
100
AcDbEntity
  8
DRAFT
100
AcDbLine
 62
7
  6
CONTINUOUS
 10
28.8520517516
 20
-17.9342494849
 11
28.8520517516
 21
-19.8342494849
  0
LINE
  5
3D9
100
AcDbEntity
  8
DRAFT
100
AcDbLine
 62
7
  6
CONTINUOUS
 10
28.8520517516
 20
6.0657505151
 11
28.8520517516
 21
7.9657505151
  0
LINE
  5
3DA
100
AcDbEntity
  8
DRAFT
100
AcDbLine
 62
7
  6
CONTINUOUS
 10
28.8520698146
 20
-1.9342494849
 11
28.8520698146
 21
-9.9342494849
  0
LINE
  5
3DB
100
AcDbEntity
  8
DRAFT
100
AcDbLine
 62
7
  6
CONTINUOUS
 10
28.8607786194
 20
-11.8939365793
 11
28.8607786194
 21
-9.9342494849
  0
LINE
  5
3DC
100
AcDbEntity
  8
DRAFT
100
AcDbLine
 62
7
  6
CONTINUOUS
 10
28.8607786194
 20
-1.9342494849
 11
28.8607786194
 21
0.0254376095
  0
LINE
  5
3DD
100
AcDbEntity
  8
DRAFT
100
AcDbLine
 62
7
  6
CONTINUOUS
 10
28.8695054871
 20
7.9657505151
 11
28.8695054871
 21
3.0657505151
  0
LINE
  5
3DE
100
AcDbEntity
  8
DRAFT
100
AcDbLine
 62
7
  6
CONTINUOUS
 10
28.8695054871
 20
-19.8342494849
 11
28.8695054871
 21
-14.9342494849
  0
LINE
  5
3DF
100
AcDbEntity
  8
RACCORDO
100
AcDbLine
 62
7
  6
CONTINUOUS
 10
28.8695412466
 20
-22.1301404375
 11
28.8695412466
 21
-23.4301518605
  0
LINE
  5
3E0
100
AcDbEntity
  8
RACCORDO
100
AcDbLine
 62
7
  6
CONTINUOUS
 10
28.8695412466
 20
10.2616414676
 11
28.8695412466
 21
11.5616528907
  0
LINE
  5
3E1
100
AcDbEntity
  8
RACCORDO
100
AcDbLine
 62
7
  6
CONTINUOUS
 10
28.8956860905
 20
30.2373233903
 11
28.8956860905
 21
10.2614361516
  0
LINE
  5
3E2
100
AcDbEntity
  8
RACCORDO
100
AcDbLine
 62
7
  6
CONTINUOUS
 10
28.8956860905
 20
-22.1299351215
 11
28.8956860905
 21
-38.2501294985
  0
LINE
  5
3E3
100
AcDbEntity
  8
RACCORDO
100
AcDbLine
 62
7
  6
CONTINUOUS
 10
28.8520243684
 20
-23.430304728
 11
28.8547793688
 21
-22.0627865158
  0
LINE
  5
3E4
100
AcDbEntity
  8
RACCORDO
100
AcDbLine
 62
7
  6
CONTINUOUS
 10
28.8782033859
 20
-23.4300762672
 11
28.8809583863
 21
-22.0625580549
  0
LINE
  5
3E5
100
AcDbEntity
  8
RACCORDO
100
AcDbLine
 62
250
  6
CONTINUOUS
 10
28.8348141622
 20
29.6094997779
 11
28.7924094452
 21
29.6057898458
  0
LINE
  5
3E6
100
AcDbEntity
  8
RACCORDO
100
AcDbLine
 62
7
  6
CONTINUOUS
 10
28.8054399855
 20
31.1012219175
 11
28.814565206
 21
31.1020202709
  0
LINE
  5
3E7
100
AcDbEntity
  8
RACCORDO
100
AcDbLine
 62
250
  6
CONTINUOUS
 10
-28.7924094452
 20
27.5214627151
 11
-28.8436636218
 21
27.5213061248
  0
LINE
  5
3E8
100
AcDbEntity
  8
RACCORDO
100
AcDbLine
 62
250
  6
CONTINUOUS
 10
-24.4572791339
 20
27.4879401498
 11
-28.7839821828
 21
27.4879401498
  0
LINE
  5
3E9
100
AcDbEntity
  8
RACCORDO
100
AcDbLine
 62
250
  6
CONTINUOUS
 10
24.4572791339
 20
27.48794015
 11
28.7839821828
 21
27.4879401498
  0
LINE
  5
3EA
100
AcDbEntity
  8
RACCORDO
100
AcDbLine
 62
250
  6
CONTINUOUS
 10
28.7839821828
 20
29.6146864963
 11
24.4572791339
 21
29.6146864963
  0
LINE
  5
3EB
100
AcDbEntity
  8
RACCORDO
100
AcDbLine
 62
250
  6
CONTINUOUS
 10
-24.4572791339
 20
29.6146864963
 11
-28.7839821828
 21
29.6146864963
  0
LINE
  5
3EC
100
AcDbEntity
  8
RACCORDO
100
AcDbLine
 62
250
  6
CONTINUOUS
 10
28.8436636218
 20
27.5213061248
 11
28.7924094452
 21
27.5214627151
  0
LINE
  5
3ED
100
AcDbEntity
  8
RACCORDO
100
AcDbLine
 62
250
  6
CONTINUOUS
 10
-28.7924094452
 20
29.6057898458
 11
-28.8348141622
 21
29.6094997779
  0
LINE
  5
3EE
100
AcDbEntity
  8
RACCORDO
100
AcDbLine
 62
7
  6
CONTINUOUS
 10
-28.8054399855
 20
31.1012219175
 11
-28.814565206
 21
31.1020202709
  0
LINE
  5
3EF
100
AcDbEntity
  8
0
100
AcDbLine
 62
7
  6
CONTINUOUS
 10
29.85
 20
-1.9342494849
 11
29.85
 21
-9.9342494849
  0
LINE
  5
3F0
100
AcDbEntity
  8
RACCORDO
100
AcDbLine
 62
7
  6
CONTINUOUS
 10
30.65
 20
38.25134784
 11
30.65
 21
8.2657505151
  0
LINE
  5
3F1
100
AcDbEntity
  8
0
100
AcDbLine
 62
7
  6
CONTINUOUS
 10
30.65
 20
8.2657505151
 11
30.65
 21
2.7657505151
  0
LINE
  5
3F2
100
AcDbEntity
  8
RACCORDO
100
AcDbLine
 62
7
  6
CONTINUOUS
 10
30.65
 20
2.7657505151
 11
30.65
 21
-0.1310989779
  0
LINE
  5
3F3
100
AcDbEntity
  8
COPY-PUBBLISH
100
AcDbLine
 62
7
  6
CONTINUOUS
 10
30.65
 20
-20.1342494849
 11
30.65
 21
-21.8146140324
  0
LINE
  5
3F4
100
AcDbEntity
  8
RACCORDO
100
AcDbLine
 62
7
  6
CONTINUOUS
 10
30.65
 20
-21.8146140324
 11
30.65
 21
-38.2501294985
  0
LINE
  5
3F5
100
AcDbEntity
  8
0
100
AcDbLine
 62
7
  6
CONTINUOUS
 10
30.65
 20
-20.1342494849
 11
30.65
 21
-14.6342494849
  0
LINE
  5
3F6
100
AcDbEntity
  8
COPY-PUBBLISH
100
AcDbLine
 62
7
  6
CONTINUOUS
 10
30.65
 20
-14.6342494849
 11
30.65
 21
-0.1310989779
  0
LWPOLYLINE
  5
3F7
100
AcDbEntity
  8
RACCORDO
100
AcDbPolyline
 62
250
  6
CONTINUOUS
 90
15
 70
0
 10
-22.9443130823
 20
31.8486036924
 10
-23.046315737
 20
31.8439166077
 10
-23.1425338534
 20
31.8390222753
 10
-23.2327984521
 20
31.8339115597
 10
-23.3166736812
 20
31.8285935964
 10
-23.3937336126
 20
31.8231192351
 10
-23.4637933749
 20
31.8174832202
 10
-23.5266235826
 20
31.8116908072
 10
-23.5818749155
 20
31.8058086128
 10
-23.6294654455
 20
31.7998355325
 10
-23.6693404985
 20
31.7937726707
 10
-23.7013724848
 20
31.7876899572
 10
-23.7255997813
 20
31.7816107018
 10
-23.7421435126
 20
31.7755115947
 10
-23.7511061566
 20
31.7693926358
  0
LWPOLYLINE
  5
3F8
100
AcDbEntity
  8
RACCORDO
100
AcDbPolyline
 62
250
  6
CONTINUOUS
 90
19
 70
0
 10
24.9064214691
 20
31.6134681503
 10
24.8629036141
 20
31.6115165847
 10
24.8197164585
 20
31.605782727
 10
24.7771881756
 20
31.5963101514
 10
24.7356419287
 20
31.5831708411
 10
24.695393424
 20
31.5664646435
 10
24.6567485103
 20
31.5463185141
 10
24.6200008426
 20
31.5228855455
 10
24.5854296572
 20
31.4963438058
 10
24.5532976567
 20
31.4668949908
 10
24.5238490019
 20
31.4347628829
 10
24.4973074618
 20
31.4001916528
 10
24.4738747173
 20
31.3634440096
 10
24.4537288219
 20
31.3247991965
 10
24.4370228516
 20
31.2845508706
 10
24.423883744
 20
31.2430048758
 10
24.4144113311
 20
31.2004769141
 10
24.4086775817
 20
31.1572901458
 10
24.4067260556
 20
31.1137727368
  0
LWPOLYLINE
  5
3F9
100
AcDbEntity
  8
RACCORDO
100
AcDbPolyline
 62
250
  6
CONTINUOUS
 90
19
 70
0
 10
24.2508015701
 20
32.2690880493
 10
24.2072838964
 20
32.2671364997
 10
24.1640969054
 20
32.2614026873
 10
24.1215687669
 20
32.2519301823
 10
24.0800226445
 20
32.2387909644
 10
24.0397742392
 20
32.2220848762
 10
24.0011293913
 20
32.201938864
 10
23.9643817557
 20
32.1785060137
 10
23.9298105709
 20
32.1519643871
 10
23.8976785368
 20
32.1225156692
 10
23.8682298188
 20
32.0903836351
 10
23.8416881922
 20
32.0558124503
 10
23.8182553419
 20
32.0190648147
 10
23.7981093297
 20
31.9804199667
 10
23.7814032415
 20
31.9401715615
 10
23.7682640236
 20
31.898625439
 10
23.7587915186
 20
31.8560973005
 10
23.7530577062
 20
31.8129103095
 10
23.7511061566
 20
31.7693926358
  0
LINE
  5
3FA
100
AcDbEntity
  8
RACCORDO
100
AcDbLine
 62
250
  6
CONTINUOUS
 10
-22.7233719609
 20
31.857286139
 11
-22.9443130823
 21
31.8486036924
  0
LINE
  5
3FB
100
AcDbEntity
  8
RACCORDO
100
AcDbLine
 62
250
  6
CONTINUOUS
 10
-22.4815035116
 20
31.8650216826
 11
-22.7233719609
 21
31.857286139
  0
LINE
  5
3FC
100
AcDbEntity
  8
RACCORDO
100
AcDbLine
 62
250
  6
CONTINUOUS
 10
-22.9134522491
 20
32.3609803914
 11
-23.1838179076
 21
32.3527563496
  0
LINE
  5
3FD
100
AcDbEntity
  8
RACCORDO
100
AcDbLine
 62
250
  6
CONTINUOUS
 10
-22.2198051363
 20
31.8717437999
 11
-22.4815035116
 21
31.8650216826
  0
LINE
  5
3FE
100
AcDbEntity
  8
RACCORDO
100
AcDbLine
 62
250
  6
CONTINUOUS
 10
-22.6194454687
 20
32.3682110211
 11
-22.9134522491
 21
32.3609803914
  0
LINE
  5
3FF
100
AcDbEntity
  8
RACCORDO
100
AcDbLine
 62
250
  6
CONTINUOUS
 10
-21.9419711786
 20
31.8773346942
 11
-22.2198051363
 21
31.8717437999
  0
LINE
  5
400
100
AcDbEntity
  8
RACCORDO
100
AcDbLine
 62
250
  6
CONTINUOUS
 10
-22.303987104
 20
32.3743882647
 11
-22.6194454687
 21
32.3682110211
  0
LINE
  5
401
100
AcDbEntity
  8
RACCORDO
100
AcDbLine
 62
250
  6
CONTINUOUS
 10
-21.6516820555
 20
31.8817361411
 11
-21.9419711786
 21
31.8773346942
  0
LINE
  5
402
100
AcDbEntity
  8
RACCORDO
100
AcDbLine
 62
250
  6
CONTINUOUS
 10
-21.8009408304
 20
32.3814373533
 11
-22.303987104
 21
32.3743882647
  0
LINE
  5
403
100
AcDbEntity
  8
RACCORDO
100
AcDbLine
 62
250
  6
CONTINUOUS
 10
-21.2032641224
 20
31.8859649828
 11
-21.6516820555
 21
31.8817361411
  0
LINE
  5
404
100
AcDbEntity
  8
RACCORDO
100
AcDbLine
 62
250
  6
CONTINUOUS
 10
-21.2776413496
 20
32.385663987
 11
-21.8009408304
 21
32.3814373533
  0
LINE
  5
405
100
AcDbEntity
  8
RACCORDO
100
AcDbLine
 62
250
  6
CONTINUOUS
 10
-20.7529336756
 20
31.8873498185
 11
-21.2032641224
 21
31.8859649828
  0
LINE
  5
406
100
AcDbEntity
  8
RACCORDO
100
AcDbLine
 62
250
  6
CONTINUOUS
 10
-20.7529336756
 20
32.387045232
 11
-21.2776413496
 21
32.385663987
  0
LINE
  5
407
100
AcDbEntity
  8
RACCORDO
100
AcDbLine
 62
250
  6
CONTINUOUS
 10
30.65
 20
30.2373233903
 11
28.8956860905
 21
30.2373233903
  0
LINE
  5
408
100
AcDbEntity
  8
RACCORDO
100
AcDbLine
 62
250
  6
CONTINUOUS
 10
-28.8956860905
 20
30.2373233903
 11
-30.65
 21
30.2373233903
  0
LINE
  5
409
100
AcDbEntity
  8
RACCORDO
100
AcDbLine
 62
7
  6
CONTINUOUS
 10
20.7529336756
 20
30.8701942059
 11
-20.7529336756
 21
30.8701942059
  0
LINE
  5
40A
100
AcDbEntity
  8
RACCORDO
100
AcDbLine
 62
250
  6
CONTINUOUS
 10
28.7671375738
 20
31.6134681503
 11
24.9064214691
 21
31.6134681503
  0
LINE
  5
40B
100
AcDbEntity
  8
RACCORDO
100
AcDbLine
 62
250
  6
CONTINUOUS
 10
-24.9064214691
 20
31.6134681503
 11
-28.7671375738
 21
31.6134681503
  0
LINE
  5
40C
100
AcDbEntity
  8
RACCORDO
100
AcDbLine
 62
250
  6
CONTINUOUS
 10
30.65
 20
31.6515369527
 11
28.8905740097
 21
31.6515369527
  0
LINE
  5
40D
100
AcDbEntity
  8
RACCORDO
100
AcDbLine
 62
250
  6
CONTINUOUS
 10
-28.8905740097
 20
31.6515369527
 11
-30.65
 21
31.6515369527
  0
LINE
  5
40E
100
AcDbEntity
  8
RACCORDO
100
AcDbLine
 62
250
  6
CONTINUOUS
 10
-18.04
 20
31.8873498185
 11
-20.7529336756
 21
31.8873498185
  0
LINE
  5
40F
100
AcDbEntity
  8
DRAFT
100
AcDbLine
 62
7
  6
CONTINUOUS
 10
-17.04
 20
32.3701942059
 11
-6.68
 21
32.3701942059
  0
LINE
  5
410
100
AcDbEntity
  8
DRAFT
100
AcDbLine
 62
7
  6
CONTINUOUS
 10
-5.68
 20
32.3701942059
 11
4.68
 21
32.3701942059
  0
LINE
  5
411
100
AcDbEntity
  8
DRAFT
100
AcDbLine
 62
7
  6
CONTINUOUS
 10
5.68
 20
32.3701942059
 11
16.04
 21
32.3701942059
  0
LINE
  5
412
100
AcDbEntity
  8
RACCORDO
100
AcDbLine
 62
250
  6
CONTINUOUS
 10
-18.04
 20
32.387045232
 11
-20.7529336756
 21
32.387045232
  0
LINE
  5
413
100
AcDbEntity
  8
DRAFT
100
AcDbLine
 62
7
  6
CONTINUOUS
 10
28.542247945
 20
32.5133693608
 11
17.04
 21
32.5133693608
  0
LINE
  5
414
100
AcDbEntity
  8
DRAFT
100
AcDbLine
 62
7
  6
CONTINUOUS
 10
16.04
 20
32.5133693608
 11
5.68
 21
32.5133693608
  0
LINE
  5
415
100
AcDbEntity
  8
DRAFT
100
AcDbLine
 62
7
  6
CONTINUOUS
 10
4.68
 20
32.5133693608
 11
-5.68
 21
32.5133693608
  0
LINE
  5
416
100
AcDbEntity
  8
DRAFT
100
AcDbLine
 62
7
  6
CONTINUOUS
 10
-6.68
 20
32.5133693608
 11
-17.04
 21
32.5133693608
  0
LINE
  5
417
100
AcDbEntity
  8
DRAFT
100
AcDbLine
 62
7
  6
CONTINUOUS
 10
-18.04
 20
32.5133693608
 11
-28.542247945
 21
32.5133693608
  0
LINE
  5
418
100
AcDbEntity
  8
RACCORDO
100
AcDbLine
 62
250
  6
CONTINUOUS
 10
17.04
 20
32.387045232
 11
21.1026644821
 21
32.3864414567
  0
LINE
  5
419
100
AcDbEntity
  8
RACCORDO
100
AcDbLine
 62
250
  6
CONTINUOUS
 10
17.04
 20
31.8873498185
 11
21.052609293
 21
31.8867435774
  0
LINE
  5
41A
100
AcDbEntity
  8
RACCORDO
100
AcDbLine
 62
250
  6
CONTINUOUS
 10
21.1026644821
 20
32.3864414567
 11
21.6275941491
 21
32.3831649507
  0
LINE
  5
41B
100
AcDbEntity
  8
RACCORDO
100
AcDbLine
 62
250
  6
CONTINUOUS
 10
21.052609293
 20
31.8867435774
 11
21.5029879038
 21
31.8834647677
  0
LINE
  5
41C
100
AcDbEntity
  8
RACCORDO
100
AcDbLine
 62
250
  6
CONTINUOUS
 10
21.5029879038
 20
31.8834647677
 11
21.7974826645
 21
31.8796999284
  0
LINE
  5
41D
100
AcDbEntity
  8
RACCORDO
100
AcDbLine
 62
250
  6
CONTINUOUS
 10
21.6275941491
 20
32.3831649507
 11
22.1393097111
 21
32.3770444331
  0
LINE
  5
41E
100
AcDbEntity
  8
RACCORDO
100
AcDbLine
 62
250
  6
CONTINUOUS
 10
22.1393097111
 20
32.3770444331
 11
22.4633168959
 21
32.3714545372
  0
LINE
  5
41F
100
AcDbEntity
  8
RACCORDO
100
AcDbLine
 62
250
  6
CONTINUOUS
 10
21.7974826645
 20
31.8796999284
 11
22.0821898731
 21
31.8746972625
  0
LINE
  5
420
100
AcDbEntity
  8
RACCORDO
100
AcDbLine
 62
250
  6
CONTINUOUS
 10
22.4633168959
 20
32.3714545372
 11
22.7690068704
 21
32.3647316405
  0
LINE
  5
421
100
AcDbEntity
  8
RACCORDO
100
AcDbLine
 62
250
  6
CONTINUOUS
 10
22.0821898731
 20
31.8746972625
 11
22.3524576173
 21
31.8685225676
  0
LWPOLYLINE
  5
422
100
AcDbEntity
  8
RACCORDO
100
AcDbPolyline
 62
250
  6
CONTINUOUS
 90
3
 70
0
 10
22.7690068704
 20
32.3647316405
 10
23.0514543993
 20
32.3569948284
 10
23.1834597828
 20
32.3527684157
  0
LINE
  5
423
100
AcDbEntity
  8
RACCORDO
100
AcDbLine
 62
250
  6
CONTINUOUS
 10
22.3524576173
 20
31.8685225676
 11
22.6045759411
 21
31.8612954923
  0
LWPOLYLINE
  5
424
100
AcDbEntity
  8
RACCORDO
100
AcDbPolyline
 62
250
  6
CONTINUOUS
 90
17
 70
0
 10
22.6045759411
 20
31.8612954923
 10
22.83614933
 20
31.8530766176
 10
22.943884009
 20
31.8486224079
 10
23.0458737122
 20
31.8439379633
 10
23.1420840582
 20
31.8390463755
 10
23.2323442028
 20
31.8339387352
 10
23.3162211922
 20
31.8286239517
 10
23.3933015047
 20
31.8231518448
 10
23.4633998265
 20
31.8175169551
 10
23.5262798468
 20
31.811724742
 10
23.5815904164
 20
31.8058414029
 10
23.6292464146
 20
31.7998655769
 10
23.6691864017
 20
31.7937986249
 10
23.7012760819
 20
31.7877108268
 10
23.725550055
 20
31.7816256092
 10
23.7421269781
 20
31.7755195456
 10
23.7511061566
 20
31.7693926358
  0
LWPOLYLINE
  5
425
100
AcDbEntity
  8
RACCORDO
100
AcDbPolyline
 62
250
  6
CONTINUOUS
 90
13
 70
0
 10
-23.540896597
 20
32.338713288
 10
-23.6460712153
 20
32.3336006052
 10
-23.7441407009
 20
32.3282805823
 10
-23.8340290925
 20
32.3228041658
 10
-23.915618718
 20
32.3171661112
 10
-23.9890272494
 20
32.3113716629
 10
-24.0535317418
 20
32.3054875003
 10
-24.10894034
 20
32.2995115477
 10
-24.1554448992
 20
32.2934458809
 10
-24.1928980397
 20
32.287363407
 10
-24.2212506351
 20
32.2812884282
 10
-24.2405518119
 20
32.2751966423
 10
-24.2508015701
 20
32.2690880493
  0
LWPOLYLINE
  5
426
100
AcDbEntity
  8
RACCORDO
100
AcDbPolyline
 62
250
  6
CONTINUOUS
 90
3
 70
0
 10
-23.1838179076
 20
32.3527563496
 10
-23.3094587344
 20
32.3482983557
 10
-23.540896597
 20
32.338713288
  0
LINE
  5
427
100
AcDbEntity
  8
DRAFT
100
AcDbLine
 62
7
  6
CONTINUOUS
 10
-28.542247945
 20
35.6181316693
 11
-18.04
 21
35.6181316693
  0
LINE
  5
428
100
AcDbEntity
  8
DRAFT
100
AcDbLine
 62
7
  6
CONTINUOUS
 10
-17.04
 20
35.6181316693
 11
-6.68
 21
35.6181316693
  0
LINE
  5
429
100
AcDbEntity
  8
DRAFT
100
AcDbLine
 62
7
  6
CONTINUOUS
 10
-5.68
 20
35.6181316693
 11
4.68
 21
35.6181316693
  0
LINE
  5
42A
100
AcDbEntity
  8
DRAFT
100
AcDbLine
 62
7
  6
CONTINUOUS
 10
5.68
 20
35.6181316693
 11
16.04
 21
35.6181316693
  0
LINE
  5
42B
100
AcDbEntity
  8
DRAFT
100
AcDbLine
 62
7
  6
CONTINUOUS
 10
17.04
 20
35.6181316693
 11
28.542247945
 21
35.6181316693
  0
LINE
  5
42C
100
AcDbEntity
  8
RACCORDO
100
AcDbLine
 62
7
  6
CONTINUOUS
 10
27.091061287
 20
35.7613068242
 11
17.04
 21
35.7613068242
  0
LINE
  5
42D
100
AcDbEntity
  8
DRAFT
100
AcDbLine
 62
7
  6
CONTINUOUS
 10
16.04
 20
35.7613068242
 11
5.68
 21
35.7613068242
  0
LINE
  5
42E
100
AcDbEntity
  8
DRAFT
100
AcDbLine
 62
7
  6
CONTINUOUS
 10
4.68
 20
35.7613068242
 11
-5.68
 21
35.7613068242
  0
LINE
  5
42F
100
AcDbEntity
  8
DRAFT
100
AcDbLine
 62
7
  6
CONTINUOUS
 10
-6.68
 20
35.7613068242
 11
-17.04
 21
35.7613068242
  0
LINE
  5
430
100
AcDbEntity
  8
RACCORDO
100
AcDbLine
 62
7
  6
CONTINUOUS
 10
-18.04
 20
35.7613068242
 11
-27.091061287
 21
35.7613068242
  0
LWPOLYLINE
  5
431
100
AcDbEntity
  8
RACCORDO
100
AcDbPolyline
 62
250
  6
CONTINUOUS
 90
15
 70
0
 10
23.1834597828
 20
32.3527684157
 10
23.4283403739
 20
32.3436256966
 10
23.5404905331
 20
32.3387319435
 10
23.645655791
 20
32.3336220469
 10
23.7437210327
 20
32.3283049372
 10
23.8336211367
 20
32.3228305528
 10
23.9152456144
 20
32.3171934515
 10
23.9887049545
 20
32.3113990756
 10
24.053265501
 20
32.3055136906
 10
24.1087377105
 20
32.2995347432
 10
24.1553111264
 20
32.2934647868
 10
24.1928207229
 20
32.2873777467
 10
24.2212114914
 20
32.2812982646
 10
24.2405384405
 20
32.2752016988
 10
24.2508015701
 20
32.2690880493
  0
LWPOLYLINE
  5
432
100
AcDbEntity
  8
RACCORDO
100
AcDbPolyline
 62
250
  6
CONTINUOUS
 90
13
 70
0
 10
24.4067260556
 20
31.1137727368
 10
24.4097090725
 20
31.1083228292
 10
24.4126594602
 20
31.0981261151
 10
24.4155772189
 20
31.0831825945
 10
24.4184721149
 20
31.0634137426
 10
24.4213343819
 20
31.0388980841
 10
24.4241347204
 20
31.0098711942
 10
24.4268720974
 20
30.9762878455
 10
24.4295475461
 20
30.9381932652
 10
24.4321348669
 20
30.8959587099
 10
24.434633043
 20
30.8495459119
 10
24.4370430912
 20
30.7989931387
 10
24.4393418625
 20
30.74478645
  0
LWPOLYLINE
  5
433
100
AcDbEntity
  8
RACCORDO
100
AcDbPolyline
 62
250
  6
CONTINUOUS
 90
11
 70
0
 10
24.9064214691
 20
31.6134681503
 10
24.9094118777
 20
31.6062622011
 10
24.9123674125
 20
31.5926097241
 10
24.9152880738
 20
31.5725570365
 10
24.918182875
 20
31.5461728822
 10
24.9210428026
 20
31.5135437071
 10
24.9238408154
 20
31.4747697048
 10
24.926576636
 20
31.4299702963
 10
24.9292505418
 20
31.3792928574
 10
24.9318363233
 20
31.3229076166
 10
24.9343329257
 20
31.2610021755
  0
LINE
  5
434
100
AcDbEntity
  8
RACCORDO
100
AcDbLine
 62
7
  6
CONTINUOUS
 10
28.542247945
 20
32.5133693608
 11
28.7671375738
 21
31.6134681503
  0
LINE
  5
435
100
AcDbEntity
  8
RACCORDO
100
AcDbLine
 62
7
  6
CONTINUOUS
 10
-27.091061287
 20
37.2613068242
 11
27.091061287
 21
37.2613068242
  0
LINE
  5
436
100
AcDbEntity
  8
RACCORDO
100
AcDbLine
 62
250
  6
CONTINUOUS
 10
30.65
 20
37.6655614068
 11
28.8380904134
 21
37.6655614068
  0
LINE
  5
437
100
AcDbEntity
  8
RACCORDO
100
AcDbLine
 62
250
  6
CONTINUOUS
 10
-28.8380904134
 20
37.6655614068
 11
-30.65
 21
37.6655614068
  0
LINE
  5
438
100
AcDbEntity
  8
RACCORDO
100
AcDbLine
 62
7
  6
CONTINUOUS
 10
30.65
 20
38.2513478445
 11
28.8257487586
 21
38.2513478445
  0
LINE
  5
439
100
AcDbEntity
  8
RACCORDO
100
AcDbLine
 62
7
  6
CONTINUOUS
 10
-28.8257487586
 20
38.2513478445
 11
-30.65
 21
38.2513478445
  0
LWPOLYLINE
  5
43A
100
AcDbEntity
  8
RACCORDO
100
AcDbPolyline
 62
7
  6
CONTINUOUS
 90
7
 70
0
 10
28.3789491903
 20
26.0844992114
 10
28.3801391588
 20
26.0837641006
 10
28.3820633375
 20
26.0793685605
 10
28.3839420648
 20
26.0710418491
 10
28.3857894895
 20
26.0588490562
 10
28.3875914628
 20
26.0428860166
 10
28.3886108244
 20
26.0312254463
  0
LINE
  5
43B
100
AcDbEntity
  8
RACCORDO
100
AcDbLine
 62
7
  6
CONTINUOUS
 10
24.4048979797
 20
30.1152962263
 11
23.7511061566
 21
30.7690880493
  0
LINE
  5
43C
100
AcDbEntity
  8
RACCORDO
100
AcDbLine
 62
250
  6
CONTINUOUS
 10
23.7511061566
 20
31.7693926358
 11
24.4067260556
 21
31.1137727368
  0
LINE
  5
43D
100
AcDbEntity
  8
RACCORDO
100
AcDbLine
 62
250
  6
CONTINUOUS
 10
24.2508015701
 20
32.2690880493
 11
24.9064214691
 21
31.6134681503
  0
ARC
  5
43E
100
AcDbEntity
  8
ASSI
100
AcDbCircle
 62
7
  6
CONTINUOUS
 10
-17.564888
 20
-5.9362094849
 40
2.5499986575
100
AcDbArc
 50
87.752529198
 51
272.247470802
  0
ARC
  5
43F
100
AcDbEntity
  8
ASSI
100
AcDbCircle
 62
7
  6
CONTINUOUS
 10
-21.949998
 20
-5.9362094849
 40
2.5499985007
100
AcDbArc
 50
87.7525290597
 51
272.2474709403
  0
ARC
  5
440
100
AcDbEntity
  8
ASSI
100
AcDbCircle
 62
7
  6
CONTINUOUS
 10
-21.949998
 20
-5.9362094849
 40
1.7999999246
100
AcDbArc
 50
86.8152613297
 51
273.1847386703
  0
ARC
  5
441
100
AcDbEntity
  8
ASSI
100
AcDbCircle
 62
7
  6
CONTINUOUS
 10
-17.564888
 20
-5.9362094849
 40
1.7999999246
100
AcDbArc
 50
86.8152613297
 51
167.9753003079
  0
ARC
  5
442
100
AcDbEntity
  8
ASSI
100
AcDbCircle
 62
7
  6
CONTINUOUS
 10
-17.564888
 20
-5.9362094849
 40
1.7999968808
100
AcDbArc
 50
192.0247203293
 51
273.1847440612
  0
ARC
  5
443
100
AcDbEntity
  8
RACCORDO
100
AcDbCircle
 62
250
  6
CONTINUOUS
 10
-28.85
 20
-9.9842494849
 40
0.6
100
AcDbArc
 50
0.0
 51
90.0
  0
ARC
  5
444
100
AcDbEntity
  8
ASSI
100
AcDbCircle
 62
7
  6
CONTINUOUS
 10
-0.01934
 20
-25.4675334849
 40
0.4890862721
100
AcDbArc
 50
186.0890080839
 51
252.6039501608
  0
ARC
  5
445
100
AcDbEntity
  8
ASSI
100
AcDbCircle
 62
7
  6
CONTINUOUS
 10
-2.376625
 20
-25.4877484849
 40
0.4583408521
100
AcDbArc
 50
171.4768805277
 51
256.9485592673
  0
ARC
  5
446
100
AcDbEntity
  8
ASSI
100
AcDbCircle
 62
7
  6
CONTINUOUS
 10
-1.353486
 20
-24.0508174849
 40
0.3780951854
100
AcDbArc
 50
69.2439612236
 51
142.7061393729
  0
ARC
  5
447
100
AcDbEntity
  8
ASSI
100
AcDbCircle
 62
7
  6
CONTINUOUS
 10
-1.760864
 20
-25.3677364849
 40
0.3042605327
100
AcDbArc
 50
185.7437026585
 51
275.4687390067
  0
ARC
  5
448
100
AcDbEntity
  8
RACCORDO
100
AcDbCircle
 62
7
  6
CONTINUOUS
 10
-28.85
 20
-9.9842494849
 40
0.3
100
AcDbArc
 50
0.0
 51
90.0
  0
ARC
  5
449
100
AcDbEntity
  8
RACCORDO
100
AcDbCircle
 62
7
  6
CONTINUOUS
 10
-28.25
 20
-37.6342494849
 40
0.3
100
AcDbArc
 50
180.0
 51
270.0
  0
ARC
  5
44A
100
AcDbEntity
  8
RACCORDO
100
AcDbCircle
 62
250
  6
CONTINUOUS
 10
-28.85
 20
-1.8842494849
 40
0.6
100
AcDbArc
 50
270.0
 51
360.0
  0
ARC
  5
44B
100
AcDbEntity
  8
RACCORDO
100
AcDbCircle
 62
7
  6
CONTINUOUS
 10
-25.124594241
 20
25.5844992158
 40
0.5
100
AcDbArc
 50
74.3333137791
 51
90.0
  0
ARC
  5
44C
100
AcDbEntity
  8
RACCORDO
100
AcDbCircle
 62
7
  6
CONTINUOUS
 10
-28.85
 20
-1.8842494849
 40
0.3
100
AcDbArc
 50
270.0
 51
360.0
  0
ARC
  5
44D
100
AcDbEntity
  8
RACCORDO
100
AcDbCircle
 62
7
  6
CONTINUOUS
 10
-28.25
 20
25.7657505151
 40
0.3
100
AcDbArc
 50
90.0
 51
180.0
  0
ARC
  5
44E
100
AcDbEntity
  8
RACCORDO
100
AcDbCircle
 62
250
  6
CONTINUOUS
 10
28.85
 20
-9.9842494849
 40
0.6
100
AcDbArc
 50
90.0
 51
180.0
  0
ARC
  5
44F
100
AcDbEntity
  8
ASSI
100
AcDbCircle
 62
7
  6
CONTINUOUS
 10
3.680501
 20
-23.9230284849
 40
0.5209269161
100
AcDbArc
 50
4.8339919102
 51
69.4781004559
  0
ARC
  5
450
100
AcDbEntity
  8
ASSI
100
AcDbCircle
 62
7
  6
CONTINUOUS
 10
2.709033
 20
-23.9120194849
 40
0.477254
100
AcDbArc
 50
90.0
 51
165.4447948104
  0
ARC
  5
451
100
AcDbEntity
  8
ASSI
100
AcDbCircle
 62
7
  6
CONTINUOUS
 10
0.952612
 20
-25.4842634849
 40
0.4667972038
100
AcDbArc
 50
285.423573031
 51
341.0059682157
  0
ARC
  5
452
100
AcDbEntity
  8
ASSI
100
AcDbCircle
 62
7
  6
CONTINUOUS
 10
1.400628
 20
-23.8720864849
 40
0.4369271899
100
AcDbArc
 50
345.1449526191
 51
89.9991569212
  0
ARC
  5
453
100
AcDbEntity
  8
ASSI
100
AcDbCircle
 62
7
  6
CONTINUOUS
 10
2.208538
 20
-25.5343034849
 40
0.3999460142
100
AcDbArc
 50
165.444723266
 51
269.9999890059
  0
ARC
  5
454
100
AcDbEntity
  8
ASSI
100
AcDbCircle
 62
7
  6
CONTINUOUS
 10
1.004484
 20
-24.0585864849
 40
0.36899706
100
AcDbArc
 50
73.6976041409
 51
149.6961592365
  0
ARC
  5
455
100
AcDbEntity
  8
ASSI
100
AcDbCircle
 62
7
  6
CONTINUOUS
 10
2.967767
 20
-25.3591544849
 40
0.3401494623
100
AcDbArc
 50
176.7577644052
 51
259.7449096165
  0
ARC
  5
456
100
AcDbEntity
  8
RACCORDO
100
AcDbCircle
 62
7
  6
CONTINUOUS
 10
28.85
 20
-9.9842494849
 40
0.3
100
AcDbArc
 50
90.0
 51
180.0
  0
ARC
  5
457
100
AcDbEntity
  8
RACCORDO
100
AcDbCircle
 62
7
  6
CONTINUOUS
 10
28.25
 20
-37.6342494849
 40
0.3
100
AcDbArc
 50
270.0
 51
360.0
  0
ARC
  5
458
100
AcDbEntity
  8
ASSI
100
AcDbCircle
 62
7
  6
CONTINUOUS
 10
6.43078
 20
14.2363505151
 40
2.7099445987
100
AcDbArc
 50
297.7248090933
 51
306.6582901164
  0
ARC
  5
459
100
AcDbEntity
  8
ASSI
100
AcDbCircle
 62
7
  6
CONTINUOUS
 10
6.991569
 20
12.9478855151
 40
1.449951
100
AcDbArc
 50
0.0
 51
26.1670227722
  0
ARC
  5
45A
100
AcDbEntity
  8
ASSI
100
AcDbCircle
 62
7
  6
CONTINUOUS
 10
21.455559
 20
-3.2403294849
 40
1.3251813287
100
AcDbArc
 50
340.4162851987
 51
0.6705466477
  0
ARC
  5
45B
100
AcDbEntity
  8
ASSI
100
AcDbCircle
 62
7
  6
CONTINUOUS
 10
21.455559
 20
-3.2093014849
 40
1.3251808149
100
AcDbArc
 50
359.3289835238
 51
19.5838880581
  0
ARC
  5
45C
100
AcDbEntity
  8
ASSI
100
AcDbCircle
 62
7
  6
CONTINUOUS
 10
7.280543
 20
13.0109895151
 40
1.2206235249
100
AcDbArc
 50
309.0013471031
 51
330.5881505118
  0
ARC
  5
45D
100
AcDbEntity
  8
ASSI
100
AcDbCircle
 62
7
  6
CONTINUOUS
 10
21.378682
 20
-3.2248154849
 40
1.1421994749
100
AcDbArc
 50
336.2217983561
 51
23.7781691108
  0
ARC
  5
45E
100
AcDbEntity
  8
ASSI
100
AcDbCircle
 62
7
  6
CONTINUOUS
 10
7.330953
 20
12.9790255151
 40
1.1381441018
100
AcDbArc
 50
32.3061272483
 51
58.931036734
  0
ARC
  5
45F
100
AcDbEntity
  8
ASSI
100
AcDbCircle
 62
7
  6
CONTINUOUS
 10
7.365147
 20
12.8595925151
 40
1.0763728599
100
AcDbArc
 50
335.4024432744
 51
0.0001040797
  0
ARC
  5
460
100
AcDbEntity
  8
ASSI
100
AcDbCircle
 62
7
  6
CONTINUOUS
 10
7.519903
 20
13.2926335151
 40
0.7720131597
100
AcDbArc
 50
58.9311118574
 51
89.9998691896
  0
ARC
  5
461
100
AcDbEntity
  8
ASSI
100
AcDbCircle
 62
7
  6
CONTINUOUS
 10
22.004158
 20
-3.0457094849
 40
0.7624681784
100
AcDbArc
 50
53.1873105059
 51
89.9998753086
  0
ARC
  5
462
100
AcDbEntity
  8
ASSI
100
AcDbCircle
 62
7
  6
CONTINUOUS
 10
22.004158
 20
-3.4039224849
 40
0.762467
100
AcDbArc
 50
270.0
 51
306.8130005166
  0
ARC
  5
463
100
AcDbEntity
  8
ASSI
100
AcDbCircle
 62
7
  6
CONTINUOUS
 10
22.036371
 20
-3.0026694849
 40
0.7087080018
100
AcDbArc
 50
19.5840275391
 51
53.1873167794
  0
ARC
  5
464
100
AcDbEntity
  8
ASSI
100
AcDbCircle
 62
7
  6
CONTINUOUS
 10
22.036371
 20
-3.4469624849
 40
0.7087075511
100
AcDbArc
 50
306.8130178361
 51
340.4163725948
  0
ARC
  5
465
100
AcDbEntity
  8
ASSI
100
AcDbCircle
 62
7
  6
CONTINUOUS
 10
7.034795
 20
12.7565585151
 40
0.6516880976
100
AcDbArc
 50
62.1589307671
 51
89.9998941696
  0
ARC
  5
466
100
AcDbEntity
  8
ASSI
100
AcDbCircle
 62
7
  6
CONTINUOUS
 10
7.034795
 20
13.0586525151
 40
0.651688
100
AcDbArc
 50
270.0
 51
297.8408086568
  0
ARC
  5
467
100
AcDbEntity
  8
RACCORDO
100
AcDbCircle
 62
250
  6
CONTINUOUS
 10
28.85
 20
-1.8842494849
 40
0.6
100
AcDbArc
 50
180.0
 51
270.0
  0
ARC
  5
468
100
AcDbEntity
  8
ASSI
100
AcDbCircle
 62
7
  6
CONTINUOUS
 10
21.959363
 20
-3.0953074849
 40
0.5941936463
100
AcDbArc
 50
69.1806900594
 51
89.9989722647
  0
ARC
  5
469
100
AcDbEntity
  8
ASSI
100
AcDbCircle
 62
7
  6
CONTINUOUS
 10
21.959363
 20
-3.3543244849
 40
0.594193
100
AcDbArc
 50
270.0
 51
290.8195528661
  0
ARC
  5
46A
100
AcDbEntity
  8
RACCORDO
100
AcDbCircle
 62
7
  6
CONTINUOUS
 10
25.124594241
 20
25.5844992158
 40
0.5
100
AcDbArc
 50
90.0
 51
105.6666862209
  0
ARC
  5
46B
100
AcDbEntity
  8
ASSI
100
AcDbCircle
 62
7
  6
CONTINUOUS
 10
7.095255
 20
12.8915775151
 40
0.4843554524
100
AcDbArc
 50
327.1429582646
 51
359.9994417916
  0
ARC
  5
46C
100
AcDbEntity
  8
ASSI
100
AcDbCircle
 62
7
  6
CONTINUOUS
 10
7.095255
 20
12.9236335151
 40
0.484355
100
AcDbArc
 50
0.0
 51
32.8576612954
  0
ARC
  5
46D
100
AcDbEntity
  8
ASSI
100
AcDbCircle
 62
7
  6
CONTINUOUS
 10
22.000459
 20
-2.9872344849
 40
0.4785700667
100
AcDbArc
 50
27.7663470707
 51
69.1808281937
  0
ARC
  5
46E
100
AcDbEntity
  8
ASSI
100
AcDbCircle
 62
7
  6
CONTINUOUS
 10
22.000459
 20
-3.4623974849
 40
0.4785698136
100
AcDbArc
 50
290.8194734227
 51
332.23368216
  0
ARC
  5
46F
100
AcDbEntity
  8
ASSI
100
AcDbCircle
 62
7
  6
CONTINUOUS
 10
7.128955
 20
12.9350325151
 40
0.449946414
100
AcDbArc
 50
33.9666848201
 51
62.1474204628
  0
ARC
  5
470
100
AcDbEntity
  8
ASSI
100
AcDbCircle
 62
7
  6
CONTINUOUS
 10
7.128955
 20
12.8801785151
 40
0.4499458322
100
AcDbArc
 50
297.8522021016
 51
326.0339818725
  0
ARC
  5
471
100
AcDbEntity
  8
RACCORDO
100
AcDbCircle
 62
7
  6
CONTINUOUS
 10
28.25
 20
25.7657505151
 40
0.3
100
AcDbArc
 50
0.0
 51
90.0
  0
ARC
  5
472
100
AcDbEntity
  8
RACCORDO
100
AcDbCircle
 62
7
  6
CONTINUOUS
 10
28.85
 20
-1.8842494849
 40
0.3
100
AcDbArc
 50
180.0
 51
270.0
  0
ELLIPSE
  5
473
100
AcDbEntity
  8
DRAFT
100
AcDbEllipse
 62
7
  6
CONTINUOUS
 10
28.8494336912
 20
6.0657505151
 30
0.0
 11
0.0
 21
0.3
 31
0.0
 40
0.0087268678
 41
-3.1415926536
 42
-1.5707963268
  0
ELLIPSE
  5
474
100
AcDbEntity
  8
DRAFT
100
AcDbEllipse
 62
7
  6
CONTINUOUS
 10
28.8546698119
 20
7.9657505151
 30
0.0
 11
-0.0
 21
0.3
 31
0.0
 40
0.0087268678
 41
-0.0
 42
1.5707963268
  0
ELLIPSE
  5
475
100
AcDbEntity
  8
DRAFT
100
AcDbEllipse
 62
7
  6
CONTINUOUS
 10
28.8546698119
 20
-19.8342494849
 30
0.0
 11
-0.0
 21
0.3
 31
0.0
 40
0.0087268678
 41
1.5707963268
 42
3.1415926536
  0
ELLIPSE
  5
476
100
AcDbEntity
  8
DRAFT
100
AcDbEllipse
 62
7
  6
CONTINUOUS
 10
28.8494336912
 20
-17.9342494849
 30
0.0
 11
-0.0
 21
0.3
 31
0.0
 40
0.0087268678
 41
-1.5707963268
 42
0.0
  0
ELLIPSE
  5
477
100
AcDbEntity
  8
DRAFT
100
AcDbEllipse
 62
7
  6
CONTINUOUS
 10
28.703741817
 20
-16.4842494849
 30
0.0
 11
0.0
 21
7.0265719176
 31
0.0
 40
0.0087268703
 41
-3.1423561557
 42
-1.5707963268
  0
ELLIPSE
  5
478
100
AcDbEntity
  8
DRAFT
100
AcDbEllipse
 62
7
  6
CONTINUOUS
 10
28.703741817
 20
4.6157505151
 30
0.0
 11
0.0
 21
7.0265719176
 31
0.0
 40
0.0087268703
 41
-1.5707963268
 42
0.0007635021
  0
ELLIPSE
  5
479
100
AcDbEntity
  8
DRAFT
100
AcDbEllipse
 62
7
  6
CONTINUOUS
 10
-28.703741817
 20
4.6157505151
 30
0.0
 11
0.0
 21
7.0265719176
 31
0.0
 40
0.0087268703
 41
-0.0007635021
 42
1.5707963268
  0
ELLIPSE
  5
47A
100
AcDbEntity
  8
DRAFT
100
AcDbEllipse
 62
7
  6
CONTINUOUS
 10
-28.703741817
 20
-16.4842494849
 30
0.0
 11
0.0
 21
7.0265719176
 31
0.0
 40
0.0087268703
 41
-4.7123889804
 42
-3.1408291515
  0
ELLIPSE
  5
47B
100
AcDbEntity
  8
DRAFT
100
AcDbEllipse
 62
7
  6
CONTINUOUS
 10
-28.8494336912
 20
-17.9342494849
 30
0.0
 11
0.0
 21
0.3
 31
0.0
 40
0.0087268678
 41
0.0
 42
1.5707963268
  0
ELLIPSE
  5
47C
100
AcDbEntity
  8
DRAFT
100
AcDbEllipse
 62
7
  6
CONTINUOUS
 10
-28.8546698119
 20
-19.8342494849
 30
0.0
 11
0.0
 21
0.3
 31
0.0
 40
0.0087268678
 41
-3.1415926536
 42
-1.5707963268
  0
ELLIPSE
  5
47D
100
AcDbEntity
  8
DRAFT
100
AcDbEllipse
 62
7
  6
CONTINUOUS
 10
-28.8546698119
 20
7.9657505151
 30
0.0
 11
-0.0
 21
0.3
 31
0.0
 40
0.0087268678
 41
-1.5707963268
 42
-0.0
  0
ELLIPSE
  5
47E
100
AcDbEntity
  8
DRAFT
100
AcDbEllipse
 62
7
  6
CONTINUOUS
 10
-28.8494336912
 20
6.0657505151
 30
0.0
 11
0.0
 21
0.3
 31
0.0
 40
0.0087268678
 41
-4.7123889804
 42
-3.1415926536
  0
ELLIPSE
  5
47F
100
AcDbEntity
  8
RACCORDO
100
AcDbEllipse
 62
7
  6
CONTINUOUS
 10
25.124594241
 20
-37.9533029578
 30
0.0
 11
0.5
 21
-0.0
 31
0.0
 40
0.0349207695
 41
-3.1066860685
 42
-1.5707963268
  0
ELLIPSE
  5
480
100
AcDbEntity
  8
RACCORDO
100
AcDbEllipse
 62
7
  6
CONTINUOUS
 10
-25.124594241
 20
-37.9533029578
 30
0.0
 11
0.5
 21
0.0
 31
0.0
 40
0.0349207695
 41
-1.5707963268
 42
-0.034906585
  0
ELLIPSE
  5
481
100
AcDbEntity
  8
RACCORDO
100
AcDbEllipse
 62
7
  6
CONTINUOUS
 10
24.404288621
 20
26.3651079123
 30
0.0
 11
-0.0
 21
0.5
 31
0.0
 40
0.0349207695
 41
-2.2134363842
 42
-1.5707963268
  0
ELLIPSE
  5
482
100
AcDbEntity
  8
RACCORDO
100
AcDbEllipse
 62
7
  6
CONTINUOUS
 10
24.404288621
 20
29.6156008127
 30
0.0
 11
0.0
 21
0.5
 31
0.0
 40
0.0349207695
 41
-1.5707963268
 42
-0.034906585
  0
ELLIPSE
  5
483
100
AcDbEntity
  8
RACCORDO
100
AcDbEllipse
 62
7
  6
CONTINUOUS
 10
-24.404288621
 20
26.3651079123
 30
0.0
 11
0.0
 21
0.5
 31
0.0
 40
0.0349207695
 41
-4.7123889804
 42
-4.069748923
  0
ELLIPSE
  5
484
100
AcDbEntity
  8
RACCORDO
100
AcDbEllipse
 62
7
  6
CONTINUOUS
 10
-24.404288621
 20
29.6156008127
 30
0.0
 11
-0.0
 21
0.5
 31
0.0
 40
0.0349207695
 41
0.034906585
 42
1.5707963268
  0
ELLIPSE
  5
485
100
AcDbEntity
  8
RACCORDO
100
AcDbEllipse
 62
7
  6
CONTINUOUS
 10
27.091061287
 20
37.3136879785
 30
0.0
 11
1.5
 21
0.0
 31
0.0
 40
0.0349207695
 41
-1.5707963268
 42
-0.0087266463
  0
ELLIPSE
  5
486
100
AcDbEntity
  8
RACCORDO
100
AcDbEllipse
 62
7
  6
CONTINUOUS
 10
-27.091061287
 20
37.3136879785
 30
0.0
 11
1.5
 21
0.0
 31
0.0
 40
0.0349207695
 41
-3.1328660073
 42
-1.5707963268
  0
ELLIPSE
  5
487
100
AcDbEntity
  8
RACCORDO
100
AcDbEllipse
 62
7
  6
CONTINUOUS
 10
-28.8261298287
 20
27.7643200741
 30
0.0
 11
-0.0000609145
 21
2.00131494
 31
0.0
 40
0.0087610835
 41
0.7850754223
 42
1.5673221974
  0
ELLIPSE
  5
488
100
AcDbEntity
  8
RACCORDO
100
AcDbEllipse
 62
7
  6
CONTINUOUS
 10
-28.814510062
 20
29.0943757713
 30
0.0
 11
-0.00006845
 21
2.0076450814
 31
0.0
 40
0.0087020279
 41
-0.0007616276
 42
0.7814851476
  0
ELLIPSE
  5
489
100
AcDbEntity
  8
RACCORDO
100
AcDbEllipse
 62
7
  6
CONTINUOUS
 10
28.8261298287
 20
27.7643200741
 30
0.0
 11
0.0000609145
 21
2.00131494
 31
0.0
 40
0.0087610835
 41
-1.5673221974
 42
-0.7850754223
  0
ELLIPSE
  5
48A
100
AcDbEntity
  8
RACCORDO
100
AcDbEllipse
 62
7
  6
CONTINUOUS
 10
28.814510062
 20
29.0943757713
 30
0.0
 11
0.00006845
 21
2.0076450814
 31
0.0
 40
0.0087020279
 41
-0.7814851476
 42
0.0007616276
  0
ELLIPSE
  5
48B
100
AcDbEntity
  8
RACCORDO
100
AcDbEllipse
 62
7
  6
CONTINUOUS
 10
20.7529336756
 20
30.7654318974
 30
0.0
 11
3.0
 21
0.0
 31
0.0
 40
0.0349207695
 41
0.034906585
 42
1.5707963268
  0
ELLIPSE
  5
48C
100
AcDbEntity
  8
RACCORDO
100
AcDbEllipse
 62
7
  6
CONTINUOUS
 10
-20.7529336756
 20
30.7654318974
 30
0.0
 11
3.0
 21
-0.0
 31
0.0
 40
0.0349207695
 41
1.5707963268
 42
3.1066860685
  0
ELLIPSE
  5
48D
100
AcDbEntity
  8
RACCORDO
100
AcDbEllipse
 62
7
  6
CONTINUOUS
 10
28.8835092528
 20
10.2615424173
 30
0.0
 11
-0.0000000408
 21
0.300011423
 31
0.0
 40
0.0087262171
 41
-4.4855117566
 42
-3.1416688073
  0
ELLIPSE
  5
48E
100
AcDbEntity
  8
RACCORDO
100
AcDbEllipse
 62
7
  6
CONTINUOUS
 10
28.8835092528
 20
-22.1300413871
 30
0.0
 11
0.0000000408
 21
0.300011423
 31
0.0
 40
0.0087262171
 41
0.5599600492
 42
1.343919103
  0
ELLIPSE
  5
48F
100
AcDbEntity
  8
RACCORDO
100
AcDbEllipse
 62
7
  6
CONTINUOUS
 10
28.8573302354
 20
10.2617708781
 30
0.0
 11
-0.0000000408
 21
0.300011423
 31
0.0
 40
0.0087262171
 41
-4.4855117566
 42
-3.1416688073
  0
ELLIPSE
  5
490
100
AcDbEntity
  8
RACCORDO
100
AcDbEllipse
 62
7
  6
CONTINUOUS
 10
28.8573302354
 20
-22.1302698479
 30
0.0
 11
0.0000000408
 21
0.300011423
 31
0.0
 40
0.0087262171
 41
0.5599600492
 42
1.343919103
  0
ELLIPSE
  5
491
100
AcDbEntity
  8
RACCORDO
100
AcDbEllipse
 62
7
  6
CONTINUOUS
 10
28.8288266191
 20
13.227087096
 30
0.0
 11
-0.0000219895
 21
0.301147787
 31
0.0
 40
0.0087331774
 41
-0.0007646964
 42
1.5624354338
  0
ELLIPSE
  5
492
100
AcDbEntity
  8
RACCORDO
100
AcDbEllipse
 62
7
  6
CONTINUOUS
 10
28.8288266191
 20
11.8620196254
 30
0.0
 11
-0.0000022017
 21
0.3000114419
 31
0.0
 40
0.0087665591
 41
1.5699591901
 42
3.1415160846
  0
ELLIPSE
  5
493
100
AcDbEntity
  8
RACCORDO
100
AcDbEllipse
 62
7
  6
CONTINUOUS
 10
-28.8288266191
 20
11.8620196254
 30
0.0
 11
0.0000022017
 21
0.3000114419
 31
0.0
 40
0.0087665591
 41
-3.1415160846
 42
-1.5699591901
  0
ELLIPSE
  5
494
100
AcDbEntity
  8
RACCORDO
100
AcDbEllipse
 62
7
  6
CONTINUOUS
 10
-28.8288266191
 20
13.227087096
 30
0.0
 11
0.0000219895
 21
0.301147787
 31
0.0
 40
0.0087331774
 41
-1.5624354338
 42
0.0007646964
  0
ELLIPSE
  5
495
100
AcDbEntity
  8
RACCORDO
100
AcDbEllipse
 62
7
  6
CONTINUOUS
 10
-28.8835092528
 20
10.2615424173
 30
0.0
 11
0.0000000408
 21
0.300011423
 31
0.0
 40
0.0087262171
 41
-2.5816326044
 42
-1.7976735506
  0
ELLIPSE
  5
496
100
AcDbEntity
  8
RACCORDO
100
AcDbEllipse
 62
7
  6
CONTINUOUS
 10
-28.8573302354
 20
10.2617708781
 30
0.0
 11
0.0000000408
 21
0.300011423
 31
0.0
 40
0.0087262171
 41
-2.5816326044
 42
-1.7976735506
  0
ELLIPSE
  5
497
100
AcDbEntity
  8
RACCORDO
100
AcDbEllipse
 62
7
  6
CONTINUOUS
 10
-28.8835092528
 20
-22.1300413871
 30
0.0
 11
-0.0000000408
 21
0.300011423
 31
0.0
 40
0.0087262171
 41
-1.343919103
 42
-0.0000761537
  0
ELLIPSE
  5
498
100
AcDbEntity
  8
RACCORDO
100
AcDbEllipse
 62
7
  6
CONTINUOUS
 10
-28.8573302354
 20
-22.1302698479
 30
0.0
 11
-0.0000000408
 21
0.300011423
 31
0.0
 40
0.0087262171
 41
-1.343919103
 42
-0.0000761537
  0
ELLIPSE
  5
499
100
AcDbEntity
  8
RACCORDO
100
AcDbEllipse
 62
7
  6
CONTINUOUS
 10
-28.8407068234
 20
-9.6342494849
 30
0.0
 11
-0.0
 21
0.3
 31
0.0
 40
0.0087268678
 41
-4.7123889804
 42
-3.6652767398
  0
ELLIPSE
  5
49A
100
AcDbEntity
  8
RACCORDO
100
AcDbEllipse
 62
7
  6
CONTINUOUS
 10
-28.8407068234
 20
-2.2342494849
 30
0.0
 11
0.0
 21
0.3
 31
0.0
 40
0.0087268678
 41
-0.0
 42
1.5707963268
  0
ELLIPSE
  5
49B
100
AcDbEntity
  8
RACCORDO
100
AcDbEllipse
 62
7
  6
CONTINUOUS
 10
28.8407068234
 20
-2.2342494849
 30
0.0
 11
-0.0
 21
0.3
 31
0.0
 40
0.0087268678
 41
-1.5707963268
 42
-0.5236840862
  0
ELLIPSE
  5
49C
100
AcDbEntity
  8
RACCORDO
100
AcDbEllipse
 62
7
  6
CONTINUOUS
 10
28.8407068234
 20
-9.6342494849
 30
0.0
 11
0.0
 21
0.3
 31
0.0
 40
0.0087268678
 41
-3.1415926536
 42
-1.5707963268
  0
ELLIPSE
  5
49D
100
AcDbEntity
  8
RACCORDO
100
AcDbEllipse
 62
7
  6
CONTINUOUS
 10
28.8215077143
 20
-36.20360773
 30
0.0
 11
0.0
 21
0.5
 31
0.0
 40
0.0087268678
 41
-1.5707963268
 42
-0.034906585
  0
ELLIPSE
  5
49E
100
AcDbEntity
  8
DRAFT
100
AcDbEllipse
 62
7
  6
CONTINUOUS
 10
28.6077462154
 20
-16.4842494849
 30
0.0
 11
0.0
 21
7.0181733932
 31
0.0
 40
0.0087268703
 41
-4.3731140232
 42
-3.1423561557
  0
ELLIPSE
  5
49F
100
AcDbEntity
  8
DRAFT
100
AcDbEllipse
 62
7
  6
CONTINUOUS
 10
28.6077462154
 20
4.6157505151
 30
0.0
 11
0.0
 21
7.0181733932
 31
0.0
 40
0.0087268703
 41
0.0007635021
 42
1.2315213696
  0
ELLIPSE
  5
4A0
100
AcDbEntity
  8
RACCORDO
100
AcDbEllipse
 62
7
  6
CONTINUOUS
 10
-28.7970724845
 20
27.4879401498
 30
0.0
 11
0.0
 21
1.5
 31
0.0
 40
0.0087268678
 41
-2.7838960804
 42
-1.5707963268
  0
ELLIPSE
  5
4A1
100
AcDbEntity
  8
DRAFT
100
AcDbEllipse
 62
7
  6
CONTINUOUS
 10
-28.6077462154
 20
4.6157505151
 30
0.0
 11
0.0
 21
7.0181733932
 31
0.0
 40
0.0087268703
 41
-1.2315213696
 42
-0.0007635021
  0
ELLIPSE
  5
4A2
100
AcDbEntity
  8
DRAFT
100
AcDbEllipse
 62
7
  6
CONTINUOUS
 10
-28.6077462154
 20
-16.4842494849
 30
0.0
 11
0.0
 21
7.0181733932
 31
0.0
 40
0.0087268703
 41
-3.1408291515
 42
-1.9100712839
  0
ELLIPSE
  5
4A3
100
AcDbEntity
  8
RACCORDO
100
AcDbEllipse
 62
7
  6
CONTINUOUS
 10
27.091061287
 20
35.8136879785
 30
0.0
 11
1.5
 21
0.0
 31
0.0
 40
0.0349207695
 41
-1.5707963268
 42
-0.0087266463
  0
ELLIPSE
  5
4A4
100
AcDbEntity
  8
RACCORDO
100
AcDbEllipse
 62
7
  6
CONTINUOUS
 10
-27.091061287
 20
35.8136879785
 30
0.0
 11
1.5
 21
0.0
 31
0.0
 40
0.0349207695
 41
-3.1328660073
 42
-1.5707963268
  0
ELLIPSE
  5
4A5
100
AcDbEntity
  8
DRAFT
100
AcDbEllipse
 62
7
  6
CONTINUOUS
 10
-28.8668874268
 20
-19.8342494849
 30
0.0
 11
0.0
 21
0.3
 31
0.0
 40
0.0087268678
 41
-4.7123889804
 42
-3.1415926536
  0
ELLIPSE
  5
4A6
100
AcDbEntity
  8
RACCORDO
100
AcDbEllipse
 62
7
  6
CONTINUOUS
 10
-28.8055397247
 20
29.5955008873
 30
0.0
 11
0.0000897292
 21
1.5057214684
 31
0.0
 40
0.0087200543
 41
-1.5639625124
 42
-0.0007623821
  0
ELLIPSE
  5
4A7
100
AcDbEntity
  8
DRAFT
100
AcDbEllipse
 62
7
  6
CONTINUOUS
 10
-28.8668874268
 20
-14.9342494849
 30
0.0
 11
0.0
 21
0.3
 31
0.0
 40
0.0087268678
 41
-0.0
 42
1.5707963268
  0
ELLIPSE
  5
4A8
100
AcDbEntity
  8
RACCORDO
100
AcDbEllipse
 62
7
  6
CONTINUOUS
 10
-28.8055397247
 20
27.5218220134
 30
0.0
 11
-0.0000031454
 21
1.5000069904
 31
0.0
 40
0.0087534786
 41
-2.8558955849
 42
-1.5710358763
  0
ELLIPSE
  5
4A9
100
AcDbEntity
  8
RACCORDO
100
AcDbEllipse
 62
7
  6
CONTINUOUS
 10
28.8055397247
 20
29.5955008873
 30
0.0
 11
-0.0000897292
 21
1.5057214684
 31
0.0
 40
0.0087200543
 41
0.0007623821
 42
1.5639625124
  0
ELLIPSE
  5
4AA
100
AcDbEntity
  8
DRAFT
100
AcDbEllipse
 62
7
  6
CONTINUOUS
 10
-28.8668874268
 20
3.0657505151
 30
0.0
 11
0.0
 21
0.3
 31
0.0
 40
0.0087268678
 41
-4.7123889804
 42
-3.1415926536
  0
ELLIPSE
  5
4AB
100
AcDbEntity
  8
DRAFT
100
AcDbEllipse
 62
7
  6
CONTINUOUS
 10
-28.8668874268
 20
7.9657505151
 30
0.0
 11
0.0
 21
0.3
 31
0.0
 40
0.0087268678
 41
-0.0
 42
1.5707963268
  0
ELLIPSE
  5
4AC
100
AcDbEntity
  8
RACCORDO
100
AcDbEllipse
 62
7
  6
CONTINUOUS
 10
28.8782323549
 20
30.2373233903
 30
0.0
 11
0.0
 21
2.0
 31
0.0
 40
0.0087268678
 41
-1.5707963268
 42
-0.7853981634
  0
ELLIPSE
  5
4AD
100
AcDbEntity
  8
RACCORDO
100
AcDbEllipse
 62
7
  6
CONTINUOUS
 10
34.1150261514
 20
24.3351087601
 30
0.0
 11
5.7150261514
 21
-0.0
 31
0.0
 40
0.0874886635
 41
-2.9119776872
 42
-2.7532530706
  0
ELLIPSE
  5
4AE
100
AcDbEntity
  8
RACCORDO
100
AcDbEllipse
 62
7
  6
CONTINUOUS
 10
28.8257487586
 20
36.2513478445
 30
0.0
 11
-0.0
 21
2.0
 31
0.0
 40
0.0087268678
 41
-0.7853981634
 42
-0.0000000001
  0
ELLIPSE
  5
4AF
100
AcDbEntity
  8
RACCORDO
100
AcDbEllipse
 62
7
  6
CONTINUOUS
 10
-34.1150261514
 20
24.3351087601
 30
0.0
 11
5.7150261514
 21
-0.0
 31
0.0
 40
0.0874886635
 41
-0.388339583
 42
-0.2296149664
  0
ELLIPSE
  5
4B0
100
AcDbEntity
  8
RACCORDO
100
AcDbEllipse
 62
7
  6
CONTINUOUS
 10
-28.8782323549
 20
30.2373233903
 30
0.0
 11
0.0
 21
2.0
 31
0.0
 40
0.0087268678
 41
0.7853981634
 42
1.5707963268
  0
ELLIPSE
  5
4B1
100
AcDbEntity
  8
RACCORDO
100
AcDbEllipse
 62
7
  6
CONTINUOUS
 10
-28.7665284472
 20
29.6146864963
 30
0.0
 11
0.0
 21
2.0
 31
0.0
 40
0.0087268678
 41
0.034906585
 42
1.5707963268
  0
ELLIPSE
  5
4B2
100
AcDbEntity
  8
RACCORDO
100
AcDbEllipse
 62
7
  6
CONTINUOUS
 10
28.7665284472
 20
29.6146864963
 30
0.0
 11
0.0
 21
2.0
 31
0.0
 40
0.0087268678
 41
-1.5707963268
 42
-0.034906585
  0
ELLIPSE
  5
4B3
100
AcDbEntity
  8
DRAFT
100
AcDbEllipse
 62
7
  6
CONTINUOUS
 10
28.8668874268
 20
7.9657505151
 30
0.0
 11
0.0
 21
0.3
 31
0.0
 40
0.0087268678
 41
-1.5707963268
 42
-0.0
  0
ELLIPSE
  5
4B4
100
AcDbEntity
  8
DRAFT
100
AcDbEllipse
 62
7
  6
CONTINUOUS
 10
28.8668874268
 20
3.0657505151
 30
0.0
 11
0.0
 21
0.3
 31
0.0
 40
0.0087268678
 41
-3.1415926536
 42
-1.5707963268
  0
ELLIPSE
  5
4B5
100
AcDbEntity
  8
RACCORDO
100
AcDbEllipse
 62
7
  6
CONTINUOUS
 10
-28.8215077143
 20
-36.20360773
 30
0.0
 11
0.0
 21
0.5
 31
0.0
 40
0.0087268678
 41
0.034906585
 42
1.5707963268
  0
ELLIPSE
  5
4B6
100
AcDbEntity
  8
DRAFT
100
AcDbEllipse
 62
7
  6
CONTINUOUS
 10
28.8668874268
 20
-14.9342494849
 30
0.0
 11
0.0
 21
0.3
 31
0.0
 40
0.0087268678
 41
-1.5707963268
 42
-0.0
  0
ELLIPSE
  5
4B7
100
AcDbEntity
  8
DRAFT
100
AcDbEllipse
 62
7
  6
CONTINUOUS
 10
28.8668874268
 20
-19.8342494849
 30
0.0
 11
-0.0
 21
0.3
 31
0.0
 40
0.0087268678
 41
-3.1415926536
 42
-1.5707963268
  0
ELLIPSE
  5
4B8
100
AcDbEntity
  8
RACCORDO
100
AcDbEllipse
 62
7
  6
CONTINUOUS
 10
28.8669228871
 20
10.2616871643
 30
0.0
 11
-0.0000003988
 21
0.3000114261
 31
0.0
 40
0.0087275323
 41
-2.6180334145
 42
-1.5709486548
  0
ELLIPSE
  5
4B9
100
AcDbEntity
  8
RACCORDO
100
AcDbEllipse
 62
7
  6
CONTINUOUS
 10
28.8669228871
 20
-22.1301861341
 30
0.0
 11
0.0000003988
 21
0.3000114261
 31
0.0
 40
0.0087275323
 41
4.7125413084
 42
6.2832614828
  0
ELLIPSE
  5
4BA
100
AcDbEntity
  8
RACCORDO
100
AcDbEllipse
 62
7
  6
CONTINUOUS
 10
-28.8229201869
 20
15.9038971883
 30
0.0
 11
0.0000179458
 21
0.3011442937
 31
0.0
 40
0.0087200543
 41
-4.705555166
 42
-3.1423550357
  0
ELLIPSE
  5
4BB
100
AcDbEntity
  8
RACCORDO
100
AcDbEllipse
 62
7
  6
CONTINUOUS
 10
28.8229201869
 20
15.9038971883
 30
0.0
 11
-0.0000179458
 21
0.3011442937
 31
0.0
 40
0.0087200543
 41
-3.1408302715
 42
-1.5776301412
  0
ELLIPSE
  5
4BC
100
AcDbEntity
  8
RACCORDO
100
AcDbEllipse
 62
7
  6
CONTINUOUS
 10
28.8407068234
 20
9.6260477128
 30
0.0
 11
-0.0000019914
 21
0.3011460384
 31
0.0
 40
0.0086936544
 41
-1.5715569808
 42
-0.000760654
  0
ELLIPSE
  5
4BD
100
AcDbEntity
  8
RACCORDO
100
AcDbEllipse
 62
7
  6
CONTINUOUS
 10
28.8930680302
 20
10.2614589991
 30
0.0
 11
-0.0000001994
 21
0.3000114244
 31
0.0
 40
0.0087265354
 41
-3.1416688147
 42
-1.5708724879
  0
ELLIPSE
  5
4BE
100
AcDbEntity
  8
RACCORDO
100
AcDbEllipse
 62
7
  6
CONTINUOUS
 10
-28.8930680302
 20
10.2614589991
 30
0.0
 11
0.0000001994
 21
0.3000114244
 31
0.0
 40
0.0087265354
 41
-4.7123128193
 42
-3.1415164925
  0
ELLIPSE
  5
4BF
100
AcDbEntity
  8
RACCORDO
100
AcDbEllipse
 62
7
  6
CONTINUOUS
 10
-28.8669228871
 20
10.2616871643
 30
0.0
 11
0.0000003988
 21
0.3000114261
 31
0.0
 40
0.0087275323
 41
1.5709486548
 42
3.1416688292
  0
ELLIPSE
  5
4C0
100
AcDbEntity
  8
RACCORDO
100
AcDbEllipse
 62
7
  6
CONTINUOUS
 10
28.8930680302
 20
-22.1299579689
 30
0.0
 11
0.0000001994
 21
0.3000114244
 31
0.0
 40
0.0087265354
 41
-1.5707201657
 42
0.0000761611
  0
ELLIPSE
  5
4C1
100
AcDbEntity
  8
RACCORDO
100
AcDbEllipse
 62
7
  6
CONTINUOUS
 10
-28.8930680302
 20
-22.1299579689
 30
0.0
 11
-0.0000001994
 21
0.3000114244
 31
0.0
 40
0.0087265354
 41
-0.0000761611
 42
1.5707201657
  0
ELLIPSE
  5
4C2
100
AcDbEntity
  8
RACCORDO
100
AcDbEllipse
 62
7
  6
CONTINUOUS
 10
-28.8669228871
 20
-22.1301861341
 30
0.0
 11
-0.0000003988
 21
0.3000114261
 31
0.0
 40
0.0087275323
 41
0.5235592391
 42
1.5706439987
  0
ELLIPSE
  5
4C3
100
AcDbEntity
  8
RACCORDO
100
AcDbEllipse
 62
7
  6
CONTINUOUS
 10
-28.8107318789
 20
10.2309620832
 30
0.0
 11
-0.0000179458
 21
0.3011442937
 31
0.0
 40
0.0087200543
 41
-3.1408302715
 42
-1.5776301412
  0
ELLIPSE
  5
4C4
100
AcDbEntity
  8
RACCORDO
100
AcDbEllipse
 62
7
  6
CONTINUOUS
 10
-28.8107318789
 20
15.300538947
 30
0.0
 11
0.0000179458
 21
0.3011442937
 31
0.0
 40
0.0087200543
 41
-1.5639625124
 42
-0.5218076493
  0
ELLIPSE
  5
4C5
100
AcDbEntity
  8
RACCORDO
100
AcDbEllipse
 62
7
  6
CONTINUOUS
 10
28.8107318789
 20
15.300538947
 30
0.0
 11
-0.0000179458
 21
0.3011442937
 31
0.0
 40
0.0087200543
 41
0.0007623821
 42
1.5639625124
  0
ELLIPSE
  5
4C6
100
AcDbEntity
  8
RACCORDO
100
AcDbEllipse
 62
7
  6
CONTINUOUS
 10
28.8107318789
 20
10.2309620832
 30
0.0
 11
0.0000179458
 21
0.3011442937
 31
0.0
 40
0.0087200543
 41
-4.705555166
 42
-3.8590369475
  0
ELLIPSE
  5
4C7
100
AcDbEntity
  8
RACCORDO
100
AcDbEllipse
 62
7
  6
CONTINUOUS
 10
28.8284892085
 20
-2.2342494849
 30
0.0
 11
0.0
 21
0.3
 31
0.0
 40
0.0087268678
 41
0.0
 42
0.8507439171
  0
ELLIPSE
  5
4C8
100
AcDbEntity
  8
RACCORDO
100
AcDbEllipse
 62
7
  6
CONTINUOUS
 10
-28.8284892085
 20
-2.2342494849
 30
0.0
 11
-0.0
 21
0.3
 31
0.0
 40
0.0087268678
 41
-1.3979219094
 42
-0.8507443036
  0
ELLIPSE
  5
4C9
100
AcDbEntity
  8
RACCORDO
100
AcDbEllipse
 62
7
  6
CONTINUOUS
 10
28.8284892085
 20
-9.6342494849
 30
0.0
 11
0.0
 21
0.3
 31
0.0
 40
0.0087268678
 41
-4.539514563
 42
-3.9923369572
  0
ELLIPSE
  5
4CA
100
AcDbEntity
  8
RACCORDO
100
AcDbEllipse
 62
7
  6
CONTINUOUS
 10
-28.8284892085
 20
-9.6342494849
 30
0.0
 11
-0.0
 21
0.3
 31
0.0
 40
0.0087268678
 41
-3.1415926536
 42
-2.2908487365
  0
ELLIPSE
  5
4CB
100
AcDbEntity
  8
RACCORDO
100
AcDbEllipse
 62
7
  6
CONTINUOUS
 10
28.8055397247
 20
27.5218220134
 30
0.0
 11
0.0000031454
 21
1.5000069904
 31
0.0
 40
0.0087534786
 41
-4.7121494309
 42
-3.4272897223
  0
ELLIPSE
  5
4CC
100
AcDbEntity
  8
RACCORDO
100
AcDbEllipse
 62
7
  6
CONTINUOUS
 10
28.7970724845
 20
27.4879401498
 30
0.0
 11
0.0
 21
1.5
 31
0.0
 40
0.0087268678
 41
1.5707963268
 42
2.7838960804
  0
ELLIPSE
  5
4CD
100
AcDbEntity
  8
RACCORDO
100
AcDbEllipse
 62
7
  6
CONTINUOUS
 10
-28.8257487586
 20
36.2513478445
 30
0.0
 11
0.0
 21
2.0
 31
0.0
 40
0.0087268678
 41
0.0000000001
 42
0.7853981634
  0
ENDSEC
  0
SECTION
  2
OBJECTS
  0
DICTIONARY
  5
C
100
AcDbDictionary
280
0
281
1
  3
ACAD_GROUP
350
D
  3
ACAD_MLINESTYLE
350
17
  3
ACAD_LAYOUT
350
1A
  3
ACAD_PLOTSETTINGS
350
19
  3
ACAD_PLOTSTYLENAME
350
E
  0
DICTIONARY
  5
D
102
{ACAD_REACTORS
330
C
102
}
100
AcDbDictionary
280
0
281
1
  0
ACDBDICTIONARYWDFLT
  5
E
102
{ACAD_REACTORS
330
C
102
}
100
AcDbDictionary
281
1
  3
Normal
350
F
100
AcDbDictionaryWithDefault
340
F
  0
DICTIONARY
  5
17
102
{ACAD_REACTORS
330
C
102
}
100
AcDbDictionary
280
0
281
1
  3
Standard
350
18
  0
DICTIONARY
  5
19
102
{ACAD_REACTORS
330
C
102
}
100
AcDbDictionary
281
1
  0
DICTIONARY
  5
1A
102
{ACAD_REACTORS
330
C
102
}
100
AcDbDictionary
281
1
  3
Model
350
4CE
  3
Layout1
350
4CF
  0
ACDBPLACEHOLDER
  5
F
102
{ACAD_REACTORS
330
E
102
}
  0
MLINESTYLE
  5
18
102
{ACAD_REACTORS
330
17
102
}
100
AcDbMlineStyle
  2
STANDARD
 70
0
  3

 62
256
 51
90.0
 52
90.0
 71
2
 49
0.5
 62
256
  6
BYLAYER
 49
-0.5
 62
256
  6
BYLAYER
  0
LAYOUT
  5
4CE
102
{ACAD_REACTORS
330
1A
102
}
100
AcDbPlotSettings
  1

  2
none_device
  4
ISO_A4_(297.00_x_210.00_MM)
  6

 40
0.0
 41
0.0
 42
0.0
 43
0.0
 44
297.0
 45
210.0
 46
0.0
 47
0.0
 48
0.0
 49
0.0
140
0.0
141
0.0
142
1.0
143
1.0
 70
1024
 72
1
 73
0
 74
0
  7

 75
0
147
1.0
148
0.0
149
0.0
100
AcDbLayout
  1
Model
 70
0
 71
0
 10
0.0
 20
0.0
 11
297.0
 21
210.0
 12
0.0
 22
0.0
 32
0.0
 14
0.0
 24
0.0
 34
0.0
 15
0.0
 25
0.0
 35
0.0
146
0.0
 13
0.0
 23
0.0
 33
0.0
 16
1.0
 26
0.0
 36
0.0
 17
0.0
 27
1.0
 37
0.0
 76
0
330
214
345
0
346
0
  0
LAYOUT
  5
4CF
102
{ACAD_REACTORS
330
1A
102
}
100
AcDbPlotSettings
  1

  2
none_device
  4
ISO_A4_(297.00_x_210.00_MM)
  6

 40
0.0
 41
0.0
 42
0.0
 43
0.0
 44
297.0
 45
210.0
 46
0.0
 47
0.0
 48
0.0
 49
0.0
140
0.0
141
0.0
142
1.0
143
1.0
 70
0
 72
1
 73
0
 74
0
  7

 75
0
147
1.0
148
0.0
149
0.0
100
AcDbLayout
  1
Layout1
 70
0
 71
1
 10
0.0
 20
0.0
 11
297.0
 21
210.0
 12
0.0
 22
0.0
 32
0.0
 14
0.0
 24
0.0
 34
0.0
 15
0.0
 25
0.0
 35
0.0
146
0.0
 13
0.0
 23
0.0
 33
0.0
 16
1.0
 26
0.0
 36
0.0
 17
0.0
 27
1.0
 37
0.0
 76
0
330
215
345
0
346
0
  0
ENDSEC
  0
EOF
