  0
SECTION
  2
HEADER
  9
$ACADVER
  1
AC1024
  9
$DWGCODEPAGE
  3
ANSI_1252
  9
$EXTMAX
 10
297.0
 20
210.0
 30
0.0
  9
$EXTMIN
 10
0.0
 20
0.0
 30
0.0
  9
$LIMMIN
 10
0.0
 20
0.0
  9
$LIMMAX
 10
297.0
 20
210.0
  9
$VIEWCTR
 10
148.5
 20
105.0
  9
$VIEWSIZE
 40
210.0
  9
$CLAYER
  8
0
  9
$LTSCALE
 40
16.335
  9
$CELTYPE
  6
BYLAYER
  9
$DIMSCALE
 40
1.0
  9
$DIMASZ
 40
3.0
  9
$DIMEXO
 40
0.5
  9
$DIMDLI
 40
11.286
  9
$DIMEXE
 40
1.5
  9
$DIMCEN
 40
2.673
  9
$DIMLFAC
 40
1.0
  9
$DIMBLK
  1
_FILLED
  9
$DIMALT
 70
0
  9
$DIMALTF
 40
0.0393700787
  9
$DIMTXT
 40
3.0
  9
$DIMTOL
 70
1
  9
$DIMLIM
 70
0
  9
$DIMTFAC
 40
1.0
  9
$DIMTP
 40
0.01
  9
$DIMTM
 40
0.01
  9
$DIMGAP
 40
0.625
  9
$DIMDSEP
 70
44
  9
$AUNITS
 70
0
  9
$PDMODE
 70
3
  9
$PDSIZE
 40
3.0
  9
$HANDSEED
  5
56B
  9
$TILEMODE
 70
1
  9
$MEASUREMENT
 70
1
  9
$INSUNITS
 70
4
  0
ENDSEC
  0
SECTION
  2
CLASSES
  0
CLASS
  1
ACDBDICTIONARYWDFLT
  2
AcDbDictionaryWithDefault
  3
AutoCAD 2000
 90
0
 91
1
280
0
281
0
  0
CLASS
  1
ACDBPLACEHOLDER
  2
AcDbPlaceHolder
  3
AutoCAD 2000
 90
0
 91
1
280
0
281
0
  0
CLASS
  1
LAYOUT
  2
AcDbLayout
  3
AutoCAD 2000
 90
0
 91
0
280
0
281
0
  0
ENDSEC
  0
SECTION
  2
TABLES
  0
TABLE
  2
VPORT
  5
8
100
AcDbSymbolTable
 70
2
  0
VPORT
  5
1F4
100
AcDbSymbolTableRecord
100
AcDbViewportTableRecord
  2
*ACTIVE
 70
0
 10
0.0
 20
0.0
 11
1.0
 21
1.0
 12
148.5
 22
105.0
 13
0.0
 23
0.0
 14
1.0
 24
1.0
 15
0.0
 25
0.0
 16
0.0
 26
0.0
 36
1.0
 17
0.0
 27
0.0
 37
0.0
 40
210.0
 41
1.4142857143
 42
50.0
 43
0.0
 44
0.0
 50
0.0
 51
0.0
 71
0
 72
100
 73
1
 74
1
 75
0
 76
0
 77
0
 78
0
  0
ENDTAB
  0
TABLE
  2
LTYPE
  5
5
100
AcDbSymbolTable
 70
6
  0
LTYPE
  5
14
100
AcDbSymbolTableRecord
100
AcDbLinetypeTableRecord
  2
BYBLOCK
 70
0
  3

 72
65
 73
0
 40
0.0
  0
LTYPE
  5
15
100
AcDbSymbolTableRecord
100
AcDbLinetypeTableRecord
  2
BYLAYER
 70
0
  3

 72
65
 73
0
 40
0.0
  0
LTYPE
  5
16
100
AcDbSymbolTableRecord
100
AcDbLinetypeTableRecord
  2
CONTINUOUS
 70
64
  3
Solid line
 72
65
 73
0
 40
0.0
  0
LTYPE
  5
1F5
100
AcDbSymbolTableRecord
100
AcDbLinetypeTableRecord
  2
CENTER
 70
64
  3
____ _ ____ _ ____ _ ____ _ ____ _ ____ _ ____
 72
65
 73
4
 40
0.6
 49
0.375
 74
0
 49
-0.075
 74
0
 49
0.075
 74
0
 49
-0.075
 74
0
  0
LTYPE
  5
1F6
100
AcDbSymbolTableRecord
100
AcDbLinetypeTableRecord
  2
HIDDEN
 70
64
  3
- - - - - - - - - - - - - - - - - - - -
 72
65
 73
2
 40
0.2
 49
0.1
 74
0
 49
-0.1
 74
0
  0
LTYPE
  5
1F7
100
AcDbSymbolTableRecord
100
AcDbLinetypeTableRecord
  2
PHANTOM
 70
64
  3
_____ _ _ _____ _ _ _____ _ _ _____
 72
65
 73
6
 40
0.8
 49
0.45
 74
0
 49
-0.05
 74
0
 49
0.1
 74
0
 49
-0.05
 74
0
 49
0.1
 74
0
 49
-0.05
 74
0
  0
LTYPE
  5
1F8
100
AcDbSymbolTableRecord
100
AcDbLinetypeTableRecord
  2
DOT
 70
64
  3
. . . . . . . . . . . . . . . . . . . .
 72
65
 73
2
 40
0.2
 49
0.1
 74
0
 49
-0.1
 74
0
  0
LTYPE
  5
1F9
100
AcDbSymbolTableRecord
100
AcDbLinetypeTableRecord
  2
DASHED
 70
64
  3
- - - - - - - - - - - - - - - - - - - -
 72
65
 73
2
 40
0.2
 49
0.1
 74
0
 49
-0.1
 74
0
  0
ENDTAB
  0
TABLE
  2
LAYER
  5
2
100
AcDbSymbolTable
 70
36
  0
LAYER
  5
10
100
AcDbSymbolTableRecord
100
AcDbLayerTableRecord
  2
0
 70
0
 62
7
  6
CONTINUOUS
370
-3
390
F
  0
LAYER
  5
1FA
100
AcDbSymbolTableRecord
100
AcDbLayerTableRecord
  2
DEFAULT_1
 70
0
 62
7
  6
CENTER
370
-3
390
F
  0
LAYER
  5
1FB
100
AcDbSymbolTableRecord
100
AcDbLayerTableRecord
  2
DEFAULT_2
 70
0
 62
7
  6
HIDDEN
370
-3
390
F
  0
LAYER
  5
1FC
100
AcDbSymbolTableRecord
100
AcDbLayerTableRecord
  2
DEFAULT_3
 70
0
 62
7
  6
PHANTOM
370
-3
390
F
  0
LAYER
  5
1FD
100
AcDbSymbolTableRecord
100
AcDbLayerTableRecord
  2
ASSI
 70
0
 62
7
  6
CONTINUOUS
370
-3
390
F
  0
LAYER
  5
1FE
100
AcDbSymbolTableRecord
100
AcDbLayerTableRecord
  2
COORDINATE
 70
0
 62
7
  6
CONTINUOUS
370
-3
390
F
  0
LAYER
  5
1FF
100
AcDbSymbolTableRecord
100
AcDbLayerTableRecord
  2
COORD_ORIGINE
 70
0
 62
7
  6
CONTINUOUS
370
-3
390
F
  0
LAYER
  5
200
100
AcDbSymbolTableRecord
100
AcDbLayerTableRecord
  2
COSMETICI
 70
0
 62
7
  6
CONTINUOUS
370
-3
390
F
  0
LAYER
  5
201
100
AcDbSymbolTableRecord
100
AcDbLayerTableRecord
  2
CURVE
 70
0
 62
7
  6
CONTINUOUS
370
-3
390
F
  0
LAYER
  5
202
100
AcDbSymbolTableRecord
100
AcDbLayerTableRecord
  2
DRAFT
 70
0
 62
7
  6
CONTINUOUS
370
-3
390
F
  0
LAYER
  5
203
100
AcDbSymbolTableRecord
100
AcDbLayerTableRecord
  2
IMPORT
 70
0
 62
7
  6
CONTINUOUS
370
-3
390
F
  0
LAYER
  5
204
100
AcDbSymbolTableRecord
100
AcDbLayerTableRecord
  2
INTF_1
 70
0
 62
7
  6
CONTINUOUS
370
-3
390
F
  0
LAYER
  5
205
100
AcDbSymbolTableRecord
100
AcDbLayerTableRecord
  2
NOTE
 70
0
 62
7
  6
CONTINUOUS
370
-3
390
F
  0
LAYER
  5
206
100
AcDbSymbolTableRecord
100
AcDbLayerTableRecord
  2
PIANI
 70
0
 62
7
  6
CONTINUOUS
370
-3
390
F
  0
LAYER
  5
207
100
AcDbSymbolTableRecord
100
AcDbLayerTableRecord
  2
PIANI_ORIGINE
 70
0
 62
7
  6
CONTINUOUS
370
-3
390
F
  0
LAYER
  5
208
100
AcDbSymbolTableRecord
100
AcDbLayerTableRecord
  2
PUNTI
 70
0
 62
7
  6
CONTINUOUS
370
-3
390
F
  0
LAYER
  5
209
100
AcDbSymbolTableRecord
100
AcDbLayerTableRecord
  2
RACCORDO
 70
0
 62
7
  6
CONTINUOUS
370
-3
390
F
  0
LAYER
  5
20A
100
AcDbSymbolTableRecord
100
AcDbLayerTableRecord
  2
RGB____0____0____0__
 70
0
 62
7
  6
CONTINUOUS
370
-3
390
F
  0
LAYER
  5
20B
100
AcDbSymbolTableRecord
100
AcDbLayerTableRecord
  2
SIMBOLI
 70
0
 62
7
  6
CONTINUOUS
370
-3
390
F
  0
LAYER
  5
20C
100
AcDbSymbolTableRecord
100
AcDbLayerTableRecord
  2
SNAPLINE
 70
0
 62
7
  6
CONTINUOUS
370
-3
390
F
  0
LAYER
  5
20D
100
AcDbSymbolTableRecord
100
AcDbLayerTableRecord
  2
SUPERFICI
 70
0
 62
7
  6
CONTINUOUS
370
-3
390
F
  0
LAYER
  5
20E
100
AcDbSymbolTableRecord
100
AcDbLayerTableRecord
  2
TRASH
 70
0
 62
7
  6
CONTINUOUS
370
-3
390
F
  0
LAYER
  5
20F
100
AcDbSymbolTableRecord
100
AcDbLayerTableRecord
  2
XSEC_DATUMS
 70
0
 62
7
  6
CONTINUOUS
370
-3
390
F
  0
ENDTAB
  0
TABLE
  2
STYLE
  5
3
100
AcDbSymbolTable
 70
1
  0
STYLE
  5
11
100
AcDbSymbolTableRecord
100
AcDbTextStyleTableRecord
  2
STANDARD
 70
0
 40
0.0
 41
0.8
 50
0.0
 71
0
 42
0.2
  3
txt
  4

  0
STYLE
  5
210
100
AcDbSymbolTableRecord
100
AcDbTextStyleTableRecord
  2
TEXTSTYLE_1
 70
0
 40
0.0
 41
0.8
 50
0.0
 71
0
 42
0.2
  3
gdt
  4

  0
ENDTAB
  0
TABLE
  2
VIEW
  5
6
100
AcDbSymbolTable
 70
0
  0
ENDTAB
  0
TABLE
  2
UCS
  5
7
100
AcDbSymbolTable
 70
0
  0
ENDTAB
  0
TABLE
  2
APPID
  5
9
100
AcDbSymbolTable
 70
1
  0
APPID
  5
211
100
AcDbSymbolTableRecord
100
AcDbRegAppTableRecord
  2
ACAD
 70
0
  0
ENDTAB
  0
TABLE
  2
BLOCK_RECORD
  5
1
100
AcDbSymbolTable
 70
0
  0
BLOCK_RECORD
  5
212
100
AcDbSymbolTableRecord
100
AcDbBlockTableRecord
  2
*Model_Space
  0
BLOCK_RECORD
  5
213
100
AcDbSymbolTableRecord
100
AcDbBlockTableRecord
  2
*Paper_Space
  0
BLOCK_RECORD
  5
214
100
AcDbSymbolTableRecord
100
AcDbBlockTableRecord
  2
_FILLED
  0
ENDTAB
  0
TABLE
  2
DIMSTYLE
  5
A
100
AcDbSymbolTable
 70
1
100
AcDbDimStyleTable
 71
0
  0
DIMSTYLE
105
215
100
AcDbSymbolTableRecord
100
AcDbDimStyleTableRecord
  2
STANDARD
 70
0
  3

  4

 40
1.0
 41
3.0
 42
0.5
 43
0.38
 44
1.5
 45
0.0
 46
0.0
 47
0.01
 48
0.01
140
3.0
141
0.09
142
0.0
143
25.4
144
1.0
145
0.0
146
1.0
147
0.625
 71
1
 72
0
 73
0
 74
0
 75
0
 76
0
 77
1
 78
8
 79
2
170
0
171
1
172
0
173
0
174
0
175
0
176
0
177
0
178
0
270
2
179
2
271
2
272
2
273
2
274
2
275
0
280
0
281
0
282
0
283
1
284
8
285
0
286
0
287
3
288
0
340
11
278
44
341
214
342
214
343
214
344
214
  0
ENDTAB
  0
ENDSEC
  0
SECTION
  2
BLOCKS
  0
BLOCK
  5
20
100
AcDbEntity
  8
0
100
AcDbBlockBegin
  2
*Model_Space
 70
0
 10
0.0
 20
0.0
 30
0.0
  3
*Model_Space
  1

  0
ENDBLK
  5
21
100
AcDbEntity
  8
0
100
AcDbBlockEnd
  0
BLOCK
  5
1C
100
AcDbEntity
  8
0
100
AcDbBlockBegin
  2
*Paper_Space
 70
0
 10
0.0
 20
0.0
 30
0.0
  3
*Paper_Space
  1

  0
ENDBLK
  5
1D
100
AcDbEntity
  8
0
100
AcDbBlockEnd
  0
BLOCK
  5
216
100
AcDbEntity
  8
0
100
AcDbBlockBegin
  2
_FILLED
 70
64
 10
0.0
 20
0.0
  3
_FILLED
  1

  0
SOLID
  5
217
100
AcDbEntity
  8
0
  6
BYBLOCK
 62
0
100
AcDbTrace
 10
0.0
 20
0.0
 11
-1.0
 21
0.3166666667
 12
-1.0
 22
-0.3166666667
 13
-1.0
 23
-0.3166666667
  0
ENDBLK
  5
218
100
AcDbEntity
  8
0
  6
BYBLOCK
 62
0
100
AcDbBlockEnd
  0
ENDSEC
  0
SECTION
  2
ENTITIES
  0
LWPOLYLINE
  5
219
100
AcDbEntity
  8
RACCORDO
100
AcDbPolyline
 62
250
  6
CONTINUOUS
 90
19
 70
0
 10
-82.7462125047
 20
-38.4466236443
 10
-82.7450022228
 20
-38.4727206246
 10
-82.7415236052
 20
-38.4986188407
 10
-82.7358031927
 20
-38.5241214215
 10
-82.7278846178
 20
-38.5490343759
 10
-82.7178281403
 20
-38.5731685004
 10
-82.7057100666
 20
-38.5963407681
 10
-82.6916216111
 20
-38.6183762807
 10
-82.6756705142
 20
-38.6391061128
 10
-82.6579809666
 20
-38.6583697187
 10
-82.6386903039
 20
-38.676019638
 10
-82.6179440022
 20
-38.691924689
 10
-82.5958966858
 20
-38.7059669894
 10
-82.5726997937
 20
-38.7180473514
 10
-82.5485441626
 20
-38.7280637914
 10
-82.5236605678
 20
-38.7359274755
 10
-82.4982573181
 20
-38.7415880776
 10
-82.4725133521
 20
-38.7450208421
 10
-82.4466236443
 20
-38.7462125047
  0
LINE
  5
21A
100
AcDbEntity
  8
RACCORDO
100
AcDbLine
 62
250
  6
CONTINUOUS
 10
-82.7462125403
 20
38.4466236798
 11
-82.7191449837
 21
32.3765357547
  0
LINE
  5
21B
100
AcDbEntity
  8
RACCORDO
100
AcDbLine
 62
250
  6
CONTINUOUS
 10
-82.4466235566
 20
38.4742367328
 11
-82.4195196276
 21
32.3908244234
  0
LINE
  5
21C
100
AcDbEntity
  8
RACCORDO
100
AcDbLine
 62
250
  6
CONTINUOUS
 10
-82.7191449837
 20
32.3765357547
 11
-82.6967212167
 21
26.3
  0
LINE
  5
21D
100
AcDbEntity
  8
RACCORDO
100
AcDbLine
 62
250
  6
CONTINUOUS
 10
-82.4195196276
 20
32.3908244234
 11
-82.3970699693
 21
26.3
  0
LINE
  5
21E
100
AcDbEntity
  8
RACCORDO
100
AcDbLine
 62
250
  6
CONTINUOUS
 10
-82.6941165111
 20
25.5
 11
-82.6873698782
 21
23.3
  0
LINE
  5
21F
100
AcDbEntity
  8
RACCORDO
100
AcDbLine
 62
250
  6
CONTINUOUS
 10
-82.3944690084
 20
25.5
 11
-82.3877320728
 21
23.3
  0
LINE
  5
220
100
AcDbEntity
  8
RACCORDO
100
AcDbLine
 62
250
  6
CONTINUOUS
 10
-82.3854333511
 20
22.4999999998
 11
-82.3787688087
 21
20.0
  0
LINE
  5
221
100
AcDbEntity
  8
RACCORDO
100
AcDbLine
 62
250
  6
CONTINUOUS
 10
-82.6850678484
 20
22.4999999998
 11
-82.678393717
 21
20.0
  0
LINE
  5
222
100
AcDbEntity
  8
RACCORDO
100
AcDbLine
 62
250
  6
CONTINUOUS
 10
-82.6655850846
 20
14.0
 11
-82.6589095285
 21
9.467402254
  0
LINE
  5
223
100
AcDbEntity
  8
RACCORDO
100
AcDbLine
 62
250
  6
CONTINUOUS
 10
-82.3659785711
 20
14.0
 11
-82.3593127493
 21
9.4676596109
  0
LINE
  5
224
100
AcDbEntity
  8
RACCORDO
100
AcDbLine
 62
250
  6
CONTINUOUS
 10
-82.6589095285
 20
9.467402254
 11
-82.6548131243
 21
4.9340689207
  0
LINE
  5
225
100
AcDbEntity
  8
RACCORDO
100
AcDbLine
 62
250
  6
CONTINUOUS
 10
-82.3593127493
 20
9.4676596109
 11
-82.3552222246
 21
4.9341484769
  0
LINE
  5
226
100
AcDbEntity
  8
RACCORDO
100
AcDbLine
 62
250
  6
CONTINUOUS
 10
-82.6548131243
 20
4.9340689207
 11
-82.6532958717
 21
0.4
  0
LINE
  5
227
100
AcDbEntity
  8
RACCORDO
100
AcDbLine
 62
250
  6
CONTINUOUS
 10
-82.3552222246
 20
4.9341484769
 11
-82.3537069969
 21
0.4
  0
LINE
  5
228
100
AcDbEntity
  8
RACCORDO
100
AcDbLine
 62
7
  6
CONTINUOUS
 10
-85.0
 20
-39.8016445583
 11
-85.0
 21
-3.6749773271
  0
LINE
  5
229
100
AcDbEntity
  8
RACCORDO
100
AcDbLine
 62
7
  6
CONTINUOUS
 10
-85.0
 20
3.6749773271
 11
-85.0
 21
39.8016445583
  0
LINE
  5
22A
100
AcDbEntity
  8
DRAFT
100
AcDbLine
 62
7
  6
CONTINUOUS
 10
-84.8951844414
 20
3.5
 11
-84.8951844414
 21
-3.5
  0
LINE
  5
22B
100
AcDbEntity
  8
RACCORDO
100
AcDbLine
 62
7
  6
CONTINUOUS
 10
-83.0
 20
-38.7004111396
 11
-83.0
 21
-20.0
  0
LINE
  5
22C
100
AcDbEntity
  8
DRAFT
100
AcDbLine
 62
7
  6
CONTINUOUS
 10
-83.0
 20
-19.2
 11
-83.0
 21
-17.4
  0
LINE
  5
22D
100
AcDbEntity
  8
DRAFT
100
AcDbLine
 62
7
  6
CONTINUOUS
 10
-83.0
 20
-16.6
 11
-83.0
 21
-14.8
  0
LINE
  5
22E
100
AcDbEntity
  8
DRAFT
100
AcDbLine
 62
7
  6
CONTINUOUS
 10
-83.0
 20
-14.0
 11
-83.0
 21
-3.6749773271
  0
LINE
  5
22F
100
AcDbEntity
  8
DRAFT
100
AcDbLine
 62
7
  6
CONTINUOUS
 10
-83.0
 20
3.6749773271
 11
-83.0
 21
14.0
  0
LINE
  5
230
100
AcDbEntity
  8
DRAFT
100
AcDbLine
 62
7
  6
CONTINUOUS
 10
-83.0
 20
14.8
 11
-83.0
 21
16.6
  0
LINE
  5
231
100
AcDbEntity
  8
DRAFT
100
AcDbLine
 62
7
  6
CONTINUOUS
 10
-83.0
 20
17.4
 11
-83.0
 21
19.2
  0
LINE
  5
232
100
AcDbEntity
  8
RACCORDO
100
AcDbLine
 62
7
  6
CONTINUOUS
 10
-83.0
 20
20.0
 11
-83.0
 21
38.7004111396
  0
LINE
  5
233
100
AcDbEntity
  8
DRAFT
100
AcDbLine
 62
7
  6
CONTINUOUS
 10
-82.9213883311
 20
-19.2
 11
-82.9213883311
 21
-17.4
  0
LINE
  5
234
100
AcDbEntity
  8
DRAFT
100
AcDbLine
 62
7
  6
CONTINUOUS
 10
-82.9213883311
 20
-16.6
 11
-82.9213883311
 21
-14.8
  0
LINE
  5
235
100
AcDbEntity
  8
DRAFT
100
AcDbLine
 62
7
  6
CONTINUOUS
 10
-82.9213883311
 20
14.8
 11
-82.9213883311
 21
16.6
  0
LINE
  5
236
100
AcDbEntity
  8
DRAFT
100
AcDbLine
 62
7
  6
CONTINUOUS
 10
-82.9213883311
 20
17.4
 11
-82.9213883311
 21
19.2
  0
LINE
  5
237
100
AcDbEntity
  8
DRAFT
100
AcDbLine
 62
7
  6
CONTINUOUS
 10
-82.8951844414
 20
3.5
 11
-82.8951844414
 21
-3.5
  0
LINE
  5
238
100
AcDbEntity
  8
DRAFT
100
AcDbLine
 62
7
  6
CONTINUOUS
 10
-82.7274795477
 20
23.3
 11
-82.7274795477
 21
22.4999999998
  0
LINE
  5
239
100
AcDbEntity
  8
DRAFT
100
AcDbLine
 62
7
  6
CONTINUOUS
 10
-82.7274795477
 20
-22.5
 11
-82.7274795477
 21
-23.3
  0
LINE
  5
23A
100
AcDbEntity
  8
DRAFT
100
AcDbLine
 62
7
  6
CONTINUOUS
 10
-82.7169979919
 20
0.4
 11
-82.7169979919
 21
-0.4
  0
LINE
  5
23B
100
AcDbEntity
  8
RACCORDO
100
AcDbLine
 62
250
  6
CONTINUOUS
 10
-82.4466236443
 20
-38.7462125047
 11
-82.4466236443
 21
-38.4742367328
  0
LINE
  5
23C
100
AcDbEntity
  8
RACCORDO
100
AcDbLine
 62
250
  6
CONTINUOUS
 10
-82.4466236443
 20
38.4742367328
 11
-82.4466236443
 21
38.7462125047
  0
LINE
  5
23D
100
AcDbEntity
  8
0
100
AcDbLine
 62
7
  6
CONTINUOUS
 10
-82.2
 20
-19.2
 11
-82.2
 21
-17.4
  0
LINE
  5
23E
100
AcDbEntity
  8
0
100
AcDbLine
 62
7
  6
CONTINUOUS
 10
-82.2
 20
-16.6
 11
-82.2
 21
-14.8
  0
LINE
  5
23F
100
AcDbEntity
  8
0
100
AcDbLine
 62
7
  6
CONTINUOUS
 10
-82.2
 20
14.8
 11
-82.2
 21
16.6
  0
LINE
  5
240
100
AcDbEntity
  8
0
100
AcDbLine
 62
7
  6
CONTINUOUS
 10
-82.2
 20
17.4
 11
-82.2
 21
19.2
  0
LINE
  5
241
100
AcDbEntity
  8
RACCORDO
100
AcDbLine
 62
250
  6
CONTINUOUS
 10
-81.8
 20
-25.5
 11
-81.8
 21
-26.3
  0
LINE
  5
242
100
AcDbEntity
  8
0
100
AcDbLine
 62
7
  6
CONTINUOUS
 10
-81.6
 20
20.0
 11
-81.6
 21
19.2
  0
LINE
  5
243
100
AcDbEntity
  8
0
100
AcDbLine
 62
7
  6
CONTINUOUS
 10
-81.6
 20
17.4
 11
-81.6
 21
16.6
  0
LINE
  5
244
100
AcDbEntity
  8
0
100
AcDbLine
 62
7
  6
CONTINUOUS
 10
-81.6
 20
14.8
 11
-81.6
 21
14.0
  0
LINE
  5
245
100
AcDbEntity
  8
0
100
AcDbLine
 62
7
  6
CONTINUOUS
 10
-81.6
 20
-14.0
 11
-81.6
 21
-14.8
  0
LINE
  5
246
100
AcDbEntity
  8
0
100
AcDbLine
 62
7
  6
CONTINUOUS
 10
-81.6
 20
-16.6
 11
-81.6
 21
-17.4
  0
LINE
  5
247
100
AcDbEntity
  8
0
100
AcDbLine
 62
7
  6
CONTINUOUS
 10
-81.6
 20
-19.2
 11
-81.6
 21
-20.0
  0
LINE
  5
248
100
AcDbEntity
  8
RACCORDO
100
AcDbLine
 62
250
  6
CONTINUOUS
 10
-82.6532958718
 20
-0.4
 11
-82.6548131254
 21
-4.9340705452
  0
LINE
  5
249
100
AcDbEntity
  8
RACCORDO
100
AcDbLine
 62
250
  6
CONTINUOUS
 10
-82.353706997
 20
-0.4
 11
-82.3552222241
 21
-4.9341483028
  0
LINE
  5
24A
100
AcDbEntity
  8
RACCORDO
100
AcDbLine
 62
250
  6
CONTINUOUS
 10
-82.6548131254
 20
-4.9340705452
 11
-82.6589095297
 21
-9.4674038786
  0
LINE
  5
24B
100
AcDbEntity
  8
RACCORDO
100
AcDbLine
 62
250
  6
CONTINUOUS
 10
-82.3552222241
 20
-4.9341483028
 11
-82.3593127488
 21
-9.4676594368
  0
LINE
  5
24C
100
AcDbEntity
  8
RACCORDO
100
AcDbLine
 62
250
  6
CONTINUOUS
 10
-82.6589095297
 20
-9.4674038786
 11
-82.6655850846
 21
-14.0
  0
LINE
  5
24D
100
AcDbEntity
  8
RACCORDO
100
AcDbLine
 62
250
  6
CONTINUOUS
 10
-82.3593127488
 20
-9.4676594368
 11
-82.3659785711
 21
-14.0
  0
LINE
  5
24E
100
AcDbEntity
  8
RACCORDO
100
AcDbLine
 62
250
  6
CONTINUOUS
 10
-82.6783937169
 20
-20.0
 11
-82.6850678484
 21
-22.5
  0
LINE
  5
24F
100
AcDbEntity
  8
RACCORDO
100
AcDbLine
 62
250
  6
CONTINUOUS
 10
-82.3787688086
 20
-20.0
 11
-82.3854333511
 21
-22.5
  0
LINE
  5
250
100
AcDbEntity
  8
RACCORDO
100
AcDbLine
 62
250
  6
CONTINUOUS
 10
-82.6873698783
 20
-23.3
 11
-82.6941165111
 21
-25.5
  0
LINE
  5
251
100
AcDbEntity
  8
RACCORDO
100
AcDbLine
 62
250
  6
CONTINUOUS
 10
-82.3877320729
 20
-23.3
 11
-82.3944690085
 21
-25.5
  0
LWPOLYLINE
  5
252
100
AcDbEntity
  8
RACCORDO
100
AcDbPolyline
 62
250
  6
CONTINUOUS
 90
3
 70
0
 10
-81.8
 20
25.5
 10
-81.8000241388
 20
26.2984783375
 10
-81.8
 20
26.3
  0
LINE
  5
253
100
AcDbEntity
  8
RACCORDO
100
AcDbLine
 62
250
  6
CONTINUOUS
 10
-82.6967212167
 20
-26.3
 11
-82.7191450024
 21
-32.3765404018
  0
LINE
  5
254
100
AcDbEntity
  8
RACCORDO
100
AcDbLine
 62
250
  6
CONTINUOUS
 10
-82.3970699693
 20
-26.3
 11
-82.4195196278
 21
-32.390824515
  0
LINE
  5
255
100
AcDbEntity
  8
RACCORDO
100
AcDbLine
 62
250
  6
CONTINUOUS
 10
-82.7191450024
 20
-32.3765404018
 11
-82.7462125399
 21
-38.4466236795
  0
LINE
  5
256
100
AcDbEntity
  8
RACCORDO
100
AcDbLine
 62
250
  6
CONTINUOUS
 10
-82.4195196278
 20
-32.390824515
 11
-82.4466235566
 21
-38.4742367328
  0
LWPOLYLINE
  5
257
100
AcDbEntity
  8
RACCORDO
100
AcDbPolyline
 62
250
  6
CONTINUOUS
 90
19
 70
0
 10
-82.7462125047
 20
38.4466236443
 10
-82.7450050535
 20
38.4726892165
 10
-82.7415346473
 20
38.4985571048
 10
-82.7358276059
 20
38.5240311244
 10
-82.7279272123
 20
38.5489180778
 10
-82.7178933837
 20
38.5730292198
 10
-82.7058022177
 20
38.596181689
 10
-82.691745415
 20
38.6181998948
 10
-82.6758295838
 20
38.6389168487
 10
-82.6581754315
 20
38.6581754315
 10
-82.6389168487
 20
38.6758295838
 10
-82.6181998948
 20
38.691745415
 10
-82.596181689
 20
38.7058022177
 10
-82.5730292198
 20
38.7178933837
 10
-82.5489180778
 20
38.7279272123
 10
-82.5240311244
 20
38.7358276059
 10
-82.4985571048
 20
38.7415346473
 10
-82.4726892165
 20
38.7450050535
 10
-82.4466236443
 20
38.7462125047
  0
LINE
  5
258
100
AcDbEntity
  8
0
100
AcDbLine
 62
7
  6
CONTINUOUS
 10
-77.08372
 20
37.000216
 11
-77.364631
 21
35.918318
  0
LINE
  5
259
100
AcDbEntity
  8
0
100
AcDbLine
 62
7
  6
CONTINUOUS
 10
-77.555133
 20
35.184619
 11
-78.498172
 21
31.552609
  0
LINE
  5
25A
100
AcDbEntity
  8
0
100
AcDbLine
 62
7
  6
CONTINUOUS
 10
-77.0100046851
 20
34.7992132127
 11
-77.658852
 21
32.300249
  0
LINE
  5
25B
100
AcDbEntity
  8
0
100
AcDbLine
 62
7
  6
CONTINUOUS
 10
-75.9502695372
 20
34.6228107826
 11
-76.545152
 21
32.331688
  0
LINE
  5
25C
100
AcDbEntity
  8
0
100
AcDbLine
 62
7
  6
CONTINUOUS
 10
-75.318388
 20
34.803699
 11
-76.0630380838
 21
31.9357626772
  0
LINE
  5
25D
100
AcDbEntity
  8
0
100
AcDbLine
 62
7
  6
CONTINUOUS
 10
-78.849149
 20
34.622809
 11
-79.657325
 21
31.552609
  0
LINE
  5
25E
100
AcDbEntity
  8
0
100
AcDbLine
 62
7
  6
CONTINUOUS
 10
-78.353333
 20
36.449
 11
-78.638624
 21
35.365201
  0
LINE
  5
25F
100
AcDbEntity
  8
0
100
AcDbLine
 62
7
  6
CONTINUOUS
 10
-74.85167
 20
36.462797
 11
-75.198525
 21
35.184619
  0
LWPOLYLINE
  5
260
100
AcDbEntity
  8
0
100
AcDbPolyline
 62
7
  6
CONTINUOUS
 90
29
 70
0
 10
-77.0100046851
 20
34.7992132127
 10
-76.9959001021
 20
34.8276309657
 10
-76.9804366566
 20
34.8551765145
 10
-76.9636143489
 20
34.8818498732
 10
-76.9453829844
 20
34.9077466392
 10
-76.9257927576
 20
34.9327712417
 10
-76.9049942518
 20
34.9566369465
 10
-76.8829748376
 20
34.9793342494
 10
-76.8597471444
 20
35.0008726871
 10
-76.8354996436
 20
35.0209940942
 10
-76.81020874
 20
35.0395993716
 10
-76.7838980287
 20
35.0567876521
 10
-76.7568267666
 20
35.072598119
 10
-76.7290030524
 20
35.0869839899
 10
-76.7004187873
 20
35.0999920725
 10
-76.671308932
 20
35.1118019315
 10
-76.6416749957
 20
35.1224201745
 10
-76.611515469
 20
35.1318402101
 10
-76.5810607848
 20
35.1402218004
 10
-76.550304037
 20
35.1475477914
 10
-76.5192521316
 20
35.153835347
 10
-76.4881562194
 20
35.1592957033
 10
-76.4570577121
 20
35.1639112922
 10
-76.4259151979
 20
35.1676996869
 10
-76.3948555931
 20
35.1709248338
 10
-76.3639358729
 20
35.1735879972
 10
-76.3330990621
 20
35.1756879149
 10
-76.3023011509
 20
35.1774847423
 10
-76.271550361
 20
35.1789837952
  0
LWPOLYLINE
  5
261
100
AcDbEntity
  8
0
100
AcDbPolyline
 62
7
  6
CONTINUOUS
 90
28
 70
0
 10
-73.5804632866
 20
34.8533968961
 10
-73.5686040463
 20
34.8763558894
 10
-73.5554521482
 20
34.8983805953
 10
-73.5410075922
 20
34.9194710262
 10
-73.5251603315
 20
34.9396719811
 10
-73.5080204129
 20
34.9589386838
 10
-73.4899179773
 20
34.9771367845
 10
-73.47087983
 20
34.9941955679
 10
-73.4508791658
 20
35.0101857725
 10
-73.4301657093
 20
35.0251852288
 10
-73.4087943579
 20
35.0391361551
 10
-73.3867102143
 20
35.0520963507
 10
-73.3639983117
 20
35.0643170144
 10
-73.3406924407
 20
35.0758301201
 10
-73.3167588107
 20
35.0866037043
 10
-73.2921810828
 20
35.0967930567
 10
-73.2669748821
 20
35.1064161924
 10
-73.2411245835
 20
35.1154551033
 10
-73.2145669733
 20
35.1240110415
 10
-73.1873293447
 20
35.1320725343
 10
-73.1593844045
 20
35.1396510593
 10
-73.13058706
 20
35.1468822933
 10
-73.1009455541
 20
35.1537606852
 10
-73.070451644
 20
35.1602917891
 10
-73.0389355073
 20
35.1666279386
 10
-73.0063405368
 20
35.1728199119
 10
-72.9727233399
 20
35.1788169321
 10
-72.9380839164
 20
35.184619
  0
LWPOLYLINE
  5
262
100
AcDbEntity
  8
RACCORDO
100
AcDbPolyline
 62
250
  6
CONTINUOUS
 90
13
 70
0
 10
-82.7462125047
 20
38.4466236443
 10
-82.7438222254
 20
38.4491752115
 10
-82.7393650358
 20
38.4514216059
 10
-82.7328842034
 20
38.4535054837
 10
-82.7243540938
 20
38.4557168663
 10
-82.7137675616
 20
38.4579967829
 10
-82.7012600552
 20
38.4599958672
 10
-82.6869936706
 20
38.4619175779
 10
-82.6710061923
 20
38.4639244506
 10
-82.6533823498
 20
38.4656330772
 10
-82.6342985571
 20
38.4671843103
 10
-82.6139014447
 20
38.46877654
 10
-82.5922688944
 20
38.4700602283
  0
LWPOLYLINE
  5
263
100
AcDbEntity
  8
RACCORDO
100
AcDbPolyline
 62
250
  6
CONTINUOUS
 90
16
 70
0
 10
-82.7462125047
 20
-38.4466236443
 10
-82.7438341568
 20
-38.4487233172
 10
-82.7393315635
 20
-38.4510844174
 10
-82.732727667
 20
-38.4535523593
 10
-82.7240887394
 20
-38.455824419
 10
-82.7134889635
 20
-38.4578948717
 10
-82.7009740264
 20
-38.4600392525
 10
-82.6866307775
 20
-38.4620788098
 10
-82.6705988394
 20
-38.4638600613
 10
-82.6529771591
 20
-38.4656704566
 10
-82.6338465824
 20
-38.4673577233
 10
-82.6133926102
 20
-38.4687428922
 10
-82.5918283619
 20
-38.4700849375
 10
-82.5691320089
 20
-38.4713196207
 10
-82.5455032352
 20
-38.4722382818
 10
-82.4970010354
 20
-38.4736802304
  0
LINE
  5
264
100
AcDbEntity
  8
0
100
AcDbLine
 62
7
  6
CONTINUOUS
 10
-73.659608
 20
-35.144276
 11
-72.98954
 21
-36.995268
  0
LINE
  5
265
100
AcDbEntity
  8
0
100
AcDbLine
 62
7
  6
CONTINUOUS
 10
-73.445629
 20
-36.45658
 11
-73.262625
 21
-36.995268
  0
LINE
  5
266
100
AcDbEntity
  8
0
100
AcDbLine
 62
7
  6
CONTINUOUS
 10
-76.754521
 20
-29.824732
 11
-76.223682
 21
-31.396194
  0
LINE
  5
267
100
AcDbEntity
  8
0
100
AcDbLine
 62
7
  6
CONTINUOUS
 10
-76.870488
 20
-30.124003
 11
-76.349906
 21
-31.674227
  0
LINE
  5
268
100
AcDbEntity
  8
0
100
AcDbLine
 62
7
  6
CONTINUOUS
 10
-73.811534
 20
-35.413832
 11
-73.535859
 21
-36.23512
  0
LINE
  5
269
100
AcDbEntity
  8
0
100
AcDbLine
 62
7
  6
CONTINUOUS
 10
-80.8
 20
-20.0
 11
-80.8
 21
-19.2
  0
LINE
  5
26A
100
AcDbEntity
  8
0
100
AcDbLine
 62
7
  6
CONTINUOUS
 10
-80.8
 20
-17.4
 11
-80.8
 21
-16.6
  0
LINE
  5
26B
100
AcDbEntity
  8
0
100
AcDbLine
 62
7
  6
CONTINUOUS
 10
-80.8
 20
-14.8
 11
-80.8
 21
-14.0
  0
LINE
  5
26C
100
AcDbEntity
  8
0
100
AcDbLine
 62
7
  6
CONTINUOUS
 10
-80.8
 20
14.0
 11
-80.8
 21
14.8
  0
LINE
  5
26D
100
AcDbEntity
  8
0
100
AcDbLine
 62
7
  6
CONTINUOUS
 10
-80.8
 20
16.6
 11
-80.8
 21
17.4
  0
LINE
  5
26E
100
AcDbEntity
  8
0
100
AcDbLine
 62
7
  6
CONTINUOUS
 10
-80.8
 20
19.2
 11
-80.8
 21
20.0
  0
LINE
  5
26F
100
AcDbEntity
  8
0
100
AcDbLine
 62
7
  6
CONTINUOUS
 10
-77.112748
 20
-29.824732
 11
-77.112748
 21
-31.674227
  0
LINE
  5
270
100
AcDbEntity
  8
0
100
AcDbLine
 62
7
  6
CONTINUOUS
 10
-76.870488
 20
-30.124003
 11
-76.870488
 21
-31.674227
  0
LINE
  5
271
100
AcDbEntity
  8
0
100
AcDbLine
 62
7
  6
CONTINUOUS
 10
-76.731477
 20
-35.144276
 11
-76.731477
 21
-36.995268
  0
LINE
  5
272
100
AcDbEntity
  8
0
100
AcDbLine
 62
7
  6
CONTINUOUS
 10
-76.481436
 20
-35.144276
 11
-76.481436
 21
-36.995268
  0
LINE
  5
273
100
AcDbEntity
  8
0
100
AcDbLine
 62
7
  6
CONTINUOUS
 10
-76.213289
 20
-35.144276
 11
-76.213289
 21
-35.365737
  0
LINE
  5
274
100
AcDbEntity
  8
0
100
AcDbLine
 62
7
  6
CONTINUOUS
 10
-75.587064
 20
-35.365737
 11
-75.587064
 21
-36.995268
  0
LINE
  5
275
100
AcDbEntity
  8
0
100
AcDbLine
 62
7
  6
CONTINUOUS
 10
-75.581976
 20
-30.12101
 11
-75.581976
 21
-31.674227
  0
LINE
  5
276
100
AcDbEntity
  8
0
100
AcDbLine
 62
7
  6
CONTINUOUS
 10
-75.339716
 20
-29.824732
 11
-75.339716
 21
-31.674227
  0
LINE
  5
277
100
AcDbEntity
  8
0
100
AcDbLine
 62
7
  6
CONTINUOUS
 10
-75.337172
 20
-35.365737
 11
-75.337172
 21
-36.995268
  0
LINE
  5
278
100
AcDbEntity
  8
0
100
AcDbLine
 62
7
  6
CONTINUOUS
 10
-74.710948
 20
-35.144276
 11
-74.710948
 21
-35.365737
  0
LINE
  5
279
100
AcDbEntity
  8
0
100
AcDbLine
 62
7
  6
CONTINUOUS
 10
-73.613836
 20
37.000216
 11
-75.028287
 21
31.552609
  0
LINE
  5
27A
100
AcDbEntity
  8
0
100
AcDbLine
 62
7
  6
CONTINUOUS
 10
-73.5804632866
 20
34.8533968961
 11
-74.280961
 21
32.155505
  0
LINE
  5
27B
100
AcDbEntity
  8
0
100
AcDbLine
 62
7
  6
CONTINUOUS
 10
-72.5492096667
 20
34.5491674323
 11
-72.916362
 21
33.135118
  0
LINE
  5
27C
100
AcDbEntity
  8
0
100
AcDbLine
 62
7
  6
CONTINUOUS
 10
-71.935671
 20
34.793287
 11
-72.296311
 21
33.40432
  0
LINE
  5
27D
100
AcDbEntity
  8
0
100
AcDbLine
 62
7
  6
CONTINUOUS
 10
-70.896701
 20
34.386822
 11
-71.147432
 21
33.42116
  0
LINE
  5
27E
100
AcDbEntity
  8
0
100
AcDbLine
 62
7
  6
CONTINUOUS
 10
-71.328097
 20
32.725349
 11
-71.5201231546
 21
31.9857785531
  0
LINE
  5
27F
100
AcDbEntity
  8
0
100
AcDbLine
 62
7
  6
CONTINUOUS
 10
-70.2802792305
 20
34.6658960598
 11
-70.5343595816
 21
33.6873311242
  0
LINE
  5
280
100
AcDbEntity
  8
0
100
AcDbLine
 62
7
  6
CONTINUOUS
 10
-70.714047
 20
32.991945
 11
-70.8989160372
 21
32.2799408567
  0
LINE
  5
281
100
AcDbEntity
  8
0
100
AcDbLine
 62
7
  6
CONTINUOUS
 10
-69.558611
 20
33.062833
 11
-69.726462
 21
32.416373
  0
LINE
  5
282
100
AcDbEntity
  8
0
100
AcDbLine
 62
7
  6
CONTINUOUS
 10
-68.5656669329
 20
34.8107092585
 11
-68.824948
 21
33.812117
  0
LINE
  5
283
100
AcDbEntity
  8
0
100
AcDbLine
 62
7
  6
CONTINUOUS
 10
-68.951003
 20
33.326633
 11
-69.3209130185
 21
31.9019619287
  0
LINE
  5
284
100
AcDbEntity
  8
0
100
AcDbLine
 62
7
  6
CONTINUOUS
 10
-69.1785994301
 20
34.5057958077
 11
-69.1953533324
 21
34.4556667879
  0
LWPOLYLINE
  5
285
100
AcDbEntity
  8
0
100
AcDbPolyline
 62
7
  6
CONTINUOUS
 90
12
 70
0
 10
-69.1953533324
 20
34.4556667879
 10
-69.2123761012
 20
34.4055270124
 10
-69.2218396132
 20
34.3807547683
 10
-69.232253624
 20
34.3561436762
 10
-69.2435839437
 20
34.3318262031
 10
-69.256572674
 20
34.3084853006
 10
-69.2715673744
 20
34.286224332
 10
-69.2882204855
 20
34.2649399616
 10
-69.3062314299
 20
34.2450051058
 10
-69.3255000152
 20
34.2265440824
 10
-69.3461264338
 20
34.2094326053
 10
-69.3681106858
 20
34.1936706882
  0
LWPOLYLINE
  5
286
100
AcDbEntity
  8
0
100
AcDbPolyline
 62
7
  6
CONTINUOUS
 90
13
 70
0
 10
-72.6499193294
 20
31.9874607204
 10
-72.6430730375
 20
32.0000162954
 10
-72.6373060875
 20
32.0134969402
 10
-72.6322129445
 20
32.0276888753
 10
-72.627836227
 20
32.0426026046
 10
-72.6241333164
 20
32.0582276126
 10
-72.6205708221
 20
32.0743185943
 10
-72.6172417931
 20
32.0909535258
 10
-72.6140531803
 20
32.108054422
 10
-72.6101924457
 20
32.1251420419
 10
-72.6053887432
 20
32.1420566404
 10
-72.5999129188
 20
32.1589579637
 10
-72.5937649726
 20
32.1758460119
  0
LWPOLYLINE
  5
287
100
AcDbEntity
  8
0
100
AcDbPolyline
 62
7
  6
CONTINUOUS
 90
25
 70
0
 10
-73.0708395371
 20
32.5860927668
 10
-73.0836785008
 20
32.5638488802
 10
-73.094456111
 20
32.5402764787
 10
-73.1031723676
 20
32.5153755446
 10
-73.1099175639
 20
32.4889691699
 10
-73.1146014067
 20
32.4612342229
 10
-73.116953016
 20
32.4327013574
 10
-73.1164999835
 20
32.4033731208
 10
-73.1137147175
 20
32.3732469401
 10
-73.1097435639
 20
32.342845806
 10
-73.1050709707
 20
32.3121076588
 10
-73.09921249
 20
32.2810945483
 10
-73.0918611234
 20
32.2505156508
 10
-73.0829677506
 20
32.2201610585
 10
-73.072581492
 20
32.1902406919
 10
-73.0605427099
 20
32.1620935032
 10
-73.0464925356
 20
32.1361293887
 10
-73.030789838
 20
32.1119385099
 10
-73.0143515856
 20
32.0896302375
 10
-72.9972676099
 20
32.0693835449
 10
-72.9794480794
 20
32.0510195047
 10
-72.9615404692
 20
32.0341106314
 10
-72.9436219006
 20
32.0187389041
 10
-72.9256152523
 20
32.0048223703
 10
-72.890792291
 20
31.9789819606
  0
LINE
  5
288
100
AcDbEntity
  8
0
100
AcDbLine
 62
7
  6
CONTINUOUS
 10
-71.873707
 20
-35.144276
 11
-71.175209
 21
-36.250083
  0
LINE
  5
289
100
AcDbEntity
  8
0
100
AcDbLine
 62
7
  6
CONTINUOUS
 10
-73.71228
 20
-32.831803
 11
-72.766583
 21
-34.334748
  0
LINE
  5
28A
100
AcDbEntity
  8
0
100
AcDbLine
 62
7
  6
CONTINUOUS
 10
-73.658261
 20
-32.485252
 11
-72.727827
 21
-33.987069
  0
LINE
  5
28B
100
AcDbEntity
  8
0
100
AcDbLine
 62
7
  6
CONTINUOUS
 10
-71.582517
 20
-35.144276
 11
-71.05161
 21
-36.033112
  0
LINE
  5
28C
100
AcDbEntity
  8
0
100
AcDbLine
 62
7
  6
CONTINUOUS
 10
-74.138891
 20
-29.824732
 11
-73.468823
 21
-31.674227
  0
LINE
  5
28D
100
AcDbEntity
  8
0
100
AcDbLine
 62
7
  6
CONTINUOUS
 10
-73.924912
 20
-31.135539
 11
-73.741908
 21
-31.674227
  0
LINE
  5
28E
100
AcDbEntity
  8
0
100
AcDbLine
 62
7
  6
CONTINUOUS
 10
-74.290818
 20
-30.092789
 11
-74.015142
 21
-30.914079
  0
LWPOLYLINE
  5
28F
100
AcDbEntity
  8
0
100
AcDbPolyline
 62
7
  6
CONTINUOUS
 90
31
 70
0
 10
-71.9557516614
 20
-30.74947948
 10
-71.9562667899
 20
-30.7156333641
 10
-71.9575773038
 20
-30.6818976142
 10
-71.9596832031
 20
-30.6482722325
 10
-71.9625342837
 20
-30.6147576387
 10
-71.9661807498
 20
-30.5813534174
 10
-71.9707732136
 20
-30.5480583181
 10
-71.9761723596
 20
-30.5148174303
 10
-71.9825175034
 20
-30.4816856681
 10
-71.9903772035
 20
-30.4488265202
 10
-71.9998682062
 20
-30.4161615222
 10
-72.0108737652
 20
-30.3837691475
 10
-72.0236122005
 20
-30.3520483011
 10
-72.038157004
 20
-30.3209735159
 10
-72.0544346839
 20
-30.2905702812
 10
-72.0724430842
 20
-30.2613139509
 10
-72.0922000912
 20
-30.233175417
 10
-72.1136878187
 20
-30.2061838218
 10
-72.1368504519
 20
-30.1809019086
 10
-72.1617558094
 20
-30.1573322734
 10
-72.1883360727
 20
-30.1354723639
 10
-72.2163319715
 20
-30.1158772129
 10
-72.2458517068
 20
-30.0987564656
 10
-72.2767870777
 20
-30.0839005215
 10
-72.308554212
 20
-30.0712355468
 10
-72.3411507989
 20
-30.0608257896
 10
-72.3745791492
 20
-30.0526070283
 10
-72.4082623228
 20
-30.046312719
 10
-72.4420080064
 20
-30.0418540168
 10
-72.4760085134
 20
-30.0393197771
 10
-72.5102638436
 20
-30.0387100026
  0
LWPOLYLINE
  5
290
100
AcDbEntity
  8
0
100
AcDbPolyline
 62
7
  6
CONTINUOUS
 90
31
 70
0
 10
-71.6992661138
 20
-30.74947948
 10
-71.6987694727
 20
-30.7950619147
 10
-71.699974588
 20
-30.8404384283
 10
-71.7028814595
 20
-30.8856090251
 10
-71.7074342918
 20
-30.9306272613
 10
-71.7136888804
 20
-30.9754395888
 10
-71.7218126118
 20
-31.0198853596
 10
-71.7318545457
 20
-31.0639906121
 10
-71.7437656224
 20
-31.1077293238
 10
-71.7575660485
 20
-31.1508627654
 10
-71.773177651
 20
-31.1934651804
 10
-71.7906786029
 20
-31.2354623511
 10
-71.8103236306
 20
-31.2763928712
 10
-71.8321782415
 20
-31.3162937595
 10
-71.856176928
 20
-31.3551280424
 10
-71.8823778941
 20
-31.3923233464
 10
-71.9108506244
 20
-31.4279078811
 10
-71.9415256343
 20
-31.4618535007
 10
-71.9742526733
 20
-31.4935033205
 10
-72.0091600011
 20
-31.5227542661
 10
-72.0461193581
 20
-31.5497094888
 10
-72.0845957156
 20
-31.5740214561
 10
-72.1246038062
 20
-31.5955773768
 10
-72.1661288973
 20
-31.614490109
 10
-72.2085917621
 20
-31.6307505933
 10
-72.2519907735
 20
-31.6442955336
 10
-72.2963275587
 20
-31.6551882696
 10
-72.3410277726
 20
-31.6636096876
 10
-72.3858999668
 20
-31.6696200893
 10
-72.4311355896
 20
-31.6731591925
 10
-72.4767346412
 20
-31.6742270019
  0
LINE
  5
291
100
AcDbEntity
  8
0
100
AcDbLine
 62
7
  6
CONTINUOUS
 10
-74.632389
 20
-32.485252
 11
-74.632389
 21
-34.334748
  0
LINE
  5
292
100
AcDbEntity
  8
0
100
AcDbLine
 62
7
  6
CONTINUOUS
 10
-74.382348
 20
-32.485252
 11
-74.382348
 21
-34.334748
  0
LINE
  5
293
100
AcDbEntity
  8
0
100
AcDbLine
 62
7
  6
CONTINUOUS
 10
-73.954689
 20
-32.485252
 11
-73.954689
 21
-34.334748
  0
LINE
  5
294
100
AcDbEntity
  8
0
100
AcDbLine
 62
7
  6
CONTINUOUS
 10
-73.71228
 20
-32.831803
 11
-73.71228
 21
-34.334748
  0
LINE
  5
295
100
AcDbEntity
  8
0
100
AcDbLine
 62
7
  6
CONTINUOUS
 10
-73.226563
 20
-29.824732
 11
-73.226563
 21
-31.674227
  0
LINE
  5
296
100
AcDbEntity
  8
0
100
AcDbLine
 62
7
  6
CONTINUOUS
 10
-72.976671
 20
-30.03871
 11
-72.976671
 21
-31.460248
  0
LINE
  5
297
100
AcDbEntity
  8
0
100
AcDbLine
 62
7
  6
CONTINUOUS
 10
-72.760149
 20
-35.144276
 11
-72.760149
 21
-36.995268
  0
LINE
  5
298
100
AcDbEntity
  8
0
100
AcDbLine
 62
7
  6
CONTINUOUS
 10
-72.727827
 20
-32.485252
 11
-72.727827
 21
-33.987069
  0
LINE
  5
299
100
AcDbEntity
  8
0
100
AcDbLine
 62
7
  6
CONTINUOUS
 10
-72.510257
 20
-35.144276
 11
-72.510257
 21
-36.773808
  0
LINE
  5
29A
100
AcDbEntity
  8
0
100
AcDbLine
 62
7
  6
CONTINUOUS
 10
-72.485717
 20
-32.485252
 11
-72.485717
 21
-34.334748
  0
LINE
  5
29B
100
AcDbEntity
  8
0
100
AcDbLine
 62
7
  6
CONTINUOUS
 10
-71.572192
 20
-36.773808
 11
-71.572192
 21
-36.995268
  0
LINE
  5
29C
100
AcDbEntity
  8
0
100
AcDbLine
 62
7
  6
CONTINUOUS
 10
-71.353125
 20
-29.824732
 11
-71.353125
 21
-31.674227
  0
LINE
  5
29D
100
AcDbEntity
  8
0
100
AcDbLine
 62
7
  6
CONTINUOUS
 10
-71.175209
 20
-36.250083
 11
-71.175209
 21
-36.995268
  0
LINE
  5
29E
100
AcDbEntity
  8
0
100
AcDbLine
 62
7
  6
CONTINUOUS
 10
-71.103084
 20
-30.046192
 11
-71.103084
 21
-30.613311
  0
LINE
  5
29F
100
AcDbEntity
  8
0
100
AcDbLine
 62
7
  6
CONTINUOUS
 10
-71.103084
 20
-30.834772
 11
-71.103084
 21
-31.452767
  0
LINE
  5
2A0
100
AcDbEntity
  8
0
100
AcDbLine
 62
7
  6
CONTINUOUS
 10
-70.925317
 20
-36.250083
 11
-70.925317
 21
-36.995268
  0
LINE
  5
2A1
100
AcDbEntity
  8
0
100
AcDbLine
 62
7
  6
CONTINUOUS
 10
-70.090351
 20
-30.613311
 11
-70.090351
 21
-30.834772
  0
LINE
  5
2A2
100
AcDbEntity
  8
0
100
AcDbLine
 62
7
  6
CONTINUOUS
 10
-70.005358
 20
-29.824732
 11
-70.005358
 21
-30.046192
  0
LINE
  5
2A3
100
AcDbEntity
  8
0
100
AcDbLine
 62
7
  6
CONTINUOUS
 10
-69.987252
 20
-31.452767
 11
-69.987252
 21
-31.674227
  0
LINE
  5
2A4
100
AcDbEntity
  8
0
100
AcDbLine
 62
7
  6
CONTINUOUS
 10
-67.442675
 20
34.539382
 11
-68.21818
 21
31.552609
  0
LINE
  5
2A5
100
AcDbEntity
  8
DRAFT
100
AcDbLine
 62
7
  6
CONTINUOUS
 10
-84.8951844414
 20
-3.5
 11
-85.0
 21
-3.6749773271
  0
LINE
  5
2A6
100
AcDbEntity
  8
DRAFT
100
AcDbLine
 62
7
  6
CONTINUOUS
 10
-82.8951844414
 20
-3.5
 11
-83.0
 21
-3.6749773271
  0
LINE
  5
2A7
100
AcDbEntity
  8
DRAFT
100
AcDbLine
 62
7
  6
CONTINUOUS
 10
-85.0
 20
3.6749773271
 11
-84.8951844414
 21
3.5
  0
LINE
  5
2A8
100
AcDbEntity
  8
DRAFT
100
AcDbLine
 62
7
  6
CONTINUOUS
 10
-83.0
 20
3.6749773271
 11
-82.8951844414
 21
3.5
  0
LINE
  5
2A9
100
AcDbEntity
  8
RACCORDO
100
AcDbLine
 62
7
  6
CONTINUOUS
 10
-64.1
 20
-34.8433730757
 11
-64.1
 21
-38.9790368883
  0
LINE
  5
2AA
100
AcDbEntity
  8
0
100
AcDbLine
 62
7
  6
CONTINUOUS
 10
-64.1
 20
-34.8433730757
 11
-64.1
 21
34.8433730757
  0
LINE
  5
2AB
100
AcDbEntity
  8
RACCORDO
100
AcDbLine
 62
7
  6
CONTINUOUS
 10
-64.1
 20
34.8433730757
 11
-64.1
 21
38.9790368883
  0
LINE
  5
2AC
100
AcDbEntity
  8
RACCORDO
100
AcDbLine
 62
7
  6
CONTINUOUS
 10
-63.3
 20
-23.0
 11
-63.3
 21
-34.2042896174
  0
LINE
  5
2AD
100
AcDbEntity
  8
RACCORDO
100
AcDbLine
 62
7
  6
CONTINUOUS
 10
-63.3
 20
-34.8433730757
 11
-63.3
 21
-38.9790368883
  0
LINE
  5
2AE
100
AcDbEntity
  8
RACCORDO
100
AcDbLine
 62
7
  6
CONTINUOUS
 10
-63.3
 20
23.0
 11
-63.3
 21
34.2042896174
  0
LINE
  5
2AF
100
AcDbEntity
  8
RACCORDO
100
AcDbLine
 62
7
  6
CONTINUOUS
 10
-63.3
 20
34.8433730757
 11
-63.3
 21
38.9790368883
  0
LINE
  5
2B0
100
AcDbEntity
  8
RACCORDO
100
AcDbLine
 62
7
  6
CONTINUOUS
 10
-62.5
 20
22.2999999998
 11
-62.5
 21
-22.3
  0
LINE
  5
2B1
100
AcDbEntity
  8
0
100
AcDbLine
 62
7
  6
CONTINUOUS
 10
-75.581976
 20
-30.12101
 11
-76.102558
 21
-31.674227
  0
LINE
  5
2B2
100
AcDbEntity
  8
0
100
AcDbLine
 62
7
  6
CONTINUOUS
 10
-75.6954
 20
-29.824732
 11
-76.223682
 21
-31.396194
  0
LINE
  5
2B3
100
AcDbEntity
  8
0
100
AcDbLine
 62
7
  6
CONTINUOUS
 10
-59.6759297729
 20
31.1393754046
 11
-59.8932989273
 21
30.7520941296
  0
LINE
  5
2B4
100
AcDbEntity
  8
0
100
AcDbLine
 62
7
  6
CONTINUOUS
 10
-56.843459
 20
29.389783
 11
-57.089877
 21
29.040447
  0
LINE
  5
2B5
100
AcDbEntity
  8
0
100
AcDbLine
 62
7
  6
CONTINUOUS
 10
-57.2203830067
 20
34.2793829943
 11
-58.545335
 21
33.162838
  0
LINE
  5
2B6
100
AcDbEntity
  8
0
100
AcDbLine
 62
7
  6
CONTINUOUS
 10
-57.2818586416
 20
33.647655302
 11
-58.545335
 21
32.582916
  0
LINE
  5
2B7
100
AcDbEntity
  8
0
100
AcDbLine
 62
7
  6
CONTINUOUS
 10
-77.08372
 20
37.000216
 11
-78.353333
 21
36.449
  0
LINE
  5
2B8
100
AcDbEntity
  8
0
100
AcDbLine
 62
7
  6
CONTINUOUS
 10
-77.364631
 20
35.918318
 11
-78.638624
 21
35.365201
  0
LINE
  5
2B9
100
AcDbEntity
  8
0
100
AcDbLine
 62
7
  6
CONTINUOUS
 10
-73.613836
 20
37.000216
 11
-74.85167
 21
36.462797
  0
LINE
  5
2BA
100
AcDbEntity
  8
0
100
AcDbLine
 62
7
  6
CONTINUOUS
 10
-77.555133
 20
35.184619
 11
-78.849149
 21
34.622809
  0
LINE
  5
2BB
100
AcDbEntity
  8
0
100
AcDbLine
 62
7
  6
CONTINUOUS
 10
-59.466887
 20
31.011955
 11
-59.466887
 21
30.539734
  0
LINE
  5
2BC
100
AcDbEntity
  8
0
100
AcDbLine
 62
7
  6
CONTINUOUS
 10
-59.451466
 20
34.841663
 11
-59.451466
 21
34.366846
  0
LINE
  5
2BD
100
AcDbEntity
  8
0
100
AcDbLine
 62
7
  6
CONTINUOUS
 10
-59.048398
 20
34.366846
 11
-59.048398
 21
33.162838
  0
LINE
  5
2BE
100
AcDbEntity
  8
0
100
AcDbLine
 62
7
  6
CONTINUOUS
 10
-59.048398
 20
32.577635
 11
-59.048398
 21
31.011955
  0
LINE
  5
2BF
100
AcDbEntity
  8
0
100
AcDbLine
 62
7
  6
CONTINUOUS
 10
-58.545335
 20
34.366846
 11
-58.545335
 21
33.162838
  0
LINE
  5
2C0
100
AcDbEntity
  8
0
100
AcDbLine
 62
7
  6
CONTINUOUS
 10
-58.545335
 20
32.582916
 11
-58.545335
 21
31.011955
  0
LINE
  5
2C1
100
AcDbEntity
  8
0
100
AcDbLine
 62
7
  6
CONTINUOUS
 10
-58.14243
 20
34.841663
 11
-58.14243
 21
34.366846
  0
LINE
  5
2C2
100
AcDbEntity
  8
0
100
AcDbLine
 62
7
  6
CONTINUOUS
 10
-58.127009
 20
31.011955
 11
-58.127009
 21
30.539734
  0
LINE
  5
2C3
100
AcDbEntity
  8
0
100
AcDbLine
 62
7
  6
CONTINUOUS
 10
-74.667104
 20
-31.135539
 11
-74.860434
 21
-31.674227
  0
LINE
  5
2C4
100
AcDbEntity
  8
0
100
AcDbLine
 62
7
  6
CONTINUOUS
 10
-74.187822
 20
-36.45658
 11
-74.381151
 21
-36.995268
  0
LINE
  5
2C5
100
AcDbEntity
  8
0
100
AcDbLine
 62
7
  6
CONTINUOUS
 10
-74.290818
 20
-30.092789
 11
-74.589743
 21
-30.914079
  0
LINE
  5
2C6
100
AcDbEntity
  8
0
100
AcDbLine
 62
7
  6
CONTINUOUS
 10
-73.811534
 20
-35.413832
 11
-74.11061
 21
-36.23512
  0
LINE
  5
2C7
100
AcDbEntity
  8
0
100
AcDbLine
 62
7
  6
CONTINUOUS
 10
-73.943018
 20
-35.144276
 11
-74.638823
 21
-36.995268
  0
LINE
  5
2C8
100
AcDbEntity
  8
0
100
AcDbLine
 62
7
  6
CONTINUOUS
 10
-74.422301
 20
-29.824732
 11
-75.118106
 21
-31.674227
  0
LINE
  5
2C9
100
AcDbEntity
  8
0
100
AcDbLine
 62
7
  6
CONTINUOUS
 10
-72.296311
 20
33.40432
 11
-72.916362
 21
33.135118
  0
LINE
  5
2CA
100
AcDbEntity
  8
0
100
AcDbLine
 62
7
  6
CONTINUOUS
 10
-69.3681106858
 20
34.1936706882
 11
-70.5343595816
 21
33.6873311242
  0
LINE
  5
2CB
100
AcDbEntity
  8
0
100
AcDbLine
 62
7
  6
CONTINUOUS
 10
-71.147432
 20
33.42116
 11
-73.0708395371
 21
32.5860927668
  0
LINE
  5
2CC
100
AcDbEntity
  8
0
100
AcDbLine
 62
7
  6
CONTINUOUS
 10
-71.328097
 20
32.725349
 11
-72.5937649726
 21
32.1758460119
  0
LINE
  5
2CD
100
AcDbEntity
  8
0
100
AcDbLine
 62
7
  6
CONTINUOUS
 10
-68.824948
 20
33.812117
 11
-70.714047
 21
32.991945
  0
LINE
  5
2CE
100
AcDbEntity
  8
0
100
AcDbLine
 62
7
  6
CONTINUOUS
 10
-68.951003
 20
33.326633
 11
-69.558611
 21
33.062833
  0
LWPOLYLINE
  5
2CF
100
AcDbEntity
  8
0
100
AcDbPolyline
 62
7
  6
CONTINUOUS
 90
37
 70
0
 10
-43.1869761621
 20
-28.7834184741
 10
-43.164883843
 20
-28.8524329621
 10
-43.1391222204
 20
-28.9190964992
 10
-43.1096426308
 20
-28.9826995763
 10
-43.0763320938
 20
-29.0432200479
 10
-43.0393035898
 20
-29.1006780693
 10
-42.9988473969
 20
-29.1544272416
 10
-42.9549523832
 20
-29.2043118677
 10
-42.9076296805
 20
-29.2504856652
 10
-42.8572029618
 20
-29.2927662454
 10
-42.8035279049
 20
-29.3309226099
 10
-42.7467488321
 20
-29.3651841672
 10
-42.6876223821
 20
-29.3960593022
 10
-42.6260998953
 20
-29.4237687536
 10
-42.5622300315
 20
-29.448090829
 10
-42.4969154093
 20
-29.4688704209
 10
-42.4302426941
 20
-29.4861341666
 10
-42.3621252207
 20
-29.4998547752
 10
-42.2932056115
 20
-29.5097963066
 10
-42.2233371308
 20
-29.5158643505
 10
-42.1526665144
 20
-29.5181530223
 10
-42.0822765922
 20
-29.5167092587
 10
-42.0120136128
 20
-29.5113730889
 10
-41.9420313276
 20
-29.5023046077
 10
-41.8738738208
 20
-29.4900309283
 10
-41.8078301253
 20
-29.4742953622
 10
-41.7436112082
 20
-29.4553550446
 10
-41.6818940545
 20
-29.4345077594
 10
-41.6226678043
 20
-29.4117467889
 10
-41.5659433174
 20
-29.3870792583
 10
-41.5124301587
 20
-29.3618234684
 10
-41.462031117
 20
-29.3361756539
 10
-41.4148434034
 20
-29.3099397149
 10
-41.3718682152
 20
-29.283845203
 10
-41.3334392847
 20
-29.25813525
 10
-41.2992228797
 20
-29.2325666722
 10
-41.269219
 20
-29.207139454
  0
LWPOLYLINE
  5
2D0
100
AcDbEntity
  8
RACCORDO
100
AcDbPolyline
 62
250
  6
CONTINUOUS
 90
3
 70
0
 10
82.6533823498
 20
-38.4656330772
 10
82.6139014447
 20
-38.46877654
 10
82.5922688944
 20
-38.4700602283
  0
LWPOLYLINE
  5
2D1
100
AcDbEntity
  8
0
100
AcDbPolyline
 62
7
  6
CONTINUOUS
 90
23
 70
0
 10
-38.5825696709
 20
-29.1375080351
 10
-38.605253547
 20
-29.1029578391
 10
-38.6281516979
 20
-29.068414189
 10
-38.6512081577
 20
-29.033976399
 10
-38.6744416745
 20
-28.9997410118
 10
-38.6978416121
 20
-28.9656862171
 10
-38.7214186067
 20
-28.9318337691
 10
-38.7452233152
 20
-28.8983455135
 10
-38.7691398169
 20
-28.865258531
 10
-38.7932840324
 20
-28.8325356237
 10
-38.8180543812
 20
-28.800227184
 10
-38.8433772586
 20
-28.7682136304
 10
-38.8693262692
 20
-28.7366144302
 10
-38.8965206458
 20
-28.7058384744
 10
-38.9249604182
 20
-28.6755885362
 10
-38.9546455566
 20
-28.6461616223
 10
-38.9861952043
 20
-28.6188577156
 10
-39.020013172
 20
-28.5939219332
 10
-39.055695649
 20
-28.5711085644
 10
-39.0926503463
 20
-28.5509811207
 10
-39.1306798342
 20
-28.5337272358
 10
-39.1699815423
 20
-28.519158741
 10
-39.2105554708
 20
-28.5072754318
  0
LINE
  5
2D2
100
AcDbEntity
  8
0
100
AcDbLine
 62
7
  6
CONTINUOUS
 10
-38.5374901988
 20
-29.2071274864
 11
-38.5825696709
 21
-29.1375080351
  0
LINE
  5
2D3
100
AcDbEntity
  8
0
100
AcDbLine
 62
7
  6
CONTINUOUS
 10
-37.9953821075
 20
-29.2770135951
 11
-37.6450712848
 21
-29.825147
  0
LINE
  5
2D4
100
AcDbEntity
  8
0
100
AcDbLine
 62
7
  6
CONTINUOUS
 10
-38.1443891542
 20
-29.825147
 11
-38.5374901988
 21
-29.2071274864
  0
LWPOLYLINE
  5
2D5
100
AcDbEntity
  8
0
100
AcDbPolyline
 62
7
  6
CONTINUOUS
 90
64
 70
0
 10
-41.2835432795
 20
-27.7623910767
 10
-41.2988154351
 20
-27.7117482863
 10
-41.3159982408
 20
-27.6620618257
 10
-41.3350916967
 20
-27.6133314471
 10
-41.3558086859
 20
-27.565252021
 10
-41.3784363253
 20
-27.5181282448
 10
-41.4038359651
 20
-27.4728743734
 10
-41.4321861251
 20
-27.4293901817
 10
-41.4633082855
 20
-27.387774995
 10
-41.497528238
 20
-27.3492418894
 10
-41.5353050109
 20
-27.3142453386
 10
-41.576179576
 20
-27.2823295216
 10
-41.61910064
 20
-27.2533418899
 10
-41.663982867
 20
-27.2273178879
 10
-41.7109115929
 20
-27.2042211444
 10
-41.7590915327
 20
-27.1837915209
 10
-41.808438826
 20
-27.1659519394
 10
-41.8590373332
 20
-27.1507788939
 10
-41.9103433511
 20
-27.1382427022
 10
-41.9623546031
 20
-27.1284433474
 10
-42.0150733657
 20
-27.1212804999
 10
-42.0679627652
 20
-27.1164240848
 10
-42.1208986208
 20
-27.1139042171
 10
-42.1740051133
 20
-27.1136906822
 10
-42.2271179106
 20
-27.1153629725
 10
-42.2802838978
 20
-27.1186475149
 10
-42.3334561898
 20
-27.1238179343
 10
-42.3863298003
 20
-27.1312745644
 10
-42.4390896982
 20
-27.1410653032
 10
-42.4915509146
 20
-27.1531424836
 10
-42.5428535562
 20
-27.1677631673
 10
-42.5929068726
 20
-27.1851706373
 10
-42.6418016142
 20
-27.2051220975
 10
-42.6889501386
 20
-27.2271455099
 10
-42.7342428326
 20
-27.2510366568
 10
-42.7777893093
 20
-27.2770002845
 10
-42.819330766
 20
-27.3051778042
 10
-42.8587873474
 20
-27.3356745617
 10
-42.8962389088
 20
-27.3683859624
 10
-42.9316662132
 20
-27.403138536
 10
-42.9650161897
 20
-27.4400663356
 10
-42.9963419093
 20
-27.4790361482
 10
-43.0257833473
 20
-27.5194734766
 10
-43.0534373189
 20
-27.5611945063
 10
-43.079207009
 20
-27.6043836857
 10
-43.1029419476
 20
-27.6490187948
 10
-43.1244235975
 20
-27.6949657628
 10
-43.1438704958
 20
-27.7423593451
 10
-43.1617877839
 20
-27.7915806698
 10
-43.178403859
 20
-27.8425466295
 10
-43.1934903238
 20
-27.8953412952
 10
-43.2068671285
 20
-27.9505968696
 10
-43.2186579378
 20
-28.0083995117
 10
-43.2287390869
 20
-28.0686645524
 10
-43.2365595317
 20
-28.1317682995
 10
-43.2420696412
 20
-28.1981264485
 10
-43.2453190463
 20
-28.2673253082
 10
-43.2459055959
 20
-28.3384969587
 10
-43.243907257
 20
-28.4121606812
 10
-43.2392460625
 20
-28.4877987383
 10
-43.231285961
 20
-28.5629864182
 10
-43.2199384006
 20
-28.6375473863
 10
-43.2052919331
 20
-28.7116574599
 10
-43.1869761621
 20
-28.7834184741
  0
LINE
  5
2D6
100
AcDbEntity
  8
0
100
AcDbLine
 62
7
  6
CONTINUOUS
 10
-42.15121
 20
-28.296498
 11
-42.15121
 21
-28.648476
  0
LINE
  5
2D7
100
AcDbEntity
  8
0
100
AcDbLine
 62
7
  6
CONTINUOUS
 10
-41.269219
 20
-28.648476
 11
-41.269219
 21
-29.207139454
  0
LINE
  5
2D8
100
AcDbEntity
  8
0
100
AcDbLine
 62
7
  6
CONTINUOUS
 10
-40.880405
 20
-28.294451
 11
-40.880405
 21
-29.4076843893
  0
LINE
  5
2D9
100
AcDbEntity
  8
0
100
AcDbLine
 62
7
  6
CONTINUOUS
 10
-40.289
 20
-26.8251471975
 11
-40.289
 21
-29.825147
  0
LINE
  5
2DA
100
AcDbEntity
  8
0
100
AcDbLine
 62
7
  6
CONTINUOUS
 10
-39.892002
 20
-27.156661521
 11
-39.892002
 21
-28.149158107
  0
LINE
  5
2DB
100
AcDbEntity
  8
0
100
AcDbLine
 62
7
  6
CONTINUOUS
 10
-39.892002
 20
-28.4929507388
 11
-39.892002
 21
-29.825147
  0
LINE
  5
2DC
100
AcDbEntity
  8
0
100
AcDbLine
 62
7
  6
CONTINUOUS
 10
-70.520703
 20
-35.144276
 11
-71.05161
 21
-36.033112
  0
LINE
  5
2DD
100
AcDbEntity
  8
0
100
AcDbLine
 62
7
  6
CONTINUOUS
 10
-70.226968
 20
-35.144276
 11
-70.925317
 21
-36.250083
  0
LWPOLYLINE
  5
2DE
100
AcDbEntity
  8
RACCORDO
100
AcDbPolyline
 62
250
  6
CONTINUOUS
 90
3
 70
0
 10
82.5922688944
 20
-38.4700602283
 10
82.5461020641
 20
-38.4722303747
 10
82.5218481896
 20
-38.4729905001
  0
LWPOLYLINE
  5
2DF
100
AcDbEntity
  8
0
100
AcDbPolyline
 62
7
  6
CONTINUOUS
 90
34
 70
0
 10
79.0466666413
 20
-36.7895619967
 10
79.0778390022
 20
-36.7886650486
 10
79.1088006817
 20
-36.7862290174
 10
79.1395516799
 20
-36.7822539006
 10
79.1702127621
 20
-36.7767957931
 10
79.200663163
 20
-36.7697985908
 10
79.2305405862
 20
-36.7610939906
 10
79.259871321
 20
-36.7506839965
 10
79.2886290782
 20
-36.7385665836
 10
79.3163726942
 20
-36.7245673999
 10
79.3430396826
 20
-36.7085206403
 10
79.3686925298
 20
-36.690592073
 10
79.3930775313
 20
-36.6711047049
 10
79.4161865284
 20
-36.6500502828
 10
79.4380276798
 20
-36.62743702
 10
79.458371757
 20
-36.6036126287
 10
79.4771689676
 20
-36.5785641882
 10
79.4944691041
 20
-36.5523045818
 10
79.5101923151
 20
-36.5252202382
 10
79.5242440096
 20
-36.4972837026
 10
79.5367187786
 20
-36.4685224009
 10
79.5478205449
 20
-36.4394050967
 10
79.557522185
 20
-36.409999556
 10
79.5658508223
 20
-36.3802380007
 10
79.5730917504
 20
-36.3503858914
 10
79.579239713
 20
-36.3205284995
 10
79.5842999665
 20
-36.2905805516
 10
79.5885735732
 20
-36.2605516964
 10
79.5920909138
 20
-36.2304558144
 10
79.5948216077
 20
-36.2002790226
 10
79.5969755757
 20
-36.1699893235
 10
79.5986227915
 20
-36.1395760498
 10
79.5996932813
 20
-36.1090498647
 10
79.6001870453
 20
-36.0784107664
  0
LWPOLYLINE
  5
2E0
100
AcDbEntity
  8
0
100
AcDbPolyline
 62
7
  6
CONTINUOUS
 90
31
 70
0
 10
73.8034120054
 20
-36.0088079965
 10
73.8221020746
 20
-36.0084785966
 10
73.8407236841
 20
-36.0076812199
 10
73.8592768341
 20
-36.006415866
 10
73.8777717783
 20
-36.0047314706
 10
73.896198263
 20
-36.0025790972
 10
73.9145255263
 20
-35.9998119375
 10
73.9327831913
 20
-35.9964841218
 10
73.950941635
 20
-35.9925415174
 10
73.9688812272
 20
-35.98767492
 10
73.9866640563
 20
-35.9818290744
 10
74.004228034
 20
-35.9750592295
 10
74.0212672651
 20
-35.9672219348
 10
74.0377889681
 20
-35.9582776148
 10
74.0537859246
 20
-35.9482658337
 10
74.0689305838
 20
-35.9371618488
 10
74.0831967646
 20
-35.9248722679
 10
74.0966106481
 20
-35.9114904668
 10
74.1089232276
 20
-35.8972718559
 10
74.1200932076
 20
-35.8821925921
 10
74.1301618835
 20
-35.8662765032
 10
74.1390041356
 20
-35.8498505097
 10
74.1465595482
 20
-35.8329499177
 10
74.152888537
 20
-35.8155394111
 10
74.1580472289
 20
-35.7978399828
 10
74.1618999242
 20
-35.7798506366
 10
74.1645823226
 20
-35.7615723625
 10
74.1665576497
 20
-35.7432291384
 10
74.167980314
 20
-35.7248956244
 10
74.168695907
 20
-35.7064971595
 10
74.1686984204
 20
-35.6692581985
  0
LWPOLYLINE
  5
2E1
100
AcDbEntity
  8
0
100
AcDbPolyline
 62
7
  6
CONTINUOUS
 90
31
 70
0
 10
67.3595983457
 20
-36.0088079965
 10
67.3782884149
 20
-36.0084785966
 10
67.3969100244
 20
-36.0076812199
 10
67.4154631744
 20
-36.006415866
 10
67.4339581186
 20
-36.0047314706
 10
67.4523846033
 20
-36.0025790972
 10
67.4707118666
 20
-35.9998119375
 10
67.4889695316
 20
-35.9964841218
 10
67.5071279753
 20
-35.9925415174
 10
67.5250675675
 20
-35.98767492
 10
67.5428503966
 20
-35.9818290744
 10
67.5604143743
 20
-35.9750592295
 10
67.5774536054
 20
-35.9672219348
 10
67.5939753084
 20
-35.9582776148
 10
67.6099722649
 20
-35.9482658337
 10
67.6251169242
 20
-35.9371618488
 10
67.6393831049
 20
-35.9248722679
 10
67.6527969884
 20
-35.9114904668
 10
67.6651095679
 20
-35.8972718559
 10
67.6762795479
 20
-35.8821925921
 10
67.6863482238
 20
-35.8662765032
 10
67.6951904759
 20
-35.8498505097
 10
67.7027458886
 20
-35.8329499177
 10
67.7090748773
 20
-35.8155394111
 10
67.7142335692
 20
-35.7978399828
 10
67.7180862645
 20
-35.7798506366
 10
67.7207686629
 20
-35.7615723625
 10
67.72274399
 20
-35.7432291384
 10
67.7241666543
 20
-35.7248956244
 10
67.7248822473
 20
-35.7064971595
 10
67.7248847607
 20
-35.6692581985
  0
LINE
  5
2E2
100
AcDbEntity
  8
RACCORDO
100
AcDbLine
 62
250
  6
CONTINUOUS
 10
82.5218481896
 20
-38.4729905001
 11
82.4466236443
 21
-38.4742367328
  0
LINE
  5
2E3
100
AcDbEntity
  8
RACCORDO
100
AcDbLine
 62
7
  6
CONTINUOUS
 10
83.8016445583
 20
-41.0
 11
-83.8016445583
 21
-41.0
  0
LINE
  5
2E4
100
AcDbEntity
  8
RACCORDO
100
AcDbLine
 62
7
  6
CONTINUOUS
 10
82.7004111396
 20
-39.0
 11
-82.7004111396
 21
-39.0
  0
LINE
  5
2E5
100
AcDbEntity
  8
RACCORDO
100
AcDbLine
 62
250
  6
CONTINUOUS
 10
-82.4466236443
 20
-38.7462125047
 11
-64.1
 21
-38.7462125047
  0
LINE
  5
2E6
100
AcDbEntity
  8
RACCORDO
100
AcDbLine
 62
250
  6
CONTINUOUS
 10
82.4466236443
 20
-38.7462125047
 11
64.1
 21
-38.7462125047
  0
LINE
  5
2E7
100
AcDbEntity
  8
DRAFT
100
AcDbLine
 62
7
  6
CONTINUOUS
 10
-63.3
 20
-38.6960348802
 11
-32.25
 21
-38.6960348802
  0
LINE
  5
2E8
100
AcDbEntity
  8
DRAFT
100
AcDbLine
 62
7
  6
CONTINUOUS
 10
-31.45
 20
-38.6960348802
 11
-0.4
 21
-38.6960348802
  0
LINE
  5
2E9
100
AcDbEntity
  8
DRAFT
100
AcDbLine
 62
7
  6
CONTINUOUS
 10
0.4
 20
-38.6960348802
 11
31.45
 21
-38.6960348802
  0
LINE
  5
2EA
100
AcDbEntity
  8
DRAFT
100
AcDbLine
 62
7
  6
CONTINUOUS
 10
32.25
 20
-38.6960348802
 11
63.3
 21
-38.6960348802
  0
LINE
  5
2EB
100
AcDbEntity
  8
RACCORDO
100
AcDbLine
 62
250
  6
CONTINUOUS
 10
-64.1
 20
-38.5
 11
-63.3
 21
-38.5
  0
LINE
  5
2EC
100
AcDbEntity
  8
RACCORDO
100
AcDbLine
 62
250
  6
CONTINUOUS
 10
-32.25
 20
-38.5
 11
-31.45
 21
-38.5
  0
LINE
  5
2ED
100
AcDbEntity
  8
RACCORDO
100
AcDbLine
 62
250
  6
CONTINUOUS
 10
-0.4
 20
-38.5
 11
0.4
 21
-38.5
  0
LINE
  5
2EE
100
AcDbEntity
  8
RACCORDO
100
AcDbLine
 62
250
  6
CONTINUOUS
 10
31.45
 20
-38.5
 11
32.25
 21
-38.5
  0
LINE
  5
2EF
100
AcDbEntity
  8
RACCORDO
100
AcDbLine
 62
250
  6
CONTINUOUS
 10
63.3
 20
-38.5
 11
64.1
 21
-38.5
  0
LINE
  5
2F0
100
AcDbEntity
  8
RACCORDO
100
AcDbLine
 62
250
  6
CONTINUOUS
 10
-82.4466236443
 20
-38.4742367328
 11
-64.1
 21
-38.4742367328
  0
LINE
  5
2F1
100
AcDbEntity
  8
RACCORDO
100
AcDbLine
 62
250
  6
CONTINUOUS
 10
82.4466236443
 20
-38.4742367328
 11
64.1
 21
-38.4742367328
  0
LINE
  5
2F2
100
AcDbEntity
  8
0
100
AcDbLine
 62
7
  6
CONTINUOUS
 10
-63.3
 20
-38.3
 11
-32.25
 21
-38.3
  0
LINE
  5
2F3
100
AcDbEntity
  8
0
100
AcDbLine
 62
7
  6
CONTINUOUS
 10
-31.45
 20
-38.3
 11
-0.4
 21
-38.3
  0
LINE
  5
2F4
100
AcDbEntity
  8
0
100
AcDbLine
 62
7
  6
CONTINUOUS
 10
0.4
 20
-38.3
 11
31.45
 21
-38.3
  0
LINE
  5
2F5
100
AcDbEntity
  8
0
100
AcDbLine
 62
7
  6
CONTINUOUS
 10
32.25
 20
-38.3
 11
63.3
 21
-38.3
  0
LINE
  5
2F6
100
AcDbEntity
  8
0
100
AcDbLine
 62
7
  6
CONTINUOUS
 10
63.3
 20
-37.8126002243
 11
32.25
 21
-37.8126002243
  0
LINE
  5
2F7
100
AcDbEntity
  8
0
100
AcDbLine
 62
7
  6
CONTINUOUS
 10
31.45
 20
-37.8126002243
 11
0.4
 21
-37.8126002243
  0
LINE
  5
2F8
100
AcDbEntity
  8
0
100
AcDbLine
 62
7
  6
CONTINUOUS
 10
-0.4
 20
-37.8126002243
 11
-31.45
 21
-37.8126002243
  0
LINE
  5
2F9
100
AcDbEntity
  8
0
100
AcDbLine
 62
7
  6
CONTINUOUS
 10
-32.25
 20
-37.8126002243
 11
-63.3
 21
-37.8126002243
  0
LINE
  5
2FA
100
AcDbEntity
  8
0
100
AcDbLine
 62
7
  6
CONTINUOUS
 10
66.602081
 20
-37.003411
 11
66.852009
 21
-37.003411
  0
LINE
  5
2FB
100
AcDbEntity
  8
0
100
AcDbLine
 62
7
  6
CONTINUOUS
 10
68.135105
 20
-37.003411
 11
68.392775
 21
-37.003411
  0
LINE
  5
2FC
100
AcDbEntity
  8
0
100
AcDbLine
 62
7
  6
CONTINUOUS
 10
69.511101
 20
-37.003411
 11
69.78411
 21
-37.003411
  0
LINE
  5
2FD
100
AcDbEntity
  8
0
100
AcDbLine
 62
7
  6
CONTINUOUS
 10
70.479704
 20
-37.003411
 11
70.729633
 21
-37.003411
  0
LINE
  5
2FE
100
AcDbEntity
  8
0
100
AcDbLine
 62
7
  6
CONTINUOUS
 10
71.615997
 20
-37.003411
 11
71.883893
 21
-37.003411
  0
LINE
  5
2FF
100
AcDbEntity
  8
0
100
AcDbLine
 62
7
  6
CONTINUOUS
 10
73.045894
 20
-37.003411
 11
73.295823
 21
-37.003411
  0
LINE
  5
300
100
AcDbEntity
  8
0
100
AcDbLine
 62
7
  6
CONTINUOUS
 10
74.76443
 20
-37.003411
 11
76.130055
 21
-37.003411
  0
LINE
  5
301
100
AcDbEntity
  8
0
100
AcDbLine
 62
7
  6
CONTINUOUS
 10
76.457256
 20
-37.003411
 11
76.699443
 21
-37.003411
  0
LINE
  5
302
100
AcDbEntity
  8
0
100
AcDbLine
 62
7
  6
CONTINUOUS
 10
77.645113
 20
-37.003411
 11
77.925863
 21
-37.003411
  0
LINE
  5
303
100
AcDbEntity
  8
0
100
AcDbLine
 62
7
  6
CONTINUOUS
 10
78.330336
 20
-37.003411
 11
79.0801224044
 21
-37.003411
  0
LINE
  5
304
100
AcDbEntity
  8
0
100
AcDbLine
 62
7
  6
CONTINUOUS
 10
80.206044
 20
-37.003411
 11
80.474086
 21
-37.003411
  0
LINE
  5
305
100
AcDbEntity
  8
0
100
AcDbLine
 62
7
  6
CONTINUOUS
 10
-70.925317
 20
-36.995268
 11
-71.175209
 21
-36.995268
  0
LINE
  5
306
100
AcDbEntity
  8
0
100
AcDbLine
 62
7
  6
CONTINUOUS
 10
-71.572192
 20
-36.995268
 11
-72.760149
 21
-36.995268
  0
LINE
  5
307
100
AcDbEntity
  8
0
100
AcDbLine
 62
7
  6
CONTINUOUS
 10
-72.98954
 20
-36.995268
 11
-73.262625
 21
-36.995268
  0
LINE
  5
308
100
AcDbEntity
  8
0
100
AcDbLine
 62
7
  6
CONTINUOUS
 10
-74.381151
 20
-36.995268
 11
-74.638823
 21
-36.995268
  0
LINE
  5
309
100
AcDbEntity
  8
0
100
AcDbLine
 62
7
  6
CONTINUOUS
 10
-75.337172
 20
-36.995268
 11
-75.587064
 21
-36.995268
  0
LINE
  5
30A
100
AcDbEntity
  8
0
100
AcDbLine
 62
7
  6
CONTINUOUS
 10
-76.481436
 20
-36.995268
 11
-76.731477
 21
-36.995268
  0
LWPOLYLINE
  5
30B
100
AcDbEntity
  8
RACCORDO
100
AcDbPolyline
 62
250
  6
CONTINUOUS
 90
3
 70
0
 10
-82.4970010354
 20
-38.4736802304
 10
-82.4720873184
 20
-38.4741226621
 10
-82.4466236443
 20
-38.4742367328
  0
LWPOLYLINE
  5
30C
100
AcDbEntity
  8
0
100
AcDbPolyline
 62
7
  6
CONTINUOUS
 90
12
 70
0
 10
-38.7357942173
 20
-28.4602085834
 10
-38.6495028362
 20
-28.504934435
 10
-38.5694624544
 20
-28.5549417936
 10
-38.4956730719
 20
-28.6102320239
 10
-38.4292918559
 20
-28.671641754
 10
-38.3691616393
 20
-28.7383376743
 10
-38.3118109205
 20
-28.8078155815
 10
-38.2569621972
 20
-28.8792828201
 10
-38.2048929717
 20
-28.9535337634
 10
-38.1529642495
 20
-29.0304438905
 10
-38.1007938003
 20
-29.1101548667
 10
-37.9953821075
 20
-29.2770135951
  0
LINE
  5
30D
100
AcDbEntity
  8
RACCORDO
100
AcDbLine
 62
7
  6
CONTINUOUS
 10
-32.25
 20
-23.0
 11
-32.25
 21
-34.2042896174
  0
LINE
  5
30E
100
AcDbEntity
  8
RACCORDO
100
AcDbLine
 62
7
  6
CONTINUOUS
 10
-32.25
 20
-34.8433730757
 11
-32.25
 21
-38.9790368883
  0
LINE
  5
30F
100
AcDbEntity
  8
RACCORDO
100
AcDbLine
 62
7
  6
CONTINUOUS
 10
-32.25
 20
23.0
 11
-32.25
 21
34.2042896174
  0
LINE
  5
310
100
AcDbEntity
  8
RACCORDO
100
AcDbLine
 62
7
  6
CONTINUOUS
 10
-32.25
 20
34.8433730757
 11
-32.25
 21
38.9790368883
  0
LINE
  5
311
100
AcDbEntity
  8
RACCORDO
100
AcDbLine
 62
7
  6
CONTINUOUS
 10
-31.45
 20
-23.0
 11
-31.45
 21
-34.2042896174
  0
LINE
  5
312
100
AcDbEntity
  8
RACCORDO
100
AcDbLine
 62
7
  6
CONTINUOUS
 10
-31.45
 20
-34.8433730757
 11
-31.45
 21
-38.9790368883
  0
LINE
  5
313
100
AcDbEntity
  8
RACCORDO
100
AcDbLine
 62
7
  6
CONTINUOUS
 10
-31.45
 20
23.0
 11
-31.45
 21
34.2042896174
  0
LINE
  5
314
100
AcDbEntity
  8
RACCORDO
100
AcDbLine
 62
7
  6
CONTINUOUS
 10
-31.45
 20
34.8433730757
 11
-31.45
 21
38.9790368883
  0
LINE
  5
315
100
AcDbEntity
  8
RACCORDO
100
AcDbLine
 62
250
  6
CONTINUOUS
 10
-82.7462125399
 20
-38.4466236795
 11
-83.0
 21
-38.7004111396
  0
LINE
  5
316
100
AcDbEntity
  8
RACCORDO
100
AcDbLine
 62
250
  6
CONTINUOUS
 10
-82.4466236443
 20
-38.7462125047
 11
-82.7004111396
 21
-39.0
  0
LINE
  5
317
100
AcDbEntity
  8
0
100
AcDbLine
 62
7
  6
CONTINUOUS
 10
78.580265
 20
-36.789562
 11
79.0466719504
 21
-36.789562
  0
LINE
  5
318
100
AcDbEntity
  8
0
100
AcDbLine
 62
7
  6
CONTINUOUS
 10
75.014358
 20
-36.78182
 11
76.130055
 21
-36.78182
  0
LINE
  5
319
100
AcDbEntity
  8
0
100
AcDbLine
 62
7
  6
CONTINUOUS
 10
-71.572192
 20
-36.773808
 11
-72.510257
 21
-36.773808
  0
LINE
  5
31A
100
AcDbEntity
  8
0
100
AcDbLine
 62
7
  6
CONTINUOUS
 10
71.615997
 20
-36.730256
 11
71.883893
 21
-36.730256
  0
LINE
  5
31B
100
AcDbEntity
  8
0
100
AcDbLine
 62
7
  6
CONTINUOUS
 10
80.206044
 20
-36.730256
 11
80.474086
 21
-36.730256
  0
LINE
  5
31C
100
AcDbEntity
  8
0
100
AcDbLine
 62
7
  6
CONTINUOUS
 10
68.586028
 20
-36.464844
 11
69.328073
 21
-36.464844
  0
LINE
  5
31D
100
AcDbEntity
  8
0
100
AcDbLine
 62
7
  6
CONTINUOUS
 10
-73.445629
 20
-36.45658
 11
-74.187822
 21
-36.45658
  0
LINE
  5
31E
100
AcDbEntity
  8
0
100
AcDbLine
 62
7
  6
CONTINUOUS
 10
68.6633
 20
-36.243253
 11
69.237801
 21
-36.243253
  0
LINE
  5
31F
100
AcDbEntity
  8
0
100
AcDbLine
 62
7
  6
CONTINUOUS
 10
-73.535859
 20
-36.23512
 11
-74.11061
 21
-36.23512
  0
LINE
  5
320
100
AcDbEntity
  8
0
100
AcDbLine
 62
7
  6
CONTINUOUS
 10
66.852009
 20
-36.222657
 11
67.4342221573
 21
-36.222657
  0
LINE
  5
321
100
AcDbEntity
  8
0
100
AcDbLine
 62
7
  6
CONTINUOUS
 10
73.295823
 20
-36.222657
 11
73.878035817
 21
-36.222657
  0
LINE
  5
322
100
AcDbEntity
  8
0
100
AcDbLine
 62
7
  6
CONTINUOUS
 10
75.014358
 20
-36.163498
 11
76.027075
 21
-36.163498
  0
LINE
  5
323
100
AcDbEntity
  8
0
100
AcDbLine
 62
7
  6
CONTINUOUS
 10
66.852009
 20
-36.008808
 11
67.359609179
 21
-36.008808
  0
LINE
  5
324
100
AcDbEntity
  8
0
100
AcDbLine
 62
7
  6
CONTINUOUS
 10
73.295823
 20
-36.008808
 11
73.8034228387
 21
-36.008808
  0
LINE
  5
325
100
AcDbEntity
  8
0
100
AcDbLine
 62
7
  6
CONTINUOUS
 10
75.014358
 20
-35.941907
 11
76.027075
 21
-35.941907
  0
LINE
  5
326
100
AcDbEntity
  8
0
100
AcDbLine
 62
7
  6
CONTINUOUS
 10
69.85364
 20
-35.375002
 11
70.479704
 21
-35.375002
  0
LINE
  5
327
100
AcDbEntity
  8
0
100
AcDbLine
 62
7
  6
CONTINUOUS
 10
70.729633
 20
-35.375002
 11
71.355697
 21
-35.375002
  0
LINE
  5
328
100
AcDbEntity
  8
0
100
AcDbLine
 62
7
  6
CONTINUOUS
 10
75.014358
 20
-35.375002
 11
76.112088
 21
-35.375002
  0
LINE
  5
329
100
AcDbEntity
  8
0
100
AcDbLine
 62
7
  6
CONTINUOUS
 10
66.852009
 20
-35.36726
 11
67.359609179
 21
-35.36726
  0
LINE
  5
32A
100
AcDbEntity
  8
0
100
AcDbLine
 62
7
  6
CONTINUOUS
 10
73.295823
 20
-35.36726
 11
73.8034228387
 21
-35.36726
  0
LINE
  5
32B
100
AcDbEntity
  8
0
100
AcDbLine
 62
7
  6
CONTINUOUS
 10
78.580265
 20
-35.36726
 11
79.0466719504
 21
-35.36726
  0
LINE
  5
32C
100
AcDbEntity
  8
0
100
AcDbLine
 62
7
  6
CONTINUOUS
 10
-74.710948
 20
-35.365737
 11
-75.337172
 21
-35.365737
  0
LINE
  5
32D
100
AcDbEntity
  8
0
100
AcDbLine
 62
7
  6
CONTINUOUS
 10
-75.587064
 20
-35.365737
 11
-76.213289
 21
-35.365737
  0
LINE
  5
32E
100
AcDbEntity
  8
0
100
AcDbLine
 62
7
  6
CONTINUOUS
 10
66.602081
 20
-35.153411
 11
67.434276596
 21
-35.153411
  0
LINE
  5
32F
100
AcDbEntity
  8
0
100
AcDbLine
 62
7
  6
CONTINUOUS
 10
68.830845
 20
-35.153411
 11
69.114224
 21
-35.153411
  0
LINE
  5
330
100
AcDbEntity
  8
0
100
AcDbLine
 62
7
  6
CONTINUOUS
 10
69.85364
 20
-35.153411
 11
71.355697
 21
-35.153411
  0
LINE
  5
331
100
AcDbEntity
  8
0
100
AcDbLine
 62
7
  6
CONTINUOUS
 10
73.045894
 20
-35.153411
 11
73.8780902557
 21
-35.153411
  0
LINE
  5
332
100
AcDbEntity
  8
0
100
AcDbLine
 62
7
  6
CONTINUOUS
 10
74.76443
 20
-35.153411
 11
76.112088
 21
-35.153411
  0
LINE
  5
333
100
AcDbEntity
  8
0
100
AcDbLine
 62
7
  6
CONTINUOUS
 10
76.457256
 20
-35.153411
 11
76.753636
 21
-35.153411
  0
LINE
  5
334
100
AcDbEntity
  8
0
100
AcDbLine
 62
7
  6
CONTINUOUS
 10
77.683676
 20
-35.153411
 11
77.925863
 21
-35.153411
  0
LINE
  5
335
100
AcDbEntity
  8
0
100
AcDbLine
 62
7
  6
CONTINUOUS
 10
78.330336
 20
-35.153411
 11
79.0801224044
 21
-35.153411
  0
LINE
  5
336
100
AcDbEntity
  8
0
100
AcDbLine
 62
7
  6
CONTINUOUS
 10
-70.226968
 20
-35.144276
 11
-70.520703
 21
-35.144276
  0
LINE
  5
337
100
AcDbEntity
  8
0
100
AcDbLine
 62
7
  6
CONTINUOUS
 10
-71.582517
 20
-35.144276
 11
-71.873707
 21
-35.144276
  0
LINE
  5
338
100
AcDbEntity
  8
0
100
AcDbLine
 62
7
  6
CONTINUOUS
 10
-72.510257
 20
-35.144276
 11
-72.760149
 21
-35.144276
  0
LINE
  5
339
100
AcDbEntity
  8
0
100
AcDbLine
 62
7
  6
CONTINUOUS
 10
-73.659608
 20
-35.144276
 11
-73.943018
 21
-35.144276
  0
LINE
  5
33A
100
AcDbEntity
  8
0
100
AcDbLine
 62
7
  6
CONTINUOUS
 10
-74.710948
 20
-35.144276
 11
-76.213289
 21
-35.144276
  0
LINE
  5
33B
100
AcDbEntity
  8
0
100
AcDbLine
 62
7
  6
CONTINUOUS
 10
-76.481436
 20
-35.144276
 11
-76.731477
 21
-35.144276
  0
LINE
  5
33C
100
AcDbEntity
  8
0
100
AcDbLine
 62
7
  6
CONTINUOUS
 10
64.1
 20
-34.8433730757
 11
63.3
 21
-34.8433730757
  0
LINE
  5
33D
100
AcDbEntity
  8
0
100
AcDbLine
 62
7
  6
CONTINUOUS
 10
32.25
 20
-34.8433730757
 11
31.45
 21
-34.8433730757
  0
LINE
  5
33E
100
AcDbEntity
  8
0
100
AcDbLine
 62
7
  6
CONTINUOUS
 10
0.4
 20
-34.8433730757
 11
-0.4
 21
-34.8433730757
  0
LINE
  5
33F
100
AcDbEntity
  8
0
100
AcDbLine
 62
7
  6
CONTINUOUS
 10
-31.45
 20
-34.8433730757
 11
-32.25
 21
-34.8433730757
  0
LINE
  5
340
100
AcDbEntity
  8
0
100
AcDbLine
 62
7
  6
CONTINUOUS
 10
-63.3
 20
-34.8433730757
 11
-64.1
 21
-34.8433730757
  0
LINE
  5
341
100
AcDbEntity
  8
0
100
AcDbLine
 62
7
  6
CONTINUOUS
 10
-72.485717
 20
-34.334748
 11
-72.766583
 21
-34.334748
  0
LINE
  5
342
100
AcDbEntity
  8
0
100
AcDbLine
 62
7
  6
CONTINUOUS
 10
-73.71228
 20
-34.334748
 11
-73.954689
 21
-34.334748
  0
LINE
  5
343
100
AcDbEntity
  8
0
100
AcDbLine
 62
7
  6
CONTINUOUS
 10
-74.382348
 20
-34.334748
 11
-74.632389
 21
-34.334748
  0
LINE
  5
344
100
AcDbEntity
  8
0
100
AcDbLine
 62
7
  6
CONTINUOUS
 10
64.1
 20
-34.2042896174
 11
63.3
 21
-34.2042896174
  0
LINE
  5
345
100
AcDbEntity
  8
0
100
AcDbLine
 62
7
  6
CONTINUOUS
 10
32.25
 20
-34.2042896174
 11
31.45
 21
-34.2042896174
  0
LINE
  5
346
100
AcDbEntity
  8
0
100
AcDbLine
 62
7
  6
CONTINUOUS
 10
0.4
 20
-34.2042896174
 11
-0.4
 21
-34.2042896174
  0
LINE
  5
347
100
AcDbEntity
  8
0
100
AcDbLine
 62
7
  6
CONTINUOUS
 10
-31.45
 20
-34.2042896174
 11
-32.25
 21
-34.2042896174
  0
LINE
  5
348
100
AcDbEntity
  8
0
100
AcDbLine
 62
7
  6
CONTINUOUS
 10
-63.3
 20
-34.2042896174
 11
-64.1
 21
-34.2042896174
  0
LINE
  5
349
100
AcDbEntity
  8
0
100
AcDbLine
 62
7
  6
CONTINUOUS
 10
-72.485717
 20
-32.485252
 11
-72.727827
 21
-32.485252
  0
LINE
  5
34A
100
AcDbEntity
  8
0
100
AcDbLine
 62
7
  6
CONTINUOUS
 10
-73.658261
 20
-32.485252
 11
-73.954689
 21
-32.485252
  0
LINE
  5
34B
100
AcDbEntity
  8
0
100
AcDbLine
 62
7
  6
CONTINUOUS
 10
-74.382348
 20
-32.485252
 11
-74.632389
 21
-32.485252
  0
LINE
  5
34C
100
AcDbEntity
  8
0
100
AcDbLine
 62
7
  6
CONTINUOUS
 10
-69.987252
 20
-31.674227
 11
-71.353125
 21
-31.674227
  0
LINE
  5
34D
100
AcDbEntity
  8
0
100
AcDbLine
 62
7
  6
CONTINUOUS
 10
-72.4767388397
 20
-31.674227
 11
-73.226563
 21
-31.674227
  0
LINE
  5
34E
100
AcDbEntity
  8
0
100
AcDbLine
 62
7
  6
CONTINUOUS
 10
-73.468823
 20
-31.674227
 11
-73.741908
 21
-31.674227
  0
LINE
  5
34F
100
AcDbEntity
  8
0
100
AcDbLine
 62
7
  6
CONTINUOUS
 10
-74.860434
 20
-31.674227
 11
-75.118106
 21
-31.674227
  0
LINE
  5
350
100
AcDbEntity
  8
0
100
AcDbLine
 62
7
  6
CONTINUOUS
 10
-75.339716
 20
-31.674227
 11
-75.581976
 21
-31.674227
  0
LINE
  5
351
100
AcDbEntity
  8
0
100
AcDbLine
 62
7
  6
CONTINUOUS
 10
-76.102558
 20
-31.674227
 11
-76.349906
 21
-31.674227
  0
LINE
  5
352
100
AcDbEntity
  8
0
100
AcDbLine
 62
7
  6
CONTINUOUS
 10
-76.870488
 20
-31.674227
 11
-77.112748
 21
-31.674227
  0
LINE
  5
353
100
AcDbEntity
  8
0
100
AcDbLine
 62
7
  6
CONTINUOUS
 10
-72.5102572085
 20
-31.460248
 11
-72.976671
 21
-31.460248
  0
LINE
  5
354
100
AcDbEntity
  8
0
100
AcDbLine
 62
7
  6
CONTINUOUS
 10
-69.987252
 20
-31.452767
 11
-71.103084
 21
-31.452767
  0
LINE
  5
355
100
AcDbEntity
  8
0
100
AcDbLine
 62
7
  6
CONTINUOUS
 10
-73.924912
 20
-31.135539
 11
-74.667104
 21
-31.135539
  0
LINE
  5
356
100
AcDbEntity
  8
0
100
AcDbLine
 62
7
  6
CONTINUOUS
 10
-74.015142
 20
-30.914079
 11
-74.589743
 21
-30.914079
  0
LINE
  5
357
100
AcDbEntity
  8
0
100
AcDbLine
 62
7
  6
CONTINUOUS
 10
-70.090351
 20
-30.834772
 11
-71.103084
 21
-30.834772
  0
LINE
  5
358
100
AcDbEntity
  8
0
100
AcDbLine
 62
7
  6
CONTINUOUS
 10
-70.090351
 20
-30.613311
 11
-71.103084
 21
-30.613311
  0
LWPOLYLINE
  5
359
100
AcDbEntity
  8
0
100
AcDbPolyline
 62
7
  6
CONTINUOUS
 90
31
 70
0
 10
-72.4767341415
 20
-29.8247319981
 10
-72.4310310846
 20
-29.8258034931
 10
-72.385691573
 20
-29.8293591679
 10
-72.3407156067
 20
-29.8353990178
 10
-72.2959082823
 20
-29.8438629263
 10
-72.2514645033
 20
-29.8548109915
 10
-72.2079689792
 20
-29.8684235256
 10
-72.1654166155
 20
-29.8847701264
 10
-72.1238125067
 20
-29.9037811545
 10
-72.0837566465
 20
-29.9254280596
 10
-72.0452806406
 20
-29.949813759
 10
-72.0083528832
 20
-29.9768352718
 10
-71.9734785503
 20
-30.0061551994
 10
-71.9407749402
 20
-30.0378819475
 10
-71.9101247546
 20
-30.0719070362
 10
-71.8816812743
 20
-30.107567751
 10
-71.8555149059
 20
-30.1448365075
 10
-71.8315552428
 20
-30.1837408277
 10
-71.8097443456
 20
-30.2237006781
 10
-71.7901471382
 20
-30.2646868874
 10
-71.7726986967
 20
-30.3067285818
 10
-71.7571463094
 20
-30.3493331951
 10
-71.743416731
 20
-30.3924092846
 10
-71.7315832068
 20
-30.4360482682
 10
-71.7216127604
 20
-30.4800318861
 10
-71.7135530161
 20
-30.5243338457
 10
-71.7073563496
 20
-30.5689804229
 10
-71.7028469111
 20
-30.6138322191
 10
-71.699966084
 20
-30.6588427657
 10
-71.6987724849
 20
-30.7040585212
 10
-71.6992661138
 20
-30.74947948
  0
LWPOLYLINE
  5
35A
100
AcDbEntity
  8
0
100
AcDbPolyline
 62
7
  6
CONTINUOUS
 90
30
 70
0
 10
67.434276596
 20
-35.153411
 10
67.4631277055
 20
-35.1541816321
 10
67.4918131218
 20
-35.1561109243
 10
67.5203328449
 20
-35.1591988751
 10
67.5487400186
 20
-35.1634142135
 10
67.576981499
 20
-35.1687882054
 10
67.6048978553
 20
-35.1754146537
 10
67.6325016946
 20
-35.1832800659
 10
67.6597804096
 20
-35.1923979234
 10
67.686536748
 20
-35.2029024868
 10
67.7128421382
 20
-35.2148026
 10
67.7386251516
 20
-35.2280894002
 10
67.76347425
 20
-35.2428705845
 10
67.7873778582
 20
-35.2592246917
 10
67.8103475513
 20
-35.2770731542
 10
67.8320065157
 20
-35.2962880084
 10
67.8523022108
 20
-35.3169290304
 10
67.8712871772
 20
-35.3389364103
 10
67.8887422225
 20
-35.3620028092
 10
67.9045806211
 20
-35.3861763506
 10
67.9188890987
 20
-35.4114088799
 10
67.9317086394
 20
-35.4372486508
 10
67.943027709
 20
-35.4636174426
 10
67.9528578419
 20
-35.4905934572
 10
67.9612746249
 20
-35.5179595929
 10
67.9682984745
 20
-35.5457131354
 10
67.9739089743
 20
-35.5738567855
 10
67.9781204623
 20
-35.6021815709
 10
67.9809377178
 20
-35.6306178333
 10
67.9823559615
 20
-35.6592352252
  0
LWPOLYLINE
  5
35B
100
AcDbEntity
  8
0
100
AcDbPolyline
 62
7
  6
CONTINUOUS
 90
30
 70
0
 10
73.8780902557
 20
-35.153411
 10
73.9069413652
 20
-35.1541816321
 10
73.9356267815
 20
-35.1561109243
 10
73.9641465046
 20
-35.1591988751
 10
73.9925536783
 20
-35.1634142135
 10
74.0207951587
 20
-35.1687882054
 10
74.048711515
 20
-35.1754146537
 10
74.0763153543
 20
-35.1832800659
 10
74.1035940693
 20
-35.1923979234
 10
74.1303504076
 20
-35.2029024868
 10
74.1566557979
 20
-35.2148026
 10
74.1824388113
 20
-35.2280894002
 10
74.2072879097
 20
-35.2428705845
 10
74.2311915179
 20
-35.2592246917
 10
74.254161211
 20
-35.2770731542
 10
74.2758201754
 20
-35.2962880084
 10
74.2961158705
 20
-35.3169290304
 10
74.3151008369
 20
-35.3389364103
 10
74.3325558822
 20
-35.3620028092
 10
74.3483942808
 20
-35.3861763506
 10
74.3627027584
 20
-35.4114088799
 10
74.3755222991
 20
-35.4372486508
 10
74.3868413687
 20
-35.4636174426
 10
74.3966715016
 20
-35.4905934572
 10
74.4050882846
 20
-35.5179595929
 10
74.4121121342
 20
-35.5457131354
 10
74.417722634
 20
-35.5738567855
 10
74.421934122
 20
-35.6021815709
 10
74.4247513775
 20
-35.6306178333
 10
74.4261696212
 20
-35.6592352252
  0
LWPOLYLINE
  5
35C
100
AcDbEntity
  8
0
100
AcDbPolyline
 62
7
  6
CONTINUOUS
 90
31
 70
0
 10
79.0801250674
 20
-35.1534109983
 10
79.1258915136
 20
-35.1548351873
 10
79.1712796817
 20
-35.1587605177
 10
79.2162895716
 20
-35.1651869837
 10
79.2611016633
 20
-35.1741203699
 10
79.3055354768
 20
-35.1855548683
 10
79.3490495723
 20
-35.1994730779
 10
79.3916534265
 20
-35.2158535694
 10
79.4333375627
 20
-35.2347177264
 10
79.4735321099
 20
-35.2561123613
 10
79.512246457
 20
-35.2801176072
 10
79.5494712151
 20
-35.30665326
 10
79.5846083474
 20
-35.335525623
 10
79.6175532206
 20
-35.3668651897
 10
79.6484104679
 20
-35.4005413785
 10
79.6768959525
 20
-35.4359688904
 10
79.7028249261
 20
-35.4731835578
 10
79.7263821369
 20
-35.512149469
 10
79.7478376924
 20
-35.5521737346
 10
79.7671794941
 20
-35.5931990633
 10
79.7844196405
 20
-35.6352826937
 10
79.7998645345
 20
-35.6779035599
 10
79.8136833024
 20
-35.7209362778
 10
79.825706818
 20
-35.7645062044
 10
79.8357341048
 20
-35.8084684026
 10
79.8435594219
 20
-35.8528404119
 10
79.8493885103
 20
-35.8976046701
 10
79.8536376172
 20
-35.942563597
 10
79.8564454917
 20
-35.9876513309
 10
79.8576733847
 20
-36.0329337227
 10
79.8573212962
 20
-36.0784107664
  0
LWPOLYLINE
  5
35D
100
AcDbEntity
  8
0
100
AcDbPolyline
 62
7
  6
CONTINUOUS
 90
11
 70
0
 10
-39.2105554708
 20
-28.5072754318
 10
-39.2295796447
 20
-28.5040303627
 10
-39.2490322635
 20
-28.5012551454
 10
-39.2689133272
 20
-28.4989497731
 10
-39.2892291184
 20
-28.4971823718
 10
-39.3099733544
 20
-28.4958848049
 10
-39.3311271879
 20
-28.494852675
 10
-39.3526892553
 20
-28.4940502378
 10
-39.3746609202
 20
-28.4935132351
 10
-39.3970274259
 20
-28.4931445006
 10
-39.4197676796
 20
-28.4929605585
  0
LINE
  5
35E
100
AcDbEntity
  8
RACCORDO
100
AcDbLine
 62
250
  6
CONTINUOUS
 10
-83.0
 20
38.7004111396
 11
-82.7462125403
 21
38.4466236798
  0
LINE
  5
35F
100
AcDbEntity
  8
RACCORDO
100
AcDbLine
 62
250
  6
CONTINUOUS
 10
-82.7004111396
 20
39.0
 11
-82.4466236443
 21
38.7462125047
  0
LINE
  5
360
100
AcDbEntity
  8
0
100
AcDbLine
 62
7
  6
CONTINUOUS
 10
-57.92407
 20
31.139375
 11
-57.706701
 21
30.752094
  0
LWPOLYLINE
  5
361
100
AcDbEntity
  8
0
100
AcDbPolyline
 62
7
  6
CONTINUOUS
 90
34
 70
0
 10
-72.510250475
 20
-31.4602480026
 10
-72.4790183613
 20
-31.459726234
 10
-72.4479741097
 20
-31.4576279681
 10
-72.4171177201
 20
-31.4539532029
 10
-72.3863149072
 20
-31.4487739382
 10
-72.3556999564
 20
-31.4420181668
 10
-72.3256757232
 20
-31.4334698739
 10
-72.2962078979
 20
-31.4230930108
 10
-72.2673307903
 20
-31.4109236076
 10
-72.239550185
 20
-31.3968537628
 10
-72.2129483974
 20
-31.3807474822
 10
-72.1874431121
 20
-31.3627407283
 10
-72.1632931687
 20
-31.3431335343
 10
-72.1405669573
 20
-31.3218729406
 10
-72.1191960878
 20
-31.2990118711
 10
-72.0992342293
 20
-31.2750091899
 10
-72.0806898427
 20
-31.2498932513
 10
-72.0635544672
 20
-31.2236356711
 10
-72.0478563889
 20
-31.1966102162
 10
-72.0336138627
 20
-31.1688244859
 10
-72.0208086338
 20
-31.1402708585
 10
-72.0094142235
 20
-31.1113002793
 10
-71.9995131693
 20
-31.0819339599
 10
-71.9910229339
 20
-31.0521506761
 10
-71.9836694261
 20
-31.0222377298
 10
-71.9775050303
 20
-30.9922702063
 10
-71.9724773623
 20
-30.9621730172
 10
-71.9681551781
 20
-30.9320082089
 10
-71.9644103996
 20
-30.9018054975
 10
-71.9613711048
 20
-30.8715351653
 10
-71.9589902846
 20
-30.8411701092
 10
-71.957252269
 20
-30.8107012934
 10
-71.956172728
 20
-30.7801377508
 10
-71.9557516614
 20
-30.74947948
  0
LWPOLYLINE
  5
362
100
AcDbEntity
  8
0
100
AcDbPolyline
 62
7
  6
CONTINUOUS
 90
56
 70
0
 10
-39.0236620602
 20
-28.1491633598
 10
-38.9833669817
 20
-28.1485502251
 10
-38.9440036737
 20
-28.1472557556
 10
-38.9055815371
 20
-28.1453793025
 10
-38.8679323145
 20
-28.1427044678
 10
-38.8310544108
 20
-28.1392498793
 10
-38.7949494211
 20
-28.1349969353
 10
-38.759453874
 20
-28.1296734071
 10
-38.7245091277
 20
-28.123366437
 10
-38.690173824
 20
-28.1159889482
 10
-38.6564604167
 20
-28.1070074202
 10
-38.6231886341
 20
-28.0963601231
 10
-38.5905387479
 20
-28.0841089597
 10
-38.5590640278
 20
-28.0699059245
 10
-38.5287859106
 20
-28.0536672759
 10
-38.4996829594
 20
-28.0354770836
 10
-38.4722441333
 20
-28.0152391245
 10
-38.4465334665
 20
-27.9928506554
 10
-38.4224869248
 20
-27.9684149059
 10
-38.4004013652
 20
-27.9421446288
 10
-38.3803195764
 20
-27.9139849519
 10
-38.3621987697
 20
-27.8839913059
 10
-38.3462074353
 20
-27.8525418361
 10
-38.3322307778
 20
-27.8195697463
 10
-38.3203835925
 20
-27.7851423679
 10
-38.3111787559
 20
-27.7498388851
 10
-38.304786532
 20
-27.7135683307
 10
-38.3010366567
 20
-27.676422046
 10
-38.2999312136
 20
-27.6392523992
 10
-38.3014692567
 20
-27.6019497549
 10
-38.3056517319
 20
-27.5646237884
 10
-38.3124835616
 20
-27.5284554124
 10
-38.3221260817
 20
-27.4936052186
 10
-38.3344179561
 20
-27.4599121419
 10
-38.3488800989
 20
-27.4280742392
 10
-38.3655532482
 20
-27.3983446047
 10
-38.3843966659
 20
-27.3704694725
 10
-38.4048090513
 20
-27.3443865144
 10
-38.4266062573
 20
-27.3200516384
 10
-38.449972431
 20
-27.2975084275
 10
-38.4748587127
 20
-27.2768260923
 10
-38.5013560963
 20
-27.2580585756
 10
-38.5293735879
 20
-27.24115151
 10
-38.5585893472
 20
-27.2260116698
 10
-38.5890355712
 20
-27.2127012478
 10
-38.6206800628
 20
-27.201157758
 10
-38.653104391
 20
-27.1911010114
 10
-38.6861617371
 20
-27.182537426
 10
-38.7199989198
 20
-27.1754604235
 10
-38.7546379638
 20
-27.1695703709
 10
-38.7900624808
 20
-27.1648375076
 10
-38.8262888592
 20
-27.1612915218
 10
-38.8633882887
 20
-27.1587219825
 10
-38.901361409
 20
-27.1573079003
 10
-38.9402075806
 20
-27.1568702406
 10
-39.0207007225
 20
-27.1565088946
  0
LINE
  5
363
100
AcDbEntity
  8
0
100
AcDbLine
 62
7
  6
CONTINUOUS
 10
-40.880405
 20
-28.294451
 11
-42.15121
 21
-28.296498
  0
LINE
  5
364
100
AcDbEntity
  8
0
100
AcDbLine
 62
7
  6
CONTINUOUS
 10
-70.005358
 20
-30.046192
 11
-71.103084
 21
-30.046192
  0
LINE
  5
365
100
AcDbEntity
  8
0
100
AcDbLine
 62
7
  6
CONTINUOUS
 10
-72.5102572085
 20
-30.03871
 11
-72.976671
 21
-30.03871
  0
LINE
  5
366
100
AcDbEntity
  8
0
100
AcDbLine
 62
7
  6
CONTINUOUS
 10
-37.6450712848
 20
-29.825147
 11
-38.1443891542
 21
-29.825147
  0
LINE
  5
367
100
AcDbEntity
  8
0
100
AcDbLine
 62
7
  6
CONTINUOUS
 10
-39.892002
 20
-29.825147
 11
-40.289
 21
-29.825147
  0
LINE
  5
368
100
AcDbEntity
  8
0
100
AcDbLine
 62
7
  6
CONTINUOUS
 10
-70.005358
 20
-29.824732
 11
-71.353125
 21
-29.824732
  0
LINE
  5
369
100
AcDbEntity
  8
0
100
AcDbLine
 62
7
  6
CONTINUOUS
 10
-72.4767388397
 20
-29.824732
 11
-73.226563
 21
-29.824732
  0
LINE
  5
36A
100
AcDbEntity
  8
0
100
AcDbLine
 62
7
  6
CONTINUOUS
 10
-74.138891
 20
-29.824732
 11
-74.422301
 21
-29.824732
  0
LINE
  5
36B
100
AcDbEntity
  8
0
100
AcDbLine
 62
7
  6
CONTINUOUS
 10
-75.339716
 20
-29.824732
 11
-75.6954
 21
-29.824732
  0
LINE
  5
36C
100
AcDbEntity
  8
0
100
AcDbLine
 62
7
  6
CONTINUOUS
 10
-76.754521
 20
-29.824732
 11
-77.112748
 21
-29.824732
  0
LINE
  5
36D
100
AcDbEntity
  8
0
100
AcDbLine
 62
7
  6
CONTINUOUS
 10
59.117556
 20
-28.675
 11
57.657055
 21
-28.675
  0
LINE
  5
36E
100
AcDbEntity
  8
0
100
AcDbLine
 62
7
  6
CONTINUOUS
 10
-41.269219
 20
-28.648476
 11
-42.15121
 21
-28.648476
  0
LINE
  5
36F
100
AcDbEntity
  8
0
100
AcDbLine
 62
7
  6
CONTINUOUS
 10
59.117556
 20
-27.925
 11
57.657051888
 21
-27.925
  0
LINE
  5
370
100
AcDbEntity
  8
0
100
AcDbLine
 62
7
  6
CONTINUOUS
 10
-39.0207007225
 20
-27.1565088946
 11
-39.892002
 21
-27.156661521
  0
LINE
  5
371
100
AcDbEntity
  8
RACCORDO
100
AcDbLine
 62
7
  6
CONTINUOUS
 10
81.4
 20
-26.3
 11
82.9790368883
 21
-26.3
  0
LINE
  5
372
100
AcDbEntity
  8
RACCORDO
100
AcDbLine
 62
7
  6
CONTINUOUS
 10
-81.4
 20
-26.3
 11
-82.9790368883
 21
-26.3
  0
LINE
  5
373
100
AcDbEntity
  8
RACCORDO
100
AcDbLine
 62
7
  6
CONTINUOUS
 10
81.4
 20
-25.5
 11
82.9790368883
 21
-25.5
  0
LINE
  5
374
100
AcDbEntity
  8
RACCORDO
100
AcDbLine
 62
7
  6
CONTINUOUS
 10
-81.4
 20
-25.5
 11
-82.9790368883
 21
-25.5
  0
LINE
  5
375
100
AcDbEntity
  8
0
100
AcDbLine
 62
7
  6
CONTINUOUS
 10
-39.4197676796
 20
-28.4929605585
 11
-39.892002
 21
-28.4929507388
  0
LINE
  5
376
100
AcDbEntity
  8
0
100
AcDbLine
 62
7
  6
CONTINUOUS
 10
-39.892002
 20
-28.149158107
 11
-39.0236620602
 21
-28.1491633598
  0
LWPOLYLINE
  5
377
100
AcDbEntity
  8
0
100
AcDbPolyline
 62
7
  6
CONTINUOUS
 90
57
 70
0
 10
-40.289
 20
-26.8251471975
 10
-38.9146798144
 20
-26.8253966614
 10
-38.8609618395
 20
-26.8264269027
 10
-38.8070313193
 20
-26.8284020922
 10
-38.7530610961
 20
-26.8312117118
 10
-38.6996866308
 20
-26.8352164227
 10
-38.6468529391
 20
-26.8404205501
 10
-38.5946150054
 20
-26.8468198342
 10
-38.5437732442
 20
-26.8547620904
 10
-38.4945105784
 20
-26.8641375618
 10
-38.446644085
 20
-26.8750561599
 10
-38.4004254098
 20
-26.8881952819
 10
-38.3558767608
 20
-26.9036354641
 10
-38.31297593
 20
-26.9212965497
 10
-38.2719079385
 20
-26.9416150301
 10
-38.2327635741
 20
-26.9647003127
 10
-38.1954520491
 20
-26.990443677
 10
-38.1598860215
 20
-27.0189545462
 10
-38.1259861463
 20
-27.0503238294
 10
-38.0938317684
 20
-27.0844615929
 10
-38.0635735805
 20
-27.1212060434
 10
-38.0351297636
 20
-27.1606091208
 10
-38.0085821367
 20
-27.2026200331
 10
-37.9843268489
 20
-27.2469228347
 10
-37.962216128
 20
-27.2938010076
 10
-37.9423977462
 20
-27.3429722985
 10
-37.9257111702
 20
-27.3932717931
 10
-37.9124464534
 20
-27.4446457723
 10
-37.9023135424
 20
-27.4971485622
 10
-37.8952817437
 20
-27.5497766976
 10
-37.8913909458
 20
-27.6024919798
 10
-37.8906012602
 20
-27.6553326325
 10
-37.8927623285
 20
-27.7074092623
 10
-37.8977847061
 20
-27.7585855387
 10
-37.9057578375
 20
-27.8089972865
 10
-37.9167996977
 20
-27.8581629556
 10
-37.9310066547
 20
-27.9060653064
 10
-37.9482823405
 20
-27.9527208755
 10
-37.9684556257
 20
-27.9976985498
 10
-37.9915302994
 20
-28.0408854927
 10
-38.0175025725
 20
-28.0823936907
 10
-38.0461899491
 20
-28.1221291615
 10
-38.0775351977
 20
-28.1602265737
 10
-38.1115955497
 20
-28.1965505147
 10
-38.1483602032
 20
-28.2306017907
 10
-38.1880119709
 20
-28.2622522053
 10
-38.2303680401
 20
-28.2916291291
 10
-38.2748691709
 20
-28.3186166481
 10
-38.3216539855
 20
-28.3431341236
 10
-38.3705838618
 20
-28.3652615267
 10
-38.4206836939
 20
-28.3851239021
 10
-38.4719287182
 20
-28.4026429176
 10
-38.5243436984
 20
-28.4178964499
 10
-38.5770278199
 20
-28.4312439431
 10
-38.6296808111
 20
-28.4428051406
 10
-38.6826029436
 20
-28.452460053
 10
-38.7357942173
 20
-28.4602085834
  0
LINE
  5
378
100
AcDbEntity
  8
DRAFT
100
AcDbLine
 62
7
  6
CONTINUOUS
 10
82.7274795477
 20
-23.3
 11
64.1
 21
-23.3
  0
LINE
  5
379
100
AcDbEntity
  8
RACCORDO
100
AcDbLine
 62
7
  6
CONTINUOUS
 10
64.1
 20
-23.3
 11
-64.1
 21
-23.3
  0
LINE
  5
37A
100
AcDbEntity
  8
DRAFT
100
AcDbLine
 62
7
  6
CONTINUOUS
 10
-64.1
 20
-23.3
 11
-82.7274795477
 21
-23.3
  0
LINE
  5
37B
100
AcDbEntity
  8
RACCORDO
100
AcDbLine
 62
250
  6
CONTINUOUS
 10
63.3
 20
-23.0
 11
32.25
 21
-23.0
  0
LINE
  5
37C
100
AcDbEntity
  8
RACCORDO
100
AcDbLine
 62
250
  6
CONTINUOUS
 10
31.45
 20
-23.0
 11
0.4
 21
-23.0
  0
LINE
  5
37D
100
AcDbEntity
  8
RACCORDO
100
AcDbLine
 62
250
  6
CONTINUOUS
 10
-0.4
 20
-23.0
 11
-31.45
 21
-23.0
  0
LINE
  5
37E
100
AcDbEntity
  8
RACCORDO
100
AcDbLine
 62
250
  6
CONTINUOUS
 10
-32.25
 20
-23.0
 11
-63.3
 21
-23.0
  0
LINE
  5
37F
100
AcDbEntity
  8
DRAFT
100
AcDbLine
 62
7
  6
CONTINUOUS
 10
-82.7274795477
 20
-22.5
 11
-64.1
 21
-22.5
  0
LINE
  5
380
100
AcDbEntity
  8
0
100
AcDbLine
 62
7
  6
CONTINUOUS
 10
-64.1
 20
-22.5
 11
64.1
 21
-22.5
  0
LINE
  5
381
100
AcDbEntity
  8
DRAFT
100
AcDbLine
 62
7
  6
CONTINUOUS
 10
64.1
 20
-22.5
 11
82.7274795477
 21
-22.5
  0
LINE
  5
382
100
AcDbEntity
  8
DRAFT
100
AcDbLine
 62
7
  6
CONTINUOUS
 10
83.0
 20
-20.0
 11
81.6
 21
-20.0
  0
LINE
  5
383
100
AcDbEntity
  8
0
100
AcDbLine
 62
7
  6
CONTINUOUS
 10
-81.6
 20
-20.0
 11
-80.8
 21
-20.0
  0
LINE
  5
384
100
AcDbEntity
  8
0
100
AcDbLine
 62
7
  6
CONTINUOUS
 10
80.8
 20
-20.0
 11
81.6
 21
-20.0
  0
LINE
  5
385
100
AcDbEntity
  8
DRAFT
100
AcDbLine
 62
7
  6
CONTINUOUS
 10
-81.6
 20
-20.0
 11
-83.0
 21
-20.0
  0
LINE
  5
386
100
AcDbEntity
  8
DRAFT
100
AcDbLine
 62
7
  6
CONTINUOUS
 10
-83.0
 20
-19.2
 11
-81.6
 21
-19.2
  0
LINE
  5
387
100
AcDbEntity
  8
0
100
AcDbLine
 62
7
  6
CONTINUOUS
 10
-81.6
 20
-19.2
 11
-80.8
 21
-19.2
  0
LINE
  5
388
100
AcDbEntity
  8
0
100
AcDbLine
 62
7
  6
CONTINUOUS
 10
80.8
 20
-19.2
 11
81.6
 21
-19.2
  0
LINE
  5
389
100
AcDbEntity
  8
DRAFT
100
AcDbLine
 62
7
  6
CONTINUOUS
 10
81.6
 20
-19.2
 11
83.0
 21
-19.2
  0
LWPOLYLINE
  5
38A
100
AcDbEntity
  8
0
100
AcDbPolyline
 62
7
  6
CONTINUOUS
 90
22
 70
0
 10
42.0
 20
35.5536908831
 10
42.0361427743
 20
35.5711187561
 10
42.0717998935
 20
35.5893413824
 10
42.1069713574
 20
35.6083587958
 10
42.1416809812
 20
35.6281565671
 10
42.1759049499
 20
35.6487491964
 10
42.2095718182
 20
35.6701801151
 10
42.2426856477
 20
35.6924545149
 10
42.2752423769
 20
35.7155672876
 10
42.3071583766
 20
35.7395464201
 10
42.3384380821
 20
35.7644282109
 10
42.369077058
 20
35.7901764573
 10
42.3989783697
 20
35.8167103926
 10
42.4282102652
 20
35.8439834924
 10
42.4567044963
 20
35.8720423709
 10
42.4841593841
 20
35.9009459696
 10
42.510673094
 20
35.930694511
 10
42.5361474605
 20
35.9612878778
 10
42.559986308
 20
35.9927845111
 10
42.5819909112
 20
36.0252039331
 10
42.6023599953
 20
36.0585267422
 10
42.6210935605
 20
36.092753
  0
LINE
  5
38B
100
AcDbEntity
  8
0
100
AcDbLine
 62
7
  6
CONTINUOUS
 10
-40.9254258529
 20
-27.6641649597
 11
-41.2835432795
 21
-27.7623910767
  0
LINE
  5
38C
100
AcDbEntity
  8
DRAFT
100
AcDbLine
 62
7
  6
CONTINUOUS
 10
83.0
 20
-17.4
 11
81.6
 21
-17.4
  0
LINE
  5
38D
100
AcDbEntity
  8
0
100
AcDbLine
 62
7
  6
CONTINUOUS
 10
-81.6
 20
-17.4
 11
-80.8
 21
-17.4
  0
LINE
  5
38E
100
AcDbEntity
  8
0
100
AcDbLine
 62
7
  6
CONTINUOUS
 10
80.8
 20
-17.4
 11
81.6
 21
-17.4
  0
LINE
  5
38F
100
AcDbEntity
  8
DRAFT
100
AcDbLine
 62
7
  6
CONTINUOUS
 10
-81.6
 20
-17.4
 11
-83.0
 21
-17.4
  0
LINE
  5
390
100
AcDbEntity
  8
DRAFT
100
AcDbLine
 62
7
  6
CONTINUOUS
 10
-83.0
 20
-16.6
 11
-81.6
 21
-16.6
  0
LINE
  5
391
100
AcDbEntity
  8
0
100
AcDbLine
 62
7
  6
CONTINUOUS
 10
-81.6
 20
-16.6
 11
-80.8
 21
-16.6
  0
LINE
  5
392
100
AcDbEntity
  8
0
100
AcDbLine
 62
7
  6
CONTINUOUS
 10
80.8
 20
-16.6
 11
81.6
 21
-16.6
  0
LINE
  5
393
100
AcDbEntity
  8
DRAFT
100
AcDbLine
 62
7
  6
CONTINUOUS
 10
81.6
 20
-16.6
 11
83.0
 21
-16.6
  0
LINE
  5
394
100
AcDbEntity
  8
DRAFT
100
AcDbLine
 62
7
  6
CONTINUOUS
 10
83.0
 20
-14.8
 11
81.6
 21
-14.8
  0
LINE
  5
395
100
AcDbEntity
  8
0
100
AcDbLine
 62
7
  6
CONTINUOUS
 10
-81.6
 20
-14.8
 11
-80.8
 21
-14.8
  0
LINE
  5
396
100
AcDbEntity
  8
0
100
AcDbLine
 62
7
  6
CONTINUOUS
 10
80.8
 20
-14.8
 11
81.6
 21
-14.8
  0
LINE
  5
397
100
AcDbEntity
  8
DRAFT
100
AcDbLine
 62
7
  6
CONTINUOUS
 10
-81.6
 20
-14.8
 11
-83.0
 21
-14.8
  0
LINE
  5
398
100
AcDbEntity
  8
DRAFT
100
AcDbLine
 62
7
  6
CONTINUOUS
 10
-83.0
 20
-14.0
 11
-81.6
 21
-14.0
  0
LINE
  5
399
100
AcDbEntity
  8
0
100
AcDbLine
 62
7
  6
CONTINUOUS
 10
-81.6
 20
-14.0
 11
-80.8
 21
-14.0
  0
LINE
  5
39A
100
AcDbEntity
  8
0
100
AcDbLine
 62
7
  6
CONTINUOUS
 10
80.8
 20
-14.0
 11
81.6
 21
-14.0
  0
LINE
  5
39B
100
AcDbEntity
  8
DRAFT
100
AcDbLine
 62
7
  6
CONTINUOUS
 10
81.6
 20
-14.0
 11
83.0
 21
-14.0
  0
LWPOLYLINE
  5
39C
100
AcDbEntity
  8
0
100
AcDbPolyline
 62
7
  6
CONTINUOUS
 90
18
 70
0
 10
-72.890792291
 20
31.9789819606
 10
-72.873975978
 20
31.9670580943
 10
-72.8572850804
 20
31.9563008689
 10
-72.8406798368
 20
31.9465794826
 10
-72.8242000085
 20
31.93802475
 10
-72.8077622634
 20
31.931413934
 10
-72.7911631901
 20
31.9270154227
 10
-72.7746062001
 20
31.9245608403
 10
-72.7586181954
 20
31.9240223041
 10
-72.7433138055
 20
31.9255910365
 10
-72.7285784009
 20
31.9290758139
 10
-72.7145949958
 20
31.9338750829
 10
-72.7013110114
 20
31.9398479888
 10
-72.6887790266
 20
31.9471353787
 10
-72.6773397909
 20
31.9555582519
 10
-72.667111357
 20
31.965127066
 10
-72.6579756722
 20
31.9758313521
 10
-72.6499193294
 20
31.9874607204
  0
LINE
  5
39D
100
AcDbEntity
  8
0
100
AcDbLine
 62
7
  6
CONTINUOUS
 10
-60.318141
 20
33.647655
 11
-59.048398
 21
32.577635
  0
LINE
  5
39E
100
AcDbEntity
  8
0
100
AcDbLine
 62
7
  6
CONTINUOUS
 10
-60.376748
 20
34.282247
 11
-59.048398
 21
33.162838
  0
LINE
  5
39F
100
AcDbEntity
  8
RACCORDO
100
AcDbLine
 62
7
  6
CONTINUOUS
 10
-0.4
 20
-23.0
 11
-0.4
 21
-34.2042896174
  0
LINE
  5
3A0
100
AcDbEntity
  8
RACCORDO
100
AcDbLine
 62
7
  6
CONTINUOUS
 10
-0.4
 20
-34.8433730757
 11
-0.4
 21
-38.9790368883
  0
LINE
  5
3A1
100
AcDbEntity
  8
RACCORDO
100
AcDbLine
 62
7
  6
CONTINUOUS
 10
-0.4
 20
23.0
 11
-0.4
 21
34.2042896174
  0
LINE
  5
3A2
100
AcDbEntity
  8
RACCORDO
100
AcDbLine
 62
7
  6
CONTINUOUS
 10
-0.4
 20
34.8433730757
 11
-0.4
 21
38.9790368883
  0
LINE
  5
3A3
100
AcDbEntity
  8
RACCORDO
100
AcDbLine
 62
7
  6
CONTINUOUS
 10
0.4
 20
38.9790368883
 11
0.4
 21
34.8433730757
  0
LINE
  5
3A4
100
AcDbEntity
  8
RACCORDO
100
AcDbLine
 62
7
  6
CONTINUOUS
 10
0.4
 20
-23.0
 11
0.4
 21
-34.2042896174
  0
LINE
  5
3A5
100
AcDbEntity
  8
RACCORDO
100
AcDbLine
 62
7
  6
CONTINUOUS
 10
0.4
 20
-34.8433730757
 11
0.4
 21
-38.9790368883
  0
LINE
  5
3A6
100
AcDbEntity
  8
RACCORDO
100
AcDbLine
 62
7
  6
CONTINUOUS
 10
0.4
 20
23.0
 11
0.4
 21
34.2042896174
  0
LWPOLYLINE
  5
3A7
100
AcDbEntity
  8
0
100
AcDbPolyline
 62
7
  6
CONTINUOUS
 90
71
 70
0
 10
-40.880405
 20
-29.4076843893
 10
-40.9375179552
 20
-29.4520984109
 10
-40.9955385465
 20
-29.4945814262
 10
-41.0544667738
 20
-29.5351330271
 10
-41.1141306159
 20
-29.5737489945
 10
-41.174702094
 20
-29.6104327925
 10
-41.2366972718
 20
-29.6451955707
 10
-41.3001428166
 20
-29.6781338759
 10
-41.365012061
 20
-29.7091505399
 10
-41.4317410665
 20
-29.7379661299
 10
-41.5004506194
 20
-29.7646806461
 10
-41.5710199334
 20
-29.7891935122
 10
-41.6435227107
 20
-29.8109243594
 10
-41.7182567317
 20
-29.8298809025
 10
-41.794924216
 20
-29.8460548921
 10
-41.8727055249
 20
-29.8588419573
 10
-41.9516493255
 20
-29.8680540087
 10
-42.0317069508
 20
-29.8738787795
 10
-42.1119127605
 20
-29.8762756676
 10
-42.1921443998
 20
-29.875259293
 10
-42.2725242236
 20
-29.8708150134
 10
-42.3524536566
 20
-29.8628584164
 10
-42.4320160511
 20
-29.8513933314
 10
-42.5111280548
 20
-29.8364162485
 10
-42.5889410349
 20
-29.8178318423
 10
-42.6655522711
 20
-29.795437764
 10
-42.7408644839
 20
-29.769437073
 10
-42.8137372016
 20
-29.7403425933
 10
-42.8840555097
 20
-29.7082054313
 10
-42.9519343227
 20
-29.6729753806
 10
-43.0165779136
 20
-29.6350132453
 10
-43.0777311732
 20
-29.5943832967
 10
-43.1356492107
 20
-29.5510222982
 10
-43.190301626
 20
-29.5050997554
 10
-43.2416485877
 20
-29.4565885869
 10
-43.2897299272
 20
-29.4055170763
 10
-43.3346347394
 20
-29.3521377335
 10
-43.3762747289
 20
-29.2965118555
 10
-43.4147381911
 20
-29.238579411
 10
-43.450379107
 20
-29.1784108831
 10
-43.4832801194
 20
-29.1159854045
 10
-43.5133585854
 20
-29.0513252727
 10
-43.5407205572
 20
-28.9845657022
 10
-43.5655121747
 20
-28.9156414786
 10
-43.587587298
 20
-28.8446193567
 10
-43.6066135597
 20
-28.7718323864
 10
-43.6225183315
 20
-28.6970867332
 10
-43.6353742416
 20
-28.6205777308
 10
-43.645066807
 20
-28.5432217348
 10
-43.6515298988
 20
-28.4650431357
 10
-43.6548296458
 20
-28.3860183586
 10
-43.6550499516
 20
-28.306991109
 10
-43.6522773256
 20
-28.2280984998
 10
-43.6464252583
 20
-28.1492035218
 10
-43.6373181252
 20
-28.0707381633
 10
-43.6248379872
 20
-27.992508171
 10
-43.6091027834
 20
-27.9147076253
 10
-43.5902907066
 20
-27.8383503996
 10
-43.56826094
 20
-27.7634618601
 10
-43.5431543004
 20
-27.690015552
 10
-43.5155714309
 20
-27.6189468116
 10
-43.4856965587
 20
-27.5503823443
 10
-43.4533454566
 20
-27.4841936458
 10
-43.4185660859
 20
-27.4209326817
 10
-43.3814161763
 20
-27.3607867536
 10
-43.3418379981
 20
-27.3035665255
 10
-43.2997063236
 20
-27.2492588627
 10
-43.2550470362
 20
-27.1978734536
 10
-43.2078342524
 20
-27.1493988745
 10
-43.1578650943
 20
-27.103790402
 10
-43.104954228
 20
-27.0609797721
  0
LWPOLYLINE
  5
3A8
100
AcDbEntity
  8
0
100
AcDbPolyline
 62
7
  6
CONTINUOUS
 90
39
 70
0
 10
-43.104954228
 20
-27.0609797721
 10
-43.0492869875
 20
-27.021033808
 10
-42.9912164962
 20
-26.9841104576
 10
-42.9306712941
 20
-26.9502922474
 10
-42.8677228413
 20
-26.9194953947
 10
-42.8029386414
 20
-26.8916284399
 10
-42.7362071931
 20
-26.8666107854
 10
-42.6676399978
 20
-26.8445221252
 10
-42.5981390629
 20
-26.8255115074
 10
-42.5277780435
 20
-26.8097143996
 10
-42.4564832845
 20
-26.796994689
 10
-42.3849358283
 20
-26.7870941374
 10
-42.3132445321
 20
-26.7799996648
 10
-42.2413005388
 20
-26.775724066
 10
-42.1694583198
 20
-26.7740480105
 10
-42.0977113916
 20
-26.7747756148
 10
-42.0260662378
 20
-26.7781027482
 10
-41.9548967799
 20
-26.7843977822
 10
-41.8840877836
 20
-26.7936996308
 10
-41.8137544832
 20
-26.8059696574
 10
-41.7446165031
 20
-26.8214600122
 10
-41.6767123954
 20
-26.840200404
 10
-41.610003608
 20
-26.8621617808
 10
-41.5450941082
 20
-26.8875082827
 10
-41.4818463389
 20
-26.9161706916
 10
-41.4203978572
 20
-26.9482192957
 10
-41.3617653022
 20
-26.9840276852
 10
-41.3059584641
 20
-27.0237368932
 10
-41.2529675528
 20
-27.0672075624
 10
-41.2037798365
 20
-27.1143928738
 10
-41.1587594652
 20
-27.1657077574
 10
-41.1175422891
 20
-27.2207394605
 10
-41.0800231266
 20
-27.2781993282
 10
-41.0464235923
 20
-27.3379264613
 10
-41.0165220716
 20
-27.4000833036
 10
-40.9895485398
 20
-27.4638655596
 10
-40.965246322
 20
-27.5290053745
 10
-40.943872093
 20
-27.5957716513
 10
-40.9254258529
 20
-27.6641649597
  0
LWPOLYLINE
  5
3A9
100
AcDbEntity
  8
0
100
AcDbPolyline
 62
7
  6
CONTINUOUS
 90
48
 70
0
 10
48.8217769169
 20
35.2255655856
 10
48.8609346069
 20
35.2517053001
 10
48.9014303391
 20
35.2752048714
 10
48.9432641136
 20
35.2960641422
 10
48.9866749308
 20
35.314488025
 10
49.0314237903
 20
35.3302713527
 10
49.0767936908
 20
35.3427988515
 10
49.12283063
 20
35.351807801
 10
49.1694886103
 20
35.3575607427
 10
49.2159126373
 20
35.3602303128
 10
49.2620391055
 20
35.3598076306
 10
49.3079316204
 20
35.3563015598
 10
49.3529260051
 20
35.3499113893
 10
49.3969641732
 20
35.340686055
 10
49.440104211
 20
35.328576732
 10
49.4818562
 20
35.3136360962
 10
49.5220891508
 20
35.2958206764
 10
49.5609340528
 20
35.2751741772
 10
49.5982939554
 20
35.2518800573
 10
49.6341669522
 20
35.22604425
 10
49.6685549496
 20
35.1975611489
 10
49.7013667165
 20
35.1662969312
 10
49.732891686
 20
35.1322971749
 10
49.762840425
 20
35.0955167716
 10
49.7902534033
 20
35.0556859379
 10
49.8151471728
 20
35.0124088774
 10
49.8375051815
 20
34.9660820917
 10
49.8563182433
 20
34.9176242005
 10
49.8712291733
 20
34.8667835298
 10
49.8825951563
 20
34.8138123687
 10
49.8904785599
 20
34.7603849582
 10
49.8948033013
 20
34.7068055176
 10
49.8956454632
 20
34.6527699712
 10
49.8932956619
 20
34.5990397717
 10
49.8879437862
 20
34.5456230146
 10
49.8793999472
 20
34.4925115536
 10
49.8673850945
 20
34.4404422559
 10
49.8516112818
 20
34.3892472825
 10
49.8323664554
 20
34.3390942203
 10
49.8102354027
 20
34.2912227891
 10
49.7850481397
 20
34.245878014
 10
49.7569746505
 20
34.2028142594
 10
49.7271096749
 20
34.1625350298
 10
49.6957340247
 20
34.1251559771
 10
49.6625668882
 20
34.0905608194
 10
49.62786057
 20
34.0589051105
 10
49.591654774
 20
34.0302573928
 10
49.5539097963
 20
34.0045485978
  0
LWPOLYLINE
  5
3AA
100
AcDbEntity
  8
0
100
AcDbPolyline
 62
7
  6
CONTINUOUS
 90
32
 70
0
 10
49.5539097963
 20
34.0045485978
 10
49.5147588294
 20
33.9817278866
 10
49.4741155034
 20
33.9618092373
 10
49.4320661881
 20
33.9447783013
 10
49.3890031855
 20
33.9305417948
 10
49.3448598678
 20
33.9191679208
 10
49.2997028627
 20
33.9105882576
 10
49.2541243552
 20
33.9045046318
 10
49.2081580959
 20
33.9008741417
 10
49.1617703343
 20
33.8997396156
 10
49.1154520035
 20
33.9009315117
 10
49.0692024401
 20
33.9042355184
 10
49.0230223075
 20
33.9098659782
 10
48.9774045302
 20
33.9182963646
 10
48.9322419481
 20
33.9295959427
 10
48.8876417212
 20
33.9436956166
 10
48.8444182533
 20
33.9608613729
 10
48.802579087
 20
33.981308876
 10
48.7621166796
 20
34.0048228169
 10
48.7238228075
 20
34.031022748
 10
48.6877845724
 20
34.0599785951
 10
48.6539148725
 20
34.0916208748
 10
48.622744179
 20
34.1253599733
 10
48.5943479627
 20
34.1612055047
 10
48.5686507528
 20
34.1991482764
 10
48.5459566085
 20
34.2385703566
 10
48.5264329757
 20
34.2794857303
 10
48.5099124084
 20
34.321880743
 10
48.4961966278
 20
34.3650958613
 10
48.4852195409
 20
34.4089112658
 10
48.4770472406
 20
34.4535469403
 10
48.471679727
 20
34.4990029769
  0
LINE
  5
3AB
100
AcDbEntity
  8
0
100
AcDbLine
 62
7
  6
CONTINUOUS
 10
75.5326657068
 20
9.7552569528
 11
75.322885845
 21
9.7214989751
  0
LINE
  5
3AC
100
AcDbEntity
  8
0
100
AcDbLine
 62
7
  6
CONTINUOUS
 10
76.3139151018
 20
10.2736780142
 11
76.1065464211
 21
10.2447430588
  0
LINE
  5
3AD
100
AcDbEntity
  8
DRAFT
100
AcDbLine
 62
7
  6
CONTINUOUS
 10
85.0
 20
-3.6749773271
 11
83.0
 21
-3.6749773271
  0
LINE
  5
3AE
100
AcDbEntity
  8
DRAFT
100
AcDbLine
 62
7
  6
CONTINUOUS
 10
-83.0
 20
-3.6749773271
 11
-85.0
 21
-3.6749773271
  0
LINE
  5
3AF
100
AcDbEntity
  8
DRAFT
100
AcDbLine
 62
7
  6
CONTINUOUS
 10
-84.8951844414
 20
-3.5
 11
-82.8951844414
 21
-3.5
  0
LINE
  5
3B0
100
AcDbEntity
  8
DRAFT
100
AcDbLine
 62
7
  6
CONTINUOUS
 10
82.8951844414
 20
-3.5
 11
84.8951844414
 21
-3.5
  0
LINE
  5
3B1
100
AcDbEntity
  8
DRAFT
100
AcDbLine
 62
7
  6
CONTINUOUS
 10
-82.7169979919
 20
-0.4
 11
-64.1
 21
-0.4
  0
LINE
  5
3B2
100
AcDbEntity
  8
DRAFT
100
AcDbLine
 62
7
  6
CONTINUOUS
 10
64.1
 20
-0.4
 11
82.7169979919
 21
-0.4
  0
LINE
  5
3B3
100
AcDbEntity
  8
DRAFT
100
AcDbLine
 62
7
  6
CONTINUOUS
 10
82.7169979919
 20
0.4
 11
64.1
 21
0.4
  0
LINE
  5
3B4
100
AcDbEntity
  8
DRAFT
100
AcDbLine
 62
7
  6
CONTINUOUS
 10
-64.1
 20
0.4
 11
-82.7169979919
 21
0.4
  0
LWPOLYLINE
  5
3B5
100
AcDbEntity
  8
0
100
AcDbPolyline
 62
7
  6
CONTINUOUS
 90
13
 70
0
 10
42.527344
 20
35.6166794028
 10
42.4915191433
 20
35.5847886718
 10
42.4540552625
 20
35.5539479751
 10
42.4149523576
 20
35.5241572392
 10
42.3740743221
 20
35.4955123792
 10
42.3315572626
 20
35.4679173344
 10
42.2878094987
 20
35.4410840902
 10
42.2429780542
 20
35.414794236
 10
42.1969159054
 20
35.3892660981
 10
42.1495903007
 20
35.3648667658
 10
42.100990323
 20
35.341718549
 10
42.0511268894
 20
35.3196990041
 10
42.0
 20
35.2988080706
  0
LWPOLYLINE
  5
3B6
100
AcDbEntity
  8
0
100
AcDbPolyline
 62
7
  6
CONTINUOUS
 90
37
 70
0
 10
74.1
 20
7.8146951774
 10
74.2620428509
 20
7.8188350048
 10
74.4207387392
 20
7.8294566704
 10
74.5760876651
 20
7.8465601651
 10
74.7286128323
 20
7.8705365357
 10
74.8777910371
 20
7.9009946986
 10
75.0220526678
 20
7.9367614451
 10
75.1612390395
 20
7.9779295653
 10
75.2955088373
 20
8.0244062123
 10
75.4237685042
 20
8.0747397301
 10
75.5459962335
 20
8.1291014607
 10
75.6622138319
 20
8.1873200033
 10
75.7713931632
 20
8.2474296096
 10
75.8729452534
 20
8.309167444
 10
75.9674590766
 20
8.3727963082
 10
76.0556734178
 20
8.437138935
 10
76.1374030129
 20
8.5019000499
 10
76.2128331261
 20
8.5673749127
 10
76.2832583361
 20
8.6332720705
 10
76.3487342025
 20
8.6993879157
 10
76.4092051657
 20
8.7659260457
 10
76.4657991259
 20
8.8332058146
 10
76.5186344387
 20
8.9010410535
 10
76.5675927485
 20
8.9696179139
 10
76.6134468893
 20
9.0398142176
 10
76.6565130895
 20
9.1118559109
 10
76.6964751206
 20
9.1855170059
 10
76.7331571309
 20
9.2609974111
 10
76.7666764868
 20
9.3385478442
 10
76.7969158218
 20
9.417917536
 10
76.8233471851
 20
9.4985541673
 10
76.8459021838
 20
9.5805652581
 10
76.8646492109
 20
9.6638432476
 10
76.8792654941
 20
9.7475132143
 10
76.8896434429
 20
9.8312835171
 10
76.895890648
 20
9.915445782
 10
76.8980071093
 20
10.0
  0
LINE
  5
3B7
100
AcDbEntity
  8
DRAFT
100
AcDbLine
 62
7
  6
CONTINUOUS
 10
-84.8951844414
 20
3.5
 11
-82.8951844414
 21
3.5
  0
LINE
  5
3B8
100
AcDbEntity
  8
DRAFT
100
AcDbLine
 62
7
  6
CONTINUOUS
 10
82.8951844414
 20
3.5
 11
84.8951844414
 21
3.5
  0
LINE
  5
3B9
100
AcDbEntity
  8
DRAFT
100
AcDbLine
 62
7
  6
CONTINUOUS
 10
85.0
 20
3.6749773271
 11
83.0
 21
3.6749773271
  0
LINE
  5
3BA
100
AcDbEntity
  8
DRAFT
100
AcDbLine
 62
7
  6
CONTINUOUS
 10
-83.0
 20
3.6749773271
 11
-85.0
 21
3.6749773271
  0
LWPOLYLINE
  5
3BB
100
AcDbEntity
  8
0
100
AcDbPolyline
 62
7
  6
CONTINUOUS
 90
34
 70
0
 10
43.6680026332
 20
35.8254548007
 10
43.6974663011
 20
35.8622410865
 10
43.7289461381
 20
35.8965258336
 10
43.7624977932
 20
35.9283256514
 10
43.7981624901
 20
35.9577795274
 10
43.8358990053
 20
35.9847481307
 10
43.8756393175
 20
36.0088305946
 10
43.9175709109
 20
36.0299773534
 10
43.9615063013
 20
36.0482376787
 10
44.0068150151
 20
36.0633589551
 10
44.0535997583
 20
36.0751824489
 10
44.101757825
 20
36.0838667042
 10
44.1503506229
 20
36.08963505
 10
44.1993956438
 20
36.0926061926
 10
44.248875396
 20
36.0926613706
 10
44.2977988127
 20
36.0896677427
 10
44.3462039109
 20
36.0836903787
 10
44.3940526737
 20
36.0746642683
 10
44.440239984
 20
36.0622614871
 10
44.4846736627
 20
36.0462436837
 10
44.5274458889
 20
36.026849426
 10
44.5677280827
 20
36.0044661982
 10
44.6053566871
 20
35.979007548
 10
44.640495259
 20
35.9505602516
 10
44.6728058892
 20
35.9197716104
 10
44.7022185921
 20
35.8866645818
 10
44.7288033533
 20
35.8512165529
 10
44.7524322193
 20
35.8140064029
 10
44.7729663539
 20
35.7751094743
 10
44.7905445934
 20
35.7344507424
 10
44.8054554935
 20
35.6923834703
 10
44.8177952393
 20
35.6490254981
 10
44.8274676456
 20
35.6042592801
 10
44.8344727125
 20
35.5580849775
  0
LWPOLYLINE
  5
3BC
100
AcDbEntity
  8
0
100
AcDbPolyline
 62
7
  6
CONTINUOUS
 90
25
 70
0
 10
46.54248
 20
35.8510536655
 10
46.4841691655
 20
35.7849361249
 10
46.4282252334
 20
35.7171054625
 10
46.3746482037
 20
35.647561989
 10
46.3236327308
 20
35.5760844387
 10
46.2749841603
 20
35.5028947643
 10
46.2281185287
 20
35.4286580076
 10
46.1828608475
 20
35.353588326
 10
46.1393861051
 20
35.2774720285
 10
46.0976353034
 20
35.200332274
 10
46.0575199275
 20
35.1221829123
 10
46.0191284923
 20
35.0430106189
 10
45.982667544
 20
34.962797802
 10
45.9481437741
 20
34.8814753095
 10
45.9155504911
 20
34.7991128853
 10
45.8850741663
 20
34.7159012554
 10
45.8565672766
 20
34.6318584243
 10
45.8301773452
 20
34.5469669279
 10
45.8065334131
 20
34.4613642244
 10
45.7858437201
 20
34.3749702557
 10
45.7679000265
 20
34.2878656084
 10
45.7527066541
 20
34.2004285899
 10
45.7402650436
 20
34.112785377
 10
45.7305737543
 20
34.0248101209
 10
45.7236327863
 20
33.936503
  0
LWPOLYLINE
  5
3BD
100
AcDbEntity
  8
0
100
AcDbPolyline
 62
7
  6
CONTINUOUS
 90
13
 70
0
 10
75.6359921447
 20
10.6004610765
 10
75.6239722057
 20
10.5968403731
 10
75.6120740935
 20
10.5929821022
 10
75.6002978082
 20
10.5888862634
 10
75.5886320201
 20
10.5845767082
 10
75.5770880589
 20
10.5800295849
 10
75.5656999129
 20
10.5751733391
 10
75.5544549912
 20
10.5700076185
 10
75.5433658849
 20
10.5645327748
 10
75.532504355
 20
10.5586783092
 10
75.521894322
 20
10.5524207217
 10
75.5115118655
 20
10.5457835115
 10
75.5013569854
 20
10.5387666781
  0
LWPOLYLINE
  5
3BE
100
AcDbEntity
  8
0
100
AcDbPolyline
 62
7
  6
CONTINUOUS
 90
37
 70
0
 10
74.1
 20
12.1853048226
 10
73.9379835867
 20
12.1811670632
 10
73.7793098036
 20
12.1705483861
 10
73.6239786508
 20
12.1534487768
 10
73.4714663643
 20
12.129477427
 10
73.3222967081
 20
12.0990250883
 10
73.178040974
 20
12.0632640806
 10
73.0388581065
 20
12.0221014007
 10
72.9045891613
 20
11.9756299671
 10
72.7763285967
 20
11.9253009952
 10
72.6540980985
 20
11.8709428831
 10
72.537875981
 20
11.8127271503
 10
72.4286916458
 20
11.7526197263
 10
72.3271342105
 20
11.6908833067
 10
72.2326145574
 20
11.6272551542
 10
72.1443947348
 20
11.5629130859
 10
72.0626603389
 20
11.49815255
 10
71.9872257734
 20
11.4326780855
 10
71.9167962975
 20
11.3667811646
 10
71.8513163177
 20
11.3006653787
 10
71.7908414275
 20
11.2341271306
 10
71.7342436663
 20
11.1668471088
 10
71.681404673
 20
11.099011455
 10
71.6324428087
 20
11.0304340134
 10
71.5865851962
 20
10.9602370119
 10
71.5435156277
 20
10.8881945853
 10
71.5035503109
 20
10.8145325574
 10
71.466864992
 20
10.7390506752
 10
71.4333421975
 20
10.6614981113
 10
71.4030994008
 20
10.5821256445
 10
71.3766647682
 20
10.5014854366
 10
71.354106646
 20
10.4194698813
 10
71.3353566879
 20
10.3361865528
 10
71.3207380206
 20
10.2525104047
 10
71.3103583531
 20
10.1687330922
 10
71.3041099765
 20
10.0845629581
 10
71.3019928907
 20
10.0
  0
LWPOLYLINE
  5
3BF
100
AcDbEntity
  8
0
100
AcDbPolyline
 62
7
  6
CONTINUOUS
 90
7
 70
0
 10
75.81885257
 20
10.6257228263
 10
75.7858485592
 20
10.6249014195
 10
75.7538554577
 20
10.6227244598
 10
75.7228732655
 20
10.6191919466
 10
75.6929019826
 20
10.6143038793
 10
75.663941609
 20
10.6080602564
 10
75.6359921447
 20
10.6004610765
  0
LWPOLYLINE
  5
3C0
100
AcDbEntity
  8
0
100
AcDbPolyline
 62
7
  6
CONTINUOUS
 90
19
 70
0
 10
75.857847225
 20
9.3212293811
 10
75.8866023247
 20
9.3216389546
 10
75.9151677487
 20
9.3231754327
 10
75.9435434967
 20
9.3258388152
 10
75.9718124762
 20
9.3295969219
 10
75.9998917797
 20
9.3344819318
 10
76.027532686
 20
9.3405903832
 10
76.0547234188
 20
9.3479357821
 10
76.0814757542
 20
9.3565046198
 10
76.1075762989
 20
9.3663529123
 10
76.1330651318
 20
9.3774561665
 10
76.1579021739
 20
9.3898388712
 10
76.1817537953
 20
9.4036305143
 10
76.2046282707
 20
9.418850733
 10
76.2265173253
 20
9.4354798835
 10
76.2470625056
 20
9.453588531
 10
76.2661443267
 20
9.4732001938
 10
76.2838822734
 20
9.4942913444
 10
76.3002763456
 20
9.5168619776
  0
LWPOLYLINE
  5
3C1
100
AcDbEntity
  8
0
100
AcDbPolyline
 62
7
  6
CONTINUOUS
 90
13
 70
0
 10
75.8341113208
 20
10.4521118687
 10
75.8534497514
 20
10.4518493516
 10
75.8722268095
 20
10.4508118414
 10
75.8904424951
 20
10.4489993379
 10
75.9081267202
 20
10.4464264959
 10
75.9252495728
 20
10.4430786602
 10
75.9417213171
 20
10.4389118649
 10
75.9575771828
 20
10.4338867008
 10
75.9727819403
 20
10.4280425758
 10
75.9871401643
 20
10.4214537495
 10
76.0005867132
 20
10.4141449746
 10
76.0131867286
 20
10.4060914966
 10
76.0249402106
 20
10.3972933144
  0
LWPOLYLINE
  5
3C2
100
AcDbEntity
  8
0
100
AcDbPolyline
 62
7
  6
CONTINUOUS
 90
47
 70
0
 10
43.716796875
 20
35.0439252581
 10
43.7427632667
 20
35.0815187471
 10
43.7710000403
 20
35.1167996564
 10
43.8015071955
 20
35.1497677702
 10
43.8343928977
 20
35.180621308
 10
43.8695489817
 20
35.2091616751
 10
43.9066509519
 20
35.2347934135
 10
43.9458602589
 20
35.2573662022
 10
43.9870154521
 20
35.2770299988
 10
44.0293076849
 20
35.293639747
 10
44.0726897493
 20
35.3072207775
 10
44.1172088532
 20
35.3177475289
 10
44.162197774
 20
35.3249986304
 10
44.2077254936
 20
35.3288808071
 10
44.2537230301
 20
35.3294872423
 10
44.2993162148
 20
35.3268762865
 10
44.344443034
 20
35.3211169017
 10
44.3891655014
 20
35.3121401924
 10
44.432795489
 20
35.2997977653
 10
44.4752658893
 20
35.2839587276
 10
44.51664381
 20
35.2647542129
 10
44.5564424458
 20
35.2424289015
 10
44.5946362469
 20
35.2168875415
 10
44.6312507632
 20
35.1882257687
 10
44.6658758395
 20
35.1569745852
 10
44.6986833448
 20
35.1230814239
 10
44.7295014101
 20
35.0865992946
 10
44.7574042736
 20
35.0482174902
 10
44.7821472154
 20
35.0079189333
 10
44.8039749554
 20
34.9657211067
 10
44.8226958915
 20
34.9223650149
 10
44.8381299148
 20
34.8780438319
 10
44.8504571341
 20
34.83256466
 10
44.8600262747
 20
34.7860893025
 10
44.8669343155
 20
34.7385935999
 10
44.8710842775
 20
34.6901019941
 10
44.8725339484
 20
34.6408491479
 10
44.8714604869
 20
34.5906086608
 10
44.8676867343
 20
34.5396071956
 10
44.8607390028
 20
34.4887588538
 10
44.8504050202
 20
34.4379572673
 10
44.8368970586
 20
34.3873088056
 10
44.8203782471
 20
34.3380463696
 10
44.8007317124
 20
34.2901872028
 10
44.7780743278
 20
34.2437137034
 10
44.752919842
 20
34.1998061734
 10
44.7252889818
 20
34.1586735178
  0
LINE
  5
3C3
100
AcDbEntity
  8
0
100
AcDbLine
 62
7
  6
CONTINUOUS
 10
47.648438
 20
35.660624
 11
46.976074
 21
34.692363
  0
LINE
  5
3C4
100
AcDbEntity
  8
0
100
AcDbLine
 62
7
  6
CONTINUOUS
 10
47.696777
 20
36.083964
 11
46.716797
 21
34.692363
  0
LWPOLYLINE
  5
3C5
100
AcDbEntity
  8
0
100
AcDbPolyline
 62
7
  6
CONTINUOUS
 90
60
 70
0
 10
44.7252889818
 20
34.1586735178
 10
44.6951610204
 20
34.1201061952
 10
44.6629875263
 20
34.0846566394
 10
44.6288003918
 20
34.0525372067
 10
44.5925677245
 20
34.02353491
 10
44.5546454159
 20
33.9975641518
 10
44.5150347322
 20
33.9745746932
 10
44.4737344071
 20
33.9546163325
 10
44.4310965328
 20
33.9377535709
 10
44.3870119071
 20
33.9240301269
 10
44.3415897321
 20
33.9134019941
 10
44.2955097065
 20
33.9058021271
 10
44.2487496831
 20
33.9012798452
 10
44.201331809
 20
33.8997857167
 10
44.154002224
 20
33.9011046139
 10
44.1067213419
 20
33.9050837991
 10
44.0595287489
 20
33.9118760547
 10
44.0132893432
 20
33.9217245756
 10
43.9681267515
 20
33.9347012182
 10
43.9239173471
 20
33.9507343395
 10
43.8811551487
 20
33.9698519348
 10
43.8399766296
 20
33.9920679782
 10
43.8002453165
 20
34.0173688791
 10
43.7620458082
 20
34.0457413275
 10
43.7250977403
 20
34.0772265652
 10
43.6896814773
 20
34.1117838958
 10
43.6567227116
 20
34.1492771261
 10
43.6263423565
 20
34.1900851169
 10
43.5984194986
 20
34.2338296988
 10
43.5735170904
 20
34.2792389903
 10
43.5520459333
 20
34.3262276192
 10
43.5335952258
 20
34.3748813699
 10
43.5174955156
 20
34.4241847997
 10
43.5037476563
 20
34.4737986256
 10
43.4923507943
 20
34.5240622491
 10
43.4826329164
 20
34.5749781131
 10
43.4744907529
 20
34.6265635963
 10
43.4680275735
 20
34.6788014718
 10
43.4628811738
 20
34.7316422667
 10
43.45901096
 20
34.7851413385
 10
43.456457526
 20
34.8392434694
 10
43.4549804482
 20
34.8937332851
 10
43.4544916596
 20
34.9486044753
 10
43.4550792274
 20
35.0038634189
 10
43.4567669294
 20
35.0593137139
 10
43.4594532167
 20
35.1149700974
 10
43.4632396382
 20
35.1708178432
 10
43.4684546198
 20
35.2266162915
 10
43.4750930945
 20
35.2824993891
 10
43.4831601293
 20
35.3383331417
 10
43.4929993499
 20
35.3934748539
 10
43.5046617739
 20
35.4480222676
 10
43.5180963839
 20
35.5018774192
 10
43.5334937535
 20
35.5541038483
 10
43.5508979422
 20
35.6046084048
 10
43.5702648907
 20
35.6534837942
 10
43.5916529945
 20
35.7000721561
 10
43.6150833808
 20
35.7442250976
 10
43.6405349225
 20
35.7860904909
 10
43.6680026332
 20
35.8254548007
  0
LINE
  5
3C6
100
AcDbEntity
  8
DRAFT
100
AcDbLine
 62
7
  6
CONTINUOUS
 10
83.0
 20
14.0
 11
81.6
 21
14.0
  0
LINE
  5
3C7
100
AcDbEntity
  8
0
100
AcDbLine
 62
7
  6
CONTINUOUS
 10
-81.6
 20
14.0
 11
-80.8
 21
14.0
  0
LINE
  5
3C8
100
AcDbEntity
  8
0
100
AcDbLine
 62
7
  6
CONTINUOUS
 10
80.8
 20
14.0
 11
81.6
 21
14.0
  0
LINE
  5
3C9
100
AcDbEntity
  8
DRAFT
100
AcDbLine
 62
7
  6
CONTINUOUS
 10
-81.6
 20
14.0
 11
-83.0
 21
14.0
  0
LINE
  5
3CA
100
AcDbEntity
  8
DRAFT
100
AcDbLine
 62
7
  6
CONTINUOUS
 10
-83.0
 20
14.8
 11
-81.6
 21
14.8
  0
LINE
  5
3CB
100
AcDbEntity
  8
0
100
AcDbLine
 62
7
  6
CONTINUOUS
 10
-81.6
 20
14.8
 11
-80.8
 21
14.8
  0
LINE
  5
3CC
100
AcDbEntity
  8
0
100
AcDbLine
 62
7
  6
CONTINUOUS
 10
80.8
 20
14.8
 11
81.6
 21
14.8
  0
LINE
  5
3CD
100
AcDbEntity
  8
DRAFT
100
AcDbLine
 62
7
  6
CONTINUOUS
 10
81.6
 20
14.8
 11
83.0
 21
14.8
  0
LINE
  5
3CE
100
AcDbEntity
  8
DRAFT
100
AcDbLine
 62
7
  6
CONTINUOUS
 10
83.0
 20
16.6
 11
81.6
 21
16.6
  0
LINE
  5
3CF
100
AcDbEntity
  8
0
100
AcDbLine
 62
7
  6
CONTINUOUS
 10
-81.6
 20
16.6
 11
-80.8
 21
16.6
  0
LINE
  5
3D0
100
AcDbEntity
  8
0
100
AcDbLine
 62
7
  6
CONTINUOUS
 10
80.8
 20
16.6
 11
81.6
 21
16.6
  0
LINE
  5
3D1
100
AcDbEntity
  8
DRAFT
100
AcDbLine
 62
7
  6
CONTINUOUS
 10
-81.6
 20
16.6
 11
-83.0
 21
16.6
  0
LINE
  5
3D2
100
AcDbEntity
  8
DRAFT
100
AcDbLine
 62
7
  6
CONTINUOUS
 10
-83.0
 20
17.4
 11
-81.6
 21
17.4
  0
LINE
  5
3D3
100
AcDbEntity
  8
0
100
AcDbLine
 62
7
  6
CONTINUOUS
 10
-81.6
 20
17.4
 11
-80.8
 21
17.4
  0
LINE
  5
3D4
100
AcDbEntity
  8
0
100
AcDbLine
 62
7
  6
CONTINUOUS
 10
80.8
 20
17.4
 11
81.6
 21
17.4
  0
LINE
  5
3D5
100
AcDbEntity
  8
DRAFT
100
AcDbLine
 62
7
  6
CONTINUOUS
 10
81.6
 20
17.4
 11
83.0
 21
17.4
  0
LINE
  5
3D6
100
AcDbEntity
  8
DRAFT
100
AcDbLine
 62
7
  6
CONTINUOUS
 10
83.0
 20
19.2
 11
81.6
 21
19.2
  0
LINE
  5
3D7
100
AcDbEntity
  8
0
100
AcDbLine
 62
7
  6
CONTINUOUS
 10
-81.6
 20
19.2
 11
-80.8
 21
19.2
  0
LINE
  5
3D8
100
AcDbEntity
  8
0
100
AcDbLine
 62
7
  6
CONTINUOUS
 10
80.8
 20
19.2
 11
81.6
 21
19.2
  0
LINE
  5
3D9
100
AcDbEntity
  8
DRAFT
100
AcDbLine
 62
7
  6
CONTINUOUS
 10
-81.6
 20
19.2
 11
-83.0
 21
19.2
  0
LWPOLYLINE
  5
3DA
100
AcDbEntity
  8
0
100
AcDbPolyline
 62
7
  6
CONTINUOUS
 90
29
 70
0
 10
-68.5656669329
 20
34.8107092585
 10
-68.5922070036
 20
34.8167825477
 10
-68.6188740489
 20
34.8214391575
 10
-68.6456680689
 20
34.8246790917
 10
-68.6726572675
 20
34.8264270165
 10
-68.6997734407
 20
34.82675827
 10
-68.7268119764
 20
34.8258988634
 10
-68.7537621666
 20
34.8239612732
 10
-68.7806347194
 20
34.8208330208
 10
-68.8072571464
 20
34.8164026831
 10
-68.8336113499
 20
34.8105640493
 10
-68.8597154277
 20
34.8034233218
 10
-68.885451185
 20
34.7951876964
 10
-68.9108208866
 20
34.7859370264
 10
-68.9358222678
 20
34.7755914472
 10
-68.9603303398
 20
34.7641185765
 10
-68.9844936442
 20
34.751566713
 10
-69.0081636394
 20
34.737887542
 10
-69.0307697119
 20
34.7229037579
 10
-69.0523428012
 20
34.7066128941
 10
-69.0728519677
 20
34.6890173926
 10
-69.0916337795
 20
34.6699473059
 10
-69.1083638167
 20
34.6491077628
 10
-69.1233664993
 20
34.6267935969
 10
-69.1369516548
 20
34.6037194231
 10
-69.148998887
 20
34.5799410826
 10
-69.1596285923
 20
34.5554027136
 10
-69.1695117878
 20
34.5306513931
 10
-69.1785994301
 20
34.5057958077
  0
LINE
  5
3DB
100
AcDbEntity
  8
DRAFT
100
AcDbLine
 62
7
  6
CONTINUOUS
 10
-83.0
 20
20.0
 11
-81.6
 21
20.0
  0
LINE
  5
3DC
100
AcDbEntity
  8
0
100
AcDbLine
 62
7
  6
CONTINUOUS
 10
-81.6
 20
20.0
 11
-80.8
 21
20.0
  0
LINE
  5
3DD
100
AcDbEntity
  8
0
100
AcDbLine
 62
7
  6
CONTINUOUS
 10
80.8
 20
20.0
 11
81.6
 21
20.0
  0
LINE
  5
3DE
100
AcDbEntity
  8
DRAFT
100
AcDbLine
 62
7
  6
CONTINUOUS
 10
81.6
 20
20.0
 11
83.0
 21
20.0
  0
LINE
  5
3DF
100
AcDbEntity
  8
DRAFT
100
AcDbLine
 62
7
  6
CONTINUOUS
 10
82.7274795477
 20
22.4999999998
 11
64.1
 21
22.4999999998
  0
LINE
  5
3E0
100
AcDbEntity
  8
0
100
AcDbLine
 62
7
  6
CONTINUOUS
 10
64.1
 20
22.4999999998
 11
-64.1
 21
22.4999999998
  0
LINE
  5
3E1
100
AcDbEntity
  8
DRAFT
100
AcDbLine
 62
7
  6
CONTINUOUS
 10
-64.1
 20
22.4999999998
 11
-82.7274795477
 21
22.4999999998
  0
LINE
  5
3E2
100
AcDbEntity
  8
RACCORDO
100
AcDbLine
 62
250
  6
CONTINUOUS
 10
63.3
 20
23.0
 11
32.25
 21
23.0
  0
LINE
  5
3E3
100
AcDbEntity
  8
RACCORDO
100
AcDbLine
 62
250
  6
CONTINUOUS
 10
31.45
 20
23.0
 11
0.4
 21
23.0
  0
LINE
  5
3E4
100
AcDbEntity
  8
RACCORDO
100
AcDbLine
 62
250
  6
CONTINUOUS
 10
-0.4
 20
23.0
 11
-31.45
 21
23.0
  0
LINE
  5
3E5
100
AcDbEntity
  8
RACCORDO
100
AcDbLine
 62
250
  6
CONTINUOUS
 10
-32.25
 20
23.0
 11
-63.3
 21
23.0
  0
LINE
  5
3E6
100
AcDbEntity
  8
DRAFT
100
AcDbLine
 62
7
  6
CONTINUOUS
 10
-82.7274795477
 20
23.3
 11
-64.1
 21
23.3
  0
LINE
  5
3E7
100
AcDbEntity
  8
DRAFT
100
AcDbLine
 62
7
  6
CONTINUOUS
 10
64.1
 20
23.3
 11
82.7274795477
 21
23.3
  0
LINE
  5
3E8
100
AcDbEntity
  8
RACCORDO
100
AcDbLine
 62
7
  6
CONTINUOUS
 10
64.1
 20
23.3
 11
-64.1
 21
23.3
  0
LINE
  5
3E9
100
AcDbEntity
  8
RACCORDO
100
AcDbLine
 62
7
  6
CONTINUOUS
 10
-82.9790368883
 20
25.5
 11
-81.4
 21
25.5
  0
LINE
  5
3EA
100
AcDbEntity
  8
RACCORDO
100
AcDbLine
 62
7
  6
CONTINUOUS
 10
81.4
 20
25.5
 11
83.0
 21
25.5
  0
LINE
  5
3EB
100
AcDbEntity
  8
RACCORDO
100
AcDbLine
 62
7
  6
CONTINUOUS
 10
31.45
 20
-23.0
 11
31.45
 21
-34.2042896174
  0
LINE
  5
3EC
100
AcDbEntity
  8
RACCORDO
100
AcDbLine
 62
7
  6
CONTINUOUS
 10
31.45
 20
-34.8433730757
 11
31.45
 21
-38.9790368883
  0
LINE
  5
3ED
100
AcDbEntity
  8
RACCORDO
100
AcDbLine
 62
7
  6
CONTINUOUS
 10
31.45
 20
23.0
 11
31.45
 21
34.2042896174
  0
LINE
  5
3EE
100
AcDbEntity
  8
RACCORDO
100
AcDbLine
 62
7
  6
CONTINUOUS
 10
31.45
 20
34.8433730757
 11
31.45
 21
38.9790368883
  0
LINE
  5
3EF
100
AcDbEntity
  8
RACCORDO
100
AcDbLine
 62
7
  6
CONTINUOUS
 10
32.25
 20
38.9790368883
 11
32.25
 21
34.8433730757
  0
LINE
  5
3F0
100
AcDbEntity
  8
RACCORDO
100
AcDbLine
 62
7
  6
CONTINUOUS
 10
32.25
 20
-23.0
 11
32.25
 21
-34.2042896174
  0
LINE
  5
3F1
100
AcDbEntity
  8
RACCORDO
100
AcDbLine
 62
7
  6
CONTINUOUS
 10
32.25
 20
-34.8433730757
 11
32.25
 21
-38.9790368883
  0
LINE
  5
3F2
100
AcDbEntity
  8
RACCORDO
100
AcDbLine
 62
7
  6
CONTINUOUS
 10
32.25
 20
23.0
 11
32.25
 21
34.2042896174
  0
LINE
  5
3F3
100
AcDbEntity
  8
RACCORDO
100
AcDbLine
 62
250
  6
CONTINUOUS
 10
82.4466236443
 20
38.7462125047
 11
82.7004111396
 21
39.0
  0
LINE
  5
3F4
100
AcDbEntity
  8
RACCORDO
100
AcDbLine
 62
250
  6
CONTINUOUS
 10
82.7462125399
 20
38.4466236795
 11
83.0
 21
38.7004111396
  0
LINE
  5
3F5
100
AcDbEntity
  8
0
100
AcDbLine
 62
7
  6
CONTINUOUS
 10
48.7485351367
 20
34.5224410116
 11
48.471679727
 21
34.4990029769
  0
LINE
  5
3F6
100
AcDbEntity
  8
0
100
AcDbLine
 62
7
  6
CONTINUOUS
 10
44.8344727125
 20
35.5580849775
 11
44.5722655429
 21
35.5375779643
  0
LINE
  5
3F7
100
AcDbEntity
  8
RACCORDO
100
AcDbLine
 62
7
  6
CONTINUOUS
 10
-82.9790368883
 20
26.3
 11
-81.4
 21
26.3
  0
LINE
  5
3F8
100
AcDbEntity
  8
RACCORDO
100
AcDbLine
 62
7
  6
CONTINUOUS
 10
83.0
 20
26.3
 11
81.4
 21
26.3
  0
LINE
  5
3F9
100
AcDbEntity
  8
0
100
AcDbLine
 62
7
  6
CONTINUOUS
 10
-58.127009
 20
30.539734
 11
-59.466887
 21
30.539734
  0
LINE
  5
3FA
100
AcDbEntity
  8
0
100
AcDbLine
 62
7
  6
CONTINUOUS
 10
-58.127009
 20
31.011955
 11
-58.545335
 21
31.011955
  0
LINE
  5
3FB
100
AcDbEntity
  8
0
100
AcDbLine
 62
7
  6
CONTINUOUS
 10
-59.048398
 20
31.011955
 11
-59.466887
 21
31.011955
  0
LINE
  5
3FC
100
AcDbEntity
  8
0
100
AcDbLine
 62
7
  6
CONTINUOUS
 10
-68.21818
 20
31.552609
 11
-70.336316
 21
31.552609
  0
LINE
  5
3FD
100
AcDbEntity
  8
0
100
AcDbLine
 62
7
  6
CONTINUOUS
 10
-71.981169
 20
31.552609
 11
-73.7866778349
 21
31.552609
  0
LINE
  5
3FE
100
AcDbEntity
  8
0
100
AcDbLine
 62
7
  6
CONTINUOUS
 10
-75.028287
 20
31.552609
 11
-77.1505106472
 21
31.552609
  0
LINE
  5
3FF
100
AcDbEntity
  8
0
100
AcDbLine
 62
7
  6
CONTINUOUS
 10
-78.498172
 20
31.552609
 11
-79.657325
 21
31.552609
  0
LWPOLYLINE
  5
400
100
AcDbEntity
  8
0
100
AcDbPolyline
 62
7
  6
CONTINUOUS
 90
19
 70
0
 10
75.841874273
 20
9.8842345008
 10
75.8801130697
 20
9.874520412
 10
75.894538194
 20
9.870779034
 10
75.9086485516
 20
9.8670452118
 10
75.9224475209
 20
9.8633222729
 10
75.9359317236
 20
9.8596068899
 10
75.9490910249
 20
9.8558890808
 10
75.9619249554
 20
9.8521732548
 10
75.9744339846
 20
9.8484550028
 10
75.9866093858
 20
9.8447111147
 10
75.9984446453
 20
9.8409509555
 10
76.0099462769
 20
9.8371651602
 10
76.021125096
 20
9.8333024238
 10
76.0319786213
 20
9.8294094636
 10
76.0425093342
 20
9.8254395623
 10
76.0527354942
 20
9.8212012625
 10
76.0626631878
 20
9.8166307448
 10
76.0722863286
 20
9.8117918281
 10
76.0816049166
 20
9.8066845122
  0
LINE
  5
401
100
AcDbEntity
  8
0
100
AcDbLine
 62
7
  6
CONTINUOUS
 10
75.8940181541
 20
10.0962973134
 11
75.8451569523
 21
10.1095240932
  0
LINE
  5
402
100
AcDbEntity
  8
0
100
AcDbLine
 62
7
  6
CONTINUOUS
 10
75.8451569523
 20
10.1095240932
 11
75.7952823784
 21
10.123270818
  0
LINE
  5
403
100
AcDbEntity
  8
0
100
AcDbLine
 62
7
  6
CONTINUOUS
 10
75.9299840188
 20
10.0863495764
 11
75.8940181541
 21
10.0962973134
  0
LINE
  5
404
100
AcDbEntity
  8
0
100
AcDbLine
 62
7
  6
CONTINUOUS
 10
75.7952823784
 20
10.123270818
 11
75.7576553785
 21
10.1338584382
  0
LINE
  5
405
100
AcDbEntity
  8
0
100
AcDbLine
 62
7
  6
CONTINUOUS
 10
75.9654990491
 20
10.0762746583
 11
75.9299840188
 21
10.0863495764
  0
LWPOLYLINE
  5
406
100
AcDbEntity
  8
0
100
AcDbPolyline
 62
7
  6
CONTINUOUS
 90
7
 70
0
 10
75.7576553785
 20
10.1338584382
 10
75.7326345946
 20
10.1410500558
 10
75.7201804042
 20
10.1446795554
 10
75.7077744868
 20
10.1484096477
 10
75.6954218085
 20
10.1522637371
 10
75.6831174033
 20
10.1562184189
 10
75.6708612712
 20
10.1602736931
  0
LINE
  5
407
100
AcDbEntity
  8
0
100
AcDbLine
 62
7
  6
CONTINUOUS
 10
76.0006217743
 20
10.0660227103
 11
75.9654990491
 21
10.0762746583
  0
LINE
  5
408
100
AcDbEntity
  8
RACCORDO
100
AcDbLine
 62
250
  6
CONTINUOUS
 10
82.7004111396
 20
-39.0
 11
82.4466236443
 21
-38.7462125047
  0
LINE
  5
409
100
AcDbEntity
  8
RACCORDO
100
AcDbLine
 62
250
  6
CONTINUOUS
 10
83.0
 20
-38.7004111396
 11
82.7462125403
 21
-38.4466236798
  0
LWPOLYLINE
  5
40A
100
AcDbEntity
  8
0
100
AcDbPolyline
 62
7
  6
CONTINUOUS
 90
42
 70
0
 10
75.5013569854
 20
10.5387666781
 10
75.4808795677
 20
10.5229636532
 10
75.4618853282
 20
10.5060298847
 10
75.444374267
 20
10.4879653692
 10
75.4282640224
 20
10.4685644668
 10
75.4136369561
 20
10.4480328092
 10
75.4007401533
 20
10.4269873024
 10
75.3896577512
 20
10.4055299211
 10
75.3803056126
 20
10.383558687
 10
75.3726784112
 20
10.3613845794
 10
75.3668387737
 20
10.339066532
 10
75.3627240733
 20
10.3165456098
 10
75.3601411035
 20
10.2939559912
 10
75.3590126124
 20
10.2712736717
 10
75.3594158519
 20
10.2485226553
 10
75.3613893709
 20
10.2259091347
 10
75.364899771
 20
10.2034256557
 10
75.3699804506
 20
10.1810796736
 10
75.3767701538
 20
10.159099747
 10
75.3852622713
 20
10.1374551529
 10
75.3954634125
 20
10.1161766172
 10
75.4075321492
 20
10.0955848734
 10
75.4216003783
 20
10.075569832
 10
75.437536203
 20
10.0562415873
 10
75.4551025048
 20
10.0382511517
 10
75.4745217037
 20
10.0217529033
 10
75.4955713798
 20
10.0065924723
 10
75.5173471553
 20
9.9929577515
 10
75.5397384962
 20
9.9811589088
 10
75.5628559366
 20
9.9708857835
 10
75.5861267008
 20
9.9613957738
 10
75.6094369718
 20
9.9525765179
 10
75.6329005666
 20
9.94454038
 10
75.65628616
 20
9.9368818463
 10
75.6794925625
 20
9.929522905
 10
75.7026209636
 20
9.9225415689
 10
75.725743607
 20
9.9157663606
 10
75.7488523464
 20
9.9091709178
 10
75.7719553281
 20
9.9027816034
 10
75.795149234
 20
9.8965060279
 10
75.8184662914
 20
9.8903133948
 10
75.841874273
 20
9.8842345008
  0
LWPOLYLINE
  5
40B
100
AcDbEntity
  8
0
100
AcDbPolyline
 62
7
  6
CONTINUOUS
 90
37
 70
0
 10
76.0743145934
 20
9.5542742169
 10
76.0584119469
 20
9.5426726611
 10
76.0417317853
 20
9.5324552558
 10
76.0242741084
 20
9.5236220035
 10
76.0058156969
 20
9.5162756539
 10
75.9865797702
 20
9.5103134609
 10
75.9672359867
 20
9.5054271826
 10
75.9479682086
 20
9.5016332471
 10
75.9285925738
 20
9.4989152279
 10
75.9092271538
 20
9.4969156006
 10
75.889890616
 20
9.4955493963
 10
75.8705642931
 20
9.4949015844
 10
75.851310255
 20
9.4948695478
 10
75.8321273876
 20
9.4953655582
 10
75.813016805
 20
9.4964773439
 10
75.7940439196
 20
9.4983654727
 10
75.7751991753
 20
9.5010059072
 10
75.7564921281
 20
9.5044226843
 10
75.7380168585
 20
9.5088484823
 10
75.7196869702
 20
9.5143034236
 10
75.7015888596
 20
9.5207673843
 10
75.6840757965
 20
9.5284126725
 10
75.6671640714
 20
9.537302961
 10
75.6508373937
 20
9.5473745738
 10
75.6354001615
 20
9.5586087956
 10
75.6208649965
 20
9.5711151368
 10
75.607219277
 20
9.5847840823
 10
75.5947295354
 20
9.5992683794
 10
75.5834974378
 20
9.6145454505
 10
75.5734213181
 20
9.6306378692
 10
75.5644627102
 20
9.6472661113
 10
75.5566619834
 20
9.6644285492
 10
75.5499787683
 20
9.6821268076
 10
75.5442534906
 20
9.7000862421
 10
75.5394329587
 20
9.7182153046
 10
75.5355703641
 20
9.7366055417
 10
75.5326657068
 20
9.7552569528
  0
LWPOLYLINE
  5
40C
100
AcDbEntity
  8
0
100
AcDbPolyline
 62
7
  6
CONTINUOUS
 90
13
 70
0
 10
75.6262529001
 20
10.4038677829
 10
75.6402532879
 20
10.4130804386
 10
75.6549044275
 20
10.4211759286
 10
75.670206319
 20
10.4281542543
 10
75.6862032454
 20
10.4338902527
 10
75.7028509236
 20
10.4385090896
 10
75.7200165047
 20
10.4423862594
 10
75.7376375177
 20
10.4455992756
 10
75.7557764336
 20
10.4480706257
 10
75.7744878155
 20
10.4499432644
 10
75.7937898512
 20
10.4512648435
 10
75.813664353
 20
10.4519877116
 10
75.8341113208
 20
10.4521118687
  0
LINE
  5
40D
100
AcDbEntity
  8
0
100
AcDbLine
 62
7
  6
CONTINUOUS
 10
-76.271550361
 20
35.1789837952
 11
-76.1176244906
 21
35.184619
  0
LINE
  5
40E
100
AcDbEntity
  8
0
100
AcDbLine
 62
7
  6
CONTINUOUS
 10
74.865813
 20
33.299907
 11
75.60584
 21
33.299917
  0
LINE
  5
40F
100
AcDbEntity
  8
0
100
AcDbLine
 62
7
  6
CONTINUOUS
 10
72.192766
 20
33.299907
 11
72.932775
 21
33.299917
  0
LINE
  5
410
100
AcDbEntity
  8
0
100
AcDbLine
 62
7
  6
CONTINUOUS
 10
80.60282
 20
33.299917
 11
81.436347
 21
33.299926
  0
LINE
  5
411
100
AcDbEntity
  8
0
100
AcDbLine
 62
7
  6
CONTINUOUS
 10
69.27305
 20
33.299898
 11
70.013077
 21
33.299907
  0
LINE
  5
412
100
AcDbEntity
  8
0
100
AcDbLine
 62
7
  6
CONTINUOUS
 10
66.851649
 20
33.299898
 11
67.591705
 21
33.299907
  0
LINE
  5
413
100
AcDbEntity
  8
0
100
AcDbLine
 62
7
  6
CONTINUOUS
 10
70.753087
 20
33.299907
 11
71.493114
 21
33.299907
  0
LINE
  5
414
100
AcDbEntity
  8
0
100
AcDbLine
 62
7
  6
CONTINUOUS
 10
73.632436
 20
33.299907
 11
74.372464
 21
33.299907
  0
LINE
  5
415
100
AcDbEntity
  8
0
100
AcDbLine
 62
7
  6
CONTINUOUS
 10
78.475218
 20
33.299917
 11
79.215255
 21
33.299917
  0
LINE
  5
416
100
AcDbEntity
  8
0
100
AcDbLine
 62
7
  6
CONTINUOUS
 10
77.241832
 20
33.299917
 11
77.981869
 21
33.299907
  0
LINE
  5
417
100
AcDbEntity
  8
0
100
AcDbLine
 62
7
  6
CONTINUOUS
 10
47.912109
 20
33.936503
 11
47.648438
 21
33.936503
  0
LINE
  5
418
100
AcDbEntity
  8
0
100
AcDbLine
 62
7
  6
CONTINUOUS
 10
45.7236327863
 20
33.936503
 11
45.4526367121
 21
33.936503
  0
LINE
  5
419
100
AcDbEntity
  8
0
100
AcDbLine
 62
7
  6
CONTINUOUS
 10
42.791016
 20
33.936503
 11
42.527344
 21
33.936503
  0
LINE
  5
41A
100
AcDbEntity
  8
0
100
AcDbLine
 62
7
  6
CONTINUOUS
 10
75.839468
 20
34.027577
 11
77.008214
 21
34.027577
  0
LINE
  5
41B
100
AcDbEntity
  8
0
100
AcDbLine
 62
7
  6
CONTINUOUS
 10
64.1
 20
34.2042896174
 11
63.3
 21
34.2042896174
  0
LINE
  5
41C
100
AcDbEntity
  8
0
100
AcDbLine
 62
7
  6
CONTINUOUS
 10
32.25
 20
34.2042896174
 11
31.45
 21
34.2042896174
  0
LINE
  5
41D
100
AcDbEntity
  8
0
100
AcDbLine
 62
7
  6
CONTINUOUS
 10
0.4
 20
34.2042896174
 11
-0.4
 21
34.2042896174
  0
LINE
  5
41E
100
AcDbEntity
  8
0
100
AcDbLine
 62
7
  6
CONTINUOUS
 10
-31.45
 20
34.2042896174
 11
-32.25
 21
34.2042896174
  0
LINE
  5
41F
100
AcDbEntity
  8
0
100
AcDbLine
 62
7
  6
CONTINUOUS
 10
-63.3
 20
34.2042896174
 11
-64.1
 21
34.2042896174
  0
LINE
  5
420
100
AcDbEntity
  8
0
100
AcDbLine
 62
7
  6
CONTINUOUS
 10
-58.14243
 20
34.366846
 11
-58.545335
 21
34.366846
  0
LINE
  5
421
100
AcDbEntity
  8
0
100
AcDbLine
 62
7
  6
CONTINUOUS
 10
-59.048398
 20
34.366846
 11
-59.451466
 21
34.366846
  0
LINE
  5
422
100
AcDbEntity
  8
0
100
AcDbLine
 62
7
  6
CONTINUOUS
 10
48.202148
 20
34.450664
 11
47.912109
 21
34.450664
  0
LINE
  5
423
100
AcDbEntity
  8
0
100
AcDbLine
 62
7
  6
CONTINUOUS
 10
47.648438
 20
34.450664
 11
46.716797
 21
34.450664
  0
LINE
  5
424
100
AcDbEntity
  8
0
100
AcDbLine
 62
7
  6
CONTINUOUS
 10
48.202148
 20
34.692363
 11
47.912109
 21
34.692363
  0
LINE
  5
425
100
AcDbEntity
  8
0
100
AcDbLine
 62
7
  6
CONTINUOUS
 10
47.648438
 20
34.692363
 11
46.976074
 21
34.692363
  0
LINE
  5
426
100
AcDbEntity
  8
0
100
AcDbLine
 62
7
  6
CONTINUOUS
 10
76.065195
 20
34.730605
 11
76.782477
 21
34.730605
  0
LINE
  5
427
100
AcDbEntity
  8
0
100
AcDbLine
 62
7
  6
CONTINUOUS
 10
79.215338
 20
34.730614
 11
79.86122
 21
34.730605
  0
LINE
  5
428
100
AcDbEntity
  8
0
100
AcDbLine
 62
7
  6
CONTINUOUS
 10
-58.14243
 20
34.841663
 11
-59.451466
 21
34.841663
  0
LINE
  5
429
100
AcDbEntity
  8
0
100
AcDbLine
 62
7
  6
CONTINUOUS
 10
64.1
 20
34.8433730757
 11
63.3
 21
34.8433730757
  0
LINE
  5
42A
100
AcDbEntity
  8
0
100
AcDbLine
 62
7
  6
CONTINUOUS
 10
32.25
 20
34.8433730757
 11
31.45
 21
34.8433730757
  0
LINE
  5
42B
100
AcDbEntity
  8
0
100
AcDbLine
 62
7
  6
CONTINUOUS
 10
0.4
 20
34.8433730757
 11
-0.4
 21
34.8433730757
  0
LINE
  5
42C
100
AcDbEntity
  8
0
100
AcDbLine
 62
7
  6
CONTINUOUS
 10
-31.45
 20
34.8433730757
 11
-32.25
 21
34.8433730757
  0
LINE
  5
42D
100
AcDbEntity
  8
0
100
AcDbLine
 62
7
  6
CONTINUOUS
 10
-63.3
 20
34.8433730757
 11
-64.1
 21
34.8433730757
  0
LINE
  5
42E
100
AcDbEntity
  8
0
100
AcDbLine
 62
7
  6
CONTINUOUS
 10
-71.510478
 20
35.184619
 11
-72.9380839164
 21
35.184619
  0
LINE
  5
42F
100
AcDbEntity
  8
0
100
AcDbLine
 62
7
  6
CONTINUOUS
 10
-75.198525
 20
35.184619
 11
-76.1176244906
 21
35.184619
  0
LINE
  5
430
100
AcDbEntity
  8
0
100
AcDbLine
 62
7
  6
CONTINUOUS
 10
79.205052
 20
35.415142
 11
80.105398
 21
35.415142
  0
LINE
  5
431
100
AcDbEntity
  8
0
100
AcDbLine
 62
7
  6
CONTINUOUS
 10
49.794434
 20
35.802714
 11
48.9375
 21
35.802714
  0
LINE
  5
432
100
AcDbEntity
  8
0
100
AcDbLine
 62
7
  6
CONTINUOUS
 10
46.204101281
 20
35.802714
 11
45.152344
 21
35.802714
  0
LINE
  5
433
100
AcDbEntity
  8
0
100
AcDbLine
 62
7
  6
CONTINUOUS
 10
49.794434
 20
36.054667
 11
48.726563
 21
36.054667
  0
LINE
  5
434
100
AcDbEntity
  8
0
100
AcDbLine
 62
7
  6
CONTINUOUS
 10
46.54248
 20
36.056132
 11
45.152344
 21
36.056132
  0
LINE
  5
435
100
AcDbEntity
  8
0
100
AcDbLine
 62
7
  6
CONTINUOUS
 10
47.912109
 20
36.083964
 11
47.696777
 21
36.083964
  0
LINE
  5
436
100
AcDbEntity
  8
0
100
AcDbLine
 62
7
  6
CONTINUOUS
 10
42.791016
 20
36.092753
 11
42.6210935605
 21
36.092753
  0
LINE
  5
437
100
AcDbEntity
  8
0
100
AcDbLine
 62
7
  6
CONTINUOUS
 10
79.205043
 20
36.315556
 11
80.105398
 21
36.315556
  0
LINE
  5
438
100
AcDbEntity
  8
0
100
AcDbLine
 62
7
  6
CONTINUOUS
 10
65.663653
 20
37.000074
 11
66.40369
 21
37.000074
  0
LINE
  5
439
100
AcDbEntity
  8
0
100
AcDbLine
 62
7
  6
CONTINUOUS
 10
68.039673
 20
37.000074
 11
68.77971
 21
37.000074
  0
LINE
  5
43A
100
AcDbEntity
  8
0
100
AcDbLine
 62
7
  6
CONTINUOUS
 10
69.273059
 20
37.000074
 11
70.013087
 21
37.000074
  0
LINE
  5
43B
100
AcDbEntity
  8
0
100
AcDbLine
 62
7
  6
CONTINUOUS
 10
70.753087
 20
37.000074
 11
71.871809
 21
37.000074
  0
LINE
  5
43C
100
AcDbEntity
  8
0
100
AcDbLine
 62
7
  6
CONTINUOUS
 10
73.253741
 20
37.000074
 11
74.372464
 21
37.000074
  0
LINE
  5
43D
100
AcDbEntity
  8
0
100
AcDbLine
 62
7
  6
CONTINUOUS
 10
76.053799
 20
37.000083
 11
76.793864
 21
37.000083
  0
LINE
  5
43E
100
AcDbEntity
  8
0
100
AcDbLine
 62
7
  6
CONTINUOUS
 10
78.475218
 20
37.000083
 11
80.208113
 21
37.000083
  0
LINE
  5
43F
100
AcDbEntity
  8
0
100
AcDbLine
 62
7
  6
CONTINUOUS
 10
63.3
 20
37.8126002243
 11
32.25
 21
37.8126002243
  0
LINE
  5
440
100
AcDbEntity
  8
0
100
AcDbLine
 62
7
  6
CONTINUOUS
 10
31.45
 20
37.8126002243
 11
0.4
 21
37.8126002243
  0
LINE
  5
441
100
AcDbEntity
  8
0
100
AcDbLine
 62
7
  6
CONTINUOUS
 10
-0.4
 20
37.8126002243
 11
-31.45
 21
37.8126002243
  0
LINE
  5
442
100
AcDbEntity
  8
0
100
AcDbLine
 62
7
  6
CONTINUOUS
 10
-32.25
 20
37.8126002243
 11
-63.3
 21
37.8126002243
  0
LINE
  5
443
100
AcDbEntity
  8
0
100
AcDbLine
 62
7
  6
CONTINUOUS
 10
-63.3
 20
38.3
 11
-32.25
 21
38.3
  0
LINE
  5
444
100
AcDbEntity
  8
0
100
AcDbLine
 62
7
  6
CONTINUOUS
 10
-31.45
 20
38.3
 11
-0.4
 21
38.3
  0
LINE
  5
445
100
AcDbEntity
  8
0
100
AcDbLine
 62
7
  6
CONTINUOUS
 10
0.4
 20
38.3
 11
31.45
 21
38.3
  0
LINE
  5
446
100
AcDbEntity
  8
0
100
AcDbLine
 62
7
  6
CONTINUOUS
 10
32.25
 20
38.3
 11
63.3
 21
38.3
  0
LINE
  5
447
100
AcDbEntity
  8
RACCORDO
100
AcDbLine
 62
250
  6
CONTINUOUS
 10
-82.4466236443
 20
38.4742367328
 11
-64.1
 21
38.4742367328
  0
LINE
  5
448
100
AcDbEntity
  8
RACCORDO
100
AcDbLine
 62
250
  6
CONTINUOUS
 10
82.4466236443
 20
38.4742367328
 11
64.1
 21
38.4742367328
  0
LINE
  5
449
100
AcDbEntity
  8
RACCORDO
100
AcDbLine
 62
250
  6
CONTINUOUS
 10
-31.45
 20
38.5
 11
-32.25
 21
38.5
  0
LINE
  5
44A
100
AcDbEntity
  8
RACCORDO
100
AcDbLine
 62
250
  6
CONTINUOUS
 10
-63.3
 20
38.5
 11
-64.1
 21
38.5
  0
LINE
  5
44B
100
AcDbEntity
  8
RACCORDO
100
AcDbLine
 62
250
  6
CONTINUOUS
 10
63.3
 20
38.5
 11
63.3241220138
 21
38.500008399
  0
LINE
  5
44C
100
AcDbEntity
  8
0
100
AcDbLine
 62
7
  6
CONTINUOUS
 10
-67.9316568927
 20
35.1846192866
 11
-69.60893
 21
35.185193
  0
LWPOLYLINE
  5
44D
100
AcDbEntity
  8
RACCORDO
100
AcDbPolyline
 62
250
  6
CONTINUOUS
 90
4
 70
0
 10
31.45
 20
38.5
 10
32.24392468
 20
38.5000414522
 10
32.248478337
 20
38.5000241228
 10
32.25
 20
38.5
  0
LWPOLYLINE
  5
44E
100
AcDbEntity
  8
RACCORDO
100
AcDbPolyline
 62
250
  6
CONTINUOUS
 90
4
 70
0
 10
63.3241220138
 20
38.500008399
 10
64.09392468
 20
38.5000414522
 10
64.098478337
 20
38.5000241228
 10
64.1
 20
38.5
  0
LWPOLYLINE
  5
44F
100
AcDbEntity
  8
RACCORDO
100
AcDbPolyline
 62
250
  6
CONTINUOUS
 90
3
 70
0
 10
-0.4
 20
38.5
 10
0.398478337
 20
38.5000241228
 10
0.4
 20
38.5
  0
LWPOLYLINE
  5
450
100
AcDbEntity
  8
0
100
AcDbPolyline
 62
7
  6
CONTINUOUS
 90
10
 70
0
 10
76.1711607477
 20
10.0080061779
 10
76.1545617477
 20
10.0147967292
 10
76.1378525918
 20
10.0213232177
 10
76.1210332801
 20
10.0275856437
 10
76.1040944645
 20
10.0335396672
 10
76.0870454931
 20
10.0392296288
 10
76.0699144099
 20
10.0447885494
 10
76.0527091039
 20
10.0502378659
 10
76.0354216861
 20
10.0555561417
 10
76.0006217743
 20
10.0660227103
  0
LINE
  5
451
100
AcDbEntity
  8
0
100
AcDbLine
 62
7
  6
CONTINUOUS
 10
42.0
 20
35.5536908831
 11
42.0
 21
35.2988080706
  0
LINE
  5
452
100
AcDbEntity
  8
0
100
AcDbLine
 62
7
  6
CONTINUOUS
 10
42.527344
 20
35.6166794028
 11
42.527344
 21
33.936503
  0
LINE
  5
453
100
AcDbEntity
  8
0
100
AcDbLine
 62
7
  6
CONTINUOUS
 10
42.791016
 20
36.092753
 11
42.791016
 21
33.936503
  0
LWPOLYLINE
  5
454
100
AcDbEntity
  8
0
100
AcDbPolyline
 62
7
  6
CONTINUOUS
 90
46
 70
0
 10
44.6026125388
 20
34.5907879608
 10
44.6032758299
 20
34.6254318692
 10
44.6021499323
 20
34.6599194601
 10
44.5992348459
 20
34.6942507133
 10
44.5946141713
 20
34.7287356193
 10
44.588204308
 20
34.7630641667
 10
44.579754454
 20
34.7963062461
 10
44.5691189283
 20
34.8283695707
 10
44.5564434118
 20
34.8593462213
 10
44.5419141456
 20
34.8885825058
 10
44.5254493782
 20
34.9158886568
 10
44.507130861
 20
34.9414541645
 10
44.4873900893
 20
34.9651941767
 10
44.4663385546
 20
34.9871016878
 10
44.4438647655
 20
35.007183481
 10
44.4200657433
 20
35.0253753919
 10
44.3948858289
 20
35.0417561886
 10
44.3683806815
 20
35.0562469337
 10
44.3408142997
 20
35.0685469052
 10
44.3120722932
 20
35.0785481576
 10
44.2822690523
 20
35.0863585074
 10
44.2520117466
 20
35.0920008839
 10
44.2213118934
 20
35.0954590402
 10
44.1901579754
 20
35.0967491721
 10
44.1591226096
 20
35.0959428912
 10
44.1281829612
 20
35.0931084015
 10
44.097361865
 20
35.0881775185
 10
44.0673004428
 20
35.0810172905
 10
44.0380907939
 20
35.0715249244
 10
44.0096408189
 20
35.0598033109
 10
43.9823153418
 20
35.0460280396
 10
43.9562196881
 20
35.0302063743
 10
43.9312485322
 20
35.0123312098
 10
43.9074507214
 20
34.9925565862
 10
43.8846589172
 20
34.9709366903
 10
43.8630404581
 20
34.9474175416
 10
43.8431462066
 20
34.9219909381
 10
43.8249724296
 20
34.8944601228
 10
43.8085228603
 20
34.865022134
 10
43.7943595608
 20
34.8342594343
 10
43.7826959243
 20
34.8020228934
 10
43.7733185576
 20
34.7684618819
 10
43.7661493436
 20
34.7346064845
 10
43.7611622431
 20
34.7008000427
 10
43.7583832953
 20
34.6666992584
 10
43.7578125
 20
34.6323041643
  0
LWPOLYLINE
  5
455
100
AcDbEntity
  8
0
100
AcDbPolyline
 62
7
  6
CONTINUOUS
 90
22
 70
0
 10
45.4526367121
 20
33.936503
 10
45.4551997445
 20
34.0040359279
 10
45.461021737
 20
34.0758238943
 10
45.4701026896
 20
34.1518677647
 10
45.4825018421
 20
34.2326594236
 10
45.4981599547
 20
34.3177089021
 10
45.5168993085
 20
34.4055439723
 10
45.5384786303
 20
34.4961350515
 10
45.5631391934
 20
34.5895129443
 10
45.5914270982
 20
34.6842952884
 10
45.6234877415
 20
34.7804969865
 10
45.6591757265
 20
34.8781036416
 10
45.6986009632
 20
34.9756882023
 10
45.7419858955
 20
35.0731536246
 10
45.7891080795
 20
35.1705966783
 10
45.8394100937
 20
35.2668803761
 10
45.8928091863
 20
35.3621890504
 10
45.9493881092
 20
35.456337608
 10
46.0088376967
 20
35.5476342671
 10
46.0710548935
 20
35.6355144577
 10
46.1361427549
 20
35.7205412522
 10
46.204101281
 20
35.802714
  0
LINE
  5
456
100
AcDbEntity
  8
0
100
AcDbLine
 62
7
  6
CONTINUOUS
 10
48.726563
 20
36.054667
 11
48.518555
 21
34.95164
  0
LINE
  5
457
100
AcDbEntity
  8
0
100
AcDbLine
 62
7
  6
CONTINUOUS
 10
48.9375
 20
35.802714
 11
48.8217769169
 21
35.2255655856
  0
LWPOLYLINE
  5
458
100
AcDbEntity
  8
RACCORDO
100
AcDbPolyline
 62
250
  6
CONTINUOUS
 90
3
 70
0
 10
-82.5922688944
 20
38.4700602283
 10
-82.5461020641
 20
38.4722303747
 10
-82.5218481896
 20
38.4729905001
  0
LINE
  5
459
100
AcDbEntity
  8
RACCORDO
100
AcDbLine
 62
250
  6
CONTINUOUS
 10
-82.5218481896
 20
38.4729905001
 11
-82.4466236443
 21
38.4742367328
  0
LINE
  5
45A
100
AcDbEntity
  8
DRAFT
100
AcDbLine
 62
7
  6
CONTINUOUS
 10
-63.3
 20
38.6960348802
 11
-32.25
 21
38.6960348802
  0
LINE
  5
45B
100
AcDbEntity
  8
DRAFT
100
AcDbLine
 62
7
  6
CONTINUOUS
 10
-31.45
 20
38.6960348802
 11
-0.4
 21
38.6960348802
  0
LINE
  5
45C
100
AcDbEntity
  8
DRAFT
100
AcDbLine
 62
7
  6
CONTINUOUS
 10
0.4
 20
38.6960348802
 11
31.45
 21
38.6960348802
  0
LINE
  5
45D
100
AcDbEntity
  8
DRAFT
100
AcDbLine
 62
7
  6
CONTINUOUS
 10
32.25
 20
38.6960348802
 11
63.3
 21
38.6960348802
  0
LINE
  5
45E
100
AcDbEntity
  8
RACCORDO
100
AcDbLine
 62
250
  6
CONTINUOUS
 10
-82.4466236443
 20
38.7462125047
 11
-64.1
 21
38.7462125047
  0
LINE
  5
45F
100
AcDbEntity
  8
RACCORDO
100
AcDbLine
 62
250
  6
CONTINUOUS
 10
82.4466236443
 20
38.7462125047
 11
64.1
 21
38.7462125047
  0
LINE
  5
460
100
AcDbEntity
  8
RACCORDO
100
AcDbLine
 62
7
  6
CONTINUOUS
 10
-82.7004111396
 20
39.0
 11
82.7004111396
 21
39.0
  0
LINE
  5
461
100
AcDbEntity
  8
RACCORDO
100
AcDbLine
 62
7
  6
CONTINUOUS
 10
83.8016445583
 20
41.0
 11
-83.8016445583
 21
41.0
  0
LINE
  5
462
100
AcDbEntity
  8
RACCORDO
100
AcDbLine
 62
250
  6
CONTINUOUS
 10
82.5218481898
 20
38.4729905001
 11
82.4466236443
 21
38.4742367328
  0
LINE
  5
463
100
AcDbEntity
  8
RACCORDO
100
AcDbLine
 62
250
  6
CONTINUOUS
 10
82.5461020645
 20
38.4722303748
 11
82.5218481898
 21
38.4729905001
  0
LINE
  5
464
100
AcDbEntity
  8
0
100
AcDbLine
 62
7
  6
CONTINUOUS
 10
48.518555
 20
34.95164
 11
48.7661135299
 21
34.919413931
  0
LWPOLYLINE
  5
465
100
AcDbEntity
  8
0
100
AcDbPolyline
 62
7
  6
CONTINUOUS
 90
10
 70
0
 10
75.6708612712
 20
10.1602736931
 10
75.659614639
 20
10.1650228602
 10
75.6489049108
 20
10.170144822
 10
75.6387320866
 20
10.175639578
 10
75.6290632856
 20
10.1814955277
 10
75.6199313887
 20
10.187724271
 10
75.6114350383
 20
10.1943606082
 10
75.6036071155
 20
10.2014161392
 10
75.5964147392
 20
10.2088792631
 10
75.5898579096
 20
10.2167499794
  0
LWPOLYLINE
  5
466
100
AcDbEntity
  8
0
100
AcDbPolyline
 62
7
  6
CONTINUOUS
 90
46
 70
0
 10
43.7578125
 20
34.6323041643
 10
43.7593974234
 20
34.588840471
 10
43.7638254016
 20
34.5462212886
 10
43.7710964345
 20
34.5044465271
 10
43.7812955784
 20
34.4632834089
 10
43.794337777
 20
34.4229645519
 10
43.8099678618
 20
34.3841878815
 10
43.828154981
 20
34.3467795638
 10
43.8489299864
 20
34.3109131242
 10
43.8721302648
 20
34.2778073296
 10
43.8981075281
 20
34.2476869186
 10
43.9265100644
 20
34.2203266412
 10
43.956120125
 20
34.1962701431
 10
43.9868397519
 20
34.1758039872
 10
44.0187669032
 20
34.1586411698
 10
44.0509777035
 20
34.1444650062
 10
44.0833923518
 20
34.1332477848
 10
44.1160906493
 20
34.1250169944
 10
44.1483881241
 20
34.1195388114
 10
44.18030304
 20
34.1168960705
 10
44.2118171333
 20
34.1170058702
 10
44.2421911411
 20
34.1193858208
 10
44.2712197586
 20
34.1240090068
 10
44.2991082906
 20
34.1309023908
 10
44.3257333892
 20
34.1396644155
 10
44.3510043333
 20
34.1502816596
 10
44.3750118439
 20
34.1627676509
 10
44.3979047366
 20
34.17676125
 10
44.4197481864
 20
34.1922931758
 10
44.4404770182
 20
34.2093328402
 10
44.4600445224
 20
34.2274271172
 10
44.4784925899
 20
34.2464790737
 10
44.4957793298
 20
34.2665857518
 10
44.5117323589
 20
34.287584961
 10
44.5262911939
 20
34.3094746633
 10
44.5395163181
 20
34.3322570048
 10
44.551416798
 20
34.3557760535
 10
44.5619657501
 20
34.3800512388
 10
44.571190058
 20
34.4050632295
 10
44.5791794389
 20
34.43059793
 10
44.5859174712
 20
34.4567161513
 10
44.5914205765
 20
34.4833571575
 10
44.5958277376
 20
34.5101244873
 10
44.5991852822
 20
34.5368859785
 10
44.6014468826
 20
34.5637738007
 10
44.6026125388
 20
34.5907879608
  0
LINE
  5
467
100
AcDbEntity
  8
0
100
AcDbLine
 62
7
  6
CONTINUOUS
 10
45.152344
 20
36.056132
 11
45.152344
 21
35.802714
  0
LINE
  5
468
100
AcDbEntity
  8
0
100
AcDbLine
 62
7
  6
CONTINUOUS
 10
46.54248
 20
36.056132
 11
46.54248
 21
35.8510536655
  0
LINE
  5
469
100
AcDbEntity
  8
0
100
AcDbLine
 62
7
  6
CONTINUOUS
 10
46.716797
 20
34.692363
 11
46.716797
 21
34.450664
  0
LINE
  5
46A
100
AcDbEntity
  8
0
100
AcDbLine
 62
7
  6
CONTINUOUS
 10
47.648438
 20
35.660624
 11
47.648438
 21
34.692363
  0
LINE
  5
46B
100
AcDbEntity
  8
0
100
AcDbLine
 62
7
  6
CONTINUOUS
 10
47.648438
 20
34.450664
 11
47.648438
 21
33.936503
  0
LINE
  5
46C
100
AcDbEntity
  8
0
100
AcDbLine
 62
7
  6
CONTINUOUS
 10
47.912109
 20
36.083964
 11
47.912109
 21
34.692363
  0
LINE
  5
46D
100
AcDbEntity
  8
0
100
AcDbLine
 62
7
  6
CONTINUOUS
 10
47.912109
 20
34.450664
 11
47.912109
 21
33.936503
  0
LINE
  5
46E
100
AcDbEntity
  8
0
100
AcDbLine
 62
7
  6
CONTINUOUS
 10
48.202148
 20
34.692363
 11
48.202148
 21
34.450664
  0
LINE
  5
46F
100
AcDbEntity
  8
0
100
AcDbLine
 62
7
  6
CONTINUOUS
 10
49.794434
 20
36.054667
 11
49.794434
 21
35.802714
  0
LWPOLYLINE
  5
470
100
AcDbEntity
  8
0
100
AcDbPolyline
 62
7
  6
CONTINUOUS
 90
22
 70
0
 10
76.0816049166
 20
9.8066845122
 10
76.0918205497
 20
9.7996918996
 10
76.1012403276
 20
9.7920294209
 10
76.1098642501
 20
9.7836970752
 10
76.1177669483
 20
9.7746947867
 10
76.1248737912
 20
9.7650226293
 10
76.1309608863
 20
9.7546808267
 10
76.1359926488
 20
9.7436314813
 10
76.1400046634
 20
9.7319124882
 10
76.1428797913
 20
9.7196377614
 10
76.1446231974
 20
9.7068034505
 10
76.1452297169
 20
9.6934134036
 10
76.1445667161
 20
9.6795930813
 10
76.1426801538
 20
9.6652001642
 10
76.1395240712
 20
9.6503769696
 10
76.1348279593
 20
9.6356759157
 10
76.1284814653
 20
9.6211650393
 10
76.1205949419
 20
9.6067763043
 10
76.1112289381
 20
9.5928580223
 10
76.1004036369
 20
9.5795262982
 10
76.0880988553
 20
9.5666650294
 10
76.0743145934
 20
9.5542742169
  0
LINE
  5
471
100
AcDbEntity
  8
0
100
AcDbLine
 62
7
  6
CONTINUOUS
 10
77.645113
 20
-37.003411
 11
76.699443
 21
-35.500826
  0
LINE
  5
472
100
AcDbEntity
  8
0
100
AcDbLine
 62
7
  6
CONTINUOUS
 10
77.683676
 20
-36.656132
 11
76.753636
 21
-35.153411
  0
LINE
  5
473
100
AcDbEntity
  8
0
100
AcDbLine
 62
7
  6
CONTINUOUS
 10
55.132446
 20
-25.751963
 11
55.132446
 21
-26.50278
  0
LINE
  5
474
100
AcDbEntity
  8
0
100
AcDbLine
 62
7
  6
CONTINUOUS
 10
55.132446
 20
-30.09722
 11
55.132446
 21
-30.848037
  0
LINE
  5
475
100
AcDbEntity
  8
0
100
AcDbLine
 62
7
  6
CONTINUOUS
 10
67.221686
 20
34.452309
 11
68.039673
 21
37.000074
  0
LINE
  5
476
100
AcDbEntity
  8
0
100
AcDbLine
 62
7
  6
CONTINUOUS
 10
67.591705
 20
33.299907
 11
68.77971
 21
37.000074
  0
LINE
  5
477
100
AcDbEntity
  8
0
100
AcDbLine
 62
7
  6
CONTINUOUS
 10
69.78411
 20
-37.003411
 11
69.114224
 21
-35.153411
  0
LINE
  5
478
100
AcDbEntity
  8
0
100
AcDbLine
 62
7
  6
CONTINUOUS
 10
69.511101
 20
-37.003411
 11
69.328073
 21
-36.464844
  0
LINE
  5
479
100
AcDbEntity
  8
0
100
AcDbLine
 62
7
  6
CONTINUOUS
 10
69.237801
 20
-36.243253
 11
68.962194
 21
-35.421738
  0
LWPOLYLINE
  5
47A
100
AcDbEntity
  8
0
100
AcDbPolyline
 62
7
  6
CONTINUOUS
 90
46
 70
0
 10
44.5722655429
 20
35.5375779643
 10
44.5667172467
 20
35.5615389868
 10
44.560365688
 20
35.5852745205
 10
44.5532108669
 20
35.6087845507
 10
44.5453679027
 20
35.6322000879
 10
44.5367216762
 20
35.6553900981
 10
44.5269268291
 20
35.6779614782
 10
44.5160459542
 20
35.6999456878
 10
44.5040164588
 20
35.721311201
 10
44.4903052069
 20
35.741570393
 10
44.4746841987
 20
35.7605745661
 10
44.457381434
 20
35.7784723107
 10
44.4385477758
 20
35.7952219136
 10
44.4181955731
 20
35.8109882642
 10
44.3963124769
 20
35.8256063902
 10
44.3730123025
 20
35.8385397706
 10
44.3482101321
 20
35.84974778
 10
44.3219908836
 20
35.8592709498
 10
44.2947231257
 20
35.8666944767
 10
44.2665529526
 20
35.8719763034
 10
44.2373342701
 20
35.8751584262
 10
44.2069973654
 20
35.8759521261
 10
44.1751487054
 20
35.8745689174
 10
44.1421818231
 20
35.8707972891
 10
44.1092076048
 20
35.8637140097
 10
44.0761619927
 20
35.8529572208
 10
44.0431090447
 20
35.8388889204
 10
44.0113518203
 20
35.8216717032
 10
43.9813303172
 20
35.8012361217
 10
43.9526045378
 20
35.7776518988
 10
43.9251575494
 20
35.7512903948
 10
43.8988897166
 20
35.7222439342
 10
43.8739006749
 20
35.690420551
 10
43.8504723971
 20
35.6559151716
 10
43.8285224528
 20
35.6187802017
 10
43.8081332726
 20
35.5789636975
 10
43.7898341209
 20
35.53640409
 10
43.7738008666
 20
35.4909482163
 10
43.7598576409
 20
35.442749853
 10
43.7480061021
 20
35.3922078331
 10
43.7383960158
 20
35.3393304057
 10
43.7308776164
 20
35.2841099541
 10
43.7250032664
 20
35.2269214421
 10
43.7206237532
 20
35.1678900445
 10
43.7178882894
 20
35.106891204
 10
43.716796875
 20
35.0439252581
  0
LWPOLYLINE
  5
47B
100
AcDbEntity
  8
0
100
AcDbPolyline
 62
7
  6
CONTINUOUS
 90
33
 70
0
 10
49.6055670019
 20
34.7609822431
 10
49.5987495175
 20
34.7935804146
 10
49.5899358341
 20
34.8252495744
 10
49.5791021009
 20
34.8559978825
 10
49.5662721686
 20
34.8858170157
 10
49.5512743898
 20
34.914432442
 10
49.5339766761
 20
34.9419010912
 10
49.514511116
 20
34.9681658516
 10
49.4931023271
 20
34.9927810834
 10
49.4696976624
 20
35.0157664071
 10
49.4443497689
 20
35.0371019938
 10
49.4174412064
 20
35.0562829816
 10
49.3889687428
 20
35.0732072144
 10
49.3589356101
 20
35.0879766419
 10
49.3277340637
 20
35.1003925444
 10
49.2952533732
 20
35.11034031
 10
49.261604269
 20
35.1179344123
 10
49.2275111977
 20
35.1233197772
 10
49.1929881592
 20
35.1265658784
 10
49.1580211536
 20
35.1276031936
 10
49.123292627
 20
35.1263681756
 10
49.088903824
 20
35.1229506057
 10
49.0547535
 20
35.1172607293
 10
49.0212203676
 20
35.1089657202
 10
48.9883276028
 20
35.0979533108
 10
48.9560520296
 20
35.0843359002
 10
48.9247028318
 20
35.0681176935
 10
48.8940336769
 20
35.0491813965
 10
48.8642908974
 20
35.0276445451
 10
48.8365226748
 20
35.0038635963
 10
48.811078403
 20
34.9779574585
 10
48.787608688
 20
34.9498075137
 10
48.7661135299
 20
34.919413931
  0
LWPOLYLINE
  5
47C
100
AcDbEntity
  8
0
100
AcDbPolyline
 62
7
  6
CONTINUOUS
 90
47
 70
0
 10
48.7485351367
 20
34.5224410116
 10
48.7542410217
 20
34.4875726744
 10
48.7618539797
 20
34.4532928408
 10
48.7713740107
 20
34.4196014594
 10
48.7827524077
 20
34.3861304983
 10
48.7960378777
 20
34.3532479104
 10
48.8113765415
 20
34.322057518
 10
48.8289400201
 20
34.2927205414
 10
48.8485566925
 20
34.265075463
 10
48.8698578167
 20
34.2397418559
 10
48.8928942889
 20
34.2169220503
 10
48.9176152129
 20
34.1964133858
 10
48.9434991574
 20
34.1782279202
 10
48.9704391662
 20
34.1623489612
 10
48.9985421956
 20
34.1487929703
 10
49.0276076827
 20
34.1376217561
 10
49.0578010354
 20
34.1288968508
 10
49.0889568458
 20
34.1225565811
 10
49.1203783274
 20
34.1184779712
 10
49.1520482148
 20
34.1166447467
 10
49.1839837735
 20
34.1170731426
 10
49.2155400135
 20
34.1196889725
 10
49.246611212
 20
34.1244177969
 10
49.2773030918
 20
34.1313341023
 10
49.3072878318
 20
34.1405871166
 10
49.3365776171
 20
34.1522785065
 10
49.3651602627
 20
34.1663067515
 10
49.3926713922
 20
34.1825163186
 10
49.4191052393
 20
34.2009967356
 10
49.4444675704
 20
34.2216586985
 10
49.468411309
 20
34.2440784146
 10
49.4909546991
 20
34.2681405041
 10
49.5120794967
 20
34.2939605761
 10
49.5313838928
 20
34.3214613025
 10
49.5488254022
 20
34.3507725318
 10
49.5644465103
 20
34.3817646916
 10
49.5779728641
 20
34.4139712859
 10
49.5892775424
 20
34.447523461
 10
49.5984874665
 20
34.4822902967
 10
49.6057090474
 20
34.5174120762
 10
49.6108616316
 20
34.5528308156
 10
49.6140258726
 20
34.5886045537
 10
49.6155501415
 20
34.6240474551
 10
49.6155882378
 20
34.6590468951
 10
49.613986362
 20
34.6937154151
 10
49.6106314865
 20
34.7277048283
 10
49.6055670019
 20
34.7609822431
  0
LINE
  5
47D
100
AcDbEntity
  8
0
100
AcDbLine
 62
7
  6
CONTINUOUS
 10
59.117556
 20
-27.925
 11
59.117556
 21
-28.675
  0
LINE
  5
47E
100
AcDbEntity
  8
0
100
AcDbLine
 62
7
  6
CONTINUOUS
 10
59.517556
 20
-25.7519628823
 11
59.517556
 21
-26.50278
  0
LINE
  5
47F
100
AcDbEntity
  8
0
100
AcDbLine
 62
7
  6
CONTINUOUS
 10
59.517556
 20
-30.0972169516
 11
59.517556
 21
-30.8480371177
  0
LINE
  5
480
100
AcDbEntity
  8
RACCORDO
100
AcDbLine
 62
7
  6
CONTINUOUS
 10
62.5
 20
22.2999999998
 11
62.5
 21
-22.3
  0
LINE
  5
481
100
AcDbEntity
  8
RACCORDO
100
AcDbLine
 62
7
  6
CONTINUOUS
 10
63.3
 20
-23.0
 11
63.3
 21
-34.2042896174
  0
LINE
  5
482
100
AcDbEntity
  8
RACCORDO
100
AcDbLine
 62
7
  6
CONTINUOUS
 10
63.3
 20
-34.8433730757
 11
63.3
 21
-38.9790368883
  0
LINE
  5
483
100
AcDbEntity
  8
RACCORDO
100
AcDbLine
 62
7
  6
CONTINUOUS
 10
63.3
 20
23.0
 11
63.3
 21
34.2042896174
  0
LINE
  5
484
100
AcDbEntity
  8
RACCORDO
100
AcDbLine
 62
7
  6
CONTINUOUS
 10
63.3
 20
34.8433730757
 11
63.3
 21
38.9790368883
  0
LINE
  5
485
100
AcDbEntity
  8
0
100
AcDbLine
 62
7
  6
CONTINUOUS
 10
72.562775
 20
34.590393
 11
73.253741
 21
37.000074
  0
LINE
  5
486
100
AcDbEntity
  8
0
100
AcDbLine
 62
7
  6
CONTINUOUS
 10
72.932775
 20
33.299917
 11
73.632427
 21
35.739919
  0
LINE
  5
487
100
AcDbEntity
  8
0
100
AcDbLine
 62
7
  6
CONTINUOUS
 10
74.865813
 20
33.299907
 11
76.053799
 21
37.000083
  0
LINE
  5
488
100
AcDbEntity
  8
0
100
AcDbLine
 62
7
  6
CONTINUOUS
 10
75.60584
 20
33.299917
 11
75.839468
 21
34.027577
  0
LINE
  5
489
100
AcDbEntity
  8
0
100
AcDbLine
 62
7
  6
CONTINUOUS
 10
76.065195
 20
34.730605
 11
76.423827
 21
35.847672
  0
LWPOLYLINE
  5
48A
100
AcDbEntity
  8
0
100
AcDbPolyline
 62
7
  6
CONTINUOUS
 90
10
 70
0
 10
76.3002763456
 20
9.5168619776
 10
76.3134349069
 20
9.5381418988
 10
76.3250054555
 20
9.5596380545
 10
76.3349879915
 20
9.5813504439
 10
76.3433600938
 20
9.603283864
 10
76.3501441835
 20
9.6254335162
 10
76.3554075234
 20
9.6477850058
 10
76.3591725344
 20
9.6703335341
 10
76.3614167956
 20
9.6930838983
 10
76.362140307
 20
9.7160360975
  0
LWPOLYLINE
  5
48B
100
AcDbEntity
  8
0
100
AcDbPolyline
 62
7
  6
CONTINUOUS
 90
16
 70
0
 10
76.0249402106
 20
10.3972933144
 10
76.0340134735
 20
10.3894651466
 10
76.0425930208
 20
10.3812157032
 10
76.0506788524
 20
10.3725449836
 10
76.0582938353
 20
10.3634164914
 10
76.0654151026
 20
10.3538667217
 10
76.0719740532
 20
10.3440051611
 10
76.0779420269
 20
10.3338389967
 10
76.0833476838
 20
10.3233610405
 10
76.0882084035
 20
10.3126592163
 10
76.0925084006
 20
10.3017324549
 10
76.0962634605
 20
10.2905818248
 10
76.0995383189
 20
10.2792984572
 10
76.1023545544
 20
10.2679127291
 10
76.1046905885
 20
10.256394263
 10
76.1065464211
 20
10.2447430588
  0
LWPOLYLINE
  5
48C
100
AcDbEntity
  8
0
100
AcDbPolyline
 62
7
  6
CONTINUOUS
 90
30
 70
0
 10
67.7248847607
 20
-35.6692581985
 10
67.7241446487
 20
-35.6505686288
 10
67.7226704329
 20
-35.631965035
 10
67.720613717
 20
-35.6133618421
 10
67.7178228973
 20
-35.5948446266
 10
67.7138431632
 20
-35.5766701193
 10
67.7085288118
 20
-35.5588500937
 10
67.702025546
 20
-35.5413727841
 10
67.6943156641
 20
-35.5244596187
 10
67.685347161
 20
-35.5080844191
 10
67.6751720418
 20
-35.4922733751
 10
67.6639286199
 20
-35.4773264723
 10
67.6515903976
 20
-35.4632745734
 10
67.6381838727
 20
-35.4500868313
 10
67.6239268517
 20
-35.4379706707
 10
67.6087792306
 20
-35.4269994057
 10
67.5927811135
 20
-35.4170997378
 10
67.576270619
 20
-35.408259173
 10
67.5592548807
 20
-35.400521543
 10
67.541726765
 20
-35.393843027
 10
67.5240029901
 20
-35.3880796509
 10
67.5061554905
 20
-35.3832874391
 10
67.4881123316
 20
-35.3794103731
 10
67.4699744272
 20
-35.3761364125
 10
67.4517661187
 20
-35.3734087226
 10
67.4334630647
 20
-35.37128414
 10
67.4150931543
 20
-35.3696211297
 10
67.3966656837
 20
-35.3683725133
 10
67.3781713567
 20
-35.3675854699
 10
67.3596101732
 20
-35.3672599997
  0
LINE
  5
48D
100
AcDbEntity
  8
RACCORDO
100
AcDbLine
 62
7
  6
CONTINUOUS
 10
64.1
 20
38.9790368883
 11
64.1
 21
34.8433730757
  0
LINE
  5
48E
100
AcDbEntity
  8
RACCORDO
100
AcDbLine
 62
7
  6
CONTINUOUS
 10
64.1
 20
-34.8433730757
 11
64.1
 21
-38.9790368883
  0
LINE
  5
48F
100
AcDbEntity
  8
0
100
AcDbLine
 62
7
  6
CONTINUOUS
 10
64.1
 20
-34.8433730757
 11
64.1
 21
34.8433730757
  0
LINE
  5
490
100
AcDbEntity
  8
0
100
AcDbLine
 62
7
  6
CONTINUOUS
 10
66.602081
 20
-37.003411
 11
66.602081
 21
-35.153411
  0
LINE
  5
491
100
AcDbEntity
  8
0
100
AcDbLine
 62
7
  6
CONTINUOUS
 10
66.852009
 20
-37.003411
 11
66.852009
 21
-36.222657
  0
LINE
  5
492
100
AcDbEntity
  8
0
100
AcDbLine
 62
7
  6
CONTINUOUS
 10
66.852009
 20
-36.008808
 11
66.852009
 21
-35.36726
  0
LINE
  5
493
100
AcDbEntity
  8
0
100
AcDbLine
 62
7
  6
CONTINUOUS
 10
69.27305
 20
33.299898
 11
69.273059
 21
37.000074
  0
LINE
  5
494
100
AcDbEntity
  8
0
100
AcDbLine
 62
7
  6
CONTINUOUS
 10
69.85364
 20
-35.375002
 11
69.85364
 21
-35.153411
  0
LINE
  5
495
100
AcDbEntity
  8
0
100
AcDbLine
 62
7
  6
CONTINUOUS
 10
70.013077
 20
33.299907
 11
70.013087
 21
37.000074
  0
LWPOLYLINE
  5
496
100
AcDbEntity
  8
0
100
AcDbPolyline
 62
7
  6
CONTINUOUS
 90
31
 70
0
 10
67.9823559615
 20
-35.6592352252
 10
67.9823522504
 20
-35.7169782775
 10
67.9809163269
 20
-35.7457383286
 10
67.9780674229
 20
-35.7743138998
 10
67.9738080992
 20
-35.8027806225
 10
67.9681357952
 20
-35.8310628706
 10
67.9610428278
 20
-35.858933764
 10
67.9525466214
 20
-35.8863948971
 10
67.9426297517
 20
-35.9134446894
 10
67.9312322639
 20
-35.9398515065
 10
67.9183511838
 20
-35.9656774161
 10
67.9039894857
 20
-35.9908603705
 10
67.8880961371
 20
-36.0149825715
 10
67.8705788517
 20
-36.0380081926
 10
67.8515299159
 20
-36.0599730917
 10
67.8311751569
 20
-36.0805670078
 10
67.8094654194
 20
-36.0997270441
 10
67.7864498586
 20
-36.1175161318
 10
67.7625017685
 20
-36.1338127555
 10
67.7375968705
 20
-36.1485438496
 10
67.7117594431
 20
-36.161782509
 10
67.6854356151
 20
-36.1736264574
 10
67.6587127508
 20
-36.1840588063
 10
67.6315034859
 20
-36.1930964638
 10
67.6039918558
 20
-36.2008878448
 10
67.576191736
 20
-36.2074492543
 10
67.5480892509
 20
-36.2127643985
 10
67.5198268096
 20
-36.2169327916
 10
67.4914518818
 20
-36.2199876065
 10
67.4629169976
 20
-36.2218956756
 10
67.4342221573
 20
-36.222657
  0
LINE
  5
497
100
AcDbEntity
  8
DRAFT
100
AcDbLine
 62
7
  6
CONTINUOUS
 10
83.0
 20
3.6749773271
 11
82.8951844414
 21
3.5
  0
LWPOLYLINE
  5
498
100
AcDbEntity
  8
0
100
AcDbPolyline
 62
7
  6
CONTINUOUS
 90
25
 70
0
 10
75.5898579096
 20
10.2167499794
 10
75.5846525799
 20
10.2237920704
 10
75.5800143647
 20
10.2311191901
 10
75.5759432642
 20
10.2387313382
 10
75.5724172464
 20
10.2466647673
 10
75.5694583433
 20
10.254883224
 10
75.5671326502
 20
10.2632779488
 10
75.5654673157
 20
10.2718554673
 10
75.5644351914
 20
10.2806092533
 10
75.5640209269
 20
10.28941097
 10
75.56421078
 20
10.2982642975
 10
75.565018493
 20
10.3071655556
 10
75.5664699424
 20
10.3159753676
 10
75.5685908271
 20
10.3246961492
 10
75.5713554482
 20
10.333325485
 10
75.5747125845
 20
10.3417167518
 10
75.5786947772
 20
10.349851098
 10
75.5832694851
 20
10.3577473761
 10
75.5882878636
 20
10.3653155197
 10
75.5937434323
 20
10.3725175691
 10
75.5996426716
 20
10.379391485
 10
75.6058561783
 20
10.3859610825
 10
75.6123408181
 20
10.3922343002
 10
75.6191397254
 20
10.3982032002
 10
75.6262529001
 20
10.4038677829
  0
LWPOLYLINE
  5
499
100
AcDbEntity
  8
0
100
AcDbPolyline
 62
7
  6
CONTINUOUS
 90
10
 70
0
 10
76.311296575
 20
9.8969750364
 10
76.3002140872
 20
9.9119944538
 10
76.287994875
 20
9.9263960706
 10
76.2746389384
 20
9.9401798883
 10
76.260126698
 20
9.9534163868
 10
76.2444777331
 20
9.9660350888
 10
76.2277507818
 20
9.9778245607
 10
76.2099654235
 20
9.988714326
 10
76.1911020788
 20
9.9987748646
 10
76.1711607477
 20
10.0080061779
  0
LINE
  5
49A
100
AcDbEntity
  8
DRAFT
100
AcDbLine
 62
7
  6
CONTINUOUS
 10
82.8951844414
 20
-3.5
 11
83.0
 21
-3.6749773271
  0
LWPOLYLINE
  5
49B
100
AcDbEntity
  8
0
100
AcDbPolyline
 62
7
  6
CONTINUOUS
 90
30
 70
0
 10
74.1686984204
 20
-35.6692581985
 10
74.1679583084
 20
-35.6505686288
 10
74.1664840926
 20
-35.631965035
 10
74.1644273767
 20
-35.6133618421
 10
74.1616365569
 20
-35.5948446266
 10
74.1576568229
 20
-35.5766701193
 10
74.1523424715
 20
-35.5588500937
 10
74.1458392057
 20
-35.5413727841
 10
74.1381293238
 20
-35.5244596187
 10
74.1291608207
 20
-35.5080844191
 10
74.1189857015
 20
-35.4922733751
 10
74.1077422796
 20
-35.4773264723
 10
74.0954040573
 20
-35.4632745734
 10
74.0819975324
 20
-35.4500868313
 10
74.0677405114
 20
-35.4379706707
 10
74.0525928903
 20
-35.4269994057
 10
74.0365947732
 20
-35.4170997378
 10
74.0200842786
 20
-35.408259173
 10
74.0030685404
 20
-35.400521543
 10
73.9855404247
 20
-35.393843027
 10
73.9678166497
 20
-35.3880796509
 10
73.9499691502
 20
-35.3832874391
 10
73.9319259913
 20
-35.3794103731
 10
73.9137880869
 20
-35.3761364125
 10
73.8955797784
 20
-35.3734087226
 10
73.8772767244
 20
-35.37128414
 10
73.8589068139
 20
-35.3696211297
 10
73.8404793434
 20
-35.3683725133
 10
73.8219850164
 20
-35.3675854699
 10
73.8034238329
 20
-35.3672599997
  0
LWPOLYLINE
  5
49C
100
AcDbEntity
  8
0
100
AcDbPolyline
 62
7
  6
CONTINUOUS
 90
37
 70
0
 10
71.3019928907
 20
10.0
 10
71.3041172411
 20
9.9150525339
 10
71.3104292489
 20
9.8304559108
 10
71.3209289141
 20
9.7462101392
 10
71.3357208997
 20
9.6620140832
 10
71.3547005428
 20
9.5781688927
 10
71.3775538548
 20
9.4955780165
 10
71.4043659676
 20
9.4143306552
 10
71.4350517493
 20
9.3343376489
 10
71.4690418156
 20
9.2562349255
 10
71.5062431172
 20
9.1802652692
 10
71.5467487033
 20
9.1061859495
 10
71.5902683375
 20
9.0339046276
 10
71.6364599304
 20
8.9637013286
 10
71.6856655713
 20
8.8952960735
 10
71.738621292
 20
8.8277565051
 10
71.7951941098
 20
8.7609043058
 10
71.8555170074
 20
8.6949178132
 10
71.9207249642
 20
8.6293996386
 10
71.9907438089
 20
8.5641490571
 10
72.065647713
 20
8.4993668048
 10
72.1467941699
 20
8.4352576827
 10
72.2343553882
 20
8.3715163715
 10
72.3281591595
 20
8.3084482041
 10
72.4290463519
 20
8.2471739729
 10
72.537613834
 20
8.1874088029
 10
72.6532647373
 20
8.1294376006
 10
72.7750493241
 20
8.075235856
 10
72.9030194674
 20
8.0249589416
 10
73.0371232941
 20
7.9784515419
 10
73.1762554477
 20
7.9372231363
 10
73.3205820134
 20
7.9013708627
 10
73.4699369059
 20
7.8707976398
 10
73.6227165121
 20
7.8467216276
 10
73.7783862943
 20
7.8295488934
 10
73.9374807903
 20
7.8188734069
 10
74.1
 20
7.8146951774
  0
LINE
  5
49D
100
AcDbEntity
  8
0
100
AcDbLine
 62
7
  6
CONTINUOUS
 10
70.479704
 20
-37.003411
 11
70.479704
 21
-35.375002
  0
LINE
  5
49E
100
AcDbEntity
  8
0
100
AcDbLine
 62
7
  6
CONTINUOUS
 10
70.729633
 20
-37.003411
 11
70.729633
 21
-35.375002
  0
LINE
  5
49F
100
AcDbEntity
  8
0
100
AcDbLine
 62
7
  6
CONTINUOUS
 10
70.753087
 20
33.299907
 11
70.753087
 21
37.000074
  0
LINE
  5
4A0
100
AcDbEntity
  8
0
100
AcDbLine
 62
7
  6
CONTINUOUS
 10
71.355697
 20
-35.375002
 11
71.355697
 21
-35.153411
  0
LINE
  5
4A1
100
AcDbEntity
  8
0
100
AcDbLine
 62
7
  6
CONTINUOUS
 10
71.493114
 20
33.299907
 11
71.493114
 21
35.739919
  0
LINE
  5
4A2
100
AcDbEntity
  8
0
100
AcDbLine
 62
7
  6
CONTINUOUS
 10
71.615997
 20
-37.003411
 11
71.615997
 21
-36.730256
  0
LINE
  5
4A3
100
AcDbEntity
  8
0
100
AcDbLine
 62
7
  6
CONTINUOUS
 10
71.883893
 20
-37.003411
 11
71.883893
 21
-36.730256
  0
LINE
  5
4A4
100
AcDbEntity
  8
0
100
AcDbLine
 62
7
  6
CONTINUOUS
 10
73.045894
 20
-37.003411
 11
73.045894
 21
-35.153411
  0
LINE
  5
4A5
100
AcDbEntity
  8
0
100
AcDbLine
 62
7
  6
CONTINUOUS
 10
73.295823
 20
-37.003411
 11
73.295823
 21
-36.222657
  0
LINE
  5
4A6
100
AcDbEntity
  8
0
100
AcDbLine
 62
7
  6
CONTINUOUS
 10
73.295823
 20
-36.008808
 11
73.295823
 21
-35.36726
  0
LINE
  5
4A7
100
AcDbEntity
  8
0
100
AcDbLine
 62
7
  6
CONTINUOUS
 10
73.548568
 20
11.204981
 11
73.548568
 21
10.847572
  0
LINE
  5
4A8
100
AcDbEntity
  8
0
100
AcDbLine
 62
7
  6
CONTINUOUS
 10
73.548568
 20
9.152428
 11
73.548568
 21
8.795019
  0
LINE
  5
4A9
100
AcDbEntity
  8
0
100
AcDbLine
 62
7
  6
CONTINUOUS
 10
73.632436
 20
33.299907
 11
73.632427
 21
35.739919
  0
LINE
  5
4AA
100
AcDbEntity
  8
0
100
AcDbLine
 62
7
  6
CONTINUOUS
 10
74.372464
 20
33.299907
 11
74.372464
 21
37.000074
  0
LINE
  5
4AB
100
AcDbEntity
  8
0
100
AcDbLine
 62
7
  6
CONTINUOUS
 10
74.426774
 20
11.204981
 11
74.426774
 21
10.847572
  0
LINE
  5
4AC
100
AcDbEntity
  8
0
100
AcDbLine
 62
7
  6
CONTINUOUS
 10
74.426774
 20
9.152428
 11
74.426774
 21
8.795019
  0
LINE
  5
4AD
100
AcDbEntity
  8
0
100
AcDbLine
 62
7
  6
CONTINUOUS
 10
74.76443
 20
-37.003411
 11
74.76443
 21
-35.153411
  0
LINE
  5
4AE
100
AcDbEntity
  8
0
100
AcDbLine
 62
7
  6
CONTINUOUS
 10
75.014358
 20
-36.78182
 11
75.014358
 21
-36.163498
  0
LINE
  5
4AF
100
AcDbEntity
  8
0
100
AcDbLine
 62
7
  6
CONTINUOUS
 10
75.014358
 20
-35.941907
 11
75.014358
 21
-35.375002
  0
LINE
  5
4B0
100
AcDbEntity
  8
0
100
AcDbLine
 62
7
  6
CONTINUOUS
 10
75.304981
 20
11.204981
 11
75.304981
 21
10.847572
  0
LINE
  5
4B1
100
AcDbEntity
  8
0
100
AcDbLine
 62
7
  6
CONTINUOUS
 10
75.304981
 20
9.152428
 11
75.304981
 21
8.795019
  0
LINE
  5
4B2
100
AcDbEntity
  8
0
100
AcDbLine
 62
7
  6
CONTINUOUS
 10
76.027075
 20
-36.163498
 11
76.027075
 21
-35.941907
  0
LINE
  5
4B3
100
AcDbEntity
  8
0
100
AcDbLine
 62
7
  6
CONTINUOUS
 10
76.112088
 20
-35.375002
 11
76.112088
 21
-35.153411
  0
LINE
  5
4B4
100
AcDbEntity
  8
0
100
AcDbLine
 62
7
  6
CONTINUOUS
 10
76.130055
 20
-37.003411
 11
76.130055
 21
-36.78182
  0
LWPOLYLINE
  5
4B5
100
AcDbEntity
  8
0
100
AcDbPolyline
 62
7
  6
CONTINUOUS
 90
31
 70
0
 10
74.4261696212
 20
-35.6592352252
 10
74.4261659101
 20
-35.7169782775
 10
74.4247299866
 20
-35.7457383286
 10
74.4218810825
 20
-35.7743138998
 10
74.4176217589
 20
-35.8027806225
 10
74.4119494548
 20
-35.8310628706
 10
74.4048564875
 20
-35.858933764
 10
74.396360281
 20
-35.8863948971
 10
74.3864434113
 20
-35.9134446894
 10
74.3750459236
 20
-35.9398515065
 10
74.3621648435
 20
-35.9656774161
 10
74.3478031453
 20
-35.9908603705
 10
74.3319097968
 20
-36.0149825715
 10
74.3143925114
 20
-36.0380081926
 10
74.2953435756
 20
-36.0599730917
 10
74.2749888166
 20
-36.0805670078
 10
74.253279079
 20
-36.0997270441
 10
74.2302635183
 20
-36.1175161318
 10
74.2063154282
 20
-36.1338127555
 10
74.1814105302
 20
-36.1485438496
 10
74.1555731028
 20
-36.161782509
 10
74.1292492748
 20
-36.1736264574
 10
74.1025264105
 20
-36.1840588063
 10
74.0753171456
 20
-36.1930964638
 10
74.0478055155
 20
-36.2008878448
 10
74.0200053957
 20
-36.2074492543
 10
73.9919029106
 20
-36.2127643985
 10
73.9636404693
 20
-36.2169327916
 10
73.9352655415
 20
-36.2199876065
 10
73.9067306573
 20
-36.2218956756
 10
73.878035817
 20
-36.222657
  0
LWPOLYLINE
  5
4B6
100
AcDbEntity
  8
0
100
AcDbPolyline
 62
7
  6
CONTINUOUS
 90
67
 70
0
 10
71.4858035767
 20
10.0
 10
71.4884733309
 20
10.0866185142
 10
71.4957959715
 20
10.1723251391
 10
71.5077714986
 20
10.2571198848
 10
71.5245155839
 20
10.3411691048
 10
71.5459125556
 20
10.4243064641
 10
71.5716153985
 20
10.5060329478
 10
71.601627742
 20
10.5862596506
 10
71.6359459567
 20
10.6650755139
 10
71.6742121384
 20
10.7422483036
 10
71.716303529
 20
10.8176561123
 10
71.7623428867
 20
10.8914208897
 10
71.8123405824
 20
10.9636761885
 10
71.8660272747
 20
11.0343100832
 10
71.923672305
 20
11.1034345368
 10
71.9860940681
 20
11.1715189264
 10
72.0532438259
 20
11.2387772181
 10
72.1251703165
 20
11.3049954674
 10
72.2028381495
 20
11.370001182
 10
72.2862535531
 20
11.4339842594
 10
72.3754102991
 20
11.4967548279
 10
72.4712543122
 20
11.5575707529
 10
72.5739744171
 20
11.6166516496
 10
72.6833817892
 20
11.6737779451
 10
72.7998558791
 20
11.7275487471
 10
72.9240093864
 20
11.7781419897
 10
73.0552296115
 20
11.8253798065
 10
73.1920579067
 20
11.8673276353
 10
73.3346678872
 20
11.903814107
 10
73.4828859378
 20
11.9350106755
 10
73.6347325653
 20
11.9594970334
 10
73.7908097679
 20
11.9770144321
 10
73.9505155474
 20
11.9878216787
 10
74.110064416
 20
11.9912747955
 10
74.2694363099
 20
11.9869079286
 10
74.4286512929
 20
11.9751869305
 10
74.5839840686
 20
11.9568653697
 10
74.7348075298
 20
11.9317050278
 10
74.8817487836
 20
11.8999440637
 10
75.0229638551
 20
11.8630506099
 10
75.1583016527
 20
11.8208601653
 10
75.2879132681
 20
11.7735371481
 10
75.4104080012
 20
11.7230430907
 10
75.525140468
 20
11.6695918545
 10
75.6327560524
 20
11.6129695148
 10
75.7338002062
 20
11.5544959548
 10
75.8281188358
 20
11.4943941366
 10
75.9158660348
 20
11.4324410588
 10
75.9980495358
 20
11.3692876811
 10
76.0746778793
 20
11.3051273661
 10
76.1457425248
 20
11.239766726
 10
76.2122255835
 20
11.1732766046
 10
76.2741931379
 20
11.1058655825
 10
76.3315791054
 20
11.0373250553
 10
76.3851673493
 20
10.9671000823
 10
76.4352586571
 20
10.8950249346
 10
76.4815522413
 20
10.8212652986
 10
76.5239296023
 20
10.7457633491
 10
76.5624891938
 20
10.6684087156
 10
76.5971325621
 20
10.5893117234
 10
76.6274458471
 20
10.5087455936
 10
76.6534158978
 20
10.4266177785
 10
76.6750558651
 20
10.3430207879
 10
76.6919913421
 20
10.2585054403
 10
76.7040975262
 20
10.1732553391
 10
76.71149922
 20
10.0870868623
 10
76.7141964233
 20
10.0
  0
LINE
  5
4B7
100
AcDbEntity
  8
DRAFT
100
AcDbLine
 62
7
  6
CONTINUOUS
 10
85.0
 20
3.6749773271
 11
84.8951844414
 21
3.5
  0
LINE
  5
4B8
100
AcDbEntity
  8
DRAFT
100
AcDbLine
 62
7
  6
CONTINUOUS
 10
84.8951844414
 20
-3.5
 11
85.0
 21
-3.6749773271
  0
LINE
  5
4B9
100
AcDbEntity
  8
0
100
AcDbLine
 62
7
  6
CONTINUOUS
 10
66.851649
 20
33.299898
 11
65.663653
 21
37.000074
  0
LINE
  5
4BA
100
AcDbEntity
  8
0
100
AcDbLine
 62
7
  6
CONTINUOUS
 10
67.221686
 20
34.452309
 11
66.40369
 21
37.000074
  0
LWPOLYLINE
  5
4BB
100
AcDbEntity
  8
0
100
AcDbPolyline
 62
7
  6
CONTINUOUS
 90
31
 70
0
 10
75.322885845
 20
9.7214989751
 10
75.3275273427
 20
9.697193378
 10
75.3331344768
 20
9.6731787411
 10
75.3397072474
 20
9.6494550656
 10
75.3471898131
 20
9.6259566976
 10
75.3556380152
 20
9.6027492932
 10
75.3652193778
 20
9.5800298193
 10
75.3759540783
 20
9.5577766678
 10
75.3878219393
 20
9.5360114506
 10
75.400929952
 20
9.5149959661
 10
75.4153435881
 20
9.4947043608
 10
75.430997376
 20
9.4751624932
 10
75.447801891
 20
9.4567097327
 10
75.465801331
 20
9.4393738743
 10
75.4849514981
 20
9.4231271294
 10
75.5050303746
 20
9.4082254928
 10
75.5261052422
 20
9.3947729916
 10
75.5481088192
 20
9.3826656051
 10
75.5706172427
 20
9.3718472575
 10
75.593605268
 20
9.3623779345
 10
75.6170981398
 20
9.3541976546
 10
75.6407477293
 20
9.3470703907
 10
75.6644580141
 20
9.3410017067
 10
75.6883250166
 20
9.3359860408
 10
75.7122886747
 20
9.3317706764
 10
75.7363338954
 20
9.3283287835
 10
75.7604757717
 20
9.3256871931
 10
75.7846995211
 20
9.32367368
 10
75.809000216
 20
9.322230836
 10
75.833382784
 20
9.3214160697
 10
75.857847225
 20
9.3212293811
  0
LWPOLYLINE
  5
4BC
100
AcDbEntity
  8
0
100
AcDbPolyline
 62
7
  6
CONTINUOUS
 90
37
 70
0
 10
76.8980071093
 20
10.0
 10
76.8958821241
 20
10.0849563209
 10
76.8895689229
 20
10.1695609188
 10
76.8790675055
 20
10.2538137954
 10
76.8642730906
 20
10.3380161126
 10
76.8452904595
 20
10.4218667091
 10
76.8224339566
 20
10.5044621157
 10
76.7956184857
 20
10.5857131396
 10
76.7649291429
 20
10.6657090054
 10
76.7309355613
 20
10.743813893
 10
76.6937309156
 20
10.8197849765
 10
76.6532220309
 20
10.8938651327
 10
76.6096990156
 20
10.9661471032
 10
76.5635039317
 20
11.0363510555
 10
76.5142947172
 20
11.1047568688
 10
76.4613352943
 20
11.1722968376
 10
76.4047586435
 20
11.2391492899
 10
76.3444317844
 20
11.305135915
 10
76.2792196978
 20
11.3706540323
 10
76.2091966055
 20
11.4359043502
 10
76.1342882856
 20
11.5006861672
 10
76.0531370536
 20
11.5647946851
 10
75.9655703591
 20
11.6285354321
 10
75.8717607524
 20
11.6916028916
 10
75.7708681998
 20
11.7528757146
 10
75.6622956873
 20
11.8126387081
 10
75.546640229
 20
11.8706071041
 10
75.4248528336
 20
11.9248052275
 10
75.2968817358
 20
11.9750775851
 10
75.1627787008
 20
12.0215797504
 10
75.0236500328
 20
12.0628026818
 10
74.8793294012
 20
12.098649162
 10
74.7299831365
 20
12.1292164925
 10
74.5772165345
 20
12.1532874236
 10
74.4215646937
 20
12.1704562274
 10
74.2624925155
 20
12.1811286889
 10
74.1
 20
12.1853048226
  0
LWPOLYLINE
  5
4BD
100
AcDbEntity
  8
0
100
AcDbPolyline
 62
7
  6
CONTINUOUS
 90
34
 70
0
 10
79.6001870453
 20
-36.0784107664
 10
79.5996923588
 20
-36.0476514133
 10
79.5986135943
 20
-36.016992837
 10
79.5969507517
 20
-35.9864350397
 10
79.5947746073
 20
-35.9559813514
 10
79.5920143848
 20
-35.9256284462
 10
79.5884577559
 20
-35.8953663427
 10
79.5841329552
 20
-35.8651823483
 10
79.5790117481
 20
-35.8350891591
 10
79.5727971022
 20
-35.8051148771
 10
79.5654803355
 20
-35.775175498
 10
79.5570701301
 20
-35.7453550298
 10
79.5472954998
 20
-35.7159335983
 10
79.5361339225
 20
-35.6868589808
 10
79.5236079204
 20
-35.6581834141
 10
79.5095140736
 20
-35.6303437257
 10
79.4937584667
 20
-35.6033618471
 10
79.4764350152
 20
-35.5772158756
 10
79.4576220451
 20
-35.5522769005
 10
79.4372686207
 20
-35.5285519514
 10
79.4154256779
 20
-35.5060340351
 10
79.3923243496
 20
-35.4850732169
 10
79.36795768
 20
-35.4656804953
 10
79.3423326251
 20
-35.4478449106
 10
79.3157011861
 20
-35.4318835966
 10
79.2879992533
 20
-35.4179609761
 10
79.2592909364
 20
-35.4059126616
 10
79.2300205654
 20
-35.3955625712
 10
79.2002181533
 20
-35.3869080544
 10
79.1698536871
 20
-35.3799517813
 10
79.1392814584
 20
-35.3745256462
 10
79.1086195646
 20
-35.3705736166
 10
79.0777499084
 20
-35.3681517337
 10
79.0466724897
 20
-35.3672599997
  0
LWPOLYLINE
  5
4BE
100
AcDbEntity
  8
0
100
AcDbPolyline
 62
7
  6
CONTINUOUS
 90
16
 70
0
 10
76.362140307
 20
9.7160360975
 10
76.3620085785
 20
9.72861751
 10
76.3614668677
 20
9.7411784113
 10
76.3605151745
 20
9.7537188015
 10
76.3591808006
 20
9.7662502213
 10
76.3574364443
 20
9.7787611299
 10
76.3552002004
 20
9.7912169055
 10
76.3524601848
 20
9.8036413436
 10
76.3492282816
 20
9.8160106488
 10
76.3454582376
 20
9.8282188127
 10
76.3411401143
 20
9.8402637142
 10
76.3362838503
 20
9.8521474752
 10
76.330873008
 20
9.8637704517
 10
76.3249021085
 20
9.8750994298
 10
76.3183766308
 20
9.8861676245
 10
76.311296575
 20
9.8969750364
  0
LWPOLYLINE
  5
4BF
100
AcDbEntity
  8
0
100
AcDbPolyline
 62
7
  6
CONTINUOUS
 90
31
 70
0
 10
79.8573212962
 20
-36.0784107664
 10
79.8576788743
 20
-36.1241136402
 10
79.8564350298
 20
-36.1696259793
 10
79.8535897627
 20
-36.2149477885
 10
79.8492783466
 20
-36.2601583726
 10
79.8433655079
 20
-36.305178435
 10
79.8354454253
 20
-36.3497700859
 10
79.8253058424
 20
-36.3939130507
 10
79.8131590157
 20
-36.4376276272
 10
79.7992358937
 20
-36.4807367949
 10
79.7837173643
 20
-36.523342585
 10
79.7664225395
 20
-36.5653429963
 10
79.7470397047
 20
-36.6062549768
 10
79.7255543308
 20
-36.6461377613
 10
79.7019809468
 20
-36.684932169
 10
79.6760514253
 20
-36.7219775528
 10
79.6475874368
 20
-36.7572429156
 10
79.6167673108
 20
-36.7907593348
 10
79.5838579078
 20
-36.8219593001
 10
79.5487428649
 20
-36.8507231741
 10
79.511538545
 20
-36.877170684
 10
79.4728608972
 20
-36.9010933772
 10
79.4327305949
 20
-36.9224040693
 10
79.3911269648
 20
-36.9411900182
 10
79.348603936
 20
-36.957504432
 10
79.305166393
 20
-36.9713719214
 10
79.2608094514
 20
-36.9827679231
 10
79.2160723877
 20
-36.9916718772
 10
79.171134961
 20
-36.9980769386
 10
79.1258174122
 20
-37.0019899768
 10
79.0801197414
 20
-37.0034109982
  0
LINE
  5
4C0
100
AcDbEntity
  8
RACCORDO
100
AcDbLine
 62
250
  6
CONTINUOUS
 10
82.4466235566
 20
-38.4742367328
 11
82.4195196276
 21
-32.3908244234
  0
LINE
  5
4C1
100
AcDbEntity
  8
RACCORDO
100
AcDbLine
 62
250
  6
CONTINUOUS
 10
82.7462125403
 20
-38.4466236798
 11
82.7191449837
 21
-32.3765357547
  0
LINE
  5
4C2
100
AcDbEntity
  8
RACCORDO
100
AcDbLine
 62
250
  6
CONTINUOUS
 10
82.4195196276
 20
-32.3908244234
 11
82.3970699693
 21
-26.3
  0
LINE
  5
4C3
100
AcDbEntity
  8
RACCORDO
100
AcDbLine
 62
250
  6
CONTINUOUS
 10
82.7191449837
 20
-32.3765357547
 11
82.6967212167
 21
-26.3
  0
LINE
  5
4C4
100
AcDbEntity
  8
RACCORDO
100
AcDbLine
 62
250
  6
CONTINUOUS
 10
82.3944690084
 20
-25.5
 11
82.3877320728
 21
-23.3
  0
LINE
  5
4C5
100
AcDbEntity
  8
RACCORDO
100
AcDbLine
 62
250
  6
CONTINUOUS
 10
82.6941165111
 20
-25.5
 11
82.6873698782
 21
-23.3
  0
LINE
  5
4C6
100
AcDbEntity
  8
RACCORDO
100
AcDbLine
 62
250
  6
CONTINUOUS
 10
82.3854333511
 20
-22.5
 11
82.3787688087
 21
-20.0
  0
LINE
  5
4C7
100
AcDbEntity
  8
RACCORDO
100
AcDbLine
 62
250
  6
CONTINUOUS
 10
82.6850678484
 20
-22.5
 11
82.678393717
 21
-20.0
  0
LINE
  5
4C8
100
AcDbEntity
  8
RACCORDO
100
AcDbLine
 62
250
  6
CONTINUOUS
 10
82.3659785711
 20
-14.0
 11
82.3593127493
 21
-9.4676596109
  0
LINE
  5
4C9
100
AcDbEntity
  8
RACCORDO
100
AcDbLine
 62
250
  6
CONTINUOUS
 10
82.3593127493
 20
-9.4676596109
 11
82.3552222246
 21
-4.9341484769
  0
LINE
  5
4CA
100
AcDbEntity
  8
RACCORDO
100
AcDbLine
 62
250
  6
CONTINUOUS
 10
82.3552222246
 20
-4.9341484769
 11
82.3537069969
 21
-0.4
  0
LINE
  5
4CB
100
AcDbEntity
  8
0
100
AcDbLine
 62
7
  6
CONTINUOUS
 10
76.457256
 20
-37.003411
 11
76.457256
 21
-35.153411
  0
LINE
  5
4CC
100
AcDbEntity
  8
0
100
AcDbLine
 62
7
  6
CONTINUOUS
 10
76.699443
 20
-37.003411
 11
76.699443
 21
-35.500826
  0
LINE
  5
4CD
100
AcDbEntity
  8
0
100
AcDbLine
 62
7
  6
CONTINUOUS
 10
77.683676
 20
-36.656132
 11
77.683676
 21
-35.153411
  0
LINE
  5
4CE
100
AcDbEntity
  8
0
100
AcDbLine
 62
7
  6
CONTINUOUS
 10
77.925863
 20
-37.003411
 11
77.925863
 21
-35.153411
  0
LINE
  5
4CF
100
AcDbEntity
  8
0
100
AcDbLine
 62
7
  6
CONTINUOUS
 10
78.330336
 20
-37.003411
 11
78.330336
 21
-35.153411
  0
LINE
  5
4D0
100
AcDbEntity
  8
0
100
AcDbLine
 62
7
  6
CONTINUOUS
 10
78.475218
 20
33.299917
 11
78.475218
 21
37.000083
  0
LINE
  5
4D1
100
AcDbEntity
  8
0
100
AcDbLine
 62
7
  6
CONTINUOUS
 10
78.580265
 20
-36.789562
 11
78.580265
 21
-35.36726
  0
LINE
  5
4D2
100
AcDbEntity
  8
0
100
AcDbLine
 62
7
  6
CONTINUOUS
 10
79.205052
 20
35.415142
 11
79.205043
 21
36.315556
  0
LINE
  5
4D3
100
AcDbEntity
  8
0
100
AcDbLine
 62
7
  6
CONTINUOUS
 10
80.206044
 20
-37.003411
 11
80.206044
 21
-36.730256
  0
LINE
  5
4D4
100
AcDbEntity
  8
0
100
AcDbLine
 62
7
  6
CONTINUOUS
 10
80.474086
 20
-37.003411
 11
80.474086
 21
-36.730256
  0
LINE
  5
4D5
100
AcDbEntity
  8
0
100
AcDbLine
 62
7
  6
CONTINUOUS
 10
80.8
 20
-20.0
 11
80.8
 21
-19.2
  0
LINE
  5
4D6
100
AcDbEntity
  8
0
100
AcDbLine
 62
7
  6
CONTINUOUS
 10
80.8
 20
-17.4
 11
80.8
 21
-16.6
  0
LINE
  5
4D7
100
AcDbEntity
  8
0
100
AcDbLine
 62
7
  6
CONTINUOUS
 10
80.8
 20
-14.8
 11
80.8
 21
-14.0
  0
LINE
  5
4D8
100
AcDbEntity
  8
0
100
AcDbLine
 62
7
  6
CONTINUOUS
 10
80.8
 20
14.0
 11
80.8
 21
14.8
  0
LINE
  5
4D9
100
AcDbEntity
  8
0
100
AcDbLine
 62
7
  6
CONTINUOUS
 10
80.8
 20
16.6
 11
80.8
 21
17.4
  0
LINE
  5
4DA
100
AcDbEntity
  8
0
100
AcDbLine
 62
7
  6
CONTINUOUS
 10
80.8
 20
19.2
 11
80.8
 21
20.0
  0
LINE
  5
4DB
100
AcDbEntity
  8
0
100
AcDbLine
 62
7
  6
CONTINUOUS
 10
81.6
 20
20.0
 11
81.6
 21
19.2
  0
LINE
  5
4DC
100
AcDbEntity
  8
0
100
AcDbLine
 62
7
  6
CONTINUOUS
 10
81.6
 20
17.4
 11
81.6
 21
16.6
  0
LINE
  5
4DD
100
AcDbEntity
  8
0
100
AcDbLine
 62
7
  6
CONTINUOUS
 10
81.6
 20
14.8
 11
81.6
 21
14.0
  0
LINE
  5
4DE
100
AcDbEntity
  8
0
100
AcDbLine
 62
7
  6
CONTINUOUS
 10
81.6
 20
-14.0
 11
81.6
 21
-14.8
  0
LINE
  5
4DF
100
AcDbEntity
  8
0
100
AcDbLine
 62
7
  6
CONTINUOUS
 10
81.6
 20
-16.6
 11
81.6
 21
-17.4
  0
LINE
  5
4E0
100
AcDbEntity
  8
0
100
AcDbLine
 62
7
  6
CONTINUOUS
 10
81.6
 20
-19.2
 11
81.6
 21
-20.0
  0
LINE
  5
4E1
100
AcDbEntity
  8
RACCORDO
100
AcDbLine
 62
250
  6
CONTINUOUS
 10
81.8
 20
-26.3
 11
81.8
 21
-25.5
  0
LINE
  5
4E2
100
AcDbEntity
  8
0
100
AcDbLine
 62
7
  6
CONTINUOUS
 10
82.2
 20
-19.2
 11
82.2
 21
-17.4
  0
LINE
  5
4E3
100
AcDbEntity
  8
0
100
AcDbLine
 62
7
  6
CONTINUOUS
 10
82.2
 20
-16.6
 11
82.2
 21
-14.8
  0
LINE
  5
4E4
100
AcDbEntity
  8
0
100
AcDbLine
 62
7
  6
CONTINUOUS
 10
82.2
 20
14.8
 11
82.2
 21
16.6
  0
LINE
  5
4E5
100
AcDbEntity
  8
0
100
AcDbLine
 62
7
  6
CONTINUOUS
 10
82.2
 20
17.4
 11
82.2
 21
19.2
  0
LINE
  5
4E6
100
AcDbEntity
  8
RACCORDO
100
AcDbLine
 62
250
  6
CONTINUOUS
 10
82.4466236443
 20
38.7462125047
 11
82.4466236443
 21
38.4742367328
  0
LINE
  5
4E7
100
AcDbEntity
  8
RACCORDO
100
AcDbLine
 62
250
  6
CONTINUOUS
 10
82.4466236443
 20
-38.4742367328
 11
82.4466236443
 21
-38.7462125047
  0
LINE
  5
4E8
100
AcDbEntity
  8
0
100
AcDbLine
 62
7
  6
CONTINUOUS
 10
79.215255
 20
33.299917
 11
79.215338
 21
34.730614
  0
LINE
  5
4E9
100
AcDbEntity
  8
RACCORDO
100
AcDbLine
 62
250
  6
CONTINUOUS
 10
82.353706997
 20
0.4
 11
82.3552222241
 21
4.9341483028
  0
LINE
  5
4EA
100
AcDbEntity
  8
RACCORDO
100
AcDbLine
 62
250
  6
CONTINUOUS
 10
82.3552222241
 20
4.9341483028
 11
82.3593127488
 21
9.4676594368
  0
LINE
  5
4EB
100
AcDbEntity
  8
RACCORDO
100
AcDbLine
 62
250
  6
CONTINUOUS
 10
82.3593127488
 20
9.4676594368
 11
82.3659785711
 21
14.0
  0
LINE
  5
4EC
100
AcDbEntity
  8
RACCORDO
100
AcDbLine
 62
250
  6
CONTINUOUS
 10
82.3787688086
 20
20.0
 11
82.3854333511
 21
22.4999999998
  0
LINE
  5
4ED
100
AcDbEntity
  8
RACCORDO
100
AcDbLine
 62
250
  6
CONTINUOUS
 10
82.6783937169
 20
20.0
 11
82.6850678484
 21
22.4999999998
  0
LINE
  5
4EE
100
AcDbEntity
  8
RACCORDO
100
AcDbLine
 62
250
  6
CONTINUOUS
 10
82.3877320729
 20
23.3
 11
82.3944690085
 21
25.5
  0
LINE
  5
4EF
100
AcDbEntity
  8
RACCORDO
100
AcDbLine
 62
250
  6
CONTINUOUS
 10
82.6873698783
 20
23.3
 11
82.6941165111
 21
25.5
  0
LINE
  5
4F0
100
AcDbEntity
  8
RACCORDO
100
AcDbLine
 62
250
  6
CONTINUOUS
 10
82.3970699693
 20
26.3
 11
82.4195196278
 21
32.390824515
  0
LINE
  5
4F1
100
AcDbEntity
  8
RACCORDO
100
AcDbLine
 62
250
  6
CONTINUOUS
 10
82.6967212167
 20
26.3
 11
82.7191450024
 21
32.3765404018
  0
LINE
  5
4F2
100
AcDbEntity
  8
RACCORDO
100
AcDbLine
 62
250
  6
CONTINUOUS
 10
82.4195196278
 20
32.390824515
 11
82.4466235566
 21
38.4742367328
  0
LINE
  5
4F3
100
AcDbEntity
  8
RACCORDO
100
AcDbLine
 62
250
  6
CONTINUOUS
 10
82.7191450024
 20
32.3765404018
 11
82.7462125399
 21
38.4466236795
  0
LWPOLYLINE
  5
4F4
100
AcDbEntity
  8
0
100
AcDbPolyline
 62
7
  6
CONTINUOUS
 90
67
 70
0
 10
76.7141964233
 20
10.0
 10
76.7115273247
 20
9.9133890413
 10
76.7042058213
 20
9.82768907
 10
76.6922319133
 20
9.7429001031
 10
76.675490045
 20
9.6588558077
 10
76.6540957721
 20
9.5757225477
 10
76.6283957606
 20
9.4939993915
 10
76.5983863123
 20
9.4137752432
 10
76.5640711254
 20
9.3349612428
 10
76.5258079611
 20
9.257789822
 10
76.4837194947
 20
9.1823829169
 10
76.4376830508
 20
9.1086186373
 10
76.3876883644
 20
9.0363636753
 10
76.3340048174
 20
8.9657301115
 10
76.2763630279
 20
8.8966059039
 10
76.2139445853
 20
8.8285215534
 10
76.1467982107
 20
8.7612630893
 10
76.0748751828
 20
8.6950445058
 10
75.9972109276
 20
8.6300382466
 10
75.9137992254
 20
8.5660544696
 10
75.8246462959
 20
8.503283042
 10
75.7288062236
 20
8.4424659802
 10
75.6260906169
 20
8.3833838564
 10
75.5166878676
 20
8.3262561336
 10
75.4002172348
 20
8.2724831824
 10
75.2760662988
 20
8.2218869409
 10
75.1448474794
 20
8.1746455216
 10
75.0080172953
 20
8.1326935774
 10
74.8654015237
 20
8.0962021831
 10
74.7171743875
 20
8.0650003233
 10
74.5653150738
 20
8.0405095286
 10
74.409220185
 20
8.0229887078
 10
74.2494931187
 20
8.0121789916
 10
74.089923255
 20
8.0087252407
 10
73.9305307418
 20
8.0130939528
 10
73.7712954311
 20
8.0248186294
 10
73.6159462593
 20
8.0431446275
 10
73.4651117806
 20
8.0683101529
 10
73.3181634407
 20
8.1000769596
 10
73.1769445136
 20
8.1369757253
 10
73.0416066075
 20
8.1791704931
 10
72.911998114
 20
8.2264971618
 10
72.7895074826
 20
8.2769942061
 10
72.6747797593
 20
8.3304475391
 10
72.5671698981
 20
8.3870712001
 10
72.4661312096
 20
8.4455458743
 10
72.371817337
 20
8.5056487393
 10
72.2840746372
 20
8.5676025844
 10
72.2018954923
 20
8.6307565272
 10
72.1252713995
 20
8.6949171779
 10
72.0542108616
 20
8.760277902
 10
71.9877317685
 20
8.8267679562
 10
71.9257680371
 20
8.8941787178
 10
71.8683857505
 20
8.9627187845
 10
71.8148010478
 20
9.0329432383
 10
71.7647130929
 20
9.1050179125
 10
71.718422722
 20
9.1787769311
 10
71.6760485824
 20
9.2542778045
 10
71.6374923298
 20
9.3316308001
 10
71.6028523086
 20
9.4107256021
 10
71.5725422001
 20
9.4912888479
 10
71.5465752128
 20
9.5734130257
 10
71.5249381382
 20
9.6570056013
 10
71.5080050317
 20
9.7415156886
 10
71.4959005786
 20
9.8267596512
 10
71.4885000936
 20
9.912921094
 10
71.4858035767
 20
10.0
  0
LINE
  5
4F5
100
AcDbEntity
  8
0
100
AcDbLine
 62
7
  6
CONTINUOUS
 10
68.392775
 20
-37.003411
 11
68.586028
 21
-36.464844
  0
LINE
  5
4F6
100
AcDbEntity
  8
0
100
AcDbLine
 62
7
  6
CONTINUOUS
 10
68.6633
 20
-36.243253
 11
68.962194
 21
-35.421738
  0
LINE
  5
4F7
100
AcDbEntity
  8
0
100
AcDbLine
 62
7
  6
CONTINUOUS
 10
68.135105
 20
-37.003411
 11
68.830845
 21
-35.153411
  0
LINE
  5
4F8
100
AcDbEntity
  8
0
100
AcDbLine
 62
7
  6
CONTINUOUS
 10
72.192766
 20
33.299907
 11
71.493114
 21
35.739919
  0
LINE
  5
4F9
100
AcDbEntity
  8
0
100
AcDbLine
 62
7
  6
CONTINUOUS
 10
72.562775
 20
34.590393
 11
71.871809
 21
37.000074
  0
LWPOLYLINE
  5
4FA
100
AcDbEntity
  8
0
100
AcDbPolyline
 62
7
  6
CONTINUOUS
 90
31
 70
0
 10
76.3139151018
 20
10.2736780142
 10
76.3100488254
 20
10.2959362229
 10
76.3052988375
 20
10.3179417234
 10
76.2996651382
 20
10.3396945164
 10
76.2932405319
 20
10.3612772066
 10
76.2859322141
 20
10.382607191
 10
76.2774617716
 20
10.4034366603
 10
76.2678332694
 20
10.4238370049
 10
76.2570426424
 20
10.4437368378
 10
76.244799282
 20
10.4626741857
 10
76.2309072235
 20
10.4805965407
 10
76.2155624317
 20
10.4975564172
 10
76.1990621925
 20
10.5132493779
 10
76.1813216881
 20
10.5275262131
 10
76.1624257363
 20
10.5405361396
 10
76.142926076
 20
10.5524223602
 10
76.1229067522
 20
10.5631614529
 10
76.1022837199
 20
10.5727768442
 10
76.0813565836
 20
10.5814820093
 10
76.0601623057
 20
10.5893149686
 10
76.0386639238
 20
10.5962377043
 10
76.0170501543
 20
10.6023496325
 10
75.995372646
 20
10.6076392993
 10
75.9735797501
 20
10.6121181603
 10
75.9517052373
 20
10.6159199961
 10
75.9297588523
 20
10.6190545199
 10
75.9077308504
 20
10.6215120193
 10
75.8856257676
 20
10.6233971354
 10
75.8634451159
 20
10.6247447487
 10
75.8411873834
 20
10.625519979
 10
75.81885257
 20
10.6257228263
  0
LWPOLYLINE
  5
4FB
100
AcDbEntity
  8
RACCORDO
100
AcDbPolyline
 62
250
  6
CONTINUOUS
 90
19
 70
0
 10
82.7462125047
 20
38.4466236443
 10
82.7450050535
 20
38.4726892165
 10
82.7415346473
 20
38.4985571048
 10
82.7358276059
 20
38.5240311244
 10
82.7279272123
 20
38.5489180778
 10
82.7178933837
 20
38.5730292198
 10
82.7058022177
 20
38.596181689
 10
82.691745415
 20
38.6181998948
 10
82.6758295838
 20
38.6389168487
 10
82.6581754315
 20
38.6581754315
 10
82.6389168487
 20
38.6758295838
 10
82.6181998948
 20
38.691745415
 10
82.596181689
 20
38.7058022177
 10
82.5730292198
 20
38.7178933837
 10
82.5489180778
 20
38.7279272123
 10
82.5240311244
 20
38.7358276059
 10
82.4985571048
 20
38.7415346473
 10
82.4726892165
 20
38.7450050535
 10
82.4466236443
 20
38.7462125047
  0
LINE
  5
4FC
100
AcDbEntity
  8
RACCORDO
100
AcDbLine
 62
250
  6
CONTINUOUS
 10
82.6655850846
 20
-14.0
 11
82.6589095285
 21
-9.467402254
  0
LINE
  5
4FD
100
AcDbEntity
  8
RACCORDO
100
AcDbLine
 62
250
  6
CONTINUOUS
 10
82.6589095285
 20
-9.467402254
 11
82.6548131243
 21
-4.9340689207
  0
LINE
  5
4FE
100
AcDbEntity
  8
RACCORDO
100
AcDbLine
 62
250
  6
CONTINUOUS
 10
82.6548131243
 20
-4.9340689207
 11
82.6532958717
 21
-0.4
  0
LINE
  5
4FF
100
AcDbEntity
  8
DRAFT
100
AcDbLine
 62
7
  6
CONTINUOUS
 10
82.7169979919
 20
0.4
 11
82.7169979919
 21
-0.4
  0
LINE
  5
500
100
AcDbEntity
  8
DRAFT
100
AcDbLine
 62
7
  6
CONTINUOUS
 10
82.7274795477
 20
23.3
 11
82.7274795477
 21
22.4999999998
  0
LINE
  5
501
100
AcDbEntity
  8
DRAFT
100
AcDbLine
 62
7
  6
CONTINUOUS
 10
82.7274795477
 20
-22.5
 11
82.7274795477
 21
-23.3
  0
LINE
  5
502
100
AcDbEntity
  8
DRAFT
100
AcDbLine
 62
7
  6
CONTINUOUS
 10
82.8951844414
 20
3.5
 11
82.8951844414
 21
-3.5
  0
LINE
  5
503
100
AcDbEntity
  8
DRAFT
100
AcDbLine
 62
7
  6
CONTINUOUS
 10
82.9213883311
 20
-19.2
 11
82.9213883311
 21
-17.4
  0
LINE
  5
504
100
AcDbEntity
  8
DRAFT
100
AcDbLine
 62
7
  6
CONTINUOUS
 10
82.9213883311
 20
-16.6
 11
82.9213883311
 21
-14.8
  0
LINE
  5
505
100
AcDbEntity
  8
DRAFT
100
AcDbLine
 62
7
  6
CONTINUOUS
 10
82.9213883311
 20
14.8
 11
82.9213883311
 21
16.6
  0
LINE
  5
506
100
AcDbEntity
  8
DRAFT
100
AcDbLine
 62
7
  6
CONTINUOUS
 10
82.9213883311
 20
17.4
 11
82.9213883311
 21
19.2
  0
LINE
  5
507
100
AcDbEntity
  8
RACCORDO
100
AcDbLine
 62
7
  6
CONTINUOUS
 10
83.0
 20
38.7004111396
 11
83.0
 21
26.3
  0
LINE
  5
508
100
AcDbEntity
  8
DRAFT
100
AcDbLine
 62
7
  6
CONTINUOUS
 10
83.0
 20
25.5
 11
83.0
 21
20.0
  0
LINE
  5
509
100
AcDbEntity
  8
DRAFT
100
AcDbLine
 62
7
  6
CONTINUOUS
 10
83.0
 20
19.2
 11
83.0
 21
17.4
  0
LINE
  5
50A
100
AcDbEntity
  8
DRAFT
100
AcDbLine
 62
7
  6
CONTINUOUS
 10
83.0
 20
16.6
 11
83.0
 21
14.8
  0
LINE
  5
50B
100
AcDbEntity
  8
DRAFT
100
AcDbLine
 62
7
  6
CONTINUOUS
 10
83.0
 20
14.0
 11
83.0
 21
3.6749773271
  0
LINE
  5
50C
100
AcDbEntity
  8
DRAFT
100
AcDbLine
 62
7
  6
CONTINUOUS
 10
83.0
 20
-3.6749773271
 11
83.0
 21
-14.0
  0
LINE
  5
50D
100
AcDbEntity
  8
DRAFT
100
AcDbLine
 62
7
  6
CONTINUOUS
 10
83.0
 20
-14.8
 11
83.0
 21
-16.6
  0
LINE
  5
50E
100
AcDbEntity
  8
DRAFT
100
AcDbLine
 62
7
  6
CONTINUOUS
 10
83.0
 20
-17.4
 11
83.0
 21
-19.2
  0
LINE
  5
50F
100
AcDbEntity
  8
RACCORDO
100
AcDbLine
 62
7
  6
CONTINUOUS
 10
83.0
 20
-20.0
 11
83.0
 21
-38.7004111396
  0
LINE
  5
510
100
AcDbEntity
  8
DRAFT
100
AcDbLine
 62
7
  6
CONTINUOUS
 10
84.8951844414
 20
3.5
 11
84.8951844414
 21
-3.5
  0
LINE
  5
511
100
AcDbEntity
  8
RACCORDO
100
AcDbLine
 62
7
  6
CONTINUOUS
 10
85.0
 20
-39.8016445583
 11
85.0
 21
-3.6749773271
  0
LINE
  5
512
100
AcDbEntity
  8
RACCORDO
100
AcDbLine
 62
7
  6
CONTINUOUS
 10
85.0
 20
3.6749773271
 11
85.0
 21
39.8016445583
  0
LINE
  5
513
100
AcDbEntity
  8
RACCORDO
100
AcDbLine
 62
250
  6
CONTINUOUS
 10
82.6532958718
 20
0.4
 11
82.6548131254
 21
4.9340705452
  0
LINE
  5
514
100
AcDbEntity
  8
RACCORDO
100
AcDbLine
 62
250
  6
CONTINUOUS
 10
82.6548131254
 20
4.9340705452
 11
82.6589095297
 21
9.4674038786
  0
LINE
  5
515
100
AcDbEntity
  8
RACCORDO
100
AcDbLine
 62
250
  6
CONTINUOUS
 10
82.6589095297
 20
9.4674038786
 11
82.6655850846
 21
14.0
  0
LWPOLYLINE
  5
516
100
AcDbEntity
  8
RACCORDO
100
AcDbPolyline
 62
250
  6
CONTINUOUS
 90
19
 70
0
 10
82.7462125047
 20
-38.4466236443
 10
82.7450050535
 20
-38.4726892165
 10
82.7415346473
 20
-38.4985571048
 10
82.7358276059
 20
-38.5240311244
 10
82.7279272123
 20
-38.5489180778
 10
82.7178933837
 20
-38.5730292198
 10
82.7058022177
 20
-38.596181689
 10
82.691745415
 20
-38.6181998948
 10
82.6758295838
 20
-38.6389168487
 10
82.6581754315
 20
-38.6581754315
 10
82.6389168487
 20
-38.6758295838
 10
82.6181998948
 20
-38.691745415
 10
82.596181689
 20
-38.7058022177
 10
82.5730292198
 20
-38.7178933837
 10
82.5489180778
 20
-38.7279272123
 10
82.5240311244
 20
-38.7358276059
 10
82.4985571048
 20
-38.7415346473
 10
82.4726892165
 20
-38.7450050535
 10
82.4466236443
 20
-38.7462125047
  0
LWPOLYLINE
  5
517
100
AcDbEntity
  8
RACCORDO
100
AcDbPolyline
 62
250
  6
CONTINUOUS
 90
10
 70
0
 10
82.7462125047
 20
-38.4466236443
 10
82.7438222254
 20
-38.4491752115
 10
82.7393650358
 20
-38.4514216059
 10
82.7328842034
 20
-38.4535054837
 10
82.7243540938
 20
-38.4557168663
 10
82.7137675616
 20
-38.4579967829
 10
82.7012600552
 20
-38.4599958672
 10
82.6869936706
 20
-38.4619175779
 10
82.6710061923
 20
-38.4639244506
 10
82.6533823498
 20
-38.4656330772
  0
LWPOLYLINE
  5
518
100
AcDbEntity
  8
RACCORDO
100
AcDbPolyline
 62
250
  6
CONTINUOUS
 90
14
 70
0
 10
82.7462125047
 20
38.4466236443
 10
82.7438222254
 20
38.4491752115
 10
82.7393650358
 20
38.4514216059
 10
82.7328842035
 20
38.4535054838
 10
82.724354094
 20
38.4557168663
 10
82.7137675618
 20
38.457996783
 10
82.7012600555
 20
38.4599958673
 10
82.6869936709
 20
38.461917578
 10
82.6710061927
 20
38.4639244507
 10
82.6533823502
 20
38.4656330773
 10
82.6342985576
 20
38.4671843104
 10
82.6139014452
 20
38.4687765401
 10
82.5922688948
 20
38.4700602284
 10
82.5461020645
 20
38.4722303748
  0
LINE
  5
519
100
AcDbEntity
  8
0
100
AcDbLine
 62
7
  6
CONTINUOUS
 10
80.60282
 20
33.299917
 11
79.86122
 21
34.730605
  0
LINE
  5
51A
100
AcDbEntity
  8
0
100
AcDbLine
 62
7
  6
CONTINUOUS
 10
81.436347
 20
33.299926
 11
80.6486246114
 21
34.8196016788
  0
LINE
  5
51B
100
AcDbEntity
  8
0
100
AcDbLine
 62
7
  6
CONTINUOUS
 10
77.241832
 20
33.299917
 11
77.008214
 21
34.027577
  0
LINE
  5
51C
100
AcDbEntity
  8
0
100
AcDbLine
 62
7
  6
CONTINUOUS
 10
76.782477
 20
34.730605
 11
76.423827
 21
35.847672
  0
LINE
  5
51D
100
AcDbEntity
  8
0
100
AcDbLine
 62
7
  6
CONTINUOUS
 10
77.981869
 20
33.299907
 11
76.793864
 21
37.000083
  0
ARC
  5
51E
100
AcDbEntity
  8
RACCORDO
100
AcDbCircle
 62
7
  6
CONTINUOUS
 10
-81.4
 20
-25.9
 40
0.4
100
AcDbArc
 50
270.0
 51
90.0
  0
ARC
  5
51F
100
AcDbEntity
  8
RACCORDO
100
AcDbCircle
 62
7
  6
CONTINUOUS
 10
-63.7
 20
-38.1
 40
0.4
100
AcDbArc
 50
0.0
 51
180.0
  0
ARC
  5
520
100
AcDbEntity
  8
RACCORDO
100
AcDbCircle
 62
7
  6
CONTINUOUS
 10
-31.85
 20
-38.1
 40
0.4
100
AcDbArc
 50
0.0
 51
180.0
  0
ARC
  5
521
100
AcDbEntity
  8
RACCORDO
100
AcDbCircle
 62
7
  6
CONTINUOUS
 10
-62.3
 20
-22.3
 40
0.2
100
AcDbArc
 50
180.0
 51
270.0
  0
ARC
  5
522
100
AcDbEntity
  8
0
100
AcDbCircle
 62
7
  6
CONTINUOUS
 10
-58.8
 20
32.7
 40
2.9735749324
100
AcDbArc
 50
292.0885434728
 51
273.4298223208
  0
ARC
  5
523
100
AcDbEntity
  8
0
100
AcDbCircle
 62
7
  6
CONTINUOUS
 10
-58.889938
 20
27.094428
 40
2.6508884458
100
AcDbArc
 50
47.2312789315
 51
84.2011738916
  0
ARC
  5
524
100
AcDbEntity
  8
0
100
AcDbCircle
 62
7
  6
CONTINUOUS
 10
-58.681315
 20
27.523813
 40
2.6190759282
100
AcDbArc
 50
45.4348969444
 51
67.5658550007
  0
CIRCLE
  5
525
100
AcDbEntity
  8
ASSI
100
AcDbCircle
 62
7
  6
CONTINUOUS
 10
-67.35
 20
28.0
 40
2.5
  0
CIRCLE
  5
526
100
AcDbEntity
  8
0
100
AcDbCircle
 62
7
  6
CONTINUOUS
 10
-58.8
 20
32.7
 40
2.497595
  0
ARC
  5
527
100
AcDbEntity
  8
0
100
AcDbCircle
 62
7
  6
CONTINUOUS
 10
-58.8
 20
32.7
 40
2.2337503191
100
AcDbArc
 50
299.3041411838
 51
44.9957558874
  0
ARC
  5
528
100
AcDbEntity
  8
0
100
AcDbCircle
 62
7
  6
CONTINUOUS
 10
-58.8
 20
32.7
 40
2.2337501706
100
AcDbArc
 50
134.9002628452
 51
240.6958588162
  0
ARC
  5
529
100
AcDbEntity
  8
0
100
AcDbCircle
 62
7
  6
CONTINUOUS
 10
-58.8
 20
32.7
 40
1.7896378839
100
AcDbArc
 50
299.3041347443
 51
31.9732647666
  0
ARC
  5
52A
100
AcDbEntity
  8
0
100
AcDbCircle
 62
7
  6
CONTINUOUS
 10
-58.8
 20
32.7
 40
1.78963742
100
AcDbArc
 50
148.02673736
 51
240.6958652557
  0
CIRCLE
  5
52B
100
AcDbEntity
  8
0
100
AcDbCircle
 62
7
  6
CONTINUOUS
 10
-67.35
 20
28.0
 40
1.75
  0
ARC
  5
52C
100
AcDbEntity
  8
0
100
AcDbCircle
 62
7
  6
CONTINUOUS
 10
-68.197063
 20
34.475584
 40
0.7570808671
100
AcDbArc
 50
4.8339568439
 51
69.478118785
  0
ARC
  5
52D
100
AcDbEntity
  8
0
100
AcDbCircle
 62
7
  6
CONTINUOUS
 10
-73.574166
 20
32.230903
 40
0.7108051987
100
AcDbArc
 50
186.0890518151
 51
252.6040474278
  0
ARC
  5
52E
100
AcDbEntity
  8
0
100
AcDbCircle
 62
7
  6
CONTINUOUS
 10
-69.60893
 20
34.491583
 40
0.69361
100
AcDbArc
 50
90.0000000005
 51
165.444790445
  0
ARC
  5
52F
100
AcDbEntity
  8
0
100
AcDbCircle
 62
7
  6
CONTINUOUS
 10
-72.161595
 20
32.206589
 40
0.6784123981
100
AcDbArc
 50
285.4236043232
 51
341.0052721989
  0
ARC
  5
530
100
AcDbEntity
  8
0
100
AcDbCircle
 62
7
  6
CONTINUOUS
 10
-77.000087
 20
32.201524
 40
0.6661215736
100
AcDbArc
 50
171.4768687377
 51
256.9488917316
  0
ARC
  5
531
100
AcDbEntity
  8
0
100
AcDbCircle
 62
7
  6
CONTINUOUS
 10
-71.510478
 20
34.549619
 40
0.6350000543
100
AcDbArc
 50
345.145030676
 51
90.0
  0
ARC
  5
532
100
AcDbEntity
  8
0
100
AcDbCircle
 62
7
  6
CONTINUOUS
 10
-70.336316
 20
32.133864
 40
0.5812548924
100
AcDbArc
 50
165.4447831427
 51
270.0
  0
ARC
  5
533
100
AcDbEntity
  8
0
100
AcDbCircle
 62
7
  6
CONTINUOUS
 10
-75.513125
 20
34.289864
 40
0.5494987774
100
AcDbArc
 50
69.2439221691
 51
142.7056495838
  0
ARC
  5
534
100
AcDbEntity
  8
0
100
AcDbCircle
 62
7
  6
CONTINUOUS
 10
-72.086208
 20
34.278573
 40
0.5362759459
100
AcDbArc
 50
73.6975293415
 51
149.6964851539
  0
ARC
  5
535
100
AcDbEntity
  8
0
100
AcDbCircle
 62
7
  6
CONTINUOUS
 10
-69.232904
 20
32.388414
 40
0.4943492743
100
AcDbArc
 50
176.757782331
 51
259.7449641173
  0
ARC
  5
536
100
AcDbEntity
  8
0
100
AcDbCircle
 62
7
  6
CONTINUOUS
 10
-76.10518
 20
32.375942
 40
0.4421920141
100
AcDbArc
 50
185.7437021398
 51
275.4687192982
  0
ARC
  5
537
100
AcDbEntity
  8
RACCORDO
100
AcDbCircle
 62
7
  6
CONTINUOUS
 10
-81.4
 20
25.9
 40
0.4
100
AcDbArc
 50
270.0
 51
90.0
  0
ARC
  5
538
100
AcDbEntity
  8
RACCORDO
100
AcDbCircle
 62
7
  6
CONTINUOUS
 10
-63.7
 20
38.1
 40
0.4
100
AcDbArc
 50
180.0
 51
360.0
  0
ARC
  5
539
100
AcDbEntity
  8
RACCORDO
100
AcDbCircle
 62
7
  6
CONTINUOUS
 10
-31.85
 20
38.1
 40
0.4
100
AcDbArc
 50
180.0
 51
360.0
  0
ARC
  5
53A
100
AcDbEntity
  8
RACCORDO
100
AcDbCircle
 62
7
  6
CONTINUOUS
 10
-62.3
 20
22.2999999998
 40
0.2
100
AcDbArc
 50
90.0
 51
180.0
  0
ARC
  5
53B
100
AcDbEntity
  8
0
100
AcDbCircle
 62
7
  6
CONTINUOUS
 10
59.417556
 20
-28.3
 40
2.5499986575
100
AcDbArc
 50
87.752529198
 51
272.247470802
  0
ARC
  5
53C
100
AcDbEntity
  8
0
100
AcDbCircle
 62
7
  6
CONTINUOUS
 10
55.032446
 20
-28.3
 40
2.5499985399
100
AcDbArc
 50
87.7525290943
 51
272.2474709057
  0
CIRCLE
  5
53D
100
AcDbEntity
  8
ASSI
100
AcDbCircle
 62
7
  6
CONTINUOUS
 10
67.35
 20
-28.0
 40
2.5
  0
ARC
  5
53E
100
AcDbEntity
  8
0
100
AcDbCircle
 62
7
  6
CONTINUOUS
 10
59.417556
 20
-28.3
 40
1.7999999246
100
AcDbArc
 50
86.8152613297
 51
167.9753003079
  0
ARC
  5
53F
100
AcDbEntity
  8
0
100
AcDbCircle
 62
7
  6
CONTINUOUS
 10
55.032446
 20
-28.3
 40
1.7999999246
100
AcDbArc
 50
86.8152613297
 51
273.1847386703
  0
ARC
  5
540
100
AcDbEntity
  8
0
100
AcDbCircle
 62
7
  6
CONTINUOUS
 10
59.417556
 20
-28.3
 40
1.7999968808
100
AcDbArc
 50
192.0247203293
 51
273.1847440612
  0
CIRCLE
  5
541
100
AcDbEntity
  8
0
100
AcDbCircle
 62
7
  6
CONTINUOUS
 10
67.35
 20
-28.0
 40
1.75
  0
ARC
  5
542
100
AcDbEntity
  8
RACCORDO
100
AcDbCircle
 62
7
  6
CONTINUOUS
 10
81.4
 20
-25.9
 40
0.4
100
AcDbArc
 50
90.0
 51
270.0
  0
ARC
  5
543
100
AcDbEntity
  8
RACCORDO
100
AcDbCircle
 62
7
  6
CONTINUOUS
 10
-0.0
 20
-38.1
 40
0.4
100
AcDbArc
 50
0.0
 51
180.0
  0
ARC
  5
544
100
AcDbEntity
  8
RACCORDO
100
AcDbCircle
 62
7
  6
CONTINUOUS
 10
31.85
 20
-38.1
 40
0.4
100
AcDbArc
 50
0.0
 51
180.0
  0
ARC
  5
545
100
AcDbEntity
  8
RACCORDO
100
AcDbCircle
 62
7
  6
CONTINUOUS
 10
63.7
 20
-38.1
 40
0.4
100
AcDbArc
 50
0.0
 51
180.0
  0
ARC
  5
546
100
AcDbEntity
  8
RACCORDO
100
AcDbCircle
 62
7
  6
CONTINUOUS
 10
62.3
 20
-22.3
 40
0.2
100
AcDbArc
 50
270.0
 51
360.0
  0
ARC
  5
547
100
AcDbEntity
  8
0
100
AcDbCircle
 62
7
  6
CONTINUOUS
 10
73.548568
 20
10.0
 40
1.204981
100
AcDbArc
 50
90.0
 51
270.0
  0
ARC
  5
548
100
AcDbEntity
  8
0
100
AcDbCircle
 62
7
  6
CONTINUOUS
 10
74.426774
 20
10.0
 40
1.204981
100
AcDbArc
 50
90.0
 51
270.0
  0
ARC
  5
549
100
AcDbEntity
  8
0
100
AcDbCircle
 62
7
  6
CONTINUOUS
 10
75.304981
 20
10.0
 40
1.204981
100
AcDbArc
 50
90.0
 51
270.0
  0
ARC
  5
54A
100
AcDbEntity
  8
0
100
AcDbCircle
 62
7
  6
CONTINUOUS
 10
80.208113
 20
35.865347
 40
1.1347395105
100
AcDbArc
 50
292.8428585529
 51
90.0
  0
ARC
  5
54B
100
AcDbEntity
  8
0
100
AcDbCircle
 62
7
  6
CONTINUOUS
 10
73.548568
 20
10.0
 40
0.847572
100
AcDbArc
 50
90.0
 51
270.0
  0
ARC
  5
54C
100
AcDbEntity
  8
0
100
AcDbCircle
 62
7
  6
CONTINUOUS
 10
74.426774
 20
10.0
 40
0.847572
100
AcDbArc
 50
90.0
 51
270.0
  0
ARC
  5
54D
100
AcDbEntity
  8
0
100
AcDbCircle
 62
7
  6
CONTINUOUS
 10
75.304981
 20
10.0
 40
0.847572
100
AcDbArc
 50
90.0
 51
270.0
  0
ARC
  5
54E
100
AcDbEntity
  8
0
100
AcDbCircle
 62
7
  6
CONTINUOUS
 10
80.105398
 20
35.865347
 40
0.450208
100
AcDbArc
 50
270.0
 51
90.0
  0
ARC
  5
54F
100
AcDbEntity
  8
RACCORDO
100
AcDbCircle
 62
7
  6
CONTINUOUS
 10
81.4
 20
25.9
 40
0.4
100
AcDbArc
 50
90.0
 51
270.0
  0
ARC
  5
550
100
AcDbEntity
  8
RACCORDO
100
AcDbCircle
 62
7
  6
CONTINUOUS
 10
0.0
 20
38.1
 40
0.4
100
AcDbArc
 50
180.0
 51
360.0
  0
ARC
  5
551
100
AcDbEntity
  8
RACCORDO
100
AcDbCircle
 62
7
  6
CONTINUOUS
 10
31.85
 20
38.1
 40
0.4
100
AcDbArc
 50
180.0
 51
360.0
  0
ARC
  5
552
100
AcDbEntity
  8
RACCORDO
100
AcDbCircle
 62
7
  6
CONTINUOUS
 10
63.7
 20
38.1
 40
0.4
100
AcDbArc
 50
180.0
 51
360.0
  0
ARC
  5
553
100
AcDbEntity
  8
RACCORDO
100
AcDbCircle
 62
7
  6
CONTINUOUS
 10
62.3
 20
22.2999999998
 40
0.2
100
AcDbArc
 50
0.0
 51
90.0
  0
ELLIPSE
  5
554
100
AcDbEntity
  8
RACCORDO
100
AcDbEllipse
 62
7
  6
CONTINUOUS
 10
83.7983531848
 20
-39.7983531848
 30
0.0
 11
-0.8508554921
 21
0.8508554921
 31
0.0
 40
0.9972646886
 41
2.3575640181
 42
3.9256212891
  0
ELLIPSE
  5
555
100
AcDbEntity
  8
RACCORDO
100
AcDbEllipse
 62
7
  6
CONTINUOUS
 10
83.7983531848
 20
39.7983531848
 30
0.0
 11
0.8508554921
 21
0.8508554921
 31
0.0
 40
0.9972646886
 41
-0.7840286355
 42
0.7840286355
  0
ELLIPSE
  5
556
100
AcDbEntity
  8
RACCORDO
100
AcDbEllipse
 62
7
  6
CONTINUOUS
 10
-83.7983531848
 20
-39.7983531848
 30
0.0
 11
-0.8508554921
 21
-0.8508554921
 31
0.0
 40
0.9972646886
 41
-0.7840286355
 42
0.7840286355
  0
ELLIPSE
  5
557
100
AcDbEntity
  8
RACCORDO
100
AcDbEllipse
 62
7
  6
CONTINUOUS
 10
-83.7983531848
 20
39.7983531848
 30
0.0
 11
0.8508554921
 21
-0.8508554921
 31
0.0
 40
0.9972646886
 41
2.3575640181
 42
3.9256212891
  0
ELLIPSE
  5
558
100
AcDbEntity
  8
RACCORDO
100
AcDbEllipse
 62
7
  6
CONTINUOUS
 10
-82.6995882962
 20
38.6995882962
 30
0.0
 11
-0.212713873
 21
0.212713873
 31
0.0
 40
0.9972646886
 41
-0.7840286355
 42
0.7840286355
  0
ELLIPSE
  5
559
100
AcDbEntity
  8
RACCORDO
100
AcDbEllipse
 62
7
  6
CONTINUOUS
 10
82.6995882962
 20
-38.6995882962
 30
0.0
 11
-0.212713873
 21
0.212713873
 31
0.0
 40
0.9972646886
 41
-3.9256212891
 42
-2.3575640181
  0
ELLIPSE
  5
55A
100
AcDbEntity
  8
RACCORDO
100
AcDbEllipse
 62
7
  6
CONTINUOUS
 10
82.6995882962
 20
38.6995882962
 30
0.0
 11
0.212713873
 21
0.212713873
 31
0.0
 40
0.9972646886
 41
-0.7840286355
 42
0.7840286355
  0
ELLIPSE
  5
55B
100
AcDbEntity
  8
RACCORDO
100
AcDbEllipse
 62
7
  6
CONTINUOUS
 10
-82.9790368883
 20
25.9
 30
0.0
 11
-0.0
 21
0.4
 31
0.0
 40
0.0524077793
 41
-4.7123889804
 42
-3.1415926536
  0
ELLIPSE
  5
55C
100
AcDbEntity
  8
RACCORDO
100
AcDbEllipse
 62
7
  6
CONTINUOUS
 10
-82.9790368883
 20
-25.9
 30
0.0
 11
0.0
 21
0.4
 31
0.0
 40
0.0524077793
 41
-4.7123889804
 42
-3.1415926536
  0
ELLIPSE
  5
55D
100
AcDbEntity
  8
RACCORDO
100
AcDbEllipse
 62
7
  6
CONTINUOUS
 10
82.9790368883
 20
-25.9
 30
0.0
 11
-0.0
 21
0.4
 31
0.0
 40
0.0524077793
 41
-1.5707963268
 42
0.0
  0
ELLIPSE
  5
55E
100
AcDbEntity
  8
RACCORDO
100
AcDbEllipse
 62
7
  6
CONTINUOUS
 10
-63.7
 20
-38.9790368883
 30
0.0
 11
0.4
 21
0.0
 31
0.0
 40
0.0524077793
 41
-1.5707963268
 42
-0.0
  0
ELLIPSE
  5
55F
100
AcDbEntity
  8
RACCORDO
100
AcDbEllipse
 62
7
  6
CONTINUOUS
 10
-31.85
 20
-38.9790368883
 30
0.0
 11
0.4
 21
-0.0
 31
0.0
 40
0.0524077793
 41
-1.5707963268
 42
-0.0
  0
ELLIPSE
  5
560
100
AcDbEntity
  8
RACCORDO
100
AcDbEllipse
 62
7
  6
CONTINUOUS
 10
-82.6995882962
 20
-38.6995882962
 30
0.0
 11
0.212713873
 21
0.212713873
 31
0.0
 40
0.9972646886
 41
-3.9256212891
 42
-2.3575640181
  0
ELLIPSE
  5
561
100
AcDbEntity
  8
RACCORDO
100
AcDbEllipse
 62
7
  6
CONTINUOUS
 10
-0.0
 20
-38.9790368883
 30
0.0
 11
0.4
 21
-0.0
 31
0.0
 40
0.0524077793
 41
-1.5707963268
 42
-0.0
  0
ELLIPSE
  5
562
100
AcDbEntity
  8
RACCORDO
100
AcDbEllipse
 62
7
  6
CONTINUOUS
 10
31.85
 20
-38.9790368883
 30
0.0
 11
0.4
 21
-0.0
 31
0.0
 40
0.0524077793
 41
-1.5707963268
 42
-0.0
  0
ELLIPSE
  5
563
100
AcDbEntity
  8
RACCORDO
100
AcDbEllipse
 62
7
  6
CONTINUOUS
 10
-63.7
 20
38.9790368883
 30
0.0
 11
0.4
 21
0.0
 31
0.0
 40
0.0524077793
 41
1.5707963268
 42
3.1415926536
  0
ELLIPSE
  5
564
100
AcDbEntity
  8
RACCORDO
100
AcDbEllipse
 62
7
  6
CONTINUOUS
 10
63.7
 20
-38.9790368883
 30
0.0
 11
0.4
 21
0.0
 31
0.0
 40
0.0524077793
 41
-1.5707963268
 42
-0.0
  0
ELLIPSE
  5
565
100
AcDbEntity
  8
RACCORDO
100
AcDbEllipse
 62
7
  6
CONTINUOUS
 10
-31.85
 20
38.9790368883
 30
0.0
 11
0.4
 21
-0.0
 31
0.0
 40
0.0524077793
 41
1.5707963268
 42
3.1415926536
  0
ELLIPSE
  5
566
100
AcDbEntity
  8
RACCORDO
100
AcDbEllipse
 62
7
  6
CONTINUOUS
 10
0.0
 20
38.9790368883
 30
0.0
 11
0.4
 21
0.0
 31
0.0
 40
0.0524077793
 41
1.5707963268
 42
3.1415926536
  0
ELLIPSE
  5
567
100
AcDbEntity
  8
RACCORDO
100
AcDbEllipse
 62
7
  6
CONTINUOUS
 10
31.85
 20
38.9790368883
 30
0.0
 11
0.4
 21
-0.0
 31
0.0
 40
0.0524077793
 41
1.5707963268
 42
3.1415926536
  0
ELLIPSE
  5
568
100
AcDbEntity
  8
RACCORDO
100
AcDbEllipse
 62
7
  6
CONTINUOUS
 10
63.7
 20
38.9790368883
 30
0.0
 11
0.4
 21
-0.0
 31
0.0
 40
0.0524077793
 41
1.5707963268
 42
3.1415926536
  0
ENDSEC
  0
SECTION
  2
OBJECTS
  0
DICTIONARY
  5
C
100
AcDbDictionary
280
0
281
1
  3
ACAD_GROUP
350
D
  3
ACAD_MLINESTYLE
350
17
  3
ACAD_LAYOUT
350
1A
  3
ACAD_PLOTSETTINGS
350
19
  3
ACAD_PLOTSTYLENAME
350
E
  0
DICTIONARY
  5
D
102
{ACAD_REACTORS
330
C
102
}
100
AcDbDictionary
280
0
281
1
  0
ACDBDICTIONARYWDFLT
  5
E
102
{ACAD_REACTORS
330
C
102
}
100
AcDbDictionary
281
1
  3
Normal
350
F
100
AcDbDictionaryWithDefault
340
F
  0
DICTIONARY
  5
17
102
{ACAD_REACTORS
330
C
102
}
100
AcDbDictionary
280
0
281
1
  3
Standard
350
18
  0
DICTIONARY
  5
19
102
{ACAD_REACTORS
330
C
102
}
100
AcDbDictionary
281
1
  0
DICTIONARY
  5
1A
102
{ACAD_REACTORS
330
C
102
}
100
AcDbDictionary
281
1
  3
Model
350
569
  3
Layout1
350
56A
  0
ACDBPLACEHOLDER
  5
F
102
{ACAD_REACTORS
330
E
102
}
  0
MLINESTYLE
  5
18
102
{ACAD_REACTORS
330
17
102
}
100
AcDbMlineStyle
  2
STANDARD
 70
0
  3

 62
256
 51
90.0
 52
90.0
 71
2
 49
0.5
 62
256
  6
BYLAYER
 49
-0.5
 62
256
  6
BYLAYER
  0
LAYOUT
  5
569
102
{ACAD_REACTORS
330
1A
102
}
100
AcDbPlotSettings
  1

  2
none_device
  4
ISO_A4_(297.00_x_210.00_MM)
  6

 40
0.0
 41
0.0
 42
0.0
 43
0.0
 44
297.0
 45
210.0
 46
0.0
 47
0.0
 48
0.0
 49
0.0
140
0.0
141
0.0
142
1.0
143
1.0
 70
1024
 72
1
 73
0
 74
0
  7

 75
0
147
1.0
148
0.0
149
0.0
100
AcDbLayout
  1
Model
 70
0
 71
0
 10
0.0
 20
0.0
 11
297.0
 21
210.0
 12
0.0
 22
0.0
 32
0.0
 14
0.0
 24
0.0
 34
0.0
 15
0.0
 25
0.0
 35
0.0
146
0.0
 13
0.0
 23
0.0
 33
0.0
 16
1.0
 26
0.0
 36
0.0
 17
0.0
 27
1.0
 37
0.0
 76
0
330
212
345
0
346
0
  0
LAYOUT
  5
56A
102
{ACAD_REACTORS
330
1A
102
}
100
AcDbPlotSettings
  1

  2
none_device
  4
ISO_A4_(297.00_x_210.00_MM)
  6

 40
0.0
 41
0.0
 42
0.0
 43
0.0
 44
297.0
 45
210.0
 46
0.0
 47
0.0
 48
0.0
 49
0.0
140
0.0
141
0.0
142
1.0
143
1.0
 70
0
 72
1
 73
0
 74
0
  7

 75
0
147
1.0
148
0.0
149
0.0
100
AcDbLayout
  1
Layout1
 70
0
 71
1
 10
0.0
 20
0.0
 11
297.0
 21
210.0
 12
0.0
 22
0.0
 32
0.0
 14
0.0
 24
0.0
 34
0.0
 15
0.0
 25
0.0
 35
0.0
146
0.0
 13
0.0
 23
0.0
 33
0.0
 16
1.0
 26
0.0
 36
0.0
 17
0.0
 27
1.0
 37
0.0
 76
0
330
213
345
0
346
0
  0
ENDSEC
  0
EOF
