  0
SECTION
  2
HEADER
  9
$ACADVER
  1
AC1024
  9
$DWGCODEPAGE
  3
ANSI_1252
  9
$EXTMAX
 10
297.0
 20
210.0
 30
0.0
  9
$EXTMIN
 10
0.0
 20
0.0
 30
0.0
  9
$LIMMIN
 10
0.0
 20
0.0
  9
$LIMMAX
 10
297.0
 20
210.0
  9
$VIEWCTR
 10
148.5
 20
105.0
  9
$VIEWSIZE
 40
210.0
  9
$CLAYER
  8
0
  9
$LTSCALE
 40
16.335
  9
$CELTYPE
  6
BYLAYER
  9
$DIMSCALE
 40
1.0
  9
$DIMASZ
 40
3.0
  9
$DIMEXO
 40
0.5
  9
$DIMDLI
 40
11.286
  9
$DIMEXE
 40
1.5
  9
$DIMCEN
 40
2.673
  9
$DIMLFAC
 40
1.0
  9
$DIMBLK
  1
_FILLED
  9
$DIMALT
 70
0
  9
$DIMALTF
 40
0.0393700787
  9
$DIMTXT
 40
3.0
  9
$DIMTOL
 70
1
  9
$DIMLIM
 70
0
  9
$DIMTFAC
 40
1.0
  9
$DIMTP
 40
0.01
  9
$DIMTM
 40
0.01
  9
$DIMGAP
 40
0.625
  9
$DIMDSEP
 70
44
  9
$AUNITS
 70
0
  9
$PDMODE
 70
3
  9
$PDSIZE
 40
3.0
  9
$HANDSEED
  5
5C1
  9
$TILEMODE
 70
1
  9
$MEASUREMENT
 70
1
  9
$INSUNITS
 70
4
  0
ENDSEC
  0
SECTION
  2
CLASSES
  0
CLASS
  1
ACDBDICTIONARYWDFLT
  2
AcDbDictionaryWithDefault
  3
AutoCAD 2000
 90
0
 91
1
280
0
281
0
  0
CLASS
  1
ACDBPLACEHOLDER
  2
AcDbPlaceHolder
  3
AutoCAD 2000
 90
0
 91
1
280
0
281
0
  0
CLASS
  1
LAYOUT
  2
AcDbLayout
  3
AutoCAD 2000
 90
0
 91
0
280
0
281
0
  0
ENDSEC
  0
SECTION
  2
TABLES
  0
TABLE
  2
VPORT
  5
8
100
AcDbSymbolTable
 70
2
  0
VPORT
  5
1F4
100
AcDbSymbolTableRecord
100
AcDbViewportTableRecord
  2
*ACTIVE
 70
0
 10
0.0
 20
0.0
 11
1.0
 21
1.0
 12
148.5
 22
105.0
 13
0.0
 23
0.0
 14
1.0
 24
1.0
 15
0.0
 25
0.0
 16
0.0
 26
0.0
 36
1.0
 17
0.0
 27
0.0
 37
0.0
 40
210.0
 41
1.4142857143
 42
50.0
 43
0.0
 44
0.0
 50
0.0
 51
0.0
 71
0
 72
100
 73
1
 74
1
 75
0
 76
0
 77
0
 78
0
  0
ENDTAB
  0
TABLE
  2
LTYPE
  5
5
100
AcDbSymbolTable
 70
6
  0
LTYPE
  5
14
100
AcDbSymbolTableRecord
100
AcDbLinetypeTableRecord
  2
BYBLOCK
 70
0
  3

 72
65
 73
0
 40
0.0
  0
LTYPE
  5
15
100
AcDbSymbolTableRecord
100
AcDbLinetypeTableRecord
  2
BYLAYER
 70
0
  3

 72
65
 73
0
 40
0.0
  0
LTYPE
  5
16
100
AcDbSymbolTableRecord
100
AcDbLinetypeTableRecord
  2
CONTINUOUS
 70
64
  3
Solid line
 72
65
 73
0
 40
0.0
  0
LTYPE
  5
1F5
100
AcDbSymbolTableRecord
100
AcDbLinetypeTableRecord
  2
CENTER
 70
64
  3
____ _ ____ _ ____ _ ____ _ ____ _ ____ _ ____
 72
65
 73
4
 40
0.6
 49
0.375
 74
0
 49
-0.075
 74
0
 49
0.075
 74
0
 49
-0.075
 74
0
  0
LTYPE
  5
1F6
100
AcDbSymbolTableRecord
100
AcDbLinetypeTableRecord
  2
HIDDEN
 70
64
  3
- - - - - - - - - - - - - - - - - - - -
 72
65
 73
2
 40
0.2
 49
0.1
 74
0
 49
-0.1
 74
0
  0
LTYPE
  5
1F7
100
AcDbSymbolTableRecord
100
AcDbLinetypeTableRecord
  2
PHANTOM
 70
64
  3
_____ _ _ _____ _ _ _____ _ _ _____
 72
65
 73
6
 40
0.8
 49
0.45
 74
0
 49
-0.05
 74
0
 49
0.1
 74
0
 49
-0.05
 74
0
 49
0.1
 74
0
 49
-0.05
 74
0
  0
LTYPE
  5
1F8
100
AcDbSymbolTableRecord
100
AcDbLinetypeTableRecord
  2
DOT
 70
64
  3
. . . . . . . . . . . . . . . . . . . .
 72
65
 73
2
 40
0.2
 49
0.1
 74
0
 49
-0.1
 74
0
  0
LTYPE
  5
1F9
100
AcDbSymbolTableRecord
100
AcDbLinetypeTableRecord
  2
DASHED
 70
64
  3
- - - - - - - - - - - - - - - - - - - -
 72
65
 73
2
 40
0.2
 49
0.1
 74
0
 49
-0.1
 74
0
  0
ENDTAB
  0
TABLE
  2
LAYER
  5
2
100
AcDbSymbolTable
 70
36
  0
LAYER
  5
10
100
AcDbSymbolTableRecord
100
AcDbLayerTableRecord
  2
0
 70
0
 62
7
  6
CONTINUOUS
370
-3
390
F
  0
LAYER
  5
1FA
100
AcDbSymbolTableRecord
100
AcDbLayerTableRecord
  2
DEFAULT_1
 70
0
 62
7
  6
CENTER
370
-3
390
F
  0
LAYER
  5
1FB
100
AcDbSymbolTableRecord
100
AcDbLayerTableRecord
  2
DEFAULT_2
 70
0
 62
7
  6
HIDDEN
370
-3
390
F
  0
LAYER
  5
1FC
100
AcDbSymbolTableRecord
100
AcDbLayerTableRecord
  2
DEFAULT_3
 70
0
 62
7
  6
PHANTOM
370
-3
390
F
  0
LAYER
  5
1FD
100
AcDbSymbolTableRecord
100
AcDbLayerTableRecord
  2
ASSI
 70
0
 62
7
  6
CONTINUOUS
370
-3
390
F
  0
LAYER
  5
1FE
100
AcDbSymbolTableRecord
100
AcDbLayerTableRecord
  2
COORDINATE
 70
0
 62
7
  6
CONTINUOUS
370
-3
390
F
  0
LAYER
  5
1FF
100
AcDbSymbolTableRecord
100
AcDbLayerTableRecord
  2
COORD_ORIGINE
 70
0
 62
7
  6
CONTINUOUS
370
-3
390
F
  0
LAYER
  5
200
100
AcDbSymbolTableRecord
100
AcDbLayerTableRecord
  2
COSMETICI
 70
0
 62
7
  6
CONTINUOUS
370
-3
390
F
  0
LAYER
  5
201
100
AcDbSymbolTableRecord
100
AcDbLayerTableRecord
  2
CURVE
 70
0
 62
7
  6
CONTINUOUS
370
-3
390
F
  0
LAYER
  5
202
100
AcDbSymbolTableRecord
100
AcDbLayerTableRecord
  2
DRAFT
 70
0
 62
7
  6
CONTINUOUS
370
-3
390
F
  0
LAYER
  5
203
100
AcDbSymbolTableRecord
100
AcDbLayerTableRecord
  2
IMPORT
 70
0
 62
7
  6
CONTINUOUS
370
-3
390
F
  0
LAYER
  5
204
100
AcDbSymbolTableRecord
100
AcDbLayerTableRecord
  2
INTF_1
 70
0
 62
7
  6
CONTINUOUS
370
-3
390
F
  0
LAYER
  5
205
100
AcDbSymbolTableRecord
100
AcDbLayerTableRecord
  2
NOTE
 70
0
 62
7
  6
CONTINUOUS
370
-3
390
F
  0
LAYER
  5
206
100
AcDbSymbolTableRecord
100
AcDbLayerTableRecord
  2
PIANI
 70
0
 62
7
  6
CONTINUOUS
370
-3
390
F
  0
LAYER
  5
207
100
AcDbSymbolTableRecord
100
AcDbLayerTableRecord
  2
PIANI_ORIGINE
 70
0
 62
7
  6
CONTINUOUS
370
-3
390
F
  0
LAYER
  5
208
100
AcDbSymbolTableRecord
100
AcDbLayerTableRecord
  2
PUNTI
 70
0
 62
7
  6
CONTINUOUS
370
-3
390
F
  0
LAYER
  5
209
100
AcDbSymbolTableRecord
100
AcDbLayerTableRecord
  2
RACCORDO
 70
0
 62
7
  6
CONTINUOUS
370
-3
390
F
  0
LAYER
  5
20A
100
AcDbSymbolTableRecord
100
AcDbLayerTableRecord
  2
RGB____0____0____0__
 70
0
 62
7
  6
CONTINUOUS
370
-3
390
F
  0
LAYER
  5
20B
100
AcDbSymbolTableRecord
100
AcDbLayerTableRecord
  2
SIMBOLI
 70
0
 62
7
  6
CONTINUOUS
370
-3
390
F
  0
LAYER
  5
20C
100
AcDbSymbolTableRecord
100
AcDbLayerTableRecord
  2
SNAPLINE
 70
0
 62
7
  6
CONTINUOUS
370
-3
390
F
  0
LAYER
  5
20D
100
AcDbSymbolTableRecord
100
AcDbLayerTableRecord
  2
SUPERFICI
 70
0
 62
7
  6
CONTINUOUS
370
-3
390
F
  0
LAYER
  5
20E
100
AcDbSymbolTableRecord
100
AcDbLayerTableRecord
  2
TRASH
 70
0
 62
7
  6
CONTINUOUS
370
-3
390
F
  0
LAYER
  5
20F
100
AcDbSymbolTableRecord
100
AcDbLayerTableRecord
  2
XSEC_DATUMS
 70
0
 62
7
  6
CONTINUOUS
370
-3
390
F
  0
ENDTAB
  0
TABLE
  2
STYLE
  5
3
100
AcDbSymbolTable
 70
1
  0
STYLE
  5
11
100
AcDbSymbolTableRecord
100
AcDbTextStyleTableRecord
  2
STANDARD
 70
0
 40
0.0
 41
0.8
 50
0.0
 71
0
 42
0.2
  3
txt
  4

  0
STYLE
  5
210
100
AcDbSymbolTableRecord
100
AcDbTextStyleTableRecord
  2
TEXTSTYLE_1
 70
0
 40
0.0
 41
0.8
 50
0.0
 71
0
 42
0.2
  3
gdt
  4

  0
ENDTAB
  0
TABLE
  2
VIEW
  5
6
100
AcDbSymbolTable
 70
0
  0
ENDTAB
  0
TABLE
  2
UCS
  5
7
100
AcDbSymbolTable
 70
0
  0
ENDTAB
  0
TABLE
  2
APPID
  5
9
100
AcDbSymbolTable
 70
1
  0
APPID
  5
211
100
AcDbSymbolTableRecord
100
AcDbRegAppTableRecord
  2
ACAD
 70
0
  0
ENDTAB
  0
TABLE
  2
BLOCK_RECORD
  5
1
100
AcDbSymbolTable
 70
0
  0
BLOCK_RECORD
  5
212
100
AcDbSymbolTableRecord
100
AcDbBlockTableRecord
  2
*Model_Space
  0
BLOCK_RECORD
  5
213
100
AcDbSymbolTableRecord
100
AcDbBlockTableRecord
  2
*Paper_Space
  0
BLOCK_RECORD
  5
214
100
AcDbSymbolTableRecord
100
AcDbBlockTableRecord
  2
_FILLED
  0
ENDTAB
  0
TABLE
  2
DIMSTYLE
  5
A
100
AcDbSymbolTable
 70
1
100
AcDbDimStyleTable
 71
0
  0
DIMSTYLE
105
215
100
AcDbSymbolTableRecord
100
AcDbDimStyleTableRecord
  2
STANDARD
 70
0
  3

  4

 40
1.0
 41
3.0
 42
0.5
 43
0.38
 44
1.5
 45
0.0
 46
0.0
 47
0.01
 48
0.01
140
3.0
141
0.09
142
0.0
143
25.4
144
1.0
145
0.0
146
1.0
147
0.625
 71
1
 72
0
 73
0
 74
0
 75
0
 76
0
 77
1
 78
8
 79
2
170
0
171
1
172
0
173
0
174
0
175
0
176
0
177
0
178
0
270
2
179
2
271
2
272
2
273
2
274
2
275
0
280
0
281
0
282
0
283
1
284
8
285
0
286
0
287
3
288
0
340
11
278
44
341
214
342
214
343
214
344
214
  0
ENDTAB
  0
ENDSEC
  0
SECTION
  2
BLOCKS
  0
BLOCK
  5
20
100
AcDbEntity
  8
0
100
AcDbBlockBegin
  2
*Model_Space
 70
0
 10
0.0
 20
0.0
 30
0.0
  3
*Model_Space
  1

  0
ENDBLK
  5
21
100
AcDbEntity
  8
0
100
AcDbBlockEnd
  0
BLOCK
  5
1C
100
AcDbEntity
  8
0
100
AcDbBlockBegin
  2
*Paper_Space
 70
0
 10
0.0
 20
0.0
 30
0.0
  3
*Paper_Space
  1

  0
ENDBLK
  5
1D
100
AcDbEntity
  8
0
100
AcDbBlockEnd
  0
BLOCK
  5
216
100
AcDbEntity
  8
0
100
AcDbBlockBegin
  2
_FILLED
 70
64
 10
0.0
 20
0.0
  3
_FILLED
  1

  0
SOLID
  5
217
100
AcDbEntity
  8
0
  6
BYBLOCK
 62
0
100
AcDbTrace
 10
0.0
 20
0.0
 11
-1.0
 21
0.3166666667
 12
-1.0
 22
-0.3166666667
 13
-1.0
 23
-0.3166666667
  0
ENDBLK
  5
218
100
AcDbEntity
  8
0
  6
BYBLOCK
 62
0
100
AcDbBlockEnd
  0
ENDSEC
  0
SECTION
  2
ENTITIES
  0
LWPOLYLINE
  5
219
100
AcDbEntity
  8
RACCORDO
100
AcDbPolyline
 62
250
  6
CONTINUOUS
 90
19
 70
0
 10
-95.0558182856
 20
-38.2562294251
 10
-95.0546080005
 20
-38.2823264402
 10
-95.0511293739
 20
-38.3082246899
 10
-95.0454089466
 20
-38.3337273023
 10
-95.0374903514
 20
-38.3586402856
 10
-95.0274338488
 20
-38.3827744357
 10
-95.0153157455
 20
-38.4059467248
 10
-95.0012272561
 20
-38.427982255
 10
-94.985276122
 20
-38.4487120994
 10
-94.9675865377
 20
-38.4679757089
 10
-94.9482958428
 20
-38.4856256217
 10
-94.9275495125
 20
-38.5015306592
 10
-94.905502168
 20
-38.5155729427
 10
-94.8823052325
 20
-38.5276532919
 10
-94.8581495581
 20
-38.5376697127
 10
-94.8332659686
 20
-38.5455333585
 10
-94.8078627922
 20
-38.551193913
 10
-94.7821189534
 20
-38.554626639
 10
-94.7562294251
 20
-38.5558182856
  0
LINE
  5
21A
100
AcDbEntity
  8
RACCORDO
100
AcDbLine
 62
250
  6
CONTINUOUS
 10
-95.0558183435
 20
38.2562294831
 11
-95.0292693371
 21
32.2809907594
  0
LINE
  5
21B
100
AcDbEntity
  8
RACCORDO
100
AcDbLine
 62
250
  6
CONTINUOUS
 10
-94.7562293466
 20
38.2837189313
 11
-94.7296448861
 21
32.2954225073
  0
LINE
  5
21C
100
AcDbEntity
  8
RACCORDO
100
AcDbLine
 62
250
  6
CONTINUOUS
 10
-95.0292693371
 20
32.2809907594
 11
-95.0072236315
 21
26.3
  0
LINE
  5
21D
100
AcDbEntity
  8
RACCORDO
100
AcDbLine
 62
250
  6
CONTINUOUS
 10
-94.7296448861
 20
32.2954225073
 11
-94.7075723234
 21
26.3
  0
LINE
  5
21E
100
AcDbEntity
  8
RACCORDO
100
AcDbLine
 62
250
  6
CONTINUOUS
 10
-95.0046176654
 20
25.5
 11
-94.9978677855
 21
23.3
  0
LINE
  5
21F
100
AcDbEntity
  8
RACCORDO
100
AcDbLine
 62
250
  6
CONTINUOUS
 10
-94.7049701059
 20
25.5
 11
-94.6982299331
 21
23.3
  0
LINE
  5
220
100
AcDbEntity
  8
RACCORDO
100
AcDbLine
 62
250
  6
CONTINUOUS
 10
-94.6959301047
 20
22.4999999998
 11
-94.6892623774
 21
20.0
  0
LINE
  5
221
100
AcDbEntity
  8
RACCORDO
100
AcDbLine
 62
250
  6
CONTINUOUS
 10
-94.9955646455
 20
22.4999999998
 11
-94.9888873201
 21
20.0
  0
LINE
  5
222
100
AcDbEntity
  8
RACCORDO
100
AcDbLine
 62
250
  6
CONTINUOUS
 10
-94.9760725328
 20
14.0
 11
-94.9693941314
 21
9.4677388407
  0
LINE
  5
223
100
AcDbEntity
  8
RACCORDO
100
AcDbLine
 62
250
  6
CONTINUOUS
 10
-94.6764660023
 20
14.0
 11
-94.6697970641
 21
9.4676861224
  0
LINE
  5
224
100
AcDbEntity
  8
RACCORDO
100
AcDbLine
 62
250
  6
CONTINUOUS
 10
-94.9693941314
 20
9.4677388407
 11
-94.9652957579
 21
4.9344055074
  0
LINE
  5
225
100
AcDbEntity
  8
RACCORDO
100
AcDbLine
 62
250
  6
CONTINUOUS
 10
-94.6697970641
 20
9.4676861224
 11
-94.6657045759
 21
4.9341748229
  0
LINE
  5
226
100
AcDbEntity
  8
RACCORDO
100
AcDbLine
 62
250
  6
CONTINUOUS
 10
-94.9652957579
 20
4.9344055074
 11
-94.9637774124
 21
0.4
  0
LINE
  5
227
100
AcDbEntity
  8
RACCORDO
100
AcDbLine
 62
250
  6
CONTINUOUS
 10
-94.6657045759
 20
4.9341748229
 11
-94.6641885375
 21
0.4
  0
LINE
  5
228
100
AcDbEntity
  8
RACCORDO
100
AcDbLine
 62
7
  6
CONTINUOUS
 10
-97.5
 20
-39.8016445583
 11
-97.5
 21
-3.6749773271
  0
LINE
  5
229
100
AcDbEntity
  8
RACCORDO
100
AcDbLine
 62
7
  6
CONTINUOUS
 10
-97.5
 20
3.6749773271
 11
-97.5
 21
39.8016445583
  0
LINE
  5
22A
100
AcDbEntity
  8
DRAFT
100
AcDbLine
 62
7
  6
CONTINUOUS
 10
-97.3951844414
 20
3.5
 11
-97.3951844414
 21
-3.5
  0
LINE
  5
22B
100
AcDbEntity
  8
RACCORDO
100
AcDbLine
 62
7
  6
CONTINUOUS
 10
-95.3
 20
-38.5004111396
 11
-95.3
 21
-20.0
  0
LINE
  5
22C
100
AcDbEntity
  8
DRAFT
100
AcDbLine
 62
7
  6
CONTINUOUS
 10
-95.3
 20
-19.2
 11
-95.3
 21
-17.4
  0
LINE
  5
22D
100
AcDbEntity
  8
DRAFT
100
AcDbLine
 62
7
  6
CONTINUOUS
 10
-95.3
 20
-16.6
 11
-95.3
 21
-14.8
  0
LINE
  5
22E
100
AcDbEntity
  8
DRAFT
100
AcDbLine
 62
7
  6
CONTINUOUS
 10
-95.3
 20
-14.0
 11
-95.3
 21
-3.6749773271
  0
LINE
  5
22F
100
AcDbEntity
  8
DRAFT
100
AcDbLine
 62
7
  6
CONTINUOUS
 10
-95.3
 20
3.6749773271
 11
-95.3
 21
14.0
  0
LINE
  5
230
100
AcDbEntity
  8
DRAFT
100
AcDbLine
 62
7
  6
CONTINUOUS
 10
-95.3
 20
14.8
 11
-95.3
 21
16.6
  0
LINE
  5
231
100
AcDbEntity
  8
DRAFT
100
AcDbLine
 62
7
  6
CONTINUOUS
 10
-95.3
 20
17.4
 11
-95.3
 21
19.2
  0
LINE
  5
232
100
AcDbEntity
  8
RACCORDO
100
AcDbLine
 62
7
  6
CONTINUOUS
 10
-95.3
 20
20.0
 11
-95.3
 21
38.5004111396
  0
LINE
  5
233
100
AcDbEntity
  8
DRAFT
100
AcDbLine
 62
7
  6
CONTINUOUS
 10
-95.2371106649
 20
-19.2
 11
-95.2371106649
 21
-17.4
  0
LINE
  5
234
100
AcDbEntity
  8
DRAFT
100
AcDbLine
 62
7
  6
CONTINUOUS
 10
-95.2371106649
 20
-16.6
 11
-95.2371106649
 21
-14.8
  0
LINE
  5
235
100
AcDbEntity
  8
DRAFT
100
AcDbLine
 62
7
  6
CONTINUOUS
 10
-95.2371106649
 20
14.8
 11
-95.2371106649
 21
16.6
  0
LINE
  5
236
100
AcDbEntity
  8
DRAFT
100
AcDbLine
 62
7
  6
CONTINUOUS
 10
-95.2371106649
 20
17.4
 11
-95.2371106649
 21
19.2
  0
LINE
  5
237
100
AcDbEntity
  8
DRAFT
100
AcDbLine
 62
7
  6
CONTINUOUS
 10
-95.1951844414
 20
3.5
 11
-95.1951844414
 21
-3.5
  0
LINE
  5
238
100
AcDbEntity
  8
DRAFT
100
AcDbLine
 62
7
  6
CONTINUOUS
 10
-95.0536834374
 20
23.3
 11
-95.0536834374
 21
22.4999999998
  0
LINE
  5
239
100
AcDbEntity
  8
DRAFT
100
AcDbLine
 62
7
  6
CONTINUOUS
 10
-95.0536834374
 20
0.4
 11
-95.0536834374
 21
-0.4
  0
LINE
  5
23A
100
AcDbEntity
  8
DRAFT
100
AcDbLine
 62
7
  6
CONTINUOUS
 10
-95.0536834374
 20
-22.5
 11
-95.0536834374
 21
-23.3
  0
LINE
  5
23B
100
AcDbEntity
  8
RACCORDO
100
AcDbLine
 62
250
  6
CONTINUOUS
 10
-94.7562294251
 20
-38.5558182856
 11
-94.7562294251
 21
-38.2837189313
  0
LINE
  5
23C
100
AcDbEntity
  8
RACCORDO
100
AcDbLine
 62
250
  6
CONTINUOUS
 10
-94.7562294251
 20
38.2837189313
 11
-94.7562294251
 21
38.5558182856
  0
LINE
  5
23D
100
AcDbEntity
  8
0
100
AcDbLine
 62
7
  6
CONTINUOUS
 10
-94.5
 20
-19.2
 11
-94.5
 21
-17.4
  0
LINE
  5
23E
100
AcDbEntity
  8
0
100
AcDbLine
 62
7
  6
CONTINUOUS
 10
-94.5
 20
-16.6
 11
-94.5
 21
-14.8
  0
LINE
  5
23F
100
AcDbEntity
  8
0
100
AcDbLine
 62
7
  6
CONTINUOUS
 10
-94.5
 20
14.8
 11
-94.5
 21
16.6
  0
LINE
  5
240
100
AcDbEntity
  8
0
100
AcDbLine
 62
7
  6
CONTINUOUS
 10
-94.5
 20
17.4
 11
-94.5
 21
19.2
  0
LINE
  5
241
100
AcDbEntity
  8
RACCORDO
100
AcDbLine
 62
250
  6
CONTINUOUS
 10
-94.0
 20
-25.5
 11
-94.0
 21
-26.3
  0
LINE
  5
242
100
AcDbEntity
  8
0
100
AcDbLine
 62
7
  6
CONTINUOUS
 10
-93.75
 20
20.0
 11
-93.75
 21
19.2
  0
LINE
  5
243
100
AcDbEntity
  8
0
100
AcDbLine
 62
7
  6
CONTINUOUS
 10
-93.75
 20
17.4
 11
-93.75
 21
16.6
  0
LINE
  5
244
100
AcDbEntity
  8
0
100
AcDbLine
 62
7
  6
CONTINUOUS
 10
-93.75
 20
14.8
 11
-93.75
 21
14.0
  0
LINE
  5
245
100
AcDbEntity
  8
0
100
AcDbLine
 62
7
  6
CONTINUOUS
 10
-93.75
 20
-14.0
 11
-93.75
 21
-14.8
  0
LINE
  5
246
100
AcDbEntity
  8
0
100
AcDbLine
 62
7
  6
CONTINUOUS
 10
-93.75
 20
-16.6
 11
-93.75
 21
-17.4
  0
LINE
  5
247
100
AcDbEntity
  8
0
100
AcDbLine
 62
7
  6
CONTINUOUS
 10
-93.75
 20
-19.2
 11
-93.75
 21
-20.0
  0
LINE
  5
248
100
AcDbEntity
  8
0
100
AcDbLine
 62
7
  6
CONTINUOUS
 10
-93.1
 20
-20.0
 11
-93.1
 21
-19.2
  0
LINE
  5
249
100
AcDbEntity
  8
0
100
AcDbLine
 62
7
  6
CONTINUOUS
 10
-93.1
 20
-17.4
 11
-93.1
 21
-16.6
  0
LINE
  5
24A
100
AcDbEntity
  8
0
100
AcDbLine
 62
7
  6
CONTINUOUS
 10
-93.1
 20
-14.8
 11
-93.1
 21
-14.0
  0
LINE
  5
24B
100
AcDbEntity
  8
0
100
AcDbLine
 62
7
  6
CONTINUOUS
 10
-93.1
 20
14.0
 11
-93.1
 21
14.8
  0
LINE
  5
24C
100
AcDbEntity
  8
0
100
AcDbLine
 62
7
  6
CONTINUOUS
 10
-93.1
 20
16.6
 11
-93.1
 21
17.4
  0
LINE
  5
24D
100
AcDbEntity
  8
0
100
AcDbLine
 62
7
  6
CONTINUOUS
 10
-93.1
 20
19.2
 11
-93.1
 21
20.0
  0
LINE
  5
24E
100
AcDbEntity
  8
RACCORDO
100
AcDbLine
 62
250
  6
CONTINUOUS
 10
-94.9637774122
 20
-0.4
 11
-94.9652957525
 21
-4.9343994908
  0
LINE
  5
24F
100
AcDbEntity
  8
RACCORDO
100
AcDbLine
 62
250
  6
CONTINUOUS
 10
-94.6641885374
 20
-0.4
 11
-94.6657045752
 21
-4.9341740622
  0
LINE
  5
250
100
AcDbEntity
  8
RACCORDO
100
AcDbLine
 62
250
  6
CONTINUOUS
 10
-94.9652957525
 20
-4.9343994908
 11
-94.969394126
 21
-9.4677328241
  0
LINE
  5
251
100
AcDbEntity
  8
RACCORDO
100
AcDbLine
 62
250
  6
CONTINUOUS
 10
-94.6657045752
 20
-4.9341740622
 11
-94.6697970635
 21
-9.4676853618
  0
LINE
  5
252
100
AcDbEntity
  8
RACCORDO
100
AcDbLine
 62
250
  6
CONTINUOUS
 10
-94.969394126
 20
-9.4677328241
 11
-94.9760725327
 21
-14.0
  0
LINE
  5
253
100
AcDbEntity
  8
RACCORDO
100
AcDbLine
 62
250
  6
CONTINUOUS
 10
-94.6697970635
 20
-9.4676853618
 11
-94.6764660023
 21
-14.0
  0
LINE
  5
254
100
AcDbEntity
  8
RACCORDO
100
AcDbLine
 62
250
  6
CONTINUOUS
 10
-94.9888873202
 20
-20.0
 11
-94.9955646457
 21
-22.5
  0
LINE
  5
255
100
AcDbEntity
  8
RACCORDO
100
AcDbLine
 62
250
  6
CONTINUOUS
 10
-94.6892623775
 20
-20.0
 11
-94.6959301049
 21
-22.5
  0
LINE
  5
256
100
AcDbEntity
  8
RACCORDO
100
AcDbLine
 62
250
  6
CONTINUOUS
 10
-94.9978677855
 20
-23.3
 11
-95.004617665
 21
-25.5
  0
LINE
  5
257
100
AcDbEntity
  8
RACCORDO
100
AcDbLine
 62
250
  6
CONTINUOUS
 10
-94.6982299331
 20
-23.3
 11
-94.7049701056
 21
-25.5
  0
LINE
  5
258
100
AcDbEntity
  8
RACCORDO
100
AcDbLine
 62
250
  6
CONTINUOUS
 10
-95.0072236308
 20
-26.3
 11
-95.0292693507
 21
-32.2809940768
  0
LINE
  5
259
100
AcDbEntity
  8
RACCORDO
100
AcDbLine
 62
250
  6
CONTINUOUS
 10
-94.7075723228
 20
-26.3
 11
-94.7296448862
 21
-32.2954225026
  0
LWPOLYLINE
  5
25A
100
AcDbEntity
  8
RACCORDO
100
AcDbPolyline
 62
250
  6
CONTINUOUS
 90
3
 70
0
 10
-94.0
 20
25.5
 10
-94.0000243516
 20
26.2987033484
 10
-94.0
 20
26.3
  0
LINE
  5
25B
100
AcDbEntity
  8
RACCORDO
100
AcDbLine
 62
250
  6
CONTINUOUS
 10
-95.0292693507
 20
-32.2809940768
 11
-95.0558183433
 21
-38.2562294829
  0
LINE
  5
25C
100
AcDbEntity
  8
RACCORDO
100
AcDbLine
 62
250
  6
CONTINUOUS
 10
-94.7296448862
 20
-32.2954225026
 11
-94.7562293466
 21
-38.2837189313
  0
LWPOLYLINE
  5
25D
100
AcDbEntity
  8
RACCORDO
100
AcDbPolyline
 62
250
  6
CONTINUOUS
 90
19
 70
0
 10
-95.0558182856
 20
38.2562294251
 10
-95.0546287499
 20
38.2820953521
 10
-95.0512010814
 20
38.3078224374
 10
-95.0455468196
 20
38.3332158778
 10
-95.0376882678
 20
38.3580986404
 10
-95.0276744732
 20
38.3822598318
 10
-95.0155959454
 20
38.4054623231
 10
-95.0015561024
 20
38.4275131493
 10
-94.9856530841
 20
38.4482630702
 10
-94.9680040996
 20
38.4675580913
 10
-94.9487397016
 20
38.4852529011
 10
-94.928007627
 20
38.5012094321
 10
-94.9059691061
 20
38.5153027701
 10
-94.8827932485
 20
38.5274250296
 10
-94.8586549446
 20
38.5374849787
 10
-94.8337378241
 20
38.5454060999
 10
-94.8082313977
 20
38.5511281733
 10
-94.7823296085
 20
38.5546077148
 10
-94.7562294251
 20
38.5558182856
  0
LINE
  5
25E
100
AcDbEntity
  8
0
100
AcDbLine
 62
7
  6
CONTINUOUS
 10
-89.53372
 20
36.800216
 11
-89.814631
 21
35.718318
  0
LINE
  5
25F
100
AcDbEntity
  8
0
100
AcDbLine
 62
7
  6
CONTINUOUS
 10
-90.005133
 20
34.984619
 11
-90.948172
 21
31.352609
  0
LINE
  5
260
100
AcDbEntity
  8
0
100
AcDbLine
 62
7
  6
CONTINUOUS
 10
-89.4600046851
 20
34.5992132127
 11
-90.108852
 21
32.100249
  0
LINE
  5
261
100
AcDbEntity
  8
0
100
AcDbLine
 62
7
  6
CONTINUOUS
 10
-88.4002695372
 20
34.4228107826
 11
-88.995152
 21
32.131688
  0
LINE
  5
262
100
AcDbEntity
  8
0
100
AcDbLine
 62
7
  6
CONTINUOUS
 10
-87.768388
 20
34.603699
 11
-88.5130380838
 21
31.7357626772
  0
LINE
  5
263
100
AcDbEntity
  8
0
100
AcDbLine
 62
7
  6
CONTINUOUS
 10
-86.063836
 20
36.800216
 11
-87.478287
 21
31.352609
  0
LINE
  5
264
100
AcDbEntity
  8
0
100
AcDbLine
 62
7
  6
CONTINUOUS
 10
-86.0304632866
 20
34.6533968961
 11
-86.730961
 21
31.955505
  0
LINE
  5
265
100
AcDbEntity
  8
0
100
AcDbLine
 62
7
  6
CONTINUOUS
 10
-84.9992096667
 20
34.3491674323
 11
-85.366362
 21
32.935118
  0
LINE
  5
266
100
AcDbEntity
  8
0
100
AcDbLine
 62
7
  6
CONTINUOUS
 10
-91.299149
 20
34.422809
 11
-92.107325
 21
31.352609
  0
LINE
  5
267
100
AcDbEntity
  8
0
100
AcDbLine
 62
7
  6
CONTINUOUS
 10
-90.803333
 20
36.249
 11
-91.088624
 21
35.165201
  0
LINE
  5
268
100
AcDbEntity
  8
0
100
AcDbLine
 62
7
  6
CONTINUOUS
 10
-87.30167
 20
36.262797
 11
-87.648525
 21
34.984619
  0
LWPOLYLINE
  5
269
100
AcDbEntity
  8
0
100
AcDbPolyline
 62
7
  6
CONTINUOUS
 90
29
 70
0
 10
-89.4600046851
 20
34.5992132127
 10
-89.4458944894
 20
34.6276417453
 10
-89.4304242535
 20
34.655197488
 10
-89.4135939772
 20
34.681880455
 10
-89.3953531317
 20
34.7077866234
 10
-89.375752246
 20
34.7328200425
 10
-89.354942907
 20
34.7566928389
 10
-89.3329125108
 20
34.7793951285
 10
-89.3096736613
 20
34.800936828
 10
-89.2854157573
 20
34.8210597717
 10
-89.2601155583
 20
34.8396644627
 10
-89.2337963048
 20
34.8568504317
 10
-89.2067171172
 20
34.8726580567
 10
-89.1788864781
 20
34.8870407412
 10
-89.1502959049
 20
34.900045107
 10
-89.1211790704
 20
34.9118513556
 10
-89.0915366479
 20
34.9224664124
 10
-89.0613679642
 20
34.9318833681
 10
-89.030904672
 20
34.9402616682
 10
-89.000139249
 20
34.9475840364
 10
-88.9690792175
 20
34.9538677589
 10
-88.9379787972
 20
34.9593241219
 10
-88.906880262
 20
34.9639353896
 10
-88.875741338
 20
34.9677193029
 10
-88.8446894225
 20
34.9709403607
 10
-88.8137824507
 20
34.9735999536
 10
-88.7829624873
 20
34.975696693
 10
-88.7521831241
 20
34.9774909078
 10
-88.7214526779
 20
34.9789880727
  0
LWPOLYLINE
  5
26A
100
AcDbEntity
  8
0
100
AcDbPolyline
 62
7
  6
CONTINUOUS
 90
31
 70
0
 10
-86.0304632866
 20
34.6533968961
 10
-86.0198132928
 20
34.6741666129
 10
-86.0081041864
 20
34.6941804049
 10
-85.9953359672
 20
34.7134382811
 10
-85.9814461134
 20
34.7319735781
 10
-85.9664971469
 20
34.7497529761
 10
-85.9506766334
 20
34.7666765002
 10
-85.9339576577
 20
34.7827063211
 10
-85.9163671351
 20
34.7978802853
 10
-85.8981733771
 20
34.812211931
 10
-85.8794450253
 20
34.8256579496
 10
-85.8601134381
 20
34.8382616641
 10
-85.8402410032
 20
34.8501665587
 10
-85.8198338645
 20
34.8613580795
 10
-85.798885878
 20
34.8718507903
 10
-85.7774409992
 20
34.8818318493
 10
-85.7555199828
 20
34.8913476117
 10
-85.7331020742
 20
34.9003517282
 10
-85.7101689647
 20
34.9088922974
 10
-85.6867318239
 20
34.9169504809
 10
-85.6627794823
 20
34.9245451218
 10
-85.6382601229
 20
34.9317808414
 10
-85.6131924214
 20
34.9386610617
 10
-85.587557702
 20
34.9451823637
 10
-85.5612481206
 20
34.9514391049
 10
-85.5342617633
 20
34.957425462
 10
-85.506600544
 20
34.9631472603
 10
-85.4781623599
 20
34.9687163299
 10
-85.4489131768
 20
34.9741699476
 10
-85.418887029
 20
34.9794708374
 10
-85.3880839164
 20
34.984619
  0
LWPOLYLINE
  5
26B
100
AcDbEntity
  8
RACCORDO
100
AcDbPolyline
 62
250
  6
CONTINUOUS
 90
19
 70
0
 10
-95.0558182856
 20
38.2562294251
 10
-95.0534351164
 20
38.2585481994
 10
-95.0489376122
 20
38.2608505007
 10
-95.0423577686
 20
38.2631199877
 10
-95.0337423952
 20
38.2653405686
 10
-95.0231527822
 20
38.2674964554
 10
-95.0106642643
 20
38.2695722688
 10
-94.9963656855
 20
38.2715532377
 10
-94.9803587667
 20
38.2734252941
 10
-94.9627573816
 20
38.2751751089
 10
-94.9436867475
 20
38.2767902246
 10
-94.9232825337
 20
38.2782591604
 10
-94.9016898967
 20
38.2795714776
 10
-94.8790624476
 20
38.2807178153
 10
-94.855561159
 20
38.2816900223
 10
-94.8313532204
 20
38.2824812244
 10
-94.8066108481
 20
38.2830857836
 10
-94.7815100604
 20
38.2834993458
 10
-94.7562294251
 20
38.2837189313
  0
LWPOLYLINE
  5
26C
100
AcDbEntity
  8
RACCORDO
100
AcDbPolyline
 62
250
  6
CONTINUOUS
 90
16
 70
0
 10
-95.0558182856
 20
-38.2562294251
 10
-95.0534398944
 20
-38.2583186487
 10
-95.0489372507
 20
-38.2606694181
 10
-95.0423332975
 20
-38.2631272018
 10
-95.0336943213
 20
-38.2653892808
 10
-95.0230945065
 20
-38.2674500194
 10
-95.0105795171
 20
-38.2695851076
 10
-94.9962362211
 20
-38.2716157583
 10
-94.9802042587
 20
-38.2733885406
 10
-94.9625825337
 20
-38.275191124
 10
-94.9434519074
 20
-38.2768711477
 10
-94.9229979294
 20
-38.2782496371
 10
-94.9014336851
 20
-38.2795858319
 10
-94.8787372547
 20
-38.2808154201
 10
-94.8551084242
 20
-38.2817296391
 10
-94.806606613
 20
-38.283165387
  0
LINE
  5
26D
100
AcDbEntity
  8
0
100
AcDbLine
 62
7
  6
CONTINUOUS
 10
-86.588891
 20
-29.624732
 11
-85.918823
 21
-31.474227
  0
LINE
  5
26E
100
AcDbEntity
  8
0
100
AcDbLine
 62
7
  6
CONTINUOUS
 10
-86.109608
 20
-34.944276
 11
-85.43954
 21
-36.795268
  0
LINE
  5
26F
100
AcDbEntity
  8
0
100
AcDbLine
 62
7
  6
CONTINUOUS
 10
-85.895629
 20
-36.25658
 11
-85.712625
 21
-36.795268
  0
LINE
  5
270
100
AcDbEntity
  8
0
100
AcDbLine
 62
7
  6
CONTINUOUS
 10
-86.374912
 20
-30.935539
 11
-86.191908
 21
-31.474227
  0
LINE
  5
271
100
AcDbEntity
  8
0
100
AcDbLine
 62
7
  6
CONTINUOUS
 10
-89.204521
 20
-29.624732
 11
-88.673682
 21
-31.196194
  0
LINE
  5
272
100
AcDbEntity
  8
0
100
AcDbLine
 62
7
  6
CONTINUOUS
 10
-89.320488
 20
-29.924003
 11
-88.799906
 21
-31.474227
  0
LINE
  5
273
100
AcDbEntity
  8
0
100
AcDbLine
 62
7
  6
CONTINUOUS
 10
-86.261534
 20
-35.213832
 11
-85.985859
 21
-36.03512
  0
LINE
  5
274
100
AcDbEntity
  8
0
100
AcDbLine
 62
7
  6
CONTINUOUS
 10
-86.740818
 20
-29.892789
 11
-86.465142
 21
-30.714079
  0
LWPOLYLINE
  5
275
100
AcDbEntity
  8
0
100
AcDbPolyline
 62
7
  6
CONTINUOUS
 90
31
 70
0
 10
-84.4057516614
 20
-30.54947948
 10
-84.4062664663
 20
-30.5156465377
 10
-84.4075759323
 20
-30.4819245421
 10
-84.4096800594
 20
-30.4483134955
 10
-84.4125286638
 20
-30.4148147844
 10
-84.4161719293
 20
-30.3814270267
 10
-84.4207604071
 20
-30.3481460712
 10
-84.426154437
 20
-30.3149166081
 10
-84.4324936792
 20
-30.2817939506
 10
-84.4403476655
 20
-30.2489398854
 10
-84.4498330896
 20
-30.2162747613
 10
-84.4608332578
 20
-30.1838782381
 10
-84.4735676217
 20
-30.1521510791
 10
-84.488110253
 20
-30.1210676089
 10
-84.50438708
 20
-30.0906535249
 10
-84.5223953397
 20
-30.0613866636
 10
-84.5421528869
 20
-30.0332385966
 10
-84.5636418668
 20
-30.0062377865
 10
-84.5868059513
 20
-29.9809474204
 10
-84.6117126709
 20
-29.9573702861
 10
-84.6382944951
 20
-29.9355036393
 10
-84.6662925039
 20
-29.9159023804
 10
-84.6958150401
 20
-29.8987760772
 10
-84.7267537609
 20
-29.8839152064
 10
-84.7585247182
 20
-29.871246034
 10
-84.7911256953
 20
-29.8608328714
 10
-84.8245589088
 20
-29.8526114337
 10
-84.8582470603
 20
-29.846315087
 10
-84.8919977167
 20
-29.8418549564
 10
-84.9260033111
 20
-29.8393199275
 10
-84.9602638434
 20
-29.8387100026
  0
LWPOLYLINE
  5
276
100
AcDbEntity
  8
0
100
AcDbPolyline
 62
7
  6
CONTINUOUS
 90
31
 70
0
 10
-84.1492661138
 20
-30.54947948
 10
-84.1487696514
 20
-30.5950575349
 10
-84.1499744227
 20
-30.6404292622
 10
-84.1528804277
 20
-30.6855946662
 10
-84.1574317545
 20
-30.730606833
 10
-84.1636843151
 20
-30.7754126845
 10
-84.1718058449
 20
-30.819852983
 10
-84.1818453258
 20
-30.863953986
 10
-84.193753776
 20
-30.9076894517
 10
-84.2075519854
 20
-30.9508214026
 10
-84.2231618689
 20
-30.9934246192
 10
-84.2406615116
 20
-31.0354243467
 10
-84.2603059582
 20
-31.0763583197
 10
-84.2821609597
 20
-31.1162636899
 10
-84.3061607651
 20
-31.1551033507
 10
-84.3323631668
 20
-31.1923036708
 10
-84.3608376646
 20
-31.2278925462
 10
-84.3915147588
 20
-31.2618421443
 10
-84.4242437422
 20
-31.2934952624
 10
-84.4591527727
 20
-31.3227486329
 10
-84.4961136926
 20
-31.3497055998
 10
-84.5345913205
 20
-31.3740188908
 10
-84.5746002955
 20
-31.3955757044
 10
-84.6161259786
 20
-31.4144889085
 10
-84.6585892723
 20
-31.4307497343
 10
-84.7019884783
 20
-31.4442949468
 10
-84.7463252948
 20
-31.4551878241
 10
-84.7910257195
 20
-31.4636093608
 10
-84.8358984183
 20
-31.4696198943
 10
-84.8811347254
 20
-31.4731591064
 10
-84.9267346407
 20
-31.4742270019
  0
LINE
  5
277
100
AcDbEntity
  8
0
100
AcDbLine
 62
7
  6
CONTINUOUS
 10
-89.562748
 20
-29.624732
 11
-89.562748
 21
-31.474227
  0
LINE
  5
278
100
AcDbEntity
  8
0
100
AcDbLine
 62
7
  6
CONTINUOUS
 10
-89.320488
 20
-29.924003
 11
-89.320488
 21
-31.474227
  0
LINE
  5
279
100
AcDbEntity
  8
0
100
AcDbLine
 62
7
  6
CONTINUOUS
 10
-89.181477
 20
-34.944276
 11
-89.181477
 21
-36.795268
  0
LINE
  5
27A
100
AcDbEntity
  8
0
100
AcDbLine
 62
7
  6
CONTINUOUS
 10
-88.931436
 20
-34.944276
 11
-88.931436
 21
-36.795268
  0
LINE
  5
27B
100
AcDbEntity
  8
0
100
AcDbLine
 62
7
  6
CONTINUOUS
 10
-88.663289
 20
-34.944276
 11
-88.663289
 21
-35.165737
  0
LINE
  5
27C
100
AcDbEntity
  8
0
100
AcDbLine
 62
7
  6
CONTINUOUS
 10
-88.037064
 20
-35.165737
 11
-88.037064
 21
-36.795268
  0
LINE
  5
27D
100
AcDbEntity
  8
0
100
AcDbLine
 62
7
  6
CONTINUOUS
 10
-88.031976
 20
-29.92101
 11
-88.031976
 21
-31.474227
  0
LINE
  5
27E
100
AcDbEntity
  8
0
100
AcDbLine
 62
7
  6
CONTINUOUS
 10
-87.789716
 20
-29.624732
 11
-87.789716
 21
-31.474227
  0
LINE
  5
27F
100
AcDbEntity
  8
0
100
AcDbLine
 62
7
  6
CONTINUOUS
 10
-87.787172
 20
-35.165737
 11
-87.787172
 21
-36.795268
  0
LINE
  5
280
100
AcDbEntity
  8
0
100
AcDbLine
 62
7
  6
CONTINUOUS
 10
-87.160948
 20
-34.944276
 11
-87.160948
 21
-35.165737
  0
LINE
  5
281
100
AcDbEntity
  8
0
100
AcDbLine
 62
7
  6
CONTINUOUS
 10
-87.082389
 20
-32.285252
 11
-87.082389
 21
-34.134748
  0
LINE
  5
282
100
AcDbEntity
  8
0
100
AcDbLine
 62
7
  6
CONTINUOUS
 10
-86.832348
 20
-32.285252
 11
-86.832348
 21
-34.134748
  0
LINE
  5
283
100
AcDbEntity
  8
0
100
AcDbLine
 62
7
  6
CONTINUOUS
 10
-86.404689
 20
-32.285252
 11
-86.404689
 21
-34.134748
  0
LINE
  5
284
100
AcDbEntity
  8
0
100
AcDbLine
 62
7
  6
CONTINUOUS
 10
-86.16228
 20
-32.631803
 11
-86.16228
 21
-34.134748
  0
LINE
  5
285
100
AcDbEntity
  8
0
100
AcDbLine
 62
7
  6
CONTINUOUS
 10
-85.676563
 20
-29.624732
 11
-85.676563
 21
-31.474227
  0
LINE
  5
286
100
AcDbEntity
  8
0
100
AcDbLine
 62
7
  6
CONTINUOUS
 10
-85.426671
 20
-29.83871
 11
-85.426671
 21
-31.260248
  0
LINE
  5
287
100
AcDbEntity
  8
0
100
AcDbLine
 62
7
  6
CONTINUOUS
 10
-85.210149
 20
-34.944276
 11
-85.210149
 21
-36.795268
  0
LINE
  5
288
100
AcDbEntity
  8
0
100
AcDbLine
 62
7
  6
CONTINUOUS
 10
-85.177827
 20
-32.285252
 11
-85.177827
 21
-33.787069
  0
LINE
  5
289
100
AcDbEntity
  8
0
100
AcDbLine
 62
7
  6
CONTINUOUS
 10
-84.960257
 20
-34.944276
 11
-84.960257
 21
-36.573808
  0
LINE
  5
28A
100
AcDbEntity
  8
0
100
AcDbLine
 62
7
  6
CONTINUOUS
 10
-84.935717
 20
-32.285252
 11
-84.935717
 21
-34.134748
  0
LINE
  5
28B
100
AcDbEntity
  8
0
100
AcDbLine
 62
7
  6
CONTINUOUS
 10
-84.022192
 20
-36.573808
 11
-84.022192
 21
-36.795268
  0
LINE
  5
28C
100
AcDbEntity
  8
0
100
AcDbLine
 62
7
  6
CONTINUOUS
 10
-83.803125
 20
-29.624732
 11
-83.803125
 21
-31.474227
  0
LINE
  5
28D
100
AcDbEntity
  8
0
100
AcDbLine
 62
7
  6
CONTINUOUS
 10
-84.385671
 20
34.593287
 11
-84.746311
 21
33.20432
  0
LINE
  5
28E
100
AcDbEntity
  8
0
100
AcDbLine
 62
7
  6
CONTINUOUS
 10
-83.346701
 20
34.186822
 11
-83.597432
 21
33.22116
  0
LINE
  5
28F
100
AcDbEntity
  8
0
100
AcDbLine
 62
7
  6
CONTINUOUS
 10
-83.778097
 20
32.525349
 11
-83.9701231546
 21
31.7857785531
  0
LINE
  5
290
100
AcDbEntity
  8
0
100
AcDbLine
 62
7
  6
CONTINUOUS
 10
-82.7302792305
 20
34.4658960598
 11
-82.9843595816
 21
33.4873311242
  0
LINE
  5
291
100
AcDbEntity
  8
0
100
AcDbLine
 62
7
  6
CONTINUOUS
 10
-83.164047
 20
32.791945
 11
-83.348916069
 21
32.0799407343
  0
LINE
  5
292
100
AcDbEntity
  8
0
100
AcDbLine
 62
7
  6
CONTINUOUS
 10
-82.008611
 20
32.862833
 11
-82.176462
 21
32.216373
  0
LINE
  5
293
100
AcDbEntity
  8
0
100
AcDbLine
 62
7
  6
CONTINUOUS
 10
-81.0156669329
 20
34.6107092585
 11
-81.274948
 21
33.612117
  0
LINE
  5
294
100
AcDbEntity
  8
0
100
AcDbLine
 62
7
  6
CONTINUOUS
 10
-81.401003
 20
33.126633
 11
-81.7709130185
 21
31.7019619287
  0
LINE
  5
295
100
AcDbEntity
  8
0
100
AcDbLine
 62
7
  6
CONTINUOUS
 10
-79.892675
 20
34.339382
 11
-80.66818
 21
31.352609
  0
LINE
  5
296
100
AcDbEntity
  8
0
100
AcDbLine
 62
7
  6
CONTINUOUS
 10
-81.6293869906
 20
34.3035274183
 11
-81.6461799106
 21
34.2531744117
  0
LWPOLYLINE
  5
297
100
AcDbEntity
  8
0
100
AcDbPolyline
 62
7
  6
CONTINUOUS
 90
12
 70
0
 10
-81.6461799106
 20
34.2531744117
 10
-81.6633127396
 20
34.2029631552
 10
-81.6728321667
 20
34.1782520714
 10
-81.683303125
 20
34.1538046625
 10
-81.6946837287
 20
34.1297285161
 10
-81.7076712308
 20
34.1066710617
 10
-81.7225952687
 20
34.0847497461
 10
-81.739126205
 20
34.0638471508
 10
-81.7569723808
 20
34.0442584193
 10
-81.7760365763
 20
34.0260819441
 10
-81.7964160113
 20
34.0092193627
 10
-81.8181106858
 20
33.9936706882
  0
LWPOLYLINE
  5
298
100
AcDbEntity
  8
0
100
AcDbPolyline
 62
7
  6
CONTINUOUS
 90
13
 70
0
 10
-85.0953856436
 20
31.7955195954
 10
-85.0894966435
 20
31.8078753057
 10
-85.0845050689
 20
31.8210072535
 10
-85.0800463284
 20
31.8347605785
 10
-85.0761547843
 20
31.8491600521
 10
-85.0727960744
 20
31.864180893
 10
-85.0695025198
 20
31.8795939145
 10
-85.0663556028
 20
31.8954709914
 10
-85.0632738411
 20
31.9117402416
 10
-85.0595451097
 20
31.9279568491
 10
-85.0549320337
 20
31.9439725441
 10
-85.049671988
 20
31.9599355982
 10
-85.0437649726
 20
31.9758460119
  0
LWPOLYLINE
  5
299
100
AcDbEntity
  8
0
100
AcDbPolyline
 62
7
  6
CONTINUOUS
 90
46
 70
0
 10
-85.5208395371
 20
32.3860927668
 10
-85.5329284943
 20
32.3652803867
 10
-85.5432223313
 20
32.3432407787
 10
-85.5517210481
 20
32.3199739276
 10
-85.5585317917
 20
32.2953317737
 10
-85.5635474151
 20
32.2694623427
 10
-85.5664464777
 20
32.2428097531
 10
-85.5668301923
 20
32.2153764545
 10
-85.565097346
 20
32.1871599739
 10
-85.5621228604
 20
32.1585970585
 10
-85.5581642835
 20
32.1296829041
 10
-85.5529640672
 20
32.1004223041
 10
-85.5466244884
 20
32.0712664168
 10
-85.539360202
 20
32.0419519845
 10
-85.530956553
 20
32.0127422657
 10
-85.5208718537
 20
31.9848782212
 10
-85.5086650744
 20
31.9586284143
 10
-85.4947772447
 20
31.9337243248
 10
-85.479989766
 20
31.910601313
 10
-85.4643566802
 20
31.8894896993
 10
-85.4478239455
 20
31.8701592088
 10
-85.4310108377
 20
31.8523543095
 10
-85.4139593434
 20
31.8361939732
 10
-85.3966274761
 20
31.8215592574
 10
-85.379508552
 20
31.8078377495
 10
-85.3627402169
 20
31.7948683765
 10
-85.3461848251
 20
31.7828122239
 10
-85.3299227553
 20
31.7715401107
 10
-85.3140912465
 20
31.7608023565
 10
-85.2985530599
 20
31.7508486501
 10
-85.2829768575
 20
31.7422988662
 10
-85.267143003
 20
31.7351956024
 10
-85.2512711328
 20
31.7294962732
 10
-85.2356888179
 20
31.7256929815
 10
-85.2204108551
 20
31.7240926695
 10
-85.2054224477
 20
31.7243884008
 10
-85.1910067768
 20
31.7261514595
 10
-85.1771954507
 20
31.7293656548
 10
-85.1639568611
 20
31.7340471736
 10
-85.1514793643
 20
31.7398158655
 10
-85.1397364275
 20
31.746581254
 10
-85.1287545835
 20
31.7544338084
 10
-85.1188017877
 20
31.7632647973
 10
-85.1100112324
 20
31.7731053645
 10
-85.1022497253
 20
31.7839243561
 10
-85.0953856436
 20
31.7955195954
  0
LINE
  5
29A
100
AcDbEntity
  8
0
100
AcDbLine
 62
7
  6
CONTINUOUS
 10
-84.323707
 20
-34.944276
 11
-83.625209
 21
-36.050083
  0
LINE
  5
29B
100
AcDbEntity
  8
0
100
AcDbLine
 62
7
  6
CONTINUOUS
 10
-86.16228
 20
-32.631803
 11
-85.216583
 21
-34.134748
  0
LINE
  5
29C
100
AcDbEntity
  8
0
100
AcDbLine
 62
7
  6
CONTINUOUS
 10
-86.108261
 20
-32.285252
 11
-85.177827
 21
-33.787069
  0
LINE
  5
29D
100
AcDbEntity
  8
0
100
AcDbLine
 62
7
  6
CONTINUOUS
 10
-84.032517
 20
-34.944276
 11
-83.50161
 21
-35.833112
  0
LINE
  5
29E
100
AcDbEntity
  8
0
100
AcDbLine
 62
7
  6
CONTINUOUS
 10
-83.625209
 20
-36.050083
 11
-83.625209
 21
-36.795268
  0
LINE
  5
29F
100
AcDbEntity
  8
0
100
AcDbLine
 62
7
  6
CONTINUOUS
 10
-83.553084
 20
-29.846192
 11
-83.553084
 21
-30.413311
  0
LINE
  5
2A0
100
AcDbEntity
  8
0
100
AcDbLine
 62
7
  6
CONTINUOUS
 10
-83.553084
 20
-30.634772
 11
-83.553084
 21
-31.252767
  0
LINE
  5
2A1
100
AcDbEntity
  8
0
100
AcDbLine
 62
7
  6
CONTINUOUS
 10
-83.375317
 20
-36.050083
 11
-83.375317
 21
-36.795268
  0
LINE
  5
2A2
100
AcDbEntity
  8
0
100
AcDbLine
 62
7
  6
CONTINUOUS
 10
-82.540351
 20
-30.413311
 11
-82.540351
 21
-30.634772
  0
LINE
  5
2A3
100
AcDbEntity
  8
0
100
AcDbLine
 62
7
  6
CONTINUOUS
 10
-82.455358
 20
-29.624732
 11
-82.455358
 21
-29.846192
  0
LINE
  5
2A4
100
AcDbEntity
  8
0
100
AcDbLine
 62
7
  6
CONTINUOUS
 10
-82.437252
 20
-31.252767
 11
-82.437252
 21
-31.474227
  0
LINE
  5
2A5
100
AcDbEntity
  8
0
100
AcDbLine
 62
7
  6
CONTINUOUS
 10
-76.7
 20
34.5
 11
-76.7
 21
-34.5
  0
LINE
  5
2A6
100
AcDbEntity
  8
RACCORDO
100
AcDbLine
 62
7
  6
CONTINUOUS
 10
-76.7
 20
-34.5
 11
-76.7
 21
-38.7790368883
  0
LINE
  5
2A7
100
AcDbEntity
  8
RACCORDO
100
AcDbLine
 62
7
  6
CONTINUOUS
 10
-76.7
 20
34.5
 11
-76.7
 21
38.7790368883
  0
LINE
  5
2A8
100
AcDbEntity
  8
0
100
AcDbLine
 62
7
  6
CONTINUOUS
 10
-72.2759297729
 20
31.1393754046
 11
-72.4932989273
 21
30.7520941296
  0
LINE
  5
2A9
100
AcDbEntity
  8
DRAFT
100
AcDbLine
 62
7
  6
CONTINUOUS
 10
-97.3951844414
 20
-3.5
 11
-97.5
 21
-3.6749773271
  0
LINE
  5
2AA
100
AcDbEntity
  8
DRAFT
100
AcDbLine
 62
7
  6
CONTINUOUS
 10
-95.1951844414
 20
-3.5
 11
-95.3
 21
-3.6749773271
  0
LINE
  5
2AB
100
AcDbEntity
  8
DRAFT
100
AcDbLine
 62
7
  6
CONTINUOUS
 10
-97.5
 20
3.6749773271
 11
-97.3951844414
 21
3.5
  0
LINE
  5
2AC
100
AcDbEntity
  8
DRAFT
100
AcDbLine
 62
7
  6
CONTINUOUS
 10
-95.3
 20
3.6749773271
 11
-95.1951844414
 21
3.5
  0
LWPOLYLINE
  5
2AD
100
AcDbEntity
  8
RACCORDO
100
AcDbPolyline
 62
250
  6
CONTINUOUS
 90
40
 70
0
 10
-76.7
 20
37.8647665246
 10
-76.6987029233
 20
37.8325847993
 10
-76.6948201051
 20
37.8006117848
 10
-76.688376727
 20
37.7690548385
 10
-76.6794145768
 20
37.7381186191
 10
-76.6679917775
 20
37.70800376
 10
-76.6541824103
 20
37.6789055676
 10
-76.6380760342
 20
37.6510127549
 10
-76.6197771054
 20
37.6245062173
 10
-76.5994042993
 20
37.59955786
 10
-76.5770897414
 20
37.5763294827
 10
-76.5529781502
 20
37.5549717303
 10
-76.5272258987
 20
37.535623116
 10
-76.5
 20
37.518409123
 10
-76.4714770246
 20
37.5034413907
 10
-76.4418419548
 20
37.4908169905
 10
-76.4112869856
 20
37.4806177966
 10
-76.3800102775
 20
37.4729099545
 10
-76.3482146721
 20
37.4677434527
 10
-76.316106376
 20
37.4651517979
 10
-76.283893624
 20
37.4651517979
 10
-76.2517853279
 20
37.4677434527
 10
-76.2199897225
 20
37.4729099545
 10
-76.1887130144
 20
37.4806177966
 10
-76.1581580452
 20
37.4908169905
 10
-76.1285229754
 20
37.5034413907
 10
-76.1
 20
37.518409123
 10
-76.0727741013
 20
37.535623116
 10
-76.0470218498
 20
37.5549717303
 10
-76.0229102586
 20
37.5763294827
 10
-76.0005957007
 20
37.59955786
 10
-75.9802228946
 20
37.6245062173
 10
-75.9619239658
 20
37.6510127549
 10
-75.9458175897
 20
37.6789055676
 10
-75.9320082225
 20
37.70800376
 10
-75.9205854232
 20
37.7381186191
 10
-75.911623273
 20
37.7690548385
 10
-75.9051798949
 20
37.8006117848
 10
-75.9012970767
 20
37.8325847993
 10
-75.9
 20
37.8647665246
  0
LINE
  5
2AE
100
AcDbEntity
  8
RACCORDO
100
AcDbLine
 62
7
  6
CONTINUOUS
 10
-75.9
 20
38.7790368883
 11
-75.9
 21
34.5
  0
LINE
  5
2AF
100
AcDbEntity
  8
0
100
AcDbLine
 62
7
  6
CONTINUOUS
 10
-75.9
 20
34.5
 11
-75.9
 21
23.3
  0
LINE
  5
2B0
100
AcDbEntity
  8
0
100
AcDbLine
 62
7
  6
CONTINUOUS
 10
-75.9
 20
-23.3
 11
-75.9
 21
-34.5
  0
LINE
  5
2B1
100
AcDbEntity
  8
RACCORDO
100
AcDbLine
 62
7
  6
CONTINUOUS
 10
-75.9
 20
-34.5
 11
-75.9
 21
-38.7790368883
  0
LINE
  5
2B2
100
AcDbEntity
  8
RACCORDO
100
AcDbLine
 62
7
  6
CONTINUOUS
 10
-75.0
 20
22.2999999998
 11
-75.0
 21
-22.3
  0
LINE
  5
2B3
100
AcDbEntity
  8
0
100
AcDbLine
 62
7
  6
CONTINUOUS
 10
-72.066887
 20
31.011955
 11
-72.066887
 21
30.539734
  0
LINE
  5
2B4
100
AcDbEntity
  8
0
100
AcDbLine
 62
7
  6
CONTINUOUS
 10
-72.051466
 20
34.841663
 11
-72.051466
 21
34.366846
  0
LINE
  5
2B5
100
AcDbEntity
  8
0
100
AcDbLine
 62
7
  6
CONTINUOUS
 10
-71.648398
 20
34.366846
 11
-71.648398
 21
33.162838
  0
LINE
  5
2B6
100
AcDbEntity
  8
0
100
AcDbLine
 62
7
  6
CONTINUOUS
 10
-71.648398
 20
32.577635
 11
-71.648398
 21
31.011955
  0
LINE
  5
2B7
100
AcDbEntity
  8
0
100
AcDbLine
 62
7
  6
CONTINUOUS
 10
-71.145335
 20
34.366846
 11
-71.145335
 21
33.162838
  0
LINE
  5
2B8
100
AcDbEntity
  8
0
100
AcDbLine
 62
7
  6
CONTINUOUS
 10
-71.145335
 20
32.582916
 11
-71.145335
 21
31.011955
  0
LINE
  5
2B9
100
AcDbEntity
  8
0
100
AcDbLine
 62
7
  6
CONTINUOUS
 10
-70.74243
 20
34.841663
 11
-70.74243
 21
34.366846
  0
LINE
  5
2BA
100
AcDbEntity
  8
0
100
AcDbLine
 62
7
  6
CONTINUOUS
 10
-70.727009
 20
31.011955
 11
-70.727009
 21
30.539734
  0
LWPOLYLINE
  5
2BB
100
AcDbEntity
  8
RACCORDO
100
AcDbPolyline
 62
250
  6
CONTINUOUS
 90
40
 70
0
 10
-76.7
 20
-37.8647665246
 10
-76.698702994
 20
-37.8325856025
 10
-76.6948203318
 20
-37.8006130519
 10
-76.6883771106
 20
-37.7690562301
 10
-76.6794149971
 20
-37.7381197017
 10
-76.6679920544
 20
-37.7080042404
 10
-76.6541824572
 20
-37.6789054933
 10
-76.6380758337
 20
-37.6510122729
 10
-76.6197766031
 20
-37.624505382
 10
-76.5994034605
 20
-37.5995567438
 10
-76.5770885464
 20
-37.576328162
 10
-76.5529765881
 20
-37.5549702778
 10
-76.5272239728
 20
-37.5356216048
 10
-76.4999977285
 20
-37.5184076242
 10
-76.4714744322
 20
-37.5034399672
 10
-76.4418390676
 20
-37.4908156954
 10
-76.4112838394
 20
-37.480616678
 10
-76.3800069118
 20
-37.4729090524
 10
-76.3482111139
 20
-37.4677427976
 10
-76.316102657
 20
-37.4651514164
 10
-76.2838897777
 20
-37.4651517124
 10
-76.2517813699
 20
-37.4677436838
 10
-76.2199856698
 20
-37.4729105231
 10
-76.1887088881
 20
-37.4806187235
 10
-76.158153853
 20
-37.4908183026
 10
-76.1285187274
 20
-37.5034431191
 10
-76.0999957145
 20
-37.5184113003
 10
-76.0727697961
 20
-37.5356257814
 10
-76.0470175471
 20
-37.5549749277
 10
-76.0229059931
 20
-37.5763332551
 10
-76.0005915188
 20
-37.599562247
 10
-75.9802188486
 20
-37.6245112597
 10
-75.9619201198
 20
-37.6510184869
 10
-75.9458140243
 20
-37.6789120033
 10
-75.9320048681
 20
-37.7080112541
 10
-75.9205824278
 20
-37.7381271912
 10
-75.9116210776
 20
-37.7690633686
 10
-75.9051787236
 20
-37.8006186969
 10
-75.9012967352
 20
-37.8325888599
 10
-75.9
 20
-37.8647665246
  0
LINE
  5
2BC
100
AcDbEntity
  8
0
100
AcDbLine
 62
7
  6
CONTINUOUS
 10
-88.031976
 20
-29.92101
 11
-88.552558
 21
-31.474227
  0
LINE
  5
2BD
100
AcDbEntity
  8
0
100
AcDbLine
 62
7
  6
CONTINUOUS
 10
-88.1454
 20
-29.624732
 11
-88.673682
 21
-31.196194
  0
LINE
  5
2BE
100
AcDbEntity
  8
0
100
AcDbLine
 62
7
  6
CONTINUOUS
 10
-87.117104
 20
-30.935539
 11
-87.310434
 21
-31.474227
  0
LINE
  5
2BF
100
AcDbEntity
  8
0
100
AcDbLine
 62
7
  6
CONTINUOUS
 10
-86.740818
 20
-29.892789
 11
-87.039743
 21
-30.714079
  0
LINE
  5
2C0
100
AcDbEntity
  8
0
100
AcDbLine
 62
7
  6
CONTINUOUS
 10
-86.872301
 20
-29.624732
 11
-87.568106
 21
-31.474227
  0
LINE
  5
2C1
100
AcDbEntity
  8
0
100
AcDbLine
 62
7
  6
CONTINUOUS
 10
-69.443459
 20
29.389783
 11
-69.689877
 21
29.040447
  0
LINE
  5
2C2
100
AcDbEntity
  8
0
100
AcDbLine
 62
7
  6
CONTINUOUS
 10
-69.8203830067
 20
34.2793829943
 11
-71.145335
 21
33.162838
  0
LINE
  5
2C3
100
AcDbEntity
  8
0
100
AcDbLine
 62
7
  6
CONTINUOUS
 10
-69.8818586416
 20
33.647655302
 11
-71.145335
 21
32.582916
  0
LINE
  5
2C4
100
AcDbEntity
  8
0
100
AcDbLine
 62
7
  6
CONTINUOUS
 10
-86.637822
 20
-36.25658
 11
-86.831151
 21
-36.795268
  0
LINE
  5
2C5
100
AcDbEntity
  8
0
100
AcDbLine
 62
7
  6
CONTINUOUS
 10
-86.261534
 20
-35.213832
 11
-86.56061
 21
-36.03512
  0
LINE
  5
2C6
100
AcDbEntity
  8
0
100
AcDbLine
 62
7
  6
CONTINUOUS
 10
-86.393018
 20
-34.944276
 11
-87.088823
 21
-36.795268
  0
LINE
  5
2C7
100
AcDbEntity
  8
0
100
AcDbLine
 62
7
  6
CONTINUOUS
 10
-89.53372
 20
36.800216
 11
-90.803333
 21
36.249
  0
LINE
  5
2C8
100
AcDbEntity
  8
0
100
AcDbLine
 62
7
  6
CONTINUOUS
 10
-89.814631
 20
35.718318
 11
-91.088624
 21
35.165201
  0
LINE
  5
2C9
100
AcDbEntity
  8
0
100
AcDbLine
 62
7
  6
CONTINUOUS
 10
-86.063836
 20
36.800216
 11
-87.30167
 21
36.262797
  0
LINE
  5
2CA
100
AcDbEntity
  8
0
100
AcDbLine
 62
7
  6
CONTINUOUS
 10
-90.005133
 20
34.984619
 11
-91.299149
 21
34.422809
  0
LINE
  5
2CB
100
AcDbEntity
  8
0
100
AcDbLine
 62
7
  6
CONTINUOUS
 10
-84.746311
 20
33.20432
 11
-85.366362
 21
32.935118
  0
LINE
  5
2CC
100
AcDbEntity
  8
0
100
AcDbLine
 62
7
  6
CONTINUOUS
 10
-81.8181106858
 20
33.9936706882
 11
-82.9843595816
 21
33.4873311242
  0
LINE
  5
2CD
100
AcDbEntity
  8
0
100
AcDbLine
 62
7
  6
CONTINUOUS
 10
-83.597432
 20
33.22116
 11
-85.5208395371
 21
32.3860927668
  0
LINE
  5
2CE
100
AcDbEntity
  8
0
100
AcDbLine
 62
7
  6
CONTINUOUS
 10
-83.778097
 20
32.525349
 11
-85.0437649726
 21
31.9758460119
  0
LINE
  5
2CF
100
AcDbEntity
  8
0
100
AcDbLine
 62
7
  6
CONTINUOUS
 10
-81.274948
 20
33.612117
 11
-83.164047
 21
32.791945
  0
LINE
  5
2D0
100
AcDbEntity
  8
0
100
AcDbLine
 62
7
  6
CONTINUOUS
 10
-81.401003
 20
33.126633
 11
-82.008611
 21
32.862833
  0
LINE
  5
2D1
100
AcDbEntity
  8
0
100
AcDbLine
 62
7
  6
CONTINUOUS
 10
-55.5886627982
 20
-29.2052836504
 11
-55.6339061617
 21
-29.1354558957
  0
LINE
  5
2D2
100
AcDbEntity
  8
0
100
AcDbLine
 62
7
  6
CONTINUOUS
 10
-55.1943891542
 20
-29.825147
 11
-55.5886627982
 21
-29.2052836504
  0
LWPOLYLINE
  5
2D3
100
AcDbEntity
  8
0
100
AcDbPolyline
 62
7
  6
CONTINUOUS
 90
38
 70
0
 10
-60.227836785
 20
-28.8136919056
 10
-60.2051011459
 20
-28.8795360908
 10
-60.1788628629
 20
-28.9424696351
 10
-60.1492090109
 20
-29.0027007149
 10
-60.1162905841
 20
-29.0597689519
 10
-60.0800681521
 20
-29.1136418803
 10
-60.0405811453
 20
-29.1643503031
 10
-59.9980988495
 20
-29.2115286152
 10
-59.9526378331
 20
-29.2550189374
 10
-59.9041815277
 20
-29.294977653
 10
-59.8529495136
 20
-29.3315105784
 10
-59.7987154064
 20
-29.3645199076
 10
-59.7417055905
 20
-29.3941023586
 10
-59.6828187997
 20
-29.4206556896
 10
-59.6221323313
 20
-29.4444219613
 10
-59.5595688879
 20
-29.4651584502
 10
-59.4957953114
 20
-29.4825358241
 10
-59.4308556366
 20
-29.4964906991
 10
-59.3647058286
 20
-29.5070859906
 10
-59.2978806243
 20
-29.5141818547
 10
-59.2301546822
 20
-29.5177106806
 10
-59.161753344
 20
-29.5177399144
 10
-59.0938873709
 20
-29.5143323723
 10
-59.0265183194
 20
-29.5073145965
 10
-58.9596846332
 20
-29.4968602051
 10
-58.8947124044
 20
-29.4835526792
 10
-58.8318878018
 20
-29.4671730276
 10
-58.7709246567
 20
-29.4479406257
 10
-58.7122905542
 20
-29.4270964277
 10
-58.6558862342
 20
-29.4046773543
 10
-58.6018109569
 20
-29.3806467944
 10
-58.5508300884
 20
-29.3561351985
 10
-58.5029113132
 20
-29.3313003461
 10
-58.4580869467
 20
-29.3059845562
 10
-58.4172193009
 20
-29.2808448959
 10
-58.3805958132
 20
-29.256100343
 10
-58.3479290463
 20
-29.2315318682
 10
-58.319219
 20
-29.207139454
  0
LWPOLYLINE
  5
2D4
100
AcDbEntity
  8
0
100
AcDbPolyline
 62
7
  6
CONTINUOUS
 90
66
 70
0
 10
-58.3335432795
 20
-27.7623910767
 10
-58.3485196663
 20
-27.7128824557
 10
-58.3652103229
 20
-27.6644130445
 10
-58.3836152495
 20
-27.6169825997
 10
-58.4034838595
 20
-27.570361595
 10
-58.4250667393
 20
-27.5247791173
 10
-58.4491156488
 20
-27.4809226855
 10
-58.4757402094
 20
-27.438656005
 10
-58.5048307997
 20
-27.398114635
 10
-58.5368103146
 20
-27.3603934991
 10
-58.5720949232
 20
-27.3258874606
 10
-58.6102684565
 20
-27.294200542
 10
-58.6505053031
 20
-27.2652412475
 10
-58.6927571831
 20
-27.2390776667
 10
-58.7370723764
 20
-27.215640908
 10
-58.7827701108
 20
-27.1946341138
 10
-58.8297750226
 20
-27.1759391751
 10
-58.8781624756
 20
-27.1596736946
 10
-58.9274777886
 20
-27.1458944596
 10
-58.9777530579
 20
-27.1346752598
 10
-59.0289561871
 20
-27.1259419686
 10
-59.0805362066
 20
-27.119529551
 10
-59.132405088
 20
-27.115538931
 10
-59.1846508597
 20
-27.1138690526
 10
-59.2369866372
 20
-27.1140519671
 10
-59.2893901495
 20
-27.1158470408
 10
-59.3418836675
 20
-27.1194949263
 10
-59.3942471197
 20
-27.1252496409
 10
-59.4466766802
 20
-27.133073672
 10
-59.498976175
 20
-27.1430046855
 10
-59.5503370099
 20
-27.1554095272
 10
-59.6007449959
 20
-27.1705529689
 10
-59.650214322
 20
-27.1881706175
 10
-59.697978962
 20
-27.2078355995
 10
-59.7438548848
 20
-27.2294381148
 10
-59.7880261214
 20
-27.2530884053
 10
-59.8302787387
 20
-27.2786896411
 10
-59.8705679901
 20
-27.3061654503
 10
-59.908938622
 20
-27.3355927435
 10
-59.9453109409
 20
-27.3671046519
 10
-59.9795498114
 20
-27.4009102475
 10
-60.0117903688
 20
-27.4368011921
 10
-60.0423583253
 20
-27.4742844618
 10
-60.0714381024
 20
-27.5132346583
 10
-60.0988452787
 20
-27.5537777851
 10
-60.1243523013
 20
-27.5957978197
 10
-60.1477969436
 20
-27.6391860284
 10
-60.1693414324
 20
-27.6840517616
 10
-60.1892448949
 20
-27.7306061603
 10
-60.2075541764
 20
-27.7787744844
 10
-60.2242224316
 20
-27.8286322532
 10
-60.2393682521
 20
-27.8806161749
 10
-60.2531770161
 20
-27.9347197722
 10
-60.2654633454
 20
-27.9909506232
 10
-60.2757896972
 20
-28.0497667872
 10
-60.284166491
 20
-28.1113952047
 10
-60.2905833073
 20
-28.1756104766
 10
-60.2945713447
 20
-28.2421922514
 10
-60.2960997444
 20
-28.3116594465
 10
-60.2951993653
 20
-28.3834947563
 10
-60.2914939824
 20
-28.4559228326
 10
-60.2850249658
 20
-28.5290867518
 10
-60.2757509455
 20
-28.6028437798
 10
-60.2631715868
 20
-28.6749884566
 10
-60.2471568551
 20
-28.7451469937
 10
-60.227836785
 20
-28.8136919056
  0
LINE
  5
2D5
100
AcDbEntity
  8
0
100
AcDbLine
 62
7
  6
CONTINUOUS
 10
-59.20121
 20
-28.296498
 11
-59.20121
 21
-28.648476
  0
LINE
  5
2D6
100
AcDbEntity
  8
0
100
AcDbLine
 62
7
  6
CONTINUOUS
 10
-58.319219
 20
-28.648476
 11
-58.319219
 21
-29.207139454
  0
LINE
  5
2D7
100
AcDbEntity
  8
0
100
AcDbLine
 62
7
  6
CONTINUOUS
 10
-57.930405
 20
-28.294451
 11
-57.930405
 21
-29.4076843893
  0
LINE
  5
2D8
100
AcDbEntity
  8
0
100
AcDbLine
 62
7
  6
CONTINUOUS
 10
-57.339
 20
-26.8251471975
 11
-57.339
 21
-29.825147
  0
LINE
  5
2D9
100
AcDbEntity
  8
0
100
AcDbLine
 62
7
  6
CONTINUOUS
 10
-56.942002
 20
-27.156661521
 11
-56.942002
 21
-28.149158107
  0
LINE
  5
2DA
100
AcDbEntity
  8
0
100
AcDbLine
 62
7
  6
CONTINUOUS
 10
-56.942002
 20
-28.4929507388
 11
-56.942002
 21
-29.825147
  0
LWPOLYLINE
  5
2DB
100
AcDbEntity
  8
0
100
AcDbPolyline
 62
7
  6
CONTINUOUS
 90
23
 70
0
 10
-55.6339061617
 20
-29.1354558957
 10
-55.6566773408
 20
-29.1007999807
 10
-55.6796623943
 20
-29.0661491711
 10
-55.7028083856
 20
-29.0316024319
 10
-55.7261403237
 20
-28.9972530113
 10
-55.7496484454
 20
-28.9630766756
 10
-55.7733425137
 20
-28.9290976101
 10
-55.7972768271
 20
-28.8954816499
 10
-55.8213413695
 20
-28.8622534989
 10
-55.8456461568
 20
-28.8293883484
 10
-55.8705755353
 20
-28.7969777254
 10
-55.8960642278
 20
-28.7648992866
 10
-55.9221775114
 20
-28.7332752595
 10
-55.949495564
 20
-28.7025639468
 10
-55.9780266906
 20
-28.67249166
 10
-56.0077625862
 20
-28.6433318591
 10
-56.0392585131
 20
-28.6163633301
 10
-56.0729125137
 20
-28.5918578639
 10
-56.1083265456
 20
-28.5695431145
 10
-56.1448617437
 20
-28.54988147
 10
-56.1823051531
 20
-28.5330268843
 10
-56.2208697288
 20
-28.5188249317
 10
-56.2605554708
 20
-28.5072754318
  0
LINE
  5
2DC
100
AcDbEntity
  8
0
100
AcDbLine
 62
7
  6
CONTINUOUS
 10
-55.0462149794
 20
-29.2757103954
 11
-54.6950712848
 21
-29.825147
  0
LINE
  5
2DD
100
AcDbEntity
  8
0
100
AcDbLine
 62
7
  6
CONTINUOUS
 10
-82.970703
 20
-34.944276
 11
-83.50161
 21
-35.833112
  0
LINE
  5
2DE
100
AcDbEntity
  8
0
100
AcDbLine
 62
7
  6
CONTINUOUS
 10
-82.676968
 20
-34.944276
 11
-83.375317
 21
-36.050083
  0
LWPOLYLINE
  5
2DF
100
AcDbEntity
  8
0
100
AcDbPolyline
 62
7
  6
CONTINUOUS
 90
12
 70
0
 10
-55.7857942173
 20
-28.4602085834
 10
-55.6995921397
 20
-28.5048743684
 10
-55.6196468202
 20
-28.5547944511
 10
-55.545958259
 20
-28.609970074
 10
-55.4796914189
 20
-28.6712274313
 10
-55.4196813371
 20
-28.7377433441
 10
-55.3624331243
 20
-28.8070443965
 10
-55.3076610151
 20
-28.8783331681
 10
-55.255650775
 20
-28.9524086428
 10
-55.2037648107
 20
-29.0291912477
 10
-55.151627196
 20
-29.1088358905
 10
-55.0462149794
 20
-29.2757103954
  0
LWPOLYLINE
  5
2E0
100
AcDbEntity
  8
RACCORDO
100
AcDbPolyline
 62
250
  6
CONTINUOUS
 90
40
 70
0
 10
-46.3
 20
37.8647665246
 10
-46.2987029233
 20
37.8325847993
 10
-46.2948201051
 20
37.8006117848
 10
-46.288376727
 20
37.7690548385
 10
-46.2794145768
 20
37.7381186191
 10
-46.2679917775
 20
37.70800376
 10
-46.2541824103
 20
37.6789055676
 10
-46.2380760342
 20
37.6510127549
 10
-46.2197771054
 20
37.6245062173
 10
-46.1994042993
 20
37.59955786
 10
-46.1770897414
 20
37.5763294827
 10
-46.1529781502
 20
37.5549717303
 10
-46.1272258987
 20
37.535623116
 10
-46.1
 20
37.518409123
 10
-46.0714770246
 20
37.5034413907
 10
-46.0418419548
 20
37.4908169905
 10
-46.0112869856
 20
37.4806177966
 10
-45.9800102775
 20
37.4729099545
 10
-45.9482146721
 20
37.4677434527
 10
-45.916106376
 20
37.4651517979
 10
-45.883893624
 20
37.4651517979
 10
-45.8517853279
 20
37.4677434527
 10
-45.8199897225
 20
37.4729099545
 10
-45.7887130144
 20
37.4806177966
 10
-45.7581580452
 20
37.4908169905
 10
-45.7285229754
 20
37.5034413907
 10
-45.7
 20
37.518409123
 10
-45.6727741013
 20
37.535623116
 10
-45.6470218498
 20
37.5549717303
 10
-45.6229102586
 20
37.5763294827
 10
-45.6005957007
 20
37.59955786
 10
-45.5802228946
 20
37.6245062173
 10
-45.5619239658
 20
37.6510127549
 10
-45.5458175897
 20
37.6789055676
 10
-45.5320082225
 20
37.70800376
 10
-45.5205854232
 20
37.7381186191
 10
-45.511623273
 20
37.7690548385
 10
-45.5051798949
 20
37.8006117848
 10
-45.5012970767
 20
37.8325847993
 10
-45.5
 20
37.8647665246
  0
LINE
  5
2E1
100
AcDbEntity
  8
0
100
AcDbLine
 62
7
  6
CONTINUOUS
 10
-46.3
 20
-23.3
 11
-46.3
 21
-34.5
  0
LINE
  5
2E2
100
AcDbEntity
  8
RACCORDO
100
AcDbLine
 62
7
  6
CONTINUOUS
 10
-46.3
 20
-34.5
 11
-46.3
 21
-38.7790368883
  0
LINE
  5
2E3
100
AcDbEntity
  8
0
100
AcDbLine
 62
7
  6
CONTINUOUS
 10
-46.3
 20
23.3
 11
-46.3
 21
34.5
  0
LINE
  5
2E4
100
AcDbEntity
  8
RACCORDO
100
AcDbLine
 62
7
  6
CONTINUOUS
 10
-46.3
 20
34.5
 11
-46.3
 21
38.7790368883
  0
LINE
  5
2E5
100
AcDbEntity
  8
RACCORDO
100
AcDbLine
 62
7
  6
CONTINUOUS
 10
-45.5
 20
38.7790368883
 11
-45.5
 21
34.5
  0
LINE
  5
2E6
100
AcDbEntity
  8
0
100
AcDbLine
 62
7
  6
CONTINUOUS
 10
-45.5
 20
-23.3
 11
-45.5
 21
-34.5
  0
LINE
  5
2E7
100
AcDbEntity
  8
RACCORDO
100
AcDbLine
 62
7
  6
CONTINUOUS
 10
-45.5
 20
-34.5
 11
-45.5
 21
-38.7790368883
  0
LINE
  5
2E8
100
AcDbEntity
  8
0
100
AcDbLine
 62
7
  6
CONTINUOUS
 10
-45.5
 20
23.3
 11
-45.5
 21
34.5
  0
LWPOLYLINE
  5
2E9
100
AcDbEntity
  8
RACCORDO
100
AcDbPolyline
 62
250
  6
CONTINUOUS
 90
40
 70
0
 10
-46.3
 20
-37.8647665246
 10
-46.298702994
 20
-37.8325856025
 10
-46.2948203318
 20
-37.8006130519
 10
-46.2883771106
 20
-37.7690562301
 10
-46.2794149971
 20
-37.7381197017
 10
-46.2679920544
 20
-37.7080042404
 10
-46.2541824572
 20
-37.6789054933
 10
-46.2380758337
 20
-37.6510122729
 10
-46.2197766031
 20
-37.624505382
 10
-46.1994034605
 20
-37.5995567438
 10
-46.1770885464
 20
-37.576328162
 10
-46.1529765881
 20
-37.5549702778
 10
-46.1272239728
 20
-37.5356216048
 10
-46.0999977285
 20
-37.5184076242
 10
-46.0714744322
 20
-37.5034399672
 10
-46.0418390676
 20
-37.4908156954
 10
-46.0112838394
 20
-37.480616678
 10
-45.9800069118
 20
-37.4729090524
 10
-45.9482111139
 20
-37.4677427976
 10
-45.916102657
 20
-37.4651514164
 10
-45.8838897777
 20
-37.4651517124
 10
-45.8517813699
 20
-37.4677436838
 10
-45.8199856698
 20
-37.4729105231
 10
-45.7887088881
 20
-37.4806187235
 10
-45.758153853
 20
-37.4908183026
 10
-45.7285187274
 20
-37.5034431191
 10
-45.6999957145
 20
-37.5184113003
 10
-45.6727697961
 20
-37.5356257814
 10
-45.6470175471
 20
-37.5549749277
 10
-45.6229059931
 20
-37.5763332551
 10
-45.6005915188
 20
-37.599562247
 10
-45.5802188486
 20
-37.6245112597
 10
-45.5619201198
 20
-37.6510184869
 10
-45.5458140243
 20
-37.6789120033
 10
-45.5320048681
 20
-37.7080112541
 10
-45.5205824278
 20
-37.7381271912
 10
-45.5116210776
 20
-37.7690633686
 10
-45.5051787236
 20
-37.8006186969
 10
-45.5012967352
 20
-37.8325888599
 10
-45.5
 20
-37.8647665246
  0
LINE
  5
2EA
100
AcDbEntity
  8
0
100
AcDbLine
 62
7
  6
CONTINUOUS
 10
-70.52407
 20
31.139375
 11
-70.306701
 21
30.752094
  0
LINE
  5
2EB
100
AcDbEntity
  8
RACCORDO
100
AcDbLine
 62
250
  6
CONTINUOUS
 10
-95.0558183433
 20
-38.2562294829
 11
-95.3
 21
-38.5004111396
  0
LINE
  5
2EC
100
AcDbEntity
  8
RACCORDO
100
AcDbLine
 62
250
  6
CONTINUOUS
 10
-94.7562294251
 20
-38.5558182856
 11
-95.0004111396
 21
-38.8
  0
LWPOLYLINE
  5
2ED
100
AcDbEntity
  8
0
100
AcDbPolyline
 62
7
  6
CONTINUOUS
 90
34
 70
0
 10
91.4966666691
 20
-36.5895619967
 10
91.528003705
 20
-36.5886590817
 10
91.5591368261
 20
-36.5861963017
 10
91.5900660322
 20
-36.5821736542
 10
91.6209287943
 20
-36.5766437439
 10
91.6515876415
 20
-36.5695539568
 10
91.6816301614
 20
-36.5607464594
 10
91.7110719482
 20
-36.5502126085
 10
91.7398974077
 20
-36.5379610262
 10
91.7676473451
 20
-36.5238597728
 10
91.7942425702
 20
-36.50774916
 10
91.8197622731
 20
-36.4897888397
 10
91.8439848294
 20
-36.4703258824
 10
91.8668981082
 20
-36.4493667872
 10
91.8885142404
 20
-36.4269050168
 10
91.9086479947
 20
-36.4032680925
 10
91.9272567759
 20
-36.3784511843
 10
91.9443831792
 20
-36.3524590865
 10
91.9599697594
 20
-36.3256337664
 10
91.9739321481
 20
-36.2979473291
 10
91.9863547137
 20
-36.2694276407
 10
91.9974331162
 20
-36.2405003226
 10
92.0071444941
 20
-36.2112212323
 10
92.0155117089
 20
-36.1815344984
 10
92.0227990043
 20
-36.1516981608
 10
92.0289990886
 20
-36.1217843249
 10
92.0341192536
 20
-36.091720881
 10
92.0384456183
 20
-36.0615495522
 10
92.042003896
 20
-36.0312816002
 10
92.0447683734
 20
-36.0009057597
 10
92.0469480292
 20
-35.9704299642
 10
92.0486125229
 20
-35.9398568572
 10
92.0496921949
 20
-35.9091837918
 10
92.0501870453
 20
-35.8784107664
  0
LWPOLYLINE
  5
2EE
100
AcDbEntity
  8
0
100
AcDbPolyline
 62
7
  6
CONTINUOUS
 90
31
 70
0
 10
86.2534120853
 20
-35.8088079965
 10
86.2722636877
 20
-35.8084725229
 10
86.2910371263
 20
-35.8076625503
 10
86.309732401
 20
-35.8063780784
 10
86.3283688914
 20
-35.804666759
 10
86.3469272179
 20
-35.8024809395
 10
86.3653492424
 20
-35.7996776623
 10
86.3836585432
 20
-35.7963063503
 10
86.4018315418
 20
-35.7923175783
 10
86.4197393647
 20
-35.787420116
 10
86.4374313806
 20
-35.7815597773
 10
86.4548582207
 20
-35.7747907421
 10
86.4717429047
 20
-35.7669843266
 10
86.4880898991
 20
-35.7581087505
 10
86.5038947375
 20
-35.7481957833
 10
86.5188670406
 20
-35.7372120649
 10
86.5329867513
 20
-35.7250731373
 10
86.5462739268
 20
-35.7118634427
 10
86.5584983582
 20
-35.6978029712
 10
86.5696288735
 20
-35.6828661052
 10
86.5796966448
 20
-35.667078447
 10
86.5885649801
 20
-35.6507368207
 10
86.5961806768
 20
-35.6338647973
 10
86.6025969376
 20
-35.6164387946
 10
86.6078366782
 20
-35.5986849122
 10
86.611756041
 20
-35.5805931249
 10
86.6144988837
 20
-35.5621734506
 10
86.6165196949
 20
-35.5436820584
 10
86.6179699709
 20
-35.525204339
 10
86.6186982155
 20
-35.5066549008
 10
86.6186998058
 20
-35.4690921252
  0
LWPOLYLINE
  5
2EF
100
AcDbEntity
  8
0
100
AcDbPolyline
 62
7
  6
CONTINUOUS
 90
31
 70
0
 10
79.8095984256
 20
-35.8088079965
 10
79.828450028
 20
-35.8084725229
 10
79.8472234666
 20
-35.8076625503
 10
79.8659187413
 20
-35.8063780784
 10
79.8845552317
 20
-35.804666759
 10
79.9031135582
 20
-35.8024809395
 10
79.9215355827
 20
-35.7996776623
 10
79.9398448835
 20
-35.7963063503
 10
79.9580178821
 20
-35.7923175783
 10
79.975925705
 20
-35.787420116
 10
79.9936177209
 20
-35.7815597773
 10
80.011044561
 20
-35.7747907421
 10
80.027929245
 20
-35.7669843266
 10
80.0442762394
 20
-35.7581087505
 10
80.0600810778
 20
-35.7481957833
 10
80.0750533809
 20
-35.7372120649
 10
80.0891730917
 20
-35.7250731373
 10
80.1024602671
 20
-35.7118634427
 10
80.1146846985
 20
-35.6978029712
 10
80.1258152138
 20
-35.6828661052
 10
80.1358829851
 20
-35.667078447
 10
80.1447513204
 20
-35.6507368207
 10
80.1523670171
 20
-35.6338647973
 10
80.1587832779
 20
-35.6164387946
 10
80.1640230185
 20
-35.5986849122
 10
80.1679423814
 20
-35.5805931249
 10
80.170685224
 20
-35.5621734506
 10
80.1727060352
 20
-35.5436820584
 10
80.1741563112
 20
-35.525204339
 10
80.1748845558
 20
-35.5066549008
 10
80.1748861461
 20
-35.4690921252
  0
LINE
  5
2F0
100
AcDbEntity
  8
RACCORDO
100
AcDbLine
 62
7
  6
CONTINUOUS
 10
96.3016445583
 20
-41.0
 11
-96.3016445583
 21
-41.0
  0
LINE
  5
2F1
100
AcDbEntity
  8
RACCORDO
100
AcDbLine
 62
7
  6
CONTINUOUS
 10
95.0004111396
 20
-38.8
 11
3.0
 21
-38.8
  0
LINE
  5
2F2
100
AcDbEntity
  8
DRAFT
100
AcDbLine
 62
7
  6
CONTINUOUS
 10
2.2
 20
-38.8
 11
0.4
 21
-38.8
  0
LINE
  5
2F3
100
AcDbEntity
  8
DRAFT
100
AcDbLine
 62
7
  6
CONTINUOUS
 10
-0.4
 20
-38.8
 11
-2.2
 21
-38.8
  0
LINE
  5
2F4
100
AcDbEntity
  8
RACCORDO
100
AcDbLine
 62
7
  6
CONTINUOUS
 10
-3.0
 20
-38.8
 11
-95.0004111396
 21
-38.8
  0
LINE
  5
2F5
100
AcDbEntity
  8
DRAFT
100
AcDbLine
 62
7
  6
CONTINUOUS
 10
2.2
 20
-38.7816277668
 11
0.4
 21
-38.7816277668
  0
LINE
  5
2F6
100
AcDbEntity
  8
DRAFT
100
AcDbLine
 62
7
  6
CONTINUOUS
 10
-0.4
 20
-38.7816277668
 11
-2.2
 21
-38.7816277668
  0
LINE
  5
2F7
100
AcDbEntity
  8
RACCORDO
100
AcDbLine
 62
250
  6
CONTINUOUS
 10
-94.7562294251
 20
-38.5558182856
 11
-76.7
 21
-38.5558182856
  0
LINE
  5
2F8
100
AcDbEntity
  8
RACCORDO
100
AcDbLine
 62
250
  6
CONTINUOUS
 10
94.7562294251
 20
-38.5558182856
 11
76.7
 21
-38.5558182856
  0
LINE
  5
2F9
100
AcDbEntity
  8
ASSI
100
AcDbLine
 62
7
  6
CONTINUOUS
 10
2.2
 20
-38.5
 11
0.4
 21
-38.5
  0
LINE
  5
2FA
100
AcDbEntity
  8
ASSI
100
AcDbLine
 62
7
  6
CONTINUOUS
 10
-0.4
 20
-38.5
 11
-2.2
 21
-38.5
  0
LINE
  5
2FB
100
AcDbEntity
  8
DRAFT
100
AcDbLine
 62
7
  6
CONTINUOUS
 10
-75.9
 20
-38.4960348802
 11
-46.3
 21
-38.4960348802
  0
LINE
  5
2FC
100
AcDbEntity
  8
DRAFT
100
AcDbLine
 62
7
  6
CONTINUOUS
 10
-45.5
 20
-38.4960348802
 11
-15.7
 21
-38.4960348802
  0
LINE
  5
2FD
100
AcDbEntity
  8
DRAFT
100
AcDbLine
 62
7
  6
CONTINUOUS
 10
-14.9
 20
-38.4960348802
 11
-3.0
 21
-38.4960348802
  0
LINE
  5
2FE
100
AcDbEntity
  8
DRAFT
100
AcDbLine
 62
7
  6
CONTINUOUS
 10
3.0
 20
-38.4960348802
 11
14.9
 21
-38.4960348802
  0
LINE
  5
2FF
100
AcDbEntity
  8
DRAFT
100
AcDbLine
 62
7
  6
CONTINUOUS
 10
15.7
 20
-38.4960348802
 11
45.5
 21
-38.4960348802
  0
LINE
  5
300
100
AcDbEntity
  8
DRAFT
100
AcDbLine
 62
7
  6
CONTINUOUS
 10
46.3
 20
-38.4960348802
 11
75.9
 21
-38.4960348802
  0
LINE
  5
301
100
AcDbEntity
  8
RACCORDO
100
AcDbLine
 62
250
  6
CONTINUOUS
 10
-94.7562294251
 20
-38.2837189313
 11
-76.7
 21
-38.2837189313
  0
LINE
  5
302
100
AcDbEntity
  8
RACCORDO
100
AcDbLine
 62
250
  6
CONTINUOUS
 10
94.7562294251
 20
-38.2837189313
 11
76.7
 21
-38.2837189313
  0
LINE
  5
303
100
AcDbEntity
  8
RACCORDO
100
AcDbLine
 62
250
  6
CONTINUOUS
 10
-76.7
 20
-38.2647056027
 11
-75.9
 21
-38.2647056027
  0
LINE
  5
304
100
AcDbEntity
  8
RACCORDO
100
AcDbLine
 62
250
  6
CONTINUOUS
 10
-46.3
 20
-38.2647056027
 11
-45.5
 21
-38.2647056027
  0
LINE
  5
305
100
AcDbEntity
  8
RACCORDO
100
AcDbLine
 62
250
  6
CONTINUOUS
 10
-15.7
 20
-38.2647056027
 11
-14.9
 21
-38.2647056027
  0
LINE
  5
306
100
AcDbEntity
  8
RACCORDO
100
AcDbLine
 62
250
  6
CONTINUOUS
 10
14.9
 20
-38.2647056027
 11
15.7
 21
-38.2647056027
  0
LINE
  5
307
100
AcDbEntity
  8
RACCORDO
100
AcDbLine
 62
250
  6
CONTINUOUS
 10
45.5
 20
-38.2647056027
 11
46.3
 21
-38.2647056027
  0
LINE
  5
308
100
AcDbEntity
  8
RACCORDO
100
AcDbLine
 62
250
  6
CONTINUOUS
 10
75.9
 20
-38.2647056027
 11
76.7
 21
-38.2647056027
  0
LINE
  5
309
100
AcDbEntity
  8
0
100
AcDbLine
 62
7
  6
CONTINUOUS
 10
-75.9
 20
-38.1
 11
-46.3
 21
-38.1
  0
LINE
  5
30A
100
AcDbEntity
  8
0
100
AcDbLine
 62
7
  6
CONTINUOUS
 10
-45.5
 20
-38.1
 11
-15.7
 21
-38.1
  0
LINE
  5
30B
100
AcDbEntity
  8
0
100
AcDbLine
 62
7
  6
CONTINUOUS
 10
-14.9
 20
-38.1
 11
-3.0
 21
-38.1
  0
LINE
  5
30C
100
AcDbEntity
  8
0
100
AcDbLine
 62
7
  6
CONTINUOUS
 10
3.0
 20
-38.1
 11
14.9
 21
-38.1
  0
LINE
  5
30D
100
AcDbEntity
  8
0
100
AcDbLine
 62
7
  6
CONTINUOUS
 10
15.7
 20
-38.1
 11
45.5
 21
-38.1
  0
LINE
  5
30E
100
AcDbEntity
  8
0
100
AcDbLine
 62
7
  6
CONTINUOUS
 10
46.3
 20
-38.1
 11
75.9
 21
-38.1
  0
LINE
  5
30F
100
AcDbEntity
  8
0
100
AcDbLine
 62
7
  6
CONTINUOUS
 10
75.9
 20
-37.5018681365
 11
46.3
 21
-37.5018681365
  0
LINE
  5
310
100
AcDbEntity
  8
0
100
AcDbLine
 62
7
  6
CONTINUOUS
 10
45.5
 20
-37.5018681365
 11
15.7
 21
-37.5018681365
  0
LINE
  5
311
100
AcDbEntity
  8
ASSI
100
AcDbLine
 62
7
  6
CONTINUOUS
 10
14.9
 20
-37.5018681365
 11
3.0
 21
-37.5018681365
  0
LINE
  5
312
100
AcDbEntity
  8
ASSI
100
AcDbLine
 62
7
  6
CONTINUOUS
 10
-3.0
 20
-37.5018681365
 11
-14.9
 21
-37.5018681365
  0
LINE
  5
313
100
AcDbEntity
  8
0
100
AcDbLine
 62
7
  6
CONTINUOUS
 10
-15.7
 20
-37.5018681365
 11
-45.5
 21
-37.5018681365
  0
LINE
  5
314
100
AcDbEntity
  8
0
100
AcDbLine
 62
7
  6
CONTINUOUS
 10
-46.3
 20
-37.5018681365
 11
-75.9
 21
-37.5018681365
  0
LINE
  5
315
100
AcDbEntity
  8
ASSI
100
AcDbLine
 62
7
  6
CONTINUOUS
 10
3.0
 20
-37.3
 11
2.2
 21
-37.3
  0
LINE
  5
316
100
AcDbEntity
  8
ASSI
100
AcDbLine
 62
7
  6
CONTINUOUS
 10
0.4
 20
-37.3
 11
-0.4
 21
-37.3
  0
LINE
  5
317
100
AcDbEntity
  8
ASSI
100
AcDbLine
 62
7
  6
CONTINUOUS
 10
-2.2
 20
-37.3
 11
-3.0
 21
-37.3
  0
LINE
  5
318
100
AcDbEntity
  8
0
100
AcDbLine
 62
7
  6
CONTINUOUS
 10
79.052081
 20
-36.803411
 11
79.302009
 21
-36.803411
  0
LINE
  5
319
100
AcDbEntity
  8
0
100
AcDbLine
 62
7
  6
CONTINUOUS
 10
80.585105
 20
-36.803411
 11
80.842775
 21
-36.803411
  0
LINE
  5
31A
100
AcDbEntity
  8
0
100
AcDbLine
 62
7
  6
CONTINUOUS
 10
81.961101
 20
-36.803411
 11
82.23411
 21
-36.803411
  0
LINE
  5
31B
100
AcDbEntity
  8
0
100
AcDbLine
 62
7
  6
CONTINUOUS
 10
82.929704
 20
-36.803411
 11
83.179633
 21
-36.803411
  0
LINE
  5
31C
100
AcDbEntity
  8
0
100
AcDbLine
 62
7
  6
CONTINUOUS
 10
84.065997
 20
-36.803411
 11
84.333893
 21
-36.803411
  0
LINE
  5
31D
100
AcDbEntity
  8
0
100
AcDbLine
 62
7
  6
CONTINUOUS
 10
85.495894
 20
-36.803411
 11
85.745823
 21
-36.803411
  0
LINE
  5
31E
100
AcDbEntity
  8
0
100
AcDbLine
 62
7
  6
CONTINUOUS
 10
87.21443
 20
-36.803411
 11
88.580055
 21
-36.803411
  0
LINE
  5
31F
100
AcDbEntity
  8
0
100
AcDbLine
 62
7
  6
CONTINUOUS
 10
88.907256
 20
-36.803411
 11
89.149443
 21
-36.803411
  0
LINE
  5
320
100
AcDbEntity
  8
0
100
AcDbLine
 62
7
  6
CONTINUOUS
 10
90.095113
 20
-36.803411
 11
90.375863
 21
-36.803411
  0
LINE
  5
321
100
AcDbEntity
  8
0
100
AcDbLine
 62
7
  6
CONTINUOUS
 10
90.780336
 20
-36.803411
 11
91.5301224044
 21
-36.803411
  0
LINE
  5
322
100
AcDbEntity
  8
0
100
AcDbLine
 62
7
  6
CONTINUOUS
 10
92.656044
 20
-36.803411
 11
92.924086
 21
-36.803411
  0
LINE
  5
323
100
AcDbEntity
  8
0
100
AcDbLine
 62
7
  6
CONTINUOUS
 10
-83.375317
 20
-36.795268
 11
-83.625209
 21
-36.795268
  0
LINE
  5
324
100
AcDbEntity
  8
0
100
AcDbLine
 62
7
  6
CONTINUOUS
 10
-84.022192
 20
-36.795268
 11
-85.210149
 21
-36.795268
  0
LINE
  5
325
100
AcDbEntity
  8
0
100
AcDbLine
 62
7
  6
CONTINUOUS
 10
-85.43954
 20
-36.795268
 11
-85.712625
 21
-36.795268
  0
LINE
  5
326
100
AcDbEntity
  8
0
100
AcDbLine
 62
7
  6
CONTINUOUS
 10
-86.831151
 20
-36.795268
 11
-87.088823
 21
-36.795268
  0
LINE
  5
327
100
AcDbEntity
  8
0
100
AcDbLine
 62
7
  6
CONTINUOUS
 10
-87.787172
 20
-36.795268
 11
-88.037064
 21
-36.795268
  0
LINE
  5
328
100
AcDbEntity
  8
0
100
AcDbLine
 62
7
  6
CONTINUOUS
 10
-88.931436
 20
-36.795268
 11
-89.181477
 21
-36.795268
  0
LINE
  5
329
100
AcDbEntity
  8
ASSI
100
AcDbLine
 62
7
  6
CONTINUOUS
 10
-3.0
 20
-36.6
 11
-2.2
 21
-36.6
  0
LINE
  5
32A
100
AcDbEntity
  8
ASSI
100
AcDbLine
 62
7
  6
CONTINUOUS
 10
-0.4
 20
-36.6
 11
0.4
 21
-36.6
  0
LINE
  5
32B
100
AcDbEntity
  8
ASSI
100
AcDbLine
 62
7
  6
CONTINUOUS
 10
2.2
 20
-36.6
 11
3.0
 21
-36.6
  0
LINE
  5
32C
100
AcDbEntity
  8
0
100
AcDbLine
 62
7
  6
CONTINUOUS
 10
91.030265
 20
-36.589562
 11
91.4966719504
 21
-36.589562
  0
LINE
  5
32D
100
AcDbEntity
  8
0
100
AcDbLine
 62
7
  6
CONTINUOUS
 10
87.464358
 20
-36.58182
 11
88.580055
 21
-36.58182
  0
LINE
  5
32E
100
AcDbEntity
  8
0
100
AcDbLine
 62
7
  6
CONTINUOUS
 10
-84.022192
 20
-36.573808
 11
-84.960257
 21
-36.573808
  0
LINE
  5
32F
100
AcDbEntity
  8
0
100
AcDbLine
 62
7
  6
CONTINUOUS
 10
84.065997
 20
-36.530256
 11
84.333893
 21
-36.530256
  0
LINE
  5
330
100
AcDbEntity
  8
0
100
AcDbLine
 62
7
  6
CONTINUOUS
 10
92.656044
 20
-36.530256
 11
92.924086
 21
-36.530256
  0
LINE
  5
331
100
AcDbEntity
  8
0
100
AcDbLine
 62
7
  6
CONTINUOUS
 10
81.036028
 20
-36.264844
 11
81.778073
 21
-36.264844
  0
LINE
  5
332
100
AcDbEntity
  8
0
100
AcDbLine
 62
7
  6
CONTINUOUS
 10
-85.895629
 20
-36.25658
 11
-86.637822
 21
-36.25658
  0
LINE
  5
333
100
AcDbEntity
  8
0
100
AcDbLine
 62
7
  6
CONTINUOUS
 10
81.1133
 20
-36.043253
 11
81.687801
 21
-36.043253
  0
LINE
  5
334
100
AcDbEntity
  8
0
100
AcDbLine
 62
7
  6
CONTINUOUS
 10
-85.985859
 20
-36.03512
 11
-86.56061
 21
-36.03512
  0
LINE
  5
335
100
AcDbEntity
  8
0
100
AcDbLine
 62
7
  6
CONTINUOUS
 10
79.302009
 20
-36.022657
 11
79.8842221573
 21
-36.022657
  0
LINE
  5
336
100
AcDbEntity
  8
0
100
AcDbLine
 62
7
  6
CONTINUOUS
 10
85.745823
 20
-36.022657
 11
86.328035817
 21
-36.022657
  0
LINE
  5
337
100
AcDbEntity
  8
0
100
AcDbLine
 62
7
  6
CONTINUOUS
 10
87.464358
 20
-35.963498
 11
88.477075
 21
-35.963498
  0
LINE
  5
338
100
AcDbEntity
  8
0
100
AcDbLine
 62
7
  6
CONTINUOUS
 10
79.302009
 20
-35.808808
 11
79.809609179
 21
-35.808808
  0
LINE
  5
339
100
AcDbEntity
  8
0
100
AcDbLine
 62
7
  6
CONTINUOUS
 10
85.745823
 20
-35.808808
 11
86.2534228387
 21
-35.808808
  0
LINE
  5
33A
100
AcDbEntity
  8
0
100
AcDbLine
 62
7
  6
CONTINUOUS
 10
87.464358
 20
-35.741907
 11
88.477075
 21
-35.741907
  0
LINE
  5
33B
100
AcDbEntity
  8
0
100
AcDbLine
 62
7
  6
CONTINUOUS
 10
82.30364
 20
-35.175002
 11
82.929704
 21
-35.175002
  0
LINE
  5
33C
100
AcDbEntity
  8
0
100
AcDbLine
 62
7
  6
CONTINUOUS
 10
83.179633
 20
-35.175002
 11
83.805697
 21
-35.175002
  0
LINE
  5
33D
100
AcDbEntity
  8
0
100
AcDbLine
 62
7
  6
CONTINUOUS
 10
87.464358
 20
-35.175002
 11
88.562088
 21
-35.175002
  0
LINE
  5
33E
100
AcDbEntity
  8
0
100
AcDbLine
 62
7
  6
CONTINUOUS
 10
79.302009
 20
-35.16726
 11
79.809609179
 21
-35.16726
  0
LINE
  5
33F
100
AcDbEntity
  8
0
100
AcDbLine
 62
7
  6
CONTINUOUS
 10
85.745823
 20
-35.16726
 11
86.2534228387
 21
-35.16726
  0
LINE
  5
340
100
AcDbEntity
  8
0
100
AcDbLine
 62
7
  6
CONTINUOUS
 10
91.030265
 20
-35.16726
 11
91.4966719504
 21
-35.16726
  0
LINE
  5
341
100
AcDbEntity
  8
0
100
AcDbLine
 62
7
  6
CONTINUOUS
 10
-87.160948
 20
-35.165737
 11
-87.787172
 21
-35.165737
  0
LINE
  5
342
100
AcDbEntity
  8
0
100
AcDbLine
 62
7
  6
CONTINUOUS
 10
-88.037064
 20
-35.165737
 11
-88.663289
 21
-35.165737
  0
LINE
  5
343
100
AcDbEntity
  8
0
100
AcDbLine
 62
7
  6
CONTINUOUS
 10
79.052081
 20
-34.953411
 11
79.884276596
 21
-34.953411
  0
LINE
  5
344
100
AcDbEntity
  8
0
100
AcDbLine
 62
7
  6
CONTINUOUS
 10
81.280845
 20
-34.953411
 11
81.564224
 21
-34.953411
  0
LINE
  5
345
100
AcDbEntity
  8
0
100
AcDbLine
 62
7
  6
CONTINUOUS
 10
82.30364
 20
-34.953411
 11
83.805697
 21
-34.953411
  0
LINE
  5
346
100
AcDbEntity
  8
0
100
AcDbLine
 62
7
  6
CONTINUOUS
 10
85.495894
 20
-34.953411
 11
86.3280902557
 21
-34.953411
  0
LINE
  5
347
100
AcDbEntity
  8
0
100
AcDbLine
 62
7
  6
CONTINUOUS
 10
87.21443
 20
-34.953411
 11
88.562088
 21
-34.953411
  0
LINE
  5
348
100
AcDbEntity
  8
0
100
AcDbLine
 62
7
  6
CONTINUOUS
 10
88.907256
 20
-34.953411
 11
89.203636
 21
-34.953411
  0
LINE
  5
349
100
AcDbEntity
  8
0
100
AcDbLine
 62
7
  6
CONTINUOUS
 10
90.133676
 20
-34.953411
 11
90.375863
 21
-34.953411
  0
LINE
  5
34A
100
AcDbEntity
  8
0
100
AcDbLine
 62
7
  6
CONTINUOUS
 10
90.780336
 20
-34.953411
 11
91.5301224044
 21
-34.953411
  0
LINE
  5
34B
100
AcDbEntity
  8
0
100
AcDbLine
 62
7
  6
CONTINUOUS
 10
-82.676968
 20
-34.944276
 11
-82.970703
 21
-34.944276
  0
LINE
  5
34C
100
AcDbEntity
  8
0
100
AcDbLine
 62
7
  6
CONTINUOUS
 10
-84.032517
 20
-34.944276
 11
-84.323707
 21
-34.944276
  0
LINE
  5
34D
100
AcDbEntity
  8
0
100
AcDbLine
 62
7
  6
CONTINUOUS
 10
-84.960257
 20
-34.944276
 11
-85.210149
 21
-34.944276
  0
LINE
  5
34E
100
AcDbEntity
  8
0
100
AcDbLine
 62
7
  6
CONTINUOUS
 10
-86.109608
 20
-34.944276
 11
-86.393018
 21
-34.944276
  0
LINE
  5
34F
100
AcDbEntity
  8
0
100
AcDbLine
 62
7
  6
CONTINUOUS
 10
-87.160948
 20
-34.944276
 11
-88.663289
 21
-34.944276
  0
LINE
  5
350
100
AcDbEntity
  8
0
100
AcDbLine
 62
7
  6
CONTINUOUS
 10
-88.931436
 20
-34.944276
 11
-89.181477
 21
-34.944276
  0
LINE
  5
351
100
AcDbEntity
  8
0
100
AcDbLine
 62
7
  6
CONTINUOUS
 10
-76.7
 20
-34.5
 11
-75.9
 21
-34.5
  0
LINE
  5
352
100
AcDbEntity
  8
0
100
AcDbLine
 62
7
  6
CONTINUOUS
 10
-46.3
 20
-34.5
 11
-45.5
 21
-34.5
  0
LINE
  5
353
100
AcDbEntity
  8
0
100
AcDbLine
 62
7
  6
CONTINUOUS
 10
-15.7
 20
-34.5
 11
-14.9
 21
-34.5
  0
LINE
  5
354
100
AcDbEntity
  8
0
100
AcDbLine
 62
7
  6
CONTINUOUS
 10
14.9
 20
-34.5
 11
15.7
 21
-34.5
  0
LINE
  5
355
100
AcDbEntity
  8
0
100
AcDbLine
 62
7
  6
CONTINUOUS
 10
45.5
 20
-34.5
 11
46.3
 21
-34.5
  0
LINE
  5
356
100
AcDbEntity
  8
0
100
AcDbLine
 62
7
  6
CONTINUOUS
 10
75.9
 20
-34.5
 11
76.7
 21
-34.5
  0
LWPOLYLINE
  5
357
100
AcDbEntity
  8
RACCORDO
100
AcDbPolyline
 62
250
  6
CONTINUOUS
 90
3
 70
0
 10
-94.806606613
 20
-38.283165387
 10
-94.7816931022
 20
-38.2836059767
 10
-94.7562294251
 20
-38.2837189313
  0
LWPOLYLINE
  5
358
100
AcDbEntity
  8
0
100
AcDbPolyline
 62
7
  6
CONTINUOUS
 90
12
 70
0
 10
-56.2605554708
 20
-28.5072754318
 10
-56.277316512
 20
-28.5043364063
 10
-56.294456725
 20
-28.501789896
 10
-56.31197611
 20
-28.4996358961
 10
-56.3298811155
 20
-28.4979283679
 10
-56.3481652929
 20
-28.4966133424
 10
-56.3668092959
 20
-28.495528922
 10
-56.385809886
 20
-28.494643012
 10
-56.4051703017
 20
-28.493987705
 10
-56.4248809129
 20
-28.4934973859
 10
-56.4449347721
 20
-28.4931849325
 10
-56.4861042883
 20
-28.4929507388
  0
LINE
  5
359
100
AcDbEntity
  8
RACCORDO
100
AcDbLine
 62
250
  6
CONTINUOUS
 10
-95.3
 20
38.5004111396
 11
-95.0558183435
 21
38.2562294831
  0
LINE
  5
35A
100
AcDbEntity
  8
RACCORDO
100
AcDbLine
 62
250
  6
CONTINUOUS
 10
-95.0004111396
 20
38.8
 11
-94.7562294251
 21
38.5558182856
  0
LWPOLYLINE
  5
35B
100
AcDbEntity
  8
0
100
AcDbPolyline
 62
7
  6
CONTINUOUS
 90
34
 70
0
 10
-84.9602504752
 20
-31.2602480026
 10
-84.9290135227
 20
-31.2597261159
 10
-84.8979644603
 20
-31.2576271758
 10
-84.8671032879
 20
-31.2539511807
 10
-84.8362955862
 20
-31.2487701443
 10
-84.8056757746
 20
-31.2420120453
 10
-84.7756471108
 20
-31.2334608268
 10
-84.7461753737
 20
-31.2230804079
 10
-84.7172947844
 20
-31.2109068511
 10
-84.6895112643
 20
-31.1968323106
 10
-84.6629072523
 20
-31.1807207499
 10
-84.6374003096
 20
-31.1627081737
 10
-84.613249041
 20
-31.1430947973
 10
-84.5905217968
 20
-31.1218278136
 10
-84.5691502266
 20
-31.0989599941
 10
-84.5491878843
 20
-31.074949928
 10
-84.5306430069
 20
-31.0498255816
 10
-84.5135073574
 20
-31.023558959
 10
-84.4978097787
 20
-30.996524716
 10
-84.4835686414
 20
-30.9687299734
 10
-84.4707655749
 20
-30.9401675881
 10
-84.4593743095
 20
-30.9111908302
 10
-84.4494778487
 20
-30.8818214512
 10
-84.440993189
 20
-30.852037687
 10
-84.4336450501
 20
-30.8221275446
 10
-84.4274855597
 20
-30.7921669145
 10
-84.4224625901
 20
-30.7620799031
 10
-84.4181444778
 20
-30.7319268463
 10
-84.414402995
 20
-30.7017375854
 10
-84.4113663696
 20
-30.6714822776
 10
-84.4089876215
 20
-30.6411317334
 10
-84.4072510907
 20
-30.6106762219
 10
-84.4061724374
 20
-30.5801254712
 10
-84.4057516614
 20
-30.54947948
  0
LINE
  5
35C
100
AcDbEntity
  8
0
100
AcDbLine
 62
7
  6
CONTINUOUS
 10
-57.930405
 20
-28.294451
 11
-59.20121
 21
-28.296498
  0
LINE
  5
35D
100
AcDbEntity
  8
0
100
AcDbLine
 62
7
  6
CONTINUOUS
 10
-84.935717
 20
-34.134748
 11
-85.216583
 21
-34.134748
  0
LINE
  5
35E
100
AcDbEntity
  8
0
100
AcDbLine
 62
7
  6
CONTINUOUS
 10
-86.16228
 20
-34.134748
 11
-86.404689
 21
-34.134748
  0
LINE
  5
35F
100
AcDbEntity
  8
0
100
AcDbLine
 62
7
  6
CONTINUOUS
 10
-86.832348
 20
-34.134748
 11
-87.082389
 21
-34.134748
  0
LINE
  5
360
100
AcDbEntity
  8
0
100
AcDbLine
 62
7
  6
CONTINUOUS
 10
-84.935717
 20
-32.285252
 11
-85.177827
 21
-32.285252
  0
LINE
  5
361
100
AcDbEntity
  8
0
100
AcDbLine
 62
7
  6
CONTINUOUS
 10
-86.108261
 20
-32.285252
 11
-86.404689
 21
-32.285252
  0
LINE
  5
362
100
AcDbEntity
  8
0
100
AcDbLine
 62
7
  6
CONTINUOUS
 10
-86.832348
 20
-32.285252
 11
-87.082389
 21
-32.285252
  0
LINE
  5
363
100
AcDbEntity
  8
0
100
AcDbLine
 62
7
  6
CONTINUOUS
 10
-82.437252
 20
-31.474227
 11
-83.803125
 21
-31.474227
  0
LINE
  5
364
100
AcDbEntity
  8
0
100
AcDbLine
 62
7
  6
CONTINUOUS
 10
-84.9267388397
 20
-31.474227
 11
-85.676563
 21
-31.474227
  0
LINE
  5
365
100
AcDbEntity
  8
0
100
AcDbLine
 62
7
  6
CONTINUOUS
 10
-85.918823
 20
-31.474227
 11
-86.191908
 21
-31.474227
  0
LINE
  5
366
100
AcDbEntity
  8
0
100
AcDbLine
 62
7
  6
CONTINUOUS
 10
-87.310434
 20
-31.474227
 11
-87.568106
 21
-31.474227
  0
LINE
  5
367
100
AcDbEntity
  8
0
100
AcDbLine
 62
7
  6
CONTINUOUS
 10
-87.789716
 20
-31.474227
 11
-88.031976
 21
-31.474227
  0
LINE
  5
368
100
AcDbEntity
  8
0
100
AcDbLine
 62
7
  6
CONTINUOUS
 10
-88.552558
 20
-31.474227
 11
-88.799906
 21
-31.474227
  0
LINE
  5
369
100
AcDbEntity
  8
0
100
AcDbLine
 62
7
  6
CONTINUOUS
 10
-89.320488
 20
-31.474227
 11
-89.562748
 21
-31.474227
  0
LINE
  5
36A
100
AcDbEntity
  8
0
100
AcDbLine
 62
7
  6
CONTINUOUS
 10
-84.9602572085
 20
-31.260248
 11
-85.426671
 21
-31.260248
  0
LINE
  5
36B
100
AcDbEntity
  8
0
100
AcDbLine
 62
7
  6
CONTINUOUS
 10
-82.437252
 20
-31.252767
 11
-83.553084
 21
-31.252767
  0
LINE
  5
36C
100
AcDbEntity
  8
0
100
AcDbLine
 62
7
  6
CONTINUOUS
 10
-86.374912
 20
-30.935539
 11
-87.117104
 21
-30.935539
  0
LINE
  5
36D
100
AcDbEntity
  8
0
100
AcDbLine
 62
7
  6
CONTINUOUS
 10
-86.465142
 20
-30.714079
 11
-87.039743
 21
-30.714079
  0
LINE
  5
36E
100
AcDbEntity
  8
0
100
AcDbLine
 62
7
  6
CONTINUOUS
 10
-82.540351
 20
-30.634772
 11
-83.553084
 21
-30.634772
  0
LINE
  5
36F
100
AcDbEntity
  8
0
100
AcDbLine
 62
7
  6
CONTINUOUS
 10
-82.540351
 20
-30.413311
 11
-83.553084
 21
-30.413311
  0
LINE
  5
370
100
AcDbEntity
  8
0
100
AcDbLine
 62
7
  6
CONTINUOUS
 10
-82.455358
 20
-29.846192
 11
-83.553084
 21
-29.846192
  0
LINE
  5
371
100
AcDbEntity
  8
0
100
AcDbLine
 62
7
  6
CONTINUOUS
 10
-84.9602572085
 20
-29.83871
 11
-85.426671
 21
-29.83871
  0
LINE
  5
372
100
AcDbEntity
  8
0
100
AcDbLine
 62
7
  6
CONTINUOUS
 10
-54.6950712848
 20
-29.825147
 11
-55.1943891542
 21
-29.825147
  0
LINE
  5
373
100
AcDbEntity
  8
0
100
AcDbLine
 62
7
  6
CONTINUOUS
 10
-56.942002
 20
-29.825147
 11
-57.339
 21
-29.825147
  0
LINE
  5
374
100
AcDbEntity
  8
0
100
AcDbLine
 62
7
  6
CONTINUOUS
 10
-82.455358
 20
-29.624732
 11
-83.803125
 21
-29.624732
  0
LINE
  5
375
100
AcDbEntity
  8
0
100
AcDbLine
 62
7
  6
CONTINUOUS
 10
-84.9267388397
 20
-29.624732
 11
-85.676563
 21
-29.624732
  0
LINE
  5
376
100
AcDbEntity
  8
0
100
AcDbLine
 62
7
  6
CONTINUOUS
 10
-86.588891
 20
-29.624732
 11
-86.872301
 21
-29.624732
  0
LINE
  5
377
100
AcDbEntity
  8
0
100
AcDbLine
 62
7
  6
CONTINUOUS
 10
-87.789716
 20
-29.624732
 11
-88.1454
 21
-29.624732
  0
LINE
  5
378
100
AcDbEntity
  8
0
100
AcDbLine
 62
7
  6
CONTINUOUS
 10
-89.204521
 20
-29.624732
 11
-89.562748
 21
-29.624732
  0
LINE
  5
379
100
AcDbEntity
  8
0
100
AcDbLine
 62
7
  6
CONTINUOUS
 10
71.117556
 20
-28.675
 11
69.657055
 21
-28.675
  0
LINE
  5
37A
100
AcDbEntity
  8
0
100
AcDbLine
 62
7
  6
CONTINUOUS
 10
-58.319219
 20
-28.648476
 11
-59.20121
 21
-28.648476
  0
LINE
  5
37B
100
AcDbEntity
  8
0
100
AcDbLine
 62
7
  6
CONTINUOUS
 10
71.117556
 20
-27.925
 11
69.657051888
 21
-27.925
  0
LINE
  5
37C
100
AcDbEntity
  8
0
100
AcDbLine
 62
7
  6
CONTINUOUS
 10
-56.942002
 20
-28.149158107
 11
-56.0696858494
 21
-28.1491164602
  0
LINE
  5
37D
100
AcDbEntity
  8
0
100
AcDbLine
 62
7
  6
CONTINUOUS
 10
-56.4861042883
 20
-28.4929507388
 11
-56.942002
 21
-28.4929507388
  0
LWPOLYLINE
  5
37E
100
AcDbEntity
  8
0
100
AcDbPolyline
 62
7
  6
CONTINUOUS
 90
31
 70
0
 10
-84.926734141
 20
-29.6247319981
 10
-84.8810296824
 20
-29.6258035898
 10
-84.8356889208
 20
-29.629359464
 10
-84.7907118561
 20
-29.6353996162
 10
-84.7459036356
 20
-29.6438639146
 10
-84.701459112
 20
-29.6548124726
 10
-84.6579628438
 20
-29.6684256483
 10
-84.6154097099
 20
-29.6847730087
 10
-84.5738048314
 20
-29.7037849454
 10
-84.5337481304
 20
-29.7254330467
 10
-84.4952711888
 20
-29.7498202071
 10
-84.4583424248
 20
-29.7768434687
 10
-84.4234670145
 20
-29.806165641
 10
-84.3907621605
 20
-29.8378952585
 10
-84.3601106604
 20
-29.8719237129
 10
-84.3316660826
 20
-29.9075881119
 10
-84.3054988057
 20
-29.9448611669
 10
-84.2815384513
 20
-29.9837701047
 10
-84.2597274527
 20
-30.0237338271
 10
-84.2401309353
 20
-30.0647230925
 10
-84.2226837738
 20
-30.1067670979
 10
-84.207133026
 20
-30.1493724252
 10
-84.1934055422
 20
-30.1924471335
 10
-84.1815744722
 20
-30.2360831391
 10
-84.1716063229
 20
-30.280062826
 10
-84.1635486582
 20
-30.3243596951
 10
-84.1573539142
 20
-30.369000229
 10
-84.1528459063
 20
-30.4138462922
 10
-84.1499659061
 20
-30.4588518374
 10
-84.1487726419
 20
-30.5040629018
 10
-84.1492661138
 20
-30.54947948
  0
LWPOLYLINE
  5
37F
100
AcDbEntity
  8
0
100
AcDbPolyline
 62
7
  6
CONTINUOUS
 90
30
 70
0
 10
79.884276596
 20
-34.953411
 10
79.9131224591
 20
-34.9541814582
 10
79.9418025014
 20
-34.9561100669
 10
79.9703167226
 20
-34.9591968246
 10
79.9987178321
 20
-34.9634103467
 10
80.0269531207
 20
-34.9687820129
 10
80.0548644608
 20
-34.9754059662
 10
80.0824647104
 20
-34.9832685798
 10
80.1097410116
 20
-34.9923834697
 10
80.1364966626
 20
-35.0028856401
 10
80.1628035674
 20
-35.0147840472
 10
80.1885898222
 20
-35.0280697161
 10
80.2134430138
 20
-35.0428507514
 10
80.2373516923
 20
-35.0592059482
 10
80.2603273076
 20
-35.0770564827
 10
80.2819917971
 20
-35.0962740304
 10
80.3022923679
 20
-35.11691853
 10
80.3212818129
 20
-35.1389300091
 10
80.3387404478
 20
-35.1620002811
 10
80.3545812972
 20
-35.186177394
 10
80.3688913364
 20
-35.2114132688
 10
80.3817118075
 20
-35.2372555383
 10
80.3930310943
 20
-35.2636257182
 10
80.402860813
 20
-35.2906022742
 10
80.4112770542
 20
-35.3179682739
 10
80.4183003096
 20
-35.3457208368
 10
80.4239100875
 20
-35.37386283
 10
80.4281210033
 20
-35.4021859498
 10
80.4309379288
 20
-35.4306207612
 10
80.4323559922
 20
-35.4592366934
  0
LWPOLYLINE
  5
380
100
AcDbEntity
  8
0
100
AcDbPolyline
 62
7
  6
CONTINUOUS
 90
30
 70
0
 10
86.3280902557
 20
-34.953411
 10
86.3569361188
 20
-34.9541814582
 10
86.385616161
 20
-34.9561100669
 10
86.4141303823
 20
-34.9591968246
 10
86.4425314918
 20
-34.9634103467
 10
86.4707667804
 20
-34.9687820129
 10
86.4986781205
 20
-34.9754059662
 10
86.5262783701
 20
-34.9832685798
 10
86.5535546713
 20
-34.9923834697
 10
86.5803103223
 20
-35.0028856401
 10
86.6066172271
 20
-35.0147840472
 10
86.6324034819
 20
-35.0280697161
 10
86.6572566735
 20
-35.0428507514
 10
86.6811653519
 20
-35.0592059482
 10
86.7041409673
 20
-35.0770564827
 10
86.7258054568
 20
-35.0962740304
 10
86.7461060276
 20
-35.11691853
 10
86.7650954726
 20
-35.1389300091
 10
86.7825541075
 20
-35.1620002811
 10
86.7983949569
 20
-35.186177394
 10
86.8127049961
 20
-35.2114132688
 10
86.8255254672
 20
-35.2372555383
 10
86.836844754
 20
-35.2636257182
 10
86.8466744727
 20
-35.2906022742
 10
86.8550907139
 20
-35.3179682739
 10
86.8621139693
 20
-35.3457208368
 10
86.8677237472
 20
-35.37386283
 10
86.871934663
 20
-35.4021859498
 10
86.8747515885
 20
-35.4306207612
 10
86.8761696519
 20
-35.4592366934
  0
LWPOLYLINE
  5
381
100
AcDbEntity
  8
0
100
AcDbPolyline
 62
7
  6
CONTINUOUS
 90
34
 70
0
 10
91.5301253106
 20
-34.9534109984
 10
91.5719426406
 20
-34.9545976976
 10
91.6134960508
 20
-34.957891065
 10
91.6547855412
 20
-34.9632910964
 10
91.6959659974
 20
-34.970814329
 10
91.7368825338
 20
-34.980444209
 10
91.7770704936
 20
-34.9921310919
 10
91.8165303154
 20
-35.0058611991
 10
91.8552615606
 20
-35.0216482775
 10
91.8927982567
 20
-35.0394839673
 10
91.9291303662
 20
-35.0593963523
 10
91.9642679266
 20
-35.0813573014
 10
91.9977750781
 20
-35.1052741298
 10
92.0295888219
 20
-35.1312292731
 10
92.0597721567
 20
-35.1591402354
 10
92.0880782195
 20
-35.1886669378
 10
92.1144289703
 20
-35.2198306809
 10
92.138902449
 20
-35.2526101038
 10
92.1614859119
 20
-35.2866011464
 10
92.1820485828
 20
-35.3218251739
 10
92.2007212378
 20
-35.3582607692
 10
92.2178834626
 20
-35.3954397161
 10
92.2336567106
 20
-35.4332857719
 10
92.2479195282
 20
-35.4718751457
 10
92.260687141
 20
-35.5109683147
 10
92.2720216309
 20
-35.5505390128
 10
92.2818609158
 20
-35.5906134813
 10
92.2900339749
 20
-35.6310309682
 10
92.2963511439
 20
-35.6718122044
 10
92.3010020871
 20
-35.7129364406
 10
92.3043847767
 20
-35.7541807132
 10
92.3066318701
 20
-35.7954707013
 10
92.30761071
 20
-35.8368807202
 10
92.3073212962
 20
-35.8784107664
  0
LWPOLYLINE
  5
382
100
AcDbEntity
  8
0
100
AcDbPolyline
 62
7
  6
CONTINUOUS
 90
56
 70
0
 10
-56.0696858494
 20
-28.1491164602
 10
-56.0291688562
 20
-28.1484518642
 10
-55.9895911986
 20
-28.1470767666
 10
-55.9509654425
 20
-28.1450971386
 10
-55.9131528839
 20
-28.142304823
 10
-55.8761530383
 20
-28.1387195486
 10
-55.83996639
 20
-28.1343216122
 10
-55.8044556887
 20
-28.1288437219
 10
-55.7695682679
 20
-28.1223681578
 10
-55.7353567939
 20
-28.1148127023
 10
-55.7018420153
 20
-28.1056633515
 10
-55.6688631174
 20
-28.094855316
 10
-55.6365809149
 20
-28.0824535459
 10
-55.6054986007
 20
-28.0681387056
 10
-55.5756415209
 20
-28.0518438558
 10
-55.5469843293
 20
-28.0336362327
 10
-55.5199541799
 20
-28.0133978228
 10
-55.4945918259
 20
-27.9910144925
 10
-55.470856514
 20
-27.9666008207
 10
-55.4490531392
 20
-27.9403818775
 10
-55.4292249996
 20
-27.9123090337
 10
-55.411328797
 20
-27.8824314235
 10
-55.3955395316
 20
-27.8511207046
 10
-55.3817476643
 20
-27.8183078668
 10
-55.3700627343
 20
-27.7840624046
 10
-55.360988359
 20
-27.7489635927
 10
-55.3546935129
 20
-27.7129282836
 10
-55.3510092216
 20
-27.6760399591
 10
-55.3499321794
 20
-27.6391275866
 10
-55.3514583481
 20
-27.6020814585
 10
-55.3555917658
 20
-27.5650113201
 10
-55.3623412414
 20
-27.5290749395
 10
-55.3718661062
 20
-27.4944250793
 10
-55.3840070288
 20
-27.4609085531
 10
-55.3982948236
 20
-27.4292238703
 10
-55.4147744482
 20
-27.3996214704
 10
-55.433400945
 20
-27.3718503045
 10
-55.4535702554
 20
-27.345856559
 10
-55.4751040763
 20
-27.3216017365
 10
-55.4981807108
 20
-27.2991238694
 10
-55.5227310097
 20
-27.2784839627
 10
-55.5488153969
 20
-27.259737922
 10
-55.5763734484
 20
-27.2428294548
 10
-55.605154744
 20
-27.2276512971
 10
-55.6351996064
 20
-27.2142552869
 10
-55.6664677127
 20
-27.2025893201
 10
-55.6985876743
 20
-27.1923902702
 10
-55.7314296977
 20
-27.1836623698
 10
-55.7651235764
 20
-27.1764012375
 10
-55.7996873016
 20
-27.1703308699
 10
-55.8351113637
 20
-27.1654221993
 10
-55.8714052722
 20
-27.161704224
 10
-55.9086155469
 20
-27.1589880657
 10
-55.9467449155
 20
-27.1574585206
 10
-55.9857906503
 20
-27.1569307684
 10
-56.0667170243
 20
-27.1564891848
  0
LINE
  5
383
100
AcDbEntity
  8
0
100
AcDbLine
 62
7
  6
CONTINUOUS
 10
-56.0667170243
 20
-27.1564891848
 11
-56.942002
 21
-27.156661521
  0
LINE
  5
384
100
AcDbEntity
  8
RACCORDO
100
AcDbLine
 62
7
  6
CONTINUOUS
 10
93.6
 20
-26.3
 11
95.2790368883
 21
-26.3
  0
LINE
  5
385
100
AcDbEntity
  8
RACCORDO
100
AcDbLine
 62
7
  6
CONTINUOUS
 10
-93.6
 20
-26.3
 11
-95.2790368883
 21
-26.3
  0
LINE
  5
386
100
AcDbEntity
  8
RACCORDO
100
AcDbLine
 62
7
  6
CONTINUOUS
 10
93.6
 20
-25.5
 11
95.2790368883
 21
-25.5
  0
LINE
  5
387
100
AcDbEntity
  8
RACCORDO
100
AcDbLine
 62
7
  6
CONTINUOUS
 10
-93.6
 20
-25.5
 11
-95.2790368883
 21
-25.5
  0
LINE
  5
388
100
AcDbEntity
  8
0
100
AcDbLine
 62
7
  6
CONTINUOUS
 10
-76.7
 20
-24.8588209066
 11
-75.9
 21
-24.8588209066
  0
LINE
  5
389
100
AcDbEntity
  8
0
100
AcDbLine
 62
7
  6
CONTINUOUS
 10
-46.3
 20
-24.8588209066
 11
-45.5
 21
-24.8588209066
  0
LINE
  5
38A
100
AcDbEntity
  8
0
100
AcDbLine
 62
7
  6
CONTINUOUS
 10
-15.7
 20
-24.8588209066
 11
-14.9
 21
-24.8588209066
  0
LINE
  5
38B
100
AcDbEntity
  8
0
100
AcDbLine
 62
7
  6
CONTINUOUS
 10
14.9
 20
-24.8588209066
 11
15.7
 21
-24.8588209066
  0
LINE
  5
38C
100
AcDbEntity
  8
0
100
AcDbLine
 62
7
  6
CONTINUOUS
 10
45.5
 20
-24.8588209066
 11
46.3
 21
-24.8588209066
  0
LINE
  5
38D
100
AcDbEntity
  8
0
100
AcDbLine
 62
7
  6
CONTINUOUS
 10
75.9
 20
-24.8588209066
 11
76.7
 21
-24.8588209066
  0
LINE
  5
38E
100
AcDbEntity
  8
DRAFT
100
AcDbLine
 62
7
  6
CONTINUOUS
 10
95.0536834374
 20
-23.3
 11
76.7
 21
-23.3
  0
LINE
  5
38F
100
AcDbEntity
  8
0
100
AcDbLine
 62
7
  6
CONTINUOUS
 10
-75.9
 20
-23.3
 11
-46.3
 21
-23.3
  0
LINE
  5
390
100
AcDbEntity
  8
0
100
AcDbLine
 62
7
  6
CONTINUOUS
 10
-45.5
 20
-23.3
 11
-15.7
 21
-23.3
  0
LINE
  5
391
100
AcDbEntity
  8
0
100
AcDbLine
 62
7
  6
CONTINUOUS
 10
-14.9
 20
-23.3
 11
14.9
 21
-23.3
  0
LINE
  5
392
100
AcDbEntity
  8
0
100
AcDbLine
 62
7
  6
CONTINUOUS
 10
15.7
 20
-23.3
 11
45.5
 21
-23.3
  0
LINE
  5
393
100
AcDbEntity
  8
0
100
AcDbLine
 62
7
  6
CONTINUOUS
 10
46.3
 20
-23.3
 11
75.9
 21
-23.3
  0
LINE
  5
394
100
AcDbEntity
  8
DRAFT
100
AcDbLine
 62
7
  6
CONTINUOUS
 10
-76.7
 20
-23.3
 11
-95.0536834374
 21
-23.3
  0
LINE
  5
395
100
AcDbEntity
  8
DRAFT
100
AcDbLine
 62
7
  6
CONTINUOUS
 10
-95.0536834374
 20
-22.5
 11
-76.7
 21
-22.5
  0
LINE
  5
396
100
AcDbEntity
  8
0
100
AcDbLine
 62
7
  6
CONTINUOUS
 10
-76.7
 20
-22.5
 11
76.7
 21
-22.5
  0
LINE
  5
397
100
AcDbEntity
  8
DRAFT
100
AcDbLine
 62
7
  6
CONTINUOUS
 10
76.7
 20
-22.5
 11
95.0536834374
 21
-22.5
  0
LINE
  5
398
100
AcDbEntity
  8
0
100
AcDbLine
 62
7
  6
CONTINUOUS
 10
-57.339
 20
-26.8251471975
 11
-56.0107140392
 21
-26.8252489085
  0
LWPOLYLINE
  5
399
100
AcDbEntity
  8
0
100
AcDbPolyline
 62
7
  6
CONTINUOUS
 90
57
 70
0
 10
-56.0107140392
 20
-26.8252489085
 10
-55.9566307348
 20
-26.8255193941
 10
-55.9024994761
 20
-26.82666617
 10
-55.8481077276
 20
-26.828808534
 10
-55.7936680247
 20
-26.8318272049
 10
-55.739941298
 20
-26.8360718433
 10
-55.6868924593
 20
-26.8415516868
 10
-55.6345565968
 20
-26.8482575636
 10
-55.583799905
 20
-26.8565115497
 10
-55.5348554806
 20
-26.8662040328
 10
-55.4874902269
 20
-26.8774447744
 10
-55.4418710493
 20
-26.8908849827
 10
-55.3980432352
 20
-26.9066014745
 10
-55.3559614973
 20
-26.9245177881
 10
-55.3156568786
 20
-26.9450553367
 10
-55.2771687871
 20
-26.9683125814
 10
-55.2404578149
 20
-26.9941916931
 10
-55.2054367816
 20
-27.0228197634
 10
-55.1720173682
 20
-27.0542971118
 10
-55.1402878936
 20
-27.0885243194
 10
-55.1104261339
 20
-27.1253289148
 10
-55.0823498269
 20
-27.1647674894
 10
-55.0561412347
 20
-27.2067845025
 10
-55.0322249202
 20
-27.2510392245
 10
-55.0104720499
 20
-27.2978042823
 10
-54.9910114572
 20
-27.3468081529
 10
-54.9746542054
 20
-27.3968935401
 10
-54.9616865336
 20
-27.4479997691
 10
-54.9518222028
 20
-27.5001880443
 10
-54.945013559
 20
-27.5524833281
 10
-54.9412918764
 20
-27.6048478244
 10
-54.9406258808
 20
-27.6573193401
 10
-54.9428740952
 20
-27.7090357418
 10
-54.9479518067
 20
-27.759871271
 10
-54.9559437282
 20
-27.8099512272
 10
-54.9669625215
 20
-27.8587897137
 10
-54.9811110172
 20
-27.9063741864
 10
-54.9982863846
 20
-27.952716547
 10
-55.0182927929
 20
-27.9973673537
 10
-55.0411185141
 20
-28.0401882072
 10
-55.0667752762
 20
-28.0813167191
 10
-55.0951024326
 20
-28.1207173781
 10
-55.1260127709
 20
-28.1585226513
 10
-55.1595935034
 20
-28.1945994086
 10
-55.1959456203
 20
-28.2285136834
 10
-55.2352621159
 20
-28.2601763068
 10
-55.2773499959
 20
-28.289675729
 10
-55.3217312666
 20
-28.3168443482
 10
-55.3685913679
 20
-28.3416103153
 10
-55.4177448599
 20
-28.364044876
 10
-55.4681574304
 20
-28.3841950933
 10
-55.5198254439
 20
-28.4019654315
 10
-55.5727525359
 20
-28.417450997
 10
-55.6259152998
 20
-28.4309848856
 10
-55.6789726003
 20
-28.4426780604
 10
-55.7322655728
 20
-28.4524193237
 10
-55.7857942173
 20
-28.4602085834
  0
LINE
  5
39A
100
AcDbEntity
  8
0
100
AcDbLine
 62
7
  6
CONTINUOUS
 10
-72.918141
 20
33.647655
 11
-71.648398
 21
32.577635
  0
LINE
  5
39B
100
AcDbEntity
  8
0
100
AcDbLine
 62
7
  6
CONTINUOUS
 10
-72.976748
 20
34.282247
 11
-71.648398
 21
33.162838
  0
LWPOLYLINE
  5
39C
100
AcDbEntity
  8
RACCORDO
100
AcDbPolyline
 62
250
  6
CONTINUOUS
 90
40
 70
0
 10
-15.7
 20
37.8647665246
 10
-15.6987029233
 20
37.8325847993
 10
-15.6948201051
 20
37.8006117848
 10
-15.688376727
 20
37.7690548385
 10
-15.6794145768
 20
37.7381186191
 10
-15.6679917775
 20
37.70800376
 10
-15.6541824103
 20
37.6789055676
 10
-15.6380760342
 20
37.6510127549
 10
-15.6197771054
 20
37.6245062173
 10
-15.5994042993
 20
37.59955786
 10
-15.5770897414
 20
37.5763294827
 10
-15.5529781502
 20
37.5549717303
 10
-15.5272258987
 20
37.535623116
 10
-15.5
 20
37.518409123
 10
-15.4714770246
 20
37.5034413907
 10
-15.4418419548
 20
37.4908169905
 10
-15.4112869856
 20
37.4806177966
 10
-15.3800102775
 20
37.4729099545
 10
-15.3482146721
 20
37.4677434527
 10
-15.316106376
 20
37.4651517979
 10
-15.283893624
 20
37.4651517979
 10
-15.2517853279
 20
37.4677434527
 10
-15.2199897225
 20
37.4729099545
 10
-15.1887130144
 20
37.4806177966
 10
-15.1581580452
 20
37.4908169905
 10
-15.1285229754
 20
37.5034413907
 10
-15.1
 20
37.518409123
 10
-15.0727741013
 20
37.535623116
 10
-15.0470218498
 20
37.5549717303
 10
-15.0229102586
 20
37.5763294827
 10
-15.0005957007
 20
37.59955786
 10
-14.9802228946
 20
37.6245062173
 10
-14.9619239658
 20
37.6510127549
 10
-14.9458175897
 20
37.6789055676
 10
-14.9320082225
 20
37.70800376
 10
-14.9205854232
 20
37.7381186191
 10
-14.911623273
 20
37.7690548385
 10
-14.9051798949
 20
37.8006117848
 10
-14.9012970767
 20
37.8325847993
 10
-14.9
 20
37.8647665246
  0
LINE
  5
39D
100
AcDbEntity
  8
0
100
AcDbLine
 62
7
  6
CONTINUOUS
 10
-15.7
 20
-23.3
 11
-15.7
 21
-34.5
  0
LINE
  5
39E
100
AcDbEntity
  8
RACCORDO
100
AcDbLine
 62
7
  6
CONTINUOUS
 10
-15.7
 20
-34.5
 11
-15.7
 21
-38.7790368883
  0
LINE
  5
39F
100
AcDbEntity
  8
0
100
AcDbLine
 62
7
  6
CONTINUOUS
 10
-15.7
 20
23.3
 11
-15.7
 21
34.5
  0
LINE
  5
3A0
100
AcDbEntity
  8
RACCORDO
100
AcDbLine
 62
7
  6
CONTINUOUS
 10
-15.7
 20
34.5
 11
-15.7
 21
38.7790368883
  0
LINE
  5
3A1
100
AcDbEntity
  8
RACCORDO
100
AcDbLine
 62
7
  6
CONTINUOUS
 10
-14.9
 20
38.7790368883
 11
-14.9
 21
34.5
  0
LINE
  5
3A2
100
AcDbEntity
  8
0
100
AcDbLine
 62
7
  6
CONTINUOUS
 10
-14.9
 20
-23.3
 11
-14.9
 21
-34.5
  0
LINE
  5
3A3
100
AcDbEntity
  8
RACCORDO
100
AcDbLine
 62
7
  6
CONTINUOUS
 10
-14.9
 20
-34.5
 11
-14.9
 21
-38.7790368883
  0
LINE
  5
3A4
100
AcDbEntity
  8
0
100
AcDbLine
 62
7
  6
CONTINUOUS
 10
-14.9
 20
23.3
 11
-14.9
 21
34.5
  0
LWPOLYLINE
  5
3A5
100
AcDbEntity
  8
RACCORDO
100
AcDbPolyline
 62
250
  6
CONTINUOUS
 90
40
 70
0
 10
-15.7
 20
-37.8647665246
 10
-15.698702994
 20
-37.8325856025
 10
-15.6948203318
 20
-37.8006130519
 10
-15.6883771106
 20
-37.7690562301
 10
-15.6794149971
 20
-37.7381197017
 10
-15.6679920544
 20
-37.7080042404
 10
-15.6541824572
 20
-37.6789054933
 10
-15.6380758337
 20
-37.6510122729
 10
-15.6197766031
 20
-37.624505382
 10
-15.5994034605
 20
-37.5995567438
 10
-15.5770885464
 20
-37.576328162
 10
-15.5529765881
 20
-37.5549702778
 10
-15.5272239728
 20
-37.5356216048
 10
-15.4999977285
 20
-37.5184076242
 10
-15.4714744322
 20
-37.5034399672
 10
-15.4418390676
 20
-37.4908156954
 10
-15.4112838394
 20
-37.480616678
 10
-15.3800069118
 20
-37.4729090524
 10
-15.3482111139
 20
-37.4677427976
 10
-15.316102657
 20
-37.4651514164
 10
-15.2838897777
 20
-37.4651517124
 10
-15.2517813699
 20
-37.4677436838
 10
-15.2199856698
 20
-37.4729105231
 10
-15.1887088881
 20
-37.4806187235
 10
-15.158153853
 20
-37.4908183026
 10
-15.1285187274
 20
-37.5034431191
 10
-15.0999957145
 20
-37.5184113003
 10
-15.0727697961
 20
-37.5356257814
 10
-15.0470175471
 20
-37.5549749277
 10
-15.0229059931
 20
-37.5763332551
 10
-15.0005915188
 20
-37.599562247
 10
-14.9802188486
 20
-37.6245112597
 10
-14.9619201198
 20
-37.6510184869
 10
-14.9458140243
 20
-37.6789120033
 10
-14.9320048681
 20
-37.7080112541
 10
-14.9205824278
 20
-37.7381271912
 10
-14.9116210776
 20
-37.7690633686
 10
-14.9051787236
 20
-37.8006186969
 10
-14.9012967352
 20
-37.8325888599
 10
-14.9
 20
-37.8647665246
  0
LINE
  5
3A6
100
AcDbEntity
  8
DRAFT
100
AcDbLine
 62
7
  6
CONTINUOUS
 10
95.3
 20
-20.0
 11
93.75
 21
-20.0
  0
LINE
  5
3A7
100
AcDbEntity
  8
0
100
AcDbLine
 62
7
  6
CONTINUOUS
 10
-93.75
 20
-20.0
 11
-93.1
 21
-20.0
  0
LINE
  5
3A8
100
AcDbEntity
  8
0
100
AcDbLine
 62
7
  6
CONTINUOUS
 10
93.1
 20
-20.0
 11
93.75
 21
-20.0
  0
LINE
  5
3A9
100
AcDbEntity
  8
DRAFT
100
AcDbLine
 62
7
  6
CONTINUOUS
 10
-93.75
 20
-20.0
 11
-95.3
 21
-20.0
  0
LINE
  5
3AA
100
AcDbEntity
  8
DRAFT
100
AcDbLine
 62
7
  6
CONTINUOUS
 10
-95.3
 20
-19.2
 11
-93.75
 21
-19.2
  0
LINE
  5
3AB
100
AcDbEntity
  8
0
100
AcDbLine
 62
7
  6
CONTINUOUS
 10
-93.75
 20
-19.2
 11
-93.1
 21
-19.2
  0
LINE
  5
3AC
100
AcDbEntity
  8
0
100
AcDbLine
 62
7
  6
CONTINUOUS
 10
93.1
 20
-19.2
 11
93.75
 21
-19.2
  0
LINE
  5
3AD
100
AcDbEntity
  8
DRAFT
100
AcDbLine
 62
7
  6
CONTINUOUS
 10
93.75
 20
-19.2
 11
95.3
 21
-19.2
  0
LINE
  5
3AE
100
AcDbEntity
  8
DRAFT
100
AcDbLine
 62
7
  6
CONTINUOUS
 10
95.3
 20
-17.4
 11
93.75
 21
-17.4
  0
LINE
  5
3AF
100
AcDbEntity
  8
0
100
AcDbLine
 62
7
  6
CONTINUOUS
 10
-93.75
 20
-17.4
 11
-93.1
 21
-17.4
  0
LINE
  5
3B0
100
AcDbEntity
  8
0
100
AcDbLine
 62
7
  6
CONTINUOUS
 10
93.1
 20
-17.4
 11
93.75
 21
-17.4
  0
LINE
  5
3B1
100
AcDbEntity
  8
DRAFT
100
AcDbLine
 62
7
  6
CONTINUOUS
 10
-93.75
 20
-17.4
 11
-95.3
 21
-17.4
  0
LINE
  5
3B2
100
AcDbEntity
  8
DRAFT
100
AcDbLine
 62
7
  6
CONTINUOUS
 10
-95.3
 20
-16.6
 11
-93.75
 21
-16.6
  0
LINE
  5
3B3
100
AcDbEntity
  8
0
100
AcDbLine
 62
7
  6
CONTINUOUS
 10
-93.75
 20
-16.6
 11
-93.1
 21
-16.6
  0
LINE
  5
3B4
100
AcDbEntity
  8
0
100
AcDbLine
 62
7
  6
CONTINUOUS
 10
93.1
 20
-16.6
 11
93.75
 21
-16.6
  0
LINE
  5
3B5
100
AcDbEntity
  8
DRAFT
100
AcDbLine
 62
7
  6
CONTINUOUS
 10
93.75
 20
-16.6
 11
95.3
 21
-16.6
  0
LINE
  5
3B6
100
AcDbEntity
  8
DRAFT
100
AcDbLine
 62
7
  6
CONTINUOUS
 10
95.3
 20
-14.8
 11
93.75
 21
-14.8
  0
LINE
  5
3B7
100
AcDbEntity
  8
0
100
AcDbLine
 62
7
  6
CONTINUOUS
 10
-93.75
 20
-14.8
 11
-93.1
 21
-14.8
  0
LINE
  5
3B8
100
AcDbEntity
  8
0
100
AcDbLine
 62
7
  6
CONTINUOUS
 10
93.1
 20
-14.8
 11
93.75
 21
-14.8
  0
LINE
  5
3B9
100
AcDbEntity
  8
DRAFT
100
AcDbLine
 62
7
  6
CONTINUOUS
 10
-93.75
 20
-14.8
 11
-95.3
 21
-14.8
  0
LINE
  5
3BA
100
AcDbEntity
  8
DRAFT
100
AcDbLine
 62
7
  6
CONTINUOUS
 10
-95.3
 20
-14.0
 11
-93.75
 21
-14.0
  0
LINE
  5
3BB
100
AcDbEntity
  8
0
100
AcDbLine
 62
7
  6
CONTINUOUS
 10
-93.75
 20
-14.0
 11
-93.1
 21
-14.0
  0
LINE
  5
3BC
100
AcDbEntity
  8
0
100
AcDbLine
 62
7
  6
CONTINUOUS
 10
93.1
 20
-14.0
 11
93.75
 21
-14.0
  0
LINE
  5
3BD
100
AcDbEntity
  8
DRAFT
100
AcDbLine
 62
7
  6
CONTINUOUS
 10
93.75
 20
-14.0
 11
95.3
 21
-14.0
  0
LWPOLYLINE
  5
3BE
100
AcDbEntity
  8
0
100
AcDbPolyline
 62
7
  6
CONTINUOUS
 90
73
 70
0
 10
-57.930405
 20
-29.4076843893
 10
-57.9863843008
 20
-29.4512348502
 10
-58.0432281836
 20
-29.4929298735
 10
-58.1009366485
 20
-29.5327691073
 10
-58.1593509924
 20
-29.5707479136
 10
-58.2186299183
 20
-29.6068702793
 10
-58.2792495358
 20
-29.6411488185
 10
-58.3412295113
 20
-29.6736692639
 10
-58.4045501783
 20
-29.7043453452
 10
-58.4696286475
 20
-29.7329316662
 10
-58.5365631413
 20
-29.7595216755
 10
-58.6052554373
 20
-29.7840214291
 10
-58.6758279786
 20
-29.8059043845
 10
-58.7485546294
 20
-29.8251917009
 10
-58.8231615256
 20
-29.8418617568
 10
-58.8989495178
 20
-29.855323787
 10
-58.9759880413
 20
-29.8654166783
 10
-59.0542076608
 20
-29.8723012162
 10
-59.1327009213
 20
-29.8758695046
 10
-59.2113737143
 20
-29.8760947091
 10
-59.2903201483
 20
-29.8730036105
 10
-59.3689150939
 20
-29.8665688029
 10
-59.4471929228
 20
-29.8568342173
 10
-59.5251192633
 20
-29.8437561519
 10
-59.6019658706
 20
-29.8271758327
 10
-59.6778824178
 20
-29.8068852147
 10
-59.7527192319
 20
-29.783092907
 10
-59.8252990497
 20
-29.7562651587
 10
-59.8955148496
 20
-29.7263986595
 10
-59.9634736533
 20
-29.6934974662
 10
-60.0283192624
 20
-29.6580388248
 10
-60.0897913991
 20
-29.620116571
 10
-60.1481503413
 20
-29.5796376873
 10
-60.2033207237
 20
-29.5367990851
 10
-60.2552262623
 20
-29.4915969637
 10
-60.3039432412
 20
-29.4440360598
 10
-60.3496251477
 20
-29.3943260546
 10
-60.3922086193
 20
-29.3425566253
 10
-60.4317570186
 20
-29.2886390875
 10
-60.4686139211
 20
-29.2325155879
 10
-60.5028170475
 20
-29.1741361452
 10
-60.5343286772
 20
-29.1135519419
 10
-60.5633792237
 20
-29.0508568997
 10
-60.5901400403
 20
-28.9860659264
 10
-60.6144397738
 20
-28.9191654185
 10
-60.6359947783
 20
-28.8502065316
 10
-60.6548108157
 20
-28.7789376579
 10
-60.6708821241
 20
-28.7056119049
 10
-60.6839077716
 20
-28.631037249
 10
-60.6937674058
 20
-28.5551723413
 10
-60.7005813791
 20
-28.4780595545
 10
-60.7044098175
 20
-28.4006318427
 10
-60.705307178
 20
-28.323022874
 10
-60.7032190035
 20
-28.245099315
 10
-60.698042049
 20
-28.1673930723
 10
-60.6897489747
 20
-28.0898220152
 10
-60.6783671204
 20
-28.0124682605
 10
-60.6638752604
 20
-27.936109581
 10
-60.6461008501
 20
-27.8606703575
 10
-60.625216434
 20
-27.7862255898
 10
-60.6017184197
 20
-27.7137783005
 10
-60.575623662
 20
-27.6433954184
 10
-60.5469153061
 20
-27.5750086352
 10
-60.516039195
 20
-27.5094174722
 10
-60.4831816278
 20
-27.4468637818
 10
-60.4481563055
 20
-27.3871038605
 10
-60.4108501744
 20
-27.3302086373
 10
-60.371264968
 20
-27.2762412718
 10
-60.3293989529
 20
-27.2251369573
 10
-60.2851338752
 20
-27.1767747382
 10
-60.2384906659
 20
-27.1311253578
 10
-60.189448394
 20
-27.0882167244
 10
-60.1378260121
 20
-27.0480137239
  0
LWPOLYLINE
  5
3BF
100
AcDbEntity
  8
0
100
AcDbPolyline
 62
7
  6
CONTINUOUS
 90
40
 70
0
 10
-60.1378260121
 20
-27.0480137239
 10
-60.0834258953
 20
-27.0105067481
 10
-60.0264456685
 20
-26.975704284
 10
-59.967297159
 20
-26.943598424
 10
-59.9059455764
 20
-26.914146482
 10
-59.8424257112
 20
-26.8873902504
 10
-59.7772537621
 20
-26.8634485801
 10
-59.7102594239
 20
-26.8423284188
 10
-59.6416130017
 20
-26.8240221243
 10
-59.5723416103
 20
-26.8086266985
 10
-59.502595905
 20
-26.7962811304
 10
-59.4322252305
 20
-26.7868459789
 10
-59.3618047356
 20
-26.7800006771
 10
-59.2914134814
 20
-26.7756498594
 10
-59.2209724068
 20
-26.7738887331
 10
-59.1508194783
 20
-26.7746826632
 10
-59.0808902091
 20
-26.7779169297
 10
-59.011249086
 20
-26.7837063086
 10
-58.9424275358
 20
-26.792360473
 10
-58.8744043859
 20
-26.8039481408
 10
-58.8072008088
 20
-26.8184009168
 10
-58.7414117491
 20
-26.83582289
 10
-58.6770506185
 20
-26.8562126529
 10
-58.6141040052
 20
-26.8795722295
 10
-58.5531266185
 20
-26.9060109493
 10
-58.4940452498
 20
-26.9354472087
 10
-58.4369331078
 20
-26.9679635395
 10
-58.3825645269
 20
-27.003915626
 10
-58.330947473
 20
-27.0434673183
 10
-58.2820739802
 20
-27.0864561843
 10
-58.2366944863
 20
-27.132748607
 10
-58.1951394752
 20
-27.1826554026
 10
-58.157078463
 20
-27.2358674881
 10
-58.1222704347
 20
-27.2913211426
 10
-58.0908508688
 20
-27.348841898
 10
-58.0626842868
 20
-27.4086054832
 10
-58.0371232392
 20
-27.470073032
 10
-58.0139519094
 20
-27.5330651944
 10
-57.993386114
 20
-27.5977623251
 10
-57.9754258529
 20
-27.6641649597
  0
LINE
  5
3C0
100
AcDbEntity
  8
0
100
AcDbLine
 62
7
  6
CONTINUOUS
 10
-57.9754258529
 20
-27.6641649597
 11
-58.3335432795
 21
-27.7623910767
  0
LINE
  5
3C1
100
AcDbEntity
  8
ASSI
100
AcDbLine
 62
7
  6
CONTINUOUS
 10
-3.0
 20
37.3
 11
-3.0
 21
36.6
  0
LINE
  5
3C2
100
AcDbEntity
  8
DRAFT
100
AcDbLine
 62
7
  6
CONTINUOUS
 10
-3.0
 20
-38.8
 11
-3.0
 21
-37.3
  0
LINE
  5
3C3
100
AcDbEntity
  8
ASSI
100
AcDbLine
 62
7
  6
CONTINUOUS
 10
-3.0
 20
-36.6
 11
-3.0
 21
-37.3
  0
LINE
  5
3C4
100
AcDbEntity
  8
DRAFT
100
AcDbLine
 62
7
  6
CONTINUOUS
 10
-3.0
 20
37.3
 11
-3.0
 21
38.8
  0
LINE
  5
3C5
100
AcDbEntity
  8
DRAFT
100
AcDbLine
 62
7
  6
CONTINUOUS
 10
-2.2
 20
38.8
 11
-2.2
 21
37.3
  0
LINE
  5
3C6
100
AcDbEntity
  8
ASSI
100
AcDbLine
 62
7
  6
CONTINUOUS
 10
-2.2
 20
37.3
 11
-2.2
 21
36.6
  0
LINE
  5
3C7
100
AcDbEntity
  8
ASSI
100
AcDbLine
 62
7
  6
CONTINUOUS
 10
-2.2
 20
-36.6
 11
-2.2
 21
-37.3
  0
LINE
  5
3C8
100
AcDbEntity
  8
DRAFT
100
AcDbLine
 62
7
  6
CONTINUOUS
 10
-2.2
 20
-37.3
 11
-2.2
 21
-38.8
  0
LINE
  5
3C9
100
AcDbEntity
  8
ASSI
100
AcDbLine
 62
7
  6
CONTINUOUS
 10
-0.4
 20
37.3
 11
-0.4
 21
36.6
  0
LINE
  5
3CA
100
AcDbEntity
  8
DRAFT
100
AcDbLine
 62
7
  6
CONTINUOUS
 10
-0.4
 20
-38.8
 11
-0.4
 21
-37.3
  0
LINE
  5
3CB
100
AcDbEntity
  8
ASSI
100
AcDbLine
 62
7
  6
CONTINUOUS
 10
-0.4
 20
-36.6
 11
-0.4
 21
-37.3
  0
LINE
  5
3CC
100
AcDbEntity
  8
DRAFT
100
AcDbLine
 62
7
  6
CONTINUOUS
 10
-0.4
 20
37.3
 11
-0.4
 21
38.8
  0
LINE
  5
3CD
100
AcDbEntity
  8
DRAFT
100
AcDbLine
 62
7
  6
CONTINUOUS
 10
0.4
 20
38.8
 11
0.4
 21
37.3
  0
LINE
  5
3CE
100
AcDbEntity
  8
ASSI
100
AcDbLine
 62
7
  6
CONTINUOUS
 10
0.4
 20
37.3
 11
0.4
 21
36.6
  0
LINE
  5
3CF
100
AcDbEntity
  8
ASSI
100
AcDbLine
 62
7
  6
CONTINUOUS
 10
0.4
 20
-36.6
 11
0.4
 21
-37.3
  0
LINE
  5
3D0
100
AcDbEntity
  8
DRAFT
100
AcDbLine
 62
7
  6
CONTINUOUS
 10
0.4
 20
-37.3
 11
0.4
 21
-38.8
  0
LWPOLYLINE
  5
3D1
100
AcDbEntity
  8
0
100
AcDbPolyline
 62
7
  6
CONTINUOUS
 90
19
 70
0
 10
54.7
 20
27.5615589075
 10
54.7511607285
 20
27.5868374961
 10
54.7999234545
 20
27.6127408932
 10
54.8462881779
 20
27.6392691804
 10
54.8901937527
 20
27.6665163048
 10
54.931701325
 20
27.6943884963
 10
54.9709943327
 20
27.7226042234
 10
55.008044133
 20
27.7511697396
 10
55.0428793687
 20
27.7800788858
 10
55.0757694063
 20
27.8090314272
 10
55.1067701683
 20
27.8379272557
 10
55.1358257323
 20
27.8668664755
 10
55.1630376973
 20
27.8958491257
 10
55.1884883057
 20
27.9248777502
 10
55.2120953152
 20
27.9539498112
 10
55.2337135986
 20
27.9830577239
 10
55.2532947802
 20
28.0121989605
 10
55.2708872357
 20
28.0413760519
 10
55.2864909651
 20
28.070589
  0
LINE
  5
3D2
100
AcDbEntity
  8
0
100
AcDbLine
 62
7
  6
CONTINUOUS
 10
88.1326657068
 20
9.7552569528
 11
87.922885845
 21
9.7214989751
  0
LINE
  5
3D3
100
AcDbEntity
  8
0
100
AcDbLine
 62
7
  6
CONTINUOUS
 10
88.9139151018
 20
10.2736780142
 11
88.7065464211
 21
10.2447430588
  0
LINE
  5
3D4
100
AcDbEntity
  8
DRAFT
100
AcDbLine
 62
7
  6
CONTINUOUS
 10
97.5
 20
-3.6749773271
 11
95.3
 21
-3.6749773271
  0
LINE
  5
3D5
100
AcDbEntity
  8
DRAFT
100
AcDbLine
 62
7
  6
CONTINUOUS
 10
-95.3
 20
-3.6749773271
 11
-97.5
 21
-3.6749773271
  0
LINE
  5
3D6
100
AcDbEntity
  8
DRAFT
100
AcDbLine
 62
7
  6
CONTINUOUS
 10
-97.3951844414
 20
-3.5
 11
-95.1951844414
 21
-3.5
  0
LINE
  5
3D7
100
AcDbEntity
  8
DRAFT
100
AcDbLine
 62
7
  6
CONTINUOUS
 10
95.1951844414
 20
-3.5
 11
97.3951844414
 21
-3.5
  0
LINE
  5
3D8
100
AcDbEntity
  8
DRAFT
100
AcDbLine
 62
7
  6
CONTINUOUS
 10
-95.0536834374
 20
-0.4
 11
-76.7
 21
-0.4
  0
LINE
  5
3D9
100
AcDbEntity
  8
DRAFT
100
AcDbLine
 62
7
  6
CONTINUOUS
 10
76.7
 20
-0.4
 11
95.0536834374
 21
-0.4
  0
LINE
  5
3DA
100
AcDbEntity
  8
DRAFT
100
AcDbLine
 62
7
  6
CONTINUOUS
 10
95.0536834374
 20
0.4
 11
76.7
 21
0.4
  0
LINE
  5
3DB
100
AcDbEntity
  8
DRAFT
100
AcDbLine
 62
7
  6
CONTINUOUS
 10
-76.7
 20
0.4
 11
-95.0536834374
 21
0.4
  0
LINE
  5
3DC
100
AcDbEntity
  8
ASSI
100
AcDbLine
 62
7
  6
CONTINUOUS
 10
2.2
 20
37.3
 11
2.2
 21
36.6
  0
LINE
  5
3DD
100
AcDbEntity
  8
DRAFT
100
AcDbLine
 62
7
  6
CONTINUOUS
 10
2.2
 20
-38.8
 11
2.2
 21
-37.3
  0
LINE
  5
3DE
100
AcDbEntity
  8
ASSI
100
AcDbLine
 62
7
  6
CONTINUOUS
 10
2.2
 20
-36.6
 11
2.2
 21
-37.3
  0
LINE
  5
3DF
100
AcDbEntity
  8
DRAFT
100
AcDbLine
 62
7
  6
CONTINUOUS
 10
2.2
 20
37.3
 11
2.2
 21
38.8
  0
LINE
  5
3E0
100
AcDbEntity
  8
DRAFT
100
AcDbLine
 62
7
  6
CONTINUOUS
 10
3.0
 20
38.8
 11
3.0
 21
37.3
  0
LINE
  5
3E1
100
AcDbEntity
  8
ASSI
100
AcDbLine
 62
7
  6
CONTINUOUS
 10
3.0
 20
37.3
 11
3.0
 21
36.6
  0
LINE
  5
3E2
100
AcDbEntity
  8
ASSI
100
AcDbLine
 62
7
  6
CONTINUOUS
 10
3.0
 20
-36.6
 11
3.0
 21
-37.3
  0
LINE
  5
3E3
100
AcDbEntity
  8
DRAFT
100
AcDbLine
 62
7
  6
CONTINUOUS
 10
3.0
 20
-37.3
 11
3.0
 21
-38.8
  0
LWPOLYLINE
  5
3E4
100
AcDbEntity
  8
0
100
AcDbPolyline
 62
7
  6
CONTINUOUS
 90
16
 70
0
 10
88.457847225
 20
9.3212293811
 10
88.50000014
 20
9.322451436
 10
88.5404242402
 20
9.3256165597
 10
88.5791195258
 20
9.3307247512
 10
88.6161188556
 20
9.3378934187
 10
88.6513893708
 20
9.3470051501
 10
88.6848324941
 20
9.3577077133
 10
88.7164492637
 20
9.3699591212
 10
88.7462386415
 20
9.383801355
 10
88.7740989366
 20
9.3990081359
 10
88.800006261
 20
9.415562909
 10
88.8239845027
 20
9.4334822221
 10
88.8460036347
 20
9.4525894513
 10
88.866053648
 20
9.4728257196
 10
88.8841445516
 20
9.4942498964
 10
88.9002763456
 20
9.5168619776
  0
LWPOLYLINE
  5
3E5
100
AcDbEntity
  8
0
100
AcDbPolyline
 62
7
  6
CONTINUOUS
 90
37
 70
0
 10
86.7
 20
7.8146951774
 10
86.8581758829
 20
7.8185363403
 10
87.0135989096
 20
7.8287213549
 10
87.1662690802
 20
7.8452502125
 10
87.3167564869
 20
7.8684568617
 10
87.4644910374
 20
7.8980073191
 10
87.6077624553
 20
7.9328996738
 10
87.7464024775
 20
7.9732421518
 10
87.880579367
 20
8.0189264712
 10
88.0090876364
 20
8.0686259655
 10
88.1319274679
 20
8.1225395417
 10
88.2490986794
 20
8.1804682323
 10
88.3593952365
 20
8.2404885792
 10
88.4622273954
 20
8.3023707283
 10
88.5581849001
 20
8.3663444962
 10
88.6478309481
 20
8.4311759565
 10
88.7309526421
 20
8.4965780206
 10
88.8077628796
 20
8.5628377595
 10
88.8794635503
 20
8.6295825001
 10
88.9460984649
 20
8.6966193263
 10
89.0076238127
 20
8.7641411424
 10
89.0651100511
 20
8.8323540068
 10
89.1186576726
 20
8.9010724624
 10
89.1681661848
 20
8.9704819495
 10
89.2144045675
 20
9.0413448623
 10
89.2576595559
 20
9.1138504331
 10
89.2976444149
 20
9.1878093916
 10
89.3342679193
 20
9.2634163665
 10
89.3676440548
 20
9.3408860022
 10
89.3976588358
 20
9.4200036072
 10
89.4238790802
 20
9.5003198097
 10
89.446258239
 20
9.5819251042
 10
89.4648428612
 20
9.6647289576
 10
89.4793394128
 20
9.7480104707
 10
89.489650049
 20
9.8315293419
 10
89.4958726145
 20
9.915525855
 10
89.4980071093
 20
10.0
  0
LINE
  5
3E6
100
AcDbEntity
  8
DRAFT
100
AcDbLine
 62
7
  6
CONTINUOUS
 10
-97.3951844414
 20
3.5
 11
-95.1951844414
 21
3.5
  0
LINE
  5
3E7
100
AcDbEntity
  8
DRAFT
100
AcDbLine
 62
7
  6
CONTINUOUS
 10
95.1951844414
 20
3.5
 11
97.3951844414
 21
3.5
  0
LINE
  5
3E8
100
AcDbEntity
  8
DRAFT
100
AcDbLine
 62
7
  6
CONTINUOUS
 10
97.5
 20
3.6749773271
 11
95.3
 21
3.6749773271
  0
LINE
  5
3E9
100
AcDbEntity
  8
DRAFT
100
AcDbLine
 62
7
  6
CONTINUOUS
 10
-95.3
 20
3.6749773271
 11
-97.5
 21
3.6749773271
  0
LINE
  5
3EA
100
AcDbEntity
  8
0
100
AcDbLine
 62
7
  6
CONTINUOUS
 10
14.9
 20
-23.3
 11
14.9
 21
-34.5
  0
LINE
  5
3EB
100
AcDbEntity
  8
RACCORDO
100
AcDbLine
 62
7
  6
CONTINUOUS
 10
14.9
 20
-34.5
 11
14.9
 21
-38.7790368883
  0
LINE
  5
3EC
100
AcDbEntity
  8
0
100
AcDbLine
 62
7
  6
CONTINUOUS
 10
14.9
 20
23.3
 11
14.9
 21
34.5
  0
LINE
  5
3ED
100
AcDbEntity
  8
RACCORDO
100
AcDbLine
 62
7
  6
CONTINUOUS
 10
14.9
 20
34.5
 11
14.9
 21
38.7790368883
  0
LWPOLYLINE
  5
3EE
100
AcDbEntity
  8
0
100
AcDbPolyline
 62
7
  6
CONTINUOUS
 90
7
 70
0
 10
88.41885257
 20
10.6257228263
 10
88.3858249785
 20
10.6248981109
 10
88.3538177285
 20
10.6227191661
 10
88.3228308202
 20
10.6191859913
 10
88.2928642534
 20
10.6142985856
 10
88.2639180283
 20
10.6080569479
 10
88.2359921447
 20
10.6004610765
  0
LWPOLYLINE
  5
3EF
100
AcDbEntity
  8
0
100
AcDbPolyline
 62
7
  6
CONTINUOUS
 90
37
 70
0
 10
86.7
 20
12.1853048226
 10
86.5418501297
 20
12.1814656203
 10
86.3864489462
 20
12.1712834959
 10
86.2337964493
 20
12.1547584358
 10
86.0833220213
 20
12.1315567183
 10
85.9355962799
 20
12.1020120116
 10
85.7923310793
 20
12.0671253805
 10
85.6536949306
 20
12.0267883998
 10
85.5195193227
 20
11.9811094112
 10
85.3910105755
 20
11.9314146398
 10
85.2681683927
 20
11.8775049371
 10
85.1509930706
 20
11.8195793663
 10
85.0406918178
 20
11.759561501
 10
84.9378544804
 20
11.6976810354
 10
84.8418912123
 20
11.633708228
 10
84.7522396839
 20
11.5688775365
 10
84.6691131263
 20
11.5034762154
 10
84.5922983084
 20
11.4372169935
 10
84.520593208
 20
11.3704725604
 10
84.4539539801
 20
11.3034358125
 10
84.3924244696
 20
11.2359138457
 10
84.3349341895
 20
11.1677006521
 10
84.2813826415
 20
11.098981657
 10
84.2318703239
 20
11.029571422
 10
84.1856282448
 20
10.9587076312
 10
84.1423696982
 20
10.8862011401
 10
84.1023813902
 20
10.8122410564
 10
84.0657544469
 20
10.7366324285
 10
84.0323747835
 20
10.6591605149
 10
84.0023564848
 20
10.5800400137
 10
83.9761329313
 20
10.4997201356
 10
83.953750625
 20
10.4181103072
 10
83.935163064
 20
10.3353010721
 10
83.9206641226
 20
10.2520133347
 10
83.910351759
 20
10.1684873984
 10
83.904128015
 20
10.0844829547
 10
83.9019928907
 20
10.0
  0
LINE
  5
3F0
100
AcDbEntity
  8
DRAFT
100
AcDbLine
 62
7
  6
CONTINUOUS
 10
95.3
 20
14.0
 11
93.75
 21
14.0
  0
LINE
  5
3F1
100
AcDbEntity
  8
0
100
AcDbLine
 62
7
  6
CONTINUOUS
 10
-93.75
 20
14.0
 11
-93.1
 21
14.0
  0
LINE
  5
3F2
100
AcDbEntity
  8
0
100
AcDbLine
 62
7
  6
CONTINUOUS
 10
93.1
 20
14.0
 11
93.75
 21
14.0
  0
LINE
  5
3F3
100
AcDbEntity
  8
DRAFT
100
AcDbLine
 62
7
  6
CONTINUOUS
 10
-93.75
 20
14.0
 11
-95.3
 21
14.0
  0
LINE
  5
3F4
100
AcDbEntity
  8
DRAFT
100
AcDbLine
 62
7
  6
CONTINUOUS
 10
-95.3
 20
14.8
 11
-93.75
 21
14.8
  0
LINE
  5
3F5
100
AcDbEntity
  8
0
100
AcDbLine
 62
7
  6
CONTINUOUS
 10
-93.75
 20
14.8
 11
-93.1
 21
14.8
  0
LINE
  5
3F6
100
AcDbEntity
  8
0
100
AcDbLine
 62
7
  6
CONTINUOUS
 10
93.1
 20
14.8
 11
93.75
 21
14.8
  0
LINE
  5
3F7
100
AcDbEntity
  8
DRAFT
100
AcDbLine
 62
7
  6
CONTINUOUS
 10
93.75
 20
14.8
 11
95.3
 21
14.8
  0
LWPOLYLINE
  5
3F8
100
AcDbEntity
  8
0
100
AcDbPolyline
 62
7
  6
CONTINUOUS
 90
13
 70
0
 10
88.4341113208
 20
10.4521118687
 10
88.4535023579
 20
10.4518457321
 10
88.4723207513
 20
10.4508032695
 10
88.4905665009
 20
10.4489844806
 10
88.5082688789
 20
10.4464026119
 10
88.5253986133
 20
10.4430444164
 10
88.5418678877
 20
10.4388701534
 10
88.5577103202
 20
10.4338411803
 10
88.5728922927
 20
10.4279961384
 10
88.5872251351
 20
10.4214112131
 10
88.6006459571
 20
10.4141117991
 10
88.613217649
 20
10.4060724999
 10
88.6249402106
 20
10.3972933144
  0
LWPOLYLINE
  5
3F9
100
AcDbEntity
  8
RACCORDO
100
AcDbPolyline
 62
250
  6
CONTINUOUS
 90
40
 70
0
 10
14.9
 20
37.8647665246
 10
14.9012970767
 20
37.8325847993
 10
14.9051798949
 20
37.8006117848
 10
14.911623273
 20
37.7690548385
 10
14.9205854232
 20
37.7381186191
 10
14.9320082225
 20
37.70800376
 10
14.9458175897
 20
37.6789055676
 10
14.9619239658
 20
37.6510127549
 10
14.9802228946
 20
37.6245062173
 10
15.0005957007
 20
37.59955786
 10
15.0229102586
 20
37.5763294827
 10
15.0470218498
 20
37.5549717303
 10
15.0727741013
 20
37.535623116
 10
15.1
 20
37.518409123
 10
15.1285229754
 20
37.5034413907
 10
15.1581580452
 20
37.4908169905
 10
15.1887130144
 20
37.4806177966
 10
15.2199897225
 20
37.4729099545
 10
15.2517853279
 20
37.4677434527
 10
15.283893624
 20
37.4651517979
 10
15.316106376
 20
37.4651517979
 10
15.3482146721
 20
37.4677434527
 10
15.3800102775
 20
37.4729099545
 10
15.4112869856
 20
37.4806177966
 10
15.4418419548
 20
37.4908169905
 10
15.4714770246
 20
37.5034413907
 10
15.5
 20
37.518409123
 10
15.5272258987
 20
37.535623116
 10
15.5529781502
 20
37.5549717303
 10
15.5770897414
 20
37.5763294827
 10
15.5994042993
 20
37.59955786
 10
15.6197771054
 20
37.6245062173
 10
15.6380760342
 20
37.6510127549
 10
15.6541824103
 20
37.6789055676
 10
15.6679917775
 20
37.70800376
 10
15.6794145768
 20
37.7381186191
 10
15.688376727
 20
37.7690548385
 10
15.6948201051
 20
37.8006117848
 10
15.6987029233
 20
37.8325847993
 10
15.7
 20
37.8647665246
  0
LINE
  5
3FA
100
AcDbEntity
  8
RACCORDO
100
AcDbLine
 62
7
  6
CONTINUOUS
 10
15.7
 20
38.7790368883
 11
15.7
 21
34.5
  0
LINE
  5
3FB
100
AcDbEntity
  8
0
100
AcDbLine
 62
7
  6
CONTINUOUS
 10
15.7
 20
-23.3
 11
15.7
 21
-34.5
  0
LINE
  5
3FC
100
AcDbEntity
  8
RACCORDO
100
AcDbLine
 62
7
  6
CONTINUOUS
 10
15.7
 20
-34.5
 11
15.7
 21
-38.7790368883
  0
LINE
  5
3FD
100
AcDbEntity
  8
0
100
AcDbLine
 62
7
  6
CONTINUOUS
 10
15.7
 20
23.3
 11
15.7
 21
34.5
  0
LWPOLYLINE
  5
3FE
100
AcDbEntity
  8
RACCORDO
100
AcDbPolyline
 62
250
  6
CONTINUOUS
 90
40
 70
0
 10
14.9
 20
-37.8647665246
 10
14.901297006
 20
-37.8325856025
 10
14.9051796682
 20
-37.8006130519
 10
14.9116228894
 20
-37.7690562301
 10
14.9205850029
 20
-37.7381197017
 10
14.9320079456
 20
-37.7080042404
 10
14.9458175428
 20
-37.6789054933
 10
14.9619241663
 20
-37.6510122729
 10
14.9802233969
 20
-37.624505382
 10
15.0005965395
 20
-37.5995567438
 10
15.0229114536
 20
-37.576328162
 10
15.0470234119
 20
-37.5549702778
 10
15.0727760272
 20
-37.5356216048
 10
15.1000022715
 20
-37.5184076242
 10
15.1285255678
 20
-37.5034399672
 10
15.1581609324
 20
-37.4908156954
 10
15.1887161606
 20
-37.480616678
 10
15.2199930882
 20
-37.4729090524
 10
15.2517888861
 20
-37.4677427976
 10
15.283897343
 20
-37.4651514164
 10
15.3161102223
 20
-37.4651517124
 10
15.3482186301
 20
-37.4677436838
 10
15.3800143302
 20
-37.4729105231
 10
15.4112911119
 20
-37.4806187235
 10
15.441846147
 20
-37.4908183026
 10
15.4714812726
 20
-37.5034431191
 10
15.5000042855
 20
-37.5184113003
 10
15.5272302039
 20
-37.5356257814
 10
15.5529824529
 20
-37.5549749277
 10
15.5770940069
 20
-37.5763332551
 10
15.5994084812
 20
-37.599562247
 10
15.6197811514
 20
-37.6245112597
 10
15.6380798802
 20
-37.6510184869
 10
15.6541859757
 20
-37.6789120033
 10
15.6679951319
 20
-37.7080112541
 10
15.6794175722
 20
-37.7381271912
 10
15.6883789224
 20
-37.7690633686
 10
15.6948212764
 20
-37.8006186969
 10
15.6987032648
 20
-37.8325888599
 10
15.7
 20
-37.8647665246
  0
LWPOLYLINE
  5
3FF
100
AcDbEntity
  8
0
100
AcDbPolyline
 62
7
  6
CONTINUOUS
 90
13
 70
0
 10
55.197964
 20
27.6210380402
 10
55.1640040679
 20
27.5908223159
 10
55.1285171764
 20
27.5616200944
 10
55.0915033253
 20
27.5334312254
 10
55.0528318031
 20
27.5063483273
 10
55.0126333213
 20
27.4802784865
 10
54.9713000152
 20
27.4549433
 10
54.9289719719
 20
27.4301358984
 10
54.8855091041
 20
27.4060629803
 10
54.8408832857
 20
27.3830664938
 10
54.7950851412
 20
27.3612603187
 10
54.7481240459
 20
27.3405303147
 10
54.7
 20
27.3208763651
  0
LWPOLYLINE
  5
400
100
AcDbEntity
  8
0
100
AcDbPolyline
 62
7
  6
CONTINUOUS
 90
13
 70
0
 10
88.2359921447
 20
10.6004610765
 10
88.2239766964
 20
10.596841867
 10
88.2120820251
 20
10.592984822
 10
88.2003081308
 20
10.5888899413
 10
88.1886435339
 20
10.5845810786
 10
88.177099714
 20
10.5800343799
 10
88.1657111098
 20
10.5751782835
 10
88.1544651603
 20
10.5700124363
 10
88.1433744265
 20
10.5645371908
 10
88.13251103
 20
10.558682043
 10
88.1218990112
 20
10.5524234913
 10
88.1115143297
 20
10.5457850365
 10
88.1013569855
 20
10.5387666781
  0
LINE
  5
401
100
AcDbEntity
  8
DRAFT
100
AcDbLine
 62
7
  6
CONTINUOUS
 10
95.3
 20
16.6
 11
93.75
 21
16.6
  0
LINE
  5
402
100
AcDbEntity
  8
0
100
AcDbLine
 62
7
  6
CONTINUOUS
 10
-93.75
 20
16.6
 11
-93.1
 21
16.6
  0
LINE
  5
403
100
AcDbEntity
  8
0
100
AcDbLine
 62
7
  6
CONTINUOUS
 10
93.1
 20
16.6
 11
93.75
 21
16.6
  0
LINE
  5
404
100
AcDbEntity
  8
DRAFT
100
AcDbLine
 62
7
  6
CONTINUOUS
 10
-93.75
 20
16.6
 11
-95.3
 21
16.6
  0
LINE
  5
405
100
AcDbEntity
  8
DRAFT
100
AcDbLine
 62
7
  6
CONTINUOUS
 10
-95.3
 20
17.4
 11
-93.75
 21
17.4
  0
LINE
  5
406
100
AcDbEntity
  8
0
100
AcDbLine
 62
7
  6
CONTINUOUS
 10
-93.75
 20
17.4
 11
-93.1
 21
17.4
  0
LINE
  5
407
100
AcDbEntity
  8
0
100
AcDbLine
 62
7
  6
CONTINUOUS
 10
93.1
 20
17.4
 11
93.75
 21
17.4
  0
LINE
  5
408
100
AcDbEntity
  8
DRAFT
100
AcDbLine
 62
7
  6
CONTINUOUS
 10
93.75
 20
17.4
 11
95.3
 21
17.4
  0
LINE
  5
409
100
AcDbEntity
  8
DRAFT
100
AcDbLine
 62
7
  6
CONTINUOUS
 10
95.3
 20
19.2
 11
93.75
 21
19.2
  0
LINE
  5
40A
100
AcDbEntity
  8
0
100
AcDbLine
 62
7
  6
CONTINUOUS
 10
-93.75
 20
19.2
 11
-93.1
 21
19.2
  0
LINE
  5
40B
100
AcDbEntity
  8
0
100
AcDbLine
 62
7
  6
CONTINUOUS
 10
93.1
 20
19.2
 11
93.75
 21
19.2
  0
LINE
  5
40C
100
AcDbEntity
  8
DRAFT
100
AcDbLine
 62
7
  6
CONTINUOUS
 10
-93.75
 20
19.2
 11
-95.3
 21
19.2
  0
LINE
  5
40D
100
AcDbEntity
  8
DRAFT
100
AcDbLine
 62
7
  6
CONTINUOUS
 10
-95.3
 20
20.0
 11
-93.75
 21
20.0
  0
LINE
  5
40E
100
AcDbEntity
  8
0
100
AcDbLine
 62
7
  6
CONTINUOUS
 10
-93.75
 20
20.0
 11
-93.1
 21
20.0
  0
LINE
  5
40F
100
AcDbEntity
  8
0
100
AcDbLine
 62
7
  6
CONTINUOUS
 10
93.1
 20
20.0
 11
93.75
 21
20.0
  0
LINE
  5
410
100
AcDbEntity
  8
DRAFT
100
AcDbLine
 62
7
  6
CONTINUOUS
 10
93.75
 20
20.0
 11
95.3
 21
20.0
  0
LWPOLYLINE
  5
411
100
AcDbEntity
  8
0
100
AcDbPolyline
 62
7
  6
CONTINUOUS
 90
29
 70
0
 10
-81.0156669329
 20
34.6107092585
 10
-81.0422918444
 20
34.6167984106
 10
-81.0690447408
 20
34.6214626496
 10
-81.0959256223
 20
34.6247019796
 10
-81.123003868
 20
34.6264408643
 10
-81.1502100988
 20
34.6267548442
 10
-81.1773361766
 20
34.6258705372
 10
-81.2043704239
 20
34.6239005009
 10
-81.2313245182
 20
34.6207321757
 10
-81.2580253539
 20
34.6162545022
 10
-81.2844546069
 20
34.6103620731
 10
-81.3106306013
 20
34.6031602874
 10
-81.336435204
 20
34.594854294
 10
-81.3618711643
 20
34.5855203473
 10
-81.3869357329
 20
34.5750821815
 10
-81.4115025288
 20
34.5635161654
 10
-81.4357289764
 20
34.5508814333
 10
-81.4594576514
 20
34.5371188347
 10
-81.4820898999
 20
34.5220273085
 10
-81.5036393258
 20
34.5055846756
 10
-81.5240923252
 20
34.4878130899
 10
-81.5428094319
 20
34.468577985
 10
-81.559469014
 20
34.4475992138
 10
-81.5743927034
 20
34.4251568862
 10
-81.5879059303
 20
34.4019568272
 10
-81.5998888945
 20
34.3780521221
 10
-81.6104613962
 20
34.353389665
 10
-81.6203082656
 20
34.328516011
 10
-81.6293869906
 20
34.3035274183
  0
LWPOLYLINE
  5
412
100
AcDbEntity
  8
0
100
AcDbPolyline
 62
7
  6
CONTINUOUS
 90
35
 70
0
 10
56.2710757539
 20
27.8126387098
 10
56.2979735794
 20
27.8469605863
 10
56.3266004086
 20
27.8790445545
 10
56.3570088593
 20
27.9088801288
 10
56.3893310045
 20
27.9364302789
 10
56.4236641186
 20
27.9618125929
 10
56.4599109273
 20
27.9849088769
 10
56.4979116807
 20
28.0053284177
 10
56.5378427841
 20
28.0229934768
 10
56.5795278323
 20
28.0379812738
 10
56.6222778596
 20
28.0501335312
 10
56.6661574191
 20
28.0593147134
 10
56.7111019579
 20
28.0656600481
 10
56.7562288507
 20
28.0694174594
 10
56.8015494096
 20
28.0707344068
 10
56.8470523226
 20
28.0694633663
 10
56.8918210285
 20
28.0654098458
 10
56.9358435751
 20
28.0585748296
 10
56.9791319147
 20
28.0489574847
 10
57.0208053428
 20
28.0363606621
 10
57.0607743012
 20
28.0205947091
 10
57.0991283481
 20
28.0018497116
 10
57.1352554543
 20
27.9804981701
 10
57.1690386329
 20
27.9565008321
 10
57.2005948709
 20
27.9298975513
 10
57.2296630994
 20
27.9011794388
 10
57.2562073581
 20
27.8703395337
 10
57.2802636074
 20
27.8373854432
 10
57.3016786596
 20
27.8028300158
 10
57.3203215131
 20
27.7667406974
 10
57.3363231695
 20
27.7290506241
 10
57.3499234458
 20
27.6900710565
 10
57.3612022812
 20
27.6499059022
 10
57.3700797365
 20
27.6084517829
 10
57.3765558118
 20
27.5657089853
  0
LWPOLYLINE
  5
413
100
AcDbEntity
  8
0
100
AcDbPolyline
 62
7
  6
CONTINUOUS
 90
31
 70
0
 10
58.989406
 20
27.8423556948
 10
58.9501330822
 20
27.7987395278
 10
58.9120338582
 20
27.7541279701
 10
58.875108328
 20
27.7085212614
 10
58.8394107705
 20
27.661789458
 10
58.8048869069
 20
27.6140630249
 10
58.7713738998
 20
27.5657327287
 10
58.738873389
 20
27.5168578157
 10
58.7073837347
 20
27.4673793678
 10
58.6767371813
 20
27.4175107586
 10
58.6469101478
 20
27.3673764519
 10
58.617926215
 20
27.3168522031
 10
58.58968837
 20
27.2657783138
 10
58.5622172707
 20
27.214316439
 10
58.535492259
 20
27.162305233
 10
58.5093543477
 20
27.1091007238
 10
58.4837669353
 20
27.0547135995
 10
58.4587666233
 20
26.999133907
 10
58.4343042289
 20
26.941687112
 10
58.4103250098
 20
26.88239092
 10
58.3868837084
 20
26.8212288701
 10
58.3640953686
 20
26.7574756633
 10
58.3417514071
 20
26.6911994169
 10
58.3200604073
 20
26.6223339441
 10
58.2997631639
 20
26.5499531617
 10
58.2808307516
 20
26.4739576442
 10
58.2632920957
 20
26.3944499
 10
58.2479747671
 20
26.3108075149
 10
58.2351546227
 20
26.2228245605
 10
58.2245558055
 20
26.1307112836
 10
58.2161783156
 20
26.03447
  0
LINE
  5
414
100
AcDbEntity
  8
0
100
AcDbLine
 62
7
  6
CONTINUOUS
 10
61.8554643947
 20
27.5463430309
 11
62.1030629807
 21
27.5657089985
  0
LINE
  5
415
100
AcDbEntity
  8
0
100
AcDbLine
 62
7
  6
CONTINUOUS
 10
57.128957227
 20
27.5463430178
 11
57.3765558118
 21
27.5657089853
  0
LINE
  5
416
100
AcDbEntity
  8
DRAFT
100
AcDbLine
 62
7
  6
CONTINUOUS
 10
95.0536834374
 20
22.4999999998
 11
76.7
 21
22.4999999998
  0
LINE
  5
417
100
AcDbEntity
  8
0
100
AcDbLine
 62
7
  6
CONTINUOUS
 10
76.7
 20
22.4999999998
 11
-76.7
 21
22.4999999998
  0
LINE
  5
418
100
AcDbEntity
  8
DRAFT
100
AcDbLine
 62
7
  6
CONTINUOUS
 10
-76.7
 20
22.4999999998
 11
-95.0536834374
 21
22.4999999998
  0
LINE
  5
419
100
AcDbEntity
  8
DRAFT
100
AcDbLine
 62
7
  6
CONTINUOUS
 10
-95.0536834374
 20
23.3
 11
-76.7
 21
23.3
  0
LINE
  5
41A
100
AcDbEntity
  8
0
100
AcDbLine
 62
7
  6
CONTINUOUS
 10
-75.9
 20
23.3
 11
-46.3
 21
23.3
  0
LINE
  5
41B
100
AcDbEntity
  8
0
100
AcDbLine
 62
7
  6
CONTINUOUS
 10
-45.5
 20
23.3
 11
-15.7
 21
23.3
  0
LINE
  5
41C
100
AcDbEntity
  8
0
100
AcDbLine
 62
7
  6
CONTINUOUS
 10
-14.9
 20
23.3
 11
14.9
 21
23.3
  0
LINE
  5
41D
100
AcDbEntity
  8
0
100
AcDbLine
 62
7
  6
CONTINUOUS
 10
15.7
 20
23.3
 11
45.5
 21
23.3
  0
LINE
  5
41E
100
AcDbEntity
  8
0
100
AcDbLine
 62
7
  6
CONTINUOUS
 10
46.3
 20
23.3
 11
75.9
 21
23.3
  0
LINE
  5
41F
100
AcDbEntity
  8
DRAFT
100
AcDbLine
 62
7
  6
CONTINUOUS
 10
76.7
 20
23.3
 11
95.0536834374
 21
23.3
  0
LINE
  5
420
100
AcDbEntity
  8
0
100
AcDbLine
 62
7
  6
CONTINUOUS
 10
-76.7
 20
24.8588209066
 11
-75.9
 21
24.8588209066
  0
LINE
  5
421
100
AcDbEntity
  8
0
100
AcDbLine
 62
7
  6
CONTINUOUS
 10
-46.3
 20
24.8588209066
 11
-45.5
 21
24.8588209066
  0
LINE
  5
422
100
AcDbEntity
  8
0
100
AcDbLine
 62
7
  6
CONTINUOUS
 10
-15.7
 20
24.8588209066
 11
-14.9
 21
24.8588209066
  0
LINE
  5
423
100
AcDbEntity
  8
0
100
AcDbLine
 62
7
  6
CONTINUOUS
 10
14.9
 20
24.8588209066
 11
15.7
 21
24.8588209066
  0
LINE
  5
424
100
AcDbEntity
  8
0
100
AcDbLine
 62
7
  6
CONTINUOUS
 10
45.5
 20
24.8588209066
 11
46.3
 21
24.8588209066
  0
LINE
  5
425
100
AcDbEntity
  8
0
100
AcDbLine
 62
7
  6
CONTINUOUS
 10
75.9
 20
24.8588209066
 11
76.7
 21
24.8588209066
  0
LINE
  5
426
100
AcDbEntity
  8
RACCORDO
100
AcDbLine
 62
7
  6
CONTINUOUS
 10
-95.2790368883
 20
25.5
 11
-93.6
 21
25.5
  0
LINE
  5
427
100
AcDbEntity
  8
RACCORDO
100
AcDbLine
 62
7
  6
CONTINUOUS
 10
95.2790368883
 20
25.5
 11
93.6
 21
25.5
  0
LINE
  5
428
100
AcDbEntity
  8
0
100
AcDbLine
 62
7
  6
CONTINUOUS
 10
55.197964
 20
26.03447
 11
55.446946
 21
26.03447
  0
LINE
  5
429
100
AcDbEntity
  8
0
100
AcDbLine
 62
7
  6
CONTINUOUS
 10
57.9602801934
 20
26.03447
 11
58.2161783156
 21
26.03447
  0
LINE
  5
42A
100
AcDbEntity
  8
0
100
AcDbLine
 62
7
  6
CONTINUOUS
 10
60.033746
 20
26.03447
 11
60.282728
 21
26.03447
  0
LINE
  5
42B
100
AcDbEntity
  8
RACCORDO
100
AcDbLine
 62
7
  6
CONTINUOUS
 10
-95.2790368883
 20
26.3
 11
-93.6
 21
26.3
  0
LINE
  5
42C
100
AcDbEntity
  8
RACCORDO
100
AcDbLine
 62
7
  6
CONTINUOUS
 10
95.2790368883
 20
26.3
 11
93.6
 21
26.3
  0
LINE
  5
42D
100
AcDbEntity
  8
0
100
AcDbLine
 62
7
  6
CONTINUOUS
 10
59.15401
 20
26.519984
 11
60.033746
 21
26.519984
  0
LINE
  5
42E
100
AcDbEntity
  8
0
100
AcDbLine
 62
7
  6
CONTINUOUS
 10
60.282728
 20
26.519984
 11
60.556609
 21
26.519984
  0
LINE
  5
42F
100
AcDbEntity
  8
0
100
AcDbLine
 62
7
  6
CONTINUOUS
 10
59.398843
 20
26.748218
 11
60.033746
 21
26.748218
  0
LINE
  5
430
100
AcDbEntity
  8
0
100
AcDbLine
 62
7
  6
CONTINUOUS
 10
60.282728
 20
26.748218
 11
60.556609
 21
26.748218
  0
LINE
  5
431
100
AcDbEntity
  8
0
100
AcDbLine
 62
7
  6
CONTINUOUS
 10
57.676717
 20
27.796709
 11
58.6698791414
 21
27.796709
  0
LINE
  5
432
100
AcDbEntity
  8
0
100
AcDbLine
 62
7
  6
CONTINUOUS
 10
57.676717
 20
28.036008
 11
58.989406
 21
28.036008
  0
LINE
  5
433
100
AcDbEntity
  8
0
100
AcDbLine
 62
7
  6
CONTINUOUS
 10
60.079393
 20
28.062289
 11
60.282728
 21
28.062289
  0
LINE
  5
434
100
AcDbEntity
  8
0
100
AcDbLine
 62
7
  6
CONTINUOUS
 10
55.2864909651
 20
28.070589
 11
55.446946
 21
28.070589
  0
LWPOLYLINE
  5
435
100
AcDbEntity
  8
0
100
AcDbPolyline
 62
7
  6
CONTINUOUS
 90
48
 70
0
 10
56.3211490793
 20
27.0801938226
 10
56.3450774589
 20
27.1148851209
 10
56.3710724948
 20
27.1475164039
 10
56.3991341868
 20
27.1780873044
 10
56.4293475731
 20
27.2067827877
 10
56.4616276156
 20
27.2334172452
 10
56.4957192
 20
27.2574344058
 10
56.5317917276
 20
27.278695022
 10
56.5696757972
 20
27.2973376946
 10
56.6086080908
 20
27.3132228886
 10
56.6485243422
 20
27.3263736439
 10
56.6894888177
 20
27.3367664956
 10
56.7309309985
 20
27.344192188
 10
56.7729282108
 20
27.3485532239
 10
56.8154031284
 20
27.3499469131
 10
56.8575532538
 20
27.3484562702
 10
56.8993049514
 20
27.3441566675
 10
56.9407318567
 20
27.3369728203
 10
56.9812523792
 20
27.3267618302
 10
57.0208271392
 20
27.3134231907
 10
57.0594955162
 20
27.2970577911
 10
57.0967940588
 20
27.2778248913
 10
57.1326639442
 20
27.2556399763
 10
57.167163995
 20
27.2305882024
 10
57.2000072274
 20
27.2030833343
 10
57.2313776101
 20
27.1730678213
 10
57.2610911743
 20
27.1405999828
 10
57.2883090304
 20
27.1062672817
 10
57.3128667293
 20
27.0700304154
 10
57.33492872
 20
27.0319294144
 10
57.3541494593
 20
26.9926705249
 10
57.3703251473
 20
26.9524079494
 10
57.3836595838
 20
26.9109879825
 10
57.3944186253
 20
26.8686548207
 10
57.4026290507
 20
26.8254664025
 10
57.408264081
 20
26.781365232
 10
57.4115092355
 20
26.7364222908
 10
57.4125584184
 20
26.6904239278
 10
57.4112177255
 20
26.6435842823
 10
57.407090963
 20
26.596615826
 10
57.4000687758
 20
26.5494054612
 10
57.390260519
 20
26.5020664036
 10
57.3775980633
 20
26.4556501305
 10
57.3618942016
 20
26.4101279449
 10
57.343336141
 20
26.3655280957
 10
57.3224173741
 20
26.3229869155
 10
57.299170906
 20
26.2826540491
 10
57.2735637316
 20
26.2443788718
  0
LWPOLYLINE
  5
436
100
AcDbEntity
  8
0
100
AcDbPolyline
 62
7
  6
CONTINUOUS
 90
48
 70
0
 10
61.04765625
 20
27.0801938226
 10
61.0715846296
 20
27.1148851209
 10
61.0975796653
 20
27.1475164038
 10
61.1256413573
 20
27.1780873042
 10
61.1558547435
 20
27.2067827875
 10
61.1881347859
 20
27.2334172449
 10
61.2222263702
 20
27.2574344055
 10
61.2582988977
 20
27.2786950217
 10
61.2961829672
 20
27.2973376943
 10
61.3351152607
 20
27.3132228883
 10
61.375031512
 20
27.3263736436
 10
61.4159959874
 20
27.3367664953
 10
61.4574381681
 20
27.3441921878
 10
61.4994353803
 20
27.3485532238
 10
61.5419102978
 20
27.3499469131
 10
61.5840604231
 20
27.3484562703
 10
61.6258121206
 20
27.3441566677
 10
61.6672390259
 20
27.3369728206
 10
61.7077595483
 20
27.3267618306
 10
61.7473343082
 20
27.3134231913
 10
61.7860026853
 20
27.2970577919
 10
61.8233012278
 20
27.2778248922
 10
61.8591711132
 20
27.2556399774
 10
61.893671164
 20
27.2305882037
 10
61.9265143965
 20
27.2030833358
 10
61.9578847791
 20
27.173067823
 10
61.9875983434
 20
27.1405999847
 10
62.0148161995
 20
27.1062672837
 10
62.0393738985
 20
27.0700304176
 10
62.0614358894
 20
27.0319294168
 10
62.0806566288
 20
26.9926705275
 10
62.096832317
 20
26.9524079522
 10
62.1101667537
 20
26.9109879854
 10
62.1209257953
 20
26.8686548238
 10
62.1291362209
 20
26.8254664057
 10
62.1347712514
 20
26.7813652353
 10
62.138016406
 20
26.7364222943
 10
62.1390655891
 20
26.6904239316
 10
62.1377248964
 20
26.6435842862
 10
62.1335981341
 20
26.59661583
 10
62.1265759472
 20
26.5494054653
 10
62.1167676907
 20
26.5020664078
 10
62.1041052353
 20
26.4556501347
 10
62.0884013739
 20
26.4101279491
 10
62.0698433136
 20
26.3655280999
 10
62.048924547
 20
26.3229869196
 10
62.0256780792
 20
26.282654053
 10
62.000070905
 20
26.2443788755
  0
LINE
  5
437
100
AcDbEntity
  8
0
100
AcDbLine
 62
7
  6
CONTINUOUS
 10
59.398843
 20
26.748218
 11
60.033746
 21
27.662535
  0
LINE
  5
438
100
AcDbEntity
  8
0
100
AcDbLine
 62
7
  6
CONTINUOUS
 10
59.15401
 20
26.748218
 11
60.079393
 21
28.062289
  0
LWPOLYLINE
  5
439
100
AcDbEntity
  8
0
100
AcDbPolyline
 62
7
  6
CONTINUOUS
 90
61
 70
0
 10
57.2735637316
 20
26.2443788718
 10
57.245990328
 20
26.2088469056
 10
57.2164638464
 20
26.1762764027
 10
57.1849711356
 20
26.1464480153
 10
57.1518672185
 20
26.1193907712
 10
57.117202303
 20
26.0951325093
 10
57.0809261811
 20
26.0736445664
 10
57.0432432523
 20
26.0548712844
 10
57.0040479932
 20
26.0387597189
 10
56.9634459271
 20
26.0253622663
 10
56.9219580229
 20
26.0147813424
 10
56.8795383815
 20
26.0071313632
 10
56.8362329019
 20
26.0022976081
 10
56.79270025
 20
26.0000388563
 10
56.7489031788
 20
26.0002478614
 10
56.7048789352
 20
26.0030318392
 10
56.661397925
 20
26.0084713288
 10
56.6185023903
 20
26.0165560655
 10
56.576150089
 20
26.027296524
 10
56.5349847005
 20
26.0408044219
 10
56.4951705198
 20
26.0571153422
 10
56.456543252
 20
26.0761941853
 10
56.419253691
 20
26.0980467189
 10
56.3832806599
 20
26.1226637361
 10
56.3486453357
 20
26.1500551897
 10
56.3155620442
 20
26.1802556572
 10
56.2837312367
 20
26.2134351414
 10
56.2534524618
 20
26.2494246815
 10
56.2258386914
 20
26.2877503824
 10
56.2013015765
 20
26.3287106663
 10
56.1794294661
 20
26.3720082019
 10
56.1601003778
 20
26.4162750717
 10
56.1435036377
 20
26.4611916106
 10
56.1294499198
 20
26.5070778957
 10
56.1172492637
 20
26.5535251855
 10
56.1068299834
 20
26.6003786038
 10
56.0982637649
 20
26.6477932651
 10
56.0910757065
 20
26.6958253247
 10
56.0851950193
 20
26.7445297709
 10
56.0806924921
 20
26.7938519254
 10
56.07730559
 20
26.84368343
 10
56.0750036594
 20
26.8940643888
 10
56.0738173539
 20
26.9449549502
 10
56.0735760994
 20
26.9961267305
 10
56.074168643
 20
27.0475535392
 10
56.0757062377
 20
27.0992616803
 10
56.0783520673
 20
27.1511014066
 10
56.0820539439
 20
27.2031356519
 10
56.0868640555
 20
27.2553015276
 10
56.0931021506
 20
27.3072604157
 10
56.1007845656
 20
27.3591433736
 10
56.1098949641
 20
27.4108192138
 10
56.1207040857
 20
27.4615556593
 10
56.1332696855
 20
27.5113863334
 10
56.1475340084
 20
27.5602770864
 10
56.1635945286
 20
27.6073935804
 10
56.1814800027
 20
27.6526120739
 10
56.2011616742
 20
27.6960554105
 10
56.2226507471
 20
27.7372588428
 10
56.2459595497
 20
27.7760692082
 10
56.2710757539
 20
27.8126387098
  0
LWPOLYLINE
  5
43A
100
AcDbEntity
  8
0
100
AcDbPolyline
 62
7
  6
CONTINUOUS
 90
61
 70
0
 10
62.000070905
 20
26.2443788755
 10
61.9724975016
 20
26.2088469092
 10
61.9429710203
 20
26.1762764061
 10
61.9114783098
 20
26.1464480184
 10
61.878374393
 20
26.1193907741
 10
61.8437094777
 20
26.0951325119
 10
61.8074333561
 20
26.0736445688
 10
61.7697504274
 20
26.0548712865
 10
61.7305551686
 20
26.0387597206
 10
61.6899531028
 20
26.0253622677
 10
61.6484651988
 20
26.0147813436
 10
61.6060455576
 20
26.007131364
 10
61.5627400782
 20
26.0022976086
 10
61.5192074263
 20
26.0000388564
 10
61.4754103553
 20
26.0002478612
 10
61.4313861118
 20
26.0030318387
 10
61.3879051017
 20
26.0084713279
 10
61.345009567
 20
26.0165560642
 10
61.3026572656
 20
26.0272965223
 10
61.261491877
 20
26.0408044197
 10
61.2216776962
 20
26.0571153396
 10
61.1830504282
 20
26.0761941823
 10
61.1457608672
 20
26.0980467154
 10
61.1097878359
 20
26.1226637322
 10
61.0751525116
 20
26.1500551853
 10
61.0420692199
 20
26.1802556523
 10
61.0102384122
 20
26.2134351359
 10
60.9799596371
 20
26.2494246754
 10
60.9523458664
 20
26.2877503758
 10
60.9278087511
 20
26.3287106594
 10
60.9059366402
 20
26.3720081946
 10
60.8866075515
 20
26.4162750641
 10
60.870010811
 20
26.4611916028
 10
60.8559570927
 20
26.5070778877
 10
60.8437564364
 20
26.5535251774
 10
60.8333371558
 20
26.6003785954
 10
60.824770937
 20
26.6477932565
 10
60.8175828784
 20
26.695825316
 10
60.8117021909
 20
26.7445297619
 10
60.8071996635
 20
26.7938519161
 10
60.8038127612
 20
26.8436834206
 10
60.8015108304
 20
26.8940643792
 10
60.8003245247
 20
26.9449549404
 10
60.80008327
 20
26.9961267205
 10
60.8006758135
 20
27.047553529
 10
60.8022134079
 20
27.09926167
 10
60.8048592374
 20
27.1511013961
 10
60.8085611137
 20
27.2031356413
 10
60.813371225
 20
27.2553015168
 10
60.8196093198
 20
27.3072604049
 10
60.8272917345
 20
27.3591433627
 10
60.8364021326
 20
27.4108192029
 10
60.8472112538
 20
27.4615556485
 10
60.8597768532
 20
27.5113863227
 10
60.8740411757
 20
27.5602770759
 10
60.8901016955
 20
27.6073935701
 10
60.9079871692
 20
27.652612064
 10
60.9276688402
 20
27.696055401
 10
60.9491579127
 20
27.7372588337
 10
60.9724667149
 20
27.7760691996
 10
60.9975829185
 20
27.8126387016
  0
LWPOLYLINE
  5
43B
100
AcDbEntity
  8
0
100
AcDbPolyline
 62
7
  6
CONTINUOUS
 90
35
 70
0
 10
60.9975829185
 20
27.8126387016
 10
61.0244807436
 20
27.8469605786
 10
61.0531075723
 20
27.8790445473
 10
61.0835160225
 20
27.908880122
 10
61.1158381672
 20
27.9364302725
 10
61.1501712807
 20
27.9618125871
 10
61.1864180888
 20
27.9849088715
 10
61.2244188416
 20
28.0053284129
 10
61.2643499446
 20
28.0229934727
 10
61.3060349923
 20
28.0379812704
 10
61.3487850192
 20
28.0501335285
 10
61.3926645785
 20
28.0593147114
 10
61.4376091169
 20
28.0656600468
 10
61.4827360095
 20
28.0694174587
 10
61.5280565683
 20
28.0707344068
 10
61.5735594813
 20
28.069463367
 10
61.6183281874
 20
28.0654098472
 10
61.6623507341
 20
28.0585748318
 10
61.7056390738
 20
28.0489574877
 10
61.7473125022
 20
28.036360666
 10
61.787281461
 20
28.0205947139
 10
61.8256355084
 20
28.0018497172
 10
61.8617626152
 20
27.9804981764
 10
61.8955457944
 20
27.9565008393
 10
61.9271020329
 20
27.9298975591
 10
61.9561702621
 20
27.9011794474
 10
61.9827145215
 20
27.8703395429
 10
62.0067707715
 20
27.837385453
 10
62.0281858244
 20
27.8028300262
 10
62.0468286787
 20
27.7667407083
 10
62.0628303358
 20
27.7290506355
 10
62.0764306128
 20
27.6900710684
 10
62.0877094488
 20
27.6499059145
 10
62.0965869048
 20
27.6084517956
 10
62.1030629807
 20
27.5657089985
  0
LINE
  5
43C
100
AcDbEntity
  8
0
100
AcDbLine
 62
7
  6
CONTINUOUS
 10
-70.727009
 20
30.539734
 11
-72.066887
 21
30.539734
  0
LINE
  5
43D
100
AcDbEntity
  8
0
100
AcDbLine
 62
7
  6
CONTINUOUS
 10
-70.727009
 20
31.011955
 11
-71.145335
 21
31.011955
  0
LINE
  5
43E
100
AcDbEntity
  8
0
100
AcDbLine
 62
7
  6
CONTINUOUS
 10
-71.648398
 20
31.011955
 11
-72.066887
 21
31.011955
  0
LINE
  5
43F
100
AcDbEntity
  8
0
100
AcDbLine
 62
7
  6
CONTINUOUS
 10
-80.66818
 20
31.352609
 11
-82.786316
 21
31.352609
  0
LINE
  5
440
100
AcDbEntity
  8
0
100
AcDbLine
 62
7
  6
CONTINUOUS
 10
-84.431169
 20
31.352609
 11
-86.2366778349
 21
31.352609
  0
LINE
  5
441
100
AcDbEntity
  8
0
100
AcDbLine
 62
7
  6
CONTINUOUS
 10
-87.478287
 20
31.352609
 11
-89.6005106472
 21
31.352609
  0
LINE
  5
442
100
AcDbEntity
  8
0
100
AcDbLine
 62
7
  6
CONTINUOUS
 10
-90.948172
 20
31.352609
 11
-92.107325
 21
31.352609
  0
LINE
  5
443
100
AcDbEntity
  8
0
100
AcDbLine
 62
7
  6
CONTINUOUS
 10
87.315813
 20
33.099907
 11
88.05584
 21
33.099917
  0
LINE
  5
444
100
AcDbEntity
  8
0
100
AcDbLine
 62
7
  6
CONTINUOUS
 10
84.642766
 20
33.099907
 11
85.382775
 21
33.099917
  0
LINE
  5
445
100
AcDbEntity
  8
0
100
AcDbLine
 62
7
  6
CONTINUOUS
 10
81.72305
 20
33.099898
 11
82.463077
 21
33.099907
  0
LINE
  5
446
100
AcDbEntity
  8
0
100
AcDbLine
 62
7
  6
CONTINUOUS
 10
93.05282
 20
33.099917
 11
93.886347
 21
33.099926
  0
LINE
  5
447
100
AcDbEntity
  8
0
100
AcDbLine
 62
7
  6
CONTINUOUS
 10
79.301649
 20
33.099898
 11
80.041705
 21
33.099907
  0
LINE
  5
448
100
AcDbEntity
  8
0
100
AcDbLine
 62
7
  6
CONTINUOUS
 10
83.203087
 20
33.099907
 11
83.943114
 21
33.099907
  0
LINE
  5
449
100
AcDbEntity
  8
0
100
AcDbLine
 62
7
  6
CONTINUOUS
 10
86.082436
 20
33.099907
 11
86.822464
 21
33.099907
  0
LINE
  5
44A
100
AcDbEntity
  8
0
100
AcDbLine
 62
7
  6
CONTINUOUS
 10
90.925218
 20
33.099917
 11
91.665255
 21
33.099917
  0
LINE
  5
44B
100
AcDbEntity
  8
0
100
AcDbLine
 62
7
  6
CONTINUOUS
 10
89.691832
 20
33.099917
 11
90.431869
 21
33.099907
  0
LINE
  5
44C
100
AcDbEntity
  8
0
100
AcDbLine
 62
7
  6
CONTINUOUS
 10
88.289468
 20
33.827577
 11
89.458214
 21
33.827577
  0
LINE
  5
44D
100
AcDbEntity
  8
0
100
AcDbLine
 62
7
  6
CONTINUOUS
 10
-70.74243
 20
34.366846
 11
-71.145335
 21
34.366846
  0
LINE
  5
44E
100
AcDbEntity
  8
0
100
AcDbLine
 62
7
  6
CONTINUOUS
 10
-71.648398
 20
34.366846
 11
-72.051466
 21
34.366846
  0
LINE
  5
44F
100
AcDbEntity
  8
0
100
AcDbLine
 62
7
  6
CONTINUOUS
 10
-76.7
 20
34.5
 11
-75.9
 21
34.5
  0
LINE
  5
450
100
AcDbEntity
  8
0
100
AcDbLine
 62
7
  6
CONTINUOUS
 10
-46.3
 20
34.5
 11
-45.5
 21
34.5
  0
LINE
  5
451
100
AcDbEntity
  8
0
100
AcDbLine
 62
7
  6
CONTINUOUS
 10
-15.7
 20
34.5
 11
-14.9
 21
34.5
  0
LINE
  5
452
100
AcDbEntity
  8
0
100
AcDbLine
 62
7
  6
CONTINUOUS
 10
14.9
 20
34.5
 11
15.7
 21
34.5
  0
LINE
  5
453
100
AcDbEntity
  8
0
100
AcDbLine
 62
7
  6
CONTINUOUS
 10
45.5
 20
34.5
 11
46.3
 21
34.5
  0
LINE
  5
454
100
AcDbEntity
  8
0
100
AcDbLine
 62
7
  6
CONTINUOUS
 10
75.9
 20
34.5
 11
76.7
 21
34.5
  0
LINE
  5
455
100
AcDbEntity
  8
0
100
AcDbLine
 62
7
  6
CONTINUOUS
 10
88.515195
 20
34.530605
 11
89.232477
 21
34.530605
  0
LINE
  5
456
100
AcDbEntity
  8
0
100
AcDbLine
 62
7
  6
CONTINUOUS
 10
91.665338
 20
34.530614
 11
92.31122
 21
34.530605
  0
LINE
  5
457
100
AcDbEntity
  8
0
100
AcDbLine
 62
7
  6
CONTINUOUS
 10
-70.74243
 20
34.841663
 11
-72.051466
 21
34.841663
  0
LINE
  5
458
100
AcDbEntity
  8
0
100
AcDbLine
 62
7
  6
CONTINUOUS
 10
-83.960478
 20
34.984619
 11
-85.3880839164
 21
34.984619
  0
LINE
  5
459
100
AcDbEntity
  8
0
100
AcDbLine
 62
7
  6
CONTINUOUS
 10
-87.648525
 20
34.984619
 11
-88.5676244906
 21
34.984619
  0
LINE
  5
45A
100
AcDbEntity
  8
0
100
AcDbLine
 62
7
  6
CONTINUOUS
 10
91.655052
 20
35.215142
 11
92.555398
 21
35.215142
  0
LINE
  5
45B
100
AcDbEntity
  8
0
100
AcDbLine
 62
7
  6
CONTINUOUS
 10
91.655043
 20
36.115556
 11
92.555398
 21
36.115556
  0
LINE
  5
45C
100
AcDbEntity
  8
0
100
AcDbLine
 62
7
  6
CONTINUOUS
 10
-80.3816568927
 20
34.9846192866
 11
-82.05893
 21
34.985193
  0
LWPOLYLINE
  5
45D
100
AcDbEntity
  8
0
100
AcDbPolyline
 62
7
  6
CONTINUOUS
 90
16
 70
0
 10
88.4417187318
 20
9.8842739216
 10
88.4827807215
 20
9.8738375522
 10
88.4997651396
 20
9.8694086768
 10
88.5163264329
 20
9.86498272
 10
88.5324636844
 20
9.8605706789
 10
88.5481778112
 20
9.8561615564
 10
88.5634715648
 20
9.8517223603
 10
88.57834658
 20
9.8472636591
 10
88.5928012219
 20
9.8427748842
 10
88.6068333377
 20
9.8381913377
 10
88.6204623492
 20
9.8335613032
 10
88.6336688346
 20
9.828836497
 10
88.6463923758
 20
9.82380737
 10
88.6586128335
 20
9.8184040722
 10
88.6703503471
 20
9.812696453
 10
88.6816049166
 20
9.8066845122
  0
LINE
  5
45E
100
AcDbEntity
  8
0
100
AcDbLine
 62
7
  6
CONTINUOUS
 10
88.4940050841
 20
10.0963008935
 11
88.4450301929
 21
10.1095586849
  0
LINE
  5
45F
100
AcDbEntity
  8
0
100
AcDbLine
 62
7
  6
CONTINUOUS
 10
88.4450301929
 20
10.1095586849
 11
88.39477064
 21
10.1234133346
  0
LINE
  5
460
100
AcDbEntity
  8
0
100
AcDbLine
 62
7
  6
CONTINUOUS
 10
88.5299624542
 20
10.08635561
 11
88.4940050841
 21
10.0963008935
  0
LINE
  5
461
100
AcDbEntity
  8
0
100
AcDbLine
 62
7
  6
CONTINUOUS
 10
88.39477064
 20
10.1234133346
 11
88.3570551672
 21
10.1340295987
  0
LINE
  5
462
100
AcDbEntity
  8
0
100
AcDbLine
 62
7
  6
CONTINUOUS
 10
88.565473319
 20
10.0762820603
 11
88.5299624542
 21
10.08635561
  0
LWPOLYLINE
  5
463
100
AcDbEntity
  8
0
100
AcDbPolyline
 62
7
  6
CONTINUOUS
 90
7
 70
0
 10
88.3570551672
 20
10.1340295987
 10
88.3320827663
 20
10.1412110655
 10
88.3196818858
 20
10.1448273974
 10
88.3073570777
 20
10.148535142
 10
88.2951157365
 20
10.1523565799
 10
88.2829504677
 20
10.1562694303
 10
88.2708612712
 20
10.1602736931
  0
LINE
  5
464
100
AcDbEntity
  8
0
100
AcDbLine
 62
7
  6
CONTINUOUS
 10
88.6005953837
 20
10.0660305319
 11
88.565473319
 21
10.0762820603
  0
LINE
  5
465
100
AcDbEntity
  8
RACCORDO
100
AcDbLine
 62
250
  6
CONTINUOUS
 10
94.7562294251
 20
38.5558182856
 11
95.0004111396
 21
38.8
  0
LINE
  5
466
100
AcDbEntity
  8
RACCORDO
100
AcDbLine
 62
250
  6
CONTINUOUS
 10
95.0558183433
 20
38.2562294829
 11
95.3
 21
38.5004111396
  0
LWPOLYLINE
  5
467
100
AcDbEntity
  8
0
100
AcDbPolyline
 62
7
  6
CONTINUOUS
 90
13
 70
0
 10
88.2262529001
 20
10.4038677829
 10
88.2402067383
 20
10.4130580552
 10
88.254816505
 20
10.4211373696
 10
88.2700822003
 20
10.4281057276
 10
88.2860457012
 20
10.4338392891
 10
88.3026651307
 20
10.4384618967
 10
88.3198148574
 20
10.4423450761
 10
88.3374339997
 20
10.4455662751
 10
88.3555834393
 20
10.4480480468
 10
88.3743201898
 20
10.4499295735
 10
88.3936632559
 20
10.4512572498
 10
88.4135936329
 20
10.4519846815
 10
88.4341113208
 20
10.4521118687
  0
LINE
  5
468
100
AcDbEntity
  8
0
100
AcDbLine
 62
7
  6
CONTINUOUS
 10
-88.7214526779
 20
34.9789880727
 11
-88.5676244906
 21
34.984619
  0
LINE
  5
469
100
AcDbEntity
  8
ASSI
100
AcDbLine
 62
7
  6
CONTINUOUS
 10
3.0
 20
36.6
 11
2.2
 21
36.6
  0
LINE
  5
46A
100
AcDbEntity
  8
ASSI
100
AcDbLine
 62
7
  6
CONTINUOUS
 10
0.4
 20
36.6
 11
-0.4
 21
36.6
  0
LINE
  5
46B
100
AcDbEntity
  8
ASSI
100
AcDbLine
 62
7
  6
CONTINUOUS
 10
-2.2
 20
36.6
 11
-3.0
 21
36.6
  0
LINE
  5
46C
100
AcDbEntity
  8
0
100
AcDbLine
 62
7
  6
CONTINUOUS
 10
78.113653
 20
36.800074
 11
78.85369
 21
36.800074
  0
LINE
  5
46D
100
AcDbEntity
  8
0
100
AcDbLine
 62
7
  6
CONTINUOUS
 10
80.489673
 20
36.800074
 11
81.22971
 21
36.800074
  0
LINE
  5
46E
100
AcDbEntity
  8
0
100
AcDbLine
 62
7
  6
CONTINUOUS
 10
81.723059
 20
36.800074
 11
82.463087
 21
36.800074
  0
LINE
  5
46F
100
AcDbEntity
  8
0
100
AcDbLine
 62
7
  6
CONTINUOUS
 10
83.203087
 20
36.800074
 11
84.321809
 21
36.800074
  0
LINE
  5
470
100
AcDbEntity
  8
0
100
AcDbLine
 62
7
  6
CONTINUOUS
 10
85.703741
 20
36.800074
 11
86.822464
 21
36.800074
  0
LINE
  5
471
100
AcDbEntity
  8
0
100
AcDbLine
 62
7
  6
CONTINUOUS
 10
88.503799
 20
36.800083
 11
89.243864
 21
36.800083
  0
LINE
  5
472
100
AcDbEntity
  8
0
100
AcDbLine
 62
7
  6
CONTINUOUS
 10
90.925218
 20
36.800083
 11
92.658113
 21
36.800083
  0
LINE
  5
473
100
AcDbEntity
  8
ASSI
100
AcDbLine
 62
7
  6
CONTINUOUS
 10
3.0
 20
37.3
 11
2.2
 21
37.3
  0
LINE
  5
474
100
AcDbEntity
  8
ASSI
100
AcDbLine
 62
7
  6
CONTINUOUS
 10
0.4
 20
37.3
 11
-0.4
 21
37.3
  0
LINE
  5
475
100
AcDbEntity
  8
ASSI
100
AcDbLine
 62
7
  6
CONTINUOUS
 10
-2.2
 20
37.3
 11
-3.0
 21
37.3
  0
LINE
  5
476
100
AcDbEntity
  8
0
100
AcDbLine
 62
7
  6
CONTINUOUS
 10
75.9
 20
37.5018681365
 11
46.3
 21
37.5018681365
  0
LINE
  5
477
100
AcDbEntity
  8
0
100
AcDbLine
 62
7
  6
CONTINUOUS
 10
45.5
 20
37.5018681365
 11
15.7
 21
37.5018681365
  0
LINE
  5
478
100
AcDbEntity
  8
ASSI
100
AcDbLine
 62
7
  6
CONTINUOUS
 10
14.9
 20
37.5018681365
 11
3.0
 21
37.5018681365
  0
LINE
  5
479
100
AcDbEntity
  8
ASSI
100
AcDbLine
 62
7
  6
CONTINUOUS
 10
-3.0
 20
37.5018681365
 11
-14.9
 21
37.5018681365
  0
LINE
  5
47A
100
AcDbEntity
  8
0
100
AcDbLine
 62
7
  6
CONTINUOUS
 10
-15.7
 20
37.5018681365
 11
-45.5
 21
37.5018681365
  0
LINE
  5
47B
100
AcDbEntity
  8
0
100
AcDbLine
 62
7
  6
CONTINUOUS
 10
-46.3
 20
37.5018681365
 11
-75.9
 21
37.5018681365
  0
LINE
  5
47C
100
AcDbEntity
  8
0
100
AcDbLine
 62
7
  6
CONTINUOUS
 10
-75.9
 20
38.1
 11
-46.3
 21
38.1
  0
LINE
  5
47D
100
AcDbEntity
  8
0
100
AcDbLine
 62
7
  6
CONTINUOUS
 10
-45.5
 20
38.1
 11
-15.7
 21
38.1
  0
LINE
  5
47E
100
AcDbEntity
  8
0
100
AcDbLine
 62
7
  6
CONTINUOUS
 10
-14.9
 20
38.1
 11
-3.0
 21
38.1
  0
LINE
  5
47F
100
AcDbEntity
  8
0
100
AcDbLine
 62
7
  6
CONTINUOUS
 10
3.0
 20
38.1
 11
14.9
 21
38.1
  0
LINE
  5
480
100
AcDbEntity
  8
0
100
AcDbLine
 62
7
  6
CONTINUOUS
 10
15.7
 20
38.1
 11
45.5
 21
38.1
  0
LINE
  5
481
100
AcDbEntity
  8
0
100
AcDbLine
 62
7
  6
CONTINUOUS
 10
46.3
 20
38.1
 11
75.9
 21
38.1
  0
LINE
  5
482
100
AcDbEntity
  8
RACCORDO
100
AcDbLine
 62
250
  6
CONTINUOUS
 10
-94.7562294251
 20
38.2837189313
 11
-76.7
 21
38.2837189313
  0
LINE
  5
483
100
AcDbEntity
  8
RACCORDO
100
AcDbLine
 62
250
  6
CONTINUOUS
 10
94.7562294251
 20
38.2837189313
 11
76.7
 21
38.2837189313
  0
LINE
  5
484
100
AcDbEntity
  8
DRAFT
100
AcDbLine
 62
7
  6
CONTINUOUS
 10
-75.9
 20
38.4960348802
 11
-46.3
 21
38.4960348802
  0
LINE
  5
485
100
AcDbEntity
  8
DRAFT
100
AcDbLine
 62
7
  6
CONTINUOUS
 10
-45.5
 20
38.4960348802
 11
-15.7
 21
38.4960348802
  0
LINE
  5
486
100
AcDbEntity
  8
DRAFT
100
AcDbLine
 62
7
  6
CONTINUOUS
 10
-14.9
 20
38.4960348802
 11
-3.0
 21
38.4960348802
  0
LINE
  5
487
100
AcDbEntity
  8
DRAFT
100
AcDbLine
 62
7
  6
CONTINUOUS
 10
3.0
 20
38.4960348802
 11
14.9
 21
38.4960348802
  0
LINE
  5
488
100
AcDbEntity
  8
DRAFT
100
AcDbLine
 62
7
  6
CONTINUOUS
 10
15.7
 20
38.4960348802
 11
45.5
 21
38.4960348802
  0
LINE
  5
489
100
AcDbEntity
  8
DRAFT
100
AcDbLine
 62
7
  6
CONTINUOUS
 10
46.3
 20
38.4960348802
 11
75.9
 21
38.4960348802
  0
LINE
  5
48A
100
AcDbEntity
  8
ASSI
100
AcDbLine
 62
7
  6
CONTINUOUS
 10
2.2
 20
38.5
 11
0.4
 21
38.5
  0
LINE
  5
48B
100
AcDbEntity
  8
ASSI
100
AcDbLine
 62
7
  6
CONTINUOUS
 10
-0.4
 20
38.5
 11
-2.2
 21
38.5
  0
LINE
  5
48C
100
AcDbEntity
  8
RACCORDO
100
AcDbLine
 62
250
  6
CONTINUOUS
 10
-94.7562294251
 20
38.5558182856
 11
-76.7
 21
38.5558182856
  0
LINE
  5
48D
100
AcDbEntity
  8
RACCORDO
100
AcDbLine
 62
250
  6
CONTINUOUS
 10
94.7562294251
 20
38.5558182856
 11
76.7
 21
38.5558182856
  0
LINE
  5
48E
100
AcDbEntity
  8
DRAFT
100
AcDbLine
 62
7
  6
CONTINUOUS
 10
2.2
 20
38.7816277668
 11
0.4
 21
38.7816277668
  0
LINE
  5
48F
100
AcDbEntity
  8
DRAFT
100
AcDbLine
 62
7
  6
CONTINUOUS
 10
-0.4
 20
38.7816277668
 11
-2.2
 21
38.7816277668
  0
LINE
  5
490
100
AcDbEntity
  8
RACCORDO
100
AcDbLine
 62
7
  6
CONTINUOUS
 10
-95.0004111396
 20
38.8
 11
-3.0
 21
38.8
  0
LINE
  5
491
100
AcDbEntity
  8
DRAFT
100
AcDbLine
 62
7
  6
CONTINUOUS
 10
-2.2
 20
38.8
 11
-0.4
 21
38.8
  0
LINE
  5
492
100
AcDbEntity
  8
DRAFT
100
AcDbLine
 62
7
  6
CONTINUOUS
 10
0.4
 20
38.8
 11
2.2
 21
38.8
  0
LINE
  5
493
100
AcDbEntity
  8
RACCORDO
100
AcDbLine
 62
7
  6
CONTINUOUS
 10
3.0
 20
38.8
 11
95.0004111396
 21
38.8
  0
LINE
  5
494
100
AcDbEntity
  8
RACCORDO
100
AcDbLine
 62
7
  6
CONTINUOUS
 10
96.3016445583
 20
41.0
 11
-96.3016445583
 21
41.0
  0
LINE
  5
495
100
AcDbEntity
  8
RACCORDO
100
AcDbLine
 62
250
  6
CONTINUOUS
 10
-76.6794154494
 20
38.2647143387
 11
-76.6541832288
 21
38.2647104937
  0
LINE
  5
496
100
AcDbEntity
  8
RACCORDO
100
AcDbLine
 62
250
  6
CONTINUOUS
 10
-76.7
 20
38.2647056027
 11
-76.6794154494
 21
38.2647143387
  0
LINE
  5
497
100
AcDbEntity
  8
RACCORDO
100
AcDbLine
 62
250
  6
CONTINUOUS
 10
45.5
 20
38.2647056027
 11
45.5205845506
 21
38.2647143387
  0
LWPOLYLINE
  5
498
100
AcDbEntity
  8
RACCORDO
100
AcDbPolyline
 62
250
  6
CONTINUOUS
 90
3
 70
0
 10
75.9
 20
38.2647056027
 10
75.9205845506
 20
38.2647143387
 10
75.9458167712
 20
38.2647104937
  0
LINE
  5
499
100
AcDbEntity
  8
RACCORDO
100
AcDbLine
 62
250
  6
CONTINUOUS
 10
75.9458167712
 20
38.2647104937
 11
76.6679960715
 21
38.2647531035
  0
LWPOLYLINE
  5
49A
100
AcDbEntity
  8
RACCORDO
100
AcDbPolyline
 62
250
  6
CONTINUOUS
 90
4
 70
0
 10
14.9
 20
38.2647056027
 10
15.6948215205
 20
38.2647458761
 10
15.698703333
 20
38.2647289971
 10
15.7
 20
38.2647056027
  0
LWPOLYLINE
  5
49B
100
AcDbEntity
  8
RACCORDO
100
AcDbPolyline
 62
250
  6
CONTINUOUS
 90
4
 70
0
 10
45.5205845506
 20
38.2647143387
 10
46.2948215205
 20
38.2647458761
 10
46.298703333
 20
38.2647289971
 10
46.3
 20
38.2647056027
  0
LWPOLYLINE
  5
49C
100
AcDbEntity
  8
RACCORDO
100
AcDbPolyline
 62
250
  6
CONTINUOUS
 90
4
 70
0
 10
76.6679960715
 20
38.2647531035
 10
76.6948215205
 20
38.2647458761
 10
76.698703333
 20
38.2647289971
 10
76.7
 20
38.2647056027
  0
LWPOLYLINE
  5
49D
100
AcDbEntity
  8
RACCORDO
100
AcDbPolyline
 62
250
  6
CONTINUOUS
 90
3
 70
0
 10
-76.6541832288
 20
38.2647104937
 10
-75.901296667
 20
38.2647289971
 10
-75.9
 20
38.2647056027
  0
LWPOLYLINE
  5
49E
100
AcDbEntity
  8
RACCORDO
100
AcDbPolyline
 62
250
  6
CONTINUOUS
 90
3
 70
0
 10
-46.3
 20
38.2647056027
 10
-45.501296667
 20
38.2647289971
 10
-45.5
 20
38.2647056027
  0
LWPOLYLINE
  5
49F
100
AcDbEntity
  8
RACCORDO
100
AcDbPolyline
 62
250
  6
CONTINUOUS
 90
3
 70
0
 10
-15.7
 20
38.2647056027
 10
-14.901296667
 20
38.2647289971
 10
-14.9
 20
38.2647056027
  0
LWPOLYLINE
  5
4A0
100
AcDbEntity
  8
0
100
AcDbPolyline
 62
7
  6
CONTINUOUS
 90
10
 70
0
 10
88.7711607477
 20
10.0080061779
 10
88.7545580993
 20
10.014798127
 10
88.7378454307
 20
10.0213258762
 10
88.721022742
 20
10.0275894257
 10
88.7040805998
 20
10.0335444326
 10
88.6870284375
 20
10.0392352403
 10
88.669894555
 20
10.0447948788
 10
88.6526868455
 20
10.0502448087
 10
88.6353974158
 20
10.0555635697
 10
88.6005953837
 20
10.0660305319
  0
LINE
  5
4A1
100
AcDbEntity
  8
RACCORDO
100
AcDbLine
 62
250
  6
CONTINUOUS
 10
95.0004111396
 20
-38.8
 11
94.7562294251
 21
-38.5558182856
  0
LINE
  5
4A2
100
AcDbEntity
  8
RACCORDO
100
AcDbLine
 62
250
  6
CONTINUOUS
 10
95.3
 20
-38.5004111396
 11
95.0558183435
 21
-38.2562294831
  0
LWPOLYLINE
  5
4A3
100
AcDbEntity
  8
RACCORDO
100
AcDbPolyline
 62
250
  6
CONTINUOUS
 90
40
 70
0
 10
45.5
 20
37.8647665246
 10
45.5012970767
 20
37.8325847993
 10
45.5051798949
 20
37.8006117848
 10
45.511623273
 20
37.7690548385
 10
45.5205854232
 20
37.7381186191
 10
45.5320082225
 20
37.70800376
 10
45.5458175897
 20
37.6789055676
 10
45.5619239658
 20
37.6510127549
 10
45.5802228946
 20
37.6245062173
 10
45.6005957007
 20
37.59955786
 10
45.6229102586
 20
37.5763294827
 10
45.6470218498
 20
37.5549717303
 10
45.6727741013
 20
37.535623116
 10
45.7
 20
37.518409123
 10
45.7285229754
 20
37.5034413907
 10
45.7581580452
 20
37.4908169905
 10
45.7887130144
 20
37.4806177966
 10
45.8199897225
 20
37.4729099545
 10
45.8517853279
 20
37.4677434527
 10
45.883893624
 20
37.4651517979
 10
45.916106376
 20
37.4651517979
 10
45.9482146721
 20
37.4677434527
 10
45.9800102775
 20
37.4729099545
 10
46.0112869856
 20
37.4806177966
 10
46.0418419548
 20
37.4908169905
 10
46.0714770246
 20
37.5034413907
 10
46.1
 20
37.518409123
 10
46.1272258987
 20
37.535623116
 10
46.1529781502
 20
37.5549717303
 10
46.1770897414
 20
37.5763294827
 10
46.1994042993
 20
37.59955786
 10
46.2197771054
 20
37.6245062173
 10
46.2380760342
 20
37.6510127549
 10
46.2541824103
 20
37.6789055676
 10
46.2679917775
 20
37.70800376
 10
46.2794145768
 20
37.7381186191
 10
46.288376727
 20
37.7690548385
 10
46.2948201051
 20
37.8006117848
 10
46.2987029233
 20
37.8325847993
 10
46.3
 20
37.8647665246
  0
LINE
  5
4A4
100
AcDbEntity
  8
0
100
AcDbLine
 62
7
  6
CONTINUOUS
 10
45.5
 20
-23.3
 11
45.5
 21
-34.5
  0
LINE
  5
4A5
100
AcDbEntity
  8
RACCORDO
100
AcDbLine
 62
7
  6
CONTINUOUS
 10
45.5
 20
-34.5
 11
45.5
 21
-38.7790368883
  0
LINE
  5
4A6
100
AcDbEntity
  8
0
100
AcDbLine
 62
7
  6
CONTINUOUS
 10
45.5
 20
23.3
 11
45.5
 21
34.5
  0
LINE
  5
4A7
100
AcDbEntity
  8
RACCORDO
100
AcDbLine
 62
7
  6
CONTINUOUS
 10
45.5
 20
34.5
 11
45.5
 21
38.7790368883
  0
LINE
  5
4A8
100
AcDbEntity
  8
RACCORDO
100
AcDbLine
 62
7
  6
CONTINUOUS
 10
46.3
 20
38.7790368883
 11
46.3
 21
34.5
  0
LINE
  5
4A9
100
AcDbEntity
  8
0
100
AcDbLine
 62
7
  6
CONTINUOUS
 10
46.3
 20
-23.3
 11
46.3
 21
-34.5
  0
LINE
  5
4AA
100
AcDbEntity
  8
RACCORDO
100
AcDbLine
 62
7
  6
CONTINUOUS
 10
46.3
 20
-34.5
 11
46.3
 21
-38.7790368883
  0
LINE
  5
4AB
100
AcDbEntity
  8
0
100
AcDbLine
 62
7
  6
CONTINUOUS
 10
46.3
 20
23.3
 11
46.3
 21
34.5
  0
LWPOLYLINE
  5
4AC
100
AcDbEntity
  8
RACCORDO
100
AcDbPolyline
 62
250
  6
CONTINUOUS
 90
40
 70
0
 10
45.5
 20
-37.8647665246
 10
45.501297006
 20
-37.8325856025
 10
45.5051796682
 20
-37.8006130519
 10
45.5116228894
 20
-37.7690562301
 10
45.5205850029
 20
-37.7381197017
 10
45.5320079456
 20
-37.7080042404
 10
45.5458175428
 20
-37.6789054933
 10
45.5619241663
 20
-37.6510122729
 10
45.5802233969
 20
-37.624505382
 10
45.6005965395
 20
-37.5995567438
 10
45.6229114536
 20
-37.576328162
 10
45.6470234119
 20
-37.5549702778
 10
45.6727760272
 20
-37.5356216048
 10
45.7000022715
 20
-37.5184076242
 10
45.7285255678
 20
-37.5034399672
 10
45.7581609324
 20
-37.4908156954
 10
45.7887161606
 20
-37.480616678
 10
45.8199930882
 20
-37.4729090524
 10
45.8517888861
 20
-37.4677427976
 10
45.883897343
 20
-37.4651514164
 10
45.9161102223
 20
-37.4651517124
 10
45.9482186301
 20
-37.4677436838
 10
45.9800143302
 20
-37.4729105231
 10
46.0112911119
 20
-37.4806187235
 10
46.041846147
 20
-37.4908183026
 10
46.0714812726
 20
-37.5034431191
 10
46.1000042855
 20
-37.5184113003
 10
46.1272302039
 20
-37.5356257814
 10
46.1529824529
 20
-37.5549749277
 10
46.1770940069
 20
-37.5763332551
 10
46.1994084812
 20
-37.599562247
 10
46.2197811514
 20
-37.6245112597
 10
46.2380798802
 20
-37.6510184869
 10
46.2541859757
 20
-37.6789120033
 10
46.2679951319
 20
-37.7080112541
 10
46.2794175722
 20
-37.7381271912
 10
46.2883789224
 20
-37.7690633686
 10
46.2948212764
 20
-37.8006186969
 10
46.2987032648
 20
-37.8325888599
 10
46.3
 20
-37.8647665246
  0
LWPOLYLINE
  5
4AD
100
AcDbEntity
  8
0
100
AcDbPolyline
 62
7
  6
CONTINUOUS
 90
42
 70
0
 10
88.1013569855
 20
10.5387666781
 10
88.0810785939
 20
10.5231382403
 10
88.0622463391
 20
10.5063844486
 10
88.0448602208
 20
10.4885052998
 10
88.0288394569
 20
10.4693097257
 10
88.0142648297
 20
10.4489887865
 10
88.001378686
 20
10.428115673
 10
87.9902532954
 20
10.4067820869
 10
87.9808163883
 20
10.3848963226
 10
87.9730935036
 20
10.3627564632
 10
87.9671481966
 20
10.3404114838
 10
87.9629169119
 20
10.3178124075
 10
87.9602345224
 20
10.2951103908
 10
87.9590318508
 20
10.2722740155
 10
87.9593780744
 20
10.2493346989
 10
87.9613155977
 20
10.2265378524
 10
87.964817849
 20
10.2038789882
 10
87.9699114
 20
10.1813625955
 10
87.9767183708
 20
10.1592475528
 10
87.9852372313
 20
10.1375123112
 10
87.9954695115
 20
10.1161784229
 10
88.0075419206
 20
10.0955694206
 10
88.021576037
 20
10.0755885847
 10
88.0374502823
 20
10.0563326397
 10
88.0549266313
 20
10.0384152879
 10
88.074217821
 20
10.0219834825
 10
88.0951111144
 20
10.0068902785
 10
88.1167302757
 20
9.9933085327
 10
88.1389632377
 20
9.9815415227
 10
88.1619220676
 20
9.9712859779
 10
88.1850667314
 20
9.9618049309
 10
88.2082900979
 20
9.9529885494
 10
88.2316992983
 20
9.9449466681
 10
88.2550756913
 20
9.9372718183
 10
88.2783289664
 20
9.9298831161
 10
88.3015494342
 20
9.9228614463
 10
88.324789384
 20
9.9160419925
 10
88.3480428977
 20
9.9093984393
 10
88.3713158935
 20
9.9029571025
 10
88.3946784152
 20
9.8966321117
 10
88.4181538106
 20
9.8903948435
 10
88.4417187318
 20
9.8842739216
  0
LWPOLYLINE
  5
4AE
100
AcDbEntity
  8
0
100
AcDbPolyline
 62
7
  6
CONTINUOUS
 90
37
 70
0
 10
88.6743145934
 20
9.5542742169
 10
88.6588030285
 20
9.5428983812
 10
88.6424975941
 20
9.5328475402
 10
88.6253982903
 20
9.5241216961
 10
88.6072897081
 20
9.5168112388
 10
88.5883872565
 20
9.510825782
 10
88.5693371619
 20
9.5058941625
 10
88.5503165914
 20
9.5020387514
 10
88.531148378
 20
9.4992371792
 10
88.5119472469
 20
9.4971511711
 10
88.4927284002
 20
9.4957030848
 10
88.4734766358
 20
9.494970563
 10
88.4542610732
 20
9.4948482586
 10
88.4350801693
 20
9.4952464561
 10
88.4159354671
 20
9.4962548709
 10
88.3969007147
 20
9.4980373025
 10
88.3779678945
 20
9.5005677159
 10
88.3591450241
 20
9.5038721456
 10
88.3405299039
 20
9.5081924941
 10
88.322031152
 20
9.5135493608
 10
88.3037401503
 20
9.5199221447
 10
88.2860288454
 20
9.5274909475
 10
88.268916331
 20
9.5363191788
 10
88.2523835134
 20
9.5463434257
 10
88.2367450586
 20
9.5575535551
 10
88.2220130516
 20
9.5700637987
 10
88.2081754073
 20
9.58375992
 10
88.1955105372
 20
9.5982890847
 10
88.1841238391
 20
9.6136284174
 10
88.1739099151
 20
9.6298007893
 10
88.164830983
 20
9.6465219879
 10
88.1569281878
 20
9.663791686
 10
88.1501603846
 20
9.6816102077
 10
88.1443663565
 20
9.6996943191
 10
88.1394923648
 20
9.717949609
 10
88.1355921482
 20
9.7364704872
 10
88.1326657068
 20
9.7552569528
  0
LWPOLYLINE
  5
4AF
100
AcDbEntity
  8
0
100
AcDbPolyline
 62
7
  6
CONTINUOUS
 90
10
 70
0
 10
88.2708612712
 20
10.1602736931
 10
88.2595589809
 20
10.1650483144
 10
88.2488019476
 20
10.1701971803
 10
88.2385901711
 20
10.1757202904
 10
88.228883355
 20
10.1816164621
 10
88.2197217959
 20
10.1878868773
 10
88.2112263828
 20
10.1945350823
 10
88.2034374123
 20
10.2015622592
 10
88.1963145879
 20
10.208967225
 10
88.1898579096
 20
10.2167499794
  0
LWPOLYLINE
  5
4B0
100
AcDbEntity
  8
0
100
AcDbPolyline
 62
7
  6
CONTINUOUS
 90
46
 70
0
 10
56.3598796034
 20
26.6915053488
 10
56.3613586987
 20
26.6507505784
 10
56.3654791739
 20
26.6107934303
 10
56.3722410291
 20
26.5716337353
 10
56.3817212159
 20
26.5330690557
 10
56.3938427826
 20
26.4953015272
 10
56.408374874
 20
26.4589377157
 10
56.4252887517
 20
26.4237977025
 10
56.4446131541
 20
26.390060875
 10
56.4662034414
 20
26.3588724255
 10
56.4903808348
 20
26.3304364864
 10
56.5168241131
 20
26.3045480423
 10
56.5444249734
 20
26.2817383194
 10
56.5731052639
 20
26.262284189
 10
56.6029431363
 20
26.2459080129
 10
56.6330647425
 20
26.232309283
 10
56.6633818885
 20
26.2214545257
 10
56.6939827683
 20
26.2133768251
 10
56.7242581164
 20
26.2078756134
 10
56.7542390709
 20
26.2050308707
 10
56.7838944936
 20
26.2047624914
 10
56.8125217056
 20
26.2066298478
 10
56.8399312618
 20
26.2106056434
 10
56.8663126071
 20
26.2167172464
 10
56.8915313973
 20
26.2246060531
 10
56.9154941949
 20
26.2342552747
 10
56.9382944373
 20
26.245681879
 10
56.9600780919
 20
26.2585778917
 10
56.9809107116
 20
26.27297864
 10
57.0007267434
 20
26.2888490286
 10
57.0194754961
 20
26.3057754103
 10
57.0372019754
 20
26.3236735133
 10
57.0538611756
 20
26.3426278131
 10
57.0692673872
 20
26.362477737
 10
57.0833670687
 20
26.3832232462
 10
57.0962137617
 20
26.4048645848
 10
57.1077823818
 20
26.4272415728
 10
57.1180377931
 20
26.4503660932
 10
57.1270151315
 20
26.474226451
 10
57.1347947196
 20
26.4986270579
 10
57.1413613525
 20
26.5236389944
 10
57.146730235
 20
26.5491913332
 10
57.1510273046
 20
26.5748753913
 10
57.1542945403
 20
26.6005549262
 10
57.1564899631
 20
26.6263662005
 10
57.1576135729
 20
26.6523092308
  0
LINE
  5
4B1
100
AcDbEntity
  8
0
100
AcDbLine
 62
7
  6
CONTINUOUS
 10
54.7
 20
27.3208763651
 11
54.7
 21
27.5615589075
  0
LINE
  5
4B2
100
AcDbEntity
  8
0
100
AcDbLine
 62
7
  6
CONTINUOUS
 10
55.197964
 20
26.03447
 11
55.197964
 21
27.6210380402
  0
LINE
  5
4B3
100
AcDbEntity
  8
0
100
AcDbLine
 62
7
  6
CONTINUOUS
 10
55.446946
 20
26.03447
 11
55.446946
 21
28.070589
  0
LWPOLYLINE
  5
4B4
100
AcDbEntity
  8
0
100
AcDbPolyline
 62
7
  6
CONTINUOUS
 90
46
 70
0
 10
57.1576135729
 20
26.6523092308
 10
57.1582351231
 20
26.6853083313
 10
57.1571455976
 20
26.7181255709
 10
57.1543449962
 20
26.7507609112
 10
57.1499038761
 20
26.7835168637
 10
57.1437516803
 20
26.8160908773
 10
57.135676737
 20
26.8475751581
 10
57.1255401513
 20
26.87786413
 10
57.1134808181
 20
26.9070629779
 10
57.0997037505
 20
26.9345798025
 10
57.0841434209
 20
26.9602286056
 10
57.0668653568
 20
26.9841948727
 10
57.0482711537
 20
27.0064438559
 10
57.0284786632
 20
27.0269754105
 10
57.0073700335
 20
27.0457892786
 10
56.9849933053
 20
27.0628505593
 10
56.9612833231
 20
27.0782483594
 10
56.9363052423
 20
27.091893268
 10
56.9103025692
 20
27.1034826073
 10
56.8831592559
 20
27.112913224
 10
56.8549913504
 20
27.1202880338
 10
56.8263905027
 20
27.125613475
 10
56.7973676325
 20
27.128868794
 10
56.7679118201
 20
27.1300746492
 10
56.7385819559
 20
27.1292996323
 10
56.7093587885
 20
27.1266032278
 10
56.6802615693
 20
27.1219259879
 10
56.6519069421
 20
27.1151581406
 10
56.6243900044
 20
27.1062033371
 10
56.5976156588
 20
27.0951581064
 10
56.5719152571
 20
27.0822020215
 10
56.5473961597
 20
27.0673540355
 10
56.5239510063
 20
27.0505954823
 10
56.5015890677
 20
27.0320495139
 10
56.4801439818
 20
27.0117717483
 10
56.4597821106
 20
26.9897069425
 10
56.4410118113
 20
26.9658119775
 10
56.423816591
 20
26.9398970205
 10
56.4082129425
 20
26.9121524235
 10
56.3947587004
 20
26.8831052987
 10
56.383654878
 20
26.8525991316
 10
56.374700462
 20
26.8207908873
 10
56.3678502471
 20
26.7886776595
 10
56.3630891648
 20
26.7565917745
 10
56.3604322835
 20
26.7242009843
 10
56.3598796034
 20
26.6915053488
  0
LWPOLYLINE
  5
4B5
100
AcDbEntity
  8
0
100
AcDbPolyline
 62
7
  6
CONTINUOUS
 90
22
 70
0
 10
57.9602801934
 20
26.03447
 10
57.9626697852
 20
26.0979994204
 10
57.9681457063
 20
26.1656275145
 10
57.9767079569
 20
26.2373558473
 10
57.9884092294
 20
26.313663546
 10
58.0031968313
 20
26.3940750001
 10
58.0209126845
 20
26.4771591297
 10
58.0413331972
 20
26.5628890398
 10
58.0646819611
 20
26.6512939978
 10
58.0914716734
 20
26.7410258822
 10
58.1218440071
 20
26.8320961985
 10
58.1556572892
 20
26.9244945642
 10
58.1929991978
 20
27.0168386596
 10
58.2340858326
 20
27.1090365957
 10
58.2787010939
 20
27.201179951
 10
58.3262843605
 20
27.292160361
 10
58.3767640064
 20
27.3821501376
 10
58.4302116575
 20
27.4709756926
 10
58.4862815709
 20
27.5570085272
 10
58.5448584989
 20
27.6397045994
 10
58.606057689
 20
27.7196051653
 10
58.6698791414
 20
27.796709
  0
LINE
  5
4B6
100
AcDbEntity
  8
0
100
AcDbLine
 62
7
  6
CONTINUOUS
 10
90.095113
 20
-36.803411
 11
89.149443
 21
-35.300826
  0
LWPOLYLINE
  5
4B7
100
AcDbEntity
  8
0
100
AcDbPolyline
 62
7
  6
CONTINUOUS
 90
46
 70
0
 10
61.0863867741
 20
26.6915053488
 10
61.0878658694
 20
26.6507505784
 10
61.0919863446
 20
26.6107934303
 10
61.0987481997
 20
26.5716337353
 10
61.1082283866
 20
26.5330690557
 10
61.1203499533
 20
26.4953015272
 10
61.1348820447
 20
26.4589377157
 10
61.1517959224
 20
26.4237977025
 10
61.1711203248
 20
26.390060875
 10
61.1927106121
 20
26.3588724255
 10
61.2168880055
 20
26.3304364864
 10
61.2433312838
 20
26.3045480423
 10
61.2709321441
 20
26.2817383194
 10
61.2996124346
 20
26.262284189
 10
61.329450307
 20
26.2459080129
 10
61.3595719132
 20
26.232309283
 10
61.3898890592
 20
26.2214545257
 10
61.420489939
 20
26.2133768251
 10
61.4507652871
 20
26.2078756134
 10
61.4807462415
 20
26.2050308707
 10
61.5104016643
 20
26.2047624914
 10
61.5390288763
 20
26.2066298478
 10
61.5664384325
 20
26.2106056434
 10
61.5928197778
 20
26.2167172464
 10
61.618038568
 20
26.2246060531
 10
61.6420013656
 20
26.2342552747
 10
61.664801608
 20
26.245681879
 10
61.6865852626
 20
26.2585778917
 10
61.7074178823
 20
26.27297864
 10
61.7272339141
 20
26.2888490286
 10
61.7459826668
 20
26.3057754103
 10
61.7637091461
 20
26.3236735133
 10
61.7803683462
 20
26.3426278131
 10
61.7957745579
 20
26.362477737
 10
61.8098742394
 20
26.3832232462
 10
61.8227209324
 20
26.4048645847
 10
61.8342895524
 20
26.4272415728
 10
61.8445449638
 20
26.4503660932
 10
61.8535223022
 20
26.474226451
 10
61.8613018903
 20
26.4986270579
 10
61.8678685231
 20
26.5236389944
 10
61.8732374057
 20
26.5491913332
 10
61.8775344752
 20
26.5748753913
 10
61.880801711
 20
26.6005549262
 10
61.8829971337
 20
26.6263662005
 10
61.8841207436
 20
26.6523092308
  0
LINE
  5
4B8
100
AcDbEntity
  8
0
100
AcDbLine
 62
7
  6
CONTINUOUS
 10
57.676717
 20
27.796709
 11
57.676717
 21
28.036008
  0
LINE
  5
4B9
100
AcDbEntity
  8
0
100
AcDbLine
 62
7
  6
CONTINUOUS
 10
58.989406
 20
27.8423556948
 11
58.989406
 21
28.036008
  0
LINE
  5
4BA
100
AcDbEntity
  8
0
100
AcDbLine
 62
7
  6
CONTINUOUS
 10
59.15401
 20
26.519984
 11
59.15401
 21
26.748218
  0
LINE
  5
4BB
100
AcDbEntity
  8
0
100
AcDbLine
 62
7
  6
CONTINUOUS
 10
60.033746
 20
26.03447
 11
60.033746
 21
26.519984
  0
LINE
  5
4BC
100
AcDbEntity
  8
0
100
AcDbLine
 62
7
  6
CONTINUOUS
 10
60.033746
 20
26.748218
 11
60.033746
 21
27.662535
  0
LINE
  5
4BD
100
AcDbEntity
  8
0
100
AcDbLine
 62
7
  6
CONTINUOUS
 10
60.282728
 20
26.03447
 11
60.282728
 21
26.519984
  0
LINE
  5
4BE
100
AcDbEntity
  8
0
100
AcDbLine
 62
7
  6
CONTINUOUS
 10
60.282728
 20
26.748218
 11
60.282728
 21
28.062289
  0
LINE
  5
4BF
100
AcDbEntity
  8
0
100
AcDbLine
 62
7
  6
CONTINUOUS
 10
60.556609
 20
26.519984
 11
60.556609
 21
26.748218
  0
LWPOLYLINE
  5
4C0
100
AcDbEntity
  8
0
100
AcDbPolyline
 62
7
  6
CONTINUOUS
 90
46
 70
0
 10
61.8841207436
 20
26.6523092308
 10
61.8847422938
 20
26.6853083313
 10
61.8836527682
 20
26.7181255709
 10
61.8808521668
 20
26.7507609112
 10
61.8764110468
 20
26.7835168637
 10
61.870258851
 20
26.8160908773
 10
61.8621839076
 20
26.8475751581
 10
61.852047322
 20
26.8778641301
 10
61.8399879888
 20
26.907062978
 10
61.8262109212
 20
26.9345798025
 10
61.8106505916
 20
26.9602286056
 10
61.7933725275
 20
26.9841948727
 10
61.7747783244
 20
27.0064438559
 10
61.7549858338
 20
27.0269754105
 10
61.7338772042
 20
27.0457892786
 10
61.7115004759
 20
27.0628505593
 10
61.6877904938
 20
27.0782483594
 10
61.6628124129
 20
27.091893268
 10
61.6368097399
 20
27.1034826073
 10
61.6096664266
 20
27.112913224
 10
61.5814985211
 20
27.1202880338
 10
61.5528976733
 20
27.125613475
 10
61.5238748032
 20
27.128868794
 10
61.4944189908
 20
27.1300746492
 10
61.4650891265
 20
27.1292996323
 10
61.4358659592
 20
27.1266032278
 10
61.40676874
 20
27.1219259879
 10
61.3784141128
 20
27.1151581406
 10
61.3508971751
 20
27.1062033371
 10
61.3241228295
 20
27.0951581064
 10
61.2984224278
 20
27.0822020215
 10
61.2739033304
 20
27.0673540355
 10
61.250458177
 20
27.0505954823
 10
61.2280962384
 20
27.0320495139
 10
61.2066511525
 20
27.0117717483
 10
61.1862892813
 20
26.9897069425
 10
61.1675189819
 20
26.9658119775
 10
61.1503237617
 20
26.9398970205
 10
61.1347201132
 20
26.9121524235
 10
61.1212658711
 20
26.8831052987
 10
61.1101620487
 20
26.8525991316
 10
61.1012076327
 20
26.8207908873
 10
61.0943574177
 20
26.7886776595
 10
61.0895963354
 20
26.7565917745
 10
61.0869394542
 20
26.7242009843
 10
61.0863867741
 20
26.6915053488
  0
LWPOLYLINE
  5
4C1
100
AcDbEntity
  8
0
100
AcDbPolyline
 62
7
  6
CONTINUOUS
 90
22
 70
0
 10
88.6816049166
 20
9.8066845122
 10
88.6919170176
 20
9.7996021435
 10
88.7014017394
 20
9.791872244
 10
88.710059082
 20
9.7834948129
 10
88.7179566123
 20
9.7744542379
 10
88.7250267633
 20
9.7647661293
 10
88.7310668342
 20
9.7544773205
 10
88.7360322631
 20
9.7435877915
 10
88.7399676118
 20
9.7320975601
 10
88.7428038659
 20
9.7200535167
 10
88.7445664539
 20
9.7074458804
 10
88.7452299471
 20
9.6942844298
 10
88.744649045
 20
9.6806453941
 10
88.7428840105
 20
9.6663799995
 10
88.7398745807
 20
9.6516370174
 10
88.7352946652
 20
9.6369389966
 10
88.729030686
 20
9.6223292308
 10
88.7211962211
 20
9.6077644266
 10
88.711805915
 20
9.5936372549
 10
88.7008646491
 20
9.5800786071
 10
88.6883675419
 20
9.5669575941
 10
88.6743145934
 20
9.5542742169
  0
LINE
  5
4C2
100
AcDbEntity
  8
0
100
AcDbLine
 62
7
  6
CONTINUOUS
 10
90.133676
 20
-36.456132
 11
89.203636
 21
-34.953411
  0
LWPOLYLINE
  5
4C3
100
AcDbEntity
  8
0
100
AcDbPolyline
 62
7
  6
CONTINUOUS
 90
46
 70
0
 10
57.128957227
 20
27.5463430178
 10
57.1236353148
 20
27.5693323122
 10
57.1175269973
 20
27.5920955176
 10
57.1106322746
 20
27.6146326055
 10
57.103064458
 20
27.6370771815
 10
57.0947102361
 20
27.6592955944
 10
57.0852296745
 20
27.6808868851
 10
57.0746808314
 20
27.7018695019
 10
57.0630056488
 20
27.7222248576
 10
57.0496900173
 20
27.7414963498
 10
57.0344956128
 20
27.7595532523
 10
57.0176607595
 20
27.7765260736
 10
56.9993863213
 20
27.7923500195
 10
56.9796858509
 20
27.8071776418
 10
56.9585457955
 20
27.8208562157
 10
56.9361263615
 20
27.8328630012
 10
56.9123606972
 20
27.8431327148
 10
56.8873156543
 20
27.8517304474
 10
56.8613519939
 20
27.8583289918
 10
56.8346123575
 20
27.8629078118
 10
56.8069541037
 20
27.8654873296
 10
56.7783100693
 20
27.8658017878
 10
56.7482984499
 20
27.8640406223
 10
56.7173010499
 20
27.8600144135
 10
56.68639612
 20
27.8528891737
 10
56.6555700307
 20
27.8423167507
 10
56.6248364116
 20
27.8286455864
 10
56.5953144022
 20
27.812086661
 10
56.5673886024
 20
27.7926122995
 10
56.5406744123
 20
27.7702507112
 10
56.5151371718
 20
27.74529672
 10
56.4906726141
 20
27.7178168185
 10
56.4673850061
 20
27.6877452104
 10
56.445552488
 20
27.6551782919
 10
56.425099065
 20
27.6201659054
 10
56.4061007318
 20
27.582659085
 10
56.3890636132
 20
27.5426060613
 10
56.3741648185
 20
27.4998696341
 10
56.3612272383
 20
27.4545881428
 10
56.3502256692
 20
27.4071231074
 10
56.3412877474
 20
27.3574856763
 10
56.3342858366
 20
27.3056658495
 10
56.3288118256
 20
27.2519932932
 10
56.3247296771
 20
27.1965782303
 10
56.3221754284
 20
27.1393115413
 10
56.3211490793
 20
27.0801938226
  0
LINE
  5
4C4
100
AcDbEntity
  8
0
100
AcDbLine
 62
7
  6
CONTINUOUS
 10
67.132446
 20
-25.751963
 11
67.132446
 21
-26.50278
  0
LINE
  5
4C5
100
AcDbEntity
  8
0
100
AcDbLine
 62
7
  6
CONTINUOUS
 10
67.132446
 20
-30.09722
 11
67.132446
 21
-30.848037
  0
LINE
  5
4C6
100
AcDbEntity
  8
0
100
AcDbLine
 62
7
  6
CONTINUOUS
 10
71.117556
 20
-27.925
 11
71.117556
 21
-28.675
  0
LINE
  5
4C7
100
AcDbEntity
  8
0
100
AcDbLine
 62
7
  6
CONTINUOUS
 10
79.671686
 20
34.252309
 11
80.489673
 21
36.800074
  0
LINE
  5
4C8
100
AcDbEntity
  8
0
100
AcDbLine
 62
7
  6
CONTINUOUS
 10
80.041705
 20
33.099907
 11
81.22971
 21
36.800074
  0
LWPOLYLINE
  5
4C9
100
AcDbEntity
  8
0
100
AcDbPolyline
 62
7
  6
CONTINUOUS
 90
10
 70
0
 10
88.9002763456
 20
9.5168619776
 10
88.9134349067
 20
9.5381418983
 10
88.9250054552
 20
9.5596380537
 10
88.9349879911
 20
9.5813504429
 10
88.9433600935
 20
9.6032838629
 10
88.9501441832
 20
9.625433515
 10
88.9554075232
 20
9.6477850047
 10
88.9591725342
 20
9.6703335333
 10
88.9614167955
 20
9.6930838978
 10
88.962140307
 20
9.7160360975
  0
LWPOLYLINE
  5
4CA
100
AcDbEntity
  8
0
100
AcDbPolyline
 62
7
  6
CONTINUOUS
 90
16
 70
0
 10
88.6249402106
 20
10.3972933144
 10
88.6340153726
 20
10.3894632739
 10
88.6425964253
 20
10.3812121224
 10
88.6506833685
 20
10.3725398594
 10
88.6582990448
 20
10.3634098987
 10
88.6654206117
 20
10.3538588251
 10
88.6719795419
 20
10.3439963945
 10
88.6779471069
 20
10.3338299041
 10
88.6833520351
 20
10.3233520556
 10
88.6882119847
 20
10.312650712
 10
88.692511213
 20
10.301724861
 10
88.6962654626
 20
10.290575514
 10
88.6995396196
 20
10.2792935706
 10
88.7023553127
 20
10.2679093304
 10
88.7046909132
 20
10.2563924932
 10
88.7065464211
 20
10.2447430588
  0
LINE
  5
4CB
100
AcDbEntity
  8
0
100
AcDbLine
 62
7
  6
CONTINUOUS
 10
82.23411
 20
-36.803411
 11
81.564224
 21
-34.953411
  0
LINE
  5
4CC
100
AcDbEntity
  8
0
100
AcDbLine
 62
7
  6
CONTINUOUS
 10
81.961101
 20
-36.803411
 11
81.778073
 21
-36.264844
  0
LINE
  5
4CD
100
AcDbEntity
  8
0
100
AcDbLine
 62
7
  6
CONTINUOUS
 10
81.687801
 20
-36.043253
 11
81.412194
 21
-35.221738
  0
LWPOLYLINE
  5
4CE
100
AcDbEntity
  8
0
100
AcDbPolyline
 62
7
  6
CONTINUOUS
 90
46
 70
0
 10
61.8554643947
 20
27.5463430309
 10
61.8501424823
 20
27.5693323248
 10
61.8440341646
 20
27.5920955297
 10
61.8371394416
 20
27.614632617
 10
61.8295716248
 20
27.6370771924
 10
61.8212174026
 20
27.6592956046
 10
61.8117368407
 20
27.6808868948
 10
61.8011879973
 20
27.7018695109
 10
61.7895128141
 20
27.7222248659
 10
61.7761971823
 20
27.7414963573
 10
61.7610027775
 20
27.7595532591
 10
61.744167924
 20
27.7765260796
 10
61.7258934856
 20
27.7923500247
 10
61.7061930151
 20
27.8071776463
 10
61.6850529597
 20
27.8208562195
 10
61.6626335257
 20
27.8328630044
 10
61.6388678613
 20
27.8431327174
 10
61.6138228184
 20
27.8517304494
 10
61.587859158
 20
27.8583289931
 10
61.5611195216
 20
27.8629078127
 10
61.5334612678
 20
27.86548733
 10
61.5048172334
 20
27.8658017876
 10
61.474805614
 20
27.8640406217
 10
61.443808214
 20
27.8600144123
 10
61.4129032843
 20
27.8528891719
 10
61.3820771952
 20
27.8423167483
 10
61.3513435763
 20
27.8286455833
 10
61.3218215672
 20
27.8120866573
 10
61.2938957678
 20
27.7926122954
 10
61.267181578
 20
27.7702507068
 10
61.241644338
 20
27.7452967153
 10
61.2171797808
 20
27.7178168136
 10
61.1938921733
 20
27.6877452056
 10
61.1720596556
 20
27.6551782871
 10
61.1516062331
 20
27.6201659006
 10
61.1326079004
 20
27.5826590804
 10
61.1155707822
 20
27.5426060569
 10
61.1006719878
 20
27.49986963
 10
61.087734408
 20
27.454588139
 10
61.0767328392
 20
27.4071231041
 10
61.0677949176
 20
27.3574856734
 10
61.060793007
 20
27.3056658471
 10
61.0553189961
 20
27.2519932913
 10
61.0512368477
 20
27.196578229
 10
61.048682599
 20
27.1393115406
 10
61.04765625
 20
27.0801938226
  0
LWPOLYLINE
  5
4CF
100
AcDbEntity
  8
RACCORDO
100
AcDbPolyline
 62
250
  6
CONTINUOUS
 90
40
 70
0
 10
75.9
 20
37.8647665246
 10
75.9012970767
 20
37.8325847993
 10
75.9051798949
 20
37.8006117848
 10
75.911623273
 20
37.7690548385
 10
75.9205854232
 20
37.7381186191
 10
75.9320082225
 20
37.70800376
 10
75.9458175897
 20
37.6789055676
 10
75.9619239658
 20
37.6510127549
 10
75.9802228946
 20
37.6245062173
 10
76.0005957007
 20
37.59955786
 10
76.0229102586
 20
37.5763294827
 10
76.0470218498
 20
37.5549717303
 10
76.0727741013
 20
37.535623116
 10
76.1
 20
37.518409123
 10
76.1285229754
 20
37.5034413907
 10
76.1581580452
 20
37.4908169905
 10
76.1887130144
 20
37.4806177966
 10
76.2199897225
 20
37.4729099545
 10
76.2517853279
 20
37.4677434527
 10
76.283893624
 20
37.4651517979
 10
76.316106376
 20
37.4651517979
 10
76.3482146721
 20
37.4677434527
 10
76.3800102775
 20
37.4729099545
 10
76.4112869856
 20
37.4806177966
 10
76.4418419548
 20
37.4908169905
 10
76.4714770246
 20
37.5034413907
 10
76.5
 20
37.518409123
 10
76.5272258987
 20
37.535623116
 10
76.5529781502
 20
37.5549717303
 10
76.5770897414
 20
37.5763294827
 10
76.5994042993
 20
37.59955786
 10
76.6197771054
 20
37.6245062173
 10
76.6380760342
 20
37.6510127549
 10
76.6541824103
 20
37.6789055676
 10
76.6679917775
 20
37.70800376
 10
76.6794145768
 20
37.7381186191
 10
76.688376727
 20
37.7690548385
 10
76.6948201051
 20
37.8006117848
 10
76.6987029233
 20
37.8325847993
 10
76.7
 20
37.8647665246
  0
LINE
  5
4D0
100
AcDbEntity
  8
0
100
AcDbLine
 62
7
  6
CONTINUOUS
 10
71.517556
 20
-25.7519628823
 11
71.517556
 21
-26.50278
  0
LINE
  5
4D1
100
AcDbEntity
  8
0
100
AcDbLine
 62
7
  6
CONTINUOUS
 10
71.517556
 20
-30.0972169516
 11
71.517556
 21
-30.8480371177
  0
LINE
  5
4D2
100
AcDbEntity
  8
RACCORDO
100
AcDbLine
 62
7
  6
CONTINUOUS
 10
75.0
 20
22.2999999998
 11
75.0
 21
-22.3
  0
LINE
  5
4D3
100
AcDbEntity
  8
0
100
AcDbLine
 62
7
  6
CONTINUOUS
 10
75.9
 20
34.5
 11
75.9
 21
23.3
  0
LINE
  5
4D4
100
AcDbEntity
  8
0
100
AcDbLine
 62
7
  6
CONTINUOUS
 10
75.9
 20
-23.3
 11
75.9
 21
-34.5
  0
LINE
  5
4D5
100
AcDbEntity
  8
RACCORDO
100
AcDbLine
 62
7
  6
CONTINUOUS
 10
75.9
 20
-34.5
 11
75.9
 21
-38.7790368883
  0
LINE
  5
4D6
100
AcDbEntity
  8
RACCORDO
100
AcDbLine
 62
7
  6
CONTINUOUS
 10
75.9
 20
34.5
 11
75.9
 21
38.7790368883
  0
LINE
  5
4D7
100
AcDbEntity
  8
RACCORDO
100
AcDbLine
 62
7
  6
CONTINUOUS
 10
76.7
 20
38.7790368883
 11
76.7
 21
34.5
  0
LINE
  5
4D8
100
AcDbEntity
  8
0
100
AcDbLine
 62
7
  6
CONTINUOUS
 10
76.7
 20
34.5
 11
76.7
 21
-34.5
  0
LINE
  5
4D9
100
AcDbEntity
  8
RACCORDO
100
AcDbLine
 62
7
  6
CONTINUOUS
 10
76.7
 20
-34.5
 11
76.7
 21
-38.7790368883
  0
LWPOLYLINE
  5
4DA
100
AcDbEntity
  8
RACCORDO
100
AcDbPolyline
 62
250
  6
CONTINUOUS
 90
40
 70
0
 10
75.9
 20
-37.8647665246
 10
75.901297006
 20
-37.8325856025
 10
75.9051796682
 20
-37.8006130519
 10
75.9116228894
 20
-37.7690562301
 10
75.9205850029
 20
-37.7381197017
 10
75.9320079456
 20
-37.7080042404
 10
75.9458175428
 20
-37.6789054933
 10
75.9619241663
 20
-37.6510122729
 10
75.9802233969
 20
-37.624505382
 10
76.0005965395
 20
-37.5995567438
 10
76.0229114536
 20
-37.576328162
 10
76.0470234119
 20
-37.5549702778
 10
76.0727760272
 20
-37.5356216048
 10
76.1000022715
 20
-37.5184076242
 10
76.1285255678
 20
-37.5034399672
 10
76.1581609324
 20
-37.4908156954
 10
76.1887161606
 20
-37.480616678
 10
76.2199930882
 20
-37.4729090524
 10
76.2517888861
 20
-37.4677427976
 10
76.283897343
 20
-37.4651514164
 10
76.3161102223
 20
-37.4651517124
 10
76.3482186301
 20
-37.4677436838
 10
76.3800143302
 20
-37.4729105231
 10
76.4112911119
 20
-37.4806187235
 10
76.441846147
 20
-37.4908183026
 10
76.4714812726
 20
-37.5034431191
 10
76.5000042855
 20
-37.5184113003
 10
76.5272302039
 20
-37.5356257814
 10
76.5529824529
 20
-37.5549749277
 10
76.5770940069
 20
-37.5763332551
 10
76.5994084812
 20
-37.599562247
 10
76.6197811514
 20
-37.6245112597
 10
76.6380798802
 20
-37.6510184869
 10
76.6541859757
 20
-37.6789120033
 10
76.6679951319
 20
-37.7080112541
 10
76.6794175722
 20
-37.7381271912
 10
76.6883789224
 20
-37.7690633686
 10
76.6948212764
 20
-37.8006186969
 10
76.6987032648
 20
-37.8325888599
 10
76.7
 20
-37.8647665246
  0
LINE
  5
4DB
100
AcDbEntity
  8
0
100
AcDbLine
 62
7
  6
CONTINUOUS
 10
85.012775
 20
34.390393
 11
85.703741
 21
36.800074
  0
LINE
  5
4DC
100
AcDbEntity
  8
0
100
AcDbLine
 62
7
  6
CONTINUOUS
 10
85.382775
 20
33.099917
 11
86.082427
 21
35.539919
  0
LINE
  5
4DD
100
AcDbEntity
  8
0
100
AcDbLine
 62
7
  6
CONTINUOUS
 10
87.315813
 20
33.099907
 11
88.503799
 21
36.800083
  0
LINE
  5
4DE
100
AcDbEntity
  8
0
100
AcDbLine
 62
7
  6
CONTINUOUS
 10
88.05584
 20
33.099917
 11
88.289468
 21
33.827577
  0
LINE
  5
4DF
100
AcDbEntity
  8
0
100
AcDbLine
 62
7
  6
CONTINUOUS
 10
88.515195
 20
34.530605
 11
88.873827
 21
35.647672
  0
LWPOLYLINE
  5
4E0
100
AcDbEntity
  8
0
100
AcDbPolyline
 62
7
  6
CONTINUOUS
 90
25
 70
0
 10
88.1898579096
 20
10.2167499794
 10
88.184643543
 20
10.2238060326
 10
88.1799987369
 20
10.2311465241
 10
88.1759234914
 20
10.2387714538
 10
88.1723960661
 20
10.2467171296
 10
88.1694382014
 20
10.2549472427
 10
88.1671151181
 20
10.2633528676
 10
88.1654539168
 20
10.2719408835
 10
88.1644274969
 20
10.2807044108
 10
88.1640197784
 20
10.2895138861
 10
88.1642171115
 20
10.2983727186
 10
88.1650331459
 20
10.307277499
 10
88.1664927512
 20
10.3160884366
 10
88.1686219464
 20
10.3248078362
 10
88.1713947125
 20
10.3334333932
 10
88.1747578615
 20
10.3418184027
 10
88.1787432384
 20
10.3499431724
 10
88.1833189981
 20
10.3578273952
 10
88.1883364173
 20
10.3653834444
 10
88.1937890857
 20
10.3725741514
 10
88.1996834134
 20
10.3794366857
 10
88.205889908
 20
10.3859949277
 10
88.2123654052
 20
10.3922568376
 10
88.2191530693
 20
10.3982144559
 10
88.2262529001
 20
10.4038677829
  0
LWPOLYLINE
  5
4E1
100
AcDbEntity
  8
0
100
AcDbPolyline
 62
7
  6
CONTINUOUS
 90
10
 70
0
 10
88.911296575
 20
9.8969750364
 10
88.9002282358
 20
9.9119793168
 10
88.8880199454
 20
9.9263702537
 10
88.8746717036
 20
9.9401478484
 10
88.8601643449
 20
9.9533834779
 10
88.8445170349
 20
9.966005768
 10
88.8277872704
 20
9.977800594
 10
88.8099942173
 20
9.9886965823
 10
88.7911187097
 20
9.9987651097
 10
88.7711607477
 20
10.0080061779
  0
LWPOLYLINE
  5
4E2
100
AcDbEntity
  8
0
100
AcDbPolyline
 62
7
  6
CONTINUOUS
 90
30
 70
0
 10
80.1748861461
 20
-35.4690921252
 10
80.1741327949
 20
-35.4502478813
 10
80.1726307156
 20
-35.4315010128
 10
80.1705276479
 20
-35.412755855
 10
80.1676758519
 20
-35.3941080742
 10
80.1636321078
 20
-35.37584467
 10
80.1582437472
 20
-35.3579874939
 10
80.1516634385
 20
-35.3405147032
 10
80.1439059666
 20
-35.3236477628
 10
80.1349276131
 20
-35.3073715058
 10
80.1247720964
 20
-35.2917011114
 10
80.1135853566
 20
-35.2769035674
 10
80.1013505125
 20
-35.2630096143
 10
80.0880844452
 20
-35.2499885272
 10
80.0739837383
 20
-35.2380150997
 10
80.0590139258
 20
-35.2271538601
 10
80.0432094736
 20
-35.217340295
 10
80.0268703637
 20
-35.2085556368
 10
80.0099996438
 20
-35.2008359832
 10
79.9925942661
 20
-35.1941452469
 10
79.9749450698
 20
-35.1883563808
 10
79.9571107118
 20
-35.1835251892
 10
79.9390325352
 20
-35.1795958737
 10
79.9208254081
 20
-35.1762739817
 10
79.9025088885
 20
-35.1735076468
 10
79.8840634184
 20
-35.1713487376
 10
79.8655451917
 20
-35.169658403
 10
79.8469729397
 20
-35.1683903597
 10
79.8283279311
 20
-35.1675908918
 10
79.8096101659
 20
-35.1672599997
  0
LWPOLYLINE
  5
4E3
100
AcDbEntity
  8
0
100
AcDbPolyline
 62
7
  6
CONTINUOUS
 90
30
 70
0
 10
86.6186998058
 20
-35.4690921252
 10
86.6179464546
 20
-35.4502478813
 10
86.6164443752
 20
-35.4315010128
 10
86.6143413075
 20
-35.412755855
 10
86.6114895116
 20
-35.3941080742
 10
86.6074457675
 20
-35.37584467
 10
86.6020574069
 20
-35.3579874939
 10
86.5954770982
 20
-35.3405147032
 10
86.5877196263
 20
-35.3236477628
 10
86.5787412728
 20
-35.3073715058
 10
86.5685857561
 20
-35.2917011114
 10
86.5573990163
 20
-35.2769035674
 10
86.5451641722
 20
-35.2630096143
 10
86.5318981049
 20
-35.2499885272
 10
86.517797398
 20
-35.2380150997
 10
86.5028275855
 20
-35.2271538601
 10
86.4870231333
 20
-35.217340295
 10
86.4706840234
 20
-35.2085556368
 10
86.4538133035
 20
-35.2008359832
 10
86.4364079258
 20
-35.1941452469
 10
86.4187587295
 20
-35.1883563808
 10
86.4009243715
 20
-35.1835251892
 10
86.3828461949
 20
-35.1795958737
 10
86.3646390677
 20
-35.1762739817
 10
86.3463225482
 20
-35.1735076468
 10
86.3278770781
 20
-35.1713487376
 10
86.3093588514
 20
-35.169658403
 10
86.2907865994
 20
-35.1683903597
 10
86.2721415908
 20
-35.1675908918
 10
86.2534238256
 20
-35.1672599997
  0
LWPOLYLINE
  5
4E4
100
AcDbEntity
  8
0
100
AcDbPolyline
 62
7
  6
CONTINUOUS
 90
37
 70
0
 10
83.9019928907
 20
10.0
 10
83.9041436288
 20
9.9150634142
 10
83.9104383145
 20
9.8305826747
 10
83.9208769478
 20
9.7465577916
 10
83.9355569988
 20
9.6627398304
 10
83.9543809974
 20
9.5793777429
 10
83.9770565335
 20
9.4972183779
 10
84.0036447756
 20
9.4163364105
 10
84.0340845551
 20
9.3366572045
 10
84.0678999567
 20
9.2587036586
 10
84.1049981533
 20
9.1826840793
 10
84.1454719718
 20
9.1083902094
 10
84.1891239781
 20
9.0357201059
 10
84.235642805
 20
8.9649130994
 10
84.2853398197
 20
8.8957299015
 10
84.3389516896
 20
8.8273506298
 10
84.3963640438
 20
8.7595963427
 10
84.4576912531
 20
8.6926460009
 10
84.5240130974
 20
8.6262165627
 10
84.5952664877
 20
8.5601179067
 10
84.671514513
 20
8.4945401668
 10
84.7540262204
 20
8.4297706842
 10
84.8430026592
 20
8.3655109301
 10
84.9382427801
 20
8.3020594496
 10
85.0404124814
 20
8.2405992087
 10
85.1501096326
 20
8.1808785137
 10
85.2667363641
 20
8.1231490935
 10
85.3891649668
 20
8.0693490727
 10
85.517427226
 20
8.0196617988
 10
85.6514913563
 20
7.9739039832
 10
85.7901342917
 20
7.9334638173
 10
85.93352985
 20
7.8984550189
 10
86.0815042133
 20
7.868763926
 10
86.232312862
 20
7.8454376672
 10
86.3853742893
 20
7.8288252985
 10
86.541270002
 20
7.818577799
 10
86.7
 20
7.8146951774
  0
LINE
  5
4E5
100
AcDbEntity
  8
0
100
AcDbLine
 62
7
  6
CONTINUOUS
 10
79.052081
 20
-36.803411
 11
79.052081
 21
-34.953411
  0
LINE
  5
4E6
100
AcDbEntity
  8
0
100
AcDbLine
 62
7
  6
CONTINUOUS
 10
79.302009
 20
-36.803411
 11
79.302009
 21
-36.022657
  0
LINE
  5
4E7
100
AcDbEntity
  8
0
100
AcDbLine
 62
7
  6
CONTINUOUS
 10
79.302009
 20
-35.808808
 11
79.302009
 21
-35.16726
  0
LINE
  5
4E8
100
AcDbEntity
  8
0
100
AcDbLine
 62
7
  6
CONTINUOUS
 10
81.72305
 20
33.099898
 11
81.723059
 21
36.800074
  0
LINE
  5
4E9
100
AcDbEntity
  8
0
100
AcDbLine
 62
7
  6
CONTINUOUS
 10
82.30364
 20
-35.175002
 11
82.30364
 21
-34.953411
  0
LINE
  5
4EA
100
AcDbEntity
  8
0
100
AcDbLine
 62
7
  6
CONTINUOUS
 10
82.463077
 20
33.099907
 11
82.463087
 21
36.800074
  0
LINE
  5
4EB
100
AcDbEntity
  8
0
100
AcDbLine
 62
7
  6
CONTINUOUS
 10
82.929704
 20
-36.803411
 11
82.929704
 21
-35.175002
  0
LINE
  5
4EC
100
AcDbEntity
  8
0
100
AcDbLine
 62
7
  6
CONTINUOUS
 10
83.179633
 20
-36.803411
 11
83.179633
 21
-35.175002
  0
LINE
  5
4ED
100
AcDbEntity
  8
0
100
AcDbLine
 62
7
  6
CONTINUOUS
 10
83.203087
 20
33.099907
 11
83.203087
 21
36.800074
  0
LINE
  5
4EE
100
AcDbEntity
  8
0
100
AcDbLine
 62
7
  6
CONTINUOUS
 10
83.805697
 20
-35.175002
 11
83.805697
 21
-34.953411
  0
LINE
  5
4EF
100
AcDbEntity
  8
0
100
AcDbLine
 62
7
  6
CONTINUOUS
 10
83.943114
 20
33.099907
 11
83.943114
 21
35.539919
  0
LINE
  5
4F0
100
AcDbEntity
  8
0
100
AcDbLine
 62
7
  6
CONTINUOUS
 10
84.065997
 20
-36.803411
 11
84.065997
 21
-36.530256
  0
LINE
  5
4F1
100
AcDbEntity
  8
0
100
AcDbLine
 62
7
  6
CONTINUOUS
 10
84.333893
 20
-36.803411
 11
84.333893
 21
-36.530256
  0
LINE
  5
4F2
100
AcDbEntity
  8
0
100
AcDbLine
 62
7
  6
CONTINUOUS
 10
85.495894
 20
-36.803411
 11
85.495894
 21
-34.953411
  0
LWPOLYLINE
  5
4F3
100
AcDbEntity
  8
0
100
AcDbPolyline
 62
7
  6
CONTINUOUS
 90
31
 70
0
 10
80.4323559922
 20
-35.4592366934
 10
80.4323522664
 20
-35.5169768614
 10
80.4309165244
 20
-35.5457354522
 10
80.4280679674
 20
-35.5743095188
 10
80.4238092461
 20
-35.6027744561
 10
80.4181377097
 20
-35.6310548746
 10
80.4110454064
 20
-35.6589246037
 10
80.4025498432
 20
-35.6863854031
 10
80.3926335131
 20
-35.713435527
 10
80.3812359425
 20
-35.7398435545
 10
80.3683540853
 20
-35.7656718207
 10
80.3539909876
 20
-35.7908580103
 10
80.3380953145
 20
-35.814983737
 10
80.3205745224
 20
-35.8380132713
 10
80.3015211549
 20
-35.8599823738
 10
80.2811615086
 20
-35.8805799027
 10
80.2594461733
 20
-35.8997427967
 10
80.2364245591
 20
-35.9175341513
 10
80.2124711937
 20
-35.933832064
 10
80.187561879
 20
-35.9485632218
 10
80.1617208131
 20
-35.9618009669
 10
80.1353951165
 20
-35.9736433774
 10
80.1086726523
 20
-35.9840734291
 10
80.0814655575
 20
-35.9931081656
 10
80.0539573642
 20
-36.0008967638
 10
80.0261622142
 20
-36.0074556581
 10
79.9980659657
 20
-36.0127684251
 10
79.9698097251
 20
-36.0169349519
 10
79.9414405279
 20
-36.0199885359
 10
79.9129113386
 20
-36.0218958848
 10
79.8842221573
 20
-36.022657
  0
LWPOLYLINE
  5
4F4
100
AcDbEntity
  8
0
100
AcDbPolyline
 62
7
  6
CONTINUOUS
 90
67
 70
0
 10
84.0858035767
 20
10.0
 10
84.0884224241
 20
10.0858133419
 10
84.0956125036
 20
10.1707398234
 10
84.1073738153
 20
10.2547794542
 10
84.1238001674
 20
10.3380616164
 10
84.1447977516
 20
10.420456946
 10
84.1700851428
 20
10.5015773394
 10
84.1996504524
 20
10.5813498105
 10
84.2335055689
 20
10.6598473771
 10
84.2714047324
 20
10.7369009495
 10
84.3132352549
 20
10.812423486
 10
84.3591098244
 20
10.8865020646
 10
84.4091207447
 20
10.9592287763
 10
84.4630263452
 20
11.0305150619
 10
84.5210682964
 20
11.1004495137
 10
84.5840639138
 20
11.1693899444
 10
84.6519852797
 20
11.2375499367
 10
84.7248603118
 20
11.3047159285
 10
84.8035900787
 20
11.3706050137
 10
84.8881983487
 20
11.4353965196
 10
84.9786613535
 20
11.498911147
 10
85.075808857
 20
11.5603280633
 10
85.1798711988
 20
11.6198562535
 10
85.2906180393
 20
11.677286779
 10
85.408188124
 20
11.731171948
 10
85.5332139268
 20
11.7816490788
 10
85.6650629738
 20
11.8285809252
 10
85.8019765887
 20
11.8701079791
 10
85.9440390683
 20
11.9060094418
 10
86.0911661157
 20
11.9365061979
 10
86.2413461644
 20
11.9604012817
 10
86.3949641343
 20
11.9774610599
 10
86.5516351055
 20
11.9879192219
 10
86.7081927514
 20
11.9912797804
 10
86.8646309408
 20
11.9871846128
 10
87.0209558049
 20
11.9759918407
 10
87.1740194113
 20
11.9582798303
 10
87.3234145881
 20
11.9338254195
 10
87.4695485072
 20
11.9028517134
 10
87.6104947517
 20
11.8666064742
 10
87.7461815987
 20
11.8248718684
 10
87.8766807712
 20
11.7778656453
 10
88.0002810208
 20
11.7274889598
 10
88.1163104141
 20
11.6739153519
 10
88.2254408846
 20
11.6169712137
 10
88.327976984
 20
11.5580370095
 10
88.4237194494
 20
11.4973282816
 10
88.5128675438
 20
11.4346294446
 10
88.5963236084
 20
11.3706742943
 10
88.6740816473
 20
11.3056441048
 10
88.7461476563
 20
11.239357575
 10
88.8134419643
 20
11.1720046495
 10
88.8760071126
 20
11.1037961422
 10
88.9338005598
 20
11.0345212168
 10
88.9876150107
 20
10.9637373387
 10
89.0377191445
 20
10.8913153307
 10
89.083844282
 20
10.8173843322
 10
89.1259770907
 20
10.7418892767
 10
89.1642145619
 20
10.6647561637
 10
89.1984597043
 20
10.586058954
 10
89.2284082111
 20
10.5059645239
 10
89.2540721606
 20
10.4243947564
 10
89.2754394745
 20
10.3414277331
 10
89.2921696119
 20
10.2574646366
 10
89.3041490589
 20
10.1726391894
 10
89.3114913294
 20
10.0868176477
 10
89.3141964233
 20
10.0
  0
LINE
  5
4F5
100
AcDbEntity
  8
DRAFT
100
AcDbLine
 62
7
  6
CONTINUOUS
 10
95.3
 20
3.6749773271
 11
95.1951844414
 21
3.5
  0
LINE
  5
4F6
100
AcDbEntity
  8
DRAFT
100
AcDbLine
 62
7
  6
CONTINUOUS
 10
97.5
 20
3.6749773271
 11
97.3951844414
 21
3.5
  0
LINE
  5
4F7
100
AcDbEntity
  8
DRAFT
100
AcDbLine
 62
7
  6
CONTINUOUS
 10
95.1951844414
 20
-3.5
 11
95.3
 21
-3.6749773271
  0
LINE
  5
4F8
100
AcDbEntity
  8
DRAFT
100
AcDbLine
 62
7
  6
CONTINUOUS
 10
97.3951844414
 20
-3.5
 11
97.5
 21
-3.6749773271
  0
LWPOLYLINE
  5
4F9
100
AcDbEntity
  8
0
100
AcDbPolyline
 62
7
  6
CONTINUOUS
 90
37
 70
0
 10
89.4980071093
 20
10.0
 10
89.4958557301
 20
10.0849455115
 10
89.4895598436
 20
10.1694342852
 10
89.4791194497
 20
10.2534663245
 10
89.4644369645
 20
10.3372905838
 10
89.445609972
 20
10.4206581129
 10
89.4229312243
 20
10.5028220694
 10
89.3963395905
 20
10.5837077884
 10
89.3658962016
 20
10.6633899649
 10
89.3320772025
 20
10.7413458148
 10
89.294975538
 20
10.8173669938
 10
89.2544982635
 20
10.8916618922
 10
89.2108426898
 20
10.9643328341
 10
89.1643201477
 20
11.0351406811
 10
89.1146193064
 20
11.1043246135
 10
89.0610034844
 20
11.1727044213
 10
89.0035870505
 20
11.2404590496
 10
88.9422556358
 20
11.3074095692
 10
88.8759294523
 20
11.3738389438
 10
88.8046716389
 20
11.439937278
 10
88.7284190566
 20
11.5055144757
 10
88.6459025009
 20
11.5702831988
 10
88.5569205796
 20
11.6345421826
 10
88.4616746849
 20
11.6979927069
 10
88.359499789
 20
11.759451269
 10
88.2497979199
 20
11.8191694828
 10
88.1331670496
 20
11.8768957786
 10
88.0107360667
 20
11.9306919146
 10
87.8824732873
 20
11.980374446
 10
87.7484103953
 20
12.0261269008
 10
87.6097713306
 20
12.0665615284
 10
87.466382043
 20
12.1015645447
 10
87.3184165827
 20
12.131249817
 10
87.1676210393
 20
12.1545710835
 10
87.0145774427
 20
12.1711796105
 10
86.8587037629
 20
12.1814241856
 10
86.7
 20
12.1853048226
  0
LWPOLYLINE
  5
4FA
100
AcDbEntity
  8
0
100
AcDbPolyline
 62
7
  6
CONTINUOUS
 90
34
 70
0
 10
92.0501870453
 20
-35.8784107664
 10
92.0496906754
 20
-35.847502491
 10
92.0486019522
 20
-35.8166852164
 10
92.0469208757
 20
-35.7859589446
 10
92.0447176593
 20
-35.7553134193
 10
92.0419220895
 20
-35.7247589005
 10
92.038323526
 20
-35.6943261646
 10
92.0339453316
 20
-35.6640056646
 10
92.0287641435
 20
-35.6338069523
 10
92.0224992321
 20
-35.6037894545
 10
92.0151404872
 20
-35.5738838443
 10
92.006698019
 20
-35.5441594547
 10
91.9969214292
 20
-35.5148837086
 10
91.9857929022
 20
-35.4860151921
 10
91.9733302536
 20
-35.4575953349
 10
91.9593365307
 20
-35.4300158376
 10
91.9437283318
 20
-35.4032982876
 10
91.9265890587
 20
-35.3774211259
 10
91.9079719641
 20
-35.352711345
 10
91.8878327215
 20
-35.3291672557
 10
91.8662156574
 20
-35.3067905818
 10
91.8433070043
 20
-35.2859134434
 10
91.8190944537
 20
-35.2665316141
 10
91.7935903141
 20
-35.2486493573
 10
91.7670177447
 20
-35.2326115337
 10
91.7392959736
 20
-35.218577736
 10
91.7105057725
 20
-35.2063884064
 10
91.6811126158
 20
-35.1959096798
 10
91.6511364784
 20
-35.1871500037
 10
91.6205573853
 20
-35.1801009507
 10
91.5897808848
 20
-35.1746033383
 10
91.5589421596
 20
-35.1706041085
 10
91.527906027
 20
-35.1681563282
 10
91.4966724869
 20
-35.1672599997
  0
LWPOLYLINE
  5
4FB
100
AcDbEntity
  8
0
100
AcDbPolyline
 62
7
  6
CONTINUOUS
 90
16
 70
0
 10
88.962140307
 20
9.7160360975
 10
88.962008742
 20
9.7286135251
 10
88.9614673384
 20
9.7411709806
 10
88.9605160961
 20
9.7537084641
 10
88.9591823912
 20
9.7662374224
 10
88.9574388476
 20
9.7787464086
 10
88.9552033372
 20
9.7912010823
 10
88.9524639692
 20
9.8036254319
 10
88.9492326344
 20
9.815995469
 10
88.9454628774
 20
9.8282048887
 10
88.941144694
 20
9.8402516197
 10
88.9362880884
 20
9.8521377339
 10
88.930876618
 20
9.8637631412
 10
88.9249048019
 20
9.8750944786
 10
88.9183781208
 20
9.8861651102
 10
88.911296575
 20
9.8969750364
  0
LWPOLYLINE
  5
4FC
100
AcDbEntity
  8
0
100
AcDbPolyline
 62
7
  6
CONTINUOUS
 90
31
 70
0
 10
92.3073212962
 20
-35.8784107664
 10
92.3076898819
 20
-35.9243347084
 10
92.306428553
 20
-35.9700969105
 10
92.3035373096
 20
-36.0156973766
 10
92.2991444792
 20
-36.0612487604
 10
92.2931217342
 20
-36.1066384141
 10
92.2850840918
 20
-36.1515284
 10
92.2748081923
 20
-36.1958818433
 10
92.2625173953
 20
-36.2397356462
 10
92.2484967968
 20
-36.2828625516
 10
92.2329371962
 20
-36.3253313504
 10
92.2156477941
 20
-36.3670732885
 10
92.1963412876
 20
-36.4076548088
 10
92.1750170673
 20
-36.4471151285
 10
92.1516757425
 20
-36.4854150875
 10
92.1260318389
 20
-36.5220035859
 10
92.0979310381
 20
-36.5568649754
 10
92.0675276584
 20
-36.5900149815
 10
92.0349991798
 20
-36.6209495859
 10
92.0002264027
 20
-36.6495802261
 10
91.9633285267
 20
-36.6759955493
 10
91.9248406303
 20
-36.6999573621
 10
91.8847456632
 20
-36.721393523
 10
91.8430606758
 20
-36.740376245
 10
91.8003718978
 20
-36.7568838652
 10
91.7566603807
 20
-36.7709276696
 10
91.7119450729
 20
-36.7824964202
 10
91.6668690491
 20
-36.7915346631
 10
91.6216466676
 20
-36.798023922
 10
91.57606357
 20
-36.8019826982
 10
91.5301197563
 20
-36.8034109982
  0
LINE
  5
4FD
100
AcDbEntity
  8
0
100
AcDbLine
 62
7
  6
CONTINUOUS
 10
85.745823
 20
-36.803411
 11
85.745823
 21
-36.022657
  0
LINE
  5
4FE
100
AcDbEntity
  8
0
100
AcDbLine
 62
7
  6
CONTINUOUS
 10
85.745823
 20
-35.808808
 11
85.745823
 21
-35.16726
  0
LINE
  5
4FF
100
AcDbEntity
  8
0
100
AcDbLine
 62
7
  6
CONTINUOUS
 10
86.082436
 20
33.099907
 11
86.082427
 21
35.539919
  0
LINE
  5
500
100
AcDbEntity
  8
0
100
AcDbLine
 62
7
  6
CONTINUOUS
 10
86.148568
 20
11.204981
 11
86.148568
 21
10.847572
  0
LINE
  5
501
100
AcDbEntity
  8
0
100
AcDbLine
 62
7
  6
CONTINUOUS
 10
86.148568
 20
9.152428
 11
86.148568
 21
8.795019
  0
LINE
  5
502
100
AcDbEntity
  8
0
100
AcDbLine
 62
7
  6
CONTINUOUS
 10
86.822464
 20
33.099907
 11
86.822464
 21
36.800074
  0
LINE
  5
503
100
AcDbEntity
  8
0
100
AcDbLine
 62
7
  6
CONTINUOUS
 10
87.026774
 20
11.204981
 11
87.026774
 21
10.847572
  0
LINE
  5
504
100
AcDbEntity
  8
0
100
AcDbLine
 62
7
  6
CONTINUOUS
 10
87.026774
 20
9.152428
 11
87.026774
 21
8.795019
  0
LINE
  5
505
100
AcDbEntity
  8
0
100
AcDbLine
 62
7
  6
CONTINUOUS
 10
87.21443
 20
-36.803411
 11
87.21443
 21
-34.953411
  0
LINE
  5
506
100
AcDbEntity
  8
0
100
AcDbLine
 62
7
  6
CONTINUOUS
 10
87.464358
 20
-36.58182
 11
87.464358
 21
-35.963498
  0
LINE
  5
507
100
AcDbEntity
  8
0
100
AcDbLine
 62
7
  6
CONTINUOUS
 10
87.464358
 20
-35.741907
 11
87.464358
 21
-35.175002
  0
LINE
  5
508
100
AcDbEntity
  8
0
100
AcDbLine
 62
7
  6
CONTINUOUS
 10
87.904981
 20
11.204981
 11
87.904981
 21
10.847572
  0
LINE
  5
509
100
AcDbEntity
  8
0
100
AcDbLine
 62
7
  6
CONTINUOUS
 10
87.904981
 20
9.152428
 11
87.904981
 21
8.795019
  0
LINE
  5
50A
100
AcDbEntity
  8
0
100
AcDbLine
 62
7
  6
CONTINUOUS
 10
88.477075
 20
-35.963498
 11
88.477075
 21
-35.741907
  0
LINE
  5
50B
100
AcDbEntity
  8
0
100
AcDbLine
 62
7
  6
CONTINUOUS
 10
88.562088
 20
-35.175002
 11
88.562088
 21
-34.953411
  0
LINE
  5
50C
100
AcDbEntity
  8
0
100
AcDbLine
 62
7
  6
CONTINUOUS
 10
88.580055
 20
-36.803411
 11
88.580055
 21
-36.58182
  0
LINE
  5
50D
100
AcDbEntity
  8
0
100
AcDbLine
 62
7
  6
CONTINUOUS
 10
88.907256
 20
-36.803411
 11
88.907256
 21
-34.953411
  0
LINE
  5
50E
100
AcDbEntity
  8
0
100
AcDbLine
 62
7
  6
CONTINUOUS
 10
89.149443
 20
-36.803411
 11
89.149443
 21
-35.300826
  0
LINE
  5
50F
100
AcDbEntity
  8
0
100
AcDbLine
 62
7
  6
CONTINUOUS
 10
90.133676
 20
-36.456132
 11
90.133676
 21
-34.953411
  0
LINE
  5
510
100
AcDbEntity
  8
0
100
AcDbLine
 62
7
  6
CONTINUOUS
 10
90.375863
 20
-36.803411
 11
90.375863
 21
-34.953411
  0
LINE
  5
511
100
AcDbEntity
  8
0
100
AcDbLine
 62
7
  6
CONTINUOUS
 10
90.780336
 20
-36.803411
 11
90.780336
 21
-34.953411
  0
LINE
  5
512
100
AcDbEntity
  8
0
100
AcDbLine
 62
7
  6
CONTINUOUS
 10
90.925218
 20
33.099917
 11
90.925218
 21
36.800083
  0
LINE
  5
513
100
AcDbEntity
  8
0
100
AcDbLine
 62
7
  6
CONTINUOUS
 10
91.030265
 20
-36.589562
 11
91.030265
 21
-35.16726
  0
LINE
  5
514
100
AcDbEntity
  8
0
100
AcDbLine
 62
7
  6
CONTINUOUS
 10
91.655052
 20
35.215142
 11
91.655043
 21
36.115556
  0
LINE
  5
515
100
AcDbEntity
  8
0
100
AcDbLine
 62
7
  6
CONTINUOUS
 10
91.665255
 20
33.099917
 11
91.665338
 21
34.530614
  0
LWPOLYLINE
  5
516
100
AcDbEntity
  8
0
100
AcDbPolyline
 62
7
  6
CONTINUOUS
 90
31
 70
0
 10
86.8761696519
 20
-35.4592366934
 10
86.8761659261
 20
-35.5169768614
 10
86.8747301841
 20
-35.5457354522
 10
86.8718816271
 20
-35.5743095188
 10
86.8676229057
 20
-35.6027744561
 10
86.8619513694
 20
-35.6310548746
 10
86.854859066
 20
-35.6589246037
 10
86.8463635029
 20
-35.6863854031
 10
86.8364471728
 20
-35.713435527
 10
86.8250496022
 20
-35.7398435545
 10
86.812167745
 20
-35.7656718207
 10
86.7978046473
 20
-35.7908580103
 10
86.7819089742
 20
-35.814983737
 10
86.7643881821
 20
-35.8380132713
 10
86.7453348146
 20
-35.8599823738
 10
86.7249751683
 20
-35.8805799027
 10
86.7032598329
 20
-35.8997427967
 10
86.6802382188
 20
-35.9175341513
 10
86.6562848534
 20
-35.933832064
 10
86.6313755387
 20
-35.9485632218
 10
86.6055344728
 20
-35.9618009669
 10
86.5792087762
 20
-35.9736433774
 10
86.552486312
 20
-35.9840734291
 10
86.5252792172
 20
-35.9931081656
 10
86.4977710239
 20
-36.0008967638
 10
86.4699758739
 20
-36.0074556581
 10
86.4418796254
 20
-36.0127684251
 10
86.4136233848
 20
-36.0169349519
 10
86.3852541876
 20
-36.0199885359
 10
86.3567249983
 20
-36.0218958848
 10
86.328035817
 20
-36.022657
  0
LWPOLYLINE
  5
517
100
AcDbEntity
  8
0
100
AcDbPolyline
 62
7
  6
CONTINUOUS
 90
67
 70
0
 10
89.3141964233
 20
10.0
 10
89.3115778167
 20
9.9141906224
 10
89.3043883834
 20
9.8292679527
 10
89.2926281233
 20
9.7452320075
 10
89.2762032733
 20
9.6619535331
 10
89.2552075965
 20
9.5795618135
 10
89.2299223822
 20
9.4984446757
 10
89.2003595165
 20
9.4186750859
 10
89.1665071133
 20
9.340180118
 10
89.1286108034
 20
9.2631287671
 10
89.0867832376
 20
9.1876080702
 10
89.0409117651
 20
9.1135310312
 10
88.9909040642
 20
9.0408055953
 10
88.9370018201
 20
8.9695203993
 10
88.8789633476
 20
8.8995868415
 10
88.8159712692
 20
8.8306470036
 10
88.7480534745
 20
8.7624872928
 10
88.6751820738
 20
8.6953213249
 10
88.5964560213
 20
8.6294319921
 10
88.5118515545
 20
8.5646400292
 10
88.4213924359
 20
8.5011247283
 10
88.3242489072
 20
8.4397068281
 10
88.2201910497
 20
8.3801775325
 10
88.1094487821
 20
8.3227456758
 10
87.9918821014
 20
8.2688584603
 10
87.8668587818
 20
8.2183784471
 10
87.7350110491
 20
8.1714431287
 10
87.598095578
 20
8.1299121251
 10
87.4560274736
 20
8.0940059718
 10
87.3088916308
 20
8.0635041934
 10
87.1586994084
 20
8.0396049035
 10
87.0050646071
 20
8.0225418935
 10
86.8483734261
 20
8.01208141
 10
86.691795822
 20
8.0087202469
 10
86.5353379965
 20
8.0128171091
 10
86.3789937478
 20
8.0240132909
 10
86.2259144271
 20
8.0417294607
 10
86.0765085212
 20
8.0661887867
 10
85.9303675432
 20
8.0971680619
 10
85.7894173842
 20
8.1334183896
 10
85.6537303011
 20
8.1751571743
 10
85.5232340369
 20
8.2221669523
 10
85.3996377119
 20
8.2725465354
 10
85.2836129594
 20
8.326122152
 10
85.1744881459
 20
8.3830675232
 10
85.0719574914
 20
8.4420027204
 10
84.9762198147
 20
8.5027123361
 10
84.8870762968
 20
8.5654117421
 10
84.8036247006
 20
8.6293671956
 10
84.7258710621
 20
8.6943973982
 10
84.6538093453
 20
8.7606836224
 10
84.5865192053
 20
8.8280359898
 10
84.5239581136
 20
8.8962436364
 10
84.4661685986
 20
8.9655174022
 10
84.4123579014
 20
9.0362999619
 10
84.3622573166
 20
9.1087205249
 10
84.3161355494
 20
9.182649843
 10
84.2740059565
 20
9.258142898
 10
84.2357716021
 20
9.33527358
 10
84.2015294219
 20
9.4139679552
 10
84.1715835797
 20
9.4940592699
 10
84.1459219956
 20
9.5756255664
 10
84.1245567494
 20
9.6585887586
 10
84.1078282441
 20
9.7425479068
 10
84.0958499474
 20
9.8273693552
 10
84.0885083916
 20
9.9131867256
 10
84.0858035767
 20
10.0
  0
LINE
  5
518
100
AcDbEntity
  8
0
100
AcDbLine
 62
7
  6
CONTINUOUS
 10
80.842775
 20
-36.803411
 11
81.036028
 21
-36.264844
  0
LINE
  5
519
100
AcDbEntity
  8
0
100
AcDbLine
 62
7
  6
CONTINUOUS
 10
81.1133
 20
-36.043253
 11
81.412194
 21
-35.221738
  0
LINE
  5
51A
100
AcDbEntity
  8
0
100
AcDbLine
 62
7
  6
CONTINUOUS
 10
80.585105
 20
-36.803411
 11
81.280845
 21
-34.953411
  0
LINE
  5
51B
100
AcDbEntity
  8
0
100
AcDbLine
 62
7
  6
CONTINUOUS
 10
79.301649
 20
33.099898
 11
78.113653
 21
36.800074
  0
LINE
  5
51C
100
AcDbEntity
  8
0
100
AcDbLine
 62
7
  6
CONTINUOUS
 10
79.671686
 20
34.252309
 11
78.85369
 21
36.800074
  0
LINE
  5
51D
100
AcDbEntity
  8
0
100
AcDbLine
 62
7
  6
CONTINUOUS
 10
84.642766
 20
33.099907
 11
83.943114
 21
35.539919
  0
LINE
  5
51E
100
AcDbEntity
  8
0
100
AcDbLine
 62
7
  6
CONTINUOUS
 10
85.012775
 20
34.390393
 11
84.321809
 21
36.800074
  0
LWPOLYLINE
  5
51F
100
AcDbEntity
  8
0
100
AcDbPolyline
 62
7
  6
CONTINUOUS
 90
31
 70
0
 10
87.922885845
 20
9.7214989751
 10
87.9275620514
 20
9.6970327426
 10
87.933212071
 20
9.6728727431
 10
87.9398359039
 20
9.6490189777
 10
87.947383659
 20
9.6253974574
 10
87.9559052274
 20
9.6020821737
 10
87.9655502816
 20
9.5792950995
 10
87.9763405107
 20
9.5570242927
 10
87.9882542257
 20
9.5352816995
 10
88.0013760328
 20
9.5143251277
 10
88.0157639981
 20
9.4941387001
 10
88.0313600554
 20
9.4747382992
 10
88.0480746133
 20
9.4564293741
 10
88.0659433462
 20
9.4392375883
 10
88.0849305796
 20
9.4231372848
 10
88.1048396982
 20
9.4083569336
 10
88.125734306
 20
9.3949916108
 10
88.1475507989
 20
9.3829462463
 10
88.1699017501
 20
9.372164091
 10
88.1927681742
 20
9.36269981
 10
88.2161690565
 20
9.3544987422
 10
88.2397739261
 20
9.3473401485
 10
88.2634992822
 20
9.3412296324
 10
88.2874286256
 20
9.3361615927
 10
88.3114819871
 20
9.3318984816
 10
88.335647502
 20
9.3284173711
 10
88.3599370351
 20
9.3257411903
 10
88.3843062115
 20
9.323701177
 10
88.4087402394
 20
9.3222410772
 10
88.4332539106
 20
9.3214171452
 10
88.457847225
 20
9.3212293811
  0
LWPOLYLINE
  5
520
100
AcDbEntity
  8
0
100
AcDbPolyline
 62
7
  6
CONTINUOUS
 90
31
 70
0
 10
88.9139151018
 20
10.2736780142
 10
88.9100496041
 20
10.2959323236
 10
88.9053005529
 20
10.3179344056
 10
88.8996679482
 20
10.3396842612
 10
88.8932447655
 20
10.3612642668
 10
88.8859380292
 20
10.3825920476
 10
88.8774688138
 20
10.4034204783
 10
88.8678412734
 20
10.4238212691
 10
88.8570512538
 20
10.4437227133
 10
88.844807366
 20
10.4626625619
 10
88.8309133941
 20
10.480588577
 10
88.8155655542
 20
10.497553003
 10
88.7990611053
 20
10.5132503173
 10
88.7813148628
 20
10.5275311213
 10
88.7624120114
 20
10.5405448208
 10
88.7429053645
 20
10.5524341003
 10
88.7228788594
 20
10.5631754035
 10
88.7022485588
 20
10.5727922915
 10
88.6813154645
 20
10.5814981232
 10
88.6601167674
 20
10.5893307378
 10
88.6386152766
 20
10.5962522989
 10
88.6170004209
 20
10.6023626517
 10
88.5953243642
 20
10.6076502848
 10
88.5735349426
 20
10.6121267114
 10
88.5516650935
 20
10.6159263136
 10
88.529724697
 20
10.619058944
 10
88.507703873
 20
10.6215147508
 10
88.4856059185
 20
10.6233985597
 10
88.4634319327
 20
10.6247453128
 10
88.4411808166
 20
10.6255200683
 10
88.41885257
 20
10.6257228263
  0
LWPOLYLINE
  5
521
100
AcDbEntity
  8
RACCORDO
100
AcDbPolyline
 62
250
  6
CONTINUOUS
 90
19
 70
0
 10
95.0558182856
 20
38.2562294251
 10
95.0546287499
 20
38.2820953521
 10
95.0512010814
 20
38.3078224374
 10
95.0455468196
 20
38.3332158778
 10
95.0376882678
 20
38.3580986404
 10
95.0276744732
 20
38.3822598318
 10
95.0155959454
 20
38.4054623231
 10
95.0015561024
 20
38.4275131493
 10
94.9856530841
 20
38.4482630702
 10
94.9680040996
 20
38.4675580913
 10
94.9487397016
 20
38.4852529011
 10
94.928007627
 20
38.5012094321
 10
94.9059691061
 20
38.5153027701
 10
94.8827932485
 20
38.5274250296
 10
94.8586549446
 20
38.5374849787
 10
94.8337378241
 20
38.5454060999
 10
94.8082313977
 20
38.5511281733
 10
94.7823296085
 20
38.5546077148
 10
94.7562294251
 20
38.5558182856
  0
LINE
  5
522
100
AcDbEntity
  8
RACCORDO
100
AcDbLine
 62
250
  6
CONTINUOUS
 10
94.7562293466
 20
-38.2837189313
 11
94.7296448861
 21
-32.2954225073
  0
LINE
  5
523
100
AcDbEntity
  8
RACCORDO
100
AcDbLine
 62
250
  6
CONTINUOUS
 10
95.0558183435
 20
-38.2562294831
 11
95.0292693371
 21
-32.2809907594
  0
LINE
  5
524
100
AcDbEntity
  8
RACCORDO
100
AcDbLine
 62
250
  6
CONTINUOUS
 10
94.7296448861
 20
-32.2954225073
 11
94.7075723234
 21
-26.3
  0
LINE
  5
525
100
AcDbEntity
  8
RACCORDO
100
AcDbLine
 62
250
  6
CONTINUOUS
 10
95.0292693371
 20
-32.2809907594
 11
95.0072236315
 21
-26.3
  0
LINE
  5
526
100
AcDbEntity
  8
RACCORDO
100
AcDbLine
 62
250
  6
CONTINUOUS
 10
94.7049701059
 20
-25.5
 11
94.6982299331
 21
-23.3
  0
LINE
  5
527
100
AcDbEntity
  8
RACCORDO
100
AcDbLine
 62
250
  6
CONTINUOUS
 10
95.0046176654
 20
-25.5
 11
94.9978677855
 21
-23.3
  0
LINE
  5
528
100
AcDbEntity
  8
RACCORDO
100
AcDbLine
 62
250
  6
CONTINUOUS
 10
94.6959301047
 20
-22.5
 11
94.6892623774
 21
-20.0
  0
LINE
  5
529
100
AcDbEntity
  8
RACCORDO
100
AcDbLine
 62
250
  6
CONTINUOUS
 10
94.9955646455
 20
-22.5
 11
94.9888873201
 21
-20.0
  0
LINE
  5
52A
100
AcDbEntity
  8
RACCORDO
100
AcDbLine
 62
250
  6
CONTINUOUS
 10
94.6764660023
 20
-14.0
 11
94.6697970641
 21
-9.4676861224
  0
LINE
  5
52B
100
AcDbEntity
  8
RACCORDO
100
AcDbLine
 62
250
  6
CONTINUOUS
 10
94.9760725328
 20
-14.0
 11
94.9693941314
 21
-9.4677388407
  0
LINE
  5
52C
100
AcDbEntity
  8
RACCORDO
100
AcDbLine
 62
250
  6
CONTINUOUS
 10
94.6697970641
 20
-9.4676861224
 11
94.6657045759
 21
-4.9341748229
  0
LINE
  5
52D
100
AcDbEntity
  8
RACCORDO
100
AcDbLine
 62
250
  6
CONTINUOUS
 10
94.9693941314
 20
-9.4677388407
 11
94.9652957579
 21
-4.9344055074
  0
LINE
  5
52E
100
AcDbEntity
  8
RACCORDO
100
AcDbLine
 62
250
  6
CONTINUOUS
 10
94.6657045759
 20
-4.9341748229
 11
94.6641885375
 21
-0.4
  0
LINE
  5
52F
100
AcDbEntity
  8
RACCORDO
100
AcDbLine
 62
250
  6
CONTINUOUS
 10
94.9652957579
 20
-4.9344055074
 11
94.9637774124
 21
-0.4
  0
LINE
  5
530
100
AcDbEntity
  8
0
100
AcDbLine
 62
7
  6
CONTINUOUS
 10
92.656044
 20
-36.803411
 11
92.656044
 21
-36.530256
  0
LINE
  5
531
100
AcDbEntity
  8
0
100
AcDbLine
 62
7
  6
CONTINUOUS
 10
92.924086
 20
-36.803411
 11
92.924086
 21
-36.530256
  0
LINE
  5
532
100
AcDbEntity
  8
0
100
AcDbLine
 62
7
  6
CONTINUOUS
 10
93.1
 20
-20.0
 11
93.1
 21
-19.2
  0
LINE
  5
533
100
AcDbEntity
  8
0
100
AcDbLine
 62
7
  6
CONTINUOUS
 10
93.1
 20
-17.4
 11
93.1
 21
-16.6
  0
LINE
  5
534
100
AcDbEntity
  8
0
100
AcDbLine
 62
7
  6
CONTINUOUS
 10
93.1
 20
-14.8
 11
93.1
 21
-14.0
  0
LINE
  5
535
100
AcDbEntity
  8
0
100
AcDbLine
 62
7
  6
CONTINUOUS
 10
93.1
 20
14.0
 11
93.1
 21
14.8
  0
LINE
  5
536
100
AcDbEntity
  8
0
100
AcDbLine
 62
7
  6
CONTINUOUS
 10
93.1
 20
16.6
 11
93.1
 21
17.4
  0
LINE
  5
537
100
AcDbEntity
  8
0
100
AcDbLine
 62
7
  6
CONTINUOUS
 10
93.1
 20
19.2
 11
93.1
 21
20.0
  0
LINE
  5
538
100
AcDbEntity
  8
0
100
AcDbLine
 62
7
  6
CONTINUOUS
 10
93.75
 20
20.0
 11
93.75
 21
19.2
  0
LINE
  5
539
100
AcDbEntity
  8
0
100
AcDbLine
 62
7
  6
CONTINUOUS
 10
93.75
 20
17.4
 11
93.75
 21
16.6
  0
LINE
  5
53A
100
AcDbEntity
  8
0
100
AcDbLine
 62
7
  6
CONTINUOUS
 10
93.75
 20
14.8
 11
93.75
 21
14.0
  0
LINE
  5
53B
100
AcDbEntity
  8
0
100
AcDbLine
 62
7
  6
CONTINUOUS
 10
93.75
 20
-14.0
 11
93.75
 21
-14.8
  0
LINE
  5
53C
100
AcDbEntity
  8
0
100
AcDbLine
 62
7
  6
CONTINUOUS
 10
93.75
 20
-16.6
 11
93.75
 21
-17.4
  0
LINE
  5
53D
100
AcDbEntity
  8
0
100
AcDbLine
 62
7
  6
CONTINUOUS
 10
93.75
 20
-19.2
 11
93.75
 21
-20.0
  0
LINE
  5
53E
100
AcDbEntity
  8
RACCORDO
100
AcDbLine
 62
250
  6
CONTINUOUS
 10
94.0
 20
-26.3
 11
94.0
 21
-25.5
  0
LINE
  5
53F
100
AcDbEntity
  8
0
100
AcDbLine
 62
7
  6
CONTINUOUS
 10
94.5
 20
-19.2
 11
94.5
 21
-17.4
  0
LINE
  5
540
100
AcDbEntity
  8
0
100
AcDbLine
 62
7
  6
CONTINUOUS
 10
94.5
 20
-16.6
 11
94.5
 21
-14.8
  0
LINE
  5
541
100
AcDbEntity
  8
0
100
AcDbLine
 62
7
  6
CONTINUOUS
 10
94.5
 20
14.8
 11
94.5
 21
16.6
  0
LINE
  5
542
100
AcDbEntity
  8
0
100
AcDbLine
 62
7
  6
CONTINUOUS
 10
94.5
 20
17.4
 11
94.5
 21
19.2
  0
LINE
  5
543
100
AcDbEntity
  8
RACCORDO
100
AcDbLine
 62
250
  6
CONTINUOUS
 10
94.7562294251
 20
38.5558182856
 11
94.7562294251
 21
38.2837189313
  0
LINE
  5
544
100
AcDbEntity
  8
RACCORDO
100
AcDbLine
 62
250
  6
CONTINUOUS
 10
94.7562294251
 20
-38.2837189313
 11
94.7562294251
 21
-38.5558182856
  0
LINE
  5
545
100
AcDbEntity
  8
DRAFT
100
AcDbLine
 62
7
  6
CONTINUOUS
 10
95.0536834374
 20
23.3
 11
95.0536834374
 21
22.4999999998
  0
LINE
  5
546
100
AcDbEntity
  8
DRAFT
100
AcDbLine
 62
7
  6
CONTINUOUS
 10
95.0536834374
 20
0.4
 11
95.0536834374
 21
-0.4
  0
LINE
  5
547
100
AcDbEntity
  8
DRAFT
100
AcDbLine
 62
7
  6
CONTINUOUS
 10
95.0536834374
 20
-22.5
 11
95.0536834374
 21
-23.3
  0
LINE
  5
548
100
AcDbEntity
  8
DRAFT
100
AcDbLine
 62
7
  6
CONTINUOUS
 10
95.1951844414
 20
3.5
 11
95.1951844414
 21
-3.5
  0
LINE
  5
549
100
AcDbEntity
  8
DRAFT
100
AcDbLine
 62
7
  6
CONTINUOUS
 10
95.2371106649
 20
-19.2
 11
95.2371106649
 21
-17.4
  0
LINE
  5
54A
100
AcDbEntity
  8
DRAFT
100
AcDbLine
 62
7
  6
CONTINUOUS
 10
95.2371106649
 20
-16.6
 11
95.2371106649
 21
-14.8
  0
LINE
  5
54B
100
AcDbEntity
  8
DRAFT
100
AcDbLine
 62
7
  6
CONTINUOUS
 10
95.2371106649
 20
14.8
 11
95.2371106649
 21
16.6
  0
LINE
  5
54C
100
AcDbEntity
  8
DRAFT
100
AcDbLine
 62
7
  6
CONTINUOUS
 10
95.2371106649
 20
17.4
 11
95.2371106649
 21
19.2
  0
LINE
  5
54D
100
AcDbEntity
  8
RACCORDO
100
AcDbLine
 62
7
  6
CONTINUOUS
 10
95.3
 20
38.5004111396
 11
95.3
 21
20.0
  0
LINE
  5
54E
100
AcDbEntity
  8
DRAFT
100
AcDbLine
 62
7
  6
CONTINUOUS
 10
95.3
 20
19.2
 11
95.3
 21
17.4
  0
LINE
  5
54F
100
AcDbEntity
  8
DRAFT
100
AcDbLine
 62
7
  6
CONTINUOUS
 10
95.3
 20
16.6
 11
95.3
 21
14.8
  0
LINE
  5
550
100
AcDbEntity
  8
DRAFT
100
AcDbLine
 62
7
  6
CONTINUOUS
 10
95.3
 20
14.0
 11
95.3
 21
3.6749773271
  0
LINE
  5
551
100
AcDbEntity
  8
DRAFT
100
AcDbLine
 62
7
  6
CONTINUOUS
 10
95.3
 20
-3.6749773271
 11
95.3
 21
-14.0
  0
LINE
  5
552
100
AcDbEntity
  8
DRAFT
100
AcDbLine
 62
7
  6
CONTINUOUS
 10
95.3
 20
-14.8
 11
95.3
 21
-16.6
  0
LINE
  5
553
100
AcDbEntity
  8
DRAFT
100
AcDbLine
 62
7
  6
CONTINUOUS
 10
95.3
 20
-17.4
 11
95.3
 21
-19.2
  0
LINE
  5
554
100
AcDbEntity
  8
RACCORDO
100
AcDbLine
 62
7
  6
CONTINUOUS
 10
95.3
 20
-20.0
 11
95.3
 21
-38.5004111396
  0
LINE
  5
555
100
AcDbEntity
  8
DRAFT
100
AcDbLine
 62
7
  6
CONTINUOUS
 10
97.3951844414
 20
3.5
 11
97.3951844414
 21
-3.5
  0
LINE
  5
556
100
AcDbEntity
  8
RACCORDO
100
AcDbLine
 62
7
  6
CONTINUOUS
 10
97.5
 20
-39.8016445583
 11
97.5
 21
-3.6749773271
  0
LINE
  5
557
100
AcDbEntity
  8
RACCORDO
100
AcDbLine
 62
7
  6
CONTINUOUS
 10
97.5
 20
3.6749773271
 11
97.5
 21
39.8016445583
  0
LINE
  5
558
100
AcDbEntity
  8
RACCORDO
100
AcDbLine
 62
250
  6
CONTINUOUS
 10
94.6641885374
 20
0.4
 11
94.6657045752
 21
4.9341740622
  0
LINE
  5
559
100
AcDbEntity
  8
RACCORDO
100
AcDbLine
 62
250
  6
CONTINUOUS
 10
94.9637774122
 20
0.4
 11
94.9652957525
 21
4.9343994908
  0
LINE
  5
55A
100
AcDbEntity
  8
RACCORDO
100
AcDbLine
 62
250
  6
CONTINUOUS
 10
94.6657045752
 20
4.9341740622
 11
94.6697970635
 21
9.4676853618
  0
LINE
  5
55B
100
AcDbEntity
  8
RACCORDO
100
AcDbLine
 62
250
  6
CONTINUOUS
 10
94.9652957525
 20
4.9343994908
 11
94.969394126
 21
9.4677328241
  0
LINE
  5
55C
100
AcDbEntity
  8
RACCORDO
100
AcDbLine
 62
250
  6
CONTINUOUS
 10
94.6697970635
 20
9.4676853618
 11
94.6764660023
 21
14.0
  0
LINE
  5
55D
100
AcDbEntity
  8
RACCORDO
100
AcDbLine
 62
250
  6
CONTINUOUS
 10
94.969394126
 20
9.4677328241
 11
94.9760725327
 21
14.0
  0
LINE
  5
55E
100
AcDbEntity
  8
RACCORDO
100
AcDbLine
 62
250
  6
CONTINUOUS
 10
94.6892623775
 20
20.0
 11
94.6959301049
 21
22.4999999998
  0
LINE
  5
55F
100
AcDbEntity
  8
RACCORDO
100
AcDbLine
 62
250
  6
CONTINUOUS
 10
94.9888873202
 20
20.0
 11
94.9955646457
 21
22.4999999998
  0
LINE
  5
560
100
AcDbEntity
  8
RACCORDO
100
AcDbLine
 62
250
  6
CONTINUOUS
 10
94.6982299331
 20
23.3
 11
94.7049701056
 21
25.5
  0
LINE
  5
561
100
AcDbEntity
  8
RACCORDO
100
AcDbLine
 62
250
  6
CONTINUOUS
 10
94.9978677855
 20
23.3
 11
95.004617665
 21
25.5
  0
LINE
  5
562
100
AcDbEntity
  8
RACCORDO
100
AcDbLine
 62
250
  6
CONTINUOUS
 10
94.7075723228
 20
26.3
 11
94.7296448862
 21
32.2954225026
  0
LINE
  5
563
100
AcDbEntity
  8
RACCORDO
100
AcDbLine
 62
250
  6
CONTINUOUS
 10
95.0072236308
 20
26.3
 11
95.0292693507
 21
32.2809940768
  0
LWPOLYLINE
  5
564
100
AcDbEntity
  8
RACCORDO
100
AcDbPolyline
 62
250
  6
CONTINUOUS
 90
3
 70
0
 10
94.0
 20
26.3
 10
94.0000243516
 20
25.5012966516
 10
94.0
 20
25.5
  0
LINE
  5
565
100
AcDbEntity
  8
RACCORDO
100
AcDbLine
 62
250
  6
CONTINUOUS
 10
94.7296448862
 20
32.2954225026
 11
94.7562293466
 21
38.2837189313
  0
LINE
  5
566
100
AcDbEntity
  8
RACCORDO
100
AcDbLine
 62
250
  6
CONTINUOUS
 10
95.0292693507
 20
32.2809940768
 11
95.0558183433
 21
38.2562294829
  0
LWPOLYLINE
  5
567
100
AcDbEntity
  8
RACCORDO
100
AcDbPolyline
 62
250
  6
CONTINUOUS
 90
19
 70
0
 10
95.0558182856
 20
-38.2562294251
 10
95.0546287499
 20
-38.2820953521
 10
95.0512010814
 20
-38.3078224374
 10
95.0455468196
 20
-38.3332158778
 10
95.0376882678
 20
-38.3580986404
 10
95.0276744732
 20
-38.3822598318
 10
95.0155959454
 20
-38.4054623231
 10
95.0015561024
 20
-38.4275131493
 10
94.9856530841
 20
-38.4482630702
 10
94.9680040996
 20
-38.4675580913
 10
94.9487397016
 20
-38.4852529011
 10
94.928007627
 20
-38.5012094321
 10
94.9059691061
 20
-38.5153027701
 10
94.8827932485
 20
-38.5274250296
 10
94.8586549446
 20
-38.5374849787
 10
94.8337378241
 20
-38.5454060999
 10
94.8082313977
 20
-38.5511281733
 10
94.7823296085
 20
-38.5546077148
 10
94.7562294251
 20
-38.5558182856
  0
LWPOLYLINE
  5
568
100
AcDbEntity
  8
RACCORDO
100
AcDbPolyline
 62
250
  6
CONTINUOUS
 90
19
 70
0
 10
95.0558182856
 20
-38.2562294251
 10
95.0534351164
 20
-38.2585481994
 10
95.0489376122
 20
-38.2608505007
 10
95.0423577686
 20
-38.2631199877
 10
95.0337423952
 20
-38.2653405686
 10
95.0231527822
 20
-38.2674964554
 10
95.0106642643
 20
-38.2695722688
 10
94.9963656855
 20
-38.2715532377
 10
94.9803587667
 20
-38.2734252941
 10
94.9627573816
 20
-38.2751751089
 10
94.9436867475
 20
-38.2767902246
 10
94.9232825337
 20
-38.2782591604
 10
94.9016898967
 20
-38.2795714776
 10
94.8790624476
 20
-38.2807178153
 10
94.855561159
 20
-38.2816900223
 10
94.8313532204
 20
-38.2824812244
 10
94.8066108481
 20
-38.2830857836
 10
94.7815100604
 20
-38.2834993458
 10
94.7562294251
 20
-38.2837189313
  0
LWPOLYLINE
  5
569
100
AcDbEntity
  8
RACCORDO
100
AcDbPolyline
 62
250
  6
CONTINUOUS
 90
19
 70
0
 10
95.0558182856
 20
38.2562294251
 10
95.0534351164
 20
38.2585481994
 10
95.0489376122
 20
38.2608505006
 10
95.0423577686
 20
38.2631199876
 10
95.0337423952
 20
38.2653405685
 10
95.0231527822
 20
38.2674964552
 10
95.0106642643
 20
38.2695722686
 10
94.9963656855
 20
38.2715532375
 10
94.9803587667
 20
38.2734252938
 10
94.9627573816
 20
38.2751751087
 10
94.9436867475
 20
38.2767902243
 10
94.9232825337
 20
38.2782591602
 10
94.9016898967
 20
38.2795714774
 10
94.8790624476
 20
38.2807178151
 10
94.855561159
 20
38.2816900222
 10
94.8313532204
 20
38.2824812243
 10
94.8066108481
 20
38.2830857835
 10
94.7815100604
 20
38.2834993458
 10
94.7562294251
 20
38.2837189313
  0
LINE
  5
56A
100
AcDbEntity
  8
0
100
AcDbLine
 62
7
  6
CONTINUOUS
 10
93.05282
 20
33.099917
 11
92.31122
 21
34.530605
  0
LINE
  5
56B
100
AcDbEntity
  8
0
100
AcDbLine
 62
7
  6
CONTINUOUS
 10
93.886347
 20
33.099926
 11
93.0986246114
 21
34.6196016788
  0
LINE
  5
56C
100
AcDbEntity
  8
0
100
AcDbLine
 62
7
  6
CONTINUOUS
 10
89.691832
 20
33.099917
 11
89.458214
 21
33.827577
  0
LINE
  5
56D
100
AcDbEntity
  8
0
100
AcDbLine
 62
7
  6
CONTINUOUS
 10
89.232477
 20
34.530605
 11
88.873827
 21
35.647672
  0
LINE
  5
56E
100
AcDbEntity
  8
0
100
AcDbLine
 62
7
  6
CONTINUOUS
 10
90.431869
 20
33.099907
 11
89.243864
 21
36.800083
  0
ARC
  5
56F
100
AcDbEntity
  8
RACCORDO
100
AcDbCircle
 62
7
  6
CONTINUOUS
 10
-93.6
 20
-25.9
 40
0.4
100
AcDbArc
 50
270.0
 51
90.0
  0
ARC
  5
570
100
AcDbEntity
  8
RACCORDO
100
AcDbCircle
 62
7
  6
CONTINUOUS
 10
-74.8
 20
-22.3
 40
0.2
100
AcDbArc
 50
180.0
 51
270.0
  0
ARC
  5
571
100
AcDbEntity
  8
0
100
AcDbCircle
 62
7
  6
CONTINUOUS
 10
-71.4
 20
32.7
 40
2.9735749324
100
AcDbArc
 50
292.0885434728
 51
273.4298223208
  0
ARC
  5
572
100
AcDbEntity
  8
0
100
AcDbCircle
 62
7
  6
CONTINUOUS
 10
-71.489938
 20
27.094428
 40
2.6508884458
100
AcDbArc
 50
47.2312789315
 51
84.2011738916
  0
ARC
  5
573
100
AcDbEntity
  8
0
100
AcDbCircle
 62
7
  6
CONTINUOUS
 10
-71.281315
 20
27.523813
 40
2.6190759282
100
AcDbArc
 50
45.4348969444
 51
67.5658550007
  0
CIRCLE
  5
574
100
AcDbEntity
  8
ASSI
100
AcDbCircle
 62
7
  6
CONTINUOUS
 10
-80.0
 20
28.0
 40
2.5
  0
CIRCLE
  5
575
100
AcDbEntity
  8
0
100
AcDbCircle
 62
7
  6
CONTINUOUS
 10
-71.4
 20
32.7
 40
2.497595
  0
ARC
  5
576
100
AcDbEntity
  8
0
100
AcDbCircle
 62
7
  6
CONTINUOUS
 10
-71.4
 20
32.7
 40
2.2337503191
100
AcDbArc
 50
299.3041411838
 51
44.9957558874
  0
ARC
  5
577
100
AcDbEntity
  8
0
100
AcDbCircle
 62
7
  6
CONTINUOUS
 10
-71.4
 20
32.7
 40
2.2337501706
100
AcDbArc
 50
134.9002628452
 51
240.6958588162
  0
ARC
  5
578
100
AcDbEntity
  8
0
100
AcDbCircle
 62
7
  6
CONTINUOUS
 10
-71.4
 20
32.7
 40
1.7896378839
100
AcDbArc
 50
299.3041347443
 51
31.9732647666
  0
ARC
  5
579
100
AcDbEntity
  8
0
100
AcDbCircle
 62
7
  6
CONTINUOUS
 10
-71.4
 20
32.7
 40
1.78963742
100
AcDbArc
 50
148.02673736
 51
240.6958652557
  0
CIRCLE
  5
57A
100
AcDbEntity
  8
0
100
AcDbCircle
 62
7
  6
CONTINUOUS
 10
-80.0
 20
28.0
 40
1.75
  0
ARC
  5
57B
100
AcDbEntity
  8
0
100
AcDbCircle
 62
7
  6
CONTINUOUS
 10
-80.647063
 20
34.275584
 40
0.7570808671
100
AcDbArc
 50
4.8339568439
 51
69.478118785
  0
ARC
  5
57C
100
AcDbEntity
  8
0
100
AcDbCircle
 62
7
  6
CONTINUOUS
 10
-86.024166
 20
32.030903
 40
0.7108051987
100
AcDbArc
 50
186.0890518151
 51
252.6040474278
  0
ARC
  5
57D
100
AcDbEntity
  8
0
100
AcDbCircle
 62
7
  6
CONTINUOUS
 10
-82.05893
 20
34.291583
 40
0.69361
100
AcDbArc
 50
89.9999999998
 51
165.444790445
  0
ARC
  5
57E
100
AcDbEntity
  8
0
100
AcDbCircle
 62
7
  6
CONTINUOUS
 10
-84.611595
 20
32.006589
 40
0.6784123981
100
AcDbArc
 50
285.4236043232
 51
341.0052721989
  0
ARC
  5
57F
100
AcDbEntity
  8
0
100
AcDbCircle
 62
7
  6
CONTINUOUS
 10
-89.450087
 20
32.001524
 40
0.6661215736
100
AcDbArc
 50
171.4768687377
 51
256.9488917316
  0
ARC
  5
580
100
AcDbEntity
  8
0
100
AcDbCircle
 62
7
  6
CONTINUOUS
 10
-83.960478
 20
34.349619
 40
0.6350000543
100
AcDbArc
 50
345.1450306759
 51
90.0
  0
ARC
  5
581
100
AcDbEntity
  8
0
100
AcDbCircle
 62
7
  6
CONTINUOUS
 10
-82.786316
 20
31.933864
 40
0.5812548924
100
AcDbArc
 50
165.4447956067
 51
270.0
  0
ARC
  5
582
100
AcDbEntity
  8
0
100
AcDbCircle
 62
7
  6
CONTINUOUS
 10
-87.963125
 20
34.089864
 40
0.5494987774
100
AcDbArc
 50
69.2439221691
 51
142.7056495838
  0
ARC
  5
583
100
AcDbEntity
  8
0
100
AcDbCircle
 62
7
  6
CONTINUOUS
 10
-84.536208
 20
34.078573
 40
0.5362759459
100
AcDbArc
 50
73.6975293415
 51
149.6964851539
  0
ARC
  5
584
100
AcDbEntity
  8
0
100
AcDbCircle
 62
7
  6
CONTINUOUS
 10
-81.682904
 20
32.188414
 40
0.4943492743
100
AcDbArc
 50
176.757782331
 51
259.7449641173
  0
ARC
  5
585
100
AcDbEntity
  8
0
100
AcDbCircle
 62
7
  6
CONTINUOUS
 10
-88.55518
 20
32.175942
 40
0.4421920141
100
AcDbArc
 50
185.7437021398
 51
275.4687192982
  0
ARC
  5
586
100
AcDbEntity
  8
RACCORDO
100
AcDbCircle
 62
7
  6
CONTINUOUS
 10
-93.6
 20
25.9
 40
0.4
100
AcDbArc
 50
270.0
 51
90.0
  0
ARC
  5
587
100
AcDbEntity
  8
RACCORDO
100
AcDbCircle
 62
7
  6
CONTINUOUS
 10
-74.8
 20
22.2999999998
 40
0.2
100
AcDbArc
 50
90.0
 51
180.0
  0
ARC
  5
588
100
AcDbEntity
  8
0
100
AcDbCircle
 62
7
  6
CONTINUOUS
 10
71.417556
 20
-28.3
 40
2.5499986575
100
AcDbArc
 50
87.752529198
 51
272.247470802
  0
ARC
  5
589
100
AcDbEntity
  8
0
100
AcDbCircle
 62
7
  6
CONTINUOUS
 10
67.032446
 20
-28.3
 40
2.5499985399
100
AcDbArc
 50
87.7525290943
 51
272.2474709057
  0
CIRCLE
  5
58A
100
AcDbEntity
  8
ASSI
100
AcDbCircle
 62
7
  6
CONTINUOUS
 10
80.0
 20
-28.0
 40
2.5
  0
ARC
  5
58B
100
AcDbEntity
  8
0
100
AcDbCircle
 62
7
  6
CONTINUOUS
 10
71.417556
 20
-28.3
 40
1.7999999246
100
AcDbArc
 50
86.8152613297
 51
167.9753003079
  0
ARC
  5
58C
100
AcDbEntity
  8
0
100
AcDbCircle
 62
7
  6
CONTINUOUS
 10
67.032446
 20
-28.3
 40
1.7999999246
100
AcDbArc
 50
86.8152613297
 51
273.1847386703
  0
ARC
  5
58D
100
AcDbEntity
  8
0
100
AcDbCircle
 62
7
  6
CONTINUOUS
 10
71.417556
 20
-28.3
 40
1.7999968808
100
AcDbArc
 50
192.0247203293
 51
273.1847440612
  0
CIRCLE
  5
58E
100
AcDbEntity
  8
0
100
AcDbCircle
 62
7
  6
CONTINUOUS
 10
80.0
 20
-28.0
 40
1.75
  0
ARC
  5
58F
100
AcDbEntity
  8
RACCORDO
100
AcDbCircle
 62
7
  6
CONTINUOUS
 10
93.6
 20
-25.9
 40
0.4
100
AcDbArc
 50
90.0
 51
270.0
  0
ARC
  5
590
100
AcDbEntity
  8
RACCORDO
100
AcDbCircle
 62
7
  6
CONTINUOUS
 10
74.8
 20
-22.3
 40
0.2
100
AcDbArc
 50
270.0
 51
360.0
  0
ARC
  5
591
100
AcDbEntity
  8
0
100
AcDbCircle
 62
7
  6
CONTINUOUS
 10
86.148568
 20
10.0
 40
1.204981
100
AcDbArc
 50
90.0
 51
270.0
  0
ARC
  5
592
100
AcDbEntity
  8
0
100
AcDbCircle
 62
7
  6
CONTINUOUS
 10
87.026774
 20
10.0
 40
1.204981
100
AcDbArc
 50
90.0
 51
270.0
  0
ARC
  5
593
100
AcDbEntity
  8
0
100
AcDbCircle
 62
7
  6
CONTINUOUS
 10
87.904981
 20
10.0
 40
1.204981
100
AcDbArc
 50
90.0
 51
270.0
  0
ARC
  5
594
100
AcDbEntity
  8
0
100
AcDbCircle
 62
7
  6
CONTINUOUS
 10
92.658113
 20
35.665347
 40
1.1347395105
100
AcDbArc
 50
292.8428585529
 51
90.0
  0
ARC
  5
595
100
AcDbEntity
  8
0
100
AcDbCircle
 62
7
  6
CONTINUOUS
 10
86.148568
 20
10.0
 40
0.847572
100
AcDbArc
 50
90.0
 51
270.0
  0
ARC
  5
596
100
AcDbEntity
  8
0
100
AcDbCircle
 62
7
  6
CONTINUOUS
 10
87.026774
 20
10.0
 40
0.847572
100
AcDbArc
 50
90.0
 51
270.0
  0
ARC
  5
597
100
AcDbEntity
  8
0
100
AcDbCircle
 62
7
  6
CONTINUOUS
 10
87.904981
 20
10.0
 40
0.847572
100
AcDbArc
 50
90.0
 51
270.0
  0
ARC
  5
598
100
AcDbEntity
  8
0
100
AcDbCircle
 62
7
  6
CONTINUOUS
 10
92.555398
 20
35.665347
 40
0.450208
100
AcDbArc
 50
270.0
 51
90.0
  0
ARC
  5
599
100
AcDbEntity
  8
RACCORDO
100
AcDbCircle
 62
7
  6
CONTINUOUS
 10
93.6
 20
25.9
 40
0.4
100
AcDbArc
 50
90.0
 51
270.0
  0
ARC
  5
59A
100
AcDbEntity
  8
RACCORDO
100
AcDbCircle
 62
7
  6
CONTINUOUS
 10
74.8
 20
22.2999999998
 40
0.2
100
AcDbArc
 50
0.0
 51
90.0
  0
ELLIPSE
  5
59B
100
AcDbEntity
  8
RACCORDO
100
AcDbEllipse
 62
7
  6
CONTINUOUS
 10
96.2983531848
 20
-39.7983531848
 30
0.0
 11
-0.8508554921
 21
0.8508554921
 31
0.0
 40
0.9972646886
 41
2.3575640181
 42
3.9256212891
  0
ELLIPSE
  5
59C
100
AcDbEntity
  8
RACCORDO
100
AcDbEllipse
 62
7
  6
CONTINUOUS
 10
96.2983531848
 20
39.7983531848
 30
0.0
 11
0.8508554921
 21
0.8508554921
 31
0.0
 40
0.9972646886
 41
-0.7840286355
 42
0.7840286355
  0
ELLIPSE
  5
59D
100
AcDbEntity
  8
RACCORDO
100
AcDbEllipse
 62
7
  6
CONTINUOUS
 10
-96.2983531848
 20
-39.7983531848
 30
0.0
 11
-0.8508554921
 21
-0.8508554921
 31
0.0
 40
0.9972646886
 41
-0.7840286355
 42
0.7840286355
  0
ELLIPSE
  5
59E
100
AcDbEntity
  8
RACCORDO
100
AcDbEllipse
 62
7
  6
CONTINUOUS
 10
-96.2983531848
 20
39.7983531848
 30
0.0
 11
0.8508554921
 21
-0.8508554921
 31
0.0
 40
0.9972646886
 41
2.3575640181
 42
3.9256212891
  0
ELLIPSE
  5
59F
100
AcDbEntity
  8
RACCORDO
100
AcDbEllipse
 62
7
  6
CONTINUOUS
 10
94.9995882962
 20
-38.4995882962
 30
0.0
 11
-0.212713873
 21
0.212713873
 31
0.0
 40
0.9972646886
 41
-3.9256212891
 42
-2.3575640181
  0
ELLIPSE
  5
5A0
100
AcDbEntity
  8
RACCORDO
100
AcDbEllipse
 62
7
  6
CONTINUOUS
 10
-94.9995882962
 20
-38.4995882962
 30
0.0
 11
0.212713873
 21
0.212713873
 31
0.0
 40
0.9972646886
 41
-3.9256212891
 42
-2.3575640181
  0
ELLIPSE
  5
5A1
100
AcDbEntity
  8
RACCORDO
100
AcDbEllipse
 62
7
  6
CONTINUOUS
 10
94.9995882962
 20
38.4995882962
 30
0.0
 11
0.212713873
 21
0.212713873
 31
0.0
 40
0.9972646886
 41
-0.7840286355
 42
0.7840286355
  0
ELLIPSE
  5
5A2
100
AcDbEntity
  8
RACCORDO
100
AcDbEllipse
 62
7
  6
CONTINUOUS
 10
-94.9995882962
 20
38.4995882962
 30
0.0
 11
0.212713873
 21
-0.212713873
 31
0.0
 40
0.9972646886
 41
2.3575640181
 42
3.9256212891
  0
ELLIPSE
  5
5A3
100
AcDbEntity
  8
RACCORDO
100
AcDbEllipse
 62
7
  6
CONTINUOUS
 10
-95.2790368883
 20
25.9
 30
0.0
 11
-0.0
 21
0.4
 31
0.0
 40
0.0524077793
 41
-4.7123889804
 42
-3.1415926536
  0
ELLIPSE
  5
5A4
100
AcDbEntity
  8
RACCORDO
100
AcDbEllipse
 62
7
  6
CONTINUOUS
 10
-95.2790368883
 20
-25.9
 30
0.0
 11
0.0
 21
0.4
 31
0.0
 40
0.0524077793
 41
-4.7123889804
 42
-3.1415926536
  0
ELLIPSE
  5
5A5
100
AcDbEntity
  8
RACCORDO
100
AcDbEllipse
 62
7
  6
CONTINUOUS
 10
95.2790368883
 20
25.9
 30
0.0
 11
-0.0
 21
0.4
 31
0.0
 40
0.0524077793
 41
-1.5707963268
 42
-0.0
  0
ELLIPSE
  5
5A6
100
AcDbEntity
  8
RACCORDO
100
AcDbEllipse
 62
7
  6
CONTINUOUS
 10
95.2790368883
 20
-25.9
 30
0.0
 11
-0.0
 21
0.4
 31
0.0
 40
0.0524077793
 41
-1.5707963268
 42
0.0
  0
ELLIPSE
  5
5A7
100
AcDbEntity
  8
RACCORDO
100
AcDbEllipse
 62
7
  6
CONTINUOUS
 10
76.3
 20
-38.7790368883
 30
0.0
 11
0.4
 21
0.0
 31
0.0
 40
0.0524077793
 41
-1.5707963268
 42
-0.0
  0
ELLIPSE
  5
5A8
100
AcDbEntity
  8
RACCORDO
100
AcDbEllipse
 62
7
  6
CONTINUOUS
 10
76.3
 20
-37.8000609312
 30
0.0
 11
-0.0
 21
0.4000609312
 31
0.0
 40
0.9998476952
 41
-1.5707963268
 42
1.5707963268
  0
ELLIPSE
  5
5A9
100
AcDbEntity
  8
RACCORDO
100
AcDbEllipse
 62
7
  6
CONTINUOUS
 10
45.9
 20
-38.7790368883
 30
0.0
 11
0.4
 21
-0.0
 31
0.0
 40
0.0524077793
 41
-1.5707963268
 42
-0.0
  0
ELLIPSE
  5
5AA
100
AcDbEntity
  8
RACCORDO
100
AcDbEllipse
 62
7
  6
CONTINUOUS
 10
45.9
 20
-37.8000609312
 30
0.0
 11
-0.0
 21
0.4000609312
 31
0.0
 40
0.9998476952
 41
-1.5707963268
 42
1.5707963268
  0
ELLIPSE
  5
5AB
100
AcDbEntity
  8
RACCORDO
100
AcDbEllipse
 62
7
  6
CONTINUOUS
 10
15.3
 20
-38.7790368883
 30
0.0
 11
0.4
 21
0.0
 31
0.0
 40
0.0524077793
 41
-1.5707963268
 42
-0.0
  0
ELLIPSE
  5
5AC
100
AcDbEntity
  8
RACCORDO
100
AcDbEllipse
 62
7
  6
CONTINUOUS
 10
15.3
 20
-37.8000609312
 30
0.0
 11
0.0
 21
0.4000609312
 31
0.0
 40
0.9998476952
 41
-1.5707963268
 42
1.5707963268
  0
ELLIPSE
  5
5AD
100
AcDbEntity
  8
RACCORDO
100
AcDbEllipse
 62
7
  6
CONTINUOUS
 10
-15.3
 20
-38.7790368883
 30
0.0
 11
0.4
 21
-0.0
 31
0.0
 40
0.0524077793
 41
-1.5707963268
 42
-0.0
  0
ELLIPSE
  5
5AE
100
AcDbEntity
  8
RACCORDO
100
AcDbEllipse
 62
7
  6
CONTINUOUS
 10
-15.3
 20
-37.8000609312
 30
0.0
 11
-0.0
 21
0.4000609312
 31
0.0
 40
0.9998476952
 41
-1.5707963268
 42
1.5707963268
  0
ELLIPSE
  5
5AF
100
AcDbEntity
  8
RACCORDO
100
AcDbEllipse
 62
7
  6
CONTINUOUS
 10
-45.9
 20
-38.7790368883
 30
0.0
 11
0.4
 21
-0.0
 31
0.0
 40
0.0524077793
 41
-1.5707963268
 42
-0.0
  0
ELLIPSE
  5
5B0
100
AcDbEntity
  8
RACCORDO
100
AcDbEllipse
 62
7
  6
CONTINUOUS
 10
-45.9
 20
-37.8000609312
 30
0.0
 11
0.0
 21
0.4000609312
 31
0.0
 40
0.9998476952
 41
-1.5707963268
 42
1.5707963268
  0
ELLIPSE
  5
5B1
100
AcDbEntity
  8
RACCORDO
100
AcDbEllipse
 62
7
  6
CONTINUOUS
 10
-76.3
 20
-38.7790368883
 30
0.0
 11
0.4
 21
-0.0
 31
0.0
 40
0.0524077793
 41
-1.5707963268
 42
-0.0
  0
ELLIPSE
  5
5B2
100
AcDbEntity
  8
RACCORDO
100
AcDbEllipse
 62
7
  6
CONTINUOUS
 10
-76.3
 20
-37.8000609312
 30
0.0
 11
0.0
 21
0.4000609312
 31
0.0
 40
0.9998476952
 41
-1.5707963268
 42
1.5707963268
  0
ELLIPSE
  5
5B3
100
AcDbEntity
  8
RACCORDO
100
AcDbEllipse
 62
7
  6
CONTINUOUS
 10
-76.3
 20
37.8000609312
 30
0.0
 11
0.0
 21
0.4000609312
 31
0.0
 40
0.9998476952
 41
-4.7123889804
 42
-1.5707963268
  0
ELLIPSE
  5
5B4
100
AcDbEntity
  8
RACCORDO
100
AcDbEllipse
 62
7
  6
CONTINUOUS
 10
-76.3
 20
38.7790368883
 30
0.0
 11
0.4
 21
0.0
 31
0.0
 40
0.0524077793
 41
1.5707963268
 42
3.1415926536
  0
ELLIPSE
  5
5B5
100
AcDbEntity
  8
RACCORDO
100
AcDbEllipse
 62
7
  6
CONTINUOUS
 10
-45.9
 20
37.8000609312
 30
0.0
 11
-0.0
 21
0.4000609312
 31
0.0
 40
0.9998476952
 41
-4.7123889804
 42
-1.5707963268
  0
ELLIPSE
  5
5B6
100
AcDbEntity
  8
RACCORDO
100
AcDbEllipse
 62
7
  6
CONTINUOUS
 10
-45.9
 20
38.7790368883
 30
0.0
 11
0.4
 21
0.0
 31
0.0
 40
0.0524077793
 41
1.5707963268
 42
3.1415926536
  0
ELLIPSE
  5
5B7
100
AcDbEntity
  8
RACCORDO
100
AcDbEllipse
 62
7
  6
CONTINUOUS
 10
-15.3
 20
37.8000609312
 30
0.0
 11
0.0
 21
0.4000609312
 31
0.0
 40
0.9998476952
 41
1.5707963268
 42
4.7123889804
  0
ELLIPSE
  5
5B8
100
AcDbEntity
  8
RACCORDO
100
AcDbEllipse
 62
7
  6
CONTINUOUS
 10
-15.3
 20
38.7790368883
 30
0.0
 11
0.4
 21
0.0
 31
0.0
 40
0.0524077793
 41
1.5707963268
 42
3.1415926536
  0
ELLIPSE
  5
5B9
100
AcDbEntity
  8
RACCORDO
100
AcDbEllipse
 62
7
  6
CONTINUOUS
 10
15.3
 20
37.8000609312
 30
0.0
 11
0.0
 21
0.4000609312
 31
0.0
 40
0.9998476952
 41
1.5707963268
 42
4.7123889804
  0
ELLIPSE
  5
5BA
100
AcDbEntity
  8
RACCORDO
100
AcDbEllipse
 62
7
  6
CONTINUOUS
 10
15.3
 20
38.7790368883
 30
0.0
 11
0.4
 21
0.0
 31
0.0
 40
0.0524077793
 41
1.5707963268
 42
3.1415926536
  0
ELLIPSE
  5
5BB
100
AcDbEntity
  8
RACCORDO
100
AcDbEllipse
 62
7
  6
CONTINUOUS
 10
45.9
 20
37.8000609312
 30
0.0
 11
0.0
 21
0.4000609312
 31
0.0
 40
0.9998476952
 41
-4.7123889804
 42
-1.5707963268
  0
ELLIPSE
  5
5BC
100
AcDbEntity
  8
RACCORDO
100
AcDbEllipse
 62
7
  6
CONTINUOUS
 10
45.9
 20
38.7790368883
 30
0.0
 11
0.4
 21
-0.0
 31
0.0
 40
0.0524077793
 41
1.5707963268
 42
3.1415926536
  0
ELLIPSE
  5
5BD
100
AcDbEntity
  8
RACCORDO
100
AcDbEllipse
 62
7
  6
CONTINUOUS
 10
76.3
 20
37.8000609312
 30
0.0
 11
0.0
 21
0.4000609312
 31
0.0
 40
0.9998476952
 41
1.5707963268
 42
4.7123889804
  0
ELLIPSE
  5
5BE
100
AcDbEntity
  8
RACCORDO
100
AcDbEllipse
 62
7
  6
CONTINUOUS
 10
76.3
 20
38.7790368883
 30
0.0
 11
0.4
 21
-0.0
 31
0.0
 40
0.0524077793
 41
1.5707963268
 42
3.1415926536
  0
ENDSEC
  0
SECTION
  2
OBJECTS
  0
DICTIONARY
  5
C
100
AcDbDictionary
280
0
281
1
  3
ACAD_GROUP
350
D
  3
ACAD_MLINESTYLE
350
17
  3
ACAD_LAYOUT
350
1A
  3
ACAD_PLOTSETTINGS
350
19
  3
ACAD_PLOTSTYLENAME
350
E
  0
DICTIONARY
  5
D
102
{ACAD_REACTORS
330
C
102
}
100
AcDbDictionary
280
0
281
1
  0
ACDBDICTIONARYWDFLT
  5
E
102
{ACAD_REACTORS
330
C
102
}
100
AcDbDictionary
281
1
  3
Normal
350
F
100
AcDbDictionaryWithDefault
340
F
  0
DICTIONARY
  5
17
102
{ACAD_REACTORS
330
C
102
}
100
AcDbDictionary
280
0
281
1
  3
Standard
350
18
  0
DICTIONARY
  5
19
102
{ACAD_REACTORS
330
C
102
}
100
AcDbDictionary
281
1
  0
DICTIONARY
  5
1A
102
{ACAD_REACTORS
330
C
102
}
100
AcDbDictionary
281
1
  3
Model
350
5BF
  3
Layout1
350
5C0
  0
ACDBPLACEHOLDER
  5
F
102
{ACAD_REACTORS
330
E
102
}
  0
MLINESTYLE
  5
18
102
{ACAD_REACTORS
330
17
102
}
100
AcDbMlineStyle
  2
STANDARD
 70
0
  3

 62
256
 51
90.0
 52
90.0
 71
2
 49
0.5
 62
256
  6
BYLAYER
 49
-0.5
 62
256
  6
BYLAYER
  0
LAYOUT
  5
5BF
102
{ACAD_REACTORS
330
1A
102
}
100
AcDbPlotSettings
  1

  2
none_device
  4
ISO_A4_(297.00_x_210.00_MM)
  6

 40
0.0
 41
0.0
 42
0.0
 43
0.0
 44
297.0
 45
210.0
 46
0.0
 47
0.0
 48
0.0
 49
0.0
140
0.0
141
0.0
142
1.0
143
1.0
 70
1024
 72
1
 73
0
 74
0
  7

 75
0
147
1.0
148
0.0
149
0.0
100
AcDbLayout
  1
Model
 70
0
 71
0
 10
0.0
 20
0.0
 11
297.0
 21
210.0
 12
0.0
 22
0.0
 32
0.0
 14
0.0
 24
0.0
 34
0.0
 15
0.0
 25
0.0
 35
0.0
146
0.0
 13
0.0
 23
0.0
 33
0.0
 16
1.0
 26
0.0
 36
0.0
 17
0.0
 27
1.0
 37
0.0
 76
0
330
212
345
0
346
0
  0
LAYOUT
  5
5C0
102
{ACAD_REACTORS
330
1A
102
}
100
AcDbPlotSettings
  1

  2
none_device
  4
ISO_A4_(297.00_x_210.00_MM)
  6

 40
0.0
 41
0.0
 42
0.0
 43
0.0
 44
297.0
 45
210.0
 46
0.0
 47
0.0
 48
0.0
 49
0.0
140
0.0
141
0.0
142
1.0
143
1.0
 70
0
 72
1
 73
0
 74
0
  7

 75
0
147
1.0
148
0.0
149
0.0
100
AcDbLayout
  1
Layout1
 70
0
 71
1
 10
0.0
 20
0.0
 11
297.0
 21
210.0
 12
0.0
 22
0.0
 32
0.0
 14
0.0
 24
0.0
 34
0.0
 15
0.0
 25
0.0
 35
0.0
146
0.0
 13
0.0
 23
0.0
 33
0.0
 16
1.0
 26
0.0
 36
0.0
 17
0.0
 27
1.0
 37
0.0
 76
0
330
213
345
0
346
0
  0
ENDSEC
  0
EOF
