  0
SECTION
  2
HEADER
  9
$ACADVER
  1
AC1024
  9
$DWGCODEPAGE
  3
ANSI_1252
  9
$EXTMAX
 10
297.0
 20
210.0
 30
0.0
  9
$EXTMIN
 10
0.0
 20
0.0
 30
0.0
  9
$LIMMIN
 10
0.0
 20
0.0
  9
$LIMMAX
 10
297.0
 20
210.0
  9
$VIEWCTR
 10
148.5
 20
105.0
  9
$VIEWSIZE
 40
210.0
  9
$CLAYER
  8
0
  9
$LTSCALE
 40
16.335
  9
$CELTYPE
  6
BYLAYER
  9
$DIMSCALE
 40
1.0
  9
$DIMASZ
 40
3.0
  9
$DIMEXO
 40
0.5
  9
$DIMDLI
 40
11.286
  9
$DIMEXE
 40
1.5
  9
$DIMCEN
 40
2.673
  9
$DIMLFAC
 40
1.0
  9
$DIMBLK
  1
_FILLED
  9
$DIMALT
 70
0
  9
$DIMALTF
 40
0.0393700787
  9
$DIMTXT
 40
3.0
  9
$DIMTOL
 70
1
  9
$DIMLIM
 70
0
  9
$DIMTFAC
 40
1.0
  9
$DIMTP
 40
0.01
  9
$DIMTM
 40
0.01
  9
$DIMGAP
 40
0.625
  9
$DIMDSEP
 70
44
  9
$AUNITS
 70
0
  9
$PDMODE
 70
3
  9
$PDSIZE
 40
3.0
  9
$HANDSEED
  5
58D
  9
$TILEMODE
 70
1
  9
$MEASUREMENT
 70
1
  9
$INSUNITS
 70
4
  0
ENDSEC
  0
SECTION
  2
CLASSES
  0
CLASS
  1
ACDBDICTIONARYWDFLT
  2
AcDbDictionaryWithDefault
  3
AutoCAD 2000
 90
0
 91
1
280
0
281
0
  0
CLASS
  1
ACDBPLACEHOLDER
  2
AcDbPlaceHolder
  3
AutoCAD 2000
 90
0
 91
1
280
0
281
0
  0
CLASS
  1
LAYOUT
  2
AcDbLayout
  3
AutoCAD 2000
 90
0
 91
0
280
0
281
0
  0
ENDSEC
  0
SECTION
  2
TABLES
  0
TABLE
  2
VPORT
  5
8
100
AcDbSymbolTable
 70
2
  0
VPORT
  5
1F4
100
AcDbSymbolTableRecord
100
AcDbViewportTableRecord
  2
*ACTIVE
 70
0
 10
0.0
 20
0.0
 11
1.0
 21
1.0
 12
148.5
 22
105.0
 13
0.0
 23
0.0
 14
1.0
 24
1.0
 15
0.0
 25
0.0
 16
0.0
 26
0.0
 36
1.0
 17
0.0
 27
0.0
 37
0.0
 40
210.0
 41
1.4142857143
 42
50.0
 43
0.0
 44
0.0
 50
0.0
 51
0.0
 71
0
 72
100
 73
1
 74
1
 75
0
 76
0
 77
0
 78
0
  0
ENDTAB
  0
TABLE
  2
LTYPE
  5
5
100
AcDbSymbolTable
 70
6
  0
LTYPE
  5
14
100
AcDbSymbolTableRecord
100
AcDbLinetypeTableRecord
  2
BYBLOCK
 70
0
  3

 72
65
 73
0
 40
0.0
  0
LTYPE
  5
15
100
AcDbSymbolTableRecord
100
AcDbLinetypeTableRecord
  2
BYLAYER
 70
0
  3

 72
65
 73
0
 40
0.0
  0
LTYPE
  5
16
100
AcDbSymbolTableRecord
100
AcDbLinetypeTableRecord
  2
CONTINUOUS
 70
64
  3
Solid line
 72
65
 73
0
 40
0.0
  0
LTYPE
  5
1F5
100
AcDbSymbolTableRecord
100
AcDbLinetypeTableRecord
  2
CENTER
 70
64
  3
____ _ ____ _ ____ _ ____ _ ____ _ ____ _ ____
 72
65
 73
4
 40
0.6
 49
0.375
 74
0
 49
-0.075
 74
0
 49
0.075
 74
0
 49
-0.075
 74
0
  0
LTYPE
  5
1F6
100
AcDbSymbolTableRecord
100
AcDbLinetypeTableRecord
  2
HIDDEN
 70
64
  3
- - - - - - - - - - - - - - - - - - - -
 72
65
 73
2
 40
0.2
 49
0.1
 74
0
 49
-0.1
 74
0
  0
LTYPE
  5
1F7
100
AcDbSymbolTableRecord
100
AcDbLinetypeTableRecord
  2
PHANTOM
 70
64
  3
_____ _ _ _____ _ _ _____ _ _ _____
 72
65
 73
6
 40
0.8
 49
0.45
 74
0
 49
-0.05
 74
0
 49
0.1
 74
0
 49
-0.05
 74
0
 49
0.1
 74
0
 49
-0.05
 74
0
  0
LTYPE
  5
1F8
100
AcDbSymbolTableRecord
100
AcDbLinetypeTableRecord
  2
DOT
 70
64
  3
. . . . . . . . . . . . . . . . . . . .
 72
65
 73
2
 40
0.2
 49
0.1
 74
0
 49
-0.1
 74
0
  0
LTYPE
  5
1F9
100
AcDbSymbolTableRecord
100
AcDbLinetypeTableRecord
  2
DASHED
 70
64
  3
- - - - - - - - - - - - - - - - - - - -
 72
65
 73
2
 40
0.2
 49
0.1
 74
0
 49
-0.1
 74
0
  0
ENDTAB
  0
TABLE
  2
LAYER
  5
2
100
AcDbSymbolTable
 70
36
  0
LAYER
  5
10
100
AcDbSymbolTableRecord
100
AcDbLayerTableRecord
  2
0
 70
0
 62
7
  6
CONTINUOUS
370
-3
390
F
  0
LAYER
  5
1FA
100
AcDbSymbolTableRecord
100
AcDbLayerTableRecord
  2
DEFAULT_1
 70
0
 62
7
  6
CENTER
370
-3
390
F
  0
LAYER
  5
1FB
100
AcDbSymbolTableRecord
100
AcDbLayerTableRecord
  2
DEFAULT_2
 70
0
 62
7
  6
HIDDEN
370
-3
390
F
  0
LAYER
  5
1FC
100
AcDbSymbolTableRecord
100
AcDbLayerTableRecord
  2
DEFAULT_3
 70
0
 62
7
  6
PHANTOM
370
-3
390
F
  0
LAYER
  5
1FD
100
AcDbSymbolTableRecord
100
AcDbLayerTableRecord
  2
26216763_GEN
 70
0
 62
7
  6
CONTINUOUS
370
-3
390
F
  0
LAYER
  5
1FE
100
AcDbSymbolTableRecord
100
AcDbLayerTableRecord
  2
ASSI
 70
0
 62
7
  6
CONTINUOUS
370
-3
390
F
  0
LAYER
  5
1FF
100
AcDbSymbolTableRecord
100
AcDbLayerTableRecord
  2
COORDINATE
 70
0
 62
7
  6
CONTINUOUS
370
-3
390
F
  0
LAYER
  5
200
100
AcDbSymbolTableRecord
100
AcDbLayerTableRecord
  2
COORD_ORIGINE
 70
0
 62
7
  6
CONTINUOUS
370
-3
390
F
  0
LAYER
  5
201
100
AcDbSymbolTableRecord
100
AcDbLayerTableRecord
  2
COSMETICI
 70
0
 62
7
  6
CONTINUOUS
370
-3
390
F
  0
LAYER
  5
202
100
AcDbSymbolTableRecord
100
AcDbLayerTableRecord
  2
CURVE
 70
0
 62
7
  6
CONTINUOUS
370
-3
390
F
  0
LAYER
  5
203
100
AcDbSymbolTableRecord
100
AcDbLayerTableRecord
  2
IGES_SCRITTE
 70
0
 62
7
  6
CONTINUOUS
370
-3
390
F
  0
LAYER
  5
204
100
AcDbSymbolTableRecord
100
AcDbLayerTableRecord
  2
INTF_1
 70
0
 62
7
  6
CONTINUOUS
370
-3
390
F
  0
LAYER
  5
205
100
AcDbSymbolTableRecord
100
AcDbLayerTableRecord
  2
INTF_7
 70
0
 62
7
  6
CONTINUOUS
370
-3
390
F
  0
LAYER
  5
206
100
AcDbSymbolTableRecord
100
AcDbLayerTableRecord
  2
NOTE
 70
0
 62
7
  6
CONTINUOUS
370
-3
390
F
  0
LAYER
  5
207
100
AcDbSymbolTableRecord
100
AcDbLayerTableRecord
  2
PIANI
 70
0
 62
7
  6
CONTINUOUS
370
-3
390
F
  0
LAYER
  5
208
100
AcDbSymbolTableRecord
100
AcDbLayerTableRecord
  2
PIANI_DI_RIFERIMENTO
 70
0
 62
7
  6
CONTINUOUS
370
-3
390
F
  0
LAYER
  5
209
100
AcDbSymbolTableRecord
100
AcDbLayerTableRecord
  2
PIANI_ORIGINE
 70
0
 62
7
  6
CONTINUOUS
370
-3
390
F
  0
LAYER
  5
20A
100
AcDbSymbolTableRecord
100
AcDbLayerTableRecord
  2
PUNTI
 70
0
 62
7
  6
CONTINUOUS
370
-3
390
F
  0
LAYER
  5
20B
100
AcDbSymbolTableRecord
100
AcDbLayerTableRecord
  2
RGB__255__255__255__
 70
0
 62
7
  6
CONTINUOUS
370
-3
390
F
  0
LAYER
  5
20C
100
AcDbSymbolTableRecord
100
AcDbLayerTableRecord
  2
RGB____0____0____0__
 70
0
 62
7
  6
CONTINUOUS
370
-3
390
F
  0
LAYER
  5
20D
100
AcDbSymbolTableRecord
100
AcDbLayerTableRecord
  2
SIMBOLI
 70
0
 62
7
  6
CONTINUOUS
370
-3
390
F
  0
LAYER
  5
20E
100
AcDbSymbolTableRecord
100
AcDbLayerTableRecord
  2
SNAPLINE
 70
0
 62
7
  6
CONTINUOUS
370
-3
390
F
  0
LAYER
  5
20F
100
AcDbSymbolTableRecord
100
AcDbLayerTableRecord
  2
SUPERFICI
 70
0
 62
7
  6
CONTINUOUS
370
-3
390
F
  0
LAYER
  5
210
100
AcDbSymbolTableRecord
100
AcDbLayerTableRecord
  2
TRASH
 70
0
 62
7
  6
CONTINUOUS
370
-3
390
F
  0
LAYER
  5
211
100
AcDbSymbolTableRecord
100
AcDbLayerTableRecord
  2
XSEC_DATUMS
 70
0
 62
7
  6
CONTINUOUS
370
-3
390
F
  0
ENDTAB
  0
TABLE
  2
STYLE
  5
3
100
AcDbSymbolTable
 70
1
  0
STYLE
  5
11
100
AcDbSymbolTableRecord
100
AcDbTextStyleTableRecord
  2
STANDARD
 70
0
 40
0.0
 41
0.8
 50
0.0
 71
0
 42
0.2
  3
txt
  4

  0
STYLE
  5
212
100
AcDbSymbolTableRecord
100
AcDbTextStyleTableRecord
  2
TEXTSTYLE_1
 70
0
 40
0.0
 41
0.8
 50
0.0
 71
0
 42
0.2
  3
gdt
  4

  0
ENDTAB
  0
TABLE
  2
VIEW
  5
6
100
AcDbSymbolTable
 70
0
  0
ENDTAB
  0
TABLE
  2
UCS
  5
7
100
AcDbSymbolTable
 70
0
  0
ENDTAB
  0
TABLE
  2
APPID
  5
9
100
AcDbSymbolTable
 70
1
  0
APPID
  5
213
100
AcDbSymbolTableRecord
100
AcDbRegAppTableRecord
  2
ACAD
 70
0
  0
ENDTAB
  0
TABLE
  2
BLOCK_RECORD
  5
1
100
AcDbSymbolTable
 70
0
  0
BLOCK_RECORD
  5
214
100
AcDbSymbolTableRecord
100
AcDbBlockTableRecord
  2
*Model_Space
  0
BLOCK_RECORD
  5
215
100
AcDbSymbolTableRecord
100
AcDbBlockTableRecord
  2
*Paper_Space
  0
BLOCK_RECORD
  5
216
100
AcDbSymbolTableRecord
100
AcDbBlockTableRecord
  2
_FILLED
  0
ENDTAB
  0
TABLE
  2
DIMSTYLE
  5
A
100
AcDbSymbolTable
 70
1
100
AcDbDimStyleTable
 71
0
  0
DIMSTYLE
105
217
100
AcDbSymbolTableRecord
100
AcDbDimStyleTableRecord
  2
STANDARD
 70
0
  3

  4

 40
1.0
 41
3.0
 42
0.5
 43
0.38
 44
1.5
 45
0.0
 46
0.0
 47
0.01
 48
0.01
140
3.0
141
0.09
142
0.0
143
25.4
144
1.0
145
0.0
146
1.0
147
0.625
 71
1
 72
0
 73
0
 74
0
 75
0
 76
0
 77
1
 78
8
 79
2
170
0
171
1
172
0
173
0
174
0
175
0
176
0
177
0
178
0
270
2
179
2
271
2
272
2
273
2
274
2
275
0
280
0
281
0
282
0
283
1
284
8
285
0
286
0
287
3
288
0
340
11
278
44
341
216
342
216
343
216
344
216
  0
ENDTAB
  0
ENDSEC
  0
SECTION
  2
BLOCKS
  0
BLOCK
  5
20
100
AcDbEntity
  8
0
100
AcDbBlockBegin
  2
*Model_Space
 70
0
 10
0.0
 20
0.0
 30
0.0
  3
*Model_Space
  1

  0
ENDBLK
  5
21
100
AcDbEntity
  8
0
100
AcDbBlockEnd
  0
BLOCK
  5
1C
100
AcDbEntity
  8
0
100
AcDbBlockBegin
  2
*Paper_Space
 70
0
 10
0.0
 20
0.0
 30
0.0
  3
*Paper_Space
  1

  0
ENDBLK
  5
1D
100
AcDbEntity
  8
0
100
AcDbBlockEnd
  0
BLOCK
  5
218
100
AcDbEntity
  8
0
100
AcDbBlockBegin
  2
_FILLED
 70
64
 10
0.0
 20
0.0
  3
_FILLED
  1

  0
SOLID
  5
219
100
AcDbEntity
  8
0
  6
BYBLOCK
 62
0
100
AcDbTrace
 10
0.0
 20
0.0
 11
-1.0
 21
0.3166666667
 12
-1.0
 22
-0.3166666667
 13
-1.0
 23
-0.3166666667
  0
ENDBLK
  5
21A
100
AcDbEntity
  8
0
  6
BYBLOCK
 62
0
100
AcDbBlockEnd
  0
ENDSEC
  0
SECTION
  2
ENTITIES
  0
LWPOLYLINE
  5
21B
100
AcDbEntity
  8
0
100
AcDbPolyline
 62
250
  6
CONTINUOUS
 90
7
 70
0
 10
-83.6986561542
 20
-26.300000238
 10
-83.5915156819
 20
-27.5375194036
 10
-83.4794236233
 20
-28.7748906215
 10
-83.3623781455
 20
-30.0120949571
 10
-83.2403774831
 20
-31.249113454
 10
-83.1134199384
 20
-32.4859271342
 10
-82.9815038815
 20
-33.7225169985
  0
LWPOLYLINE
  5
21C
100
AcDbEntity
  8
0
100
AcDbPolyline
 62
250
  6
CONTINUOUS
 90
7
 70
0
 10
-84.1672898291
 20
-20.0000001372
 10
-84.1070456319
 20
-20.9170352022
 10
-84.0440980959
 20
-21.8339330112
 10
-83.9784473574
 20
-22.7506859867
 10
-83.9100935724
 20
-23.6672865505
 10
-83.8390369168
 20
-24.5837271235
 10
-83.7652775866
 20
-25.500000126
  0
LINE
  5
21D
100
AcDbEntity
  8
0
100
AcDbLine
 62
7
  6
CONTINUOUS
 10
-86.4104032874
 20
-7.3314391493
 11
-86.4133734105
 21
-7.1858824897
  0
LINE
  5
21E
100
AcDbEntity
  8
0
100
AcDbLine
 62
7
  6
CONTINUOUS
 10
-84.9108816956
 20
-7.1858822057
 11
-84.907893777
 21
-7.3314391493
  0
LINE
  5
21F
100
AcDbEntity
  8
0
100
AcDbLine
 62
7
  6
CONTINUOUS
 10
-86.398606237
 20
5.7276861852
 11
-86.4146890007
 21
6.7798779529
  0
LINE
  5
220
100
AcDbEntity
  8
0
100
AcDbLine
 62
7
  6
CONTINUOUS
 10
-84.9122447447
 20
6.7798778315
 11
-84.8962724585
 21
5.7276894256
  0
LWPOLYLINE
  5
221
100
AcDbEntity
  8
0
100
AcDbPolyline
 62
7
  6
CONTINUOUS
 90
6
 70
0
 10
-86.4133734105
 20
-7.1858824897
 10
-86.4150806339
 20
-7.0434428745
 10
-86.4154607617
 20
-6.9743439883
 10
-86.4155224747
 20
-6.9071471756
 10
-86.4152649451
 20
-6.8422091901
 10
-86.4146890007
 20
-6.7798779529
  0
LINE
  5
222
100
AcDbEntity
  8
0
100
AcDbLine
 62
7
  6
CONTINUOUS
 10
-84.8962724585
 20
5.7276894256
 11
-84.8848226071
 21
4.660071896
  0
LWPOLYLINE
  5
223
100
AcDbEntity
  8
0
100
AcDbPolyline
 62
7
  6
CONTINUOUS
 90
4
 70
0
 10
-86.4146890007
 20
6.7798779529
 10
-86.4152649451
 20
6.8422091901
 10
-86.4155224747
 20
6.9071471756
 10
-86.4154607617
 20
6.9743439883
  0
LINE
  5
224
100
AcDbEntity
  8
0
100
AcDbLine
 62
7
  6
CONTINUOUS
 10
-86.383947567
 20
4.2910845761
 11
-86.398606237
 21
5.7276861852
  0
LINE
  5
225
100
AcDbEntity
  8
0
100
AcDbLine
 62
7
  6
CONTINUOUS
 10
-84.8848226071
 20
4.660071896
 11
-84.8765762382
 21
3.5374659633
  0
LINE
  5
226
100
AcDbEntity
  8
0
100
AcDbLine
 62
7
  6
CONTINUOUS
 10
-86.3718773878
 20
1.9879019005
 11
-86.383947567
 21
4.2910845761
  0
LINE
  5
227
100
AcDbEntity
  8
0
100
AcDbLine
 62
7
  6
CONTINUOUS
 10
-84.8765762382
 20
3.5374659633
 11
-84.8697856721
 21
1.9879056227
  0
LINE
  5
228
100
AcDbEntity
  8
0
100
AcDbLine
 62
7
  6
CONTINUOUS
 10
-84.8697856721
 20
1.9879056227
 11
-84.8670329562
 21
0.3998165319
  0
LINE
  5
229
100
AcDbEntity
  8
0
100
AcDbLine
 62
7
  6
CONTINUOUS
 10
-82.2
 20
-14.8
 11
-82.2
 21
-16.6
  0
LINE
  5
22A
100
AcDbEntity
  8
0
100
AcDbLine
 62
7
  6
CONTINUOUS
 10
-82.2
 20
-17.4
 11
-82.2
 21
-19.2
  0
LINE
  5
22B
100
AcDbEntity
  8
0
100
AcDbLine
 62
7
  6
CONTINUOUS
 10
-82.2
 20
14.8
 11
-82.2
 21
16.6
  0
LINE
  5
22C
100
AcDbEntity
  8
0
100
AcDbLine
 62
7
  6
CONTINUOUS
 10
-82.2
 20
17.4
 11
-82.2
 21
19.2
  0
LWPOLYLINE
  5
22D
100
AcDbEntity
  8
0
100
AcDbPolyline
 62
7
  6
CONTINUOUS
 90
4
 70
0
 10
-84.9129941318
 20
6.9743436314
 10
-84.9130636607
 20
6.9071468722
 10
-84.912813577
 20
6.8422089658
 10
-84.9122447447
 20
6.7798778315
  0
LINE
  5
22E
100
AcDbEntity
  8
0
100
AcDbLine
 62
7
  6
CONTINUOUS
 10
-84.8670329562
 20
0.3998165319
 11
-84.8679447008
 21
-1.1972167277
  0
LINE
  5
22F
100
AcDbEntity
  8
0
100
AcDbLine
 62
7
  6
CONTINUOUS
 10
-86.3700152471
 20
-1.197214382
 11
-86.3718773878
 21
1.9879019005
  0
LINE
  5
230
100
AcDbEntity
  8
0
100
AcDbLine
 62
7
  6
CONTINUOUS
 10
-84.278066388
 20
0.35
 11
-84.2780663857
 21
-0.35
  0
LINE
  5
231
100
AcDbEntity
  8
0
100
AcDbLine
 62
7
  6
CONTINUOUS
 10
-84.8679447008
 20
-1.1972167277
 11
-84.8726392744
 21
-2.7691185858
  0
LINE
  5
232
100
AcDbEntity
  8
0
100
AcDbLine
 62
7
  6
CONTINUOUS
 10
-86.3787390189
 20
-3.5373379021
 11
-86.3700152471
 21
-1.197214382
  0
LINE
  5
233
100
AcDbEntity
  8
0
100
AcDbLine
 62
7
  6
CONTINUOUS
 10
-84.8726392744
 20
-2.7691185858
 11
-84.879000942
 21
-3.9163011402
  0
LWPOLYLINE
  5
234
100
AcDbEntity
  8
0
100
AcDbPolyline
 62
7
  6
CONTINUOUS
 90
6
 70
0
 10
-84.9122447447
 20
-6.7798778315
 10
-84.912813577
 20
-6.8422089658
 10
-84.9130636607
 20
-6.9071468722
 10
-84.9129941318
 20
-6.9743436314
 10
-84.9126058543
 20
-7.0434424958
 10
-84.9108816956
 20
-7.1858822057
  0
LINE
  5
235
100
AcDbEntity
  8
0
100
AcDbLine
 62
7
  6
CONTINUOUS
 10
-84.879000942
 20
-3.9163011402
 11
-84.8882643788
 21
-5.0227024609
  0
LINE
  5
236
100
AcDbEntity
  8
0
100
AcDbLine
 62
7
  6
CONTINUOUS
 10
-86.4154607617
 20
6.9743439883
 11
-86.4143845743
 21
7.1140805702
  0
LINE
  5
237
100
AcDbEntity
  8
0
100
AcDbLine
 62
7
  6
CONTINUOUS
 10
-84.9119014209
 20
7.114080214
 11
-84.9129941318
 21
6.9743436314
  0
LINE
  5
238
100
AcDbEntity
  8
0
100
AcDbLine
 62
7
  6
CONTINUOUS
 10
-86.3943662619
 20
-5.3790262851
 11
-86.3787390189
 21
-3.5373379021
  0
LINE
  5
239
100
AcDbEntity
  8
0
100
AcDbLine
 62
7
  6
CONTINUOUS
 10
-84.8882643788
 20
-5.0227024609
 11
-84.9008945968
 21
-6.0673259416
  0
LINE
  5
23A
100
AcDbEntity
  8
0
100
AcDbLine
 62
7
  6
CONTINUOUS
 10
-84.9008945968
 20
-6.0673259416
 11
-84.9122447447
 21
-6.7798778315
  0
LINE
  5
23B
100
AcDbEntity
  8
0
100
AcDbLine
 62
7
  6
CONTINUOUS
 10
-86.4146890007
 20
-6.7798779529
 11
-86.3943662619
 21
-5.3790262851
  0
LWPOLYLINE
  5
23C
100
AcDbEntity
  8
0
100
AcDbPolyline
 62
7
  6
CONTINUOUS
 90
3
 70
0
 10
-86.4143845743
 20
7.1140805702
 10
-86.4120463148
 20
7.2584643171
 10
-86.4104032874
 20
7.3314391493
  0
LWPOLYLINE
  5
23D
100
AcDbEntity
  8
0
100
AcDbPolyline
 62
7
  6
CONTINUOUS
 90
3
 70
0
 10
-84.907893777
 20
7.3314391493
 10
-84.9095458143
 20
7.258464152
 10
-84.9119014209
 20
7.114080214
  0
LWPOLYLINE
  5
23E
100
AcDbEntity
  8
0
100
AcDbPolyline
 62
250
  6
CONTINUOUS
 90
13
 70
0
 10
-84.4946177884
 20
14.0000000127
 10
-84.5906259857
 20
11.6672238283
 10
-84.6691721726
 20
9.3340592568
 10
-84.7302580871
 20
7.0006304517
 10
-84.7738851523
 20
4.667138677
 10
-84.8000590985
 20
2.333630798
 10
-84.8087839251
 20
-0.0000007858
 10
-84.8000590889
 20
-2.3336319962
 10
-84.7738851447
 20
-4.6671391321
 10
-84.7302580888
 20
-7.000630359
 10
-84.6691721803
 20
-9.3340589999
 10
-84.5906259944
 20
-11.6672236025
 10
-84.4946177887
 20
-14.000000013
  0
LWPOLYLINE
  5
23F
100
AcDbEntity
  8
0
100
AcDbPolyline
 62
250
  6
CONTINUOUS
 90
7
 70
0
 10
-83.765277587
 20
25.500000127
 10
-83.8390368921
 20
24.5837274369
 10
-83.9100935341
 20
23.6672870513
 10
-83.978447316
 20
22.75068655
 10
-84.0440980606
 20
21.8339335118
 10
-84.1070456107
 20
20.9170355151
 10
-84.167289829
 20
20.0000001371
  0
LWPOLYLINE
  5
240
100
AcDbEntity
  8
26216763_GEN
100
AcDbPolyline
 62
250
  6
CONTINUOUS
 90
7
 70
0
 10
-79.012576903
 20
33.6573932734
 10
-79.1947329428
 20
31.9152701513
 10
-79.3671581702
 20
30.1727774453
 10
-79.5298525852
 20
28.4299596518
 10
-79.6828161877
 20
26.6868612201
 10
-79.8260489778
 20
24.943526552
 10
-79.9595509556
 20
23.2
  0
LWPOLYLINE
  5
241
100
AcDbEntity
  8
0
100
AcDbPolyline
 62
250
  6
CONTINUOUS
 90
7
 70
0
 10
-82.9815038815
 20
33.7225169985
 10
-83.1134202478
 20
32.4859241875
 10
-83.2403779584
 20
31.2491087374
 10
-83.3623786581
 20
30.012089649
 10
-83.4794240594
 20
28.7748859017
 10
-83.5915159424
 20
27.5375164531
 10
-83.6986561546
 20
26.300000239
  0
LWPOLYLINE
  5
242
100
AcDbEntity
  8
26216763_GEN
100
AcDbPolyline
 62
7
  6
CONTINUOUS
 90
3
 70
0
 10
-83.0207962027
 20
23.2
 10
-83.0358886307
 20
23.0832691587
 10
-83.1096853699
 20
22.5
  0
LWPOLYLINE
  5
243
100
AcDbEntity
  8
0
100
AcDbPolyline
 62
250
  6
CONTINUOUS
 90
31
 70
0
 10
-82.9815038461
 20
33.7225169937
 10
-82.9639075216
 20
33.739961541
 10
-82.9363324503
 20
33.7562219725
 10
-82.8988482709
 20
33.771257224
 10
-82.8515496467
 20
33.7850293252
 10
-82.7945560265
 20
33.7975034959
 10
-82.7280113426
 20
33.8086482335
 10
-82.6520836478
 20
33.818435393
 10
-82.5669646911
 20
33.8268402578
 10
-82.4728694333
 20
33.8338416021
 10
-82.3700355039
 20
33.8394217446
 10
-82.2587226012
 20
33.8435665932
 10
-82.1392118365
 20
33.8462656803
 10
-82.0118050239
 20
33.8475121898
 10
-81.8768239185
 20
33.8473029736
 10
-81.7346094035
 20
33.8456385602
 10
-81.5855206295
 20
33.8425231528
 10
-81.4299341075
 20
33.8379646192
 10
-81.2682427579
 20
33.8319744715
 10
-81.1008549184
 20
33.8245678374
 10
-80.9281933125
 20
33.8157634218
 10
-80.7506939825
 20
33.8055834593
 10
-80.5688051876
 20
33.7940536587
 10
-80.3829862724
 20
33.7812031375
 10
-80.1937065066
 20
33.7670643485
 10
-80.0014438971
 20
33.7516729979
 10
-79.8066839894
 20
33.7350679554
 10
-79.6099186418
 20
33.7172911564
 10
-79.4116447716
 20
33.6983874952
 10
-79.2123630994
 20
33.6784047112
 10
-79.0125768938
 20
33.6573932694
  0
LWPOLYLINE
  5
244
100
AcDbEntity
  8
0
100
AcDbPolyline
 62
250
  6
CONTINUOUS
 90
31
 70
0
 10
-82.9815030523
 20
-33.7225169027
 10
-82.9639067355
 20
-33.7399614493
 10
-82.9363316755
 20
-33.7562218805
 10
-82.8988475106
 20
-33.771257132
 10
-82.8515489035
 20
-33.7850292335
 10
-82.7945553027
 20
-33.7975034049
 10
-82.7280106407
 20
-33.8086481435
 10
-82.6520829703
 20
-33.8184353045
 10
-82.5669640403
 20
-33.8268401712
 10
-82.472868811
 20
-33.8338415177
 10
-82.3700349118
 20
-33.8394216629
 10
-82.2587220407
 20
-33.8435665144
 10
-82.1392113089
 20
-33.8462656048
 10
-82.0118045302
 20
-33.8475121179
 10
-81.8768234594
 20
-33.8473029055
 10
-81.7346089795
 20
-33.8456384962
 10
-81.5855202409
 20
-33.8425230931
 10
-81.4299337543
 20
-33.8379645639
 10
-81.2682424398
 20
-33.8319744209
 10
-81.100854635
 20
-33.8245677916
 10
-80.9281930631
 20
-33.8157633807
 10
-80.7506937661
 20
-33.8055834231
 10
-80.568805003
 20
-33.7940536274
 10
-80.3829861184
 20
-33.781203111
 10
-80.1937063816
 20
-33.7670643268
 10
-80.0014438048
 20
-33.7516729813
 10
-79.8066839282
 20
-33.7350679438
 10
-79.6099185931
 20
-33.7172911482
 10
-79.4116447107
 20
-33.6983874878
 10
-79.212363007
 20
-33.6784047024
 10
-79.0125767508
 20
-33.6573932566
  0
LWPOLYLINE
  5
245
100
AcDbEntity
  8
0
100
AcDbPolyline
 62
250
  6
CONTINUOUS
 90
34
 70
0
 10
-82.9815038815
 20
-33.7225169985
 10
-82.9439039227
 20
-34.0025836004
 10
-82.8939605394
 20
-34.2807208208
 10
-82.8317715846
 20
-34.5563848967
 10
-82.7574607479
 20
-34.8290343566
 10
-82.6711718517
 20
-35.0981391136
 10
-82.5730674197
 20
-35.363180645
 10
-82.4633359031
 20
-35.6236459823
 10
-82.3421931078
 20
-35.8790194514
 10
-82.2098770028
 20
-36.12879128
 10
-82.0666494091
 20
-36.3724687328
 10
-81.9127888595
 20
-36.6095796325
 10
-81.7485913792
 20
-36.8396625008
 10
-81.5743771404
 20
-37.0622682408
 10
-81.3904882194
 20
-37.2769596278
 10
-81.1972828609
 20
-37.4833140847
 10
-80.9951389248
 20
-37.6809280538
 10
-80.7844530224
 20
-37.8694141871
 10
-80.5656385635
 20
-38.0483998068
 10
-80.3391264741
 20
-38.2175334264
 10
-80.1053593009
 20
-38.3764859624
 10
-79.8647908951
 20
-38.5249468868
 10
-79.6178936368
 20
-38.662625129
 10
-79.3651508396
 20
-38.7892520259
 10
-79.1070510765
 20
-38.9045809745
 10
-78.8440950955
 20
-39.0083874736
 10
-78.5768030986
 20
-39.1004658745
 10
-78.3057074963
 20
-39.1806320223
 10
-78.0313487549
 20
-39.2487279186
 10
-77.754256481
 20
-39.3046243658
 10
-77.4749564793
 20
-39.3482148268
 10
-77.1939902483
 20
-39.3794134064
 10
-76.9119142932
 20
-39.3981575805
 10
-76.6292815281
 20
-39.4044100956
  0
LWPOLYLINE
  5
246
100
AcDbEntity
  8
0
100
AcDbPolyline
 62
250
  6
CONTINUOUS
 90
31
 70
0
 10
-79.012576903
 20
-33.6573932734
 10
-78.9970834247
 20
-33.7747364766
 10
-78.9760908161
 20
-33.8906849141
 10
-78.9495990771
 20
-34.005238709
 10
-78.9175216297
 20
-34.1186722948
 10
-78.879945052
 20
-34.2307114646
 10
-78.8371290782
 20
-34.3405334581
 10
-78.7890357565
 20
-34.4481171624
 10
-78.7357030387
 20
-34.5534840826
 10
-78.6775045148
 20
-34.6558755282
 10
-78.6144044219
 20
-34.7552698935
 10
-78.5464385229
 20
-34.8516892869
 10
-78.4740876967
 20
-34.9444407068
 10
-78.3973212968
 20
-35.0334969681
 10
-78.3161699697
 20
-35.1188858258
 10
-78.2312065348
 20
-35.1999967764
 10
-78.1424037042
 20
-35.2767998217
 10
-78.0497887657
 20
-35.3493255462
 10
-77.9540164019
 20
-35.4170543775
 10
-77.8550619085
 20
-35.4799534064
 10
-77.7529499898
 20
-35.5380560924
 10
-77.6484094411
 20
-35.5909424415
 10
-77.5414206268
 20
-35.6385747373
 10
-77.4320031826
 20
-35.6809911608
 10
-77.3209448104
 20
-35.7178855624
 10
-77.2082276692
 20
-35.7492170398
 10
-77.0938696001
 20
-35.7750268311
 10
-76.9787118289
 20
-35.795131973
 10
-76.8630347641
 20
-35.8094715379
 10
-76.7465579972
 20
-35.8181066293
 10
-76.6292815281
 20
-35.8210372914
  0
LWPOLYLINE
  5
247
100
AcDbEntity
  8
26216763_GEN
100
AcDbPolyline
 62
7
  6
CONTINUOUS
 90
3
 70
0
 10
-83.1096853605
 20
-22.5
 10
-83.0951482405
 20
-22.6166011217
 10
-83.0207961969
 20
-23.2
  0
LWPOLYLINE
  5
248
100
AcDbEntity
  8
26216763_GEN
100
AcDbPolyline
 62
250
  6
CONTINUOUS
 90
7
 70
0
 10
-79.959550952
 20
-23.2000000002
 10
-79.8260484025
 20
-24.9435329096
 10
-79.6828152696
 20
-26.6868713884
 10
-79.5298515531
 20
-28.4299710865
 10
-79.3671572532
 20
-30.1727876052
 10
-79.1947323698
 20
-31.9152764983
 10
-79.012576903
 20
-33.6573932734
  0
LWPOLYLINE
  5
249
100
AcDbEntity
  8
0
100
AcDbPolyline
 62
250
  6
CONTINUOUS
 90
10
 70
0
 10
-80.8140687318
 20
-0.3500000028
 10
-80.8017327306
 20
-2.812005904
 10
-80.7701567214
 20
-5.2741372008
 10
-80.7193407042
 20
-7.736270918
 10
-80.649284215
 20
-10.1983667372
 10
-80.5599877177
 20
-12.6602187948
 10
-80.4514526048
 20
-15.1214558808
 10
-80.3236793403
 20
-17.5818723724
 10
-80.1766674601
 20
-20.0414280488
 10
-80.0104169642
 20
-22.5000000242
  0
LINE
  5
24A
100
AcDbEntity
  8
0
100
AcDbLine
 62
250
  6
CONTINUOUS
 10
-81.8
 20
-26.3
 11
-81.8
 21
-25.5
  0
LINE
  5
24B
100
AcDbEntity
  8
0
100
AcDbLine
 62
250
  6
CONTINUOUS
 10
-81.8
 20
25.5
 11
-81.8
 21
26.3
  0
LINE
  5
24C
100
AcDbEntity
  8
0
100
AcDbLine
 62
7
  6
CONTINUOUS
 10
-81.6
 20
20.0
 11
-81.6
 21
19.2
  0
LINE
  5
24D
100
AcDbEntity
  8
0
100
AcDbLine
 62
7
  6
CONTINUOUS
 10
-81.6
 20
17.4
 11
-81.6
 21
16.6
  0
LINE
  5
24E
100
AcDbEntity
  8
0
100
AcDbLine
 62
7
  6
CONTINUOUS
 10
-81.6
 20
14.8
 11
-81.6
 21
14.0
  0
LINE
  5
24F
100
AcDbEntity
  8
0
100
AcDbLine
 62
7
  6
CONTINUOUS
 10
-81.6
 20
-14.0
 11
-81.6
 21
-14.8
  0
LINE
  5
250
100
AcDbEntity
  8
0
100
AcDbLine
 62
7
  6
CONTINUOUS
 10
-81.6
 20
-16.6
 11
-81.6
 21
-17.4
  0
LINE
  5
251
100
AcDbEntity
  8
0
100
AcDbLine
 62
7
  6
CONTINUOUS
 10
-81.6
 20
-19.2
 11
-81.6
 21
-20.0
  0
LINE
  5
252
100
AcDbEntity
  8
0
100
AcDbLine
 62
7
  6
CONTINUOUS
 10
-80.8
 20
-20.0
 11
-80.8
 21
-19.2
  0
LINE
  5
253
100
AcDbEntity
  8
0
100
AcDbLine
 62
7
  6
CONTINUOUS
 10
-80.8
 20
-17.4
 11
-80.8
 21
-16.6
  0
LINE
  5
254
100
AcDbEntity
  8
0
100
AcDbLine
 62
7
  6
CONTINUOUS
 10
-80.8
 20
-14.8
 11
-80.8
 21
-14.0
  0
LINE
  5
255
100
AcDbEntity
  8
0
100
AcDbLine
 62
7
  6
CONTINUOUS
 10
-80.8
 20
14.0
 11
-80.8
 21
14.8
  0
LINE
  5
256
100
AcDbEntity
  8
0
100
AcDbLine
 62
7
  6
CONTINUOUS
 10
-80.8
 20
16.6
 11
-80.8
 21
17.4
  0
LINE
  5
257
100
AcDbEntity
  8
0
100
AcDbLine
 62
7
  6
CONTINUOUS
 10
-80.8
 20
19.2
 11
-80.8
 21
20.0
  0
LINE
  5
258
100
AcDbEntity
  8
0
100
AcDbLine
 62
250
  6
CONTINUOUS
 10
-76.6292815281
 20
39.497941481
 11
-76.6292815281
 21
35.8210372914
  0
LINE
  5
259
100
AcDbEntity
  8
0
100
AcDbLine
 62
250
  6
CONTINUOUS
 10
-76.6292815281
 20
-39.497941481
 11
-76.6292815281
 21
-35.8210372914
  0
LWPOLYLINE
  5
25A
100
AcDbEntity
  8
0
100
AcDbPolyline
 62
250
  6
CONTINUOUS
 90
10
 70
0
 10
-80.0104169692
 20
22.5000000238
 10
-80.1766671874
 20
20.0414333554
 10
-80.3236788875
 20
17.5818813834
 10
-80.4514520694
 20
15.1214669915
 10
-80.5599872349
 20
12.6602300259
 10
-80.6492838822
 20
10.1983764804
 10
-80.7193405063
 20
7.7362786822
 10
-80.7701566052
 20
5.2741428676
 10
-80.8017326809
 20
2.8120089827
 10
-80.8140687331
 20
0.3500000028
  0
LINE
  5
25B
100
AcDbEntity
  8
0
100
AcDbLine
 62
7
  6
CONTINUOUS
 10
-73.666887
 20
8.811955
 11
-73.666887
 21
8.339734
  0
LINE
  5
25C
100
AcDbEntity
  8
0
100
AcDbLine
 62
7
  6
CONTINUOUS
 10
-73.651466
 20
12.641663
 11
-73.651466
 21
12.166846
  0
LINE
  5
25D
100
AcDbEntity
  8
0
100
AcDbLine
 62
7
  6
CONTINUOUS
 10
-73.248398
 20
12.166846
 11
-73.248398
 21
10.962838
  0
LINE
  5
25E
100
AcDbEntity
  8
0
100
AcDbLine
 62
7
  6
CONTINUOUS
 10
-73.248398
 20
10.377635
 11
-73.248398
 21
8.811955
  0
LINE
  5
25F
100
AcDbEntity
  8
0
100
AcDbLine
 62
7
  6
CONTINUOUS
 10
-72.745335
 20
12.166846
 11
-72.745335
 21
10.962838
  0
LINE
  5
260
100
AcDbEntity
  8
0
100
AcDbLine
 62
7
  6
CONTINUOUS
 10
-72.745335
 20
10.382916
 11
-72.745335
 21
8.811955
  0
LINE
  5
261
100
AcDbEntity
  8
0
100
AcDbLine
 62
7
  6
CONTINUOUS
 10
-72.34243
 20
12.641663
 11
-72.34243
 21
12.166846
  0
LINE
  5
262
100
AcDbEntity
  8
0
100
AcDbLine
 62
7
  6
CONTINUOUS
 10
-72.327009
 20
8.811955
 11
-72.327009
 21
8.339734
  0
LINE
  5
263
100
AcDbEntity
  8
0
100
AcDbLine
 62
250
  6
CONTINUOUS
 10
-64.2
 20
22.5
 11
-64.2
 21
0.35
  0
LINE
  5
264
100
AcDbEntity
  8
0
100
AcDbLine
 62
250
  6
CONTINUOUS
 10
-64.2
 20
-0.35
 11
-64.2
 21
-22.5
  0
LINE
  5
265
100
AcDbEntity
  8
0
100
AcDbLine
 62
7
  6
CONTINUOUS
 10
-63.7
 20
-38.05
 11
-63.7
 21
-39.497941481
  0
LINE
  5
266
100
AcDbEntity
  8
0
100
AcDbLine
 62
7
  6
CONTINUOUS
 10
-63.7
 20
-37.7
 11
-63.7
 21
37.7
  0
LINE
  5
267
100
AcDbEntity
  8
0
100
AcDbLine
 62
7
  6
CONTINUOUS
 10
-63.7
 20
38.05
 11
-63.7
 21
39.497941481
  0
LINE
  5
268
100
AcDbEntity
  8
0
100
AcDbLine
 62
7
  6
CONTINUOUS
 10
-63.0
 20
-39.497941481
 11
-63.0
 21
-38.05
  0
LINE
  5
269
100
AcDbEntity
  8
0
100
AcDbLine
 62
7
  6
CONTINUOUS
 10
-63.0
 20
-37.7
 11
-63.0
 21
-23.1
  0
LINE
  5
26A
100
AcDbEntity
  8
0
100
AcDbLine
 62
7
  6
CONTINUOUS
 10
-63.0
 20
23.1
 11
-63.0
 21
37.7
  0
LINE
  5
26B
100
AcDbEntity
  8
0
100
AcDbLine
 62
7
  6
CONTINUOUS
 10
-63.0
 20
38.05
 11
-63.0
 21
39.497941481
  0
LINE
  5
26C
100
AcDbEntity
  8
0
100
AcDbLine
 62
7
  6
CONTINUOUS
 10
-73.8759297729
 20
8.9393754046
 11
-74.0932989273
 21
8.5520941296
  0
LINE
  5
26D
100
AcDbEntity
  8
0
100
AcDbLine
 62
7
  6
CONTINUOUS
 10
-62.5
 20
-22.3156790928
 11
-62.5
 21
22.3156790928
  0
LINE
  5
26E
100
AcDbEntity
  8
0
100
AcDbLine
 62
7
  6
CONTINUOUS
 10
-53.32398
 20
34.498117481
 11
-54.141967
 21
31.950352481
  0
LINE
  5
26F
100
AcDbEntity
  8
0
100
AcDbLine
 62
7
  6
CONTINUOUS
 10
-52.583943
 20
34.498117481
 11
-53.771948
 21
30.797950481
  0
LINE
  5
270
100
AcDbEntity
  8
0
100
AcDbLine
 62
7
  6
CONTINUOUS
 10
-71.043459
 20
7.189783
 11
-71.289877
 21
6.840447
  0
LINE
  5
271
100
AcDbEntity
  8
0
100
AcDbLine
 62
7
  6
CONTINUOUS
 10
-72.12407
 20
8.939375
 11
-71.906701
 21
8.552094
  0
LINE
  5
272
100
AcDbEntity
  8
0
100
AcDbLine
 62
7
  6
CONTINUOUS
 10
-52.090594
 20
34.498117481
 11
-52.090604
 21
30.797941481
  0
LINE
  5
273
100
AcDbEntity
  8
0
100
AcDbLine
 62
7
  6
CONTINUOUS
 10
-51.350567
 20
34.498117481
 11
-51.350576
 21
30.797950481
  0
LINE
  5
274
100
AcDbEntity
  8
0
100
AcDbLine
 62
7
  6
CONTINUOUS
 10
-50.610567
 20
34.498117481
 11
-50.610567
 21
30.797950481
  0
LINE
  5
275
100
AcDbEntity
  8
0
100
AcDbLine
 62
7
  6
CONTINUOUS
 10
-48.109912
 20
34.498117481
 11
-48.800878
 21
32.088436481
  0
LINE
  5
276
100
AcDbEntity
  8
0
100
AcDbLine
 62
7
  6
CONTINUOUS
 10
-47.731227
 20
33.237962481
 11
-48.430878
 21
30.797960481
  0
LINE
  5
277
100
AcDbEntity
  8
0
100
AcDbLine
 62
7
  6
CONTINUOUS
 10
-45.309854
 20
34.498126481
 11
-46.497841
 21
30.797950481
  0
LINE
  5
278
100
AcDbEntity
  8
0
100
AcDbLine
 62
7
  6
CONTINUOUS
 10
-45.524186
 20
31.525620481
 11
-45.757813
 21
30.797960481
  0
LINE
  5
279
100
AcDbEntity
  8
0
100
AcDbLine
 62
7
  6
CONTINUOUS
 10
-44.939826
 20
33.345715481
 11
-45.298458
 21
32.228648481
  0
LINE
  5
27A
100
AcDbEntity
  8
0
100
AcDbLine
 62
7
  6
CONTINUOUS
 10
-71.4203830067
 20
12.0793829943
 11
-72.745335
 21
10.962838
  0
LINE
  5
27B
100
AcDbEntity
  8
0
100
AcDbLine
 62
7
  6
CONTINUOUS
 10
-71.4818586416
 20
11.447655302
 11
-72.745335
 21
10.382916
  0
LINE
  5
27C
100
AcDbEntity
  8
0
100
AcDbLine
 62
7
  6
CONTINUOUS
 10
-49.870539
 20
33.237962481
 11
-49.870539
 21
30.797950481
  0
LINE
  5
27D
100
AcDbEntity
  8
0
100
AcDbLine
 62
7
  6
CONTINUOUS
 10
-47.731227
 20
33.237962481
 11
-47.731217
 21
30.797950481
  0
LINE
  5
27E
100
AcDbEntity
  8
0
100
AcDbLine
 62
7
  6
CONTINUOUS
 10
-46.99119
 20
34.498117481
 11
-46.99119
 21
30.797950481
  0
LINE
  5
27F
100
AcDbEntity
  8
0
100
AcDbLine
 62
7
  6
CONTINUOUS
 10
-42.888435
 20
34.498126481
 11
-42.888435
 21
30.797960481
  0
LINE
  5
280
100
AcDbEntity
  8
0
100
AcDbLine
 62
7
  6
CONTINUOUS
 10
-42.15861
 20
33.813598481
 11
-42.158601
 21
32.913185481
  0
LINE
  5
281
100
AcDbEntity
  8
0
100
AcDbLine
 62
7
  6
CONTINUOUS
 10
-42.148315
 20
32.228657481
 11
-42.148398
 21
30.797960481
  0
LINE
  5
282
100
AcDbEntity
  8
0
100
AcDbLine
 62
7
  6
CONTINUOUS
 10
-26.094826
 20
31.201015
 11
-26.092426904
 21
31.2051077436
  0
LINE
  5
283
100
AcDbEntity
  8
0
100
AcDbLine
 62
7
  6
CONTINUOUS
 10
-26.092426904
 20
31.2051077436
 11
-26.08999251
 21
31.2091961239
  0
LINE
  5
284
100
AcDbEntity
  8
0
100
AcDbLine
 62
7
  6
CONTINUOUS
 10
-26.08999251
 20
31.2091961239
 11
-26.0875228179
 21
31.2132801407
  0
LWPOLYLINE
  5
285
100
AcDbEntity
  8
0
100
AcDbPolyline
 62
7
  6
CONTINUOUS
 90
3
 70
0
 10
-26.0875228179
 20
31.2132801407
 10
-26.0744930914
 20
31.2337847774
 10
-26.0608531118
 20
31.2538036783
  0
LWPOLYLINE
  5
286
100
AcDbEntity
  8
0
100
AcDbPolyline
 62
7
  6
CONTINUOUS
 90
29
 70
0
 10
-26.0608531118
 20
31.2538036783
 10
-26.0466028793
 20
31.2733368511
 10
-26.0317274668
 20
31.29241028
 10
-26.0162418013
 20
31.310997995
 10
-26.0001906636
 20
31.3290220729
 10
-25.983728953
 20
31.3466758325
 10
-25.9667017701
 20
31.3637659688
 10
-25.9486891984
 20
31.3796346339
 10
-25.9294514474
 20
31.394046195
 10
-25.9092283075
 20
31.4072363155
 10
-25.8883192334
 20
31.419254098
 10
-25.8666836785
 20
31.4299936967
 10
-25.8443621894
 20
31.4395609789
 10
-25.8217758606
 20
31.4483226123
 10
-25.7990454146
 20
31.4564436598
 10
-25.7760501289
 20
31.4637590685
 10
-25.7528489303
 20
31.4701403289
 10
-25.7294029894
 20
31.4754807457
 10
-25.7057511357
 20
31.4798870233
 10
-25.6820687846
 20
31.4835507504
 10
-25.6584013993
 20
31.4863703349
 10
-25.6347035166
 20
31.488447373
 10
-25.6110141631
 20
31.4902782342
 10
-25.5873524665
 20
31.4918650205
 10
-25.5636992989
 20
31.4932056306
 10
-25.5400363042
 20
31.4947901276
 10
-25.5163573634
 20
31.4967818657
 10
-25.4926685953
 20
31.49901749
 10
-25.46897
 20
31.501497
  0
LINE
  5
287
100
AcDbEntity
  8
0
100
AcDbLine
 62
7
  6
CONTINUOUS
 10
-23.352857
 20
32.934479
 11
-24.374484
 21
32.440027
  0
LINE
  5
288
100
AcDbEntity
  8
0
100
AcDbLine
 62
7
  6
CONTINUOUS
 10
-26.168232
 20
32.961997
 11
-27.219792
 21
32.472793
  0
LINE
  5
289
100
AcDbEntity
  8
0
100
AcDbLine
 62
7
  6
CONTINUOUS
 10
-26.396324
 20
32.065123
 11
-27.439756
 21
31.592175
  0
LINE
  5
28A
100
AcDbEntity
  8
0
100
AcDbLine
 62
7
  6
CONTINUOUS
 10
-26.547956
 20
31.450582
 11
-27.611206
 21
30.988925
  0
LWPOLYLINE
  5
28B
100
AcDbEntity
  8
0
100
AcDbPolyline
 62
250
  6
CONTINUOUS
 90
31
 70
0
 10
76.6292815281
 20
-35.8210372914
 10
76.7465641615
 20
-35.8181059419
 10
76.8630454817
 20
-35.809470178
 10
76.9787254886
 20
-35.7951299556
 10
77.0938840253
 20
-35.775024187
 10
77.2082412488
 20
-35.7492137838
 10
77.3209576297
 20
-35.7178816615
 10
77.4320159349
 20
-35.680986556
 10
77.5414333975
 20
-35.6385693954
 10
77.6484221882
 20
-35.5909363589
 10
77.7529626303
 20
-35.5380492698
 10
77.8550744005
 20
-35.4799458401
 10
77.9540286997
 20
-35.4170460804
 10
78.0498008482
 20
-35.349316504
 10
78.1424155258
 20
-35.2767900473
 10
78.2312179728
 20
-35.1999863813
 10
78.3161808396
 20
-35.118874978
 10
78.3973314758
 20
-35.0334857791
 10
78.4740971697
 20
-34.9444292169
 10
78.5464473072
 20
-34.8516775102
 10
78.6144125024
 20
-34.7552578703
 10
78.6775118869
 20
-34.6558633065
 10
78.7357096864
 20
-34.5534717522
 10
78.7890416752
 20
-34.4481047714
 10
78.8371343069
 20
-34.3405209365
 10
78.8799497181
 20
-34.2306981473
 10
78.9175257722
 20
-34.1186581118
 10
78.9496025134
 20
-34.0052252579
 10
78.9760932896
 20
-33.8906743487
 10
78.9970847528
 20
-33.7747303948
 10
79.012576903
 20
-33.6573932734
  0
LWPOLYLINE
  5
28C
100
AcDbEntity
  8
0
100
AcDbPolyline
 62
250
  6
CONTINUOUS
 90
34
 70
0
 10
76.6292815281
 20
-39.4044100956
 10
76.9119145635
 20
-39.3981575679
 10
77.1939906708
 20
-39.3794133682
 10
77.4749569363
 20
-39.3482147654
 10
77.7542567964
 20
-39.30462431
 10
78.0313488165
 20
-39.2487279067
 10
78.3057073724
 20
-39.1806320589
 10
78.5768029315
 20
-39.1004659311
 10
78.8440949484
 20
-39.008387531
 10
79.1070509604
 20
-38.9045810266
 10
79.365150758
 20
-38.7892520683
 10
79.6178935994
 20
-38.6626251536
 10
79.8647908826
 20
-38.5249468997
 10
80.1053592776
 20
-38.3764859837
 10
80.3391264243
 20
-38.2175334686
 10
80.5656384974
 20
-38.0483998656
 10
80.7844529547
 20
-37.8694142526
 10
80.9951388637
 20
-37.680928119
 10
81.1972828203
 20
-37.4833141347
 10
81.39048822
 20
-37.2769596359
 10
81.5743771911
 20
-37.062268188
 10
81.7485914681
 20
-36.839662391
 10
81.9127889706
 20
-36.6095794777
 10
82.0666495328
 20
-36.3724685397
 10
82.2098771287
 20
-36.1287910606
 10
82.3421932175
 20
-35.8790192396
 10
82.4633359915
 20
-35.6236457931
 10
82.5730675059
 20
-35.3631804346
 10
82.6711719724
 20
-35.0981387636
 10
82.7574609037
 20
-34.8290338174
 10
82.8317717325
 20
-34.5563842778
 10
82.8939606411
 20
-34.2807202901
 10
82.9439039699
 20
-34.0025832756
 10
82.9815038815
 20
-33.7225169985
  0
LINE
  5
28D
100
AcDbEntity
  8
0
100
AcDbLine
 62
7
  6
CONTINUOUS
 10
76.6292815281
 20
-41.0
 11
-76.6292815281
 21
-41.0
  0
LINE
  5
28E
100
AcDbEntity
  8
0
100
AcDbLine
 62
7
  6
CONTINUOUS
 10
76.6292815281
 20
-39.497941481
 11
63.7
 21
-39.497941481
  0
LINE
  5
28F
100
AcDbEntity
  8
ASSI
100
AcDbLine
 62
7
  6
CONTINUOUS
 10
63.0
 20
-39.497941481
 11
32.15
 21
-39.497941481
  0
LINE
  5
290
100
AcDbEntity
  8
ASSI
100
AcDbLine
 62
7
  6
CONTINUOUS
 10
31.65
 20
-39.497941481
 11
0.25
 21
-39.497941481
  0
LINE
  5
291
100
AcDbEntity
  8
ASSI
100
AcDbLine
 62
7
  6
CONTINUOUS
 10
-0.25
 20
-39.497941481
 11
-31.65
 21
-39.497941481
  0
LINE
  5
292
100
AcDbEntity
  8
ASSI
100
AcDbLine
 62
7
  6
CONTINUOUS
 10
-32.15
 20
-39.497941481
 11
-63.0
 21
-39.497941481
  0
LINE
  5
293
100
AcDbEntity
  8
0
100
AcDbLine
 62
7
  6
CONTINUOUS
 10
-63.7
 20
-39.497941481
 11
-76.6292815281
 21
-39.497941481
  0
LINE
  5
294
100
AcDbEntity
  8
0
100
AcDbLine
 62
250
  6
CONTINUOUS
 10
-76.6292815281
 20
-39.4044100956
 11
-63.7
 21
-39.4044100956
  0
LINE
  5
295
100
AcDbEntity
  8
ASSI
100
AcDbLine
 62
250
  6
CONTINUOUS
 10
-63.0
 20
-39.4044100956
 11
-32.15
 21
-39.4044100956
  0
LINE
  5
296
100
AcDbEntity
  8
ASSI
100
AcDbLine
 62
250
  6
CONTINUOUS
 10
-31.65
 20
-39.4044100956
 11
-0.25
 21
-39.4044100956
  0
LINE
  5
297
100
AcDbEntity
  8
ASSI
100
AcDbLine
 62
250
  6
CONTINUOUS
 10
0.25
 20
-39.4044100956
 11
31.65
 21
-39.4044100956
  0
LINE
  5
298
100
AcDbEntity
  8
ASSI
100
AcDbLine
 62
250
  6
CONTINUOUS
 10
32.15
 20
-39.4044100956
 11
63.0
 21
-39.4044100956
  0
LINE
  5
299
100
AcDbEntity
  8
0
100
AcDbLine
 62
250
  6
CONTINUOUS
 10
63.7
 20
-39.4044100956
 11
76.6292815281
 21
-39.4044100956
  0
LINE
  5
29A
100
AcDbEntity
  8
0
100
AcDbLine
 62
250
  6
CONTINUOUS
 10
63.7
 20
-38.5
 11
63.0
 21
-38.5
  0
LINE
  5
29B
100
AcDbEntity
  8
0
100
AcDbLine
 62
250
  6
CONTINUOUS
 10
32.15
 20
-38.5
 11
31.65
 21
-38.5
  0
LINE
  5
29C
100
AcDbEntity
  8
0
100
AcDbLine
 62
250
  6
CONTINUOUS
 10
0.25
 20
-38.5
 11
-0.25
 21
-38.5
  0
LINE
  5
29D
100
AcDbEntity
  8
0
100
AcDbLine
 62
250
  6
CONTINUOUS
 10
-31.65
 20
-38.5
 11
-32.15
 21
-38.5
  0
LINE
  5
29E
100
AcDbEntity
  8
0
100
AcDbLine
 62
250
  6
CONTINUOUS
 10
-63.0
 20
-38.5
 11
-63.7
 21
-38.5
  0
LINE
  5
29F
100
AcDbEntity
  8
0
100
AcDbLine
 62
7
  6
CONTINUOUS
 10
-63.7
 20
-37.7
 11
-63.0
 21
-37.7
  0
LINE
  5
2A0
100
AcDbEntity
  8
0
100
AcDbLine
 62
7
  6
CONTINUOUS
 10
-32.15
 20
-37.7
 11
-31.65
 21
-37.7
  0
LINE
  5
2A1
100
AcDbEntity
  8
0
100
AcDbLine
 62
7
  6
CONTINUOUS
 10
-0.25
 20
-37.7
 11
0.25
 21
-37.7
  0
LINE
  5
2A2
100
AcDbEntity
  8
0
100
AcDbLine
 62
7
  6
CONTINUOUS
 10
31.65
 20
-37.7
 11
32.15
 21
-37.7
  0
LINE
  5
2A3
100
AcDbEntity
  8
0
100
AcDbLine
 62
7
  6
CONTINUOUS
 10
63.0
 20
-37.7
 11
63.7
 21
-37.7
  0
LINE
  5
2A4
100
AcDbEntity
  8
0
100
AcDbLine
 62
7
  6
CONTINUOUS
 10
-74.518141
 20
11.447655
 11
-73.248398
 21
10.377635
  0
LINE
  5
2A5
100
AcDbEntity
  8
0
100
AcDbLine
 62
7
  6
CONTINUOUS
 10
-74.576748
 20
12.082247
 11
-73.248398
 21
10.962838
  0
LINE
  5
2A6
100
AcDbEntity
  8
0
100
AcDbLine
 62
7
  6
CONTINUOUS
 10
-55.7
 20
34.498117481
 11
-54.512004
 21
30.797941481
  0
LINE
  5
2A7
100
AcDbEntity
  8
0
100
AcDbLine
 62
7
  6
CONTINUOUS
 10
-54.959963
 20
34.498117481
 11
-54.141967
 21
31.950352481
  0
LINE
  5
2A8
100
AcDbEntity
  8
0
100
AcDbLine
 62
7
  6
CONTINUOUS
 10
-49.870539
 20
33.237962481
 11
-49.170887
 21
30.797950481
  0
LINE
  5
2A9
100
AcDbEntity
  8
0
100
AcDbLine
 62
7
  6
CONTINUOUS
 10
-49.491844
 20
34.498117481
 11
-48.800878
 21
32.088436481
  0
LINE
  5
2AA
100
AcDbEntity
  8
0
100
AcDbLine
 62
7
  6
CONTINUOUS
 10
-32.15
 20
-23.1
 11
-32.15
 21
-37.7
  0
LINE
  5
2AB
100
AcDbEntity
  8
0
100
AcDbLine
 62
7
  6
CONTINUOUS
 10
-32.15
 20
-37.95
 11
-32.15
 21
-39.497941481
  0
LINE
  5
2AC
100
AcDbEntity
  8
0
100
AcDbLine
 62
7
  6
CONTINUOUS
 10
-32.15
 20
23.1
 11
-32.15
 21
37.7
  0
LINE
  5
2AD
100
AcDbEntity
  8
0
100
AcDbLine
 62
7
  6
CONTINUOUS
 10
-32.15
 20
37.95
 11
-32.15
 21
39.497941481
  0
LINE
  5
2AE
100
AcDbEntity
  8
0
100
AcDbLine
 62
7
  6
CONTINUOUS
 10
-31.65
 20
-39.497941481
 11
-31.65
 21
-37.95
  0
LINE
  5
2AF
100
AcDbEntity
  8
0
100
AcDbLine
 62
7
  6
CONTINUOUS
 10
-31.65
 20
-23.1
 11
-31.65
 21
-37.7
  0
LINE
  5
2B0
100
AcDbEntity
  8
0
100
AcDbLine
 62
7
  6
CONTINUOUS
 10
-31.65
 20
23.1
 11
-31.65
 21
37.7
  0
LINE
  5
2B1
100
AcDbEntity
  8
0
100
AcDbLine
 62
7
  6
CONTINUOUS
 10
-31.65
 20
37.95
 11
-31.65
 21
39.497941481
  0
LWPOLYLINE
  5
2B2
100
AcDbEntity
  8
0
100
AcDbPolyline
 62
7
  6
CONTINUOUS
 90
28
 70
0
 10
-25.729828
 20
29.325987
 10
-25.7370408329
 20
29.2920621936
 10
-25.7418024768
 20
29.2577322626
 10
-25.7441129317
 20
29.2229972256
 10
-25.7439835847
 20
29.1873537277
 10
-25.7414030488
 20
29.1513051481
 10
-25.7363371622
 20
29.1163617127
 10
-25.7284343233
 20
29.0828550083
 10
-25.7180461338
 20
29.0504536876
 10
-25.7061932375
 20
29.0196736848
 10
-25.6933155303
 20
28.9902984677
 10
-25.6789731163
 20
28.9625447594
 10
-25.6628669516
 20
28.9375784182
 10
-25.6443845447
 20
28.9161846704
 10
-25.624138387
 20
28.8975784663
 10
-25.6036669097
 20
28.880570238
 10
-25.5833990602
 20
28.8647799758
 10
-25.562905891
 20
28.8505877395
 10
-25.5424389913
 20
28.8379440377
 10
-25.5220893094
 20
28.8267275304
 10
-25.5017658969
 20
28.8170595853
 10
-25.4814474981
 20
28.8092547689
 10
-25.4610744307
 20
28.8033405356
 10
-25.4407063769
 20
28.7992894459
 10
-25.4205011279
 20
28.7973337245
 10
-25.4005112805
 20
28.7975507803
 10
-25.3806842379
 20
28.7998632063
 10
-25.36102
 20
28.804271
  0
LINE
  5
2B3
100
AcDbEntity
  8
0
100
AcDbLine
 62
7
  6
CONTINUOUS
 10
-27.219792
 20
32.472793
 11
-27.439756
 21
31.592175
  0
LINE
  5
2B4
100
AcDbEntity
  8
0
100
AcDbLine
 62
7
  6
CONTINUOUS
 10
-26.168232
 20
32.961997
 11
-26.396324
 21
32.065123
  0
LINE
  5
2B5
100
AcDbEntity
  8
0
100
AcDbLine
 62
7
  6
CONTINUOUS
 10
-26.094826
 20
31.201015
 11
-26.643466
 21
29.101705
  0
LINE
  5
2B6
100
AcDbEntity
  8
0
100
AcDbLine
 62
7
  6
CONTINUOUS
 10
-27.611206
 20
30.988925
 11
-28.267501
 21
28.494391
  0
LINE
  5
2B7
100
AcDbEntity
  8
0
100
AcDbLine
 62
7
  6
CONTINUOUS
 10
-26.547956
 20
31.450582
 11
-27.32571
 21
28.494391
  0
LINE
  5
2B8
100
AcDbEntity
  8
0
100
AcDbLine
 62
7
  6
CONTINUOUS
 10
-24.74126
 20
31.135737
 11
-25.36102
 21
28.804271
  0
LINE
  5
2B9
100
AcDbEntity
  8
0
100
AcDbLine
 62
7
  6
CONTINUOUS
 10
-24.374484
 20
32.440027
 11
-24.628931
 21
31.501497
  0
LINE
  5
2BA
100
AcDbEntity
  8
0
100
AcDbLine
 62
7
  6
CONTINUOUS
 10
-25.255102
 20
30.988925
 11
-25.729828
 21
29.325987
  0
LINE
  5
2BB
100
AcDbEntity
  8
0
100
AcDbLine
 62
7
  6
CONTINUOUS
 10
-23.314796
 20
31.233781
 11
-23.3036550262
 21
31.2546662134
  0
LWPOLYLINE
  5
2BC
100
AcDbEntity
  8
0
100
AcDbPolyline
 62
7
  6
CONTINUOUS
 90
28
 70
0
 10
-20.5739877371
 20
31.2132801407
 10
-20.5632140721
 20
31.2323742959
 10
-20.5520187859
 20
31.2509125788
 10
-20.5404018785
 20
31.2688949974
 10
-20.5284832551
 20
31.2863788645
 10
-20.5161430105
 20
31.3033068821
 10
-20.5030214296
 20
31.3195071433
 10
-20.4890112042
 20
31.3349679075
 10
-20.4742196425
 20
31.3497009335
 10
-20.4586089541
 20
31.3635695667
 10
-20.4419845298
 20
31.3764167508
 10
-20.4245409787
 20
31.3883995612
 10
-20.4068243381
 20
31.3998525387
 10
-20.3889949629
 20
31.4108228912
 10
-20.3708924982
 20
31.4212634198
 10
-20.352581917
 20
31.4313670498
 10
-20.3341403506
 20
31.4413689711
 10
-20.3154906678
 20
31.4510339978
 10
-20.2964664476
 20
31.4598494951
 10
-20.2770132173
 20
31.4677776218
 10
-20.2571854496
 20
31.4748562303
 10
-20.2369801416
 20
31.4806862302
 10
-20.2162842158
 20
31.4846210572
 10
-20.1952107496
 20
31.4873072869
 10
-20.174095972
 20
31.4902855358
 10
-20.1530519594
 20
31.4940693407
 10
-20.1319666354
 20
31.4981451624
 10
-20.11084
 20
31.502513
  0
LWPOLYLINE
  5
2BD
100
AcDbEntity
  8
0
100
AcDbPolyline
 62
7
  6
CONTINUOUS
 90
12
 70
0
 10
-22.5834368748
 20
28.8350257955
 10
-22.577859675
 20
28.8445941291
 10
-22.5729930751
 20
28.8548241599
 10
-22.5687507122
 20
28.8657633912
 10
-22.5647922011
 20
28.8772804554
 10
-22.5611059837
 20
28.8893366914
 10
-22.5577036181
 20
28.9019707457
 10
-22.5542793941
 20
28.9151672118
 10
-22.5508224171
 20
28.9289269392
 10
-22.5473435816
 20
28.9432490581
 10
-22.5435698609
 20
28.9581155819
 10
-22.5393820859
 20
28.9735405629
  0
LWPOLYLINE
  5
2BE
100
AcDbEntity
  8
0
100
AcDbPolyline
 62
7
  6
CONTINUOUS
 90
45
 70
0
 10
-22.9011398662
 20
29.3605790607
 10
-22.9160950319
 20
29.3362534904
 10
-22.9285130432
 20
29.3114827402
 10
-22.9383939001
 20
29.2862668018
 10
-22.9456692953
 20
29.2604217148
 10
-22.9504075361
 20
29.2341314212
 10
-22.9528135448
 20
29.2079478004
 10
-22.9525545959
 20
29.1818856282
 10
-22.9499634149
 20
29.1559301847
 10
-22.9462431015
 20
29.1305891613
 10
-22.9416005834
 20
29.1059870412
 10
-22.9358289329
 20
29.0819994365
 10
-22.9295104665
 20
29.0587607562
 10
-22.9230925297
 20
29.0361831593
 10
-22.9161277771
 20
29.0143545649
 10
-22.907856488
 20
28.9936730335
 10
-22.8977714601
 20
28.9742712334
 10
-22.8863798957
 20
28.9560165749
 10
-22.8744436814
 20
28.9389092363
 10
-22.8620736169
 20
28.9229462547
 10
-22.8491589025
 20
28.908130643
 10
-22.8361290253
 20
28.8944715381
 10
-22.8230649845
 20
28.8820529137
 10
-22.809885781
 20
28.8707908281
 10
-22.7967779037
 20
28.8604425394
 10
-22.78375119
 20
28.851052107
 10
-22.7707958025
 20
28.8425754874
 10
-22.758068719
 20
28.8346377777
 10
-22.7456613523
 20
28.8270476041
 10
-22.7334822894
 20
28.8199963463
 10
-22.7214142692
 20
28.8136832295
 10
-22.7093903269
 20
28.8080578734
 10
-22.6974774273
 20
28.8031706638
 10
-22.6857592028
 20
28.7993719752
 10
-22.6741940722
 20
28.7967528381
 10
-22.6628236167
 20
28.7952222258
 10
-22.651856213
 20
28.7948574276
 10
-22.641301592
 20
28.7956477103
 10
-22.6311500228
 20
28.7976038069
 10
-22.6215806888
 20
28.800835204
 10
-22.6126122186
 20
28.8054757869
 10
-22.6042259835
 20
28.811391665
 10
-22.5965452818
 20
28.8182906601
 10
-22.5896383117
 20
28.8261666739
 10
-22.5834368748
 20
28.8350257955
  0
LWPOLYLINE
  5
2BF
100
AcDbEntity
  8
0
100
AcDbPolyline
 62
7
  6
CONTINUOUS
 90
24
 70
0
 10
-23.3036550262
 20
31.2546662134
 10
-23.2912733238
 20
31.2745244625
 10
-23.2776508929
 20
31.2933557633
 10
-23.2626262625
 20
31.3111461581
 10
-23.2463609036
 20
31.3279096338
 10
-23.2293392286
 20
31.3436881216
 10
-23.2117049047
 20
31.3585005723
 10
-23.1933142648
 20
31.3723280584
 10
-23.1742207207
 20
31.3851556909
 10
-23.1544397142
 20
31.3968628503
 10
-23.1339558035
 20
31.4075701761
 10
-23.1127760753
 20
31.4176246644
 10
-23.0909251958
 20
31.4270748325
 10
-23.0683784988
 20
31.4358721728
 10
-23.0450690731
 20
31.4442181389
 10
-23.0210411234
 20
31.4521768324
 10
-22.9962504449
 20
31.4596841571
 10
-22.970497512
 20
31.4667492685
 10
-22.9438007615
 20
31.4732774004
 10
-22.9161417565
 20
31.4793633241
 10
-22.8872656614
 20
31.4853004996
 10
-22.857087531
 20
31.4911867466
 10
-22.8256923106
 20
31.4969242466
 10
-22.79308
 20
31.502513
  0
LWPOLYLINE
  5
2C0
100
AcDbEntity
  8
0
100
AcDbPolyline
 62
7
  6
CONTINUOUS
 90
6
 70
0
 10
-16.7598608503
 20
30.9852615499
 10
-16.7286082469
 20
31.0270386269
 10
-16.6966120635
 20
31.0673054751
 10
-16.6638723003
 20
31.1060625523
 10
-16.6303889573
 20
31.1433103135
 10
-16.5961620344
 20
31.1790492093
  0
LWPOLYLINE
  5
2C1
100
AcDbEntity
  8
0
100
AcDbPolyline
 62
7
  6
CONTINUOUS
 90
11
 70
0
 10
-16.6415976656
 20
31.0197894909
 10
-16.6708580559
 20
30.982125115
 10
-16.6978444577
 20
30.9445282087
 10
-16.7227731904
 20
30.9066718419
 10
-16.7461263915
 20
30.8667502954
 10
-16.7677087617
 20
30.8241546685
 10
-16.7877156002
 20
30.7794925042
 10
-16.8072149419
 20
30.7327821618
 10
-16.8265627985
 20
30.6840293525
 10
-16.8454031584
 20
30.6332271352
 10
-16.8637360215
 20
30.5803749017
  0
LWPOLYLINE
  5
2C2
100
AcDbEntity
  8
0
100
AcDbPolyline
 62
7
  6
CONTINUOUS
 90
3
 70
0
 10
-16.5770706989
 20
31.0951637703
 10
-16.6102796063
 20
31.057194369
 10
-16.6415976656
 20
31.0197894909
  0
LWPOLYLINE
  5
2C3
100
AcDbEntity
  8
0
100
AcDbPolyline
 62
7
  6
CONTINUOUS
 90
3
 70
0
 10
-16.5050915538
 20
31.1733442847
 10
-16.5420265504
 20
31.1339720665
 10
-16.5770706989
 20
31.0951637703
  0
LINE
  5
2C4
100
AcDbEntity
  8
0
100
AcDbLine
 62
7
  6
CONTINUOUS
 10
-16.4662657091
 20
31.2132801407
 11
-16.5050915538
 21
31.1733442847
  0
LINE
  5
2C5
100
AcDbEntity
  8
0
100
AcDbLine
 62
7
  6
CONTINUOUS
 10
-16.5961620344
 20
31.1790492093
 11
-16.5611915317
 21
31.2132796843
  0
LINE
  5
2C6
100
AcDbEntity
  8
0
100
AcDbLine
 62
7
  6
CONTINUOUS
 10
-16.5611914925
 20
31.2132796843
 11
-16.5124347853
 21
31.2599974547
  0
LWPOLYLINE
  5
2C7
100
AcDbEntity
  8
0
100
AcDbPolyline
 62
7
  6
CONTINUOUS
 90
58
 70
0
 10
-14.8045190056
 20
31.2132801407
 10
-14.8538064382
 20
31.1662050877
 10
-14.9017018848
 20
31.1142472867
 10
-14.9482053454
 20
31.0574045719
 10
-14.993532245
 20
30.9949881033
 10
-15.0374671586
 20
30.9276818235
 10
-15.0793638112
 20
30.8575437994
 10
-15.1190434845
 20
30.7845547625
 10
-15.1566848968
 20
30.7087315903
 10
-15.1921779281
 20
30.6321890512
 10
-15.2254311627
 20
30.5550569159
 10
-15.2565360163
 20
30.4772057948
 10
-15.2856566158
 20
30.4003639186
 10
-15.3127601016
 20
30.3246509902
 10
-15.3378793332
 20
30.2499494551
 10
-15.3612770169
 20
30.177633123
 10
-15.3829404382
 20
30.1080859553
 10
-15.4028823115
 20
30.0409268937
 10
-15.4214034864
 20
29.9763827327
 10
-15.4385172266
 20
29.9146691902
 10
-15.4542102683
 20
29.8555728339
 10
-15.46874367
 20
29.798676533
 10
-15.4821442576
 20
29.7440147616
 10
-15.4943852051
 20
29.6915545195
 10
-15.5056470928
 20
29.6407771376
 10
-15.5159608541
 20
29.5916711045
 10
-15.5252955555
 20
29.5442488504
 10
-15.5337389766
 20
29.4980273728
 10
-15.5413050575
 20
29.4530024413
 10
-15.547979858
 20
29.4091788612
 10
-15.5538093379
 20
29.3660870127
 10
-15.5588401716
 20
29.3237345012
 10
-15.5630256846
 20
29.2821140782
 10
-15.5662718131
 20
29.2407337188
 10
-15.5687009081
 20
29.1994479161
 10
-15.5701906185
 20
29.1584023858
 10
-15.570279828
 20
29.1175418785
 10
-15.5689224428
 20
29.0767062048
 10
-15.5661645567
 20
29.0360557409
 10
-15.5616833345
 20
28.9960161035
 10
-15.5554563593
 20
28.95656669
 10
-15.547506048
 20
28.9177283175
 10
-15.5375768165
 20
28.8799887657
 10
-15.5257049098
 20
28.8432843997
 10
-15.5118540829
 20
28.8076790464
 10
-15.4956600163
 20
28.7738516937
 10
-15.4771801255
 20
28.7417332243
 10
-15.456356995
 20
28.7113928923
 10
-15.4326540595
 20
28.68371724
 10
-15.4058298173
 20
28.6588241254
 10
-15.3761257701
 20
28.6365957479
 10
-15.3437298562
 20
28.617565147
 10
-15.30861423
 20
28.6020311917
 10
-15.2708067372
 20
28.5896950083
 10
-15.230578853
 20
28.5801930137
 10
-15.1880210691
 20
28.5734040096
 10
-15.1430428938
 20
28.5694491822
 10
-15.095644327
 20
28.5683285278
  0
LWPOLYLINE
  5
2C8
100
AcDbEntity
  8
0
100
AcDbPolyline
 62
7
  6
CONTINUOUS
 90
22
 70
0
 10
-15.1075620457
 20
31.2132801407
 10
-15.0665125173
 20
31.2489692624
 10
-15.0242223255
 20
31.2828767394
 10
-14.9806914703
 20
31.3150026185
 10
-14.9359294107
 20
31.3455490215
 10
-14.8899266878
 20
31.3743139099
 10
-14.8426549245
 20
31.4006911004
 10
-14.7938652691
 20
31.4242272863
 10
-14.7438065733
 20
31.4453758732
 10
-14.6931970156
 20
31.4648907406
 10
-14.6422765349
 20
31.4832596011
 10
-14.5908051922
 20
31.4999947858
 10
-14.538781349
 20
31.5143870951
 10
-14.4860903599
 20
31.5262454008
 10
-14.4328468703
 20
31.5357608808
 10
-14.3793931778
 20
31.5427977983
 10
-14.325766987
 20
31.5471024501
 10
-14.2719305933
 20
31.5489285623
 10
-14.2181131794
 20
31.5489015349
 10
-14.1643911397
 20
31.5472298336
 10
-14.1106880799
 20
31.5437049903
 10
-14.057004
 20
31.538327
  0
LINE
  5
2C9
100
AcDbEntity
  8
0
100
AcDbLine
 62
7
  6
CONTINUOUS
 10
-16.5124347853
 20
31.2599974547
 11
-16.4612399766
 21
31.3041101622
  0
LINE
  5
2CA
100
AcDbEntity
  8
0
100
AcDbLine
 62
7
  6
CONTINUOUS
 10
-12.3441056933
 20
31.3000605632
 11
-12.3127410488
 21
31.3262880747
  0
LWPOLYLINE
  5
2CB
100
AcDbEntity
  8
0
100
AcDbPolyline
 62
7
  6
CONTINUOUS
 90
3
 70
0
 10
-12.239941582
 20
31.2132801407
 10
-12.286458344
 20
31.1747272019
 10
-12.3322830963
 20
31.1322146636
  0
LWPOLYLINE
  5
2CC
100
AcDbEntity
  8
0
100
AcDbPolyline
 62
7
  6
CONTINUOUS
 90
36
 70
0
 10
-12.3127410488
 20
31.3262880747
 10
-12.2808524631
 20
31.3511456312
 10
-12.2487223599
 20
31.3745111361
 10
-12.2164624692
 20
31.3963022078
 10
-12.183961061
 20
31.4166012813
 10
-12.1511653691
 20
31.4355334833
 10
-12.1181293329
 20
31.4531367337
 10
-12.0847990131
 20
31.4693731511
 10
-12.0509598255
 20
31.4842541562
 10
-12.0166169035
 20
31.4978113409
 10
-11.9817651137
 20
31.5100131432
 10
-11.9461744717
 20
31.5207762511
 10
-11.9098188318
 20
31.5301162831
 10
-11.8727243398
 20
31.5380176432
 10
-11.8347394476
 20
31.5443501973
 10
-11.7957017137
 20
31.5491278529
 10
-11.7557735796
 20
31.552336716
 10
-11.7152908231
 20
31.5538049487
 10
-11.6741318966
 20
31.5534880439
 10
-11.6324183475
 20
31.5514305101
 10
-11.5908505957
 20
31.54759403
 10
-11.5494196527
 20
31.5421411357
 10
-11.5081345069
 20
31.5349092825
 10
-11.467722543
 20
31.5253725302
 10
-11.4281360247
 20
31.5134905489
 10
-11.3894226884
 20
31.4993036295
 10
-11.3524531278
 20
31.48240675
 10
-11.3171691377
 20
31.4627242999
 10
-11.2836289232
 20
31.4403318112
 10
-11.2528776937
 20
31.4150509586
 10
-11.2251883611
 20
31.3864174567
 10
-11.2002880134
 20
31.3548954627
 10
-11.1784031232
 20
31.3216993322
 10
-11.1596091814
 20
31.2872338345
 10
-11.1438306971
 20
31.2510941196
 10
-11.1310676703
 20
31.2132801407
  0
LWPOLYLINE
  5
2CD
100
AcDbEntity
  8
0
100
AcDbPolyline
 62
7
  6
CONTINUOUS
 90
11
 70
0
 10
-16.4612399766
 20
31.3041101622
 10
-16.4076070665
 20
31.3456178958
 10
-16.3517394226
 20
31.3847170491
 10
-16.2934336773
 20
31.4212113874
 10
-16.2320797277
 20
31.4545120655
 10
-16.167720337
 20
31.4853964238
 10
-16.100312742
 20
31.5130872692
 10
-16.02911855
 20
31.5346640234
 10
-15.9538916303
 20
31.5491532443
 10
-15.8748781136
 20
31.5575285564
 10
-15.792078
 20
31.55979
  0
LINE
  5
2CE
100
AcDbEntity
  8
0
100
AcDbLine
 62
7
  6
CONTINUOUS
 10
-21.341978
 20
30.067921
 11
-22.9011398662
 21
29.3605790607
  0
LINE
  5
2CF
100
AcDbEntity
  8
0
100
AcDbLine
 62
7
  6
CONTINUOUS
 10
-21.457337
 20
29.585865
 11
-22.5000303637
 21
29.1128292887
  0
LINE
  5
2D0
100
AcDbEntity
  8
0
100
AcDbLine
 62
7
  6
CONTINUOUS
 10
-22.295748
 20
29.994515
 11
-22.787975
 21
29.772066
  0
LINE
  5
2D1
100
AcDbEntity
  8
0
100
AcDbLine
 62
7
  6
CONTINUOUS
 10
-19.921229
 20
30.679934
 11
-20.837277
 21
30.266735
  0
LINE
  5
2D2
100
AcDbEntity
  8
0
100
AcDbLine
 62
7
  6
CONTINUOUS
 10
-19.418493
 20
30.412675
 11
-20.99195
 21
29.702941
  0
LINE
  5
2D3
100
AcDbEntity
  8
0
100
AcDbLine
 62
7
  6
CONTINUOUS
 10
-19.556358
 20
29.978005
 11
-20.0691514263
 21
29.7467008077
  0
LWPOLYLINE
  5
2D4
100
AcDbEntity
  8
0
100
AcDbPolyline
 62
7
  6
CONTINUOUS
 90
46
 70
0
 10
-15.5742936353
 20
-32.8467303124
 10
-15.5194138083
 20
-32.8460082139
 10
-15.4660530979
 20
-32.8439241818
 10
-15.4140965404
 20
-32.8403067639
 10
-15.3636590996
 20
-32.8353274059
 10
-15.3148920127
 20
-32.8284913383
 10
-15.2677559554
 20
-32.8198999713
 10
-15.222290252
 20
-32.8094518719
 10
-15.1787641127
 20
-32.7963479925
 10
-15.1371336961
 20
-32.7805171966
 10
-15.0974428436
 20
-32.7620305573
 10
-15.0600922889
 20
-32.7403023183
 10
-15.0249500641
 20
-32.7150223946
 10
-14.9921481372
 20
-32.6865007429
 10
-14.9624831454
 20
-32.6550816556
 10
-14.9361019227
 20
-32.6205697015
 10
-14.9128576352
 20
-32.5831601534
 10
-14.893106418
 20
-32.5437833847
 10
-14.8768179321
 20
-32.5020873079
 10
-14.8640225165
 20
-32.4584238745
 10
-14.8551673242
 20
-32.4147796105
 10
-14.8505908478
 20
-32.3714536999
 10
-14.8499545945
 20
-32.3281469683
 10
-14.8526902391
 20
-32.2859485117
 10
-14.8586879003
 20
-32.2449604923
 10
-14.8680574592
 20
-32.2050808257
 10
-14.8805602337
 20
-32.1670922992
 10
-14.8962486116
 20
-32.1312450192
 10
-14.915070205
 20
-32.0972889972
 10
-14.9366291692
 20
-32.0652568999
 10
-14.9609023275
 20
-32.0349631816
 10
-14.9879128564
 20
-32.0065934814
 10
-15.0173344408
 20
-31.980737252
 10
-15.0491554513
 20
-31.9575976553
 10
-15.0833875172
 20
-31.9369716307
 10
-15.1197392112
 20
-31.9188393026
 10
-15.1582510038
 20
-31.9033169713
 10
-15.1988824244
 20
-31.8902884046
 10
-15.2412206348
 20
-31.8793849165
 10
-15.2852864017
 20
-31.8706040279
 10
-15.3310589584
 20
-31.8639482512
 10
-15.3780631665
 20
-31.8590563768
 10
-15.4261924546
 20
-31.8562310363
 10
-15.4755533942
 20
-31.8551696094
 10
-15.5259905613
 20
-31.854603002
 10
-15.5773747195
 20
-31.8542731222
  0
LINE
  5
2D5
100
AcDbEntity
  8
0
100
AcDbLine
 62
7
  6
CONTINUOUS
 10
-15.6892503612
 20
-32.8473348031
 11
-15.5742936353
 21
-32.8467303124
  0
LINE
  5
2D6
100
AcDbEntity
  8
0
100
AcDbLine
 62
7
  6
CONTINUOUS
 10
-17.430405
 20
-32.992392481
 11
-18.70121
 21
-32.994439481
  0
LINE
  5
2D7
100
AcDbEntity
  8
0
100
AcDbLine
 62
250
  6
CONTINUOUS
 10
-76.6292815281
 20
-35.8210372914
 11
-63.7
 21
-35.8210372914
  0
LINE
  5
2D8
100
AcDbEntity
  8
0
100
AcDbLine
 62
250
  6
CONTINUOUS
 10
-63.0
 20
-35.8210372914
 11
-32.15
 21
-35.8210372914
  0
LINE
  5
2D9
100
AcDbEntity
  8
0
100
AcDbLine
 62
250
  6
CONTINUOUS
 10
-31.65
 20
-35.8210372914
 11
-0.25
 21
-35.8210372914
  0
LINE
  5
2DA
100
AcDbEntity
  8
0
100
AcDbLine
 62
250
  6
CONTINUOUS
 10
0.25
 20
-35.8210372914
 11
31.65
 21
-35.8210372914
  0
LINE
  5
2DB
100
AcDbEntity
  8
0
100
AcDbLine
 62
250
  6
CONTINUOUS
 10
32.15
 20
-35.8210372914
 11
63.0
 21
-35.8210372914
  0
LINE
  5
2DC
100
AcDbEntity
  8
0
100
AcDbLine
 62
250
  6
CONTINUOUS
 10
63.7
 20
-35.8210372914
 11
76.6292815281
 21
-35.8210372914
  0
LINE
  5
2DD
100
AcDbEntity
  8
0
100
AcDbLine
 62
7
  6
CONTINUOUS
 10
-14.1950712848
 20
-34.523088481
 11
-14.6943891542
 21
-34.523088481
  0
LINE
  5
2DE
100
AcDbEntity
  8
0
100
AcDbLine
 62
7
  6
CONTINUOUS
 10
-16.442002
 20
-34.523088481
 11
-16.839
 21
-34.523088481
  0
LINE
  5
2DF
100
AcDbEntity
  8
0
100
AcDbLine
 62
7
  6
CONTINUOUS
 10
-63.7
 20
-34.5
 11
-63.0
 21
-34.5
  0
LINE
  5
2E0
100
AcDbEntity
  8
0
100
AcDbLine
 62
7
  6
CONTINUOUS
 10
-32.15
 20
-34.5
 11
-31.65
 21
-34.5
  0
LINE
  5
2E1
100
AcDbEntity
  8
0
100
AcDbLine
 62
7
  6
CONTINUOUS
 10
-0.25
 20
-34.5
 11
0.25
 21
-34.5
  0
LINE
  5
2E2
100
AcDbEntity
  8
0
100
AcDbLine
 62
7
  6
CONTINUOUS
 10
31.65
 20
-34.5
 11
32.15
 21
-34.5
  0
LINE
  5
2E3
100
AcDbEntity
  8
0
100
AcDbLine
 62
7
  6
CONTINUOUS
 10
63.0
 20
-34.5
 11
63.7
 21
-34.5
  0
LINE
  5
2E4
100
AcDbEntity
  8
0
100
AcDbLine
 62
7
  6
CONTINUOUS
 10
-17.819219
 20
-33.346417481
 11
-18.70121
 21
-33.346417481
  0
LINE
  5
2E5
100
AcDbEntity
  8
0
100
AcDbLine
 62
7
  6
CONTINUOUS
 10
18.667556
 20
-32.372941481
 11
17.207055
 21
-32.372941481
  0
LINE
  5
2E6
100
AcDbEntity
  8
0
100
AcDbLine
 62
7
  6
CONTINUOUS
 10
-15.5773747195
 20
-31.8542731222
 11
-16.442002
 21
-31.854603002
  0
LINE
  5
2E7
100
AcDbEntity
  8
0
100
AcDbLine
 62
7
  6
CONTINUOUS
 10
18.667556
 20
-31.622941481
 11
17.207051888
 21
-31.622941481
  0
LINE
  5
2E8
100
AcDbEntity
  8
0
100
AcDbLine
 62
250
  6
CONTINUOUS
 10
63.0
 20
-31.2208370724
 11
32.15
 21
-31.2208370724
  0
LINE
  5
2E9
100
AcDbEntity
  8
0
100
AcDbLine
 62
250
  6
CONTINUOUS
 10
31.65
 20
-31.2208370724
 11
17.3526441559
 21
-31.2208370724
  0
LINE
  5
2EA
100
AcDbEntity
  8
0
100
AcDbLine
 62
250
  6
CONTINUOUS
 10
16.5388522528
 20
-31.2208370724
 11
12.9675341559
 21
-31.2208370724
  0
LINE
  5
2EB
100
AcDbEntity
  8
0
100
AcDbLine
 62
250
  6
CONTINUOUS
 10
12.1537423764
 20
-31.2208370724
 11
0.25
 21
-31.2208370724
  0
LINE
  5
2EC
100
AcDbEntity
  8
0
100
AcDbLine
 62
250
  6
CONTINUOUS
 10
-0.25
 20
-31.2208370724
 11
-31.65
 21
-31.2208370724
  0
LINE
  5
2ED
100
AcDbEntity
  8
0
100
AcDbLine
 62
250
  6
CONTINUOUS
 10
-32.15
 20
-31.2208370724
 11
-63.0
 21
-31.2208370724
  0
LINE
  5
2EE
100
AcDbEntity
  8
0
100
AcDbLine
 62
250
  6
CONTINUOUS
 10
17.3526441559
 20
-31.2029198058
 11
16.5446582124
 21
-31.2029198058
  0
LINE
  5
2EF
100
AcDbEntity
  8
0
100
AcDbLine
 62
250
  6
CONTINUOUS
 10
12.9675341559
 20
-31.2029198058
 11
12.1595483362
 21
-31.2029198058
  0
LINE
  5
2F0
100
AcDbEntity
  8
0
100
AcDbLine
 62
7
  6
CONTINUOUS
 10
-16.839
 20
-31.5230886785
 11
-15.4852542595
 21
-31.5230878104
  0
LINE
  5
2F1
100
AcDbEntity
  8
0
100
AcDbLine
 62
7
  6
CONTINUOUS
 10
-16.442002
 20
-32.847099588
 11
-15.6892503612
 21
-32.8473348031
  0
LWPOLYLINE
  5
2F2
100
AcDbEntity
  8
0
100
AcDbPolyline
 62
7
  6
CONTINUOUS
 90
56
 70
0
 10
-15.4852542595
 20
-31.5230878104
 10
-15.4324510856
 20
-31.5238573958
 10
-15.3796159983
 20
-31.5254419448
 10
-15.3268178666
 20
-31.5277538054
 10
-15.2744133408
 20
-31.531171922
 10
-15.2223495943
 20
-31.5356874441
 10
-15.1706794537
 20
-31.5413092154
 10
-15.119918048
 20
-31.5484427173
 10
-15.0701206341
 20
-31.5569639121
 10
-15.0212319551
 20
-31.5669968193
 10
-14.9736013699
 20
-31.5793189958
 10
-14.9271483807
 20
-31.5939941328
 10
-14.8819534853
 20
-31.6109584897
 10
-14.8386075352
 20
-31.6307984549
 10
-14.7972750129
 20
-31.6537001488
 10
-14.757791436
 20
-31.6794773517
 10
-14.7202542092
 20
-31.7081579229
 10
-14.6846346357
 20
-31.7398618261
 10
-14.6509614123
 20
-31.7744689567
 10
-14.6194180341
 20
-31.8116470701
 10
-14.5899772765
 20
-31.8514066717
 10
-14.5626663641
 20
-31.8937370981
 10
-14.5377504649
 20
-31.9382743642
 10
-14.5150638862
 20
-31.9852570376
 10
-14.4947723209
 20
-32.0344463825
 10
-14.4776380146
 20
-32.0847625062
 10
-14.4639241044
 20
-32.1361481539
 10
-14.4533674533
 20
-32.1886604881
 10
-14.4459408969
 20
-32.241391321
 10
-14.4416699896
 20
-32.2942996296
 10
-14.4405291771
 20
-32.3474264171
 10
-14.4424146313
 20
-32.3999866057
 10
-14.4472148019
 20
-32.4518976353
 10
-14.4550412392
 20
-32.5032421138
 10
-14.4661247665
 20
-32.5534827714
 10
-14.4805833667
 20
-32.602634257
 10
-14.4982990568
 20
-32.6506820084
 10
-14.5191487111
 20
-32.6970449828
 10
-14.5432079097
 20
-32.7416444449
 10
-14.5704010724
 20
-32.7845592554
 10
-14.6003783327
 20
-32.8254447974
 10
-14.6331392545
 20
-32.864384877
 10
-14.6686842738
 20
-32.9012958178
 10
-14.7066648316
 20
-32.935581804
 10
-14.7472172721
 20
-32.9670147912
 10
-14.7902052511
 20
-32.9958229689
 10
-14.8348711767
 20
-33.0220948804
 10
-14.8812032763
 20
-33.0457397331
 10
-14.9292133225
 20
-33.0668484248
 10
-14.9781790426
 20
-33.085782018
 10
-15.0280375953
 20
-33.1025231089
 10
-15.0788518219
 20
-33.1170891654
 10
-15.1300879724
 20
-33.1298935395
 10
-15.1815681301
 20
-33.1410740249
 10
-15.2334702118
 20
-33.150492862
 10
-15.2857942173
 20
-33.1581500644
  0
LWPOLYLINE
  5
2F3
100
AcDbEntity
  8
0
100
AcDbPolyline
 62
7
  6
CONTINUOUS
 90
11
 70
0
 10
-15.7605554708
 20
-33.2052169128
 10
-15.7816021105
 20
-33.2017031102
 10
-15.803237343
 20
-33.198729313
 10
-15.8254611685
 20
-33.1962955225
 10
-15.8482666236
 20
-33.1944804282
 10
-15.8716606716
 20
-33.1932053426
 10
-15.8956642025
 20
-33.1922342011
 10
-15.9202809835
 20
-33.1915411243
 10
-15.9455072474
 20
-33.191151992
 10
-15.9713525826
 20
-33.190908378
 10
-16.442002
 20
-33.1908922198
  0
LWPOLYLINE
  5
2F4
100
AcDbEntity
  8
0
100
AcDbPolyline
 62
7
  6
CONTINUOUS
 90
26
 70
0
 10
-15.2857942173
 20
-33.1581500644
 10
-15.2612419244
 20
-33.1700660211
 10
-15.2369348431
 20
-33.1824382557
 10
-15.2128729734
 20
-33.1952667634
 10
-15.1889937422
 20
-33.208498623
 10
-15.1653597227
 20
-33.2221867462
 10
-15.1421586344
 20
-33.2364898765
 10
-15.1193917605
 20
-33.2513694113
 10
-15.0970578179
 20
-33.2668639385
 10
-15.0753406768
 20
-33.2832479816
 10
-15.0544774835
 20
-33.3006519138
 10
-15.0342310918
 20
-33.3189453355
 10
-15.0140739321
 20
-33.3380116084
 10
-14.9939350345
 20
-33.3577443291
 10
-14.973885369
 20
-33.378249877
 10
-14.9536102762
 20
-33.3997307858
 10
-14.9330532949
 20
-33.4221496049
 10
-14.9122708863
 20
-33.4455437494
 10
-14.8911177751
 20
-33.4702280397
 10
-14.8695187327
 20
-33.4962783397
 10
-14.8475489877
 20
-33.5236187295
 10
-14.8252889505
 20
-33.5523363431
 10
-14.8026887228
 20
-33.5825240501
 10
-14.7797982029
 20
-33.614088911
 10
-14.7568474972
 20
-33.6468393476
 10
-14.733989359
 20
-33.6808538219
  0
LWPOLYLINE
  5
2F5
100
AcDbEntity
  8
0
100
AcDbPolyline
 62
7
  6
CONTINUOUS
 90
23
 70
0
 10
-15.1332429677
 20
-33.8344920066
 10
-15.1592624695
 20
-33.7948268662
 10
-15.1846619581
 20
-33.7565816183
 10
-15.209481852
 20
-33.7196681925
 10
-15.2339450639
 20
-33.6837944373
 10
-15.2580050748
 20
-33.648975374
 10
-15.2817084036
 20
-33.615196044
 10
-15.305417519
 20
-33.5821193065
 10
-15.3290649121
 20
-33.549696359
 10
-15.3527180918
 20
-33.5179760422
 10
-15.3769420527
 20
-33.4867676644
 10
-15.4016987424
 20
-33.4559112672
 10
-15.4270262133
 20
-33.4255668333
 10
-15.4536036172
 20
-33.3960235839
 10
-15.4814742935
 20
-33.3669601291
 10
-15.5105949028
 20
-33.3386978932
 10
-15.5415145785
 20
-33.3124903537
 10
-15.5746147289
 20
-33.288595607
 10
-15.6095139458
 20
-33.2667556461
 10
-15.6456171376
 20
-33.247449826
 10
-15.6827259404
 20
-33.2308379605
 10
-15.7210387182
 20
-33.2167603129
 10
-15.7605554708
 20
-33.2052169128
  0
LINE
  5
2F6
100
AcDbEntity
  8
0
100
AcDbLine
 62
7
  6
CONTINUOUS
 10
-15.0793635237
 20
-33.917845275
 11
-15.1332429677
 21
-33.8344920066
  0
LINE
  5
2F7
100
AcDbEntity
  8
0
100
AcDbLine
 62
7
  6
CONTINUOUS
 10
-44.355439
 20
31.525620481
 11
-44.121821
 21
30.797960481
  0
LINE
  5
2F8
100
AcDbEntity
  8
0
100
AcDbLine
 62
7
  6
CONTINUOUS
 10
-44.939826
 20
33.345715481
 11
-44.581176
 21
32.228648481
  0
LINE
  5
2F9
100
AcDbEntity
  8
0
100
AcDbLine
 62
7
  6
CONTINUOUS
 10
-44.569789
 20
34.498126481
 11
-43.381784
 21
30.797950481
  0
LINE
  5
2FA
100
AcDbEntity
  8
0
100
AcDbLine
 62
7
  6
CONTINUOUS
 10
-20.672688
 20
30.930251
 11
-20.699612
 21
30.802743
  0
LWPOLYLINE
  5
2FB
100
AcDbEntity
  8
0
100
AcDbPolyline
 62
7
  6
CONTINUOUS
 90
3
 70
0
 10
-20.0691514263
 20
29.7467008077
 10
-20.0944044263
 20
29.6470563004
 10
-20.1066593454
 20
29.5995432092
  0
LINE
  5
2FC
100
AcDbEntity
  8
0
100
AcDbLine
 62
7
  6
CONTINUOUS
 10
-20.99195
 20
29.702941
 11
-21.1115986617
 21
29.2370832108
  0
LINE
  5
2FD
100
AcDbEntity
  8
0
100
AcDbLine
 62
7
  6
CONTINUOUS
 10
-20.699612
 20
30.802743
 11
-20.837277
 21
30.266735
  0
LINE
  5
2FE
100
AcDbEntity
  8
0
100
AcDbLine
 62
7
  6
CONTINUOUS
 10
-19.556358
 20
29.978005
 11
-19.853719121
 21
28.8202105289
  0
LINE
  5
2FF
100
AcDbEntity
  8
0
100
AcDbLine
 62
7
  6
CONTINUOUS
 10
-19.222348
 20
31.176377
 11
-19.418493
 21
30.412675
  0
LINE
  5
300
100
AcDbEntity
  8
0
100
AcDbLine
 62
7
  6
CONTINUOUS
 10
-18.333602
 20
30.980797
 11
-18.961236
 21
28.537063
  0
LINE
  5
301
100
AcDbEntity
  8
0
100
AcDbLine
 62
7
  6
CONTINUOUS
 10
-23.314796
 20
31.233781
 11
-23.893408
 21
28.983595
  0
LINE
  5
302
100
AcDbEntity
  8
0
100
AcDbLine
 62
7
  6
CONTINUOUS
 10
-22.475072
 20
30.988925
 11
-22.787975
 21
29.772066
  0
LINE
  5
303
100
AcDbEntity
  8
0
100
AcDbLine
 62
7
  6
CONTINUOUS
 10
-21.9892169208
 20
31.1865953082
 11
-22.295748
 21
29.994515
  0
LINE
  5
304
100
AcDbEntity
  8
0
100
AcDbLine
 62
7
  6
CONTINUOUS
 10
-21.457337
 20
29.585865
 11
-21.61325
 21
28.979531
  0
LINE
  5
305
100
AcDbEntity
  8
0
100
AcDbLine
 62
7
  6
CONTINUOUS
 10
-23.352857
 20
32.934479
 11
-24.524593
 21
28.498455
  0
LINE
  5
306
100
AcDbEntity
  8
0
100
AcDbLine
 62
7
  6
CONTINUOUS
 10
-21.12176
 20
30.899263
 11
-21.341978
 21
30.067921
  0
LWPOLYLINE
  5
307
100
AcDbEntity
  8
0
100
AcDbPolyline
 62
7
  6
CONTINUOUS
 90
10
 70
0
 10
-20.672688
 20
30.930251
 10
-20.6632565766
 20
30.9654120793
 10
-20.6535278397
 20
30.9996872874
 10
-20.6435017892
 20
31.0330768358
 10
-20.6332937645
 20
31.0656382599
 10
-20.6227884263
 20
31.0973144382
 10
-20.6116397562
 20
31.1279336469
 10
-20.599732415
 20
31.1574388382
 10
-20.5871817419
 20
31.1858875854
 10
-20.5739877371
 20
31.2132801407
  0
LWPOLYLINE
  5
308
100
AcDbEntity
  8
0
100
AcDbPolyline
 62
7
  6
CONTINUOUS
 90
30
 70
0
 10
-20.1066593454
 20
29.5995432092
 10
-20.1307960383
 20
29.5092673663
 10
-20.1419377796
 20
29.4662452179
 10
-20.1523825775
 20
29.4246111575
 10
-20.1620246305
 20
29.3843232288
 10
-20.1699915097
 20
29.3450599226
 10
-20.1761426824
 20
29.3066954434
 10
-20.1806186813
 20
29.2693559246
 10
-20.1829686751
 20
29.2330976983
 10
-20.1830972806
 20
29.1978625309
 10
-20.1810998811
 20
29.1637089298
 10
-20.1768117952
 20
29.1308683397
 10
-20.1702296421
 20
29.0992552949
 10
-20.1613568026
 20
29.0689554878
 10
-20.1500387378
 20
29.0404571187
 10
-20.1357750843
 20
29.0139658542
 10
-20.1190662055
 20
28.9892762237
 10
-20.101258653
 20
28.9662597184
 10
-20.0824820671
 20
28.9449616342
 10
-20.0626068074
 20
28.9253367866
 10
-20.0425905046
 20
28.9071209235
 10
-20.0228151805
 20
28.8900914469
 10
-20.0028988132
 20
28.874471011
 10
-19.9826529673
 20
28.8606632348
 10
-19.9620208622
 20
28.8486723057
 10
-19.9410592785
 20
28.8384940762
 10
-19.919750122
 20
28.8305196634
 10
-19.8980873612
 20
28.824879447
 10
-19.8760770275
 20
28.8214430673
 10
-19.853719121
 20
28.8202105289
  0
LINE
  5
309
100
AcDbEntity
  8
0
100
AcDbLine
 62
7
  6
CONTINUOUS
 10
-18.035406
 20
28.657205
 11
-18.071474
 21
28.530205
  0
LINE
  5
30A
100
AcDbEntity
  8
0
100
AcDbLine
 62
7
  6
CONTINUOUS
 10
-17.018898
 20
31.334619
 11
-17.781406
 21
28.657205
  0
LINE
  5
30B
100
AcDbEntity
  8
0
100
AcDbLine
 62
7
  6
CONTINUOUS
 10
-22.5393820859
 20
28.9735405629
 11
-22.5302063612
 21
29.0059634752
  0
LWPOLYLINE
  5
30C
100
AcDbEntity
  8
0
100
AcDbPolyline
 62
7
  6
CONTINUOUS
 90
22
 70
0
 10
-21.61325
 20
28.979531
 10
-21.6219164188
 20
28.9494200278
 10
-21.6314808871
 20
28.9196591424
 10
-21.6419434047
 20
28.8902483867
 10
-21.6532464029
 20
28.8611290411
 10
-21.6654474506
 20
28.8323599035
 10
-21.6787192538
 20
28.8041172937
 10
-21.6930233712
 20
28.7763540887
 10
-21.7083982443
 20
28.7491174807
 10
-21.7251319028
 20
28.7227252639
 10
-21.7432859746
 20
28.6971285798
 10
-21.762798832
 20
28.6723763399
 10
-21.7837736215
 20
28.6489329908
 10
-21.8063261384
 20
28.6268110788
 10
-21.8303405874
 20
28.605998084
 10
-21.8555727295
 20
28.5869208448
 10
-21.8821463611
 20
28.5698393725
 10
-21.9099376858
 20
28.5544936524
 10
-21.9383310749
 20
28.5405304801
 10
-21.9671213189
 20
28.527832118
 10
-21.9965136272
 20
28.5165162934
 10
-22.026508
 20
28.506583
  0
LWPOLYLINE
  5
30D
100
AcDbEntity
  8
0
100
AcDbPolyline
 62
7
  6
CONTINUOUS
 90
6
 70
0
 10
-22.5302063612
 20
29.0059634752
 10
-22.5200800111
 20
29.0404239049
 10
-22.5149492209
 20
29.0581689714
 10
-22.5099386815
 20
29.0761163383
 10
-22.5049657291
 20
29.0943364491
 10
-22.5000303637
 20
29.1128292887
  0
LWPOLYLINE
  5
30E
100
AcDbEntity
  8
0
100
AcDbPolyline
 62
7
  6
CONTINUOUS
 90
13
 70
0
 10
-16.06886993
 20
31.2132801407
 10
-16.0583892603
 20
31.2346173656
 10
-16.0467401502
 20
31.2556114339
 10
-16.0339225997
 20
31.2762623511
 10
-16.0199135279
 20
31.2966927825
 10
-16.0047360156
 20
31.3167800723
 10
-15.9884593056
 20
31.3361562503
 10
-15.9709779001
 20
31.3549533268
 10
-15.9523972969
 20
31.3730393113
 10
-15.9331032317
 20
31.3896502483
 10
-15.9132242831
 20
31.4045315028
 10
-15.8926318725
 20
31.4179377482
 10
-15.871326
 20
31.429869
  0
LWPOLYLINE
  5
30F
100
AcDbEntity
  8
0
100
AcDbPolyline
 62
7
  6
CONTINUOUS
 90
7
 70
0
 10
-10.6109482544
 20
30.8140375489
 10
-10.5575469322
 20
30.885617896
 10
-10.5008358524
 20
30.9559157792
 10
-10.4424344667
 20
31.0239300281
 10
-10.3828825924
 20
31.0893278255
 10
-10.3216404122
 20
31.1524440441
 10
-10.2587079262
 20
31.2132796843
  0
LWPOLYLINE
  5
310
100
AcDbEntity
  8
0
100
AcDbPolyline
 62
7
  6
CONTINUOUS
 90
9
 70
0
 10
-12.4223462915
 20
31.0350313562
 10
-12.4665847344
 20
30.9803573244
 10
-12.5086620077
 20
30.9225379873
 10
-12.5486798273
 20
30.8610557446
 10
-12.5865364773
 20
30.7964254052
 10
-12.6204576503
 20
30.7310162256
 10
-12.6498519105
 20
30.6656184748
 10
-12.6753106937
 20
30.5994420706
 10
-12.696834
 20
30.532487
  0
LWPOLYLINE
  5
311
100
AcDbEntity
  8
0
100
AcDbPolyline
 62
7
  6
CONTINUOUS
 90
6
 70
0
 10
-12.5347611552
 20
31.1003004229
 10
-12.5180592454
 20
31.1200218487
 10
-12.5013722596
 20
31.1393866131
 10
-12.4847001978
 20
31.1583947705
 10
-12.4680430599
 20
31.1770463749
 10
-12.451400846
 20
31.1953414805
  0
LINE
  5
312
100
AcDbEntity
  8
0
100
AcDbLine
 62
7
  6
CONTINUOUS
 10
-12.451400846
 20
31.1953414805
 11
-12.4347735561
 21
31.2132801407
  0
LWPOLYLINE
  5
313
100
AcDbEntity
  8
0
100
AcDbPolyline
 62
7
  6
CONTINUOUS
 90
49
 70
0
 10
-9.984031775
 20
31.2132801407
 10
-10.0294115885
 20
31.1657030384
 10
-10.0742179483
 20
31.1140647408
 10
-10.1184508544
 20
31.0583634851
 10
-10.1622481316
 20
30.9987723175
 10
-10.2054719551
 20
30.9351145585
 10
-10.2477088508
 20
30.8668635025
 10
-10.2889955293
 20
30.7933088159
 10
-10.3292952799
 20
30.7151561221
 10
-10.3680844972
 20
30.6340033337
 10
-10.4053223434
 20
30.5493847468
 10
-10.4410496562
 20
30.4617636684
 10
-10.4748653431
 20
30.3741344146
 10
-10.5068102538
 20
30.2867269575
 10
-10.5368435385
 20
30.1993130821
 10
-10.5644415558
 20
30.1142027912
 10
-10.5892987075
 20
30.0319347313
 10
-10.6117205918
 20
29.9519739656
 10
-10.6321003607
 20
29.875021354
 10
-10.6504746327
 20
29.8015625779
 10
-10.6668067893
 20
29.731115167
 10
-10.681380127
 20
29.6629275593
 10
-10.694264062
 20
29.596919172
 10
-10.705389178
 20
29.5331724525
 10
-10.7148305239
 20
29.4711799152
 10
-10.7226571743
 20
29.4108140446
 10
-10.7288000546
 20
29.3522035529
 10
-10.7331269882
 20
29.2952250804
 10
-10.7354890232
 20
29.2398535215
 10
-10.7360351117
 20
29.1861148495
 10
-10.7350799333
 20
29.1339622316
 10
-10.7328507119
 20
29.083267544
 10
-10.7291202236
 20
29.0341595248
 10
-10.723521477
 20
28.9869766011
 10
-10.7160065219
 20
28.9416737212
 10
-10.7066233085
 20
28.8982963946
 10
-10.6951486957
 20
28.857318881
 10
-10.6814430899
 20
28.8188344971
 10
-10.6656460847
 20
28.7827502223
 10
-10.6479533204
 20
28.7492607839
 10
-10.6284006575
 20
28.7183516808
 10
-10.6069522354
 20
28.6900375518
 10
-10.5836961131
 20
28.6645568059
 10
-10.5585931425
 20
28.6419826625
 10
-10.5316824717
 20
28.6222419388
 10
-10.5031696044
 20
28.605353423
 10
-10.473123042
 20
28.5913233738
 10
-10.441474283
 20
28.5801455238
 10
-10.4082233277
 20
28.5718198657
  0
LWPOLYLINE
  5
314
100
AcDbEntity
  8
0
100
AcDbPolyline
 62
7
  6
CONTINUOUS
 90
3
 70
0
 10
-12.3322830963
 20
31.1322146636
 10
-12.3774158388
 20
31.0857410594
 10
-12.4223462915
 20
31.0350313562
  0
LWPOLYLINE
  5
315
100
AcDbEntity
  8
0
100
AcDbPolyline
 62
7
  6
CONTINUOUS
 90
4
 70
0
 10
-12.4347735561
 20
31.2132801407
 10
-12.4050748764
 20
31.2435769803
 10
-12.3748522555
 20
31.2725037775
 10
-12.3441056933
 20
31.3000605632
  0
LWPOLYLINE
  5
316
100
AcDbEntity
  8
0
100
AcDbPolyline
 62
7
  6
CONTINUOUS
 90
58
 70
0
 10
-7.4903350056
 20
31.2132801407
 10
-7.5396224382
 20
31.1662050877
 10
-7.5875178848
 20
31.1142472867
 10
-7.6340213454
 20
31.0574045719
 10
-7.679348245
 20
30.9949881033
 10
-7.7232831586
 20
30.9276818235
 10
-7.7651798112
 20
30.8575437994
 10
-7.8048594845
 20
30.7845547625
 10
-7.8425008968
 20
30.7087315903
 10
-7.8779939281
 20
30.6321890512
 10
-7.9112471627
 20
30.5550569159
 10
-7.9423520163
 20
30.4772057948
 10
-7.9714726158
 20
30.4003639186
 10
-7.9985761016
 20
30.3246509902
 10
-8.0236953332
 20
30.2499494551
 10
-8.0470930169
 20
30.177633123
 10
-8.0687564382
 20
30.1080859553
 10
-8.0886983115
 20
30.0409268937
 10
-8.1072194864
 20
29.9763827327
 10
-8.1243332266
 20
29.9146691902
 10
-8.1400262683
 20
29.8555728339
 10
-8.15455967
 20
29.798676533
 10
-8.1679602576
 20
29.7440147616
 10
-8.1802012051
 20
29.6915545195
 10
-8.1914630928
 20
29.6407771376
 10
-8.2017768541
 20
29.5916711045
 10
-8.2111115555
 20
29.5442488504
 10
-8.2195549766
 20
29.4980273728
 10
-8.2271210575
 20
29.4530024413
 10
-8.233795858
 20
29.4091788612
 10
-8.2396253379
 20
29.3660870127
 10
-8.2446561716
 20
29.3237345012
 10
-8.2488416846
 20
29.2821140782
 10
-8.2520878131
 20
29.2407337188
 10
-8.2545169081
 20
29.1994479161
 10
-8.2560066185
 20
29.1584023858
 10
-8.256095828
 20
29.1175418785
 10
-8.2547384428
 20
29.0767062048
 10
-8.2519805567
 20
29.0360557409
 10
-8.2474993345
 20
28.9960161035
 10
-8.2412723593
 20
28.95656669
 10
-8.233322048
 20
28.9177283175
 10
-8.2233928165
 20
28.8799887657
 10
-8.2115209098
 20
28.8432843997
 10
-8.1976700829
 20
28.8076790464
 10
-8.1814760163
 20
28.7738516937
 10
-8.1629961255
 20
28.7417332243
 10
-8.142172995
 20
28.7113928923
 10
-8.1184700595
 20
28.68371724
 10
-8.0916458173
 20
28.6588241254
 10
-8.0619417701
 20
28.6365957479
 10
-8.0295458562
 20
28.617565147
 10
-7.99443023
 20
28.6020311917
 10
-7.9566227372
 20
28.5896950083
 10
-7.916394853
 20
28.5801930137
 10
-7.8738370691
 20
28.5734040096
 10
-7.8288588938
 20
28.5694491822
 10
-7.781460327
 20
28.5683285278
  0
LWPOLYLINE
  5
317
100
AcDbEntity
  8
0
100
AcDbPolyline
 62
7
  6
CONTINUOUS
 90
22
 70
0
 10
-7.7933780457
 20
31.2132801407
 10
-7.7523285173
 20
31.2489692624
 10
-7.7100383255
 20
31.2828767394
 10
-7.6665074703
 20
31.3150026185
 10
-7.6217454107
 20
31.3455490215
 10
-7.5757426878
 20
31.3743139099
 10
-7.5284709245
 20
31.4006911004
 10
-7.4796812691
 20
31.4242272863
 10
-7.4296225733
 20
31.4453758732
 10
-7.3790130156
 20
31.4648907406
 10
-7.3280925349
 20
31.4832596011
 10
-7.2766211922
 20
31.4999947858
 10
-7.224597349
 20
31.5143870951
 10
-7.1719063599
 20
31.5262454008
 10
-7.1186628704
 20
31.5357608808
 10
-7.0652091778
 20
31.5427977983
 10
-7.011582987
 20
31.5471024501
 10
-6.9577465933
 20
31.5489285623
 10
-6.9039291794
 20
31.5489015349
 10
-6.8502071397
 20
31.5472298336
 10
-6.7965040799
 20
31.5437049903
 10
-6.74282
 20
31.538327
  0
LWPOLYLINE
  5
318
100
AcDbEntity
  8
0
100
AcDbPolyline
 62
7
  6
CONTINUOUS
 90
31
 70
0
 10
-10.2587079145
 20
31.2132796843
 10
-10.1946740612
 20
31.2673310773
 10
-10.1312079122
 20
31.3164959681
 10
-10.0683094674
 20
31.3607745432
 10
-10.0058737017
 20
31.4000457342
 10
-9.9440056402
 20
31.43443093
 10
-9.8830203585
 20
31.4642939654
 10
-9.822952321
 20
31.4896837844
 10
-9.7637670632
 20
31.5105516379
 10
-9.7056762672
 20
31.5271147839
 10
-9.6484521012
 20
31.5392178804
 10
-9.592322397
 20
31.5470163675
 10
-9.5381823316
 20
31.5511936471
 10
-9.4861775172
 20
31.5518381369
 10
-9.4361623417
 20
31.5488614328
 10
-9.3885951456
 20
31.542681685
 10
-9.3433377955
 20
31.5331828728
 10
-9.3005284248
 20
31.5204809769
 10
-9.2610397754
 20
31.5053421457
 10
-9.2252542925
 20
31.4877025896
 10
-9.1927895309
 20
31.4676260349
 10
-9.1633708965
 20
31.4460699191
 10
-9.1370816787
 20
31.4231042817
 10
-9.1138385882
 20
31.3986590325
 10
-9.0931171626
 20
31.3734814413
 10
-9.0749561535
 20
31.34764469
 10
-9.0593168093
 20
31.3210755688
 10
-9.0455584133
 20
31.2943017842
 10
-9.0334673931
 20
31.2674992403
 10
-9.0232573211
 20
31.2404920272
 10
-9.0149281972
 20
31.2132801407
  0
LINE
  5
319
100
AcDbEntity
  8
0
100
AcDbLine
 62
7
  6
CONTINUOUS
 10
-17.4754258529
 20
-32.3621064407
 11
-17.8335432795
 21
-32.4603325577
  0
LINE
  5
31A
100
AcDbEntity
  8
0
100
AcDbLine
 62
250
  6
CONTINUOUS
 10
-63.0
 20
-27.6767987975
 11
-32.15
 21
-27.6767987975
  0
LINE
  5
31B
100
AcDbEntity
  8
0
100
AcDbLine
 62
250
  6
CONTINUOUS
 10
-31.65
 20
-27.6767987975
 11
-6.543740601
 21
-27.6767987975
  0
LINE
  5
31C
100
AcDbEntity
  8
ASSI
100
AcDbLine
 62
250
  6
CONTINUOUS
 10
-5.7407815309
 20
-27.6767987975
 11
-2.3592184691
 21
-27.6767987975
  0
LINE
  5
31D
100
AcDbEntity
  8
0
100
AcDbLine
 62
250
  6
CONTINUOUS
 10
-1.556259399
 20
-27.6767987975
 11
-0.25
 21
-27.6767987975
  0
LINE
  5
31E
100
AcDbEntity
  8
0
100
AcDbLine
 62
250
  6
CONTINUOUS
 10
0.25
 20
-27.6767987975
 11
31.65
 21
-27.6767987975
  0
LINE
  5
31F
100
AcDbEntity
  8
0
100
AcDbLine
 62
250
  6
CONTINUOUS
 10
32.15
 20
-27.6767987975
 11
63.0
 21
-27.6767987975
  0
LINE
  5
320
100
AcDbEntity
  8
0
100
AcDbLine
 62
7
  6
CONTINUOUS
 10
81.4
 20
-26.3
 11
83.8370664219
 21
-26.3
  0
LINE
  5
321
100
AcDbEntity
  8
0
100
AcDbLine
 62
7
  6
CONTINUOUS
 10
-81.4
 20
-26.3
 11
-83.8370664219
 21
-26.3
  0
LINE
  5
322
100
AcDbEntity
  8
0
100
AcDbLine
 62
7
  6
CONTINUOUS
 10
81.4
 20
-25.5
 11
83.9067434817
 21
-25.5
  0
LINE
  5
323
100
AcDbEntity
  8
0
100
AcDbLine
 62
7
  6
CONTINUOUS
 10
-81.4
 20
-25.5
 11
-83.9067434817
 21
-25.5
  0
LINE
  5
324
100
AcDbEntity
  8
0
100
AcDbLine
 62
7
  6
CONTINUOUS
 10
-14.733989359
 20
-33.6808538219
 11
-14.6878643715
 21
-33.7520122395
  0
LINE
  5
325
100
AcDbEntity
  8
0
100
AcDbLine
 62
7
  6
CONTINUOUS
 10
-14.6878643715
 20
-33.7520122395
 11
-14.1950712848
 21
-34.523088481
  0
LINE
  5
326
100
AcDbEntity
  8
0
100
AcDbLine
 62
7
  6
CONTINUOUS
 10
-14.6943891542
 20
-34.523088481
 11
-15.0793635237
 21
-33.917845275
  0
LWPOLYLINE
  5
327
100
AcDbEntity
  8
0
100
AcDbPolyline
 62
7
  6
CONTINUOUS
 90
35
 70
0
 10
-19.7353542506
 20
-33.4870751604
 10
-19.7117323618
 20
-33.5595820685
 10
-19.6840425458
 20
-33.6288961238
 10
-19.6522979016
 20
-33.6949989058
 10
-19.6163155489
 20
-33.7576703364
 10
-19.5761424527
 20
-33.8169894996
 10
-19.531731648
 20
-33.8728776575
 10
-19.4827593598
 20
-33.9248780194
 10
-19.4286714729
 20
-33.9730533328
 10
-19.3700221026
 20
-34.0173411761
 10
-19.308149819
 20
-34.057097032
 10
-19.2428955102
 20
-34.0920116477
 10
-19.1744182882
 20
-34.1223945693
 10
-19.1045340585
 20
-34.1485294693
 10
-19.0336513461
 20
-34.1705449482
 10
-18.961361626
 20
-34.1883125779
 10
-18.8882552292
 20
-34.2017304586
 10
-18.81404008
 20
-34.2106942095
 10
-18.7390082541
 20
-34.2153082953
 10
-18.6646263093
 20
-34.2157840612
 10
-18.5908889489
 20
-34.2119614042
 10
-18.5178014698
 20
-34.2040004154
 10
-18.4468463202
 20
-34.1925927132
 10
-18.3783789686
 20
-34.1775421703
 10
-18.3120439466
 20
-34.1590448348
 10
-18.248257298
 20
-34.1383805978
 10
-18.1868969282
 20
-34.115473704
 10
-18.128084932
 20
-34.0903998274
 10
-18.0726036367
 20
-34.064666049
 10
-18.0204177531
 20
-34.038565041
 10
-17.9715625705
 20
-34.0118041067
 10
-17.9269262844
 20
-33.9850123192
 10
-17.8868049598
 20
-33.9583993757
 10
-17.8509025317
 20
-33.9317555811
 10
-17.819219
 20
-33.9050809351
  0
LWPOLYLINE
  5
328
100
AcDbEntity
  8
0
100
AcDbPolyline
 62
7
  6
CONTINUOUS
 90
54
 70
0
 10
-17.8335432795
 20
-32.4603325577
 10
-17.8501415171
 20
-32.4048361572
 10
-17.8693300534
 20
-32.3502955468
 10
-17.8911088884
 20
-32.2967107699
 10
-17.9150768162
 20
-32.2435123675
 10
-17.9416350428
 20
-32.1912698671
 10
-17.971987186
 20
-32.1416918622
 10
-18.0066504292
 20
-32.0949015775
 10
-18.0451075891
 20
-32.0507759992
 10
-18.0870107341
 20
-32.0106544724
 10
-18.1327570555
 20
-31.975149641
 10
-18.1819493619
 20
-31.943649116
 10
-18.2330481474
 20
-31.9156547083
 10
-18.2858263614
 20
-31.891060902
 10
-18.3405110545
 20
-31.8699733585
 10
-18.3962438725
 20
-31.8522106244
 10
-18.453064239
 20
-31.837822864
 10
-18.5109327304
 20
-31.8267599984
 10
-18.5688727213
 20
-31.818690191
 10
-18.6267803117
 20
-31.8137684315
 10
-18.6847594016
 20
-31.8118397615
 10
-18.7421450649
 20
-31.8121074068
 10
-18.7986820352
 20
-31.8142460433
 10
-18.854625579
 20
-31.8185809912
 10
-18.9100765696
 20
-31.8252914345
 10
-18.9650871411
 20
-31.8342172473
 10
-19.0196051593
 20
-31.8455185267
 10
-19.0735750951
 20
-31.8598547788
 10
-19.1270367755
 20
-31.87732962
 10
-19.1799503736
 20
-31.8978393561
 10
-19.2321408787
 20
-31.9217325049
 10
-19.2837931233
 20
-31.9486974387
 10
-19.3347222749
 20
-31.9790456521
 10
-19.3841988268
 20
-32.0140602949
 10
-19.4321836075
 20
-32.0540211387
 10
-19.4787157884
 20
-32.0986481261
 10
-19.5231833768
 20
-32.1483845897
 10
-19.5658811686
 20
-32.2034683862
 10
-19.6065143679
 20
-32.2636612204
 10
-19.6435865933
 20
-32.3286921624
 10
-19.6767493093
 20
-32.3988908601
 10
-19.7063510515
 20
-32.4739271207
 10
-19.7319410457
 20
-32.552540313
 10
-19.7535633864
 20
-32.6350001838
 10
-19.7711739791
 20
-32.7210364978
 10
-19.784189765
 20
-32.8085788541
 10
-19.7921931209
 20
-32.898001055
 10
-19.7956016702
 20
-32.98892905
 10
-19.7950852237
 20
-33.0781710374
 10
-19.7908362702
 20
-33.1651173432
 10
-19.7826623211
 20
-33.2503779043
 10
-19.7706557212
 20
-33.3325906657
 10
-19.7549213113
 20
-33.4113566045
 10
-19.7353542506
 20
-33.4870751604
  0
LINE
  5
329
100
AcDbEntity
  8
0
100
AcDbLine
 62
7
  6
CONTINUOUS
 10
-18.70121
 20
-32.994439481
 11
-18.70121
 21
-33.346417481
  0
LWPOLYLINE
  5
32A
100
AcDbEntity
  8
0
100
AcDbPolyline
 62
7
  6
CONTINUOUS
 90
38
 70
0
 10
-15.4965173161
 20
31.2132801407
 10
-15.5020920779
 20
31.181341512
 10
-15.5100220358
 20
31.1496097065
 10
-15.5203071898
 20
31.1180848262
 10
-15.5330839007
 20
31.0863722985
 10
-15.5482158077
 20
31.0548668202
 10
-15.5652938283
 20
31.0247527275
 10
-15.5842692435
 20
30.9961603722
 10
-15.6051907723
 20
30.9689602095
 10
-15.6277954889
 20
30.9439472106
 10
-15.6522520425
 20
30.9212838751
 10
-15.6783917839
 20
30.9008086479
 10
-15.7054458399
 20
30.8828305823
 10
-15.7335523739
 20
30.8674169956
 10
-15.7625732225
 20
30.8545012795
 10
-15.7913250225
 20
30.8441915781
 10
-15.819676501
 20
30.8367549142
 10
-15.847758931
 20
30.8319246563
 10
-15.8747827684
 20
30.8290083654
 10
-15.9005041274
 20
30.8277652359
 10
-15.9251668937
 20
30.8284361351
 10
-15.9487131811
 20
30.8310510619
 10
-15.9712397909
 20
30.8356931677
 10
-15.9926499216
 20
30.8422791852
 10
-16.0125952829
 20
30.8505894498
 10
-16.0310806545
 20
30.8605052379
 10
-16.0481012566
 20
30.8721450206
 10
-16.0632944592
 20
30.8856448858
 10
-16.0766008243
 20
30.9013094458
 10
-16.0880797899
 20
30.918833606
 10
-16.0975470409
 20
30.9374389469
 10
-16.1049000099
 20
30.9570679422
 10
-16.1102412643
 20
30.977777756
 10
-16.1136941912
 20
30.9989622057
 10
-16.1151880698
 20
31.0203689334
 10
-16.114793621
 20
31.0422501274
 10
-16.1128463942
 20
31.0647564981
 10
-16.1094714196
 20
31.0879358216
  0
LWPOLYLINE
  5
32B
100
AcDbEntity
  8
0
100
AcDbPolyline
 62
7
  6
CONTINUOUS
 90
6
 70
0
 10
-16.1094714196
 20
31.0879358216
 10
-16.1045436671
 20
31.1117400287
 10
-16.0980235959
 20
31.1361760226
 10
-16.0898980259
 20
31.1612459943
 10
-16.0801801373
 20
31.186947425
 10
-16.06886993
 20
31.2132801407
  0
LINE
  5
32C
100
AcDbEntity
  8
0
100
AcDbLine
 62
7
  6
CONTINUOUS
 10
-17.23683
 20
31.480923
 11
-17.272898
 21
31.334619
  0
LINE
  5
32D
100
AcDbEntity
  8
0
100
AcDbLine
 62
7
  6
CONTINUOUS
 10
-13.09409
 20
31.480923
 11
-13.130158
 21
31.334619
  0
LINE
  5
32E
100
AcDbEntity
  8
0
100
AcDbLine
 62
7
  6
CONTINUOUS
 10
-12.43242
 20
31.480923
 11
-12.5347611552
 21
31.1003004229
  0
LINE
  5
32F
100
AcDbEntity
  8
0
100
AcDbLine
 62
7
  6
CONTINUOUS
 10
-16.624944
 20
31.480923
 11
-16.7598608503
 21
30.9852615499
  0
LWPOLYLINE
  5
330
100
AcDbEntity
  8
0
100
AcDbPolyline
 62
7
  6
CONTINUOUS
 90
19
 70
0
 10
-11.515988
 20
30.792075
 10
-11.5095951841
 20
30.8151506688
 10
-11.5035850462
 20
30.838328234
 10
-11.4979575863
 20
30.8616076609
 10
-11.4926042659
 20
30.8849921859
 10
-11.4876336235
 20
30.9084785011
 10
-11.4833712741
 20
30.932056756
 10
-11.479933797
 20
30.9557375391
 10
-11.477204613
 20
30.9795101904
 10
-11.4751595997
 20
31.0033329964
 10
-11.4737200746
 20
31.027248467
 10
-11.4729647202
 20
31.051214031
 10
-11.4731054617
 20
31.0750603981
 10
-11.4739964874
 20
31.0988059062
 10
-11.4757836089
 20
31.1224322315
 10
-11.4791161859
 20
31.1457151758
 10
-11.4842106715
 20
31.1685800663
 10
-11.4908506125
 20
31.1911017019
 10
-11.4990360089
 20
31.2132801407
  0
LINE
  5
331
100
AcDbEntity
  8
0
100
AcDbLine
 62
7
  6
CONTINUOUS
 10
-13.892666
 20
28.657205
 11
-13.928734
 21
28.530205
  0
LINE
  5
332
100
AcDbEntity
  8
0
100
AcDbLine
 62
7
  6
CONTINUOUS
 10
-12.853552
 20
31.334619
 11
-13.615806
 21
28.657205
  0
LINE
  5
333
100
AcDbEntity
  8
0
100
AcDbLine
 62
7
  6
CONTINUOUS
 10
-16.8637360215
 20
30.5803749017
 11
-17.411441
 21
28.657205
  0
LINE
  5
334
100
AcDbEntity
  8
0
100
AcDbLine
 62
7
  6
CONTINUOUS
 10
-12.696834
 20
30.532487
 11
-13.230996
 21
28.657205
  0
LINE
  5
335
100
AcDbEntity
  8
0
100
AcDbLine
 62
7
  6
CONTINUOUS
 10
-11.515988
 20
30.792075
 11
-12.124064
 21
28.657205
  0
LINE
  5
336
100
AcDbEntity
  8
0
100
AcDbLine
 62
7
  6
CONTINUOUS
 10
-11.160642
 20
30.688189
 11
-11.739
 21
28.657205
  0
LINE
  5
337
100
AcDbEntity
  8
0
100
AcDbLine
 62
7
  6
CONTINUOUS
 10
-16.950318
 20
28.657205
 11
-16.98664
 21
28.530205
  0
LINE
  5
338
100
AcDbEntity
  8
0
100
AcDbLine
 62
7
  6
CONTINUOUS
 10
-12.893938
 20
28.657205
 11
-12.93026
 21
28.530205
  0
LINE
  5
339
100
AcDbEntity
  8
0
100
AcDbLine
 62
7
  6
CONTINUOUS
 10
-12.436738
 20
28.657205
 11
-12.47306
 21
28.530205
  0
LINE
  5
33A
100
AcDbEntity
  8
0
100
AcDbLine
 62
7
  6
CONTINUOUS
 10
-11.46214
 20
28.657205
 11
-11.498462
 21
28.530205
  0
LWPOLYLINE
  5
33B
100
AcDbEntity
  8
0
100
AcDbPolyline
 62
7
  6
CONTINUOUS
 90
39
 70
0
 10
-9.6261348828
 20
29.1050681705
 10
-9.6002457733
 20
29.1488856309
 10
-9.5746894383
 20
29.1946361452
 10
-9.5495513415
 20
29.2423209521
 10
-9.5247460193
 20
29.2919382035
 10
-9.500178825
 20
29.3436192949
 10
-9.4758288502
 20
29.3973812744
 10
-9.4517170033
 20
29.4532061787
 10
-9.4278113626
 20
29.5111727794
 10
-9.4039760817
 20
29.5713222158
 10
-9.3803470072
 20
29.633612035
 10
-9.3572997565
 20
29.6979955126
 10
-9.3349701807
 20
29.7648440821
 10
-9.3132224288
 20
29.8337844884
 10
-9.2920245652
 20
29.9036531955
 10
-9.2711528617
 20
29.9746564489
 10
-9.2508310463
 20
30.0465864862
 10
-9.2316983685
 20
30.1176596791
 10
-9.2139847168
 20
30.1876509752
 10
-9.1974602025
 20
30.2567852607
 10
-9.1820744087
 20
30.3239549368
 10
-9.1675714395
 20
30.3887915641
 10
-9.1542071907
 20
30.4516645604
 10
-9.1426989329
 20
30.5125736148
 10
-9.1334370663
 20
30.5715055991
 10
-9.1260311907
 20
30.6284747219
 10
-9.1200273759
 20
30.6835217007
 10
-9.1153173123
 20
30.7365682272
 10
-9.1120093095
 20
30.787693794
 10
-9.1099743664
 20
30.8371757145
 10
-9.1090110099
 20
30.884992292
 10
-9.1093207131
 20
30.9311662319
 10
-9.1113788933
 20
30.9760412189
 10
-9.1152066493
 20
31.019933635
 10
-9.1207828823
 20
31.0625277895
 10
-9.1285197138
 20
31.1032193604
 10
-9.1385545174
 20
31.1418074131
 10
-9.1507499195
 20
31.1784941442
 10
-9.16510592
 20
31.2132801407
  0
LINE
  5
33C
100
AcDbEntity
  8
0
100
AcDbLine
 62
7
  6
CONTINUOUS
 10
-9.652195023
 20
29.0630476549
 11
-9.6261348828
 21
29.1050681705
  0
LWPOLYLINE
  5
33D
100
AcDbEntity
  8
0
100
AcDbPolyline
 62
7
  6
CONTINUOUS
 90
70
 70
0
 10
-9.5432182342
 20
29.0143431778
 10
-9.5753471931
 20
28.9677553781
 10
-9.6086379263
 20
28.921991479
 10
-9.6430904338
 20
28.8770516385
 10
-9.6785652547
 20
28.8325616873
 10
-9.7152018499
 20
28.7888960652
 10
-9.7534186018
 20
28.7471778515
 10
-9.7934809136
 20
28.7076461757
 10
-9.8351233822
 20
28.6700621268
 10
-9.8779681799
 20
28.6348317137
 10
-9.9218306659
 20
28.6018842287
 10
-9.966895481
 20
28.5712904623
 10
-10.0133387199
 20
28.5436686379
 10
-10.0612639764
 20
28.51908674
 10
-10.1105676566
 20
28.4974767609
 10
-10.1611150741
 20
28.4792529081
 10
-10.2132751503
 20
28.4645895937
 10
-10.2666789637
 20
28.4533123412
 10
-10.3200850632
 20
28.4453120224
 10
-10.3736169029
 20
28.440529537
 10
-10.4271510286
 20
28.4390239528
 10
-10.4790756275
 20
28.4408634055
 10
-10.5290674905
 20
28.4461609116
 10
-10.5774498265
 20
28.454803474
 10
-10.6235804491
 20
28.4665202183
 10
-10.6673116964
 20
28.4813409724
 10
-10.7087912301
 20
28.4992359613
 10
-10.7478198493
 20
28.5198449038
 10
-10.7840859114
 20
28.5431934175
 10
-10.8179010589
 20
28.5692559208
 10
-10.850001018
 20
28.5975953158
 10
-10.8804855297
 20
28.6280465429
 10
-10.909254853
 20
28.6607746294
 10
-10.9367454906
 20
28.6958375842
 10
-10.9635800149
 20
28.7329754765
 10
-10.9891358535
 20
28.7724480996
 10
-11.0119817925
 20
28.8150930024
 10
-11.0313356185
 20
28.8617175148
 10
-11.0479795449
 20
28.9115139093
 10
-11.0628289973
 20
28.9628971238
 10
-11.0763290694
 20
29.0157015587
 10
-11.0880346675
 20
29.0700922861
 10
-11.0975259361
 20
29.1249803478
 10
-11.1045216694
 20
29.1801955985
 10
-11.109303073
 20
29.2359076878
 10
-11.1122939089
 20
29.2915374808
 10
-11.1136601662
 20
29.3468700175
 10
-11.1132358557
 20
29.402119875
 10
-11.1109467714
 20
29.4573522818
 10
-11.1066929019
 20
29.512433981
 10
-11.1005742586
 20
29.5674978339
 10
-11.0928166697
 20
29.6230081533
 10
-11.083524999
 20
29.6789107985
 10
-11.0725943827
 20
29.7352593113
 10
-11.0599360581
 20
29.7926792922
 10
-11.0454305545
 20
29.8511565829
 10
-11.0291973427
 20
29.9107043393
 10
-11.0115060716
 20
29.9719887679
 10
-10.9929088225
 20
30.0353152282
 10
-10.9728535143
 20
30.1003766432
 10
-10.9499535527
 20
30.1669203719
 10
-10.9237603934
 20
30.2350154896
 10
-10.8947225809
 20
30.3045910256
 10
-10.8627991537
 20
30.3751844534
 10
-10.8279627733
 20
30.4468304417
 10
-10.7902407784
 20
30.5194924879
 10
-10.7496742236
 20
30.5926017112
 10
-10.7064318596
 20
30.6665443067
 10
-10.6603449358
 20
30.7409324712
 10
-10.6109482544
 20
30.8140375489
  0
LWPOLYLINE
  5
33E
100
AcDbEntity
  8
0
100
AcDbPolyline
 62
7
  6
CONTINUOUS
 90
22
 70
0
 10
11.987256
 20
30.0723859603
 10
12.0271859288
 20
30.0918468982
 10
12.0656952887
 20
30.1117148604
 10
12.1027840797
 20
30.1319897938
 10
12.1383479334
 20
30.1526492909
 10
12.1724912183
 20
30.1737156487
 10
12.2055270395
 20
30.1952558591
 10
12.2374725415
 20
30.2172490112
 10
12.26831058
 20
30.2397158745
 10
12.2983028266
 20
30.2627859331
 10
12.3274896914
 20
30.2864807961
 10
12.3558307644
 20
30.3107786528
 10
12.383466488
 20
30.3357438238
 10
12.4105068066
 20
30.3613414475
 10
12.4368417757
 20
30.3876061389
 10
12.4622820047
 20
30.4147063876
 10
12.4869386984
 20
30.4426518931
 10
12.510700652
 20
30.4714326027
 10
12.5330448597
 20
30.5011873093
 10
12.5537969866
 20
30.5319621076
 10
12.5731313677
 20
30.5637104235
 10
12.591048003
 20
30.596432
  0
LINE
  5
33F
100
AcDbEntity
  8
0
100
AcDbLine
 62
7
  6
CONTINUOUS
 10
74.4750792948
 20
-10.7519887617
 11
74.2590889276
 21
-10.7867458323
  0
LINE
  5
340
100
AcDbEntity
  8
INTF_1
100
AcDbLine
 62
7
  6
CONTINUOUS
 10
74.2590889276
 20
-10.7867458323
 11
74.4750792948
 21
-10.7519887617
  0
LINE
  5
341
100
AcDbEntity
  8
0
100
AcDbLine
 62
7
  6
CONTINUOUS
 10
75.2794572138
 20
-10.2182194635
 11
75.0659494946
 21
-10.2480112383
  0
LINE
  5
342
100
AcDbEntity
  8
INTF_1
100
AcDbLine
 62
7
  6
CONTINUOUS
 10
75.2794572138
 20
-10.2182194635
 11
75.0659494946
 21
-10.2480112383
  0
LINE
  5
343
100
AcDbEntity
  8
0
100
AcDbLine
 62
250
  6
CONTINUOUS
 10
-83.0855934914
 20
-33.7343564003
 11
-82.9815038815
 21
-33.7225169985
  0
LINE
  5
344
100
AcDbEntity
  8
0
100
AcDbLine
 62
7
  6
CONTINUOUS
 10
63.0
 20
-24.0
 11
32.15
 21
-24.0
  0
LINE
  5
345
100
AcDbEntity
  8
0
100
AcDbLine
 62
7
  6
CONTINUOUS
 10
31.65
 20
-24.0
 11
0.25
 21
-24.0
  0
LINE
  5
346
100
AcDbEntity
  8
0
100
AcDbLine
 62
7
  6
CONTINUOUS
 10
-0.25
 20
-24.0
 11
-31.65
 21
-24.0
  0
LINE
  5
347
100
AcDbEntity
  8
0
100
AcDbLine
 62
7
  6
CONTINUOUS
 10
-32.15
 20
-24.0
 11
-63.0
 21
-24.0
  0
LINE
  5
348
100
AcDbEntity
  8
26216763_GEN
100
AcDbLine
 62
7
  6
CONTINUOUS
 10
83.0207962026
 20
-23.2
 11
63.7
 21
-23.2
  0
LINE
  5
349
100
AcDbEntity
  8
26216763_GEN
100
AcDbLine
 62
7
  6
CONTINUOUS
 10
-63.7
 20
-23.2
 11
-83.0207961969
 21
-23.2
  0
LINE
  5
34A
100
AcDbEntity
  8
0
100
AcDbLine
 62
7
  6
CONTINUOUS
 10
63.7
 20
-23.1574363608
 11
63.0
 21
-23.1574363608
  0
LINE
  5
34B
100
AcDbEntity
  8
0
100
AcDbLine
 62
7
  6
CONTINUOUS
 10
32.15
 20
-23.1574363608
 11
31.65
 21
-23.1574363608
  0
LINE
  5
34C
100
AcDbEntity
  8
0
100
AcDbLine
 62
7
  6
CONTINUOUS
 10
0.25
 20
-23.1574363608
 11
-0.25
 21
-23.1574363608
  0
LINE
  5
34D
100
AcDbEntity
  8
0
100
AcDbLine
 62
7
  6
CONTINUOUS
 10
-31.65
 20
-23.1574363608
 11
-32.15
 21
-23.1574363608
  0
LINE
  5
34E
100
AcDbEntity
  8
0
100
AcDbLine
 62
7
  6
CONTINUOUS
 10
-63.0
 20
-23.1574363608
 11
-63.7
 21
-23.1574363608
  0
LINE
  5
34F
100
AcDbEntity
  8
0
100
AcDbLine
 62
7
  6
CONTINUOUS
 10
63.0
 20
-23.1
 11
32.15
 21
-23.1
  0
LINE
  5
350
100
AcDbEntity
  8
0
100
AcDbLine
 62
7
  6
CONTINUOUS
 10
31.65
 20
-23.1
 11
0.25
 21
-23.1
  0
LINE
  5
351
100
AcDbEntity
  8
0
100
AcDbLine
 62
7
  6
CONTINUOUS
 10
-0.25
 20
-23.1
 11
-31.65
 21
-23.1
  0
LINE
  5
352
100
AcDbEntity
  8
0
100
AcDbLine
 62
7
  6
CONTINUOUS
 10
-32.15
 20
-23.1
 11
-63.0
 21
-23.1
  0
LINE
  5
353
100
AcDbEntity
  8
26216763_GEN
100
AcDbLine
 62
7
  6
CONTINUOUS
 10
-83.1096853605
 20
-22.5
 11
-63.7
 21
-22.5
  0
LINE
  5
354
100
AcDbEntity
  8
0
100
AcDbLine
 62
7
  6
CONTINUOUS
 10
63.7
 20
-22.5
 11
-63.7
 21
-22.5
  0
LINE
  5
355
100
AcDbEntity
  8
26216763_GEN
100
AcDbLine
 62
7
  6
CONTINUOUS
 10
63.7
 20
-22.5
 11
83.1096853697
 21
-22.5
  0
LINE
  5
356
100
AcDbEntity
  8
0
100
AcDbLine
 62
7
  6
CONTINUOUS
 10
-84.3271664378
 20
-20.0
 11
-80.8
 21
-20.0
  0
LINE
  5
357
100
AcDbEntity
  8
0
100
AcDbLine
 62
7
  6
CONTINUOUS
 10
80.8
 20
-20.0
 11
84.3271664378
 21
-20.0
  0
LINE
  5
358
100
AcDbEntity
  8
0
100
AcDbLine
 62
7
  6
CONTINUOUS
 10
80.8
 20
-19.2
 11
84.3798097696
 21
-19.2
  0
LINE
  5
359
100
AcDbEntity
  8
0
100
AcDbLine
 62
7
  6
CONTINUOUS
 10
-80.8
 20
-19.2
 11
-84.3798097696
 21
-19.2
  0
LINE
  5
35A
100
AcDbEntity
  8
0
100
AcDbLine
 62
250
  6
CONTINUOUS
 10
83.0855934914
 20
-33.7343564003
 11
82.9815038815
 21
-33.7225169985
  0
LINE
  5
35B
100
AcDbEntity
  8
0
100
AcDbLine
 62
7
  6
CONTINUOUS
 10
-41.502434
 20
32.228648481
 11
-40.760834
 21
30.797960481
  0
LINE
  5
35C
100
AcDbEntity
  8
0
100
AcDbLine
 62
7
  6
CONTINUOUS
 10
-40.7150292093
 20
32.3176448141
 11
-39.927307
 21
30.797969481
  0
LINE
  5
35D
100
AcDbEntity
  8
0
100
AcDbLine
 62
7
  6
CONTINUOUS
 10
-17.819219
 20
-33.346417481
 11
-17.819219
 21
-33.9050809351
  0
LINE
  5
35E
100
AcDbEntity
  8
0
100
AcDbLine
 62
7
  6
CONTINUOUS
 10
-17.430405
 20
-32.992392481
 11
-17.430405
 21
-34.1056258703
  0
LINE
  5
35F
100
AcDbEntity
  8
0
100
AcDbLine
 62
7
  6
CONTINUOUS
 10
-16.839
 20
-31.5230886785
 11
-16.839
 21
-34.523088481
  0
LINE
  5
360
100
AcDbEntity
  8
0
100
AcDbLine
 62
7
  6
CONTINUOUS
 10
-16.442002
 20
-31.854603002
 11
-16.442002
 21
-32.847099588
  0
LINE
  5
361
100
AcDbEntity
  8
0
100
AcDbLine
 62
7
  6
CONTINUOUS
 10
-16.442002
 20
-33.1908922198
 11
-16.442002
 21
-34.523088481
  0
LINE
  5
362
100
AcDbEntity
  8
0
100
AcDbLine
 62
7
  6
CONTINUOUS
 10
-8.580002
 20
32.396339
 11
-8.9823183183
 21
30.9832858821
  0
LINE
  5
363
100
AcDbEntity
  8
0
100
AcDbLine
 62
7
  6
CONTINUOUS
 10
-9.5432182342
 20
29.0143431778
 11
-9.681092
 21
28.530205
  0
LINE
  5
364
100
AcDbEntity
  8
0
100
AcDbLine
 62
7
  6
CONTINUOUS
 10
-8.15887
 20
32.523085
 11
-9.259706
 21
28.657205
  0
LINE
  5
365
100
AcDbEntity
  8
0
100
AcDbLine
 62
7
  6
CONTINUOUS
 10
-9.055236
 20
28.657205
 11
-9.091558
 21
28.530205
  0
LINE
  5
366
100
AcDbEntity
  8
0
100
AcDbLine
 62
7
  6
CONTINUOUS
 10
-8.82054
 20
32.523085
 11
-8.856862
 21
32.396339
  0
LWPOLYLINE
  5
367
100
AcDbEntity
  8
0
100
AcDbPolyline
 62
7
  6
CONTINUOUS
 90
22
 70
0
 10
12.49991
 20
30.1336199083
 10
12.4786914707
 20
30.1142301011
 10
12.4570059353
 20
30.0954184116
 10
12.4348533936
 20
30.0771849064
 10
12.4121820135
 20
30.0595653813
 10
12.3890436273
 20
30.0425241659
 10
12.3655937314
 20
30.0259541141
 10
12.3418524287
 20
30.0098509609
 10
12.3177996163
 20
29.9942190598
 10
12.2935304824
 20
29.9789641718
 10
12.2690573398
 20
29.9640746585
 10
12.2443678756
 20
29.9495622218
 10
12.2195203402
 20
29.9353676204
 10
12.1945479264
 20
29.921449642
 10
12.1694174413
 20
29.9078495461
 10
12.1440875559
 20
29.8946317975
 10
12.118566056
 20
29.8817764864
 10
12.0928451558
 20
29.8693035729
 10
12.0668601688
 20
29.8573373355
 10
12.0405895327
 20
29.845919222
 10
12.0140548098
 20
29.8350078425
 10
11.987256
 20
29.8246032228
  0
LWPOLYLINE
  5
368
100
AcDbEntity
  8
0
100
AcDbPolyline
 62
7
  6
CONTINUOUS
 90
57
 70
0
 10
18.6190030307
 20
29.7534011531
 10
18.6530052456
 20
29.7761758678
 10
18.6880406355
 20
29.7969446195
 10
18.7241092006
 20
29.8157075707
 10
18.7613707766
 20
29.8326189091
 10
18.7996655277
 20
29.8475247303
 10
18.8385139467
 20
29.8599630696
 10
18.8777355203
 20
29.8698029895
 10
18.9175107617
 20
29.8771756719
 10
18.9579017035
 20
29.8820123266
 10
18.999156943
 20
29.8842918572
 10
19.0410278829
 20
29.8840354418
 10
19.0828307639
 20
29.8812376607
 10
19.1244149945
 20
29.8760601227
 10
19.1659311662
 20
29.8683411298
 10
19.2071472947
 20
29.8575902428
 10
19.2482839701
 20
29.8436529713
 10
19.2891206023
 20
29.8266834739
 10
19.3287634369
 20
29.8066542108
 10
19.367157777
 20
29.7833515613
 10
19.4043583194
 20
29.7569885976
 10
19.4396354007
 20
29.7281778396
 10
19.4729420211
 20
29.6970619721
 10
19.5043251802
 20
29.6634978104
 10
19.5331962128
 20
29.6276691493
 10
19.5595390357
 20
29.589526215
 10
19.583369732
 20
29.5491183051
 10
19.6041478867
 20
29.5067778972
 10
19.62173098
 20
29.4620681072
 10
19.6362615315
 20
29.4154254596
 10
19.6476266859
 20
29.3684928322
 10
19.6555227602
 20
29.3212876546
 10
19.6602534373
 20
29.2737926855
 10
19.6626169099
 20
29.227599198
 10
19.6626697692
 20
29.1830550452
 10
19.6603554239
 20
29.1398128749
 10
19.6563022933
 20
29.0984213376
 10
19.6505730748
 20
29.0590903165
 10
19.643105071
 20
29.0216103424
 10
19.6343386082
 20
28.9859010349
 10
19.6242962325
 20
28.9520161398
 10
19.612955398
 20
28.9199021654
 10
19.6006887932
 20
28.8893178334
 10
19.5875017855
 20
28.8602324279
 10
19.5733890075
 20
28.8326768071
 10
19.5587070462
 20
28.8065020251
 10
19.5436196437
 20
28.7818769782
 10
19.5279630579
 20
28.7586328498
 10
19.5116026489
 20
28.7361141046
 10
19.4945866567
 20
28.7141521511
 10
19.4768668414
 20
28.692915616
 10
19.4581638439
 20
28.6722547804
 10
19.4383244981
 20
28.6519883751
 10
19.4175019702
 20
28.6322976912
 10
19.3958763988
 20
28.6135768467
 10
19.37345733
 20
28.5959035773
 10
19.3502352178
 20
28.5792001557
  0
LWPOLYLINE
  5
369
100
AcDbEntity
  8
0
100
AcDbPolyline
 62
7
  6
CONTINUOUS
 90
41
 70
0
 10
19.3502352178
 20
28.5792001557
 10
19.3263615635
 20
28.5636275015
 10
19.3018326362
 20
28.549223718
 10
19.2766521668
 20
28.5359506976
 10
19.250982849
 20
28.5238550401
 10
19.2248437528
 20
28.5129678245
 10
19.1982158082
 20
28.5032579616
 10
19.1712044989
 20
28.4946787981
 10
19.143855898
 20
28.4872430855
 10
19.1161239324
 20
28.4809380623
 10
19.0879758663
 20
28.4756788068
 10
19.0593341461
 20
28.4714580228
 10
19.0302763253
 20
28.468283
 10
19.0010023295
 20
28.4660906971
 10
18.9715172392
 20
28.4648682331
 10
18.9418159739
 20
28.4646284866
 10
18.9120832172
 20
28.4653470576
 10
18.882496041
 20
28.4669201176
 10
18.8528773734
 20
28.4694514966
 10
18.8228806822
 20
28.4732282831
 10
18.7923919423
 20
28.4781853156
 10
18.7615251787
 20
28.484387763
 10
18.730275934
 20
28.4923182135
 10
18.6985973602
 20
28.5019105681
 10
18.6665363053
 20
28.5132309429
 10
18.6342288555
 20
28.5269602564
 10
18.6015079266
 20
28.5431408336
 10
18.5685406029
 20
28.5617303771
 10
18.5359642238
 20
28.5832828777
 10
18.5036103506
 20
28.6079575261
 10
18.4716474221
 20
28.6355951407
 10
18.4412180939
 20
28.6662721434
 10
18.4122681221
 20
28.7002280835
 10
18.3848517506
 20
28.7372233233
 10
18.3602743674
 20
28.7766154743
 10
18.3388370926
 20
28.8187434272
 10
18.3202388062
 20
28.8632680356
 10
18.3048815364
 20
28.908529861
 10
18.2928992929
 20
28.953975683
 10
18.284158066
 20
29.0001584457
 10
18.2786578558
 20
29.0470779878
  0
LWPOLYLINE
  5
36A
100
AcDbEntity
  8
INTF_7
100
AcDbPolyline
 62
7
  6
CONTINUOUS
 90
54
 70
0
 10
73.0
 20
-12.75
 10
73.0941351425
 20
-12.748798381
 10
73.1882330849
 20
-12.7451915941
 10
73.2822207904
 20
-12.7391767447
 10
73.376025222
 20
-12.7307509381
 10
73.4689566505
 20
-12.7199900875
 10
73.5615734691
 20
-12.7068389962
 10
73.6538139956
 20
-12.6912894185
 10
73.7456165482
 20
-12.6733331092
 10
73.8357337004
 20
-12.6532415198
 10
73.9252926552
 20
-12.6307851169
 10
74.0142219615
 20
-12.6059516699
 10
74.1024501685
 20
-12.5787289482
 10
74.1882557236
 20
-12.5496875989
 10
74.2732386664
 20
-12.5183210378
 10
74.3573199582
 20
-12.4846154844
 10
74.4404205607
 20
-12.4485571585
 10
74.5204900852
 20
-12.4110886338
 10
74.5994605795
 20
-12.3713548629
 10
74.6772421637
 20
-12.3293442041
 10
74.7537449579
 20
-12.2850450157
 10
74.8267654164
 20
-12.2397996849
 10
74.8983925607
 20
-12.1923783744
 10
74.9685252373
 20
-12.142776695
 10
75.0370622925
 20
-12.0909902577
 10
75.1018449558
 20
-12.0387304203
 10
75.1649237115
 20
-11.9844248319
 10
75.2261874162
 20
-11.9280826958
 10
75.2855249266
 20
-11.8697132153
 10
75.330078182
 20
-11.8231292505
 10
75.3733501318
 20
-11.7753505464
 10
75.4152811207
 20
-11.7263925032
 10
75.4558114937
 20
-11.676270521
 10
75.4948815955
 20
-11.625
 10
75.5313034189
 20
-11.5742216641
 10
75.5662391227
 20
-11.5224074275
 10
75.5996307702
 20
-11.4695861311
 10
75.6314204244
 20
-11.4157866159
 10
75.6615501486
 20
-11.3610377228
 10
75.6892302069
 20
-11.3068626439
 10
75.715232803
 20
-11.2518604638
 10
75.7395082391
 20
-11.1960763361
 10
75.7620068176
 20
-11.1395554141
 10
75.7826788407
 20
-11.0823428515
 10
75.8011237276
 20
-11.0256353985
 10
75.8177317995
 20
-10.9683612712
 10
75.8324690565
 20
-10.9105749785
 10
75.8453014988
 20
-10.8523310293
 10
75.8561951263
 20
-10.7936839325
 10
75.8650353135
 20
-10.7353192798
 10
75.8719321457
 20
-10.67669095
 10
75.8768734839
 20
-10.6178765533
 10
75.8798471889
 20
-10.5589536999
 10
75.8808411215
 20
-10.5
  0
LINE
  5
36B
100
AcDbEntity
  8
0
100
AcDbLine
 62
7
  6
CONTINUOUS
 10
-84.4903707646
 20
-17.4
 11
-80.8
 21
-17.4
  0
LINE
  5
36C
100
AcDbEntity
  8
0
100
AcDbLine
 62
7
  6
CONTINUOUS
 10
80.8
 20
-17.4
 11
84.4903707646
 21
-17.4
  0
LINE
  5
36D
100
AcDbEntity
  8
0
100
AcDbLine
 62
7
  6
CONTINUOUS
 10
80.8
 20
-16.6
 11
84.5360063288
 21
-16.6
  0
LINE
  5
36E
100
AcDbEntity
  8
0
100
AcDbLine
 62
7
  6
CONTINUOUS
 10
-80.8
 20
-16.6
 11
-84.5360063288
 21
-16.6
  0
LINE
  5
36F
100
AcDbEntity
  8
0
100
AcDbLine
 62
7
  6
CONTINUOUS
 10
-84.6308120077
 20
-14.8
 11
-80.8
 21
-14.8
  0
LINE
  5
370
100
AcDbEntity
  8
0
100
AcDbLine
 62
7
  6
CONTINUOUS
 10
80.8
 20
-14.8
 11
84.6308120077
 21
-14.8
  0
LINE
  5
371
100
AcDbEntity
  8
0
100
AcDbLine
 62
7
  6
CONTINUOUS
 10
80.8
 20
-14.0
 11
84.6694502601
 21
-14.0
  0
LINE
  5
372
100
AcDbEntity
  8
0
100
AcDbLine
 62
7
  6
CONTINUOUS
 10
-80.8
 20
-14.0
 11
-84.6694502601
 21
-14.0
  0
LWPOLYLINE
  5
373
100
AcDbEntity
  8
0
100
AcDbPolyline
 62
7
  6
CONTINUOUS
 90
37
 70
0
 10
13.5853236637
 20
30.3033286094
 10
13.6155337733
 20
30.3451092151
 10
13.6486099889
 20
30.3847564914
 10
13.6840403408
 20
30.4212748051
 10
13.7221047255
 20
30.4545711328
 10
13.7625232464
 20
30.4847398304
 10
13.8039442441
 20
30.5110666742
 10
13.8464159985
 20
30.5331494054
 10
13.8898902297
 20
30.5513915667
 10
13.9328704393
 20
30.5662875922
 10
13.9747475674
 20
30.5776501746
 10
14.016130674
 20
30.5856672479
 10
14.0573504397
 20
30.5913958718
 10
14.0986716219
 20
30.5950883355
 10
14.1398294633
 20
30.5964924983
 10
14.1803603733
 20
30.5959086547
 10
14.2199872588
 20
30.5935864442
 10
14.2589872129
 20
30.5892761875
 10
14.2977279249
 20
30.5825291408
 10
14.3366414219
 20
30.5732700411
 10
14.3752956767
 20
30.5615738716
 10
14.412762297
 20
30.5472171635
 10
14.4489264885
 20
30.5300606449
 10
14.4839030454
 20
30.5102430005
 10
14.5171079583
 20
30.4879576368
 10
14.5485446222
 20
30.4630718123
 10
14.578209642
 20
30.4357174985
 10
14.6055088233
 20
30.4064852579
 10
14.6302656147
 20
30.3754346494
 10
14.6526565675
 20
30.3425054575
 10
14.6726171407
 20
30.3081087611
 10
14.6900681668
 20
30.2721986175
 10
14.7050888134
 20
30.2348204412
 10
14.7178520423
 20
30.196522553
 10
14.7284155075
 20
30.157487693
 10
14.7367215551
 20
30.1175328874
 10
14.7427701851
 20
30.0766580145
  0
LWPOLYLINE
  5
374
100
AcDbEntity
  8
0
100
AcDbPolyline
 62
7
  6
CONTINUOUS
 90
64
 70
0
 10
16.403199
 20
30.3614654971
 10
16.3632569609
 20
30.3168894396
 10
16.3252762834
 20
30.272545209
 10
16.2892569676
 20
30.2284329766
 10
16.2553358154
 20
30.1844324402
 10
16.223376025
 20
30.1406642143
 10
16.1929671902
 20
30.0974899283
 10
16.1640796499
 20
30.0549835878
 10
16.1367430653
 20
30.013071666
 10
16.1106360144
 20
29.9718945961
 10
16.0857320413
 20
29.9314969246
 10
16.0620576018
 20
29.8918345715
 10
16.0393706419
 20
29.8529150436
 10
16.0176151678
 20
29.8147404807
 10
15.9968471733
 20
29.7773091388
 10
15.9769925858
 20
29.740622685
 10
15.9580438486
 20
29.7046507873
 10
15.9400085184
 20
29.6694241106
 10
15.922835192
 20
29.6350358155
 10
15.9065141625
 20
29.6014521421
 10
15.8910551368
 20
29.5687071507
 10
15.8764358331
 20
29.5369957528
 10
15.8626748494
 20
29.5063555963
 10
15.8497535876
 20
29.47674932
 10
15.8375939711
 20
29.4482593339
 10
15.8262311353
 20
29.4209873399
 10
15.8156299449
 20
29.3948318768
 10
15.8056069165
 20
29.3695705866
 10
15.7961703209
 20
29.3452616901
 10
15.7873118873
 20
29.321847123
 10
15.7788233203
 20
29.2989300513
 10
15.7706737308
 20
29.2764590679
 10
15.7628940079
 20
29.2544856603
 10
15.7553685239
 20
29.2327672971
 10
15.748100509
 20
29.2113414528
 10
15.741086733
 20
29.1901707022
 10
15.7342018783
 20
29.168900136
 10
15.7274321747
 20
29.1475031866
 10
15.7207913923
 20
29.1260064369
 10
15.7141955238
 20
29.104134679
 10
15.7075408605
 20
29.0816053923
 10
15.7009311111
 20
29.0587010904
 10
15.6945933937
 20
29.0359941277
 10
15.6886208554
 20
29.0137481571
 10
15.6829203492
 20
28.9916995716
 10
15.6774395515
 20
28.9696298487
 10
15.6721712755
 20
28.9474989411
 10
15.6671227082
 20
28.925346921
 10
15.6622630861
 20
28.9030754377
 10
15.6575987628
 20
28.8807494552
 10
15.6531233848
 20
28.8583040329
 10
15.6487871283
 20
28.8354459564
 10
15.6445797783
 20
28.812178448
 10
15.6405115498
 20
28.7884983035
 10
15.6365632632
 20
28.7641026628
 10
15.6327240333
 20
28.7389929191
 10
15.6290047452
 20
28.7131677036
 10
15.6254188749
 20
28.6863200116
 10
15.6219550185
 20
28.6584550201
 10
15.6186245799
 20
28.6295675983
 10
15.6154752462
 20
28.5993352873
 10
15.6125229133
 20
28.5676506322
 10
15.6097516853
 20
28.534621182
 10
15.6071615623
 20
28.500247
  0
LWPOLYLINE
  5
375
100
AcDbEntity
  8
INTF_7
100
AcDbPolyline
 62
7
  6
CONTINUOUS
 90
54
 70
0
 10
73.0
 20
-8.25
 10
72.9058648575
 20
-8.251201619
 10
72.8117669151
 20
-8.2548084059
 10
72.7177792096
 20
-8.2608232553
 10
72.623974778
 20
-8.2692490619
 10
72.5310433495
 20
-8.2800099125
 10
72.4384265309
 20
-8.2931610038
 10
72.3461860044
 20
-8.3087105815
 10
72.2543834518
 20
-8.3266668908
 10
72.1642662996
 20
-8.3467584802
 10
72.0747073448
 20
-8.3692148831
 10
71.9857780385
 20
-8.3940483301
 10
71.8975498315
 20
-8.4212710518
 10
71.8117442764
 20
-8.4503124011
 10
71.7267613336
 20
-8.4816789622
 10
71.6426800418
 20
-8.5153845156
 10
71.5595794393
 20
-8.5514428415
 10
71.4795099148
 20
-8.5889113662
 10
71.4005394205
 20
-8.6286451371
 10
71.3227578363
 20
-8.6706557959
 10
71.2462550421
 20
-8.7149549843
 10
71.1732345836
 20
-8.7602003151
 10
71.1016074393
 20
-8.8076216256
 10
71.0314747627
 20
-8.857223305
 10
70.9629377075
 20
-8.9090097423
 10
70.8981550442
 20
-8.9612695797
 10
70.8350762885
 20
-9.0155751681
 10
70.7738125838
 20
-9.0719173042
 10
70.7144750734
 20
-9.1302867847
 10
70.669921818
 20
-9.1768707495
 10
70.6266498682
 20
-9.2246494536
 10
70.5847188793
 20
-9.2736074968
 10
70.5441885063
 20
-9.323729479
 10
70.5051184045
 20
-9.375
 10
70.4686965811
 20
-9.4257783359
 10
70.4337608773
 20
-9.4775925725
 10
70.4003692298
 20
-9.5304138689
 10
70.3685795756
 20
-9.5842133841
 10
70.3384498514
 20
-9.6389622772
 10
70.3107697931
 20
-9.6931373561
 10
70.284767197
 20
-9.7481395362
 10
70.2604917609
 20
-9.8039236639
 10
70.2379931824
 20
-9.8604445859
 10
70.2173211593
 20
-9.9176571485
 10
70.1988762724
 20
-9.9743646015
 10
70.1822682005
 20
-10.0316387288
 10
70.1675309435
 20
-10.0894250215
 10
70.1546985012
 20
-10.1476689707
 10
70.1438048737
 20
-10.2063160675
 10
70.1349646865
 20
-10.2646807202
 10
70.1280678543
 20
-10.32330905
 10
70.1231265161
 20
-10.3821234467
 10
70.1201528111
 20
-10.4410463001
 10
70.1191588785
 20
-10.5
  0
LWPOLYLINE
  5
376
100
AcDbEntity
  8
INTF_1
100
AcDbPolyline
 62
7
  6
CONTINUOUS
 90
82
 70
0
 10
74.7707032278
 20
-10.0345598585
 10
74.7632659607
 20
-10.0346434955
 10
74.7557946836
 20
-10.0347758556
 10
74.7482960612
 20
-10.0349657473
 10
74.740776758
 20
-10.0352219791
 10
74.7332434385
 20
-10.0355533596
 10
74.7257027673
 20
-10.0359686974
 10
74.7181614089
 20
-10.036476801
 10
74.710626028
 20
-10.037086479
 10
74.703103289
 20
-10.03780654
 10
74.6955998565
 20
-10.0386457925
 10
74.6881223951
 20
-10.0396130451
 10
74.6806775693
 20
-10.0407171064
 10
74.6732720437
 20
-10.0419667849
 10
74.6659124828
 20
-10.0433708892
 10
74.6586055512
 20
-10.0449382278
 10
74.6513579134
 20
-10.0466776094
 10
74.6441762341
 20
-10.0485978424
 10
74.6370671777
 20
-10.0507077356
 10
74.6300374088
 20
-10.0530160973
 10
74.623093592
 20
-10.0555317362
 10
74.6162423917
 20
-10.0582634609
 10
74.6094904727
 20
-10.0612200799
 10
74.6028444994
 20
-10.0644104017
 10
74.5963111364
 20
-10.0678432351
 10
74.5898970482
 20
-10.0715273884
 10
74.5836088994
 20
-10.0754716703
 10
74.5774533545
 20
-10.0796848893
 10
74.5714370782
 20
-10.0841758541
 10
74.5667973024
 20
-10.0879163143
 10
74.5622579652
 20
-10.0918275997
 10
74.5578287902
 20
-10.0959024073
 10
74.553519501
 20
-10.1001334342
 10
74.5493398212
 20
-10.1045133776
 10
74.5452994745
 20
-10.1090349346
 10
74.5414081844
 20
-10.1136908024
 10
74.5376756746
 20
-10.118473678
 10
74.5341116686
 20
-10.1233762586
 10
74.5307258902
 20
-10.1283912412
 10
74.5275280628
 20
-10.1335113232
 10
74.5245279102
 20
-10.1387292015
 10
74.521735156
 20
-10.1440375732
 10
74.5191595236
 20
-10.1494291356
 10
74.5168107369
 20
-10.1548965857
 10
74.5146985194
 20
-10.1604326207
 10
74.5128325946
 20
-10.1660299377
 10
74.5112226863
 20
-10.1716812338
 10
74.509878518
 20
-10.1773792062
 10
74.5088098133
 20
-10.1831165519
 10
74.508026296
 20
-10.1888859681
 10
74.5075376895
 20
-10.194680152
 10
74.5073537174
 20
-10.2004918006
 10
74.507481135
 20
-10.2063134025
 10
74.5079146735
 20
-10.2121317934
 10
74.5086460087
 20
-10.2179335972
 10
74.5096668168
 20
-10.2237054383
 10
74.5109687737
 20
-10.2294339407
 10
74.5125435556
 20
-10.2351057287
 10
74.5143828383
 20
-10.2407074265
 10
74.5164782979
 20
-10.2462256581
 10
74.5188216104
 20
-10.2516470479
 10
74.5214044518
 20
-10.2569582199
 10
74.5242184981
 20
-10.2621457983
 10
74.5272554254
 20
-10.2671964073
 10
74.5305069096
 20
-10.2720966712
 10
74.5339646268
 20
-10.276833214
 10
74.5379972592
 20
-10.2818439405
 10
74.5422550037
 20
-10.2866456843
 10
74.5467233353
 20
-10.2912439
 10
74.5513877285
 20
-10.2956440421
 10
74.5562336582
 20
-10.2998515652
 10
74.561246599
 20
-10.3038719238
 10
74.5664120257
 20
-10.3077105724
 10
74.5717154131
 20
-10.3113729656
 10
74.5771422359
 20
-10.314864558
 10
74.5826779688
 20
-10.3181908039
 10
74.5883080866
 20
-10.3213571581
 10
74.594018064
 20
-10.324369075
 10
74.5997933757
 20
-10.3272320092
 10
74.6056194965
 20
-10.3299514152
 10
74.6114819011
 20
-10.3325327476
 10
74.6173660643
 20
-10.3349814608
  0
LINE
  5
377
100
AcDbEntity
  8
INTF_1
100
AcDbLine
 62
7
  6
CONTINUOUS
 10
74.785449074
 20
-10.0345035191
 11
74.7707032278
 21
-10.0345598585
  0
LINE
  5
378
100
AcDbEntity
  8
0
100
AcDbLine
 62
250
  6
CONTINUOUS
 10
86.4104032874
 20
-7.3314391493
 11
84.907893777
 21
-7.3314391493
  0
LINE
  5
379
100
AcDbEntity
  8
0
100
AcDbLine
 62
250
  6
CONTINUOUS
 10
-84.907893777
 20
-7.3314391493
 11
-86.4104032874
 21
-7.3314391493
  0
LINE
  5
37A
100
AcDbEntity
  8
0
100
AcDbLine
 62
250
  6
CONTINUOUS
 10
86.4137946415
 20
-6.7204858869
 11
84.911357164
 21
-6.7204858869
  0
LINE
  5
37B
100
AcDbEntity
  8
0
100
AcDbLine
 62
250
  6
CONTINUOUS
 10
-84.911357164
 20
-6.7204858869
 11
-86.4137946415
 21
-6.7204858869
  0
LWPOLYLINE
  5
37C
100
AcDbEntity
  8
0
100
AcDbPolyline
 62
7
  6
CONTINUOUS
 90
34
 70
0
 10
74.785449074
 20
-10.0345035191
 10
74.7606323083
 20
-10.0343650535
 10
74.7365877723
 20
-10.0351494065
 10
74.7133154661
 20
-10.0368565778
 10
74.6907410546
 20
-10.0393436141
 10
74.6689388728
 20
-10.0427534678
 10
74.6481319263
 20
-10.0475149972
 10
74.6282093669
 20
-10.0538131418
 10
74.6092820428
 20
-10.0614629581
 10
74.5919055049
 20
-10.0703384784
 10
74.5762444129
 20
-10.0805949583
 10
74.5621341071
 20
-10.092077136
 10
74.5496361587
 20
-10.1041932689
 10
74.5387743213
 20
-10.1169006294
 10
74.5295248413
 20
-10.1302419411
 10
74.521878029
 20
-10.1437536409
 10
74.5158249214
 20
-10.1573987864
 10
74.5113744816
 20
-10.1712143188
 10
74.5085439094
 20
-10.1848475033
 10
74.5074283512
 20
-10.1982468643
 10
74.5079326607
 20
-10.2114638788
 10
74.5097885986
 20
-10.2243002434
 10
74.5129680957
 20
-10.2367379885
 10
74.5174992211
 20
-10.2487950863
 10
74.5231979432
 20
-10.2603271471
 10
74.5300602904
 20
-10.271345295
 10
74.5380902343
 20
-10.2818384089
 10
74.5471156573
 20
-10.2916287325
 10
74.557244482
 20
-10.3006672072
 10
74.568368786
 20
-10.3090028951
 10
74.5799926846
 20
-10.3166052207
 10
74.5919508831
 20
-10.3234639932
 10
74.6044086764
 20
-10.3295894062
 10
74.6173660643
 20
-10.3349814608
  0
LWPOLYLINE
  5
37D
100
AcDbEntity
  8
INTF_1
100
AcDbPolyline
 62
7
  6
CONTINUOUS
 90
56
 70
0
 10
74.8098876712
 20
-11.1988653834
 10
74.7961583894
 20
-11.1987863981
 10
74.7823345244
 20
-11.19854307
 10
74.7684307933
 20
-11.1981258401
 10
74.754461913
 20
-11.1975251498
 10
74.7404426007
 20
-11.1967314403
 10
74.7263875734
 20
-11.1957351528
 10
74.712311548
 20
-11.1945267286
 10
74.6982292417
 20
-11.193096609
 10
74.6841553715
 20
-11.191435235
 10
74.6701046545
 20
-11.1895330481
 10
74.6560918076
 20
-11.1873804895
 10
74.6421315479
 20
-11.1849680004
 10
74.6282385925
 20
-11.182286022
 10
74.6144276583
 20
-11.1793249956
 10
74.6007134625
 20
-11.1760753624
 10
74.587110722
 20
-11.1725275637
 10
74.573634154
 20
-11.1686720408
 10
74.5602984753
 20
-11.1644992348
 10
74.5471184032
 20
-11.159999587
 10
74.5341086546
 20
-11.1551635386
 10
74.5212839466
 20
-11.149981531
 10
74.5086589961
 20
-11.1444440053
 10
74.4962485203
 20
-11.1385414028
 10
74.4840672362
 20
-11.1322641647
 10
74.4721298608
 20
-11.1256027323
 10
74.4604511112
 20
-11.1185475469
 10
74.4490457044
 20
-11.1110890496
 10
74.4379283574
 20
-11.1032176817
 10
74.4271137873
 20
-11.0949238844
 10
74.4167480168
 20
-11.0863182115
 10
74.4066919094
 20
-11.0773095477
 10
74.3969457901
 20
-11.0679157936
 10
74.3875099837
 20
-11.0581548497
 10
74.3783848151
 20
-11.0480446166
 10
74.3695706092
 20
-11.0376029949
 10
74.3610676907
 20
-11.0268478852
 10
74.3528763846
 20
-11.0157971881
 10
74.3449970157
 20
-11.004468804
 10
74.3374299088
 20
-10.9928806336
 10
74.3301753889
 20
-10.9810505774
 10
74.3232337808
 20
-10.9689965361
 10
74.3166054094
 20
-10.9567364101
 10
74.3102905995
 20
-10.9442881001
 10
74.3042896759
 20
-10.9316695067
 10
74.2986029636
 20
-10.9188985303
 10
74.2932307874
 20
-10.9059930716
 10
74.2881734721
 20
-10.8929710311
 10
74.2834313427
 20
-10.8798503094
 10
74.2790047239
 20
-10.8666488071
 10
74.2748939406
 20
-10.8533844248
 10
74.2710993178
 20
-10.8400750629
 10
74.2676211802
 20
-10.8267386222
 10
74.2644598528
 20
-10.8133930031
 10
74.2616156603
 20
-10.8000561063
 10
74.2590889276
 20
-10.7867458323
  0
LWPOLYLINE
  5
37E
100
AcDbEntity
  8
0
100
AcDbPolyline
 62
7
  6
CONTINUOUS
 90
31
 70
0
 10
74.8098876712
 20
-11.1988653834
 10
74.7845952861
 20
-11.1986699146
 10
74.7593714987
 20
-11.1978199215
 10
74.7342163091
 20
-11.196315404
 10
74.7091162647
 20
-11.1942145811
 10
74.6840848181
 20
-11.1914592331
 10
74.6591623269
 20
-11.187874701
 10
74.6343323887
 20
-11.1834877268
 10
74.609611406
 20
-11.1782715668
 10
74.5850889435
 20
-11.1719713329
 10
74.5606699654
 20
-11.1645808289
 10
74.5364495076
 20
-11.156106247
 10
74.5128022431
 20
-11.1463112805
 10
74.4897097433
 20
-11.135158507
 10
74.4671904369
 20
-11.1226853413
 10
74.4456742831
 20
-11.1087677317
 10
74.4252318555
 20
-11.0932554301
 10
74.4057925804
 20
-11.0762986726
 10
74.3875746963
 20
-11.058224134
 10
74.3706627734
 20
-11.0389867696
 10
74.3549722415
 20
-11.0186316125
 10
74.340467628
 20
-10.9976204587
 10
74.3271826357
 20
-10.9760422425
 10
74.3150835619
 20
-10.9538080223
 10
74.3040338255
 20
-10.931112784
 10
74.2940030626
 20
-10.9079809282
 10
74.285021637
 20
-10.8843880488
 10
74.2770440596
 20
-10.8604559234
 10
74.2700551674
 20
-10.8362251437
 10
74.2640701234
 20
-10.811655114
 10
74.2590889276
 20
-10.7867458323
  0
LWPOLYLINE
  5
37F
100
AcDbEntity
  8
0
100
AcDbPolyline
 62
7
  6
CONTINUOUS
 90
37
 70
0
 10
73.0
 20
-12.75
 10
72.8241548206
 20
-12.7449090261
 10
72.6535736769
 20
-12.7329817629
 10
72.488256569
 20
-12.7142181845
 10
72.3278913427
 20
-12.6880632924
 10
72.1727901522
 20
-12.655071986
 10
72.02388946
 20
-12.6169090829
 10
71.8813229481
 20
-12.5735763401
 10
71.7449569345
 20
-12.52507187
 10
71.6153268357
 20
-12.4730550531
 10
71.4924733107
 20
-12.4174640943
 10
71.3763557004
 20
-12.358360674
 10
71.2673874436
 20
-12.2975894388
 10
71.1660634032
 20
-12.2354585483
 10
71.0718887162
 20
-12.1716597881
 10
70.9837922331
 20
-12.1071132938
 10
70.9018450183
 20
-12.0420695906
 10
70.8259760073
 20
-11.976278132
 10
70.7549008576
 20
-11.9099074677
 10
70.6885464835
 20
-11.8431463895
 10
70.6269859705
 20
-11.7758060902
 10
70.5691542333
 20
-11.7074887158
 10
70.5149257565
 20
-11.6383711355
 10
70.4644260554
 20
-11.568276449
 10
70.4169665905
 20
-11.4962761211
 10
70.3722138242
 20
-11.4221087802
 10
70.330501294
 20
-11.3460357216
 10
70.292141074
 20
-11.267912388
 10
70.2570238134
 20
-11.1874609698
 10
70.225258863
 20
-11.1049591901
 10
70.1974863483
 20
-11.0210958032
 10
70.1738016368
 20
-10.9357558744
 10
70.1541093611
 20
-10.8490542836
 10
70.138763545
 20
-10.7620245464
 10
70.1278821965
 20
-10.6750111771
 10
70.1213473077
 20
-10.5876696623
 10
70.1191588785
 20
-10.5
  0
LWPOLYLINE
  5
380
100
AcDbEntity
  8
0
100
AcDbPolyline
 62
7
  6
CONTINUOUS
 90
37
 70
0
 10
73.0
 20
-8.25
 10
73.1758670432
 20
-8.2550931926
 10
73.346464523
 20
-8.267022773
 10
73.5117924393
 20
-8.2857887246
 10
73.672161907
 20
-8.3119462167
 10
73.8272618112
 20
-8.3449400149
 10
73.9761588074
 20
-8.3831044938
 10
74.1187195801
 20
-8.4264374445
 10
74.2550774446
 20
-8.4749409872
 10
74.384699003
 20
-8.5269560087
 10
74.5075436511
 20
-8.5825439061
 10
74.6236519929
 20
-8.6416431995
 10
74.7326124431
 20
-8.7024104946
 10
74.8339306868
 20
-8.7645377047
 10
74.9281010388
 20
-8.8283328713
 10
75.0161948582
 20
-8.8928768274
 10
75.0981414839
 20
-8.957919398
 10
75.1740115771
 20
-9.0237107347
 10
75.2450884801
 20
-9.0900821756
 10
75.3114451929
 20
-9.1568450047
 10
75.3730087155
 20
-9.2241879177
 10
75.4308433905
 20
-9.2925083663
 10
75.4850746241
 20
-9.3616294498
 10
75.5355770101
 20
-9.4317280345
 10
75.5830386718
 20
-9.5037322014
 10
75.6277930313
 20
-9.5779032093
 10
75.6695066665
 20
-9.6539797243
 10
75.7078674353
 20
-9.7321059177
 10
75.7429845747
 20
-9.8125594745
 10
75.7747488476
 20
-9.8950626196
 10
75.8025204012
 20
-9.9789263432
 10
75.8262037948
 20
-10.0642654554
 10
75.8458944691
 20
-10.1509650776
 10
75.8612388921
 20
-10.237991701
 10
75.8721192198
 20
-10.325000824
 10
75.8786532963
 20
-10.412336928
 10
75.8808411215
 20
-10.5
  0
LINE
  5
381
100
AcDbEntity
  8
0
100
AcDbLine
 62
7
  6
CONTINUOUS
 10
-0.25
 20
-23.1
 11
-0.25
 21
-37.7
  0
LINE
  5
382
100
AcDbEntity
  8
0
100
AcDbLine
 62
7
  6
CONTINUOUS
 10
-0.25
 20
-37.95
 11
-0.25
 21
-39.497941481
  0
LINE
  5
383
100
AcDbEntity
  8
0
100
AcDbLine
 62
7
  6
CONTINUOUS
 10
-0.25
 20
23.1
 11
-0.25
 21
37.7
  0
LINE
  5
384
100
AcDbEntity
  8
0
100
AcDbLine
 62
7
  6
CONTINUOUS
 10
-0.25
 20
37.95
 11
-0.25
 21
39.497941481
  0
LINE
  5
385
100
AcDbEntity
  8
0
100
AcDbLine
 62
7
  6
CONTINUOUS
 10
0.25
 20
-39.497941481
 11
0.25
 21
-37.95
  0
LINE
  5
386
100
AcDbEntity
  8
0
100
AcDbLine
 62
7
  6
CONTINUOUS
 10
0.25
 20
-23.1
 11
0.25
 21
-37.7
  0
LINE
  5
387
100
AcDbEntity
  8
0
100
AcDbLine
 62
7
  6
CONTINUOUS
 10
0.25
 20
23.1
 11
0.25
 21
37.7
  0
LINE
  5
388
100
AcDbEntity
  8
0
100
AcDbLine
 62
7
  6
CONTINUOUS
 10
0.25
 20
37.95
 11
0.25
 21
39.497941481
  0
LWPOLYLINE
  5
389
100
AcDbEntity
  8
0
100
AcDbPolyline
 62
7
  6
CONTINUOUS
 90
76
 70
0
 10
13.6562288055
 20
29.5768203935
 10
13.6728164644
 20
29.6011187569
 10
13.6902126035
 20
29.6244153087
 10
13.7084172227
 20
29.6467101153
 10
13.7274468363
 20
29.6680514504
 10
13.74728493
 20
29.6883911713
 10
13.7678819614
 20
29.707584731
 10
13.7892435643
 20
29.7256045117
 10
13.8113641049
 20
29.7424782815
 10
13.8341771396
 20
29.7581445836
 10
13.8577253882
 20
29.7725537126
 10
13.881966131
 20
29.7857555147
 10
13.9067047643
 20
29.7978378548
 10
13.9319122254
 20
29.808848898
 10
13.9576175771
 20
29.8187405824
 10
13.9837134046
 20
29.8274564236
 10
14.0102877453
 20
29.8350037718
 10
14.0372525618
 20
29.8413753577
 10
14.0642363272
 20
29.8464927647
 10
14.0909142249
 20
29.8503171558
 10
14.1176110716
 20
29.8528874174
 10
14.1449297903
 20
29.8542417088
 10
14.1732256203
 20
29.8544517836
 10
14.2021433224
 20
29.8534458965
 10
14.2312201016
 20
29.8510469476
 10
14.26017498
 20
29.84736725
 10
14.2892889356
 20
29.8422944544
 10
14.3189421074
 20
29.835314442
 10
14.3495512345
 20
29.826306316
 10
14.3806995778
 20
29.8153908393
 10
14.4115170593
 20
29.8024163414
 10
14.4421833956
 20
29.7869856813
 10
14.47251887
 20
29.7694957446
 10
14.5011142551
 20
29.7509859469
 10
14.5275137383
 20
29.7315235007
 10
14.552173132
 20
29.7110410578
 10
14.5750506463
 20
29.6903763307
 10
14.596024809
 20
29.6697514119
 10
14.6152170923
 20
29.6489442137
 10
14.6329501228
 20
29.6281262599
 10
14.649200149
 20
29.607419441
 10
14.6639909223
 20
29.5867018932
 10
14.6777163235
 20
29.5657795073
 10
14.6904354818
 20
29.5446616044
 10
14.7020892679
 20
29.5233388581
 10
14.7128941743
 20
29.5015891595
 10
14.7229257849
 20
29.4792829807
 10
14.7321085158
 20
29.4565498117
 10
14.7404321077
 20
29.4335560687
 10
14.7478739295
 20
29.4103211119
 10
14.7544566123
 20
29.3868255781
 10
14.7602377896
 20
29.363177817
 10
14.7652054945
 20
29.3394961015
 10
14.7693716939
 20
29.3156621777
 10
14.7728299217
 20
29.2914295979
 10
14.7756126558
 20
29.2667154992
 10
14.7776874183
 20
29.2416027323
 10
14.7790503092
 20
29.2160934077
 10
14.7797313865
 20
29.1900927203
 10
14.7797005921
 20
29.1636954724
 10
14.7788638527
 20
29.1371882021
 10
14.7772569515
 20
29.1107825113
 10
14.7748441052
 20
29.0842668403
 10
14.7714238903
 20
29.0572929855
 10
14.7669590299
 20
29.0295944182
 10
14.761486801
 20
29.001437674
 10
14.7549176104
 20
28.9732741506
 10
14.7472005155
 20
28.9451282369
 10
14.7383864589
 20
28.9169755993
 10
14.7285386764
 20
28.8891945783
 10
14.7176900196
 20
28.8618903553
 10
14.7058076368
 20
28.8349578195
 10
14.6928562082
 20
28.8084598821
 10
14.6787657602
 20
28.7822404334
 10
14.6636062664
 20
28.7564556392
 10
14.6475523268
 20
28.7316368278
  0
LWPOLYLINE
  5
38A
100
AcDbEntity
  8
0
100
AcDbPolyline
 62
7
  6
CONTINUOUS
 90
76
 70
0
 10
16.900188559
 20
29.5768203935
 10
16.916776218
 20
29.6011187569
 10
16.9341723571
 20
29.6244153088
 10
16.9523769764
 20
29.6467101155
 10
16.97140659
 20
29.6680514506
 10
16.9912446837
 20
29.6883911715
 10
17.0118417152
 20
29.7075847312
 10
17.0332033182
 20
29.725604512
 10
17.0553238588
 20
29.7424782818
 10
17.0781368936
 20
29.7581445839
 10
17.1016851423
 20
29.7725537129
 10
17.1259258851
 20
29.785755515
 10
17.1506645185
 20
29.7978378551
 10
17.1758719796
 20
29.8088488982
 10
17.2015773314
 20
29.8187405827
 10
17.227673159
 20
29.8274564239
 10
17.2542474997
 20
29.835003772
 10
17.2812123163
 20
29.8413753579
 10
17.3081960817
 20
29.8464927648
 10
17.3348739795
 20
29.8503171559
 10
17.3615708263
 20
29.8528874175
 10
17.3888895451
 20
29.8542417088
 10
17.4171853752
 20
29.8544517836
 10
17.4461030773
 20
29.8534458964
 10
17.4751798566
 20
29.8510469474
 10
17.5041347351
 20
29.8473672498
 10
17.5332486908
 20
29.8422944541
 10
17.5629018627
 20
29.8353144415
 10
17.5935109898
 20
29.8263063154
 10
17.6246593332
 20
29.8153908385
 10
17.6554768148
 20
29.8024163405
 10
17.6861431511
 20
29.7869856802
 10
17.7164786255
 20
29.7694957434
 10
17.7450740105
 20
29.7509859455
 10
17.7714734936
 20
29.7315234993
 10
17.7961328873
 20
29.7110410563
 10
17.8190104015
 20
29.6903763292
 10
17.8399845641
 20
29.6697514102
 10
17.8591768473
 20
29.648944212
 10
17.8769098777
 20
29.6281262582
 10
17.8931599038
 20
29.6074194393
 10
17.9079506771
 20
29.5867018914
 10
17.9216760782
 20
29.5657795054
 10
17.9343952364
 20
29.5446616025
 10
17.9460490225
 20
29.5233388561
 10
17.9568539288
 20
29.5015891574
 10
17.9668855394
 20
29.4792829785
 10
17.9760682702
 20
29.4565498095
 10
17.984391862
 20
29.4335560663
 10
17.9918336838
 20
29.4103211095
 10
17.9984163665
 20
29.3868255757
 10
18.0041975437
 20
29.3631778145
 10
18.0091652486
 20
29.3394960989
 10
18.0133314479
 20
29.315662175
 10
18.0167896756
 20
29.2914295951
 10
18.0195724096
 20
29.2667154963
 10
18.021647172
 20
29.2416027293
 10
18.0230100629
 20
29.2160934046
 10
18.02369114
 20
29.1900927172
 10
18.0236603456
 20
29.1636954691
 10
18.0228236061
 20
29.1371881987
 10
18.0212167048
 20
29.1107825079
 10
18.0188038583
 20
29.0842668368
 10
18.0153836433
 20
29.0572929818
 10
18.0109187828
 20
29.0295944145
 10
18.0054465537
 20
29.0014376702
 10
17.998877363
 20
28.9732741467
 10
17.9911602679
 20
28.945128233
 10
17.9823462112
 20
28.9169755953
 10
17.9724984284
 20
28.8891945744
 10
17.9616497715
 20
28.8618903513
 10
17.9497673885
 20
28.8349578155
 10
17.9368159597
 20
28.8084598781
 10
17.9227255116
 20
28.7822404294
 10
17.9075660176
 20
28.7564556353
 10
17.8915120777
 20
28.731636824
  0
LWPOLYLINE
  5
38B
100
AcDbEntity
  8
0
100
AcDbPolyline
 62
7
  6
CONTINUOUS
 90
109
 70
0
 10
14.6475523268
 20
28.7316368278
 10
14.6305318179
 20
28.7078345963
 10
14.6126168632
 20
28.6849983953
 10
14.5941984328
 20
28.6635078332
 10
14.5752303092
 20
28.6434487
 10
14.5557587099
 20
28.6247352283
 10
14.5363132567
 20
28.607489684
 10
14.5169164835
 20
28.5918021565
 10
14.4975458566
 20
28.5775825576
 10
14.4786633956
 20
28.5646828837
 10
14.4604116024
 20
28.5531751177
 10
14.4426479753
 20
28.5429872694
 10
14.4254070286
 20
28.533755377
 10
14.4087620271
 20
28.5254586137
 10
14.3926397061
 20
28.5181178001
 10
14.3768547851
 20
28.5114314471
 10
14.3614328694
 20
28.5053664956
 10
14.3463483536
 20
28.4999560008
 10
14.3313391412
 20
28.4949976469
 10
14.3163770438
 20
28.490452551
 10
14.3014902496
 20
28.4863595936
 10
14.286501227
 20
28.482633105
 10
14.2712995257
 20
28.4792437743
 10
14.2559955959
 20
28.4762209109
 10
14.2407432572
 20
28.4735667757
 10
14.2255973517
 20
28.4712955082
 10
14.2105030372
 20
28.4693929678
 10
14.195449607
 20
28.4678189955
 10
14.180278987
 20
28.466575009
 10
14.1651492512
 20
28.46565959
 10
14.1505239148
 20
28.4650283252
 10
14.136767409
 20
28.4646851926
 10
14.1235153025
 20
28.4646262139
 10
14.1101378165
 20
28.4647950419
 10
14.0963728598
 20
28.46516885
 10
14.0824825235
 20
28.4657704649
 10
14.068623303
 20
28.4666120194
 10
14.0548515687
 20
28.4676919567
 10
14.0411109502
 20
28.469011834
 10
14.027388831
 20
28.4705884552
 10
14.0136727884
 20
28.472423159
 10
13.9999752451
 20
28.4745146074
 10
13.9863208524
 20
28.476875589
 10
13.9727489083
 20
28.4794950449
 10
13.9592201149
 20
28.4823840349
 10
13.9456412298
 20
28.485588527
 10
13.9320377907
 20
28.4890879837
 10
13.91838426
 20
28.4929029437
 10
13.9045107826
 20
28.4971409896
 10
13.8904069049
 20
28.5017837801
 10
13.8760830806
 20
28.5068496584
 10
13.8614008158
 20
28.5125012353
 10
13.8463398865
 20
28.5187213045
 10
13.8309205168
 20
28.5255270755
 10
13.8150648848
 20
28.5331327837
 10
13.798707977
 20
28.5415543221
 10
13.7819148069
 20
28.5507758026
 10
13.7648025937
 20
28.5609637907
 10
13.7473432045
 20
28.5721401872
 10
13.729564772
 20
28.5842830961
 10
13.7116689141
 20
28.5974933882
 10
13.6936501403
 20
28.6117977996
 10
13.6755139409
 20
28.6271695948
 10
13.6574784051
 20
28.643629435
 10
13.639500232
 20
28.6611619637
 10
13.6216227224
 20
28.6797825279
 10
13.6041938682
 20
28.6995578405
 10
13.587253852
 20
28.7204542385
 10
13.5707624911
 20
28.7425053577
 10
13.554947229
 20
28.7658788525
 10
13.539863338
 20
28.790624176
 10
13.5254555458
 20
28.8166918158
 10
13.511785478
 20
28.8441009675
 10
13.4988533323
 20
28.8728781484
 10
13.486658911
 20
28.9029967351
 10
13.4752632476
 20
28.9343962001
 10
13.4646732035
 20
28.9671136698
 10
13.4548819173
 20
29.0011118524
 10
13.4459298374
 20
29.0362185847
 10
13.4378339021
 20
29.0724404408
 10
13.4305771732
 20
29.1097706246
 10
13.4241492839
 20
29.1480169171
 10
13.4185571677
 20
29.1873344031
 10
13.4137938911
 20
29.2275677183
 10
13.4098282871
 20
29.268059018
 10
13.4066951328
 20
29.3087396911
 10
13.4043596511
 20
29.3496781403
 10
13.4026863443
 20
29.3904221359
 10
13.4016640546
 20
29.4306753306
 10
13.4013039398
 20
29.4707339711
 10
13.4015039754
 20
29.5110347165
 10
13.4021896664
 20
29.5516918642
 10
13.4034355078
 20
29.5925908811
 10
13.4053629604
 20
29.6338251106
 10
13.4079280356
 20
29.6753580623
 10
13.4111747221
 20
29.7172259544
 10
13.4153564464
 20
29.7596311421
 10
13.4204240926
 20
29.8026270936
 10
13.4264267767
 20
29.8461599542
 10
13.4337652733
 20
29.8902710411
 10
13.4423601343
 20
29.9350099644
 10
13.4522908079
 20
29.9803266551
 10
13.4641964134
 20
30.0261129124
 10
13.4780328866
 20
30.0725968526
 10
13.4938442919
 20
30.1195498597
 10
13.512401941
 20
30.1661788434
 10
13.533922984
 20
30.2128229748
 10
13.5581902708
 20
30.2591429394
 10
13.5853236637
 20
30.3033286094
  0
LWPOLYLINE
  5
38C
100
AcDbEntity
  8
0
100
AcDbPolyline
 62
7
  6
CONTINUOUS
 90
109
 70
0
 10
17.8915120777
 20
28.731636824
 10
17.8744915687
 20
28.7078345926
 10
17.8565766139
 20
28.6849983917
 10
17.8381581833
 20
28.6635078298
 10
17.8191900596
 20
28.6434486968
 10
17.7997184602
 20
28.6247352253
 10
17.7802730069
 20
28.6074896812
 10
17.7608762338
 20
28.5918021539
 10
17.7415056068
 20
28.5775825552
 10
17.7226231458
 20
28.5646828816
 10
17.7043713527
 20
28.5531751157
 10
17.6866077257
 20
28.5429872677
 10
17.669366779
 20
28.5337553754
 10
17.6527217776
 20
28.5254586123
 10
17.6365994567
 20
28.5181177988
 10
17.6208145356
 20
28.5114314458
 10
17.60539262
 20
28.5053664945
 10
17.5903081042
 20
28.4999559998
 10
17.5752988918
 20
28.4949976459
 10
17.5603367943
 20
28.4904525501
 10
17.5454500001
 20
28.4863595928
 10
17.5304609775
 20
28.4826331043
 10
17.5152592761
 20
28.4792437737
 10
17.4999553463
 20
28.4762209103
 10
17.4847030076
 20
28.4735667752
 10
17.469557102
 20
28.4712955078
 10
17.4544627875
 20
28.4693929674
 10
17.4394093573
 20
28.4678189951
 10
17.4242387373
 20
28.4665750088
 10
17.4091090016
 20
28.4656595899
 10
17.3944836652
 20
28.4650283251
 10
17.3807271594
 20
28.4646851925
 10
17.3674750529
 20
28.4646262139
 10
17.354097567
 20
28.464795042
 10
17.3403326102
 20
28.4651688501
 10
17.3264422738
 20
28.4657704651
 10
17.3125830533
 20
28.4666120196
 10
17.298811319
 20
28.467691957
 10
17.2850707005
 20
28.4690118343
 10
17.2713485812
 20
28.4705884556
 10
17.2576325386
 20
28.4724231595
 10
17.2439349952
 20
28.4745146079
 10
17.2302806026
 20
28.4768755897
 10
17.2167086584
 20
28.4794950455
 10
17.203179865
 20
28.4823840356
 10
17.1896009799
 20
28.4855885278
 10
17.1759975407
 20
28.4890879846
 10
17.1623440099
 20
28.4929029448
 10
17.1484705325
 20
28.4971409908
 10
17.1343666547
 20
28.5017837813
 10
17.1200428303
 20
28.5068496598
 10
17.1053605653
 20
28.5125012369
 10
17.0902996359
 20
28.5187213062
 10
17.0748802661
 20
28.5255270774
 10
17.0590246339
 20
28.5331327859
 10
17.042667726
 20
28.5415543245
 10
17.0258745558
 20
28.5507758053
 10
17.0087623424
 20
28.5609637937
 10
16.9913029531
 20
28.5721401905
 10
16.9735245205
 20
28.5842830997
 10
16.9556286625
 20
28.5974933921
 10
16.9376098886
 20
28.6117978039
 10
16.9194736892
 20
28.6271695994
 10
16.9014381534
 20
28.6436294399
 10
16.8834599803
 20
28.661161969
 10
16.8655824707
 20
28.6797825335
 10
16.8481536166
 20
28.6995578465
 10
16.8312136005
 20
28.720454245
 10
16.8147222398
 20
28.7425053646
 10
16.7989069778
 20
28.7658788599
 10
16.783823087
 20
28.7906241838
 10
16.769415295
 20
28.816691824
 10
16.7557452275
 20
28.8441009762
 10
16.7428130819
 20
28.8728781576
 10
16.7306186608
 20
28.9029967449
 10
16.7192229976
 20
28.9343962103
 10
16.7086329538
 20
28.9671136804
 10
16.6988416678
 20
29.0011118635
 10
16.6898895881
 20
29.0362185963
 10
16.6817936532
 20
29.0724404528
 10
16.6745369245
 20
29.109770637
 10
16.6681090355
 20
29.1480169299
 10
16.6625169195
 20
29.1873344162
 10
16.6577536432
 20
29.2275677317
 10
16.6537880395
 20
29.2680590316
 10
16.6506548854
 20
29.3087397048
 10
16.6483194039
 20
29.3496781541
 10
16.6466460974
 20
29.3904221498
 10
16.6456238079
 20
29.4306753446
 10
16.6452636933
 20
29.4707339852
 10
16.6454637291
 20
29.5110347306
 10
16.6461494203
 20
29.5516918786
 10
16.6473952619
 20
29.5925908956
 10
16.6493227147
 20
29.6338251254
 10
16.6518877902
 20
29.6753580772
 10
16.6551344769
 20
29.7172259696
 10
16.6593162016
 20
29.7596311576
 10
16.6643838482
 20
29.8026271094
 10
16.6703865326
 20
29.8461599702
 10
16.6777250298
 20
29.8902710575
 10
16.6863198913
 20
29.9350099811
 10
16.6962505655
 20
29.9803266721
 10
16.7081561717
 20
30.0261129297
 10
16.7219926458
 20
30.0725968701
 10
16.7378040519
 20
30.1195498774
 10
16.756361702
 20
30.1661788611
 10
16.7778827461
 20
30.2128229923
 10
16.8021500342
 20
30.2591429565
 10
16.8292834283
 20
30.303328626
  0
LWPOLYLINE
  5
38D
100
AcDbEntity
  8
0
100
AcDbPolyline
 62
7
  6
CONTINUOUS
 90
37
 70
0
 10
16.8292834283
 20
30.303328626
 10
16.859493539
 20
30.3451092309
 10
16.8925697558
 20
30.3847565062
 10
16.9280001087
 20
30.4212748188
 10
16.9660644943
 20
30.4545711452
 10
17.006483016
 20
30.4847398414
 10
17.0479040144
 20
30.5110666838
 10
17.0903757691
 20
30.5331494135
 10
17.1338500004
 20
30.5513915733
 10
17.1768302101
 20
30.5662875974
 10
17.2187073382
 20
30.5776501786
 10
17.2600904446
 20
30.5856672508
 10
17.3013102103
 20
30.5913958737
 10
17.3426313924
 20
30.5950883365
 10
17.3837892337
 20
30.5964924985
 10
17.4243201437
 20
30.5959086541
 10
17.4639470291
 20
30.5935864428
 10
17.5029469831
 20
30.5892761852
 10
17.5416876949
 20
30.5825291375
 10
17.5806011918
 20
30.5732700367
 10
17.6192554464
 20
30.5615738661
 10
17.6567220664
 20
30.5472171567
 10
17.6928862574
 20
30.530060637
 10
17.7278628138
 20
30.5102429914
 10
17.761067726
 20
30.4879576265
 10
17.7925043891
 20
30.463071801
 10
17.822169408
 20
30.4357174861
 10
17.8494685883
 20
30.4064852446
 10
17.8742253787
 20
30.3754346351
 10
17.8966163305
 20
30.3425054425
 10
17.9165769027
 20
30.3081087453
 10
17.9340279277
 20
30.272198601
 10
17.9490485732
 20
30.2348204241
 10
17.9618118011
 20
30.1965225353
 10
17.9723752653
 20
30.1574876748
 10
17.980681312
 20
30.1175328687
 10
17.9867299411
 20
30.0766579954
  0
LINE
  5
38E
100
AcDbEntity
  8
0
100
AcDbLine
 62
7
  6
CONTINUOUS
 10
84.2780663879
 20
-0.35
 11
63.7
 21
-0.35
  0
LINE
  5
38F
100
AcDbEntity
  8
0
100
AcDbLine
 62
7
  6
CONTINUOUS
 10
-63.7
 20
-0.35
 11
-84.2780663857
 21
-0.35
  0
LINE
  5
390
100
AcDbEntity
  8
0
100
AcDbLine
 62
7
  6
CONTINUOUS
 10
-84.278066388
 20
0.35
 11
-63.7
 21
0.35
  0
LINE
  5
391
100
AcDbEntity
  8
0
100
AcDbLine
 62
7
  6
CONTINUOUS
 10
63.7
 20
0.35
 11
84.2780663857
 21
0.35
  0
LWPOLYLINE
  5
392
100
AcDbEntity
  8
0
100
AcDbPolyline
 62
7
  6
CONTINUOUS
 90
16
 70
0
 10
-21.1747710095
 20
31.2132801407
 10
-21.1651563812
 20
31.1941693326
 10
-21.1568283536
 20
31.17466613
 10
-21.1497869269
 20
31.1547704704
 10
-21.1440536848
 20
31.1344163241
 10
-21.1396070435
 20
31.1136695864
 10
-21.1363822512
 20
31.0927281187
 10
-21.1347245647
 20
31.0716135471
 10
-21.1342887272
 20
31.0503041976
 10
-21.1339742166
 20
31.0289330459
 10
-21.1338095248
 20
31.0075596628
 10
-21.13376616
 20
30.9861244865
 10
-21.1326581249
 20
30.9645818107
 10
-21.1300900869
 20
30.9429163916
 10
-21.1264573786
 20
30.921143457
 10
-21.12176
 20
30.899263
  0
LWPOLYLINE
  5
393
100
AcDbEntity
  8
0
100
AcDbPolyline
 62
7
  6
CONTINUOUS
 90
7
 70
0
 10
-18.3975539889
 20
31.2132801407
 10
-18.3811706122
 20
31.1771458978
 10
-18.3670771203
 20
31.1399668699
 10
-18.3552735132
 20
31.1017427606
 10
-18.3457597907
 20
31.0624732744
 10
-18.338535953
 20
31.0221581179
 10
-18.333602
 20
30.980797
  0
LWPOLYLINE
  5
394
100
AcDbEntity
  8
0
100
AcDbPolyline
 62
7
  6
CONTINUOUS
 90
16
 70
0
 10
-11.1310676703
 20
31.2132801407
 10
-11.121934357
 20
31.1794757836
 10
-11.114849385
 20
31.1452953609
 10
-11.1098127541
 20
31.1107388034
 10
-11.1070313366
 20
31.0757031754
 10
-11.1062982603
 20
31.040291259
 10
-11.1069929088
 20
31.0048116627
 10
-11.1090816982
 20
30.9693243433
 10
-11.1125982125
 20
30.9337694279
 10
-11.1170225867
 20
30.8982759179
 10
-11.1222167976
 20
30.8628379254
 10
-11.1283188684
 20
30.8274614864
 10
-11.1352230036
 20
30.7922935685
 10
-11.142893938
 20
30.7573832545
 10
-11.1513669368
 20
30.7226816954
 10
-11.160642
 20
30.688189
  0
LWPOLYLINE
  5
395
100
AcDbEntity
  8
0
100
AcDbPolyline
 62
7
  6
CONTINUOUS
 90
7
 70
0
 10
-9.0149281972
 20
31.2132801407
 10
-9.0058179065
 20
31.1781843274
 10
-8.9981777401
 20
31.1417943941
 10
-8.9920076981
 20
31.104109963
 10
-8.9873077805
 20
31.0651306545
 10
-8.9840779872
 20
31.0248560877
 10
-8.9823183183
 20
30.9832858821
  0
LWPOLYLINE
  5
396
100
AcDbEntity
  8
0
100
AcDbPolyline
 62
7
  6
CONTINUOUS
 90
8
 70
0
 10
13.7122244568
 20
29.3139529475
 10
13.7078279739
 20
29.2950637524
 10
13.7041577655
 20
29.2759286907
 10
13.7012290959
 20
29.2565639399
 10
13.6989666996
 20
29.2369565481
 10
13.6973454879
 20
29.2171021974
 10
13.6963905494
 20
29.1970052042
 10
13.6961018841
 20
29.1766655688
  0
LWPOLYLINE
  5
397
100
AcDbEntity
  8
0
100
AcDbPolyline
 62
7
  6
CONTINUOUS
 90
45
 70
0
 10
14.4885793217
 20
28.9609237327
 10
14.499921671
 20
29.0028207443
 10
14.5085214071
 20
29.0453273431
 10
14.5143785301
 20
29.0884433993
 10
14.5174823917
 20
29.1326902908
 10
14.5178436401
 20
29.1775463256
 10
14.5154942201
 20
29.2214468829
 10
14.5105505421
 20
29.2641747993
 10
14.5028961957
 20
29.3059472208
 10
14.4922138945
 20
29.3458512226
 10
14.4782417387
 20
29.3838627882
 10
14.461241628
 20
29.4200061563
 10
14.441681976
 20
29.4534409735
 10
14.4194545246
 20
29.4839406768
 10
14.3946675317
 20
29.5117322674
 10
14.3681141844
 20
29.5366558332
 10
14.3398149205
 20
29.5587545365
 10
14.3097493022
 20
29.5779856157
 10
14.2786492033
 20
29.5940602831
 10
14.2465572035
 20
29.6067656698
 10
14.2134307231
 20
29.6163149567
 10
14.1798738972
 20
29.6230583941
 10
14.1457196231
 20
29.6270158168
 10
14.1111350035
 20
29.628167496
 10
14.0772254808
 20
29.6268042824
 10
14.0441431596
 20
29.6229645821
 10
14.0117359354
 20
29.6166099426
 10
13.9806529375
 20
29.6079158966
 10
13.9508941701
 20
29.5966299913
 10
13.922459629
 20
29.5830045129
 10
13.8959984315
 20
29.5679721231
 10
13.8717039434
 20
29.5514628112
 10
13.849382799
 20
29.5335464465
 10
13.8291040178
 20
29.5153656142
 10
13.8110312513
 20
29.4972042444
 10
13.7950008481
 20
29.4787784023
 10
13.7805908737
 20
29.4603789584
 10
13.7678070929
 20
29.4421034461
 10
13.7566437407
 20
29.4238543536
 10
13.746661588
 20
29.40563
 10
13.7378204258
 20
29.3874941497
 10
13.730160463
 20
29.3693830577
 10
13.7233630967
 20
29.3511037693
 10
13.7173624785
 20
29.3326124575
 10
13.7122244568
 20
29.3139529475
  0
LINE
  5
398
100
AcDbEntity
  8
0
100
AcDbLine
 62
7
  6
CONTINUOUS
 10
71.619548
 20
9.28563
 11
71.192918
 21
9.24906
  0
LINE
  5
399
100
AcDbEntity
  8
0
100
AcDbLine
 62
7
  6
CONTINUOUS
 10
72.847628
 20
11.94902
 11
72.433188
 21
11.9155
  0
LINE
  5
39A
100
AcDbEntity
  8
0
100
AcDbLine
 62
7
  6
CONTINUOUS
 10
73.134088
 20
9.41362
 11
72.756208
 21
9.38315
  0
LINE
  5
39B
100
AcDbEntity
  8
0
100
AcDbLine
 62
250
  6
CONTINUOUS
 10
-86.4137946415
 20
6.7204858869
 11
-84.911357164
 21
6.7204858869
  0
LINE
  5
39C
100
AcDbEntity
  8
0
100
AcDbLine
 62
250
  6
CONTINUOUS
 10
84.911357164
 20
6.7204858869
 11
86.4137946415
 21
6.7204858869
  0
LWPOLYLINE
  5
39D
100
AcDbEntity
  8
0
100
AcDbPolyline
 62
7
  6
CONTINUOUS
 90
19
 70
0
 10
-13.8742385025
 20
31.2132801407
 10
-13.8871940654
 20
31.2375324918
 10
-13.9018416761
 20
31.2603962823
 10
-13.9181813347
 20
31.2818715368
 10
-13.9364075265
 20
31.3021316953
 10
-13.9563257662
 20
31.321003361
 10
-13.9773525973
 20
31.3379663085
 10
-13.9995242171
 20
31.3526007531
 10
-14.0228044283
 20
31.36532653
 10
-14.0465011828
 20
31.3768828395
 10
-14.0703790133
 20
31.3874478391
 10
-14.094673387
 20
31.3968433905
 10
-14.1193986568
 20
31.4052742398
 10
-14.1444321179
 20
31.4131489877
 10
-14.169896475
 20
31.420059044
 10
-14.1961741951
 20
31.4249833715
 10
-14.2233927671
 20
31.4275816305
 10
-14.2514247021
 20
31.428194173
 10
-14.28027
 20
31.426821
  0
LWPOLYLINE
  5
39E
100
AcDbEntity
  8
0
100
AcDbPolyline
 62
7
  6
CONTINUOUS
 90
13
 70
0
 10
-9.16510592
 20
31.2132801407
 10
-9.1811671043
 20
31.2435104104
 10
-9.19863394
 20
31.2714325666
 10
-9.217506427
 20
31.2970466593
 10
-9.2379396756
 20
31.3203836554
 10
-9.2597785755
 20
31.3414126754
 10
-9.282557796
 20
31.3600409958
 10
-9.3061705669
 20
31.3762651885
 10
-9.3307236583
 20
31.3900887469
 10
-9.3560720494
 20
31.4014293248
 10
-9.3821673999
 20
31.4102594869
 10
-9.4090580501
 20
31.4166067079
 10
-9.4705451184
 20
31.4251683844
  0
LWPOLYLINE
  5
39F
100
AcDbEntity
  8
0
100
AcDbPolyline
 62
7
  6
CONTINUOUS
 90
43
 70
0
 10
-13.5750922289
 20
31.2132796843
 10
-13.54987896
 20
31.1636987064
 10
-13.5273400749
 20
31.1106235634
 10
-13.5074755735
 20
31.0540527334
 10
-13.4901263631
 20
30.9938604178
 10
-13.4754515364
 20
30.9301692416
 10
-13.4639283716
 20
30.8633504926
 10
-13.4555461816
 20
30.7934764569
 10
-13.4503156535
 20
30.7204721822
 10
-13.448746126
 20
30.6444884336
 10
-13.4510246378
 20
30.5654985517
 10
-13.4569641501
 20
30.4835269568
 10
-13.4665128853
 20
30.3988013513
 10
-13.4794813843
 20
30.3114067672
 10
-13.4960591062
 20
30.2212567478
 10
-13.5167626498
 20
30.1283220307
 10
-13.5415127501
 20
30.0326229288
 10
-13.5703886722
 20
29.9341383784
 10
-13.6041448102
 20
29.832777206
 10
-13.642650093
 20
29.7277820749
 10
-13.6860355917
 20
29.6199102607
 10
-13.7354489138
 20
29.5113436292
 10
-13.7917125625
 20
29.4011225738
 10
-13.8540040345
 20
29.2902092503
 10
-13.9210034287
 20
29.1836705466
 10
-13.9931557854
 20
29.0820282475
 10
-14.0700160642
 20
28.9847652057
 10
-14.1489292422
 20
28.8953912128
 10
-14.2294513423
 20
28.8148697758
 10
-14.3120263417
 20
28.7422401568
 10
-14.3953311492
 20
28.6781255485
 10
-14.4794673794
 20
28.6230143575
 10
-14.5643334179
 20
28.5764187994
 10
-14.6483013296
 20
28.5374974518
 10
-14.7312476967
 20
28.5067765521
 10
-14.8132959371
 20
28.4837297324
 10
-14.89318837
 20
28.4659366312
 10
-14.9707927685
 20
28.4528536075
 10
-15.0462413595
 20
28.4450242004
 10
-15.1186731431
 20
28.44165887
 10
-15.1878011193
 20
28.4424944348
 10
-15.253912288
 20
28.4477940674
 10
-15.3170066494
 20
28.4575577867
  0
LWPOLYLINE
  5
3A0
100
AcDbEntity
  8
0
100
AcDbPolyline
 62
7
  6
CONTINUOUS
 90
28
 70
0
 10
-11.4990360089
 20
31.2132801407
 10
-11.5097804145
 20
31.2358280806
 10
-11.5224092832
 20
31.2567729812
 10
-11.5369226149
 20
31.2761148687
 10
-11.5534969108
 20
31.2939191194
 10
-11.5719556697
 20
31.3101204025
 10
-11.5917693881
 20
31.3245226829
 10
-11.6128098013
 20
31.336982895
 10
-11.635205174
 20
31.347644143
 10
-11.6588107969
 20
31.3567396429
 10
-11.6836253579
 20
31.3643380704
 10
-11.7096501692
 20
31.37037077
 10
-11.736744458
 20
31.3748649566
 10
-11.7649196399
 20
31.3778226498
 10
-11.7941642993
 20
31.3792418389
 10
-11.824303417
 20
31.3791436909
 10
-11.8553029535
 20
31.3778014667
 10
-11.8871969483
 20
31.3749419037
 10
-11.9199125006
 20
31.3697663784
 10
-11.9535078789
 20
31.3620447608
 10
-11.9879248147
 20
31.3520071569
 10
-12.0229156013
 20
31.3395452878
 10
-12.058563381
 20
31.3246366056
 10
-12.0947850115
 20
31.3073036062
 10
-12.1310833601
 20
31.2875055693
 10
-12.167292716
 20
31.265228894
 10
-12.20357879
 20
31.2404871003
 10
-12.239941582
 20
31.2132801407
  0
LINE
  5
3A1
100
AcDbEntity
  8
0
100
AcDbLine
 62
7
  6
CONTINUOUS
 10
11.987256
 20
30.0723859603
 11
11.987256
 21
29.8246032228
  0
LINE
  5
3A2
100
AcDbEntity
  8
0
100
AcDbLine
 62
7
  6
CONTINUOUS
 10
12.49991
 20
30.1336199083
 11
12.49991
 21
28.500247
  0
LINE
  5
3A3
100
AcDbEntity
  8
0
100
AcDbLine
 62
7
  6
CONTINUOUS
 10
12.756236
 20
30.596432
 11
12.756236
 21
28.500247
  0
LINE
  5
3A4
100
AcDbEntity
  8
0
100
AcDbLine
 62
7
  6
CONTINUOUS
 10
18.526441
 20
30.559407
 11
18.324227
 21
29.487106
  0
LINE
  5
3A5
100
AcDbEntity
  8
0
100
AcDbLine
 62
7
  6
CONTINUOUS
 10
18.731502
 20
30.314472
 11
18.6190030307
 21
29.7534011531
  0
LWPOLYLINE
  5
3A6
100
AcDbEntity
  8
0
100
AcDbPolyline
 62
7
  6
CONTINUOUS
 90
8
 70
0
 10
16.9561842104
 20
29.3139529475
 10
16.9517877274
 20
29.2950637524
 10
16.9481175191
 20
29.2759286907
 10
16.9451888495
 20
29.2565639399
 10
16.9429264531
 20
29.2369565481
 10
16.9413052414
 20
29.2171021974
 10
16.9403503029
 20
29.1970052042
 10
16.9400616376
 20
29.1766655688
  0
LWPOLYLINE
  5
3A7
100
AcDbEntity
  8
0
100
AcDbPolyline
 62
7
  6
CONTINUOUS
 90
45
 70
0
 10
17.7325390752
 20
28.9609237327
 10
17.7438814245
 20
29.0028207443
 10
17.7524811607
 20
29.0453273431
 10
17.7583382837
 20
29.0884433993
 10
17.7614421452
 20
29.1326902908
 10
17.7618033936
 20
29.1775463256
 10
17.7594539737
 20
29.2214468829
 10
17.7545102956
 20
29.2641747993
 10
17.7468559492
 20
29.3059472208
 10
17.7361736481
 20
29.3458512226
 10
17.7222014922
 20
29.3838627882
 10
17.7052013816
 20
29.4200061563
 10
17.6856417295
 20
29.4534409735
 10
17.6634142781
 20
29.4839406768
 10
17.6386272852
 20
29.5117322674
 10
17.6120739379
 20
29.5366558332
 10
17.583774674
 20
29.5587545365
 10
17.5537090557
 20
29.5779856157
 10
17.5226089568
 20
29.5940602831
 10
17.490516957
 20
29.6067656698
 10
17.4573904766
 20
29.6163149567
 10
17.4238336507
 20
29.6230583941
 10
17.3896793766
 20
29.6270158168
 10
17.355094757
 20
29.628167496
 10
17.3211852343
 20
29.6268042824
 10
17.2881029131
 20
29.6229645821
 10
17.2556956889
 20
29.6166099426
 10
17.2246126911
 20
29.6079158966
 10
17.1948539236
 20
29.5966299913
 10
17.1664193825
 20
29.5830045129
 10
17.139958185
 20
29.567972123
 10
17.115663697
 20
29.5514628111
 10
17.0933425525
 20
29.5335464465
 10
17.0730637713
 20
29.5153656142
 10
17.0549910049
 20
29.4972042444
 10
17.0389606017
 20
29.4787784023
 10
17.0245506272
 20
29.4603789584
 10
17.0117668464
 20
29.4421034461
 10
17.0006034943
 20
29.4238543536
 10
16.9906213416
 20
29.40563
 10
16.9817801794
 20
29.3874941496
 10
16.9741202165
 20
29.3693830577
 10
16.9673228502
 20
29.3511037693
 10
16.961322232
 20
29.3326124575
 10
16.9561842104
 20
29.3139529475
  0
LWPOLYLINE
  5
3A8
100
AcDbEntity
  8
0
100
AcDbPolyline
 62
7
  6
CONTINUOUS
 90
40
 70
0
 10
72.9999982408
 20
8.58
 10
73.1470734808
 20
8.5820541129
 10
73.2932396175
 20
8.5879887927
 10
73.4384966507
 20
8.5978040345
 10
73.583351509
 20
8.6115976091
 10
73.727297264
 20
8.629271726
 10
73.86881313
 20
8.6505330342
 10
74.0078614076
 20
8.6754800347
 10
74.1444797963
 20
8.7040141905
 10
74.277260609
 20
8.7355465933
 10
74.4060578656
 20
8.7701467195
 10
74.5310175463
 20
8.807745049
 10
74.651169904
 20
8.8475441858
 10
74.7661909854
 20
8.8894784774
 10
74.8764047439
 20
8.9336135363
 10
74.9818132926
 20
8.9793488749
 10
75.08233009
 20
9.0266281589
 10
75.1780416777
 20
9.0755076883
 10
75.2692097939
 20
9.1255559364
 10
75.3557050326
 20
9.1766292662
 10
75.4376567998
 20
9.2288712869
 10
75.5157150518
 20
9.2822813454
 10
75.5899614567
 20
9.3368006637
 10
75.6603143464
 20
9.3924879888
 10
75.7271786722
 20
9.4495189514
 10
75.7906055107
 20
9.5077725634
 10
75.8505437854
 20
9.5673697748
 10
75.9072452176
 20
9.6288491128
 10
75.961005101
 20
9.6924091168
 10
76.0115281419
 20
9.7578511855
 10
76.05818018
 20
9.8251181268
 10
76.1009969294
 20
9.8942373652
 10
76.1399426759
 20
9.9651814102
 10
76.1742761172
 20
10.0378106992
 10
76.2040236714
 20
10.1124006278
 10
76.2291589203
 20
10.1886757288
 10
76.2488613066
 20
10.2656701642
 10
76.262857311
 20
10.3430619844
 10
76.2714204528
 20
10.4211731072
 10
76.274550732
 20
10.5000035145
  0
LWPOLYLINE
  5
3A9
100
AcDbEntity
  8
0
100
AcDbPolyline
 62
7
  6
CONTINUOUS
 90
40
 70
0
 10
72.9999999526
 20
12.42
 10
72.8529250633
 20
12.4179461619
 10
72.7067585518
 20
12.4120117284
 10
72.5615004182
 20
12.4021966924
 10
72.416643528
 20
12.3884032718
 10
72.2726950157
 20
12.3707292203
 10
72.1311762848
 20
12.3494678295
 10
71.9921250746
 20
12.3245204718
 10
71.8555036458
 20
12.2959857239
 10
71.7227201844
 20
12.2644526838
 10
71.5939207644
 20
12.2298517962
 10
71.4689593117
 20
12.1922525563
 10
71.3488057899
 20
12.1524526486
 10
71.2337842466
 20
12.1105177047
 10
71.1235706342
 20
12.0663820405
 10
71.0181627733
 20
12.0206463817
 10
70.917647231
 20
11.9733670494
 10
70.8219374403
 20
11.9244876804
 10
70.7307715209
 20
11.8744399877
 10
70.6442789657
 20
11.8233676614
 10
70.5623302819
 20
11.7711269803
 10
70.4842751108
 20
11.7177185467
 10
70.4100317943
 20
11.6632011791
 10
70.3396819905
 20
11.6075160257
 10
70.2728203149
 20
11.5504871795
 10
70.2093955789
 20
11.492235559
 10
70.149458971
 20
11.4326402058
 10
70.0927586728
 20
11.371162386
 10
70.038999266
 20
11.3076033814
 10
69.9884761689
 20
11.2421618455
 10
69.9418238183
 20
11.1748950929
 10
69.8990064879
 20
11.1057755566
 10
69.860059904
 20
11.0348307396
 10
69.8257256832
 20
10.9622005642
 10
69.7959774733
 20
10.8876094988
 10
69.7708416263
 20
10.8113330107
 10
69.7511388151
 20
10.734337542
 10
69.7371425971
 20
10.6569452417
 10
69.7285794147
 20
10.5788339433
 10
69.7254492681
 20
10.5000036362
  0
LINE
  5
3AA
100
AcDbEntity
  8
0
100
AcDbLine
 62
250
  6
CONTINUOUS
 10
-86.4104032874
 20
7.3314391493
 11
-84.907893777
 21
7.3314391493
  0
LINE
  5
3AB
100
AcDbEntity
  8
0
100
AcDbLine
 62
250
  6
CONTINUOUS
 10
84.907893777
 20
7.3314391493
 11
86.4104032874
 21
7.3314391493
  0
LINE
  5
3AC
100
AcDbEntity
  8
0
100
AcDbLine
 62
7
  6
CONTINUOUS
 10
-72.327009
 20
8.339734
 11
-73.666887
 21
8.339734
  0
LINE
  5
3AD
100
AcDbEntity
  8
0
100
AcDbLine
 62
7
  6
CONTINUOUS
 10
-72.327009
 20
8.811955
 11
-72.745335
 21
8.811955
  0
LINE
  5
3AE
100
AcDbEntity
  8
0
100
AcDbLine
 62
7
  6
CONTINUOUS
 10
-73.248398
 20
8.811955
 11
-73.666887
 21
8.811955
  0
LINE
  5
3AF
100
AcDbEntity
  8
0
100
AcDbLine
 62
7
  6
CONTINUOUS
 10
-72.34243
 20
12.166846
 11
-72.745335
 21
12.166846
  0
LINE
  5
3B0
100
AcDbEntity
  8
0
100
AcDbLine
 62
7
  6
CONTINUOUS
 10
-73.248398
 20
12.166846
 11
-73.651466
 21
12.166846
  0
LINE
  5
3B1
100
AcDbEntity
  8
0
100
AcDbLine
 62
7
  6
CONTINUOUS
 10
-72.34243
 20
12.641663
 11
-73.651466
 21
12.641663
  0
LWPOLYLINE
  5
3B2
100
AcDbEntity
  8
0
100
AcDbPolyline
 62
7
  6
CONTINUOUS
 90
40
 70
0
 10
72.9999982408
 20
8.28
 10
72.8469480163
 20
8.2820664016
 10
72.6945102716
 20
8.2881818825
 10
72.5426850066
 20
8.2983464376
 10
72.3910092471
 20
8.3126214614
 10
72.2399459673
 20
8.3309455389
 10
72.0908840906
 20
8.3531344466
 10
71.9438510605
 20
8.3792690562
 10
71.7988194336
 20
8.4092684568
 10
71.6570958021
 20
8.4427057495
 10
71.5187966484
 20
8.4796400028
 10
71.3838054902
 20
8.5200120965
 10
71.253079473
 20
8.5632178524
 10
71.1268589385
 20
8.6092185058
 10
71.0049035451
 20
8.6580527665
 10
70.8874494133
 20
8.7092326757
 10
70.7745724684
 20
8.7627186386
 10
70.6661967851
 20
8.8185501949
 10
70.5623307082
 20
8.8763580945
 10
70.463046596
 20
8.9360591709
 10
70.3682720902
 20
8.9977365369
 10
70.27779846
 20
9.0612703647
 10
70.1915476039
 20
9.1266620296
 10
70.1095976235
 20
9.1939100983
 10
70.031974093
 20
9.2628905316
 10
69.9587057922
 20
9.3334877764
 10
69.8897639413
 20
9.405817326
 10
69.8250877751
 20
9.4801017079
 10
69.7644823714
 20
9.5565172073
 10
69.7081426524
 20
9.6348874606
 10
69.6565926201
 20
9.7149060222
 10
69.6098781467
 20
9.7964825073
 10
69.5679533599
 20
9.8797072291
 10
69.5312046454
 20
9.9645447927
 10
69.4995657382
 20
10.0512560976
 10
69.4731029034
 20
10.1395801621
 10
69.4524013209
 20
10.2286987861
 10
69.4376560509
 20
10.3183392285
 10
69.4286720333
 20
10.4087741867
 10
69.4254492681
 20
10.5000036362
  0
LWPOLYLINE
  5
3B3
100
AcDbEntity
  8
0
100
AcDbPolyline
 62
7
  6
CONTINUOUS
 90
52
 70
0
 10
74.8352370343
 20
-10.6297015503
 10
74.7850354042
 20
-10.6171073231
 10
74.7532983021
 20
-10.6088018379
 10
74.7216588051
 20
-10.6002245108
 10
74.6899661578
 20
-10.5913874589
 10
74.6583711156
 20
-10.5822785639
 10
74.6273259441
 20
-10.5728614722
 10
74.5968846576
 20
-10.5632874787
 10
74.5669932419
 20
-10.5534052871
 10
74.5379419198
 20
-10.5427246567
 10
74.5096468652
 20
-10.5313992504
 10
74.4821919042
 20
-10.5192754008
 10
74.4561187381
 20
-10.5054018665
 10
74.4314661572
 20
-10.48960196
 10
74.4081953711
 20
-10.4720523549
 10
74.3867317104
 20
-10.4523318454
 10
74.3669838317
 20
-10.4300977202
 10
74.3490430783
 20
-10.4056926658
 10
74.333608811
 20
-10.3797235731
 10
74.3208274122
 20
-10.3521309903
 10
74.3105524994
 20
-10.3229743476
 10
74.3030442859
 20
-10.2930388675
 10
74.2983449945
 20
-10.2622847829
 10
74.2964124024
 20
-10.2307518491
 10
74.2973800547
 20
-10.1993445848
 10
74.3013206692
 20
-10.1680917664
 10
74.3081615281
 20
-10.1369646203
 10
74.3178180228
 20
-10.1067813536
 10
74.3304492474
 20
-10.077520183
 10
74.3458961078
 20
-10.0492029063
 10
74.3635967131
 20
-10.0227131143
 10
74.3836277193
 20
-9.9981973235
 10
74.4059124703
 20
-9.9755090415
 10
74.4296591076
 20
-9.9550923532
 10
74.4548077071
 20
-9.9372171696
 10
74.4814181929
 20
-9.9216136022
 10
74.5088784779
 20
-9.9079160362
 10
74.5370929385
 20
-9.8961540338
 10
74.5661571983
 20
-9.8862980449
 10
74.5957460406
 20
-9.8778937827
 10
74.6258151198
 20
-9.8708394735
 10
74.6564087814
 20
-9.8652368965
 10
74.6873348456
 20
-9.8609370922
 10
74.7185634775
 20
-9.8579045042
 10
74.7501245118
 20
-9.8561746912
 10
74.781915273
 20
-9.8557053657
 10
74.8139741978
 20
-9.8564418049
 10
74.8462628494
 20
-9.8584387316
 10
74.8785632418
 20
-9.8618180258
 10
74.9109701059
 20
-9.8665650919
 10
74.9433887107
 20
-9.8726945227
 10
74.975316877
 20
-9.8803719803
  0
LWPOLYLINE
  5
3B4
100
AcDbEntity
  8
INTF_1
100
AcDbPolyline
 62
7
  6
CONTINUOUS
 90
86
 70
0
 10
74.8579195262
 20
-10.6355337973
 10
74.7760958036
 20
-10.6147071217
 10
74.7353995166
 20
-10.6039526705
 10
74.6948189805
 20
-10.5927753604
 10
74.6543919253
 20
-10.5810729383
 10
74.6141560812
 20
-10.5687431508
 10
74.5894072548
 20
-10.5607552297
 10
74.564777818
 20
-10.5524034788
 10
74.5402997296
 20
-10.5436027041
 10
74.5262354691
 20
-10.5382679325
 10
74.5122691601
 20
-10.5326855069
 10
74.4984374918
 20
-10.5267863117
 10
74.4847771535
 20
-10.5205012317
 10
74.4699311947
 20
-10.5130362575
 10
74.4553949145
 20
-10.5049815669
 10
74.4412241409
 20
-10.4963026905
 10
74.4281284759
 20
-10.4874351995
 10
74.4154630469
 20
-10.4779612747
 10
74.4032764797
 20
-10.4678710377
 10
74.3920435601
 20
-10.4575751942
 10
74.3813274649
 20
-10.4467254522
 10
74.3711564884
 20
-10.4353478566
 10
74.3615589245
 20
-10.4234684523
 10
74.3525630675
 20
-10.4111132842
 10
74.3441972115
 20
-10.3983083971
 10
74.3366328767
 20
-10.3853491621
 10
74.3297049538
 20
-10.3720179371
 10
74.3234175351
 20
-10.358349689
 10
74.3177747125
 20
-10.3443793844
 10
74.3127805781
 20
-10.3301419898
 10
74.3084392242
 20
-10.3156724722
 10
74.3047547427
 20
-10.301005798
 10
74.3017312259
 20
-10.286176934
 10
74.2993727656
 20
-10.2712208468
 10
74.2976834542
 20
-10.2561725032
 10
74.2966673837
 20
-10.2410668697
 10
74.2963286461
 20
-10.2259389131
 10
74.2966688319
 20
-10.2108324131
 10
74.2976812961
 20
-10.195767602
 10
74.2993577752
 20
-10.1807735418
 10
74.3016900054
 20
-10.1658792941
 10
74.3046697231
 20
-10.1511139209
 10
74.3082886649
 20
-10.1365064839
 10
74.3125385671
 20
-10.1220860451
 10
74.3174111661
 20
-10.1078816661
 10
74.3228981982
 20
-10.0939224088
 10
74.3289914
 20
-10.0802373351
 10
74.3356825077
 20
-10.0668555067
 10
74.3436785676
 20
-10.0525875977
 10
74.3523521559
 20
-10.038736075
 10
74.3616744362
 20
-10.0253192363
 10
74.3716165722
 20
-10.012355379
 10
74.3821497276
 20
-9.9998628007
 10
74.3932590275
 20
-9.9878479867
 10
74.404907444
 20
-9.9763532595
 10
74.4170706042
 20
-9.9654079917
 10
74.4297241352
 20
-9.9550415559
 10
74.4428436641
 20
-9.9452833247
 10
74.4543361581
 20
-9.9374871003
 10
74.4661190774
 20
-9.9301382659
 10
74.4781640497
 20
-9.9232239615
 10
74.4904427029
 20
-9.9167313271
 10
74.5029266649
 20
-9.9106475027
 10
74.5182269339
 20
-9.9038315465
 10
74.5337578405
 20
-9.8975635706
 10
74.5494924111
 20
-9.8918150711
 10
74.565403672
 20
-9.886557544
 10
74.5814646497
 20
-9.8817624854
 10
74.6019075851
 20
-9.8763344613
 10
74.6225230492
 20
-9.8715804534
 10
74.6432881432
 20
-9.8674835333
 10
74.6641799681
 20
-9.8640267726
 10
74.6851756249
 20
-9.8611932432
 10
74.7062522147
 20
-9.8589660166
 10
74.7273868387
 20
-9.8573281644
 10
74.7485565978
 20
-9.8562627585
 10
74.7697385932
 20
-9.8557528704
 10
74.7935524828
 20
-9.8558274585
 10
74.8173362156
 20
-9.856591449
 10
74.841073125
 20
-9.8580528568
 10
74.8647465438
 20
-9.8602196966
 10
74.8883398053
 20
-9.8630999835
 10
74.9118362424
 20
-9.8667017321
 10
74.9328290344
 20
-9.8705591377
 10
74.9537034537
 20
-9.875029626
 10
74.974432575
 20
-9.8801384926
  0
LWPOLYLINE
  5
3B5
100
AcDbEntity
  8
0
100
AcDbPolyline
 62
7
  6
CONTINUOUS
 90
3
 70
0
 10
74.8096161274
 20
-10.3907246815
 10
74.8359460956
 20
-10.3977600727
 10
74.8621887345
 20
-10.4049139322
  0
LINE
  5
3B6
100
AcDbEntity
  8
INTF_1
100
AcDbLine
 62
7
  6
CONTINUOUS
 10
74.7721824976
 20
-10.3804954336
 11
74.8490216977
 21
-10.4013474233
  0
LWPOLYLINE
  5
3B7
100
AcDbEntity
  8
INTF_1
100
AcDbPolyline
 62
7
  6
CONTINUOUS
 90
49
 70
0
 10
74.974432575
 20
-9.8801384926
 10
74.9867891039
 20
-9.8835207571
 10
74.9990778165
 20
-9.887147408
 10
75.011292897
 20
-9.8910239091
 10
75.0234285296
 20
-9.8951557243
 10
75.0354788983
 20
-9.8995483174
 10
75.0450034245
 20
-9.9032350744
 10
75.0544604204
 20
-9.9070982635
 10
75.0638400458
 20
-9.9111456781
 10
75.0731324604
 20
-9.9153851119
 10
75.0823278241
 20
-9.9198243585
 10
75.0914162968
 20
-9.9244712113
 10
75.1003880383
 20
-9.9293334641
 10
75.1092332083
 20
-9.9344189103
 10
75.1179419667
 20
-9.9397353436
 10
75.1265044734
 20
-9.9452905576
 10
75.1349108881
 20
-9.9510923458
 10
75.1427279737
 20
-9.9568265969
 10
75.1503838055
 20
-9.9627859468
 10
75.1578663102
 20
-9.9689668058
 10
75.1651634147
 20
-9.9753655842
 10
75.1722630458
 20
-9.9819786922
 10
75.1791531303
 20
-9.9888025401
 10
75.1858215951
 20
-9.9958335383
 10
75.192256367
 20
-10.003068097
 10
75.1984453728
 20
-10.0105026265
 10
75.2043765393
 20
-10.018133537
 10
75.2100753818
 20
-10.0260053785
 10
75.2155081916
 20
-10.0340621482
 10
75.2206822151
 20
-10.0422935777
 10
75.2256046989
 20
-10.050689399
 10
75.2302828896
 20
-10.059239344
 10
75.2347240338
 20
-10.0679331443
 10
75.2389353781
 20
-10.0767605319
 10
75.242924169
 20
-10.0857112386
 10
75.246697653
 20
-10.0947749963
 10
75.2502630768
 20
-10.1039415367
 10
75.2536276869
 20
-10.1132005916
 10
75.2567987299
 20
-10.1225418931
 10
75.2597834524
 20
-10.1319551727
 10
75.2625891009
 20
-10.1414301625
 10
75.2652229219
 20
-10.1509565941
 10
75.2676921622
 20
-10.1605241996
 10
75.2700040681
 20
-10.1701227106
 10
75.2721658864
 20
-10.179741859
 10
75.2741848635
 20
-10.1893713767
 10
75.2760682461
 20
-10.1990009954
 10
75.2778232807
 20
-10.2086204471
 10
75.2794572138
 20
-10.2182194635
  0
LWPOLYLINE
  5
3B8
100
AcDbEntity
  8
INTF_1
100
AcDbPolyline
 62
7
  6
CONTINUOUS
 90
83
 70
0
 10
74.8490216977
 20
-10.4013474233
 10
74.8883694253
 20
-10.4121933514
 10
74.9276321353
 20
-10.4233395651
 10
74.9667826524
 20
-10.4348631637
 10
75.0057938014
 20
-10.4468412466
 10
75.0298882546
 20
-10.4545310694
 10
75.0539029519
 20
-10.4624690481
 10
75.0778221089
 20
-10.4706991505
 10
75.0962000556
 20
-10.4773032048
 10
75.114441614
 20
-10.4842686974
 10
75.1324767301
 20
-10.4917568021
 10
75.1435838368
 20
-10.4967595359
 10
75.1545544691
 20
-10.5020563029
 10
75.1653596356
 20
-10.507675327
 10
75.1759703449
 20
-10.5136448323
 10
75.1892137896
 20
-10.521821286
 10
75.2020696534
 20
-10.5306074292
 10
75.214515633
 20
-10.5399938722
 10
75.2245544458
 20
-10.5482667121
 10
75.2342623791
 20
-10.556941904
 10
75.2436086437
 20
-10.5660115004
 10
75.2525624502
 20
-10.5754675538
 10
75.2610930094
 20
-10.5853021168
 10
75.2691695321
 20
-10.5955072418
 10
75.276761229
 20
-10.6060749813
 10
75.2839932288
 20
-10.6172390418
 10
75.2906856445
 20
-10.6287405325
 10
75.2968375896
 20
-10.6405463391
 10
75.3024481777
 20
-10.6526233473
 10
75.3075165225
 20
-10.6649384428
 10
75.3120417374
 20
-10.6774585113
 10
75.3160229361
 20
-10.6901504386
 10
75.3198081119
 20
-10.7044113775
 10
75.3229337716
 20
-10.7188220174
 10
75.3254125108
 20
-10.7333609246
 10
75.3272569249
 20
-10.7480066655
 10
75.3284796095
 20
-10.7627378065
 10
75.3290931599
 20
-10.7775329137
 10
75.3291101718
 20
-10.7923705536
 10
75.3285054934
 20
-10.8078502987
 10
75.3272723561
 20
-10.8233227703
 10
75.3254161439
 20
-10.8387577925
 10
75.3229422412
 20
-10.8541251898
 10
75.319856032
 20
-10.8693947865
 10
75.3161629006
 20
-10.8845364071
 10
75.3118682311
 20
-10.8995198758
 10
75.3069774077
 20
-10.9143150171
 10
75.3014958146
 20
-10.9288916553
 10
75.295428836
 20
-10.9432196148
 10
75.288781856
 20
-10.95726872
 10
75.2815602588
 20
-10.9710087951
 10
75.2737694286
 20
-10.9844096647
 10
75.2654147497
 20
-10.997441153
 10
75.2562491539
 20
-11.0104238006
 10
75.246521488
 20
-11.0229814483
 10
75.2362596812
 20
-11.0351112147
 10
75.2254916627
 20
-11.0468102187
 10
75.2142453617
 20
-11.0580755788
 10
75.2025487074
 20
-11.0689044138
 10
75.190429629
 20
-11.0792938422
 10
75.1779160558
 20
-11.0892409828
 10
75.1650359168
 20
-11.0987429544
 10
75.1518171415
 20
-11.1077968754
 10
75.1382876589
 20
-11.1163998647
 10
75.1244753982
 20
-11.124549041
 10
75.1104082888
 20
-11.1322415228
 10
75.0961142597
 20
-11.1394744289
 10
75.0816212402
 20
-11.1462448779
 10
75.0644386853
 20
-11.1535815163
 10
75.0470407411
 20
-11.160297663
 10
75.029446354
 20
-11.1664102907
 10
75.0116744705
 20
-11.171936372
 10
74.9937440371
 20
-11.1768928796
 10
74.9756740001
 20
-11.1812967861
 10
74.957483306
 20
-11.1851650642
 10
74.9391909013
 20
-11.1885146865
 10
74.9208157324
 20
-11.1913626256
 10
74.9023767457
 20
-11.1937258543
 10
74.8838928877
 20
-11.1956213452
 10
74.8653831048
 20
-11.1970660709
 10
74.8468663434
 20
-11.198077004
 10
74.8283615501
 20
-11.1986711173
 10
74.8098876712
 20
-11.1988653834
  0
LINE
  5
3B9
100
AcDbEntity
  8
0
100
AcDbLine
 62
7
  6
CONTINUOUS
 10
74.7465581892
 20
-10.3734446154
 11
74.8096161274
 21
-10.3907246815
  0
LINE
  5
3BA
100
AcDbEntity
  8
INTF_1
100
AcDbLine
 62
7
  6
CONTINUOUS
 10
74.7347759498
 20
-10.3701698141
 11
74.7721824976
 21
-10.3804954336
  0
LWPOLYLINE
  5
3BB
100
AcDbEntity
  8
0
100
AcDbPolyline
 62
7
  6
CONTINUOUS
 90
43
 70
0
 10
74.8621887345
 20
-10.4049139322
 10
74.9143928875
 20
-10.4195460373
 10
74.9403544016
 20
-10.4270242824
 10
74.9662859977
 20
-10.43471405
 10
74.9922001164
 20
-10.442585121
 10
75.0180843171
 20
-10.4506677137
 10
75.0439586904
 20
-10.4591455388
 10
75.0699858259
 20
-10.467825316
 10
75.0960031339
 20
-10.476900324
 10
75.1215429359
 20
-10.4871341092
 10
75.1466817965
 20
-10.4985329134
 10
75.1713431511
 20
-10.5110904883
 10
75.1948296264
 20
-10.5255516398
 10
75.217216805
 20
-10.54229821
 10
75.2384291044
 20
-10.5609483402
 10
75.2575424041
 20
-10.5811012841
 10
75.2743039128
 20
-10.6027483122
 10
75.2889664219
 20
-10.6258981373
 10
75.301364184
 20
-10.6501761791
 10
75.3114396063
 20
-10.6755556314
 10
75.3192502818
 20
-10.7020632854
 10
75.3248032423
 20
-10.7294049606
 10
75.3281375847
 20
-10.7576361969
 10
75.3292142122
 20
-10.7867014415
 10
75.3279228658
 20
-10.8161398798
 10
75.3243382648
 20
-10.8459812845
 10
75.31838569
 20
-10.8761958764
 10
75.3097307246
 20
-10.9062335209
 10
75.2985243089
 20
-10.9360862806
 10
75.2846155025
 20
-10.9657620953
 10
75.2672170681
 20
-10.994734655
 10
75.2460385802
 20
-11.0231898207
 10
75.2213704642
 20
-11.050941741
 10
75.193296759
 20
-11.076906549
 10
75.1616201887
 20
-11.1010286548
 10
75.1265380292
 20
-11.1233636729
 10
75.0887261463
 20
-11.1429945551
 10
75.048261485
 20
-11.1597376377
 10
75.0050671002
 20
-11.1737766121
 10
74.9595880233
 20
-11.1847454679
 10
74.911972598
 20
-11.1925222075
 10
74.8620724807
 20
-11.1972288447
 10
74.8098876712
 20
-11.1988653834
  0
LINE
  5
3BC
100
AcDbEntity
  8
0
100
AcDbLine
 62
7
  6
CONTINUOUS
 10
74.708540353
 20
-10.3627875911
 11
74.7465581892
 21
-10.3734446154
  0
LWPOLYLINE
  5
3BD
100
AcDbEntity
  8
0
100
AcDbPolyline
 62
7
  6
CONTINUOUS
 90
16
 70
0
 10
74.975316877
 20
-9.8803719803
 10
75.0067681945
 20
-9.8895134239
 10
75.0377290734
 20
-9.9002028879
 10
75.0676565651
 20
-9.9128581458
 10
75.0966806872
 20
-9.92747135
 10
75.1246714222
 20
-9.9440503349
 10
75.1506957694
 20
-9.9630363911
 10
75.1746805669
 20
-9.9847405929
 10
75.1966989767
 20
-10.0088518408
 10
75.2160374837
 20
-10.034878164
 10
75.2322695949
 20
-10.0631018138
 10
75.2458218032
 20
-10.0932405115
 10
75.2572600729
 20
-10.123955503
 10
75.2667730586
 20
-10.1548005381
 10
75.2741721055
 20
-10.1862218599
 10
75.2794572138
 20
-10.2182194635
  0
LWPOLYLINE
  5
3BE
100
AcDbEntity
  8
0
100
AcDbPolyline
 62
7
  6
CONTINUOUS
 90
7
 70
0
 10
74.6173660643
 20
-10.3349814608
 10
74.6307269261
 20
-10.3393850604
 10
74.6439712412
 20
-10.3436373122
 10
74.6570990096
 20
-10.3477382164
 10
74.6700921856
 20
-10.3516595618
 10
74.6829688149
 20
-10.3554295598
 10
74.708540353
 20
-10.3627875911
  0
LINE
  5
3BF
100
AcDbEntity
  8
0
100
AcDbLine
 62
7
  6
CONTINUOUS
 10
-6.778126
 20
32.313535
 11
-6.3802046569
 21
31.6632834393
  0
LWPOLYLINE
  5
3C0
100
AcDbEntity
  8
0
100
AcDbPolyline
 62
7
  6
CONTINUOUS
 90
19
 70
0
 10
-6.5600545025
 20
31.2132801407
 10
-6.5730100654
 20
31.2375324918
 10
-6.5876576761
 20
31.2603962823
 10
-6.6039973347
 20
31.2818715368
 10
-6.6222235265
 20
31.3021316953
 10
-6.6421417662
 20
31.321003361
 10
-6.6631685973
 20
31.3379663085
 10
-6.6853402171
 20
31.3526007531
 10
-6.7086204283
 20
31.36532653
 10
-6.7323171827
 20
31.3768828395
 10
-6.7561950133
 20
31.3874478391
 10
-6.780489387
 20
31.3968433905
 10
-6.8052146568
 20
31.4052742398
 10
-6.8302481179
 20
31.4131489877
 10
-6.855712475
 20
31.420059044
 10
-6.881990195
 20
31.4249833715
 10
-6.9092087671
 20
31.4275816305
 10
-6.937240702
 20
31.428194173
 10
-6.966086
 20
31.426821
  0
LWPOLYLINE
  5
3C1
100
AcDbEntity
  8
0
100
AcDbPolyline
 62
7
  6
CONTINUOUS
 90
43
 70
0
 10
-6.2609084227
 20
31.2132801407
 10
-6.2356950677
 20
31.16369896
 10
-6.213156118
 20
31.1106236648
 10
-6.1932915735
 20
31.0540527334
 10
-6.1759423488
 20
30.993860384
 10
-6.1612675293
 20
30.9301692246
 10
-6.1497443716
 20
30.8633504926
 10
-6.1413621816
 20
30.7934764569
 10
-6.1361316535
 20
30.7204721822
 10
-6.134562126
 20
30.6444884336
 10
-6.1368406378
 20
30.5654985517
 10
-6.1427801501
 20
30.4835269568
 10
-6.1523288853
 20
30.3988013513
 10
-6.1652973843
 20
30.3114067672
 10
-6.1818751062
 20
30.2212567478
 10
-6.2025786498
 20
30.1283220307
 10
-6.2273287501
 20
30.0326229288
 10
-6.2562046722
 20
29.9341383784
 10
-6.2899608102
 20
29.832777206
 10
-6.328466093
 20
29.7277820749
 10
-6.3718515917
 20
29.6199102607
 10
-6.4212649138
 20
29.5113436292
 10
-6.4775285625
 20
29.4011225738
 10
-6.5398200345
 20
29.2902092503
 10
-6.6068194287
 20
29.1836705466
 10
-6.6789717854
 20
29.0820282475
 10
-6.7558320642
 20
28.9847652056
 10
-6.8347452423
 20
28.8953912128
 10
-6.9152673423
 20
28.8148697758
 10
-6.9978423417
 20
28.7422401568
 10
-7.0811471492
 20
28.6781255485
 10
-7.1652833794
 20
28.6230143575
 10
-7.2501494179
 20
28.5764187994
 10
-7.3341173296
 20
28.5374974518
 10
-7.4170636967
 20
28.5067765521
 10
-7.4991119371
 20
28.4837297324
 10
-7.57900437
 20
28.4659366312
 10
-7.6566087685
 20
28.4528536075
 10
-7.7320573595
 20
28.4450242004
 10
-7.8044891431
 20
28.44165887
 10
-7.8736171193
 20
28.4424944348
 10
-7.939728288
 20
28.4477940674
 10
-8.0028226494
 20
28.4575577867
  0
LWPOLYLINE
  5
3C2
100
AcDbEntity
  8
0
100
AcDbPolyline
 62
7
  6
CONTINUOUS
 90
79
 70
0
 10
13.6961018841
 20
29.1766655688
 10
13.6961729109
 20
29.1675865224
 10
13.6963794431
 20
29.1584685887
 10
13.6967214809
 20
29.149311768
 10
13.6971948227
 20
29.1400978832
 10
13.69780367
 20
29.1308451118
 10
13.6985606269
 20
29.121607987
 10
13.6994620716
 20
29.1124590324
 10
13.7005116258
 20
29.1033257276
 10
13.7017327593
 20
29.0940450376
 10
13.7031140459
 20
29.0845983462
 10
13.7046669118
 20
29.0750042671
 10
13.7064491042
 20
29.0651556069
 10
13.708454013
 20
29.0550469659
 10
13.7106882483
 20
29.0446837385
 10
13.7132293883
 20
29.0339749197
 10
13.7160767537
 20
29.0228929048
 10
13.7192310238
 20
29.0114652909
 10
13.7227718151
 20
28.9996838748
 10
13.7266919698
 20
28.9875527509
 10
13.7309986457
 20
28.9750678185
 10
13.7357929327
 20
28.9622085807
 10
13.7410670254
 20
28.9489383086
 10
13.7468287291
 20
28.9352937255
 10
13.75320255
 20
28.9213645137
 10
13.760199261
 20
28.9070891167
 10
13.7678080893
 20
28.8925290897
 10
13.7761212225
 20
28.8779587873
 10
13.785158628
 20
28.8633786794
 10
13.7949003383
 20
28.8487883037
 10
13.8053786391
 20
28.8344606223
 10
13.8166184619
 20
28.8204033544
 10
13.8285948752
 20
28.8066087926
 10
13.8412653696
 20
28.7933267642
 10
13.8546693503
 20
28.780578833
 10
13.8687674121
 20
28.7683434471
 10
13.8833988302
 20
28.7568057614
 10
13.8986121478
 20
28.7460079589
 10
13.9143588217
 20
28.7359078656
 10
13.9303324974
 20
28.7265641004
 10
13.9464436174
 20
28.7179899353
 10
13.9627817392
 20
28.7101721032
 10
13.9793091805
 20
28.7031294137
 10
13.9960662127
 20
28.696853181
 10
14.0130125645
 20
28.6913520931
 10
14.0299897394
 20
28.6866710189
 10
14.0469195659
 20
28.6828374852
 10
14.0638802156
 20
28.6798239659
 10
14.0809477068
 20
28.6775927507
 10
14.0983415488
 20
28.6761554621
 10
14.1158422323
 20
28.6755004776
 10
14.1328672472
 20
28.6755552194
 10
14.149106065
 20
28.6762990605
 10
14.1648692142
 20
28.6777526279
 10
14.1805057711
 20
28.6799052239
 10
14.196128218
 20
28.6827345634
 10
14.2116240724
 20
28.6862629313
 10
14.2270049635
 20
28.6905464861
 10
14.2423683655
 20
28.6956416028
 10
14.2576168041
 20
28.7014919053
 10
14.2724694848
 20
28.707984425
 10
14.2868041386
 20
28.7150851639
 10
14.3007430345
 20
28.7228281177
 10
14.3143721856
 20
28.7312023082
 10
14.3276552984
 20
28.7401505586
 10
14.3406286664
 20
28.7497300412
 10
14.3534871825
 20
28.7601013008
 10
14.3662930978
 20
28.7712508757
 10
14.3789841612
 20
28.7831922183
 10
14.3915685127
 20
28.7961262414
 10
14.4041515571
 20
28.8100644193
 10
14.4166278896
 20
28.8249952584
 10
14.4286894353
 20
28.8410852147
 10
14.4403502699
 20
28.8584406658
 10
14.4515963179
 20
28.876955196
 10
14.4620772772
 20
28.8964760664
 10
14.4716763806
 20
28.9169523469
 10
14.4805103955
 20
28.9384349135
 10
14.4885793217
 20
28.9609237327
  0
LWPOLYLINE
  5
3C3
100
AcDbEntity
  8
0
100
AcDbPolyline
 62
7
  6
CONTINUOUS
 90
79
 70
0
 10
16.9400616376
 20
29.1766655688
 10
16.9401326644
 20
29.1675865224
 10
16.9403391967
 20
29.1584685887
 10
16.9406812344
 20
29.149311768
 10
16.9411545763
 20
29.1400978832
 10
16.9417634236
 20
29.1308451118
 10
16.9425203805
 20
29.121607987
 10
16.9434218251
 20
29.1124590324
 10
16.9444713794
 20
29.1033257276
 10
16.9456925128
 20
29.0940450376
 10
16.9470737995
 20
29.0845983462
 10
16.9486266654
 20
29.0750042671
 10
16.9504088578
 20
29.0651556069
 10
16.9524137665
 20
29.0550469659
 10
16.9546480018
 20
29.0446837385
 10
16.9571891419
 20
29.0339749197
 10
16.9600365072
 20
29.0228929048
 10
16.9631907774
 20
29.0114652909
 10
16.9667315687
 20
28.9996838748
 10
16.9706517234
 20
28.9875527509
 10
16.9749583993
 20
28.9750678185
 10
16.9797526863
 20
28.9622085807
 10
16.9850267789
 20
28.9489383086
 10
16.9907884826
 20
28.9352937255
 10
16.9971623035
 20
28.9213645137
 10
17.0041590146
 20
28.9070891167
 10
17.0117678429
 20
28.8925290897
 10
17.0200809761
 20
28.8779587873
 10
17.0291183815
 20
28.8633786794
 10
17.0388600918
 20
28.8487883037
 10
17.0493383926
 20
28.8344606223
 10
17.0605782155
 20
28.8204033544
 10
17.0725546288
 20
28.8066087926
 10
17.0852251232
 20
28.7933267642
 10
17.0986291039
 20
28.780578833
 10
17.1127271656
 20
28.7683434471
 10
17.1273585837
 20
28.7568057614
 10
17.1425719013
 20
28.7460079589
 10
17.1583185752
 20
28.7359078656
 10
17.1742922509
 20
28.7265641004
 10
17.1904033709
 20
28.7179899353
 10
17.2067414927
 20
28.7101721032
 10
17.2232689341
 20
28.7031294137
 10
17.2400259663
 20
28.696853181
 10
17.256972318
 20
28.6913520931
 10
17.2739494929
 20
28.6866710189
 10
17.2908793195
 20
28.6828374852
 10
17.3078399692
 20
28.6798239659
 10
17.3249074603
 20
28.6775927507
 10
17.3423013024
 20
28.6761554621
 10
17.3598019858
 20
28.6755004776
 10
17.3768270008
 20
28.6755552194
 10
17.3930658185
 20
28.6762990605
 10
17.4088289678
 20
28.6777526279
 10
17.4244655246
 20
28.6799052239
 10
17.4400879715
 20
28.6827345634
 10
17.455583826
 20
28.6862629313
 10
17.470964717
 20
28.6905464861
 10
17.4863281191
 20
28.6956416028
 10
17.5015765576
 20
28.7014919053
 10
17.5164292384
 20
28.707984425
 10
17.5307638921
 20
28.7150851639
 10
17.5447027881
 20
28.7228281177
 10
17.5583319391
 20
28.7312023082
 10
17.571615052
 20
28.7401505586
 10
17.5845884199
 20
28.7497300412
 10
17.5974469361
 20
28.7601013008
 10
17.6102528514
 20
28.7712508757
 10
17.6229439148
 20
28.7831922183
 10
17.6355282663
 20
28.7961262414
 10
17.6481113107
 20
28.8100644193
 10
17.6605876431
 20
28.8249952584
 10
17.6726491888
 20
28.8410852147
 10
17.6843100235
 20
28.8584406658
 10
17.6955560714
 20
28.876955196
 10
17.7060370307
 20
28.8964760664
 10
17.7156361342
 20
28.9169523469
 10
17.724470149
 20
28.9384349135
 10
17.7325390752
 20
28.9609237327
  0
LINE
  5
3C4
100
AcDbEntity
  8
0
100
AcDbLine
 62
7
  6
CONTINUOUS
 10
14.682446
 20
-29.449904481
 11
14.682446
 21
-30.200721481
  0
LINE
  5
3C5
100
AcDbEntity
  8
0
100
AcDbLine
 62
7
  6
CONTINUOUS
 10
14.682446
 20
-33.795161481
 11
14.682446
 21
-34.545978481
  0
LINE
  5
3C6
100
AcDbEntity
  8
0
100
AcDbLine
 62
7
  6
CONTINUOUS
 10
15.051787
 20
30.560831
 11
15.051787
 21
30.314472
  0
LINE
  5
3C7
100
AcDbEntity
  8
0
100
AcDbLine
 62
7
  6
CONTINUOUS
 10
16.403199
 20
30.560831
 11
16.403199
 21
30.3614654971
  0
LINE
  5
3C8
100
AcDbEntity
  8
0
100
AcDbLine
 62
7
  6
CONTINUOUS
 10
18.667556
 20
-31.622941481
 11
18.667556
 21
-32.372941481
  0
LINE
  5
3C9
100
AcDbEntity
  8
0
100
AcDbLine
 62
7
  6
CONTINUOUS
 10
19.067556
 20
-29.4499043633
 11
19.067556
 21
-30.200721481
  0
LINE
  5
3CA
100
AcDbEntity
  8
0
100
AcDbLine
 62
7
  6
CONTINUOUS
 10
19.067556
 20
-33.7951584326
 11
19.067556
 21
-34.5459785987
  0
LINE
  5
3CB
100
AcDbEntity
  8
0
100
AcDbLine
 62
7
  6
CONTINUOUS
 10
19.564565
 20
30.559407
 11
19.564565
 21
30.314472
  0
LWPOLYLINE
  5
3CC
100
AcDbEntity
  8
0
100
AcDbPolyline
 62
7
  6
CONTINUOUS
 90
25
 70
0
 10
15.3437144496
 20
28.500247
 10
15.3481566852
 20
28.5813271324
 10
15.3553973183
 20
28.6621518551
 10
15.3654363489
 20
28.7427205125
 10
15.3785660863
 20
28.823040578
 10
15.3944942212
 20
28.9031033043
 10
15.4123438252
 20
28.9828837246
 10
15.4318098826
 20
29.062537075
 10
15.4531974092
 20
29.141906911
 10
15.4765445233
 20
29.2205008289
 10
15.5018356224
 20
29.2981141529
 10
15.5290863089
 20
29.3749506519
 10
15.5583815096
 20
29.4511306798
 10
15.5897421795
 20
29.5266447892
 10
15.6231473635
 20
29.6015016383
 10
15.6586191222
 20
29.6758487198
 10
15.6961868465
 20
29.749792234
 10
15.7358211455
 20
29.8232252327
 10
15.7774559078
 20
29.8959755307
 10
15.8208800617
 20
29.9681083509
 10
15.8663046788
 20
30.0395579623
 10
15.914296862
 20
30.1099559683
 10
15.9650456454
 20
30.1791796088
 10
16.018361995
 20
30.2473516138
 10
16.0742459105
 20
30.314472
  0
LWPOLYLINE
  5
3CD
100
AcDbEntity
  8
0
100
AcDbPolyline
 62
7
  6
CONTINUOUS
 90
56
 70
0
 10
-17.430405
 20
-34.1056258703
 10
-17.53688106
 20
-34.1863453245
 10
-17.6448353804
 20
-34.2595497808
 10
-17.7542679613
 20
-34.3252397059
 10
-17.8656352459
 20
-34.3835582578
 10
-17.978480791
 20
-34.434363068
 10
-18.0914352665
 20
-34.477226261
 10
-18.2044420337
 20
-34.51179561
 10
-18.3175577314
 20
-34.5384238781
 10
-18.4295829457
 20
-34.557740599
 10
-18.540706219
 20
-34.5694679302
 10
-18.6507390089
 20
-34.5738839125
 10
-18.7579162741
 20
-34.5724518151
 10
-18.8617273938
 20
-34.5654309629
 10
-18.9626829887
 20
-34.5525619888
 10
-19.0605498796
 20
-34.5345300816
 10
-19.1552348942
 20
-34.5114393474
 10
-19.2468312047
 20
-34.4831854982
 10
-19.3353851488
 20
-34.4501411134
 10
-19.4211997389
 20
-34.4124678513
 10
-19.5039719625
 20
-34.3700037663
 10
-19.58283912
 20
-34.3226360073
 10
-19.657724637
 20
-34.2703838322
 10
-19.7287050879
 20
-34.2132275671
 10
-19.7951474959
 20
-34.1509959215
 10
-19.8570418936
 20
-34.0832976619
 10
-19.9143982484
 20
-34.0105234498
 10
-19.966613486
 20
-33.9336748587
 10
-20.0135386614
 20
-33.8522443595
 10
-20.0553227195
 20
-33.7667389209
 10
-20.0918094207
 20
-33.6796820871
 10
-20.1228265141
 20
-33.5912872017
 10
-20.1485462506
 20
-33.5013407144
 10
-20.1693291436
 20
-33.4117261489
 10
-20.1849714315
 20
-33.3229663679
 10
-20.1956768759
 20
-33.2345385961
 10
-20.202417274
 20
-33.1467580644
 10
-20.2053830524
 20
-33.0595163971
 10
-20.2043837845
 20
-32.9729220698
 10
-20.1998199885
 20
-32.8876156588
 10
-20.1917336349
 20
-32.8036202643
 10
-20.1800827531
 20
-32.7209129764
 10
-20.1651419498
 20
-32.6400654369
 10
-20.1469004652
 20
-32.5612859539
 10
-20.1253690592
 20
-32.4843664787
 10
-20.1008546182
 20
-32.4092541487
 10
-20.0735501829
 20
-32.3358720327
 10
-20.0432627126
 20
-32.2642972827
 10
-20.0097199728
 20
-32.1947081624
 10
-19.9730536644
 20
-32.1269677709
 10
-19.9331320864
 20
-32.0612132285
 10
-19.8892879017
 20
-31.9980338666
 10
-19.8411667735
 20
-31.9372289506
 10
-19.7891230385
 20
-31.8789994674
 10
-19.7335523697
 20
-31.8245374082
 10
-19.6743182753
 20
-31.7741349978
  0
LWPOLYLINE
  5
3CE
100
AcDbEntity
  8
0
100
AcDbPolyline
 62
7
  6
CONTINUOUS
 90
36
 70
0
 10
-19.6743182753
 20
-31.7741349978
 10
-19.6115572471
 20
-31.7275003356
 10
-19.5460744333
 20
-31.6849492735
 10
-19.477725161
 20
-31.6466546015
 10
-19.406654103
 20
-31.6124437953
 10
-19.334100426
 20
-31.5821147213
 10
-19.2602575685
 20
-31.5556799386
 10
-19.1849320921
 20
-31.5331270622
 10
-19.1087828474
 20
-31.5142165138
 10
-19.0318313475
 20
-31.4990114812
 10
-18.9540560795
 20
-31.4874488751
 10
-18.8760513549
 20
-31.4790996777
 10
-18.7979057356
 20
-31.4738124346
 10
-18.7195306597
 20
-31.4717386342
 10
-18.6412547535
 20
-31.4729036567
 10
-18.5630262339
 20
-31.4771061623
 10
-18.484896884
 20
-31.4845474775
 10
-18.4073506788
 20
-31.4958569661
 10
-18.3301709431
 20
-31.5111378178
 10
-18.2535743521
 20
-31.5302867614
 10
-18.1786949074
 20
-31.553623442
 10
-18.1053621406
 20
-31.5811983109
 10
-18.03374652
 20
-31.6129607483
 10
-17.9654934517
 20
-31.6490787626
 10
-17.9006750356
 20
-31.6896855874
 10
-17.8392191717
 20
-31.7346477219
 10
-17.7825549663
 20
-31.7837330538
 10
-17.73123975
 20
-31.8373605231
 10
-17.6847161923
 20
-31.8951108405
 10
-17.6427414081
 20
-31.9554946048
 10
-17.6056235219
 20
-32.0183118911
 10
-17.5730544092
 20
-32.0837623683
 10
-17.5438668118
 20
-32.1509561311
 10
-17.5176716436
 20
-32.2195965003
 10
-17.4948579906
 20
-32.2899799707
 10
-17.4754258529
 20
-32.3621064407
  0
LINE
  5
3CF
100
AcDbEntity
  8
0
100
AcDbLine
 62
7
  6
CONTINUOUS
 10
-84.6694502601
 20
14.0
 11
-80.8
 21
14.0
  0
LINE
  5
3D0
100
AcDbEntity
  8
0
100
AcDbLine
 62
7
  6
CONTINUOUS
 10
80.8
 20
14.0
 11
84.6694502601
 21
14.0
  0
LINE
  5
3D1
100
AcDbEntity
  8
0
100
AcDbLine
 62
7
  6
CONTINUOUS
 10
80.8
 20
14.8
 11
84.6308120077
 21
14.8
  0
LINE
  5
3D2
100
AcDbEntity
  8
0
100
AcDbLine
 62
7
  6
CONTINUOUS
 10
-80.8
 20
14.8
 11
-84.6308120077
 21
14.8
  0
LINE
  5
3D3
100
AcDbEntity
  8
0
100
AcDbLine
 62
7
  6
CONTINUOUS
 10
-84.5360063288
 20
16.6
 11
-80.8
 21
16.6
  0
LINE
  5
3D4
100
AcDbEntity
  8
0
100
AcDbLine
 62
7
  6
CONTINUOUS
 10
80.8
 20
16.6
 11
84.5360063288
 21
16.6
  0
LINE
  5
3D5
100
AcDbEntity
  8
0
100
AcDbLine
 62
7
  6
CONTINUOUS
 10
80.8
 20
17.4
 11
84.4903707646
 21
17.4
  0
LINE
  5
3D6
100
AcDbEntity
  8
0
100
AcDbLine
 62
7
  6
CONTINUOUS
 10
-80.8
 20
17.4
 11
-84.4903707646
 21
17.4
  0
LINE
  5
3D7
100
AcDbEntity
  8
0
100
AcDbLine
 62
7
  6
CONTINUOUS
 10
-84.3798097696
 20
19.2
 11
-80.8
 21
19.2
  0
LINE
  5
3D8
100
AcDbEntity
  8
0
100
AcDbLine
 62
7
  6
CONTINUOUS
 10
80.8
 20
19.2
 11
84.3798097696
 21
19.2
  0
LWPOLYLINE
  5
3D9
100
AcDbEntity
  8
0
100
AcDbPolyline
 62
7
  6
CONTINUOUS
 90
40
 70
0
 10
72.9999999526
 20
12.72
 10
73.1530495784
 20
12.7179339282
 10
73.305487663
 20
12.7118187378
 10
73.4573142066
 20
12.7016544211
 10
73.6089924314
 20
12.6873795786
 10
73.7600591152
 20
12.6690555786
 10
73.9091245907
 20
12.646866558
 10
74.0561613722
 20
12.6207314961
 10
74.2011969454
 20
12.5907313551
 10
74.3429241
 20
12.5572932444
 10
74.4812262588
 20
12.5203579834
 10
74.616219999
 20
12.4799846777
 10
74.7469478426
 20
12.4367778729
 10
74.8731693392
 20
12.3907762745
 10
74.9951249392
 20
12.3419411009
 10
75.1125785161
 20
12.2907606784
 10
75.2254540933
 20
12.2372745548
 10
75.3338276474
 20
12.1814431104
 10
75.4376909813
 20
12.1236359306
 10
75.5369715728
 20
12.0639362592
 10
75.6317419441
 20
12.0022607872
 10
75.7222114653
 20
11.9387292783
 10
75.808458231
 20
11.8733404271
 10
75.8904041465
 20
11.8060954728
 10
75.9680242986
 20
11.7371180003
 10
76.0412901194
 20
11.6665234354
 10
76.1102301768
 20
11.5941962893
 10
76.1749052608
 20
11.5199137719
 10
76.2355104468
 20
11.4434993697
 10
76.2918506594
 20
11.3651295167
 10
76.3434014632
 20
11.285110846
 10
76.3901169815
 20
11.2035335608
 10
76.432043091
 20
11.1203073935
 10
76.4687929856
 20
11.0354682789
 10
76.5004328224
 20
10.9487551587
 10
76.5268964442
 20
10.8604290219
 10
76.5475985738
 20
10.7713088943
 10
76.5623441187
 20
10.6816677844
 10
76.5713281715
 20
10.5912326621
 10
76.574550732
 20
10.5000035145
  0
LWPOLYLINE
  5
3DA
100
AcDbEntity
  8
0
100
AcDbPolyline
 62
7
  6
CONTINUOUS
 90
22
 70
0
 10
-23.4958342207
 20
28.5070940004
 10
-23.5256947104
 20
28.5173116713
 10
-23.554697165
 20
28.5291170861
 10
-23.5828415847
 20
28.5425102525
 10
-23.6101542806
 20
28.5576033505
 10
-23.6366089414
 20
28.5742842134
 10
-23.6621266333
 20
28.5922163247
 10
-23.6867652895
 20
28.6113180904
 10
-23.7104669766
 20
28.6316711005
 10
-23.7329789605
 20
28.6531836078
 10
-23.7542780447
 20
28.6758823179
 10
-23.7743874257
 20
28.6997405003
 10
-23.7931239587
 20
28.7245862477
 10
-23.810478662
 20
28.7504417779
 10
-23.8264605174
 20
28.7772848213
 10
-23.8409133254
 20
28.8048767352
 10
-23.8538516783
 20
28.833214987
 10
-23.8652609838
 20
28.8623020333
 10
-23.8749412663
 20
28.8919067144
 10
-23.8828258672
 20
28.9219519489
 10
-23.8889814451
 20
28.9525147279
 10
-23.893408
 20
28.983595
  0
LWPOLYLINE
  5
3DB
100
AcDbEntity
  8
INTF_1
100
AcDbPolyline
 62
7
  6
CONTINUOUS
 90
10
 70
0
 10
74.6173660643
 20
-10.3349814608
 10
74.62217433
 20
-10.3367160688
 10
74.6270113521
 20
-10.3383692671
 10
74.631870642
 20
-10.3399588715
 10
74.6367457114
 20
-10.341502698
 10
74.6416300716
 20
-10.3430185622
 10
74.6601977049
 20
-10.3486713941
 10
74.6788009095
 20
-10.3541954957
 10
74.6974348853
 20
-10.3596083065
 10
74.7347759498
 20
-10.3701698141
  0
LWPOLYLINE
  5
3DC
100
AcDbEntity
  8
0
100
AcDbPolyline
 62
7
  6
CONTINUOUS
 90
40
 70
0
 10
-26.241384
 20
28.498455
 10
-26.2740776006
 20
28.5103097126
 10
-26.3051863763
 20
28.5229660703
 10
-26.3347103272
 20
28.536424076
 10
-26.3626450842
 20
28.5507662979
 10
-26.3889950164
 20
28.565910172
 10
-26.4137732309
 20
28.5816080002
 10
-26.4369158804
 20
28.597854996
 10
-26.4584868122
 20
28.6146559411
 10
-26.4786906747
 20
28.631777486
 10
-26.4975737454
 20
28.6492042626
 10
-26.5150897469
 20
28.6669516276
 10
-26.5313044958
 20
28.6848323162
 10
-26.5462083069
 20
28.7028671753
 10
-26.5598108654
 20
28.7210353434
 10
-26.572207044
 20
28.7390869926
 10
-26.5833527565
 20
28.7570022485
 10
-26.5932920891
 20
28.7748009725
 10
-26.6022521731
 20
28.7922929434
 10
-26.6102251421
 20
28.8094398172
 10
-26.6172188627
 20
28.8262799304
 10
-26.6234840654
 20
28.8427380854
 10
-26.6291220112
 20
28.8587489287
 10
-26.6340314393
 20
28.8743778118
 10
-26.638159297
 20
28.8897455955
 10
-26.6413700727
 20
28.9048752685
 10
-26.6437992782
 20
28.9197438399
 10
-26.6458003964
 20
28.9344031992
 10
-26.6474300043
 20
28.9488440998
 10
-26.6486315251
 20
28.9630757868
 10
-26.6495887108
 20
28.9771778862
 10
-26.6504477797
 20
28.991142185
 10
-26.6510625136
 20
29.0049768935
 10
-26.6511780099
 20
29.0187862693
 10
-26.6506134194
 20
29.0325907612
 10
-26.6495495914
 20
29.0463699146
 10
-26.6482741709
 20
29.0601666287
 10
-26.6468830397
 20
29.0739952004
 10
-26.645280316
 20
29.0878413254
 10
-26.643466
 20
29.101705
  0
LWPOLYLINE
  5
3DD
100
AcDbEntity
  8
0
100
AcDbPolyline
 62
7
  6
CONTINUOUS
 90
13
 70
0
 10
-15.871326
 20
31.429869
 10
-15.877559562
 20
31.435132681
 10
-15.8844726133
 20
31.4396048163
 10
-15.8920651539
 20
31.4432854085
 10
-15.9004345037
 20
31.4460989561
 10
-15.9094833428
 20
31.4481209648
 10
-15.9189197112
 20
31.4495779475
 10
-15.9286833646
 20
31.4504246505
 10
-15.9388345471
 20
31.4507063285
 10
-15.9492620317
 20
31.4507852551
 10
-15.9599196339
 20
31.4507539526
 10
-15.9708535381
 20
31.4505198987
 10
-15.9936275628
 20
31.4497746338
  0
LINE
  5
3DE
100
AcDbEntity
  8
0
100
AcDbLine
 62
250
  6
CONTINUOUS
 10
83.0855934914
 20
33.7343564003
 11
82.9815038815
 21
33.7225169985
  0
LINE
  5
3DF
100
AcDbEntity
  8
0
100
AcDbLine
 62
7
  6
CONTINUOUS
 10
80.8
 20
20.0
 11
84.3271664378
 21
20.0
  0
LINE
  5
3E0
100
AcDbEntity
  8
0
100
AcDbLine
 62
7
  6
CONTINUOUS
 10
-80.8
 20
20.0
 11
-84.3271664378
 21
20.0
  0
LINE
  5
3E1
100
AcDbEntity
  8
0
100
AcDbLine
 62
7
  6
CONTINUOUS
 10
-63.7
 20
22.5
 11
63.7
 21
22.5
  0
LINE
  5
3E2
100
AcDbEntity
  8
26216763_GEN
100
AcDbLine
 62
7
  6
CONTINUOUS
 10
83.1096853607
 20
22.5
 11
63.7
 21
22.5
  0
LINE
  5
3E3
100
AcDbEntity
  8
26216763_GEN
100
AcDbLine
 62
7
  6
CONTINUOUS
 10
-63.7
 20
22.5
 11
-83.1096853699
 21
22.5
  0
LINE
  5
3E4
100
AcDbEntity
  8
0
100
AcDbLine
 62
7
  6
CONTINUOUS
 10
63.0
 20
23.1
 11
32.15
 21
23.1
  0
LINE
  5
3E5
100
AcDbEntity
  8
0
100
AcDbLine
 62
7
  6
CONTINUOUS
 10
31.65
 20
23.1
 11
0.25
 21
23.1
  0
LINE
  5
3E6
100
AcDbEntity
  8
0
100
AcDbLine
 62
7
  6
CONTINUOUS
 10
-0.25
 20
23.1
 11
-31.65
 21
23.1
  0
LINE
  5
3E7
100
AcDbEntity
  8
0
100
AcDbLine
 62
7
  6
CONTINUOUS
 10
-32.15
 20
23.1
 11
-63.0
 21
23.1
  0
LINE
  5
3E8
100
AcDbEntity
  8
0
100
AcDbLine
 62
7
  6
CONTINUOUS
 10
63.7
 20
23.1574363608
 11
63.0
 21
23.1574363608
  0
LINE
  5
3E9
100
AcDbEntity
  8
0
100
AcDbLine
 62
7
  6
CONTINUOUS
 10
32.15
 20
23.1574363608
 11
31.65
 21
23.1574363608
  0
LINE
  5
3EA
100
AcDbEntity
  8
0
100
AcDbLine
 62
7
  6
CONTINUOUS
 10
0.25
 20
23.1574363608
 11
-0.25
 21
23.1574363608
  0
LINE
  5
3EB
100
AcDbEntity
  8
0
100
AcDbLine
 62
7
  6
CONTINUOUS
 10
-31.65
 20
23.1574363608
 11
-32.15
 21
23.1574363608
  0
LINE
  5
3EC
100
AcDbEntity
  8
0
100
AcDbLine
 62
7
  6
CONTINUOUS
 10
-63.0
 20
23.1574363608
 11
-63.7
 21
23.1574363608
  0
LINE
  5
3ED
100
AcDbEntity
  8
26216763_GEN
100
AcDbLine
 62
7
  6
CONTINUOUS
 10
-83.0207962027
 20
23.2
 11
-63.7
 21
23.2
  0
LINE
  5
3EE
100
AcDbEntity
  8
26216763_GEN
100
AcDbLine
 62
7
  6
CONTINUOUS
 10
63.7
 20
23.2
 11
83.020796197
 21
23.2
  0
LINE
  5
3EF
100
AcDbEntity
  8
0
100
AcDbLine
 62
7
  6
CONTINUOUS
 10
63.0
 20
24.0
 11
32.15
 21
24.0
  0
LINE
  5
3F0
100
AcDbEntity
  8
0
100
AcDbLine
 62
7
  6
CONTINUOUS
 10
31.65
 20
24.0
 11
0.25
 21
24.0
  0
LINE
  5
3F1
100
AcDbEntity
  8
0
100
AcDbLine
 62
7
  6
CONTINUOUS
 10
-0.25
 20
24.0
 11
-31.65
 21
24.0
  0
LINE
  5
3F2
100
AcDbEntity
  8
0
100
AcDbLine
 62
7
  6
CONTINUOUS
 10
-32.15
 20
24.0
 11
-63.0
 21
24.0
  0
LINE
  5
3F3
100
AcDbEntity
  8
0
100
AcDbLine
 62
7
  6
CONTINUOUS
 10
81.4
 20
25.5
 11
83.9067434817
 21
25.5
  0
LINE
  5
3F4
100
AcDbEntity
  8
0
100
AcDbLine
 62
7
  6
CONTINUOUS
 10
-81.4
 20
25.5
 11
-83.9067434817
 21
25.5
  0
LINE
  5
3F5
100
AcDbEntity
  8
0
100
AcDbLine
 62
7
  6
CONTINUOUS
 10
81.4
 20
26.3
 11
83.8370664219
 21
26.3
  0
LINE
  5
3F6
100
AcDbEntity
  8
0
100
AcDbLine
 62
7
  6
CONTINUOUS
 10
-81.4
 20
26.3
 11
-83.8370664219
 21
26.3
  0
LINE
  5
3F7
100
AcDbEntity
  8
0
100
AcDbLine
 62
250
  6
CONTINUOUS
 10
-83.0855934914
 20
33.7343564003
 11
-82.9815038815
 21
33.7225169985
  0
LWPOLYLINE
  5
3F8
100
AcDbEntity
  8
0
100
AcDbPolyline
 62
7
  6
CONTINUOUS
 90
49
 70
0
 10
-15.3170066494
 20
28.4575577867
 10
-15.3690991171
 20
28.4681161785
 10
-15.4193628858
 20
28.4818913884
 10
-15.4677979554
 20
28.4988834436
 10
-15.514456639
 20
28.519061466
 10
-15.5592866236
 20
28.5424563889
 10
-15.6021309699
 20
28.569160954
 10
-15.6431300972
 20
28.5992305542
 10
-15.6821435862
 20
28.6326098031
 10
-15.7185932411
 20
28.669225249
 10
-15.7526042691
 20
28.7091368492
 10
-15.784051463
 20
28.7522844988
 10
-15.8119810046
 20
28.7984146016
 10
-15.8358713902
 20
28.8479462675
 10
-15.8562441235
 20
28.9004599623
 10
-15.8737098978
 20
28.9544441057
 10
-15.888276605
 20
29.0097494305
 10
-15.8999363532
 20
29.0665246322
 10
-15.9092761606
 20
29.123705168
 10
-15.9163716481
 20
29.1810780667
 10
-15.9211471948
 20
29.2388557696
 10
-15.9239629554
 20
29.2966119713
 10
-15.9248685204
 20
29.3541355479
 10
-15.9238142995
 20
29.4116371743
 10
-15.9210116759
 20
29.469323262
 10
-15.9165349283
 20
29.5269940928
 10
-15.9103097782
 20
29.5848488687
 10
-15.9023247737
 20
29.643692188
 10
-15.8926269913
 20
29.703519072
 10
-15.8811693547
 20
29.7643335545
 10
-15.8677991829
 20
29.8269533553
 10
-15.8526601716
 20
29.8914705873
 10
-15.8356086251
 20
29.957791489
 10
-15.8160607754
 20
30.0264544991
 10
-15.794041903
 20
30.0976790493
 10
-15.7695267274
 20
30.171243141
 10
-15.7418556393
 20
30.2470227788
 10
-15.7111560837
 20
30.325251225
 10
-15.6773006155
 20
30.4056919934
 10
-15.63924729
 20
30.4875167442
 10
-15.5966639801
 20
30.5709559659
 10
-15.5498828129
 20
30.6557761141
 10
-15.4988582246
 20
30.7404540287
 10
-15.4434248673
 20
30.8255639342
 10
-15.383748089
 20
30.9105299982
 10
-15.3202783697
 20
30.9921071724
 10
-15.2531658694
 20
31.0692159096
 10
-15.1822604281
 20
31.1429396445
 10
-15.1075620457
 20
31.2132801407
  0
LWPOLYLINE
  5
3F9
100
AcDbEntity
  8
0
100
AcDbPolyline
 62
7
  6
CONTINUOUS
 90
49
 70
0
 10
-8.0028226494
 20
28.4575577867
 10
-8.0549151171
 20
28.4681161785
 10
-8.1051788858
 20
28.4818913884
 10
-8.1536139554
 20
28.4988834436
 10
-8.200272639
 20
28.519061466
 10
-8.2451026236
 20
28.5424563889
 10
-8.2879469699
 20
28.569160954
 10
-8.3289460972
 20
28.5992305542
 10
-8.3679595862
 20
28.6326098031
 10
-8.4044092411
 20
28.669225249
 10
-8.4384202691
 20
28.7091368492
 10
-8.469867463
 20
28.7522844988
 10
-8.4977970046
 20
28.7984146016
 10
-8.5216873902
 20
28.8479462675
 10
-8.5420601235
 20
28.9004599623
 10
-8.5595258978
 20
28.9544441057
 10
-8.574092605
 20
29.0097494305
 10
-8.5857523532
 20
29.0665246322
 10
-8.5950921606
 20
29.123705168
 10
-8.6021876481
 20
29.1810780667
 10
-8.6069631948
 20
29.2388557696
 10
-8.6097789554
 20
29.2966119713
 10
-8.6106845204
 20
29.3541355479
 10
-8.6096302995
 20
29.4116371743
 10
-8.6068276759
 20
29.469323262
 10
-8.6023509283
 20
29.5269940928
 10
-8.5961257782
 20
29.5848488687
 10
-8.5881407737
 20
29.643692188
 10
-8.5784429913
 20
29.703519072
 10
-8.5669853547
 20
29.7643335545
 10
-8.5536151829
 20
29.8269533553
 10
-8.5384761716
 20
29.8914705873
 10
-8.5214246251
 20
29.957791489
 10
-8.5018767754
 20
30.0264544991
 10
-8.479857903
 20
30.0976790493
 10
-8.4553427274
 20
30.171243141
 10
-8.4276716393
 20
30.2470227788
 10
-8.3969720837
 20
30.325251225
 10
-8.3631166155
 20
30.4056919934
 10
-8.32506329
 20
30.4875167442
 10
-8.2824799801
 20
30.5709559659
 10
-8.2356988129
 20
30.6557761141
 10
-8.1846742246
 20
30.7404540287
 10
-8.1292408673
 20
30.8255639342
 10
-8.069564089
 20
30.9105299982
 10
-8.0060943697
 20
30.9921071724
 10
-7.9389818694
 20
31.0692159096
 10
-7.8680764281
 20
31.1429396445
 10
-7.7933780457
 20
31.2132801407
  0
LWPOLYLINE
  5
3FA
100
AcDbEntity
  8
0
100
AcDbPolyline
 62
7
  6
CONTINUOUS
 90
37
 70
0
 10
-19.222348
 20
31.176377
 10
-19.257826768
 20
31.1862024221
 10
-19.2934532655
 20
31.1929751198
 10
-19.3292274926
 20
31.1966952876
 10
-19.3657175059
 20
31.1971224575
 10
-19.4023552487
 20
31.1944972202
 10
-19.4374365506
 20
31.1895412441
 10
-19.470534038
 20
31.182135426
 10
-19.5020750845
 20
31.1723985934
 10
-19.5316376411
 20
31.1614093491
 10
-19.558999363
 20
31.1494877232
 10
-19.584382595
 20
31.1363134446
 10
-19.608032323
 20
31.1220047544
 10
-19.6300926595
 20
31.1067696305
 10
-19.6504194921
 20
31.0903998145
 10
-19.668825469
 20
31.0723891175
 10
-19.6851167877
 20
31.0523350687
 10
-19.6994872507
 20
31.0306395495
 10
-19.7123309146
 20
31.008002928
 10
-19.7234713648
 20
30.9843657949
 10
-19.7330850158
 20
30.9597872021
 10
-19.742095168
 20
30.9351455231
 10
-19.7504759762
 20
30.9104988283
 10
-19.7582532855
 20
30.8857890668
 10
-19.7664279316
 20
30.8617207596
 10
-19.7751550957
 20
30.8382607963
 10
-19.7842795965
 20
30.8154425669
 10
-19.7943367262
 20
30.794070625
 10
-19.8055767461
 20
30.7742897916
 10
-19.8177493949
 20
30.7559557566
 10
-19.8306391811
 20
30.7394395456
 10
-19.8442253038
 20
30.7248404054
 10
-19.8585285638
 20
30.7120595446
 10
-19.8733958723
 20
30.7011709485
 10
-19.8887761997
 20
30.6921993778
 10
-19.9047205756
 20
30.6851203611
 10
-19.921229
 20
30.679934
  0
LWPOLYLINE
  5
3FB
100
AcDbEntity
  8
0
100
AcDbPolyline
 62
7
  6
CONTINUOUS
 90
19
 70
0
 10
-24.74126
 20
31.135737
 10
-24.771519178
 20
31.1460233953
 10
-24.8024107951
 20
31.1540361323
 10
-24.8339348513
 20
31.1597753793
 10
-24.8663347197
 20
31.163277274
 10
-24.8993670271
 20
31.164505873
 10
-24.9323016542
 20
31.1633531532
 10
-24.9651338297
 20
31.1597318772
 10
-24.9978683247
 20
31.1537291751
 10
-25.0297893338
 20
31.1454985053
 10
-25.0609099946
 20
31.1349323175
 10
-25.0912171695
 20
31.1221377702
 10
-25.1199556395
 20
31.1075903836
 10
-25.1469785252
 20
31.0912822405
 10
-25.172432706
 20
31.0732207736
 10
-25.196003602
 20
31.0539046273
 10
-25.2175863529
 20
31.0334999113
 10
-25.2372858189
 20
31.0118401109
 10
-25.255102
 20
30.988925
  0
LWPOLYLINE
  5
3FC
100
AcDbEntity
  8
0
100
AcDbPolyline
 62
7
  6
CONTINUOUS
 90
16
 70
0
 10
-18.725016
 20
31.502513
 10
-18.6965871524
 20
31.4924240741
 10
-18.6689421425
 20
31.4808376554
 10
-18.6420809703
 20
31.4677537303
 10
-18.6159263927
 20
31.4531093532
 10
-18.5905556527
 20
31.4369674368
 10
-18.5662004798
 20
31.4195167548
 10
-18.5428981865
 20
31.4007348888
 10
-18.5206114603
 20
31.38064422
 10
-18.4994600923
 20
31.359500726
 10
-18.479449939
 20
31.33730681
 10
-18.4605751439
 20
31.3140600334
 10
-18.4429379292
 20
31.2900091188
 10
-18.4265723688
 20
31.2652369654
 10
-18.4114443887
 20
31.2396606447
 10
-18.3975539889
 20
31.2132801407
  0
LWPOLYLINE
  5
3FD
100
AcDbEntity
  8
0
100
AcDbPolyline
 62
7
  6
CONTINUOUS
 90
15
 70
0
 10
75.0402696302
 20
-10.6990385245
 10
75.0287991068
 20
-10.6929414275
 10
75.0168595794
 20
-10.6871144938
 10
75.0044510479
 20
-10.6815577238
 10
74.9915886676
 20
-10.6763283755
 10
74.9782572833
 20
-10.6713691918
 10
74.9644114289
 20
-10.6665084
 10
74.9500336023
 20
-10.6616989497
 10
74.9351413056
 20
-10.6569878915
 10
74.9197415795
 20
-10.652344604
 10
74.9038305184
 20
-10.6477850227
 10
74.887412028
 20
-10.6432932121
 10
74.8705048663
 20
-10.6387907442
 10
74.8531152859
 20
-10.6342514759
 10
74.8352370343
 20
-10.6297015503
  0
LWPOLYLINE
  5
3FE
100
AcDbEntity
  8
0
100
AcDbPolyline
 62
7
  6
CONTINUOUS
 90
16
 70
0
 10
-6.3802046569
 20
31.6632834393
 10
-6.4184668233
 20
31.69083491
 10
-6.4565339456
 20
31.7166907902
 10
-6.4944060239
 20
31.7408511143
 10
-6.5322727735
 20
31.7631488366
 10
-6.569944479
 20
31.7837510669
 10
-6.6068519944
 20
31.8031590624
 10
-6.6428806614
 20
31.8214674177
 10
-6.6781451382
 20
31.8385815727
 10
-6.7124202538
 20
31.8547190394
 10
-6.7456778874
 20
31.8698907221
 10
-6.7779461598
 20
31.8840857407
 10
-6.8090842618
 20
31.897488925
 10
-6.838994907
 20
31.910077024
 10
-6.8677753819
 20
31.9218733052
 10
-6.9223087805
 20
31.9438956983
  0
LWPOLYLINE
  5
3FF
100
AcDbEntity
  8
0
100
AcDbPolyline
 62
7
  6
CONTINUOUS
 90
76
 70
0
 10
14.4878673807
 20
30.0567210298
 10
14.4841774854
 20
30.0725847749
 10
14.4802026253
 20
30.0882872584
 10
14.4759428004
 20
30.1038284889
 10
14.4714260512
 20
30.1192148059
 10
14.4666243372
 20
30.1344398869
 10
14.4614535369
 20
30.1494847489
 10
14.4559577588
 20
30.1643140281
 10
14.4500928944
 20
30.1789631116
 10
14.443642496
 20
30.193519137
 10
14.436526122
 20
30.2081814011
 10
14.4288242141
 20
30.2227506038
 10
14.4205616498
 20
30.2367160224
 10
14.4117941141
 20
30.2498967888
 10
14.4024659221
 20
30.2624738702
 10
14.3924348959
 20
30.2744793363
 10
14.3815946473
 20
30.2858919868
 10
14.3700515646
 20
30.296733099
 10
14.3579826349
 20
30.3070984477
 10
14.3454092298
 20
30.3170802493
 10
14.3323099778
 20
30.3265863401
 10
14.3187977511
 20
30.3354359271
 10
14.3048773227
 20
30.3435946212
 10
14.2905439196
 20
30.3510968807
 10
14.2758960955
 20
30.3578651943
 10
14.2609063948
 20
30.3638798541
 10
14.245602273
 20
30.3691606271
 10
14.23016465
 20
30.3736892139
 10
14.2146352517
 20
30.3774356688
 10
14.1989723522
 20
30.3804299774
 10
14.1832316931
 20
30.3827437317
 10
14.1674165431
 20
30.3843803949
 10
14.1515236337
 20
30.3853365209
 10
14.1355989002
 20
30.3856733313
 10
14.1196116609
 20
30.3854213212
 10
14.1035925977
 20
30.3845499958
 10
14.0876796918
 20
30.3830290885
 10
14.0718722503
 20
30.3808538386
 10
14.0561709662
 20
30.3780289915
 10
14.0407159002
 20
30.3745385347
 10
14.0255366538
 20
30.3703738538
 10
14.0106036254
 20
30.3655435309
 10
13.9959680709
 20
30.3600573446
 10
13.981749221
 20
30.353991785
 10
13.967827845
 20
30.3472703167
 10
13.9538975057
 20
30.3396731665
 10
13.939914946
 20
30.3311884825
 10
13.925923423
 20
30.3218280298
 10
13.9117462706
 20
30.3114074346
 10
13.8972253961
 20
30.29985779
 10
13.8825188921
 20
30.2872478605
 10
13.8679243706
 20
30.2735997616
 10
13.8535147738
 20
30.2589817661
 10
13.8392171596
 20
30.2433254366
 10
13.825110313
 20
30.2264478005
 10
13.8111634411
 20
30.2083040961
 10
13.7974073369
 20
30.1889388473
 10
13.7840131649
 20
30.1683029785
 10
13.7709628462
 20
30.1463512454
 10
13.7582744597
 20
30.1231286106
 10
13.7461734062
 20
30.0987213075
 10
13.7346433967
 20
30.0732082914
 10
13.7237007202
 20
30.0465103378
 10
13.7136196444
 20
30.0184763974
 10
13.7045089896
 20
29.9890655398
 10
13.6962599354
 20
29.9583183647
 10
13.6888202884
 20
29.9262060923
 10
13.6821912501
 20
29.8927
 10
13.676371619
 20
29.8578284759
 10
13.6713055977
 20
29.8216484138
 10
13.6669892119
 20
29.7841925596
 10
13.6634264358
 20
29.7454278813
 10
13.6605733946
 20
29.7053126171
 10
13.6584154634
 20
29.6638327575
 10
13.656967267
 20
29.6210020538
 10
13.6562288055
 20
29.5768203935
  0
LWPOLYLINE
  5
400
100
AcDbEntity
  8
0
100
AcDbPolyline
 62
7
  6
CONTINUOUS
 90
76
 70
0
 10
17.7318271385
 20
30.0567210108
 10
17.7281372434
 20
30.0725847564
 10
17.7241623835
 20
30.0882872404
 10
17.7199025589
 20
30.1038284713
 10
17.71538581
 20
30.1192147888
 10
17.7105840963
 20
30.1344398702
 10
17.7054132963
 20
30.1494847326
 10
17.6999175185
 20
30.1643140122
 10
17.6940526544
 20
30.1789630962
 10
17.6876022565
 20
30.1935191219
 10
17.6804858831
 20
30.2081813864
 10
17.6727839758
 20
30.2227505893
 10
17.664521412
 20
30.2367160085
 10
17.6557538768
 20
30.2498967758
 10
17.646425685
 20
30.2624738584
 10
17.6363946591
 20
30.2744793255
 10
17.625554411
 20
30.2858919766
 10
17.6140113289
 20
30.2967330892
 10
17.6019423996
 20
30.3070984384
 10
17.5893689948
 20
30.3170802406
 10
17.5762697429
 20
30.3265863321
 10
17.5627575164
 20
30.3354359198
 10
17.5488370881
 20
30.3435946146
 10
17.5345036851
 20
30.3510968748
 10
17.519855861
 20
30.3578651891
 10
17.5048661603
 20
30.3638798496
 10
17.4895620385
 20
30.3691606233
 10
17.4741244154
 20
30.3736892108
 10
17.4585950169
 20
30.3774356662
 10
17.4429321171
 20
30.3804299755
 10
17.4271914578
 20
30.3827437303
 10
17.4113763077
 20
30.384380394
 10
17.395483398
 20
30.3853365204
 10
17.3795586644
 20
30.3856733313
 10
17.3635714249
 20
30.3854213216
 10
17.3475523613
 20
30.3845499966
 10
17.3316394552
 20
30.3830290896
 10
17.3158320133
 20
30.3808538401
 10
17.3001307289
 20
30.3780289933
 10
17.2846756625
 20
30.3745385369
 10
17.2694964157
 20
30.3703738563
 10
17.2545633869
 20
30.3655435336
 10
17.2399278319
 20
30.3600573476
 10
17.2257089817
 20
30.3539917883
 10
17.2117876053
 20
30.3472703201
 10
17.1978572656
 20
30.3396731701
 10
17.1838747059
 20
30.3311884865
 10
17.1698831829
 20
30.3218280342
 10
17.1557060304
 20
30.3114074394
 10
17.1411851556
 20
30.299857795
 10
17.1264786514
 20
30.2872478657
 10
17.1118841296
 20
30.2735997669
 10
17.0974745326
 20
30.2589817716
 10
17.083176918
 20
30.2433254423
 10
17.0690700712
 20
30.2264478063
 10
17.055123199
 20
30.208304102
 10
17.0413670946
 20
30.1889388533
 10
17.0279729223
 20
30.1683029846
 10
17.0149226032
 20
30.1463512515
 10
17.0022342164
 20
30.1231286166
 10
16.9901331625
 20
30.0987213134
 10
16.9786031527
 20
30.0732082972
 10
16.9676604759
 20
30.0465103434
 10
16.9575793998
 20
30.0184764029
 10
16.9484687446
 20
29.989065545
 10
16.9402196902
 20
29.9583183697
 10
16.932780043
 20
29.926206097
 10
16.9261510045
 20
29.8927000043
 10
16.9203313732
 20
29.8578284798
 10
16.9152653517
 20
29.8216484173
 10
16.9109489657
 20
29.7841925626
 10
16.9073861896
 20
29.7454278838
 10
16.9045331483
 20
29.705312619
 10
16.902375217
 20
29.6638327588
 10
16.9009270205
 20
29.6210020545
 10
16.900188559
 20
29.5768203935
  0
LWPOLYLINE
  5
401
100
AcDbEntity
  8
0
100
AcDbPolyline
 62
7
  6
CONTINUOUS
 90
49
 70
0
 10
19.3828451315
 20
29.2908919127
 10
19.3770330258
 20
29.3214626126
 10
19.3696963626
 20
29.3506755948
 10
19.3611619087
 20
29.378173988
 10
19.3514069699
 20
29.4038011494
 10
19.3404542404
 20
29.4277139233
 10
19.32869857
 20
29.4500256884
 10
19.3161703947
 20
29.4706792561
 10
19.3028392785
 20
29.489731993
 10
19.2890087627
 20
29.5074690826
 10
19.2747043381
 20
29.5239144332
 10
19.2599005139
 20
29.539044264
 10
19.244824359
 20
29.5530721946
 10
19.2295590066
 20
29.5660067707
 10
19.2140213235
 20
29.5778395383
 10
19.1981889793
 20
29.5887585957
 10
19.1820819944
 20
29.5987864142
 10
19.1656803485
 20
29.6079005849
 10
19.1489016493
 20
29.6162218716
 10
19.1316917192
 20
29.6237838899
 10
19.1141047358
 20
29.6305530669
 10
19.09622084
 20
29.6365493768
 10
19.0780131145
 20
29.6417653856
 10
19.0595084764
 20
29.6462085582
 10
19.0408678186
 20
29.6499212127
 10
19.0219886726
 20
29.6528857191
 10
19.0029735068
 20
29.6551197254
 10
18.9842906189
 20
29.6567184629
 10
18.9662309171
 20
29.6577039536
 10
18.9485034933
 20
29.6580541815
 10
18.9307039207
 20
29.6577983172
 10
18.9129595411
 20
29.6570602434
 10
18.8951430129
 20
29.6557160753
 10
18.8764678843
 20
29.6534233289
 10
18.8565741782
 20
29.6502100168
 10
18.8358218717
 20
29.6460481074
 10
18.814504445
 20
29.6405110376
 10
18.7925869294
 20
29.6335593313
 10
18.7701042935
 20
29.6252324025
 10
18.7474549228
 20
29.6152219978
 10
18.7245401697
 20
29.6033982012
 10
18.7014586818
 20
29.589890799
 10
18.6789047868
 20
29.5747810738
 10
18.6567825187
 20
29.5579055283
 10
18.6351878435
 20
29.5394274911
 10
18.6151029868
 20
29.5199185132
 10
18.596855357
 20
29.4995690901
 10
18.5801175457
 20
29.4781886235
 10
18.5648895528
 20
29.4557770582
  0
LWPOLYLINE
  5
402
100
AcDbEntity
  8
0
100
AcDbPolyline
 62
7
  6
CONTINUOUS
 90
40
 70
0
 10
18.5478010794
 20
29.0698630067
 10
18.556047147
 20
29.0239052148
 10
18.5667739648
 20
28.9805816988
 10
18.5799815327
 20
28.9398927033
 10
18.5956500076
 20
28.9017583145
 10
18.6137992326
 20
28.8662588104
 10
18.6344887375
 20
28.8336346736
 10
18.6579047611
 20
28.8039258086
 10
18.6838610645
 20
28.7770925017
 10
18.7118584612
 20
28.7532557774
 10
18.7419579112
 20
28.7323362776
 10
18.7740984544
 20
28.7144134342
 10
18.8075980243
 20
28.6998464387
 10
18.8425039299
 20
28.688807921
 10
18.8787688622
 20
28.6811252696
 10
18.9155688279
 20
28.676639805
 10
18.95304435
 20
28.675278199
 10
18.9910549054
 20
28.6771137811
 10
19.0283549314
 20
28.6822078573
 10
19.0647868897
 20
28.690611341
 10
19.1005083187
 20
28.7022733142
 10
19.1347462702
 20
28.7171023323
 10
19.1673804054
 20
28.7352737924
 10
19.1985310632
 20
28.7566122636
 10
19.2277863126
 20
28.7805000496
 10
19.2552476931
 20
28.8069539517
 10
19.2808136652
 20
28.8359570719
 10
19.3037676788
 20
28.8668411586
 10
19.3239220257
 20
28.8996790495
 10
19.3414644142
 20
28.9343977344
 10
19.3562414186
 20
28.9701102051
 10
19.3680432374
 20
29.0069683784
 10
19.3770796721
 20
29.0448201329
 10
19.3838267015
 20
29.0823224837
 10
19.3882332888
 20
29.1192655591
 10
19.3903504709
 20
29.1558591517
 10
19.3908073372
 20
29.191389892
 10
19.3897683316
 20
29.2257183826
 10
19.3870690103
 20
29.2589840667
 10
19.3828451315
 20
29.2908919127
  0
LINE
  5
403
100
AcDbEntity
  8
0
100
AcDbLine
 62
7
  6
CONTINUOUS
 10
31.65
 20
-23.1
 11
31.65
 21
-37.7
  0
LINE
  5
404
100
AcDbEntity
  8
0
100
AcDbLine
 62
7
  6
CONTINUOUS
 10
31.65
 20
-37.95
 11
31.65
 21
-39.497941481
  0
LINE
  5
405
100
AcDbEntity
  8
0
100
AcDbLine
 62
7
  6
CONTINUOUS
 10
31.65
 20
23.1
 11
31.65
 21
37.7
  0
LINE
  5
406
100
AcDbEntity
  8
0
100
AcDbLine
 62
7
  6
CONTINUOUS
 10
31.65
 20
37.95
 11
31.65
 21
39.497941481
  0
LINE
  5
407
100
AcDbEntity
  8
0
100
AcDbLine
 62
7
  6
CONTINUOUS
 10
32.15
 20
-39.497941481
 11
32.15
 21
-37.95
  0
LINE
  5
408
100
AcDbEntity
  8
0
100
AcDbLine
 62
7
  6
CONTINUOUS
 10
32.15
 20
-23.1
 11
32.15
 21
-37.7
  0
LINE
  5
409
100
AcDbEntity
  8
0
100
AcDbLine
 62
7
  6
CONTINUOUS
 10
32.15
 20
23.1
 11
32.15
 21
37.7
  0
LINE
  5
40A
100
AcDbEntity
  8
0
100
AcDbLine
 62
7
  6
CONTINUOUS
 10
32.15
 20
37.95
 11
32.15
 21
39.497941481
  0
LINE
  5
40B
100
AcDbEntity
  8
0
100
AcDbLine
 62
7
  6
CONTINUOUS
 10
18.5478010794
 20
29.0698630067
 11
18.2786578558
 21
29.0470779878
  0
LINE
  5
40C
100
AcDbEntity
  8
0
100
AcDbLine
 62
7
  6
CONTINUOUS
 10
17.9867299411
 20
30.0766579954
 11
17.7318271385
 21
30.0567210108
  0
LINE
  5
40D
100
AcDbEntity
  8
0
100
AcDbLine
 62
7
  6
CONTINUOUS
 10
14.7427701851
 20
30.0766580145
 11
14.4878673807
 21
30.0567210298
  0
LWPOLYLINE
  5
40E
100
AcDbEntity
  8
0
100
AcDbPolyline
 62
7
  6
CONTINUOUS
 90
16
 70
0
 10
-6.966086
 20
31.426821
 10
-7.0047343147
 20
31.4242420536
 10
-7.0432404722
 20
31.420296287
 10
-7.0816044726
 20
31.414983696
 10
-7.1200286292
 20
31.4085486876
 10
-7.1583106286
 20
31.400746843
 10
-7.1958435302
 20
31.3908449124
 10
-7.232547136
 20
31.3785417363
 10
-7.2685016441
 20
31.3641384361
 10
-7.303340708
 20
31.3478051752
 10
-7.3368638074
 20
31.3294629257
 10
-7.3692714628
 20
31.3091906627
 10
-7.4007988888
 20
31.2873955584
 10
-7.4315244904
 20
31.2642133219
 10
-7.4613698627
 20
31.2395081924
 10
-7.4903350056
 20
31.2132801407
  0
LWPOLYLINE
  5
40F
100
AcDbEntity
  8
0
100
AcDbPolyline
 62
7
  6
CONTINUOUS
 90
16
 70
0
 10
-14.28027
 20
31.426821
 10
-14.3189183147
 20
31.4242420536
 10
-14.3574244722
 20
31.420296287
 10
-14.3957884725
 20
31.414983696
 10
-14.4342126292
 20
31.4085486876
 10
-14.4724946286
 20
31.400746843
 10
-14.5100275302
 20
31.3908449124
 10
-14.546731136
 20
31.3785417363
 10
-14.5826856441
 20
31.3641384361
 10
-14.617524708
 20
31.3478051752
 10
-14.6510478074
 20
31.3294629257
 10
-14.6834554628
 20
31.3091906627
 10
-14.7149828888
 20
31.2873955584
 10
-14.7457084904
 20
31.2642133219
 10
-14.7755538627
 20
31.2395081924
 10
-14.8045190056
 20
31.2132801407
  0
LWPOLYLINE
  5
410
100
AcDbEntity
  8
0
100
AcDbPolyline
 62
7
  6
CONTINUOUS
 90
30
 70
0
 10
-15.9936275628
 20
31.4497746338
 10
-16.0054676833
 20
31.4492634227
 10
-16.0176527608
 20
31.4484879427
 10
-16.0301895976
 20
31.4474494327
 10
-16.0430713915
 20
31.4461466534
 10
-16.0563190646
 20
31.4444296629
 10
-16.0699443674
 20
31.4422774303
 10
-16.0839355495
 20
31.4397109851
 10
-16.0982782823
 20
31.436643476
 10
-16.1129801146
 20
31.433082947
 10
-16.1280334976
 20
31.4290213513
 10
-16.1434014561
 20
31.4243477
 10
-16.1590841112
 20
31.4190634497
 10
-16.1750813417
 20
31.413167139
 10
-16.1913558083
 20
31.4065433998
 10
-16.2078990905
 20
31.399157262
 10
-16.2247196089
 20
31.3910436876
 10
-16.241805285
 20
31.3821922053
 10
-16.2591489255
 20
31.3726088576
 10
-16.2767577238
 20
31.3622875915
 10
-16.2946411824
 20
31.3511997913
 10
-16.3128199981
 20
31.3393730633
 10
-16.3312734741
 20
31.3267797877
 10
-16.3499490225
 20
31.3133085077
 10
-16.3688400379
 20
31.2989420315
 10
-16.3879531258
 20
31.2836975317
 10
-16.407255514
 20
31.2675150952
 10
-16.4267362786
 20
31.2503747426
 10
-16.4464063437
 20
31.2322964288
 10
-16.4662657091
 20
31.2132801407
  0
LWPOLYLINE
  5
411
100
AcDbEntity
  8
0
100
AcDbPolyline
 62
7
  6
CONTINUOUS
 90
55
 70
0
 10
-7.781460327
 20
28.5683285278
 10
-7.7312305016
 20
28.5693712698
 10
-7.6815788268
 20
28.5736670592
 10
-7.6325053025
 20
28.5812159005
 10
-7.584035027
 20
28.5917834067
 10
-7.536142902
 20
28.6056039797
 10
-7.4887536332
 20
28.6233808109
 10
-7.4418164348
 20
28.6452661901
 10
-7.3953820926
 20
28.6711078288
 10
-7.3495276701
 20
28.7011520381
 10
-7.3042131827
 20
28.7354544376
 10
-7.2594786149
 20
28.773959282
 10
-7.2155209833
 20
28.8167457797
 10
-7.17238363
 20
28.863933027
 10
-7.1300232128
 20
28.9154014738
 10
-7.0885067217
 20
28.9708722557
 10
-7.0477360889
 20
29.0304023173
 10
-7.0078093822
 20
29.0939337085
 10
-6.9690877948
 20
29.1610151017
 10
-6.9316047889
 20
29.2319634815
 10
-6.8953269023
 20
29.306460111
 10
-6.8605149415
 20
29.3831001344
 10
-6.8271289803
 20
29.4622840092
 10
-6.795208945
 20
29.5436091563
 10
-6.7651354199
 20
29.6244668947
 10
-6.7370478308
 20
29.7046175144
 10
-6.710806752
 20
29.7842997449
 10
-6.6863744911
 20
29.8616238552
 10
-6.6638462129
 20
29.9359986419
 10
-6.6431267526
 20
30.0080159418
 10
-6.623892923
 20
30.0775613391
 10
-6.6060853821
 20
30.1444627068
 10
-6.5897634717
 20
30.2088931882
 10
-6.5747820306
 20
30.2712562472
 10
-6.5611323661
 20
30.3315514289
 10
-6.5488231708
 20
30.3897801242
 10
-6.5377353603
 20
30.4463483191
 10
-6.5278177001
 20
30.5013403684
 10
-6.5191214248
 20
30.5546726882
 10
-6.5116811538
 20
30.6064991802
 10
-6.5055359527
 20
30.6568042523
 10
-6.5006467559
 20
30.7056042766
 10
-6.4969309871
 20
30.7531009907
 10
-6.4943070179
 20
30.7993954313
 10
-6.4928564766
 20
30.8443872276
 10
-6.4927416724
 20
30.8879759807
 10
-6.493926113
 20
30.9301725804
 10
-6.4964462907
 20
30.9709669319
 10
-6.5005739917
 20
31.0102272454
 10
-6.5063845249
 20
31.0479119312
 10
-6.5138025814
 20
31.0840634763
 10
-6.5228740214
 20
31.1186762491
 10
-6.5336141316
 20
31.1517486587
 10
-6.5460076253
 20
31.1832831515
 10
-6.5600545025
 20
31.2132801407
  0
LWPOLYLINE
  5
412
100
AcDbEntity
  8
0
100
AcDbPolyline
 62
7
  6
CONTINUOUS
 90
55
 70
0
 10
-15.095644327
 20
28.5683285278
 10
-15.0454145016
 20
28.5693712698
 10
-14.9957628268
 20
28.5736670592
 10
-14.9466893025
 20
28.5812159005
 10
-14.898219027
 20
28.5917834067
 10
-14.850326902
 20
28.6056039797
 10
-14.8029376332
 20
28.6233808109
 10
-14.7560004348
 20
28.6452661901
 10
-14.7095660926
 20
28.6711078288
 10
-14.6637116701
 20
28.7011520381
 10
-14.6183971827
 20
28.7354544376
 10
-14.5736626149
 20
28.773959282
 10
-14.5297049833
 20
28.8167457797
 10
-14.48656763
 20
28.863933027
 10
-14.4442072128
 20
28.9154014738
 10
-14.4026907217
 20
28.9708722557
 10
-14.3619200889
 20
29.0304023173
 10
-14.3219933822
 20
29.0939337085
 10
-14.2832717948
 20
29.1610151017
 10
-14.2457887889
 20
29.2319634815
 10
-14.2095109023
 20
29.3064601109
 10
-14.1746989415
 20
29.3831001344
 10
-14.1413129804
 20
29.4622840092
 10
-14.109392945
 20
29.5436091563
 10
-14.0793194199
 20
29.6244668947
 10
-14.0512318308
 20
29.7046175144
 10
-14.024990752
 20
29.7842997449
 10
-14.0005584911
 20
29.8616238551
 10
-13.9780302129
 20
29.9359986419
 10
-13.9573107526
 20
30.0080159418
 10
-13.938076923
 20
30.0775613391
 10
-13.9202693821
 20
30.1444627068
 10
-13.9039474717
 20
30.2088931882
 10
-13.8889660306
 20
30.2712562472
 10
-13.8753163661
 20
30.3315514289
 10
-13.8630071708
 20
30.3897801242
 10
-13.8519193603
 20
30.4463483191
 10
-13.8420017001
 20
30.5013403684
 10
-13.8333054248
 20
30.5546726882
 10
-13.8258651538
 20
30.6064991802
 10
-13.8197199527
 20
30.6568042523
 10
-13.8148307559
 20
30.7056042766
 10
-13.8111149871
 20
30.7531009907
 10
-13.8084910179
 20
30.7993954313
 10
-13.8070404766
 20
30.8443872276
 10
-13.8069256724
 20
30.8879759807
 10
-13.808110113
 20
30.9301725804
 10
-13.8106302907
 20
30.9709669319
 10
-13.8147579917
 20
31.0102272454
 10
-13.8205685249
 20
31.0479119312
 10
-13.8279865814
 20
31.0840634763
 10
-13.8370580214
 20
31.1186762491
 10
-13.8477981316
 20
31.1517486587
 10
-13.8601916253
 20
31.1832831515
 10
-13.8742385025
 20
31.2132801407
  0
LINE
  5
413
100
AcDbEntity
  8
0
100
AcDbLine
 62
250
  6
CONTINUOUS
 10
-63.0
 20
27.676322566
 11
-32.15
 21
27.676322566
  0
LINE
  5
414
100
AcDbEntity
  8
0
100
AcDbLine
 62
250
  6
CONTINUOUS
 10
-31.65
 20
27.676322566
 11
-0.25
 21
27.676322566
  0
LINE
  5
415
100
AcDbEntity
  8
0
100
AcDbLine
 62
250
  6
CONTINUOUS
 10
0.25
 20
27.676322566
 11
1.5562256813
 21
27.676322566
  0
LINE
  5
416
100
AcDbEntity
  8
ASSI
100
AcDbLine
 62
250
  6
CONTINUOUS
 10
2.3591687391
 20
27.676322566
 11
5.7408312609
 21
27.676322566
  0
LINE
  5
417
100
AcDbEntity
  8
0
100
AcDbLine
 62
250
  6
CONTINUOUS
 10
6.5437743187
 20
27.676322566
 11
31.65
 21
27.676322566
  0
LINE
  5
418
100
AcDbEntity
  8
0
100
AcDbLine
 62
250
  6
CONTINUOUS
 10
32.15
 20
27.676322566
 11
63.0
 21
27.676322566
  0
LINE
  5
419
100
AcDbEntity
  8
0
100
AcDbLine
 62
7
  6
CONTINUOUS
 10
-27.32571
 20
28.494391
 11
-28.267501
 21
28.494391
  0
LINE
  5
41A
100
AcDbEntity
  8
0
100
AcDbLine
 62
7
  6
CONTINUOUS
 10
-24.524593
 20
28.498455
 11
-26.241384
 21
28.498455
  0
LINE
  5
41B
100
AcDbEntity
  8
0
100
AcDbLine
 62
7
  6
CONTINUOUS
 10
15.6071615623
 20
28.500247
 11
15.3437144496
 21
28.500247
  0
LINE
  5
41C
100
AcDbEntity
  8
0
100
AcDbLine
 62
7
  6
CONTINUOUS
 10
12.756236
 20
28.500247
 11
12.49991
 21
28.500247
  0
LINE
  5
41D
100
AcDbEntity
  8
0
100
AcDbLine
 62
7
  6
CONTINUOUS
 10
-9.091558
 20
28.530205
 11
-9.681092
 21
28.530205
  0
LINE
  5
41E
100
AcDbEntity
  8
0
100
AcDbLine
 62
7
  6
CONTINUOUS
 10
-11.498462
 20
28.530205
 11
-12.47306
 21
28.530205
  0
LINE
  5
41F
100
AcDbEntity
  8
0
100
AcDbLine
 62
7
  6
CONTINUOUS
 10
-12.93026
 20
28.530205
 11
-13.928734
 21
28.530205
  0
LINE
  5
420
100
AcDbEntity
  8
0
100
AcDbLine
 62
7
  6
CONTINUOUS
 10
-16.98664
 20
28.530205
 11
-18.071474
 21
28.530205
  0
LINE
  5
421
100
AcDbEntity
  8
0
100
AcDbLine
 62
7
  6
CONTINUOUS
 10
-18.961236
 20
28.537063
 11
-20.681324
 21
28.537063
  0
LINE
  5
422
100
AcDbEntity
  8
0
100
AcDbLine
 62
7
  6
CONTINUOUS
 10
-9.055236
 20
28.657205
 11
-9.259706
 21
28.657205
  0
LINE
  5
423
100
AcDbEntity
  8
0
100
AcDbLine
 62
7
  6
CONTINUOUS
 10
-11.46214
 20
28.657205
 11
-11.739
 21
28.657205
  0
LINE
  5
424
100
AcDbEntity
  8
0
100
AcDbLine
 62
7
  6
CONTINUOUS
 10
-12.124064
 20
28.657205
 11
-12.436738
 21
28.657205
  0
LINE
  5
425
100
AcDbEntity
  8
0
100
AcDbLine
 62
7
  6
CONTINUOUS
 10
-12.893938
 20
28.657205
 11
-13.230996
 21
28.657205
  0
LINE
  5
426
100
AcDbEntity
  8
0
100
AcDbLine
 62
7
  6
CONTINUOUS
 10
-13.615806
 20
28.657205
 11
-13.892666
 21
28.657205
  0
LINE
  5
427
100
AcDbEntity
  8
0
100
AcDbLine
 62
7
  6
CONTINUOUS
 10
-16.950318
 20
28.657205
 11
-17.411441
 21
28.657205
  0
LINE
  5
428
100
AcDbEntity
  8
0
100
AcDbLine
 62
7
  6
CONTINUOUS
 10
-17.781406
 20
28.657205
 11
-18.035406
 21
28.657205
  0
LINE
  5
429
100
AcDbEntity
  8
0
100
AcDbLine
 62
7
  6
CONTINUOUS
 10
19.564565
 20
30.314472
 11
18.731502
 21
30.314472
  0
LINE
  5
42A
100
AcDbEntity
  8
0
100
AcDbLine
 62
7
  6
CONTINUOUS
 10
16.0742459105
 20
30.314472
 11
15.051787
 21
30.314472
  0
LINE
  5
42B
100
AcDbEntity
  8
0
100
AcDbLine
 62
7
  6
CONTINUOUS
 10
19.564565
 20
30.559407
 11
18.526441
 21
30.559407
  0
LINE
  5
42C
100
AcDbEntity
  8
0
100
AcDbLine
 62
7
  6
CONTINUOUS
 10
16.403199
 20
30.560831
 11
15.051787
 21
30.560831
  0
LINE
  5
42D
100
AcDbEntity
  8
0
100
AcDbLine
 62
7
  6
CONTINUOUS
 10
12.756236
 20
30.596432
 11
12.591048003
 21
30.596432
  0
LINE
  5
42E
100
AcDbEntity
  8
0
100
AcDbLine
 62
7
  6
CONTINUOUS
 10
-43.381784
 20
30.797950481
 11
-44.121821
 21
30.797960481
  0
LINE
  5
42F
100
AcDbEntity
  8
0
100
AcDbLine
 62
7
  6
CONTINUOUS
 10
-46.99119
 20
30.797950481
 11
-47.731217
 21
30.797950481
  0
LINE
  5
430
100
AcDbEntity
  8
0
100
AcDbLine
 62
7
  6
CONTINUOUS
 10
-49.870539
 20
30.797950481
 11
-50.610567
 21
30.797950481
  0
LINE
  5
431
100
AcDbEntity
  8
0
100
AcDbLine
 62
7
  6
CONTINUOUS
 10
-42.148398
 20
30.797960481
 11
-42.888435
 21
30.797960481
  0
LINE
  5
432
100
AcDbEntity
  8
0
100
AcDbLine
 62
7
  6
CONTINUOUS
 10
-39.927307
 20
30.797969481
 11
-40.760834
 21
30.797960481
  0
LINE
  5
433
100
AcDbEntity
  8
0
100
AcDbLine
 62
7
  6
CONTINUOUS
 10
-51.350576
 20
30.797950481
 11
-52.090604
 21
30.797941481
  0
LINE
  5
434
100
AcDbEntity
  8
0
100
AcDbLine
 62
7
  6
CONTINUOUS
 10
-45.757813
 20
30.797960481
 11
-46.497841
 21
30.797950481
  0
LINE
  5
435
100
AcDbEntity
  8
0
100
AcDbLine
 62
7
  6
CONTINUOUS
 10
-53.771948
 20
30.797950481
 11
-54.512004
 21
30.797941481
  0
LINE
  5
436
100
AcDbEntity
  8
0
100
AcDbLine
 62
7
  6
CONTINUOUS
 10
-48.430878
 20
30.797960481
 11
-49.170887
 21
30.797950481
  0
LINE
  5
437
100
AcDbEntity
  8
0
100
AcDbLine
 62
250
  6
CONTINUOUS
 10
-13.5750922095
 20
31.2132796843
 11
-13.8742385025
 21
31.2132801407
  0
LINE
  5
438
100
AcDbEntity
  8
0
100
AcDbLine
 62
250
  6
CONTINUOUS
 10
-6.2609084227
 20
31.2132801407
 11
-6.5600545025
 21
31.2132801407
  0
LINE
  5
439
100
AcDbEntity
  8
0
100
AcDbLine
 62
250
  6
CONTINUOUS
 10
-7.4903350056
 20
31.2132801407
 11
-7.7933780457
 21
31.2132801407
  0
LINE
  5
43A
100
AcDbEntity
  8
0
100
AcDbLine
 62
250
  6
CONTINUOUS
 10
-8.5318459698
 20
31.2132801407
 11
-8.916835682
 21
31.2132801407
  0
LINE
  5
43B
100
AcDbEntity
  8
0
100
AcDbLine
 62
250
  6
CONTINUOUS
 10
-9.0149281972
 20
31.2132801407
 11
-9.16510592
 21
31.2132801407
  0
LINE
  5
43C
100
AcDbEntity
  8
0
100
AcDbLine
 62
250
  6
CONTINUOUS
 10
-11.1310676703
 20
31.2132801407
 11
-11.4990360089
 21
31.2132801407
  0
LINE
  5
43D
100
AcDbEntity
  8
0
100
AcDbLine
 62
250
  6
CONTINUOUS
 10
-12.239941582
 20
31.2132801407
 11
-12.4347735561
 21
31.2132801407
  0
LINE
  5
43E
100
AcDbEntity
  8
0
100
AcDbLine
 62
250
  6
CONTINUOUS
 10
-12.5043833596
 20
31.2132801407
 11
-12.8880969119
 21
31.2132801407
  0
LINE
  5
43F
100
AcDbEntity
  8
0
100
AcDbLine
 62
250
  6
CONTINUOUS
 10
-14.8045190056
 20
31.2132801407
 11
-15.1075620457
 21
31.2132801407
  0
LINE
  5
440
100
AcDbEntity
  8
0
100
AcDbLine
 62
250
  6
CONTINUOUS
 10
-15.4965173161
 20
31.2132801407
 11
-16.06886993
 21
31.2132801407
  0
LINE
  5
441
100
AcDbEntity
  8
0
100
AcDbLine
 62
250
  6
CONTINUOUS
 10
-16.6977952003
 20
31.2132801407
 11
-17.0534544231
 21
31.2132801407
  0
LINE
  5
442
100
AcDbEntity
  8
0
100
AcDbLine
 62
250
  6
CONTINUOUS
 10
-18.3975539889
 20
31.2132801407
 11
-20.5739877371
 21
31.2132801407
  0
LINE
  5
443
100
AcDbEntity
  8
0
100
AcDbLine
 62
250
  6
CONTINUOUS
 10
-21.1747710095
 20
31.2132801407
 11
-23.3200675834
 21
31.2132801407
  0
LINE
  5
444
100
AcDbEntity
  8
0
100
AcDbLine
 62
250
  6
CONTINUOUS
 10
-23.8074962595
 20
31.2132801407
 11
-26.0875228179
 21
31.2132801407
  0
LINE
  5
445
100
AcDbEntity
  8
0
100
AcDbLine
 62
250
  6
CONTINUOUS
 10
-26.6103885256
 20
31.2132801407
 11
-27.0944899026
 21
31.2132801407
  0
LINE
  5
446
100
AcDbEntity
  8
0
100
AcDbLine
 62
250
  6
CONTINUOUS
 10
-40.1425828706
 20
31.2132801407
 11
-40.9761157803
 21
31.2132801407
  0
LINE
  5
447
100
AcDbEntity
  8
0
100
AcDbLine
 62
250
  6
CONTINUOUS
 10
-42.1483739058
 20
31.2132801407
 11
-42.888435
 21
31.2132801407
  0
LINE
  5
448
100
AcDbEntity
  8
0
100
AcDbLine
 62
250
  6
CONTINUOUS
 10
-43.5151327143
 20
31.2132801407
 11
-44.2551609503
 21
31.2132801407
  0
LINE
  5
449
100
AcDbEntity
  8
0
100
AcDbLine
 62
250
  6
CONTINUOUS
 10
-45.6244679128
 20
31.2132801407
 11
-46.3644943061
 21
31.2132801407
  0
LINE
  5
44A
100
AcDbEntity
  8
0
100
AcDbLine
 62
250
  6
CONTINUOUS
 10
-46.99119
 20
31.2132801407
 11
-47.7312187022
 21
31.2132801407
  0
LINE
  5
44B
100
AcDbEntity
  8
0
100
AcDbLine
 62
250
  6
CONTINUOUS
 10
-48.3117884192
 20
31.2132801407
 11
-49.2899791303
 21
31.2132801407
  0
LINE
  5
44C
100
AcDbEntity
  8
0
100
AcDbLine
 62
250
  6
CONTINUOUS
 10
-49.870539
 20
31.2132801407
 11
-50.610567
 21
31.2132801407
  0
LINE
  5
44D
100
AcDbEntity
  8
0
100
AcDbLine
 62
250
  6
CONTINUOUS
 10
-51.3505749898
 20
31.2132801407
 11
-52.0906028775
 21
31.2132801407
  0
LINE
  5
44E
100
AcDbEntity
  8
0
100
AcDbLine
 62
250
  6
CONTINUOUS
 10
-53.6385989613
 20
31.2132801407
 11
-54.6453545937
 21
31.2132801407
  0
LINE
  5
44F
100
AcDbEntity
  8
0
100
AcDbLine
 62
250
  6
CONTINUOUS
 10
-9.984031775
 20
31.2132801407
 11
-10.2587079145
 21
31.2132796843
  0
LINE
  5
450
100
AcDbEntity
  8
0
100
AcDbLine
 62
250
  6
CONTINUOUS
 10
-16.4662657091
 20
31.2132801407
 11
-16.5611914925
 21
31.2132796843
  0
LINE
  5
451
100
AcDbEntity
  8
0
100
AcDbLine
 62
250
  6
CONTINUOUS
 10
63.0
 20
31.2312033564
 11
32.15
 21
31.2312033564
  0
LINE
  5
452
100
AcDbEntity
  8
0
100
AcDbLine
 62
250
  6
CONTINUOUS
 10
31.65
 20
31.2312033564
 11
0.25
 21
31.2312033564
  0
LINE
  5
453
100
AcDbEntity
  8
0
100
AcDbLine
 62
250
  6
CONTINUOUS
 10
-0.25
 20
31.2312033564
 11
-6.2609084227
 21
31.2312033564
  0
LINE
  5
454
100
AcDbEntity
  8
0
100
AcDbLine
 62
250
  6
CONTINUOUS
 10
-6.5697217339
 20
31.2312033564
 11
-7.470492522
 21
31.2312033564
  0
LINE
  5
455
100
AcDbEntity
  8
0
100
AcDbLine
 62
250
  6
CONTINUOUS
 10
-7.7727459219
 20
31.2312033564
 11
-8.5267422105
 21
31.2312033564
  0
LINE
  5
456
100
AcDbEntity
  8
0
100
AcDbLine
 62
250
  6
CONTINUOUS
 10
-8.9117326876
 20
31.2312033564
 11
-9.0205139307
 21
31.2312033564
  0
LINE
  5
457
100
AcDbEntity
  8
0
100
AcDbLine
 62
250
  6
CONTINUOUS
 10
-9.174056196
 20
31.2312033564
 11
-9.9651077782
 21
31.2312033564
  0
LINE
  5
458
100
AcDbEntity
  8
0
100
AcDbLine
 62
250
  6
CONTINUOUS
 10
-10.2385091571
 20
31.2312033564
 11
-11.1370426016
 21
31.2312033564
  0
LINE
  5
459
100
AcDbEntity
  8
0
100
AcDbLine
 62
250
  6
CONTINUOUS
 10
-11.5074836807
 20
31.2312033564
 11
-12.216669973
 21
31.2312033564
  0
LINE
  5
45A
100
AcDbEntity
  8
0
100
AcDbLine
 62
250
  6
CONTINUOUS
 10
-12.4174184778
 20
31.2312033564
 11
-12.4995641957
 21
31.2312033564
  0
LINE
  5
45B
100
AcDbEntity
  8
0
100
AcDbLine
 62
250
  6
CONTINUOUS
 10
-12.882994211
 20
31.2312033564
 11
-13.5750922095
 21
31.2312033564
  0
LINE
  5
45C
100
AcDbEntity
  8
0
100
AcDbLine
 62
250
  6
CONTINUOUS
 10
-13.8839057339
 20
31.2312033564
 11
-14.784676522
 21
31.2312033564
  0
LINE
  5
45D
100
AcDbEntity
  8
0
100
AcDbLine
 62
250
  6
CONTINUOUS
 10
-15.0869299219
 20
31.2312033564
 11
-15.4942305224
 21
31.2312033564
  0
LINE
  5
45E
100
AcDbEntity
  8
0
100
AcDbLine
 62
250
  6
CONTINUOUS
 10
-16.06886993
 20
31.2312033564
 11
-16.4475745599
 21
31.2312033564
  0
LINE
  5
45F
100
AcDbEntity
  8
0
100
AcDbLine
 62
250
  6
CONTINUOUS
 10
-16.5428364065
 20
31.2312033564
 11
-16.6929165804
 21
31.2312033564
  0
LINE
  5
460
100
AcDbEntity
  8
0
100
AcDbLine
 62
250
  6
CONTINUOUS
 10
-17.0483500218
 20
31.2312033564
 11
-18.3975539889
 21
31.2312033564
  0
LINE
  5
461
100
AcDbEntity
  8
0
100
AcDbLine
 62
250
  6
CONTINUOUS
 10
-20.5739877371
 20
31.2312033564
 11
-21.1747710095
 21
31.2312033564
  0
LINE
  5
462
100
AcDbEntity
  8
0
100
AcDbLine
 62
250
  6
CONTINUOUS
 10
-23.3159557907
 20
31.2312033564
 11
-23.8027620027
 21
31.2312033564
  0
LINE
  5
463
100
AcDbEntity
  8
0
100
AcDbLine
 62
250
  6
CONTINUOUS
 10
-26.0875228179
 20
31.2312033564
 11
-26.6056730479
 21
31.2312033564
  0
LINE
  5
464
100
AcDbEntity
  8
0
100
AcDbLine
 62
250
  6
CONTINUOUS
 10
-27.0532106432
 20
31.2312033564
 11
-31.65
 21
31.2312033564
  0
LINE
  5
465
100
AcDbEntity
  8
0
100
AcDbLine
 62
250
  6
CONTINUOUS
 10
-32.15
 20
31.2312033564
 11
-40.1425828706
 21
31.2312033564
  0
LINE
  5
466
100
AcDbEntity
  8
0
100
AcDbLine
 62
250
  6
CONTINUOUS
 10
-40.9854063151
 20
31.2312033564
 11
-42.148372866
 21
31.2312033564
  0
LINE
  5
467
100
AcDbEntity
  8
0
100
AcDbLine
 62
250
  6
CONTINUOUS
 10
-42.888435
 20
31.2312033564
 11
-43.5208872703
 21
31.2312033564
  0
LINE
  5
468
100
AcDbEntity
  8
0
100
AcDbLine
 62
250
  6
CONTINUOUS
 10
-44.2609152666
 20
31.2312033564
 11
-45.6187133748
 21
31.2312033564
  0
LINE
  5
469
100
AcDbEntity
  8
0
100
AcDbLine
 62
250
  6
CONTINUOUS
 10
-46.3587398373
 20
31.2312033564
 11
-46.99119
 21
31.2312033564
  0
LINE
  5
46A
100
AcDbEntity
  8
0
100
AcDbLine
 62
250
  6
CONTINUOUS
 10
-47.7312187756
 20
31.2312033564
 11
-48.3066490809
 21
31.2312033564
  0
LINE
  5
46B
100
AcDbEntity
  8
0
100
AcDbLine
 62
250
  6
CONTINUOUS
 10
-49.2951184549
 20
31.2312033564
 11
-49.870539
 21
31.2312033564
  0
LINE
  5
46C
100
AcDbEntity
  8
0
100
AcDbLine
 62
250
  6
CONTINUOUS
 10
-50.610567
 20
31.2312033564
 11
-51.3505749462
 21
31.2312033564
  0
LINE
  5
46D
100
AcDbEntity
  8
0
100
AcDbLine
 62
250
  6
CONTINUOUS
 10
-52.0906028291
 20
31.2312033564
 11
-53.6328443914
 21
31.2312033564
  0
LINE
  5
46E
100
AcDbEntity
  8
0
100
AcDbLine
 62
250
  6
CONTINUOUS
 10
-54.6511091061
 20
31.2312033564
 11
-63.0
 21
31.2312033564
  0
LINE
  5
46F
100
AcDbEntity
  8
0
100
AcDbLine
 62
7
  6
CONTINUOUS
 10
-12.853552
 20
31.334619
 11
-13.130158
 21
31.334619
  0
LINE
  5
470
100
AcDbEntity
  8
0
100
AcDbLine
 62
7
  6
CONTINUOUS
 10
-17.018898
 20
31.334619
 11
-17.272898
 21
31.334619
  0
LINE
  5
471
100
AcDbEntity
  8
0
100
AcDbLine
 62
7
  6
CONTINUOUS
 10
-12.43242
 20
31.480923
 11
-13.09409
 21
31.480923
  0
LINE
  5
472
100
AcDbEntity
  8
0
100
AcDbLine
 62
7
  6
CONTINUOUS
 10
-16.624944
 20
31.480923
 11
-17.23683
 21
31.480923
  0
LINE
  5
473
100
AcDbEntity
  8
0
100
AcDbLine
 62
7
  6
CONTINUOUS
 10
-24.628931
 20
31.501497
 11
-25.46897
 21
31.501497
  0
LINE
  5
474
100
AcDbEntity
  8
0
100
AcDbLine
 62
7
  6
CONTINUOUS
 10
-18.725016
 20
31.502513
 11
-20.11084
 21
31.502513
  0
LINE
  5
475
100
AcDbEntity
  8
0
100
AcDbLine
 62
7
  6
CONTINUOUS
 10
-21.58658
 20
31.502513
 11
-22.79308
 21
31.502513
  0
LINE
  5
476
100
AcDbEntity
  8
0
100
AcDbLine
 62
7
  6
CONTINUOUS
 10
-44.355439
 20
31.525620481
 11
-45.524186
 21
31.525620481
  0
LINE
  5
477
100
AcDbEntity
  8
0
100
AcDbLine
 62
7
  6
CONTINUOUS
 10
-41.502434
 20
32.228648481
 11
-42.148315
 21
32.228657481
  0
LINE
  5
478
100
AcDbEntity
  8
0
100
AcDbLine
 62
7
  6
CONTINUOUS
 10
-44.581176
 20
32.228648481
 11
-45.298458
 21
32.228648481
  0
LINE
  5
479
100
AcDbEntity
  8
0
100
AcDbLine
 62
7
  6
CONTINUOUS
 10
-8.580002
 20
32.396339
 11
-8.856862
 21
32.396339
  0
LINE
  5
47A
100
AcDbEntity
  8
0
100
AcDbLine
 62
7
  6
CONTINUOUS
 10
-8.15887
 20
32.523085
 11
-8.82054
 21
32.523085
  0
LINE
  5
47B
100
AcDbEntity
  8
0
100
AcDbLine
 62
7
  6
CONTINUOUS
 10
-22.026508
 20
28.506583
 11
-23.4958342207
 21
28.5070940004
  0
LWPOLYLINE
  5
47C
100
AcDbEntity
  8
0
100
AcDbPolyline
 62
7
  6
CONTINUOUS
 90
34
 70
0
 10
-20.681324
 20
28.537063
 10
-20.7104633533
 20
28.5380095923
 10
-20.7391302272
 20
28.5409818829
 10
-20.7673246218
 20
28.5459798745
 10
-20.7951561789
 20
28.553089624
 10
-20.8225152568
 20
28.5622250845
 10
-20.8490729294
 20
28.5731281042
 10
-20.8748054344
 20
28.5858160744
 10
-20.8997365341
 20
28.6002716134
 10
-20.9236085902
 20
28.6161844062
 10
-20.9463061997
 20
28.6336072221
 10
-20.9679447656
 20
28.6524872887
 10
-20.9886128571
 20
28.6723559719
 10
-21.0083820426
 20
28.6930570945
 10
-21.0271807539
 20
28.7147468117
 10
-21.0448828556
 20
28.7374249836
 10
-21.0614737026
 20
28.7611925005
 10
-21.0769679402
 20
28.785948428
 10
-21.0912833681
 20
28.8113898855
 10
-21.1048906934
 20
28.8373960059
 10
-21.117319209
 20
28.8640875959
 10
-21.1270745942
 20
28.8915242828
 10
-21.1332068141
 20
28.9199632804
 10
-21.1366659036
 20
28.9491472815
 10
-21.1388076456
 20
28.9783641447
 10
-21.140035689
 20
29.0074155796
 10
-21.139946385
 20
29.0364998177
 10
-21.1386845707
 20
29.0654995244
 10
-21.13612008
 20
29.0943905133
 10
-21.132383079
 20
29.1231969189
 10
-21.1280089031
 20
29.1518738954
 10
-21.1231759975
 20
29.1804064806
 10
-21.117705917
 20
29.2088095927
 10
-21.1115986617
 20
29.2370832108
  0
LWPOLYLINE
  5
47D
100
AcDbEntity
  8
0
100
AcDbPolyline
 62
7
  6
CONTINUOUS
 90
18
 70
0
 10
-9.4705451184
 20
31.4251683844
 10
-9.5042614071
 20
31.427540066
 10
-9.5378928663
 20
31.4275860491
 10
-9.5716088095
 20
31.4251667552
 10
-9.6052399231
 20
31.4204217584
 10
-9.6382782664
 20
31.4137697874
 10
-9.6706118192
 20
31.4052046286
 10
-9.7023526017
 20
31.3947324728
 10
-9.7333287339
 20
31.3827906559
 10
-9.7634242086
 20
31.3694750762
 10
-9.792755033
 20
31.354689807
 10
-9.821497348
 20
31.3385844497
 10
-9.8496325728
 20
31.3212551015
 10
-9.8771792883
 20
31.3026056316
 10
-9.9043693778
 20
31.2824972968
 10
-9.9312801361
 20
31.2608838328
 10
-9.9578342684
 20
31.2378114562
 10
-9.984031775
 20
31.2132801407
  0
LWPOLYLINE
  5
47E
100
AcDbEntity
  8
0
100
AcDbPolyline
 62
7
  6
CONTINUOUS
 90
22
 70
0
 10
-15.792078
 20
31.55979
 10
-15.768229558
 20
31.5580024445
 10
-15.7446253747
 20
31.5548078423
 10
-15.7212654502
 20
31.55020619
 10
-15.6978858345
 20
31.5442699894
 10
-15.6747504775
 20
31.5369267271
 10
-15.6526512295
 20
31.5279588732
 10
-15.6318093503
 20
31.5171759174
 10
-15.6120035801
 20
31.5047683438
 10
-15.5933619897
 20
31.491090113
 10
-15.5757774633
 20
31.4763760345
 10
-15.5593571166
 20
31.4603912722
 10
-15.5445503674
 20
31.4427853151
 10
-15.5314309567
 20
31.4234407605
 10
-15.5199251435
 20
31.4024749631
 10
-15.5102611214
 20
31.379889541
 10
-15.5023258318
 20
31.3555771031
 10
-15.4962323334
 20
31.32964498
 10
-15.4925479956
 20
31.3024168758
 10
-15.4914619418
 20
31.2740006762
 10
-15.4927850486
 20
31.2442884411
 10
-15.4965173161
 20
31.2132801407
  0
LWPOLYLINE
  5
47F
100
AcDbEntity
  8
0
100
AcDbPolyline
 62
7
  6
CONTINUOUS
 90
19
 70
0
 10
-14.057004
 20
31.538327
 10
-14.023413206
 20
31.533982546
 10
-13.9906044049
 20
31.5273618054
 10
-13.9585775967
 20
31.5184647662
 10
-13.9273799907
 20
31.5069323091
 10
-13.8969643775
 20
31.4931235151
 10
-13.8671891296
 20
31.478115678
 10
-13.8379921181
 20
31.4622038284
 10
-13.8094354718
 20
31.4450929091
 10
-13.781563949
 20
31.4269750944
 10
-13.7542571234
 20
31.4080019985
 10
-13.7276354213
 20
31.3880219795
 10
-13.702104879
 20
31.3667723247
 10
-13.6777103177
 20
31.3441212145
 10
-13.6544069164
 20
31.3202004236
 10
-13.6324662476
 20
31.2951426275
 10
-13.6119788356
 20
31.2689920375
 10
-13.5928541563
 20
31.2417043978
 10
-13.5750922095
 20
31.2132796843
  0
LWPOLYLINE
  5
480
100
AcDbEntity
  8
0
100
AcDbPolyline
 62
7
  6
CONTINUOUS
 90
19
 70
0
 10
-6.74282
 20
31.538327
 10
-6.7092292655
 20
31.533982559
 10
-6.6764205208
 20
31.5273618373
 10
-6.6443937659
 20
31.5184648228
 10
-6.6131962095
 20
31.5069323978
 10
-6.5827806429
 20
31.4931236417
 10
-6.5530054402
 20
31.4781158442
 10
-6.523808474
 20
31.4622040333
 10
-6.4952518717
 20
31.4450931543
 10
-6.4673803886
 20
31.4269753855
 10
-6.4400735984
 20
31.4080023428
 10
-6.4134519274
 20
31.3880223827
 10
-6.3879214097
 20
31.3667727909
 10
-6.3635268777
 20
31.3441217648
 10
-6.340223499
 20
31.3202010623
 10
-6.3182828104
 20
31.2951433062
 10
-6.2977953243
 20
31.2689926904
 10
-6.2786705284
 20
31.2417049766
 10
-6.2609084227
 20
31.2132801407
  0
LINE
  5
481
100
AcDbEntity
  8
0
100
AcDbLine
 62
7
  6
CONTINUOUS
 10
18.324227
 20
29.487106
 11
18.5648895528
 21
29.4557770582
  0
LWPOLYLINE
  5
482
100
AcDbEntity
  8
0
100
AcDbPolyline
 62
7
  6
CONTINUOUS
 90
28
 70
0
 10
-10.4082233277
 20
28.5718198657
 10
-10.3763212295
 20
28.5671969452
 10
-10.3445196453
 20
28.5648109791
 10
-10.3128185752
 20
28.5646619654
 10
-10.2810678265
 20
28.5669302284
 10
-10.2494175919
 20
28.5714354456
 10
-10.2183184487
 20
28.5776366463
 10
-10.1878832304
 20
28.5854600917
 10
-10.1579991035
 20
28.594979527
 10
-10.1287781454
 20
28.605875206
 10
-10.1003428164
 20
28.6180415111
 10
-10.072570656
 20
28.6315840625
 10
-10.0452063611
 20
28.6464999683
 10
-10.0182306518
 20
28.6627334623
 10
-9.9916628079
 20
28.6803403038
 10
-9.9653053651
 20
28.6994848854
 10
-9.939143939
 20
28.7201593881
 10
-9.913192914
 20
28.7423716029
 10
-9.8872979795
 20
28.766309329
 10
-9.8614653935
 20
28.7919948161
 10
-9.835688898
 20
28.8194057434
 10
-9.8097954077
 20
28.8486630383
 10
-9.783706353
 20
28.879813258
 10
-9.7575003037
 20
28.9128096991
 10
-9.7312398836
 20
28.9476333742
 10
-9.7048708336
 20
28.9842877011
 10
-9.678447413
 20
29.0227690105
 10
-9.652195023
 20
29.0630476549
  0
LWPOLYLINE
  5
483
100
AcDbEntity
  8
0
100
AcDbPolyline
 62
7
  6
CONTINUOUS
 90
28
 70
0
 10
-21.9892169208
 20
31.1865953082
 10
-22.0097533638
 20
31.1900225415
 10
-22.0305185503
 20
31.1927514011
 10
-22.0515124801
 20
31.1947819048
 10
-22.0728214998
 20
31.1961529979
 10
-22.0943592628
 20
31.1968257572
 10
-22.1158667296
 20
31.1966833919
 10
-22.1373034255
 20
31.1957378274
 10
-22.158709825
 20
31.19397713
 10
-22.179948312
 20
31.1912487091
 10
-22.2010366666
 20
31.1875140277
 10
-22.2219571087
 20
31.1828115631
 10
-22.2425186815
 20
31.1771042295
 10
-22.2627289715
 20
31.1703212774
 10
-22.2825803923
 20
31.1625333362
 10
-22.3018592285
 20
31.1539153856
 10
-22.3205850965
 20
31.1445568898
 10
-22.3387383799
 20
31.1343682525
 10
-22.3560465144
 20
31.1232558579
 10
-22.3723969284
 20
31.1111166781
 10
-22.3879021936
 20
31.0980535405
 10
-22.40262746
 20
31.084281618
 10
-22.4165817552
 20
31.0698083922
 10
-22.4297560517
 20
31.0546262084
 10
-22.4421884176
 20
31.0389275817
 10
-22.4538915423
 20
31.0227766501
 10
-22.4648527364
 20
31.0061091461
 10
-22.475072
 20
30.988925
  0
LWPOLYLINE
  5
484
100
AcDbEntity
  8
0
100
AcDbPolyline
 62
7
  6
CONTINUOUS
 90
16
 70
0
 10
-21.58658
 20
31.502513
 10
-21.5488481596
 20
31.4946235813
 10
-21.5122477381
 20
31.4846869417
 10
-21.4767787356
 20
31.4727030653
 10
-21.4423106495
 20
31.4584808528
 10
-21.4089739823
 20
31.4422113601
 10
-21.3771602417
 20
31.4244678059
 10
-21.346847531
 20
31.4053184326
 10
-21.3180577468
 20
31.3846949559
 10
-21.2912480863
 20
31.3629658155
 10
-21.2665011747
 20
31.3401363272
 10
-21.2437343869
 20
31.3162011368
 10
-21.2231570442
 20
31.2915126902
 10
-21.2048389207
 20
31.2661884626
 10
-21.1887102425
 20
31.2401109511
 10
-21.1747710095
 20
31.2132801407
  0
LINE
  5
485
100
AcDbEntity
  8
0
100
AcDbLine
 62
7
  6
CONTINUOUS
 10
74.133618
 20
11.35479
 11
75.504928
 21
10.95863
  0
LINE
  5
486
100
AcDbEntity
  8
0
100
AcDbLine
 62
7
  6
CONTINUOUS
 10
73.856308
 20
10.35525
 11
74.886318
 21
10.05357
  0
LINE
  5
487
100
AcDbEntity
  8
0
100
AcDbLine
 62
7
  6
CONTINUOUS
 10
73.959918
 20
10.72094
 11
74.986878
 21
10.41925
  0
LINE
  5
488
100
AcDbEntity
  8
0
100
AcDbLine
 62
7
  6
CONTINUOUS
 10
73.868498
 20
11.87893
 11
75.507978
 21
11.39745
  0
LINE
  5
489
100
AcDbEntity
  8
0
100
AcDbLine
 62
7
  6
CONTINUOUS
 10
73.188938
 20
9.41667
 11
73.566808
 21
9.30392
  0
LWPOLYLINE
  5
48A
100
AcDbEntity
  8
0
100
AcDbPolyline
 62
7
  6
CONTINUOUS
 90
45
 70
0
 10
-6.9223087805
 20
31.9438956983
 10
-6.9480617041
 20
31.9541218193
 10
-6.973257132
 20
31.9639409182
 10
-6.9978844958
 20
31.9733513896
 10
-7.0219543637
 20
31.982354845
 10
-7.0459200643
 20
31.9910862916
 10
-7.0699166796
 20
31.9993078504
 10
-7.0938091275
 20
32.0072574052
 10
-7.1176454901
 20
32.0157836009
 10
-7.1416740985
 20
32.0247917524
 10
-7.1656466216
 20
32.0343765371
 10
-7.1888661484
 20
32.0456706299
 10
-7.2112539086
 20
32.0591435987
 10
-7.2328886726
 20
32.0743258386
 10
-7.2533098405
 20
32.0909412552
 10
-7.2725078918
 20
32.1090967858
 10
-7.2904923469
 20
32.1286854522
 10
-7.3068311675
 20
32.1491102981
 10
-7.3216725314
 20
32.1702784497
 10
-7.3348682608
 20
32.1922827539
 10
-7.3455417828
 20
32.2148048491
 10
-7.3536768463
 20
32.2380481722
 10
-7.3592897025
 20
32.2618092647
 10
-7.3615525318
 20
32.2851594452
 10
-7.3597936291
 20
32.3080489656
 10
-7.3546846995
 20
32.3305275898
 10
-7.3474130386
 20
32.351815936
 10
-7.3381315451
 20
32.3716771926
 10
-7.3266873202
 20
32.3903482132
 10
-7.313808963
 20
32.4077601268
 10
-7.299653677
 20
32.424121697
 10
-7.2840642587
 20
32.4392241925
 10
-7.2672976957
 20
32.4523725078
 10
-7.2494107413
 20
32.4633436941
 10
-7.2303466422
 20
32.4723607397
 10
-7.210192127
 20
32.4793974479
 10
-7.1889260275
 20
32.4844309643
 10
-7.1665695117
 20
32.4874841628
 10
-7.1432728124
 20
32.4885994346
 10
-7.119019999
 20
32.4876643005
 10
-7.093827002
 20
32.48479124
 10
-7.0678918454
 20
32.4803600777
 10
-7.0409592105
 20
32.4745339986
 10
-7.013284416
 20
32.4671498052
 10
-6.9858314416
 20
32.4580977457
  0
LWPOLYLINE
  5
48B
100
AcDbEntity
  8
0
100
AcDbPolyline
 62
7
  6
CONTINUOUS
 90
10
 70
0
 10
-6.9858314416
 20
32.4580977457
 10
-6.9586503594
 20
32.4472424528
 10
-6.9316910973
 20
32.4347192662
 10
-6.9057674187
 20
32.420824493
 10
-6.8809829529
 20
32.4054979797
 10
-6.8572340706
 20
32.388799847
 10
-6.8350236466
 20
32.3712068205
 10
-6.814519306
 20
32.352877803
 10
-6.7955534238
 20
32.3336538675
 10
-6.778126
 20
32.313535
  0
LWPOLYLINE
  5
48C
100
AcDbEntity
  8
INTF_1
100
AcDbPolyline
 62
7
  6
CONTINUOUS
 90
23
 70
0
 10
75.0402696302
 20
-10.6990385245
 10
75.0365682263
 20
-10.6967714135
 10
75.0327970508
 20
-10.6946241772
 10
75.0289646898
 20
-10.6925837135
 10
75.0250797292
 20
-10.6906369201
 10
75.0211507552
 20
-10.6887706947
 10
75.0171863537
 20
-10.6869719352
 10
75.0131951107
 20
-10.6852275391
 10
75.0091856123
 20
-10.6835244044
 10
74.9993755315
 20
-10.6794973852
 10
74.9895114862
 20
-10.6756282903
 10
74.9795968862
 20
-10.6719079607
 10
74.9696351411
 20
-10.6683272373
 10
74.9596296604
 20
-10.6648769611
 10
74.949583854
 20
-10.6615479729
 10
74.9395011313
 20
-10.6583311138
 10
74.9293849022
 20
-10.6552172246
 10
74.9192385762
 20
-10.6521971463
 10
74.9090655629
 20
-10.6492617198
 10
74.8988692721
 20
-10.6464017861
 10
74.8886531134
 20
-10.643608186
 10
74.8784204964
 20
-10.6408717606
 10
74.8579195262
 20
-10.6355337973
  0
LWPOLYLINE
  5
48D
100
AcDbEntity
  8
0
100
AcDbPolyline
 62
250
  6
CONTINUOUS
 90
31
 70
0
 10
-76.6292815281
 20
35.8210372914
 10
-76.7465641615
 20
35.8181059419
 10
-76.8630454817
 20
35.809470178
 10
-76.9787254886
 20
35.7951299556
 10
-77.0938840253
 20
35.775024187
 10
-77.2082412488
 20
35.7492137838
 10
-77.3209576297
 20
35.7178816615
 10
-77.4320159349
 20
35.680986556
 10
-77.5414333975
 20
35.6385693954
 10
-77.6484221882
 20
35.5909363589
 10
-77.7529626303
 20
35.5380492697
 10
-77.8550744005
 20
35.4799458401
 10
-77.9540286997
 20
35.4170460804
 10
-78.0498008482
 20
35.349316504
 10
-78.1424155258
 20
35.2767900473
 10
-78.2312179728
 20
35.1999863813
 10
-78.3161808396
 20
35.118874978
 10
-78.3973314758
 20
35.0334857791
 10
-78.4740971697
 20
34.9444292169
 10
-78.5464473072
 20
34.8516775102
 10
-78.6144125024
 20
34.7552578703
 10
-78.6775118869
 20
34.6558633065
 10
-78.7357096864
 20
34.5534717522
 10
-78.7890416752
 20
34.4481047714
 10
-78.8371343069
 20
34.3405209365
 10
-78.8799497181
 20
34.2306981473
 10
-78.9175257722
 20
34.1186581118
 10
-78.9496025134
 20
34.0052252579
 10
-78.9760932896
 20
33.8906743487
 10
-78.9970847528
 20
33.7747303948
 10
-79.012576903
 20
33.6573932734
  0
LINE
  5
48E
100
AcDbEntity
  8
0
100
AcDbLine
 62
7
  6
CONTINUOUS
 10
-41.258255
 20
32.913185481
 11
-42.158601
 21
32.913185481
  0
LINE
  5
48F
100
AcDbEntity
  8
0
100
AcDbLine
 62
7
  6
CONTINUOUS
 10
-41.258255
 20
33.813598481
 11
-42.15861
 21
33.813598481
  0
LINE
  5
490
100
AcDbEntity
  8
0
100
AcDbLine
 62
7
  6
CONTINUOUS
 10
-46.99119
 20
34.498117481
 11
-48.109912
 21
34.498117481
  0
LINE
  5
491
100
AcDbEntity
  8
0
100
AcDbLine
 62
7
  6
CONTINUOUS
 10
-49.491844
 20
34.498117481
 11
-50.610567
 21
34.498117481
  0
LINE
  5
492
100
AcDbEntity
  8
0
100
AcDbLine
 62
7
  6
CONTINUOUS
 10
-51.350567
 20
34.498117481
 11
-52.090594
 21
34.498117481
  0
LINE
  5
493
100
AcDbEntity
  8
0
100
AcDbLine
 62
7
  6
CONTINUOUS
 10
-52.583943
 20
34.498117481
 11
-53.32398
 21
34.498117481
  0
LINE
  5
494
100
AcDbEntity
  8
0
100
AcDbLine
 62
7
  6
CONTINUOUS
 10
-54.959963
 20
34.498117481
 11
-55.7
 21
34.498117481
  0
LINE
  5
495
100
AcDbEntity
  8
0
100
AcDbLine
 62
7
  6
CONTINUOUS
 10
-41.155541
 20
34.498126481
 11
-42.888435
 21
34.498126481
  0
LINE
  5
496
100
AcDbEntity
  8
0
100
AcDbLine
 62
7
  6
CONTINUOUS
 10
-44.569789
 20
34.498126481
 11
-45.309854
 21
34.498126481
  0
LINE
  5
497
100
AcDbEntity
  8
0
100
AcDbLine
 62
7
  6
CONTINUOUS
 10
-63.7
 20
34.5
 11
-63.0
 21
34.5
  0
LINE
  5
498
100
AcDbEntity
  8
0
100
AcDbLine
 62
7
  6
CONTINUOUS
 10
-32.15
 20
34.5
 11
-31.65
 21
34.5
  0
LINE
  5
499
100
AcDbEntity
  8
0
100
AcDbLine
 62
7
  6
CONTINUOUS
 10
-0.25
 20
34.5
 11
0.25
 21
34.5
  0
LINE
  5
49A
100
AcDbEntity
  8
0
100
AcDbLine
 62
7
  6
CONTINUOUS
 10
31.65
 20
34.5
 11
32.15
 21
34.5
  0
LINE
  5
49B
100
AcDbEntity
  8
0
100
AcDbLine
 62
7
  6
CONTINUOUS
 10
63.0
 20
34.5
 11
63.7
 21
34.5
  0
LINE
  5
49C
100
AcDbEntity
  8
0
100
AcDbLine
 62
250
  6
CONTINUOUS
 10
76.6292815281
 20
35.8210372914
 11
63.7
 21
35.8210372914
  0
LINE
  5
49D
100
AcDbEntity
  8
0
100
AcDbLine
 62
250
  6
CONTINUOUS
 10
63.0
 20
35.8210372914
 11
32.15
 21
35.8210372914
  0
LINE
  5
49E
100
AcDbEntity
  8
0
100
AcDbLine
 62
250
  6
CONTINUOUS
 10
31.65
 20
35.8210372914
 11
0.25
 21
35.8210372914
  0
LINE
  5
49F
100
AcDbEntity
  8
0
100
AcDbLine
 62
250
  6
CONTINUOUS
 10
-0.25
 20
35.8210372914
 11
-31.65
 21
35.8210372914
  0
LINE
  5
4A0
100
AcDbEntity
  8
0
100
AcDbLine
 62
250
  6
CONTINUOUS
 10
-32.15
 20
35.8210372914
 11
-63.0
 21
35.8210372914
  0
LINE
  5
4A1
100
AcDbEntity
  8
0
100
AcDbLine
 62
250
  6
CONTINUOUS
 10
-63.7
 20
35.8210372914
 11
-76.6292815281
 21
35.8210372914
  0
LINE
  5
4A2
100
AcDbEntity
  8
0
100
AcDbLine
 62
7
  6
CONTINUOUS
 10
63.7
 20
37.7
 11
63.0
 21
37.7
  0
LINE
  5
4A3
100
AcDbEntity
  8
0
100
AcDbLine
 62
7
  6
CONTINUOUS
 10
32.15
 20
37.7
 11
31.65
 21
37.7
  0
LINE
  5
4A4
100
AcDbEntity
  8
0
100
AcDbLine
 62
7
  6
CONTINUOUS
 10
0.25
 20
37.7
 11
-0.25
 21
37.7
  0
LINE
  5
4A5
100
AcDbEntity
  8
0
100
AcDbLine
 62
7
  6
CONTINUOUS
 10
-31.65
 20
37.7
 11
-32.15
 21
37.7
  0
LINE
  5
4A6
100
AcDbEntity
  8
0
100
AcDbLine
 62
7
  6
CONTINUOUS
 10
-63.0
 20
37.7
 11
-63.7
 21
37.7
  0
LINE
  5
4A7
100
AcDbEntity
  8
0
100
AcDbLine
 62
250
  6
CONTINUOUS
 10
63.7
 20
38.5
 11
63.0
 21
38.5
  0
LINE
  5
4A8
100
AcDbEntity
  8
0
100
AcDbLine
 62
250
  6
CONTINUOUS
 10
32.15
 20
38.5
 11
31.65
 21
38.5
  0
LINE
  5
4A9
100
AcDbEntity
  8
0
100
AcDbLine
 62
250
  6
CONTINUOUS
 10
0.25
 20
38.5
 11
-0.25
 21
38.5
  0
LINE
  5
4AA
100
AcDbEntity
  8
0
100
AcDbLine
 62
250
  6
CONTINUOUS
 10
-31.65
 20
38.5
 11
-32.15
 21
38.5
  0
LINE
  5
4AB
100
AcDbEntity
  8
0
100
AcDbLine
 62
250
  6
CONTINUOUS
 10
-63.0
 20
38.5
 11
-63.7
 21
38.5
  0
LWPOLYLINE
  5
4AC
100
AcDbEntity
  8
0
100
AcDbPolyline
 62
250
  6
CONTINUOUS
 90
34
 70
0
 10
-76.6292815281
 20
39.4044100956
 10
-76.9119145635
 20
39.3981575679
 10
-77.1939906708
 20
39.3794133682
 10
-77.4749569363
 20
39.3482147654
 10
-77.7542567964
 20
39.30462431
 10
-78.0313488165
 20
39.2487279067
 10
-78.3057073724
 20
39.1806320589
 10
-78.5768029315
 20
39.1004659311
 10
-78.8440949484
 20
39.008387531
 10
-79.1070509604
 20
38.9045810266
 10
-79.365150758
 20
38.7892520683
 10
-79.6178935994
 20
38.6626251536
 10
-79.8647908826
 20
38.5249468997
 10
-80.1053592776
 20
38.3764859837
 10
-80.3391264243
 20
38.2175334686
 10
-80.5656384974
 20
38.0483998656
 10
-80.7844529547
 20
37.8694142526
 10
-80.9951388637
 20
37.680928119
 10
-81.1972828203
 20
37.4833141347
 10
-81.39048822
 20
37.2769596359
 10
-81.5743771911
 20
37.062268188
 10
-81.7485914681
 20
36.839662391
 10
-81.9127889706
 20
36.6095794777
 10
-82.0666495328
 20
36.3724685397
 10
-82.2098771287
 20
36.1287910606
 10
-82.3421932175
 20
35.8790192396
 10
-82.4633359915
 20
35.6236457931
 10
-82.5730675059
 20
35.3631804346
 10
-82.6711719724
 20
35.0981387636
 10
-82.7574609037
 20
34.8290338174
 10
-82.8317717325
 20
34.5563842778
 10
-82.8939606411
 20
34.2807202901
 10
-82.9439039699
 20
34.0025832756
 10
-82.9815038815
 20
33.7225169985
  0
LINE
  5
4AD
100
AcDbEntity
  8
0
100
AcDbLine
 62
250
  6
CONTINUOUS
 10
76.6292815281
 20
39.4044100956
 11
63.7
 21
39.4044100956
  0
LINE
  5
4AE
100
AcDbEntity
  8
ASSI
100
AcDbLine
 62
250
  6
CONTINUOUS
 10
63.0
 20
39.4044100956
 11
32.15
 21
39.4044100956
  0
LINE
  5
4AF
100
AcDbEntity
  8
ASSI
100
AcDbLine
 62
250
  6
CONTINUOUS
 10
31.65
 20
39.4044100956
 11
0.25
 21
39.4044100956
  0
LINE
  5
4B0
100
AcDbEntity
  8
ASSI
100
AcDbLine
 62
250
  6
CONTINUOUS
 10
-0.25
 20
39.4044100956
 11
-31.65
 21
39.4044100956
  0
LINE
  5
4B1
100
AcDbEntity
  8
ASSI
100
AcDbLine
 62
250
  6
CONTINUOUS
 10
-32.15
 20
39.4044100956
 11
-63.0
 21
39.4044100956
  0
LINE
  5
4B2
100
AcDbEntity
  8
0
100
AcDbLine
 62
250
  6
CONTINUOUS
 10
-63.7
 20
39.4044100956
 11
-76.6292815281
 21
39.4044100956
  0
LINE
  5
4B3
100
AcDbEntity
  8
0
100
AcDbLine
 62
7
  6
CONTINUOUS
 10
-76.6292815281
 20
39.497941481
 11
-63.7
 21
39.497941481
  0
LINE
  5
4B4
100
AcDbEntity
  8
ASSI
100
AcDbLine
 62
7
  6
CONTINUOUS
 10
-63.0
 20
39.497941481
 11
-32.15
 21
39.497941481
  0
LINE
  5
4B5
100
AcDbEntity
  8
ASSI
100
AcDbLine
 62
7
  6
CONTINUOUS
 10
-31.65
 20
39.497941481
 11
-0.25
 21
39.497941481
  0
LINE
  5
4B6
100
AcDbEntity
  8
ASSI
100
AcDbLine
 62
7
  6
CONTINUOUS
 10
0.25
 20
39.497941481
 11
31.65
 21
39.497941481
  0
LINE
  5
4B7
100
AcDbEntity
  8
ASSI
100
AcDbLine
 62
7
  6
CONTINUOUS
 10
32.15
 20
39.497941481
 11
63.0
 21
39.497941481
  0
LINE
  5
4B8
100
AcDbEntity
  8
0
100
AcDbLine
 62
7
  6
CONTINUOUS
 10
63.7
 20
39.497941481
 11
76.6292815281
 21
39.497941481
  0
LINE
  5
4B9
100
AcDbEntity
  8
0
100
AcDbLine
 62
7
  6
CONTINUOUS
 10
-76.6292815281
 20
41.0
 11
76.6292815281
 21
41.0
  0
LINE
  5
4BA
100
AcDbEntity
  8
0
100
AcDbLine
 62
7
  6
CONTINUOUS
 10
70.918658
 20
11.68085
 11
72.637368
 21
10.06576
  0
LINE
  5
4BB
100
AcDbEntity
  8
0
100
AcDbLine
 62
7
  6
CONTINUOUS
 10
71.473278
 20
10.5899
 11
72.756208
 21
9.38315
  0
LINE
  5
4BC
100
AcDbEntity
  8
0
100
AcDbLine
 62
7
  6
CONTINUOUS
 10
62.5
 20
-22.3156790928
 11
62.5
 21
22.3156790928
  0
LINE
  5
4BD
100
AcDbEntity
  8
0
100
AcDbLine
 62
7
  6
CONTINUOUS
 10
63.0
 20
37.7
 11
63.0
 21
23.1
  0
LINE
  5
4BE
100
AcDbEntity
  8
0
100
AcDbLine
 62
7
  6
CONTINUOUS
 10
63.0
 20
-23.1
 11
63.0
 21
-37.7
  0
LINE
  5
4BF
100
AcDbEntity
  8
0
100
AcDbLine
 62
7
  6
CONTINUOUS
 10
63.0
 20
-38.05
 11
63.0
 21
-39.497941481
  0
LINE
  5
4C0
100
AcDbEntity
  8
0
100
AcDbLine
 62
7
  6
CONTINUOUS
 10
63.0
 20
38.05
 11
63.0
 21
39.497941481
  0
LINE
  5
4C1
100
AcDbEntity
  8
0
100
AcDbLine
 62
7
  6
CONTINUOUS
 10
63.7
 20
-39.497941481
 11
63.7
 21
-38.05
  0
LINE
  5
4C2
100
AcDbEntity
  8
0
100
AcDbLine
 62
7
  6
CONTINUOUS
 10
63.7
 20
-37.7
 11
63.7
 21
37.7
  0
LINE
  5
4C3
100
AcDbEntity
  8
0
100
AcDbLine
 62
7
  6
CONTINUOUS
 10
63.7
 20
38.05
 11
63.7
 21
39.497941481
  0
LINE
  5
4C4
100
AcDbEntity
  8
0
100
AcDbLine
 62
250
  6
CONTINUOUS
 10
64.2
 20
-22.5
 11
64.2
 21
-0.35
  0
LINE
  5
4C5
100
AcDbEntity
  8
0
100
AcDbLine
 62
250
  6
CONTINUOUS
 10
64.2
 20
0.35
 11
64.2
 21
22.5
  0
LWPOLYLINE
  5
4C6
100
AcDbEntity
  8
0
100
AcDbPolyline
 62
7
  6
CONTINUOUS
 90
40
 70
0
 10
69.7254492681
 20
10.5000036362
 10
69.7285901033
 20
10.4208279645
 10
69.7372379064
 20
10.342331239
 10
69.7513926772
 20
10.2645134775
 10
69.7713328952
 20
10.1870314562
 10
69.796780081
 20
10.1102284288
 10
69.8268987964
 20
10.0351341488
 10
69.8616731457
 20
9.9620321994
 10
69.9011190245
 20
9.8906390706
 10
69.9444486813
 20
9.8211338968
 10
69.991623625
 20
9.7535570366
 10
70.0426823466
 20
9.6878682001
 10
70.0969525681
 20
9.6241255507
 10
70.1541209207
 20
9.5625403735
 10
70.2145007732
 20
9.5029014477
 10
70.2783599539
 20
9.4446331686
 10
70.3456368584
 20
9.3876131389
 10
70.4163930911
 20
9.3319637949
 10
70.4910812933
 20
9.2774767708
 10
70.5696353046
 20
9.224077806
 10
70.6521212853
 20
9.1718411917
 10
70.7391903579
 20
9.1207813872
 10
70.8310199459
 20
9.0707393197
 10
70.9274326257
 20
9.0218740896
 10
71.0285472493
 20
8.9746774213
 10
71.13444693
 20
8.929112231
 10
71.2450485544
 20
8.8852156381
 10
71.3602216346
 20
8.8435906814
 10
71.4802361513
 20
8.8041949026
 10
71.6048221238
 20
8.7670708011
 10
71.7330391221
 20
8.7329488612
 10
71.8650050591
 20
8.7018951551
 10
72.000602022
 20
8.6738436538
 10
72.1385358421
 20
8.6493266952
 10
72.2788427667
 20
8.6284297329
 10
72.4214865486
 20
8.6110673481
 10
72.5650642779
 20
8.5975155713
 10
72.7091083181
 20
8.5878664191
 10
72.8540863057
 20
8.5820278937
 10
72.9999982408
 20
8.58
  0
LWPOLYLINE
  5
4C7
100
AcDbEntity
  8
0
100
AcDbPolyline
 62
7
  6
CONTINUOUS
 90
61
 70
0
 10
70.308411215
 20
-10.5
 10
70.3117845565
 20
-10.6003428752
 10
70.3213552698
 20
-10.6997701421
 10
70.3371233551
 20
-10.7982818164
 10
70.3592480125
 20
-10.8961963934
 10
70.3875700418
 20
-10.9931954048
 10
70.4216118419
 20
-11.0883234458
 10
70.4613928517
 20
-11.1814158366
 10
70.5068936323
 20
-11.2726373428
 10
70.5575782663
 20
-11.3615267648
 10
70.613367673
 20
-11.4479859389
 10
70.6743409331
 20
-11.5321131343
 10
70.7401993715
 20
-11.6137418147
 10
70.8105124769
 20
-11.6926463217
 10
70.8857107605
 20
-11.7690524239
 10
70.9667870803
 20
-11.8434707173
 10
71.0536988328
 20
-11.9161987098
 10
71.1464886216
 20
-11.9869389684
 10
71.2462771156
 20
-12.0553096728
 10
71.3531214148
 20
-12.1215792105
 10
71.4669644193
 20
-12.1854792805
 10
71.5887554985
 20
-12.245823059
 10
71.7189266841
 20
-12.3028980913
 10
71.8570459445
 20
-12.3564169519
 10
72.0027665532
 20
-12.4043304125
 10
72.1572522
 20
-12.4466874154
 10
72.3193391952
 20
-12.4834391715
 10
72.4851897441
 20
-12.5123898997
 10
72.6547897895
 20
-12.5330259703
 10
72.8281533886
 20
-12.5458611349
 10
73.0014849179
 20
-12.5502406841
 10
73.174782209
 20
-12.5457196861
 10
73.3480474304
 20
-12.5327430722
 10
73.5174914645
 20
-12.5119908986
 10
73.6831229922
 20
-12.4829519341
 10
73.8449333325
 20
-12.4461372877
 10
73.9991073251
 20
-12.4037605251
 10
74.1444706537
 20
-12.3558810026
 10
74.2821976346
 20
-12.3024392119
 10
74.4119960566
 20
-12.2454704665
 10
74.5334438573
 20
-12.1852656005
 10
74.6469630991
 20
-12.1215336612
 10
74.7535277579
 20
-12.0554373332
 10
74.8530881315
 20
-11.9872440982
 10
74.9456939221
 20
-11.9166863883
 10
75.0324682119
 20
-11.8441243407
 10
75.1134572133
 20
-11.7698543576
 10
75.1886147138
 20
-11.6935799614
 10
75.2589251586
 20
-11.6147719639
 10
75.3248261523
 20
-11.5331939823
 10
75.3858800903
 20
-11.4490822876
 10
75.4417586035
 20
-11.3626166634
 10
75.4925345763
 20
-11.2737048085
 10
75.5381351244
 20
-11.1824389177
 10
75.5780132261
 20
-11.0892755338
 10
75.612150527
 20
-10.9940467827
 10
75.6405653816
 20
-10.8969204513
 10
75.6627658306
 20
-10.7988566103
 10
75.6785878876
 20
-10.7001752832
 10
75.6881955391
 20
-10.6005564186
 10
75.691588785
 20
-10.5
  0
LWPOLYLINE
  5
4C8
100
AcDbEntity
  8
INTF_7
100
AcDbPolyline
 62
7
  6
CONTINUOUS
 90
82
 70
0
 10
70.308411215
 20
-10.5
 10
70.3100847963
 20
-10.571749579
 10
70.3150737346
 20
-10.6434476362
 10
70.3233303214
 20
-10.7149213163
 10
70.3348068482
 20
-10.7859977643
 10
70.3494556065
 20
-10.8565041251
 10
70.3672288877
 20
-10.9262675437
 10
70.3887384023
 20
-10.9971741876
 10
70.4133935465
 20
-11.0670171161
 10
70.441076364
 20
-11.135704003
 10
70.4716688983
 20
-11.2031425219
 10
70.505053193
 20
-11.2692403464
 10
70.5411112916
 20
-11.3339051502
 10
70.5817596945
 20
-11.4002317522
 10
70.6250914999
 20
-11.4648307974
 10
70.6709670171
 20
-11.5276595704
 10
70.7192465553
 20
-11.5886753555
 10
70.7697904235
 20
-11.6478354373
 10
70.822458931
 20
-11.7050971002
 10
70.8922362866
 20
-11.7750635825
 10
70.9649974391
 20
-11.8418976793
 10
71.040521577
 20
-11.9056008773
 10
71.1185878892
 20
-11.9661746633
 10
71.1989755642
 20
-12.0236205242
 10
71.2860691254
 20
-12.0808410639
 10
71.3753197513
 20
-12.1346133065
 10
71.4665466009
 20
-12.184968669
 10
71.5595688333
 20
-12.2319385679
 10
71.6542056075
 20
-12.2755544201
 10
71.7544725115
 20
-12.3175163052
 10
71.8561553003
 20
-12.3558962147
 10
71.9591094086
 20
-12.3907285464
 10
72.0631902714
 20
-12.4220476982
 10
72.1682533236
 20
-12.4498880679
 10
72.2770502113
 20
-12.4748969399
 10
72.3866097299
 20
-12.4962921676
 10
72.4968107083
 20
-12.5140943775
 10
72.6075319755
 20
-12.5283241963
 10
72.7186523606
 20
-12.5390022504
 10
72.8310781829
 20
-12.5461950479
 10
72.9436738554
 20
-12.5497914466
 10
73.0563261446
 20
-12.5497914466
 10
73.1689218171
 20
-12.5461950479
 10
73.2813476394
 20
-12.5390022504
 10
73.3924680245
 20
-12.5283241963
 10
73.5031892917
 20
-12.5140943775
 10
73.6133902701
 20
-12.4962921676
 10
73.7229497887
 20
-12.4748969399
 10
73.8317466764
 20
-12.4498880679
 10
73.9368097286
 20
-12.4220476982
 10
74.0408905914
 20
-12.3907285464
 10
74.1438446997
 20
-12.3558962147
 10
74.2455274885
 20
-12.3175163052
 10
74.3457943925
 20
-12.2755544201
 10
74.4404311667
 20
-12.2319385679
 10
74.5334533991
 20
-12.184968669
 10
74.6246802487
 20
-12.1346133065
 10
74.7139308746
 20
-12.0808410639
 10
74.8010244358
 20
-12.0236205242
 10
74.8814121108
 20
-11.9661746633
 10
74.959478423
 20
-11.9056008773
 10
75.0350025609
 20
-11.8418976793
 10
75.1077637134
 20
-11.7750635825
 10
75.177541069
 20
-11.7050971002
 10
75.2302095765
 20
-11.6478354373
 10
75.2807534447
 20
-11.5886753555
 10
75.3290329829
 20
-11.5276595704
 10
75.3749085001
 20
-11.4648307974
 10
75.4182403055
 20
-11.4002317522
 10
75.4588887084
 20
-11.3339051502
 10
75.494946807
 20
-11.2692403464
 10
75.5283311017
 20
-11.2031425219
 10
75.558923636
 20
-11.135704003
 10
75.5866064535
 20
-11.0670171161
 10
75.6112615977
 20
-10.9971741876
 10
75.6327711123
 20
-10.9262675437
 10
75.6505443935
 20
-10.8565041251
 10
75.6651931518
 20
-10.7859977643
 10
75.6766696786
 20
-10.7149213163
 10
75.6849262654
 20
-10.6434476362
 10
75.6899152037
 20
-10.571749579
 10
75.691588785
 20
-10.5
  0
LWPOLYLINE
  5
4C9
100
AcDbEntity
  8
INTF_7
100
AcDbPolyline
 62
7
  6
CONTINUOUS
 90
54
 70
0
 10
70.1191588785
 20
-10.5
 10
70.1201528111
 20
-10.5589536999
 10
70.1231265161
 20
-10.6178765533
 10
70.1280678543
 20
-10.67669095
 10
70.1349646865
 20
-10.7353192798
 10
70.1438048737
 20
-10.7936839325
 10
70.1546985012
 20
-10.8523310293
 10
70.1675309435
 20
-10.9105749785
 10
70.1822682005
 20
-10.9683612712
 10
70.1988762724
 20
-11.0256353985
 10
70.2173211593
 20
-11.0823428515
 10
70.2379931824
 20
-11.1395554141
 10
70.2604917609
 20
-11.1960763361
 10
70.284767197
 20
-11.2518604638
 10
70.3107697931
 20
-11.3068626439
 10
70.3384498514
 20
-11.3610377228
 10
70.3685795756
 20
-11.4157866159
 10
70.4003692298
 20
-11.4695861311
 10
70.4337608773
 20
-11.5224074275
 10
70.4686965811
 20
-11.5742216641
 10
70.5051184045
 20
-11.625
 10
70.5441885063
 20
-11.676270521
 10
70.5847188793
 20
-11.7263925032
 10
70.6266498682
 20
-11.7753505464
 10
70.669921818
 20
-11.8231292505
 10
70.7144750734
 20
-11.8697132153
 10
70.7738125838
 20
-11.9280826958
 10
70.8350762885
 20
-11.9844248319
 10
70.8981550442
 20
-12.0387304203
 10
70.9629377075
 20
-12.0909902577
 10
71.0314747627
 20
-12.142776695
 10
71.1016074393
 20
-12.1923783744
 10
71.1732345836
 20
-12.2397996849
 10
71.2462550421
 20
-12.2850450157
 10
71.3227578363
 20
-12.3293442041
 10
71.4005394205
 20
-12.3713548629
 10
71.4795099148
 20
-12.4110886338
 10
71.5595794393
 20
-12.4485571585
 10
71.6426800418
 20
-12.4846154844
 10
71.7267613336
 20
-12.5183210378
 10
71.8117442764
 20
-12.5496875989
 10
71.8975498315
 20
-12.5787289482
 10
71.9857780385
 20
-12.6059516699
 10
72.0747073448
 20
-12.6307851169
 10
72.1642662996
 20
-12.6532415198
 10
72.2543834518
 20
-12.6733331092
 10
72.3461860044
 20
-12.6912894185
 10
72.4384265309
 20
-12.7068389962
 10
72.5310433495
 20
-12.7199900875
 10
72.623974778
 20
-12.7307509381
 10
72.7177792096
 20
-12.7391767447
 10
72.8117669151
 20
-12.7451915941
 10
72.9058648575
 20
-12.748798381
 10
73.0
 20
-12.75
  0
LWPOLYLINE
  5
4CA
100
AcDbEntity
  8
0
100
AcDbPolyline
 62
7
  6
CONTINUOUS
 90
37
 70
0
 10
70.1191588785
 20
-10.5
 10
70.1213480025
 20
-10.4122645562
 10
70.1278941539
 20
-10.3248479861
 10
70.1387973328
 20
-10.2377503024
 10
70.1541739138
 20
-10.1506270851
 10
70.1739075223
 20
-10.063822774
 10
70.1976490342
 20
-9.9783706945
 10
70.2254970797
 20
-9.8943803138
 10
70.2573530285
 20
-9.8117422329
 10
70.2925718661
 20
-9.7311615126
 10
70.3310500789
 20
-9.652912934
 10
70.3728911804
 20
-9.5767218066
 10
70.4177606964
 20
-9.5024689935
 10
70.4653207807
 20
-9.4304263313
 10
70.5159092796
 20
-9.3603220597
 10
70.570205257
 20
-9.2912216261
 10
70.6280809076
 20
-9.2229499569
 10
70.6896640368
 20
-9.1556821609
 10
70.7560171256
 20
-9.0890089369
 10
70.8270647641
 20
-9.0227421392
 10
70.9028823623
 20
-8.9570699342
 10
70.9847586312
 20
-8.8921474844
 10
71.0727609341
 20
-8.8277244135
 10
71.1668219077
 20
-8.7640511212
 10
71.2680281735
 20
-8.7020339492
 10
71.3768740245
 20
-8.6413617915
 10
71.4928651675
 20
-8.582345799
 10
71.6156053454
 20
-8.5268257319
 10
71.7451397421
 20
-8.4748597519
 10
71.8814231735
 20
-8.4263897797
 10
72.0239238303
 20
-8.3830812498
 10
72.1727765123
 20
-8.3449320667
 10
72.3278464196
 20
-8.3119444142
 10
72.488197343
 20
-8.2857901652
 10
72.6535172126
 20
-8.2670266362
 10
72.8241180983
 20
-8.2550965756
 10
73.0
 20
-8.25
  0
LWPOLYLINE
  5
4CB
100
AcDbEntity
  8
0
100
AcDbPolyline
 62
7
  6
CONTINUOUS
 90
40
 70
0
 10
69.4254492681
 20
10.5000036362
 10
69.4286888998
 20
10.5915468421
 10
69.4377374589
 20
10.6823057661
 10
69.4525949452
 20
10.7722804206
 10
69.4734577633
 20
10.8617506003
 10
69.5001295087
 20
10.9504365317
 10
69.5320209678
 20
11.0374988953
 10
69.5690731343
 20
11.1226798617
 10
69.6113450145
 20
11.2062373302
 10
69.6584244139
 20
11.2881055959
 10
69.7103539227
 20
11.3683634384
 10
69.7670909507
 20
11.4469321446
 10
69.8280955326
 20
11.5235097779
 10
69.8931595384
 20
11.5979116996
 10
69.9624910981
 20
11.6703226296
 10
70.036174636
 20
11.7409946698
 10
70.114231438
 20
11.8100462122
 10
70.1966402182
 20
11.8773589283
 10
70.2834215433
 20
11.9428298348
 10
70.3745125438
 20
12.0064721018
 10
70.4699760891
 20
12.0682726248
 10
70.5700213542
 20
12.1280890134
 10
70.6747865128
 20
12.1860254841
 10
70.7841333913
 20
12.2419778858
 10
70.8978566438
 20
12.2954912847
 10
71.0160246516
 20
12.3465776507
 10
71.1385690335
 20
12.3952250891
 10
71.2650793
 20
12.4409428819
 10
71.3957234007
 20
12.483740164
 10
71.530333386
 20
12.5236078788
 10
71.6679949175
 20
12.5600280319
 10
71.8087828646
 20
12.5929464658
 10
71.9526223579
 20
12.6224174119
 10
72.0983744511
 20
12.6480854635
 10
72.2460585239
 20
12.6698885981
 10
72.3956551967
 20
12.6878888947
 10
72.5459673844
 20
12.701917096
 10
72.6965960588
 20
12.7119167934
 10
72.8479402482
 20
12.7179444255
 10
72.9999999526
 20
12.72
  0
LINE
  5
4CC
100
AcDbEntity
  8
0
100
AcDbLine
 62
7
  6
CONTINUOUS
 10
74.133618
 20
11.35479
 11
73.959918
 21
10.72094
  0
LINE
  5
4CD
100
AcDbEntity
  8
0
100
AcDbLine
 62
7
  6
CONTINUOUS
 10
74.986878
 20
10.41925
 11
74.886318
 21
10.05357
  0
LINE
  5
4CE
100
AcDbEntity
  8
0
100
AcDbLine
 62
7
  6
CONTINUOUS
 10
73.856308
 20
10.35525
 11
73.566808
 21
9.30392
  0
LINE
  5
4CF
100
AcDbEntity
  8
0
100
AcDbLine
 62
7
  6
CONTINUOUS
 10
73.868498
 20
11.87893
 11
73.188938
 21
9.41667
  0
LINE
  5
4D0
100
AcDbEntity
  8
0
100
AcDbLine
 62
7
  6
CONTINUOUS
 10
75.1056494666
 20
-10.8125785797
 11
75.1042789964
 21
-10.7948960293
  0
LWPOLYLINE
  5
4D1
100
AcDbEntity
  8
0
100
AcDbPolyline
 62
7
  6
CONTINUOUS
 90
40
 70
0
 10
76.274550732
 20
10.5000035145
 10
76.2714100422
 20
10.5791789224
 10
76.2627622337
 20
10.6576756634
 10
76.2486073064
 20
10.7354937477
 10
76.2286667448
 20
10.8129766424
 10
76.2032190645
 20
10.8897808959
 10
76.1730998122
 20
10.9648761609
 10
76.1383248195
 20
11.0379788585
 10
76.0988782548
 20
11.1093726333
 10
76.0555481706
 20
11.1788779977
 10
76.0083730668
 20
11.24645459
 10
75.9573144436
 20
11.3121428386
 10
75.9030448536
 20
11.3758844444
 10
75.8458777853
 20
11.4374680732
 10
75.7854997502
 20
11.4971051263
 10
75.7216428361
 20
11.5553713975
 10
75.6543687552
 20
11.6123892907
 10
75.5836157953
 20
11.6680364427
 10
75.5089309069
 20
11.7225214832
 10
75.4303802516
 20
11.7759187682
 10
75.3478976679
 20
11.8281539748
 10
75.2608316207
 20
11.8792127104
 10
75.16900463
 20
11.9292541529
 10
75.0725941759
 20
11.9781191557
 10
74.9714811644
 20
12.0253158469
 10
74.8655824507
 20
12.070881389
 10
74.7549811797
 20
12.1147786635
 10
74.6398076922
 20
12.1564043902
 10
74.5197918786
 20
12.1958011114
 10
74.3952038485
 20
12.2329263386
 10
74.2669842715
 20
12.2670492591
 10
74.1350151334
 20
12.298103819
 10
73.9994144484
 20
12.3261561313
 10
73.8614769289
 20
12.3506736427
 10
73.7211662851
 20
12.3715708524
 10
73.5785188068
 20
12.3889333103
 10
73.4349380761
 20
12.40248504
 10
73.2908919539
 20
12.4121340587
 10
73.1459125794
 20
12.4179723764
 10
72.9999999526
 20
12.42
  0
LWPOLYLINE
  5
4D2
100
AcDbEntity
  8
0
100
AcDbPolyline
 62
7
  6
CONTINUOUS
 90
61
 70
0
 10
75.691588785
 20
-10.5
 10
75.6882158359
 20
-10.3996617114
 10
75.6786459174
 20
-10.3002385557
 10
75.6628790294
 20
-10.2017305645
 10
75.6407560208
 20
-10.1038193381
 10
75.6124360429
 20
-10.006823332
 10
75.5783965494
 20
-9.9116978821
 10
75.5386180129
 20
-9.8186077307
 10
75.4931199608
 20
-9.7273882383
 10
75.4424384302
 20
-9.6385006987
 10
75.3866524552
 20
-9.5520434557
 10
75.3256830015
 20
-9.4679182756
 10
75.2598290038
 20
-9.3862915965
 10
75.1895212692
 20
-9.3073894439
 10
75.1143289905
 20
-9.2309858969
 10
75.0332586804
 20
-9.1565694647
 10
74.946353096
 20
-9.083842599
 10
74.8535694802
 20
-9.0131029176
 10
74.7537860735
 20
-8.9447316736
 10
74.6469456781
 20
-8.8784603431
 10
74.5331054919
 20
-8.8145575231
 10
74.4113153479
 20
-8.7542101675
 10
74.2811429822
 20
-8.6971307158
 10
74.1430206589
 20
-8.6436068201
 10
73.9972950038
 20
-8.5956882886
 10
73.8428020246
 20
-8.5533263236
 10
73.6807057135
 20
-8.5165698319
 10
73.5148446733
 20
-8.4876152084
 10
73.3452328233
 20
-8.466976323
 10
73.171856244
 20
-8.4541393893
 10
72.9985117802
 20
-8.4497593173
 10
72.8252016011
 20
-8.4542811687
 10
72.6519235375
 20
-8.4672598815
 10
72.4824679261
 20
-8.4880151613
 10
72.316826242
 20
-8.5170582675
 10
72.1550070101
 20
-8.5538778572
 10
72.0008261427
 20
-8.5962597317
 10
71.8554582603
 20
-8.6441444049
 10
71.7177287423
 20
-8.6975912548
 10
71.5879296387
 20
-8.7545644076
 10
71.4664832292
 20
-8.8147728018
 10
71.352967234
 20
-8.8785074085
 10
71.2464068635
 20
-8.9446054376
 10
71.1468519117
 20
-9.0127991122
 10
71.0542525845
 20
-9.0833561365
 10
70.9674847108
 20
-9.1559169621
 10
70.886501919
 20
-9.2301850061
 10
70.8113505805
 20
-9.3064567813
 10
70.7410456381
 20
-9.3852623773
 10
70.6751491878
 20
-9.4668383393
 10
70.6140991336
 20
-9.5509480161
 10
70.5582241301
 20
-9.6374116938
 10
70.5074513508
 20
-9.7263216262
 10
70.4618536222
 20
-9.8175854486
 10
70.4219780783
 20
-9.9107465286
 10
70.3878431618
 20
-10.0059726178
 10
70.3594304299
 20
-10.1030958606
 10
70.3372316888
 20
-10.2011562448
 10
70.3214108735
 20
-10.2998337561
 10
70.3118040489
 20
-10.3994483519
 10
70.308411215
 20
-10.5
  0
LWPOLYLINE
  5
4D3
100
AcDbEntity
  8
INTF_7
100
AcDbPolyline
 62
7
  6
CONTINUOUS
 90
82
 70
0
 10
75.691588785
 20
-10.5
 10
75.6899152037
 20
-10.428250421
 10
75.6849262654
 20
-10.3565523638
 10
75.6766696786
 20
-10.2850786837
 10
75.6651931518
 20
-10.2140022357
 10
75.6505443935
 20
-10.1434958749
 10
75.6327711123
 20
-10.0737324563
 10
75.6112615977
 20
-10.0028258124
 10
75.5866064535
 20
-9.9329828839
 10
75.558923636
 20
-9.864295997
 10
75.5283311017
 20
-9.7968574781
 10
75.494946807
 20
-9.7307596536
 10
75.4588887084
 20
-9.6660948498
 10
75.4182403055
 20
-9.5997682478
 10
75.3749085001
 20
-9.5351692026
 10
75.3290329829
 20
-9.4723404296
 10
75.2807534447
 20
-9.4113246445
 10
75.2302095765
 20
-9.3521645627
 10
75.177541069
 20
-9.2949028998
 10
75.1077637134
 20
-9.2249364175
 10
75.0350025609
 20
-9.1581023207
 10
74.959478423
 20
-9.0943991227
 10
74.8814121108
 20
-9.0338253367
 10
74.8010244358
 20
-8.9763794758
 10
74.7139308746
 20
-8.9191589361
 10
74.6246802487
 20
-8.8653866935
 10
74.5334533991
 20
-8.815031331
 10
74.4404311667
 20
-8.7680614321
 10
74.3457943925
 20
-8.7244455799
 10
74.2455274885
 20
-8.6824836948
 10
74.1438446997
 20
-8.6441037853
 10
74.0408905914
 20
-8.6092714536
 10
73.9368097286
 20
-8.5779523018
 10
73.8317466764
 20
-8.5501119321
 10
73.7229497887
 20
-8.5251030601
 10
73.6133902701
 20
-8.5037078324
 10
73.5031892917
 20
-8.4859056225
 10
73.3924680245
 20
-8.4716758037
 10
73.2813476394
 20
-8.4609977496
 10
73.1689218171
 20
-8.4538049521
 10
73.0563261446
 20
-8.4502085534
 10
72.9436738554
 20
-8.4502085534
 10
72.8310781829
 20
-8.4538049521
 10
72.7186523606
 20
-8.4609977496
 10
72.6075319755
 20
-8.4716758037
 10
72.4968107083
 20
-8.4859056225
 10
72.3866097299
 20
-8.5037078324
 10
72.2770502113
 20
-8.5251030601
 10
72.1682533236
 20
-8.5501119321
 10
72.0631902714
 20
-8.5779523018
 10
71.9591094086
 20
-8.6092714536
 10
71.8561553003
 20
-8.6441037853
 10
71.7544725115
 20
-8.6824836948
 10
71.6542056075
 20
-8.7244455799
 10
71.5595688333
 20
-8.7680614321
 10
71.4665466009
 20
-8.815031331
 10
71.3753197513
 20
-8.8653866935
 10
71.2860691254
 20
-8.9191589361
 10
71.1989755642
 20
-8.9763794758
 10
71.1185878892
 20
-9.0338253367
 10
71.040521577
 20
-9.0943991227
 10
70.9649974391
 20
-9.1581023207
 10
70.8922362866
 20
-9.2249364175
 10
70.822458931
 20
-9.2949028998
 10
70.7697904235
 20
-9.3521645627
 10
70.7192465553
 20
-9.4113246445
 10
70.6709670171
 20
-9.4723404296
 10
70.6250914999
 20
-9.5351692026
 10
70.5817596945
 20
-9.5997682478
 10
70.5411112916
 20
-9.6660948498
 10
70.505053193
 20
-9.7307596536
 10
70.4716688983
 20
-9.7968574781
 10
70.441076364
 20
-9.864295997
 10
70.4133935465
 20
-9.9329828839
 10
70.3887384023
 20
-10.0028258124
 10
70.3672288877
 20
-10.0737324563
 10
70.3494556065
 20
-10.1434958749
 10
70.3348068482
 20
-10.2140022357
 10
70.3233303214
 20
-10.2850786837
 10
70.3150737346
 20
-10.3565523638
 10
70.3100847963
 20
-10.428250421
 10
70.308411215
 20
-10.5
  0
LWPOLYLINE
  5
4D4
100
AcDbEntity
  8
INTF_7
100
AcDbPolyline
 62
7
  6
CONTINUOUS
 90
54
 70
0
 10
75.8808411215
 20
-10.5
 10
75.8798471889
 20
-10.4410463001
 10
75.8768734839
 20
-10.3821234467
 10
75.8719321457
 20
-10.32330905
 10
75.8650353135
 20
-10.2646807202
 10
75.8561951263
 20
-10.2063160675
 10
75.8453014988
 20
-10.1476689707
 10
75.8324690565
 20
-10.0894250215
 10
75.8177317995
 20
-10.0316387288
 10
75.8011237276
 20
-9.9743646015
 10
75.7826788407
 20
-9.9176571485
 10
75.7620068176
 20
-9.8604445859
 10
75.7395082391
 20
-9.8039236639
 10
75.715232803
 20
-9.7481395362
 10
75.6892302069
 20
-9.6931373561
 10
75.6615501486
 20
-9.6389622772
 10
75.6314204244
 20
-9.5842133841
 10
75.5996307702
 20
-9.5304138689
 10
75.5662391227
 20
-9.4775925725
 10
75.5313034189
 20
-9.4257783359
 10
75.4948815955
 20
-9.375
 10
75.4558114937
 20
-9.323729479
 10
75.4152811207
 20
-9.2736074968
 10
75.3733501318
 20
-9.2246494536
 10
75.330078182
 20
-9.1768707495
 10
75.2855249266
 20
-9.1302867847
 10
75.2261874162
 20
-9.0719173042
 10
75.1649237115
 20
-9.0155751681
 10
75.1018449558
 20
-8.9612695797
 10
75.0370622925
 20
-8.9090097423
 10
74.9685252373
 20
-8.857223305
 10
74.8983925607
 20
-8.8076216256
 10
74.8267654164
 20
-8.7602003151
 10
74.7537449579
 20
-8.7149549843
 10
74.6772421637
 20
-8.6706557959
 10
74.5994605795
 20
-8.6286451371
 10
74.5204900852
 20
-8.5889113662
 10
74.4404205607
 20
-8.5514428415
 10
74.3573199582
 20
-8.5153845156
 10
74.2732386664
 20
-8.4816789622
 10
74.1882557236
 20
-8.4503124011
 10
74.1024501685
 20
-8.4212710518
 10
74.0142219615
 20
-8.3940483301
 10
73.9252926552
 20
-8.3692148831
 10
73.8357337004
 20
-8.3467584802
 10
73.7456165482
 20
-8.3266668908
 10
73.6538139956
 20
-8.3087105815
 10
73.5615734691
 20
-8.2931610038
 10
73.4689566505
 20
-8.2800099125
 10
73.376025222
 20
-8.2692490619
 10
73.2822207904
 20
-8.2608232553
 10
73.1882330849
 20
-8.2548084059
 10
73.0941351425
 20
-8.251201619
 10
73.0
 20
-8.25
  0
LINE
  5
4D5
100
AcDbEntity
  8
0
100
AcDbLine
 62
7
  6
CONTINUOUS
 10
72.4322426596
 20
-9.2593461702
 11
72.4322426596
 21
-9.6273360638
  0
LINE
  5
4D6
100
AcDbEntity
  8
0
100
AcDbLine
 62
7
  6
CONTINUOUS
 10
72.4322426596
 20
-11.3726639362
 11
72.4322426596
 21
-11.7406538298
  0
LINE
  5
4D7
100
AcDbEntity
  8
INTF_7
100
AcDbLine
 62
7
  6
CONTINUOUS
 10
72.4322426596
 20
-11.7406538298
 11
72.4322426596
 21
-11.3726639362
  0
LINE
  5
4D8
100
AcDbEntity
  8
INTF_7
100
AcDbLine
 62
7
  6
CONTINUOUS
 10
72.4322426596
 20
-9.6273360638
 11
72.4322426596
 21
-9.2593461702
  0
LINE
  5
4D9
100
AcDbEntity
  8
0
100
AcDbLine
 62
7
  6
CONTINUOUS
 10
73.336447766
 20
-9.2593461702
 11
73.336447766
 21
-9.6273360638
  0
LINE
  5
4DA
100
AcDbEntity
  8
0
100
AcDbLine
 62
7
  6
CONTINUOUS
 10
73.336447766
 20
-11.3726639362
 11
73.336447766
 21
-11.7406538298
  0
LINE
  5
4DB
100
AcDbEntity
  8
INTF_7
100
AcDbLine
 62
7
  6
CONTINUOUS
 10
73.336447766
 20
-11.7406538298
 11
73.336447766
 21
-11.3726639362
  0
LINE
  5
4DC
100
AcDbEntity
  8
INTF_7
100
AcDbLine
 62
7
  6
CONTINUOUS
 10
73.336447766
 20
-9.6273360638
 11
73.336447766
 21
-9.2593461702
  0
LINE
  5
4DD
100
AcDbEntity
  8
0
100
AcDbLine
 62
7
  6
CONTINUOUS
 10
74.2406538298
 20
-9.2593461702
 11
74.2406538298
 21
-9.6273360638
  0
LINE
  5
4DE
100
AcDbEntity
  8
0
100
AcDbLine
 62
7
  6
CONTINUOUS
 10
74.2406538298
 20
-11.3726639362
 11
74.2406538298
 21
-11.7406538298
  0
LINE
  5
4DF
100
AcDbEntity
  8
INTF_7
100
AcDbLine
 62
7
  6
CONTINUOUS
 10
74.2406538298
 20
-11.7406538298
 11
74.2406538298
 21
-11.3726639362
  0
LINE
  5
4E0
100
AcDbEntity
  8
INTF_7
100
AcDbLine
 62
7
  6
CONTINUOUS
 10
74.2406538298
 20
-9.6273360638
 11
74.2406538298
 21
-9.2593461702
  0
LINE
  5
4E1
100
AcDbEntity
  8
0
100
AcDbLine
 62
250
  6
CONTINUOUS
 10
76.6292815281
 20
39.497941481
 11
76.6292815281
 21
35.8210372914
  0
LINE
  5
4E2
100
AcDbEntity
  8
0
100
AcDbLine
 62
250
  6
CONTINUOUS
 10
76.6292815281
 20
-39.497941481
 11
76.6292815281
 21
-35.8210372914
  0
LINE
  5
4E3
100
AcDbEntity
  8
0
100
AcDbLine
 62
7
  6
CONTINUOUS
 10
75.507978
 20
11.39745
 11
75.504928
 21
10.95863
  0
LWPOLYLINE
  5
4E4
100
AcDbEntity
  8
0
100
AcDbPolyline
 62
7
  6
CONTINUOUS
 90
37
 70
0
 10
75.8808411215
 20
-10.5
 10
75.878651396
 20
-10.5877419828
 10
75.8721044388
 20
-10.675163915
 10
75.8612002499
 20
-10.7622657985
 10
75.8458222911
 20
-10.849392084
 10
75.8260871006
 20
-10.9361983193
 10
75.8023442927
 20
-11.0216511765
 10
75.7744953103
 20
-11.1056411884
 10
75.7426387106
 20
-11.1882778764
 10
75.7074197794
 20
-11.2688564351
 10
75.668942143
 20
-11.3471021381
 10
75.6271021752
 20
-11.4232897988
 10
75.5822342832
 20
-11.4975389338
 10
75.5346764285
 20
-11.5695777467
 10
75.4840906497
 20
-11.6396781119
 10
75.4297974702
 20
-11.70877503
 10
75.3719248046
 20
-11.7770436076
 10
75.3103447383
 20
-11.8443087704
 10
75.2439940515
 20
-11.9109802199
 10
75.172948246
 20
-11.9772462086
 10
75.0971318198
 20
-12.0429185
 10
75.0152550478
 20
-12.107842057
 10
74.9272501642
 20
-12.172267653
 10
74.8331849347
 20
-12.235944536
 10
74.7319729311
 20
-12.2979654017
 10
74.6231193105
 20
-12.3586415321
 10
74.5071189158
 20
-12.4176616994
 10
74.3843698478
 20
-12.473184885
 10
74.2548268601
 20
-12.5251527292
 10
74.1185351992
 20
-12.5736237059
 10
73.9760287052
 20
-12.6169320998
 10
73.8271722112
 20
-12.6550797712
 10
73.6721008842
 20
-12.6880649901
 10
73.5117540655
 20
-12.7142166854
 10
73.3464448687
 20
-12.7329778729
 10
73.1758601802
 20
-12.7449056359
 10
73.0
 20
-12.75
  0
LWPOLYLINE
  5
4E5
100
AcDbEntity
  8
0
100
AcDbPolyline
 62
7
  6
CONTINUOUS
 90
40
 70
0
 10
76.574550732
 20
10.5000035145
 10
76.5713108812
 20
10.4084597365
 10
76.5622623012
 20
10.3177006952
 10
76.5474049919
 20
10.227726415
 10
76.5265425832
 20
10.1382574317
 10
76.4998714452
 20
10.0495732529
 10
76.4679806887
 20
9.9625123788
 10
76.4309294232
 20
9.8773326279
 10
76.3886585392
 20
9.7937762647
 10
76.3415798199
 20
9.711908476
 10
76.2896506765
 20
9.6316504427
 10
76.2329136978
 20
9.5530810574
 10
76.1719084328
 20
9.4765020797
 10
76.1068428613
 20
9.4020980831
 10
76.0375090036
 20
9.3296845738
 10
75.9638224694
 20
9.2590097095
 10
75.8857617683
 20
9.1899550971
 10
75.8033483906
 20
9.1226391896
 10
75.7165624174
 20
9.0571654098
 10
75.6254667204
 20
8.9935207753
 10
75.5299984278
 20
8.9317183262
 10
75.4299490057
 20
8.8719005208
 10
75.3251803979
 20
8.8139633252
 10
75.2158306606
 20
8.7580108271
 10
75.1021054283
 20
8.7044976728
 10
74.9839363855
 20
8.6534119969
 10
74.8613918477
 20
8.6047657221
 10
74.7348823961
 20
8.5590491841
 10
74.6042402475
 20
8.5162533378
 10
74.4696331851
 20
8.4763872848
 10
74.3319751407
 20
8.4399685867
 10
74.1911913529
 20
8.4070514048
 10
74.0473565831
 20
8.3775816287
 10
73.9016090464
 20
8.3519144153
 10
73.7539294041
 20
8.3301117251
 10
73.6043369951
 20
8.3121116354
 10
73.454028051
 20
8.2980834766
 10
73.3034013159
 20
8.2880836989
 10
73.1520580458
 20
8.2820558717
 10
72.9999982408
 20
8.28
  0
LWPOLYLINE
  5
4E6
100
AcDbEntity
  8
0
100
AcDbPolyline
 62
7
  6
CONTINUOUS
 90
8
 70
0
 10
75.1042789964
 20
-10.7948960293
 10
75.1007891715
 20
-10.7779173323
 10
75.0949264914
 20
-10.7616146076
 10
75.0869444566
 20
-10.7460157427
 10
75.0774291452
 20
-10.7318825186
 10
75.0665759167
 20
-10.7194688673
 10
75.0541894117
 20
-10.7085208679
 10
75.0402696302
 20
-10.6990385245
  0
LWPOLYLINE
  5
4E7
100
AcDbEntity
  8
0
100
AcDbPolyline
 62
7
  6
CONTINUOUS
 90
19
 70
0
 10
75.0659494946
 20
-10.2480112383
 10
75.0620817272
 20
-10.2269967779
 10
75.0566039464
 20
-10.2065227499
 10
75.049516152
 20
-10.1865891573
 10
75.0407612718
 20
-10.1669363696
 10
75.0303963781
 20
-10.1478240219
 10
75.0185926878
 20
-10.1300310187
 10
75.0053252094
 20
-10.1136835124
 10
74.9906189343
 20
-10.0986553623
 10
74.9747200537
 20
-10.0853470381
 10
74.9576115104
 20
-10.073984438
 10
74.9393103614
 20
-10.0643416748
 10
74.9201139695
 20
-10.0561415401
 10
74.9001689062
 20
-10.0493723033
 10
74.8793285999
 20
-10.0440457005
 10
74.8574506987
 20
-10.0399197208
 10
74.834487752
 20
-10.0369136948
 10
74.8104872105
 20
-10.035108294
 10
74.785449074
 20
-10.0345035191
  0
LWPOLYLINE
  5
4E8
100
AcDbEntity
  8
INTF_1
100
AcDbPolyline
 62
7
  6
CONTINUOUS
 90
39
 70
0
 10
75.1038424843
 20
-10.7924474664
 10
75.1033364202
 20
-10.7894230728
 10
75.1027668503
 20
-10.7864121002
 10
75.1021331985
 20
-10.7834163752
 10
75.1014348888
 20
-10.7804377242
 10
75.1006713449
 20
-10.7774779739
 10
75.0998419911
 20
-10.7745389508
 10
75.098946251
 20
-10.7716224814
 10
75.0979835488
 20
-10.7687303921
 10
75.0969533084
 20
-10.7658645097
 10
75.0958549536
 20
-10.7630266605
 10
75.0946879085
 20
-10.7602186711
 10
75.0934515969
 20
-10.7574423681
 10
75.0921454429
 20
-10.754699578
 10
75.0907688704
 20
-10.7519921272
 10
75.0893213033
 20
-10.7493218425
 10
75.0877872641
 20
-10.7466644718
 10
75.0861825527
 20
-10.7440472518
 10
75.0845094907
 20
-10.7414705652
 10
75.0827703993
 20
-10.7389347952
 10
75.0809676001
 20
-10.7364403244
 10
75.0791034145
 20
-10.7339875358
 10
75.077180164
 20
-10.7315768122
 10
75.07520017
 20
-10.7292085367
 10
75.073165754
 20
-10.726883092
 10
75.0710792375
 20
-10.7246008611
 10
75.0689429418
 20
-10.7223622268
 10
75.0667591884
 20
-10.720167572
 10
75.0645302988
 20
-10.7180172796
 10
75.0622585944
 20
-10.7159117326
 10
75.0599463968
 20
-10.7138513137
 10
75.0575960272
 20
-10.7118364059
 10
75.0552098073
 20
-10.7098673921
 10
75.0527900584
 20
-10.7079446552
 10
75.0503391019
 20
-10.706068578
 10
75.0478592595
 20
-10.7042395435
 10
75.0453528524
 20
-10.7024579344
 10
75.0428222022
 20
-10.7007241338
 10
75.0402696302
 20
-10.6990385245
  0
LWPOLYLINE
  5
4E9
100
AcDbEntity
  8
0
100
AcDbPolyline
 62
7
  6
CONTINUOUS
 90
35
 70
0
 10
74.4750792948
 20
-10.7519887617
 10
74.4801226125
 20
-10.7822337031
 10
74.4874268467
 20
-10.8111050453
 10
74.4969919976
 20
-10.8386027984
 10
74.5087794332
 20
-10.8649046871
 10
74.5228277853
 20
-10.8898330055
 10
74.5392529497
 20
-10.9128546214
 10
74.5582921496
 20
-10.9339856193
 10
74.5797081617
 20
-10.9532099372
 10
74.6029052114
 20
-10.9699462288
 10
74.6279578423
 20
-10.9839290828
 10
74.6547915108
 20
-10.9954239319
 10
74.6825868114
 20
-11.004645695
 10
74.7114104823
 20
-11.0114574854
 10
74.7411957854
 20
-11.0159962
 10
74.770923101
 20
-11.0188874295
 10
74.8004517971
 20
-11.0202707517
 10
74.8299225056
 20
-11.0200065907
 10
74.8587375026
 20
-11.0183018047
 10
74.8869636595
 20
-11.0153380526
 10
74.9145341049
 20
-11.0109336738
 10
74.9406505009
 20
-11.0047505462
 10
74.9652275365
 20
-10.9965645753
 10
74.9883505226
 20
-10.9865998482
 10
75.0094770541
 20
-10.9751905145
 10
75.028477049
 20
-10.9622323195
 10
75.0454805894
 20
-10.9478295081
 10
75.0603355159
 20
-10.9326289814
 10
75.0729527703
 20
-10.9166863948
 10
75.083421411
 20
-10.8999460865
 10
75.0918564532
 20
-10.8828879869
 10
75.09826668
 20
-10.865557564
 10
75.1026433084
 20
-10.8479093471
 10
75.1050750051
 20
-10.8302868624
 10
75.1056494666
 20
-10.8125785797
  0
LWPOLYLINE
  5
4EA
100
AcDbEntity
  8
INTF_1
100
AcDbPolyline
 62
7
  6
CONTINUOUS
 90
55
 70
0
 10
75.0659494946
 20
-10.2480112383
 10
75.0648328673
 20
-10.2409519095
 10
75.0635175531
 20
-10.2338846274
 10
75.0620050734
 20
-10.2268188715
 10
75.0602969499
 20
-10.2197641214
 10
75.0583947042
 20
-10.2127298565
 10
75.0562998579
 20
-10.2057255564
 10
75.0540139325
 20
-10.1987607007
 10
75.0515384497
 20
-10.1918447689
 10
75.0488749311
 20
-10.1849872406
 10
75.0460248983
 20
-10.1781975952
 10
75.0429898728
 20
-10.1714853123
 10
75.0397713763
 20
-10.1648598715
 10
75.0363709304
 20
-10.1583307523
 10
75.0327900566
 20
-10.1519074342
 10
75.0290302766
 20
-10.1455993967
 10
75.025093112
 20
-10.1394161195
 10
75.0209800843
 20
-10.133367082
 10
75.0166927152
 20
-10.1274617638
 10
75.0122325263
 20
-10.1217096444
 10
75.0076010391
 20
-10.1161202033
 10
75.0027997753
 20
-10.1107029202
 10
74.9978302565
 20
-10.1054672745
 10
74.9926940042
 20
-10.1004227457
 10
74.98739254
 20
-10.0955788135
 10
74.9819273857
 20
-10.0909449573
 10
74.9763618923
 20
-10.0865743215
 10
74.9706449037
 20
-10.0824144102
 10
74.9647836525
 20
-10.0784610505
 10
74.9587853715
 20
-10.0747100698
 10
74.9526572932
 20
-10.0711572953
 10
74.9464066503
 20
-10.0677985544
 10
74.9400406753
 20
-10.0646296743
 10
74.933566601
 20
-10.0616464823
 10
74.9269916599
 20
-10.0588448056
 10
74.9203230847
 20
-10.0562204717
 10
74.913568108
 20
-10.0537693077
 10
74.9067339625
 20
-10.0514871409
 10
74.8998278807
 20
-10.0493697987
 10
74.8928570954
 20
-10.0474131082
 10
74.8858288391
 20
-10.0456128968
 10
74.8787503445
 20
-10.0439649918
 10
74.8716288441
 20
-10.0424652205
 10
74.8644715708
 20
-10.04110941
 10
74.8572857569
 20
-10.0398933878
 10
74.8500786353
 20
-10.038812981
 10
74.8428574385
 20
-10.0378640171
 10
74.8356293992
 20
-10.0370423232
 10
74.82840175
 20
-10.0363437266
 10
74.8211817235
 20
-10.0357640546
 10
74.8139765524
 20
-10.0352991346
 10
74.8067934692
 20
-10.0349447937
 10
74.7996397067
 20
-10.0346968593
 10
74.7925224974
 20
-10.0345511587
 10
74.785449074
 20
-10.0345035191
  0
LWPOLYLINE
  5
4EB
100
AcDbEntity
  8
INTF_1
100
AcDbPolyline
 62
7
  6
CONTINUOUS
 90
82
 70
0
 10
74.4750792948
 20
-10.7519887617
 10
74.4768990594
 20
-10.7638381361
 10
74.4790387674
 20
-10.7756580694
 10
74.4815141322
 20
-10.7874276744
 10
74.4843408669
 20
-10.7991260641
 10
74.4875346849
 20
-10.8107323511
 10
74.4911112994
 20
-10.8222256483
 10
74.4950864235
 20
-10.8335850685
 10
74.4994757706
 20
-10.8447897247
 10
74.504295054
 20
-10.8558187295
 10
74.5095599868
 20
-10.8666511959
 10
74.5146855842
 20
-10.8762073881
 10
74.5201778567
 20
-10.8855675377
 10
74.5260303193
 20
-10.8947114604
 10
74.5322364872
 20
-10.903618972
 10
74.5387898753
 20
-10.9122698886
 10
74.5456839987
 20
-10.9206440258
 10
74.5529123725
 20
-10.9287211995
 10
74.5604685115
 20
-10.9364812256
 10
74.568345931
 20
-10.9439039199
 10
74.5765381458
 20
-10.9509690983
 10
74.585418935
 20
-10.9579479448
 10
74.5946107115
 20
-10.964518586
 10
74.6040882582
 20
-10.9706846884
 10
74.6138263581
 20
-10.9764499188
 10
74.6237997938
 20
-10.9818179439
 10
74.6339833482
 20
-10.9867924305
 10
74.6443518041
 20
-10.9913770452
 10
74.6548799445
 20
-10.9955754548
 10
74.665542552
 20
-10.999391326
 10
74.6763144096
 20
-11.0028283256
 10
74.6886100522
 20
-11.006269701
 10
74.7010006143
 20
-11.0092586579
 10
74.7134733712
 20
-11.0118234077
 10
74.726015598
 20
-11.0139921621
 10
74.7386145699
 20
-11.0157931324
 10
74.7526658616
 20
-11.0173949617
 10
74.766760247
 20
-11.0186027914
 10
74.7808864711
 20
-11.0194418668
 10
74.795033279
 20
-11.0199374328
 10
74.8091894159
 20
-11.0201147347
 10
74.8233181504
 20
-11.0199928364
 10
74.8374373924
 20
-11.0195642134
 10
74.8515395681
 20
-11.0188140808
 10
74.8656171038
 20
-11.0177276537
 10
74.8796624258
 20
-11.0162901474
 10
74.8919325272
 20
-11.0147253494
 10
74.9041575036
 20
-11.0128376755
 10
74.916322764
 20
-11.0105850244
 10
74.9284137175
 20
-11.0079252948
 10
74.940415773
 20
-11.0048163854
 10
74.950344206
 20
-11.001852928
 10
74.9601782526
 20
-10.9985424248
 10
74.9698955024
 20
-10.9948795141
 10
74.9794735453
 20
-10.9908588341
 10
74.9888899709
 20
-10.9864750229
 10
74.998122369
 20
-10.9817227188
 10
75.0071483291
 20
-10.97659656
 10
75.0159454412
 20
-10.9710911847
 10
75.0244912948
 20
-10.9652012311
 10
75.0327634796
 20
-10.9589213375
 10
75.0401707972
 20
-10.9527460942
 10
75.047299952
 20
-10.9462419237
 10
75.0541274833
 20
-10.9394199569
 10
75.0606299301
 20
-10.9322913247
 10
75.0667838316
 20
-10.9248671582
 10
75.0725657267
 20
-10.9171585882
 10
75.0779521547
 20
-10.9091767456
 10
75.0829196547
 20
-10.9009327614
 10
75.0874447656
 20
-10.8924377666
 10
75.0911979012
 20
-10.8844127774
 10
75.0945454743
 20
-10.8762053583
 10
75.097476165
 20
-10.867836086
 10
75.0999786534
 20
-10.8593255377
 10
75.1020416194
 20
-10.8506942902
 10
75.1036537432
 20
-10.8419629205
 10
75.1048037046
 20
-10.8331520057
 10
75.1054801839
 20
-10.8242821225
 10
75.1056718609
 20
-10.8153738481
 10
75.1054403785
 20
-10.8077068212
 10
75.1048335866
 20
-10.8000551808
 10
75.1038424843
 20
-10.7924474664
  0
LINE
  5
4EC
100
AcDbEntity
  8
0
100
AcDbLine
 62
7
  6
CONTINUOUS
 10
72.847628
 20
11.94902
 11
73.134088
 21
9.41362
  0
LINE
  5
4ED
100
AcDbEntity
  8
0
100
AcDbLine
 62
7
  6
CONTINUOUS
 10
70.918658
 20
11.68085
 11
71.192918
 21
9.24906
  0
LINE
  5
4EE
100
AcDbEntity
  8
0
100
AcDbLine
 62
7
  6
CONTINUOUS
 10
71.473278
 20
10.5899
 11
71.619548
 21
9.28563
  0
LINE
  5
4EF
100
AcDbEntity
  8
0
100
AcDbLine
 62
7
  6
CONTINUOUS
 10
72.433188
 20
11.9155
 11
72.637368
 21
10.06576
  0
LWPOLYLINE
  5
4F0
100
AcDbEntity
  8
26216763_GEN
100
AcDbPolyline
 62
250
  6
CONTINUOUS
 90
7
 70
0
 10
79.9595509521
 20
23.2000000002
 10
79.8260490859
 20
24.9435253562
 10
79.6828163629
 20
26.6868593074
 10
79.5298527831
 20
28.4299575008
 10
79.3671583465
 20
30.1727755341
 10
79.1947330532
 20
31.9152689573
 10
79.012576903
 20
33.6573932734
  0
LWPOLYLINE
  5
4F1
100
AcDbEntity
  8
0
100
AcDbPolyline
 62
250
  6
CONTINUOUS
 90
10
 70
0
 10
80.8140687318
 20
0.3500000028
 10
80.8017326817
 20
2.8120093009
 10
80.7701566008
 20
5.2741435197
 10
80.719340489
 20
7.7362796835
 10
80.6492838355
 20
10.1983779733
 10
80.5599871511
 20
12.6602320258
 10
80.4514519685
 20
15.1214691332
 10
80.3236787986
 20
17.5818831755
 10
80.1766671306
 20
20.0414344335
 10
80.0104169643
 20
22.5000000242
  0
LINE
  5
4F2
100
AcDbEntity
  8
0
100
AcDbLine
 62
7
  6
CONTINUOUS
 10
80.8
 20
20.0
 11
80.8
 21
19.2
  0
LINE
  5
4F3
100
AcDbEntity
  8
0
100
AcDbLine
 62
7
  6
CONTINUOUS
 10
80.8
 20
17.4
 11
80.8
 21
16.6
  0
LINE
  5
4F4
100
AcDbEntity
  8
0
100
AcDbLine
 62
7
  6
CONTINUOUS
 10
80.8
 20
14.8
 11
80.8
 21
14.0
  0
LINE
  5
4F5
100
AcDbEntity
  8
0
100
AcDbLine
 62
7
  6
CONTINUOUS
 10
80.8
 20
-14.0
 11
80.8
 21
-14.8
  0
LINE
  5
4F6
100
AcDbEntity
  8
0
100
AcDbLine
 62
7
  6
CONTINUOUS
 10
80.8
 20
-16.6
 11
80.8
 21
-17.4
  0
LINE
  5
4F7
100
AcDbEntity
  8
0
100
AcDbLine
 62
7
  6
CONTINUOUS
 10
80.8
 20
-19.2
 11
80.8
 21
-20.0
  0
LINE
  5
4F8
100
AcDbEntity
  8
0
100
AcDbLine
 62
7
  6
CONTINUOUS
 10
81.6
 20
20.0
 11
81.6
 21
19.2
  0
LINE
  5
4F9
100
AcDbEntity
  8
0
100
AcDbLine
 62
7
  6
CONTINUOUS
 10
81.6
 20
17.4
 11
81.6
 21
16.6
  0
LINE
  5
4FA
100
AcDbEntity
  8
0
100
AcDbLine
 62
7
  6
CONTINUOUS
 10
81.6
 20
14.8
 11
81.6
 21
14.0
  0
LINE
  5
4FB
100
AcDbEntity
  8
0
100
AcDbLine
 62
7
  6
CONTINUOUS
 10
81.6
 20
-14.0
 11
81.6
 21
-14.8
  0
LINE
  5
4FC
100
AcDbEntity
  8
0
100
AcDbLine
 62
7
  6
CONTINUOUS
 10
81.6
 20
-16.6
 11
81.6
 21
-17.4
  0
LINE
  5
4FD
100
AcDbEntity
  8
0
100
AcDbLine
 62
7
  6
CONTINUOUS
 10
81.6
 20
-19.2
 11
81.6
 21
-20.0
  0
LINE
  5
4FE
100
AcDbEntity
  8
0
100
AcDbLine
 62
250
  6
CONTINUOUS
 10
81.8
 20
26.3
 11
81.8
 21
25.5
  0
LINE
  5
4FF
100
AcDbEntity
  8
0
100
AcDbLine
 62
250
  6
CONTINUOUS
 10
81.8
 20
-25.5
 11
81.8
 21
-26.3
  0
LINE
  5
500
100
AcDbEntity
  8
0
100
AcDbLine
 62
7
  6
CONTINUOUS
 10
82.2
 20
-14.8
 11
82.2
 21
-16.6
  0
LINE
  5
501
100
AcDbEntity
  8
0
100
AcDbLine
 62
7
  6
CONTINUOUS
 10
82.2
 20
-17.4
 11
82.2
 21
-19.2
  0
LINE
  5
502
100
AcDbEntity
  8
0
100
AcDbLine
 62
7
  6
CONTINUOUS
 10
82.2
 20
14.8
 11
82.2
 21
16.6
  0
LINE
  5
503
100
AcDbEntity
  8
0
100
AcDbLine
 62
7
  6
CONTINUOUS
 10
82.2
 20
17.4
 11
82.2
 21
19.2
  0
LWPOLYLINE
  5
504
100
AcDbEntity
  8
0
100
AcDbPolyline
 62
250
  6
CONTINUOUS
 90
10
 70
0
 10
80.0104169691
 20
-22.5000000238
 10
80.1766675867
 20
-20.0414256326
 10
80.3236795442
 20
-17.5818682989
 10
80.4514528415
 20
-15.12145091
 10
80.5599879243
 20
-12.660213896
 10
80.649284347
 20
-10.1983626718
 10
80.7193407729
 20
-7.736267822
 10
80.7701567564
 20
-5.2741350011
 10
80.8017327432
 20
-2.8120047364
 10
80.8140687331
 20
-0.3500000028
  0
LWPOLYLINE
  5
505
100
AcDbEntity
  8
26216763_GEN
100
AcDbPolyline
 62
250
  6
CONTINUOUS
 90
7
 70
0
 10
79.012576903
 20
-33.6573932734
 10
79.1947322303
 20
-31.9152780147
 10
79.3671570301
 20
-30.1727900325
 10
79.5298513026
 20
-28.4299738183
 10
79.6828150476
 20
-26.6868738176
 10
79.8260482653
 20
-24.9435344284
 10
79.9595509555
 20
-23.2
  0
LWPOLYLINE
  5
506
100
AcDbEntity
  8
0
100
AcDbPolyline
 62
250
  6
CONTINUOUS
 90
31
 70
0
 10
82.9815038461
 20
-33.7225169937
 10
82.9639075216
 20
-33.739961541
 10
82.9363324503
 20
-33.7562219725
 10
82.8988482709
 20
-33.771257224
 10
82.8515496467
 20
-33.7850293252
 10
82.7945560265
 20
-33.7975034959
 10
82.7280113426
 20
-33.8086482335
 10
82.6520836478
 20
-33.818435393
 10
82.5669646911
 20
-33.8268402578
 10
82.4728694333
 20
-33.8338416021
 10
82.3700355039
 20
-33.8394217446
 10
82.2587226012
 20
-33.8435665932
 10
82.1392118365
 20
-33.8462656803
 10
82.0118050239
 20
-33.8475121898
 10
81.8768239185
 20
-33.8473029736
 10
81.7346094035
 20
-33.8456385602
 10
81.5855206295
 20
-33.8425231528
 10
81.4299341075
 20
-33.8379646192
 10
81.2682427579
 20
-33.8319744715
 10
81.1008549184
 20
-33.8245678374
 10
80.9281933125
 20
-33.8157634218
 10
80.7506939825
 20
-33.8055834593
 10
80.5688051876
 20
-33.7940536587
 10
80.3829862724
 20
-33.7812031375
 10
80.1937065066
 20
-33.7670643485
 10
80.0014438971
 20
-33.7516729979
 10
79.8066839894
 20
-33.7350679554
 10
79.6099186418
 20
-33.7172911564
 10
79.4116447716
 20
-33.6983874952
 10
79.2123630994
 20
-33.6784047112
 10
79.0125768938
 20
-33.6573932694
  0
LWPOLYLINE
  5
507
100
AcDbEntity
  8
0
100
AcDbPolyline
 62
250
  6
CONTINUOUS
 90
31
 70
0
 10
82.9815030523
 20
33.7225169027
 10
82.9639067355
 20
33.7399614493
 10
82.9363316756
 20
33.7562218805
 10
82.8988475106
 20
33.771257132
 10
82.8515489036
 20
33.7850292335
 10
82.7945553027
 20
33.7975034049
 10
82.7280106407
 20
33.8086481435
 10
82.6520829703
 20
33.8184353045
 10
82.5669640403
 20
33.8268401712
 10
82.472868811
 20
33.8338415177
 10
82.3700349118
 20
33.8394216629
 10
82.2587220407
 20
33.8435665144
 10
82.1392113089
 20
33.8462656048
 10
82.0118045302
 20
33.8475121179
 10
81.8768234594
 20
33.8473029055
 10
81.7346089795
 20
33.8456384962
 10
81.585520241
 20
33.8425230931
 10
81.4299337543
 20
33.8379645639
 10
81.2682424399
 20
33.8319744209
 10
81.100854635
 20
33.8245677916
 10
80.9281930631
 20
33.8157633807
 10
80.7506937661
 20
33.8055834231
 10
80.568805003
 20
33.7940536274
 10
80.3829861184
 20
33.781203111
 10
80.1937063816
 20
33.7670643268
 10
80.0014438048
 20
33.7516729813
 10
79.8066839282
 20
33.7350679438
 10
79.6099185931
 20
33.7172911482
 10
79.4116447107
 20
33.6983874878
 10
79.212363007
 20
33.6784047024
 10
79.0125767508
 20
33.6573932566
  0
LWPOLYLINE
  5
508
100
AcDbEntity
  8
0
100
AcDbPolyline
 62
250
  6
CONTINUOUS
 90
31
 70
0
 10
79.012576903
 20
33.6573932734
 10
78.9970834246
 20
33.7747364771
 10
78.9760908159
 20
33.8906849149
 10
78.9495990769
 20
34.00523871
 10
78.9175216294
 20
34.1186722958
 10
78.8799450517
 20
34.2307114655
 10
78.8371290779
 20
34.3405334589
 10
78.7890357561
 20
34.4481171632
 10
78.7357030383
 20
34.5534840833
 10
78.6775045144
 20
34.6558755289
 10
78.6144044215
 20
34.7552698941
 10
78.5464385224
 20
34.8516892875
 10
78.4740876963
 20
34.9444407073
 10
78.3973212963
 20
35.0334969686
 10
78.3161699693
 20
35.1188858262
 10
78.2312065343
 20
35.1999967768
 10
78.1424037038
 20
35.2767998221
 10
78.0497887653
 20
35.3493255465
 10
77.9540164015
 20
35.4170543777
 10
77.8550619081
 20
35.4799534066
 10
77.7529499894
 20
35.5380560926
 10
77.6484094408
 20
35.5909424417
 10
77.5414206265
 20
35.6385747374
 10
77.4320031823
 20
35.6809911609
 10
77.3209448103
 20
35.7178855625
 10
77.2082276691
 20
35.7492170398
 10
77.0938696
 20
35.7750268312
 10
76.9787118288
 20
35.795131973
 10
76.863034764
 20
35.8094715379
 10
76.7465579971
 20
35.8181066293
 10
76.6292815281
 20
35.8210372914
  0
LWPOLYLINE
  5
509
100
AcDbEntity
  8
0
100
AcDbPolyline
 62
250
  6
CONTINUOUS
 90
7
 70
0
 10
83.6986561542
 20
26.300000238
 10
83.5915159936
 20
27.5375158701
 10
83.4794241456
 20
28.77488497
 10
83.3623787595
 20
30.0120886015
 10
83.2403780525
 20
31.2491078068
 10
83.113420309
 20
32.4859236061
 10
82.9815038815
 20
33.7225169985
  0
LWPOLYLINE
  5
50A
100
AcDbEntity
  8
0
100
AcDbPolyline
 62
250
  6
CONTINUOUS
 90
7
 70
0
 10
84.167289829
 20
20.0000001372
 10
84.1070456052
 20
20.9170356005
 10
84.0440980513
 20
21.8339336483
 10
83.978447305
 20
22.7506867033
 10
83.9100935239
 20
23.6672871873
 10
83.8390368853
 20
24.5837275214
 10
83.7652775866
 20
25.5000001261
  0
LINE
  5
50B
100
AcDbEntity
  8
0
100
AcDbLine
 62
7
  6
CONTINUOUS
 10
84.9108816956
 20
7.1858822057
 11
84.907893777
 21
7.3314391493
  0
LINE
  5
50C
100
AcDbEntity
  8
0
100
AcDbLine
 62
7
  6
CONTINUOUS
 10
86.4104032874
 20
7.3314391493
 11
86.4133734105
 21
7.1858824897
  0
LINE
  5
50D
100
AcDbEntity
  8
0
100
AcDbLine
 62
7
  6
CONTINUOUS
 10
84.9122447447
 20
-6.7798778315
 11
84.896269629
 21
-5.7274679276
  0
LINE
  5
50E
100
AcDbEntity
  8
0
100
AcDbLine
 62
7
  6
CONTINUOUS
 10
86.3986033866
 20
-5.727464719
 11
86.4146890007
 21
-6.7798779529
  0
LWPOLYLINE
  5
50F
100
AcDbEntity
  8
0
100
AcDbPolyline
 62
7
  6
CONTINUOUS
 90
6
 70
0
 10
86.4133734105
 20
7.1858824897
 10
86.4150806339
 20
7.0434428745
 10
86.4154607617
 20
6.9743439883
 10
86.4155224747
 20
6.9071471756
 10
86.4152649451
 20
6.8422091901
 10
86.4146890007
 20
6.7798779529
  0
LINE
  5
510
100
AcDbEntity
  8
0
100
AcDbLine
 62
7
  6
CONTINUOUS
 10
84.896269629
 20
-5.7274679276
 11
84.8848199893
 21
-4.6597776046
  0
LWPOLYLINE
  5
511
100
AcDbEntity
  8
0
100
AcDbPolyline
 62
7
  6
CONTINUOUS
 90
4
 70
0
 10
86.4146890007
 20
-6.7798779529
 10
86.4152649451
 20
-6.8422091901
 10
86.4155224747
 20
-6.9071471756
 10
86.4154607617
 20
-6.9743439883
  0
LINE
  5
512
100
AcDbEntity
  8
0
100
AcDbLine
 62
7
  6
CONTINUOUS
 10
86.3839454724
 20
-4.290828114
 11
86.3986033866
 21
-5.727464719
  0
LINE
  5
513
100
AcDbEntity
  8
0
100
AcDbLine
 62
7
  6
CONTINUOUS
 10
84.8848199893
 20
-4.6597776046
 11
84.876575511
 21
-3.5373436297
  0
LINE
  5
514
100
AcDbEntity
  8
0
100
AcDbLine
 62
7
  6
CONTINUOUS
 10
84.876575511
 20
-3.5373436297
 11
84.8697858974
 21
-1.9879741485
  0
LINE
  5
515
100
AcDbEntity
  8
0
100
AcDbLine
 62
7
  6
CONTINUOUS
 10
86.3718776157
 20
-1.9879704772
 11
86.3839454724
 21
-4.290828114
  0
LINE
  5
516
100
AcDbEntity
  8
0
100
AcDbLine
 62
7
  6
CONTINUOUS
 10
84.8697858974
 20
-1.9879741485
 11
84.8670329713
 21
-0.3996906215
  0
LWPOLYLINE
  5
517
100
AcDbEntity
  8
0
100
AcDbPolyline
 62
7
  6
CONTINUOUS
 90
4
 70
0
 10
84.9129941318
 20
-6.9743436314
 10
84.9130636607
 20
-6.9071468722
 10
84.912813577
 20
-6.8422089658
 10
84.9122447447
 20
-6.7798778315
  0
LINE
  5
518
100
AcDbEntity
  8
0
100
AcDbLine
 62
7
  6
CONTINUOUS
 10
84.8670329713
 20
-0.3996906215
 11
84.8679446466
 21
1.1971853399
  0
LINE
  5
519
100
AcDbEntity
  8
0
100
AcDbLine
 62
7
  6
CONTINUOUS
 10
84.2780663879
 20
-0.35
 11
84.2780663857
 21
0.35
  0
LINE
  5
51A
100
AcDbEntity
  8
0
100
AcDbLine
 62
7
  6
CONTINUOUS
 10
86.3700151922
 20
1.1971829506
 11
86.3718776157
 21
-1.9879704772
  0
LINE
  5
51B
100
AcDbEntity
  8
0
100
AcDbLine
 62
7
  6
CONTINUOUS
 10
84.8679446466
 20
1.1971853399
 11
84.8726392748
 21
2.7691101152
  0
LINE
  5
51C
100
AcDbEntity
  8
0
100
AcDbLine
 62
7
  6
CONTINUOUS
 10
86.3787397582
 20
3.5374610322
 11
86.3700151922
 21
1.1971829506
  0
LINE
  5
51D
100
AcDbEntity
  8
0
100
AcDbLine
 62
7
  6
CONTINUOUS
 10
84.8726392748
 20
2.7691101152
 11
84.8790022952
 21
3.916491871
  0
LWPOLYLINE
  5
51E
100
AcDbEntity
  8
0
100
AcDbPolyline
 62
7
  6
CONTINUOUS
 90
6
 70
0
 10
84.9122447447
 20
6.7798778315
 10
84.912813577
 20
6.8422089658
 10
84.9130636607
 20
6.9071468722
 10
84.9129941318
 20
6.9743436314
 10
84.9126058543
 20
7.0434424958
 10
84.9108816956
 20
7.1858822057
  0
LINE
  5
51F
100
AcDbEntity
  8
0
100
AcDbLine
 62
7
  6
CONTINUOUS
 10
84.8790022952
 20
3.916491871
 11
84.8882673087
 21
5.0229961466
  0
LINE
  5
520
100
AcDbEntity
  8
0
100
AcDbLine
 62
7
  6
CONTINUOUS
 10
84.9119014209
 20
-7.114080214
 11
84.9129941318
 21
-6.9743436314
  0
LINE
  5
521
100
AcDbEntity
  8
0
100
AcDbLine
 62
7
  6
CONTINUOUS
 10
86.4154607617
 20
-6.9743439883
 11
86.4143845743
 21
-7.1140805702
  0
LINE
  5
522
100
AcDbEntity
  8
0
100
AcDbLine
 62
7
  6
CONTINUOUS
 10
86.3943693358
 20
5.3792929055
 11
86.3787397582
 21
3.5374610322
  0
LINE
  5
523
100
AcDbEntity
  8
0
100
AcDbLine
 62
7
  6
CONTINUOUS
 10
84.8882673087
 20
5.0229961466
 11
84.9008968235
 21
6.0674883622
  0
LINE
  5
524
100
AcDbEntity
  8
0
100
AcDbLine
 62
7
  6
CONTINUOUS
 10
84.9008968235
 20
6.0674883622
 11
84.9122447447
 21
6.7798778315
  0
LINE
  5
525
100
AcDbEntity
  8
0
100
AcDbLine
 62
7
  6
CONTINUOUS
 10
86.4146890007
 20
6.7798779529
 11
86.3943693358
 21
5.3792929055
  0
LWPOLYLINE
  5
526
100
AcDbEntity
  8
0
100
AcDbPolyline
 62
7
  6
CONTINUOUS
 90
3
 70
0
 10
86.4143845743
 20
-7.1140805702
 10
86.4120463148
 20
-7.2584643171
 10
86.4104032874
 20
-7.3314391493
  0
LWPOLYLINE
  5
527
100
AcDbEntity
  8
0
100
AcDbPolyline
 62
7
  6
CONTINUOUS
 90
3
 70
0
 10
84.907893777
 20
-7.3314391493
 10
84.9095458143
 20
-7.258464152
 10
84.9119014209
 20
-7.114080214
  0
LWPOLYLINE
  5
528
100
AcDbEntity
  8
0
100
AcDbPolyline
 62
250
  6
CONTINUOUS
 90
13
 70
0
 10
84.4946177884
 20
-14.0000000127
 10
84.590625985
 20
-11.6672238588
 10
84.669172164
 20
-9.3340595572
 10
84.730258069
 20
-7.0006312616
 10
84.7738851243
 20
-4.6671405142
 10
84.8000590746
 20
-2.3336339021
 10
84.8087839251
 20
-0.0000029903
 10
84.8000591145
 20
2.333628657
 10
84.7738851797
 20
4.6671368247
 10
84.7302581199
 20
7.0006289721
 10
84.6691722045
 20
9.3340581867
 10
84.5906260073
 20
11.6672232516
 10
84.4946177887
 20
14.000000013
  0
LWPOLYLINE
  5
529
100
AcDbEntity
  8
0
100
AcDbPolyline
 62
250
  6
CONTINUOUS
 90
7
 70
0
 10
83.765277587
 20
-25.500000127
 10
83.8390369334
 20
-24.5837269168
 10
83.9100935975
 20
-23.6672862191
 10
83.9784473844
 20
-22.7506856135
 10
84.0440981189
 20
-21.8339326793
 10
84.1070456456
 20
-20.9170349946
 10
84.167289829
 20
-20.0000001371
  0
LWPOLYLINE
  5
52A
100
AcDbEntity
  8
0
100
AcDbPolyline
 62
250
  6
CONTINUOUS
 90
7
 70
0
 10
82.9815038815
 20
-33.7225169985
 10
83.1134198624
 20
-32.4859278561
 10
83.2403773663
 20
-31.2491146096
 10
83.3623780196
 20
-30.0120962579
 10
83.4794235163
 20
-28.7748917784
 10
83.5915156183
 20
-27.5375201273
 10
83.6986561546
 20
-26.300000239
  0
LWPOLYLINE
  5
52B
100
AcDbEntity
  8
26216763_GEN
100
AcDbPolyline
 62
7
  6
CONTINUOUS
 90
3
 70
0
 10
83.0207962026
 20
-23.2
 10
83.0357881499
 20
-23.0840604681
 10
83.1096853697
 20
-22.5
  0
LWPOLYLINE
  5
52C
100
AcDbEntity
  8
0
100
AcDbPolyline
 62
250
  6
CONTINUOUS
 90
34
 70
0
 10
82.9815038815
 20
33.7225169985
 10
82.9439039227
 20
34.0025836004
 10
82.8939605394
 20
34.2807208208
 10
82.8317715846
 20
34.5563848967
 10
82.7574607479
 20
34.8290343567
 10
82.6711718517
 20
35.0981391136
 10
82.5730674197
 20
35.363180645
 10
82.4633359031
 20
35.6236459823
 10
82.3421931078
 20
35.8790194514
 10
82.2098770028
 20
36.12879128
 10
82.0666494091
 20
36.3724687328
 10
81.9127888595
 20
36.6095796325
 10
81.7485913792
 20
36.8396625009
 10
81.5743771404
 20
37.0622682408
 10
81.3904882193
 20
37.2769596278
 10
81.1972828609
 20
37.4833140847
 10
80.9951389248
 20
37.6809280538
 10
80.7844530224
 20
37.8694141871
 10
80.5656385635
 20
38.0483998068
 10
80.3391264741
 20
38.2175334264
 10
80.1053593009
 20
38.3764859625
 10
79.8647908951
 20
38.5249468868
 10
79.6178936368
 20
38.662625129
 10
79.3651508396
 20
38.7892520259
 10
79.1070510765
 20
38.9045809745
 10
78.8440950955
 20
39.0083874736
 10
78.5768030985
 20
39.1004658745
 10
78.3057074963
 20
39.1806320223
 10
78.0313487549
 20
39.2487279186
 10
77.754256481
 20
39.3046243658
 10
77.4749564793
 20
39.3482148268
 10
77.1939902483
 20
39.3794134064
 10
76.9119142932
 20
39.3981575805
 10
76.6292815281
 20
39.4044100956
  0
LWPOLYLINE
  5
52D
100
AcDbEntity
  8
26216763_GEN
100
AcDbPolyline
 62
7
  6
CONTINUOUS
 90
3
 70
0
 10
83.1096853607
 20
22.5
 10
83.0950473335
 20
22.6173957896
 10
83.020796197
 20
23.2
  0
ARC
  5
52E
100
AcDbEntity
  8
0
100
AcDbCircle
 62
7
  6
CONTINUOUS
 10
-76.6292815281
 20
-33.0
 40
8.0
100
AcDbArc
 50
186.4890714501
 51
270.0
  0
ARC
  5
52F
100
AcDbEntity
  8
0
100
AcDbCircle
 62
7
  6
CONTINUOUS
 10
-76.6292815281
 20
-33.0
 40
6.497941481
100
AcDbArc
 50
186.4890714501
 51
270.0
  0
CIRCLE
  5
530
100
AcDbEntity
  8
ASSI
100
AcDbCircle
 62
7
  6
CONTINUOUS
 10
-4.05
 20
-27.5
 40
2.5
  0
CIRCLE
  5
531
100
AcDbEntity
  8
ASSI
100
AcDbCircle
 62
7
  6
CONTINUOUS
 10
-4.05
 20
-27.5
 40
1.7
  0
ARC
  5
532
100
AcDbEntity
  8
0
100
AcDbCircle
 62
7
  6
CONTINUOUS
 10
-81.4
 20
-25.9
 40
0.4
100
AcDbArc
 50
270.0
 51
90.0
  0
ARC
  5
533
100
AcDbEntity
  8
0
100
AcDbCircle
 62
7
  6
CONTINUOUS
 10
-63.35
 20
-38.05
 40
0.35
100
AcDbArc
 50
0.0
 51
180.0
  0
ARC
  5
534
100
AcDbEntity
  8
0
100
AcDbCircle
 62
7
  6
CONTINUOUS
 10
-31.9
 20
-37.95
 40
0.25
100
AcDbArc
 50
0.0
 51
180.0
  0
ARC
  5
535
100
AcDbEntity
  8
0
100
AcDbCircle
 62
7
  6
CONTINUOUS
 10
-213.5
 20
0.0
 40
300.0
100
AcDbArc
 50
353.5109285499
 51
358.5996588539
  0
ARC
  5
536
100
AcDbEntity
  8
0
100
AcDbCircle
 62
7
  6
CONTINUOUS
 10
-213.5
 20
0.0
 40
300.0
100
AcDbArc
 50
1.4003411461
 51
6.4890714501
  0
ARC
  5
537
100
AcDbEntity
  8
0
100
AcDbCircle
 62
7
  6
CONTINUOUS
 10
-213.5
 20
0.0
 40
298.497941481
100
AcDbArc
 50
2.8419805936
 51
3.187964592
  0
ARC
  5
538
100
AcDbEntity
  8
0
100
AcDbCircle
 62
7
  6
CONTINUOUS
 10
-213.5
 20
0.0
 40
298.497941481
100
AcDbArc
 50
3.3417718658
 51
3.6879281018
  0
ARC
  5
539
100
AcDbEntity
  8
0
100
AcDbCircle
 62
7
  6
CONTINUOUS
 10
-213.5
 20
0.0
 40
298.497941481
100
AcDbArc
 50
3.8418178425
 51
4.9006211605
  0
ARC
  5
53A
100
AcDbEntity
  8
0
100
AcDbCircle
 62
7
  6
CONTINUOUS
 10
-213.5
 20
0.0
 40
298.497941481
100
AcDbArc
 50
5.0547601198
 51
6.4890714501
  0
ARC
  5
53B
100
AcDbEntity
  8
0
100
AcDbCircle
 62
7
  6
CONTINUOUS
 10
-213.5
 20
0.0
 40
298.497941481
100
AcDbArc
 50
353.5109285499
 51
354.9452398802
  0
ARC
  5
53C
100
AcDbEntity
  8
0
100
AcDbCircle
 62
7
  6
CONTINUOUS
 10
-213.5
 20
0.0
 40
298.497941481
100
AcDbArc
 50
355.0993788395
 51
356.1581821575
  0
ARC
  5
53D
100
AcDbEntity
  8
0
100
AcDbCircle
 62
7
  6
CONTINUOUS
 10
-213.5
 20
0.0
 40
298.497941481
100
AcDbArc
 50
356.3120718982
 51
356.6582281342
  0
ARC
  5
53E
100
AcDbEntity
  8
0
100
AcDbCircle
 62
7
  6
CONTINUOUS
 10
-213.5
 20
0.0
 40
298.497941481
100
AcDbArc
 50
356.812035408
 51
357.1580194064
  0
ARC
  5
53F
100
AcDbEntity
  8
0
100
AcDbCircle
 62
7
  6
CONTINUOUS
 10
-213.5
 20
0.0
 40
298.497941481
100
AcDbArc
 50
357.3117560354
 51
358.592610844
  0
ARC
  5
540
100
AcDbEntity
  8
0
100
AcDbCircle
 62
7
  6
CONTINUOUS
 10
-213.5
 20
0.0
 40
298.497941481
100
AcDbArc
 50
1.407389156
 51
2.6882439646
  0
ARC
  5
541
100
AcDbEntity
  8
0
100
AcDbCircle
 62
7
  6
CONTINUOUS
 10
-213.5
 20
0.0
 40
298.4140890342
100
AcDbArc
 50
356.31103418
 51
356.6572880511
  0
ARC
  5
542
100
AcDbEntity
  8
0
100
AcDbCircle
 62
7
  6
CONTINUOUS
 10
-213.5
 20
0.0
 40
298.4140890342
100
AcDbArc
 50
356.8111386845
 51
357.1572201722
  0
ARC
  5
543
100
AcDbEntity
  8
0
100
AcDbCircle
 62
7
  6
CONTINUOUS
 10
-213.5
 20
0.0
 40
298.4140890342
100
AcDbArc
 50
3.3427119489
 51
3.68896582
  0
ARC
  5
544
100
AcDbEntity
  8
0
100
AcDbCircle
 62
7
  6
CONTINUOUS
 10
-213.5
 20
0.0
 40
298.4140890342
100
AcDbArc
 50
2.8427798278
 51
3.1888613155
  0
ARC
  5
545
100
AcDbEntity
  8
0
100
AcDbCircle
 62
7
  6
CONTINUOUS
 10
-73.0
 20
10.5
 40
2.9735749324
100
AcDbArc
 50
292.0885434728
 51
273.4298223208
  0
ARC
  5
546
100
AcDbEntity
  8
0
100
AcDbCircle
 62
7
  6
CONTINUOUS
 10
-73.089938
 20
4.894428
 40
2.6508884458
100
AcDbArc
 50
47.2312789315
 51
84.2011738916
  0
ARC
  5
547
100
AcDbEntity
  8
0
100
AcDbCircle
 62
7
  6
CONTINUOUS
 10
-72.881315
 20
5.323813
 40
2.6190759282
100
AcDbArc
 50
45.4348969444
 51
67.5658550007
  0
CIRCLE
  5
548
100
AcDbEntity
  8
0
100
AcDbCircle
 62
7
  6
CONTINUOUS
 10
-73.0
 20
10.5
 40
2.497595
  0
ARC
  5
549
100
AcDbEntity
  8
0
100
AcDbCircle
 62
7
  6
CONTINUOUS
 10
-73.0
 20
10.5
 40
2.2337503191
100
AcDbArc
 50
299.3041411838
 51
44.9957558874
  0
ARC
  5
54A
100
AcDbEntity
  8
0
100
AcDbCircle
 62
7
  6
CONTINUOUS
 10
-73.0
 20
10.5
 40
2.2337501706
100
AcDbArc
 50
134.9002628452
 51
240.6958588162
  0
ARC
  5
54B
100
AcDbEntity
  8
0
100
AcDbCircle
 62
7
  6
CONTINUOUS
 10
-73.0
 20
10.5
 40
1.7896378839
100
AcDbArc
 50
299.3041347443
 51
31.9732647666
  0
ARC
  5
54C
100
AcDbEntity
  8
0
100
AcDbCircle
 62
7
  6
CONTINUOUS
 10
-73.0
 20
10.5
 40
1.78963742
100
AcDbArc
 50
148.02673736
 51
240.6958652557
  0
ARC
  5
54D
100
AcDbEntity
  8
0
100
AcDbCircle
 62
7
  6
CONTINUOUS
 10
-76.6292815281
 20
33.0
 40
8.0
100
AcDbArc
 50
90.0
 51
173.5109285499
  0
ARC
  5
54E
100
AcDbEntity
  8
0
100
AcDbCircle
 62
7
  6
CONTINUOUS
 10
-76.6292815281
 20
33.0
 40
6.497941481
100
AcDbArc
 50
90.0
 51
173.5109285499
  0
CIRCLE
  5
54F
100
AcDbEntity
  8
0
100
AcDbCircle
 62
7
  6
CONTINUOUS
 10
-67.35
 20
28.0
 40
2.5
  0
CIRCLE
  5
550
100
AcDbEntity
  8
0
100
AcDbCircle
 62
7
  6
CONTINUOUS
 10
-67.35
 20
28.0
 40
1.75
  0
ARC
  5
551
100
AcDbEntity
  8
0
100
AcDbCircle
 62
7
  6
CONTINUOUS
 10
-41.155541
 20
33.363390481
 40
1.1347398987
100
AcDbArc
 50
292.8428601152
 51
90.0
  0
ARC
  5
552
100
AcDbEntity
  8
0
100
AcDbCircle
 62
7
  6
CONTINUOUS
 10
-41.258255
 20
33.363390481
 40
0.450208
100
AcDbArc
 50
270.0
 51
90.0
  0
ARC
  5
553
100
AcDbEntity
  8
0
100
AcDbCircle
 62
7
  6
CONTINUOUS
 10
-81.4
 20
25.9
 40
0.4
100
AcDbArc
 50
270.0
 51
90.0
  0
ARC
  5
554
100
AcDbEntity
  8
0
100
AcDbCircle
 62
7
  6
CONTINUOUS
 10
-63.35
 20
38.05
 40
0.35
100
AcDbArc
 50
180.0
 51
360.0
  0
ARC
  5
555
100
AcDbEntity
  8
0
100
AcDbCircle
 62
7
  6
CONTINUOUS
 10
-31.9
 20
37.95
 40
0.25
100
AcDbArc
 50
180.0
 51
360.0
  0
ARC
  5
556
100
AcDbEntity
  8
0
100
AcDbCircle
 62
7
  6
CONTINUOUS
 10
18.967556
 20
-31.997941481
 40
2.5499986575
100
AcDbArc
 50
87.752529198
 51
272.247470802
  0
ARC
  5
557
100
AcDbEntity
  8
0
100
AcDbCircle
 62
7
  6
CONTINUOUS
 10
14.582446
 20
-31.997941481
 40
2.5499985399
100
AcDbArc
 50
87.7525290943
 51
272.2474709057
  0
ARC
  5
558
100
AcDbEntity
  8
0
100
AcDbCircle
 62
7
  6
CONTINUOUS
 10
18.967556
 20
-31.997941481
 40
1.7999999246
100
AcDbArc
 50
86.8152613297
 51
167.9753003079
  0
ARC
  5
559
100
AcDbEntity
  8
0
100
AcDbCircle
 62
7
  6
CONTINUOUS
 10
14.582446
 20
-31.997941481
 40
1.7999999246
100
AcDbArc
 50
86.8152613297
 51
273.1847386703
  0
ARC
  5
55A
100
AcDbEntity
  8
0
100
AcDbCircle
 62
7
  6
CONTINUOUS
 10
18.967556
 20
-31.997941481
 40
1.7999968808
100
AcDbArc
 50
192.0247203293
 51
273.1847440612
  0
ARC
  5
55B
100
AcDbEntity
  8
0
100
AcDbCircle
 62
7
  6
CONTINUOUS
 10
31.9
 20
-37.95
 40
0.25
100
AcDbArc
 50
0.0
 51
180.0
  0
ARC
  5
55C
100
AcDbEntity
  8
0
100
AcDbCircle
 62
7
  6
CONTINUOUS
 10
-0.0
 20
-37.95
 40
0.25
100
AcDbArc
 50
0.0
 51
180.0
  0
ARC
  5
55D
100
AcDbEntity
  8
0
100
AcDbCircle
 62
7
  6
CONTINUOUS
 10
76.6292815281
 20
-33.0
 40
8.0
100
AcDbArc
 50
270.0
 51
353.5109285499
  0
ARC
  5
55E
100
AcDbEntity
  8
0
100
AcDbCircle
 62
7
  6
CONTINUOUS
 10
76.6292815281
 20
-33.0
 40
6.497941481
100
AcDbArc
 50
270.0
 51
353.5109285499
  0
CIRCLE
  5
55F
100
AcDbEntity
  8
0
100
AcDbCircle
 62
7
  6
CONTINUOUS
 10
67.35
 20
-28.0
 40
2.5
  0
CIRCLE
  5
560
100
AcDbEntity
  8
0
100
AcDbCircle
 62
7
  6
CONTINUOUS
 10
67.35
 20
-28.0
 40
1.75
  0
ARC
  5
561
100
AcDbEntity
  8
0
100
AcDbCircle
 62
7
  6
CONTINUOUS
 10
81.4
 20
-25.9
 40
0.4
100
AcDbArc
 50
90.0
 51
270.0
  0
ARC
  5
562
100
AcDbEntity
  8
0
100
AcDbCircle
 62
7
  6
CONTINUOUS
 10
63.35
 20
-38.05
 40
0.35
100
AcDbArc
 50
0.0
 51
180.0
  0
ARC
  5
563
100
AcDbEntity
  8
0
100
AcDbCircle
 62
7
  6
CONTINUOUS
 10
72.4322426596
 20
-10.5
 40
1.2406538298
100
AcDbArc
 50
90.0
 51
270.0
  0
ARC
  5
564
100
AcDbEntity
  8
0
100
AcDbCircle
 62
7
  6
CONTINUOUS
 10
73.336447766
 20
-10.5
 40
1.2406538298
100
AcDbArc
 50
90.0
 51
270.0
  0
ARC
  5
565
100
AcDbEntity
  8
0
100
AcDbCircle
 62
7
  6
CONTINUOUS
 10
74.2406538298
 20
-10.5
 40
1.2406538298
100
AcDbArc
 50
90.0
 51
270.0
  0
ARC
  5
566
100
AcDbEntity
  8
INTF_7
100
AcDbCircle
 62
7
  6
CONTINUOUS
 10
72.4322426596
 20
-10.5
 40
1.2406538298
100
AcDbArc
 50
90.0
 51
270.0
  0
ARC
  5
567
100
AcDbEntity
  8
INTF_7
100
AcDbCircle
 62
7
  6
CONTINUOUS
 10
73.336447766
 20
-10.5
 40
1.2406538298
100
AcDbArc
 50
90.0
 51
270.0
  0
ARC
  5
568
100
AcDbEntity
  8
INTF_7
100
AcDbCircle
 62
7
  6
CONTINUOUS
 10
74.2406538298
 20
-10.5
 40
1.2406538298
100
AcDbArc
 50
90.0
 51
270.0
  0
ARC
  5
569
100
AcDbEntity
  8
0
100
AcDbCircle
 62
7
  6
CONTINUOUS
 10
72.4322426596
 20
-10.5
 40
0.8726639362
100
AcDbArc
 50
90.0
 51
270.0
  0
ARC
  5
56A
100
AcDbEntity
  8
0
100
AcDbCircle
 62
7
  6
CONTINUOUS
 10
73.336447766
 20
-10.5
 40
0.8726639362
100
AcDbArc
 50
90.0
 51
270.0
  0
ARC
  5
56B
100
AcDbEntity
  8
0
100
AcDbCircle
 62
7
  6
CONTINUOUS
 10
74.2406538298
 20
-10.5
 40
0.8726639362
100
AcDbArc
 50
90.0
 51
270.0
  0
ARC
  5
56C
100
AcDbEntity
  8
INTF_7
100
AcDbCircle
 62
7
  6
CONTINUOUS
 10
74.2406538298
 20
-10.5
 40
0.8726639362
100
AcDbArc
 50
90.0
 51
270.0
  0
ARC
  5
56D
100
AcDbEntity
  8
INTF_7
100
AcDbCircle
 62
7
  6
CONTINUOUS
 10
72.4322426596
 20
-10.5
 40
0.8726639362
100
AcDbArc
 50
90.0
 51
270.0
  0
ARC
  5
56E
100
AcDbEntity
  8
INTF_7
100
AcDbCircle
 62
7
  6
CONTINUOUS
 10
73.336447766
 20
-10.5
 40
0.8726639362
100
AcDbArc
 50
90.0
 51
270.0
  0
ARC
  5
56F
100
AcDbEntity
  8
0
100
AcDbCircle
 62
7
  6
CONTINUOUS
 10
213.5
 20
-0.0
 40
300.0
100
AcDbArc
 50
181.4003411461
 51
186.4890714501
  0
ARC
  5
570
100
AcDbEntity
  8
0
100
AcDbCircle
 62
7
  6
CONTINUOUS
 10
213.5
 20
-0.0
 40
300.0
100
AcDbArc
 50
173.5109285499
 51
178.5996588539
  0
ARC
  5
571
100
AcDbEntity
  8
0
100
AcDbCircle
 62
7
  6
CONTINUOUS
 10
213.5
 20
-0.0
 40
298.497941481
100
AcDbArc
 50
177.3117560354
 51
178.592610844
  0
ARC
  5
572
100
AcDbEntity
  8
0
100
AcDbCircle
 62
7
  6
CONTINUOUS
 10
213.5
 20
-0.0
 40
298.497941481
100
AcDbArc
 50
173.5109285499
 51
174.9452398802
  0
ARC
  5
573
100
AcDbEntity
  8
0
100
AcDbCircle
 62
7
  6
CONTINUOUS
 10
213.5
 20
-0.0
 40
298.497941481
100
AcDbArc
 50
181.407389156
 51
182.6882439646
  0
ARC
  5
574
100
AcDbEntity
  8
0
100
AcDbCircle
 62
7
  6
CONTINUOUS
 10
213.5
 20
-0.0
 40
298.497941481
100
AcDbArc
 50
182.8419805936
 51
183.187964592
  0
ARC
  5
575
100
AcDbEntity
  8
0
100
AcDbCircle
 62
7
  6
CONTINUOUS
 10
213.5
 20
-0.0
 40
298.497941481
100
AcDbArc
 50
183.3417718658
 51
183.6879281018
  0
ARC
  5
576
100
AcDbEntity
  8
0
100
AcDbCircle
 62
7
  6
CONTINUOUS
 10
213.5
 20
-0.0
 40
298.497941481
100
AcDbArc
 50
185.0547601198
 51
186.4890714501
  0
ARC
  5
577
100
AcDbEntity
  8
0
100
AcDbCircle
 62
7
  6
CONTINUOUS
 10
213.5
 20
-0.0
 40
298.497941481
100
AcDbArc
 50
183.8418178425
 51
184.9006211605
  0
ARC
  5
578
100
AcDbEntity
  8
0
100
AcDbCircle
 62
7
  6
CONTINUOUS
 10
213.5
 20
-0.0
 40
298.497941481
100
AcDbArc
 50
175.0993788395
 51
176.1581821575
  0
ARC
  5
579
100
AcDbEntity
  8
0
100
AcDbCircle
 62
7
  6
CONTINUOUS
 10
213.5
 20
-0.0
 40
298.497941481
100
AcDbArc
 50
176.3120718982
 51
176.6582281342
  0
ARC
  5
57A
100
AcDbEntity
  8
0
100
AcDbCircle
 62
7
  6
CONTINUOUS
 10
213.5
 20
-0.0
 40
298.497941481
100
AcDbArc
 50
176.812035408
 51
177.1580194064
  0
ARC
  5
57B
100
AcDbEntity
  8
0
100
AcDbCircle
 62
7
  6
CONTINUOUS
 10
213.5
 20
-0.0
 40
298.4140890342
100
AcDbArc
 50
182.8427798278
 51
183.1888613155
  0
ARC
  5
57C
100
AcDbEntity
  8
0
100
AcDbCircle
 62
7
  6
CONTINUOUS
 10
213.5
 20
-0.0
 40
298.4140890342
100
AcDbArc
 50
183.3427119489
 51
183.68896582
  0
ARC
  5
57D
100
AcDbEntity
  8
0
100
AcDbCircle
 62
7
  6
CONTINUOUS
 10
213.5
 20
-0.0
 40
298.4140890342
100
AcDbArc
 50
176.31103418
 51
176.6572880511
  0
ARC
  5
57E
100
AcDbEntity
  8
0
100
AcDbCircle
 62
7
  6
CONTINUOUS
 10
213.5
 20
-0.0
 40
298.4140890342
100
AcDbArc
 50
176.8111386845
 51
177.1572201722
  0
ARC
  5
57F
100
AcDbEntity
  8
0
100
AcDbCircle
 62
7
  6
CONTINUOUS
 10
76.6292815281
 20
33.0
 40
8.0
100
AcDbArc
 50
6.4890714501
 51
90.0
  0
ARC
  5
580
100
AcDbEntity
  8
0
100
AcDbCircle
 62
7
  6
CONTINUOUS
 10
76.6292815281
 20
33.0
 40
6.497941481
100
AcDbArc
 50
6.4890714501
 51
90.0
  0
CIRCLE
  5
581
100
AcDbEntity
  8
ASSI
100
AcDbCircle
 62
7
  6
CONTINUOUS
 10
4.05
 20
27.5
 40
2.5
  0
CIRCLE
  5
582
100
AcDbEntity
  8
ASSI
100
AcDbCircle
 62
7
  6
CONTINUOUS
 10
4.05
 20
27.5
 40
1.7
  0
ARC
  5
583
100
AcDbEntity
  8
0
100
AcDbCircle
 62
7
  6
CONTINUOUS
 10
81.4
 20
25.9
 40
0.4
100
AcDbArc
 50
90.0
 51
270.0
  0
ARC
  5
584
100
AcDbEntity
  8
0
100
AcDbCircle
 62
7
  6
CONTINUOUS
 10
63.35
 20
38.05
 40
0.35
100
AcDbArc
 50
180.0
 51
360.0
  0
ARC
  5
585
100
AcDbEntity
  8
0
100
AcDbCircle
 62
7
  6
CONTINUOUS
 10
31.9
 20
37.95
 40
0.25
100
AcDbArc
 50
180.0
 51
360.0
  0
ARC
  5
586
100
AcDbEntity
  8
0
100
AcDbCircle
 62
7
  6
CONTINUOUS
 10
0.0
 20
37.95
 40
0.25
100
AcDbArc
 50
180.0
 51
360.0
  0
ELLIPSE
  5
587
100
AcDbEntity
  8
0
100
AcDbEllipse
 62
7
  6
CONTINUOUS
 10
62.3
 20
-22.3156790928
 30
0.0
 11
-0.0
 21
0.2000304656
 31
0.0
 40
0.9998476952
 41
-2.745670114
 42
-1.5707963268
  0
ELLIPSE
  5
588
100
AcDbEntity
  8
0
100
AcDbEllipse
 62
7
  6
CONTINUOUS
 10
-62.3
 20
-22.3156790928
 30
0.0
 11
0.0
 21
0.2000304656
 31
0.0
 40
0.9998476952
 41
1.5707963268
 42
2.745670114
  0
ELLIPSE
  5
589
100
AcDbEntity
  8
0
100
AcDbEllipse
 62
7
  6
CONTINUOUS
 10
62.3
 20
22.3156790928
 30
0.0
 11
-0.0
 21
0.2000304656
 31
0.0
 40
0.9998476952
 41
-1.5707963268
 42
-0.3959225396
  0
ELLIPSE
  5
58A
100
AcDbEntity
  8
0
100
AcDbEllipse
 62
7
  6
CONTINUOUS
 10
-62.3
 20
22.3156790928
 30
0.0
 11
-0.0
 21
0.2000304656
 31
0.0
 40
0.9998476952
 41
0.3959225396
 42
1.5707963268
  0
ENDSEC
  0
SECTION
  2
OBJECTS
  0
DICTIONARY
  5
C
100
AcDbDictionary
280
0
281
1
  3
ACAD_GROUP
350
D
  3
ACAD_MLINESTYLE
350
17
  3
ACAD_LAYOUT
350
1A
  3
ACAD_PLOTSETTINGS
350
19
  3
ACAD_PLOTSTYLENAME
350
E
  0
DICTIONARY
  5
D
102
{ACAD_REACTORS
330
C
102
}
100
AcDbDictionary
280
0
281
1
  0
ACDBDICTIONARYWDFLT
  5
E
102
{ACAD_REACTORS
330
C
102
}
100
AcDbDictionary
281
1
  3
Normal
350
F
100
AcDbDictionaryWithDefault
340
F
  0
DICTIONARY
  5
17
102
{ACAD_REACTORS
330
C
102
}
100
AcDbDictionary
280
0
281
1
  3
Standard
350
18
  0
DICTIONARY
  5
19
102
{ACAD_REACTORS
330
C
102
}
100
AcDbDictionary
281
1
  0
DICTIONARY
  5
1A
102
{ACAD_REACTORS
330
C
102
}
100
AcDbDictionary
281
1
  3
Model
350
58B
  3
Layout1
350
58C
  0
ACDBPLACEHOLDER
  5
F
102
{ACAD_REACTORS
330
E
102
}
  0
MLINESTYLE
  5
18
102
{ACAD_REACTORS
330
17
102
}
100
AcDbMlineStyle
  2
STANDARD
 70
0
  3

 62
256
 51
90.0
 52
90.0
 71
2
 49
0.5
 62
256
  6
BYLAYER
 49
-0.5
 62
256
  6
BYLAYER
  0
LAYOUT
  5
58B
102
{ACAD_REACTORS
330
1A
102
}
100
AcDbPlotSettings
  1

  2
none_device
  4
ISO_A4_(297.00_x_210.00_MM)
  6

 40
0.0
 41
0.0
 42
0.0
 43
0.0
 44
297.0
 45
210.0
 46
0.0
 47
0.0
 48
0.0
 49
0.0
140
0.0
141
0.0
142
1.0
143
1.0
 70
1024
 72
1
 73
0
 74
0
  7

 75
0
147
1.0
148
0.0
149
0.0
100
AcDbLayout
  1
Model
 70
0
 71
0
 10
0.0
 20
0.0
 11
297.0
 21
210.0
 12
0.0
 22
0.0
 32
0.0
 14
0.0
 24
0.0
 34
0.0
 15
0.0
 25
0.0
 35
0.0
146
0.0
 13
0.0
 23
0.0
 33
0.0
 16
1.0
 26
0.0
 36
0.0
 17
0.0
 27
1.0
 37
0.0
 76
0
330
214
345
0
346
0
  0
LAYOUT
  5
58C
102
{ACAD_REACTORS
330
1A
102
}
100
AcDbPlotSettings
  1

  2
none_device
  4
ISO_A4_(297.00_x_210.00_MM)
  6

 40
0.0
 41
0.0
 42
0.0
 43
0.0
 44
297.0
 45
210.0
 46
0.0
 47
0.0
 48
0.0
 49
0.0
140
0.0
141
0.0
142
1.0
143
1.0
 70
0
 72
1
 73
0
 74
0
  7

 75
0
147
1.0
148
0.0
149
0.0
100
AcDbLayout
  1
Layout1
 70
0
 71
1
 10
0.0
 20
0.0
 11
297.0
 21
210.0
 12
0.0
 22
0.0
 32
0.0
 14
0.0
 24
0.0
 34
0.0
 15
0.0
 25
0.0
 35
0.0
146
0.0
 13
0.0
 23
0.0
 33
0.0
 16
1.0
 26
0.0
 36
0.0
 17
0.0
 27
1.0
 37
0.0
 76
0
330
215
345
0
346
0
  0
ENDSEC
  0
EOF
