  0
SECTION
  2
HEADER
  9
$ACADVER
  1
AC1024
  9
$DWGCODEPAGE
  3
ANSI_1252
  9
$EXTMAX
 10
558.8
 20
431.8
 30
0.0
  9
$EXTMIN
 10
0.0
 20
0.0
 30
0.0
  9
$LIMMIN
 10
0.0
 20
0.0
  9
$LIMMAX
 10
558.8
 20
431.8
  9
$VIEWCTR
 10
279.4
 20
215.9
  9
$VIEWSIZE
 40
431.8
  9
$CLAYER
  8
0
  9
$LTSCALE
 40
30.734
  9
$CELTYPE
  6
BYLAYER
  9
$DIMSCALE
 40
1.0
  9
$DIMASZ
 40
3.0
  9
$DIMEXO
 40
0.5
  9
$DIMDLI
 40
21.2344
  9
$DIMEXE
 40
1.5
  9
$DIMCEN
 40
5.0292
  9
$DIMLFAC
 40
1.0
  9
$DIMBLK
  1
_FILLED
  9
$DIMALT
 70
0
  9
$DIMALTF
 40
0.0393700787
  9
$DIMTXT
 40
3.0
  9
$DIMTOL
 70
1
  9
$DIMLIM
 70
0
  9
$DIMTFAC
 40
1.0
  9
$DIMTP
 40
0.01
  9
$DIMTM
 40
0.01
  9
$DIMGAP
 40
0.625
  9
$DIMDSEP
 70
44
  9
$AUNITS
 70
0
  9
$PDMODE
 70
3
  9
$PDSIZE
 40
3.0
  9
$HANDSEED
  5
464
  9
$TILEMODE
 70
1
  9
$MEASUREMENT
 70
1
  9
$INSUNITS
 70
4
  0
ENDSEC
  0
SECTION
  2
CLASSES
  0
CLASS
  1
ACDBDICTIONARYWDFLT
  2
AcDbDictionaryWithDefault
  3
AutoCAD 2000
 90
0
 91
1
280
0
281
0
  0
CLASS
  1
ACDBPLACEHOLDER
  2
AcDbPlaceHolder
  3
AutoCAD 2000
 90
0
 91
1
280
0
281
0
  0
CLASS
  1
LAYOUT
  2
AcDbLayout
  3
AutoCAD 2000
 90
0
 91
0
280
0
281
0
  0
ENDSEC
  0
SECTION
  2
TABLES
  0
TABLE
  2
VPORT
  5
8
100
AcDbSymbolTable
 70
2
  0
VPORT
  5
1F4
100
AcDbSymbolTableRecord
100
AcDbViewportTableRecord
  2
*ACTIVE
 70
0
 10
0.0
 20
0.0
 11
1.0
 21
1.0
 12
279.4
 22
215.9
 13
0.0
 23
0.0
 14
1.0
 24
1.0
 15
0.0
 25
0.0
 16
0.0
 26
0.0
 36
1.0
 17
0.0
 27
0.0
 37
0.0
 40
431.8
 41
1.2941176471
 42
50.0
 43
0.0
 44
0.0
 50
0.0
 51
0.0
 71
0
 72
100
 73
1
 74
1
 75
0
 76
0
 77
0
 78
0
  0
ENDTAB
  0
TABLE
  2
LTYPE
  5
5
100
AcDbSymbolTable
 70
6
  0
LTYPE
  5
14
100
AcDbSymbolTableRecord
100
AcDbLinetypeTableRecord
  2
BYBLOCK
 70
0
  3

 72
65
 73
0
 40
0.0
  0
LTYPE
  5
15
100
AcDbSymbolTableRecord
100
AcDbLinetypeTableRecord
  2
BYLAYER
 70
0
  3

 72
65
 73
0
 40
0.0
  0
LTYPE
  5
16
100
AcDbSymbolTableRecord
100
AcDbLinetypeTableRecord
  2
CONTINUOUS
 70
64
  3
Solid line
 72
65
 73
0
 40
0.0
  0
LTYPE
  5
1F5
100
AcDbSymbolTableRecord
100
AcDbLinetypeTableRecord
  2
CENTER
 70
64
  3
____ _ ____ _ ____ _ ____ _ ____ _ ____ _ ____
 72
65
 73
4
 40
0.6
 49
0.375
 74
0
 49
-0.075
 74
0
 49
0.075
 74
0
 49
-0.075
 74
0
  0
LTYPE
  5
1F6
100
AcDbSymbolTableRecord
100
AcDbLinetypeTableRecord
  2
HIDDEN
 70
64
  3
- - - - - - - - - - - - - - - - - - - -
 72
65
 73
2
 40
0.2
 49
0.1
 74
0
 49
-0.1
 74
0
  0
LTYPE
  5
1F7
100
AcDbSymbolTableRecord
100
AcDbLinetypeTableRecord
  2
PHANTOM
 70
64
  3
_____ _ _ _____ _ _ _____ _ _ _____
 72
65
 73
6
 40
0.8
 49
0.45
 74
0
 49
-0.05
 74
0
 49
0.1
 74
0
 49
-0.05
 74
0
 49
0.1
 74
0
 49
-0.05
 74
0
  0
LTYPE
  5
1F8
100
AcDbSymbolTableRecord
100
AcDbLinetypeTableRecord
  2
DOT
 70
64
  3
. . . . . . . . . . . . . . . . . . . .
 72
65
 73
2
 40
0.2
 49
0.1
 74
0
 49
-0.1
 74
0
  0
LTYPE
  5
1F9
100
AcDbSymbolTableRecord
100
AcDbLinetypeTableRecord
  2
DASHED
 70
64
  3
- - - - - - - - - - - - - - - - - - - -
 72
65
 73
2
 40
0.2
 49
0.1
 74
0
 49
-0.1
 74
0
  0
ENDTAB
  0
TABLE
  2
LAYER
  5
2
100
AcDbSymbolTable
 70
36
  0
LAYER
  5
10
100
AcDbSymbolTableRecord
100
AcDbLayerTableRecord
  2
0
 70
0
 62
7
  6
CONTINUOUS
370
-3
390
F
  0
LAYER
  5
1FA
100
AcDbSymbolTableRecord
100
AcDbLayerTableRecord
  2
DEFAULT_1
 70
0
 62
7
  6
CENTER
370
-3
390
F
  0
LAYER
  5
1FB
100
AcDbSymbolTableRecord
100
AcDbLayerTableRecord
  2
DEFAULT_2
 70
0
 62
7
  6
HIDDEN
370
-3
390
F
  0
LAYER
  5
1FC
100
AcDbSymbolTableRecord
100
AcDbLayerTableRecord
  2
DEFAULT_3
 70
0
 62
7
  6
PHANTOM
370
-3
390
F
  0
LAYER
  5
1FD
100
AcDbSymbolTableRecord
100
AcDbLayerTableRecord
  2
ASSI
 70
0
 62
7
  6
CONTINUOUS
370
-3
390
F
  0
LAYER
  5
1FE
100
AcDbSymbolTableRecord
100
AcDbLayerTableRecord
  2
COLOR5
 70
0
 62
7
  6
CONTINUOUS
370
-3
390
F
  0
LAYER
  5
1FF
100
AcDbSymbolTableRecord
100
AcDbLayerTableRecord
  2
COORDINATE
 70
0
 62
7
  6
CONTINUOUS
370
-3
390
F
  0
LAYER
  5
200
100
AcDbSymbolTableRecord
100
AcDbLayerTableRecord
  2
COORD_ORIGINE
 70
0
 62
7
  6
CONTINUOUS
370
-3
390
F
  0
LAYER
  5
201
100
AcDbSymbolTableRecord
100
AcDbLayerTableRecord
  2
CURVE
 70
0
 62
7
  6
CONTINUOUS
370
-3
390
F
  0
LAYER
  5
202
100
AcDbSymbolTableRecord
100
AcDbLayerTableRecord
  2
DRAFT
 70
0
 62
7
  6
CONTINUOUS
370
-3
390
F
  0
LAYER
  5
203
100
AcDbSymbolTableRecord
100
AcDbLayerTableRecord
  2
IMPORT
 70
0
 62
7
  6
CONTINUOUS
370
-3
390
F
  0
LAYER
  5
204
100
AcDbSymbolTableRecord
100
AcDbLayerTableRecord
  2
INTF_1
 70
0
 62
7
  6
CONTINUOUS
370
-3
390
F
  0
LAYER
  5
205
100
AcDbSymbolTableRecord
100
AcDbLayerTableRecord
  2
INTF_2
 70
0
 62
7
  6
CONTINUOUS
370
-3
390
F
  0
LAYER
  5
206
100
AcDbSymbolTableRecord
100
AcDbLayerTableRecord
  2
INTF_7
 70
0
 62
7
  6
CONTINUOUS
370
-3
390
F
  0
LAYER
  5
207
100
AcDbSymbolTableRecord
100
AcDbLayerTableRecord
  2
LAY0001
 70
0
 62
7
  6
CONTINUOUS
370
-3
390
F
  0
LAYER
  5
208
100
AcDbSymbolTableRecord
100
AcDbLayerTableRecord
  2
NOTE
 70
0
 62
7
  6
CONTINUOUS
370
-3
390
F
  0
LAYER
  5
209
100
AcDbSymbolTableRecord
100
AcDbLayerTableRecord
  2
PIANI
 70
0
 62
7
  6
CONTINUOUS
370
-3
390
F
  0
LAYER
  5
20A
100
AcDbSymbolTableRecord
100
AcDbLayerTableRecord
  2
PIANI_ORIGINE
 70
0
 62
7
  6
CONTINUOUS
370
-3
390
F
  0
LAYER
  5
20B
100
AcDbSymbolTableRecord
100
AcDbLayerTableRecord
  2
PUNTI
 70
0
 62
7
  6
CONTINUOUS
370
-3
390
F
  0
LAYER
  5
20C
100
AcDbSymbolTableRecord
100
AcDbLayerTableRecord
  2
RACCORDO
 70
0
 62
7
  6
CONTINUOUS
370
-3
390
F
  0
LAYER
  5
20D
100
AcDbSymbolTableRecord
100
AcDbLayerTableRecord
  2
RGB__255__255__255__
 70
0
 62
7
  6
CONTINUOUS
370
-3
390
F
  0
LAYER
  5
20E
100
AcDbSymbolTableRecord
100
AcDbLayerTableRecord
  2
RGB____0____0____0__
 70
0
 62
7
  6
CONTINUOUS
370
-3
390
F
  0
LAYER
  5
20F
100
AcDbSymbolTableRecord
100
AcDbLayerTableRecord
  2
SMUSSO
 70
0
 62
7
  6
CONTINUOUS
370
-3
390
F
  0
LAYER
  5
210
100
AcDbSymbolTableRecord
100
AcDbLayerTableRecord
  2
SNAPLINE
 70
0
 62
7
  6
CONTINUOUS
370
-3
390
F
  0
LAYER
  5
211
100
AcDbSymbolTableRecord
100
AcDbLayerTableRecord
  2
SUPERFICI
 70
0
 62
7
  6
CONTINUOUS
370
-3
390
F
  0
LAYER
  5
212
100
AcDbSymbolTableRecord
100
AcDbLayerTableRecord
  2
TRASH
 70
0
 62
7
  6
CONTINUOUS
370
-3
390
F
  0
LAYER
  5
213
100
AcDbSymbolTableRecord
100
AcDbLayerTableRecord
  2
XSEC_DATUMS
 70
0
 62
7
  6
CONTINUOUS
370
-3
390
F
  0
ENDTAB
  0
TABLE
  2
STYLE
  5
3
100
AcDbSymbolTable
 70
1
  0
STYLE
  5
11
100
AcDbSymbolTableRecord
100
AcDbTextStyleTableRecord
  2
STANDARD
 70
0
 40
0.0
 41
0.8
 50
0.0
 71
0
 42
0.2
  3
txt
  4

  0
STYLE
  5
214
100
AcDbSymbolTableRecord
100
AcDbTextStyleTableRecord
  2
TEXTSTYLE_1
 70
0
 40
0.0
 41
0.8
 50
0.0
 71
0
 42
0.2
  3
gdt
  4

  0
ENDTAB
  0
TABLE
  2
VIEW
  5
6
100
AcDbSymbolTable
 70
0
  0
ENDTAB
  0
TABLE
  2
UCS
  5
7
100
AcDbSymbolTable
 70
0
  0
ENDTAB
  0
TABLE
  2
APPID
  5
9
100
AcDbSymbolTable
 70
1
  0
APPID
  5
215
100
AcDbSymbolTableRecord
100
AcDbRegAppTableRecord
  2
ACAD
 70
0
  0
ENDTAB
  0
TABLE
  2
BLOCK_RECORD
  5
1
100
AcDbSymbolTable
 70
0
  0
BLOCK_RECORD
  5
216
100
AcDbSymbolTableRecord
100
AcDbBlockTableRecord
  2
*Model_Space
  0
BLOCK_RECORD
  5
217
100
AcDbSymbolTableRecord
100
AcDbBlockTableRecord
  2
*Paper_Space
  0
BLOCK_RECORD
  5
218
100
AcDbSymbolTableRecord
100
AcDbBlockTableRecord
  2
_FILLED
  0
ENDTAB
  0
TABLE
  2
DIMSTYLE
  5
A
100
AcDbSymbolTable
 70
1
100
AcDbDimStyleTable
 71
0
  0
DIMSTYLE
105
219
100
AcDbSymbolTableRecord
100
AcDbDimStyleTableRecord
  2
STANDARD
 70
0
  3

  4

 40
1.0
 41
3.0
 42
0.5
 43
0.38
 44
1.5
 45
0.0
 46
0.0
 47
0.01
 48
0.01
140
3.0
141
0.09
142
0.0
143
25.4
144
1.0
145
0.0
146
1.0
147
0.625
 71
1
 72
0
 73
0
 74
0
 75
0
 76
0
 77
1
 78
8
 79
2
170
0
171
1
172
0
173
0
174
0
175
0
176
0
177
0
178
0
270
2
179
2
271
2
272
2
273
2
274
2
275
0
280
0
281
0
282
0
283
1
284
8
285
0
286
0
287
3
288
0
340
11
278
44
341
218
342
218
343
218
344
218
  0
ENDTAB
  0
ENDSEC
  0
SECTION
  2
BLOCKS
  0
BLOCK
  5
20
100
AcDbEntity
  8
0
100
AcDbBlockBegin
  2
*Model_Space
 70
0
 10
0.0
 20
0.0
 30
0.0
  3
*Model_Space
  1

  0
ENDBLK
  5
21
100
AcDbEntity
  8
0
100
AcDbBlockEnd
  0
BLOCK
  5
1C
100
AcDbEntity
  8
0
100
AcDbBlockBegin
  2
*Paper_Space
 70
0
 10
0.0
 20
0.0
 30
0.0
  3
*Paper_Space
  1

  0
ENDBLK
  5
1D
100
AcDbEntity
  8
0
100
AcDbBlockEnd
  0
BLOCK
  5
21A
100
AcDbEntity
  8
0
100
AcDbBlockBegin
  2
_FILLED
 70
64
 10
0.0
 20
0.0
  3
_FILLED
  1

  0
SOLID
  5
21B
100
AcDbEntity
  8
0
  6
BYBLOCK
 62
0
100
AcDbTrace
 10
0.0
 20
0.0
 11
-1.0
 21
0.3166666667
 12
-1.0
 22
-0.3166666667
 13
-1.0
 23
-0.3166666667
  0
ENDBLK
  5
21C
100
AcDbEntity
  8
0
  6
BYBLOCK
 62
0
100
AcDbBlockEnd
  0
ENDSEC
  0
SECTION
  2
ENTITIES
  0
LINE
  5
21D
100
AcDbEntity
  8
0
100
AcDbLine
 62
7
  6
CONTINUOUS
 10
-3.25
 20
-39.0
 11
3.25
 21
-39.0
  0
LINE
  5
21E
100
AcDbEntity
  8
RACCORDO
100
AcDbLine
 62
7
  6
CONTINUOUS
 10
-11.6
 20
-37.0
 11
-8.6
 21
-37.0
  0
LINE
  5
21F
100
AcDbEntity
  8
RACCORDO
100
AcDbLine
 62
7
  6
CONTINUOUS
 10
8.6
 20
-37.0
 11
11.6
 21
-37.0
  0
LINE
  5
220
100
AcDbEntity
  8
RACCORDO
100
AcDbLine
 62
250
  6
CONTINUOUS
 10
-11.6
 20
-36.8535533906
 11
-8.6
 21
-36.8535533906
  0
LINE
  5
221
100
AcDbEntity
  8
RACCORDO
100
AcDbLine
 62
250
  6
CONTINUOUS
 10
8.6
 20
-36.8535533906
 11
11.6
 21
-36.8535533906
  0
LINE
  5
222
100
AcDbEntity
  8
DRAFT
100
AcDbLine
 62
7
  6
CONTINUOUS
 10
4.5
 20
-36.7
 11
3.25
 21
-36.7
  0
LINE
  5
223
100
AcDbEntity
  8
DRAFT
100
AcDbLine
 62
7
  6
CONTINUOUS
 10
-3.25
 20
-36.7
 11
-4.5
 21
-36.7
  0
LWPOLYLINE
  5
224
100
AcDbEntity
  8
0
100
AcDbPolyline
 62
7
  6
CONTINUOUS
 90
37
 70
0
 10
0.2151059216
 20
-34.2216138929
 10
0.335501074
 20
-34.2022526206
 10
0.4542389278
 20
-34.1744825924
 10
0.570732944
 20
-34.1384409857
 10
0.6844076675
 20
-34.0943058372
 10
0.7947015696
 20
-34.0422951645
 10
0.9010698223
 20
-33.982665888
 10
1.0029869891
 20
-33.9157125629
 10
1.0999496212
 20
-33.8417659234
 10
1.1914787436
 20
-33.7611912492
 10
1.2771222219
 20
-33.6743865611
 10
1.3564569954
 20
-33.5817806549
 10
1.4290911669
 20
-33.4838309833
 10
1.4946659386
 20
-33.381021396
 10
1.5528573847
 20
-33.2738597497
 10
1.6033780512
 20
-33.1628753995
 10
1.6459783764
 20
-33.0486165839
 10
1.680447923
 20
-32.9316477165
 10
1.706616418
 20
-32.8125465983
 10
1.7243545939
 20
-32.691901563
 10
1.7335748272
 20
-32.5703085711
 10
1.7342315711
 20
-32.4483682661
 10
1.7263215805
 20
-32.3266830068
 10
1.7098839284
 20
-32.2058538928
 10
1.6849998123
 20
-32.086477794
 10
1.6517921537
 20
-31.9691444034
 10
1.6104249907
 20
-31.8544333231
 10
1.5611026674
 20
-31.7429112019
 10
1.5040688249
 20
-31.6351289357
 10
1.4396051976
 20
-31.5316189467
 10
1.3680302214
 20
-31.4328925527
 10
1.2896974611
 20
-31.339437442
 10
1.2049938632
 20
-31.2517152635
 10
1.1143378452
 20
-31.1701593471
 10
1.0181772282
 20
-31.0951725626
 10
0.9169870249
 20
-31.0271253296
 10
0.8112670934
 20
-30.9663537881
  0
LINE
  5
225
100
AcDbEntity
  8
0
100
AcDbLine
 62
7
  6
CONTINUOUS
 10
0.0936481966
 20
-34.2324707698
 11
0.2151059216
 21
-34.2216138929
  0
LINE
  5
226
100
AcDbEntity
  8
DRAFT
100
AcDbLine
 62
7
  6
CONTINUOUS
 10
13.75
 20
-36.1
 11
4.5
 21
-36.1
  0
LINE
  5
227
100
AcDbEntity
  8
DRAFT
100
AcDbLine
 62
7
  6
CONTINUOUS
 10
-4.5
 20
-36.1
 11
-13.75
 21
-36.1
  0
LINE
  5
228
100
AcDbEntity
  8
ASSI
100
AcDbLine
 62
7
  6
CONTINUOUS
 10
14.5
 20
-34.9
 11
5.7
 21
-34.9
  0
LINE
  5
229
100
AcDbEntity
  8
ASSI
100
AcDbLine
 62
7
  6
CONTINUOUS
 10
-5.7
 20
-34.9
 11
-14.5
 21
-34.9
  0
LINE
  5
22A
100
AcDbEntity
  8
0
100
AcDbLine
 62
7
  6
CONTINUOUS
 10
-2.69058809
 20
-33.85
 11
-1.0881430412
 21
-33.85
  0
LINE
  5
22B
100
AcDbEntity
  8
0
100
AcDbLine
 62
7
  6
CONTINUOUS
 10
1.0884266778
 20
-33.85
 11
2.69058809
 21
-33.85
  0
LWPOLYLINE
  5
22C
100
AcDbEntity
  8
0
100
AcDbPolyline
 62
7
  6
CONTINUOUS
 90
13
 70
0
 10
8.2654787277
 20
-31.2437543189
 10
8.2286363013
 20
-31.2462447495
 10
8.1932973863
 20
-31.2533464714
 10
8.1594619826
 20
-31.2650594846
 10
8.1265526529
 20
-31.2816799476
 10
8.0951468346
 20
-31.302911702
 10
8.0669768396
 20
-31.3278662726
 10
8.0421800276
 20
-31.3568054204
 10
8.0206190389
 20
-31.3894673844
 10
8.003614107
 20
-31.4241784069
 10
7.9916053094
 20
-31.4603805688
 10
7.9841525685
 20
-31.4986317893
 10
7.9812558842
 20
-31.5389320683
  0
LWPOLYLINE
  5
22D
100
AcDbEntity
  8
0
100
AcDbPolyline
 62
7
  6
CONTINUOUS
 90
16
 70
0
 10
11.0317818603
 20
-30.712477601
 10
10.9446345331
 20
-30.7172085155
 10
10.8601329336
 20
-30.7304410817
 10
10.778277062
 20
-30.7521752995
 10
10.6981779293
 20
-30.7828506551
 10
10.6207245244
 20
-30.8220276624
 10
10.5485838138
 20
-30.8683878626
 10
10.481946392
 20
-30.9222409073
 10
10.4206216645
 20
-30.9832771449
 10
10.3667048144
 20
-31.0492491619
 10
10.3205409446
 20
-31.1202754751
 10
10.2817849521
 20
-31.1962375676
 10
10.2514967113
 20
-31.2745324747
 10
10.2300295138
 20
-31.3542925416
 10
10.2170300681
 20
-31.4363854231
 10
10.212498374
 20
-31.5208111192
  0
LINE
  5
22E
100
AcDbEntity
  8
ASSI
100
AcDbLine
 62
7
  6
CONTINUOUS
 10
-14.5
 20
-33.5
 11
-5.7
 21
-33.5
  0
LINE
  5
22F
100
AcDbEntity
  8
ASSI
100
AcDbLine
 62
7
  6
CONTINUOUS
 10
5.7
 20
-33.5
 11
14.5
 21
-33.5
  0
LINE
  5
230
100
AcDbEntity
  8
0
100
AcDbLine
 62
7
  6
CONTINUOUS
 10
8.2583384009
 20
-33.05
 11
9.7875074769
 21
-33.05
  0
LINE
  5
231
100
AcDbEntity
  8
0
100
AcDbLine
 62
7
  6
CONTINUOUS
 10
10.212498374
 20
-33.05
 11
10.7437467597
 21
-33.05
  0
LINE
  5
232
100
AcDbEntity
  8
0
100
AcDbLine
 62
7
  6
CONTINUOUS
 10
12.0187424682
 20
-33.05
 11
12.54999068
 21
-33.05
  0
LINE
  5
233
100
AcDbEntity
  8
0
100
AcDbLine
 62
7
  6
CONTINUOUS
 10
9.7875074769
 20
-32.5187500274
 11
8.2654787277
 21
-32.5187500274
  0
LINE
  5
234
100
AcDbEntity
  8
0
100
AcDbLine
 62
7
  6
CONTINUOUS
 10
10.7437467597
 20
-32.5187215213
 11
12.0187424682
 21
-32.5187215213
  0
LINE
  5
235
100
AcDbEntity
  8
DRAFT
100
AcDbLine
 62
7
  6
CONTINUOUS
 10
-15.45
 20
-32.25
 11
-13.6670833097
 21
-32.25
  0
LINE
  5
236
100
AcDbEntity
  8
DRAFT
100
AcDbLine
 62
7
  6
CONTINUOUS
 10
13.6670833097
 20
-32.25
 11
15.45
 21
-32.25
  0
LINE
  5
237
100
AcDbEntity
  8
0
100
AcDbLine
 62
7
  6
CONTINUOUS
 10
12.0187424682
 20
-31.9874733095
 11
10.7437467597
 21
-31.9874733095
  0
LINE
  5
238
100
AcDbEntity
  8
0
100
AcDbLine
 62
7
  6
CONTINUOUS
 10
8.2654787277
 20
-31.2437543189
 11
9.7875074769
 21
-31.2437543189
  0
LINE
  5
239
100
AcDbEntity
  8
0
100
AcDbLine
 62
7
  6
CONTINUOUS
 10
11.0389245092
 20
-31.2437258129
 11
11.7235647187
 21
-31.2437258129
  0
LINE
  5
23A
100
AcDbEntity
  8
0
100
AcDbLine
 62
7
  6
CONTINUOUS
 10
-2.69058809
 20
-31.15
 11
-1.0894260717
 21
-31.15
  0
LINE
  5
23B
100
AcDbEntity
  8
0
100
AcDbLine
 62
7
  6
CONTINUOUS
 10
1.0890708419
 20
-31.15
 11
2.69058809
 21
-31.15
  0
LINE
  5
23C
100
AcDbEntity
  8
ASSI
100
AcDbLine
 62
7
  6
CONTINUOUS
 10
-8.342945
 20
-30.875
 11
-6.882444
 21
-30.875
  0
LWPOLYLINE
  5
23D
100
AcDbEntity
  8
0
100
AcDbPolyline
 62
7
  6
CONTINUOUS
 90
10
 70
0
 10
0.0
 20
-31.3338197093
 10
0.0632351444
 20
-31.3339458851
 10
0.1264107492
 20
-31.3374992588
 10
0.1893411756
 20
-31.3444712535
 10
0.2518255652
 20
-31.3548401259
 10
0.3136970523
 20
-31.3685786722
 10
0.3748215918
 20
-31.3856630462
 10
0.435033547
 20
-31.4060584734
 10
0.4941379343
 20
-31.4297106295
 10
0.5519584309
 20
-31.4565594813
  0
LWPOLYLINE
  5
23E
100
AcDbEntity
  8
0
100
AcDbPolyline
 62
7
  6
CONTINUOUS
 90
43
 70
0
 10
0.0
 20
-33.5741430217
 10
-0.0807868867
 20
-33.5733079007
 10
-0.1614450832
 20
-33.5663932401
 10
-0.2415168271
 20
-33.5534139322
 10
-0.3206637686
 20
-33.5343862851
 10
-0.3983107624
 20
-33.509409381
 10
-0.4736743034
 20
-33.4787532433
 10
-0.5460965755
 20
-33.4427837175
 10
-0.6154731008
 20
-33.4016542924
 10
-0.6818534808
 20
-33.3553393276
 10
-0.7448414089
 20
-33.3040519463
 10
-0.8040602181
 20
-33.2480315331
 10
-0.8594796775
 20
-33.1871547993
 10
-0.9108800346
 20
-33.1213505583
 10
-0.95757755
 20
-33.0511478232
 10
-0.9988922385
 20
-32.9773748003
 10
-1.0345626748
 20
-32.9004031526
 10
-1.0643199095
 20
-32.8207023433
 10
-1.087778817
 20
-32.7394173646
 10
-1.1048399148
 20
-32.657521914
 10
-1.1156716991
 20
-32.5750584334
 10
-1.1203461436
 20
-32.4917968774
 10
-1.1187953326
 20
-32.4081119405
 10
-1.1109825354
 20
-32.3245552438
 10
-1.096821384
 20
-32.2411522685
 10
-1.076144069
 20
-32.158017141
 10
-1.0489820028
 20
-32.0760493345
 10
-1.015662953
 20
-31.9964298986
 10
-0.9764295324
 20
-31.9196636178
 10
-0.9315092383
 20
-31.8461316715
 10
-0.8815249579
 20
-31.7766882977
 10
-0.8271467043
 20
-31.7119337478
 10
-0.7685724893
 20
-31.6518052463
 10
-0.7057474076
 20
-31.5961324435
 10
-0.6389834306
 20
-31.5451824827
 10
-0.5686758027
 20
-31.4992480656
 10
-0.4947609716
 20
-31.4583390015
 10
-0.4172921538
 20
-31.4226371156
 10
-0.3369224375
 20
-31.3925914356
 10
-0.2545046121
 20
-31.3685728603
 10
-0.17064428
 20
-31.3507378273
 10
-0.0856548564
 20
-31.3391331814
 10
-0.0
 20
-31.3338197093
  0
LWPOLYLINE
  5
23F
100
AcDbEntity
  8
0
100
AcDbPolyline
 62
7
  6
CONTINUOUS
 90
16
 70
0
 10
8.2583384009
 20
-33.05
 10
8.1750603003
 20
-33.0455901105
 10
8.0938491132
 20
-33.0326429427
 10
8.0147048395
 20
-33.0111584967
 10
7.9367260916
 20
-32.9808162978
 10
7.8608142571
 20
-32.9419368205
 10
7.7896734993
 20
-32.8954814886
 10
7.7234028096
 20
-32.8410501668
 10
7.6619031967
 20
-32.7790429903
 10
7.6075818496
 20
-32.7116217882
 10
7.5607675252
 20
-32.638549896
 10
7.5211314666
 20
-32.5600639783
 10
7.4900945929
 20
-32.4790358573
 10
7.4681305437
 20
-32.3964228072
 10
7.4547656794
 20
-32.3112675538
 10
7.45
 20
-32.2235700973
  0
LWPOLYLINE
  5
240
100
AcDbEntity
  8
0
100
AcDbPolyline
 62
7
  6
CONTINUOUS
 90
29
 70
0
 10
-0.594660526
 20
-33.6918612687
 10
-0.5098002676
 20
-33.721265016
 10
-0.4236936283
 20
-33.7446868886
 10
-0.3367585254
 20
-33.7620933754
 10
-0.2494116787
 20
-33.7734799255
 10
-0.162066619
 20
-33.7788706318
 10
-0.0751317333
 20
-33.7783177783
 10
0.0109916424
 20
-33.7719012553
 10
0.0959110755
 20
-33.7597278464
 10
0.179244825
 20
-33.7419303919
 10
0.2606235573
 20
-33.7186668343
 10
0.3396919822
 20
-33.6901191525
 10
0.4161104018
 20
-33.6564921891
 10
0.4895561654
 20
-33.6180123805
 10
0.5597250246
 20
-33.5749263943
 10
0.6263323819
 20
-33.5274996836
 10
0.6891144295
 20
-33.476014966
 10
0.7478291717
 20
-33.4207706341
 10
0.8022573294
 20
-33.3620791091
 10
0.8522031206
 20
-33.3002651424
 10
0.8974949176
 20
-33.2356640779
 10
0.9379857765
 20
-33.1686200817
 10
0.973553838
 20
-33.0994843491
 10
1.0041026007
 20
-33.0286132983
 10
1.0295610649
 20
-32.9563667594
 10
1.0498837479
 20
-32.8831061687
 10
1.0650505739
 20
-32.8091927763
 10
1.0750666375
 20
-32.7349858761
 10
1.0799618461
 20
-32.6608410672
  0
LINE
  5
241
100
AcDbEntity
  8
0
100
AcDbLine
 62
7
  6
CONTINUOUS
 10
-0.677857308
 20
-33.6565382961
 11
-0.594660526
 21
-33.6918612687
  0
LWPOLYLINE
  5
242
100
AcDbEntity
  8
0
100
AcDbPolyline
 62
7
  6
CONTINUOUS
 90
45
 70
0
 10
-0.1774959845
 20
-30.7741031029
 10
-0.2982847425
 20
-30.790833204
 10
-0.4176000446
 20
-30.8160061974
 10
-0.5348525004
 20
-30.8494977347
 10
-0.6494629097
 20
-30.891142376
 10
-0.760865123
 20
-30.9407344067
 10
-0.8685088387
 20
-30.998028854
 10
-0.9718623212
 20
-31.0627426969
 10
-1.0704150277
 20
-31.1345562642
 10
-1.1636801301
 20
-31.2131148138
 10
-1.2511969195
 20
-31.2980302846
 10
-1.3325330828
 20
-31.3888832141
 10
-1.4072868373
 20
-31.4852248097
 10
-1.4750889161
 20
-31.5865791664
 10
-1.5356043919
 20
-31.6924456168
 10
-1.5885343315
 20
-31.802301205
 10
-1.6336172725
 20
-31.9156032696
 10
-1.6706305149
 20
-32.0317921243
 10
-1.699391221
 20
-32.1502938227
 10
-1.7197573191
 20
-32.2705229932
 10
-1.7316282045
 20
-32.3918857311
 10
-1.7349452373
 20
-32.5137825318
 10
-1.7296920313
 20
-32.6356112527
 10
-1.7158945358
 20
-32.7567700874
 10
-1.6936209066
 20
-32.8766605384
 10
-1.6629811698
 20
-32.9946903738
 10
-1.6241266784
 20
-33.1102765525
 10
-1.5772493641
 20
-33.2228481045
 10
-1.5225807898
 20
-33.3318489514
 10
-1.4603910055
 20
-33.4367406531
 10
-1.3909872143
 20
-33.5370050678
 10
-1.3147122548
 20
-33.6321469113
 10
-1.2319429079
 20
-33.7216962037
 10
-1.1430880351
 20
-33.8052105911
 10
-1.0485865594
 20
-33.8822775305
 10
-0.9489052966
 20
-33.9525163279
 10
-0.8445366495
 20
-34.0155800188
 10
-0.7359961758
 20
-34.0711570818
 10
-0.6238200411
 20
-34.1189729781
 10
-0.5085623703
 20
-34.158791507
 10
-0.3907925107
 20
-34.1904159733
 10
-0.271092219
 20
-34.2136901584
 10
-0.1500527883
 20
-34.2284990922
 10
-0.0282721266
 20
-34.2347696213
 10
0.0936481966
 20
-34.2324707698
  0
LWPOLYLINE
  5
243
100
AcDbEntity
  8
0
100
AcDbPolyline
 62
7
  6
CONTINUOUS
 90
13
 70
0
 10
8.9610716626
 20
-29.7562593257
 10
9.0013540885
 20
-29.7533692698
 10
9.0395940432
 20
-29.7459209522
 10
9.0757915266
 20
-29.7339143728
 10
9.1105075747
 20
-29.71690805
 10
9.1431811515
 20
-29.6953434654
 10
9.1721291496
 20
-29.6705450643
 10
9.1970854281
 20
-29.6423788418
 10
9.2183161279
 20
-29.6109788027
 10
9.2349365628
 20
-29.5780714075
 10
9.2466518376
 20
-29.5442321427
 10
9.2537568476
 20
-29.5088855216
 10
9.2562515927
 20
-29.4720315443
  0
LINE
  5
244
100
AcDbEntity
  8
0
100
AcDbLine
 62
7
  6
CONTINUOUS
 10
-0.0558304393
 20
-30.7658985366
 11
-0.1774959845
 21
-30.7741031029
  0
LINE
  5
245
100
AcDbEntity
  8
0
100
AcDbLine
 62
7
  6
CONTINUOUS
 10
9.7875074769
 20
-30.7125043463
 11
8.2583384009
 21
-30.7125043463
  0
LINE
  5
246
100
AcDbEntity
  8
0
100
AcDbLine
 62
7
  6
CONTINUOUS
 10
11.7307071938
 20
-30.712477601
 11
11.0317818603
 21
-30.712477601
  0
LINE
  5
247
100
AcDbEntity
  8
0
100
AcDbLine
 62
7
  6
CONTINUOUS
 10
10.212498
 20
-30.287511
 11
10.743747
 21
-30.287511
  0
LINE
  5
248
100
AcDbEntity
  8
0
100
AcDbLine
 62
7
  6
CONTINUOUS
 10
8.2692933069
 20
-30.287506448
 11
8.968215698
 21
-30.287506448
  0
LINE
  5
249
100
AcDbEntity
  8
0
100
AcDbLine
 62
7
  6
CONTINUOUS
 10
11.867785
 20
-30.287506
 11
12.551914
 21
-30.287506
  0
LINE
  5
24A
100
AcDbEntity
  8
ASSI
100
AcDbLine
 62
7
  6
CONTINUOUS
 10
-6.882444
 20
-30.125
 11
-8.342948112
 21
-30.125
  0
LINE
  5
24B
100
AcDbEntity
  8
0
100
AcDbLine
 62
7
  6
CONTINUOUS
 10
8.9610716626
 20
-29.7562593257
 11
8.2764336337
 21
-29.7562593257
  0
LINE
  5
24C
100
AcDbEntity
  8
DRAFT
100
AcDbLine
 62
7
  6
CONTINUOUS
 10
15.45
 20
-29.5
 11
14.8744230428
 21
-29.5
  0
LINE
  5
24D
100
AcDbEntity
  8
DRAFT
100
AcDbLine
 62
7
  6
CONTINUOUS
 10
-14.8744230428
 20
-29.5
 11
-15.45
 21
-29.5
  0
LINE
  5
24E
100
AcDbEntity
  8
DRAFT
100
AcDbLine
 62
7
  6
CONTINUOUS
 10
-15.45
 20
-28.0
 11
-14.7968739821
 21
-28.0
  0
LINE
  5
24F
100
AcDbEntity
  8
0
100
AcDbLine
 62
7
  6
CONTINUOUS
 10
-1.5
 20
-28.0
 11
-0.75
 21
-28.0
  0
LINE
  5
250
100
AcDbEntity
  8
0
100
AcDbLine
 62
7
  6
CONTINUOUS
 10
0.75
 20
-28.0
 11
1.5
 21
-28.0
  0
LINE
  5
251
100
AcDbEntity
  8
DRAFT
100
AcDbLine
 62
7
  6
CONTINUOUS
 10
14.7968739821
 20
-28.0
 11
15.45
 21
-28.0
  0
LINE
  5
252
100
AcDbEntity
  8
0
100
AcDbLine
 62
7
  6
CONTINUOUS
 10
12.554843
 20
-27.950012
 11
11.867859
 21
-27.950012
  0
LINE
  5
253
100
AcDbEntity
  8
0
100
AcDbLine
 62
7
  6
CONTINUOUS
 10
9.7875074769
 20
-27.9500119635
 11
9.2562515927
 21
-27.9500119635
  0
LINE
  5
254
100
AcDbEntity
  8
0
100
AcDbLine
 62
7
  6
CONTINUOUS
 10
7.9812558842
 20
-27.9500119635
 11
7.45
 21
-27.9500119635
  0
LINE
  5
255
100
AcDbEntity
  8
0
100
AcDbLine
 62
7
  6
CONTINUOUS
 10
10.743747
 20
-27.95
 11
10.212498
 21
-27.95
  0
LWPOLYLINE
  5
256
100
AcDbEntity
  8
0
100
AcDbPolyline
 62
7
  6
CONTINUOUS
 90
16
 70
0
 10
8.2692933069
 20
-30.287506448
 10
8.1821452912
 20
-30.282775504
 10
8.09764284
 20
-30.2695427706
 10
8.0157859534
 20
-30.2478082479
 10
7.9356855412
 20
-30.2171324022
 10
7.8582306936
 20
-30.1779547672
 10
7.7860886811
 20
-30.1315939434
 10
7.7194501688
 20
-30.0777402506
 10
7.6581244916
 20
-30.0167033691
 10
7.6042069245
 20
-29.9507309406
 10
7.5580426474
 20
-29.8797044844
 10
7.5192864804
 20
-29.8037424812
 10
7.4889981586
 20
-29.7254480157
 10
7.4675309272
 20
-29.6456887827
 10
7.454531541
 20
-29.5635970874
 10
7.45
 20
-29.4791729299
  0
LWPOLYLINE
  5
257
100
AcDbEntity
  8
0
100
AcDbPolyline
 62
7
  6
CONTINUOUS
 90
13
 70
0
 10
11.7235647187
 20
-31.2437258129
 10
11.7638458575
 20
-31.2466157386
 10
11.8020848647
 20
-31.2540639978
 10
11.8382817401
 20
-31.2660705904
 10
11.8729976234
 20
-31.2830770192
 10
11.9056713749
 20
-31.3046417815
 10
11.9346195765
 20
-31.329440369
 10
11.9595760118
 20
-31.35760682
 10
11.9808068971
 20
-31.3890070963
 10
11.9974274624
 20
-31.4219145742
 10
12.0091427843
 20
-31.4557537126
 10
12.0162477863
 20
-31.4911000526
 10
12.0187424682
 20
-31.5279535942
  0
LWPOLYLINE
  5
258
100
AcDbEntity
  8
0
100
AcDbPolyline
 62
7
  6
CONTINUOUS
 90
46
 70
0
 10
0.7021661857
 20
-30.922886238
 10
0.5920558406
 20
-30.887400142
 10
0.4797832483
 20
-30.8594425459
 10
0.3664430466
 20
-30.8392472828
 10
0.2525684162
 20
-30.8268306358
 10
0.1386898508
 20
-30.8221724921
 10
0.0253326875
 20
-30.8252167799
 10
-0.0869853158
 20
-30.8358720735
 10
-0.1977563453
 20
-30.8540123593
 10
-0.3064848272
 20
-30.8794779595
 10
-0.4126896441
 20
-30.9120766071
 10
-0.515906263
 20
-30.9515846663
 10
-0.6156887644
 20
-30.9977484897
 10
-0.7116117637
 20
-31.0502859067
 10
-0.8032722178
 20
-31.1088878328
 10
-0.8902911075
 20
-31.1732199929
 10
-0.9723149907
 20
-31.2429247473
 10
-1.0490174181
 20
-31.3176230126
 10
-1.1201002075
 20
-31.3969162663
 10
-1.1852945706
 20
-31.4803886248
 10
-1.2443620898
 20
-31.5676089848
 10
-1.2970955392
 20
-31.6581332167
 10
-1.3433195498
 20
-31.7515063984
 10
-1.3828911156
 20
-31.8472650806
 10
-1.4156999405
 20
-31.9449395687
 10
-1.4416686243
 20
-32.0440562145
 10
-1.4607526906
 20
-32.1441397027
 10
-1.4729404561
 20
-32.2447153238
 10
-1.4782527445
 20
-32.3453112212
 10
-1.4767424465
 20
-32.4454606024
 10
-1.4684939315
 20
-32.544703904
 10
-1.4536223136
 20
-32.6425909005
 10
-1.4322725767
 20
-32.7386827461
 10
-1.4046185663
 20
-32.8325539426
 10
-1.3708618515
 20
-32.9237942219
 10
-1.3312304656
 20
-33.012010337
 10
-1.2859775323
 20
-33.0968277521
 10
-1.2353797855
 20
-33.1778922253
 10
-1.1797359893
 20
-33.2548712775
 10
-1.1193652696
 20
-33.3274555408
 10
-1.0546053642
 20
-33.3953599811
 10
-0.9858108006
 20
-33.4583249913
 10
-0.913351013
 20
-33.5161173487
 10
-0.8376084063
 20
-33.5685310361
 10
-0.758976378
 20
-33.6153879214
 10
-0.677857308
 20
-33.6565382961
  0
LINE
  5
259
100
AcDbEntity
  8
0
100
AcDbLine
 62
7
  6
CONTINUOUS
 10
0.8112670934
 20
-30.9663537881
 11
0.7021661857
 21
-30.922886238
  0
LWPOLYLINE
  5
25A
100
AcDbEntity
  8
0
100
AcDbPolyline
 62
7
  6
CONTINUOUS
 90
16
 70
0
 10
0.5519584309
 20
-31.4565594813
 10
0.6220352708
 20
-31.491372534
 10
0.6899487041
 20
-31.5309247888
 10
0.755376315
 20
-31.5750842615
 10
0.8178785594
 20
-31.6235931035
 10
0.8772886523
 20
-31.6763625558
 10
0.9336469593
 20
-31.7335583517
 10
0.9867859037
 20
-31.7952619833
 10
1.0361434982
 20
-31.8610953174
 10
1.0811741081
 20
-31.9305175315
 10
1.1216383786
 20
-32.0033067732
 10
1.1572480522
 20
-32.079110312
 10
1.1875760184
 20
-32.1570527547
 10
1.2124708321
 20
-32.2365637952
 10
1.2319392507
 20
-32.3174435496
 10
1.2459382481
 20
-32.39931295
  0
LWPOLYLINE
  5
25B
100
AcDbEntity
  8
DRAFT
100
AcDbPolyline
 62
7
  6
CONTINUOUS
 90
10
 70
0
 10
7.0828583997
 20
-26.7757418649
 10
7.1072521761
 20
-26.7749870809
 10
7.1318351459
 20
-26.7736567783
 10
7.1565664559
 20
-26.7717581721
 10
7.1814336113
 20
-26.7693248362
 10
7.2063740969
 20
-26.7663412707
 10
7.2312669923
 20
-26.7627502735
 10
7.2560422667
 20
-26.7585496598
 10
7.2806891388
 20
-26.7537844914
 10
7.3051717269
 20
-26.7484768803
  0
LINE
  5
25C
100
AcDbEntity
  8
DRAFT
100
AcDbLine
 62
7
  6
CONTINUOUS
 10
-4.1940475203
 20
-26.1559524797
 11
-3.0
 21
-26.1529762399
  0
LINE
  5
25D
100
AcDbEntity
  8
0
100
AcDbLine
 62
7
  6
CONTINUOUS
 10
3.2
 20
-27.15
 11
0.75
 21
-27.15
  0
LINE
  5
25E
100
AcDbEntity
  8
0
100
AcDbLine
 62
7
  6
CONTINUOUS
 10
-0.75
 20
-27.15
 11
-3.2
 21
-27.15
  0
LINE
  5
25F
100
AcDbEntity
  8
RACCORDO
100
AcDbLine
 62
7
  6
CONTINUOUS
 10
14.1500761524
 20
-27.0
 11
13.1231261996
 21
-27.0
  0
LINE
  5
260
100
AcDbEntity
  8
DRAFT
100
AcDbLine
 62
7
  6
CONTINUOUS
 10
13.1231261996
 20
-27.0
 11
8.5
 21
-27.0
  0
LINE
  5
261
100
AcDbEntity
  8
RACCORDO
100
AcDbLine
 62
7
  6
CONTINUOUS
 10
8.5
 20
-27.0
 11
7.4999238476
 21
-27.0
  0
LINE
  5
262
100
AcDbEntity
  8
0
100
AcDbLine
 62
7
  6
CONTINUOUS
 10
3.35
 20
-27.0
 11
-3.35
 21
-27.0
  0
LINE
  5
263
100
AcDbEntity
  8
RACCORDO
100
AcDbLine
 62
7
  6
CONTINUOUS
 10
-7.4999238476
 20
-27.0
 11
-8.5
 21
-27.0
  0
LINE
  5
264
100
AcDbEntity
  8
DRAFT
100
AcDbLine
 62
7
  6
CONTINUOUS
 10
-8.5
 20
-27.0
 11
-13.1231261996
 21
-27.0
  0
LINE
  5
265
100
AcDbEntity
  8
RACCORDO
100
AcDbLine
 62
7
  6
CONTINUOUS
 10
-13.1231261996
 20
-27.0
 11
-14.1500761524
 21
-27.0
  0
LINE
  5
266
100
AcDbEntity
  8
DRAFT
100
AcDbLine
 62
7
  6
CONTINUOUS
 10
-13.1623971047
 20
-26.9214522078
 11
-8.5
 21
-26.9214522078
  0
LINE
  5
267
100
AcDbEntity
  8
DRAFT
100
AcDbLine
 62
7
  6
CONTINUOUS
 10
13.1623971047
 20
-26.9214522078
 11
8.5
 21
-26.9214522078
  0
LINE
  5
268
100
AcDbEntity
  8
RACCORDO
100
AcDbLine
 62
7
  6
CONTINUOUS
 10
-14.0191631655
 20
-26.869087013
 11
-7.6308368345
 21
-26.869087013
  0
LINE
  5
269
100
AcDbEntity
  8
RACCORDO
100
AcDbLine
 62
7
  6
CONTINUOUS
 10
7.6308368345
 20
-26.869087013
 11
14.0191631655
 21
-26.869087013
  0
LINE
  5
26A
100
AcDbEntity
  8
RACCORDO
100
AcDbLine
 62
7
  6
CONTINUOUS
 10
14.1798889187
 20
-26.65
 11
8.5
 21
-26.65
  0
LINE
  5
26B
100
AcDbEntity
  8
RACCORDO
100
AcDbLine
 62
7
  6
CONTINUOUS
 10
-8.5
 20
-26.65
 11
-14.1798889187
 21
-26.65
  0
LINE
  5
26C
100
AcDbEntity
  8
DRAFT
100
AcDbLine
 62
7
  6
CONTINUOUS
 10
5.995695392
 20
-26.1758993279
 11
4.1741006721
 21
-26.1758993279
  0
LINE
  5
26D
100
AcDbEntity
  8
DRAFT
100
AcDbLine
 62
7
  6
CONTINUOUS
 10
-4.1741006721
 20
-26.1758993279
 11
-5.995695392
 21
-26.1758993279
  0
LINE
  5
26E
100
AcDbEntity
  8
DRAFT
100
AcDbLine
 62
7
  6
CONTINUOUS
 10
3.0
 20
-26.1529762399
 11
-3.0
 21
-26.1529762399
  0
LINE
  5
26F
100
AcDbEntity
  8
RACCORDO
100
AcDbLine
 62
7
  6
CONTINUOUS
 10
-13.3138635149
 20
-26.15
 11
-8.5
 21
-26.15
  0
LINE
  5
270
100
AcDbEntity
  8
RACCORDO
100
AcDbLine
 62
7
  6
CONTINUOUS
 10
13.3138635149
 20
-26.15
 11
8.5
 21
-26.15
  0
LINE
  5
271
100
AcDbEntity
  8
DRAFT
100
AcDbLine
 62
7
  6
CONTINUOUS
 10
6.2907905922
 20
-26.15
 11
6.0140873065
 21
-26.15
  0
LINE
  5
272
100
AcDbEntity
  8
DRAFT
100
AcDbLine
 62
7
  6
CONTINUOUS
 10
-6.0140873065
 20
-26.15
 11
-6.2907905922
 21
-26.15
  0
LINE
  5
273
100
AcDbEntity
  8
RACCORDO
100
AcDbLine
 62
7
  6
CONTINUOUS
 10
-2.0
 20
-26.1273084156
 11
2.0
 21
-26.1273084156
  0
LINE
  5
274
100
AcDbEntity
  8
DRAFT
100
AcDbLine
 62
7
  6
CONTINUOUS
 10
-6.2868841298
 20
-26.019087013
 11
6.2868841298
 21
-26.019087013
  0
LINE
  5
275
100
AcDbEntity
  8
ASSI
100
AcDbLine
 62
250
  6
CONTINUOUS
 10
6.3354983674
 20
-25.3454177909
 11
-6.3354983674
 21
-25.3454177909
  0
LINE
  5
276
100
AcDbEntity
  8
DRAFT
100
AcDbLine
 62
7
  6
CONTINUOUS
 10
15.3362647374
 20
-25.1336793649
 11
14.6726915844
 21
-25.1336793649
  0
LINE
  5
277
100
AcDbEntity
  8
DRAFT
100
AcDbLine
 62
7
  6
CONTINUOUS
 10
-14.6726915844
 20
-25.1336793649
 11
-15.3362647374
 21
-25.1336793649
  0
LINE
  5
278
100
AcDbEntity
  8
DRAFT
100
AcDbLine
 62
7
  6
CONTINUOUS
 10
3.0
 20
-26.1529762399
 11
4.1940475203
 21
-26.1559524797
  0
LWPOLYLINE
  5
279
100
AcDbEntity
  8
DRAFT
100
AcDbPolyline
 62
7
  6
CONTINUOUS
 90
10
 70
0
 10
-7.3051717269
 20
-26.7484768803
 10
-7.2806891395
 20
-26.7537844912
 10
-7.2560422679
 20
-26.7585496596
 10
-7.2312669938
 20
-26.7627502733
 10
-7.2063740984
 20
-26.7663412705
 10
-7.1814336126
 20
-26.769324836
 10
-7.1565664569
 20
-26.771758172
 10
-7.1318351467
 20
-26.7736567783
 10
-7.1072521765
 20
-26.7749870809
 10
-7.0828583997
 20
-26.7757418649
  0
LWPOLYLINE
  5
27A
100
AcDbEntity
  8
0
100
AcDbPolyline
 62
7
  6
CONTINUOUS
 90
8
 70
0
 10
0.7700965032
 20
-30.9452729189
 10
0.6589903
 20
-30.8950212755
 10
0.5446288348
 20
-30.8526978559
 10
0.4275770268
 20
-30.8185117282
 10
0.3084130846
 20
-30.7926317645
 10
0.1877256508
 20
-30.7751858063
 10
0.0661108932
 20
-30.7662600331
 10
-0.0558304393
 20
-30.7658985366
  0
LINE
  5
27B
100
AcDbEntity
  8
DRAFT
100
AcDbLine
 62
7
  6
CONTINUOUS
 10
-13.1623971047
 20
26.9214522078
 11
-13.1231261996
 21
27.0
  0
LINE
  5
27C
100
AcDbEntity
  8
RACCORDO
100
AcDbLine
 62
250
  6
CONTINUOUS
 10
-7.4999238476
 20
27.0
 11
-7.6308368345
 21
26.869087013
  0
LWPOLYLINE
  5
27D
100
AcDbEntity
  8
ASSI
100
AcDbPolyline
 62
7
  6
CONTINUOUS
 90
7
 70
0
 10
-7.2619412833
 20
-24.7500712997
 10
-7.3081702066
 20
-24.7517190459
 10
-7.3540217625
 20
-24.7554411667
 10
-7.3994959509
 20
-24.7612376622
 10
-7.4445927719
 20
-24.7691085323
 10
-7.4893122255
 20
-24.7790537769
 10
-7.5336543116
 20
-24.7910733962
  0
LINE
  5
27E
100
AcDbEntity
  8
ASSI
100
AcDbLine
 62
250
  6
CONTINUOUS
 10
-8.5
 20
-24.7910733962
 11
-7.5336543116
 21
-24.7910733962
  0
LINE
  5
27F
100
AcDbEntity
  8
ASSI
100
AcDbLine
 62
250
  6
CONTINUOUS
 10
7.5336543116
 20
-24.7910733962
 11
8.5
 21
-24.7910733962
  0
LINE
  5
280
100
AcDbEntity
  8
DRAFT
100
AcDbLine
 62
7
  6
CONTINUOUS
 10
-13.1466887427
 20
-24.5
 11
-12.5
 21
-24.5
  0
LINE
  5
281
100
AcDbEntity
  8
DRAFT
100
AcDbLine
 62
7
  6
CONTINUOUS
 10
13.1466887427
 20
-24.5
 11
12.5
 21
-24.5
  0
LINE
  5
282
100
AcDbEntity
  8
0
100
AcDbLine
 62
7
  6
CONTINUOUS
 10
8.5
 20
-24.5
 11
12.5
 21
-24.5
  0
LINE
  5
283
100
AcDbEntity
  8
0
100
AcDbLine
 62
7
  6
CONTINUOUS
 10
-8.5
 20
-24.5
 11
-12.5
 21
-24.5
  0
LINE
  5
284
100
AcDbEntity
  8
RACCORDO
100
AcDbLine
 62
7
  6
CONTINUOUS
 10
6.2954558678
 20
-24.3454558678
 11
-6.2954558678
 21
-24.3454558678
  0
LINE
  5
285
100
AcDbEntity
  8
DRAFT
100
AcDbLine
 62
7
  6
CONTINUOUS
 10
6.25
 20
-24.3
 11
4.2
 21
-24.3
  0
LINE
  5
286
100
AcDbEntity
  8
DRAFT
100
AcDbLine
 62
7
  6
CONTINUOUS
 10
1.6
 20
-24.3
 11
-1.6
 21
-24.3
  0
LINE
  5
287
100
AcDbEntity
  8
DRAFT
100
AcDbLine
 62
7
  6
CONTINUOUS
 10
-4.2
 20
-24.3
 11
-6.25
 21
-24.3
  0
LINE
  5
288
100
AcDbEntity
  8
0
100
AcDbLine
 62
7
  6
CONTINUOUS
 10
-4.2
 20
-23.3
 11
-1.6
 21
-23.3
  0
LINE
  5
289
100
AcDbEntity
  8
0
100
AcDbLine
 62
7
  6
CONTINUOUS
 10
1.6
 20
-23.3
 11
4.2
 21
-23.3
  0
LINE
  5
28A
100
AcDbEntity
  8
RACCORDO
100
AcDbLine
 62
250
  6
CONTINUOUS
 10
-8.5
 20
-23.2911305116
 11
-6.2911305116
 21
-23.2911305116
  0
LINE
  5
28B
100
AcDbEntity
  8
RACCORDO
100
AcDbLine
 62
250
  6
CONTINUOUS
 10
6.2911305116
 20
-23.2911305116
 11
8.5
 21
-23.2911305116
  0
LINE
  5
28C
100
AcDbEntity
  8
DRAFT
100
AcDbLine
 62
7
  6
CONTINUOUS
 10
8.5
 20
-23.2622176149
 11
8.1
 21
-23.2622176149
  0
LINE
  5
28D
100
AcDbEntity
  8
DRAFT
100
AcDbLine
 62
7
  6
CONTINUOUS
 10
-8.1
 20
-23.2622176149
 11
-8.5
 21
-23.2622176149
  0
LINE
  5
28E
100
AcDbEntity
  8
DRAFT
100
AcDbLine
 62
7
  6
CONTINUOUS
 10
8.1
 20
-23.25
 11
6.25
 21
-23.25
  0
LINE
  5
28F
100
AcDbEntity
  8
DRAFT
100
AcDbLine
 62
7
  6
CONTINUOUS
 10
-6.25
 20
-23.25
 11
-8.1
 21
-23.25
  0
LINE
  5
290
100
AcDbEntity
  8
0
100
AcDbLine
 62
7
  6
CONTINUOUS
 10
-12.5
 20
-23.1
 11
-10.35
 21
-23.1
  0
LINE
  5
291
100
AcDbEntity
  8
0
100
AcDbLine
 62
7
  6
CONTINUOUS
 10
12.5
 20
-23.1
 11
10.35
 21
-23.1
  0
LINE
  5
292
100
AcDbEntity
  8
DRAFT
100
AcDbLine
 62
7
  6
CONTINUOUS
 10
15.45
 20
-23.0
 11
14.65
 21
-23.0
  0
LINE
  5
293
100
AcDbEntity
  8
DRAFT
100
AcDbLine
 62
7
  6
CONTINUOUS
 10
-14.65
 20
-23.0
 11
-15.45
 21
-23.0
  0
LINE
  5
294
100
AcDbEntity
  8
DRAFT
100
AcDbLine
 62
7
  6
CONTINUOUS
 10
13.1466887427
 20
-22.5
 11
12.5
 21
-22.5
  0
LINE
  5
295
100
AcDbEntity
  8
0
100
AcDbLine
 62
7
  6
CONTINUOUS
 10
12.5
 20
-22.5
 11
8.1
 21
-22.5
  0
LINE
  5
296
100
AcDbEntity
  8
0
100
AcDbLine
 62
7
  6
CONTINUOUS
 10
-8.1
 20
-22.5
 11
-12.5
 21
-22.5
  0
LINE
  5
297
100
AcDbEntity
  8
DRAFT
100
AcDbLine
 62
7
  6
CONTINUOUS
 10
-12.5
 20
-22.5
 11
-13.1466887427
 21
-22.5
  0
LINE
  5
298
100
AcDbEntity
  8
DRAFT
100
AcDbLine
 62
7
  6
CONTINUOUS
 10
-13.1
 20
-22.4
 11
-12.75
 21
-22.4
  0
LINE
  5
299
100
AcDbEntity
  8
DRAFT
100
AcDbLine
 62
7
  6
CONTINUOUS
 10
12.75
 20
-22.4
 11
13.1
 21
-22.4
  0
LINE
  5
29A
100
AcDbEntity
  8
RACCORDO
100
AcDbLine
 62
250
  6
CONTINUOUS
 10
-7.4999238476
 20
-27.0
 11
-7.6308368345
 21
-26.869087013
  0
LINE
  5
29B
100
AcDbEntity
  8
DRAFT
100
AcDbLine
 62
7
  6
CONTINUOUS
 10
-13.1623971047
 20
-26.9214522078
 11
-13.1231261996
 21
-27.0
  0
LINE
  5
29C
100
AcDbEntity
  8
0
100
AcDbLine
 62
7
  6
CONTINUOUS
 10
-3.2
 20
27.15
 11
-3.35
 21
27.0
  0
LINE
  5
29D
100
AcDbEntity
  8
DRAFT
100
AcDbLine
 62
7
  6
CONTINUOUS
 10
-3.35
 20
27.0
 11
-4.1940475203
 21
26.1559524797
  0
LINE
  5
29E
100
AcDbEntity
  8
DRAFT
100
AcDbLine
 62
7
  6
CONTINUOUS
 10
-15.45
 20
-21.5
 11
-14.65
 21
-21.5
  0
LINE
  5
29F
100
AcDbEntity
  8
DRAFT
100
AcDbLine
 62
7
  6
CONTINUOUS
 10
14.65
 20
-21.5
 11
15.45
 21
-21.5
  0
LWPOLYLINE
  5
2A0
100
AcDbEntity
  8
ASSI
100
AcDbPolyline
 62
7
  6
CONTINUOUS
 90
7
 70
0
 10
7.5336543116
 20
-24.7910733962
 10
7.4892529969
 20
-24.7790448251
 10
7.4444980062
 20
-24.7690942094
 10
7.3993893394
 20
-24.7612215489
 10
7.3539269967
 20
-24.7554268439
 10
7.308110978
 20
-24.7517100941
 10
7.2619412833
 20
-24.7500712997
  0
LINE
  5
2A1
100
AcDbEntity
  8
0
100
AcDbLine
 62
7
  6
CONTINUOUS
 10
-3.2
 20
-27.15
 11
-3.35
 21
-27.0
  0
LINE
  5
2A2
100
AcDbEntity
  8
DRAFT
100
AcDbLine
 62
7
  6
CONTINUOUS
 10
-3.35
 20
-27.0
 11
-4.1940475203
 21
-26.1559524797
  0
LINE
  5
2A3
100
AcDbEntity
  8
DRAFT
100
AcDbLine
 62
7
  6
CONTINUOUS
 10
-16.75
 20
-33.1
 11
-16.75
 21
33.1
  0
LINE
  5
2A4
100
AcDbEntity
  8
DRAFT
100
AcDbLine
 62
7
  6
CONTINUOUS
 10
-15.2920471214
 20
-28.0
 11
-15.3362647374
 21
-25.1336793649
  0
LINE
  5
2A5
100
AcDbEntity
  8
DRAFT
100
AcDbLine
 62
7
  6
CONTINUOUS
 10
-15.2689072036
 20
-29.5
 11
-15.2264840209
 21
-32.25
  0
LINE
  5
2A6
100
AcDbEntity
  8
RACCORDO
100
AcDbLine
 62
7
  6
CONTINUOUS
 10
-14.6726915844
 20
25.1336793649
 11
-14.6769801183
 21
26.5270562707
  0
LINE
  5
2A7
100
AcDbEntity
  8
DRAFT
100
AcDbLine
 62
7
  6
CONTINUOUS
 10
-15.45
 20
28.0
 11
-15.45
 21
23.0
  0
LINE
  5
2A8
100
AcDbEntity
  8
DRAFT
100
AcDbLine
 62
7
  6
CONTINUOUS
 10
-15.45
 20
21.5
 11
-15.45
 21
11.5
  0
LINE
  5
2A9
100
AcDbEntity
  8
DRAFT
100
AcDbLine
 62
7
  6
CONTINUOUS
 10
-15.45
 20
10.0
 11
-15.45
 21
0.75
  0
LINE
  5
2AA
100
AcDbEntity
  8
DRAFT
100
AcDbLine
 62
7
  6
CONTINUOUS
 10
-15.45
 20
-0.75
 11
-15.45
 21
-10.0
  0
LINE
  5
2AB
100
AcDbEntity
  8
DRAFT
100
AcDbLine
 62
7
  6
CONTINUOUS
 10
-15.45
 20
-11.5
 11
-15.45
 21
-21.5
  0
LINE
  5
2AC
100
AcDbEntity
  8
DRAFT
100
AcDbLine
 62
7
  6
CONTINUOUS
 10
-15.45
 20
-23.0
 11
-15.45
 21
-28.0
  0
LINE
  5
2AD
100
AcDbEntity
  8
DRAFT
100
AcDbLine
 62
7
  6
CONTINUOUS
 10
-15.45
 20
-29.5
 11
-15.45
 21
-32.25
  0
LINE
  5
2AE
100
AcDbEntity
  8
DRAFT
100
AcDbLine
 62
7
  6
CONTINUOUS
 10
-15.45
 20
29.5
 11
-15.45
 21
32.25
  0
LINE
  5
2AF
100
AcDbEntity
  8
DRAFT
100
AcDbLine
 62
7
  6
CONTINUOUS
 10
-15.3362647374
 20
25.1336793649
 11
-15.3362647374
 21
23.0
  0
LINE
  5
2B0
100
AcDbEntity
  8
DRAFT
100
AcDbLine
 62
7
  6
CONTINUOUS
 10
-15.3362647374
 20
21.5
 11
-15.3362647374
 21
11.5
  0
LINE
  5
2B1
100
AcDbEntity
  8
DRAFT
100
AcDbLine
 62
7
  6
CONTINUOUS
 10
-15.3362647374
 20
10.0
 11
-15.3362647374
 21
0.75
  0
LINE
  5
2B2
100
AcDbEntity
  8
DRAFT
100
AcDbLine
 62
7
  6
CONTINUOUS
 10
-15.3362647374
 20
-0.75
 11
-15.3362647374
 21
-10.0
  0
LINE
  5
2B3
100
AcDbEntity
  8
DRAFT
100
AcDbLine
 62
7
  6
CONTINUOUS
 10
-15.3362647374
 20
-11.5
 11
-15.3362647374
 21
-21.5
  0
LINE
  5
2B4
100
AcDbEntity
  8
DRAFT
100
AcDbLine
 62
7
  6
CONTINUOUS
 10
-15.3362647374
 20
-23.0
 11
-15.3362647374
 21
-25.1336793649
  0
LINE
  5
2B5
100
AcDbEntity
  8
DRAFT
100
AcDbLine
 62
7
  6
CONTINUOUS
 10
-14.6726915844
 20
-25.1336793649
 11
-14.6726915844
 21
-23.0
  0
LINE
  5
2B6
100
AcDbEntity
  8
DRAFT
100
AcDbLine
 62
7
  6
CONTINUOUS
 10
-14.6726915844
 20
-21.5
 11
-14.6726915844
 21
-11.5
  0
LINE
  5
2B7
100
AcDbEntity
  8
DRAFT
100
AcDbLine
 62
7
  6
CONTINUOUS
 10
-14.6726915844
 20
-10.0
 11
-14.6726915844
 21
-0.75
  0
LINE
  5
2B8
100
AcDbEntity
  8
DRAFT
100
AcDbLine
 62
7
  6
CONTINUOUS
 10
-14.6726915844
 20
0.75
 11
-14.6726915844
 21
10.0
  0
LINE
  5
2B9
100
AcDbEntity
  8
DRAFT
100
AcDbLine
 62
7
  6
CONTINUOUS
 10
-14.6726915844
 20
11.5
 11
-14.6726915844
 21
21.5
  0
LINE
  5
2BA
100
AcDbEntity
  8
DRAFT
100
AcDbLine
 62
7
  6
CONTINUOUS
 10
-14.6726915844
 20
23.0
 11
-14.6726915844
 21
25.1336793649
  0
LINE
  5
2BB
100
AcDbEntity
  8
DRAFT
100
AcDbLine
 62
7
  6
CONTINUOUS
 10
-14.65
 20
-23.0
 11
-14.65
 21
-21.5
  0
LINE
  5
2BC
100
AcDbEntity
  8
DRAFT
100
AcDbLine
 62
7
  6
CONTINUOUS
 10
-14.65
 20
-11.5
 11
-14.65
 21
-10.0
  0
LINE
  5
2BD
100
AcDbEntity
  8
DRAFT
100
AcDbLine
 62
7
  6
CONTINUOUS
 10
-14.65
 20
-0.75
 11
-14.65
 21
0.75
  0
LINE
  5
2BE
100
AcDbEntity
  8
DRAFT
100
AcDbLine
 62
7
  6
CONTINUOUS
 10
-14.65
 20
10.0
 11
-14.65
 21
11.5
  0
LINE
  5
2BF
100
AcDbEntity
  8
DRAFT
100
AcDbLine
 62
7
  6
CONTINUOUS
 10
-14.65
 20
21.5
 11
-14.65
 21
23.0
  0
LINE
  5
2C0
100
AcDbEntity
  8
RACCORDO
100
AcDbLine
 62
7
  6
CONTINUOUS
 10
-14.519087013
 20
26.3691631655
 11
-14.519087013
 21
-26.3691631655
  0
LINE
  5
2C1
100
AcDbEntity
  8
RACCORDO
100
AcDbLine
 62
250
  6
CONTINUOUS
 10
-14.1798889187
 20
26.65
 11
-14.1798889187
 21
-26.65
  0
LINE
  5
2C2
100
AcDbEntity
  8
RACCORDO
100
AcDbLine
 62
7
  6
CONTINUOUS
 10
-14.6726915844
 20
-25.1336793649
 11
-14.6769801183
 21
-26.5270562707
  0
LINE
  5
2C3
100
AcDbEntity
  8
DRAFT
100
AcDbLine
 62
7
  6
CONTINUOUS
 10
-15.2920471214
 20
28.0
 11
-15.3362647374
 21
25.1336793649
  0
LINE
  5
2C4
100
AcDbEntity
  8
DRAFT
100
AcDbLine
 62
7
  6
CONTINUOUS
 10
-15.2689072036
 20
29.5
 11
-15.2264840209
 21
32.25
  0
LINE
  5
2C5
100
AcDbEntity
  8
0
100
AcDbLine
 62
7
  6
CONTINUOUS
 10
-0.5519584309
 20
31.4565594813
 11
-0.8112670934
 21
30.9663537881
  0
LINE
  5
2C6
100
AcDbEntity
  8
0
100
AcDbLine
 62
7
  6
CONTINUOUS
 10
10.743747
 20
-29.397016
 11
11.867785
 21
-30.287506
  0
LINE
  5
2C7
100
AcDbEntity
  8
0
100
AcDbLine
 62
7
  6
CONTINUOUS
 10
12.551914
 20
-30.287506
 11
11.073194
 21
-29.116041
  0
LINE
  5
2C8
100
AcDbEntity
  8
RACCORDO
100
AcDbLine
 62
7
  6
CONTINUOUS
 10
-13.1799269956
 20
26.15
 11
-13.1799269956
 21
-26.15
  0
LINE
  5
2C9
100
AcDbEntity
  8
DRAFT
100
AcDbLine
 62
7
  6
CONTINUOUS
 10
-13.1466887427
 20
-24.5
 11
-13.1466887427
 21
-22.5
  0
LINE
  5
2CA
100
AcDbEntity
  8
DRAFT
100
AcDbLine
 62
7
  6
CONTINUOUS
 10
-13.1466887427
 20
22.5
 11
-13.1466887427
 21
24.5
  0
LINE
  5
2CB
100
AcDbEntity
  8
DRAFT
100
AcDbLine
 62
7
  6
CONTINUOUS
 10
-13.110035898
 20
-27.0
 11
-13.110035898
 21
-26.9214522078
  0
LINE
  5
2CC
100
AcDbEntity
  8
DRAFT
100
AcDbLine
 62
7
  6
CONTINUOUS
 10
-13.110035898
 20
26.9214522078
 11
-13.110035898
 21
27.0
  0
LINE
  5
2CD
100
AcDbEntity
  8
DRAFT
100
AcDbLine
 62
7
  6
CONTINUOUS
 10
-13.1
 20
-22.5
 11
-13.1
 21
22.5
  0
LINE
  5
2CE
100
AcDbEntity
  8
0
100
AcDbLine
 62
7
  6
CONTINUOUS
 10
-12.75
 20
-22.4
 11
-12.75
 21
22.4
  0
LINE
  5
2CF
100
AcDbEntity
  8
0
100
AcDbLine
 62
7
  6
CONTINUOUS
 10
-12.5
 20
-22.5
 11
-12.5
 21
-24.5
  0
LINE
  5
2D0
100
AcDbEntity
  8
0
100
AcDbLine
 62
7
  6
CONTINUOUS
 10
-12.5
 20
22.5
 11
-12.5
 21
24.5
  0
LINE
  5
2D1
100
AcDbEntity
  8
RACCORDO
100
AcDbLine
 62
7
  6
CONTINUOUS
 10
-11.6
 20
-37.0
 11
-11.6
 21
-36.1
  0
LINE
  5
2D2
100
AcDbEntity
  8
RACCORDO
100
AcDbLine
 62
7
  6
CONTINUOUS
 10
-11.6
 20
36.1
 11
-11.6
 21
37.0
  0
LINE
  5
2D3
100
AcDbEntity
  8
RACCORDO
100
AcDbLine
 62
7
  6
CONTINUOUS
 10
-13.096141267
 20
25.5076536684
 11
-13.0963123336
 21
26.15
  0
LINE
  5
2D4
100
AcDbEntity
  8
RACCORDO
100
AcDbLine
 62
7
  6
CONTINUOUS
 10
-13.0976918266
 20
24.5
 11
-13.0961417344
 21
25.5073499594
  0
LINE
  5
2D5
100
AcDbEntity
  8
RACCORDO
100
AcDbLine
 62
7
  6
CONTINUOUS
 10
-13.0963124397
 20
-26.15
 11
-13.0976918266
 21
-24.5
  0
LWPOLYLINE
  5
2D6
100
AcDbEntity
  8
ASSI
100
AcDbPolyline
 62
7
  6
CONTINUOUS
 90
7
 70
0
 10
6.4418522566
 20
24.4921016034
 10
6.3767130795
 20
24.4265936857
 10
6.3495086217
 20
24.3997964859
 10
6.3276130805
 20
24.3776130805
 10
6.311585093
 20
24.3606884657
 10
6.3008660222
 20
24.3497466031
 10
6.2954558678
 20
24.3454558678
  0
LWPOLYLINE
  5
2D7
100
AcDbEntity
  8
ASSI
100
AcDbPolyline
 62
7
  6
CONTINUOUS
 90
3
 70
0
 10
6.5629276534
 20
24.6131132647
 10
6.4797869758
 20
24.529714554
 10
6.4418522566
 20
24.4921016034
  0
LWPOLYLINE
  5
2D8
100
AcDbEntity
  8
ASSI
100
AcDbPolyline
 62
7
  6
CONTINUOUS
 90
3
 70
0
 10
6.7531101752
 20
24.8036291617
 10
6.6081336117
 20
24.658074444
 10
6.5629276534
 20
24.6131132647
  0
LINE
  5
2D9
100
AcDbEntity
  8
RACCORDO
100
AcDbLine
 62
7
  6
CONTINUOUS
 10
6.25
 20
24.3
 11
6.2954558678
 21
24.3454558678
  0
LINE
  5
2DA
100
AcDbEntity
  8
RACCORDO
100
AcDbLine
 62
7
  6
CONTINUOUS
 10
6.25
 20
23.25
 11
6.2911305116
 21
23.2911305116
  0
LINE
  5
2DB
100
AcDbEntity
  8
ASSI
100
AcDbLine
 62
7
  6
CONTINUOUS
 10
6.8046456161
 20
24.8546456161
 11
6.7531101752
 21
24.8036291617
  0
LINE
  5
2DC
100
AcDbEntity
  8
DRAFT
100
AcDbLine
 62
7
  6
CONTINUOUS
 10
15.45
 20
-11.5
 11
14.65
 21
-11.5
  0
LINE
  5
2DD
100
AcDbEntity
  8
DRAFT
100
AcDbLine
 62
7
  6
CONTINUOUS
 10
-14.65
 20
-11.5
 11
-15.45
 21
-11.5
  0
LWPOLYLINE
  5
2DE
100
AcDbEntity
  8
ASSI
100
AcDbPolyline
 62
7
  6
CONTINUOUS
 90
6
 70
0
 10
6.3767130795
 20
-24.4265936857
 10
6.3495086217
 20
-24.3997964859
 10
6.3276130805
 20
-24.3776130805
 10
6.311585093
 20
-24.3606884657
 10
6.3008660222
 20
-24.3497466031
 10
6.2954558678
 20
-24.3454558678
  0
LINE
  5
2DF
100
AcDbEntity
  8
ASSI
100
AcDbLine
 62
7
  6
CONTINUOUS
 10
6.8046456161
 20
-24.8546456161
 11
6.7531101752
 21
-24.8036291617
  0
LWPOLYLINE
  5
2E0
100
AcDbEntity
  8
ASSI
100
AcDbPolyline
 62
7
  6
CONTINUOUS
 90
3
 70
0
 10
6.4797869758
 20
-24.529714554
 10
6.4418522566
 20
-24.4921016034
 10
6.3767130795
 20
-24.4265936857
  0
LINE
  5
2E1
100
AcDbEntity
  8
RACCORDO
100
AcDbLine
 62
7
  6
CONTINUOUS
 10
6.25
 20
-24.3
 11
6.2954558678
 21
-24.3454558678
  0
LINE
  5
2E2
100
AcDbEntity
  8
RACCORDO
100
AcDbLine
 62
7
  6
CONTINUOUS
 10
6.25
 20
-23.25
 11
6.2911305116
 21
-23.2911305116
  0
LINE
  5
2E3
100
AcDbEntity
  8
ASSI
100
AcDbLine
 62
7
  6
CONTINUOUS
 10
6.5629276534
 20
-24.6131132647
 11
6.4797869758
 21
-24.529714554
  0
LWPOLYLINE
  5
2E4
100
AcDbEntity
  8
ASSI
100
AcDbPolyline
 62
7
  6
CONTINUOUS
 90
3
 70
0
 10
6.7531101752
 20
-24.8036291617
 10
6.6549897084
 20
-24.7049897084
 10
6.5629276534
 20
-24.6131132647
  0
LWPOLYLINE
  5
2E5
100
AcDbEntity
  8
0
100
AcDbPolyline
 62
7
  6
CONTINUOUS
 90
28
 70
0
 10
0.9099931548
 20
-32.0510847682
 10
0.9439533571
 20
-32.1216456701
 10
0.97222695
 20
-32.1941657423
 10
0.9947602329
 20
-32.2681725947
 10
1.0114826779
 20
-32.3428993608
 10
1.0225172889
 20
-32.418184779
 10
1.0279534171
 20
-32.4945154754
 10
1.027665778
 20
-32.5717257543
 10
1.0215427859
 20
-32.6491335619
 10
1.0094993315
 20
-32.72646532
 10
0.9914083461
 20
-32.8035153304
 10
0.967279983
 20
-32.8795451741
 10
0.9373868993
 20
-32.9535020776
 10
0.9019284671
 20
-33.0249336507
 10
0.8611162942
 20
-33.0934484336
 10
0.8155359747
 20
-33.1582119322
 10
0.7658329849
 20
-33.2186270728
 10
0.7121742015
 20
-33.2747793236
 10
0.6544493412
 20
-33.3268775702
 10
0.592903453
 20
-33.374677795
 10
0.5279243081
 20
-33.4178574163
 10
0.4594840755
 20
-33.4563688473
 10
0.38761599
 20
-33.4900354731
 10
0.3129436298
 20
-33.5184117683
 10
0.2363560476
 20
-33.5411108584
 10
0.1584600385
 20
-33.5579866595
 10
0.0795279054
 20
-33.5690134539
 10
0.0
 20
-33.5741430217
  0
LINE
  5
2E6
100
AcDbEntity
  8
ASSI
100
AcDbLine
 62
7
  6
CONTINUOUS
 10
-10.867554
 20
-33.048037
 11
-10.867554
 21
-32.29722
  0
LINE
  5
2E7
100
AcDbEntity
  8
ASSI
100
AcDbLine
 62
7
  6
CONTINUOUS
 10
-10.867554
 20
-28.70278
 11
-10.867554
 21
-27.951963
  0
LINE
  5
2E8
100
AcDbEntity
  8
0
100
AcDbLine
 62
7
  6
CONTINUOUS
 10
-10.35
 20
-22.5
 11
-10.35
 21
-24.5
  0
LINE
  5
2E9
100
AcDbEntity
  8
0
100
AcDbLine
 62
7
  6
CONTINUOUS
 10
-10.35
 20
22.5
 11
-10.35
 21
24.5
  0
LINE
  5
2EA
100
AcDbEntity
  8
RACCORDO
100
AcDbLine
 62
7
  6
CONTINUOUS
 10
-8.6
 20
-36.1
 11
-8.6
 21
-37.0
  0
LINE
  5
2EB
100
AcDbEntity
  8
RACCORDO
100
AcDbLine
 62
7
  6
CONTINUOUS
 10
-8.6
 20
36.1
 11
-8.6
 21
37.0
  0
LINE
  5
2EC
100
AcDbEntity
  8
RACCORDO
100
AcDbLine
 62
7
  6
CONTINUOUS
 10
-8.5
 20
-23.2622176149
 11
-8.5
 21
-26.65
  0
LINE
  5
2ED
100
AcDbEntity
  8
DRAFT
100
AcDbLine
 62
7
  6
CONTINUOUS
 10
-8.5
 20
-26.9214522078
 11
-8.5
 21
-27.0
  0
LINE
  5
2EE
100
AcDbEntity
  8
RACCORDO
100
AcDbLine
 62
7
  6
CONTINUOUS
 10
-8.5
 20
23.2622176149
 11
-8.5
 21
26.65
  0
LINE
  5
2EF
100
AcDbEntity
  8
DRAFT
100
AcDbLine
 62
7
  6
CONTINUOUS
 10
-8.5
 20
26.9214522078
 11
-8.5
 21
27.0
  0
LINE
  5
2F0
100
AcDbEntity
  8
ASSI
100
AcDbLine
 62
7
  6
CONTINUOUS
 10
6.9864001589
 20
24.4110265731
 11
7.2619412833
 21
24.7500712997
  0
LINE
  5
2F1
100
AcDbEntity
  8
RACCORDO
100
AcDbLine
 62
250
  6
CONTINUOUS
 10
14.0191631655
 20
26.869087013
 11
14.1500761524
 21
27.0
  0
LINE
  5
2F2
100
AcDbEntity
  8
RACCORDO
100
AcDbLine
 62
250
  6
CONTINUOUS
 10
14.519087013
 20
26.3691631655
 11
14.6769801183
 21
26.5270562707
  0
LINE
  5
2F3
100
AcDbEntity
  8
DRAFT
100
AcDbLine
 62
7
  6
CONTINUOUS
 10
-15.45
 20
-10.0
 11
-14.65
 21
-10.0
  0
LINE
  5
2F4
100
AcDbEntity
  8
DRAFT
100
AcDbLine
 62
7
  6
CONTINUOUS
 10
14.65
 20
-10.0
 11
15.45
 21
-10.0
  0
LINE
  5
2F5
100
AcDbEntity
  8
RACCORDO
100
AcDbLine
 62
250
  6
CONTINUOUS
 10
14.0191631655
 20
-26.869087013
 11
14.1500761524
 21
-27.0
  0
LINE
  5
2F6
100
AcDbEntity
  8
RACCORDO
100
AcDbLine
 62
250
  6
CONTINUOUS
 10
14.519087013
 20
-26.3691631655
 11
14.6769801183
 21
-26.5270562707
  0
LINE
  5
2F7
100
AcDbEntity
  8
ASSI
100
AcDbLine
 62
7
  6
CONTINUOUS
 10
7.2619412833
 20
-24.7500712997
 11
6.9881262043
 21
-24.4131677026
  0
LWPOLYLINE
  5
2F8
100
AcDbEntity
  8
ASSI
100
AcDbPolyline
 62
7
  6
CONTINUOUS
 90
16
 70
0
 10
6.9881262043
 20
-24.4131677026
 10
6.9045008278
 20
-24.3092496797
 10
6.8255538183
 20
-24.2096475239
 10
6.7513717728
 20
-24.1151069102
 10
6.6823723711
 20
-24.0258381568
 10
6.6187897972
 20
-23.9416309456
 10
6.5604550054
 20
-23.8625999969
 10
6.5076737438
 20
-23.788842516
 10
6.460579499
 20
-23.7202612977
 10
6.418918003
 20
-23.6566794466
 10
6.3829631271
 20
-23.5980322859
 10
6.3529466328
 20
-23.5443844924
 10
6.3288478405
 20
-23.4957532021
 10
6.3109748252
 20
-23.4521441269
 10
6.2997482028
 20
-23.4135515549
 10
6.2954558678
 20
-23.379975486
  0
LINE
  5
2F9
100
AcDbEntity
  8
DRAFT
100
AcDbLine
 62
7
  6
CONTINUOUS
 10
-8.1
 20
-23.2622176149
 11
-8.1
 21
-22.5
  0
LINE
  5
2FA
100
AcDbEntity
  8
DRAFT
100
AcDbLine
 62
7
  6
CONTINUOUS
 10
-8.1
 20
22.5
 11
-8.1
 21
23.2622176149
  0
LINE
  5
2FB
100
AcDbEntity
  8
ASSI
100
AcDbLine
 62
7
  6
CONTINUOUS
 10
-6.882444
 20
-30.875
 11
-6.882444
 21
-30.125
  0
LINE
  5
2FC
100
AcDbEntity
  8
ASSI
100
AcDbLine
 62
7
  6
CONTINUOUS
 10
-6.482444
 20
-33.0480371177
 11
-6.482444
 21
-32.2972169516
  0
LINE
  5
2FD
100
AcDbEntity
  8
ASSI
100
AcDbLine
 62
7
  6
CONTINUOUS
 10
-6.482444
 20
-28.70278
 11
-6.482444
 21
-27.9519628823
  0
LINE
  5
2FE
100
AcDbEntity
  8
RACCORDO
100
AcDbLine
 62
7
  6
CONTINUOUS
 10
-6.2954558678
 20
-24.3454558678
 11
-6.2954558678
 21
-23.379975486
  0
LINE
  5
2FF
100
AcDbEntity
  8
RACCORDO
100
AcDbLine
 62
7
  6
CONTINUOUS
 10
-6.2954558678
 20
23.379975486
 11
-6.2954558678
 21
24.3454558678
  0
LINE
  5
300
100
AcDbEntity
  8
DRAFT
100
AcDbLine
 62
7
  6
CONTINUOUS
 10
-6.25
 20
-24.3
 11
-6.25
 21
-23.25
  0
LINE
  5
301
100
AcDbEntity
  8
DRAFT
100
AcDbLine
 62
7
  6
CONTINUOUS
 10
-6.25
 20
23.25
 11
-6.25
 21
24.3
  0
LINE
  5
302
100
AcDbEntity
  8
DRAFT
100
AcDbLine
 62
7
  6
CONTINUOUS
 10
-4.5
 20
-36.7
 11
-4.5
 21
-36.1
  0
LINE
  5
303
100
AcDbEntity
  8
DRAFT
100
AcDbLine
 62
7
  6
CONTINUOUS
 10
-4.5
 20
36.1
 11
-4.5
 21
36.7
  0
LINE
  5
304
100
AcDbEntity
  8
DRAFT
100
AcDbLine
 62
7
  6
CONTINUOUS
 10
-4.2
 20
24.3379777618
 11
-4.2
 21
23.3
  0
LINE
  5
305
100
AcDbEntity
  8
DRAFT
100
AcDbLine
 62
7
  6
CONTINUOUS
 10
-4.2
 20
-23.3
 11
-4.2
 21
-24.3379777618
  0
LINE
  5
306
100
AcDbEntity
  8
DRAFT
100
AcDbLine
 62
7
  6
CONTINUOUS
 10
-3.25
 20
39.0
 11
-3.25
 21
36.7
  0
LINE
  5
307
100
AcDbEntity
  8
DRAFT
100
AcDbLine
 62
7
  6
CONTINUOUS
 10
-3.25
 20
-36.7
 11
-3.25
 21
-39.0
  0
LINE
  5
308
100
AcDbEntity
  8
RACCORDO
100
AcDbLine
 62
7
  6
CONTINUOUS
 10
-3.0
 20
26.1529762399
 11
-3.0
 21
26.1559524797
  0
LWPOLYLINE
  5
309
100
AcDbEntity
  8
ASSI
100
AcDbPolyline
 62
7
  6
CONTINUOUS
 90
16
 70
0
 10
-6.2954558678
 20
-23.379975486
 10
-6.2992809683
 20
-23.4108475063
 10
-6.3094574365
 20
-23.4473758729
 10
-6.3260711779
 20
-23.4895605858
 10
-6.3492135503
 20
-23.5375259504
 10
-6.378854788
 20
-23.5911476614
 10
-6.4147260818
 20
-23.6500528027
 10
-6.4564705132
 20
-23.7141871233
 10
-6.5039603076
 20
-23.7836048743
 10
-6.5571829003
 20
-23.8580958929
 10
-6.6157989088
 20
-23.9375950776
 10
-6.6795774285
 20
-24.0221675298
 10
-6.748796708
 20
-24.1117983914
 10
-6.8232287371
 20
-24.2066941589
 10
-6.9024253547
 20
-24.3066483358
 10
-6.9864001589
 20
-24.4110265731
  0
LWPOLYLINE
  5
30A
100
AcDbEntity
  8
0
100
AcDbPolyline
 62
7
  6
CONTINUOUS
 90
9
 70
0
 10
1.0797904427
 20
-32.5871085552
 10
1.0746304136
 20
-32.5141315002
 10
1.0645827843
 20
-32.4422444212
 10
1.0497708098
 20
-32.3717716625
 10
1.0303390634
 20
-32.3030259306
 10
1.0064524302
 20
-32.2363069074
 10
0.9782950112
 20
-32.1718999455
 10
0.9460689454
 20
-32.1100748525
 10
0.9099931548
 20
-32.0510847682
  0
LINE
  5
30B
100
AcDbEntity
  8
0
100
AcDbLine
 62
7
  6
CONTINUOUS
 10
-1.0799618461
 20
32.6608410672
 11
-1.0797904427
 21
32.5871085552
  0
LINE
  5
30C
100
AcDbEntity
  8
DRAFT
100
AcDbLine
 62
7
  6
CONTINUOUS
 10
-1.6
 20
24.3379777618
 11
-1.6
 21
23.3
  0
LINE
  5
30D
100
AcDbEntity
  8
DRAFT
100
AcDbLine
 62
7
  6
CONTINUOUS
 10
-1.6
 20
-23.3
 11
-1.6
 21
-24.3379777618
  0
LINE
  5
30E
100
AcDbEntity
  8
0
100
AcDbLine
 62
7
  6
CONTINUOUS
 10
-0.75
 20
28.0
 11
-0.75
 21
27.15
  0
LINE
  5
30F
100
AcDbEntity
  8
0
100
AcDbLine
 62
7
  6
CONTINUOUS
 10
-0.75
 20
-28.0
 11
-0.75
 21
-27.15
  0
LINE
  5
310
100
AcDbEntity
  8
DRAFT
100
AcDbLine
 62
7
  6
CONTINUOUS
 10
15.45
 20
-0.75
 11
14.65
 21
-0.75
  0
LINE
  5
311
100
AcDbEntity
  8
DRAFT
100
AcDbLine
 62
7
  6
CONTINUOUS
 10
-14.65
 20
-0.75
 11
-15.45
 21
-0.75
  0
LWPOLYLINE
  5
312
100
AcDbEntity
  8
0
100
AcDbPolyline
 62
7
  6
CONTINUOUS
 90
9
 70
0
 10
-1.0797904427
 20
32.5871085552
 10
-1.0746304136
 20
32.5141315002
 10
-1.0645827843
 20
32.4422444212
 10
-1.0497708098
 20
32.3717716625
 10
-1.0303390634
 20
32.3030259306
 10
-1.0064524302
 20
32.2363069074
 10
-0.9782950112
 20
32.1718999455
 10
-0.9460689454
 20
32.1100748525
 10
-0.9099931548
 20
32.0510847682
  0
LINE
  5
313
100
AcDbEntity
  8
0
100
AcDbLine
 62
7
  6
CONTINUOUS
 10
1.0799618461
 20
-32.6608410672
 11
1.0797904427
 21
-32.5871085552
  0
LINE
  5
314
100
AcDbEntity
  8
0
100
AcDbLine
 62
7
  6
CONTINUOUS
 10
0.75
 20
-27.15
 11
0.75
 21
-28.0
  0
LINE
  5
315
100
AcDbEntity
  8
0
100
AcDbLine
 62
7
  6
CONTINUOUS
 10
0.75
 20
27.15
 11
0.75
 21
28.0
  0
LINE
  5
316
100
AcDbEntity
  8
DRAFT
100
AcDbLine
 62
7
  6
CONTINUOUS
 10
1.6
 20
24.3379777618
 11
1.6
 21
23.3
  0
LINE
  5
317
100
AcDbEntity
  8
DRAFT
100
AcDbLine
 62
7
  6
CONTINUOUS
 10
1.6
 20
-23.3
 11
1.6
 21
-24.3379777618
  0
LINE
  5
318
100
AcDbEntity
  8
RACCORDO
100
AcDbLine
 62
7
  6
CONTINUOUS
 10
3.0
 20
-26.1529762399
 11
3.0
 21
-26.1559524797
  0
LINE
  5
319
100
AcDbEntity
  8
DRAFT
100
AcDbLine
 62
7
  6
CONTINUOUS
 10
-15.45
 20
0.75
 11
-14.65
 21
0.75
  0
LINE
  5
31A
100
AcDbEntity
  8
DRAFT
100
AcDbLine
 62
7
  6
CONTINUOUS
 10
14.65
 20
0.75
 11
15.45
 21
0.75
  0
LWPOLYLINE
  5
31B
100
AcDbEntity
  8
0
100
AcDbPolyline
 62
7
  6
CONTINUOUS
 90
13
 70
0
 10
7.9812558842
 20
-32.2235700973
 10
7.9841461057
 20
-32.2638533567
 10
7.9915944726
 20
-32.3020939363
 10
8.003600985
 20
-32.3382918359
 10
8.0206071565
 20
-32.3730080733
 10
8.0421714734
 20
-32.4056816307
 10
8.0669693948
 20
-32.4346294555
 10
8.0951347701
 20
-32.4595853404
 10
8.1265337498
 20
-32.4808154927
 10
8.1594402444
 20
-32.4974354807
 10
8.1932788906
 20
-32.5091504939
 10
8.2286250517
 20
-32.5162553428
 10
8.2654787277
 20
-32.5187500274
  0
LWPOLYLINE
  5
31C
100
AcDbEntity
  8
0
100
AcDbPolyline
 62
7
  6
CONTINUOUS
 90
13
 70
0
 10
7.9812558842
 20
-29.4720315443
 10
7.9837463741
 20
-29.5088742681
 10
7.9908482559
 20
-29.5442136402
 10
8.0025615295
 20
-29.5780496606
 10
8.0191824379
 20
-29.6109598905
 10
8.0404147381
 20
-29.6423667688
 10
8.0653697018
 20
-29.6705376122
 10
8.0943090242
 20
-29.6953349059
 10
8.1269710101
 20
-29.7168961648
 10
8.1616818454
 20
-29.7339012502
 10
8.1978835921
 20
-29.7459101156
 10
8.2361341882
 20
-29.7533628075
 10
8.2764336337
 20
-29.7562593257
  0
LINE
  5
31D
100
AcDbEntity
  8
DRAFT
100
AcDbLine
 62
7
  6
CONTINUOUS
 10
3.25
 20
39.0
 11
3.25
 21
36.7
  0
LINE
  5
31E
100
AcDbEntity
  8
DRAFT
100
AcDbLine
 62
7
  6
CONTINUOUS
 10
3.25
 20
-36.7
 11
3.25
 21
-39.0
  0
LINE
  5
31F
100
AcDbEntity
  8
DRAFT
100
AcDbLine
 62
7
  6
CONTINUOUS
 10
4.2
 20
24.3379777618
 11
4.2
 21
23.3
  0
LINE
  5
320
100
AcDbEntity
  8
DRAFT
100
AcDbLine
 62
7
  6
CONTINUOUS
 10
4.2
 20
-23.3
 11
4.2
 21
-24.3379777618
  0
LINE
  5
321
100
AcDbEntity
  8
DRAFT
100
AcDbLine
 62
7
  6
CONTINUOUS
 10
4.5
 20
36.7
 11
4.5
 21
36.1
  0
LINE
  5
322
100
AcDbEntity
  8
DRAFT
100
AcDbLine
 62
7
  6
CONTINUOUS
 10
4.5
 20
-36.1
 11
4.5
 21
-36.7
  0
LWPOLYLINE
  5
323
100
AcDbEntity
  8
ASSI
100
AcDbPolyline
 62
7
  6
CONTINUOUS
 90
16
 70
0
 10
6.2954558678
 20
23.379975486
 10
6.2992809683
 20
23.4108475063
 10
6.3094574365
 20
23.4473758729
 10
6.3260711779
 20
23.4895605858
 10
6.3492135503
 20
23.5375259504
 10
6.378854788
 20
23.5911476614
 10
6.4147260818
 20
23.6500528027
 10
6.4564705132
 20
23.7141871233
 10
6.5039603076
 20
23.7836048743
 10
6.5571829003
 20
23.8580958929
 10
6.6157989088
 20
23.9375950776
 10
6.6795774285
 20
24.0221675298
 10
6.748796708
 20
24.1117983914
 10
6.8232287371
 20
24.2066941589
 10
6.9024253547
 20
24.3066483358
 10
6.9864001589
 20
24.4110265731
  0
LINE
  5
324
100
AcDbEntity
  8
DRAFT
100
AcDbLine
 62
7
  6
CONTINUOUS
 10
6.25
 20
24.3
 11
6.25
 21
23.25
  0
LINE
  5
325
100
AcDbEntity
  8
DRAFT
100
AcDbLine
 62
7
  6
CONTINUOUS
 10
6.25
 20
-23.25
 11
6.25
 21
-24.3
  0
LINE
  5
326
100
AcDbEntity
  8
RACCORDO
100
AcDbLine
 62
7
  6
CONTINUOUS
 10
6.2954558678
 20
24.3454558678
 11
6.2954558678
 21
23.379975486
  0
LINE
  5
327
100
AcDbEntity
  8
RACCORDO
100
AcDbLine
 62
7
  6
CONTINUOUS
 10
6.2954558678
 20
-23.379975486
 11
6.2954558678
 21
-24.3454558678
  0
LINE
  5
328
100
AcDbEntity
  8
0
100
AcDbLine
 62
7
  6
CONTINUOUS
 10
7.45
 20
-27.9500119635
 11
7.45
 21
-29.4791729299
  0
LINE
  5
329
100
AcDbEntity
  8
0
100
AcDbLine
 62
7
  6
CONTINUOUS
 10
7.45
 20
-31.5389320683
 11
7.45
 21
-32.2235700973
  0
LINE
  5
32A
100
AcDbEntity
  8
0
100
AcDbLine
 62
7
  6
CONTINUOUS
 10
7.9812558842
 20
-32.2235700973
 11
7.9812558842
 21
-31.5389320683
  0
LINE
  5
32B
100
AcDbEntity
  8
0
100
AcDbLine
 62
7
  6
CONTINUOUS
 10
7.9812558842
 20
-29.4720315443
 11
7.9812558842
 21
-27.9500119635
  0
LINE
  5
32C
100
AcDbEntity
  8
DRAFT
100
AcDbLine
 62
7
  6
CONTINUOUS
 10
8.1
 20
23.2622176149
 11
8.1
 21
22.5
  0
LINE
  5
32D
100
AcDbEntity
  8
DRAFT
100
AcDbLine
 62
7
  6
CONTINUOUS
 10
8.1
 20
-22.5
 11
8.1
 21
-23.2622176149
  0
LINE
  5
32E
100
AcDbEntity
  8
RACCORDO
100
AcDbLine
 62
7
  6
CONTINUOUS
 10
8.5
 20
-23.2622176149
 11
8.5
 21
-26.65
  0
LINE
  5
32F
100
AcDbEntity
  8
DRAFT
100
AcDbLine
 62
7
  6
CONTINUOUS
 10
8.5
 20
-26.9214522078
 11
8.5
 21
-27.0
  0
LINE
  5
330
100
AcDbEntity
  8
DRAFT
100
AcDbLine
 62
7
  6
CONTINUOUS
 10
8.5
 20
26.9214522078
 11
8.5
 21
27.0
  0
LINE
  5
331
100
AcDbEntity
  8
RACCORDO
100
AcDbLine
 62
7
  6
CONTINUOUS
 10
8.5
 20
23.2622176149
 11
8.5
 21
26.65
  0
LINE
  5
332
100
AcDbEntity
  8
RACCORDO
100
AcDbLine
 62
7
  6
CONTINUOUS
 10
8.6
 20
-37.0
 11
8.6
 21
-36.1
  0
LINE
  5
333
100
AcDbEntity
  8
RACCORDO
100
AcDbLine
 62
7
  6
CONTINUOUS
 10
8.6
 20
36.1
 11
8.6
 21
37.0
  0
LINE
  5
334
100
AcDbEntity
  8
RACCORDO
100
AcDbLine
 62
250
  6
CONTINUOUS
 10
-14.519087013
 20
-26.3691631655
 11
-14.6769801183
 21
-26.5270562707
  0
LINE
  5
335
100
AcDbEntity
  8
RACCORDO
100
AcDbLine
 62
250
  6
CONTINUOUS
 10
-14.6769801183
 20
26.5270562707
 11
-14.519087013
 21
26.3691631655
  0
LWPOLYLINE
  5
336
100
AcDbEntity
  8
0
100
AcDbPolyline
 62
7
  6
CONTINUOUS
 90
16
 70
0
 10
12.54999068
 20
-31.5208111192
 10
12.5454711841
 20
-31.4364276607
 10
12.5324806157
 20
-31.3543622546
 10
12.5110189749
 20
-31.2746149008
 10
12.48073119
 20
-31.1963113146
 10
12.4419723325
 20
-31.1203257808
 10
12.3958076178
 20
-31.0492811535
 10
12.3418929569
 20
-30.9833040633
 10
12.2805724386
 20
-30.9222678796
 10
12.2139435446
 20
-30.8684155647
 10
12.1418232895
 20
-30.8220566708
 10
12.0643946587
 20
-30.7828816457
 10
11.9843040899
 20
-30.7522047956
 10
11.9024337291
 20
-30.7304642224
 10
11.8179014304
 20
-30.7172218243
 10
11.7307071938
 20
-30.712477601
  0
LINE
  5
337
100
AcDbEntity
  8
0
100
AcDbLine
 62
7
  6
CONTINUOUS
 10
9.2562515927
 20
-27.9500119635
 11
9.2562515927
 21
-29.4720315443
  0
LINE
  5
338
100
AcDbEntity
  8
0
100
AcDbLine
 62
7
  6
CONTINUOUS
 10
9.7875074769
 20
-33.05
 11
9.7875074769
 21
-32.5187500274
  0
LINE
  5
339
100
AcDbEntity
  8
0
100
AcDbLine
 62
7
  6
CONTINUOUS
 10
9.7875074769
 20
-31.2437543189
 11
9.7875074769
 21
-30.7125043463
  0
LINE
  5
33A
100
AcDbEntity
  8
0
100
AcDbLine
 62
7
  6
CONTINUOUS
 10
9.7875074769
 20
-29.4791729299
 11
9.7875074769
 21
-27.9500119635
  0
LINE
  5
33B
100
AcDbEntity
  8
0
100
AcDbLine
 62
7
  6
CONTINUOUS
 10
10.212498
 20
-27.95
 11
10.212498
 21
-30.287511
  0
LINE
  5
33C
100
AcDbEntity
  8
0
100
AcDbLine
 62
7
  6
CONTINUOUS
 10
10.212498374
 20
-31.5208111192
 11
10.212498374
 21
-33.05
  0
LINE
  5
33D
100
AcDbEntity
  8
0
100
AcDbLine
 62
7
  6
CONTINUOUS
 10
10.35
 20
-22.5
 11
10.35
 21
-24.5
  0
LINE
  5
33E
100
AcDbEntity
  8
0
100
AcDbLine
 62
7
  6
CONTINUOUS
 10
10.35
 20
22.5
 11
10.35
 21
24.5
  0
LINE
  5
33F
100
AcDbEntity
  8
0
100
AcDbLine
 62
7
  6
CONTINUOUS
 10
10.7437467597
 20
-33.05
 11
10.7437467597
 21
-32.5187215213
  0
LINE
  5
340
100
AcDbEntity
  8
0
100
AcDbLine
 62
7
  6
CONTINUOUS
 10
10.7437467597
 20
-31.9874733095
 11
10.7437467597
 21
-31.5279535942
  0
LINE
  5
341
100
AcDbEntity
  8
0
100
AcDbLine
 62
7
  6
CONTINUOUS
 10
10.743747
 20
-30.287511
 11
10.743747
 21
-29.397016
  0
LINE
  5
342
100
AcDbEntity
  8
0
100
AcDbLine
 62
7
  6
CONTINUOUS
 10
10.743747
 20
-28.834658
 11
10.743747
 21
-27.95
  0
LINE
  5
343
100
AcDbEntity
  8
RACCORDO
100
AcDbLine
 62
7
  6
CONTINUOUS
 10
11.6
 20
-36.1
 11
11.6
 21
-37.0
  0
LINE
  5
344
100
AcDbEntity
  8
RACCORDO
100
AcDbLine
 62
7
  6
CONTINUOUS
 10
11.6
 20
36.1
 11
11.6
 21
37.0
  0
LWPOLYLINE
  5
345
100
AcDbEntity
  8
0
100
AcDbPolyline
 62
7
  6
CONTINUOUS
 90
16
 70
0
 10
9.7875074769
 20
-29.4791729299
 10
9.7829881098
 20
-29.5635550897
 10
9.7699975919
 20
-29.645619494
 10
9.748535923
 20
-29.7253661428
 10
9.7182480707
 20
-29.8036693543
 10
9.6794890675
 20
-29.8796548102
 10
9.6333240109
 20
-29.9506995563
 10
9.5794087476
 20
-30.0166769924
 10
9.5180874307
 20
-30.0777137187
 10
9.4514576178
 20
-30.1315665808
 10
9.3793362625
 20
-30.1779260031
 10
9.301906411
 20
-30.2171015611
 10
9.2218147592
 20
-30.2477788274
 10
9.1399435391
 20
-30.2695196594
 10
9.0554105187
 20
-30.2827621996
 10
8.968215698
 20
-30.287506448
  0
LWPOLYLINE
  5
346
100
AcDbEntity
  8
0
100
AcDbPolyline
 62
7
  6
CONTINUOUS
 90
16
 70
0
 10
7.45
 20
-31.5389320683
 10
7.4547521413
 20
-31.4512839262
 10
7.4681064666
 20
-31.3661616637
 10
7.4900629759
 20
-31.283565281
 10
7.5210962276
 20
-31.202531072
 10
7.5607316633
 20
-31.1240227427
 10
7.6075456078
 20
-31.0509314113
 10
7.6618675587
 20
-30.9835004054
 10
7.7233680184
 20
-30.9214863974
 10
7.7896348188
 20
-30.8670505222
 10
7.8607589425
 20
-30.8205944169
 10
7.936649407
 20
-30.7817164445
 10
8.0146210967
 20
-30.7513728288
 10
8.0937789729
 20
-30.7298823112
 10
8.1750180743
 20
-30.7169261503
 10
8.2583384009
 20
-30.7125043463
  0
LINE
  5
347
100
AcDbEntity
  8
ASSI
100
AcDbLine
 62
7
  6
CONTINUOUS
 10
-6.9864001589
 20
-24.4110265731
 11
-7.2619412833
 21
-24.7500712997
  0
LINE
  5
348
100
AcDbEntity
  8
RACCORDO
100
AcDbLine
 62
250
  6
CONTINUOUS
 10
-14.0191631655
 20
-26.869087013
 11
-14.1500761524
 21
-27.0
  0
LINE
  5
349
100
AcDbEntity
  8
DRAFT
100
AcDbLine
 62
7
  6
CONTINUOUS
 10
15.45
 20
10.0
 11
14.65
 21
10.0
  0
LINE
  5
34A
100
AcDbEntity
  8
DRAFT
100
AcDbLine
 62
7
  6
CONTINUOUS
 10
-14.65
 20
10.0
 11
-15.45
 21
10.0
  0
LINE
  5
34B
100
AcDbEntity
  8
DRAFT
100
AcDbLine
 62
7
  6
CONTINUOUS
 10
-15.45
 20
11.5
 11
-14.65
 21
11.5
  0
LINE
  5
34C
100
AcDbEntity
  8
DRAFT
100
AcDbLine
 62
7
  6
CONTINUOUS
 10
14.65
 20
11.5
 11
15.45
 21
11.5
  0
LINE
  5
34D
100
AcDbEntity
  8
RACCORDO
100
AcDbLine
 62
250
  6
CONTINUOUS
 10
-14.1500761524
 20
27.0
 11
-14.0191631655
 21
26.869087013
  0
LINE
  5
34E
100
AcDbEntity
  8
ASSI
100
AcDbLine
 62
7
  6
CONTINUOUS
 10
-7.2619412833
 20
24.7500712997
 11
-6.9881262043
 21
24.4131677026
  0
LWPOLYLINE
  5
34F
100
AcDbEntity
  8
ASSI
100
AcDbPolyline
 62
7
  6
CONTINUOUS
 90
16
 70
0
 10
-6.9881262043
 20
24.4131677026
 10
-6.9045008278
 20
24.3092496797
 10
-6.8255538183
 20
24.2096475239
 10
-6.7513717728
 20
24.1151069102
 10
-6.6823723711
 20
24.0258381568
 10
-6.6187897972
 20
23.9416309456
 10
-6.5604550054
 20
23.8625999969
 10
-6.5076737438
 20
23.788842516
 10
-6.460579499
 20
23.7202612977
 10
-6.418918003
 20
23.6566794466
 10
-6.3829631271
 20
23.5980322859
 10
-6.3529466328
 20
23.5443844924
 10
-6.3288478405
 20
23.4957532021
 10
-6.3109748252
 20
23.4521441269
 10
-6.2997482028
 20
23.4135515549
 10
-6.2954558678
 20
23.379975486
  0
LINE
  5
350
100
AcDbEntity
  8
0
100
AcDbLine
 62
7
  6
CONTINUOUS
 10
12.0187424682
 20
-31.5279535942
 11
12.0187424682
 21
-31.9874733095
  0
LINE
  5
351
100
AcDbEntity
  8
0
100
AcDbLine
 62
7
  6
CONTINUOUS
 10
12.0187424682
 20
-32.5187215213
 11
12.0187424682
 21
-33.05
  0
LINE
  5
352
100
AcDbEntity
  8
0
100
AcDbLine
 62
7
  6
CONTINUOUS
 10
12.5
 20
-22.5
 11
12.5
 21
-24.5
  0
LINE
  5
353
100
AcDbEntity
  8
0
100
AcDbLine
 62
7
  6
CONTINUOUS
 10
12.5
 20
22.5
 11
12.5
 21
24.5
  0
LINE
  5
354
100
AcDbEntity
  8
0
100
AcDbLine
 62
7
  6
CONTINUOUS
 10
12.54999068
 20
-33.05
 11
12.54999068
 21
-31.5208111192
  0
LINE
  5
355
100
AcDbEntity
  8
0
100
AcDbLine
 62
7
  6
CONTINUOUS
 10
12.75
 20
22.4
 11
12.75
 21
-22.4
  0
LINE
  5
356
100
AcDbEntity
  8
DRAFT
100
AcDbLine
 62
7
  6
CONTINUOUS
 10
13.1
 20
-22.5
 11
13.1
 21
22.5
  0
LINE
  5
357
100
AcDbEntity
  8
DRAFT
100
AcDbLine
 62
7
  6
CONTINUOUS
 10
13.110035898
 20
27.0
 11
13.110035898
 21
26.9214522078
  0
LINE
  5
358
100
AcDbEntity
  8
DRAFT
100
AcDbLine
 62
7
  6
CONTINUOUS
 10
13.110035898
 20
-26.9214522078
 11
13.110035898
 21
-27.0
  0
LINE
  5
359
100
AcDbEntity
  8
DRAFT
100
AcDbLine
 62
7
  6
CONTINUOUS
 10
13.1466887427
 20
24.5
 11
13.1466887427
 21
22.5
  0
LINE
  5
35A
100
AcDbEntity
  8
DRAFT
100
AcDbLine
 62
7
  6
CONTINUOUS
 10
13.1466887427
 20
-22.5
 11
13.1466887427
 21
-24.5
  0
LINE
  5
35B
100
AcDbEntity
  8
RACCORDO
100
AcDbLine
 62
7
  6
CONTINUOUS
 10
13.1799269956
 20
-26.15
 11
13.1799269956
 21
26.15
  0
LINE
  5
35C
100
AcDbEntity
  8
RACCORDO
100
AcDbLine
 62
250
  6
CONTINUOUS
 10
14.1798889187
 20
-26.65
 11
14.1798889187
 21
26.65
  0
LINE
  5
35D
100
AcDbEntity
  8
RACCORDO
100
AcDbLine
 62
7
  6
CONTINUOUS
 10
14.519087013
 20
-26.3691631655
 11
14.519087013
 21
26.3691631655
  0
LINE
  5
35E
100
AcDbEntity
  8
RACCORDO
100
AcDbLine
 62
7
  6
CONTINUOUS
 10
13.096141267
 20
-25.5076536684
 11
13.0963123336
 21
-26.15
  0
LINE
  5
35F
100
AcDbEntity
  8
RACCORDO
100
AcDbLine
 62
7
  6
CONTINUOUS
 10
13.0976918266
 20
-24.5
 11
13.0961417344
 21
-25.5073499594
  0
LINE
  5
360
100
AcDbEntity
  8
RACCORDO
100
AcDbLine
 62
7
  6
CONTINUOUS
 10
13.0963124397
 20
26.15
 11
13.0976918266
 21
24.5
  0
LWPOLYLINE
  5
361
100
AcDbEntity
  8
0
100
AcDbPolyline
 62
7
  6
CONTINUOUS
 90
13
 70
0
 10
10.7437467597
 20
-31.5279535942
 10
10.7462371279
 20
-31.4911116975
 10
10.7533389887
 20
-31.4557728894
 10
10.765052342
 20
-31.4219371701
 10
10.781673449
 20
-31.389026903
 10
10.8029060486
 20
-31.3576197247
 10
10.8278613572
 20
-31.3294485446
 10
10.8568011885
 20
-31.3046509045
 10
10.8894637288
 20
-31.2830892628
 10
10.9241747534
 20
-31.2660839042
 10
10.9603761876
 20
-31.2540749239
 10
10.9986261062
 20
-31.2466222268
 10
11.0389245092
 20
-31.2437258129
  0
LWPOLYLINE
  5
362
100
AcDbEntity
  8
ASSI
100
AcDbPolyline
 62
7
  6
CONTINUOUS
 90
7
 70
0
 10
-6.4418522566
 20
-24.4921016034
 10
-6.3767130795
 20
-24.4265936857
 10
-6.3495086217
 20
-24.3997964859
 10
-6.3276130805
 20
-24.3776130805
 10
-6.311585093
 20
-24.3606884657
 10
-6.3008660222
 20
-24.3497466031
 10
-6.2954558678
 20
-24.3454558678
  0
LWPOLYLINE
  5
363
100
AcDbEntity
  8
ASSI
100
AcDbPolyline
 62
7
  6
CONTINUOUS
 90
3
 70
0
 10
-6.5629276534
 20
-24.6131132647
 10
-6.4797869758
 20
-24.529714554
 10
-6.4418522566
 20
-24.4921016034
  0
LWPOLYLINE
  5
364
100
AcDbEntity
  8
ASSI
100
AcDbPolyline
 62
7
  6
CONTINUOUS
 90
3
 70
0
 10
-6.7531101752
 20
-24.8036291617
 10
-6.6081336117
 20
-24.658074444
 10
-6.5629276534
 20
-24.6131132647
  0
LINE
  5
365
100
AcDbEntity
  8
RACCORDO
100
AcDbLine
 62
7
  6
CONTINUOUS
 10
-6.25
 20
-23.25
 11
-6.2911305116
 21
-23.2911305116
  0
LINE
  5
366
100
AcDbEntity
  8
RACCORDO
100
AcDbLine
 62
7
  6
CONTINUOUS
 10
-6.25
 20
-24.3
 11
-6.2954558678
 21
-24.3454558678
  0
LINE
  5
367
100
AcDbEntity
  8
ASSI
100
AcDbLine
 62
7
  6
CONTINUOUS
 10
-6.8046456161
 20
-24.8546456161
 11
-6.7531101752
 21
-24.8036291617
  0
LWPOLYLINE
  5
368
100
AcDbEntity
  8
ASSI
100
AcDbPolyline
 62
7
  6
CONTINUOUS
 90
6
 70
0
 10
-6.3767130795
 20
24.4265936857
 10
-6.3495086217
 20
24.3997964859
 10
-6.3276130805
 20
24.3776130805
 10
-6.311585093
 20
24.3606884657
 10
-6.3008660222
 20
24.3497466031
 10
-6.2954558678
 20
24.3454558678
  0
LINE
  5
369
100
AcDbEntity
  8
ASSI
100
AcDbLine
 62
7
  6
CONTINUOUS
 10
-6.8046456161
 20
24.8546456161
 11
-6.7531101752
 21
24.8036291617
  0
LWPOLYLINE
  5
36A
100
AcDbEntity
  8
ASSI
100
AcDbPolyline
 62
7
  6
CONTINUOUS
 90
3
 70
0
 10
-6.4797869758
 20
24.529714554
 10
-6.4418522566
 20
24.4921016034
 10
-6.3767130795
 20
24.4265936857
  0
LINE
  5
36B
100
AcDbEntity
  8
RACCORDO
100
AcDbLine
 62
7
  6
CONTINUOUS
 10
-6.25
 20
23.25
 11
-6.2911305116
 21
23.2911305116
  0
LINE
  5
36C
100
AcDbEntity
  8
RACCORDO
100
AcDbLine
 62
7
  6
CONTINUOUS
 10
-6.25
 20
24.3
 11
-6.2954558678
 21
24.3454558678
  0
LINE
  5
36D
100
AcDbEntity
  8
ASSI
100
AcDbLine
 62
7
  6
CONTINUOUS
 10
-6.5629276534
 20
24.6131132647
 11
-6.4797869758
 21
24.529714554
  0
LWPOLYLINE
  5
36E
100
AcDbEntity
  8
ASSI
100
AcDbPolyline
 62
7
  6
CONTINUOUS
 90
3
 70
0
 10
-6.7531101752
 20
24.8036291617
 10
-6.6549897084
 20
24.7049897084
 10
-6.5629276534
 20
24.6131132647
  0
LWPOLYLINE
  5
36F
100
AcDbEntity
  8
0
100
AcDbPolyline
 62
7
  6
CONTINUOUS
 90
28
 70
0
 10
-0.9099931548
 20
32.0510847682
 10
-0.9439533571
 20
32.1216456701
 10
-0.97222695
 20
32.1941657423
 10
-0.9947602329
 20
32.2681725947
 10
-1.0114826779
 20
32.3428993608
 10
-1.0225172889
 20
32.418184779
 10
-1.0279534171
 20
32.4945154754
 10
-1.027665778
 20
32.5717257543
 10
-1.0215427859
 20
32.6491335619
 10
-1.0094993315
 20
32.72646532
 10
-0.9914083461
 20
32.8035153304
 10
-0.967279983
 20
32.8795451741
 10
-0.9373868993
 20
32.9535020776
 10
-0.9019284671
 20
33.0249336507
 10
-0.8611162942
 20
33.0934484336
 10
-0.8155359747
 20
33.1582119322
 10
-0.7658329849
 20
33.2186270728
 10
-0.7121742015
 20
33.2747793236
 10
-0.6544493412
 20
33.3268775702
 10
-0.592903453
 20
33.374677795
 10
-0.5279243081
 20
33.4178574163
 10
-0.4594840755
 20
33.4563688473
 10
-0.38761599
 20
33.4900354731
 10
-0.3129436298
 20
33.5184117683
 10
-0.2363560476
 20
33.5411108584
 10
-0.1584600385
 20
33.5579866595
 10
-0.0795279054
 20
33.5690134539
 10
0.0
 20
33.5741430217
  0
LINE
  5
370
100
AcDbEntity
  8
DRAFT
100
AcDbLine
 62
7
  6
CONTINUOUS
 10
15.2264840209
 20
32.25
 11
15.2689072036
 21
29.5
  0
LINE
  5
371
100
AcDbEntity
  8
DRAFT
100
AcDbLine
 62
7
  6
CONTINUOUS
 10
15.3362647374
 20
25.1336793649
 11
15.2920471214
 21
28.0
  0
LINE
  5
372
100
AcDbEntity
  8
RACCORDO
100
AcDbLine
 62
7
  6
CONTINUOUS
 10
14.6769801183
 20
-26.5270562707
 11
14.6726915844
 21
-25.1336793649
  0
LINE
  5
373
100
AcDbEntity
  8
DRAFT
100
AcDbLine
 62
7
  6
CONTINUOUS
 10
14.65
 20
-23.0
 11
14.65
 21
-21.5
  0
LINE
  5
374
100
AcDbEntity
  8
DRAFT
100
AcDbLine
 62
7
  6
CONTINUOUS
 10
14.65
 20
-11.5
 11
14.65
 21
-10.0
  0
LINE
  5
375
100
AcDbEntity
  8
DRAFT
100
AcDbLine
 62
7
  6
CONTINUOUS
 10
14.65
 20
-0.75
 11
14.65
 21
0.75
  0
LINE
  5
376
100
AcDbEntity
  8
DRAFT
100
AcDbLine
 62
7
  6
CONTINUOUS
 10
14.65
 20
10.0
 11
14.65
 21
11.5
  0
LINE
  5
377
100
AcDbEntity
  8
DRAFT
100
AcDbLine
 62
7
  6
CONTINUOUS
 10
14.65
 20
21.5
 11
14.65
 21
23.0
  0
LINE
  5
378
100
AcDbEntity
  8
DRAFT
100
AcDbLine
 62
7
  6
CONTINUOUS
 10
14.6726915844
 20
25.1336793649
 11
14.6726915844
 21
23.0
  0
LINE
  5
379
100
AcDbEntity
  8
DRAFT
100
AcDbLine
 62
7
  6
CONTINUOUS
 10
14.6726915844
 20
21.5
 11
14.6726915844
 21
11.5
  0
LINE
  5
37A
100
AcDbEntity
  8
DRAFT
100
AcDbLine
 62
7
  6
CONTINUOUS
 10
14.6726915844
 20
10.0
 11
14.6726915844
 21
0.75
  0
LINE
  5
37B
100
AcDbEntity
  8
DRAFT
100
AcDbLine
 62
7
  6
CONTINUOUS
 10
14.6726915844
 20
-0.75
 11
14.6726915844
 21
-10.0
  0
LINE
  5
37C
100
AcDbEntity
  8
DRAFT
100
AcDbLine
 62
7
  6
CONTINUOUS
 10
14.6726915844
 20
-11.5
 11
14.6726915844
 21
-21.5
  0
LINE
  5
37D
100
AcDbEntity
  8
DRAFT
100
AcDbLine
 62
7
  6
CONTINUOUS
 10
14.6726915844
 20
-23.0
 11
14.6726915844
 21
-25.1336793649
  0
LINE
  5
37E
100
AcDbEntity
  8
DRAFT
100
AcDbLine
 62
7
  6
CONTINUOUS
 10
15.3362647374
 20
-25.1336793649
 11
15.3362647374
 21
-23.0
  0
LINE
  5
37F
100
AcDbEntity
  8
DRAFT
100
AcDbLine
 62
7
  6
CONTINUOUS
 10
15.3362647374
 20
-21.5
 11
15.3362647374
 21
-11.5
  0
LINE
  5
380
100
AcDbEntity
  8
DRAFT
100
AcDbLine
 62
7
  6
CONTINUOUS
 10
15.3362647374
 20
-10.0
 11
15.3362647374
 21
-0.75
  0
LINE
  5
381
100
AcDbEntity
  8
DRAFT
100
AcDbLine
 62
7
  6
CONTINUOUS
 10
15.3362647374
 20
0.75
 11
15.3362647374
 21
10.0
  0
LINE
  5
382
100
AcDbEntity
  8
DRAFT
100
AcDbLine
 62
7
  6
CONTINUOUS
 10
15.3362647374
 20
11.5
 11
15.3362647374
 21
21.5
  0
LINE
  5
383
100
AcDbEntity
  8
DRAFT
100
AcDbLine
 62
7
  6
CONTINUOUS
 10
15.3362647374
 20
23.0
 11
15.3362647374
 21
25.1336793649
  0
LINE
  5
384
100
AcDbEntity
  8
DRAFT
100
AcDbLine
 62
7
  6
CONTINUOUS
 10
15.45
 20
32.25
 11
15.45
 21
29.5
  0
LINE
  5
385
100
AcDbEntity
  8
DRAFT
100
AcDbLine
 62
7
  6
CONTINUOUS
 10
15.45
 20
-32.25
 11
15.45
 21
-29.5
  0
LINE
  5
386
100
AcDbEntity
  8
DRAFT
100
AcDbLine
 62
7
  6
CONTINUOUS
 10
15.45
 20
-28.0
 11
15.45
 21
-23.0
  0
LINE
  5
387
100
AcDbEntity
  8
DRAFT
100
AcDbLine
 62
7
  6
CONTINUOUS
 10
15.45
 20
-21.5
 11
15.45
 21
-11.5
  0
LINE
  5
388
100
AcDbEntity
  8
DRAFT
100
AcDbLine
 62
7
  6
CONTINUOUS
 10
15.45
 20
-10.0
 11
15.45
 21
-0.75
  0
LINE
  5
389
100
AcDbEntity
  8
DRAFT
100
AcDbLine
 62
7
  6
CONTINUOUS
 10
15.45
 20
0.75
 11
15.45
 21
10.0
  0
LINE
  5
38A
100
AcDbEntity
  8
DRAFT
100
AcDbLine
 62
7
  6
CONTINUOUS
 10
15.45
 20
11.5
 11
15.45
 21
21.5
  0
LINE
  5
38B
100
AcDbEntity
  8
DRAFT
100
AcDbLine
 62
7
  6
CONTINUOUS
 10
15.45
 20
23.0
 11
15.45
 21
28.0
  0
LINE
  5
38C
100
AcDbEntity
  8
DRAFT
100
AcDbLine
 62
7
  6
CONTINUOUS
 10
16.75
 20
33.1
 11
16.75
 21
-33.1
  0
LINE
  5
38D
100
AcDbEntity
  8
RACCORDO
100
AcDbLine
 62
7
  6
CONTINUOUS
 10
14.6769801183
 20
26.5270562707
 11
14.6726915844
 21
25.1336793649
  0
LINE
  5
38E
100
AcDbEntity
  8
DRAFT
100
AcDbLine
 62
7
  6
CONTINUOUS
 10
15.2264840209
 20
-32.25
 11
15.2689072036
 21
-29.5
  0
LINE
  5
38F
100
AcDbEntity
  8
DRAFT
100
AcDbLine
 62
7
  6
CONTINUOUS
 10
15.3362647374
 20
-25.1336793649
 11
15.2920471214
 21
-28.0
  0
LINE
  5
390
100
AcDbEntity
  8
0
100
AcDbLine
 62
7
  6
CONTINUOUS
 10
0.5519584309
 20
-31.4565594813
 11
0.8112670934
 21
-30.9663537881
  0
LINE
  5
391
100
AcDbEntity
  8
DRAFT
100
AcDbLine
 62
7
  6
CONTINUOUS
 10
4.1940475203
 20
-26.1559524797
 11
3.35
 21
-27.0
  0
LINE
  5
392
100
AcDbEntity
  8
0
100
AcDbLine
 62
7
  6
CONTINUOUS
 10
3.35
 20
-27.0
 11
3.2
 21
-27.15
  0
LINE
  5
393
100
AcDbEntity
  8
DRAFT
100
AcDbLine
 62
7
  6
CONTINUOUS
 10
15.45
 20
21.5
 11
14.65
 21
21.5
  0
LINE
  5
394
100
AcDbEntity
  8
DRAFT
100
AcDbLine
 62
7
  6
CONTINUOUS
 10
-14.65
 20
21.5
 11
-15.45
 21
21.5
  0
LINE
  5
395
100
AcDbEntity
  8
DRAFT
100
AcDbLine
 62
7
  6
CONTINUOUS
 10
-13.1
 20
22.4
 11
-12.75
 21
22.4
  0
LINE
  5
396
100
AcDbEntity
  8
DRAFT
100
AcDbLine
 62
7
  6
CONTINUOUS
 10
12.75
 20
22.4
 11
13.1
 21
22.4
  0
LINE
  5
397
100
AcDbEntity
  8
DRAFT
100
AcDbLine
 62
7
  6
CONTINUOUS
 10
-13.1466887427
 20
22.5
 11
-12.5
 21
22.5
  0
LINE
  5
398
100
AcDbEntity
  8
0
100
AcDbLine
 62
7
  6
CONTINUOUS
 10
8.1
 20
22.5
 11
12.5
 21
22.5
  0
LINE
  5
399
100
AcDbEntity
  8
DRAFT
100
AcDbLine
 62
7
  6
CONTINUOUS
 10
12.5
 20
22.5
 11
13.1466887427
 21
22.5
  0
LINE
  5
39A
100
AcDbEntity
  8
0
100
AcDbLine
 62
7
  6
CONTINUOUS
 10
-8.1
 20
22.5
 11
-12.5
 21
22.5
  0
LINE
  5
39B
100
AcDbEntity
  8
DRAFT
100
AcDbLine
 62
7
  6
CONTINUOUS
 10
-15.45
 20
23.0
 11
-14.65
 21
23.0
  0
LINE
  5
39C
100
AcDbEntity
  8
DRAFT
100
AcDbLine
 62
7
  6
CONTINUOUS
 10
14.65
 20
23.0
 11
15.45
 21
23.0
  0
LWPOLYLINE
  5
39D
100
AcDbEntity
  8
ASSI
100
AcDbPolyline
 62
7
  6
CONTINUOUS
 90
7
 70
0
 10
-7.5336543116
 20
24.7910733962
 10
-7.4892529969
 20
24.7790448251
 10
-7.4444980062
 20
24.7690942094
 10
-7.3993893394
 20
24.7612215489
 10
-7.3539269967
 20
24.7554268439
 10
-7.308110978
 20
24.7517100941
 10
-7.2619412833
 20
24.7500712997
  0
LINE
  5
39E
100
AcDbEntity
  8
0
100
AcDbLine
 62
7
  6
CONTINUOUS
 10
3.35
 20
27.0
 11
3.2
 21
27.15
  0
LINE
  5
39F
100
AcDbEntity
  8
DRAFT
100
AcDbLine
 62
7
  6
CONTINUOUS
 10
4.1940475203
 20
26.1559524797
 11
3.35
 21
27.0
  0
LINE
  5
3A0
100
AcDbEntity
  8
DRAFT
100
AcDbLine
 62
7
  6
CONTINUOUS
 10
13.1623971047
 20
-26.9214522078
 11
13.1231261996
 21
-27.0
  0
LINE
  5
3A1
100
AcDbEntity
  8
RACCORDO
100
AcDbLine
 62
250
  6
CONTINUOUS
 10
7.4999238476
 20
-27.0
 11
7.6308368345
 21
-26.869087013
  0
LWPOLYLINE
  5
3A2
100
AcDbEntity
  8
ASSI
100
AcDbPolyline
 62
7
  6
CONTINUOUS
 90
7
 70
0
 10
7.2619412833
 20
24.7500712997
 10
7.3081702066
 20
24.7517190459
 10
7.3540217625
 20
24.7554411667
 10
7.3994959509
 20
24.7612376622
 10
7.4445927719
 20
24.7691085323
 10
7.4893122255
 20
24.7790537769
 10
7.5336543116
 20
24.7910733962
  0
LINE
  5
3A3
100
AcDbEntity
  8
0
100
AcDbLine
 62
7
  6
CONTINUOUS
 10
-12.5
 20
23.1
 11
-10.35
 21
23.1
  0
LINE
  5
3A4
100
AcDbEntity
  8
0
100
AcDbLine
 62
7
  6
CONTINUOUS
 10
12.5
 20
23.1
 11
10.35
 21
23.1
  0
LINE
  5
3A5
100
AcDbEntity
  8
DRAFT
100
AcDbLine
 62
7
  6
CONTINUOUS
 10
6.25
 20
23.25
 11
8.1
 21
23.25
  0
LINE
  5
3A6
100
AcDbEntity
  8
DRAFT
100
AcDbLine
 62
7
  6
CONTINUOUS
 10
-6.25
 20
23.25
 11
-8.1
 21
23.25
  0
LINE
  5
3A7
100
AcDbEntity
  8
DRAFT
100
AcDbLine
 62
7
  6
CONTINUOUS
 10
-8.5
 20
23.2622176149
 11
-8.1
 21
23.2622176149
  0
LINE
  5
3A8
100
AcDbEntity
  8
DRAFT
100
AcDbLine
 62
7
  6
CONTINUOUS
 10
8.1
 20
23.2622176149
 11
8.5
 21
23.2622176149
  0
LINE
  5
3A9
100
AcDbEntity
  8
RACCORDO
100
AcDbLine
 62
250
  6
CONTINUOUS
 10
8.5
 20
23.2911305116
 11
6.2911305116
 21
23.2911305116
  0
LINE
  5
3AA
100
AcDbEntity
  8
RACCORDO
100
AcDbLine
 62
250
  6
CONTINUOUS
 10
-6.2911305116
 20
23.2911305116
 11
-8.5
 21
23.2911305116
  0
LINE
  5
3AB
100
AcDbEntity
  8
0
100
AcDbLine
 62
7
  6
CONTINUOUS
 10
-4.2
 20
23.3
 11
-1.6
 21
23.3
  0
LINE
  5
3AC
100
AcDbEntity
  8
0
100
AcDbLine
 62
7
  6
CONTINUOUS
 10
1.6
 20
23.3
 11
4.2
 21
23.3
  0
LINE
  5
3AD
100
AcDbEntity
  8
DRAFT
100
AcDbLine
 62
7
  6
CONTINUOUS
 10
-6.25
 20
24.3
 11
-4.2
 21
24.3
  0
LINE
  5
3AE
100
AcDbEntity
  8
DRAFT
100
AcDbLine
 62
7
  6
CONTINUOUS
 10
-1.6
 20
24.3
 11
1.6
 21
24.3
  0
LINE
  5
3AF
100
AcDbEntity
  8
DRAFT
100
AcDbLine
 62
7
  6
CONTINUOUS
 10
4.2
 20
24.3
 11
6.25
 21
24.3
  0
LINE
  5
3B0
100
AcDbEntity
  8
RACCORDO
100
AcDbLine
 62
7
  6
CONTINUOUS
 10
-6.2954558678
 20
24.3454558678
 11
6.2954558678
 21
24.3454558678
  0
LINE
  5
3B1
100
AcDbEntity
  8
DRAFT
100
AcDbLine
 62
7
  6
CONTINUOUS
 10
-13.1466887427
 20
24.5
 11
-12.5
 21
24.5
  0
LINE
  5
3B2
100
AcDbEntity
  8
DRAFT
100
AcDbLine
 62
7
  6
CONTINUOUS
 10
13.1466887427
 20
24.5
 11
12.5
 21
24.5
  0
LINE
  5
3B3
100
AcDbEntity
  8
0
100
AcDbLine
 62
7
  6
CONTINUOUS
 10
8.5
 20
24.5
 11
12.5
 21
24.5
  0
LINE
  5
3B4
100
AcDbEntity
  8
0
100
AcDbLine
 62
7
  6
CONTINUOUS
 10
-8.5
 20
24.5
 11
-12.5
 21
24.5
  0
LINE
  5
3B5
100
AcDbEntity
  8
ASSI
100
AcDbLine
 62
250
  6
CONTINUOUS
 10
8.5
 20
24.7910733962
 11
7.5336543116
 21
24.7910733962
  0
LINE
  5
3B6
100
AcDbEntity
  8
ASSI
100
AcDbLine
 62
250
  6
CONTINUOUS
 10
-7.5336543116
 20
24.7910733962
 11
-8.5
 21
24.7910733962
  0
LINE
  5
3B7
100
AcDbEntity
  8
DRAFT
100
AcDbLine
 62
7
  6
CONTINUOUS
 10
14.6726915844
 20
25.1336793649
 11
15.3362647374
 21
25.1336793649
  0
LINE
  5
3B8
100
AcDbEntity
  8
DRAFT
100
AcDbLine
 62
7
  6
CONTINUOUS
 10
-14.6726915844
 20
25.1336793649
 11
-15.3362647374
 21
25.1336793649
  0
LINE
  5
3B9
100
AcDbEntity
  8
ASSI
100
AcDbLine
 62
250
  6
CONTINUOUS
 10
-6.3354983674
 20
25.3454177909
 11
6.3354983674
 21
25.3454177909
  0
LINE
  5
3BA
100
AcDbEntity
  8
RACCORDO
100
AcDbLine
 62
250
  6
CONTINUOUS
 10
7.4999238476
 20
27.0
 11
7.6308368345
 21
26.869087013
  0
LINE
  5
3BB
100
AcDbEntity
  8
DRAFT
100
AcDbLine
 62
7
  6
CONTINUOUS
 10
13.1623971047
 20
26.9214522078
 11
13.1231261996
 21
27.0
  0
LWPOLYLINE
  5
3BC
100
AcDbEntity
  8
DRAFT
100
AcDbPolyline
 62
7
  6
CONTINUOUS
 90
10
 70
0
 10
-7.0828583997
 20
26.7757418649
 10
-7.1072521761
 20
26.7749870809
 10
-7.1318351459
 20
26.7736567783
 10
-7.1565664559
 20
26.7717581721
 10
-7.1814336113
 20
26.7693248362
 10
-7.2063740969
 20
26.7663412707
 10
-7.2312669923
 20
26.7627502735
 10
-7.2560422667
 20
26.7585496598
 10
-7.2806891388
 20
26.7537844914
 10
-7.3051717269
 20
26.7484768803
  0
LINE
  5
3BD
100
AcDbEntity
  8
DRAFT
100
AcDbLine
 62
7
  6
CONTINUOUS
 10
6.2868841298
 20
26.019087013
 11
-6.2868841298
 21
26.019087013
  0
LINE
  5
3BE
100
AcDbEntity
  8
RACCORDO
100
AcDbLine
 62
7
  6
CONTINUOUS
 10
-2.0
 20
26.1273084156
 11
2.0
 21
26.1273084156
  0
LINE
  5
3BF
100
AcDbEntity
  8
RACCORDO
100
AcDbLine
 62
7
  6
CONTINUOUS
 10
-13.3138635149
 20
26.15
 11
-8.5
 21
26.15
  0
LINE
  5
3C0
100
AcDbEntity
  8
RACCORDO
100
AcDbLine
 62
7
  6
CONTINUOUS
 10
13.3138635149
 20
26.15
 11
8.5
 21
26.15
  0
LINE
  5
3C1
100
AcDbEntity
  8
DRAFT
100
AcDbLine
 62
7
  6
CONTINUOUS
 10
-6.2907905922
 20
26.15
 11
-6.0140873065
 21
26.15
  0
LINE
  5
3C2
100
AcDbEntity
  8
DRAFT
100
AcDbLine
 62
7
  6
CONTINUOUS
 10
6.0140873065
 20
26.15
 11
6.2907905922
 21
26.15
  0
LINE
  5
3C3
100
AcDbEntity
  8
DRAFT
100
AcDbLine
 62
7
  6
CONTINUOUS
 10
-3.0
 20
26.1529762399
 11
3.0
 21
26.1529762399
  0
LINE
  5
3C4
100
AcDbEntity
  8
DRAFT
100
AcDbLine
 62
7
  6
CONTINUOUS
 10
-4.1940475203
 20
26.1559524797
 11
-3.0
 21
26.1559524797
  0
LINE
  5
3C5
100
AcDbEntity
  8
DRAFT
100
AcDbLine
 62
7
  6
CONTINUOUS
 10
3.0
 20
26.1559524797
 11
4.1940475203
 21
26.1559524797
  0
LINE
  5
3C6
100
AcDbEntity
  8
DRAFT
100
AcDbLine
 62
7
  6
CONTINUOUS
 10
5.995695392
 20
26.1758993279
 11
4.1741006721
 21
26.1758993279
  0
LINE
  5
3C7
100
AcDbEntity
  8
DRAFT
100
AcDbLine
 62
7
  6
CONTINUOUS
 10
-4.1741006721
 20
26.1758993279
 11
-5.995695392
 21
26.1758993279
  0
LINE
  5
3C8
100
AcDbEntity
  8
RACCORDO
100
AcDbLine
 62
7
  6
CONTINUOUS
 10
-14.1798889187
 20
26.65
 11
-8.5
 21
26.65
  0
LINE
  5
3C9
100
AcDbEntity
  8
RACCORDO
100
AcDbLine
 62
7
  6
CONTINUOUS
 10
8.5
 20
26.65
 11
14.1798889187
 21
26.65
  0
LINE
  5
3CA
100
AcDbEntity
  8
RACCORDO
100
AcDbLine
 62
7
  6
CONTINUOUS
 10
14.0191631655
 20
26.869087013
 11
7.6308368345
 21
26.869087013
  0
LINE
  5
3CB
100
AcDbEntity
  8
RACCORDO
100
AcDbLine
 62
7
  6
CONTINUOUS
 10
-7.6308368345
 20
26.869087013
 11
-14.0191631655
 21
26.869087013
  0
LINE
  5
3CC
100
AcDbEntity
  8
DRAFT
100
AcDbLine
 62
7
  6
CONTINUOUS
 10
-13.1623971047
 20
26.9214522078
 11
-8.5
 21
26.9214522078
  0
LINE
  5
3CD
100
AcDbEntity
  8
DRAFT
100
AcDbLine
 62
7
  6
CONTINUOUS
 10
13.1623971047
 20
26.9214522078
 11
8.5
 21
26.9214522078
  0
LINE
  5
3CE
100
AcDbEntity
  8
RACCORDO
100
AcDbLine
 62
7
  6
CONTINUOUS
 10
-14.1500761524
 20
27.0
 11
-13.1231261996
 21
27.0
  0
LINE
  5
3CF
100
AcDbEntity
  8
DRAFT
100
AcDbLine
 62
7
  6
CONTINUOUS
 10
-13.1231261996
 20
27.0
 11
-8.5
 21
27.0
  0
LINE
  5
3D0
100
AcDbEntity
  8
RACCORDO
100
AcDbLine
 62
7
  6
CONTINUOUS
 10
-8.5
 20
27.0
 11
-7.4999238476
 21
27.0
  0
LINE
  5
3D1
100
AcDbEntity
  8
0
100
AcDbLine
 62
7
  6
CONTINUOUS
 10
3.35
 20
27.0
 11
-3.35
 21
27.0
  0
LINE
  5
3D2
100
AcDbEntity
  8
RACCORDO
100
AcDbLine
 62
7
  6
CONTINUOUS
 10
7.4999238476
 20
27.0
 11
8.5
 21
27.0
  0
LINE
  5
3D3
100
AcDbEntity
  8
DRAFT
100
AcDbLine
 62
7
  6
CONTINUOUS
 10
8.5
 20
27.0
 11
13.1231261996
 21
27.0
  0
LINE
  5
3D4
100
AcDbEntity
  8
RACCORDO
100
AcDbLine
 62
7
  6
CONTINUOUS
 10
13.1231261996
 20
27.0
 11
14.1500761524
 21
27.0
  0
LINE
  5
3D5
100
AcDbEntity
  8
0
100
AcDbLine
 62
7
  6
CONTINUOUS
 10
3.2
 20
27.15
 11
0.75
 21
27.15
  0
LINE
  5
3D6
100
AcDbEntity
  8
0
100
AcDbLine
 62
7
  6
CONTINUOUS
 10
-0.75
 20
27.15
 11
-3.2
 21
27.15
  0
LINE
  5
3D7
100
AcDbEntity
  8
DRAFT
100
AcDbLine
 62
7
  6
CONTINUOUS
 10
15.45
 20
28.0
 11
14.7968739821
 21
28.0
  0
LINE
  5
3D8
100
AcDbEntity
  8
0
100
AcDbLine
 62
7
  6
CONTINUOUS
 10
-1.5
 20
28.0
 11
-0.75
 21
28.0
  0
LINE
  5
3D9
100
AcDbEntity
  8
0
100
AcDbLine
 62
7
  6
CONTINUOUS
 10
0.75
 20
28.0
 11
1.5
 21
28.0
  0
LINE
  5
3DA
100
AcDbEntity
  8
DRAFT
100
AcDbLine
 62
7
  6
CONTINUOUS
 10
-14.7968739821
 20
28.0
 11
-15.45
 21
28.0
  0
LWPOLYLINE
  5
3DB
100
AcDbEntity
  8
DRAFT
100
AcDbPolyline
 62
7
  6
CONTINUOUS
 90
10
 70
0
 10
7.3051717269
 20
26.7484768803
 10
7.2806891395
 20
26.7537844912
 10
7.2560422679
 20
26.7585496596
 10
7.2312669938
 20
26.7627502733
 10
7.2063740984
 20
26.7663412705
 10
7.1814336126
 20
26.769324836
 10
7.1565664569
 20
26.771758172
 10
7.1318351467
 20
26.7736567783
 10
7.1072521765
 20
26.7749870809
 10
7.0828583997
 20
26.7757418649
  0
LINE
  5
3DC
100
AcDbEntity
  8
0
100
AcDbLine
 62
7
  6
CONTINUOUS
 10
-0.8112670934
 20
30.9663537881
 11
-0.7021661857
 21
30.922886238
  0
LWPOLYLINE
  5
3DD
100
AcDbEntity
  8
0
100
AcDbPolyline
 62
7
  6
CONTINUOUS
 90
8
 70
0
 10
-0.7700965032
 20
30.9452729189
 10
-0.6589903
 20
30.8950212755
 10
-0.5446288348
 20
30.8526978559
 10
-0.4275770268
 20
30.8185117282
 10
-0.3084130846
 20
30.7926317645
 10
-0.1877256508
 20
30.7751858063
 10
-0.0661108932
 20
30.7662600331
 10
0.0558304393
 20
30.7658985366
  0
LWPOLYLINE
  5
3DE
100
AcDbEntity
  8
0
100
AcDbPolyline
 62
7
  6
CONTINUOUS
 90
16
 70
0
 10
-0.5519584309
 20
31.4565594813
 10
-0.6220352708
 20
31.491372534
 10
-0.6899487041
 20
31.5309247888
 10
-0.755376315
 20
31.5750842615
 10
-0.8178785594
 20
31.6235931035
 10
-0.8772886523
 20
31.6763625558
 10
-0.9336469593
 20
31.7335583517
 10
-0.9867859037
 20
31.7952619833
 10
-1.0361434982
 20
31.8610953174
 10
-1.0811741081
 20
31.9305175315
 10
-1.1216383786
 20
32.0033067732
 10
-1.1572480522
 20
32.079110312
 10
-1.1875760184
 20
32.1570527547
 10
-1.2124708321
 20
32.2365637952
 10
-1.2319392507
 20
32.3174435496
 10
-1.2459382481
 20
32.39931295
  0
LINE
  5
3DF
100
AcDbEntity
  8
0
100
AcDbLine
 62
7
  6
CONTINUOUS
 10
11.867859
 20
-27.950012
 11
10.743747
 21
-28.834658
  0
LINE
  5
3E0
100
AcDbEntity
  8
0
100
AcDbLine
 62
7
  6
CONTINUOUS
 10
11.073194
 20
-29.116041
 11
12.554843
 21
-27.950012
  0
LWPOLYLINE
  5
3E1
100
AcDbEntity
  8
0
100
AcDbPolyline
 62
7
  6
CONTINUOUS
 90
45
 70
0
 10
0.1774959845
 20
30.7741031029
 10
0.2982847425
 20
30.790833204
 10
0.4176000446
 20
30.8160061974
 10
0.5348525004
 20
30.8494977347
 10
0.6494629097
 20
30.891142376
 10
0.760865123
 20
30.9407344067
 10
0.8685088387
 20
30.998028854
 10
0.9718623212
 20
31.0627426969
 10
1.0704150277
 20
31.1345562642
 10
1.1636801301
 20
31.2131148138
 10
1.2511969195
 20
31.2980302846
 10
1.3325330828
 20
31.3888832141
 10
1.4072868373
 20
31.4852248097
 10
1.4750889161
 20
31.5865791664
 10
1.5356043919
 20
31.6924456168
 10
1.5885343315
 20
31.802301205
 10
1.6336172725
 20
31.9156032696
 10
1.6706305149
 20
32.0317921243
 10
1.699391221
 20
32.1502938227
 10
1.7197573191
 20
32.2705229932
 10
1.7316282045
 20
32.3918857311
 10
1.7349452373
 20
32.5137825318
 10
1.7296920313
 20
32.6356112527
 10
1.7158945358
 20
32.7567700874
 10
1.6936209066
 20
32.8766605384
 10
1.6629811698
 20
32.9946903738
 10
1.6241266784
 20
33.1102765525
 10
1.5772493641
 20
33.2228481045
 10
1.5225807898
 20
33.3318489514
 10
1.4603910055
 20
33.4367406531
 10
1.3909872143
 20
33.5370050678
 10
1.3147122548
 20
33.6321469113
 10
1.2319429079
 20
33.7216962037
 10
1.1430880351
 20
33.8052105911
 10
1.0485865594
 20
33.8822775305
 10
0.9489052966
 20
33.9525163279
 10
0.8445366495
 20
34.0155800188
 10
0.7359961758
 20
34.0711570818
 10
0.6238200411
 20
34.1189729781
 10
0.5085623703
 20
34.158791507
 10
0.3907925107
 20
34.1904159733
 10
0.271092219
 20
34.2136901584
 10
0.1500527883
 20
34.2284990922
 10
0.0282721266
 20
34.2347696213
 10
-0.0936481966
 20
34.2324707698
  0
LINE
  5
3E2
100
AcDbEntity
  8
0
100
AcDbLine
 62
7
  6
CONTINUOUS
 10
0.0558304393
 20
30.7658985366
 11
0.1774959845
 21
30.7741031029
  0
LINE
  5
3E3
100
AcDbEntity
  8
DRAFT
100
AcDbLine
 62
7
  6
CONTINUOUS
 10
15.45
 20
29.5
 11
14.8744230428
 21
29.5
  0
LINE
  5
3E4
100
AcDbEntity
  8
DRAFT
100
AcDbLine
 62
7
  6
CONTINUOUS
 10
-14.8744230428
 20
29.5
 11
-15.45
 21
29.5
  0
LINE
  5
3E5
100
AcDbEntity
  8
0
100
AcDbLine
 62
7
  6
CONTINUOUS
 10
-2.69058809
 20
31.15
 11
-1.0890708419
 21
31.15
  0
LINE
  5
3E6
100
AcDbEntity
  8
0
100
AcDbLine
 62
7
  6
CONTINUOUS
 10
1.0894260717
 20
31.15
 11
2.69058809
 21
31.15
  0
LWPOLYLINE
  5
3E7
100
AcDbEntity
  8
0
100
AcDbPolyline
 62
7
  6
CONTINUOUS
 90
10
 70
0
 10
-0.0
 20
31.3338197093
 10
-0.0632351444
 20
31.3339458851
 10
-0.1264107492
 20
31.3374992588
 10
-0.1893411756
 20
31.3444712535
 10
-0.2518255652
 20
31.3548401259
 10
-0.3136970523
 20
31.3685786722
 10
-0.3748215918
 20
31.3856630462
 10
-0.435033547
 20
31.4060584734
 10
-0.4941379343
 20
31.4297106295
 10
-0.5519584309
 20
31.4565594813
  0
LWPOLYLINE
  5
3E8
100
AcDbEntity
  8
0
100
AcDbPolyline
 62
7
  6
CONTINUOUS
 90
46
 70
0
 10
-0.7021661857
 20
30.922886238
 10
-0.5920558406
 20
30.887400142
 10
-0.4797832483
 20
30.8594425459
 10
-0.3664430466
 20
30.8392472828
 10
-0.2525684162
 20
30.8268306358
 10
-0.1386898508
 20
30.8221724921
 10
-0.0253326875
 20
30.8252167799
 10
0.0869853158
 20
30.8358720735
 10
0.1977563453
 20
30.8540123593
 10
0.3064848272
 20
30.8794779595
 10
0.4126896441
 20
30.9120766071
 10
0.515906263
 20
30.9515846663
 10
0.6156887644
 20
30.9977484897
 10
0.7116117637
 20
31.0502859067
 10
0.8032722178
 20
31.1088878328
 10
0.8902911075
 20
31.1732199929
 10
0.9723149907
 20
31.2429247473
 10
1.0490174181
 20
31.3176230126
 10
1.1201002075
 20
31.3969162663
 10
1.1852945706
 20
31.4803886248
 10
1.2443620898
 20
31.5676089848
 10
1.2970955392
 20
31.6581332167
 10
1.3433195498
 20
31.7515063984
 10
1.3828911156
 20
31.8472650806
 10
1.4156999405
 20
31.9449395687
 10
1.4416686243
 20
32.0440562145
 10
1.4607526906
 20
32.1441397027
 10
1.4729404561
 20
32.2447153238
 10
1.4782527445
 20
32.3453112212
 10
1.4767424465
 20
32.4454606024
 10
1.4684939315
 20
32.544703904
 10
1.4536223136
 20
32.6425909005
 10
1.4322725767
 20
32.7386827461
 10
1.4046185663
 20
32.8325539426
 10
1.3708618515
 20
32.9237942219
 10
1.3312304656
 20
33.012010337
 10
1.2859775323
 20
33.0968277521
 10
1.2353797855
 20
33.1778922253
 10
1.1797359893
 20
33.2548712775
 10
1.1193652696
 20
33.3274555408
 10
1.0546053642
 20
33.3953599811
 10
0.9858108006
 20
33.4583249913
 10
0.913351013
 20
33.5161173487
 10
0.8376084063
 20
33.5685310361
 10
0.758976378
 20
33.6153879214
 10
0.677857308
 20
33.6565382961
  0
LINE
  5
3E9
100
AcDbEntity
  8
0
100
AcDbLine
 62
7
  6
CONTINUOUS
 10
0.677857308
 20
33.6565382961
 11
0.594660526
 21
33.6918612687
  0
LWPOLYLINE
  5
3EA
100
AcDbEntity
  8
0
100
AcDbPolyline
 62
7
  6
CONTINUOUS
 90
37
 70
0
 10
-0.2151059216
 20
34.2216138929
 10
-0.335501074
 20
34.2022526206
 10
-0.4542389278
 20
34.1744825924
 10
-0.570732944
 20
34.1384409857
 10
-0.6844076675
 20
34.0943058372
 10
-0.7947015696
 20
34.0422951645
 10
-0.9010698223
 20
33.982665888
 10
-1.0029869891
 20
33.9157125629
 10
-1.0999496212
 20
33.8417659234
 10
-1.1914787436
 20
33.7611912492
 10
-1.2771222219
 20
33.6743865611
 10
-1.3564569954
 20
33.5817806549
 10
-1.4290911669
 20
33.4838309833
 10
-1.4946659386
 20
33.381021396
 10
-1.5528573847
 20
33.2738597497
 10
-1.6033780512
 20
33.1628753995
 10
-1.6459783764
 20
33.0486165839
 10
-1.680447923
 20
32.9316477165
 10
-1.706616418
 20
32.8125465983
 10
-1.7243545939
 20
32.691901563
 10
-1.7335748272
 20
32.5703085711
 10
-1.7342315711
 20
32.4483682661
 10
-1.7263215805
 20
32.3266830068
 10
-1.7098839284
 20
32.2058538928
 10
-1.6849998123
 20
32.086477794
 10
-1.6517921537
 20
31.9691444034
 10
-1.6104249907
 20
31.8544333231
 10
-1.5611026674
 20
31.7429112019
 10
-1.5040688249
 20
31.6351289357
 10
-1.4396051976
 20
31.5316189467
 10
-1.3680302214
 20
31.4328925527
 10
-1.2896974611
 20
31.339437442
 10
-1.2049938632
 20
31.2517152635
 10
-1.1143378452
 20
31.1701593471
 10
-1.0181772282
 20
31.0951725626
 10
-0.9169870249
 20
31.0271253296
 10
-0.8112670934
 20
30.9663537881
  0
LINE
  5
3EB
100
AcDbEntity
  8
0
100
AcDbLine
 62
7
  6
CONTINUOUS
 10
-0.0936481966
 20
34.2324707698
 11
-0.2151059216
 21
34.2216138929
  0
LINE
  5
3EC
100
AcDbEntity
  8
DRAFT
100
AcDbLine
 62
7
  6
CONTINUOUS
 10
-15.45
 20
32.25
 11
-13.6670833097
 21
32.25
  0
LINE
  5
3ED
100
AcDbEntity
  8
DRAFT
100
AcDbLine
 62
7
  6
CONTINUOUS
 10
13.6670833097
 20
32.25
 11
15.45
 21
32.25
  0
LINE
  5
3EE
100
AcDbEntity
  8
ASSI
100
AcDbLine
 62
7
  6
CONTINUOUS
 10
14.5
 20
33.5
 11
5.7
 21
33.5
  0
LINE
  5
3EF
100
AcDbEntity
  8
ASSI
100
AcDbLine
 62
7
  6
CONTINUOUS
 10
-5.7
 20
33.5
 11
-14.5
 21
33.5
  0
LINE
  5
3F0
100
AcDbEntity
  8
0
100
AcDbLine
 62
7
  6
CONTINUOUS
 10
-2.69058809
 20
33.85
 11
-1.0884266778
 21
33.85
  0
LINE
  5
3F1
100
AcDbEntity
  8
0
100
AcDbLine
 62
7
  6
CONTINUOUS
 10
1.0881430412
 20
33.85
 11
2.69058809
 21
33.85
  0
LWPOLYLINE
  5
3F2
100
AcDbEntity
  8
0
100
AcDbPolyline
 62
7
  6
CONTINUOUS
 90
43
 70
0
 10
0.0
 20
33.5741430217
 10
0.0807868867
 20
33.5733079007
 10
0.1614450832
 20
33.5663932401
 10
0.2415168271
 20
33.5534139322
 10
0.3206637686
 20
33.5343862851
 10
0.3983107624
 20
33.509409381
 10
0.4736743034
 20
33.4787532433
 10
0.5460965755
 20
33.4427837175
 10
0.6154731008
 20
33.4016542924
 10
0.6818534808
 20
33.3553393276
 10
0.7448414089
 20
33.3040519463
 10
0.8040602181
 20
33.2480315331
 10
0.8594796775
 20
33.1871547993
 10
0.9108800346
 20
33.1213505583
 10
0.95757755
 20
33.0511478232
 10
0.9988922385
 20
32.9773748003
 10
1.0345626748
 20
32.9004031526
 10
1.0643199095
 20
32.8207023433
 10
1.087778817
 20
32.7394173646
 10
1.1048399148
 20
32.657521914
 10
1.1156716991
 20
32.5750584334
 10
1.1203461436
 20
32.4917968774
 10
1.1187953326
 20
32.4081119405
 10
1.1109825354
 20
32.3245552438
 10
1.096821384
 20
32.2411522685
 10
1.076144069
 20
32.158017141
 10
1.0489820028
 20
32.0760493345
 10
1.015662953
 20
31.9964298986
 10
0.9764295324
 20
31.9196636178
 10
0.9315092383
 20
31.8461316715
 10
0.8815249579
 20
31.7766882977
 10
0.8271467043
 20
31.7119337478
 10
0.7685724893
 20
31.6518052463
 10
0.7057474076
 20
31.5961324435
 10
0.6389834306
 20
31.5451824827
 10
0.5686758027
 20
31.4992480656
 10
0.4947609716
 20
31.4583390015
 10
0.4172921538
 20
31.4226371156
 10
0.3369224375
 20
31.3925914356
 10
0.2545046121
 20
31.3685728603
 10
0.17064428
 20
31.3507378273
 10
0.0856548564
 20
31.3391331814
 10
0.0
 20
31.3338197093
  0
LWPOLYLINE
  5
3F3
100
AcDbEntity
  8
0
100
AcDbPolyline
 62
7
  6
CONTINUOUS
 90
29
 70
0
 10
0.594660526
 20
33.6918612687
 10
0.5098002676
 20
33.721265016
 10
0.4236936283
 20
33.7446868886
 10
0.3367585254
 20
33.7620933754
 10
0.2494116787
 20
33.7734799255
 10
0.162066619
 20
33.7788706318
 10
0.0751317333
 20
33.7783177783
 10
-0.0109916424
 20
33.7719012553
 10
-0.0959110755
 20
33.7597278464
 10
-0.179244825
 20
33.7419303919
 10
-0.2606235573
 20
33.7186668343
 10
-0.3396919822
 20
33.6901191525
 10
-0.4161104018
 20
33.6564921891
 10
-0.4895561654
 20
33.6180123805
 10
-0.5597250246
 20
33.5749263943
 10
-0.6263323819
 20
33.5274996836
 10
-0.6891144295
 20
33.476014966
 10
-0.7478291717
 20
33.4207706341
 10
-0.8022573294
 20
33.3620791091
 10
-0.8522031206
 20
33.3002651424
 10
-0.8974949176
 20
33.2356640779
 10
-0.9379857765
 20
33.1686200817
 10
-0.973553838
 20
33.0994843491
 10
-1.0041026007
 20
33.0286132983
 10
-1.0295610649
 20
32.9563667594
 10
-1.0498837479
 20
32.8831061687
 10
-1.0650505739
 20
32.8091927763
 10
-1.0750666375
 20
32.7349858761
 10
-1.0799618461
 20
32.6608410672
  0
LINE
  5
3F4
100
AcDbEntity
  8
ASSI
100
AcDbLine
 62
7
  6
CONTINUOUS
 10
-14.5
 20
34.9
 11
-5.7
 21
34.9
  0
LINE
  5
3F5
100
AcDbEntity
  8
ASSI
100
AcDbLine
 62
7
  6
CONTINUOUS
 10
5.7
 20
34.9
 11
14.5
 21
34.9
  0
LINE
  5
3F6
100
AcDbEntity
  8
DRAFT
100
AcDbLine
 62
7
  6
CONTINUOUS
 10
-13.75
 20
36.1
 11
-4.5
 21
36.1
  0
LINE
  5
3F7
100
AcDbEntity
  8
DRAFT
100
AcDbLine
 62
7
  6
CONTINUOUS
 10
4.5
 20
36.1
 11
13.75
 21
36.1
  0
LINE
  5
3F8
100
AcDbEntity
  8
DRAFT
100
AcDbLine
 62
7
  6
CONTINUOUS
 10
-4.5
 20
36.7
 11
-3.25
 21
36.7
  0
LINE
  5
3F9
100
AcDbEntity
  8
DRAFT
100
AcDbLine
 62
7
  6
CONTINUOUS
 10
3.25
 20
36.7
 11
4.5
 21
36.7
  0
LINE
  5
3FA
100
AcDbEntity
  8
RACCORDO
100
AcDbLine
 62
250
  6
CONTINUOUS
 10
-11.6
 20
36.8535533906
 11
-8.6
 21
36.8535533906
  0
LINE
  5
3FB
100
AcDbEntity
  8
RACCORDO
100
AcDbLine
 62
250
  6
CONTINUOUS
 10
8.6
 20
36.8535533906
 11
11.6
 21
36.8535533906
  0
LINE
  5
3FC
100
AcDbEntity
  8
RACCORDO
100
AcDbLine
 62
7
  6
CONTINUOUS
 10
-11.6
 20
37.0
 11
-8.6
 21
37.0
  0
LINE
  5
3FD
100
AcDbEntity
  8
RACCORDO
100
AcDbLine
 62
7
  6
CONTINUOUS
 10
8.6
 20
37.0
 11
11.6
 21
37.0
  0
LINE
  5
3FE
100
AcDbEntity
  8
0
100
AcDbLine
 62
7
  6
CONTINUOUS
 10
-3.25
 20
39.0
 11
3.25
 21
39.0
  0
ARC
  5
3FF
100
AcDbEntity
  8
0
100
AcDbCircle
 62
7
  6
CONTINUOUS
 10
-10.0
 20
-29.0
 40
4.9
100
AcDbArc
 50
185.8567019099
 51
221.5493816378
  0
ARC
  5
400
100
AcDbEntity
  8
DRAFT
100
AcDbCircle
 62
7
  6
CONTINUOUS
 10
-10.0
 20
-29.0
 40
4.9
100
AcDbArc
 50
349.1736953519
 51
35.5654568761
  0
ARC
  5
401
100
AcDbEntity
  8
RACCORDO
100
AcDbCircle
 62
7
  6
CONTINUOUS
 10
-10.0
 20
-29.0
 40
4.9
100
AcDbArc
 50
154.7816696291
 51
168.2242560141
  0
ARC
  5
402
100
AcDbEntity
  8
0
100
AcDbCircle
 62
7
  6
CONTINUOUS
 10
-1.5
 20
-32.5
 40
4.5
100
AcDbArc
 50
90.0
 51
145.0228776731
  0
ARC
  5
403
100
AcDbEntity
  8
DRAFT
100
AcDbCircle
 62
7
  6
CONTINUOUS
 10
-13.75
 20
-33.1
 40
3.0
100
AcDbArc
 50
180.0
 51
270.0
  0
ARC
  5
404
100
AcDbEntity
  8
ASSI
100
AcDbCircle
 62
7
  6
CONTINUOUS
 10
-6.582444
 20
-30.5
 40
2.5499986575
100
AcDbArc
 50
87.752529198
 51
272.247470802
  0
ARC
  5
405
100
AcDbEntity
  8
ASSI
100
AcDbCircle
 62
7
  6
CONTINUOUS
 10
-10.967554
 20
-30.5
 40
2.5499985399
100
AcDbArc
 50
87.7525290943
 51
272.2474709057
  0
ARC
  5
406
100
AcDbEntity
  8
0
100
AcDbCircle
 62
7
  6
CONTINUOUS
 10
-1.5
 20
-32.5
 40
1.8
100
AcDbArc
 50
131.4096221093
 51
228.5903778907
  0
ARC
  5
407
100
AcDbEntity
  8
ASSI
100
AcDbCircle
 62
7
  6
CONTINUOUS
 10
-10.967554
 20
-30.5
 40
1.7999999246
100
AcDbArc
 50
86.8152613297
 51
273.1847386703
  0
ARC
  5
408
100
AcDbEntity
  8
ASSI
100
AcDbCircle
 62
7
  6
CONTINUOUS
 10
-6.582444
 20
-30.5
 40
1.7999999246
100
AcDbArc
 50
86.8152613297
 51
167.9753003079
  0
ARC
  5
409
100
AcDbEntity
  8
ASSI
100
AcDbCircle
 62
7
  6
CONTINUOUS
 10
-6.582444
 20
-30.5
 40
1.7999968808
100
AcDbArc
 50
192.0247203293
 51
273.1847440612
  0
ARC
  5
40A
100
AcDbEntity
  8
DRAFT
100
AcDbCircle
 62
7
  6
CONTINUOUS
 10
-7.25
 20
-25.75
 40
1.039270267
100
AcDbArc
 50
279.2548390025
 51
337.3633712189
  0
ARC
  5
40B
100
AcDbEntity
  8
ASSI
100
AcDbCircle
 62
7
  6
CONTINUOUS
 10
-7.25
 20
-25.75
 40
1.0
100
AcDbArc
 50
23.8649488655
 51
90.8897177344
  0
ARC
  5
40C
100
AcDbEntity
  8
DRAFT
100
AcDbCircle
 62
7
  6
CONTINUOUS
 10
-7.25
 20
-25.75
 40
1.0
100
AcDbArc
 50
266.8372870044
 51
344.390053961
  0
ARC
  5
40D
100
AcDbEntity
  8
ASSI
100
AcDbCircle
 62
7
  6
CONTINUOUS
 10
-14.5
 20
-34.2
 40
0.7
100
AcDbArc
 50
90.0
 51
270.0
  0
ARC
  5
40E
100
AcDbEntity
  8
ASSI
100
AcDbCircle
 62
7
  6
CONTINUOUS
 10
-5.7
 20
-34.2
 40
0.7
100
AcDbArc
 50
270.0
 51
90.0
  0
ARC
  5
40F
100
AcDbEntity
  8
0
100
AcDbCircle
 62
7
  6
CONTINUOUS
 10
-10.0
 20
29.0
 40
4.9
100
AcDbArc
 50
138.4506183622
 51
174.1432980901
  0
ARC
  5
410
100
AcDbEntity
  8
DRAFT
100
AcDbCircle
 62
7
  6
CONTINUOUS
 10
-10.0
 20
29.0
 40
4.9
100
AcDbArc
 50
324.4345431239
 51
10.8263046481
  0
ARC
  5
411
100
AcDbEntity
  8
RACCORDO
100
AcDbCircle
 62
7
  6
CONTINUOUS
 10
-10.0
 20
29.0
 40
4.9
100
AcDbArc
 50
191.7757439859
 51
205.2183303709
  0
ARC
  5
412
100
AcDbEntity
  8
0
100
AcDbCircle
 62
7
  6
CONTINUOUS
 10
-1.5
 20
32.5
 40
4.5
100
AcDbArc
 50
214.9771223269
 51
270.0
  0
ARC
  5
413
100
AcDbEntity
  8
DRAFT
100
AcDbCircle
 62
7
  6
CONTINUOUS
 10
-13.75
 20
33.1
 40
3.0
100
AcDbArc
 50
90.0
 51
180.0
  0
ARC
  5
414
100
AcDbEntity
  8
0
100
AcDbCircle
 62
7
  6
CONTINUOUS
 10
-1.5
 20
32.5
 40
1.8
100
AcDbArc
 50
131.4096221093
 51
228.5903778907
  0
ARC
  5
415
100
AcDbEntity
  8
DRAFT
100
AcDbCircle
 62
7
  6
CONTINUOUS
 10
-7.25
 20
25.75
 40
1.039270267
100
AcDbArc
 50
22.6366287811
 51
80.7451609975
  0
ARC
  5
416
100
AcDbEntity
  8
ASSI
100
AcDbCircle
 62
7
  6
CONTINUOUS
 10
-7.25
 20
25.75
 40
1.0
100
AcDbArc
 50
269.211232731
 51
336.1350511345
  0
ARC
  5
417
100
AcDbEntity
  8
DRAFT
100
AcDbCircle
 62
7
  6
CONTINUOUS
 10
-7.25
 20
25.75
 40
1.0
100
AcDbArc
 50
15.609946039
 51
93.1627129956
  0
ARC
  5
418
100
AcDbEntity
  8
ASSI
100
AcDbCircle
 62
7
  6
CONTINUOUS
 10
-14.5
 20
34.2
 40
0.7
100
AcDbArc
 50
90.0
 51
270.0
  0
ARC
  5
419
100
AcDbEntity
  8
ASSI
100
AcDbCircle
 62
7
  6
CONTINUOUS
 10
-5.7
 20
34.2
 40
0.7
100
AcDbArc
 50
270.0
 51
90.0
  0
ARC
  5
41A
100
AcDbEntity
  8
0
100
AcDbCircle
 62
7
  6
CONTINUOUS
 10
10.0
 20
-29.0
 40
4.9
100
AcDbArc
 50
318.4506183622
 51
354.1432980901
  0
ARC
  5
41B
100
AcDbEntity
  8
DRAFT
100
AcDbCircle
 62
7
  6
CONTINUOUS
 10
10.0
 20
-29.0
 40
4.9
100
AcDbArc
 50
144.4345431239
 51
190.8263046481
  0
ARC
  5
41C
100
AcDbEntity
  8
RACCORDO
100
AcDbCircle
 62
7
  6
CONTINUOUS
 10
10.0
 20
-29.0
 40
4.9
100
AcDbArc
 50
11.7757439859
 51
25.2183303709
  0
ARC
  5
41D
100
AcDbEntity
  8
0
100
AcDbCircle
 62
7
  6
CONTINUOUS
 10
1.5
 20
-32.5
 40
4.5
100
AcDbArc
 50
34.9771223269
 51
90.0
  0
ARC
  5
41E
100
AcDbEntity
  8
RACCORDO
100
AcDbCircle
 62
7
  6
CONTINUOUS
 10
0.0
 20
-32.5
 40
3.2043457495
100
AcDbArc
 50
344.848018367
 51
15.1519816323
  0
ARC
  5
41F
100
AcDbEntity
  8
RACCORDO
100
AcDbCircle
 62
7
  6
CONTINUOUS
 10
0.0
 20
-32.5
 40
3.2043457495
100
AcDbArc
 50
164.848018367
 51
195.1519816323
  0
ARC
  5
420
100
AcDbEntity
  8
DRAFT
100
AcDbCircle
 62
7
  6
CONTINUOUS
 10
13.75
 20
-33.1
 40
3.0
100
AcDbArc
 50
270.0
 51
360.0
  0
ARC
  5
421
100
AcDbEntity
  8
RACCORDO
100
AcDbCircle
 62
250
  6
CONTINUOUS
 10
0.0
 20
-32.5
 40
2.7043456907
100
AcDbArc
 50
150.0510651678
 51
209.9489360523
  0
ARC
  5
422
100
AcDbEntity
  8
RACCORDO
100
AcDbCircle
 62
250
  6
CONTINUOUS
 10
0.0
 20
-32.5
 40
2.7043456907
100
AcDbArc
 50
330.0510651678
 51
29.9489360523
  0
ARC
  5
423
100
AcDbEntity
  8
0
100
AcDbCircle
 62
250
  6
CONTINUOUS
 10
0.0
 20
-32.5
 40
1.85
100
AcDbArc
 50
313.1086666932
 51
46.8913238121
  0
ARC
  5
424
100
AcDbEntity
  8
0
100
AcDbCircle
 62
250
  6
CONTINUOUS
 10
0.0
 20
-32.5
 40
1.85
100
AcDbArc
 50
133.1086666932
 51
226.8913238121
  0
ARC
  5
425
100
AcDbEntity
  8
0
100
AcDbCircle
 62
7
  6
CONTINUOUS
 10
1.5
 20
-32.5
 40
1.8
100
AcDbArc
 50
311.4096221093
 51
48.5903778907
  0
ARC
  5
426
100
AcDbEntity
  8
0
100
AcDbCircle
 62
7
  6
CONTINUOUS
 10
0.0
 20
-32.5
 40
1.25
100
AcDbArc
 50
280.4804536421
 51
4.6201597509
  0
ARC
  5
427
100
AcDbEntity
  8
DRAFT
100
AcDbCircle
 62
7
  6
CONTINUOUS
 10
7.25
 20
-25.75
 40
1.039270267
100
AcDbArc
 50
202.6366287811
 51
260.7451609975
  0
ARC
  5
428
100
AcDbEntity
  8
ASSI
100
AcDbCircle
 62
7
  6
CONTINUOUS
 10
7.25
 20
-25.75
 40
1.0
100
AcDbArc
 50
89.211232731
 51
156.1350511345
  0
ARC
  5
429
100
AcDbEntity
  8
DRAFT
100
AcDbCircle
 62
7
  6
CONTINUOUS
 10
7.25
 20
-25.75
 40
1.0
100
AcDbArc
 50
195.609946039
 51
273.1627129956
  0
ARC
  5
42A
100
AcDbEntity
  8
ASSI
100
AcDbCircle
 62
7
  6
CONTINUOUS
 10
14.5
 20
-34.2
 40
0.7
100
AcDbArc
 50
270.0
 51
90.0
  0
ARC
  5
42B
100
AcDbEntity
  8
ASSI
100
AcDbCircle
 62
7
  6
CONTINUOUS
 10
5.7
 20
-34.2
 40
0.7
100
AcDbArc
 50
90.0
 51
270.0
  0
ARC
  5
42C
100
AcDbEntity
  8
0
100
AcDbCircle
 62
7
  6
CONTINUOUS
 10
10.0
 20
29.0
 40
4.9
100
AcDbArc
 50
5.8567019099
 51
41.5493816378
  0
ARC
  5
42D
100
AcDbEntity
  8
DRAFT
100
AcDbCircle
 62
7
  6
CONTINUOUS
 10
10.0
 20
29.0
 40
4.9
100
AcDbArc
 50
169.1736953519
 51
215.5654568761
  0
ARC
  5
42E
100
AcDbEntity
  8
RACCORDO
100
AcDbCircle
 62
7
  6
CONTINUOUS
 10
10.0
 20
29.0
 40
4.9
100
AcDbArc
 50
334.7816696291
 51
348.2242560141
  0
ARC
  5
42F
100
AcDbEntity
  8
0
100
AcDbCircle
 62
7
  6
CONTINUOUS
 10
1.5
 20
32.5
 40
4.5
100
AcDbArc
 50
270.0
 51
325.0228776731
  0
ARC
  5
430
100
AcDbEntity
  8
RACCORDO
100
AcDbCircle
 62
7
  6
CONTINUOUS
 10
0.0
 20
32.5
 40
3.2043457495
100
AcDbArc
 50
164.848018367
 51
195.1519816323
  0
ARC
  5
431
100
AcDbEntity
  8
RACCORDO
100
AcDbCircle
 62
7
  6
CONTINUOUS
 10
0.0
 20
32.5
 40
3.2043457495
100
AcDbArc
 50
344.848018367
 51
15.1519816323
  0
ARC
  5
432
100
AcDbEntity
  8
DRAFT
100
AcDbCircle
 62
7
  6
CONTINUOUS
 10
13.75
 20
33.1
 40
3.0
100
AcDbArc
 50
0.0
 51
90.0
  0
ARC
  5
433
100
AcDbEntity
  8
RACCORDO
100
AcDbCircle
 62
250
  6
CONTINUOUS
 10
0.0
 20
32.5
 40
2.7043456907
100
AcDbArc
 50
330.0510651678
 51
29.9489360523
  0
ARC
  5
434
100
AcDbEntity
  8
RACCORDO
100
AcDbCircle
 62
250
  6
CONTINUOUS
 10
0.0
 20
32.5
 40
2.7043456907
100
AcDbArc
 50
150.0510651678
 51
209.9489360523
  0
ARC
  5
435
100
AcDbEntity
  8
0
100
AcDbCircle
 62
250
  6
CONTINUOUS
 10
0.0
 20
32.5
 40
1.85
100
AcDbArc
 50
133.1086666932
 51
226.8913238121
  0
ARC
  5
436
100
AcDbEntity
  8
0
100
AcDbCircle
 62
250
  6
CONTINUOUS
 10
0.0
 20
32.5
 40
1.85
100
AcDbArc
 50
313.1086666932
 51
46.8913238121
  0
ARC
  5
437
100
AcDbEntity
  8
0
100
AcDbCircle
 62
7
  6
CONTINUOUS
 10
1.5
 20
32.5
 40
1.8
100
AcDbArc
 50
311.4096221093
 51
48.5903778907
  0
ARC
  5
438
100
AcDbEntity
  8
0
100
AcDbCircle
 62
7
  6
CONTINUOUS
 10
0.0
 20
32.5
 40
1.25
100
AcDbArc
 50
100.4804536421
 51
184.6201597509
  0
ARC
  5
439
100
AcDbEntity
  8
DRAFT
100
AcDbCircle
 62
7
  6
CONTINUOUS
 10
7.25
 20
25.75
 40
1.039270267
100
AcDbArc
 50
99.2548390025
 51
157.3633712189
  0
ARC
  5
43A
100
AcDbEntity
  8
ASSI
100
AcDbCircle
 62
7
  6
CONTINUOUS
 10
7.25
 20
25.75
 40
1.0
100
AcDbArc
 50
203.8649488655
 51
270.8897177344
  0
ARC
  5
43B
100
AcDbEntity
  8
DRAFT
100
AcDbCircle
 62
7
  6
CONTINUOUS
 10
7.25
 20
25.75
 40
1.0
100
AcDbArc
 50
86.8372870044
 51
164.390053961
  0
ARC
  5
43C
100
AcDbEntity
  8
ASSI
100
AcDbCircle
 62
7
  6
CONTINUOUS
 10
14.5
 20
34.2
 40
0.7
100
AcDbArc
 50
270.0
 51
90.0
  0
ARC
  5
43D
100
AcDbEntity
  8
ASSI
100
AcDbCircle
 62
7
  6
CONTINUOUS
 10
5.7
 20
34.2
 40
0.7
100
AcDbArc
 50
90.0
 51
270.0
  0
ELLIPSE
  5
43E
100
AcDbEntity
  8
RACCORDO
100
AcDbEllipse
 62
7
  6
CONTINUOUS
 10
2.0
 20
26.1447634805
 30
0.0
 11
1.0
 21
-0.0
 31
0.0
 40
0.0174550649
 41
-1.5707963268
 42
0.0
  0
ELLIPSE
  5
43F
100
AcDbEntity
  8
RACCORDO
100
AcDbEllipse
 62
7
  6
CONTINUOUS
 10
-2.0
 20
26.1447634805
 30
0.0
 11
1.0
 21
-0.0
 31
0.0
 40
0.0174550649
 41
-3.1415926536
 42
-1.5707963268
  0
ELLIPSE
  5
440
100
AcDbEntity
  8
RACCORDO
100
AcDbEllipse
 62
7
  6
CONTINUOUS
 10
2.0
 20
-26.1447634805
 30
0.0
 11
1.0
 21
-0.0
 31
0.0
 40
0.0174550649
 41
-0.0
 42
1.5707963268
  0
ELLIPSE
  5
441
100
AcDbEntity
  8
RACCORDO
100
AcDbEllipse
 62
7
  6
CONTINUOUS
 10
-2.0
 20
-26.1447634805
 30
0.0
 11
1.0
 21
-0.0
 31
0.0
 40
0.0174550649
 41
1.5707963268
 42
3.1415926536
  0
ELLIPSE
  5
442
100
AcDbEntity
  8
RACCORDO
100
AcDbEllipse
 62
7
  6
CONTINUOUS
 10
6.2910162786
 20
-24.7910733962
 30
0.0
 11
-0.0
 21
1.5
 31
0.0
 40
0.0087268678
 41
-0.3460142869
 42
-0.0087266463
  0
ELLIPSE
  5
443
100
AcDbEntity
  8
RACCORDO
100
AcDbEllipse
 62
7
  6
CONTINUOUS
 10
-14.1798889187
 20
-25.65
 30
0.0
 11
1.0
 21
0.0
 31
0.0
 40
1.0
 41
-1.5707963268
 42
-0.5235987756
  0
ELLIPSE
  5
444
100
AcDbEntity
  8
RACCORDO
100
AcDbEllipse
 62
7
  6
CONTINUOUS
 10
-14.1798889187
 20
25.65
 30
0.0
 11
0.0
 21
1.0
 31
0.0
 40
1.0
 41
-1.0471975512
 42
0.0
  0
ELLIPSE
  5
445
100
AcDbEntity
  8
RACCORDO
100
AcDbEllipse
 62
7
  6
CONTINUOUS
 10
14.1798889187
 20
25.65
 30
0.0
 11
1.0
 21
-0.0
 31
0.0
 40
1.0
 41
1.5707963268
 42
2.617993878
  0
ELLIPSE
  5
446
100
AcDbEntity
  8
RACCORDO
100
AcDbEllipse
 62
7
  6
CONTINUOUS
 10
14.1798889187
 20
-25.65
 30
0.0
 11
0.0
 21
1.0
 31
0.0
 40
1.0
 41
-4.1887902048
 42
-3.1415926536
  0
ELLIPSE
  5
447
100
AcDbEntity
  8
DRAFT
100
AcDbEllipse
 62
7
  6
CONTINUOUS
 10
7.500076164
 20
-26.499923836
 30
0.0
 11
0.3536610946
 21
0.3536610946
 31
0.0
 40
0.9996954599
 41
-3.3429193674
 42
-2.3563467834
  0
ELLIPSE
  5
448
100
AcDbEntity
  8
DRAFT
100
AcDbEllipse
 62
7
  6
CONTINUOUS
 10
7.500076164
 20
26.499923836
 30
0.0
 11
0.3536610946
 21
-0.3536610946
 31
0.0
 40
0.9996954599
 41
2.3563467834
 42
3.3429193674
  0
ELLIPSE
  5
449
100
AcDbEntity
  8
DRAFT
100
AcDbEllipse
 62
7
  6
CONTINUOUS
 10
-7.500076164
 20
26.499923836
 30
0.0
 11
0.3536610946
 21
0.3536610946
 31
0.0
 40
0.9996954599
 41
-0.2013267139
 42
0.7852458701
  0
ELLIPSE
  5
44A
100
AcDbEntity
  8
DRAFT
100
AcDbEllipse
 62
7
  6
CONTINUOUS
 10
-7.500076164
 20
-26.499923836
 30
0.0
 11
0.3536610946
 21
-0.3536610946
 31
0.0
 40
0.9996954599
 41
-0.7852458701
 42
0.2013267139
  0
ELLIPSE
  5
44B
100
AcDbEntity
  8
RACCORDO
100
AcDbEllipse
 62
7
  6
CONTINUOUS
 10
-14.149923836
 20
26.499923836
 30
0.0
 11
0.3536610946
 21
-0.3536610946
 31
0.0
 40
0.9996954599
 41
2.3563467834
 42
2.9577314078
  0
ELLIPSE
  5
44C
100
AcDbEntity
  8
RACCORDO
100
AcDbEllipse
 62
7
  6
CONTINUOUS
 10
-14.176903484
 20
26.526903484
 30
0.0
 11
-0.203331579
 21
0.4589726372
 31
0.0
 40
0.9954309686
 41
0.1583586264
 42
1.1551553666
  0
ELLIPSE
  5
44D
100
AcDbEntity
  8
RACCORDO
100
AcDbEllipse
 62
7
  6
CONTINUOUS
 10
14.176903484
 20
26.526903484
 30
0.0
 11
0.203331579
 21
0.4589726372
 31
0.0
 40
0.9954309686
 41
-1.1551553666
 42
-0.1583586264
  0
ELLIPSE
  5
44E
100
AcDbEntity
  8
RACCORDO
100
AcDbEllipse
 62
7
  6
CONTINUOUS
 10
14.149923836
 20
26.499923836
 30
0.0
 11
0.3536610946
 21
0.3536610946
 31
0.0
 40
0.9996954599
 41
0.1838612458
 42
0.7852458701
  0
ELLIPSE
  5
44F
100
AcDbEntity
  8
RACCORDO
100
AcDbEllipse
 62
7
  6
CONTINUOUS
 10
-14.176903484
 20
-26.526903484
 30
0.0
 11
0.203331579
 21
0.4589726372
 31
0.0
 40
0.9954309686
 41
-4.2967480202
 42
-3.29995128
  0
ELLIPSE
  5
450
100
AcDbEntity
  8
RACCORDO
100
AcDbEllipse
 62
7
  6
CONTINUOUS
 10
-14.149923836
 20
-26.499923836
 30
0.0
 11
0.3536610946
 21
0.3536610946
 31
0.0
 40
0.9996954599
 41
-2.9577314078
 42
-2.3563467834
  0
ELLIPSE
  5
451
100
AcDbEntity
  8
RACCORDO
100
AcDbEllipse
 62
7
  6
CONTINUOUS
 10
14.149923836
 20
-26.499923836
 30
0.0
 11
0.3536610946
 21
-0.3536610946
 31
0.0
 40
0.9996954599
 41
-0.7852458701
 42
-0.1838612458
  0
ELLIPSE
  5
452
100
AcDbEntity
  8
RACCORDO
100
AcDbEllipse
 62
7
  6
CONTINUOUS
 10
14.176903484
 20
-26.526903484
 30
0.0
 11
-0.203331579
 21
0.4589726372
 31
0.0
 40
0.9954309686
 41
-2.9832340272
 42
-1.986437287
  0
ELLIPSE
  5
453
100
AcDbEntity
  8
RACCORDO
100
AcDbEllipse
 62
7
  6
CONTINUOUS
 10
6.2910162786
 20
24.7910733962
 30
0.0
 11
0.0
 21
1.5
 31
0.0
 40
0.0087268678
 41
-3.1328660073
 42
-2.7955783666
  0
ELLIPSE
  5
454
100
AcDbEntity
  8
RACCORDO
100
AcDbEllipse
 62
7
  6
CONTINUOUS
 10
-6.2910162786
 20
24.7910733962
 30
0.0
 11
-0.0
 21
1.5
 31
0.0
 40
0.0087268678
 41
-3.4876069405
 42
-3.1503192998
  0
ELLIPSE
  5
455
100
AcDbEntity
  8
RACCORDO
100
AcDbEllipse
 62
7
  6
CONTINUOUS
 10
-6.2910162786
 20
-24.7910733962
 30
0.0
 11
-0.0
 21
1.5
 31
0.0
 40
0.0087268678
 41
0.0087266463
 42
0.3460142869
  0
ELLIPSE
  5
456
100
AcDbEntity
  8
DRAFT
100
AcDbEllipse
 62
7
  6
CONTINUOUS
 10
7.25
 20
-26.0530262454
 30
0.0
 11
0.0
 21
1.0101808289
 31
0.0
 40
0.9539479188
 41
1.5371928178
 42
1.6669408125
  0
ELLIPSE
  5
457
100
AcDbEntity
  8
DRAFT
100
AcDbEllipse
 62
7
  6
CONTINUOUS
 10
-7.25
 20
-26.0530262454
 30
0.0
 11
-0.0
 21
1.0101808289
 31
0.0
 40
0.9539479188
 41
-1.6669408125
 42
-1.5371928178
  0
ELLIPSE
  5
458
100
AcDbEntity
  8
DRAFT
100
AcDbEllipse
 62
7
  6
CONTINUOUS
 10
7.25
 20
26.0530262454
 30
0.0
 11
-0.0
 21
1.0101808289
 31
0.0
 40
0.9539479188
 41
1.4746518411
 42
1.6043998358
  0
ELLIPSE
  5
459
100
AcDbEntity
  8
DRAFT
100
AcDbEllipse
 62
7
  6
CONTINUOUS
 10
-7.25
 20
26.0530262454
 30
0.0
 11
0.0
 21
1.0101808289
 31
0.0
 40
0.9539479188
 41
-1.6043998358
 42
-1.4746518411
  0
ELLIPSE
  5
45A
100
AcDbEntity
  8
DRAFT
100
AcDbEllipse
 62
7
  6
CONTINUOUS
 10
7.630989151
 20
-26.369010849
 30
0.0
 11
-0.3536610946
 21
-0.3536610946
 31
0.0
 40
0.9996954599
 41
0.0759435668
 42
0.7852458701
  0
ELLIPSE
  5
45B
100
AcDbEntity
  8
RACCORDO
100
AcDbEllipse
 62
7
  6
CONTINUOUS
 10
14.019010849
 20
-26.369010849
 30
0.0
 11
-0.3536610946
 21
0.3536610946
 31
0.0
 40
0.9996954599
 41
2.3563467834
 42
3.9268385237
  0
ELLIPSE
  5
45C
100
AcDbEntity
  8
RACCORDO
100
AcDbEllipse
 62
7
  6
CONTINUOUS
 10
14.019010849
 20
26.369010849
 30
0.0
 11
-0.3536610946
 21
-0.3536610946
 31
0.0
 40
0.9996954599
 41
2.3563467834
 42
3.9268385237
  0
ELLIPSE
  5
45D
100
AcDbEntity
  8
DRAFT
100
AcDbEllipse
 62
7
  6
CONTINUOUS
 10
7.630989151
 20
26.369010849
 30
0.0
 11
-0.3536610946
 21
0.3536610946
 31
0.0
 40
0.9996954599
 41
-0.7852458701
 42
-0.0759435668
  0
ELLIPSE
  5
45E
100
AcDbEntity
  8
DRAFT
100
AcDbEllipse
 62
7
  6
CONTINUOUS
 10
-7.630989151
 20
26.369010849
 30
0.0
 11
0.3536610946
 21
0.3536610946
 31
0.0
 40
0.9996954599
 41
0.0759435668
 42
0.7852458701
  0
ELLIPSE
  5
45F
100
AcDbEntity
  8
RACCORDO
100
AcDbEllipse
 62
7
  6
CONTINUOUS
 10
-14.019010849
 20
26.369010849
 30
0.0
 11
-0.3536610946
 21
0.3536610946
 31
0.0
 40
0.9996954599
 41
-0.7852458701
 42
0.7852458701
  0
ELLIPSE
  5
460
100
AcDbEntity
  8
RACCORDO
100
AcDbEllipse
 62
7
  6
CONTINUOUS
 10
-14.019010849
 20
-26.369010849
 30
0.0
 11
0.3536610946
 21
0.3536610946
 31
0.0
 40
0.9996954599
 41
2.3563467834
 42
3.9268385237
  0
ELLIPSE
  5
461
100
AcDbEntity
  8
DRAFT
100
AcDbEllipse
 62
7
  6
CONTINUOUS
 10
-7.630989151
 20
-26.369010849
 30
0.0
 11
0.3536610946
 21
-0.3536610946
 31
0.0
 40
0.9996954599
 41
-0.7852458701
 42
-0.0759435668
  0
ENDSEC
  0
SECTION
  2
OBJECTS
  0
DICTIONARY
  5
C
100
AcDbDictionary
280
0
281
1
  3
ACAD_GROUP
350
D
  3
ACAD_MLINESTYLE
350
17
  3
ACAD_LAYOUT
350
1A
  3
ACAD_PLOTSETTINGS
350
19
  3
ACAD_PLOTSTYLENAME
350
E
  0
DICTIONARY
  5
D
102
{ACAD_REACTORS
330
C
102
}
100
AcDbDictionary
280
0
281
1
  0
ACDBDICTIONARYWDFLT
  5
E
102
{ACAD_REACTORS
330
C
102
}
100
AcDbDictionary
281
1
  3
Normal
350
F
100
AcDbDictionaryWithDefault
340
F
  0
DICTIONARY
  5
17
102
{ACAD_REACTORS
330
C
102
}
100
AcDbDictionary
280
0
281
1
  3
Standard
350
18
  0
DICTIONARY
  5
19
102
{ACAD_REACTORS
330
C
102
}
100
AcDbDictionary
281
1
  0
DICTIONARY
  5
1A
102
{ACAD_REACTORS
330
C
102
}
100
AcDbDictionary
281
1
  3
Model
350
462
  3
Layout1
350
463
  0
ACDBPLACEHOLDER
  5
F
102
{ACAD_REACTORS
330
E
102
}
  0
MLINESTYLE
  5
18
102
{ACAD_REACTORS
330
17
102
}
100
AcDbMlineStyle
  2
STANDARD
 70
0
  3

 62
256
 51
90.0
 52
90.0
 71
2
 49
0.5
 62
256
  6
BYLAYER
 49
-0.5
 62
256
  6
BYLAYER
  0
LAYOUT
  5
462
102
{ACAD_REACTORS
330
1A
102
}
100
AcDbPlotSettings
  1

  2
none_device
  4
ANSI_C_(22.00_x_17.00_Inches)
  6

 40
0.0
 41
0.0
 42
0.0
 43
0.0
 44
558.8
 45
431.8
 46
0.0
 47
0.0
 48
0.0
 49
0.0
140
0.0
141
0.0
142
1.0
143
1.0
 70
1024
 72
1
 73
0
 74
0
  7

 75
0
147
1.0
148
0.0
149
0.0
100
AcDbLayout
  1
Model
 70
0
 71
0
 10
0.0
 20
0.0
 11
558.8
 21
431.8
 12
0.0
 22
0.0
 32
0.0
 14
0.0
 24
0.0
 34
0.0
 15
0.0
 25
0.0
 35
0.0
146
0.0
 13
0.0
 23
0.0
 33
0.0
 16
1.0
 26
0.0
 36
0.0
 17
0.0
 27
1.0
 37
0.0
 76
0
330
216
345
0
346
0
  0
LAYOUT
  5
463
102
{ACAD_REACTORS
330
1A
102
}
100
AcDbPlotSettings
  1

  2
none_device
  4
ANSI_C_(22.00_x_17.00_Inches)
  6

 40
0.0
 41
0.0
 42
0.0
 43
0.0
 44
558.8
 45
431.8
 46
0.0
 47
0.0
 48
0.0
 49
0.0
140
0.0
141
0.0
142
1.0
143
1.0
 70
0
 72
1
 73
0
 74
0
  7

 75
0
147
1.0
148
0.0
149
0.0
100
AcDbLayout
  1
Layout1
 70
0
 71
1
 10
0.0
 20
0.0
 11
558.8
 21
431.8
 12
0.0
 22
0.0
 32
0.0
 14
0.0
 24
0.0
 34
0.0
 15
0.0
 25
0.0
 35
0.0
146
0.0
 13
0.0
 23
0.0
 33
0.0
 16
1.0
 26
0.0
 36
0.0
 17
0.0
 27
1.0
 37
0.0
 76
0
330
217
345
0
346
0
  0
ENDSEC
  0
EOF
