0
SECTION
2
HEADER
9
$ACADVER
1
AC1014
9
$HANDSEED
5
       4C9
9
$EXTMAX
10
297.0000000000
20
210.0000000000
9
$EXTMIN
10
0.0000000000
20
0.0000000000
9
$LIMMIN
10
0.0000000000
20
0.0000000000
9
$LIMMAX
10
297.0000000000
20
210.0000000000
9
$VIEWCTR
10
148.5000000000
20
105.0000000000
9
$VIEWSIZE
40
210.0000000000
9
$CLAYER
8
0
9
$LTSCALE
40
16.3350000000
9
$CELTYPE
6
BYLAYER
9
$DIMSCALE
40
1
9
$DIMASZ
40
3.0000000000
9
$DIMEXO
40
1.8562500000
9
$DIMDLI
40
11.2860000000
9
$DIMEXE
40
5.3460000000
9
$DIMCEN
40
2.6730000000
9
$DIMLFAC
40
1.0000000000
9
$DIMTXT
40
3.0000000000
9
$DIMTOL
70
1
9
$DIMLIM
70
0
9
$DIMTFAC
40
1.0000000000
9
$DIMTP
40
0.0100000000
9
$DIMTM
40
0.0100000000
9
$MEASUREMENT
70
1
0
ENDSEC
0
SECTION
2
CLASSES
0
ENDSEC
0
SECTION
2
TABLES
0
TABLE
2
VPORT
5
8
100
AcDbSymbolTable
70
2
0
VPORT
5
1F4
100
AcDbSymbolTableRecord
100
AcDbViewportTableRecord
2
*ACTIVE
70
0
10
0.0
20
0.0
11
1.0
21
1.0
12
148.5000000000
22
105.0000000000
13
0.0
23
0.0
14
1.0
24
1.0
15
0.0
25
0.0
16
0.0
26
0.0
36
1.0
17
0.0
27
0.0
37
0.0
40
210.0000000000
41
1.4142857143
42
50.0
43
0.0
44
0.0
50
0.0
51
0.0
71
0
72
100
73
1
74
1
75
0
76
0
77
0
78
0
0
ENDTAB
0
TABLE
2
LTYPE
5
5
100
AcDbSymbolTable
70
6
0
LTYPE
5
14
100
AcDbSymbolTableRecord
100
AcDbLinetypeTableRecord
2
BYBLOCK
70
0
3

72
65
73
0
40
0.0
0
LTYPE
5
15
100
AcDbSymbolTableRecord
100
AcDbLinetypeTableRecord
2
BYLAYER
70
0
3

72
65
73
0
40
0.0
0
LTYPE
5
16
100
AcDbSymbolTableRecord
100
AcDbLinetypeTableRecord
2
CONTINUOUS
70
64
3
Solid line
72
65
73
0
40
0
0
LTYPE
5
1F5
100
AcDbSymbolTableRecord
100
AcDbLinetypeTableRecord
2
CENTER
70
64
3
____ _ ____ _ ____ _ ____ _ ____ _ ____ _ ____
72
65
73
4
40
0.6
49
0.375
74
0
49
-0.075
74
0
49
0.075
74
0
49
-0.075
74
0
0
LTYPE
5
1F6
100
AcDbSymbolTableRecord
100
AcDbLinetypeTableRecord
2
HIDDEN
70
64
3
- - - - - - - - - - - - - - - - - - - -
72
65
73
2
40
0.2
49
0.1
74
0
49
-0.1
74
0
0
LTYPE
5
1F7
100
AcDbSymbolTableRecord
100
AcDbLinetypeTableRecord
2
PHANTOM
70
64
3
_____ _ _ _____ _ _ _____ _ _ _____
72
65
73
6
40
0.8
49
0.45
74
0
49
-0.05
74
0
49
0.1
74
0
49
-0.05
74
0
49
0.1
74
0
49
-0.05
74
0
0
LTYPE
5
1F8
100
AcDbSymbolTableRecord
100
AcDbLinetypeTableRecord
2
DOT
70
64
3
. . . . . . . . . . . . . . . . . . . .
72
65
73
2
40
0.2
49
0.1
74
0
49
-0.1
74
0
0
LTYPE
5
1F9
100
AcDbSymbolTableRecord
100
AcDbLinetypeTableRecord
2
DASHED
70
64
3
- - - - - - - - - - - - - - - - - - - -
72
65
73
2
40
0.2
49
0.1
74
0
49
-0.1
74
0
0
ENDTAB
0
TABLE
2
LAYER
5
2
100
AcDbSymbolTable
70
36
0
LAYER
5
10
100
AcDbSymbolTableRecord
100
AcDbLayerTableRecord
2
0
70
0
62
7
6
CONTINUOUS
0
LAYER
5
1FA
100
AcDbSymbolTableRecord
100
AcDbLayerTableRecord
2
DEFAULT_1
70
0
62
7
6
CENTER
0
LAYER
5
1FB
100
AcDbSymbolTableRecord
100
AcDbLayerTableRecord
2
DEFAULT_2
70
0
62
8
6
HIDDEN
0
LAYER
5
1FC
100
AcDbSymbolTableRecord
100
AcDbLayerTableRecord
2
DEFAULT_3
70
0
62
7
6
PHANTOM
0
LAYER
5
1FD
100
AcDbSymbolTableRecord
100
AcDbLayerTableRecord
2
ASSI
70
0
62
7
6
CONTINUOUS
0
LAYER
5
1FE
100
AcDbSymbolTableRecord
100
AcDbLayerTableRecord
2
COLOR5
70
0
62
7
6
CONTINUOUS
0
LAYER
5
1FF
100
AcDbSymbolTableRecord
100
AcDbLayerTableRecord
2
COORDINATE
70
0
62
7
6
CONTINUOUS
0
LAYER
5
200
100
AcDbSymbolTableRecord
100
AcDbLayerTableRecord
2
COORD_ORIGINE
70
0
62
7
6
CONTINUOUS
0
LAYER
5
201
100
AcDbSymbolTableRecord
100
AcDbLayerTableRecord
2
CURVE
70
0
62
7
6
CONTINUOUS
0
LAYER
5
202
100
AcDbSymbolTableRecord
100
AcDbLayerTableRecord
2
DRAFT
70
0
62
7
6
CONTINUOUS
0
LAYER
5
203
100
AcDbSymbolTableRecord
100
AcDbLayerTableRecord
2
IMPORT
70
0
62
7
6
CONTINUOUS
0
LAYER
5
204
100
AcDbSymbolTableRecord
100
AcDbLayerTableRecord
2
LAY0001
70
0
62
7
6
CONTINUOUS
0
LAYER
5
205
100
AcDbSymbolTableRecord
100
AcDbLayerTableRecord
2
NOTE
70
0
62
7
6
CONTINUOUS
0
LAYER
5
206
100
AcDbSymbolTableRecord
100
AcDbLayerTableRecord
2
PIANI
70
0
62
7
6
CONTINUOUS
0
LAYER
5
207
100
AcDbSymbolTableRecord
100
AcDbLayerTableRecord
2
PIANI_ORIGINE
70
0
62
7
6
CONTINUOUS
0
LAYER
5
208
100
AcDbSymbolTableRecord
100
AcDbLayerTableRecord
2
PUNTI
70
0
62
7
6
CONTINUOUS
0
LAYER
5
209
100
AcDbSymbolTableRecord
100
AcDbLayerTableRecord
2
RACCORDO
70
0
62
7
6
CONTINUOUS
0
LAYER
5
20A
100
AcDbSymbolTableRecord
100
AcDbLayerTableRecord
2
SMUSSO
70
0
62
7
6
CONTINUOUS
0
LAYER
5
20B
100
AcDbSymbolTableRecord
100
AcDbLayerTableRecord
2
SUPERFICI
70
0
62
7
6
CONTINUOUS
0
LAYER
5
20C
100
AcDbSymbolTableRecord
100
AcDbLayerTableRecord
2
TRASH
70
0
62
7
6
CONTINUOUS
0
LAYER
5
20D
100
AcDbSymbolTableRecord
100
AcDbLayerTableRecord
2
XSEC_DATUMS
70
0
62
7
6
CONTINUOUS
0
ENDTAB
0
TABLE
2
STYLE
5
3
100
AcDbSymbolTable
70
1
0
STYLE
5
11
100
AcDbSymbolTableRecord
100
AcDbTextStyleTableRecord
2
STANDARD
70
0
40
0.0
41
0.8000000000
50
0.0
71
0
42
0.2
3
txt
4

0
ENDTAB
0
TABLE
2
VIEW
5
6
100
AcDbSymbolTable
70
0
0
ENDTAB
0
TABLE
2
UCS
5
7
100
AcDbSymbolTable
70
0
0
ENDTAB
0
TABLE
2
APPID
5
9
100
AcDbSymbolTable
70
1
0
APPID
5
20E
100
AcDbSymbolTableRecord
100
AcDbRegAppTableRecord
2
ACAD
70
0
0
ENDTAB
0
TABLE
2
DIMSTYLE
5
A
100
AcDbSymbolTable
70
1
0
DIMSTYLE
105
20F
100
AcDbSymbolTableRecord
100
AcDbDimStyleTableRecord
2
STANDARD
70
0
3

4

5

6

7

40
1.0
41
3.0000000000
42
0.0625
43
0.38
44
0.18
45
0.0
46
0.0
47
0.0100000000
48
0.0100000000
140
3.0000000000
141
0.09
142
0.0
143
25.4
144
1.0000000000
145
0.0
146
1.0000000000
147
0.09
71
1
72
0
73
0
74
0
75
0
76
0
77
1
78
8
170
0
171
2
172
0
173
0
174
0
175
0
176
0
177
0
178
0
270
2
271
2
272
2
273
2
274
2
340
11
275
0
280
0
281
0
282
0
283
1
284
8
285
0
286
0
287
3
288
0
0
ENDTAB
0
TABLE
2
BLOCK_RECORD
5
1
100
AcDbSymbolTable
70
0
0
BLOCK_RECORD
5
1B
100
AcDbSymbolTableRecord
100
AcDbBlockTableRecord
2
*MODEL_SPACE
0
BLOCK_RECORD
5
1C
100
AcDbSymbolTableRecord
100
AcDbBlockTableRecord
2
*PAPER_SPACE
0
ENDTAB
0
ENDSEC
0
SECTION
2
BLOCKS
0
BLOCK
5
1E
100
AcDbEntity
8
0
100
AcDbBlockBegin
2
*MODEL_SPACE
70
0
10
0.0
20
0.0
30
0.0
3
*MODEL_SPACE
1

0
ENDBLK
5
1F
100
AcDbEntity
8
0
100
AcDbBlockEnd
0
BLOCK
5
20
100
AcDbEntity
8
0
100
AcDbBlockBegin
2
*PAPER_SPACE
70
0
10
0.0
20
0.0
30
0.0
3
*PAPER_SPACE
1

0
ENDBLK
5
21
100
AcDbEntity
8
0
100
AcDbBlockEnd
0
ENDSEC
0
SECTION
2
ENTITIES
0
LINE
5
210
100
AcDbEntity
8
0
100
AcDbLine
62
7
6
CONTINUOUS
10
-3.2500000000
20
-22.3676714602
11
3.2500000000
21
-22.3676714602
0
LINE
5
211
100
AcDbEntity
8
0
100
AcDbLine
62
7
6
CONTINUOUS
10
-11.6000000000
20
-20.3676714602
11
-8.6000000000
21
-20.3676714602
0
LINE
5
212
100
AcDbEntity
8
0
100
AcDbLine
62
7
6
CONTINUOUS
10
8.6000000000
20
-20.3676714602
11
11.6000000000
21
-20.3676714602
0
LINE
5
213
100
AcDbEntity
8
0
100
AcDbLine
62
9
6
CONTINUOUS
10
-11.6000000000
20
-20.2212248508
11
-8.6000000000
21
-20.2212248508
0
LINE
5
214
100
AcDbEntity
8
0
100
AcDbLine
62
9
6
CONTINUOUS
10
8.6000000000
20
-20.2212248508
11
11.6000000000
21
-20.2212248508
0
LINE
5
215
100
AcDbEntity
8
0
100
AcDbLine
62
7
6
CONTINUOUS
10
4.5000000000
20
-20.0676714602
11
3.2500000000
21
-20.0676714602
0
LINE
5
216
100
AcDbEntity
8
0
100
AcDbLine
62
7
6
CONTINUOUS
10
-3.2500000000
20
-20.0676714602
11
-4.5000000000
21
-20.0676714602
0
LINE
5
217
100
AcDbEntity
8
0
100
AcDbLine
62
7
6
CONTINUOUS
10
13.7500000000
20
-19.4676714602
11
4.5000000000
21
-19.4676714602
0
LINE
5
218
100
AcDbEntity
8
0
100
AcDbLine
62
7
6
CONTINUOUS
10
-4.5000000000
20
-19.4676714602
11
-13.7500000000
21
-19.4676714602
0
LINE
5
219
100
AcDbEntity
8
0
100
AcDbLine
62
7
6
CONTINUOUS
10
14.5000000000
20
-18.2676714602
11
5.7000000000
21
-18.2676714602
0
LINE
5
21A
100
AcDbEntity
8
0
100
AcDbLine
62
7
6
CONTINUOUS
10
-5.7000000000
20
-18.2676714602
11
-14.5000000000
21
-18.2676714602
0
LINE
5
21B
100
AcDbEntity
8
0
100
AcDbLine
62
7
6
CONTINUOUS
10
-2.6905880900
20
-17.2176714602
11
-1.1122455453
21
-17.2176714602
0
LINE
5
21C
100
AcDbEntity
8
0
100
AcDbLine
62
7
6
CONTINUOUS
10
1.1121714031
20
-17.2176714602
11
2.6905880900
21
-17.2176714602
0
LINE
5
21D
100
AcDbEntity
8
0
100
AcDbLine
62
7
6
CONTINUOUS
10
-14.5000000000
20
-16.8676714602
11
-5.7000000000
21
-16.8676714602
0
LINE
5
21E
100
AcDbEntity
8
0
100
AcDbLine
62
7
6
CONTINUOUS
10
5.7000000000
20
-16.8676714602
11
14.5000000000
21
-16.8676714602
0
LINE
5
21F
100
AcDbEntity
8
0
100
AcDbLine
62
7
6
CONTINUOUS
10
-15.4500000000
20
-15.6176714602
11
-13.6670833097
21
-15.6176714602
0
LINE
5
220
100
AcDbEntity
8
0
100
AcDbLine
62
7
6
CONTINUOUS
10
13.6670833097
20
-15.6176714602
11
15.4500000000
21
-15.6176714602
0
LINE
5
221
100
AcDbEntity
8
0
100
AcDbLine
62
7
6
CONTINUOUS
10
-2.6905880900
20
-14.5176714602
11
-1.1134457648
21
-14.5176714602
0
LINE
5
222
100
AcDbEntity
8
0
100
AcDbLine
62
7
6
CONTINUOUS
10
1.1120007114
20
-14.5176714602
11
2.6905880900
21
-14.5176714602
0
LINE
5
223
100
AcDbEntity
8
0
100
AcDbLine
62
7
6
CONTINUOUS
10
-8.3429450000
20
-14.2426714602
11
-6.8824440000
21
-14.2426714602
0
LINE
5
224
100
AcDbEntity
8
0
100
AcDbLine
62
7
6
CONTINUOUS
10
-6.8824440000
20
-13.4926714602
11
-8.3429481120
21
-13.4926714602
0
LINE
5
225
100
AcDbEntity
8
0
100
AcDbLine
62
7
6
CONTINUOUS
10
15.4500000000
20
-12.8676714602
11
14.8744230428
21
-12.8676714602
0
LINE
5
226
100
AcDbEntity
8
0
100
AcDbLine
62
7
6
CONTINUOUS
10
-14.8744230428
20
-12.8676714602
11
-15.4500000000
21
-12.8676714602
0
LINE
5
227
100
AcDbEntity
8
0
100
AcDbLine
62
7
6
CONTINUOUS
10
-15.4500000000
20
-11.3676714602
11
-14.7968739821
21
-11.3676714602
0
LINE
5
228
100
AcDbEntity
8
0
100
AcDbLine
62
7
6
CONTINUOUS
10
-1.5000000000
20
-11.3676714602
11
-0.7500000000
21
-11.3676714602
0
LINE
5
229
100
AcDbEntity
8
0
100
AcDbLine
62
7
6
CONTINUOUS
10
0.7500000000
20
-11.3676714602
11
1.5000000000
21
-11.3676714602
0
LINE
5
22A
100
AcDbEntity
8
0
100
AcDbLine
62
7
6
CONTINUOUS
10
14.7968739821
20
-11.3676714602
11
15.4500000000
21
-11.3676714602
0
LINE
5
22B
100
AcDbEntity
8
0
100
AcDbLine
62
7
6
CONTINUOUS
10
-4.1940475203
20
-9.5236239399
11
-3.0000000000
21
-9.5206477000
0
LINE
5
22C
100
AcDbEntity
8
0
100
AcDbLine
62
7
6
CONTINUOUS
10
3.2000000000
20
-10.5176714602
11
0.7500000000
21
-10.5176714602
0
LINE
5
22D
100
AcDbEntity
8
0
100
AcDbLine
62
7
6
CONTINUOUS
10
-0.7500000000
20
-10.5176714602
11
-3.2000000000
21
-10.5176714602
0
LINE
5
22E
100
AcDbEntity
8
0
100
AcDbLine
62
7
6
CONTINUOUS
10
14.1500761524
20
-10.3676714602
11
7.4999238476
21
-10.3676714602
0
LINE
5
22F
100
AcDbEntity
8
0
100
AcDbLine
62
7
6
CONTINUOUS
10
3.3500000000
20
-10.3676714602
11
-3.3500000000
21
-10.3676714602
0
LINE
5
230
100
AcDbEntity
8
0
100
AcDbLine
62
7
6
CONTINUOUS
10
-7.4999238476
20
-10.3676714602
11
-14.1500761524
21
-10.3676714602
0
LINE
5
231
100
AcDbEntity
8
0
100
AcDbLine
62
7
6
CONTINUOUS
10
-13.1623971047
20
-10.2891236680
11
-8.5000000000
21
-10.2891236680
0
LINE
5
232
100
AcDbEntity
8
0
100
AcDbLine
62
7
6
CONTINUOUS
10
13.1623971047
20
-10.2891236680
11
8.5000000000
21
-10.2891236680
0
LINE
5
233
100
AcDbEntity
8
0
100
AcDbLine
62
7
6
CONTINUOUS
10
-14.0191631655
20
-10.2367584732
11
-7.6308368345
21
-10.2367584732
0
LINE
5
234
100
AcDbEntity
8
0
100
AcDbLine
62
7
6
CONTINUOUS
10
7.6308368345
20
-10.2367584732
11
14.0191631655
21
-10.2367584732
0
LINE
5
235
100
AcDbEntity
8
0
100
AcDbLine
62
7
6
CONTINUOUS
10
14.1798889187
20
-10.0176714602
11
8.5000000000
21
-10.0176714602
0
LINE
5
236
100
AcDbEntity
8
0
100
AcDbLine
62
7
6
CONTINUOUS
10
-8.5000000000
20
-10.0176714602
11
-14.1798889187
21
-10.0176714602
0
LINE
5
237
100
AcDbEntity
8
0
100
AcDbLine
62
7
6
CONTINUOUS
10
5.9956953920
20
-9.5435707880
11
4.1940475203
21
-9.5435707880
0
LINE
5
238
100
AcDbEntity
8
0
100
AcDbLine
62
7
6
CONTINUOUS
10
-4.1741006721
20
-9.5435707880
11
-5.9956953920
21
-9.5435707880
0
LINE
5
239
100
AcDbEntity
8
0
100
AcDbLine
62
7
6
CONTINUOUS
10
3.0000000000
20
-9.5206477000
11
-3.0000000000
21
-9.5206477000
0
LINE
5
23A
100
AcDbEntity
8
0
100
AcDbLine
62
7
6
CONTINUOUS
10
-13.3138635149
20
-9.5176714602
11
-8.5000000000
21
-9.5176714602
0
LINE
5
23B
100
AcDbEntity
8
0
100
AcDbLine
62
7
6
CONTINUOUS
10
13.3138635149
20
-9.5176714602
11
8.5000000000
21
-9.5176714602
0
LINE
5
23C
100
AcDbEntity
8
0
100
AcDbLine
62
7
6
CONTINUOUS
10
6.2907905922
20
-9.5176714602
11
6.0140873065
21
-9.5176714602
0
LINE
5
23D
100
AcDbEntity
8
0
100
AcDbLine
62
7
6
CONTINUOUS
10
-6.0140873065
20
-9.5176714602
11
-6.2907905922
21
-9.5176714602
0
LINE
5
23E
100
AcDbEntity
8
0
100
AcDbLine
62
7
6
CONTINUOUS
10
-2.0000000000
20
-9.4949798758
11
2.0000000000
21
-9.4949798758
0
LINE
5
23F
100
AcDbEntity
8
0
100
AcDbLine
62
7
6
CONTINUOUS
10
-6.2868841298
20
-9.3867584732
11
6.2868841298
21
-9.3867584732
0
LINE
5
240
100
AcDbEntity
8
0
100
AcDbLine
62
9
6
CONTINUOUS
10
6.3354983674
20
-8.7130892511
11
-6.3354983674
21
-8.7130892511
0
LINE
5
241
100
AcDbEntity
8
0
100
AcDbLine
62
7
6
CONTINUOUS
10
15.3362647374
20
-8.5013508250
11
14.6726915844
21
-8.5013508250
0
LINE
5
242
100
AcDbEntity
8
0
100
AcDbLine
62
7
6
CONTINUOUS
10
-14.6726915844
20
-8.5013508250
11
-15.3362647374
21
-8.5013508250
0
LINE
5
243
100
AcDbEntity
8
0
100
AcDbLine
62
7
6
CONTINUOUS
10
3.0000000000
20
-9.5206477000
11
4.1940475203
21
-9.5236239399
0
LINE
5
244
100
AcDbEntity
8
0
100
AcDbLine
62
7
6
CONTINUOUS
10
-13.1623971047
20
43.5537807476
11
-13.1231261996
21
43.6323285398
0
LINE
5
245
100
AcDbEntity
8
0
100
AcDbLine
62
9
6
CONTINUOUS
10
-7.4999238476
20
43.6323285398
11
-7.6308368345
21
43.5014155529
0
LINE
5
246
100
AcDbEntity
8
0
100
AcDbLine
62
9
6
CONTINUOUS
10
-8.5000000000
20
-8.1587448564
11
-7.5336543116
21
-8.1587448564
0
LINE
5
247
100
AcDbEntity
8
0
100
AcDbLine
62
9
6
CONTINUOUS
10
7.5336543116
20
-8.1587448564
11
8.5000000000
21
-8.1587448564
0
LINE
5
248
100
AcDbEntity
8
0
100
AcDbLine
62
7
6
CONTINUOUS
10
8.5000000000
20
-7.8676714602
11
13.1466887427
21
-7.8676714602
0
LINE
5
249
100
AcDbEntity
8
0
100
AcDbLine
62
7
6
CONTINUOUS
10
-8.5000000000
20
-7.8676714602
11
-13.1466887427
21
-7.8676714602
0
LINE
5
24A
100
AcDbEntity
8
0
100
AcDbLine
62
7
6
CONTINUOUS
10
6.2954558678
20
-7.7131273280
11
-6.2954558678
21
-7.7131273280
0
LINE
5
24B
100
AcDbEntity
8
0
100
AcDbLine
62
7
6
CONTINUOUS
10
-4.2000000000
20
-7.7056492220
11
-1.6000000000
21
-7.7056492220
0
LINE
5
24C
100
AcDbEntity
8
0
100
AcDbLine
62
7
6
CONTINUOUS
10
1.6000000000
20
-7.7056492220
11
4.2000000000
21
-7.7056492220
0
LINE
5
24D
100
AcDbEntity
8
0
100
AcDbLine
62
7
6
CONTINUOUS
10
6.2500000000
20
-7.6676714602
11
4.2000000000
21
-7.6676714602
0
LINE
5
24E
100
AcDbEntity
8
0
100
AcDbLine
62
7
6
CONTINUOUS
10
1.6000000000
20
-7.6676714602
11
-1.6000000000
21
-7.6676714602
0
LINE
5
24F
100
AcDbEntity
8
0
100
AcDbLine
62
7
6
CONTINUOUS
10
-4.2000000000
20
-7.6676714602
11
-6.2500000000
21
-7.6676714602
0
LINE
5
250
100
AcDbEntity
8
0
100
AcDbLine
62
7
6
CONTINUOUS
10
-4.2000000000
20
-6.6676714602
11
-1.6000000000
21
-6.6676714602
0
LINE
5
251
100
AcDbEntity
8
0
100
AcDbLine
62
7
6
CONTINUOUS
10
1.6000000000
20
-6.6676714602
11
4.2000000000
21
-6.6676714602
0
LINE
5
252
100
AcDbEntity
8
0
100
AcDbLine
62
9
6
CONTINUOUS
10
-8.5000000000
20
-6.6588019718
11
-6.2911305116
21
-6.6588019718
0
LINE
5
253
100
AcDbEntity
8
0
100
AcDbLine
62
9
6
CONTINUOUS
10
6.2911305116
20
-6.6588019718
11
8.5000000000
21
-6.6588019718
0
LINE
5
254
100
AcDbEntity
8
0
100
AcDbLine
62
7
6
CONTINUOUS
10
8.5000000000
20
-6.6298890751
11
8.1000000000
21
-6.6298890751
0
LINE
5
255
100
AcDbEntity
8
0
100
AcDbLine
62
7
6
CONTINUOUS
10
-8.1000000000
20
-6.6298890751
11
-8.5000000000
21
-6.6298890751
0
LINE
5
256
100
AcDbEntity
8
0
100
AcDbLine
62
7
6
CONTINUOUS
10
8.1000000000
20
-6.6176714602
11
6.2500000000
21
-6.6176714602
0
LINE
5
257
100
AcDbEntity
8
0
100
AcDbLine
62
7
6
CONTINUOUS
10
-6.2500000000
20
-6.6176714602
11
-8.1000000000
21
-6.6176714602
0
LINE
5
258
100
AcDbEntity
8
0
100
AcDbLine
62
7
6
CONTINUOUS
10
-12.5000000000
20
-6.4676714602
11
-10.3500000000
21
-6.4676714602
0
LINE
5
259
100
AcDbEntity
8
0
100
AcDbLine
62
7
6
CONTINUOUS
10
12.5000000000
20
-6.4676714602
11
10.3500000000
21
-6.4676714602
0
LINE
5
25A
100
AcDbEntity
8
0
100
AcDbLine
62
7
6
CONTINUOUS
10
15.4500000000
20
-6.3676714602
11
14.6500000000
21
-6.3676714602
0
LINE
5
25B
100
AcDbEntity
8
0
100
AcDbLine
62
7
6
CONTINUOUS
10
-14.6500000000
20
-6.3676714602
11
-15.4500000000
21
-6.3676714602
0
LINE
5
25C
100
AcDbEntity
8
0
100
AcDbLine
62
7
6
CONTINUOUS
10
13.1466887427
20
-5.8676714602
11
8.1000000000
21
-5.8676714602
0
LINE
5
25D
100
AcDbEntity
8
0
100
AcDbLine
62
7
6
CONTINUOUS
10
-8.1000000000
20
-5.8676714602
11
-13.1466887427
21
-5.8676714602
0
LINE
5
25E
100
AcDbEntity
8
0
100
AcDbLine
62
7
6
CONTINUOUS
10
-13.1000000000
20
-5.7676714602
11
-12.7500000000
21
-5.7676714602
0
LINE
5
25F
100
AcDbEntity
8
0
100
AcDbLine
62
7
6
CONTINUOUS
10
12.7500000000
20
-5.7676714602
11
13.1000000000
21
-5.7676714602
0
LINE
5
260
100
AcDbEntity
8
0
100
AcDbLine
62
9
6
CONTINUOUS
10
-7.4999238476
20
-10.3676714602
11
-7.6308368345
21
-10.2367584732
0
LINE
5
261
100
AcDbEntity
8
0
100
AcDbLine
62
7
6
CONTINUOUS
10
-13.1623971047
20
-10.2891236680
11
-13.1231261996
21
-10.3676714602
0
LINE
5
262
100
AcDbEntity
8
0
100
AcDbLine
62
7
6
CONTINUOUS
10
-12.0006540000
20
48.2927985398
11
-11.5926300000
21
49.5101855398
0
LINE
5
263
100
AcDbEntity
8
0
100
AcDbLine
62
7
6
CONTINUOUS
10
-11.6815300000
20
49.7424035398
11
-12.0955890000
21
48.5107165398
0
LINE
5
264
100
AcDbEntity
8
0
100
AcDbLine
62
7
6
CONTINUOUS
10
-11.0270970000
20
48.2927985398
11
-10.8755680000
21
48.7150135398
0
LINE
5
265
100
AcDbEntity
8
0
100
AcDbLine
62
7
6
CONTINUOUS
10
-10.8149340000
20
48.8885915398
11
-10.5806410000
21
49.5323045398
0
LINE
5
266
100
AcDbEntity
8
0
100
AcDbLine
62
7
6
CONTINUOUS
10
-10.3080410000
20
45.5730305398
11
-10.8534020000
21
44.1222535398
0
LINE
5
267
100
AcDbEntity
8
0
100
AcDbLine
62
7
6
CONTINUOUS
10
-10.6836950000
20
49.7424035398
11
-11.2290560000
21
48.2927985398
0
LINE
5
268
100
AcDbEntity
8
0
100
AcDbLine
62
7
6
CONTINUOUS
10
-7.6256860000
20
45.5730305398
11
-8.0418020000
21
44.8763765398
0
LINE
5
269
100
AcDbEntity
8
0
100
AcDbLine
62
7
6
CONTINUOUS
10
-7.9428160000
20
44.7063175398
11
-7.3954610000
21
45.5730305398
0
LINE
5
26A
100
AcDbEntity
8
0
100
AcDbLine
62
7
6
CONTINUOUS
10
-3.2000000000
20
43.7823285398
11
-4.1940475203
21
42.7882810195
0
LINE
5
26B
100
AcDbEntity
8
0
100
AcDbLine
62
7
6
CONTINUOUS
10
-15.4500000000
20
-4.8676714602
11
-14.6500000000
21
-4.8676714602
0
LINE
5
26C
100
AcDbEntity
8
0
100
AcDbLine
62
7
6
CONTINUOUS
10
14.6500000000
20
-4.8676714602
11
15.4500000000
21
-4.8676714602
0
LINE
5
26D
100
AcDbEntity
8
0
100
AcDbLine
62
7
6
CONTINUOUS
10
-3.2000000000
20
-10.5176714602
11
-4.1940475203
21
-9.5236239399
0
LINE
5
26E
100
AcDbEntity
8
0
100
AcDbLine
62
7
6
CONTINUOUS
10
-16.7500000000
20
-16.4676714602
11
-16.7500000000
21
49.7323285398
0
LINE
5
26F
100
AcDbEntity
8
0
100
AcDbLine
62
7
6
CONTINUOUS
10
-10.6514430000
20
44.1222535398
11
-10.4999140000
21
44.5444685398
0
LINE
5
270
100
AcDbEntity
8
0
100
AcDbLine
62
7
6
CONTINUOUS
10
-10.4393970000
20
44.7180455398
11
-10.2049860000
21
45.3617575398
0
LINE
5
271
100
AcDbEntity
8
0
100
AcDbLine
62
7
6
CONTINUOUS
10
-15.2689072036
20
-12.8676714602
11
-15.2264840209
21
-15.6176714602
0
LINE
5
272
100
AcDbEntity
8
0
100
AcDbLine
62
7
6
CONTINUOUS
10
-15.2920471214
20
-11.3676714602
11
-15.3362647374
21
-8.5013508250
0
LINE
5
273
100
AcDbEntity
8
0
100
AcDbLine
62
7
6
CONTINUOUS
10
-14.6726915844
20
41.7660079047
11
-14.6769801183
21
43.1593848106
0
LINE
5
274
100
AcDbEntity
8
0
100
AcDbLine
62
7
6
CONTINUOUS
10
-15.4500000000
20
44.6323285398
11
-15.4500000000
21
39.6323285398
0
LINE
5
275
100
AcDbEntity
8
0
100
AcDbLine
62
7
6
CONTINUOUS
10
-15.4500000000
20
38.1323285398
11
-15.4500000000
21
28.1323285398
0
LINE
5
276
100
AcDbEntity
8
0
100
AcDbLine
62
7
6
CONTINUOUS
10
-15.4500000000
20
26.6323285398
11
-15.4500000000
21
17.3823285398
0
LINE
5
277
100
AcDbEntity
8
0
100
AcDbLine
62
7
6
CONTINUOUS
10
-15.4500000000
20
15.8823285398
11
-15.4500000000
21
6.6323285398
0
LINE
5
278
100
AcDbEntity
8
0
100
AcDbLine
62
7
6
CONTINUOUS
10
-15.4500000000
20
5.1323285398
11
-15.4500000000
21
-4.8676714602
0
LINE
5
279
100
AcDbEntity
8
0
100
AcDbLine
62
7
6
CONTINUOUS
10
-15.4500000000
20
-6.3676714602
11
-15.4500000000
21
-11.3676714602
0
LINE
5
27A
100
AcDbEntity
8
0
100
AcDbLine
62
7
6
CONTINUOUS
10
-15.4500000000
20
-12.8676714602
11
-15.4500000000
21
-15.6176714602
0
LINE
5
27B
100
AcDbEntity
8
0
100
AcDbLine
62
7
6
CONTINUOUS
10
-15.4500000000
20
46.1323285398
11
-15.4500000000
21
48.8823285398
0
LINE
5
27C
100
AcDbEntity
8
0
100
AcDbLine
62
7
6
CONTINUOUS
10
-15.3362647374
20
41.7660079047
11
-15.3362647374
21
39.6323285398
0
LINE
5
27D
100
AcDbEntity
8
0
100
AcDbLine
62
7
6
CONTINUOUS
10
-15.3362647374
20
38.1323285398
11
-15.3362647374
21
28.1323285398
0
LINE
5
27E
100
AcDbEntity
8
0
100
AcDbLine
62
7
6
CONTINUOUS
10
-15.3362647374
20
26.6323285398
11
-15.3362647374
21
17.3823285398
0
LINE
5
27F
100
AcDbEntity
8
0
100
AcDbLine
62
7
6
CONTINUOUS
10
-15.3362647374
20
15.8823285398
11
-15.3362647374
21
6.6323285398
0
LINE
5
280
100
AcDbEntity
8
0
100
AcDbLine
62
7
6
CONTINUOUS
10
-15.3362647374
20
5.1323285398
11
-15.3362647374
21
-4.8676714602
0
LINE
5
281
100
AcDbEntity
8
0
100
AcDbLine
62
7
6
CONTINUOUS
10
-15.3362647374
20
-6.3676714602
11
-15.3362647374
21
-8.5013508250
0
LINE
5
282
100
AcDbEntity
8
0
100
AcDbLine
62
7
6
CONTINUOUS
10
-14.6726915844
20
-8.5013508250
11
-14.6726915844
21
-6.3676714602
0
LINE
5
283
100
AcDbEntity
8
0
100
AcDbLine
62
7
6
CONTINUOUS
10
-14.6726915844
20
-4.8676714602
11
-14.6726915844
21
5.1323285398
0
LINE
5
284
100
AcDbEntity
8
0
100
AcDbLine
62
7
6
CONTINUOUS
10
-14.6726915844
20
6.6323285398
11
-14.6726915844
21
15.8823285398
0
LINE
5
285
100
AcDbEntity
8
0
100
AcDbLine
62
7
6
CONTINUOUS
10
-14.6726915844
20
17.3823285398
11
-14.6726915844
21
26.6323285398
0
LINE
5
286
100
AcDbEntity
8
0
100
AcDbLine
62
7
6
CONTINUOUS
10
-14.6726915844
20
28.1323285398
11
-14.6726915844
21
38.1323285398
0
LINE
5
287
100
AcDbEntity
8
0
100
AcDbLine
62
7
6
CONTINUOUS
10
-14.6726915844
20
39.6323285398
11
-14.6726915844
21
41.7660079047
0
LINE
5
288
100
AcDbEntity
8
0
100
AcDbLine
62
7
6
CONTINUOUS
10
-14.6500000000
20
-6.3676714602
11
-14.6500000000
21
-4.8676714602
0
LINE
5
289
100
AcDbEntity
8
0
100
AcDbLine
62
7
6
CONTINUOUS
10
-14.6500000000
20
5.1323285398
11
-14.6500000000
21
6.6323285398
0
LINE
5
28A
100
AcDbEntity
8
0
100
AcDbLine
62
7
6
CONTINUOUS
10
-14.6500000000
20
15.8823285398
11
-14.6500000000
21
17.3823285398
0
LINE
5
28B
100
AcDbEntity
8
0
100
AcDbLine
62
7
6
CONTINUOUS
10
-14.6500000000
20
26.6323285398
11
-14.6500000000
21
28.1323285398
0
LINE
5
28C
100
AcDbEntity
8
0
100
AcDbLine
62
7
6
CONTINUOUS
10
-14.6500000000
20
38.1323285398
11
-14.6500000000
21
39.6323285398
0
LINE
5
28D
100
AcDbEntity
8
0
100
AcDbLine
62
7
6
CONTINUOUS
10
-14.5190870130
20
43.0014917053
11
-14.5190870130
21
-9.7368346256
0
LINE
5
28E
100
AcDbEntity
8
0
100
AcDbLine
62
9
6
CONTINUOUS
10
-14.1798889187
20
43.2823285398
11
-14.1798889187
21
-10.0176714602
0
LINE
5
28F
100
AcDbEntity
8
0
100
AcDbLine
62
7
6
CONTINUOUS
10
-14.6726915844
20
-8.5013508250
11
-14.6769801183
21
-9.8947277309
0
LINE
5
290
100
AcDbEntity
8
0
100
AcDbLine
62
7
6
CONTINUOUS
10
-15.2920471214
20
44.6323285398
11
-15.3362647374
21
41.7660079047
0
LINE
5
291
100
AcDbEntity
8
0
100
AcDbLine
62
7
6
CONTINUOUS
10
-15.2689072036
20
46.1323285398
11
-15.2264840209
21
48.8823285398
0
LINE
5
292
100
AcDbEntity
8
0
100
AcDbLine
62
7
6
CONTINUOUS
10
-0.5046989970
20
48.0704450285
11
-0.7512189948
21
47.5517685056
0
LINE
5
293
100
AcDbEntity
8
0
100
AcDbLine
62
7
6
CONTINUOUS
10
-13.0961408691
20
-8.8755837703
11
-13.0976918266
21
-7.8676714602
0
LINE
5
294
100
AcDbEntity
8
0
100
AcDbLine
62
7
6
CONTINUOUS
10
-13.1799269956
20
42.7823285398
11
-13.1799269956
21
-9.5176714602
0
LINE
5
295
100
AcDbEntity
8
0
100
AcDbLine
62
7
6
CONTINUOUS
10
-13.1466887427
20
-7.8676714602
11
-13.1466887427
21
-5.8676714602
0
LINE
5
296
100
AcDbEntity
8
0
100
AcDbLine
62
7
6
CONTINUOUS
10
-13.1466887427
20
39.1323285398
11
-13.1466887427
21
41.1323285398
0
LINE
5
297
100
AcDbEntity
8
0
100
AcDbLine
62
7
6
CONTINUOUS
10
-13.1100358980
20
-10.3676714602
11
-13.1100358980
21
-10.2891236680
0
LINE
5
298
100
AcDbEntity
8
0
100
AcDbLine
62
7
6
CONTINUOUS
10
-13.1100358980
20
43.5537807476
11
-13.1100358980
21
43.6323285398
0
LINE
5
299
100
AcDbEntity
8
0
100
AcDbLine
62
7
6
CONTINUOUS
10
-13.1000000000
20
-5.8676714602
11
-13.1000000000
21
39.1323285398
0
LINE
5
29A
100
AcDbEntity
8
0
100
AcDbLine
62
7
6
CONTINUOUS
10
-12.7924240000
20
49.7424035398
11
-12.7924240000
21
48.2927985398
0
LINE
5
29B
100
AcDbEntity
8
0
100
AcDbLine
62
7
6
CONTINUOUS
10
-12.7500000000
20
-5.7676714602
11
-12.7500000000
21
39.0323285398
0
LINE
5
29C
100
AcDbEntity
8
0
100
AcDbLine
62
7
6
CONTINUOUS
10
-12.6025450000
20
48.2927985398
11
-12.6025450000
21
49.5078395398
0
LINE
5
29D
100
AcDbEntity
8
0
100
AcDbLine
62
7
6
CONTINUOUS
10
-12.5000000000
20
-5.8676714602
11
-12.5000000000
21
-7.8676714602
0
LINE
5
29E
100
AcDbEntity
8
0
100
AcDbLine
62
7
6
CONTINUOUS
10
-12.5000000000
20
39.1323285398
11
-12.5000000000
21
41.1323285398
0
LINE
5
29F
100
AcDbEntity
8
0
100
AcDbLine
62
7
6
CONTINUOUS
10
-12.4935900000
20
45.5730305398
11
-12.4935900000
21
44.1222535398
0
LINE
5
2A0
100
AcDbEntity
8
0
100
AcDbLine
62
7
6
CONTINUOUS
10
-12.2976120000
20
44.1222535398
11
-12.2976120000
21
45.5730305398
0
LINE
5
2A1
100
AcDbEntity
8
0
100
AcDbLine
62
7
6
CONTINUOUS
10
-12.0874430000
20
45.5730305398
11
-12.0874430000
21
45.3994535398
0
LINE
5
2A2
100
AcDbEntity
8
0
100
AcDbLine
62
7
6
CONTINUOUS
10
-11.6000000000
20
-20.3676714602
11
-11.6000000000
21
-19.4676714602
0
LINE
5
2A3
100
AcDbEntity
8
0
100
AcDbLine
62
7
6
CONTINUOUS
10
-11.6000000000
20
52.7323285398
11
-11.6000000000
21
53.6323285398
0
LINE
5
2A4
100
AcDbEntity
8
0
100
AcDbLine
62
7
6
CONTINUOUS
10
-11.5966180000
20
45.3994535398
11
-11.5966180000
21
44.1222535398
0
LINE
5
2A5
100
AcDbEntity
8
0
100
AcDbLine
62
7
6
CONTINUOUS
10
-11.5926300000
20
49.5101855398
11
-11.5926300000
21
48.2927985398
0
LINE
5
2A6
100
AcDbEntity
8
0
100
AcDbLine
62
7
6
CONTINUOUS
10
-11.4027510000
20
48.2927985398
11
-11.4027510000
21
49.7424035398
0
LINE
5
2A7
100
AcDbEntity
8
0
100
AcDbLine
62
7
6
CONTINUOUS
10
-11.4007570000
20
44.1222535398
11
-11.4007570000
21
45.3994535398
0
LINE
5
2A8
100
AcDbEntity
8
0
100
AcDbLine
62
7
6
CONTINUOUS
10
-13.0976918266
20
41.1323285398
11
-13.0961417344
21
42.1396784992
0
LINE
5
2A9
100
AcDbEntity
8
0
100
AcDbLine
62
7
6
CONTINUOUS
10
6.2500000000
20
40.9323285398
11
6.2954558678
21
40.9777844077
0
LINE
5
2AA
100
AcDbEntity
8
0
100
AcDbLine
62
7
6
CONTINUOUS
10
6.2500000000
20
39.8823285398
11
6.2911305116
21
39.9234590514
0
LINE
5
2AB
100
AcDbEntity
8
0
100
AcDbLine
62
7
6
CONTINUOUS
10
15.4500000000
20
5.1323285398
11
14.6500000000
21
5.1323285398
0
LINE
5
2AC
100
AcDbEntity
8
0
100
AcDbLine
62
7
6
CONTINUOUS
10
-14.6500000000
20
5.1323285398
11
-15.4500000000
21
5.1323285398
0
LINE
5
2AD
100
AcDbEntity
8
0
100
AcDbLine
62
7
6
CONTINUOUS
10
6.2500000000
20
-7.6676714602
11
6.2954558678
21
-7.7131273280
0
LINE
5
2AE
100
AcDbEntity
8
0
100
AcDbLine
62
7
6
CONTINUOUS
10
6.2500000000
20
-6.6176714602
11
6.2911305116
21
-6.6588019718
0
LINE
5
2AF
100
AcDbEntity
8
0
100
AcDbLine
62
7
6
CONTINUOUS
10
-10.9099320000
20
45.3994535398
11
-10.9099320000
21
45.5730305398
0
LINE
5
2B0
100
AcDbEntity
8
0
100
AcDbLine
62
7
6
CONTINUOUS
10
-10.8675540000
20
-16.4157084602
11
-10.8675540000
21
-15.6648914602
0
LINE
5
2B1
100
AcDbEntity
8
0
100
AcDbLine
62
7
6
CONTINUOUS
10
-10.8675540000
20
-12.0704514602
11
-10.8675540000
21
-11.3196344602
0
LINE
5
2B2
100
AcDbEntity
8
0
100
AcDbLine
62
7
6
CONTINUOUS
10
-10.8483590000
20
47.6571305398
11
-10.8483590000
21
46.2075265398
0
LINE
5
2B3
100
AcDbEntity
8
0
100
AcDbLine
62
7
6
CONTINUOUS
10
-10.6523810000
20
46.2075265398
11
-10.6523810000
21
47.6571305398
0
LINE
5
2B4
100
AcDbEntity
8
0
100
AcDbLine
62
7
6
CONTINUOUS
10
-10.3500000000
20
-5.8676714602
11
-10.3500000000
21
-7.8676714602
0
LINE
5
2B5
100
AcDbEntity
8
0
100
AcDbLine
62
7
6
CONTINUOUS
10
-10.3500000000
20
39.1323285398
11
-10.3500000000
21
41.1323285398
0
LINE
5
2B6
100
AcDbEntity
8
0
100
AcDbLine
62
7
6
CONTINUOUS
10
-10.3171890000
20
47.6571305398
11
-10.3171890000
21
46.2075265398
0
LINE
5
2B7
100
AcDbEntity
8
0
100
AcDbLine
62
7
6
CONTINUOUS
10
-10.1271920000
20
46.2075265398
11
-10.1271920000
21
47.3855095398
0
LINE
5
2B8
100
AcDbEntity
8
0
100
AcDbLine
62
7
6
CONTINUOUS
10
-9.7464950000
20
49.7424035398
11
-9.7464950000
21
48.2927985398
0
LINE
5
2B9
100
AcDbEntity
8
0
100
AcDbLine
62
7
6
CONTINUOUS
10
-9.5506340000
20
48.4605125398
11
-9.5506340000
21
49.5746905398
0
LINE
5
2BA
100
AcDbEntity
8
0
100
AcDbLine
62
7
6
CONTINUOUS
10
-9.3809270000
20
45.5730305398
11
-9.3809270000
21
44.1222535398
0
LINE
5
2BB
100
AcDbEntity
8
0
100
AcDbLine
62
7
6
CONTINUOUS
10
-9.3555940000
20
47.6571305398
11
-9.3555940000
21
46.4800315398
0
LINE
5
2BC
100
AcDbEntity
8
0
100
AcDbLine
62
7
6
CONTINUOUS
10
-9.1850660000
20
44.2958305398
11
-9.1850660000
21
45.5730305398
0
LINE
5
2BD
100
AcDbEntity
8
0
100
AcDbLine
62
7
6
CONTINUOUS
10
-9.1658320000
20
46.2075265398
11
-9.1658320000
21
47.6571305398
0
LINE
5
2BE
100
AcDbEntity
8
0
100
AcDbLine
62
7
6
CONTINUOUS
10
-8.6000000000
20
-20.3676714602
11
-8.6000000000
21
-19.4676714602
0
LINE
5
2BF
100
AcDbEntity
8
0
100
AcDbLine
62
7
6
CONTINUOUS
10
-8.6000000000
20
52.7323285398
11
-8.6000000000
21
53.6323285398
0
LINE
5
2C0
100
AcDbEntity
8
0
100
AcDbLine
62
7
6
CONTINUOUS
10
-8.5000000000
20
-10.2891236680
11
-8.5000000000
21
-10.3676714602
0
LINE
5
2C1
100
AcDbEntity
8
0
100
AcDbLine
62
7
6
CONTINUOUS
10
-8.5000000000
20
-10.0176714602
11
-8.5000000000
21
-6.6298890751
0
LINE
5
2C2
100
AcDbEntity
8
0
100
AcDbLine
62
7
6
CONTINUOUS
10
-8.5000000000
20
39.8945461547
11
-8.5000000000
21
43.2823285398
0
LINE
5
2C3
100
AcDbEntity
8
0
100
AcDbLine
62
7
6
CONTINUOUS
10
-8.5000000000
20
43.5537807476
11
-8.5000000000
21
43.6323285398
0
LINE
5
2C4
100
AcDbEntity
8
0
100
AcDbLine
62
7
6
CONTINUOUS
10
-8.4498260000
20
44.1222535398
11
-8.4498260000
21
44.2958305398
0
LINE
5
2C5
100
AcDbEntity
8
0
100
AcDbLine
62
7
6
CONTINUOUS
10
-8.2781250000
20
49.7424035398
11
-8.2781250000
21
48.2927985398
0
LINE
5
2C6
100
AcDbEntity
8
0
100
AcDbLine
62
7
6
CONTINUOUS
10
-8.1386770000
20
44.7063175398
11
-8.1386770000
21
44.1222535398
0
LINE
5
2C7
100
AcDbEntity
8
0
100
AcDbLine
62
9
6
CONTINUOUS
10
14.0191631655
20
43.5014155529
11
14.1500761524
21
43.6323285398
0
LINE
5
2C8
100
AcDbEntity
8
0
100
AcDbLine
62
9
6
CONTINUOUS
10
14.5190870130
20
43.0014917053
11
14.6769801183
21
43.1593848106
0
LINE
5
2C9
100
AcDbEntity
8
0
100
AcDbLine
62
7
6
CONTINUOUS
10
-15.4500000000
20
6.6323285398
11
-14.6500000000
21
6.6323285398
0
LINE
5
2CA
100
AcDbEntity
8
0
100
AcDbLine
62
7
6
CONTINUOUS
10
14.6500000000
20
6.6323285398
11
15.4500000000
21
6.6323285398
0
LINE
5
2CB
100
AcDbEntity
8
0
100
AcDbLine
62
9
6
CONTINUOUS
10
14.0191631655
20
-10.2367584732
11
14.1500761524
21
-10.3676714602
0
LINE
5
2CC
100
AcDbEntity
8
0
100
AcDbLine
62
9
6
CONTINUOUS
10
14.5190870130
20
-9.7368346256
11
14.6769801183
21
-9.8947277309
0
LINE
5
2CD
100
AcDbEntity
8
0
100
AcDbLine
62
7
6
CONTINUOUS
10
-8.1000000000
20
-6.6298890751
11
-8.1000000000
21
-5.8676714602
0
LINE
5
2CE
100
AcDbEntity
8
0
100
AcDbLine
62
7
6
CONTINUOUS
10
-8.1000000000
20
39.1323285398
11
-8.1000000000
21
39.8945461547
0
LINE
5
2CF
100
AcDbEntity
8
0
100
AcDbLine
62
7
6
CONTINUOUS
10
-8.0821470000
20
48.4663765398
11
-8.0821470000
21
48.9507505398
0
LINE
5
2D0
100
AcDbEntity
8
0
100
AcDbLine
62
7
6
CONTINUOUS
10
-8.0821470000
20
49.1243275398
11
-8.0821470000
21
49.5688265398
0
LINE
5
2D1
100
AcDbEntity
8
0
100
AcDbLine
62
7
6
CONTINUOUS
10
-7.9428160000
20
44.1222535398
11
-7.9428160000
21
44.7063175398
0
LINE
5
2D2
100
AcDbEntity
8
0
100
AcDbLine
62
7
6
CONTINUOUS
10
-7.2883830000
20
48.9507505398
11
-7.2883830000
21
49.1243275398
0
LINE
5
2D3
100
AcDbEntity
8
0
100
AcDbLine
62
7
6
CONTINUOUS
10
-7.2217670000
20
49.5688265398
11
-7.2217670000
21
49.7424035398
0
LINE
5
2D4
100
AcDbEntity
8
0
100
AcDbLine
62
7
6
CONTINUOUS
10
-7.2075760000
20
48.2927985398
11
-7.2075760000
21
48.4663765398
0
LINE
5
2D5
100
AcDbEntity
8
0
100
AcDbLine
62
7
6
CONTINUOUS
10
-6.8824440000
20
-14.2426714602
11
-6.8824440000
21
-13.4926714602
0
LINE
5
2D6
100
AcDbEntity
8
0
100
AcDbLine
62
7
6
CONTINUOUS
10
-6.4824440000
20
-16.4157085779
11
-6.4824440000
21
-15.6648884117
0
LINE
5
2D7
100
AcDbEntity
8
0
100
AcDbLine
62
7
6
CONTINUOUS
10
-6.4824440000
20
-12.0704514602
11
-6.4824440000
21
-11.3196343424
0
LINE
5
2D8
100
AcDbEntity
8
0
100
AcDbLine
62
7
6
CONTINUOUS
10
-6.2954558678
20
-7.7131273280
11
-6.2954558678
21
-6.7476469462
0
LINE
5
2D9
100
AcDbEntity
8
0
100
AcDbLine
62
7
6
CONTINUOUS
10
-6.2954558678
20
40.0123040259
11
-6.2954558678
21
40.9777844077
0
LINE
5
2DA
100
AcDbEntity
8
0
100
AcDbLine
62
7
6
CONTINUOUS
10
-6.2500000000
20
-7.6676714602
11
-6.2500000000
21
-6.6176714602
0
LINE
5
2DB
100
AcDbEntity
8
0
100
AcDbLine
62
7
6
CONTINUOUS
10
-6.2500000000
20
39.8823285398
11
-6.2500000000
21
40.9323285398
0
LINE
5
2DC
100
AcDbEntity
8
0
100
AcDbLine
62
7
6
CONTINUOUS
10
-4.5000000000
20
-20.0676714602
11
-4.5000000000
21
-19.4676714602
0
LINE
5
2DD
100
AcDbEntity
8
0
100
AcDbLine
62
7
6
CONTINUOUS
10
-4.5000000000
20
52.7323285398
11
-4.5000000000
21
53.3323285398
0
LINE
5
2DE
100
AcDbEntity
8
0
100
AcDbLine
62
7
6
CONTINUOUS
10
-4.2000000000
20
40.9703063016
11
-4.2000000000
21
39.9323285398
0
LINE
5
2DF
100
AcDbEntity
8
0
100
AcDbLine
62
7
6
CONTINUOUS
10
-4.2000000000
20
-6.6676714602
11
-4.2000000000
21
-7.7056492220
0
LINE
5
2E0
100
AcDbEntity
8
0
100
AcDbLine
62
7
6
CONTINUOUS
10
-3.2500000000
20
55.6323285398
11
-3.2500000000
21
53.3323285398
0
LINE
5
2E1
100
AcDbEntity
8
0
100
AcDbLine
62
7
6
CONTINUOUS
10
-3.2500000000
20
-20.0676714602
11
-3.2500000000
21
-22.3676714602
0
LINE
5
2E2
100
AcDbEntity
8
0
100
AcDbLine
62
7
6
CONTINUOUS
10
-3.0000000000
20
42.7853047797
11
-3.0000000000
21
42.7882810195
0
LINE
5
2E3
100
AcDbEntity
8
0
100
AcDbLine
62
7
6
CONTINUOUS
10
-1.6000000000
20
40.9703063016
11
-1.6000000000
21
39.9323285398
0
LINE
5
2E4
100
AcDbEntity
8
0
100
AcDbLine
62
7
6
CONTINUOUS
10
-1.6000000000
20
-6.6676714602
11
-1.6000000000
21
-7.7056492220
0
LINE
5
2E5
100
AcDbEntity
8
0
100
AcDbLine
62
7
6
CONTINUOUS
10
-0.7500000000
20
44.6323285398
11
-0.7500000000
21
43.7823285398
0
LINE
5
2E6
100
AcDbEntity
8
0
100
AcDbLine
62
7
6
CONTINUOUS
10
-0.7500000000
20
-11.3676714602
11
-0.7500000000
21
-10.5176714602
0
LINE
5
2E7
100
AcDbEntity
8
0
100
AcDbLine
62
7
6
CONTINUOUS
10
9.3335610000
20
46.9965745398
11
9.4850300000
21
47.4185795398
0
LINE
5
2E8
100
AcDbEntity
8
0
100
AcDbLine
62
7
6
CONTINUOUS
10
9.5455940000
20
47.5922595398
11
9.7799770000
21
48.2361485398
0
LINE
5
2E9
100
AcDbEntity
8
0
100
AcDbLine
62
7
6
CONTINUOUS
10
9.6769130000
20
48.4465745398
11
9.1316030000
21
46.9965745398
0
LINE
5
2EA
100
AcDbEntity
8
0
100
AcDbLine
62
7
6
CONTINUOUS
10
15.4500000000
20
15.8823285398
11
14.6500000000
21
15.8823285398
0
LINE
5
2EB
100
AcDbEntity
8
0
100
AcDbLine
62
7
6
CONTINUOUS
10
-14.6500000000
20
15.8823285398
11
-15.4500000000
21
15.8823285398
0
LINE
5
2EC
100
AcDbEntity
8
0
100
AcDbLine
62
7
6
CONTINUOUS
10
-9.5607200000
20
44.1222535398
11
-10.0859090000
21
45.5730305398
0
LINE
5
2ED
100
AcDbEntity
8
0
100
AcDbLine
62
7
6
CONTINUOUS
10
-9.9181960000
20
44.5444685398
11
-9.7747600000
21
44.1222535398
0
LINE
5
2EE
100
AcDbEntity
8
0
100
AcDbLine
62
7
6
CONTINUOUS
10
-12.0955890000
20
48.5107165398
11
-12.5116510000
21
49.7424035398
0
LINE
5
2EF
100
AcDbEntity
8
0
100
AcDbLine
62
7
6
CONTINUOUS
10
-12.6025450000
20
49.5078395398
11
-12.1945210000
21
48.2927985398
0
LINE
5
2F0
100
AcDbEntity
8
0
100
AcDbLine
62
7
6
CONTINUOUS
10
-10.2049860000
20
45.3617575398
11
-9.9889170000
21
44.7180455398
0
LINE
5
2F1
100
AcDbEntity
8
0
100
AcDbLine
62
7
6
CONTINUOUS
10
0.7500000000
20
-10.5176714602
11
0.7500000000
21
-11.3676714602
0
LINE
5
2F2
100
AcDbEntity
8
0
100
AcDbLine
62
7
6
CONTINUOUS
10
0.7500000000
20
43.7823285398
11
0.7500000000
21
44.6323285398
0
LINE
5
2F3
100
AcDbEntity
8
0
100
AcDbLine
62
7
6
CONTINUOUS
10
1.6000000000
20
40.9703063016
11
1.6000000000
21
39.9323285398
0
LINE
5
2F4
100
AcDbEntity
8
0
100
AcDbLine
62
7
6
CONTINUOUS
10
1.6000000000
20
-6.6676714602
11
1.6000000000
21
-7.7056492220
0
LINE
5
2F5
100
AcDbEntity
8
0
100
AcDbLine
62
7
6
CONTINUOUS
10
3.0000000000
20
-9.5206477000
11
3.0000000000
21
-9.5236239399
0
LINE
5
2F6
100
AcDbEntity
8
0
100
AcDbLine
62
7
6
CONTINUOUS
10
-15.4500000000
20
17.3823285398
11
-14.6500000000
21
17.3823285398
0
LINE
5
2F7
100
AcDbEntity
8
0
100
AcDbLine
62
7
6
CONTINUOUS
10
14.6500000000
20
17.3823285398
11
15.4500000000
21
17.3823285398
0
LINE
5
2F8
100
AcDbEntity
8
0
100
AcDbLine
62
7
6
CONTINUOUS
10
-9.9363750000
20
48.2927985398
11
-10.4615630000
21
49.7424035398
0
LINE
5
2F9
100
AcDbEntity
8
0
100
AcDbLine
62
7
6
CONTINUOUS
10
-10.2938500000
20
48.7150135398
11
-10.1504140000
21
48.2927985398
0
LINE
5
2FA
100
AcDbEntity
8
0
100
AcDbLine
62
7
6
CONTINUOUS
10
-10.5806410000
20
49.5323045398
11
-10.3645710000
21
48.8885915398
0
LINE
5
2FB
100
AcDbEntity
8
0
100
AcDbLine
62
7
6
CONTINUOUS
10
3.2500000000
20
55.6323285398
11
3.2500000000
21
53.3323285398
0
LINE
5
2FC
100
AcDbEntity
8
0
100
AcDbLine
62
7
6
CONTINUOUS
10
3.2500000000
20
-20.0676714602
11
3.2500000000
21
-22.3676714602
0
LINE
5
2FD
100
AcDbEntity
8
0
100
AcDbLine
62
7
6
CONTINUOUS
10
4.2000000000
20
40.9703063016
11
4.2000000000
21
39.9323285398
0
LINE
5
2FE
100
AcDbEntity
8
0
100
AcDbLine
62
7
6
CONTINUOUS
10
4.2000000000
20
-6.6676714602
11
4.2000000000
21
-7.7056492220
0
LINE
5
2FF
100
AcDbEntity
8
0
100
AcDbLine
62
7
6
CONTINUOUS
10
4.5000000000
20
53.3323285398
11
4.5000000000
21
52.7323285398
0
LINE
5
300
100
AcDbEntity
8
0
100
AcDbLine
62
7
6
CONTINUOUS
10
4.5000000000
20
-19.4676714602
11
4.5000000000
21
-20.0676714602
0
LINE
5
301
100
AcDbEntity
8
0
100
AcDbLine
62
7
6
CONTINUOUS
10
6.2500000000
20
40.9323285398
11
6.2500000000
21
39.8823285398
0
LINE
5
302
100
AcDbEntity
8
0
100
AcDbLine
62
7
6
CONTINUOUS
10
6.2500000000
20
-6.6176714602
11
6.2500000000
21
-7.6676714602
0
LINE
5
303
100
AcDbEntity
8
0
100
AcDbLine
62
7
6
CONTINUOUS
10
6.2954558678
20
40.9777844077
11
6.2954558678
21
40.0123040259
0
LINE
5
304
100
AcDbEntity
8
0
100
AcDbLine
62
7
6
CONTINUOUS
10
6.2954558678
20
-6.7476469462
11
6.2954558678
21
-7.7131273280
0
LINE
5
305
100
AcDbEntity
8
0
100
AcDbLine
62
7
6
CONTINUOUS
10
7.0890090000
20
46.2680825398
11
7.0890090000
21
44.8180825398
0
LINE
5
306
100
AcDbEntity
8
0
100
AcDbLine
62
7
6
CONTINUOUS
10
7.2848990000
20
44.8180825398
11
7.2848990000
21
45.4300245398
0
LINE
5
307
100
AcDbEntity
8
0
100
AcDbLine
62
7
6
CONTINUOUS
10
7.2848990000
20
45.5976365398
11
7.2848990000
21
46.1004715398
0
LINE
5
308
100
AcDbEntity
8
0
100
AcDbLine
62
7
6
CONTINUOUS
10
7.9300430000
20
48.4465745398
11
7.9300430000
21
46.9965745398
0
LINE
5
309
100
AcDbEntity
8
0
100
AcDbLine
62
7
6
CONTINUOUS
10
8.1000000000
20
39.8945461547
11
8.1000000000
21
39.1323285398
0
LINE
5
30A
100
AcDbEntity
8
0
100
AcDbLine
62
7
6
CONTINUOUS
10
8.1000000000
20
-5.8676714602
11
8.1000000000
21
-6.6298890751
0
LINE
5
30B
100
AcDbEntity
8
0
100
AcDbLine
62
7
6
CONTINUOUS
10
8.1259340000
20
46.9965745398
11
8.1259340000
21
47.6085165398
0
LINE
5
30C
100
AcDbEntity
8
0
100
AcDbLine
62
7
6
CONTINUOUS
10
8.1259340000
20
47.7761285398
11
8.1259340000
21
48.2789625398
0
LINE
5
30D
100
AcDbEntity
8
0
100
AcDbLine
62
7
6
CONTINUOUS
10
8.4359690000
20
46.2680825398
11
8.4359690000
21
44.8180825398
0
LINE
5
30E
100
AcDbEntity
8
0
100
AcDbLine
62
7
6
CONTINUOUS
10
8.5000000000
20
-10.2891236680
11
8.5000000000
21
-10.3676714602
0
LINE
5
30F
100
AcDbEntity
8
0
100
AcDbLine
62
7
6
CONTINUOUS
10
8.5000000000
20
-10.0176714602
11
8.5000000000
21
-6.6298890751
0
LINE
5
310
100
AcDbEntity
8
0
100
AcDbLine
62
7
6
CONTINUOUS
10
8.5000000000
20
39.8945461547
11
8.5000000000
21
43.2823285398
0
LINE
5
311
100
AcDbEntity
8
0
100
AcDbLine
62
7
6
CONTINUOUS
10
8.5000000000
20
43.5537807476
11
8.5000000000
21
43.6323285398
0
LINE
5
312
100
AcDbEntity
8
0
100
AcDbLine
62
7
6
CONTINUOUS
10
8.6000000000
20
-20.3676714602
11
8.6000000000
21
-19.4676714602
0
LINE
5
313
100
AcDbEntity
8
0
100
AcDbLine
62
7
6
CONTINUOUS
10
8.6000000000
20
52.7323285398
11
8.6000000000
21
53.6323285398
0
LINE
5
314
100
AcDbEntity
8
0
100
AcDbLine
62
7
6
CONTINUOUS
10
8.6318590000
20
44.9917615398
11
8.6318590000
21
45.4765075398
0
LINE
5
315
100
AcDbEntity
8
0
100
AcDbLine
62
7
6
CONTINUOUS
10
8.6318590000
20
45.6500725398
11
8.6318590000
21
46.0944035398
0
LINE
5
316
100
AcDbEntity
8
0
100
AcDbLine
62
9
6
CONTINUOUS
10
-14.5190870130
20
-9.7368346256
11
-14.6769801183
21
-9.8947277309
0
LINE
5
317
100
AcDbEntity
8
0
100
AcDbLine
62
9
6
CONTINUOUS
10
-14.6769801183
20
43.1593848106
11
-14.5190870130
21
43.0014917053
0
LINE
5
318
100
AcDbEntity
8
0
100
AcDbLine
62
7
6
CONTINUOUS
10
-8.6861490000
20
45.5730305398
11
-8.1386770000
21
44.7063175398
0
LINE
5
319
100
AcDbEntity
8
0
100
AcDbLine
62
7
6
CONTINUOUS
10
-10.1271920000
20
47.3855095398
11
-9.3859700000
21
46.2075265398
0
LINE
5
31A
100
AcDbEntity
8
0
100
AcDbLine
62
7
6
CONTINUOUS
10
-9.3555940000
20
46.4800315398
11
-10.0848530000
21
47.6571305398
0
LINE
5
31B
100
AcDbEntity
8
0
100
AcDbLine
62
7
6
CONTINUOUS
10
-8.0418020000
20
44.8763765398
11
-8.4579180000
21
45.5730305398
0
LINE
5
31C
100
AcDbEntity
8
0
100
AcDbLine
62
7
6
CONTINUOUS
10
9.4254950000
20
45.4765075398
11
9.4254950000
21
45.6500725398
0
LINE
5
31D
100
AcDbEntity
8
0
100
AcDbLine
62
7
6
CONTINUOUS
10
9.4921280000
20
46.0944035398
11
9.4921280000
21
46.2680825398
0
LINE
5
31E
100
AcDbEntity
8
0
100
AcDbLine
62
7
6
CONTINUOUS
10
9.5063250000
20
44.8180825398
11
9.5063250000
21
44.9917615398
0
LINE
5
31F
100
AcDbEntity
8
0
100
AcDbLine
62
7
6
CONTINUOUS
10
9.7627790000
20
46.2680825398
11
9.7627790000
21
44.8180825398
0
LINE
5
320
100
AcDbEntity
8
0
100
AcDbLine
62
7
6
CONTINUOUS
10
9.9526020000
20
44.8180825398
11
9.9526020000
21
45.9957845398
0
LINE
5
321
100
AcDbEntity
8
0
100
AcDbLine
62
7
6
CONTINUOUS
10
10.3500000000
20
-5.8676714602
11
10.3500000000
21
-7.8676714602
0
LINE
5
322
100
AcDbEntity
8
0
100
AcDbLine
62
7
6
CONTINUOUS
10
10.3500000000
20
39.1323285398
11
10.3500000000
21
41.1323285398
0
LINE
5
323
100
AcDbEntity
8
0
100
AcDbLine
62
7
6
CONTINUOUS
10
10.4785630000
20
48.4465745398
11
10.4785630000
21
48.2728955398
0
LINE
5
324
100
AcDbEntity
8
0
100
AcDbLine
62
7
6
CONTINUOUS
10
10.7240270000
20
46.2680825398
11
10.7240270000
21
45.0902745398
0
LINE
5
325
100
AcDbEntity
8
0
100
AcDbLine
62
7
6
CONTINUOUS
10
10.9138490000
20
44.8180825398
11
10.9138490000
21
46.2680825398
0
LINE
5
326
100
AcDbEntity
8
0
100
AcDbLine
62
7
6
CONTINUOUS
10
10.9693760000
20
48.2728955398
11
10.9693760000
21
46.9965745398
0
LINE
5
327
100
AcDbEntity
8
0
100
AcDbLine
62
7
6
CONTINUOUS
10
11.1651520000
20
46.9965745398
11
11.1651520000
21
48.2728955398
0
LINE
5
328
100
AcDbEntity
8
0
100
AcDbLine
62
7
6
CONTINUOUS
10
11.2308690000
20
46.2680825398
11
11.2308690000
21
44.8180825398
0
LINE
5
329
100
AcDbEntity
8
0
100
AcDbLine
62
7
6
CONTINUOUS
10
11.4267590000
20
44.9856945398
11
11.4267590000
21
46.1004715398
0
LINE
5
32A
100
AcDbEntity
8
0
100
AcDbLine
62
7
6
CONTINUOUS
10
11.6000000000
20
-20.3676714602
11
11.6000000000
21
-19.4676714602
0
LINE
5
32B
100
AcDbEntity
8
0
100
AcDbLine
62
7
6
CONTINUOUS
10
11.6000000000
20
52.7323285398
11
11.6000000000
21
53.6323285398
0
LINE
5
32C
100
AcDbEntity
8
0
100
AcDbLine
62
7
6
CONTINUOUS
10
11.6559650000
20
48.2728955398
11
11.6559650000
21
48.4465745398
0
LINE
5
32D
100
AcDbEntity
8
0
100
AcDbLine
62
9
6
CONTINUOUS
10
-14.0191631655
20
-10.2367584732
11
-14.1500761524
21
-10.3676714602
0
LINE
5
32E
100
AcDbEntity
8
0
100
AcDbLine
62
7
6
CONTINUOUS
10
15.4500000000
20
26.6323285398
11
14.6500000000
21
26.6323285398
0
LINE
5
32F
100
AcDbEntity
8
0
100
AcDbLine
62
7
6
CONTINUOUS
10
-14.6500000000
20
26.6323285398
11
-15.4500000000
21
26.6323285398
0
LINE
5
330
100
AcDbEntity
8
0
100
AcDbLine
62
7
6
CONTINUOUS
10
-15.4500000000
20
28.1323285398
11
-14.6500000000
21
28.1323285398
0
LINE
5
331
100
AcDbEntity
8
0
100
AcDbLine
62
7
6
CONTINUOUS
10
14.6500000000
20
28.1323285398
11
15.4500000000
21
28.1323285398
0
LINE
5
332
100
AcDbEntity
8
0
100
AcDbLine
62
9
6
CONTINUOUS
10
-14.1500761524
20
43.6323285398
11
-14.0191631655
21
43.5014155529
0
LINE
5
333
100
AcDbEntity
8
0
100
AcDbLine
62
7
6
CONTINUOUS
10
13.0961408691
20
42.1402408499
11
13.0976918266
21
41.1323285398
0
LINE
5
334
100
AcDbEntity
8
0
100
AcDbLine
62
7
6
CONTINUOUS
10
11.8598700000
20
47.2106685398
11
11.8598700000
21
46.9965745398
0
LINE
5
335
100
AcDbEntity
8
0
100
AcDbLine
62
7
6
CONTINUOUS
10
12.0699570000
20
46.9965745398
11
12.0699570000
21
47.2106685398
0
LINE
5
336
100
AcDbEntity
8
0
100
AcDbLine
62
7
6
CONTINUOUS
10
12.5000000000
20
-5.8676714602
11
12.5000000000
21
-7.8676714602
0
LINE
5
337
100
AcDbEntity
8
0
100
AcDbLine
62
7
6
CONTINUOUS
10
12.5000000000
20
39.1323285398
11
12.5000000000
21
41.1323285398
0
LINE
5
338
100
AcDbEntity
8
0
100
AcDbLine
62
7
6
CONTINUOUS
10
12.7009040000
20
45.0321765398
11
12.7009040000
21
44.8180825398
0
LINE
5
339
100
AcDbEntity
8
0
100
AcDbLine
62
7
6
CONTINUOUS
10
12.7500000000
20
39.0323285398
11
12.7500000000
21
-5.7676714602
0
LINE
5
33A
100
AcDbEntity
8
0
100
AcDbLine
62
7
6
CONTINUOUS
10
12.9109910000
20
44.8180825398
11
12.9109910000
21
45.0321765398
0
LINE
5
33B
100
AcDbEntity
8
0
100
AcDbLine
62
7
6
CONTINUOUS
10
13.1000000000
20
-5.8676714602
11
13.1000000000
21
39.1323285398
0
LINE
5
33C
100
AcDbEntity
8
0
100
AcDbLine
62
7
6
CONTINUOUS
10
13.1100358980
20
43.6323285398
11
13.1100358980
21
43.5537807476
0
LINE
5
33D
100
AcDbEntity
8
0
100
AcDbLine
62
7
6
CONTINUOUS
10
13.1100358980
20
-10.2891236680
11
13.1100358980
21
-10.3676714602
0
LINE
5
33E
100
AcDbEntity
8
0
100
AcDbLine
62
7
6
CONTINUOUS
10
13.1466887427
20
41.1323285398
11
13.1466887427
21
39.1323285398
0
LINE
5
33F
100
AcDbEntity
8
0
100
AcDbLine
62
7
6
CONTINUOUS
10
13.1466887427
20
-5.8676714602
11
13.1466887427
21
-7.8676714602
0
LINE
5
340
100
AcDbEntity
8
0
100
AcDbLine
62
7
6
CONTINUOUS
10
13.1799269956
20
-9.5176714602
11
13.1799269956
21
42.7823285398
0
LINE
5
341
100
AcDbEntity
8
0
100
AcDbLine
62
9
6
CONTINUOUS
10
14.1798889187
20
-10.0176714602
11
14.1798889187
21
43.2823285398
0
LINE
5
342
100
AcDbEntity
8
0
100
AcDbLine
62
7
6
CONTINUOUS
10
14.5190870130
20
-9.7368346256
11
14.5190870130
21
43.0014917053
0
LINE
5
343
100
AcDbEntity
8
0
100
AcDbLine
62
7
6
CONTINUOUS
10
13.0976918266
20
-7.8676714602
11
13.0961417344
21
-8.8750214196
0
LINE
5
344
100
AcDbEntity
8
0
100
AcDbLine
62
7
6
CONTINUOUS
10
-0.5046989970
20
-16.9295549715
11
-0.7512189948
21
-17.4482314944
0
LINE
5
345
100
AcDbEntity
8
0
100
AcDbLine
62
7
6
CONTINUOUS
10
-6.2500000000
20
-6.6176714602
11
-6.2911305116
21
-6.6588019718
0
LINE
5
346
100
AcDbEntity
8
0
100
AcDbLine
62
7
6
CONTINUOUS
10
-6.2500000000
20
-7.6676714602
11
-6.2954558678
21
-7.7131273280
0
LINE
5
347
100
AcDbEntity
8
0
100
AcDbLine
62
7
6
CONTINUOUS
10
-6.2500000000
20
39.8823285398
11
-6.2911305116
21
39.9234590514
0
LINE
5
348
100
AcDbEntity
8
0
100
AcDbLine
62
7
6
CONTINUOUS
10
-6.2500000000
20
40.9323285398
11
-6.2954558678
21
40.9777844077
0
LINE
5
349
100
AcDbEntity
8
0
100
AcDbLine
62
7
6
CONTINUOUS
10
15.2264840209
20
48.8823285398
11
15.2689072036
21
46.1323285398
0
LINE
5
34A
100
AcDbEntity
8
0
100
AcDbLine
62
7
6
CONTINUOUS
10
15.3362647374
20
41.7660079047
11
15.2920471214
21
44.6323285398
0
LINE
5
34B
100
AcDbEntity
8
0
100
AcDbLine
62
7
6
CONTINUOUS
10
14.6769801183
20
-9.8947277309
11
14.6726915844
21
-8.5013508250
0
LINE
5
34C
100
AcDbEntity
8
0
100
AcDbLine
62
7
6
CONTINUOUS
10
14.6500000000
20
-6.3676714602
11
14.6500000000
21
-4.8676714602
0
LINE
5
34D
100
AcDbEntity
8
0
100
AcDbLine
62
7
6
CONTINUOUS
10
14.6500000000
20
5.1323285398
11
14.6500000000
21
6.6323285398
0
LINE
5
34E
100
AcDbEntity
8
0
100
AcDbLine
62
7
6
CONTINUOUS
10
14.6500000000
20
15.8823285398
11
14.6500000000
21
17.3823285398
0
LINE
5
34F
100
AcDbEntity
8
0
100
AcDbLine
62
7
6
CONTINUOUS
10
14.6500000000
20
26.6323285398
11
14.6500000000
21
28.1323285398
0
LINE
5
350
100
AcDbEntity
8
0
100
AcDbLine
62
7
6
CONTINUOUS
10
14.6500000000
20
38.1323285398
11
14.6500000000
21
39.6323285398
0
LINE
5
351
100
AcDbEntity
8
0
100
AcDbLine
62
7
6
CONTINUOUS
10
14.6726915844
20
41.7660079047
11
14.6726915844
21
39.6323285398
0
LINE
5
352
100
AcDbEntity
8
0
100
AcDbLine
62
7
6
CONTINUOUS
10
14.6726915844
20
38.1323285398
11
14.6726915844
21
28.1323285398
0
LINE
5
353
100
AcDbEntity
8
0
100
AcDbLine
62
7
6
CONTINUOUS
10
14.6726915844
20
26.6323285398
11
14.6726915844
21
17.3823285398
0
LINE
5
354
100
AcDbEntity
8
0
100
AcDbLine
62
7
6
CONTINUOUS
10
14.6726915844
20
15.8823285398
11
14.6726915844
21
6.6323285398
0
LINE
5
355
100
AcDbEntity
8
0
100
AcDbLine
62
7
6
CONTINUOUS
10
14.6726915844
20
5.1323285398
11
14.6726915844
21
-4.8676714602
0
LINE
5
356
100
AcDbEntity
8
0
100
AcDbLine
62
7
6
CONTINUOUS
10
14.6726915844
20
-6.3676714602
11
14.6726915844
21
-8.5013508250
0
LINE
5
357
100
AcDbEntity
8
0
100
AcDbLine
62
7
6
CONTINUOUS
10
15.3362647374
20
-8.5013508250
11
15.3362647374
21
-6.3676714602
0
LINE
5
358
100
AcDbEntity
8
0
100
AcDbLine
62
7
6
CONTINUOUS
10
15.3362647374
20
-4.8676714602
11
15.3362647374
21
5.1323285398
0
LINE
5
359
100
AcDbEntity
8
0
100
AcDbLine
62
7
6
CONTINUOUS
10
15.3362647374
20
6.6323285398
11
15.3362647374
21
15.8823285398
0
LINE
5
35A
100
AcDbEntity
8
0
100
AcDbLine
62
7
6
CONTINUOUS
10
15.3362647374
20
17.3823285398
11
15.3362647374
21
26.6323285398
0
LINE
5
35B
100
AcDbEntity
8
0
100
AcDbLine
62
7
6
CONTINUOUS
10
15.3362647374
20
28.1323285398
11
15.3362647374
21
38.1323285398
0
LINE
5
35C
100
AcDbEntity
8
0
100
AcDbLine
62
7
6
CONTINUOUS
10
15.3362647374
20
39.6323285398
11
15.3362647374
21
41.7660079047
0
LINE
5
35D
100
AcDbEntity
8
0
100
AcDbLine
62
7
6
CONTINUOUS
10
15.4500000000
20
48.8823285398
11
15.4500000000
21
46.1323285398
0
LINE
5
35E
100
AcDbEntity
8
0
100
AcDbLine
62
7
6
CONTINUOUS
10
15.4500000000
20
-15.6176714602
11
15.4500000000
21
-12.8676714602
0
LINE
5
35F
100
AcDbEntity
8
0
100
AcDbLine
62
7
6
CONTINUOUS
10
15.4500000000
20
-11.3676714602
11
15.4500000000
21
-6.3676714602
0
LINE
5
360
100
AcDbEntity
8
0
100
AcDbLine
62
7
6
CONTINUOUS
10
15.4500000000
20
-4.8676714602
11
15.4500000000
21
5.1323285398
0
LINE
5
361
100
AcDbEntity
8
0
100
AcDbLine
62
7
6
CONTINUOUS
10
15.4500000000
20
6.6323285398
11
15.4500000000
21
15.8823285398
0
LINE
5
362
100
AcDbEntity
8
0
100
AcDbLine
62
7
6
CONTINUOUS
10
15.4500000000
20
17.3823285398
11
15.4500000000
21
26.6323285398
0
LINE
5
363
100
AcDbEntity
8
0
100
AcDbLine
62
7
6
CONTINUOUS
10
15.4500000000
20
28.1323285398
11
15.4500000000
21
38.1323285398
0
LINE
5
364
100
AcDbEntity
8
0
100
AcDbLine
62
7
6
CONTINUOUS
10
15.4500000000
20
39.6323285398
11
15.4500000000
21
44.6323285398
0
LINE
5
365
100
AcDbEntity
8
0
100
AcDbLine
62
7
6
CONTINUOUS
10
16.7500000000
20
49.7323285398
11
16.7500000000
21
-16.4676714602
0
LINE
5
366
100
AcDbEntity
8
0
100
AcDbLine
62
7
6
CONTINUOUS
10
14.6769801183
20
43.1593848106
11
14.6726915844
21
41.7660079047
0
LINE
5
367
100
AcDbEntity
8
0
100
AcDbLine
62
7
6
CONTINUOUS
10
15.3362647374
20
-8.5013508250
11
15.2920471214
21
-11.3676714602
0
LINE
5
368
100
AcDbEntity
8
0
100
AcDbLine
62
7
6
CONTINUOUS
10
15.2264840209
20
-15.6176714602
11
15.2689072036
21
-12.8676714602
0
LINE
5
369
100
AcDbEntity
8
0
100
AcDbLine
62
7
6
CONTINUOUS
10
10.4240660000
20
46.9965745398
11
9.8990210000
21
48.4465745398
0
LINE
5
36A
100
AcDbEntity
8
0
100
AcDbLine
62
7
6
CONTINUOUS
10
10.0666320000
20
47.4185795398
11
10.2099720000
21
46.9965745398
0
LINE
5
36B
100
AcDbEntity
8
0
100
AcDbLine
62
7
6
CONTINUOUS
10
9.7799770000
20
48.2361485398
11
9.9959930000
21
47.5922595398
0
LINE
5
36C
100
AcDbEntity
8
0
100
AcDbLine
62
7
6
CONTINUOUS
10
4.1940475203
20
-9.5236239399
11
3.2000000000
21
-10.5176714602
0
LINE
5
36D
100
AcDbEntity
8
0
100
AcDbLine
62
7
6
CONTINUOUS
10
15.4500000000
20
38.1323285398
11
14.6500000000
21
38.1323285398
0
LINE
5
36E
100
AcDbEntity
8
0
100
AcDbLine
62
7
6
CONTINUOUS
10
-14.6500000000
20
38.1323285398
11
-15.4500000000
21
38.1323285398
0
LINE
5
36F
100
AcDbEntity
8
0
100
AcDbLine
62
7
6
CONTINUOUS
10
-13.1000000000
20
39.0323285398
11
-12.7500000000
21
39.0323285398
0
LINE
5
370
100
AcDbEntity
8
0
100
AcDbLine
62
7
6
CONTINUOUS
10
12.7500000000
20
39.0323285398
11
13.1000000000
21
39.0323285398
0
LINE
5
371
100
AcDbEntity
8
0
100
AcDbLine
62
7
6
CONTINUOUS
10
8.1000000000
20
39.1323285398
11
13.1466887427
21
39.1323285398
0
LINE
5
372
100
AcDbEntity
8
0
100
AcDbLine
62
7
6
CONTINUOUS
10
-8.1000000000
20
39.1323285398
11
-13.1466887427
21
39.1323285398
0
LINE
5
373
100
AcDbEntity
8
0
100
AcDbLine
62
7
6
CONTINUOUS
10
-15.4500000000
20
39.6323285398
11
-14.6500000000
21
39.6323285398
0
LINE
5
374
100
AcDbEntity
8
0
100
AcDbLine
62
7
6
CONTINUOUS
10
14.6500000000
20
39.6323285398
11
15.4500000000
21
39.6323285398
0
LINE
5
375
100
AcDbEntity
8
0
100
AcDbLine
62
7
6
CONTINUOUS
10
4.1940475203
20
42.7882810195
11
3.2000000000
21
43.7823285398
0
LINE
5
376
100
AcDbEntity
8
0
100
AcDbLine
62
7
6
CONTINUOUS
10
13.1623971047
20
-10.2891236680
11
13.1231261996
21
-10.3676714602
0
LINE
5
377
100
AcDbEntity
8
0
100
AcDbLine
62
9
6
CONTINUOUS
10
7.4999238476
20
-10.3676714602
11
7.6308368345
21
-10.2367584732
0
LINE
5
378
100
AcDbEntity
8
0
100
AcDbLine
62
7
6
CONTINUOUS
10
-12.5000000000
20
39.7323285398
11
-10.3500000000
21
39.7323285398
0
LINE
5
379
100
AcDbEntity
8
0
100
AcDbLine
62
7
6
CONTINUOUS
10
12.5000000000
20
39.7323285398
11
10.3500000000
21
39.7323285398
0
LINE
5
37A
100
AcDbEntity
8
0
100
AcDbLine
62
7
6
CONTINUOUS
10
6.2500000000
20
39.8823285398
11
8.1000000000
21
39.8823285398
0
LINE
5
37B
100
AcDbEntity
8
0
100
AcDbLine
62
7
6
CONTINUOUS
10
-6.2500000000
20
39.8823285398
11
-8.1000000000
21
39.8823285398
0
LINE
5
37C
100
AcDbEntity
8
0
100
AcDbLine
62
7
6
CONTINUOUS
10
-8.5000000000
20
39.8945461547
11
-8.1000000000
21
39.8945461547
0
LINE
5
37D
100
AcDbEntity
8
0
100
AcDbLine
62
7
6
CONTINUOUS
10
8.1000000000
20
39.8945461547
11
8.5000000000
21
39.8945461547
0
LINE
5
37E
100
AcDbEntity
8
0
100
AcDbLine
62
9
6
CONTINUOUS
10
8.5000000000
20
39.9234590514
11
6.2911305116
21
39.9234590514
0
LINE
5
37F
100
AcDbEntity
8
0
100
AcDbLine
62
9
6
CONTINUOUS
10
-6.2911305116
20
39.9234590514
11
-8.5000000000
21
39.9234590514
0
LINE
5
380
100
AcDbEntity
8
0
100
AcDbLine
62
7
6
CONTINUOUS
10
-4.2000000000
20
39.9323285398
11
-1.6000000000
21
39.9323285398
0
LINE
5
381
100
AcDbEntity
8
0
100
AcDbLine
62
7
6
CONTINUOUS
10
1.6000000000
20
39.9323285398
11
4.2000000000
21
39.9323285398
0
LINE
5
382
100
AcDbEntity
8
0
100
AcDbLine
62
7
6
CONTINUOUS
10
-6.2500000000
20
40.9323285398
11
-4.2000000000
21
40.9323285398
0
LINE
5
383
100
AcDbEntity
8
0
100
AcDbLine
62
7
6
CONTINUOUS
10
-1.6000000000
20
40.9323285398
11
1.6000000000
21
40.9323285398
0
LINE
5
384
100
AcDbEntity
8
0
100
AcDbLine
62
7
6
CONTINUOUS
10
4.2000000000
20
40.9323285398
11
6.2500000000
21
40.9323285398
0
LINE
5
385
100
AcDbEntity
8
0
100
AcDbLine
62
7
6
CONTINUOUS
10
-4.2000000000
20
40.9703063016
11
-1.6000000000
21
40.9703063016
0
LINE
5
386
100
AcDbEntity
8
0
100
AcDbLine
62
7
6
CONTINUOUS
10
1.6000000000
20
40.9703063016
11
4.2000000000
21
40.9703063016
0
LINE
5
387
100
AcDbEntity
8
0
100
AcDbLine
62
7
6
CONTINUOUS
10
-6.2954558678
20
40.9777844077
11
6.2954558678
21
40.9777844077
0
LINE
5
388
100
AcDbEntity
8
0
100
AcDbLine
62
7
6
CONTINUOUS
10
8.5000000000
20
41.1323285398
11
13.1466887427
21
41.1323285398
0
LINE
5
389
100
AcDbEntity
8
0
100
AcDbLine
62
7
6
CONTINUOUS
10
-8.5000000000
20
41.1323285398
11
-13.1466887427
21
41.1323285398
0
LINE
5
38A
100
AcDbEntity
8
0
100
AcDbLine
62
9
6
CONTINUOUS
10
8.5000000000
20
41.4234019360
11
7.5336543116
21
41.4234019360
0
LINE
5
38B
100
AcDbEntity
8
0
100
AcDbLine
62
9
6
CONTINUOUS
10
-7.5336543116
20
41.4234019360
11
-8.5000000000
21
41.4234019360
0
LINE
5
38C
100
AcDbEntity
8
0
100
AcDbLine
62
7
6
CONTINUOUS
10
14.6726915844
20
41.7660079047
11
15.3362647374
21
41.7660079047
0
LINE
5
38D
100
AcDbEntity
8
0
100
AcDbLine
62
7
6
CONTINUOUS
10
-14.6726915844
20
41.7660079047
11
-15.3362647374
21
41.7660079047
0
LINE
5
38E
100
AcDbEntity
8
0
100
AcDbLine
62
9
6
CONTINUOUS
10
-6.3354983674
20
41.9777463307
11
6.3354983674
21
41.9777463307
0
LINE
5
38F
100
AcDbEntity
8
0
100
AcDbLine
62
9
6
CONTINUOUS
10
7.4999238476
20
43.6323285398
11
7.6308368345
21
43.5014155529
0
LINE
5
390
100
AcDbEntity
8
0
100
AcDbLine
62
7
6
CONTINUOUS
10
9.9526020000
20
45.9957845398
11
10.6936870000
21
44.8180825398
0
LINE
5
391
100
AcDbEntity
8
0
100
AcDbLine
62
7
6
CONTINUOUS
10
10.7240270000
20
45.0902745398
11
9.9949620000
21
46.2680825398
0
LINE
5
392
100
AcDbEntity
8
0
100
AcDbLine
62
7
6
CONTINUOUS
10
13.1623971047
20
43.5537807476
11
13.1231261996
21
43.6323285398
0
LINE
5
393
100
AcDbEntity
8
0
100
AcDbLine
62
7
6
CONTINUOUS
10
6.2868841298
20
42.6514155529
11
-6.2868841298
21
42.6514155529
0
LINE
5
394
100
AcDbEntity
8
0
100
AcDbLine
62
7
6
CONTINUOUS
10
-2.0000000000
20
42.7596369554
11
2.0000000000
21
42.7596369554
0
LINE
5
395
100
AcDbEntity
8
0
100
AcDbLine
62
7
6
CONTINUOUS
10
-13.3138635149
20
42.7823285398
11
-8.5000000000
21
42.7823285398
0
LINE
5
396
100
AcDbEntity
8
0
100
AcDbLine
62
7
6
CONTINUOUS
10
13.3138635149
20
42.7823285398
11
8.5000000000
21
42.7823285398
0
LINE
5
397
100
AcDbEntity
8
0
100
AcDbLine
62
7
6
CONTINUOUS
10
-6.2907905922
20
42.7823285398
11
-6.0140873065
21
42.7823285398
0
LINE
5
398
100
AcDbEntity
8
0
100
AcDbLine
62
7
6
CONTINUOUS
10
6.0140873065
20
42.7823285398
11
6.2907905922
21
42.7823285398
0
LINE
5
399
100
AcDbEntity
8
0
100
AcDbLine
62
7
6
CONTINUOUS
10
-3.0000000000
20
42.7853047797
11
3.0000000000
21
42.7853047797
0
LINE
5
39A
100
AcDbEntity
8
0
100
AcDbLine
62
7
6
CONTINUOUS
10
-4.1940475203
20
42.7882810195
11
-3.0000000000
21
42.7882810195
0
LINE
5
39B
100
AcDbEntity
8
0
100
AcDbLine
62
7
6
CONTINUOUS
10
3.0000000000
20
42.7882810195
11
4.1940475203
21
42.7882810195
0
LINE
5
39C
100
AcDbEntity
8
0
100
AcDbLine
62
7
6
CONTINUOUS
10
5.9956953920
20
42.8082278677
11
4.1940475203
21
42.8082278677
0
LINE
5
39D
100
AcDbEntity
8
0
100
AcDbLine
62
7
6
CONTINUOUS
10
-4.1741006721
20
42.8082278677
11
-5.9956953920
21
42.8082278677
0
LINE
5
39E
100
AcDbEntity
8
0
100
AcDbLine
62
7
6
CONTINUOUS
10
-14.1798889187
20
43.2823285398
11
-8.5000000000
21
43.2823285398
0
LINE
5
39F
100
AcDbEntity
8
0
100
AcDbLine
62
7
6
CONTINUOUS
10
8.5000000000
20
43.2823285398
11
14.1798889187
21
43.2823285398
0
LINE
5
3A0
100
AcDbEntity
8
0
100
AcDbLine
62
7
6
CONTINUOUS
10
14.0191631655
20
43.5014155529
11
7.6308368345
21
43.5014155529
0
LINE
5
3A1
100
AcDbEntity
8
0
100
AcDbLine
62
7
6
CONTINUOUS
10
-7.6308368345
20
43.5014155529
11
-14.0191631655
21
43.5014155529
0
LINE
5
3A2
100
AcDbEntity
8
0
100
AcDbLine
62
7
6
CONTINUOUS
10
-13.1623971047
20
43.5537807476
11
-8.5000000000
21
43.5537807476
0
LINE
5
3A3
100
AcDbEntity
8
0
100
AcDbLine
62
7
6
CONTINUOUS
10
13.1623971047
20
43.5537807476
11
8.5000000000
21
43.5537807476
0
LINE
5
3A4
100
AcDbEntity
8
0
100
AcDbLine
62
7
6
CONTINUOUS
10
-14.1500761524
20
43.6323285398
11
-7.4999238476
21
43.6323285398
0
LINE
5
3A5
100
AcDbEntity
8
0
100
AcDbLine
62
7
6
CONTINUOUS
10
3.3500000000
20
43.6323285398
11
-3.3500000000
21
43.6323285398
0
LINE
5
3A6
100
AcDbEntity
8
0
100
AcDbLine
62
7
6
CONTINUOUS
10
7.4999238476
20
43.6323285398
11
14.1500761524
21
43.6323285398
0
LINE
5
3A7
100
AcDbEntity
8
0
100
AcDbLine
62
7
6
CONTINUOUS
10
3.2000000000
20
43.7823285398
11
0.7500000000
21
43.7823285398
0
LINE
5
3A8
100
AcDbEntity
8
0
100
AcDbLine
62
7
6
CONTINUOUS
10
-0.7500000000
20
43.7823285398
11
-3.2000000000
21
43.7823285398
0
LINE
5
3A9
100
AcDbEntity
8
0
100
AcDbLine
62
7
6
CONTINUOUS
10
-12.4935900000
20
44.1222535398
11
-12.2976120000
21
44.1222535398
0
LINE
5
3AA
100
AcDbEntity
8
0
100
AcDbLine
62
7
6
CONTINUOUS
10
-11.5966180000
20
44.1222535398
11
-11.4007570000
21
44.1222535398
0
LINE
5
3AB
100
AcDbEntity
8
0
100
AcDbLine
62
7
6
CONTINUOUS
10
-10.8534020000
20
44.1222535398
11
-10.6514430000
21
44.1222535398
0
LINE
5
3AC
100
AcDbEntity
8
0
100
AcDbLine
62
7
6
CONTINUOUS
10
-9.7747600000
20
44.1222535398
11
-9.5607200000
21
44.1222535398
0
LINE
5
3AD
100
AcDbEntity
8
0
100
AcDbLine
62
7
6
CONTINUOUS
10
-9.3809270000
20
44.1222535398
11
-8.4498260000
21
44.1222535398
0
LINE
5
3AE
100
AcDbEntity
8
0
100
AcDbLine
62
7
6
CONTINUOUS
10
-8.1386770000
20
44.1222535398
11
-7.9428160000
21
44.1222535398
0
LINE
5
3AF
100
AcDbEntity
8
0
100
AcDbLine
62
7
6
CONTINUOUS
10
-8.4498260000
20
44.2958305398
11
-9.1850660000
21
44.2958305398
0
LINE
5
3B0
100
AcDbEntity
8
0
100
AcDbLine
62
7
6
CONTINUOUS
10
-10.4999140000
20
44.5444685398
11
-9.9181960000
21
44.5444685398
0
LINE
5
3B1
100
AcDbEntity
8
0
100
AcDbLine
62
7
6
CONTINUOUS
10
15.4500000000
20
44.6323285398
11
14.7968739821
21
44.6323285398
0
LINE
5
3B2
100
AcDbEntity
8
0
100
AcDbLine
62
7
6
CONTINUOUS
10
-1.5000000000
20
44.6323285398
11
-0.7500000000
21
44.6323285398
0
LINE
5
3B3
100
AcDbEntity
8
0
100
AcDbLine
62
7
6
CONTINUOUS
10
0.7500000000
20
44.6323285398
11
1.5000000000
21
44.6323285398
0
LINE
5
3B4
100
AcDbEntity
8
0
100
AcDbLine
62
7
6
CONTINUOUS
10
-14.7968739821
20
44.6323285398
11
-15.4500000000
21
44.6323285398
0
LINE
5
3B5
100
AcDbEntity
8
0
100
AcDbLine
62
7
6
CONTINUOUS
10
-9.9889170000
20
44.7180455398
11
-10.4393970000
21
44.7180455398
0
LINE
5
3B6
100
AcDbEntity
8
0
100
AcDbLine
62
7
6
CONTINUOUS
10
7.0890090000
20
44.8180825398
11
7.2848990000
21
44.8180825398
0
LINE
5
3B7
100
AcDbEntity
8
0
100
AcDbLine
62
7
6
CONTINUOUS
10
8.4359690000
20
44.8180825398
11
9.5063250000
21
44.8180825398
0
LINE
5
3B8
100
AcDbEntity
8
0
100
AcDbLine
62
7
6
CONTINUOUS
10
9.7627790000
20
44.8180825398
11
9.9526020000
21
44.8180825398
0
LINE
5
3B9
100
AcDbEntity
8
0
100
AcDbLine
62
7
6
CONTINUOUS
10
10.6936870000
20
44.8180825398
11
10.9138490000
21
44.8180825398
0
LINE
5
3BA
100
AcDbEntity
8
0
100
AcDbLine
62
7
6
CONTINUOUS
10
11.2308690000
20
44.8180825398
11
11.8184242932
21
44.8180825398
0
LINE
5
3BB
100
AcDbEntity
8
0
100
AcDbLine
62
7
6
CONTINUOUS
10
12.7009040000
20
44.8180825398
11
12.9109910000
21
44.8180825398
0
LINE
5
3BC
100
AcDbEntity
8
0
100
AcDbLine
62
7
6
CONTINUOUS
10
11.7922092348
20
44.9856945398
11
11.4267590000
21
44.9856945398
0
LINE
5
3BD
100
AcDbEntity
8
0
100
AcDbLine
62
7
6
CONTINUOUS
10
9.5063250000
20
44.9917615398
11
8.6318590000
21
44.9917615398
0
LINE
5
3BE
100
AcDbEntity
8
0
100
AcDbLine
62
7
6
CONTINUOUS
10
12.9109910000
20
45.0321765398
11
12.7009040000
21
45.0321765398
0
LINE
5
3BF
100
AcDbEntity
8
0
100
AcDbLine
62
7
6
CONTINUOUS
10
-12.0874430000
20
45.3994535398
11
-11.5966180000
21
45.3994535398
0
LINE
5
3C0
100
AcDbEntity
8
0
100
AcDbLine
62
7
6
CONTINUOUS
10
-11.4007570000
20
45.3994535398
11
-10.9099320000
21
45.3994535398
0
LINE
5
3C1
100
AcDbEntity
8
0
100
AcDbLine
62
7
6
CONTINUOUS
10
7.2848990000
20
45.4300245398
11
7.7412485622
21
45.4300245398
0
LINE
5
3C2
100
AcDbEntity
8
0
100
AcDbLine
62
7
6
CONTINUOUS
10
8.6318590000
20
45.4765075398
11
9.4254950000
21
45.4765075398
0
LINE
5
3C3
100
AcDbEntity
8
0
100
AcDbLine
62
7
6
CONTINUOUS
10
-7.3954610000
20
45.5730305398
11
-7.6256860000
21
45.5730305398
0
LINE
5
3C4
100
AcDbEntity
8
0
100
AcDbLine
62
7
6
CONTINUOUS
10
-8.4579180000
20
45.5730305398
11
-8.6861490000
21
45.5730305398
0
LINE
5
3C5
100
AcDbEntity
8
0
100
AcDbLine
62
7
6
CONTINUOUS
10
-9.1850660000
20
45.5730305398
11
-9.3809270000
21
45.5730305398
0
LINE
5
3C6
100
AcDbEntity
8
0
100
AcDbLine
62
7
6
CONTINUOUS
10
-10.0859090000
20
45.5730305398
11
-10.3080410000
21
45.5730305398
0
LINE
5
3C7
100
AcDbEntity
8
0
100
AcDbLine
62
7
6
CONTINUOUS
10
-10.9099320000
20
45.5730305398
11
-12.0874430000
21
45.5730305398
0
LINE
5
3C8
100
AcDbEntity
8
0
100
AcDbLine
62
7
6
CONTINUOUS
10
-12.2976120000
20
45.5730305398
11
-12.4935900000
21
45.5730305398
0
LINE
5
3C9
100
AcDbEntity
8
0
100
AcDbLine
62
7
6
CONTINUOUS
10
7.6827484698
20
45.5976365398
11
7.2848990000
21
45.5976365398
0
LINE
5
3CA
100
AcDbEntity
8
0
100
AcDbLine
62
7
6
CONTINUOUS
10
9.4254950000
20
45.6500725398
11
8.6318590000
21
45.6500725398
0
LINE
5
3CB
100
AcDbEntity
8
0
100
AcDbLine
62
7
6
CONTINUOUS
10
8.6318590000
20
46.0944035398
11
9.4921280000
21
46.0944035398
0
LINE
5
3CC
100
AcDbEntity
8
0
100
AcDbLine
62
7
6
CONTINUOUS
10
7.2848990000
20
46.1004715398
11
7.6827422309
21
46.1004715398
0
LINE
5
3CD
100
AcDbEntity
8
0
100
AcDbLine
62
7
6
CONTINUOUS
10
11.4267590000
20
46.1004715398
11
11.7922041873
21
46.1004715398
0
LINE
5
3CE
100
AcDbEntity
8
0
100
AcDbLine
62
7
6
CONTINUOUS
10
15.4500000000
20
46.1323285398
11
14.8744230428
21
46.1323285398
0
LINE
5
3CF
100
AcDbEntity
8
0
100
AcDbLine
62
7
6
CONTINUOUS
10
-14.8744230428
20
46.1323285398
11
-15.4500000000
21
46.1323285398
0
LINE
5
3D0
100
AcDbEntity
8
0
100
AcDbLine
62
7
6
CONTINUOUS
10
-10.8483590000
20
46.2075265398
11
-10.6523810000
21
46.2075265398
0
LINE
5
3D1
100
AcDbEntity
8
0
100
AcDbLine
62
7
6
CONTINUOUS
10
-10.3171890000
20
46.2075265398
11
-10.1271920000
21
46.2075265398
0
LINE
5
3D2
100
AcDbEntity
8
0
100
AcDbLine
62
7
6
CONTINUOUS
10
-9.3859700000
20
46.2075265398
11
-9.1658320000
21
46.2075265398
0
LINE
5
3D3
100
AcDbEntity
8
0
100
AcDbLine
62
7
6
CONTINUOUS
10
11.8184252923
20
46.2680825398
11
11.2308690000
21
46.2680825398
0
LINE
5
3D4
100
AcDbEntity
8
0
100
AcDbLine
62
7
6
CONTINUOUS
10
10.9138490000
20
46.2680825398
11
10.7240270000
21
46.2680825398
0
LINE
5
3D5
100
AcDbEntity
8
0
100
AcDbLine
62
7
6
CONTINUOUS
10
9.9949620000
20
46.2680825398
11
9.7627790000
21
46.2680825398
0
LINE
5
3D6
100
AcDbEntity
8
0
100
AcDbLine
62
7
6
CONTINUOUS
10
9.4921280000
20
46.2680825398
11
8.4359690000
21
46.2680825398
0
LINE
5
3D7
100
AcDbEntity
8
0
100
AcDbLine
62
7
6
CONTINUOUS
10
7.7412518142
20
46.2680825398
11
7.0890090000
21
46.2680825398
0
LINE
5
3D8
100
AcDbEntity
8
0
100
AcDbLine
62
7
6
CONTINUOUS
10
7.9300430000
20
46.9965745398
11
8.1259340000
21
46.9965745398
0
LINE
5
3D9
100
AcDbEntity
8
0
100
AcDbLine
62
7
6
CONTINUOUS
10
9.1316030000
20
46.9965745398
11
9.3335610000
21
46.9965745398
0
LINE
5
3DA
100
AcDbEntity
8
0
100
AcDbLine
62
7
6
CONTINUOUS
10
10.2099720000
20
46.9965745398
11
10.4240660000
21
46.9965745398
0
LINE
5
3DB
100
AcDbEntity
8
0
100
AcDbLine
62
7
6
CONTINUOUS
10
10.9693760000
20
46.9965745398
11
11.1651520000
21
46.9965745398
0
LINE
5
3DC
100
AcDbEntity
8
0
100
AcDbLine
62
7
6
CONTINUOUS
10
11.8598700000
20
46.9965745398
11
12.0699570000
21
46.9965745398
0
LINE
5
3DD
100
AcDbEntity
8
0
100
AcDbLine
62
7
6
CONTINUOUS
10
12.0699570000
20
47.2106685398
11
11.8598700000
21
47.2106685398
0
LINE
5
3DE
100
AcDbEntity
8
0
100
AcDbLine
62
7
6
CONTINUOUS
10
9.4850300000
20
47.4185795398
11
10.0666320000
21
47.4185795398
0
LINE
5
3DF
100
AcDbEntity
8
0
100
AcDbLine
62
7
6
CONTINUOUS
10
9.9959930000
20
47.5922595398
11
9.5455940000
21
47.5922595398
0
LINE
5
3E0
100
AcDbEntity
8
0
100
AcDbLine
62
7
6
CONTINUOUS
10
8.1259340000
20
47.6085165398
11
8.5823984067
21
47.6085165398
0
LINE
5
3E1
100
AcDbEntity
8
0
100
AcDbLine
62
7
6
CONTINUOUS
10
-9.1658320000
20
47.6571305398
11
-9.3555940000
21
47.6571305398
0
LINE
5
3E2
100
AcDbEntity
8
0
100
AcDbLine
62
7
6
CONTINUOUS
10
-10.0848530000
20
47.6571305398
11
-10.3171890000
21
47.6571305398
0
LINE
5
3E3
100
AcDbEntity
8
0
100
AcDbLine
62
7
6
CONTINUOUS
10
-10.6523810000
20
47.6571305398
11
-10.8483590000
21
47.6571305398
0
LINE
5
3E4
100
AcDbEntity
8
0
100
AcDbLine
62
7
6
CONTINUOUS
10
8.5237838495
20
47.7761285398
11
8.1259340000
21
47.7761285398
0
LINE
5
3E5
100
AcDbEntity
8
0
100
AcDbLine
62
7
6
CONTINUOUS
10
-2.6905880900
20
47.7823285398
11
-1.1122455453
21
47.7823285398
0
LINE
5
3E6
100
AcDbEntity
8
0
100
AcDbLine
62
7
6
CONTINUOUS
10
1.1121714031
20
47.7823285398
11
2.6905880900
21
47.7823285398
0
LINE
5
3E7
100
AcDbEntity
8
0
100
AcDbLine
62
7
6
CONTINUOUS
10
10.4785630000
20
48.2728955398
11
10.9693760000
21
48.2728955398
0
LINE
5
3E8
100
AcDbEntity
8
0
100
AcDbLine
62
7
6
CONTINUOUS
10
11.1651520000
20
48.2728955398
11
11.6559650000
21
48.2728955398
0
LINE
5
3E9
100
AcDbEntity
8
0
100
AcDbLine
62
7
6
CONTINUOUS
10
8.1259340000
20
48.2789625398
11
8.5237868545
21
48.2789625398
0
LINE
5
3EA
100
AcDbEntity
8
0
100
AcDbLine
62
7
6
CONTINUOUS
10
-12.7924240000
20
48.2927985398
11
-12.6025450000
21
48.2927985398
0
LINE
5
3EB
100
AcDbEntity
8
0
100
AcDbLine
62
7
6
CONTINUOUS
10
-12.1945210000
20
48.2927985398
11
-12.0006540000
21
48.2927985398
0
LINE
5
3EC
100
AcDbEntity
8
0
100
AcDbLine
62
7
6
CONTINUOUS
10
-11.5926300000
20
48.2927985398
11
-11.4027510000
21
48.2927985398
0
LINE
5
3ED
100
AcDbEntity
8
0
100
AcDbLine
62
7
6
CONTINUOUS
10
-11.2290560000
20
48.2927985398
11
-11.0270970000
21
48.2927985398
0
LINE
5
3EE
100
AcDbEntity
8
0
100
AcDbLine
62
7
6
CONTINUOUS
10
-10.1504140000
20
48.2927985398
11
-9.9363750000
21
48.2927985398
0
LINE
5
3EF
100
AcDbEntity
8
0
100
AcDbLine
62
7
6
CONTINUOUS
10
-9.7464950000
20
48.2927985398
11
-9.1587981889
21
48.2927985398
0
LINE
5
3F0
100
AcDbEntity
8
0
100
AcDbLine
62
7
6
CONTINUOUS
10
-8.2781250000
20
48.2927985398
11
-7.2075760000
21
48.2927985398
0
LINE
5
3F1
100
AcDbEntity
8
0
100
AcDbLine
62
7
6
CONTINUOUS
10
11.6559650000
20
48.4465745398
11
10.4785630000
21
48.4465745398
0
LINE
5
3F2
100
AcDbEntity
8
0
100
AcDbLine
62
7
6
CONTINUOUS
10
9.8990210000
20
48.4465745398
11
9.6769130000
21
48.4465745398
0
LINE
5
3F3
100
AcDbEntity
8
0
100
AcDbLine
62
7
6
CONTINUOUS
10
8.5824000334
20
48.4465745398
11
7.9300430000
21
48.4465745398
0
LINE
5
3F4
100
AcDbEntity
8
0
100
AcDbLine
62
7
6
CONTINUOUS
10
-9.1850641210
20
48.4605125398
11
-9.5506340000
21
48.4605125398
0
LINE
5
3F5
100
AcDbEntity
8
0
100
AcDbLine
62
7
6
CONTINUOUS
10
-7.2075760000
20
48.4663765398
11
-8.0821470000
21
48.4663765398
0
LINE
5
3F6
100
AcDbEntity
8
0
100
AcDbLine
62
7
6
CONTINUOUS
10
-10.8755680000
20
48.7150135398
11
-10.2938500000
21
48.7150135398
0
LINE
5
3F7
100
AcDbEntity
8
0
100
AcDbLine
62
7
6
CONTINUOUS
10
-15.4500000000
20
48.8823285398
11
-13.6670833097
21
48.8823285398
0
LINE
5
3F8
100
AcDbEntity
8
0
100
AcDbLine
62
7
6
CONTINUOUS
10
13.6670833097
20
48.8823285398
11
15.4500000000
21
48.8823285398
0
LINE
5
3F9
100
AcDbEntity
8
0
100
AcDbLine
62
7
6
CONTINUOUS
10
-10.3645710000
20
48.8885915398
11
-10.8149340000
21
48.8885915398
0
LINE
5
3FA
100
AcDbEntity
8
0
100
AcDbLine
62
7
6
CONTINUOUS
10
-8.0821470000
20
48.9507505398
11
-7.2883830000
21
48.9507505398
0
LINE
5
3FB
100
AcDbEntity
8
0
100
AcDbLine
62
7
6
CONTINUOUS
10
-7.2883830000
20
49.1243275398
11
-8.0821470000
21
49.1243275398
0
LINE
5
3FC
100
AcDbEntity
8
0
100
AcDbLine
62
7
6
CONTINUOUS
10
-8.0821470000
20
49.5688265398
11
-7.2217670000
21
49.5688265398
0
LINE
5
3FD
100
AcDbEntity
8
0
100
AcDbLine
62
7
6
CONTINUOUS
10
-9.5506340000
20
49.5746905398
11
-9.1850661945
21
49.5746905398
0
LINE
5
3FE
100
AcDbEntity
8
0
100
AcDbLine
62
7
6
CONTINUOUS
10
-7.2217670000
20
49.7424035398
11
-8.2781250000
21
49.7424035398
0
LINE
5
3FF
100
AcDbEntity
8
0
100
AcDbLine
62
7
6
CONTINUOUS
10
-9.1587940068
20
49.7424035398
11
-9.7464950000
21
49.7424035398
0
LINE
5
400
100
AcDbEntity
8
0
100
AcDbLine
62
7
6
CONTINUOUS
10
-10.4615630000
20
49.7424035398
11
-10.6836950000
21
49.7424035398
0
LINE
5
401
100
AcDbEntity
8
0
100
AcDbLine
62
7
6
CONTINUOUS
10
-11.4027510000
20
49.7424035398
11
-11.6815300000
21
49.7424035398
0
LINE
5
402
100
AcDbEntity
8
0
100
AcDbLine
62
7
6
CONTINUOUS
10
-12.5116510000
20
49.7424035398
11
-12.7924240000
21
49.7424035398
0
LINE
5
403
100
AcDbEntity
8
0
100
AcDbLine
62
7
6
CONTINUOUS
10
14.5000000000
20
50.1323285398
11
5.7000000000
21
50.1323285398
0
LINE
5
404
100
AcDbEntity
8
0
100
AcDbLine
62
7
6
CONTINUOUS
10
-5.7000000000
20
50.1323285398
11
-14.5000000000
21
50.1323285398
0
LINE
5
405
100
AcDbEntity
8
0
100
AcDbLine
62
7
6
CONTINUOUS
10
-2.6905880900
20
50.4823285398
11
-1.1134457648
21
50.4823285398
0
LINE
5
406
100
AcDbEntity
8
0
100
AcDbLine
62
7
6
CONTINUOUS
10
1.1120007114
20
50.4823285398
11
2.6905880900
21
50.4823285398
0
LINE
5
407
100
AcDbEntity
8
0
100
AcDbLine
62
7
6
CONTINUOUS
10
-14.5000000000
20
51.5323285398
11
-5.7000000000
21
51.5323285398
0
LINE
5
408
100
AcDbEntity
8
0
100
AcDbLine
62
7
6
CONTINUOUS
10
5.7000000000
20
51.5323285398
11
14.5000000000
21
51.5323285398
0
LINE
5
409
100
AcDbEntity
8
0
100
AcDbLine
62
7
6
CONTINUOUS
10
-13.7500000000
20
52.7323285398
11
-4.5000000000
21
52.7323285398
0
LINE
5
40A
100
AcDbEntity
8
0
100
AcDbLine
62
7
6
CONTINUOUS
10
4.5000000000
20
52.7323285398
11
13.7500000000
21
52.7323285398
0
LINE
5
40B
100
AcDbEntity
8
0
100
AcDbLine
62
7
6
CONTINUOUS
10
-4.5000000000
20
53.3323285398
11
-3.2500000000
21
53.3323285398
0
LINE
5
40C
100
AcDbEntity
8
0
100
AcDbLine
62
7
6
CONTINUOUS
10
3.2500000000
20
53.3323285398
11
4.5000000000
21
53.3323285398
0
LINE
5
40D
100
AcDbEntity
8
0
100
AcDbLine
62
9
6
CONTINUOUS
10
-11.6000000000
20
53.4858819304
11
-8.6000000000
21
53.4858819304
0
LINE
5
40E
100
AcDbEntity
8
0
100
AcDbLine
62
9
6
CONTINUOUS
10
8.6000000000
20
53.4858819304
11
11.6000000000
21
53.4858819304
0
LINE
5
40F
100
AcDbEntity
8
0
100
AcDbLine
62
7
6
CONTINUOUS
10
-11.6000000000
20
53.6323285398
11
-8.6000000000
21
53.6323285398
0
LINE
5
410
100
AcDbEntity
8
0
100
AcDbLine
62
7
6
CONTINUOUS
10
8.6000000000
20
53.6323285398
11
11.6000000000
21
53.6323285398
0
LINE
5
411
100
AcDbEntity
8
0
100
AcDbLine
62
7
6
CONTINUOUS
10
-3.2500000000
20
55.6323285398
11
3.2500000000
21
55.6323285398
0
ARC
5
412
100
AcDbEntity
8
0
100
AcDbCircle
62
7
6
CONTINUOUS
10
0.0000000000
20
49.1323285398
40
3.2043457495
100
AcDbArc
50
344.8480183674
51
15.1519816319
0
ARC
5
413
100
AcDbEntity
8
0
100
AcDbCircle
62
7
6
CONTINUOUS
10
0.0000000000
20
49.1323285398
40
3.2043457495
100
AcDbArc
50
164.8480183674
51
195.1519816319
0
ARC
5
414
100
AcDbEntity
8
0
100
AcDbCircle
62
7
6
CONTINUOUS
10
0.0000000000
20
49.1323285398
40
1.2500000000
100
AcDbArc
50
109.8163010586
51
183.1798534867
0
ARC
5
415
100
AcDbEntity
8
0
100
AcDbCircle
62
9
6
CONTINUOUS
10
0.0000000000
20
49.1323285398
40
2.7043457236
100
AcDbArc
50
330.0523470159
51
29.9476522363
0
ARC
5
416
100
AcDbEntity
8
0
100
AcDbCircle
62
9
6
CONTINUOUS
10
0.0000000000
20
49.1323285398
40
2.7043457236
100
AcDbArc
50
150.0523470159
51
209.9476522363
0
ARC
5
417
100
AcDbEntity
8
0
100
AcDbCircle
62
7
6
CONTINUOUS
10
0.0000000000
20
49.1323285398
40
1.8000000000
100
AcDbArc
50
311.4032688895
51
48.5967311105
0
ARC
5
418
100
AcDbEntity
8
0
100
AcDbCircle
62
7
6
CONTINUOUS
10
0.0000000000
20
49.1323285398
40
1.8000000000
100
AcDbArc
50
131.4032688895
51
228.5967311105
0
ARC
5
419
100
AcDbEntity
8
0
100
AcDbCircle
62
7
6
CONTINUOUS
10
0.0000000000
20
-15.8676714602
40
3.2043457495
100
AcDbArc
50
344.8480183674
51
15.1519816319
0
ARC
5
41A
100
AcDbEntity
8
0
100
AcDbCircle
62
7
6
CONTINUOUS
10
0.0000000000
20
-15.8676714602
40
3.2043457495
100
AcDbArc
50
164.8480183674
51
195.1519816319
0
ARC
5
41B
100
AcDbEntity
8
0
100
AcDbCircle
62
7
6
CONTINUOUS
10
0.0000000000
20
-15.8676714602
40
1.2500000000
100
AcDbArc
50
109.8163010586
51
183.1798534867
0
ARC
5
41C
100
AcDbEntity
8
0
100
AcDbCircle
62
9
6
CONTINUOUS
10
0.0000000000
20
-15.8676714602
40
2.7043457236
100
AcDbArc
50
330.0523470159
51
29.9476522363
0
ARC
5
41D
100
AcDbEntity
8
0
100
AcDbCircle
62
9
6
CONTINUOUS
10
0.0000000000
20
-15.8676714602
40
2.7043457236
100
AcDbArc
50
150.0523470159
51
209.9476522363
0
ARC
5
41E
100
AcDbEntity
8
0
100
AcDbCircle
62
7
6
CONTINUOUS
10
0.0000000000
20
-15.8676714602
40
1.8000000000
100
AcDbArc
50
311.4032688895
51
48.5967311105
0
ARC
5
41F
100
AcDbEntity
8
0
100
AcDbCircle
62
7
6
CONTINUOUS
10
0.0000000000
20
-15.8676714602
40
1.8000000000
100
AcDbArc
50
131.4032688895
51
228.5967311105
0
ARC
5
420
100
AcDbEntity
8
0
100
AcDbCircle
62
7
6
CONTINUOUS
10
13.7500000000
20
49.7323285398
40
3.0000000000
100
AcDbArc
50
0.0000000000
51
90.0000000000
0
ARC
5
421
100
AcDbEntity
8
0
100
AcDbCircle
62
7
6
CONTINUOUS
10
13.7500000000
20
-16.4676714602
40
3.0000000000
100
AcDbArc
50
270.0000000000
51
360.0000000000
0
ARC
5
422
100
AcDbEntity
8
0
100
AcDbCircle
62
7
6
CONTINUOUS
10
-13.7500000000
20
-16.4676714602
40
3.0000000000
100
AcDbArc
50
180.0000000000
51
270.0000000000
0
ARC
5
423
100
AcDbEntity
8
0
100
AcDbCircle
62
7
6
CONTINUOUS
10
-13.7500000000
20
49.7323285398
40
3.0000000000
100
AcDbArc
50
90.0000000000
51
180.0000000000
0
ARC
5
424
100
AcDbEntity
8
0
100
AcDbCircle
62
7
6
CONTINUOUS
10
-14.5000000000
20
50.8323285398
40
0.7000000000
100
AcDbArc
50
90.0000000000
51
270.0000000000
0
ARC
5
425
100
AcDbEntity
8
0
100
AcDbCircle
62
7
6
CONTINUOUS
10
-5.7000000000
20
50.8323285398
40
0.7000000000
100
AcDbArc
50
270.0000000000
51
90.0000000000
0
ARC
5
426
100
AcDbEntity
8
0
100
AcDbCircle
62
7
6
CONTINUOUS
10
14.5000000000
20
50.8323285398
40
0.7000000000
100
AcDbArc
50
270.0000000000
51
90.0000000000
0
ARC
5
427
100
AcDbEntity
8
0
100
AcDbCircle
62
7
6
CONTINUOUS
10
5.7000000000
20
50.8323285398
40
0.7000000000
100
AcDbArc
50
90.0000000000
51
270.0000000000
0
ARC
5
428
100
AcDbEntity
8
0
100
AcDbCircle
62
7
6
CONTINUOUS
10
-14.5000000000
20
-17.5676714602
40
0.7000000000
100
AcDbArc
50
90.0000000000
51
270.0000000000
0
ARC
5
429
100
AcDbEntity
8
0
100
AcDbCircle
62
7
6
CONTINUOUS
10
-5.7000000000
20
-17.5676714602
40
0.7000000000
100
AcDbArc
50
270.0000000000
51
90.0000000000
0
ARC
5
42A
100
AcDbEntity
8
0
100
AcDbCircle
62
7
6
CONTINUOUS
10
14.5000000000
20
-17.5676714602
40
0.7000000000
100
AcDbArc
50
270.0000000000
51
90.0000000000
0
ARC
5
42B
100
AcDbEntity
8
0
100
AcDbCircle
62
7
6
CONTINUOUS
10
5.7000000000
20
-17.5676714602
40
0.7000000000
100
AcDbArc
50
90.0000000000
51
270.0000000000
0
ARC
5
42C
100
AcDbEntity
8
0
100
AcDbCircle
62
7
6
CONTINUOUS
10
-10.0000000000
20
45.6323285398
40
4.9000000000
100
AcDbArc
50
138.4506183622
51
174.1432980901
0
ARC
5
42D
100
AcDbEntity
8
0
100
AcDbCircle
62
7
6
CONTINUOUS
10
10.0000000000
20
45.6323285398
40
4.9000000000
100
AcDbArc
50
5.8567019099
51
41.5493816378
0
ARC
5
42E
100
AcDbEntity
8
0
100
AcDbCircle
62
7
6
CONTINUOUS
10
-10.0000000000
20
-12.3676714602
40
4.9000000000
100
AcDbArc
50
185.8567019099
51
221.5493816378
0
ARC
5
42F
100
AcDbEntity
8
0
100
AcDbCircle
62
7
6
CONTINUOUS
10
10.0000000000
20
-12.3676714602
40
4.9000000000
100
AcDbArc
50
318.4506183622
51
354.1432980901
0
ARC
5
430
100
AcDbEntity
8
0
100
AcDbCircle
62
7
6
CONTINUOUS
10
-1.5000000000
20
49.1323285398
40
1.8000000000
100
AcDbArc
50
131.4096221093
51
228.5903778907
0
ARC
5
431
100
AcDbEntity
8
0
100
AcDbCircle
62
7
6
CONTINUOUS
10
1.5000000000
20
49.1323285398
40
1.8000000000
100
AcDbArc
50
311.4096221093
51
48.5903778907
0
ARC
5
432
100
AcDbEntity
8
0
100
AcDbCircle
62
7
6
CONTINUOUS
10
-1.5000000000
20
-15.8676714602
40
1.8000000000
100
AcDbArc
50
131.4096221093
51
228.5903778907
0
ARC
5
433
100
AcDbEntity
8
0
100
AcDbCircle
62
7
6
CONTINUOUS
10
1.5000000000
20
-15.8676714602
40
1.8000000000
100
AcDbArc
50
311.4096221093
51
48.5903778907
0
ARC
5
434
100
AcDbEntity
8
0
100
AcDbCircle
62
7
6
CONTINUOUS
10
-10.0000000000
20
-12.3676714602
40
4.9000000000
100
AcDbArc
50
349.1736953519
51
35.5654568761
0
ARC
5
435
100
AcDbEntity
8
0
100
AcDbCircle
62
7
6
CONTINUOUS
10
-1.5000000000
20
-15.8676714602
40
4.5000000000
100
AcDbArc
50
90.0000000000
51
145.0228776731
0
ARC
5
436
100
AcDbEntity
8
0
100
AcDbCircle
62
7
6
CONTINUOUS
10
1.5000000000
20
-15.8676714602
40
4.5000000000
100
AcDbArc
50
34.9771223269
51
90.0000000000
0
ARC
5
437
100
AcDbEntity
8
0
100
AcDbCircle
62
7
6
CONTINUOUS
10
10.0000000000
20
-12.3676714602
40
4.9000000000
100
AcDbArc
50
144.4345431239
51
190.8263046481
0
ARC
5
438
100
AcDbEntity
8
0
100
AcDbCircle
62
7
6
CONTINUOUS
10
10.0000000000
20
45.6323285398
40
4.9000000000
100
AcDbArc
50
169.1736953519
51
215.5654568761
0
ARC
5
439
100
AcDbEntity
8
0
100
AcDbCircle
62
7
6
CONTINUOUS
10
1.5000000000
20
49.1323285398
40
4.5000000000
100
AcDbArc
50
270.0000000000
51
325.0228776731
0
ARC
5
43A
100
AcDbEntity
8
0
100
AcDbCircle
62
7
6
CONTINUOUS
10
-1.5000000000
20
49.1323285398
40
4.5000000000
100
AcDbArc
50
214.9771223269
51
270.0000000000
0
ARC
5
43B
100
AcDbEntity
8
0
100
AcDbCircle
62
7
6
CONTINUOUS
10
-10.0000000000
20
45.6323285398
40
4.9000000000
100
AcDbArc
50
324.4345431239
51
10.8263046481
0
ARC
5
43C
100
AcDbEntity
8
0
100
AcDbCircle
62
7
6
CONTINUOUS
10
-10.9675540000
20
-13.8676714602
40
2.5499985399
100
AcDbArc
50
87.7525290943
51
272.2474709057
0
ARC
5
43D
100
AcDbEntity
8
0
100
AcDbCircle
62
7
6
CONTINUOUS
10
-10.9675540000
20
-13.8676714602
40
1.7999999246
100
AcDbArc
50
86.8152613297
51
273.1847386703
0
ARC
5
43E
100
AcDbEntity
8
0
100
AcDbCircle
62
7
6
CONTINUOUS
10
-6.5824440000
20
-13.8676714602
40
1.7999999246
100
AcDbArc
50
86.8152613297
51
167.9753003079
0
ARC
5
43F
100
AcDbEntity
8
0
100
AcDbCircle
62
7
6
CONTINUOUS
10
-6.5824440000
20
-13.8676714602
40
2.5499986575
100
AcDbArc
50
87.7525291980
51
272.2474708020
0
ARC
5
440
100
AcDbEntity
8
0
100
AcDbCircle
62
7
6
CONTINUOUS
10
-6.5824440000
20
-13.8676714602
40
1.7999968808
100
AcDbArc
50
192.0247203293
51
273.1847440612
0
ARC
5
441
100
AcDbEntity
8
0
100
AcDbCircle
62
7
6
CONTINUOUS
10
10.0000000000
20
-12.3676714602
40
4.9000000000
100
AcDbArc
50
11.7757439859
51
25.2183303709
0
ARC
5
442
100
AcDbEntity
8
0
100
AcDbCircle
62
7
6
CONTINUOUS
10
10.0000000000
20
45.6323285398
40
4.9000000000
100
AcDbArc
50
334.7816696291
51
348.2242560141
0
ARC
5
443
100
AcDbEntity
8
0
100
AcDbCircle
62
7
6
CONTINUOUS
10
-10.0000000000
20
45.6323285398
40
4.9000000000
100
AcDbArc
50
191.7757439859
51
205.2183303709
0
ARC
5
444
100
AcDbEntity
8
0
100
AcDbCircle
62
7
6
CONTINUOUS
10
-10.0000000000
20
-12.3676714602
40
4.9000000000
100
AcDbArc
50
154.7816696291
51
168.2242560141
0
ARC
5
445
100
AcDbEntity
8
0
100
AcDbCircle
62
7
6
CONTINUOUS
10
7.2500000000
20
-9.1176714602
40
1.0000000000
100
AcDbArc
50
89.3157986043
51
156.1350511345
0
ARC
5
446
100
AcDbEntity
8
0
100
AcDbCircle
62
7
6
CONTINUOUS
10
-7.2500000000
20
-9.1176714602
40
1.0000000000
100
AcDbArc
50
23.8649488655
51
90.6842013957
0
ARC
5
447
100
AcDbEntity
8
0
100
AcDbCircle
62
7
6
CONTINUOUS
10
-7.2500000000
20
42.3823285398
40
1.0000000000
100
AcDbArc
50
269.3157986043
51
336.1350511345
0
ARC
5
448
100
AcDbEntity
8
0
100
AcDbCircle
62
7
6
CONTINUOUS
10
7.2500000000
20
42.3823285398
40
1.0000000000
100
AcDbArc
50
203.8649488655
51
270.6842013957
0
ARC
5
449
100
AcDbEntity
8
0
100
AcDbCircle
62
7
6
CONTINUOUS
10
-7.2500000000
20
-9.1176714602
40
1.0392702670
100
AcDbArc
50
279.2548390025
51
337.3633712189
0
ARC
5
44A
100
AcDbEntity
8
0
100
AcDbCircle
62
7
6
CONTINUOUS
10
7.2500000000
20
42.3823285398
40
1.0392702670
100
AcDbArc
50
99.2548390025
51
157.3633712189
0
ARC
5
44B
100
AcDbEntity
8
0
100
AcDbCircle
62
7
6
CONTINUOUS
10
7.2500000000
20
-9.1176714602
40
1.0392702670
100
AcDbArc
50
202.6366287811
51
260.7451609975
0
ARC
5
44C
100
AcDbEntity
8
0
100
AcDbCircle
62
7
6
CONTINUOUS
10
-7.2500000000
20
42.3823285398
40
1.0392702670
100
AcDbArc
50
22.6366287811
51
80.7451609975
0
ARC
5
44D
100
AcDbEntity
8
0
100
AcDbCircle
62
7
6
CONTINUOUS
10
7.2500000000
20
-9.1176714602
40
1.0000000000
100
AcDbArc
50
195.6099460390
51
273.1627129956
0
ARC
5
44E
100
AcDbEntity
8
0
100
AcDbCircle
62
7
6
CONTINUOUS
10
7.2500000000
20
42.3823285398
40
1.0000000000
100
AcDbArc
50
86.8372870044
51
164.3900539610
0
ARC
5
44F
100
AcDbEntity
8
0
100
AcDbCircle
62
7
6
CONTINUOUS
10
-7.2500000000
20
42.3823285398
40
1.0000000000
100
AcDbArc
50
15.6099460390
51
93.1627129956
0
ARC
5
450
100
AcDbEntity
8
0
100
AcDbCircle
62
7
6
CONTINUOUS
10
-7.2500000000
20
-9.1176714602
40
1.0000000000
100
AcDbArc
50
266.8372870044
51
344.3900539610
0
SPLINE
5
451
100
AcDbEntity
8
0
100
AcDbSpline
62
7
6
CONTINUOUS
70
0
71
3
72
23
73
19
74
17
42
0.0000001000
43
0.0000001000
44
0.0000000001
12
4.4941947412
22
-1.7485818664
32
0.0000000000
13
-4.4653024723
23
1.8414084242
33
0.0000000000
40
0.0000000000
40
0.0000000000
40
0.0000000000
40
0.0000000000
40
0.0704368886
40
0.1398712498
40
0.2083031633
40
0.2757327124
40
0.3421599842
40
0.4075850697
40
0.4720080642
40
0.5354290675
40
0.5978481842
40
0.6592655238
40
0.7196812014
40
0.7790953380
40
0.8375080607
40
0.8949195030
40
0.9513298060
40
1.0000000000
40
1.0000000000
40
1.0000000000
40
1.0000000000
10
-0.7512189948
20
47.5517685056
30
0.0000000000
10
-0.6456999633
20
47.5107136169
30
0.0000000000
10
-0.4275844761
20
47.4494761011
30
0.0000000000
10
-0.0916904480
20
47.4234990730
30
0.0000000000
10
0.2381154197
20
47.4629474117
30
0.0000000000
10
0.5492262271
20
47.5644902299
30
0.0000000000
10
0.8303059166
20
47.7224130574
30
0.0000000000
10
1.0714571919
20
47.9290002651
30
0.0000000000
10
1.2646318572
20
48.1748686327
30
0.0000000000
10
1.4038774455
20
48.4493887027
30
0.0000000000
10
1.4855150194
20
48.7411359131
30
0.0000000000
10
1.5082165059
20
49.0383629250
30
0.0000000000
10
1.4729879989
20
49.3294710353
30
0.0000000000
10
1.3830603884
20
49.6034625161
30
0.0000000000
10
1.2436946544
20
49.8503560692
30
0.0000000000
10
1.0619118358
20
50.0615497481
30
0.0000000000
10
0.8547522772
20
50.2234054364
30
0.0000000000
10
0.7039744279
20
50.3015433629
30
0.0000000000
10
0.6315320486
20
50.3314172646
30
0.0000000000
11
-0.7512189948
21
47.5517685056
31
0.0000000000
11
-0.4241368140
21
47.4601433122
31
0.0000000000
11
-0.0902849821
21
47.4344545821
31
0.0000000000
11
0.2373633594
21
47.4738188832
31
0.0000000000
11
0.5464371510
21
47.5748604711
31
0.0000000000
11
0.8256344891
21
47.7319110512
31
0.0000000000
11
1.0651352562
21
47.9372947110
31
0.0000000000
11
1.2569442688
21
48.1816845522
31
0.0000000000
11
1.3951530437
21
48.4545149989
31
0.0000000000
11
1.4761118353
21
48.7444319146
31
0.0000000000
11
1.4985074019
21
49.0397615744
31
0.0000000000
11
1.4633458633
21
49.3289792440
31
0.0000000000
11
1.3738438487
21
49.6011586112
31
0.0000000000
11
1.2352347593
21
49.8463845530
31
0.0000000000
11
1.0545002238
21
50.0561136470
31
0.0000000000
11
0.8400396037
21
50.2234693456
31
0.0000000000
11
0.6315320486
21
50.3314172646
31
0.0000000000
0
SPLINE
5
452
100
AcDbEntity
8
0
100
AcDbSpline
62
7
6
CONTINUOUS
70
0
71
3
72
8
73
4
74
2
42
0.0000001000
43
0.0000001000
44
0.0000000001
12
-0.0300921997
22
0.0124094684
32
0.0000000000
13
-0.0303840767
23
0.0116777746
33
0.0000000000
40
0.0000000000
40
0.0000000000
40
0.0000000000
40
0.0000000000
40
1.0000000000
40
1.0000000000
40
1.0000000000
40
1.0000000000
10
0.6315320486
20
50.3314172646
30
0.0000000000
10
0.6215013154
20
50.3355537541
30
0.0000000000
10
0.6114206086
20
50.3395691251
30
0.0000000000
10
0.6012925830
20
50.3434617166
30
0.0000000000
11
0.6315320486
21
50.3314172646
31
0.0000000000
11
0.6012925830
21
50.3434617166
31
0.0000000000
0
SPLINE
5
453
100
AcDbEntity
8
0
100
AcDbSpline
62
7
6
CONTINUOUS
70
0
71
3
72
8
73
4
74
2
42
0.0000001000
43
0.0000001000
44
0.0000000001
12
-0.0114975229
22
0.0044189423
32
0.0000000000
13
-0.0115376829
23
0.0043132686
33
0.0000000000
40
0.0000000000
40
0.0000000000
40
0.0000000000
40
0.0000000000
40
1.0000000000
40
1.0000000000
40
1.0000000000
40
1.0000000000
10
0.6012925830
20
50.3434617166
30
0.0000000000
10
0.5974600754
20
50.3449346974
30
0.0000000000
10
0.5936207921
20
50.3463900972
30
0.0000000000
10
0.5897748978
20
50.3478278534
30
0.0000000000
11
0.6012925830
21
50.3434617166
31
0.0000000000
11
0.5897748978
21
50.3478278534
31
0.0000000000
0
SPLINE
5
454
100
AcDbEntity
8
0
100
AcDbSpline
62
7
6
CONTINUOUS
70
0
71
3
72
8
73
4
74
2
42
0.0000001000
43
0.0000001000
44
0.0000000001
12
-0.0114090744
22
0.0042651894
32
0.0000000000
13
-0.0114473838
23
0.0041614929
33
0.0000000000
40
0.0000000000
40
0.0000000000
40
0.0000000000
40
0.0000000000
40
1.0000000000
40
1.0000000000
40
1.0000000000
40
1.0000000000
10
0.5897748978
20
50.3478278534
30
0.0000000000
10
0.5859718730
20
50.3492495832
30
0.0000000000
10
0.5821623837
20
50.3506540606
30
0.0000000000
10
0.5783465891
20
50.3520412249
30
0.0000000000
11
0.5897748978
21
50.3478278534
31
0.0000000000
11
0.5783465891
21
50.3520412249
31
0.0000000000
0
SPLINE
5
455
100
AcDbEntity
8
0
100
AcDbSpline
62
7
6
CONTINUOUS
70
0
71
3
72
8
73
4
74
2
42
0.0000001000
43
0.0000001000
44
0.0000000001
12
-0.0296525431
22
0.0107796549
32
0.0000000000
13
-0.0298980901
23
0.0100794898
33
0.0000000000
40
0.0000000000
40
0.0000000000
40
0.0000000000
40
0.0000000000
40
1.0000000000
40
1.0000000000
40
1.0000000000
40
1.0000000000
10
0.5783465891
20
50.3520412249
30
0.0000000000
10
0.5684624081
20
50.3556344432
30
0.0000000000
10
0.5585359195
20
50.3591114939
30
0.0000000000
10
0.5485698894
20
50.3624713238
30
0.0000000000
11
0.5783465891
21
50.3520412249
31
0.0000000000
11
0.5485698894
21
50.3624713238
31
0.0000000000
0
SPLINE
5
456
100
AcDbEntity
8
0
100
AcDbSpline
62
7
6
CONTINUOUS
70
0
71
3
72
18
73
14
74
12
42
0.0000001000
43
0.0000001000
44
0.0000000001
12
-2.4345156088
22
0.8207439076
32
0.0000000000
13
0.5956191825
23
-2.4991985257
33
0.0000000000
40
0.0000000000
40
0.0000000000
40
0.0000000000
40
0.0000000000
40
0.0804771668
40
0.1808894479
40
0.2794206951
40
0.3760712562
40
0.4708414997
40
0.5637318168
40
0.6547426224
40
0.7438743579
40
0.8311274931
40
0.9165025290
40
1.0000000000
40
1.0000000000
40
1.0000000000
40
1.0000000000
10
0.5485698894
20
50.3624713238
30
0.0000000000
10
0.4832622499
20
50.3844883719
30
0.0000000000
10
0.3326529241
20
50.4226620173
30
0.0000000000
10
0.0928294816
20
50.4400322764
30
0.0000000000
10
-0.1595626265
20
50.4083677439
30
0.0000000000
10
-0.3962563428
20
50.3294080278
30
0.0000000000
10
-0.6086723437
20
50.2080007404
30
0.0000000000
10
-0.7895044280
20
50.0504908094
30
0.0000000000
10
-0.9329680915
20
49.8644135850
30
0.0000000000
10
-1.0349787854
20
49.6581493708
30
0.0000000000
10
-1.0932558934
20
49.4405558753
30
0.0000000000
10
-1.1073459829
20
49.2205903613
30
0.0000000000
10
-1.0879550526
20
49.0765638446
30
0.0000000000
10
-1.0713774875
20
49.0070049258
30
0.0000000000
11
0.5485698894
21
50.3624713238
31
0.0000000000
11
0.3483314020
21
50.4131249818
31
0.0000000000
11
0.0914400918
21
50.4315696068
31
0.0000000000
11
-0.1593018522
21
50.3999492676
31
0.0000000000
11
-0.3944145691
21
50.3213464898
31
0.0000000000
11
-0.6053762289
21
50.2005839899
31
0.0000000000
11
-0.7849311782
21
50.0439716039
31
0.0000000000
11
-0.9273367221
21
49.8590010787
31
0.0000000000
11
-1.0285402642
21
49.6540028080
31
0.0000000000
11
-1.0862816358
21
49.4377797874
31
0.0000000000
11
-1.1001186912
21
49.2192345791
31
0.0000000000
11
-1.0713774875
21
49.0070049258
31
0.0000000000
0
SPLINE
5
457
100
AcDbEntity
8
0
100
AcDbSpline
62
7
6
CONTINUOUS
70
0
71
3
72
8
73
4
74
2
42
0.0000001000
43
0.0000001000
44
0.0000000001
12
0.0038576483
22
-0.0161865655
32
0.0000000000
13
0.0041095276
23
-0.0161248236
33
0.0000000000
40
0.0000000000
40
0.0000000000
40
0.0000000000
40
0.0000000000
40
1.0000000000
40
1.0000000000
40
1.0000000000
40
1.0000000000
10
-1.0713774875
20
49.0070049258
30
0.0000000000
10
-1.0700916047
20
49.0016094040
30
0.0000000000
10
-1.0687636656
20
48.9962238319
30
0.0000000000
10
-1.0673938230
20
48.9908488907
30
0.0000000000
11
-1.0713774875
21
49.0070049258
31
0.0000000000
11
-1.0673938230
21
48.9908488907
31
0.0000000000
0
SPLINE
5
458
100
AcDbEntity
8
0
100
AcDbSpline
62
7
6
CONTINUOUS
70
0
71
3
72
10
73
6
74
4
42
0.0000001000
43
0.0000001000
44
0.0000000001
12
0.1476859866
22
-0.5794852092
32
0.0000000000
13
0.4399109167
23
-0.4036055699
33
0.0000000000
40
0.0000000000
40
0.0000000000
40
0.0000000000
40
0.0000000000
40
0.3228432223
40
0.6654509887
40
1.0000000000
40
1.0000000000
40
1.0000000000
40
1.0000000000
10
-1.0673938230
20
48.9908488907
30
0.0000000000
10
-1.0515006831
20
48.9284879333
30
0.0000000000
10
-1.0071148492
20
48.8028979233
30
0.0000000000
10
-0.9059270158
20
48.6300969208
30
0.0000000000
10
-0.8155519282
20
48.5287341723
30
0.0000000000
10
-0.7664946741
20
48.4837255575
30
0.0000000000
11
-1.0673938230
21
48.9908488907
31
0.0000000000
11
-1.0030314775
21
48.8091228534
31
0.0000000000
11
-0.8995169818
21
48.6327106974
31
0.0000000000
11
-0.7664946741
21
48.4837255575
31
0.0000000000
0
SPLINE
5
459
100
AcDbEntity
8
0
100
AcDbSpline
62
7
6
CONTINUOUS
70
0
71
3
72
8
73
4
74
2
42
0.0000001000
43
0.0000001000
44
0.0000000001
12
0.0329591664
22
-0.0154784138
32
0.0000000000
13
0.0332747634
23
-0.0147876079
33
0.0000000000
40
0.0000000000
40
0.0000000000
40
0.0000000000
40
0.0000000000
40
1.0000000000
40
1.0000000000
40
1.0000000000
40
1.0000000000
10
-0.7438132256
20
47.5482710370
30
0.0000000000
10
-0.7328268368
20
47.5431115657
30
0.0000000000
10
-0.7217867059
20
47.5380665759
30
0.0000000000
10
-0.7106951181
20
47.5331373733
30
0.0000000000
11
-0.7438132256
21
47.5482710370
31
0.0000000000
11
-0.7106951181
21
47.5331373733
31
0.0000000000
0
SPLINE
5
45A
100
AcDbEntity
8
0
100
AcDbSpline
62
7
6
CONTINUOUS
70
0
71
3
72
28
73
24
74
22
42
0.0000001000
43
0.0000001000
44
0.0000000001
12
-1.3539587429
22
7.0541386005
32
0.0000000000
13
6.5638370363
23
-2.9170289586
33
0.0000000000
40
0.0000000000
40
0.0000000000
40
0.0000000000
40
0.0000000000
40
0.0163945373
40
0.0655748006
40
0.1147550644
40
0.1639353289
40
0.2131155941
40
0.2622958601
40
0.3114761270
40
0.3606563948
40
0.4098366637
40
0.4590169336
40
0.5081972048
40
0.5573774773
40
0.6065577511
40
0.6557380263
40
0.7049183031
40
0.7540985814
40
0.8032788615
40
0.8524591433
40
0.9016394269
40
0.9508197124
40
1.0000000000
40
1.0000000000
40
1.0000000000
40
1.0000000000
10
1.7186060482
20
49.4622862034
30
0.0000000000
10
1.7112068725
20
49.5008359829
30
0.0000000000
10
1.6764298560
20
49.6540318147
30
0.0000000000
10
1.5796872091
20
49.9126929815
30
0.0000000000
10
1.3911544539
20
50.2135637715
30
0.0000000000
10
1.1461273849
20
50.4705259688
30
0.0000000000
10
0.8545564661
20
50.6731444238
30
0.0000000000
10
0.5282822917
20
50.8131908671
30
0.0000000000
10
0.1805547443
20
50.8849780566
30
0.0000000000
10
-0.1745050778
20
50.8855907345
30
0.0000000000
10
-0.5224783142
20
50.8150040160
30
0.0000000000
10
-0.8492338866
20
50.6760843996
30
0.0000000000
10
-1.1415023572
20
50.4744733603
30
0.0000000000
10
-1.3874147966
20
50.2183582517
30
0.0000000000
10
-1.5769847768
20
49.9181398205
30
0.0000000000
10
-1.7025139172
20
49.5860098367
30
0.0000000000
10
-1.7589045140
20
49.2354559896
30
0.0000000000
10
-1.7438665562
20
48.8807141578
30
0.0000000000
10
-1.6580107235
20
48.5361902948
30
0.0000000000
10
-1.5048235868
20
48.2158754084
30
0.0000000000
10
-1.2905260212
20
47.9327773896
30
0.0000000000
10
-1.0238205780
20
47.6983927668
30
0.0000000000
10
-0.8182989158
20
47.5809574809
30
0.0000000000
10
-0.7106951181
20
47.5331373733
30
0.0000000000
11
1.7186060482
21
49.4622862034
31
0.0000000000
11
1.6925357892
21
49.5771010026
31
0.0000000000
11
1.5689954496
21
49.9074112579
31
0.0000000000
11
1.3817387363
21
50.2062456709
31
0.0000000000
11
1.1383700786
21
50.4614686768
31
0.0000000000
11
0.8487725927
21
50.6627157538
31
0.0000000000
11
0.5247067325
21
50.8018143239
31
0.0000000000
11
0.1793327019
21
50.8731156376
31
0.0000000000
11
-0.1733239765
21
50.8737241688
31
0.0000000000
11
-0.5189420331
21
50.8036152009
31
0.0000000000
11
-0.8434860325
21
50.6656358312
31
0.0000000000
11
-1.1337763485
21
50.4653893517
31
0.0000000000
11
-1.3780243837
21
50.2110077018
31
0.0000000000
11
-1.5663113012
21
49.9128212330
31
0.0000000000
11
-1.6909908252
21
49.5829391981
31
0.0000000000
11
-1.7469997546
21
49.2347579979
31
0.0000000000
11
-1.7320635779
21
48.8824171585
31
0.0000000000
11
-1.6467888416
21
48.5402251302
31
0.0000000000
11
-1.4946385188
21
48.2220782253
31
0.0000000000
11
-1.2817913796
21
47.9408962940
31
0.0000000000
11
-1.0168910744
21
47.7080980527
31
0.0000000000
11
-0.7106951181
21
47.5331373733
31
0.0000000000
0
SPLINE
5
45B
100
AcDbEntity
8
0
100
AcDbSpline
62
7
6
CONTINUOUS
70
0
71
3
72
39
73
35
74
33
42
0.0000001000
43
0.0000001000
44
0.0000000001
12
-2.0646397440
22
10.7546182321
32
0.0000000000
13
-1.7898690926
23
10.8037455888
33
0.0000000000
40
0.0000000000
40
0.0000000000
40
0.0000000000
40
0.0000000000
40
0.0148276689
40
0.0470857129
40
0.0793437557
40
0.1116017973
40
0.1438598377
40
0.1761178770
40
0.2083759152
40
0.2406339525
40
0.2728919888
40
0.3051500242
40
0.3374080587
40
0.3696660925
40
0.4019241255
40
0.4341821578
40
0.4664401895
40
0.4986982206
40
0.5309562512
40
0.5632142813
40
0.5954723110
40
0.6277303403
40
0.6599883693
40
0.6922463980
40
0.7245044265
40
0.7567624548
40
0.7890204831
40
0.8212785112
40
0.8535365394
40
0.8857945676
40
0.9180525959
40
0.9503106244
40
0.9825686531
40
1.0000000000
40
1.0000000000
40
1.0000000000
40
1.0000000000
10
1.7186045781
20
49.4622859213
30
0.0000000000
10
1.7083999799
20
49.5154412274
30
0.0000000000
10
1.6681771049
20
49.6827363303
30
0.0000000000
10
1.5592800203
20
49.9527102980
30
0.0000000000
10
1.3631383525
20
50.2486771585
30
0.0000000000
10
1.1116400649
20
50.4993094352
30
0.0000000000
10
0.8149984302
20
50.6944290349
30
0.0000000000
10
0.4852599762
20
50.8261122182
30
0.0000000000
10
0.1358152797
20
50.8890113796
30
0.0000000000
10
-0.2191448209
20
50.8805722109
30
0.0000000000
10
-0.5652055101
20
50.8011374305
30
0.0000000000
10
-0.8883133773
20
50.6539328650
30
0.0000000000
10
-1.1753471198
20
50.4449364491
30
0.0000000000
10
-1.4146503949
20
50.1826354628
30
0.0000000000
10
-1.5965051796
20
49.8776818657
30
0.0000000000
10
-1.7135264157
20
49.5424597246
30
0.0000000000
10
-1.7609619141
20
49.1905822998
30
0.0000000000
10
-1.7368853390
20
48.8363392159
30
0.0000000000
10
-1.6422744358
20
48.4941161647
30
0.0000000000
10
-1.4809713244
20
48.1778107075
30
0.0000000000
10
-1.2595264720
20
47.9002679001
30
0.0000000000
10
-0.9869326806
20
47.6727586595
30
0.0000000000
10
-0.6742598923
20
47.5045220564
30
0.0000000000
10
-0.3342056429
20
47.4023901200
30
0.0000000000
10
0.0194205810
20
47.3705103916
30
0.0000000000
10
0.3722581399
20
47.4101774946
30
0.0000000000
10
0.7099784221
20
47.5197805610
30
0.0000000000
10
1.0188667234
20
47.6948686473
30
0.0000000000
10
1.2863791967
20
47.9283314865
30
0.0000000000
10
1.5016522523
20
48.2106882334
30
0.0000000000
10
1.6559437254
20
48.5304724781
30
0.0000000000
10
1.7429878916
20
48.8746978929
30
0.0000000000
10
1.7567584239
20
49.1750441759
30
0.0000000000
10
1.7368557704
20
49.3556025444
30
0.0000000000
10
1.7264558274
20
49.4183771569
30
0.0000000000
11
1.7186045781
21
49.4622859213
31
0.0000000000
11
1.6806471972
21
49.6201040767
31
0.0000000000
11
1.5487263706
21
49.9471577265
31
0.0000000000
11
1.3539122450
21
50.2411213997
31
0.0000000000
11
1.1041161688
21
50.4900573263
31
0.0000000000
11
0.8094822883
21
50.6838563016
31
0.0000000000
11
0.4819755969
21
50.8146482162
31
0.0000000000
11
0.1348960402
21
50.8771216584
31
0.0000000000
11
-0.2176615908
21
50.8687396083
31
0.0000000000
11
-0.5613800444
21
50.7898424648
31
0.0000000000
11
-0.8823010272
21
50.6436342210
31
0.0000000000
11
-1.1673920451
21
50.4360523511
31
0.0000000000
11
-1.4050756489
21
50.1755266911
31
0.0000000000
11
-1.5856995898
21
49.8726371050
31
0.0000000000
11
-1.7019287936
21
49.5396838406
31
0.0000000000
11
-1.7490432353
21
49.1901880201
31
0.0000000000
11
-1.7251296171
21
48.8383425518
31
0.0000000000
11
-1.6311590668
21
48.4984357612
31
0.0000000000
11
-1.4709476996
21
48.1842711472
31
0.0000000000
11
-1.2510016474
21
47.9086068264
31
0.0000000000
11
-0.9802528463
21
47.6826374314
31
0.0000000000
11
-0.6696963141
21
47.5155395003
31
0.0000000000
11
-0.3319436460
21
47.4140988211
31
0.0000000000
11
0.0192891377
21
47.3824348635
31
0.0000000000
11
0.3697385944
21
47.4218334886
31
0.0000000000
11
0.7051730922
21
47.5306947311
31
0.0000000000
11
1.0119707521
21
47.7045977728
31
0.0000000000
11
1.2776726269
21
47.9364804709
31
0.0000000000
11
1.4914886550
21
48.2169261493
31
0.0000000000
11
1.6447358407
21
48.5345460057
31
0.0000000000
11
1.7311908678
21
48.8764416076
31
0.0000000000
11
1.7473428263
21
49.2287286924
31
0.0000000000
11
1.7264558274
21
49.4183771569
31
0.0000000000
0
SPLINE
5
45C
100
AcDbEntity
8
0
100
AcDbSpline
62
7
6
CONTINUOUS
70
0
71
3
72
86
73
82
74
80
42
0.0000001000
43
0.0000001000
44
0.0000000001
12
5.0731954689
22
-27.0990828833
32
0.0000000000
13
-6.3250533301
23
26.8345058927
33
0.0000000000
40
0.0000000000
40
0.0000000000
40
0.0000000000
40
0.0000000000
40
0.0005833955
40
0.0133964407
40
0.0262094851
40
0.0390225287
40
0.0518355714
40
0.0646486134
40
0.0774616547
40
0.0902746952
40
0.1030877350
40
0.1159007742
40
0.1287138126
40
0.1415268504
40
0.1543398876
40
0.1671529242
40
0.1799659602
40
0.1927789956
40
0.2055920305
40
0.2184050649
40
0.2312180987
40
0.2440311321
40
0.2568441650
40
0.2696571975
40
0.2824702296
40
0.2952832612
40
0.3080962925
40
0.3209093234
40
0.3337223540
40
0.3465353843
40
0.3593484143
40
0.3721614440
40
0.3849744734
40
0.3977875027
40
0.4106005317
40
0.4234135605
40
0.4362265892
40
0.4490396177
40
0.4618526461
40
0.4746656743
40
0.4874787025
40
0.5002917306
40
0.5131047587
40
0.5259177868
40
0.5387308148
40
0.5515438429
40
0.5643568710
40
0.5771698992
40
0.5899829275
40
0.6027959558
40
0.6156089843
40
0.6284220129
40
0.6412350417
40
0.6540480707
40
0.6668610999
40
0.6796741293
40
0.6924871590
40
0.7053001889
40
0.7181132191
40
0.7309262497
40
0.7437392805
40
0.7565523117
40
0.7693653433
40
0.7821783753
40
0.7949914077
40
0.8078044406
40
0.8206174739
40
0.8334305077
40
0.8462435420
40
0.8590565768
40
0.8718696121
40
0.8846826480
40
0.8974956845
40
0.9103087216
40
0.9231217593
40
0.9359347977
40
0.9487478367
40
0.9615608765
40
0.9743739169
40
0.9871869581
40
1.0000000000
40
1.0000000000
40
1.0000000000
40
1.0000000000
10
-1.7201078730
20
48.8102600815
30
0.0000000000
10
-1.7191213132
20
48.8049902540
30
0.0000000000
10
-1.6959095600
20
48.6840842510
30
0.0000000000
10
-1.6254726350
20
48.4524614852
30
0.0000000000
10
-1.4561589729
20
48.1403701041
30
0.0000000000
10
-1.2277110614
20
47.8685619331
30
0.0000000000
10
-0.9494061239
20
47.6480750263
30
0.0000000000
10
-0.6325460620
20
47.4878632912
30
0.0000000000
10
-0.2899984872
20
47.3944328738
30
0.0000000000
10
0.0643258299
20
47.3715779470
30
0.0000000000
10
0.4160378722
20
47.4202266311
30
0.0000000000
10
0.7508547106
20
47.5384033048
30
0.0000000000
10
1.0551795290
20
47.7213088350
30
0.0000000000
10
1.3166537873
20
47.9615154698
30
0.0000000000
10
1.5246590972
20
48.2492684781
30
0.0000000000
10
1.6707484311
20
48.5728822867
30
0.0000000000
10
1.7489891528
20
48.9192150290
30
0.0000000000
10
1.7562039391
20
49.2742022323
30
0.0000000000
10
1.6920998089
20
49.6234279721
30
0.0000000000
10
1.5592800203
20
49.9527102980
30
0.0000000000
10
1.3631383525
20
50.2486771585
30
0.0000000000
10
1.1116400649
20
50.4993094352
30
0.0000000000
10
0.8149984302
20
50.6944290349
30
0.0000000000
10
0.4852599762
20
50.8261122182
30
0.0000000000
10
0.1358152797
20
50.8890113796
30
0.0000000000
10
-0.2191448209
20
50.8805722109
30
0.0000000000
10
-0.5652055101
20
50.8011374305
30
0.0000000000
10
-0.8883133773
20
50.6539328650
30
0.0000000000
10
-1.1753471198
20
50.4449364491
30
0.0000000000
10
-1.4146503949
20
50.1826354628
30
0.0000000000
10
-1.5965051796
20
49.8776818657
30
0.0000000000
10
-1.7135264157
20
49.5424597246
30
0.0000000000
10
-1.7609619141
20
49.1905822998
30
0.0000000000
10
-1.7368853390
20
48.8363392159
30
0.0000000000
10
-1.6422744358
20
48.4941161647
30
0.0000000000
10
-1.4809713244
20
48.1778107075
30
0.0000000000
10
-1.2595264720
20
47.9002679001
30
0.0000000000
10
-0.9869326806
20
47.6727586595
30
0.0000000000
10
-0.6742598923
20
47.5045220564
30
0.0000000000
10
-0.3342056429
20
47.4023901200
30
0.0000000000
10
0.0194205810
20
47.3705103916
30
0.0000000000
10
0.3722581399
20
47.4101774946
30
0.0000000000
10
0.7099784221
20
47.5197805610
30
0.0000000000
10
1.0188667234
20
47.6948686473
30
0.0000000000
10
1.2863791967
20
47.9283314865
30
0.0000000000
10
1.5016522523
20
48.2106882334
30
0.0000000000
10
1.6559437254
20
48.5304724781
30
0.0000000000
10
1.7429878916
20
48.8746978929
30
0.0000000000
10
1.7592499160
20
49.2293856023
30
0.0000000000
10
1.7040694019
20
49.5801318604
30
0.0000000000
10
1.5796872091
20
49.9126929815
30
0.0000000000
10
1.3911544539
20
50.2135637715
30
0.0000000000
10
1.1461273849
20
50.4705259688
30
0.0000000000
10
0.8545564661
20
50.6731444238
30
0.0000000000
10
0.5282822917
20
50.8131908671
30
0.0000000000
10
0.1805547443
20
50.8849780566
30
0.0000000000
10
-0.1745050778
20
50.8855907345
30
0.0000000000
10
-0.5224783142
20
50.8150040160
30
0.0000000000
10
-0.8492338866
20
50.6760843996
30
0.0000000000
10
-1.1415023572
20
50.4744733603
30
0.0000000000
10
-1.3874147966
20
50.2183582517
30
0.0000000000
10
-1.5769847768
20
49.9181398205
30
0.0000000000
10
-1.7025139172
20
49.5860098367
30
0.0000000000
10
-1.7589045140
20
49.2354559896
30
0.0000000000
10
-1.7438665562
20
48.8807141578
30
0.0000000000
10
-1.6580107235
20
48.5361902948
30
0.0000000000
10
-1.5048235868
20
48.2158754084
30
0.0000000000
10
-1.2905260212
20
47.9327773896
30
0.0000000000
10
-1.0238205780
20
47.6983927668
30
0.0000000000
10
-0.7155380783
20
47.5222398343
30
0.0000000000
10
-0.3781977769
20
47.4114721174
30
0.0000000000
10
-0.0254989599
20
47.3705878686
30
0.0000000000
10
0.3282353788
20
47.4012473949
30
0.0000000000
10
0.6686401899
20
47.5022056317
30
0.0000000000
10
0.9818917289
20
47.6693627040
30
0.0000000000
10
1.2552689346
20
47.8959304197
30
0.0000000000
10
1.4776700279
20
48.1727079358
30
0.0000000000
10
1.6400633528
20
48.4884554006
30
0.0000000000
10
1.7358541500
20
48.8303504003
30
0.0000000000
10
1.7611523689
20
49.1845086733
30
0.0000000000
10
1.7303378861
20
49.4192015146
30
0.0000000000
10
1.7033234949
20
49.5338120642
30
0.0000000000
11
-1.7201078730
21
48.8102600815
31
0.0000000000
11
-1.7170753800
21
48.7944644665
31
0.0000000000
11
-1.6144709558
21
48.4570630182
31
0.0000000000
11
-1.4463032584
21
48.1470839632
31
0.0000000000
11
-1.2194015492
21
47.8771154695
31
0.0000000000
11
-0.9429802608
21
47.6581208826
31
0.0000000000
11
-0.6282648002
21
47.4989935071
31
0.0000000000
11
-0.2880356869
21
47.4061954539
31
0.0000000000
11
0.0638904606
21
47.3834952158
31
0.0000000000
11
0.4132220141
21
47.4318146316
31
0.0000000000
11
0.7457727156
21
47.5491914515
31
0.0000000000
11
1.0480377761
21
47.7308590244
31
0.0000000000
11
1.3077423016
21
47.9694398719
31
0.0000000000
11
1.5143397720
21
48.2552452854
31
0.0000000000
11
1.6594403316
21
48.5766687833
31
0.0000000000
11
1.7371514979
21
48.9206574469
31
0.0000000000
11
1.7443174524
21
49.2732419958
31
0.0000000000
11
1.6806471972
21
49.6201040767
31
0.0000000000
11
1.5487263706
21
49.9471577265
31
0.0000000000
11
1.3539122450
21
50.2411213997
31
0.0000000000
11
1.1041161688
21
50.4900573263
31
0.0000000000
11
0.8094822883
21
50.6838563016
31
0.0000000000
11
0.4819755969
21
50.8146482162
31
0.0000000000
11
0.1348960402
21
50.8771216584
31
0.0000000000
11
-0.2176615908
21
50.8687396083
31
0.0000000000
11
-0.5613800444
21
50.7898424648
31
0.0000000000
11
-0.8823010272
21
50.6436342210
31
0.0000000000
11
-1.1673920451
21
50.4360523511
31
0.0000000000
11
-1.4050756489
21
50.1755266911
31
0.0000000000
11
-1.5856995898
21
49.8726371050
31
0.0000000000
11
-1.7019287936
21
49.5396838406
31
0.0000000000
11
-1.7490432353
21
49.1901880201
31
0.0000000000
11
-1.7251296171
21
48.8383425518
31
0.0000000000
11
-1.6311590668
21
48.4984357612
31
0.0000000000
11
-1.4709476996
21
48.1842711472
31
0.0000000000
11
-1.2510016474
21
47.9086068264
31
0.0000000000
11
-0.9802528463
21
47.6826374314
31
0.0000000000
11
-0.6696963141
21
47.5155395003
31
0.0000000000
11
-0.3319436460
21
47.4140988211
31
0.0000000000
11
0.0192891377
21
47.3824348635
31
0.0000000000
11
0.3697385944
21
47.4218334886
31
0.0000000000
11
0.7051730922
21
47.5306947311
31
0.0000000000
11
1.0119707521
21
47.7045977728
31
0.0000000000
11
1.2776726269
21
47.9364804709
31
0.0000000000
11
1.4914886550
21
48.2169261493
31
0.0000000000
11
1.6447358407
21
48.5345460057
31
0.0000000000
11
1.7311908678
21
48.8764416076
31
0.0000000000
11
1.7473428263
21
49.2287286924
31
0.0000000000
11
1.6925357892
21
49.5771010026
31
0.0000000000
11
1.5689954496
21
49.9074112579
31
0.0000000000
11
1.3817387363
21
50.2062456709
31
0.0000000000
11
1.1383700786
21
50.4614686768
31
0.0000000000
11
0.8487725927
21
50.6627157538
31
0.0000000000
11
0.5247067325
21
50.8018143239
31
0.0000000000
11
0.1793327019
21
50.8731156376
31
0.0000000000
11
-0.1733239765
21
50.8737241688
31
0.0000000000
11
-0.5189420331
21
50.8036152009
31
0.0000000000
11
-0.8434860325
21
50.6656358312
31
0.0000000000
11
-1.1337763485
21
50.4653893517
31
0.0000000000
11
-1.3780243837
21
50.2110077018
31
0.0000000000
11
-1.5663113012
21
49.9128212330
31
0.0000000000
11
-1.6909908252
21
49.5829391981
31
0.0000000000
11
-1.7469997546
21
49.2347579979
31
0.0000000000
11
-1.7320635779
21
48.8824171585
31
0.0000000000
11
-1.6467888416
21
48.5402251302
31
0.0000000000
11
-1.4946385188
21
48.2220782253
31
0.0000000000
11
-1.2817913796
21
47.9408962940
31
0.0000000000
11
-1.0168910744
21
47.7080980527
31
0.0000000000
11
-0.7106951181
21
47.5331373733
31
0.0000000000
11
-0.3756380319
21
47.4231193637
31
0.0000000000
11
-0.0253263810
21
47.3825118312
31
0.0000000000
11
0.3260137827
21
47.4129638451
31
0.0000000000
11
0.6641146366
21
47.5132387677
31
0.0000000000
11
0.9752459993
21
47.6792644729
31
0.0000000000
11
1.2467729094
21
47.9042987132
31
0.0000000000
11
1.4676687280
21
48.1792029193
31
0.0000000000
11
1.6289629280
21
48.4928133140
31
0.0000000000
11
1.7241053852
21
48.8323942693
31
0.0000000000
11
1.7492323785
21
49.1841554962
31
0.0000000000
11
1.7033234949
21
49.5338120642
31
0.0000000000
0
SPLINE
5
45D
100
AcDbEntity
8
0
100
AcDbSpline
62
7
6
CONTINUOUS
70
0
71
3
72
102
73
98
74
96
42
0.0000001000
43
0.0000001000
44
0.0000000001
12
6.0781162744
22
-32.4669880560
32
0.0000000000
13
6.9049411190
23
-32.3017096267
33
0.0000000000
40
0.0000000000
40
0.0000000000
40
0.0000000000
40
0.0000000000
40
0.0004869402
40
0.0111815502
40
0.0218761595
40
0.0325707681
40
0.0432653760
40
0.0539599833
40
0.0646545900
40
0.0753491960
40
0.0860438015
40
0.0967384064
40
0.1074330107
40
0.1181276145
40
0.1288222178
40
0.1395168206
40
0.1502114228
40
0.1609060246
40
0.1716006260
40
0.1822952269
40
0.1929898274
40
0.2036844275
40
0.2143790272
40
0.2250736265
40
0.2357682255
40
0.2464628242
40
0.2571574225
40
0.2678520206
40
0.2785466184
40
0.2892412159
40
0.2999358131
40
0.3106304102
40
0.3213250070
40
0.3320196036
40
0.3427142001
40
0.3534087964
40
0.3641033925
40
0.3747979885
40
0.3854925845
40
0.3961871803
40
0.4068817761
40
0.4175763718
40
0.4282709674
40
0.4389655631
40
0.4496601587
40
0.4603547544
40
0.4710493501
40
0.4817439459
40
0.4924385417
40
0.5031331376
40
0.5138277336
40
0.5245223297
40
0.5352169260
40
0.5459115224
40
0.5566061190
40
0.5673007158
40
0.5779953128
40
0.5886899100
40
0.5993845075
40
0.6100791052
40
0.6207737032
40
0.6314683015
40
0.6421629001
40
0.6528574990
40
0.6635520983
40
0.6742466979
40
0.6849412980
40
0.6956358984
40
0.7063304993
40
0.7170251005
40
0.7277197023
40
0.7384143045
40
0.7491089072
40
0.7598035104
40
0.7704981141
40
0.7811927184
40
0.7918873232
40
0.8025819286
40
0.8132765346
40
0.8239711411
40
0.8346657484
40
0.8453603562
40
0.8560549648
40
0.8667495740
40
0.8774441839
40
0.8881387945
40
0.8988334059
40
0.9095280180
40
0.9202226309
40
0.9309172445
40
0.9416118590
40
0.9523064743
40
0.9630010904
40
0.9736957074
40
0.9843903253
40
0.9950849440
40
1.0000000000
40
1.0000000000
40
1.0000000000
40
1.0000000000
10
-1.7201078730
20
48.8102600815
30
0.0000000000
10
-1.7191213132
20
48.8049902540
30
0.0000000000
10
-1.6959095600
20
48.6840842510
30
0.0000000000
10
-1.6254726350
20
48.4524614852
30
0.0000000000
10
-1.4561589729
20
48.1403701041
30
0.0000000000
10
-1.2277110614
20
47.8685619331
30
0.0000000000
10
-0.9494061239
20
47.6480750263
30
0.0000000000
10
-0.6325460620
20
47.4878632912
30
0.0000000000
10
-0.2899984872
20
47.3944328738
30
0.0000000000
10
0.0643258299
20
47.3715779470
30
0.0000000000
10
0.4160378722
20
47.4202266311
30
0.0000000000
10
0.7508547106
20
47.5384033048
30
0.0000000000
10
1.0551795290
20
47.7213088350
30
0.0000000000
10
1.3166537873
20
47.9615154698
30
0.0000000000
10
1.5246590972
20
48.2492684781
30
0.0000000000
10
1.6707484311
20
48.5728822867
30
0.0000000000
10
1.7489891528
20
48.9192150290
30
0.0000000000
10
1.7562039391
20
49.2742022323
30
0.0000000000
10
1.6920998089
20
49.6234279721
30
0.0000000000
10
1.5592800203
20
49.9527102980
30
0.0000000000
10
1.3631383525
20
50.2486771585
30
0.0000000000
10
1.1116400649
20
50.4993094352
30
0.0000000000
10
0.8149984302
20
50.6944290349
30
0.0000000000
10
0.4852599762
20
50.8261122182
30
0.0000000000
10
0.1358152797
20
50.8890113796
30
0.0000000000
10
-0.2191448209
20
50.8805722109
30
0.0000000000
10
-0.5652055101
20
50.8011374305
30
0.0000000000
10
-0.8883133773
20
50.6539328650
30
0.0000000000
10
-1.1753471198
20
50.4449364491
30
0.0000000000
10
-1.4146503949
20
50.1826354628
30
0.0000000000
10
-1.5965051796
20
49.8776818657
30
0.0000000000
10
-1.7135264157
20
49.5424597246
30
0.0000000000
10
-1.7609619141
20
49.1905822998
30
0.0000000000
10
-1.7368853390
20
48.8363392159
30
0.0000000000
10
-1.6422744358
20
48.4941161647
30
0.0000000000
10
-1.4809713244
20
48.1778107075
30
0.0000000000
10
-1.2595264720
20
47.9002679001
30
0.0000000000
10
-0.9869326806
20
47.6727586595
30
0.0000000000
10
-0.6742598923
20
47.5045220564
30
0.0000000000
10
-0.3342056429
20
47.4023901200
30
0.0000000000
10
0.0194205810
20
47.3705103916
30
0.0000000000
10
0.3722581399
20
47.4101774946
30
0.0000000000
10
0.7099784221
20
47.5197805610
30
0.0000000000
10
1.0188667234
20
47.6948686473
30
0.0000000000
10
1.2863791967
20
47.9283314865
30
0.0000000000
10
1.5016522523
20
48.2106882334
30
0.0000000000
10
1.6559437254
20
48.5304724781
30
0.0000000000
10
1.7429878916
20
48.8746978929
30
0.0000000000
10
1.7592499160
20
49.2293856023
30
0.0000000000
10
1.7040694019
20
49.5801318604
30
0.0000000000
10
1.5796872091
20
49.9126929815
30
0.0000000000
10
1.3911544539
20
50.2135637715
30
0.0000000000
10
1.1461273849
20
50.4705259688
30
0.0000000000
10
0.8545564661
20
50.6731444238
30
0.0000000000
10
0.5282822917
20
50.8131908671
30
0.0000000000
10
0.1805547443
20
50.8849780566
30
0.0000000000
10
-0.1745050778
20
50.8855907345
30
0.0000000000
10
-0.5224783142
20
50.8150040160
30
0.0000000000
10
-0.8492338866
20
50.6760843996
30
0.0000000000
10
-1.1415023572
20
50.4744733603
30
0.0000000000
10
-1.3874147966
20
50.2183582517
30
0.0000000000
10
-1.5769847768
20
49.9181398205
30
0.0000000000
10
-1.7025139172
20
49.5860098367
30
0.0000000000
10
-1.7589045140
20
49.2354559896
30
0.0000000000
10
-1.7438665562
20
48.8807141578
30
0.0000000000
10
-1.6580107235
20
48.5361902948
30
0.0000000000
10
-1.5048235868
20
48.2158754084
30
0.0000000000
10
-1.2905260212
20
47.9327773896
30
0.0000000000
10
-1.0238205780
20
47.6983927668
30
0.0000000000
10
-0.7155380783
20
47.5222398343
30
0.0000000000
10
-0.3781977769
20
47.4114721174
30
0.0000000000
10
-0.0254989599
20
47.3705878686
30
0.0000000000
10
0.3282353788
20
47.4012473949
30
0.0000000000
10
0.6686401899
20
47.5022056317
30
0.0000000000
10
0.9818917289
20
47.6693627040
30
0.0000000000
10
1.2552689346
20
47.8959304197
30
0.0000000000
10
1.4776700279
20
48.1727079358
30
0.0000000000
10
1.6400633528
20
48.4884554006
30
0.0000000000
10
1.7358541500
20
48.8303504003
30
0.0000000000
10
1.7611523689
20
49.1845086733
30
0.0000000000
10
1.7149306433
20
49.5365479457
30
0.0000000000
10
1.5990660128
20
49.8721719914
30
0.0000000000
10
1.4182636985
20
50.1777511982
30
0.0000000000
10
1.1798660261
20
50.4408760631
30
0.0000000000
10
0.8935542572
20
50.6508611398
30
0.0000000000
10
0.5709554366
20
50.7991789724
30
0.0000000000
10
0.2251702218
20
50.8798063950
30
0.0000000000
10
-0.1297591310
20
50.8894691316
30
0.0000000000
10
-0.4794190193
20
50.8277747653
30
0.0000000000
10
-0.8096098274
20
50.6972286760
30
0.0000000000
10
-1.1069225684
20
50.5031322978
30
0.0000000000
10
-1.3592834275
20
50.2533678338
30
0.0000000000
10
-1.5564440512
20
49.9580781502
30
0.0000000000
10
-1.6903978324
20
49.6292549254
30
0.0000000000
10
-1.7557046834
20
49.2802514930
30
0.0000000000
10
-1.7507926300
20
48.9891925338
30
0.0000000000
10
-1.7226475501
20
48.8194558917
30
0.0000000000
10
-1.7113348261
20
48.7665343213
30
0.0000000000
11
-1.7201078730
21
48.8102600815
31
0.0000000000
11
-1.7170753800
21
48.7944644665
31
0.0000000000
11
-1.6144709558
21
48.4570630182
31
0.0000000000
11
-1.4463032584
21
48.1470839632
31
0.0000000000
11
-1.2194015492
21
47.8771154695
31
0.0000000000
11
-0.9429802608
21
47.6581208826
31
0.0000000000
11
-0.6282648002
21
47.4989935071
31
0.0000000000
11
-0.2880356869
21
47.4061954539
31
0.0000000000
11
0.0638904606
21
47.3834952158
31
0.0000000000
11
0.4132220141
21
47.4318146316
31
0.0000000000
11
0.7457727156
21
47.5491914515
31
0.0000000000
11
1.0480377761
21
47.7308590244
31
0.0000000000
11
1.3077423016
21
47.9694398719
31
0.0000000000
11
1.5143397720
21
48.2552452854
31
0.0000000000
11
1.6594403316
21
48.5766687833
31
0.0000000000
11
1.7371514979
21
48.9206574469
31
0.0000000000
11
1.7443174524
21
49.2732419958
31
0.0000000000
11
1.6806471972
21
49.6201040767
31
0.0000000000
11
1.5487263706
21
49.9471577265
31
0.0000000000
11
1.3539122450
21
50.2411213997
31
0.0000000000
11
1.1041161688
21
50.4900573263
31
0.0000000000
11
0.8094822883
21
50.6838563016
31
0.0000000000
11
0.4819755969
21
50.8146482162
31
0.0000000000
11
0.1348960402
21
50.8771216584
31
0.0000000000
11
-0.2176615908
21
50.8687396083
31
0.0000000000
11
-0.5613800444
21
50.7898424648
31
0.0000000000
11
-0.8823010272
21
50.6436342210
31
0.0000000000
11
-1.1673920451
21
50.4360523511
31
0.0000000000
11
-1.4050756489
21
50.1755266911
31
0.0000000000
11
-1.5856995898
21
49.8726371050
31
0.0000000000
11
-1.7019287936
21
49.5396838406
31
0.0000000000
11
-1.7490432353
21
49.1901880201
31
0.0000000000
11
-1.7251296171
21
48.8383425518
31
0.0000000000
11
-1.6311590668
21
48.4984357612
31
0.0000000000
11
-1.4709476996
21
48.1842711472
31
0.0000000000
11
-1.2510016474
21
47.9086068264
31
0.0000000000
11
-0.9802528463
21
47.6826374314
31
0.0000000000
11
-0.6696963141
21
47.5155395003
31
0.0000000000
11
-0.3319436460
21
47.4140988211
31
0.0000000000
11
0.0192891377
21
47.3824348635
31
0.0000000000
11
0.3697385944
21
47.4218334886
31
0.0000000000
11
0.7051730922
21
47.5306947311
31
0.0000000000
11
1.0119707521
21
47.7045977728
31
0.0000000000
11
1.2776726269
21
47.9364804709
31
0.0000000000
11
1.4914886550
21
48.2169261493
31
0.0000000000
11
1.6447358407
21
48.5345460057
31
0.0000000000
11
1.7311908678
21
48.8764416076
31
0.0000000000
11
1.7473428263
21
49.2287286924
31
0.0000000000
11
1.6925357892
21
49.5771010026
31
0.0000000000
11
1.5689954496
21
49.9074112579
31
0.0000000000
11
1.3817387363
21
50.2062456709
31
0.0000000000
11
1.1383700786
21
50.4614686768
31
0.0000000000
11
0.8487725927
21
50.6627157538
31
0.0000000000
11
0.5247067325
21
50.8018143239
31
0.0000000000
11
0.1793327019
21
50.8731156376
31
0.0000000000
11
-0.1733239765
21
50.8737241688
31
0.0000000000
11
-0.5189420331
21
50.8036152009
31
0.0000000000
11
-0.8434860325
21
50.6656358312
31
0.0000000000
11
-1.1337763485
21
50.4653893517
31
0.0000000000
11
-1.3780243837
21
50.2110077018
31
0.0000000000
11
-1.5663113012
21
49.9128212330
31
0.0000000000
11
-1.6909908252
21
49.5829391981
31
0.0000000000
11
-1.7469997546
21
49.2347579979
31
0.0000000000
11
-1.7320635779
21
48.8824171585
31
0.0000000000
11
-1.6467888416
21
48.5402251302
31
0.0000000000
11
-1.4946385188
21
48.2220782253
31
0.0000000000
11
-1.2817913796
21
47.9408962940
31
0.0000000000
11
-1.0168910744
21
47.7080980527
31
0.0000000000
11
-0.7106951181
21
47.5331373733
31
0.0000000000
11
-0.3756380319
21
47.4231193637
31
0.0000000000
11
-0.0253263810
21
47.3825118312
31
0.0000000000
11
0.3260137827
21
47.4129638451
31
0.0000000000
11
0.6641146366
21
47.5132387677
31
0.0000000000
11
0.9752459993
21
47.6792644729
31
0.0000000000
11
1.2467729094
21
47.9042987132
31
0.0000000000
11
1.4676687280
21
48.1792029193
31
0.0000000000
11
1.6289629280
21
48.4928133140
31
0.0000000000
11
1.7241053852
21
48.8323942693
31
0.0000000000
11
1.7492323785
21
49.1841554962
31
0.0000000000
11
1.7033234949
21
49.5338120642
31
0.0000000000
11
1.5882430701
21
49.8671645083
31
0.0000000000
11
1.4086644788
21
50.1706754655
31
0.0000000000
11
1.1718803519
21
50.4320194240
31
0.0000000000
11
0.8875064254
21
50.6405832598
31
0.0000000000
11
0.5670910490
21
50.7878972335
31
0.0000000000
11
0.2236462111
21
50.8679789458
31
0.0000000000
11
-0.1288808743
21
50.8775762821
31
0.0000000000
11
-0.4761741601
21
50.8162994817
31
0.0000000000
11
-0.8041301378
21
50.6866369673
31
0.0000000000
11
-1.0994305775
21
50.4938542920
31
0.0000000000
11
-1.3500833795
21
50.2457803079
31
0.0000000000
11
-1.5459095708
21
49.9524892392
31
0.0000000000
11
-1.6789566733
21
49.6258915713
31
0.0000000000
11
-1.7438216525
21
49.2792503693
31
0.0000000000
11
-1.7378703361
21
48.9266426680
31
0.0000000000
11
-1.7113348261
21
48.7665343213
31
0.0000000000
0
SPLINE
5
45E
100
AcDbEntity
8
0
100
AcDbSpline
62
7
6
CONTINUOUS
70
0
71
3
72
39
73
35
74
33
42
0.0000001000
43
0.0000001000
44
0.0000000001
12
2.7273063257
22
-10.5764793499
32
0.0000000000
13
2.2832470965
23
-10.6811605552
33
0.0000000000
40
0.0000000000
40
0.0000000000
40
0.0000000000
40
0.0000000000
40
0.0148646752
40
0.0472070281
40
0.0795493823
40
0.1118917378
40
0.1442340945
40
0.1765764526
40
0.2089188122
40
0.2412611732
40
0.2736035357
40
0.3059458999
40
0.3382882656
40
0.3706306331
40
0.4029730023
40
0.4353153732
40
0.4676577461
40
0.5000001208
40
0.5323424975
40
0.5646848762
40
0.5970272569
40
0.6293696397
40
0.6617120248
40
0.6940544120
40
0.7263968015
40
0.7587391933
40
0.7910815875
40
0.8234239841
40
0.8557663832
40
0.8881087849
40
0.9204511891
40
0.9527935960
40
0.9851360056
40
1.0000000000
40
1.0000000000
40
1.0000000000
40
1.0000000000
10
-1.6945535879
20
48.6953369286
30
0.0000000000
10
-1.6810400804
20
48.6429316186
30
0.0000000000
10
-1.6304168206
20
48.4784913388
30
0.0000000000
10
-1.5048235868
20
48.2158754084
30
0.0000000000
10
-1.2905260212
20
47.9327773896
30
0.0000000000
10
-1.0238205780
20
47.6983927668
30
0.0000000000
10
-0.7155380783
20
47.5222398343
30
0.0000000000
10
-0.3781977769
20
47.4114721174
30
0.0000000000
10
-0.0254989599
20
47.3705878686
30
0.0000000000
10
0.3282353788
20
47.4012473949
30
0.0000000000
10
0.6686401899
20
47.5022056317
30
0.0000000000
10
0.9818917289
20
47.6693627040
30
0.0000000000
10
1.2552689346
20
47.8959304197
30
0.0000000000
10
1.4776700279
20
48.1727079358
30
0.0000000000
10
1.6400633528
20
48.4884554006
30
0.0000000000
10
1.7358541500
20
48.8303504003
30
0.0000000000
10
1.7611523689
20
49.1845086733
30
0.0000000000
10
1.7149306433
20
49.5365479457
30
0.0000000000
10
1.5990660128
20
49.8721719914
30
0.0000000000
10
1.4182636985
20
50.1777511982
30
0.0000000000
10
1.1798660261
20
50.4408760631
30
0.0000000000
10
0.8935542572
20
50.6508611398
30
0.0000000000
10
0.5709554366
20
50.7991789724
30
0.0000000000
10
0.2251702218
20
50.8798063950
30
0.0000000000
10
-0.1297591310
20
50.8894691316
30
0.0000000000
10
-0.4794190193
20
50.8277747653
30
0.0000000000
10
-0.8096098274
20
50.6972286760
30
0.0000000000
10
-1.1069225684
20
50.5031322978
30
0.0000000000
10
-1.3592834275
20
50.2533678338
30
0.0000000000
10
-1.5564440512
20
49.9580781502
30
0.0000000000
10
-1.6903978324
20
49.6292549254
30
0.0000000000
10
-1.7557046834
20
49.2802514930
30
0.0000000000
10
-1.7507926300
20
48.9891925338
30
0.0000000000
10
-1.7226475501
20
48.8194558917
30
0.0000000000
10
-1.7113348261
20
48.7665343213
30
0.0000000000
11
-1.6945535879
21
48.6953369286
31
0.0000000000
11
-1.6467888416
21
48.5402251302
31
0.0000000000
11
-1.4946385188
21
48.2220782253
31
0.0000000000
11
-1.2817913796
21
47.9408962940
31
0.0000000000
11
-1.0168910744
21
47.7080980527
31
0.0000000000
11
-0.7106951181
21
47.5331373733
31
0.0000000000
11
-0.3756380319
21
47.4231193637
31
0.0000000000
11
-0.0253263810
21
47.3825118312
31
0.0000000000
11
0.3260137827
21
47.4129638451
31
0.0000000000
11
0.6641146366
21
47.5132387677
31
0.0000000000
11
0.9752459993
21
47.6792644729
31
0.0000000000
11
1.2467729094
21
47.9042987132
31
0.0000000000
11
1.4676687280
21
48.1792029193
31
0.0000000000
11
1.6289629280
21
48.4928133140
31
0.0000000000
11
1.7241053852
21
48.8323942693
31
0.0000000000
11
1.7492323785
21
49.1841554962
31
0.0000000000
11
1.7033234949
21
49.5338120642
31
0.0000000000
11
1.5882430701
21
49.8671645083
31
0.0000000000
11
1.4086644788
21
50.1706754655
31
0.0000000000
11
1.1718803519
21
50.4320194240
31
0.0000000000
11
0.8875064254
21
50.6405832598
31
0.0000000000
11
0.5670910490
21
50.7878972335
31
0.0000000000
11
0.2236462111
21
50.8679789458
31
0.0000000000
11
-0.1288808743
21
50.8775762821
31
0.0000000000
11
-0.4761741601
21
50.8162994817
31
0.0000000000
11
-0.8041301378
21
50.6866369673
31
0.0000000000
11
-1.0994305775
21
50.4938542920
31
0.0000000000
11
-1.3500833795
21
50.2457803079
31
0.0000000000
11
-1.5459095708
21
49.9524892392
31
0.0000000000
11
-1.6789566733
21
49.6258915713
31
0.0000000000
11
-1.7438216525
21
49.2792503693
31
0.0000000000
11
-1.7378703361
21
48.9266426680
31
0.0000000000
11
-1.7113348261
21
48.7665343213
31
0.0000000000
0
SPLINE
5
45F
100
AcDbEntity
8
0
100
AcDbSpline
62
7
6
CONTINUOUS
70
0
71
3
72
23
73
19
74
17
42
0.0000001000
43
0.0000001000
44
0.0000000001
12
1.3636534923
22
-5.2882409526
32
0.0000000000
13
-1.2528949057
23
5.3154991707
33
0.0000000000
40
0.0000000000
40
0.0000000000
40
0.0000000000
40
0.0000000000
40
0.0297293432
40
0.0944140335
40
0.1590987262
40
0.2237834215
40
0.2884681193
40
0.3531528200
40
0.4178375234
40
0.4825222298
40
0.5472069393
40
0.6118916519
40
0.6765763678
40
0.7412610871
40
0.8059458098
40
0.8706305362
40
0.9353152662
40
1.0000000000
40
1.0000000000
40
1.0000000000
40
1.0000000000
10
-1.6945535879
20
48.6953369286
30
0.0000000000
10
-1.6810400804
20
48.6429316186
30
0.0000000000
10
-1.6304168206
20
48.4784913388
30
0.0000000000
10
-1.5048235868
20
48.2158754084
30
0.0000000000
10
-1.2905260212
20
47.9327773896
30
0.0000000000
10
-1.0238205780
20
47.6983927668
30
0.0000000000
10
-0.7155380783
20
47.5222398343
30
0.0000000000
10
-0.3781977769
20
47.4114721174
30
0.0000000000
10
-0.0254989599
20
47.3705878686
30
0.0000000000
10
0.3282353788
20
47.4012473949
30
0.0000000000
10
0.6686401899
20
47.5022056317
30
0.0000000000
10
0.9818917289
20
47.6693627040
30
0.0000000000
10
1.2552689346
20
47.8959304197
30
0.0000000000
10
1.4776700279
20
48.1727079358
30
0.0000000000
10
1.6400633528
20
48.4884554006
30
0.0000000000
10
1.7358541500
20
48.8303504003
30
0.0000000000
10
1.7611523689
20
49.1845086733
30
0.0000000000
10
1.7303378861
20
49.4192015146
30
0.0000000000
10
1.7033234949
20
49.5338120642
30
0.0000000000
11
-1.6945535879
21
48.6953369286
31
0.0000000000
11
-1.6467888416
21
48.5402251302
31
0.0000000000
11
-1.4946385188
21
48.2220782253
31
0.0000000000
11
-1.2817913796
21
47.9408962940
31
0.0000000000
11
-1.0168910744
21
47.7080980527
31
0.0000000000
11
-0.7106951181
21
47.5331373733
31
0.0000000000
11
-0.3756380319
21
47.4231193637
31
0.0000000000
11
-0.0253263810
21
47.3825118312
31
0.0000000000
11
0.3260137827
21
47.4129638451
31
0.0000000000
11
0.6641146366
21
47.5132387677
31
0.0000000000
11
0.9752459993
21
47.6792644729
31
0.0000000000
11
1.2467729094
21
47.9042987132
31
0.0000000000
11
1.4676687280
21
48.1792029193
31
0.0000000000
11
1.6289629280
21
48.4928133140
31
0.0000000000
11
1.7241053852
21
48.8323942693
31
0.0000000000
11
1.7492323785
21
49.1841554962
31
0.0000000000
11
1.7033234949
21
49.5338120642
31
0.0000000000
0
SPLINE
5
460
100
AcDbEntity
8
0
100
AcDbSpline
62
7
6
CONTINUOUS
70
0
71
3
72
13
73
9
74
7
42
0.0000001000
43
0.0000001000
44
0.0000000001
12
-1.2050304329
22
0.4880162209
32
0.0000000000
13
-0.1438790365
23
1.2921133847
33
0.0000000000
40
0.0000000000
40
0.0000000000
40
0.0000000000
40
0.0000000000
40
0.1613838027
40
0.3241385287
40
0.4888869407
40
0.6581031673
40
0.8294489609
40
1.0000000000
40
1.0000000000
40
1.0000000000
40
1.0000000000
10
-0.5046989970
20
48.0704450285
30
0.0000000000
10
-0.5695231282
20
48.0966976663
30
0.0000000000
10
-0.6952758371
20
48.1612423692
30
0.0000000000
10
-0.8644976433
20
48.2904884081
30
0.0000000000
10
-1.0105433141
20
48.4501877274
30
0.0000000000
10
-1.1277199758
20
48.6366176371
30
0.0000000000
10
-1.2103112973
20
48.8433994701
30
0.0000000000
10
-1.2398958402
20
48.9895334128
30
0.0000000000
10
-1.2480754132
20
49.0629905063
30
0.0000000000
11
-0.5046989970
21
48.0704450285
31
0.0000000000
11
-0.6913834798
21
48.1662115398
31
0.0000000000
11
-0.8595922774
21
48.2945829528
31
0.0000000000
11
-1.0041802400
21
48.4526062891
31
0.0000000000
11
-1.1213154473
21
48.6388277108
31
0.0000000000
11
-1.2039941250
21
48.8456831434
31
0.0000000000
11
-1.2480754132
21
49.0629905063
31
0.0000000000
0
SPLINE
5
461
100
AcDbEntity
8
0
100
AcDbSpline
62
7
6
CONTINUOUS
70
0
71
3
72
17
73
13
74
11
42
0.0000001000
43
0.0000001000
44
0.0000000001
12
0.0604728503
22
-2.3050711198
32
0.0000000000
13
-2.1066144821
23
0.9376487918
33
0.0000000000
40
0.0000000000
40
0.0000000000
40
0.0000000000
40
0.0000000000
40
0.0977216605
40
0.1968021530
40
0.2969217119
40
0.3961620477
40
0.4956399904
40
0.5952749887
40
0.6960742865
40
0.7965945590
40
0.8982138703
40
1.0000000000
40
1.0000000000
40
1.0000000000
40
1.0000000000
10
1.1167031803
20
49.1323285398
30
0.0000000000
10
1.1186730161
20
49.0572434140
30
0.0000000000
10
1.1072869848
20
48.9051900843
30
0.0000000000
10
1.0443547140
20
48.6842510102
30
0.0000000000
10
0.9374143704
20
48.4794799879
30
0.0000000000
10
0.7912277723
20
48.3003034047
30
0.0000000000
10
0.6124611927
20
48.1542048751
30
0.0000000000
10
0.4071077500
20
48.0461162183
30
0.0000000000
10
0.1835152675
20
47.9809577715
30
0.0000000000
10
-0.0501004597
20
47.9615972758
30
0.0000000000
10
-0.2835867316
20
47.9892289867
30
0.0000000000
10
-0.4332242854
20
48.0386318146
30
0.0000000000
10
-0.5046989970
20
48.0704450285
30
0.0000000000
11
1.1167031803
21
49.1323285398
31
0.0000000000
11
1.0998884339
21
48.9076239079
31
0.0000000000
11
1.0373609877
21
48.6878806344
31
0.0000000000
11
0.9305199550
21
48.4832289616
31
0.0000000000
11
0.7858926192
21
48.3058923548
31
0.0000000000
11
0.6083042671
21
48.1607070668
31
0.0000000000
11
0.4050208124
21
48.0536626826
31
0.0000000000
11
0.1818837054
21
47.9885988558
31
0.0000000000
11
-0.0491064646
21
47.9694067274
31
0.0000000000
11
-0.2818049019
21
47.9969286549
31
0.0000000000
11
-0.5046989970
21
48.0704450285
31
0.0000000000
0
SPLINE
5
462
100
AcDbEntity
8
0
100
AcDbSpline
62
7
6
CONTINUOUS
70
0
71
3
72
11
73
7
74
5
42
0.0000001000
43
0.0000001000
44
0.0000000001
12
-0.4754181065
22
0.5296959284
32
0.0000000000
13
-0.0203416954
23
0.7114677561
33
0.0000000000
40
0.0000000000
40
0.0000000000
40
0.0000000000
40
0.0000000000
40
0.2464609416
40
0.4954310696
40
0.7481850486
40
1.0000000000
40
1.0000000000
40
1.0000000000
40
1.0000000000
10
-0.7664946741
20
48.4837255575
30
0.0000000000
10
-0.8055520055
20
48.5272420099
30
0.0000000000
10
-0.8765511790
20
48.6218010050
30
0.0000000000
10
-0.9571595198
20
48.7809391795
30
0.0000000000
10
-1.0090083108
20
48.9529841436
30
0.0000000000
10
-1.0229584164
20
49.0726091337
30
0.0000000000
10
-1.0246658640
20
49.1323285398
30
0.0000000000
11
-0.7664946741
21
48.4837255575
31
0.0000000000
11
-0.8718305626
21
48.6239994378
31
0.0000000000
11
-0.9519420169
21
48.7820637763
31
0.0000000000
11
-1.0038616325
21
48.9543086264
31
0.0000000000
11
-1.0246658640
21
49.1323285398
31
0.0000000000
0
SPLINE
5
463
100
AcDbEntity
8
0
100
AcDbSpline
62
7
6
CONTINUOUS
70
0
71
3
72
21
73
17
74
15
42
0.0000001000
43
0.0000001000
44
0.0000000001
12
-0.0959655314
22
3.3564744706
32
0.0000000000
13
0.0880617864
23
-3.3566911352
33
0.0000000000
40
0.0000000000
40
0.0000000000
40
0.0000000000
40
0.0000000000
40
0.0687099243
40
0.1377453264
40
0.2067243919
40
0.2762245780
40
0.3471048574
40
0.4179688228
40
0.4880628375
40
0.5595757708
40
0.6327223724
40
0.7056572152
40
0.7774495193
40
0.8511657288
40
0.9260050942
40
1.0000000000
40
1.0000000000
40
1.0000000000
40
1.0000000000
10
-1.0246658640
20
49.1323285398
30
0.0000000000
10
-1.0268637922
20
49.2092029088
30
0.0000000000
10
-1.0137820853
20
49.3643698723
30
0.0000000000
10
-0.9427969423
20
49.5865545453
30
0.0000000000
10
-0.8238111681
20
49.7883016018
30
0.0000000000
10
-0.6617021325
20
49.9601987498
30
0.0000000000
10
-0.4635282048
20
50.0928552685
30
0.0000000000
10
-0.2401005620
20
50.1780420267
30
0.0000000000
10
-0.0027399584
20
50.2118135964
30
0.0000000000
10
0.2388516452
20
50.1921380691
30
0.0000000000
10
0.4730140751
20
50.1178220532
30
0.0000000000
10
0.6846953415
20
49.9925931378
30
0.0000000000
10
0.8637689184
20
49.8232271921
30
0.0000000000
10
1.0021559363
20
49.6165155087
30
0.0000000000
10
1.0914612797
20
49.3817597055
30
0.0000000000
10
1.1145311392
20
49.2151212213
30
0.0000000000
10
1.1167031803
20
49.1323285398
30
0.0000000000
11
-1.0246658640
21
49.1323285398
31
0.0000000000
11
-1.0052990332
21
49.3622316091
31
0.0000000000
11
-0.9348351357
21
49.5830728030
31
0.0000000000
11
-0.8172062604
21
49.7826016840
31
0.0000000000
11
-0.6571340659
21
49.9524218307
31
0.0000000000
11
-0.4593807254
21
50.0848606038
31
0.0000000000
11
-0.2370641966
21
50.1696880789
31
0.0000000000
11
-0.0040535158
21
50.2028944717
31
0.0000000000
11
0.2352875623
21
50.1834525650
31
0.0000000000
11
0.4694121540
21
50.1092069052
31
0.0000000000
11
0.6802257137
21
49.9845650172
31
0.0000000000
11
0.8554002995
21
49.8189527979
31
0.0000000000
11
0.9931558882
21
49.6132993213
31
0.0000000000
11
1.0825322277
21
49.3784310769
31
0.0000000000
11
1.1167031803
21
49.1323285398
31
0.0000000000
0
SPLINE
5
464
100
AcDbEntity
8
0
100
AcDbSpline
62
7
6
CONTINUOUS
70
0
71
3
72
23
73
19
74
17
42
0.0000001000
43
0.0000001000
44
0.0000000001
12
4.4941947412
22
-1.7485818664
32
0.0000000000
13
-4.4653024723
23
1.8414084242
33
0.0000000000
40
0.0000000000
40
0.0000000000
40
0.0000000000
40
0.0000000000
40
0.0704368886
40
0.1398712498
40
0.2083031633
40
0.2757327124
40
0.3421599842
40
0.4075850697
40
0.4720080642
40
0.5354290675
40
0.5978481842
40
0.6592655238
40
0.7196812014
40
0.7790953380
40
0.8375080607
40
0.8949195030
40
0.9513298060
40
1.0000000000
40
1.0000000000
40
1.0000000000
40
1.0000000000
10
-0.7512189948
20
-17.4482314944
30
0.0000000000
10
-0.6456999633
20
-17.4892863831
30
0.0000000000
10
-0.4275844761
20
-17.5505238989
30
0.0000000000
10
-0.0916904480
20
-17.5765009270
30
0.0000000000
10
0.2381154197
20
-17.5370525883
30
0.0000000000
10
0.5492262271
20
-17.4355097701
30
0.0000000000
10
0.8303059166
20
-17.2775869426
30
0.0000000000
10
1.0714571919
20
-17.0709997349
30
0.0000000000
10
1.2646318572
20
-16.8251313673
30
0.0000000000
10
1.4038774455
20
-16.5506112973
30
0.0000000000
10
1.4855150194
20
-16.2588640869
30
0.0000000000
10
1.5082165059
20
-15.9616370750
30
0.0000000000
10
1.4729879989
20
-15.6705289647
30
0.0000000000
10
1.3830603884
20
-15.3965374839
30
0.0000000000
10
1.2436946544
20
-15.1496439308
30
0.0000000000
10
1.0619118358
20
-14.9384502519
30
0.0000000000
10
0.8547522772
20
-14.7765945636
30
0.0000000000
10
0.7039744279
20
-14.6984566371
30
0.0000000000
10
0.6315320486
20
-14.6685827354
30
0.0000000000
11
-0.7512189948
21
-17.4482314944
31
0.0000000000
11
-0.4241368140
21
-17.5398566878
31
0.0000000000
11
-0.0902849821
21
-17.5655454179
31
0.0000000000
11
0.2373633594
21
-17.5261811168
31
0.0000000000
11
0.5464371510
21
-17.4251395289
31
0.0000000000
11
0.8256344891
21
-17.2680889488
31
0.0000000000
11
1.0651352562
21
-17.0627052890
31
0.0000000000
11
1.2569442688
21
-16.8183154478
31
0.0000000000
11
1.3951530437
21
-16.5454850011
31
0.0000000000
11
1.4761118353
21
-16.2555680854
31
0.0000000000
11
1.4985074019
21
-15.9602384256
31
0.0000000000
11
1.4633458633
21
-15.6710207560
31
0.0000000000
11
1.3738438487
21
-15.3988413888
31
0.0000000000
11
1.2352347593
21
-15.1536154470
31
0.0000000000
11
1.0545002238
21
-14.9438863530
31
0.0000000000
11
0.8400396037
21
-14.7765306544
31
0.0000000000
11
0.6315320486
21
-14.6685827354
31
0.0000000000
0
SPLINE
5
465
100
AcDbEntity
8
0
100
AcDbSpline
62
7
6
CONTINUOUS
70
0
71
3
72
8
73
4
74
2
42
0.0000001000
43
0.0000001000
44
0.0000000001
12
-0.0300921997
22
0.0124094684
32
0.0000000000
13
-0.0303840767
23
0.0116777746
33
0.0000000000
40
0.0000000000
40
0.0000000000
40
0.0000000000
40
0.0000000000
40
1.0000000000
40
1.0000000000
40
1.0000000000
40
1.0000000000
10
0.6315320486
20
-14.6685827354
30
0.0000000000
10
0.6215013154
20
-14.6644462459
30
0.0000000000
10
0.6114206086
20
-14.6604308749
30
0.0000000000
10
0.6012925830
20
-14.6565382834
30
0.0000000000
11
0.6315320486
21
-14.6685827354
31
0.0000000000
11
0.6012925830
21
-14.6565382834
31
0.0000000000
0
SPLINE
5
466
100
AcDbEntity
8
0
100
AcDbSpline
62
7
6
CONTINUOUS
70
0
71
3
72
8
73
4
74
2
42
0.0000001000
43
0.0000001000
44
0.0000000001
12
-0.0114975229
22
0.0044189423
32
0.0000000000
13
-0.0115376829
23
0.0043132686
33
0.0000000000
40
0.0000000000
40
0.0000000000
40
0.0000000000
40
0.0000000000
40
1.0000000000
40
1.0000000000
40
1.0000000000
40
1.0000000000
10
0.6012925830
20
-14.6565382834
30
0.0000000000
10
0.5974600754
20
-14.6550653026
30
0.0000000000
10
0.5936207921
20
-14.6536099028
30
0.0000000000
10
0.5897748978
20
-14.6521721466
30
0.0000000000
11
0.6012925830
21
-14.6565382834
31
0.0000000000
11
0.5897748978
21
-14.6521721466
31
0.0000000000
0
SPLINE
5
467
100
AcDbEntity
8
0
100
AcDbSpline
62
7
6
CONTINUOUS
70
0
71
3
72
8
73
4
74
2
42
0.0000001000
43
0.0000001000
44
0.0000000001
12
-0.0114090744
22
0.0042651894
32
0.0000000000
13
-0.0114473838
23
0.0041614929
33
0.0000000000
40
0.0000000000
40
0.0000000000
40
0.0000000000
40
0.0000000000
40
1.0000000000
40
1.0000000000
40
1.0000000000
40
1.0000000000
10
0.5897748978
20
-14.6521721466
30
0.0000000000
10
0.5859718730
20
-14.6507504168
30
0.0000000000
10
0.5821623837
20
-14.6493459394
30
0.0000000000
10
0.5783465891
20
-14.6479587751
30
0.0000000000
11
0.5897748978
21
-14.6521721466
31
0.0000000000
11
0.5783465891
21
-14.6479587751
31
0.0000000000
0
SPLINE
5
468
100
AcDbEntity
8
0
100
AcDbSpline
62
7
6
CONTINUOUS
70
0
71
3
72
8
73
4
74
2
42
0.0000001000
43
0.0000001000
44
0.0000000001
12
-0.0296525431
22
0.0107796549
32
0.0000000000
13
-0.0298980901
23
0.0100794898
33
0.0000000000
40
0.0000000000
40
0.0000000000
40
0.0000000000
40
0.0000000000
40
1.0000000000
40
1.0000000000
40
1.0000000000
40
1.0000000000
10
0.5783465891
20
-14.6479587751
30
0.0000000000
10
0.5684624081
20
-14.6443655568
30
0.0000000000
10
0.5585359195
20
-14.6408885061
30
0.0000000000
10
0.5485698894
20
-14.6375286762
30
0.0000000000
11
0.5783465891
21
-14.6479587751
31
0.0000000000
11
0.5485698894
21
-14.6375286762
31
0.0000000000
0
SPLINE
5
469
100
AcDbEntity
8
0
100
AcDbSpline
62
7
6
CONTINUOUS
70
0
71
3
72
18
73
14
74
12
42
0.0000001000
43
0.0000001000
44
0.0000000001
12
-2.4345156088
22
0.8207439076
32
0.0000000000
13
0.5956191825
23
-2.4991985257
33
0.0000000000
40
0.0000000000
40
0.0000000000
40
0.0000000000
40
0.0000000000
40
0.0804771668
40
0.1808894479
40
0.2794206951
40
0.3760712562
40
0.4708414997
40
0.5637318168
40
0.6547426224
40
0.7438743579
40
0.8311274931
40
0.9165025290
40
1.0000000000
40
1.0000000000
40
1.0000000000
40
1.0000000000
10
0.5485698894
20
-14.6375286762
30
0.0000000000
10
0.4832622499
20
-14.6155116281
30
0.0000000000
10
0.3326529241
20
-14.5773379827
30
0.0000000000
10
0.0928294816
20
-14.5599677236
30
0.0000000000
10
-0.1595626265
20
-14.5916322561
30
0.0000000000
10
-0.3962563428
20
-14.6705919722
30
0.0000000000
10
-0.6086723437
20
-14.7919992596
30
0.0000000000
10
-0.7895044280
20
-14.9495091906
30
0.0000000000
10
-0.9329680915
20
-15.1355864150
30
0.0000000000
10
-1.0349787854
20
-15.3418506292
30
0.0000000000
10
-1.0932558934
20
-15.5594441247
30
0.0000000000
10
-1.1073459829
20
-15.7794096387
30
0.0000000000
10
-1.0879550526
20
-15.9234361554
30
0.0000000000
10
-1.0713774875
20
-15.9929950742
30
0.0000000000
11
0.5485698894
21
-14.6375286762
31
0.0000000000
11
0.3483314020
21
-14.5868750182
31
0.0000000000
11
0.0914400918
21
-14.5684303932
31
0.0000000000
11
-0.1593018522
21
-14.6000507324
31
0.0000000000
11
-0.3944145691
21
-14.6786535102
31
0.0000000000
11
-0.6053762289
21
-14.7994160101
31
0.0000000000
11
-0.7849311782
21
-14.9560283961
31
0.0000000000
11
-0.9273367221
21
-15.1409989213
31
0.0000000000
11
-1.0285402642
21
-15.3459971920
31
0.0000000000
11
-1.0862816358
21
-15.5622202126
31
0.0000000000
11
-1.1001186912
21
-15.7807654209
31
0.0000000000
11
-1.0713774875
21
-15.9929950742
31
0.0000000000
0
SPLINE
5
46A
100
AcDbEntity
8
0
100
AcDbSpline
62
7
6
CONTINUOUS
70
0
71
3
72
8
73
4
74
2
42
0.0000001000
43
0.0000001000
44
0.0000000001
12
0.0038576483
22
-0.0161865655
32
0.0000000000
13
0.0041095276
23
-0.0161248236
33
0.0000000000
40
0.0000000000
40
0.0000000000
40
0.0000000000
40
0.0000000000
40
1.0000000000
40
1.0000000000
40
1.0000000000
40
1.0000000000
10
-1.0713774875
20
-15.9929950742
30
0.0000000000
10
-1.0700916047
20
-15.9983905960
30
0.0000000000
10
-1.0687636656
20
-16.0037761681
30
0.0000000000
10
-1.0673938230
20
-16.0091511093
30
0.0000000000
11
-1.0713774875
21
-15.9929950742
31
0.0000000000
11
-1.0673938230
21
-16.0091511093
31
0.0000000000
0
SPLINE
5
46B
100
AcDbEntity
8
0
100
AcDbSpline
62
7
6
CONTINUOUS
70
0
71
3
72
10
73
6
74
4
42
0.0000001000
43
0.0000001000
44
0.0000000001
12
0.1476859866
22
-0.5794852092
32
0.0000000000
13
0.4399109167
23
-0.4036055699
33
0.0000000000
40
0.0000000000
40
0.0000000000
40
0.0000000000
40
0.0000000000
40
0.3228432223
40
0.6654509887
40
1.0000000000
40
1.0000000000
40
1.0000000000
40
1.0000000000
10
-1.0673938230
20
-16.0091511093
30
0.0000000000
10
-1.0515006831
20
-16.0715120667
30
0.0000000000
10
-1.0071148492
20
-16.1971020767
30
0.0000000000
10
-0.9059270158
20
-16.3699030792
30
0.0000000000
10
-0.8155519282
20
-16.4712658277
30
0.0000000000
10
-0.7664946741
20
-16.5162744425
30
0.0000000000
11
-1.0673938230
21
-16.0091511093
31
0.0000000000
11
-1.0030314775
21
-16.1908771466
31
0.0000000000
11
-0.8995169818
21
-16.3672893026
31
0.0000000000
11
-0.7664946741
21
-16.5162744425
31
0.0000000000
0
SPLINE
5
46C
100
AcDbEntity
8
0
100
AcDbSpline
62
7
6
CONTINUOUS
70
0
71
3
72
8
73
4
74
2
42
0.0000001000
43
0.0000001000
44
0.0000000001
12
0.0329591664
22
-0.0154784138
32
0.0000000000
13
0.0332747634
23
-0.0147876079
33
0.0000000000
40
0.0000000000
40
0.0000000000
40
0.0000000000
40
0.0000000000
40
1.0000000000
40
1.0000000000
40
1.0000000000
40
1.0000000000
10
-0.7438132256
20
-17.4517289630
30
0.0000000000
10
-0.7328268368
20
-17.4568884343
30
0.0000000000
10
-0.7217867059
20
-17.4619334241
30
0.0000000000
10
-0.7106951181
20
-17.4668626267
30
0.0000000000
11
-0.7438132256
21
-17.4517289630
31
0.0000000000
11
-0.7106951181
21
-17.4668626267
31
0.0000000000
0
SPLINE
5
46D
100
AcDbEntity
8
0
100
AcDbSpline
62
7
6
CONTINUOUS
70
0
71
3
72
28
73
24
74
22
42
0.0000001000
43
0.0000001000
44
0.0000000001
12
-1.3539587429
22
7.0541386005
32
0.0000000000
13
6.5638370363
23
-2.9170289586
33
0.0000000000
40
0.0000000000
40
0.0000000000
40
0.0000000000
40
0.0000000000
40
0.0163945373
40
0.0655748006
40
0.1147550644
40
0.1639353289
40
0.2131155941
40
0.2622958601
40
0.3114761270
40
0.3606563948
40
0.4098366637
40
0.4590169336
40
0.5081972048
40
0.5573774773
40
0.6065577511
40
0.6557380263
40
0.7049183031
40
0.7540985814
40
0.8032788615
40
0.8524591433
40
0.9016394269
40
0.9508197124
40
1.0000000000
40
1.0000000000
40
1.0000000000
40
1.0000000000
10
1.7186060482
20
-15.5377137966
30
0.0000000000
10
1.7112068725
20
-15.4991640171
30
0.0000000000
10
1.6764298560
20
-15.3459681853
30
0.0000000000
10
1.5796872091
20
-15.0873070185
30
0.0000000000
10
1.3911544539
20
-14.7864362285
30
0.0000000000
10
1.1461273849
20
-14.5294740312
30
0.0000000000
10
0.8545564661
20
-14.3268555762
30
0.0000000000
10
0.5282822917
20
-14.1868091329
30
0.0000000000
10
0.1805547443
20
-14.1150219434
30
0.0000000000
10
-0.1745050778
20
-14.1144092655
30
0.0000000000
10
-0.5224783142
20
-14.1849959840
30
0.0000000000
10
-0.8492338866
20
-14.3239156004
30
0.0000000000
10
-1.1415023572
20
-14.5255266397
30
0.0000000000
10
-1.3874147966
20
-14.7816417483
30
0.0000000000
10
-1.5769847768
20
-15.0818601795
30
0.0000000000
10
-1.7025139172
20
-15.4139901633
30
0.0000000000
10
-1.7589045140
20
-15.7645440104
30
0.0000000000
10
-1.7438665562
20
-16.1192858422
30
0.0000000000
10
-1.6580107235
20
-16.4638097052
30
0.0000000000
10
-1.5048235868
20
-16.7841245916
30
0.0000000000
10
-1.2905260212
20
-17.0672226104
30
0.0000000000
10
-1.0238205780
20
-17.3016072332
30
0.0000000000
10
-0.8182989158
20
-17.4190425191
30
0.0000000000
10
-0.7106951181
20
-17.4668626267
30
0.0000000000
11
1.7186060482
21
-15.5377137966
31
0.0000000000
11
1.6925357892
21
-15.4228989974
31
0.0000000000
11
1.5689954496
21
-15.0925887421
31
0.0000000000
11
1.3817387363
21
-14.7937543291
31
0.0000000000
11
1.1383700786
21
-14.5385313232
31
0.0000000000
11
0.8487725927
21
-14.3372842462
31
0.0000000000
11
0.5247067325
21
-14.1981856761
31
0.0000000000
11
0.1793327019
21
-14.1268843624
31
0.0000000000
11
-0.1733239765
21
-14.1262758312
31
0.0000000000
11
-0.5189420331
21
-14.1963847991
31
0.0000000000
11
-0.8434860325
21
-14.3343641688
31
0.0000000000
11
-1.1337763485
21
-14.5346106483
31
0.0000000000
11
-1.3780243837
21
-14.7889922982
31
0.0000000000
11
-1.5663113012
21
-15.0871787670
31
0.0000000000
11
-1.6909908252
21
-15.4170608019
31
0.0000000000
11
-1.7469997546
21
-15.7652420021
31
0.0000000000
11
-1.7320635779
21
-16.1175828415
31
0.0000000000
11
-1.6467888416
21
-16.4597748698
31
0.0000000000
11
-1.4946385188
21
-16.7779217747
31
0.0000000000
11
-1.2817913796
21
-17.0591037060
31
0.0000000000
11
-1.0168910744
21
-17.2919019473
31
0.0000000000
11
-0.7106951181
21
-17.4668626267
31
0.0000000000
0
SPLINE
5
46E
100
AcDbEntity
8
0
100
AcDbSpline
62
7
6
CONTINUOUS
70
0
71
3
72
39
73
35
74
33
42
0.0000001000
43
0.0000001000
44
0.0000000001
12
-2.0646397440
22
10.7546182321
32
0.0000000000
13
-1.7898690926
23
10.8037455888
33
0.0000000000
40
0.0000000000
40
0.0000000000
40
0.0000000000
40
0.0000000000
40
0.0148276689
40
0.0470857129
40
0.0793437557
40
0.1116017973
40
0.1438598377
40
0.1761178770
40
0.2083759152
40
0.2406339525
40
0.2728919888
40
0.3051500242
40
0.3374080587
40
0.3696660925
40
0.4019241255
40
0.4341821578
40
0.4664401895
40
0.4986982206
40
0.5309562512
40
0.5632142813
40
0.5954723110
40
0.6277303403
40
0.6599883693
40
0.6922463980
40
0.7245044265
40
0.7567624548
40
0.7890204831
40
0.8212785112
40
0.8535365394
40
0.8857945676
40
0.9180525959
40
0.9503106244
40
0.9825686531
40
1.0000000000
40
1.0000000000
40
1.0000000000
40
1.0000000000
10
1.7186045781
20
-15.5377140787
30
0.0000000000
10
1.7083999799
20
-15.4845587726
30
0.0000000000
10
1.6681771049
20
-15.3172636697
30
0.0000000000
10
1.5592800203
20
-15.0472897020
30
0.0000000000
10
1.3631383525
20
-14.7513228415
30
0.0000000000
10
1.1116400649
20
-14.5006905648
30
0.0000000000
10
0.8149984302
20
-14.3055709651
30
0.0000000000
10
0.4852599762
20
-14.1738877818
30
0.0000000000
10
0.1358152797
20
-14.1109886204
30
0.0000000000
10
-0.2191448209
20
-14.1194277891
30
0.0000000000
10
-0.5652055101
20
-14.1988625695
30
0.0000000000
10
-0.8883133773
20
-14.3460671350
30
0.0000000000
10
-1.1753471198
20
-14.5550635509
30
0.0000000000
10
-1.4146503949
20
-14.8173645372
30
0.0000000000
10
-1.5965051796
20
-15.1223181343
30
0.0000000000
10
-1.7135264157
20
-15.4575402754
30
0.0000000000
10
-1.7609619141
20
-15.8094177002
30
0.0000000000
10
-1.7368853390
20
-16.1636607841
30
0.0000000000
10
-1.6422744358
20
-16.5058838353
30
0.0000000000
10
-1.4809713244
20
-16.8221892925
30
0.0000000000
10
-1.2595264720
20
-17.0997320999
30
0.0000000000
10
-0.9869326806
20
-17.3272413405
30
0.0000000000
10
-0.6742598923
20
-17.4954779436
30
0.0000000000
10
-0.3342056429
20
-17.5976098800
30
0.0000000000
10
0.0194205810
20
-17.6294896084
30
0.0000000000
10
0.3722581399
20
-17.5898225054
30
0.0000000000
10
0.7099784221
20
-17.4802194390
30
0.0000000000
10
1.0188667234
20
-17.3051313527
30
0.0000000000
10
1.2863791967
20
-17.0716685135
30
0.0000000000
10
1.5016522523
20
-16.7893117666
30
0.0000000000
10
1.6559437254
20
-16.4695275219
30
0.0000000000
10
1.7429878916
20
-16.1253021071
30
0.0000000000
10
1.7567584239
20
-15.8249558241
30
0.0000000000
10
1.7368557704
20
-15.6443974556
30
0.0000000000
10
1.7264558274
20
-15.5816228431
30
0.0000000000
11
1.7186045781
21
-15.5377140787
31
0.0000000000
11
1.6806471972
21
-15.3798959233
31
0.0000000000
11
1.5487263706
21
-15.0528422735
31
0.0000000000
11
1.3539122450
21
-14.7588786003
31
0.0000000000
11
1.1041161688
21
-14.5099426737
31
0.0000000000
11
0.8094822883
21
-14.3161436984
31
0.0000000000
11
0.4819755969
21
-14.1853517838
31
0.0000000000
11
0.1348960402
21
-14.1228783416
31
0.0000000000
11
-0.2176615908
21
-14.1312603917
31
0.0000000000
11
-0.5613800444
21
-14.2101575352
31
0.0000000000
11
-0.8823010272
21
-14.3563657790
31
0.0000000000
11
-1.1673920451
21
-14.5639476489
31
0.0000000000
11
-1.4050756489
21
-14.8244733089
31
0.0000000000
11
-1.5856995898
21
-15.1273628950
31
0.0000000000
11
-1.7019287936
21
-15.4603161594
31
0.0000000000
11
-1.7490432353
21
-15.8098119799
31
0.0000000000
11
-1.7251296171
21
-16.1616574482
31
0.0000000000
11
-1.6311590668
21
-16.5015642388
31
0.0000000000
11
-1.4709476996
21
-16.8157288528
31
0.0000000000
11
-1.2510016474
21
-17.0913931736
31
0.0000000000
11
-0.9802528463
21
-17.3173625686
31
0.0000000000
11
-0.6696963141
21
-17.4844604997
31
0.0000000000
11
-0.3319436460
21
-17.5859011789
31
0.0000000000
11
0.0192891377
21
-17.6175651365
31
0.0000000000
11
0.3697385944
21
-17.5781665114
31
0.0000000000
11
0.7051730922
21
-17.4693052689
31
0.0000000000
11
1.0119707521
21
-17.2954022272
31
0.0000000000
11
1.2776726269
21
-17.0635195291
31
0.0000000000
11
1.4914886550
21
-16.7830738507
31
0.0000000000
11
1.6447358407
21
-16.4654539943
31
0.0000000000
11
1.7311908678
21
-16.1235583924
31
0.0000000000
11
1.7473428263
21
-15.7712713076
31
0.0000000000
11
1.7264558274
21
-15.5816228431
31
0.0000000000
0
SPLINE
5
46F
100
AcDbEntity
8
0
100
AcDbSpline
62
7
6
CONTINUOUS
70
0
71
3
72
86
73
82
74
80
42
0.0000001000
43
0.0000001000
44
0.0000000001
12
5.0731954689
22
-27.0990828833
32
0.0000000000
13
-6.3250533301
23
26.8345058927
33
0.0000000000
40
0.0000000000
40
0.0000000000
40
0.0000000000
40
0.0000000000
40
0.0005833955
40
0.0133964407
40
0.0262094851
40
0.0390225287
40
0.0518355714
40
0.0646486134
40
0.0774616547
40
0.0902746952
40
0.1030877350
40
0.1159007742
40
0.1287138126
40
0.1415268504
40
0.1543398876
40
0.1671529242
40
0.1799659602
40
0.1927789956
40
0.2055920305
40
0.2184050649
40
0.2312180987
40
0.2440311321
40
0.2568441650
40
0.2696571975
40
0.2824702296
40
0.2952832612
40
0.3080962925
40
0.3209093234
40
0.3337223540
40
0.3465353843
40
0.3593484143
40
0.3721614440
40
0.3849744734
40
0.3977875027
40
0.4106005317
40
0.4234135605
40
0.4362265892
40
0.4490396177
40
0.4618526461
40
0.4746656743
40
0.4874787025
40
0.5002917306
40
0.5131047587
40
0.5259177868
40
0.5387308148
40
0.5515438429
40
0.5643568710
40
0.5771698992
40
0.5899829275
40
0.6027959558
40
0.6156089843
40
0.6284220129
40
0.6412350417
40
0.6540480707
40
0.6668610999
40
0.6796741293
40
0.6924871590
40
0.7053001889
40
0.7181132191
40
0.7309262497
40
0.7437392805
40
0.7565523117
40
0.7693653433
40
0.7821783753
40
0.7949914077
40
0.8078044406
40
0.8206174739
40
0.8334305077
40
0.8462435420
40
0.8590565768
40
0.8718696121
40
0.8846826480
40
0.8974956845
40
0.9103087216
40
0.9231217593
40
0.9359347977
40
0.9487478367
40
0.9615608765
40
0.9743739169
40
0.9871869581
40
1.0000000000
40
1.0000000000
40
1.0000000000
40
1.0000000000
10
-1.7201078730
20
-16.1897399185
30
0.0000000000
10
-1.7191213132
20
-16.1950097460
30
0.0000000000
10
-1.6959095600
20
-16.3159157490
30
0.0000000000
10
-1.6254726350
20
-16.5475385148
30
0.0000000000
10
-1.4561589729
20
-16.8596298959
30
0.0000000000
10
-1.2277110614
20
-17.1314380669
30
0.0000000000
10
-0.9494061239
20
-17.3519249737
30
0.0000000000
10
-0.6325460620
20
-17.5121367088
30
0.0000000000
10
-0.2899984872
20
-17.6055671262
30
0.0000000000
10
0.0643258299
20
-17.6284220530
30
0.0000000000
10
0.4160378722
20
-17.5797733689
30
0.0000000000
10
0.7508547106
20
-17.4615966952
30
0.0000000000
10
1.0551795290
20
-17.2786911650
30
0.0000000000
10
1.3166537873
20
-17.0384845302
30
0.0000000000
10
1.5246590972
20
-16.7507315219
30
0.0000000000
10
1.6707484311
20
-16.4271177133
30
0.0000000000
10
1.7489891528
20
-16.0807849710
30
0.0000000000
10
1.7562039391
20
-15.7257977677
30
0.0000000000
10
1.6920998089
20
-15.3765720279
30
0.0000000000
10
1.5592800203
20
-15.0472897020
30
0.0000000000
10
1.3631383525
20
-14.7513228415
30
0.0000000000
10
1.1116400649
20
-14.5006905648
30
0.0000000000
10
0.8149984302
20
-14.3055709651
30
0.0000000000
10
0.4852599762
20
-14.1738877818
30
0.0000000000
10
0.1358152797
20
-14.1109886204
30
0.0000000000
10
-0.2191448209
20
-14.1194277891
30
0.0000000000
10
-0.5652055101
20
-14.1988625695
30
0.0000000000
10
-0.8883133773
20
-14.3460671350
30
0.0000000000
10
-1.1753471198
20
-14.5550635509
30
0.0000000000
10
-1.4146503949
20
-14.8173645372
30
0.0000000000
10
-1.5965051796
20
-15.1223181343
30
0.0000000000
10
-1.7135264157
20
-15.4575402754
30
0.0000000000
10
-1.7609619141
20
-15.8094177002
30
0.0000000000
10
-1.7368853390
20
-16.1636607841
30
0.0000000000
10
-1.6422744358
20
-16.5058838353
30
0.0000000000
10
-1.4809713244
20
-16.8221892925
30
0.0000000000
10
-1.2595264720
20
-17.0997320999
30
0.0000000000
10
-0.9869326806
20
-17.3272413405
30
0.0000000000
10
-0.6742598923
20
-17.4954779436
30
0.0000000000
10
-0.3342056429
20
-17.5976098800
30
0.0000000000
10
0.0194205810
20
-17.6294896084
30
0.0000000000
10
0.3722581399
20
-17.5898225054
30
0.0000000000
10
0.7099784221
20
-17.4802194390
30
0.0000000000
10
1.0188667234
20
-17.3051313527
30
0.0000000000
10
1.2863791967
20
-17.0716685135
30
0.0000000000
10
1.5016522523
20
-16.7893117666
30
0.0000000000
10
1.6559437254
20
-16.4695275219
30
0.0000000000
10
1.7429878916
20
-16.1253021071
30
0.0000000000
10
1.7592499160
20
-15.7706143977
30
0.0000000000
10
1.7040694019
20
-15.4198681396
30
0.0000000000
10
1.5796872091
20
-15.0873070185
30
0.0000000000
10
1.3911544539
20
-14.7864362285
30
0.0000000000
10
1.1461273849
20
-14.5294740312
30
0.0000000000
10
0.8545564661
20
-14.3268555762
30
0.0000000000
10
0.5282822917
20
-14.1868091329
30
0.0000000000
10
0.1805547443
20
-14.1150219434
30
0.0000000000
10
-0.1745050778
20
-14.1144092655
30
0.0000000000
10
-0.5224783142
20
-14.1849959840
30
0.0000000000
10
-0.8492338866
20
-14.3239156004
30
0.0000000000
10
-1.1415023572
20
-14.5255266397
30
0.0000000000
10
-1.3874147966
20
-14.7816417483
30
0.0000000000
10
-1.5769847768
20
-15.0818601795
30
0.0000000000
10
-1.7025139172
20
-15.4139901633
30
0.0000000000
10
-1.7589045140
20
-15.7645440104
30
0.0000000000
10
-1.7438665562
20
-16.1192858422
30
0.0000000000
10
-1.6580107235
20
-16.4638097052
30
0.0000000000
10
-1.5048235868
20
-16.7841245916
30
0.0000000000
10
-1.2905260212
20
-17.0672226104
30
0.0000000000
10
-1.0238205780
20
-17.3016072332
30
0.0000000000
10
-0.7155380783
20
-17.4777601657
30
0.0000000000
10
-0.3781977769
20
-17.5885278826
30
0.0000000000
10
-0.0254989599
20
-17.6294121314
30
0.0000000000
10
0.3282353788
20
-17.5987526051
30
0.0000000000
10
0.6686401899
20
-17.4977943683
30
0.0000000000
10
0.9818917289
20
-17.3306372960
30
0.0000000000
10
1.2552689346
20
-17.1040695803
30
0.0000000000
10
1.4776700279
20
-16.8272920642
30
0.0000000000
10
1.6400633528
20
-16.5115445994
30
0.0000000000
10
1.7358541500
20
-16.1696495997
30
0.0000000000
10
1.7611523689
20
-15.8154913267
30
0.0000000000
10
1.7303378861
20
-15.5807984854
30
0.0000000000
10
1.7033234949
20
-15.4661879358
30
0.0000000000
11
-1.7201078730
21
-16.1897399185
31
0.0000000000
11
-1.7170753800
21
-16.2055355335
31
0.0000000000
11
-1.6144709558
21
-16.5429369818
31
0.0000000000
11
-1.4463032584
21
-16.8529160368
31
0.0000000000
11
-1.2194015492
21
-17.1228845305
31
0.0000000000
11
-0.9429802608
21
-17.3418791174
31
0.0000000000
11
-0.6282648002
21
-17.5010064929
31
0.0000000000
11
-0.2880356869
21
-17.5938045461
31
0.0000000000
11
0.0638904606
21
-17.6165047842
31
0.0000000000
11
0.4132220141
21
-17.5681853684
31
0.0000000000
11
0.7457727156
21
-17.4508085485
31
0.0000000000
11
1.0480377761
21
-17.2691409756
31
0.0000000000
11
1.3077423016
21
-17.0305601281
31
0.0000000000
11
1.5143397720
21
-16.7447547146
31
0.0000000000
11
1.6594403316
21
-16.4233312167
31
0.0000000000
11
1.7371514979
21
-16.0793425531
31
0.0000000000
11
1.7443174524
21
-15.7267580042
31
0.0000000000
11
1.6806471972
21
-15.3798959233
31
0.0000000000
11
1.5487263706
21
-15.0528422735
31
0.0000000000
11
1.3539122450
21
-14.7588786003
31
0.0000000000
11
1.1041161688
21
-14.5099426737
31
0.0000000000
11
0.8094822883
21
-14.3161436984
31
0.0000000000
11
0.4819755969
21
-14.1853517838
31
0.0000000000
11
0.1348960402
21
-14.1228783416
31
0.0000000000
11
-0.2176615908
21
-14.1312603917
31
0.0000000000
11
-0.5613800444
21
-14.2101575352
31
0.0000000000
11
-0.8823010272
21
-14.3563657790
31
0.0000000000
11
-1.1673920451
21
-14.5639476489
31
0.0000000000
11
-1.4050756489
21
-14.8244733089
31
0.0000000000
11
-1.5856995898
21
-15.1273628950
31
0.0000000000
11
-1.7019287936
21
-15.4603161594
31
0.0000000000
11
-1.7490432353
21
-15.8098119799
31
0.0000000000
11
-1.7251296171
21
-16.1616574482
31
0.0000000000
11
-1.6311590668
21
-16.5015642388
31
0.0000000000
11
-1.4709476996
21
-16.8157288528
31
0.0000000000
11
-1.2510016474
21
-17.0913931736
31
0.0000000000
11
-0.9802528463
21
-17.3173625686
31
0.0000000000
11
-0.6696963141
21
-17.4844604997
31
0.0000000000
11
-0.3319436460
21
-17.5859011789
31
0.0000000000
11
0.0192891377
21
-17.6175651365
31
0.0000000000
11
0.3697385944
21
-17.5781665114
31
0.0000000000
11
0.7051730922
21
-17.4693052689
31
0.0000000000
11
1.0119707521
21
-17.2954022272
31
0.0000000000
11
1.2776726269
21
-17.0635195291
31
0.0000000000
11
1.4914886550
21
-16.7830738507
31
0.0000000000
11
1.6447358407
21
-16.4654539943
31
0.0000000000
11
1.7311908678
21
-16.1235583924
31
0.0000000000
11
1.7473428263
21
-15.7712713076
31
0.0000000000
11
1.6925357892
21
-15.4228989974
31
0.0000000000
11
1.5689954496
21
-15.0925887421
31
0.0000000000
11
1.3817387363
21
-14.7937543291
31
0.0000000000
11
1.1383700786
21
-14.5385313232
31
0.0000000000
11
0.8487725927
21
-14.3372842462
31
0.0000000000
11
0.5247067325
21
-14.1981856761
31
0.0000000000
11
0.1793327019
21
-14.1268843624
31
0.0000000000
11
-0.1733239765
21
-14.1262758312
31
0.0000000000
11
-0.5189420331
21
-14.1963847991
31
0.0000000000
11
-0.8434860325
21
-14.3343641688
31
0.0000000000
11
-1.1337763485
21
-14.5346106483
31
0.0000000000
11
-1.3780243837
21
-14.7889922982
31
0.0000000000
11
-1.5663113012
21
-15.0871787670
31
0.0000000000
11
-1.6909908252
21
-15.4170608019
31
0.0000000000
11
-1.7469997546
21
-15.7652420021
31
0.0000000000
11
-1.7320635779
21
-16.1175828415
31
0.0000000000
11
-1.6467888416
21
-16.4597748698
31
0.0000000000
11
-1.4946385188
21
-16.7779217747
31
0.0000000000
11
-1.2817913796
21
-17.0591037060
31
0.0000000000
11
-1.0168910744
21
-17.2919019473
31
0.0000000000
11
-0.7106951181
21
-17.4668626267
31
0.0000000000
11
-0.3756380319
21
-17.5768806363
31
0.0000000000
11
-0.0253263810
21
-17.6174881688
31
0.0000000000
11
0.3260137827
21
-17.5870361549
31
0.0000000000
11
0.6641146366
21
-17.4867612323
31
0.0000000000
11
0.9752459993
21
-17.3207355271
31
0.0000000000
11
1.2467729094
21
-17.0957012868
31
0.0000000000
11
1.4676687280
21
-16.8207970807
31
0.0000000000
11
1.6289629280
21
-16.5071866860
31
0.0000000000
11
1.7241053852
21
-16.1676057307
31
0.0000000000
11
1.7492323785
21
-15.8158445038
31
0.0000000000
11
1.7033234949
21
-15.4661879358
31
0.0000000000
0
SPLINE
5
470
100
AcDbEntity
8
0
100
AcDbSpline
62
7
6
CONTINUOUS
70
0
71
3
72
102
73
98
74
96
42
0.0000001000
43
0.0000001000
44
0.0000000001
12
6.0781162744
22
-32.4669880560
32
0.0000000000
13
6.9049411190
23
-32.3017096267
33
0.0000000000
40
0.0000000000
40
0.0000000000
40
0.0000000000
40
0.0000000000
40
0.0004869402
40
0.0111815502
40
0.0218761595
40
0.0325707681
40
0.0432653760
40
0.0539599833
40
0.0646545900
40
0.0753491960
40
0.0860438015
40
0.0967384064
40
0.1074330107
40
0.1181276145
40
0.1288222178
40
0.1395168206
40
0.1502114228
40
0.1609060246
40
0.1716006260
40
0.1822952269
40
0.1929898274
40
0.2036844275
40
0.2143790272
40
0.2250736265
40
0.2357682255
40
0.2464628242
40
0.2571574225
40
0.2678520206
40
0.2785466184
40
0.2892412159
40
0.2999358131
40
0.3106304102
40
0.3213250070
40
0.3320196036
40
0.3427142001
40
0.3534087964
40
0.3641033925
40
0.3747979885
40
0.3854925845
40
0.3961871803
40
0.4068817761
40
0.4175763718
40
0.4282709674
40
0.4389655631
40
0.4496601587
40
0.4603547544
40
0.4710493501
40
0.4817439459
40
0.4924385417
40
0.5031331376
40
0.5138277336
40
0.5245223297
40
0.5352169260
40
0.5459115224
40
0.5566061190
40
0.5673007158
40
0.5779953128
40
0.5886899100
40
0.5993845075
40
0.6100791052
40
0.6207737032
40
0.6314683015
40
0.6421629001
40
0.6528574990
40
0.6635520983
40
0.6742466979
40
0.6849412980
40
0.6956358984
40
0.7063304993
40
0.7170251005
40
0.7277197023
40
0.7384143045
40
0.7491089072
40
0.7598035104
40
0.7704981141
40
0.7811927184
40
0.7918873232
40
0.8025819286
40
0.8132765346
40
0.8239711411
40
0.8346657484
40
0.8453603562
40
0.8560549648
40
0.8667495740
40
0.8774441839
40
0.8881387945
40
0.8988334059
40
0.9095280180
40
0.9202226309
40
0.9309172445
40
0.9416118590
40
0.9523064743
40
0.9630010904
40
0.9736957074
40
0.9843903253
40
0.9950849440
40
1.0000000000
40
1.0000000000
40
1.0000000000
40
1.0000000000
10
-1.7201078730
20
-16.1897399185
30
0.0000000000
10
-1.7191213132
20
-16.1950097460
30
0.0000000000
10
-1.6959095600
20
-16.3159157490
30
0.0000000000
10
-1.6254726350
20
-16.5475385148
30
0.0000000000
10
-1.4561589729
20
-16.8596298959
30
0.0000000000
10
-1.2277110614
20
-17.1314380669
30
0.0000000000
10
-0.9494061239
20
-17.3519249737
30
0.0000000000
10
-0.6325460620
20
-17.5121367088
30
0.0000000000
10
-0.2899984872
20
-17.6055671262
30
0.0000000000
10
0.0643258299
20
-17.6284220530
30
0.0000000000
10
0.4160378722
20
-17.5797733689
30
0.0000000000
10
0.7508547106
20
-17.4615966952
30
0.0000000000
10
1.0551795290
20
-17.2786911650
30
0.0000000000
10
1.3166537873
20
-17.0384845302
30
0.0000000000
10
1.5246590972
20
-16.7507315219
30
0.0000000000
10
1.6707484311
20
-16.4271177133
30
0.0000000000
10
1.7489891528
20
-16.0807849710
30
0.0000000000
10
1.7562039391
20
-15.7257977677
30
0.0000000000
10
1.6920998089
20
-15.3765720279
30
0.0000000000
10
1.5592800203
20
-15.0472897020
30
0.0000000000
10
1.3631383525
20
-14.7513228415
30
0.0000000000
10
1.1116400649
20
-14.5006905648
30
0.0000000000
10
0.8149984302
20
-14.3055709651
30
0.0000000000
10
0.4852599762
20
-14.1738877818
30
0.0000000000
10
0.1358152797
20
-14.1109886204
30
0.0000000000
10
-0.2191448209
20
-14.1194277891
30
0.0000000000
10
-0.5652055101
20
-14.1988625695
30
0.0000000000
10
-0.8883133773
20
-14.3460671350
30
0.0000000000
10
-1.1753471198
20
-14.5550635509
30
0.0000000000
10
-1.4146503949
20
-14.8173645372
30
0.0000000000
10
-1.5965051796
20
-15.1223181343
30
0.0000000000
10
-1.7135264157
20
-15.4575402754
30
0.0000000000
10
-1.7609619141
20
-15.8094177002
30
0.0000000000
10
-1.7368853390
20
-16.1636607841
30
0.0000000000
10
-1.6422744358
20
-16.5058838353
30
0.0000000000
10
-1.4809713244
20
-16.8221892925
30
0.0000000000
10
-1.2595264720
20
-17.0997320999
30
0.0000000000
10
-0.9869326806
20
-17.3272413405
30
0.0000000000
10
-0.6742598923
20
-17.4954779436
30
0.0000000000
10
-0.3342056429
20
-17.5976098800
30
0.0000000000
10
0.0194205810
20
-17.6294896084
30
0.0000000000
10
0.3722581399
20
-17.5898225054
30
0.0000000000
10
0.7099784221
20
-17.4802194390
30
0.0000000000
10
1.0188667234
20
-17.3051313527
30
0.0000000000
10
1.2863791967
20
-17.0716685135
30
0.0000000000
10
1.5016522523
20
-16.7893117666
30
0.0000000000
10
1.6559437254
20
-16.4695275219
30
0.0000000000
10
1.7429878916
20
-16.1253021071
30
0.0000000000
10
1.7592499160
20
-15.7706143977
30
0.0000000000
10
1.7040694019
20
-15.4198681396
30
0.0000000000
10
1.5796872091
20
-15.0873070185
30
0.0000000000
10
1.3911544539
20
-14.7864362285
30
0.0000000000
10
1.1461273849
20
-14.5294740312
30
0.0000000000
10
0.8545564661
20
-14.3268555762
30
0.0000000000
10
0.5282822917
20
-14.1868091329
30
0.0000000000
10
0.1805547443
20
-14.1150219434
30
0.0000000000
10
-0.1745050778
20
-14.1144092655
30
0.0000000000
10
-0.5224783142
20
-14.1849959840
30
0.0000000000
10
-0.8492338866
20
-14.3239156004
30
0.0000000000
10
-1.1415023572
20
-14.5255266397
30
0.0000000000
10
-1.3874147966
20
-14.7816417483
30
0.0000000000
10
-1.5769847768
20
-15.0818601795
30
0.0000000000
10
-1.7025139172
20
-15.4139901633
30
0.0000000000
10
-1.7589045140
20
-15.7645440104
30
0.0000000000
10
-1.7438665562
20
-16.1192858422
30
0.0000000000
10
-1.6580107235
20
-16.4638097052
30
0.0000000000
10
-1.5048235868
20
-16.7841245916
30
0.0000000000
10
-1.2905260212
20
-17.0672226104
30
0.0000000000
10
-1.0238205780
20
-17.3016072332
30
0.0000000000
10
-0.7155380783
20
-17.4777601657
30
0.0000000000
10
-0.3781977769
20
-17.5885278826
30
0.0000000000
10
-0.0254989599
20
-17.6294121314
30
0.0000000000
10
0.3282353788
20
-17.5987526051
30
0.0000000000
10
0.6686401899
20
-17.4977943683
30
0.0000000000
10
0.9818917289
20
-17.3306372960
30
0.0000000000
10
1.2552689346
20
-17.1040695803
30
0.0000000000
10
1.4776700279
20
-16.8272920642
30
0.0000000000
10
1.6400633528
20
-16.5115445994
30
0.0000000000
10
1.7358541500
20
-16.1696495997
30
0.0000000000
10
1.7611523689
20
-15.8154913267
30
0.0000000000
10
1.7149306433
20
-15.4634520543
30
0.0000000000
10
1.5990660128
20
-15.1278280086
30
0.0000000000
10
1.4182636985
20
-14.8222488018
30
0.0000000000
10
1.1798660261
20
-14.5591239369
30
0.0000000000
10
0.8935542572
20
-14.3491388602
30
0.0000000000
10
0.5709554366
20
-14.2008210276
30
0.0000000000
10
0.2251702218
20
-14.1201936050
30
0.0000000000
10
-0.1297591310
20
-14.1105308684
30
0.0000000000
10
-0.4794190193
20
-14.1722252347
30
0.0000000000
10
-0.8096098274
20
-14.3027713240
30
0.0000000000
10
-1.1069225684
20
-14.4968677022
30
0.0000000000
10
-1.3592834275
20
-14.7466321662
30
0.0000000000
10
-1.5564440512
20
-15.0419218498
30
0.0000000000
10
-1.6903978324
20
-15.3707450746
30
0.0000000000
10
-1.7557046834
20
-15.7197485070
30
0.0000000000
10
-1.7507926300
20
-16.0108074662
30
0.0000000000
10
-1.7226475501
20
-16.1805441083
30
0.0000000000
10
-1.7113348261
20
-16.2334656787
30
0.0000000000
11
-1.7201078730
21
-16.1897399185
31
0.0000000000
11
-1.7170753800
21
-16.2055355335
31
0.0000000000
11
-1.6144709558
21
-16.5429369818
31
0.0000000000
11
-1.4463032584
21
-16.8529160368
31
0.0000000000
11
-1.2194015492
21
-17.1228845305
31
0.0000000000
11
-0.9429802608
21
-17.3418791174
31
0.0000000000
11
-0.6282648002
21
-17.5010064929
31
0.0000000000
11
-0.2880356869
21
-17.5938045461
31
0.0000000000
11
0.0638904606
21
-17.6165047842
31
0.0000000000
11
0.4132220141
21
-17.5681853684
31
0.0000000000
11
0.7457727156
21
-17.4508085485
31
0.0000000000
11
1.0480377761
21
-17.2691409756
31
0.0000000000
11
1.3077423016
21
-17.0305601281
31
0.0000000000
11
1.5143397720
21
-16.7447547146
31
0.0000000000
11
1.6594403316
21
-16.4233312167
31
0.0000000000
11
1.7371514979
21
-16.0793425531
31
0.0000000000
11
1.7443174524
21
-15.7267580042
31
0.0000000000
11
1.6806471972
21
-15.3798959233
31
0.0000000000
11
1.5487263706
21
-15.0528422735
31
0.0000000000
11
1.3539122450
21
-14.7588786003
31
0.0000000000
11
1.1041161688
21
-14.5099426737
31
0.0000000000
11
0.8094822883
21
-14.3161436984
31
0.0000000000
11
0.4819755969
21
-14.1853517838
31
0.0000000000
11
0.1348960402
21
-14.1228783416
31
0.0000000000
11
-0.2176615908
21
-14.1312603917
31
0.0000000000
11
-0.5613800444
21
-14.2101575352
31
0.0000000000
11
-0.8823010272
21
-14.3563657790
31
0.0000000000
11
-1.1673920451
21
-14.5639476489
31
0.0000000000
11
-1.4050756489
21
-14.8244733089
31
0.0000000000
11
-1.5856995898
21
-15.1273628950
31
0.0000000000
11
-1.7019287936
21
-15.4603161594
31
0.0000000000
11
-1.7490432353
21
-15.8098119799
31
0.0000000000
11
-1.7251296171
21
-16.1616574482
31
0.0000000000
11
-1.6311590668
21
-16.5015642388
31
0.0000000000
11
-1.4709476996
21
-16.8157288528
31
0.0000000000
11
-1.2510016474
21
-17.0913931736
31
0.0000000000
11
-0.9802528463
21
-17.3173625686
31
0.0000000000
11
-0.6696963141
21
-17.4844604997
31
0.0000000000
11
-0.3319436460
21
-17.5859011789
31
0.0000000000
11
0.0192891377
21
-17.6175651365
31
0.0000000000
11
0.3697385944
21
-17.5781665114
31
0.0000000000
11
0.7051730922
21
-17.4693052689
31
0.0000000000
11
1.0119707521
21
-17.2954022272
31
0.0000000000
11
1.2776726269
21
-17.0635195291
31
0.0000000000
11
1.4914886550
21
-16.7830738507
31
0.0000000000
11
1.6447358407
21
-16.4654539943
31
0.0000000000
11
1.7311908678
21
-16.1235583924
31
0.0000000000
11
1.7473428263
21
-15.7712713076
31
0.0000000000
11
1.6925357892
21
-15.4228989974
31
0.0000000000
11
1.5689954496
21
-15.0925887421
31
0.0000000000
11
1.3817387363
21
-14.7937543291
31
0.0000000000
11
1.1383700786
21
-14.5385313232
31
0.0000000000
11
0.8487725927
21
-14.3372842462
31
0.0000000000
11
0.5247067325
21
-14.1981856761
31
0.0000000000
11
0.1793327019
21
-14.1268843624
31
0.0000000000
11
-0.1733239765
21
-14.1262758312
31
0.0000000000
11
-0.5189420331
21
-14.1963847991
31
0.0000000000
11
-0.8434860325
21
-14.3343641688
31
0.0000000000
11
-1.1337763485
21
-14.5346106483
31
0.0000000000
11
-1.3780243837
21
-14.7889922982
31
0.0000000000
11
-1.5663113012
21
-15.0871787670
31
0.0000000000
11
-1.6909908252
21
-15.4170608019
31
0.0000000000
11
-1.7469997546
21
-15.7652420021
31
0.0000000000
11
-1.7320635779
21
-16.1175828415
31
0.0000000000
11
-1.6467888416
21
-16.4597748698
31
0.0000000000
11
-1.4946385188
21
-16.7779217747
31
0.0000000000
11
-1.2817913796
21
-17.0591037060
31
0.0000000000
11
-1.0168910744
21
-17.2919019473
31
0.0000000000
11
-0.7106951181
21
-17.4668626267
31
0.0000000000
11
-0.3756380319
21
-17.5768806363
31
0.0000000000
11
-0.0253263810
21
-17.6174881688
31
0.0000000000
11
0.3260137827
21
-17.5870361549
31
0.0000000000
11
0.6641146366
21
-17.4867612323
31
0.0000000000
11
0.9752459993
21
-17.3207355271
31
0.0000000000
11
1.2467729094
21
-17.0957012868
31
0.0000000000
11
1.4676687280
21
-16.8207970807
31
0.0000000000
11
1.6289629280
21
-16.5071866860
31
0.0000000000
11
1.7241053852
21
-16.1676057307
31
0.0000000000
11
1.7492323785
21
-15.8158445038
31
0.0000000000
11
1.7033234949
21
-15.4661879358
31
0.0000000000
11
1.5882430701
21
-15.1328354917
31
0.0000000000
11
1.4086644788
21
-14.8293245345
31
0.0000000000
11
1.1718803519
21
-14.5679805760
31
0.0000000000
11
0.8875064254
21
-14.3594167402
31
0.0000000000
11
0.5670910490
21
-14.2121027665
31
0.0000000000
11
0.2236462111
21
-14.1320210542
31
0.0000000000
11
-0.1288808743
21
-14.1224237179
31
0.0000000000
11
-0.4761741601
21
-14.1837005183
31
0.0000000000
11
-0.8041301378
21
-14.3133630327
31
0.0000000000
11
-1.0994305775
21
-14.5061457080
31
0.0000000000
11
-1.3500833795
21
-14.7542196921
31
0.0000000000
11
-1.5459095708
21
-15.0475107608
31
0.0000000000
11
-1.6789566733
21
-15.3741084287
31
0.0000000000
11
-1.7438216525
21
-15.7207496307
31
0.0000000000
11
-1.7378703361
21
-16.0733573320
31
0.0000000000
11
-1.7113348261
21
-16.2334656787
31
0.0000000000
0
SPLINE
5
471
100
AcDbEntity
8
0
100
AcDbSpline
62
7
6
CONTINUOUS
70
0
71
3
72
39
73
35
74
33
42
0.0000001000
43
0.0000001000
44
0.0000000001
12
2.7273063257
22
-10.5764793499
32
0.0000000000
13
2.2832470965
23
-10.6811605552
33
0.0000000000
40
0.0000000000
40
0.0000000000
40
0.0000000000
40
0.0000000000
40
0.0148646752
40
0.0472070281
40
0.0795493823
40
0.1118917378
40
0.1442340945
40
0.1765764526
40
0.2089188122
40
0.2412611732
40
0.2736035357
40
0.3059458999
40
0.3382882656
40
0.3706306331
40
0.4029730023
40
0.4353153732
40
0.4676577461
40
0.5000001208
40
0.5323424975
40
0.5646848762
40
0.5970272569
40
0.6293696397
40
0.6617120248
40
0.6940544120
40
0.7263968015
40
0.7587391933
40
0.7910815875
40
0.8234239841
40
0.8557663832
40
0.8881087849
40
0.9204511891
40
0.9527935960
40
0.9851360056
40
1.0000000000
40
1.0000000000
40
1.0000000000
40
1.0000000000
10
-1.6945535879
20
-16.3046630714
30
0.0000000000
10
-1.6810400804
20
-16.3570683814
30
0.0000000000
10
-1.6304168206
20
-16.5215086612
30
0.0000000000
10
-1.5048235868
20
-16.7841245916
30
0.0000000000
10
-1.2905260212
20
-17.0672226104
30
0.0000000000
10
-1.0238205780
20
-17.3016072332
30
0.0000000000
10
-0.7155380783
20
-17.4777601657
30
0.0000000000
10
-0.3781977769
20
-17.5885278826
30
0.0000000000
10
-0.0254989599
20
-17.6294121314
30
0.0000000000
10
0.3282353788
20
-17.5987526051
30
0.0000000000
10
0.6686401899
20
-17.4977943683
30
0.0000000000
10
0.9818917289
20
-17.3306372960
30
0.0000000000
10
1.2552689346
20
-17.1040695803
30
0.0000000000
10
1.4776700279
20
-16.8272920642
30
0.0000000000
10
1.6400633528
20
-16.5115445994
30
0.0000000000
10
1.7358541500
20
-16.1696495997
30
0.0000000000
10
1.7611523689
20
-15.8154913267
30
0.0000000000
10
1.7149306433
20
-15.4634520543
30
0.0000000000
10
1.5990660128
20
-15.1278280086
30
0.0000000000
10
1.4182636985
20
-14.8222488018
30
0.0000000000
10
1.1798660261
20
-14.5591239369
30
0.0000000000
10
0.8935542572
20
-14.3491388602
30
0.0000000000
10
0.5709554366
20
-14.2008210276
30
0.0000000000
10
0.2251702218
20
-14.1201936050
30
0.0000000000
10
-0.1297591310
20
-14.1105308684
30
0.0000000000
10
-0.4794190193
20
-14.1722252347
30
0.0000000000
10
-0.8096098274
20
-14.3027713240
30
0.0000000000
10
-1.1069225684
20
-14.4968677022
30
0.0000000000
10
-1.3592834275
20
-14.7466321662
30
0.0000000000
10
-1.5564440512
20
-15.0419218498
30
0.0000000000
10
-1.6903978324
20
-15.3707450746
30
0.0000000000
10
-1.7557046834
20
-15.7197485070
30
0.0000000000
10
-1.7507926300
20
-16.0108074662
30
0.0000000000
10
-1.7226475501
20
-16.1805441083
30
0.0000000000
10
-1.7113348261
20
-16.2334656787
30
0.0000000000
11
-1.6945535879
21
-16.3046630714
31
0.0000000000
11
-1.6467888416
21
-16.4597748698
31
0.0000000000
11
-1.4946385188
21
-16.7779217747
31
0.0000000000
11
-1.2817913796
21
-17.0591037060
31
0.0000000000
11
-1.0168910744
21
-17.2919019473
31
0.0000000000
11
-0.7106951181
21
-17.4668626267
31
0.0000000000
11
-0.3756380319
21
-17.5768806363
31
0.0000000000
11
-0.0253263810
21
-17.6174881688
31
0.0000000000
11
0.3260137827
21
-17.5870361549
31
0.0000000000
11
0.6641146366
21
-17.4867612323
31
0.0000000000
11
0.9752459993
21
-17.3207355271
31
0.0000000000
11
1.2467729094
21
-17.0957012868
31
0.0000000000
11
1.4676687280
21
-16.8207970807
31
0.0000000000
11
1.6289629280
21
-16.5071866860
31
0.0000000000
11
1.7241053852
21
-16.1676057307
31
0.0000000000
11
1.7492323785
21
-15.8158445038
31
0.0000000000
11
1.7033234949
21
-15.4661879358
31
0.0000000000
11
1.5882430701
21
-15.1328354917
31
0.0000000000
11
1.4086644788
21
-14.8293245345
31
0.0000000000
11
1.1718803519
21
-14.5679805760
31
0.0000000000
11
0.8875064254
21
-14.3594167402
31
0.0000000000
11
0.5670910490
21
-14.2121027665
31
0.0000000000
11
0.2236462111
21
-14.1320210542
31
0.0000000000
11
-0.1288808743
21
-14.1224237179
31
0.0000000000
11
-0.4761741601
21
-14.1837005183
31
0.0000000000
11
-0.8041301378
21
-14.3133630327
31
0.0000000000
11
-1.0994305775
21
-14.5061457080
31
0.0000000000
11
-1.3500833795
21
-14.7542196921
31
0.0000000000
11
-1.5459095708
21
-15.0475107608
31
0.0000000000
11
-1.6789566733
21
-15.3741084287
31
0.0000000000
11
-1.7438216525
21
-15.7207496307
31
0.0000000000
11
-1.7378703361
21
-16.0733573320
31
0.0000000000
11
-1.7113348261
21
-16.2334656787
31
0.0000000000
0
SPLINE
5
472
100
AcDbEntity
8
0
100
AcDbSpline
62
7
6
CONTINUOUS
70
0
71
3
72
23
73
19
74
17
42
0.0000001000
43
0.0000001000
44
0.0000000001
12
1.3636534923
22
-5.2882409526
32
0.0000000000
13
-1.2528949057
23
5.3154991707
33
0.0000000000
40
0.0000000000
40
0.0000000000
40
0.0000000000
40
0.0000000000
40
0.0297293432
40
0.0944140335
40
0.1590987262
40
0.2237834215
40
0.2884681193
40
0.3531528200
40
0.4178375234
40
0.4825222298
40
0.5472069393
40
0.6118916519
40
0.6765763678
40
0.7412610871
40
0.8059458098
40
0.8706305362
40
0.9353152662
40
1.0000000000
40
1.0000000000
40
1.0000000000
40
1.0000000000
10
-1.6945535879
20
-16.3046630714
30
0.0000000000
10
-1.6810400804
20
-16.3570683814
30
0.0000000000
10
-1.6304168206
20
-16.5215086612
30
0.0000000000
10
-1.5048235868
20
-16.7841245916
30
0.0000000000
10
-1.2905260212
20
-17.0672226104
30
0.0000000000
10
-1.0238205780
20
-17.3016072332
30
0.0000000000
10
-0.7155380783
20
-17.4777601657
30
0.0000000000
10
-0.3781977769
20
-17.5885278826
30
0.0000000000
10
-0.0254989599
20
-17.6294121314
30
0.0000000000
10
0.3282353788
20
-17.5987526051
30
0.0000000000
10
0.6686401899
20
-17.4977943683
30
0.0000000000
10
0.9818917289
20
-17.3306372960
30
0.0000000000
10
1.2552689346
20
-17.1040695803
30
0.0000000000
10
1.4776700279
20
-16.8272920642
30
0.0000000000
10
1.6400633528
20
-16.5115445994
30
0.0000000000
10
1.7358541500
20
-16.1696495997
30
0.0000000000
10
1.7611523689
20
-15.8154913267
30
0.0000000000
10
1.7303378861
20
-15.5807984854
30
0.0000000000
10
1.7033234949
20
-15.4661879358
30
0.0000000000
11
-1.6945535879
21
-16.3046630714
31
0.0000000000
11
-1.6467888416
21
-16.4597748698
31
0.0000000000
11
-1.4946385188
21
-16.7779217747
31
0.0000000000
11
-1.2817913796
21
-17.0591037060
31
0.0000000000
11
-1.0168910744
21
-17.2919019473
31
0.0000000000
11
-0.7106951181
21
-17.4668626267
31
0.0000000000
11
-0.3756380319
21
-17.5768806363
31
0.0000000000
11
-0.0253263810
21
-17.6174881688
31
0.0000000000
11
0.3260137827
21
-17.5870361549
31
0.0000000000
11
0.6641146366
21
-17.4867612323
31
0.0000000000
11
0.9752459993
21
-17.3207355271
31
0.0000000000
11
1.2467729094
21
-17.0957012868
31
0.0000000000
11
1.4676687280
21
-16.8207970807
31
0.0000000000
11
1.6289629280
21
-16.5071866860
31
0.0000000000
11
1.7241053852
21
-16.1676057307
31
0.0000000000
11
1.7492323785
21
-15.8158445038
31
0.0000000000
11
1.7033234949
21
-15.4661879358
31
0.0000000000
0
SPLINE
5
473
100
AcDbEntity
8
0
100
AcDbSpline
62
7
6
CONTINUOUS
70
0
71
3
72
13
73
9
74
7
42
0.0000001000
43
0.0000001000
44
0.0000000001
12
-1.2050304329
22
0.4880162209
32
0.0000000000
13
-0.1438790365
23
1.2921133847
33
0.0000000000
40
0.0000000000
40
0.0000000000
40
0.0000000000
40
0.0000000000
40
0.1613838027
40
0.3241385287
40
0.4888869407
40
0.6581031673
40
0.8294489609
40
1.0000000000
40
1.0000000000
40
1.0000000000
40
1.0000000000
10
-0.5046989970
20
-16.9295549715
30
0.0000000000
10
-0.5695231282
20
-16.9033023337
30
0.0000000000
10
-0.6952758371
20
-16.8387576308
30
0.0000000000
10
-0.8644976433
20
-16.7095115919
30
0.0000000000
10
-1.0105433141
20
-16.5498122726
30
0.0000000000
10
-1.1277199758
20
-16.3633823629
30
0.0000000000
10
-1.2103112973
20
-16.1566005299
30
0.0000000000
10
-1.2398958402
20
-16.0104665872
30
0.0000000000
10
-1.2480754132
20
-15.9370094937
30
0.0000000000
11
-0.5046989970
21
-16.9295549715
31
0.0000000000
11
-0.6913834798
21
-16.8337884602
31
0.0000000000
11
-0.8595922774
21
-16.7054170472
31
0.0000000000
11
-1.0041802400
21
-16.5473937109
31
0.0000000000
11
-1.1213154473
21
-16.3611722892
31
0.0000000000
11
-1.2039941250
21
-16.1543168566
31
0.0000000000
11
-1.2480754132
21
-15.9370094937
31
0.0000000000
0
SPLINE
5
474
100
AcDbEntity
8
0
100
AcDbSpline
62
7
6
CONTINUOUS
70
0
71
3
72
17
73
13
74
11
42
0.0000001000
43
0.0000001000
44
0.0000000001
12
0.0604728503
22
-2.3050711198
32
0.0000000000
13
-2.1066144821
23
0.9376487918
33
0.0000000000
40
0.0000000000
40
0.0000000000
40
0.0000000000
40
0.0000000000
40
0.0977216605
40
0.1968021530
40
0.2969217119
40
0.3961620477
40
0.4956399904
40
0.5952749887
40
0.6960742865
40
0.7965945590
40
0.8982138703
40
1.0000000000
40
1.0000000000
40
1.0000000000
40
1.0000000000
10
1.1167031803
20
-15.8676714602
30
0.0000000000
10
1.1186730161
20
-15.9427565860
30
0.0000000000
10
1.1072869848
20
-16.0948099157
30
0.0000000000
10
1.0443547140
20
-16.3157489898
30
0.0000000000
10
0.9374143704
20
-16.5205200121
30
0.0000000000
10
0.7912277723
20
-16.6996965953
30
0.0000000000
10
0.6124611927
20
-16.8457951249
30
0.0000000000
10
0.4071077500
20
-16.9538837817
30
0.0000000000
10
0.1835152675
20
-17.0190422285
30
0.0000000000
10
-0.0501004597
20
-17.0384027242
30
0.0000000000
10
-0.2835867316
20
-17.0107710133
30
0.0000000000
10
-0.4332242854
20
-16.9613681854
30
0.0000000000
10
-0.5046989970
20
-16.9295549715
30
0.0000000000
11
1.1167031803
21
-15.8676714602
31
0.0000000000
11
1.0998884339
21
-16.0923760921
31
0.0000000000
11
1.0373609877
21
-16.3121193656
31
0.0000000000
11
0.9305199550
21
-16.5167710384
31
0.0000000000
11
0.7858926192
21
-16.6941076452
31
0.0000000000
11
0.6083042671
21
-16.8392929332
31
0.0000000000
11
0.4050208124
21
-16.9463373174
31
0.0000000000
11
0.1818837054
21
-17.0114011442
31
0.0000000000
11
-0.0491064646
21
-17.0305932726
31
0.0000000000
11
-0.2818049019
21
-17.0030713451
31
0.0000000000
11
-0.5046989970
21
-16.9295549715
31
0.0000000000
0
SPLINE
5
475
100
AcDbEntity
8
0
100
AcDbSpline
62
7
6
CONTINUOUS
70
0
71
3
72
11
73
7
74
5
42
0.0000001000
43
0.0000001000
44
0.0000000001
12
-0.4754181065
22
0.5296959284
32
0.0000000000
13
-0.0203416954
23
0.7114677561
33
0.0000000000
40
0.0000000000
40
0.0000000000
40
0.0000000000
40
0.0000000000
40
0.2464609416
40
0.4954310696
40
0.7481850486
40
1.0000000000
40
1.0000000000
40
1.0000000000
40
1.0000000000
10
-0.7664946741
20
-16.5162744425
30
0.0000000000
10
-0.8055520055
20
-16.4727579901
30
0.0000000000
10
-0.8765511790
20
-16.3781989950
30
0.0000000000
10
-0.9571595198
20
-16.2190608205
30
0.0000000000
10
-1.0090083108
20
-16.0470158564
30
0.0000000000
10
-1.0229584164
20
-15.9273908663
30
0.0000000000
10
-1.0246658640
20
-15.8676714602
30
0.0000000000
11
-0.7664946741
21
-16.5162744425
31
0.0000000000
11
-0.8718305626
21
-16.3760005622
31
0.0000000000
11
-0.9519420169
21
-16.2179362237
31
0.0000000000
11
-1.0038616325
21
-16.0456913736
31
0.0000000000
11
-1.0246658640
21
-15.8676714602
31
0.0000000000
0
SPLINE
5
476
100
AcDbEntity
8
0
100
AcDbSpline
62
7
6
CONTINUOUS
70
0
71
3
72
21
73
17
74
15
42
0.0000001000
43
0.0000001000
44
0.0000000001
12
-0.0959655314
22
3.3564744706
32
0.0000000000
13
0.0880617864
23
-3.3566911352
33
0.0000000000
40
0.0000000000
40
0.0000000000
40
0.0000000000
40
0.0000000000
40
0.0687099243
40
0.1377453264
40
0.2067243919
40
0.2762245780
40
0.3471048574
40
0.4179688228
40
0.4880628375
40
0.5595757708
40
0.6327223724
40
0.7056572152
40
0.7774495193
40
0.8511657288
40
0.9260050942
40
1.0000000000
40
1.0000000000
40
1.0000000000
40
1.0000000000
10
-1.0246658640
20
-15.8676714602
30
0.0000000000
10
-1.0268637922
20
-15.7907970912
30
0.0000000000
10
-1.0137820853
20
-15.6356301277
30
0.0000000000
10
-0.9427969423
20
-15.4134454547
30
0.0000000000
10
-0.8238111681
20
-15.2116983982
30
0.0000000000
10
-0.6617021325
20
-15.0398012502
30
0.0000000000
10
-0.4635282048
20
-14.9071447315
30
0.0000000000
10
-0.2401005620
20
-14.8219579733
30
0.0000000000
10
-0.0027399584
20
-14.7881864036
30
0.0000000000
10
0.2388516452
20
-14.8078619309
30
0.0000000000
10
0.4730140751
20
-14.8821779468
30
0.0000000000
10
0.6846953415
20
-15.0074068622
30
0.0000000000
10
0.8637689184
20
-15.1767728079
30
0.0000000000
10
1.0021559363
20
-15.3834844913
30
0.0000000000
10
1.0914612797
20
-15.6182402945
30
0.0000000000
10
1.1145311392
20
-15.7848787787
30
0.0000000000
10
1.1167031803
20
-15.8676714602
30
0.0000000000
11
-1.0246658640
21
-15.8676714602
31
0.0000000000
11
-1.0052990332
21
-15.6377683909
31
0.0000000000
11
-0.9348351357
21
-15.4169271970
31
0.0000000000
11
-0.8172062604
21
-15.2173983160
31
0.0000000000
11
-0.6571340659
21
-15.0475781693
31
0.0000000000
11
-0.4593807254
21
-14.9151393962
31
0.0000000000
11
-0.2370641966
21
-14.8303119211
31
0.0000000000
11
-0.0040535158
21
-14.7971055283
31
0.0000000000
11
0.2352875623
21
-14.8165474350
31
0.0000000000
11
0.4694121540
21
-14.8907930948
31
0.0000000000
11
0.6802257137
21
-15.0154349828
31
0.0000000000
11
0.8554002995
21
-15.1810472021
31
0.0000000000
11
0.9931558882
21
-15.3867006787
31
0.0000000000
11
1.0825322277
21
-15.6215689231
31
0.0000000000
11
1.1167031803
21
-15.8676714602
31
0.0000000000
0
SPLINE
5
477
100
AcDbEntity
8
0
100
AcDbSpline
62
7
6
CONTINUOUS
70
0
71
3
72
13
73
9
74
7
42
0.0000001000
43
0.0000001000
44
0.0000000001
12
1.0648392800
22
-0.0000044219
32
0.0000000000
13
-0.0000000000
23
1.0648397807
33
0.0000000000
40
0.0000000000
40
0.0000000000
40
0.0000000000
40
0.0000000000
40
0.2440870740
40
0.3951693087
40
0.5865961509
40
0.7510185578
40
0.8853899118
40
1.0000000000
40
1.0000000000
40
1.0000000000
40
1.0000000000
10
-9.1587981889
20
48.2927990091
30
0.0000000000
10
-9.0721603542
20
48.2927986493
30
0.0000000000
10
-8.9289224176
20
48.3190621118
30
0.0000000000
10
-8.7507236537
20
48.4325936795
30
0.0000000000
10
-8.6394645008
20
48.5794383125
30
0.0000000000
10
-8.5777050464
20
48.7433746273
30
0.0000000000
10
-8.5502325916
20
48.8883194058
30
0.0000000000
10
-8.5494247919
20
48.9769209194
30
0.0000000000
10
-8.5494247919
20
49.0176013798
30
0.0000000000
11
-9.1587981889
21
48.2927990091
31
0.0000000000
11
-8.9040589396
21
48.3444030614
31
0.0000000000
11
-8.7685983024
21
48.4311916948
31
0.0000000000
11
-8.6431652708
21
48.5918679485
31
0.0000000000
11
-8.5793052561
21
48.7548898409
31
0.0000000000
11
-8.5535032299
21
48.8956281653
31
0.0000000000
11
-8.5494247919
21
49.0176013798
31
0.0000000000
0
SPLINE
5
478
100
AcDbEntity
8
0
100
AcDbSpline
62
7
6
CONTINUOUS
70
0
71
3
72
13
73
9
74
7
42
0.0000001000
43
0.0000001000
44
0.0000000001
12
0.0000000000
22
1.0648355986
32
0.0000000000
13
-1.0648358245
23
0.0000019945
33
0.0000000000
40
0.0000000000
40
0.0000000000
40
0.0000000000
40
0.0000000000
40
0.1146105383
40
0.2489824200
40
0.4134054727
40
0.6048330667
40
0.7559158948
40
1.0000000000
40
1.0000000000
40
1.0000000000
40
1.0000000000
10
-8.5494247919
20
49.0176013798
30
0.0000000000
10
-8.5494247919
20
49.0582818402
30
0.0000000000
10
-8.5502325916
20
49.1468833538
30
0.0000000000
10
-8.5777050464
20
49.2918281323
30
0.0000000000
10
-8.6394645008
20
49.4557644471
30
0.0000000000
10
-8.7507236537
20
49.6026090801
30
0.0000000000
10
-8.9289212245
20
49.7161398877
30
0.0000000000
10
-9.0721575070
20
49.7424035882
30
0.0000000000
10
-9.1587940068
20
49.7424037505
30
0.0000000000
11
-8.5494247919
21
49.0176013798
31
0.0000000000
11
-8.5535032299
21
49.1395745943
31
0.0000000000
11
-8.5793052561
21
49.2803129187
31
0.0000000000
11
-8.6431652708
21
49.4433348111
31
0.0000000000
11
-8.7685983024
21
49.6040110648
31
0.0000000000
11
-8.9040589396
21
49.6907996982
31
0.0000000000
11
-9.1587940068
21
49.7424037505
31
0.0000000000
0
SPLINE
5
479
100
AcDbEntity
8
0
100
AcDbSpline
62
7
6
CONTINUOUS
70
0
71
3
72
13
73
9
74
7
42
0.0000001000
43
0.0000001000
44
0.0000000001
12
0.0000000000
22
0.7991582940
32
0.0000000000
13
-0.7991583140
23
0.0000003690
33
0.0000000000
40
0.0000000000
40
0.0000000000
40
0.0000000000
40
0.0000000000
40
0.1705953320
40
0.3141158763
40
0.5170637640
40
0.6977977780
40
0.8426898817
40
1.0000000000
40
1.0000000000
40
1.0000000000
40
1.0000000000
10
-8.7504540049
20
49.0176013798
30
0.0000000000
10
-8.7504540049
20
49.0630456046
30
0.0000000000
10
-8.7562624083
20
49.1467190357
30
0.0000000000
10
-8.7798389275
20
49.2828753888
30
0.0000000000
10
-8.8395105032
20
49.4129443125
30
0.0000000000
10
-8.9411654793
20
49.5158600448
30
0.0000000000
10
-9.0621836907
20
49.5659133380
30
0.0000000000
10
-9.1431609648
20
49.5746905612
30
0.0000000000
10
-9.1850661945
20
49.5746905806
30
0.0000000000
11
-8.7504540049
21
49.0176013798
31
0.0000000000
11
-8.7592743884
21
49.1536484267
31
0.0000000000
11
-8.7811474697
21
49.2662390863
31
0.0000000000
11
-8.8505197354
21
49.4128415075
31
0.0000000000
11
-8.9539037629
21
49.5137039733
31
0.0000000000
11
-9.0602784797
21
49.5594439288
31
0.0000000000
11
-9.1850661945
21
49.5746905806
31
0.0000000000
0
SPLINE
5
47A
100
AcDbEntity
8
0
100
AcDbSpline
62
7
6
CONTINUOUS
70
0
71
3
72
13
73
9
74
7
42
0.0000001000
43
0.0000001000
44
0.0000000001
12
0.7991563960
22
0.0000032433
32
0.0000000000
13
0.0000000000
23
0.7991562205
33
0.0000000000
40
0.0000000000
40
0.0000000000
40
0.0000000000
40
0.0000000000
40
0.1573079319
40
0.3022004115
40
0.4829348944
40
0.6858833087
40
0.8294042253
40
1.0000000000
40
1.0000000000
40
1.0000000000
40
1.0000000000
10
-9.1850641210
20
48.4605121790
30
0.0000000000
10
-9.1431595744
20
48.4605123491
30
0.0000000000
10
-9.0621830406
20
48.4692896906
30
0.0000000000
10
-8.9411654793
20
48.5193427148
30
0.0000000000
10
-8.8395105032
20
48.6222584471
30
0.0000000000
10
-8.7798389275
20
48.7523273708
30
0.0000000000
10
-8.7562624083
20
48.8884837239
30
0.0000000000
10
-8.7504540049
20
48.9721571550
30
0.0000000000
10
-8.7504540049
20
49.0176013798
30
0.0000000000
11
-9.1850641210
21
48.4605121790
31
0.0000000000
11
-9.0602784797
21
48.4757588308
31
0.0000000000
11
-8.9539037629
21
48.5214987863
31
0.0000000000
11
-8.8505197354
21
48.6223612521
31
0.0000000000
11
-8.7811474697
21
48.7689636733
31
0.0000000000
11
-8.7592743884
21
48.8815543329
31
0.0000000000
11
-8.7504540049
21
49.0176013798
31
0.0000000000
0
SPLINE
5
47B
100
AcDbEntity
8
0
100
AcDbSpline
62
7
6
CONTINUOUS
70
0
71
3
72
16
73
12
74
10
42
0.0000001000
43
0.0000001000
44
0.0000000001
12
0.4380317067
22
-0.0000027689
32
0.0000000000
13
0.0000000000
23
-0.4380314419
33
0.0000000000
40
0.0000000000
40
0.0000000000
40
0.0000000000
40
0.0000000000
40
0.1770845350
40
0.2992436403
40
0.4145676107
40
0.5239751353
40
0.6330267935
40
0.7092132113
40
0.7908982582
40
0.8800905389
40
1.0000000000
40
1.0000000000
40
1.0000000000
40
1.0000000000
10
8.5237868545
20
48.2789629654
30
0.0000000000
10
8.5496430682
20
48.2789628019
30
0.0000000000
10
8.5935501665
20
48.2767205036
30
0.0000000000
10
8.6526664850
20
48.2632791308
30
0.0000000000
10
8.7007089579
20
48.2459808991
30
0.0000000000
10
8.7407875985
20
48.2174924421
30
0.0000000000
10
8.7707464653
20
48.1859898938
30
0.0000000000
10
8.7896545492
20
48.1516265718
30
0.0000000000
10
8.8018809366
20
48.1175384429
30
0.0000000000
10
8.8096168275
20
48.0756380056
30
0.0000000000
10
8.8111014086
20
48.0450537117
30
0.0000000000
10
8.8111014086
20
48.0275456737
30
0.0000000000
11
8.5237868545
21
48.2789629654
31
0.0000000000
11
8.6011764706
21
48.2736964830
31
0.0000000000
11
8.6533833399
21
48.2619613863
31
0.0000000000
11
8.7004382156
21
48.2435859421
31
0.0000000000
11
8.7398223450
21
48.2162803756
31
0.0000000000
11
8.7721081721
21
48.1810750854
31
0.0000000000
11
8.7884800632
21
48.1519949433
31
0.0000000000
11
8.8006158705
21
48.1183352512
31
0.0000000000
11
8.8080576392
21
48.0799815205
31
0.0000000000
11
8.8111014086
21
48.0275456737
31
0.0000000000
0
SPLINE
5
47C
100
AcDbEntity
8
0
100
AcDbSpline
62
7
6
CONTINUOUS
70
0
71
3
72
16
73
12
74
10
42
0.0000001000
43
0.0000001000
44
0.0000000001
12
0.0000000000
22
-0.4380344469
32
0.0000000000
13
-0.4380345452
23
-0.0000010274
33
0.0000000000
40
0.0000000000
40
0.0000000000
40
0.0000000000
40
0.0000000000
40
0.1199086385
40
0.2091003073
40
0.2907847939
40
0.3669706890
40
0.4760215991
40
0.5854283731
40
0.7007515523
40
0.8229098197
40
1.0000000000
40
1.0000000000
40
1.0000000000
40
1.0000000000
10
8.8111014086
20
48.0275456737
30
0.0000000000
10
8.8111014086
20
48.0100376356
30
0.0000000000
10
8.8096168275
20
47.9794533417
30
0.0000000000
10
8.8018809366
20
47.9375529044
30
0.0000000000
10
8.7896545492
20
47.9034647756
30
0.0000000000
10
8.7707464653
20
47.8691014535
30
0.0000000000
10
8.7407875985
20
47.8375989052
30
0.0000000000
10
8.7007089579
20
47.8091104482
30
0.0000000000
10
8.6526664850
20
47.7918122165
30
0.0000000000
10
8.5935491882
20
47.7783706213
30
0.0000000000
10
8.5496410550
20
47.7761284426
30
0.0000000000
10
8.5237838495
20
47.7761283819
30
0.0000000000
11
8.8111014086
21
48.0275456737
31
0.0000000000
11
8.8080576392
21
47.9751098268
31
0.0000000000
11
8.8006158705
21
47.9367560961
31
0.0000000000
11
8.7884800632
21
47.9030964040
31
0.0000000000
11
8.7721081721
21
47.8740162619
31
0.0000000000
11
8.7398223450
21
47.8388109717
31
0.0000000000
11
8.7004382156
21
47.8115054052
31
0.0000000000
11
8.6533833399
21
47.7931299611
31
0.0000000000
11
8.6011764706
21
47.7813948643
31
0.0000000000
11
8.5237838495
21
47.7761283819
31
0.0000000000
0
SPLINE
5
47D
100
AcDbEntity
8
0
100
AcDbSpline
62
7
6
CONTINUOUS
70
0
71
3
72
15
73
11
74
9
42
0.0000001000
43
0.0000001000
44
0.0000000001
12
0.0000000000
22
-0.6764491654
32
0.0000000000
13
-0.6764490450
23
0.0000020820
33
0.0000000000
40
0.0000000000
40
0.0000000000
40
0.0000000000
40
0.0000000000
40
0.0586690259
40
0.1416661101
40
0.2613473876
40
0.3767709594
40
0.4910249052
40
0.6468078278
40
0.8138585517
40
1.0000000000
40
1.0000000000
40
1.0000000000
40
1.0000000000
10
9.0120104686
20
48.0275456737
30
0.0000000000
10
9.0120104686
20
48.0143168025
30
0.0000000000
10
9.0112682710
20
47.9823471441
30
0.0000000000
10
9.0042920742
20
47.9237788139
30
0.0000000000
10
8.9866292816
20
47.8536102185
30
0.0000000000
10
8.9484113190
20
47.7840570374
30
0.0000000000
10
8.8946043482
20
47.7151384099
30
0.0000000000
10
8.8133268832
20
47.6565130090
30
0.0000000000
10
8.7044765302
20
47.6165996460
30
0.0000000000
10
8.6243701416
20
47.6085167249
30
0.0000000000
10
8.5823984067
20
47.6085168541
30
0.0000000000
11
9.0120104686
21
48.0275456737
31
0.0000000000
11
9.0108744572
21
47.9878753223
31
0.0000000000
11
9.0042913541
21
47.9321193018
31
0.0000000000
11
8.9831109356
21
47.8539807309
31
0.0000000000
11
8.9465317805
21
47.7850012599
31
0.0000000000
11
8.8981602842
21
47.7247229338
31
0.0000000000
11
8.8133241216
21
47.6622120771
31
0.0000000000
11
8.7075365180
21
47.6224844814
31
0.0000000000
11
8.5823984067
21
47.6085168541
31
0.0000000000
0
SPLINE
5
47E
100
AcDbEntity
8
0
100
AcDbSpline
62
7
6
CONTINUOUS
70
0
71
3
72
15
73
11
74
9
42
0.0000001000
43
0.0000001000
44
0.0000000001
12
0.6764475209
22
0.0000003081
32
0.0000000000
13
-0.0000000000
23
-0.6764475387
33
0.0000000000
40
0.0000000000
40
0.0000000000
40
0.0000000000
40
0.0000000000
40
0.1861394912
40
0.3531906168
40
0.5089739140
40
0.6232281346
40
0.7386519840
40
0.8583335492
40
0.9413308330
40
1.0000000000
40
1.0000000000
40
1.0000000000
40
1.0000000000
10
8.5824000334
20
48.4465744932
30
0.0000000000
10
8.6243712325
20
48.4465745124
30
0.0000000000
10
8.7044770445
20
48.4384915127
30
0.0000000000
10
8.8133268832
20
48.3985783383
30
0.0000000000
10
8.8946043482
20
48.3399529374
30
0.0000000000
10
8.9484113190
20
48.2710343099
30
0.0000000000
10
8.9866292816
20
48.2014811288
30
0.0000000000
10
9.0042920742
20
48.1313125334
30
0.0000000000
10
9.0112682710
20
48.0727442032
30
0.0000000000
10
9.0120104686
20
48.0407745449
30
0.0000000000
10
9.0120104686
20
48.0275456737
30
0.0000000000
11
8.5824000334
21
48.4465744932
31
0.0000000000
11
8.7075365180
21
48.4326068659
31
0.0000000000
11
8.8133241216
21
48.3928792702
31
0.0000000000
11
8.8981602842
21
48.3303684135
31
0.0000000000
11
8.9465317805
21
48.2700900874
31
0.0000000000
11
8.9831109356
21
48.2011106164
31
0.0000000000
11
9.0042913541
21
48.1229720455
31
0.0000000000
11
9.0108744572
21
48.0672160250
31
0.0000000000
11
9.0120104686
21
48.0275456737
31
0.0000000000
0
SPLINE
5
47F
100
AcDbEntity
8
0
100
AcDbSpline
62
7
6
CONTINUOUS
70
0
71
3
72
15
73
11
74
9
42
0.0000001000
43
0.0000001000
44
0.0000000001
12
0.0000000000
22
0.4377599718
32
0.0000000000
13
-0.4377599635
23
-0.0000036368
33
0.0000000000
40
0.0000000000
40
0.0000000000
40
0.0000000000
40
0.0000000000
40
0.1199838211
40
0.2092314130
40
0.3286215868
40
0.4397612561
40
0.5487284279
40
0.6612458322
40
0.8230606906
40
1.0000000000
40
1.0000000000
40
1.0000000000
40
1.0000000000
10
7.9699525733
20
45.8490537668
30
0.0000000000
10
7.9699525733
20
45.8665618049
30
0.0000000000
10
7.9684010103
20
45.8971198622
30
0.0000000000
10
7.9599257149
20
45.9445452055
30
0.0000000000
10
7.9413249261
20
45.9877474016
30
0.0000000000
10
7.9128730465
20
46.0291171716
30
0.0000000000
10
7.8731655753
20
46.0580637624
30
0.0000000000
10
7.8229858298
20
46.0833201583
30
0.0000000000
10
7.7579988328
20
46.0975795392
30
0.0000000000
10
7.7085612127
20
46.1004712731
30
0.0000000000
10
7.6827422309
20
46.1004710586
30
0.0000000000
11
7.9699525733
21
45.8490537668
31
0.0000000000
11
7.9669088038
21
45.9014896136
31
0.0000000000
11
7.9594670351
21
45.9398433444
31
0.0000000000
11
7.9392597710
21
45.9880431075
31
0.0000000000
11
7.9106948283
21
46.0274272370
31
0.0000000000
11
7.8729707856
21
46.0566218679
31
0.0000000000
11
7.8288353731
21
46.0784892189
31
0.0000000000
11
7.7600276352
21
46.0953190649
31
0.0000000000
11
7.6827422309
21
46.1004710586
31
0.0000000000
0
SPLINE
5
480
100
AcDbEntity
8
0
100
AcDbSpline
62
7
6
CONTINUOUS
70
0
71
3
72
15
73
11
74
9
42
0.0000001000
43
0.0000001000
44
0.0000000001
12
0.4377537340
22
0.0000004893
32
0.0000000000
13
-0.0000000000
23
0.4377537328
33
0.0000000000
40
0.0000000000
40
0.0000000000
40
0.0000000000
40
0.0000000000
40
0.1769275791
40
0.3387447437
40
0.4512637515
40
0.5602324764
40
0.6713737297
40
0.7907656050
40
0.8800144689
40
1.0000000000
40
1.0000000000
40
1.0000000000
40
1.0000000000
10
7.6827484698
20
45.5976364751
30
0.0000000000
10
7.7085653726
20
45.5976365039
30
0.0000000000
10
7.7580008852
20
45.6005284448
30
0.0000000000
10
7.8229858298
20
45.6147873753
30
0.0000000000
10
7.8731655753
20
45.6400437713
30
0.0000000000
10
7.9128730465
20
45.6689903621
30
0.0000000000
10
7.9413249261
20
45.7103601321
30
0.0000000000
10
7.9599257149
20
45.7535623281
30
0.0000000000
10
7.9684010103
20
45.8009876715
30
0.0000000000
10
7.9699525733
20
45.8315457288
30
0.0000000000
10
7.9699525733
20
45.8490537668
30
0.0000000000
11
7.6827484698
21
45.5976364751
31
0.0000000000
11
7.7600276352
21
45.6027884688
31
0.0000000000
11
7.8288353731
21
45.6196183148
31
0.0000000000
11
7.8729707856
21
45.6414856658
31
0.0000000000
11
7.9106948283
21
45.6706802966
31
0.0000000000
11
7.9392597710
21
45.7100644261
31
0.0000000000
11
7.9594670351
21
45.7582641893
31
0.0000000000
11
7.9669088038
21
45.7966179200
31
0.0000000000
11
7.9699525733
21
45.8490537668
31
0.0000000000
0
SPLINE
5
481
100
AcDbEntity
8
0
100
AcDbSpline
62
7
6
CONTINUOUS
70
0
71
3
72
16
73
12
74
10
42
0.0000001000
43
0.0000001000
44
0.0000000001
12
0.6767825047
22
-0.0000032828
32
0.0000000000
13
-0.0000000000
23
0.6767826996
33
0.0000000000
40
0.0000000000
40
0.0000000000
40
0.0000000000
40
0.0000000000
40
0.1860512046
40
0.2716207059
40
0.3925945201
40
0.4704656040
40
0.5851331102
40
0.6998475566
40
0.8174291916
40
0.8989230597
40
1.0000000000
40
1.0000000000
40
1.0000000000
40
1.0000000000
10
7.7412485622
20
45.4300249473
30
0.0000000000
10
7.7832206289
20
45.4300247437
30
0.0000000000
10
7.8448774245
20
45.4364365581
30
0.0000000000
10
7.9299940078
20
45.4616743459
30
0.0000000000
10
7.9875013496
20
45.4913824702
30
0.0000000000
10
8.0445580573
20
45.5332738277
30
0.0000000000
10
8.0940708276
20
45.5828391416
30
0.0000000000
10
8.1329156264
20
45.6515012744
30
0.0000000000
10
8.1581026223
20
45.7180217514
30
0.0000000000
10
8.1701808845
20
45.7849544952
30
0.0000000000
10
8.1708658678
20
45.8262513920
30
0.0000000000
10
8.1708658678
20
45.8490537668
30
0.0000000000
11
7.7412485622
21
45.4300249473
31
0.0000000000
11
7.8663876826
21
45.4439925746
31
0.0000000000
11
7.9218002369
21
45.4608224206
31
0.0000000000
11
7.9947295697
21
45.4980312639
31
0.0000000000
11
8.0372048954
21
45.5292294478
31
0.0000000000
11
8.0912435847
21
45.5849282240
31
0.0000000000
11
8.1307994473
21
45.6517324088
31
0.0000000000
11
8.1582195026
21
45.7264363172
31
0.0000000000
11
8.1680655349
21
45.7807039840
31
0.0000000000
11
8.1708658678
21
45.8490537668
31
0.0000000000
0
SPLINE
5
482
100
AcDbEntity
8
0
100
AcDbSpline
62
7
6
CONTINUOUS
70
0
71
3
72
16
73
12
74
10
42
0.0000001000
43
0.0000001000
44
0.0000000001
12
0.0000000000
22
0.6767794476
32
0.0000000000
13
-0.6767794699
23
0.0000003754
33
0.0000000000
40
0.0000000000
40
0.0000000000
40
0.0000000000
40
0.0000000000
40
0.1010774260
40
0.1825716857
40
0.3001538857
40
0.4148688832
40
0.5295369405
40
0.6074083986
40
0.7283827941
40
0.8139527065
40
1.0000000000
40
1.0000000000
40
1.0000000000
40
1.0000000000
10
8.1708658678
20
45.8490537668
30
0.0000000000
10
8.1708658678
20
45.8718561417
30
0.0000000000
10
8.1701808845
20
45.9131530385
30
0.0000000000
10
8.1581026223
20
45.9800857822
30
0.0000000000
10
8.1329156264
20
46.0466062592
30
0.0000000000
10
8.0940708276
20
46.1152683921
30
0.0000000000
10
8.0445580573
20
46.1648337059
30
0.0000000000
10
7.9875013496
20
46.2067250635
30
0.0000000000
10
7.9299940078
20
46.2364331878
30
0.0000000000
10
7.8448784662
20
46.2616706667
30
0.0000000000
10
7.7832228104
20
46.2680825631
30
0.0000000000
10
7.7412518142
20
46.2680825864
30
0.0000000000
11
8.1708658678
21
45.8490537668
31
0.0000000000
11
8.1680655349
21
45.9174035497
31
0.0000000000
11
8.1582195026
21
45.9716712165
31
0.0000000000
11
8.1307994473
21
46.0463751249
31
0.0000000000
11
8.0912435847
21
46.1131793097
31
0.0000000000
11
8.0372048954
21
46.1688780858
31
0.0000000000
11
7.9947295697
21
46.2000762698
31
0.0000000000
11
7.9218002369
21
46.2372851131
31
0.0000000000
11
7.8663876826
21
46.2541149591
31
0.0000000000
11
7.7412518142
21
46.2680825864
31
0.0000000000
0
SPLINE
5
483
100
AcDbEntity
8
0
100
AcDbSpline
62
7
6
CONTINUOUS
70
0
71
3
72
17
73
13
74
11
42
0.0000001000
43
0.0000001000
44
0.0000000001
12
0.0000000000
22
-0.8003951912
32
0.0000000000
13
-0.8003953904
23
-0.0000027001
33
0.0000000000
40
0.0000000000
40
0.0000000000
40
0.0000000000
40
0.0000000000
40
0.0648470505
40
0.1698978630
40
0.2666339454
40
0.3558857188
40
0.4788009356
40
0.5905182753
40
0.6981260683
40
0.8061569226
40
0.9191902634
40
1.0000000000
40
1.0000000000
40
1.0000000000
40
1.0000000000
10
12.2266647314
20
45.5430825864
30
0.0000000000
10
12.2266647314
20
45.5257814973
30
0.0000000000
10
12.2240449114
20
45.4805012168
30
0.0000000000
10
12.2195673714
20
45.4094724441
30
0.0000000000
10
12.2061177591
20
45.3327723443
30
0.0000000000
10
12.1832134202
20
45.2535988968
30
0.0000000000
10
12.1492806956
20
45.1731813648
30
0.0000000000
10
12.0917568218
20
45.1013991589
30
0.0000000000
10
12.0256168732
20
45.0428847150
30
0.0000000000
10
11.9441713125
20
45.0078268965
30
0.0000000000
10
11.8656621390
20
44.9880796226
30
0.0000000000
10
11.8137691484
20
44.9856941870
30
0.0000000000
10
11.7922092348
20
44.9856941142
30
0.0000000000
11
12.2266647314
21
45.5430825864
31
0.0000000000
11
12.2246308725
21
45.4912191833
31
0.0000000000
11
12.2178187919
21
45.4074134194
31
0.0000000000
11
12.2043663640
21
45.3311639129
31
0.0000000000
11
12.1845598105
21
45.2625279082
31
0.0000000000
11
12.1440307935
21
45.1728832181
31
0.0000000000
11
12.0891334386
21
45.1023009046
31
0.0000000000
11
12.0232451638
21
45.0468311060
31
0.0000000000
11
11.9447631267
21
45.0105381727
31
0.0000000000
11
11.8567785235
21
44.9894722429
31
0.0000000000
11
11.7922092348
21
44.9856941142
31
0.0000000000
0
SPLINE
5
484
100
AcDbEntity
8
0
100
AcDbSpline
62
7
6
CONTINUOUS
70
0
71
3
72
17
73
13
74
11
42
0.0000001000
43
0.0000001000
44
0.0000000001
12
0.8004000128
22
0.0000030614
32
0.0000000000
13
0.0000000000
23
-0.8004002387
33
0.0000000000
40
0.0000000000
40
0.0000000000
40
0.0000000000
40
0.0000000000
40
0.0808155333
40
0.1938481613
40
0.3018783343
40
0.4094854487
40
0.5212020838
40
0.6441165256
40
0.7333677361
40
0.8301032084
40
0.9351533585
40
1.0000000000
40
1.0000000000
40
1.0000000000
40
1.0000000000
10
11.7922041873
20
46.1004710586
30
0.0000000000
10
11.8137657719
20
46.1004711410
30
0.0000000000
10
11.8656604988
20
46.0980859627
30
0.0000000000
10
11.9441713125
20
46.0783382763
30
0.0000000000
10
12.0256168732
20
46.0432804579
30
0.0000000000
10
12.0917568218
20
45.9847660139
30
0.0000000000
10
12.1492806956
20
45.9129838080
30
0.0000000000
10
12.1832134202
20
45.8325662760
30
0.0000000000
10
12.2061177591
20
45.7533928285
30
0.0000000000
10
12.2195673714
20
45.6766927287
30
0.0000000000
10
12.2240449114
20
45.6056639560
30
0.0000000000
10
12.2266647314
20
45.5603836755
30
0.0000000000
10
12.2266647314
20
45.5430825864
30
0.0000000000
11
11.7922041873
21
46.1004710586
31
0.0000000000
11
11.8567785235
21
46.0966929299
31
0.0000000000
11
11.9447631267
21
46.0756270001
31
0.0000000000
11
12.0232451638
21
46.0393340669
31
0.0000000000
11
12.0891334386
21
45.9838642682
31
0.0000000000
11
12.1440307935
21
45.9132819547
31
0.0000000000
11
12.1845598105
21
45.8236372647
31
0.0000000000
11
12.2043663640
21
45.7550012599
31
0.0000000000
11
12.2178187919
21
45.6787517534
31
0.0000000000
11
12.2246308725
21
45.5949459895
31
0.0000000000
11
12.2266647314
21
45.5430825864
31
0.0000000000
0
SPLINE
5
485
100
AcDbEntity
8
0
100
AcDbSpline
62
7
6
CONTINUOUS
70
0
71
3
72
16
73
12
74
10
42
0.0000001000
43
0.0000001000
44
0.0000000001
12
1.0671612572
22
-0.0000022233
32
0.0000000000
13
0.0000000000
23
1.0671611793
33
0.0000000000
40
0.0000000000
40
0.0000000000
40
0.0000000000
40
0.0000000000
40
0.0428973560
40
0.1667719006
40
0.3202649969
40
0.4329983267
40
0.5475700349
40
0.7090893793
40
0.8405123240
40
0.9334132536
40
1.0000000000
40
1.0000000000
40
1.0000000000
40
1.0000000000
10
11.8184242932
20
44.8180825864
30
0.0000000000
10
11.8336837586
20
44.8180825546
30
0.0000000000
10
11.8928095251
20
44.8237450526
30
0.0000000000
10
12.0065037065
20
44.8364681981
30
0.0000000000
10
12.1361639664
20
44.8945009262
30
0.0000000000
10
12.2397660272
20
44.9829562875
30
0.0000000000
10
12.3281714728
20
45.0905085068
30
0.0000000000
10
12.3883067903
20
45.2247480352
30
0.0000000000
10
12.4167641669
20
45.3594844832
30
0.0000000000
10
12.4265401743
20
45.4626446702
30
0.0000000000
10
12.4275816818
20
45.5193963228
30
0.0000000000
10
12.4275816818
20
45.5430825864
30
0.0000000000
11
11.8184242932
21
44.8180825864
31
0.0000000000
11
11.8641058034
21
44.8210592939
31
0.0000000000
11
11.9947374655
21
44.8413238024
31
0.0000000000
11
12.1443742598
21
44.9079562540
31
0.0000000000
11
12.2367666798
21
44.9850071817
31
0.0000000000
11
12.3137031188
21
45.0800328430
31
0.0000000000
11
12.3861744966
21
45.2364244735
31
0.0000000000
11
12.4165140150
21
45.3733530167
31
0.0000000000
11
12.4259593368
21
45.4720423180
31
0.0000000000
11
12.4275816818
21
45.5430825864
31
0.0000000000
0
SPLINE
5
486
100
AcDbEntity
8
0
100
AcDbSpline
62
7
6
CONTINUOUS
70
0
71
3
72
16
73
12
74
10
42
0.0000001000
43
0.0000001000
44
0.0000000001
12
0.0000000000
22
1.0671601801
32
0.0000000000
13
-1.0671601022
23
0.0000022233
33
0.0000000000
40
0.0000000000
40
0.0000000000
40
0.0000000000
40
0.0000000000
40
0.0665868087
40
0.1594878254
40
0.2909108931
40
0.4524303887
40
0.5670022042
40
0.6797356395
40
0.8332288795
40
0.9571035402
40
1.0000000000
40
1.0000000000
40
1.0000000000
40
1.0000000000
10
12.4275816818
20
45.5430825864
30
0.0000000000
10
12.4275816818
20
45.5667688500
30
0.0000000000
10
12.4265401743
20
45.6235205026
30
0.0000000000
10
12.4167641669
20
45.7266806897
30
0.0000000000
10
12.3883067903
20
45.8614171377
30
0.0000000000
10
12.3281714728
20
45.9956566660
30
0.0000000000
10
12.2397660272
20
46.1032088853
30
0.0000000000
10
12.1361639664
20
46.1916642466
30
0.0000000000
10
12.0065037065
20
46.2496969747
30
0.0000000000
10
11.8928098575
20
46.2624200830
30
0.0000000000
10
11.8336844225
20
46.2680825546
30
0.0000000000
10
11.8184252923
20
46.2680825864
30
0.0000000000
11
12.4275816818
21
45.5430825864
31
0.0000000000
11
12.4259593368
21
45.6141228549
31
0.0000000000
11
12.4165140150
21
45.7128121561
31
0.0000000000
11
12.3861744966
21
45.8497406993
31
0.0000000000
11
12.3137031188
21
46.0061323298
31
0.0000000000
11
12.2367666798
21
46.1011579911
31
0.0000000000
11
12.1443742598
21
46.1782089188
31
0.0000000000
11
11.9947374655
21
46.2448413705
31
0.0000000000
11
11.8641058034
21
46.2651058789
31
0.0000000000
11
11.8184252923
21
46.2680825864
31
0.0000000000
0
SPLINE
5
487
100
AcDbEntity
8
0
100
AcDbSpline
62
7
6
CONTINUOUS
70
0
71
3
72
13
73
9
74
7
42
0.0000001000
43
0.0000001000
44
0.0000000001
12
0.0000000000
22
-1.0004551694
32
0.0000000000
13
-1.0004551694
23
-0.0000000000
33
0.0000000000
40
0.0000000000
40
0.0000000000
40
0.0000000000
40
0.0000000000
40
0.0335224602
40
0.1344844863
40
0.2934549931
40
0.5003481961
40
0.7443482119
40
1.0000000000
40
1.0000000000
40
1.0000000000
40
1.0000000000
10
3.0000000000
20
42.7770920203
30
0.0000000000
10
3.0000000000
20
42.7659127808
30
0.0000000000
10
2.9285663496
20
42.7827648716
30
0.0000000000
10
2.8560152328
20
42.7603601030
30
0.0000000000
10
2.6868679763
20
42.7672169790
30
0.0000000000
10
2.4889286751
20
42.7605623675
30
0.0000000000
10
2.2514239251
20
42.7603469939
30
0.0000000000
10
2.0852560510
20
42.7596369554
30
0.0000000000
10
2.0000000000
20
42.7596369554
30
0.0000000000
11
3.0000000000
21
42.7770920203
31
0.0000000000
11
2.9667605587
21
42.7726290493
31
0.0000000000
11
2.8658428761
21
42.7683589718
31
0.0000000000
11
2.7068410815
21
42.7647447895
31
0.0000000000
11
2.4998722505
21
42.7619742035
31
0.0000000000
11
2.2557674940
21
42.7602175401
31
0.0000000000
11
2.0000000000
21
42.7596369554
31
0.0000000000
0
SPLINE
5
488
100
AcDbEntity
8
0
100
AcDbSpline
62
7
6
CONTINUOUS
70
0
71
3
72
13
73
9
74
7
42
0.0000001000
43
0.0000001000
44
0.0000000001
12
-1.0004551694
22
0.0000000000
32
0.0000000000
13
0.0000000000
23
1.0004551694
33
0.0000000000
40
0.0000000000
40
0.0000000000
40
0.0000000000
40
0.0000000000
40
0.2556517881
40
0.4996518039
40
0.7065450069
40
0.8655155137
40
0.9664775398
40
1.0000000000
40
1.0000000000
40
1.0000000000
40
1.0000000000
10
-2.0000000000
20
42.7596369554
30
0.0000000000
10
-2.0852560510
20
42.7596369554
30
0.0000000000
10
-2.2514239251
20
42.7603469939
30
0.0000000000
10
-2.4889286751
20
42.7605623675
30
0.0000000000
10
-2.6868679763
20
42.7672169790
30
0.0000000000
10
-2.8560152328
20
42.7603601030
30
0.0000000000
10
-2.9285663496
20
42.7827648716
30
0.0000000000
10
-3.0000000000
20
42.7659127808
30
0.0000000000
10
-3.0000000000
20
42.7770920203
30
0.0000000000
11
-2.0000000000
21
42.7596369554
31
0.0000000000
11
-2.2557674940
21
42.7602175401
31
0.0000000000
11
-2.4998722505
21
42.7619742035
31
0.0000000000
11
-2.7068410815
21
42.7647447895
31
0.0000000000
11
-2.8658428761
21
42.7683589718
31
0.0000000000
11
-2.9667605587
21
42.7726290493
31
0.0000000000
11
-3.0000000000
21
42.7770920203
31
0.0000000000
0
SPLINE
5
489
100
AcDbEntity
8
0
100
AcDbSpline
62
7
6
CONTINUOUS
70
0
71
3
72
13
73
9
74
7
42
0.0000001000
43
0.0000001000
44
0.0000000001
12
1.0004551694
22
0.0000000000
32
0.0000000000
13
0.0000000000
23
-1.0004551694
33
0.0000000000
40
0.0000000000
40
0.0000000000
40
0.0000000000
40
0.0000000000
40
0.2556517881
40
0.4996518039
40
0.7065450069
40
0.8655155137
40
0.9664775398
40
1.0000000000
40
1.0000000000
40
1.0000000000
40
1.0000000000
10
2.0000000000
20
-9.4949798758
30
0.0000000000
10
2.0852560510
20
-9.4949798758
30
0.0000000000
10
2.2514239251
20
-9.4956899143
30
0.0000000000
10
2.4889286751
20
-9.4959052879
30
0.0000000000
10
2.6868679763
20
-9.5025598994
30
0.0000000000
10
2.8560152328
20
-9.4957030233
30
0.0000000000
10
2.9285663496
20
-9.5181077920
30
0.0000000000
10
3.0000000000
20
-9.5012557012
30
0.0000000000
10
3.0000000000
20
-9.5124349407
30
0.0000000000
11
2.0000000000
21
-9.4949798758
31
0.0000000000
11
2.2557674940
21
-9.4955604605
31
0.0000000000
11
2.4998722505
21
-9.4973171238
31
0.0000000000
11
2.7068410815
21
-9.5000877099
31
0.0000000000
11
2.8658428761
21
-9.5037018922
31
0.0000000000
11
2.9667605587
21
-9.5079719696
31
0.0000000000
11
3.0000000000
21
-9.5124349407
31
0.0000000000
0
SPLINE
5
48A
100
AcDbEntity
8
0
100
AcDbSpline
62
7
6
CONTINUOUS
70
0
71
3
72
13
73
9
74
7
42
0.0000001000
43
0.0000001000
44
0.0000000001
12
0.0000000000
22
1.0004551694
32
0.0000000000
13
1.0004551694
23
-0.0000000000
33
0.0000000000
40
0.0000000000
40
0.0000000000
40
0.0000000000
40
0.0000000000
40
0.0335224602
40
0.1344844863
40
0.2934549931
40
0.5003481961
40
0.7443482119
40
1.0000000000
40
1.0000000000
40
1.0000000000
40
1.0000000000
10
-3.0000000000
20
-9.5124349407
30
0.0000000000
10
-3.0000000000
20
-9.5012557012
30
0.0000000000
10
-2.9285663496
20
-9.5181077920
30
0.0000000000
10
-2.8560152328
20
-9.4957030233
30
0.0000000000
10
-2.6868679763
20
-9.5025598994
30
0.0000000000
10
-2.4889286751
20
-9.4959052879
30
0.0000000000
10
-2.2514239251
20
-9.4956899143
30
0.0000000000
10
-2.0852560510
20
-9.4949798758
30
0.0000000000
10
-2.0000000000
20
-9.4949798758
30
0.0000000000
11
-3.0000000000
21
-9.5124349407
31
0.0000000000
11
-2.9667605587
21
-9.5079719696
31
0.0000000000
11
-2.8658428761
21
-9.5037018922
31
0.0000000000
11
-2.7068410815
21
-9.5000877099
31
0.0000000000
11
-2.4998722505
21
-9.4973171238
31
0.0000000000
11
-2.2557674940
21
-9.4955604605
31
0.0000000000
11
-2.0000000000
21
-9.4949798758
31
0.0000000000
0
SPLINE
5
48B
100
AcDbEntity
8
0
100
AcDbSpline
62
7
6
CONTINUOUS
70
0
71
3
72
9
73
5
74
3
42
0.0000001000
43
0.0000001000
44
0.0000000001
12
0.0002051303
22
0.1332136540
32
0.0000000000
13
0.0001644763
23
0.1332052411
33
0.0000000000
40
0.0000000000
40
0.0000000000
40
0.0000000000
40
0.0000000000
40
0.3207656557
40
1.0000000000
40
1.0000000000
40
1.0000000000
40
1.0000000000
10
-13.0962881929
20
-9.5176714975
30
0.0000000000
10
-13.0962662600
20
-9.5034280425
30
0.0000000000
10
-13.0962030238
20
-9.4590235629
30
0.0000000000
10
-13.0961426757
20
-9.4146210325
30
0.0000000000
10
-13.0961054364
20
-9.3844618410
30
0.0000000000
11
-13.0962881929
21
-9.5176714975
31
0.0000000000
11
-13.0962259892
21
-9.4749413790
31
0.0000000000
11
-13.0961054364
21
-9.3844618410
31
0.0000000000
0
SPLINE
5
48C
100
AcDbEntity
8
0
100
AcDbSpline
62
7
6
CONTINUOUS
70
0
71
3
72
9
73
5
74
3
42
0.0000001000
43
0.0000001000
44
0.0000000001
12
0.0006286678
22
0.5091422525
32
0.0000000000
13
-0.0007834502
23
0.5091387871
33
0.0000000000
40
0.0000000000
40
0.0000000000
40
0.0000000000
40
0.0000000000
40
0.3790653076
40
1.0000000000
40
1.0000000000
40
1.0000000000
40
1.0000000000
10
-13.0961054364
20
-9.3844618410
30
0.0000000000
10
-13.0960260010
20
-9.3201291194
30
0.0000000000
10
-13.0958614727
20
-9.1504214224
30
0.0000000000
10
-13.0959791099
20
-8.9807057740
30
0.0000000000
10
-13.0961412670
20
-8.8753251286
30
0.0000000000
11
-13.0961054364
21
-9.3844618410
31
0.0000000000
11
-13.0959418116
21
-9.1914673762
31
0.0000000000
11
-13.0961412670
21
-8.8753251286
31
0.0000000000
0
SPLINE
5
48D
100
AcDbEntity
8
0
100
AcDbSpline
62
7
6
CONTINUOUS
70
0
71
3
72
9
73
5
74
3
42
0.0000001000
43
0.0000001000
44
0.0000000001
12
0.0007810494
22
0.5075642837
32
0.0000000000
13
-0.0006223929
23
0.5075677284
33
0.0000000000
40
0.0000000000
40
0.0000000000
40
0.0000000000
40
0.0000000000
40
0.6204826547
40
1.0000000000
40
1.0000000000
40
1.0000000000
40
1.0000000000
10
-13.0961412670
20
42.1399822083
30
0.0000000000
10
-13.0959797245
20
42.2449604863
30
0.0000000000
10
-13.0958619234
20
42.4141512818
30
0.0000000000
10
-13.0960246229
20
42.5833341755
30
0.0000000000
10
-13.0961033592
20
42.6475444278
30
0.0000000000
11
-13.0961412670
21
42.1399822083
31
0.0000000000
11
-13.0959415298
21
42.4549173520
31
0.0000000000
11
-13.0961033592
21
42.6475444278
31
0.0000000000
0
SPLINE
5
48E
100
AcDbEntity
8
0
100
AcDbSpline
62
7
6
CONTINUOUS
70
0
71
3
72
9
73
5
74
3
42
0.0000001000
43
0.0000001000
44
0.0000000001
12
-0.0001652703
22
0.1347796400
32
0.0000000000
13
-0.0002075794
23
0.1347881475
33
0.0000000000
40
0.0000000000
40
0.0000000000
40
0.0000000000
40
0.0000000000
40
0.6702627560
40
1.0000000000
40
1.0000000000
40
1.0000000000
40
1.0000000000
10
-13.0961033592
20
42.6475444278
30
0.0000000000
10
-13.0961402840
20
42.6776570188
30
0.0000000000
10
-13.0962009487
20
42.7225843561
30
0.0000000000
10
-13.0962645553
20
42.7675136875
30
0.0000000000
10
-13.0962873708
20
42.7823285783
30
0.0000000000
11
-13.0961033592
21
42.6475444278
31
0.0000000000
11
-13.0962229282
21
42.7378841565
31
0.0000000000
11
-13.0962873708
21
42.7823285783
31
0.0000000000
0
SPLINE
5
48F
100
AcDbEntity
8
0
100
AcDbSpline
62
7
6
CONTINUOUS
70
0
71
3
72
9
73
5
74
3
42
0.0000001000
43
0.0000001000
44
0.0000000001
12
-0.0002051303
22
-0.1332136545
32
0.0000000000
13
-0.0001644763
23
-0.1332052415
33
0.0000000000
40
0.0000000000
40
0.0000000000
40
0.0000000000
40
0.0000000000
40
0.3207656566
40
1.0000000000
40
1.0000000000
40
1.0000000000
40
1.0000000000
10
13.0962881929
20
42.7823285772
30
0.0000000000
10
13.0962662600
20
42.7680851220
30
0.0000000000
10
13.0962030238
20
42.7236806423
30
0.0000000000
10
13.0961426757
20
42.6792781117
30
0.0000000000
10
13.0961054364
20
42.6491189201
30
0.0000000000
11
13.0962881929
21
42.7823285772
31
0.0000000000
11
13.0962259892
21
42.7395984584
31
0.0000000000
11
13.0961054364
21
42.6491189201
31
0.0000000000
0
SPLINE
5
490
100
AcDbEntity
8
0
100
AcDbSpline
62
7
6
CONTINUOUS
70
0
71
3
72
9
73
5
74
3
42
0.0000001000
43
0.0000001000
44
0.0000000001
12
-0.0006286678
22
-0.5091422521
32
0.0000000000
13
0.0007834502
23
-0.5091387866
33
0.0000000000
40
0.0000000000
40
0.0000000000
40
0.0000000000
40
0.0000000000
40
0.3790653087
40
1.0000000000
40
1.0000000000
40
1.0000000000
40
1.0000000000
10
13.0961054364
20
42.6491189201
30
0.0000000000
10
13.0960260010
20
42.5847861985
30
0.0000000000
10
13.0958614727
20
42.4150785016
30
0.0000000000
10
13.0959791099
20
42.2453628534
30
0.0000000000
10
13.0961412670
20
42.1399822083
30
0.0000000000
11
13.0961054364
21
42.6491189201
31
0.0000000000
11
13.0959418116
21
42.4561244549
31
0.0000000000
11
13.0961412670
21
42.1399822083
31
0.0000000000
0
SPLINE
5
491
100
AcDbEntity
8
0
100
AcDbSpline
62
7
6
CONTINUOUS
70
0
71
3
72
9
73
5
74
3
42
0.0000001000
43
0.0000001000
44
0.0000000001
12
-0.0007810494
22
-0.5075642841
32
0.0000000000
13
0.0006223929
23
-0.5075677288
33
0.0000000000
40
0.0000000000
40
0.0000000000
40
0.0000000000
40
0.0000000000
40
0.6204826550
40
1.0000000000
40
1.0000000000
40
1.0000000000
40
1.0000000000
10
13.0961412670
20
-8.8753251286
30
0.0000000000
10
13.0959797245
20
-8.9803034068
30
0.0000000000
10
13.0958619234
20
-9.1494942024
30
0.0000000000
10
13.0960246229
20
-9.3186770962
30
0.0000000000
10
13.0961033592
20
-9.3828873485
30
0.0000000000
11
13.0961412670
21
-8.8753251286
31
0.0000000000
11
13.0959415298
21
-9.1902602727
31
0.0000000000
11
13.0961033592
21
-9.3828873485
31
0.0000000000
0
SPLINE
5
492
100
AcDbEntity
8
0
100
AcDbSpline
62
7
6
CONTINUOUS
70
0
71
3
72
9
73
5
74
3
42
0.0000001000
43
0.0000001000
44
0.0000000001
12
0.0001652703
22
-0.1347796396
32
0.0000000000
13
0.0002075794
23
-0.1347881471
33
0.0000000000
40
0.0000000000
40
0.0000000000
40
0.0000000000
40
0.0000000000
40
0.6702627574
40
1.0000000000
40
1.0000000000
40
1.0000000000
40
1.0000000000
10
13.0961033592
20
-9.3828873485
30
0.0000000000
10
13.0961402840
20
-9.4129999394
30
0.0000000000
10
13.0962009487
20
-9.4579272766
30
0.0000000000
10
13.0962645553
20
-9.5028566080
30
0.0000000000
10
13.0962873708
20
-9.5176714986
30
0.0000000000
11
13.0961033592
21
-9.3828873485
31
0.0000000000
11
13.0962229282
21
-9.4732270771
31
0.0000000000
11
13.0962873708
21
-9.5176714986
31
0.0000000000
0
SPLINE
5
493
100
AcDbEntity
8
0
100
AcDbSpline
62
7
6
CONTINUOUS
70
0
71
3
72
9
73
5
74
3
42
0.0000001000
43
0.0000001000
44
0.0000000001
12
-0.0021533127
22
0.0889561447
32
0.0000000000
13
-0.0629199191
23
0.0629199191
33
0.0000000000
40
0.0000000000
40
0.0000000000
40
0.0000000000
40
0.0000000000
40
0.7363821702
40
1.0000000000
40
1.0000000000
40
1.0000000000
40
1.0000000000
10
6.2954558678
20
-6.7476469462
30
0.0000000000
10
6.2949273141
20
-6.7258117066
30
0.0000000000
10
6.2883682363
20
-6.6992400816
30
0.0000000000
10
6.2966594491
20
-6.6643309093
30
0.0000000000
10
6.2911305116
20
-6.6588019718
30
0.0000000000
11
6.2954558678
21
-6.7476469462
31
0.0000000000
11
6.2933200375
21
-6.6821568572
31
0.0000000000
11
6.2911305116
21
-6.6588019718
31
0.0000000000
0
SPLINE
5
494
100
AcDbEntity
8
0
100
AcDbSpline
62
7
6
CONTINUOUS
70
0
71
3
72
9
73
5
74
3
42
0.0000001000
43
0.0000001000
44
0.0000000001
12
0.0629199191
22
0.0629199191
32
0.0000000000
13
0.0021533127
23
0.0889561447
33
0.0000000000
40
0.0000000000
40
0.0000000000
40
0.0000000000
40
0.0000000000
40
0.2636178298
40
1.0000000000
40
1.0000000000
40
1.0000000000
40
1.0000000000
10
6.2911305116
20
39.9234590514
30
0.0000000000
10
6.2966594491
20
39.9289879889
30
0.0000000000
10
6.2883682363
20
39.9638971612
30
0.0000000000
10
6.2949273141
20
39.9904687862
30
0.0000000000
10
6.2954558678
20
40.0123040259
30
0.0000000000
11
6.2911305116
21
39.9234590514
31
0.0000000000
11
6.2933200375
21
39.9468139369
31
0.0000000000
11
6.2954558678
21
40.0123040259
31
0.0000000000
0
SPLINE
5
495
100
AcDbEntity
8
0
100
AcDbSpline
62
7
6
CONTINUOUS
70
0
71
3
72
9
73
5
74
3
42
0.0000001000
43
0.0000001000
44
0.0000000001
12
0.2754192647
22
0.0036227566
32
0.0000000000
13
0.2641361264
23
0.0781089140
33
0.0000000000
40
0.0000000000
40
0.0000000000
40
0.0000000000
40
0.0000000000
40
0.5010369035
40
1.0000000000
40
1.0000000000
40
1.0000000000
40
1.0000000000
10
7.2619412833
20
41.3823998395
30
0.0000000000
10
7.3079396885
20
41.3830048844
30
0.0000000000
10
7.3997836191
20
41.3903677096
30
0.0000000000
10
7.4897229185
20
41.4104107808
30
0.0000000000
10
7.5336543116
20
41.4234019360
30
0.0000000000
11
7.2619412833
21
41.3823998395
31
0.0000000000
11
7.3994959509
21
41.3935662020
31
0.0000000000
11
7.5336543116
21
41.4234019360
31
0.0000000000
0
SPLINE
5
496
100
AcDbEntity
8
0
100
AcDbSpline
62
7
6
CONTINUOUS
70
0
71
3
72
9
73
5
74
3
42
0.0000001000
43
0.0000001000
44
0.0000000001
12
0.2641528123
22
-0.0780524724
32
0.0000000000
13
0.2754200267
23
-0.0035644856
33
0.0000000000
40
0.0000000000
40
0.0000000000
40
0.0000000000
40
0.0000000000
40
0.4993536176
40
1.0000000000
40
1.0000000000
40
1.0000000000
40
1.0000000000
10
-7.5336543116
20
41.4234019360
30
0.0000000000
10
-7.4896857575
20
41.4104100079
30
0.0000000000
10
-7.3997488189
20
41.3903623772
30
0.0000000000
10
-7.3079039633
20
41.3829946884
30
0.0000000000
10
-7.2619412833
20
41.3823998395
30
0.0000000000
11
-7.5336543116
21
41.4234019360
31
0.0000000000
11
-7.3993893394
21
41.3935500888
31
0.0000000000
11
-7.2619412833
21
41.3823998395
31
0.0000000000
0
SPLINE
5
497
100
AcDbEntity
8
0
100
AcDbSpline
62
7
6
CONTINUOUS
70
0
71
3
72
9
73
5
74
3
42
0.0000001000
43
0.0000001000
44
0.0000000001
12
-0.2641528123
22
0.0780524724
32
0.0000000000
13
-0.2754200267
23
0.0035644856
33
0.0000000000
40
0.0000000000
40
0.0000000000
40
0.0000000000
40
0.0000000000
40
0.4993536176
40
1.0000000000
40
1.0000000000
40
1.0000000000
40
1.0000000000
10
7.5336543116
20
-8.1587448564
30
0.0000000000
10
7.4896857575
20
-8.1457529282
30
0.0000000000
10
7.3997488189
20
-8.1257052976
30
0.0000000000
10
7.3079039633
20
-8.1183376088
30
0.0000000000
10
7.2619412833
20
-8.1177427598
30
0.0000000000
11
7.5336543116
21
-8.1587448564
31
0.0000000000
11
7.3993893394
21
-8.1288930091
31
0.0000000000
11
7.2619412833
21
-8.1177427598
31
0.0000000000
0
SPLINE
5
498
100
AcDbEntity
8
0
100
AcDbSpline
62
7
6
CONTINUOUS
70
0
71
3
72
9
73
5
74
3
42
0.0000001000
43
0.0000001000
44
0.0000000001
12
-0.2754192647
22
-0.0036227566
32
0.0000000000
13
-0.2641361264
23
-0.0781089140
33
0.0000000000
40
0.0000000000
40
0.0000000000
40
0.0000000000
40
0.0000000000
40
0.5010369035
40
1.0000000000
40
1.0000000000
40
1.0000000000
40
1.0000000000
10
-7.2619412833
20
-8.1177427598
30
0.0000000000
10
-7.3079396885
20
-8.1183478048
30
0.0000000000
10
-7.3997836191
20
-8.1257106300
30
0.0000000000
10
-7.4897229185
20
-8.1457537012
30
0.0000000000
10
-7.5336543116
20
-8.1587448564
30
0.0000000000
11
-7.2619412833
21
-8.1177427598
31
0.0000000000
11
-7.3994959509
21
-8.1289091224
31
0.0000000000
11
-7.5336543116
21
-8.1587448564
31
0.0000000000
0
SPLINE
5
499
100
AcDbEntity
8
0
100
AcDbSpline
62
7
6
CONTINUOUS
70
0
71
3
72
12
73
8
74
6
42
0.0000001000
43
0.0000001000
44
0.0000000001
12
-0.5226379619
22
-0.9052355040
32
0.0000000000
13
-1.0452759238
23
-0.0000000000
33
0.0000000000
40
0.0000000000
40
0.0000000000
40
0.0000000000
40
0.0000000000
40
0.2107755680
40
0.4162048309
40
0.6164929819
40
0.8114376014
40
1.0000000000
40
1.0000000000
40
1.0000000000
40
1.0000000000
10
-13.3138635149
20
-9.5176714602
30
0.0000000000
10
-13.3505832860
20
-9.5812719693
30
0.0000000000
10
-13.4372989525
20
-9.6992508486
30
0.0000000000
10
-13.6001558335
20
-9.8417207234
30
0.0000000000
10
-13.7845511471
20
-9.9439974476
30
0.0000000000
10
-13.9801967369
20
-10.0044181713
30
0.0000000000
10
-14.1141890069
20
-10.0176714602
30
0.0000000000
10
-14.1798889187
20
-10.0176714602
30
0.0000000000
11
-13.3138635149
21
-9.5176714602
31
0.0000000000
11
-13.4443709575
21
-9.6951766844
31
0.0000000000
11
-13.6059679334
21
-9.8365821407
31
0.0000000000
11
-13.7890477271
21
-9.9381295869
31
0.0000000000
11
-13.9837486424
21
-9.9982473073
31
0.0000000000
11
-14.1798889187
21
-10.0176714602
31
0.0000000000
0
SPLINE
5
49A
100
AcDbEntity
8
0
100
AcDbSpline
62
7
6
CONTINUOUS
70
0
71
3
72
12
73
8
74
6
42
0.0000001000
43
0.0000001000
44
0.0000000001
12
1.0452757646
22
0.0000000000
32
0.0000000000
13
0.5226378823
23
-0.9052353661
33
0.0000000000
40
0.0000000000
40
0.0000000000
40
0.0000000000
40
0.0000000000
40
0.1882507764
40
0.3837711455
40
0.5835352140
40
0.7891295471
40
1.0000000000
40
1.0000000000
40
1.0000000000
40
1.0000000000
10
-14.1798889187
20
43.2823285398
30
0.0000000000
10
-14.1142975939
20
43.2823285398
30
0.0000000000
10
-13.9802155739
20
43.2690889743
30
0.0000000000
10
-13.7846448513
20
43.2086964462
30
0.0000000000
10
-13.6001930252
20
43.1063874294
30
0.0000000000
10
-13.4373758062
20
42.9640067696
30
0.0000000000
10
-13.3505998105
20
42.8459576704
30
0.0000000000
10
-13.3138635149
20
42.7823285398
30
0.0000000000
11
-14.1798889187
21
43.2823285398
31
0.0000000000
11
-13.9840696464
21
43.2629685414
31
0.0000000000
11
-13.7887922309
21
43.2026781369
31
0.0000000000
11
-13.6061917382
21
43.1013960249
31
0.0000000000
11
-13.4444385456
21
42.9599071321
31
0.0000000000
11
-13.3138635149
21
42.7823285398
31
0.0000000000
0
SPLINE
5
49B
100
AcDbEntity
8
0
100
AcDbSpline
62
7
6
CONTINUOUS
70
0
71
3
72
12
73
8
74
6
42
0.0000001000
43
0.0000001000
44
0.0000000001
12
0.5226379619
22
0.9052355040
32
0.0000000000
13
1.0452759238
23
0.0000000000
33
0.0000000000
40
0.0000000000
40
0.0000000000
40
0.0000000000
40
0.0000000000
40
0.2107755680
40
0.4162048309
40
0.6164929819
40
0.8114376014
40
1.0000000000
40
1.0000000000
40
1.0000000000
40
1.0000000000
10
13.3138635149
20
42.7823285398
30
0.0000000000
10
13.3505832860
20
42.8459290490
30
0.0000000000
10
13.4372989525
20
42.9639079283
30
0.0000000000
10
13.6001558335
20
43.1063778031
30
0.0000000000
10
13.7845511471
20
43.2086545273
30
0.0000000000
10
13.9801967369
20
43.2690752509
30
0.0000000000
10
14.1141890069
20
43.2823285398
30
0.0000000000
10
14.1798889187
20
43.2823285398
30
0.0000000000
11
13.3138635149
21
42.7823285398
31
0.0000000000
11
13.4443709575
21
42.9598337640
31
0.0000000000
11
13.6059679334
21
43.1012392203
31
0.0000000000
11
13.7890477271
21
43.2027866665
31
0.0000000000
11
13.9837486424
21
43.2629043870
31
0.0000000000
11
14.1798889187
21
43.2823285398
31
0.0000000000
0
SPLINE
5
49C
100
AcDbEntity
8
0
100
AcDbSpline
62
7
6
CONTINUOUS
70
0
71
3
72
12
73
8
74
6
42
0.0000001000
43
0.0000001000
44
0.0000000001
12
-1.0452757646
22
0.0000000000
32
0.0000000000
13
-0.5226378823
23
0.9052353661
33
0.0000000000
40
0.0000000000
40
0.0000000000
40
0.0000000000
40
0.0000000000
40
0.1882507764
40
0.3837711455
40
0.5835352140
40
0.7891295471
40
1.0000000000
40
1.0000000000
40
1.0000000000
40
1.0000000000
10
14.1798889187
20
-10.0176714602
30
0.0000000000
10
14.1142975939
20
-10.0176714602
30
0.0000000000
10
13.9802155739
20
-10.0044318946
30
0.0000000000
10
13.7846448513
20
-9.9440393666
30
0.0000000000
10
13.6001930252
20
-9.8417303497
30
0.0000000000
10
13.4373758062
20
-9.6993496900
30
0.0000000000
10
13.3505998105
20
-9.5813005907
30
0.0000000000
10
13.3138635149
20
-9.5176714602
30
0.0000000000
11
14.1798889187
21
-10.0176714602
31
0.0000000000
11
13.9840696464
21
-9.9983114617
31
0.0000000000
11
13.7887922309
21
-9.9380210573
31
0.0000000000
11
13.6061917382
21
-9.8367389453
31
0.0000000000
11
13.4444385456
21
-9.6952500524
31
0.0000000000
11
13.3138635149
21
-9.5176714602
31
0.0000000000
0
SPLINE
5
49D
100
AcDbEntity
8
0
100
AcDbSpline
62
7
6
CONTINUOUS
70
0
71
3
72
12
73
8
74
6
42
0.0000001000
43
0.0000001000
44
0.0000000001
12
-0.5091897483
22
0.5091897483
32
0.0000000000
13
-0.5091897483
23
0.5091897483
33
0.0000000000
40
0.0000000000
40
0.0000000000
40
0.0000000000
40
0.0000000000
40
0.2939098994
40
0.5586533725
40
0.7798567732
40
0.9368463078
40
1.0000000000
40
1.0000000000
40
1.0000000000
40
1.0000000000
10
6.8046456161
20
-8.2223170763
30
0.0000000000
10
6.7547603135
20
-8.1724317737
30
0.0000000000
10
6.6599401235
20
-8.0776115837
30
0.0000000000
10
6.5275750988
20
-7.9452465590
30
0.0000000000
10
6.4184495562
20
-7.8361210163
30
0.0000000000
10
6.3435398301
20
-7.7612112903
30
0.0000000000
10
6.3061749387
20
-7.7238463989
30
0.0000000000
10
6.2954558678
20
-7.7131273280
30
0.0000000000
11
6.8046456161
21
-8.2223170763
31
0.0000000000
11
6.6549897084
21
-8.0726611686
31
0.0000000000
11
6.5201850460
21
-7.9378565062
31
0.0000000000
11
6.4075505421
21
-7.8252220022
31
0.0000000000
11
6.3276130805
21
-7.7452845406
31
0.0000000000
11
6.2954558678
21
-7.7131273280
31
0.0000000000
0
SPLINE
5
49E
100
AcDbEntity
8
0
100
AcDbSpline
62
7
6
CONTINUOUS
70
0
71
3
72
12
73
8
74
6
42
0.0000001000
43
0.0000001000
44
0.0000000001
12
0.5091897483
22
0.5091897483
32
0.0000000000
13
0.5091897483
23
0.5091897483
33
0.0000000000
40
0.0000000000
40
0.0000000000
40
0.0000000000
40
0.0000000000
40
0.2939098994
40
0.5586533725
40
0.7798567732
40
0.9368463078
40
1.0000000000
40
1.0000000000
40
1.0000000000
40
1.0000000000
10
-6.8046456161
20
-8.2223170763
30
0.0000000000
10
-6.7547603135
20
-8.1724317737
30
0.0000000000
10
-6.6599401235
20
-8.0776115837
30
0.0000000000
10
-6.5275750988
20
-7.9452465590
30
0.0000000000
10
-6.4184495562
20
-7.8361210163
30
0.0000000000
10
-6.3435398301
20
-7.7612112903
30
0.0000000000
10
-6.3061749387
20
-7.7238463989
30
0.0000000000
10
-6.2954558678
20
-7.7131273280
30
0.0000000000
11
-6.8046456161
21
-8.2223170763
31
0.0000000000
11
-6.6549897084
21
-8.0726611686
31
0.0000000000
11
-6.5201850460
21
-7.9378565062
31
0.0000000000
11
-6.4075505421
21
-7.8252220022
31
0.0000000000
11
-6.3276130805
21
-7.7452845406
31
0.0000000000
11
-6.2954558678
21
-7.7131273280
31
0.0000000000
0
SPLINE
5
49F
100
AcDbEntity
8
0
100
AcDbSpline
62
7
6
CONTINUOUS
70
0
71
3
72
13
73
9
74
7
42
0.0000001000
43
0.0000001000
44
0.0000000001
12
-1.0663150140
22
1.3061469540
32
0.0000000000
13
-0.0408033684
23
1.6856401335
33
0.0000000000
40
0.0000000000
40
0.0000000000
40
0.0000000000
40
0.0000000000
40
0.2574773977
40
0.4832293341
40
0.6709712301
40
0.8191634688
40
0.9285365765
40
1.0000000000
40
1.0000000000
40
1.0000000000
40
1.0000000000
10
7.2619412833
20
-8.1177427598
30
0.0000000000
10
7.1704239450
20
-8.0056416536
30
0.0000000000
10
6.9987833008
20
-7.7951873307
30
0.0000000000
10
6.7634490213
20
-7.5003702995
30
0.0000000000
10
6.5721610463
20
-7.2495125441
30
0.0000000000
10
6.4279895387
20
-7.0439358323
30
0.0000000000
10
6.3349566884
20
-6.8856178544
30
0.0000000000
10
6.2964278506
20
-6.7878008178
30
0.0000000000
10
6.2954558678
20
-6.7476469462
30
0.0000000000
11
7.2619412833
21
-8.1177427598
31
0.0000000000
11
6.9881262043
21
-7.7808391628
31
0.0000000000
11
6.7513717728
21
-7.4827783704
31
0.0000000000
11
6.5604550054
21
-7.2302714571
31
0.0000000000
11
6.4189180030
21
-7.0243509068
31
0.0000000000
11
6.3288478405
21
-6.8634246623
31
0.0000000000
11
6.2954558678
21
-6.7476469462
31
0.0000000000
0
SPLINE
5
4A0
100
AcDbEntity
8
0
100
AcDbSpline
62
7
6
CONTINUOUS
70
0
71
3
72
13
73
9
74
7
42
0.0000001000
43
0.0000001000
44
0.0000000001
12
-0.0408046851
22
-1.6856945262
32
0.0000000000
13
-1.0663494222
23
-1.3061891011
33
0.0000000000
40
0.0000000000
40
0.0000000000
40
0.0000000000
40
0.0000000000
40
0.0674784243
40
0.1762151536
40
0.3257492006
40
0.5142999564
40
0.7408998999
40
1.0000000000
40
1.0000000000
40
1.0000000000
40
1.0000000000
10
-6.2954558678
20
-6.7476469462
30
0.0000000000
10
-6.2963736798
20
-6.7855629497
30
0.0000000000
10
-6.3325799056
20
-6.8811679276
30
0.0000000000
10
-6.4243257118
20
-7.0383453440
30
0.0000000000
10
-6.5686250379
20
-7.2448064525
30
0.0000000000
10
-6.7608761184
20
-7.4970980555
30
0.0000000000
10
-6.9973168891
20
-7.7933936304
30
0.0000000000
10
-7.1698442026
20
-8.0049315176
30
0.0000000000
10
-7.2619412833
20
-8.1177427598
30
0.0000000000
11
-6.2954558678
21
-6.7476469462
31
0.0000000000
11
-6.3260711779
21
-6.8572320460
31
0.0000000000
11
-6.4147260818
21
-7.0177242629
31
0.0000000000
11
-6.5571829003
21
-7.2257673531
31
0.0000000000
11
-6.7487967080
21
-7.4794698516
31
0.0000000000
11
-6.9864001589
21
-7.7786980333
31
0.0000000000
11
-7.2619412833
21
-8.1177427598
31
0.0000000000
0
SPLINE
5
4A1
100
AcDbEntity
8
0
100
AcDbSpline
62
7
6
CONTINUOUS
70
0
71
3
72
12
73
8
74
6
42
0.0000001000
43
0.0000001000
44
0.0000000001
12
0.5091897483
22
-0.5091897483
32
0.0000000000
13
0.5091897483
23
-0.5091897483
33
0.0000000000
40
0.0000000000
40
0.0000000000
40
0.0000000000
40
0.0000000000
40
0.2939098994
40
0.5586533725
40
0.7798567732
40
0.9368463078
40
1.0000000000
40
1.0000000000
40
1.0000000000
40
1.0000000000
10
-6.8046456161
20
41.4869741559
30
0.0000000000
10
-6.7547603135
20
41.4370888534
30
0.0000000000
10
-6.6599401235
20
41.3422686633
30
0.0000000000
10
-6.5275750988
20
41.2099036386
30
0.0000000000
10
-6.4184495562
20
41.1007780960
30
0.0000000000
10
-6.3435398301
20
41.0258683699
30
0.0000000000
10
-6.3061749387
20
40.9885034785
30
0.0000000000
10
-6.2954558678
20
40.9777844077
30
0.0000000000
11
-6.8046456161
21
41.4869741559
31
0.0000000000
11
-6.6549897084
21
41.3373182482
31
0.0000000000
11
-6.5201850460
21
41.2025135858
31
0.0000000000
11
-6.4075505421
21
41.0898790819
31
0.0000000000
11
-6.3276130805
21
41.0099416203
31
0.0000000000
11
-6.2954558678
21
40.9777844077
31
0.0000000000
0
SPLINE
5
4A2
100
AcDbEntity
8
0
100
AcDbSpline
62
7
6
CONTINUOUS
70
0
71
3
72
12
73
8
74
6
42
0.0000001000
43
0.0000001000
44
0.0000000001
12
-0.5091897483
22
-0.5091897483
32
0.0000000000
13
-0.5091897483
23
-0.5091897483
33
0.0000000000
40
0.0000000000
40
0.0000000000
40
0.0000000000
40
0.0000000000
40
0.2939098994
40
0.5586533725
40
0.7798567732
40
0.9368463078
40
1.0000000000
40
1.0000000000
40
1.0000000000
40
1.0000000000
10
6.8046456161
20
41.4869741559
30
0.0000000000
10
6.7547603135
20
41.4370888534
30
0.0000000000
10
6.6599401235
20
41.3422686633
30
0.0000000000
10
6.5275750988
20
41.2099036386
30
0.0000000000
10
6.4184495562
20
41.1007780960
30
0.0000000000
10
6.3435398301
20
41.0258683699
30
0.0000000000
10
6.3061749387
20
40.9885034785
30
0.0000000000
10
6.2954558678
20
40.9777844077
30
0.0000000000
11
6.8046456161
21
41.4869741559
31
0.0000000000
11
6.6549897084
21
41.3373182482
31
0.0000000000
11
6.5201850460
21
41.2025135858
31
0.0000000000
11
6.4075505421
21
41.0898790819
31
0.0000000000
11
6.3276130805
21
41.0099416203
31
0.0000000000
11
6.2954558678
21
40.9777844077
31
0.0000000000
0
SPLINE
5
4A3
100
AcDbEntity
8
0
100
AcDbSpline
62
7
6
CONTINUOUS
70
0
71
3
72
13
73
9
74
7
42
0.0000001000
43
0.0000001000
44
0.0000000001
12
1.0663150140
22
-1.3061469540
32
0.0000000000
13
0.0408033684
23
-1.6856401335
33
0.0000000000
40
0.0000000000
40
0.0000000000
40
0.0000000000
40
0.0000000000
40
0.2574773977
40
0.4832293341
40
0.6709712301
40
0.8191634688
40
0.9285365765
40
1.0000000000
40
1.0000000000
40
1.0000000000
40
1.0000000000
10
-7.2619412833
20
41.3823998395
30
0.0000000000
10
-7.1704239450
20
41.2702987332
30
0.0000000000
10
-6.9987833008
20
41.0598444103
30
0.0000000000
10
-6.7634490213
20
40.7650273792
30
0.0000000000
10
-6.5721610463
20
40.5141696237
30
0.0000000000
10
-6.4279895387
20
40.3085929119
30
0.0000000000
10
-6.3349566884
20
40.1502749341
30
0.0000000000
10
-6.2964278506
20
40.0524578974
30
0.0000000000
10
-6.2954558678
20
40.0123040259
30
0.0000000000
11
-7.2619412833
21
41.3823998395
31
0.0000000000
11
-6.9881262043
21
41.0454962424
31
0.0000000000
11
-6.7513717728
21
40.7474354500
31
0.0000000000
11
-6.5604550054
21
40.4949285367
31
0.0000000000
11
-6.4189180030
21
40.2890079865
31
0.0000000000
11
-6.3288478405
21
40.1280817419
31
0.0000000000
11
-6.2954558678
21
40.0123040259
31
0.0000000000
0
SPLINE
5
4A4
100
AcDbEntity
8
0
100
AcDbSpline
62
7
6
CONTINUOUS
70
0
71
3
72
13
73
9
74
7
42
0.0000001000
43
0.0000001000
44
0.0000000001
12
0.0408046851
22
1.6856945262
32
0.0000000000
13
1.0663494222
23
1.3061891011
33
0.0000000000
40
0.0000000000
40
0.0000000000
40
0.0000000000
40
0.0000000000
40
0.0674784243
40
0.1762151536
40
0.3257492006
40
0.5142999564
40
0.7408998999
40
1.0000000000
40
1.0000000000
40
1.0000000000
40
1.0000000000
10
6.2954558678
20
40.0123040259
30
0.0000000000
10
6.2963736798
20
40.0502200293
30
0.0000000000
10
6.3325799056
20
40.1458250072
30
0.0000000000
10
6.4243257118
20
40.3030024237
30
0.0000000000
10
6.5686250379
20
40.5094635321
30
0.0000000000
10
6.7608761184
20
40.7617551352
30
0.0000000000
10
6.9973168891
20
41.0580507100
30
0.0000000000
10
7.1698442026
20
41.2695885972
30
0.0000000000
10
7.2619412833
20
41.3823998395
30
0.0000000000
11
6.2954558678
21
40.0123040259
31
0.0000000000
11
6.3260711779
21
40.1218891256
31
0.0000000000
11
6.4147260818
21
40.2823813425
31
0.0000000000
11
6.5571829003
21
40.4904244327
31
0.0000000000
11
6.7487967080
21
40.7441269312
31
0.0000000000
11
6.9864001589
21
41.0433551129
31
0.0000000000
11
7.2619412833
21
41.3823998395
31
0.0000000000
0
SPLINE
5
4A5
100
AcDbEntity
8
0
100
AcDbSpline
62
7
6
CONTINUOUS
70
0
71
3
72
10
73
6
74
4
42
0.0000001000
43
0.0000001000
44
0.0000000001
12
-0.4910875539
22
0.0000000000
32
0.0000000000
13
-0.2707735022
23
0.4096934172
33
0.0000000000
40
0.0000000000
40
0.0000000000
40
0.0000000000
40
0.0000000000
40
0.3334249451
40
0.6667437717
40
1.0000000000
40
1.0000000000
40
1.0000000000
40
1.0000000000
10
7.4999238476
20
-10.3676714602
30
0.0000000000
10
7.4453435674
20
-10.3676714602
30
0.0000000000
10
7.3353388068
20
-10.3494506349
30
0.0000000000
10
7.1887712442
20
-10.2706295417
30
0.0000000000
10
7.1129373851
20
-10.1889242861
30
0.0000000000
10
7.0828583997
20
-10.1434133251
30
0.0000000000
11
7.4999238476
21
-10.3676714602
31
0.0000000000
11
7.3383927137
21
-10.3408618406
31
0.0000000000
11
7.1942292015
21
-10.2633319678
31
0.0000000000
11
7.0828583997
21
-10.1434133251
31
0.0000000000
0
SPLINE
5
4A6
100
AcDbEntity
8
0
100
AcDbSpline
62
7
6
CONTINUOUS
70
0
71
3
72
10
73
6
74
4
42
0.0000001000
43
0.0000001000
44
0.0000000001
12
0.2242694892
22
0.0051130324
32
0.0000000000
13
0.2185503001
23
0.0505837251
33
0.0000000000
40
0.0000000000
40
0.0000000000
40
0.0000000000
40
0.0000000000
40
0.3290525821
40
0.6644622114
40
1.0000000000
40
1.0000000000
40
1.0000000000
40
1.0000000000
10
7.0828583997
20
-10.1434133251
30
0.0000000000
10
7.1074572179
20
-10.1428525062
30
0.0000000000
10
7.1571118534
20
-10.1402070516
30
0.0000000000
10
7.2314092435
20
-10.1312995438
30
0.0000000000
10
7.2807277655
20
-10.1218059243
30
0.0000000000
10
7.3051717269
20
-10.1161483405
30
0.0000000000
11
7.0828583997
21
-10.1434133251
31
0.0000000000
11
7.1565664559
21
-10.1394296323
31
0.0000000000
11
7.2312669923
21
-10.1304217337
31
0.0000000000
11
7.3051717269
21
-10.1161483405
31
0.0000000000
0
SPLINE
5
4A7
100
AcDbEntity
8
0
100
AcDbSpline
62
7
6
CONTINUOUS
70
0
71
3
72
10
73
6
74
4
42
0.0000001000
43
0.0000001000
44
0.0000000001
12
0.2707735022
22
0.4096934172
32
0.0000000000
13
0.4910875539
23
0.0000000000
33
0.0000000000
40
0.0000000000
40
0.0000000000
40
0.0000000000
40
0.0000000000
40
0.3332623164
40
0.6665728728
40
1.0000000000
40
1.0000000000
40
1.0000000000
40
1.0000000000
10
7.0828583997
20
43.4080704047
30
0.0000000000
10
7.1129379346
20
43.4535821971
30
0.0000000000
10
7.1887718761
20
43.5352870290
30
0.0000000000
10
7.3353394258
20
43.6141077419
30
0.0000000000
10
7.4453432101
20
43.6323285398
30
0.0000000000
10
7.4999238476
20
43.6323285398
30
0.0000000000
11
7.0828583997
21
43.4080704047
31
0.0000000000
11
7.1942315997
21
43.5279909006
31
0.0000000000
11
7.3383916857
21
43.6055185693
31
0.0000000000
11
7.4999238476
21
43.6323285398
31
0.0000000000
0
SPLINE
5
4A8
100
AcDbEntity
8
0
100
AcDbSpline
62
7
6
CONTINUOUS
70
0
71
3
72
10
73
6
74
4
42
0.0000001000
43
0.0000001000
44
0.0000000001
12
-0.2185503001
22
0.0505837251
32
0.0000000000
13
-0.2242694892
23
0.0051130324
33
0.0000000000
40
0.0000000000
40
0.0000000000
40
0.0000000000
40
0.0000000000
40
0.3355377821
40
0.6709474134
40
1.0000000000
40
1.0000000000
40
1.0000000000
40
1.0000000000
10
7.3051717269
20
43.3808054201
30
0.0000000000
10
7.2807277660
20
43.3864630038
30
0.0000000000
10
7.2314092443
20
43.3959566233
30
0.0000000000
10
7.1571118543
20
43.4048641312
30
0.0000000000
10
7.1074572182
20
43.4075095859
30
0.0000000000
10
7.0828583997
20
43.4080704047
30
0.0000000000
11
7.3051717269
21
43.3808054201
31
0.0000000000
11
7.2312669938
21
43.3950788131
31
0.0000000000
11
7.1565664569
21
43.4040867119
31
0.0000000000
11
7.0828583997
21
43.4080704047
31
0.0000000000
0
SPLINE
5
4A9
100
AcDbEntity
8
0
100
AcDbSpline
62
7
6
CONTINUOUS
70
0
71
3
72
10
73
6
74
4
42
0.0000001000
43
0.0000001000
44
0.0000000001
12
0.4910875539
22
0.0000000000
32
0.0000000000
13
0.2707735022
23
-0.4096934172
33
0.0000000000
40
0.0000000000
40
0.0000000000
40
0.0000000000
40
0.0000000000
40
0.3334249451
40
0.6667437717
40
1.0000000000
40
1.0000000000
40
1.0000000000
40
1.0000000000
10
-7.4999238476
20
43.6323285398
30
0.0000000000
10
-7.4453435674
20
43.6323285398
30
0.0000000000
10
-7.3353388068
20
43.6141077145
30
0.0000000000
10
-7.1887712442
20
43.5352866213
30
0.0000000000
10
-7.1129373851
20
43.4535813657
30
0.0000000000
10
-7.0828583997
20
43.4080704047
30
0.0000000000
11
-7.4999238476
21
43.6323285398
31
0.0000000000
11
-7.3383927137
21
43.6055189202
31
0.0000000000
11
-7.1942292015
21
43.5279890475
31
0.0000000000
11
-7.0828583997
21
43.4080704047
31
0.0000000000
0
SPLINE
5
4AA
100
AcDbEntity
8
0
100
AcDbSpline
62
7
6
CONTINUOUS
70
0
71
3
72
10
73
6
74
4
42
0.0000001000
43
0.0000001000
44
0.0000000001
12
-0.2242694892
22
-0.0051130324
32
0.0000000000
13
-0.2185503001
23
-0.0505837251
33
0.0000000000
40
0.0000000000
40
0.0000000000
40
0.0000000000
40
0.0000000000
40
0.3290525821
40
0.6644622114
40
1.0000000000
40
1.0000000000
40
1.0000000000
40
1.0000000000
10
-7.0828583997
20
43.4080704047
30
0.0000000000
10
-7.1074572179
20
43.4075095859
30
0.0000000000
10
-7.1571118534
20
43.4048641312
30
0.0000000000
10
-7.2314092435
20
43.3959566234
30
0.0000000000
10
-7.2807277655
20
43.3864630039
30
0.0000000000
10
-7.3051717269
20
43.3808054201
30
0.0000000000
11
-7.0828583997
21
43.4080704047
31
0.0000000000
11
-7.1565664559
21
43.4040867119
31
0.0000000000
11
-7.2312669923
21
43.3950788134
31
0.0000000000
11
-7.3051717269
21
43.3808054201
31
0.0000000000
0
SPLINE
5
4AB
100
AcDbEntity
8
0
100
AcDbSpline
62
7
6
CONTINUOUS
70
0
71
3
72
10
73
6
74
4
42
0.0000001000
43
0.0000001000
44
0.0000000001
12
-0.2707735022
22
-0.4096934172
32
0.0000000000
13
-0.4910875539
23
0.0000000000
33
0.0000000000
40
0.0000000000
40
0.0000000000
40
0.0000000000
40
0.0000000000
40
0.3332623164
40
0.6665728728
40
1.0000000000
40
1.0000000000
40
1.0000000000
40
1.0000000000
10
-7.0828583997
20
-10.1434133251
30
0.0000000000
10
-7.1129379346
20
-10.1889251175
30
0.0000000000
10
-7.1887718761
20
-10.2706299493
30
0.0000000000
10
-7.3353394258
20
-10.3494506622
30
0.0000000000
10
-7.4453432101
20
-10.3676714602
30
0.0000000000
10
-7.4999238476
20
-10.3676714602
30
0.0000000000
11
-7.0828583997
21
-10.1434133251
31
0.0000000000
11
-7.1942315997
21
-10.2633338209
31
0.0000000000
11
-7.3383916857
21
-10.3408614896
31
0.0000000000
11
-7.4999238476
21
-10.3676714602
31
0.0000000000
0
SPLINE
5
4AC
100
AcDbEntity
8
0
100
AcDbSpline
62
7
6
CONTINUOUS
70
0
71
3
72
10
73
6
74
4
42
0.0000001000
43
0.0000001000
44
0.0000000001
12
0.2185503001
22
-0.0505837251
32
0.0000000000
13
0.2242694892
23
-0.0051130324
33
0.0000000000
40
0.0000000000
40
0.0000000000
40
0.0000000000
40
0.0000000000
40
0.3355377821
40
0.6709474134
40
1.0000000000
40
1.0000000000
40
1.0000000000
40
1.0000000000
10
-7.3051717269
20
-10.1161483405
30
0.0000000000
10
-7.2807277660
20
-10.1218059241
30
0.0000000000
10
-7.2314092443
20
-10.1312995437
30
0.0000000000
10
-7.1571118543
20
-10.1402070515
30
0.0000000000
10
-7.1074572182
20
-10.1428525062
30
0.0000000000
10
-7.0828583997
20
-10.1434133251
30
0.0000000000
11
-7.3051717269
21
-10.1161483405
31
0.0000000000
11
-7.2312669938
21
-10.1304217335
31
0.0000000000
11
-7.1565664569
21
-10.1394296322
31
0.0000000000
11
-7.0828583997
21
-10.1434133251
31
0.0000000000
0
SPLINE
5
4AD
100
AcDbEntity
8
0
100
AcDbSpline
62
7
6
CONTINUOUS
70
0
71
3
72
9
73
5
74
3
42
0.0000001000
43
0.0000001000
44
0.0000000001
12
0.2470044779
22
0.1695228526
32
0.0000000000
13
0.2995817245
23
0.0000000000
33
0.0000000000
40
0.0000000000
40
0.0000000000
40
0.0000000000
40
0.0000000000
40
0.4986757843
40
1.0000000000
40
1.0000000000
40
1.0000000000
40
1.0000000000
10
-14.4329848641
20
43.5445916802
30
0.0000000000
10
-14.3919264801
20
43.5727706607
30
0.0000000000
10
-14.3005803920
20
43.6171554896
30
0.0000000000
10
-14.2001386768
20
43.6323285398
30
0.0000000000
10
-14.1500761524
20
43.6323285398
30
0.0000000000
11
-14.4329848641
21
43.5445916802
31
0.0000000000
11
-14.2985604377
21
43.6097736262
31
0.0000000000
11
-14.1500761524
21
43.6323285398
31
0.0000000000
0
SPLINE
5
4AE
100
AcDbEntity
8
0
100
AcDbSpline
62
7
6
CONTINUOUS
70
0
71
3
72
10
73
6
74
4
42
0.0000001000
43
0.0000001000
44
0.0000000001
12
-0.0015287444
22
0.4967005443
32
0.0000000000
13
0.4165310411
23
0.2705839234
33
0.0000000000
40
0.0000000000
40
0.0000000000
40
0.0000000000
40
0.0000000000
40
0.3364369165
40
0.6721778636
40
1.0000000000
40
1.0000000000
40
1.0000000000
40
1.0000000000
10
-14.6769801183
20
43.1593848106
30
0.0000000000
10
-14.6771515603
20
43.2150876104
30
0.0000000000
10
-14.6586466937
20
43.3273459862
30
0.0000000000
10
-14.5781164439
20
43.4752932022
30
0.0000000000
10
-14.4952550739
20
43.5509755517
30
0.0000000000
10
-14.4497390420
20
43.5805433517
30
0.0000000000
11
-14.6769801183
21
43.1593848106
31
0.0000000000
11
-14.6497026348
21
43.3242526989
31
0.0000000000
11
-14.5699460028
21
43.4707072821
31
0.0000000000
11
-14.4497390420
21
43.5805433517
31
0.0000000000
0
SPLINE
5
4AF
100
AcDbEntity
8
0
100
AcDbSpline
62
7
6
CONTINUOUS
70
0
71
3
72
8
73
4
74
2
42
0.0000001000
43
0.0000001000
44
0.0000000001
12
0.1365480958
22
-0.0887033999
32
0.0000000000
13
0.1012640046
23
-0.1286360485
33
0.0000000000
40
0.0000000000
40
0.0000000000
40
0.0000000000
40
0.0000000000
40
1.0000000000
40
1.0000000000
40
1.0000000000
40
1.0000000000
10
14.4497390420
20
43.5805433517
30
0.0000000000
10
14.4952550739
20
43.5509755517
30
0.0000000000
10
14.5361913346
20
43.5135859649
30
0.0000000000
10
14.5699460028
20
43.4707072821
30
0.0000000000
11
14.4497390420
21
43.5805433517
31
0.0000000000
11
14.5699460028
21
43.4707072821
31
0.0000000000
0
SPLINE
5
4B0
100
AcDbEntity
8
0
100
AcDbSpline
62
7
6
CONTINUOUS
70
0
71
3
72
9
73
5
74
3
42
0.0000001000
43
0.0000001000
44
0.0000000001
12
0.2076352226
22
-0.2637598095
32
0.0000000000
13
-0.0010275881
23
-0.3338711107
33
0.0000000000
40
0.0000000000
40
0.0000000000
40
0.0000000000
40
0.0000000000
40
0.4994823026
40
1.0000000000
40
1.0000000000
40
1.0000000000
40
1.0000000000
10
14.5699460028
20
43.4707072821
30
0.0000000000
10
14.6045160425
20
43.4267928297
30
0.0000000000
10
14.6586466937
20
43.3273459862
30
0.0000000000
10
14.6771515603
20
43.2150876104
30
0.0000000000
10
14.6769801183
20
43.1593848106
30
0.0000000000
11
14.5699460028
21
43.4707072821
31
0.0000000000
11
14.6497026348
21
43.3242526989
31
0.0000000000
11
14.6769801183
21
43.1593848106
31
0.0000000000
0
SPLINE
5
4B1
100
AcDbEntity
8
0
100
AcDbSpline
62
7
6
CONTINUOUS
70
0
71
3
72
9
73
5
74
3
42
0.0000001000
43
0.0000001000
44
0.0000000001
12
0.2995817245
22
0.0000000000
32
0.0000000000
13
0.2470044779
23
-0.1695228526
33
0.0000000000
40
0.0000000000
40
0.0000000000
40
0.0000000000
40
0.0000000000
40
0.5013242157
40
1.0000000000
40
1.0000000000
40
1.0000000000
40
1.0000000000
10
14.1500761524
20
43.6323285398
30
0.0000000000
10
14.2001386768
20
43.6323285398
30
0.0000000000
10
14.3005803920
20
43.6171554896
30
0.0000000000
10
14.3919264801
20
43.5727706607
30
0.0000000000
10
14.4329848641
20
43.5445916802
30
0.0000000000
11
14.1500761524
21
43.6323285398
31
0.0000000000
11
14.2985604377
21
43.6097736262
31
0.0000000000
11
14.4329848641
21
43.5445916802
31
0.0000000000
0
SPLINE
5
4B2
100
AcDbEntity
8
0
100
AcDbSpline
62
7
6
CONTINUOUS
70
0
71
3
72
8
73
4
74
2
42
0.0000001000
43
0.0000001000
44
0.0000000001
12
-0.1365480958
22
0.0887033999
32
0.0000000000
13
-0.1012640046
23
0.1286360485
33
0.0000000000
40
0.0000000000
40
0.0000000000
40
0.0000000000
40
0.0000000000
40
1.0000000000
40
1.0000000000
40
1.0000000000
40
1.0000000000
10
-14.4497390420
20
-10.3158862720
30
0.0000000000
10
-14.4952550739
20
-10.2863184721
30
0.0000000000
10
-14.5361913346
20
-10.2489288853
30
0.0000000000
10
-14.5699460028
20
-10.2060502024
30
0.0000000000
11
-14.4497390420
21
-10.3158862720
31
0.0000000000
11
-14.5699460028
21
-10.2060502024
31
0.0000000000
0
SPLINE
5
4B3
100
AcDbEntity
8
0
100
AcDbSpline
62
7
6
CONTINUOUS
70
0
71
3
72
9
73
5
74
3
42
0.0000001000
43
0.0000001000
44
0.0000000001
12
-0.2076352226
22
0.2637598095
32
0.0000000000
13
0.0010275881
23
0.3338711107
33
0.0000000000
40
0.0000000000
40
0.0000000000
40
0.0000000000
40
0.0000000000
40
0.4994823026
40
1.0000000000
40
1.0000000000
40
1.0000000000
40
1.0000000000
10
-14.5699460028
20
-10.2060502024
30
0.0000000000
10
-14.6045160425
20
-10.1621357501
30
0.0000000000
10
-14.6586466937
20
-10.0626889066
30
0.0000000000
10
-14.6771515603
20
-9.9504305308
30
0.0000000000
10
-14.6769801183
20
-9.8947277309
30
0.0000000000
11
-14.5699460028
21
-10.2060502024
31
0.0000000000
11
-14.6497026348
21
-10.0595956193
31
0.0000000000
11
-14.6769801183
21
-9.8947277309
31
0.0000000000
0
SPLINE
5
4B4
100
AcDbEntity
8
0
100
AcDbSpline
62
7
6
CONTINUOUS
70
0
71
3
72
9
73
5
74
3
42
0.0000001000
43
0.0000001000
44
0.0000000001
12
-0.2995817245
22
0.0000000000
32
0.0000000000
13
-0.2470044779
23
0.1695228526
33
0.0000000000
40
0.0000000000
40
0.0000000000
40
0.0000000000
40
0.0000000000
40
0.5013242157
40
1.0000000000
40
1.0000000000
40
1.0000000000
40
1.0000000000
10
-14.1500761524
20
-10.3676714602
30
0.0000000000
10
-14.2001386768
20
-10.3676714602
30
0.0000000000
10
-14.3005803920
20
-10.3524984099
30
0.0000000000
10
-14.3919264801
20
-10.3081135810
30
0.0000000000
10
-14.4329848641
20
-10.2799346006
30
0.0000000000
11
-14.1500761524
21
-10.3676714602
31
0.0000000000
11
-14.2985604377
21
-10.3451165466
31
0.0000000000
11
-14.4329848641
21
-10.2799346006
31
0.0000000000
0
SPLINE
5
4B5
100
AcDbEntity
8
0
100
AcDbSpline
62
7
6
CONTINUOUS
70
0
71
3
72
9
73
5
74
3
42
0.0000001000
43
0.0000001000
44
0.0000000001
12
-0.2470044953
22
-0.1695228645
32
0.0000000000
13
-0.2995817455
23
0.0000000000
33
0.0000000000
40
0.0000000000
40
0.0000000000
40
0.0000000000
40
0.0000000000
40
0.4996057503
40
1.0000000000
40
1.0000000000
40
1.0000000000
40
1.0000000000
10
14.4329848641
20
-10.2799346006
30
0.0000000000
10
14.3918499087
20
-10.3081661332
30
0.0000000000
10
14.3004835943
20
-10.3525284305
30
0.0000000000
10
14.2000458134
20
-10.3676714602
30
0.0000000000
10
14.1500761524
20
-10.3676714602
30
0.0000000000
11
14.4329848641
21
-10.2799346006
31
0.0000000000
11
14.2982913450
21
-10.3452001491
31
0.0000000000
11
14.1500761524
21
-10.3676714602
31
0.0000000000
0
SPLINE
5
4B6
100
AcDbEntity
8
0
100
AcDbSpline
62
7
6
CONTINUOUS
70
0
71
3
72
10
73
6
74
4
42
0.0000001000
43
0.0000001000
44
0.0000000001
12
0.0015287442
22
-0.4967004775
32
0.0000000000
13
-0.4165309850
23
-0.2705838870
33
0.0000000000
40
0.0000000000
40
0.0000000000
40
0.0000000000
40
0.0000000000
40
0.3369782529
40
0.6723947468
40
1.0000000000
40
1.0000000000
40
1.0000000000
40
1.0000000000
10
14.6769801183
20
-9.8947277309
30
0.0000000000
10
14.6771518362
20
-9.9505201506
30
0.0000000000
10
14.6586086681
20
-10.0628189234
30
0.0000000000
10
14.5780246716
20
-10.2107279690
30
0.0000000000
10
14.4952249549
20
-10.2863380378
30
0.0000000000
10
14.4497390420
20
-10.3158862720
30
0.0000000000
11
14.6769801183
21
-9.8947277309
31
0.0000000000
11
14.6496138867
21
-10.0598534455
31
0.0000000000
11
14.5698784852
21
-10.2061360465
31
0.0000000000
11
14.4497390420
21
-10.3158862720
31
0.0000000000
0
SPLINE
5
4B7
100
AcDbEntity
8
0
100
AcDbSpline
62
7
6
CONTINUOUS
70
0
71
3
72
9
73
5
74
3
42
0.0000001000
43
0.0000001000
44
0.0000000001
12
0.0021533127
22
-0.0889561447
32
0.0000000000
13
0.0629199191
23
-0.0629199191
33
0.0000000000
40
0.0000000000
40
0.0000000000
40
0.0000000000
40
0.0000000000
40
0.7363821702
40
1.0000000000
40
1.0000000000
40
1.0000000000
40
1.0000000000
10
-6.2954558678
20
40.0123040259
30
0.0000000000
10
-6.2949273141
20
39.9904687862
30
0.0000000000
10
-6.2883682363
20
39.9638971612
30
0.0000000000
10
-6.2966594491
20
39.9289879889
30
0.0000000000
10
-6.2911305116
20
39.9234590514
30
0.0000000000
11
-6.2954558678
21
40.0123040259
31
0.0000000000
11
-6.2933200375
21
39.9468139369
31
0.0000000000
11
-6.2911305116
21
39.9234590514
31
0.0000000000
0
SPLINE
5
4B8
100
AcDbEntity
8
0
100
AcDbSpline
62
7
6
CONTINUOUS
70
0
71
3
72
9
73
5
74
3
42
0.0000001000
43
0.0000001000
44
0.0000000001
12
-0.0629199191
22
-0.0629199191
32
0.0000000000
13
-0.0021533127
23
-0.0889561447
33
0.0000000000
40
0.0000000000
40
0.0000000000
40
0.0000000000
40
0.0000000000
40
0.2636178298
40
1.0000000000
40
1.0000000000
40
1.0000000000
40
1.0000000000
10
-6.2911305116
20
-6.6588019718
30
0.0000000000
10
-6.2966594491
20
-6.6643309093
30
0.0000000000
10
-6.2883682363
20
-6.6992400816
30
0.0000000000
10
-6.2949273141
20
-6.7258117066
30
0.0000000000
10
-6.2954558678
20
-6.7476469462
30
0.0000000000
11
-6.2911305116
21
-6.6588019718
31
0.0000000000
11
-6.2933200375
21
-6.6821568572
31
0.0000000000
11
-6.2954558678
21
-6.7476469462
31
0.0000000000
0
SPLINE
5
4B9
100
AcDbEntity
8
0
100
AcDbSpline
62
7
6
CONTINUOUS
70
0
71
3
72
10
73
6
74
4
42
0.0000001000
43
0.0000001000
44
0.0000000001
12
-0.0042002209
22
-0.1309782931
32
0.0000000000
13
0.0120055596
23
-0.1304945274
33
0.0000000000
40
0.0000000000
40
0.0000000000
40
0.0000000000
40
0.0000000000
40
0.3335375641
40
0.6669939034
40
1.0000000000
40
1.0000000000
40
1.0000000000
40
1.0000000000
10
6.2868841298
20
-9.3867584732
30
0.0000000000
10
6.2864171527
20
-9.4013205335
30
0.0000000000
10
6.2860844306
20
-9.4304641067
30
0.0000000000
10
6.2873887653
20
-9.4741376746
30
0.0000000000
10
6.2894579507
20
-9.5031863025
30
0.0000000000
10
6.2907905922
20
-9.5176714602
30
0.0000000000
11
6.2868841298
21
-9.3867584732
31
0.0000000000
11
6.2863851396
21
-9.4304642625
31
0.0000000000
11
6.2876897318
21
-9.4741427775
31
0.0000000000
11
6.2907905922
21
-9.5176714602
31
0.0000000000
0
SPLINE
5
4BA
100
AcDbEntity
8
0
100
AcDbSpline
62
7
6
CONTINUOUS
70
0
71
3
72
10
73
6
74
4
42
0.0000001000
43
0.0000001000
44
0.0000000001
12
0.0120055596
22
0.1304945274
32
0.0000000000
13
-0.0042002209
23
0.1309782931
33
0.0000000000
40
0.0000000000
40
0.0000000000
40
0.0000000000
40
0.0000000000
40
0.3330060966
40
0.6664624359
40
1.0000000000
40
1.0000000000
40
1.0000000000
40
1.0000000000
10
-6.2907905922
20
-9.5176714602
30
0.0000000000
10
-6.2894579507
20
-9.5031863025
30
0.0000000000
10
-6.2873887653
20
-9.4741376746
30
0.0000000000
10
-6.2860844306
20
-9.4304641067
30
0.0000000000
10
-6.2864171527
20
-9.4013205335
30
0.0000000000
10
-6.2868841298
20
-9.3867584732
30
0.0000000000
11
-6.2907905922
21
-9.5176714602
31
0.0000000000
11
-6.2876897318
21
-9.4741427775
31
0.0000000000
11
-6.2863851396
21
-9.4304642625
31
0.0000000000
11
-6.2868841298
21
-9.3867584732
31
0.0000000000
0
SPLINE
5
4BB
100
AcDbEntity
8
0
100
AcDbSpline
62
7
6
CONTINUOUS
70
0
71
3
72
10
73
6
74
4
42
0.0000001000
43
0.0000001000
44
0.0000000001
12
-0.0120055596
22
-0.1304945274
32
0.0000000000
13
0.0042002209
23
-0.1309782931
33
0.0000000000
40
0.0000000000
40
0.0000000000
40
0.0000000000
40
0.0000000000
40
0.3330060966
40
0.6664624359
40
1.0000000000
40
1.0000000000
40
1.0000000000
40
1.0000000000
10
6.2907905922
20
42.7823285398
30
0.0000000000
10
6.2894579507
20
42.7678433821
30
0.0000000000
10
6.2873887653
20
42.7387947543
30
0.0000000000
10
6.2860844306
20
42.6951211863
30
0.0000000000
10
6.2864171527
20
42.6659776131
30
0.0000000000
10
6.2868841298
20
42.6514155529
30
0.0000000000
11
6.2907905922
21
42.7823285398
31
0.0000000000
11
6.2876897318
21
42.7387998572
31
0.0000000000
11
6.2863851396
21
42.6951213421
31
0.0000000000
11
6.2868841298
21
42.6514155529
31
0.0000000000
0
SPLINE
5
4BC
100
AcDbEntity
8
0
100
AcDbSpline
62
7
6
CONTINUOUS
70
0
71
3
72
10
73
6
74
4
42
0.0000001000
43
0.0000001000
44
0.0000000001
12
0.0042002209
22
0.1309782931
32
0.0000000000
13
-0.0120055596
23
0.1304945274
33
0.0000000000
40
0.0000000000
40
0.0000000000
40
0.0000000000
40
0.0000000000
40
0.3335375641
40
0.6669939034
40
1.0000000000
40
1.0000000000
40
1.0000000000
40
1.0000000000
10
-6.2868841298
20
42.6514155529
30
0.0000000000
10
-6.2864171527
20
42.6659776131
30
0.0000000000
10
-6.2860844306
20
42.6951211863
30
0.0000000000
10
-6.2873887653
20
42.7387947543
30
0.0000000000
10
-6.2894579507
20
42.7678433821
30
0.0000000000
10
-6.2907905922
20
42.7823285398
30
0.0000000000
11
-6.2868841298
21
42.6514155529
31
0.0000000000
11
-6.2863851396
21
42.6951213421
31
0.0000000000
11
-6.2876897318
21
42.7387998572
31
0.0000000000
11
-6.2907905922
21
42.7823285398
31
0.0000000000
0
SPLINE
5
4BD
100
AcDbEntity
8
0
100
AcDbSpline
62
7
6
CONTINUOUS
70
0
71
3
72
10
73
6
74
4
42
0.0000001000
43
0.0000001000
44
0.0000000001
12
0.2684751606
22
-0.2304968615
32
0.0000000000
13
0.3538470221
23
-0.0000000000
33
0.0000000000
40
0.0000000000
40
0.0000000000
40
0.0000000000
40
0.0000000000
40
0.3332966681
40
0.6666186685
40
1.0000000000
40
1.0000000000
40
1.0000000000
40
1.0000000000
10
7.3051717269
20
-10.1161483405
30
0.0000000000
10
7.3349990191
20
-10.1417562858
30
0.0000000000
10
7.4010063975
20
-10.1860759913
30
0.0000000000
10
7.5125527893
20
-10.2273886191
30
0.0000000000
10
7.5915148374
20
-10.2367584732
30
0.0000000000
10
7.6308368345
20
-10.2367584732
30
0.0000000000
11
7.3051717269
21
-10.1161483405
31
0.0000000000
11
7.4030916127
21
-10.1818796418
31
0.0000000000
11
7.5136943910
21
-10.2228436235
31
0.0000000000
11
7.6308368345
21
-10.2367584732
31
0.0000000000
0
SPLINE
5
4BE
100
AcDbEntity
8
0
100
AcDbSpline
62
7
6
CONTINUOUS
70
0
71
3
72
12
73
8
74
6
42
0.0000001000
43
0.0000001000
44
0.0000000001
12
0.7820638814
22
0.0000000000
32
0.0000000000
13
-0.0000000000
23
0.7820638814
33
0.0000000000
40
0.0000000000
40
0.0000000000
40
0.0000000000
40
0.0000000000
40
0.1997525100
40
0.4004130106
40
0.5999381813
40
0.8000821932
40
1.0000000000
40
1.0000000000
40
1.0000000000
40
1.0000000000
10
14.0191631655
20
-10.2367584732
30
0.0000000000
10
14.0712362399
20
-10.2367584732
30
0.0000000000
10
14.1763509851
20
-10.2201844749
30
0.0000000000
10
14.3179020108
20
-10.1479910122
30
0.0000000000
10
14.4303888030
20
-10.0354402238
30
0.0000000000
10
14.5025123650
20
-9.8939759792
30
0.0000000000
10
14.5190870130
20
-9.7889507910
30
0.0000000000
10
14.5190870130
20
-9.7368346256
30
0.0000000000
11
14.0191631655
21
-10.2367584732
31
0.0000000000
11
14.1734646176
21
-10.2123554487
31
0.0000000000
11
14.3132832543
21
-10.1410984252
31
0.0000000000
11
14.4235905086
21
-10.0307297821
31
0.0000000000
11
14.4946435825
21
-9.8912605655
31
0.0000000000
11
14.5190870130
21
-9.7368346256
31
0.0000000000
0
SPLINE
5
4BF
100
AcDbEntity
8
0
100
AcDbSpline
62
7
6
CONTINUOUS
70
0
71
3
72
12
73
8
74
6
42
0.0000001000
43
0.0000001000
44
0.0000000001
12
0.0000000000
22
0.7820638814
32
0.0000000000
13
-0.7820638814
23
0.0000000000
33
0.0000000000
40
0.0000000000
40
0.0000000000
40
0.0000000000
40
0.0000000000
40
0.1997525100
40
0.4004130106
40
0.5999381813
40
0.8000821932
40
1.0000000000
40
1.0000000000
40
1.0000000000
40
1.0000000000
10
14.5190870130
20
43.0014917053
30
0.0000000000
10
14.5190870130
20
43.0535647797
30
0.0000000000
10
14.5025130147
20
43.1586795249
30
0.0000000000
10
14.4303195520
20
43.3002305507
30
0.0000000000
10
14.3177687636
20
43.4127173429
30
0.0000000000
10
14.1763045190
20
43.4848409048
30
0.0000000000
10
14.0712793308
20
43.5014155529
30
0.0000000000
10
14.0191631655
20
43.5014155529
30
0.0000000000
11
14.5190870130
21
43.0014917053
31
0.0000000000
11
14.4946839885
21
43.1557931574
31
0.0000000000
11
14.4234269650
21
43.2956117942
31
0.0000000000
11
14.3130583219
21
43.4059190484
31
0.0000000000
11
14.1735891053
21
43.4769721224
31
0.0000000000
11
14.0191631655
21
43.5014155529
31
0.0000000000
0
SPLINE
5
4C0
100
AcDbEntity
8
0
100
AcDbSpline
62
7
6
CONTINUOUS
70
0
71
3
72
10
73
6
74
4
42
0.0000001000
43
0.0000001000
44
0.0000000001
12
-0.3538470221
22
0.0000000000
32
0.0000000000
13
-0.2684751606
23
-0.2304968615
33
0.0000000000
40
0.0000000000
40
0.0000000000
40
0.0000000000
40
0.0000000000
40
0.3333862088
40
0.6667061243
40
1.0000000000
40
1.0000000000
40
1.0000000000
40
1.0000000000
10
7.6308368345
20
43.5014155529
30
0.0000000000
10
7.5915142621
20
43.5014155529
30
0.0000000000
10
7.5125518705
20
43.4920455183
30
0.0000000000
10
7.4010056094
20
43.4507325892
30
0.0000000000
10
7.3349987692
20
43.4064131509
30
0.0000000000
10
7.3051717269
20
43.3808054201
30
0.0000000000
11
7.6308368345
21
43.5014155529
31
0.0000000000
11
7.5136927014
21
43.4875002960
31
0.0000000000
11
7.4030907269
21
43.4465362682
31
0.0000000000
11
7.3051717269
21
43.3808054201
31
0.0000000000
0
SPLINE
5
4C1
100
AcDbEntity
8
0
100
AcDbSpline
62
7
6
CONTINUOUS
70
0
71
3
72
10
73
6
74
4
42
0.0000001000
43
0.0000001000
44
0.0000000001
12
-0.2684751606
22
0.2304968615
32
0.0000000000
13
-0.3538470221
23
-0.0000000000
33
0.0000000000
40
0.0000000000
40
0.0000000000
40
0.0000000000
40
0.0000000000
40
0.3332966681
40
0.6666186685
40
1.0000000000
40
1.0000000000
40
1.0000000000
40
1.0000000000
10
-7.3051717269
20
43.3808054201
30
0.0000000000
10
-7.3349990191
20
43.4064133655
30
0.0000000000
10
-7.4010063975
20
43.4507330710
30
0.0000000000
10
-7.5125527893
20
43.4920456987
30
0.0000000000
10
-7.5915148374
20
43.5014155529
30
0.0000000000
10
-7.6308368345
20
43.5014155529
30
0.0000000000
11
-7.3051717269
21
43.3808054201
31
0.0000000000
11
-7.4030916127
21
43.4465367215
31
0.0000000000
11
-7.5136943910
21
43.4875007031
31
0.0000000000
11
-7.6308368345
21
43.5014155529
31
0.0000000000
0
SPLINE
5
4C2
100
AcDbEntity
8
0
100
AcDbSpline
62
7
6
CONTINUOUS
70
0
71
3
72
12
73
8
74
6
42
0.0000001000
43
0.0000001000
44
0.0000000001
12
-0.7820638814
22
0.0000000000
32
0.0000000000
13
0.0000000000
23
-0.7820638814
33
0.0000000000
40
0.0000000000
40
0.0000000000
40
0.0000000000
40
0.0000000000
40
0.1999178068
40
0.4000618187
40
0.5995869894
40
0.8002474900
40
1.0000000000
40
1.0000000000
40
1.0000000000
40
1.0000000000
10
-14.0191631655
20
43.5014155529
30
0.0000000000
10
-14.0712793308
20
43.5014155529
30
0.0000000000
10
-14.1763045190
20
43.4848409048
30
0.0000000000
10
-14.3177687636
20
43.4127173429
30
0.0000000000
10
-14.4303195520
20
43.3002305507
30
0.0000000000
10
-14.5025130147
20
43.1586795249
30
0.0000000000
10
-14.5190870130
20
43.0535647797
30
0.0000000000
10
-14.5190870130
20
43.0014917053
30
0.0000000000
11
-14.0191631655
21
43.5014155529
31
0.0000000000
11
-14.1735891053
21
43.4769721224
31
0.0000000000
11
-14.3130583219
21
43.4059190484
31
0.0000000000
11
-14.4234269650
21
43.2956117942
31
0.0000000000
11
-14.4946839885
21
43.1557931574
31
0.0000000000
11
-14.5190870130
21
43.0014917053
31
0.0000000000
0
SPLINE
5
4C3
100
AcDbEntity
8
0
100
AcDbSpline
62
7
6
CONTINUOUS
70
0
71
3
72
12
73
8
74
6
42
0.0000001000
43
0.0000001000
44
0.0000000001
12
0.0000000000
22
-0.7820638814
32
0.0000000000
13
0.7820638814
23
0.0000000000
33
0.0000000000
40
0.0000000000
40
0.0000000000
40
0.0000000000
40
0.0000000000
40
0.1997525100
40
0.4004130106
40
0.5999381813
40
0.8000821932
40
1.0000000000
40
1.0000000000
40
1.0000000000
40
1.0000000000
10
-14.5190870130
20
-9.7368346256
30
0.0000000000
10
-14.5190870130
20
-9.7889077001
30
0.0000000000
10
-14.5025130147
20
-9.8940224452
30
0.0000000000
10
-14.4303195520
20
-10.0355734710
30
0.0000000000
10
-14.3177687636
20
-10.1480602632
30
0.0000000000
10
-14.1763045190
20
-10.2201838252
30
0.0000000000
10
-14.0712793308
20
-10.2367584732
30
0.0000000000
10
-14.0191631655
20
-10.2367584732
30
0.0000000000
11
-14.5190870130
21
-9.7368346256
31
0.0000000000
11
-14.4946839885
21
-9.8911360778
31
0.0000000000
11
-14.4234269650
21
-10.0309547145
31
0.0000000000
11
-14.3130583219
21
-10.1412619688
31
0.0000000000
11
-14.1735891053
21
-10.2123150427
31
0.0000000000
11
-14.0191631655
21
-10.2367584732
31
0.0000000000
0
SPLINE
5
4C4
100
AcDbEntity
8
0
100
AcDbSpline
62
7
6
CONTINUOUS
70
0
71
3
72
10
73
6
74
4
42
0.0000001000
43
0.0000001000
44
0.0000000001
12
0.3538470221
22
0.0000000000
32
0.0000000000
13
0.2684751606
23
0.2304968615
33
0.0000000000
40
0.0000000000
40
0.0000000000
40
0.0000000000
40
0.0000000000
40
0.3333862088
40
0.6667061243
40
1.0000000000
40
1.0000000000
40
1.0000000000
40
1.0000000000
10
-7.6308368345
20
-10.2367584732
30
0.0000000000
10
-7.5915142621
20
-10.2367584732
30
0.0000000000
10
-7.5125518705
20
-10.2273884386
30
0.0000000000
10
-7.4010056094
20
-10.1860755096
30
0.0000000000
10
-7.3349987692
20
-10.1417560713
30
0.0000000000
10
-7.3051717269
20
-10.1161483405
30
0.0000000000
11
-7.6308368345
21
-10.2367584732
31
0.0000000000
11
-7.5136927014
21
-10.2228432163
31
0.0000000000
11
-7.4030907269
21
-10.1818791886
31
0.0000000000
11
-7.3051717269
21
-10.1161483405
31
0.0000000000
0
ENDSEC
0
SECTION
2
OBJECTS
0
DICTIONARY
5
4C5
100
AcDbDictionary
3
ACAD_GROUP
350
4C6
3
ACAD_MLINESTYLE
350
4C7
0
DICTIONARY
5
4C6
102
{ACAD_REACTORS
330
4C5
102
}
100
AcDbDictionary
0
DICTIONARY
5
4C7
102
{ACAD_REACTORS
330
4C5
102
}
100
AcDbDictionary
3
STANDARD
350
4C8
0
MLINESTYLE
5
4C8
102
{ACAD_REACTORS
330
4C7
102
}
100
AcDbMlineStyle
2
STANDARD
70
0
3

62
256
51
90.0
52
90.0
71
2
49
0.5
62
256
6
BYLAYER
49
-0.5
62
256
6
BYLAYER
0
ENDSEC
0
EOF
