  0
SECTION
  2
HEADER
  9
$ACADVER
  1
AC1024
  9
$DWGCODEPAGE
  3
ANSI_1252
  9
$EXTMAX
 10
297.0
 20
210.0
 30
0.0
  9
$EXTMIN
 10
0.0
 20
0.0
 30
0.0
  9
$LIMMIN
 10
0.0
 20
0.0
  9
$LIMMAX
 10
297.0
 20
210.0
  9
$VIEWCTR
 10
148.5
 20
105.0
  9
$VIEWSIZE
 40
210.0
  9
$CLAYER
  8
0
  9
$LTSCALE
 40
16.335
  9
$CELTYPE
  6
BYLAYER
  9
$DIMSCALE
 40
1.0
  9
$DIMASZ
 40
3.0
  9
$DIMEXO
 40
0.5
  9
$DIMDLI
 40
11.286
  9
$DIMEXE
 40
1.5
  9
$DIMCEN
 40
2.673
  9
$DIMLFAC
 40
1.0
  9
$DIMBLK
  1
_FILLED
  9
$DIMALT
 70
0
  9
$DIMALTF
 40
0.0393700787
  9
$DIMTXT
 40
3.0
  9
$DIMTOL
 70
1
  9
$DIMLIM
 70
0
  9
$DIMTFAC
 40
1.0
  9
$DIMTP
 40
0.01
  9
$DIMTM
 40
0.01
  9
$DIMGAP
 40
0.625
  9
$DIMDSEP
 70
44
  9
$AUNITS
 70
0
  9
$PDMODE
 70
3
  9
$PDSIZE
 40
3.0
  9
$HANDSEED
  5
5CC
  9
$TILEMODE
 70
1
  9
$MEASUREMENT
 70
1
  9
$INSUNITS
 70
4
  0
ENDSEC
  0
SECTION
  2
CLASSES
  0
CLASS
  1
ACDBDICTIONARYWDFLT
  2
AcDbDictionaryWithDefault
  3
AutoCAD 2000
 90
0
 91
1
280
0
281
0
  0
CLASS
  1
ACDBPLACEHOLDER
  2
AcDbPlaceHolder
  3
AutoCAD 2000
 90
0
 91
1
280
0
281
0
  0
CLASS
  1
LAYOUT
  2
AcDbLayout
  3
AutoCAD 2000
 90
0
 91
0
280
0
281
0
  0
ENDSEC
  0
SECTION
  2
TABLES
  0
TABLE
  2
VPORT
  5
8
100
AcDbSymbolTable
 70
2
  0
VPORT
  5
1F4
100
AcDbSymbolTableRecord
100
AcDbViewportTableRecord
  2
*ACTIVE
 70
0
 10
0.0
 20
0.0
 11
1.0
 21
1.0
 12
148.5
 22
105.0
 13
0.0
 23
0.0
 14
1.0
 24
1.0
 15
0.0
 25
0.0
 16
0.0
 26
0.0
 36
1.0
 17
0.0
 27
0.0
 37
0.0
 40
210.0
 41
1.4142857143
 42
50.0
 43
0.0
 44
0.0
 50
0.0
 51
0.0
 71
0
 72
100
 73
1
 74
1
 75
0
 76
0
 77
0
 78
0
  0
ENDTAB
  0
TABLE
  2
LTYPE
  5
5
100
AcDbSymbolTable
 70
6
  0
LTYPE
  5
14
100
AcDbSymbolTableRecord
100
AcDbLinetypeTableRecord
  2
BYBLOCK
 70
0
  3

 72
65
 73
0
 40
0.0
  0
LTYPE
  5
15
100
AcDbSymbolTableRecord
100
AcDbLinetypeTableRecord
  2
BYLAYER
 70
0
  3

 72
65
 73
0
 40
0.0
  0
LTYPE
  5
16
100
AcDbSymbolTableRecord
100
AcDbLinetypeTableRecord
  2
CONTINUOUS
 70
64
  3
Solid line
 72
65
 73
0
 40
0.0
  0
LTYPE
  5
1F5
100
AcDbSymbolTableRecord
100
AcDbLinetypeTableRecord
  2
CENTER
 70
64
  3
____ _ ____ _ ____ _ ____ _ ____ _ ____ _ ____
 72
65
 73
4
 40
0.6
 49
0.375
 74
0
 49
-0.075
 74
0
 49
0.075
 74
0
 49
-0.075
 74
0
  0
LTYPE
  5
1F6
100
AcDbSymbolTableRecord
100
AcDbLinetypeTableRecord
  2
HIDDEN
 70
64
  3
- - - - - - - - - - - - - - - - - - - -
 72
65
 73
2
 40
0.2
 49
0.1
 74
0
 49
-0.1
 74
0
  0
LTYPE
  5
1F7
100
AcDbSymbolTableRecord
100
AcDbLinetypeTableRecord
  2
PHANTOM
 70
64
  3
_____ _ _ _____ _ _ _____ _ _ _____
 72
65
 73
6
 40
0.8
 49
0.45
 74
0
 49
-0.05
 74
0
 49
0.1
 74
0
 49
-0.05
 74
0
 49
0.1
 74
0
 49
-0.05
 74
0
  0
LTYPE
  5
1F8
100
AcDbSymbolTableRecord
100
AcDbLinetypeTableRecord
  2
DOT
 70
64
  3
. . . . . . . . . . . . . . . . . . . .
 72
65
 73
2
 40
0.2
 49
0.1
 74
0
 49
-0.1
 74
0
  0
LTYPE
  5
1F9
100
AcDbSymbolTableRecord
100
AcDbLinetypeTableRecord
  2
DASHED
 70
64
  3
- - - - - - - - - - - - - - - - - - - -
 72
65
 73
2
 40
0.2
 49
0.1
 74
0
 49
-0.1
 74
0
  0
ENDTAB
  0
TABLE
  2
LAYER
  5
2
100
AcDbSymbolTable
 70
36
  0
LAYER
  5
10
100
AcDbSymbolTableRecord
100
AcDbLayerTableRecord
  2
0
 70
0
 62
7
  6
CONTINUOUS
370
-3
390
F
  0
LAYER
  5
1FA
100
AcDbSymbolTableRecord
100
AcDbLayerTableRecord
  2
DEFAULT_1
 70
0
 62
7
  6
CENTER
370
-3
390
F
  0
LAYER
  5
1FB
100
AcDbSymbolTableRecord
100
AcDbLayerTableRecord
  2
DEFAULT_2
 70
0
 62
7
  6
HIDDEN
370
-3
390
F
  0
LAYER
  5
1FC
100
AcDbSymbolTableRecord
100
AcDbLayerTableRecord
  2
DEFAULT_3
 70
0
 62
7
  6
PHANTOM
370
-3
390
F
  0
LAYER
  5
1FD
100
AcDbSymbolTableRecord
100
AcDbLayerTableRecord
  2
ASSI
 70
0
 62
7
  6
CONTINUOUS
370
-3
390
F
  0
LAYER
  5
1FE
100
AcDbSymbolTableRecord
100
AcDbLayerTableRecord
  2
COLOR5
 70
0
 62
7
  6
CONTINUOUS
370
-3
390
F
  0
LAYER
  5
1FF
100
AcDbSymbolTableRecord
100
AcDbLayerTableRecord
  2
COORDINATE
 70
0
 62
7
  6
CONTINUOUS
370
-3
390
F
  0
LAYER
  5
200
100
AcDbSymbolTableRecord
100
AcDbLayerTableRecord
  2
COORD_ORIGINE
 70
0
 62
7
  6
CONTINUOUS
370
-3
390
F
  0
LAYER
  5
201
100
AcDbSymbolTableRecord
100
AcDbLayerTableRecord
  2
COSMETICI
 70
0
 62
7
  6
CONTINUOUS
370
-3
390
F
  0
LAYER
  5
202
100
AcDbSymbolTableRecord
100
AcDbLayerTableRecord
  2
CURVE
 70
0
 62
7
  6
CONTINUOUS
370
-3
390
F
  0
LAYER
  5
203
100
AcDbSymbolTableRecord
100
AcDbLayerTableRecord
  2
DRAFT
 70
0
 62
7
  6
CONTINUOUS
370
-3
390
F
  0
LAYER
  5
204
100
AcDbSymbolTableRecord
100
AcDbLayerTableRecord
  2
IMPORT
 70
0
 62
7
  6
CONTINUOUS
370
-3
390
F
  0
LAYER
  5
205
100
AcDbSymbolTableRecord
100
AcDbLayerTableRecord
  2
INTF_1
 70
0
 62
7
  6
CONTINUOUS
370
-3
390
F
  0
LAYER
  5
206
100
AcDbSymbolTableRecord
100
AcDbLayerTableRecord
  2
INTF_7
 70
0
 62
7
  6
CONTINUOUS
370
-3
390
F
  0
LAYER
  5
207
100
AcDbSymbolTableRecord
100
AcDbLayerTableRecord
  2
LAY0001
 70
0
 62
7
  6
CONTINUOUS
370
-3
390
F
  0
LAYER
  5
208
100
AcDbSymbolTableRecord
100
AcDbLayerTableRecord
  2
NOTE
 70
0
 62
7
  6
CONTINUOUS
370
-3
390
F
  0
LAYER
  5
209
100
AcDbSymbolTableRecord
100
AcDbLayerTableRecord
  2
PIANI
 70
0
 62
7
  6
CONTINUOUS
370
-3
390
F
  0
LAYER
  5
20A
100
AcDbSymbolTableRecord
100
AcDbLayerTableRecord
  2
PIANI_ORIGINE
 70
0
 62
7
  6
CONTINUOUS
370
-3
390
F
  0
LAYER
  5
20B
100
AcDbSymbolTableRecord
100
AcDbLayerTableRecord
  2
PUNTI
 70
0
 62
7
  6
CONTINUOUS
370
-3
390
F
  0
LAYER
  5
20C
100
AcDbSymbolTableRecord
100
AcDbLayerTableRecord
  2
RACCORDO
 70
0
 62
7
  6
CONTINUOUS
370
-3
390
F
  0
LAYER
  5
20D
100
AcDbSymbolTableRecord
100
AcDbLayerTableRecord
  2
RGB__255__255__255__
 70
0
 62
7
  6
CONTINUOUS
370
-3
390
F
  0
LAYER
  5
20E
100
AcDbSymbolTableRecord
100
AcDbLayerTableRecord
  2
RGB____0____0____0__
 70
0
 62
7
  6
CONTINUOUS
370
-3
390
F
  0
LAYER
  5
20F
100
AcDbSymbolTableRecord
100
AcDbLayerTableRecord
  2
SIMBOLI
 70
0
 62
7
  6
CONTINUOUS
370
-3
390
F
  0
LAYER
  5
210
100
AcDbSymbolTableRecord
100
AcDbLayerTableRecord
  2
SMUSSO
 70
0
 62
7
  6
CONTINUOUS
370
-3
390
F
  0
LAYER
  5
211
100
AcDbSymbolTableRecord
100
AcDbLayerTableRecord
  2
SNAPLINE
 70
0
 62
7
  6
CONTINUOUS
370
-3
390
F
  0
LAYER
  5
212
100
AcDbSymbolTableRecord
100
AcDbLayerTableRecord
  2
SUPERFICI
 70
0
 62
7
  6
CONTINUOUS
370
-3
390
F
  0
LAYER
  5
213
100
AcDbSymbolTableRecord
100
AcDbLayerTableRecord
  2
TRASH
 70
0
 62
7
  6
CONTINUOUS
370
-3
390
F
  0
LAYER
  5
214
100
AcDbSymbolTableRecord
100
AcDbLayerTableRecord
  2
XSEC_DATUMS
 70
0
 62
7
  6
CONTINUOUS
370
-3
390
F
  0
ENDTAB
  0
TABLE
  2
STYLE
  5
3
100
AcDbSymbolTable
 70
1
  0
STYLE
  5
11
100
AcDbSymbolTableRecord
100
AcDbTextStyleTableRecord
  2
STANDARD
 70
0
 40
0.0
 41
0.8
 50
0.0
 71
0
 42
0.2
  3
txt
  4

  0
STYLE
  5
215
100
AcDbSymbolTableRecord
100
AcDbTextStyleTableRecord
  2
TEXTSTYLE_1
 70
0
 40
0.0
 41
0.8
 50
0.0
 71
0
 42
0.2
  3
gdt
  4

  0
ENDTAB
  0
TABLE
  2
VIEW
  5
6
100
AcDbSymbolTable
 70
0
  0
ENDTAB
  0
TABLE
  2
UCS
  5
7
100
AcDbSymbolTable
 70
0
  0
ENDTAB
  0
TABLE
  2
APPID
  5
9
100
AcDbSymbolTable
 70
1
  0
APPID
  5
216
100
AcDbSymbolTableRecord
100
AcDbRegAppTableRecord
  2
ACAD
 70
0
  0
ENDTAB
  0
TABLE
  2
BLOCK_RECORD
  5
1
100
AcDbSymbolTable
 70
0
  0
BLOCK_RECORD
  5
217
100
AcDbSymbolTableRecord
100
AcDbBlockTableRecord
  2
*Model_Space
  0
BLOCK_RECORD
  5
218
100
AcDbSymbolTableRecord
100
AcDbBlockTableRecord
  2
*Paper_Space
  0
BLOCK_RECORD
  5
219
100
AcDbSymbolTableRecord
100
AcDbBlockTableRecord
  2
_FILLED
  0
ENDTAB
  0
TABLE
  2
DIMSTYLE
  5
A
100
AcDbSymbolTable
 70
1
100
AcDbDimStyleTable
 71
0
  0
DIMSTYLE
105
21A
100
AcDbSymbolTableRecord
100
AcDbDimStyleTableRecord
  2
STANDARD
 70
0
  3

  4

 40
1.0
 41
3.0
 42
0.5
 43
0.38
 44
1.5
 45
0.0
 46
0.0
 47
0.01
 48
0.01
140
3.0
141
0.09
142
0.0
143
25.4
144
1.0
145
0.0
146
1.0
147
0.625
 71
1
 72
0
 73
0
 74
0
 75
0
 76
0
 77
1
 78
8
 79
2
170
0
171
1
172
0
173
0
174
0
175
0
176
0
177
0
178
0
270
2
179
2
271
2
272
2
273
2
274
2
275
0
280
0
281
0
282
0
283
1
284
8
285
0
286
0
287
3
288
0
340
11
278
44
341
219
342
219
343
219
344
219
  0
ENDTAB
  0
ENDSEC
  0
SECTION
  2
BLOCKS
  0
BLOCK
  5
20
100
AcDbEntity
  8
0
100
AcDbBlockBegin
  2
*Model_Space
 70
0
 10
0.0
 20
0.0
 30
0.0
  3
*Model_Space
  1

  0
ENDBLK
  5
21
100
AcDbEntity
  8
0
100
AcDbBlockEnd
  0
BLOCK
  5
1C
100
AcDbEntity
  8
0
100
AcDbBlockBegin
  2
*Paper_Space
 70
0
 10
0.0
 20
0.0
 30
0.0
  3
*Paper_Space
  1

  0
ENDBLK
  5
1D
100
AcDbEntity
  8
0
100
AcDbBlockEnd
  0
BLOCK
  5
21B
100
AcDbEntity
  8
0
100
AcDbBlockBegin
  2
_FILLED
 70
64
 10
0.0
 20
0.0
  3
_FILLED
  1

  0
SOLID
  5
21C
100
AcDbEntity
  8
0
  6
BYBLOCK
 62
0
100
AcDbTrace
 10
0.0
 20
0.0
 11
-1.0
 21
0.3166666667
 12
-1.0
 22
-0.3166666667
 13
-1.0
 23
-0.3166666667
  0
ENDBLK
  5
21D
100
AcDbEntity
  8
0
  6
BYBLOCK
 62
0
100
AcDbBlockEnd
  0
ENDSEC
  0
SECTION
  2
ENTITIES
  0
LINE
  5
21E
100
AcDbEntity
  8
0
100
AcDbLine
 62
7
  6
CONTINUOUS
 10
-3.25
 20
-67.5
 11
3.25
 21
-67.5
  0
LINE
  5
21F
100
AcDbEntity
  8
ASSI
100
AcDbLine
 62
7
  6
CONTINUOUS
 10
-11.6
 20
-65.4
 11
-8.6
 21
-65.4
  0
LINE
  5
220
100
AcDbEntity
  8
ASSI
100
AcDbLine
 62
7
  6
CONTINUOUS
 10
11.6
 20
-65.4
 11
8.6
 21
-65.4
  0
LINE
  5
221
100
AcDbEntity
  8
DRAFT
100
AcDbLine
 62
7
  6
CONTINUOUS
 10
4.5
 20
-65.2
 11
3.25
 21
-65.2
  0
LINE
  5
222
100
AcDbEntity
  8
DRAFT
100
AcDbLine
 62
7
  6
CONTINUOUS
 10
-3.25
 20
-65.2
 11
-4.5
 21
-65.2
  0
LINE
  5
223
100
AcDbEntity
  8
DRAFT
100
AcDbLine
 62
7
  6
CONTINUOUS
 10
13.75
 20
-64.6
 11
4.5
 21
-64.6
  0
LINE
  5
224
100
AcDbEntity
  8
DRAFT
100
AcDbLine
 62
7
  6
CONTINUOUS
 10
-4.5
 20
-64.6
 11
-13.75
 21
-64.6
  0
LWPOLYLINE
  5
225
100
AcDbEntity
  8
0
100
AcDbPolyline
 62
7
  6
CONTINUOUS
 90
9
 70
0
 10
0.0871085552
 20
-59.9202095573
 10
0.0141315002
 20
-59.9253695864
 10
-0.0577555788
 20
-59.9354172157
 10
-0.1282283375
 20
-59.9502291902
 10
-0.1969740694
 20
-59.9696609366
 10
-0.2636930926
 20
-59.9935475698
 10
-0.3281000545
 20
-60.0217049888
 10
-0.3899251475
 20
-60.0539310546
 10
-0.4489152318
 20
-60.0900068452
  0
LINE
  5
226
100
AcDbEntity
  8
0
100
AcDbLine
 62
7
  6
CONTINUOUS
 10
0.1608410672
 20
-59.9200381539
 11
0.0871085552
 21
-59.9202095573
  0
LINE
  5
227
100
AcDbEntity
  8
ASSI
100
AcDbLine
 62
7
  6
CONTINUOUS
 10
14.5
 20
-63.4
 11
5.7
 21
-63.4
  0
LINE
  5
228
100
AcDbEntity
  8
ASSI
100
AcDbLine
 62
7
  6
CONTINUOUS
 10
-5.7
 20
-63.4
 11
-14.5
 21
-63.4
  0
LINE
  5
229
100
AcDbEntity
  8
0
100
AcDbLine
 62
7
  6
CONTINUOUS
 10
-2.69058809
 20
-62.35
 11
-1.0892611057
 21
-62.35
  0
LINE
  5
22A
100
AcDbEntity
  8
0
100
AcDbLine
 62
7
  6
CONTINUOUS
 10
1.0881897671
 20
-62.35
 11
2.69058809
 21
-62.35
  0
LINE
  5
22B
100
AcDbEntity
  8
ASSI
100
AcDbLine
 62
7
  6
CONTINUOUS
 10
-14.5
 20
-62.0
 11
-5.7
 21
-62.0
  0
LINE
  5
22C
100
AcDbEntity
  8
ASSI
100
AcDbLine
 62
7
  6
CONTINUOUS
 10
5.7
 20
-62.0
 11
14.5
 21
-62.0
  0
LINE
  5
22D
100
AcDbEntity
  8
DRAFT
100
AcDbLine
 62
7
  6
CONTINUOUS
 10
-15.45
 20
-60.75
 11
-13.6670833097
 21
-60.75
  0
LINE
  5
22E
100
AcDbEntity
  8
DRAFT
100
AcDbLine
 62
7
  6
CONTINUOUS
 10
13.6670833097
 20
-60.75
 11
15.45
 21
-60.75
  0
LWPOLYLINE
  5
22F
100
AcDbEntity
  8
0
100
AcDbPolyline
 62
7
  6
CONTINUOUS
 90
28
 70
0
 10
-0.4489152318
 20
61.9099931548
 10
-0.3783543299
 20
61.9439533571
 10
-0.3058342577
 20
61.97222695
 10
-0.2318274053
 20
61.9947602329
 10
-0.1571006392
 20
62.0114826779
 10
-0.081815221
 20
62.0225172889
 10
-0.0054845246
 20
62.0279534171
 10
0.0717257543
 20
62.027665778
 10
0.1491335619
 20
62.0215427859
 10
0.22646532
 20
62.0094993315
 10
0.3035153304
 20
61.9914083461
 10
0.3795451741
 20
61.967279983
 10
0.4535020776
 20
61.9373868993
 10
0.5249336507
 20
61.9019284671
 10
0.5934484336
 20
61.8611162942
 10
0.6582119322
 20
61.8155359747
 10
0.7186270728
 20
61.7658329849
 10
0.7747793236
 20
61.7121742015
 10
0.8268775702
 20
61.6544493412
 10
0.874677795
 20
61.592903453
 10
0.9178574163
 20
61.5279243081
 10
0.9563688473
 20
61.4594840755
 10
0.9900354731
 20
61.38761599
 10
1.0184117683
 20
61.3129436298
 10
1.0411108584
 20
61.2363560476
 10
1.0579866595
 20
61.1584600385
 10
1.0690134539
 20
61.0795279054
 10
1.0741430217
 20
61.0
  0
LWPOLYLINE
  5
230
100
AcDbEntity
  8
DRAFT
100
AcDbPolyline
 62
7
  6
CONTINUOUS
 90
10
 70
0
 10
7.0828583997
 20
-55.2757418649
 10
7.1072060767
 20
-55.2749892652
 10
7.131749534
 20
-55.2736624558
 10
7.1564484915
 20
-55.2717683314
 10
7.1812862309
 20
-55.269341258
 10
7.2062053499
 20
-55.2663643506
 10
7.2310999738
 20
-55.2627763125
 10
7.255905864
 20
-55.2585728071
 10
7.2806081884
 20
-55.253799236
 10
7.3051717269
 20
-55.2484768803
  0
LINE
  5
231
100
AcDbEntity
  8
0
100
AcDbLine
 62
7
  6
CONTINUOUS
 10
-2.69058809
 20
-59.65
 11
-1.0881211515
 21
-59.65
  0
LINE
  5
232
100
AcDbEntity
  8
0
100
AcDbLine
 62
7
  6
CONTINUOUS
 10
1.0885513671
 20
-59.65
 11
2.69058809
 21
-59.65
  0
LINE
  5
233
100
AcDbEntity
  8
ASSI
100
AcDbLine
 62
7
  6
CONTINUOUS
 10
-8.342945
 20
-59.375
 11
-6.882444
 21
-59.375
  0
LINE
  5
234
100
AcDbEntity
  8
ASSI
100
AcDbLine
 62
7
  6
CONTINUOUS
 10
-6.882444
 20
-58.625
 11
-8.342948112
 21
-58.625
  0
LINE
  5
235
100
AcDbEntity
  8
DRAFT
100
AcDbLine
 62
7
  6
CONTINUOUS
 10
15.45
 20
-58.0
 11
14.8744230428
 21
-58.0
  0
LINE
  5
236
100
AcDbEntity
  8
DRAFT
100
AcDbLine
 62
7
  6
CONTINUOUS
 10
-14.8744230428
 20
-58.0
 11
-15.45
 21
-58.0
  0
LINE
  5
237
100
AcDbEntity
  8
DRAFT
100
AcDbLine
 62
7
  6
CONTINUOUS
 10
-15.45
 20
-56.5
 11
-14.7968739821
 21
-56.5
  0
LINE
  5
238
100
AcDbEntity
  8
0
100
AcDbLine
 62
7
  6
CONTINUOUS
 10
-1.5
 20
-56.5
 11
-0.75
 21
-56.5
  0
LINE
  5
239
100
AcDbEntity
  8
0
100
AcDbLine
 62
7
  6
CONTINUOUS
 10
0.75
 20
-56.5
 11
1.5
 21
-56.5
  0
LINE
  5
23A
100
AcDbEntity
  8
DRAFT
100
AcDbLine
 62
7
  6
CONTINUOUS
 10
14.7968739821
 20
-56.5
 11
15.45
 21
-56.5
  0
LINE
  5
23B
100
AcDbEntity
  8
0
100
AcDbLine
 62
7
  6
CONTINUOUS
 10
3.2
 20
-55.65
 11
0.75
 21
-55.65
  0
LINE
  5
23C
100
AcDbEntity
  8
0
100
AcDbLine
 62
7
  6
CONTINUOUS
 10
-0.75
 20
-55.65
 11
-3.2
 21
-55.65
  0
LINE
  5
23D
100
AcDbEntity
  8
RACCORDO
100
AcDbLine
 62
7
  6
CONTINUOUS
 10
14.1500761524
 20
-55.5
 11
13.1231261996
 21
-55.5
  0
LINE
  5
23E
100
AcDbEntity
  8
DRAFT
100
AcDbLine
 62
7
  6
CONTINUOUS
 10
13.1231261996
 20
-55.5
 11
8.5
 21
-55.5
  0
LINE
  5
23F
100
AcDbEntity
  8
RACCORDO
100
AcDbLine
 62
7
  6
CONTINUOUS
 10
8.5
 20
-55.5
 11
7.4999238476
 21
-55.5
  0
LINE
  5
240
100
AcDbEntity
  8
0
100
AcDbLine
 62
7
  6
CONTINUOUS
 10
3.35
 20
-55.5
 11
-3.35
 21
-55.5
  0
LINE
  5
241
100
AcDbEntity
  8
RACCORDO
100
AcDbLine
 62
7
  6
CONTINUOUS
 10
-7.4999238476
 20
-55.5
 11
-8.5
 21
-55.5
  0
LINE
  5
242
100
AcDbEntity
  8
DRAFT
100
AcDbLine
 62
7
  6
CONTINUOUS
 10
-8.5
 20
-55.5
 11
-13.1231261996
 21
-55.5
  0
LINE
  5
243
100
AcDbEntity
  8
RACCORDO
100
AcDbLine
 62
7
  6
CONTINUOUS
 10
-13.1231261996
 20
-55.5
 11
-14.1500761524
 21
-55.5
  0
LINE
  5
244
100
AcDbEntity
  8
DRAFT
100
AcDbLine
 62
7
  6
CONTINUOUS
 10
-13.1623971047
 20
-55.4214522078
 11
-8.5
 21
-55.4214522078
  0
LINE
  5
245
100
AcDbEntity
  8
DRAFT
100
AcDbLine
 62
7
  6
CONTINUOUS
 10
13.1623971047
 20
-55.4214522078
 11
8.5
 21
-55.4214522078
  0
LINE
  5
246
100
AcDbEntity
  8
RACCORDO
100
AcDbLine
 62
7
  6
CONTINUOUS
 10
-14.0191631655
 20
-55.369087013
 11
-7.6308368345
 21
-55.369087013
  0
LINE
  5
247
100
AcDbEntity
  8
RACCORDO
100
AcDbLine
 62
7
  6
CONTINUOUS
 10
7.6308368345
 20
-55.369087013
 11
14.0191631655
 21
-55.369087013
  0
LINE
  5
248
100
AcDbEntity
  8
RACCORDO
100
AcDbLine
 62
7
  6
CONTINUOUS
 10
14.1798889187
 20
-55.15
 11
8.5
 21
-55.15
  0
LINE
  5
249
100
AcDbEntity
  8
RACCORDO
100
AcDbLine
 62
7
  6
CONTINUOUS
 10
-8.5
 20
-55.15
 11
-14.1798889187
 21
-55.15
  0
LWPOLYLINE
  5
24A
100
AcDbEntity
  8
ASSI
100
AcDbPolyline
 62
7
  6
CONTINUOUS
 90
7
 70
0
 10
-7.2619412833
 20
-53.2500712997
 10
-7.3077907138
 20
-53.2516618025
 10
-7.353414574
 20
-53.2553495774
 10
-7.3988128639
 20
-53.2611346242
 10
-7.4439855835
 20
-53.2690169429
 10
-7.4889327327
 20
-53.2789965336
 10
-7.5336543116
 20
-53.2910733962
  0
LINE
  5
24B
100
AcDbEntity
  8
DRAFT
100
AcDbLine
 62
7
  6
CONTINUOUS
 10
3.0
 20
-54.65
 11
-3.0
 21
-54.6559524797
  0
LINE
  5
24C
100
AcDbEntity
  8
DRAFT
100
AcDbLine
 62
7
  6
CONTINUOUS
 10
5.995695392
 20
-54.6758993279
 11
4.1940475203
 21
-54.6758993279
  0
LINE
  5
24D
100
AcDbEntity
  8
DRAFT
100
AcDbLine
 62
7
  6
CONTINUOUS
 10
-4.1940475203
 20
-54.6758993279
 11
-5.995695392
 21
-54.6758993279
  0
LINE
  5
24E
100
AcDbEntity
  8
DRAFT
100
AcDbLine
 62
7
  6
CONTINUOUS
 10
-4.1940475203
 20
-54.6559524797
 11
-3.0
 21
-54.6559524797
  0
LINE
  5
24F
100
AcDbEntity
  8
RACCORDO
100
AcDbLine
 62
7
  6
CONTINUOUS
 10
-13.3138635149
 20
-54.65
 11
-8.5
 21
-54.65
  0
LINE
  5
250
100
AcDbEntity
  8
RACCORDO
100
AcDbLine
 62
7
  6
CONTINUOUS
 10
13.3138635149
 20
-54.65
 11
8.5
 21
-54.65
  0
LINE
  5
251
100
AcDbEntity
  8
DRAFT
100
AcDbLine
 62
7
  6
CONTINUOUS
 10
6.2907905922
 20
-54.65
 11
6.0140873065
 21
-54.65
  0
LINE
  5
252
100
AcDbEntity
  8
DRAFT
100
AcDbLine
 62
7
  6
CONTINUOUS
 10
-6.0140873065
 20
-54.65
 11
-6.2907905922
 21
-54.65
  0
LINE
  5
253
100
AcDbEntity
  8
RACCORDO
100
AcDbLine
 62
7
  6
CONTINUOUS
 10
-2.0
 20
-54.6273084156
 11
2.0
 21
-54.6273084156
  0
LINE
  5
254
100
AcDbEntity
  8
DRAFT
100
AcDbLine
 62
7
  6
CONTINUOUS
 10
-6.2868841298
 20
-54.519087013
 11
6.2868841298
 21
-54.519087013
  0
LINE
  5
255
100
AcDbEntity
  8
ASSI
100
AcDbLine
 62
250
  6
CONTINUOUS
 10
6.3354983674
 20
-53.8454177909
 11
-6.3354983674
 21
-53.8454177909
  0
LINE
  5
256
100
AcDbEntity
  8
DRAFT
100
AcDbLine
 62
7
  6
CONTINUOUS
 10
-15.3362647374
 20
-53.6336793649
 11
-14.6726915844
 21
-53.6336793649
  0
LINE
  5
257
100
AcDbEntity
  8
DRAFT
100
AcDbLine
 62
7
  6
CONTINUOUS
 10
14.6726915844
 20
-53.6336793649
 11
15.3362647374
 21
-53.6336793649
  0
LINE
  5
258
100
AcDbEntity
  8
ASSI
100
AcDbLine
 62
250
  6
CONTINUOUS
 10
-8.5
 20
-53.2910733962
 11
-7.5336543116
 21
-53.2910733962
  0
LINE
  5
259
100
AcDbEntity
  8
ASSI
100
AcDbLine
 62
250
  6
CONTINUOUS
 10
7.5336543116
 20
-53.2910733962
 11
8.5
 21
-53.2910733962
  0
LINE
  5
25A
100
AcDbEntity
  8
DRAFT
100
AcDbLine
 62
7
  6
CONTINUOUS
 10
-13.1466887427
 20
-53.0
 11
-12.5
 21
-53.0
  0
LINE
  5
25B
100
AcDbEntity
  8
DRAFT
100
AcDbLine
 62
7
  6
CONTINUOUS
 10
13.1466887427
 20
-53.0
 11
12.5
 21
-53.0
  0
LINE
  5
25C
100
AcDbEntity
  8
0
100
AcDbLine
 62
7
  6
CONTINUOUS
 10
8.5
 20
-53.0
 11
12.5
 21
-53.0
  0
LINE
  5
25D
100
AcDbEntity
  8
0
100
AcDbLine
 62
7
  6
CONTINUOUS
 10
-8.5
 20
-53.0
 11
-12.5
 21
-53.0
  0
LINE
  5
25E
100
AcDbEntity
  8
RACCORDO
100
AcDbLine
 62
7
  6
CONTINUOUS
 10
6.2954558678
 20
-52.8454558678
 11
-6.2954558678
 21
-52.8454558678
  0
LINE
  5
25F
100
AcDbEntity
  8
DRAFT
100
AcDbLine
 62
7
  6
CONTINUOUS
 10
6.25
 20
-52.8
 11
4.2
 21
-52.8
  0
LINE
  5
260
100
AcDbEntity
  8
DRAFT
100
AcDbLine
 62
7
  6
CONTINUOUS
 10
1.6
 20
-52.8
 11
-1.6
 21
-52.8
  0
LINE
  5
261
100
AcDbEntity
  8
DRAFT
100
AcDbLine
 62
7
  6
CONTINUOUS
 10
-4.2
 20
-52.8
 11
-6.25
 21
-52.8
  0
LINE
  5
262
100
AcDbEntity
  8
0
100
AcDbLine
 62
7
  6
CONTINUOUS
 10
-4.2
 20
-51.8
 11
-1.6
 21
-51.8
  0
LINE
  5
263
100
AcDbEntity
  8
0
100
AcDbLine
 62
7
  6
CONTINUOUS
 10
1.6
 20
-51.8
 11
4.2
 21
-51.8
  0
LINE
  5
264
100
AcDbEntity
  8
ASSI
100
AcDbLine
 62
7
  6
CONTINUOUS
 10
-8.5
 20
-51.7911305116
 11
-6.2911305116
 21
-51.7911305116
  0
LINE
  5
265
100
AcDbEntity
  8
ASSI
100
AcDbLine
 62
7
  6
CONTINUOUS
 10
6.2911305116
 20
-51.7911305116
 11
8.5
 21
-51.7911305116
  0
LINE
  5
266
100
AcDbEntity
  8
DRAFT
100
AcDbLine
 62
7
  6
CONTINUOUS
 10
8.5
 20
-51.7622176149
 11
8.1
 21
-51.7622176149
  0
LINE
  5
267
100
AcDbEntity
  8
DRAFT
100
AcDbLine
 62
7
  6
CONTINUOUS
 10
-8.1
 20
-51.7622176149
 11
-8.5
 21
-51.7622176149
  0
LINE
  5
268
100
AcDbEntity
  8
DRAFT
100
AcDbLine
 62
7
  6
CONTINUOUS
 10
8.1
 20
-51.75
 11
6.25
 21
-51.75
  0
LINE
  5
269
100
AcDbEntity
  8
DRAFT
100
AcDbLine
 62
7
  6
CONTINUOUS
 10
-6.25
 20
-51.75
 11
-8.1
 21
-51.75
  0
LINE
  5
26A
100
AcDbEntity
  8
0
100
AcDbLine
 62
7
  6
CONTINUOUS
 10
-12.5
 20
-51.6
 11
-10.35
 21
-51.6
  0
LINE
  5
26B
100
AcDbEntity
  8
0
100
AcDbLine
 62
7
  6
CONTINUOUS
 10
12.5
 20
-51.6
 11
10.35
 21
-51.6
  0
LINE
  5
26C
100
AcDbEntity
  8
DRAFT
100
AcDbLine
 62
7
  6
CONTINUOUS
 10
15.45
 20
-51.5
 11
14.65
 21
-51.5
  0
LINE
  5
26D
100
AcDbEntity
  8
DRAFT
100
AcDbLine
 62
7
  6
CONTINUOUS
 10
-14.65
 20
-51.5
 11
-15.45
 21
-51.5
  0
LINE
  5
26E
100
AcDbEntity
  8
DRAFT
100
AcDbLine
 62
7
  6
CONTINUOUS
 10
13.1466887427
 20
-51.0
 11
12.5
 21
-51.0
  0
LINE
  5
26F
100
AcDbEntity
  8
0
100
AcDbLine
 62
7
  6
CONTINUOUS
 10
12.5
 20
-51.0
 11
8.1
 21
-51.0
  0
LINE
  5
270
100
AcDbEntity
  8
0
100
AcDbLine
 62
7
  6
CONTINUOUS
 10
-8.1
 20
-51.0
 11
-12.5
 21
-51.0
  0
LINE
  5
271
100
AcDbEntity
  8
DRAFT
100
AcDbLine
 62
7
  6
CONTINUOUS
 10
-12.5
 20
-51.0
 11
-13.1466887427
 21
-51.0
  0
LINE
  5
272
100
AcDbEntity
  8
DRAFT
100
AcDbLine
 62
7
  6
CONTINUOUS
 10
-13.1
 20
-50.9
 11
-12.75
 21
-50.9
  0
LINE
  5
273
100
AcDbEntity
  8
DRAFT
100
AcDbLine
 62
7
  6
CONTINUOUS
 10
12.75
 20
-50.9
 11
13.1
 21
-50.9
  0
LINE
  5
274
100
AcDbEntity
  8
DRAFT
100
AcDbLine
 62
7
  6
CONTINUOUS
 10
3.0
 20
-54.65
 11
4.1940475203
 21
-54.6559524797
  0
LINE
  5
275
100
AcDbEntity
  8
0
100
AcDbLine
 62
7
  6
CONTINUOUS
 10
-1.0434405187
 20
-60.4480415691
 11
-1.5336462119
 21
-60.1887329066
  0
LINE
  5
276
100
AcDbEntity
  8
DRAFT
100
AcDbLine
 62
7
  6
CONTINUOUS
 10
-15.45
 20
-50.0
 11
-14.65
 21
-50.0
  0
LINE
  5
277
100
AcDbEntity
  8
DRAFT
100
AcDbLine
 62
7
  6
CONTINUOUS
 10
14.65
 20
-50.0
 11
15.45
 21
-50.0
  0
LWPOLYLINE
  5
278
100
AcDbEntity
  8
ASSI
100
AcDbPolyline
 62
7
  6
CONTINUOUS
 90
7
 70
0
 10
7.5336543116
 20
-53.2910733962
 10
7.4887977053
 20
-53.2789762305
 10
7.4437695396
 20
-53.2689844579
 10
7.3985698146
 20
-53.2610980786
 10
7.3531985302
 20
-53.2553170924
 10
7.3076556864
 20
-53.2516414994
 10
7.2619412833
 20
-53.2500712997
  0
LINE
  5
279
100
AcDbEntity
  8
RACCORDO
100
AcDbLine
 62
250
  6
CONTINUOUS
 10
-7.4999238476
 20
55.5
 11
-7.6308368345
 21
55.369087013
  0
LINE
  5
27A
100
AcDbEntity
  8
0
100
AcDbLine
 62
7
  6
CONTINUOUS
 10
-3.2
 20
55.65
 11
-3.35
 21
55.5
  0
LINE
  5
27B
100
AcDbEntity
  8
DRAFT
100
AcDbLine
 62
7
  6
CONTINUOUS
 10
-3.35
 20
55.5
 11
-4.1940475203
 21
54.6559524797
  0
LINE
  5
27C
100
AcDbEntity
  8
RACCORDO
100
AcDbLine
 62
250
  6
CONTINUOUS
 10
-7.4999238476
 20
-55.5
 11
-7.6308368345
 21
-55.369087013
  0
LINE
  5
27D
100
AcDbEntity
  8
0
100
AcDbLine
 62
7
  6
CONTINUOUS
 10
-3.2
 20
-55.65
 11
-3.35
 21
-55.5
  0
LINE
  5
27E
100
AcDbEntity
  8
DRAFT
100
AcDbLine
 62
7
  6
CONTINUOUS
 10
-3.35
 20
-55.5
 11
-4.1940475203
 21
-54.6559524797
  0
LINE
  5
27F
100
AcDbEntity
  8
DRAFT
100
AcDbLine
 62
7
  6
CONTINUOUS
 10
-13.1623971047
 20
55.4214522078
 11
-13.1231261996
 21
55.5
  0
LINE
  5
280
100
AcDbEntity
  8
0
100
AcDbLine
 62
7
  6
CONTINUOUS
 10
-7.942816
 20
56.573989
 11
-7.395461
 21
57.440702
  0
LINE
  5
281
100
AcDbEntity
  8
DRAFT
100
AcDbLine
 62
7
  6
CONTINUOUS
 10
15.45
 20
-40.0
 11
14.65
 21
-40.0
  0
LINE
  5
282
100
AcDbEntity
  8
DRAFT
100
AcDbLine
 62
7
  6
CONTINUOUS
 10
-14.65
 20
-40.0
 11
-15.45
 21
-40.0
  0
LINE
  5
283
100
AcDbEntity
  8
DRAFT
100
AcDbLine
 62
7
  6
CONTINUOUS
 10
-15.45
 20
-38.5
 11
-14.65
 21
-38.5
  0
LINE
  5
284
100
AcDbEntity
  8
DRAFT
100
AcDbLine
 62
7
  6
CONTINUOUS
 10
14.65
 20
-38.5
 11
15.45
 21
-38.5
  0
LINE
  5
285
100
AcDbEntity
  8
DRAFT
100
AcDbLine
 62
7
  6
CONTINUOUS
 10
-13.1623971047
 20
-55.4214522078
 11
-13.1231261996
 21
-55.5
  0
LINE
  5
286
100
AcDbEntity
  8
0
100
AcDbLine
 62
7
  6
CONTINUOUS
 10
-7.625686
 20
57.440702
 11
-8.041802
 21
56.744048
  0
LWPOLYLINE
  5
287
100
AcDbEntity
  8
ASSI
100
AcDbPolyline
 62
7
  6
CONTINUOUS
 90
7
 70
0
 10
6.5091791955
 20
53.0596142205
 10
6.415827129
 20
52.9657099585
 10
6.3760775756
 20
52.9266976953
 10
6.3438832416
 20
52.8938832416
 10
6.3201855642
 20
52.8684617638
 10
6.3040431063
 20
52.8518861909
 10
6.2954558678
 20
52.8454558678
  0
LINE
  5
288
100
AcDbEntity
  8
RACCORDO
100
AcDbLine
 62
7
  6
CONTINUOUS
 10
6.25
 20
52.8
 11
6.2954558678
 21
52.8454558678
  0
LINE
  5
289
100
AcDbEntity
  8
ASSI
100
AcDbLine
 62
7
  6
CONTINUOUS
 10
6.25
 20
51.75
 11
6.2911305116
 21
51.7911305116
  0
LWPOLYLINE
  5
28A
100
AcDbEntity
  8
ASSI
100
AcDbPolyline
 62
7
  6
CONTINUOUS
 90
6
 70
0
 10
6.8046456161
 20
53.3546456161
 10
6.7399412263
 20
53.2910081515
 10
6.678162724
 20
53.2290273489
 10
6.6193101092
 20
53.1693101092
 10
6.5627817086
 20
53.1126905176
 10
6.5091791955
 20
53.0596142205
  0
LWPOLYLINE
  5
28B
100
AcDbEntity
  8
ASSI
100
AcDbPolyline
 62
7
  6
CONTINUOUS
 90
6
 70
0
 10
6.415827129
 20
-52.9657099585
 10
6.3760775756
 20
-52.9266976953
 10
6.3438832416
 20
-52.8938832416
 10
6.3201855642
 20
-52.8684617638
 10
6.3040431063
 20
-52.8518861909
 10
6.2954558678
 20
-52.8454558678
  0
LWPOLYLINE
  5
28C
100
AcDbEntity
  8
ASSI
100
AcDbPolyline
 62
7
  6
CONTINUOUS
 90
7
 70
0
 10
6.8046456161
 20
-53.3546456161
 10
6.7399412263
 20
-53.2910081515
 10
6.678162724
 20
-53.2290273489
 10
6.6193101092
 20
-53.1693101092
 10
6.5627817086
 20
-53.1126905176
 10
6.5091791955
 20
-53.0596142205
 10
6.415827129
 20
-52.9657099585
  0
LINE
  5
28D
100
AcDbEntity
  8
RACCORDO
100
AcDbLine
 62
7
  6
CONTINUOUS
 10
6.25
 20
-52.8
 11
6.2954558678
 21
-52.8454558678
  0
LINE
  5
28E
100
AcDbEntity
  8
ASSI
100
AcDbLine
 62
7
  6
CONTINUOUS
 10
6.25
 20
-51.75
 11
6.2911305116
 21
-51.7911305116
  0
LINE
  5
28F
100
AcDbEntity
  8
0
100
AcDbLine
 62
7
  6
CONTINUOUS
 10
-12.000654
 20
60.16047
 11
-11.59263
 21
61.377857
  0
LINE
  5
290
100
AcDbEntity
  8
0
100
AcDbLine
 62
7
  6
CONTINUOUS
 10
-11.68153
 20
61.610075
 11
-12.095589
 21
60.378388
  0
LINE
  5
291
100
AcDbEntity
  8
0
100
AcDbLine
 62
7
  6
CONTINUOUS
 10
-11.027097
 20
60.16047
 11
-10.875568
 21
60.582685
  0
LINE
  5
292
100
AcDbEntity
  8
0
100
AcDbLine
 62
7
  6
CONTINUOUS
 10
-10.651443
 20
55.989925
 11
-10.499914
 21
56.41214
  0
LINE
  5
293
100
AcDbEntity
  8
0
100
AcDbLine
 62
7
  6
CONTINUOUS
 10
-10.814934
 20
60.756263
 11
-10.580641
 21
61.399976
  0
LINE
  5
294
100
AcDbEntity
  8
0
100
AcDbLine
 62
7
  6
CONTINUOUS
 10
-10.439397
 20
56.585717
 11
-10.204986
 21
57.229429
  0
LINE
  5
295
100
AcDbEntity
  8
0
100
AcDbLine
 62
7
  6
CONTINUOUS
 10
-10.308041
 20
57.440702
 11
-10.853402
 21
55.989925
  0
LINE
  5
296
100
AcDbEntity
  8
0
100
AcDbLine
 62
7
  6
CONTINUOUS
 10
-10.683695
 20
61.610075
 11
-11.229056
 21
60.16047
  0
LWPOLYLINE
  5
297
100
AcDbEntity
  8
0
100
AcDbPolyline
 62
7
  6
CONTINUOUS
 90
16
 70
0
 10
-1.0434405187
 20
61.5519584309
 10
-1.008627466
 20
61.6220352708
 10
-0.9690752112
 20
61.6899487041
 10
-0.9249157385
 20
61.755376315
 10
-0.8764068965
 20
61.8178785594
 10
-0.8236374442
 20
61.8772886523
 10
-0.7664416483
 20
61.9336469593
 10
-0.7047380167
 20
61.9867859037
 10
-0.6389046826
 20
62.0361434982
 10
-0.5694824685
 20
62.0811741081
 10
-0.4966932268
 20
62.1216383786
 10
-0.420889688
 20
62.1572480522
 10
-0.3429472453
 20
62.1875760184
 10
-0.2634362048
 20
62.2124708321
 10
-0.1825564504
 20
62.2319392507
 10
-0.10068705
 20
62.2459382481
  0
LINE
  5
298
100
AcDbEntity
  8
ASSI
100
AcDbLine
 62
7
  6
CONTINUOUS
 10
6.7844814843
 20
52.6574825687
 11
6.886916337
 21
52.7870301547
  0
LINE
  5
299
100
AcDbEntity
  8
ASSI
100
AcDbLine
 62
7
  6
CONTINUOUS
 10
6.886916337
 20
52.7870301547
 11
7.0463842757
 21
52.9853060795
  0
LINE
  5
29A
100
AcDbEntity
  8
ASSI
100
AcDbLine
 62
7
  6
CONTINUOUS
 10
7.0463842757
 20
52.9853060795
 11
7.2619412833
 21
53.2500712997
  0
LINE
  5
29B
100
AcDbEntity
  8
RACCORDO
100
AcDbLine
 62
250
  6
CONTINUOUS
 10
14.1500761524
 20
55.5
 11
14.0191631655
 21
55.369087013
  0
LINE
  5
29C
100
AcDbEntity
  8
RACCORDO
100
AcDbLine
 62
250
  6
CONTINUOUS
 10
14.6769801183
 20
55.0270562707
 11
14.519087013
 21
54.8691631655
  0
LINE
  5
29D
100
AcDbEntity
  8
DRAFT
100
AcDbLine
 62
7
  6
CONTINUOUS
 10
15.45
 20
-29.25
 11
14.65
 21
-29.25
  0
LINE
  5
29E
100
AcDbEntity
  8
DRAFT
100
AcDbLine
 62
7
  6
CONTINUOUS
 10
-14.65
 20
-29.25
 11
-15.45
 21
-29.25
  0
LINE
  5
29F
100
AcDbEntity
  8
DRAFT
100
AcDbLine
 62
7
  6
CONTINUOUS
 10
-15.45
 20
-27.75
 11
-14.65
 21
-27.75
  0
LINE
  5
2A0
100
AcDbEntity
  8
DRAFT
100
AcDbLine
 62
7
  6
CONTINUOUS
 10
14.65
 20
-27.75
 11
15.45
 21
-27.75
  0
LINE
  5
2A1
100
AcDbEntity
  8
RACCORDO
100
AcDbLine
 62
250
  6
CONTINUOUS
 10
14.0191631655
 20
-55.369087013
 11
14.1500761524
 21
-55.5
  0
LINE
  5
2A2
100
AcDbEntity
  8
RACCORDO
100
AcDbLine
 62
250
  6
CONTINUOUS
 10
14.519087013
 20
-54.8691631655
 11
14.6769801183
 21
-55.0270562707
  0
LINE
  5
2A3
100
AcDbEntity
  8
ASSI
100
AcDbLine
 62
7
  6
CONTINUOUS
 10
7.2619412833
 20
-53.2500712997
 11
6.9960064048
 21
-52.9229388206
  0
LWPOLYLINE
  5
2A4
100
AcDbEntity
  8
ASSI
100
AcDbPolyline
 62
7
  6
CONTINUOUS
 90
16
 70
0
 10
6.9960064048
 20
-52.9229388206
 10
6.9138315052
 20
-52.8209061498
 10
6.8357598351
 20
-52.7225341237
 10
6.762007767
 20
-52.6287521436
 10
6.6932041578
 20
-52.5399318984
 10
6.629417588
 20
-52.4557016993
 10
6.5701340285
 20
-52.3758758812
 10
6.5155954478
 20
-52.3001802998
 10
6.4663897953
 20
-52.2288890994
 10
6.4227133765
 20
-52.1626390482
 10
6.3847969302
 20
-52.1013572513
 10
6.3531915051
 20
-52.0451166035
 10
6.3284032644
 20
-51.9947725578
 10
6.3105531758
 20
-51.9506102652
 10
6.2995791782
 20
-51.9123445746
 10
6.2954558678
 20
-51.879975486
  0
LINE
  5
2A5
100
AcDbEntity
  8
0
100
AcDbLine
 62
7
  6
CONTINUOUS
 10
-1.5336462119
 20
61.8112670934
 11
-1.5769328755
 21
61.7027274611
  0
LWPOLYLINE
  5
2A6
100
AcDbEntity
  8
0
100
AcDbPolyline
 62
7
  6
CONTINUOUS
 90
8
 70
0
 10
-1.5547270811
 20
61.7700965032
 10
-1.6049787245
 20
61.6589903
 10
-1.6473021441
 20
61.5446288348
 10
-1.6814882718
 20
61.4275770268
 10
-1.7073682355
 20
61.3084130846
 10
-1.7248141937
 20
61.1877256508
 10
-1.7337399669
 20
61.0661108932
 10
-1.7341014634
 20
60.9441695607
  0
LWPOLYLINE
  5
2A7
100
AcDbEntity
  8
0
100
AcDbPolyline
 62
7
  6
CONTINUOUS
 90
46
 70
0
 10
-1.5769328755
 20
61.7027274611
 10
-1.612599858
 20
61.5920558406
 10
-1.6405574541
 20
61.4797832483
 10
-1.6607527172
 20
61.3664430466
 10
-1.6731693642
 20
61.2525684162
 10
-1.6778275079
 20
61.1386898508
 10
-1.6747832201
 20
61.0253326875
 10
-1.6641279265
 20
60.9130146842
 10
-1.6459876407
 20
60.8022436547
 10
-1.6205220405
 20
60.6935151728
 10
-1.5879233929
 20
60.5873103559
 10
-1.5484153337
 20
60.484093737
 10
-1.5022515103
 20
60.3843112356
 10
-1.4497140933
 20
60.2883882363
 10
-1.3911121672
 20
60.1967277822
 10
-1.3267800071
 20
60.1097088925
 10
-1.2570752527
 20
60.0276850093
 10
-1.1823769874
 20
59.9509825819
 10
-1.1030837337
 20
59.8798997925
 10
-1.0196113752
 20
59.8147054294
 10
-0.9323910152
 20
59.7556379102
 10
-0.8418667833
 20
59.7029044608
 10
-0.7484936016
 20
59.6566804502
 10
-0.6527349194
 20
59.6171088844
 10
-0.5550604313
 20
59.5843000595
 10
-0.4559437855
 20
59.5583313757
 10
-0.3558602973
 20
59.5392473094
 10
-0.2552846762
 20
59.5270595439
 10
-0.1546887788
 20
59.5217472555
 10
-0.0545393976
 20
59.5232575535
 10
0.044703904
 20
59.5315060685
 10
0.1425909005
 20
59.5463776864
 10
0.2386827461
 20
59.5677274233
 10
0.3325539426
 20
59.5953814337
 10
0.4237942219
 20
59.6291381485
 10
0.512010337
 20
59.6687695344
 10
0.5968277521
 20
59.7140224677
 10
0.6778922253
 20
59.7646202145
 10
0.7548712775
 20
59.8202640107
 10
0.8274555408
 20
59.8806347304
 10
0.8953599811
 20
59.9453946358
 10
0.9583249913
 20
60.0141891994
 10
1.0161173487
 20
60.086648987
 10
1.0685310361
 20
60.1623915937
 10
1.1153879214
 20
60.241023622
 10
1.1565382961
 20
60.322142692
  0
LWPOLYLINE
  5
2A8
100
AcDbEntity
  8
0
100
AcDbPolyline
 62
7
  6
CONTINUOUS
 90
10
 70
0
 10
1.1918612687
 20
60.405339474
 10
1.221265016
 20
60.4901997324
 10
1.2446868886
 20
60.5763063717
 10
1.2620933754
 20
60.6632414746
 10
1.2734799255
 20
60.7505883213
 10
1.2788706318
 20
60.837933381
 10
1.2783177783
 20
60.9248682667
 10
1.2719012553
 20
61.0109916424
 10
1.2597278464
 20
61.0959110755
 10
1.2419303919
 20
61.179244825
  0
LINE
  5
2A9
100
AcDbEntity
  8
0
100
AcDbLine
 62
7
  6
CONTINUOUS
 10
1.1565382961
 20
60.322142692
 11
1.1918612687
 21
60.405339474
  0
LINE
  5
2AA
100
AcDbEntity
  8
DRAFT
100
AcDbLine
 62
7
  6
CONTINUOUS
 10
15.45
 20
-18.5
 11
14.65
 21
-18.5
  0
LINE
  5
2AB
100
AcDbEntity
  8
DRAFT
100
AcDbLine
 62
7
  6
CONTINUOUS
 10
-14.65
 20
-18.5
 11
-15.45
 21
-18.5
  0
LINE
  5
2AC
100
AcDbEntity
  8
DRAFT
100
AcDbLine
 62
7
  6
CONTINUOUS
 10
-15.2920471214
 20
-56.5
 11
-15.3362647374
 21
-53.6336793649
  0
LINE
  5
2AD
100
AcDbEntity
  8
DRAFT
100
AcDbLine
 62
7
  6
CONTINUOUS
 10
-15.2689072036
 20
-58.0
 11
-15.2264840209
 21
-60.75
  0
LINE
  5
2AE
100
AcDbEntity
  8
RACCORDO
100
AcDbLine
 62
7
  6
CONTINUOUS
 10
-14.6726915844
 20
53.6336793649
 11
-14.6769801183
 21
55.0270562707
  0
LINE
  5
2AF
100
AcDbEntity
  8
DRAFT
100
AcDbLine
 62
7
  6
CONTINUOUS
 10
-16.75
 20
-61.6
 11
-16.75
 21
61.6
  0
LINE
  5
2B0
100
AcDbEntity
  8
DRAFT
100
AcDbLine
 62
7
  6
CONTINUOUS
 10
-15.45
 20
56.5
 11
-15.45
 21
51.5
  0
LINE
  5
2B1
100
AcDbEntity
  8
DRAFT
100
AcDbLine
 62
7
  6
CONTINUOUS
 10
-15.45
 20
50.0
 11
-15.45
 21
40.0
  0
LINE
  5
2B2
100
AcDbEntity
  8
DRAFT
100
AcDbLine
 62
7
  6
CONTINUOUS
 10
-15.45
 20
38.5
 11
-15.45
 21
29.25
  0
LINE
  5
2B3
100
AcDbEntity
  8
DRAFT
100
AcDbLine
 62
7
  6
CONTINUOUS
 10
-15.45
 20
27.75
 11
-15.45
 21
18.5
  0
LINE
  5
2B4
100
AcDbEntity
  8
DRAFT
100
AcDbLine
 62
7
  6
CONTINUOUS
 10
-15.45
 20
17.0
 11
-15.45
 21
7.0
  0
LINE
  5
2B5
100
AcDbEntity
  8
DRAFT
100
AcDbLine
 62
7
  6
CONTINUOUS
 10
-15.45
 20
5.5
 11
-15.45
 21
-5.5
  0
LINE
  5
2B6
100
AcDbEntity
  8
DRAFT
100
AcDbLine
 62
7
  6
CONTINUOUS
 10
-15.45
 20
-7.0
 11
-15.45
 21
-17.0
  0
LINE
  5
2B7
100
AcDbEntity
  8
DRAFT
100
AcDbLine
 62
7
  6
CONTINUOUS
 10
-15.45
 20
-18.5
 11
-15.45
 21
-27.75
  0
LINE
  5
2B8
100
AcDbEntity
  8
DRAFT
100
AcDbLine
 62
7
  6
CONTINUOUS
 10
-15.45
 20
-29.25
 11
-15.45
 21
-38.5
  0
LINE
  5
2B9
100
AcDbEntity
  8
DRAFT
100
AcDbLine
 62
7
  6
CONTINUOUS
 10
-15.45
 20
-40.0
 11
-15.45
 21
-50.0
  0
LINE
  5
2BA
100
AcDbEntity
  8
DRAFT
100
AcDbLine
 62
7
  6
CONTINUOUS
 10
-15.45
 20
-51.5
 11
-15.45
 21
-56.5
  0
LINE
  5
2BB
100
AcDbEntity
  8
DRAFT
100
AcDbLine
 62
7
  6
CONTINUOUS
 10
-15.45
 20
-58.0
 11
-15.45
 21
-60.75
  0
LINE
  5
2BC
100
AcDbEntity
  8
DRAFT
100
AcDbLine
 62
7
  6
CONTINUOUS
 10
-15.45
 20
58.0
 11
-15.45
 21
60.75
  0
LINE
  5
2BD
100
AcDbEntity
  8
DRAFT
100
AcDbLine
 62
7
  6
CONTINUOUS
 10
-15.3362647374
 20
53.6336793649
 11
-15.3362647374
 21
51.5
  0
LINE
  5
2BE
100
AcDbEntity
  8
DRAFT
100
AcDbLine
 62
7
  6
CONTINUOUS
 10
-15.3362647374
 20
50.0
 11
-15.3362647374
 21
40.0
  0
LINE
  5
2BF
100
AcDbEntity
  8
DRAFT
100
AcDbLine
 62
7
  6
CONTINUOUS
 10
-15.3362647374
 20
38.5
 11
-15.3362647374
 21
29.25
  0
LINE
  5
2C0
100
AcDbEntity
  8
DRAFT
100
AcDbLine
 62
7
  6
CONTINUOUS
 10
-15.3362647374
 20
27.75
 11
-15.3362647374
 21
18.5
  0
LINE
  5
2C1
100
AcDbEntity
  8
DRAFT
100
AcDbLine
 62
7
  6
CONTINUOUS
 10
-15.3362647374
 20
17.0
 11
-15.3362647374
 21
7.0
  0
LINE
  5
2C2
100
AcDbEntity
  8
DRAFT
100
AcDbLine
 62
7
  6
CONTINUOUS
 10
-15.3362647374
 20
5.5
 11
-15.3362647374
 21
-5.5
  0
LINE
  5
2C3
100
AcDbEntity
  8
DRAFT
100
AcDbLine
 62
7
  6
CONTINUOUS
 10
-15.3362647374
 20
-7.0
 11
-15.3362647374
 21
-17.0
  0
LINE
  5
2C4
100
AcDbEntity
  8
DRAFT
100
AcDbLine
 62
7
  6
CONTINUOUS
 10
-15.3362647374
 20
-18.5
 11
-15.3362647374
 21
-27.75
  0
LINE
  5
2C5
100
AcDbEntity
  8
DRAFT
100
AcDbLine
 62
7
  6
CONTINUOUS
 10
-15.3362647374
 20
-29.25
 11
-15.3362647374
 21
-38.5
  0
LINE
  5
2C6
100
AcDbEntity
  8
DRAFT
100
AcDbLine
 62
7
  6
CONTINUOUS
 10
-15.3362647374
 20
-40.0
 11
-15.3362647374
 21
-50.0
  0
LINE
  5
2C7
100
AcDbEntity
  8
DRAFT
100
AcDbLine
 62
7
  6
CONTINUOUS
 10
-15.3362647374
 20
-51.5
 11
-15.3362647374
 21
-53.6336793649
  0
LINE
  5
2C8
100
AcDbEntity
  8
DRAFT
100
AcDbLine
 62
7
  6
CONTINUOUS
 10
-14.6726915844
 20
-53.6336793649
 11
-14.6726915844
 21
-51.5
  0
LINE
  5
2C9
100
AcDbEntity
  8
DRAFT
100
AcDbLine
 62
7
  6
CONTINUOUS
 10
-14.6726915844
 20
-50.0
 11
-14.6726915844
 21
-40.0
  0
LINE
  5
2CA
100
AcDbEntity
  8
DRAFT
100
AcDbLine
 62
7
  6
CONTINUOUS
 10
-14.6726915844
 20
-38.5
 11
-14.6726915844
 21
-29.25
  0
LINE
  5
2CB
100
AcDbEntity
  8
DRAFT
100
AcDbLine
 62
7
  6
CONTINUOUS
 10
-14.6726915844
 20
-27.75
 11
-14.6726915844
 21
-18.5
  0
LINE
  5
2CC
100
AcDbEntity
  8
DRAFT
100
AcDbLine
 62
7
  6
CONTINUOUS
 10
-14.6726915844
 20
-17.0
 11
-14.6726915844
 21
-7.0
  0
LINE
  5
2CD
100
AcDbEntity
  8
DRAFT
100
AcDbLine
 62
7
  6
CONTINUOUS
 10
-14.6726915844
 20
-5.5
 11
-14.6726915844
 21
5.5
  0
LINE
  5
2CE
100
AcDbEntity
  8
DRAFT
100
AcDbLine
 62
7
  6
CONTINUOUS
 10
-14.6726915844
 20
7.0
 11
-14.6726915844
 21
17.0
  0
LINE
  5
2CF
100
AcDbEntity
  8
DRAFT
100
AcDbLine
 62
7
  6
CONTINUOUS
 10
-14.6726915844
 20
18.5
 11
-14.6726915844
 21
27.75
  0
LINE
  5
2D0
100
AcDbEntity
  8
DRAFT
100
AcDbLine
 62
7
  6
CONTINUOUS
 10
-14.6726915844
 20
29.25
 11
-14.6726915844
 21
38.5
  0
LINE
  5
2D1
100
AcDbEntity
  8
DRAFT
100
AcDbLine
 62
7
  6
CONTINUOUS
 10
-14.6726915844
 20
40.0
 11
-14.6726915844
 21
50.0
  0
LINE
  5
2D2
100
AcDbEntity
  8
DRAFT
100
AcDbLine
 62
7
  6
CONTINUOUS
 10
-14.6726915844
 20
51.5
 11
-14.6726915844
 21
53.6336793649
  0
LINE
  5
2D3
100
AcDbEntity
  8
DRAFT
100
AcDbLine
 62
7
  6
CONTINUOUS
 10
-14.65
 20
51.5
 11
-14.65
 21
50.0
  0
LINE
  5
2D4
100
AcDbEntity
  8
DRAFT
100
AcDbLine
 62
7
  6
CONTINUOUS
 10
-14.65
 20
40.0
 11
-14.65
 21
38.5
  0
LINE
  5
2D5
100
AcDbEntity
  8
DRAFT
100
AcDbLine
 62
7
  6
CONTINUOUS
 10
-14.65
 20
29.25
 11
-14.65
 21
27.75
  0
LINE
  5
2D6
100
AcDbEntity
  8
DRAFT
100
AcDbLine
 62
7
  6
CONTINUOUS
 10
-14.65
 20
18.5
 11
-14.65
 21
17.0
  0
LINE
  5
2D7
100
AcDbEntity
  8
DRAFT
100
AcDbLine
 62
7
  6
CONTINUOUS
 10
-14.65
 20
7.0
 11
-14.65
 21
5.5
  0
LINE
  5
2D8
100
AcDbEntity
  8
DRAFT
100
AcDbLine
 62
7
  6
CONTINUOUS
 10
-14.65
 20
-5.5
 11
-14.65
 21
-7.0
  0
LINE
  5
2D9
100
AcDbEntity
  8
DRAFT
100
AcDbLine
 62
7
  6
CONTINUOUS
 10
-14.65
 20
-17.0
 11
-14.65
 21
-18.5
  0
LINE
  5
2DA
100
AcDbEntity
  8
DRAFT
100
AcDbLine
 62
7
  6
CONTINUOUS
 10
-14.65
 20
-27.75
 11
-14.65
 21
-29.25
  0
LINE
  5
2DB
100
AcDbEntity
  8
DRAFT
100
AcDbLine
 62
7
  6
CONTINUOUS
 10
-14.65
 20
-38.5
 11
-14.65
 21
-40.0
  0
LINE
  5
2DC
100
AcDbEntity
  8
DRAFT
100
AcDbLine
 62
7
  6
CONTINUOUS
 10
-14.65
 20
-50.0
 11
-14.65
 21
-51.5
  0
LINE
  5
2DD
100
AcDbEntity
  8
DRAFT
100
AcDbLine
 62
7
  6
CONTINUOUS
 10
-14.5714522078
 20
1.5
 11
-14.5714522078
 21
-1.5
  0
LINE
  5
2DE
100
AcDbEntity
  8
RACCORDO
100
AcDbLine
 62
7
  6
CONTINUOUS
 10
-14.519087013
 20
54.8691631655
 11
-14.519087013
 21
1.5
  0
LINE
  5
2DF
100
AcDbEntity
  8
RACCORDO
100
AcDbLine
 62
7
  6
CONTINUOUS
 10
-14.519087013
 20
-1.5
 11
-14.519087013
 21
-54.8691631655
  0
LINE
  5
2E0
100
AcDbEntity
  8
RACCORDO
100
AcDbLine
 62
250
  6
CONTINUOUS
 10
-14.1798889187
 20
55.15
 11
-14.1798889187
 21
1.85
  0
LINE
  5
2E1
100
AcDbEntity
  8
RACCORDO
100
AcDbLine
 62
250
  6
CONTINUOUS
 10
-14.1798889187
 20
-1.85
 11
-14.1798889187
 21
-55.15
  0
LINE
  5
2E2
100
AcDbEntity
  8
RACCORDO
100
AcDbLine
 62
7
  6
CONTINUOUS
 10
-14.6726915844
 20
-53.6336793649
 11
-14.6769801183
 21
-55.0270562707
  0
LINE
  5
2E3
100
AcDbEntity
  8
DRAFT
100
AcDbLine
 62
7
  6
CONTINUOUS
 10
-15.2920471214
 20
56.5
 11
-15.3362647374
 21
53.6336793649
  0
LINE
  5
2E4
100
AcDbEntity
  8
DRAFT
100
AcDbLine
 62
7
  6
CONTINUOUS
 10
-15.2689072036
 20
58.0
 11
-15.2264840209
 21
60.75
  0
LINE
  5
2E5
100
AcDbEntity
  8
DRAFT
100
AcDbLine
 62
7
  6
CONTINUOUS
 10
-15.45
 20
-17.0
 11
-14.65
 21
-17.0
  0
LINE
  5
2E6
100
AcDbEntity
  8
DRAFT
100
AcDbLine
 62
7
  6
CONTINUOUS
 10
14.65
 20
-17.0
 11
15.45
 21
-17.0
  0
LWPOLYLINE
  5
2E7
100
AcDbEntity
  8
0
100
AcDbPolyline
 62
7
  6
CONTINUOUS
 90
20
 70
0
 10
1.2419303919
 20
-60.820755175
 10
1.2186668343
 20
-60.7393764427
 10
1.1901191525
 20
-60.6603080178
 10
1.1564921891
 20
-60.5838895982
 10
1.1180123805
 20
-60.5104438346
 10
1.0749263943
 20
-60.4402749754
 10
1.0274996836
 20
-60.3736676181
 10
0.976014966
 20
-60.3108855705
 10
0.9207706341
 20
-60.2521708283
 10
0.8620791091
 20
-60.1977426706
 10
0.8002651424
 20
-60.1477968794
 10
0.7356640779
 20
-60.1025050824
 10
0.6686200817
 20
-60.0620142235
 10
0.5994843491
 20
-60.026446162
 10
0.5286132983
 20
-59.9958973993
 10
0.4563667594
 20
-59.9704389351
 10
0.3831061687
 20
-59.9501162521
 10
0.3091927763
 20
-59.9349494261
 10
0.2349858761
 20
-59.9249333625
 10
0.1608410672
 20
-59.9200381539
  0
LINE
  5
2E8
100
AcDbEntity
  8
RACCORDO
100
AcDbLine
 62
7
  6
CONTINUOUS
 10
-13.1799269956
 20
54.65
 11
-13.1799269956
 21
2.35
  0
LINE
  5
2E9
100
AcDbEntity
  8
RACCORDO
100
AcDbLine
 62
7
  6
CONTINUOUS
 10
-13.1799269956
 20
-2.35
 11
-13.1799269956
 21
-54.65
  0
LINE
  5
2EA
100
AcDbEntity
  8
DRAFT
100
AcDbLine
 62
7
  6
CONTINUOUS
 10
-13.1623971047
 20
1.5
 11
-13.1623971047
 21
-1.5
  0
LINE
  5
2EB
100
AcDbEntity
  8
DRAFT
100
AcDbLine
 62
7
  6
CONTINUOUS
 10
-13.1466887427
 20
-53.0
 11
-13.1466887427
 21
-51.0
  0
LINE
  5
2EC
100
AcDbEntity
  8
DRAFT
100
AcDbLine
 62
7
  6
CONTINUOUS
 10
-13.1466887427
 20
-6.0
 11
-13.1466887427
 21
-4.0
  0
LINE
  5
2ED
100
AcDbEntity
  8
DRAFT
100
AcDbLine
 62
7
  6
CONTINUOUS
 10
-13.1466887427
 20
4.0
 11
-13.1466887427
 21
6.0
  0
LINE
  5
2EE
100
AcDbEntity
  8
DRAFT
100
AcDbLine
 62
7
  6
CONTINUOUS
 10
-13.1466887427
 20
51.0
 11
-13.1466887427
 21
53.0
  0
LINE
  5
2EF
100
AcDbEntity
  8
DRAFT
100
AcDbLine
 62
7
  6
CONTINUOUS
 10
-13.1161447054
 20
1.5
 11
-13.1161447054
 21
-1.5
  0
LINE
  5
2F0
100
AcDbEntity
  8
DRAFT
100
AcDbLine
 62
7
  6
CONTINUOUS
 10
-13.110035898
 20
-55.5
 11
-13.110035898
 21
-55.4047251461
  0
LINE
  5
2F1
100
AcDbEntity
  8
DRAFT
100
AcDbLine
 62
7
  6
CONTINUOUS
 10
-13.110035898
 20
55.4047251461
 11
-13.110035898
 21
55.5
  0
LINE
  5
2F2
100
AcDbEntity
  8
DRAFT
100
AcDbLine
 62
7
  6
CONTINUOUS
 10
-13.1
 20
4.0
 11
-13.1
 21
2.35
  0
LINE
  5
2F3
100
AcDbEntity
  8
DRAFT
100
AcDbLine
 62
7
  6
CONTINUOUS
 10
-13.1
 20
-2.35
 11
-13.1
 21
-4.0
  0
LINE
  5
2F4
100
AcDbEntity
  8
DRAFT
100
AcDbLine
 62
7
  6
CONTINUOUS
 10
-13.1
 20
-6.0
 11
-13.1
 21
-51.0
  0
LINE
  5
2F5
100
AcDbEntity
  8
DRAFT
100
AcDbLine
 62
7
  6
CONTINUOUS
 10
-13.1
 20
6.0
 11
-13.1
 21
51.0
  0
LINE
  5
2F6
100
AcDbEntity
  8
0
100
AcDbLine
 62
7
  6
CONTINUOUS
 10
-12.792424
 20
61.610075
 11
-12.792424
 21
60.16047
  0
LINE
  5
2F7
100
AcDbEntity
  8
0
100
AcDbLine
 62
7
  6
CONTINUOUS
 10
-12.75
 20
-50.9
 11
-12.75
 21
-6.1
  0
LINE
  5
2F8
100
AcDbEntity
  8
0
100
AcDbLine
 62
7
  6
CONTINUOUS
 10
-12.75
 20
6.1
 11
-12.75
 21
50.9
  0
LINE
  5
2F9
100
AcDbEntity
  8
0
100
AcDbLine
 62
7
  6
CONTINUOUS
 10
-12.602545
 20
60.16047
 11
-12.602545
 21
61.375511
  0
LINE
  5
2FA
100
AcDbEntity
  8
0
100
AcDbLine
 62
7
  6
CONTINUOUS
 10
-12.5
 20
53.0
 11
-12.5
 21
51.0
  0
LINE
  5
2FB
100
AcDbEntity
  8
0
100
AcDbLine
 62
7
  6
CONTINUOUS
 10
-12.5
 20
-53.0
 11
-12.5
 21
-51.0
  0
LINE
  5
2FC
100
AcDbEntity
  8
0
100
AcDbLine
 62
7
  6
CONTINUOUS
 10
-12.5
 20
6.0
 11
-12.5
 21
4.0
  0
LINE
  5
2FD
100
AcDbEntity
  8
0
100
AcDbLine
 62
7
  6
CONTINUOUS
 10
-12.5
 20
-6.0
 11
-12.5
 21
-4.0
  0
LINE
  5
2FE
100
AcDbEntity
  8
0
100
AcDbLine
 62
7
  6
CONTINUOUS
 10
-12.49359
 20
57.440702
 11
-12.49359
 21
55.989925
  0
LINE
  5
2FF
100
AcDbEntity
  8
0
100
AcDbLine
 62
7
  6
CONTINUOUS
 10
-12.297612
 20
55.989925
 11
-12.297612
 21
57.440702
  0
LINE
  5
300
100
AcDbEntity
  8
0
100
AcDbLine
 62
7
  6
CONTINUOUS
 10
-12.087443
 20
57.440702
 11
-12.087443
 21
57.267125
  0
LINE
  5
301
100
AcDbEntity
  8
ASSI
100
AcDbLine
 62
7
  6
CONTINUOUS
 10
-11.6
 20
-65.4
 11
-11.6
 21
-64.6
  0
LINE
  5
302
100
AcDbEntity
  8
ASSI
100
AcDbLine
 62
7
  6
CONTINUOUS
 10
-11.6
 20
64.6
 11
-11.6
 21
65.4
  0
LINE
  5
303
100
AcDbEntity
  8
0
100
AcDbLine
 62
7
  6
CONTINUOUS
 10
-11.596618
 20
57.267125
 11
-11.596618
 21
55.989925
  0
LINE
  5
304
100
AcDbEntity
  8
0
100
AcDbLine
 62
7
  6
CONTINUOUS
 10
-11.59263
 20
61.377857
 11
-11.59263
 21
60.16047
  0
LINE
  5
305
100
AcDbEntity
  8
0
100
AcDbLine
 62
7
  6
CONTINUOUS
 10
-11.402751
 20
60.16047
 11
-11.402751
 21
61.610075
  0
LINE
  5
306
100
AcDbEntity
  8
0
100
AcDbLine
 62
7
  6
CONTINUOUS
 10
-11.400757
 20
55.989925
 11
-11.400757
 21
57.267125
  0
LINE
  5
307
100
AcDbEntity
  8
0
100
AcDbLine
 62
7
  6
CONTINUOUS
 10
-10.909932
 20
57.267125
 11
-10.909932
 21
57.440702
  0
LINE
  5
308
100
AcDbEntity
  8
ASSI
100
AcDbLine
 62
7
  6
CONTINUOUS
 10
-10.867554
 20
-61.548037
 11
-10.867554
 21
-60.79722
  0
LINE
  5
309
100
AcDbEntity
  8
ASSI
100
AcDbLine
 62
7
  6
CONTINUOUS
 10
-10.867554
 20
-57.20278
 11
-10.867554
 21
-56.451963
  0
LINE
  5
30A
100
AcDbEntity
  8
0
100
AcDbLine
 62
7
  6
CONTINUOUS
 10
-10.848359
 20
59.524802
 11
-10.848359
 21
58.075198
  0
LINE
  5
30B
100
AcDbEntity
  8
0
100
AcDbLine
 62
7
  6
CONTINUOUS
 10
-10.652381
 20
58.075198
 11
-10.652381
 21
59.524802
  0
LINE
  5
30C
100
AcDbEntity
  8
0
100
AcDbLine
 62
7
  6
CONTINUOUS
 10
-10.35
 20
53.0
 11
-10.35
 21
51.0
  0
LINE
  5
30D
100
AcDbEntity
  8
0
100
AcDbLine
 62
7
  6
CONTINUOUS
 10
-10.35
 20
-53.0
 11
-10.35
 21
-51.0
  0
LINE
  5
30E
100
AcDbEntity
  8
0
100
AcDbLine
 62
7
  6
CONTINUOUS
 10
-10.35
 20
6.0
 11
-10.35
 21
4.0
  0
LINE
  5
30F
100
AcDbEntity
  8
0
100
AcDbLine
 62
7
  6
CONTINUOUS
 10
-10.35
 20
-6.0
 11
-10.35
 21
-4.0
  0
LINE
  5
310
100
AcDbEntity
  8
0
100
AcDbLine
 62
7
  6
CONTINUOUS
 10
-10.317189
 20
59.524802
 11
-10.317189
 21
58.075198
  0
LINE
  5
311
100
AcDbEntity
  8
0
100
AcDbLine
 62
7
  6
CONTINUOUS
 10
-10.127192
 20
58.075198
 11
-10.127192
 21
59.253181
  0
LINE
  5
312
100
AcDbEntity
  8
0
100
AcDbLine
 62
7
  6
CONTINUOUS
 10
-9.746495
 20
61.610075
 11
-9.746495
 21
60.16047
  0
LINE
  5
313
100
AcDbEntity
  8
0
100
AcDbLine
 62
7
  6
CONTINUOUS
 10
-9.550634
 20
60.328184
 11
-9.550634
 21
61.442362
  0
LINE
  5
314
100
AcDbEntity
  8
0
100
AcDbLine
 62
7
  6
CONTINUOUS
 10
-9.380927
 20
57.440702
 11
-9.380927
 21
55.989925
  0
LINE
  5
315
100
AcDbEntity
  8
0
100
AcDbLine
 62
7
  6
CONTINUOUS
 10
-9.355594
 20
59.524802
 11
-9.355594
 21
58.347703
  0
LINE
  5
316
100
AcDbEntity
  8
0
100
AcDbLine
 62
7
  6
CONTINUOUS
 10
-9.185066
 20
56.163502
 11
-9.185066
 21
57.440702
  0
LINE
  5
317
100
AcDbEntity
  8
0
100
AcDbLine
 62
7
  6
CONTINUOUS
 10
-9.165832
 20
58.075198
 11
-9.165832
 21
59.524802
  0
LINE
  5
318
100
AcDbEntity
  8
RACCORDO
100
AcDbLine
 62
7
  6
CONTINUOUS
 10
-13.096141267
 20
54.0076536684
 11
-13.0963139575
 21
54.65
  0
LINE
  5
319
100
AcDbEntity
  8
RACCORDO
100
AcDbLine
 62
7
  6
CONTINUOUS
 10
-13.0976918266
 20
53.0
 11
-13.0961412122
 21
54.0076892876
  0
LINE
  5
31A
100
AcDbEntity
  8
RACCORDO
100
AcDbLine
 62
7
  6
CONTINUOUS
 10
-13.0963139931
 20
-54.65
 11
-13.0976918266
 21
-53.0
  0
LINE
  5
31B
100
AcDbEntity
  8
0
100
AcDbLine
 62
7
  6
CONTINUOUS
 10
9.333561
 20
58.864246
 11
9.48503
 21
59.286251
  0
LINE
  5
31C
100
AcDbEntity
  8
0
100
AcDbLine
 62
7
  6
CONTINUOUS
 10
9.545594
 20
59.459931
 11
9.779977
 21
60.10382
  0
LINE
  5
31D
100
AcDbEntity
  8
0
100
AcDbLine
 62
7
  6
CONTINUOUS
 10
9.676913
 20
60.314246
 11
9.131603
 21
58.864246
  0
LWPOLYLINE
  5
31E
100
AcDbEntity
  8
0
100
AcDbPolyline
 62
7
  6
CONTINUOUS
 90
45
 70
0
 10
-1.7258968971
 20
-61.1774959845
 10
-1.709166796
 20
-61.2982847425
 10
-1.6839938026
 20
-61.4176000446
 10
-1.6505022653
 20
-61.5348525004
 10
-1.608857624
 20
-61.6494629097
 10
-1.5592655933
 20
-61.760865123
 10
-1.501971146
 20
-61.8685088387
 10
-1.4372573031
 20
-61.9718623212
 10
-1.3654437358
 20
-62.0704150277
 10
-1.2868851862
 20
-62.1636801301
 10
-1.2019697154
 20
-62.2511969195
 10
-1.1111167859
 20
-62.3325330828
 10
-1.0147751903
 20
-62.4072868373
 10
-0.9134208336
 20
-62.4750889161
 10
-0.8075543832
 20
-62.5356043919
 10
-0.697698795
 20
-62.5885343315
 10
-0.5843967304
 20
-62.6336172725
 10
-0.4682078757
 20
-62.6706305149
 10
-0.3497061773
 20
-62.699391221
 10
-0.2294770068
 20
-62.7197573191
 10
-0.1081142689
 20
-62.7316282045
 10
0.0137825318
 20
-62.7349452373
 10
0.1356112527
 20
-62.7296920313
 10
0.2567700874
 20
-62.7158945358
 10
0.3766605384
 20
-62.6936209066
 10
0.4946903738
 20
-62.6629811698
 10
0.6102765525
 20
-62.6241266784
 10
0.7228481045
 20
-62.5772493641
 10
0.8318489514
 20
-62.5225807898
 10
0.9367406531
 20
-62.4603910055
 10
1.0370050678
 20
-62.3909872143
 10
1.1321469113
 20
-62.3147122548
 10
1.2216962037
 20
-62.2319429079
 10
1.3052105911
 20
-62.1430880351
 10
1.3822775305
 20
-62.0485865594
 10
1.4525163279
 20
-61.9489052966
 10
1.5155800188
 20
-61.8445366495
 10
1.5711570818
 20
-61.7359961758
 10
1.6189729781
 20
-61.6238200411
 10
1.658791507
 20
-61.5085623703
 10
1.6904159733
 20
-61.3907925107
 10
1.7136901584
 20
-61.271092219
 10
1.7284990922
 20
-61.1500527883
 10
1.7347696213
 20
-61.0282721266
 10
1.7324707698
 20
-60.9063518034
  0
LINE
  5
31F
100
AcDbEntity
  8
0
100
AcDbLine
 62
7
  6
CONTINUOUS
 10
-1.7341014634
 20
-61.0558304393
 11
-1.7258968971
 21
-61.1774959845
  0
LWPOLYLINE
  5
320
100
AcDbEntity
  8
0
100
AcDbPolyline
 62
7
  6
CONTINUOUS
 90
16
 70
0
 10
-8.5494247919
 20
60.88527284
 10
-8.5512671794
 20
60.9694173261
 10
-8.5592924763
 20
61.0494839619
 10
-8.5735006828
 20
61.1254727474
 10
-8.5942727977
 20
61.1979656501
 10
-8.6212278221
 20
61.2663807026
 10
-8.6532227589
 20
61.3289720023
 10
-8.6899154831
 20
61.3852706343
 10
-8.7316481197
 20
61.4357455136
 10
-8.7783040459
 20
61.4800574825
 10
-8.8299407368
 20
61.5183066315
 10
-8.8865007173
 20
61.5503928701
 10
-8.94769494
 20
61.5756767692
 10
-9.0134270558
 20
61.5939451857
 10
-9.0837934137
 20
61.6054112626
 10
-9.1587940139
 20
61.610075
  0
LWPOLYLINE
  5
321
100
AcDbEntity
  8
0
100
AcDbPolyline
 62
7
  6
CONTINUOUS
 90
16
 70
0
 10
-8.7504540049
 20
60.88527284
 10
-8.7517560672
 20
60.9488634732
 10
-8.7569967367
 20
61.0097146688
 10
-8.7661760133
 20
61.0678264266
 10
-8.7791476473
 20
61.123682527
 10
-8.7960578884
 20
61.1767991897
 10
-8.8173454856
 20
61.2257250737
 10
-8.8433366572
 20
61.2703249028
 10
-8.8737051848
 20
61.3107339532
 10
-8.9079111624
 20
61.3459067122
 10
-8.9460556385
 20
61.3755883098
 10
-8.9880375646
 20
61.4000336159
 10
-9.0330138886
 20
61.4189617282
 10
-9.0807035931
 20
61.4322790126
 10
-9.1313876956
 20
61.4400791032
 10
-9.1850661958
 20
61.442362
  0
LINE
  5
322
100
AcDbEntity
  8
ASSI
100
AcDbLine
 62
7
  6
CONTINUOUS
 10
-8.6
 20
-65.4
 11
-8.6
 21
-64.6
  0
LINE
  5
323
100
AcDbEntity
  8
ASSI
100
AcDbLine
 62
7
  6
CONTINUOUS
 10
-8.6
 20
64.6
 11
-8.6
 21
65.4
  0
LINE
  5
324
100
AcDbEntity
  8
DRAFT
100
AcDbLine
 62
7
  6
CONTINUOUS
 10
-8.5
 20
-55.5
 11
-8.5
 21
-55.4214522078
  0
LINE
  5
325
100
AcDbEntity
  8
ASSI
100
AcDbLine
 62
7
  6
CONTINUOUS
 10
-8.5
 20
5.2377823851
 11
-8.5
 21
1.85
  0
LINE
  5
326
100
AcDbEntity
  8
ASSI
100
AcDbLine
 62
7
  6
CONTINUOUS
 10
-8.5
 20
-5.2377823851
 11
-8.5
 21
-1.85
  0
LINE
  5
327
100
AcDbEntity
  8
ASSI
100
AcDbLine
 62
7
  6
CONTINUOUS
 10
-8.5
 20
-51.7622176149
 11
-8.5
 21
-55.15
  0
LINE
  5
328
100
AcDbEntity
  8
ASSI
100
AcDbLine
 62
7
  6
CONTINUOUS
 10
-8.5
 20
51.7622176149
 11
-8.5
 21
55.15
  0
LINE
  5
329
100
AcDbEntity
  8
DRAFT
100
AcDbLine
 62
7
  6
CONTINUOUS
 10
-8.5
 20
55.4214522078
 11
-8.5
 21
55.5
  0
LINE
  5
32A
100
AcDbEntity
  8
0
100
AcDbLine
 62
7
  6
CONTINUOUS
 10
-8.449826
 20
55.989925
 11
-8.449826
 21
56.163502
  0
LINE
  5
32B
100
AcDbEntity
  8
0
100
AcDbLine
 62
7
  6
CONTINUOUS
 10
-8.278125
 20
61.610075
 11
-8.278125
 21
60.16047
  0
LINE
  5
32C
100
AcDbEntity
  8
0
100
AcDbLine
 62
7
  6
CONTINUOUS
 10
-8.138677
 20
56.573989
 11
-8.138677
 21
55.989925
  0
LINE
  5
32D
100
AcDbEntity
  8
DRAFT
100
AcDbLine
 62
7
  6
CONTINUOUS
 10
-8.1
 20
-51.7622176149
 11
-8.1
 21
-51.0
  0
LINE
  5
32E
100
AcDbEntity
  8
DRAFT
100
AcDbLine
 62
7
  6
CONTINUOUS
 10
-8.1
 20
-6.0
 11
-8.1
 21
-5.2377823851
  0
LINE
  5
32F
100
AcDbEntity
  8
DRAFT
100
AcDbLine
 62
7
  6
CONTINUOUS
 10
-8.1
 20
5.2377823851
 11
-8.1
 21
6.0
  0
LINE
  5
330
100
AcDbEntity
  8
DRAFT
100
AcDbLine
 62
7
  6
CONTINUOUS
 10
-8.1
 20
51.0
 11
-8.1
 21
51.7622176149
  0
LINE
  5
331
100
AcDbEntity
  8
0
100
AcDbLine
 62
7
  6
CONTINUOUS
 10
-8.082147
 20
60.334048
 11
-8.082147
 21
60.818422
  0
LINE
  5
332
100
AcDbEntity
  8
0
100
AcDbLine
 62
7
  6
CONTINUOUS
 10
-8.082147
 20
60.991999
 11
-8.082147
 21
61.436498
  0
LINE
  5
333
100
AcDbEntity
  8
0
100
AcDbLine
 62
7
  6
CONTINUOUS
 10
-7.942816
 20
55.989925
 11
-7.942816
 21
56.573989
  0
LINE
  5
334
100
AcDbEntity
  8
0
100
AcDbLine
 62
7
  6
CONTINUOUS
 10
-7.288383
 20
60.818422
 11
-7.288383
 21
60.991999
  0
LINE
  5
335
100
AcDbEntity
  8
0
100
AcDbLine
 62
7
  6
CONTINUOUS
 10
-7.221767
 20
61.436498
 11
-7.221767
 21
61.610075
  0
LINE
  5
336
100
AcDbEntity
  8
0
100
AcDbLine
 62
7
  6
CONTINUOUS
 10
-7.207576
 20
60.16047
 11
-7.207576
 21
60.334048
  0
LINE
  5
337
100
AcDbEntity
  8
ASSI
100
AcDbLine
 62
7
  6
CONTINUOUS
 10
-6.882444
 20
-59.375
 11
-6.882444
 21
-58.625
  0
LINE
  5
338
100
AcDbEntity
  8
ASSI
100
AcDbLine
 62
7
  6
CONTINUOUS
 10
-6.482444
 20
-61.5480371177
 11
-6.482444
 21
-60.7972169516
  0
LINE
  5
339
100
AcDbEntity
  8
ASSI
100
AcDbLine
 62
7
  6
CONTINUOUS
 10
-6.482444
 20
-57.20278
 11
-6.482444
 21
-56.4519628823
  0
LINE
  5
33A
100
AcDbEntity
  8
ASSI
100
AcDbLine
 62
7
  6
CONTINUOUS
 10
-6.2954558678
 20
-52.8454558678
 11
-6.2954558678
 21
-51.879975486
  0
LINE
  5
33B
100
AcDbEntity
  8
ASSI
100
AcDbLine
 62
7
  6
CONTINUOUS
 10
-6.2954558678
 20
-5.120024514
 11
-6.2954558678
 21
-4.1545441322
  0
LINE
  5
33C
100
AcDbEntity
  8
ASSI
100
AcDbLine
 62
7
  6
CONTINUOUS
 10
-6.2954558678
 20
4.1545441322
 11
-6.2954558678
 21
5.120024514
  0
LINE
  5
33D
100
AcDbEntity
  8
ASSI
100
AcDbLine
 62
7
  6
CONTINUOUS
 10
-6.2954558678
 20
51.879975486
 11
-6.2954558678
 21
52.8454558678
  0
LINE
  5
33E
100
AcDbEntity
  8
DRAFT
100
AcDbLine
 62
7
  6
CONTINUOUS
 10
-6.25
 20
-52.8
 11
-6.25
 21
-51.75
  0
LINE
  5
33F
100
AcDbEntity
  8
DRAFT
100
AcDbLine
 62
7
  6
CONTINUOUS
 10
-6.25
 20
-5.25
 11
-6.25
 21
-4.2
  0
LINE
  5
340
100
AcDbEntity
  8
DRAFT
100
AcDbLine
 62
7
  6
CONTINUOUS
 10
-6.25
 20
4.2
 11
-6.25
 21
5.25
  0
LINE
  5
341
100
AcDbEntity
  8
DRAFT
100
AcDbLine
 62
7
  6
CONTINUOUS
 10
-6.25
 20
51.75
 11
-6.25
 21
52.8
  0
LINE
  5
342
100
AcDbEntity
  8
0
100
AcDbLine
 62
7
  6
CONTINUOUS
 10
-6.0
 20
-2.35
 11
-6.0
 21
2.35
  0
LINE
  5
343
100
AcDbEntity
  8
0
100
AcDbLine
 62
7
  6
CONTINUOUS
 10
-4.8
 20
-2.35
 11
-4.8
 21
2.35
  0
LINE
  5
344
100
AcDbEntity
  8
DRAFT
100
AcDbLine
 62
7
  6
CONTINUOUS
 10
-4.5
 20
-65.2
 11
-4.5
 21
-64.6
  0
LINE
  5
345
100
AcDbEntity
  8
DRAFT
100
AcDbLine
 62
7
  6
CONTINUOUS
 10
-4.5
 20
64.6
 11
-4.5
 21
65.2
  0
LINE
  5
346
100
AcDbEntity
  8
DRAFT
100
AcDbLine
 62
7
  6
CONTINUOUS
 10
-4.2
 20
52.8379777618
 11
-4.2
 21
51.8
  0
LINE
  5
347
100
AcDbEntity
  8
DRAFT
100
AcDbLine
 62
7
  6
CONTINUOUS
 10
-4.2
 20
5.2
 11
-4.2
 21
4.1620222382
  0
LINE
  5
348
100
AcDbEntity
  8
DRAFT
100
AcDbLine
 62
7
  6
CONTINUOUS
 10
-4.2
 20
-4.1620222382
 11
-4.2
 21
-5.2
  0
LINE
  5
349
100
AcDbEntity
  8
DRAFT
100
AcDbLine
 62
7
  6
CONTINUOUS
 10
-4.2
 20
-51.8
 11
-4.2
 21
-52.8379777618
  0
LWPOLYLINE
  5
34A
100
AcDbEntity
  8
ASSI
100
AcDbPolyline
 62
7
  6
CONTINUOUS
 90
16
 70
0
 10
-6.2954558678
 20
5.120024514
 10
-6.2995791782
 20
5.0876554254
 10
-6.3105531758
 20
5.0493897348
 10
-6.3284032644
 20
5.0052274422
 10
-6.3531915051
 20
4.9548833965
 10
-6.3847969302
 20
4.8986427487
 10
-6.4227133765
 20
4.8373609518
 10
-6.4663897953
 20
4.7711109006
 10
-6.5155954478
 20
4.6998197002
 10
-6.5701340285
 20
4.6241241188
 10
-6.629417588
 20
4.5442983007
 10
-6.6932041578
 20
4.4600681016
 10
-6.762007767
 20
4.3712478564
 10
-6.8357598351
 20
4.2774658763
 10
-6.9138315052
 20
4.1790938502
 10
-6.9960064048
 20
4.0770611794
  0
LINE
  5
34B
100
AcDbEntity
  8
ASSI
100
AcDbLine
 62
7
  6
CONTINUOUS
 10
-6.9960064048
 20
4.0770611794
 11
-7.2619412833
 21
3.7499287003
  0
LWPOLYLINE
  5
34C
100
AcDbEntity
  8
ASSI
100
AcDbPolyline
 62
7
  6
CONTINUOUS
 90
7
 70
0
 10
-6.5091791955
 20
3.9403857795
 10
-6.415827129
 20
4.0342900415
 10
-6.3760775756
 20
4.0733023047
 10
-6.3438832416
 20
4.1061167584
 10
-6.3201855642
 20
4.1315382362
 10
-6.3040431063
 20
4.1481138091
 10
-6.2954558678
 20
4.1545441322
  0
LINE
  5
34D
100
AcDbEntity
  8
ASSI
100
AcDbLine
 62
7
  6
CONTINUOUS
 10
-6.25
 20
5.25
 11
-6.2911305116
 21
5.2088694884
  0
LINE
  5
34E
100
AcDbEntity
  8
RACCORDO
100
AcDbLine
 62
7
  6
CONTINUOUS
 10
-6.25
 20
4.2
 11
-6.2954558678
 21
4.1545441322
  0
LWPOLYLINE
  5
34F
100
AcDbEntity
  8
ASSI
100
AcDbPolyline
 62
7
  6
CONTINUOUS
 90
6
 70
0
 10
-6.8046456161
 20
3.6453543839
 10
-6.7399412263
 20
3.7089918485
 10
-6.678162724
 20
3.7709726511
 10
-6.6193101092
 20
3.8306898908
 10
-6.5627817086
 20
3.8873094824
 10
-6.5091791955
 20
3.9403857795
  0
LINE
  5
350
100
AcDbEntity
  8
DRAFT
100
AcDbLine
 62
7
  6
CONTINUOUS
 10
15.45
 20
-7.0
 11
14.65
 21
-7.0
  0
LINE
  5
351
100
AcDbEntity
  8
DRAFT
100
AcDbLine
 62
7
  6
CONTINUOUS
 10
-14.65
 20
-7.0
 11
-15.45
 21
-7.0
  0
LINE
  5
352
100
AcDbEntity
  8
DRAFT
100
AcDbLine
 62
7
  6
CONTINUOUS
 10
-13.1
 20
-6.1
 11
-12.75
 21
-6.1
  0
LINE
  5
353
100
AcDbEntity
  8
DRAFT
100
AcDbLine
 62
7
  6
CONTINUOUS
 10
12.75
 20
-6.1
 11
13.1
 21
-6.1
  0
LINE
  5
354
100
AcDbEntity
  8
DRAFT
100
AcDbLine
 62
7
  6
CONTINUOUS
 10
-13.1466887427
 20
-6.0
 11
-12.5
 21
-6.0
  0
LINE
  5
355
100
AcDbEntity
  8
0
100
AcDbLine
 62
7
  6
CONTINUOUS
 10
8.1
 20
-6.0
 11
12.5
 21
-6.0
  0
LINE
  5
356
100
AcDbEntity
  8
DRAFT
100
AcDbLine
 62
7
  6
CONTINUOUS
 10
12.5
 20
-6.0
 11
13.1466887427
 21
-6.0
  0
LINE
  5
357
100
AcDbEntity
  8
0
100
AcDbLine
 62
7
  6
CONTINUOUS
 10
-8.1
 20
-6.0
 11
-12.5
 21
-6.0
  0
LINE
  5
358
100
AcDbEntity
  8
DRAFT
100
AcDbLine
 62
7
  6
CONTINUOUS
 10
-15.45
 20
-5.5
 11
-14.65
 21
-5.5
  0
LINE
  5
359
100
AcDbEntity
  8
DRAFT
100
AcDbLine
 62
7
  6
CONTINUOUS
 10
14.65
 20
-5.5
 11
15.45
 21
-5.5
  0
LINE
  5
35A
100
AcDbEntity
  8
0
100
AcDbLine
 62
7
  6
CONTINUOUS
 10
-12.5
 20
-5.4
 11
-10.35
 21
-5.4
  0
LINE
  5
35B
100
AcDbEntity
  8
0
100
AcDbLine
 62
7
  6
CONTINUOUS
 10
12.5
 20
-5.4
 11
10.35
 21
-5.4
  0
LINE
  5
35C
100
AcDbEntity
  8
DRAFT
100
AcDbLine
 62
7
  6
CONTINUOUS
 10
6.25
 20
-5.25
 11
8.1
 21
-5.25
  0
LINE
  5
35D
100
AcDbEntity
  8
DRAFT
100
AcDbLine
 62
7
  6
CONTINUOUS
 10
-6.25
 20
-5.25
 11
-8.1
 21
-5.25
  0
LINE
  5
35E
100
AcDbEntity
  8
DRAFT
100
AcDbLine
 62
7
  6
CONTINUOUS
 10
-8.5
 20
-5.2377823851
 11
-8.1
 21
-5.2377823851
  0
LINE
  5
35F
100
AcDbEntity
  8
DRAFT
100
AcDbLine
 62
7
  6
CONTINUOUS
 10
8.1
 20
-5.2377823851
 11
8.5
 21
-5.2377823851
  0
LINE
  5
360
100
AcDbEntity
  8
ASSI
100
AcDbLine
 62
7
  6
CONTINUOUS
 10
-8.5
 20
-5.2088694884
 11
-6.2911305116
 21
-5.2088694884
  0
LINE
  5
361
100
AcDbEntity
  8
ASSI
100
AcDbLine
 62
7
  6
CONTINUOUS
 10
6.2911305116
 20
-5.2088694884
 11
8.5
 21
-5.2088694884
  0
LINE
  5
362
100
AcDbEntity
  8
0
100
AcDbLine
 62
7
  6
CONTINUOUS
 10
-4.2
 20
-5.2
 11
-1.6
 21
-5.2
  0
LINE
  5
363
100
AcDbEntity
  8
0
100
AcDbLine
 62
7
  6
CONTINUOUS
 10
1.6
 20
-5.2
 11
4.2
 21
-5.2
  0
LINE
  5
364
100
AcDbEntity
  8
DRAFT
100
AcDbLine
 62
7
  6
CONTINUOUS
 10
-6.25
 20
-4.2
 11
-4.2
 21
-4.2
  0
LINE
  5
365
100
AcDbEntity
  8
DRAFT
100
AcDbLine
 62
7
  6
CONTINUOUS
 10
-1.6
 20
-4.2
 11
1.6
 21
-4.2
  0
LINE
  5
366
100
AcDbEntity
  8
DRAFT
100
AcDbLine
 62
7
  6
CONTINUOUS
 10
4.2
 20
-4.2
 11
6.25
 21
-4.2
  0
LINE
  5
367
100
AcDbEntity
  8
RACCORDO
100
AcDbLine
 62
7
  6
CONTINUOUS
 10
-6.2954558678
 20
-4.1545441322
 11
6.2954558678
 21
-4.1545441322
  0
LWPOLYLINE
  5
368
100
AcDbEntity
  8
ASSI
100
AcDbPolyline
 62
7
  6
CONTINUOUS
 90
7
 70
0
 10
-7.5336543116
 20
-3.7089266038
 10
-7.4889268532
 20
-3.7210043512
 10
-7.4439761762
 20
-3.7309844727
 10
-7.3988022808
 20
-3.7388669684
 10
-7.3534051668
 20
-3.7446518383
 10
-7.3077848343
 20
-3.7483390822
 10
-7.2619412833
 20
-3.7499287003
  0
LWPOLYLINE
  5
369
100
AcDbEntity
  8
ASSI
100
AcDbPolyline
 62
7
  6
CONTINUOUS
 90
6
 70
0
 10
-6.415827129
 20
-4.0342900415
 10
-6.3760775756
 20
-4.0733023047
 10
-6.3438832416
 20
-4.1061167584
 10
-6.3201855642
 20
-4.1315382362
 10
-6.3040431063
 20
-4.1481138091
 10
-6.2954558678
 20
-4.1545441322
  0
LWPOLYLINE
  5
36A
100
AcDbEntity
  8
ASSI
100
AcDbPolyline
 62
7
  6
CONTINUOUS
 90
7
 70
0
 10
-6.8046456161
 20
-3.6453543839
 10
-6.7399412263
 20
-3.7089918485
 10
-6.678162724
 20
-3.7709726511
 10
-6.6193101092
 20
-3.8306898908
 10
-6.5627817086
 20
-3.8873094824
 10
-6.5091791955
 20
-3.9403857795
 10
-6.415827129
 20
-4.0342900415
  0
LINE
  5
36B
100
AcDbEntity
  8
ASSI
100
AcDbLine
 62
7
  6
CONTINUOUS
 10
-6.25
 20
-5.25
 11
-6.2911305116
 21
-5.2088694884
  0
LINE
  5
36C
100
AcDbEntity
  8
RACCORDO
100
AcDbLine
 62
7
  6
CONTINUOUS
 10
-6.25
 20
-4.2
 11
-6.2954558678
 21
-4.1545441322
  0
LINE
  5
36D
100
AcDbEntity
  8
ASSI
100
AcDbLine
 62
7
  6
CONTINUOUS
 10
-7.2619412833
 20
-3.7499287003
 11
-7.0461952242
 21
-4.0149269294
  0
LINE
  5
36E
100
AcDbEntity
  8
ASSI
100
AcDbLine
 62
7
  6
CONTINUOUS
 10
-7.0461952242
 20
-4.0149269294
 11
-6.8864896251
 21
-4.2135041325
  0
LWPOLYLINE
  5
36F
100
AcDbEntity
  8
ASSI
100
AcDbPolyline
 62
7
  6
CONTINUOUS
 90
17
 70
0
 10
-6.8864896251
 20
-4.2135041325
 10
-6.7839240416
 20
-4.3432284703
 10
-6.7344528601
 20
-4.4066062065
 10
-6.6864737376
 20
-4.4689988618
 10
-6.6401676353
 20
-4.5298655806
 10
-6.5959477318
 20
-4.5890269711
 10
-6.5538495285
 20
-4.646662425
 10
-6.5136031444
 20
-4.7027692616
 10
-6.4756271266
 20
-4.7574464448
 10
-6.4402178414
 20
-4.8105950107
 10
-6.4072337173
 20
-4.861915387
 10
-6.3772452238
 20
-4.9117085315
 10
-6.35092141
 20
-4.9596734865
 10
-6.328683967
 20
-5.0046078068
 10
-6.3113621012
 20
-5.0461106773
 10
-6.2999745611
 20
-5.084582913
 10
-6.2954558678
 20
-5.120024514
  0
LWPOLYLINE
  5
370
100
AcDbEntity
  8
0
100
AcDbPolyline
 62
7
  6
CONTINUOUS
 90
37
 70
0
 10
1.7216138929
 20
-60.7848940784
 10
1.7022526206
 20
-60.664498926
 10
1.6744825924
 20
-60.5457610722
 10
1.6384409857
 20
-60.429267056
 10
1.5943058372
 20
-60.3155923325
 10
1.5422951645
 20
-60.2052984304
 10
1.482665888
 20
-60.0989301777
 10
1.4157125629
 20
-59.9970130109
 10
1.3417659234
 20
-59.9000503788
 10
1.2611912492
 20
-59.8085212564
 10
1.1743865611
 20
-59.7228777781
 10
1.0817806549
 20
-59.6435430046
 10
0.9838309833
 20
-59.5709088331
 10
0.881021396
 20
-59.5053340614
 10
0.7738597497
 20
-59.4471426153
 10
0.6628753995
 20
-59.3966219488
 10
0.5486165839
 20
-59.3540216236
 10
0.4316477165
 20
-59.319552077
 10
0.3125465983
 20
-59.293383582
 10
0.191901563
 20
-59.2756454061
 10
0.0703085711
 20
-59.2664251728
 10
-0.0516317339
 20
-59.2657684289
 10
-0.1733169932
 20
-59.2736784195
 10
-0.2941461072
 20
-59.2901160716
 10
-0.413522206
 20
-59.3150001877
 10
-0.5308555966
 20
-59.3482078463
 10
-0.6455666769
 20
-59.3895750093
 10
-0.7570887981
 20
-59.4388973326
 10
-0.8648710643
 20
-59.4959311751
 10
-0.9683810533
 20
-59.5603948024
 10
-1.0671074473
 20
-59.6319697786
 10
-1.160562558
 20
-59.7103025389
 10
-1.2482847365
 20
-59.7950061368
 10
-1.3298406529
 20
-59.8856621548
 10
-1.4048274374
 20
-59.9818227718
 10
-1.4728746704
 20
-60.0830129751
 10
-1.5336462119
 20
-60.1887329066
  0
LINE
  5
371
100
AcDbEntity
  8
0
100
AcDbLine
 62
7
  6
CONTINUOUS
 10
1.7324707698
 20
-60.9063518034
 11
1.7216138929
 21
-60.7848940784
  0
LINE
  5
372
100
AcDbEntity
  8
DRAFT
100
AcDbLine
 62
7
  6
CONTINUOUS
 10
-3.25
 20
67.5
 11
-3.25
 21
65.2
  0
LINE
  5
373
100
AcDbEntity
  8
DRAFT
100
AcDbLine
 62
7
  6
CONTINUOUS
 10
-3.25
 20
-65.2
 11
-3.25
 21
-67.5
  0
LINE
  5
374
100
AcDbEntity
  8
DRAFT
100
AcDbLine
 62
7
  6
CONTINUOUS
 10
-1.6
 20
52.8379777618
 11
-1.6
 21
51.8
  0
LINE
  5
375
100
AcDbEntity
  8
DRAFT
100
AcDbLine
 62
7
  6
CONTINUOUS
 10
-1.6
 20
5.2
 11
-1.6
 21
4.1620222382
  0
LINE
  5
376
100
AcDbEntity
  8
DRAFT
100
AcDbLine
 62
7
  6
CONTINUOUS
 10
-1.6
 20
-4.1620222382
 11
-1.6
 21
-5.2
  0
LINE
  5
377
100
AcDbEntity
  8
DRAFT
100
AcDbLine
 62
7
  6
CONTINUOUS
 10
-1.6
 20
-51.8
 11
-1.6
 21
-52.8379777618
  0
LINE
  5
378
100
AcDbEntity
  8
0
100
AcDbLine
 62
7
  6
CONTINUOUS
 10
-0.75
 20
56.5
 11
-0.75
 21
55.65
  0
LINE
  5
379
100
AcDbEntity
  8
0
100
AcDbLine
 62
7
  6
CONTINUOUS
 10
-0.75
 20
-56.5
 11
-0.75
 21
-55.65
  0
LWPOLYLINE
  5
37A
100
AcDbEntity
  8
0
100
AcDbPolyline
 62
7
  6
CONTINUOUS
 90
10
 70
0
 10
-1.1661802907
 20
61.0
 10
-1.1660541149
 20
61.0632351444
 10
-1.1625007412
 20
61.1264107492
 10
-1.1555287465
 20
61.1893411756
 10
-1.1451598741
 20
61.2518255652
 10
-1.1314213278
 20
61.3136970523
 10
-1.1143369538
 20
61.3748215918
 10
-1.0939415266
 20
61.435033547
 10
-1.0702893705
 20
61.4941379343
 10
-1.0434405187
 20
61.5519584309
  0
LWPOLYLINE
  5
37B
100
AcDbEntity
  8
0
100
AcDbPolyline
 62
7
  6
CONTINUOUS
 90
10
 70
0
 10
-1.1661802907
 20
-61.0
 10
-1.1660541149
 20
-60.9367648556
 10
-1.1625007412
 20
-60.8735892508
 10
-1.1555287465
 20
-60.8106588244
 10
-1.1451598741
 20
-60.7481744348
 10
-1.1314213278
 20
-60.6863029477
 10
-1.1143369538
 20
-60.6251784082
 10
-1.0939415266
 20
-60.564966453
 10
-1.0702893705
 20
-60.5058620657
 10
-1.0434405187
 20
-60.4480415691
  0
LWPOLYLINE
  5
37C
100
AcDbEntity
  8
0
100
AcDbPolyline
 62
7
  6
CONTINUOUS
 90
43
 70
0
 10
1.0741430217
 20
61.0
 10
1.0733079007
 20
60.9192131133
 10
1.0663932401
 20
60.8385549168
 10
1.0534139322
 20
60.7584831729
 10
1.0343862851
 20
60.6793362314
 10
1.009409381
 20
60.6016892376
 10
0.9787532433
 20
60.5263256966
 10
0.9427837175
 20
60.4539034245
 10
0.9016542924
 20
60.3845268992
 10
0.8553393276
 20
60.3181465192
 10
0.8040519463
 20
60.2551585911
 10
0.7480315331
 20
60.1959397819
 10
0.6871547993
 20
60.1405203225
 10
0.6213505583
 20
60.0891199654
 10
0.5511478232
 20
60.04242245
 10
0.4773748003
 20
60.0011077615
 10
0.4004031526
 20
59.9654373252
 10
0.3207023433
 20
59.9356800905
 10
0.2394173646
 20
59.912221183
 10
0.157521914
 20
59.8951600852
 10
0.0750584334
 20
59.8843283009
 10
-0.0082031226
 20
59.8796538564
 10
-0.0918880595
 20
59.8812046674
 10
-0.1754447562
 20
59.8890174646
 10
-0.2588477315
 20
59.903178616
 10
-0.341982859
 20
59.923855931
 10
-0.4239506655
 20
59.9510179972
 10
-0.5035701014
 20
59.984337047
 10
-0.5803363822
 20
60.0235704676
 10
-0.6538683285
 20
60.0684907617
 10
-0.7233117023
 20
60.1184750421
 10
-0.7880662522
 20
60.1728532957
 10
-0.8481947537
 20
60.2314275107
 10
-0.9038675565
 20
60.2942525924
 10
-0.9548175173
 20
60.3610165694
 10
-1.0007519344
 20
60.4313241973
 10
-1.0416609985
 20
60.5052390284
 10
-1.0773628844
 20
60.5827078462
 10
-1.1074085644
 20
60.6630775625
 10
-1.1314271397
 20
60.7454953879
 10
-1.1492621727
 20
60.82935572
 10
-1.1608668186
 20
60.9143451436
 10
-1.1661802907
 20
61.0
  0
LWPOLYLINE
  5
37D
100
AcDbEntity
  8
ASSI
100
AcDbPolyline
 62
7
  6
CONTINUOUS
 90
16
 70
0
 10
-6.2954558678
 20
-51.879975486
 10
-6.2995791782
 20
-51.9123445746
 10
-6.3105531758
 20
-51.9506102652
 10
-6.3284032644
 20
-51.9947725578
 10
-6.3531915051
 20
-52.0451166035
 10
-6.3847969302
 20
-52.1013572513
 10
-6.4227133765
 20
-52.1626390482
 10
-6.4663897953
 20
-52.2288890994
 10
-6.5155954478
 20
-52.3001802998
 10
-6.5701340285
 20
-52.3758758812
 10
-6.629417588
 20
-52.4557016993
 10
-6.6932041578
 20
-52.5399318984
 10
-6.762007767
 20
-52.6287521436
 10
-6.8357598351
 20
-52.7225341237
 10
-6.9138315052
 20
-52.8209061498
 10
-6.9960064048
 20
-52.9229388206
  0
LWPOLYLINE
  5
37E
100
AcDbEntity
  8
ASSI
100
AcDbPolyline
 62
7
  6
CONTINUOUS
 90
16
 70
0
 10
6.2954558678
 20
51.879975486
 10
6.2999818627
 20
51.9154493445
 10
6.3113905375
 20
51.953968544
 10
6.328747893
 20
51.9955330844
 10
6.3510371413
 20
52.0405485863
 10
6.3774280101
 20
52.0886094292
 10
6.4074912365
 20
52.1384987513
 10
6.4405533586
 20
52.1899162719
 10
6.4760418629
 20
52.2431622717
 10
6.5140900044
 20
52.2979207311
 10
6.5543961104
 20
52.3540907001
 10
6.5965397274
 20
52.4117731287
 10
6.6407862081
 20
52.4709548468
 10
6.6870935883
 20
52.5318090298
 10
6.7350496575
 20
52.5941625023
 10
6.7844814843
 20
52.6574825687
  0
LWPOLYLINE
  5
37F
100
AcDbEntity
  8
ASSI
100
AcDbPolyline
 62
7
  6
CONTINUOUS
 90
7
 70
0
 10
7.2619412833
 20
-3.7499287003
 10
7.3078904745
 20
-3.7483231754
 10
7.3535741912
 20
-3.7446263873
 10
7.3989924332
 20
-3.7388383361
 10
7.4441452006
 20
-3.7309590217
 10
7.4890324934
 20
-3.7209884443
 10
7.5336543116
 20
-3.7089266038
  0
LINE
  5
380
100
AcDbEntity
  8
DRAFT
100
AcDbLine
 62
7
  6
CONTINUOUS
 10
-13.1466887427
 20
-4.0
 11
-12.5
 21
-4.0
  0
LINE
  5
381
100
AcDbEntity
  8
DRAFT
100
AcDbLine
 62
7
  6
CONTINUOUS
 10
13.1466887427
 20
-4.0
 11
12.5
 21
-4.0
  0
LINE
  5
382
100
AcDbEntity
  8
0
100
AcDbLine
 62
7
  6
CONTINUOUS
 10
8.5
 20
-4.0
 11
12.5
 21
-4.0
  0
LINE
  5
383
100
AcDbEntity
  8
0
100
AcDbLine
 62
7
  6
CONTINUOUS
 10
-8.5
 20
-4.0
 11
-12.5
 21
-4.0
  0
LINE
  5
384
100
AcDbEntity
  8
ASSI
100
AcDbLine
 62
250
  6
CONTINUOUS
 10
-8.5
 20
-3.7089266038
 11
-7.5336543116
 21
-3.7089266038
  0
LINE
  5
385
100
AcDbEntity
  8
ASSI
100
AcDbLine
 62
250
  6
CONTINUOUS
 10
7.5336543116
 20
-3.7089266038
 11
8.5
 21
-3.7089266038
  0
LINE
  5
386
100
AcDbEntity
  8
ASSI
100
AcDbLine
 62
250
  6
CONTINUOUS
 10
-6.3354983674
 20
-3.1545822091
 11
6.3354983674
 21
-3.1545822091
  0
LINE
  5
387
100
AcDbEntity
  8
RACCORDO
100
AcDbLine
 62
7
  6
CONTINUOUS
 10
-13.3138635149
 20
-2.35
 11
-8.5
 21
-2.35
  0
LINE
  5
388
100
AcDbEntity
  8
RACCORDO
100
AcDbLine
 62
7
  6
CONTINUOUS
 10
13.3138635149
 20
-2.35
 11
8.5
 21
-2.35
  0
LINE
  5
389
100
AcDbEntity
  8
ASSI
100
AcDbLine
 62
7
  6
CONTINUOUS
 10
6.333484861
 20
-2.35
 11
-6.333484861
 21
-2.35
  0
LINE
  5
38A
100
AcDbEntity
  8
RACCORDO
100
AcDbLine
 62
7
  6
CONTINUOUS
 10
-14.1798889187
 20
-1.85
 11
-8.5
 21
-1.85
  0
LINE
  5
38B
100
AcDbEntity
  8
RACCORDO
100
AcDbLine
 62
7
  6
CONTINUOUS
 10
8.5
 20
-1.85
 11
14.1798889187
 21
-1.85
  0
LINE
  5
38C
100
AcDbEntity
  8
RACCORDO
100
AcDbLine
 62
7
  6
CONTINUOUS
 10
14.519087013
 20
-1.5
 11
7.5
 21
-1.5
  0
LINE
  5
38D
100
AcDbEntity
  8
RACCORDO
100
AcDbLine
 62
7
  6
CONTINUOUS
 10
-7.5
 20
-1.5
 11
-14.519087013
 21
-1.5
  0
LINE
  5
38E
100
AcDbEntity
  8
DRAFT
100
AcDbLine
 62
7
  6
CONTINUOUS
 10
14.519087013
 20
-1.5
 11
14.5714522078
 21
-1.5
  0
LINE
  5
38F
100
AcDbEntity
  8
DRAFT
100
AcDbLine
 62
7
  6
CONTINUOUS
 10
-14.519087013
 20
-1.5
 11
-14.5714522078
 21
-1.5
  0
LINE
  5
390
100
AcDbEntity
  8
0
100
AcDbLine
 62
7
  6
CONTINUOUS
 10
-1.7341014634
 20
60.9441695607
 11
-1.7258968971
 21
60.8225040155
  0
LINE
  5
391
100
AcDbEntity
  8
0
100
AcDbLine
 62
7
  6
CONTINUOUS
 10
0.75
 20
-55.65
 11
0.75
 21
-56.5
  0
LINE
  5
392
100
AcDbEntity
  8
0
100
AcDbLine
 62
7
  6
CONTINUOUS
 10
0.75
 20
55.65
 11
0.75
 21
56.5
  0
LINE
  5
393
100
AcDbEntity
  8
DRAFT
100
AcDbLine
 62
7
  6
CONTINUOUS
 10
1.6
 20
52.8379777618
 11
1.6
 21
51.8
  0
LINE
  5
394
100
AcDbEntity
  8
DRAFT
100
AcDbLine
 62
7
  6
CONTINUOUS
 10
1.6
 20
5.2
 11
1.6
 21
4.1620222382
  0
LINE
  5
395
100
AcDbEntity
  8
DRAFT
100
AcDbLine
 62
7
  6
CONTINUOUS
 10
1.6
 20
-4.1620222382
 11
1.6
 21
-5.2
  0
LINE
  5
396
100
AcDbEntity
  8
DRAFT
100
AcDbLine
 62
7
  6
CONTINUOUS
 10
1.6
 20
-51.8
 11
1.6
 21
-52.8379777618
  0
LINE
  5
397
100
AcDbEntity
  8
DRAFT
100
AcDbLine
 62
7
  6
CONTINUOUS
 10
3.25
 20
67.5
 11
3.25
 21
65.2
  0
LINE
  5
398
100
AcDbEntity
  8
DRAFT
100
AcDbLine
 62
7
  6
CONTINUOUS
 10
3.25
 20
-65.2
 11
3.25
 21
-67.5
  0
LINE
  5
399
100
AcDbEntity
  8
DRAFT
100
AcDbLine
 62
7
  6
CONTINUOUS
 10
4.2
 20
52.8379777618
 11
4.2
 21
51.8
  0
LINE
  5
39A
100
AcDbEntity
  8
DRAFT
100
AcDbLine
 62
7
  6
CONTINUOUS
 10
4.2
 20
5.2
 11
4.2
 21
4.1620222382
  0
LINE
  5
39B
100
AcDbEntity
  8
DRAFT
100
AcDbLine
 62
7
  6
CONTINUOUS
 10
4.2
 20
-4.1620222382
 11
4.2
 21
-5.2
  0
LINE
  5
39C
100
AcDbEntity
  8
DRAFT
100
AcDbLine
 62
7
  6
CONTINUOUS
 10
4.2
 20
-51.8
 11
4.2
 21
-52.8379777618
  0
LINE
  5
39D
100
AcDbEntity
  8
DRAFT
100
AcDbLine
 62
7
  6
CONTINUOUS
 10
4.5
 20
65.2
 11
4.5
 21
64.6
  0
LINE
  5
39E
100
AcDbEntity
  8
DRAFT
100
AcDbLine
 62
7
  6
CONTINUOUS
 10
4.5
 20
-64.6
 11
4.5
 21
-65.2
  0
LINE
  5
39F
100
AcDbEntity
  8
0
100
AcDbLine
 62
7
  6
CONTINUOUS
 10
4.8
 20
2.35
 11
4.8
 21
-2.35
  0
LWPOLYLINE
  5
3A0
100
AcDbEntity
  8
0
100
AcDbPolyline
 62
7
  6
CONTINUOUS
 90
43
 70
0
 10
1.0741430217
 20
-61.0
 10
1.0733079007
 20
-61.0807868867
 10
1.0663932401
 20
-61.1614450832
 10
1.0534139322
 20
-61.2415168271
 10
1.0343862851
 20
-61.3206637686
 10
1.009409381
 20
-61.3983107624
 10
0.9787532433
 20
-61.4736743034
 10
0.9427837175
 20
-61.5460965755
 10
0.9016542924
 20
-61.6154731008
 10
0.8553393276
 20
-61.6818534808
 10
0.8040519463
 20
-61.7448414089
 10
0.7480315331
 20
-61.8040602181
 10
0.6871547993
 20
-61.8594796775
 10
0.6213505583
 20
-61.9108800346
 10
0.5511478232
 20
-61.95757755
 10
0.4773748003
 20
-61.9988922385
 10
0.4004031526
 20
-62.0345626748
 10
0.3207023433
 20
-62.0643199095
 10
0.2394173646
 20
-62.087778817
 10
0.157521914
 20
-62.1048399148
 10
0.0750584334
 20
-62.1156716991
 10
-0.0082031226
 20
-62.1203461436
 10
-0.0918880595
 20
-62.1187953326
 10
-0.1754447562
 20
-62.1109825354
 10
-0.2588477315
 20
-62.096821384
 10
-0.341982859
 20
-62.076144069
 10
-0.4239506655
 20
-62.0489820028
 10
-0.5035701014
 20
-62.015662953
 10
-0.5803363822
 20
-61.9764295324
 10
-0.6538683285
 20
-61.9315092383
 10
-0.7233117023
 20
-61.8815249579
 10
-0.7880662522
 20
-61.8271467043
 10
-0.8481947537
 20
-61.7685724893
 10
-0.9038675565
 20
-61.7057474076
 10
-0.9548175173
 20
-61.6389834306
 10
-1.0007519344
 20
-61.5686758027
 10
-1.0416609985
 20
-61.4947609716
 10
-1.0773628844
 20
-61.4172921538
 10
-1.1074085644
 20
-61.3369224375
 10
-1.1314271397
 20
-61.2545046121
 10
-1.1492621727
 20
-61.17064428
 10
-1.1608668186
 20
-61.0856548564
 10
-1.1661802907
 20
-61.0
  0
LWPOLYLINE
  5
3A1
100
AcDbEntity
  8
ASSI
100
AcDbPolyline
 62
7
  6
CONTINUOUS
 90
7
 70
0
 10
-7.2619412833
 20
3.7499287003
 10
-7.3077907138
 20
3.7483381975
 10
-7.353414574
 20
3.7446504226
 10
-7.3988128639
 20
3.7388653758
 10
-7.4439855835
 20
3.7309830571
 10
-7.4889327327
 20
3.7210034664
 10
-7.5336543116
 20
3.7089266038
  0
LINE
  5
3A2
100
AcDbEntity
  8
RACCORDO
100
AcDbLine
 62
7
  6
CONTINUOUS
 10
-14.519087013
 20
1.5
 11
-7.5
 21
1.5
  0
LINE
  5
3A3
100
AcDbEntity
  8
RACCORDO
100
AcDbLine
 62
7
  6
CONTINUOUS
 10
7.5
 20
1.5
 11
14.519087013
 21
1.5
  0
LINE
  5
3A4
100
AcDbEntity
  8
DRAFT
100
AcDbLine
 62
7
  6
CONTINUOUS
 10
14.519087013
 20
1.5
 11
14.5714522078
 21
1.5
  0
LINE
  5
3A5
100
AcDbEntity
  8
DRAFT
100
AcDbLine
 62
7
  6
CONTINUOUS
 10
-14.519087013
 20
1.5
 11
-14.5714522078
 21
1.5
  0
LINE
  5
3A6
100
AcDbEntity
  8
RACCORDO
100
AcDbLine
 62
7
  6
CONTINUOUS
 10
14.1798889187
 20
1.85
 11
8.5
 21
1.85
  0
LINE
  5
3A7
100
AcDbEntity
  8
RACCORDO
100
AcDbLine
 62
7
  6
CONTINUOUS
 10
-8.5
 20
1.85
 11
-14.1798889187
 21
1.85
  0
LINE
  5
3A8
100
AcDbEntity
  8
RACCORDO
100
AcDbLine
 62
7
  6
CONTINUOUS
 10
-13.3138635149
 20
2.35
 11
-8.5
 21
2.35
  0
LINE
  5
3A9
100
AcDbEntity
  8
RACCORDO
100
AcDbLine
 62
7
  6
CONTINUOUS
 10
13.3138635149
 20
2.35
 11
8.5
 21
2.35
  0
LINE
  5
3AA
100
AcDbEntity
  8
ASSI
100
AcDbLine
 62
7
  6
CONTINUOUS
 10
-6.333484861
 20
2.35
 11
6.333484861
 21
2.35
  0
LINE
  5
3AB
100
AcDbEntity
  8
ASSI
100
AcDbLine
 62
250
  6
CONTINUOUS
 10
6.3354983674
 20
3.1545822091
 11
-6.3354983674
 21
3.1545822091
  0
LINE
  5
3AC
100
AcDbEntity
  8
ASSI
100
AcDbLine
 62
250
  6
CONTINUOUS
 10
-8.5
 20
3.7089266038
 11
-7.5336543116
 21
3.7089266038
  0
LINE
  5
3AD
100
AcDbEntity
  8
ASSI
100
AcDbLine
 62
250
  6
CONTINUOUS
 10
7.5336543116
 20
3.7089266038
 11
8.5
 21
3.7089266038
  0
LINE
  5
3AE
100
AcDbEntity
  8
DRAFT
100
AcDbLine
 62
7
  6
CONTINUOUS
 10
-13.1466887427
 20
4.0
 11
-12.5
 21
4.0
  0
LINE
  5
3AF
100
AcDbEntity
  8
DRAFT
100
AcDbLine
 62
7
  6
CONTINUOUS
 10
13.1466887427
 20
4.0
 11
12.5
 21
4.0
  0
LINE
  5
3B0
100
AcDbEntity
  8
0
100
AcDbLine
 62
7
  6
CONTINUOUS
 10
8.5
 20
4.0
 11
12.5
 21
4.0
  0
LINE
  5
3B1
100
AcDbEntity
  8
0
100
AcDbLine
 62
7
  6
CONTINUOUS
 10
-8.5
 20
4.0
 11
-12.5
 21
4.0
  0
LINE
  5
3B2
100
AcDbEntity
  8
RACCORDO
100
AcDbLine
 62
7
  6
CONTINUOUS
 10
6.2954558678
 20
4.1545441322
 11
-6.2954558678
 21
4.1545441322
  0
LINE
  5
3B3
100
AcDbEntity
  8
DRAFT
100
AcDbLine
 62
7
  6
CONTINUOUS
 10
6.25
 20
4.2
 11
4.2
 21
4.2
  0
LINE
  5
3B4
100
AcDbEntity
  8
DRAFT
100
AcDbLine
 62
7
  6
CONTINUOUS
 10
1.6
 20
4.2
 11
-1.6
 21
4.2
  0
LINE
  5
3B5
100
AcDbEntity
  8
DRAFT
100
AcDbLine
 62
7
  6
CONTINUOUS
 10
-4.2
 20
4.2
 11
-6.25
 21
4.2
  0
LINE
  5
3B6
100
AcDbEntity
  8
0
100
AcDbLine
 62
7
  6
CONTINUOUS
 10
-4.2
 20
5.2
 11
-1.6
 21
5.2
  0
LINE
  5
3B7
100
AcDbEntity
  8
0
100
AcDbLine
 62
7
  6
CONTINUOUS
 10
1.6
 20
5.2
 11
4.2
 21
5.2
  0
LINE
  5
3B8
100
AcDbEntity
  8
ASSI
100
AcDbLine
 62
7
  6
CONTINUOUS
 10
-8.5
 20
5.2088694884
 11
-6.2911305116
 21
5.2088694884
  0
LINE
  5
3B9
100
AcDbEntity
  8
ASSI
100
AcDbLine
 62
7
  6
CONTINUOUS
 10
6.2911305116
 20
5.2088694884
 11
8.5
 21
5.2088694884
  0
LINE
  5
3BA
100
AcDbEntity
  8
DRAFT
100
AcDbLine
 62
7
  6
CONTINUOUS
 10
8.5
 20
5.2377823851
 11
8.1
 21
5.2377823851
  0
LINE
  5
3BB
100
AcDbEntity
  8
DRAFT
100
AcDbLine
 62
7
  6
CONTINUOUS
 10
-8.1
 20
5.2377823851
 11
-8.5
 21
5.2377823851
  0
LINE
  5
3BC
100
AcDbEntity
  8
DRAFT
100
AcDbLine
 62
7
  6
CONTINUOUS
 10
8.1
 20
5.25
 11
6.25
 21
5.25
  0
LINE
  5
3BD
100
AcDbEntity
  8
DRAFT
100
AcDbLine
 62
7
  6
CONTINUOUS
 10
-6.25
 20
5.25
 11
-8.1
 21
5.25
  0
LINE
  5
3BE
100
AcDbEntity
  8
0
100
AcDbLine
 62
7
  6
CONTINUOUS
 10
1.7324707698
 20
61.0936481966
 11
1.7216138929
 21
61.2151059216
  0
LWPOLYLINE
  5
3BF
100
AcDbEntity
  8
0
100
AcDbPolyline
 62
7
  6
CONTINUOUS
 90
13
 70
0
 10
7.9699525733
 20
57.716725227
 10
7.9688670255
 20
57.7560935577
 10
7.9633370724
 20
57.7924461417
 10
7.9533627142
 20
57.8257829789
 10
7.9388819192
 20
57.8563903359
 10
7.9199567189
 20
57.8839819461
 10
7.896773208
 20
57.9076990099
 10
7.8688703199
 20
57.9272099024
 10
7.8367091212
 20
57.9428462485
 10
7.8018589056
 20
57.9547441238
 10
7.7648427711
 20
57.9629488867
 10
7.7251376198
 20
57.9674151788
 10
7.6827434517
 20
57.968143
  0
LINE
  5
3C0
100
AcDbEntity
  8
0
100
AcDbLine
 62
7
  6
CONTINUOUS
 10
6.0
 20
2.35
 11
6.0
 21
-2.35
  0
LINE
  5
3C1
100
AcDbEntity
  8
DRAFT
100
AcDbLine
 62
7
  6
CONTINUOUS
 10
6.25
 20
52.8
 11
6.25
 21
51.75
  0
LINE
  5
3C2
100
AcDbEntity
  8
DRAFT
100
AcDbLine
 62
7
  6
CONTINUOUS
 10
6.25
 20
5.25
 11
6.25
 21
4.2
  0
LINE
  5
3C3
100
AcDbEntity
  8
DRAFT
100
AcDbLine
 62
7
  6
CONTINUOUS
 10
6.25
 20
-4.2
 11
6.25
 21
-5.25
  0
LINE
  5
3C4
100
AcDbEntity
  8
DRAFT
100
AcDbLine
 62
7
  6
CONTINUOUS
 10
6.25
 20
-51.75
 11
6.25
 21
-52.8
  0
LINE
  5
3C5
100
AcDbEntity
  8
ASSI
100
AcDbLine
 62
7
  6
CONTINUOUS
 10
6.2954558678
 20
52.8454558678
 11
6.2954558678
 21
51.879975486
  0
LINE
  5
3C6
100
AcDbEntity
  8
ASSI
100
AcDbLine
 62
7
  6
CONTINUOUS
 10
6.2954558678
 20
5.120024514
 11
6.2954558678
 21
4.1545441322
  0
LINE
  5
3C7
100
AcDbEntity
  8
ASSI
100
AcDbLine
 62
7
  6
CONTINUOUS
 10
6.2954558678
 20
-4.1545441322
 11
6.2954558678
 21
-5.120024514
  0
LINE
  5
3C8
100
AcDbEntity
  8
ASSI
100
AcDbLine
 62
7
  6
CONTINUOUS
 10
6.2954558678
 20
-51.879975486
 11
6.2954558678
 21
-52.8454558678
  0
LINE
  5
3C9
100
AcDbEntity
  8
0
100
AcDbLine
 62
7
  6
CONTINUOUS
 10
7.089009
 20
58.135754
 11
7.089009
 21
56.685754
  0
LINE
  5
3CA
100
AcDbEntity
  8
0
100
AcDbLine
 62
7
  6
CONTINUOUS
 10
7.284899
 20
56.685754
 11
7.284899
 21
57.297696
  0
LINE
  5
3CB
100
AcDbEntity
  8
0
100
AcDbLine
 62
7
  6
CONTINUOUS
 10
7.284899
 20
57.465308
 11
7.284899
 21
57.968143
  0
LINE
  5
3CC
100
AcDbEntity
  8
0
100
AcDbLine
 62
7
  6
CONTINUOUS
 10
7.930043
 20
60.314246
 11
7.930043
 21
58.864246
  0
LINE
  5
3CD
100
AcDbEntity
  8
DRAFT
100
AcDbLine
 62
7
  6
CONTINUOUS
 10
8.1
 20
51.7622176149
 11
8.1
 21
51.0
  0
LINE
  5
3CE
100
AcDbEntity
  8
DRAFT
100
AcDbLine
 62
7
  6
CONTINUOUS
 10
8.1
 20
6.0
 11
8.1
 21
5.2377823851
  0
LINE
  5
3CF
100
AcDbEntity
  8
DRAFT
100
AcDbLine
 62
7
  6
CONTINUOUS
 10
8.1
 20
-5.2377823851
 11
8.1
 21
-6.0
  0
LINE
  5
3D0
100
AcDbEntity
  8
DRAFT
100
AcDbLine
 62
7
  6
CONTINUOUS
 10
8.1
 20
-51.0
 11
8.1
 21
-51.7622176149
  0
LINE
  5
3D1
100
AcDbEntity
  8
0
100
AcDbLine
 62
7
  6
CONTINUOUS
 10
8.125934
 20
58.864246
 11
8.125934
 21
59.476188
  0
LINE
  5
3D2
100
AcDbEntity
  8
0
100
AcDbLine
 62
7
  6
CONTINUOUS
 10
8.125934
 20
59.6438
 11
8.125934
 21
60.146634
  0
LINE
  5
3D3
100
AcDbEntity
  8
0
100
AcDbLine
 62
7
  6
CONTINUOUS
 10
8.435969
 20
58.135754
 11
8.435969
 21
56.685754
  0
LINE
  5
3D4
100
AcDbEntity
  8
ASSI
100
AcDbLine
 62
7
  6
CONTINUOUS
 10
8.5
 20
-5.2377823851
 11
8.5
 21
-1.85
  0
LINE
  5
3D5
100
AcDbEntity
  8
ASSI
100
AcDbLine
 62
7
  6
CONTINUOUS
 10
8.5
 20
1.85
 11
8.5
 21
5.2377823851
  0
LINE
  5
3D6
100
AcDbEntity
  8
ASSI
100
AcDbLine
 62
7
  6
CONTINUOUS
 10
8.5
 20
-51.7622176149
 11
8.5
 21
-55.15
  0
LINE
  5
3D7
100
AcDbEntity
  8
DRAFT
100
AcDbLine
 62
7
  6
CONTINUOUS
 10
8.5
 20
-55.4214522078
 11
8.5
 21
-55.5
  0
LINE
  5
3D8
100
AcDbEntity
  8
ASSI
100
AcDbLine
 62
7
  6
CONTINUOUS
 10
8.5
 20
51.7622176149
 11
8.5
 21
55.15
  0
LINE
  5
3D9
100
AcDbEntity
  8
DRAFT
100
AcDbLine
 62
7
  6
CONTINUOUS
 10
8.5
 20
55.4214522078
 11
8.5
 21
55.5
  0
LINE
  5
3DA
100
AcDbEntity
  8
ASSI
100
AcDbLine
 62
7
  6
CONTINUOUS
 10
8.6
 20
-65.4
 11
8.6
 21
-64.6
  0
LINE
  5
3DB
100
AcDbEntity
  8
ASSI
100
AcDbLine
 62
7
  6
CONTINUOUS
 10
8.6
 20
64.6
 11
8.6
 21
65.4
  0
LINE
  5
3DC
100
AcDbEntity
  8
0
100
AcDbLine
 62
7
  6
CONTINUOUS
 10
8.631859
 20
56.859433
 11
8.631859
 21
57.344179
  0
LINE
  5
3DD
100
AcDbEntity
  8
0
100
AcDbLine
 62
7
  6
CONTINUOUS
 10
8.631859
 20
57.517744
 11
8.631859
 21
57.962075
  0
LINE
  5
3DE
100
AcDbEntity
  8
0
100
AcDbLine
 62
7
  6
CONTINUOUS
 10
9.425495
 20
57.344179
 11
9.425495
 21
57.517744
  0
LINE
  5
3DF
100
AcDbEntity
  8
0
100
AcDbLine
 62
7
  6
CONTINUOUS
 10
9.492128
 20
57.962075
 11
9.492128
 21
58.135754
  0
LINE
  5
3E0
100
AcDbEntity
  8
0
100
AcDbLine
 62
7
  6
CONTINUOUS
 10
9.506325
 20
56.685754
 11
9.506325
 21
56.859433
  0
LINE
  5
3E1
100
AcDbEntity
  8
0
100
AcDbLine
 62
7
  6
CONTINUOUS
 10
9.762779
 20
58.135754
 11
9.762779
 21
56.685754
  0
LWPOLYLINE
  5
3E2
100
AcDbEntity
  8
0
100
AcDbPolyline
 62
7
  6
CONTINUOUS
 90
13
 70
0
 10
8.8111014086
 20
59.8952171338
 10
8.8101362723
 20
59.8551504655
 10
8.8045022528
 20
59.8182717268
 10
8.7941993502
 20
59.7845809179
 10
8.7789897963
 20
59.7537850838
 10
8.7591113593
 20
59.7261771794
 10
8.7352773431
 20
59.7026360691
 10
8.7072384509
 20
59.6836306264
 10
8.6752439796
 20
59.6686919777
 10
8.6407551239
 20
59.6572923664
 10
8.6042589488
 20
59.6492558736
 10
8.5652683894
 20
59.6447584181
 10
8.5237834456
 20
59.6438
  0
LWPOLYLINE
  5
3E3
100
AcDbEntity
  8
0
100
AcDbPolyline
 62
7
  6
CONTINUOUS
 90
13
 70
0
 10
9.0120104686
 20
59.8952171338
 10
9.0103442089
 20
59.8363752328
 10
9.0015308071
 20
59.78066058
 10
8.9855702631
 20
59.7280731754
 10
8.9618464867
 20
59.6776358372
 10
8.9309755681
 20
59.6303257473
 10
8.8948057785
 20
59.5890744515
 10
8.8535016857
 20
59.5548027041
 10
8.8068987219
 20
59.5265897508
 10
8.756351454
 20
59.5046048754
 10
8.7023114042
 20
59.4889045057
 10
8.6443270502
 20
59.4794322139
 10
8.5823983921
 20
59.476188
  0
LWPOLYLINE
  5
3E4
100
AcDbEntity
  8
ASSI
100
AcDbPolyline
 62
7
  6
CONTINUOUS
 90
16
 70
0
 10
6.2954558678
 20
-5.120024514
 10
6.2999818627
 20
-5.0845506555
 10
6.3113905375
 20
-5.046031456
 10
6.328747893
 20
-5.0044669156
 10
6.3510371413
 20
-4.9594514137
 10
6.3774280101
 20
-4.9113905708
 10
6.4074912365
 20
-4.8615012487
 10
6.4405533586
 20
-4.8100837281
 10
6.4760418629
 20
-4.7568377283
 10
6.5140900044
 20
-4.7020792689
 10
6.5543961104
 20
-4.6459092999
 10
6.5965397274
 20
-4.5882268713
 10
6.6407862081
 20
-4.5290451532
 10
6.6870935883
 20
-4.4681909702
 10
6.7350496575
 20
-4.4058374977
 10
6.7844814843
 20
-4.3425174313
  0
LINE
  5
3E5
100
AcDbEntity
  8
ASSI
100
AcDbLine
 62
7
  6
CONTINUOUS
 10
6.7844814843
 20
-4.3425174313
 11
6.886916337
 21
-4.2129698453
  0
LINE
  5
3E6
100
AcDbEntity
  8
ASSI
100
AcDbLine
 62
7
  6
CONTINUOUS
 10
6.886916337
 20
-4.2129698453
 11
7.0463842757
 21
-4.0146939205
  0
LINE
  5
3E7
100
AcDbEntity
  8
ASSI
100
AcDbLine
 62
7
  6
CONTINUOUS
 10
7.0463842757
 20
-4.0146939205
 11
7.2619412833
 21
-3.7499287003
  0
LWPOLYLINE
  5
3E8
100
AcDbEntity
  8
ASSI
100
AcDbPolyline
 62
7
  6
CONTINUOUS
 90
7
 70
0
 10
6.5091791955
 20
-3.9403857795
 10
6.415827129
 20
-4.0342900415
 10
6.3760775756
 20
-4.0733023047
 10
6.3438832416
 20
-4.1061167584
 10
6.3201855642
 20
-4.1315382362
 10
6.3040431063
 20
-4.1481138091
 10
6.2954558678
 20
-4.1545441322
  0
LINE
  5
3E9
100
AcDbEntity
  8
RACCORDO
100
AcDbLine
 62
7
  6
CONTINUOUS
 10
6.25
 20
-4.2
 11
6.2954558678
 21
-4.1545441322
  0
LINE
  5
3EA
100
AcDbEntity
  8
ASSI
100
AcDbLine
 62
7
  6
CONTINUOUS
 10
6.25
 20
-5.25
 11
6.2911305116
 21
-5.2088694884
  0
LWPOLYLINE
  5
3EB
100
AcDbEntity
  8
ASSI
100
AcDbPolyline
 62
7
  6
CONTINUOUS
 90
6
 70
0
 10
6.8046456161
 20
-3.6453543839
 10
6.7399412263
 20
-3.7089918485
 10
6.678162724
 20
-3.7709726511
 10
6.6193101092
 20
-3.8306898908
 10
6.5627817086
 20
-3.8873094824
 10
6.5091791955
 20
-3.9403857795
  0
LINE
  5
3EC
100
AcDbEntity
  8
0
100
AcDbLine
 62
7
  6
CONTINUOUS
 10
-12.5
 20
5.4
 11
-10.35
 21
5.4
  0
LINE
  5
3ED
100
AcDbEntity
  8
0
100
AcDbLine
 62
7
  6
CONTINUOUS
 10
12.5
 20
5.4
 11
10.35
 21
5.4
  0
LINE
  5
3EE
100
AcDbEntity
  8
DRAFT
100
AcDbLine
 62
7
  6
CONTINUOUS
 10
15.45
 20
5.5
 11
14.65
 21
5.5
  0
LINE
  5
3EF
100
AcDbEntity
  8
DRAFT
100
AcDbLine
 62
7
  6
CONTINUOUS
 10
-14.65
 20
5.5
 11
-15.45
 21
5.5
  0
LINE
  5
3F0
100
AcDbEntity
  8
DRAFT
100
AcDbLine
 62
7
  6
CONTINUOUS
 10
13.1466887427
 20
6.0
 11
12.5
 21
6.0
  0
LINE
  5
3F1
100
AcDbEntity
  8
0
100
AcDbLine
 62
7
  6
CONTINUOUS
 10
-8.1
 20
6.0
 11
-12.5
 21
6.0
  0
LINE
  5
3F2
100
AcDbEntity
  8
0
100
AcDbLine
 62
7
  6
CONTINUOUS
 10
8.1
 20
6.0
 11
12.5
 21
6.0
  0
LINE
  5
3F3
100
AcDbEntity
  8
DRAFT
100
AcDbLine
 62
7
  6
CONTINUOUS
 10
-12.5
 20
6.0
 11
-13.1466887427
 21
6.0
  0
LINE
  5
3F4
100
AcDbEntity
  8
DRAFT
100
AcDbLine
 62
7
  6
CONTINUOUS
 10
-13.1
 20
6.1
 11
-12.75
 21
6.1
  0
LINE
  5
3F5
100
AcDbEntity
  8
DRAFT
100
AcDbLine
 62
7
  6
CONTINUOUS
 10
12.75
 20
6.1
 11
13.1
 21
6.1
  0
LINE
  5
3F6
100
AcDbEntity
  8
DRAFT
100
AcDbLine
 62
7
  6
CONTINUOUS
 10
-15.45
 20
7.0
 11
-14.65
 21
7.0
  0
LINE
  5
3F7
100
AcDbEntity
  8
DRAFT
100
AcDbLine
 62
7
  6
CONTINUOUS
 10
14.65
 20
7.0
 11
15.45
 21
7.0
  0
LWPOLYLINE
  5
3F8
100
AcDbEntity
  8
ASSI
100
AcDbPolyline
 62
7
  6
CONTINUOUS
 90
7
 70
0
 10
7.5336543116
 20
3.7089266038
 10
7.4887977053
 20
3.7210237695
 10
7.4437695396
 20
3.7310155421
 10
7.3985698146
 20
3.7389019214
 10
7.3531985302
 20
3.7446829076
 10
7.3076556864
 20
3.7483585006
 10
7.2619412833
 20
3.7499287003
  0
LWPOLYLINE
  5
3F9
100
AcDbEntity
  8
ASSI
100
AcDbPolyline
 62
7
  6
CONTINUOUS
 90
7
 70
0
 10
6.5096142205
 20
3.9408208045
 10
6.4157099585
 20
4.034172871
 10
6.3766976953
 20
4.0739224244
 10
6.3438832416
 20
4.1061167584
 10
6.3184617638
 20
4.1298144358
 10
6.3018861909
 20
4.1459568937
 10
6.2954558678
 20
4.1545441322
  0
LINE
  5
3FA
100
AcDbEntity
  8
RACCORDO
100
AcDbLine
 62
7
  6
CONTINUOUS
 10
6.25
 20
4.2
 11
6.2954558678
 21
4.1545441322
  0
LINE
  5
3FB
100
AcDbEntity
  8
ASSI
100
AcDbLine
 62
7
  6
CONTINUOUS
 10
6.25
 20
5.25
 11
6.2911305116
 21
5.2088694884
  0
LWPOLYLINE
  5
3FC
100
AcDbEntity
  8
ASSI
100
AcDbPolyline
 62
7
  6
CONTINUOUS
 90
6
 70
0
 10
6.8046456161
 20
3.6453543839
 10
6.7410081515
 20
3.7100587737
 10
6.6790273489
 20
3.771837276
 10
6.6193101092
 20
3.8306898908
 10
6.5626905176
 20
3.8872182914
 10
6.5096142205
 20
3.9408208045
  0
LINE
  5
3FD
100
AcDbEntity
  8
ASSI
100
AcDbLine
 62
7
  6
CONTINUOUS
 10
7.2619412833
 20
3.7499287003
 11
6.9960064048
 21
4.0770611794
  0
LWPOLYLINE
  5
3FE
100
AcDbEntity
  8
ASSI
100
AcDbPolyline
 62
7
  6
CONTINUOUS
 90
16
 70
0
 10
6.9960064048
 20
4.0770611794
 10
6.9138315052
 20
4.1790938502
 10
6.8357598351
 20
4.2774658763
 10
6.762007767
 20
4.3712478564
 10
6.6932041578
 20
4.4600681016
 10
6.629417588
 20
4.5442983007
 10
6.5701340285
 20
4.6241241188
 10
6.5155954478
 20
4.6998197002
 10
6.4663897953
 20
4.7711109006
 10
6.4227133765
 20
4.8373609518
 10
6.3847969302
 20
4.8986427487
 10
6.3531915051
 20
4.9548833965
 10
6.3284032644
 20
5.0052274422
 10
6.3105531758
 20
5.0493897348
 10
6.2995791782
 20
5.0876554254
 10
6.2954558678
 20
5.120024514
  0
LINE
  5
3FF
100
AcDbEntity
  8
0
100
AcDbLine
 62
7
  6
CONTINUOUS
 10
-9.918196
 20
56.41214
 11
-9.77476
 21
55.989925
  0
LINE
  5
400
100
AcDbEntity
  8
0
100
AcDbLine
 62
7
  6
CONTINUOUS
 10
-10.29385
 20
60.582685
 11
-10.150414
 21
60.16047
  0
LINE
  5
401
100
AcDbEntity
  8
0
100
AcDbLine
 62
7
  6
CONTINUOUS
 10
-12.095589
 20
60.378388
 11
-12.511651
 21
61.610075
  0
LINE
  5
402
100
AcDbEntity
  8
0
100
AcDbLine
 62
7
  6
CONTINUOUS
 10
-12.602545
 20
61.375511
 11
-12.194521
 21
60.16047
  0
LINE
  5
403
100
AcDbEntity
  8
0
100
AcDbLine
 62
7
  6
CONTINUOUS
 10
-10.204986
 20
57.229429
 11
-9.988917
 21
56.585717
  0
LINE
  5
404
100
AcDbEntity
  8
0
100
AcDbLine
 62
7
  6
CONTINUOUS
 10
-10.580641
 20
61.399976
 11
-10.364571
 21
60.756263
  0
LWPOLYLINE
  5
405
100
AcDbEntity
  8
0
100
AcDbPolyline
 62
7
  6
CONTINUOUS
 90
45
 70
0
 10
-1.7258968971
 20
60.8225040155
 10
-1.709166796
 20
60.7017152575
 10
-1.6839938026
 20
60.5823999554
 10
-1.6505022653
 20
60.4651474996
 10
-1.608857624
 20
60.3505370903
 10
-1.5592655933
 20
60.239134877
 10
-1.501971146
 20
60.1314911613
 10
-1.4372573031
 20
60.0281376788
 10
-1.3654437358
 20
59.9295849723
 10
-1.2868851862
 20
59.8363198699
 10
-1.2019697154
 20
59.7488030805
 10
-1.1111167859
 20
59.6674669172
 10
-1.0147751903
 20
59.5927131627
 10
-0.9134208336
 20
59.5249110839
 10
-0.8075543832
 20
59.4643956081
 10
-0.697698795
 20
59.4114656685
 10
-0.5843967304
 20
59.3663827275
 10
-0.4682078757
 20
59.3293694851
 10
-0.3497061773
 20
59.300608779
 10
-0.2294770068
 20
59.2802426809
 10
-0.1081142689
 20
59.2683717955
 10
0.0137825318
 20
59.2650547627
 10
0.1356112527
 20
59.2703079687
 10
0.2567700874
 20
59.2841054642
 10
0.3766605384
 20
59.3063790934
 10
0.4946903738
 20
59.3370188302
 10
0.6102765525
 20
59.3758733216
 10
0.7228481045
 20
59.4227506359
 10
0.8318489514
 20
59.4774192102
 10
0.9367406531
 20
59.5396089945
 10
1.0370050678
 20
59.6090127857
 10
1.1321469113
 20
59.6852877452
 10
1.2216962037
 20
59.7680570921
 10
1.3052105911
 20
59.8569119649
 10
1.3822775305
 20
59.9514134406
 10
1.4525163279
 20
60.0510947034
 10
1.5155800188
 20
60.1554633505
 10
1.5711570818
 20
60.2640038242
 10
1.6189729781
 20
60.3761799589
 10
1.658791507
 20
60.4914376297
 10
1.6904159733
 20
60.6092074893
 10
1.7136901584
 20
60.728907781
 10
1.7284990922
 20
60.8499472117
 10
1.7347696213
 20
60.9717278734
 10
1.7324707698
 20
61.0936481966
  0
LWPOLYLINE
  5
406
100
AcDbEntity
  8
0
100
AcDbPolyline
 62
7
  6
CONTINUOUS
 90
13
 70
0
 10
8.1708658678
 20
57.716725227
 10
8.167955365
 20
57.7763334901
 10
8.1589852491
 20
57.8318856944
 10
8.14395552
 20
57.8833818401
 10
8.1228868393
 20
57.930964667
 10
8.0957585455
 20
57.9744914353
 10
8.0625086544
 20
58.0135339248
 10
8.0228602099
 20
58.0485793426
 10
7.977090168
 20
58.0791404816
 10
7.9259674123
 20
58.103327501
 10
7.8697482373
 20
58.1205104537
 10
7.8081763485
 20
58.1313192867
 10
7.7412517458
 20
58.135754
  0
LWPOLYLINE
  5
407
100
AcDbEntity
  8
0
100
AcDbPolyline
 62
7
  6
CONTINUOUS
 90
19
 70
0
 10
12.4275816818
 20
57.4107540466
 10
12.4256952463
 20
57.4921028866
 10
12.4183577872
 20
57.5694742939
 10
12.4055693043
 20
57.6428682683
 10
12.3871015743
 20
57.7128368513
 10
12.3631828205
 20
57.7788280016
 10
12.3344977136
 20
57.8391855948
 10
12.3004381308
 20
57.8933857402
 10
12.2616121947
 20
57.9419523285
 10
12.2205289449
 20
57.9848009077
 10
12.1774417021
 20
58.021875913
 10
12.1320971455
 20
58.0532329092
 10
12.0862443519
 20
58.0789541386
 10
12.0399303294
 20
58.0983018632
 10
11.9931080698
 20
58.112013821
 10
11.9473856261
 20
58.1223854679
 10
11.9032990157
 20
58.1301819561
 10
11.860312221
 20
58.1346381335
 10
11.8184252421
 20
58.135754
  0
LINE
  5
408
100
AcDbEntity
  8
RACCORDO
100
AcDbLine
 62
7
  6
CONTINUOUS
 10
14.6769801183
 20
-55.0270562707
 11
14.6726915844
 21
-53.6336793649
  0
LINE
  5
409
100
AcDbEntity
  8
0
100
AcDbLine
 62
7
  6
CONTINUOUS
 10
9.952602
 20
56.685754
 11
9.952602
 21
57.863456
  0
LINE
  5
40A
100
AcDbEntity
  8
0
100
AcDbLine
 62
7
  6
CONTINUOUS
 10
10.35
 20
53.0
 11
10.35
 21
51.0
  0
LINE
  5
40B
100
AcDbEntity
  8
0
100
AcDbLine
 62
7
  6
CONTINUOUS
 10
10.35
 20
-53.0
 11
10.35
 21
-51.0
  0
LINE
  5
40C
100
AcDbEntity
  8
0
100
AcDbLine
 62
7
  6
CONTINUOUS
 10
10.35
 20
6.0
 11
10.35
 21
4.0
  0
LINE
  5
40D
100
AcDbEntity
  8
0
100
AcDbLine
 62
7
  6
CONTINUOUS
 10
10.35
 20
-6.0
 11
10.35
 21
-4.0
  0
LINE
  5
40E
100
AcDbEntity
  8
0
100
AcDbLine
 62
7
  6
CONTINUOUS
 10
10.478563
 20
60.314246
 11
10.478563
 21
60.140567
  0
LINE
  5
40F
100
AcDbEntity
  8
0
100
AcDbLine
 62
7
  6
CONTINUOUS
 10
10.724027
 20
58.135754
 11
10.724027
 21
56.957946
  0
LINE
  5
410
100
AcDbEntity
  8
0
100
AcDbLine
 62
7
  6
CONTINUOUS
 10
10.913849
 20
56.685754
 11
10.913849
 21
58.135754
  0
LINE
  5
411
100
AcDbEntity
  8
0
100
AcDbLine
 62
7
  6
CONTINUOUS
 10
10.969376
 20
60.140567
 11
10.969376
 21
58.864246
  0
LINE
  5
412
100
AcDbEntity
  8
0
100
AcDbLine
 62
7
  6
CONTINUOUS
 10
11.165152
 20
58.864246
 11
11.165152
 21
60.140567
  0
LINE
  5
413
100
AcDbEntity
  8
0
100
AcDbLine
 62
7
  6
CONTINUOUS
 10
11.230869
 20
58.135754
 11
11.230869
 21
56.685754
  0
LINE
  5
414
100
AcDbEntity
  8
0
100
AcDbLine
 62
7
  6
CONTINUOUS
 10
11.426759
 20
56.853366
 11
11.426759
 21
57.968143
  0
LINE
  5
415
100
AcDbEntity
  8
ASSI
100
AcDbLine
 62
7
  6
CONTINUOUS
 10
11.6
 20
-65.4
 11
11.6
 21
-64.6
  0
LINE
  5
416
100
AcDbEntity
  8
ASSI
100
AcDbLine
 62
7
  6
CONTINUOUS
 10
11.6
 20
64.6
 11
11.6
 21
65.4
  0
LINE
  5
417
100
AcDbEntity
  8
0
100
AcDbLine
 62
7
  6
CONTINUOUS
 10
11.655965
 20
60.140567
 11
11.655965
 21
60.314246
  0
LINE
  5
418
100
AcDbEntity
  8
0
100
AcDbLine
 62
7
  6
CONTINUOUS
 10
11.85987
 20
59.07834
 11
11.85987
 21
58.864246
  0
LINE
  5
419
100
AcDbEntity
  8
0
100
AcDbLine
 62
7
  6
CONTINUOUS
 10
12.069957
 20
58.864246
 11
12.069957
 21
59.07834
  0
LINE
  5
41A
100
AcDbEntity
  8
0
100
AcDbLine
 62
7
  6
CONTINUOUS
 10
12.5
 20
53.0
 11
12.5
 21
51.0
  0
LINE
  5
41B
100
AcDbEntity
  8
0
100
AcDbLine
 62
7
  6
CONTINUOUS
 10
12.5
 20
-53.0
 11
12.5
 21
-51.0
  0
LINE
  5
41C
100
AcDbEntity
  8
0
100
AcDbLine
 62
7
  6
CONTINUOUS
 10
12.5
 20
6.0
 11
12.5
 21
4.0
  0
LINE
  5
41D
100
AcDbEntity
  8
0
100
AcDbLine
 62
7
  6
CONTINUOUS
 10
12.5
 20
-6.0
 11
12.5
 21
-4.0
  0
LINE
  5
41E
100
AcDbEntity
  8
0
100
AcDbLine
 62
7
  6
CONTINUOUS
 10
12.700904
 20
56.899848
 11
12.700904
 21
56.685754
  0
LINE
  5
41F
100
AcDbEntity
  8
0
100
AcDbLine
 62
7
  6
CONTINUOUS
 10
12.75
 20
50.9
 11
12.75
 21
6.1
  0
LINE
  5
420
100
AcDbEntity
  8
0
100
AcDbLine
 62
7
  6
CONTINUOUS
 10
12.75
 20
-6.1
 11
12.75
 21
-50.9
  0
LINE
  5
421
100
AcDbEntity
  8
0
100
AcDbLine
 62
7
  6
CONTINUOUS
 10
12.910991
 20
56.685754
 11
12.910991
 21
56.899848
  0
LINE
  5
422
100
AcDbEntity
  8
DRAFT
100
AcDbLine
 62
7
  6
CONTINUOUS
 10
13.1
 20
4.0
 11
13.1
 21
2.35
  0
LINE
  5
423
100
AcDbEntity
  8
DRAFT
100
AcDbLine
 62
7
  6
CONTINUOUS
 10
13.1
 20
-2.35
 11
13.1
 21
-4.0
  0
LINE
  5
424
100
AcDbEntity
  8
DRAFT
100
AcDbLine
 62
7
  6
CONTINUOUS
 10
13.1
 20
-6.0
 11
13.1
 21
-51.0
  0
LINE
  5
425
100
AcDbEntity
  8
DRAFT
100
AcDbLine
 62
7
  6
CONTINUOUS
 10
13.1
 20
6.0
 11
13.1
 21
51.0
  0
LINE
  5
426
100
AcDbEntity
  8
DRAFT
100
AcDbLine
 62
7
  6
CONTINUOUS
 10
13.110035898
 20
55.5
 11
13.110035898
 21
55.4047251461
  0
LINE
  5
427
100
AcDbEntity
  8
DRAFT
100
AcDbLine
 62
7
  6
CONTINUOUS
 10
13.110035898
 20
-55.4047251461
 11
13.110035898
 21
-55.5
  0
LINE
  5
428
100
AcDbEntity
  8
DRAFT
100
AcDbLine
 62
7
  6
CONTINUOUS
 10
13.1161447054
 20
-1.5
 11
13.1161447054
 21
1.5
  0
LINE
  5
429
100
AcDbEntity
  8
DRAFT
100
AcDbLine
 62
7
  6
CONTINUOUS
 10
13.1466887427
 20
53.0
 11
13.1466887427
 21
51.0
  0
LINE
  5
42A
100
AcDbEntity
  8
DRAFT
100
AcDbLine
 62
7
  6
CONTINUOUS
 10
13.1466887427
 20
6.0
 11
13.1466887427
 21
4.0
  0
LINE
  5
42B
100
AcDbEntity
  8
DRAFT
100
AcDbLine
 62
7
  6
CONTINUOUS
 10
13.1466887427
 20
-4.0
 11
13.1466887427
 21
-6.0
  0
LINE
  5
42C
100
AcDbEntity
  8
DRAFT
100
AcDbLine
 62
7
  6
CONTINUOUS
 10
13.1466887427
 20
-51.0
 11
13.1466887427
 21
-53.0
  0
LINE
  5
42D
100
AcDbEntity
  8
DRAFT
100
AcDbLine
 62
7
  6
CONTINUOUS
 10
13.1623971047
 20
1.5
 11
13.1623971047
 21
-1.5
  0
LINE
  5
42E
100
AcDbEntity
  8
RACCORDO
100
AcDbLine
 62
7
  6
CONTINUOUS
 10
13.1799269956
 20
-54.65
 11
13.1799269956
 21
-2.35
  0
LINE
  5
42F
100
AcDbEntity
  8
RACCORDO
100
AcDbLine
 62
7
  6
CONTINUOUS
 10
13.1799269956
 20
2.35
 11
13.1799269956
 21
54.65
  0
LINE
  5
430
100
AcDbEntity
  8
RACCORDO
100
AcDbLine
 62
250
  6
CONTINUOUS
 10
14.1798889187
 20
-55.15
 11
14.1798889187
 21
-1.85
  0
LINE
  5
431
100
AcDbEntity
  8
RACCORDO
100
AcDbLine
 62
250
  6
CONTINUOUS
 10
14.1798889187
 20
1.85
 11
14.1798889187
 21
55.15
  0
LINE
  5
432
100
AcDbEntity
  8
RACCORDO
100
AcDbLine
 62
7
  6
CONTINUOUS
 10
14.519087013
 20
-54.8691631655
 11
14.519087013
 21
-1.5
  0
LINE
  5
433
100
AcDbEntity
  8
RACCORDO
100
AcDbLine
 62
7
  6
CONTINUOUS
 10
14.519087013
 20
1.5
 11
14.519087013
 21
54.8691631655
  0
LINE
  5
434
100
AcDbEntity
  8
RACCORDO
100
AcDbLine
 62
7
  6
CONTINUOUS
 10
13.096141267
 20
-54.0076536684
 11
13.0963139575
 21
-54.65
  0
LINE
  5
435
100
AcDbEntity
  8
RACCORDO
100
AcDbLine
 62
7
  6
CONTINUOUS
 10
13.0976918266
 20
-53.0
 11
13.0961412122
 21
-54.0076893049
  0
LINE
  5
436
100
AcDbEntity
  8
RACCORDO
100
AcDbLine
 62
7
  6
CONTINUOUS
 10
13.0963139931
 20
54.65
 11
13.0976918266
 21
53.0
  0
LWPOLYLINE
  5
437
100
AcDbEntity
  8
0
100
AcDbPolyline
 62
7
  6
CONTINUOUS
 90
13
 70
0
 10
12.2266647314
 20
57.4107540466
 10
12.2264724264
 20
57.3459700585
 10
12.2204525633
 20
57.2817890653
 10
12.208605142
 20
57.2182110669
 10
12.1916352963
 20
57.1533893526
 10
12.1688378925
 20
57.0891706331
 10
12.1380975296
 20
57.0310950409
 10
12.098354024
 20
56.9798745248
 10
12.0506675593
 20
56.934797136
 10
11.9961032856
 20
56.8992671605
 10
11.9350162528
 20
56.8744193604
 10
11.8670514108
 20
56.8591189735
 10
11.7922087598
 20
56.853366
  0
LINE
  5
438
100
AcDbEntity
  8
RACCORDO
100
AcDbLine
 62
7
  6
CONTINUOUS
 10
14.6769801183
 20
55.0270562707
 11
14.6726915844
 21
53.6336793649
  0
LINE
  5
439
100
AcDbEntity
  8
0
100
AcDbLine
 62
7
  6
CONTINUOUS
 10
-9.936375
 20
60.16047
 11
-10.461563
 21
61.610075
  0
LINE
  5
43A
100
AcDbEntity
  8
0
100
AcDbLine
 62
7
  6
CONTINUOUS
 10
-9.56072
 20
55.989925
 11
-10.085909
 21
57.440702
  0
LWPOLYLINE
  5
43B
100
AcDbEntity
  8
0
100
AcDbPolyline
 62
7
  6
CONTINUOUS
 90
37
 70
0
 10
1.7216138929
 20
61.2151059216
 10
1.7022526206
 20
61.335501074
 10
1.6744825924
 20
61.4542389278
 10
1.6384409857
 20
61.570732944
 10
1.5943058372
 20
61.6844076675
 10
1.5422951645
 20
61.7947015696
 10
1.482665888
 20
61.9010698223
 10
1.4157125629
 20
62.0029869891
 10
1.3417659234
 20
62.0999496212
 10
1.2611912492
 20
62.1914787436
 10
1.1743865611
 20
62.2771222219
 10
1.0817806549
 20
62.3564569954
 10
0.9838309833
 20
62.4290911669
 10
0.881021396
 20
62.4946659386
 10
0.7738597497
 20
62.5528573847
 10
0.6628753995
 20
62.6033780512
 10
0.5486165839
 20
62.6459783764
 10
0.4316477165
 20
62.680447923
 10
0.3125465983
 20
62.706616418
 10
0.191901563
 20
62.7243545939
 10
0.0703085711
 20
62.7335748272
 10
-0.0516317339
 20
62.7342315711
 10
-0.1733169932
 20
62.7263215805
 10
-0.2941461072
 20
62.7098839284
 10
-0.413522206
 20
62.6849998123
 10
-0.5308555966
 20
62.6517921537
 10
-0.6455666769
 20
62.6104249907
 10
-0.7570887981
 20
62.5611026674
 10
-0.8648710643
 20
62.5040688249
 10
-0.9683810533
 20
62.4396051976
 10
-1.0671074473
 20
62.3680302214
 10
-1.160562558
 20
62.2896974611
 10
-1.2482847365
 20
62.2049938632
 10
-1.3298406529
 20
62.1143378452
 10
-1.4048274374
 20
62.0181772282
 10
-1.4728746704
 20
61.9169870249
 10
-1.5336462119
 20
61.8112670934
  0
LINE
  5
43C
100
AcDbEntity
  8
DRAFT
100
AcDbLine
 62
7
  6
CONTINUOUS
 10
15.2264840209
 20
60.75
 11
15.2689072036
 21
58.0
  0
LINE
  5
43D
100
AcDbEntity
  8
DRAFT
100
AcDbLine
 62
7
  6
CONTINUOUS
 10
15.3362647374
 20
53.6336793649
 11
15.2920471214
 21
56.5
  0
LINE
  5
43E
100
AcDbEntity
  8
DRAFT
100
AcDbLine
 62
7
  6
CONTINUOUS
 10
14.5714522078
 20
1.5
 11
14.5714522078
 21
-1.5
  0
LINE
  5
43F
100
AcDbEntity
  8
DRAFT
100
AcDbLine
 62
7
  6
CONTINUOUS
 10
14.65
 20
51.5
 11
14.65
 21
50.0
  0
LINE
  5
440
100
AcDbEntity
  8
DRAFT
100
AcDbLine
 62
7
  6
CONTINUOUS
 10
14.65
 20
40.0
 11
14.65
 21
38.5
  0
LINE
  5
441
100
AcDbEntity
  8
DRAFT
100
AcDbLine
 62
7
  6
CONTINUOUS
 10
14.65
 20
29.25
 11
14.65
 21
27.75
  0
LINE
  5
442
100
AcDbEntity
  8
DRAFT
100
AcDbLine
 62
7
  6
CONTINUOUS
 10
14.65
 20
18.5
 11
14.65
 21
17.0
  0
LINE
  5
443
100
AcDbEntity
  8
DRAFT
100
AcDbLine
 62
7
  6
CONTINUOUS
 10
14.65
 20
7.0
 11
14.65
 21
5.5
  0
LINE
  5
444
100
AcDbEntity
  8
DRAFT
100
AcDbLine
 62
7
  6
CONTINUOUS
 10
14.65
 20
-5.5
 11
14.65
 21
-7.0
  0
LINE
  5
445
100
AcDbEntity
  8
DRAFT
100
AcDbLine
 62
7
  6
CONTINUOUS
 10
14.65
 20
-17.0
 11
14.65
 21
-18.5
  0
LINE
  5
446
100
AcDbEntity
  8
DRAFT
100
AcDbLine
 62
7
  6
CONTINUOUS
 10
14.65
 20
-27.75
 11
14.65
 21
-29.25
  0
LINE
  5
447
100
AcDbEntity
  8
DRAFT
100
AcDbLine
 62
7
  6
CONTINUOUS
 10
14.65
 20
-38.5
 11
14.65
 21
-40.0
  0
LINE
  5
448
100
AcDbEntity
  8
DRAFT
100
AcDbLine
 62
7
  6
CONTINUOUS
 10
14.65
 20
-50.0
 11
14.65
 21
-51.5
  0
LINE
  5
449
100
AcDbEntity
  8
DRAFT
100
AcDbLine
 62
7
  6
CONTINUOUS
 10
14.6726915844
 20
53.6336793649
 11
14.6726915844
 21
51.5
  0
LINE
  5
44A
100
AcDbEntity
  8
DRAFT
100
AcDbLine
 62
7
  6
CONTINUOUS
 10
14.6726915844
 20
50.0
 11
14.6726915844
 21
40.0
  0
LINE
  5
44B
100
AcDbEntity
  8
DRAFT
100
AcDbLine
 62
7
  6
CONTINUOUS
 10
14.6726915844
 20
38.5
 11
14.6726915844
 21
29.25
  0
LINE
  5
44C
100
AcDbEntity
  8
DRAFT
100
AcDbLine
 62
7
  6
CONTINUOUS
 10
14.6726915844
 20
27.75
 11
14.6726915844
 21
18.5
  0
LINE
  5
44D
100
AcDbEntity
  8
DRAFT
100
AcDbLine
 62
7
  6
CONTINUOUS
 10
14.6726915844
 20
17.0
 11
14.6726915844
 21
7.0
  0
LINE
  5
44E
100
AcDbEntity
  8
DRAFT
100
AcDbLine
 62
7
  6
CONTINUOUS
 10
14.6726915844
 20
5.5
 11
14.6726915844
 21
-5.5
  0
LINE
  5
44F
100
AcDbEntity
  8
DRAFT
100
AcDbLine
 62
7
  6
CONTINUOUS
 10
14.6726915844
 20
-7.0
 11
14.6726915844
 21
-17.0
  0
LINE
  5
450
100
AcDbEntity
  8
DRAFT
100
AcDbLine
 62
7
  6
CONTINUOUS
 10
14.6726915844
 20
-18.5
 11
14.6726915844
 21
-27.75
  0
LINE
  5
451
100
AcDbEntity
  8
DRAFT
100
AcDbLine
 62
7
  6
CONTINUOUS
 10
14.6726915844
 20
-29.25
 11
14.6726915844
 21
-38.5
  0
LINE
  5
452
100
AcDbEntity
  8
DRAFT
100
AcDbLine
 62
7
  6
CONTINUOUS
 10
14.6726915844
 20
-40.0
 11
14.6726915844
 21
-50.0
  0
LINE
  5
453
100
AcDbEntity
  8
DRAFT
100
AcDbLine
 62
7
  6
CONTINUOUS
 10
14.6726915844
 20
-51.5
 11
14.6726915844
 21
-53.6336793649
  0
LINE
  5
454
100
AcDbEntity
  8
DRAFT
100
AcDbLine
 62
7
  6
CONTINUOUS
 10
15.3362647374
 20
-53.6336793649
 11
15.3362647374
 21
-51.5
  0
LINE
  5
455
100
AcDbEntity
  8
DRAFT
100
AcDbLine
 62
7
  6
CONTINUOUS
 10
15.3362647374
 20
-50.0
 11
15.3362647374
 21
-40.0
  0
LINE
  5
456
100
AcDbEntity
  8
DRAFT
100
AcDbLine
 62
7
  6
CONTINUOUS
 10
15.3362647374
 20
-38.5
 11
15.3362647374
 21
-29.25
  0
LINE
  5
457
100
AcDbEntity
  8
DRAFT
100
AcDbLine
 62
7
  6
CONTINUOUS
 10
15.3362647374
 20
-27.75
 11
15.3362647374
 21
-18.5
  0
LINE
  5
458
100
AcDbEntity
  8
DRAFT
100
AcDbLine
 62
7
  6
CONTINUOUS
 10
15.3362647374
 20
-17.0
 11
15.3362647374
 21
-7.0
  0
LINE
  5
459
100
AcDbEntity
  8
DRAFT
100
AcDbLine
 62
7
  6
CONTINUOUS
 10
15.3362647374
 20
-5.5
 11
15.3362647374
 21
5.5
  0
LINE
  5
45A
100
AcDbEntity
  8
DRAFT
100
AcDbLine
 62
7
  6
CONTINUOUS
 10
15.3362647374
 20
7.0
 11
15.3362647374
 21
17.0
  0
LINE
  5
45B
100
AcDbEntity
  8
DRAFT
100
AcDbLine
 62
7
  6
CONTINUOUS
 10
15.3362647374
 20
18.5
 11
15.3362647374
 21
27.75
  0
LINE
  5
45C
100
AcDbEntity
  8
DRAFT
100
AcDbLine
 62
7
  6
CONTINUOUS
 10
15.3362647374
 20
29.25
 11
15.3362647374
 21
38.5
  0
LINE
  5
45D
100
AcDbEntity
  8
DRAFT
100
AcDbLine
 62
7
  6
CONTINUOUS
 10
15.3362647374
 20
40.0
 11
15.3362647374
 21
50.0
  0
LINE
  5
45E
100
AcDbEntity
  8
DRAFT
100
AcDbLine
 62
7
  6
CONTINUOUS
 10
15.3362647374
 20
51.5
 11
15.3362647374
 21
53.6336793649
  0
LINE
  5
45F
100
AcDbEntity
  8
DRAFT
100
AcDbLine
 62
7
  6
CONTINUOUS
 10
15.45
 20
60.75
 11
15.45
 21
58.0
  0
LINE
  5
460
100
AcDbEntity
  8
DRAFT
100
AcDbLine
 62
7
  6
CONTINUOUS
 10
15.45
 20
-60.75
 11
15.45
 21
-58.0
  0
LINE
  5
461
100
AcDbEntity
  8
DRAFT
100
AcDbLine
 62
7
  6
CONTINUOUS
 10
15.45
 20
-56.5
 11
15.45
 21
-51.5
  0
LINE
  5
462
100
AcDbEntity
  8
DRAFT
100
AcDbLine
 62
7
  6
CONTINUOUS
 10
15.45
 20
-50.0
 11
15.45
 21
-40.0
  0
LINE
  5
463
100
AcDbEntity
  8
DRAFT
100
AcDbLine
 62
7
  6
CONTINUOUS
 10
15.45
 20
-38.5
 11
15.45
 21
-29.25
  0
LINE
  5
464
100
AcDbEntity
  8
DRAFT
100
AcDbLine
 62
7
  6
CONTINUOUS
 10
15.45
 20
-27.75
 11
15.45
 21
-18.5
  0
LINE
  5
465
100
AcDbEntity
  8
DRAFT
100
AcDbLine
 62
7
  6
CONTINUOUS
 10
15.45
 20
-17.0
 11
15.45
 21
-7.0
  0
LINE
  5
466
100
AcDbEntity
  8
DRAFT
100
AcDbLine
 62
7
  6
CONTINUOUS
 10
15.45
 20
-5.5
 11
15.45
 21
5.5
  0
LINE
  5
467
100
AcDbEntity
  8
DRAFT
100
AcDbLine
 62
7
  6
CONTINUOUS
 10
15.45
 20
7.0
 11
15.45
 21
17.0
  0
LINE
  5
468
100
AcDbEntity
  8
DRAFT
100
AcDbLine
 62
7
  6
CONTINUOUS
 10
15.45
 20
18.5
 11
15.45
 21
27.75
  0
LINE
  5
469
100
AcDbEntity
  8
DRAFT
100
AcDbLine
 62
7
  6
CONTINUOUS
 10
15.45
 20
29.25
 11
15.45
 21
38.5
  0
LINE
  5
46A
100
AcDbEntity
  8
DRAFT
100
AcDbLine
 62
7
  6
CONTINUOUS
 10
15.45
 20
40.0
 11
15.45
 21
50.0
  0
LINE
  5
46B
100
AcDbEntity
  8
DRAFT
100
AcDbLine
 62
7
  6
CONTINUOUS
 10
15.45
 20
51.5
 11
15.45
 21
56.5
  0
LINE
  5
46C
100
AcDbEntity
  8
DRAFT
100
AcDbLine
 62
7
  6
CONTINUOUS
 10
16.75
 20
61.6
 11
16.75
 21
-61.6
  0
LINE
  5
46D
100
AcDbEntity
  8
DRAFT
100
AcDbLine
 62
7
  6
CONTINUOUS
 10
15.2264840209
 20
-60.75
 11
15.2689072036
 21
-58.0
  0
LINE
  5
46E
100
AcDbEntity
  8
DRAFT
100
AcDbLine
 62
7
  6
CONTINUOUS
 10
15.3362647374
 20
-53.6336793649
 11
15.2920471214
 21
-56.5
  0
LWPOLYLINE
  5
46F
100
AcDbEntity
  8
0
100
AcDbPolyline
 62
7
  6
CONTINUOUS
 90
46
 70
0
 10
-1.5769328755
 20
-60.2972725389
 10
-1.612599858
 20
-60.4079441594
 10
-1.6405574541
 20
-60.5202167517
 10
-1.6607527172
 20
-60.6335569534
 10
-1.6731693642
 20
-60.7474315838
 10
-1.6778275079
 20
-60.8613101492
 10
-1.6747832201
 20
-60.9746673125
 10
-1.6641279265
 20
-61.0869853158
 10
-1.6459876407
 20
-61.1977563453
 10
-1.6205220405
 20
-61.3064848272
 10
-1.5879233929
 20
-61.4126896441
 10
-1.5484153337
 20
-61.515906263
 10
-1.5022515103
 20
-61.6156887644
 10
-1.4497140933
 20
-61.7116117637
 10
-1.3911121672
 20
-61.8032722178
 10
-1.3267800071
 20
-61.8902911075
 10
-1.2570752527
 20
-61.9723149907
 10
-1.1823769874
 20
-62.0490174181
 10
-1.1030837337
 20
-62.1201002075
 10
-1.0196113752
 20
-62.1852945706
 10
-0.9323910152
 20
-62.2443620898
 10
-0.8418667833
 20
-62.2970955392
 10
-0.7484936016
 20
-62.3433195498
 10
-0.6527349194
 20
-62.3828911156
 10
-0.5550604313
 20
-62.4156999405
 10
-0.4559437855
 20
-62.4416686243
 10
-0.3558602973
 20
-62.4607526906
 10
-0.2552846762
 20
-62.4729404561
 10
-0.1546887788
 20
-62.4782527445
 10
-0.0545393976
 20
-62.4767424465
 10
0.044703904
 20
-62.4684939315
 10
0.1425909005
 20
-62.4536223136
 10
0.2386827461
 20
-62.4322725767
 10
0.3325539426
 20
-62.4046185663
 10
0.4237942219
 20
-62.3708618515
 10
0.512010337
 20
-62.3312304656
 10
0.5968277521
 20
-62.2859775323
 10
0.6778922253
 20
-62.2353797855
 10
0.7548712775
 20
-62.1797359893
 10
0.8274555408
 20
-62.1193652696
 10
0.8953599811
 20
-62.0546053642
 10
0.9583249913
 20
-61.9858108006
 10
1.0161173487
 20
-61.913351013
 10
1.0685310361
 20
-61.8376084063
 10
1.1153879214
 20
-61.758976378
 10
1.1565382961
 20
-61.677857308
  0
LINE
  5
470
100
AcDbEntity
  8
DRAFT
100
AcDbLine
 62
7
  6
CONTINUOUS
 10
15.45
 20
17.0
 11
14.65
 21
17.0
  0
LINE
  5
471
100
AcDbEntity
  8
DRAFT
100
AcDbLine
 62
7
  6
CONTINUOUS
 10
-14.65
 20
17.0
 11
-15.45
 21
17.0
  0
LINE
  5
472
100
AcDbEntity
  8
DRAFT
100
AcDbLine
 62
7
  6
CONTINUOUS
 10
-15.45
 20
18.5
 11
-14.65
 21
18.5
  0
LINE
  5
473
100
AcDbEntity
  8
DRAFT
100
AcDbLine
 62
7
  6
CONTINUOUS
 10
14.65
 20
18.5
 11
15.45
 21
18.5
  0
LWPOLYLINE
  5
474
100
AcDbEntity
  8
0
100
AcDbPolyline
 62
7
  6
CONTINUOUS
 90
20
 70
0
 10
1.2419303919
 20
61.179244825
 10
1.2186668343
 20
61.2606235573
 10
1.1901191525
 20
61.3396919822
 10
1.1564921891
 20
61.4161104018
 10
1.1180123805
 20
61.4895561654
 10
1.0749263943
 20
61.5597250246
 10
1.0274996836
 20
61.6263323819
 10
0.976014966
 20
61.6891144295
 10
0.9207706341
 20
61.7478291717
 10
0.8620791091
 20
61.8022573294
 10
0.8002651424
 20
61.8522031206
 10
0.7356640779
 20
61.8974949176
 10
0.6686200817
 20
61.9379857765
 10
0.5994843491
 20
61.973553838
 10
0.5286132983
 20
62.0041026007
 10
0.4563667594
 20
62.0295610649
 10
0.3831061687
 20
62.0498837479
 10
0.3091927763
 20
62.0650505739
 10
0.2349858761
 20
62.0750666375
 10
0.1608410672
 20
62.0799618461
  0
LWPOLYLINE
  5
475
100
AcDbEntity
  8
0
100
AcDbPolyline
 62
7
  6
CONTINUOUS
 90
10
 70
0
 10
1.1918612687
 20
-61.594660526
 10
1.221265016
 20
-61.5098002676
 10
1.2446868886
 20
-61.4236936283
 10
1.2620933754
 20
-61.3367585254
 10
1.2734799255
 20
-61.2494116787
 10
1.2788706318
 20
-61.162066619
 10
1.2783177783
 20
-61.0751317333
 10
1.2719012553
 20
-60.9890083576
 10
1.2597278464
 20
-60.9040889245
 10
1.2419303919
 20
-60.820755175
  0
LINE
  5
476
100
AcDbEntity
  8
0
100
AcDbLine
 62
7
  6
CONTINUOUS
 10
-1.5336462119
 20
-60.1887329066
 11
-1.5769328755
 21
-60.2972725389
  0
LWPOLYLINE
  5
477
100
AcDbEntity
  8
0
100
AcDbPolyline
 62
7
  6
CONTINUOUS
 90
8
 70
0
 10
-1.5547270811
 20
-60.2299034968
 10
-1.6049787245
 20
-60.3410097
 10
-1.6473021441
 20
-60.4553711652
 10
-1.6814882718
 20
-60.5724229732
 10
-1.7073682355
 20
-60.6915869154
 10
-1.7248141937
 20
-60.8122743492
 10
-1.7337399669
 20
-60.9338891068
 10
-1.7341014634
 20
-61.0558304393
  0
LINE
  5
478
100
AcDbEntity
  8
0
100
AcDbLine
 62
7
  6
CONTINUOUS
 10
-8.686149
 20
57.440702
 11
-8.138677
 21
56.573989
  0
LINE
  5
479
100
AcDbEntity
  8
0
100
AcDbLine
 62
7
  6
CONTINUOUS
 10
-10.127192
 20
59.253181
 11
-9.38597
 21
58.075198
  0
LINE
  5
47A
100
AcDbEntity
  8
0
100
AcDbLine
 62
7
  6
CONTINUOUS
 10
-9.355594
 20
58.347703
 11
-10.084853
 21
59.524802
  0
LINE
  5
47B
100
AcDbEntity
  8
0
100
AcDbLine
 62
7
  6
CONTINUOUS
 10
-8.041802
 20
56.744048
 11
-8.457918
 21
57.440702
  0
LINE
  5
47C
100
AcDbEntity
  8
0
100
AcDbLine
 62
7
  6
CONTINUOUS
 10
1.1565382961
 20
-61.677857308
 11
1.1918612687
 21
-61.594660526
  0
LWPOLYLINE
  5
47D
100
AcDbEntity
  8
0
100
AcDbPolyline
 62
7
  6
CONTINUOUS
 90
16
 70
0
 10
-1.0434405187
 20
-60.4480415691
 10
-1.008627466
 20
-60.3779647292
 10
-0.9690752112
 20
-60.3100512959
 10
-0.9249157385
 20
-60.244623685
 10
-0.8764068965
 20
-60.1821214406
 10
-0.8236374442
 20
-60.1227113477
 10
-0.7664416483
 20
-60.0663530407
 10
-0.7047380167
 20
-60.0132140963
 10
-0.6389046826
 20
-59.9638565018
 10
-0.5694824685
 20
-59.9188258919
 10
-0.4966932268
 20
-59.8783616214
 10
-0.420889688
 20
-59.8427519478
 10
-0.3429472453
 20
-59.8124239816
 10
-0.2634362048
 20
-59.7875291679
 10
-0.1825564504
 20
-59.7680607493
 10
-0.10068705
 20
-59.7540617519
  0
LINE
  5
47E
100
AcDbEntity
  8
ASSI
100
AcDbLine
 62
7
  6
CONTINUOUS
 10
-6.9960064048
 20
-52.9229388206
 11
-7.2619412833
 21
-53.2500712997
  0
LINE
  5
47F
100
AcDbEntity
  8
DRAFT
100
AcDbLine
 62
7
  6
CONTINUOUS
 10
15.45
 20
27.75
 11
14.65
 21
27.75
  0
LINE
  5
480
100
AcDbEntity
  8
DRAFT
100
AcDbLine
 62
7
  6
CONTINUOUS
 10
-14.65
 20
27.75
 11
-15.45
 21
27.75
  0
LINE
  5
481
100
AcDbEntity
  8
ASSI
100
AcDbLine
 62
7
  6
CONTINUOUS
 10
-7.2619412833
 20
53.2500712997
 11
-7.0461952242
 21
52.9850730706
  0
LINE
  5
482
100
AcDbEntity
  8
ASSI
100
AcDbLine
 62
7
  6
CONTINUOUS
 10
-7.0461952242
 20
52.9850730706
 11
-6.8864896251
 21
52.7864958675
  0
LWPOLYLINE
  5
483
100
AcDbEntity
  8
ASSI
100
AcDbPolyline
 62
7
  6
CONTINUOUS
 90
17
 70
0
 10
-6.8864896251
 20
52.7864958675
 10
-6.7839240416
 20
52.6567715297
 10
-6.7344528601
 20
52.5933937935
 10
-6.6864737376
 20
52.5310011382
 10
-6.6401676353
 20
52.4701344194
 10
-6.5959477318
 20
52.4109730289
 10
-6.5538495285
 20
52.353337575
 10
-6.5136031444
 20
52.2972307384
 10
-6.4756271266
 20
52.2425535552
 10
-6.4402178414
 20
52.1894049893
 10
-6.4072337173
 20
52.138084613
 10
-6.3772452238
 20
52.0882914685
 10
-6.35092141
 20
52.0403265135
 10
-6.328683967
 20
51.9953921932
 10
-6.3113621012
 20
51.9538893227
 10
-6.2999745611
 20
51.915417087
 10
-6.2954558678
 20
51.879975486
  0
LINE
  5
484
100
AcDbEntity
  8
0
100
AcDbLine
 62
7
  6
CONTINUOUS
 10
9.779977
 20
60.10382
 11
9.995993
 21
59.459931
  0
LWPOLYLINE
  5
485
100
AcDbEntity
  8
ASSI
100
AcDbPolyline
 62
7
  6
CONTINUOUS
 90
7
 70
0
 10
-6.5091791955
 20
-53.0596142205
 10
-6.415827129
 20
-52.9657099585
 10
-6.3760775756
 20
-52.9266976953
 10
-6.3438832416
 20
-52.8938832416
 10
-6.3201855642
 20
-52.8684617638
 10
-6.3040431063
 20
-52.8518861909
 10
-6.2954558678
 20
-52.8454558678
  0
LINE
  5
486
100
AcDbEntity
  8
RACCORDO
100
AcDbLine
 62
250
  6
CONTINUOUS
 10
-14.519087013
 20
-54.8691631655
 11
-14.6769801183
 21
-55.0270562707
  0
LINE
  5
487
100
AcDbEntity
  8
RACCORDO
100
AcDbLine
 62
250
  6
CONTINUOUS
 10
-14.0191631655
 20
-55.369087013
 11
-14.1500761524
 21
-55.5
  0
LINE
  5
488
100
AcDbEntity
  8
ASSI
100
AcDbLine
 62
7
  6
CONTINUOUS
 10
-6.25
 20
-51.75
 11
-6.2911305116
 21
-51.7911305116
  0
LINE
  5
489
100
AcDbEntity
  8
RACCORDO
100
AcDbLine
 62
7
  6
CONTINUOUS
 10
-6.25
 20
-52.8
 11
-6.2954558678
 21
-52.8454558678
  0
LINE
  5
48A
100
AcDbEntity
  8
DRAFT
100
AcDbLine
 62
7
  6
CONTINUOUS
 10
-15.45
 20
29.25
 11
-14.65
 21
29.25
  0
LINE
  5
48B
100
AcDbEntity
  8
DRAFT
100
AcDbLine
 62
7
  6
CONTINUOUS
 10
14.65
 20
29.25
 11
15.45
 21
29.25
  0
LINE
  5
48C
100
AcDbEntity
  8
RACCORDO
100
AcDbLine
 62
250
  6
CONTINUOUS
 10
-14.6769801183
 20
55.0270562707
 11
-14.519087013
 21
54.8691631655
  0
LINE
  5
48D
100
AcDbEntity
  8
RACCORDO
100
AcDbLine
 62
250
  6
CONTINUOUS
 10
-14.1500761524
 20
55.5
 11
-14.0191631655
 21
55.369087013
  0
LINE
  5
48E
100
AcDbEntity
  8
ASSI
100
AcDbLine
 62
7
  6
CONTINUOUS
 10
-6.25
 20
51.75
 11
-6.2911305116
 21
51.7911305116
  0
LINE
  5
48F
100
AcDbEntity
  8
RACCORDO
100
AcDbLine
 62
7
  6
CONTINUOUS
 10
-6.25
 20
52.8
 11
-6.2954558678
 21
52.8454558678
  0
LWPOLYLINE
  5
490
100
AcDbEntity
  8
ASSI
100
AcDbPolyline
 62
7
  6
CONTINUOUS
 90
13
 70
0
 10
-6.8046456161
 20
53.3546456161
 10
-6.7410081515
 20
53.2899412263
 10
-6.6790273489
 20
53.228162724
 10
-6.6193101092
 20
53.1693101092
 10
-6.5626905176
 20
53.1127817086
 10
-6.5096142205
 20
53.0591791955
 10
-6.4603075903
 20
53.0103075903
 10
-6.4157099585
 20
52.965827129
 10
-6.3766976953
 20
52.9260775756
 10
-6.3438832416
 20
52.8938832416
 10
-6.3184617638
 20
52.8701855642
 10
-6.3018861909
 20
52.8540431063
 10
-6.2954558678
 20
52.8454558678
  0
LINE
  5
491
100
AcDbEntity
  8
0
100
AcDbLine
 62
7
  6
CONTINUOUS
 10
10.424066
 20
58.864246
 11
9.899021
 21
60.314246
  0
LINE
  5
492
100
AcDbEntity
  8
0
100
AcDbLine
 62
7
  6
CONTINUOUS
 10
10.066632
 20
59.286251
 11
10.209972
 21
58.864246
  0
LINE
  5
493
100
AcDbEntity
  8
DRAFT
100
AcDbLine
 62
7
  6
CONTINUOUS
 10
13.1623971047
 20
-55.4214522078
 11
13.1231261996
 21
-55.5
  0
LWPOLYLINE
  5
494
100
AcDbEntity
  8
ASSI
100
AcDbPolyline
 62
7
  6
CONTINUOUS
 90
6
 70
0
 10
-6.8046456161
 20
-53.3546456161
 10
-6.7399412263
 20
-53.2910081515
 10
-6.678162724
 20
-53.2290273489
 10
-6.6193101092
 20
-53.1693101092
 10
-6.5627817086
 20
-53.1126905176
 10
-6.5091791955
 20
-53.0596142205
  0
LINE
  5
495
100
AcDbEntity
  8
DRAFT
100
AcDbLine
 62
7
  6
CONTINUOUS
 10
13.1623971047
 20
55.4214522078
 11
13.1231261996
 21
55.5
  0
LINE
  5
496
100
AcDbEntity
  8
DRAFT
100
AcDbLine
 62
7
  6
CONTINUOUS
 10
4.1940475203
 20
-54.6559524797
 11
3.35
 21
-55.5
  0
LINE
  5
497
100
AcDbEntity
  8
0
100
AcDbLine
 62
7
  6
CONTINUOUS
 10
3.35
 20
-55.5
 11
3.2
 21
-55.65
  0
LINE
  5
498
100
AcDbEntity
  8
DRAFT
100
AcDbLine
 62
7
  6
CONTINUOUS
 10
15.45
 20
38.5
 11
14.65
 21
38.5
  0
LINE
  5
499
100
AcDbEntity
  8
DRAFT
100
AcDbLine
 62
7
  6
CONTINUOUS
 10
-14.65
 20
38.5
 11
-15.45
 21
38.5
  0
LINE
  5
49A
100
AcDbEntity
  8
DRAFT
100
AcDbLine
 62
7
  6
CONTINUOUS
 10
-15.45
 20
40.0
 11
-14.65
 21
40.0
  0
LINE
  5
49B
100
AcDbEntity
  8
DRAFT
100
AcDbLine
 62
7
  6
CONTINUOUS
 10
14.65
 20
40.0
 11
15.45
 21
40.0
  0
LINE
  5
49C
100
AcDbEntity
  8
DRAFT
100
AcDbLine
 62
7
  6
CONTINUOUS
 10
4.1940475203
 20
54.6559524797
 11
3.35
 21
55.5
  0
LINE
  5
49D
100
AcDbEntity
  8
0
100
AcDbLine
 62
7
  6
CONTINUOUS
 10
3.35
 20
55.5
 11
3.2
 21
55.65
  0
LINE
  5
49E
100
AcDbEntity
  8
0
100
AcDbLine
 62
7
  6
CONTINUOUS
 10
9.952602
 20
57.863456
 11
10.693687
 21
56.685754
  0
LINE
  5
49F
100
AcDbEntity
  8
0
100
AcDbLine
 62
7
  6
CONTINUOUS
 10
10.724027
 20
56.957946
 11
9.994962
 21
58.135754
  0
LINE
  5
4A0
100
AcDbEntity
  8
RACCORDO
100
AcDbLine
 62
250
  6
CONTINUOUS
 10
7.4999238476
 20
-55.5
 11
7.6308368345
 21
-55.369087013
  0
LINE
  5
4A1
100
AcDbEntity
  8
RACCORDO
100
AcDbLine
 62
250
  6
CONTINUOUS
 10
7.4999238476
 20
55.5
 11
7.6308368345
 21
55.369087013
  0
LINE
  5
4A2
100
AcDbEntity
  8
DRAFT
100
AcDbLine
 62
7
  6
CONTINUOUS
 10
15.45
 20
50.0
 11
14.65
 21
50.0
  0
LINE
  5
4A3
100
AcDbEntity
  8
DRAFT
100
AcDbLine
 62
7
  6
CONTINUOUS
 10
-14.65
 20
50.0
 11
-15.45
 21
50.0
  0
LINE
  5
4A4
100
AcDbEntity
  8
DRAFT
100
AcDbLine
 62
7
  6
CONTINUOUS
 10
-13.1
 20
50.9
 11
-12.75
 21
50.9
  0
LINE
  5
4A5
100
AcDbEntity
  8
DRAFT
100
AcDbLine
 62
7
  6
CONTINUOUS
 10
12.75
 20
50.9
 11
13.1
 21
50.9
  0
LINE
  5
4A6
100
AcDbEntity
  8
DRAFT
100
AcDbLine
 62
7
  6
CONTINUOUS
 10
-13.1466887427
 20
51.0
 11
-12.5
 21
51.0
  0
LINE
  5
4A7
100
AcDbEntity
  8
0
100
AcDbLine
 62
7
  6
CONTINUOUS
 10
-12.5
 20
51.0
 11
-8.1
 21
51.0
  0
LINE
  5
4A8
100
AcDbEntity
  8
0
100
AcDbLine
 62
7
  6
CONTINUOUS
 10
8.1
 20
51.0
 11
12.5
 21
51.0
  0
LINE
  5
4A9
100
AcDbEntity
  8
DRAFT
100
AcDbLine
 62
7
  6
CONTINUOUS
 10
12.5
 20
51.0
 11
13.1466887427
 21
51.0
  0
LINE
  5
4AA
100
AcDbEntity
  8
DRAFT
100
AcDbLine
 62
7
  6
CONTINUOUS
 10
-15.45
 20
51.5
 11
-14.65
 21
51.5
  0
LINE
  5
4AB
100
AcDbEntity
  8
DRAFT
100
AcDbLine
 62
7
  6
CONTINUOUS
 10
14.65
 20
51.5
 11
15.45
 21
51.5
  0
LINE
  5
4AC
100
AcDbEntity
  8
0
100
AcDbLine
 62
7
  6
CONTINUOUS
 10
-12.5
 20
51.6
 11
-10.35
 21
51.6
  0
LINE
  5
4AD
100
AcDbEntity
  8
0
100
AcDbLine
 62
7
  6
CONTINUOUS
 10
12.5
 20
51.6
 11
10.35
 21
51.6
  0
LWPOLYLINE
  5
4AE
100
AcDbEntity
  8
ASSI
100
AcDbPolyline
 62
7
  6
CONTINUOUS
 90
7
 70
0
 10
-7.5336543116
 20
53.2910733962
 10
-7.4889268532
 20
53.2789956488
 10
-7.4439761762
 20
53.2690155273
 10
-7.3988022808
 20
53.2611330316
 10
-7.3534051668
 20
53.2553481617
 10
-7.3077848343
 20
53.2516609178
 10
-7.2619412833
 20
53.2500712997
  0
LWPOLYLINE
  5
4AF
100
AcDbEntity
  8
0
100
AcDbPolyline
 62
7
  6
CONTINUOUS
 90
28
 70
0
 10
-0.4489152318
 20
-60.0900068452
 10
-0.3783543299
 20
-60.0560466429
 10
-0.3058342577
 20
-60.02777305
 10
-0.2318274053
 20
-60.0052397671
 10
-0.1571006392
 20
-59.9885173221
 10
-0.081815221
 20
-59.9774827111
 10
-0.0054845246
 20
-59.9720465829
 10
0.0717257543
 20
-59.972334222
 10
0.1491335619
 20
-59.9784572141
 10
0.22646532
 20
-59.9905006685
 10
0.3035153304
 20
-60.0085916539
 10
0.3795451741
 20
-60.032720017
 10
0.4535020776
 20
-60.0626131007
 10
0.5249336507
 20
-60.0980715329
 10
0.5934484336
 20
-60.1388837058
 10
0.6582119322
 20
-60.1844640253
 10
0.7186270728
 20
-60.2341670151
 10
0.7747793236
 20
-60.2878257985
 10
0.8268775702
 20
-60.3455506588
 10
0.874677795
 20
-60.407096547
 10
0.9178574163
 20
-60.4720756919
 10
0.9563688473
 20
-60.5405159245
 10
0.9900354731
 20
-60.61238401
 10
1.0184117683
 20
-60.6870563702
 10
1.0411108584
 20
-60.7636439524
 10
1.0579866595
 20
-60.8415399615
 10
1.0690134539
 20
-60.9204720946
 10
1.0741430217
 20
-61.0
  0
LWPOLYLINE
  5
4B0
100
AcDbEntity
  8
ASSI
100
AcDbPolyline
 62
7
  6
CONTINUOUS
 90
7
 70
0
 10
7.2619412833
 20
53.2500712997
 10
7.3078904745
 20
53.2516768246
 10
7.3535741912
 20
53.2553736127
 10
7.3989924332
 20
53.2611616639
 10
7.4441452006
 20
53.2690409783
 10
7.4890324934
 20
53.2790115557
 10
7.5336543116
 20
53.2910733962
  0
LWPOLYLINE
  5
4B1
100
AcDbEntity
  8
DRAFT
100
AcDbPolyline
 62
7
  6
CONTINUOUS
 90
10
 70
0
 10
-7.0828583997
 20
55.2757418649
 10
-7.1072060767
 20
55.2749892652
 10
-7.131749534
 20
55.2736624558
 10
-7.1564484915
 20
55.2717683314
 10
-7.1812862309
 20
55.269341258
 10
-7.2062053499
 20
55.2663643506
 10
-7.2310999738
 20
55.2627763125
 10
-7.255905864
 20
55.2585728071
 10
-7.2806081884
 20
55.253799236
 10
-7.3051717269
 20
55.2484768803
  0
LINE
  5
4B2
100
AcDbEntity
  8
DRAFT
100
AcDbLine
 62
7
  6
CONTINUOUS
 10
-3.0
 20
54.65
 11
3.0
 21
54.6559524797
  0
LINE
  5
4B3
100
AcDbEntity
  8
DRAFT
100
AcDbLine
 62
7
  6
CONTINUOUS
 10
-8.1
 20
51.75
 11
-6.25
 21
51.75
  0
LINE
  5
4B4
100
AcDbEntity
  8
DRAFT
100
AcDbLine
 62
7
  6
CONTINUOUS
 10
6.25
 20
51.75
 11
8.1
 21
51.75
  0
LINE
  5
4B5
100
AcDbEntity
  8
DRAFT
100
AcDbLine
 62
7
  6
CONTINUOUS
 10
-8.5
 20
51.7622176149
 11
-8.1
 21
51.7622176149
  0
LINE
  5
4B6
100
AcDbEntity
  8
DRAFT
100
AcDbLine
 62
7
  6
CONTINUOUS
 10
8.1
 20
51.7622176149
 11
8.5
 21
51.7622176149
  0
LINE
  5
4B7
100
AcDbEntity
  8
ASSI
100
AcDbLine
 62
7
  6
CONTINUOUS
 10
-8.5
 20
51.7911305116
 11
-6.2911305116
 21
51.7911305116
  0
LINE
  5
4B8
100
AcDbEntity
  8
ASSI
100
AcDbLine
 62
7
  6
CONTINUOUS
 10
6.2911305116
 20
51.7911305116
 11
8.5
 21
51.7911305116
  0
LINE
  5
4B9
100
AcDbEntity
  8
0
100
AcDbLine
 62
7
  6
CONTINUOUS
 10
-4.2
 20
51.8
 11
-1.6
 21
51.8
  0
LINE
  5
4BA
100
AcDbEntity
  8
0
100
AcDbLine
 62
7
  6
CONTINUOUS
 10
1.6
 20
51.8
 11
4.2
 21
51.8
  0
LINE
  5
4BB
100
AcDbEntity
  8
DRAFT
100
AcDbLine
 62
7
  6
CONTINUOUS
 10
-6.25
 20
52.8
 11
-4.2
 21
52.8
  0
LINE
  5
4BC
100
AcDbEntity
  8
DRAFT
100
AcDbLine
 62
7
  6
CONTINUOUS
 10
-1.6
 20
52.8
 11
1.6
 21
52.8
  0
LINE
  5
4BD
100
AcDbEntity
  8
DRAFT
100
AcDbLine
 62
7
  6
CONTINUOUS
 10
4.2
 20
52.8
 11
6.25
 21
52.8
  0
LINE
  5
4BE
100
AcDbEntity
  8
RACCORDO
100
AcDbLine
 62
7
  6
CONTINUOUS
 10
-6.2954558678
 20
52.8454558678
 11
6.2954558678
 21
52.8454558678
  0
LINE
  5
4BF
100
AcDbEntity
  8
DRAFT
100
AcDbLine
 62
7
  6
CONTINUOUS
 10
-13.1466887427
 20
53.0
 11
-12.5
 21
53.0
  0
LINE
  5
4C0
100
AcDbEntity
  8
DRAFT
100
AcDbLine
 62
7
  6
CONTINUOUS
 10
13.1466887427
 20
53.0
 11
12.5
 21
53.0
  0
LINE
  5
4C1
100
AcDbEntity
  8
0
100
AcDbLine
 62
7
  6
CONTINUOUS
 10
8.5
 20
53.0
 11
12.5
 21
53.0
  0
LINE
  5
4C2
100
AcDbEntity
  8
0
100
AcDbLine
 62
7
  6
CONTINUOUS
 10
-8.5
 20
53.0
 11
-12.5
 21
53.0
  0
LINE
  5
4C3
100
AcDbEntity
  8
ASSI
100
AcDbLine
 62
250
  6
CONTINUOUS
 10
-8.5
 20
53.2910733962
 11
-7.5336543116
 21
53.2910733962
  0
LINE
  5
4C4
100
AcDbEntity
  8
ASSI
100
AcDbLine
 62
250
  6
CONTINUOUS
 10
7.5336543116
 20
53.2910733962
 11
8.5
 21
53.2910733962
  0
LINE
  5
4C5
100
AcDbEntity
  8
DRAFT
100
AcDbLine
 62
7
  6
CONTINUOUS
 10
-15.3362647374
 20
53.6336793649
 11
-14.6726915844
 21
53.6336793649
  0
LINE
  5
4C6
100
AcDbEntity
  8
DRAFT
100
AcDbLine
 62
7
  6
CONTINUOUS
 10
14.6726915844
 20
53.6336793649
 11
15.3362647374
 21
53.6336793649
  0
LINE
  5
4C7
100
AcDbEntity
  8
ASSI
100
AcDbLine
 62
250
  6
CONTINUOUS
 10
-6.3354983674
 20
53.8454177909
 11
6.3354983674
 21
53.8454177909
  0
LINE
  5
4C8
100
AcDbEntity
  8
DRAFT
100
AcDbLine
 62
7
  6
CONTINUOUS
 10
6.2868841298
 20
54.519087013
 11
-6.2868841298
 21
54.519087013
  0
LINE
  5
4C9
100
AcDbEntity
  8
RACCORDO
100
AcDbLine
 62
7
  6
CONTINUOUS
 10
-2.0
 20
54.6273084156
 11
2.0
 21
54.6273084156
  0
LINE
  5
4CA
100
AcDbEntity
  8
RACCORDO
100
AcDbLine
 62
7
  6
CONTINUOUS
 10
-13.3138635149
 20
54.65
 11
-8.5
 21
54.65
  0
LINE
  5
4CB
100
AcDbEntity
  8
RACCORDO
100
AcDbLine
 62
7
  6
CONTINUOUS
 10
13.3138635149
 20
54.65
 11
8.5
 21
54.65
  0
LINE
  5
4CC
100
AcDbEntity
  8
DRAFT
100
AcDbLine
 62
7
  6
CONTINUOUS
 10
-6.2907905922
 20
54.65
 11
-6.0140873065
 21
54.65
  0
LINE
  5
4CD
100
AcDbEntity
  8
DRAFT
100
AcDbLine
 62
7
  6
CONTINUOUS
 10
6.0140873065
 20
54.65
 11
6.2907905922
 21
54.65
  0
LINE
  5
4CE
100
AcDbEntity
  8
DRAFT
100
AcDbLine
 62
7
  6
CONTINUOUS
 10
-4.1940475203
 20
54.6559524797
 11
-3.0
 21
54.6559524797
  0
LINE
  5
4CF
100
AcDbEntity
  8
DRAFT
100
AcDbLine
 62
7
  6
CONTINUOUS
 10
3.0
 20
54.6559524797
 11
4.1940475203
 21
54.6559524797
  0
LINE
  5
4D0
100
AcDbEntity
  8
DRAFT
100
AcDbLine
 62
7
  6
CONTINUOUS
 10
5.995695392
 20
54.6758993279
 11
4.1940475203
 21
54.6758993279
  0
LINE
  5
4D1
100
AcDbEntity
  8
DRAFT
100
AcDbLine
 62
7
  6
CONTINUOUS
 10
-4.1940475203
 20
54.6758993279
 11
-5.995695392
 21
54.6758993279
  0
LINE
  5
4D2
100
AcDbEntity
  8
RACCORDO
100
AcDbLine
 62
7
  6
CONTINUOUS
 10
-14.1798889187
 20
55.15
 11
-8.5
 21
55.15
  0
LINE
  5
4D3
100
AcDbEntity
  8
RACCORDO
100
AcDbLine
 62
7
  6
CONTINUOUS
 10
8.5
 20
55.15
 11
14.1798889187
 21
55.15
  0
LINE
  5
4D4
100
AcDbEntity
  8
RACCORDO
100
AcDbLine
 62
7
  6
CONTINUOUS
 10
14.0191631655
 20
55.369087013
 11
7.6308368345
 21
55.369087013
  0
LINE
  5
4D5
100
AcDbEntity
  8
RACCORDO
100
AcDbLine
 62
7
  6
CONTINUOUS
 10
-7.6308368345
 20
55.369087013
 11
-14.0191631655
 21
55.369087013
  0
LINE
  5
4D6
100
AcDbEntity
  8
DRAFT
100
AcDbLine
 62
7
  6
CONTINUOUS
 10
-13.1623971047
 20
55.4214522078
 11
-8.5
 21
55.4214522078
  0
LINE
  5
4D7
100
AcDbEntity
  8
DRAFT
100
AcDbLine
 62
7
  6
CONTINUOUS
 10
13.1623971047
 20
55.4214522078
 11
8.5
 21
55.4214522078
  0
LINE
  5
4D8
100
AcDbEntity
  8
RACCORDO
100
AcDbLine
 62
7
  6
CONTINUOUS
 10
-14.1500761524
 20
55.5
 11
-13.1231261996
 21
55.5
  0
LINE
  5
4D9
100
AcDbEntity
  8
DRAFT
100
AcDbLine
 62
7
  6
CONTINUOUS
 10
-13.1231261996
 20
55.5
 11
-8.5
 21
55.5
  0
LINE
  5
4DA
100
AcDbEntity
  8
RACCORDO
100
AcDbLine
 62
7
  6
CONTINUOUS
 10
-8.5
 20
55.5
 11
-7.4999238476
 21
55.5
  0
LINE
  5
4DB
100
AcDbEntity
  8
0
100
AcDbLine
 62
7
  6
CONTINUOUS
 10
3.35
 20
55.5
 11
-3.35
 21
55.5
  0
LINE
  5
4DC
100
AcDbEntity
  8
RACCORDO
100
AcDbLine
 62
7
  6
CONTINUOUS
 10
7.4999238476
 20
55.5
 11
8.5
 21
55.5
  0
LINE
  5
4DD
100
AcDbEntity
  8
DRAFT
100
AcDbLine
 62
7
  6
CONTINUOUS
 10
8.5
 20
55.5
 11
13.1231261996
 21
55.5
  0
LINE
  5
4DE
100
AcDbEntity
  8
RACCORDO
100
AcDbLine
 62
7
  6
CONTINUOUS
 10
13.1231261996
 20
55.5
 11
14.1500761524
 21
55.5
  0
LINE
  5
4DF
100
AcDbEntity
  8
0
100
AcDbLine
 62
7
  6
CONTINUOUS
 10
3.2
 20
55.65
 11
0.75
 21
55.65
  0
LINE
  5
4E0
100
AcDbEntity
  8
0
100
AcDbLine
 62
7
  6
CONTINUOUS
 10
-0.75
 20
55.65
 11
-3.2
 21
55.65
  0
LINE
  5
4E1
100
AcDbEntity
  8
0
100
AcDbLine
 62
7
  6
CONTINUOUS
 10
-12.49359
 20
55.989925
 11
-12.297612
 21
55.989925
  0
LINE
  5
4E2
100
AcDbEntity
  8
0
100
AcDbLine
 62
7
  6
CONTINUOUS
 10
-11.596618
 20
55.989925
 11
-11.400757
 21
55.989925
  0
LINE
  5
4E3
100
AcDbEntity
  8
0
100
AcDbLine
 62
7
  6
CONTINUOUS
 10
-10.853402
 20
55.989925
 11
-10.651443
 21
55.989925
  0
LINE
  5
4E4
100
AcDbEntity
  8
0
100
AcDbLine
 62
7
  6
CONTINUOUS
 10
-9.77476
 20
55.989925
 11
-9.56072
 21
55.989925
  0
LINE
  5
4E5
100
AcDbEntity
  8
0
100
AcDbLine
 62
7
  6
CONTINUOUS
 10
-9.380927
 20
55.989925
 11
-8.449826
 21
55.989925
  0
LINE
  5
4E6
100
AcDbEntity
  8
0
100
AcDbLine
 62
7
  6
CONTINUOUS
 10
-8.138677
 20
55.989925
 11
-7.942816
 21
55.989925
  0
LINE
  5
4E7
100
AcDbEntity
  8
0
100
AcDbLine
 62
7
  6
CONTINUOUS
 10
-8.449826
 20
56.163502
 11
-9.185066
 21
56.163502
  0
LINE
  5
4E8
100
AcDbEntity
  8
0
100
AcDbLine
 62
7
  6
CONTINUOUS
 10
-1.0434405187
 20
61.5519584309
 11
-1.5336462119
 21
61.8112670934
  0
LWPOLYLINE
  5
4E9
100
AcDbEntity
  8
0
100
AcDbPolyline
 62
7
  6
CONTINUOUS
 90
13
 70
0
 10
7.7412491597
 20
57.297696
 10
7.808176804
 20
57.3021315956
 10
7.8697507628
 20
57.3129410606
 10
7.9259710361
 20
57.3301243949
 10
7.9770936095
 20
57.3543116658
 10
8.0228624974
 20
57.3848728061
 10
8.0625097433
 20
57.4199176139
 10
8.0957585082
 20
57.4589581645
 10
8.1228856311
 20
57.5024823826
 10
8.1439536725
 20
57.5500638407
 10
8.1589834858
 20
57.6015603961
 10
8.1679542176
 20
57.6571141916
 10
8.1708658678
 20
57.716725227
  0
LWPOLYLINE
  5
4EA
100
AcDbEntity
  8
0
100
AcDbPolyline
 62
7
  6
CONTINUOUS
 90
16
 70
0
 10
-9.158798173
 20
60.16047
 10
-9.0833978263
 20
60.1652237997
 10
-9.0127324351
 20
60.1767936298
 10
-8.9468019994
 20
60.1951794905
 10
-8.885526891
 20
60.2206159973
 10
-8.8289867382
 20
60.2528685345
 10
-8.7774204254
 20
60.2912332556
 10
-8.730891171
 20
60.3355814483
 10
-8.6893357567
 20
60.3860418248
 10
-8.6528034122
 20
60.4422966752
 10
-8.6209315651
 20
60.5048179283
 10
-8.5940827878
 20
60.5731336553
 10
-8.5733940271
 20
60.6455103596
 10
-8.5592442654
 20
60.7213702091
 10
-8.5512545203
 20
60.8012910359
 10
-8.5494247919
 20
60.88527284
  0
LWPOLYLINE
  5
4EB
100
AcDbEntity
  8
0
100
AcDbPolyline
 62
7
  6
CONTINUOUS
 90
16
 70
0
 10
-9.1850641332
 20
60.328184
 10
-9.1309766364
 20
60.3305455399
 10
-9.079984704
 20
60.3384500655
 10
-9.032088336
 20
60.3518975769
 10
-8.9870203015
 20
60.3710125096
 10
-8.9450478314
 20
60.3956704281
 10
-8.9069726185
 20
60.4254980258
 10
-8.8729089311
 20
60.4607082554
 10
-8.8427425009
 20
60.5010881642
 10
-8.8169322161
 20
60.5456255877
 10
-8.7957796814
 20
60.5944594625
 10
-8.7789832921
 20
60.6474508519
 10
-8.7660971223
 20
60.7031707819
 10
-8.7569725302
 20
60.7611429275
 10
-8.7517581578
 20
60.8218436135
 10
-8.7504540049
 20
60.88527284
  0
LWPOLYLINE
  5
4EC
100
AcDbEntity
  8
0
100
AcDbPolyline
 62
7
  6
CONTINUOUS
 90
19
 70
0
 10
11.8184243434
 20
56.685754
 10
11.8603131309
 20
56.6868705021
 10
11.9033003904
 20
56.6913267382
 10
11.9473861219
 20
56.6991227082
 10
11.9931057626
 20
56.7094933092
 10
12.0399238753
 20
56.7232036443
 10
12.0862341483
 20
56.7425490223
 10
12.132083877
 20
56.7682667216
 10
12.1774257659
 20
56.7996194639
 10
12.2205116168
 20
56.8366907235
 10
12.2615952627
 20
56.8795360573
 10
12.3004228706
 20
56.9280999084
 10
12.3344847428
 20
56.9822990803
 10
12.3631729969
 20
57.0426582636
 10
12.3870955153
 20
57.1086527677
 10
12.405566248
 20
57.1786253248
 10
12.4183565117
 20
57.2520235123
 10
12.4256949896
 20
57.3293997529
 10
12.4275816818
 20
57.4107540466
  0
LWPOLYLINE
  5
4ED
100
AcDbEntity
  8
0
100
AcDbPolyline
 62
7
  6
CONTINUOUS
 90
13
 70
0
 10
7.6827483055
 20
57.465308
 10
7.7251419129
 20
57.466036425
 10
7.7648459327
 20
57.4705026628
 10
7.8018603648
 20
57.4787067134
 10
7.8367077556
 20
57.4906031238
 10
7.8688655588
 20
57.5062373469
 10
7.8967661351
 20
57.5257457419
 10
7.9199491596
 20
57.5494589917
 10
7.9388749573
 20
57.5770464134
 10
7.9533568639
 20
57.6076523168
 10
7.9633326581
 20
57.6409914718
 10
7.9688645612
 20
57.6773491086
 10
7.9699525733
 20
57.716725227
  0
LINE
  5
4EE
100
AcDbEntity
  8
0
100
AcDbLine
 62
7
  6
CONTINUOUS
 10
-10.499914
 20
56.41214
 11
-9.918196
 21
56.41214
  0
LINE
  5
4EF
100
AcDbEntity
  8
DRAFT
100
AcDbLine
 62
7
  6
CONTINUOUS
 10
15.45
 20
56.5
 11
14.7968739821
 21
56.5
  0
LINE
  5
4F0
100
AcDbEntity
  8
0
100
AcDbLine
 62
7
  6
CONTINUOUS
 10
-1.5
 20
56.5
 11
-0.75
 21
56.5
  0
LINE
  5
4F1
100
AcDbEntity
  8
0
100
AcDbLine
 62
7
  6
CONTINUOUS
 10
0.75
 20
56.5
 11
1.5
 21
56.5
  0
LINE
  5
4F2
100
AcDbEntity
  8
DRAFT
100
AcDbLine
 62
7
  6
CONTINUOUS
 10
-14.7968739821
 20
56.5
 11
-15.45
 21
56.5
  0
LINE
  5
4F3
100
AcDbEntity
  8
0
100
AcDbLine
 62
7
  6
CONTINUOUS
 10
-9.988917
 20
56.585717
 11
-10.439397
 21
56.585717
  0
LINE
  5
4F4
100
AcDbEntity
  8
0
100
AcDbLine
 62
7
  6
CONTINUOUS
 10
7.089009
 20
56.685754
 11
7.284899
 21
56.685754
  0
LINE
  5
4F5
100
AcDbEntity
  8
0
100
AcDbLine
 62
7
  6
CONTINUOUS
 10
8.435969
 20
56.685754
 11
9.506325
 21
56.685754
  0
LINE
  5
4F6
100
AcDbEntity
  8
0
100
AcDbLine
 62
7
  6
CONTINUOUS
 10
9.762779
 20
56.685754
 11
9.952602
 21
56.685754
  0
LINE
  5
4F7
100
AcDbEntity
  8
0
100
AcDbLine
 62
7
  6
CONTINUOUS
 10
10.693687
 20
56.685754
 11
10.913849
 21
56.685754
  0
LINE
  5
4F8
100
AcDbEntity
  8
0
100
AcDbLine
 62
7
  6
CONTINUOUS
 10
11.230869
 20
56.685754
 11
11.8184243434
 21
56.685754
  0
LINE
  5
4F9
100
AcDbEntity
  8
0
100
AcDbLine
 62
7
  6
CONTINUOUS
 10
12.700904
 20
56.685754
 11
12.910991
 21
56.685754
  0
LINE
  5
4FA
100
AcDbEntity
  8
0
100
AcDbLine
 62
7
  6
CONTINUOUS
 10
11.7922087598
 20
56.853366
 11
11.426759
 21
56.853366
  0
LINE
  5
4FB
100
AcDbEntity
  8
0
100
AcDbLine
 62
7
  6
CONTINUOUS
 10
9.506325
 20
56.859433
 11
8.631859
 21
56.859433
  0
LINE
  5
4FC
100
AcDbEntity
  8
0
100
AcDbLine
 62
7
  6
CONTINUOUS
 10
12.910991
 20
56.899848
 11
12.700904
 21
56.899848
  0
LINE
  5
4FD
100
AcDbEntity
  8
0
100
AcDbLine
 62
7
  6
CONTINUOUS
 10
-12.087443
 20
57.267125
 11
-11.596618
 21
57.267125
  0
LINE
  5
4FE
100
AcDbEntity
  8
0
100
AcDbLine
 62
7
  6
CONTINUOUS
 10
-11.400757
 20
57.267125
 11
-10.909932
 21
57.267125
  0
LINE
  5
4FF
100
AcDbEntity
  8
0
100
AcDbLine
 62
7
  6
CONTINUOUS
 10
7.284899
 20
57.297696
 11
7.7412491597
 21
57.297696
  0
LINE
  5
500
100
AcDbEntity
  8
0
100
AcDbLine
 62
7
  6
CONTINUOUS
 10
8.631859
 20
57.344179
 11
9.425495
 21
57.344179
  0
LINE
  5
501
100
AcDbEntity
  8
0
100
AcDbLine
 62
7
  6
CONTINUOUS
 10
-7.395461
 20
57.440702
 11
-7.625686
 21
57.440702
  0
LINE
  5
502
100
AcDbEntity
  8
0
100
AcDbLine
 62
7
  6
CONTINUOUS
 10
-8.457918
 20
57.440702
 11
-8.686149
 21
57.440702
  0
LINE
  5
503
100
AcDbEntity
  8
0
100
AcDbLine
 62
7
  6
CONTINUOUS
 10
-9.185066
 20
57.440702
 11
-9.380927
 21
57.440702
  0
LINE
  5
504
100
AcDbEntity
  8
0
100
AcDbLine
 62
7
  6
CONTINUOUS
 10
-10.085909
 20
57.440702
 11
-10.308041
 21
57.440702
  0
LINE
  5
505
100
AcDbEntity
  8
0
100
AcDbLine
 62
7
  6
CONTINUOUS
 10
-10.909932
 20
57.440702
 11
-12.087443
 21
57.440702
  0
LINE
  5
506
100
AcDbEntity
  8
0
100
AcDbLine
 62
7
  6
CONTINUOUS
 10
-12.297612
 20
57.440702
 11
-12.49359
 21
57.440702
  0
LINE
  5
507
100
AcDbEntity
  8
0
100
AcDbLine
 62
7
  6
CONTINUOUS
 10
7.6827483055
 20
57.465308
 11
7.284899
 21
57.465308
  0
LINE
  5
508
100
AcDbEntity
  8
0
100
AcDbLine
 62
7
  6
CONTINUOUS
 10
9.425495
 20
57.517744
 11
8.631859
 21
57.517744
  0
LINE
  5
509
100
AcDbEntity
  8
0
100
AcDbLine
 62
7
  6
CONTINUOUS
 10
8.631859
 20
57.962075
 11
9.492128
 21
57.962075
  0
LINE
  5
50A
100
AcDbEntity
  8
0
100
AcDbLine
 62
7
  6
CONTINUOUS
 10
7.284899
 20
57.968143
 11
7.6827434517
 21
57.968143
  0
LINE
  5
50B
100
AcDbEntity
  8
0
100
AcDbLine
 62
7
  6
CONTINUOUS
 10
11.426759
 20
57.968143
 11
11.7922047262
 21
57.968143
  0
LINE
  5
50C
100
AcDbEntity
  8
DRAFT
100
AcDbLine
 62
7
  6
CONTINUOUS
 10
15.45
 20
58.0
 11
14.8744230428
 21
58.0
  0
LINE
  5
50D
100
AcDbEntity
  8
DRAFT
100
AcDbLine
 62
7
  6
CONTINUOUS
 10
-14.8744230428
 20
58.0
 11
-15.45
 21
58.0
  0
LINE
  5
50E
100
AcDbEntity
  8
0
100
AcDbLine
 62
7
  6
CONTINUOUS
 10
-10.848359
 20
58.075198
 11
-10.652381
 21
58.075198
  0
LINE
  5
50F
100
AcDbEntity
  8
0
100
AcDbLine
 62
7
  6
CONTINUOUS
 10
-10.317189
 20
58.075198
 11
-10.127192
 21
58.075198
  0
LINE
  5
510
100
AcDbEntity
  8
0
100
AcDbLine
 62
7
  6
CONTINUOUS
 10
-9.38597
 20
58.075198
 11
-9.165832
 21
58.075198
  0
LINE
  5
511
100
AcDbEntity
  8
0
100
AcDbLine
 62
7
  6
CONTINUOUS
 10
11.8184252421
 20
58.135754
 11
11.230869
 21
58.135754
  0
LINE
  5
512
100
AcDbEntity
  8
0
100
AcDbLine
 62
7
  6
CONTINUOUS
 10
10.913849
 20
58.135754
 11
10.724027
 21
58.135754
  0
LINE
  5
513
100
AcDbEntity
  8
0
100
AcDbLine
 62
7
  6
CONTINUOUS
 10
9.994962
 20
58.135754
 11
9.762779
 21
58.135754
  0
LINE
  5
514
100
AcDbEntity
  8
0
100
AcDbLine
 62
7
  6
CONTINUOUS
 10
9.492128
 20
58.135754
 11
8.435969
 21
58.135754
  0
LINE
  5
515
100
AcDbEntity
  8
0
100
AcDbLine
 62
7
  6
CONTINUOUS
 10
7.7412517458
 20
58.135754
 11
7.089009
 21
58.135754
  0
LINE
  5
516
100
AcDbEntity
  8
0
100
AcDbLine
 62
7
  6
CONTINUOUS
 10
7.930043
 20
58.864246
 11
8.125934
 21
58.864246
  0
LINE
  5
517
100
AcDbEntity
  8
0
100
AcDbLine
 62
7
  6
CONTINUOUS
 10
9.131603
 20
58.864246
 11
9.333561
 21
58.864246
  0
LINE
  5
518
100
AcDbEntity
  8
0
100
AcDbLine
 62
7
  6
CONTINUOUS
 10
10.209972
 20
58.864246
 11
10.424066
 21
58.864246
  0
LINE
  5
519
100
AcDbEntity
  8
0
100
AcDbLine
 62
7
  6
CONTINUOUS
 10
10.969376
 20
58.864246
 11
11.165152
 21
58.864246
  0
LINE
  5
51A
100
AcDbEntity
  8
0
100
AcDbLine
 62
7
  6
CONTINUOUS
 10
11.85987
 20
58.864246
 11
12.069957
 21
58.864246
  0
LINE
  5
51B
100
AcDbEntity
  8
0
100
AcDbLine
 62
7
  6
CONTINUOUS
 10
12.069957
 20
59.07834
 11
11.85987
 21
59.07834
  0
LINE
  5
51C
100
AcDbEntity
  8
0
100
AcDbLine
 62
7
  6
CONTINUOUS
 10
9.48503
 20
59.286251
 11
10.066632
 21
59.286251
  0
LINE
  5
51D
100
AcDbEntity
  8
0
100
AcDbLine
 62
7
  6
CONTINUOUS
 10
9.995993
 20
59.459931
 11
9.545594
 21
59.459931
  0
LINE
  5
51E
100
AcDbEntity
  8
0
100
AcDbLine
 62
7
  6
CONTINUOUS
 10
8.125934
 20
59.476188
 11
8.5823983921
 21
59.476188
  0
LINE
  5
51F
100
AcDbEntity
  8
0
100
AcDbLine
 62
7
  6
CONTINUOUS
 10
-9.165832
 20
59.524802
 11
-9.355594
 21
59.524802
  0
LINE
  5
520
100
AcDbEntity
  8
0
100
AcDbLine
 62
7
  6
CONTINUOUS
 10
-10.084853
 20
59.524802
 11
-10.317189
 21
59.524802
  0
LINE
  5
521
100
AcDbEntity
  8
0
100
AcDbLine
 62
7
  6
CONTINUOUS
 10
-10.652381
 20
59.524802
 11
-10.848359
 21
59.524802
  0
LINE
  5
522
100
AcDbEntity
  8
0
100
AcDbLine
 62
7
  6
CONTINUOUS
 10
8.5237834456
 20
59.6438
 11
8.125934
 21
59.6438
  0
LINE
  5
523
100
AcDbEntity
  8
0
100
AcDbLine
 62
7
  6
CONTINUOUS
 10
-2.69058809
 20
59.65
 11
-1.0892611057
 21
59.65
  0
LINE
  5
524
100
AcDbEntity
  8
0
100
AcDbLine
 62
7
  6
CONTINUOUS
 10
1.0881897671
 20
59.65
 11
2.69058809
 21
59.65
  0
LINE
  5
525
100
AcDbEntity
  8
0
100
AcDbLine
 62
7
  6
CONTINUOUS
 10
10.478563
 20
60.140567
 11
10.969376
 21
60.140567
  0
LINE
  5
526
100
AcDbEntity
  8
0
100
AcDbLine
 62
7
  6
CONTINUOUS
 10
11.165152
 20
60.140567
 11
11.655965
 21
60.140567
  0
LINE
  5
527
100
AcDbEntity
  8
0
100
AcDbLine
 62
7
  6
CONTINUOUS
 10
8.125934
 20
60.146634
 11
8.5237857659
 21
60.146634
  0
LINE
  5
528
100
AcDbEntity
  8
0
100
AcDbLine
 62
7
  6
CONTINUOUS
 10
-12.792424
 20
60.16047
 11
-12.602545
 21
60.16047
  0
LINE
  5
529
100
AcDbEntity
  8
0
100
AcDbLine
 62
7
  6
CONTINUOUS
 10
-12.194521
 20
60.16047
 11
-12.000654
 21
60.16047
  0
LINE
  5
52A
100
AcDbEntity
  8
0
100
AcDbLine
 62
7
  6
CONTINUOUS
 10
-11.59263
 20
60.16047
 11
-11.402751
 21
60.16047
  0
LINE
  5
52B
100
AcDbEntity
  8
0
100
AcDbLine
 62
7
  6
CONTINUOUS
 10
-11.229056
 20
60.16047
 11
-11.027097
 21
60.16047
  0
LINE
  5
52C
100
AcDbEntity
  8
0
100
AcDbLine
 62
7
  6
CONTINUOUS
 10
-10.150414
 20
60.16047
 11
-9.936375
 21
60.16047
  0
LINE
  5
52D
100
AcDbEntity
  8
0
100
AcDbLine
 62
7
  6
CONTINUOUS
 10
-9.746495
 20
60.16047
 11
-9.158798173
 21
60.16047
  0
LINE
  5
52E
100
AcDbEntity
  8
0
100
AcDbLine
 62
7
  6
CONTINUOUS
 10
-8.278125
 20
60.16047
 11
-7.207576
 21
60.16047
  0
LINE
  5
52F
100
AcDbEntity
  8
0
100
AcDbLine
 62
7
  6
CONTINUOUS
 10
11.655965
 20
60.314246
 11
10.478563
 21
60.314246
  0
LINE
  5
530
100
AcDbEntity
  8
0
100
AcDbLine
 62
7
  6
CONTINUOUS
 10
9.899021
 20
60.314246
 11
9.676913
 21
60.314246
  0
LINE
  5
531
100
AcDbEntity
  8
0
100
AcDbLine
 62
7
  6
CONTINUOUS
 10
8.5824000311
 20
60.314246
 11
7.930043
 21
60.314246
  0
LINE
  5
532
100
AcDbEntity
  8
0
100
AcDbLine
 62
7
  6
CONTINUOUS
 10
-9.1850641332
 20
60.328184
 11
-9.550634
 21
60.328184
  0
LINE
  5
533
100
AcDbEntity
  8
0
100
AcDbLine
 62
7
  6
CONTINUOUS
 10
-7.207576
 20
60.334048
 11
-8.082147
 21
60.334048
  0
LINE
  5
534
100
AcDbEntity
  8
0
100
AcDbLine
 62
7
  6
CONTINUOUS
 10
-10.875568
 20
60.582685
 11
-10.29385
 21
60.582685
  0
LINE
  5
535
100
AcDbEntity
  8
DRAFT
100
AcDbLine
 62
7
  6
CONTINUOUS
 10
-15.45
 20
60.75
 11
-13.6670833097
 21
60.75
  0
LINE
  5
536
100
AcDbEntity
  8
DRAFT
100
AcDbLine
 62
7
  6
CONTINUOUS
 10
13.6670833097
 20
60.75
 11
15.45
 21
60.75
  0
LINE
  5
537
100
AcDbEntity
  8
0
100
AcDbLine
 62
7
  6
CONTINUOUS
 10
-10.364571
 20
60.756263
 11
-10.814934
 21
60.756263
  0
LINE
  5
538
100
AcDbEntity
  8
0
100
AcDbLine
 62
7
  6
CONTINUOUS
 10
-8.082147
 20
60.818422
 11
-7.288383
 21
60.818422
  0
LWPOLYLINE
  5
539
100
AcDbEntity
  8
0
100
AcDbPolyline
 62
7
  6
CONTINUOUS
 90
13
 70
0
 10
8.5237857659
 20
60.146634
 10
8.5652717778
 20
60.1456762886
 10
8.604264031
 20
60.1411782783
 10
8.6407625253
 20
60.133139969
 10
8.6752553866
 20
60.1217363971
 10
8.707254489
 20
60.1067925263
 10
8.7352954555
 20
60.0877832472
 10
8.7591268359
 20
60.0642404364
 10
8.7790000805
 20
60.0366322172
 10
8.7942051627
 20
60.0058378513
 10
8.804505407
 20
59.9721504256
 10
8.810137489
 20
59.9352768532
 10
8.8111014086
 20
59.8952171338
  0
LWPOLYLINE
  5
53A
100
AcDbEntity
  8
0
100
AcDbPolyline
 62
7
  6
CONTINUOUS
 90
13
 70
0
 10
8.5824000311
 20
60.314246
 10
8.6444102685
 20
60.3109988341
 10
8.7024691447
 20
60.301499697
 10
8.7565766599
 20
60.2857485886
 10
8.8071949912
 20
60.2636756792
 10
8.8538619614
 20
60.2353507986
 10
8.8951910384
 20
60.2009834358
 10
8.9313232377
 20
60.1596467162
 10
8.9621175439
 20
60.1122675143
 10
8.9857643779
 20
60.0618359439
 10
9.0016605469
 20
60.0093487092
 10
9.0104092438
 20
59.9538091058
 10
9.0120104686
 20
59.8952171338
  0
LWPOLYLINE
  5
53B
100
AcDbEntity
  8
0
100
AcDbPolyline
 62
7
  6
CONTINUOUS
 90
13
 70
0
 10
11.7922047262
 20
57.968143
 10
11.8668056756
 20
57.9625151949
 10
11.9346285452
 20
57.9472855699
 10
11.9956733351
 20
57.9224541252
 10
12.0503442975
 20
57.8868703122
 10
12.0982371801
 20
57.8416846794
 10
12.1381392263
 20
57.7903488721
 10
12.168929654
 20
57.7321367578
 10
12.1917292452
 20
57.6677744691
 10
12.2086875896
 20
57.6028920493
 10
12.2205212171
 20
57.5393661795
 10
12.2265135977
 20
57.4753201786
 10
12.2266647314
 20
57.4107540466
  0
LWPOLYLINE
  5
53C
100
AcDbEntity
  8
0
100
AcDbPolyline
 62
7
  6
CONTINUOUS
 90
9
 70
0
 10
0.0871085552
 20
62.0797904427
 10
0.0141315002
 20
62.0746304136
 10
-0.0577555788
 20
62.0645827843
 10
-0.1282283375
 20
62.0497708098
 10
-0.1969740694
 20
62.0303390634
 10
-0.2636930926
 20
62.0064524302
 10
-0.3281000545
 20
61.9782950112
 10
-0.3899251475
 20
61.9460689454
 10
-0.4489152318
 20
61.9099931548
  0
LINE
  5
53D
100
AcDbEntity
  8
0
100
AcDbLine
 62
7
  6
CONTINUOUS
 10
0.1608410672
 20
62.0799618461
 11
0.0871085552
 21
62.0797904427
  0
LINE
  5
53E
100
AcDbEntity
  8
0
100
AcDbLine
 62
7
  6
CONTINUOUS
 10
-7.288383
 20
60.991999
 11
-8.082147
 21
60.991999
  0
LINE
  5
53F
100
AcDbEntity
  8
0
100
AcDbLine
 62
7
  6
CONTINUOUS
 10
-8.082147
 20
61.436498
 11
-7.221767
 21
61.436498
  0
LINE
  5
540
100
AcDbEntity
  8
0
100
AcDbLine
 62
7
  6
CONTINUOUS
 10
-9.550634
 20
61.442362
 11
-9.1850661958
 21
61.442362
  0
LINE
  5
541
100
AcDbEntity
  8
0
100
AcDbLine
 62
7
  6
CONTINUOUS
 10
-7.221767
 20
61.610075
 11
-8.278125
 21
61.610075
  0
LINE
  5
542
100
AcDbEntity
  8
0
100
AcDbLine
 62
7
  6
CONTINUOUS
 10
-9.1587940139
 20
61.610075
 11
-9.746495
 21
61.610075
  0
LINE
  5
543
100
AcDbEntity
  8
0
100
AcDbLine
 62
7
  6
CONTINUOUS
 10
-10.461563
 20
61.610075
 11
-10.683695
 21
61.610075
  0
LINE
  5
544
100
AcDbEntity
  8
0
100
AcDbLine
 62
7
  6
CONTINUOUS
 10
-11.402751
 20
61.610075
 11
-11.68153
 21
61.610075
  0
LINE
  5
545
100
AcDbEntity
  8
0
100
AcDbLine
 62
7
  6
CONTINUOUS
 10
-12.511651
 20
61.610075
 11
-12.792424
 21
61.610075
  0
LINE
  5
546
100
AcDbEntity
  8
ASSI
100
AcDbLine
 62
7
  6
CONTINUOUS
 10
14.5
 20
62.0
 11
5.7
 21
62.0
  0
LINE
  5
547
100
AcDbEntity
  8
ASSI
100
AcDbLine
 62
7
  6
CONTINUOUS
 10
-5.7
 20
62.0
 11
-14.5
 21
62.0
  0
LINE
  5
548
100
AcDbEntity
  8
0
100
AcDbLine
 62
7
  6
CONTINUOUS
 10
-2.69058809
 20
62.35
 11
-1.0881211515
 21
62.35
  0
LINE
  5
549
100
AcDbEntity
  8
0
100
AcDbLine
 62
7
  6
CONTINUOUS
 10
1.0885513671
 20
62.35
 11
2.69058809
 21
62.35
  0
LINE
  5
54A
100
AcDbEntity
  8
ASSI
100
AcDbLine
 62
7
  6
CONTINUOUS
 10
-14.5
 20
63.4
 11
-5.7
 21
63.4
  0
LINE
  5
54B
100
AcDbEntity
  8
ASSI
100
AcDbLine
 62
7
  6
CONTINUOUS
 10
5.7
 20
63.4
 11
14.5
 21
63.4
  0
LINE
  5
54C
100
AcDbEntity
  8
DRAFT
100
AcDbLine
 62
7
  6
CONTINUOUS
 10
-13.75
 20
64.6
 11
-4.5
 21
64.6
  0
LINE
  5
54D
100
AcDbEntity
  8
DRAFT
100
AcDbLine
 62
7
  6
CONTINUOUS
 10
4.5
 20
64.6
 11
13.75
 21
64.6
  0
LINE
  5
54E
100
AcDbEntity
  8
DRAFT
100
AcDbLine
 62
7
  6
CONTINUOUS
 10
-4.5
 20
65.2
 11
-3.25
 21
65.2
  0
LINE
  5
54F
100
AcDbEntity
  8
DRAFT
100
AcDbLine
 62
7
  6
CONTINUOUS
 10
3.25
 20
65.2
 11
4.5
 21
65.2
  0
LINE
  5
550
100
AcDbEntity
  8
ASSI
100
AcDbLine
 62
7
  6
CONTINUOUS
 10
-11.6
 20
65.4
 11
-8.6
 21
65.4
  0
LINE
  5
551
100
AcDbEntity
  8
ASSI
100
AcDbLine
 62
7
  6
CONTINUOUS
 10
11.6
 20
65.4
 11
8.6
 21
65.4
  0
LINE
  5
552
100
AcDbEntity
  8
0
100
AcDbLine
 62
7
  6
CONTINUOUS
 10
-3.25
 20
67.5
 11
3.25
 21
67.5
  0
ARC
  5
553
100
AcDbEntity
  8
0
100
AcDbCircle
 62
7
  6
CONTINUOUS
 10
-10.0
 20
-57.5
 40
4.9
100
AcDbArc
 50
185.8567019099
 51
221.5493816378
  0
ARC
  5
554
100
AcDbEntity
  8
DRAFT
100
AcDbCircle
 62
7
  6
CONTINUOUS
 10
-10.0
 20
-57.5
 40
4.9
100
AcDbArc
 50
349.1736953519
 51
35.5654568761
  0
ARC
  5
555
100
AcDbEntity
  8
RACCORDO
100
AcDbCircle
 62
7
  6
CONTINUOUS
 10
-10.0
 20
-57.5
 40
4.9
100
AcDbArc
 50
154.7816696291
 51
168.2242560141
  0
ARC
  5
556
100
AcDbEntity
  8
0
100
AcDbCircle
 62
7
  6
CONTINUOUS
 10
-1.5
 20
-61.0
 40
4.5
100
AcDbArc
 50
90.0
 51
145.0228776731
  0
ARC
  5
557
100
AcDbEntity
  8
DRAFT
100
AcDbCircle
 62
7
  6
CONTINUOUS
 10
-13.75
 20
-61.6
 40
3.0
100
AcDbArc
 50
180.0
 51
270.0
  0
ARC
  5
558
100
AcDbEntity
  8
ASSI
100
AcDbCircle
 62
7
  6
CONTINUOUS
 10
-6.582444
 20
-59.0
 40
2.5499986575
100
AcDbArc
 50
87.752529198
 51
272.247470802
  0
ARC
  5
559
100
AcDbEntity
  8
ASSI
100
AcDbCircle
 62
7
  6
CONTINUOUS
 10
-10.967554
 20
-59.0
 40
2.5499985399
100
AcDbArc
 50
87.7525290943
 51
272.2474709057
  0
ARC
  5
55A
100
AcDbEntity
  8
0
100
AcDbCircle
 62
7
  6
CONTINUOUS
 10
-1.5
 20
-61.0
 40
1.8
100
AcDbArc
 50
131.4096221093
 51
228.5903778907
  0
ARC
  5
55B
100
AcDbEntity
  8
ASSI
100
AcDbCircle
 62
7
  6
CONTINUOUS
 10
-10.967554
 20
-59.0
 40
1.7999999246
100
AcDbArc
 50
86.8152613297
 51
273.1847386703
  0
ARC
  5
55C
100
AcDbEntity
  8
ASSI
100
AcDbCircle
 62
7
  6
CONTINUOUS
 10
-6.582444
 20
-59.0
 40
1.7999999246
100
AcDbArc
 50
86.8152613297
 51
167.9753003079
  0
ARC
  5
55D
100
AcDbEntity
  8
ASSI
100
AcDbCircle
 62
7
  6
CONTINUOUS
 10
-6.582444
 20
-59.0
 40
1.7999968808
100
AcDbArc
 50
192.0247203293
 51
273.1847440612
  0
ARC
  5
55E
100
AcDbEntity
  8
DRAFT
100
AcDbCircle
 62
7
  6
CONTINUOUS
 10
-7.25
 20
-54.25
 40
1.039270267
100
AcDbArc
 50
279.2548390025
 51
337.3633712189
  0
ARC
  5
55F
100
AcDbEntity
  8
ASSI
100
AcDbCircle
 62
7
  6
CONTINUOUS
 10
-7.25
 20
-2.75
 40
1.0
100
AcDbArc
 50
23.5781784782
 51
78.8501975388
  0
ARC
  5
560
100
AcDbEntity
  8
ASSI
100
AcDbCircle
 62
7
  6
CONTINUOUS
 10
-7.25
 20
-54.25
 40
1.0
100
AcDbArc
 50
23.8649488655
 51
90.8879324622
  0
ARC
  5
561
100
AcDbEntity
  8
ASSI
100
AcDbCircle
 62
7
  6
CONTINUOUS
 10
-7.25
 20
-2.75
 40
1.0
100
AcDbArc
 50
269.2133967148
 51
336.1350511345
  0
ARC
  5
562
100
AcDbEntity
  8
DRAFT
100
AcDbCircle
 62
7
  6
CONTINUOUS
 10
-7.25
 20
-54.25
 40
1.0
100
AcDbArc
 50
266.8372870044
 51
344.390053961
  0
ARC
  5
563
100
AcDbEntity
  8
ASSI
100
AcDbCircle
 62
7
  6
CONTINUOUS
 10
-14.5
 20
-62.7
 40
0.7
100
AcDbArc
 50
90.0
 51
270.0
  0
ARC
  5
564
100
AcDbEntity
  8
ASSI
100
AcDbCircle
 62
7
  6
CONTINUOUS
 10
-5.7
 20
-62.7
 40
0.7
100
AcDbArc
 50
270.0
 51
90.0
  0
ARC
  5
565
100
AcDbEntity
  8
ASSI
100
AcDbCircle
 62
7
  6
CONTINUOUS
 10
-7.5
 20
-2.0
 40
0.5
100
AcDbArc
 50
27.5323849923
 51
90.0
  0
ARC
  5
566
100
AcDbEntity
  8
0
100
AcDbCircle
 62
7
  6
CONTINUOUS
 10
-10.0
 20
57.5
 40
4.9
100
AcDbArc
 50
138.4506183622
 51
174.1432980901
  0
ARC
  5
567
100
AcDbEntity
  8
DRAFT
100
AcDbCircle
 62
7
  6
CONTINUOUS
 10
-10.0
 20
57.5
 40
4.9
100
AcDbArc
 50
324.4345431239
 51
10.8263046481
  0
ARC
  5
568
100
AcDbEntity
  8
RACCORDO
100
AcDbCircle
 62
7
  6
CONTINUOUS
 10
-10.0
 20
57.5
 40
4.9
100
AcDbArc
 50
191.7757439859
 51
205.2183303709
  0
ARC
  5
569
100
AcDbEntity
  8
0
100
AcDbCircle
 62
7
  6
CONTINUOUS
 10
-1.5
 20
61.0
 40
4.5
100
AcDbArc
 50
214.9771223269
 51
270.0
  0
ARC
  5
56A
100
AcDbEntity
  8
DRAFT
100
AcDbCircle
 62
7
  6
CONTINUOUS
 10
-13.75
 20
61.6
 40
3.0
100
AcDbArc
 50
90.0
 51
180.0
  0
ARC
  5
56B
100
AcDbEntity
  8
0
100
AcDbCircle
 62
7
  6
CONTINUOUS
 10
-1.5
 20
61.0
 40
1.8
100
AcDbArc
 50
131.4096221093
 51
228.5903778907
  0
ARC
  5
56C
100
AcDbEntity
  8
DRAFT
100
AcDbCircle
 62
7
  6
CONTINUOUS
 10
-7.25
 20
54.25
 40
1.039270267
100
AcDbArc
 50
22.6366287811
 51
80.7451609975
  0
ARC
  5
56D
100
AcDbEntity
  8
ASSI
100
AcDbCircle
 62
7
  6
CONTINUOUS
 10
-7.25
 20
2.75
 40
1.0
100
AcDbArc
 50
281.1498024612
 51
336.4218215218
  0
ARC
  5
56E
100
AcDbEntity
  8
ASSI
100
AcDbCircle
 62
7
  6
CONTINUOUS
 10
-7.25
 20
2.75
 40
1.0
100
AcDbArc
 50
23.8649488655
 51
90.8879324622
  0
ARC
  5
56F
100
AcDbEntity
  8
ASSI
100
AcDbCircle
 62
7
  6
CONTINUOUS
 10
-7.25
 20
54.25
 40
1.0
100
AcDbArc
 50
269.2133967148
 51
336.1350511345
  0
ARC
  5
570
100
AcDbEntity
  8
DRAFT
100
AcDbCircle
 62
7
  6
CONTINUOUS
 10
-7.25
 20
54.25
 40
1.0
100
AcDbArc
 50
15.609946039
 51
93.1627129956
  0
ARC
  5
571
100
AcDbEntity
  8
ASSI
100
AcDbCircle
 62
7
  6
CONTINUOUS
 10
-14.5
 20
62.7
 40
0.7
100
AcDbArc
 50
90.0
 51
270.0
  0
ARC
  5
572
100
AcDbEntity
  8
ASSI
100
AcDbCircle
 62
7
  6
CONTINUOUS
 10
-5.7
 20
62.7
 40
0.7
100
AcDbArc
 50
270.0
 51
90.0
  0
ARC
  5
573
100
AcDbEntity
  8
ASSI
100
AcDbCircle
 62
7
  6
CONTINUOUS
 10
-7.5
 20
2.0
 40
0.5
100
AcDbArc
 50
270.0
 51
332.4676150077
  0
ARC
  5
574
100
AcDbEntity
  8
0
100
AcDbCircle
 62
7
  6
CONTINUOUS
 10
10.0
 20
-57.5
 40
4.9
100
AcDbArc
 50
318.4506183622
 51
354.1432980901
  0
ARC
  5
575
100
AcDbEntity
  8
DRAFT
100
AcDbCircle
 62
7
  6
CONTINUOUS
 10
10.0
 20
-57.5
 40
4.9
100
AcDbArc
 50
144.4345431239
 51
190.8263046481
  0
ARC
  5
576
100
AcDbEntity
  8
RACCORDO
100
AcDbCircle
 62
7
  6
CONTINUOUS
 10
10.0
 20
-57.5
 40
4.9
100
AcDbArc
 50
11.7757439859
 51
25.2183303709
  0
ARC
  5
577
100
AcDbEntity
  8
0
100
AcDbCircle
 62
7
  6
CONTINUOUS
 10
1.5
 20
-61.0
 40
4.5
100
AcDbArc
 50
34.9771223269
 51
90.0
  0
ARC
  5
578
100
AcDbEntity
  8
RACCORDO
100
AcDbCircle
 62
7
  6
CONTINUOUS
 10
-0.0
 20
-61.0
 40
3.2043457495
100
AcDbArc
 50
164.8134211346
 51
195.1865788646
  0
ARC
  5
579
100
AcDbEntity
  8
RACCORDO
100
AcDbCircle
 62
7
  6
CONTINUOUS
 10
-0.0
 20
-61.0
 40
3.2043457495
100
AcDbArc
 50
344.8134211346
 51
15.1865788646
  0
ARC
  5
57A
100
AcDbEntity
  8
DRAFT
100
AcDbCircle
 62
7
  6
CONTINUOUS
 10
13.75
 20
-61.6
 40
3.0
100
AcDbArc
 50
270.0
 51
360.0
  0
ARC
  5
57B
100
AcDbEntity
  8
RACCORDO
100
AcDbCircle
 62
250
  6
CONTINUOUS
 10
-0.0
 20
-61.0
 40
2.7043456907
100
AcDbArc
 50
150.0523331361
 51
209.9476655275
  0
ARC
  5
57C
100
AcDbEntity
  8
RACCORDO
100
AcDbCircle
 62
250
  6
CONTINUOUS
 10
-0.0
 20
-61.0
 40
2.7043456907
100
AcDbArc
 50
330.0523331361
 51
29.9476655275
  0
ARC
  5
57D
100
AcDbEntity
  8
0
100
AcDbCircle
 62
250
  6
CONTINUOUS
 10
-0.0
 20
-61.0
 40
1.85
100
AcDbArc
 50
133.1025718338
 51
226.8974370705
  0
ARC
  5
57E
100
AcDbEntity
  8
0
100
AcDbCircle
 62
250
  6
CONTINUOUS
 10
-0.0
 20
-61.0
 40
1.85
100
AcDbArc
 50
313.1025718338
 51
46.8974370705
  0
ARC
  5
57F
100
AcDbEntity
  8
0
100
AcDbCircle
 62
7
  6
CONTINUOUS
 10
1.5
 20
-61.0
 40
1.8
100
AcDbArc
 50
311.4096221093
 51
48.5903778907
  0
ARC
  5
580
100
AcDbEntity
  8
0
100
AcDbCircle
 62
7
  6
CONTINUOUS
 10
-0.0
 20
-61.0
 40
1.25
100
AcDbArc
 50
10.4804536421
 51
94.6201597509
  0
ARC
  5
581
100
AcDbEntity
  8
DRAFT
100
AcDbCircle
 62
7
  6
CONTINUOUS
 10
7.25
 20
-54.25
 40
1.039270267
100
AcDbArc
 50
202.6366287811
 51
260.7451609975
  0
ARC
  5
582
100
AcDbEntity
  8
ASSI
100
AcDbCircle
 62
7
  6
CONTINUOUS
 10
7.25
 20
-2.75
 40
1.0
100
AcDbArc
 50
101.1498024612
 51
156.4218215218
  0
ARC
  5
583
100
AcDbEntity
  8
ASSI
100
AcDbCircle
 62
7
  6
CONTINUOUS
 10
7.25
 20
-54.25
 40
1.0
100
AcDbArc
 50
89.2133967148
 51
156.1350511345
  0
ARC
  5
584
100
AcDbEntity
  8
ASSI
100
AcDbCircle
 62
7
  6
CONTINUOUS
 10
7.25
 20
-2.75
 40
1.0
100
AcDbArc
 50
203.8649488655
 51
270.8879324622
  0
ARC
  5
585
100
AcDbEntity
  8
DRAFT
100
AcDbCircle
 62
7
  6
CONTINUOUS
 10
7.25
 20
-54.25
 40
1.0
100
AcDbArc
 50
195.609946039
 51
273.1627129956
  0
ARC
  5
586
100
AcDbEntity
  8
ASSI
100
AcDbCircle
 62
7
  6
CONTINUOUS
 10
14.5
 20
-62.7
 40
0.7
100
AcDbArc
 50
270.0
 51
90.0
  0
ARC
  5
587
100
AcDbEntity
  8
ASSI
100
AcDbCircle
 62
7
  6
CONTINUOUS
 10
5.7
 20
-62.7
 40
0.7
100
AcDbArc
 50
90.0
 51
270.0
  0
ARC
  5
588
100
AcDbEntity
  8
ASSI
100
AcDbCircle
 62
7
  6
CONTINUOUS
 10
7.5
 20
-2.0
 40
0.5
100
AcDbArc
 50
90.0
 51
152.4676150077
  0
ARC
  5
589
100
AcDbEntity
  8
0
100
AcDbCircle
 62
7
  6
CONTINUOUS
 10
10.0
 20
57.5
 40
4.9
100
AcDbArc
 50
5.8567019099
 51
41.5493816378
  0
ARC
  5
58A
100
AcDbEntity
  8
DRAFT
100
AcDbCircle
 62
7
  6
CONTINUOUS
 10
10.0
 20
57.5
 40
4.9
100
AcDbArc
 50
169.1736953519
 51
215.5654568761
  0
ARC
  5
58B
100
AcDbEntity
  8
RACCORDO
100
AcDbCircle
 62
7
  6
CONTINUOUS
 10
10.0
 20
57.5
 40
4.9
100
AcDbArc
 50
334.7816696291
 51
348.2242560141
  0
ARC
  5
58C
100
AcDbEntity
  8
0
100
AcDbCircle
 62
7
  6
CONTINUOUS
 10
1.5
 20
61.0
 40
4.5
100
AcDbArc
 50
270.0
 51
325.0228776731
  0
ARC
  5
58D
100
AcDbEntity
  8
RACCORDO
100
AcDbCircle
 62
7
  6
CONTINUOUS
 10
0.0
 20
61.0
 40
3.2043457495
100
AcDbArc
 50
164.8134211346
 51
195.1865788646
  0
ARC
  5
58E
100
AcDbEntity
  8
RACCORDO
100
AcDbCircle
 62
7
  6
CONTINUOUS
 10
0.0
 20
61.0
 40
3.2043457495
100
AcDbArc
 50
344.8134211346
 51
15.1865788646
  0
ARC
  5
58F
100
AcDbEntity
  8
DRAFT
100
AcDbCircle
 62
7
  6
CONTINUOUS
 10
13.75
 20
61.6
 40
3.0
100
AcDbArc
 50
0.0
 51
90.0
  0
ARC
  5
590
100
AcDbEntity
  8
RACCORDO
100
AcDbCircle
 62
250
  6
CONTINUOUS
 10
0.0
 20
61.0
 40
2.7043456907
100
AcDbArc
 50
150.0523331361
 51
209.9476655275
  0
ARC
  5
591
100
AcDbEntity
  8
RACCORDO
100
AcDbCircle
 62
250
  6
CONTINUOUS
 10
0.0
 20
61.0
 40
2.7043456907
100
AcDbArc
 50
330.0523331361
 51
29.9476655275
  0
ARC
  5
592
100
AcDbEntity
  8
0
100
AcDbCircle
 62
250
  6
CONTINUOUS
 10
0.0
 20
61.0
 40
1.85
100
AcDbArc
 50
133.1025718338
 51
226.8974370705
  0
ARC
  5
593
100
AcDbEntity
  8
0
100
AcDbCircle
 62
250
  6
CONTINUOUS
 10
0.0
 20
61.0
 40
1.85
100
AcDbArc
 50
313.1025718338
 51
46.8974370705
  0
ARC
  5
594
100
AcDbEntity
  8
0
100
AcDbCircle
 62
7
  6
CONTINUOUS
 10
1.5
 20
61.0
 40
1.8
100
AcDbArc
 50
311.4096221093
 51
48.5903778907
  0
ARC
  5
595
100
AcDbEntity
  8
0
100
AcDbCircle
 62
7
  6
CONTINUOUS
 10
0.0
 20
61.0
 40
1.25
100
AcDbArc
 50
10.4804536421
 51
94.6201597509
  0
ARC
  5
596
100
AcDbEntity
  8
DRAFT
100
AcDbCircle
 62
7
  6
CONTINUOUS
 10
7.25
 20
54.25
 40
1.039270267
100
AcDbArc
 50
99.2548390025
 51
157.3633712189
  0
ARC
  5
597
100
AcDbEntity
  8
ASSI
100
AcDbCircle
 62
7
  6
CONTINUOUS
 10
7.25
 20
2.75
 40
1.0
100
AcDbArc
 50
203.5781784782
 51
258.8501975388
  0
ARC
  5
598
100
AcDbEntity
  8
ASSI
100
AcDbCircle
 62
7
  6
CONTINUOUS
 10
7.25
 20
2.75
 40
1.0
100
AcDbArc
 50
89.2133967148
 51
156.1350511345
  0
ARC
  5
599
100
AcDbEntity
  8
ASSI
100
AcDbCircle
 62
7
  6
CONTINUOUS
 10
7.25
 20
54.25
 40
1.0
100
AcDbArc
 50
203.8649488655
 51
270.8879324622
  0
ARC
  5
59A
100
AcDbEntity
  8
DRAFT
100
AcDbCircle
 62
7
  6
CONTINUOUS
 10
7.25
 20
54.25
 40
1.0
100
AcDbArc
 50
86.8372870044
 51
164.390053961
  0
ARC
  5
59B
100
AcDbEntity
  8
ASSI
100
AcDbCircle
 62
7
  6
CONTINUOUS
 10
14.5
 20
62.7
 40
0.7
100
AcDbArc
 50
270.0
 51
90.0
  0
ARC
  5
59C
100
AcDbEntity
  8
ASSI
100
AcDbCircle
 62
7
  6
CONTINUOUS
 10
5.7
 20
62.7
 40
0.7
100
AcDbArc
 50
90.0
 51
270.0
  0
ARC
  5
59D
100
AcDbEntity
  8
ASSI
100
AcDbCircle
 62
7
  6
CONTINUOUS
 10
7.5
 20
2.0
 40
0.5
100
AcDbArc
 50
207.5323849923
 51
270.0
  0
ELLIPSE
  5
59E
100
AcDbEntity
  8
RACCORDO
100
AcDbEllipse
 62
7
  6
CONTINUOUS
 10
2.0
 20
54.6447634805
 30
0.0
 11
1.0
 21
-0.0
 31
0.0
 40
0.0174550649
 41
-1.5707963268
 42
0.0
  0
ELLIPSE
  5
59F
100
AcDbEntity
  8
RACCORDO
100
AcDbEllipse
 62
7
  6
CONTINUOUS
 10
-2.0
 20
54.6447634805
 30
0.0
 11
1.0
 21
-0.0
 31
0.0
 40
0.0174550649
 41
-3.1415926536
 42
-1.5707963268
  0
ELLIPSE
  5
5A0
100
AcDbEntity
  8
RACCORDO
100
AcDbEllipse
 62
7
  6
CONTINUOUS
 10
2.0
 20
-54.6447634805
 30
0.0
 11
1.0
 21
-0.0
 31
0.0
 40
0.0174550649
 41
0.0
 42
1.5707963268
  0
ELLIPSE
  5
5A1
100
AcDbEntity
  8
RACCORDO
100
AcDbEllipse
 62
7
  6
CONTINUOUS
 10
-2.0
 20
-54.6447634805
 30
0.0
 11
1.0
 21
-0.0
 31
0.0
 40
0.0174550649
 41
1.5707963268
 42
3.1415926536
  0
ELLIPSE
  5
5A2
100
AcDbEntity
  8
DRAFT
100
AcDbEllipse
 62
7
  6
CONTINUOUS
 10
-7.500076164
 20
-54.999923836
 30
0.0
 11
-0.3536610946
 21
0.3536610946
 31
0.0
 40
0.9996954599
 41
-3.9268385237
 42
-2.9402659397
  0
ELLIPSE
  5
5A3
100
AcDbEntity
  8
RACCORDO
100
AcDbEllipse
 62
7
  6
CONTINUOUS
 10
14.149923836
 20
-54.999923836
 30
0.0
 11
0.3536610946
 21
-0.3536610946
 31
0.0
 40
0.9996954599
 41
-0.7852458701
 42
-0.1838612458
  0
ELLIPSE
  5
5A4
100
AcDbEntity
  8
RACCORDO
100
AcDbEllipse
 62
7
  6
CONTINUOUS
 10
14.176903484
 20
-55.026903484
 30
0.0
 11
-0.203331579
 21
0.4589726372
 31
0.0
 40
0.9954309686
 41
-2.9832340272
 42
-1.986437287
  0
ELLIPSE
  5
5A5
100
AcDbEntity
  8
RACCORDO
100
AcDbEllipse
 62
7
  6
CONTINUOUS
 10
-14.149923836
 20
54.999923836
 30
0.0
 11
-0.3536610946
 21
0.3536610946
 31
0.0
 40
0.9996954599
 41
-0.7852458701
 42
-0.1838612458
  0
ELLIPSE
  5
5A6
100
AcDbEntity
  8
RACCORDO
100
AcDbEllipse
 62
7
  6
CONTINUOUS
 10
-14.176903484
 20
55.026903484
 30
0.0
 11
-0.203331579
 21
0.4589726372
 31
0.0
 40
0.9954309686
 41
0.1583586264
 42
1.1551553666
  0
ELLIPSE
  5
5A7
100
AcDbEntity
  8
RACCORDO
100
AcDbEllipse
 62
7
  6
CONTINUOUS
 10
14.176903484
 20
55.026903484
 30
0.0
 11
0.203331579
 21
0.4589726372
 31
0.0
 40
0.9954309686
 41
-1.1551553666
 42
-0.1583586264
  0
ELLIPSE
  5
5A8
100
AcDbEntity
  8
RACCORDO
100
AcDbEllipse
 62
7
  6
CONTINUOUS
 10
14.149923836
 20
54.999923836
 30
0.0
 11
0.3536610946
 21
0.3536610946
 31
0.0
 40
0.9996954599
 41
0.1838612458
 42
0.7852458701
  0
ELLIPSE
  5
5A9
100
AcDbEntity
  8
RACCORDO
100
AcDbEllipse
 62
7
  6
CONTINUOUS
 10
-14.176903484
 20
-55.026903484
 30
0.0
 11
0.203331579
 21
0.4589726372
 31
0.0
 40
0.9954309686
 41
-4.2967480202
 42
-3.29995128
  0
ELLIPSE
  5
5AA
100
AcDbEntity
  8
RACCORDO
100
AcDbEllipse
 62
7
  6
CONTINUOUS
 10
-14.149923836
 20
-54.999923836
 30
0.0
 11
0.3536610946
 21
0.3536610946
 31
0.0
 40
0.9996954599
 41
-2.9577314078
 42
-2.3563467834
  0
ELLIPSE
  5
5AB
100
AcDbEntity
  8
RACCORDO
100
AcDbEllipse
 62
7
  6
CONTINUOUS
 10
-14.1798889187
 20
-54.15
 30
0.0
 11
-0.0
 21
1.0
 31
0.0
 40
1.0
 41
-3.1415926536
 42
-2.0943951024
  0
ELLIPSE
  5
5AC
100
AcDbEntity
  8
RACCORDO
100
AcDbEllipse
 62
7
  6
CONTINUOUS
 10
-14.1798889187
 20
-2.85
 30
0.0
 11
1.0
 21
0.0
 31
0.0
 40
1.0
 41
0.5235987756
 42
1.5707963268
  0
ELLIPSE
  5
5AD
100
AcDbEntity
  8
RACCORDO
100
AcDbEllipse
 62
7
  6
CONTINUOUS
 10
-14.1798889187
 20
2.85
 30
0.0
 11
0.0
 21
1.0
 31
0.0
 40
1.0
 41
-3.1415926536
 42
-2.0943951024
  0
ELLIPSE
  5
5AE
100
AcDbEntity
  8
RACCORDO
100
AcDbEllipse
 62
7
  6
CONTINUOUS
 10
-14.1798889187
 20
54.15
 30
0.0
 11
1.0
 21
-0.0
 31
0.0
 40
1.0
 41
0.5235987756
 42
1.5707963268
  0
ELLIPSE
  5
5AF
100
AcDbEntity
  8
RACCORDO
100
AcDbEllipse
 62
7
  6
CONTINUOUS
 10
14.1798889187
 20
54.15
 30
0.0
 11
0.0
 21
1.0
 31
0.0
 40
1.0
 41
0.0
 42
1.0471975512
  0
ELLIPSE
  5
5B0
100
AcDbEntity
  8
RACCORDO
100
AcDbEllipse
 62
7
  6
CONTINUOUS
 10
14.1798889187
 20
2.85
 30
0.0
 11
-0.0
 21
1.0
 31
0.0
 40
1.0
 41
-4.1887902048
 42
-3.1415926536
  0
ELLIPSE
  5
5B1
100
AcDbEntity
  8
RACCORDO
100
AcDbEllipse
 62
7
  6
CONTINUOUS
 10
14.1798889187
 20
-2.85
 30
0.0
 11
-0.0
 21
1.0
 31
0.0
 40
1.0
 41
0.0
 42
1.0471975512
  0
ELLIPSE
  5
5B2
100
AcDbEntity
  8
RACCORDO
100
AcDbEllipse
 62
7
  6
CONTINUOUS
 10
14.1798889187
 20
-54.15
 30
0.0
 11
0.0
 21
1.0
 31
0.0
 40
1.0
 41
-4.1887902048
 42
-3.1415926536
  0
ELLIPSE
  5
5B3
100
AcDbEntity
  8
ASSI
100
AcDbEllipse
 62
7
  6
CONTINUOUS
 10
-6.2910162786
 20
-53.2910733962
 30
0.0
 11
0.0
 21
1.5
 31
0.0
 40
0.0087268678
 41
0.0087266463
 42
0.3460142869
  0
ELLIPSE
  5
5B4
100
AcDbEntity
  8
ASSI
100
AcDbEllipse
 62
7
  6
CONTINUOUS
 10
6.2910162786
 20
-53.2910733962
 30
0.0
 11
0.0
 21
1.5
 31
0.0
 40
0.0087268678
 41
-0.3460142869
 42
-0.0087266463
  0
ELLIPSE
  5
5B5
100
AcDbEntity
  8
ASSI
100
AcDbEllipse
 62
7
  6
CONTINUOUS
 10
-6.2910162786
 20
3.7089266038
 30
0.0
 11
0.0
 21
1.5
 31
0.0
 40
0.0087268678
 41
0.0087266463
 42
0.3460142869
  0
ELLIPSE
  5
5B6
100
AcDbEntity
  8
ASSI
100
AcDbEllipse
 62
7
  6
CONTINUOUS
 10
6.2910162786
 20
-3.7089266038
 30
0.0
 11
0.0
 21
1.5
 31
0.0
 40
0.0087268678
 41
-3.1328660073
 42
-2.7955783666
  0
ELLIPSE
  5
5B7
100
AcDbEntity
  8
ASSI
100
AcDbEllipse
 62
7
  6
CONTINUOUS
 10
6.2910162786
 20
3.7089266038
 30
0.0
 11
-0.0
 21
1.5
 31
0.0
 40
0.0087268678
 41
-0.3460142869
 42
-0.0087266463
  0
ELLIPSE
  5
5B8
100
AcDbEntity
  8
ASSI
100
AcDbEllipse
 62
7
  6
CONTINUOUS
 10
-6.2910162786
 20
-3.7089266038
 30
0.0
 11
0.0
 21
1.5
 31
0.0
 40
0.0087268678
 41
-3.4876069405
 42
-3.1503192998
  0
ELLIPSE
  5
5B9
100
AcDbEntity
  8
RACCORDO
100
AcDbEllipse
 62
7
  6
CONTINUOUS
 10
-14.019010849
 20
54.869010849
 30
0.0
 11
-0.3536610946
 21
0.3536610946
 31
0.0
 40
0.9996954599
 41
-0.7852458701
 42
0.7852458701
  0
ELLIPSE
  5
5BA
100
AcDbEntity
  8
DRAFT
100
AcDbEllipse
 62
7
  6
CONTINUOUS
 10
-7.630989151
 20
54.869010849
 30
0.0
 11
0.3536610946
 21
0.3536610946
 31
0.0
 40
0.9996954599
 41
0.0759435668
 42
0.7852458701
  0
ELLIPSE
  5
5BB
100
AcDbEntity
  8
DRAFT
100
AcDbEllipse
 62
7
  6
CONTINUOUS
 10
7.630989151
 20
54.869010849
 30
0.0
 11
-0.3536610946
 21
0.3536610946
 31
0.0
 40
0.9996954599
 41
-0.7852458701
 42
-0.0759435668
  0
ELLIPSE
  5
5BC
100
AcDbEntity
  8
RACCORDO
100
AcDbEllipse
 62
7
  6
CONTINUOUS
 10
14.019010849
 20
54.869010849
 30
0.0
 11
0.3536610946
 21
0.3536610946
 31
0.0
 40
0.9996954599
 41
-0.7852458701
 42
0.7852458701
  0
ELLIPSE
  5
5BD
100
AcDbEntity
  8
RACCORDO
100
AcDbEllipse
 62
7
  6
CONTINUOUS
 10
14.019010849
 20
-54.869010849
 30
0.0
 11
-0.3536610946
 21
0.3536610946
 31
0.0
 40
0.9996954599
 41
2.3563467834
 42
3.9268385237
  0
ELLIPSE
  5
5BE
100
AcDbEntity
  8
DRAFT
100
AcDbEllipse
 62
7
  6
CONTINUOUS
 10
7.630989151
 20
-54.869010849
 30
0.0
 11
-0.3536610946
 21
-0.3536610946
 31
0.0
 40
0.9996954599
 41
0.0759435668
 42
0.7852458701
  0
ELLIPSE
  5
5BF
100
AcDbEntity
  8
DRAFT
100
AcDbEllipse
 62
7
  6
CONTINUOUS
 10
-7.630989151
 20
-54.869010849
 30
0.0
 11
0.3536610946
 21
-0.3536610946
 31
0.0
 40
0.9996954599
 41
-0.7852458701
 42
-0.0759435668
  0
ELLIPSE
  5
5C0
100
AcDbEntity
  8
RACCORDO
100
AcDbEllipse
 62
7
  6
CONTINUOUS
 10
-14.019010849
 20
-54.869010849
 30
0.0
 11
0.3536610946
 21
0.3536610946
 31
0.0
 40
0.9996954599
 41
2.3563467834
 42
3.9268385237
  0
ELLIPSE
  5
5C1
100
AcDbEntity
  8
ASSI
100
AcDbEllipse
 62
7
  6
CONTINUOUS
 10
6.2910162786
 20
53.2910733962
 30
0.0
 11
-0.0
 21
1.5
 31
0.0
 40
0.0087268678
 41
-3.1328660073
 42
-2.7955783666
  0
ELLIPSE
  5
5C2
100
AcDbEntity
  8
ASSI
100
AcDbEllipse
 62
7
  6
CONTINUOUS
 10
-6.2910162786
 20
53.2910733962
 30
0.0
 11
0.0
 21
1.5
 31
0.0
 40
0.0087268678
 41
-3.4876069405
 42
-3.1503192998
  0
ELLIPSE
  5
5C3
100
AcDbEntity
  8
DRAFT
100
AcDbEllipse
 62
7
  6
CONTINUOUS
 10
-7.25
 20
54.5530262454
 30
0.0
 11
0.0
 21
1.0101808289
 31
0.0
 40
0.9539479188
 41
-1.6043998358
 42
-1.4746518411
  0
ELLIPSE
  5
5C4
100
AcDbEntity
  8
DRAFT
100
AcDbEllipse
 62
7
  6
CONTINUOUS
 10
7.500076164
 20
-54.999923836
 30
0.0
 11
0.3536610946
 21
0.3536610946
 31
0.0
 40
0.9996954599
 41
2.9402659397
 42
3.9268385237
  0
ELLIPSE
  5
5C5
100
AcDbEntity
  8
DRAFT
100
AcDbEllipse
 62
7
  6
CONTINUOUS
 10
7.25
 20
-54.5530262454
 30
0.0
 11
0.0
 21
1.0101808289
 31
0.0
 40
0.9539479188
 41
1.5371928178
 42
1.6669408125
  0
ELLIPSE
  5
5C6
100
AcDbEntity
  8
DRAFT
100
AcDbEllipse
 62
7
  6
CONTINUOUS
 10
7.25
 20
54.5530262454
 30
0.0
 11
0.0
 21
1.0101808289
 31
0.0
 40
0.9539479188
 41
1.4746518411
 42
1.6043998358
  0
ELLIPSE
  5
5C7
100
AcDbEntity
  8
DRAFT
100
AcDbEllipse
 62
7
  6
CONTINUOUS
 10
-7.25
 20
-54.5530262454
 30
0.0
 11
0.0
 21
1.0101808289
 31
0.0
 40
0.9539479188
 41
-1.6669408125
 42
-1.5371928178
  0
ELLIPSE
  5
5C8
100
AcDbEntity
  8
DRAFT
100
AcDbEllipse
 62
7
  6
CONTINUOUS
 10
-7.500076164
 20
54.999923836
 30
0.0
 11
0.3536610946
 21
0.3536610946
 31
0.0
 40
0.9996954599
 41
-0.2013267139
 42
0.7852458701
  0
ELLIPSE
  5
5C9
100
AcDbEntity
  8
DRAFT
100
AcDbEllipse
 62
7
  6
CONTINUOUS
 10
7.500076164
 20
54.999923836
 30
0.0
 11
-0.3536610946
 21
0.3536610946
 31
0.0
 40
0.9996954599
 41
-0.7852458701
 42
0.2013267139
  0
ENDSEC
  0
SECTION
  2
OBJECTS
  0
DICTIONARY
  5
C
100
AcDbDictionary
280
0
281
1
  3
ACAD_GROUP
350
D
  3
ACAD_MLINESTYLE
350
17
  3
ACAD_LAYOUT
350
1A
  3
ACAD_PLOTSETTINGS
350
19
  3
ACAD_PLOTSTYLENAME
350
E
  0
DICTIONARY
  5
D
102
{ACAD_REACTORS
330
C
102
}
100
AcDbDictionary
280
0
281
1
  0
ACDBDICTIONARYWDFLT
  5
E
102
{ACAD_REACTORS
330
C
102
}
100
AcDbDictionary
281
1
  3
Normal
350
F
100
AcDbDictionaryWithDefault
340
F
  0
DICTIONARY
  5
17
102
{ACAD_REACTORS
330
C
102
}
100
AcDbDictionary
280
0
281
1
  3
Standard
350
18
  0
DICTIONARY
  5
19
102
{ACAD_REACTORS
330
C
102
}
100
AcDbDictionary
281
1
  0
DICTIONARY
  5
1A
102
{ACAD_REACTORS
330
C
102
}
100
AcDbDictionary
281
1
  3
Model
350
5CA
  3
Layout1
350
5CB
  0
ACDBPLACEHOLDER
  5
F
102
{ACAD_REACTORS
330
E
102
}
  0
MLINESTYLE
  5
18
102
{ACAD_REACTORS
330
17
102
}
100
AcDbMlineStyle
  2
STANDARD
 70
0
  3

 62
256
 51
90.0
 52
90.0
 71
2
 49
0.5
 62
256
  6
BYLAYER
 49
-0.5
 62
256
  6
BYLAYER
  0
LAYOUT
  5
5CA
102
{ACAD_REACTORS
330
1A
102
}
100
AcDbPlotSettings
  1

  2
none_device
  4
ISO_A4_(297.00_x_210.00_MM)
  6

 40
0.0
 41
0.0
 42
0.0
 43
0.0
 44
297.0
 45
210.0
 46
0.0
 47
0.0
 48
0.0
 49
0.0
140
0.0
141
0.0
142
1.0
143
1.0
 70
1024
 72
1
 73
0
 74
0
  7

 75
0
147
1.0
148
0.0
149
0.0
100
AcDbLayout
  1
Model
 70
0
 71
0
 10
0.0
 20
0.0
 11
297.0
 21
210.0
 12
0.0
 22
0.0
 32
0.0
 14
0.0
 24
0.0
 34
0.0
 15
0.0
 25
0.0
 35
0.0
146
0.0
 13
0.0
 23
0.0
 33
0.0
 16
1.0
 26
0.0
 36
0.0
 17
0.0
 27
1.0
 37
0.0
 76
0
330
217
345
0
346
0
  0
LAYOUT
  5
5CB
102
{ACAD_REACTORS
330
1A
102
}
100
AcDbPlotSettings
  1

  2
none_device
  4
ISO_A4_(297.00_x_210.00_MM)
  6

 40
0.0
 41
0.0
 42
0.0
 43
0.0
 44
297.0
 45
210.0
 46
0.0
 47
0.0
 48
0.0
 49
0.0
140
0.0
141
0.0
142
1.0
143
1.0
 70
0
 72
1
 73
0
 74
0
  7

 75
0
147
1.0
148
0.0
149
0.0
100
AcDbLayout
  1
Layout1
 70
0
 71
1
 10
0.0
 20
0.0
 11
297.0
 21
210.0
 12
0.0
 22
0.0
 32
0.0
 14
0.0
 24
0.0
 34
0.0
 15
0.0
 25
0.0
 35
0.0
146
0.0
 13
0.0
 23
0.0
 33
0.0
 16
1.0
 26
0.0
 36
0.0
 17
0.0
 27
1.0
 37
0.0
 76
0
330
218
345
0
346
0
  0
ENDSEC
  0
EOF
