  0
SECTION
  2
HEADER
  9
$ACADVER
  1
AC1024
  9
$DWGCODEPAGE
  3
ANSI_1252
  9
$EXTMAX
 10
297.0
 20
210.0
 30
0.0
  9
$EXTMIN
 10
0.0
 20
0.0
 30
0.0
  9
$LIMMIN
 10
0.0
 20
0.0
  9
$LIMMAX
 10
297.0
 20
210.0
  9
$VIEWCTR
 10
148.5
 20
105.0
  9
$VIEWSIZE
 40
210.0
  9
$CLAYER
  8
0
  9
$LTSCALE
 40
16.335
  9
$CELTYPE
  6
BYLAYER
  9
$DIMSCALE
 40
1.0
  9
$DIMASZ
 40
3.0
  9
$DIMEXO
 40
0.5
  9
$DIMDLI
 40
11.286
  9
$DIMEXE
 40
1.5
  9
$DIMCEN
 40
2.673
  9
$DIMLFAC
 40
1.0
  9
$DIMBLK
  1
_FILLED
  9
$DIMALT
 70
0
  9
$DIMALTF
 40
0.0393700787
  9
$DIMTXT
 40
3.0
  9
$DIMTOL
 70
1
  9
$DIMLIM
 70
0
  9
$DIMTFAC
 40
1.0
  9
$DIMTP
 40
0.01
  9
$DIMTM
 40
0.01
  9
$DIMGAP
 40
0.625
  9
$DIMDSEP
 70
44
  9
$AUNITS
 70
0
  9
$PDMODE
 70
3
  9
$PDSIZE
 40
3.0
  9
$HANDSEED
  5
61A
  9
$TILEMODE
 70
1
  9
$MEASUREMENT
 70
1
  9
$INSUNITS
 70
4
  0
ENDSEC
  0
SECTION
  2
CLASSES
  0
CLASS
  1
ACDBDICTIONARYWDFLT
  2
AcDbDictionaryWithDefault
  3
AutoCAD 2000
 90
0
 91
1
280
0
281
0
  0
CLASS
  1
ACDBPLACEHOLDER
  2
AcDbPlaceHolder
  3
AutoCAD 2000
 90
0
 91
1
280
0
281
0
  0
CLASS
  1
LAYOUT
  2
AcDbLayout
  3
AutoCAD 2000
 90
0
 91
0
280
0
281
0
  0
ENDSEC
  0
SECTION
  2
TABLES
  0
TABLE
  2
VPORT
  5
8
100
AcDbSymbolTable
 70
2
  0
VPORT
  5
1F4
100
AcDbSymbolTableRecord
100
AcDbViewportTableRecord
  2
*ACTIVE
 70
0
 10
0.0
 20
0.0
 11
1.0
 21
1.0
 12
148.5
 22
105.0
 13
0.0
 23
0.0
 14
1.0
 24
1.0
 15
0.0
 25
0.0
 16
0.0
 26
0.0
 36
1.0
 17
0.0
 27
0.0
 37
0.0
 40
210.0
 41
1.4142857143
 42
50.0
 43
0.0
 44
0.0
 50
0.0
 51
0.0
 71
0
 72
100
 73
1
 74
1
 75
0
 76
0
 77
0
 78
0
  0
ENDTAB
  0
TABLE
  2
LTYPE
  5
5
100
AcDbSymbolTable
 70
6
  0
LTYPE
  5
14
100
AcDbSymbolTableRecord
100
AcDbLinetypeTableRecord
  2
BYBLOCK
 70
0
  3

 72
65
 73
0
 40
0.0
  0
LTYPE
  5
15
100
AcDbSymbolTableRecord
100
AcDbLinetypeTableRecord
  2
BYLAYER
 70
0
  3

 72
65
 73
0
 40
0.0
  0
LTYPE
  5
16
100
AcDbSymbolTableRecord
100
AcDbLinetypeTableRecord
  2
CONTINUOUS
 70
64
  3
Solid line
 72
65
 73
0
 40
0.0
  0
LTYPE
  5
1F5
100
AcDbSymbolTableRecord
100
AcDbLinetypeTableRecord
  2
CENTER
 70
64
  3
____ _ ____ _ ____ _ ____ _ ____ _ ____ _ ____
 72
65
 73
4
 40
0.6
 49
0.375
 74
0
 49
-0.075
 74
0
 49
0.075
 74
0
 49
-0.075
 74
0
  0
LTYPE
  5
1F6
100
AcDbSymbolTableRecord
100
AcDbLinetypeTableRecord
  2
HIDDEN
 70
64
  3
- - - - - - - - - - - - - - - - - - - -
 72
65
 73
2
 40
0.2
 49
0.1
 74
0
 49
-0.1
 74
0
  0
LTYPE
  5
1F7
100
AcDbSymbolTableRecord
100
AcDbLinetypeTableRecord
  2
PHANTOM
 70
64
  3
_____ _ _ _____ _ _ _____ _ _ _____
 72
65
 73
6
 40
0.8
 49
0.45
 74
0
 49
-0.05
 74
0
 49
0.1
 74
0
 49
-0.05
 74
0
 49
0.1
 74
0
 49
-0.05
 74
0
  0
LTYPE
  5
1F8
100
AcDbSymbolTableRecord
100
AcDbLinetypeTableRecord
  2
DOT
 70
64
  3
. . . . . . . . . . . . . . . . . . . .
 72
65
 73
2
 40
0.2
 49
0.1
 74
0
 49
-0.1
 74
0
  0
LTYPE
  5
1F9
100
AcDbSymbolTableRecord
100
AcDbLinetypeTableRecord
  2
DASHED
 70
64
  3
- - - - - - - - - - - - - - - - - - - -
 72
65
 73
2
 40
0.2
 49
0.1
 74
0
 49
-0.1
 74
0
  0
ENDTAB
  0
TABLE
  2
LAYER
  5
2
100
AcDbSymbolTable
 70
36
  0
LAYER
  5
10
100
AcDbSymbolTableRecord
100
AcDbLayerTableRecord
  2
0
 70
0
 62
7
  6
CONTINUOUS
370
-3
390
F
  0
LAYER
  5
1FA
100
AcDbSymbolTableRecord
100
AcDbLayerTableRecord
  2
DEFAULT_1
 70
0
 62
7
  6
CENTER
370
-3
390
F
  0
LAYER
  5
1FB
100
AcDbSymbolTableRecord
100
AcDbLayerTableRecord
  2
DEFAULT_2
 70
0
 62
7
  6
HIDDEN
370
-3
390
F
  0
LAYER
  5
1FC
100
AcDbSymbolTableRecord
100
AcDbLayerTableRecord
  2
DEFAULT_3
 70
0
 62
7
  6
PHANTOM
370
-3
390
F
  0
LAYER
  5
1FD
100
AcDbSymbolTableRecord
100
AcDbLayerTableRecord
  2
ASSI
 70
0
 62
7
  6
CONTINUOUS
370
-3
390
F
  0
LAYER
  5
1FE
100
AcDbSymbolTableRecord
100
AcDbLayerTableRecord
  2
COORDINATE
 70
0
 62
7
  6
CONTINUOUS
370
-3
390
F
  0
LAYER
  5
1FF
100
AcDbSymbolTableRecord
100
AcDbLayerTableRecord
  2
COORD_ORIGINE
 70
0
 62
7
  6
CONTINUOUS
370
-3
390
F
  0
LAYER
  5
200
100
AcDbSymbolTableRecord
100
AcDbLayerTableRecord
  2
CURVE
 70
0
 62
7
  6
CONTINUOUS
370
-3
390
F
  0
LAYER
  5
201
100
AcDbSymbolTableRecord
100
AcDbLayerTableRecord
  2
DRAFT
 70
0
 62
7
  6
CONTINUOUS
370
-3
390
F
  0
LAYER
  5
202
100
AcDbSymbolTableRecord
100
AcDbLayerTableRecord
  2
IMPORT
 70
0
 62
7
  6
CONTINUOUS
370
-3
390
F
  0
LAYER
  5
203
100
AcDbSymbolTableRecord
100
AcDbLayerTableRecord
  2
PIANI
 70
0
 62
7
  6
CONTINUOUS
370
-3
390
F
  0
LAYER
  5
204
100
AcDbSymbolTableRecord
100
AcDbLayerTableRecord
  2
PIANI_ORIGINE
 70
0
 62
7
  6
CONTINUOUS
370
-3
390
F
  0
LAYER
  5
205
100
AcDbSymbolTableRecord
100
AcDbLayerTableRecord
  2
PUNTI
 70
0
 62
7
  6
CONTINUOUS
370
-3
390
F
  0
LAYER
  5
206
100
AcDbSymbolTableRecord
100
AcDbLayerTableRecord
  2
RACCORDO
 70
0
 62
7
  6
CONTINUOUS
370
-3
390
F
  0
LAYER
  5
207
100
AcDbSymbolTableRecord
100
AcDbLayerTableRecord
  2
SNAPLINE
 70
0
 62
7
  6
CONTINUOUS
370
-3
390
F
  0
LAYER
  5
208
100
AcDbSymbolTableRecord
100
AcDbLayerTableRecord
  2
SUPERFICI
 70
0
 62
7
  6
CONTINUOUS
370
-3
390
F
  0
LAYER
  5
209
100
AcDbSymbolTableRecord
100
AcDbLayerTableRecord
  2
TRASH
 70
0
 62
7
  6
CONTINUOUS
370
-3
390
F
  0
LAYER
  5
20A
100
AcDbSymbolTableRecord
100
AcDbLayerTableRecord
  2
XSEC_DATUMS
 70
0
 62
7
  6
CONTINUOUS
370
-3
390
F
  0
ENDTAB
  0
TABLE
  2
STYLE
  5
3
100
AcDbSymbolTable
 70
1
  0
STYLE
  5
11
100
AcDbSymbolTableRecord
100
AcDbTextStyleTableRecord
  2
STANDARD
 70
0
 40
0.0
 41
0.8
 50
0.0
 71
0
 42
0.2
  3
txt
  4

  0
STYLE
  5
20B
100
AcDbSymbolTableRecord
100
AcDbTextStyleTableRecord
  2
TEXTSTYLE_1
 70
0
 40
0.0
 41
0.8
 50
0.0
 71
0
 42
0.2
  3
gdt
  4

  0
ENDTAB
  0
TABLE
  2
VIEW
  5
6
100
AcDbSymbolTable
 70
0
  0
ENDTAB
  0
TABLE
  2
UCS
  5
7
100
AcDbSymbolTable
 70
0
  0
ENDTAB
  0
TABLE
  2
APPID
  5
9
100
AcDbSymbolTable
 70
1
  0
APPID
  5
20C
100
AcDbSymbolTableRecord
100
AcDbRegAppTableRecord
  2
ACAD
 70
0
  0
ENDTAB
  0
TABLE
  2
BLOCK_RECORD
  5
1
100
AcDbSymbolTable
 70
0
  0
BLOCK_RECORD
  5
20D
100
AcDbSymbolTableRecord
100
AcDbBlockTableRecord
  2
*Model_Space
  0
BLOCK_RECORD
  5
20E
100
AcDbSymbolTableRecord
100
AcDbBlockTableRecord
  2
*Paper_Space
  0
BLOCK_RECORD
  5
20F
100
AcDbSymbolTableRecord
100
AcDbBlockTableRecord
  2
_FILLED
  0
ENDTAB
  0
TABLE
  2
DIMSTYLE
  5
A
100
AcDbSymbolTable
 70
1
100
AcDbDimStyleTable
 71
0
  0
DIMSTYLE
105
210
100
AcDbSymbolTableRecord
100
AcDbDimStyleTableRecord
  2
STANDARD
 70
0
  3

  4

 40
1.0
 41
3.0
 42
0.5
 43
0.38
 44
1.5
 45
0.0
 46
0.0
 47
0.01
 48
0.01
140
3.0
141
0.09
142
0.0
143
25.4
144
1.0
145
0.0
146
1.0
147
0.625
 71
1
 72
0
 73
0
 74
0
 75
0
 76
0
 77
1
 78
8
 79
2
170
0
171
1
172
0
173
0
174
0
175
0
176
0
177
0
178
0
270
2
179
2
271
2
272
2
273
2
274
2
275
0
280
0
281
0
282
0
283
1
284
8
285
0
286
0
287
3
288
0
340
11
278
44
341
20F
342
20F
343
20F
344
20F
  0
ENDTAB
  0
ENDSEC
  0
SECTION
  2
BLOCKS
  0
BLOCK
  5
20
100
AcDbEntity
  8
0
100
AcDbBlockBegin
  2
*Model_Space
 70
0
 10
0.0
 20
0.0
 30
0.0
  3
*Model_Space
  1

  0
ENDBLK
  5
21
100
AcDbEntity
  8
0
100
AcDbBlockEnd
  0
BLOCK
  5
1C
100
AcDbEntity
  8
0
100
AcDbBlockBegin
  2
*Paper_Space
 70
0
 10
0.0
 20
0.0
 30
0.0
  3
*Paper_Space
  1

  0
ENDBLK
  5
1D
100
AcDbEntity
  8
0
100
AcDbBlockEnd
  0
BLOCK
  5
211
100
AcDbEntity
  8
0
100
AcDbBlockBegin
  2
_FILLED
 70
64
 10
0.0
 20
0.0
  3
_FILLED
  1

  0
SOLID
  5
212
100
AcDbEntity
  8
0
  6
BYBLOCK
 62
0
100
AcDbTrace
 10
0.0
 20
0.0
 11
-1.0
 21
0.3166666667
 12
-1.0
 22
-0.3166666667
 13
-1.0
 23
-0.3166666667
  0
ENDBLK
  5
213
100
AcDbEntity
  8
0
  6
BYBLOCK
 62
0
100
AcDbBlockEnd
  0
ENDSEC
  0
SECTION
  2
ENTITIES
  0
LWPOLYLINE
  5
214
100
AcDbEntity
  8
RACCORDO
100
AcDbPolyline
 62
250
  6
CONTINUOUS
 90
19
 70
0
 10
-14.1876328404
 20
38.3
 10
-14.18616673
 20
38.3008784314
 10
-14.1821684187
 20
38.3031225061
 10
-14.1781123066
 20
38.305248442
 10
-14.1739983896
 20
38.3072566815
 10
-14.1698266718
 20
38.3091476492
 10
-14.165595476
 20
38.3109213128
 10
-14.1613047875
 20
38.3125782553
 10
-14.1569546209
 20
38.3141190386
 10
-14.1525433423
 20
38.3155438226
 10
-14.1480708547
 20
38.3168533509
 10
-14.1435372552
 20
38.3180483148
 10
-14.1389412006
 20
38.3191290511
 10
-14.1342826774
 20
38.3200964474
 10
-14.1295616992
 20
38.3209513872
 10
-14.1247769639
 20
38.3216944855
 10
-14.1199280374
 20
38.3223267108
 10
-14.1150153538
 20
38.3228492327
 10
-14.110038913
 20
38.3232631188
  0
LWPOLYLINE
  5
215
100
AcDbEntity
  8
RACCORDO
100
AcDbPolyline
 62
250
  6
CONTINUOUS
 90
22
 70
0
 10
-13.5630174066
 20
38.3
 10
-13.5605323838
 20
38.3014704237
 10
-13.5544953807
 20
38.3049041978
 10
-13.5484971253
 20
38.308174252
 10
-13.5425387667
 20
38.3112816031
 10
-13.5366219805
 20
38.3142274421
 10
-13.5307339313
 20
38.3170165552
 10
-13.5248741364
 20
38.3196502362
 10
-13.519045459
 20
38.3221285584
 10
-13.5132398942
 20
38.3244537492
 10
-13.5074587453
 20
38.326626241
 10
-13.5017027674
 20
38.3286468698
 10
-13.4959630327
 20
38.3305179312
 10
-13.4902404448
 20
38.3322397948
 10
-13.4845360067
 20
38.333812908
 10
-13.4788408518
 20
38.3352390194
 10
-13.47315481
 20
38.3365184718
 10
-13.4674798404
 20
38.3376512122
 10
-13.4618101763
 20
38.3386379222
 10
-13.4561443721
 20
38.3394788463
 10
-13.4504852947
 20
38.3401739794
 10
-13.4448339739
 20
38.3407235188
  0
LWPOLYLINE
  5
216
100
AcDbEntity
  8
RACCORDO
100
AcDbPolyline
 62
250
  6
CONTINUOUS
 90
27
 70
0
 10
-13.4448339911
 20
38.3407235036
 10
-13.4456219641
 20
38.3403232021
 10
-13.4464096701
 20
38.3398222296
 10
-13.4471971092
 20
38.3392205412
 10
-13.4479843932
 20
38.3385180707
 10
-13.4487714103
 20
38.3377148166
 10
-13.4495578246
 20
38.3368108838
 10
-13.4503436337
 20
38.3358063104
 10
-13.4511288402
 20
38.3347011367
 10
-13.4519131152
 20
38.3334955589
 10
-13.4526964575
 20
38.3321896758
 10
-13.4534788683
 20
38.3307835955
 10
-13.4542600232
 20
38.3292776117
 10
-13.4550399068
 20
38.3276719179
 10
-13.4558185345
 20
38.3259666593
 10
-13.4565956269
 20
38.3241621233
 10
-13.4573711552
 20
38.3222585903
 10
-13.4581451482
 20
38.3202562158
 10
-13.4589174133
 20
38.3181551158
 10
-13.4596879488
 20
38.3159555183
 10
-13.4604567564
 20
38.3136576526
 10
-13.4612236484
 20
38.3112616186
 10
-13.4619886399
 20
38.3087676012
 10
-13.4627517159
 20
38.3061758934
 10
-13.4635126436
 20
38.3034867562
 10
-13.4642714288
 20
38.3007004309
 10
-13.4644552416
 20
38.3
  0
LINE
  5
217
100
AcDbEntity
  8
RACCORDO
100
AcDbLine
 62
250
  6
CONTINUOUS
 10
14.110038913
 20
-38.3232631188
 11
14.0725090127
 21
-38.3245735548
  0
LINE
  5
218
100
AcDbEntity
  8
RACCORDO
100
AcDbLine
 62
250
  6
CONTINUOUS
 10
14.0725090127
 20
-38.3245735548
 11
14.032222031
 21
-38.3259048303
  0
LINE
  5
219
100
AcDbEntity
  8
RACCORDO
100
AcDbLine
 62
250
  6
CONTINUOUS
 10
14.032222031
 20
-38.3259048303
 11
13.9887434851
 21
-38.327265477
  0
LINE
  5
21A
100
AcDbEntity
  8
RACCORDO
100
AcDbLine
 62
250
  6
CONTINUOUS
 10
13.9887434851
 20
-38.327265477
 11
13.9417818956
 21
-38.3286584416
  0
LINE
  5
21B
100
AcDbEntity
  8
RACCORDO
100
AcDbLine
 62
250
  6
CONTINUOUS
 10
13.9417818956
 20
-38.3286584416
 11
13.8938704763
 21
-38.3300090027
  0
LINE
  5
21C
100
AcDbEntity
  8
RACCORDO
100
AcDbLine
 62
250
  6
CONTINUOUS
 10
13.8938704763
 20
-38.3300090027
 11
13.8360167634
 21
-38.3315595822
  0
LINE
  5
21D
100
AcDbEntity
  8
RACCORDO
100
AcDbLine
 62
250
  6
CONTINUOUS
 10
13.8360167634
 20
-38.3315595822
 11
13.7709522247
 21
-38.3332157025
  0
LWPOLYLINE
  5
21E
100
AcDbEntity
  8
RACCORDO
100
AcDbPolyline
 62
250
  6
CONTINUOUS
 90
3
 70
0
 10
13.7709522247
 20
-38.3332157025
 10
13.6994737207
 20
-38.3349508653
 10
13.6880565776
 20
-38.3352213351
  0
LINE
  5
21F
100
AcDbEntity
  8
RACCORDO
100
AcDbLine
 62
250
  6
CONTINUOUS
 10
13.6880565776
 20
-38.3352213351
 11
13.643483045
 21
-38.3362622155
  0
LINE
  5
220
100
AcDbEntity
  8
RACCORDO
100
AcDbLine
 62
250
  6
CONTINUOUS
 10
13.643483045
 20
-38.3362622155
 11
13.6217387574
 21
-38.3367625905
  0
LINE
  5
221
100
AcDbEntity
  8
RACCORDO
100
AcDbLine
 62
250
  6
CONTINUOUS
 10
13.6217387574
 20
-38.3367625905
 11
13.6002964535
 21
-38.3372518248
  0
LWPOLYLINE
  5
222
100
AcDbEntity
  8
RACCORDO
100
AcDbPolyline
 62
250
  6
CONTINUOUS
 90
3
 70
0
 10
13.6002964535
 20
-38.3372518248
 10
13.5790903868
 20
-38.3377321911
 10
13.568566261
 20
-38.337969473
  0
LWPOLYLINE
  5
223
100
AcDbEntity
  8
RACCORDO
100
AcDbPolyline
 62
250
  6
CONTINUOUS
 90
3
 70
0
 10
13.568566261
 20
-38.337969473
 10
13.5476653629
 20
-38.3384387062
 10
13.5372742365
 20
-38.3386711604
  0
LWPOLYLINE
  5
224
100
AcDbEntity
  8
RACCORDO
100
AcDbPolyline
 62
250
  6
CONTINUOUS
 90
7
 70
0
 10
13.5372742365
 20
-38.3386711604
 10
13.5165970874
 20
-38.3391322522
 10
13.5062970313
 20
-38.3393613672
 10
13.4960161585
 20
-38.3395897334
 10
13.4857563142
 20
-38.3398173064
 10
13.4755090832
 20
-38.340044435
 10
13.4652716603
 20
-38.3402712356
  0
LINE
  5
225
100
AcDbEntity
  8
RACCORDO
100
AcDbLine
 62
250
  6
CONTINUOUS
 10
13.4652716603
 20
-38.3402712356
 11
13.4448346544
 21
-38.3407235036
  0
LINE
  5
226
100
AcDbEntity
  8
RACCORDO
100
AcDbLine
 62
7
  6
CONTINUOUS
 10
-19.3004264211
 20
-40.0
 11
-3.6749773271
 21
-40.0
  0
LINE
  5
227
100
AcDbEntity
  8
RACCORDO
100
AcDbLine
 62
7
  6
CONTINUOUS
 10
3.6749773271
 20
-40.0
 11
19.3004264211
 21
-40.0
  0
LINE
  5
228
100
AcDbEntity
  8
0
100
AcDbLine
 62
7
  6
CONTINUOUS
 10
3.5
 20
-39.930158461
 11
-3.5
 21
-39.930158461
  0
LINE
  5
229
100
AcDbEntity
  8
RACCORDO
100
AcDbLine
 62
7
  6
CONTINUOUS
 10
-17.5004566591
 20
-38.4990856836
 11
-3.6749773271
 21
-38.4990856836
  0
LINE
  5
22A
100
AcDbEntity
  8
RACCORDO
100
AcDbLine
 62
7
  6
CONTINUOUS
 10
3.6749773271
 20
-38.4990856836
 11
17.5004566591
 21
-38.4990856836
  0
LINE
  5
22B
100
AcDbEntity
  8
0
100
AcDbLine
 62
7
  6
CONTINUOUS
 10
3.5
 20
-38.4292441446
 11
-3.5
 21
-38.4292441446
  0
LWPOLYLINE
  5
22C
100
AcDbEntity
  8
RACCORDO
100
AcDbPolyline
 62
250
  6
CONTINUOUS
 90
136
 70
0
 10
-17.2365887576
 20
-38.3232631188
 10
-17.2481945868
 20
-38.3231744111
 10
-17.2597988485
 20
-38.3229507283
 10
-17.2713999752
 20
-38.3225921007
 10
-17.2829964
 20
-38.3220985766
 10
-17.2945865565
 20
-38.3214702228
 10
-17.3061688793
 20
-38.3207071241
 10
-17.317741804
 20
-38.3198093835
 10
-17.3293037673
 20
-38.3187771224
 10
-17.3408532077
 20
-38.3176104802
 10
-17.3523885652
 20
-38.3163096144
 10
-17.3639082817
 20
-38.3148747008
 10
-17.3754108012
 20
-38.3133059331
 10
-17.3868945702
 20
-38.3116035233
 10
-17.3983580374
 20
-38.3097677013
 10
-17.4097996545
 20
-38.3077987151
 10
-17.4212178762
 20
-38.3056968306
 10
-17.4326111601
 20
-38.3034623316
 10
-17.4439779674
 20
-38.3010955202
 10
-17.4553167628
 20
-38.2985967158
 10
-17.4666260148
 20
-38.295966256
 10
-17.4779041957
 20
-38.2932044962
 10
-17.4891497824
 20
-38.2903118093
 10
-17.5003612558
 20
-38.287288586
 10
-17.5115371016
 20
-38.2841352348
 10
-17.5226758103
 20
-38.2808521815
 10
-17.5337758775
 20
-38.2774398696
 10
-17.5448358038
 20
-38.2738987599
 10
-17.5558540953
 20
-38.2702293307
 10
-17.5668292639
 20
-38.2664320778
 10
-17.5777598272
 20
-38.2625075139
 10
-17.5886443087
 20
-38.2584561692
 10
-17.5994812382
 20
-38.2542785909
 10
-17.6102691522
 20
-38.2499753432
 10
-17.6210065933
 20
-38.2455470074
 10
-17.6316921115
 20
-38.2409941816
 10
-17.6423242632
 20
-38.2363174808
 10
-17.6529016126
 20
-38.2315175366
 10
-17.6634227308
 20
-38.2265949974
 10
-17.6738861969
 20
-38.221550528
 10
-17.6842905974
 20
-38.2163848098
 10
-17.6946345272
 20
-38.2110985405
 10
-17.7049165891
 20
-38.2056924342
 10
-17.7151353942
 20
-38.200167221
 10
-17.7252895624
 20
-38.1945236472
 10
-17.7353777221
 20
-38.1887624752
 10
-17.7453985106
 20
-38.182884483
 10
-17.7553505746
 20
-38.1768904646
 10
-17.7652325698
 20
-38.1707812296
 10
-17.7750431614
 20
-38.1645576032
 10
-17.7847810243
 20
-38.158220426
 10
-17.7944448432
 20
-38.1517705539
 10
-17.8040333129
 20
-38.1452088581
 10
-17.8135451383
 20
-38.138536225
 10
-17.8229790345
 20
-38.1317535558
 10
-17.8323337274
 20
-38.1248617666
 10
-17.8416079534
 20
-38.1178617882
 10
-17.8508004599
 20
-38.1107545662
 10
-17.8599100052
 20
-38.1035410606
 10
-17.8689353589
 20
-38.0962222456
 10
-17.877875302
 20
-38.0887991099
 10
-17.8867286269
 20
-38.0812726559
 10
-17.8954941379
 20
-38.0736439005
 10
-17.904170651
 20
-38.0659138738
 10
-17.9127569942
 20
-38.0580836201
 10
-17.9212520078
 20
-38.050154197
 10
-17.9296545445
 20
-38.0421266754
 10
-17.9379634692
 20
-38.0340021397
 10
-17.9461776596
 20
-38.0257816873
 10
-17.9542960064
 20
-38.0174664284
 10
-17.9623174129
 20
-38.0090574862
 10
-17.9702407958
 20
-38.0005559965
 10
-17.9780650847
 20
-37.9919631076
 10
-17.985789223
 20
-37.9832799801
 10
-17.9934121672
 20
-37.9745077868
 10
-18.0009328878
 20
-37.9656477127
 10
-18.008350369
 20
-37.9567009543
 10
-18.0156636088
 20
-37.9476687203
 10
-18.0228716195
 20
-37.9385522304
 10
-18.0299734275
 20
-37.9293527161
 10
-18.0369680736
 20
-37.9200714201
 10
-18.0438546129
 20
-37.9107095957
 10
-18.0506321154
 20
-37.9012685077
 10
-18.0572996656
 20
-37.8917494311
 10
-18.0638563629
 20
-37.8821536518
 10
-18.0703013218
 20
-37.8724824657
 10
-18.0766336716
 20
-37.8627371793
 10
-18.0828525572
 20
-37.8529191087
 10
-18.0889571384
 20
-37.8430295801
 10
-18.0949465908
 20
-37.8330699293
 10
-18.1008201054
 20
-37.8230415016
 10
-18.1065768889
 20
-37.8129456513
 10
-18.1122161636
 20
-37.8027837423
 10
-18.1177371679
 20
-37.792557147
 10
-18.1231391561
 20
-37.7822672467
 10
-18.1284213985
 20
-37.7719154313
 10
-18.1335831817
 20
-37.7615030991
 10
-18.1386238084
 20
-37.7510316563
 10
-18.1435425979
 20
-37.7405025175
 10
-18.1483388857
 20
-37.7299171046
 10
-18.153012024
 20
-37.7192768476
 10
-18.1575613817
 20
-37.7085831835
 10
-18.1619863442
 20
-37.6978375568
 10
-18.1662863138
 20
-37.6870414188
 10
-18.1704607099
 20
-37.6761962278
 10
-18.1745089684
 20
-37.6653034487
 10
-18.1784305427
 20
-37.6543645527
 10
-18.1822249031
 20
-37.6433810173
 10
-18.185891537
 20
-37.6323543261
 10
-18.1894299492
 20
-37.6212859684
 10
-18.1928396618
 20
-37.6101774393
 10
-18.1961202143
 20
-37.5990302391
 10
-18.1992711634
 20
-37.5878458735
 10
-18.2022920837
 20
-37.5766258532
 10
-18.2051825671
 20
-37.5653716936
 10
-18.2079422231
 20
-37.5540849149
 10
-18.2105706791
 20
-37.5427670415
 10
-18.21306758
 20
-37.5314196021
 10
-18.2154325886
 20
-37.5200441294
 10
-18.2176653853
 20
-37.50864216
 10
-18.2197656687
 20
-37.4972152338
 10
-18.2217331551
 20
-37.4857648943
 10
-18.2235675786
 20
-37.474292688
 10
-18.2252686916
 20
-37.4628001646
 10
-18.2268362643
 20
-37.4512888763
 10
-18.2282700848
 20
-37.4397603779
 10
-18.2295699597
 20
-37.4282162266
 10
-18.2307357132
 20
-37.4166579816
 10
-18.231767188
 20
-37.4050872041
 10
-18.2326642446
 20
-37.393505457
 10
-18.233426762
 20
-37.3819143046
 10
-18.2340546372
 20
-37.3703153125
 10
-18.2345477853
 20
-37.3587100473
 10
-18.2349061398
 20
-37.3471000766
 10
-18.2351296522
 20
-37.3354869686
 10
-18.2352182923
 20
-37.3238722918
  0
LINE
  5
22D
100
AcDbEntity
  8
RACCORDO
100
AcDbLine
 62
250
  6
CONTINUOUS
 10
-13.4448337745
 20
-38.3407235084
 11
-13.5896636125
 21
-38.3374931263
  0
LINE
  5
22E
100
AcDbEntity
  8
RACCORDO
100
AcDbLine
 62
250
  6
CONTINUOUS
 10
-13.5896636125
 20
-38.3374931263
 11
-13.6880569217
 21
-38.335221327
  0
LINE
  5
22F
100
AcDbEntity
  8
RACCORDO
100
AcDbLine
 62
250
  6
CONTINUOUS
 10
-13.6880569217
 20
-38.335221327
 11
-13.7586103103
 21
-38.333521138
  0
LINE
  5
230
100
AcDbEntity
  8
RACCORDO
100
AcDbLine
 62
250
  6
CONTINUOUS
 10
-13.7586103103
 20
-38.333521138
 11
-13.8224842191
 21
-38.3319107622
  0
LINE
  5
231
100
AcDbEntity
  8
RACCORDO
100
AcDbLine
 62
250
  6
CONTINUOUS
 10
-13.8224842191
 20
-38.3319107622
 11
-13.878804231
 21
-38.3304210434
  0
LINE
  5
232
100
AcDbEntity
  8
RACCORDO
100
AcDbLine
 62
250
  6
CONTINUOUS
 10
-13.878804231
 20
-38.3304210434
 11
-13.9257355612
 21
-38.3291178886
  0
LINE
  5
233
100
AcDbEntity
  8
RACCORDO
100
AcDbLine
 62
250
  6
CONTINUOUS
 10
-13.9257355612
 20
-38.3291178886
 11
-13.9733829553
 21
-38.3277289706
  0
LINE
  5
234
100
AcDbEntity
  8
RACCORDO
100
AcDbLine
 62
250
  6
CONTINUOUS
 10
-13.9733829553
 20
-38.3277289706
 11
-14.018094694
 21
-38.3263550035
  0
LINE
  5
235
100
AcDbEntity
  8
RACCORDO
100
AcDbLine
 62
250
  6
CONTINUOUS
 10
-14.018094694
 20
-38.3263550035
 11
-14.059402505
 21
-38.3250146801
  0
LWPOLYLINE
  5
236
100
AcDbEntity
  8
RACCORDO
100
AcDbPolyline
 62
250
  6
CONTINUOUS
 90
3
 70
0
 10
-14.059402505
 20
-38.3250146801
 10
-14.0978353007
 20
-38.3236976149
 10
-14.110038913
 20
-38.3232631188
  0
LWPOLYLINE
  5
237
100
AcDbEntity
  8
RACCORDO
100
AcDbPolyline
 62
250
  6
CONTINUOUS
 90
19
 70
0
 10
-14.110038913
 20
-38.3232631188
 10
-14.1150153548
 20
-38.3228492326
 10
-14.1199280391
 20
-38.3223267106
 10
-14.1247769658
 20
-38.3216944853
 10
-14.1295617009
 20
-38.3209513869
 10
-14.1342826784
 20
-38.3200964472
 10
-14.1389412012
 20
-38.3191290509
 10
-14.1435372559
 20
-38.3180483145
 10
-14.1480708559
 20
-38.3168533506
 10
-14.1525433437
 20
-38.3155438223
 10
-14.1569546219
 20
-38.3141190383
 10
-14.161304788
 20
-38.312578255
 10
-14.1655954761
 20
-38.3109213125
 10
-14.1698266723
 20
-38.3091476489
 10
-14.1739983905
 20
-38.3072566811
 10
-14.1781123079
 20
-38.3052484415
 10
-14.1821684198
 20
-38.3031225055
 10
-14.1861667309
 20
-38.3008784309
 10
-14.1876328402
 20
-38.3
  0
LWPOLYLINE
  5
238
100
AcDbEntity
  8
RACCORDO
100
AcDbPolyline
 62
250
  6
CONTINUOUS
 90
22
 70
0
 10
-13.4448339912
 20
-38.3407235036
 10
-13.450485488
 20
-38.3401739631
 10
-13.4561445631
 20
-38.3394788259
 10
-13.4618103434
 20
-38.3386378951
 10
-13.4674799925
 20
-38.337651181
 10
-13.4731549477
 20
-38.3365184411
 10
-13.4788409654
 20
-38.3352389925
 10
-13.4845360778
 20
-38.3338128894
 10
-13.4902404647
 20
-38.3322397891
 10
-13.4959630114
 20
-38.330517938
 10
-13.5017027261
 20
-38.3286468839
 10
-13.5074586931
 20
-38.3266262599
 10
-13.5132398236
 20
-38.3244537763
 10
-13.5190453578
 20
-38.3221286
 10
-13.5248739979
 20
-38.3196502971
 10
-13.5307337466
 20
-38.3170166411
 10
-13.5366217309
 20
-38.3142275638
 10
-13.5425384437
 20
-38.311281768
 10
-13.5484967477
 20
-38.3081744535
 10
-13.5544949906
 20
-38.3049044155
 10
-13.5605319999
 20
-38.3014706471
 10
-13.5630174065
 20
-38.3
  0
LINE
  5
239
100
AcDbEntity
  8
0
100
AcDbLine
 62
7
  6
CONTINUOUS
 10
3.6749773271
 20
40.0
 11
3.5
 21
39.930158461
  0
LINE
  5
23A
100
AcDbEntity
  8
RACCORDO
100
AcDbLine
 62
250
  6
CONTINUOUS
 10
13.4448346544
 20
-38.3407235036
 11
-13.4448337745
 21
-38.3407235084
  0
LINE
  5
23B
100
AcDbEntity
  8
RACCORDO
100
AcDbLine
 62
250
  6
CONTINUOUS
 10
17.2365887576
 20
-38.3232631188
 11
14.110038913
 21
-38.3232631188
  0
LINE
  5
23C
100
AcDbEntity
  8
RACCORDO
100
AcDbLine
 62
250
  6
CONTINUOUS
 10
-14.110038913
 20
-38.3232631188
 11
-17.2365887576
 21
-38.3232631188
  0
LINE
  5
23D
100
AcDbEntity
  8
0
100
AcDbLine
 62
7
  6
CONTINUOUS
 10
16.301218346
 20
-38.3
 11
4.0
 21
-38.3
  0
LINE
  5
23E
100
AcDbEntity
  8
0
100
AcDbLine
 62
7
  6
CONTINUOUS
 10
-4.0
 20
-38.3
 11
-16.301218346
 21
-38.3
  0
LINE
  5
23F
100
AcDbEntity
  8
0
100
AcDbLine
 62
7
  6
CONTINUOUS
 10
-4.0
 20
-38.230158461
 11
4.0
 21
-38.230158461
  0
LINE
  5
240
100
AcDbEntity
  8
RACCORDO
100
AcDbLine
 62
250
  6
CONTINUOUS
 10
-18.2352182923
 20
-37.3238722918
 11
-18.0175697934
 21
-37.3238722918
  0
LINE
  5
241
100
AcDbEntity
  8
RACCORDO
100
AcDbLine
 62
250
  6
CONTINUOUS
 10
18.0175697934
 20
-37.3238722918
 11
18.2352182923
 21
-37.3238722918
  0
LINE
  5
242
100
AcDbEntity
  8
RACCORDO
100
AcDbLine
 62
7
  6
CONTINUOUS
 10
16.5002284225
 20
-37.0
 11
13.0
 21
-37.0
  0
LINE
  5
243
100
AcDbEntity
  8
0
100
AcDbLine
 62
7
  6
CONTINUOUS
 10
7.0
 20
-37.0
 11
4.8
 21
-37.0
  0
LINE
  5
244
100
AcDbEntity
  8
0
100
AcDbLine
 62
7
  6
CONTINUOUS
 10
-4.8
 20
-37.0
 11
-7.0
 21
-37.0
  0
LINE
  5
245
100
AcDbEntity
  8
RACCORDO
100
AcDbLine
 62
7
  6
CONTINUOUS
 10
-13.0
 20
-37.0
 11
-16.5002284225
 21
-37.0
  0
LINE
  5
246
100
AcDbEntity
  8
RACCORDO
100
AcDbLine
 62
250
  6
CONTINUOUS
 10
-4.8
 20
-36.9897066324
 11
-4.0
 21
-36.9897066324
  0
LINE
  5
247
100
AcDbEntity
  8
RACCORDO
100
AcDbLine
 62
250
  6
CONTINUOUS
 10
4.0
 20
-36.9897066324
 11
4.8
 21
-36.9897066324
  0
LINE
  5
248
100
AcDbEntity
  8
0
100
AcDbLine
 62
7
  6
CONTINUOUS
 10
-4.0
 20
-36.930158461
 11
4.0
 21
-36.930158461
  0
LINE
  5
249
100
AcDbEntity
  8
0
100
AcDbLine
 62
7
  6
CONTINUOUS
 10
-15.25
 20
-36.8428565373
 11
-13.0
 21
-36.8428565373
  0
LINE
  5
24A
100
AcDbEntity
  8
0
100
AcDbLine
 62
7
  6
CONTINUOUS
 10
-7.0
 20
-36.8428565373
 11
-4.8
 21
-36.8428565373
  0
LINE
  5
24B
100
AcDbEntity
  8
0
100
AcDbLine
 62
7
  6
CONTINUOUS
 10
4.0
 20
-36.8428565373
 11
-4.0
 21
-36.8428565373
  0
LINE
  5
24C
100
AcDbEntity
  8
0
100
AcDbLine
 62
7
  6
CONTINUOUS
 10
4.8
 20
-36.8428565373
 11
7.0
 21
-36.8428565373
  0
LINE
  5
24D
100
AcDbEntity
  8
0
100
AcDbLine
 62
7
  6
CONTINUOUS
 10
13.0
 20
-36.8428565373
 11
15.25
 21
-36.8428565373
  0
LINE
  5
24E
100
AcDbEntity
  8
RACCORDO
100
AcDbLine
 62
250
  6
CONTINUOUS
 10
-16.4213760438
 20
-36.8422471786
 11
-15.25
 21
-36.8422471786
  0
LINE
  5
24F
100
AcDbEntity
  8
RACCORDO
100
AcDbLine
 62
250
  6
CONTINUOUS
 10
15.25
 20
-36.8422471786
 11
16.4213760438
 21
-36.8422471786
  0
LINE
  5
250
100
AcDbEntity
  8
0
100
AcDbLine
 62
7
  6
CONTINUOUS
 10
13.0
 20
-36.7
 11
7.0
 21
-36.7
  0
LINE
  5
251
100
AcDbEntity
  8
0
100
AcDbLine
 62
7
  6
CONTINUOUS
 10
-7.0
 20
-36.7
 11
-13.0
 21
-36.7
  0
LINE
  5
252
100
AcDbEntity
  8
RACCORDO
100
AcDbLine
 62
250
  6
CONTINUOUS
 10
-4.8
 20
-36.6898893843
 11
-4.0
 21
-36.6898893843
  0
LINE
  5
253
100
AcDbEntity
  8
RACCORDO
100
AcDbLine
 62
250
  6
CONTINUOUS
 10
4.0
 20
-36.6898893843
 11
4.8
 21
-36.6898893843
  0
LINE
  5
254
100
AcDbEntity
  8
0
100
AcDbLine
 62
7
  6
CONTINUOUS
 10
4.8
 20
-36.5428565373
 11
4.0
 21
-36.5428565373
  0
LINE
  5
255
100
AcDbEntity
  8
0
100
AcDbLine
 62
7
  6
CONTINUOUS
 10
-4.0
 20
-36.5428565373
 11
-4.8
 21
-36.5428565373
  0
LINE
  5
256
100
AcDbEntity
  8
RACCORDO
100
AcDbLine
 62
250
  6
CONTINUOUS
 10
-16.9124305797
 20
-36.3425517651
 11
-15.25
 21
-36.3425517651
  0
LINE
  5
257
100
AcDbEntity
  8
RACCORDO
100
AcDbLine
 62
250
  6
CONTINUOUS
 10
15.25
 20
-36.3425517651
 11
16.9124305797
 21
-36.3425517651
  0
LINE
  5
258
100
AcDbEntity
  8
0
100
AcDbLine
 62
7
  6
CONTINUOUS
 10
13.0
 20
-36.0
 11
7.0
 21
-36.0
  0
LINE
  5
259
100
AcDbEntity
  8
0
100
AcDbLine
 62
7
  6
CONTINUOUS
 10
-7.0
 20
-36.0
 11
-13.0
 21
-36.0
  0
LINE
  5
25A
100
AcDbEntity
  8
ASSI
100
AcDbLine
 62
7
  6
CONTINUOUS
 10
-11.195042
 20
-35.461376
 11
-10.922756
 21
-35.461376
  0
LINE
  5
25B
100
AcDbEntity
  8
ASSI
100
AcDbLine
 62
7
  6
CONTINUOUS
 10
-10.304157
 20
-35.461373
 11
-9.892555
 21
-35.461373
  0
LINE
  5
25C
100
AcDbEntity
  8
ASSI
100
AcDbLine
 62
7
  6
CONTINUOUS
 10
-9.384113
 20
-35.461373
 11
-8.972511
 21
-35.461373
  0
LINE
  5
25D
100
AcDbEntity
  8
ASSI
100
AcDbLine
 62
7
  6
CONTINUOUS
 10
-8.70025
 20
-35.461373
 11
-8.427977
 21
-35.461373
  0
LINE
  5
25E
100
AcDbEntity
  8
ASSI
100
AcDbLine
 62
7
  6
CONTINUOUS
 10
-8.246464
 20
-35.461373
 11
-7.974189
 21
-35.461373
  0
LINE
  5
25F
100
AcDbEntity
  8
ASSI
100
AcDbLine
 62
7
  6
CONTINUOUS
 10
-7.372276
 20
-35.461373
 11
-7.1
 21
-35.461373
  0
LINE
  5
260
100
AcDbEntity
  8
ASSI
100
AcDbLine
 62
7
  6
CONTINUOUS
 10
-12.451216
 20
-35.4613768107
 11
-11.813648
 21
-35.461376
  0
LINE
  5
261
100
AcDbEntity
  8
0
100
AcDbLine
 62
7
  6
CONTINUOUS
 10
3.6749773271
 20
-40.0
 11
3.5
 21
-39.930158461
  0
LINE
  5
262
100
AcDbEntity
  8
0
100
AcDbLine
 62
7
  6
CONTINUOUS
 10
-3.087505
 20
34.148221
 11
-4.030979
 21
33.738602
  0
LINE
  5
263
100
AcDbEntity
  8
0
100
AcDbLine
 62
7
  6
CONTINUOUS
 10
3.6749773271
 20
38.4990856836
 11
3.5
 21
38.4292441446
  0
LINE
  5
264
100
AcDbEntity
  8
ASSI
100
AcDbLine
 62
7
  6
CONTINUOUS
 10
-12.082165
 20
-35.209524
 11
-12.413425
 21
-35.209524
  0
LINE
  5
265
100
AcDbEntity
  8
ASSI
100
AcDbLine
 62
7
  6
CONTINUOUS
 10
-12.4134255
 20
-34.8782425
 11
-12.082169
 21
-34.878243
  0
LINE
  5
266
100
AcDbEntity
  8
ASSI
100
AcDbLine
 62
7
  6
CONTINUOUS
 10
-12.085953
 20
-34.626391
 11
-12.323586
 21
-34.626388
  0
LINE
  5
267
100
AcDbEntity
  8
ASSI
100
AcDbLine
 62
7
  6
CONTINUOUS
 10
-11.190852
 20
-34.626388
 11
-10.926949
 21
-34.626388
  0
LINE
  5
268
100
AcDbEntity
  8
0
100
AcDbLine
 62
7
  6
CONTINUOUS
 10
4.657055
 20
-34.375
 11
6.117556
 21
-34.375
  0
LINE
  5
269
100
AcDbEntity
  8
ASSI
100
AcDbLine
 62
7
  6
CONTINUOUS
 10
-10.843898
 20
-34.367728
 11
-11.273905
 21
-34.367728
  0
LINE
  5
26A
100
AcDbEntity
  8
ASSI
100
AcDbLine
 62
7
  6
CONTINUOUS
 10
-11.359858
 20
-34.100007
 11
-11.632134
 21
-34.100003
  0
LINE
  5
26B
100
AcDbEntity
  8
ASSI
100
AcDbLine
 62
7
  6
CONTINUOUS
 10
-11.813648
 20
-34.100007
 11
-12.085923
 21
-34.100007
  0
LINE
  5
26C
100
AcDbEntity
  8
ASSI
100
AcDbLine
 62
7
  6
CONTINUOUS
 10
-8.972511
 20
-34.100003
 11
-9.244783
 21
-34.100003
  0
LINE
  5
26D
100
AcDbEntity
  8
ASSI
100
AcDbLine
 62
7
  6
CONTINUOUS
 10
-10.031885
 20
-34.100003
 11
-10.304157
 21
-34.100003
  0
LINE
  5
26E
100
AcDbEntity
  8
ASSI
100
AcDbLine
 62
7
  6
CONTINUOUS
 10
-7.537089
 20
-34.1
 11
-7.809371
 21
-34.100003
  0
LINE
  5
26F
100
AcDbEntity
  8
ASSI
100
AcDbLine
 62
7
  6
CONTINUOUS
 10
-8.427974
 20
-34.1
 11
-8.700246
 21
-34.100003
  0
LINE
  5
270
100
AcDbEntity
  8
ASSI
100
AcDbLine
 62
7
  6
CONTINUOUS
 10
-12.596437
 20
-34.100007
 11
-12.90311
 21
-34.10001
  0
LINE
  5
271
100
AcDbEntity
  8
ASSI
100
AcDbLine
 62
7
  6
CONTINUOUS
 10
-9.5022
 20
-34.100003
 11
-9.774465
 21
-34.100007
  0
LINE
  5
272
100
AcDbEntity
  8
ASSI
100
AcDbLine
 62
7
  6
CONTINUOUS
 10
-10.48567
 20
-34.100003
 11
-10.757942
 21
-34.100007
  0
LINE
  5
273
100
AcDbEntity
  8
0
100
AcDbLine
 62
7
  6
CONTINUOUS
 10
-13.0
 20
-33.9
 11
-7.0
 21
-33.9
  0
LINE
  5
274
100
AcDbEntity
  8
0
100
AcDbLine
 62
7
  6
CONTINUOUS
 10
7.0
 20
-33.9
 11
13.0
 21
-33.9
  0
LINE
  5
275
100
AcDbEntity
  8
0
100
AcDbLine
 62
7
  6
CONTINUOUS
 10
6.117556
 20
-33.625
 11
4.657051888
 21
-33.625
  0
LINE
  5
276
100
AcDbEntity
  8
0
100
AcDbLine
 62
7
  6
CONTINUOUS
 10
-15.25
 20
-33.4918713663
 11
-0.4664133088
 21
-33.4918713663
  0
LINE
  5
277
100
AcDbEntity
  8
0
100
AcDbLine
 62
7
  6
CONTINUOUS
 10
0.305655619
 20
-33.4918713663
 11
3.9186965712
 21
-33.4918713663
  0
LINE
  5
278
100
AcDbEntity
  8
0
100
AcDbLine
 62
7
  6
CONTINUOUS
 10
4.690765619
 20
-33.4918713663
 11
15.25
 21
-33.4918713663
  0
LINE
  5
279
100
AcDbEntity
  8
0
100
AcDbLine
 62
7
  6
CONTINUOUS
 10
-0.4627913587
 20
-33.4743736336
 11
0.3109011556
 21
-33.4743736336
  0
LINE
  5
27A
100
AcDbEntity
  8
0
100
AcDbLine
 62
7
  6
CONTINUOUS
 10
3.9223185211
 20
-33.4743736336
 11
4.6960111556
 21
-33.4743736336
  0
LINE
  5
27B
100
AcDbEntity
  8
0
100
AcDbLine
 62
7
  6
CONTINUOUS
 10
3.6749773271
 20
-38.4990856836
 11
3.5
 21
-38.4292441446
  0
LINE
  5
27C
100
AcDbEntity
  8
0
100
AcDbLine
 62
7
  6
CONTINUOUS
 10
-4.242984
 20
32.93321
 11
-3.296255
 21
33.344242
  0
LINE
  5
27D
100
AcDbEntity
  8
0
100
AcDbLine
 62
7
  6
CONTINUOUS
 10
-0.508967
 20
34.148221
 11
-1.428825
 21
33.748855
  0
LINE
  5
27E
100
AcDbEntity
  8
0
100
AcDbLine
 62
7
  6
CONTINUOUS
 10
-3.437821
 20
32.799016
 11
-4.399429
 21
32.381524
  0
LWPOLYLINE
  5
27F
100
AcDbEntity
  8
RACCORDO
100
AcDbPolyline
 62
250
  6
CONTINUOUS
 90
22
 70
0
 10
14.0099473754
 20
38.3
 10
14.014243835
 20
38.301849503
 10
14.0189248473
 20
38.303769544
 10
14.0236225211
 20
38.3056017738
 10
14.0283359971
 20
38.3073458574
 10
14.0330644137
 20
38.3090014757
 10
14.037806906
 20
38.310568326
 10
14.042562607
 20
38.3120461218
 10
14.0473306468
 20
38.3134345929
 10
14.0521101537
 20
38.3147334854
 10
14.0569002536
 20
38.3159425618
 10
14.0617000707
 20
38.3170616009
 10
14.0665087271
 20
38.3180903981
 10
14.0713253436
 20
38.3190287653
 10
14.0761490394
 20
38.319876531
 10
14.0809789324
 20
38.32063354
 10
14.0858141393
 20
38.321299654
 10
14.0906537762
 20
38.3218747511
 10
14.0954969578
 20
38.3223587262
 10
14.1003427986
 20
38.3227514908
 10
14.1051904125
 20
38.323052973
 10
14.110038913
 20
38.3232631178
  0
LINE
  5
280
100
AcDbEntity
  8
ASSI
100
AcDbLine
 62
7
  6
CONTINUOUS
 10
3.546068
 20
-30.4260940197
 11
4.458087
 21
-30.4260940197
  0
LINE
  5
281
100
AcDbEntity
  8
ASSI
100
AcDbLine
 62
7
  6
CONTINUOUS
 10
3.546068
 20
-30.3913643842
 11
4.458087
 21
-30.3913643842
  0
LINE
  5
282
100
AcDbEntity
  8
ASSI
100
AcDbLine
 62
7
  6
CONTINUOUS
 10
4.458087
 20
-30.1143592297
 11
4.173343
 21
-30.1143592297
  0
LINE
  5
283
100
AcDbEntity
  8
ASSI
100
AcDbLine
 62
7
  6
CONTINUOUS
 10
3.830922
 20
-30.1143592297
 11
3.546068
 21
-30.1143592297
  0
LWPOLYLINE
  5
284
100
AcDbEntity
  8
ASSI
100
AcDbPolyline
 62
7
  6
CONTINUOUS
 90
10
 70
0
 10
4.1210925754
 20
-30.9594819395
 10
4.2506731432
 20
-30.9770179662
 10
4.3772794559
 20
-31.0030622346
 10
4.5009115135
 20
-31.0376147446
 10
4.622169742
 20
-31.0809628442
 10
4.7404537153
 20
-31.1328191855
 10
4.8539621555
 20
-31.1923217247
 10
4.9620946367
 20
-31.2591831139
 10
5.0654515849
 20
-31.333690701
 10
5.164033
 20
-31.415844486
  0
LWPOLYLINE
  5
285
100
AcDbEntity
  8
ASSI
100
AcDbPolyline
 62
7
  6
CONTINUOUS
 90
10
 70
0
 10
4.1210925778
 20
-30.9247523045
 10
4.250674662
 20
-30.9422823905
 10
4.3772970998
 20
-30.9683317836
 10
4.5009598913
 20
-31.0029004839
 10
4.6222834464
 20
-31.0462886131
 10
4.7406473553
 20
-31.0981960494
 10
4.854190388
 20
-31.1577224277
 10
4.9622921348
 20
-31.2245676265
 10
5.0655730054
 20
-31.2990317674
 10
5.164033
 20
-31.3811148504
  0
LWPOLYLINE
  5
286
100
AcDbEntity
  8
RACCORDO
100
AcDbPolyline
 62
250
  6
CONTINUOUS
 90
22
 70
0
 10
14.0099473733
 20
-38.3
 10
14.0142438346
 20
-38.3018495037
 10
14.0189248469
 20
-38.3037695448
 10
14.0236225207
 20
-38.3056017746
 10
14.0283359968
 20
-38.3073458582
 10
14.0330644133
 20
-38.3090014765
 10
14.0378069057
 20
-38.3105683268
 10
14.0425626067
 20
-38.3120461227
 10
14.0473306465
 20
-38.3134345938
 10
14.0521101535
 20
-38.3147334863
 10
14.0569002534
 20
-38.3159425627
 10
14.0617000705
 20
-38.3170616018
 10
14.0665087269
 20
-38.318090399
 10
14.0713253434
 20
-38.3190287663
 10
14.0761490392
 20
-38.3198765319
 10
14.0809789322
 20
-38.320633541
 10
14.0858141392
 20
-38.321299655
 10
14.0906537761
 20
-38.3218747521
 10
14.0954969577
 20
-38.3223587272
 10
14.1003427986
 20
-38.3227514918
 10
14.1051904125
 20
-38.323052974
 10
14.110038913
 20
-38.3232631188
  0
LINE
  5
287
100
AcDbEntity
  8
0
100
AcDbLine
 62
7
  6
CONTINUOUS
 10
0.470111
 20
31.476042
 11
0.009339
 21
31.275993
  0
LINE
  5
288
100
AcDbEntity
  8
0
100
AcDbLine
 62
7
  6
CONTINUOUS
 10
-0.1054554558
 20
30.8680022363
 11
1.323865
 21
31.488556
  0
LINE
  5
289
100
AcDbEntity
  8
0
100
AcDbLine
 62
7
  6
CONTINUOUS
 10
1.780178
 20
31.686669
 11
2.6461019027
 21
32.062619182
  0
LINE
  5
28A
100
AcDbEntity
  8
0
100
AcDbLine
 62
7
  6
CONTINUOUS
 10
1.18961
 20
30.971485
 11
0.2490673391
 21
30.5631391472
  0
LINE
  5
28B
100
AcDbEntity
  8
0
100
AcDbLine
 62
7
  6
CONTINUOUS
 10
3.049748
 20
31.779083
 11
1.645922
 21
31.169598
  0
LINE
  5
28C
100
AcDbEntity
  8
0
100
AcDbLine
 62
7
  6
CONTINUOUS
 10
2.504549
 20
31.222276
 11
2.956074
 21
31.418311
  0
LINE
  5
28D
100
AcDbEntity
  8
ASSI
100
AcDbLine
 62
7
  6
CONTINUOUS
 10
3.556565
 20
-27.8996356525
 11
3.830922
 21
-27.8996356525
  0
LINE
  5
28E
100
AcDbEntity
  8
ASSI
100
AcDbLine
 62
7
  6
CONTINUOUS
 10
4.173343
 20
-27.8996356525
 11
4.44759
 21
-27.8996356525
  0
LINE
  5
28F
100
AcDbEntity
  8
ASSI
100
AcDbLine
 62
7
  6
CONTINUOUS
 10
3.556565
 20
-27.864906017
 11
3.830922
 21
-27.864906017
  0
LINE
  5
290
100
AcDbEntity
  8
ASSI
100
AcDbLine
 62
7
  6
CONTINUOUS
 10
4.173343
 20
-27.864906017
 11
4.44759
 21
-27.864906017
  0
LINE
  5
291
100
AcDbEntity
  8
ASSI
100
AcDbLine
 62
7
  6
CONTINUOUS
 10
4.44759
 20
-27.5861861743
 11
3.556565
 21
-27.5861861743
  0
LINE
  5
292
100
AcDbEntity
  8
ASSI
100
AcDbLine
 62
7
  6
CONTINUOUS
 10
-12.90311
 20
-34.10001
 11
-12.613289391
 21
-34.6591311748
  0
LINE
  5
293
100
AcDbEntity
  8
ASSI
100
AcDbLine
 62
7
  6
CONTINUOUS
 10
-12.323586
 20
-34.626388
 11
-12.596437
 21
-34.100007
  0
LWPOLYLINE
  5
294
100
AcDbEntity
  8
RACCORDO
100
AcDbPolyline
 62
250
  6
CONTINUOUS
 90
43
 70
0
 10
-12.6028307339
 20
22.5
 10
-12.6064641974
 20
22.4954310273
 10
-12.6106108988
 20
22.4900794894
 10
-12.6146884421
 20
22.4846777592
 10
-12.6186961118
 20
22.4792267873
 10
-12.6226332491
 20
22.4737274692
 10
-12.6264991692
 20
22.4681807568
 10
-12.6302931682
 20
22.462587656
 10
-12.6340145735
 20
22.4569491543
 10
-12.6376627315
 20
22.4512662376
 10
-12.6412369839
 20
22.4455399268
 10
-12.6447366723
 20
22.439771274
 10
-12.6481611753
 20
22.4339613024
 10
-12.6515098843
 20
22.4281110433
 10
-12.6547821833
 20
22.4222215736
 10
-12.6579774916
 20
22.4162939408
 10
-12.6610952439
 20
22.4103291958
 10
-12.6641348705
 20
22.4043284328
 10
-12.6670958227
 20
22.3982927418
 10
-12.6699775895
 20
22.3922231713
 10
-12.672779679
 20
22.3861207623
 10
-12.6755015875
 20
22.3799866143
 10
-12.6781428406
 20
22.3738218002
 10
-12.680703006
 20
22.3676273272
 10
-12.683181636
 20
22.3614042699
 10
-12.6855782784
 20
22.3551537555
 10
-12.6878925116
 20
22.3488768753
 10
-12.6901239286
 20
22.3425747224
 10
-12.6922721226
 20
22.3362484343
 10
-12.6943366955
 20
22.3298991759
 10
-12.6963172792
 20
22.3235280742
 10
-12.6982135207
 20
22.3171362593
 10
-12.7000250701
 20
22.3107249084
 10
-12.7017516045
 20
22.3042951647
 10
-12.7033928192
 20
22.2978481643
 10
-12.7049484167
 20
22.2913850788
 10
-12.7064181215
 20
22.2849070577
 10
-12.7078016746
 20
22.278415249
 10
-12.7090988276
 20
22.2719108259
 10
-12.7103093517
 20
22.2653949472
 10
-12.7114330348
 20
22.2588687656
 10
-12.7124696782
 20
22.2523334487
 10
-12.713329084
 20
22.2464376816
  0
LWPOLYLINE
  5
295
100
AcDbEntity
  8
RACCORDO
100
AcDbPolyline
 62
250
  6
CONTINUOUS
 90
40
 70
0
 10
-12.57948188
 20
22.5
 10
-12.5826440968
 20
22.4964081869
 10
-12.5875427008
 20
22.4907000586
 10
-12.5923677113
 20
22.4849315182
 10
-12.5971182727
 20
22.4791035962
 10
-12.6017935855
 20
22.4732172812
 10
-12.6063928788
 20
22.4672735488
 10
-12.6109153453
 20
22.4612734462
 10
-12.6153602123
 20
22.4552180023
 10
-12.6197267753
 20
22.4491081762
 10
-12.624014294
 20
22.4429449991
 10
-12.6282220017
 20
22.4367295673
 10
-12.6323491722
 20
22.4304629493
 10
-12.6363950981
 20
22.4241462132
 10
-12.6403590626
 20
22.4177804721
 10
-12.6442403473
 20
22.4113668764
 10
-12.648038278
 20
22.4049065387
 10
-12.6517521945
 20
22.3984005807
 10
-12.6553814242
 20
22.3918501811
 10
-12.6589253372
 20
22.38525648
 10
-12.6623833208
 20
22.3786206206
 10
-12.6657547545
 20
22.3719437986
 10
-12.6690390407
 20
22.3652272063
 10
-12.6722356284
 20
22.3584719796
 10
-12.675343989
 20
22.3516792405
 10
-12.6783635759
 20
22.3448501872
 10
-12.6812938745
 20
22.3379859873
 10
-12.6841344215
 20
22.3310877229
 10
-12.6868847329
 20
22.3241565584
 10
-12.6895443147
 20
22.3171937276
 10
-12.6921127071
 20
22.3102004239
 10
-12.6945894679
 20
22.3031778379
 10
-12.696974155
 20
22.2961272097
 10
-12.6992663337
 20
22.2890498154
 10
-12.7014656039
 20
22.2819468839
 10
-12.7035715821
 20
22.2748196473
 10
-12.7055838867
 20
22.2676693947
 10
-12.7075021666
 20
22.260497374
 10
-12.709326091
 20
22.2533048242
 10
-12.7110553354
 20
22.2460930272
  0
LWPOLYLINE
  5
296
100
AcDbEntity
  8
0
100
AcDbPolyline
 62
7
  6
CONTINUOUS
 90
16
 70
0
 10
-3.4964991059
 20
-25.3206666886
 10
-3.4411288551
 20
-25.3159379907
 10
-3.3887858434
 20
-25.3058433166
 10
-3.3394700707
 20
-25.2903826664
 10
-3.2929593023
 20
-25.2694855386
 10
-3.2494757729
 20
-25.2432224347
 10
-3.2096861871
 20
-25.2118048592
 10
-3.1734963367
 20
-25.1751343192
 10
-3.14100043
 20
-25.1333093076
 10
-3.1131477961
 20
-25.0868368074
 10
-3.0904131122
 20
-25.0354152781
 10
-3.0723217011
 20
-24.9793462603
 10
-3.0583988604
 20
-24.9200413583
 10
-3.0484863558
 20
-24.8579711069
 10
-3.0427424215
 20
-24.7926649714
 10
-3.0408497882
 20
-24.7467132061
  0
LWPOLYLINE
  5
297
100
AcDbEntity
  8
0
100
AcDbPolyline
 62
7
  6
CONTINUOUS
 90
16
 70
0
 10
-3.4909982046
 20
-25.4652703645
 10
-3.4100783669
 20
-25.4611401832
 10
-3.3338611113
 20
-25.4495983984
 10
-3.2623464378
 20
-25.43064501
 10
-3.1954024358
 20
-25.4039598045
 10
-3.1331610159
 20
-25.3698629954
 10
-3.0760179101
 20
-25.3293152239
 10
-3.0238994707
 20
-25.2826059242
 10
-2.9768793453
 20
-25.229445662
 10
-2.9355742094
 20
-25.1699267762
 10
-2.8998279425
 20
-25.1037124066
 10
-2.8697966651
 20
-25.0311394135
 10
-2.8465654131
 20
-24.9533107159
 10
-2.8304958651
 20
-24.8705939537
 10
-2.8212263425
 20
-24.7826214871
 10
-2.8198424927
 20
-24.7450504009
  0
LWPOLYLINE
  5
298
100
AcDbEntity
  8
0
100
AcDbPolyline
 62
7
  6
CONTINUOUS
 90
16
 70
0
 10
-3.4909982046
 20
-25.5
 10
-3.4131293498
 20
-25.4964278687
 10
-3.3392969122
 20
-25.4856574589
 10
-3.2695008917
 20
-25.4676887707
 10
-3.2035955662
 20
-25.4424432747
 10
-3.1417266578
 20
-25.4099995004
 10
-3.0843313328
 20
-25.3705930353
 10
-3.0310881576
 20
-25.3241932807
 10
-2.9823185658
 20
-25.2708308355
 10
-2.939424024
 20
-25.2108330833
 10
-2.9024820182
 20
-25.143866076
 10
-2.8714150626
 20
-25.0702637619
 10
-2.8473921665
 20
-24.9913553695
 10
-2.8308029999
 20
-24.9075839752
 10
-2.8212578928
 20
-24.8185065025
 10
-2.8185657463
 20
-24.7450974271
  0
LINE
  5
299
100
AcDbEntity
  8
0
100
AcDbLine
 62
7
  6
CONTINUOUS
 10
-7.5
 20
-25.5
 11
-7.290538
 21
-25.5
  0
LINE
  5
29A
100
AcDbEntity
  8
0
100
AcDbLine
 62
7
  6
CONTINUOUS
 10
-6.84036
 20
-25.5
 11
-6.626424
 21
-25.5
  0
LINE
  5
29B
100
AcDbEntity
  8
0
100
AcDbLine
 62
7
  6
CONTINUOUS
 10
-6.176333
 20
-25.5
 11
-5.966786
 21
-25.5
  0
LINE
  5
29C
100
AcDbEntity
  8
0
100
AcDbLine
 62
7
  6
CONTINUOUS
 10
-5.775136
 20
-25.5
 11
-5.552313
 21
-25.5
  0
LINE
  5
29D
100
AcDbEntity
  8
0
100
AcDbLine
 62
7
  6
CONTINUOUS
 10
-4.585196
 20
-25.5
 11
-4.348955
 21
-25.5
  0
LINE
  5
29E
100
AcDbEntity
  8
0
100
AcDbLine
 62
7
  6
CONTINUOUS
 10
-4.1395
 20
-25.5
 11
-3.4909982046
 21
-25.5
  0
LINE
  5
29F
100
AcDbEntity
  8
0
100
AcDbLine
 62
7
  6
CONTINUOUS
 10
-2.519378
 20
-25.5
 11
-1.338238
 21
-25.5
  0
LINE
  5
2A0
100
AcDbEntity
  8
0
100
AcDbLine
 62
7
  6
CONTINUOUS
 10
-0.402254
 20
-25.5
 11
-0.186109
 21
-25.5
  0
LINE
  5
2A1
100
AcDbEntity
  8
0
100
AcDbLine
 62
7
  6
CONTINUOUS
 10
0.183761
 20
-25.5
 11
0.39332
 21
-25.5
  0
LINE
  5
2A2
100
AcDbEntity
  8
0
100
AcDbLine
 62
7
  6
CONTINUOUS
 10
1.211177
 20
-25.5
 11
1.454069
 21
-25.5
  0
LINE
  5
2A3
100
AcDbEntity
  8
0
100
AcDbLine
 62
7
  6
CONTINUOUS
 10
2.445694
 20
-25.5
 11
2.661904
 21
-25.5
  0
LINE
  5
2A4
100
AcDbEntity
  8
0
100
AcDbLine
 62
7
  6
CONTINUOUS
 10
3.435197
 20
-25.5
 11
3.651329
 21
-25.5
  0
LINE
  5
2A5
100
AcDbEntity
  8
0
100
AcDbLine
 62
7
  6
CONTINUOUS
 10
4.255253
 20
-25.5
 11
4.478063
 21
-25.5
  0
LINE
  5
2A6
100
AcDbEntity
  8
0
100
AcDbLine
 62
7
  6
CONTINUOUS
 10
5.44527
 20
-25.5
 11
5.68155
 21
-25.5
  0
LINE
  5
2A7
100
AcDbEntity
  8
0
100
AcDbLine
 62
7
  6
CONTINUOUS
 10
5.879787
 20
-25.5
 11
6.907203
 21
-25.5
  0
LINE
  5
2A8
100
AcDbEntity
  8
0
100
AcDbLine
 62
7
  6
CONTINUOUS
 10
7.584599
 20
-25.5
 11
7.800693
 21
-25.5
  0
LINE
  5
2A9
100
AcDbEntity
  8
0
100
AcDbLine
 62
7
  6
CONTINUOUS
 10
-7.5
 20
-25.4652703645
 11
-7.290538
 21
-25.4652703645
  0
LINE
  5
2AA
100
AcDbEntity
  8
0
100
AcDbLine
 62
7
  6
CONTINUOUS
 10
-6.84036
 20
-25.4652703645
 11
-6.626424
 21
-25.4652703645
  0
LINE
  5
2AB
100
AcDbEntity
  8
0
100
AcDbLine
 62
7
  6
CONTINUOUS
 10
-6.176333
 20
-25.4652703645
 11
-5.966786
 21
-25.4652703645
  0
LINE
  5
2AC
100
AcDbEntity
  8
0
100
AcDbLine
 62
7
  6
CONTINUOUS
 10
-5.7616706055
 20
-25.4652703645
 11
-5.552313
 21
-25.4652703645
  0
LINE
  5
2AD
100
AcDbEntity
  8
0
100
AcDbLine
 62
7
  6
CONTINUOUS
 10
-4.585196
 20
-25.4652703645
 11
-4.3619217035
 21
-25.4652703645
  0
LINE
  5
2AE
100
AcDbEntity
  8
0
100
AcDbLine
 62
7
  6
CONTINUOUS
 10
-4.1395
 20
-25.4652703645
 11
-3.4909982046
 21
-25.4652703645
  0
LINE
  5
2AF
100
AcDbEntity
  8
0
100
AcDbLine
 62
7
  6
CONTINUOUS
 10
-2.519378
 20
-25.4652703645
 11
-1.338238
 21
-25.4652703645
  0
LINE
  5
2B0
100
AcDbEntity
  8
0
100
AcDbLine
 62
7
  6
CONTINUOUS
 10
-0.402254
 20
-25.4652703645
 11
-0.186109
 21
-25.4652703645
  0
LINE
  5
2B1
100
AcDbEntity
  8
0
100
AcDbLine
 62
7
  6
CONTINUOUS
 10
0.183761
 20
-25.4652703645
 11
0.39332
 21
-25.4652703645
  0
LINE
  5
2B2
100
AcDbEntity
  8
0
100
AcDbLine
 62
7
  6
CONTINUOUS
 10
1.211177
 20
-25.4652703645
 11
1.454069
 21
-25.4652703645
  0
LINE
  5
2B3
100
AcDbEntity
  8
0
100
AcDbLine
 62
7
  6
CONTINUOUS
 10
2.445694
 20
-25.4652703645
 11
2.661904
 21
-25.4652703645
  0
LINE
  5
2B4
100
AcDbEntity
  8
0
100
AcDbLine
 62
7
  6
CONTINUOUS
 10
3.435197
 20
-25.4652703645
 11
3.651329
 21
-25.4652703645
  0
LINE
  5
2B5
100
AcDbEntity
  8
0
100
AcDbLine
 62
7
  6
CONTINUOUS
 10
4.2687201402
 20
-25.4652703645
 11
4.478063
 21
-25.4652703645
  0
LINE
  5
2B6
100
AcDbEntity
  8
0
100
AcDbLine
 62
7
  6
CONTINUOUS
 10
5.44527
 20
-25.4652703645
 11
5.6685807003
 21
-25.4652703645
  0
LINE
  5
2B7
100
AcDbEntity
  8
0
100
AcDbLine
 62
7
  6
CONTINUOUS
 10
5.879787
 20
-25.4652703645
 11
6.907203
 21
-25.4652703645
  0
LINE
  5
2B8
100
AcDbEntity
  8
0
100
AcDbLine
 62
7
  6
CONTINUOUS
 10
7.584599
 20
-25.4652703645
 11
7.800693
 21
-25.4652703645
  0
LINE
  5
2B9
100
AcDbEntity
  8
0
100
AcDbLine
 62
7
  6
CONTINUOUS
 10
-3.4964991059
 20
-25.3206666886
 11
-3.923276
 21
-25.3206666886
  0
LINE
  5
2BA
100
AcDbEntity
  8
0
100
AcDbLine
 62
7
  6
CONTINUOUS
 10
6.907203
 20
-25.3141405928
 11
6.09601
 21
-25.3141405928
  0
LINE
  5
2BB
100
AcDbEntity
  8
0
100
AcDbLine
 62
7
  6
CONTINUOUS
 10
-1.338238
 20
-25.3141405928
 11
-2.303168
 21
-25.3141405928
  0
LINE
  5
2BC
100
AcDbEntity
  8
DRAFT
100
AcDbLine
 62
7
  6
CONTINUOUS
 10
15.25
 20
-25.1936499936
 11
16.9127246754
 21
-25.1936499936
  0
LINE
  5
2BD
100
AcDbEntity
  8
DRAFT
100
AcDbLine
 62
7
  6
CONTINUOUS
 10
-15.25
 20
-25.1936499936
 11
-16.9127246754
 21
-25.1936499936
  0
LINE
  5
2BE
100
AcDbEntity
  8
0
100
AcDbLine
 62
7
  6
CONTINUOUS
 10
-5.385158
 20
-25.0483406336
 11
-4.743398
 21
-25.0483406336
  0
LINE
  5
2BF
100
AcDbEntity
  8
0
100
AcDbLine
 62
7
  6
CONTINUOUS
 10
4.645231
 20
-25.0483406336
 11
5.287056
 21
-25.0483406336
  0
LINE
  5
2C0
100
AcDbEntity
  8
0
100
AcDbLine
 62
7
  6
CONTINUOUS
 10
-5.385158
 20
-25.013610998
 11
-4.743398
 21
-25.013610998
  0
LINE
  5
2C1
100
AcDbEntity
  8
0
100
AcDbLine
 62
7
  6
CONTINUOUS
 10
4.645231
 20
-25.013610998
 11
5.287056
 21
-25.013610998
  0
LINE
  5
2C2
100
AcDbEntity
  8
0
100
AcDbLine
 62
7
  6
CONTINUOUS
 10
5.209042
 20
-24.8624821962
 11
4.712091
 21
-24.8624821962
  0
LINE
  5
2C3
100
AcDbEntity
  8
0
100
AcDbLine
 62
7
  6
CONTINUOUS
 10
-4.821334
 20
-24.8624821962
 11
-5.318285
 21
-24.8624821962
  0
LINE
  5
2C4
100
AcDbEntity
  8
0
100
AcDbLine
 62
7
  6
CONTINUOUS
 10
-2.303168
 20
-24.795466786
 11
-1.427393
 21
-24.795466786
  0
LINE
  5
2C5
100
AcDbEntity
  8
0
100
AcDbLine
 62
7
  6
CONTINUOUS
 10
-2.303168
 20
-24.7607371504
 11
-1.427393
 21
-24.7607371504
  0
LINE
  5
2C6
100
AcDbEntity
  8
0
100
AcDbLine
 62
7
  6
CONTINUOUS
 10
-1.427393
 20
-24.6096083486
 11
-2.303168
 21
-24.6096083486
  0
LINE
  5
2C7
100
AcDbEntity
  8
0
100
AcDbLine
 62
7
  6
CONTINUOUS
 10
-2.303168
 20
-24.1341053106
 11
-1.353856
 21
-24.1341053106
  0
LINE
  5
2C8
100
AcDbEntity
  8
0
100
AcDbLine
 62
7
  6
CONTINUOUS
 10
2.893668
 20
-24.1341053106
 11
3.435197
 21
-24.1341053106
  0
LINE
  5
2C9
100
AcDbEntity
  8
0
100
AcDbLine
 62
7
  6
CONTINUOUS
 10
3.651329
 20
-24.1341053106
 11
4.192858
 21
-24.1341053106
  0
LINE
  5
2CA
100
AcDbEntity
  8
0
100
AcDbLine
 62
7
  6
CONTINUOUS
 10
-3.923276
 20
-24.1275792148
 11
-3.4964991055
 21
-24.1275792148
  0
LINE
  5
2CB
100
AcDbEntity
  8
0
100
AcDbLine
 62
7
  6
CONTINUOUS
 10
-2.303168
 20
-24.0993756751
 11
-1.353856
 21
-24.0993756751
  0
LINE
  5
2CC
100
AcDbEntity
  8
0
100
AcDbLine
 62
7
  6
CONTINUOUS
 10
2.893668
 20
-24.0993756751
 11
3.435197
 21
-24.0993756751
  0
LINE
  5
2CD
100
AcDbEntity
  8
0
100
AcDbLine
 62
7
  6
CONTINUOUS
 10
3.651329
 20
-24.0993756751
 11
4.192858
 21
-24.0993756751
  0
LINE
  5
2CE
100
AcDbEntity
  8
0
100
AcDbLine
 62
7
  6
CONTINUOUS
 10
-3.923276
 20
-24.0928495792
 11
-3.496499102
 21
-24.0928495792
  0
LINE
  5
2CF
100
AcDbEntity
  8
0
100
AcDbLine
 62
7
  6
CONTINUOUS
 10
8.40472
 20
-23.9482459034
 11
8.150584
 21
-23.9482459034
  0
LINE
  5
2D0
100
AcDbEntity
  8
0
100
AcDbLine
 62
7
  6
CONTINUOUS
 10
7.232508
 20
-23.9482459034
 11
6.980701
 21
-23.9482459034
  0
LINE
  5
2D1
100
AcDbEntity
  8
0
100
AcDbLine
 62
7
  6
CONTINUOUS
 10
6.09601
 20
-23.9482459034
 11
5.879787
 21
-23.9482459034
  0
LINE
  5
2D2
100
AcDbEntity
  8
0
100
AcDbLine
 62
7
  6
CONTINUOUS
 10
5.102069
 20
-23.9482459034
 11
4.856978
 21
-23.9482459034
  0
LINE
  5
2D3
100
AcDbEntity
  8
0
100
AcDbLine
 62
7
  6
CONTINUOUS
 10
4.192858
 20
-23.9482459034
 11
2.893668
 21
-23.9482459034
  0
LINE
  5
2D4
100
AcDbEntity
  8
0
100
AcDbLine
 62
7
  6
CONTINUOUS
 10
2.661904
 20
-23.9482459034
 11
2.445694
 21
-23.9482459034
  0
LINE
  5
2D5
100
AcDbEntity
  8
0
100
AcDbLine
 62
7
  6
CONTINUOUS
 10
1.454069
 20
-23.9482459034
 11
1.244614
 21
-23.9482459034
  0
LINE
  5
2D6
100
AcDbEntity
  8
0
100
AcDbLine
 62
7
  6
CONTINUOUS
 10
0.440085
 20
-23.9482459034
 11
0.183761
 21
-23.9482459034
  0
LINE
  5
2D7
100
AcDbEntity
  8
0
100
AcDbLine
 62
7
  6
CONTINUOUS
 10
-0.186109
 20
-23.9482459034
 11
-0.402254
 21
-23.9482459034
  0
LINE
  5
2D8
100
AcDbEntity
  8
0
100
AcDbLine
 62
7
  6
CONTINUOUS
 10
-1.353856
 20
-23.9482459034
 11
-2.519378
 21
-23.9482459034
  0
LINE
  5
2D9
100
AcDbEntity
  8
0
100
AcDbLine
 62
7
  6
CONTINUOUS
 10
-3.4841953667
 20
-23.9482459034
 11
-4.1395
 21
-23.9482459034
  0
LINE
  5
2DA
100
AcDbEntity
  8
0
100
AcDbLine
 62
7
  6
CONTINUOUS
 10
-4.92832
 20
-23.9482459034
 11
-5.173489
 21
-23.9482459034
  0
LINE
  5
2DB
100
AcDbEntity
  8
0
100
AcDbLine
 62
7
  6
CONTINUOUS
 10
-5.966786
 20
-23.9482459034
 11
-6.274351
 21
-23.9482459034
  0
LINE
  5
2DC
100
AcDbEntity
  8
0
100
AcDbLine
 62
7
  6
CONTINUOUS
 10
-7.190237
 20
-23.9482459034
 11
-7.5
 21
-23.9482459034
  0
LWPOLYLINE
  5
2DD
100
AcDbEntity
  8
0
100
AcDbPolyline
 62
7
  6
CONTINUOUS
 90
16
 70
0
 10
-3.496499102
 20
-24.0928495792
 10
-3.4381721793
 20
-24.0980872953
 10
-3.3833192356
 20
-24.1091632766
 10
-3.3319402709
 20
-24.126077523
 10
-3.2836339103
 20
-24.1492715938
 10
-3.2388015287
 20
-24.1783039298
 10
-3.1986472512
 20
-24.2118498535
 10
-3.1636201361
 20
-24.2496564142
 10
-3.1332711251
 20
-24.2919765626
 10
-3.1074571683
 20
-24.3382444742
 10
-3.0863660046
 20
-24.3885763557
 10
-3.0698098952
 20
-24.4428560004
 10
-3.0570825724
 20
-24.5001689633
 10
-3.047948614
 20
-24.5602104294
 10
-3.0426434424
 20
-24.6232852137
 10
-3.0408497762
 20
-24.666764486
  0
LWPOLYLINE
  5
2DE
100
AcDbEntity
  8
ASSI
100
AcDbPolyline
 62
7
  6
CONTINUOUS
 90
13
 70
0
 10
3.4037790879
 20
-30.0302423677
 10
3.3100409598
 20
-29.9734631068
 10
3.2230115727
 20
-29.9097460763
 10
3.1426909265
 20
-29.8390912762
 10
3.0684351121
 20
-29.7607492157
 10
3.0008880386
 20
-29.6754693856
 10
2.9419814334
 20
-29.5855002588
 10
2.8920518203
 20
-29.4907663071
 10
2.8507626756
 20
-29.3913430587
 10
2.8190361552
 20
-29.2897055707
 10
2.7971091506
 20
-29.185839402
 10
2.7847447705
 20
-29.0797589936
 10
2.7818686494
 20
-28.9998368513
  0
LWPOLYLINE
  5
2DF
100
AcDbEntity
  8
RACCORDO
100
AcDbPolyline
 62
7
  6
CONTINUOUS
 90
62
 70
0
 10
-12.5785244206
 20
-22.5
 10
-12.5786583252
 20
-22.4998494318
 10
-12.5826417126
 20
-22.4952780999
 10
-12.5865397836
 20
-22.4907132528
 10
-12.5903533819
 20
-22.4861567225
 10
-12.5940868719
 20
-22.4816059999
 10
-12.5977410842
 20
-22.4770626618
 10
-12.601316761
 20
-22.4725283875
 10
-12.6048179246
 20
-22.4680005726
 10
-12.6082460471
 20
-22.4634796722
 10
-12.6116010836
 20
-22.4589681189
 10
-12.6148846536
 20
-22.4544661189
 10
-12.618098134
 20
-22.4499741219
 10
-12.6212416002
 20
-22.4454943757
 10
-12.6243147461
 20
-22.4410297564
 10
-12.6273184053
 20
-22.4365815516
 10
-12.6302533705
 20
-22.4321511015
 10
-12.6331193746
 20
-22.4277413875
 10
-12.6359173073
 20
-22.4233536825
 10
-12.6386480543
 20
-22.4189892536
 10
-12.6413114437
 20
-22.4146510963
 10
-12.6439084449
 20
-22.4103404151
 10
-12.6464399972
 20
-22.4060584481
 10
-12.6489059823
 20
-22.4018082595
 10
-12.6513075457
 20
-22.3975907978
 10
-12.6536455682
 20
-22.3934074512
 10
-12.6559196481
 20
-22.3892619641
 10
-12.6581309488
 20
-22.385155321
 10
-12.6602804713
 20
-22.3810887767
 10
-12.6623677066
 20
-22.3770665065
 10
-12.6643936644
 20
-22.3730898767
 10
-12.6663596421
 20
-22.369159658
 10
-12.6682656819
 20
-22.365279141
 10
-12.6701119896
 20
-22.3614514018
 10
-12.6719007663
 20
-22.3576753715
 10
-12.6736350057
 20
-22.3539480636
 10
-12.6753153486
 20
-22.3502713554
 10
-12.6769433345
 20
-22.3466451343
 10
-12.6785230667
 20
-22.3430633088
 10
-12.6800554567
 20
-22.3395266808
 10
-12.681541435
 20
-22.3360359778
 10
-12.6829848378
 20
-22.3325848838
 10
-12.6843868416
 20
-22.3291730776
 10
-12.6857477869
 20
-22.3258022329
 10
-12.6870700266
 20
-22.3224689556
 10
-12.6883552291
 20
-22.3191713113
 10
-12.6896030429
 20
-22.3159124869
 10
-12.6908127729
 20
-22.3126967599
 10
-12.6919852422
 20
-22.3095245068
 10
-12.6931210883
 20
-22.3063965763
 10
-12.6942194795
 20
-22.3033179637
 10
-12.6952811421
 20
-22.3002894651
 10
-12.6963069401
 20
-22.2973114516
 10
-12.6972963867
 20
-22.2943882677
 10
-12.698250272
 20
-22.291520612
 10
-12.6991694792
 20
-22.2887088586
 10
-12.7000537757
 20
-22.2859568224
 10
-12.7009039097
 20
-22.2832653642
 10
-12.7017208581
 20
-22.2806345659
 10
-12.7025048152
 20
-22.2780670045
 10
-12.7032563956
 20
-22.2755639242
 10
-12.7039767083
 20
-22.2731248654
  0
LWPOLYLINE
  5
2E0
100
AcDbEntity
  8
RACCORDO
100
AcDbPolyline
 62
250
  6
CONTINUOUS
 90
44
 70
0
 10
-12.5816980343
 20
-22.5
 10
-12.5832505863
 20
-22.498236705
 10
-12.5881046007
 20
-22.4925812088
 10
-12.5928857151
 20
-22.4868659399
 10
-12.5975930789
 20
-22.4810919223
 10
-12.6022258973
 20
-22.475260139
 10
-12.6067834037
 20
-22.4693715598
 10
-12.6112647956
 20
-22.4634272251
 10
-12.6156693048
 20
-22.4574281578
 10
-12.6199962302
 20
-22.4513753123
 10
-12.6242448356
 20
-22.4452697134
 10
-12.6284143591
 20
-22.4391124507
 10
-12.6325040783
 20
-22.4329045865
 10
-12.6365132899
 20
-22.4266471825
 10
-12.6404412816
 20
-22.420341345
 10
-12.6442873392
 20
-22.4139882167
 10
-12.6480507926
 20
-22.4075889033
 10
-12.6517309853
 20
-22.4011445197
 10
-12.6553272491
 20
-22.3946562367
 10
-12.6588389575
 20
-22.3881251874
 10
-12.6622655016
 20
-22.3815525078
 10
-12.6656062645
 20
-22.3749393858
 10
-12.6688606523
 20
-22.3682870058
 10
-12.672028117
 20
-22.3615964969
 10
-12.6751081329
 20
-22.3548689747
 10
-12.6781001564
 20
-22.3481056297
 10
-12.681003676
 20
-22.3413076221
 10
-12.6838182308
 20
-22.334476028
 10
-12.6865433396
 20
-22.3276120046
 10
-12.6891785114
 20
-22.3207167774
 10
-12.6917232894
 20
-22.313791532
 10
-12.694177234
 20
-22.306837451
 10
-12.6965399058
 20
-22.2998557667
 10
-12.6988108727
 20
-22.2928477464
 10
-12.7009897372
 20
-22.2858146108
 10
-12.703076118
 20
-22.2787575842
 10
-12.7050696359
 20
-22.2716779466
 10
-12.7069699421
 20
-22.2645769378
 10
-12.7087767075
 20
-22.2574557884
 10
-12.71048961
 20
-22.2503157718
 10
-12.7121083521
 20
-22.2431581344
 10
-12.7136326539
 20
-22.2359841209
 10
-12.7150622467
 20
-22.2287950063
 10
-12.7159399712
 20
-22.2240579756
  0
LWPOLYLINE
  5
2E1
100
AcDbEntity
  8
RACCORDO
100
AcDbPolyline
 62
250
  6
CONTINUOUS
 90
43
 70
0
 10
-12.6030661927
 20
-22.5
 10
-12.6065652635
 20
-22.4956003057
 10
-12.610708432
 20
-22.490253709
 10
-12.614782507
 20
-22.484856996
 10
-12.618786773
 20
-22.4794111172
 10
-12.6227205709
 20
-22.4739169683
 10
-12.6265832161
 20
-22.4683755013
 10
-12.630374004
 20
-22.4627877224
 10
-12.6340922623
 20
-22.457154619
 10
-12.637737337
 20
-22.4514771774
 10
-12.6413085696
 20
-22.4457564185
 10
-12.6448053015
 20
-22.4399933947
 10
-12.6482269112
 20
-22.4341891292
 10
-12.6515727899
 20
-22.4283446536
 10
-12.6548423213
 20
-22.4224610451
 10
-12.6580349245
 20
-22.4165393511
 10
-12.6611500343
 20
-22.4105806228
 10
-12.6641870806
 20
-22.4045859545
 10
-12.6671455146
 20
-22.3985564363
 10
-12.6700248253
 20
-22.392493117
 10
-12.6728245205
 20
-22.3863970371
 10
-12.6755440966
 20
-22.3802692967
 10
-12.6781830789
 20
-22.3741109687
 10
-12.680741035
 20
-22.3679230598
 10
-12.6832175174
 20
-22.3617066451
 10
-12.6856120735
 20
-22.3554628517
 10
-12.6879242816
 20
-22.3491927709
 10
-12.6901537346
 20
-22.3428974959
 10
-12.6923000258
 20
-22.3365781643
 10
-12.6943627567
 20
-22.3302359412
 10
-12.6963415593
 20
-22.3238719532
 10
-12.6982360804
 20
-22.3174873309
 10
-12.7000459701
 20
-22.3110832512
 10
-12.7017709054
 20
-22.3046608574
 10
-12.7034105815
 20
-22.2982212856
 10
-12.7049647008
 20
-22.2917657074
 10
-12.7064329879
 20
-22.2852952723
 10
-12.7078151837
 20
-22.2788111281
 10
-12.7091110398
 20
-22.272314448
 10
-12.7103203272
 20
-22.2658063907
 10
-12.711442834
 20
-22.2592881089
 10
-12.7124783614
 20
-22.2527607701
 10
-12.713410186
 20
-22.2463449821
  0
LWPOLYLINE
  5
2E2
100
AcDbEntity
  8
RACCORDO
100
AcDbPolyline
 62
250
  6
CONTINUOUS
 90
47
 70
0
 10
-12.6531237167
 20
22.5
 10
-12.6554946042
 20
22.4965154757
 10
-12.658950697
 20
22.4912997715
 10
-12.6623457053
 20
22.4860376273
 10
-12.6656789926
 20
22.4807300278
 10
-12.6689499422
 20
22.4753779535
 10
-12.672157945
 20
22.4699823992
 10
-12.6753023949
 20
22.4645443836
 10
-12.6783827089
 20
22.4590649148
 10
-12.681398316
 20
22.4535450089
 10
-12.6843486466
 20
22.4479857088
 10
-12.687233153
 20
22.4423880489
 10
-12.6900513026
 20
22.4367530644
 10
-12.6928025685
 20
22.4310818109
 10
-12.695486435
 20
22.4253753553
 10
-12.6981024128
 20
22.4196347415
 10
-12.7006500325
 20
22.4138610005
 10
-12.7031288213
 20
22.4080552041
 10
-12.7055383201
 20
22.4022184271
 10
-12.7078780973
 20
22.3963517132
 10
-12.7101477236
 20
22.3904561331
 10
-12.7123467704
 20
22.3845327954
 10
-12.714474825
 20
22.3785828073
 10
-12.7165314936
 20
22.3726072663
 10
-12.7185163916
 20
22.3666072851
 10
-12.720429142
 20
22.3605840019
 10
-12.722269389
 20
22.3545385357
 10
-12.724036792
 20
22.348472005
 10
-12.725731018
 20
22.3423855536
 10
-12.7273517526
 20
22.3362803125
 10
-12.7288986964
 20
22.3301574114
 10
-12.7303715604
 20
22.3240179976
 10
-12.7317700718
 20
22.3178632119
 10
-12.7330939728
 20
22.3116941932
 10
-12.7343430178
 20
22.3055120909
 10
-12.7355169752
 20
22.2993180577
 10
-12.7366156297
 20
22.2931132358
 10
-12.737638781
 20
22.2868987617
 10
-12.7385862398
 20
22.280675789
 10
-12.7394578314
 20
22.27444547
 10
-12.7402533967
 20
22.2682089425
 10
-12.7409727884
 20
22.2619673625
 10
-12.741615873
 20
22.2557218873
 10
-12.7421825328
 20
22.2494736571
 10
-12.7426726624
 20
22.2432238244
 10
-12.7430861697
 20
22.2369735538
 10
-12.7434229774
 20
22.2307240041
  0
LINE
  5
2E3
100
AcDbEntity
  8
RACCORDO
100
AcDbLine
 62
250
  6
CONTINUOUS
 10
17.2365887576
 20
38.3232631188
 11
17.5004566591
 21
38.4990856836
  0
LINE
  5
2E4
100
AcDbEntity
  8
RACCORDO
100
AcDbLine
 62
250
  6
CONTINUOUS
 10
18.2352182923
 20
37.3238722918
 11
18.5
 21
37.5003037511
  0
LWPOLYLINE
  5
2E5
100
AcDbEntity
  8
0
100
AcDbPolyline
 62
7
  6
CONTINUOUS
 90
13
 70
0
 10
5.7449767907
 20
27.6552026904
 10
5.8274890975
 20
27.6941618225
 10
5.9041439212
 20
27.7398777963
 10
5.9749412619
 20
27.7923506116
 10
6.040503564
 20
27.8522420375
 10
6.1002083832
 20
27.918890305
 10
6.1521883855
 20
27.9903101071
 10
6.1961922654
 20
28.0667262759
 10
6.2324713285
 20
28.1479139793
 10
6.2599121582
 20
28.2312134136
 10
6.2782122375
 20
28.3166024125
 10
6.2876740833
 20
28.4041031423
 10
6.289100319
 20
28.4499269346
  0
LINE
  5
2E6
100
AcDbEntity
  8
0
100
AcDbLine
 62
7
  6
CONTINUOUS
 10
-15.25
 20
-23.0
 11
15.25
 21
-23.0
  0
LINE
  5
2E7
100
AcDbEntity
  8
0
100
AcDbLine
 62
7
  6
CONTINUOUS
 10
15.25
 20
-22.5
 11
-15.25
 21
-22.5
  0
LINE
  5
2E8
100
AcDbEntity
  8
RACCORDO
100
AcDbLine
 62
250
  6
CONTINUOUS
 10
17.5004566591
 20
-38.4990856836
 11
17.2365887576
 21
-38.3232631188
  0
LINE
  5
2E9
100
AcDbEntity
  8
RACCORDO
100
AcDbLine
 62
250
  6
CONTINUOUS
 10
18.5
 20
-37.5003037511
 11
18.2352182923
 21
-37.3238722918
  0
LWPOLYLINE
  5
2EA
100
AcDbEntity
  8
RACCORDO
100
AcDbPolyline
 62
250
  6
CONTINUOUS
 90
47
 70
0
 10
-12.6529714886
 20
-22.5
 10
-12.6552372948
 20
-22.4966732967
 10
-12.6586938314
 20
-22.4914627291
 10
-12.6620895776
 20
-22.4862058288
 10
-12.6654238952
 20
-22.4809035815
 10
-12.6686961658
 20
-22.4755569691
 10
-12.6719057789
 20
-22.4701669877
 10
-12.6750521265
 20
-22.4647346573
 10
-12.678134624
 20
-22.4592609873
 10
-12.6811526985
 20
-22.4537469949
 10
-12.6841057787
 20
-22.4481937248
 10
-12.686993315
 20
-22.4426022124
 10
-12.6898147732
 20
-22.4369734939
 10
-12.6925696245
 20
-22.4313086266
 10
-12.6952573513
 20
-22.4256086786
 10
-12.6978774624
 20
-22.4198746947
 10
-12.7004294871
 20
-22.4141077067
 10
-12.7029129506
 20
-22.4083087875
 10
-12.7053273918
 20
-22.4024790131
 10
-12.7076723774
 20
-22.3966194279
 10
-12.7099474763
 20
-22.3907311036
 10
-12.7121522578
 20
-22.38481515
 10
-12.7142863071
 20
-22.3788726757
 10
-12.7163492284
 20
-22.3729047792
 10
-12.7183406351
 20
-22.3669125743
 10
-12.7202601479
 20
-22.3608972006
 10
-12.722107409
 20
-22.3548597782
 10
-12.7238820759
 20
-22.3488014266
 10
-12.7255838131
 20
-22.3427232907
 10
-12.7272123042
 20
-22.3366265026
 10
-12.7287672479
 20
-22.3305121931
 10
-12.7302483528
 20
-22.3243815104
 10
-12.731655344
 20
-22.3182355963
 10
-12.7329879616
 20
-22.3120755907
 10
-12.7342459578
 20
-22.305902644
 10
-12.7354290988
 20
-22.2997179099
 10
-12.7365371671
 20
-22.2935225312
 10
-12.7375699603
 20
-22.2873176453
 10
-12.7385272868
 20
-22.2811044065
 10
-12.7394089697
 20
-22.274883968
 10
-12.7402148478
 20
-22.268657468
 10
-12.7409447715
 20
-22.2624260634
 10
-12.7415986051
 20
-22.2561909122
 10
-12.7421762285
 20
-22.249953155
 10
-12.7426775343
 20
-22.243713945
 10
-12.743102428
 20
-22.2374744474
 10
-12.7434508299
 20
-22.2312358216
  0
LINE
  5
2EB
100
AcDbEntity
  8
ASSI
100
AcDbLine
 62
7
  6
CONTINUOUS
 10
-11.632134
 20
-34.100003
 11
-11.195042
 21
-35.461376
  0
LINE
  5
2EC
100
AcDbEntity
  8
ASSI
100
AcDbLine
 62
7
  6
CONTINUOUS
 10
-11.058897
 20
-35.03738
 11
-11.190852
 21
-34.626388
  0
LINE
  5
2ED
100
AcDbEntity
  8
ASSI
100
AcDbLine
 62
7
  6
CONTINUOUS
 10
-11.273905
 20
-34.367728
 11
-11.359858
 21
-34.100007
  0
LWPOLYLINE
  5
2EE
100
AcDbEntity
  8
RACCORDO
100
AcDbPolyline
 62
250
  6
CONTINUOUS
 90
26
 70
0
 10
-13.464455059
 20
-38.3
 10
-13.4638771678
 20
-38.3021613353
 10
-13.4631020426
 20
-38.3049508749
 10
-13.4623246415
 20
-38.3076391833
 10
-13.4615452166
 20
-38.3102259603
 10
-13.4607637845
 20
-38.3127108886
 10
-13.4599803287
 20
-38.3150937721
 10
-13.4591950517
 20
-38.3173744939
 10
-13.4584079543
 20
-38.3195528019
 10
-13.4576190356
 20
-38.3216284603
 10
-13.4568284958
 20
-38.3236013573
 10
-13.4560363046
 20
-38.3254713246
 10
-13.4552424922
 20
-38.3272380617
 10
-13.4544473486
 20
-38.3289012718
 10
-13.4536508565
 20
-38.3304607989
 10
-13.4528530332
 20
-38.3319164302
 10
-13.452054221
 20
-38.3332678513
 10
-13.4512544181
 20
-38.3345149442
 10
-13.4504536263
 20
-38.3356575993
 10
-13.4496521941
 20
-38.3366956036
 10
-13.4488501213
 20
-38.3376289084
 10
-13.448047408
 20
-38.3384574748
 10
-13.447244403
 20
-38.3391811952
 10
-13.4464412225
 20
-38.3398000687
 10
-13.4456377501
 20
-38.3403141585
 10
-13.444833986
 20
-38.3407235084
  0
LWPOLYLINE
  5
2EF
100
AcDbEntity
  8
RACCORDO
100
AcDbPolyline
 62
7
  6
CONTINUOUS
 90
19
 70
0
 10
-16.9124305797
 20
-36.3425517651
 10
-16.9076444114
 20
-36.3971766629
 10
-16.8975077217
 20
-36.4491580621
 10
-16.8827490111
 20
-36.498043617
 10
-16.8641966762
 20
-36.5433439423
 10
-16.8425000341
 20
-36.5850440911
 10
-16.8179456473
 20
-36.6234986057
 10
-16.7910048638
 20
-36.6586409072
 10
-16.7622011433
 20
-36.6903896026
 10
-16.7316324624
 20
-36.7190129881
 10
-16.6996124422
 20
-36.744523822
 10
-16.6665375275
 20
-36.7668988137
 10
-16.6324877355
 20
-36.7862764086
 10
-16.5976807198
 20
-36.8027060703
 10
-16.5624479156
 20
-36.8162012714
 10
-16.5269811264
 20
-36.8268189661
 10
-16.4914940101
 20
-36.8346317984
 10
-16.4562253036
 20
-36.8397380152
 10
-16.4213760438
 20
-36.8422471786
  0
LINE
  5
2F0
100
AcDbEntity
  8
RACCORDO
100
AcDbLine
 62
7
  6
CONTINUOUS
 10
-20.0
 20
39.3004264211
 11
-20.0
 21
-39.3004264211
  0
LINE
  5
2F1
100
AcDbEntity
  8
RACCORDO
100
AcDbLine
 62
7
  6
CONTINUOUS
 10
-18.5
 20
37.5003037511
 11
-18.5
 21
-37.5003037511
  0
LINE
  5
2F2
100
AcDbEntity
  8
RACCORDO
100
AcDbLine
 62
7
  6
CONTINUOUS
 10
-18.3
 20
-36.301218346
 11
-18.3
 21
36.301218346
  0
LINE
  5
2F3
100
AcDbEntity
  8
RACCORDO
100
AcDbLine
 62
250
  6
CONTINUOUS
 10
-18.2352182923
 20
37.3238722918
 11
-18.2352182923
 21
36.8037485761
  0
LINE
  5
2F4
100
AcDbEntity
  8
RACCORDO
100
AcDbLine
 62
250
  6
CONTINUOUS
 10
-18.2352182923
 20
-36.8037485761
 11
-18.2352182923
 21
-37.3238722918
  0
LWPOLYLINE
  5
2F5
100
AcDbEntity
  8
RACCORDO
100
AcDbPolyline
 62
250
  6
CONTINUOUS
 90
136
 70
0
 10
-18.2352182923
 20
37.3238722918
 10
-18.2351296522
 20
37.3354869686
 10
-18.2349061398
 20
37.3471000766
 10
-18.2345477853
 20
37.3587100473
 10
-18.2340546372
 20
37.3703153125
 10
-18.233426762
 20
37.3819143046
 10
-18.2326642446
 20
37.393505457
 10
-18.231767188
 20
37.4050872041
 10
-18.2307357132
 20
37.4166579816
 10
-18.2295699597
 20
37.4282162266
 10
-18.2282700848
 20
37.4397603779
 10
-18.2268362643
 20
37.4512888763
 10
-18.2252686916
 20
37.4628001646
 10
-18.2235675786
 20
37.474292688
 10
-18.2217331551
 20
37.4857648943
 10
-18.2197656687
 20
37.4972152338
 10
-18.2176653853
 20
37.50864216
 10
-18.2154325886
 20
37.5200441294
 10
-18.21306758
 20
37.5314196021
 10
-18.2105706791
 20
37.5427670415
 10
-18.2079422231
 20
37.5540849149
 10
-18.2051825671
 20
37.5653716936
 10
-18.2022920837
 20
37.5766258532
 10
-18.1992711634
 20
37.5878458735
 10
-18.1961202143
 20
37.5990302391
 10
-18.1928396618
 20
37.6101774393
 10
-18.1894299492
 20
37.6212859684
 10
-18.185891537
 20
37.6323543261
 10
-18.1822249031
 20
37.6433810173
 10
-18.1784305427
 20
37.6543645527
 10
-18.1745089684
 20
37.6653034487
 10
-18.1704607099
 20
37.6761962278
 10
-18.1662863138
 20
37.6870414188
 10
-18.1619863442
 20
37.6978375568
 10
-18.1575613817
 20
37.7085831835
 10
-18.153012024
 20
37.7192768476
 10
-18.1483388857
 20
37.7299171046
 10
-18.1435425979
 20
37.7405025175
 10
-18.1386238084
 20
37.7510316563
 10
-18.1335831817
 20
37.7615030991
 10
-18.1284213985
 20
37.7719154313
 10
-18.1231391561
 20
37.7822672467
 10
-18.1177371679
 20
37.792557147
 10
-18.1122161636
 20
37.8027837423
 10
-18.1065768889
 20
37.8129456513
 10
-18.1008201054
 20
37.8230415016
 10
-18.0949465908
 20
37.8330699293
 10
-18.0889571384
 20
37.8430295801
 10
-18.0828525572
 20
37.8529191087
 10
-18.0766336716
 20
37.8627371793
 10
-18.0703013218
 20
37.8724824657
 10
-18.0638563629
 20
37.8821536518
 10
-18.0572996656
 20
37.8917494311
 10
-18.0506321154
 20
37.9012685077
 10
-18.0438546129
 20
37.9107095957
 10
-18.0369680736
 20
37.9200714201
 10
-18.0299734275
 20
37.9293527161
 10
-18.0228716195
 20
37.9385522304
 10
-18.0156636088
 20
37.9476687203
 10
-18.008350369
 20
37.9567009543
 10
-18.0009328878
 20
37.9656477127
 10
-17.9934121672
 20
37.9745077868
 10
-17.985789223
 20
37.9832799801
 10
-17.9780650847
 20
37.9919631076
 10
-17.9702407958
 20
38.0005559965
 10
-17.9623174129
 20
38.0090574862
 10
-17.9542960064
 20
38.0174664284
 10
-17.9461776596
 20
38.0257816873
 10
-17.9379634692
 20
38.0340021397
 10
-17.9296545445
 20
38.0421266754
 10
-17.9212520078
 20
38.050154197
 10
-17.9127569942
 20
38.0580836201
 10
-17.904170651
 20
38.0659138738
 10
-17.8954941379
 20
38.0736439005
 10
-17.8867286269
 20
38.0812726559
 10
-17.877875302
 20
38.0887991099
 10
-17.8689353589
 20
38.0962222456
 10
-17.8599100052
 20
38.1035410606
 10
-17.8508004599
 20
38.1107545662
 10
-17.8416079534
 20
38.1178617882
 10
-17.8323337274
 20
38.1248617666
 10
-17.8229790345
 20
38.1317535558
 10
-17.8135451383
 20
38.138536225
 10
-17.8040333129
 20
38.1452088581
 10
-17.7944448432
 20
38.1517705539
 10
-17.7847810243
 20
38.158220426
 10
-17.7750431614
 20
38.1645576032
 10
-17.7652325698
 20
38.1707812296
 10
-17.7553505746
 20
38.1768904646
 10
-17.7453985106
 20
38.182884483
 10
-17.7353777221
 20
38.1887624752
 10
-17.7252895624
 20
38.1945236472
 10
-17.7151353942
 20
38.200167221
 10
-17.7049165891
 20
38.2056924342
 10
-17.6946345272
 20
38.2110985405
 10
-17.6842905974
 20
38.2163848098
 10
-17.6738861969
 20
38.221550528
 10
-17.6634227308
 20
38.2265949974
 10
-17.6529016126
 20
38.2315175366
 10
-17.6423242632
 20
38.2363174808
 10
-17.6316921115
 20
38.2409941816
 10
-17.6210065933
 20
38.2455470074
 10
-17.6102691522
 20
38.2499753432
 10
-17.5994812382
 20
38.2542785909
 10
-17.5886443087
 20
38.2584561692
 10
-17.5777598272
 20
38.2625075139
 10
-17.5668292639
 20
38.2664320778
 10
-17.5558540953
 20
38.2702293307
 10
-17.5448358038
 20
38.2738987599
 10
-17.5337758775
 20
38.2774398696
 10
-17.5226758103
 20
38.2808521815
 10
-17.5115371016
 20
38.2841352348
 10
-17.5003612558
 20
38.287288586
 10
-17.4891497824
 20
38.2903118093
 10
-17.4779041957
 20
38.2932044962
 10
-17.4666260148
 20
38.295966256
 10
-17.4553167628
 20
38.2985967158
 10
-17.4439779674
 20
38.3010955202
 10
-17.4326111601
 20
38.3034623316
 10
-17.4212178762
 20
38.3056968306
 10
-17.4097996545
 20
38.3077987151
 10
-17.3983580374
 20
38.3097677013
 10
-17.3868945702
 20
38.3116035233
 10
-17.3754108012
 20
38.3133059331
 10
-17.3639082817
 20
38.3148747008
 10
-17.3523885652
 20
38.3163096144
 10
-17.3408532077
 20
38.3176104802
 10
-17.3293037673
 20
38.3187771224
 10
-17.317741804
 20
38.3198093835
 10
-17.3061688793
 20
38.3207071241
 10
-17.2945865565
 20
38.3214702228
 10
-17.2829964
 20
38.3220985766
 10
-17.2713999752
 20
38.3225921007
 10
-17.2597988485
 20
38.3229507283
 10
-17.2481945868
 20
38.3231744111
 10
-17.2365887576
 20
38.3232631188
  0
LWPOLYLINE
  5
2F6
100
AcDbEntity
  8
RACCORDO
100
AcDbPolyline
 62
7
  6
CONTINUOUS
 90
19
 70
0
 10
-16.9124305797
 20
36.3425517651
 10
-16.9076444114
 20
36.3971766629
 10
-16.8975077217
 20
36.4491580621
 10
-16.8827490111
 20
36.498043617
 10
-16.8641966762
 20
36.5433439423
 10
-16.8425000341
 20
36.5850440911
 10
-16.8179456473
 20
36.6234986057
 10
-16.7910048638
 20
36.6586409072
 10
-16.7622011433
 20
36.6903896026
 10
-16.7316324624
 20
36.7190129881
 10
-16.6996124422
 20
36.744523822
 10
-16.6665375275
 20
36.7668988137
 10
-16.6324877355
 20
36.7862764086
 10
-16.5976807198
 20
36.8027060703
 10
-16.5624479156
 20
36.8162012714
 10
-16.5269811264
 20
36.8268189661
 10
-16.4914940101
 20
36.8346317984
 10
-16.4562253036
 20
36.8397380152
 10
-16.4213760438
 20
36.8422471786
  0
LINE
  5
2F7
100
AcDbEntity
  8
RACCORDO
100
AcDbLine
 62
7
  6
CONTINUOUS
 10
-12.7120143388
 20
22.2408984271
 11
-12.7111977248
 21
22.244325023
  0
LINE
  5
2F8
100
AcDbEntity
  8
RACCORDO
100
AcDbLine
 62
7
  6
CONTINUOUS
 10
-12.7111977248
 20
22.244325023
 11
-12.7103163271
 21
22.2479159232
  0
LINE
  5
2F9
100
AcDbEntity
  8
RACCORDO
100
AcDbLine
 62
7
  6
CONTINUOUS
 10
-12.7103163271
 20
22.2479159232
 11
-12.7093646075
 21
22.2516794725
  0
LINE
  5
2FA
100
AcDbEntity
  8
RACCORDO
100
AcDbLine
 62
7
  6
CONTINUOUS
 10
-12.7093646075
 20
22.2516794725
 11
-12.7083350645
 21
22.2556298321
  0
LINE
  5
2FB
100
AcDbEntity
  8
RACCORDO
100
AcDbLine
 62
7
  6
CONTINUOUS
 10
-12.7083350645
 20
22.2556298321
 11
-12.7072195024
 21
22.2597813186
  0
LINE
  5
2FC
100
AcDbEntity
  8
RACCORDO
100
AcDbLine
 62
7
  6
CONTINUOUS
 10
-12.7072195024
 20
22.2597813186
 11
-12.7060105315
 21
22.2641428421
  0
LWPOLYLINE
  5
2FD
100
AcDbEntity
  8
RACCORDO
100
AcDbPolyline
 62
7
  6
CONTINUOUS
 90
60
 70
0
 10
-12.7060105315
 20
22.2641428421
 10
-12.7046983083
 20
22.2687297347
 10
-12.704000674
 20
22.2711107515
 10
-12.7032736176
 20
22.2735522938
 10
-12.7025167267
 20
22.2760528149
 10
-12.7017290665
 20
22.2786124688
 10
-12.7009097219
 20
22.2812312544
 10
-12.7000580126
 20
22.2839083558
 10
-12.6991733523
 20
22.286642639
 10
-12.6982549865
 20
22.2894334702
 10
-12.6973020386
 20
22.2922805368
 10
-12.6963137466
 20
22.2951831329
 10
-12.695290252
 20
22.298137932
 10
-12.6942297596
 20
22.3011472017
 10
-12.6931284524
 20
22.3042185677
 10
-12.6919857568
 20
22.3073502329
 10
-12.6908002165
 20
22.3105427799
 10
-12.6895663136
 20
22.3138073024
 10
-12.6882819612
 20
22.3171451672
 10
-12.6869466418
 20
22.3205535388
 10
-12.6855568468
 20
22.324037075
 10
-12.6841094318
 20
22.3275990698
 10
-12.6826045743
 20
22.3312344703
 10
-12.6810437678
 20
22.3349353414
 10
-12.6794256024
 20
22.338700878
 10
-12.6777487678
 20
22.3425299734
 10
-12.6760152022
 20
22.3464142565
 10
-12.6742245571
 20
22.3503508291
 10
-12.6723747529
 20
22.3543405899
 10
-12.670465321
 20
22.358380876
 10
-12.6684952788
 20
22.3624701606
 10
-12.6664631962
 20
22.3666078163
 10
-12.6643679674
 20
22.3707925014
 10
-12.6622083645
 20
22.3750230916
 10
-12.6599831831
 20
22.3792983806
 10
-12.6576913605
 20
22.3836168663
 10
-12.6553324224
 20
22.3879759591
 10
-12.6529044409
 20
22.3923757515
 10
-12.650404083
 20
22.3968186761
 10
-12.6478320536
 20
22.4012998786
 10
-12.6451850977
 20
22.4058214403
 10
-12.6424534785
 20
22.4103958915
 10
-12.6396358296
 20
22.4150210186
 10
-12.6367301783
 20
22.4196955587
 10
-12.6337250885
 20
22.4244329246
 10
-12.6306176705
 20
22.4292321723
 10
-12.6274065912
 20
22.4340898474
 10
-12.6240820008
 20
22.4390149996
 10
-12.6206405757
 20
22.4440062805
 10
-12.6170807448
 20
22.4490596724
 10
-12.6133947422
 20
22.45417968
 10
-12.6095777036
 20
22.4593661736
 10
-12.6056291316
 20
22.4646129147
 10
-12.6015476636
 20
22.4699149306
 10
-12.5973249919
 20
22.4752760146
 10
-12.5929641612
 20
22.4806852837
 10
-12.5884817199
 20
22.4861162501
 10
-12.5838750643
 20
22.4915668908
 10
-12.5791434319
 20
22.4970329481
 10
-12.5765123308
 20
22.5
  0
LWPOLYLINE
  5
2FE
100
AcDbEntity
  8
0
100
AcDbPolyline
 62
7
  6
CONTINUOUS
 90
19
 70
0
 10
-3.0327253408
 20
32.5126155389
 10
-3.009942306
 20
32.5548652621
 10
-2.9843322579
 20
32.5934205285
 10
-2.9558951965
 20
32.6282813382
 10
-2.9242215865
 20
32.6594532811
 10
-2.8897209631
 20
32.6869307674
 10
-2.8536219325
 20
32.7106970266
 10
-2.8159803719
 20
32.7304088475
 10
-2.7767404042
 20
32.7464094415
 10
-2.7369630042
 20
32.7597116717
 10
-2.6968710968
 20
32.7703002345
 10
-2.6562417571
 20
32.7781904336
 10
-2.6154671856
 20
32.7844410432
 10
-2.5746397193
 20
32.7890573905
 10
-2.5336670212
 20
32.7920341484
 10
-2.4926642802
 20
32.794414109
 10
-2.4516698925
 20
32.7965448699
 10
-2.4106454619
 20
32.7980788335
 10
-2.3695909883
 20
32.799016
  0
LINE
  5
2FF
100
AcDbEntity
  8
DRAFT
100
AcDbLine
 62
7
  6
CONTINUOUS
 10
-15.25
 20
-17.8190908859
 11
-16.9057426494
 21
-17.8190908859
  0
LINE
  5
300
100
AcDbEntity
  8
ASSI
100
AcDbLine
 62
7
  6
CONTINUOUS
 10
2.966644
 20
-28.3744074264
 11
3.830922
 21
-29.0807784992
  0
LINE
  5
301
100
AcDbEntity
  8
ASSI
100
AcDbLine
 62
7
  6
CONTINUOUS
 10
2.966644
 20
-28.3396777909
 11
3.830922
 21
-29.0460488637
  0
LINE
  5
302
100
AcDbEntity
  8
ASSI
100
AcDbLine
 62
7
  6
CONTINUOUS
 10
3.830922
 20
-28.6944586485
 11
2.926751
 21
-27.9554832825
  0
LWPOLYLINE
  5
303
100
AcDbEntity
  8
ASSI
100
AcDbPolyline
 62
7
  6
CONTINUOUS
 90
10
 70
0
 10
5.331763
 20
-31.1852315207
 10
5.2760996205
 20
-31.1343016527
 10
5.2184183989
 20
-31.0858697903
 10
5.158719335
 20
-31.0399359335
 10
5.0968926725
 20
-30.9964211657
 10
5.0330481679
 20
-30.9554044035
 10
4.9675150901
 20
-30.917122397
 10
4.9004031957
 20
-30.881654063
 10
4.8316027282
 20
-30.8489204847
 10
4.7611136875
 20
-30.8189216621
  0
LINE
  5
304
100
AcDbEntity
  8
ASSI
100
AcDbLine
 62
7
  6
CONTINUOUS
 10
-7.673234
 20
-34.523997
 11
-7.372276
 21
-35.461373
  0
LINE
  5
305
100
AcDbEntity
  8
ASSI
100
AcDbLine
 62
7
  6
CONTINUOUS
 10
-7.1
 20
-35.461373
 11
-7.537089
 21
-34.1
  0
LINE
  5
306
100
AcDbEntity
  8
ASSI
100
AcDbLine
 62
7
  6
CONTINUOUS
 10
-9.638334
 20
-34.574801
 11
-9.384113
 21
-35.461373
  0
LINE
  5
307
100
AcDbEntity
  8
ASSI
100
AcDbLine
 62
7
  6
CONTINUOUS
 10
-9.244783
 20
-34.997735
 11
-9.5022
 21
-34.100003
  0
LINE
  5
308
100
AcDbEntity
  8
RACCORDO
100
AcDbLine
 62
7
  6
CONTINUOUS
 10
-12.7039767083
 20
-22.2731248654
 11
-12.70532657
 21
-22.2684412259
  0
LINE
  5
309
100
AcDbEntity
  8
RACCORDO
100
AcDbLine
 62
7
  6
CONTINUOUS
 10
-12.70532657
 20
-22.2684412259
 11
-12.7065630895
 21
-22.2640107881
  0
LINE
  5
30A
100
AcDbEntity
  8
RACCORDO
100
AcDbLine
 62
7
  6
CONTINUOUS
 10
-12.7065630895
 20
-22.2640107881
 11
-12.7076985226
 21
-22.2598125429
  0
LINE
  5
30B
100
AcDbEntity
  8
RACCORDO
100
AcDbLine
 62
7
  6
CONTINUOUS
 10
-12.7076985226
 20
-22.2598125429
 11
-12.7087456353
 21
-22.2558193453
  0
LINE
  5
30C
100
AcDbEntity
  8
RACCORDO
100
AcDbLine
 62
7
  6
CONTINUOUS
 10
-12.7087456353
 20
-22.2558193453
 11
-12.7097126792
 21
-22.2520174391
  0
LINE
  5
30D
100
AcDbEntity
  8
RACCORDO
100
AcDbLine
 62
7
  6
CONTINUOUS
 10
-12.7097126792
 20
-22.2520174391
 11
-12.7106084009
 21
-22.2483883221
  0
LINE
  5
30E
100
AcDbEntity
  8
RACCORDO
100
AcDbLine
 62
7
  6
CONTINUOUS
 10
-12.7106084009
 20
-22.2483883221
 11
-12.7114390094
 21
-22.244921112
  0
LWPOLYLINE
  5
30F
100
AcDbEntity
  8
RACCORDO
100
AcDbPolyline
 62
7
  6
CONTINUOUS
 90
9
 70
0
 10
-12.7155452862
 20
-22.2283270837
 10
-12.7160537934
 20
-22.2228268191
 10
-12.7165027836
 20
-22.2172329315
 10
-12.716889
 20
-22.2115465817
 10
-12.7172091707
 20
-22.2057689083
 10
-12.7174599589
 20
-22.1999022849
 10
-12.7176380847
 20
-22.1939484091
 10
-12.7177402789
 20
-22.1879083375
 10
-12.7177651569
 20
-22.1831140695
  0
LINE
  5
310
100
AcDbEntity
  8
RACCORDO
100
AcDbLine
 62
250
  6
CONTINUOUS
 10
-17.2365887576
 20
-38.0656391715
 11
-17.2365887576
 21
-38.3232631188
  0
LINE
  5
311
100
AcDbEntity
  8
RACCORDO
100
AcDbLine
 62
250
  6
CONTINUOUS
 10
-17.2365887576
 20
38.0656391715
 11
-17.2365887576
 21
38.3232631188
  0
LWPOLYLINE
  5
312
100
AcDbEntity
  8
RACCORDO
100
AcDbPolyline
 62
7
  6
CONTINUOUS
 90
5
 70
0
 10
-16.9999265415
 20
-25.9999999999
 10
-16.9999836759
 20
-25.6108203041
 10
-17.0
 20
-25.4096125591
 10
-17.0000054414
 20
-25.2041655943
 10
-17.0
 20
-24.779517736
  0
LINE
  5
313
100
AcDbEntity
  8
RACCORDO
100
AcDbLine
 62
7
  6
CONTINUOUS
 10
-17.0000054414
 20
26.7754118579
 11
-17.0
 21
27.1825107981
  0
LWPOLYLINE
  5
314
100
AcDbEntity
  8
RACCORDO
100
AcDbPolyline
 62
7
  6
CONTINUOUS
 90
5
 70
0
 10
-17.0000054414
 20
22.8221582885
 10
-17.0
 20
23.5869838639
 10
-16.9999836759
 20
24.3718425341
 10
-16.9999591897
 20
25.1761812463
 10
-16.9999265415
 20
26.0000000005
  0
LWPOLYLINE
  5
315
100
AcDbEntity
  8
RACCORDO
100
AcDbPolyline
 62
7
  6
CONTINUOUS
 90
3
 70
0
 10
-17.0
 20
-36.4999999536
 10
-17.0
 20
-27.1357216245
 10
-17.0000054414
 20
-26.7435059259
  0
LINE
  5
316
100
AcDbEntity
  8
RACCORDO
100
AcDbLine
 62
7
  6
CONTINUOUS
 10
-17.0
 20
27.1825107981
 11
-17.0
 21
36.4999999536
  0
LINE
  5
317
100
AcDbEntity
  8
RACCORDO
100
AcDbLine
 62
7
  6
CONTINUOUS
 10
-17.0
 20
-24.779517736
 11
-16.9999836759
 21
-1.6281574659
  0
LWPOLYLINE
  5
318
100
AcDbEntity
  8
RACCORDO
100
AcDbPolyline
 62
7
  6
CONTINUOUS
 90
3
 70
0
 10
-16.9999265415
 20
0.0000000001
 10
-16.9999836759
 20
0.3891796959
 10
-17.0
 20
21.3492881054
  0
LINE
  5
319
100
AcDbEntity
  8
RACCORDO
100
AcDbLine
 62
7
  6
CONTINUOUS
 10
-16.9999836759
 20
-1.6281574659
 11
-16.9999265415
 21
0.0000000005
  0
LINE
  5
31A
100
AcDbEntity
  8
RACCORDO
100
AcDbLine
 62
7
  6
CONTINUOUS
 10
-17.0
 20
21.3492881054
 11
-17.0000054414
 21
22.8221582885
  0
LWPOLYLINE
  5
31B
100
AcDbEntity
  8
RACCORDO
100
AcDbPolyline
 62
7
  6
CONTINUOUS
 90
4
 70
0
 10
-16.9999265415
 20
26.0000000001
 10
-16.9999836759
 20
26.3813395483
 10
-17.0
 20
26.5768208415
 10
-17.0000054414
 20
26.7754118579
  0
LINE
  5
31C
100
AcDbEntity
  8
RACCORDO
100
AcDbLine
 62
7
  6
CONTINUOUS
 10
-16.9127246754
 20
36.3253961061
 11
-16.9127246754
 21
26.369114285
  0
LINE
  5
31D
100
AcDbEntity
  8
DRAFT
100
AcDbLine
 62
7
  6
CONTINUOUS
 10
-16.9127246754
 20
25.630885715
 11
-16.9127246754
 21
25.1936499936
  0
LINE
  5
31E
100
AcDbEntity
  8
DRAFT
100
AcDbLine
 62
7
  6
CONTINUOUS
 10
-16.9127246754
 20
-25.1936499936
 11
-16.9127246754
 21
-25.630885715
  0
LINE
  5
31F
100
AcDbEntity
  8
RACCORDO
100
AcDbLine
 62
7
  6
CONTINUOUS
 10
-16.9127246754
 20
-26.369114285
 11
-16.9127246754
 21
-36.3253961061
  0
LINE
  5
320
100
AcDbEntity
  8
DRAFT
100
AcDbLine
 62
7
  6
CONTINUOUS
 10
-16.9057426494
 20
-17.8190908859
 11
-16.9057426494
 21
-0.362611192
  0
LINE
  5
321
100
AcDbEntity
  8
DRAFT
100
AcDbLine
 62
7
  6
CONTINUOUS
 10
-16.9057426494
 20
0.362611192
 11
-16.9057426494
 21
17.8190908859
  0
LINE
  5
322
100
AcDbEntity
  8
0
100
AcDbLine
 62
7
  6
CONTINUOUS
 10
-15.25
 20
-36.8428565373
 11
-15.25
 21
36.8428565373
  0
LWPOLYLINE
  5
323
100
AcDbEntity
  8
RACCORDO
100
AcDbPolyline
 62
7
  6
CONTINUOUS
 90
4
 70
0
 10
-17.0000054414
 20
-26.7435059259
 10
-16.9999836759
 20
-26.3650351372
 10
-16.9999591897
 20
-26.1808252262
 10
-16.9999265415
 20
-25.9999999995
  0
LINE
  5
324
100
AcDbEntity
  8
RACCORDO
100
AcDbLine
 62
7
  6
CONTINUOUS
 10
-12.7160764084
 20
22.2219990187
 11
-12.7155746713
 21
22.2245429143
  0
LINE
  5
325
100
AcDbEntity
  8
RACCORDO
100
AcDbLine
 62
7
  6
CONTINUOUS
 10
-12.7155746713
 20
22.2245429143
 11
-12.7150291036
 21
22.2272295973
  0
LINE
  5
326
100
AcDbEntity
  8
RACCORDO
100
AcDbLine
 62
7
  6
CONTINUOUS
 10
-12.7150291036
 20
22.2272295973
 11
-12.7144419872
 21
22.2300379926
  0
LINE
  5
327
100
AcDbEntity
  8
RACCORDO
100
AcDbLine
 62
7
  6
CONTINUOUS
 10
-12.7144419872
 20
22.2300379926
 11
-12.713810271
 21
22.2329732595
  0
LINE
  5
328
100
AcDbEntity
  8
RACCORDO
100
AcDbLine
 62
7
  6
CONTINUOUS
 10
-12.713810271
 20
22.2329732595
 11
-12.7131310918
 21
22.2360387793
  0
LWPOLYLINE
  5
329
100
AcDbEntity
  8
RACCORDO
100
AcDbPolyline
 62
250
  6
CONTINUOUS
 90
5
 70
0
 10
-12.7110553354
 20
22.2460930272
 10
-12.7126896007
 20
22.2388632381
 10
-12.7142286052
 20
22.23161671
 10
-12.7156720783
 20
22.2243547266
 10
-12.7160516594
 20
22.2223053741
  0
LWPOLYLINE
  5
32A
100
AcDbEntity
  8
RACCORDO
100
AcDbPolyline
 62
7
  6
CONTINUOUS
 90
3
 70
0
 10
-12.7131310918
 20
22.2360387793
 10
-12.7124005407
 20
22.2392416857
 10
-12.7120143388
 20
22.2408984271
  0
LWPOLYLINE
  5
32B
100
AcDbEntity
  8
0
100
AcDbPolyline
 62
7
  6
CONTINUOUS
 90
25
 70
0
 10
-0.4841674614
 20
32.552878223
 10
-0.4677864302
 20
32.5814934622
 10
-0.4499824445
 20
32.6075283161
 10
-0.4307555045
 20
32.6309827846
 10
-0.4097588811
 20
32.6516464725
 10
-0.3873393033
 20
32.6697297751
 10
-0.364536958
 20
32.685863878
 10
-0.3414092231
 20
32.7000573159
 10
-0.3178987208
 20
32.7123015542
 10
-0.2948735037
 20
32.7232021744
 10
-0.2725798904
 20
32.7327992737
 10
-0.2507715623
 20
32.7410527548
 10
-0.2295776168
 20
32.7484479082
 10
-0.2090928752
 20
32.7550242321
 10
-0.1892225161
 20
32.7607422282
 10
-0.1698111734
 20
32.7659686912
 10
-0.150882413
 20
32.7707539046
 10
-0.132412669
 20
32.775047585
 10
-0.1141758774
 20
32.7790656763
 10
-0.096185202
 20
32.782835817
 10
-0.0784274791
 20
32.7863303686
 10
-0.0606371537
 20
32.7896823598
 10
-0.0427257075
 20
32.7929361336
 10
-0.0247816587
 20
32.796047347
 10
-0.0068050075
 20
32.799016
  0
LINE
  5
32C
100
AcDbEntity
  8
0
100
AcDbLine
 62
7
  6
CONTINUOUS
 10
-6.731193
 20
-25.266489134
 11
-7.190237
 21
-23.9482459034
  0
LINE
  5
32D
100
AcDbEntity
  8
0
100
AcDbLine
 62
7
  6
CONTINUOUS
 10
-7.290538
 20
-24.1988609789
 11
-6.84036
 21
-25.5
  0
LINE
  5
32E
100
AcDbEntity
  8
0
100
AcDbLine
 62
7
  6
CONTINUOUS
 10
-7.290538
 20
-24.1641313434
 11
-6.84036
 21
-25.4652703645
  0
LINE
  5
32F
100
AcDbEntity
  8
RACCORDO
100
AcDbLine
 62
7
  6
CONTINUOUS
 10
-12.7114390094
 20
-22.244921112
 11
-12.7122092858
 21
-22.241609107
  0
LINE
  5
330
100
AcDbEntity
  8
RACCORDO
100
AcDbLine
 62
7
  6
CONTINUOUS
 10
-12.7122092858
 20
-22.241609107
 11
-12.7129244444
 21
-22.2384421949
  0
LINE
  5
331
100
AcDbEntity
  8
RACCORDO
100
AcDbLine
 62
7
  6
CONTINUOUS
 10
-12.7129244444
 20
-22.2384421949
 11
-12.7135889134
 21
-22.235412088
  0
LINE
  5
332
100
AcDbEntity
  8
RACCORDO
100
AcDbLine
 62
7
  6
CONTINUOUS
 10
-12.7135889134
 20
-22.235412088
 11
-12.7142059486
 21
-22.2325145667
  0
LINE
  5
333
100
AcDbEntity
  8
RACCORDO
100
AcDbLine
 62
7
  6
CONTINUOUS
 10
-12.7142059486
 20
-22.2325145667
 11
-12.7147790912
 21
-22.2297430197
  0
LINE
  5
334
100
AcDbEntity
  8
RACCORDO
100
AcDbLine
 62
7
  6
CONTINUOUS
 10
-12.7147790912
 20
-22.2297430197
 11
-12.7153112486
 21
-22.2270927927
  0
LWPOLYLINE
  5
335
100
AcDbEntity
  8
RACCORDO
100
AcDbPolyline
 62
7
  6
CONTINUOUS
 90
3
 70
0
 10
-12.7153112486
 20
-22.2270927927
 10
-12.7158044461
 20
-22.2245628436
 10
-12.7159769702
 20
-22.2236577764
  0
LWPOLYLINE
  5
336
100
AcDbEntity
  8
RACCORDO
100
AcDbPolyline
 62
7
  6
CONTINUOUS
 90
5
 70
0
 10
-12.713410186
 20
-22.2463449821
 10
-12.7136959756
 20
-22.2442475192
 10
-12.7143631377
 20
-22.2390383669
 10
-12.7149806335
 20
-22.2337314005
 10
-12.7155452862
 20
-22.2283270837
  0
LWPOLYLINE
  5
337
100
AcDbEntity
  8
RACCORDO
100
AcDbPolyline
 62
250
  6
CONTINUOUS
 90
13
 70
0
 10
-14.0906511244
 20
11.9278000459
 10
-14.1116456459
 20
12.417667222
 10
-14.1322089858
 20
12.9050059518
 10
-14.1523411442
 20
13.3898157986
 10
-14.172054118
 20
13.8721843436
 10
-14.1913359101
 20
14.352023187
 10
-14.2101505296
 20
14.8290679855
 10
-14.2284971497
 20
15.3033173057
 10
-14.2463765971
 20
15.7747719639
 10
-14.2637553604
 20
16.243171094
 10
-14.2806321919
 20
16.7085115371
 10
-14.2970083393
 20
17.170796039
 10
-14.3
 20
17.2574506414
  0
LWPOLYLINE
  5
338
100
AcDbEntity
  8
RACCORDO
100
AcDbPolyline
 62
250
  6
CONTINUOUS
 90
81
 70
0
 10
-12.7177689819
 20
22.1834674875
 10
-12.7177750302
 20
22.1840148601
 10
-12.7177839446
 20
22.1845590241
 10
-12.717795767
 20
22.1850999812
 10
-12.7178105466
 20
22.1856379069
 10
-12.7178283292
 20
22.1861728002
 10
-12.7178491613
 20
22.1867046621
 10
-12.7178731009
 20
22.18723367
 10
-12.7179001985
 20
22.1877598219
 10
-12.7179305053
 20
22.1882831199
 10
-12.7179640899
 20
22.1888037477
 10
-12.7180010076
 20
22.1893217033
 10
-12.7180413156
 20
22.1898369888
 10
-12.7180850937
 20
22.190349794
 10
-12.7181324034
 20
22.1908601161
 10
-12.7181833077
 20
22.191367958
 10
-12.7182379003
 20
22.1918735181
 10
-12.718296249
 20
22.192376793
 10
-12.7183584236
 20
22.1928777861
 10
-12.7184245336
 20
22.1933767064
 10
-12.718494654
 20
22.1938735498
 10
-12.7185688624
 20
22.1943683204
 10
-12.7186472863
 20
22.1948612398
 10
-12.7187300086
 20
22.1953523028
 10
-12.7188171159
 20
22.1958415147
 10
-12.7189087563
 20
22.196329112
 10
-12.7190050217
 20
22.1968150888
 10
-12.7191060089
 20
22.1972994511
 10
-12.7192118888
 20
22.1977824529
 10
-12.7193227643
 20
22.1982640878
 10
-12.7194387428
 20
22.1987443623
 10
-12.7195600212
 20
22.1992235496
 10
-12.7196867143
 20
22.199701643
 10
-12.7198189416
 20
22.2001786492
 10
-12.7199569279
 20
22.200654862
 10
-12.7201008016
 20
22.2011302746
 10
-12.7202506952
 20
22.2016048937
 10
-12.7204068622
 20
22.2020790338
 10
-12.7205694467
 20
22.2025526888
 10
-12.7207385947
 20
22.2030258647
 10
-12.7209145859
 20
22.2034988935
 10
-12.7210975826
 20
22.2039717712
 10
-12.7212877438
 20
22.2044445019
 10
-12.7214853692
 20
22.2049174293
 10
-12.7216906418
 20
22.2053905548
 10
-12.7219037318
 20
22.2058638771
 10
-12.722124942
 20
22.206337737
 10
-12.7223544783
 20
22.2068121423
 10
-12.7225925183
 20
22.2072870851
 10
-12.7228393402
 20
22.2077628825
 10
-12.7230951694
 20
22.2082395438
 10
-12.7233601882
 20
22.2087170597
 10
-12.7236346216
 20
22.2091957194
 10
-12.7239188093
 20
22.2096756923
 10
-12.7242128388
 20
22.2101568091
 10
-12.7245165352
 20
22.2106388509
 10
-12.7248310458
 20
22.211123175
 10
-12.725155646
 20
22.2116084241
 10
-12.7254871082
 20
22.212090308
 10
-12.7258255525
 20
22.212568922
 10
-12.7261708073
 20
22.2130441708
 10
-12.7265187386
 20
22.2135114783
 10
-12.7268677035
 20
22.2139690586
 10
-12.7272187494
 20
22.2144186975
 10
-12.7275715314
 20
22.2148611767
 10
-12.7279255302
 20
22.215296245
 10
-12.7282807288
 20
22.2157241536
 10
-12.7286375722
 20
22.2161464378
 10
-12.7289959147
 20
22.2165632321
 10
-12.7293554671
 20
22.216974402
 10
-12.7297165215
 20
22.21738108
 10
-12.7300789146
 20
22.2177833302
 10
-12.7304424349
 20
22.2181810886
 10
-12.7308073474
 20
22.2185752951
 10
-12.7311735141
 20
22.2189660038
 10
-12.7315407485
 20
22.2193531605
 10
-12.7319092805
 20
22.2197375429
 10
-12.7322789873
 20
22.2201191926
 10
-12.7326497077
 20
22.2204980678
 10
-12.7330216439
 20
22.2208748205
 10
-12.7337686942
 20
22.2216220248
  0
LWPOLYLINE
  5
339
100
AcDbEntity
  8
RACCORDO
100
AcDbPolyline
 62
7
  6
CONTINUOUS
 90
3
 70
0
 10
-14.0577322491
 20
-22.2428643027
 10
-14.0565959895
 20
-22.4818634769
 10
-14.0565086001
 20
-22.5
  0
LINE
  5
33A
100
AcDbEntity
  8
RACCORDO
100
AcDbLine
 62
7
  6
CONTINUOUS
 10
-14.0600852263
 20
-21.7368043671
 11
-14.0577322491
 21
-22.2428643027
  0
LINE
  5
33B
100
AcDbEntity
  8
RACCORDO
100
AcDbLine
 62
7
  6
CONTINUOUS
 10
-14.0625565284
 20
-21.1878285622
 11
-14.0600852263
 21
-21.7368043671
  0
LWPOLYLINE
  5
33C
100
AcDbEntity
  8
RACCORDO
100
AcDbPolyline
 62
7
  6
CONTINUOUS
 90
4
 70
0
 10
-14.067892261
 20
-19.92833755
 10
-14.066517126
 20
-20.2637889925
 10
-14.0651620284
 20
-20.585855858
 10
-14.0625565284
 20
-21.1878285622
  0
LWPOLYLINE
  5
33D
100
AcDbEntity
  8
RACCORDO
100
AcDbPolyline
 62
7
  6
CONTINUOUS
 90
21
 70
0
 10
-14.0906424383
 20
-11.9278997282
 10
-14.0900401927
 20
-12.2972301829
 10
-14.0893872941
 20
-12.6688226321
 10
-14.0886837425
 20
-13.0426770758
 10
-14.0879292744
 20
-13.4190331373
 10
-14.0871241532
 20
-13.7976511932
 10
-14.0862691697
 20
-14.1778123739
 10
-14.0853644665
 20
-14.5593764926
 10
-14.0844099011
 20
-14.9424837359
 10
-14.0834058359
 20
-15.3268357943
 10
-14.0823539929
 20
-15.711897784
 10
-14.0812526502
 20
-16.0982045886
 10
-14.0800970049
 20
-16.4870625491
 10
-14.0788813192
 20
-16.8801813999
 10
-14.077611331
 20
-17.2758514065
 10
-14.0762994509
 20
-17.6702497065
 10
-14.0749380011
 20
-18.0648409156
 10
-14.0735346595
 20
-18.458160418
 10
-14.0721248703
 20
-18.8419915037
 10
-14.0707116198
 20
-19.2148939893
 10
-14.067892261
 20
-19.92833755
  0
LINE
  5
33E
100
AcDbEntity
  8
RACCORDO
100
AcDbLine
 62
7
  6
CONTINUOUS
 10
-14.0906431905
 20
-11.9274204018
 11
-14.0906424383
 21
-11.9278997282
  0
LWPOLYLINE
  5
33F
100
AcDbEntity
  8
RACCORDO
100
AcDbPolyline
 62
7
  6
CONTINUOUS
 90
43
 70
0
 10
-14.0906431905
 20
-11.9274204018
 10
-14.0915130601
 20
-11.3595913964
 10
-14.0923405039
 20
-10.7917419601
 10
-14.0931255219
 20
-10.2238720928
 10
-14.0938681152
 20
-9.6559808388
 10
-14.0945682826
 20
-9.0880691537
 10
-14.0952260207
 20
-8.5201399053
 10
-14.0958413297
 20
-7.9521927282
 10
-14.0964142093
 20
-7.3842279877
 10
-14.0969446555
 20
-6.8162496469
 10
-14.0974326679
 20
-6.2482580106
 10
-14.0978782469
 20
-5.680252774
 10
-14.0982813903
 20
-5.1122369861
 10
-14.0986420978
 20
-4.5442104107
 10
-14.0989603697
 20
-3.9761732839
 10
-14.0992362038
 20
-3.4081293637
 10
-14.0994695996
 20
-2.8400788111
 10
-14.0996605577
 20
-2.2720214651
 10
-14.0998090769
 20
-1.7039605998
 10
-14.0999151569
 20
-1.1358961335
 10
-14.0999787981
 20
-0.5678281479
 10
-14.1
 20
0.000239837
 10
-14.0999787623
 20
0.5683078208
 10
-14.0999150853
 20
1.136375804
 10
-14.0998089694
 20
1.7044402674
 10
-14.0996604144
 20
2.2725011297
 10
-14.0994694205
 20
2.8405584723
 10
-14.0992359887
 20
3.40860902
 10
-14.0989601189
 20
3.9766529334
 10
-14.0986418112
 20
4.544690052
 10
-14.0982810678
 20
5.1127166187
 10
-14.0978778886
 20
5.6807323977
 10
-14.0974322737
 20
6.2487376248
 10
-14.0969442255
 20
6.8167292504
 10
-14.0964137434
 20
7.3847075785
 10
-14.095840828
 20
7.9526723051
 10
-14.0952254832
 20
8.5206194676
 10
-14.0945677093
 20
9.0885487013
 10
-14.093867506
 20
9.6564603709
 10
-14.0931248769
 20
10.2243516083
 10
-14.0923398231
 20
10.7922214574
 10
-14.0915123435
 20
11.3600708742
 10
-14.090642438
 20
11.9278998588
  0
LINE
  5
340
100
AcDbEntity
  8
RACCORDO
100
AcDbLine
 62
250
  6
CONTINUOUS
 10
-12.7177651569
 20
22.1825523084
 11
-12.7177689819
 21
22.1834674875
  0
LINE
  5
341
100
AcDbEntity
  8
0
100
AcDbLine
 62
7
  6
CONTINUOUS
 10
-14.3
 20
-22.5
 11
-14.3
 21
22.5
  0
LINE
  5
342
100
AcDbEntity
  8
RACCORDO
100
AcDbLine
 62
250
  6
CONTINUOUS
 10
-13.9256829227
 20
22.5
 11
-13.9256829227
 21
-22.5
  0
LINE
  5
343
100
AcDbEntity
  8
RACCORDO
100
AcDbLine
 62
250
  6
CONTINUOUS
 10
-13.4263681554
 20
22.5
 11
-13.4263681554
 21
-22.5
  0
LINE
  5
344
100
AcDbEntity
  8
RACCORDO
100
AcDbLine
 62
250
  6
CONTINUOUS
 10
-13.2177651627
 20
-22.5
 11
-13.2177651621
 21
22.5
  0
LINE
  5
345
100
AcDbEntity
  8
0
100
AcDbLine
 62
7
  6
CONTINUOUS
 10
-13.0
 20
-37.0
 11
-13.0
 21
-33.9
  0
LINE
  5
346
100
AcDbEntity
  8
0
100
AcDbLine
 62
7
  6
CONTINUOUS
 10
-13.0
 20
33.9
 11
-13.0
 21
37.0
  0
LINE
  5
347
100
AcDbEntity
  8
RACCORDO
100
AcDbLine
 62
7
  6
CONTINUOUS
 10
-12.7177651569
 20
22.1825521533
 11
-12.7177651569
 21
-22.1831139338
  0
LINE
  5
348
100
AcDbEntity
  8
ASSI
100
AcDbLine
 62
7
  6
CONTINUOUS
 10
-12.082169
 20
-34.878243
 11
-12.082165
 21
-35.209524
  0
LINE
  5
349
100
AcDbEntity
  8
ASSI
100
AcDbLine
 62
7
  6
CONTINUOUS
 10
-11.813648
 20
-35.461376
 11
-11.813648
 21
-34.100007
  0
LINE
  5
34A
100
AcDbEntity
  8
ASSI
100
AcDbLine
 62
7
  6
CONTINUOUS
 10
-12.085923
 20
-34.100007
 11
-12.085953
 21
-34.626391
  0
LWPOLYLINE
  5
34B
100
AcDbEntity
  8
RACCORDO
100
AcDbPolyline
 62
7
  6
CONTINUOUS
 90
20
 70
0
 10
-14.090642438
 20
11.9278998588
 10
-14.0900434556
 20
12.2952154005
 10
-14.0893949659
 20
12.6645367157
 10
-14.0886969689
 20
13.0358638045
 10
-14.087949478
 20
13.4092993052
 10
-14.0871524799
 20
13.7847405795
 10
-14.0863059346
 20
14.1618797119
 10
-14.0854098208
 20
14.5406958516
 10
-14.0844641599
 20
14.9212098495
 10
-14.0834689762
 20
15.3031763425
 10
-14.0824242757
 20
15.6865740071
 10
-14.0813300524
 20
16.0714241669
 10
-14.0801863127
 20
16.4575454297
 10
-14.0789888393
 20
16.8460592932
 10
-14.0777418496
 20
17.2358442597
 10
-14.0764580019
 20
17.6233544438
 10
-14.0751230547
 20
18.0117435173
 10
-14.0737512497
 20
18.3978578084
 10
-14.0723979694
 20
18.7686904167
 10
-14.0710788867
 20
19.1194664204
  0
LINE
  5
34C
100
AcDbEntity
  8
RACCORDO
100
AcDbLine
 62
7
  6
CONTINUOUS
 10
-14.0710788867
 20
19.1194664204
 11
-14.0685046604
 21
19.7764912452
  0
LINE
  5
34D
100
AcDbEntity
  8
RACCORDO
100
AcDbLine
 62
7
  6
CONTINUOUS
 10
-14.0685046604
 20
19.7764912452
 11
-14.0660433576
 21
20.3769532322
  0
LINE
  5
34E
100
AcDbEntity
  8
RACCORDO
100
AcDbLine
 62
7
  6
CONTINUOUS
 10
-14.0660433576
 20
20.3769532322
 11
-14.0636908863
 21
20.9288781753
  0
LINE
  5
34F
100
AcDbEntity
  8
RACCORDO
100
AcDbLine
 62
7
  6
CONTINUOUS
 10
-14.0636908863
 20
20.9288781753
 11
-14.061446901
 21
21.4364828193
  0
LINE
  5
350
100
AcDbEntity
  8
RACCORDO
100
AcDbLine
 62
7
  6
CONTINUOUS
 10
-14.061446901
 20
21.4364828193
 11
-14.05930943
 21
21.9053572645
  0
LINE
  5
351
100
AcDbEntity
  8
RACCORDO
100
AcDbLine
 62
7
  6
CONTINUOUS
 10
-14.05930943
 20
21.9053572645
 11
-14.0565080542
 21
22.5
  0
LWPOLYLINE
  5
352
100
AcDbEntity
  8
RACCORDO
100
AcDbPolyline
 62
7
  6
CONTINUOUS
 90
7
 70
0
 10
-12.7177651569
 20
22.1825523094
 10
-12.7177401809
 20
22.1873594374
 10
-12.7176373472
 20
22.1934261913
 10
-12.717457574
 20
22.1994192264
 10
-12.7172036746
 20
22.2053375242
 10
-12.7168784874
 20
22.2111793352
 10
-12.7164849284
 20
22.2169421442
  0
LWPOLYLINE
  5
353
100
AcDbEntity
  8
RACCORDO
100
AcDbPolyline
 62
250
  6
CONTINUOUS
 90
13
 70
0
 10
-14.3
 20
-17.2574506383
 10
-14.2970083461
 20
-17.1707962328
 10
-14.2806321991
 20
-16.7085117368
 10
-14.2637553678
 20
-16.2431712932
 10
-14.2463766043
 20
-15.7747721488
 10
-14.2284971565
 20
-15.3033174699
 10
-14.2101505356
 20
-14.8290681257
 10
-14.1913358388
 20
-14.3520196071
 10
-14.1720539689
 20
-13.8721770403
 10
-14.1523411444
 20
-13.3898158516
 10
-14.1322094385
 20
-12.9050281368
 10
-14.1116467781
 20
-12.4177226217
 10
-14.0906531632
 20
-11.9278997442
  0
LWPOLYLINE
  5
354
100
AcDbEntity
  8
RACCORDO
100
AcDbPolyline
 62
7
  6
CONTINUOUS
 90
7
 70
0
 10
-12.7164849284
 20
22.2169421442
 10
-12.7160258555
 20
22.2226247881
 10
-12.7155041268
 20
22.2282260459
 10
-12.7149227459
 20
22.2337433771
 10
-12.7142846566
 20
22.2391752549
 10
-12.7135926785
 20
22.2445211887
 10
-12.713329084
 20
22.2464376816
  0
LINE
  5
355
100
AcDbEntity
  8
0
100
AcDbLine
 62
7
  6
CONTINUOUS
 10
-4.138611
 20
30.1
 11
-3.437821
 21
32.799016
  0
LINE
  5
356
100
AcDbEntity
  8
0
100
AcDbLine
 62
7
  6
CONTINUOUS
 10
-3.296255
 20
33.344242
 11
-3.087505
 21
34.148221
  0
LINE
  5
357
100
AcDbEntity
  8
0
100
AcDbLine
 62
7
  6
CONTINUOUS
 10
-4.399429
 20
32.381524
 11
-5.0
 21
30.1
  0
LINE
  5
358
100
AcDbEntity
  8
0
100
AcDbLine
 62
7
  6
CONTINUOUS
 10
-4.242984
 20
32.93321
 11
-4.030979
 21
33.738602
  0
LINE
  5
359
100
AcDbEntity
  8
0
100
AcDbLine
 62
7
  6
CONTINUOUS
 10
-4.137714
 20
29.3126881389
 11
-4.778839
 21
27.3760049512
  0
LINE
  5
35A
100
AcDbEntity
  8
0
100
AcDbLine
 62
7
  6
CONTINUOUS
 10
-4.137714
 20
29.2779585034
 11
-4.778839
 21
27.3412753157
  0
LINE
  5
35B
100
AcDbEntity
  8
0
100
AcDbLine
 62
7
  6
CONTINUOUS
 10
-4.488824
 20
26.5000067889
 11
-3.557685
 21
29.3126881389
  0
LWPOLYLINE
  5
35C
100
AcDbEntity
  8
0
100
AcDbPolyline
 62
7
  6
CONTINUOUS
 90
33
 70
0
 10
-0.1054554558
 20
30.8680022363
 10
-0.1198593173
 20
30.8399268702
 10
-0.1304382334
 20
30.8110902311
 10
-0.1371922041
 20
30.781492319
 10
-0.1394118002
 20
30.7506258573
 10
-0.1378064509
 20
30.7189981226
 10
-0.1345044434
 20
30.6881309441
 10
-0.1301635818
 20
30.6582555744
 10
-0.1241260621
 20
30.6291407609
 10
-0.1165467587
 20
30.6016145747
 10
-0.1073937161
 20
30.5758604582
 10
-0.0966988898
 20
30.5516949691
 10
-0.0847130218
 20
30.5293958515
 10
-0.0712686997
 20
30.5091578006
 10
-0.0565333359
 20
30.4907861213
 10
-0.041259909
 20
30.4739744729
 10
-0.0255049213
 20
30.4588532314
 10
-0.0092118706
 20
30.4452920207
 10
0.007035772
 20
30.4325933725
 10
0.022999647
 20
30.4203518907
 10
0.0389181137
 20
30.4089729713
 10
0.0549227798
 20
30.3989753343
 10
0.0710455486
 20
30.3900844956
 10
0.0872545166
 20
30.3825749392
 10
0.1035855805
 20
30.3777888378
 10
0.1203531918
 20
30.3762083648
 10
0.1372428991
 20
30.3773513467
 10
0.1533472446
 20
30.3811134357
 10
0.1687733677
 20
30.3876526675
 10
0.183414129
 20
30.3968110065
 10
0.1960406529
 20
30.4080099982
 10
0.2060272331
 20
30.4214047017
 10
0.2139995758
 20
30.4368400579
  0
LWPOLYLINE
  5
35D
100
AcDbEntity
  8
ASSI
100
AcDbPolyline
 62
7
  6
CONTINUOUS
 90
8
 70
0
 10
5.2190060238
 20
-27.8199448747
 10
5.3246390249
 20
-27.9399998156
 10
5.4175122028
 20
-28.0681304168
 10
5.4972809826
 20
-28.2045547591
 10
5.5642899393
 20
-28.3490547616
 10
5.6167456605
 20
-28.4977630599
 10
5.6540503424
 20
-28.6493905324
 10
5.6768017889
 20
-28.8052263006
  0
LINE
  5
35E
100
AcDbEntity
  8
0
100
AcDbLine
 62
7
  6
CONTINUOUS
 10
0.39332
 20
-24.2397904329
 11
1.211177
 21
-25.5
  0
LINE
  5
35F
100
AcDbEntity
  8
0
100
AcDbLine
 62
7
  6
CONTINUOUS
 10
0.39332
 20
-24.2050607974
 11
1.211177
 21
-25.4652703645
  0
LINE
  5
360
100
AcDbEntity
  8
0
100
AcDbLine
 62
7
  6
CONTINUOUS
 10
1.244614
 20
-25.2087115099
 11
0.440085
 21
-23.9482459034
  0
LINE
  5
361
100
AcDbEntity
  8
0
100
AcDbLine
 62
7
  6
CONTINUOUS
 10
-4.348955
 20
-25.5
 11
-4.92832
 21
-23.9482459034
  0
LINE
  5
362
100
AcDbEntity
  8
0
100
AcDbLine
 62
7
  6
CONTINUOUS
 10
-4.743398
 20
-25.0483406336
 11
-4.585196
 21
-25.5
  0
LINE
  5
363
100
AcDbEntity
  8
0
100
AcDbLine
 62
7
  6
CONTINUOUS
 10
-4.743398
 20
-25.013610998
 11
-4.585196
 21
-25.4652703645
  0
LINE
  5
364
100
AcDbEntity
  8
0
100
AcDbLine
 62
7
  6
CONTINUOUS
 10
-5.059709
 20
-24.1733258954
 11
-4.821334
 21
-24.8624821962
  0
LINE
  5
365
100
AcDbEntity
  8
0
100
AcDbLine
 62
7
  6
CONTINUOUS
 10
-5.059709
 20
-24.1385962599
 11
-4.821334
 21
-24.8277525606
  0
LINE
  5
366
100
AcDbEntity
  8
ASSI
100
AcDbLine
 62
7
  6
CONTINUOUS
 10
-10.304157
 20
-34.100003
 11
-10.304157
 21
-35.461373
  0
LINE
  5
367
100
AcDbEntity
  8
ASSI
100
AcDbLine
 62
7
  6
CONTINUOUS
 10
-10.031882
 20
-34.997735
 11
-10.031885
 21
-34.100003
  0
LINE
  5
368
100
AcDbEntity
  8
ASSI
100
AcDbLine
 62
7
  6
CONTINUOUS
 10
-9.244783
 20
-34.100003
 11
-9.244783
 21
-34.997735
  0
LINE
  5
369
100
AcDbEntity
  8
ASSI
100
AcDbLine
 62
7
  6
CONTINUOUS
 10
-8.972511
 20
-35.461373
 11
-8.972511
 21
-34.100003
  0
LINE
  5
36A
100
AcDbEntity
  8
ASSI
100
AcDbLine
 62
7
  6
CONTINUOUS
 10
-8.700246
 20
-34.100003
 11
-8.70025
 21
-35.461373
  0
LINE
  5
36B
100
AcDbEntity
  8
0
100
AcDbLine
 62
7
  6
CONTINUOUS
 10
-3.0327253408
 20
32.5126155389
 11
-3.514896
 21
30.655585
  0
LINE
  5
36C
100
AcDbEntity
  8
0
100
AcDbLine
 62
7
  6
CONTINUOUS
 10
-2.687284
 20
30.678948
 11
-2.2452153885
 21
32.3815263552
  0
LINE
  5
36D
100
AcDbEntity
  8
0
100
AcDbLine
 62
7
  6
CONTINUOUS
 10
-1.775653
 20
32.515948
 11
-2.329016004
 21
30.3847289845
  0
LINE
  5
36E
100
AcDbEntity
  8
0
100
AcDbLine
 62
7
  6
CONTINUOUS
 10
-1.560073
 20
30.1
 11
-0.508967
 21
34.148221
  0
LINE
  5
36F
100
AcDbEntity
  8
0
100
AcDbLine
 62
7
  6
CONTINUOUS
 10
-0.4841674614
 20
32.552878223
 11
-1.004721
 21
30.548024
  0
LINE
  5
370
100
AcDbEntity
  8
0
100
AcDbLine
 62
7
  6
CONTINUOUS
 10
-1.68658
 20
32.799016
 11
-1.428825
 21
33.748855
  0
LWPOLYLINE
  5
371
100
AcDbEntity
  8
0
100
AcDbPolyline
 62
7
  6
CONTINUOUS
 90
8
 70
0
 10
0.2139995758
 20
30.4368400579
 10
0.2206059244
 20
30.4532724363
 10
0.2254618893
 20
30.4706346178
 10
0.22895186
 20
30.4889938214
 10
0.2328772492
 20
30.5075080735
 10
0.2378385275
 20
30.5258967162
 10
0.2432352241
 20
30.5444404075
 10
0.2490673391
 20
30.5631391472
  0
LWPOLYLINE
  5
372
100
AcDbEntity
  8
ASSI
100
AcDbPolyline
 62
7
  6
CONTINUOUS
 90
8
 70
0
 10
5.0333561387
 20
-28.3744073131
 10
5.0870574401
 20
-28.4671448029
 10
5.1315794832
 20
-28.5628491304
 10
5.166922268
 20
-28.6615202955
 10
5.1932948279
 20
-28.7640709279
 10
5.2104881296
 20
-28.8695883979
 10
5.2178750727
 20
-28.9753348169
 10
5.2181315316
 20
-28.9998290208
  0
LINE
  5
373
100
AcDbEntity
  8
ASSI
100
AcDbLine
 62
7
  6
CONTINUOUS
 10
4.596221
 20
-30.0302425195
 11
4.744178
 21
-30.2859056451
  0
LINE
  5
374
100
AcDbEntity
  8
ASSI
100
AcDbLine
 62
7
  6
CONTINUOUS
 10
4.6112771514
 20
-30.021529245
 11
4.744178
 21
-30.2511760096
  0
LWPOLYLINE
  5
375
100
AcDbEntity
  8
ASSI
100
AcDbPolyline
 62
7
  6
CONTINUOUS
 90
8
 70
0
 10
5.0333561414
 20
-28.3396776753
 10
5.0872221356
 20
-28.4327956041
 10
5.1318450115
 20
-28.5288265909
 10
5.1672247693
 20
-28.6277706357
 10
5.1935319216
 20
-28.7306270684
 10
5.2105959558
 20
-28.8363965591
 10
5.2179053334
 20
-28.9420811176
 10
5.2181315338
 20
-28.9650879958
  0
LINE
  5
376
100
AcDbEntity
  8
ASSI
100
AcDbLine
 62
7
  6
CONTINUOUS
 10
-8.427977
 20
-35.461373
 11
-8.427974
 21
-34.1
  0
LINE
  5
377
100
AcDbEntity
  8
0
100
AcDbLine
 62
7
  6
CONTINUOUS
 10
-7.5
 20
-23.9482459034
 11
-7.5
 21
-25.5
  0
LINE
  5
378
100
AcDbEntity
  8
0
100
AcDbLine
 62
7
  6
CONTINUOUS
 10
-7.290538
 20
-25.5
 11
-7.290538
 21
-24.1641313434
  0
LINE
  5
379
100
AcDbEntity
  8
0
100
AcDbLine
 62
7
  6
CONTINUOUS
 10
-7.0
 20
-37.0
 11
-7.0
 21
-33.9
  0
LINE
  5
37A
100
AcDbEntity
  8
0
100
AcDbLine
 62
7
  6
CONTINUOUS
 10
-7.0
 20
33.9
 11
-7.0
 21
37.0
  0
LINE
  5
37B
100
AcDbEntity
  8
0
100
AcDbLine
 62
7
  6
CONTINUOUS
 10
-6.176333
 20
-24.1619976815
 11
-6.176333
 21
-25.5
  0
LINE
  5
37C
100
AcDbEntity
  8
0
100
AcDbLine
 62
7
  6
CONTINUOUS
 10
-5.966786
 20
-25.5
 11
-5.966786
 21
-23.9482459034
  0
LINE
  5
37D
100
AcDbEntity
  8
0
100
AcDbLine
 62
7
  6
CONTINUOUS
 10
0.009339
 20
31.275993
 11
0.2821775145
 21
32.3268001302
  0
LINE
  5
37E
100
AcDbEntity
  8
0
100
AcDbLine
 62
7
  6
CONTINUOUS
 10
0.73811
 20
32.50821
 11
0.470111
 21
31.476042
  0
LINE
  5
37F
100
AcDbEntity
  8
0
100
AcDbLine
 62
7
  6
CONTINUOUS
 10
1.0469115698
 20
30.421898343
 11
1.18961
 21
30.971485
  0
LINE
  5
380
100
AcDbEntity
  8
0
100
AcDbLine
 62
7
  6
CONTINUOUS
 10
1.323865
 20
31.488556
 11
1.510188
 21
32.206158
  0
LINE
  5
381
100
AcDbEntity
  8
0
100
AcDbLine
 62
7
  6
CONTINUOUS
 10
1.645922
 20
31.169598
 11
1.5085420004
 21
30.6404940016
  0
LINE
  5
382
100
AcDbEntity
  8
0
100
AcDbLine
 62
7
  6
CONTINUOUS
 10
1.9698031324
 20
32.4169924263
 11
1.780178
 21
31.686669
  0
LINE
  5
383
100
AcDbEntity
  8
0
100
AcDbLine
 62
7
  6
CONTINUOUS
 10
-0.051012
 20
29.3126881389
 11
-0.59258
 21
27.4809694777
  0
LINE
  5
384
100
AcDbEntity
  8
0
100
AcDbLine
 62
7
  6
CONTINUOUS
 10
-0.051012
 20
29.2779585034
 11
-0.59258
 21
27.4462398422
  0
LINE
  5
385
100
AcDbEntity
  8
0
100
AcDbLine
 62
7
  6
CONTINUOUS
 10
-0.30258
 20
26.5000145477
 11
0.245795
 21
28.3547816065
  0
LINE
  5
386
100
AcDbEntity
  8
0
100
AcDbLine
 62
7
  6
CONTINUOUS
 10
2.143628
 20
29.3126949279
 11
1.212503
 21
26.5000067889
  0
LINE
  5
387
100
AcDbEntity
  8
0
100
AcDbLine
 62
7
  6
CONTINUOUS
 10
2.143628
 20
29.2779652923
 11
1.2228645305
 21
26.496576661
  0
LINE
  5
388
100
AcDbEntity
  8
0
100
AcDbLine
 62
7
  6
CONTINUOUS
 10
1.792525
 20
26.5000145477
 11
1.975638
 21
27.0531450542
  0
LINE
  5
389
100
AcDbEntity
  8
0
100
AcDbLine
 62
7
  6
CONTINUOUS
 10
2.15256
 20
27.5875517079
 11
2.43365
 21
28.4366899766
  0
LINE
  5
38A
100
AcDbEntity
  8
RACCORDO
100
AcDbLine
 62
250
  6
CONTINUOUS
 10
12.7515242325
 20
22.2389859848
 11
12.7524313703
 21
22.2399733156
  0
LINE
  5
38B
100
AcDbEntity
  8
RACCORDO
100
AcDbLine
 62
250
  6
CONTINUOUS
 10
12.7506354599
 20
22.2380290243
 11
12.7515242325
 21
22.2389859848
  0
LINE
  5
38C
100
AcDbEntity
  8
RACCORDO
100
AcDbLine
 62
250
  6
CONTINUOUS
 10
12.7497648738
 20
22.2371021124
 11
12.7506354599
 21
22.2380290243
  0
LINE
  5
38D
100
AcDbEntity
  8
RACCORDO
100
AcDbLine
 62
250
  6
CONTINUOUS
 10
12.7489122096
 20
22.2362048356
 11
12.7497648738
 21
22.2371021124
  0
LINE
  5
38E
100
AcDbEntity
  8
RACCORDO
100
AcDbLine
 62
250
  6
CONTINUOUS
 10
12.7480772115
 20
22.2353369197
 11
12.7489122096
 21
22.2362048356
  0
LINE
  5
38F
100
AcDbEntity
  8
RACCORDO
100
AcDbLine
 62
250
  6
CONTINUOUS
 10
12.7472596131
 20
22.2344979497
 11
12.7480772115
 21
22.2353369197
  0
LINE
  5
390
100
AcDbEntity
  8
RACCORDO
100
AcDbLine
 62
250
  6
CONTINUOUS
 10
12.732370483
 20
22.2200711144
 11
12.7331080599
 21
22.2208249751
  0
LINE
  5
391
100
AcDbEntity
  8
RACCORDO
100
AcDbLine
 62
250
  6
CONTINUOUS
 10
12.7464591368
 20
22.2336875033
 11
12.7472596131
 21
22.2344979497
  0
LINE
  5
392
100
AcDbEntity
  8
RACCORDO
100
AcDbLine
 62
250
  6
CONTINUOUS
 10
12.7331080599
 20
22.2208249751
 11
12.7338498071
 21
22.2215713214
  0
LINE
  5
393
100
AcDbEntity
  8
RACCORDO
100
AcDbLine
 62
250
  6
CONTINUOUS
 10
12.745675518
 20
22.2329052986
 11
12.7464591368
 21
22.2336875033
  0
LINE
  5
394
100
AcDbEntity
  8
RACCORDO
100
AcDbLine
 62
250
  6
CONTINUOUS
 10
12.7338498071
 20
22.2215713214
 11
12.7345956427
 21
22.2223117184
  0
LINE
  5
395
100
AcDbEntity
  8
RACCORDO
100
AcDbLine
 62
250
  6
CONTINUOUS
 10
12.7449084758
 20
22.2321509112
 11
12.745675518
 21
22.2329052986
  0
LINE
  5
396
100
AcDbEntity
  8
RACCORDO
100
AcDbLine
 62
250
  6
CONTINUOUS
 10
12.7345956427
 20
22.2223117184
 11
12.7353452504
 21
22.223047158
  0
LINE
  5
397
100
AcDbEntity
  8
RACCORDO
100
AcDbLine
 62
250
  6
CONTINUOUS
 10
12.7353452504
 20
22.223047158
 11
12.7364767026
 21
22.2241440039
  0
LINE
  5
398
100
AcDbEntity
  8
RACCORDO
100
AcDbLine
 62
250
  6
CONTINUOUS
 10
12.744157711
 20
22.2314238634
 11
12.7449084758
 21
22.2321509112
  0
LINE
  5
399
100
AcDbEntity
  8
RACCORDO
100
AcDbLine
 62
250
  6
CONTINUOUS
 10
12.7364767026
 20
22.2241440039
 11
12.7376161993
 21
22.2252362698
  0
LINE
  5
39A
100
AcDbEntity
  8
RACCORDO
100
AcDbLine
 62
250
  6
CONTINUOUS
 10
12.7434229779
 20
22.2307240122
 11
12.744157711
 21
22.2314238634
  0
LINE
  5
39B
100
AcDbEntity
  8
RACCORDO
100
AcDbLine
 62
250
  6
CONTINUOUS
 10
12.7376161993
 20
22.2252362698
 11
12.7395322825
 21
22.2270546819
  0
LINE
  5
39C
100
AcDbEntity
  8
RACCORDO
100
AcDbLine
 62
250
  6
CONTINUOUS
 10
12.7395322825
 20
22.2270546819
 11
12.7434229779
 21
22.2307240122
  0
LINE
  5
39D
100
AcDbEntity
  8
RACCORDO
100
AcDbLine
 62
250
  6
CONTINUOUS
 10
12.7426584323
 20
-22.2305036297
 11
12.7418687453
 21
-22.229774405
  0
LINE
  5
39E
100
AcDbEntity
  8
RACCORDO
100
AcDbLine
 62
250
  6
CONTINUOUS
 10
12.7438156242
 20
-22.2315745812
 11
12.7426584323
 21
-22.2305036297
  0
LINE
  5
39F
100
AcDbEntity
  8
RACCORDO
100
AcDbLine
 62
250
  6
CONTINUOUS
 10
12.7418687453
 20
-22.229774405
 11
12.7387409423
 21
-22.2268787534
  0
LINE
  5
3A0
100
AcDbEntity
  8
RACCORDO
100
AcDbLine
 62
250
  6
CONTINUOUS
 10
12.7387409423
 20
-22.2268787534
 11
12.7371965067
 21
-22.2254338479
  0
LINE
  5
3A1
100
AcDbEntity
  8
RACCORDO
100
AcDbLine
 62
250
  6
CONTINUOUS
 10
12.7445567625
 20
-22.2322720129
 11
12.7438156242
 21
-22.2315745812
  0
LINE
  5
3A2
100
AcDbEntity
  8
RACCORDO
100
AcDbLine
 62
250
  6
CONTINUOUS
 10
12.7371965067
 20
-22.2254338479
 11
12.7360473146
 21
-22.2243461178
  0
LINE
  5
3A3
100
AcDbEntity
  8
RACCORDO
100
AcDbLine
 62
250
  6
CONTINUOUS
 10
12.7360473146
 20
-22.2243461178
 11
12.7352857514
 21
-22.2236172171
  0
LINE
  5
3A4
100
AcDbEntity
  8
RACCORDO
100
AcDbLine
 62
250
  6
CONTINUOUS
 10
12.7453134588
 20
-22.2329959391
 11
12.7445567625
 21
-22.2322720129
  0
LINE
  5
3A5
100
AcDbEntity
  8
RACCORDO
100
AcDbLine
 62
250
  6
CONTINUOUS
 10
12.7352857514
 20
-22.2236172171
 11
12.7345279752
 21
-22.2228840116
  0
LINE
  5
3A6
100
AcDbEntity
  8
RACCORDO
100
AcDbLine
 62
250
  6
CONTINUOUS
 10
12.7460859889
 20
-22.2337468504
 11
12.7453134588
 21
-22.2329959391
  0
LINE
  5
3A7
100
AcDbEntity
  8
RACCORDO
100
AcDbLine
 62
250
  6
CONTINUOUS
 10
12.7345279752
 20
-22.2228840116
 11
12.7337739939
 21
-22.2221450302
  0
LINE
  5
3A8
100
AcDbEntity
  8
RACCORDO
100
AcDbLine
 62
250
  6
CONTINUOUS
 10
12.7468745973
 20
-22.2345250151
 11
12.7460859889
 21
-22.2337468504
  0
LWPOLYLINE
  5
3A9
100
AcDbEntity
  8
RACCORDO
100
AcDbPolyline
 62
250
  6
CONTINUOUS
 90
81
 70
0
 10
12.7337739939
 20
-22.2221450302
 10
12.733024136
 20
-22.2213992201
 10
12.7326507238
 20
-22.2210231393
 10
12.7322784833
 20
-22.2206449181
 10
12.7319072002
 20
-22.2202638833
 10
12.7315370414
 20
-22.2198800791
 10
12.7311681327
 20
-22.2194934614
 10
12.7308002299
 20
-22.2191032244
 10
12.730433527
 20
-22.2187094262
 10
12.7300681653
 20
-22.2183120087
 10
12.7297038606
 20
-22.2179099922
 10
12.7293408314
 20
-22.217503443
 10
12.728979248
 20
-22.2170922948
 10
12.7286188021
 20
-22.2166753688
 10
12.7282598075
 20
-22.2162528214
 10
12.7279024022
 20
-22.2158244964
 10
12.7275460817
 20
-22.2153887455
 10
12.7271907787
 20
-22.2149451985
 10
12.7268371274
 20
-22.2144942257
 10
12.7264857039
 20
-22.2140352899
 10
12.7261353685
 20
-22.2135664753
 10
12.7257878635
 20
-22.2130896976
 10
12.7254477946
 20
-22.2126101664
 10
12.7251155456
 20
-22.2121283228
 10
12.724790709
 20
-22.2116437255
 10
12.724476218
 20
-22.2111602606
 10
12.724172734
 20
-22.2106792088
 10
12.7238791447
 20
-22.2101992893
 10
12.7235955024
 20
-22.2097205455
 10
12.7233216796
 20
-22.2092430894
 10
12.7230573643
 20
-22.2087668089
 10
12.7228023189
 20
-22.2082914113
 10
12.722556358
 20
-22.2078169115
 10
12.7223192471
 20
-22.2073432946
 10
12.7220906869
 20
-22.2068702227
 10
12.7218704946
 20
-22.2063977022
 10
12.7216584607
 20
-22.2059257267
 10
12.7214542665
 20
-22.2054539396
 10
12.721257738
 20
-22.2049823411
 10
12.7210686898
 20
-22.204510931
 10
12.7208868102
 20
-22.2040393527
 10
12.7207119376
 20
-22.2035676013
 10
12.7205439081
 20
-22.2030956817
 10
12.7203824333
 20
-22.2026232521
 10
12.7202273655
 20
-22.2021503055
 10
12.7200785595
 20
-22.2016768488
 10
12.7199357561
 20
-22.2012025602
 10
12.7197988214
 20
-22.2007274322
 10
12.7196676266
 20
-22.2002514722
 10
12.719541943
 20
-22.1997743809
 10
12.7194216503
 20
-22.1992961508
 10
12.7193066335
 20
-22.1988167893
 10
12.7191966933
 20
-22.1983360187
 10
12.7190917217
 20
-22.1978538323
 10
12.7189916161
 20
-22.1973702368
 10
12.7188962038
 20
-22.1968849746
 10
12.7188053882
 20
-22.1963980395
 10
12.7187190773
 20
-22.1959094377
 10
12.7186371222
 20
-22.1954189297
 10
12.7185594366
 20
-22.1949265104
 10
12.7184859377
 20
-22.1944321848
 10
12.7184164977
 20
-22.1939357292
 10
12.7183510391
 20
-22.1934371393
 10
12.7182894874
 20
-22.1929364195
 10
12.7182317331
 20
-22.1924333585
 10
12.7181777065
 20
-22.1919279528
 10
12.7181273403
 20
-22.1914202061
 10
12.718080541
 20
-22.1909099176
 10
12.7180372458
 20
-22.1903970844
 10
12.717997394
 20
-22.1898817095
 10
12.7179609056
 20
-22.1893636008
 10
12.7179277243
 20
-22.1888427559
 10
12.7178977948
 20
-22.1883191772
 10
12.7178710494
 20
-22.1877926792
 10
12.7178474369
 20
-22.1872632599
 10
12.7178269075
 20
-22.1867309214
 10
12.7178094036
 20
-22.1861954847
 10
12.7177948792
 20
-22.1856569494
 10
12.7177832888
 20
-22.1851153159
 10
12.7177745838
 20
-22.1845704064
 10
12.7177687227
 20
-22.1840222197
  0
LINE
  5
3AA
100
AcDbEntity
  8
RACCORDO
100
AcDbLine
 62
250
  6
CONTINUOUS
 10
12.7476795457
 20
-22.2353308341
 11
12.7468745973
 21
-22.2345250151
  0
LINE
  5
3AB
100
AcDbEntity
  8
RACCORDO
100
AcDbLine
 62
250
  6
CONTINUOUS
 10
12.7485010867
 20
-22.2361647071
 11
12.7476795457
 21
-22.2353308341
  0
LINE
  5
3AC
100
AcDbEntity
  8
RACCORDO
100
AcDbLine
 62
250
  6
CONTINUOUS
 10
12.7493395306
 20
-22.2370269749
 11
12.7485010867
 21
-22.2361647071
  0
LINE
  5
3AD
100
AcDbEntity
  8
RACCORDO
100
AcDbLine
 62
250
  6
CONTINUOUS
 10
12.7501953723
 20
-22.2379182829
 11
12.7493395306
 21
-22.2370269749
  0
LINE
  5
3AE
100
AcDbEntity
  8
RACCORDO
100
AcDbLine
 62
250
  6
CONTINUOUS
 10
12.7510689284
 20
-22.2388391047
 11
12.7501953723
 21
-22.2379182829
  0
LINE
  5
3AF
100
AcDbEntity
  8
RACCORDO
100
AcDbLine
 62
250
  6
CONTINUOUS
 10
12.7519605631
 20
-22.2397898353
 11
12.7510689284
 21
-22.2388391047
  0
LINE
  5
3B0
100
AcDbEntity
  8
RACCORDO
100
AcDbLine
 62
250
  6
CONTINUOUS
 10
12.752870828
 20
-22.2407711933
 11
12.7519605631
 21
-22.2397898353
  0
LINE
  5
3B1
100
AcDbEntity
  8
RACCORDO
100
AcDbLine
 62
250
  6
CONTINUOUS
 10
12.7538000612
 20
-22.2417836804
 11
12.752870828
 21
-22.2407711933
  0
LINE
  5
3B2
100
AcDbEntity
  8
0
100
AcDbLine
 62
7
  6
CONTINUOUS
 10
6.980701
 20
-23.9482459034
 11
7.584599
 21
-24.8754083078
  0
LINE
  5
3B3
100
AcDbEntity
  8
0
100
AcDbLine
 62
7
  6
CONTINUOUS
 10
7.0033218023
 20
-23.9482459034
 11
7.584599
 21
-24.8406786723
  0
LINE
  5
3B4
100
AcDbEntity
  8
0
100
AcDbLine
 62
7
  6
CONTINUOUS
 10
7.691611
 20
-24.6939413345
 11
7.232508
 21
-23.9482459034
  0
LWPOLYLINE
  5
3B5
100
AcDbEntity
  8
0
100
AcDbPolyline
 62
7
  6
CONTINUOUS
 90
15
 70
0
 10
-2.8212252334
 20
-24.6301216083
 10
-2.8306787653
 20
-24.5413814872
 10
-2.8471174413
 20
-24.4579025883
 10
-2.8709365682
 20
-24.3792388498
 10
-2.9017408392
 20
-24.3058363336
 10
-2.938344333
 20
-24.2390332248
 10
-2.9808147848
 20
-24.1791797615
 10
-3.0290844595
 20
-24.1259257057
 10
-3.081764231
 20
-24.0795585279
 10
-3.1385199934
 20
-24.0401114199
 10
-3.1996858527
 20
-24.00755119
 10
-3.2648750005
 20
-23.9820657338
 10
-3.3339585007
 20
-23.9637176832
 10
-3.4070652894
 20
-23.9524444064
 10
-3.4841953667
 20
-23.9482459034
  0
LWPOLYLINE
  5
3B6
100
AcDbEntity
  8
0
100
AcDbPolyline
 62
7
  6
CONTINUOUS
 90
15
 70
0
 10
-3.0427410286
 20
-24.6557039745
 10
-3.0484611197
 20
-24.5905169373
 10
-3.0583273309
 20
-24.5285618401
 10
-3.0721804806
 20
-24.4693777259
 10
-3.0901797504
 20
-24.4134255516
 10
-3.1128026853
 20
-24.3620881887
 10
-3.1404983308
 20
-24.3156639671
 10
-3.1728176414
 20
-24.2738545569
 10
-3.208891026
 20
-24.2371478395
 10
-3.2486481983
 20
-24.2056123914
 10
-3.2921594445
 20
-24.1791796361
 10
-3.3387660317
 20
-24.1581317256
 10
-3.3882483821
 20
-24.1425627105
 10
-3.4408260734
 20
-24.1323785403
 10
-3.4964991055
 20
-24.1275792148
  0
LINE
  5
3B7
100
AcDbEntity
  8
0
100
AcDbLine
 62
7
  6
CONTINUOUS
 10
-3.0408497874
 20
-24.701530175
 11
-3.0427410286
 21
-24.6557039745
  0
LINE
  5
3B8
100
AcDbEntity
  8
0
100
AcDbLine
 62
7
  6
CONTINUOUS
 10
-2.8185656261
 20
-24.7031313843
 11
-2.8212252334
 21
-24.6301216083
  0
LINE
  5
3B9
100
AcDbEntity
  8
0
100
AcDbLine
 62
7
  6
CONTINUOUS
 10
-3.0408497882
 20
-24.7467132061
 11
-3.0411670576
 21
-24.7241229517
  0
LINE
  5
3BA
100
AcDbEntity
  8
0
100
AcDbLine
 62
7
  6
CONTINUOUS
 10
-2.8185657463
 20
-24.7450974271
 11
-2.8187568454
 21
-24.7241229517
  0
LINE
  5
3BB
100
AcDbEntity
  8
0
100
AcDbLine
 62
7
  6
CONTINUOUS
 10
-5.385158
 20
-25.0483406336
 11
-5.385158
 21
-25.013610998
  0
LINE
  5
3BC
100
AcDbEntity
  8
0
100
AcDbLine
 62
7
  6
CONTINUOUS
 10
-5.059709
 20
-24.1733258954
 11
-5.059709
 21
-24.1385962599
  0
LINE
  5
3BD
100
AcDbEntity
  8
RACCORDO
100
AcDbLine
 62
7
  6
CONTINUOUS
 10
-4.8
 20
-37.0
 11
-4.8
 21
-36.5428565373
  0
LINE
  5
3BE
100
AcDbEntity
  8
RACCORDO
100
AcDbLine
 62
7
  6
CONTINUOUS
 10
-4.8
 20
36.5428565373
 11
-4.8
 21
37.0
  0
LINE
  5
3BF
100
AcDbEntity
  8
0
100
AcDbLine
 62
7
  6
CONTINUOUS
 10
-4.778839
 20
27.3760049512
 11
-4.778839
 21
27.3412753157
  0
LINE
  5
3C0
100
AcDbEntity
  8
0
100
AcDbLine
 62
7
  6
CONTINUOUS
 10
-4.743398
 20
-25.0483406336
 11
-4.743398
 21
-25.013610998
  0
LINE
  5
3C1
100
AcDbEntity
  8
0
100
AcDbLine
 62
7
  6
CONTINUOUS
 10
-4.1395
 20
-23.9482459034
 11
-4.1395
 21
-25.5
  0
LINE
  5
3C2
100
AcDbEntity
  8
RACCORDO
100
AcDbLine
 62
7
  6
CONTINUOUS
 10
-4.0
 20
-36.5428565373
 11
-4.0
 21
-38.3
  0
LINE
  5
3C3
100
AcDbEntity
  8
RACCORDO
100
AcDbLine
 62
7
  6
CONTINUOUS
 10
-4.0
 20
36.5428565373
 11
-4.0
 21
38.3
  0
LINE
  5
3C4
100
AcDbEntity
  8
0
100
AcDbLine
 62
7
  6
CONTINUOUS
 10
-3.923276
 20
-25.3206666886
 11
-3.923276
 21
-24.0928495792
  0
LINE
  5
3C5
100
AcDbEntity
  8
0
100
AcDbLine
 62
7
  6
CONTINUOUS
 10
-3.6749773271
 20
40.0
 11
-3.6749773271
 21
38.4990856836
  0
LINE
  5
3C6
100
AcDbEntity
  8
0
100
AcDbLine
 62
7
  6
CONTINUOUS
 10
-3.6749773271
 20
-38.4990856836
 11
-3.6749773271
 21
-40.0
  0
LINE
  5
3C7
100
AcDbEntity
  8
0
100
AcDbLine
 62
7
  6
CONTINUOUS
 10
-3.5
 20
39.930158461
 11
-3.5
 21
38.4292441446
  0
LINE
  5
3C8
100
AcDbEntity
  8
0
100
AcDbLine
 62
7
  6
CONTINUOUS
 10
-3.5
 20
-38.4292441446
 11
-3.5
 21
-39.930158461
  0
LINE
  5
3C9
100
AcDbEntity
  8
0
100
AcDbLine
 62
250
  6
CONTINUOUS
 10
-3.496499
 20
-24.1275792148
 11
-3.496499
 21
-24.0928495792
  0
LINE
  5
3CA
100
AcDbEntity
  8
0
100
AcDbLine
 62
250
  6
CONTINUOUS
 10
-3.490998
 20
-25.5
 11
-3.490998
 21
-25.4652703645
  0
LINE
  5
3CB
100
AcDbEntity
  8
0
100
AcDbLine
 62
7
  6
CONTINUOUS
 10
-3.171006
 20
29.3126881389
 11
-3.171014
 21
26.5
  0
LINE
  5
3CC
100
AcDbEntity
  8
0
100
AcDbLine
 62
7
  6
CONTINUOUS
 10
-2.590992
 20
26.5000067889
 11
-2.590985
 21
29.3126881389
  0
LINE
  5
3CD
100
AcDbEntity
  8
0
100
AcDbLine
 62
7
  6
CONTINUOUS
 10
-2.8187568454
 20
-24.7241229517
 11
-2.8185656261
 21
-24.7031313843
  0
LINE
  5
3CE
100
AcDbEntity
  8
0
100
AcDbLine
 62
7
  6
CONTINUOUS
 10
-3.0411670576
 20
-24.7241229517
 11
-3.0408497874
 21
-24.701530175
  0
LINE
  5
3CF
100
AcDbEntity
  8
0
100
AcDbLine
 62
7
  6
CONTINUOUS
 10
2.379815
 20
30.74188
 11
2.504549
 21
31.222276
  0
LINE
  5
3D0
100
AcDbEntity
  8
0
100
AcDbLine
 62
7
  6
CONTINUOUS
 10
2.956074
 20
31.418311
 11
2.6811868764
 21
30.3596105239
  0
LINE
  5
3D1
100
AcDbEntity
  8
0
100
AcDbLine
 62
7
  6
CONTINUOUS
 10
3.2424240163
 20
32.5211570628
 11
3.049748
 21
31.779083
  0
LINE
  5
3D2
100
AcDbEntity
  8
0
100
AcDbLine
 62
7
  6
CONTINUOUS
 10
3.500649
 20
30.1
 11
4.076941
 21
32.319528
  0
LINE
  5
3D3
100
AcDbEntity
  8
RACCORDO
100
AcDbLine
 62
250
  6
CONTINUOUS
 10
12.9396191444
 20
22.4866531918
 11
12.9495265484
 21
22.5
  0
LINE
  5
3D4
100
AcDbEntity
  8
RACCORDO
100
AcDbLine
 62
250
  6
CONTINUOUS
 10
12.8394729008
 20
22.3511742564
 11
12.9396191444
 21
22.4866531918
  0
LINE
  5
3D5
100
AcDbEntity
  8
RACCORDO
100
AcDbLine
 62
250
  6
CONTINUOUS
 10
12.8196872584
 20
22.3248125232
 11
12.8394729008
 21
22.3511742564
  0
LINE
  5
3D6
100
AcDbEntity
  8
RACCORDO
100
AcDbLine
 62
250
  6
CONTINUOUS
 10
12.8062017482
 20
22.3070127243
 11
12.8196872584
 21
22.3248125232
  0
LINE
  5
3D7
100
AcDbEntity
  8
RACCORDO
100
AcDbLine
 62
250
  6
CONTINUOUS
 10
12.7958701678
 20
22.2935046029
 11
12.8062017482
 21
22.3070127243
  0
LINE
  5
3D8
100
AcDbEntity
  8
RACCORDO
100
AcDbLine
 62
250
  6
CONTINUOUS
 10
12.7889631779
 20
22.2845597352
 11
12.7958701678
 21
22.2935046029
  0
LINE
  5
3D9
100
AcDbEntity
  8
RACCORDO
100
AcDbLine
 62
250
  6
CONTINUOUS
 10
12.7833280122
 20
22.2773297221
 11
12.7889631779
 21
22.2845597352
  0
LINE
  5
3DA
100
AcDbEntity
  8
RACCORDO
100
AcDbLine
 62
250
  6
CONTINUOUS
 10
12.7787941502
 20
22.2715688596
 11
12.7833280122
 21
22.2773297221
  0
LINE
  5
3DB
100
AcDbEntity
  8
RACCORDO
100
AcDbLine
 62
250
  6
CONTINUOUS
 10
12.7752190619
 20
22.2670697789
 11
12.7787941502
 21
22.2715688596
  0
LINE
  5
3DC
100
AcDbEntity
  8
RACCORDO
100
AcDbLine
 62
250
  6
CONTINUOUS
 10
12.7718206779
 20
22.2628358501
 11
12.7752190619
 21
22.2670697789
  0
LINE
  5
3DD
100
AcDbEntity
  8
RACCORDO
100
AcDbLine
 62
250
  6
CONTINUOUS
 10
12.769226134
 20
22.2596361397
 11
12.7718206779
 21
22.2628358501
  0
LINE
  5
3DE
100
AcDbEntity
  8
RACCORDO
100
AcDbLine
 62
250
  6
CONTINUOUS
 10
12.7667379939
 20
22.2565984717
 11
12.769226134
 21
22.2596361397
  0
LINE
  5
3DF
100
AcDbEntity
  8
RACCORDO
100
AcDbLine
 62
250
  6
CONTINUOUS
 10
12.764353625
 20
22.2537196607
 11
12.7667379939
 21
22.2565984717
  0
LINE
  5
3E0
100
AcDbEntity
  8
RACCORDO
100
AcDbLine
 62
250
  6
CONTINUOUS
 10
12.7626296466
 20
22.2516602736
 11
12.764353625
 21
22.2537196607
  0
LINE
  5
3E1
100
AcDbEntity
  8
RACCORDO
100
AcDbLine
 62
250
  6
CONTINUOUS
 10
12.7609590009
 20
22.2496841347
 11
12.7626296466
 21
22.2516602736
  0
LINE
  5
3E2
100
AcDbEntity
  8
RACCORDO
100
AcDbLine
 62
250
  6
CONTINUOUS
 10
12.7593408935
 20
22.2477902187
 11
12.7609590009
 21
22.2496841347
  0
LINE
  5
3E3
100
AcDbEntity
  8
RACCORDO
100
AcDbLine
 62
250
  6
CONTINUOUS
 10
12.7577735135
 20
22.2459763035
 11
12.7593408935
 21
22.2477902187
  0
LINE
  5
3E4
100
AcDbEntity
  8
RACCORDO
100
AcDbLine
 62
250
  6
CONTINUOUS
 10
12.7562543664
 20
22.2442393324
 11
12.7577735135
 21
22.2459763035
  0
LINE
  5
3E5
100
AcDbEntity
  8
RACCORDO
100
AcDbLine
 62
250
  6
CONTINUOUS
 10
12.7552679861
 20
22.2431235489
 11
12.7562543664
 21
22.2442393324
  0
LINE
  5
3E6
100
AcDbEntity
  8
RACCORDO
100
AcDbLine
 62
250
  6
CONTINUOUS
 10
12.7543024405
 20
22.2420410803
 11
12.7552679861
 21
22.2431235489
  0
LINE
  5
3E7
100
AcDbEntity
  8
RACCORDO
100
AcDbLine
 62
250
  6
CONTINUOUS
 10
12.7533572339
 20
22.2409914141
 11
12.7543024405
 21
22.2420410803
  0
LINE
  5
3E8
100
AcDbEntity
  8
RACCORDO
100
AcDbLine
 62
250
  6
CONTINUOUS
 10
12.7524313703
 20
22.2399733156
 11
12.7533572339
 21
22.2409914141
  0
LINE
  5
3E9
100
AcDbEntity
  8
RACCORDO
100
AcDbLine
 62
250
  6
CONTINUOUS
 10
12.7547486559
 20
-22.2428277201
 11
12.7538000612
 21
-22.2417836804
  0
LINE
  5
3EA
100
AcDbEntity
  8
RACCORDO
100
AcDbLine
 62
250
  6
CONTINUOUS
 10
12.7557172041
 20
-22.2439040842
 11
12.7547486559
 21
-22.2428277201
  0
LINE
  5
3EB
100
AcDbEntity
  8
RACCORDO
100
AcDbLine
 62
250
  6
CONTINUOUS
 10
12.7567060738
 20
-22.2450133099
 11
12.7557172041
 21
-22.2439040842
  0
LINE
  5
3EC
100
AcDbEntity
  8
RACCORDO
100
AcDbLine
 62
250
  6
CONTINUOUS
 10
12.7582284654
 20
-22.2467398849
 11
12.7567060738
 21
-22.2450133099
  0
LINE
  5
3ED
100
AcDbEntity
  8
RACCORDO
100
AcDbLine
 62
250
  6
CONTINUOUS
 10
12.759799308
 20
-22.2485437418
 11
12.7582284654
 21
-22.2467398849
  0
LINE
  5
3EE
100
AcDbEntity
  8
RACCORDO
100
AcDbLine
 62
250
  6
CONTINUOUS
 10
12.7614201421
 20
-22.2504268406
 11
12.759799308
 21
-22.2485437418
  0
LINE
  5
3EF
100
AcDbEntity
  8
RACCORDO
100
AcDbLine
 62
250
  6
CONTINUOUS
 10
12.7630926744
 20
-22.2523913167
 11
12.7614201421
 21
-22.2504268406
  0
LINE
  5
3F0
100
AcDbEntity
  8
RACCORDO
100
AcDbLine
 62
250
  6
CONTINUOUS
 10
12.7648185049
 20
-22.2544391744
 11
12.7630926744
 21
-22.2523913167
  0
LINE
  5
3F1
100
AcDbEntity
  8
RACCORDO
100
AcDbLine
 62
250
  6
CONTINUOUS
 10
12.7665992712
 20
-22.2565724472
 11
12.7648185049
 21
-22.2544391744
  0
LINE
  5
3F2
100
AcDbEntity
  8
RACCORDO
100
AcDbLine
 62
250
  6
CONTINUOUS
 10
12.7690620287
 20
-22.2595532597
 11
12.7665992712
 21
-22.2565724472
  0
LINE
  5
3F3
100
AcDbEntity
  8
RACCORDO
100
AcDbLine
 62
250
  6
CONTINUOUS
 10
12.7716288764
 20
-22.2626938398
 11
12.7690620287
 21
-22.2595532597
  0
LINE
  5
3F4
100
AcDbEntity
  8
RACCORDO
100
AcDbLine
 62
250
  6
CONTINUOUS
 10
12.7743031708
 20
-22.2659981948
 11
12.7716288764
 21
-22.2626938398
  0
LINE
  5
3F5
100
AcDbEntity
  8
RACCORDO
100
AcDbLine
 62
250
  6
CONTINUOUS
 10
12.7778035452
 20
-22.2703665346
 11
12.7743031708
 21
-22.2659981948
  0
LINE
  5
3F6
100
AcDbEntity
  8
RACCORDO
100
AcDbLine
 62
250
  6
CONTINUOUS
 10
12.7814835706
 20
-22.2750045489
 11
12.7778035452
 21
-22.2703665346
  0
LINE
  5
3F7
100
AcDbEntity
  8
RACCORDO
100
AcDbLine
 62
250
  6
CONTINUOUS
 10
12.7861443016
 20
-22.2809347267
 11
12.7814835706
 21
-22.2750045489
  0
LINE
  5
3F8
100
AcDbEntity
  8
RACCORDO
100
AcDbLine
 62
250
  6
CONTINUOUS
 10
12.7919289748
 20
-22.2883666131
 11
12.7861443016
 21
-22.2809347267
  0
LINE
  5
3F9
100
AcDbEntity
  8
RACCORDO
100
AcDbLine
 62
250
  6
CONTINUOUS
 10
12.7990102
 20
-22.2975502905
 11
12.7919289748
 21
-22.2883666131
  0
LINE
  5
3FA
100
AcDbEntity
  8
RACCORDO
100
AcDbLine
 62
250
  6
CONTINUOUS
 10
12.808584757
 20
-22.3100840064
 11
12.7990102
 21
-22.2975502905
  0
LINE
  5
3FB
100
AcDbEntity
  8
RACCORDO
100
AcDbLine
 62
250
  6
CONTINUOUS
 10
12.8222647251
 20
-22.3281655288
 11
12.808584757
 21
-22.3100840064
  0
LINE
  5
3FC
100
AcDbEntity
  8
RACCORDO
100
AcDbLine
 62
250
  6
CONTINUOUS
 10
12.839843959
 20
-22.351621942
 11
12.8222647251
 21
-22.3281655288
  0
LINE
  5
3FD
100
AcDbEntity
  8
RACCORDO
100
AcDbLine
 62
250
  6
CONTINUOUS
 10
12.8650457634
 20
-22.3855628562
 11
12.839843959
 21
-22.351621942
  0
LINE
  5
3FE
100
AcDbEntity
  8
RACCORDO
100
AcDbLine
 62
250
  6
CONTINUOUS
 10
12.9494115722
 20
-22.5
 11
12.9345372781
 21
-22.4799254969
  0
LINE
  5
3FF
100
AcDbEntity
  8
RACCORDO
100
AcDbLine
 62
250
  6
CONTINUOUS
 10
12.8812664194
 20
-22.4075467561
 11
12.8650457634
 21
-22.3855628562
  0
LINE
  5
400
100
AcDbEntity
  8
RACCORDO
100
AcDbLine
 62
250
  6
CONTINUOUS
 10
12.9345372781
 20
-22.4799254969
 11
12.9196236162
 21
-22.4596943502
  0
LINE
  5
401
100
AcDbEntity
  8
RACCORDO
100
AcDbLine
 62
250
  6
CONTINUOUS
 10
12.8859133737
 20
-22.4138584134
 11
12.8812664194
 21
-22.4075467561
  0
LINE
  5
402
100
AcDbEntity
  8
RACCORDO
100
AcDbLine
 62
250
  6
CONTINUOUS
 10
12.8890695414
 20
-22.4181477886
 11
12.8859133737
 21
-22.4138584134
  0
LWPOLYLINE
  5
403
100
AcDbEntity
  8
RACCORDO
100
AcDbPolyline
 62
250
  6
CONTINUOUS
 90
3
 70
0
 10
12.9196236162
 20
-22.4596943502
 10
12.9142546051
 20
-22.4523968269
 10
12.9124911466
 20
-22.449999034
  0
LWPOLYLINE
  5
404
100
AcDbEntity
  8
RACCORDO
100
AcDbPolyline
 62
250
  6
CONTINUOUS
 90
5
 70
0
 10
12.8971890537
 20
-22.4291872271
 10
12.8955431845
 20
-22.4269492686
 10
12.8939081866
 20
-22.4247261703
 10
12.8922835271
 20
-22.4225171857
 10
12.8890695414
 20
-22.4181477886
  0
LWPOLYLINE
  5
405
100
AcDbEntity
  8
RACCORDO
100
AcDbPolyline
 62
250
  6
CONTINUOUS
 90
3
 70
0
 10
12.9124911466
 20
-22.449999034
 10
12.9090030448
 20
-22.4452552931
 10
12.9072780335
 20
-22.4429090611
  0
LWPOLYLINE
  5
406
100
AcDbEntity
  8
RACCORDO
100
AcDbPolyline
 62
250
  6
CONTINUOUS
 90
5
 70
0
 10
12.9072780335
 20
-22.4429090611
 10
12.9038662568
 20
-22.4382683826
 10
12.9021806601
 20
-22.4359757005
 10
12.9005077894
 20
-22.4337004431
 10
12.8971890537
 20
-22.4291872271
  0
LINE
  5
407
100
AcDbEntity
  8
0
100
AcDbLine
 62
7
  6
CONTINUOUS
 10
5.68155
 20
-25.5
 11
5.102069
 21
-23.9482459034
  0
LINE
  5
408
100
AcDbEntity
  8
0
100
AcDbLine
 62
7
  6
CONTINUOUS
 10
5.287056
 20
-25.0483406336
 11
5.44527
 21
-25.5
  0
LINE
  5
409
100
AcDbEntity
  8
0
100
AcDbLine
 62
7
  6
CONTINUOUS
 10
5.287056
 20
-25.013610998
 11
5.44527
 21
-25.4652703645
  0
LINE
  5
40A
100
AcDbEntity
  8
0
100
AcDbLine
 62
7
  6
CONTINUOUS
 10
4.970654
 20
-24.1733258954
 11
5.209042
 21
-24.8624821962
  0
LINE
  5
40B
100
AcDbEntity
  8
0
100
AcDbLine
 62
7
  6
CONTINUOUS
 10
4.970654
 20
-24.1385962599
 11
5.209042
 21
-24.8277525606
  0
LINE
  5
40C
100
AcDbEntity
  8
0
100
AcDbLine
 62
7
  6
CONTINUOUS
 10
-2.519378
 20
-23.9482459034
 11
-2.519378
 21
-25.5
  0
LINE
  5
40D
100
AcDbEntity
  8
0
100
AcDbLine
 62
7
  6
CONTINUOUS
 10
-2.303168
 20
-25.3141405928
 11
-2.303168
 21
-24.7607371504
  0
LINE
  5
40E
100
AcDbEntity
  8
0
100
AcDbLine
 62
7
  6
CONTINUOUS
 10
-2.303168
 20
-24.6096083486
 11
-2.303168
 21
-24.0993756751
  0
LINE
  5
40F
100
AcDbEntity
  8
0
100
AcDbLine
 62
7
  6
CONTINUOUS
 10
-2.010985
 20
29.3126881389
 11
-2.010985
 21
26.5000067889
  0
LINE
  5
410
100
AcDbEntity
  8
0
100
AcDbLine
 62
7
  6
CONTINUOUS
 10
-1.430963
 20
26.5000067889
 11
-1.430963
 21
28.3547816065
  0
LINE
  5
411
100
AcDbEntity
  8
0
100
AcDbLine
 62
7
  6
CONTINUOUS
 10
-1.427393
 20
-24.795466786
 11
-1.427393
 21
-24.6096083486
  0
LINE
  5
412
100
AcDbEntity
  8
0
100
AcDbLine
 62
7
  6
CONTINUOUS
 10
-1.353856
 20
-24.1341053106
 11
-1.353856
 21
-23.9482459034
  0
LINE
  5
413
100
AcDbEntity
  8
0
100
AcDbLine
 62
7
  6
CONTINUOUS
 10
-1.338238
 20
-25.5
 11
-1.338238
 21
-25.3141405928
  0
LINE
  5
414
100
AcDbEntity
  8
0
100
AcDbLine
 62
7
  6
CONTINUOUS
 10
-0.59258
 20
27.4809694777
 11
-0.59258
 21
27.4462398422
  0
LINE
  5
415
100
AcDbEntity
  8
0
100
AcDbLine
 62
7
  6
CONTINUOUS
 10
-0.402254
 20
-23.9482459034
 11
-0.402254
 21
-25.5
  0
LINE
  5
416
100
AcDbEntity
  8
0
100
AcDbLine
 62
7
  6
CONTINUOUS
 10
-0.186109
 20
-25.5
 11
-0.186109
 21
-23.9482459034
  0
LINE
  5
417
100
AcDbEntity
  8
0
100
AcDbLine
 62
7
  6
CONTINUOUS
 10
0.183761
 20
-23.9482459034
 11
0.183761
 21
-25.5
  0
LINE
  5
418
100
AcDbEntity
  8
0
100
AcDbLine
 62
7
  6
CONTINUOUS
 10
0.245795
 20
28.3547816065
 11
0.245803
 21
26.5000067889
  0
LINE
  5
419
100
AcDbEntity
  8
0
100
AcDbLine
 62
7
  6
CONTINUOUS
 10
0.39332
 20
-25.5
 11
0.39332
 21
-24.2050607974
  0
LINE
  5
41A
100
AcDbEntity
  8
ASSI
100
AcDbLine
 62
7
  6
CONTINUOUS
 10
-9.774465
 20
-34.100007
 11
-10.031882
 21
-34.997735
  0
LINE
  5
41B
100
AcDbEntity
  8
ASSI
100
AcDbLine
 62
7
  6
CONTINUOUS
 10
-9.892555
 20
-35.461373
 11
-9.638334
 21
-34.574801
  0
LINE
  5
41C
100
AcDbEntity
  8
ASSI
100
AcDbLine
 62
7
  6
CONTINUOUS
 10
-10.926949
 20
-34.626388
 11
-11.058897
 21
-35.03738
  0
LINE
  5
41D
100
AcDbEntity
  8
ASSI
100
AcDbLine
 62
7
  6
CONTINUOUS
 10
-10.757942
 20
-34.100007
 11
-10.843898
 21
-34.367728
  0
LINE
  5
41E
100
AcDbEntity
  8
RACCORDO
100
AcDbLine
 62
250
  6
CONTINUOUS
 10
16.4213760438
 20
36.8422471786
 11
16.5002284225
 21
37.0
  0
LINE
  5
41F
100
AcDbEntity
  8
RACCORDO
100
AcDbLine
 62
250
  6
CONTINUOUS
 10
16.9127246754
 20
36.3253961061
 11
17.0
 21
36.4999999536
  0
LINE
  5
420
100
AcDbEntity
  8
RACCORDO
100
AcDbLine
 62
250
  6
CONTINUOUS
 10
16.5002284225
 20
-37.0
 11
16.4213760438
 21
-36.8422471786
  0
LINE
  5
421
100
AcDbEntity
  8
RACCORDO
100
AcDbLine
 62
250
  6
CONTINUOUS
 10
17.0
 20
-36.4999999536
 11
16.9127246754
 21
-36.3253961061
  0
LWPOLYLINE
  5
422
100
AcDbEntity
  8
ASSI
100
AcDbPolyline
 62
7
  6
CONTINUOUS
 90
19
 70
0
 10
1.977691121
 20
-28.9993338156
 10
1.9850813232
 20
-29.1492662075
 10
2.0103490185
 20
-29.3245612051
 10
2.0512884762
 20
-29.4957266819
 10
2.1082501617
 20
-29.6626982892
 10
2.1808836096
 20
-29.8255403758
 10
2.2676119828
 20
-29.9803674606
 10
2.3687896599
 20
-30.1270327694
 10
2.4840622623
 20
-30.2656830764
 10
2.6107898176
 20
-30.3928732227
 10
2.7493047992
 20
-30.5083523803
 10
2.8992747337
 20
-30.6123713773
 10
3.0570622281
 20
-30.702237539
 10
3.2229210621
 20
-30.7775750596
 10
3.396597456
 20
-30.8387597449
 10
3.5736926777
 20
-30.8842263377
 10
3.7527404832
 20
-30.9134530858
 10
3.9352071166
 20
-30.9269617414
 10
4.1210925778
 20
-30.9247523045
  0
LWPOLYLINE
  5
423
100
AcDbEntity
  8
ASSI
100
AcDbPolyline
 62
7
  6
CONTINUOUS
 90
13
 70
0
 10
2.4795876903
 20
-28.9989536953
 10
2.4861255541
 20
-29.13493399
 10
2.5042989062
 20
-29.2639007899
 10
2.5336875961
 20
-29.3898326922
 10
2.5745024435
 20
-29.5125921517
 10
2.6265326288
 20
-29.6323167135
 10
2.6887088067
 20
-29.7464087671
 10
2.7612993849
 20
-29.8548016049
 10
2.8440359557
 20
-29.9575619344
 10
2.9350439498
 20
-30.0522922688
 10
3.0336985109
 20
-30.1381934454
 10
3.1406244952
 20
-30.2160646268
 10
3.2558219029
 20
-30.2859058129
  0
LWPOLYLINE
  5
424
100
AcDbEntity
  8
ASSI
100
AcDbPolyline
 62
7
  6
CONTINUOUS
 90
13
 70
0
 10
2.4812232769
 20
-28.9988764689
 10
2.4859320634
 20
-29.0986044169
 10
2.5038454256
 20
-29.2270366202
 10
2.5329955824
 20
-29.3526399216
 10
2.5735700422
 20
-29.4753750451
 10
2.6253812964
 20
-29.5952812667
 10
2.6875228261
 20
-29.7097154188
 10
2.7604210824
 20
-29.8187203106
 10
2.8436496142
 20
-29.9222531328
 10
2.9350225493
 20
-30.0175422901
 10
3.0338112638
 20
-30.1036639174
 10
3.1407443816
 20
-30.1815418799
 10
3.2558219029
 20
-30.2511761774
  0
LWPOLYLINE
  5
425
100
AcDbEntity
  8
ASSI
100
AcDbPolyline
 62
7
  6
CONTINUOUS
 90
37
 70
0
 10
2.315
 20
-29.0
 10
2.321814191
 20
-29.1464136069
 10
2.3409525186
 20
-29.2895751398
 10
2.3724149827
 20
-29.4294845988
 10
2.4166264561
 20
-29.567152134
 10
2.4731620661
 20
-29.7015675952
 10
2.5407471946
 20
-29.8297005319
 10
2.6196328439
 20
-29.9514082297
 10
2.7095680117
 20
-30.0668334029
 10
2.8085250737
 20
-30.1733737449
 10
2.9167089722
 20
-30.2708274268
 10
3.0339147648
 20
-30.3593962773
 10
3.1575
 20
-30.4370834763
 10
3.2876095938
 20
-30.5036418349
 10
3.4240986302
 20
-30.5593185419
 10
3.563889909
 20
-30.6028583437
 10
3.7070584444
 20
-30.6339855369
 10
3.8535292222
 20
-30.6529758248
 10
4.0
 20
-30.6594010638
 10
4.1464707778
 20
-30.6529758248
 10
4.2929415556
 20
-30.6339855369
 10
4.436110091
 20
-30.6028583437
 10
4.5759013698
 20
-30.5593185419
 10
4.7123904062
 20
-30.5036418349
 10
4.8425
 20
-30.4370834763
 10
4.9660852352
 20
-30.3593962773
 10
5.0832910278
 20
-30.2708274268
 10
5.1914749263
 20
-30.1733737449
 10
5.2904319883
 20
-30.0668334029
 10
5.3803671561
 20
-29.9514082297
 10
5.4592528054
 20
-29.8297005319
 10
5.5268379339
 20
-29.7015675952
 10
5.5833735439
 20
-29.567152134
 10
5.6275850173
 20
-29.4294845988
 10
5.6590474814
 20
-29.2895751398
 10
5.678185809
 20
-29.1464136069
 10
5.685
 20
-29.0
  0
LWPOLYLINE
  5
426
100
AcDbEntity
  8
ASSI
100
AcDbPolyline
 62
7
  6
CONTINUOUS
 90
20
 70
0
 10
1.9759895764
 20
-28.9994176851
 10
1.9761083178
 20
-29.0209222524
 10
1.9863209691
 20
-29.1963339564
 10
2.0127598331
 20
-29.3714939357
 10
2.0547565368
 20
-29.5422886407
 10
2.1126548787
 20
-29.7086085419
 10
2.1861110602
 20
-29.8705631687
 10
2.2734253128
 20
-30.0243675606
 10
2.3748891068
 20
-30.1698381748
 10
2.4902109718
 20
-30.3071585539
 10
2.6168167291
 20
-30.4330943653
 10
2.7550964407
 20
-30.5474573797
 10
2.9046600445
 20
-30.6504358264
 10
3.061763175
 20
-30.7393600605
 10
3.2264218112
 20
-30.8138196736
 10
3.3986199742
 20
-30.8742250742
 10
3.5745653623
 20
-30.919137843
 10
3.7529938749
 20
-30.9480785069
 10
3.9351696126
 20
-30.9615265391
 10
4.1210925754
 20
-30.9594819395
  0
LINE
  5
427
100
AcDbEntity
  8
0
100
AcDbLine
 62
7
  6
CONTINUOUS
 10
0.825824
 20
26.5000067889
 11
0.825824
 21
29.3126881389
  0
LINE
  5
428
100
AcDbEntity
  8
0
100
AcDbLine
 62
7
  6
CONTINUOUS
 10
1.211177
 20
-25.5
 11
1.211177
 21
-25.4652703645
  0
LINE
  5
429
100
AcDbEntity
  8
0
100
AcDbLine
 62
7
  6
CONTINUOUS
 10
1.244614
 20
-23.9482459034
 11
1.244614
 21
-25.2087115099
  0
LINE
  5
42A
100
AcDbEntity
  8
0
100
AcDbLine
 62
7
  6
CONTINUOUS
 10
1.454069
 20
-25.5
 11
1.454069
 21
-23.9482459034
  0
LINE
  5
42B
100
AcDbEntity
  8
0
100
AcDbLine
 62
7
  6
CONTINUOUS
 10
2.132446
 20
-36.548037
 11
2.132446
 21
-35.79722
  0
LINE
  5
42C
100
AcDbEntity
  8
0
100
AcDbLine
 62
7
  6
CONTINUOUS
 10
2.132446
 20
-32.20278
 11
2.132446
 21
-31.451963
  0
LINE
  5
42D
100
AcDbEntity
  8
0
100
AcDbLine
 62
7
  6
CONTINUOUS
 10
2.15256
 20
27.5875517079
 11
2.15256
 21
27.5528220723
  0
LINE
  5
42E
100
AcDbEntity
  8
0
100
AcDbLine
 62
7
  6
CONTINUOUS
 10
2.445694
 20
-23.9482459034
 11
2.445694
 21
-25.5
  0
LINE
  5
42F
100
AcDbEntity
  8
0
100
AcDbLine
 62
7
  6
CONTINUOUS
 10
2.661904
 20
-25.5
 11
2.661904
 21
-23.9482459034
  0
LINE
  5
430
100
AcDbEntity
  8
0
100
AcDbLine
 62
7
  6
CONTINUOUS
 10
2.714754
 20
27.5875517079
 11
2.714754
 21
27.5528220723
  0
LINE
  5
431
100
AcDbEntity
  8
0
100
AcDbLine
 62
7
  6
CONTINUOUS
 10
2.893668
 20
-23.9482459034
 11
2.893668
 21
-24.1341053106
  0
LINE
  5
432
100
AcDbEntity
  8
ASSI
100
AcDbLine
 62
7
  6
CONTINUOUS
 10
2.966644
 20
-28.3744074264
 11
2.966644
 21
-28.3396777909
  0
LINE
  5
433
100
AcDbEntity
  8
ASSI
100
AcDbLine
 62
7
  6
CONTINUOUS
 10
3.2558219029
 20
-30.2859058129
 11
3.255822
 21
-30.2511760096
  0
LWPOLYLINE
  5
434
100
AcDbEntity
  8
ASSI
100
AcDbPolyline
 62
7
  6
CONTINUOUS
 90
8
 70
0
 10
2.7818686494
 20
-28.9998368513
 10
2.7821544966
 20
-28.9739827252
 10
2.7896180099
 20
-28.8684738119
 10
2.8068556296
 20
-28.7632690387
 10
2.8332397945
 20
-28.6609971401
 10
2.8685613177
 20
-28.562534361
 10
2.9130293862
 20
-28.4670044564
 10
2.966644
 20
-28.3744074264
  0
LINE
  5
435
100
AcDbEntity
  8
ASSI
100
AcDbLine
 62
7
  6
CONTINUOUS
 10
-10.922756
 20
-35.461376
 11
-10.48567
 21
-34.100003
  0
LINE
  5
436
100
AcDbEntity
  8
ASSI
100
AcDbLine
 62
7
  6
CONTINUOUS
 10
-7.809371
 20
-34.100003
 11
-8.246464
 21
-35.461373
  0
LINE
  5
437
100
AcDbEntity
  8
ASSI
100
AcDbLine
 62
7
  6
CONTINUOUS
 10
-7.974189
 20
-35.461373
 11
-7.673234
 21
-34.523997
  0
LINE
  5
438
100
AcDbEntity
  8
0
100
AcDbLine
 62
7
  6
CONTINUOUS
 10
-6.626424
 20
-25.4652703645
 11
-6.176333
 21
-24.1619976815
  0
LINE
  5
439
100
AcDbEntity
  8
0
100
AcDbLine
 62
7
  6
CONTINUOUS
 10
-6.626424
 20
-25.5
 11
-6.176333
 21
-24.196727317
  0
LINE
  5
43A
100
AcDbEntity
  8
0
100
AcDbLine
 62
7
  6
CONTINUOUS
 10
-6.274351
 20
-23.9482459034
 11
-6.731193
 21
-25.266489134
  0
LINE
  5
43B
100
AcDbEntity
  8
RACCORDO
100
AcDbLine
 62
250
  6
CONTINUOUS
 10
-16.9127246754
 20
-36.3253961061
 11
-17.0
 21
-36.4999999536
  0
LINE
  5
43C
100
AcDbEntity
  8
RACCORDO
100
AcDbLine
 62
250
  6
CONTINUOUS
 10
-16.4213760438
 20
-36.8422471786
 11
-16.5002284225
 21
-37.0
  0
LWPOLYLINE
  5
43D
100
AcDbEntity
  8
RACCORDO
100
AcDbPolyline
 62
250
  6
CONTINUOUS
 90
3
 70
0
 10
-12.9075349263
 20
-22.4437311952
 10
-12.9041388504
 20
-22.4391346944
 10
-12.9024598285
 20
-22.436862254
  0
LINE
  5
43E
100
AcDbEntity
  8
RACCORDO
100
AcDbLine
 62
250
  6
CONTINUOUS
 10
-12.9092520581
 20
-22.4460552555
 11
-12.9075349263
 21
-22.4437311952
  0
LWPOLYLINE
  5
43F
100
AcDbEntity
  8
RACCORDO
100
AcDbPolyline
 62
250
  6
CONTINUOUS
 90
4
 70
0
 10
-12.9024598285
 20
-22.436862254
 10
-12.8991359372
 20
-22.4323640912
 10
-12.8974910127
 20
-22.4301383689
 10
-12.8958544483
 20
-22.4279241456
  0
LWPOLYLINE
  5
440
100
AcDbEntity
  8
RACCORDO
100
AcDbPolyline
 62
250
  6
CONTINUOUS
 90
3
 70
0
 10
-12.9144772025
 20
-22.4531261864
 10
-12.9127231644
 20
-22.4507527511
 10
-12.9092520581
 20
-22.4460552555
  0
LWPOLYLINE
  5
441
100
AcDbEntity
  8
RACCORDO
100
AcDbPolyline
 62
250
  6
CONTINUOUS
 90
5
 70
0
 10
-12.8958544483
 20
-22.4279241456
 10
-12.8926017933
 20
-22.4235239507
 10
-12.8909921965
 20
-22.4213466386
 10
-12.8893961028
 20
-22.4191876633
 10
-12.8878124533
 20
-22.4170457239
  0
LINE
  5
442
100
AcDbEntity
  8
RACCORDO
100
AcDbLine
 62
250
  6
CONTINUOUS
 10
-12.918024044
 20
-22.4579243413
 11
-12.9144772025
 21
-22.4531261864
  0
LINE
  5
443
100
AcDbEntity
  8
RACCORDO
100
AcDbLine
 62
250
  6
CONTINUOUS
 10
-12.8878124533
 20
-22.4170457239
 11
-12.8816134502
 21
-22.4086662893
  0
LINE
  5
444
100
AcDbEntity
  8
RACCORDO
100
AcDbLine
 62
250
  6
CONTINUOUS
 10
-12.8816134502
 20
-22.4086662893
 11
-12.8755747797
 21
-22.4005123402
  0
LINE
  5
445
100
AcDbEntity
  8
RACCORDO
100
AcDbLine
 62
250
  6
CONTINUOUS
 10
-12.8755747797
 20
-22.4005123402
 11
-12.8570648186
 21
-22.3755861899
  0
LWPOLYLINE
  5
446
100
AcDbEntity
  8
RACCORDO
100
AcDbPolyline
 62
250
  6
CONTINUOUS
 90
3
 70
0
 10
-12.9492492333
 20
-22.5
 10
-12.9483258213
 20
-22.4987630637
 10
-12.918024044
 20
-22.4579243413
  0
LINE
  5
447
100
AcDbEntity
  8
RACCORDO
100
AcDbLine
 62
250
  6
CONTINUOUS
 10
-12.8570648186
 20
-22.3755861899
 11
-12.8413923968
 21
-22.354584209
  0
LINE
  5
448
100
AcDbEntity
  8
RACCORDO
100
AcDbLine
 62
250
  6
CONTINUOUS
 10
-12.8413923968
 20
-22.354584209
 11
-12.8269934032
 21
-22.3353927361
  0
LINE
  5
449
100
AcDbEntity
  8
RACCORDO
100
AcDbLine
 62
250
  6
CONTINUOUS
 10
-12.8269934032
 20
-22.3353927361
 11
-12.8138153026
 21
-22.3179358482
  0
LINE
  5
44A
100
AcDbEntity
  8
RACCORDO
100
AcDbLine
 62
250
  6
CONTINUOUS
 10
-12.8138153026
 20
-22.3179358482
 11
-12.8027793526
 21
-22.3034182313
  0
LINE
  5
44B
100
AcDbEntity
  8
RACCORDO
100
AcDbLine
 62
250
  6
CONTINUOUS
 10
-12.8027793526
 20
-22.3034182313
 11
-12.7999403607
 21
-22.2997024928
  0
LINE
  5
44C
100
AcDbEntity
  8
RACCORDO
100
AcDbLine
 62
250
  6
CONTINUOUS
 10
-12.8017741608
 20
22.3007621921
 11
-12.8115985521
 21
22.3136700844
  0
LINE
  5
44D
100
AcDbEntity
  8
RACCORDO
100
AcDbLine
 62
250
  6
CONTINUOUS
 10
-12.8115985521
 20
22.3136700844
 11
-12.8233644028
 21
22.329258599
  0
LINE
  5
44E
100
AcDbEntity
  8
RACCORDO
100
AcDbLine
 62
250
  6
CONTINUOUS
 10
-12.8233644028
 20
22.329258599
 11
-12.836165762
 21
22.3463439577
  0
LINE
  5
44F
100
AcDbEntity
  8
RACCORDO
100
AcDbLine
 62
250
  6
CONTINUOUS
 10
-12.836165762
 20
22.3463439577
 11
-12.850043975
 21
22.3649837999
  0
LINE
  5
450
100
AcDbEntity
  8
RACCORDO
100
AcDbLine
 62
250
  6
CONTINUOUS
 10
-12.850043975
 20
22.3649837999
 11
-12.8664813109
 21
22.3871864131
  0
LINE
  5
451
100
AcDbEntity
  8
RACCORDO
100
AcDbLine
 62
250
  6
CONTINUOUS
 10
-12.9251601955
 20
22.4669647779
 11
-12.9495730609
 21
22.5
  0
LINE
  5
452
100
AcDbEntity
  8
RACCORDO
100
AcDbLine
 62
250
  6
CONTINUOUS
 10
-12.8664813109
 20
22.3871864131
 11
-12.88751572
 21
22.4157417314
  0
LWPOLYLINE
  5
453
100
AcDbEntity
  8
RACCORDO
100
AcDbPolyline
 62
250
  6
CONTINUOUS
 90
11
 70
0
 10
-12.88751572
 20
22.4157417314
 10
-12.8972114391
 20
22.4289346589
 10
-12.8988665524
 20
22.4311875768
 10
-12.9005330906
 20
22.4334561953
 10
-12.9022110877
 20
22.4357405163
 10
-12.9039008545
 20
22.4380409169
 10
-12.9056023091
 20
22.4403572548
 10
-12.9073155913
 20
22.4426896724
 10
-12.9090413532
 20
22.4450389737
 10
-12.9107796384
 20
22.4474051877
 10
-12.9251601955
 20
22.4669647779
  0
LINE
  5
454
100
AcDbEntity
  8
RACCORDO
100
AcDbLine
 62
250
  6
CONTINUOUS
 10
-17.0
 20
36.4999999536
 11
-16.9127246754
 21
36.3253961061
  0
LINE
  5
455
100
AcDbEntity
  8
RACCORDO
100
AcDbLine
 62
250
  6
CONTINUOUS
 10
-16.5002284225
 20
37.0
 11
-16.4213760438
 21
36.8422471786
  0
LWPOLYLINE
  5
456
100
AcDbEntity
  8
ASSI
100
AcDbPolyline
 62
7
  6
CONTINUOUS
 90
37
 70
0
 10
5.685
 20
-29.0
 10
5.678185809
 20
-28.8535863931
 10
5.6590474814
 20
-28.7104248602
 10
5.6275850173
 20
-28.5705154012
 10
5.5833735439
 20
-28.432847866
 10
5.5268379339
 20
-28.2984324048
 10
5.4592528054
 20
-28.1702994681
 10
5.3803671561
 20
-28.0485917703
 10
5.2904319883
 20
-27.9331665971
 10
5.1914749263
 20
-27.8266262551
 10
5.0832910278
 20
-27.7291725732
 10
4.9660852352
 20
-27.6406037227
 10
4.8425
 20
-27.5629165237
 10
4.7123904062
 20
-27.4963581651
 10
4.5759013698
 20
-27.4406814581
 10
4.436110091
 20
-27.3971416563
 10
4.2929415556
 20
-27.3660144631
 10
4.1464707778
 20
-27.3470241752
 10
4.0
 20
-27.3405989362
 10
3.8535292222
 20
-27.3470241752
 10
3.7070584444
 20
-27.3660144631
 10
3.563889909
 20
-27.3971416563
 10
3.4240986302
 20
-27.4406814581
 10
3.2876095938
 20
-27.4963581651
 10
3.1575
 20
-27.5629165237
 10
3.0339147648
 20
-27.6406037227
 10
2.9167089722
 20
-27.7291725732
 10
2.8085250737
 20
-27.8266262551
 10
2.7095680117
 20
-27.9331665971
 10
2.6196328439
 20
-28.0485917703
 10
2.5407471946
 20
-28.1702994681
 10
2.4731620661
 20
-28.2984324048
 10
2.4166264561
 20
-28.432847866
 10
2.3724149827
 20
-28.5705154012
 10
2.3409525186
 20
-28.7104248602
 10
2.321814191
 20
-28.8535863931
 10
2.315
 20
-29.0
  0
LWPOLYLINE
  5
457
100
AcDbEntity
  8
ASSI
100
AcDbPolyline
 62
7
  6
CONTINUOUS
 90
10
 70
0
 10
5.5204132984
 20
-28.9989799044
 10
5.5149025542
 20
-28.8754504007
 10
5.4977915959
 20
-28.7469427702
 10
5.4694644869
 20
-28.6213034166
 10
5.4296650639
 20
-28.4985552083
 10
5.3786494901
 20
-28.3786752771
 10
5.3175792056
 20
-28.2643486892
 10
5.2468413569
 20
-28.1564704667
 10
5.1660487974
 20
-28.0541455877
 10
5.0752015271
 20
-27.957374052
  0
LWPOLYLINE
  5
458
100
AcDbEntity
  8
ASSI
100
AcDbPolyline
 62
7
  6
CONTINUOUS
 90
36
 70
0
 10
6.0240168961
 20
-29.0000276193
 10
6.0180702942
 20
-28.8518197809
 10
5.9965201295
 20
-28.6775696167
 10
5.9586591151
 20
-28.5059189808
 10
5.9048257034
 20
-28.3368375231
 10
5.8362273448
 20
-28.1742789245
 10
5.7525204147
 20
-28.0183644691
 10
5.6540485378
 20
-27.8689728729
 10
5.5430500377
 20
-27.7296939649
 10
5.4192859441
 20
-27.6007675444
 10
5.2829952274
 20
-27.4819538122
 10
5.1371331229
 20
-27.3761231987
 10
4.9812908778
 20
-27.2834870331
 10
4.8158772448
 20
-27.2038339864
 10
4.6450737168
 20
-27.1394005021
 10
4.4688167204
 20
-27.0906271352
 10
4.2871698289
 20
-27.0570733307
 10
4.1045052551
 20
-27.039653867
 10
3.9207557306
 20
-27.0387610422
 10
3.7359885239
 20
-27.0540025582
 10
3.5547776523
 20
-27.0851162986
 10
3.3770991642
 20
-27.1326010808
 10
3.2029770112
 20
-27.1959580875
 10
3.0370570665
 20
-27.2734287491
 10
2.8797622915
 20
-27.365283114
 10
2.7306697248
 20
-27.4712511339
 10
2.5931563558
 20
-27.5887640954
 10
2.4674033016
 20
-27.7182197557
 10
2.3532294451
 20
-27.8592203576
 10
2.2534684242
 20
-28.0080039157
 10
2.1685881481
 20
-28.1646386986
 10
2.0981207076
 20
-28.3290564378
 10
2.0434960133
 20
-28.4972903419
 10
2.0050628798
 20
-28.6693741103
 10
1.9824724924
 20
-28.8452740437
 10
1.9759895764
 20
-28.9994176851
  0
LINE
  5
459
100
AcDbEntity
  8
0
100
AcDbLine
 62
7
  6
CONTINUOUS
 10
3.435197
 20
-24.0993756751
 11
3.435197
 21
-25.5
  0
LINE
  5
45A
100
AcDbEntity
  8
0
100
AcDbLine
 62
7
  6
CONTINUOUS
 10
3.5
 20
39.930158461
 11
3.5
 21
38.4292441446
  0
LINE
  5
45B
100
AcDbEntity
  8
0
100
AcDbLine
 62
7
  6
CONTINUOUS
 10
3.5
 20
-38.4292441446
 11
3.5
 21
-39.930158461
  0
LINE
  5
45C
100
AcDbEntity
  8
ASSI
100
AcDbLine
 62
7
  6
CONTINUOUS
 10
3.546068
 20
-30.1143592297
 11
3.546068
 21
-30.4260940197
  0
LINE
  5
45D
100
AcDbEntity
  8
ASSI
100
AcDbLine
 62
7
  6
CONTINUOUS
 10
3.556565
 20
-27.5861861743
 11
3.556565
 21
-27.8996356525
  0
LINE
  5
45E
100
AcDbEntity
  8
0
100
AcDbLine
 62
7
  6
CONTINUOUS
 10
3.651329
 20
-25.5
 11
3.651329
 21
-24.0993756751
  0
LINE
  5
45F
100
AcDbEntity
  8
0
100
AcDbLine
 62
7
  6
CONTINUOUS
 10
3.6749773271
 20
40.0
 11
3.6749773271
 21
38.4990856836
  0
LINE
  5
460
100
AcDbEntity
  8
0
100
AcDbLine
 62
7
  6
CONTINUOUS
 10
3.6749773271
 20
-38.4990856836
 11
3.6749773271
 21
-40.0
  0
LINE
  5
461
100
AcDbEntity
  8
ASSI
100
AcDbLine
 62
7
  6
CONTINUOUS
 10
3.830922
 20
-27.864906017
 11
3.830922
 21
-28.6944586485
  0
LINE
  5
462
100
AcDbEntity
  8
ASSI
100
AcDbLine
 62
7
  6
CONTINUOUS
 10
3.830922
 20
-29.0460488637
 11
3.830922
 21
-30.1143592297
  0
LINE
  5
463
100
AcDbEntity
  8
RACCORDO
100
AcDbLine
 62
7
  6
CONTINUOUS
 10
4.0
 20
-36.5428565373
 11
4.0
 21
-38.3
  0
LINE
  5
464
100
AcDbEntity
  8
RACCORDO
100
AcDbLine
 62
7
  6
CONTINUOUS
 10
4.0
 20
36.5428565373
 11
4.0
 21
38.3
  0
LINE
  5
465
100
AcDbEntity
  8
0
100
AcDbLine
 62
7
  6
CONTINUOUS
 10
4.041497
 20
29.3126949279
 11
4.041497
 21
26.5000145477
  0
LINE
  5
466
100
AcDbEntity
  8
ASSI
100
AcDbLine
 62
7
  6
CONTINUOUS
 10
4.1210910737
 20
-30.9594816306
 11
4.1210910737
 21
-30.9247519951
  0
LINE
  5
467
100
AcDbEntity
  8
ASSI
100
AcDbLine
 62
7
  6
CONTINUOUS
 10
4.173343
 20
-30.1143592297
 11
4.173343
 21
-29.042563236
  0
LINE
  5
468
100
AcDbEntity
  8
ASSI
100
AcDbLine
 62
7
  6
CONTINUOUS
 10
4.173343
 20
-28.6944586485
 11
4.173343
 21
-27.864906017
  0
LINE
  5
469
100
AcDbEntity
  8
0
100
AcDbLine
 62
7
  6
CONTINUOUS
 10
4.192858
 20
-24.1341053106
 11
4.192858
 21
-23.9482459034
  0
LINE
  5
46A
100
AcDbEntity
  8
ASSI
100
AcDbLine
 62
7
  6
CONTINUOUS
 10
4.44759
 20
-27.8996356525
 11
4.44759
 21
-27.5861861743
  0
LINE
  5
46B
100
AcDbEntity
  8
ASSI
100
AcDbLine
 62
7
  6
CONTINUOUS
 10
4.458087
 20
-30.4260940197
 11
4.458087
 21
-30.1143592297
  0
LINE
  5
46C
100
AcDbEntity
  8
0
100
AcDbLine
 62
7
  6
CONTINUOUS
 10
4.613529
 20
28.1079023789
 11
4.613529
 21
28.0731727434
  0
LINE
  5
46D
100
AcDbEntity
  8
0
100
AcDbLine
 62
7
  6
CONTINUOUS
 10
4.613529
 20
28.1079023789
 11
4.613522
 21
28.7923510457
  0
LINE
  5
46E
100
AcDbEntity
  8
0
100
AcDbLine
 62
7
  6
CONTINUOUS
 10
4.645231
 20
-25.0483406336
 11
4.645231
 21
-25.013610998
  0
LINE
  5
46F
100
AcDbEntity
  8
ASSI
100
AcDbLine
 62
7
  6
CONTINUOUS
 10
4.744178
 20
-30.2859056451
 11
4.744178
 21
-30.2511760096
  0
LINE
  5
470
100
AcDbEntity
  8
ASSI
100
AcDbLine
 62
7
  6
CONTINUOUS
 10
4.7611136875
 20
-30.8189216621
 11
4.761114
 21
-30.7841919036
  0
LINE
  5
471
100
AcDbEntity
  8
RACCORDO
100
AcDbLine
 62
7
  6
CONTINUOUS
 10
4.8
 20
-36.5428565373
 11
4.8
 21
-37.0
  0
LINE
  5
472
100
AcDbEntity
  8
RACCORDO
100
AcDbLine
 62
7
  6
CONTINUOUS
 10
4.8
 20
36.5428565373
 11
4.8
 21
37.0
  0
LINE
  5
473
100
AcDbEntity
  8
0
100
AcDbLine
 62
7
  6
CONTINUOUS
 10
4.970654
 20
-24.1733258954
 11
4.970654
 21
-24.1385962599
  0
LINE
  5
474
100
AcDbEntity
  8
ASSI
100
AcDbLine
 62
7
  6
CONTINUOUS
 10
5.0333561387
 20
-28.3744073131
 11
5.033356
 21
-28.3396777909
  0
LINE
  5
475
100
AcDbEntity
  8
ASSI
100
AcDbLine
 62
7
  6
CONTINUOUS
 10
5.164033
 20
-31.415844486
 11
5.164033
 21
-31.3811148504
  0
LINE
  5
476
100
AcDbEntity
  8
0
100
AcDbLine
 62
7
  6
CONTINUOUS
 10
5.287056
 20
-25.0483406336
 11
5.287056
 21
-25.013610998
  0
LINE
  5
477
100
AcDbEntity
  8
0
100
AcDbLine
 62
250
  6
CONTINUOUS
 10
5.319208
 20
28.1079023789
 11
5.319208
 21
28.0731727434
  0
LINE
  5
478
100
AcDbEntity
  8
0
100
AcDbLine
 62
250
  6
CONTINUOUS
 10
5.399712
 20
29.3126949279
 11
5.399712
 21
29.2779652923
  0
LINE
  5
479
100
AcDbEntity
  8
0
100
AcDbLine
 62
7
  6
CONTINUOUS
 10
5.7449767907
 20
27.6552026904
 11
5.744978
 21
27.6204707922
  0
LINE
  5
47A
100
AcDbEntity
  8
0
100
AcDbLine
 62
7
  6
CONTINUOUS
 10
5.879787
 20
-23.9482459034
 11
5.879787
 21
-25.5
  0
LINE
  5
47B
100
AcDbEntity
  8
0
100
AcDbLine
 62
7
  6
CONTINUOUS
 10
6.09601
 20
-25.3141405928
 11
6.09601
 21
-23.9482459034
  0
LINE
  5
47C
100
AcDbEntity
  8
0
100
AcDbLine
 62
7
  6
CONTINUOUS
 10
6.117556
 20
-34.375
 11
6.117556
 21
-33.625
  0
LINE
  5
47D
100
AcDbEntity
  8
0
100
AcDbLine
 62
7
  6
CONTINUOUS
 10
4.621526
 20
26.5000145477
 11
4.621591
 21
27.5875584968
  0
LWPOLYLINE
  5
47E
100
AcDbEntity
  8
ASSI
100
AcDbPolyline
 62
7
  6
CONTINUOUS
 90
13
 70
0
 10
5.2181315316
 20
-28.9998290208
 10
5.2151520458
 20
-29.0812445883
 10
5.2026226604
 20
-29.1873833086
 10
5.1805706502
 20
-29.2912098792
 10
5.1487771844
 20
-29.3926714961
 10
5.1074610938
 20
-29.4918209631
 10
5.0575626048
 20
-29.5862755935
 10
4.9987877468
 20
-29.6759598218
 10
4.9314304905
 20
-29.7609492136
 10
4.8573129738
 20
-29.8390877782
 10
4.7770425762
 20
-29.9096568524
 10
4.6900119182
 20
-29.9733750995
 10
4.596221
 20
-30.0302425195
  0
LWPOLYLINE
  5
47F
100
AcDbEntity
  8
ASSI
100
AcDbPolyline
 62
7
  6
CONTINUOUS
 90
7
 70
0
 10
2.7820948461
 20
-28.942081121
 10
2.789404223
 20
-28.8363965772
 10
2.806468255
 20
-28.7306271013
 10
2.8327754027
 20
-28.6277706854
 10
2.8681551528
 20
-28.5288266604
 10
2.9127780186
 20
-28.4327956956
 10
2.966644
 20
-28.3396777909
  0
LINE
  5
480
100
AcDbEntity
  8
0
100
AcDbLine
 62
7
  6
CONTINUOUS
 10
-5.552313
 20
-25.4652703645
 11
-5.385158
 21
-25.013610998
  0
LINE
  5
481
100
AcDbEntity
  8
0
100
AcDbLine
 62
7
  6
CONTINUOUS
 10
-5.552313
 20
-25.5
 11
-5.385158
 21
-25.0483406336
  0
LINE
  5
482
100
AcDbEntity
  8
0
100
AcDbLine
 62
7
  6
CONTINUOUS
 10
-5.318285
 20
-24.8277525606
 11
-5.059709
 21
-24.1385962599
  0
LINE
  5
483
100
AcDbEntity
  8
0
100
AcDbLine
 62
7
  6
CONTINUOUS
 10
-5.318285
 20
-24.8624821962
 11
-5.059709
 21
-24.1733258954
  0
LINE
  5
484
100
AcDbEntity
  8
0
100
AcDbLine
 62
7
  6
CONTINUOUS
 10
-5.173489
 20
-23.9482459034
 11
-5.775136
 21
-25.5
  0
LINE
  5
485
100
AcDbEntity
  8
RACCORDO
100
AcDbLine
 62
250
  6
CONTINUOUS
 10
-12.7999403607
 20
-22.2997024928
 11
-12.7909980288
 21
-22.2880638321
  0
LINE
  5
486
100
AcDbEntity
  8
RACCORDO
100
AcDbLine
 62
250
  6
CONTINUOUS
 10
-12.7909980288
 20
-22.2880638321
 11
-12.784411623
 21
-22.2795721155
  0
LINE
  5
487
100
AcDbEntity
  8
RACCORDO
100
AcDbLine
 62
250
  6
CONTINUOUS
 10
-12.784411623
 20
-22.2795721155
 11
-12.7790513614
 21
-22.272729503
  0
LINE
  5
488
100
AcDbEntity
  8
RACCORDO
100
AcDbLine
 62
250
  6
CONTINUOUS
 10
-12.7790513614
 20
-22.272729503
 11
-12.7747473133
 21
-22.2672923144
  0
LINE
  5
489
100
AcDbEntity
  8
RACCORDO
100
AcDbLine
 62
250
  6
CONTINUOUS
 10
-12.7747473133
 20
-22.2672923144
 11
-12.7713579552
 21
-22.2630551174
  0
LINE
  5
48A
100
AcDbEntity
  8
RACCORDO
100
AcDbLine
 62
250
  6
CONTINUOUS
 10
-12.7713579552
 20
-22.2630551174
 11
-12.7687706891
 21
-22.2598521486
  0
LINE
  5
48B
100
AcDbEntity
  8
RACCORDO
100
AcDbLine
 62
250
  6
CONTINUOUS
 10
-12.7687706891
 20
-22.2598521486
 11
-12.7662900624
 21
-22.2568107744
  0
LINE
  5
48C
100
AcDbEntity
  8
RACCORDO
100
AcDbLine
 62
250
  6
CONTINUOUS
 10
-12.7662900624
 20
-22.2568107744
 11
-12.7639129366
 21
-22.2539274037
  0
LINE
  5
48D
100
AcDbEntity
  8
RACCORDO
100
AcDbLine
 62
250
  6
CONTINUOUS
 10
-12.7639129366
 20
-22.2539274037
 11
-12.7621951597
 21
-22.2518651649
  0
LINE
  5
48E
100
AcDbEntity
  8
RACCORDO
100
AcDbLine
 62
250
  6
CONTINUOUS
 10
-12.7621951597
 20
-22.2518651649
 11
-12.7605316052
 21
-22.2498870026
  0
LINE
  5
48F
100
AcDbEntity
  8
RACCORDO
100
AcDbLine
 62
250
  6
CONTINUOUS
 10
-12.7605316052
 20
-22.2498870026
 11
-12.7589203906
 21
-22.2479906308
  0
LINE
  5
490
100
AcDbEntity
  8
RACCORDO
100
AcDbLine
 62
250
  6
CONTINUOUS
 10
-12.7589203906
 20
-22.2479906308
 11
-12.757359877
 21
-22.2461740187
  0
LINE
  5
491
100
AcDbEntity
  8
RACCORDO
100
AcDbLine
 62
250
  6
CONTINUOUS
 10
-12.757359877
 20
-22.2461740187
 11
-12.7558484333
 21
-22.2444351584
  0
LINE
  5
492
100
AcDbEntity
  8
RACCORDO
100
AcDbLine
 62
250
  6
CONTINUOUS
 10
-12.7558484333
 20
-22.2444351584
 11
-12.7543839538
 21
-22.2427714474
  0
LINE
  5
493
100
AcDbEntity
  8
RACCORDO
100
AcDbLine
 62
250
  6
CONTINUOUS
 10
-12.7543839538
 20
-22.2427714474
 11
-12.7534332287
 21
-22.2417034155
  0
LINE
  5
494
100
AcDbEntity
  8
RACCORDO
100
AcDbLine
 62
250
  6
CONTINUOUS
 10
-12.7534332287
 20
-22.2417034155
 11
-12.7525024464
 21
-22.2406675855
  0
LINE
  5
495
100
AcDbEntity
  8
RACCORDO
100
AcDbLine
 62
250
  6
CONTINUOUS
 10
-12.7525024464
 20
-22.2406675855
 11
-12.7515912527
 21
-22.2396634487
  0
LINE
  5
496
100
AcDbEntity
  8
RACCORDO
100
AcDbLine
 62
250
  6
CONTINUOUS
 10
-12.7515912527
 20
-22.2396634487
 11
-12.7506992591
 21
-22.2386906017
  0
LINE
  5
497
100
AcDbEntity
  8
RACCORDO
100
AcDbLine
 62
250
  6
CONTINUOUS
 10
-12.7506992591
 20
-22.2386906017
 11
-12.7498260428
 21
-22.2377484567
  0
LINE
  5
498
100
AcDbEntity
  8
RACCORDO
100
AcDbLine
 62
250
  6
CONTINUOUS
 10
-12.7498260428
 20
-22.2377484567
 11
-12.7489705227
 21
-22.2368357322
  0
LWPOLYLINE
  5
499
100
AcDbEntity
  8
RACCORDO
100
AcDbPolyline
 62
250
  6
CONTINUOUS
 90
79
 70
0
 10
-12.7316434991
 20
-22.2196918915
 10
-12.7312882008
 20
-22.2193168239
 10
-12.7309339134
 20
-22.2189390889
 10
-12.7305807581
 20
-22.2185586409
 10
-12.7302284859
 20
-22.2181746775
 10
-12.7298772849
 20
-22.2177872542
 10
-12.7295272957
 20
-22.2173963154
 10
-12.7291782364
 20
-22.2170008914
 10
-12.7288303376
 20
-22.2166010667
 10
-12.7284837499
 20
-22.2161967567
 10
-12.7281381222
 20
-22.2157867373
 10
-12.727793701
 20
-22.2153710869
 10
-12.727450691
 20
-22.2149497273
 10
-12.7271087402
 20
-22.2145211995
 10
-12.7267680677
 20
-22.214085511
 10
-12.7264289914
 20
-22.2136426545
 10
-12.7260913693
 20
-22.2131911493
 10
-12.7257539139
 20
-22.2127288038
 10
-12.7254185901
 20
-22.2122578097
 10
-12.7250898914
 20
-22.2117832618
 10
-12.7247679003
 20
-22.2113050946
 10
-12.7244526092
 20
-22.2108233735
 10
-12.7241478346
 20
-22.21034339
 10
-12.7238545745
 20
-22.2098670313
 10
-12.7235713198
 20
-22.2093924102
 10
-12.723297861
 20
-22.2089191569
 10
-12.723033969
 20
-22.2084472104
 10
-12.722779433
 20
-22.2079766316
 10
-12.7225340712
 20
-22.2075072339
 10
-12.7222977186
 20
-22.2070390839
 10
-12.7220701056
 20
-22.2065721149
 10
-12.7218509032
 20
-22.2061059393
 10
-12.7216399194
 20
-22.2056405524
 10
-12.721436946
 20
-22.2051759589
 10
-12.7212416535
 20
-22.2047117856
 10
-12.721053866
 20
-22.2042480351
 10
-12.7208733941
 20
-22.2037847048
 10
-12.7206999144
 20
-22.2033214134
 10
-12.7205332628
 20
-22.2028581544
 10
-12.7203732747
 20
-22.2023949344
 10
-12.7202196545
 20
-22.201931392
 10
-12.7200722531
 20
-22.2014675194
 10
-12.7199309254
 20
-22.2010033244
 10
-12.7197954075
 20
-22.2005384685
 10
-12.7196655654
 20
-22.2000729431
 10
-12.7195412709
 20
-22.1996067567
 10
-12.7194222931
 20
-22.1991395968
 10
-12.7193085121
 20
-22.1986714552
 10
-12.7191998143
 20
-22.19820234
 10
-12.7190959995
 20
-22.1977319633
 10
-12.7189969611
 20
-22.1972603176
 10
-12.7189025975
 20
-22.1967874103
 10
-12.718812737
 20
-22.1963129763
 10
-12.7187272842
 20
-22.1958370086
 10
-12.7186461485
 20
-22.1953595141
 10
-12.7185691829
 20
-22.1948802475
 10
-12.7184963022
 20
-22.1943992029
 10
-12.7184274252
 20
-22.1939163863
 10
-12.7183624264
 20
-22.1934315696
 10
-12.7183012298
 20
-22.1929447481
 10
-12.7182437623
 20
-22.1924559265
 10
-12.718189917
 20
-22.1919648911
 10
-12.7181396256
 20
-22.1914716379
 10
-12.7180928226
 20
-22.1909761709
 10
-12.7180494168
 20
-22.190478288
 10
-12.718009347
 20
-22.189977986
 10
-12.7179725541
 20
-22.1894752683
 10
-12.7179389605
 20
-22.1889699418
 10
-12.7179085113
 20
-22.1884620041
 10
-12.717881153
 20
-22.1879514578
 10
-12.71785682
 20
-22.1874381175
 10
-12.7178354628
 20
-22.1869219807
 10
-12.7178170328
 20
-22.1864030498
 10
-12.7178014747
 20
-22.1858811469
 10
-12.717788744
 20
-22.1853562718
 10
-12.7177787965
 20
-22.1848284246
 10
-12.7177715857
 20
-22.1842974281
 10
-12.7177670712
 20
-22.1837632804
 10
-12.7177651569
 20
-22.1831140741
  0
LINE
  5
49A
100
AcDbEntity
  8
RACCORDO
100
AcDbLine
 62
250
  6
CONTINUOUS
 10
-12.7489705227
 20
-22.2368357322
 11
-12.748132229
 21
-22.2359519103
  0
LWPOLYLINE
  5
49B
100
AcDbEntity
  8
RACCORDO
100
AcDbPolyline
 62
250
  6
CONTINUOUS
 90
3
 70
0
 10
-12.748132229
 20
-22.2359519103
 10
-12.7473109274
 20
-22.23509661
 10
-12.7469065742
 20
-22.2346795293
  0
LINE
  5
49C
100
AcDbEntity
  8
RACCORDO
100
AcDbLine
 62
250
  6
CONTINUOUS
 10
-12.7323568501
 20
-22.220434554
 11
-12.7316434991
 21
-22.2196918915
  0
LINE
  5
49D
100
AcDbEntity
  8
RACCORDO
100
AcDbLine
 62
250
  6
CONTINUOUS
 10
-12.7488847305
 20
22.2360824781
 11
-12.7497319123
 21
22.2369605343
  0
LINE
  5
49E
100
AcDbEntity
  8
RACCORDO
100
AcDbLine
 62
250
  6
CONTINUOUS
 10
-12.7497319123
 20
22.2369605343
 11
-12.7505965963
 21
22.2378677682
  0
LINE
  5
49F
100
AcDbEntity
  8
RACCORDO
100
AcDbLine
 62
250
  6
CONTINUOUS
 10
-12.7505965963
 20
22.2378677682
 11
-12.7514789684
 21
22.2388045112
  0
LINE
  5
4A0
100
AcDbEntity
  8
RACCORDO
100
AcDbLine
 62
250
  6
CONTINUOUS
 10
-12.7514789684
 20
22.2388045112
 11
-12.7523795462
 21
22.2397714594
  0
LINE
  5
4A1
100
AcDbEntity
  8
RACCORDO
100
AcDbLine
 62
250
  6
CONTINUOUS
 10
-12.7523795462
 20
22.2397714594
 11
-12.7532988106
 21
22.2407691351
  0
LINE
  5
4A2
100
AcDbEntity
  8
RACCORDO
100
AcDbLine
 62
250
  6
CONTINUOUS
 10
-12.7532988106
 20
22.2407691351
 11
-12.7542376082
 21
22.2417985768
  0
LINE
  5
4A3
100
AcDbEntity
  8
RACCORDO
100
AcDbLine
 62
250
  6
CONTINUOUS
 10
-12.7542376082
 20
22.2417985768
 11
-12.7551960808
 21
22.2428600706
  0
LINE
  5
4A4
100
AcDbEntity
  8
RACCORDO
100
AcDbLine
 62
250
  6
CONTINUOUS
 10
-12.7551960808
 20
22.2428600706
 11
-12.7561745531
 21
22.2439539629
  0
LINE
  5
4A5
100
AcDbEntity
  8
RACCORDO
100
AcDbLine
 62
250
  6
CONTINUOUS
 10
-12.7561745531
 20
22.2439539629
 11
-12.7576807815
 21
22.2456569671
  0
LINE
  5
4A6
100
AcDbEntity
  8
RACCORDO
100
AcDbLine
 62
250
  6
CONTINUOUS
 10
-12.7576807815
 20
22.2456569671
 11
-12.7592354535
 21
22.2474372422
  0
LINE
  5
4A7
100
AcDbEntity
  8
RACCORDO
100
AcDbLine
 62
250
  6
CONTINUOUS
 10
-12.7592354535
 20
22.2474372422
 11
-12.7608395363
 21
22.2492960838
  0
LINE
  5
4A8
100
AcDbEntity
  8
RACCORDO
100
AcDbLine
 62
250
  6
CONTINUOUS
 10
-12.7608395363
 20
22.2492960838
 11
-12.7624944083
 21
22.2512352695
  0
LINE
  5
4A9
100
AcDbEntity
  8
RACCORDO
100
AcDbLine
 62
250
  6
CONTINUOUS
 10
-12.7624944083
 20
22.2512352695
 11
-12.7642024656
 21
22.2532577362
  0
LINE
  5
4AA
100
AcDbEntity
  8
RACCORDO
100
AcDbLine
 62
250
  6
CONTINUOUS
 10
-12.7642024656
 20
22.2532577362
 11
-12.7659646512
 21
22.2553646964
  0
LINE
  5
4AB
100
AcDbEntity
  8
RACCORDO
100
AcDbLine
 62
250
  6
CONTINUOUS
 10
-12.7659646512
 20
22.2553646964
 11
-12.7684011967
 21
22.2583088856
  0
LINE
  5
4AC
100
AcDbEntity
  8
RACCORDO
100
AcDbLine
 62
250
  6
CONTINUOUS
 10
-12.7684011967
 20
22.2583088856
 11
-12.7709420546
 21
22.2614131541
  0
LINE
  5
4AD
100
AcDbEntity
  8
RACCORDO
100
AcDbLine
 62
250
  6
CONTINUOUS
 10
-12.7709420546
 20
22.2614131541
 11
-12.7735903414
 21
22.2646813534
  0
LINE
  5
4AE
100
AcDbEntity
  8
RACCORDO
100
AcDbLine
 62
250
  6
CONTINUOUS
 10
-12.7735903414
 20
22.2646813534
 11
-12.7770562346
 21
22.2690022684
  0
LINE
  5
4AF
100
AcDbEntity
  8
RACCORDO
100
AcDbLine
 62
250
  6
CONTINUOUS
 10
-12.7770562346
 20
22.2690022684
 11
-12.7807011227
 21
22.2735924033
  0
LINE
  5
4B0
100
AcDbEntity
  8
RACCORDO
100
AcDbLine
 62
250
  6
CONTINUOUS
 10
-12.7807011227
 20
22.2735924033
 11
-12.7853185105
 21
22.2794639918
  0
LINE
  5
4B1
100
AcDbEntity
  8
RACCORDO
100
AcDbLine
 62
250
  6
CONTINUOUS
 10
-12.7853185105
 20
22.2794639918
 11
-12.7910508577
 21
22.2868258765
  0
LINE
  5
4B2
100
AcDbEntity
  8
RACCORDO
100
AcDbLine
 62
250
  6
CONTINUOUS
 10
-12.7910508577
 20
22.2868258765
 11
-12.7980721569
 21
22.2959303214
  0
LINE
  5
4B3
100
AcDbEntity
  8
RACCORDO
100
AcDbLine
 62
250
  6
CONTINUOUS
 10
-12.7980721569
 20
22.2959303214
 11
-12.8017741608
 21
22.3007621921
  0
LINE
  5
4B4
100
AcDbEntity
  8
0
100
AcDbLine
 62
7
  6
CONTINUOUS
 10
-6.0
 20
29.3126881389
 11
-5.068868
 21
26.5
  0
LINE
  5
4B5
100
AcDbEntity
  8
0
100
AcDbLine
 62
7
  6
CONTINUOUS
 10
-4.778839
 20
27.3412753157
 11
-5.419971
 21
29.2779585034
  0
LINE
  5
4B6
100
AcDbEntity
  8
0
100
AcDbLine
 62
7
  6
CONTINUOUS
 10
-4.778839
 20
27.3760049512
 11
-5.419971
 21
29.3126881389
  0
LWPOLYLINE
  5
4B7
100
AcDbEntity
  8
0
100
AcDbPolyline
 62
7
  6
CONTINUOUS
 90
16
 70
0
 10
6.2881836655
 20
28.4544877064
 10
6.2796489482
 20
28.5404064602
 10
6.2621787539
 20
28.6258193572
 10
6.2361817888
 20
28.7084784667
 10
6.2014191909
 20
28.7884369708
 10
6.1581298221
 20
28.8656416873
 10
6.107438974
 20
28.9376851399
 10
6.0490716412
 20
29.0044660077
 10
5.983302829
 20
29.0660856115
 10
5.9120828458
 20
29.1204404379
 10
5.8351160814
 20
29.1672677138
 10
5.7526981458
 20
29.2068302122
 10
5.6676661774
 20
29.2378127387
 10
5.5809658888
 20
29.2597768952
 10
5.4916515674
 20
29.2731610797
 10
5.3997232131
 20
29.2779652923
  0
LWPOLYLINE
  5
4B8
100
AcDbEntity
  8
0
100
AcDbPolyline
 62
7
  6
CONTINUOUS
 90
17
 70
0
 10
6.289100319
 20
28.4499269346
 10
6.2880918296
 20
28.4911222991
 10
6.2792191998
 20
28.5776287168
 10
6.2613024704
 20
28.6636535616
 10
6.234874605
 20
28.7466970273
 10
6.1997041276
 20
28.8266868271
 10
6.1560225141
 20
28.9036952479
 10
6.105057156
 20
28.9754393444
 10
6.0465416454
 20
29.0418263531
 10
5.9807423901
 20
29.1029490374
 10
5.9096860052
 20
29.1568027421
 10
5.8332064719
 20
29.2031108099
 10
5.7514698091
 20
29.2421498979
 10
5.6670006878
 20
29.2727453222
 10
5.5806406652
 20
29.2945055212
 10
5.4915481841
 20
29.3078220565
 10
5.3997232447
 20
29.3126949279
  0
LINE
  5
4B9
100
AcDbEntity
  8
0
100
AcDbLine
 62
7
  6
CONTINUOUS
 10
6.517556
 20
-36.5480371177
 11
6.517556
 21
-35.7972169516
  0
LINE
  5
4BA
100
AcDbEntity
  8
0
100
AcDbLine
 62
7
  6
CONTINUOUS
 10
6.517556
 20
-32.20278
 11
6.517556
 21
-31.4519628823
  0
LINE
  5
4BB
100
AcDbEntity
  8
0
100
AcDbLine
 62
7
  6
CONTINUOUS
 10
6.907203
 20
-25.5
 11
6.907203
 21
-25.3141405928
  0
LINE
  5
4BC
100
AcDbEntity
  8
0
100
AcDbLine
 62
7
  6
CONTINUOUS
 10
7.0
 20
-37.0
 11
7.0
 21
-33.9
  0
LINE
  5
4BD
100
AcDbEntity
  8
0
100
AcDbLine
 62
7
  6
CONTINUOUS
 10
7.0
 20
33.9
 11
7.0
 21
37.0
  0
LINE
  5
4BE
100
AcDbEntity
  8
0
100
AcDbLine
 62
7
  6
CONTINUOUS
 10
7.584599
 20
-24.8406786723
 11
7.584599
 21
-25.5
  0
LINE
  5
4BF
100
AcDbEntity
  8
0
100
AcDbLine
 62
7
  6
CONTINUOUS
 10
7.800693
 20
-25.5
 11
7.800693
 21
-24.8406786723
  0
LWPOLYLINE
  5
4C0
100
AcDbEntity
  8
ASSI
100
AcDbPolyline
 62
7
  6
CONTINUOUS
 90
7
 70
0
 10
2.3231982111
 20
-28.8052263006
 10
2.3459496576
 20
-28.6493905324
 10
2.3832543395
 20
-28.4977630599
 10
2.4357100607
 20
-28.3490547616
 10
2.5027190174
 20
-28.2045547591
 10
2.5824877972
 20
-28.0681304168
 10
2.6753609751
 20
-27.9399998156
  0
LINE
  5
4C1
100
AcDbEntity
  8
RACCORDO
100
AcDbLine
 62
250
  6
CONTINUOUS
 10
-12.7330739805
 20
-22.2211690988
 11
-12.7323568501
 21
-22.220434554
  0
LINE
  5
4C2
100
AcDbEntity
  8
RACCORDO
100
AcDbLine
 62
250
  6
CONTINUOUS
 10
-12.7469065742
 20
-22.2346795293
 11
-12.7461103192
 21
-22.233866377
  0
LINE
  5
4C3
100
AcDbEntity
  8
RACCORDO
100
AcDbLine
 62
250
  6
CONTINUOUS
 10
-12.7337948281
 20
-22.2218971668
 11
-12.7330739805
 21
-22.2211690988
  0
LINE
  5
4C4
100
AcDbEntity
  8
RACCORDO
100
AcDbLine
 62
250
  6
CONTINUOUS
 10
-12.7461103192
 20
-22.233866377
 11
-12.7453304487
 21
-22.2330808445
  0
LINE
  5
4C5
100
AcDbEntity
  8
RACCORDO
100
AcDbLine
 62
250
  6
CONTINUOUS
 10
-12.7345190848
 20
-22.2226197955
 11
-12.7337948281
 21
-22.2218971668
  0
LINE
  5
4C6
100
AcDbEntity
  8
RACCORDO
100
AcDbLine
 62
250
  6
CONTINUOUS
 10
-12.7453304487
 20
-22.2330808445
 11
-12.7445667208
 21
-22.2323226687
  0
LINE
  5
4C7
100
AcDbEntity
  8
RACCORDO
100
AcDbLine
 62
250
  6
CONTINUOUS
 10
-12.7352467586
 20
-22.2233384321
 11
-12.7345190848
 21
-22.2226197955
  0
LINE
  5
4C8
100
AcDbEntity
  8
RACCORDO
100
AcDbLine
 62
250
  6
CONTINUOUS
 10
-12.7445667208
 20
-22.2323226687
 11
-12.7438188664
 21
-22.2315913641
  0
LINE
  5
4C9
100
AcDbEntity
  8
RACCORDO
100
AcDbLine
 62
250
  6
CONTINUOUS
 10
-12.7363444568
 20
-22.224411306
 11
-12.7352467586
 21
-22.2233384321
  0
LINE
  5
4CA
100
AcDbEntity
  8
RACCORDO
100
AcDbLine
 62
250
  6
CONTINUOUS
 10
-12.7378190736
 20
-22.2258373035
 11
-12.7363444568
 21
-22.224411306
  0
LINE
  5
4CB
100
AcDbEntity
  8
RACCORDO
100
AcDbLine
 62
250
  6
CONTINUOUS
 10
-12.7438188664
 20
-22.2315913641
 11
-12.7415566891
 21
-22.2294183558
  0
LWPOLYLINE
  5
4CC
100
AcDbEntity
  8
RACCORDO
100
AcDbPolyline
 62
250
  6
CONTINUOUS
 90
4
 70
0
 10
-12.7415566891
 20
-22.2294183558
 10
-12.7408035492
 20
-22.2286975881
 10
-12.7404280561
 20
-22.2283383845
 10
-12.7378190736
 20
-22.2258373035
  0
LINE
  5
4CD
100
AcDbEntity
  8
RACCORDO
100
AcDbLine
 62
250
  6
CONTINUOUS
 10
-12.7398860116
 20
22.2274487023
 11
-12.7437869851
 21
22.2310624625
  0
LINE
  5
4CE
100
AcDbEntity
  8
RACCORDO
100
AcDbLine
 62
250
  6
CONTINUOUS
 10
-12.7379493254
 20
22.2256410217
 11
-12.7398860116
 21
22.2274487023
  0
LINE
  5
4CF
100
AcDbEntity
  8
RACCORDO
100
AcDbLine
 62
250
  6
CONTINUOUS
 10
-12.7437869851
 20
22.2310624625
 11
-12.7445267112
 21
22.2317595056
  0
LINE
  5
4D0
100
AcDbEntity
  8
RACCORDO
100
AcDbLine
 62
250
  6
CONTINUOUS
 10
-12.7367977863
 20
22.2245544228
 11
-12.7379493254
 21
22.2256410217
  0
LINE
  5
4D1
100
AcDbEntity
  8
RACCORDO
100
AcDbLine
 62
250
  6
CONTINUOUS
 10
-12.7360346358
 20
22.2238273062
 11
-12.7367977863
 21
22.2245544228
  0
LINE
  5
4D2
100
AcDbEntity
  8
RACCORDO
100
AcDbLine
 62
250
  6
CONTINUOUS
 10
-12.7445267112
 20
22.2317595056
 11
-12.7452822142
 21
22.2324832895
  0
LINE
  5
4D3
100
AcDbEntity
  8
RACCORDO
100
AcDbLine
 62
250
  6
CONTINUOUS
 10
-12.7352753649
 20
22.2230970377
 11
-12.7360346358
 21
22.2238273062
  0
LINE
  5
4D4
100
AcDbEntity
  8
RACCORDO
100
AcDbLine
 62
250
  6
CONTINUOUS
 10
-12.7345200444
 20
22.2223624222
 11
-12.7352753649
 21
22.2230970377
  0
LINE
  5
4D5
100
AcDbEntity
  8
RACCORDO
100
AcDbLine
 62
250
  6
CONTINUOUS
 10
-12.7452822142
 20
22.2324832895
 11
-12.7460537948
 21
22.2332343331
  0
LINE
  5
4D6
100
AcDbEntity
  8
RACCORDO
100
AcDbLine
 62
250
  6
CONTINUOUS
 10
-12.7337686942
 20
22.2216220248
 11
-12.7345200444
 21
22.2223624222
  0
LINE
  5
4D7
100
AcDbEntity
  8
RACCORDO
100
AcDbLine
 62
250
  6
CONTINUOUS
 10
-12.7460537948
 20
22.2332343331
 11
-12.7468417113
 21
22.2340129151
  0
LINE
  5
4D8
100
AcDbEntity
  8
RACCORDO
100
AcDbLine
 62
250
  6
CONTINUOUS
 10
-12.7468417113
 20
22.2340129151
 11
-12.7476462349
 21
22.2348194474
  0
LWPOLYLINE
  5
4D9
100
AcDbEntity
  8
RACCORDO
100
AcDbPolyline
 62
250
  6
CONTINUOUS
 90
3
 70
0
 10
-12.7476462349
 20
22.2348194474
 10
-12.7484676302
 20
22.2356543427
 10
-12.7488847305
 20
22.2360824781
  0
LINE
  5
4DA
100
AcDbEntity
  8
0
100
AcDbLine
 62
7
  6
CONTINUOUS
 10
-1.430963
 20
28.3547816065
 11
-0.882587
 21
26.5000067889
  0
LINE
  5
4DB
100
AcDbEntity
  8
0
100
AcDbLine
 62
7
  6
CONTINUOUS
 10
-0.59258
 20
27.4462398422
 11
-1.134148
 21
29.2779585034
  0
LINE
  5
4DC
100
AcDbEntity
  8
0
100
AcDbLine
 62
7
  6
CONTINUOUS
 10
-0.59258
 20
27.4809694777
 11
-1.134148
 21
29.3126881389
  0
LINE
  5
4DD
100
AcDbEntity
  8
0
100
AcDbLine
 62
7
  6
CONTINUOUS
 10
2.891683
 20
27.0531450542
 11
3.074789
 21
26.5000145477
  0
LINE
  5
4DE
100
AcDbEntity
  8
0
100
AcDbLine
 62
7
  6
CONTINUOUS
 10
2.43365
 20
28.4366899766
 11
2.714754
 21
27.5875517079
  0
LINE
  5
4DF
100
AcDbEntity
  8
0
100
AcDbLine
 62
7
  6
CONTINUOUS
 10
3.6444563445
 20
26.496576568
 11
2.723679
 21
29.2779652923
  0
LINE
  5
4E0
100
AcDbEntity
  8
0
100
AcDbLine
 62
7
  6
CONTINUOUS
 10
3.654818
 20
26.5000067889
 11
2.723679
 21
29.3126949279
  0
LWPOLYLINE
  5
4E1
100
AcDbEntity
  8
RACCORDO
100
AcDbPolyline
 62
7
  6
CONTINUOUS
 90
8
 70
0
 10
12.7160248358
 20
22.222636346
 10
12.7164843962
 20
22.2169486433
 10
12.7168786246
 20
22.211175853
 10
12.7172044791
 20
22.2053191488
 10
12.7174588565
 20
22.1993810405
 10
12.7176387262
 20
22.1933632905
 10
12.7177410784
 20
22.1872669489
 10
12.7177651569
 20
22.1825459363
  0
LWPOLYLINE
  5
4E2
100
AcDbEntity
  8
RACCORDO
100
AcDbPolyline
 62
250
  6
CONTINUOUS
 90
47
 70
0
 10
12.7434229779
 20
22.2307240122
 10
12.7430802792
 20
22.2369715314
 10
12.7426609398
 20
22.2432198464
 10
12.742165038
 20
22.2494677975
 10
12.7415926672
 20
22.2557142192
 10
12.7409439339
 20
22.261957958
 10
12.7402189569
 20
22.2681978729
 10
12.739417871
 20
22.2744328058
 10
12.7385408247
 20
22.2806615994
 10
12.7375879782
 20
22.2868831154
 10
12.7365595073
 20
22.2930962002
 10
12.7354556026
 20
22.2992996993
 10
12.7342764656
 20
22.3054924753
 10
12.7330223126
 20
22.3116733849
 10
12.7316933767
 20
22.3178412743
 10
12.7302899044
 20
22.3239949931
 10
12.728812155
 20
22.3301334012
 10
12.7272604023
 20
22.3362553567
 10
12.7256349366
 20
22.3423597112
 10
12.7239360586
 20
22.3484453338
 10
12.7221640836
 20
22.3545110925
 10
12.7203193462
 20
22.3605558422
 10
12.7184021882
 20
22.3665784633
 10
12.7164129664
 20
22.3725778356
 10
12.7143520594
 20
22.3785528197
 10
12.7122198527
 20
22.3845023016
 10
12.7100167416
 20
22.3904251828
 10
12.7077431398
 20
22.3963203547
 10
12.7053994775
 20
22.4021867076
 10
12.7029861848
 20
22.4080231696
 10
12.7005036947
 20
22.4138286963
 10
12.6979524672
 20
22.4196022116
 10
12.6953329766
 20
22.4253426427
 10
12.6926456932
 20
22.4310489578
 10
12.6898911072
 20
22.4367201119
 10
12.6870697358
 20
22.4423550369
 10
12.6841821071
 20
22.4479526758
 10
12.6812287546
 20
22.4535119923
 10
12.6782102276
 20
22.459031951
 10
12.6751270965
 20
22.4645115076
 10
12.6719799338
 20
22.4699496447
 10
12.6687693236
 20
22.4753453531
 10
12.6654958733
 20
22.4806976129
 10
12.6621601929
 20
22.4860054281
 10
12.6587629005
 20
22.491267817
 10
12.6553046337
 20
22.4964837938
 10
12.6529109249
 20
22.5
  0
LWPOLYLINE
  5
4E3
100
AcDbEntity
  8
RACCORDO
100
AcDbPolyline
 62
250
  6
CONTINUOUS
 90
13
 70
0
 10
14.0906466765
 20
-11.9275844491
 10
14.1116407366
 20
-12.4174815394
 10
14.1322037313
 20
-12.9048435103
 10
14.1523356609
 20
-13.3896699255
 10
14.1720485295
 20
-13.8720461151
 10
14.1913303329
 20
-14.3518859322
 10
14.210145058
 20
-14.8289317896
 10
14.2284919096
 20
-15.3031845447
 10
14.246371683
 20
-15.7746427226
 10
14.2637507515
 20
-16.2430453387
 10
14.2806278229
 20
-16.7083891815
 10
14.2970041896
 20
-17.1706770495
 10
14.3
 20
-17.2574513031
  0
LINE
  5
4E4
100
AcDbEntity
  8
RACCORDO
100
AcDbLine
 62
7
  6
CONTINUOUS
 10
14.0565967329
 20
22.4817082201
 11
14.0565085962
 21
22.5
  0
LINE
  5
4E5
100
AcDbEntity
  8
RACCORDO
100
AcDbLine
 62
7
  6
CONTINUOUS
 10
14.0600860213
 20
21.7366306951
 11
14.0565967329
 21
22.4817082201
  0
LINE
  5
4E6
100
AcDbEntity
  8
RACCORDO
100
AcDbLine
 62
7
  6
CONTINUOUS
 10
14.062557363
 20
21.1876397237
 11
14.0600860213
 21
21.7366306951
  0
LWPOLYLINE
  5
4E7
100
AcDbEntity
  8
RACCORDO
100
AcDbPolyline
 62
7
  6
CONTINUOUS
 90
4
 70
0
 10
14.067893165
 20
19.9281146194
 10
14.0665180169
 20
20.2635744277
 10
14.0651629013
 20
20.5856502285
 10
14.062557363
 20
21.1876397237
  0
LINE
  5
4E8
100
AcDbEntity
  8
RACCORDO
100
AcDbLine
 62
7
  6
CONTINUOUS
 10
14.0906431928
 20
11.9274189243
 11
14.0906427781
 21
11.9276831859
  0
LWPOLYLINE
  5
4E9
100
AcDbEntity
  8
RACCORDO
100
AcDbPolyline
 62
7
  6
CONTINUOUS
 90
21
 70
0
 10
14.0906427781
 20
11.9276831859
 10
14.0900405635
 20
12.2970113529
 10
14.0893876963
 20
12.6686015356
 10
14.0886841764
 20
13.0424537338
 10
14.0879297403
 20
13.4188075739
 10
14.0871246516
 20
13.7974234297
 10
14.0862697009
 20
14.1775824222
 10
14.0853650307
 20
14.5591444353
 10
14.0844104986
 20
14.9422495851
 10
14.0834064678
 20
15.3265993411
 10
14.0823546608
 20
15.7116585977
 10
14.0812533551
 20
16.0979624604
 10
14.0800977468
 20
16.486817715
 10
14.0788820992
 20
16.8799338193
 10
14.0776121491
 20
17.2756013155
 10
14.0763003016
 20
17.669998616
 10
14.0749388779
 20
18.0645907664
 10
14.073535557
 20
18.4579127212
 10
14.072125781
 20
18.8417477563
 10
14.0707125349
 20
19.2146559929
 10
14.067893165
 20
19.9281146194
  0
LINE
  5
4EA
100
AcDbEntity
  8
RACCORDO
100
AcDbLine
 62
250
  6
CONTINUOUS
 10
12.7177687227
 20
-22.1840222197
 11
12.7177651569
 21
-22.1831341075
  0
LINE
  5
4EB
100
AcDbEntity
  8
RACCORDO
100
AcDbLine
 62
7
  6
CONTINUOUS
 10
12.7177651569
 20
-22.1831339481
 11
12.7177651569
 21
22.1825457754
  0
LINE
  5
4EC
100
AcDbEntity
  8
0
100
AcDbLine
 62
7
  6
CONTINUOUS
 10
13.0
 20
-37.0
 11
13.0
 21
-33.9
  0
LINE
  5
4ED
100
AcDbEntity
  8
0
100
AcDbLine
 62
7
  6
CONTINUOUS
 10
13.0
 20
33.9
 11
13.0
 21
37.0
  0
LINE
  5
4EE
100
AcDbEntity
  8
RACCORDO
100
AcDbLine
 62
250
  6
CONTINUOUS
 10
13.2177650355
 20
22.5
 11
13.2177651539
 21
-22.5
  0
LINE
  5
4EF
100
AcDbEntity
  8
RACCORDO
100
AcDbLine
 62
250
  6
CONTINUOUS
 10
13.4263681554
 20
-22.5
 11
13.4263681554
 21
22.5
  0
LINE
  5
4F0
100
AcDbEntity
  8
RACCORDO
100
AcDbLine
 62
250
  6
CONTINUOUS
 10
13.9256829227
 20
-22.5
 11
13.9256829227
 21
22.5
  0
LINE
  5
4F1
100
AcDbEntity
  8
0
100
AcDbLine
 62
7
  6
CONTINUOUS
 10
14.3
 20
-22.5
 11
14.3
 21
22.5
  0
LINE
  5
4F2
100
AcDbEntity
  8
0
100
AcDbLine
 62
7
  6
CONTINUOUS
 10
15.25
 20
-36.8428565373
 11
15.25
 21
36.8428565373
  0
LWPOLYLINE
  5
4F3
100
AcDbEntity
  8
RACCORDO
100
AcDbPolyline
 62
7
  6
CONTINUOUS
 90
20
 70
0
 10
14.0906427761
 20
-11.9276844683
 10
14.0900438575
 20
-12.2949780427
 10
14.0893954375
 20
-12.6642771429
 10
14.0886975161
 20
-13.0355817689
 10
14.0879501067
 20
-13.4089945182
 10
14.0871531958
 20
-13.7844127934
 10
14.0863067434
 20
-14.161528802
 10
14.0854107283
 20
-14.5403217119
 10
14.0844651717
 20
-14.9208123552
 10
14.0834700979
 20
-15.3027554357
 10
14.0824255132
 20
-15.686129542
 10
14.0813314112
 20
-16.0709560854
 10
14.0801877973
 20
-16.4570540036
 10
14.0789904609
 20
-16.8455430801
 10
14.0777436126
 20
-17.2353035313
 10
14.0764598895
 20
-17.622794944
 10
14.0751250443
 20
-18.0111731871
 10
14.0737533242
 20
-18.3972823917
 10
14.0724001087
 20
-18.7681145379
 10
14.071081064
 20
-19.1188958557
  0
LINE
  5
4F4
100
AcDbEntity
  8
RACCORDO
100
AcDbLine
 62
7
  6
CONTINUOUS
 10
14.071081064
 20
-19.1188958557
 11
14.0685068689
 21
-19.775940606
  0
LINE
  5
4F5
100
AcDbEntity
  8
RACCORDO
100
AcDbLine
 62
7
  6
CONTINUOUS
 10
14.0685068689
 20
-19.775940606
 11
14.0660455902
 21
-20.3764197796
  0
LINE
  5
4F6
100
AcDbEntity
  8
RACCORDO
100
AcDbLine
 62
7
  6
CONTINUOUS
 10
14.0660455902
 20
-20.3764197796
 11
14.0636931314
 21
-20.9283615079
  0
LINE
  5
4F7
100
AcDbEntity
  8
RACCORDO
100
AcDbLine
 62
7
  6
CONTINUOUS
 10
14.0636931314
 20
-20.9283615079
 11
14.0614491486
 21
-21.4359823791
  0
LWPOLYLINE
  5
4F8
100
AcDbEntity
  8
RACCORDO
100
AcDbPolyline
 62
7
  6
CONTINUOUS
 90
3
 70
0
 10
14.0614491486
 20
-21.4359823791
 10
14.0593116715
 20
-21.9048726232
 10
14.0582815744
 20
-22.1261473773
  0
LINE
  5
4F9
100
AcDbEntity
  8
RACCORDO
100
AcDbLine
 62
7
  6
CONTINUOUS
 10
14.0582815744
 20
-22.1261473773
 11
14.0565080598
 21
-22.5
  0
LWPOLYLINE
  5
4FA
100
AcDbEntity
  8
RACCORDO
100
AcDbPolyline
 62
7
  6
CONTINUOUS
 90
8
 70
0
 10
12.7177651569
 20
-22.183134103
 10
12.7177418762
 20
-22.1877693797
 10
12.717642385
 20
-22.1937780047
 10
12.7174673618
 20
-22.1997092171
 10
12.7172197362
 20
-22.2055620044
 10
12.7169024574
 20
-22.2113346654
 10
12.716518543
 20
-22.2170247758
 10
12.7160709516
 20
-22.2226312018
  0
LWPOLYLINE
  5
4FB
100
AcDbEntity
  8
RACCORDO
100
AcDbPolyline
 62
250
  6
CONTINUOUS
 90
79
 70
0
 10
12.7177651569
 20
22.1825459406
 10
12.7177689065
 20
22.1834503005
 10
12.7177749085
 20
22.183996532
 10
12.7177837773
 20
22.184539552
 10
12.7177955563
 20
22.1850793623
 10
12.7178102958
 20
22.1856161446
 10
12.7178280433
 20
22.1861498981
 10
12.7178488464
 20
22.1866806236
 10
12.7178727652
 20
22.1872085057
 10
12.7178998517
 20
22.1877335422
 10
12.717930159
 20
22.1882557353
 10
12.7179637578
 20
22.1887752765
 10
12.7180007058
 20
22.1892921637
 10
12.7180410618
 20
22.189806399
 10
12.7180849091
 20
22.1903181811
 10
12.7181323114
 20
22.1908275069
 10
12.7181833341
 20
22.1913343796
 10
12.7182380751
 20
22.1918390076
 10
12.7182966049
 20
22.1923413869
 10
12.7183589963
 20
22.1928415215
 10
12.7184253642
 20
22.1933396318
 10
12.7184957865
 20
22.1938357131
 10
12.7185703447
 20
22.1943297702
 10
12.7186491729
 20
22.1948220377
 10
12.7187323579
 20
22.1953125099
 10
12.7188199906
 20
22.1958011926
 10
12.7189122275
 20
22.1962883378
 10
12.7190091654
 20
22.1967739387
 10
12.7191109058
 20
22.1972580021
 10
12.7192176308
 20
22.1977407997
 10
12.7193294486
 20
22.1982223243
 10
12.7194464726
 20
22.1987025832
 10
12.7195689132
 20
22.1991818702
 10
12.7196968917
 20
22.1996601774
 10
12.7198305348
 20
22.2001375126
 10
12.7199700835
 20
22.2006141928
 10
12.7201156743
 20
22.2010902102
 10
12.7202674479
 20
22.2015655726
 10
12.7204256768
 20
22.20204062
 10
12.720590515
 20
22.2025153461
 10
12.7207621178
 20
22.2029897573
 10
12.7209407862
 20
22.2034642125
 10
12.721126694
 20
22.2039387079
 10
12.7213200108
 20
22.2044132473
 10
12.7215210575
 20
22.2048882016
 10
12.7217300319
 20
22.2053635737
 10
12.7219471147
 20
22.2058393607
 10
12.7221726255
 20
22.2063159252
 10
12.7224067911
 20
22.2067932841
 10
12.7226497958
 20
22.2072714205
 10
12.7229019144
 20
22.2077506466
 10
12.7231633691
 20
22.2082309374
 10
12.7234343709
 20
22.2087123178
 10
12.7237151893
 20
22.2091951744
 10
12.7240064235
 20
22.2096800563
 10
12.7243079453
 20
22.2101664145
 10
12.7246188641
 20
22.2106529881
 10
12.7249405078
 20
22.2111414069
 10
12.7252719124
 20
22.2116300411
 10
12.7256083593
 20
22.2121127412
 10
12.725948829
 20
22.2125882295
 10
12.7262939891
 20
22.2130577837
 10
12.7266411888
 20
22.2135190866
 10
12.7269890967
 20
22.2139708462
 10
12.72733841
 20
22.2144143546
 10
12.72768941
 20
22.2148511713
 10
12.7280418357
 20
22.2152813514
 10
12.7283954399
 20
22.2157048398
 10
12.7287505907
 20
22.2161230307
 10
12.729107115
 20
22.2165360189
 10
12.729464759
 20
22.2169437096
 10
12.7298238271
 20
22.2173472136
 10
12.7301841651
 20
22.2177465983
 10
12.7305455613
 20
22.2181417962
 10
12.7309082786
 20
22.2185337157
 10
12.7312721816
 20
22.2189224083
 10
12.7316370885
 20
22.2193078225
 10
12.7320032289
 20
22.2196907109
 10
12.732370483
 20
22.2200711144
  0
LWPOLYLINE
  5
4FC
100
AcDbEntity
  8
RACCORDO
100
AcDbPolyline
 62
250
  6
CONTINUOUS
 90
13
 70
0
 10
14.0906486911
 20
11.9276831948
 10
14.1116418366
 20
12.4175359064
 10
14.1322041467
 20
12.9048646276
 10
14.1523356214
 20
13.389668921
 10
14.1720483416
 20
13.8720378233
 10
14.1913302265
 20
14.3518814781
 10
14.2101450334
 20
14.828931174
 10
14.2284918906
 20
15.3031840648
 10
14.2463716698
 20
15.7746423796
 10
14.2637507436
 20
16.2430451227
 10
14.2806278191
 20
16.7083890718
 10
14.2970041893
 20
17.1706770361
 10
14.3
 20
17.2574512998
  0
LWPOLYLINE
  5
4FD
100
AcDbEntity
  8
RACCORDO
100
AcDbPolyline
 62
250
  6
CONTINUOUS
 90
47
 70
0
 10
12.7434508306
 20
-22.2312358343
 10
12.7431143064
 20
-22.237478592
 10
12.7427011725
 20
-22.243722069
 10
12.742211506
 20
-22.2499651077
 10
12.7416453989
 20
-22.2562065449
 10
12.7410029566
 20
-22.2624452294
 10
12.7402842965
 20
-22.268680022
 10
12.7394895521
 20
-22.2749097669
 10
12.7386188706
 20
-22.2811333091
 10
12.7376724108
 20
-22.2873495122
 10
12.7366503473
 20
-22.293557225
 10
12.7355528692
 20
-22.2997552954
 10
12.7343801766
 20
-22.3059425878
 10
12.7331324845
 20
-22.3121179614
 10
12.7318100244
 20
-22.3182802647
 10
12.7304130415
 20
-22.3244283499
 10
12.7289417934
 20
-22.3305610789
 10
12.7273965524
 20
-22.3366773125
 10
12.7257776075
 20
-22.3427759046
 10
12.7240852576
 20
-22.3488557267
 10
12.7223198166
 20
-22.3549156492
 10
12.7204816173
 20
-22.3609545295
 10
12.7185709999
 20
-22.3669712504
 10
12.7165883196
 20
-22.372964694
 10
12.7145339533
 20
-22.3789337237
 10
12.7124082849
 20
-22.3848772278
 10
12.7102117078
 20
-22.3907941102
 10
12.7079446341
 20
-22.3966832649
 10
12.705607492
 20
-22.4025435846
 10
12.7032007103
 20
-22.4083739997
 10
12.7007247202
 20
-22.4141734676
 10
12.6981799802
 20
-22.4199409144
 10
12.6955669627
 20
-22.4256752698
 10
12.6928861365
 20
-22.4313755036
 10
12.6901379904
 20
-22.437040573
 10
12.6873230395
 20
-22.4426694124
 10
12.6844418101
 20
-22.4482609673
 10
12.6814948342
 20
-22.4538142036
 10
12.6784826589
 20
-22.4593280883
 10
12.6754058529
 20
-22.4648015795
 10
12.6722649868
 20
-22.4702336623
 10
12.6690606429
 20
-22.4756233297
 10
12.6657934264
 20
-22.4809695643
 10
12.6624639457
 20
-22.4862713724
 10
12.6590728168
 20
-22.4915277744
 10
12.6556206756
 20
-22.496737787
 10
12.6534011668
 20
-22.5
  0
LWPOLYLINE
  5
4FE
100
AcDbEntity
  8
RACCORDO
100
AcDbPolyline
 62
7
  6
CONTINUOUS
 90
6
 70
0
 10
12.7160709516
 20
-22.2226312018
 10
12.7155626368
 20
-22.2281527635
 10
12.7149966841
 20
-22.2335870339
 10
12.714376117
 20
-22.2389325534
 10
12.7137038373
 20
-22.2441888506
 10
12.7134112881
 20
-22.2463370411
  0
LINE
  5
4FF
100
AcDbEntity
  8
0
100
AcDbLine
 62
7
  6
CONTINUOUS
 10
4.478063
 20
-25.4652703645
 11
4.645231
 21
-25.013610998
  0
LINE
  5
500
100
AcDbEntity
  8
0
100
AcDbLine
 62
7
  6
CONTINUOUS
 10
4.478063
 20
-25.5
 11
4.645231
 21
-25.0483406336
  0
LINE
  5
501
100
AcDbEntity
  8
0
100
AcDbLine
 62
7
  6
CONTINUOUS
 10
4.712091
 20
-24.8277525606
 11
4.970654
 21
-24.1385962599
  0
LINE
  5
502
100
AcDbEntity
  8
0
100
AcDbLine
 62
7
  6
CONTINUOUS
 10
4.712091
 20
-24.8624821962
 11
4.970654
 21
-24.1733258954
  0
LINE
  5
503
100
AcDbEntity
  8
0
100
AcDbLine
 62
7
  6
CONTINUOUS
 10
4.856978
 20
-23.9482459034
 11
4.255253
 21
-25.5
  0
LINE
  5
504
100
AcDbEntity
  8
RACCORDO
100
AcDbLine
 62
7
  6
CONTINUOUS
 10
16.9127246754
 20
36.3253961061
 11
16.9127246754
 21
26.369114285
  0
LINE
  5
505
100
AcDbEntity
  8
DRAFT
100
AcDbLine
 62
7
  6
CONTINUOUS
 10
16.9127246754
 20
25.630885715
 11
16.9127246754
 21
25.1936499936
  0
LINE
  5
506
100
AcDbEntity
  8
DRAFT
100
AcDbLine
 62
7
  6
CONTINUOUS
 10
16.9127246754
 20
-25.1936499936
 11
16.9127246754
 21
-25.630885715
  0
LINE
  5
507
100
AcDbEntity
  8
RACCORDO
100
AcDbLine
 62
7
  6
CONTINUOUS
 10
16.9127246754
 20
-26.369114285
 11
16.9127246754
 21
-36.3253961061
  0
LWPOLYLINE
  5
508
100
AcDbEntity
  8
RACCORDO
100
AcDbPolyline
 62
7
  6
CONTINUOUS
 90
5
 70
0
 10
16.9999265415
 20
-26.0000000001
 10
16.9999836759
 20
-26.3813395483
 10
17.0
 20
-26.5768208415
 10
17.0000054414
 20
-26.7754118579
 10
17.0
 20
-27.1825107981
  0
LINE
  5
509
100
AcDbEntity
  8
RACCORDO
100
AcDbLine
 62
7
  6
CONTINUOUS
 10
17.0000054414
 20
25.2041655943
 11
17.0
 21
24.779517736
  0
LINE
  5
50A
100
AcDbEntity
  8
RACCORDO
100
AcDbLine
 62
7
  6
CONTINUOUS
 10
16.9999265415
 20
-0.0000000001
 11
17.0
 21
-0.5903874409
  0
LINE
  5
50B
100
AcDbEntity
  8
RACCORDO
100
AcDbLine
 62
7
  6
CONTINUOUS
 10
17.0
 20
36.4999999536
 11
17.0
 21
27.1357216245
  0
LINE
  5
50C
100
AcDbEntity
  8
RACCORDO
100
AcDbLine
 62
7
  6
CONTINUOUS
 10
17.0
 20
-27.1825107981
 11
17.0
 21
-36.4999999536
  0
LINE
  5
50D
100
AcDbEntity
  8
RACCORDO
100
AcDbLine
 62
7
  6
CONTINUOUS
 10
17.0
 20
-0.5903874409
 11
17.0000054414
 21
-22.8221582885
  0
LWPOLYLINE
  5
50E
100
AcDbEntity
  8
RACCORDO
100
AcDbPolyline
 62
7
  6
CONTINUOUS
 90
3
 70
0
 10
17.0
 20
24.779517736
 10
17.0000027207
 20
3.9231872449
 10
16.9999265415
 20
-0.0000000005
  0
LWPOLYLINE
  5
50F
100
AcDbEntity
  8
RACCORDO
100
AcDbPolyline
 62
7
  6
CONTINUOUS
 90
5
 70
0
 10
17.0000054414
 20
-22.8221582885
 10
17.0
 20
-23.5869838639
 10
16.9999836759
 20
-24.3718425341
 10
16.9999591897
 20
-25.1761812463
 10
16.9999265415
 20
-26.0000000005
  0
LWPOLYLINE
  5
510
100
AcDbEntity
  8
RACCORDO
100
AcDbPolyline
 62
7
  6
CONTINUOUS
 90
4
 70
0
 10
16.9999265415
 20
25.9999999999
 10
16.9999836759
 20
25.6108203041
 10
17.0
 20
25.4096125591
 10
17.0000054414
 20
25.2041655943
  0
LINE
  5
511
100
AcDbEntity
  8
RACCORDO
100
AcDbLine
 62
250
  6
CONTINUOUS
 10
17.2365887576
 20
-38.0656391715
 11
17.2365887576
 21
-38.3232631188
  0
LINE
  5
512
100
AcDbEntity
  8
RACCORDO
100
AcDbLine
 62
250
  6
CONTINUOUS
 10
17.2365887576
 20
38.0656391715
 11
17.2365887576
 21
38.3232631188
  0
LINE
  5
513
100
AcDbEntity
  8
RACCORDO
100
AcDbLine
 62
250
  6
CONTINUOUS
 10
18.2352182923
 20
37.3238722918
 11
18.2352182923
 21
36.8037485761
  0
LINE
  5
514
100
AcDbEntity
  8
RACCORDO
100
AcDbLine
 62
250
  6
CONTINUOUS
 10
18.2352182923
 20
-36.8037485761
 11
18.2352182923
 21
-37.3238722918
  0
LWPOLYLINE
  5
515
100
AcDbEntity
  8
RACCORDO
100
AcDbPolyline
 62
7
  6
CONTINUOUS
 90
4
 70
0
 10
17.0
 20
27.1357216245
 10
16.9999836759
 20
26.3650351372
 10
16.9999591897
 20
26.1808252262
 10
16.9999265415
 20
25.9999999995
  0
LWPOLYLINE
  5
516
100
AcDbEntity
  8
RACCORDO
100
AcDbPolyline
 62
250
  6
CONTINUOUS
 90
43
 70
0
 10
12.7134104145
 20
-22.2463433437
 10
12.712478404
 20
-22.2527604628
 10
12.7114428777
 20
-22.2592877818
 10
12.7103203715
 20
-22.2658060447
 10
12.7091110844
 20
-22.2723140841
 10
12.7078152282
 20
-22.2788107472
 10
12.706433032
 20
-22.2852948753
 10
12.704964744
 20
-22.2917652953
 10
12.7034106235
 20
-22.2982208593
 10
12.7017709459
 20
-22.3046604176
 10
12.7000460087
 20
-22.3110827989
 10
12.6982361168
 20
-22.3174868669
 10
12.6963415931
 20
-22.3238714784
 10
12.6943627876
 20
-22.3302354563
 10
12.6923000535
 20
-22.3365776702
 10
12.6901537588
 20
-22.3428969933
 10
12.6879243018
 20
-22.3491922605
 10
12.6856120895
 20
-22.3554623343
 10
12.683217529
 20
-22.3617061215
 10
12.6807410419
 20
-22.3679225307
 10
12.6781830807
 20
-22.3741104347
 10
12.6755440931
 20
-22.3802687586
 10
12.6728245114
 20
-22.3863964954
 10
12.6700248104
 20
-22.3924925724
 10
12.6671454935
 20
-22.3985558895
 10
12.6641870532
 20
-22.4045854061
 10
12.6611500003
 20
-22.4105800734
 10
12.6580348837
 20
-22.4165388012
 10
12.6548422734
 20
-22.4224604954
 10
12.6515727348
 20
-22.4283441046
 10
12.6482268487
 20
-22.4341885814
 10
12.6448052314
 20
-22.4399928486
 10
12.6413084917
 20
-22.4457558747
 10
12.6377372512
 20
-22.4514766363
 10
12.6340921684
 20
-22.4571540812
 10
12.6303739019
 20
-22.4627871882
 10
12.6265831056
 20
-22.4683749711
 10
12.622720452
 20
-22.4739164426
 10
12.6187866455
 20
-22.4794105964
 10
12.6147823709
 20
-22.4848564805
 10
12.6107082871
 20
-22.4902531992
 10
12.6065651098
 20
-22.4955998018
 10
12.6030656352
 20
-22.5
  0
LWPOLYLINE
  5
517
100
AcDbEntity
  8
RACCORDO
100
AcDbPolyline
 62
250
  6
CONTINUOUS
 90
44
 70
0
 10
12.7159390508
 20
-22.2240639722
 10
12.715061277
 20
-22.228801409
 10
12.713631674
 20
-22.2359908118
 10
12.7121073685
 20
-22.2431650977
 10
12.7104886292
 20
-22.2503229918
 10
12.708775736
 20
-22.25746325
 10
12.7069689863
 20
-22.2645846259
 10
12.7050687021
 20
-22.2716858465
 10
12.7030752124
 20
-22.2787656814
 10
12.7009888658
 20
-22.2858228913
 10
12.6988100415
 20
-22.2928561961
 10
12.6965391207
 20
-22.2998643722
 10
12.6941765009
 20
-22.306846199
 10
12.6917226138
 20
-22.3138004094
 10
12.6891778989
 20
-22.3207257717
 10
12.6865427956
 20
-22.3276211032
 10
12.6838177605
 20
-22.3344852188
 10
12.6810032847
 20
-22.3413168934
 10
12.6780998489
 20
-22.3481149699
 10
12.6751079142
 20
-22.3548783723
 10
12.6720279919
 20
-22.361605941
 10
12.6688606253
 20
-22.3682964855
 10
12.6656063401
 20
-22.3749488905
 10
12.6622656841
 20
-22.3815620271
 10
12.6588392512
 20
-22.3881347113
 10
12.6553276579
 20
-22.3946657555
 10
12.651731513
 20
-22.4011540239
 10
12.6480514429
 20
-22.4075983838
 10
12.6442881155
 20
-22.4139976647
 10
12.6404421871
 20
-22.420350752
 10
12.6365143278
 20
-22.4266565402
 10
12.6325052513
 20
-22.4329138871
 10
12.6284156698
 20
-22.4391216865
 10
12.6242462864
 20
-22.445278877
 10
12.6199978235
 20
-22.4513843966
 10
12.6156710424
 20
-22.457437156
 10
12.6112666795
 20
-22.4634361307
 10
12.6067854354
 20
-22.4693803664
 10
12.6022280784
 20
-22.4752688405
 10
12.5975954107
 20
-22.4811005128
 10
12.5928881984
 20
-22.4868744138
 10
12.5881072365
 20
-22.4925895608
 10
12.5832533751
 20
-22.4982449301
 10
12.581708077
 20
-22.5
  0
LINE
  5
518
100
AcDbEntity
  8
RACCORDO
100
AcDbLine
 62
7
  6
CONTINUOUS
 10
12.7159739774
 20
-22.2236845828
 11
12.715544409
 21
-22.2259182549
  0
LINE
  5
519
100
AcDbEntity
  8
RACCORDO
100
AcDbLine
 62
7
  6
CONTINUOUS
 10
12.715544409
 20
-22.2259182549
 11
12.715036128
 21
-22.2284864441
  0
LINE
  5
51A
100
AcDbEntity
  8
RACCORDO
100
AcDbLine
 62
7
  6
CONTINUOUS
 10
12.715036128
 20
-22.2284864441
 11
12.7144887294
 21
-22.231172555
  0
LINE
  5
51B
100
AcDbEntity
  8
RACCORDO
100
AcDbLine
 62
7
  6
CONTINUOUS
 10
12.7144887294
 20
-22.231172555
 11
12.7138995001
 21
-22.2339809156
  0
LINE
  5
51C
100
AcDbEntity
  8
RACCORDO
100
AcDbLine
 62
7
  6
CONTINUOUS
 10
12.7138995001
 20
-22.2339809156
 11
12.7132659247
 21
-22.236914122
  0
LINE
  5
51D
100
AcDbEntity
  8
RACCORDO
100
AcDbLine
 62
7
  6
CONTINUOUS
 10
12.7132659247
 20
-22.236914122
 11
12.7125845672
 21
-22.239978194
  0
LINE
  5
51E
100
AcDbEntity
  8
RACCORDO
100
AcDbLine
 62
7
  6
CONTINUOUS
 10
12.7125845672
 20
-22.239978194
 11
12.7118510063
 21
-22.2431823306
  0
LINE
  5
51F
100
AcDbEntity
  8
RACCORDO
100
AcDbLine
 62
7
  6
CONTINUOUS
 10
12.7118510063
 20
-22.2431823306
 11
12.711061254
 21
-22.2465324567
  0
LINE
  5
520
100
AcDbEntity
  8
RACCORDO
100
AcDbLine
 62
7
  6
CONTINUOUS
 10
12.711061254
 20
-22.2465324567
 11
12.7102098612
 21
-22.2500392808
  0
LINE
  5
521
100
AcDbEntity
  8
RACCORDO
100
AcDbLine
 62
7
  6
CONTINUOUS
 10
12.7102098612
 20
-22.2500392808
 11
12.7092903653
 21
-22.253715756
  0
LINE
  5
522
100
AcDbEntity
  8
RACCORDO
100
AcDbLine
 62
7
  6
CONTINUOUS
 10
12.7092903653
 20
-22.253715756
 11
12.7082969436
 21
-22.2575702883
  0
LINE
  5
523
100
AcDbEntity
  8
RACCORDO
100
AcDbLine
 62
7
  6
CONTINUOUS
 10
12.7082969436
 20
-22.2575702883
 11
12.7072217787
 21
-22.2616170122
  0
LWPOLYLINE
  5
524
100
AcDbEntity
  8
RACCORDO
100
AcDbPolyline
 62
7
  6
CONTINUOUS
 90
3
 70
0
 10
12.7072217787
 20
-22.2616170122
 10
12.7060558066
 20
-22.2658720946
 10
12.7054366971
 20
-22.2680793456
  0
LINE
  5
525
100
AcDbEntity
  8
ASSI
100
AcDbLine
 62
7
  6
CONTINUOUS
 10
3.2558219029
 20
-30.2511761774
 11
3.3887229364
 21
-30.0215290932
  0
LINE
  5
526
100
AcDbEntity
  8
ASSI
100
AcDbLine
 62
7
  6
CONTINUOUS
 10
3.2558219029
 20
-30.2859058129
 11
3.4037790879
 21
-30.0302423677
  0
LINE
  5
527
100
AcDbEntity
  8
DRAFT
100
AcDbLine
 62
7
  6
CONTINUOUS
 10
-15.25
 20
17.8190908859
 11
-16.9057426494
 21
17.8190908859
  0
LINE
  5
528
100
AcDbEntity
  8
0
100
AcDbLine
 62
7
  6
CONTINUOUS
 10
5.127822
 20
27.5875517079
 11
5.709076
 21
26.5000145477
  0
LINE
  5
529
100
AcDbEntity
  8
0
100
AcDbLine
 62
7
  6
CONTINUOUS
 10
6.3479433714
 20
26.4923049269
 11
5.7449767305
 21
27.6204731675
  0
LINE
  5
52A
100
AcDbEntity
  8
0
100
AcDbLine
 62
7
  6
CONTINUOUS
 10
6.362381
 20
26.5000213366
 11
5.7449767907
 21
27.6552026904
  0
LINE
  5
52B
100
AcDbEntity
  8
RACCORDO
100
AcDbLine
 62
7
  6
CONTINUOUS
 10
12.7060165594
 20
22.2641462611
 11
12.7072193252
 21
22.2598059212
  0
LINE
  5
52C
100
AcDbEntity
  8
RACCORDO
100
AcDbLine
 62
7
  6
CONTINUOUS
 10
12.7072193252
 20
22.2598059212
 11
12.7083270357
 21
22.2556832016
  0
LINE
  5
52D
100
AcDbEntity
  8
RACCORDO
100
AcDbLine
 62
7
  6
CONTINUOUS
 10
12.7083270357
 20
22.2556832016
 11
12.7093488542
 21
22.251762889
  0
LINE
  5
52E
100
AcDbEntity
  8
RACCORDO
100
AcDbLine
 62
7
  6
CONTINUOUS
 10
12.7093488542
 20
22.251762889
 11
12.7102953721
 21
22.2480210496
  0
LINE
  5
52F
100
AcDbEntity
  8
RACCORDO
100
AcDbLine
 62
7
  6
CONTINUOUS
 10
12.7102953721
 20
22.2480210496
 11
12.7111732658
 21
22.2444460784
  0
LINE
  5
530
100
AcDbEntity
  8
RACCORDO
100
AcDbLine
 62
7
  6
CONTINUOUS
 10
12.7111732658
 20
22.2444460784
 11
12.711987686
 21
22.2410306923
  0
LINE
  5
531
100
AcDbEntity
  8
RACCORDO
100
AcDbLine
 62
7
  6
CONTINUOUS
 10
12.711987686
 20
22.2410306923
 11
12.7127441327
 21
22.237764521
  0
LWPOLYLINE
  5
532
100
AcDbEntity
  8
RACCORDO
100
AcDbPolyline
 62
250
  6
CONTINUOUS
 90
41
 70
0
 10
12.7126886077
 20
22.2388699364
 10
12.7110543429
 20
22.2460999726
 10
12.7093251051
 20
22.253312002
 10
12.7075011936
 20
22.2605047699
 10
12.7055829326
 20
22.2676769944
 10
12.703570653
 20
22.2748274369
 10
12.7014647055
 20
22.2819548498
 10
12.699265472
 20
22.2890579443
 10
12.6969733357
 20
22.2961354885
 10
12.6945886966
 20
22.3031862538
 10
12.6921119893
 20
22.3102089644
 10
12.6895436558
 20
22.3172023804
 10
12.6868841381
 20
22.3241653117
 10
12.6841338959
 20
22.3310965649
 10
12.6812934232
 20
22.3379949067
 10
12.6783632036
 20
22.344859173
 10
12.6753437006
 20
22.3516882815
 10
12.6722354284
 20
22.3584810653
 10
12.6690389336
 20
22.3652363262
 10
12.6657547447
 20
22.3719529426
 10
12.6623834125
 20
22.3786297787
 10
12.6589255345
 20
22.3852656425
 10
12.655381731
 20
22.3918593386
 10
12.6517526145
 20
22.3984097243
 10
12.6480388148
 20
22.4049156594
 10
12.6442410042
 20
22.4113759659
 10
12.6403598428
 20
22.4177895221
 10
12.6363960046
 20
22.4241552157
 10
12.6323502078
 20
22.4304718968
 10
12.6282231689
 20
22.4367384525
 10
12.6240155951
 20
22.4429538148
 10
12.6197282127
 20
22.4491169157
 10
12.6153617879
 20
22.4552266589
 10
12.6109170609
 20
22.4612820137
 10
12.6063947361
 20
22.467282021
 10
12.601795586
 20
22.4732256522
 10
12.5971204175
 20
22.4791118604
 10
12.5923700015
 20
22.4849396704
 10
12.5875451373
 20
22.4907080935
 10
12.5826466802
 20
22.4964160997
 10
12.5794914525
 20
22.5
  0
LINE
  5
533
100
AcDbEntity
  8
RACCORDO
100
AcDbLine
 62
7
  6
CONTINUOUS
 10
12.7127441327
 20
22.237764521
 11
12.7134473498
 21
22.2346387521
  0
LINE
  5
534
100
AcDbEntity
  8
RACCORDO
100
AcDbLine
 62
7
  6
CONTINUOUS
 10
12.7134473498
 20
22.2346387521
 11
12.7141008605
 21
22.231648644
  0
LINE
  5
535
100
AcDbEntity
  8
RACCORDO
100
AcDbLine
 62
7
  6
CONTINUOUS
 10
12.7141008605
 20
22.231648644
 11
12.7147085338
 21
22.2287867446
  0
LINE
  5
536
100
AcDbEntity
  8
RACCORDO
100
AcDbLine
 62
7
  6
CONTINUOUS
 10
12.7147085338
 20
22.2287867446
 11
12.7152735923
 21
22.2260474396
  0
LINE
  5
537
100
AcDbEntity
  8
RACCORDO
100
AcDbLine
 62
7
  6
CONTINUOUS
 10
12.7152735923
 20
22.2260474396
 11
12.715798334
 21
22.2234287052
  0
LINE
  5
538
100
AcDbEntity
  8
RACCORDO
100
AcDbLine
 62
7
  6
CONTINUOUS
 10
12.715798334
 20
22.2234287052
 11
12.7160750391
 21
22.2220150091
  0
LWPOLYLINE
  5
539
100
AcDbEntity
  8
RACCORDO
100
AcDbPolyline
 62
250
  6
CONTINUOUS
 90
4
 70
0
 10
12.7160513942
 20
22.2223076476
 10
12.7156711036
 20
22.2243608853
 10
12.7142276181
 20
22.2316231461
 10
12.7126886077
 20
22.2388699364
  0
LWPOLYLINE
  5
53A
100
AcDbEntity
  8
RACCORDO
100
AcDbPolyline
 62
250
  6
CONTINUOUS
 90
43
 70
0
 10
12.7133325861
 20
22.2464126121
 10
12.712469849
 20
22.2523321941
 10
12.7114332098
 20
22.2588674326
 10
12.7103095294
 20
22.2653935396
 10
12.7090990065
 20
22.2719093475
 10
12.7078018532
 20
22.2784137036
 10
12.7064182983
 20
22.2849054489
 10
12.7049485902
 20
22.2913834102
 10
12.7033929881
 20
22.2978464394
 10
12.7017517673
 20
22.304293387
 10
12.7000252253
 20
22.3107230814
 10
12.6982136671
 20
22.3171343864
 10
12.6963174153
 20
22.3235261585
 10
12.69433682
 20
22.3298972208
 10
12.6922722342
 20
22.3362464427
 10
12.690124026
 20
22.3425726976
 10
12.6878925935
 20
22.3488748202
 10
12.6855783437
 20
22.3551516731
 10
12.6831816834
 20
22.3614021631
 10
12.6807030343
 20
22.3676251987
 10
12.6781428488
 20
22.3738196529
 10
12.6755015745
 20
22.3799844508
 10
12.6727796436
 20
22.3861185852
 10
12.6699775307
 20
22.3922209833
 10
12.6670957394
 20
22.3982905453
 10
12.6641347619
 20
22.4043262304
 10
12.6610951089
 20
22.4103269898
 10
12.6579773294
 20
22.4162917335
 10
12.654781993
 20
22.4222193673
 10
12.6515096651
 20
22.4281088402
 10
12.6481609264
 20
22.4339591046
 10
12.6447363929
 20
22.4397690837
 10
12.6412366734
 20
22.4455377458
 10
12.6376623892
 20
22.4512640679
 10
12.6340141989
 20
22.4569469976
 10
12.6302927606
 20
22.4625855143
 10
12.6264987282
 20
22.4681786316
 10
12.6226327742
 20
22.4737253623
 10
12.6186956026
 20
22.4792247003
 10
12.6146878983
 20
22.4846756936
 10
12.61061032
 20
22.4900774466
 10
12.6064635834
 20
22.4954290087
 10
12.6028285017
 20
22.5
  0
LWPOLYLINE
  5
53B
100
AcDbEntity
  8
RACCORDO
100
AcDbPolyline
 62
7
  6
CONTINUOUS
 90
6
 70
0
 10
12.7133333679
 20
22.2464070129
 10
12.7135950302
 20
22.2445039318
 10
12.7142850293
 20
22.2391725315
 10
12.714922008
 20
22.2337503039
 10
12.7155029809
 20
22.2282377378
 10
12.7160248358
 20
22.222636346
  0
LWPOLYLINE
  5
53C
100
AcDbEntity
  8
RACCORDO
100
AcDbPolyline
 62
7
  6
CONTINUOUS
 90
19
 70
0
 10
16.9124305797
 20
36.3425517651
 10
16.9076444114
 20
36.3971766629
 10
16.8975077217
 20
36.4491580621
 10
16.8827490111
 20
36.498043617
 10
16.8641966762
 20
36.5433439423
 10
16.8425000341
 20
36.5850440911
 10
16.8179456473
 20
36.6234986057
 10
16.7910048638
 20
36.6586409072
 10
16.7622011433
 20
36.6903896026
 10
16.7316324624
 20
36.7190129881
 10
16.6996124422
 20
36.744523822
 10
16.6665375275
 20
36.7668988137
 10
16.6324877355
 20
36.7862764086
 10
16.5976807198
 20
36.8027060703
 10
16.5624479156
 20
36.8162012714
 10
16.5269811264
 20
36.8268189661
 10
16.4914940101
 20
36.8346317984
 10
16.4562253036
 20
36.8397380152
 10
16.4213760438
 20
36.8422471786
  0
LINE
  5
53D
100
AcDbEntity
  8
RACCORDO
100
AcDbLine
 62
7
  6
CONTINUOUS
 10
18.3
 20
-36.301218346
 11
18.3
 21
36.301218346
  0
LINE
  5
53E
100
AcDbEntity
  8
RACCORDO
100
AcDbLine
 62
7
  6
CONTINUOUS
 10
18.5
 20
37.5003037511
 11
18.5
 21
-37.5003037511
  0
LINE
  5
53F
100
AcDbEntity
  8
RACCORDO
100
AcDbLine
 62
7
  6
CONTINUOUS
 10
20.0
 20
39.3004264211
 11
20.0
 21
-39.3004264211
  0
LWPOLYLINE
  5
540
100
AcDbEntity
  8
RACCORDO
100
AcDbPolyline
 62
250
  6
CONTINUOUS
 90
136
 70
0
 10
18.2352182923
 20
-37.3238722918
 10
18.2351296522
 20
-37.3354869686
 10
18.2349061398
 20
-37.3471000766
 10
18.2345477853
 20
-37.3587100473
 10
18.2340546372
 20
-37.3703153125
 10
18.233426762
 20
-37.3819143046
 10
18.2326642446
 20
-37.393505457
 10
18.231767188
 20
-37.4050872041
 10
18.2307357132
 20
-37.4166579816
 10
18.2295699597
 20
-37.4282162266
 10
18.2282700848
 20
-37.4397603779
 10
18.2268362643
 20
-37.4512888763
 10
18.2252686916
 20
-37.4628001646
 10
18.2235675786
 20
-37.474292688
 10
18.2217331551
 20
-37.4857648943
 10
18.2197656687
 20
-37.4972152338
 10
18.2176653853
 20
-37.50864216
 10
18.2154325886
 20
-37.5200441294
 10
18.21306758
 20
-37.5314196021
 10
18.2105706791
 20
-37.5427670415
 10
18.2079422231
 20
-37.5540849149
 10
18.2051825671
 20
-37.5653716936
 10
18.2022920837
 20
-37.5766258532
 10
18.1992711634
 20
-37.5878458735
 10
18.1961202143
 20
-37.5990302391
 10
18.1928396618
 20
-37.6101774393
 10
18.1894299492
 20
-37.6212859684
 10
18.185891537
 20
-37.6323543261
 10
18.1822249031
 20
-37.6433810173
 10
18.1784305427
 20
-37.6543645527
 10
18.1745089684
 20
-37.6653034487
 10
18.1704607099
 20
-37.6761962278
 10
18.1662863138
 20
-37.6870414188
 10
18.1619863442
 20
-37.6978375568
 10
18.1575613817
 20
-37.7085831835
 10
18.153012024
 20
-37.7192768476
 10
18.1483388857
 20
-37.7299171046
 10
18.1435425979
 20
-37.7405025175
 10
18.1386238084
 20
-37.7510316563
 10
18.1335831817
 20
-37.7615030991
 10
18.1284213985
 20
-37.7719154313
 10
18.1231391561
 20
-37.7822672467
 10
18.1177371679
 20
-37.792557147
 10
18.1122161636
 20
-37.8027837423
 10
18.1065768889
 20
-37.8129456513
 10
18.1008201054
 20
-37.8230415016
 10
18.0949465908
 20
-37.8330699293
 10
18.0889571384
 20
-37.8430295801
 10
18.0828525572
 20
-37.8529191087
 10
18.0766336716
 20
-37.8627371793
 10
18.0703013218
 20
-37.8724824657
 10
18.0638563629
 20
-37.8821536518
 10
18.0572996656
 20
-37.8917494311
 10
18.0506321154
 20
-37.9012685077
 10
18.0438546129
 20
-37.9107095957
 10
18.0369680736
 20
-37.9200714201
 10
18.0299734275
 20
-37.9293527161
 10
18.0228716195
 20
-37.9385522304
 10
18.0156636088
 20
-37.9476687203
 10
18.008350369
 20
-37.9567009543
 10
18.0009328878
 20
-37.9656477127
 10
17.9934121672
 20
-37.9745077868
 10
17.985789223
 20
-37.9832799801
 10
17.9780650847
 20
-37.9919631076
 10
17.9702407958
 20
-38.0005559965
 10
17.9623174129
 20
-38.0090574862
 10
17.9542960064
 20
-38.0174664284
 10
17.9461776596
 20
-38.0257816873
 10
17.9379634692
 20
-38.0340021397
 10
17.9296545445
 20
-38.0421266754
 10
17.9212520078
 20
-38.050154197
 10
17.9127569942
 20
-38.0580836201
 10
17.904170651
 20
-38.0659138738
 10
17.8954941379
 20
-38.0736439005
 10
17.8867286269
 20
-38.0812726559
 10
17.877875302
 20
-38.0887991099
 10
17.8689353589
 20
-38.0962222456
 10
17.8599100052
 20
-38.1035410606
 10
17.8508004599
 20
-38.1107545662
 10
17.8416079534
 20
-38.1178617882
 10
17.8323337274
 20
-38.1248617666
 10
17.8229790345
 20
-38.1317535558
 10
17.8135451383
 20
-38.138536225
 10
17.8040333129
 20
-38.1452088581
 10
17.7944448432
 20
-38.1517705539
 10
17.7847810243
 20
-38.158220426
 10
17.7750431614
 20
-38.1645576032
 10
17.7652325698
 20
-38.1707812296
 10
17.7553505746
 20
-38.1768904646
 10
17.7453985106
 20
-38.182884483
 10
17.7353777221
 20
-38.1887624752
 10
17.7252895624
 20
-38.1945236472
 10
17.7151353942
 20
-38.200167221
 10
17.7049165891
 20
-38.2056924342
 10
17.6946345272
 20
-38.2110985405
 10
17.6842905974
 20
-38.2163848098
 10
17.6738861969
 20
-38.221550528
 10
17.6634227308
 20
-38.2265949974
 10
17.6529016126
 20
-38.2315175366
 10
17.6423242632
 20
-38.2363174808
 10
17.6316921115
 20
-38.2409941816
 10
17.6210065933
 20
-38.2455470074
 10
17.6102691522
 20
-38.2499753432
 10
17.5994812382
 20
-38.2542785909
 10
17.5886443087
 20
-38.2584561692
 10
17.5777598272
 20
-38.2625075139
 10
17.5668292639
 20
-38.2664320778
 10
17.5558540953
 20
-38.2702293307
 10
17.5448358038
 20
-38.2738987599
 10
17.5337758775
 20
-38.2774398696
 10
17.5226758103
 20
-38.2808521815
 10
17.5115371016
 20
-38.2841352348
 10
17.5003612558
 20
-38.287288586
 10
17.4891497824
 20
-38.2903118093
 10
17.4779041957
 20
-38.2932044962
 10
17.4666260148
 20
-38.295966256
 10
17.4553167628
 20
-38.2985967158
 10
17.4439779674
 20
-38.3010955202
 10
17.4326111601
 20
-38.3034623316
 10
17.4212178762
 20
-38.3056968306
 10
17.4097996545
 20
-38.3077987151
 10
17.3983580374
 20
-38.3097677013
 10
17.3868945702
 20
-38.3116035233
 10
17.3754108012
 20
-38.3133059331
 10
17.3639082817
 20
-38.3148747008
 10
17.3523885652
 20
-38.3163096144
 10
17.3408532077
 20
-38.3176104802
 10
17.3293037673
 20
-38.3187771224
 10
17.317741804
 20
-38.3198093835
 10
17.3061688793
 20
-38.3207071241
 10
17.2945865565
 20
-38.3214702228
 10
17.2829964
 20
-38.3220985766
 10
17.2713999752
 20
-38.3225921007
 10
17.2597988485
 20
-38.3229507283
 10
17.2481945868
 20
-38.3231744111
 10
17.2365887576
 20
-38.3232631188
  0
LWPOLYLINE
  5
541
100
AcDbEntity
  8
RACCORDO
100
AcDbPolyline
 62
7
  6
CONTINUOUS
 90
19
 70
0
 10
16.9124305797
 20
-36.3425517651
 10
16.9076444114
 20
-36.3971766629
 10
16.8975077217
 20
-36.4491580621
 10
16.8827490111
 20
-36.498043617
 10
16.8641966762
 20
-36.5433439423
 10
16.8425000341
 20
-36.5850440911
 10
16.8179456473
 20
-36.6234986057
 10
16.7910048638
 20
-36.6586409072
 10
16.7622011433
 20
-36.6903896026
 10
16.7316324624
 20
-36.7190129881
 10
16.6996124422
 20
-36.744523822
 10
16.6665375275
 20
-36.7668988137
 10
16.6324877355
 20
-36.7862764086
 10
16.5976807198
 20
-36.8027060703
 10
16.5624479156
 20
-36.8162012714
 10
16.5269811264
 20
-36.8268189661
 10
16.4914940101
 20
-36.8346317984
 10
16.4562253036
 20
-36.8397380152
 10
16.4213760438
 20
-36.8422471786
  0
LWPOLYLINE
  5
542
100
AcDbEntity
  8
RACCORDO
100
AcDbPolyline
 62
7
  6
CONTINUOUS
 90
61
 70
0
 10
12.7054366971
 20
-22.2680793456
 10
12.7041180347
 20
-22.2726694258
 10
12.7034170587
 20
-22.2750516473
 10
12.7026871249
 20
-22.2774923011
 10
12.7019271951
 20
-22.2799919686
 10
12.7011367871
 20
-22.2825493272
 10
12.7003156482
 20
-22.2851623352
 10
12.6994629445
 20
-22.2878308096
 10
12.6985779864
 20
-22.2905540623
 10
12.6976607962
 20
-22.2933292376
 10
12.6967107949
 20
-22.2961553684
 10
12.6957270721
 20
-22.2990324431
 10
12.6947092009
 20
-22.3019590006
 10
12.6936567124
 20
-22.3049337238
 10
12.6925685763
 20
-22.3079568623
 10
12.6914435058
 20
-22.3110292735
 10
12.6902806913
 20
-22.3141504151
 10
12.6890793393
 20
-22.3173196668
 10
12.6878381277
 20
-22.3205377341
 10
12.6865562616
 20
-22.3238038692
 10
12.6852328437
 20
-22.327117552
 10
12.6838663334
 20
-22.3304797901
 10
12.6824562469
 20
-22.3338889103
 10
12.6810012822
 20
-22.3373452005
 10
12.679498538
 20
-22.3408525485
 10
12.6779471191
 20
-22.3444099254
 10
12.6763458985
 20
-22.3480167991
 10
12.6746914134
 20
-22.3516777039
 10
12.6729824904
 20
-22.3553918237
 10
12.6712180064
 20
-22.3591581868
 10
12.6693943403
 20
-22.362980969
 10
12.6675101071
 20
-22.3668593726
 10
12.6655641196
 20
-22.3707921366
 10
12.6635528322
 20
-22.3747826007
 10
12.6614747812
 20
-22.3788297134
 10
12.6593286072
 20
-22.3829321614
 10
12.6571107165
 20
-22.3870927375
 10
12.6548197319
 20
-22.3913098371
 10
12.6524539745
 20
-22.3955823564
 10
12.6500091769
 20
-22.3999136574
 10
12.6474840115
 20
-22.4043016193
 10
12.6448764777
 20
-22.408745239
 10
12.6421810074
 20
-22.4132493112
 10
12.639395802
 20
-22.4178119498
 10
12.6365189564
 20
-22.4224313747
 10
12.6335443938
 20
-22.4271122296
 10
12.6304701524
 20
-22.4318522791
 10
12.6272941126
 20
-22.4366494558
 10
12.6240095907
 20
-22.4415082899
 10
12.6206144218
 20
-22.4464261927
 10
12.6171063014
 20
-22.4514006958
 10
12.6134779436
 20
-22.456436079
 10
12.6097250485
 20
-22.4615319301
 10
12.6058470086
 20
-22.4666826746
 10
12.6018419137
 20
-22.4718845376
 10
12.5977027708
 20
-22.4771400979
 10
12.5934317321
 20
-22.4824401055
 10
12.5890412717
 20
-22.4877633826
 10
12.5845290347
 20
-22.4931076892
 10
12.5798940335
 20
-22.498469115
 10
12.5785386411
 20
-22.5
  0
LINE
  5
543
100
AcDbEntity
  8
0
100
AcDbLine
 62
7
  6
CONTINUOUS
 10
8.150584
 20
-23.9482459034
 11
7.691611
 21
-24.6939413345
  0
LINE
  5
544
100
AcDbEntity
  8
0
100
AcDbLine
 62
7
  6
CONTINUOUS
 10
7.800693
 20
-24.8406786723
 11
8.3820943656
 21
-23.9482459034
  0
LINE
  5
545
100
AcDbEntity
  8
0
100
AcDbLine
 62
7
  6
CONTINUOUS
 10
7.800693
 20
-24.8754083078
 11
8.40472
 21
-23.9482459034
  0
LWPOLYLINE
  5
546
100
AcDbEntity
  8
ASSI
100
AcDbPolyline
 62
7
  6
CONTINUOUS
 90
19
 70
0
 10
2.6753609751
 20
-27.9399998156
 10
2.7809939762
 20
-27.8199448747
 10
2.8965596633
 20
-27.7111787168
 10
3.0223262654
 20
-27.6140061919
 10
3.1580255534
 20
-27.52812245
 10
3.3000257031
 20
-27.4558260637
 10
3.4484968672
 20
-27.3974839552
 10
3.6032688929
 20
-27.3527292023
 10
3.7601994975
 20
-27.3227596108
 10
3.9193469729
 20
-27.3079744494
 10
4.0806530271
 20
-27.3079744494
 10
4.2398005025
 20
-27.3227596108
 10
4.3967311071
 20
-27.3527292023
 10
4.5515031328
 20
-27.3974839552
 10
4.6999742969
 20
-27.4558260637
 10
4.8419744466
 20
-27.52812245
 10
4.9776737346
 20
-27.6140061919
 10
5.1034403367
 20
-27.7111787168
 10
5.2190060238
 20
-27.8199448747
  0
LINE
  5
547
100
AcDbEntity
  8
RACCORDO
100
AcDbLine
 62
250
  6
CONTINUOUS
 10
-18.2352182923
 20
-37.3238722918
 11
-18.5
 21
-37.5003037511
  0
LINE
  5
548
100
AcDbEntity
  8
RACCORDO
100
AcDbLine
 62
250
  6
CONTINUOUS
 10
-18.5
 20
37.5003037511
 11
-18.2352182923
 21
37.3238722918
  0
LWPOLYLINE
  5
549
100
AcDbEntity
  8
RACCORDO
100
AcDbPolyline
 62
7
  6
CONTINUOUS
 90
3
 70
0
 10
12.7040053482
 20
22.2711209928
 10
12.7053745561
 20
22.2664094045
 10
12.7060165594
 20
22.2641462611
  0
LINE
  5
54A
100
AcDbEntity
  8
ASSI
100
AcDbLine
 62
7
  6
CONTINUOUS
 10
5.164033
 20
-31.3811148504
 11
5.3152426088
 21
-31.1732158684
  0
LINE
  5
54B
100
AcDbEntity
  8
ASSI
100
AcDbLine
 62
7
  6
CONTINUOUS
 10
5.164033
 20
-31.415844486
 11
5.331763
 21
-31.1852315207
  0
LWPOLYLINE
  5
54C
100
AcDbEntity
  8
ASSI
100
AcDbPolyline
 62
7
  6
CONTINUOUS
 90
10
 70
0
 10
2.926751
 20
-27.9554832825
 10
2.8354224713
 20
-28.052412617
 10
2.7542013727
 20
-28.1549933669
 10
2.6830877041
 20
-28.263225532
 10
2.6216761802
 20
-28.3780482128
 10
2.5703720863
 20
-28.4985223088
 10
2.5303912784
 20
-28.6218305195
 10
2.5020293957
 20
-28.7479866666
 10
2.4849907989
 20
-28.8769769283
 10
2.4795876903
 20
-28.9989536953
  0
LINE
  5
54D
100
AcDbEntity
  8
RACCORDO
100
AcDbLine
 62
250
  6
CONTINUOUS
 10
-17.2365887576
 20
-38.3232631188
 11
-17.5004566591
 21
-38.4990856836
  0
LINE
  5
54E
100
AcDbEntity
  8
0
100
AcDbLine
 62
7
  6
CONTINUOUS
 10
-15.25
 20
22.5
 11
15.25
 21
22.5
  0
LINE
  5
54F
100
AcDbEntity
  8
0
100
AcDbLine
 62
7
  6
CONTINUOUS
 10
-15.25
 20
23.0
 11
15.25
 21
23.0
  0
LINE
  5
550
100
AcDbEntity
  8
RACCORDO
100
AcDbLine
 62
250
  6
CONTINUOUS
 10
-17.5004566591
 20
38.4990856836
 11
-17.2365887576
 21
38.3232631188
  0
LWPOLYLINE
  5
551
100
AcDbEntity
  8
RACCORDO
100
AcDbPolyline
 62
250
  6
CONTINUOUS
 90
26
 70
0
 10
13.4644550588
 20
38.3
 10
13.4638771874
 20
38.3021612633
 10
13.4631020619
 20
38.3049508064
 10
13.4623246605
 20
38.3076391186
 10
13.4615452354
 20
38.3102258991
 10
13.4607638031
 20
38.3127108305
 10
13.4599803472
 20
38.3150937169
 10
13.4591950703
 20
38.3173744409
 10
13.4584079733
 20
38.3195527503
 10
13.4576190553
 20
38.3216284097
 10
13.4568285161
 20
38.3236013077
 10
13.4560363258
 20
38.3254712758
 10
13.4552425143
 20
38.3272380139
 10
13.4544473713
 20
38.3289012257
 10
13.4536508793
 20
38.3304607555
 10
13.452853056
 20
38.33191639
 10
13.4520542433
 20
38.3332678149
 10
13.4512544394
 20
38.3345149122
 10
13.4504536463
 20
38.3356575721
 10
13.4496522123
 20
38.3366955812
 10
13.4488501372
 20
38.3376288909
 10
13.4480474213
 20
38.3384574619
 10
13.4472444133
 20
38.3391811866
 10
13.4464412295
 20
38.3398000636
 10
13.4456377537
 20
38.3403141564
 10
13.4448339859
 20
38.3407235084
  0
LINE
  5
552
100
AcDbEntity
  8
ASSI
100
AcDbLine
 62
7
  6
CONTINUOUS
 10
5.0752015271
 20
-27.957374052
 11
4.173343
 21
-28.6944586485
  0
LINE
  5
553
100
AcDbEntity
  8
ASSI
100
AcDbLine
 62
7
  6
CONTINUOUS
 10
4.173343
 20
-29.042563236
 11
5.0333561414
 21
-28.3396776753
  0
LINE
  5
554
100
AcDbEntity
  8
ASSI
100
AcDbLine
 62
7
  6
CONTINUOUS
 10
4.173343
 20
-29.0772928716
 11
5.0333561387
 21
-28.3744073131
  0
LINE
  5
555
100
AcDbEntity
  8
DRAFT
100
AcDbLine
 62
7
  6
CONTINUOUS
 10
15.25
 20
25.1936499936
 11
16.9127246754
 21
25.1936499936
  0
LINE
  5
556
100
AcDbEntity
  8
DRAFT
100
AcDbLine
 62
7
  6
CONTINUOUS
 10
-15.25
 20
25.1936499936
 11
-16.9127246754
 21
25.1936499936
  0
LINE
  5
557
100
AcDbEntity
  8
0
100
AcDbLine
 62
7
  6
CONTINUOUS
 10
5.709076
 20
26.5000145477
 11
6.362381
 21
26.5000213366
  0
LINE
  5
558
100
AcDbEntity
  8
0
100
AcDbLine
 62
7
  6
CONTINUOUS
 10
1.212503
 20
26.5000067889
 11
1.792525
 21
26.5000145477
  0
LINE
  5
559
100
AcDbEntity
  8
0
100
AcDbLine
 62
7
  6
CONTINUOUS
 10
-2.010985
 20
26.5000067889
 11
-1.430963
 21
26.5000067889
  0
LINE
  5
55A
100
AcDbEntity
  8
0
100
AcDbLine
 62
7
  6
CONTINUOUS
 10
0.245803
 20
26.5000067889
 11
0.825824
 21
26.5000067889
  0
LINE
  5
55B
100
AcDbEntity
  8
0
100
AcDbLine
 62
7
  6
CONTINUOUS
 10
4.041497
 20
26.5000145477
 11
4.621526
 21
26.5000145477
  0
LINE
  5
55C
100
AcDbEntity
  8
0
100
AcDbLine
 62
7
  6
CONTINUOUS
 10
-0.882587
 20
26.5000067889
 11
-0.30258
 21
26.5000145477
  0
LINE
  5
55D
100
AcDbEntity
  8
0
100
AcDbLine
 62
7
  6
CONTINUOUS
 10
-3.171014
 20
26.5
 11
-2.590992
 21
26.5000067889
  0
LINE
  5
55E
100
AcDbEntity
  8
0
100
AcDbLine
 62
7
  6
CONTINUOUS
 10
3.074789
 20
26.5000145477
 11
3.654818
 21
26.5000067889
  0
LINE
  5
55F
100
AcDbEntity
  8
0
100
AcDbLine
 62
7
  6
CONTINUOUS
 10
-5.068868
 20
26.5
 11
-4.488824
 21
26.5000067889
  0
LINE
  5
560
100
AcDbEntity
  8
0
100
AcDbLine
 62
7
  6
CONTINUOUS
 10
1.975638
 20
27.0531450542
 11
2.891683
 21
27.0531450542
  0
LWPOLYLINE
  5
561
100
AcDbEntity
  8
RACCORDO
100
AcDbPolyline
 62
7
  6
CONTINUOUS
 90
62
 70
0
 10
12.576540111
 20
22.5
 10
12.5788144949
 20
22.4974345724
 10
12.5827729772
 20
22.4928786199
 10
12.5866454399
 20
22.4883316337
 10
12.5904366802
 20
22.483790732
 10
12.5941475141
 20
22.47925756
 10
12.5977787421
 20
22.4747337744
 10
12.6013349013
 20
22.4702162329
 10
12.6048172507
 20
22.465705701
 10
12.6082259761
 20
22.4612043167
 10
12.6115638219
 20
22.4567107915
 10
12.6148324257
 20
22.4522251558
 10
12.6180315247
 20
22.4477500203
 10
12.6211609898
 20
22.4432879021
 10
12.6242216852
 20
22.4388399514
 10
12.6272142827
 20
22.4344075888
 10
12.6301384562
 20
22.4299937604
 10
12.6329950499
 20
22.4255997172
 10
12.6357849073
 20
22.4212267013
 10
12.6385078016
 20
22.4168776706
 10
12.6411646487
 20
22.4125538271
 10
12.6437563555
 20
22.4082563732
 10
12.6462827788
 20
22.4039882885
 10
12.6487449745
 20
22.3997505898
 10
12.6511438283
 20
22.3955445661
 10
12.6534790461
 20
22.3913736254
 10
12.6557517941
 20
22.3872386443
 10
12.6579629721
 20
22.3831409557
 10
12.6601120142
 20
22.3790846774
 10
12.6622000111
 20
22.3750709126
 10
12.6642280828
 20
22.3711006758
 10
12.6661958451
 20
22.3671779732
 10
12.6681038043
 20
22.363305169
 10
12.6699537977
 20
22.3594819097
 10
12.6717474747
 20
22.3557080983
 10
12.6734851491
 20
22.351986405
 10
12.6751687725
 20
22.3483159798
 10
12.6768022866
 20
22.344691346
 10
12.6783865965
 20
22.3411134503
 10
12.6799227352
 20
22.337582919
 10
12.6814145567
 20
22.3340936759
 10
12.6828629871
 20
22.3306461565
 10
12.6842687261
 20
22.3272413057
 10
12.6856350225
 20
22.3238737223
 10
12.6869634985
 20
22.3205416664
 10
12.6882538696
 20
22.3172481222
 10
12.6895064178
 20
22.3139947418
 10
12.6907222512
 20
22.3107810286
 10
12.6919016323
 20
22.3076086814
 10
12.693043666
 20
22.304482653
 10
12.6941490465
 20
22.3014037155
 10
12.6952185954
 20
22.2983722577
 10
12.6962517489
 20
22.2953926543
 10
12.6972492608
 20
22.2924656119
 10
12.6982119847
 20
22.2895915064
 10
12.6991396224
 20
22.2867741861
 10
12.7000329584
 20
22.2840143117
 10
12.7008928729
 20
22.2813121967
 10
12.7017193074
 20
22.2786711137
 10
12.7025129683
 20
22.2760919613
 10
12.7032748414
 20
22.2735746728
 10
12.7040053482
 20
22.2711209928
  0
LWPOLYLINE
  5
562
100
AcDbEntity
  8
ASSI
100
AcDbPolyline
 62
7
  6
CONTINUOUS
 90
13
 70
0
 10
4.744178
 20
-30.2859056451
 10
4.859368952
 20
-30.2161193026
 10
4.9663320677
 20
-30.1382131763
 10
5.065067347
 20
-30.0521872664
 10
5.1562352357
 20
-29.9572135371
 10
5.2391752881
 20
-29.8541200241
 10
5.3119061673
 20
-29.7453908344
 10
5.3741204543
 20
-29.6309488949
 10
5.4261255682
 20
-29.5108712786
 10
5.4668624289
 20
-29.3878733121
 10
5.4960916256
 20
-29.261848452
 10
5.5140525691
 20
-29.1329032417
 10
5.5204132984
 20
-28.9989799044
  0
LWPOLYLINE
  5
563
100
AcDbEntity
  8
ASSI
100
AcDbPolyline
 62
7
  6
CONTINUOUS
 90
13
 70
0
 10
4.744178
 20
-30.2511760096
 10
4.8591453973
 20
-30.1816158376
 10
4.9659860208
 20
-30.1038261333
 10
5.0646998706
 20
-30.0178068966
 10
5.1560137962
 20
-29.9226371547
 10
5.239200948
 20
-29.8192378804
 10
5.312080777
 20
-29.7103719919
 10
5.3742282964
 20
-29.5960821288
 10
5.4260684929
 20
-29.4763256514
 10
5.4666957773
 20
-29.3537375593
 10
5.4959233808
 20
-29.2282785881
 10
5.5139380721
 20
-29.0999880023
 10
5.5187594848
 20
-28.9989010246
  0
LWPOLYLINE
  5
564
100
AcDbEntity
  8
ASSI
100
AcDbPolyline
 62
7
  6
CONTINUOUS
 90
15
 70
0
 10
4.7611136875
 20
-30.8189216621
 10
4.9294521837
 20
-30.7432826309
 10
5.0875932637
 20
-30.6552476871
 10
5.2355369275
 20
-30.5548168307
 10
5.3742065468
 20
-30.4410567767
 10
5.50267875
 20
-30.3149008102
 10
5.6181834221
 20
-30.1791487857
 10
5.7205487369
 20
-30.0334279223
 10
5.8099465206
 20
-29.878111001
 10
5.8841221363
 20
-29.7171162195
 10
5.9426381459
 20
-29.550348875
 10
5.9859319875
 20
-29.3779036702
 10
6.0130613389
 20
-29.2039829114
 10
6.0236480617
 20
-29.0286391232
 10
6.0240168961
 20
-29.0000276193
  0
LWPOLYLINE
  5
565
100
AcDbEntity
  8
ASSI
100
AcDbPolyline
 62
7
  6
CONTINUOUS
 90
14
 70
0
 10
4.7611137531
 20
-30.784192041
 10
4.9291987955
 20
-30.7087725409
 10
5.0872211665
 20
-30.6208262234
 10
5.2351808662
 20
-30.5203530885
 10
5.3741032924
 20
-30.4063015816
 10
5.5029630472
 20
-30.2797232574
 10
5.6186839369
 20
-30.1437727798
 10
5.72091049
 20
-29.9982567534
 10
5.8099981779
 20
-29.8433685736
 10
5.8839372214
 20
-29.6828430908
 10
5.9423749774
 20
-29.5165891982
 10
5.985664089
 20
-29.3446980026
 10
6.012852706
 20
-29.1711776743
 10
6.0235942154
 20
-28.9960009647
  0
LWPOLYLINE
  5
566
100
AcDbEntity
  8
RACCORDO
100
AcDbPolyline
 62
250
  6
CONTINUOUS
 90
22
 70
0
 10
-14.0099473757
 20
-38.3
 10
-14.014243835
 20
-38.3018495029
 10
-14.0189248473
 20
-38.3037695439
 10
-14.023622521
 20
-38.3056017737
 10
-14.0283359971
 20
-38.3073458573
 10
-14.0330644136
 20
-38.3090014756
 10
-14.037806906
 20
-38.3105683259
 10
-14.0425626069
 20
-38.3120461218
 10
-14.0473306468
 20
-38.3134345929
 10
-14.0521101537
 20
-38.3147334854
 10
-14.0569002536
 20
-38.3159425617
 10
-14.0617000706
 20
-38.3170616008
 10
-14.0665087271
 20
-38.3180903981
 10
-14.0713253436
 20
-38.3190287653
 10
-14.0761490393
 20
-38.319876531
 10
-14.0809789323
 20
-38.32063354
 10
-14.0858141393
 20
-38.321299654
 10
-14.0906537761
 20
-38.3218747511
 10
-14.0954969578
 20
-38.3223587262
 10
-14.1003427986
 20
-38.3227514908
 10
-14.1051904125
 20
-38.323052973
 10
-14.110038913
 20
-38.3232631178
  0
LINE
  5
567
100
AcDbEntity
  8
0
100
AcDbLine
 62
7
  6
CONTINUOUS
 10
2.714754
 20
27.5528220723
 11
2.15256
 21
27.5528220723
  0
LINE
  5
568
100
AcDbEntity
  8
0
100
AcDbLine
 62
7
  6
CONTINUOUS
 10
2.714754
 20
27.5875517079
 11
2.15256
 21
27.5875517079
  0
LINE
  5
569
100
AcDbEntity
  8
0
100
AcDbLine
 62
7
  6
CONTINUOUS
 10
4.621591
 20
27.5875584968
 11
5.127822
 21
27.5875517079
  0
LINE
  5
56A
100
AcDbEntity
  8
0
100
AcDbLine
 62
7
  6
CONTINUOUS
 10
5.3192150547
 20
28.0731727434
 11
4.613529
 21
28.0731727434
  0
LINE
  5
56B
100
AcDbEntity
  8
0
100
AcDbLine
 62
7
  6
CONTINUOUS
 10
5.319214969
 20
28.1079023789
 11
4.613529
 21
28.1079023789
  0
LINE
  5
56C
100
AcDbEntity
  8
0
100
AcDbLine
 62
7
  6
CONTINUOUS
 10
4.613522
 20
28.7923510457
 11
5.3192000009
 21
28.7923510457
  0
LINE
  5
56D
100
AcDbEntity
  8
0
100
AcDbLine
 62
7
  6
CONTINUOUS
 10
0.825824
 20
29.2779585034
 11
-0.051012
 21
29.2779585034
  0
LINE
  5
56E
100
AcDbEntity
  8
0
100
AcDbLine
 62
7
  6
CONTINUOUS
 10
-1.134148
 20
29.2779585034
 11
-2.010985
 21
29.2779585034
  0
LINE
  5
56F
100
AcDbEntity
  8
0
100
AcDbLine
 62
7
  6
CONTINUOUS
 10
-2.590985
 20
29.2779585034
 11
-3.171006
 21
29.2779585034
  0
LINE
  5
570
100
AcDbEntity
  8
0
100
AcDbLine
 62
7
  6
CONTINUOUS
 10
-3.5691822562
 20
29.2779585034
 11
-4.137714
 21
29.2779585034
  0
LINE
  5
571
100
AcDbEntity
  8
0
100
AcDbLine
 62
7
  6
CONTINUOUS
 10
-5.419971
 20
29.2779585034
 11
-5.988502858
 21
29.2779585034
  0
LINE
  5
572
100
AcDbEntity
  8
0
100
AcDbLine
 62
7
  6
CONTINUOUS
 10
5.3997232131
 20
29.2779652923
 11
4.041497
 21
29.2779652923
  0
LINE
  5
573
100
AcDbEntity
  8
0
100
AcDbLine
 62
7
  6
CONTINUOUS
 10
2.723679
 20
29.2779652923
 11
2.143628
 21
29.2779652923
  0
LINE
  5
574
100
AcDbEntity
  8
0
100
AcDbLine
 62
7
  6
CONTINUOUS
 10
0.825824
 20
29.3126881389
 11
-0.051012
 21
29.3126881389
  0
LINE
  5
575
100
AcDbEntity
  8
0
100
AcDbLine
 62
7
  6
CONTINUOUS
 10
-1.134148
 20
29.3126881389
 11
-2.010985
 21
29.3126881389
  0
LINE
  5
576
100
AcDbEntity
  8
0
100
AcDbLine
 62
7
  6
CONTINUOUS
 10
-2.590985
 20
29.3126881389
 11
-3.171006
 21
29.3126881389
  0
LINE
  5
577
100
AcDbEntity
  8
0
100
AcDbLine
 62
7
  6
CONTINUOUS
 10
-3.557685
 20
29.3126881389
 11
-4.137714
 21
29.3126881389
  0
LINE
  5
578
100
AcDbEntity
  8
0
100
AcDbLine
 62
7
  6
CONTINUOUS
 10
-5.419971
 20
29.3126881389
 11
-6.0
 21
29.3126881389
  0
LINE
  5
579
100
AcDbEntity
  8
0
100
AcDbLine
 62
7
  6
CONTINUOUS
 10
5.3997232447
 20
29.3126949279
 11
4.041497
 21
29.3126949279
  0
LINE
  5
57A
100
AcDbEntity
  8
0
100
AcDbLine
 62
7
  6
CONTINUOUS
 10
2.723679
 20
29.3126949279
 11
2.143628
 21
29.3126949279
  0
LINE
  5
57B
100
AcDbEntity
  8
0
100
AcDbLine
 62
7
  6
CONTINUOUS
 10
-5.0
 20
30.1
 11
-4.138611
 21
30.1
  0
LINE
  5
57C
100
AcDbEntity
  8
0
100
AcDbLine
 62
7
  6
CONTINUOUS
 10
-3.137138605
 20
30.1
 11
-1.560073
 21
30.1
  0
LINE
  5
57D
100
AcDbEntity
  8
0
100
AcDbLine
 62
7
  6
CONTINUOUS
 10
-0.6374105327
 20
30.1
 11
0.704299
 21
30.1
  0
LINE
  5
57E
100
AcDbEntity
  8
0
100
AcDbLine
 62
7
  6
CONTINUOUS
 10
1.9266229275
 20
30.1
 11
3.500649
 21
30.1
  0
LWPOLYLINE
  5
57F
100
AcDbEntity
  8
RACCORDO
100
AcDbPolyline
 62
250
  6
CONTINUOUS
 90
22
 70
0
 10
-14.0099473731
 20
38.3
 10
-14.0142438347
 20
38.3018495038
 10
-14.018924847
 20
38.3037695449
 10
-14.0236225208
 20
38.3056017747
 10
-14.0283359969
 20
38.3073458582
 10
-14.0330644134
 20
38.3090014765
 10
-14.0378069058
 20
38.3105683269
 10
-14.0425626067
 20
38.3120461227
 10
-14.0473306466
 20
38.3134345938
 10
-14.0521101535
 20
38.3147334863
 10
-14.0569002534
 20
38.3159425627
 10
-14.0617000705
 20
38.3170616018
 10
-14.0665087269
 20
38.3180903991
 10
-14.0713253434
 20
38.3190287663
 10
-14.0761490392
 20
38.3198765319
 10
-14.0809789323
 20
38.320633541
 10
-14.0858141393
 20
38.321299655
 10
-14.0906537761
 20
38.3218747521
 10
-14.0954969577
 20
38.3223587272
 10
-14.1003427986
 20
38.3227514918
 10
-14.1051904125
 20
38.323052974
 10
-14.110038913
 20
38.3232631188
  0
LINE
  5
580
100
AcDbEntity
  8
0
100
AcDbLine
 62
7
  6
CONTINUOUS
 10
3.7135706242
 20
32.799016
 11
2.4645677517
 21
32.799016
  0
LINE
  5
581
100
AcDbEntity
  8
0
100
AcDbLine
 62
7
  6
CONTINUOUS
 10
1.0540810919
 20
32.799016
 11
-0.0068050075
 21
32.799016
  0
LINE
  5
582
100
AcDbEntity
  8
0
100
AcDbLine
 62
7
  6
CONTINUOUS
 10
-1.68658
 20
32.799016
 11
-2.3695909883
 21
32.799016
  0
LWPOLYLINE
  5
583
100
AcDbEntity
  8
0
100
AcDbPolyline
 62
7
  6
CONTINUOUS
 90
22
 70
0
 10
3.2424240163
 20
32.5211570628
 10
3.2033260852
 20
32.5287997449
 10
3.1639476421
 20
32.5325901939
 10
3.1242886871
 20
32.5325284095
 10
3.0837378939
 20
32.5284385873
 10
3.0429065887
 20
32.5204965319
 10
3.0036287499
 20
32.5092296572
 10
2.9659021151
 20
32.4948235316
 10
2.9297289467
 20
32.4770925867
 10
2.8969500098
 20
32.4560075313
 10
2.8680661635
 20
32.4311977652
 10
2.8425765488
 20
32.4030338887
 10
2.8208193541
 20
32.3725984108
 10
2.8042192122
 20
32.3398070478
 10
2.7913514904
 20
32.3047440835
 10
2.778280479
 20
32.2687448781
 10
2.7652354602
 20
32.2312597416
 10
2.7519871519
 20
32.1928383641
 10
2.7339119976
 20
32.1564651762
 10
2.709468812
 20
32.1231349884
 10
2.6801987803
 20
32.0918529903
 10
2.6461019027
 20
32.062619182
  0
LINE
  5
584
100
AcDbEntity
  8
0
100
AcDbLine
 62
7
  6
CONTINUOUS
 10
-3.5
 20
-38.4292441446
 11
-3.6749773271
 21
-38.4990856836
  0
LINE
  5
585
100
AcDbEntity
  8
0
100
AcDbLine
 62
7
  6
CONTINUOUS
 10
-3.5
 20
-39.930158461
 11
-3.6749773271
 21
-40.0
  0
LINE
  5
586
100
AcDbEntity
  8
0
100
AcDbLine
 62
7
  6
CONTINUOUS
 10
-4.1005323788
 20
33.4743736336
 11
-3.2624668308
 21
33.4743736336
  0
LINE
  5
587
100
AcDbEntity
  8
0
100
AcDbLine
 62
7
  6
CONTINUOUS
 10
-1.5033101965
 20
33.4743736336
 11
-0.6839290413
 21
33.4743736336
  0
LINE
  5
588
100
AcDbEntity
  8
0
100
AcDbLine
 62
7
  6
CONTINUOUS
 10
-15.25
 20
33.4918713663
 11
-4.0959264144
 21
33.4918713663
  0
LINE
  5
589
100
AcDbEntity
  8
0
100
AcDbLine
 62
7
  6
CONTINUOUS
 10
-3.257923613
 20
33.4918713663
 11
-1.4985618886
 21
33.4918713663
  0
LINE
  5
58A
100
AcDbEntity
  8
0
100
AcDbLine
 62
7
  6
CONTINUOUS
 10
-0.6793858181
 20
33.4918713663
 11
15.25
 21
33.4918713663
  0
LINE
  5
58B
100
AcDbEntity
  8
0
100
AcDbLine
 62
7
  6
CONTINUOUS
 10
13.0
 20
33.9
 11
7.0
 21
33.9
  0
LINE
  5
58C
100
AcDbEntity
  8
0
100
AcDbLine
 62
7
  6
CONTINUOUS
 10
-7.0
 20
33.9
 11
-13.0
 21
33.9
  0
LINE
  5
58D
100
AcDbEntity
  8
0
100
AcDbLine
 62
7
  6
CONTINUOUS
 10
13.0
 20
36.0
 11
7.0
 21
36.0
  0
LINE
  5
58E
100
AcDbEntity
  8
0
100
AcDbLine
 62
7
  6
CONTINUOUS
 10
-7.0
 20
36.0
 11
-13.0
 21
36.0
  0
LINE
  5
58F
100
AcDbEntity
  8
0
100
AcDbLine
 62
7
  6
CONTINUOUS
 10
-3.5
 20
38.4292441446
 11
-3.6749773271
 21
38.4990856836
  0
LINE
  5
590
100
AcDbEntity
  8
0
100
AcDbLine
 62
7
  6
CONTINUOUS
 10
-3.5
 20
39.930158461
 11
-3.6749773271
 21
40.0
  0
LINE
  5
591
100
AcDbEntity
  8
RACCORDO
100
AcDbLine
 62
250
  6
CONTINUOUS
 10
-14.110038913
 20
38.3232631188
 11
-14.0725109144
 21
38.3245734902
  0
LINE
  5
592
100
AcDbEntity
  8
RACCORDO
100
AcDbLine
 62
250
  6
CONTINUOUS
 10
-14.0725109144
 20
38.3245734902
 11
-14.0322243992
 21
38.3259047541
  0
LINE
  5
593
100
AcDbEntity
  8
RACCORDO
100
AcDbLine
 62
250
  6
CONTINUOUS
 10
-14.0322243992
 20
38.3259047541
 11
-13.988746279
 21
38.3272653918
  0
LINE
  5
594
100
AcDbEntity
  8
RACCORDO
100
AcDbLine
 62
250
  6
CONTINUOUS
 10
-13.988746279
 20
38.3272653918
 11
-13.9417758429
 21
38.3286586165
  0
LINE
  5
595
100
AcDbEntity
  8
RACCORDO
100
AcDbLine
 62
250
  6
CONTINUOUS
 10
-13.9417758429
 20
38.3286586165
 11
-13.8938667149
 21
38.3300091062
  0
LINE
  5
596
100
AcDbEntity
  8
RACCORDO
100
AcDbLine
 62
250
  6
CONTINUOUS
 10
-13.8938667149
 20
38.3300091062
 11
-13.8360205421
 21
38.3315594828
  0
LINE
  5
597
100
AcDbEntity
  8
RACCORDO
100
AcDbLine
 62
250
  6
CONTINUOUS
 10
-13.8360205421
 20
38.3315594828
 11
-13.7709542146
 21
38.3332156531
  0
LINE
  5
598
100
AcDbEntity
  8
RACCORDO
100
AcDbLine
 62
250
  6
CONTINUOUS
 10
-13.7709542146
 20
38.3332156531
 11
-13.6994749668
 21
38.3349508357
  0
LINE
  5
599
100
AcDbEntity
  8
RACCORDO
100
AcDbLine
 62
250
  6
CONTINUOUS
 10
-13.6994749668
 20
38.3349508357
 11
-13.6217395763
 21
38.3367625717
  0
LINE
  5
59A
100
AcDbEntity
  8
RACCORDO
100
AcDbLine
 62
250
  6
CONTINUOUS
 10
-13.6217395763
 20
38.3367625717
 11
-13.4448346641
 21
38.3407235036
  0
LINE
  5
59B
100
AcDbEntity
  8
RACCORDO
100
AcDbLine
 62
250
  6
CONTINUOUS
 10
-16.9124305797
 20
36.3425517651
 11
-15.25
 21
36.3425517651
  0
LINE
  5
59C
100
AcDbEntity
  8
RACCORDO
100
AcDbLine
 62
250
  6
CONTINUOUS
 10
15.25
 20
36.3425517651
 11
16.9124305797
 21
36.3425517651
  0
LINE
  5
59D
100
AcDbEntity
  8
0
100
AcDbLine
 62
7
  6
CONTINUOUS
 10
4.8
 20
36.5428565373
 11
4.0
 21
36.5428565373
  0
LINE
  5
59E
100
AcDbEntity
  8
0
100
AcDbLine
 62
7
  6
CONTINUOUS
 10
-4.0
 20
36.5428565373
 11
-4.8
 21
36.5428565373
  0
LINE
  5
59F
100
AcDbEntity
  8
RACCORDO
100
AcDbLine
 62
250
  6
CONTINUOUS
 10
-4.8
 20
36.6898893843
 11
-4.0
 21
36.6898893843
  0
LINE
  5
5A0
100
AcDbEntity
  8
RACCORDO
100
AcDbLine
 62
250
  6
CONTINUOUS
 10
4.0
 20
36.6898893843
 11
4.8
 21
36.6898893843
  0
LINE
  5
5A1
100
AcDbEntity
  8
0
100
AcDbLine
 62
7
  6
CONTINUOUS
 10
13.0
 20
36.7
 11
7.0
 21
36.7
  0
LINE
  5
5A2
100
AcDbEntity
  8
0
100
AcDbLine
 62
7
  6
CONTINUOUS
 10
-7.0
 20
36.7
 11
-13.0
 21
36.7
  0
LINE
  5
5A3
100
AcDbEntity
  8
RACCORDO
100
AcDbLine
 62
250
  6
CONTINUOUS
 10
-16.4213760438
 20
36.8422471786
 11
-15.25
 21
36.8422471786
  0
LINE
  5
5A4
100
AcDbEntity
  8
RACCORDO
100
AcDbLine
 62
250
  6
CONTINUOUS
 10
15.25
 20
36.8422471786
 11
16.4213760438
 21
36.8422471786
  0
LINE
  5
5A5
100
AcDbEntity
  8
0
100
AcDbLine
 62
7
  6
CONTINUOUS
 10
-15.25
 20
36.8428565373
 11
-13.0
 21
36.8428565373
  0
LINE
  5
5A6
100
AcDbEntity
  8
0
100
AcDbLine
 62
7
  6
CONTINUOUS
 10
-7.0
 20
36.8428565373
 11
-4.8
 21
36.8428565373
  0
LINE
  5
5A7
100
AcDbEntity
  8
0
100
AcDbLine
 62
7
  6
CONTINUOUS
 10
4.0
 20
36.8428565373
 11
-4.0
 21
36.8428565373
  0
LINE
  5
5A8
100
AcDbEntity
  8
0
100
AcDbLine
 62
7
  6
CONTINUOUS
 10
4.8
 20
36.8428565373
 11
7.0
 21
36.8428565373
  0
LINE
  5
5A9
100
AcDbEntity
  8
0
100
AcDbLine
 62
7
  6
CONTINUOUS
 10
13.0
 20
36.8428565373
 11
15.25
 21
36.8428565373
  0
LINE
  5
5AA
100
AcDbEntity
  8
0
100
AcDbLine
 62
7
  6
CONTINUOUS
 10
-4.0
 20
36.930158461
 11
4.0
 21
36.930158461
  0
LINE
  5
5AB
100
AcDbEntity
  8
RACCORDO
100
AcDbLine
 62
250
  6
CONTINUOUS
 10
-4.8
 20
36.9897066324
 11
-4.0
 21
36.9897066324
  0
LINE
  5
5AC
100
AcDbEntity
  8
RACCORDO
100
AcDbLine
 62
250
  6
CONTINUOUS
 10
4.0
 20
36.9897066324
 11
4.8
 21
36.9897066324
  0
LINE
  5
5AD
100
AcDbEntity
  8
RACCORDO
100
AcDbLine
 62
7
  6
CONTINUOUS
 10
16.5002284225
 20
37.0
 11
13.0
 21
37.0
  0
LINE
  5
5AE
100
AcDbEntity
  8
0
100
AcDbLine
 62
7
  6
CONTINUOUS
 10
7.0
 20
37.0
 11
4.8
 21
37.0
  0
LINE
  5
5AF
100
AcDbEntity
  8
0
100
AcDbLine
 62
7
  6
CONTINUOUS
 10
-4.8
 20
37.0
 11
-7.0
 21
37.0
  0
LINE
  5
5B0
100
AcDbEntity
  8
RACCORDO
100
AcDbLine
 62
7
  6
CONTINUOUS
 10
-13.0
 20
37.0
 11
-16.5002284225
 21
37.0
  0
LINE
  5
5B1
100
AcDbEntity
  8
RACCORDO
100
AcDbLine
 62
250
  6
CONTINUOUS
 10
-18.2352182923
 20
37.3238722918
 11
-18.0175697934
 21
37.3238722918
  0
LINE
  5
5B2
100
AcDbEntity
  8
RACCORDO
100
AcDbLine
 62
250
  6
CONTINUOUS
 10
18.0175697934
 20
37.3238722918
 11
18.2352182923
 21
37.3238722918
  0
LINE
  5
5B3
100
AcDbEntity
  8
0
100
AcDbLine
 62
7
  6
CONTINUOUS
 10
-4.0
 20
38.230158461
 11
4.0
 21
38.230158461
  0
LINE
  5
5B4
100
AcDbEntity
  8
0
100
AcDbLine
 62
7
  6
CONTINUOUS
 10
16.301218346
 20
38.3
 11
4.0
 21
38.3
  0
LINE
  5
5B5
100
AcDbEntity
  8
0
100
AcDbLine
 62
7
  6
CONTINUOUS
 10
-4.0
 20
38.3
 11
-16.301218346
 21
38.3
  0
LINE
  5
5B6
100
AcDbEntity
  8
RACCORDO
100
AcDbLine
 62
250
  6
CONTINUOUS
 10
-17.2365887576
 20
38.3232631188
 11
-14.110038913
 21
38.3232631188
  0
LINE
  5
5B7
100
AcDbEntity
  8
RACCORDO
100
AcDbLine
 62
250
  6
CONTINUOUS
 10
14.110038913
 20
38.3232631188
 11
17.2365887576
 21
38.3232631188
  0
LINE
  5
5B8
100
AcDbEntity
  8
RACCORDO
100
AcDbLine
 62
250
  6
CONTINUOUS
 10
13.4448337712
 20
38.3407235084
 11
-13.4448346641
 21
38.3407235036
  0
LINE
  5
5B9
100
AcDbEntity
  8
0
100
AcDbLine
 62
7
  6
CONTINUOUS
 10
3.5
 20
38.4292441446
 11
-3.5
 21
38.4292441446
  0
LINE
  5
5BA
100
AcDbEntity
  8
RACCORDO
100
AcDbLine
 62
7
  6
CONTINUOUS
 10
-17.5004566591
 20
38.4990856836
 11
-3.6749773271
 21
38.4990856836
  0
LINE
  5
5BB
100
AcDbEntity
  8
RACCORDO
100
AcDbLine
 62
7
  6
CONTINUOUS
 10
3.6749773271
 20
38.4990856836
 11
17.5004566591
 21
38.4990856836
  0
LWPOLYLINE
  5
5BC
100
AcDbEntity
  8
RACCORDO
100
AcDbPolyline
 62
250
  6
CONTINUOUS
 90
136
 70
0
 10
17.2365887576
 20
38.3232631188
 10
17.2481945868
 20
38.3231744111
 10
17.2597988485
 20
38.3229507283
 10
17.2713999752
 20
38.3225921007
 10
17.2829964
 20
38.3220985766
 10
17.2945865565
 20
38.3214702228
 10
17.3061688793
 20
38.3207071241
 10
17.317741804
 20
38.3198093835
 10
17.3293037673
 20
38.3187771224
 10
17.3408532077
 20
38.3176104802
 10
17.3523885652
 20
38.3163096144
 10
17.3639082817
 20
38.3148747008
 10
17.3754108012
 20
38.3133059331
 10
17.3868945702
 20
38.3116035233
 10
17.3983580374
 20
38.3097677013
 10
17.4097996545
 20
38.3077987151
 10
17.4212178762
 20
38.3056968306
 10
17.4326111601
 20
38.3034623316
 10
17.4439779674
 20
38.3010955202
 10
17.4553167628
 20
38.2985967158
 10
17.4666260148
 20
38.295966256
 10
17.4779041957
 20
38.2932044962
 10
17.4891497824
 20
38.2903118093
 10
17.5003612558
 20
38.287288586
 10
17.5115371016
 20
38.2841352348
 10
17.5226758103
 20
38.2808521815
 10
17.5337758775
 20
38.2774398696
 10
17.5448358038
 20
38.2738987599
 10
17.5558540953
 20
38.2702293307
 10
17.5668292639
 20
38.2664320778
 10
17.5777598272
 20
38.2625075139
 10
17.5886443087
 20
38.2584561692
 10
17.5994812382
 20
38.2542785909
 10
17.6102691522
 20
38.2499753432
 10
17.6210065933
 20
38.2455470074
 10
17.6316921115
 20
38.2409941816
 10
17.6423242632
 20
38.2363174808
 10
17.6529016126
 20
38.2315175366
 10
17.6634227308
 20
38.2265949974
 10
17.6738861969
 20
38.221550528
 10
17.6842905974
 20
38.2163848098
 10
17.6946345272
 20
38.2110985405
 10
17.7049165891
 20
38.2056924342
 10
17.7151353942
 20
38.200167221
 10
17.7252895624
 20
38.1945236472
 10
17.7353777221
 20
38.1887624752
 10
17.7453985106
 20
38.182884483
 10
17.7553505746
 20
38.1768904646
 10
17.7652325698
 20
38.1707812296
 10
17.7750431614
 20
38.1645576032
 10
17.7847810243
 20
38.158220426
 10
17.7944448432
 20
38.1517705539
 10
17.8040333129
 20
38.1452088581
 10
17.8135451383
 20
38.138536225
 10
17.8229790345
 20
38.1317535558
 10
17.8323337274
 20
38.1248617666
 10
17.8416079534
 20
38.1178617882
 10
17.8508004599
 20
38.1107545662
 10
17.8599100052
 20
38.1035410606
 10
17.8689353589
 20
38.0962222456
 10
17.877875302
 20
38.0887991099
 10
17.8867286269
 20
38.0812726559
 10
17.8954941379
 20
38.0736439005
 10
17.904170651
 20
38.0659138738
 10
17.9127569942
 20
38.0580836201
 10
17.9212520078
 20
38.050154197
 10
17.9296545445
 20
38.0421266754
 10
17.9379634692
 20
38.0340021397
 10
17.9461776596
 20
38.0257816873
 10
17.9542960064
 20
38.0174664284
 10
17.9623174129
 20
38.0090574862
 10
17.9702407958
 20
38.0005559965
 10
17.9780650847
 20
37.9919631076
 10
17.985789223
 20
37.9832799801
 10
17.9934121672
 20
37.9745077868
 10
18.0009328878
 20
37.9656477127
 10
18.008350369
 20
37.9567009543
 10
18.0156636088
 20
37.9476687203
 10
18.0228716195
 20
37.9385522304
 10
18.0299734275
 20
37.9293527161
 10
18.0369680736
 20
37.9200714201
 10
18.0438546129
 20
37.9107095957
 10
18.0506321154
 20
37.9012685077
 10
18.0572996656
 20
37.8917494311
 10
18.0638563629
 20
37.8821536518
 10
18.0703013218
 20
37.8724824657
 10
18.0766336716
 20
37.8627371793
 10
18.0828525572
 20
37.8529191087
 10
18.0889571384
 20
37.8430295801
 10
18.0949465908
 20
37.8330699293
 10
18.1008201054
 20
37.8230415016
 10
18.1065768889
 20
37.8129456513
 10
18.1122161636
 20
37.8027837423
 10
18.1177371679
 20
37.792557147
 10
18.1231391561
 20
37.7822672467
 10
18.1284213985
 20
37.7719154313
 10
18.1335831817
 20
37.7615030991
 10
18.1386238084
 20
37.7510316563
 10
18.1435425979
 20
37.7405025175
 10
18.1483388857
 20
37.7299171046
 10
18.153012024
 20
37.7192768476
 10
18.1575613817
 20
37.7085831835
 10
18.1619863442
 20
37.6978375568
 10
18.1662863138
 20
37.6870414188
 10
18.1704607099
 20
37.6761962278
 10
18.1745089684
 20
37.6653034487
 10
18.1784305427
 20
37.6543645527
 10
18.1822249031
 20
37.6433810173
 10
18.185891537
 20
37.6323543261
 10
18.1894299492
 20
37.6212859684
 10
18.1928396618
 20
37.6101774393
 10
18.1961202143
 20
37.5990302391
 10
18.1992711634
 20
37.5878458735
 10
18.2022920837
 20
37.5766258532
 10
18.2051825671
 20
37.5653716936
 10
18.2079422231
 20
37.5540849149
 10
18.2105706791
 20
37.5427670415
 10
18.21306758
 20
37.5314196021
 10
18.2154325886
 20
37.5200441294
 10
18.2176653853
 20
37.50864216
 10
18.2197656687
 20
37.4972152338
 10
18.2217331551
 20
37.4857648943
 10
18.2235675786
 20
37.474292688
 10
18.2252686916
 20
37.4628001646
 10
18.2268362643
 20
37.4512888763
 10
18.2282700848
 20
37.4397603779
 10
18.2295699597
 20
37.4282162266
 10
18.2307357132
 20
37.4166579816
 10
18.231767188
 20
37.4050872041
 10
18.2326642446
 20
37.393505457
 10
18.233426762
 20
37.3819143046
 10
18.2340546372
 20
37.3703153125
 10
18.2345477853
 20
37.3587100473
 10
18.2349061398
 20
37.3471000766
 10
18.2351296522
 20
37.3354869686
 10
18.2352182923
 20
37.3238722918
  0
LWPOLYLINE
  5
5BD
100
AcDbEntity
  8
RACCORDO
100
AcDbPolyline
 62
250
  6
CONTINUOUS
 90
6
 70
0
 10
13.4448337712
 20
38.3407235084
 10
13.4550465781
 20
38.3404975896
 10
13.4652718592
 20
38.3402712279
 10
13.4755096144
 20
38.3400444232
 10
13.4857569914
 20
38.3398172924
 10
13.4960168426
 20
38.3395897187
  0
LWPOLYLINE
  5
5BE
100
AcDbEntity
  8
RACCORDO
100
AcDbPolyline
 62
250
  6
CONTINUOUS
 90
4
 70
0
 10
13.4960168426
 20
38.3395897187
 10
13.5165978474
 20
38.3391322353
 10
13.5269190011
 20
38.3389023256
 10
13.5372751155
 20
38.3386711408
  0
LWPOLYLINE
  5
5BF
100
AcDbEntity
  8
RACCORDO
100
AcDbPolyline
 62
250
  6
CONTINUOUS
 90
3
 70
0
 10
13.5372751155
 20
38.3386711408
 10
13.558092354
 20
38.3382049565
 10
13.5685671516
 20
38.337969453
  0
LINE
  5
5C0
100
AcDbEntity
  8
RACCORDO
100
AcDbLine
 62
250
  6
CONTINUOUS
 10
13.5685671516
 20
38.337969453
 11
13.5896641573
 21
38.337493114
  0
LINE
  5
5C1
100
AcDbEntity
  8
RACCORDO
100
AcDbLine
 62
250
  6
CONTINUOUS
 10
13.5896641573
 20
38.337493114
 11
13.6109884906
 21
38.3370083101
  0
LINE
  5
5C2
100
AcDbEntity
  8
RACCORDO
100
AcDbLine
 62
250
  6
CONTINUOUS
 10
13.6109884906
 20
38.3370083101
 11
13.6325719348
 21
38.3365138474
  0
LINE
  5
5C3
100
AcDbEntity
  8
RACCORDO
100
AcDbLine
 62
250
  6
CONTINUOUS
 10
13.6325719348
 20
38.3365138474
 11
13.6655707322
 21
38.3357491833
  0
LINE
  5
5C4
100
AcDbEntity
  8
RACCORDO
100
AcDbLine
 62
250
  6
CONTINUOUS
 10
13.6655707322
 20
38.3357491833
 11
13.7344895437
 21
38.3341105322
  0
LINE
  5
5C5
100
AcDbEntity
  8
RACCORDO
100
AcDbLine
 62
250
  6
CONTINUOUS
 10
13.7344895437
 20
38.3341105322
 11
13.7962209358
 21
38.3325823624
  0
LINE
  5
5C6
100
AcDbEntity
  8
RACCORDO
100
AcDbLine
 62
250
  6
CONTINUOUS
 10
13.7962209358
 20
38.3325823624
 11
13.8499160618
 21
38.3311941005
  0
LINE
  5
5C7
100
AcDbEntity
  8
RACCORDO
100
AcDbLine
 62
250
  6
CONTINUOUS
 10
13.8499160618
 20
38.3311941005
 11
13.8938669448
 21
38.3300090999
  0
LINE
  5
5C8
100
AcDbEntity
  8
RACCORDO
100
AcDbLine
 62
250
  6
CONTINUOUS
 10
13.8938669448
 20
38.3300090999
 11
13.9417760347
 21
38.328658611
  0
LINE
  5
5C9
100
AcDbEntity
  8
RACCORDO
100
AcDbLine
 62
250
  6
CONTINUOUS
 10
13.9417760347
 20
38.328658611
 11
13.9887464142
 21
38.3272653877
  0
LINE
  5
5CA
100
AcDbEntity
  8
RACCORDO
100
AcDbLine
 62
250
  6
CONTINUOUS
 10
13.9887464142
 20
38.3272653877
 11
14.0322244821
 21
38.3259047515
  0
LINE
  5
5CB
100
AcDbEntity
  8
RACCORDO
100
AcDbLine
 62
250
  6
CONTINUOUS
 10
14.0322244821
 20
38.3259047515
 11
14.0725109529
 21
38.3245734889
  0
LINE
  5
5CC
100
AcDbEntity
  8
RACCORDO
100
AcDbLine
 62
250
  6
CONTINUOUS
 10
14.0725109529
 20
38.3245734889
 11
14.110038913
 21
38.3232631188
  0
LWPOLYLINE
  5
5CD
100
AcDbEntity
  8
RACCORDO
100
AcDbPolyline
 62
250
  6
CONTINUOUS
 90
19
 70
0
 10
14.1876328402
 20
-38.3
 10
14.1861667307
 20
-38.300878431
 10
14.1821684197
 20
-38.3031225056
 10
14.1781123078
 20
-38.3052484416
 10
14.1739983905
 20
-38.3072566811
 10
14.1698266722
 20
-38.3091476489
 10
14.1655954761
 20
-38.3109213125
 10
14.161304788
 20
-38.312578255
 10
14.1569546219
 20
-38.3141190383
 10
14.1525433437
 20
-38.3155438223
 10
14.1480708559
 20
-38.3168533506
 10
14.1435372559
 20
-38.3180483145
 10
14.1389412012
 20
-38.3191290509
 10
14.1342826784
 20
-38.3200964472
 10
14.1295617009
 20
-38.3209513869
 10
14.1247769658
 20
-38.3216944853
 10
14.1199280391
 20
-38.3223267106
 10
14.1150153548
 20
-38.3228492326
 10
14.110038913
 20
-38.3232631188
  0
LWPOLYLINE
  5
5CE
100
AcDbEntity
  8
RACCORDO
100
AcDbPolyline
 62
250
  6
CONTINUOUS
 90
22
 70
0
 10
13.5630174057
 20
-38.3
 10
13.5605317957
 20
-38.3014707656
 10
13.554494782
 20
-38.3049045317
 10
13.5484965347
 20
-38.3081745671
 10
13.5425382264
 20
-38.3112818788
 10
13.5366215092
 20
-38.3142276715
 10
13.5307335203
 20
-38.3170167456
 10
13.5248737663
 20
-38.3196503984
 10
13.5190451208
 20
-38.3221286978
 10
13.5132395814
 20
-38.3244538703
 10
13.5074584461
 20
-38.3266263497
 10
13.5017024744
 20
-38.3286469691
 10
13.4959627557
 20
-38.3305180181
 10
13.4902402045
 20
-38.3322398641
 10
13.4845358136
 20
-38.3338129589
 10
13.4788407011
 20
-38.3352390553
 10
13.4731546901
 20
-38.3365184974
 10
13.4674797454
 20
-38.3376512299
 10
13.4618101051
 20
-38.3386379335
 10
13.4561443259
 20
-38.3394788525
 10
13.4504852741
 20
-38.3401739817
 10
13.4448339742
 20
-38.3407235186
  0
LWPOLYLINE
  5
5CF
100
AcDbEntity
  8
RACCORDO
100
AcDbPolyline
 62
250
  6
CONTINUOUS
 90
27
 70
0
 10
13.4448339912
 20
-38.3407235036
 10
13.4456219609
 20
-38.340323204
 10
13.4464096639
 20
-38.3398222341
 10
13.4471971
 20
-38.3392205489
 10
13.4479843812
 20
-38.3385180823
 10
13.4487713955
 20
-38.3377148327
 10
13.4495578075
 20
-38.3368109046
 10
13.4503436149
 20
-38.3358063358
 10
13.4511288199
 20
-38.3347011667
 10
13.4519130939
 20
-38.3334955932
 10
13.4526964356
 20
-38.3321897138
 10
13.4534788463
 20
-38.3307836368
 10
13.4542600013
 20
-38.3292776556
 10
13.4550398855
 20
-38.3276719635
 10
13.4558185139
 20
-38.3259667059
 10
13.4565956071
 20
-38.3241621708
 10
13.4573711361
 20
-38.3222586387
 10
13.4581451298
 20
-38.3202562649
 10
13.4589173954
 20
-38.3181551661
 10
13.459687931
 20
-38.3159555706
 10
13.4604567385
 20
-38.3136577074
 10
13.4612236304
 20
-38.3112616763
 10
13.4619886217
 20
-38.308767662
 10
13.4627516974
 20
-38.3061759577
 10
13.4635126248
 20
-38.303486824
 10
13.4642714099
 20
-38.3007005017
 10
13.4644552415
 20
-38.3
  0
LINE
  5
5D0
100
AcDbEntity
  8
0
100
AcDbLine
 62
7
  6
CONTINUOUS
 10
3.5
 20
39.930158461
 11
-3.5
 21
39.930158461
  0
LINE
  5
5D1
100
AcDbEntity
  8
RACCORDO
100
AcDbLine
 62
7
  6
CONTINUOUS
 10
-19.3004264211
 20
40.0
 11
-3.6749773271
 21
40.0
  0
LINE
  5
5D2
100
AcDbEntity
  8
RACCORDO
100
AcDbLine
 62
7
  6
CONTINUOUS
 10
3.6749773271
 20
40.0
 11
19.3004264211
 21
40.0
  0
LWPOLYLINE
  5
5D3
100
AcDbEntity
  8
RACCORDO
100
AcDbPolyline
 62
250
  6
CONTINUOUS
 90
19
 70
0
 10
14.110038913
 20
38.3232631188
 10
14.1150153538
 20
38.3228492327
 10
14.1199280374
 20
38.3223267108
 10
14.1247769639
 20
38.3216944855
 10
14.1295616992
 20
38.3209513872
 10
14.1342826775
 20
38.3200964474
 10
14.1389412007
 20
38.3191290511
 10
14.1435372552
 20
38.3180483148
 10
14.1480708548
 20
38.3168533509
 10
14.1525433423
 20
38.3155438226
 10
14.1569546209
 20
38.3141190386
 10
14.1613047875
 20
38.3125782553
 10
14.165595476
 20
38.3109213128
 10
14.1698266719
 20
38.3091476491
 10
14.1739983897
 20
38.3072566814
 10
14.1781123068
 20
38.3052484419
 10
14.1821684189
 20
38.303122506
 10
14.1861667303
 20
38.3008784313
 10
14.1876328404
 20
38.3
  0
LWPOLYLINE
  5
5D4
100
AcDbEntity
  8
RACCORDO
100
AcDbPolyline
 62
250
  6
CONTINUOUS
 90
22
 70
0
 10
13.4448339911
 20
38.3407235036
 10
13.4504855118
 20
38.3401739605
 10
13.4561446127
 20
38.3394788193
 10
13.4618104182
 20
38.3386378832
 10
13.4674800912
 20
38.3376511625
 10
13.4731550713
 20
38.3365184147
 10
13.4788411199
 20
38.3352389557
 10
13.4845362748
 20
38.3338128375
 10
13.4902407088
 20
38.3322397186
 10
13.4959632921
 20
38.3305178498
 10
13.5017030227
 20
38.3286467834
 10
13.5074589959
 20
38.3266261499
 10
13.51324014
 20
38.3244536538
 10
13.5190456995
 20
38.3221284591
 10
13.5248743712
 20
38.3196501335
 10
13.5307341609
 20
38.3170164492
 10
13.5366222054
 20
38.3142273329
 10
13.5425389872
 20
38.3112814907
 10
13.5484973414
 20
38.3081741367
 10
13.5544955924
 20
38.3049040799
 10
13.560532591
 20
38.3014703034
 10
13.5630174074
 20
38.3
  0
CIRCLE
  5
5D5
100
AcDbEntity
  8
ASSI
100
AcDbCircle
 62
7
  6
CONTINUOUS
 10
-10.0
 20
-29.0
 40
3.25
  0
CIRCLE
  5
5D6
100
AcDbEntity
  8
0
100
AcDbCircle
 62
7
  6
CONTINUOUS
 10
-10.0
 20
-29.0
 40
2.35
  0
CIRCLE
  5
5D7
100
AcDbEntity
  8
ASSI
100
AcDbCircle
 62
7
  6
CONTINUOUS
 10
-10.0
 20
-29.0
 40
2.25
  0
CIRCLE
  5
5D8
100
AcDbEntity
  8
ASSI
100
AcDbCircle
 62
7
  6
CONTINUOUS
 10
-10.0
 20
-29.0
 40
1.5
  0
ARC
  5
5D9
100
AcDbEntity
  8
RACCORDO
100
AcDbCircle
 62
7
  6
CONTINUOUS
 10
-17.25
 20
-26.0
 40
0.5
100
AcDbArc
 50
300.6953437669
 51
59.3046562331
  0
ARC
  5
5DA
100
AcDbEntity
  8
ASSI
100
AcDbCircle
 62
7
  6
CONTINUOUS
 10
-12.451216
 20
-35.043883
 40
0.4174946213
100
AcDbArc
 50
112.8428396671
 51
270.0
  0
ARC
  5
5DB
100
AcDbEntity
  8
ASSI
100
AcDbCircle
 62
7
  6
CONTINUOUS
 10
-12.413425
 20
-35.043883
 40
0.165641
100
AcDbArc
 50
90.0001729522
 51
270.0
  0
CIRCLE
  5
5DC
100
AcDbEntity
  8
ASSI
100
AcDbCircle
 62
7
  6
CONTINUOUS
 10
-10.0
 20
29.0
 40
3.25
  0
CIRCLE
  5
5DD
100
AcDbEntity
  8
0
100
AcDbCircle
 62
7
  6
CONTINUOUS
 10
-10.0
 20
29.0
 40
2.35
  0
CIRCLE
  5
5DE
100
AcDbEntity
  8
ASSI
100
AcDbCircle
 62
7
  6
CONTINUOUS
 10
-10.0
 20
29.0
 40
2.25
  0
CIRCLE
  5
5DF
100
AcDbEntity
  8
ASSI
100
AcDbCircle
 62
7
  6
CONTINUOUS
 10
-10.0
 20
29.0
 40
1.5
  0
ARC
  5
5E0
100
AcDbEntity
  8
0
100
AcDbCircle
 62
7
  6
CONTINUOUS
 10
-0.479488
 20
30.604053
 40
0.5282129808
100
AcDbArc
 50
186.08897541
 51
252.6039438981
  0
ARC
  5
5E1
100
AcDbEntity
  8
RACCORDO
100
AcDbCircle
 62
7
  6
CONTINUOUS
 10
-17.25
 20
26.0
 40
0.5
100
AcDbArc
 50
300.6953437669
 51
59.3046562331
  0
ARC
  5
5E2
100
AcDbEntity
  8
RACCORDO
100
AcDbCircle
 62
7
  6
CONTINUOUS
 10
-17.25
 20
-0.0
 40
0.5
100
AcDbArc
 50
300.6953437669
 51
59.3046562331
  0
ARC
  5
5E3
100
AcDbEntity
  8
0
100
AcDbCircle
 62
7
  6
CONTINUOUS
 10
-3.025355
 20
30.582221
 40
0.4950077446
100
AcDbArc
 50
171.4769208258
 51
256.9487846155
  0
ARC
  5
5E4
100
AcDbEntity
  8
0
100
AcDbCircle
 62
7
  6
CONTINUOUS
 10
-1.920365
 20
32.134107
 40
0.4083431305
100
AcDbArc
 50
69.2440448115
 51
142.7056169364
  0
ARC
  5
5E5
100
AcDbEntity
  8
0
100
AcDbCircle
 62
7
  6
CONTINUOUS
 10
-2.360333
 20
30.711834
 40
0.3286007386
100
AcDbArc
 50
185.7437138265
 51
275.4688225819
  0
CIRCLE
  5
5E6
100
AcDbEntity
  8
ASSI
100
AcDbCircle
 62
7
  6
CONTINUOUS
 10
10.0
 20
-29.0
 40
3.25
  0
ARC
  5
5E7
100
AcDbEntity
  8
0
100
AcDbCircle
 62
7
  6
CONTINUOUS
 10
6.417556
 20
-34.0
 40
2.5499986575
100
AcDbArc
 50
87.752529198
 51
272.247470802
  0
ARC
  5
5E8
100
AcDbEntity
  8
0
100
AcDbCircle
 62
7
  6
CONTINUOUS
 10
2.032446
 20
-34.0
 40
2.5499985399
100
AcDbArc
 50
87.7525290943
 51
272.2474709057
  0
CIRCLE
  5
5E9
100
AcDbEntity
  8
0
100
AcDbCircle
 62
7
  6
CONTINUOUS
 10
10.0
 20
-29.0
 40
2.35
  0
CIRCLE
  5
5EA
100
AcDbEntity
  8
ASSI
100
AcDbCircle
 62
7
  6
CONTINUOUS
 10
10.0
 20
-29.0
 40
2.25
  0
ARC
  5
5EB
100
AcDbEntity
  8
0
100
AcDbCircle
 62
7
  6
CONTINUOUS
 10
2.032446
 20
-34.0
 40
1.7999999246
100
AcDbArc
 50
86.8152613297
 51
273.1847386703
  0
ARC
  5
5EC
100
AcDbEntity
  8
0
100
AcDbCircle
 62
7
  6
CONTINUOUS
 10
6.417556
 20
-34.0
 40
1.7999999246
100
AcDbArc
 50
86.8152613297
 51
167.9753003079
  0
ARC
  5
5ED
100
AcDbEntity
  8
0
100
AcDbCircle
 62
7
  6
CONTINUOUS
 10
6.417556
 20
-34.0
 40
1.7999968808
100
AcDbArc
 50
192.0247203293
 51
273.1847440612
  0
CIRCLE
  5
5EE
100
AcDbEntity
  8
ASSI
100
AcDbCircle
 62
7
  6
CONTINUOUS
 10
10.0
 20
-29.0
 40
1.5
  0
ARC
  5
5EF
100
AcDbEntity
  8
RACCORDO
100
AcDbCircle
 62
7
  6
CONTINUOUS
 10
17.25
 20
-26.0
 40
0.5
100
AcDbArc
 50
120.6953437669
 51
239.3046562331
  0
CIRCLE
  5
5F0
100
AcDbEntity
  8
ASSI
100
AcDbCircle
 62
7
  6
CONTINUOUS
 10
10.0
 20
29.0
 40
3.25
  0
CIRCLE
  5
5F1
100
AcDbEntity
  8
0
100
AcDbCircle
 62
7
  6
CONTINUOUS
 10
10.0
 20
29.0
 40
2.35
  0
CIRCLE
  5
5F2
100
AcDbEntity
  8
ASSI
100
AcDbCircle
 62
7
  6
CONTINUOUS
 10
10.0
 20
29.0
 40
2.25
  0
CIRCLE
  5
5F3
100
AcDbEntity
  8
ASSI
100
AcDbCircle
 62
7
  6
CONTINUOUS
 10
10.0
 20
29.0
 40
1.5
  0
ARC
  5
5F4
100
AcDbEntity
  8
0
100
AcDbCircle
 62
7
  6
CONTINUOUS
 10
3.516341
 20
32.272119
 40
0.5626010783
100
AcDbArc
 50
4.8339059816
 51
69.4779733133
  0
ARC
  5
5F5
100
AcDbEntity
  8
0
100
AcDbCircle
 62
7
  6
CONTINUOUS
 10
2.467156
 20
32.284008
 40
0.515435
100
AcDbArc
 50
90.0
 51
165.4448150097
  0
ARC
  5
5F6
100
AcDbEntity
  8
0
100
AcDbCircle
 62
7
  6
CONTINUOUS
 10
0.570221
 20
30.585985
 40
0.5041411809
100
AcDbArc
 50
285.4236044623
 51
341.005487812
  0
ARC
  5
5F7
100
AcDbEntity
  8
RACCORDO
100
AcDbCircle
 62
7
  6
CONTINUOUS
 10
17.25
 20
-0.0
 40
0.5
100
AcDbArc
 50
120.6953437669
 51
239.3046562331
  0
ARC
  5
5F8
100
AcDbEntity
  8
RACCORDO
100
AcDbCircle
 62
7
  6
CONTINUOUS
 10
17.25
 20
26.0
 40
0.5
100
AcDbArc
 50
120.6953437669
 51
239.3046562331
  0
ARC
  5
5F9
100
AcDbEntity
  8
0
100
AcDbCircle
 62
7
  6
CONTINUOUS
 10
1.054079
 20
32.327136
 40
0.4718803835
100
AcDbArc
 50
345.1449662306
 51
90.0
  0
ARC
  5
5FA
100
AcDbEntity
  8
0
100
AcDbCircle
 62
7
  6
CONTINUOUS
 10
1.926621
 20
30.531942
 40
0.4319416476
100
AcDbArc
 50
165.4448529735
 51
270.0
  0
ARC
  5
5FB
100
AcDbEntity
  8
0
100
AcDbCircle
 62
7
  6
CONTINUOUS
 10
0.626243
 20
32.125716
 40
0.3985171084
100
AcDbArc
 50
73.6975261887
 51
149.6964629826
  0
ARC
  5
5FC
100
AcDbEntity
  8
0
100
AcDbCircle
 62
7
  6
CONTINUOUS
 10
2.746588
 20
30.721103
 40
0.3673610176
100
AcDbArc
 50
176.7577671055
 51
259.7449912415
  0
ELLIPSE
  5
5FD
100
AcDbEntity
  8
RACCORDO
100
AcDbEllipse
 62
7
  6
CONTINUOUS
 10
-16.2987809114
 20
36.2987809114
 30
0.0
 11
1.4159370892
 21
-1.4159370892
 31
0.0
 40
0.998782766
 41
2.3568034778
 42
3.9263818294
  0
ELLIPSE
  5
5FE
100
AcDbEntity
  8
RACCORDO
100
AcDbEllipse
 62
7
  6
CONTINUOUS
 10
-16.2987809114
 20
-36.2987809114
 30
0.0
 11
-1.4159370892
 21
-1.4159370892
 31
0.0
 40
0.998782766
 41
-0.7847891758
 42
0.7847891758
  0
ELLIPSE
  5
5FF
100
AcDbEntity
  8
RACCORDO
100
AcDbEllipse
 62
7
  6
CONTINUOUS
 10
16.2987809114
 20
-36.2987809114
 30
0.0
 11
-1.4159370892
 21
1.4159370892
 31
0.0
 40
0.998782766
 41
2.3568034778
 42
3.9263818294
  0
ELLIPSE
  5
600
100
AcDbEntity
  8
RACCORDO
100
AcDbEllipse
 62
7
  6
CONTINUOUS
 10
16.2987809114
 20
36.2987809114
 30
0.0
 11
1.4159370892
 21
1.4159370892
 31
0.0
 40
0.998782766
 41
-0.7847891758
 42
0.7847891758
  0
ELLIPSE
  5
601
100
AcDbEntity
  8
0
100
AcDbEllipse
 62
7
  6
CONTINUOUS
 10
5.319205
 20
28.415395622
 30
0.0
 11
0.352865
 21
0.0
 31
0.0
 40
0.9698463104
 41
-1.5707678322
 42
-0.1301440625
  0
ELLIPSE
  5
602
100
AcDbEntity
  8
DRAFT
100
AcDbEllipse
 62
7
  6
CONTINUOUS
 10
-23.8301669064
 20
-0.0
 30
0.0
 11
-0.0
 21
397.1
 31
0.0
 40
0.0174550649
 41
-1.5259081969
 42
-1.5073095928
  0
ELLIPSE
  5
603
100
AcDbEntity
  8
DRAFT
100
AcDbEllipse
 62
7
  6
CONTINUOUS
 10
-23.8301669064
 20
0.0
 30
0.0
 11
-0.0
 21
397.1
 31
0.0
 40
0.0174550649
 41
-1.6342830608
 42
-1.6156844567
  0
ELLIPSE
  5
604
100
AcDbEntity
  8
DRAFT
100
AcDbEllipse
 62
7
  6
CONTINUOUS
 10
23.8301669064
 20
-0.0
 30
0.0
 11
0.0
 21
397.1
 31
0.0
 40
0.0174550649
 41
7.7904949
 42
7.8530854991
  0
ELLIPSE
  5
605
100
AcDbEntity
  8
0
100
AcDbEllipse
 62
7
  6
CONTINUOUS
 10
5.319205
 20
28.4501252575
 30
0.0
 11
0.352865
 21
0.0
 31
0.0
 40
0.9698463104
 41
-1.5707680749
 42
1.5708104939
  0
ELLIPSE
  5
606
100
AcDbEntity
  8
DRAFT
100
AcDbEllipse
 62
7
  6
CONTINUOUS
 10
23.8301669064
 20
-0.0
 30
0.0
 11
0.0
 21
397.1
 31
0.0
 40
0.0174550649
 41
1.5716924617
 42
1.6342830608
  0
ELLIPSE
  5
607
100
AcDbEntity
  8
RACCORDO
100
AcDbEllipse
 62
7
  6
CONTINUOUS
 10
-16.4126485113
 20
-36.3250913804
 30
0.0
 11
0.2237225876
 21
0.4475815441
 31
0.0
 40
0.9992388003
 41
2.0346266664
 42
2.0689241712
  0
ELLIPSE
  5
608
100
AcDbEntity
  8
RACCORDO
100
AcDbEllipse
 62
7
  6
CONTINUOUS
 10
-16.4126485113
 20
36.3250913804
 30
0.0
 11
-0.2237225876
 21
0.4475815441
 31
0.0
 40
0.9992388003
 41
1.0726684824
 42
1.1069659872
  0
ELLIPSE
  5
609
100
AcDbEntity
  8
RACCORDO
100
AcDbEllipse
 62
7
  6
CONTINUOUS
 10
16.4126485113
 20
-36.3250913804
 30
0.0
 11
0.2237225876
 21
-0.4475815441
 31
0.0
 40
0.9992388003
 41
1.0726684824
 42
1.1069659872
  0
ELLIPSE
  5
60A
100
AcDbEntity
  8
RACCORDO
100
AcDbEllipse
 62
7
  6
CONTINUOUS
 10
16.4126485113
 20
36.3250913804
 30
0.0
 11
-0.2237225876
 21
-0.4475815441
 31
0.0
 40
0.9992388003
 41
2.0346266664
 42
2.0689241712
  0
ELLIPSE
  5
60B
100
AcDbEntity
  8
RACCORDO
100
AcDbEllipse
 62
7
  6
CONTINUOUS
 10
-16.499923836
 20
-36.4996952279
 30
0.0
 11
0.2237225876
 21
0.4475815441
 31
0.0
 40
0.9992388003
 41
-4.2485586408
 42
-2.6783713943
  0
ELLIPSE
  5
60C
100
AcDbEntity
  8
RACCORDO
100
AcDbEllipse
 62
7
  6
CONTINUOUS
 10
16.499923836
 20
-36.4996952279
 30
0.0
 11
-0.2237225876
 21
0.4475815441
 31
0.0
 40
0.9992388003
 41
-3.6048139129
 42
-2.0346266664
  0
ELLIPSE
  5
60D
100
AcDbEntity
  8
RACCORDO
100
AcDbEllipse
 62
7
  6
CONTINUOUS
 10
-16.499923836
 20
36.4996952279
 30
0.0
 11
-0.2237225876
 21
0.4475815441
 31
0.0
 40
0.9992388003
 41
-0.4632212593
 42
1.1069659872
  0
ELLIPSE
  5
60E
100
AcDbEntity
  8
RACCORDO
100
AcDbEllipse
 62
7
  6
CONTINUOUS
 10
16.499923836
 20
36.4996952279
 30
0.0
 11
0.2237225876
 21
0.4475815441
 31
0.0
 40
0.9992388003
 41
-1.1069659872
 42
0.4632212593
  0
ELLIPSE
  5
60F
100
AcDbEntity
  8
RACCORDO
100
AcDbEllipse
 62
7
  6
CONTINUOUS
 10
19.299573319
 20
-39.299573319
 30
0.0
 11
-0.4955779812
 21
0.4955779812
 31
0.0
 40
0.998782766
 41
2.3568034778
 42
3.9263818294
  0
ELLIPSE
  5
610
100
AcDbEntity
  8
RACCORDO
100
AcDbEllipse
 62
7
  6
CONTINUOUS
 10
19.299573319
 20
39.299573319
 30
0.0
 11
0.4955779812
 21
0.4955779812
 31
0.0
 40
0.998782766
 41
-0.7847891758
 42
0.7847891758
  0
ELLIPSE
  5
611
100
AcDbEntity
  8
RACCORDO
100
AcDbEllipse
 62
7
  6
CONTINUOUS
 10
-19.299573319
 20
-39.299573319
 30
0.0
 11
-0.4955779812
 21
-0.4955779812
 31
0.0
 40
0.998782766
 41
-0.7847891758
 42
0.7847891758
  0
ELLIPSE
  5
612
100
AcDbEntity
  8
RACCORDO
100
AcDbEllipse
 62
7
  6
CONTINUOUS
 10
-19.299573319
 20
39.299573319
 30
0.0
 11
0.4955779812
 21
-0.4955779812
 31
0.0
 40
0.998782766
 41
2.3568034778
 42
3.9263818294
  0
ELLIPSE
  5
613
100
AcDbEntity
  8
RACCORDO
100
AcDbEllipse
 62
7
  6
CONTINUOUS
 10
-6.7845000443
 20
-0.0
 30
0.0
 11
0.0
 21
398.5
 31
0.0
 40
0.0524077793
 41
-1.6007322519
 42
-1.5408610683
  0
ELLIPSE
  5
614
100
AcDbEntity
  8
RACCORDO
100
AcDbEllipse
 62
7
  6
CONTINUOUS
 10
-17.498627654
 20
37.4984761393
 30
0.0
 11
0.8338289523
 21
-0.5556035581
 31
0.0
 40
0.9980228614
 41
2.1594780132
 42
3.7284478405
  0
ELLIPSE
  5
615
100
AcDbEntity
  8
RACCORDO
100
AcDbEllipse
 62
7
  6
CONTINUOUS
 10
17.498627654
 20
-37.4984761393
 30
0.0
 11
0.8338289523
 21
-0.5556035581
 31
0.0
 40
0.9980228614
 41
-0.9821146404
 42
0.5868551869
  0
ELLIPSE
  5
616
100
AcDbEntity
  8
RACCORDO
100
AcDbEllipse
 62
7
  6
CONTINUOUS
 10
-17.498627654
 20
-37.4984761393
 30
0.0
 11
0.8338289523
 21
0.5556035581
 31
0.0
 40
0.9980228614
 41
2.5547374667
 42
4.123707294
  0
ELLIPSE
  5
617
100
AcDbEntity
  8
RACCORDO
100
AcDbEllipse
 62
7
  6
CONTINUOUS
 10
17.498627654
 20
37.4984761393
 30
0.0
 11
0.8338289523
 21
0.5556035581
 31
0.0
 40
0.9980228614
 41
-0.5868551869
 42
0.9821146404
  0
ENDSEC
  0
SECTION
  2
OBJECTS
  0
DICTIONARY
  5
C
100
AcDbDictionary
280
0
281
1
  3
ACAD_GROUP
350
D
  3
ACAD_MLINESTYLE
350
17
  3
ACAD_LAYOUT
350
1A
  3
ACAD_PLOTSETTINGS
350
19
  3
ACAD_PLOTSTYLENAME
350
E
  0
DICTIONARY
  5
D
102
{ACAD_REACTORS
330
C
102
}
100
AcDbDictionary
280
0
281
1
  0
ACDBDICTIONARYWDFLT
  5
E
102
{ACAD_REACTORS
330
C
102
}
100
AcDbDictionary
281
1
  3
Normal
350
F
100
AcDbDictionaryWithDefault
340
F
  0
DICTIONARY
  5
17
102
{ACAD_REACTORS
330
C
102
}
100
AcDbDictionary
280
0
281
1
  3
Standard
350
18
  0
DICTIONARY
  5
19
102
{ACAD_REACTORS
330
C
102
}
100
AcDbDictionary
281
1
  0
DICTIONARY
  5
1A
102
{ACAD_REACTORS
330
C
102
}
100
AcDbDictionary
281
1
  3
Model
350
618
  3
Layout1
350
619
  0
ACDBPLACEHOLDER
  5
F
102
{ACAD_REACTORS
330
E
102
}
  0
MLINESTYLE
  5
18
102
{ACAD_REACTORS
330
17
102
}
100
AcDbMlineStyle
  2
STANDARD
 70
0
  3

 62
256
 51
90.0
 52
90.0
 71
2
 49
0.5
 62
256
  6
BYLAYER
 49
-0.5
 62
256
  6
BYLAYER
  0
LAYOUT
  5
618
102
{ACAD_REACTORS
330
1A
102
}
100
AcDbPlotSettings
  1

  2
none_device
  4
ISO_A4_(297.00_x_210.00_MM)
  6

 40
0.0
 41
0.0
 42
0.0
 43
0.0
 44
297.0
 45
210.0
 46
0.0
 47
0.0
 48
0.0
 49
0.0
140
0.0
141
0.0
142
1.0
143
1.0
 70
1024
 72
1
 73
0
 74
0
  7

 75
0
147
1.0
148
0.0
149
0.0
100
AcDbLayout
  1
Model
 70
0
 71
0
 10
0.0
 20
0.0
 11
297.0
 21
210.0
 12
0.0
 22
0.0
 32
0.0
 14
0.0
 24
0.0
 34
0.0
 15
0.0
 25
0.0
 35
0.0
146
0.0
 13
0.0
 23
0.0
 33
0.0
 16
1.0
 26
0.0
 36
0.0
 17
0.0
 27
1.0
 37
0.0
 76
0
330
20D
345
0
346
0
  0
LAYOUT
  5
619
102
{ACAD_REACTORS
330
1A
102
}
100
AcDbPlotSettings
  1

  2
none_device
  4
ISO_A4_(297.00_x_210.00_MM)
  6

 40
0.0
 41
0.0
 42
0.0
 43
0.0
 44
297.0
 45
210.0
 46
0.0
 47
0.0
 48
0.0
 49
0.0
140
0.0
141
0.0
142
1.0
143
1.0
 70
0
 72
1
 73
0
 74
0
  7

 75
0
147
1.0
148
0.0
149
0.0
100
AcDbLayout
  1
Layout1
 70
0
 71
1
 10
0.0
 20
0.0
 11
297.0
 21
210.0
 12
0.0
 22
0.0
 32
0.0
 14
0.0
 24
0.0
 34
0.0
 15
0.0
 25
0.0
 35
0.0
146
0.0
 13
0.0
 23
0.0
 33
0.0
 16
1.0
 26
0.0
 36
0.0
 17
0.0
 27
1.0
 37
0.0
 76
0
330
20E
345
0
346
0
  0
ENDSEC
  0
EOF
