  0
SECTION
  2
HEADER
  9
$ACADVER
  1
AC1024
  9
$DWGCODEPAGE
  3
ANSI_1252
  9
$EXTMAX
 10
297.0
 20
210.0
 30
0.0
  9
$EXTMIN
 10
0.0
 20
0.0
 30
0.0
  9
$LIMMIN
 10
0.0
 20
0.0
  9
$LIMMAX
 10
297.0
 20
210.0
  9
$VIEWCTR
 10
148.5
 20
105.0
  9
$VIEWSIZE
 40
210.0
  9
$CLAYER
  8
0
  9
$LTSCALE
 40
16.335
  9
$CELTYPE
  6
BYLAYER
  9
$DIMSCALE
 40
1.0
  9
$DIMASZ
 40
3.0
  9
$DIMEXO
 40
0.5
  9
$DIMDLI
 40
11.286
  9
$DIMEXE
 40
1.5
  9
$DIMCEN
 40
2.673
  9
$DIMLFAC
 40
1.0
  9
$DIMBLK
  1
_FILLED
  9
$DIMALT
 70
0
  9
$DIMALTF
 40
0.0393700787
  9
$DIMTXT
 40
3.0
  9
$DIMTOL
 70
1
  9
$DIMLIM
 70
0
  9
$DIMTFAC
 40
1.0
  9
$DIMTP
 40
0.01
  9
$DIMTM
 40
0.01
  9
$DIMGAP
 40
0.625
  9
$DIMDSEP
 70
44
  9
$AUNITS
 70
0
  9
$PDMODE
 70
3
  9
$PDSIZE
 40
3.0
  9
$HANDSEED
  5
5DB
  9
$TILEMODE
 70
1
  9
$MEASUREMENT
 70
1
  9
$INSUNITS
 70
4
  0
ENDSEC
  0
SECTION
  2
CLASSES
  0
CLASS
  1
ACDBDICTIONARYWDFLT
  2
AcDbDictionaryWithDefault
  3
AutoCAD 2000
 90
0
 91
1
280
0
281
0
  0
CLASS
  1
ACDBPLACEHOLDER
  2
AcDbPlaceHolder
  3
AutoCAD 2000
 90
0
 91
1
280
0
281
0
  0
CLASS
  1
LAYOUT
  2
AcDbLayout
  3
AutoCAD 2000
 90
0
 91
0
280
0
281
0
  0
ENDSEC
  0
SECTION
  2
TABLES
  0
TABLE
  2
VPORT
  5
8
100
AcDbSymbolTable
 70
2
  0
VPORT
  5
1F4
100
AcDbSymbolTableRecord
100
AcDbViewportTableRecord
  2
*ACTIVE
 70
0
 10
0.0
 20
0.0
 11
1.0
 21
1.0
 12
148.5
 22
105.0
 13
0.0
 23
0.0
 14
1.0
 24
1.0
 15
0.0
 25
0.0
 16
0.0
 26
0.0
 36
1.0
 17
0.0
 27
0.0
 37
0.0
 40
210.0
 41
1.4142857143
 42
50.0
 43
0.0
 44
0.0
 50
0.0
 51
0.0
 71
0
 72
100
 73
1
 74
1
 75
0
 76
0
 77
0
 78
0
  0
ENDTAB
  0
TABLE
  2
LTYPE
  5
5
100
AcDbSymbolTable
 70
6
  0
LTYPE
  5
14
100
AcDbSymbolTableRecord
100
AcDbLinetypeTableRecord
  2
BYBLOCK
 70
0
  3

 72
65
 73
0
 40
0.0
  0
LTYPE
  5
15
100
AcDbSymbolTableRecord
100
AcDbLinetypeTableRecord
  2
BYLAYER
 70
0
  3

 72
65
 73
0
 40
0.0
  0
LTYPE
  5
16
100
AcDbSymbolTableRecord
100
AcDbLinetypeTableRecord
  2
CONTINUOUS
 70
64
  3
Solid line
 72
65
 73
0
 40
0.0
  0
LTYPE
  5
1F5
100
AcDbSymbolTableRecord
100
AcDbLinetypeTableRecord
  2
CENTER
 70
64
  3
____ _ ____ _ ____ _ ____ _ ____ _ ____ _ ____
 72
65
 73
4
 40
0.6
 49
0.375
 74
0
 49
-0.075
 74
0
 49
0.075
 74
0
 49
-0.075
 74
0
  0
LTYPE
  5
1F6
100
AcDbSymbolTableRecord
100
AcDbLinetypeTableRecord
  2
HIDDEN
 70
64
  3
- - - - - - - - - - - - - - - - - - - -
 72
65
 73
2
 40
0.2
 49
0.1
 74
0
 49
-0.1
 74
0
  0
LTYPE
  5
1F7
100
AcDbSymbolTableRecord
100
AcDbLinetypeTableRecord
  2
PHANTOM
 70
64
  3
_____ _ _ _____ _ _ _____ _ _ _____
 72
65
 73
6
 40
0.8
 49
0.45
 74
0
 49
-0.05
 74
0
 49
0.1
 74
0
 49
-0.05
 74
0
 49
0.1
 74
0
 49
-0.05
 74
0
  0
LTYPE
  5
1F8
100
AcDbSymbolTableRecord
100
AcDbLinetypeTableRecord
  2
DOT
 70
64
  3
. . . . . . . . . . . . . . . . . . . .
 72
65
 73
2
 40
0.2
 49
0.1
 74
0
 49
-0.1
 74
0
  0
LTYPE
  5
1F9
100
AcDbSymbolTableRecord
100
AcDbLinetypeTableRecord
  2
DASHED
 70
64
  3
- - - - - - - - - - - - - - - - - - - -
 72
65
 73
2
 40
0.2
 49
0.1
 74
0
 49
-0.1
 74
0
  0
ENDTAB
  0
TABLE
  2
LAYER
  5
2
100
AcDbSymbolTable
 70
36
  0
LAYER
  5
10
100
AcDbSymbolTableRecord
100
AcDbLayerTableRecord
  2
0
 70
0
 62
7
  6
CONTINUOUS
370
-3
390
F
  0
LAYER
  5
1FA
100
AcDbSymbolTableRecord
100
AcDbLayerTableRecord
  2
DEFAULT_1
 70
0
 62
7
  6
CENTER
370
-3
390
F
  0
LAYER
  5
1FB
100
AcDbSymbolTableRecord
100
AcDbLayerTableRecord
  2
DEFAULT_2
 70
0
 62
7
  6
HIDDEN
370
-3
390
F
  0
LAYER
  5
1FC
100
AcDbSymbolTableRecord
100
AcDbLayerTableRecord
  2
DEFAULT_3
 70
0
 62
7
  6
PHANTOM
370
-3
390
F
  0
LAYER
  5
1FD
100
AcDbSymbolTableRecord
100
AcDbLayerTableRecord
  2
ASSI
 70
0
 62
7
  6
CONTINUOUS
370
-3
390
F
  0
LAYER
  5
1FE
100
AcDbSymbolTableRecord
100
AcDbLayerTableRecord
  2
COLOR5
 70
0
 62
7
  6
CONTINUOUS
370
-3
390
F
  0
LAYER
  5
1FF
100
AcDbSymbolTableRecord
100
AcDbLayerTableRecord
  2
COORDINATE
 70
0
 62
7
  6
CONTINUOUS
370
-3
390
F
  0
LAYER
  5
200
100
AcDbSymbolTableRecord
100
AcDbLayerTableRecord
  2
COORD_ORIGINE
 70
0
 62
7
  6
CONTINUOUS
370
-3
390
F
  0
LAYER
  5
201
100
AcDbSymbolTableRecord
100
AcDbLayerTableRecord
  2
CURVE
 70
0
 62
7
  6
CONTINUOUS
370
-3
390
F
  0
LAYER
  5
202
100
AcDbSymbolTableRecord
100
AcDbLayerTableRecord
  2
DRAFT
 70
0
 62
7
  6
CONTINUOUS
370
-3
390
F
  0
LAYER
  5
203
100
AcDbSymbolTableRecord
100
AcDbLayerTableRecord
  2
INCISIONI
 70
0
 62
7
  6
CONTINUOUS
370
-3
390
F
  0
LAYER
  5
204
100
AcDbSymbolTableRecord
100
AcDbLayerTableRecord
  2
INTF_YELLOW
 70
0
 62
7
  6
CONTINUOUS
370
-3
390
F
  0
LAYER
  5
205
100
AcDbSymbolTableRecord
100
AcDbLayerTableRecord
  2
PIANI
 70
0
 62
7
  6
CONTINUOUS
370
-3
390
F
  0
LAYER
  5
206
100
AcDbSymbolTableRecord
100
AcDbLayerTableRecord
  2
PIANI_ORIGINE
 70
0
 62
7
  6
CONTINUOUS
370
-3
390
F
  0
LAYER
  5
207
100
AcDbSymbolTableRecord
100
AcDbLayerTableRecord
  2
PUNTI
 70
0
 62
7
  6
CONTINUOUS
370
-3
390
F
  0
LAYER
  5
208
100
AcDbSymbolTableRecord
100
AcDbLayerTableRecord
  2
RACCORDO
 70
0
 62
7
  6
CONTINUOUS
370
-3
390
F
  0
LAYER
  5
209
100
AcDbSymbolTableRecord
100
AcDbLayerTableRecord
  2
SNAPLINE
 70
0
 62
7
  6
CONTINUOUS
370
-3
390
F
  0
LAYER
  5
20A
100
AcDbSymbolTableRecord
100
AcDbLayerTableRecord
  2
SUPERFICI
 70
0
 62
7
  6
CONTINUOUS
370
-3
390
F
  0
LAYER
  5
20B
100
AcDbSymbolTableRecord
100
AcDbLayerTableRecord
  2
TRASH
 70
0
 62
7
  6
CONTINUOUS
370
-3
390
F
  0
LAYER
  5
20C
100
AcDbSymbolTableRecord
100
AcDbLayerTableRecord
  2
XSEC_DATUMS
 70
0
 62
7
  6
CONTINUOUS
370
-3
390
F
  0
ENDTAB
  0
TABLE
  2
STYLE
  5
3
100
AcDbSymbolTable
 70
1
  0
STYLE
  5
11
100
AcDbSymbolTableRecord
100
AcDbTextStyleTableRecord
  2
STANDARD
 70
0
 40
0.0
 41
0.8
 50
0.0
 71
0
 42
0.2
  3
txt
  4

  0
STYLE
  5
20D
100
AcDbSymbolTableRecord
100
AcDbTextStyleTableRecord
  2
TEXTSTYLE_1
 70
0
 40
0.0
 41
0.8
 50
0.0
 71
0
 42
0.2
  3
gdt
  4

  0
ENDTAB
  0
TABLE
  2
VIEW
  5
6
100
AcDbSymbolTable
 70
0
  0
ENDTAB
  0
TABLE
  2
UCS
  5
7
100
AcDbSymbolTable
 70
0
  0
ENDTAB
  0
TABLE
  2
APPID
  5
9
100
AcDbSymbolTable
 70
1
  0
APPID
  5
20E
100
AcDbSymbolTableRecord
100
AcDbRegAppTableRecord
  2
ACAD
 70
0
  0
ENDTAB
  0
TABLE
  2
BLOCK_RECORD
  5
1
100
AcDbSymbolTable
 70
0
  0
BLOCK_RECORD
  5
20F
100
AcDbSymbolTableRecord
100
AcDbBlockTableRecord
  2
*Model_Space
  0
BLOCK_RECORD
  5
210
100
AcDbSymbolTableRecord
100
AcDbBlockTableRecord
  2
*Paper_Space
  0
BLOCK_RECORD
  5
211
100
AcDbSymbolTableRecord
100
AcDbBlockTableRecord
  2
_FILLED
  0
ENDTAB
  0
TABLE
  2
DIMSTYLE
  5
A
100
AcDbSymbolTable
 70
1
100
AcDbDimStyleTable
 71
0
  0
DIMSTYLE
105
212
100
AcDbSymbolTableRecord
100
AcDbDimStyleTableRecord
  2
STANDARD
 70
0
  3

  4

 40
1.0
 41
3.0
 42
0.5
 43
0.38
 44
1.5
 45
0.0
 46
0.0
 47
0.01
 48
0.01
140
3.0
141
0.09
142
0.0
143
25.4
144
1.0
145
0.0
146
1.0
147
0.625
 71
1
 72
0
 73
0
 74
0
 75
0
 76
0
 77
1
 78
8
 79
2
170
0
171
1
172
0
173
0
174
0
175
0
176
0
177
0
178
0
270
2
179
2
271
2
272
2
273
2
274
2
275
0
280
0
281
0
282
0
283
1
284
8
285
0
286
0
287
3
288
0
340
11
278
44
341
211
342
211
343
211
344
211
  0
ENDTAB
  0
ENDSEC
  0
SECTION
  2
BLOCKS
  0
BLOCK
  5
20
100
AcDbEntity
  8
0
100
AcDbBlockBegin
  2
*Model_Space
 70
0
 10
0.0
 20
0.0
 30
0.0
  3
*Model_Space
  1

  0
ENDBLK
  5
21
100
AcDbEntity
  8
0
100
AcDbBlockEnd
  0
BLOCK
  5
1C
100
AcDbEntity
  8
0
100
AcDbBlockBegin
  2
*Paper_Space
 70
0
 10
0.0
 20
0.0
 30
0.0
  3
*Paper_Space
  1

  0
ENDBLK
  5
1D
100
AcDbEntity
  8
0
100
AcDbBlockEnd
  0
BLOCK
  5
213
100
AcDbEntity
  8
0
100
AcDbBlockBegin
  2
_FILLED
 70
64
 10
0.0
 20
0.0
  3
_FILLED
  1

  0
SOLID
  5
214
100
AcDbEntity
  8
0
  6
BYBLOCK
 62
0
100
AcDbTrace
 10
0.0
 20
0.0
 11
-1.0
 21
0.3166666667
 12
-1.0
 22
-0.3166666667
 13
-1.0
 23
-0.3166666667
  0
ENDBLK
  5
215
100
AcDbEntity
  8
0
  6
BYBLOCK
 62
0
100
AcDbBlockEnd
  0
ENDSEC
  0
SECTION
  2
ENTITIES
  0
LWPOLYLINE
  5
216
100
AcDbEntity
  8
RACCORDO
100
AcDbPolyline
 62
250
  6
CONTINUOUS
 90
7
 70
0
 10
18.1444558424
 20
-65.5724506919
 10
18.1519457829
 20
-65.5710728932
 10
18.1786008258
 20
-65.5651287255
 10
18.2003303414
 20
-65.5590551788
 10
18.2170207429
 20
-65.5528840015
 10
18.2285847844
 20
-65.5466474521
 10
18.234962017
 20
-65.540378131
  0
LINE
  5
217
100
AcDbEntity
  8
RACCORDO
100
AcDbLine
 62
250
  6
CONTINUOUS
 10
14.7341639072
 20
-66.8232631188
 11
14.599544009
 21
-66.8275024494
  0
LINE
  5
218
100
AcDbEntity
  8
RACCORDO
100
AcDbLine
 62
250
  6
CONTINUOUS
 10
14.599544009
 20
-66.8275024494
 11
14.4534954449
 21
-66.8312003152
  0
LINE
  5
219
100
AcDbEntity
  8
RACCORDO
100
AcDbLine
 62
250
  6
CONTINUOUS
 10
14.4534954449
 20
-66.8312003152
 11
14.2968240371
 21
-66.8343418955
  0
LINE
  5
21A
100
AcDbEntity
  8
RACCORDO
100
AcDbLine
 62
250
  6
CONTINUOUS
 10
14.2968240371
 20
-66.8343418955
 11
14.0477413075
 21
-66.837903783
  0
LINE
  5
21B
100
AcDbEntity
  8
RACCORDO
100
AcDbLine
 62
250
  6
CONTINUOUS
 10
14.0477413075
 20
-66.837903783
 11
13.7899233914
 21
-66.8400257985
  0
LINE
  5
21C
100
AcDbEntity
  8
RACCORDO
100
AcDbLine
 62
250
  6
CONTINUOUS
 10
13.7899233914
 20
-66.8400257985
 11
13.530058806
 21
-66.8407235036
  0
LINE
  5
21D
100
AcDbEntity
  8
RACCORDO
100
AcDbLine
 62
7
  6
CONTINUOUS
 10
-19.3004264211
 20
-68.5
 11
-3.6749773271
 21
-68.5
  0
LINE
  5
21E
100
AcDbEntity
  8
RACCORDO
100
AcDbLine
 62
7
  6
CONTINUOUS
 10
3.6749773271
 20
-68.5
 11
19.3004264211
 21
-68.5
  0
LINE
  5
21F
100
AcDbEntity
  8
0
100
AcDbLine
 62
7
  6
CONTINUOUS
 10
-3.5
 20
-68.430158461
 11
3.5
 21
-68.430158461
  0
LINE
  5
220
100
AcDbEntity
  8
RACCORDO
100
AcDbLine
 62
7
  6
CONTINUOUS
 10
-17.5004566591
 20
-66.9990856836
 11
-3.6749773271
 21
-66.9990856836
  0
LINE
  5
221
100
AcDbEntity
  8
RACCORDO
100
AcDbLine
 62
7
  6
CONTINUOUS
 10
3.6749773271
 20
-66.9990856836
 11
17.5004566591
 21
-66.9990856836
  0
LINE
  5
222
100
AcDbEntity
  8
0
100
AcDbLine
 62
7
  6
CONTINUOUS
 10
-3.5
 20
-66.9292441446
 11
3.5
 21
-66.9292441446
  0
LINE
  5
223
100
AcDbEntity
  8
RACCORDO
100
AcDbLine
 62
250
  6
CONTINUOUS
 10
17.2365887576
 20
-66.8232631188
 11
14.7341639072
 21
-66.8232631188
  0
LINE
  5
224
100
AcDbEntity
  8
RACCORDO
100
AcDbLine
 62
250
  6
CONTINUOUS
 10
-14.7341639048
 20
-66.8232631188
 11
-17.2365887576
 21
-66.8232631188
  0
LINE
  5
225
100
AcDbEntity
  8
RACCORDO
100
AcDbLine
 62
7
  6
CONTINUOUS
 10
-16.301218346
 20
-66.8
 11
-4.0
 21
-66.8
  0
LINE
  5
226
100
AcDbEntity
  8
RACCORDO
100
AcDbLine
 62
7
  6
CONTINUOUS
 10
4.0
 20
-66.8
 11
16.301218346
 21
-66.8
  0
LINE
  5
227
100
AcDbEntity
  8
0
100
AcDbLine
 62
7
  6
CONTINUOUS
 10
-4.0
 20
-66.730158461
 11
4.0
 21
-66.730158461
  0
LINE
  5
228
100
AcDbEntity
  8
RACCORDO
100
AcDbLine
 62
250
  6
CONTINUOUS
 10
13.530058806
 20
-66.8407235036
 11
-13.7035292714
 21
-66.8404166237
  0
LINE
  5
229
100
AcDbEntity
  8
RACCORDO
100
AcDbLine
 62
250
  6
CONTINUOUS
 10
-13.7035292714
 20
-66.8404166237
 11
-13.9625248555
 21
-66.8387705309
  0
LINE
  5
22A
100
AcDbEntity
  8
RACCORDO
100
AcDbLine
 62
250
  6
CONTINUOUS
 10
-13.9625248555
 20
-66.8387705309
 11
-14.2154427807
 21
-66.8356834677
  0
LINE
  5
22B
100
AcDbEntity
  8
RACCORDO
100
AcDbLine
 62
250
  6
CONTINUOUS
 10
-14.2154427807
 20
-66.8356834677
 11
-14.3761518374
 21
-66.8328468162
  0
LINE
  5
22C
100
AcDbEntity
  8
RACCORDO
100
AcDbLine
 62
250
  6
CONTINUOUS
 10
-14.3761518374
 20
-66.8328468162
 11
-14.5280490383
 21
-66.8294172129
  0
LWPOLYLINE
  5
22D
100
AcDbEntity
  8
RACCORDO
100
AcDbPolyline
 62
250
  6
CONTINUOUS
 90
3
 70
0
 10
-14.5280490383
 20
-66.8294172129
 10
-14.6682489643
 20
-66.8254510848
 10
-14.7341639048
 20
-66.8232631188
  0
LWPOLYLINE
  5
22E
100
AcDbEntity
  8
RACCORDO
100
AcDbPolyline
 62
250
  6
CONTINUOUS
 90
22
 70
0
 10
-17.2365887576
 20
-66.8232631188
 10
-17.3111299461
 20
-66.8203388582
 10
-17.3852552385
 20
-66.8118548984
 10
-17.4585510592
 20
-66.7978585749
 10
-17.5306084603
 20
-66.7784279789
 10
-17.6010254038
 20
-66.7536715219
 10
-17.6694090045
 20
-66.7237273303
 10
-17.7353777221
 20
-66.6887624752
 10
-17.7985634896
 20
-66.6489720399
 10
-17.8586137676
 20
-66.6045780318
 10
-17.9151935107
 20
-66.5558281434
 10
-17.9679870372
 20
-66.5029943704
 10
-18.0166997901
 20
-66.4463714945
 10
-18.0610599808
 20
-66.3862754379
 10
-18.1008201054
 20
-66.3230415016
 10
-18.1357583259
 20
-66.2570224936
 10
-18.1656797073
 20
-66.1885867616
 10
-18.1904173059
 20
-66.1181161366
 10
-18.2098331005
 20
-66.0460038034
 10
-18.2238187622
 20
-65.9726521067
 10
-18.2322962593
 20
-65.8984703058
 10
-18.2352182923
 20
-65.8238722918
  0
LWPOLYLINE
  5
22F
100
AcDbEntity
  8
RACCORDO
100
AcDbPolyline
 62
7
  6
CONTINUOUS
 90
7
 70
0
 10
-18.1265555567
 20
-65.6143052375
 10
-18.1522034658
 20
-65.6119426115
 10
-18.1788492386
 20
-65.60895214
 10
-18.2005735241
 20
-65.6059127328
 10
-18.2172632988
 20
-65.6028398427
 10
-18.228831577
 20
-65.5997180169
 10
-18.2352182923
 20
-65.5965472554
  0
LINE
  5
230
100
AcDbEntity
  8
0
100
AcDbLine
 62
7
  6
CONTINUOUS
 10
3.5
 20
68.430158461
 11
3.6749773271
 21
68.5
  0
LWPOLYLINE
  5
231
100
AcDbEntity
  8
INCISIONI
100
AcDbPolyline
 62
7
  6
CONTINUOUS
 90
13
 70
0
 10
0.2837311453
 20
-63.523379
 10
0.3547907612
 20
-63.5183283824
 10
0.4206674861
 20
-63.5067632923
 10
0.4813613198
 20
-63.4886837296
 10
0.5372865744
 20
-63.4638257903
 10
0.588028938
 20
-63.4324533785
 10
0.6323454745
 20
-63.3953582067
 10
0.6699341498
 20
-63.3525519746
 10
0.701096998
 20
-63.3040229825
 10
0.7254971859
 20
-63.2505278433
 10
0.7430224357
 20
-63.1923187613
 10
0.7537850251
 20
-63.1291435323
 10
0.7577849541
 20
-63.0610021562
  0
LWPOLYLINE
  5
232
100
AcDbEntity
  8
INCISIONI
100
AcDbPolyline
 62
7
  6
CONTINUOUS
 90
13
 70
0
 10
-5.2892968847
 20
-63.523379
 10
-5.2182372688
 20
-63.5183283824
 10
-5.1523605439
 20
-63.5067632923
 10
-5.0916667102
 20
-63.4886837296
 10
-5.0357414556
 20
-63.4638257903
 10
-4.984999092
 20
-63.4324533785
 10
-4.9406825555
 20
-63.3953582067
 10
-4.9030938802
 20
-63.3525519746
 10
-4.871931032
 20
-63.3040229825
 10
-4.8475308441
 20
-63.2505278433
 10
-4.8300055943
 20
-63.1923187613
 10
-4.8192430049
 20
-63.1291435323
 10
-4.8152430759
 20
-63.0610021562
  0
LWPOLYLINE
  5
233
100
AcDbEntity
  8
INCISIONI
100
AcDbPolyline
 62
7
  6
CONTINUOUS
 90
16
 70
0
 10
4.7828057843
 20
-64.198626
 10
4.8641389946
 20
-64.1929404696
 10
4.9410223832
 20
-64.1798863532
 10
5.0134559499
 20
-64.1594636509
 10
5.0819147283
 20
-64.1314320851
 10
5.1459236849
 20
-64.0960319334
 10
5.2040577189
 20
-64.0539840284
 10
5.2557555945
 20
-64.0054796017
 10
5.3015785476
 20
-63.9503274218
 10
5.3417851853
 20
-63.8886746275
 10
5.3768550075
 20
-63.8199744765
 10
5.4063085144
 20
-63.7447737111
 10
5.4289658144
 20
-63.6648596969
 10
5.4444336101
 20
-63.5808282226
 10
5.4531051988
 20
-63.4920834995
 10
5.4549805805
 20
-63.3986255277
  0
LINE
  5
234
100
AcDbEntity
  8
RACCORDO
100
AcDbLine
 62
250
  6
CONTINUOUS
 10
-4.0
 20
-65.4948091789
 11
-4.8
 21
-65.4974045895
  0
LINE
  5
235
100
AcDbEntity
  8
RACCORDO
100
AcDbLine
 62
250
  6
CONTINUOUS
 10
18.0175255965
 20
-65.8238722918
 11
18.2352182923
 21
-65.8238722918
  0
LINE
  5
236
100
AcDbEntity
  8
RACCORDO
100
AcDbLine
 62
250
  6
CONTINUOUS
 10
-18.0177544711
 20
-65.8238722918
 11
-18.2352182923
 21
-65.8238722918
  0
LINE
  5
237
100
AcDbEntity
  8
RACCORDO
100
AcDbLine
 62
250
  6
CONTINUOUS
 10
18.1092690902
 20
-65.6530246159
 11
18.2352182923
 21
-65.6530246159
  0
LINE
  5
238
100
AcDbEntity
  8
RACCORDO
100
AcDbLine
 62
7
  6
CONTINUOUS
 10
16.4000761524
 20
-65.5
 11
13.0
 21
-65.5
  0
LINE
  5
239
100
AcDbEntity
  8
RACCORDO
100
AcDbLine
 62
7
  6
CONTINUOUS
 10
7.0
 20
-65.5
 11
4.8
 21
-65.5
  0
LINE
  5
23A
100
AcDbEntity
  8
RACCORDO
100
AcDbLine
 62
7
  6
CONTINUOUS
 10
-4.8
 20
-65.5
 11
-7.0
 21
-65.5
  0
LINE
  5
23B
100
AcDbEntity
  8
RACCORDO
100
AcDbLine
 62
7
  6
CONTINUOUS
 10
-13.0
 20
-65.5
 11
-16.4000761524
 21
-65.5
  0
LINE
  5
23C
100
AcDbEntity
  8
DRAFT
100
AcDbLine
 62
7
  6
CONTINUOUS
 10
-4.0
 20
-65.4650898701
 11
4.0
 21
-65.4650898701
  0
LINE
  5
23D
100
AcDbEntity
  8
RACCORDO
100
AcDbLine
 62
250
  6
CONTINUOUS
 10
15.25
 20
-65.4300274238
 11
13.0
 21
-65.4300274238
  0
LINE
  5
23E
100
AcDbEntity
  8
RACCORDO
100
AcDbLine
 62
250
  6
CONTINUOUS
 10
7.0
 20
-65.4300274238
 11
4.8
 21
-65.4300274238
  0
LINE
  5
23F
100
AcDbEntity
  8
RACCORDO
100
AcDbLine
 62
250
  6
CONTINUOUS
 10
4.0
 20
-65.4300274238
 11
-4.0
 21
-65.4300274238
  0
LINE
  5
240
100
AcDbEntity
  8
RACCORDO
100
AcDbLine
 62
250
  6
CONTINUOUS
 10
-4.8
 20
-65.4300274238
 11
-7.0
 21
-65.4300274238
  0
LINE
  5
241
100
AcDbEntity
  8
RACCORDO
100
AcDbLine
 62
250
  6
CONTINUOUS
 10
-13.0
 20
-65.4300274238
 11
-15.25
 21
-65.4300274238
  0
LINE
  5
242
100
AcDbEntity
  8
RACCORDO
100
AcDbLine
 62
250
  6
CONTINUOUS
 10
16.3213760438
 20
-65.4212998914
 11
15.25
 21
-65.4212998914
  0
LINE
  5
243
100
AcDbEntity
  8
RACCORDO
100
AcDbLine
 62
250
  6
CONTINUOUS
 10
-15.25
 20
-65.4212998914
 11
-16.3213760438
 21
-65.4212998914
  0
LINE
  5
244
100
AcDbEntity
  8
0
100
AcDbLine
 62
7
  6
CONTINUOUS
 10
-13.0
 20
-65.2
 11
-7.0
 21
-65.2
  0
LINE
  5
245
100
AcDbEntity
  8
0
100
AcDbLine
 62
7
  6
CONTINUOUS
 10
13.0
 20
-65.2
 11
7.0
 21
-65.2
  0
LINE
  5
246
100
AcDbEntity
  8
RACCORDO
100
AcDbLine
 62
250
  6
CONTINUOUS
 10
4.8
 20
-65.1948548704
 11
4.0
 21
-65.1948548704
  0
LINE
  5
247
100
AcDbEntity
  8
RACCORDO
100
AcDbLine
 62
250
  6
CONTINUOUS
 10
-4.0
 20
-65.1948548704
 11
-4.8
 21
-65.1948548704
  0
LINE
  5
248
100
AcDbEntity
  8
RACCORDO
100
AcDbLine
 62
7
  6
CONTINUOUS
 10
4.8
 20
-65.1214522078
 11
4.0
 21
-65.1214522078
  0
LINE
  5
249
100
AcDbEntity
  8
RACCORDO
100
AcDbLine
 62
7
  6
CONTINUOUS
 10
-4.0
 20
-65.1214522078
 11
-4.8
 21
-65.1214522078
  0
LINE
  5
24A
100
AcDbEntity
  8
RACCORDO
100
AcDbLine
 62
250
  6
CONTINUOUS
 10
15.25
 20
-64.9301035763
 11
13.0
 21
-64.9301035763
  0
LINE
  5
24B
100
AcDbEntity
  8
RACCORDO
100
AcDbLine
 62
250
  6
CONTINUOUS
 10
7.0
 20
-64.9301035763
 11
4.8
 21
-64.9301035763
  0
LINE
  5
24C
100
AcDbEntity
  8
RACCORDO
100
AcDbLine
 62
250
  6
CONTINUOUS
 10
4.0
 20
-64.9301035763
 11
-4.0
 21
-64.9301035763
  0
LINE
  5
24D
100
AcDbEntity
  8
RACCORDO
100
AcDbLine
 62
250
  6
CONTINUOUS
 10
-4.8
 20
-64.9301035763
 11
-7.0
 21
-64.9301035763
  0
LINE
  5
24E
100
AcDbEntity
  8
RACCORDO
100
AcDbLine
 62
250
  6
CONTINUOUS
 10
-13.0
 20
-64.9301035763
 11
-15.25
 21
-64.9301035763
  0
LINE
  5
24F
100
AcDbEntity
  8
RACCORDO
100
AcDbLine
 62
250
  6
CONTINUOUS
 10
16.8127246754
 20
-64.9213760438
 11
15.25
 21
-64.9213760438
  0
LINE
  5
250
100
AcDbEntity
  8
RACCORDO
100
AcDbLine
 62
250
  6
CONTINUOUS
 10
-15.25
 20
-64.9213760438
 11
-16.8127246754
 21
-64.9213760438
  0
LINE
  5
251
100
AcDbEntity
  8
0
100
AcDbLine
 62
7
  6
CONTINUOUS
 10
-13.0
 20
-64.5
 11
-7.0
 21
-64.5
  0
LINE
  5
252
100
AcDbEntity
  8
0
100
AcDbLine
 62
7
  6
CONTINUOUS
 10
13.0
 20
-64.5
 11
7.0
 21
-64.5
  0
LINE
  5
253
100
AcDbEntity
  8
ASSI
100
AcDbLine
 62
7
  6
CONTINUOUS
 10
-12.082165
 20
-64.259524
 11
-12.4134363426
 21
-64.259524
  0
LINE
  5
254
100
AcDbEntity
  8
INCISIONI
100
AcDbLine
 62
7
  6
CONTINUOUS
 10
-6.009011
 20
-64.198626
 11
-5.792857
 21
-64.198626
  0
LINE
  5
255
100
AcDbEntity
  8
INCISIONI
100
AcDbLine
 62
7
  6
CONTINUOUS
 10
-4.683153
 20
-64.198626
 11
-4.460302
 21
-64.198626
  0
LINE
  5
256
100
AcDbEntity
  8
INCISIONI
100
AcDbLine
 62
7
  6
CONTINUOUS
 10
-3.493101
 20
-64.198626
 11
-3.256986
 21
-64.198626
  0
LINE
  5
257
100
AcDbEntity
  8
INCISIONI
100
AcDbLine
 62
7
  6
CONTINUOUS
 10
-2.655391
 20
-64.198626
 11
-2.439236
 21
-64.198626
  0
LINE
  5
258
100
AcDbEntity
  8
INCISIONI
100
AcDbLine
 62
7
  6
CONTINUOUS
 10
-1.672651
 20
-64.198626
 11
-1.440958
 21
-64.198626
  0
LINE
  5
259
100
AcDbEntity
  8
INCISIONI
100
AcDbLine
 62
7
  6
CONTINUOUS
 10
-0.435983
 20
-64.198626
 11
-0.219829
 21
-64.198626
  0
LINE
  5
25A
100
AcDbEntity
  8
INCISIONI
100
AcDbLine
 62
7
  6
CONTINUOUS
 10
1.050317
 20
-64.198626
 11
2.231399
 21
-64.198626
  0
LINE
  5
25B
100
AcDbEntity
  8
INCISIONI
100
AcDbLine
 62
7
  6
CONTINUOUS
 10
2.514384
 20
-64.198626
 11
2.723843
 21
-64.198626
  0
LINE
  5
25C
100
AcDbEntity
  8
INCISIONI
100
AcDbLine
 62
7
  6
CONTINUOUS
 10
3.541719
 20
-64.198626
 11
3.78453
 21
-64.198626
  0
LINE
  5
25D
100
AcDbEntity
  8
INCISIONI
100
AcDbLine
 62
7
  6
CONTINUOUS
 10
4.134344
 20
-64.198626
 11
4.7828057843
 21
-64.198626
  0
LINE
  5
25E
100
AcDbEntity
  8
INCISIONI
100
AcDbLine
 62
7
  6
CONTINUOUS
 10
5.756579
 20
-64.198626
 11
5.988399
 21
-64.198626
  0
LINE
  5
25F
100
AcDbEntity
  8
INCISIONI
100
AcDbLine
 62
7
  6
CONTINUOUS
 10
4.7538776804
 20
-64.013675
 11
4.350499
 21
-64.013675
  0
LINE
  5
260
100
AcDbEntity
  8
INCISIONI
100
AcDbLine
 62
7
  6
CONTINUOUS
 10
2.231399
 20
-64.006979
 11
1.266472
 21
-64.006979
  0
LINE
  5
261
100
AcDbEntity
  8
INCISIONI
100
AcDbLine
 62
7
  6
CONTINUOUS
 10
5.988399
 20
-63.962384
 11
5.756579
 21
-63.962384
  0
LINE
  5
262
100
AcDbEntity
  8
INCISIONI
100
AcDbLine
 62
7
  6
CONTINUOUS
 10
-1.440958
 20
-63.962384
 11
-1.672651
 21
-63.962384
  0
LINE
  5
263
100
AcDbEntity
  8
ASSI
100
AcDbLine
 62
7
  6
CONTINUOUS
 10
-12.4134306713
 20
-63.928243
 11
-12.082169
 21
-63.928243
  0
LINE
  5
264
100
AcDbEntity
  8
INCISIONI
100
AcDbLine
 62
7
  6
CONTINUOUS
 10
-4.293165
 20
-63.732838
 11
-3.651396
 21
-63.732838
  0
LINE
  5
265
100
AcDbEntity
  8
ASSI
100
AcDbLine
 62
7
  6
CONTINUOUS
 10
-12.085953
 20
-63.676391
 11
-12.323586
 21
-63.676388
  0
LINE
  5
266
100
AcDbEntity
  8
ASSI
100
AcDbLine
 62
7
  6
CONTINUOUS
 10
-11.190851
 20
-63.676388
 11
-10.926948
 21
-63.676388
  0
LINE
  5
267
100
AcDbEntity
  8
INCISIONI
100
AcDbLine
 62
7
  6
CONTINUOUS
 10
-3.729469
 20
-63.541192
 11
-4.226335
 21
-63.541192
  0
LINE
  5
268
100
AcDbEntity
  8
INCISIONI
100
AcDbLine
 62
7
  6
CONTINUOUS
 10
-5.792857
 20
-63.523379
 11
-5.2892968847
 21
-63.523379
  0
LINE
  5
269
100
AcDbEntity
  8
INCISIONI
100
AcDbLine
 62
7
  6
CONTINUOUS
 10
-0.219829
 20
-63.523379
 11
0.2837311453
 21
-63.523379
  0
LINE
  5
26A
100
AcDbEntity
  8
INCISIONI
100
AcDbLine
 62
7
  6
CONTINUOUS
 10
1.266472
 20
-63.472214
 11
2.142335
 21
-63.472214
  0
LINE
  5
26B
100
AcDbEntity
  8
ASSI
100
AcDbLine
 62
7
  6
CONTINUOUS
 10
-10.843898
 20
-63.417729
 11
-11.273905
 21
-63.417729
  0
LINE
  5
26C
100
AcDbEntity
  8
INCISIONI
100
AcDbLine
 62
7
  6
CONTINUOUS
 10
0.2191776403
 20
-63.338428
 11
-0.219829
 21
-63.338428
  0
LINE
  5
26D
100
AcDbEntity
  8
INCISIONI
100
AcDbLine
 62
7
  6
CONTINUOUS
 10
-5.3538503897
 20
-63.338428
 11
-5.792857
 21
-63.338428
  0
LINE
  5
26E
100
AcDbEntity
  8
INCISIONI
100
AcDbLine
 62
7
  6
CONTINUOUS
 10
2.142335
 20
-63.280568
 11
1.266472
 21
-63.280568
  0
LINE
  5
26F
100
AcDbEntity
  8
ASSI
100
AcDbLine
 62
7
  6
CONTINUOUS
 10
-11.359858
 20
-63.150007
 11
-11.632133
 21
-63.150003
  0
LINE
  5
270
100
AcDbEntity
  8
ASSI
100
AcDbLine
 62
7
  6
CONTINUOUS
 10
-11.813647
 20
-63.150007
 11
-12.085923
 21
-63.150007
  0
LINE
  5
271
100
AcDbEntity
  8
ASSI
100
AcDbLine
 62
7
  6
CONTINUOUS
 10
-8.972511
 20
-63.150003
 11
-9.244783
 21
-63.150003
  0
LINE
  5
272
100
AcDbEntity
  8
ASSI
100
AcDbLine
 62
7
  6
CONTINUOUS
 10
-10.031884
 20
-63.150003
 11
-10.304157
 21
-63.150003
  0
LINE
  5
273
100
AcDbEntity
  8
ASSI
100
AcDbLine
 62
7
  6
CONTINUOUS
 10
-7.537089
 20
-63.15
 11
-7.809371
 21
-63.150003
  0
LINE
  5
274
100
AcDbEntity
  8
ASSI
100
AcDbLine
 62
7
  6
CONTINUOUS
 10
-8.427974
 20
-63.15
 11
-8.700246
 21
-63.150003
  0
LINE
  5
275
100
AcDbEntity
  8
ASSI
100
AcDbLine
 62
7
  6
CONTINUOUS
 10
-12.596437
 20
-63.150007
 11
-12.90311
 21
-63.15001
  0
LINE
  5
276
100
AcDbEntity
  8
ASSI
100
AcDbLine
 62
7
  6
CONTINUOUS
 10
-9.502199
 20
-63.150003
 11
-9.774464
 21
-63.150007
  0
LINE
  5
277
100
AcDbEntity
  8
ASSI
100
AcDbLine
 62
7
  6
CONTINUOUS
 10
-10.48567
 20
-63.150003
 11
-10.757942
 21
-63.150007
  0
LINE
  5
278
100
AcDbEntity
  8
INCISIONI
100
AcDbLine
 62
7
  6
CONTINUOUS
 10
-3.196852
 20
-62.790272
 11
-2.655391
 21
-62.790272
  0
LINE
  5
279
100
AcDbEntity
  8
INCISIONI
100
AcDbLine
 62
7
  6
CONTINUOUS
 10
-2.439236
 20
-62.790272
 11
-1.897776
 21
-62.790272
  0
LINE
  5
27A
100
AcDbEntity
  8
INCISIONI
100
AcDbLine
 62
7
  6
CONTINUOUS
 10
1.266472
 20
-62.790272
 11
2.21586
 21
-62.790272
  0
LINE
  5
27B
100
AcDbEntity
  8
INCISIONI
100
AcDbLine
 62
7
  6
CONTINUOUS
 10
-5.792857
 20
-62.783576
 11
-5.3538530386
 21
-62.783576
  0
LINE
  5
27C
100
AcDbEntity
  8
INCISIONI
100
AcDbLine
 62
7
  6
CONTINUOUS
 10
-0.219829
 20
-62.783576
 11
0.2191749914
 21
-62.783576
  0
LINE
  5
27D
100
AcDbEntity
  8
INCISIONI
100
AcDbLine
 62
7
  6
CONTINUOUS
 10
4.350499
 20
-62.783576
 11
4.7538773402
 21
-62.783576
  0
LINE
  5
27E
100
AcDbEntity
  8
INCISIONI
100
AcDbLine
 62
7
  6
CONTINUOUS
 10
4.7828113482
 20
-62.598626
 11
4.134344
 21
-62.598626
  0
LINE
  5
27F
100
AcDbEntity
  8
INCISIONI
100
AcDbLine
 62
7
  6
CONTINUOUS
 10
3.78453
 20
-62.598626
 11
3.575071
 21
-62.598626
  0
LINE
  5
280
100
AcDbEntity
  8
INCISIONI
100
AcDbLine
 62
7
  6
CONTINUOUS
 10
2.770712
 20
-62.598626
 11
2.514384
 21
-62.598626
  0
LINE
  5
281
100
AcDbEntity
  8
INCISIONI
100
AcDbLine
 62
7
  6
CONTINUOUS
 10
2.21586
 20
-62.598626
 11
1.050317
 21
-62.598626
  0
LINE
  5
282
100
AcDbEntity
  8
INCISIONI
100
AcDbLine
 62
7
  6
CONTINUOUS
 10
0.2837350638
 20
-62.598626
 11
-0.435983
 21
-62.598626
  0
LINE
  5
283
100
AcDbEntity
  8
INCISIONI
100
AcDbLine
 62
7
  6
CONTINUOUS
 10
-1.897776
 20
-62.598626
 11
-3.196852
 21
-62.598626
  0
LINE
  5
284
100
AcDbEntity
  8
INCISIONI
100
AcDbLine
 62
7
  6
CONTINUOUS
 10
-3.836347
 20
-62.598626
 11
-4.081431
 21
-62.598626
  0
LINE
  5
285
100
AcDbEntity
  8
INCISIONI
100
AcDbLine
 62
7
  6
CONTINUOUS
 10
-5.2892929662
 20
-62.598626
 11
-6.009011
 21
-62.598626
  0
LINE
  5
286
100
AcDbEntity
  8
0
100
AcDbLine
 62
7
  6
CONTINUOUS
 10
-13.0
 20
-62.5
 11
-7.0
 21
-62.5
  0
LINE
  5
287
100
AcDbEntity
  8
0
100
AcDbLine
 62
7
  6
CONTINUOUS
 10
7.0
 20
-62.5
 11
13.0
 21
-62.5
  0
LINE
  5
288
100
AcDbEntity
  8
0
100
AcDbLine
 62
7
  6
CONTINUOUS
 10
15.25
 20
-61.9918713663
 11
-15.25
 21
-61.9918713663
  0
LINE
  5
289
100
AcDbEntity
  8
RACCORDO
100
AcDbLine
 62
250
  6
CONTINUOUS
 10
4.8
 20
-65.4974045895
 11
4.0
 21
-65.4948091789
  0
LWPOLYLINE
  5
28A
100
AcDbEntity
  8
INCISIONI
100
AcDbPolyline
 62
7
  6
CONTINUOUS
 90
13
 70
0
 10
-5.3538530386
 20
-62.783576
 10
-5.3058546347
 20
-62.7844645951
 10
-5.2610061365
 20
-62.7897566785
 10
-5.2193075438
 20
-62.7994522502
 10
-5.1801122373
 20
-62.8136600115
 10
-5.1440668364
 20
-62.8322712611
 10
-5.1131111995
 20
-62.8549598952
 10
-5.0878997177
 20
-62.8821750792
 10
-5.067778
 20
-62.9134676477
 10
-5.0527227316
 20
-62.9471639998
 10
-5.042726141
 20
-62.9827062684
 10
-5.0377959998
 20
-63.0206523205
 10
-5.0379323079
 20
-63.0610021562
  0
LWPOLYLINE
  5
28B
100
AcDbEntity
  8
INCISIONI
100
AcDbPolyline
 62
7
  6
CONTINUOUS
 90
13
 70
0
 10
0.2191749914
 20
-62.783576
 10
0.2671733953
 20
-62.7844645951
 10
0.3120218935
 20
-62.7897566785
 10
0.3537204862
 20
-62.7994522502
 10
0.3929157927
 20
-62.8136600115
 10
0.4289611936
 20
-62.8322712611
 10
0.4599168305
 20
-62.8549598952
 10
0.4851283123
 20
-62.8821750792
 10
0.50525003
 20
-62.9134676477
 10
0.5203052984
 20
-62.9471639998
 10
0.530301889
 20
-62.9827062684
 10
0.5352320302
 20
-63.0206523205
 10
0.5350957221
 20
-63.0610021562
  0
LWPOLYLINE
  5
28C
100
AcDbEntity
  8
INCISIONI
100
AcDbPolyline
 62
7
  6
CONTINUOUS
 90
16
 70
0
 10
4.7538773402
 20
-62.783576
 10
4.8123909862
 20
-62.7866963966
 10
4.8678081831
 20
-62.7956909207
 10
4.920128931
 20
-62.810559572
 10
4.9697022324
 20
-62.8313645692
 10
5.0161790848
 20
-62.8580436937
 10
5.0585124805
 20
-62.8904102903
 10
5.0966400483
 20
-62.9286887005
 10
5.1306241595
 20
-62.9726545828
 10
5.1596049203
 20
-63.0214482577
 10
5.1830773715
 20
-63.0753479455
 10
5.2015464723
 20
-63.1340754258
 10
5.2156672072
 20
-63.1959363583
 10
5.2256579045
 20
-63.2603659627
 10
5.2313002358
 20
-63.3279290191
 10
5.2325942013
 20
-63.3986255277
  0
LINE
  5
28D
100
AcDbEntity
  8
0
100
AcDbLine
 62
7
  6
CONTINUOUS
 10
3.5
 20
-68.430158461
 11
3.6749773271
 21
-68.5
  0
LWPOLYLINE
  5
28E
100
AcDbEntity
  8
RACCORDO
100
AcDbPolyline
 62
250
  6
CONTINUOUS
 90
7
 70
0
 10
-18.2349620356
 20
65.540378131
 10
-18.228584802
 20
65.5466474521
 10
-18.2170207596
 20
65.5528840015
 10
-18.2003303571
 20
65.5590551788
 10
-18.1786008405
 20
65.5651287255
 10
-18.1519457966
 20
65.5710728931
 10
-18.1444558413
 20
65.5724506945
  0
LINE
  5
28F
100
AcDbEntity
  8
0
100
AcDbLine
 62
7
  6
CONTINUOUS
 10
-2.625976
 20
62.721445
 11
-3.569449
 21
62.311826
  0
LINE
  5
290
100
AcDbEntity
  8
0
100
AcDbLine
 62
7
  6
CONTINUOUS
 10
-3.781455
 20
61.506433
 11
-2.834726
 21
61.917466
  0
LINE
  5
291
100
AcDbEntity
  8
0
100
AcDbLine
 62
7
  6
CONTINUOUS
 10
-0.047438
 20
62.721445
 11
-0.967296
 21
62.322079
  0
LINE
  5
292
100
AcDbEntity
  8
0
100
AcDbLine
 62
7
  6
CONTINUOUS
 10
-2.976292
 20
61.37224
 11
-3.937899
 21
60.954748
  0
LINE
  5
293
100
AcDbEntity
  8
RACCORDO
100
AcDbLine
 62
7
  6
CONTINUOUS
 10
-16.878033543
 20
54.8661815732
 11
-16.8965699136
 21
54.8585094503
  0
LINE
  5
294
100
AcDbEntity
  8
RACCORDO
100
AcDbLine
 62
7
  6
CONTINUOUS
 10
-16.8594418566
 20
54.8737214615
 11
-16.878033543
 21
54.8661815732
  0
LINE
  5
295
100
AcDbEntity
  8
0
100
AcDbLine
 62
7
  6
CONTINUOUS
 10
3.5
 20
66.9292441446
 11
3.6749773271
 21
66.9990856836
  0
LINE
  5
296
100
AcDbEntity
  8
RACCORDO
100
AcDbLine
 62
7
  6
CONTINUOUS
 10
-16.840795202
 20
54.8811317874
 11
-16.8594418566
 21
54.8737214615
  0
LWPOLYLINE
  5
297
100
AcDbEntity
  8
RACCORDO
100
AcDbPolyline
 62
7
  6
CONTINUOUS
 90
3
 70
0
 10
-16.8127246754
 20
54.8920237204
 10
-16.8220949699
 20
54.8884232399
 10
-16.840795202
 20
54.8811317874
  0
LWPOLYLINE
  5
298
100
AcDbEntity
  8
ASSI
100
AcDbPolyline
 62
7
  6
CONTINUOUS
 90
16
 70
0
 10
-0.0
 20
-59.1487814009
 10
0.1780807775
 20
-59.1389373675
 10
0.3505345622
 20
-59.1120383323
 10
0.5173613544
 20
-59.0680842953
 10
0.680253215
 20
-59.0062262062
 10
0.8375180829
 20
-58.9273131153
 10
0.9840797747
 20
-58.8338921733
 10
1.1195890566
 20
-58.7254900038
 10
1.2443951624
 20
-58.6025799831
 10
1.3544696102
 20
-58.4691293917
 10
1.4493317208
 20
-58.3247943013
 10
1.5294621733
 20
-58.1699186401
 10
1.5922745231
 20
-58.0095014729
 10
1.637203698
 20
-57.8433619859
 10
1.6648147702
 20
-57.671680993
 10
1.6742165117
 20
-57.5
  0
LWPOLYLINE
  5
299
100
AcDbEntity
  8
ASSI
100
AcDbPolyline
 62
7
  6
CONTINUOUS
 90
18
 70
0
 10
0.121092756
 20
-59.4594819768
 10
-0.083877095
 20
-59.4607766884
 10
-0.2840488607
 20
-59.4433166958
 10
-0.4794225411
 20
-59.4071019992
 10
-0.6717680213
 20
-59.3514453009
 10
-0.8593154162
 20
-59.2770338986
 10
-1.0367550703
 20
-59.1859296851
 10
-1.2038828126
 20
-59.0776066959
 10
-1.360902814
 20
-58.9525908956
 10
-1.5031179313
 20
-58.8145220703
 10
-1.6301040074
 20
-58.6628820247
 10
-1.7422851994
 20
-58.4981889542
 10
-1.8362368352
 20
-58.3256372306
 10
-1.9112863494
 20
-58.145159401
 10
-1.9681063075
 20
-57.9568229184
 10
-2.0052897339
 20
-57.7660245132
 10
-2.0223028631
 20
-57.5726779308
 10
-2.0240248889
 20
-57.4994349778
  0
LINE
  5
29A
100
AcDbEntity
  8
ASSI
100
AcDbLine
 62
7
  6
CONTINUOUS
 10
-0.453932
 20
-58.9260940197
 11
0.458087
 21
-58.9260940197
  0
LINE
  5
29B
100
AcDbEntity
  8
ASSI
100
AcDbLine
 62
7
  6
CONTINUOUS
 10
-0.453932
 20
-58.8913643842
 11
0.458087
 21
-58.8913643842
  0
LINE
  5
29C
100
AcDbEntity
  8
ASSI
100
AcDbLine
 62
7
  6
CONTINUOUS
 10
0.458087
 20
-58.6143592297
 11
0.173343
 21
-58.6143592297
  0
LINE
  5
29D
100
AcDbEntity
  8
ASSI
100
AcDbLine
 62
7
  6
CONTINUOUS
 10
-0.169078
 20
-58.6143592297
 11
-0.453932
 21
-58.6143592297
  0
LWPOLYLINE
  5
29E
100
AcDbEntity
  8
ASSI
100
AcDbPolyline
 62
7
  6
CONTINUOUS
 90
6
 70
0
 10
0.1210927554
 20
-59.424752341
 10
0.2506747606
 20
-59.4422824108
 10
0.3772971392
 20
-59.4683317917
 10
0.5009598913
 20
-59.5029004839
 10
0.6222834333
 20
-59.5462886104
 10
0.7406473487
 20
-59.598196048
  0
LINE
  5
29F
100
AcDbEntity
  8
RACCORDO
100
AcDbLine
 62
7
  6
CONTINUOUS
 10
-16.8127246754
 20
-54.8920237204
 11
-16.8314518121
 21
-54.8847925955
  0
LINE
  5
2A0
100
AcDbEntity
  8
RACCORDO
100
AcDbLine
 62
7
  6
CONTINUOUS
 10
-16.8314518121
 20
-54.8847925955
 11
-16.8501252555
 21
-54.8774417063
  0
LINE
  5
2A1
100
AcDbEntity
  8
0
100
AcDbLine
 62
7
  6
CONTINUOUS
 10
3.5
 20
-66.9292441446
 11
3.6749773271
 21
-66.9990856836
  0
LINE
  5
2A2
100
AcDbEntity
  8
RACCORDO
100
AcDbLine
 62
7
  6
CONTINUOUS
 10
-16.8501252555
 20
-54.8774417063
 11
-16.8687446577
 21
-54.8699683807
  0
LWPOLYLINE
  5
2A3
100
AcDbEntity
  8
RACCORDO
100
AcDbPolyline
 62
7
  6
CONTINUOUS
 90
3
 70
0
 10
-16.8687446577
 20
-54.8699683807
 10
-16.8873086283
 20
-54.8623619297
 10
-16.8965699136
 20
-54.8585094503
  0
LINE
  5
2A4
100
AcDbEntity
  8
0
100
AcDbLine
 62
7
  6
CONTINUOUS
 10
0.93164
 20
60.049265
 11
0.470869
 21
59.849216
  0
LINE
  5
2A5
100
AcDbEntity
  8
0
100
AcDbLine
 62
7
  6
CONTINUOUS
 10
2.241707
 20
60.259892
 11
3.1076443671
 21
60.6358475935
  0
LINE
  5
2A6
100
AcDbEntity
  8
0
100
AcDbLine
 62
7
  6
CONTINUOUS
 10
0.3560736002
 20
59.4412252606
 11
1.785395
 21
60.06178
  0
LINE
  5
2A7
100
AcDbEntity
  8
0
100
AcDbLine
 62
7
  6
CONTINUOUS
 10
1.651139
 20
59.544709
 11
0.710596808
 21
59.1363629166
  0
LINE
  5
2A8
100
AcDbEntity
  8
0
100
AcDbLine
 62
7
  6
CONTINUOUS
 10
3.511277
 20
60.352307
 11
2.107451
 21
59.742821
  0
LINE
  5
2A9
100
AcDbEntity
  8
0
100
AcDbLine
 62
7
  6
CONTINUOUS
 10
2.966078
 20
59.7955
 11
3.417604
 21
59.991534
  0
LWPOLYLINE
  5
2AA
100
AcDbEntity
  8
0
100
AcDbPolyline
 62
7
  6
CONTINUOUS
 90
4
 70
0
 10
-3.8653940381
 20
-53.7375598698
 10
-3.7914414117
 20
-53.726741093
 10
-3.7215005032
 20
-53.7086910824
 10
-3.6553722739
 20
-53.6833129523
  0
LWPOLYLINE
  5
2AB
100
AcDbEntity
  8
ASSI
100
AcDbPolyline
 62
7
  6
CONTINUOUS
 90
16
 70
0
 10
-0.0
 20
-55.8512185991
 10
-0.1780807775
 20
-55.8610626325
 10
-0.3505345622
 20
-55.8879616677
 10
-0.5173613544
 20
-55.9319157047
 10
-0.680253215
 20
-55.9937737938
 10
-0.8375180829
 20
-56.0726868847
 10
-0.9840797747
 20
-56.1661078267
 10
-1.1195890566
 20
-56.2745099962
 10
-1.2443951624
 20
-56.3974200169
 10
-1.3544696102
 20
-56.5308706083
 10
-1.4493317208
 20
-56.6752056987
 10
-1.5294621733
 20
-56.8300813599
 10
-1.5922745231
 20
-56.9904985271
 10
-1.637203698
 20
-57.1566380141
 10
-1.6648147702
 20
-57.328319007
 10
-1.6742165117
 20
-57.5
  0
LWPOLYLINE
  5
2AC
100
AcDbEntity
  8
0
100
AcDbPolyline
 62
7
  6
CONTINUOUS
 90
16
 70
0
 10
-3.9433583825
 20
-53.7758770483
 10
-3.8650305303
 20
-53.7722581157
 10
-3.7907499541
 20
-53.7613349653
 10
-3.7205166538
 20
-53.743107597
 10
-3.6541192777
 20
-53.7174702497
 10
-3.5917691775
 20
-53.6845286845
 10
-3.5341004084
 20
-53.6446001853
 10
-3.4808783172
 20
-53.597616984
 10
-3.432337557
 20
-53.5436468487
 10
-3.3898161431
 20
-53.4832103665
 10
-3.3534879667
 20
-53.4159565983
 10
-3.3231791366
 20
-53.3422364832
 10
-3.2997059931
 20
-53.2636234255
 10
-3.2833406498
 20
-53.180641893
 10
-3.2738109932
 20
-53.0927674179
 10
-3.2709438427
 20
-53.0187885287
  0
LINE
  5
2AD
100
AcDbEntity
  8
0
100
AcDbLine
 62
7
  6
CONTINUOUS
 10
-3.9433583825
 20
-53.7411474128
 11
-3.8653940381
 21
-53.7375598698
  0
LINE
  5
2AE
100
AcDbEntity
  8
ASSI
100
AcDbLine
 62
7
  6
CONTINUOUS
 10
-0.443435
 20
-56.3996356525
 11
-0.169078
 21
-56.3996356525
  0
LINE
  5
2AF
100
AcDbEntity
  8
ASSI
100
AcDbLine
 62
7
  6
CONTINUOUS
 10
0.173343
 20
-56.3996356525
 11
0.44759
 21
-56.3996356525
  0
LINE
  5
2B0
100
AcDbEntity
  8
ASSI
100
AcDbLine
 62
7
  6
CONTINUOUS
 10
-0.443435
 20
-56.364906017
 11
-0.169078
 21
-56.364906017
  0
LINE
  5
2B1
100
AcDbEntity
  8
ASSI
100
AcDbLine
 62
7
  6
CONTINUOUS
 10
0.173343
 20
-56.364906017
 11
0.44759
 21
-56.364906017
  0
LINE
  5
2B2
100
AcDbEntity
  8
ASSI
100
AcDbLine
 62
7
  6
CONTINUOUS
 10
0.44759
 20
-56.0861861743
 11
-0.443435
 21
-56.0861861743
  0
LINE
  5
2B3
100
AcDbEntity
  8
0
100
AcDbLine
 62
7
  6
CONTINUOUS
 10
-7.95236
 20
-53.7758770483
 11
-7.742898
 21
-53.7758770483
  0
LINE
  5
2B4
100
AcDbEntity
  8
0
100
AcDbLine
 62
7
  6
CONTINUOUS
 10
-7.292721
 20
-53.7758770483
 11
-7.078784
 21
-53.7758770483
  0
LINE
  5
2B5
100
AcDbEntity
  8
0
100
AcDbLine
 62
7
  6
CONTINUOUS
 10
-6.628693
 20
-53.7758770483
 11
-6.419147
 21
-53.7758770483
  0
LINE
  5
2B6
100
AcDbEntity
  8
0
100
AcDbLine
 62
7
  6
CONTINUOUS
 10
-6.227496
 20
-53.7758770483
 11
-6.004673
 21
-53.7758770483
  0
LINE
  5
2B7
100
AcDbEntity
  8
0
100
AcDbLine
 62
7
  6
CONTINUOUS
 10
-5.037557
 20
-53.7758770483
 11
-4.801316
 21
-53.7758770483
  0
LINE
  5
2B8
100
AcDbEntity
  8
0
100
AcDbLine
 62
7
  6
CONTINUOUS
 10
-4.59186
 20
-53.7758770483
 11
-3.9433583825
 21
-53.7758770483
  0
LINE
  5
2B9
100
AcDbEntity
  8
0
100
AcDbLine
 62
7
  6
CONTINUOUS
 10
-2.971738
 20
-53.7758770483
 11
-1.790598
 21
-53.7758770483
  0
LINE
  5
2BA
100
AcDbEntity
  8
0
100
AcDbLine
 62
7
  6
CONTINUOUS
 10
-0.854614
 20
-53.7758770483
 11
-0.638469
 21
-53.7758770483
  0
LINE
  5
2BB
100
AcDbEntity
  8
0
100
AcDbLine
 62
7
  6
CONTINUOUS
 10
-0.268599
 20
-53.7758770483
 11
-0.05904
 21
-53.7758770483
  0
LINE
  5
2BC
100
AcDbEntity
  8
0
100
AcDbLine
 62
7
  6
CONTINUOUS
 10
0.758817
 20
-53.7758770483
 11
1.001709
 21
-53.7758770483
  0
LINE
  5
2BD
100
AcDbEntity
  8
0
100
AcDbLine
 62
7
  6
CONTINUOUS
 10
1.993334
 20
-53.7758770483
 11
2.209544
 21
-53.7758770483
  0
LINE
  5
2BE
100
AcDbEntity
  8
0
100
AcDbLine
 62
7
  6
CONTINUOUS
 10
2.982837
 20
-53.7758770483
 11
3.198969
 21
-53.7758770483
  0
LINE
  5
2BF
100
AcDbEntity
  8
0
100
AcDbLine
 62
7
  6
CONTINUOUS
 10
3.802893
 20
-53.7758770483
 11
4.025703
 21
-53.7758770483
  0
LINE
  5
2C0
100
AcDbEntity
  8
0
100
AcDbLine
 62
7
  6
CONTINUOUS
 10
4.99291
 20
-53.7758770483
 11
5.22919
 21
-53.7758770483
  0
LINE
  5
2C1
100
AcDbEntity
  8
0
100
AcDbLine
 62
7
  6
CONTINUOUS
 10
5.427427
 20
-53.7758770483
 11
6.454843
 21
-53.7758770483
  0
LINE
  5
2C2
100
AcDbEntity
  8
0
100
AcDbLine
 62
7
  6
CONTINUOUS
 10
7.132239
 20
-53.7758770483
 11
7.348333
 21
-53.7758770483
  0
LINE
  5
2C3
100
AcDbEntity
  8
0
100
AcDbLine
 62
7
  6
CONTINUOUS
 10
-7.95236
 20
-53.7411474128
 11
-7.742898
 21
-53.7411474128
  0
LINE
  5
2C4
100
AcDbEntity
  8
0
100
AcDbLine
 62
7
  6
CONTINUOUS
 10
-7.292721
 20
-53.7411474128
 11
-7.078784
 21
-53.7411474128
  0
LINE
  5
2C5
100
AcDbEntity
  8
0
100
AcDbLine
 62
7
  6
CONTINUOUS
 10
-6.628693
 20
-53.7411474128
 11
-6.419147
 21
-53.7411474128
  0
LINE
  5
2C6
100
AcDbEntity
  8
0
100
AcDbLine
 62
7
  6
CONTINUOUS
 10
-6.227496
 20
-53.7411474128
 11
-6.004673
 21
-53.7411474128
  0
LINE
  5
2C7
100
AcDbEntity
  8
0
100
AcDbLine
 62
7
  6
CONTINUOUS
 10
-5.037557
 20
-53.7411474128
 11
-4.801316
 21
-53.7411474128
  0
LINE
  5
2C8
100
AcDbEntity
  8
0
100
AcDbLine
 62
7
  6
CONTINUOUS
 10
-4.59186
 20
-53.7411474128
 11
-3.9433583825
 21
-53.7411474128
  0
LINE
  5
2C9
100
AcDbEntity
  8
0
100
AcDbLine
 62
7
  6
CONTINUOUS
 10
-2.971738
 20
-53.7411474128
 11
-1.790598
 21
-53.7411474128
  0
LINE
  5
2CA
100
AcDbEntity
  8
0
100
AcDbLine
 62
7
  6
CONTINUOUS
 10
-0.854614
 20
-53.7411474128
 11
-0.638469
 21
-53.7411474128
  0
LINE
  5
2CB
100
AcDbEntity
  8
0
100
AcDbLine
 62
7
  6
CONTINUOUS
 10
-0.268599
 20
-53.7411474128
 11
-0.05904
 21
-53.7411474128
  0
LINE
  5
2CC
100
AcDbEntity
  8
0
100
AcDbLine
 62
7
  6
CONTINUOUS
 10
0.758817
 20
-53.7411474128
 11
1.001709
 21
-53.7411474128
  0
LINE
  5
2CD
100
AcDbEntity
  8
0
100
AcDbLine
 62
7
  6
CONTINUOUS
 10
1.993334
 20
-53.7411474128
 11
2.209544
 21
-53.7411474128
  0
LINE
  5
2CE
100
AcDbEntity
  8
0
100
AcDbLine
 62
7
  6
CONTINUOUS
 10
2.982837
 20
-53.7411474128
 11
3.198969
 21
-53.7411474128
  0
LINE
  5
2CF
100
AcDbEntity
  8
0
100
AcDbLine
 62
7
  6
CONTINUOUS
 10
3.802893
 20
-53.7411474128
 11
4.025703
 21
-53.7411474128
  0
LINE
  5
2D0
100
AcDbEntity
  8
0
100
AcDbLine
 62
7
  6
CONTINUOUS
 10
4.99291
 20
-53.7411474128
 11
5.22919
 21
-53.7411474128
  0
LINE
  5
2D1
100
AcDbEntity
  8
0
100
AcDbLine
 62
7
  6
CONTINUOUS
 10
5.427427
 20
-53.7411474128
 11
6.454843
 21
-53.7411474128
  0
LINE
  5
2D2
100
AcDbEntity
  8
0
100
AcDbLine
 62
7
  6
CONTINUOUS
 10
7.132239
 20
-53.7411474128
 11
7.348333
 21
-53.7411474128
  0
LINE
  5
2D3
100
AcDbEntity
  8
0
100
AcDbLine
 62
7
  6
CONTINUOUS
 10
-3.9488592827
 20
-53.5965437369
 11
-4.375637
 21
-53.5965437369
  0
LINE
  5
2D4
100
AcDbEntity
  8
0
100
AcDbLine
 62
7
  6
CONTINUOUS
 10
6.454843
 20
-53.5900176411
 11
5.64365
 21
-53.5900176411
  0
LINE
  5
2D5
100
AcDbEntity
  8
0
100
AcDbLine
 62
7
  6
CONTINUOUS
 10
-1.790598
 20
-53.5900176411
 11
-2.755528
 21
-53.5900176411
  0
LINE
  5
2D6
100
AcDbEntity
  8
0
100
AcDbLine
 62
7
  6
CONTINUOUS
 10
-5.837518
 20
-53.3242176819
 11
-5.195758
 21
-53.3242176819
  0
LINE
  5
2D7
100
AcDbEntity
  8
0
100
AcDbLine
 62
7
  6
CONTINUOUS
 10
4.192871
 20
-53.3242176819
 11
4.834696
 21
-53.3242176819
  0
LINE
  5
2D8
100
AcDbEntity
  8
0
100
AcDbLine
 62
7
  6
CONTINUOUS
 10
-5.837518
 20
-53.2894880463
 11
-5.195758
 21
-53.2894880463
  0
LINE
  5
2D9
100
AcDbEntity
  8
0
100
AcDbLine
 62
7
  6
CONTINUOUS
 10
4.192871
 20
-53.2894880463
 11
4.834696
 21
-53.2894880463
  0
LINE
  5
2DA
100
AcDbEntity
  8
0
100
AcDbLine
 62
7
  6
CONTINUOUS
 10
4.756682
 20
-53.1383592445
 11
4.259731
 21
-53.1383592445
  0
LINE
  5
2DB
100
AcDbEntity
  8
0
100
AcDbLine
 62
7
  6
CONTINUOUS
 10
-5.273694
 20
-53.1383592445
 11
-5.770645
 21
-53.1383592445
  0
LINE
  5
2DC
100
AcDbEntity
  8
0
100
AcDbLine
 62
7
  6
CONTINUOUS
 10
-2.755528
 20
-53.0713438343
 11
-1.879753
 21
-53.0713438343
  0
LINE
  5
2DD
100
AcDbEntity
  8
0
100
AcDbLine
 62
7
  6
CONTINUOUS
 10
-2.755528
 20
-53.0366141988
 11
-1.879753
 21
-53.0366141988
  0
LINE
  5
2DE
100
AcDbEntity
  8
DRAFT
100
AcDbLine
 62
7
  6
CONTINUOUS
 10
16.8127246754
 20
-52.9409741574
 11
15.25
 21
-52.9409741574
  0
LINE
  5
2DF
100
AcDbEntity
  8
DRAFT
100
AcDbLine
 62
7
  6
CONTINUOUS
 10
-15.25
 20
-52.9409741574
 11
-16.8127246754
 21
-52.9409741574
  0
LINE
  5
2E0
100
AcDbEntity
  8
0
100
AcDbLine
 62
7
  6
CONTINUOUS
 10
-1.879753
 20
-52.8854853969
 11
-2.755528
 21
-52.8854853969
  0
LINE
  5
2E1
100
AcDbEntity
  8
0
100
AcDbLine
 62
7
  6
CONTINUOUS
 10
-2.755528
 20
-52.4099823589
 11
-1.806216
 21
-52.4099823589
  0
LINE
  5
2E2
100
AcDbEntity
  8
0
100
AcDbLine
 62
7
  6
CONTINUOUS
 10
2.441308
 20
-52.4099823589
 11
2.982837
 21
-52.4099823589
  0
LINE
  5
2E3
100
AcDbEntity
  8
0
100
AcDbLine
 62
7
  6
CONTINUOUS
 10
3.198969
 20
-52.4099823589
 11
3.740498
 21
-52.4099823589
  0
LINE
  5
2E4
100
AcDbEntity
  8
0
100
AcDbLine
 62
7
  6
CONTINUOUS
 10
-4.375637
 20
-52.4034562631
 11
-3.948859267
 21
-52.4034562631
  0
LINE
  5
2E5
100
AcDbEntity
  8
0
100
AcDbLine
 62
7
  6
CONTINUOUS
 10
-2.755528
 20
-52.3752527234
 11
-1.806216
 21
-52.3752527234
  0
LINE
  5
2E6
100
AcDbEntity
  8
0
100
AcDbLine
 62
7
  6
CONTINUOUS
 10
2.441308
 20
-52.3752527234
 11
2.982837
 21
-52.3752527234
  0
LINE
  5
2E7
100
AcDbEntity
  8
0
100
AcDbLine
 62
7
  6
CONTINUOUS
 10
3.198969
 20
-52.3752527234
 11
3.740498
 21
-52.3752527234
  0
LINE
  5
2E8
100
AcDbEntity
  8
0
100
AcDbLine
 62
7
  6
CONTINUOUS
 10
-4.375637
 20
-52.3687266276
 11
-3.9488592829
 21
-52.3687266276
  0
LINE
  5
2E9
100
AcDbEntity
  8
0
100
AcDbLine
 62
7
  6
CONTINUOUS
 10
7.95236
 20
-52.2241229517
 11
7.698224
 21
-52.2241229517
  0
LINE
  5
2EA
100
AcDbEntity
  8
0
100
AcDbLine
 62
7
  6
CONTINUOUS
 10
6.780148
 20
-52.2241229517
 11
6.528341
 21
-52.2241229517
  0
LINE
  5
2EB
100
AcDbEntity
  8
0
100
AcDbLine
 62
7
  6
CONTINUOUS
 10
5.64365
 20
-52.2241229517
 11
5.427427
 21
-52.2241229517
  0
LINE
  5
2EC
100
AcDbEntity
  8
0
100
AcDbLine
 62
7
  6
CONTINUOUS
 10
4.649709
 20
-52.2241229517
 11
4.404617
 21
-52.2241229517
  0
LINE
  5
2ED
100
AcDbEntity
  8
0
100
AcDbLine
 62
7
  6
CONTINUOUS
 10
3.740498
 20
-52.2241229517
 11
2.441308
 21
-52.2241229517
  0
LINE
  5
2EE
100
AcDbEntity
  8
0
100
AcDbLine
 62
7
  6
CONTINUOUS
 10
2.209544
 20
-52.2241229517
 11
1.993334
 21
-52.2241229517
  0
LINE
  5
2EF
100
AcDbEntity
  8
0
100
AcDbLine
 62
7
  6
CONTINUOUS
 10
1.001709
 20
-52.2241229517
 11
0.792253
 21
-52.2241229517
  0
LINE
  5
2F0
100
AcDbEntity
  8
0
100
AcDbLine
 62
7
  6
CONTINUOUS
 10
-0.012275
 20
-52.2241229517
 11
-0.268599
 21
-52.2241229517
  0
LINE
  5
2F1
100
AcDbEntity
  8
0
100
AcDbLine
 62
7
  6
CONTINUOUS
 10
-0.638469
 20
-52.2241229517
 11
-0.854614
 21
-52.2241229517
  0
LINE
  5
2F2
100
AcDbEntity
  8
0
100
AcDbLine
 62
7
  6
CONTINUOUS
 10
-1.806216
 20
-52.2241229517
 11
-2.971738
 21
-52.2241229517
  0
LINE
  5
2F3
100
AcDbEntity
  8
0
100
AcDbLine
 62
7
  6
CONTINUOUS
 10
-3.9365555446
 20
-52.2241229517
 11
-4.59186
 21
-52.2241229517
  0
LINE
  5
2F4
100
AcDbEntity
  8
0
100
AcDbLine
 62
7
  6
CONTINUOUS
 10
-5.38068
 20
-52.2241229517
 11
-5.625849
 21
-52.2241229517
  0
LINE
  5
2F5
100
AcDbEntity
  8
0
100
AcDbLine
 62
7
  6
CONTINUOUS
 10
-6.419147
 20
-52.2241229517
 11
-6.726711
 21
-52.2241229517
  0
LINE
  5
2F6
100
AcDbEntity
  8
0
100
AcDbLine
 62
7
  6
CONTINUOUS
 10
-7.642597
 20
-52.2241229517
 11
-7.95236
 21
-52.2241229517
  0
LWPOLYLINE
  5
2F7
100
AcDbEntity
  8
ASSI
100
AcDbPolyline
 62
7
  6
CONTINUOUS
 90
8
 70
0
 10
-0.0
 20
-55.8164889636
 10
0.1985459141
 20
-55.8288697252
 10
0.3894178378
 20
-55.862014287
 10
0.5726157713
 20
-55.9159226487
 10
0.750389179
 20
-55.991873809
 10
0.9204885964
 20
-56.0885887692
 10
1.0761656296
 20
-56.2022305344
 10
1.2168404279
 20
-56.3334796453
  0
LWPOLYLINE
  5
2F8
100
AcDbEntity
  8
0
100
AcDbPolyline
 62
7
  6
CONTINUOUS
 90
16
 70
0
 10
-3.9488592829
 20
-52.3687266276
 10
-3.8928682535
 20
-52.373531766
 10
-3.8399638906
 20
-52.3838412826
 10
-3.7901461943
 20
-52.3996551774
 10
-3.743138004
 20
-52.4211094016
 10
-3.6992164803
 20
-52.448068004
 10
-3.6592131047
 20
-52.4801231306
 10
-3.6231503711
 20
-52.5173443997
 10
-3.5910057857
 20
-52.5596621929
 10
-3.5635433485
 20
-52.6064598016
 10
-3.5412064156
 20
-52.6580804632
 10
-3.523551631
 20
-52.7141809402
 10
-3.5100129274
 20
-52.7731148109
 10
-3.5004016157
 20
-52.8343332683
 10
-3.4949063851
 20
-52.8983851195
 10
-3.4932101226
 20
-52.9777121266
  0
LWPOLYLINE
  5
2F9
100
AcDbEntity
  8
0
100
AcDbPolyline
 62
7
  6
CONTINUOUS
 90
12
 70
0
 10
-3.948859267
 20
-52.4034562631
 10
-3.8791719525
 20
-52.4104574902
 10
-3.8145320528
 20
-52.4258975847
 10
-3.7549395678
 20
-52.4497765467
 10
-3.6997788513
 20
-52.4823680892
 10
-3.6496655496
 20
-52.5233984991
 10
-3.6064466017
 20
-52.5720466377
 10
-3.5708147276
 20
-52.6288634399
 10
-3.5420772073
 20
-52.6932979708
 10
-3.5200028201
 20
-52.7628762866
 10
-3.5045144922
 20
-52.8367737394
 10
-3.4956892973
 20
-52.9158149772
  0
LWPOLYLINE
  5
2FA
100
AcDbEntity
  8
ASSI
100
AcDbPolyline
 62
7
  6
CONTINUOUS
 90
10
 70
0
 10
0.7611136875
 20
-59.3189216621
 10
0.8315705511
 20
-59.3489028116
 10
0.9003509895
 20
-59.3816252537
 10
0.9674550029
 20
-59.4170889887
 10
1.0329978192
 20
-59.4553757581
 10
1.0968642103
 20
-59.4964038202
 10
1.1587084924
 20
-59.5399279501
 10
1.2184154374
 20
-59.5858664059
 10
1.2761002732
 20
-59.6343009295
 10
1.331763
 20
-59.6852315207
  0
LWPOLYLINE
  5
2FB
100
AcDbEntity
  8
ASSI
100
AcDbPolyline
 62
7
  6
CONTINUOUS
 90
5
 70
0
 10
0.7406473487
 20
-59.598196048
 10
0.854190388
 20
-59.6577224277
 10
0.9622921348
 20
-59.7245676265
 10
1.0655730054
 20
-59.7990317674
 10
1.164033
 20
-59.8811148504
  0
LINE
  5
2FC
100
AcDbEntity
  8
0
100
AcDbLine
 62
7
  6
CONTINUOUS
 10
15.25
 20
-51.5
 11
-15.25
 21
-51.5
  0
LINE
  5
2FD
100
AcDbEntity
  8
0
100
AcDbLine
 62
7
  6
CONTINUOUS
 10
15.25
 20
-51.0
 11
-15.25
 21
-51.0
  0
LINE
  5
2FE
100
AcDbEntity
  8
RACCORDO
100
AcDbLine
 62
250
  6
CONTINUOUS
 10
12.7177651569
 20
-50.9436669539
 11
13.2177651569
 21
-50.943666954
  0
LINE
  5
2FF
100
AcDbEntity
  8
RACCORDO
100
AcDbLine
 62
250
  6
CONTINUOUS
 10
-12.7177651569
 20
-50.7
 11
-13.2177651567
 21
-50.7000000001
  0
LWPOLYLINE
  5
300
100
AcDbEntity
  8
ASSI
100
AcDbPolyline
 62
7
  6
CONTINUOUS
 90
12
 70
0
 10
-0.7441780971
 20
-58.7859058129
 10
-0.8785787118
 20
-58.7029253991
 10
-1.0012588239
 20
-58.6094011901
 10
-1.1122184334
 20
-58.505333186
 10
-1.2123850191
 20
-58.3893633145
 10
-1.3008311021
 20
-58.2628496478
 10
-1.374774246
 20
-58.1298664032
 10
-1.4336820483
 20
-57.9902442565
 10
-1.4780869115
 20
-57.8441525318
 10
-1.5068036055
 20
-57.6961734185
 10
-1.5193918463
 20
-57.5463103082
 10
-1.5204122825
 20
-57.4987408318
  0
LINE
  5
301
100
AcDbEntity
  8
RACCORDO
100
AcDbLine
 62
250
  6
CONTINUOUS
 10
17.2365887576
 20
66.8232631188
 11
17.5004566591
 21
66.9990856836
  0
LINE
  5
302
100
AcDbEntity
  8
RACCORDO
100
AcDbLine
 62
250
  6
CONTINUOUS
 10
18.2352182923
 20
65.8238722918
 11
18.5
 21
66.0003037511
  0
LINE
  5
303
100
AcDbEntity
  8
RACCORDO
100
AcDbLine
 62
7
  6
CONTINUOUS
 10
16.878033543
 20
54.1338184268
 11
16.8965699136
 21
54.1414905497
  0
LINE
  5
304
100
AcDbEntity
  8
RACCORDO
100
AcDbLine
 62
7
  6
CONTINUOUS
 10
16.8594418566
 20
54.1262785385
 11
16.878033543
 21
54.1338184268
  0
LINE
  5
305
100
AcDbEntity
  8
RACCORDO
100
AcDbLine
 62
7
  6
CONTINUOUS
 10
16.840795202
 20
54.1188682126
 11
16.8594418566
 21
54.1262785385
  0
LWPOLYLINE
  5
306
100
AcDbEntity
  8
RACCORDO
100
AcDbPolyline
 62
7
  6
CONTINUOUS
 90
3
 70
0
 10
16.8127246754
 20
54.1079762796
 10
16.8220949699
 20
54.1115767601
 10
16.840795202
 20
54.1188682126
  0
LINE
  5
307
100
AcDbEntity
  8
DRAFT
100
AcDbLine
 62
7
  6
CONTINUOUS
 10
16.8057426494
 20
-45.5664150497
 11
15.25
 21
-45.5664150497
  0
LINE
  5
308
100
AcDbEntity
  8
DRAFT
100
AcDbLine
 62
7
  6
CONTINUOUS
 10
-15.25
 20
-45.5664150497
 11
-16.8057426494
 21
-45.5664150497
  0
LINE
  5
309
100
AcDbEntity
  8
RACCORDO
100
AcDbLine
 62
7
  6
CONTINUOUS
 10
16.8127246754
 20
-54.1079762796
 11
16.8314518121
 21
-54.1152074045
  0
LINE
  5
30A
100
AcDbEntity
  8
RACCORDO
100
AcDbLine
 62
7
  6
CONTINUOUS
 10
16.8314518121
 20
-54.1152074045
 11
16.8501252555
 21
-54.1225582937
  0
LINE
  5
30B
100
AcDbEntity
  8
RACCORDO
100
AcDbLine
 62
7
  6
CONTINUOUS
 10
16.8501252555
 20
-54.1225582937
 11
16.8687446577
 21
-54.1300316193
  0
LWPOLYLINE
  5
30C
100
AcDbEntity
  8
RACCORDO
100
AcDbPolyline
 62
7
  6
CONTINUOUS
 90
3
 70
0
 10
16.8687446577
 20
-54.1300316193
 10
16.8873086283
 20
-54.1376380703
 10
16.8965699136
 20
-54.1414905497
  0
LINE
  5
30D
100
AcDbEntity
  8
RACCORDO
100
AcDbLine
 62
250
  6
CONTINUOUS
 10
17.5004566591
 20
-66.9990856836
 11
17.2365887576
 21
-66.8232631188
  0
LINE
  5
30E
100
AcDbEntity
  8
RACCORDO
100
AcDbLine
 62
250
  6
CONTINUOUS
 10
18.5
 20
-66.0003037511
 11
18.2352182923
 21
-65.8238722918
  0
LINE
  5
30F
100
AcDbEntity
  8
ASSI
100
AcDbLine
 62
7
  6
CONTINUOUS
 10
-1.033356
 20
-56.8744074264
 11
-0.169078
 21
-57.5807784992
  0
LINE
  5
310
100
AcDbEntity
  8
ASSI
100
AcDbLine
 62
7
  6
CONTINUOUS
 10
-1.033356
 20
-56.8396777909
 11
-0.169078
 21
-57.5460488637
  0
LINE
  5
311
100
AcDbEntity
  8
ASSI
100
AcDbLine
 62
7
  6
CONTINUOUS
 10
-0.169078
 20
-57.1944586485
 11
-1.073249
 21
-56.4554832825
  0
LWPOLYLINE
  5
312
100
AcDbEntity
  8
ASSI
100
AcDbPolyline
 62
7
  6
CONTINUOUS
 90
10
 70
0
 10
1.164033
 20
-59.915844486
 10
1.0655015367
 20
-59.8337274163
 10
0.9621939719
 20
-59.7592480294
 10
0.8541103058
 20
-59.6924063251
 10
0.7406659984
 20
-59.6329158389
 10
0.6224455895
 20
-59.5810630353
 10
0.5012026989
 20
-59.537707308
 10
0.3775218664
 20
-59.5031351214
 10
0.2508185521
 20
-59.477060011
 10
0.121092756
 20
-59.4594819768
  0
LWPOLYLINE
  5
313
100
AcDbEntity
  8
ASSI
100
AcDbPolyline
 62
7
  6
CONTINUOUS
 90
9
 70
0
 10
1.0752015271
 20
-56.457374052
 10
1.1809179818
 20
-56.5718880018
 10
1.2725648765
 20
-56.6934421247
 10
1.3501422111
 20
-56.8220364206
 10
1.4141685451
 20
-56.9591732996
 10
1.464125319
 20
-57.1033503517
 10
1.4984568546
 20
-57.2500603467
 10
1.5166404311
 20
-57.3993434374
 10
1.5204132799
 20
-57.498799405
  0
LINE
  5
314
100
AcDbEntity
  8
ASSI
100
AcDbLine
 62
7
  6
CONTINUOUS
 10
-12.90311
 20
-63.15001
 11
-12.6132897647
 21
-63.709131454
  0
LINE
  5
315
100
AcDbEntity
  8
ASSI
100
AcDbLine
 62
7
  6
CONTINUOUS
 10
-12.323586
 20
-63.676388
 11
-12.596437
 21
-63.150007
  0
LINE
  5
316
100
AcDbEntity
  8
RACCORDO
100
AcDbLine
 62
250
  6
CONTINUOUS
 10
16.3213760438
 20
65.4212998914
 11
16.4000761524
 21
65.5
  0
LINE
  5
317
100
AcDbEntity
  8
RACCORDO
100
AcDbLine
 62
250
  6
CONTINUOUS
 10
16.8127246754
 20
64.9128008278
 11
16.9
 21
65.0000761524
  0
LINE
  5
318
100
AcDbEntity
  8
RACCORDO
100
AcDbLine
 62
250
  6
CONTINUOUS
 10
16.4000761524
 20
-65.5
 11
16.3213760438
 21
-65.4212998914
  0
LINE
  5
319
100
AcDbEntity
  8
RACCORDO
100
AcDbLine
 62
250
  6
CONTINUOUS
 10
16.9
 20
-65.0000761524
 11
16.8127246754
 21
-64.9128008278
  0
LINE
  5
31A
100
AcDbEntity
  8
ASSI
100
AcDbLine
 62
7
  6
CONTINUOUS
 10
1.2168404279
 20
-56.3334796453
 11
1.343092842
 21
-56.481655561
  0
LWPOLYLINE
  5
31B
100
AcDbEntity
  8
RACCORDO
100
AcDbPolyline
 62
7
  6
CONTINUOUS
 90
8
 70
0
 10
-12.6496647259
 20
-51.0
 10
-12.65798367
 20
-50.9829066944
 10
-12.6769447604
 20
-50.9354182659
 10
-12.6923881276
 20
-50.8866770005
 10
-12.7042249109
 20
-50.8369398953
 10
-12.7123994943
 20
-50.7864628148
 10
-12.7168608259
 20
-50.7355050142
 10
-12.7177590164
 20
-50.7000000004
  0
LWPOLYLINE
  5
31C
100
AcDbEntity
  8
0
100
AcDbPolyline
 62
7
  6
CONTINUOUS
 90
12
 70
0
 10
-2.5711974052
 20
61.0858344394
 10
-2.5434822515
 20
61.1379136838
 10
-2.5096444728
 20
61.1848078855
 10
-2.4696840691
 20
61.2265170444
 10
-2.42286529
 20
61.2632822986
 10
-2.3699238859
 20
61.2948625099
 10
-2.3130671075
 20
61.3205342649
 10
-2.2525138139
 20
61.3391971806
 10
-2.1880451461
 20
61.3519516398
 10
-2.1212117777
 20
61.3613753778
 10
-2.0525305997
 20
61.3683276397
 10
-1.981484721
 20
61.3719491805
  0
LWPOLYLINE
  5
31D
100
AcDbEntity
  8
0
100
AcDbPolyline
 62
7
  6
CONTINUOUS
 90
19
 70
0
 10
-0.0226387191
 20
61.1261002303
 10
-0.0029651814
 20
61.1596055333
 10
0.0191075571
 20
61.1899210319
 10
0.0435794964
 20
61.2170467261
 10
0.0711046391
 20
61.2407650355
 10
0.1010289826
 20
61.2612935405
 10
0.131390519
 20
61.2792849831
 10
0.1619298081
 20
61.2946576186
 10
0.1929062902
 20
61.3074931915
 10
0.2231362777
 20
61.3186896773
 10
0.2522733822
 20
61.3282992277
 10
0.2806639922
 20
61.3362696909
 10
0.3081635859
 20
61.3433425865
 10
0.3347029914
 20
61.349623387
 10
0.3603513805
 20
61.35500662
 10
0.3851717479
 20
61.3599173876
 10
0.4091850917
 20
61.3644973905
 10
0.4323704136
 20
61.368604928
 10
0.4547277137
 20
61.37224
  0
LINE
  5
31E
100
AcDbEntity
  8
RACCORDO
100
AcDbLine
 62
250
  6
CONTINUOUS
 10
14.2494845932
 20
-31.0965491012
 11
14.3
 21
-31.0965491012
  0
LINE
  5
31F
100
AcDbEntity
  8
RACCORDO
100
AcDbLine
 62
250
  6
CONTINUOUS
 10
-14.2494845932
 20
-31.0965491012
 11
-14.3
 21
-31.0965491012
  0
LINE
  5
320
100
AcDbEntity
  8
0
100
AcDbLine
 62
7
  6
CONTINUOUS
 10
-0.05904
 20
-52.5156674812
 11
0.758817
 21
-53.7758770483
  0
LINE
  5
321
100
AcDbEntity
  8
0
100
AcDbLine
 62
7
  6
CONTINUOUS
 10
-0.05904
 20
-52.4809378457
 11
0.758817
 21
-53.7411474128
  0
LINE
  5
322
100
AcDbEntity
  8
0
100
AcDbLine
 62
7
  6
CONTINUOUS
 10
0.792253
 20
-53.4845885582
 11
-0.012275
 21
-52.2241229517
  0
LINE
  5
323
100
AcDbEntity
  8
INCISIONI
100
AcDbLine
 62
7
  6
CONTINUOUS
 10
2.723843
 20
-62.899093
 11
3.541719
 21
-64.198626
  0
LINE
  5
324
100
AcDbEntity
  8
INCISIONI
100
AcDbLine
 62
7
  6
CONTINUOUS
 10
3.575071
 20
-63.898277
 11
2.770712
 21
-62.598626
  0
LINE
  5
325
100
AcDbEntity
  8
ASSI
100
AcDbLine
 62
7
  6
CONTINUOUS
 10
0.596221
 20
-58.5302425195
 11
0.744178
 21
-58.7859056451
  0
LINE
  5
326
100
AcDbEntity
  8
ASSI
100
AcDbLine
 62
7
  6
CONTINUOUS
 10
0.6130875495
 20
-58.5246575324
 11
0.744178
 21
-58.7511760096
  0
LINE
  5
327
100
AcDbEntity
  8
ASSI
100
AcDbLine
 62
7
  6
CONTINUOUS
 10
-11.632133
 20
-63.150003
 11
-11.198693777
 21
-64.5
  0
LINE
  5
328
100
AcDbEntity
  8
ASSI
100
AcDbLine
 62
7
  6
CONTINUOUS
 10
-11.058897
 20
-64.08738
 11
-11.190851
 21
-63.676388
  0
LINE
  5
329
100
AcDbEntity
  8
ASSI
100
AcDbLine
 62
7
  6
CONTINUOUS
 10
-11.273905
 20
-63.417729
 11
-11.359858
 21
-63.150007
  0
LWPOLYLINE
  5
32A
100
AcDbEntity
  8
RACCORDO
100
AcDbPolyline
 62
7
  6
CONTINUOUS
 90
16
 70
0
 10
-16.8127246754
 20
-64.9213760438
 10
-16.8056289939
 20
-64.9862398662
 10
-16.7931372429
 20
-65.0476481091
 10
-16.7752494224
 20
-65.1048115475
 10
-16.7511511466
 20
-65.1569772764
 10
-16.7216568013
 20
-65.2040207378
 10
-16.6892095438
 20
-65.2462936422
 10
-16.6541439618
 20
-65.283650255
 10
-16.6161254677
 20
-65.3160798724
 10
-16.5765934551
 20
-65.3440376758
 10
-16.5356247679
 20
-65.3675834606
 10
-16.4931425622
 20
-65.3866726447
 10
-16.4503557007
 20
-65.4014778419
 10
-16.4076671376
 20
-65.412105353
 10
-16.3646739186
 20
-65.4186573214
 10
-16.3213760438
 20
-65.4212998914
  0
LWPOLYLINE
  5
32B
100
AcDbEntity
  8
RACCORDO
100
AcDbPolyline
 62
250
  6
CONTINUOUS
 90
7
 70
0
 10
-13.1793122485
 20
51.0
 10
-13.1846600827
 20
50.9798112326
 10
-13.1965636112
 20
50.9244548277
 10
-13.2058320687
 20
50.8687589645
 10
-13.2124448357
 20
50.8128454347
 10
-13.2164225318
 20
50.7565924465
 10
-13.2177651569
 20
50.7
  0
LWPOLYLINE
  5
32C
100
AcDbEntity
  8
0
100
AcDbPolyline
 62
7
  6
CONTINUOUS
 90
19
 70
0
 10
0.3560736002
 20
59.4412252606
 10
0.3409387306
 20
59.410859905
 10
0.3300588297
 20
59.3798156553
 10
0.3234338974
 20
59.3480925115
 10
0.3219185066
 20
59.3151109042
 10
0.3246580844
 20
59.2814504029
 10
0.3290889125
 20
59.248849716
 10
0.3343101008
 20
59.2176015829
 10
0.3412225393
 20
59.1874132643
 10
0.34996518
 20
59.1591452508
 10
0.3607796115
 20
59.1330580406
 10
0.3734242452
 20
59.1088911355
 10
0.3873132681
 20
59.0867235313
 10
0.4025248653
 20
59.0667440965
 10
0.4189808515
 20
59.0487639626
 10
0.4358608584
 20
59.0322955201
 10
0.4530442726
 20
59.0173613122
 10
0.4706517074
 20
59.0039387958
 10
0.5054810376
 20
58.9792501619
  0
LINE
  5
32D
100
AcDbEntity
  8
RACCORDO
100
AcDbLine
 62
7
  6
CONTINUOUS
 10
-16.8764983111
 20
18.3668095669
 11
-16.8965699136
 21
18.3585094503
  0
LINE
  5
32E
100
AcDbEntity
  8
RACCORDO
100
AcDbLine
 62
7
  6
CONTINUOUS
 10
-16.8563619371
 20
18.3749557098
 11
-16.8764983111
 21
18.3668095669
  0
LINE
  5
32F
100
AcDbEntity
  8
RACCORDO
100
AcDbLine
 62
7
  6
CONTINUOUS
 10
-16.8361612236
 20
18.3829512148
 11
-16.8563619371
 21
18.3749557098
  0
LWPOLYLINE
  5
330
100
AcDbEntity
  8
RACCORDO
100
AcDbPolyline
 62
7
  6
CONTINUOUS
 90
3
 70
0
 10
-16.8057426494
 20
18.394686211
 10
-16.8158978989
 20
18.3908094253
 10
-16.8361612236
 20
18.3829512148
  0
LINE
  5
331
100
AcDbEntity
  8
RACCORDO
100
AcDbLine
 62
7
  6
CONTINUOUS
 10
-16.8057426494
 20
-18.394686211
 11
-16.8260374236
 21
-18.3868977598
  0
LINE
  5
332
100
AcDbEntity
  8
RACCORDO
100
AcDbLine
 62
7
  6
CONTINUOUS
 10
-16.8260374236
 20
-18.3868977598
 11
-16.8462694427
 21
-18.3789709021
  0
LINE
  5
333
100
AcDbEntity
  8
RACCORDO
100
AcDbLine
 62
7
  6
CONTINUOUS
 10
-16.8462694427
 20
-18.3789709021
 11
-16.8664382746
 21
-18.370902302
  0
LWPOLYLINE
  5
334
100
AcDbEntity
  8
RACCORDO
100
AcDbPolyline
 62
7
  6
CONTINUOUS
 90
3
 70
0
 10
-16.8664382746
 20
-18.370902302
 10
-16.8865421908
 20
-18.3626786163
 10
-16.8965699136
 20
-18.3585094503
  0
LINE
  5
335
100
AcDbEntity
  8
0
100
AcDbLine
 62
7
  6
CONTINUOUS
 10
-4.801316
 20
-53.7758770483
 11
-5.38068
 21
-52.2241229517
  0
LINE
  5
336
100
AcDbEntity
  8
INCISIONI
100
AcDbLine
 62
7
  6
CONTINUOUS
 10
-3.256986
 20
-64.198626
 11
-3.836347
 21
-62.598626
  0
LINE
  5
337
100
AcDbEntity
  8
0
100
AcDbLine
 62
7
  6
CONTINUOUS
 10
-7.183554
 20
-53.5423661823
 11
-7.642597
 21
-52.2241229517
  0
LINE
  5
338
100
AcDbEntity
  8
0
100
AcDbLine
 62
7
  6
CONTINUOUS
 10
-7.742898
 20
-52.4747380272
 11
-7.292721
 21
-53.7758770483
  0
LINE
  5
339
100
AcDbEntity
  8
0
100
AcDbLine
 62
7
  6
CONTINUOUS
 10
-7.742898
 20
-52.4400083917
 11
-7.7321666225
 21
-52.4710251117
  0
LINE
  5
33A
100
AcDbEntity
  8
INCISIONI
100
AcDbLine
 62
7
  6
CONTINUOUS
 10
-3.651396
 20
-63.732838
 11
-3.493101
 21
-64.198626
  0
LINE
  5
33B
100
AcDbEntity
  8
INCISIONI
100
AcDbLine
 62
7
  6
CONTINUOUS
 10
-3.967832
 20
-62.830692
 11
-3.729469
 21
-63.541192
  0
LINE
  5
33C
100
AcDbEntity
  8
ASSI
100
AcDbLine
 62
7
  6
CONTINUOUS
 10
-7.673234
 20
-63.573997
 11
-7.3759274647
 21
-64.5
  0
LINE
  5
33D
100
AcDbEntity
  8
ASSI
100
AcDbLine
 62
7
  6
CONTINUOUS
 10
-7.1036514704
 20
-64.5
 11
-7.537089
 21
-63.15
  0
LINE
  5
33E
100
AcDbEntity
  8
ASSI
100
AcDbLine
 62
7
  6
CONTINUOUS
 10
-9.638333
 20
-63.624801
 11
-9.3873741498
 21
-64.5
  0
LINE
  5
33F
100
AcDbEntity
  8
ASSI
100
AcDbLine
 62
7
  6
CONTINUOUS
 10
-9.244783
 20
-64.047735
 11
-9.502199
 21
-63.150003
  0
LINE
  5
340
100
AcDbEntity
  8
RACCORDO
100
AcDbLine
 62
7
  6
CONTINUOUS
 10
-20.0
 20
67.8004264211
 11
-20.0
 21
-67.8004264211
  0
LINE
  5
341
100
AcDbEntity
  8
RACCORDO
100
AcDbLine
 62
7
  6
CONTINUOUS
 10
-18.5
 20
66.0003037511
 11
-18.5
 21
-66.0003037511
  0
LWPOLYLINE
  5
342
100
AcDbEntity
  8
RACCORDO
100
AcDbPolyline
 62
250
  6
CONTINUOUS
 90
22
 70
0
 10
-18.2352182923
 20
65.8238722918
 10
-18.2322962593
 20
65.8984703058
 10
-18.2238187622
 20
65.9726521067
 10
-18.2098331005
 20
66.0460038034
 10
-18.1904173059
 20
66.1181161366
 10
-18.1656797073
 20
66.1885867616
 10
-18.1357583259
 20
66.2570224936
 10
-18.1008201054
 20
66.3230415016
 10
-18.0610599808
 20
66.3862754379
 10
-18.0166997901
 20
66.4463714945
 10
-17.9679870372
 20
66.5029943704
 10
-17.9151935107
 20
66.5558281434
 10
-17.8586137676
 20
66.6045780318
 10
-17.7985634896
 20
66.6489720399
 10
-17.7353777221
 20
66.6887624752
 10
-17.6694090045
 20
66.7237273303
 10
-17.6010254038
 20
66.7536715219
 10
-17.5306084603
 20
66.7784279789
 10
-17.4585510592
 20
66.7978585749
 10
-17.3852552385
 20
66.8118548984
 10
-17.3111299461
 20
66.8203388582
 10
-17.2365887576
 20
66.8232631188
  0
LWPOLYLINE
  5
343
100
AcDbEntity
  8
RACCORDO
100
AcDbPolyline
 62
7
  6
CONTINUOUS
 90
8
 70
0
 10
-12.6645603931
 20
50.9675424898
 10
-12.6643289276
 20
50.9693507701
 10
-12.666038029
 20
50.9733246254
 10
-12.6704265141
 20
50.9783201174
 10
-12.6774393346
 20
50.9843864273
 10
-12.6870354807
 20
50.9914988728
 10
-12.6991931375
 20
50.999554684
 10
-12.6999218108
 20
51.0
  0
LINE
  5
344
100
AcDbEntity
  8
0
100
AcDbLine
 62
7
  6
CONTINUOUS
 10
-3.937899
 20
60.954748
 11
-4.538471
 21
58.673223
  0
LINE
  5
345
100
AcDbEntity
  8
0
100
AcDbLine
 62
7
  6
CONTINUOUS
 10
-3.781455
 20
61.506433
 11
-3.569449
 21
62.311826
  0
LINE
  5
346
100
AcDbEntity
  8
0
100
AcDbLine
 62
7
  6
CONTINUOUS
 10
-4.169977
 20
57.8578391459
 11
-4.788994
 21
55.9879386053
  0
LINE
  5
347
100
AcDbEntity
  8
0
100
AcDbLine
 62
7
  6
CONTINUOUS
 10
-4.50898
 20
55.1421472762
 11
-3.609949
 21
57.8578391459
  0
LINE
  5
348
100
AcDbEntity
  8
0
100
AcDbLine
 62
7
  6
CONTINUOUS
 10
6.528341
 20
-52.2241229517
 11
7.132239
 21
-53.1512853561
  0
LINE
  5
349
100
AcDbEntity
  8
0
100
AcDbLine
 62
7
  6
CONTINUOUS
 10
6.5442236751
 20
-52.2137779294
 11
7.132239
 21
-53.1165557206
  0
LINE
  5
34A
100
AcDbEntity
  8
0
100
AcDbLine
 62
7
  6
CONTINUOUS
 10
7.239251
 20
-52.9698183828
 11
6.780148
 21
-52.2241229517
  0
LINE
  5
34B
100
AcDbEntity
  8
0
100
AcDbLine
 62
7
  6
CONTINUOUS
 10
-5.195758
 20
-53.3242176819
 11
-5.037557
 21
-53.7758770483
  0
LINE
  5
34C
100
AcDbEntity
  8
0
100
AcDbLine
 62
7
  6
CONTINUOUS
 10
-5.51207
 20
-52.4492029437
 11
-5.273694
 21
-53.1383592445
  0
LWPOLYLINE
  5
34D
100
AcDbEntity
  8
RACCORDO
100
AcDbPolyline
 62
250
  6
CONTINUOUS
 90
7
 70
0
 10
-13.2177651569
 20
-50.7
 10
-13.2163878033
 20
-50.7573407804
 10
-13.2123042482
 20
-50.8143334451
 10
-13.2055144917
 20
-50.8709779943
 10
-13.1959956811
 20
-50.9274051789
 10
-13.183770669
 20
-50.983484248
 10
-13.1793349317
 20
-51.0
  0
LINE
  5
34E
100
AcDbEntity
  8
RACCORDO
100
AcDbLine
 62
250
  6
CONTINUOUS
 10
-14.2233168998
 20
-51.0
 11
-14.2351118651
 21
-45.8588151735
  0
LINE
  5
34F
100
AcDbEntity
  8
RACCORDO
100
AcDbLine
 62
250
  6
CONTINUOUS
 10
-14.2351118651
 20
-45.8588151735
 11
-14.2425723986
 21
-41.3342420329
  0
LINE
  5
350
100
AcDbEntity
  8
RACCORDO
100
AcDbLine
 62
250
  6
CONTINUOUS
 10
-14.2425723986
 20
-41.3342420329
 11
-14.2472688163
 21
-36.8917397316
  0
LINE
  5
351
100
AcDbEntity
  8
RACCORDO
100
AcDbLine
 62
250
  6
CONTINUOUS
 10
-18.2352182923
 20
65.6530246159
 11
-18.2339353451
 21
65.3096166647
  0
LINE
  5
352
100
AcDbEntity
  8
RACCORDO
100
AcDbLine
 62
7
  6
CONTINUOUS
 10
-18.3
 20
64.801218346
 11
-18.3
 21
-64.801218346
  0
LINE
  5
353
100
AcDbEntity
  8
RACCORDO
100
AcDbLine
 62
250
  6
CONTINUOUS
 10
-18.2352182923
 20
65.8238722918
 11
-18.2352182923
 21
65.6530246159
  0
LINE
  5
354
100
AcDbEntity
  8
RACCORDO
100
AcDbLine
 62
250
  6
CONTINUOUS
 10
-17.2365887576
 20
66.8232631188
 11
-17.2365887576
 21
66.5674332967
  0
LINE
  5
355
100
AcDbEntity
  8
RACCORDO
100
AcDbLine
 62
250
  6
CONTINUOUS
 10
-17.2365887576
 20
-66.5667047889
 11
-17.2365887576
 21
-66.8232631188
  0
LINE
  5
356
100
AcDbEntity
  8
RACCORDO
100
AcDbLine
 62
7
  6
CONTINUOUS
 10
-16.8127246754
 20
-64.9128008278
 11
-16.8127246754
 21
-54.8920237204
  0
LINE
  5
357
100
AcDbEntity
  8
DRAFT
100
AcDbLine
 62
7
  6
CONTINUOUS
 10
-16.8127246754
 20
-54.1079762796
 11
-16.8127246754
 21
-52.9409741574
  0
LINE
  5
358
100
AcDbEntity
  8
DRAFT
100
AcDbLine
 62
7
  6
CONTINUOUS
 10
-16.8127246754
 20
52.9409741574
 11
-16.8127246754
 21
54.1079762796
  0
LINE
  5
359
100
AcDbEntity
  8
RACCORDO
100
AcDbLine
 62
7
  6
CONTINUOUS
 10
-16.8127246754
 20
54.8920237204
 11
-16.8127246754
 21
64.9128008278
  0
LINE
  5
35A
100
AcDbEntity
  8
DRAFT
100
AcDbLine
 62
7
  6
CONTINUOUS
 10
-16.8057426494
 20
-45.5664150497
 11
-16.8057426494
 21
-18.394686211
  0
LINE
  5
35B
100
AcDbEntity
  8
DRAFT
100
AcDbLine
 62
7
  6
CONTINUOUS
 10
-16.8057426494
 20
-17.605313789
 11
-16.8057426494
 21
17.605313789
  0
LINE
  5
35C
100
AcDbEntity
  8
DRAFT
100
AcDbLine
 62
7
  6
CONTINUOUS
 10
-16.8057426494
 20
18.394686211
 11
-16.8057426494
 21
45.5664150497
  0
LINE
  5
35D
100
AcDbEntity
  8
RACCORDO
100
AcDbLine
 62
7
  6
CONTINUOUS
 10
-15.25
 20
-65.4300274238
 11
-15.25
 21
-61.9918713663
  0
LINE
  5
35E
100
AcDbEntity
  8
0
100
AcDbLine
 62
7
  6
CONTINUOUS
 10
-15.25
 20
-6.0
 11
-15.25
 21
-61.9918713663
  0
LINE
  5
35F
100
AcDbEntity
  8
RACCORDO
100
AcDbLine
 62
7
  6
CONTINUOUS
 10
-15.25
 20
-6.0
 11
-15.25
 21
6.0
  0
LINE
  5
360
100
AcDbEntity
  8
0
100
AcDbLine
 62
7
  6
CONTINUOUS
 10
-15.25
 20
6.0
 11
-15.25
 21
61.9918713663
  0
LINE
  5
361
100
AcDbEntity
  8
RACCORDO
100
AcDbLine
 62
7
  6
CONTINUOUS
 10
-15.25
 20
61.9918713663
 11
-15.25
 21
65.4300274238
  0
LINE
  5
362
100
AcDbEntity
  8
RACCORDO
100
AcDbLine
 62
250
  6
CONTINUOUS
 10
-14.7342182639
 20
66.8232631188
 11
-14.7342182639
 21
66.8
  0
LINE
  5
363
100
AcDbEntity
  8
0
100
AcDbLine
 62
7
  6
CONTINUOUS
 10
-14.3
 20
51.0
 11
-14.3
 21
6.0
  0
LINE
  5
364
100
AcDbEntity
  8
0
100
AcDbLine
 62
7
  6
CONTINUOUS
 10
-14.3
 20
-6.0
 11
-14.3
 21
-51.0
  0
LINE
  5
365
100
AcDbEntity
  8
RACCORDO
100
AcDbLine
 62
250
  6
CONTINUOUS
 10
-14.2472688163
 20
-36.8917397316
 11
-14.2494845932
 21
-31.0965491012
  0
LINE
  5
366
100
AcDbEntity
  8
RACCORDO
100
AcDbLine
 62
250
  6
CONTINUOUS
 10
-14.1347654776
 20
51.0
 11
-14.1347654776
 21
6.0
  0
LINE
  5
367
100
AcDbEntity
  8
RACCORDO
100
AcDbLine
 62
250
  6
CONTINUOUS
 10
-14.1347654776
 20
-6.0
 11
-14.1347654776
 21
-51.0
  0
LINE
  5
368
100
AcDbEntity
  8
RACCORDO
100
AcDbLine
 62
7
  6
CONTINUOUS
 10
-16.9
 20
-65.0000761524
 11
-16.9
 21
65.0000761524
  0
LINE
  5
369
100
AcDbEntity
  8
RACCORDO
100
AcDbLine
 62
250
  6
CONTINUOUS
 10
-14.2494845932
 20
-31.0965491012
 11
-14.2482470626
 21
35.4292329519
  0
LINE
  5
36A
100
AcDbEntity
  8
RACCORDO
100
AcDbLine
 62
250
  6
CONTINUOUS
 10
-14.2482470626
 20
35.4292329519
 11
-14.2444394012
 21
39.8443366297
  0
LINE
  5
36B
100
AcDbEntity
  8
RACCORDO
100
AcDbLine
 62
250
  6
CONTINUOUS
 10
-14.2444394012
 20
39.8443366297
 11
-14.2379166499
 21
44.3415936324
  0
LINE
  5
36C
100
AcDbEntity
  8
RACCORDO
100
AcDbLine
 62
250
  6
CONTINUOUS
 10
-14.2379166499
 20
44.3415936324
 11
-14.2285306844
 21
48.9207041318
  0
LINE
  5
36D
100
AcDbEntity
  8
RACCORDO
100
AcDbLine
 62
250
  6
CONTINUOUS
 10
-14.2285306844
 20
48.9207041318
 11
-14.2233169017
 21
51.0
  0
LINE
  5
36E
100
AcDbEntity
  8
RACCORDO
100
AcDbLine
 62
250
  6
CONTINUOUS
 10
-18.2339687865
 20
-65.3066637516
 11
-18.2352182923
 21
-65.8238722918
  0
LINE
  5
36F
100
AcDbEntity
  8
RACCORDO
100
AcDbLine
 62
7
  6
CONTINUOUS
 10
-16.899646913
 20
54.6739903683
 11
-16.8990936125
 21
54.7617399051
  0
LINE
  5
370
100
AcDbEntity
  8
RACCORDO
100
AcDbLine
 62
7
  6
CONTINUOUS
 10
-16.8996468787
 20
18.1739995927
 11
-16.8990935982
 21
18.2617419821
  0
LINE
  5
371
100
AcDbEntity
  8
RACCORDO
100
AcDbLine
 62
7
  6
CONTINUOUS
 10
-16.8996468869
 20
-17.8260026133
 11
-16.8990936016
 21
-17.7382585148
  0
LINE
  5
372
100
AcDbEntity
  8
RACCORDO
100
AcDbLine
 62
7
  6
CONTINUOUS
 10
-16.8996469163
 20
-54.3260105167
 11
-16.8990936139
 21
-54.2382602941
  0
LWPOLYLINE
  5
373
100
AcDbEntity
  8
RACCORDO
100
AcDbPolyline
 62
7
  6
CONTINUOUS
 90
7
 70
0
 10
-16.8990936125
 20
54.7617399051
 10
-16.8985167964
 20
54.8073131044
 10
-16.8981656907
 20
54.8255254348
 10
-16.8977935776
 20
54.8398388213
 10
-16.897406697
 20
54.8499613081
 10
-16.896998809
 20
54.8561848511
 10
-16.8965699136
 20
54.8585094503
  0
LWPOLYLINE
  5
374
100
AcDbEntity
  8
RACCORDO
100
AcDbPolyline
 62
7
  6
CONTINUOUS
 90
7
 70
0
 10
-16.8990935982
 20
18.2617419821
 10
-16.8985167923
 20
18.3073130025
 10
-16.8981656835
 20
18.325525533
 10
-16.8977935688
 20
18.3398391008
 10
-16.8974066897
 20
18.3499615133
 10
-16.8969988046
 20
18.3561849631
 10
-16.8965699136
 20
18.3585094503
  0
LWPOLYLINE
  5
375
100
AcDbEntity
  8
RACCORDO
100
AcDbPolyline
 62
7
  6
CONTINUOUS
 90
7
 70
0
 10
-16.8990936016
 20
-17.7382585148
 10
-16.8985167933
 20
-17.6926869732
 10
-16.8981656852
 20
-17.6744744906
 10
-16.8977935709
 20
-17.6601609661
 10
-16.8974066914
 20
-17.6500385358
 10
-16.8969988056
 20
-17.6438150637
 10
-16.8965699136
 20
-17.6414905497
  0
LWPOLYLINE
  5
376
100
AcDbEntity
  8
RACCORDO
100
AcDbPolyline
 62
7
  6
CONTINUOUS
 90
7
 70
0
 10
-16.8990936139
 20
-54.2382602941
 10
-16.8985167968
 20
-54.1926868858
 10
-16.8981656914
 20
-54.1744745746
 10
-16.8977935785
 20
-54.1601612055
 10
-16.8974066977
 20
-54.1500387115
 10
-16.8969988094
 20
-54.1438151596
 10
-16.8965699136
 20
-54.1414905497
  0
LWPOLYLINE
  5
377
100
AcDbEntity
  8
RACCORDO
100
AcDbPolyline
 62
7
  6
CONTINUOUS
 90
7
 70
0
 10
-12.7177590113
 20
50.7000000003
 10
-12.7169566773
 20
50.7335611642
 10
-12.7130619973
 20
50.7809698455
 10
-12.7059501503
 20
50.8279975519
 10
-12.6956600776
 20
50.8744340752
 10
-12.6822328676
 20
50.9200698741
 10
-12.6645939
 20
50.967461225
  0
LINE
  5
378
100
AcDbEntity
  8
0
100
AcDbLine
 62
7
  6
CONTINUOUS
 10
-3.677082
 20
58.673223
 11
-2.976292
 21
61.37224
  0
LINE
  5
379
100
AcDbEntity
  8
0
100
AcDbLine
 62
7
  6
CONTINUOUS
 10
-2.834726
 20
61.917466
 11
-2.625976
 21
62.721445
  0
LINE
  5
37A
100
AcDbEntity
  8
0
100
AcDbLine
 62
7
  6
CONTINUOUS
 10
-2.5711974052
 20
61.0858344394
 11
-3.053367
 21
59.228809
  0
LINE
  5
37B
100
AcDbEntity
  8
0
100
AcDbLine
 62
7
  6
CONTINUOUS
 10
-2.225755
 20
59.252172
 11
-1.7836867824
 21
60.954748838
  0
LINE
  5
37C
100
AcDbEntity
  8
0
100
AcDbLine
 62
7
  6
CONTINUOUS
 10
-1.314124
 20
61.089171
 11
-1.8674867378
 21
58.95795301
  0
LINE
  5
37D
100
AcDbEntity
  8
0
100
AcDbLine
 62
7
  6
CONTINUOUS
 10
-1.098544
 20
58.673223
 11
-0.047438
 21
62.721445
  0
LINE
  5
37E
100
AcDbEntity
  8
0
100
AcDbLine
 62
7
  6
CONTINUOUS
 10
-0.0226387191
 20
61.1261002303
 11
-0.543191
 21
59.121247
  0
LINE
  5
37F
100
AcDbEntity
  8
0
100
AcDbLine
 62
7
  6
CONTINUOUS
 10
0.470869
 20
59.849216
 11
0.7437065145
 21
60.9000231302
  0
LINE
  5
380
100
AcDbEntity
  8
0
100
AcDbLine
 62
7
  6
CONTINUOUS
 10
1.199639
 20
61.081433
 11
0.93164
 21
60.049265
  0
LINE
  5
381
100
AcDbEntity
  8
0
100
AcDbLine
 62
7
  6
CONTINUOUS
 10
-1.225051
 20
61.37224
 11
-0.967296
 21
62.322079
  0
LINE
  5
382
100
AcDbEntity
  8
0
100
AcDbLine
 62
7
  6
CONTINUOUS
 10
-0.224196
 20
57.8578391459
 11
-0.747089
 21
56.0892836654
  0
LINE
  5
383
100
AcDbEntity
  8
0
100
AcDbLine
 62
7
  6
CONTINUOUS
 10
-0.467089
 20
55.1421540651
 11
0.062377
 21
56.9329636391
  0
LWPOLYLINE
  5
384
100
AcDbEntity
  8
0
100
AcDbPolyline
 62
7
  6
CONTINUOUS
 90
7
 70
0
 10
0.6786706558
 20
59.0166506171
 10
0.6847939816
 20
59.0351743403
 10
0.6889536069
 20
59.0551369282
 10
0.6933896867
 20
59.0753553799
 10
0.6988489393
 20
59.0954353617
 10
0.7045846464
 20
59.1157712073
 10
0.710596808
 20
59.1363629166
  0
LINE
  5
385
100
AcDbEntity
  8
0
100
AcDbLine
 62
7
  6
CONTINUOUS
 10
1.894767
 20
57.8578459349
 11
0.99575
 21
55.1421472762
  0
LINE
  5
386
100
AcDbEntity
  8
0
100
AcDbLine
 62
7
  6
CONTINUOUS
 10
1.555771
 20
55.1421540651
 11
1.73257
 21
55.6762115741
  0
LINE
  5
387
100
AcDbEntity
  8
0
100
AcDbLine
 62
7
  6
CONTINUOUS
 10
1.903391
 20
56.192190178
 11
2.174788
 21
57.0120478168
  0
LINE
  5
388
100
AcDbEntity
  8
0
100
AcDbLine
 62
7
  6
CONTINUOUS
 10
5.22919
 20
-53.7758770483
 11
4.649709
 21
-52.2241229517
  0
LWPOLYLINE
  5
389
100
AcDbEntity
  8
RACCORDO
100
AcDbPolyline
 62
250
  6
CONTINUOUS
 90
3
 70
0
 10
-12.7152346797
 20
6.4063357625
 10
-12.71303221
 20
6.386172139
 10
-12.7076230829
 20
6.3511394969
  0
LWPOLYLINE
  5
38A
100
AcDbEntity
  8
0
100
AcDbPolyline
 62
7
  6
CONTINUOUS
 90
15
 70
0
 10
-3.273802273
 20
-52.9070737314
 10
-3.2833456836
 20
-52.8190645871
 10
-3.2997472549
 20
-52.7359725671
 10
-3.3233286149
 20
-52.6572380623
 10
-3.3537681357
 20
-52.5834206818
 10
-3.3901009337
 20
-52.5161992525
 10
-3.4324767764
 20
-52.4560133289
 10
-3.4807458961
 20
-52.4024233566
 10
-3.5334941062
 20
-52.3557894994
 10
-3.5904226163
 20
-52.3161822618
 10
-3.6518302167
 20
-52.2835311394
 10
-3.7171990913
 20
-52.2579847822
 10
-3.7863566348
 20
-52.2395927402
 10
-3.8594754526
 20
-52.2283054633
 10
-3.9365555446
 20
-52.2241229517
  0
LINE
  5
38B
100
AcDbEntity
  8
RACCORDO
100
AcDbLine
 62
7
  6
CONTINUOUS
 10
-12.7152346797
 20
6.4063357625
 11
-12.7156425637
 21
6.4108742265
  0
LINE
  5
38C
100
AcDbEntity
  8
RACCORDO
100
AcDbLine
 62
7
  6
CONTINUOUS
 10
-12.7156425637
 20
6.4108742265
 11
-12.7173426847
 21
6.4384380214
  0
LWPOLYLINE
  5
38D
100
AcDbEntity
  8
RACCORDO
100
AcDbPolyline
 62
250
  6
CONTINUOUS
 90
9
 70
0
 10
-13.2177651569
 20
6.4608770167
 10
-13.2152388979
 20
6.3904023127
 10
-13.2086479796
 20
6.3218353135
 10
-13.197992402
 20
6.2551760189
 10
-13.1830651584
 20
6.1901613006
 10
-13.1640732555
 20
6.127054287
 10
-13.141637713
 20
6.0666443637
 10
-13.1156593905
 20
6.0089798362
 10
-13.1108528284
 20
6.0
  0
LINE
  5
38E
100
AcDbEntity
  8
RACCORDO
100
AcDbLine
 62
7
  6
CONTINUOUS
 10
-12.7173426847
 20
6.4384380214
 11
-12.7177667207
 21
6.4608770372
  0
LINE
  5
38F
100
AcDbEntity
  8
RACCORDO
100
AcDbLine
 62
250
  6
CONTINUOUS
 10
-13.5300588064
 20
-66.8
 11
-13.530058806
 21
-66.8407235036
  0
LINE
  5
390
100
AcDbEntity
  8
RACCORDO
100
AcDbLine
 62
250
  6
CONTINUOUS
 10
-13.5300588062
 20
66.8
 11
-13.530058806
 21
66.8407235036
  0
LINE
  5
391
100
AcDbEntity
  8
RACCORDO
100
AcDbLine
 62
250
  6
CONTINUOUS
 10
-13.4357248033
 20
51.0
 11
-13.4357248033
 21
6.0
  0
LINE
  5
392
100
AcDbEntity
  8
RACCORDO
100
AcDbLine
 62
250
  6
CONTINUOUS
 10
-13.4357248033
 20
-6.0
 11
-13.4357248033
 21
-51.0
  0
LINE
  5
393
100
AcDbEntity
  8
RACCORDO
100
AcDbLine
 62
250
  6
CONTINUOUS
 10
-13.2177651569
 20
50.7
 11
-13.2177651569
 21
6.4608770167
  0
LINE
  5
394
100
AcDbEntity
  8
RACCORDO
100
AcDbLine
 62
250
  6
CONTINUOUS
 10
-13.2177651569
 20
-6.4608169811
 11
-13.2177651569
 21
-50.7
  0
LINE
  5
395
100
AcDbEntity
  8
DRAFT
100
AcDbLine
 62
7
  6
CONTINUOUS
 10
-13.0
 20
65.5
 11
-13.0
 21
65.2
  0
LINE
  5
396
100
AcDbEntity
  8
0
100
AcDbLine
 62
7
  6
CONTINUOUS
 10
-13.0
 20
65.2
 11
-13.0
 21
64.5
  0
LINE
  5
397
100
AcDbEntity
  8
DRAFT
100
AcDbLine
 62
7
  6
CONTINUOUS
 10
-13.0
 20
-65.5
 11
-13.0
 21
-65.2
  0
LINE
  5
398
100
AcDbEntity
  8
0
100
AcDbLine
 62
7
  6
CONTINUOUS
 10
-13.0
 20
-65.2
 11
-13.0
 21
-64.5
  0
LINE
  5
399
100
AcDbEntity
  8
RACCORDO
100
AcDbLine
 62
7
  6
CONTINUOUS
 10
-13.0
 20
-64.5
 11
-13.0
 21
-62.5
  0
LINE
  5
39A
100
AcDbEntity
  8
RACCORDO
100
AcDbLine
 62
7
  6
CONTINUOUS
 10
-13.0
 20
62.5
 11
-13.0
 21
64.5
  0
LINE
  5
39B
100
AcDbEntity
  8
RACCORDO
100
AcDbLine
 62
7
  6
CONTINUOUS
 10
-12.7177651569
 20
50.7
 11
-12.7177651569
 21
6.4608770345
  0
LINE
  5
39C
100
AcDbEntity
  8
RACCORDO
100
AcDbLine
 62
7
  6
CONTINUOUS
 10
-12.7177651569
 20
-6.4608169811
 11
-12.7177651569
 21
-50.7
  0
LINE
  5
39D
100
AcDbEntity
  8
ASSI
100
AcDbLine
 62
7
  6
CONTINUOUS
 10
-12.082169
 20
-63.928243
 11
-12.082165
 21
-64.259524
  0
LINE
  5
39E
100
AcDbEntity
  8
ASSI
100
AcDbLine
 62
7
  6
CONTINUOUS
 10
-11.813647
 20
-64.5
 11
-11.813647
 21
-63.150007
  0
LINE
  5
39F
100
AcDbEntity
  8
ASSI
100
AcDbLine
 62
7
  6
CONTINUOUS
 10
-10.304157
 20
-63.150003
 11
-10.304157
 21
-64.5
  0
LINE
  5
3A0
100
AcDbEntity
  8
ASSI
100
AcDbLine
 62
7
  6
CONTINUOUS
 10
-10.031881
 20
-64.047735
 11
-10.031884
 21
-63.150003
  0
LINE
  5
3A1
100
AcDbEntity
  8
ASSI
100
AcDbLine
 62
7
  6
CONTINUOUS
 10
-9.244783
 20
-63.150003
 11
-9.244783
 21
-64.047735
  0
LINE
  5
3A2
100
AcDbEntity
  8
ASSI
100
AcDbLine
 62
7
  6
CONTINUOUS
 10
-8.972511
 20
-64.5
 11
-8.972511
 21
-63.150003
  0
LINE
  5
3A3
100
AcDbEntity
  8
ASSI
100
AcDbLine
 62
7
  6
CONTINUOUS
 10
-12.085923
 20
-63.150007
 11
-12.085953
 21
-63.676391
  0
LINE
  5
3A4
100
AcDbEntity
  8
RACCORDO
100
AcDbLine
 62
7
  6
CONTINUOUS
 10
-12.717766723
 20
-6.4608169835
 11
-12.7172058033
 21
-6.4350141772
  0
LINE
  5
3A5
100
AcDbEntity
  8
RACCORDO
100
AcDbLine
 62
7
  6
CONTINUOUS
 10
-12.7172058033
 20
-6.4350141772
 11
-12.7152285531
 21
-6.4061831693
  0
LINE
  5
3A6
100
AcDbEntity
  8
RACCORDO
100
AcDbLine
 62
7
  6
CONTINUOUS
 10
-12.7152414197
 20
-6.4063313598
 11
-12.7152591808
 21
-6.4065223055
  0
LWPOLYLINE
  5
3A7
100
AcDbEntity
  8
RACCORDO
100
AcDbPolyline
 62
250
  6
CONTINUOUS
 90
3
 70
0
 10
-12.7076226661
 20
-6.3510456677
 10
-12.7130311905
 20
-6.3860809462
 10
-12.7152414197
 20
-6.4063313598
  0
LINE
  5
3A8
100
AcDbEntity
  8
RACCORDO
100
AcDbLine
 62
7
  6
CONTINUOUS
 10
-12.7163468114
 20
-6.4224889023
 11
-12.71483105
 21
-6.4141118747
  0
LINE
  5
3A9
100
AcDbEntity
  8
RACCORDO
100
AcDbLine
 62
250
  6
CONTINUOUS
 10
-12.7155592001
 20
-6.4144705993
 11
-12.7089651693
 21
-6.3796414779
  0
LWPOLYLINE
  5
3AA
100
AcDbEntity
  8
RACCORDO
100
AcDbPolyline
 62
7
  6
CONTINUOUS
 90
6
 70
0
 10
-12.71483105
 20
-6.4141118747
 10
-12.7133204348
 20
-6.4066641066
 10
-12.711315662
 20
-6.3976675356
 10
-12.7087771197
 20
-6.3873204623
 10
-12.7056801143
 20
-6.3758528149
 10
-12.7019529931
 20
-6.3633032477
  0
LINE
  5
3AB
100
AcDbEntity
  8
0
100
AcDbLine
 62
7
  6
CONTINUOUS
 10
1.5084405698
 20
58.995121343
 11
1.651139
 21
59.544709
  0
LINE
  5
3AC
100
AcDbEntity
  8
0
100
AcDbLine
 62
7
  6
CONTINUOUS
 10
1.785395
 20
60.06178
 11
1.971717
 21
60.779381
  0
LINE
  5
3AD
100
AcDbEntity
  8
0
100
AcDbLine
 62
7
  6
CONTINUOUS
 10
2.107451
 20
59.742821
 11
1.9700709885
 21
59.2137179558
  0
LINE
  5
3AE
100
AcDbEntity
  8
0
100
AcDbLine
 62
7
  6
CONTINUOUS
 10
2.4313347015
 20
60.9902214502
 11
2.241707
 21
60.259892
  0
LINE
  5
3AF
100
AcDbEntity
  8
0
100
AcDbLine
 62
7
  6
CONTINUOUS
 10
2.841345
 20
59.315103
 11
2.966078
 21
59.7955
  0
LINE
  5
3B0
100
AcDbEntity
  8
0
100
AcDbLine
 62
7
  6
CONTINUOUS
 10
3.7039540621
 20
61.0943802393
 11
3.511277
 21
60.352307
  0
LINE
  5
3B1
100
AcDbEntity
  8
0
100
AcDbLine
 62
7
  6
CONTINUOUS
 10
3.417604
 20
59.991534
 11
3.142716128
 21
58.932834493
  0
LINE
  5
3B2
100
AcDbEntity
  8
0
100
AcDbLine
 62
7
  6
CONTINUOUS
 10
3.962178
 20
58.673223
 11
4.538471
 21
60.892752
  0
LWPOLYLINE
  5
3B3
100
AcDbEntity
  8
RACCORDO
100
AcDbPolyline
 62
250
  6
CONTINUOUS
 90
18
 70
0
 10
-12.7089651693
 20
-6.3796414779
 10
-12.6996261116
 20
-6.3451887602
 10
-12.6876013875
 20
-6.311331433
 10
-12.6729674281
 20
-6.278284699
 10
-12.6558172501
 20
-6.2462586107
 10
-12.6362598637
 20
-6.2154567344
 10
-12.6144195798
 20
-6.1860748541
 10
-12.5904352204
 20
-6.1582997282
 10
-12.5644592352
 20
-6.1323079022
 10
-12.5366567333
 20
-6.1082645862
 10
-12.5072044338
 20
-6.0863226053
 10
-12.4762895422
 20
-6.0666214282
 10
-12.4441085603
 20
-6.0492862802
 10
-12.4108660376
 20
-6.0344273477
 10
-12.3767732711
 20
-6.0221390777
 10
-12.342046962
 20
-6.0124995777
 10
-12.306907838
 20
-6.0055701186
 10
-12.2944681672
 20
-6.0042711343
  0
LWPOLYLINE
  5
3B4
100
AcDbEntity
  8
RACCORDO
100
AcDbPolyline
 62
7
  6
CONTINUOUS
 90
33
 70
0
 10
-12.7019529931
 20
-6.3633032477
 10
-12.6975479115
 20
-6.3498005735
 10
-12.6925112227
 20
-6.3357143003
 10
-12.686814222
 20
-6.3211349005
 10
-12.6804149166
 20
-6.3061126717
 10
-12.6733804429
 20
-6.2909258357
 10
-12.6657217943
 20
-6.2756766383
 10
-12.6574045325
 20
-6.2603677383
 10
-12.648449568
 20
-6.2451018025
 10
-12.6388695599
 20
-6.2299501858
 10
-12.6286466357
 20
-6.2149301072
 10
-12.6177570119
 20
-6.2000546831
 10
-12.6061964433
 20
-6.185366454
 10
-12.5939689626
 20
-6.1709155878
 10
-12.5810600972
 20
-6.1567288735
 10
-12.5674762179
 20
-6.1428564108
 10
-12.5532255366
 20
-6.1293468722
 10
-12.5382972575
 20
-6.1162301228
 10
-12.522708488
 20
-6.1035607784
 10
-12.5064777541
 20
-6.0913907283
 10
-12.4896010047
 20
-6.079753792
 10
-12.4721086629
 20
-6.0687074206
 10
-12.454036578
 20
-6.0583076253
 10
-12.4353998908
 20
-6.0485955829
 10
-12.4162559117
 20
-6.0396318453
 10
-12.3966602155
 20
-6.0314690952
 10
-12.3766481461
 20
-6.0241474599
 10
-12.3562753712
 20
-6.0177124616
 10
-12.3356729573
 20
-6.0122244112
 10
-12.3150341003
 20
-6.0077386915
 10
-12.2944681672
 20
-6.0042711343
 10
-12.2741681802
 20
-6.0018360786
 10
-12.2545278703
 20
-6.000433087
  0
LINE
  5
3B5
100
AcDbEntity
  8
RACCORDO
100
AcDbLine
 62
7
  6
CONTINUOUS
 10
16.8764983111
 20
17.6331904331
 11
16.8965699136
 21
17.6414905497
  0
LINE
  5
3B6
100
AcDbEntity
  8
RACCORDO
100
AcDbLine
 62
7
  6
CONTINUOUS
 10
16.8563619371
 20
17.6250442902
 11
16.8764983111
 21
17.6331904331
  0
LINE
  5
3B7
100
AcDbEntity
  8
RACCORDO
100
AcDbLine
 62
7
  6
CONTINUOUS
 10
16.8361612236
 20
17.6170487852
 11
16.8563619371
 21
17.6250442902
  0
LWPOLYLINE
  5
3B8
100
AcDbEntity
  8
RACCORDO
100
AcDbPolyline
 62
7
  6
CONTINUOUS
 90
3
 70
0
 10
16.8057426494
 20
17.605313789
 10
16.8158978989
 20
17.6091905747
 10
16.8361612236
 20
17.6170487852
  0
LINE
  5
3B9
100
AcDbEntity
  8
RACCORDO
100
AcDbLine
 62
7
  6
CONTINUOUS
 10
16.8057426494
 20
-17.605313789
 11
16.8260374236
 21
-17.6131022402
  0
LINE
  5
3BA
100
AcDbEntity
  8
RACCORDO
100
AcDbLine
 62
7
  6
CONTINUOUS
 10
16.8260374236
 20
-17.6131022402
 11
16.8462694427
 21
-17.6210290979
  0
LINE
  5
3BB
100
AcDbEntity
  8
RACCORDO
100
AcDbLine
 62
7
  6
CONTINUOUS
 10
16.8462694427
 20
-17.6210290979
 11
16.8664382746
 21
-17.629097698
  0
LWPOLYLINE
  5
3BC
100
AcDbEntity
  8
RACCORDO
100
AcDbPolyline
 62
7
  6
CONTINUOUS
 90
3
 70
0
 10
16.8664382746
 20
-17.629097698
 10
16.8865421908
 20
-17.6373213837
 10
16.8965699136
 20
-17.6414905497
  0
LINE
  5
3BD
100
AcDbEntity
  8
0
100
AcDbLine
 62
7
  6
CONTINUOUS
 10
4.834696
 20
-53.3242176819
 11
4.99291
 21
-53.7758770483
  0
LINE
  5
3BE
100
AcDbEntity
  8
0
100
AcDbLine
 62
7
  6
CONTINUOUS
 10
4.518293
 20
-52.4492029437
 11
4.756682
 21
-53.1383592445
  0
LWPOLYLINE
  5
3BF
100
AcDbEntity
  8
RACCORDO
100
AcDbPolyline
 62
7
  6
CONTINUOUS
 90
8
 70
0
 10
-12.7023273718
 20
6.3643980174
 10
-12.7057574002
 20
6.3760146961
 10
-12.7086838683
 20
6.386850455
 10
-12.711141415
 20
6.3968207621
 10
-12.713166647
 20
6.4058451983
 10
-12.7147654631
 20
6.4136846562
 10
-12.7159689731
 20
6.4201794678
 10
-12.7163594009
 20
6.4224961954
  0
LWPOLYLINE
  5
3C0
100
AcDbEntity
  8
RACCORDO
100
AcDbPolyline
 62
250
  6
CONTINUOUS
 90
19
 70
0
 10
-12.7089639386
 20
6.3796226377
 10
-12.6996256064
 20
6.3451665993
 10
-12.6876020948
 20
6.311307196
 10
-12.6729697725
 20
6.2782594914
 10
-12.6558215776
 20
6.2462333907
 10
-12.6362664281
 20
6.2154323093
 10
-12.6144285303
 20
6.1860518828
 10
-12.5904465893
 20
6.158278723
 10
-12.5644729282
 20
6.1322892335
 10
-12.5366725214
 20
6.1082484889
 10
-12.5072219453
 20
6.0863091857
 10
-12.4763082578
 20
6.0666106732
 10
-12.4441278106
 20
6.0492780682
 10
-12.4108850006
 20
6.0344214601
 10
-12.3767909724
 20
6.0221352113
 10
-12.3420622786
 20
6.0124973591
 10
-12.3069195021
 20
6.0055691184
 10
-12.2715858549
 20
6.0013944938
 10
-12.2690126916
 20
6.0012928436
  0
LWPOLYLINE
  5
3C1
100
AcDbEntity
  8
RACCORDO
100
AcDbPolyline
 62
250
  6
CONTINUOUS
 90
21
 70
0
 10
-12.7076230829
 20
6.3511394969
 10
-12.7004415111
 20
6.3175743269
 10
-12.6916302076
 20
6.2856568121
 10
-12.6813688148
 20
6.2557520173
 10
-12.669723343
 20
6.2277650968
 10
-12.656788762
 20
6.2016422831
 10
-12.6427933647
 20
6.1776511985
 10
-12.6278829838
 20
6.1558013563
 10
-12.6119921828
 20
6.1357712968
 10
-12.5950087329
 20
6.1172974779
 10
-12.5769408293
 20
6.1003197004
 10
-12.5576823792
 20
6.0847167737
 10
-12.5368665793
 20
6.0702264058
 10
-12.5141999358
 20
6.0567601211
 10
-12.4896943468
 20
6.0444490941
 10
-12.4634227878
 20
6.033423394
 10
-12.4352068466
 20
6.0237411247
 10
-12.4050061529
 20
6.0155035726
 10
-12.3732273833
 20
6.0088962118
 10
-12.3400473546
 20
6.0040414375
 10
-12.3053188982
 20
6.0010330957
  0
LINE
  5
3C2
100
AcDbEntity
  8
RACCORDO
100
AcDbLine
 62
250
  6
CONTINUOUS
 10
-12.7155577778
 20
6.4144564588
 11
-12.7089639386
 21
6.3796226377
  0
LWPOLYLINE
  5
3C3
100
AcDbEntity
  8
ASSI
100
AcDbPolyline
 62
7
  6
CONTINUOUS
 90
17
 70
0
 10
-2.0220449268
 20
-57.5448605984
 10
-2.0044307037
 20
-57.7373151876
 10
-1.9668504119
 20
-57.9271691218
 10
-1.9098178217
 20
-58.1144719763
 10
-1.8348070854
 20
-58.2938908376
 10
-1.7412853094
 20
-58.4652622202
 10
-1.6297853871
 20
-58.6287496095
 10
-1.5033801517
 20
-58.7795105478
 10
-1.361579316
 20
-58.9172145195
 10
-1.2048731672
 20
-59.0421920403
 10
-1.0378053989
 20
-59.1505921995
 10
-0.8599640917
 20
-59.2418874492
 10
-0.671761165
 20
-59.3166053373
 10
-0.4789760718
 20
-59.3724775972
 10
-0.2835352961
 20
-59.40874814
 10
-0.0835123537
 20
-59.4261730546
 10
0.1210927554
 20
-59.424752341
  0
LWPOLYLINE
  5
3C4
100
AcDbEntity
  8
ASSI
100
AcDbPolyline
 62
7
  6
CONTINUOUS
 90
11
 70
0
 10
-1.5193249441
 20
-57.512820198
 10
-1.5065872153
 20
-57.663000648
 10
-1.4776648749
 20
-57.8111528699
 10
-1.4330144938
 20
-57.9573143444
 10
-1.3739086157
 20
-58.0969104882
 10
-1.2998112329
 20
-58.2297605168
 10
-1.2112583532
 20
-58.3560452148
 10
-1.1111305431
 20
-58.4717323527
 10
-1.0003879915
 20
-58.5754778543
 10
-0.8780705095
 20
-58.6686257958
 10
-0.7441780971
 20
-58.7511761774
  0
LWPOLYLINE
  5
3C5
100
AcDbEntity
  8
INCISIONI
100
AcDbPolyline
 62
7
  6
CONTINUOUS
 90
13
 70
0
 10
-4.8152430759
 20
-63.0610021562
 10
-4.8192506339
 20
-62.9928173519
 10
-4.8300265246
 20
-62.9296075034
 10
-4.8475707479
 20
-62.8713726108
 10
-4.8720015076
 20
-62.8178592811
 10
-4.9032005999
 20
-62.7693209072
 10
-4.9408134138
 20
-62.7265176684
 10
-4.9851356815
 20
-62.6894448255
 10
-5.0358716708
 20
-62.6581071175
 10
-5.0917795747
 20
-62.6332789413
 10
-5.1524454573
 20
-62.6152184291
 10
-5.2182832545
 20
-62.6036674487
 10
-5.2892929662
 20
-62.598626
  0
LWPOLYLINE
  5
3C6
100
AcDbEntity
  8
ASSI
100
AcDbPolyline
 62
7
  6
CONTINUOUS
 90
16
 70
0
 10
-1.6742165117
 20
-57.5
 10
-1.6648147702
 20
-57.671680993
 10
-1.637203698
 20
-57.8433619859
 10
-1.5922745231
 20
-58.0095014729
 10
-1.5294621733
 20
-58.1699186401
 10
-1.4493317208
 20
-58.3247943013
 10
-1.3544696102
 20
-58.4691293917
 10
-1.2443951624
 20
-58.6025799831
 10
-1.1195890566
 20
-58.7254900038
 10
-0.9840797747
 20
-58.8338921733
 10
-0.8375180829
 20
-58.9273131153
 10
-0.680253215
 20
-59.0062262062
 10
-0.5173613544
 20
-59.0680842953
 10
-0.3505345622
 20
-59.1120383323
 10
-0.1780807775
 20
-59.1389373675
 10
-0.0
 20
-59.1487814009
  0
LINE
  5
3C7
100
AcDbEntity
  8
0
100
AcDbLine
 62
7
  6
CONTINUOUS
 10
-3.2709432393
 20
-52.9811450956
 11
-3.273802273
 21
-52.9070737314
  0
LINE
  5
3C8
100
AcDbEntity
  8
0
100
AcDbLine
 62
7
  6
CONTINUOUS
 10
-3.4935272355
 20
-53.0
 11
-3.4932099625
 21
-53.0226014235
  0
LWPOLYLINE
  5
3C9
100
AcDbEntity
  8
INCISIONI
100
AcDbPolyline
 62
7
  6
CONTINUOUS
 90
13
 70
0
 10
-5.0379323079
 20
-63.0610021562
 10
-5.0378249959
 20
-63.1014855173
 10
-5.0427875151
 20
-63.1395252852
 10
-5.0528198655
 20
-63.1751214599
 10
-5.0679229698
 20
-63.2088218804
 10
-5.0880959052
 20
-63.2400787076
 10
-5.1133359037
 20
-63.2672484248
 10
-5.1442838312
 20
-63.289884022
 10
-5.1802988217
 20
-63.308432509
 10
-5.2194555094
 20
-63.3225913991
 10
-5.2611121057
 20
-63.3322598631
 10
-5.3059103991
 20
-63.3375387301
 10
-5.3538503897
 20
-63.338428
  0
LINE
  5
3CA
100
AcDbEntity
  8
ASSI
100
AcDbLine
 62
7
  6
CONTINUOUS
 10
-8.700246
 20
-63.150003
 11
-8.7002489749
 21
-64.5
  0
LINE
  5
3CB
100
AcDbEntity
  8
ASSI
100
AcDbLine
 62
7
  6
CONTINUOUS
 10
-8.4279769749
 20
-64.5
 11
-8.427974
 21
-63.15
  0
LINE
  5
3CC
100
AcDbEntity
  8
0
100
AcDbLine
 62
7
  6
CONTINUOUS
 10
-7.95236
 20
-52.2241229517
 11
-7.95236
 21
-53.7758770483
  0
LINE
  5
3CD
100
AcDbEntity
  8
0
100
AcDbLine
 62
7
  6
CONTINUOUS
 10
-7.742898
 20
-53.7758770483
 11
-7.742898
 21
-52.4400083917
  0
LINE
  5
3CE
100
AcDbEntity
  8
DRAFT
100
AcDbLine
 62
7
  6
CONTINUOUS
 10
-7.0
 20
65.5
 11
-7.0
 21
65.2
  0
LINE
  5
3CF
100
AcDbEntity
  8
0
100
AcDbLine
 62
7
  6
CONTINUOUS
 10
-7.0
 20
65.2
 11
-7.0
 21
64.5
  0
LINE
  5
3D0
100
AcDbEntity
  8
RACCORDO
100
AcDbLine
 62
7
  6
CONTINUOUS
 10
-7.0
 20
64.5
 11
-7.0
 21
62.5
  0
LINE
  5
3D1
100
AcDbEntity
  8
DRAFT
100
AcDbLine
 62
7
  6
CONTINUOUS
 10
-7.0
 20
-65.5
 11
-7.0
 21
-65.2
  0
LINE
  5
3D2
100
AcDbEntity
  8
0
100
AcDbLine
 62
7
  6
CONTINUOUS
 10
-7.0
 20
-65.2
 11
-7.0
 21
-64.5
  0
LINE
  5
3D3
100
AcDbEntity
  8
RACCORDO
100
AcDbLine
 62
7
  6
CONTINUOUS
 10
-7.0
 20
-62.5
 11
-7.0
 21
-64.5
  0
LINE
  5
3D4
100
AcDbEntity
  8
0
100
AcDbLine
 62
7
  6
CONTINUOUS
 10
-6.628693
 20
-52.4378747298
 11
-6.628693
 21
-53.7758770483
  0
LINE
  5
3D5
100
AcDbEntity
  8
0
100
AcDbLine
 62
7
  6
CONTINUOUS
 10
-6.419147
 20
-53.7758770483
 11
-6.419147
 21
-52.2241229517
  0
LINE
  5
3D6
100
AcDbEntity
  8
INCISIONI
100
AcDbLine
 62
7
  6
CONTINUOUS
 10
-6.009011
 20
-62.598626
 11
-6.009011
 21
-64.198626
  0
LINE
  5
3D7
100
AcDbEntity
  8
0
100
AcDbLine
 62
7
  6
CONTINUOUS
 10
-5.837518
 20
-53.3242176819
 11
-5.837518
 21
-53.2894880463
  0
LINE
  5
3D8
100
AcDbEntity
  8
INCISIONI
100
AcDbLine
 62
7
  6
CONTINUOUS
 10
-5.792857
 20
-64.198626
 11
-5.792857
 21
-63.523379
  0
LINE
  5
3D9
100
AcDbEntity
  8
INCISIONI
100
AcDbLine
 62
7
  6
CONTINUOUS
 10
-5.792857
 20
-63.338428
 11
-5.792857
 21
-62.783576
  0
LINE
  5
3DA
100
AcDbEntity
  8
0
100
AcDbLine
 62
7
  6
CONTINUOUS
 10
-5.51207
 20
-52.4492029437
 11
-5.51207
 21
-52.4144733082
  0
LINE
  5
3DB
100
AcDbEntity
  8
0
100
AcDbLine
 62
7
  6
CONTINUOUS
 10
-5.195758
 20
-53.3242176819
 11
-5.195758
 21
-53.2894880463
  0
LINE
  5
3DC
100
AcDbEntity
  8
RACCORDO
100
AcDbLine
 62
7
  6
CONTINUOUS
 10
-4.8
 20
-64.9301035763
 11
-4.8
 21
-65.5000177199
  0
LINE
  5
3DD
100
AcDbEntity
  8
RACCORDO
100
AcDbLine
 62
7
  6
CONTINUOUS
 10
-4.8
 20
64.9301035763
 11
-4.8
 21
65.5000177199
  0
LINE
  5
3DE
100
AcDbEntity
  8
0
100
AcDbLine
 62
7
  6
CONTINUOUS
 10
-4.788994
 20
55.9879386053
 11
-4.788994
 21
55.9532089698
  0
LINE
  5
3DF
100
AcDbEntity
  8
0
100
AcDbLine
 62
7
  6
CONTINUOUS
 10
-4.59186
 20
-52.2241229517
 11
-4.59186
 21
-53.7758770483
  0
LINE
  5
3E0
100
AcDbEntity
  8
0
100
AcDbLine
 62
7
  6
CONTINUOUS
 10
-4.375637
 20
-53.5965437369
 11
-4.375637
 21
-52.3687266276
  0
LWPOLYLINE
  5
3E1
100
AcDbEntity
  8
RACCORDO
100
AcDbPolyline
 62
250
  6
CONTINUOUS
 90
9
 70
0
 10
-13.1108955525
 20
-6.0
 10
-13.1156785195
 20
-6.0089363316
 10
-13.1416514779
 20
-6.0665921983
 10
-13.1640814113
 20
-6.1269876727
 10
-13.1830676537
 20
-6.190077954
 10
-13.1979910636
 20
-6.255083936
 10
-13.2086452606
 20
-6.3217459169
 10
-13.215236625
 20
-6.3903235986
 10
-13.2177651569
 20
-6.4608169811
  0
LWPOLYLINE
  5
3E2
100
AcDbEntity
  8
RACCORDO
100
AcDbPolyline
 62
250
  6
CONTINUOUS
 90
3
 70
0
 10
-12.2741681802
 20
-6.0018360786
 10
-12.2715792514
 20
-6.0013947461
 10
-12.2690921782
 20
-6.0012964606
  0
LWPOLYLINE
  5
3E3
100
AcDbEntity
  8
RACCORDO
100
AcDbPolyline
 62
250
  6
CONTINUOUS
 90
21
 70
0
 10
-12.3053990207
 20
-6.0010325699
 10
-12.3401233924
 20
-6.0040391256
 10
-12.3732952083
 20
-6.0088906208
 10
-12.405059444
 20
-6.015492522
 10
-12.435242952
 20
-6.0237227446
 10
-12.4634469895
 20
-6.0333980444
 10
-12.489713481
 20
-6.0444185935
 10
-12.5142174581
 20
-6.0567260603
 10
-12.5368850701
 20
-6.0701905702
 10
-12.5577048695
 20
-6.0846819517
 10
-12.576968577
 20
-6.1002879484
 10
-12.5950393583
 20
-6.1172677075
 10
-12.6120218487
 20
-6.1357401876
 10
-12.6279096776
 20
-6.1557664915
 10
-12.6428166237
 20
-6.1776113915
 10
-12.6568083744
 20
-6.2015962315
 10
-12.6697387188
 20
-6.2277108904
 10
-12.6813798089
 20
-6.2556888046
 10
-12.6916365428
 20
-6.2855821893
 10
-12.7004435706
 20
-6.3174872017
 10
-12.7076226661
 20
-6.3510456677
  0
LINE
  5
3E4
100
AcDbEntity
  8
RACCORDO
100
AcDbLine
 62
250
  6
CONTINUOUS
 10
-12.7177651569
 20
-6.4608169811
 11
-13.2177651569
 21
-6.4608169811
  0
LINE
  5
3E5
100
AcDbEntity
  8
RACCORDO
100
AcDbLine
 62
250
  6
CONTINUOUS
 10
12.7177651569
 20
-6.460817014
 11
13.2177651568
 21
-6.4608169984
  0
LINE
  5
3E6
100
AcDbEntity
  8
RACCORDO
100
AcDbLine
 62
7
  6
CONTINUOUS
 10
15.25
 20
-6.0
 11
-15.25
 21
-6.0
  0
LWPOLYLINE
  5
3E7
100
AcDbEntity
  8
INCISIONI
100
AcDbPolyline
 62
7
  6
CONTINUOUS
 90
13
 70
0
 10
0.7577849541
 20
-63.0610021562
 10
0.7537773961
 20
-62.9928173519
 10
0.7430015054
 20
-62.9296075034
 10
0.7254572821
 20
-62.8713726108
 10
0.7010265224
 20
-62.8178592811
 10
0.6698274301
 20
-62.7693209072
 10
0.6322146162
 20
-62.7265176684
 10
0.5878923485
 20
-62.6894448255
 10
0.5371563592
 20
-62.6581071175
 10
0.4812484553
 20
-62.6332789413
 10
0.4205825727
 20
-62.6152184291
 10
0.3547447755
 20
-62.6036674487
 10
0.2837350638
 20
-62.598626
  0
LWPOLYLINE
  5
3E8
100
AcDbEntity
  8
ASSI
100
AcDbPolyline
 62
7
  6
CONTINUOUS
 90
16
 70
0
 10
1.6742165117
 20
-57.5
 10
1.6648147702
 20
-57.328319007
 10
1.637203698
 20
-57.1566380141
 10
1.5922745231
 20
-56.9904985271
 10
1.5294621733
 20
-56.8300813599
 10
1.4493317208
 20
-56.6752056987
 10
1.3544696102
 20
-56.5308706083
 10
1.2443951624
 20
-56.3974200169
 10
1.1195890566
 20
-56.2745099962
 10
0.9840797747
 20
-56.1661078267
 10
0.8375180829
 20
-56.0726868847
 10
0.680253215
 20
-55.9937737938
 10
0.5173613544
 20
-55.9319157047
 10
0.3505345622
 20
-55.8879616677
 10
0.1780807775
 20
-55.8610626325
 10
-0.0
 20
-55.8512185991
  0
LWPOLYLINE
  5
3E9
100
AcDbEntity
  8
ASSI
100
AcDbPolyline
 62
7
  6
CONTINUOUS
 90
11
 70
0
 10
-1.2181312393
 20
-57.4990435024
 10
-1.2134999588
 20
-57.6027242565
 10
-1.1948550397
 20
-57.7284999439
 10
-1.1621649236
 20
-57.8531458233
 10
-1.1165126143
 20
-57.9723467793
 10
-1.0573827349
 20
-58.0859361632
 10
-0.9852906622
 20
-58.1940806236
 10
-0.9028655302
 20
-58.2929649911
 10
-0.8109837168
 20
-58.3813175428
 10
-0.7087688442
 20
-58.4604100017
 10
-0.5962209121
 20
-58.5302423677
  0
LWPOLYLINE
  5
3EA
100
AcDbEntity
  8
ASSI
100
AcDbPolyline
 62
7
  6
CONTINUOUS
 90
7
 70
0
 10
1.218131415
 20
-57.4990357751
 10
1.2175607033
 20
-57.4743788114
 10
1.2074458167
 20
-57.3465794327
 10
1.1839065433
 20
-57.2222376282
 10
1.1471474618
 20
-57.1028366155
 10
1.0969639936
 20
-56.9868931771
 10
1.0333561387
 20
-56.8744073131
  0
LINE
  5
3EB
100
AcDbEntity
  8
0
100
AcDbLine
 62
7
  6
CONTINUOUS
 10
-3.2709438427
 20
-53.0187885287
 11
-3.2711170233
 21
-53.0
  0
LWPOLYLINE
  5
3EC
100
AcDbEntity
  8
INCISIONI
100
AcDbPolyline
 62
7
  6
CONTINUOUS
 90
13
 70
0
 10
0.5350957221
 20
-63.0610021562
 10
0.5352030341
 20
-63.1014855173
 10
0.5302405149
 20
-63.1395252852
 10
0.5202081645
 20
-63.1751214599
 10
0.5051050603
 20
-63.2088218804
 10
0.4849321248
 20
-63.2400787076
 10
0.4596921263
 20
-63.2672484248
 10
0.4287441988
 20
-63.289884022
 10
0.3927292083
 20
-63.308432509
 10
0.3535725206
 20
-63.3225913991
 10
0.3119159243
 20
-63.3322598631
 10
0.2671176309
 20
-63.3375387301
 10
0.2191776403
 20
-63.338428
  0
LINE
  5
3ED
100
AcDbEntity
  8
RACCORDO
100
AcDbLine
 62
7
  6
CONTINUOUS
 10
-4.0
 20
-64.9301035763
 11
-4.0
 21
-66.8
  0
LINE
  5
3EE
100
AcDbEntity
  8
RACCORDO
100
AcDbLine
 62
7
  6
CONTINUOUS
 10
-4.0
 20
64.9301035763
 11
-4.0
 21
66.8
  0
LINE
  5
3EF
100
AcDbEntity
  8
0
100
AcDbLine
 62
250
  6
CONTINUOUS
 10
-3.948859
 20
-52.4034562631
 11
-3.948859
 21
-52.3687266276
  0
LINE
  5
3F0
100
AcDbEntity
  8
0
100
AcDbLine
 62
250
  6
CONTINUOUS
 10
-3.943358
 20
-53.7758770483
 11
-3.943358
 21
-53.7411474128
  0
LINE
  5
3F1
100
AcDbEntity
  8
0
100
AcDbLine
 62
7
  6
CONTINUOUS
 10
-3.6749773271
 20
68.5
 11
-3.6749773271
 21
66.9990856836
  0
LINE
  5
3F2
100
AcDbEntity
  8
0
100
AcDbLine
 62
7
  6
CONTINUOUS
 10
-3.6749773271
 20
-66.9990856836
 11
-3.6749773271
 21
-68.5
  0
LINE
  5
3F3
100
AcDbEntity
  8
0
100
AcDbLine
 62
7
  6
CONTINUOUS
 10
-3.5
 20
-68.430158461
 11
-3.5
 21
-66.9292441446
  0
LINE
  5
3F4
100
AcDbEntity
  8
0
100
AcDbLine
 62
7
  6
CONTINUOUS
 10
-3.5
 20
66.9292441446
 11
-3.5
 21
68.430158461
  0
LINE
  5
3F5
100
AcDbEntity
  8
0
100
AcDbLine
 62
7
  6
CONTINUOUS
 10
-3.236604
 20
57.8578391459
 11
-3.236611
 21
55.1421404873
  0
LINE
  5
3F6
100
AcDbEntity
  8
INCISIONI
100
AcDbLine
 62
7
  6
CONTINUOUS
 10
-3.196852
 20
-62.598626
 11
-3.196852
 21
-62.790272
  0
LINE
  5
3F7
100
AcDbEntity
  8
0
100
AcDbLine
 62
7
  6
CONTINUOUS
 10
-2.971738
 20
-52.2241229517
 11
-2.971738
 21
-53.7758770483
  0
LINE
  5
3F8
100
AcDbEntity
  8
0
100
AcDbLine
 62
7
  6
CONTINUOUS
 10
-2.755528
 20
-53.5900176411
 11
-2.755528
 21
-53.0366141988
  0
LINE
  5
3F9
100
AcDbEntity
  8
0
100
AcDbLine
 62
7
  6
CONTINUOUS
 10
-2.755528
 20
-52.8854853969
 11
-2.755528
 21
-52.3752527234
  0
LINE
  5
3FA
100
AcDbEntity
  8
0
100
AcDbLine
 62
7
  6
CONTINUOUS
 10
-2.67659
 20
55.1421472762
 11
-2.676583
 21
57.8578391459
  0
LINE
  5
3FB
100
AcDbEntity
  8
INCISIONI
100
AcDbLine
 62
7
  6
CONTINUOUS
 10
-2.655391
 20
-62.790272
 11
-2.655391
 21
-64.198626
  0
LINE
  5
3FC
100
AcDbEntity
  8
INCISIONI
100
AcDbLine
 62
7
  6
CONTINUOUS
 10
-2.439236
 20
-64.198626
 11
-2.439236
 21
-62.790272
  0
LINE
  5
3FD
100
AcDbEntity
  8
0
100
AcDbLine
 62
7
  6
CONTINUOUS
 10
-2.116583
 20
57.8578391459
 11
-2.116583
 21
55.1421472762
  0
LINE
  5
3FE
100
AcDbEntity
  8
INCISIONI
100
AcDbLine
 62
7
  6
CONTINUOUS
 10
-1.897776
 20
-62.790272
 11
-1.897776
 21
-62.598626
  0
LINE
  5
3FF
100
AcDbEntity
  8
0
100
AcDbLine
 62
7
  6
CONTINUOUS
 10
-1.879753
 20
-53.0713438343
 11
-1.879753
 21
-52.8854853969
  0
LINE
  5
400
100
AcDbEntity
  8
0
100
AcDbLine
 62
7
  6
CONTINUOUS
 10
-1.806216
 20
-52.4099823589
 11
-1.806216
 21
-52.2241229517
  0
LINE
  5
401
100
AcDbEntity
  8
0
100
AcDbLine
 62
7
  6
CONTINUOUS
 10
-1.790598
 20
-53.7758770483
 11
-1.790598
 21
-53.5900176411
  0
LINE
  5
402
100
AcDbEntity
  8
INCISIONI
100
AcDbLine
 62
7
  6
CONTINUOUS
 10
-1.672651
 20
-63.962384
 11
-1.672651
 21
-64.198626
  0
LINE
  5
403
100
AcDbEntity
  8
0
100
AcDbLine
 62
7
  6
CONTINUOUS
 10
-1.556562
 20
55.1421472762
 11
-1.556562
 21
56.9329636391
  0
LINE
  5
404
100
AcDbEntity
  8
INCISIONI
100
AcDbLine
 62
7
  6
CONTINUOUS
 10
-1.440958
 20
-64.198626
 11
-1.440958
 21
-63.962384
  0
LINE
  5
405
100
AcDbEntity
  8
ASSI
100
AcDbLine
 62
7
  6
CONTINUOUS
 10
-1.033356
 20
-56.8744074264
 11
-1.033356
 21
-56.8396777909
  0
LINE
  5
406
100
AcDbEntity
  8
0
100
AcDbLine
 62
7
  6
CONTINUOUS
 10
-0.854614
 20
-52.2241229517
 11
-0.854614
 21
-53.7758770483
  0
LINE
  5
407
100
AcDbEntity
  8
0
100
AcDbLine
 62
7
  6
CONTINUOUS
 10
-0.747089
 20
56.0892836654
 11
-0.747089
 21
56.0545540299
  0
LINE
  5
408
100
AcDbEntity
  8
0
100
AcDbLine
 62
7
  6
CONTINUOUS
 10
-0.638469
 20
-53.7758770483
 11
-0.638469
 21
-52.2241229517
  0
LINE
  5
409
100
AcDbEntity
  8
ASSI
100
AcDbLine
 62
7
  6
CONTINUOUS
 10
-0.453932
 20
-58.6143592297
 11
-0.453932
 21
-58.9260940197
  0
LINE
  5
40A
100
AcDbEntity
  8
ASSI
100
AcDbLine
 62
7
  6
CONTINUOUS
 10
-0.443435
 20
-56.0861861743
 11
-0.443435
 21
-56.3996356525
  0
LINE
  5
40B
100
AcDbEntity
  8
INCISIONI
100
AcDbLine
 62
7
  6
CONTINUOUS
 10
-0.435983
 20
-62.598626
 11
-0.435983
 21
-64.198626
  0
LINE
  5
40C
100
AcDbEntity
  8
0
100
AcDbLine
 62
7
  6
CONTINUOUS
 10
-0.268599
 20
-52.2241229517
 11
-0.268599
 21
-53.7758770483
  0
LINE
  5
40D
100
AcDbEntity
  8
INCISIONI
100
AcDbLine
 62
7
  6
CONTINUOUS
 10
-0.219829
 20
-64.198626
 11
-0.219829
 21
-63.523379
  0
LINE
  5
40E
100
AcDbEntity
  8
INCISIONI
100
AcDbLine
 62
7
  6
CONTINUOUS
 10
-0.219829
 20
-63.338428
 11
-0.219829
 21
-62.783576
  0
LINE
  5
40F
100
AcDbEntity
  8
ASSI
100
AcDbLine
 62
7
  6
CONTINUOUS
 10
-0.169078
 20
-56.364906017
 11
-0.169078
 21
-57.1944586485
  0
LINE
  5
410
100
AcDbEntity
  8
ASSI
100
AcDbLine
 62
7
  6
CONTINUOUS
 10
-0.169078
 20
-57.5460488637
 11
-0.169078
 21
-58.6143592297
  0
LINE
  5
411
100
AcDbEntity
  8
0
100
AcDbLine
 62
7
  6
CONTINUOUS
 10
-0.05904
 20
-53.7758770483
 11
-0.05904
 21
-52.4809378457
  0
LINE
  5
412
100
AcDbEntity
  8
0
100
AcDbLine
 62
7
  6
CONTINUOUS
 10
0.062377
 20
56.9329636391
 11
0.062384
 21
55.1421472762
  0
LINE
  5
413
100
AcDbEntity
  8
ASSI
100
AcDbLine
 62
7
  6
CONTINUOUS
 10
0.1210910737
 20
-59.4594816306
 11
0.1210910737
 21
-59.4247519951
  0
LINE
  5
414
100
AcDbEntity
  8
ASSI
100
AcDbLine
 62
7
  6
CONTINUOUS
 10
0.173343
 20
-58.6143592297
 11
0.173343
 21
-57.542563236
  0
LINE
  5
415
100
AcDbEntity
  8
ASSI
100
AcDbLine
 62
7
  6
CONTINUOUS
 10
0.173343
 20
-57.1944586485
 11
0.173343
 21
-56.364906017
  0
LINE
  5
416
100
AcDbEntity
  8
ASSI
100
AcDbLine
 62
7
  6
CONTINUOUS
 10
0.44759
 20
-56.3996356525
 11
0.44759
 21
-56.0861861743
  0
LINE
  5
417
100
AcDbEntity
  8
ASSI
100
AcDbLine
 62
7
  6
CONTINUOUS
 10
0.458087
 20
-58.9260940197
 11
0.458087
 21
-58.6143592297
  0
LINE
  5
418
100
AcDbEntity
  8
0
100
AcDbLine
 62
7
  6
CONTINUOUS
 10
0.622405
 20
55.1421472762
 11
0.622405
 21
57.8578391459
  0
LINE
  5
419
100
AcDbEntity
  8
0
100
AcDbLine
 62
7
  6
CONTINUOUS
 10
-3.2711170233
 20
-53.0
 11
-3.2709432393
 21
-52.9811450956
  0
LINE
  5
41A
100
AcDbEntity
  8
0
100
AcDbLine
 62
7
  6
CONTINUOUS
 10
-3.4932101226
 20
-52.9777121266
 11
-3.4935272355
 21
-53.0
  0
LWPOLYLINE
  5
41B
100
AcDbEntity
  8
ASSI
100
AcDbPolyline
 62
7
  6
CONTINUOUS
 90
33
 70
0
 10
-2.0240248889
 20
-57.4994349778
 10
-2.0196794607
 20
-57.3768694258
 10
-1.9976138471
 20
-57.1842544927
 10
-1.9555286475
 20
-56.9949214658
 10
-1.8940012368
 20
-56.8087820107
 10
-1.8149580609
 20
-56.631226619
 10
-1.7179514151
 20
-56.4625784284
 10
-1.6034290041
 20
-56.3025143013
 10
-1.4746603883
 20
-56.1554553159
 10
-1.3313485984
 20
-56.0217496338
 10
-1.1737906038
 20
-55.9010490935
 10
-1.0061468732
 20
-55.7967302891
 10
-0.8279255068
 20
-55.7091409568
 10
-0.6396184046
 20
-55.6379333604
 10
-0.4468617346
 20
-55.5854408853
 10
-0.2496070936
 20
-55.552267705
 10
-0.047902885
 20
-55.5378096459
 10
0.152469513
 20
-55.542587573
 10
0.3515089557
 20
-55.5671452903
 10
0.5492165878
 20
-55.6109389938
 10
0.7398144651
 20
-55.6728581372
 10
0.9231725841
 20
-55.7534968279
 10
1.0994209483
 20
-55.8522609584
 10
1.2631716233
 20
-55.9662576594
 10
1.4140344102
 20
-56.0960599787
 10
1.5523995079
 20
-56.2410948685
 10
1.6740495788
 20
-56.3967503157
 10
1.7783389884
 20
-56.563144084
 10
1.8659133713
 20
-56.7401584098
 10
1.9344922933
 20
-56.9228279893
 10
1.9835835656
 20
-57.1114586234
 10
2.0136793771
 20
-57.3057445113
 10
2.0239758599
 20
-57.4997969427
  0
LINE
  5
41C
100
AcDbEntity
  8
0
100
AcDbLine
 62
7
  6
CONTINUOUS
 10
-3.4932099625
 20
-53.0226014235
 11
-3.4949429387
 21
-53.0669952887
  0
LINE
  5
41D
100
AcDbEntity
  8
ASSI
100
AcDbLine
 62
7
  6
CONTINUOUS
 10
10.657055
 20
-0.375
 11
12.117556
 21
-0.375
  0
LINE
  5
41E
100
AcDbEntity
  8
ASSI
100
AcDbLine
 62
7
  6
CONTINUOUS
 10
12.117556
 20
0.375
 11
10.657051888
 21
0.375
  0
LWPOLYLINE
  5
41F
100
AcDbEntity
  8
RACCORDO
100
AcDbPolyline
 62
7
  6
CONTINUOUS
 90
34
 70
0
 10
12.3159838991
 20
-6.0079230084
 10
12.3336526427
 20
-6.0117407593
 10
12.3512310264
 20
-6.016274758
 10
12.3686181349
 20
-6.0214899834
 10
12.3857719647
 20
-6.0273607049
 10
12.4026669684
 20
-6.0338650407
 10
12.4192520539
 20
-6.0409690602
 10
12.4354863647
 20
-6.0486383665
 10
12.4513768093
 20
-6.0568600476
 10
12.4668925227
 20
-6.0656029972
 10
12.4820027343
 20
-6.0748328539
 10
12.4967220292
 20
-6.0845424885
 10
12.5110275724
 20
-6.0947021342
 10
12.5248989042
 20
-6.1052810383
 10
12.5383561914
 20
-6.1162799602
 10
12.5513821194
 20
-6.1276719046
 10
12.5639613189
 20
-6.1394292456
 10
12.5761151989
 20
-6.1515597765
 10
12.5878461592
 20
-6.1640575192
 10
12.5991232017
 20
-6.1768798324
 10
12.6099183263
 20
-6.1899801674
 10
12.6202297917
 20
-6.2033389744
 10
12.630043779
 20
-6.216919181
 10
12.6393213587
 20
-6.2306400683
 10
12.6480610614
 20
-6.2444649272
 10
12.6562671697
 20
-6.2583633016
 10
12.6639179591
 20
-6.2722538018
 10
12.671022022
 20
-6.286099013
 10
12.6775891546
 20
-6.2998609005
 10
12.6836064905
 20
-6.3134447803
 10
12.6890975011
 20
-6.3268262303
 10
12.694070253
 20
-6.3399409001
 10
12.69849958
 20
-6.3526136982
 10
12.7024137497
 20
-6.3647925577
  0
LWPOLYLINE
  5
420
100
AcDbEntity
  8
INCISIONI
100
AcDbPolyline
 62
7
  6
CONTINUOUS
 90
16
 70
0
 10
5.4549805805
 20
-63.3986255277
 10
5.4531061122
 20
-63.3051729424
 10
5.4444355021
 20
-63.2164322101
 10
5.42896875
 20
-63.1324033308
 10
5.4063131518
 20
-63.0524906167
 10
5.3768614117
 20
-62.9772897556
 10
5.3417916423
 20
-62.9085878111
 10
5.3015830781
 20
-62.8469306398
 10
5.2557564845
 20
-62.7917723851
 10
5.2040522714
 20
-62.7432625408
 10
5.1459048885
 20
-62.7012099408
 10
5.081879886
 20
-62.6658057511
 10
5.0134143247
 20
-62.637772963
 10
4.9409872248
 20
-62.6173525737
 10
4.8641195659
 20
-62.604303586
 10
4.7828113482
 20
-62.598626
  0
LINE
  5
421
100
AcDbEntity
  8
ASSI
100
AcDbLine
 62
7
  6
CONTINUOUS
 10
0.7611136875
 20
-59.3189216621
 11
0.761114
 21
-59.2841919036
  0
LINE
  5
422
100
AcDbEntity
  8
0
100
AcDbLine
 62
7
  6
CONTINUOUS
 10
0.792253
 20
-52.2241229517
 11
0.792253
 21
-53.4845885582
  0
LINE
  5
423
100
AcDbEntity
  8
0
100
AcDbLine
 62
7
  6
CONTINUOUS
 10
1.001709
 20
-53.7758770483
 11
1.001709
 21
-52.2241229517
  0
LINE
  5
424
100
AcDbEntity
  8
ASSI
100
AcDbLine
 62
7
  6
CONTINUOUS
 10
1.0333561387
 20
-56.8744073131
 11
1.033356
 21
-56.8396777909
  0
LINE
  5
425
100
AcDbEntity
  8
INCISIONI
100
AcDbLine
 62
7
  6
CONTINUOUS
 10
1.050317
 20
-62.598626
 11
1.050317
 21
-64.198626
  0
LINE
  5
426
100
AcDbEntity
  8
INCISIONI
100
AcDbLine
 62
7
  6
CONTINUOUS
 10
1.266472
 20
-64.006979
 11
1.266472
 21
-63.472214
  0
LINE
  5
427
100
AcDbEntity
  8
INCISIONI
100
AcDbLine
 62
7
  6
CONTINUOUS
 10
1.266472
 20
-63.280568
 11
1.266472
 21
-62.790272
  0
LINE
  5
428
100
AcDbEntity
  8
0
100
AcDbLine
 62
7
  6
CONTINUOUS
 10
1.903391
 20
56.192190178
 11
1.903391
 21
56.1574605425
  0
LINE
  5
429
100
AcDbEntity
  8
0
100
AcDbLine
 62
7
  6
CONTINUOUS
 10
1.993334
 20
-52.2241229517
 11
1.993334
 21
-53.7758770483
  0
LINE
  5
42A
100
AcDbEntity
  8
INCISIONI
100
AcDbLine
 62
7
  6
CONTINUOUS
 10
2.142335
 20
-63.472214
 11
2.142335
 21
-63.280568
  0
LINE
  5
42B
100
AcDbEntity
  8
0
100
AcDbLine
 62
7
  6
CONTINUOUS
 10
2.209544
 20
-53.7758770483
 11
2.209544
 21
-52.2241229517
  0
LINE
  5
42C
100
AcDbEntity
  8
INCISIONI
100
AcDbLine
 62
7
  6
CONTINUOUS
 10
2.21586
 20
-62.790272
 11
2.21586
 21
-62.598626
  0
LINE
  5
42D
100
AcDbEntity
  8
INCISIONI
100
AcDbLine
 62
7
  6
CONTINUOUS
 10
2.231399
 20
-64.198626
 11
2.231399
 21
-64.006979
  0
LINE
  5
42E
100
AcDbEntity
  8
0
100
AcDbLine
 62
7
  6
CONTINUOUS
 10
2.441308
 20
-52.2241229517
 11
2.441308
 21
-52.4099823589
  0
LINE
  5
42F
100
AcDbEntity
  8
0
100
AcDbLine
 62
7
  6
CONTINUOUS
 10
2.446199
 20
56.192190178
 11
2.446199
 21
56.1574605425
  0
LINE
  5
430
100
AcDbEntity
  8
INCISIONI
100
AcDbLine
 62
7
  6
CONTINUOUS
 10
2.514384
 20
-62.598626
 11
2.514384
 21
-64.198626
  0
LINE
  5
431
100
AcDbEntity
  8
INCISIONI
100
AcDbLine
 62
7
  6
CONTINUOUS
 10
2.723843
 20
-64.198626
 11
2.723843
 21
-62.899093
  0
LINE
  5
432
100
AcDbEntity
  8
0
100
AcDbLine
 62
7
  6
CONTINUOUS
 10
2.982837
 20
-52.3752527234
 11
2.982837
 21
-53.7758770483
  0
LINE
  5
433
100
AcDbEntity
  8
0
100
AcDbLine
 62
7
  6
CONTINUOUS
 10
3.198969
 20
-53.7758770483
 11
3.198969
 21
-52.3752527234
  0
LINE
  5
434
100
AcDbEntity
  8
0
100
AcDbLine
 62
7
  6
CONTINUOUS
 10
3.5
 20
-68.430158461
 11
3.5
 21
-66.9292441446
  0
LINE
  5
435
100
AcDbEntity
  8
0
100
AcDbLine
 62
7
  6
CONTINUOUS
 10
3.5
 20
66.9292441446
 11
3.5
 21
68.430158461
  0
LINE
  5
436
100
AcDbEntity
  8
INCISIONI
100
AcDbLine
 62
7
  6
CONTINUOUS
 10
3.575071
 20
-62.598626
 11
3.575071
 21
-63.898277
  0
LINE
  5
437
100
AcDbEntity
  8
0
100
AcDbLine
 62
7
  6
CONTINUOUS
 10
3.6749773271
 20
68.5
 11
3.6749773271
 21
66.9990856836
  0
LINE
  5
438
100
AcDbEntity
  8
0
100
AcDbLine
 62
7
  6
CONTINUOUS
 10
3.6749773271
 20
-66.9990856836
 11
3.6749773271
 21
-68.5
  0
LINE
  5
439
100
AcDbEntity
  8
0
100
AcDbLine
 62
7
  6
CONTINUOUS
 10
3.727192
 20
57.8578459349
 11
3.727192
 21
55.1421540651
  0
LINE
  5
43A
100
AcDbEntity
  8
0
100
AcDbLine
 62
7
  6
CONTINUOUS
 10
3.740498
 20
-52.4099823589
 11
3.740498
 21
-52.2241229517
  0
LINE
  5
43B
100
AcDbEntity
  8
INCISIONI
100
AcDbLine
 62
7
  6
CONTINUOUS
 10
3.78453
 20
-64.198626
 11
3.78453
 21
-62.598626
  0
LINE
  5
43C
100
AcDbEntity
  8
RACCORDO
100
AcDbLine
 62
7
  6
CONTINUOUS
 10
4.0
 20
-64.9301035763
 11
4.0
 21
-66.8
  0
LINE
  5
43D
100
AcDbEntity
  8
RACCORDO
100
AcDbLine
 62
7
  6
CONTINUOUS
 10
4.0
 20
64.9301035763
 11
4.0
 21
66.8
  0
LINE
  5
43E
100
AcDbEntity
  8
INCISIONI
100
AcDbLine
 62
7
  6
CONTINUOUS
 10
4.134344
 20
-62.598626
 11
4.134344
 21
-64.198626
  0
LINE
  5
43F
100
AcDbEntity
  8
0
100
AcDbLine
 62
7
  6
CONTINUOUS
 10
4.192871
 20
-53.3242176819
 11
4.192871
 21
-53.2894880463
  0
LINE
  5
440
100
AcDbEntity
  8
0
100
AcDbLine
 62
7
  6
CONTINUOUS
 10
4.279499
 20
56.659868087
 11
4.279492
 21
57.3554451793
  0
LINE
  5
441
100
AcDbEntity
  8
INCISIONI
100
AcDbLine
 62
7
  6
CONTINUOUS
 10
4.350499
 20
-64.013675
 11
4.350499
 21
-62.783576
  0
LINE
  5
442
100
AcDbEntity
  8
0
100
AcDbLine
 62
7
  6
CONTINUOUS
 10
4.518293
 20
-52.4492029437
 11
4.518293
 21
-52.4144733082
  0
LINE
  5
443
100
AcDbEntity
  8
RACCORDO
100
AcDbLine
 62
7
  6
CONTINUOUS
 10
4.8
 20
-64.9301035763
 11
4.8
 21
-65.5000177199
  0
LINE
  5
444
100
AcDbEntity
  8
RACCORDO
100
AcDbLine
 62
7
  6
CONTINUOUS
 10
4.8
 20
64.9301035763
 11
4.8
 21
65.5000177199
  0
LINE
  5
445
100
AcDbEntity
  8
0
100
AcDbLine
 62
7
  6
CONTINUOUS
 10
4.834696
 20
-53.3242176819
 11
4.834696
 21
-53.2894880463
  0
LINE
  5
446
100
AcDbEntity
  8
0
100
AcDbLine
 62
250
  6
CONTINUOUS
 10
4.960844
 20
56.6945977225
 11
4.960844
 21
56.659868087
  0
LINE
  5
447
100
AcDbEntity
  8
0
100
AcDbLine
 62
250
  6
CONTINUOUS
 10
5.038572
 20
57.8578459349
 11
5.038572
 21
57.8231162993
  0
LINE
  5
448
100
AcDbEntity
  8
0
100
AcDbLine
 62
7
  6
CONTINUOUS
 10
4.28722
 20
55.1421540651
 11
4.287283
 21
56.1921969669
  0
LWPOLYLINE
  5
449
100
AcDbEntity
  8
ASSI
100
AcDbPolyline
 62
7
  6
CONTINUOUS
 90
12
 70
0
 10
1.5196277087
 20
-57.4987816117
 10
1.5191987691
 20
-57.551159471
 10
1.5061443532
 20
-57.700880759
 10
1.477058452
 20
-57.8484378103
 10
1.4323597967
 20
-57.993900116
 10
1.3733170649
 20
-58.132848461
 10
1.2994714611
 20
-58.2651061172
 10
1.2112817808
 20
-58.3908498126
 10
1.1113930882
 20
-58.5061905163
 10
1.0006870712
 20
-58.6098318844
 10
0.8782820418
 20
-58.7030702606
 10
0.744178
 20
-58.7859056451
  0
LWPOLYLINE
  5
44A
100
AcDbEntity
  8
0
100
AcDbPolyline
 62
7
  6
CONTINUOUS
 90
12
 70
0
 10
5.8971730797
 20
57.0255199128
 10
5.8964156177
 20
56.9946158165
 10
5.8875115023
 20
56.9001767242
 10
5.8672743548
 20
56.807647183
 10
5.8360962435
 20
56.7169065342
 10
5.7952767476
 20
56.6313366478
 10
5.7444549146
 20
56.551166977
 10
5.6839916971
 20
56.4761680686
 10
5.6162695322
 20
56.4090334337
 10
5.5420825657
 20
56.3506609091
 10
5.4606366519
 20
56.3001526579
 10
5.3719317907
 20
56.2575086802
  0
LWPOLYLINE
  5
44B
100
AcDbEntity
  8
ASSI
100
AcDbPolyline
 62
7
  6
CONTINUOUS
 90
9
 70
0
 10
-1.5204122825
 20
-57.4987408318
 10
-1.5162919181
 20
-57.3945598093
 10
-1.497639443
 20
-57.2454939361
 10
-1.4629664194
 20
-57.0991973078
 10
-1.4127408491
 20
-56.9555853052
 10
-1.3485023593
 20
-56.8189760856
 10
-1.270764159
 20
-56.6908090348
 10
-1.1790130393
 20
-56.5696447671
 10
-1.073249
 20
-56.4554832825
  0
LWPOLYLINE
  5
44C
100
AcDbEntity
  8
ASSI
100
AcDbPolyline
 62
7
  6
CONTINUOUS
 90
13
 70
0
 10
2.0239758599
 20
-57.4997969427
 10
2.0138275594
 20
-57.6935512805
 10
1.9838799302
 20
-57.8870721618
 10
1.9352654674
 20
-58.0747308268
 10
1.8675219093
 20
-58.2562408914
 10
1.7811115176
 20
-58.4318887398
 10
1.6785535721
 20
-58.5968987613
 10
1.5595038381
 20
-58.7509787763
 10
1.4243065502
 20
-58.8944209644
 10
1.2765136928
 20
-59.0233262542
 10
1.1173092606
 20
-59.1363949552
 10
0.9455092588
 20
-59.2349267578
 10
0.7611136875
 20
-59.3189216621
  0
LWPOLYLINE
  5
44D
100
AcDbEntity
  8
0
100
AcDbPolyline
 62
7
  6
CONTINUOUS
 90
15
 70
0
 10
-3.4949429387
 20
-53.0669952887
 10
-3.5004452659
 20
-53.1310833045
 10
-3.5100342171
 20
-53.1922640475
 10
-3.5235025763
 20
-53.2510322373
 10
-3.5410575595
 20
-53.3068931542
 10
-3.5633208143
 20
-53.3583626394
 10
-3.5907700868
 20
-53.4051883084
 10
-3.622927631
 20
-53.4476225457
 10
-3.6589818561
 20
-53.484938346
 10
-3.6989087147
 20
-53.5170173824
 10
-3.7427322542
 20
-53.5439779818
 10
-3.7897130256
 20
-53.5654481194
 10
-3.839604546
 20
-53.581303787
 10
-3.8926532984
 20
-53.5916689929
 10
-3.9488592827
 20
-53.5965437369
  0
LWPOLYLINE
  5
44E
100
AcDbEntity
  8
RACCORDO
100
AcDbPolyline
 62
250
  6
CONTINUOUS
 90
3
 70
0
 10
12.2741695654
 20
6.0018332506
 10
12.2715858892
 20
6.0013944959
 10
12.2690128519
 20
6.0012928507
  0
LWPOLYLINE
  5
44F
100
AcDbEntity
  8
RACCORDO
100
AcDbPolyline
 62
250
  6
CONTINUOUS
 90
21
 70
0
 10
12.3053182967
 20
6.0010330744
 10
12.3400442709
 20
6.0040410999
 10
12.3732202728
 20
6.0088949556
 10
12.4049924971
 20
6.0155002532
 10
12.4351856189
 20
6.0237345443
 10
12.4633963783
 20
6.033413348
 10
12.4896660507
 20
6.0444361011
 10
12.5141714827
 20
6.0567445321
 10
12.5368390284
 20
6.0702086544
 10
12.5576569637
 20
6.0846977363
 10
12.5769182863
 20
6.1003000929
 10
12.5949884614
 20
6.1172769858
 10
12.611972841
 20
6.1357485583
 10
12.6278642387
 20
6.1557757762
 10
12.6427761823
 20
6.1776240166
 10
12.6567747976
 20
6.2016165072
 10
12.6697130801
 20
6.22774265
 10
12.6813613433
 20
6.2557322907
 10
12.6916241449
 20
6.285637138
 10
12.7004364623
 20
6.3175536439
 10
12.7076194415
 20
6.351119688
  0
LWPOLYLINE
  5
450
100
AcDbEntity
  8
RACCORDO
100
AcDbPolyline
 62
7
  6
CONTINUOUS
 90
34
 70
0
 10
-12.3159879709
 20
6.0079134706
 10
-12.3336527577
 20
6.011726626
 10
-12.351225526
 20
6.0162549687
 10
-12.3686062899
 20
6.0214636505
 10
-12.3857530982
 20
6.0273269183
 10
-12.402640589
 20
6.0338229085
 10
-12.4192179362
 20
6.0409177706
 10
-12.4354445344
 20
6.0485772132
 10
-12.4513272815
 20
6.0567883052
 10
-12.4668354425
 20
6.0655200074
 10
-12.481938408
 20
6.0747380639
 10
-12.4966507297
 20
6.0844353204
 10
-12.5109496621
 20
6.0945820814
 10
-12.5248148308
 20
6.105147676
 10
-12.5382663361
 20
6.116132806
 10
-12.55128688
 20
6.1275104968
 10
-12.5638611948
 20
6.139253225
 10
-12.5760107399
 20
6.1513688253
 10
-12.5877379012
 20
6.1638513101
 10
-12.5990117685
 20
6.1766581754
 10
-12.6098045194
 20
6.1897431531
 10
-12.6201145086
 20
6.2030869026
 10
-12.6299278059
 20
6.2166523259
 10
-12.6392053372
 20
6.2303586489
 10
-12.6479456156
 20
6.2441692284
 10
-12.6561529246
 20
6.2580537057
 10
-12.6638054472
 20
6.2719306918
 10
-12.6709117366
 20
6.2857628042
 10
-12.6774816088
 20
6.2995121672
 10
-12.683502206
 20
6.3130843482
 10
-12.6889969483
 20
6.3264549745
 10
-12.6939739072
 20
6.3395599611
 10
-12.6984079843
 20
6.3522249259
 10
-12.7023273718
 20
6.3643980174
  0
LINE
  5
451
100
AcDbEntity
  8
0
100
AcDbLine
 62
7
  6
CONTINUOUS
 10
5.427427
 20
-52.2241229517
 11
5.427427
 21
-53.7758770483
  0
LINE
  5
452
100
AcDbEntity
  8
0
100
AcDbLine
 62
7
  6
CONTINUOUS
 10
5.64365
 20
-53.5900176411
 11
5.64365
 21
-52.2241229517
  0
LINE
  5
453
100
AcDbEntity
  8
INCISIONI
100
AcDbLine
 62
7
  6
CONTINUOUS
 10
5.756579
 20
-63.962384
 11
5.756579
 21
-64.198626
  0
LINE
  5
454
100
AcDbEntity
  8
INCISIONI
100
AcDbLine
 62
7
  6
CONTINUOUS
 10
5.988399
 20
-64.198626
 11
5.988399
 21
-63.962384
  0
LINE
  5
455
100
AcDbEntity
  8
0
100
AcDbLine
 62
7
  6
CONTINUOUS
 10
6.454843
 20
-53.7758770483
 11
6.454843
 21
-53.5900176411
  0
LINE
  5
456
100
AcDbEntity
  8
DRAFT
100
AcDbLine
 62
7
  6
CONTINUOUS
 10
7.0
 20
65.5
 11
7.0
 21
65.2
  0
LINE
  5
457
100
AcDbEntity
  8
0
100
AcDbLine
 62
7
  6
CONTINUOUS
 10
7.0
 20
65.2
 11
7.0
 21
64.5
  0
LINE
  5
458
100
AcDbEntity
  8
DRAFT
100
AcDbLine
 62
7
  6
CONTINUOUS
 10
7.0
 20
-65.5
 11
7.0
 21
-65.2
  0
LINE
  5
459
100
AcDbEntity
  8
0
100
AcDbLine
 62
7
  6
CONTINUOUS
 10
7.0
 20
-65.2
 11
7.0
 21
-64.5
  0
LINE
  5
45A
100
AcDbEntity
  8
RACCORDO
100
AcDbLine
 62
7
  6
CONTINUOUS
 10
7.0
 20
-64.5
 11
7.0
 21
-62.5
  0
LINE
  5
45B
100
AcDbEntity
  8
RACCORDO
100
AcDbLine
 62
7
  6
CONTINUOUS
 10
7.0
 20
62.5
 11
7.0
 21
64.5
  0
LINE
  5
45C
100
AcDbEntity
  8
0
100
AcDbLine
 62
7
  6
CONTINUOUS
 10
7.132239
 20
-53.1512853561
 11
7.132239
 21
-53.7758770483
  0
LINE
  5
45D
100
AcDbEntity
  8
0
100
AcDbLine
 62
7
  6
CONTINUOUS
 10
7.348333
 20
-53.7758770483
 11
7.348333
 21
-53.1512853561
  0
LINE
  5
45E
100
AcDbEntity
  8
ASSI
100
AcDbLine
 62
7
  6
CONTINUOUS
 10
8.132446
 20
-2.548037
 11
8.132446
 21
-1.79722
  0
LINE
  5
45F
100
AcDbEntity
  8
ASSI
100
AcDbLine
 62
7
  6
CONTINUOUS
 10
8.132446
 20
1.79722
 11
8.132446
 21
2.548037
  0
LWPOLYLINE
  5
460
100
AcDbEntity
  8
INCISIONI
100
AcDbPolyline
 62
7
  6
CONTINUOUS
 90
16
 70
0
 10
5.2325942013
 20
-63.3986255277
 10
5.2313001528
 20
-63.46937253
 10
5.2256495047
 20
-63.5369820899
 10
5.215642257
 20
-63.6014542073
 10
5.2014960548
 20
-63.6633560564
 10
5.1829932529
 20
-63.722120463
 10
5.1594809159
 20
-63.7760459046
 10
5.1304439152
 20
-63.8248548334
 10
5.0963973794
 20
-63.8688247971
 10
5.0582337578
 20
-63.9070869167
 10
5.0159061055
 20
-63.9394027562
 10
4.9694613674
 20
-63.9660107515
 10
4.9199328274
 20
-63.9867573308
 10
4.8676649136
 20
-64.0015913033
 10
4.8123131979
 20
-64.0105638597
 10
4.7538776804
 20
-64.013675
  0
LINE
  5
461
100
AcDbEntity
  8
ASSI
100
AcDbLine
 62
7
  6
CONTINUOUS
 10
-9.774464
 20
-63.150007
 11
-10.031881
 21
-64.047735
  0
LINE
  5
462
100
AcDbEntity
  8
ASSI
100
AcDbLine
 62
7
  6
CONTINUOUS
 10
-9.8892938246
 20
-64.5
 11
-9.638333
 21
-63.624801
  0
LINE
  5
463
100
AcDbEntity
  8
ASSI
100
AcDbLine
 62
7
  6
CONTINUOUS
 10
-10.926948
 20
-63.676388
 11
-11.058897
 21
-64.08738
  0
LINE
  5
464
100
AcDbEntity
  8
ASSI
100
AcDbLine
 62
7
  6
CONTINUOUS
 10
-10.757942
 20
-63.150007
 11
-10.843898
 21
-63.417729
  0
LINE
  5
465
100
AcDbEntity
  8
ASSI
100
AcDbLine
 62
7
  6
CONTINUOUS
 10
-10.9191022815
 20
-64.5
 11
-10.48567
 21
-63.150003
  0
LWPOLYLINE
  5
466
100
AcDbEntity
  8
RACCORDO
100
AcDbPolyline
 62
7
  6
CONTINUOUS
 90
33
 70
0
 10
12.7018434148
 20
6.3628370553
 10
12.6974328529
 20
6.3493480914
 10
12.6923926079
 20
6.3352806935
 10
12.6866948563
 20
6.3207261697
 10
12.680297424
 20
6.3057329082
 10
12.6732655453
 20
6.290573778
 10
12.6656091838
 20
6.2753491185
 10
12.6572944384
 20
6.2600631445
 10
12.6483422534
 20
6.2448187411
 10
12.638765044
 20
6.2296870457
 10
12.6285448525
 20
6.2146854098
 10
12.6176583212
 20
6.1998277446
 10
12.6061012067
 20
6.1851566454
 10
12.5938773788
 20
6.1707221288
 10
12.5809726824
 20
6.1565514037
 10
12.5673934994
 20
6.1426945607
 10
12.5531479129
 20
6.1292001315
 10
12.5382252894
 20
6.1160981324
 10
12.5226426636
 20
6.1034430813
 10
12.5064184669
 20
6.0912867708
 10
12.4895487738
 20
6.0796631
 10
12.4720638685
 20
6.0686293873
 10
12.4539994456
 20
6.0582415277
 10
12.4353706838
 20
6.0485407114
 10
12.4162345377
 20
6.0395872951
 10
12.3966463856
 20
6.0314338919
 10
12.3766416597
 20
6.0241206855
 10
12.3562759394
 20
6.0176931569
 10
12.3356792418
 20
6.0122113164
 10
12.3150429782
 20
6.0077302712
 10
12.2944759575
 20
6.0042660811
 10
12.2741695654
 20
6.0018332506
 10
12.2545134428
 20
6.0004316229
  0
LWPOLYLINE
  5
467
100
AcDbEntity
  8
RACCORDO
100
AcDbPolyline
 62
250
  6
CONTINUOUS
 90
9
 70
0
 10
13.1108533169
 20
6.0
 10
13.1156353475
 20
6.0089326491
 10
13.1416210009
 20
6.0666035887
 10
13.1640607232
 20
6.1270142874
 10
13.1830552296
 20
6.1901201951
 10
13.1979848892
 20
6.2551377763
 10
13.2086431585
 20
6.3218058525
 10
13.2152365811
 20
6.3903856022
 10
13.2177651569
 20
6.4608770253
  0
LINE
  5
468
100
AcDbEntity
  8
RACCORDO
100
AcDbLine
 62
7
  6
CONTINUOUS
 10
-16.8764983111
 20
-17.6331904331
 11
-16.8965699136
 21
-17.6414905497
  0
LWPOLYLINE
  5
469
100
AcDbEntity
  8
RACCORDO
100
AcDbPolyline
 62
7
  6
CONTINUOUS
 90
3
 70
0
 10
-16.8462694427
 20
-17.6210290979
 10
-16.8563619371
 20
-17.6250442902
 10
-16.8764983111
 20
-17.6331904331
  0
LINE
  5
46A
100
AcDbEntity
  8
RACCORDO
100
AcDbLine
 62
7
  6
CONTINUOUS
 10
-15.25
 20
6.0
 11
15.25
 21
6.0
  0
LINE
  5
46B
100
AcDbEntity
  8
RACCORDO
100
AcDbLine
 62
250
  6
CONTINUOUS
 10
12.7177651569
 20
6.4608770254
 11
13.2177651569
 21
6.4608770253
  0
LINE
  5
46C
100
AcDbEntity
  8
RACCORDO
100
AcDbLine
 62
250
  6
CONTINUOUS
 10
-12.7177651569
 20
6.4608770345
 11
-13.2177651568
 21
6.4608770186
  0
LINE
  5
46D
100
AcDbEntity
  8
RACCORDO
100
AcDbLine
 62
7
  6
CONTINUOUS
 10
-16.8462694427
 20
17.6210290979
 11
-16.8664382746
 21
17.629097698
  0
LWPOLYLINE
  5
46E
100
AcDbEntity
  8
RACCORDO
100
AcDbPolyline
 62
7
  6
CONTINUOUS
 90
3
 70
0
 10
-16.8664382746
 20
17.629097698
 10
-16.8865421908
 20
17.6373213837
 10
-16.8965699136
 20
17.6414905497
  0
LWPOLYLINE
  5
46F
100
AcDbEntity
  8
RACCORDO
100
AcDbPolyline
 62
250
  6
CONTINUOUS
 90
3
 70
0
 10
12.7152405775
 20
-6.4063223369
 10
12.7130329893
 20
-6.3860953164
 10
12.7076259828
 20
-6.3510637359
  0
LINE
  5
470
100
AcDbEntity
  8
RACCORDO
100
AcDbLine
 62
7
  6
CONTINUOUS
 10
12.7152405775
 20
-6.4063223369
 11
12.71564491
 21
-6.4108262266
  0
LINE
  5
471
100
AcDbEntity
  8
RACCORDO
100
AcDbLine
 62
7
  6
CONTINUOUS
 10
12.71564491
 20
-6.4108262266
 11
12.7173433897
 21
-6.43838905
  0
LWPOLYLINE
  5
472
100
AcDbEntity
  8
RACCORDO
100
AcDbPolyline
 62
250
  6
CONTINUOUS
 90
9
 70
0
 10
13.2177651569
 20
-6.4608169965
 10
13.2152387262
 20
-6.3903388227
 10
13.2086496434
 20
-6.3217727578
 10
13.1979979085
 20
-6.2551188018
 10
13.183076699
 20
-6.190115455
 10
13.1640928374
 20
-6.1270242171
 10
13.1416667908
 20
-6.0666295871
 10
13.1157007241
 20
-6.0089798832
 10
13.1108951229
 20
-6.0
  0
LWPOLYLINE
  5
473
100
AcDbEntity
  8
RACCORDO
100
AcDbPolyline
 62
250
  6
CONTINUOUS
 90
7
 70
0
 10
13.2177651569
 20
50.7
 10
13.2164225345
 20
50.7565924476
 10
13.21244484
 20
50.8128454365
 10
13.2058320734
 20
50.8687589669
 10
13.1965636148
 20
50.9244548301
 10
13.1846600842
 20
50.9798112346
 10
13.1793122496
 20
51.0
  0
LINE
  5
474
100
AcDbEntity
  8
RACCORDO
100
AcDbLine
 62
7
  6
CONTINUOUS
 10
12.7173433897
 20
-6.43838905
 11
12.7177667127
 21
-6.4608170167
  0
LINE
  5
475
100
AcDbEntity
  8
RACCORDO
100
AcDbLine
 62
250
  6
CONTINUOUS
 10
14.2233167224
 20
51.0
 11
14.2351236922
 21
45.8527264738
  0
LINE
  5
476
100
AcDbEntity
  8
RACCORDO
100
AcDbLine
 62
250
  6
CONTINUOUS
 10
14.2351236922
 20
45.8527264738
 11
14.2425802846
 21
41.3283790469
  0
LINE
  5
477
100
AcDbEntity
  8
RACCORDO
100
AcDbLine
 62
250
  6
CONTINUOUS
 10
14.2425802846
 20
41.3283790469
 11
14.2472720474
 21
36.8874746203
  0
LINE
  5
478
100
AcDbEntity
  8
ASSI
100
AcDbLine
 62
7
  6
CONTINUOUS
 10
12.117556
 20
-0.375
 11
12.117556
 21
0.375
  0
LINE
  5
479
100
AcDbEntity
  8
ASSI
100
AcDbLine
 62
7
  6
CONTINUOUS
 10
12.517556
 20
-2.5480371177
 11
12.517556
 21
-1.7972169516
  0
LINE
  5
47A
100
AcDbEntity
  8
ASSI
100
AcDbLine
 62
7
  6
CONTINUOUS
 10
12.517556
 20
1.79722
 11
12.517556
 21
2.5480371177
  0
LINE
  5
47B
100
AcDbEntity
  8
RACCORDO
100
AcDbLine
 62
7
  6
CONTINUOUS
 10
12.7177651569
 20
-50.9436669539
 11
12.7177651569
 21
-6.460817014
  0
LINE
  5
47C
100
AcDbEntity
  8
RACCORDO
100
AcDbLine
 62
7
  6
CONTINUOUS
 10
12.7177651569
 20
6.4608770254
 11
12.7177651569
 21
50.7000000001
  0
LINE
  5
47D
100
AcDbEntity
  8
DRAFT
100
AcDbLine
 62
7
  6
CONTINUOUS
 10
13.0
 20
65.5
 11
13.0
 21
65.2
  0
LINE
  5
47E
100
AcDbEntity
  8
0
100
AcDbLine
 62
7
  6
CONTINUOUS
 10
13.0
 20
65.2
 11
13.0
 21
64.5
  0
LINE
  5
47F
100
AcDbEntity
  8
RACCORDO
100
AcDbLine
 62
7
  6
CONTINUOUS
 10
13.0
 20
64.5
 11
13.0
 21
62.5
  0
LINE
  5
480
100
AcDbEntity
  8
DRAFT
100
AcDbLine
 62
7
  6
CONTINUOUS
 10
13.0
 20
-65.5
 11
13.0
 21
-65.2
  0
LINE
  5
481
100
AcDbEntity
  8
0
100
AcDbLine
 62
7
  6
CONTINUOUS
 10
13.0
 20
-65.2
 11
13.0
 21
-64.5
  0
LINE
  5
482
100
AcDbEntity
  8
RACCORDO
100
AcDbLine
 62
7
  6
CONTINUOUS
 10
13.0
 20
-62.5
 11
13.0
 21
-64.5
  0
LINE
  5
483
100
AcDbEntity
  8
RACCORDO
100
AcDbLine
 62
250
  6
CONTINUOUS
 10
13.2177651569
 20
-50.943666954
 11
13.2177651569
 21
-6.4608169965
  0
LINE
  5
484
100
AcDbEntity
  8
RACCORDO
100
AcDbLine
 62
250
  6
CONTINUOUS
 10
13.2177651569
 20
6.4608770253
 11
13.2177651569
 21
50.7
  0
LINE
  5
485
100
AcDbEntity
  8
RACCORDO
100
AcDbLine
 62
250
  6
CONTINUOUS
 10
13.4357248033
 20
-51.0
 11
13.4357248033
 21
-6.0
  0
LINE
  5
486
100
AcDbEntity
  8
RACCORDO
100
AcDbLine
 62
250
  6
CONTINUOUS
 10
13.4357248033
 20
6.0
 11
13.4357248033
 21
51.0
  0
LINE
  5
487
100
AcDbEntity
  8
RACCORDO
100
AcDbLine
 62
250
  6
CONTINUOUS
 10
13.5300588062
 20
-66.8
 11
13.530058806
 21
-66.8407235036
  0
LINE
  5
488
100
AcDbEntity
  8
RACCORDO
100
AcDbLine
 62
250
  6
CONTINUOUS
 10
13.5300588064
 20
66.8
 11
13.530058806
 21
66.8407235036
  0
LINE
  5
489
100
AcDbEntity
  8
RACCORDO
100
AcDbLine
 62
250
  6
CONTINUOUS
 10
14.1347654776
 20
-51.0
 11
14.1347654776
 21
-6.0
  0
LINE
  5
48A
100
AcDbEntity
  8
RACCORDO
100
AcDbLine
 62
250
  6
CONTINUOUS
 10
14.1347654776
 20
6.0
 11
14.1347654776
 21
51.0
  0
LINE
  5
48B
100
AcDbEntity
  8
RACCORDO
100
AcDbLine
 62
250
  6
CONTINUOUS
 10
14.2472720474
 20
36.8874746203
 11
14.2494845932
 21
31.0965491012
  0
LINE
  5
48C
100
AcDbEntity
  8
0
100
AcDbLine
 62
7
  6
CONTINUOUS
 10
14.3
 20
51.0
 11
14.3
 21
6.0
  0
LINE
  5
48D
100
AcDbEntity
  8
0
100
AcDbLine
 62
7
  6
CONTINUOUS
 10
14.3
 20
-6.0
 11
14.3
 21
-51.0
  0
LINE
  5
48E
100
AcDbEntity
  8
RACCORDO
100
AcDbLine
 62
250
  6
CONTINUOUS
 10
14.2494845932
 20
31.0965491012
 11
14.248244297
 21
-35.4340714705
  0
LINE
  5
48F
100
AcDbEntity
  8
RACCORDO
100
AcDbLine
 62
250
  6
CONTINUOUS
 10
14.248244297
 20
-35.4340714705
 11
14.2444304686
 21
-39.8520763323
  0
LINE
  5
490
100
AcDbEntity
  8
RACCORDO
100
AcDbLine
 62
250
  6
CONTINUOUS
 10
14.2444304686
 20
-39.8520763323
 11
14.2379014378
 21
-44.350297134
  0
LINE
  5
491
100
AcDbEntity
  8
RACCORDO
100
AcDbLine
 62
250
  6
CONTINUOUS
 10
14.2379014378
 20
-44.350297134
 11
14.2285124905
 21
-48.928436769
  0
LINE
  5
492
100
AcDbEntity
  8
RACCORDO
100
AcDbLine
 62
250
  6
CONTINUOUS
 10
14.2285124905
 20
-48.928436769
 11
14.2233171576
 21
-51.0
  0
LWPOLYLINE
  5
493
100
AcDbEntity
  8
RACCORDO
100
AcDbPolyline
 62
7
  6
CONTINUOUS
 90
3
 70
0
 10
12.7177659973
 20
-50.943666953
 10
12.7176701723
 20
-50.9545977242
 10
12.717598866
 20
-50.9561581184
  0
LINE
  5
494
100
AcDbEntity
  8
RACCORDO
100
AcDbLine
 62
7
  6
CONTINUOUS
 10
12.7177667311
 20
6.4608770278
 11
12.7172049556
 21
6.435063426
  0
LINE
  5
495
100
AcDbEntity
  8
RACCORDO
100
AcDbLine
 62
7
  6
CONTINUOUS
 10
12.7172049556
 20
6.435063426
 11
12.7152224911
 21
6.406195101
  0
LINE
  5
496
100
AcDbEntity
  8
RACCORDO
100
AcDbLine
 62
7
  6
CONTINUOUS
 10
12.7152355122
 20
6.4063446922
 11
12.7152535192
 21
6.4065380147
  0
LWPOLYLINE
  5
497
100
AcDbEntity
  8
RACCORDO
100
AcDbPolyline
 62
250
  6
CONTINUOUS
 90
3
 70
0
 10
12.7076194415
 20
6.351119688
 10
12.7130302336
 20
6.3861563793
 10
12.7152355122
 20
6.4063446922
  0
LINE
  5
498
100
AcDbEntity
  8
RACCORDO
100
AcDbLine
 62
7
  6
CONTINUOUS
 10
12.7163291531
 20
6.4223101325
 11
12.7147665685
 21
6.4136903578
  0
LINE
  5
499
100
AcDbEntity
  8
RACCORDO
100
AcDbLine
 62
250
  6
CONTINUOUS
 10
12.715557861
 20
6.4144565276
 11
12.7089640218
 21
6.3796227066
  0
LWPOLYLINE
  5
49A
100
AcDbEntity
  8
RACCORDO
100
AcDbPolyline
 62
7
  6
CONTINUOUS
 90
6
 70
0
 10
12.7147665685
 20
6.4136903578
 10
12.7132456488
 20
6.4062157645
 10
12.7112310304
 20
6.3972027842
 10
12.7086831278
 20
6.3868475761
 10
12.7055776843
 20
6.3753795861
 10
12.7018434148
 20
6.3628370553
  0
LWPOLYLINE
  5
49B
100
AcDbEntity
  8
RACCORDO
100
AcDbPolyline
 62
250
  6
CONTINUOUS
 90
18
 70
0
 10
12.7089640218
 20
6.3796227066
 10
12.6996256927
 20
6.3451666748
 10
12.6876021861
 20
6.31130728
 10
12.6729698695
 20
6.2782595803
 10
12.6558216809
 20
6.2462334806
 10
12.636266538
 20
6.2154323981
 10
12.6144286467
 20
6.1860519686
 10
12.5904467119
 20
6.1582788046
 10
12.5644730563
 20
6.1322893096
 10
12.5366726535
 20
6.1082485581
 10
12.5072220798
 20
6.0863092471
 10
12.4763083925
 20
6.066610726
 10
12.4441279421
 20
6.0492781118
 10
12.4108851248
 20
6.0344214939
 10
12.376791085
 20
6.0221352357
 10
12.342062373
 20
6.0124973744
 10
12.3069195704
 20
6.0055691259
 10
12.2944759575
 20
6.0042660811
  0
LINE
  5
49C
100
AcDbEntity
  8
ASSI
100
AcDbLine
 62
7
  6
CONTINUOUS
 10
-7.809371
 20
-63.150003
 11
-8.2428124881
 21
-64.5
  0
LINE
  5
49D
100
AcDbEntity
  8
ASSI
100
AcDbLine
 62
7
  6
CONTINUOUS
 10
-7.9705365839
 20
-64.5
 11
-7.673234
 21
-63.573997
  0
LINE
  5
49E
100
AcDbEntity
  8
0
100
AcDbLine
 62
7
  6
CONTINUOUS
 10
-6.6394089461
 20
-52.4689035658
 11
-6.628693
 21
-52.4378747298
  0
LINE
  5
49F
100
AcDbEntity
  8
0
100
AcDbLine
 62
7
  6
CONTINUOUS
 10
-7.078784
 20
-53.7758770483
 11
-6.628693
 21
-52.4726043653
  0
LINE
  5
4A0
100
AcDbEntity
  8
0
100
AcDbLine
 62
7
  6
CONTINUOUS
 10
-6.726711
 20
-52.2241229517
 11
-7.183554
 21
-53.5423661823
  0
LINE
  5
4A1
100
AcDbEntity
  8
0
100
AcDbLine
 62
7
  6
CONTINUOUS
 10
-6.004673
 20
-53.7758770483
 11
-5.837518
 21
-53.3242176819
  0
LINE
  5
4A2
100
AcDbEntity
  8
0
100
AcDbLine
 62
7
  6
CONTINUOUS
 10
-5.770645
 20
-53.1383592445
 11
-5.51207
 21
-52.4492029437
  0
LINE
  5
4A3
100
AcDbEntity
  8
0
100
AcDbLine
 62
7
  6
CONTINUOUS
 10
-5.625849
 20
-52.2241229517
 11
-6.227496
 21
-53.7758770483
  0
LINE
  5
4A4
100
AcDbEntity
  8
RACCORDO
100
AcDbLine
 62
7
  6
CONTINUOUS
 10
-16.8260374236
 20
-17.6131022402
 11
-16.8462694427
 21
-17.6210290979
  0
LINE
  5
4A5
100
AcDbEntity
  8
RACCORDO
100
AcDbLine
 62
7
  6
CONTINUOUS
 10
-16.8057426494
 20
-17.605313789
 11
-16.8260374236
 21
-17.6131022402
  0
LINE
  5
4A6
100
AcDbEntity
  8
RACCORDO
100
AcDbLine
 62
7
  6
CONTINUOUS
 10
-16.8057426494
 20
17.605313789
 11
-16.8260374236
 21
17.6131022402
  0
LINE
  5
4A7
100
AcDbEntity
  8
RACCORDO
100
AcDbLine
 62
7
  6
CONTINUOUS
 10
-16.8260374236
 20
17.6131022402
 11
-16.8462694427
 21
17.6210290979
  0
LINE
  5
4A8
100
AcDbEntity
  8
0
100
AcDbLine
 62
7
  6
CONTINUOUS
 10
-5.968046
 20
57.8578391459
 11
-5.069022
 21
55.1421404873
  0
LINE
  5
4A9
100
AcDbEntity
  8
0
100
AcDbLine
 62
7
  6
CONTINUOUS
 10
-4.788994
 20
55.9879386053
 11
-5.408018
 21
57.8578391459
  0
LINE
  5
4AA
100
AcDbEntity
  8
0
100
AcDbLine
 62
7
  6
CONTINUOUS
 10
-1.556562
 20
56.9329636391
 11
-1.027096
 21
55.1421472762
  0
LWPOLYLINE
  5
4AB
100
AcDbEntity
  8
RACCORDO
100
AcDbPolyline
 62
7
  6
CONTINUOUS
 90
8
 70
0
 10
12.7024137497
 20
-6.3647925577
 10
12.7058381458
 20
-6.3764125978
 10
12.7087585266
 20
-6.3872482055
 10
12.7112095804
 20
-6.3972141442
 10
12.7132280811
 20
-6.4062297222
 10
12.7148201239
 20
-6.4140554092
 10
12.7160168021
 20
-6.4205302833
 10
12.7163737792
 20
-6.4226542708
  0
LWPOLYLINE
  5
4AC
100
AcDbEntity
  8
RACCORDO
100
AcDbPolyline
 62
250
  6
CONTINUOUS
 90
19
 70
0
 10
12.7089650854
 20
-6.3796414286
 10
12.6996260241
 20
-6.3451887027
 10
12.6876012944
 20
-6.3113313654
 10
12.6729673285
 20
-6.2782846248
 10
12.6558171432
 20
-6.2462585338
 10
12.636259749
 20
-6.2154566568
 10
12.6144194574
 20
-6.1860747778
 10
12.5904350903
 20
-6.1582996547
 10
12.564459098
 20
-6.1323078327
 10
12.5366565904
 20
-6.1082645222
 10
12.5072042869
 20
-6.086322548
 10
12.4762893933
 20
-6.0666213783
 10
12.444108413
 20
-6.0492862387
 10
12.4108658959
 20
-6.0344273152
 10
12.3767731394
 20
-6.0221390542
 10
12.342046847
 20
-6.0124995628
 10
12.3069077479
 20
-6.0055701112
 10
12.2715791942
 20
-6.001394744
 10
12.26909199
 20
-6.0012964535
  0
LWPOLYLINE
  5
4AD
100
AcDbEntity
  8
RACCORDO
100
AcDbPolyline
 62
250
  6
CONTINUOUS
 90
21
 70
0
 10
12.7076259828
 20
-6.3510637359
 10
12.7004481715
 20
-6.3175060752
 10
12.6916420744
 20
-6.2856001647
 10
12.6813866528
 20
-6.2557068951
 10
12.6697481869
 20
-6.2277316146
 10
12.6568213361
 20
-6.2016201722
 10
12.6428326229
 20
-6.1776367193
 10
12.6279271454
 20
-6.1557903466
 10
12.6120398693
 20
-6.1357613889
 10
12.5950582421
 20
-6.1172868105
 10
12.5769895952
 20
-6.1003062404
 10
12.5577285845
 20
-6.0846997238
 10
12.5369107504
 20
-6.0702071256
 10
12.5142438966
 20
-6.0567405536
 10
12.4897396304
 20
-6.0444306057
 10
12.4634711319
 20
-6.0334072328
 10
12.4352617311
 20
-6.0237285773
 10
12.4050704832
 20
-6.0154952194
 10
12.3732998006
 20
-6.008891436
 10
12.3401244434
 20
-6.0040392282
 10
12.3053984111
 20
-6.001032522
  0
LINE
  5
4AE
100
AcDbEntity
  8
RACCORDO
100
AcDbLine
 62
250
  6
CONTINUOUS
 10
12.7155591165
 20
-6.4144705516
 11
12.7089650854
 21
-6.3796414286
  0
LINE
  5
4AF
100
AcDbEntity
  8
RACCORDO
100
AcDbLine
 62
250
  6
CONTINUOUS
 10
18.2339353452
 20
-65.3096166645
 11
18.2352182923
 21
-65.6530246159
  0
LINE
  5
4B0
100
AcDbEntity
  8
RACCORDO
100
AcDbLine
 62
7
  6
CONTINUOUS
 10
15.25
 20
65.4300274238
 11
15.25
 21
61.9918713663
  0
LINE
  5
4B1
100
AcDbEntity
  8
RACCORDO
100
AcDbLine
 62
7
  6
CONTINUOUS
 10
15.25
 20
6.0
 11
15.25
 21
-6.0
  0
LINE
  5
4B2
100
AcDbEntity
  8
0
100
AcDbLine
 62
7
  6
CONTINUOUS
 10
15.25
 20
-6.0
 11
15.25
 21
-61.9918713663
  0
LINE
  5
4B3
100
AcDbEntity
  8
RACCORDO
100
AcDbLine
 62
7
  6
CONTINUOUS
 10
15.25
 20
-61.9918713663
 11
15.25
 21
-65.4300274238
  0
LINE
  5
4B4
100
AcDbEntity
  8
0
100
AcDbLine
 62
7
  6
CONTINUOUS
 10
15.25
 20
6.0
 11
15.25
 21
61.9918713663
  0
LINE
  5
4B5
100
AcDbEntity
  8
DRAFT
100
AcDbLine
 62
7
  6
CONTINUOUS
 10
16.8057426494
 20
45.5664150497
 11
16.8057426494
 21
18.394686211
  0
LINE
  5
4B6
100
AcDbEntity
  8
DRAFT
100
AcDbLine
 62
7
  6
CONTINUOUS
 10
16.8057426494
 20
17.605313789
 11
16.8057426494
 21
-17.605313789
  0
LINE
  5
4B7
100
AcDbEntity
  8
DRAFT
100
AcDbLine
 62
7
  6
CONTINUOUS
 10
16.8057426494
 20
-18.394686211
 11
16.8057426494
 21
-45.5664150497
  0
LINE
  5
4B8
100
AcDbEntity
  8
RACCORDO
100
AcDbLine
 62
7
  6
CONTINUOUS
 10
16.8127246754
 20
64.9128008278
 11
16.8127246754
 21
54.8920237204
  0
LINE
  5
4B9
100
AcDbEntity
  8
DRAFT
100
AcDbLine
 62
7
  6
CONTINUOUS
 10
16.8127246754
 20
54.1079762796
 11
16.8127246754
 21
52.9409741574
  0
LINE
  5
4BA
100
AcDbEntity
  8
DRAFT
100
AcDbLine
 62
7
  6
CONTINUOUS
 10
16.8127246754
 20
-52.9409741574
 11
16.8127246754
 21
-54.1079762796
  0
LINE
  5
4BB
100
AcDbEntity
  8
RACCORDO
100
AcDbLine
 62
7
  6
CONTINUOUS
 10
16.8127246754
 20
-54.8920237204
 11
16.8127246754
 21
-64.9128008278
  0
LINE
  5
4BC
100
AcDbEntity
  8
RACCORDO
100
AcDbLine
 62
250
  6
CONTINUOUS
 10
17.2365887576
 20
-66.5674332967
 11
17.2365887576
 21
-66.8232631188
  0
LINE
  5
4BD
100
AcDbEntity
  8
RACCORDO
100
AcDbLine
 62
250
  6
CONTINUOUS
 10
17.2365887576
 20
66.5667047889
 11
17.2365887576
 21
66.8232631188
  0
LINE
  5
4BE
100
AcDbEntity
  8
RACCORDO
100
AcDbLine
 62
250
  6
CONTINUOUS
 10
18.2352182923
 20
-65.6530246159
 11
18.2352182923
 21
-65.8238722918
  0
LINE
  5
4BF
100
AcDbEntity
  8
RACCORDO
100
AcDbLine
 62
7
  6
CONTINUOUS
 10
18.3
 20
64.801218346
 11
18.3
 21
-64.801218346
  0
LINE
  5
4C0
100
AcDbEntity
  8
RACCORDO
100
AcDbLine
 62
7
  6
CONTINUOUS
 10
18.5
 20
66.0003037511
 11
18.5
 21
-66.0003037511
  0
LINE
  5
4C1
100
AcDbEntity
  8
RACCORDO
100
AcDbLine
 62
7
  6
CONTINUOUS
 10
16.9
 20
65.0000761524
 11
16.9
 21
-65.0000761524
  0
LINE
  5
4C2
100
AcDbEntity
  8
RACCORDO
100
AcDbLine
 62
250
  6
CONTINUOUS
 10
18.2352182923
 20
65.8238722918
 11
18.2349620356
 21
65.540378131
  0
LINE
  5
4C3
100
AcDbEntity
  8
RACCORDO
100
AcDbLine
 62
250
  6
CONTINUOUS
 10
18.2349620356
 20
65.540378131
 11
18.2339229842
 21
65.3068383734
  0
LINE
  5
4C4
100
AcDbEntity
  8
RACCORDO
100
AcDbLine
 62
7
  6
CONTINUOUS
 10
16.8996469164
 20
54.326010535
 11
16.8990936139
 21
54.2382602982
  0
LINE
  5
4C5
100
AcDbEntity
  8
RACCORDO
100
AcDbLine
 62
7
  6
CONTINUOUS
 10
16.8996468871
 20
17.8260026499
 11
16.8990936017
 21
17.738258523
  0
LINE
  5
4C6
100
AcDbEntity
  8
RACCORDO
100
AcDbLine
 62
7
  6
CONTINUOUS
 10
16.8996468786
 20
-18.1739996379
 11
16.8990935981
 21
-18.2617419923
  0
LINE
  5
4C7
100
AcDbEntity
  8
RACCORDO
100
AcDbLine
 62
7
  6
CONTINUOUS
 10
16.8996469129
 20
-54.6739903888
 11
16.8990936125
 21
-54.7617399097
  0
LWPOLYLINE
  5
4C8
100
AcDbEntity
  8
RACCORDO
100
AcDbPolyline
 62
7
  6
CONTINUOUS
 90
7
 70
0
 10
16.8990936139
 20
54.2382602982
 10
16.8985167968
 20
54.1926868855
 10
16.8981656914
 20
54.1744745748
 10
16.8977935785
 20
54.1601612061
 10
16.8974066977
 20
54.1500387119
 10
16.8969988094
 20
54.1438151598
 10
16.8965699136
 20
54.1414905497
  0
LWPOLYLINE
  5
4C9
100
AcDbEntity
  8
RACCORDO
100
AcDbPolyline
 62
7
  6
CONTINUOUS
 90
7
 70
0
 10
16.8990936017
 20
17.738258523
 10
16.8985167933
 20
17.6926869728
 10
16.8981656853
 20
17.674474491
 10
16.8977935709
 20
17.6601609672
 10
16.8974066914
 20
17.6500385366
 10
16.8969988057
 20
17.6438150641
 10
16.8965699136
 20
17.6414905497
  0
LWPOLYLINE
  5
4CA
100
AcDbEntity
  8
RACCORDO
100
AcDbPolyline
 62
7
  6
CONTINUOUS
 90
7
 70
0
 10
16.8990935981
 20
-18.2617419923
 10
16.8985167923
 20
-18.3073130021
 10
16.8981656835
 20
-18.3255255335
 10
16.8977935687
 20
-18.3398391021
 10
16.8974066896
 20
-18.3499615143
 10
16.8969988046
 20
-18.3561849637
 10
16.8965699136
 20
-18.3585094503
  0
LWPOLYLINE
  5
4CB
100
AcDbEntity
  8
RACCORDO
100
AcDbPolyline
 62
7
  6
CONTINUOUS
 90
7
 70
0
 10
16.8990936125
 20
-54.7617399097
 10
16.8985167964
 20
-54.8073131042
 10
16.8981656907
 20
-54.825525435
 10
16.8977935776
 20
-54.8398388219
 10
16.897406697
 20
-54.8499613086
 10
16.8969988089
 20
-54.8561848514
 10
16.8965699136
 20
-54.8585094503
  0
LINE
  5
4CC
100
AcDbEntity
  8
INCISIONI
100
AcDbLine
 62
7
  6
CONTINUOUS
 10
-4.460302
 20
-64.198626
 11
-4.293165
 21
-63.732838
  0
LINE
  5
4CD
100
AcDbEntity
  8
INCISIONI
100
AcDbLine
 62
7
  6
CONTINUOUS
 10
-4.226335
 20
-63.541192
 11
-3.967832
 21
-62.830692
  0
LINE
  5
4CE
100
AcDbEntity
  8
INCISIONI
100
AcDbLine
 62
7
  6
CONTINUOUS
 10
-4.081431
 20
-62.598626
 11
-4.683153
 21
-64.198626
  0
LINE
  5
4CF
100
AcDbEntity
  8
0
100
AcDbLine
 62
7
  6
CONTINUOUS
 10
-0.747089
 20
56.0892836654
 11
-1.269982
 21
57.8578391459
  0
LWPOLYLINE
  5
4D0
100
AcDbEntity
  8
RACCORDO
100
AcDbPolyline
 62
7
  6
CONTINUOUS
 90
8
 70
0
 10
12.6645990023
 20
50.9674482232
 10
12.6643905895
 20
50.9691999396
 10
12.6660863254
 20
50.9732063819
 10
12.6704265184
 20
50.978320105
 10
12.6774205151
 20
50.984432486
 10
12.6870345966
 20
50.9915009293
 10
12.6991931394
 20
50.9995546813
 10
12.6999183249
 20
51.0
  0
LWPOLYLINE
  5
4D1
100
AcDbEntity
  8
RACCORDO
100
AcDbPolyline
 62
7
  6
CONTINUOUS
 90
16
 70
0
 10
16.8127246754
 20
64.9128008278
 10
16.808199598
 20
64.9807572471
 10
16.7954375041
 20
65.0445501122
 10
16.7758399402
 20
65.1033457034
 10
16.751039862
 20
65.1562252044
 10
16.7222203422
 20
65.2033782385
 10
16.689643569
 20
65.2457866389
 10
16.6539086771
 20
65.2834973922
 10
16.6159559728
 20
65.3162614169
 10
16.5759996115
 20
65.3444149054
 10
16.5344922927
 20
65.3680361957
 10
16.492098489
 20
65.387122967
 10
16.4491732791
 20
65.4018245108
 10
16.4061185311
 20
65.4122919758
 10
16.363396362
 20
65.4187091111
 10
16.3213760438
 20
65.4212998914
  0
LINE
  5
4D2
100
AcDbEntity
  8
RACCORDO
100
AcDbLine
 62
7
  6
CONTINUOUS
 10
20.0
 20
67.8004264211
 11
20.0
 21
-67.8004264211
  0
LWPOLYLINE
  5
4D3
100
AcDbEntity
  8
RACCORDO
100
AcDbPolyline
 62
250
  6
CONTINUOUS
 90
22
 70
0
 10
18.2352182923
 20
-65.8238722918
 10
18.2322962593
 20
-65.8984703058
 10
18.2238187622
 20
-65.9726521067
 10
18.2098331005
 20
-66.0460038034
 10
18.1904173059
 20
-66.1181161366
 10
18.1656797073
 20
-66.1885867616
 10
18.1357583259
 20
-66.2570224936
 10
18.1008201054
 20
-66.3230415016
 10
18.0610599808
 20
-66.3862754379
 10
18.0166997901
 20
-66.4463714945
 10
17.9679870372
 20
-66.5029943704
 10
17.9151935107
 20
-66.5558281434
 10
17.8586137676
 20
-66.6045780318
 10
17.7985634896
 20
-66.6489720399
 10
17.7353777221
 20
-66.6887624752
 10
17.6694090045
 20
-66.7237273303
 10
17.6010254038
 20
-66.7536715219
 10
17.5306084603
 20
-66.7784279789
 10
17.4585510592
 20
-66.7978585749
 10
17.3852552385
 20
-66.8118548984
 10
17.3111299461
 20
-66.8203388582
 10
17.2365887576
 20
-66.8232631188
  0
LWPOLYLINE
  5
4D4
100
AcDbEntity
  8
RACCORDO
100
AcDbPolyline
 62
7
  6
CONTINUOUS
 90
16
 70
0
 10
16.8127246754
 20
-64.9213760438
 10
16.8056289939
 20
-64.9862398662
 10
16.7931372429
 20
-65.0476481091
 10
16.7752494224
 20
-65.1048115475
 10
16.7511511466
 20
-65.1569772764
 10
16.7216568013
 20
-65.2040207378
 10
16.6892095438
 20
-65.2462936422
 10
16.6541439618
 20
-65.283650255
 10
16.6161254677
 20
-65.3160798724
 10
16.5765934551
 20
-65.3440376758
 10
16.5356247679
 20
-65.3675834606
 10
16.4931425622
 20
-65.3866726447
 10
16.4503557007
 20
-65.4014778419
 10
16.4076671376
 20
-65.412105353
 10
16.3646739186
 20
-65.4186573214
 10
16.3213760438
 20
-65.4212998914
  0
LINE
  5
4D5
100
AcDbEntity
  8
RACCORDO
100
AcDbLine
 62
250
  6
CONTINUOUS
 10
12.7175375855
 20
-50.9574991194
 11
12.7130994766
 21
-50.9810629734
  0
LWPOLYLINE
  5
4D6
100
AcDbEntity
  8
RACCORDO
100
AcDbPolyline
 62
7
  6
CONTINUOUS
 90
4
 70
0
 10
12.717598866
 20
-50.9561581184
 10
12.715871922
 20
-50.9642819123
 10
12.7133164048
 20
-50.9751661069
 10
12.710157294
 20
-50.9873484806
  0
LINE
  5
4D7
100
AcDbEntity
  8
0
100
AcDbLine
 62
7
  6
CONTINUOUS
 10
4.025703
 20
-53.7758770483
 11
4.192871
 21
-53.3242176819
  0
LINE
  5
4D8
100
AcDbEntity
  8
0
100
AcDbLine
 62
7
  6
CONTINUOUS
 10
4.259731
 20
-53.1383592445
 11
4.518293
 21
-52.4492029437
  0
LINE
  5
4D9
100
AcDbEntity
  8
0
100
AcDbLine
 62
7
  6
CONTINUOUS
 10
4.404617
 20
-52.2241229517
 11
3.802893
 21
-53.7758770483
  0
LINE
  5
4DA
100
AcDbEntity
  8
RACCORDO
100
AcDbLine
 62
7
  6
CONTINUOUS
 10
16.8764983111
 20
-18.3668095669
 11
16.8965699136
 21
-18.3585094503
  0
LINE
  5
4DB
100
AcDbEntity
  8
RACCORDO
100
AcDbLine
 62
7
  6
CONTINUOUS
 10
16.8563619371
 20
-18.3749557098
 11
16.8764983111
 21
-18.3668095669
  0
LINE
  5
4DC
100
AcDbEntity
  8
RACCORDO
100
AcDbLine
 62
7
  6
CONTINUOUS
 10
16.8361612236
 20
-18.3829512148
 11
16.8563619371
 21
-18.3749557098
  0
LWPOLYLINE
  5
4DD
100
AcDbEntity
  8
RACCORDO
100
AcDbPolyline
 62
7
  6
CONTINUOUS
 90
3
 70
0
 10
16.8057426494
 20
-18.394686211
 10
16.8158978989
 20
-18.3908094253
 10
16.8361612236
 20
-18.3829512148
  0
LINE
  5
4DE
100
AcDbEntity
  8
RACCORDO
100
AcDbLine
 62
7
  6
CONTINUOUS
 10
16.8057426494
 20
18.394686211
 11
16.8260374236
 21
18.3868977598
  0
LINE
  5
4DF
100
AcDbEntity
  8
RACCORDO
100
AcDbLine
 62
7
  6
CONTINUOUS
 10
16.8260374236
 20
18.3868977598
 11
16.8462694427
 21
18.3789709021
  0
LINE
  5
4E0
100
AcDbEntity
  8
RACCORDO
100
AcDbLine
 62
7
  6
CONTINUOUS
 10
16.8462694427
 20
18.3789709021
 11
16.8664382746
 21
18.370902302
  0
LWPOLYLINE
  5
4E1
100
AcDbEntity
  8
RACCORDO
100
AcDbPolyline
 62
7
  6
CONTINUOUS
 90
3
 70
0
 10
16.8664382746
 20
18.370902302
 10
16.8865421908
 20
18.3626786163
 10
16.8965699136
 20
18.3585094503
  0
LINE
  5
4E2
100
AcDbEntity
  8
0
100
AcDbLine
 62
7
  6
CONTINUOUS
 10
2.617027
 20
55.6762115741
 11
2.793819
 21
55.1421540651
  0
LINE
  5
4E3
100
AcDbEntity
  8
0
100
AcDbLine
 62
7
  6
CONTINUOUS
 10
2.174788
 20
57.0120478168
 11
2.446199
 21
56.192190178
  0
LINE
  5
4E4
100
AcDbEntity
  8
0
100
AcDbLine
 62
7
  6
CONTINUOUS
 10
3.353847
 20
55.1421472762
 11
2.454816
 21
57.8578459349
  0
LWPOLYLINE
  5
4E5
100
AcDbEntity
  8
0
100
AcDbPolyline
 62
7
  6
CONTINUOUS
 90
13
 70
0
 10
5.8808552493
 20
57.1524651989
 10
5.8566081098
 20
57.2430633083
 10
5.8216715306
 20
57.3316681698
 10
5.7770307059
 20
57.4151778482
 10
5.7222446174
 20
57.4936267928
 10
5.6577542835
 20
57.5669805543
 10
5.5858679537
 20
57.63203385
 10
5.5060685707
 20
57.688404066
 10
5.4188731917
 20
57.7364738161
 10
5.3281412375
 20
57.7741856586
 10
5.2351591817
 20
57.8008537797
 10
5.1386405507
 20
57.8171639933
 10
5.0385853446
 20
57.8231162993
  0
LWPOLYLINE
  5
4E6
100
AcDbEntity
  8
ASSI
100
AcDbPolyline
 62
7
  6
CONTINUOUS
 90
7
 70
0
 10
-1.033356
 20
-56.8744074264
 10
-1.097075855
 20
-56.9871089098
 10
-1.1473173653
 20
-57.1032842552
 10
-1.1840805308
 20
-57.2229334626
 10
-1.2075543023
 20
-57.3475910886
 10
-1.217549729
 20
-57.4757225765
 10
-1.2181312393
 20
-57.4990435024
  0
LINE
  5
4E7
100
AcDbEntity
  8
ASSI
100
AcDbLine
 62
7
  6
CONTINUOUS
 10
-0.7441780971
 20
-58.7511761774
 11
-0.6112770636
 21
-58.5215290932
  0
LINE
  5
4E8
100
AcDbEntity
  8
ASSI
100
AcDbLine
 62
7
  6
CONTINUOUS
 10
-0.7441780971
 20
-58.7859058129
 11
-0.5962209121
 21
-58.5302423677
  0
LINE
  5
4E9
100
AcDbEntity
  8
0
100
AcDbLine
 62
7
  6
CONTINUOUS
 10
7.698224
 20
-52.2241229517
 11
7.239251
 21
-52.9698183828
  0
LINE
  5
4EA
100
AcDbEntity
  8
RACCORDO
100
AcDbLine
 62
250
  6
CONTINUOUS
 10
14.2494845932
 20
31.0965491012
 11
14.3
 21
31.0965491012
  0
LINE
  5
4EB
100
AcDbEntity
  8
RACCORDO
100
AcDbLine
 62
250
  6
CONTINUOUS
 10
-14.2494845932
 20
31.0965491012
 11
-14.3
 21
31.0965491012
  0
LINE
  5
4EC
100
AcDbEntity
  8
0
100
AcDbLine
 62
7
  6
CONTINUOUS
 10
4.776058
 20
56.192190178
 11
5.337269
 21
55.1421540651
  0
LINE
  5
4ED
100
AcDbEntity
  8
0
100
AcDbLine
 62
7
  6
CONTINUOUS
 10
5.9536083764
 20
55.1344444517
 11
5.3719317229
 21
56.2227791714
  0
LINE
  5
4EE
100
AcDbEntity
  8
0
100
AcDbLine
 62
7
  6
CONTINUOUS
 10
5.968046
 20
55.1421608541
 11
5.3719317907
 21
56.2575086802
  0
LWPOLYLINE
  5
4EF
100
AcDbEntity
  8
RACCORDO
100
AcDbPolyline
 62
7
  6
CONTINUOUS
 90
3
 70
0
 10
12.649956062
 20
51.0
 10
12.6578346469
 20
50.98362507
 10
12.6645831234
 20
50.9674875854
  0
LWPOLYLINE
  5
4F0
100
AcDbEntity
  8
RACCORDO
100
AcDbPolyline
 62
7
  6
CONTINUOUS
 90
8
 70
0
 10
12.6645939451
 20
50.9674611091
 10
12.6678159971
 20
50.9595393296
 10
12.6839636595
 20
50.914780257
 10
12.6970267782
 20
50.869038826
 10
12.706946956
 20
50.8225230755
 10
12.7136842401
 20
50.7754416466
 10
12.717200763
 20
50.7280050473
 10
12.7177590164
 20
50.7000000005
  0
LINE
  5
4F1
100
AcDbEntity
  8
0
100
AcDbLine
 62
7
  6
CONTINUOUS
 10
7.348333
 20
-53.1165557206
 11
7.9364759538
 21
-52.2137748263
  0
LINE
  5
4F2
100
AcDbEntity
  8
0
100
AcDbLine
 62
7
  6
CONTINUOUS
 10
7.348333
 20
-53.1512853561
 11
7.95236
 21
-52.2241229517
  0
LINE
  5
4F3
100
AcDbEntity
  8
ASSI
100
AcDbLine
 62
7
  6
CONTINUOUS
 10
1.164033
 20
-59.8811148504
 11
1.3152426088
 21
-59.6732158684
  0
LINE
  5
4F4
100
AcDbEntity
  8
ASSI
100
AcDbLine
 62
7
  6
CONTINUOUS
 10
1.164033
 20
-59.915844486
 11
1.331763
 21
-59.6852315207
  0
LINE
  5
4F5
100
AcDbEntity
  8
ASSI
100
AcDbLine
 62
7
  6
CONTINUOUS
 10
-1.343092842
 20
-56.481655561
 11
-1.2168404279
 21
-56.3334796453
  0
LINE
  5
4F6
100
AcDbEntity
  8
RACCORDO
100
AcDbLine
 62
250
  6
CONTINUOUS
 10
-16.8127246754
 20
-64.9128008278
 11
-16.9
 21
-65.0000761524
  0
LINE
  5
4F7
100
AcDbEntity
  8
RACCORDO
100
AcDbLine
 62
250
  6
CONTINUOUS
 10
-16.3213760438
 20
-65.4212998914
 11
-16.4000761524
 21
-65.5
  0
LINE
  5
4F8
100
AcDbEntity
  8
RACCORDO
100
AcDbLine
 62
250
  6
CONTINUOUS
 10
-16.9
 20
65.0000761524
 11
-16.8127246754
 21
64.9128008278
  0
LINE
  5
4F9
100
AcDbEntity
  8
RACCORDO
100
AcDbLine
 62
250
  6
CONTINUOUS
 10
-16.4000761524
 20
65.5
 11
-16.3213760438
 21
65.4212998914
  0
LWPOLYLINE
  5
4FA
100
AcDbEntity
  8
ASSI
100
AcDbPolyline
 62
7
  6
CONTINUOUS
 90
8
 70
0
 10
-1.2168404279
 20
-56.3334796453
 10
-1.0761656296
 20
-56.2022305344
 10
-0.9204885964
 20
-56.0885887692
 10
-0.750389179
 20
-55.991873809
 10
-0.5726157713
 20
-55.9159226487
 10
-0.3894178378
 20
-55.862014287
 10
-0.1985459141
 20
-55.8288697252
 10
-0.0
 20
-55.8164889636
  0
LINE
  5
4FB
100
AcDbEntity
  8
ASSI
100
AcDbLine
 62
7
  6
CONTINUOUS
 10
1.0752015271
 20
-56.457374052
 11
0.173343
 21
-57.1944586485
  0
LINE
  5
4FC
100
AcDbEntity
  8
ASSI
100
AcDbLine
 62
7
  6
CONTINUOUS
 10
0.173343
 20
-57.542563236
 11
1.033356142
 21
-56.8396776748
  0
LINE
  5
4FD
100
AcDbEntity
  8
ASSI
100
AcDbLine
 62
7
  6
CONTINUOUS
 10
0.173343
 20
-57.5772928716
 11
1.0333561387
 21
-56.8744073131
  0
LINE
  5
4FE
100
AcDbEntity
  8
RACCORDO
100
AcDbLine
 62
250
  6
CONTINUOUS
 10
-18.2352182923
 20
-65.8238722918
 11
-18.5
 21
-66.0003037511
  0
LINE
  5
4FF
100
AcDbEntity
  8
RACCORDO
100
AcDbLine
 62
250
  6
CONTINUOUS
 10
-17.2365887576
 20
-66.8232631188
 11
-17.5004566591
 21
-66.9990856836
  0
LWPOLYLINE
  5
500
100
AcDbEntity
  8
0
100
AcDbPolyline
 62
7
  6
CONTINUOUS
 90
8
 70
0
 10
-3.6553722739
 20
-53.6833129523
 10
-3.5932557626
 20
-53.6507035885
 10
-3.5357480855
 20
-53.611153648
 10
-3.4826229287
 20
-53.5646836096
 10
-3.4341066061
 20
-53.5112729946
 10
-3.391475176
 20
-53.4511510243
 10
-3.3548097109
 20
-53.3838262846
 10
-3.3240291383
 20
-53.3097901896
  0
LINE
  5
501
100
AcDbEntity
  8
RACCORDO
100
AcDbLine
 62
7
  6
CONTINUOUS
 10
-16.878033543
 20
-54.1338184268
 11
-16.8965699136
 21
-54.1414905497
  0
LINE
  5
502
100
AcDbEntity
  8
RACCORDO
100
AcDbLine
 62
7
  6
CONTINUOUS
 10
-16.8594418566
 20
-54.1262785385
 11
-16.878033543
 21
-54.1338184268
  0
LINE
  5
503
100
AcDbEntity
  8
RACCORDO
100
AcDbLine
 62
7
  6
CONTINUOUS
 10
-16.840795202
 20
-54.1188682126
 11
-16.8594418566
 21
-54.1262785385
  0
LWPOLYLINE
  5
504
100
AcDbEntity
  8
RACCORDO
100
AcDbPolyline
 62
7
  6
CONTINUOUS
 90
3
 70
0
 10
-16.8127246754
 20
-54.1079762796
 10
-16.8220949699
 20
-54.1115767601
 10
-16.840795202
 20
-54.1188682126
  0
LINE
  5
505
100
AcDbEntity
  8
DRAFT
100
AcDbLine
 62
7
  6
CONTINUOUS
 10
16.8057426494
 20
45.5664150497
 11
15.25
 21
45.5664150497
  0
LINE
  5
506
100
AcDbEntity
  8
DRAFT
100
AcDbLine
 62
7
  6
CONTINUOUS
 10
-15.25
 20
45.5664150497
 11
-16.8057426494
 21
45.5664150497
  0
LINE
  5
507
100
AcDbEntity
  8
RACCORDO
100
AcDbLine
 62
7
  6
CONTINUOUS
 10
-16.8127246754
 20
54.1079762796
 11
-16.8314518121
 21
54.1152074045
  0
LINE
  5
508
100
AcDbEntity
  8
RACCORDO
100
AcDbLine
 62
7
  6
CONTINUOUS
 10
-16.8314518121
 20
54.1152074045
 11
-16.8501252555
 21
54.1225582937
  0
LINE
  5
509
100
AcDbEntity
  8
RACCORDO
100
AcDbLine
 62
7
  6
CONTINUOUS
 10
-16.8501252555
 20
54.1225582937
 11
-16.8687446577
 21
54.1300316193
  0
LWPOLYLINE
  5
50A
100
AcDbEntity
  8
RACCORDO
100
AcDbPolyline
 62
7
  6
CONTINUOUS
 90
3
 70
0
 10
-16.8687446577
 20
54.1300316193
 10
-16.8873086283
 20
54.1376380703
 10
-16.8965699136
 20
54.1414905497
  0
LINE
  5
50B
100
AcDbEntity
  8
RACCORDO
100
AcDbLine
 62
250
  6
CONTINUOUS
 10
-18.5
 20
66.0003037511
 11
-18.2352182923
 21
65.8238722918
  0
LINE
  5
50C
100
AcDbEntity
  8
RACCORDO
100
AcDbLine
 62
250
  6
CONTINUOUS
 10
-17.5004566591
 20
66.9990856836
 11
-17.2365887576
 21
66.8232631188
  0
LWPOLYLINE
  5
50D
100
AcDbEntity
  8
ASSI
100
AcDbPolyline
 62
7
  6
CONTINUOUS
 90
11
 70
0
 10
0.596221
 20
-58.5302425195
 10
0.7087660379
 20
-58.4604791693
 10
0.8110133465
 20
-58.3813520507
 10
0.9029629256
 20
-58.292861164
 10
0.9855322056
 20
-58.193676531
 10
1.0578037563
 20
-58.0851281298
 10
1.1170252868
 20
-57.971205894
 10
1.1626087346
 20
-57.8517792158
 10
1.1951421623
 20
-57.726978703
 10
1.2136374673
 20
-57.6011861121
 10
1.218131415
 20
-57.4990357751
  0
LWPOLYLINE
  5
50E
100
AcDbEntity
  8
ASSI
100
AcDbPolyline
 62
7
  6
CONTINUOUS
 90
11
 70
0
 10
0.744178
 20
-58.7511760096
 10
0.8779425986
 20
-58.668715028
 10
1.0001574402
 20
-58.5756737772
 10
1.1108225246
 20
-58.472052257
 10
1.210895797
 20
-58.3565105863
 10
1.2994193123
 20
-58.2303886463
 10
1.3735192352
 20
-58.097706081
 10
1.4326616315
 20
-57.9582825879
 10
1.4773804353
 20
-57.8122984694
 10
1.5064036143
 20
-57.6643142769
 10
1.5192763878
 20
-57.5142924294
  0
LWPOLYLINE
  5
50F
100
AcDbEntity
  8
ASSI
100
AcDbPolyline
 62
7
  6
CONTINUOUS
 90
12
 70
0
 10
0.9456467108
 20
-59.2002802888
 10
1.1177044032
 20
-59.1015455077
 10
1.2772868343
 20
-58.9879876997
 10
1.4257158072
 20
-58.8581709833
 10
1.5616695189
 20
-58.71353124
 10
1.6811825598
 20
-58.5583761143
 10
1.7837147739
 20
-58.3924483118
 10
1.8698063172
 20
-58.2160051268
 10
1.9371122488
 20
-58.0341260876
 10
1.9851242249
 20
-57.8466936501
 10
2.0143505893
 20
-57.6538253583
 10
2.0222128963
 20
-57.4997070056
  0
LINE
  5
510
100
AcDbEntity
  8
RACCORDO
100
AcDbLine
 62
250
  6
CONTINUOUS
 10
12.7177651569
 20
50.7000000001
 11
13.2177651569
 21
50.7000000001
  0
LINE
  5
511
100
AcDbEntity
  8
RACCORDO
100
AcDbLine
 62
250
  6
CONTINUOUS
 10
-12.7177651569
 20
50.7
 11
-13.2177651569
 21
50.7
  0
LINE
  5
512
100
AcDbEntity
  8
0
100
AcDbLine
 62
7
  6
CONTINUOUS
 10
-15.25
 20
51.0
 11
15.25
 21
51.0
  0
LINE
  5
513
100
AcDbEntity
  8
0
100
AcDbLine
 62
7
  6
CONTINUOUS
 10
15.25
 20
51.5
 11
-15.25
 21
51.5
  0
LINE
  5
514
100
AcDbEntity
  8
DRAFT
100
AcDbLine
 62
7
  6
CONTINUOUS
 10
16.8127246754
 20
52.9409741574
 11
15.25
 21
52.9409741574
  0
LINE
  5
515
100
AcDbEntity
  8
DRAFT
100
AcDbLine
 62
7
  6
CONTINUOUS
 10
-15.25
 20
52.9409741574
 11
-16.8127246754
 21
52.9409741574
  0
LWPOLYLINE
  5
516
100
AcDbEntity
  8
0
100
AcDbPolyline
 62
7
  6
CONTINUOUS
 90
12
 70
0
 10
0.5054810376
 20
58.9792501619
 10
0.5227029329
 20
58.9679840445
 10
0.5402778318
 20
58.959258019
 10
0.558617757
 20
58.9533227594
 10
0.5773106858
 20
58.9499275918
 10
0.5955080621
 20
58.9499041339
 10
0.6134425134
 20
58.9537363289
 10
0.6308814123
 20
58.9609402336
 10
0.6462783198
 20
58.970895636
 10
0.6590916595
 20
58.9838333431
 10
0.6698630079
 20
58.9995225478
 10
0.6786706558
 20
59.0166506171
  0
LINE
  5
517
100
AcDbEntity
  8
ASSI
100
AcDbLine
 62
7
  6
CONTINUOUS
 10
0.7611137572
 20
-59.284192043
 11
0.9456467108
 21
-59.2002802888
  0
LINE
  5
518
100
AcDbEntity
  8
RACCORDO
100
AcDbLine
 62
7
  6
CONTINUOUS
 10
16.878033543
 20
-54.8661815732
 11
16.8965699136
 21
-54.8585094503
  0
LINE
  5
519
100
AcDbEntity
  8
RACCORDO
100
AcDbLine
 62
7
  6
CONTINUOUS
 10
16.8594418566
 20
-54.8737214615
 11
16.878033543
 21
-54.8661815732
  0
LINE
  5
51A
100
AcDbEntity
  8
RACCORDO
100
AcDbLine
 62
7
  6
CONTINUOUS
 10
16.840795202
 20
-54.8811317874
 11
16.8594418566
 21
-54.8737214615
  0
LWPOLYLINE
  5
51B
100
AcDbEntity
  8
RACCORDO
100
AcDbPolyline
 62
7
  6
CONTINUOUS
 90
3
 70
0
 10
16.8127246754
 20
-54.8920237204
 10
16.8220949699
 20
-54.8884232399
 10
16.840795202
 20
-54.8811317874
  0
LINE
  5
51C
100
AcDbEntity
  8
0
100
AcDbLine
 62
7
  6
CONTINUOUS
 10
5.337269
 20
55.1421540651
 11
5.968046
 21
55.1421608541
  0
LINE
  5
51D
100
AcDbEntity
  8
0
100
AcDbLine
 62
7
  6
CONTINUOUS
 10
0.99575
 20
55.1421472762
 11
1.555771
 21
55.1421540651
  0
LINE
  5
51E
100
AcDbEntity
  8
0
100
AcDbLine
 62
7
  6
CONTINUOUS
 10
-2.116583
 20
55.1421472762
 11
-1.556562
 21
55.1421472762
  0
LINE
  5
51F
100
AcDbEntity
  8
0
100
AcDbLine
 62
7
  6
CONTINUOUS
 10
0.062384
 20
55.1421472762
 11
0.622405
 21
55.1421472762
  0
LINE
  5
520
100
AcDbEntity
  8
0
100
AcDbLine
 62
7
  6
CONTINUOUS
 10
3.727192
 20
55.1421540651
 11
4.28722
 21
55.1421540651
  0
LINE
  5
521
100
AcDbEntity
  8
0
100
AcDbLine
 62
7
  6
CONTINUOUS
 10
-1.027096
 20
55.1421472762
 11
-0.467089
 21
55.1421540651
  0
LINE
  5
522
100
AcDbEntity
  8
0
100
AcDbLine
 62
7
  6
CONTINUOUS
 10
-3.236611
 20
55.1421404873
 11
-2.67659
 21
55.1421472762
  0
LINE
  5
523
100
AcDbEntity
  8
0
100
AcDbLine
 62
7
  6
CONTINUOUS
 10
2.793819
 20
55.1421540651
 11
3.353847
 21
55.1421472762
  0
LINE
  5
524
100
AcDbEntity
  8
0
100
AcDbLine
 62
7
  6
CONTINUOUS
 10
-5.069022
 20
55.1421404873
 11
-4.50898
 21
55.1421472762
  0
LINE
  5
525
100
AcDbEntity
  8
0
100
AcDbLine
 62
7
  6
CONTINUOUS
 10
1.73257
 20
55.6762115741
 11
2.617027
 21
55.6762115741
  0
LINE
  5
526
100
AcDbEntity
  8
0
100
AcDbLine
 62
7
  6
CONTINUOUS
 10
2.446199
 20
56.1574605425
 11
1.903391
 21
56.1574605425
  0
LINE
  5
527
100
AcDbEntity
  8
0
100
AcDbLine
 62
7
  6
CONTINUOUS
 10
2.446199
 20
56.192190178
 11
1.903391
 21
56.192190178
  0
LINE
  5
528
100
AcDbEntity
  8
0
100
AcDbLine
 62
7
  6
CONTINUOUS
 10
4.287283
 20
56.1921969669
 11
4.776058
 21
56.192190178
  0
LINE
  5
529
100
AcDbEntity
  8
0
100
AcDbLine
 62
7
  6
CONTINUOUS
 10
4.9608507626
 20
56.659868087
 11
4.279499
 21
56.659868087
  0
LINE
  5
52A
100
AcDbEntity
  8
0
100
AcDbLine
 62
7
  6
CONTINUOUS
 10
4.9608506916
 20
56.6945977225
 11
4.279499
 21
56.6945977225
  0
LINE
  5
52B
100
AcDbEntity
  8
0
100
AcDbLine
 62
7
  6
CONTINUOUS
 10
4.279492
 20
57.3554451793
 11
4.960842
 21
57.3554451793
  0
LINE
  5
52C
100
AcDbEntity
  8
RACCORDO
100
AcDbLine
 62
7
  6
CONTINUOUS
 10
16.8127246754
 20
54.8920237204
 11
16.8314518121
 21
54.8847925955
  0
LINE
  5
52D
100
AcDbEntity
  8
RACCORDO
100
AcDbLine
 62
7
  6
CONTINUOUS
 10
16.8314518121
 20
54.8847925955
 11
16.8501252555
 21
54.8774417063
  0
LINE
  5
52E
100
AcDbEntity
  8
RACCORDO
100
AcDbLine
 62
7
  6
CONTINUOUS
 10
16.8501252555
 20
54.8774417063
 11
16.8687446577
 21
54.8699683807
  0
LWPOLYLINE
  5
52F
100
AcDbEntity
  8
RACCORDO
100
AcDbPolyline
 62
7
  6
CONTINUOUS
 90
3
 70
0
 10
16.8687446577
 20
54.8699683807
 10
16.8873086283
 20
54.8623619297
 10
16.8965699136
 20
54.8585094503
  0
LINE
  5
530
100
AcDbEntity
  8
0
100
AcDbLine
 62
7
  6
CONTINUOUS
 10
-3.6749773271
 20
-66.9990856836
 11
-3.5
 21
-66.9292441446
  0
LINE
  5
531
100
AcDbEntity
  8
0
100
AcDbLine
 62
7
  6
CONTINUOUS
 10
-3.6749773271
 20
-68.5
 11
-3.5
 21
-68.430158461
  0
LINE
  5
532
100
AcDbEntity
  8
0
100
AcDbLine
 62
7
  6
CONTINUOUS
 10
0.622405
 20
57.8231095104
 11
-0.224196
 21
57.8231095104
  0
LINE
  5
533
100
AcDbEntity
  8
0
100
AcDbLine
 62
7
  6
CONTINUOUS
 10
-1.269982
 20
57.8231095104
 11
-2.116583
 21
57.8231095104
  0
LINE
  5
534
100
AcDbEntity
  8
0
100
AcDbLine
 62
7
  6
CONTINUOUS
 10
-2.676583
 20
57.8231095104
 11
-3.236604
 21
57.8231095104
  0
LINE
  5
535
100
AcDbEntity
  8
0
100
AcDbLine
 62
7
  6
CONTINUOUS
 10
-3.609949
 20
57.8231095104
 11
-4.169977
 21
57.8231095104
  0
LINE
  5
536
100
AcDbEntity
  8
0
100
AcDbLine
 62
7
  6
CONTINUOUS
 10
-5.408018
 20
57.8231095104
 11
-5.968046
 21
57.8231095104
  0
LINE
  5
537
100
AcDbEntity
  8
0
100
AcDbLine
 62
7
  6
CONTINUOUS
 10
5.0385853446
 20
57.8231162993
 11
3.727192
 21
57.8231162993
  0
LINE
  5
538
100
AcDbEntity
  8
0
100
AcDbLine
 62
7
  6
CONTINUOUS
 10
2.454816
 20
57.8231162993
 11
1.894767
 21
57.8231162993
  0
LINE
  5
539
100
AcDbEntity
  8
0
100
AcDbLine
 62
7
  6
CONTINUOUS
 10
0.622405
 20
57.8578391459
 11
-0.224196
 21
57.8578391459
  0
LINE
  5
53A
100
AcDbEntity
  8
0
100
AcDbLine
 62
7
  6
CONTINUOUS
 10
-1.269982
 20
57.8578391459
 11
-2.116583
 21
57.8578391459
  0
LINE
  5
53B
100
AcDbEntity
  8
0
100
AcDbLine
 62
7
  6
CONTINUOUS
 10
-2.676583
 20
57.8578391459
 11
-3.236604
 21
57.8578391459
  0
LINE
  5
53C
100
AcDbEntity
  8
0
100
AcDbLine
 62
7
  6
CONTINUOUS
 10
-3.609949
 20
57.8578391459
 11
-4.169977
 21
57.8578391459
  0
LINE
  5
53D
100
AcDbEntity
  8
0
100
AcDbLine
 62
7
  6
CONTINUOUS
 10
-5.408018
 20
57.8578391459
 11
-5.968046
 21
57.8578391459
  0
LINE
  5
53E
100
AcDbEntity
  8
0
100
AcDbLine
 62
7
  6
CONTINUOUS
 10
5.0385854359
 20
57.8578459349
 11
3.727192
 21
57.8578459349
  0
LINE
  5
53F
100
AcDbEntity
  8
0
100
AcDbLine
 62
7
  6
CONTINUOUS
 10
2.454816
 20
57.8578459349
 11
1.894767
 21
57.8578459349
  0
LINE
  5
540
100
AcDbEntity
  8
0
100
AcDbLine
 62
7
  6
CONTINUOUS
 10
-4.538471
 20
58.673223
 11
-3.677082
 21
58.673223
  0
LINE
  5
541
100
AcDbEntity
  8
0
100
AcDbLine
 62
7
  6
CONTINUOUS
 10
-2.6756102613
 20
58.673223
 11
-1.098544
 21
58.673223
  0
LINE
  5
542
100
AcDbEntity
  8
0
100
AcDbLine
 62
7
  6
CONTINUOUS
 10
-0.1758805327
 20
58.673223
 11
1.165828
 21
58.673223
  0
LINE
  5
543
100
AcDbEntity
  8
0
100
AcDbLine
 62
7
  6
CONTINUOUS
 10
2.3881505528
 20
58.673223
 11
3.962178
 21
58.673223
  0
LINE
  5
544
100
AcDbEntity
  8
0
100
AcDbLine
 62
7
  6
CONTINUOUS
 10
4.1750981931
 20
61.37224
 11
2.9261027596
 21
61.37224
  0
LINE
  5
545
100
AcDbEntity
  8
0
100
AcDbLine
 62
7
  6
CONTINUOUS
 10
1.5156046379
 20
61.37224
 11
0.4547277137
 21
61.37224
  0
LINE
  5
546
100
AcDbEntity
  8
0
100
AcDbLine
 62
7
  6
CONTINUOUS
 10
-1.225051
 20
61.37224
 11
-1.981484721
 21
61.3719491805
  0
LINE
  5
547
100
AcDbEntity
  8
0
100
AcDbLine
 62
7
  6
CONTINUOUS
 10
-0.2414123412
 20
61.9743736336
 11
-1.0616517768
 21
61.9743736336
  0
LINE
  5
548
100
AcDbEntity
  8
0
100
AcDbLine
 62
7
  6
CONTINUOUS
 10
-2.8199501557
 20
61.9743736336
 11
-3.6582775922
 21
61.9743736336
  0
LINE
  5
549
100
AcDbEntity
  8
0
100
AcDbLine
 62
7
  6
CONTINUOUS
 10
15.25
 20
61.9918713663
 11
-0.2368691191
 21
61.9918713663
  0
LINE
  5
54A
100
AcDbEntity
  8
0
100
AcDbLine
 62
7
  6
CONTINUOUS
 10
-1.0569034689
 20
61.9918713663
 11
-2.8154069379
 21
61.9918713663
  0
LINE
  5
54B
100
AcDbEntity
  8
0
100
AcDbLine
 62
7
  6
CONTINUOUS
 10
-3.6536716119
 20
61.9918713663
 11
-15.25
 21
61.9918713663
  0
LWPOLYLINE
  5
54C
100
AcDbEntity
  8
0
100
AcDbPolyline
 62
7
  6
CONTINUOUS
 90
15
 70
0
 10
5.0385854359
 20
57.8578459349
 10
5.1380026099
 20
57.8519611506
 10
5.2339370965
 20
57.8358522374
 10
5.3263888958
 20
57.8095191953
 10
5.416561661
 20
57.7723824646
 10
5.5032517389
 20
57.7250216049
 10
5.5828481692
 20
57.6691752952
 10
5.6549976928
 20
57.604469892
 10
5.7200535689
 20
57.5312790388
 10
5.7754646142
 20
57.4524623452
 10
5.8208536036
 20
57.3677493856
 10
5.8565977622
 20
57.2774105856
 10
5.8812775822
 20
57.1851168309
 10
5.8943787693
 20
57.090843801
 10
5.8971730797
 20
57.0255199128
  0
LWPOLYLINE
  5
54D
100
AcDbEntity
  8
0
100
AcDbPolyline
 62
7
  6
CONTINUOUS
 90
19
 70
0
 10
3.7039540621
 20
61.0943802393
 10
3.6603587679
 20
61.1025085749
 10
3.6167592976
 20
61.106031773
 10
3.5731556514
 20
61.1049498336
 10
3.5289576992
 20
61.0991481438
 10
3.484755571
 20
61.0887413165
 10
3.4423196569
 20
61.0740731905
 10
3.401175326
 20
61.0554839697
 10
3.3617972092
 20
61.0326334503
 10
3.3273795897
 20
61.0048448592
 10
3.2997970003
 20
60.9709490041
 10
3.2771749081
 20
60.9321150774
 10
3.2570839982
 20
60.8911738828
 10
3.2415734014
 20
60.8479982103
 10
3.2285939869
 20
60.80271527
 10
3.2095690469
 20
60.7585374948
 10
3.181639679
 20
60.7165356959
 10
3.1476647857
 20
60.6756390621
 10
3.1076443671
 20
60.6358475935
  0
LINE
  5
54E
100
AcDbEntity
  8
0
100
AcDbLine
 62
7
  6
CONTINUOUS
 10
-3.6749773271
 20
66.9990856836
 11
-3.5
 21
66.9292441446
  0
LINE
  5
54F
100
AcDbEntity
  8
0
100
AcDbLine
 62
7
  6
CONTINUOUS
 10
-3.6749773271
 20
68.5
 11
-3.5
 21
68.430158461
  0
LWPOLYLINE
  5
550
100
AcDbEntity
  8
RACCORDO
100
AcDbPolyline
 62
7
  6
CONTINUOUS
 90
16
 70
0
 10
-16.3213760438
 20
65.4212998914
 10
-16.3646739186
 20
65.4186573214
 10
-16.4076671376
 20
65.412105353
 10
-16.4503557007
 20
65.4014778419
 10
-16.4931425622
 20
65.3866726447
 10
-16.5356247679
 20
65.3675834606
 10
-16.5765934551
 20
65.3440376758
 10
-16.6161254677
 20
65.3160798724
 10
-16.6541439618
 20
65.283650255
 10
-16.6892095438
 20
65.2462936422
 10
-16.7216568013
 20
65.2040207378
 10
-16.7511511466
 20
65.1569772764
 10
-16.7752494224
 20
65.1048115475
 10
-16.7931372429
 20
65.0476481091
 10
-16.8056289939
 20
64.9862398662
 10
-16.8127246754
 20
64.9213760438
  0
LINE
  5
551
100
AcDbEntity
  8
RACCORDO
100
AcDbLine
 62
250
  6
CONTINUOUS
 10
-14.7341782445
 20
66.8232631188
 11
-14.5995874782
 21
66.8275013248
  0
LINE
  5
552
100
AcDbEntity
  8
RACCORDO
100
AcDbLine
 62
250
  6
CONTINUOUS
 10
-14.5995874782
 20
66.8275013248
 11
-14.4535665747
 21
66.8311986552
  0
LINE
  5
553
100
AcDbEntity
  8
RACCORDO
100
AcDbLine
 62
250
  6
CONTINUOUS
 10
-14.4535665747
 20
66.8311986552
 11
-14.2969162495
 21
66.8343402545
  0
LINE
  5
554
100
AcDbEntity
  8
RACCORDO
100
AcDbLine
 62
250
  6
CONTINUOUS
 10
-14.2969162495
 20
66.8343402545
 11
-14.0478157837
 21
66.8379029575
  0
LINE
  5
555
100
AcDbEntity
  8
RACCORDO
100
AcDbLine
 62
250
  6
CONTINUOUS
 10
-14.0478157837
 20
66.8379029575
 11
-13.7899270724
 21
66.8400257791
  0
LINE
  5
556
100
AcDbEntity
  8
RACCORDO
100
AcDbLine
 62
250
  6
CONTINUOUS
 10
4.0
 20
65.4948091789
 11
4.8
 21
65.4974045895
  0
LINE
  5
557
100
AcDbEntity
  8
RACCORDO
100
AcDbLine
 62
250
  6
CONTINUOUS
 10
-13.7899270724
 20
66.8400257791
 11
-13.530058806
 21
66.8407235036
  0
LINE
  5
558
100
AcDbEntity
  8
0
100
AcDbLine
 62
7
  6
CONTINUOUS
 10
13.0
 20
62.5
 11
7.0
 21
62.5
  0
LINE
  5
559
100
AcDbEntity
  8
0
100
AcDbLine
 62
7
  6
CONTINUOUS
 10
-7.0
 20
62.5
 11
-13.0
 21
62.5
  0
LINE
  5
55A
100
AcDbEntity
  8
0
100
AcDbLine
 62
7
  6
CONTINUOUS
 10
-13.0
 20
64.5
 11
-7.0
 21
64.5
  0
LINE
  5
55B
100
AcDbEntity
  8
0
100
AcDbLine
 62
7
  6
CONTINUOUS
 10
13.0
 20
64.5
 11
7.0
 21
64.5
  0
LINE
  5
55C
100
AcDbEntity
  8
RACCORDO
100
AcDbLine
 62
250
  6
CONTINUOUS
 10
16.8127246754
 20
64.9213760438
 11
15.25
 21
64.9213760438
  0
LINE
  5
55D
100
AcDbEntity
  8
RACCORDO
100
AcDbLine
 62
250
  6
CONTINUOUS
 10
-15.25
 20
64.9213760438
 11
-16.8127246754
 21
64.9213760438
  0
LINE
  5
55E
100
AcDbEntity
  8
RACCORDO
100
AcDbLine
 62
250
  6
CONTINUOUS
 10
15.25
 20
64.9301035763
 11
13.0
 21
64.9301035763
  0
LINE
  5
55F
100
AcDbEntity
  8
RACCORDO
100
AcDbLine
 62
250
  6
CONTINUOUS
 10
7.0
 20
64.9301035763
 11
4.8
 21
64.9301035763
  0
LINE
  5
560
100
AcDbEntity
  8
RACCORDO
100
AcDbLine
 62
250
  6
CONTINUOUS
 10
4.0
 20
64.9301035763
 11
-4.0
 21
64.9301035763
  0
LINE
  5
561
100
AcDbEntity
  8
RACCORDO
100
AcDbLine
 62
250
  6
CONTINUOUS
 10
-4.8
 20
64.9301035763
 11
-7.0
 21
64.9301035763
  0
LINE
  5
562
100
AcDbEntity
  8
RACCORDO
100
AcDbLine
 62
250
  6
CONTINUOUS
 10
-13.0
 20
64.9301035763
 11
-15.25
 21
64.9301035763
  0
LINE
  5
563
100
AcDbEntity
  8
RACCORDO
100
AcDbLine
 62
7
  6
CONTINUOUS
 10
-4.8
 20
65.1214522078
 11
-4.0
 21
65.1214522078
  0
LINE
  5
564
100
AcDbEntity
  8
RACCORDO
100
AcDbLine
 62
7
  6
CONTINUOUS
 10
4.0
 20
65.1214522078
 11
4.8
 21
65.1214522078
  0
LINE
  5
565
100
AcDbEntity
  8
RACCORDO
100
AcDbLine
 62
250
  6
CONTINUOUS
 10
-4.8
 20
65.1948548704
 11
-4.0
 21
65.1948548704
  0
LINE
  5
566
100
AcDbEntity
  8
RACCORDO
100
AcDbLine
 62
250
  6
CONTINUOUS
 10
4.0
 20
65.1948548704
 11
4.8
 21
65.1948548704
  0
LINE
  5
567
100
AcDbEntity
  8
0
100
AcDbLine
 62
7
  6
CONTINUOUS
 10
-13.0
 20
65.2
 11
-7.0
 21
65.2
  0
LINE
  5
568
100
AcDbEntity
  8
0
100
AcDbLine
 62
7
  6
CONTINUOUS
 10
13.0
 20
65.2
 11
7.0
 21
65.2
  0
LINE
  5
569
100
AcDbEntity
  8
RACCORDO
100
AcDbLine
 62
250
  6
CONTINUOUS
 10
16.3213760438
 20
65.4212998914
 11
15.25
 21
65.4212998914
  0
LINE
  5
56A
100
AcDbEntity
  8
RACCORDO
100
AcDbLine
 62
250
  6
CONTINUOUS
 10
-15.25
 20
65.4212998914
 11
-16.3213760438
 21
65.4212998914
  0
LINE
  5
56B
100
AcDbEntity
  8
RACCORDO
100
AcDbLine
 62
250
  6
CONTINUOUS
 10
15.25
 20
65.4300274238
 11
13.0
 21
65.4300274238
  0
LINE
  5
56C
100
AcDbEntity
  8
RACCORDO
100
AcDbLine
 62
250
  6
CONTINUOUS
 10
7.0
 20
65.4300274238
 11
4.8
 21
65.4300274238
  0
LINE
  5
56D
100
AcDbEntity
  8
RACCORDO
100
AcDbLine
 62
250
  6
CONTINUOUS
 10
4.0
 20
65.4300274238
 11
-4.0
 21
65.4300274238
  0
LINE
  5
56E
100
AcDbEntity
  8
RACCORDO
100
AcDbLine
 62
250
  6
CONTINUOUS
 10
-4.8
 20
65.4300274238
 11
-7.0
 21
65.4300274238
  0
LINE
  5
56F
100
AcDbEntity
  8
RACCORDO
100
AcDbLine
 62
250
  6
CONTINUOUS
 10
-13.0
 20
65.4300274238
 11
-15.25
 21
65.4300274238
  0
LINE
  5
570
100
AcDbEntity
  8
DRAFT
100
AcDbLine
 62
7
  6
CONTINUOUS
 10
-4.0
 20
65.4650898701
 11
4.0
 21
65.4650898701
  0
LINE
  5
571
100
AcDbEntity
  8
RACCORDO
100
AcDbLine
 62
7
  6
CONTINUOUS
 10
-16.4000761524
 20
65.5
 11
-13.0
 21
65.5
  0
LINE
  5
572
100
AcDbEntity
  8
RACCORDO
100
AcDbLine
 62
7
  6
CONTINUOUS
 10
-7.0
 20
65.5
 11
-4.8
 21
65.5
  0
LINE
  5
573
100
AcDbEntity
  8
RACCORDO
100
AcDbLine
 62
7
  6
CONTINUOUS
 10
4.8
 20
65.5
 11
7.0
 21
65.5
  0
LINE
  5
574
100
AcDbEntity
  8
RACCORDO
100
AcDbLine
 62
7
  6
CONTINUOUS
 10
13.0
 20
65.5
 11
16.4000761524
 21
65.5
  0
LINE
  5
575
100
AcDbEntity
  8
RACCORDO
100
AcDbLine
 62
250
  6
CONTINUOUS
 10
-18.2352182923
 20
65.6530246159
 11
-18.1092690914
 21
65.6530246133
  0
LINE
  5
576
100
AcDbEntity
  8
RACCORDO
100
AcDbLine
 62
250
  6
CONTINUOUS
 10
18.1089965784
 20
65.6530246159
 11
18.2352182923
 21
65.6530246159
  0
LINE
  5
577
100
AcDbEntity
  8
RACCORDO
100
AcDbLine
 62
250
  6
CONTINUOUS
 10
18.0177544711
 20
65.8238722918
 11
18.2352182923
 21
65.8238722918
  0
LINE
  5
578
100
AcDbEntity
  8
RACCORDO
100
AcDbLine
 62
250
  6
CONTINUOUS
 10
-18.0175255965
 20
65.8238722918
 11
-18.2352182923
 21
65.8238722918
  0
LINE
  5
579
100
AcDbEntity
  8
0
100
AcDbLine
 62
7
  6
CONTINUOUS
 10
-4.0
 20
66.730158461
 11
4.0
 21
66.730158461
  0
LINE
  5
57A
100
AcDbEntity
  8
RACCORDO
100
AcDbLine
 62
7
  6
CONTINUOUS
 10
-16.301218346
 20
66.8
 11
-4.0
 21
66.8
  0
LINE
  5
57B
100
AcDbEntity
  8
RACCORDO
100
AcDbLine
 62
7
  6
CONTINUOUS
 10
4.0
 20
66.8
 11
16.301218346
 21
66.8
  0
LINE
  5
57C
100
AcDbEntity
  8
RACCORDO
100
AcDbLine
 62
250
  6
CONTINUOUS
 10
14.7341782422
 20
66.8232631188
 11
17.2365887576
 21
66.8232631188
  0
LINE
  5
57D
100
AcDbEntity
  8
RACCORDO
100
AcDbLine
 62
250
  6
CONTINUOUS
 10
-14.7341782445
 20
66.8232631188
 11
-17.2365887576
 21
66.8232631188
  0
LINE
  5
57E
100
AcDbEntity
  8
0
100
AcDbLine
 62
7
  6
CONTINUOUS
 10
-3.5
 20
66.9292441446
 11
3.5
 21
66.9292441446
  0
LINE
  5
57F
100
AcDbEntity
  8
RACCORDO
100
AcDbLine
 62
7
  6
CONTINUOUS
 10
-17.5004566591
 20
66.9990856836
 11
-3.6749773271
 21
66.9990856836
  0
LINE
  5
580
100
AcDbEntity
  8
RACCORDO
100
AcDbLine
 62
7
  6
CONTINUOUS
 10
3.6749773271
 20
66.9990856836
 11
17.5004566591
 21
66.9990856836
  0
LINE
  5
581
100
AcDbEntity
  8
0
100
AcDbLine
 62
7
  6
CONTINUOUS
 10
-3.5
 20
68.430158461
 11
3.5
 21
68.430158461
  0
LINE
  5
582
100
AcDbEntity
  8
RACCORDO
100
AcDbLine
 62
7
  6
CONTINUOUS
 10
-19.3004264211
 20
68.5
 11
-3.6749773271
 21
68.5
  0
LINE
  5
583
100
AcDbEntity
  8
RACCORDO
100
AcDbLine
 62
7
  6
CONTINUOUS
 10
3.6749773271
 20
68.5
 11
19.3004264211
 21
68.5
  0
LINE
  5
584
100
AcDbEntity
  8
RACCORDO
100
AcDbLine
 62
250
  6
CONTINUOUS
 10
-13.530058806
 20
66.8407235036
 11
13.7035242682
 21
66.8404166982
  0
LINE
  5
585
100
AcDbEntity
  8
RACCORDO
100
AcDbLine
 62
250
  6
CONTINUOUS
 10
-4.8
 20
65.4974045895
 11
-4.0
 21
65.4948091789
  0
LINE
  5
586
100
AcDbEntity
  8
RACCORDO
100
AcDbLine
 62
250
  6
CONTINUOUS
 10
13.7035242682
 20
66.8404166982
 11
13.9625771778
 21
66.838770004
  0
LINE
  5
587
100
AcDbEntity
  8
RACCORDO
100
AcDbLine
 62
250
  6
CONTINUOUS
 10
13.9625771778
 20
66.838770004
 11
14.2155349797
 21
66.8356820258
  0
LINE
  5
588
100
AcDbEntity
  8
RACCORDO
100
AcDbLine
 62
250
  6
CONTINUOUS
 10
14.2155349797
 20
66.8356820258
 11
14.3762364586
 21
66.8328451109
  0
LINE
  5
589
100
AcDbEntity
  8
RACCORDO
100
AcDbLine
 62
250
  6
CONTINUOUS
 10
14.3762364586
 20
66.8328451109
 11
14.5281058833
 21
66.8294157426
  0
LWPOLYLINE
  5
58A
100
AcDbEntity
  8
RACCORDO
100
AcDbPolyline
 62
250
  6
CONTINUOUS
 90
3
 70
0
 10
14.5281058833
 20
66.8294157426
 10
14.6682782642
 20
66.8254504503
 10
14.7341782422
 20
66.8232631188
  0
LWPOLYLINE
  5
58B
100
AcDbEntity
  8
RACCORDO
100
AcDbPolyline
 62
250
  6
CONTINUOUS
 90
22
 70
0
 10
17.2365887576
 20
66.8232631188
 10
17.3111299461
 20
66.8203388582
 10
17.3852552385
 20
66.8118548984
 10
17.4585510592
 20
66.7978585749
 10
17.5306084603
 20
66.7784279789
 10
17.6010254038
 20
66.7536715219
 10
17.6694090045
 20
66.7237273303
 10
17.7353777221
 20
66.6887624752
 10
17.7985634896
 20
66.6489720399
 10
17.8586137676
 20
66.6045780318
 10
17.9151935107
 20
66.5558281434
 10
17.9679870372
 20
66.5029943704
 10
18.0166997901
 20
66.4463714945
 10
18.0610599808
 20
66.3862754379
 10
18.1008201054
 20
66.3230415016
 10
18.1357583259
 20
66.2570224936
 10
18.1656797073
 20
66.1885867616
 10
18.1904173059
 20
66.1181161366
 10
18.2098331005
 20
66.0460038034
 10
18.2238187622
 20
65.9726521067
 10
18.2322962593
 20
65.8984703058
 10
18.2352182923
 20
65.8238722918
  0
LWPOLYLINE
  5
58C
100
AcDbEntity
  8
RACCORDO
100
AcDbPolyline
 62
250
  6
CONTINUOUS
 90
7
 70
0
 10
18.1439947774
 20
65.5725355087
 10
18.1519457967
 20
65.5710728932
 10
18.1786008406
 20
65.5651287255
 10
18.2003303572
 20
65.5590551788
 10
18.2170207596
 20
65.5528840015
 10
18.2285848021
 20
65.5466474521
 10
18.2349620356
 20
65.540378131
  0
CIRCLE
  5
58D
100
AcDbEntity
  8
ASSI
100
AcDbCircle
 62
7
  6
CONTINUOUS
 10
-10.0
 20
-57.5
 40
3.25
  0
CIRCLE
  5
58E
100
AcDbEntity
  8
0
100
AcDbCircle
 62
7
  6
CONTINUOUS
 10
-10.0
 20
-57.5
 40
2.35
  0
CIRCLE
  5
58F
100
AcDbEntity
  8
ASSI
100
AcDbCircle
 62
7
  6
CONTINUOUS
 10
-10.0
 20
-57.5
 40
2.25
  0
CIRCLE
  5
590
100
AcDbEntity
  8
ASSI
100
AcDbCircle
 62
7
  6
CONTINUOUS
 10
-10.0
 20
-57.5
 40
1.5
  0
ARC
  5
591
100
AcDbEntity
  8
DRAFT
100
AcDbCircle
 62
7
  6
CONTINUOUS
 10
-17.25
 20
-18.0
 40
0.5942573506
100
AcDbArc
 50
318.3815368884
 51
41.6184631116
  0
ARC
  5
592
100
AcDbEntity
  8
DRAFT
100
AcDbCircle
 62
7
  6
CONTINUOUS
 10
-17.25
 20
-54.5
 40
0.5872753246
100
AcDbArc
 50
318.1233091309
 51
41.8766908691
  0
ARC
  5
593
100
AcDbEntity
  8
RACCORDO
100
AcDbCircle
 62
250
  6
CONTINUOUS
 10
-17.25
 20
-54.5
 40
0.5034300864
100
AcDbArc
 50
314.5912276839
 51
45.4087723161
  0
ARC
  5
594
100
AcDbEntity
  8
RACCORDO
100
AcDbCircle
 62
250
  6
CONTINUOUS
 10
-17.25
 20
-18.0
 40
0.5034300864
100
AcDbArc
 50
314.5912276839
 51
45.4087723161
  0
ARC
  5
595
100
AcDbEntity
  8
ASSI
100
AcDbCircle
 62
7
  6
CONTINUOUS
 10
-12.451216
 20
-64.093884
 40
0.4174955429
100
AcDbArc
 50
112.8428485199
 51
256.8456484744
  0
ARC
  5
596
100
AcDbEntity
  8
ASSI
100
AcDbCircle
 62
7
  6
CONTINUOUS
 10
-12.413425
 20
-64.093884
 40
0.165642
100
AcDbArc
 50
90.0019617155
 51
269.9960765454
  0
CIRCLE
  5
597
100
AcDbEntity
  8
ASSI
100
AcDbCircle
 62
7
  6
CONTINUOUS
 10
-10.0
 20
57.5
 40
3.25
  0
CIRCLE
  5
598
100
AcDbEntity
  8
0
100
AcDbCircle
 62
7
  6
CONTINUOUS
 10
-10.0
 20
57.5
 40
2.35
  0
CIRCLE
  5
599
100
AcDbEntity
  8
ASSI
100
AcDbCircle
 62
7
  6
CONTINUOUS
 10
-10.0
 20
57.5
 40
2.25
  0
CIRCLE
  5
59A
100
AcDbEntity
  8
ASSI
100
AcDbCircle
 62
7
  6
CONTINUOUS
 10
-10.0
 20
57.5
 40
1.5
  0
ARC
  5
59B
100
AcDbEntity
  8
DRAFT
100
AcDbCircle
 62
7
  6
CONTINUOUS
 10
-17.25
 20
18.0
 40
0.5942573506
100
AcDbArc
 50
318.3815368884
 51
41.6184631116
  0
ARC
  5
59C
100
AcDbEntity
  8
DRAFT
100
AcDbCircle
 62
7
  6
CONTINUOUS
 10
-17.25
 20
54.5
 40
0.5872753246
100
AcDbArc
 50
318.1233091309
 51
41.8766908691
  0
ARC
  5
59D
100
AcDbEntity
  8
0
100
AcDbCircle
 62
7
  6
CONTINUOUS
 10
-0.017958
 20
59.177276
 40
0.5282129808
100
AcDbArc
 50
186.08897541
 51
252.6039438981
  0
ARC
  5
59E
100
AcDbEntity
  8
RACCORDO
100
AcDbCircle
 62
250
  6
CONTINUOUS
 10
-17.25
 20
18.0
 40
0.5034300864
100
AcDbArc
 50
314.5912276839
 51
45.4087723161
  0
ARC
  5
59F
100
AcDbEntity
  8
RACCORDO
100
AcDbCircle
 62
250
  6
CONTINUOUS
 10
-17.25
 20
54.5
 40
0.5034300864
100
AcDbArc
 50
314.5912276839
 51
45.4087723161
  0
ARC
  5
5A0
100
AcDbEntity
  8
0
100
AcDbCircle
 62
7
  6
CONTINUOUS
 10
-2.563826
 20
59.155444
 40
0.4950078928
100
AcDbArc
 50
171.4768063568
 51
256.9487106122
  0
ARC
  5
5A1
100
AcDbEntity
  8
0
100
AcDbCircle
 62
7
  6
CONTINUOUS
 10
-1.458836
 20
60.70733
 40
0.4083431305
100
AcDbArc
 50
69.2440448115
 51
142.7057081635
  0
ARC
  5
5A2
100
AcDbEntity
  8
0
100
AcDbCircle
 62
7
  6
CONTINUOUS
 10
-1.898804
 20
59.285058
 40
0.3286007386
100
AcDbArc
 50
185.7437138265
 51
275.4688692209
  0
CIRCLE
  5
5A3
100
AcDbEntity
  8
ASSI
100
AcDbCircle
 62
7
  6
CONTINUOUS
 10
10.0
 20
-57.5
 40
3.25
  0
CIRCLE
  5
5A4
100
AcDbEntity
  8
0
100
AcDbCircle
 62
7
  6
CONTINUOUS
 10
10.0
 20
-57.5
 40
2.35
  0
CIRCLE
  5
5A5
100
AcDbEntity
  8
ASSI
100
AcDbCircle
 62
7
  6
CONTINUOUS
 10
10.0
 20
-57.5
 40
2.25
  0
CIRCLE
  5
5A6
100
AcDbEntity
  8
ASSI
100
AcDbCircle
 62
7
  6
CONTINUOUS
 10
10.0
 20
-57.5
 40
1.5
  0
ARC
  5
5A7
100
AcDbEntity
  8
DRAFT
100
AcDbCircle
 62
7
  6
CONTINUOUS
 10
17.25
 20
-18.0
 40
0.5942573506
100
AcDbArc
 50
138.3815368884
 51
221.6184631116
  0
ARC
  5
5A8
100
AcDbEntity
  8
DRAFT
100
AcDbCircle
 62
7
  6
CONTINUOUS
 10
17.25
 20
-54.5
 40
0.5872753246
100
AcDbArc
 50
138.1233091309
 51
221.8766908691
  0
ARC
  5
5A9
100
AcDbEntity
  8
RACCORDO
100
AcDbCircle
 62
250
  6
CONTINUOUS
 10
17.25
 20
-18.0
 40
0.5034300864
100
AcDbArc
 50
134.5912276839
 51
225.4087723161
  0
ARC
  5
5AA
100
AcDbEntity
  8
RACCORDO
100
AcDbCircle
 62
250
  6
CONTINUOUS
 10
17.25
 20
-54.5
 40
0.5034300864
100
AcDbArc
 50
134.5912276839
 51
225.4087723161
  0
CIRCLE
  5
5AB
100
AcDbEntity
  8
0
100
AcDbCircle
 62
7
  6
CONTINUOUS
 10
-0.0
 20
-0.0
 40
3.25
  0
CIRCLE
  5
5AC
100
AcDbEntity
  8
ASSI
100
AcDbCircle
 62
7
  6
CONTINUOUS
 10
10.0
 20
57.5
 40
3.25
  0
ARC
  5
5AD
100
AcDbEntity
  8
ASSI
100
AcDbCircle
 62
7
  6
CONTINUOUS
 10
12.417556
 20
-0.0
 40
2.5499986575
100
AcDbArc
 50
87.752529198
 51
272.247470802
  0
ARC
  5
5AE
100
AcDbEntity
  8
ASSI
100
AcDbCircle
 62
7
  6
CONTINUOUS
 10
8.032446
 20
-0.0
 40
2.5499985399
100
AcDbArc
 50
87.7525290943
 51
272.2474709057
  0
CIRCLE
  5
5AF
100
AcDbEntity
  8
0
100
AcDbCircle
 62
7
  6
CONTINUOUS
 10
-0.0
 20
-0.0
 40
2.35
  0
CIRCLE
  5
5B0
100
AcDbEntity
  8
0
100
AcDbCircle
 62
7
  6
CONTINUOUS
 10
10.0
 20
57.5
 40
2.35
  0
CIRCLE
  5
5B1
100
AcDbEntity
  8
0
100
AcDbCircle
 62
7
  6
CONTINUOUS
 10
-0.0
 20
-0.0
 40
2.25
  0
CIRCLE
  5
5B2
100
AcDbEntity
  8
ASSI
100
AcDbCircle
 62
7
  6
CONTINUOUS
 10
10.0
 20
57.5
 40
2.25
  0
ARC
  5
5B3
100
AcDbEntity
  8
ASSI
100
AcDbCircle
 62
7
  6
CONTINUOUS
 10
8.032446
 20
-0.0
 40
1.7999999246
100
AcDbArc
 50
86.8152613297
 51
273.1847386703
  0
ARC
  5
5B4
100
AcDbEntity
  8
ASSI
100
AcDbCircle
 62
7
  6
CONTINUOUS
 10
12.417556
 20
-0.0
 40
1.7999999246
100
AcDbArc
 50
86.8152613297
 51
167.9753003079
  0
ARC
  5
5B5
100
AcDbEntity
  8
ASSI
100
AcDbCircle
 62
7
  6
CONTINUOUS
 10
12.417556
 20
-0.0
 40
1.7999968808
100
AcDbArc
 50
192.0247203293
 51
273.1847440612
  0
CIRCLE
  5
5B6
100
AcDbEntity
  8
ASSI
100
AcDbCircle
 62
7
  6
CONTINUOUS
 10
-0.0
 20
-0.0
 40
1.5
  0
CIRCLE
  5
5B7
100
AcDbEntity
  8
ASSI
100
AcDbCircle
 62
7
  6
CONTINUOUS
 10
10.0
 20
57.5
 40
1.5
  0
ARC
  5
5B8
100
AcDbEntity
  8
DRAFT
100
AcDbCircle
 62
7
  6
CONTINUOUS
 10
17.25
 20
18.0
 40
0.5942573506
100
AcDbArc
 50
138.3815368884
 51
221.6184631116
  0
ARC
  5
5B9
100
AcDbEntity
  8
DRAFT
100
AcDbCircle
 62
7
  6
CONTINUOUS
 10
17.25
 20
54.5
 40
0.5872753246
100
AcDbArc
 50
138.1233091309
 51
221.8766908691
  0
ARC
  5
5BA
100
AcDbEntity
  8
0
100
AcDbCircle
 62
7
  6
CONTINUOUS
 10
3.977871
 20
60.845342
 40
0.5626011625
100
AcDbArc
 50
4.8340074603
 51
69.4782408912
  0
ARC
  5
5BB
100
AcDbEntity
  8
0
100
AcDbCircle
 62
7
  6
CONTINUOUS
 10
2.928685
 20
60.857231
 40
0.515435
100
AcDbArc
 50
90.0
 51
165.4447411474
  0
ARC
  5
5BC
100
AcDbEntity
  8
0
100
AcDbCircle
 62
7
  6
CONTINUOUS
 10
1.03175
 20
59.159208
 40
0.5041411809
100
AcDbArc
 50
285.4236044623
 51
341.0054878131
  0
ARC
  5
5BD
100
AcDbEntity
  8
RACCORDO
100
AcDbCircle
 62
250
  6
CONTINUOUS
 10
17.25
 20
18.0
 40
0.5034300864
100
AcDbArc
 50
134.5912276839
 51
225.4087723161
  0
ARC
  5
5BE
100
AcDbEntity
  8
RACCORDO
100
AcDbCircle
 62
250
  6
CONTINUOUS
 10
17.25
 20
54.5
 40
0.5034300864
100
AcDbArc
 50
134.5912276839
 51
225.4087723161
  0
ARC
  5
5BF
100
AcDbEntity
  8
0
100
AcDbCircle
 62
7
  6
CONTINUOUS
 10
1.515608
 20
60.900359
 40
0.4718803835
100
AcDbArc
 50
345.1449662306
 51
90.0
  0
ARC
  5
5C0
100
AcDbEntity
  8
0
100
AcDbCircle
 62
7
  6
CONTINUOUS
 10
2.38815
 20
59.105165
 40
0.4319418989
100
AcDbArc
 50
165.4447308492
 51
270.0
  0
ARC
  5
5C1
100
AcDbEntity
  8
0
100
AcDbCircle
 62
7
  6
CONTINUOUS
 10
1.087772
 20
60.698939
 40
0.3985171084
100
AcDbArc
 50
73.6975261887
 51
149.6964629817
  0
ARC
  5
5C2
100
AcDbEntity
  8
0
100
AcDbCircle
 62
7
  6
CONTINUOUS
 10
3.208117
 20
59.294326
 40
0.3673600192
100
AcDbArc
 50
176.7577582844
 51
259.7450029505
  0
ELLIPSE
  5
5C3
100
AcDbEntity
  8
RACCORDO
100
AcDbEllipse
 62
7
  6
CONTINUOUS
 10
-16.2987809114
 20
64.7987809114
 30
0.0
 11
1.4159370892
 21
-1.4159370892
 31
0.0
 40
0.998782766
 41
2.3568034778
 42
3.9263818294
  0
ELLIPSE
  5
5C4
100
AcDbEntity
  8
RACCORDO
100
AcDbEllipse
 62
7
  6
CONTINUOUS
 10
16.2987809114
 20
64.7987809114
 30
0.0
 11
1.4159370892
 21
1.4159370892
 31
0.0
 40
0.998782766
 41
-0.7847891758
 42
0.7847891758
  0
ELLIPSE
  5
5C5
100
AcDbEntity
  8
RACCORDO
100
AcDbEllipse
 62
7
  6
CONTINUOUS
 10
16.2987809114
 20
-64.7987809114
 30
0.0
 11
-1.4159370891
 21
1.4159370893
 31
0.0
 40
0.998782766
 41
2.3568034778
 42
3.9263818295
  0
ELLIPSE
  5
5C6
100
AcDbEntity
  8
RACCORDO
100
AcDbEllipse
 62
7
  6
CONTINUOUS
 10
-16.2987809114
 20
-64.7987809114
 30
0.0
 11
-1.4159370891
 21
-1.4159370893
 31
0.0
 40
0.998782766
 41
-0.7847891759
 42
0.7847891757
  0
ELLIPSE
  5
5C7
100
AcDbEntity
  8
0
100
AcDbEllipse
 62
7
  6
CONTINUOUS
 10
4.960842
 20
56.9902908455
 30
0.0
 11
0.340698
 21
-0.0
 31
0.0
 40
0.9698463104
 41
-1.5707706072
 42
-0.2243994753
  0
ELLIPSE
  5
5C8
100
AcDbEntity
  8
DRAFT
100
AcDbEllipse
 62
7
  6
CONTINUOUS
 10
-23.7301669064
 20
27.7473241638
 30
0.0
 11
0.0
 21
397.1
 31
0.0
 40
0.0174550649
 41
-1.5259081969
 42
-1.5073095928
  0
ELLIPSE
  5
5C9
100
AcDbEntity
  8
DRAFT
100
AcDbEllipse
 62
7
  6
CONTINUOUS
 10
-23.7301669064
 20
-27.7473241638
 30
0.0
 11
0.0
 21
397.1
 31
0.0
 40
0.0174550649
 41
-1.6342830608
 42
-1.6156844567
  0
ELLIPSE
  5
5CA
100
AcDbEntity
  8
0
100
AcDbEllipse
 62
7
  6
CONTINUOUS
 10
4.960842
 20
57.0250204811
 30
0.0
 11
0.340698
 21
0.0
 31
0.0
 40
0.9698463104
 41
-1.5707708154
 42
1.5707963268
  0
ELLIPSE
  5
5CB
100
AcDbEntity
  8
DRAFT
100
AcDbEllipse
 62
7
  6
CONTINUOUS
 10
23.7301669064
 20
27.7473241638
 30
0.0
 11
0.0
 21
397.1
 31
0.0
 40
0.0174550649
 41
1.5073095928
 42
1.5259081969
  0
ELLIPSE
  5
5CC
100
AcDbEntity
  8
DRAFT
100
AcDbEllipse
 62
7
  6
CONTINUOUS
 10
23.7301669064
 20
-27.7473241638
 30
0.0
 11
0.0
 21
397.1
 31
0.0
 40
0.0174550649
 41
-4.6675008505
 42
-4.6489022464
  0
ELLIPSE
  5
5CD
100
AcDbEntity
  8
RACCORDO
100
AcDbEllipse
 62
7
  6
CONTINUOUS
 10
-16.399923836
 20
-64.999923836
 30
0.0
 11
0.3536610946
 21
0.3536610946
 31
0.0
 40
0.9996954599
 41
-3.9268385237
 42
-2.3563467834
  0
ELLIPSE
  5
5CE
100
AcDbEntity
  8
RACCORDO
100
AcDbEllipse
 62
7
  6
CONTINUOUS
 10
16.399923836
 20
-64.999923836
 30
0.0
 11
-0.3536610946
 21
0.3536610946
 31
0.0
 40
0.9996954599
 41
-3.9268385237
 42
-2.3563467834
  0
ELLIPSE
  5
5CF
100
AcDbEntity
  8
RACCORDO
100
AcDbEllipse
 62
7
  6
CONTINUOUS
 10
-16.399923836
 20
64.999923836
 30
0.0
 11
-0.3536610946
 21
0.3536610946
 31
0.0
 40
0.9996954599
 41
-0.7852458701
 42
0.7852458701
  0
ELLIPSE
  5
5D0
100
AcDbEntity
  8
RACCORDO
100
AcDbEllipse
 62
7
  6
CONTINUOUS
 10
16.399923836
 20
64.999923836
 30
0.0
 11
0.3536610946
 21
0.3536610946
 31
0.0
 40
0.9996954599
 41
-0.7852458701
 42
0.7852458701
  0
ELLIPSE
  5
5D1
100
AcDbEntity
  8
RACCORDO
100
AcDbEllipse
 62
7
  6
CONTINUOUS
 10
-19.299573319
 20
-67.799573319
 30
0.0
 11
-0.4955779812
 21
-0.4955779812
 31
0.0
 40
0.998782766
 41
-0.7847891758
 42
0.7847891758
  0
ELLIPSE
  5
5D2
100
AcDbEntity
  8
RACCORDO
100
AcDbEllipse
 62
7
  6
CONTINUOUS
 10
-19.299573319
 20
67.799573319
 30
0.0
 11
0.4955779812
 21
-0.4955779812
 31
0.0
 40
0.998782766
 41
2.3568034778
 42
3.9263818294
  0
ELLIPSE
  5
5D3
100
AcDbEntity
  8
RACCORDO
100
AcDbEllipse
 62
7
  6
CONTINUOUS
 10
19.299573319
 20
-67.799573319
 30
0.0
 11
-0.4955779812
 21
0.4955779812
 31
0.0
 40
0.998782766
 41
2.3568034778
 42
3.9263818294
  0
ELLIPSE
  5
5D4
100
AcDbEntity
  8
RACCORDO
100
AcDbEllipse
 62
7
  6
CONTINUOUS
 10
19.299573319
 20
67.799573319
 30
0.0
 11
0.4955779812
 21
0.4955779812
 31
0.0
 40
0.998782766
 41
-0.7847891758
 42
0.7847891758
  0
ELLIPSE
  5
5D5
100
AcDbEntity
  8
RACCORDO
100
AcDbEllipse
 62
7
  6
CONTINUOUS
 10
17.498627654
 20
-65.9984761393
 30
0.0
 11
0.8338289523
 21
-0.5556035581
 31
0.0
 40
0.9980228614
 41
-0.9821146404
 42
0.5868551869
  0
ELLIPSE
  5
5D6
100
AcDbEntity
  8
RACCORDO
100
AcDbEllipse
 62
7
  6
CONTINUOUS
 10
-17.498627654
 20
-65.9984761393
 30
0.0
 11
0.8338289523
 21
0.5556035581
 31
0.0
 40
0.9980228614
 41
2.5547374667
 42
4.123707294
  0
ELLIPSE
  5
5D7
100
AcDbEntity
  8
RACCORDO
100
AcDbEllipse
 62
7
  6
CONTINUOUS
 10
17.498627654
 20
65.9984761393
 30
0.0
 11
0.8338289523
 21
0.5556035581
 31
0.0
 40
0.9980228614
 41
-0.5868551869
 42
0.9821146404
  0
ELLIPSE
  5
5D8
100
AcDbEntity
  8
RACCORDO
100
AcDbEllipse
 62
7
  6
CONTINUOUS
 10
-17.498627654
 20
65.9984761393
 30
0.0
 11
0.8338289523
 21
-0.5556035581
 31
0.0
 40
0.9980228614
 41
2.1594780132
 42
3.7284478405
  0
ENDSEC
  0
SECTION
  2
OBJECTS
  0
DICTIONARY
  5
C
100
AcDbDictionary
280
0
281
1
  3
ACAD_GROUP
350
D
  3
ACAD_MLINESTYLE
350
17
  3
ACAD_LAYOUT
350
1A
  3
ACAD_PLOTSETTINGS
350
19
  3
ACAD_PLOTSTYLENAME
350
E
  0
DICTIONARY
  5
D
102
{ACAD_REACTORS
330
C
102
}
100
AcDbDictionary
280
0
281
1
  0
ACDBDICTIONARYWDFLT
  5
E
102
{ACAD_REACTORS
330
C
102
}
100
AcDbDictionary
281
1
  3
Normal
350
F
100
AcDbDictionaryWithDefault
340
F
  0
DICTIONARY
  5
17
102
{ACAD_REACTORS
330
C
102
}
100
AcDbDictionary
280
0
281
1
  3
Standard
350
18
  0
DICTIONARY
  5
19
102
{ACAD_REACTORS
330
C
102
}
100
AcDbDictionary
281
1
  0
DICTIONARY
  5
1A
102
{ACAD_REACTORS
330
C
102
}
100
AcDbDictionary
281
1
  3
Model
350
5D9
  3
Layout1
350
5DA
  0
ACDBPLACEHOLDER
  5
F
102
{ACAD_REACTORS
330
E
102
}
  0
MLINESTYLE
  5
18
102
{ACAD_REACTORS
330
17
102
}
100
AcDbMlineStyle
  2
STANDARD
 70
0
  3

 62
256
 51
90.0
 52
90.0
 71
2
 49
0.5
 62
256
  6
BYLAYER
 49
-0.5
 62
256
  6
BYLAYER
  0
LAYOUT
  5
5D9
102
{ACAD_REACTORS
330
1A
102
}
100
AcDbPlotSettings
  1

  2
none_device
  4
ISO_A4_(297.00_x_210.00_MM)
  6

 40
0.0
 41
0.0
 42
0.0
 43
0.0
 44
297.0
 45
210.0
 46
0.0
 47
0.0
 48
0.0
 49
0.0
140
0.0
141
0.0
142
1.0
143
1.0
 70
1024
 72
1
 73
0
 74
0
  7

 75
0
147
1.0
148
0.0
149
0.0
100
AcDbLayout
  1
Model
 70
0
 71
0
 10
0.0
 20
0.0
 11
297.0
 21
210.0
 12
0.0
 22
0.0
 32
0.0
 14
0.0
 24
0.0
 34
0.0
 15
0.0
 25
0.0
 35
0.0
146
0.0
 13
0.0
 23
0.0
 33
0.0
 16
1.0
 26
0.0
 36
0.0
 17
0.0
 27
1.0
 37
0.0
 76
0
330
20F
345
0
346
0
  0
LAYOUT
  5
5DA
102
{ACAD_REACTORS
330
1A
102
}
100
AcDbPlotSettings
  1

  2
none_device
  4
ISO_A4_(297.00_x_210.00_MM)
  6

 40
0.0
 41
0.0
 42
0.0
 43
0.0
 44
297.0
 45
210.0
 46
0.0
 47
0.0
 48
0.0
 49
0.0
140
0.0
141
0.0
142
1.0
143
1.0
 70
0
 72
1
 73
0
 74
0
  7

 75
0
147
1.0
148
0.0
149
0.0
100
AcDbLayout
  1
Layout1
 70
0
 71
1
 10
0.0
 20
0.0
 11
297.0
 21
210.0
 12
0.0
 22
0.0
 32
0.0
 14
0.0
 24
0.0
 34
0.0
 15
0.0
 25
0.0
 35
0.0
146
0.0
 13
0.0
 23
0.0
 33
0.0
 16
1.0
 26
0.0
 36
0.0
 17
0.0
 27
1.0
 37
0.0
 76
0
330
210
345
0
346
0
  0
ENDSEC
  0
EOF
