  0
SECTION
  2
HEADER
  9
$ACADVER
  1
AC1024
  9
$DWGCODEPAGE
  3
ANSI_1252
  9
$EXTMAX
 10
297.0
 20
210.0
 30
0.0
  9
$EXTMIN
 10
0.0
 20
0.0
 30
0.0
  9
$LIMMIN
 10
0.0
 20
0.0
  9
$LIMMAX
 10
297.0
 20
210.0
  9
$VIEWCTR
 10
148.5
 20
105.0
  9
$VIEWSIZE
 40
210.0
  9
$CLAYER
  8
0
  9
$LTSCALE
 40
16.335
  9
$CELTYPE
  6
BYLAYER
  9
$DIMSCALE
 40
1.0
  9
$DIMASZ
 40
3.0
  9
$DIMEXO
 40
0.5
  9
$DIMDLI
 40
11.286
  9
$DIMEXE
 40
1.5
  9
$DIMCEN
 40
2.673
  9
$DIMLFAC
 40
1.0
  9
$DIMBLK
  1
_FILLED
  9
$DIMALT
 70
0
  9
$DIMALTF
 40
0.0393700787
  9
$DIMTXT
 40
3.0
  9
$DIMTOL
 70
1
  9
$DIMLIM
 70
0
  9
$DIMTFAC
 40
1.0
  9
$DIMTP
 40
0.01
  9
$DIMTM
 40
0.01
  9
$DIMGAP
 40
0.625
  9
$DIMDSEP
 70
44
  9
$AUNITS
 70
0
  9
$PDMODE
 70
3
  9
$PDSIZE
 40
3.0
  9
$HANDSEED
  5
7EE
  9
$TILEMODE
 70
1
  9
$MEASUREMENT
 70
1
  9
$INSUNITS
 70
4
  0
ENDSEC
  0
SECTION
  2
CLASSES
  0
CLASS
  1
ACDBDICTIONARYWDFLT
  2
AcDbDictionaryWithDefault
  3
AutoCAD 2000
 90
0
 91
1
280
0
281
0
  0
CLASS
  1
ACDBPLACEHOLDER
  2
AcDbPlaceHolder
  3
AutoCAD 2000
 90
0
 91
1
280
0
281
0
  0
CLASS
  1
LAYOUT
  2
AcDbLayout
  3
AutoCAD 2000
 90
0
 91
0
280
0
281
0
  0
ENDSEC
  0
SECTION
  2
TABLES
  0
TABLE
  2
VPORT
  5
8
100
AcDbSymbolTable
 70
2
  0
VPORT
  5
1F4
100
AcDbSymbolTableRecord
100
AcDbViewportTableRecord
  2
*ACTIVE
 70
0
 10
0.0
 20
0.0
 11
1.0
 21
1.0
 12
148.5
 22
105.0
 13
0.0
 23
0.0
 14
1.0
 24
1.0
 15
0.0
 25
0.0
 16
0.0
 26
0.0
 36
1.0
 17
0.0
 27
0.0
 37
0.0
 40
210.0
 41
1.4142857143
 42
50.0
 43
0.0
 44
0.0
 50
0.0
 51
0.0
 71
0
 72
100
 73
1
 74
1
 75
0
 76
0
 77
0
 78
0
  0
ENDTAB
  0
TABLE
  2
LTYPE
  5
5
100
AcDbSymbolTable
 70
6
  0
LTYPE
  5
14
100
AcDbSymbolTableRecord
100
AcDbLinetypeTableRecord
  2
BYBLOCK
 70
0
  3

 72
65
 73
0
 40
0.0
  0
LTYPE
  5
15
100
AcDbSymbolTableRecord
100
AcDbLinetypeTableRecord
  2
BYLAYER
 70
0
  3

 72
65
 73
0
 40
0.0
  0
LTYPE
  5
16
100
AcDbSymbolTableRecord
100
AcDbLinetypeTableRecord
  2
CONTINUOUS
 70
64
  3
Solid line
 72
65
 73
0
 40
0.0
  0
LTYPE
  5
1F5
100
AcDbSymbolTableRecord
100
AcDbLinetypeTableRecord
  2
CENTER
 70
64
  3
____ _ ____ _ ____ _ ____ _ ____ _ ____ _ ____
 72
65
 73
4
 40
0.6
 49
0.375
 74
0
 49
-0.075
 74
0
 49
0.075
 74
0
 49
-0.075
 74
0
  0
LTYPE
  5
1F6
100
AcDbSymbolTableRecord
100
AcDbLinetypeTableRecord
  2
HIDDEN
 70
64
  3
- - - - - - - - - - - - - - - - - - - -
 72
65
 73
2
 40
0.2
 49
0.1
 74
0
 49
-0.1
 74
0
  0
LTYPE
  5
1F7
100
AcDbSymbolTableRecord
100
AcDbLinetypeTableRecord
  2
PHANTOM
 70
64
  3
_____ _ _ _____ _ _ _____ _ _ _____
 72
65
 73
6
 40
0.8
 49
0.45
 74
0
 49
-0.05
 74
0
 49
0.1
 74
0
 49
-0.05
 74
0
 49
0.1
 74
0
 49
-0.05
 74
0
  0
LTYPE
  5
1F8
100
AcDbSymbolTableRecord
100
AcDbLinetypeTableRecord
  2
DOT
 70
64
  3
. . . . . . . . . . . . . . . . . . . .
 72
65
 73
2
 40
0.2
 49
0.1
 74
0
 49
-0.1
 74
0
  0
LTYPE
  5
1F9
100
AcDbSymbolTableRecord
100
AcDbLinetypeTableRecord
  2
DASHED
 70
64
  3
- - - - - - - - - - - - - - - - - - - -
 72
65
 73
2
 40
0.2
 49
0.1
 74
0
 49
-0.1
 74
0
  0
ENDTAB
  0
TABLE
  2
LAYER
  5
2
100
AcDbSymbolTable
 70
36
  0
LAYER
  5
10
100
AcDbSymbolTableRecord
100
AcDbLayerTableRecord
  2
0
 70
0
 62
7
  6
CONTINUOUS
370
-3
390
F
  0
LAYER
  5
1FA
100
AcDbSymbolTableRecord
100
AcDbLayerTableRecord
  2
DEFAULT_1
 70
0
 62
7
  6
CENTER
370
-3
390
F
  0
LAYER
  5
1FB
100
AcDbSymbolTableRecord
100
AcDbLayerTableRecord
  2
DEFAULT_2
 70
0
 62
7
  6
HIDDEN
370
-3
390
F
  0
LAYER
  5
1FC
100
AcDbSymbolTableRecord
100
AcDbLayerTableRecord
  2
DEFAULT_3
 70
0
 62
7
  6
PHANTOM
370
-3
390
F
  0
LAYER
  5
1FD
100
AcDbSymbolTableRecord
100
AcDbLayerTableRecord
  2
ASSI
 70
0
 62
7
  6
CONTINUOUS
370
-3
390
F
  0
LAYER
  5
1FE
100
AcDbSymbolTableRecord
100
AcDbLayerTableRecord
  2
COLOR5
 70
0
 62
7
  6
CONTINUOUS
370
-3
390
F
  0
LAYER
  5
1FF
100
AcDbSymbolTableRecord
100
AcDbLayerTableRecord
  2
COORDINATE
 70
0
 62
7
  6
CONTINUOUS
370
-3
390
F
  0
LAYER
  5
200
100
AcDbSymbolTableRecord
100
AcDbLayerTableRecord
  2
COORD_ORIGINE
 70
0
 62
7
  6
CONTINUOUS
370
-3
390
F
  0
LAYER
  5
201
100
AcDbSymbolTableRecord
100
AcDbLayerTableRecord
  2
COPY_PUBLISH
 70
0
 62
7
  6
CONTINUOUS
370
-3
390
F
  0
LAYER
  5
202
100
AcDbSymbolTableRecord
100
AcDbLayerTableRecord
  2
COSMETIC
 70
0
 62
7
  6
CONTINUOUS
370
-3
390
F
  0
LAYER
  5
203
100
AcDbSymbolTableRecord
100
AcDbLayerTableRecord
  2
COSMETICI
 70
0
 62
7
  6
CONTINUOUS
370
-3
390
F
  0
LAYER
  5
204
100
AcDbSymbolTableRecord
100
AcDbLayerTableRecord
  2
CURVE
 70
0
 62
7
  6
CONTINUOUS
370
-3
390
F
  0
LAYER
  5
205
100
AcDbSymbolTableRecord
100
AcDbLayerTableRecord
  2
DRAFT
 70
0
 62
7
  6
CONTINUOUS
370
-3
390
F
  0
LAYER
  5
206
100
AcDbSymbolTableRecord
100
AcDbLayerTableRecord
  2
IMPORT_IGES
 70
0
 62
7
  6
CONTINUOUS
370
-3
390
F
  0
LAYER
  5
207
100
AcDbSymbolTableRecord
100
AcDbLayerTableRecord
  2
INCISIONI
 70
0
 62
7
  6
CONTINUOUS
370
-3
390
F
  0
LAYER
  5
208
100
AcDbSymbolTableRecord
100
AcDbLayerTableRecord
  2
INTF_YELLOW
 70
0
 62
7
  6
CONTINUOUS
370
-3
390
F
  0
LAYER
  5
209
100
AcDbSymbolTableRecord
100
AcDbLayerTableRecord
  2
NOTE
 70
0
 62
7
  6
CONTINUOUS
370
-3
390
F
  0
LAYER
  5
20A
100
AcDbSymbolTableRecord
100
AcDbLayerTableRecord
  2
PIANI
 70
0
 62
7
  6
CONTINUOUS
370
-3
390
F
  0
LAYER
  5
20B
100
AcDbSymbolTableRecord
100
AcDbLayerTableRecord
  2
PIANI_ORIGINE
 70
0
 62
7
  6
CONTINUOUS
370
-3
390
F
  0
LAYER
  5
20C
100
AcDbSymbolTableRecord
100
AcDbLayerTableRecord
  2
PUNTI
 70
0
 62
7
  6
CONTINUOUS
370
-3
390
F
  0
LAYER
  5
20D
100
AcDbSymbolTableRecord
100
AcDbLayerTableRecord
  2
RACCORDO
 70
0
 62
7
  6
CONTINUOUS
370
-3
390
F
  0
LAYER
  5
20E
100
AcDbSymbolTableRecord
100
AcDbLayerTableRecord
  2
SIMBOLI
 70
0
 62
7
  6
CONTINUOUS
370
-3
390
F
  0
LAYER
  5
20F
100
AcDbSymbolTableRecord
100
AcDbLayerTableRecord
  2
SNAPLINE
 70
0
 62
7
  6
CONTINUOUS
370
-3
390
F
  0
LAYER
  5
210
100
AcDbSymbolTableRecord
100
AcDbLayerTableRecord
  2
SUPERFICI
 70
0
 62
7
  6
CONTINUOUS
370
-3
390
F
  0
LAYER
  5
211
100
AcDbSymbolTableRecord
100
AcDbLayerTableRecord
  2
TRASH
 70
0
 62
7
  6
CONTINUOUS
370
-3
390
F
  0
LAYER
  5
212
100
AcDbSymbolTableRecord
100
AcDbLayerTableRecord
  2
XSEC_DATUMS
 70
0
 62
7
  6
CONTINUOUS
370
-3
390
F
  0
ENDTAB
  0
TABLE
  2
STYLE
  5
3
100
AcDbSymbolTable
 70
1
  0
STYLE
  5
11
100
AcDbSymbolTableRecord
100
AcDbTextStyleTableRecord
  2
STANDARD
 70
0
 40
0.0
 41
0.8
 50
0.0
 71
0
 42
0.2
  3
txt
  4

  0
STYLE
  5
213
100
AcDbSymbolTableRecord
100
AcDbTextStyleTableRecord
  2
TEXTSTYLE_1
 70
0
 40
0.0
 41
0.8
 50
0.0
 71
0
 42
0.2
  3
gdt
  4

  0
ENDTAB
  0
TABLE
  2
VIEW
  5
6
100
AcDbSymbolTable
 70
0
  0
ENDTAB
  0
TABLE
  2
UCS
  5
7
100
AcDbSymbolTable
 70
0
  0
ENDTAB
  0
TABLE
  2
APPID
  5
9
100
AcDbSymbolTable
 70
1
  0
APPID
  5
214
100
AcDbSymbolTableRecord
100
AcDbRegAppTableRecord
  2
ACAD
 70
0
  0
ENDTAB
  0
TABLE
  2
BLOCK_RECORD
  5
1
100
AcDbSymbolTable
 70
0
  0
BLOCK_RECORD
  5
215
100
AcDbSymbolTableRecord
100
AcDbBlockTableRecord
  2
*Model_Space
  0
BLOCK_RECORD
  5
216
100
AcDbSymbolTableRecord
100
AcDbBlockTableRecord
  2
*Paper_Space
  0
BLOCK_RECORD
  5
217
100
AcDbSymbolTableRecord
100
AcDbBlockTableRecord
  2
_FILLED
  0
ENDTAB
  0
TABLE
  2
DIMSTYLE
  5
A
100
AcDbSymbolTable
 70
1
100
AcDbDimStyleTable
 71
0
  0
DIMSTYLE
105
218
100
AcDbSymbolTableRecord
100
AcDbDimStyleTableRecord
  2
STANDARD
 70
0
  3

  4

 40
1.0
 41
3.0
 42
0.5
 43
0.38
 44
1.5
 45
0.0
 46
0.0
 47
0.01
 48
0.01
140
3.0
141
0.09
142
0.0
143
25.4
144
1.0
145
0.0
146
1.0
147
0.625
 71
1
 72
0
 73
0
 74
0
 75
0
 76
0
 77
1
 78
8
 79
2
170
0
171
1
172
0
173
0
174
0
175
0
176
0
177
0
178
0
270
2
179
2
271
2
272
2
273
2
274
2
275
0
280
0
281
0
282
0
283
1
284
8
285
0
286
0
287
3
288
0
340
11
278
44
341
217
342
217
343
217
344
217
  0
ENDTAB
  0
ENDSEC
  0
SECTION
  2
BLOCKS
  0
BLOCK
  5
20
100
AcDbEntity
  8
0
100
AcDbBlockBegin
  2
*Model_Space
 70
0
 10
0.0
 20
0.0
 30
0.0
  3
*Model_Space
  1

  0
ENDBLK
  5
21
100
AcDbEntity
  8
0
100
AcDbBlockEnd
  0
BLOCK
  5
1C
100
AcDbEntity
  8
0
100
AcDbBlockBegin
  2
*Paper_Space
 70
0
 10
0.0
 20
0.0
 30
0.0
  3
*Paper_Space
  1

  0
ENDBLK
  5
1D
100
AcDbEntity
  8
0
100
AcDbBlockEnd
  0
BLOCK
  5
219
100
AcDbEntity
  8
0
100
AcDbBlockBegin
  2
_FILLED
 70
64
 10
0.0
 20
0.0
  3
_FILLED
  1

  0
SOLID
  5
21A
100
AcDbEntity
  8
0
  6
BYBLOCK
 62
0
100
AcDbTrace
 10
0.0
 20
0.0
 11
-1.0
 21
0.3166666667
 12
-1.0
 22
-0.3166666667
 13
-1.0
 23
-0.3166666667
  0
ENDBLK
  5
21B
100
AcDbEntity
  8
0
  6
BYBLOCK
 62
0
100
AcDbBlockEnd
  0
ENDSEC
  0
SECTION
  2
ENTITIES
  0
LWPOLYLINE
  5
21C
100
AcDbEntity
  8
RACCORDO
100
AcDbPolyline
 62
250
  6
CONTINUOUS
 90
7
 70
0
 10
-5.0147047324
 20
-70.5622113882
 10
-4.9273868158
 20
-70.5385982281
 10
-4.8329288959
 20
-70.5171949206
 10
-4.7320137561
 20
-70.4975781869
 10
-4.6253980257
 20
-70.4793306405
 10
-4.513899886
 20
-70.4620424137
 10
-4.3983864195
 20
-70.4453126165
  0
LINE
  5
21D
100
AcDbEntity
  8
RACCORDO
100
AcDbLine
 62
250
  6
CONTINUOUS
 10
-4.090920539
 20
-68.4089771531
 11
-4.1856058167
 21
-68.4281321914
  0
LINE
  5
21E
100
AcDbEntity
  8
RACCORDO
100
AcDbLine
 62
250
  6
CONTINUOUS
 10
-5.1177610065
 20
-70.5830638251
 11
-5.0147053656
 21
-70.5622132859
  0
LINE
  5
21F
100
AcDbEntity
  8
RACCORDO
100
AcDbLine
 62
250
  6
CONTINUOUS
 10
-5.2202784115
 20
-70.6032031683
 11
-5.1177610065
 21
-70.5830638251
  0
LINE
  5
220
100
AcDbEntity
  8
RACCORDO
100
AcDbLine
 62
250
  6
CONTINUOUS
 10
-5.322176982
 20
-70.6226313155
 11
-5.2202784115
 21
-70.6032031683
  0
LWPOLYLINE
  5
221
100
AcDbEntity
  8
0
100
AcDbPolyline
 62
250
  6
CONTINUOUS
 90
10
 70
0
 10
18.3
 20
-64.0551423912
 10
18.3728981462
 20
-64.0417141007
 10
18.4694473424
 20
-64.0218119378
 10
18.5565761597
 20
-64.0015332691
 10
18.634061306
 20
-63.9809300336
 10
18.7017040102
 20
-63.9600550502
 10
18.7593306452
 20
-63.9389618847
 10
18.8067934863
 20
-63.9177046162
 10
18.8439709757
 20
-63.8963376957
 10
18.8707678416
 20
-63.8749158792
  0
LWPOLYLINE
  5
222
100
AcDbEntity
  8
RACCORDO
100
AcDbPolyline
 62
250
  6
CONTINUOUS
 90
10
 70
0
 10
-3.583816399
 20
-68.3127717897
 10
-3.6689290043
 20
-68.3251748547
 10
-3.7481992842
 20
-68.3377265194
 10
-3.8203899583
 20
-68.3496088435
 10
-3.8851718279
 20
-68.3609624733
 10
-3.9424846599
 20
-68.3720942162
 10
-3.9917258127
 20
-68.3823929606
 10
-4.0327412307
 20
-68.3917516691
 10
-4.0657656776
 20
-68.4005724317
 10
-4.0909145726
 20
-68.4089643989
  0
LWPOLYLINE
  5
223
100
AcDbEntity
  8
RACCORDO
100
AcDbPolyline
 62
250
  6
CONTINUOUS
 90
3
 70
0
 10
-3.2990525805
 20
-68.2747688208
 10
-3.3978323002
 20
-68.2872533308
 10
-3.583816399
 20
-68.3127717897
  0
LINE
  5
224
100
AcDbEntity
  8
RACCORDO
100
AcDbLine
 62
250
  6
CONTINUOUS
 10
-2.9901624787
 20
-68.2385901781
 11
-3.2990525805
 21
-68.2747688208
  0
LINE
  5
225
100
AcDbEntity
  8
RACCORDO
100
AcDbLine
 62
7
  6
CONTINUOUS
 10
15.4204131443
 20
-69.7703154229
 11
5.5666713338
 21
-70.8117053282
  0
LWPOLYLINE
  5
226
100
AcDbEntity
  8
RACCORDO
100
AcDbPolyline
 62
7
  6
CONTINUOUS
 90
7
 70
0
 10
-5.5231422142
 20
-70.8109694089
 10
-5.190541894
 20
-70.7820749342
 10
-5.0950651793
 20
-70.7754730701
 10
-4.9878113625
 20
-70.7699580691
 10
-4.8696189096
 20
-70.7656700291
 10
-4.7414439089
 20
-70.7626638348
 10
-4.6040133161
 20
-70.7610188374
  0
LINE
  5
227
100
AcDbEntity
  8
RACCORDO
100
AcDbLine
 62
250
  6
CONTINUOUS
 10
-4.359586508
 20
-67.9876557653
 11
-4.448719772
 21
-67.9948548704
  0
LINE
  5
228
100
AcDbEntity
  8
RACCORDO
100
AcDbLine
 62
7
  6
CONTINUOUS
 10
-16.3275841043
 20
-67.9842418231
 11
-16.457454531
 21
-67.9948548704
  0
LINE
  5
229
100
AcDbEntity
  8
RACCORDO
100
AcDbLine
 62
7
  6
CONTINUOUS
 10
-16.1931512761
 20
-67.9738570728
 11
-16.3275841043
 21
-67.9842418231
  0
LINE
  5
22A
100
AcDbEntity
  8
RACCORDO
100
AcDbLine
 62
7
  6
CONTINUOUS
 10
-16.0529993386
 20
-67.9637138228
 11
-16.1931512761
 21
-67.9738570728
  0
LWPOLYLINE
  5
22B
100
AcDbEntity
  8
RACCORDO
100
AcDbPolyline
 62
250
  6
CONTINUOUS
 90
5
 70
0
 10
-4.1860464858
 20
-67.9801944643
 10
-4.2446258969
 20
-67.9820138965
 10
-4.2929205945
 20
-67.9838552477
 10
-4.3312407982
 20
-67.9857358707
 10
-4.359586508
 20
-67.9876557653
  0
LWPOLYLINE
  5
22C
100
AcDbEntity
  8
DRAFT
100
AcDbPolyline
 62
7
  6
CONTINUOUS
 90
5
 70
0
 10
-15.8574035974
 20
-67.9558424144
 10
-15.919426372
 20
-67.9576807017
 10
-15.9724375147
 20
-67.9596014245
 10
-16.016961837
 20
-67.9616124649
 10
-16.0529993386
 20
-67.9637138228
  0
LINE
  5
22D
100
AcDbEntity
  8
RACCORDO
100
AcDbLine
 62
250
  6
CONTINUOUS
 10
2.9901456139
 20
-68.2385612852
 11
2.6086231611
 21
-68.2497552917
  0
LINE
  5
22E
100
AcDbEntity
  8
RACCORDO
100
AcDbLine
 62
250
  6
CONTINUOUS
 10
2.6086231611
 20
-68.2497552917
 11
1.9860317647
 21
-68.2645036376
  0
LINE
  5
22F
100
AcDbEntity
  8
RACCORDO
100
AcDbLine
 62
250
  6
CONTINUOUS
 10
-4.0398948404
 20
-67.9767254729
 11
-4.1860464858
 21
-67.9801944643
  0
LINE
  5
230
100
AcDbEntity
  8
DRAFT
100
AcDbLine
 62
7
  6
CONTINUOUS
 10
-15.7094720204
 20
-67.9524604387
 11
-15.8574035974
 21
-67.9558424144
  0
LINE
  5
231
100
AcDbEntity
  8
RACCORDO
100
AcDbLine
 62
250
  6
CONTINUOUS
 10
1.9860317647
 20
-68.2645036376
 11
1.5430531476
 21
-68.2724939195
  0
LINE
  5
232
100
AcDbEntity
  8
RACCORDO
100
AcDbLine
 62
250
  6
CONTINUOUS
 10
-3.8566808552
 20
-67.9736241106
 11
-4.0398948404
 21
-67.9767254729
  0
LINE
  5
233
100
AcDbEntity
  8
DRAFT
100
AcDbLine
 62
7
  6
CONTINUOUS
 10
-15.5338515276
 20
-67.9495384941
 11
-15.7094720204
 21
-67.9524604387
  0
LINE
  5
234
100
AcDbEntity
  8
RACCORDO
100
AcDbLine
 62
250
  6
CONTINUOUS
 10
3.1096922583
 20
-70.4649114187
 11
4.398786559
 21
-70.4453762287
  0
LINE
  5
235
100
AcDbEntity
  8
RACCORDO
100
AcDbLine
 62
250
  6
CONTINUOUS
 10
1.5430531476
 20
-68.2724939195
 11
1.0828018815
 21
-68.2786590048
  0
LINE
  5
236
100
AcDbEntity
  8
0
100
AcDbLine
 62
7
  6
CONTINUOUS
 10
16.5
 20
-66.8221346312
 11
16.4446488192
 21
-66.822817441
  0
LINE
  5
237
100
AcDbEntity
  8
DRAFT
100
AcDbLine
 62
7
  6
CONTINUOUS
 10
-15.2294677955
 20
-67.9461261792
 11
-15.5338515276
 21
-67.9495384941
  0
LINE
  5
238
100
AcDbEntity
  8
RACCORDO
100
AcDbLine
 62
250
  6
CONTINUOUS
 10
-3.5270159535
 20
-67.9699594918
 11
-3.8566808552
 21
-67.9736241106
  0
LINE
  5
239
100
AcDbEntity
  8
RACCORDO
100
AcDbLine
 62
250
  6
CONTINUOUS
 10
1.7488856867
 20
-70.4793004386
 11
3.1096922583
 21
-70.4649114187
  0
LINE
  5
23A
100
AcDbEntity
  8
RACCORDO
100
AcDbLine
 62
250
  6
CONTINUOUS
 10
1.0828018815
 20
-68.2786590048
 11
0.6108139762
 21
-68.2827101259
  0
LINE
  5
23B
100
AcDbEntity
  8
0
100
AcDbLine
 62
7
  6
CONTINUOUS
 10
16.4446488192
 20
-66.822817441
 11
16.401450177
 21
-66.8230763549
  0
LINE
  5
23C
100
AcDbEntity
  8
DRAFT
100
AcDbLine
 62
7
  6
CONTINUOUS
 10
-13.7900914235
 20
-67.9378128432
 11
-15.2294677955
 21
-67.9461261792
  0
LINE
  5
23D
100
AcDbEntity
  8
RACCORDO
100
AcDbLine
 62
250
  6
CONTINUOUS
 10
0.9878236078
 20
-70.4829834489
 11
1.7488856867
 21
-70.4793004386
  0
LWPOLYLINE
  5
23E
100
AcDbEntity
  8
RACCORDO
100
AcDbPolyline
 62
250
  6
CONTINUOUS
 90
3
 70
0
 10
-3.026594563
 20
-67.9673940444
 10
-3.1569112755
 20
-67.9677744914
 10
-3.5270159535
 20
-67.9699594918
  0
LINE
  5
23F
100
AcDbEntity
  8
RACCORDO
100
AcDbLine
 62
250
  6
CONTINUOUS
 10
0.6108139762
 20
-68.2827101259
 11
0.13255649
 21
-68.2845054592
  0
LINE
  5
240
100
AcDbEntity
  8
DRAFT
100
AcDbLine
 62
7
  6
CONTINUOUS
 10
-10.6446518088
 20
-67.9276961318
 11
-13.7900914235
 21
-67.9378128432
  0
LINE
  5
241
100
AcDbEntity
  8
0
100
AcDbLine
 62
7
  6
CONTINUOUS
 10
-16.3842194815
 20
-66.8230362408
 11
-16.4013967299
 21
-66.8230763589
  0
LINE
  5
242
100
AcDbEntity
  8
RACCORDO
100
AcDbLine
 62
7
  6
CONTINUOUS
 10
-0.6622178267
 20
-67.9642233831
 11
-3.026594563
 21
-67.9673940444
  0
LINE
  5
243
100
AcDbEntity
  8
DRAFT
100
AcDbLine
 62
7
  6
CONTINUOUS
 10
-3.0266100778
 20
-67.918775942
 11
-9.3501335989
 21
-67.92508963
  0
LINE
  5
244
100
AcDbEntity
  8
RACCORDO
100
AcDbLine
 62
250
  6
CONTINUOUS
 10
16.5267142301
 20
-68.2948091789
 11
10.306862245
 21
-68.2948091789
  0
LINE
  5
245
100
AcDbEntity
  8
RACCORDO
100
AcDbLine
 62
250
  6
CONTINUOUS
 10
9.693137755
 20
-68.2948091789
 11
4.4487219094
 21
-68.2948091789
  0
LINE
  5
246
100
AcDbEntity
  8
RACCORDO
100
AcDbLine
 62
250
  6
CONTINUOUS
 10
-4.4487217268
 20
-68.2948091789
 11
-9.693137755
 21
-68.2948091789
  0
LINE
  5
247
100
AcDbEntity
  8
RACCORDO
100
AcDbLine
 62
250
  6
CONTINUOUS
 10
-10.306862245
 20
-68.2948091789
 11
-16.5267142301
 21
-68.2948091789
  0
LINE
  5
248
100
AcDbEntity
  8
RACCORDO
100
AcDbLine
 62
250
  6
CONTINUOUS
 10
16.457454531
 20
-67.9948548704
 11
10.5102933954
 21
-67.9948548704
  0
LINE
  5
249
100
AcDbEntity
  8
RACCORDO
100
AcDbLine
 62
250
  6
CONTINUOUS
 10
9.4897066046
 20
-67.9948548704
 11
4.4487198487
 21
-67.9948548704
  0
LINE
  5
24A
100
AcDbEntity
  8
RACCORDO
100
AcDbLine
 62
250
  6
CONTINUOUS
 10
-4.448719772
 20
-67.9948548704
 11
-9.4897066046
 21
-67.9948548704
  0
LINE
  5
24B
100
AcDbEntity
  8
RACCORDO
100
AcDbLine
 62
250
  6
CONTINUOUS
 10
-10.5102933954
 20
-67.9948548704
 11
-16.457454531
 21
-67.9948548704
  0
LINE
  5
24C
100
AcDbEntity
  8
RACCORDO
100
AcDbLine
 62
250
  6
CONTINUOUS
 10
9.3356316707
 20
-67.5
 11
9.693137755
 21
-67.5
  0
LINE
  5
24D
100
AcDbEntity
  8
RACCORDO
100
AcDbLine
 62
250
  6
CONTINUOUS
 10
-9.3356316599
 20
-67.5
 11
-9.693137755
 21
-67.5
  0
LINE
  5
24E
100
AcDbEntity
  8
RACCORDO
100
AcDbLine
 62
250
  6
CONTINUOUS
 10
-10.306862245
 20
-67.5
 11
-10.6606004959
 21
-67.5
  0
LINE
  5
24F
100
AcDbEntity
  8
RACCORDO
100
AcDbLine
 62
250
  6
CONTINUOUS
 10
10.306862245
 20
-67.5
 11
10.6606004905
 21
-67.5
  0
LINE
  5
250
100
AcDbEntity
  8
RACCORDO
100
AcDbLine
 62
7
  6
CONTINUOUS
 10
-16.301218346
 20
-66.8
 11
-4.0
 21
-66.8
  0
LINE
  5
251
100
AcDbEntity
  8
RACCORDO
100
AcDbLine
 62
7
  6
CONTINUOUS
 10
4.0
 20
-66.8
 11
16.301218346
 21
-66.8
  0
LINE
  5
252
100
AcDbEntity
  8
0
100
AcDbLine
 62
7
  6
CONTINUOUS
 10
-4.0
 20
-66.730158461
 11
4.0
 21
-66.730158461
  0
LINE
  5
253
100
AcDbEntity
  8
RACCORDO
100
AcDbLine
 62
250
  6
CONTINUOUS
 10
0.6622425113
 20
-67.964223231
 11
-0.6622178267
 21
-67.9642233831
  0
LINE
  5
254
100
AcDbEntity
  8
RACCORDO
100
AcDbLine
 62
7
  6
CONTINUOUS
 10
-4.6040133161
 20
-70.7610188374
 11
-3.7338062553
 21
-70.7612182577
  0
LINE
  5
255
100
AcDbEntity
  8
RACCORDO
100
AcDbLine
 62
7
  6
CONTINUOUS
 10
0.6646267085
 20
-70.7637960195
 11
4.5171819727
 21
-70.7607360621
  0
LWPOLYLINE
  5
256
100
AcDbEntity
  8
DRAFT
100
AcDbPolyline
 62
7
  6
CONTINUOUS
 90
3
 70
0
 10
9.3501336181
 20
-67.9250896396
 10
7.3841320696
 20
-67.9223194236
 10
-3.0266100778
 20
-67.918775942
  0
LINE
  5
257
100
AcDbEntity
  8
RACCORDO
100
AcDbLine
 62
7
  6
CONTINUOUS
 10
-3.7338062553
 20
-70.7612182577
 11
0.6646267085
 21
-70.7637960195
  0
LINE
  5
258
100
AcDbEntity
  8
RACCORDO
100
AcDbLine
 62
7
  6
CONTINUOUS
 10
3.0265959063
 20
-67.96739401
 11
0.6622425113
 21
-67.964223231
  0
LINE
  5
259
100
AcDbEntity
  8
RACCORDO
100
AcDbLine
 62
250
  6
CONTINUOUS
 10
-1.0121657824
 20
-70.4829170256
 11
0.9878236078
 21
-70.4829834489
  0
LINE
  5
25A
100
AcDbEntity
  8
RACCORDO
100
AcDbLine
 62
250
  6
CONTINUOUS
 10
0.13255649
 20
-68.2845054592
 11
-0.348018768
 21
-68.2839906428
  0
LWPOLYLINE
  5
25B
100
AcDbEntity
  8
RACCORDO
100
AcDbPolyline
 62
7
  6
CONTINUOUS
 90
8
 70
0
 10
4.5171661899
 20
-70.7607545596
 10
4.5854845212
 20
-70.7609212876
 10
4.7239198735
 20
-70.7623297136
 10
4.8533189648
 20
-70.7651411024
 10
4.972895392
 20
-70.7692482513
 10
5.0816977485
 20
-70.7745634777
 10
5.1788940125
 20
-70.7810123302
 10
5.2232253861
 20
-70.784643877
  0
LINE
  5
25C
100
AcDbEntity
  8
DRAFT
100
AcDbLine
 62
7
  6
CONTINUOUS
 10
14.6939543247
 20
-67.9425773046
 11
10.644651798
 21
-67.9276961372
  0
LINE
  5
25D
100
AcDbEntity
  8
RACCORDO
100
AcDbLine
 62
250
  6
CONTINUOUS
 10
3.4085229313
 20
-67.9690648757
 11
3.0265959063
 21
-67.96739401
  0
LINE
  5
25E
100
AcDbEntity
  8
0
100
AcDbLine
 62
7
  6
CONTINUOUS
 10
-16.4013967299
 20
-66.8230763589
 11
-16.444654316
 21
-66.822817441
  0
LINE
  5
25F
100
AcDbEntity
  8
RACCORDO
100
AcDbLine
 62
250
  6
CONTINUOUS
 10
-1.7488877108
 20
-70.479300545
 11
-1.0121657824
 21
-70.4829170256
  0
LINE
  5
260
100
AcDbEntity
  8
0
100
AcDbLine
 62
7
  6
CONTINUOUS
 10
16.401450177
 20
-66.8230763549
 11
16.3510928035
 21
-66.8227339404
  0
LINE
  5
261
100
AcDbEntity
  8
RACCORDO
100
AcDbLine
 62
250
  6
CONTINUOUS
 10
-0.348018768
 20
-68.2839906428
 11
-0.8253980916
 21
-68.2811397096
  0
LINE
  5
262
100
AcDbEntity
  8
DRAFT
100
AcDbLine
 62
7
  6
CONTINUOUS
 10
15.3336620967
 20
-67.9471031754
 11
14.6939543247
 21
-67.9425773046
  0
LINE
  5
263
100
AcDbEntity
  8
RACCORDO
100
AcDbLine
 62
250
  6
CONTINUOUS
 10
3.7559988278
 20
-67.972285998
 11
3.4085229313
 21
-67.9690648757
  0
LINE
  5
264
100
AcDbEntity
  8
RACCORDO
100
AcDbLine
 62
250
  6
CONTINUOUS
 10
-3.1093522058
 20
-70.4649163944
 11
-1.7488877108
 21
-70.479300545
  0
LINE
  5
265
100
AcDbEntity
  8
RACCORDO
100
AcDbLine
 62
250
  6
CONTINUOUS
 10
-0.8253980916
 20
-68.2811397096
 11
-1.2940293092
 21
-68.2761073617
  0
LINE
  5
266
100
AcDbEntity
  8
0
100
AcDbLine
 62
7
  6
CONTINUOUS
 10
-16.444654316
 20
-66.822817441
 11
-16.5
 21
-66.8221346686
  0
LINE
  5
267
100
AcDbEntity
  8
DRAFT
100
AcDbLine
 62
7
  6
CONTINUOUS
 10
15.6226426995
 20
-67.9509013726
 11
15.3336620967
 21
-67.9471031754
  0
LINE
  5
268
100
AcDbEntity
  8
RACCORDO
100
AcDbLine
 62
250
  6
CONTINUOUS
 10
3.9545919055
 20
-67.9751593128
 11
3.7559988278
 21
-67.972285998
  0
LINE
  5
269
100
AcDbEntity
  8
RACCORDO
100
AcDbLine
 62
250
  6
CONTINUOUS
 10
-1.2940293092
 20
-68.2761073617
 11
-1.7500308383
 21
-68.2690260038
  0
LINE
  5
26A
100
AcDbEntity
  8
RACCORDO
100
AcDbLine
 62
250
  6
CONTINUOUS
 10
-4.3983669275
 20
-70.4452832114
 11
-3.1093522058
 21
-70.4649163944
  0
LINE
  5
26B
100
AcDbEntity
  8
RACCORDO
100
AcDbLine
 62
250
  6
CONTINUOUS
 10
-1.7500308383
 20
-68.2690260038
 11
-2.1879976658
 21
-68.2601358402
  0
LWPOLYLINE
  5
26C
100
AcDbEntity
  8
0
100
AcDbPolyline
 62
7
  6
CONTINUOUS
 90
3
 70
0
 10
16.3510928035
 20
-66.8227339404
 10
16.2560749796
 20
-66.8203548873
 10
16.1595953474
 20
-66.8158703365
  0
LINE
  5
26D
100
AcDbEntity
  8
RACCORDO
100
AcDbLine
 62
250
  6
CONTINUOUS
 10
-2.1879976658
 20
-68.2601358402
 11
-2.6019454942
 21
-68.2499350962
  0
LINE
  5
26E
100
AcDbEntity
  8
RACCORDO
100
AcDbLine
 62
250
  6
CONTINUOUS
 10
-2.6019454942
 20
-68.2499350962
 11
-2.9901453576
 21
-68.23856283
  0
LWPOLYLINE
  5
26F
100
AcDbEntity
  8
0
100
AcDbPolyline
 62
7
  6
CONTINUOUS
 90
24
 70
0
 10
-16.5
 20
-66.8221346686
 10
-16.6029797927
 20
-66.8178292972
 10
-16.7063065879
 20
-66.807465083
 10
-16.809613285
 20
-66.7909373261
 10
-16.9125888652
 20
-66.7681364081
 10
-17.0147653144
 20
-66.7390217515
 10
-17.1155369041
 20
-66.7036648537
 10
-17.2143420724
 20
-66.6621659018
 10
-17.3109561297
 20
-66.6145265053
 10
-17.4052685687
 20
-66.5606908702
 10
-17.4962773462
 20
-66.5011045037
 10
-17.5841739192
 20
-66.4355284453
 10
-17.6703453434
 20
-66.3625052045
 10
-17.7548628935
 20
-66.2809841221
 10
-17.8359790893
 20
-66.1915747853
 10
-17.9121931444
 20
-66.095190808
 10
-17.9831044487
 20
-65.9915484384
 10
-18.0476235395
 20
-65.8812772359
 10
-18.1039013049
 20
-65.7672133902
 10
-18.1515642324
 20
-65.6506026946
 10
-18.1907892959
 20
-65.5314558006
 10
-18.2212910264
 20
-65.4111211128
 10
-18.243141168
 20
-65.2904900206
 10
-18.2467914609
 20
-65.2577771495
  0
LWPOLYLINE
  5
270
100
AcDbEntity
  8
DRAFT
100
AcDbPolyline
 62
7
  6
CONTINUOUS
 90
7
 70
0
 10
16.0529947577
 20
-67.963713503
 10
16.0169407546
 20
-67.9616087748
 10
15.9722750016
 20
-67.9595931273
 10
15.9189974989
 20
-67.9576665607
 10
15.8565188572
 20
-67.9558197168
 10
15.7854284657
 20
-67.9540619536
 10
15.6226426995
 20
-67.9509013726
  0
LWPOLYLINE
  5
271
100
AcDbEntity
  8
RACCORDO
100
AcDbPolyline
 62
250
  6
CONTINUOUS
 90
7
 70
0
 10
4.3595835845
 20
-67.9876556729
 10
4.3313332846
 20
-67.9857414555
 10
4.2931686249
 20
-67.9838662046
 10
4.2450896053
 20
-67.9820299202
 10
4.1868153039
 20
-67.9802157323
 10
4.1186266426
 20
-67.9784405109
 10
3.9545919055
 20
-67.9751593128
  0
LINE
  5
272
100
AcDbEntity
  8
RACCORDO
100
AcDbLine
 62
7
  6
CONTINUOUS
 10
16.1931783304
 20
-67.9738590992
 11
16.0529947577
 21
-67.963713503
  0
LINE
  5
273
100
AcDbEntity
  8
RACCORDO
100
AcDbLine
 62
7
  6
CONTINUOUS
 10
16.3276109862
 20
-67.9842439618
 11
16.1931783304
 21
-67.9738590992
  0
LINE
  5
274
100
AcDbEntity
  8
RACCORDO
100
AcDbLine
 62
250
  6
CONTINUOUS
 10
4.4487198487
 20
-67.9948548704
 11
4.3595835845
 21
-67.9876556729
  0
LINE
  5
275
100
AcDbEntity
  8
RACCORDO
100
AcDbLine
 62
7
  6
CONTINUOUS
 10
16.457454531
 20
-67.9948548704
 11
16.3276109862
 21
-67.9842439618
  0
LINE
  5
276
100
AcDbEntity
  8
RACCORDO
100
AcDbLine
 62
7
  6
CONTINUOUS
 10
5.2231416571
 20
-70.7847774744
 11
5.5239841193
 21
-70.811040582
  0
LINE
  5
277
100
AcDbEntity
  8
RACCORDO
100
AcDbLine
 62
7
  6
CONTINUOUS
 10
-5.5666701799
 20
-70.8117053926
 11
-15.4204131443
 21
-69.7703154229
  0
LINE
  5
278
100
AcDbEntity
  8
RACCORDO
100
AcDbLine
 62
250
  6
CONTINUOUS
 10
3.3004737717
 20
-68.2749411611
 11
2.9901626898
 21
-68.2385876873
  0
LINE
  5
279
100
AcDbEntity
  8
RACCORDO
100
AcDbLine
 62
250
  6
CONTINUOUS
 10
3.399403068
 20
-68.2874520333
 11
3.3004737717
 21
-68.2749411611
  0
LWPOLYLINE
  5
27A
100
AcDbEntity
  8
RACCORDO
100
AcDbPolyline
 62
250
  6
CONTINUOUS
 90
7
 70
0
 10
4.3989136634
 20
-70.4455920344
 10
4.5151425788
 20
-70.46276746
 10
4.6271584739
 20
-70.4801998156
 10
4.7340069127
 20
-70.4983427251
 10
4.8348000817
 20
-70.5176783577
 10
4.9287442505
 20
-70.5387073575
 10
5.0151680115
 20
-70.5619359559
  0
LWPOLYLINE
  5
27B
100
AcDbEntity
  8
0
100
AcDbPolyline
 62
250
  6
CONTINUOUS
 90
10
 70
0
 10
-18.3
 20
-64.055144004
 10
-18.3729032343
 20
-64.041714911
 10
-18.4694556913
 20
-64.0218122119
 10
-18.5565864492
 20
-64.001533179
 10
-18.6340722417
 20
-63.98092983
 10
-18.7017148622
 20
-63.9600549291
 10
-18.7593414679
 20
-63.9389618465
 10
-18.806804467
 20
-63.9177045926
 10
-18.8439820987
 20
-63.8963376852
 10
-18.8707790875
 20
-63.8749158801
  0
LINE
  5
27C
100
AcDbEntity
  8
RACCORDO
100
AcDbLine
 62
250
  6
CONTINUOUS
 10
5.2200991944
 20
-70.6031647898
 11
5.3221771955
 21
-70.6226313319
  0
LINE
  5
27D
100
AcDbEntity
  8
RACCORDO
100
AcDbLine
 62
250
  6
CONTINUOUS
 10
5.1175211292
 20
-70.5830230295
 11
5.2200991944
 21
-70.6031647898
  0
LINE
  5
27E
100
AcDbEntity
  8
RACCORDO
100
AcDbLine
 62
250
  6
CONTINUOUS
 10
4.1856058473
 20
-68.4281322486
 11
4.0908919707
 21
-68.4089695559
  0
LINE
  5
27F
100
AcDbEntity
  8
RACCORDO
100
AcDbLine
 62
250
  6
CONTINUOUS
 10
5.0145231534
 20
-70.5622060511
 11
5.1175211292
 21
-70.5830230295
  0
LWPOLYLINE
  5
280
100
AcDbEntity
  8
DRAFT
100
AcDbPolyline
 62
250
  6
CONTINUOUS
 90
19
 70
0
 10
-16.0529993386
 20
-67.9637138228
 10
-16.3236485336
 20
-67.8502960603
 10
-16.58607641
 20
-67.7189736488
 10
-16.8390992011
 20
-67.5703388052
 10
-17.0815780426
 20
-67.4050590092
 10
-17.3124163247
 20
-67.22388252
 10
-17.5305666795
 20
-67.0276365963
 10
-17.7350432721
 20
-66.8172127799
 10
-17.9249305709
 20
-66.5935574646
 10
-18.0993801426
 20
-66.3576758899
 10
-18.2576082583
 20
-66.11062839
 10
-18.3989009898
 20
-65.8535327326
 10
-18.5226244078
 20
-65.5875540825
 10
-18.628226215
 20
-65.3138853509
 10
-18.7152293762
 20
-65.0337661951
 10
-18.783241236
 20
-64.7484843414
 10
-18.8319624999
 20
-64.4593344945
 10
-18.8611830023
 20
-64.1676112672
 10
-18.8707788685
 20
-63.8746283631
  0
LINE
  5
281
100
AcDbEntity
  8
RACCORDO
100
AcDbLine
 62
250
  6
CONTINUOUS
 10
-4.4487219092
 20
68.2948091789
 11
-4.1856091197
 21
68.4281306956
  0
LINE
  5
282
100
AcDbEntity
  8
RACCORDO
100
AcDbLine
 62
7
  6
CONTINUOUS
 10
-10.644651798
 20
67.9276961372
 11
-10.5102933954
 21
67.9948548704
  0
LINE
  5
283
100
AcDbEntity
  8
RACCORDO
100
AcDbLine
 62
250
  6
CONTINUOUS
 10
-5.3221619805
 20
70.622637892
 11
-5.5499655336
 21
70.5121708289
  0
LWPOLYLINE
  5
284
100
AcDbEntity
  8
0
100
AcDbPolyline
 62
7
  6
CONTINUOUS
 90
7
 70
0
 10
-16.0113528234
 20
-66.8054936617
 10
-16.0749118684
 20
-66.8104070784
 10
-16.137893092
 20
-66.8145935809
 10
-16.2001458895
 20
-66.8179989849
 10
-16.2619231243
 20
-66.8205751934
 10
-16.3233090843
 20
-66.8222715524
 10
-16.3842194815
 20
-66.8230362408
  0
LWPOLYLINE
  5
285
100
AcDbEntity
  8
INCISIONI
100
AcDbPolyline
 62
7
  6
CONTINUOUS
 90
13
 70
0
 10
0.2837311453
 20
-63.523379
 10
0.3547907612
 20
-63.5183283824
 10
0.4206674861
 20
-63.5067632923
 10
0.4813613198
 20
-63.4886837296
 10
0.5372865744
 20
-63.4638257903
 10
0.588028938
 20
-63.4324533785
 10
0.6323454745
 20
-63.3953582067
 10
0.6699341498
 20
-63.3525519746
 10
0.701096998
 20
-63.3040229825
 10
0.7254971859
 20
-63.2505278433
 10
0.7430224357
 20
-63.1923187613
 10
0.7537850251
 20
-63.1291435323
 10
0.7577849541
 20
-63.0610021562
  0
LWPOLYLINE
  5
286
100
AcDbEntity
  8
INCISIONI
100
AcDbPolyline
 62
7
  6
CONTINUOUS
 90
13
 70
0
 10
-5.2892968847
 20
-63.523379
 10
-5.2182372688
 20
-63.5183283824
 10
-5.1523605439
 20
-63.5067632923
 10
-5.0916667102
 20
-63.4886837296
 10
-5.0357414556
 20
-63.4638257903
 10
-4.984999092
 20
-63.4324533785
 10
-4.9406825555
 20
-63.3953582067
 10
-4.9030938802
 20
-63.3525519746
 10
-4.871931032
 20
-63.3040229825
 10
-4.8475308441
 20
-63.2505278433
 10
-4.8300055943
 20
-63.1923187613
 10
-4.8192430049
 20
-63.1291435323
 10
-4.8152430759
 20
-63.0610021562
  0
LWPOLYLINE
  5
287
100
AcDbEntity
  8
INCISIONI
100
AcDbPolyline
 62
7
  6
CONTINUOUS
 90
16
 70
0
 10
4.7828057843
 20
-64.198626
 10
4.8641389946
 20
-64.1929404696
 10
4.9410223832
 20
-64.1798863532
 10
5.0134559499
 20
-64.1594636509
 10
5.0819147283
 20
-64.1314320851
 10
5.1459236849
 20
-64.0960319334
 10
5.2040577189
 20
-64.0539840284
 10
5.2557555945
 20
-64.0054796017
 10
5.3015785476
 20
-63.9503274218
 10
5.3417851853
 20
-63.8886746275
 10
5.3768550075
 20
-63.8199744765
 10
5.4063085144
 20
-63.7447737111
 10
5.4289658144
 20
-63.6648596969
 10
5.4444336101
 20
-63.5808282226
 10
5.4531051988
 20
-63.4920834995
 10
5.4549805805
 20
-63.3986255277
  0
LINE
  5
288
100
AcDbEntity
  8
RACCORDO
100
AcDbLine
 62
250
  6
CONTINUOUS
 10
-4.0
 20
-65.4948091789
 11
-4.8
 21
-65.4974045895
  0
LINE
  5
289
100
AcDbEntity
  8
RACCORDO
100
AcDbLine
 62
7
  6
CONTINUOUS
 10
16.4000761524
 20
-65.5
 11
13.0
 21
-65.5
  0
LINE
  5
28A
100
AcDbEntity
  8
RACCORDO
100
AcDbLine
 62
7
  6
CONTINUOUS
 10
7.0
 20
-65.5
 11
4.8
 21
-65.5
  0
LINE
  5
28B
100
AcDbEntity
  8
RACCORDO
100
AcDbLine
 62
7
  6
CONTINUOUS
 10
-4.8
 20
-65.5
 11
-7.0
 21
-65.5
  0
LINE
  5
28C
100
AcDbEntity
  8
RACCORDO
100
AcDbLine
 62
7
  6
CONTINUOUS
 10
-13.0
 20
-65.5
 11
-16.4000761524
 21
-65.5
  0
LINE
  5
28D
100
AcDbEntity
  8
DRAFT
100
AcDbLine
 62
7
  6
CONTINUOUS
 10
-4.0
 20
-65.4650898701
 11
4.0
 21
-65.4650898701
  0
LINE
  5
28E
100
AcDbEntity
  8
RACCORDO
100
AcDbLine
 62
250
  6
CONTINUOUS
 10
15.25
 20
-65.4300274238
 11
13.0
 21
-65.4300274238
  0
LINE
  5
28F
100
AcDbEntity
  8
RACCORDO
100
AcDbLine
 62
250
  6
CONTINUOUS
 10
7.0
 20
-65.4300274238
 11
4.8
 21
-65.4300274238
  0
LINE
  5
290
100
AcDbEntity
  8
RACCORDO
100
AcDbLine
 62
250
  6
CONTINUOUS
 10
4.0
 20
-65.4300274238
 11
-4.0
 21
-65.4300274238
  0
LINE
  5
291
100
AcDbEntity
  8
RACCORDO
100
AcDbLine
 62
250
  6
CONTINUOUS
 10
-4.8
 20
-65.4300274238
 11
-7.0
 21
-65.4300274238
  0
LINE
  5
292
100
AcDbEntity
  8
RACCORDO
100
AcDbLine
 62
250
  6
CONTINUOUS
 10
-13.0
 20
-65.4300274238
 11
-15.25
 21
-65.4300274238
  0
LINE
  5
293
100
AcDbEntity
  8
RACCORDO
100
AcDbLine
 62
250
  6
CONTINUOUS
 10
16.3213760438
 20
-65.4212998914
 11
15.25
 21
-65.4212998914
  0
LINE
  5
294
100
AcDbEntity
  8
RACCORDO
100
AcDbLine
 62
250
  6
CONTINUOUS
 10
-15.25
 20
-65.4212998914
 11
-16.3213760438
 21
-65.4212998914
  0
LINE
  5
295
100
AcDbEntity
  8
0
100
AcDbLine
 62
7
  6
CONTINUOUS
 10
-13.0
 20
-65.2
 11
-7.0
 21
-65.2
  0
LINE
  5
296
100
AcDbEntity
  8
0
100
AcDbLine
 62
7
  6
CONTINUOUS
 10
13.0
 20
-65.2
 11
7.0
 21
-65.2
  0
LINE
  5
297
100
AcDbEntity
  8
RACCORDO
100
AcDbLine
 62
250
  6
CONTINUOUS
 10
4.8
 20
-65.1948548704
 11
4.0
 21
-65.1948548704
  0
LINE
  5
298
100
AcDbEntity
  8
RACCORDO
100
AcDbLine
 62
250
  6
CONTINUOUS
 10
-4.0
 20
-65.1948548704
 11
-4.8
 21
-65.1948548704
  0
LINE
  5
299
100
AcDbEntity
  8
RACCORDO
100
AcDbLine
 62
7
  6
CONTINUOUS
 10
4.8
 20
-65.1214522078
 11
4.0
 21
-65.1214522078
  0
LINE
  5
29A
100
AcDbEntity
  8
RACCORDO
100
AcDbLine
 62
7
  6
CONTINUOUS
 10
-4.0
 20
-65.1214522078
 11
-4.8
 21
-65.1214522078
  0
LINE
  5
29B
100
AcDbEntity
  8
RACCORDO
100
AcDbLine
 62
250
  6
CONTINUOUS
 10
15.25
 20
-64.9301035763
 11
13.0
 21
-64.9301035763
  0
LINE
  5
29C
100
AcDbEntity
  8
RACCORDO
100
AcDbLine
 62
250
  6
CONTINUOUS
 10
7.0
 20
-64.9301035763
 11
4.8
 21
-64.9301035763
  0
LINE
  5
29D
100
AcDbEntity
  8
RACCORDO
100
AcDbLine
 62
250
  6
CONTINUOUS
 10
4.0
 20
-64.9301035763
 11
-4.0
 21
-64.9301035763
  0
LINE
  5
29E
100
AcDbEntity
  8
RACCORDO
100
AcDbLine
 62
250
  6
CONTINUOUS
 10
-4.8
 20
-64.9301035763
 11
-7.0
 21
-64.9301035763
  0
LINE
  5
29F
100
AcDbEntity
  8
RACCORDO
100
AcDbLine
 62
250
  6
CONTINUOUS
 10
-13.0
 20
-64.9301035763
 11
-15.25
 21
-64.9301035763
  0
LINE
  5
2A0
100
AcDbEntity
  8
RACCORDO
100
AcDbLine
 62
250
  6
CONTINUOUS
 10
16.8127246754
 20
-64.9213760438
 11
15.25
 21
-64.9213760438
  0
LINE
  5
2A1
100
AcDbEntity
  8
RACCORDO
100
AcDbLine
 62
250
  6
CONTINUOUS
 10
-15.25
 20
-64.9213760438
 11
-16.8127246754
 21
-64.9213760438
  0
LINE
  5
2A2
100
AcDbEntity
  8
0
100
AcDbLine
 62
7
  6
CONTINUOUS
 10
-13.0
 20
-64.5
 11
-7.0
 21
-64.5
  0
LINE
  5
2A3
100
AcDbEntity
  8
0
100
AcDbLine
 62
7
  6
CONTINUOUS
 10
13.0
 20
-64.5
 11
7.0
 21
-64.5
  0
LINE
  5
2A4
100
AcDbEntity
  8
0
100
AcDbLine
 62
7
  6
CONTINUOUS
 10
-7.15
 20
-64.2771364302
 11
-7.438028
 21
-64.2771364302
  0
LINE
  5
2A5
100
AcDbEntity
  8
0
100
AcDbLine
 62
7
  6
CONTINUOUS
 10
-7.9700905621
 20
-64.2771364302
 11
-8.2581185621
 21
-64.2771364302
  0
LINE
  5
2A6
100
AcDbEntity
  8
0
100
AcDbLine
 62
7
  6
CONTINUOUS
 10
-8.56
 20
-64.2771364302
 11
-8.848028
 21
-64.2771364302
  0
LINE
  5
2A7
100
AcDbEntity
  8
0
100
AcDbLine
 62
7
  6
CONTINUOUS
 10
-9.0595104812
 20
-64.2771364302
 11
-9.4610164812
 21
-64.2771364302
  0
LINE
  5
2A8
100
AcDbEntity
  8
0
100
AcDbLine
 62
7
  6
CONTINUOUS
 10
-10.0302614605
 20
-64.2771364302
 11
-10.4317674605
 21
-64.2771364302
  0
LINE
  5
2A9
100
AcDbEntity
  8
0
100
AcDbLine
 62
7
  6
CONTINUOUS
 10
-10.9790867974
 20
-64.2771364302
 11
-11.2671147974
 21
-64.2771364302
  0
LINE
  5
2AA
100
AcDbEntity
  8
0
100
AcDbLine
 62
7
  6
CONTINUOUS
 10
-11.8421552225
 20
-64.2771364302
 11
-12.4801692235
 21
-64.2771364302
  0
LINE
  5
2AB
100
AcDbEntity
  8
INCISIONI
100
AcDbLine
 62
7
  6
CONTINUOUS
 10
-6.009011
 20
-64.198626
 11
-5.792857
 21
-64.198626
  0
LINE
  5
2AC
100
AcDbEntity
  8
INCISIONI
100
AcDbLine
 62
7
  6
CONTINUOUS
 10
-4.683153
 20
-64.198626
 11
-4.460302
 21
-64.198626
  0
LINE
  5
2AD
100
AcDbEntity
  8
INCISIONI
100
AcDbLine
 62
7
  6
CONTINUOUS
 10
-3.493101
 20
-64.198626
 11
-3.256986
 21
-64.198626
  0
LINE
  5
2AE
100
AcDbEntity
  8
INCISIONI
100
AcDbLine
 62
7
  6
CONTINUOUS
 10
-2.655391
 20
-64.198626
 11
-2.439236
 21
-64.198626
  0
LINE
  5
2AF
100
AcDbEntity
  8
INCISIONI
100
AcDbLine
 62
7
  6
CONTINUOUS
 10
-1.672651
 20
-64.198626
 11
-1.440958
 21
-64.198626
  0
LINE
  5
2B0
100
AcDbEntity
  8
INCISIONI
100
AcDbLine
 62
7
  6
CONTINUOUS
 10
-0.435983
 20
-64.198626
 11
-0.219829
 21
-64.198626
  0
LINE
  5
2B1
100
AcDbEntity
  8
INCISIONI
100
AcDbLine
 62
7
  6
CONTINUOUS
 10
1.050317
 20
-64.198626
 11
2.231399
 21
-64.198626
  0
LINE
  5
2B2
100
AcDbEntity
  8
INCISIONI
100
AcDbLine
 62
7
  6
CONTINUOUS
 10
2.514384
 20
-64.198626
 11
2.723843
 21
-64.198626
  0
LINE
  5
2B3
100
AcDbEntity
  8
INCISIONI
100
AcDbLine
 62
7
  6
CONTINUOUS
 10
3.541719
 20
-64.198626
 11
3.78453
 21
-64.198626
  0
LINE
  5
2B4
100
AcDbEntity
  8
INCISIONI
100
AcDbLine
 62
7
  6
CONTINUOUS
 10
4.134344
 20
-64.198626
 11
4.7828057843
 21
-64.198626
  0
LINE
  5
2B5
100
AcDbEntity
  8
INCISIONI
100
AcDbLine
 62
7
  6
CONTINUOUS
 10
5.756579
 20
-64.198626
 11
5.988399
 21
-64.198626
  0
LINE
  5
2B6
100
AcDbEntity
  8
0
100
AcDbLine
 62
7
  6
CONTINUOUS
 10
-12.1160579778
 20
-64.0631297722
 11
-12.4359269778
 21
-64.0631297722
  0
LINE
  5
2B7
100
AcDbEntity
  8
INCISIONI
100
AcDbLine
 62
7
  6
CONTINUOUS
 10
4.7538776804
 20
-64.013675
 11
4.350499
 21
-64.013675
  0
LINE
  5
2B8
100
AcDbEntity
  8
INCISIONI
100
AcDbLine
 62
7
  6
CONTINUOUS
 10
2.231399
 20
-64.006979
 11
1.266472
 21
-64.006979
  0
LINE
  5
2B9
100
AcDbEntity
  8
INCISIONI
100
AcDbLine
 62
7
  6
CONTINUOUS
 10
5.988399
 20
-63.962384
 11
5.756579
 21
-63.962384
  0
LINE
  5
2BA
100
AcDbEntity
  8
INCISIONI
100
AcDbLine
 62
7
  6
CONTINUOUS
 10
-1.440958
 20
-63.962384
 11
-1.672651
 21
-63.962384
  0
LINE
  5
2BB
100
AcDbEntity
  8
RACCORDO
100
AcDbLine
 62
250
  6
CONTINUOUS
 10
-19.3624096219
 20
-63.8749158815
 11
-18.8707757132
 21
-63.8745367684
  0
LINE
  5
2BC
100
AcDbEntity
  8
RACCORDO
100
AcDbLine
 62
250
  6
CONTINUOUS
 10
20.1668162456
 20
-63.8749158815
 11
20.4668162456
 21
-63.8749158815
  0
LINE
  5
2BD
100
AcDbEntity
  8
RACCORDO
100
AcDbLine
 62
250
  6
CONTINUOUS
 10
-20.1668162456
 20
-63.8749158815
 11
-20.4668162456
 21
-63.874915877
  0
LINE
  5
2BE
100
AcDbEntity
  8
0
100
AcDbLine
 62
7
  6
CONTINUOUS
 10
-12.1160579778
 20
-63.7432607722
 11
-12.4359269778
 21
-63.7432607722
  0
LINE
  5
2BF
100
AcDbEntity
  8
INCISIONI
100
AcDbLine
 62
7
  6
CONTINUOUS
 10
-4.293165
 20
-63.732838
 11
-3.651396
 21
-63.732838
  0
LINE
  5
2C0
100
AcDbEntity
  8
INCISIONI
100
AcDbLine
 62
7
  6
CONTINUOUS
 10
-3.729469
 20
-63.541192
 11
-4.226335
 21
-63.541192
  0
LINE
  5
2C1
100
AcDbEntity
  8
INCISIONI
100
AcDbLine
 62
7
  6
CONTINUOUS
 10
-5.792857
 20
-63.523379
 11
-5.2892968847
 21
-63.523379
  0
LINE
  5
2C2
100
AcDbEntity
  8
INCISIONI
100
AcDbLine
 62
7
  6
CONTINUOUS
 10
-0.219829
 20
-63.523379
 11
0.2837311453
 21
-63.523379
  0
LINE
  5
2C3
100
AcDbEntity
  8
0
100
AcDbLine
 62
7
  6
CONTINUOUS
 10
-10.9984628446
 20
-63.521198
 11
-11.2477316044
 21
-63.521198
  0
LINE
  5
2C4
100
AcDbEntity
  8
0
100
AcDbLine
 62
7
  6
CONTINUOUS
 10
-12.1301832225
 20
-63.521198
 11
-12.349874674
 21
-63.521198
  0
LINE
  5
2C5
100
AcDbEntity
  8
INCISIONI
100
AcDbLine
 62
7
  6
CONTINUOUS
 10
1.266472
 20
-63.472214
 11
2.142335
 21
-63.472214
  0
LINE
  5
2C6
100
AcDbEntity
  8
INCISIONI
100
AcDbLine
 62
7
  6
CONTINUOUS
 10
0.2191776403
 20
-63.338428
 11
-0.219829
 21
-63.338428
  0
LINE
  5
2C7
100
AcDbEntity
  8
INCISIONI
100
AcDbLine
 62
7
  6
CONTINUOUS
 10
-5.3538503897
 20
-63.338428
 11
-5.792857
 21
-63.338428
  0
LINE
  5
2C8
100
AcDbEntity
  8
INCISIONI
100
AcDbLine
 62
7
  6
CONTINUOUS
 10
2.142335
 20
-63.280568
 11
1.266472
 21
-63.280568
  0
LINE
  5
2C9
100
AcDbEntity
  8
0
100
AcDbLine
 62
7
  6
CONTINUOUS
 10
-10.9223432879
 20
-63.2033094437
 11
-11.3238542879
 21
-63.2033094437
  0
LINE
  5
2CA
100
AcDbEntity
  8
0
100
AcDbLine
 62
7
  6
CONTINUOUS
 10
-7.560042891
 20
-63.0
 11
-7.8480708911
 21
-63.0
  0
LINE
  5
2CB
100
AcDbEntity
  8
0
100
AcDbLine
 62
7
  6
CONTINUOUS
 10
-8.56
 20
-63.0
 11
-8.848028
 21
-63.0
  0
LINE
  5
2CC
100
AcDbEntity
  8
0
100
AcDbLine
 62
7
  6
CONTINUOUS
 10
-9.0595104812
 20
-63.0
 11
-9.3475384812
 21
-63.0
  0
LINE
  5
2CD
100
AcDbEntity
  8
0
100
AcDbLine
 62
7
  6
CONTINUOUS
 10
-9.6016234899
 20
-63.0
 11
-9.8896514899
 21
-63.0
  0
LINE
  5
2CE
100
AcDbEntity
  8
0
100
AcDbLine
 62
7
  6
CONTINUOUS
 10
-10.1437394605
 20
-63.0
 11
-10.4317674605
 21
-63.0
  0
LINE
  5
2CF
100
AcDbEntity
  8
0
100
AcDbLine
 62
7
  6
CONTINUOUS
 10
-10.5690391263
 20
-63.0
 11
-10.8570671264
 21
-63.0
  0
LINE
  5
2D0
100
AcDbEntity
  8
0
100
AcDbLine
 62
7
  6
CONTINUOUS
 10
-11.3891296884
 20
-63.0
 11
-11.6771576885
 21
-63.0
  0
LINE
  5
2D1
100
AcDbEntity
  8
0
100
AcDbLine
 62
7
  6
CONTINUOUS
 10
-11.8421552225
 20
-63.0
 11
-12.1301832225
 21
-63.0
  0
LINE
  5
2D2
100
AcDbEntity
  8
0
100
AcDbLine
 62
7
  6
CONTINUOUS
 10
-12.6200382983
 20
-63.0
 11
-12.9080662983
 21
-63.0
  0
LINE
  5
2D3
100
AcDbEntity
  8
INCISIONI
100
AcDbLine
 62
7
  6
CONTINUOUS
 10
-3.196852
 20
-62.790272
 11
-2.655391
 21
-62.790272
  0
LINE
  5
2D4
100
AcDbEntity
  8
INCISIONI
100
AcDbLine
 62
7
  6
CONTINUOUS
 10
-2.439236
 20
-62.790272
 11
-1.897776
 21
-62.790272
  0
LINE
  5
2D5
100
AcDbEntity
  8
INCISIONI
100
AcDbLine
 62
7
  6
CONTINUOUS
 10
1.266472
 20
-62.790272
 11
2.21586
 21
-62.790272
  0
LINE
  5
2D6
100
AcDbEntity
  8
INCISIONI
100
AcDbLine
 62
7
  6
CONTINUOUS
 10
-5.792857
 20
-62.783576
 11
-5.3538530386
 21
-62.783576
  0
LINE
  5
2D7
100
AcDbEntity
  8
INCISIONI
100
AcDbLine
 62
7
  6
CONTINUOUS
 10
-0.219829
 20
-62.783576
 11
0.2191749914
 21
-62.783576
  0
LINE
  5
2D8
100
AcDbEntity
  8
INCISIONI
100
AcDbLine
 62
7
  6
CONTINUOUS
 10
4.350499
 20
-62.783576
 11
4.7538773402
 21
-62.783576
  0
LINE
  5
2D9
100
AcDbEntity
  8
INCISIONI
100
AcDbLine
 62
7
  6
CONTINUOUS
 10
4.7828113482
 20
-62.598626
 11
4.134344
 21
-62.598626
  0
LINE
  5
2DA
100
AcDbEntity
  8
INCISIONI
100
AcDbLine
 62
7
  6
CONTINUOUS
 10
3.78453
 20
-62.598626
 11
3.575071
 21
-62.598626
  0
LINE
  5
2DB
100
AcDbEntity
  8
INCISIONI
100
AcDbLine
 62
7
  6
CONTINUOUS
 10
2.770712
 20
-62.598626
 11
2.514384
 21
-62.598626
  0
LINE
  5
2DC
100
AcDbEntity
  8
INCISIONI
100
AcDbLine
 62
7
  6
CONTINUOUS
 10
2.21586
 20
-62.598626
 11
1.050317
 21
-62.598626
  0
LINE
  5
2DD
100
AcDbEntity
  8
INCISIONI
100
AcDbLine
 62
7
  6
CONTINUOUS
 10
0.2837350638
 20
-62.598626
 11
-0.435983
 21
-62.598626
  0
LINE
  5
2DE
100
AcDbEntity
  8
INCISIONI
100
AcDbLine
 62
7
  6
CONTINUOUS
 10
-1.897776
 20
-62.598626
 11
-3.196852
 21
-62.598626
  0
LINE
  5
2DF
100
AcDbEntity
  8
INCISIONI
100
AcDbLine
 62
7
  6
CONTINUOUS
 10
-3.836347
 20
-62.598626
 11
-4.081431
 21
-62.598626
  0
LINE
  5
2E0
100
AcDbEntity
  8
INCISIONI
100
AcDbLine
 62
7
  6
CONTINUOUS
 10
-5.2892929662
 20
-62.598626
 11
-6.009011
 21
-62.598626
  0
LINE
  5
2E1
100
AcDbEntity
  8
0
100
AcDbLine
 62
7
  6
CONTINUOUS
 10
-13.0
 20
-62.5
 11
-7.0
 21
-62.5
  0
LINE
  5
2E2
100
AcDbEntity
  8
0
100
AcDbLine
 62
7
  6
CONTINUOUS
 10
7.0
 20
-62.5
 11
13.0
 21
-62.5
  0
LINE
  5
2E3
100
AcDbEntity
  8
0
100
AcDbLine
 62
7
  6
CONTINUOUS
 10
15.25
 20
-61.9918713663
 11
-15.25
 21
-61.9918713663
  0
LINE
  5
2E4
100
AcDbEntity
  8
RACCORDO
100
AcDbLine
 62
250
  6
CONTINUOUS
 10
19.3624096219
 20
-63.8749158815
 11
18.8707759294
 21
-63.8745610216
  0
LINE
  5
2E5
100
AcDbEntity
  8
RACCORDO
100
AcDbLine
 62
250
  6
CONTINUOUS
 10
4.8
 20
-65.4974045895
 11
4.0
 21
-65.4948091789
  0
LWPOLYLINE
  5
2E6
100
AcDbEntity
  8
INCISIONI
100
AcDbPolyline
 62
7
  6
CONTINUOUS
 90
13
 70
0
 10
-5.3538530386
 20
-62.783576
 10
-5.3058546347
 20
-62.7844645951
 10
-5.2610061365
 20
-62.7897566785
 10
-5.2193075438
 20
-62.7994522502
 10
-5.1801122373
 20
-62.8136600115
 10
-5.1440668364
 20
-62.8322712611
 10
-5.1131111995
 20
-62.8549598952
 10
-5.0878997177
 20
-62.8821750792
 10
-5.067778
 20
-62.9134676477
 10
-5.0527227316
 20
-62.9471639998
 10
-5.042726141
 20
-62.9827062684
 10
-5.0377959998
 20
-63.0206523205
 10
-5.0379323079
 20
-63.0610021562
  0
LWPOLYLINE
  5
2E7
100
AcDbEntity
  8
INCISIONI
100
AcDbPolyline
 62
7
  6
CONTINUOUS
 90
13
 70
0
 10
0.2191749914
 20
-62.783576
 10
0.2671733953
 20
-62.7844645951
 10
0.3120218935
 20
-62.7897566785
 10
0.3537204862
 20
-62.7994522502
 10
0.3929157927
 20
-62.8136600115
 10
0.4289611936
 20
-62.8322712611
 10
0.4599168305
 20
-62.8549598952
 10
0.4851283123
 20
-62.8821750792
 10
0.50525003
 20
-62.9134676477
 10
0.5203052984
 20
-62.9471639998
 10
0.530301889
 20
-62.9827062684
 10
0.5352320302
 20
-63.0206523205
 10
0.5350957221
 20
-63.0610021562
  0
LWPOLYLINE
  5
2E8
100
AcDbEntity
  8
INCISIONI
100
AcDbPolyline
 62
7
  6
CONTINUOUS
 90
16
 70
0
 10
4.7538773402
 20
-62.783576
 10
4.8123909862
 20
-62.7866963966
 10
4.8678081831
 20
-62.7956909207
 10
4.920128931
 20
-62.810559572
 10
4.9697022324
 20
-62.8313645692
 10
5.0161790848
 20
-62.8580436937
 10
5.0585124805
 20
-62.8904102903
 10
5.0966400483
 20
-62.9286887005
 10
5.1306241595
 20
-62.9726545828
 10
5.1596049203
 20
-63.0214482577
 10
5.1830773715
 20
-63.0753479455
 10
5.2015464723
 20
-63.1340754258
 10
5.2156672072
 20
-63.1959363583
 10
5.2256579045
 20
-63.2603659627
 10
5.2313002358
 20
-63.3279290191
 10
5.2325942013
 20
-63.3986255277
  0
LWPOLYLINE
  5
2E9
100
AcDbEntity
  8
RACCORDO
100
AcDbPolyline
 62
7
  6
CONTINUOUS
 90
10
 70
0
 10
16.457454531
 20
-67.9948548704
 10
16.458034392
 20
-67.9949204458
 10
16.4585532494
 20
-67.9950144707
 10
16.459011103
 20
-67.9951367362
 10
16.4594075316
 20
-67.9952870073
 10
16.4597429564
 20
-67.9954650868
 10
16.460018642
 20
-67.9956708552
 10
16.4602350097
 20
-67.9959041678
 10
16.4603916382
 20
-67.9961648144
 10
16.4604885275
 20
-67.9964526103
  0
LWPOLYLINE
  5
2EA
100
AcDbEntity
  8
RACCORDO
100
AcDbPolyline
 62
250
  6
CONTINUOUS
 90
11
 70
0
 10
4.0908772219
 20
-68.4089454839
 10
4.0658494854
 20
-68.4006103532
 10
4.0329846158
 20
-68.3918239127
 10
3.9921560175
 20
-68.3824852796
 10
3.9431033358
 20
-68.372209582
 10
3.8859666667
 20
-68.3611088125
 10
3.8213660286
 20
-68.3497788889
 10
3.7493770232
 20
-68.337917114
 10
3.6702952325
 20
-68.3253901934
 10
3.5853160686
 20
-68.3129974373
 10
3.399403068
 20
-68.2874520333
  0
LINE
  5
2EB
100
AcDbEntity
  8
RACCORDO
100
AcDbLine
 62
250
  6
CONTINUOUS
 10
-5.5499648497
 20
-70.5121708671
 11
-5.3221611039
 21
-70.6226383373
  0
LINE
  5
2EC
100
AcDbEntity
  8
RACCORDO
100
AcDbLine
 62
7
  6
CONTINUOUS
 10
-10.6446518088
 20
-67.9276961318
 11
-10.5102933954
 21
-67.9948548704
  0
LINE
  5
2ED
100
AcDbEntity
  8
RACCORDO
100
AcDbLine
 62
250
  6
CONTINUOUS
 10
-4.1856088595
 20
-68.4281307093
 11
-4.4487217425
 21
-68.2948091789
  0
LINE
  5
2EE
100
AcDbEntity
  8
RACCORDO
100
AcDbLine
 62
7
  6
CONTINUOUS
 10
9.3501335989
 20
67.92508963
 11
9.4897066046
 21
67.9948548704
  0
LINE
  5
2EF
100
AcDbEntity
  8
0
100
AcDbLine
 62
7
  6
CONTINUOUS
 10
-2.625976
 20
62.721445
 11
-3.569449
 21
62.311826
  0
LINE
  5
2F0
100
AcDbEntity
  8
0
100
AcDbLine
 62
7
  6
CONTINUOUS
 10
-3.781455
 20
61.506433
 11
-2.834726
 21
61.917466
  0
LINE
  5
2F1
100
AcDbEntity
  8
0
100
AcDbLine
 62
7
  6
CONTINUOUS
 10
-0.047438
 20
62.721445
 11
-0.967296
 21
62.322079
  0
LINE
  5
2F2
100
AcDbEntity
  8
0
100
AcDbLine
 62
7
  6
CONTINUOUS
 10
-2.976292
 20
61.37224
 11
-3.937899
 21
60.954748
  0
LINE
  5
2F3
100
AcDbEntity
  8
RACCORDO
100
AcDbLine
 62
7
  6
CONTINUOUS
 10
-16.878033543
 20
54.8661815732
 11
-16.8965699136
 21
54.8585094503
  0
LINE
  5
2F4
100
AcDbEntity
  8
RACCORDO
100
AcDbLine
 62
7
  6
CONTINUOUS
 10
-16.8594418566
 20
54.8737214615
 11
-16.878033543
 21
54.8661815732
  0
LINE
  5
2F5
100
AcDbEntity
  8
RACCORDO
100
AcDbLine
 62
7
  6
CONTINUOUS
 10
-16.840795202
 20
54.8811317874
 11
-16.8594418566
 21
54.8737214615
  0
LWPOLYLINE
  5
2F6
100
AcDbEntity
  8
RACCORDO
100
AcDbPolyline
 62
7
  6
CONTINUOUS
 90
3
 70
0
 10
-16.8127246754
 20
54.8920237204
 10
-16.8220949699
 20
54.8884232399
 10
-16.840795202
 20
54.8811317874
  0
LWPOLYLINE
  5
2F7
100
AcDbEntity
  8
DRAFT
100
AcDbPolyline
 62
7
  6
CONTINUOUS
 90
10
 70
0
 10
9.5
 20
-55.2720799058
 10
9.3990637131
 20
-55.2970977636
 10
9.2995536334
 20
-55.3266185228
 10
9.2014697608
 20
-55.3606558433
 10
9.1045796363
 20
-55.3993138225
 10
9.0091157189
 20
-55.4425201461
 10
8.9157753858
 20
-55.4900245307
 10
8.8247910961
 20
-55.5417543285
 10
8.7359303907
 20
-55.5978154931
 10
8.6491932696
 20
-55.6582247495
  0
LWPOLYLINE
  5
2F8
100
AcDbEntity
  8
ASSI
100
AcDbPolyline
 62
7
  6
CONTINUOUS
 90
16
 70
0
 10
-0.0
 20
-59.1487814009
 10
0.1780807775
 20
-59.1389373675
 10
0.3505345622
 20
-59.1120383323
 10
0.5173613544
 20
-59.0680842953
 10
0.680253215
 20
-59.0062262062
 10
0.8375180829
 20
-58.9273131153
 10
0.9840797747
 20
-58.8338921733
 10
1.1195890566
 20
-58.7254900038
 10
1.2443951624
 20
-58.6025799831
 10
1.3544696102
 20
-58.4691293917
 10
1.4493317208
 20
-58.3247943013
 10
1.5294621733
 20
-58.1699186401
 10
1.5922745231
 20
-58.0095014729
 10
1.637203698
 20
-57.8433619859
 10
1.6648147702
 20
-57.671680993
 10
1.6742165117
 20
-57.5
  0
LWPOLYLINE
  5
2F9
100
AcDbEntity
  8
ASSI
100
AcDbPolyline
 62
7
  6
CONTINUOUS
 90
16
 70
0
 10
-0.0
 20
-55.8512185991
 10
-0.1780807775
 20
-55.8610626325
 10
-0.3505345622
 20
-55.8879616677
 10
-0.5173613544
 20
-55.9319157047
 10
-0.680253215
 20
-55.9937737938
 10
-0.8375180829
 20
-56.0726868847
 10
-0.9840797747
 20
-56.1661078267
 10
-1.1195890566
 20
-56.2745099962
 10
-1.2443951624
 20
-56.3974200169
 10
-1.3544696102
 20
-56.5308706083
 10
-1.4493317208
 20
-56.6752056987
 10
-1.5294621733
 20
-56.8300813599
 10
-1.5922745231
 20
-56.9904985271
 10
-1.637203698
 20
-57.1566380141
 10
-1.6648147702
 20
-57.328319007
 10
-1.6742165117
 20
-57.5
  0
LWPOLYLINE
  5
2FA
100
AcDbEntity
  8
ASSI
100
AcDbPolyline
 62
7
  6
CONTINUOUS
 90
18
 70
0
 10
0.121092756
 20
-59.4594819768
 10
-0.083877095
 20
-59.4607766884
 10
-0.2840488607
 20
-59.4433166958
 10
-0.4794225411
 20
-59.4071019992
 10
-0.6717680213
 20
-59.3514453009
 10
-0.8593154162
 20
-59.2770338986
 10
-1.0367550703
 20
-59.1859296851
 10
-1.2038828126
 20
-59.0776066959
 10
-1.360902814
 20
-58.9525908956
 10
-1.5031179313
 20
-58.8145220703
 10
-1.6301040074
 20
-58.6628820247
 10
-1.7422851994
 20
-58.4981889542
 10
-1.8362368352
 20
-58.3256372306
 10
-1.9112863494
 20
-58.145159401
 10
-1.9681063075
 20
-57.9568229184
 10
-2.0052897339
 20
-57.7660245132
 10
-2.0223028631
 20
-57.5726779308
 10
-2.0240248889
 20
-57.4994349778
  0
LINE
  5
2FB
100
AcDbEntity
  8
ASSI
100
AcDbLine
 62
7
  6
CONTINUOUS
 10
-0.453932
 20
-58.9260940197
 11
0.458087
 21
-58.9260940197
  0
LINE
  5
2FC
100
AcDbEntity
  8
ASSI
100
AcDbLine
 62
7
  6
CONTINUOUS
 10
-0.453932
 20
-58.8913643842
 11
0.458087
 21
-58.8913643842
  0
LINE
  5
2FD
100
AcDbEntity
  8
ASSI
100
AcDbLine
 62
7
  6
CONTINUOUS
 10
0.458087
 20
-58.6143592297
 11
0.173343
 21
-58.6143592297
  0
LINE
  5
2FE
100
AcDbEntity
  8
ASSI
100
AcDbLine
 62
7
  6
CONTINUOUS
 10
-0.169078
 20
-58.6143592297
 11
-0.453932
 21
-58.6143592297
  0
LINE
  5
2FF
100
AcDbEntity
  8
DRAFT
100
AcDbLine
 62
7
  6
CONTINUOUS
 10
-12.2939750335
 20
-58.0
 11
-12.2167475413
 21
-58.0
  0
LINE
  5
300
100
AcDbEntity
  8
DRAFT
100
AcDbLine
 62
7
  6
CONTINUOUS
 10
-7.7832524587
 20
-58.0
 11
-7.7060249665
 21
-58.0
  0
LINE
  5
301
100
AcDbEntity
  8
DRAFT
100
AcDbLine
 62
7
  6
CONTINUOUS
 10
7.7060249665
 20
-58.0
 11
7.7832524587
 21
-58.0
  0
LINE
  5
302
100
AcDbEntity
  8
DRAFT
100
AcDbLine
 62
7
  6
CONTINUOUS
 10
12.2167475413
 20
-58.0
 11
12.2939750335
 21
-58.0
  0
LINE
  5
303
100
AcDbEntity
  8
DRAFT
100
AcDbLine
 62
7
  6
CONTINUOUS
 10
12.2939750335
 20
-57.0
 11
12.2151700744
 21
-57.0
  0
LINE
  5
304
100
AcDbEntity
  8
DRAFT
100
AcDbLine
 62
7
  6
CONTINUOUS
 10
7.7848299256
 20
-57.0
 11
7.7060249665
 21
-57.0
  0
LINE
  5
305
100
AcDbEntity
  8
DRAFT
100
AcDbLine
 62
7
  6
CONTINUOUS
 10
-7.7060249665
 20
-57.0
 11
-7.7848299256
 21
-57.0
  0
LINE
  5
306
100
AcDbEntity
  8
DRAFT
100
AcDbLine
 62
7
  6
CONTINUOUS
 10
-12.2151700744
 20
-57.0
 11
-12.2939750335
 21
-57.0
  0
LINE
  5
307
100
AcDbEntity
  8
ASSI
100
AcDbLine
 62
7
  6
CONTINUOUS
 10
-0.443435
 20
-56.3996356525
 11
-0.169078
 21
-56.3996356525
  0
LINE
  5
308
100
AcDbEntity
  8
ASSI
100
AcDbLine
 62
7
  6
CONTINUOUS
 10
0.173343
 20
-56.3996356525
 11
0.44759
 21
-56.3996356525
  0
LINE
  5
309
100
AcDbEntity
  8
ASSI
100
AcDbLine
 62
7
  6
CONTINUOUS
 10
-0.443435
 20
-56.364906017
 11
-0.169078
 21
-56.364906017
  0
LINE
  5
30A
100
AcDbEntity
  8
ASSI
100
AcDbLine
 62
7
  6
CONTINUOUS
 10
0.173343
 20
-56.364906017
 11
0.44759
 21
-56.364906017
  0
LINE
  5
30B
100
AcDbEntity
  8
ASSI
100
AcDbLine
 62
7
  6
CONTINUOUS
 10
0.44759
 20
-56.0861861743
 11
-0.443435
 21
-56.0861861743
  0
LINE
  5
30C
100
AcDbEntity
  8
DRAFT
100
AcDbLine
 62
7
  6
CONTINUOUS
 10
-11.4584748065
 20
-55.6582247495
 11
-11.3508067304
 21
-55.6582247495
  0
LINE
  5
30D
100
AcDbEntity
  8
DRAFT
100
AcDbLine
 62
7
  6
CONTINUOUS
 10
-8.6491932696
 20
-55.6582247495
 11
-8.5415251935
 21
-55.6582247495
  0
LINE
  5
30E
100
AcDbEntity
  8
DRAFT
100
AcDbLine
 62
7
  6
CONTINUOUS
 10
8.5415251935
 20
-55.6582247495
 11
8.6491932696
 21
-55.6582247495
  0
LINE
  5
30F
100
AcDbEntity
  8
DRAFT
100
AcDbLine
 62
7
  6
CONTINUOUS
 10
11.3508067304
 20
-55.6582247495
 11
11.4584748065
 21
-55.6582247495
  0
LWPOLYLINE
  5
310
100
AcDbEntity
  8
ASSI
100
AcDbPolyline
 62
7
  6
CONTINUOUS
 90
8
 70
0
 10
-0.0
 20
-55.8164889636
 10
0.1985459141
 20
-55.8288697252
 10
0.3894178378
 20
-55.862014287
 10
0.5726157713
 20
-55.9159226487
 10
0.750389179
 20
-55.991873809
 10
0.9204885964
 20
-56.0885887692
 10
1.0761656296
 20
-56.2022305344
 10
1.2168404279
 20
-56.3334796453
  0
LWPOLYLINE
  5
311
100
AcDbEntity
  8
ASSI
100
AcDbPolyline
 62
7
  6
CONTINUOUS
 90
6
 70
0
 10
0.1210927554
 20
-59.424752341
 10
0.2506747606
 20
-59.4422824108
 10
0.3772971392
 20
-59.4683317917
 10
0.5009598913
 20
-59.5029004839
 10
0.6222834333
 20
-59.5462886104
 10
0.7406473487
 20
-59.598196048
  0
LINE
  5
312
100
AcDbEntity
  8
RACCORDO
100
AcDbLine
 62
7
  6
CONTINUOUS
 10
-16.8127246754
 20
-54.8920237204
 11
-16.8314518121
 21
-54.8847925955
  0
LINE
  5
313
100
AcDbEntity
  8
RACCORDO
100
AcDbLine
 62
7
  6
CONTINUOUS
 10
-16.8314518121
 20
-54.8847925955
 11
-16.8501252555
 21
-54.8774417063
  0
LINE
  5
314
100
AcDbEntity
  8
RACCORDO
100
AcDbLine
 62
7
  6
CONTINUOUS
 10
-16.8501252555
 20
-54.8774417063
 11
-16.8687446577
 21
-54.8699683807
  0
LWPOLYLINE
  5
315
100
AcDbEntity
  8
RACCORDO
100
AcDbPolyline
 62
7
  6
CONTINUOUS
 90
3
 70
0
 10
-16.8687446577
 20
-54.8699683807
 10
-16.8873086283
 20
-54.8623619297
 10
-16.8965699136
 20
-54.8585094503
  0
LINE
  5
316
100
AcDbEntity
  8
RACCORDO
100
AcDbLine
 62
7
  6
CONTINUOUS
 10
9.3501336181
 20
-67.9250896396
 11
9.4897066046
 21
-67.9948548704
  0
LINE
  5
317
100
AcDbEntity
  8
RACCORDO
100
AcDbLine
 62
7
  6
CONTINUOUS
 10
-10.333381462
 20
68.2617736769
 11
-10.306862245
 21
68.2948091789
  0
LINE
  5
318
100
AcDbEntity
  8
0
100
AcDbLine
 62
7
  6
CONTINUOUS
 10
0.93164
 20
60.049265
 11
0.470869
 21
59.849216
  0
LINE
  5
319
100
AcDbEntity
  8
0
100
AcDbLine
 62
7
  6
CONTINUOUS
 10
2.241707
 20
60.259892
 11
3.1076443671
 21
60.6358475935
  0
LINE
  5
31A
100
AcDbEntity
  8
0
100
AcDbLine
 62
7
  6
CONTINUOUS
 10
0.3560736002
 20
59.4412252606
 11
1.785395
 21
60.06178
  0
LINE
  5
31B
100
AcDbEntity
  8
0
100
AcDbLine
 62
7
  6
CONTINUOUS
 10
1.651139
 20
59.544709
 11
0.710596808
 21
59.1363629166
  0
LINE
  5
31C
100
AcDbEntity
  8
0
100
AcDbLine
 62
7
  6
CONTINUOUS
 10
3.511277
 20
60.352307
 11
2.107451
 21
59.742821
  0
LINE
  5
31D
100
AcDbEntity
  8
0
100
AcDbLine
 62
7
  6
CONTINUOUS
 10
2.966078
 20
59.7955
 11
3.417604
 21
59.991534
  0
LWPOLYLINE
  5
31E
100
AcDbEntity
  8
DRAFT
100
AcDbPolyline
 62
7
  6
CONTINUOUS
 90
10
 70
0
 10
-10.5
 20
-55.2720799058
 10
-10.6009362869
 20
-55.2970977636
 10
-10.7004463666
 20
-55.3266185228
 10
-10.7985302392
 20
-55.3606558433
 10
-10.8954203637
 20
-55.3993138225
 10
-10.9908842811
 20
-55.4425201461
 10
-11.0842246142
 20
-55.4900245307
 10
-11.1752089039
 20
-55.5417543285
 10
-11.2640696093
 20
-55.5978154931
 10
-11.3508067304
 20
-55.6582247495
  0
LWPOLYLINE
  5
31F
100
AcDbEntity
  8
0
100
AcDbPolyline
 62
7
  6
CONTINUOUS
 90
4
 70
0
 10
-3.8653940381
 20
-53.7375598698
 10
-3.7914414117
 20
-53.726741093
 10
-3.7215005032
 20
-53.7086910824
 10
-3.6553722739
 20
-53.6833129523
  0
LWPOLYLINE
  5
320
100
AcDbEntity
  8
0
100
AcDbPolyline
 62
7
  6
CONTINUOUS
 90
16
 70
0
 10
-3.9433583825
 20
-53.7758770483
 10
-3.8650305303
 20
-53.7722581157
 10
-3.7907499541
 20
-53.7613349653
 10
-3.7205166538
 20
-53.743107597
 10
-3.6541192777
 20
-53.7174702497
 10
-3.5917691775
 20
-53.6845286845
 10
-3.5341004084
 20
-53.6446001853
 10
-3.4808783172
 20
-53.597616984
 10
-3.432337557
 20
-53.5436468487
 10
-3.3898161431
 20
-53.4832103665
 10
-3.3534879667
 20
-53.4159565983
 10
-3.3231791366
 20
-53.3422364832
 10
-3.2997059931
 20
-53.2636234255
 10
-3.2833406498
 20
-53.180641893
 10
-3.2738109932
 20
-53.0927674179
 10
-3.2709438427
 20
-53.0187885287
  0
LINE
  5
321
100
AcDbEntity
  8
0
100
AcDbLine
 62
7
  6
CONTINUOUS
 10
-3.9433583825
 20
-53.7411474128
 11
-3.8653940381
 21
-53.7375598698
  0
LINE
  5
322
100
AcDbEntity
  8
0
100
AcDbLine
 62
7
  6
CONTINUOUS
 10
-7.95236
 20
-53.7758770483
 11
-7.742898
 21
-53.7758770483
  0
LINE
  5
323
100
AcDbEntity
  8
0
100
AcDbLine
 62
7
  6
CONTINUOUS
 10
-7.292721
 20
-53.7758770483
 11
-7.078784
 21
-53.7758770483
  0
LINE
  5
324
100
AcDbEntity
  8
0
100
AcDbLine
 62
7
  6
CONTINUOUS
 10
-6.628693
 20
-53.7758770483
 11
-6.419147
 21
-53.7758770483
  0
LINE
  5
325
100
AcDbEntity
  8
0
100
AcDbLine
 62
7
  6
CONTINUOUS
 10
-6.227496
 20
-53.7758770483
 11
-6.004673
 21
-53.7758770483
  0
LINE
  5
326
100
AcDbEntity
  8
0
100
AcDbLine
 62
7
  6
CONTINUOUS
 10
-5.037557
 20
-53.7758770483
 11
-4.801316
 21
-53.7758770483
  0
LINE
  5
327
100
AcDbEntity
  8
0
100
AcDbLine
 62
7
  6
CONTINUOUS
 10
-4.59186
 20
-53.7758770483
 11
-3.9433583825
 21
-53.7758770483
  0
LINE
  5
328
100
AcDbEntity
  8
0
100
AcDbLine
 62
7
  6
CONTINUOUS
 10
-2.971738
 20
-53.7758770483
 11
-1.790598
 21
-53.7758770483
  0
LINE
  5
329
100
AcDbEntity
  8
0
100
AcDbLine
 62
7
  6
CONTINUOUS
 10
-0.854614
 20
-53.7758770483
 11
-0.638469
 21
-53.7758770483
  0
LINE
  5
32A
100
AcDbEntity
  8
0
100
AcDbLine
 62
7
  6
CONTINUOUS
 10
-0.268599
 20
-53.7758770483
 11
-0.05904
 21
-53.7758770483
  0
LINE
  5
32B
100
AcDbEntity
  8
0
100
AcDbLine
 62
7
  6
CONTINUOUS
 10
0.758817
 20
-53.7758770483
 11
1.001709
 21
-53.7758770483
  0
LINE
  5
32C
100
AcDbEntity
  8
0
100
AcDbLine
 62
7
  6
CONTINUOUS
 10
1.993334
 20
-53.7758770483
 11
2.209544
 21
-53.7758770483
  0
LINE
  5
32D
100
AcDbEntity
  8
0
100
AcDbLine
 62
7
  6
CONTINUOUS
 10
2.982837
 20
-53.7758770483
 11
3.198969
 21
-53.7758770483
  0
LINE
  5
32E
100
AcDbEntity
  8
0
100
AcDbLine
 62
7
  6
CONTINUOUS
 10
3.802893
 20
-53.7758770483
 11
4.025703
 21
-53.7758770483
  0
LINE
  5
32F
100
AcDbEntity
  8
0
100
AcDbLine
 62
7
  6
CONTINUOUS
 10
4.99291
 20
-53.7758770483
 11
5.22919
 21
-53.7758770483
  0
LINE
  5
330
100
AcDbEntity
  8
0
100
AcDbLine
 62
7
  6
CONTINUOUS
 10
5.427427
 20
-53.7758770483
 11
6.454843
 21
-53.7758770483
  0
LINE
  5
331
100
AcDbEntity
  8
0
100
AcDbLine
 62
7
  6
CONTINUOUS
 10
7.132239
 20
-53.7758770483
 11
7.348333
 21
-53.7758770483
  0
LINE
  5
332
100
AcDbEntity
  8
0
100
AcDbLine
 62
7
  6
CONTINUOUS
 10
-7.95236
 20
-53.7411474128
 11
-7.742898
 21
-53.7411474128
  0
LINE
  5
333
100
AcDbEntity
  8
0
100
AcDbLine
 62
7
  6
CONTINUOUS
 10
-7.292721
 20
-53.7411474128
 11
-7.078784
 21
-53.7411474128
  0
LINE
  5
334
100
AcDbEntity
  8
0
100
AcDbLine
 62
7
  6
CONTINUOUS
 10
-6.628693
 20
-53.7411474128
 11
-6.419147
 21
-53.7411474128
  0
LINE
  5
335
100
AcDbEntity
  8
0
100
AcDbLine
 62
7
  6
CONTINUOUS
 10
-6.227496
 20
-53.7411474128
 11
-6.004673
 21
-53.7411474128
  0
LINE
  5
336
100
AcDbEntity
  8
0
100
AcDbLine
 62
7
  6
CONTINUOUS
 10
-5.037557
 20
-53.7411474128
 11
-4.801316
 21
-53.7411474128
  0
LINE
  5
337
100
AcDbEntity
  8
0
100
AcDbLine
 62
7
  6
CONTINUOUS
 10
-4.59186
 20
-53.7411474128
 11
-3.9433583825
 21
-53.7411474128
  0
LINE
  5
338
100
AcDbEntity
  8
0
100
AcDbLine
 62
7
  6
CONTINUOUS
 10
-2.971738
 20
-53.7411474128
 11
-1.790598
 21
-53.7411474128
  0
LINE
  5
339
100
AcDbEntity
  8
0
100
AcDbLine
 62
7
  6
CONTINUOUS
 10
-0.854614
 20
-53.7411474128
 11
-0.638469
 21
-53.7411474128
  0
LINE
  5
33A
100
AcDbEntity
  8
0
100
AcDbLine
 62
7
  6
CONTINUOUS
 10
-0.268599
 20
-53.7411474128
 11
-0.05904
 21
-53.7411474128
  0
LINE
  5
33B
100
AcDbEntity
  8
0
100
AcDbLine
 62
7
  6
CONTINUOUS
 10
0.758817
 20
-53.7411474128
 11
1.001709
 21
-53.7411474128
  0
LINE
  5
33C
100
AcDbEntity
  8
0
100
AcDbLine
 62
7
  6
CONTINUOUS
 10
1.993334
 20
-53.7411474128
 11
2.209544
 21
-53.7411474128
  0
LINE
  5
33D
100
AcDbEntity
  8
0
100
AcDbLine
 62
7
  6
CONTINUOUS
 10
2.982837
 20
-53.7411474128
 11
3.198969
 21
-53.7411474128
  0
LINE
  5
33E
100
AcDbEntity
  8
0
100
AcDbLine
 62
7
  6
CONTINUOUS
 10
3.802893
 20
-53.7411474128
 11
4.025703
 21
-53.7411474128
  0
LINE
  5
33F
100
AcDbEntity
  8
0
100
AcDbLine
 62
7
  6
CONTINUOUS
 10
4.99291
 20
-53.7411474128
 11
5.22919
 21
-53.7411474128
  0
LINE
  5
340
100
AcDbEntity
  8
0
100
AcDbLine
 62
7
  6
CONTINUOUS
 10
5.427427
 20
-53.7411474128
 11
6.454843
 21
-53.7411474128
  0
LINE
  5
341
100
AcDbEntity
  8
0
100
AcDbLine
 62
7
  6
CONTINUOUS
 10
7.132239
 20
-53.7411474128
 11
7.348333
 21
-53.7411474128
  0
LINE
  5
342
100
AcDbEntity
  8
0
100
AcDbLine
 62
7
  6
CONTINUOUS
 10
-3.9488592827
 20
-53.5965437369
 11
-4.375637
 21
-53.5965437369
  0
LINE
  5
343
100
AcDbEntity
  8
0
100
AcDbLine
 62
7
  6
CONTINUOUS
 10
6.454843
 20
-53.5900176411
 11
5.64365
 21
-53.5900176411
  0
LINE
  5
344
100
AcDbEntity
  8
0
100
AcDbLine
 62
7
  6
CONTINUOUS
 10
-1.790598
 20
-53.5900176411
 11
-2.755528
 21
-53.5900176411
  0
LINE
  5
345
100
AcDbEntity
  8
0
100
AcDbLine
 62
7
  6
CONTINUOUS
 10
-5.837518
 20
-53.3242176819
 11
-5.195758
 21
-53.3242176819
  0
LINE
  5
346
100
AcDbEntity
  8
0
100
AcDbLine
 62
7
  6
CONTINUOUS
 10
4.192871
 20
-53.3242176819
 11
4.834696
 21
-53.3242176819
  0
LINE
  5
347
100
AcDbEntity
  8
0
100
AcDbLine
 62
7
  6
CONTINUOUS
 10
-5.837518
 20
-53.2894880463
 11
-5.195758
 21
-53.2894880463
  0
LINE
  5
348
100
AcDbEntity
  8
0
100
AcDbLine
 62
7
  6
CONTINUOUS
 10
4.192871
 20
-53.2894880463
 11
4.834696
 21
-53.2894880463
  0
LINE
  5
349
100
AcDbEntity
  8
0
100
AcDbLine
 62
7
  6
CONTINUOUS
 10
4.756682
 20
-53.1383592445
 11
4.259731
 21
-53.1383592445
  0
LINE
  5
34A
100
AcDbEntity
  8
0
100
AcDbLine
 62
7
  6
CONTINUOUS
 10
-5.273694
 20
-53.1383592445
 11
-5.770645
 21
-53.1383592445
  0
LINE
  5
34B
100
AcDbEntity
  8
0
100
AcDbLine
 62
7
  6
CONTINUOUS
 10
-2.755528
 20
-53.0713438343
 11
-1.879753
 21
-53.0713438343
  0
LINE
  5
34C
100
AcDbEntity
  8
0
100
AcDbLine
 62
7
  6
CONTINUOUS
 10
-2.755528
 20
-53.0366141988
 11
-1.879753
 21
-53.0366141988
  0
LINE
  5
34D
100
AcDbEntity
  8
DRAFT
100
AcDbLine
 62
7
  6
CONTINUOUS
 10
16.8127246754
 20
-52.9409741574
 11
15.25
 21
-52.9409741574
  0
LINE
  5
34E
100
AcDbEntity
  8
DRAFT
100
AcDbLine
 62
7
  6
CONTINUOUS
 10
-15.25
 20
-52.9409741574
 11
-16.8127246754
 21
-52.9409741574
  0
LINE
  5
34F
100
AcDbEntity
  8
0
100
AcDbLine
 62
7
  6
CONTINUOUS
 10
-1.879753
 20
-52.8854853969
 11
-2.755528
 21
-52.8854853969
  0
LINE
  5
350
100
AcDbEntity
  8
0
100
AcDbLine
 62
7
  6
CONTINUOUS
 10
-2.755528
 20
-52.4099823589
 11
-1.806216
 21
-52.4099823589
  0
LINE
  5
351
100
AcDbEntity
  8
0
100
AcDbLine
 62
7
  6
CONTINUOUS
 10
2.441308
 20
-52.4099823589
 11
2.982837
 21
-52.4099823589
  0
LINE
  5
352
100
AcDbEntity
  8
0
100
AcDbLine
 62
7
  6
CONTINUOUS
 10
3.198969
 20
-52.4099823589
 11
3.740498
 21
-52.4099823589
  0
LINE
  5
353
100
AcDbEntity
  8
0
100
AcDbLine
 62
7
  6
CONTINUOUS
 10
-4.375637
 20
-52.4034562631
 11
-3.948859267
 21
-52.4034562631
  0
LINE
  5
354
100
AcDbEntity
  8
0
100
AcDbLine
 62
7
  6
CONTINUOUS
 10
-2.755528
 20
-52.3752527234
 11
-1.806216
 21
-52.3752527234
  0
LINE
  5
355
100
AcDbEntity
  8
0
100
AcDbLine
 62
7
  6
CONTINUOUS
 10
2.441308
 20
-52.3752527234
 11
2.982837
 21
-52.3752527234
  0
LINE
  5
356
100
AcDbEntity
  8
0
100
AcDbLine
 62
7
  6
CONTINUOUS
 10
3.198969
 20
-52.3752527234
 11
3.740498
 21
-52.3752527234
  0
LINE
  5
357
100
AcDbEntity
  8
0
100
AcDbLine
 62
7
  6
CONTINUOUS
 10
-4.375637
 20
-52.3687266276
 11
-3.9488592829
 21
-52.3687266276
  0
LINE
  5
358
100
AcDbEntity
  8
0
100
AcDbLine
 62
7
  6
CONTINUOUS
 10
7.95236
 20
-52.2241229517
 11
7.698224
 21
-52.2241229517
  0
LINE
  5
359
100
AcDbEntity
  8
0
100
AcDbLine
 62
7
  6
CONTINUOUS
 10
6.780148
 20
-52.2241229517
 11
6.528341
 21
-52.2241229517
  0
LINE
  5
35A
100
AcDbEntity
  8
0
100
AcDbLine
 62
7
  6
CONTINUOUS
 10
5.64365
 20
-52.2241229517
 11
5.427427
 21
-52.2241229517
  0
LINE
  5
35B
100
AcDbEntity
  8
0
100
AcDbLine
 62
7
  6
CONTINUOUS
 10
4.649709
 20
-52.2241229517
 11
4.404617
 21
-52.2241229517
  0
LINE
  5
35C
100
AcDbEntity
  8
0
100
AcDbLine
 62
7
  6
CONTINUOUS
 10
3.740498
 20
-52.2241229517
 11
2.441308
 21
-52.2241229517
  0
LINE
  5
35D
100
AcDbEntity
  8
0
100
AcDbLine
 62
7
  6
CONTINUOUS
 10
2.209544
 20
-52.2241229517
 11
1.993334
 21
-52.2241229517
  0
LINE
  5
35E
100
AcDbEntity
  8
0
100
AcDbLine
 62
7
  6
CONTINUOUS
 10
1.001709
 20
-52.2241229517
 11
0.792253
 21
-52.2241229517
  0
LINE
  5
35F
100
AcDbEntity
  8
0
100
AcDbLine
 62
7
  6
CONTINUOUS
 10
-0.012275
 20
-52.2241229517
 11
-0.268599
 21
-52.2241229517
  0
LINE
  5
360
100
AcDbEntity
  8
0
100
AcDbLine
 62
7
  6
CONTINUOUS
 10
-0.638469
 20
-52.2241229517
 11
-0.854614
 21
-52.2241229517
  0
LINE
  5
361
100
AcDbEntity
  8
0
100
AcDbLine
 62
7
  6
CONTINUOUS
 10
-1.806216
 20
-52.2241229517
 11
-2.971738
 21
-52.2241229517
  0
LINE
  5
362
100
AcDbEntity
  8
0
100
AcDbLine
 62
7
  6
CONTINUOUS
 10
-3.9365555446
 20
-52.2241229517
 11
-4.59186
 21
-52.2241229517
  0
LINE
  5
363
100
AcDbEntity
  8
0
100
AcDbLine
 62
7
  6
CONTINUOUS
 10
-5.38068
 20
-52.2241229517
 11
-5.625849
 21
-52.2241229517
  0
LINE
  5
364
100
AcDbEntity
  8
0
100
AcDbLine
 62
7
  6
CONTINUOUS
 10
-6.419147
 20
-52.2241229517
 11
-6.726711
 21
-52.2241229517
  0
LINE
  5
365
100
AcDbEntity
  8
0
100
AcDbLine
 62
7
  6
CONTINUOUS
 10
-7.642597
 20
-52.2241229517
 11
-7.95236
 21
-52.2241229517
  0
LINE
  5
366
100
AcDbEntity
  8
0
100
AcDbLine
 62
7
  6
CONTINUOUS
 10
15.25
 20
-51.5
 11
-15.25
 21
-51.5
  0
LINE
  5
367
100
AcDbEntity
  8
0
100
AcDbLine
 62
7
  6
CONTINUOUS
 10
15.25
 20
-51.0
 11
-15.25
 21
-51.0
  0
LWPOLYLINE
  5
368
100
AcDbEntity
  8
0
100
AcDbPolyline
 62
7
  6
CONTINUOUS
 90
16
 70
0
 10
-3.9488592829
 20
-52.3687266276
 10
-3.8928682535
 20
-52.373531766
 10
-3.8399638906
 20
-52.3838412826
 10
-3.7901461943
 20
-52.3996551774
 10
-3.743138004
 20
-52.4211094016
 10
-3.6992164803
 20
-52.448068004
 10
-3.6592131047
 20
-52.4801231306
 10
-3.6231503711
 20
-52.5173443997
 10
-3.5910057857
 20
-52.5596621929
 10
-3.5635433485
 20
-52.6064598016
 10
-3.5412064156
 20
-52.6580804632
 10
-3.523551631
 20
-52.7141809402
 10
-3.5100129274
 20
-52.7731148109
 10
-3.5004016157
 20
-52.8343332683
 10
-3.4949063851
 20
-52.8983851195
 10
-3.4932101226
 20
-52.9777121266
  0
LWPOLYLINE
  5
369
100
AcDbEntity
  8
0
100
AcDbPolyline
 62
7
  6
CONTINUOUS
 90
12
 70
0
 10
-3.948859267
 20
-52.4034562631
 10
-3.8791719525
 20
-52.4104574902
 10
-3.8145320528
 20
-52.4258975847
 10
-3.7549395678
 20
-52.4497765467
 10
-3.6997788513
 20
-52.4823680892
 10
-3.6496655496
 20
-52.5233984991
 10
-3.6064466017
 20
-52.5720466377
 10
-3.5708147276
 20
-52.6288634399
 10
-3.5420772073
 20
-52.6932979708
 10
-3.5200028201
 20
-52.7628762866
 10
-3.5045144922
 20
-52.8367737394
 10
-3.4956892973
 20
-52.9158149772
  0
LWPOLYLINE
  5
36A
100
AcDbEntity
  8
ASSI
100
AcDbPolyline
 62
7
  6
CONTINUOUS
 90
10
 70
0
 10
0.7611136875
 20
-59.3189216621
 10
0.8315705511
 20
-59.3489028116
 10
0.9003509895
 20
-59.3816252537
 10
0.9674550029
 20
-59.4170889887
 10
1.0329978192
 20
-59.4553757581
 10
1.0968642103
 20
-59.4964038202
 10
1.1587084924
 20
-59.5399279501
 10
1.2184154374
 20
-59.5858664059
 10
1.2761002732
 20
-59.6343009295
 10
1.331763
 20
-59.6852315207
  0
LWPOLYLINE
  5
36B
100
AcDbEntity
  8
ASSI
100
AcDbPolyline
 62
7
  6
CONTINUOUS
 90
5
 70
0
 10
0.7406473487
 20
-59.598196048
 10
0.854190388
 20
-59.6577224277
 10
0.9622921348
 20
-59.7245676265
 10
1.0655730054
 20
-59.7990317674
 10
1.164033
 20
-59.8811148504
  0
LWPOLYLINE
  5
36C
100
AcDbEntity
  8
ASSI
100
AcDbPolyline
 62
7
  6
CONTINUOUS
 90
12
 70
0
 10
-0.7441780971
 20
-58.7859058129
 10
-0.8785787118
 20
-58.7029253991
 10
-1.0012588239
 20
-58.6094011901
 10
-1.1122184334
 20
-58.505333186
 10
-1.2123850191
 20
-58.3893633145
 10
-1.3008311021
 20
-58.2628496478
 10
-1.374774246
 20
-58.1298664032
 10
-1.4336820483
 20
-57.9902442565
 10
-1.4780869115
 20
-57.8441525318
 10
-1.5068036055
 20
-57.6961734185
 10
-1.5193918463
 20
-57.5463103082
 10
-1.5204122825
 20
-57.4987408318
  0
LWPOLYLINE
  5
36D
100
AcDbEntity
  8
DRAFT
100
AcDbPolyline
 62
7
  6
CONTINUOUS
 90
10
 70
0
 10
-8.6491932696
 20
-55.6582247495
 10
-8.7359300049
 20
-55.5978157165
 10
-8.8247904242
 20
-55.5417547057
 10
-8.9157745274
 20
-55.4900249928
 10
-9.009114778
 20
-55.442520607
 10
-9.1045787126
 20
-55.3993142139
 10
-9.2014689411
 20
-55.3606561486
 10
-9.2995530002
 20
-55.3266187428
 10
-9.3990633531
 20
-55.2970978818
 10
-9.5
 20
-55.2720799058
  0
LWPOLYLINE
  5
36E
100
AcDbEntity
  8
RACCORDO
100
AcDbPolyline
 62
7
  6
CONTINUOUS
 90
3
 70
0
 10
-10.306862245
 20
-68.2948091789
 10
-10.3334262485
 20
-68.261720224
 10
-10.3834988978
 20
-68.2003301704
  0
LWPOLYLINE
  5
36F
100
AcDbEntity
  8
RACCORDO
100
AcDbPolyline
 62
7
  6
CONTINUOUS
 90
10
 70
0
 10
-10.3834988978
 20
-68.2003301704
 10
-10.406100432
 20
-68.1719428416
 10
-10.4267881721
 20
-68.1451514649
 10
-10.4456979147
 20
-68.1202147304
 10
-10.4625805613
 20
-68.0970532088
 10
-10.4770706062
 20
-68.0757463293
 10
-10.489002713
 20
-68.0567910702
 10
-10.4981071943
 20
-68.0403530907
 10
-10.5040905597
 20
-68.0262667315
 10
-10.5067404104
 20
-68.0145319927
  0
LINE
  5
370
100
AcDbEntity
  8
RACCORDO
100
AcDbLine
 62
7
  6
CONTINUOUS
 10
16.8501252555
 20
54.1225582937
 11
16.8687446577
 21
54.1300316193
  0
LINE
  5
371
100
AcDbEntity
  8
RACCORDO
100
AcDbLine
 62
7
  6
CONTINUOUS
 10
16.8314518121
 20
54.1152074045
 11
16.8501252555
 21
54.1225582937
  0
LINE
  5
372
100
AcDbEntity
  8
RACCORDO
100
AcDbLine
 62
7
  6
CONTINUOUS
 10
16.8127246754
 20
54.1079762796
 11
16.8314518121
 21
54.1152074045
  0
LINE
  5
373
100
AcDbEntity
  8
RACCORDO
100
AcDbLine
 62
7
  6
CONTINUOUS
 10
-19.0640530533
 20
40.5093811665
 11
-19.0
 21
40.5306627248
  0
LINE
  5
374
100
AcDbEntity
  8
DRAFT
100
AcDbLine
 62
7
  6
CONTINUOUS
 10
16.8057426494
 20
-45.5664150497
 11
15.25
 21
-45.5664150497
  0
LINE
  5
375
100
AcDbEntity
  8
DRAFT
100
AcDbLine
 62
7
  6
CONTINUOUS
 10
-15.25
 20
-45.5664150497
 11
-16.8057426494
 21
-45.5664150497
  0
LINE
  5
376
100
AcDbEntity
  8
RACCORDO
100
AcDbLine
 62
7
  6
CONTINUOUS
 10
-19.0640530533
 20
-40.5093811665
 11
-19.0
 21
-40.5306627248
  0
LINE
  5
377
100
AcDbEntity
  8
RACCORDO
100
AcDbLine
 62
7
  6
CONTINUOUS
 10
16.8127246754
 20
-54.1079762796
 11
16.8314518121
 21
-54.1152074045
  0
LINE
  5
378
100
AcDbEntity
  8
RACCORDO
100
AcDbLine
 62
7
  6
CONTINUOUS
 10
16.8314518121
 20
-54.1152074045
 11
16.8501252555
 21
-54.1225582937
  0
LINE
  5
379
100
AcDbEntity
  8
RACCORDO
100
AcDbLine
 62
7
  6
CONTINUOUS
 10
16.8501252555
 20
-54.1225582937
 11
16.8687446577
 21
-54.1300316193
  0
LINE
  5
37A
100
AcDbEntity
  8
ASSI
100
AcDbLine
 62
7
  6
CONTINUOUS
 10
-1.033356
 20
-56.8744074264
 11
-0.169078
 21
-57.5807784992
  0
LINE
  5
37B
100
AcDbEntity
  8
ASSI
100
AcDbLine
 62
7
  6
CONTINUOUS
 10
-1.033356
 20
-56.8396777909
 11
-0.169078
 21
-57.5460488637
  0
LINE
  5
37C
100
AcDbEntity
  8
ASSI
100
AcDbLine
 62
7
  6
CONTINUOUS
 10
-0.169078
 20
-57.1944586485
 11
-1.073249
 21
-56.4554832825
  0
LWPOLYLINE
  5
37D
100
AcDbEntity
  8
ASSI
100
AcDbPolyline
 62
7
  6
CONTINUOUS
 90
10
 70
0
 10
1.164033
 20
-59.915844486
 10
1.0655015367
 20
-59.8337274163
 10
0.9621939719
 20
-59.7592480294
 10
0.8541103058
 20
-59.6924063251
 10
0.7406659984
 20
-59.6329158389
 10
0.6224455895
 20
-59.5810630353
 10
0.5012026989
 20
-59.537707308
 10
0.3775218664
 20
-59.5031351214
 10
0.2508185521
 20
-59.477060011
 10
0.121092756
 20
-59.4594819768
  0
LWPOLYLINE
  5
37E
100
AcDbEntity
  8
RACCORDO
100
AcDbPolyline
 62
7
  6
CONTINUOUS
 90
3
 70
0
 10
-19.3624096219
 20
40.306862245
 10
-19.3292147268
 20
40.3335212214
 10
-19.2677845317
 20
40.3836157366
  0
LWPOLYLINE
  5
37F
100
AcDbEntity
  8
RACCORDO
100
AcDbPolyline
 62
7
  6
CONTINUOUS
 90
10
 70
0
 10
-19.2677845317
 20
40.3836157366
 10
-19.2394988593
 20
40.406125739
 10
-19.2128663853
 20
40.4266906231
 10
-19.1880382262
 20
40.4455323601
 10
-19.1648843723
 20
40.4624206961
 10
-19.1435348333
 20
40.4769464479
 10
-19.1245307556
 20
40.4889203518
 10
-19.1080525211
 20
40.4980628052
 10
-19.0939197478
 20
40.5040764215
 10
-19.0821324356
 20
40.5067404104
  0
LWPOLYLINE
  5
380
100
AcDbEntity
  8
RACCORDO
100
AcDbPolyline
 62
7
  6
CONTINUOUS
 90
3
 70
0
 10
16.8687446577
 20
54.1300316193
 10
16.878033543
 20
54.1338184268
 10
16.8965699136
 20
54.1414905497
  0
LWPOLYLINE
  5
381
100
AcDbEntity
  8
DRAFT
100
AcDbPolyline
 62
7
  6
CONTINUOUS
 90
49
 70
0
 10
18.6976613732
 20
-39.4460173716
 10
18.6866776813
 20
-39.4484372361
 10
18.6742513726
 20
-39.4520451293
 10
18.6604234374
 20
-39.4569399247
 10
18.6451726226
 20
-39.4632822146
 10
18.6286468627
 20
-39.4711437379
 10
18.6111533896
 20
-39.480482855
 10
18.5928196998
 20
-39.4913782059
 10
18.573713193
 20
-39.5039713303
 10
18.5540558145
 20
-39.5182859383
 10
18.5340215089
 20
-39.534376977
 10
18.5137074069
 20
-39.5523837914
 10
18.4932411893
 20
-39.5724449685
 10
18.4728039846
 20
-39.5946452791
 10
18.4526003748
 20
-39.6190715511
 10
18.4328343736
 20
-39.64585933
 10
18.4137504987
 20
-39.6750641538
 10
18.395621595
 20
-39.7067251278
 10
18.3787426704
 20
-39.7409277917
 10
18.3633989958
 20
-39.7777312969
 10
18.3499611478
 20
-39.8170233734
 10
18.3388592103
 20
-39.8585658978
 10
18.3303661302
 20
-39.9026000024
 10
18.324908297
 20
-39.9485775014
 10
18.3228541494
 20
-39.9949590239
 10
18.3242653119
 20
-40.0415169178
 10
18.3291351422
 20
-40.087935009
 10
18.3371376206
 20
-40.1325349092
 10
18.3478667743
 20
-40.174743541
 10
18.3610581664
 20
-40.2147973962
 10
18.3762561192
 20
-40.2523526536
 10
18.3930663007
 20
-40.2872540318
 10
18.411208821
 20
-40.3195905669
 10
18.430391309
 20
-40.3494580076
 10
18.4503401908
 20
-40.3768958841
 10
18.4708022825
 20
-40.4019481166
 10
18.4915662971
 20
-40.4247425785
 10
18.512426005
 20
-40.4453675088
 10
18.5331906953
 20
-40.4639012751
 10
18.5537115188
 20
-40.480466493
 10
18.5738847877
 20
-40.4952044027
 10
18.5935301603
 20
-40.5081716675
 10
18.6124022633
 20
-40.5193808871
 10
18.6304299629
 20
-40.5289804955
 10
18.6474779243
 20
-40.5370526605
 10
18.6632075784
 20
-40.5435452899
 10
18.6774572567
 20
-40.5485331966
 10
18.6902535935
 20
-40.5521899408
 10
18.7015532202
 20
-40.5546209961
  0
LINE
  5
382
100
AcDbEntity
  8
RACCORDO
100
AcDbLine
 62
250
  6
CONTINUOUS
 10
19.0821324356
 20
-40.5067404104
 11
19.0
 21
-40.5067404104
  0
LINE
  5
383
100
AcDbEntity
  8
RACCORDO
100
AcDbLine
 62
250
  6
CONTINUOUS
 10
-19.0
 20
-40.5067404104
 11
-19.0821324356
 21
-40.5067404104
  0
LINE
  5
384
100
AcDbEntity
  8
RACCORDO
100
AcDbLine
 62
250
  6
CONTINUOUS
 10
19.3624096219
 20
-40.306862245
 11
19.0
 21
-40.306862245
  0
LINE
  5
385
100
AcDbEntity
  8
RACCORDO
100
AcDbLine
 62
250
  6
CONTINUOUS
 10
-19.0
 20
-40.306862245
 11
-19.3624096219
 21
-40.306862245
  0
LINE
  5
386
100
AcDbEntity
  8
RACCORDO
100
AcDbLine
 62
250
  6
CONTINUOUS
 10
-19.3624096219
 20
-39.693137755
 11
-19.0
 21
-39.693137755
  0
LINE
  5
387
100
AcDbEntity
  8
RACCORDO
100
AcDbLine
 62
250
  6
CONTINUOUS
 10
19.0
 20
-39.693137755
 11
19.3624096219
 21
-39.693137755
  0
LINE
  5
388
100
AcDbEntity
  8
RACCORDO
100
AcDbLine
 62
250
  6
CONTINUOUS
 10
-19.0821324356
 20
-39.4932595896
 11
-19.0
 21
-39.4932595896
  0
LINE
  5
389
100
AcDbEntity
  8
RACCORDO
100
AcDbLine
 62
250
  6
CONTINUOUS
 10
19.0
 20
-39.4932595896
 11
19.0821324356
 21
-39.4932595896
  0
LWPOLYLINE
  5
38A
100
AcDbEntity
  8
RACCORDO
100
AcDbPolyline
 62
7
  6
CONTINUOUS
 90
11
 70
0
 10
-19.0821324356
 20
-40.5067404104
 10
-19.0939227288
 20
-40.5040756716
 10
-19.1080576617
 20
-40.4980605768
 10
-19.1245372343
 20
-40.4889165175
 10
-19.143541272
 20
-40.4769418601
 10
-19.1648899494
 20
-40.4624164489
 10
-19.1880437911
 20
-40.445528229
 10
-19.2128743319
 20
-40.4266847605
 10
-19.239510037
 20
-40.4061171875
 10
-19.2677968265
 20
-40.3836059033
 10
-19.329220939
 20
-40.3335159896
  0
LWPOLYLINE
  5
38B
100
AcDbEntity
  8
RACCORDO
100
AcDbPolyline
 62
7
  6
CONTINUOUS
 90
3
 70
0
 10
16.8687446577
 20
-54.1300316193
 10
16.8873086283
 20
-54.1376380703
 10
16.8965699136
 20
-54.1414905497
  0
LWPOLYLINE
  5
38C
100
AcDbEntity
  8
DRAFT
100
AcDbPolyline
 62
7
  6
CONTINUOUS
 90
10
 70
0
 10
11.3508067304
 20
-55.6582247495
 10
11.2640699951
 20
-55.5978157165
 10
11.1752095758
 20
-55.5417547057
 10
11.0842254726
 20
-55.4900249928
 10
10.990885222
 20
-55.442520607
 10
10.8954212874
 20
-55.3993142139
 10
10.7985310589
 20
-55.3606561486
 10
10.7004469998
 20
-55.3266187428
 10
10.6009366469
 20
-55.2970978818
 10
10.5
 20
-55.2720799058
  0
LINE
  5
38D
100
AcDbEntity
  8
RACCORDO
100
AcDbLine
 62
7
  6
CONTINUOUS
 10
-19.329220939
 20
-40.3335159896
 11
-19.3624096219
 21
-40.306862245
  0
LINE
  5
38E
100
AcDbEntity
  8
0
100
AcDbLine
 62
7
  6
CONTINUOUS
 10
-12.9080662983
 20
-63.0
 11
-12.6197227951
 21
-63.5562705104
  0
LINE
  5
38F
100
AcDbEntity
  8
0
100
AcDbLine
 62
7
  6
CONTINUOUS
 10
-12.6200382983
 20
-63.0
 11
-12.349874674
 21
-63.521198
  0
LINE
  5
390
100
AcDbEntity
  8
RACCORDO
100
AcDbLine
 62
250
  6
CONTINUOUS
 10
2.9900978305
 20
68.2385637708
 11
3.1761528349
 21
68.5364800196
  0
LINE
  5
391
100
AcDbEntity
  8
RACCORDO
100
AcDbLine
 62
250
  6
CONTINUOUS
 10
3.1761528349
 20
68.5364800196
 11
3.6851738482
 21
69.3430100952
  0
LINE
  5
392
100
AcDbEntity
  8
RACCORDO
100
AcDbLine
 62
250
  6
CONTINUOUS
 10
3.6851738482
 20
69.3430100952
 11
3.9152001568
 21
69.7032686204
  0
LINE
  5
393
100
AcDbEntity
  8
RACCORDO
100
AcDbLine
 62
250
  6
CONTINUOUS
 10
3.9152001568
 20
69.7032686204
 11
4.1310880772
 21
70.0378066184
  0
LINE
  5
394
100
AcDbEntity
  8
RACCORDO
100
AcDbLine
 62
250
  6
CONTINUOUS
 10
4.1310880772
 20
70.0378066184
 11
4.2676468272
 21
70.2470164335
  0
LINE
  5
395
100
AcDbEntity
  8
RACCORDO
100
AcDbLine
 62
250
  6
CONTINUOUS
 10
4.2676468272
 20
70.2470164335
 11
4.3983250159
 21
70.4452839436
  0
LINE
  5
396
100
AcDbEntity
  8
RACCORDO
100
AcDbLine
 62
7
  6
CONTINUOUS
 10
9.666618538
 20
68.2617736769
 11
9.693137755
 21
68.2948091789
  0
LINE
  5
397
100
AcDbEntity
  8
RACCORDO
100
AcDbLine
 62
250
  6
CONTINUOUS
 10
16.3213760438
 20
65.4212998914
 11
16.4000761524
 21
65.5
  0
LINE
  5
398
100
AcDbEntity
  8
RACCORDO
100
AcDbLine
 62
250
  6
CONTINUOUS
 10
16.8127246754
 20
64.9128008278
 11
16.9
 21
65.0000761524
  0
LWPOLYLINE
  5
399
100
AcDbEntity
  8
DRAFT
100
AcDbPolyline
 62
7
  6
CONTINUOUS
 90
49
 70
0
 10
-18.7015532212
 20
-40.5546209963
 10
-18.6902546344
 20
-40.5521903651
 10
-18.6774582112
 20
-40.5485336155
 10
-18.6632073332
 20
-40.5435451957
 10
-18.6474755567
 20
-40.5370515815
 10
-18.6304244233
 20
-40.5289777241
 10
-18.6123920899
 20
-40.5193751624
 10
-18.5935138602
 20
-40.5081614383
 10
-18.573861168
 20
-40.495188013
 10
-18.5536795551
 20
-40.4804419537
 10
-18.5331498277
 20
-40.4638666012
 10
-18.5123757
 20
-40.4453203264
 10
-18.4915056944
 20
-40.4246795048
 10
-18.470730102
 20
-40.4018644395
 10
-18.4502566935
 20
-40.3767876207
 10
-18.4302992417
 20
-40.3493235176
 10
-18.4111119623
 20
-40.3194295278
 10
-18.3929678904
 20
-40.2870652655
 10
-18.3761593454
 20
-40.2521343769
 10
-18.3609667216
 20
-40.2145482179
 10
-18.347784716
 20
-40.1744622682
 10
-18.3370690992
 20
-40.1322194151
 10
-18.3290843565
 20
-40.087576846
 10
-18.3242386439
 20
-40.0411149076
 10
-18.3228573099
 20
-39.9945317574
 10
-18.3249426176
 20
-39.9481545036
 10
-18.3304286452
 20
-39.9022001516
 10
-18.3389449163
 20
-39.8581949671
 10
-18.3500647764
 20
-39.8166835277
 10
-18.363514612
 20
-39.7774268929
 10
-18.3788652185
 20
-39.740658975
 10
-18.3957466402
 20
-39.706490691
 10
-18.413873603
 20
-39.6748633978
 10
-18.432951876
 20
-39.6456905207
 10
-18.452708562
 20
-39.6189332713
 10
-18.4728999386
 20
-39.5945353919
 10
-18.4933244266
 20
-39.5723591991
 10
-18.5137790157
 20
-39.552317159
 10
-18.5340821995
 20
-39.5343258073
 10
-18.5541058855
 20
-39.5182476652
 10
-18.5737529019
 20
-39.503943839
 10
-18.5928498776
 20
-39.4913592974
 10
-18.6111752132
 20
-39.4804705574
 10
-18.628661884
 20
-39.4711361833
 10
-18.6451823445
 20
-39.4632778645
 10
-18.6604290005
 20
-39.4569377729
 10
-18.6742538239
 20
-39.4520444176
 10
-18.6866782688
 20
-39.4484372082
 10
-18.6976613726
 20
-39.4460173717
  0
LWPOLYLINE
  5
39A
100
AcDbEntity
  8
RACCORDO
100
AcDbPolyline
 62
7
  6
CONTINUOUS
 90
11
 70
0
 10
19.0821324356
 20
-39.4932595896
 10
19.0939227288
 20
-39.4959243284
 10
19.1080576617
 20
-39.5019394232
 10
19.1245372343
 20
-39.5110834825
 10
19.143541272
 20
-39.5230581399
 10
19.1648899494
 20
-39.5375835511
 10
19.1880437912
 20
-39.554471771
 10
19.2128743319
 20
-39.5733152396
 10
19.239510037
 20
-39.5938828125
 10
19.2677968265
 20
-39.6163940968
 10
19.329220939
 20
-39.6664840104
  0
LINE
  5
39B
100
AcDbEntity
  8
RACCORDO
100
AcDbLine
 62
250
  6
CONTINUOUS
 10
16.4000761524
 20
-65.5
 11
16.3213760438
 21
-65.4212998914
  0
LINE
  5
39C
100
AcDbEntity
  8
RACCORDO
100
AcDbLine
 62
250
  6
CONTINUOUS
 10
16.9
 20
-65.0000761524
 11
16.8127246754
 21
-64.9128008278
  0
LWPOLYLINE
  5
39D
100
AcDbEntity
  8
ASSI
100
AcDbPolyline
 62
7
  6
CONTINUOUS
 90
9
 70
0
 10
1.0752015271
 20
-56.457374052
 10
1.1809179818
 20
-56.5718880018
 10
1.2725648765
 20
-56.6934421247
 10
1.3501422111
 20
-56.8220364206
 10
1.4141685451
 20
-56.9591732996
 10
1.464125319
 20
-57.1033503517
 10
1.4984568546
 20
-57.2500603467
 10
1.5166404311
 20
-57.3993434374
 10
1.5204132799
 20
-57.498799405
  0
LINE
  5
39E
100
AcDbEntity
  8
ASSI
100
AcDbLine
 62
7
  6
CONTINUOUS
 10
1.2168404279
 20
-56.3334796453
 11
1.343092842
 21
-56.481655561
  0
LWPOLYLINE
  5
39F
100
AcDbEntity
  8
RACCORDO
100
AcDbPolyline
 62
7
  6
CONTINUOUS
 90
3
 70
0
 10
9.693137755
 20
-68.2948091789
 10
9.6665737515
 20
-68.261720224
 10
9.6165011022
 20
-68.2003301704
  0
LWPOLYLINE
  5
3A0
100
AcDbEntity
  8
RACCORDO
100
AcDbPolyline
 62
7
  6
CONTINUOUS
 90
10
 70
0
 10
9.6165011022
 20
-68.2003301704
 10
9.593899568
 20
-68.1719428416
 10
9.5732118279
 20
-68.1451514649
 10
9.5543020853
 20
-68.1202147304
 10
9.5374194387
 20
-68.0970532088
 10
9.5229293938
 20
-68.0757463293
 10
9.510997287
 20
-68.0567910702
 10
9.5018928057
 20
-68.0403530907
 10
9.4959094403
 20
-68.0262667315
 10
9.4932595896
 20
-68.0145319927
  0
LINE
  5
3A1
100
AcDbEntity
  8
RACCORDO
100
AcDbLine
 62
250
  6
CONTINUOUS
 10
4.398786559
 20
-70.4453762287
 11
4.1784459571
 21
-70.1102254941
  0
LINE
  5
3A2
100
AcDbEntity
  8
RACCORDO
100
AcDbLine
 62
250
  6
CONTINUOUS
 10
4.1784459571
 20
-70.1102254941
 11
3.96892958
 21
-69.7870716873
  0
LINE
  5
3A3
100
AcDbEntity
  8
RACCORDO
100
AcDbLine
 62
250
  6
CONTINUOUS
 10
3.96892958
 20
-69.7870716873
 11
3.6745767048
 21
-69.3263524081
  0
LINE
  5
3A4
100
AcDbEntity
  8
RACCORDO
100
AcDbLine
 62
250
  6
CONTINUOUS
 10
3.6745767048
 20
-69.3263524081
 11
3.3163455046
 21
-68.7594252965
  0
LINE
  5
3A5
100
AcDbEntity
  8
RACCORDO
100
AcDbLine
 62
250
  6
CONTINUOUS
 10
3.3163455046
 20
-68.7594252965
 11
2.9901456139
 21
-68.2385612852
  0
LINE
  5
3A6
100
AcDbEntity
  8
RACCORDO
100
AcDbLine
 62
250
  6
CONTINUOUS
 10
4.9501178103
 20
69.9124108
 11
4.1856058168
 21
68.4281321914
  0
LWPOLYLINE
  5
3A7
100
AcDbEntity
  8
RACCORDO
100
AcDbPolyline
 62
250
  6
CONTINUOUS
 90
3
 70
0
 10
5.3221770072
 20
70.6226313204
 10
5.1986495831
 20
70.3882906062
 10
4.9501178103
 20
69.9124108
  0
LWPOLYLINE
  5
3A8
100
AcDbEntity
  8
0
100
AcDbPolyline
 62
7
  6
CONTINUOUS
 90
12
 70
0
 10
-2.5711974052
 20
61.0858344394
 10
-2.5434822515
 20
61.1379136838
 10
-2.5096444728
 20
61.1848078855
 10
-2.4696840691
 20
61.2265170444
 10
-2.42286529
 20
61.2632822986
 10
-2.3699238859
 20
61.2948625099
 10
-2.3130671075
 20
61.3205342649
 10
-2.2525138139
 20
61.3391971806
 10
-2.1880451461
 20
61.3519516398
 10
-2.1212117777
 20
61.3613753778
 10
-2.0525305997
 20
61.3683276397
 10
-1.981484721
 20
61.3719491805
  0
LWPOLYLINE
  5
3A9
100
AcDbEntity
  8
0
100
AcDbPolyline
 62
7
  6
CONTINUOUS
 90
19
 70
0
 10
-0.0226387191
 20
61.1261002303
 10
-0.0029651814
 20
61.1596055333
 10
0.0191075571
 20
61.1899210319
 10
0.0435794964
 20
61.2170467261
 10
0.0711046391
 20
61.2407650355
 10
0.1010289826
 20
61.2612935405
 10
0.131390519
 20
61.2792849831
 10
0.1619298081
 20
61.2946576186
 10
0.1929062902
 20
61.3074931915
 10
0.2231362777
 20
61.3186896773
 10
0.2522733822
 20
61.3282992277
 10
0.2806639922
 20
61.3362696909
 10
0.3081635859
 20
61.3433425865
 10
0.3347029914
 20
61.349623387
 10
0.3603513805
 20
61.35500662
 10
0.3851717479
 20
61.3599173876
 10
0.4091850917
 20
61.3644973905
 10
0.4323704136
 20
61.368604928
 10
0.4547277137
 20
61.37224
  0
LINE
  5
3AA
100
AcDbEntity
  8
RACCORDO
100
AcDbLine
 62
7
  6
CONTINUOUS
 10
19.0640530533
 20
39.4906188335
 11
19.0
 21
39.4693372752
  0
LINE
  5
3AB
100
AcDbEntity
  8
0
100
AcDbLine
 62
250
  6
CONTINUOUS
 10
18.3
 20
-28.5
 11
18.67937941
 21
-28.5
  0
LINE
  5
3AC
100
AcDbEntity
  8
0
100
AcDbLine
 62
250
  6
CONTINUOUS
 10
-18.3
 20
-28.5
 11
-18.67937941
 21
-28.5
  0
LINE
  5
3AD
100
AcDbEntity
  8
RACCORDO
100
AcDbLine
 62
7
  6
CONTINUOUS
 10
19.0640530533
 20
-39.4906188335
 11
19.0
 21
-39.4693372752
  0
LINE
  5
3AE
100
AcDbEntity
  8
0
100
AcDbLine
 62
7
  6
CONTINUOUS
 10
-0.05904
 20
-52.5156674812
 11
0.758817
 21
-53.7758770483
  0
LINE
  5
3AF
100
AcDbEntity
  8
0
100
AcDbLine
 62
7
  6
CONTINUOUS
 10
-0.05904
 20
-52.4809378457
 11
0.758817
 21
-53.7411474128
  0
LINE
  5
3B0
100
AcDbEntity
  8
0
100
AcDbLine
 62
7
  6
CONTINUOUS
 10
0.792253
 20
-53.4845885582
 11
-0.012275
 21
-52.2241229517
  0
LINE
  5
3B1
100
AcDbEntity
  8
INCISIONI
100
AcDbLine
 62
7
  6
CONTINUOUS
 10
2.723843
 20
-62.899093
 11
3.541719
 21
-64.198626
  0
LINE
  5
3B2
100
AcDbEntity
  8
INCISIONI
100
AcDbLine
 62
7
  6
CONTINUOUS
 10
3.575071
 20
-63.898277
 11
2.770712
 21
-62.598626
  0
LINE
  5
3B3
100
AcDbEntity
  8
ASSI
100
AcDbLine
 62
7
  6
CONTINUOUS
 10
0.596221
 20
-58.5302425195
 11
0.744178
 21
-58.7859056451
  0
LINE
  5
3B4
100
AcDbEntity
  8
ASSI
100
AcDbLine
 62
7
  6
CONTINUOUS
 10
0.6130875495
 20
-58.5246575324
 11
0.744178
 21
-58.7511760096
  0
LINE
  5
3B5
100
AcDbEntity
  8
RACCORDO
100
AcDbLine
 62
250
  6
CONTINUOUS
 10
4.1856058473
 20
-68.4281322486
 11
5.3221771955
 21
-70.6226313319
  0
LINE
  5
3B6
100
AcDbEntity
  8
0
100
AcDbLine
 62
7
  6
CONTINUOUS
 10
-11.6771576885
 20
-63.0
 11
-11.2671147974
 21
-64.2771364302
  0
LINE
  5
3B7
100
AcDbEntity
  8
0
100
AcDbLine
 62
7
  6
CONTINUOUS
 10
-11.2477316044
 20
-63.521198
 11
-11.123097951
 21
-63.9093870962
  0
LINE
  5
3B8
100
AcDbEntity
  8
0
100
AcDbLine
 62
7
  6
CONTINUOUS
 10
-11.3891296884
 20
-63.0
 11
-11.3238542879
 21
-63.2033094437
  0
LINE
  5
3B9
100
AcDbEntity
  8
0
100
AcDbLine
 62
7
  6
CONTINUOUS
 10
-9.7456373119
 20
-63.3906447007
 11
-9.4610164812
 21
-64.2771364302
  0
LINE
  5
3BA
100
AcDbEntity
  8
0
100
AcDbLine
 62
7
  6
CONTINUOUS
 10
-9.6016234899
 20
-63.0
 11
-9.3475384812
 21
-63.791383604
  0
LWPOLYLINE
  5
3BB
100
AcDbEntity
  8
RACCORDO
100
AcDbPolyline
 62
7
  6
CONTINUOUS
 90
16
 70
0
 10
-16.8127246754
 20
-64.9213760438
 10
-16.8056289939
 20
-64.9862398662
 10
-16.7931372429
 20
-65.0476481091
 10
-16.7752494224
 20
-65.1048115475
 10
-16.7511511466
 20
-65.1569772764
 10
-16.7216568013
 20
-65.2040207378
 10
-16.6892095438
 20
-65.2462936422
 10
-16.6541439618
 20
-65.283650255
 10
-16.6161254677
 20
-65.3160798724
 10
-16.5765934551
 20
-65.3440376758
 10
-16.5356247679
 20
-65.3675834606
 10
-16.4931425622
 20
-65.3866726447
 10
-16.4503557007
 20
-65.4014778419
 10
-16.4076671376
 20
-65.412105353
 10
-16.3646739186
 20
-65.4186573214
 10
-16.3213760438
 20
-65.4212998914
  0
LWPOLYLINE
  5
3BC
100
AcDbEntity
  8
0
100
AcDbPolyline
 62
7
  6
CONTINUOUS
 90
24
 70
0
 10
-18.2466438628
 20
65.2559159656
 10
-18.2399657213
 20
65.3113161728
 10
-18.2143256646
 20
65.4419091099
 10
-18.1783745389
 20
65.5723588425
 10
-18.132185385
 20
65.700907299
 10
-18.0770496897
 20
65.8241614844
 10
-18.0135591178
 20
65.941721726
 10
-17.942383058
 20
66.0529800997
 10
-17.8662082579
 20
66.1549545933
 10
-17.7872779424
 20
66.2466643524
 10
-17.7058272596
 20
66.3295758911
 10
-17.6218633749
 20
66.4047459983
 10
-17.5364497339
 20
66.4721652554
 10
-17.4500591132
 20
66.5323545612
 10
-17.3613255264
 20
66.5867268072
 10
-17.2701332055
 20
66.6355406969
 10
-17.1773869141
 20
66.6785097317
 10
-17.0829642394
 20
66.7158414991
 10
-16.987019324
 20
66.7475829675
 10
-16.8900884656
 20
66.7736686084
 10
-16.7925842681
 20
66.794094914
 10
-16.694867023
 20
66.8089159753
 10
-16.5972355398
 20
66.8182288585
 10
-16.5
 20
66.8221346312
  0
LWPOLYLINE
  5
3BD
100
AcDbEntity
  8
RACCORDO
100
AcDbPolyline
 62
7
  6
CONTINUOUS
 90
11
 70
0
 10
-10.5067404104
 20
68.0145319927
 10
-10.5040841243
 20
68.0262919647
 10
-10.4980878284
 20
68.0403974557
 10
-10.4889687745
 20
68.0568484657
 10
-10.4770280691
 20
68.0758069229
 10
-10.4625376006
 20
68.097110899
 10
-10.4456534772
 20
68.1202746094
 10
-10.4267296215
 20
68.1452298496
 10
-10.4060219385
 20
68.172044824
 10
-10.3834123594
 20
68.2004383613
 10
-10.333381462
 20
68.2617736769
  0
LINE
  5
3BE
100
AcDbEntity
  8
0
100
AcDbLine
 62
7
  6
CONTINUOUS
 10
-4.169977
 20
57.8578391459
 11
-4.788994
 21
55.9879386053
  0
LINE
  5
3BF
100
AcDbEntity
  8
0
100
AcDbLine
 62
7
  6
CONTINUOUS
 10
-4.50898
 20
55.1421472762
 11
-3.609949
 21
57.8578391459
  0
LWPOLYLINE
  5
3C0
100
AcDbEntity
  8
RACCORDO
100
AcDbPolyline
 62
250
  6
CONTINUOUS
 90
11
 70
0
 10
4.6426837122
 20
69.6254693137
 10
4.6857932573
 20
69.7255798421
 10
4.7276761978
 20
69.8241438491
 10
4.7683102785
 20
69.9211615419
 10
4.8076529168
 20
70.0167662578
 10
4.845683211
 20
70.1109570193
 10
4.8823736169
 20
70.2037348038
 10
4.917657298
 20
70.2952358814
 10
4.9514883236
 20
70.3855056752
 10
4.9838507684
 20
70.4744987622
 10
5.0147159251
 20
70.5622151421
  0
LINE
  5
3C1
100
AcDbEntity
  8
RACCORDO
100
AcDbLine
 62
250
  6
CONTINUOUS
 10
4.5528537397
 20
69.4204765982
 11
4.6426837122
 21
69.6254693137
  0
LINE
  5
3C2
100
AcDbEntity
  8
RACCORDO
100
AcDbLine
 62
250
  6
CONTINUOUS
 10
4.458331646
 20
69.2087774303
 11
4.5528537397
 21
69.4204765982
  0
LINE
  5
3C3
100
AcDbEntity
  8
RACCORDO
100
AcDbLine
 62
250
  6
CONTINUOUS
 10
4.3591710556
 20
68.9899285949
 11
4.458331646
 21
69.2087774303
  0
LINE
  5
3C4
100
AcDbEntity
  8
RACCORDO
100
AcDbLine
 62
250
  6
CONTINUOUS
 10
4.201740112
 20
68.6473988406
 11
4.3591710556
 21
68.9899285949
  0
LINE
  5
3C5
100
AcDbEntity
  8
RACCORDO
100
AcDbLine
 62
250
  6
CONTINUOUS
 10
4.0909375869
 20
68.4089804894
 11
4.201740112
 21
68.6473988406
  0
LINE
  5
3C6
100
AcDbEntity
  8
RACCORDO
100
AcDbLine
 62
250
  6
CONTINUOUS
 10
5.5499648499
 20
70.5121708671
 11
5.3163577823
 21
70.0330850004
  0
LINE
  5
3C7
100
AcDbEntity
  8
RACCORDO
100
AcDbLine
 62
250
  6
CONTINUOUS
 10
5.3163577823
 20
70.0330850004
 11
5.0763455381
 21
69.546262506
  0
LWPOLYLINE
  5
3C8
100
AcDbEntity
  8
0
100
AcDbPolyline
 62
7
  6
CONTINUOUS
 90
19
 70
0
 10
0.3560736002
 20
59.4412252606
 10
0.3409387306
 20
59.410859905
 10
0.3300588297
 20
59.3798156553
 10
0.3234338974
 20
59.3480925115
 10
0.3219185066
 20
59.3151109042
 10
0.3246580844
 20
59.2814504029
 10
0.3290889125
 20
59.248849716
 10
0.3343101008
 20
59.2176015829
 10
0.3412225393
 20
59.1874132643
 10
0.34996518
 20
59.1591452508
 10
0.3607796115
 20
59.1330580406
 10
0.3734242452
 20
59.1088911355
 10
0.3873132681
 20
59.0867235313
 10
0.4025248653
 20
59.0667440965
 10
0.4189808515
 20
59.0487639626
 10
0.4358608584
 20
59.0322955201
 10
0.4530442726
 20
59.0173613122
 10
0.4706517074
 20
59.0039387958
 10
0.5054810376
 20
58.9792501619
  0
LINE
  5
3C9
100
AcDbEntity
  8
RACCORDO
100
AcDbLine
 62
250
  6
CONTINUOUS
 10
5.0763455381
 20
69.546262506
 11
4.7044452224
 21
68.8013591622
  0
LINE
  5
3CA
100
AcDbEntity
  8
RACCORDO
100
AcDbLine
 62
250
  6
CONTINUOUS
 10
4.7044452224
 20
68.8013591622
 11
4.4487217268
 21
68.2948091789
  0
LINE
  5
3CB
100
AcDbEntity
  8
RACCORDO
100
AcDbLine
 62
7
  6
CONTINUOUS
 10
-16.8764983111
 20
18.3668095669
 11
-16.8965699136
 21
18.3585094503
  0
LINE
  5
3CC
100
AcDbEntity
  8
RACCORDO
100
AcDbLine
 62
7
  6
CONTINUOUS
 10
-16.8563619371
 20
18.3749557098
 11
-16.8764983111
 21
18.3668095669
  0
LINE
  5
3CD
100
AcDbEntity
  8
RACCORDO
100
AcDbLine
 62
7
  6
CONTINUOUS
 10
-16.8361612236
 20
18.3829512148
 11
-16.8563619371
 21
18.3749557098
  0
LWPOLYLINE
  5
3CE
100
AcDbEntity
  8
RACCORDO
100
AcDbPolyline
 62
7
  6
CONTINUOUS
 90
3
 70
0
 10
-16.8057426494
 20
18.394686211
 10
-16.8158978989
 20
18.3908094253
 10
-16.8361612236
 20
18.3829512148
  0
LINE
  5
3CF
100
AcDbEntity
  8
RACCORDO
100
AcDbLine
 62
7
  6
CONTINUOUS
 10
-16.8057426494
 20
-18.394686211
 11
-16.8260374236
 21
-18.3868977598
  0
LINE
  5
3D0
100
AcDbEntity
  8
RACCORDO
100
AcDbLine
 62
7
  6
CONTINUOUS
 10
-16.8260374236
 20
-18.3868977598
 11
-16.8462694427
 21
-18.3789709021
  0
LINE
  5
3D1
100
AcDbEntity
  8
RACCORDO
100
AcDbLine
 62
7
  6
CONTINUOUS
 10
-16.8462694427
 20
-18.3789709021
 11
-16.8664382746
 21
-18.370902302
  0
LWPOLYLINE
  5
3D2
100
AcDbEntity
  8
RACCORDO
100
AcDbPolyline
 62
7
  6
CONTINUOUS
 90
3
 70
0
 10
-16.8664382746
 20
-18.370902302
 10
-16.8865421908
 20
-18.3626786163
 10
-16.8965699136
 20
-18.3585094503
  0
LINE
  5
3D3
100
AcDbEntity
  8
0
100
AcDbLine
 62
7
  6
CONTINUOUS
 10
6.528341
 20
-52.2241229517
 11
7.132239
 21
-53.1512853561
  0
LINE
  5
3D4
100
AcDbEntity
  8
0
100
AcDbLine
 62
7
  6
CONTINUOUS
 10
6.5442236751
 20
-52.2137779294
 11
7.132239
 21
-53.1165557206
  0
LINE
  5
3D5
100
AcDbEntity
  8
0
100
AcDbLine
 62
7
  6
CONTINUOUS
 10
7.239251
 20
-52.9698183828
 11
6.780148
 21
-52.2241229517
  0
LINE
  5
3D6
100
AcDbEntity
  8
RACCORDO
100
AcDbLine
 62
250
  6
CONTINUOUS
 10
4.4487219094
 20
-68.2948091789
 11
4.8320837914
 21
-69.0558898066
  0
LINE
  5
3D7
100
AcDbEntity
  8
RACCORDO
100
AcDbLine
 62
250
  6
CONTINUOUS
 10
4.8320837914
 20
-69.0558898066
 11
5.1990509874
 21
-69.794477014
  0
LWPOLYLINE
  5
3D8
100
AcDbEntity
  8
RACCORDO
100
AcDbPolyline
 62
250
  6
CONTINUOUS
 90
3
 70
0
 10
5.1990509874
 20
-69.794477014
 10
5.4347776495
 20
-70.2752610452
 10
5.5499655399
 20
-70.5121708287
  0
LINE
  5
3D9
100
AcDbEntity
  8
RACCORDO
100
AcDbLine
 62
250
  6
CONTINUOUS
 10
4.2333208893
 20
-68.7155697889
 11
4.0908919707
 21
-68.4089695559
  0
LINE
  5
3DA
100
AcDbEntity
  8
0
100
AcDbLine
 62
7
  6
CONTINUOUS
 10
-4.801316
 20
-53.7758770483
 11
-5.38068
 21
-52.2241229517
  0
LINE
  5
3DB
100
AcDbEntity
  8
INCISIONI
100
AcDbLine
 62
7
  6
CONTINUOUS
 10
-3.256986
 20
-64.198626
 11
-3.836347
 21
-62.598626
  0
LINE
  5
3DC
100
AcDbEntity
  8
0
100
AcDbLine
 62
7
  6
CONTINUOUS
 10
-5.195758
 20
-53.3242176819
 11
-5.037557
 21
-53.7758770483
  0
LINE
  5
3DD
100
AcDbEntity
  8
0
100
AcDbLine
 62
7
  6
CONTINUOUS
 10
-7.183554
 20
-53.5423661823
 11
-7.642597
 21
-52.2241229517
  0
LINE
  5
3DE
100
AcDbEntity
  8
0
100
AcDbLine
 62
7
  6
CONTINUOUS
 10
-7.742898
 20
-52.4747380272
 11
-7.292721
 21
-53.7758770483
  0
LINE
  5
3DF
100
AcDbEntity
  8
0
100
AcDbLine
 62
7
  6
CONTINUOUS
 10
-7.742898
 20
-52.4400083917
 11
-7.7321666225
 21
-52.4710251117
  0
LINE
  5
3E0
100
AcDbEntity
  8
0
100
AcDbLine
 62
7
  6
CONTINUOUS
 10
-5.51207
 20
-52.4492029437
 11
-5.273694
 21
-53.1383592445
  0
LINE
  5
3E1
100
AcDbEntity
  8
INCISIONI
100
AcDbLine
 62
7
  6
CONTINUOUS
 10
-3.651396
 20
-63.732838
 11
-3.493101
 21
-64.198626
  0
LINE
  5
3E2
100
AcDbEntity
  8
INCISIONI
100
AcDbLine
 62
7
  6
CONTINUOUS
 10
-3.967832
 20
-62.830692
 11
-3.729469
 21
-63.541192
  0
LINE
  5
3E3
100
AcDbEntity
  8
0
100
AcDbLine
 62
7
  6
CONTINUOUS
 10
-7.7040577305
 20
-63.4485493051
 11
-7.438028
 21
-64.2771364302
  0
LINE
  5
3E4
100
AcDbEntity
  8
0
100
AcDbLine
 62
7
  6
CONTINUOUS
 10
-7.560042891
 20
-63.0
 11
-7.15
 21
-64.2771364302
  0
LWPOLYLINE
  5
3E5
100
AcDbEntity
  8
DRAFT
100
AcDbPolyline
 62
250
  6
CONTINUOUS
 90
10
 70
0
 10
-18.7015532198
 20
40.5546209961
 10
-18.7112725807
 20
42.9908685149
 10
-18.7231919723
 20
45.4659402966
 10
-18.7373113949
 20
47.9798363411
 10
-18.7535365019
 20
50.5327033561
 10
-18.7719616399
 20
53.124394634
 10
-18.7928698477
 20
55.7544700518
 10
-18.8163554717
 20
58.4227829018
 10
-18.8423241656
 20
61.1294798918
 10
-18.8707759294
 20
63.8745610216
  0
LINE
  5
3E6
100
AcDbEntity
  8
DRAFT
100
AcDbLine
 62
250
  6
CONTINUOUS
 10
-18.6848161217
 20
34.4719138499
 11
-18.6976613726
 21
39.4460173717
  0
LINE
  5
3E7
100
AcDbEntity
  8
DRAFT
100
AcDbLine
 62
250
  6
CONTINUOUS
 10
-18.679569196
 20
29.6725026089
 11
-18.6848161217
 21
34.4719138499
  0
LINE
  5
3E8
100
AcDbEntity
  8
RACCORDO
100
AcDbLine
 62
7
  6
CONTINUOUS
 10
-20.4668162456
 20
63.8749158815
 11
-20.4668162456
 21
-63.8749158815
  0
LINE
  5
3E9
100
AcDbEntity
  8
RACCORDO
100
AcDbLine
 62
250
  6
CONTINUOUS
 10
-20.1668162456
 20
63.8749158815
 11
-20.1668162456
 21
-63.8749158815
  0
LINE
  5
3EA
100
AcDbEntity
  8
RACCORDO
100
AcDbLine
 62
250
  6
CONTINUOUS
 10
-19.3624096219
 20
-63.8749158815
 11
-19.3624096219
 21
-40.306862245
  0
LINE
  5
3EB
100
AcDbEntity
  8
RACCORDO
100
AcDbLine
 62
250
  6
CONTINUOUS
 10
-19.3624096219
 20
-39.693137755
 11
-19.3624096219
 21
-0.306862245
  0
LINE
  5
3EC
100
AcDbEntity
  8
RACCORDO
100
AcDbLine
 62
250
  6
CONTINUOUS
 10
-19.3624096219
 20
0.306862245
 11
-19.3624096219
 21
39.693137755
  0
LINE
  5
3ED
100
AcDbEntity
  8
RACCORDO
100
AcDbLine
 62
250
  6
CONTINUOUS
 10
-19.3624096219
 20
40.306862245
 11
-19.3624096219
 21
63.8749158815
  0
LINE
  5
3EE
100
AcDbEntity
  8
RACCORDO
100
AcDbLine
 62
250
  6
CONTINUOUS
 10
-19.0640530533
 20
-63.8749158815
 11
-19.0640530533
 21
-40.5093811665
  0
LINE
  5
3EF
100
AcDbEntity
  8
RACCORDO
100
AcDbLine
 62
250
  6
CONTINUOUS
 10
-19.0640530533
 20
-39.4906188335
 11
-19.0640530533
 21
-0.5093811665
  0
LINE
  5
3F0
100
AcDbEntity
  8
RACCORDO
100
AcDbLine
 62
250
  6
CONTINUOUS
 10
-19.0640530533
 20
0.5093811665
 11
-19.0640530533
 21
39.4906188335
  0
LINE
  5
3F1
100
AcDbEntity
  8
RACCORDO
100
AcDbLine
 62
250
  6
CONTINUOUS
 10
-19.0640530533
 20
40.5093811665
 11
-19.0640530533
 21
63.8749158815
  0
LINE
  5
3F2
100
AcDbEntity
  8
RACCORDO
100
AcDbLine
 62
250
  6
CONTINUOUS
 10
-19.0
 20
-39.4693372752
 11
-19.0
 21
-39.693137755
  0
LINE
  5
3F3
100
AcDbEntity
  8
RACCORDO
100
AcDbLine
 62
250
  6
CONTINUOUS
 10
-19.0
 20
-0.5306627248
 11
-19.0
 21
-0.306862245
  0
LINE
  5
3F4
100
AcDbEntity
  8
RACCORDO
100
AcDbLine
 62
250
  6
CONTINUOUS
 10
-19.0
 20
-40.306862245
 11
-19.0
 21
-40.5306627248
  0
LINE
  5
3F5
100
AcDbEntity
  8
RACCORDO
100
AcDbLine
 62
250
  6
CONTINUOUS
 10
-19.0
 20
0.306862245
 11
-19.0
 21
0.5306627248
  0
LINE
  5
3F6
100
AcDbEntity
  8
RACCORDO
100
AcDbLine
 62
250
  6
CONTINUOUS
 10
-19.0
 20
39.4693372752
 11
-19.0
 21
39.693137755
  0
LINE
  5
3F7
100
AcDbEntity
  8
RACCORDO
100
AcDbLine
 62
250
  6
CONTINUOUS
 10
-19.0
 20
40.306862245
 11
-19.0
 21
40.5306627248
  0
LINE
  5
3F8
100
AcDbEntity
  8
DRAFT
100
AcDbLine
 62
250
  6
CONTINUOUS
 10
-18.67937941
 20
0.5506466324
 11
-18.679569196
 21
29.6725026089
  0
LINE
  5
3F9
100
AcDbEntity
  8
RACCORDO
100
AcDbLine
 62
7
  6
CONTINUOUS
 10
-18.3
 20
64.801218346
 11
-18.3
 21
-64.801218346
  0
LINE
  5
3FA
100
AcDbEntity
  8
RACCORDO
100
AcDbLine
 62
7
  6
CONTINUOUS
 10
-16.8127246754
 20
-64.9128008278
 11
-16.8127246754
 21
-54.8920237204
  0
LINE
  5
3FB
100
AcDbEntity
  8
DRAFT
100
AcDbLine
 62
7
  6
CONTINUOUS
 10
-16.8127246754
 20
-54.1079762796
 11
-16.8127246754
 21
-52.9409741574
  0
LINE
  5
3FC
100
AcDbEntity
  8
DRAFT
100
AcDbLine
 62
7
  6
CONTINUOUS
 10
-16.8127246754
 20
52.9409741574
 11
-16.8127246754
 21
54.1079762796
  0
LINE
  5
3FD
100
AcDbEntity
  8
RACCORDO
100
AcDbLine
 62
7
  6
CONTINUOUS
 10
-16.8127246754
 20
54.8920237204
 11
-16.8127246754
 21
64.9128008278
  0
LINE
  5
3FE
100
AcDbEntity
  8
DRAFT
100
AcDbLine
 62
7
  6
CONTINUOUS
 10
-16.8057426494
 20
-45.5664150497
 11
-16.8057426494
 21
-18.394686211
  0
LINE
  5
3FF
100
AcDbEntity
  8
DRAFT
100
AcDbLine
 62
7
  6
CONTINUOUS
 10
-16.8057426494
 20
-17.605313789
 11
-16.8057426494
 21
17.605313789
  0
LINE
  5
400
100
AcDbEntity
  8
DRAFT
100
AcDbLine
 62
7
  6
CONTINUOUS
 10
-16.8057426494
 20
18.394686211
 11
-16.8057426494
 21
45.5664150497
  0
LINE
  5
401
100
AcDbEntity
  8
RACCORDO
100
AcDbLine
 62
250
  6
CONTINUOUS
 10
-16.4999999985
 20
66.7875497669
 11
-16.4999999997
 21
66.8221346312
  0
LINE
  5
402
100
AcDbEntity
  8
RACCORDO
100
AcDbLine
 62
250
  6
CONTINUOUS
 10
-16.4999999361
 20
-66.7892270587
 11
-16.4999999901
 21
-66.822134669
  0
LINE
  5
403
100
AcDbEntity
  8
RACCORDO
100
AcDbLine
 62
7
  6
CONTINUOUS
 10
-16.9
 20
-65.0000761524
 11
-16.9
 21
65.0000761524
  0
LINE
  5
404
100
AcDbEntity
  8
DRAFT
100
AcDbLine
 62
250
  6
CONTINUOUS
 10
-18.682835539
 20
-33.2569724061
 11
-18.67937941
 21
-0.5506466324
  0
LWPOLYLINE
  5
405
100
AcDbEntity
  8
DRAFT
100
AcDbPolyline
 62
250
  6
CONTINUOUS
 90
3
 70
0
 10
-18.6976613726
 20
-39.4460173717
 10
-18.6937164973
 20
-38.1866621446
 10
-18.682835539
 20
-33.2569724061
  0
LINE
  5
406
100
AcDbEntity
  8
RACCORDO
100
AcDbLine
 62
7
  6
CONTINUOUS
 10
-16.899646913
 20
54.6739903683
 11
-16.8990936125
 21
54.7617399051
  0
LINE
  5
407
100
AcDbEntity
  8
RACCORDO
100
AcDbLine
 62
7
  6
CONTINUOUS
 10
-16.8996468787
 20
18.1739995927
 11
-16.8990935982
 21
18.2617419821
  0
LINE
  5
408
100
AcDbEntity
  8
RACCORDO
100
AcDbLine
 62
7
  6
CONTINUOUS
 10
-16.8996468869
 20
-17.8260026133
 11
-16.8990936016
 21
-17.7382585148
  0
LINE
  5
409
100
AcDbEntity
  8
RACCORDO
100
AcDbLine
 62
7
  6
CONTINUOUS
 10
-16.8996469163
 20
-54.3260105167
 11
-16.8990936139
 21
-54.2382602941
  0
LWPOLYLINE
  5
40A
100
AcDbEntity
  8
DRAFT
100
AcDbPolyline
 62
250
  6
CONTINUOUS
 90
10
 70
0
 10
-18.8707757132
 20
-63.8745367684
 10
-18.8423374433
 20
-61.1309652778
 10
-18.8163782035
 20
-58.4254012992
 10
-18.7928979939
 20
-55.7578448324
 10
-18.7719902643
 20
-53.1281493141
 10
-18.7535615649
 20
-50.5364613076
 10
-18.7373315458
 20
-47.9832205035
 10
-18.7232067572
 20
-45.4685734654
 10
-18.711280649
 20
-42.9923736296
 10
-18.7015532212
 20
-40.5546209963
  0
LWPOLYLINE
  5
40B
100
AcDbEntity
  8
RACCORDO
100
AcDbPolyline
 62
7
  6
CONTINUOUS
 90
7
 70
0
 10
-16.8990936125
 20
54.7617399051
 10
-16.8985167964
 20
54.8073131044
 10
-16.8981656907
 20
54.8255254348
 10
-16.8977935776
 20
54.8398388213
 10
-16.897406697
 20
54.8499613081
 10
-16.896998809
 20
54.8561848511
 10
-16.8965699136
 20
54.8585094503
  0
LWPOLYLINE
  5
40C
100
AcDbEntity
  8
RACCORDO
100
AcDbPolyline
 62
7
  6
CONTINUOUS
 90
7
 70
0
 10
-16.8990935982
 20
18.2617419821
 10
-16.8985167923
 20
18.3073130025
 10
-16.8981656835
 20
18.325525533
 10
-16.8977935688
 20
18.3398391008
 10
-16.8974066897
 20
18.3499615133
 10
-16.8969988046
 20
18.3561849631
 10
-16.8965699136
 20
18.3585094503
  0
LWPOLYLINE
  5
40D
100
AcDbEntity
  8
RACCORDO
100
AcDbPolyline
 62
7
  6
CONTINUOUS
 90
7
 70
0
 10
-16.8990936016
 20
-17.7382585148
 10
-16.8985167933
 20
-17.6926869732
 10
-16.8981656852
 20
-17.6744744906
 10
-16.8977935709
 20
-17.6601609661
 10
-16.8974066914
 20
-17.6500385358
 10
-16.8969988056
 20
-17.6438150637
 10
-16.8965699136
 20
-17.6414905497
  0
LWPOLYLINE
  5
40E
100
AcDbEntity
  8
RACCORDO
100
AcDbPolyline
 62
7
  6
CONTINUOUS
 90
7
 70
0
 10
-16.8990936139
 20
-54.2382602941
 10
-16.8985167968
 20
-54.1926868858
 10
-16.8981656914
 20
-54.1744745746
 10
-16.8977935785
 20
-54.1601612055
 10
-16.8974066977
 20
-54.1500387115
 10
-16.8969988094
 20
-54.1438151596
 10
-16.8965699136
 20
-54.1414905497
  0
LWPOLYLINE
  5
40F
100
AcDbEntity
  8
DRAFT
100
AcDbPolyline
 62
250
  6
CONTINUOUS
 90
19
 70
0
 10
-18.8707788826
 20
63.8746467565
 10
-18.8611816826
 20
64.1676380202
 10
-18.8319590866
 20
64.4593659632
 10
-18.7832356871
 20
64.7485168651
 10
-18.7152226946
 20
65.0337947414
 10
-18.62821996
 20
65.3139065615
 10
-18.5226192303
 20
65.5875690621
 10
-18.3988966976
 20
65.8535441686
 10
-18.2576048862
 20
66.1106373244
 10
-18.0993776783
 20
66.3576827341
 10
-17.9249292072
 20
66.593562109
 10
-17.7350429376
 20
66.8172155939
 10
-17.5305665092
 20
67.0276386919
 10
-17.3124142698
 20
67.2238856655
 10
-17.0815727539
 20
67.4050637465
 10
-16.8390915899
 20
67.5703438723
 10
-16.5860684192
 20
67.7189775355
 10
-16.3236415098
 20
67.8502980641
 10
-16.0529947577
 20
67.963713503
  0
LINE
  5
410
100
AcDbEntity
  8
0
100
AcDbLine
 62
7
  6
CONTINUOUS
 10
-3.677082
 20
58.673223
 11
-2.976292
 21
61.37224
  0
LINE
  5
411
100
AcDbEntity
  8
0
100
AcDbLine
 62
7
  6
CONTINUOUS
 10
-2.834726
 20
61.917466
 11
-2.625976
 21
62.721445
  0
LINE
  5
412
100
AcDbEntity
  8
0
100
AcDbLine
 62
7
  6
CONTINUOUS
 10
-2.5711974052
 20
61.0858344394
 11
-3.053367
 21
59.228809
  0
LINE
  5
413
100
AcDbEntity
  8
0
100
AcDbLine
 62
7
  6
CONTINUOUS
 10
-2.225755
 20
59.252172
 11
-1.7836867824
 21
60.954748838
  0
LINE
  5
414
100
AcDbEntity
  8
0
100
AcDbLine
 62
7
  6
CONTINUOUS
 10
-1.314124
 20
61.089171
 11
-1.8674867378
 21
58.95795301
  0
LINE
  5
415
100
AcDbEntity
  8
0
100
AcDbLine
 62
7
  6
CONTINUOUS
 10
-3.937899
 20
60.954748
 11
-4.538471
 21
58.673223
  0
LINE
  5
416
100
AcDbEntity
  8
0
100
AcDbLine
 62
7
  6
CONTINUOUS
 10
-3.781455
 20
61.506433
 11
-3.569449
 21
62.311826
  0
LINE
  5
417
100
AcDbEntity
  8
0
100
AcDbLine
 62
7
  6
CONTINUOUS
 10
-1.225051
 20
61.37224
 11
-0.967296
 21
62.322079
  0
LINE
  5
418
100
AcDbEntity
  8
0
100
AcDbLine
 62
7
  6
CONTINUOUS
 10
-0.224196
 20
57.8578391459
 11
-0.747089
 21
56.0892836654
  0
LINE
  5
419
100
AcDbEntity
  8
0
100
AcDbLine
 62
7
  6
CONTINUOUS
 10
-0.467089
 20
55.1421540651
 11
0.062377
 21
56.9329636391
  0
LWPOLYLINE
  5
41A
100
AcDbEntity
  8
0
100
AcDbPolyline
 62
7
  6
CONTINUOUS
 90
7
 70
0
 10
0.6786706558
 20
59.0166506171
 10
0.6847939816
 20
59.0351743403
 10
0.6889536069
 20
59.0551369282
 10
0.6933896867
 20
59.0753553799
 10
0.6988489393
 20
59.0954353617
 10
0.7045846464
 20
59.1157712073
 10
0.710596808
 20
59.1363629166
  0
LINE
  5
41B
100
AcDbEntity
  8
0
100
AcDbLine
 62
7
  6
CONTINUOUS
 10
1.894767
 20
57.8578459349
 11
0.99575
 21
55.1421472762
  0
LWPOLYLINE
  5
41C
100
AcDbEntity
  8
RACCORDO
100
AcDbPolyline
 62
250
  6
CONTINUOUS
 90
13
 70
0
 10
4.0909503497
 20
68.4089831112
 10
4.0752462187
 20
68.3621899961
 10
4.0672945657
 20
68.3133634744
 10
4.0673121908
 20
68.2638347914
 10
4.0752986136
 20
68.2149543364
 10
4.0910360858
 20
68.1680548251
 10
4.1140955286
 20
68.1244149631
 10
4.1438482309
 20
68.0852245822
 10
4.1794829914
 20
68.0515522002
 10
4.2200282358
 20
68.0243158877
 10
4.2643785061
 20
68.0042582371
 10
4.3113246015
 20
67.9919261163
 10
4.3595865462
 20
67.9876557579
  0
LWPOLYLINE
  5
41D
100
AcDbEntity
  8
RACCORDO
100
AcDbPolyline
 62
250
  6
CONTINUOUS
 90
9
 70
0
 10
5.3221611039
 20
70.6226383373
 10
5.3365314682
 20
70.6625703393
 10
5.3549473676
 20
70.6981350993
 10
5.3770151341
 20
70.729368872
 10
5.4030161135
 20
70.7566224418
 10
5.4324626661
 20
70.7791976195
 10
5.4638416082
 20
70.7959461355
 10
5.4965292164
 20
70.8066905058
 10
5.5230856702
 20
70.8109643204
  0
LWPOLYLINE
  5
41E
100
AcDbEntity
  8
RACCORDO
100
AcDbPolyline
 62
250
  6
CONTINUOUS
 90
13
 70
0
 10
4.1856088595
 20
68.4281307093
 10
4.1678012181
 20
68.3805197217
 10
4.1578478834
 20
68.3311083336
 10
4.1559045019
 20
68.2809153336
 10
4.1623877327
 20
68.2311026464
 10
4.1772676363
 20
68.1827225781
 10
4.1998467461
 20
68.1371944131
 10
4.2294100058
 20
68.0964609686
 10
4.2652637327
 20
68.061588493
 10
4.3063835894
 20
68.0331152973
 10
4.351655892
 20
68.0120126478
 10
4.3996354431
 20
67.9991867143
 10
4.4487217409
 20
67.9948548727
  0
LWPOLYLINE
  5
41F
100
AcDbEntity
  8
RACCORDO
100
AcDbPolyline
 62
7
  6
CONTINUOUS
 90
3
 70
0
 10
19.3624096219
 20
39.693137755
 10
19.3292147268
 20
39.6664787786
 10
19.2677845316
 20
39.6163842634
  0
LWPOLYLINE
  5
420
100
AcDbEntity
  8
RACCORDO
100
AcDbPolyline
 62
7
  6
CONTINUOUS
 90
10
 70
0
 10
19.2677845316
 20
39.6163842634
 10
19.2394988593
 20
39.593874261
 10
19.2128663853
 20
39.5733093768
 10
19.1880382262
 20
39.5544676399
 10
19.1648843723
 20
39.5375793038
 10
19.1435348333
 20
39.523053552
 10
19.1245307556
 20
39.5110796482
 10
19.1080525211
 20
39.5019371948
 10
19.0939197478
 20
39.4959235785
 10
19.0821324356
 20
39.4932595896
  0
LINE
  5
421
100
AcDbEntity
  8
RACCORDO
100
AcDbLine
 62
7
  6
CONTINUOUS
 10
19.329220939
 20
-39.6664840104
 11
19.3624096219
 21
-39.693137755
  0
LWPOLYLINE
  5
422
100
AcDbEntity
  8
RACCORDO
100
AcDbPolyline
 62
250
  6
CONTINUOUS
 90
13
 70
0
 10
4.1856091198
 20
-68.4281306955
 10
4.167801534
 20
-68.3805199032
 10
4.157848193
 20
-68.3311087215
 10
4.1559047411
 20
-68.2809159231
 10
4.1623878297
 20
-68.2311034329
 10
4.1772675226
 20
-68.1827235242
 10
4.1998463995
 20
-68.1371954136
 10
4.2294094483
 20
-68.0964619136
 10
4.26526302
 20
-68.0615892911
 10
4.3063828485
 20
-68.033115863
 10
4.3516552936
 20
-68.0120129522
 10
4.3996351507
 20
-67.9991868085
 10
4.4487218964
 20
-67.9948548728
  0
LWPOLYLINE
  5
423
100
AcDbEntity
  8
RACCORDO
100
AcDbPolyline
 62
250
  6
CONTINUOUS
 90
10
 70
0
 10
5.0145231534
 20
-70.5622060511
 10
4.9371541762
 20
-70.3504489397
 10
4.8583287123
 20
-70.1449825564
 10
4.7785235964
 20
-69.945806901
 10
4.6979076647
 20
-69.7531749955
 10
4.6172238174
 20
-69.5668338179
 10
4.5375703496
 20
-69.3860243024
 10
4.4593252702
 20
-69.2107469239
 10
4.3824384355
 20
-69.0410012073
 10
4.2333208893
 20
-68.7155697889
  0
LWPOLYLINE
  5
424
100
AcDbEntity
  8
RACCORDO
100
AcDbPolyline
 62
250
  6
CONTINUOUS
 90
9
 70
0
 10
5.3221619798
 20
-70.6226378918
 10
5.3365321252
 20
-70.662569396
 10
5.3549477514
 20
-70.6981338776
 10
5.3770152097
 20
-70.7293675472
 10
5.4030157236
 20
-70.7566210828
 10
5.4324617477
 20
-70.7791963501
 10
5.4638404812
 20
-70.7959451925
 10
5.4965283534
 20
-70.8066900082
 10
5.5230838568
 20
-70.8109639758
  0
LWPOLYLINE
  5
425
100
AcDbEntity
  8
RACCORDO
100
AcDbPolyline
 62
250
  6
CONTINUOUS
 90
13
 70
0
 10
4.0909189416
 20
-68.4089929414
 10
4.0752127156
 20
-68.3621996954
 10
4.0672600343
 20
-68.313372423
 10
4.0672777654
 20
-68.2638426245
 10
4.0752654267
 20
-68.2149609576
 10
4.091005199
 20
-68.1680604056
 10
4.1140678658
 20
-68.1244199279
 10
4.1438245183
 20
-68.0852295828
 10
4.179463706
 20
-68.0515580752
 10
4.2200135639
 20
-68.0243236132
 10
4.264368315
 20
-68.0042688697
 10
4.311318424
 20
-67.9919407298
 10
4.3595835814
 20
-67.987675377
  0
LINE
  5
426
100
AcDbEntity
  8
DRAFT
100
AcDbLine
 62
7
  6
CONTINUOUS
 10
-10.6529294261
 20
-67.7219258624
 11
-10.6446518088
 21
-67.9276961318
  0
LWPOLYLINE
  5
427
100
AcDbEntity
  8
DRAFT
100
AcDbPolyline
 62
7
  6
CONTINUOUS
 90
28
 70
0
 10
-9.3356316563
 20
-67.5
 10
-9.3385194351
 20
-67.4161706853
 10
-9.3518757452
 20
-67.3343421236
 10
-9.375087774
 20
-67.2557905315
 10
-9.4074286197
 20
-67.181604593
 10
-9.4480117849
 20
-67.112823193
 10
-9.4957633032
 20
-67.0503929092
 10
-9.5493323587
 20
-66.9952075767
 10
-9.6078670814
 20
-66.9473836469
 10
-9.6711783945
 20
-66.9066812981
 10
-9.738534743
 20
-66.8734574535
 10
-9.8088626516
 20
-66.8481449308
 10
-9.8816944018
 20
-66.8308585221
 10
-9.9561296527
 20
-66.8218437132
 10
-10.0311810149
 20
-66.821257641
 10
-10.1062666528
 20
-66.829201194
 10
-10.1804715916
 20
-66.8457411383
 10
-10.2526847064
 20
-66.8707987381
 10
-10.3219877516
 20
-66.9042446732
 10
-10.3872620947
 20
-66.9457213664
 10
-10.4476019498
 20
-66.994841383
 10
-10.5023257687
 20
-67.0513854736
 10
-10.5505489195
 20
-67.1149884906
 10
-10.5910948909
 20
-67.1846936332
 10
-10.6229543846
 20
-67.2592198892
 10
-10.6454513395
 20
-67.3373545421
 10
-10.6581213739
 20
-67.4180348899
 10
-10.6606005016
 20
-67.5
  0
LINE
  5
428
100
AcDbEntity
  8
DRAFT
100
AcDbLine
 62
7
  6
CONTINUOUS
 10
-10.6606004959
 20
-67.5
 11
-10.6529294261
 21
-67.7219258624
  0
LINE
  5
429
100
AcDbEntity
  8
RACCORDO
100
AcDbLine
 62
250
  6
CONTINUOUS
 10
-14.2553309802
 20
-49.7981585735
 11
-14.2514035893
 21
-50.9998361627
  0
LINE
  5
42A
100
AcDbEntity
  8
RACCORDO
100
AcDbLine
 62
250
  6
CONTINUOUS
 10
-14.2768496313
 20
-41.457635495
 11
-14.2553309802
 21
-49.7981585735
  0
LINE
  5
42B
100
AcDbEntity
  8
RACCORDO
100
AcDbLine
 62
250
  6
CONTINUOUS
 10
-14.2873321641
 20
-33.8564092998
 11
-14.2768496313
 21
-41.457635495
  0
LINE
  5
42C
100
AcDbEntity
  8
RACCORDO
100
AcDbLine
 62
250
  6
CONTINUOUS
 10
-14.2894908488
 20
-28.5
 11
-14.2873321641
 21
-33.8564092998
  0
LINE
  5
42D
100
AcDbEntity
  8
RACCORDO
100
AcDbLine
 62
7
  6
CONTINUOUS
 10
-15.25
 20
-65.4300274238
 11
-15.25
 21
-61.9918713663
  0
LINE
  5
42E
100
AcDbEntity
  8
0
100
AcDbLine
 62
7
  6
CONTINUOUS
 10
-15.25
 20
-6.0
 11
-15.25
 21
-61.9918713663
  0
LINE
  5
42F
100
AcDbEntity
  8
RACCORDO
100
AcDbLine
 62
7
  6
CONTINUOUS
 10
-15.25
 20
-6.0
 11
-15.25
 21
6.0
  0
LINE
  5
430
100
AcDbEntity
  8
0
100
AcDbLine
 62
7
  6
CONTINUOUS
 10
-15.25
 20
6.0
 11
-15.25
 21
61.9918713663
  0
LINE
  5
431
100
AcDbEntity
  8
RACCORDO
100
AcDbLine
 62
7
  6
CONTINUOUS
 10
-15.25
 20
61.9918713663
 11
-15.25
 21
65.4300274238
  0
LINE
  5
432
100
AcDbEntity
  8
0
100
AcDbLine
 62
7
  6
CONTINUOUS
 10
-14.3
 20
51.0
 11
-14.3
 21
6.0
  0
LINE
  5
433
100
AcDbEntity
  8
0
100
AcDbLine
 62
7
  6
CONTINUOUS
 10
-14.3
 20
-6.0
 11
-14.3
 21
-51.0
  0
LINE
  5
434
100
AcDbEntity
  8
RACCORDO
100
AcDbLine
 62
250
  6
CONTINUOUS
 10
-14.25
 20
-6.0
 11
-14.25
 21
6.0
  0
LINE
  5
435
100
AcDbEntity
  8
RACCORDO
100
AcDbLine
 62
250
  6
CONTINUOUS
 10
-14.124832484
 20
-51.0
 11
-14.124832484
 21
-6.0
  0
LINE
  5
436
100
AcDbEntity
  8
RACCORDO
100
AcDbLine
 62
250
  6
CONTINUOUS
 10
-14.124832484
 20
6.0
 11
-14.124832484
 21
51.0
  0
LINE
  5
437
100
AcDbEntity
  8
RACCORDO
100
AcDbLine
 62
250
  6
CONTINUOUS
 10
-13.6255177166
 20
-51.0
 11
-13.6255177166
 21
-6.0
  0
LINE
  5
438
100
AcDbEntity
  8
RACCORDO
100
AcDbLine
 62
250
  6
CONTINUOUS
 10
-13.6255177166
 20
6.0
 11
-13.6255177166
 21
51.0
  0
LINE
  5
439
100
AcDbEntity
  8
RACCORDO
100
AcDbLine
 62
250
  6
CONTINUOUS
 10
-13.2268900626
 20
-51.0
 11
-13.2268900626
 21
-6.0
  0
LINE
  5
43A
100
AcDbEntity
  8
RACCORDO
100
AcDbLine
 62
250
  6
CONTINUOUS
 10
-13.2268900626
 20
6.0
 11
-13.2268900626
 21
51.0
  0
LINE
  5
43B
100
AcDbEntity
  8
DRAFT
100
AcDbLine
 62
7
  6
CONTINUOUS
 10
-13.0
 20
65.5
 11
-13.0
 21
65.2
  0
LINE
  5
43C
100
AcDbEntity
  8
0
100
AcDbLine
 62
7
  6
CONTINUOUS
 10
-13.0
 20
65.2
 11
-13.0
 21
64.5
  0
LINE
  5
43D
100
AcDbEntity
  8
DRAFT
100
AcDbLine
 62
7
  6
CONTINUOUS
 10
-13.0
 20
-65.5
 11
-13.0
 21
-65.2
  0
LINE
  5
43E
100
AcDbEntity
  8
0
100
AcDbLine
 62
7
  6
CONTINUOUS
 10
-13.0
 20
-65.2
 11
-13.0
 21
-64.5
  0
LINE
  5
43F
100
AcDbEntity
  8
RACCORDO
100
AcDbLine
 62
7
  6
CONTINUOUS
 10
-13.0
 20
-64.5
 11
-13.0
 21
-62.5
  0
LINE
  5
440
100
AcDbEntity
  8
RACCORDO
100
AcDbLine
 62
7
  6
CONTINUOUS
 10
-13.0
 20
62.5
 11
-13.0
 21
64.5
  0
LINE
  5
441
100
AcDbEntity
  8
RACCORDO
100
AcDbLine
 62
7
  6
CONTINUOUS
 10
-12.7268900626
 20
-51.0
 11
-12.7268900626
 21
-6.0
  0
LINE
  5
442
100
AcDbEntity
  8
RACCORDO
100
AcDbLine
 62
7
  6
CONTINUOUS
 10
-12.7268900626
 20
6.0
 11
-12.7268900626
 21
51.0
  0
LINE
  5
443
100
AcDbEntity
  8
0
100
AcDbLine
 62
7
  6
CONTINUOUS
 10
-12.1301832225
 20
-63.0
 11
-12.1301832225
 21
-63.521198
  0
LINE
  5
444
100
AcDbEntity
  8
0
100
AcDbLine
 62
7
  6
CONTINUOUS
 10
-12.1160579778
 20
-63.7432607722
 11
-12.1160579778
 21
-64.0631297722
  0
LINE
  5
445
100
AcDbEntity
  8
0
100
AcDbLine
 62
7
  6
CONTINUOUS
 10
-11.8421552225
 20
-63.0
 11
-11.8421552225
 21
-64.2771364302
  0
LINE
  5
446
100
AcDbEntity
  8
RACCORDO
100
AcDbLine
 62
250
  6
CONTINUOUS
 10
-10.5067404104
 20
-68.0145319927
 11
-10.5067404104
 21
-67.5
  0
LINE
  5
447
100
AcDbEntity
  8
RACCORDO
100
AcDbLine
 62
250
  6
CONTINUOUS
 10
-10.5067404104
 20
67.5
 11
-10.5067404104
 21
68.0145319927
  0
LINE
  5
448
100
AcDbEntity
  8
DRAFT
100
AcDbLine
 62
7
  6
CONTINUOUS
 10
-10.5
 20
55.2875314147
 11
-10.5
 21
55.2059230783
  0
LINE
  5
449
100
AcDbEntity
  8
DRAFT
100
AcDbLine
 62
7
  6
CONTINUOUS
 10
-10.5
 20
-55.2059230783
 11
-10.5
 21
-55.2875314147
  0
LINE
  5
44A
100
AcDbEntity
  8
DRAFT
100
AcDbLine
 62
7
  6
CONTINUOUS
 10
-10.5
 20
-59.7194598052
 11
-10.5
 21
-59.7940769217
  0
LINE
  5
44B
100
AcDbEntity
  8
DRAFT
100
AcDbLine
 62
7
  6
CONTINUOUS
 10
-10.5
 20
59.7194598052
 11
-10.5
 21
59.7940769217
  0
LINE
  5
44C
100
AcDbEntity
  8
0
100
AcDbLine
 62
7
  6
CONTINUOUS
 10
-10.4317674605
 20
-63.0
 11
-10.4317674605
 21
-64.2771364302
  0
LINE
  5
44D
100
AcDbEntity
  8
RACCORDO
100
AcDbLine
 62
250
  6
CONTINUOUS
 10
-14.2838944062
 20
37.1174403853
 11
-14.2894908488
 21
28.5
  0
LINE
  5
44E
100
AcDbEntity
  8
RACCORDO
100
AcDbLine
 62
250
  6
CONTINUOUS
 10
-14.2618350851
 20
47.6638932578
 11
-14.2838944062
 21
37.1174403853
  0
LINE
  5
44F
100
AcDbEntity
  8
RACCORDO
100
AcDbLine
 62
250
  6
CONTINUOUS
 10
-14.2514047215
 20
50.9998361792
 11
-14.2618350851
 21
47.6638932578
  0
LINE
  5
450
100
AcDbEntity
  8
DRAFT
100
AcDbLine
 62
7
  6
CONTINUOUS
 10
-10.652919335
 20
67.72219636
 11
-10.6606004905
 21
67.5
  0
LINE
  5
451
100
AcDbEntity
  8
DRAFT
100
AcDbLine
 62
7
  6
CONTINUOUS
 10
-10.644651798
 20
67.9276961372
 11
-10.652919335
 21
67.72219636
  0
LWPOLYLINE
  5
452
100
AcDbEntity
  8
RACCORDO
100
AcDbPolyline
 62
250
  6
CONTINUOUS
 90
9
 70
0
 10
5.0147461354
 20
70.5622111521
 10
5.0258149652
 20
70.6067266163
 10
5.0424226414
 20
70.6482495272
 10
5.0641577651
 20
70.6857512706
 10
5.0904819192
 20
70.7183028456
 10
5.1207430057
 20
70.7450978781
 10
5.1541914
 20
70.7654725965
 10
5.1899985205
 20
70.7789222743
 10
5.2225587779
 20
70.7847428643
  0
LINE
  5
453
100
AcDbEntity
  8
0
100
AcDbLine
 62
7
  6
CONTINUOUS
 10
-1.098544
 20
58.673223
 11
-0.047438
 21
62.721445
  0
LINE
  5
454
100
AcDbEntity
  8
0
100
AcDbLine
 62
7
  6
CONTINUOUS
 10
-0.0226387191
 20
61.1261002303
 11
-0.543191
 21
59.121247
  0
LINE
  5
455
100
AcDbEntity
  8
0
100
AcDbLine
 62
7
  6
CONTINUOUS
 10
0.470869
 20
59.849216
 11
0.7437065145
 21
60.9000231302
  0
LINE
  5
456
100
AcDbEntity
  8
0
100
AcDbLine
 62
7
  6
CONTINUOUS
 10
1.199639
 20
61.081433
 11
0.93164
 21
60.049265
  0
LINE
  5
457
100
AcDbEntity
  8
0
100
AcDbLine
 62
7
  6
CONTINUOUS
 10
1.5084405698
 20
58.995121343
 11
1.651139
 21
59.544709
  0
LINE
  5
458
100
AcDbEntity
  8
0
100
AcDbLine
 62
7
  6
CONTINUOUS
 10
1.785395
 20
60.06178
 11
1.971717
 21
60.779381
  0
LINE
  5
459
100
AcDbEntity
  8
0
100
AcDbLine
 62
7
  6
CONTINUOUS
 10
2.107451
 20
59.742821
 11
1.9700709885
 21
59.2137179558
  0
LINE
  5
45A
100
AcDbEntity
  8
0
100
AcDbLine
 62
7
  6
CONTINUOUS
 10
2.4313347015
 20
60.9902214502
 11
2.241707
 21
60.259892
  0
LINE
  5
45B
100
AcDbEntity
  8
0
100
AcDbLine
 62
7
  6
CONTINUOUS
 10
2.841345
 20
59.315103
 11
2.966078
 21
59.7955
  0
LINE
  5
45C
100
AcDbEntity
  8
0
100
AcDbLine
 62
7
  6
CONTINUOUS
 10
3.7039540621
 20
61.0943802393
 11
3.511277
 21
60.352307
  0
LINE
  5
45D
100
AcDbEntity
  8
0
100
AcDbLine
 62
7
  6
CONTINUOUS
 10
3.417604
 20
59.991534
 11
3.142716128
 21
58.932834493
  0
LINE
  5
45E
100
AcDbEntity
  8
0
100
AcDbLine
 62
7
  6
CONTINUOUS
 10
3.962178
 20
58.673223
 11
4.538471
 21
60.892752
  0
LINE
  5
45F
100
AcDbEntity
  8
0
100
AcDbLine
 62
7
  6
CONTINUOUS
 10
1.555771
 20
55.1421540651
 11
1.73257
 21
55.6762115741
  0
LINE
  5
460
100
AcDbEntity
  8
0
100
AcDbLine
 62
7
  6
CONTINUOUS
 10
1.903391
 20
56.192190178
 11
2.174788
 21
57.0120478168
  0
LWPOLYLINE
  5
461
100
AcDbEntity
  8
RACCORDO
100
AcDbPolyline
 62
7
  6
CONTINUOUS
 90
3
 70
0
 10
-19.3624096219
 20
0.306862245
 10
-19.3292147268
 20
0.3335212214
 10
-19.2677845316
 20
0.3836157366
  0
LWPOLYLINE
  5
462
100
AcDbEntity
  8
RACCORDO
100
AcDbPolyline
 62
7
  6
CONTINUOUS
 90
10
 70
0
 10
-19.2677845316
 20
0.3836157366
 10
-19.2394988593
 20
0.406125739
 10
-19.2128663853
 20
0.4266906232
 10
-19.1880382262
 20
0.4455323601
 10
-19.1648843723
 20
0.4624206962
 10
-19.1435348333
 20
0.476946448
 10
-19.1245307556
 20
0.4889203518
 10
-19.1080525211
 20
0.4980628052
 10
-19.0939197478
 20
0.5040764215
 10
-19.0821324356
 20
0.5067404104
  0
LWPOLYLINE
  5
463
100
AcDbEntity
  8
RACCORDO
100
AcDbPolyline
 62
7
  6
CONTINUOUS
 90
3
 70
0
 10
16.8057426494
 20
17.605313789
 10
16.8158978989
 20
17.6091905747
 10
16.8361612236
 20
17.6170487852
  0
LINE
  5
464
100
AcDbEntity
  8
RACCORDO
100
AcDbLine
 62
7
  6
CONTINUOUS
 10
16.8057426494
 20
-17.605313789
 11
16.8158978989
 21
-17.6091905747
  0
LWPOLYLINE
  5
465
100
AcDbEntity
  8
RACCORDO
100
AcDbPolyline
 62
7
  6
CONTINUOUS
 90
3
 70
0
 10
-19.2677968266
 20
-0.3836059032
 10
-19.3292209391
 20
-0.3335159896
 10
-19.3624096219
 20
-0.306862245
  0
LINE
  5
466
100
AcDbEntity
  8
0
100
AcDbLine
 62
7
  6
CONTINUOUS
 10
5.22919
 20
-53.7758770483
 11
4.649709
 21
-52.2241229517
  0
LINE
  5
467
100
AcDbEntity
  8
0
100
AcDbLine
 62
7
  6
CONTINUOUS
 10
4.834696
 20
-53.3242176819
 11
4.99291
 21
-53.7758770483
  0
LINE
  5
468
100
AcDbEntity
  8
0
100
AcDbLine
 62
7
  6
CONTINUOUS
 10
4.518293
 20
-52.4492029437
 11
4.756682
 21
-53.1383592445
  0
LWPOLYLINE
  5
469
100
AcDbEntity
  8
RACCORDO
100
AcDbPolyline
 62
250
  6
CONTINUOUS
 90
9
 70
0
 10
5.0147328668
 20
-70.562248066
 10
5.0258199053
 20
-70.6068016531
 10
5.0424562543
 20
-70.6483548016
 10
5.0642289511
 20
-70.685876086
 10
5.0905975341
 20
-70.718434162
 10
5.1209074787
 20
-70.7452209043
 10
5.1544064521
 20
-70.7655714515
 10
5.1902629579
 20
-70.7789806845
 10
5.2231416571
 20
-70.7847774744
  0
LWPOLYLINE
  5
46A
100
AcDbEntity
  8
0
100
AcDbPolyline
 62
7
  6
CONTINUOUS
 90
15
 70
0
 10
-3.273802273
 20
-52.9070737314
 10
-3.2833456836
 20
-52.8190645871
 10
-3.2997472549
 20
-52.7359725671
 10
-3.3233286149
 20
-52.6572380623
 10
-3.3537681357
 20
-52.5834206818
 10
-3.3901009337
 20
-52.5161992525
 10
-3.4324767764
 20
-52.4560133289
 10
-3.4807458961
 20
-52.4024233566
 10
-3.5334941062
 20
-52.3557894994
 10
-3.5904226163
 20
-52.3161822618
 10
-3.6518302167
 20
-52.2835311394
 10
-3.7171990913
 20
-52.2579847822
 10
-3.7863566348
 20
-52.2395927402
 10
-3.8594754526
 20
-52.2283054633
 10
-3.9365555446
 20
-52.2241229517
  0
LWPOLYLINE
  5
46B
100
AcDbEntity
  8
ASSI
100
AcDbPolyline
 62
7
  6
CONTINUOUS
 90
17
 70
0
 10
-2.0220449268
 20
-57.5448605984
 10
-2.0044307037
 20
-57.7373151876
 10
-1.9668504119
 20
-57.9271691218
 10
-1.9098178217
 20
-58.1144719763
 10
-1.8348070854
 20
-58.2938908376
 10
-1.7412853094
 20
-58.4652622202
 10
-1.6297853871
 20
-58.6287496095
 10
-1.5033801517
 20
-58.7795105478
 10
-1.361579316
 20
-58.9172145195
 10
-1.2048731672
 20
-59.0421920403
 10
-1.0378053989
 20
-59.1505921995
 10
-0.8599640917
 20
-59.2418874492
 10
-0.671761165
 20
-59.3166053373
 10
-0.4789760718
 20
-59.3724775972
 10
-0.2835352961
 20
-59.40874814
 10
-0.0835123537
 20
-59.4261730546
 10
0.1210927554
 20
-59.424752341
  0
LWPOLYLINE
  5
46C
100
AcDbEntity
  8
ASSI
100
AcDbPolyline
 62
7
  6
CONTINUOUS
 90
11
 70
0
 10
-1.5193249441
 20
-57.512820198
 10
-1.5065872153
 20
-57.663000648
 10
-1.4776648749
 20
-57.8111528699
 10
-1.4330144938
 20
-57.9573143444
 10
-1.3739086157
 20
-58.0969104882
 10
-1.2998112329
 20
-58.2297605168
 10
-1.2112583532
 20
-58.3560452148
 10
-1.1111305431
 20
-58.4717323527
 10
-1.0003879915
 20
-58.5754778543
 10
-0.8780705095
 20
-58.6686257958
 10
-0.7441780971
 20
-58.7511761774
  0
LWPOLYLINE
  5
46D
100
AcDbEntity
  8
INCISIONI
100
AcDbPolyline
 62
7
  6
CONTINUOUS
 90
13
 70
0
 10
-4.8152430759
 20
-63.0610021562
 10
-4.8192506339
 20
-62.9928173519
 10
-4.8300265246
 20
-62.9296075034
 10
-4.8475707479
 20
-62.8713726108
 10
-4.8720015076
 20
-62.8178592811
 10
-4.9032005999
 20
-62.7693209072
 10
-4.9408134138
 20
-62.7265176684
 10
-4.9851356815
 20
-62.6894448255
 10
-5.0358716708
 20
-62.6581071175
 10
-5.0917795747
 20
-62.6332789413
 10
-5.1524454573
 20
-62.6152184291
 10
-5.2182832545
 20
-62.6036674487
 10
-5.2892929662
 20
-62.598626
  0
LINE
  5
46E
100
AcDbEntity
  8
0
100
AcDbLine
 62
7
  6
CONTINUOUS
 10
-3.2709432393
 20
-52.9811450956
 11
-3.273802273
 21
-52.9070737314
  0
LINE
  5
46F
100
AcDbEntity
  8
DRAFT
100
AcDbLine
 62
7
  6
CONTINUOUS
 10
-9.3425956576
 20
67.7195799649
 11
-9.3501336181
 21
67.9250896396
  0
LWPOLYLINE
  5
470
100
AcDbEntity
  8
DRAFT
100
AcDbPolyline
 62
7
  6
CONTINUOUS
 90
28
 70
0
 10
-10.6606005007
 20
67.5
 10
-10.6580269231
 20
67.4170447092
 10
-10.645054004
 20
67.335577352
 10
-10.6221192517
 20
67.2568883849
 10
-10.58974342
 20
67.1820195977
 10
-10.548687009
 20
67.1122146995
 10
-10.5001070336
 20
67.0488143947
 10
-10.4453211197
 20
66.9927579269
 10
-10.385240151
 20
66.9442700127
 10
-10.3205064312
 20
66.9034231353
 10
-10.2521808745
 20
66.870588033
 10
-10.1812388864
 20
66.8459561146
 10
-10.1080037358
 20
66.8294876528
 10
-10.0332953087
 20
66.8213651963
 10
-9.9582172866
 20
66.8217126643
 10
-9.8834567291
 20
66.8305460548
 10
-9.8099597172
 20
66.8478212447
 10
-9.7387397695
 20
66.8733717129
 10
-9.670598961
 20
66.907009388
 10
-9.6066847302
 20
66.9482448749
 10
-9.5476954893
 20
66.9967149105
 10
-9.4939264381
 20
67.052528357
 10
-9.4461798264
 20
67.1155541502
 10
-9.405805364
 20
67.1848067367
 10
-9.3739193698
 20
67.2590220499
 10
-9.3512673718
 20
67.3370092198
 10
-9.3383604377
 20
67.4177510691
 10
-9.3356316682
 20
67.5
  0
LINE
  5
471
100
AcDbEntity
  8
DRAFT
100
AcDbLine
 62
7
  6
CONTINUOUS
 10
-9.3356316707
 20
67.5
 11
-9.3425956576
 21
67.7195799649
  0
LWPOLYLINE
  5
472
100
AcDbEntity
  8
INCISIONI
100
AcDbPolyline
 62
7
  6
CONTINUOUS
 90
13
 70
0
 10
-5.0379323079
 20
-63.0610021562
 10
-5.0378249959
 20
-63.1014855173
 10
-5.0427875151
 20
-63.1395252852
 10
-5.0528198655
 20
-63.1751214599
 10
-5.0679229698
 20
-63.2088218804
 10
-5.0880959052
 20
-63.2400787076
 10
-5.1133359037
 20
-63.2672484248
 10
-5.1442838312
 20
-63.289884022
 10
-5.1802988217
 20
-63.308432509
 10
-5.2194555094
 20
-63.3225913991
 10
-5.2611121057
 20
-63.3322598631
 10
-5.3059103991
 20
-63.3375387301
 10
-5.3538503897
 20
-63.338428
  0
LINE
  5
473
100
AcDbEntity
  8
RACCORDO
100
AcDbLine
 62
250
  6
CONTINUOUS
 10
-10.306862245
 20
-68.2948091789
 11
-10.306862245
 21
-67.5
  0
LINE
  5
474
100
AcDbEntity
  8
RACCORDO
100
AcDbLine
 62
250
  6
CONTINUOUS
 10
-10.306862245
 20
67.5
 11
-10.306862245
 21
68.2948091789
  0
LINE
  5
475
100
AcDbEntity
  8
0
100
AcDbLine
 62
7
  6
CONTINUOUS
 10
-10.1437394605
 20
-63.0
 11
-10.1437394605
 21
-63.791383604
  0
LINE
  5
476
100
AcDbEntity
  8
RACCORDO
100
AcDbLine
 62
250
  6
CONTINUOUS
 10
-9.693137755
 20
68.2948091789
 11
-9.693137755
 21
67.5
  0
LINE
  5
477
100
AcDbEntity
  8
RACCORDO
100
AcDbLine
 62
250
  6
CONTINUOUS
 10
-9.693137755
 20
-67.5
 11
-9.693137755
 21
-68.2948091789
  0
LINE
  5
478
100
AcDbEntity
  8
DRAFT
100
AcDbLine
 62
7
  6
CONTINUOUS
 10
-9.5
 20
-55.2875314147
 11
-9.5
 21
-55.2059230783
  0
LINE
  5
479
100
AcDbEntity
  8
DRAFT
100
AcDbLine
 62
7
  6
CONTINUOUS
 10
-9.5
 20
-59.7194598052
 11
-9.5
 21
-59.7940769217
  0
LINE
  5
47A
100
AcDbEntity
  8
DRAFT
100
AcDbLine
 62
7
  6
CONTINUOUS
 10
-9.5
 20
55.2059230783
 11
-9.5
 21
55.2875314147
  0
LINE
  5
47B
100
AcDbEntity
  8
DRAFT
100
AcDbLine
 62
7
  6
CONTINUOUS
 10
-9.5
 20
59.7194598052
 11
-9.5
 21
59.7940769217
  0
LINE
  5
47C
100
AcDbEntity
  8
RACCORDO
100
AcDbLine
 62
250
  6
CONTINUOUS
 10
-9.4932595896
 20
68.0145319927
 11
-9.4932595896
 21
67.5
  0
LINE
  5
47D
100
AcDbEntity
  8
RACCORDO
100
AcDbLine
 62
250
  6
CONTINUOUS
 10
-9.4932595896
 20
-67.5
 11
-9.4932595896
 21
-68.0145319927
  0
LINE
  5
47E
100
AcDbEntity
  8
0
100
AcDbLine
 62
7
  6
CONTINUOUS
 10
-9.3475384812
 20
-63.0
 11
-9.3475384812
 21
-63.791383604
  0
LINE
  5
47F
100
AcDbEntity
  8
0
100
AcDbLine
 62
7
  6
CONTINUOUS
 10
-9.0595104812
 20
-63.0
 11
-9.0595104812
 21
-64.2771364302
  0
LINE
  5
480
100
AcDbEntity
  8
0
100
AcDbLine
 62
7
  6
CONTINUOUS
 10
-8.848028
 20
-63.0
 11
-8.848028
 21
-64.2771364302
  0
LINE
  5
481
100
AcDbEntity
  8
0
100
AcDbLine
 62
7
  6
CONTINUOUS
 10
-8.56
 20
-63.0
 11
-8.56
 21
-64.2771364302
  0
LINE
  5
482
100
AcDbEntity
  8
0
100
AcDbLine
 62
7
  6
CONTINUOUS
 10
-7.95236
 20
-52.2241229517
 11
-7.95236
 21
-53.7758770483
  0
LINE
  5
483
100
AcDbEntity
  8
0
100
AcDbLine
 62
7
  6
CONTINUOUS
 10
-7.742898
 20
-53.7758770483
 11
-7.742898
 21
-52.4400083917
  0
LINE
  5
484
100
AcDbEntity
  8
DRAFT
100
AcDbLine
 62
7
  6
CONTINUOUS
 10
-7.0
 20
65.5
 11
-7.0
 21
65.2
  0
LINE
  5
485
100
AcDbEntity
  8
0
100
AcDbLine
 62
7
  6
CONTINUOUS
 10
-7.0
 20
65.2
 11
-7.0
 21
64.5
  0
LINE
  5
486
100
AcDbEntity
  8
RACCORDO
100
AcDbLine
 62
7
  6
CONTINUOUS
 10
-7.0
 20
64.5
 11
-7.0
 21
62.5
  0
LINE
  5
487
100
AcDbEntity
  8
DRAFT
100
AcDbLine
 62
7
  6
CONTINUOUS
 10
-7.0
 20
-65.5
 11
-7.0
 21
-65.2
  0
LINE
  5
488
100
AcDbEntity
  8
0
100
AcDbLine
 62
7
  6
CONTINUOUS
 10
-7.0
 20
-65.2
 11
-7.0
 21
-64.5
  0
LINE
  5
489
100
AcDbEntity
  8
RACCORDO
100
AcDbLine
 62
7
  6
CONTINUOUS
 10
-7.0
 20
-62.5
 11
-7.0
 21
-64.5
  0
LINE
  5
48A
100
AcDbEntity
  8
0
100
AcDbLine
 62
7
  6
CONTINUOUS
 10
-6.628693
 20
-52.4378747298
 11
-6.628693
 21
-53.7758770483
  0
LINE
  5
48B
100
AcDbEntity
  8
0
100
AcDbLine
 62
7
  6
CONTINUOUS
 10
-6.419147
 20
-53.7758770483
 11
-6.419147
 21
-52.2241229517
  0
LINE
  5
48C
100
AcDbEntity
  8
INCISIONI
100
AcDbLine
 62
7
  6
CONTINUOUS
 10
-6.009011
 20
-62.598626
 11
-6.009011
 21
-64.198626
  0
LINE
  5
48D
100
AcDbEntity
  8
0
100
AcDbLine
 62
7
  6
CONTINUOUS
 10
-5.837518
 20
-53.3242176819
 11
-5.837518
 21
-53.2894880463
  0
LINE
  5
48E
100
AcDbEntity
  8
INCISIONI
100
AcDbLine
 62
7
  6
CONTINUOUS
 10
-5.792857
 20
-64.198626
 11
-5.792857
 21
-63.523379
  0
LINE
  5
48F
100
AcDbEntity
  8
INCISIONI
100
AcDbLine
 62
7
  6
CONTINUOUS
 10
-5.792857
 20
-63.338428
 11
-5.792857
 21
-62.783576
  0
LINE
  5
490
100
AcDbEntity
  8
0
100
AcDbLine
 62
7
  6
CONTINUOUS
 10
-5.51207
 20
-52.4492029437
 11
-5.51207
 21
-52.4144733082
  0
LINE
  5
491
100
AcDbEntity
  8
0
100
AcDbLine
 62
7
  6
CONTINUOUS
 10
-5.195758
 20
-53.3242176819
 11
-5.195758
 21
-53.2894880463
  0
LINE
  5
492
100
AcDbEntity
  8
DRAFT
100
AcDbLine
 62
7
  6
CONTINUOUS
 10
-9.3426051871
 20
-67.7198598045
 11
-9.3356316599
 21
-67.5
  0
LINE
  5
493
100
AcDbEntity
  8
DRAFT
100
AcDbLine
 62
7
  6
CONTINUOUS
 10
-9.3501335989
 20
-67.92508963
 11
-9.3426051871
 21
-67.7198598045
  0
LWPOLYLINE
  5
494
100
AcDbEntity
  8
RACCORDO
100
AcDbPolyline
 62
7
  6
CONTINUOUS
 90
11
 70
0
 10
9.4932595896
 20
68.0145319927
 10
9.4959158757
 20
68.0262919647
 10
9.5019121716
 20
68.0403974557
 10
9.5110312255
 20
68.0568484657
 10
9.5229719309
 20
68.0758069229
 10
9.5374623994
 20
68.097110899
 10
9.5543465228
 20
68.1202746094
 10
9.5732703786
 20
68.1452298496
 10
9.5939780615
 20
68.1720448241
 10
9.6165876407
 20
68.2004383613
 10
9.666618538
 20
68.2617736769
  0
LWPOLYLINE
  5
495
100
AcDbEntity
  8
RACCORDO
100
AcDbPolyline
 62
7
  6
CONTINUOUS
 90
10
 70
0
 10
16.4604885275
 20
67.9964526103
 10
16.4603916382
 20
67.9961648144
 10
16.4602350097
 20
67.9959041678
 10
16.460018642
 20
67.9956708552
 10
16.4597429564
 20
67.9954650868
 10
16.4594075316
 20
67.9952870073
 10
16.459011103
 20
67.9951367362
 10
16.4585532494
 20
67.9950144707
 10
16.458034392
 20
67.9949204458
 10
16.457454531
 20
67.9948548704
  0
LINE
  5
496
100
AcDbEntity
  8
RACCORDO
100
AcDbLine
 62
7
  6
CONTINUOUS
 10
16.8764983111
 20
17.6331904331
 11
16.8965699136
 21
17.6414905497
  0
LINE
  5
497
100
AcDbEntity
  8
RACCORDO
100
AcDbLine
 62
7
  6
CONTINUOUS
 10
16.8563619371
 20
17.6250442902
 11
16.8764983111
 21
17.6331904331
  0
LINE
  5
498
100
AcDbEntity
  8
RACCORDO
100
AcDbLine
 62
7
  6
CONTINUOUS
 10
16.8361612236
 20
17.6170487852
 11
16.8563619371
 21
17.6250442902
  0
LINE
  5
499
100
AcDbEntity
  8
RACCORDO
100
AcDbLine
 62
7
  6
CONTINUOUS
 10
-19.0640530533
 20
0.5093811665
 11
-19.0
 21
0.5306627248
  0
LINE
  5
49A
100
AcDbEntity
  8
RACCORDO
100
AcDbLine
 62
7
  6
CONTINUOUS
 10
15.25
 20
-6.0
 11
-15.25
 21
-6.0
  0
LINE
  5
49B
100
AcDbEntity
  8
RACCORDO
100
AcDbLine
 62
7
  6
CONTINUOUS
 10
-19.0640530533
 20
-0.5093811665
 11
-19.0
 21
-0.5306627248
  0
LINE
  5
49C
100
AcDbEntity
  8
RACCORDO
100
AcDbLine
 62
7
  6
CONTINUOUS
 10
16.8158978989
 20
-17.6091905747
 11
16.8361612236
 21
-17.6170487852
  0
LINE
  5
49D
100
AcDbEntity
  8
RACCORDO
100
AcDbLine
 62
7
  6
CONTINUOUS
 10
16.8361612236
 20
-17.6170487852
 11
16.8563619371
 21
-17.6250442902
  0
LINE
  5
49E
100
AcDbEntity
  8
RACCORDO
100
AcDbLine
 62
7
  6
CONTINUOUS
 10
16.8563619371
 20
-17.6250442902
 11
16.8764983111
 21
-17.6331904331
  0
LINE
  5
49F
100
AcDbEntity
  8
RACCORDO
100
AcDbLine
 62
7
  6
CONTINUOUS
 10
16.8764983111
 20
-17.6331904331
 11
16.8965699136
 21
-17.6414905497
  0
LWPOLYLINE
  5
4A0
100
AcDbEntity
  8
INCISIONI
100
AcDbPolyline
 62
7
  6
CONTINUOUS
 90
13
 70
0
 10
0.7577849541
 20
-63.0610021562
 10
0.7537773961
 20
-62.9928173519
 10
0.7430015054
 20
-62.9296075034
 10
0.7254572821
 20
-62.8713726108
 10
0.7010265224
 20
-62.8178592811
 10
0.6698274301
 20
-62.7693209072
 10
0.6322146162
 20
-62.7265176684
 10
0.5878923485
 20
-62.6894448255
 10
0.5371563592
 20
-62.6581071175
 10
0.4812484553
 20
-62.6332789413
 10
0.4205825727
 20
-62.6152184291
 10
0.3547447755
 20
-62.6036674487
 10
0.2837350638
 20
-62.598626
  0
LINE
  5
4A1
100
AcDbEntity
  8
RACCORDO
100
AcDbLine
 62
250
  6
CONTINUOUS
 10
-5.5499655407
 20
70.5121708286
 11
-5.5666711787
 21
70.8117053365
  0
LWPOLYLINE
  5
4A2
100
AcDbEntity
  8
ASSI
100
AcDbPolyline
 62
7
  6
CONTINUOUS
 90
16
 70
0
 10
-1.6742165117
 20
-57.5
 10
-1.6648147702
 20
-57.671680993
 10
-1.637203698
 20
-57.8433619859
 10
-1.5922745231
 20
-58.0095014729
 10
-1.5294621733
 20
-58.1699186401
 10
-1.4493317208
 20
-58.3247943013
 10
-1.3544696102
 20
-58.4691293917
 10
-1.2443951624
 20
-58.6025799831
 10
-1.1195890566
 20
-58.7254900038
 10
-0.9840797747
 20
-58.8338921733
 10
-0.8375180829
 20
-58.9273131153
 10
-0.680253215
 20
-59.0062262062
 10
-0.5173613544
 20
-59.0680842953
 10
-0.3505345622
 20
-59.1120383323
 10
-0.1780807775
 20
-59.1389373675
 10
-0.0
 20
-59.1487814009
  0
LWPOLYLINE
  5
4A3
100
AcDbEntity
  8
ASSI
100
AcDbPolyline
 62
7
  6
CONTINUOUS
 90
16
 70
0
 10
1.6742165117
 20
-57.5
 10
1.6648147702
 20
-57.328319007
 10
1.637203698
 20
-57.1566380141
 10
1.5922745231
 20
-56.9904985271
 10
1.5294621733
 20
-56.8300813599
 10
1.4493317208
 20
-56.6752056987
 10
1.3544696102
 20
-56.5308706083
 10
1.2443951624
 20
-56.3974200169
 10
1.1195890566
 20
-56.2745099962
 10
0.9840797747
 20
-56.1661078267
 10
0.8375180829
 20
-56.0726868847
 10
0.680253215
 20
-55.9937737938
 10
0.5173613544
 20
-55.9319157047
 10
0.3505345622
 20
-55.8879616677
 10
0.1780807775
 20
-55.8610626325
 10
-0.0
 20
-55.8512185991
  0
LWPOLYLINE
  5
4A4
100
AcDbEntity
  8
ASSI
100
AcDbPolyline
 62
7
  6
CONTINUOUS
 90
11
 70
0
 10
-1.2181312393
 20
-57.4990435024
 10
-1.2134999588
 20
-57.6027242565
 10
-1.1948550397
 20
-57.7284999439
 10
-1.1621649236
 20
-57.8531458233
 10
-1.1165126143
 20
-57.9723467793
 10
-1.0573827349
 20
-58.0859361632
 10
-0.9852906622
 20
-58.1940806236
 10
-0.9028655302
 20
-58.2929649911
 10
-0.8109837168
 20
-58.3813175428
 10
-0.7087688442
 20
-58.4604100017
 10
-0.5962209121
 20
-58.5302423677
  0
LWPOLYLINE
  5
4A5
100
AcDbEntity
  8
RACCORDO
100
AcDbPolyline
 62
250
  6
CONTINUOUS
 90
10
 70
0
 10
-2.9899694986
 20
-68.2385641107
 10
-2.9911211991
 20
-68.1907942497
 10
-2.9932010762
 20
-68.1450277225
 10
-2.9961547042
 20
-68.1024621768
 10
-2.9999047925
 20
-68.0642114953
 10
-3.0043532082
 20
-68.0312766463
 10
-3.0093835449
 20
-68.00451949
 10
-3.0148641673
 20
-67.9846402249
 10
-3.0206516564
 20
-67.9721590643
 10
-3.0265945631
 20
-67.9674026233
  0
LWPOLYLINE
  5
4A6
100
AcDbEntity
  8
RACCORDO
100
AcDbPolyline
 62
250
  6
CONTINUOUS
 90
10
 70
0
 10
-1.7489193712
 20
70.4792896426
 10
-1.7501777919
 20
70.5328902633
 10
-1.7529274003
 20
70.5842554302
 10
-1.7570785837
 20
70.63171319
 10
-1.7624961083
 20
70.6737187772
 10
-1.7690035208
 20
70.7089048988
 10
-1.7763888926
 20
70.7361262387
 10
-1.7844117183
 20
70.7544967349
 10
-1.7928107443
 20
70.7634184223
 10
-1.7963315974
 20
70.7642670512
  0
LWPOLYLINE
  5
4A7
100
AcDbEntity
  8
RACCORDO
100
AcDbPolyline
 62
250
  6
CONTINUOUS
 90
10
 70
0
 10
1.7489197053
 20
-70.4792895362
 10
1.7501783587
 20
-70.5328898496
 10
1.7529281104
 20
-70.5842547315
 10
1.7570793529
 20
-70.6317122545
 10
1.7624968605
 20
-70.673717676
 10
1.7690041911
 20
-70.708903722
 10
1.77638943
 20
-70.7361250904
 10
1.7844120874
 20
-70.754495727
 10
1.7928109261
 20
-70.7634176681
 10
1.7963316675
 20
-70.764266434
  0
LWPOLYLINE
  5
4A8
100
AcDbEntity
  8
ASSI
100
AcDbPolyline
 62
7
  6
CONTINUOUS
 90
7
 70
0
 10
1.218131415
 20
-57.4990357751
 10
1.2175607033
 20
-57.4743788114
 10
1.2074458167
 20
-57.3465794327
 10
1.1839065433
 20
-57.2222376282
 10
1.1471474618
 20
-57.1028366155
 10
1.0969639936
 20
-56.9868931771
 10
1.0333561387
 20
-56.8744073131
  0
LINE
  5
4A9
100
AcDbEntity
  8
0
100
AcDbLine
 62
7
  6
CONTINUOUS
 10
-3.4935272355
 20
-53.0
 11
-3.4932099625
 21
-53.0226014235
  0
LINE
  5
4AA
100
AcDbEntity
  8
0
100
AcDbLine
 62
7
  6
CONTINUOUS
 10
-3.2709438427
 20
-53.0187885287
 11
-3.2711170233
 21
-53.0
  0
LWPOLYLINE
  5
4AB
100
AcDbEntity
  8
RACCORDO
100
AcDbPolyline
 62
250
  6
CONTINUOUS
 90
13
 70
0
 10
-4.3982039439
 20
70.4452844562
 10
-4.3985562198
 20
70.4886502273
 10
-4.4013921452
 20
70.5314324833
 10
-4.4066524361
 20
70.5727368615
 10
-4.4142271269
 20
70.6116998944
 10
-4.4239578699
 20
70.6475070599
 10
-4.4356412456
 20
70.6794098095
 10
-4.4490330141
 20
70.7067412163
 10
-4.4638532213
 20
70.7289299178
 10
-4.479792052
 20
70.7455120593
 10
-4.496516306
 20
70.7561409915
 10
-4.5136763636
 20
70.7605945166
 10
-4.5173085811
 20
70.76073404
  0
LWPOLYLINE
  5
4AC
100
AcDbEntity
  8
INCISIONI
100
AcDbPolyline
 62
7
  6
CONTINUOUS
 90
13
 70
0
 10
0.5350957221
 20
-63.0610021562
 10
0.5352030341
 20
-63.1014855173
 10
0.5302405149
 20
-63.1395252852
 10
0.5202081645
 20
-63.1751214599
 10
0.5051050603
 20
-63.2088218804
 10
0.4849321248
 20
-63.2400787076
 10
0.4596921263
 20
-63.2672484248
 10
0.4287441988
 20
-63.289884022
 10
0.3927292083
 20
-63.308432509
 10
0.3535725206
 20
-63.3225913991
 10
0.3119159243
 20
-63.3322598631
 10
0.2671176309
 20
-63.3375387301
 10
0.2191776403
 20
-63.338428
  0
LINE
  5
4AD
100
AcDbEntity
  8
RACCORDO
100
AcDbLine
 62
7
  6
CONTINUOUS
 10
-4.8
 20
-64.9301035763
 11
-4.8
 21
-65.5000177199
  0
LINE
  5
4AE
100
AcDbEntity
  8
RACCORDO
100
AcDbLine
 62
7
  6
CONTINUOUS
 10
-4.8
 20
64.9301035763
 11
-4.8
 21
65.5000177199
  0
LINE
  5
4AF
100
AcDbEntity
  8
0
100
AcDbLine
 62
7
  6
CONTINUOUS
 10
-4.788994
 20
55.9879386053
 11
-4.788994
 21
55.9532089698
  0
LINE
  5
4B0
100
AcDbEntity
  8
0
100
AcDbLine
 62
7
  6
CONTINUOUS
 10
-4.59186
 20
-52.2241229517
 11
-4.59186
 21
-53.7758770483
  0
LINE
  5
4B1
100
AcDbEntity
  8
RACCORDO
100
AcDbLine
 62
250
  6
CONTINUOUS
 10
-4.4487219092
 20
68.2948091789
 11
-4.4487219092
 21
67.9948548704
  0
LINE
  5
4B2
100
AcDbEntity
  8
RACCORDO
100
AcDbLine
 62
250
  6
CONTINUOUS
 10
-4.4487217534
 20
-68.2948091789
 11
-4.4487217534
 21
-67.9948548704
  0
LINE
  5
4B3
100
AcDbEntity
  8
0
100
AcDbLine
 62
7
  6
CONTINUOUS
 10
-4.375637
 20
-53.5965437369
 11
-4.375637
 21
-52.3687266276
  0
LINE
  5
4B4
100
AcDbEntity
  8
RACCORDO
100
AcDbLine
 62
7
  6
CONTINUOUS
 10
-4.0
 20
-64.9301035763
 11
-4.0
 21
-66.8
  0
LINE
  5
4B5
100
AcDbEntity
  8
RACCORDO
100
AcDbLine
 62
7
  6
CONTINUOUS
 10
-4.0
 20
64.9301035763
 11
-4.0
 21
66.8
  0
LINE
  5
4B6
100
AcDbEntity
  8
0
100
AcDbLine
 62
250
  6
CONTINUOUS
 10
-3.948859
 20
-52.4034562631
 11
-3.948859
 21
-52.3687266276
  0
LINE
  5
4B7
100
AcDbEntity
  8
0
100
AcDbLine
 62
250
  6
CONTINUOUS
 10
-3.943358
 20
-53.7758770483
 11
-3.943358
 21
-53.7411474128
  0
LINE
  5
4B8
100
AcDbEntity
  8
0
100
AcDbLine
 62
7
  6
CONTINUOUS
 10
-3.236604
 20
57.8578391459
 11
-3.236611
 21
55.1421404873
  0
LINE
  5
4B9
100
AcDbEntity
  8
INCISIONI
100
AcDbLine
 62
7
  6
CONTINUOUS
 10
-3.196852
 20
-62.598626
 11
-3.196852
 21
-62.790272
  0
LINE
  5
4BA
100
AcDbEntity
  8
0
100
AcDbLine
 62
7
  6
CONTINUOUS
 10
-2.971738
 20
-52.2241229517
 11
-2.971738
 21
-53.7758770483
  0
LINE
  5
4BB
100
AcDbEntity
  8
0
100
AcDbLine
 62
7
  6
CONTINUOUS
 10
-2.755528
 20
-53.5900176411
 11
-2.755528
 21
-53.0366141988
  0
LINE
  5
4BC
100
AcDbEntity
  8
0
100
AcDbLine
 62
7
  6
CONTINUOUS
 10
-2.755528
 20
-52.8854853969
 11
-2.755528
 21
-52.3752527234
  0
LINE
  5
4BD
100
AcDbEntity
  8
0
100
AcDbLine
 62
7
  6
CONTINUOUS
 10
-2.67659
 20
55.1421472762
 11
-2.676583
 21
57.8578391459
  0
LINE
  5
4BE
100
AcDbEntity
  8
INCISIONI
100
AcDbLine
 62
7
  6
CONTINUOUS
 10
-2.655391
 20
-62.790272
 11
-2.655391
 21
-64.198626
  0
LINE
  5
4BF
100
AcDbEntity
  8
INCISIONI
100
AcDbLine
 62
7
  6
CONTINUOUS
 10
-2.439236
 20
-64.198626
 11
-2.439236
 21
-62.790272
  0
LINE
  5
4C0
100
AcDbEntity
  8
0
100
AcDbLine
 62
7
  6
CONTINUOUS
 10
-2.116583
 20
57.8578391459
 11
-2.116583
 21
55.1421472762
  0
LINE
  5
4C1
100
AcDbEntity
  8
INCISIONI
100
AcDbLine
 62
7
  6
CONTINUOUS
 10
-1.897776
 20
-62.790272
 11
-1.897776
 21
-62.598626
  0
LINE
  5
4C2
100
AcDbEntity
  8
0
100
AcDbLine
 62
7
  6
CONTINUOUS
 10
-1.879753
 20
-53.0713438343
 11
-1.879753
 21
-52.8854853969
  0
LINE
  5
4C3
100
AcDbEntity
  8
0
100
AcDbLine
 62
7
  6
CONTINUOUS
 10
-1.806216
 20
-52.4099823589
 11
-1.806216
 21
-52.2241229517
  0
LINE
  5
4C4
100
AcDbEntity
  8
0
100
AcDbLine
 62
7
  6
CONTINUOUS
 10
-1.790598
 20
-53.7758770483
 11
-1.790598
 21
-53.5900176411
  0
LINE
  5
4C5
100
AcDbEntity
  8
INCISIONI
100
AcDbLine
 62
7
  6
CONTINUOUS
 10
-1.672651
 20
-63.962384
 11
-1.672651
 21
-64.198626
  0
LINE
  5
4C6
100
AcDbEntity
  8
0
100
AcDbLine
 62
7
  6
CONTINUOUS
 10
-1.556562
 20
55.1421472762
 11
-1.556562
 21
56.9329636391
  0
LINE
  5
4C7
100
AcDbEntity
  8
INCISIONI
100
AcDbLine
 62
7
  6
CONTINUOUS
 10
-1.440958
 20
-64.198626
 11
-1.440958
 21
-63.962384
  0
LINE
  5
4C8
100
AcDbEntity
  8
ASSI
100
AcDbLine
 62
7
  6
CONTINUOUS
 10
-1.033356
 20
-56.8744074264
 11
-1.033356
 21
-56.8396777909
  0
LINE
  5
4C9
100
AcDbEntity
  8
0
100
AcDbLine
 62
7
  6
CONTINUOUS
 10
-0.854614
 20
-52.2241229517
 11
-0.854614
 21
-53.7758770483
  0
LINE
  5
4CA
100
AcDbEntity
  8
0
100
AcDbLine
 62
7
  6
CONTINUOUS
 10
-0.747089
 20
56.0892836654
 11
-0.747089
 21
56.0545540299
  0
LINE
  5
4CB
100
AcDbEntity
  8
0
100
AcDbLine
 62
7
  6
CONTINUOUS
 10
-0.638469
 20
-53.7758770483
 11
-0.638469
 21
-52.2241229517
  0
LINE
  5
4CC
100
AcDbEntity
  8
0
100
AcDbLine
 62
7
  6
CONTINUOUS
 10
-0.5
 20
2.2940769217
 11
-0.5
 21
2.1937410968
  0
LINE
  5
4CD
100
AcDbEntity
  8
0
100
AcDbLine
 62
7
  6
CONTINUOUS
 10
-0.5
 20
-2.1937410968
 11
-0.5
 21
-2.2940769217
  0
LINE
  5
4CE
100
AcDbEntity
  8
ASSI
100
AcDbLine
 62
7
  6
CONTINUOUS
 10
-0.453932
 20
-58.6143592297
 11
-0.453932
 21
-58.9260940197
  0
LINE
  5
4CF
100
AcDbEntity
  8
ASSI
100
AcDbLine
 62
7
  6
CONTINUOUS
 10
-0.443435
 20
-56.0861861743
 11
-0.443435
 21
-56.3996356525
  0
LINE
  5
4D0
100
AcDbEntity
  8
INCISIONI
100
AcDbLine
 62
7
  6
CONTINUOUS
 10
-0.435983
 20
-62.598626
 11
-0.435983
 21
-64.198626
  0
LINE
  5
4D1
100
AcDbEntity
  8
0
100
AcDbLine
 62
7
  6
CONTINUOUS
 10
-0.268599
 20
-52.2241229517
 11
-0.268599
 21
-53.7758770483
  0
LINE
  5
4D2
100
AcDbEntity
  8
INCISIONI
100
AcDbLine
 62
7
  6
CONTINUOUS
 10
-0.219829
 20
-64.198626
 11
-0.219829
 21
-63.523379
  0
LINE
  5
4D3
100
AcDbEntity
  8
INCISIONI
100
AcDbLine
 62
7
  6
CONTINUOUS
 10
-0.219829
 20
-63.338428
 11
-0.219829
 21
-62.783576
  0
LINE
  5
4D4
100
AcDbEntity
  8
ASSI
100
AcDbLine
 62
7
  6
CONTINUOUS
 10
-0.169078
 20
-56.364906017
 11
-0.169078
 21
-57.1944586485
  0
LINE
  5
4D5
100
AcDbEntity
  8
ASSI
100
AcDbLine
 62
7
  6
CONTINUOUS
 10
-0.169078
 20
-57.5460488637
 11
-0.169078
 21
-58.6143592297
  0
LINE
  5
4D6
100
AcDbEntity
  8
0
100
AcDbLine
 62
7
  6
CONTINUOUS
 10
-0.05904
 20
-53.7758770483
 11
-0.05904
 21
-52.4809378457
  0
LINE
  5
4D7
100
AcDbEntity
  8
0
100
AcDbLine
 62
7
  6
CONTINUOUS
 10
0.062377
 20
56.9329636391
 11
0.062384
 21
55.1421472762
  0
LINE
  5
4D8
100
AcDbEntity
  8
ASSI
100
AcDbLine
 62
7
  6
CONTINUOUS
 10
0.1210910737
 20
-59.4594816306
 11
0.1210910737
 21
-59.4247519951
  0
LINE
  5
4D9
100
AcDbEntity
  8
ASSI
100
AcDbLine
 62
7
  6
CONTINUOUS
 10
0.173343
 20
-58.6143592297
 11
0.173343
 21
-57.542563236
  0
LINE
  5
4DA
100
AcDbEntity
  8
ASSI
100
AcDbLine
 62
7
  6
CONTINUOUS
 10
0.173343
 20
-57.1944586485
 11
0.173343
 21
-56.364906017
  0
LINE
  5
4DB
100
AcDbEntity
  8
ASSI
100
AcDbLine
 62
7
  6
CONTINUOUS
 10
0.44759
 20
-56.3996356525
 11
0.44759
 21
-56.0861861743
  0
LINE
  5
4DC
100
AcDbEntity
  8
ASSI
100
AcDbLine
 62
7
  6
CONTINUOUS
 10
0.458087
 20
-58.9260940197
 11
0.458087
 21
-58.6143592297
  0
LINE
  5
4DD
100
AcDbEntity
  8
0
100
AcDbLine
 62
7
  6
CONTINUOUS
 10
0.5
 20
-2.2940769217
 11
0.5
 21
-2.1937410968
  0
LINE
  5
4DE
100
AcDbEntity
  8
0
100
AcDbLine
 62
7
  6
CONTINUOUS
 10
0.5
 20
2.1937410968
 11
0.5
 21
2.2940769217
  0
LINE
  5
4DF
100
AcDbEntity
  8
0
100
AcDbLine
 62
7
  6
CONTINUOUS
 10
0.622405
 20
55.1421472762
 11
0.622405
 21
57.8578391459
  0
LWPOLYLINE
  5
4E0
100
AcDbEntity
  8
RACCORDO
100
AcDbPolyline
 62
250
  6
CONTINUOUS
 90
13
 70
0
 10
-4.3982215118
 20
-70.4452864282
 10
-4.3985740325
 20
-70.4886483618
 10
-4.4014097268
 20
-70.531426757
 10
-4.4066693245
 20
-70.5727275612
 10
-4.4142428962
 20
-70.611687603
 10
-4.4239721521
 20
-70.6474926321
 10
-4.4356537495
 20
-70.6793943367
 10
-4.4490435421
 20
-70.7067259829
 10
-4.4638616829
 20
-70.7289163497
 10
-4.4797984731
 20
-70.7455016669
 10
-4.4965208347
 20
-70.7561353075
 10
-4.5136792713
 20
-70.7605950325
 10
-4.5173131333
 20
-70.7607360426
  0
LINE
  5
4E1
100
AcDbEntity
  8
0
100
AcDbLine
 62
7
  6
CONTINUOUS
 10
-3.2711170233
 20
-53.0
 11
-3.2709432393
 21
-52.9811450956
  0
LINE
  5
4E2
100
AcDbEntity
  8
0
100
AcDbLine
 62
7
  6
CONTINUOUS
 10
-3.4932101226
 20
-52.9777121266
 11
-3.4935272355
 21
-53.0
  0
LWPOLYLINE
  5
4E3
100
AcDbEntity
  8
RACCORDO
100
AcDbPolyline
 62
250
  6
CONTINUOUS
 90
10
 70
0
 10
-1.7488877303
 20
-70.4793005387
 10
-1.7501497108
 20
-70.5329199963
 10
-1.7529033488
 20
-70.5843015683
 10
-1.757058915
 20
-70.6317709939
 10
-1.7624809986
 20
-70.6737814893
 10
-1.7689929193
 20
-70.7089641514
 10
-1.7763824853
 20
-70.7361725624
 10
-1.7844089066
 20
-70.7545201418
 10
-1.7928106417
 20
-70.7634090371
 10
-1.7963354874
 20
-70.764241361
  0
LWPOLYLINE
  5
4E4
100
AcDbEntity
  8
RACCORDO
100
AcDbPolyline
 62
250
  6
CONTINUOUS
 90
10
 70
0
 10
1.7488877257
 20
70.4793005402
 10
1.7501497086
 20
70.5329199836
 10
1.7529033483
 20
70.5843015388
 10
1.7570589156
 20
70.6317709462
 10
1.7624809995
 20
70.6737814231
 10
1.76899292
 20
70.7089640674
 10
1.7763824854
 20
70.7361724624
 10
1.7844089059
 20
70.7545200283
 10
1.7928106402
 20
70.7634089134
 10
1.7963354705
 20
70.7642412342
  0
LWPOLYLINE
  5
4E5
100
AcDbEntity
  8
RACCORDO
100
AcDbPolyline
 62
250
  6
CONTINUOUS
 90
10
 70
0
 10
-2.9899725461
 20
68.2385673004
 10
-2.9911241501
 20
68.1907989184
 10
-2.9932038111
 20
68.1450334773
 10
-2.9961571154
 20
68.1024684445
 10
-2.9999067902
 20
68.0642175477
 10
-3.0043547255
 20
68.0312816341
 10
-3.0093845415
 20
68.0045224822
 10
-3.0148646329
 20
67.984640254
 10
-3.0206516126
 20
67.9721551742
 10
-3.0265940638
 20
67.9673939192
  0
LWPOLYLINE
  5
4E6
100
AcDbEntity
  8
RACCORDO
100
AcDbPolyline
 62
250
  6
CONTINUOUS
 90
6
 70
0
 10
-5.5499648497
 20
-70.5121708671
 10
-5.5513968266
 20
-70.5535963249
 10
-5.5538360515
 20
-70.5944269903
 10
-5.5567464812
 20
-70.6337711378
 10
-5.559003025
 20
-70.6706876307
 10
-5.5605280946
 20
-70.7045075982
  0
LWPOLYLINE
  5
4E7
100
AcDbEntity
  8
ASSI
100
AcDbPolyline
 62
7
  6
CONTINUOUS
 90
33
 70
0
 10
-2.0240248889
 20
-57.4994349778
 10
-2.0196794607
 20
-57.3768694258
 10
-1.9976138471
 20
-57.1842544927
 10
-1.9555286475
 20
-56.9949214658
 10
-1.8940012368
 20
-56.8087820107
 10
-1.8149580609
 20
-56.631226619
 10
-1.7179514151
 20
-56.4625784284
 10
-1.6034290041
 20
-56.3025143013
 10
-1.4746603883
 20
-56.1554553159
 10
-1.3313485984
 20
-56.0217496338
 10
-1.1737906038
 20
-55.9010490935
 10
-1.0061468732
 20
-55.7967302891
 10
-0.8279255068
 20
-55.7091409568
 10
-0.6396184046
 20
-55.6379333604
 10
-0.4468617346
 20
-55.5854408853
 10
-0.2496070936
 20
-55.552267705
 10
-0.047902885
 20
-55.5378096459
 10
0.152469513
 20
-55.542587573
 10
0.3515089557
 20
-55.5671452903
 10
0.5492165878
 20
-55.6109389938
 10
0.7398144651
 20
-55.6728581372
 10
0.9231725841
 20
-55.7534968279
 10
1.0994209483
 20
-55.8522609584
 10
1.2631716233
 20
-55.9662576594
 10
1.4140344102
 20
-56.0960599787
 10
1.5523995079
 20
-56.2410948685
 10
1.6740495788
 20
-56.3967503157
 10
1.7783389884
 20
-56.563144084
 10
1.8659133713
 20
-56.7401584098
 10
1.9344922933
 20
-56.9228279893
 10
1.9835835656
 20
-57.1114586234
 10
2.0136793771
 20
-57.3057445113
 10
2.0239758599
 20
-57.4997969427
  0
LINE
  5
4E8
100
AcDbEntity
  8
0
100
AcDbLine
 62
7
  6
CONTINUOUS
 10
-3.4932099625
 20
-53.0226014235
 11
-3.4949429387
 21
-53.0669952887
  0
LWPOLYLINE
  5
4E9
100
AcDbEntity
  8
RACCORDO
100
AcDbPolyline
 62
250
  6
CONTINUOUS
 90
7
 70
0
 10
-5.5605280946
 20
-70.7045075982
 10
-5.5639860603
 20
-70.7604850467
 10
-5.5647908401
 20
-70.7813722942
 10
-5.5658528046
 20
-70.7970496526
 10
-5.5671315177
 20
-70.8071573632
 10
-5.5675406833
 20
-70.8114830165
 10
-5.5674506324
 20
-70.8116608517
  0
LINE
  5
4EA
100
AcDbEntity
  8
RACCORDO
100
AcDbLine
 62
250
  6
CONTINUOUS
 10
-15.3741365485
 20
-69.4739061169
 11
-15.4204131443
 21
-69.7703154229
  0
LINE
  5
4EB
100
AcDbEntity
  8
DRAFT
100
AcDbLine
 62
250
  6
CONTINUOUS
 10
-14.910003031
 20
-66.8
 11
-14.9808147789
 21
-67.2066548225
  0
LINE
  5
4EC
100
AcDbEntity
  8
DRAFT
100
AcDbLine
 62
250
  6
CONTINUOUS
 10
-14.9808147789
 20
-67.2066548225
 11
-15.0333883624
 21
-67.5001683097
  0
LWPOLYLINE
  5
4ED
100
AcDbEntity
  8
DRAFT
100
AcDbPolyline
 62
250
  6
CONTINUOUS
 90
4
 70
0
 10
-15.0333883624
 20
-67.5001683097
 10
-15.0792051325
 20
-67.7475101934
 10
-15.0993774075
 20
-67.8527694024
 10
-15.1176302488
 20
-67.9452533617
  0
LWPOLYLINE
  5
4EE
100
AcDbEntity
  8
RACCORDO
100
AcDbPolyline
 62
7
  6
CONTINUOUS
 90
6
 70
0
 10
-16.4718543815
 20
-68.0469529343
 10
-16.4869954699
 20
-68.1141613125
 10
-16.4960050114
 20
-68.1552272493
 10
-16.5055126856
 20
-68.1998307064
 10
-16.5157490918
 20
-68.2467699245
 10
-16.5267142301
 20
-68.2948091789
  0
LWPOLYLINE
  5
4EF
100
AcDbEntity
  8
RACCORDO
100
AcDbPolyline
 62
7
  6
CONTINUOUS
 90
4
 70
0
 10
16.4604885275
 20
67.9964526103
 10
16.4628566148
 20
68.0056707432
 10
16.4666452328
 20
68.0226850375
 10
16.4718543815
 20
68.0469529343
  0
LWPOLYLINE
  5
4F0
100
AcDbEntity
  8
DRAFT
100
AcDbPolyline
 62
7
  6
CONTINUOUS
 90
49
 70
0
 10
18.67937941
 20
0.5506466324
 10
18.6688420907
 20
0.5481273995
 10
18.6566876877
 20
0.5442124008
 10
18.6430922161
 20
0.5389016363
 10
18.6282318834
 20
0.5322476632
 10
18.6122674763
 20
0.5241979242
 10
18.5953385922
 20
0.5145947473
 10
18.5775800098
 20
0.5034540423
 10
18.55914766
 20
0.4907598994
 10
18.5402041918
 20
0.4763069166
 10
18.5208774175
 20
0.4601227794
 10
18.5013065565
 20
0.4421798023
 10
18.4816752559
 20
0.4221895265
 10
18.4620524673
 20
0.4001353211
 10
18.4426117618
 20
0.376033817
 10
18.4237190345
 20
0.3496464478
 10
18.4054513667
 20
0.3209322454
 10
18.3879817141
 20
0.2899321778
 10
18.3718676084
 20
0.2565305827
 10
18.3571698929
 20
0.2205681694
 10
18.3440738272
 20
0.1822042285
 10
18.3333711041
 20
0.1418009697
 10
18.3252073085
 20
0.0989424948
 10
18.3196306779
 20
0.054044702
 10
18.3172940152
 20
0.0087174956
 10
18.3185633821
 20
-0.0373165881
 10
18.3230861618
 20
-0.0837800854
 10
18.3303964992
 20
-0.1282307005
 10
18.340523586
 20
-0.1700074727
 10
18.3532464359
 20
-0.2097713628
 10
18.367721357
 20
-0.2470629573
 10
18.3837635574
 20
-0.2817048309
 10
18.4012993332
 20
-0.313874409
 10
18.4197018492
 20
-0.343644554
 10
18.4387794292
 20
-0.3709501835
 10
18.4584634774
 20
-0.39585638
 10
18.4783649768
 20
-0.4186312528
 10
18.4983057651
 20
-0.4392635563
 10
18.5182102104
 20
-0.4577645362
 10
18.5378721825
 20
-0.4744360391
 10
18.5571437448
 20
-0.4893038029
 10
18.575898275
 20
-0.5023420896
 10
18.5939679673
 20
-0.5137755319
 10
18.6111920738
 20
-0.5236226031
 10
18.6274315958
 20
-0.5318648298
 10
18.6425423818
 20
-0.5386714249
 10
18.6563584756
 20
-0.5440987924
 10
18.6686980563
 20
-0.5480905283
 10
18.67937941
 20
-0.5506466324
  0
LINE
  5
4F1
100
AcDbEntity
  8
RACCORDO
100
AcDbLine
 62
250
  6
CONTINUOUS
 10
-2.2699272149
 20
-0.5999999877
 11
-2.1685248442
 21
-0.6
  0
LINE
  5
4F2
100
AcDbEntity
  8
RACCORDO
100
AcDbLine
 62
250
  6
CONTINUOUS
 10
2.1685248442
 20
-0.6
 11
2.2699272148
 21
-0.5999999877
  0
LINE
  5
4F3
100
AcDbEntity
  8
RACCORDO
100
AcDbLine
 62
250
  6
CONTINUOUS
 10
19.0821324356
 20
-0.5067404104
 11
19.0
 21
-0.5067404104
  0
LINE
  5
4F4
100
AcDbEntity
  8
RACCORDO
100
AcDbLine
 62
250
  6
CONTINUOUS
 10
-19.0
 20
-0.5067404104
 11
-19.0821324356
 21
-0.5067404104
  0
LINE
  5
4F5
100
AcDbEntity
  8
0
100
AcDbLine
 62
7
  6
CONTINUOUS
 10
-2.2939750335
 20
-0.5
 11
-2.1937410968
 21
-0.5
  0
LINE
  5
4F6
100
AcDbEntity
  8
0
100
AcDbLine
 62
7
  6
CONTINUOUS
 10
2.1937410968
 20
-0.5
 11
2.2939750335
 21
-0.5
  0
LINE
  5
4F7
100
AcDbEntity
  8
ASSI
100
AcDbLine
 62
7
  6
CONTINUOUS
 10
10.657055
 20
-0.375
 11
12.117556
 21
-0.375
  0
LINE
  5
4F8
100
AcDbEntity
  8
RACCORDO
100
AcDbLine
 62
250
  6
CONTINUOUS
 10
19.3624096219
 20
-0.306862245
 11
19.0
 21
-0.306862245
  0
LINE
  5
4F9
100
AcDbEntity
  8
RACCORDO
100
AcDbLine
 62
250
  6
CONTINUOUS
 10
-19.0
 20
-0.306862245
 11
-19.3624096219
 21
-0.306862245
  0
LINE
  5
4FA
100
AcDbEntity
  8
RACCORDO
100
AcDbLine
 62
250
  6
CONTINUOUS
 10
-19.3624096219
 20
0.306862245
 11
-19.0
 21
0.306862245
  0
LINE
  5
4FB
100
AcDbEntity
  8
RACCORDO
100
AcDbLine
 62
250
  6
CONTINUOUS
 10
19.0
 20
0.306862245
 11
19.3624096219
 21
0.306862245
  0
LINE
  5
4FC
100
AcDbEntity
  8
ASSI
100
AcDbLine
 62
7
  6
CONTINUOUS
 10
12.117556
 20
0.375
 11
10.657051888
 21
0.375
  0
LINE
  5
4FD
100
AcDbEntity
  8
0
100
AcDbLine
 62
7
  6
CONTINUOUS
 10
2.2939750335
 20
0.5
 11
2.1937410968
 21
0.5
  0
LINE
  5
4FE
100
AcDbEntity
  8
0
100
AcDbLine
 62
7
  6
CONTINUOUS
 10
-2.1937410968
 20
0.5
 11
-2.2939750335
 21
0.5
  0
LINE
  5
4FF
100
AcDbEntity
  8
RACCORDO
100
AcDbLine
 62
250
  6
CONTINUOUS
 10
-19.0821324356
 20
0.5067404104
 11
-19.0
 21
0.5067404104
  0
LINE
  5
500
100
AcDbEntity
  8
RACCORDO
100
AcDbLine
 62
250
  6
CONTINUOUS
 10
19.0
 20
0.5067404104
 11
19.0821324356
 21
0.5067404104
  0
LINE
  5
501
100
AcDbEntity
  8
RACCORDO
100
AcDbLine
 62
250
  6
CONTINUOUS
 10
-2.2699272148
 20
0.5999999878
 11
-2.1685248442
 21
0.6
  0
LINE
  5
502
100
AcDbEntity
  8
RACCORDO
100
AcDbLine
 62
250
  6
CONTINUOUS
 10
2.1685248442
 20
0.6
 11
2.2699272148
 21
0.5999999878
  0
LWPOLYLINE
  5
503
100
AcDbEntity
  8
RACCORDO
100
AcDbPolyline
 62
7
  6
CONTINUOUS
 90
10
 70
0
 10
-19.0821324356
 20
-0.5067404104
 10
-19.0939227288
 20
-0.5040756716
 10
-19.1080576617
 20
-0.4980605768
 10
-19.1245372344
 20
-0.4889165175
 10
-19.143541272
 20
-0.47694186
 10
-19.1648899495
 20
-0.4624164489
 10
-19.1880437912
 20
-0.4455282289
 10
-19.212874332
 20
-0.4266847604
 10
-19.2395100371
 20
-0.4061171874
 10
-19.2677968266
 20
-0.3836059032
  0
LWPOLYLINE
  5
504
100
AcDbEntity
  8
RACCORDO
100
AcDbPolyline
 62
7
  6
CONTINUOUS
 90
5
 70
0
 10
16.4604885275
 20
-67.9964526103
 10
16.4628566148
 20
-68.0056707432
 10
16.4666452328
 20
-68.0226850375
 10
16.4718543815
 20
-68.0469529343
 10
16.4869954699
 20
-68.1141613125
  0
LWPOLYLINE
  5
505
100
AcDbEntity
  8
RACCORDO
100
AcDbPolyline
 62
7
  6
CONTINUOUS
 90
5
 70
0
 10
-16.4869954699
 20
68.1141613125
 10
-16.4960050114
 20
68.1552272493
 10
-16.5055126856
 20
68.1998307064
 10
-16.5157490918
 20
68.2467699245
 10
-16.5267142301
 20
68.2948091789
  0
LINE
  5
506
100
AcDbEntity
  8
DRAFT
100
AcDbLine
 62
250
  6
CONTINUOUS
 10
-15.0993765951
 20
67.8527671341
 11
-15.1176296885
 21
67.9452528451
  0
LINE
  5
507
100
AcDbEntity
  8
DRAFT
100
AcDbLine
 62
250
  6
CONTINUOUS
 10
-15.0571823799
 20
67.6298367259
 11
-15.0993765951
 21
67.8527671341
  0
LINE
  5
508
100
AcDbEntity
  8
DRAFT
100
AcDbLine
 62
250
  6
CONTINUOUS
 10
-15.0079023748
 20
67.358942216
 11
-15.0571823799
 21
67.6298367259
  0
LWPOLYLINE
  5
509
100
AcDbEntity
  8
DRAFT
100
AcDbPolyline
 62
250
  6
CONTINUOUS
 90
3
 70
0
 10
-14.9100029474
 20
66.8
 10
-14.9222130787
 20
66.8710385354
 10
-15.0079023748
 20
67.358942216
  0
LINE
  5
50A
100
AcDbEntity
  8
RACCORDO
100
AcDbLine
 62
250
  6
CONTINUOUS
 10
-15.3741365485
 20
69.4739061169
 11
-15.4204131396
 21
69.7703154236
  0
LINE
  5
50B
100
AcDbEntity
  8
RACCORDO
100
AcDbLine
 62
250
  6
CONTINUOUS
 10
5.5499655401
 20
-70.5121708286
 11
5.5666711781
 21
-70.8117053365
  0
LWPOLYLINE
  5
50C
100
AcDbEntity
  8
RACCORDO
100
AcDbPolyline
 62
250
  6
CONTINUOUS
 90
10
 70
0
 10
2.9899689582
 20
68.238563309
 10
2.9911206714
 20
68.1907931156
 10
2.9932005877
 20
68.1450263244
 10
2.9961542782
 20
68.1024606124
 10
2.9999044481
 20
68.0642098871
 10
3.0043529596
 20
68.0312751367
 10
3.0093834002
 20
68.0045182346
 10
3.0148641286
 20
67.9846393858
 10
3.0206517195
 20
67.9721588022
 10
3.0265947172
 20
67.9674030899
  0
LWPOLYLINE
  5
50D
100
AcDbEntity
  8
INCISIONI
100
AcDbPolyline
 62
7
  6
CONTINUOUS
 90
16
 70
0
 10
5.4549805805
 20
-63.3986255277
 10
5.4531061122
 20
-63.3051729424
 10
5.4444355021
 20
-63.2164322101
 10
5.42896875
 20
-63.1324033308
 10
5.4063131518
 20
-63.0524906167
 10
5.3768614117
 20
-62.9772897556
 10
5.3417916423
 20
-62.9085878111
 10
5.3015830781
 20
-62.8469306398
 10
5.2557564845
 20
-62.7917723851
 10
5.2040522714
 20
-62.7432625408
 10
5.1459048885
 20
-62.7012099408
 10
5.081879886
 20
-62.6658057511
 10
5.0134143247
 20
-62.637772963
 10
4.9409872248
 20
-62.6173525737
 10
4.8641195659
 20
-62.604303586
 10
4.7828113482
 20
-62.598626
  0
LWPOLYLINE
  5
50E
100
AcDbEntity
  8
RACCORDO
100
AcDbPolyline
 62
250
  6
CONTINUOUS
 90
13
 70
0
 10
4.398187604
 20
-70.4454811714
 10
4.3985603752
 20
-70.4888309941
 10
4.4014096922
 20
-70.5315939964
 10
4.4066762738
 20
-70.5728769818
 10
4.4142503476
 20
-70.6118176671
 10
4.4239739423
 20
-70.6476026931
 10
4.4356441869
 20
-70.6794846131
 10
4.4490175445
 20
-70.7067975054
 10
4.4638148989
 20
-70.7289708818
 10
4.4797273849
 20
-70.7455416041
 10
4.4964228377
 20
-70.7561635574
 10
4.5135527304
 20
-70.7606148799
 10
4.5171661899
 20
-70.7607545596
  0
LINE
  5
50F
100
AcDbEntity
  8
ASSI
100
AcDbLine
 62
7
  6
CONTINUOUS
 10
0.7611136875
 20
-59.3189216621
 11
0.761114
 21
-59.2841919036
  0
LINE
  5
510
100
AcDbEntity
  8
0
100
AcDbLine
 62
7
  6
CONTINUOUS
 10
0.792253
 20
-52.2241229517
 11
0.792253
 21
-53.4845885582
  0
LINE
  5
511
100
AcDbEntity
  8
0
100
AcDbLine
 62
7
  6
CONTINUOUS
 10
1.001709
 20
-53.7758770483
 11
1.001709
 21
-52.2241229517
  0
LINE
  5
512
100
AcDbEntity
  8
ASSI
100
AcDbLine
 62
7
  6
CONTINUOUS
 10
1.0333561387
 20
-56.8744073131
 11
1.033356
 21
-56.8396777909
  0
LINE
  5
513
100
AcDbEntity
  8
INCISIONI
100
AcDbLine
 62
7
  6
CONTINUOUS
 10
1.050317
 20
-62.598626
 11
1.050317
 21
-64.198626
  0
LINE
  5
514
100
AcDbEntity
  8
INCISIONI
100
AcDbLine
 62
7
  6
CONTINUOUS
 10
1.266472
 20
-64.006979
 11
1.266472
 21
-63.472214
  0
LINE
  5
515
100
AcDbEntity
  8
INCISIONI
100
AcDbLine
 62
7
  6
CONTINUOUS
 10
1.266472
 20
-63.280568
 11
1.266472
 21
-62.790272
  0
LINE
  5
516
100
AcDbEntity
  8
0
100
AcDbLine
 62
7
  6
CONTINUOUS
 10
1.903391
 20
56.192190178
 11
1.903391
 21
56.1574605425
  0
LINE
  5
517
100
AcDbEntity
  8
0
100
AcDbLine
 62
7
  6
CONTINUOUS
 10
1.993334
 20
-52.2241229517
 11
1.993334
 21
-53.7758770483
  0
LINE
  5
518
100
AcDbEntity
  8
INCISIONI
100
AcDbLine
 62
7
  6
CONTINUOUS
 10
2.142335
 20
-63.472214
 11
2.142335
 21
-63.280568
  0
LINE
  5
519
100
AcDbEntity
  8
0
100
AcDbLine
 62
7
  6
CONTINUOUS
 10
2.209544
 20
-53.7758770483
 11
2.209544
 21
-52.2241229517
  0
LINE
  5
51A
100
AcDbEntity
  8
INCISIONI
100
AcDbLine
 62
7
  6
CONTINUOUS
 10
2.21586
 20
-62.790272
 11
2.21586
 21
-62.598626
  0
LINE
  5
51B
100
AcDbEntity
  8
INCISIONI
100
AcDbLine
 62
7
  6
CONTINUOUS
 10
2.231399
 20
-64.198626
 11
2.231399
 21
-64.006979
  0
LINE
  5
51C
100
AcDbEntity
  8
0
100
AcDbLine
 62
7
  6
CONTINUOUS
 10
2.441308
 20
-52.2241229517
 11
2.441308
 21
-52.4099823589
  0
LINE
  5
51D
100
AcDbEntity
  8
0
100
AcDbLine
 62
7
  6
CONTINUOUS
 10
2.446199
 20
56.192190178
 11
2.446199
 21
56.1574605425
  0
LINE
  5
51E
100
AcDbEntity
  8
INCISIONI
100
AcDbLine
 62
7
  6
CONTINUOUS
 10
2.514384
 20
-62.598626
 11
2.514384
 21
-64.198626
  0
LINE
  5
51F
100
AcDbEntity
  8
INCISIONI
100
AcDbLine
 62
7
  6
CONTINUOUS
 10
2.723843
 20
-64.198626
 11
2.723843
 21
-62.899093
  0
LINE
  5
520
100
AcDbEntity
  8
0
100
AcDbLine
 62
7
  6
CONTINUOUS
 10
2.982837
 20
-52.3752527234
 11
2.982837
 21
-53.7758770483
  0
LINE
  5
521
100
AcDbEntity
  8
0
100
AcDbLine
 62
7
  6
CONTINUOUS
 10
3.198969
 20
-53.7758770483
 11
3.198969
 21
-52.3752527234
  0
LINE
  5
522
100
AcDbEntity
  8
INCISIONI
100
AcDbLine
 62
7
  6
CONTINUOUS
 10
3.575071
 20
-62.598626
 11
3.575071
 21
-63.898277
  0
LINE
  5
523
100
AcDbEntity
  8
0
100
AcDbLine
 62
7
  6
CONTINUOUS
 10
3.727192
 20
57.8578459349
 11
3.727192
 21
55.1421540651
  0
LINE
  5
524
100
AcDbEntity
  8
0
100
AcDbLine
 62
7
  6
CONTINUOUS
 10
3.740498
 20
-52.4099823589
 11
3.740498
 21
-52.2241229517
  0
LINE
  5
525
100
AcDbEntity
  8
INCISIONI
100
AcDbLine
 62
7
  6
CONTINUOUS
 10
3.78453
 20
-64.198626
 11
3.78453
 21
-62.598626
  0
LINE
  5
526
100
AcDbEntity
  8
RACCORDO
100
AcDbLine
 62
7
  6
CONTINUOUS
 10
4.0
 20
-64.9301035763
 11
4.0
 21
-66.8
  0
LINE
  5
527
100
AcDbEntity
  8
RACCORDO
100
AcDbLine
 62
7
  6
CONTINUOUS
 10
4.0
 20
64.9301035763
 11
4.0
 21
66.8
  0
LINE
  5
528
100
AcDbEntity
  8
INCISIONI
100
AcDbLine
 62
7
  6
CONTINUOUS
 10
4.134344
 20
-62.598626
 11
4.134344
 21
-64.198626
  0
LINE
  5
529
100
AcDbEntity
  8
0
100
AcDbLine
 62
7
  6
CONTINUOUS
 10
4.192871
 20
-53.3242176819
 11
4.192871
 21
-53.2894880463
  0
LINE
  5
52A
100
AcDbEntity
  8
0
100
AcDbLine
 62
7
  6
CONTINUOUS
 10
4.279499
 20
56.659868087
 11
4.279492
 21
57.3554451793
  0
LINE
  5
52B
100
AcDbEntity
  8
INCISIONI
100
AcDbLine
 62
7
  6
CONTINUOUS
 10
4.350499
 20
-64.013675
 11
4.350499
 21
-62.783576
  0
LINE
  5
52C
100
AcDbEntity
  8
RACCORDO
100
AcDbLine
 62
250
  6
CONTINUOUS
 10
4.4487217534
 20
68.2948091789
 11
4.4487217534
 21
67.9948548704
  0
LINE
  5
52D
100
AcDbEntity
  8
RACCORDO
100
AcDbLine
 62
250
  6
CONTINUOUS
 10
4.4487219094
 20
-68.2948091789
 11
4.4487219094
 21
-67.9948548704
  0
LINE
  5
52E
100
AcDbEntity
  8
0
100
AcDbLine
 62
7
  6
CONTINUOUS
 10
4.518293
 20
-52.4492029437
 11
4.518293
 21
-52.4144733082
  0
LINE
  5
52F
100
AcDbEntity
  8
RACCORDO
100
AcDbLine
 62
7
  6
CONTINUOUS
 10
4.8
 20
-64.9301035763
 11
4.8
 21
-65.5000177199
  0
LINE
  5
530
100
AcDbEntity
  8
RACCORDO
100
AcDbLine
 62
7
  6
CONTINUOUS
 10
4.8
 20
64.9301035763
 11
4.8
 21
65.5000177199
  0
LINE
  5
531
100
AcDbEntity
  8
0
100
AcDbLine
 62
7
  6
CONTINUOUS
 10
4.834696
 20
-53.3242176819
 11
4.834696
 21
-53.2894880463
  0
LINE
  5
532
100
AcDbEntity
  8
0
100
AcDbLine
 62
250
  6
CONTINUOUS
 10
4.960844
 20
56.6945977225
 11
4.960844
 21
56.659868087
  0
LINE
  5
533
100
AcDbEntity
  8
0
100
AcDbLine
 62
250
  6
CONTINUOUS
 10
5.038572
 20
57.8578459349
 11
5.038572
 21
57.8231162993
  0
LINE
  5
534
100
AcDbEntity
  8
0
100
AcDbLine
 62
7
  6
CONTINUOUS
 10
5.427427
 20
-52.2241229517
 11
5.427427
 21
-53.7758770483
  0
LINE
  5
535
100
AcDbEntity
  8
0
100
AcDbLine
 62
7
  6
CONTINUOUS
 10
5.64365
 20
-53.5900176411
 11
5.64365
 21
-52.2241229517
  0
LINE
  5
536
100
AcDbEntity
  8
INCISIONI
100
AcDbLine
 62
7
  6
CONTINUOUS
 10
5.756579
 20
-63.962384
 11
5.756579
 21
-64.198626
  0
LINE
  5
537
100
AcDbEntity
  8
INCISIONI
100
AcDbLine
 62
7
  6
CONTINUOUS
 10
5.988399
 20
-64.198626
 11
5.988399
 21
-63.962384
  0
LINE
  5
538
100
AcDbEntity
  8
0
100
AcDbLine
 62
7
  6
CONTINUOUS
 10
4.28722
 20
55.1421540651
 11
4.287283
 21
56.1921969669
  0
LWPOLYLINE
  5
539
100
AcDbEntity
  8
RACCORDO
100
AcDbPolyline
 62
250
  6
CONTINUOUS
 90
13
 70
0
 10
4.398220846
 20
70.4452864563
 10
4.3985733563
 20
70.4886484568
 10
4.4014090499
 20
70.5314269255
 10
4.4066686565
 20
70.572727802
 10
4.4142422466
 20
70.6116879077
 10
4.4239715292
 20
70.6474929852
 10
4.4356531601
 20
70.6793947163
 10
4.4490429912
 20
70.7067263622
 10
4.4638611731
 20
70.7289166979
 10
4.4797980046
 20
70.7455019506
 10
4.4965204051
 20
70.7561354922
 10
4.5136788753
 20
70.7605950844
 10
4.517310229
 20
70.760736061
  0
LWPOLYLINE
  5
53A
100
AcDbEntity
  8
ASSI
100
AcDbPolyline
 62
7
  6
CONTINUOUS
 90
12
 70
0
 10
1.5196277087
 20
-57.4987816117
 10
1.5191987691
 20
-57.551159471
 10
1.5061443532
 20
-57.700880759
 10
1.477058452
 20
-57.8484378103
 10
1.4323597967
 20
-57.993900116
 10
1.3733170649
 20
-58.132848461
 10
1.2994714611
 20
-58.2651061172
 10
1.2112817808
 20
-58.3908498126
 10
1.1113930882
 20
-58.5061905163
 10
1.0006870712
 20
-58.6098318844
 10
0.8782820418
 20
-58.7030702606
 10
0.744178
 20
-58.7859056451
  0
LWPOLYLINE
  5
53B
100
AcDbEntity
  8
RACCORDO
100
AcDbPolyline
 62
250
  6
CONTINUOUS
 90
10
 70
0
 10
2.9899737982
 20
-68.2385661033
 10
2.9911254988
 20
-68.190798042
 10
2.9932052452
 20
-68.1450329188
 10
2.9961586247
 20
-68.1024681777
 10
2.9999083657
 20
-68.0642175245
 10
3.0043563598
 20
-68.031281787
 10
3.0093862293
 20
-68.0045227284
 10
3.0148663714
 20
-67.984640499
 10
3.0206534017
 20
-67.9721553173
 10
3.0265959063
 20
-67.9673938577
  0
LWPOLYLINE
  5
53C
100
AcDbEntity
  8
0
100
AcDbPolyline
 62
7
  6
CONTINUOUS
 90
12
 70
0
 10
5.8971730797
 20
57.0255199128
 10
5.8964156177
 20
56.9946158165
 10
5.8875115023
 20
56.9001767242
 10
5.8672743548
 20
56.807647183
 10
5.8360962435
 20
56.7169065342
 10
5.7952767476
 20
56.6313366478
 10
5.7444549146
 20
56.551166977
 10
5.6839916971
 20
56.4761680686
 10
5.6162695322
 20
56.4090334337
 10
5.5420825657
 20
56.3506609091
 10
5.4606366519
 20
56.3001526579
 10
5.3719317907
 20
56.2575086802
  0
LWPOLYLINE
  5
53D
100
AcDbEntity
  8
RACCORDO
100
AcDbPolyline
 62
250
  6
CONTINUOUS
 90
6
 70
0
 10
5.5499648497
 20
70.5121708671
 10
5.5513968266
 20
70.5535963249
 10
5.5538360515
 20
70.5944269903
 10
5.5567464812
 20
70.6337711378
 10
5.559003025
 20
70.6706876307
 10
5.5605280946
 20
70.7045075982
  0
LWPOLYLINE
  5
53E
100
AcDbEntity
  8
ASSI
100
AcDbPolyline
 62
7
  6
CONTINUOUS
 90
9
 70
0
 10
-1.5204122825
 20
-57.4987408318
 10
-1.5162919181
 20
-57.3945598093
 10
-1.497639443
 20
-57.2454939361
 10
-1.4629664194
 20
-57.0991973078
 10
-1.4127408491
 20
-56.9555853052
 10
-1.3485023593
 20
-56.8189760856
 10
-1.270764159
 20
-56.6908090348
 10
-1.1790130393
 20
-56.5696447671
 10
-1.073249
 20
-56.4554832825
  0
LWPOLYLINE
  5
53F
100
AcDbEntity
  8
ASSI
100
AcDbPolyline
 62
7
  6
CONTINUOUS
 90
13
 70
0
 10
2.0239758599
 20
-57.4997969427
 10
2.0138275594
 20
-57.6935512805
 10
1.9838799302
 20
-57.8870721618
 10
1.9352654674
 20
-58.0747308268
 10
1.8675219093
 20
-58.2562408914
 10
1.7811115176
 20
-58.4318887398
 10
1.6785535721
 20
-58.5968987613
 10
1.5595038381
 20
-58.7509787763
 10
1.4243065502
 20
-58.8944209644
 10
1.2765136928
 20
-59.0233262542
 10
1.1173092606
 20
-59.1363949552
 10
0.9455092588
 20
-59.2349267578
 10
0.7611136875
 20
-59.3189216621
  0
LWPOLYLINE
  5
540
100
AcDbEntity
  8
RACCORDO
100
AcDbPolyline
 62
250
  6
CONTINUOUS
 90
7
 70
0
 10
5.5605280946
 20
70.7045075982
 10
5.5639860603
 20
70.7604850467
 10
5.5647908401
 20
70.7813722942
 10
5.5658528046
 20
70.7970496526
 10
5.5671315177
 20
70.8071573632
 10
5.5675406833
 20
70.8114830165
 10
5.5674506324
 20
70.8116608517
  0
LWPOLYLINE
  5
541
100
AcDbEntity
  8
0
100
AcDbPolyline
 62
7
  6
CONTINUOUS
 90
15
 70
0
 10
-3.4949429387
 20
-53.0669952887
 10
-3.5004452659
 20
-53.1310833045
 10
-3.5100342171
 20
-53.1922640475
 10
-3.5235025763
 20
-53.2510322373
 10
-3.5410575595
 20
-53.3068931542
 10
-3.5633208143
 20
-53.3583626394
 10
-3.5907700868
 20
-53.4051883084
 10
-3.622927631
 20
-53.4476225457
 10
-3.6589818561
 20
-53.484938346
 10
-3.6989087147
 20
-53.5170173824
 10
-3.7427322542
 20
-53.5439779818
 10
-3.7897130256
 20
-53.5654481194
 10
-3.839604546
 20
-53.581303787
 10
-3.8926532984
 20
-53.5916689929
 10
-3.9488592827
 20
-53.5965437369
  0
LINE
  5
542
100
AcDbEntity
  8
RACCORDO
100
AcDbLine
 62
250
  6
CONTINUOUS
 10
15.3741365485
 20
69.4739061169
 11
15.4204131443
 21
69.7703154229
  0
LINE
  5
543
100
AcDbEntity
  8
DRAFT
100
AcDbLine
 62
250
  6
CONTINUOUS
 10
14.910003031
 20
66.8
 11
14.9808147789
 21
67.2066548225
  0
LINE
  5
544
100
AcDbEntity
  8
DRAFT
100
AcDbLine
 62
250
  6
CONTINUOUS
 10
14.9808147789
 20
67.2066548225
 11
15.0333883624
 21
67.5001683097
  0
LWPOLYLINE
  5
545
100
AcDbEntity
  8
DRAFT
100
AcDbPolyline
 62
250
  6
CONTINUOUS
 90
4
 70
0
 10
15.0333883624
 20
67.5001683097
 10
15.0792051325
 20
67.7475101934
 10
15.0993774075
 20
67.8527694024
 10
15.1176302488
 20
67.9452533617
  0
LWPOLYLINE
  5
546
100
AcDbEntity
  8
RACCORDO
100
AcDbPolyline
 62
7
  6
CONTINUOUS
 90
11
 70
0
 10
-9.4932595896
 20
-68.0145319927
 10
-9.4959158757
 20
-68.0262919647
 10
-9.5019121716
 20
-68.0403974557
 10
-9.5110312255
 20
-68.0568484657
 10
-9.5229719309
 20
-68.0758069229
 10
-9.5374623994
 20
-68.097110899
 10
-9.5543465228
 20
-68.1202746094
 10
-9.5732703785
 20
-68.1452298496
 10
-9.5939780615
 20
-68.172044824
 10
-9.6165876406
 20
-68.2004383613
 10
-9.666618538
 20
-68.2617736769
  0
LWPOLYLINE
  5
547
100
AcDbEntity
  8
RACCORDO
100
AcDbPolyline
 62
7
  6
CONTINUOUS
 90
6
 70
0
 10
16.4718543815
 20
68.0469529343
 10
16.4869954699
 20
68.1141613125
 10
16.4960050114
 20
68.1552272493
 10
16.5055126856
 20
68.1998307064
 10
16.5157490918
 20
68.2467699245
 10
16.5267142301
 20
68.2948091789
  0
LWPOLYLINE
  5
548
100
AcDbEntity
  8
RACCORDO
100
AcDbPolyline
 62
7
  6
CONTINUOUS
 90
4
 70
0
 10
-16.4604885275
 20
-67.9964526103
 10
-16.4628566148
 20
-68.0056707432
 10
-16.4666452328
 20
-68.0226850375
 10
-16.4718543815
 20
-68.0469529343
  0
LWPOLYLINE
  5
549
100
AcDbEntity
  8
RACCORDO
100
AcDbPolyline
 62
7
  6
CONTINUOUS
 90
10
 70
0
 10
-16.4604885275
 20
-67.9964526103
 10
-16.4603916382
 20
-67.9961648144
 10
-16.4602350097
 20
-67.9959041678
 10
-16.460018642
 20
-67.9956708552
 10
-16.4597429564
 20
-67.9954650868
 10
-16.4594075316
 20
-67.9952870073
 10
-16.459011103
 20
-67.9951367362
 10
-16.4585532494
 20
-67.9950144707
 10
-16.458034392
 20
-67.9949204458
 10
-16.457454531
 20
-67.9948548704
  0
LWPOLYLINE
  5
54A
100
AcDbEntity
  8
DRAFT
100
AcDbPolyline
 62
7
  6
CONTINUOUS
 90
49
 70
0
 10
-18.67937941
 20
-0.5506466324
 10
-18.6688420907
 20
-0.5481273995
 10
-18.6566876877
 20
-0.5442124008
 10
-18.6430922161
 20
-0.5389016363
 10
-18.6282318834
 20
-0.5322476632
 10
-18.6122674763
 20
-0.5241979242
 10
-18.5953385922
 20
-0.5145947473
 10
-18.5775800098
 20
-0.5034540423
 10
-18.55914766
 20
-0.4907598994
 10
-18.5402041918
 20
-0.4763069166
 10
-18.5208774175
 20
-0.4601227794
 10
-18.5013065565
 20
-0.4421798023
 10
-18.4816752559
 20
-0.4221895265
 10
-18.4620524673
 20
-0.4001353211
 10
-18.4426117618
 20
-0.376033817
 10
-18.4237190345
 20
-0.3496464478
 10
-18.4054513667
 20
-0.3209322454
 10
-18.3879817141
 20
-0.2899321778
 10
-18.3718676084
 20
-0.2565305827
 10
-18.3571698929
 20
-0.2205681694
 10
-18.3440738272
 20
-0.1822042285
 10
-18.3333711041
 20
-0.1418009697
 10
-18.3252073085
 20
-0.0989424948
 10
-18.3196306779
 20
-0.054044702
 10
-18.3172940152
 20
-0.0087174956
 10
-18.3185633821
 20
0.0373165881
 10
-18.3230861618
 20
0.0837800854
 10
-18.3303964992
 20
0.1282307005
 10
-18.340523586
 20
0.1700074727
 10
-18.3532464359
 20
0.2097713628
 10
-18.367721357
 20
0.2470629573
 10
-18.3837635574
 20
0.2817048309
 10
-18.4012993332
 20
0.313874409
 10
-18.4197018492
 20
0.343644554
 10
-18.4387794292
 20
0.3709501835
 10
-18.4584634774
 20
0.39585638
 10
-18.4783649768
 20
0.4186312528
 10
-18.4983057651
 20
0.4392635563
 10
-18.5182102104
 20
0.4577645362
 10
-18.5378721825
 20
0.4744360391
 10
-18.5571437448
 20
0.4893038029
 10
-18.575898275
 20
0.5023420896
 10
-18.5939679673
 20
0.5137755319
 10
-18.6111920738
 20
0.5236226031
 10
-18.6274315958
 20
0.5318648298
 10
-18.6425423818
 20
0.5386714249
 10
-18.6563584756
 20
0.5440987924
 10
-18.6686980563
 20
0.5480905283
 10
-18.67937941
 20
0.5506466324
  0
LINE
  5
54B
100
AcDbEntity
  8
RACCORDO
100
AcDbLine
 62
7
  6
CONTINUOUS
 10
-15.25
 20
6.0
 11
15.25
 21
6.0
  0
LWPOLYLINE
  5
54C
100
AcDbEntity
  8
RACCORDO
100
AcDbPolyline
 62
7
  6
CONTINUOUS
 90
11
 70
0
 10
19.0821324356
 20
0.5067404104
 10
19.0939227288
 20
0.5040756716
 10
19.1080576617
 20
0.4980605768
 10
19.1245372343
 20
0.4889165175
 10
19.143541272
 20
0.4769418601
 10
19.1648899494
 20
0.4624164489
 10
19.1880437911
 20
0.445528229
 10
19.2128743319
 20
0.4266847605
 10
19.239510037
 20
0.4061171875
 10
19.2677968265
 20
0.3836059033
 10
19.329220939
 20
0.3335159896
  0
LWPOLYLINE
  5
54D
100
AcDbEntity
  8
RACCORDO
100
AcDbPolyline
 62
7
  6
CONTINUOUS
 90
5
 70
0
 10
-16.4604885275
 20
67.9964526103
 10
-16.4628566148
 20
68.0056707432
 10
-16.4666452328
 20
68.0226850375
 10
-16.4718543815
 20
68.0469529343
 10
-16.4869954699
 20
68.1141613125
  0
LWPOLYLINE
  5
54E
100
AcDbEntity
  8
RACCORDO
100
AcDbPolyline
 62
7
  6
CONTINUOUS
 90
5
 70
0
 10
16.4869954699
 20
-68.1141613125
 10
16.4960050114
 20
-68.1552272493
 10
16.5055126856
 20
-68.1998307064
 10
16.5157490918
 20
-68.2467699245
 10
16.5267142301
 20
-68.2948091789
  0
LINE
  5
54F
100
AcDbEntity
  8
DRAFT
100
AcDbLine
 62
250
  6
CONTINUOUS
 10
15.0993765951
 20
-67.8527671341
 11
15.1176296885
 21
-67.9452528451
  0
LINE
  5
550
100
AcDbEntity
  8
DRAFT
100
AcDbLine
 62
250
  6
CONTINUOUS
 10
15.0571823799
 20
-67.6298367259
 11
15.0993765951
 21
-67.8527671341
  0
LINE
  5
551
100
AcDbEntity
  8
DRAFT
100
AcDbLine
 62
250
  6
CONTINUOUS
 10
15.0079023748
 20
-67.358942216
 11
15.0571823799
 21
-67.6298367259
  0
LWPOLYLINE
  5
552
100
AcDbEntity
  8
DRAFT
100
AcDbPolyline
 62
250
  6
CONTINUOUS
 90
3
 70
0
 10
14.9100029474
 20
-66.8
 10
14.9222130787
 20
-66.8710385354
 10
15.0079023748
 20
-67.358942216
  0
LINE
  5
553
100
AcDbEntity
  8
RACCORDO
100
AcDbLine
 62
250
  6
CONTINUOUS
 10
15.3741365485
 20
-69.4739061169
 11
15.4204131396
 21
-69.7703154236
  0
LINE
  5
554
100
AcDbEntity
  8
DRAFT
100
AcDbLine
 62
7
  6
CONTINUOUS
 10
9.3425956576
 20
-67.7195799649
 11
9.3501336181
 21
-67.9250896396
  0
LWPOLYLINE
  5
555
100
AcDbEntity
  8
DRAFT
100
AcDbPolyline
 62
7
  6
CONTINUOUS
 90
28
 70
0
 10
9.3356316563
 20
67.5
 10
9.3385194351
 20
67.4161706853
 10
9.3518757452
 20
67.3343421236
 10
9.375087774
 20
67.2557905315
 10
9.4074286197
 20
67.181604593
 10
9.4480117849
 20
67.112823193
 10
9.4957633032
 20
67.0503929092
 10
9.5493323587
 20
66.9952075767
 10
9.6078670814
 20
66.9473836469
 10
9.6711783945
 20
66.9066812981
 10
9.738534743
 20
66.8734574535
 10
9.8088626516
 20
66.8481449308
 10
9.8816944018
 20
66.8308585221
 10
9.9561296527
 20
66.8218437132
 10
10.0311810149
 20
66.821257641
 10
10.1062666528
 20
66.829201194
 10
10.1804715916
 20
66.8457411383
 10
10.2526847064
 20
66.8707987381
 10
10.3219877516
 20
66.9042446732
 10
10.3872620947
 20
66.9457213664
 10
10.4476019498
 20
66.994841383
 10
10.5023257687
 20
67.0513854736
 10
10.5505489195
 20
67.1149884906
 10
10.5910948909
 20
67.1846936332
 10
10.6229543846
 20
67.2592198892
 10
10.6454513395
 20
67.3373545421
 10
10.6581213739
 20
67.4180348899
 10
10.6606005016
 20
67.5
  0
LWPOLYLINE
  5
556
100
AcDbEntity
  8
DRAFT
100
AcDbPolyline
 62
7
  6
CONTINUOUS
 90
28
 70
0
 10
10.6606005007
 20
-67.5
 10
10.6580269231
 20
-67.4170447092
 10
10.645054004
 20
-67.335577352
 10
10.6221192517
 20
-67.2568883849
 10
10.58974342
 20
-67.1820195977
 10
10.548687009
 20
-67.1122146995
 10
10.5001070336
 20
-67.0488143947
 10
10.4453211197
 20
-66.9927579269
 10
10.385240151
 20
-66.9442700127
 10
10.3205064312
 20
-66.9034231353
 10
10.2521808745
 20
-66.870588033
 10
10.1812388864
 20
-66.8459561146
 10
10.1080037358
 20
-66.8294876528
 10
10.0332953087
 20
-66.8213651963
 10
9.9582172866
 20
-66.8217126643
 10
9.8834567291
 20
-66.8305460548
 10
9.8099597172
 20
-66.8478212447
 10
9.7387397695
 20
-66.8733717129
 10
9.670598961
 20
-66.907009388
 10
9.6066847302
 20
-66.9482448749
 10
9.5476954893
 20
-66.9967149105
 10
9.4939264381
 20
-67.052528357
 10
9.4461798264
 20
-67.1155541502
 10
9.405805364
 20
-67.1848067367
 10
9.3739193698
 20
-67.2590220499
 10
9.3512673718
 20
-67.3370092198
 10
9.3383604377
 20
-67.4177510691
 10
9.3356316682
 20
-67.5
  0
LINE
  5
557
100
AcDbEntity
  8
DRAFT
100
AcDbLine
 62
7
  6
CONTINUOUS
 10
9.3356316707
 20
-67.5
 11
9.3425956576
 21
-67.7195799649
  0
LINE
  5
558
100
AcDbEntity
  8
0
100
AcDbLine
 62
7
  6
CONTINUOUS
 10
6.454843
 20
-53.7758770483
 11
6.454843
 21
-53.5900176411
  0
LINE
  5
559
100
AcDbEntity
  8
DRAFT
100
AcDbLine
 62
7
  6
CONTINUOUS
 10
7.0
 20
65.5
 11
7.0
 21
65.2
  0
LINE
  5
55A
100
AcDbEntity
  8
0
100
AcDbLine
 62
7
  6
CONTINUOUS
 10
7.0
 20
65.2
 11
7.0
 21
64.5
  0
LINE
  5
55B
100
AcDbEntity
  8
DRAFT
100
AcDbLine
 62
7
  6
CONTINUOUS
 10
7.0
 20
-65.5
 11
7.0
 21
-65.2
  0
LINE
  5
55C
100
AcDbEntity
  8
0
100
AcDbLine
 62
7
  6
CONTINUOUS
 10
7.0
 20
-65.2
 11
7.0
 21
-64.5
  0
LINE
  5
55D
100
AcDbEntity
  8
RACCORDO
100
AcDbLine
 62
7
  6
CONTINUOUS
 10
7.0
 20
-64.5
 11
7.0
 21
-62.5
  0
LINE
  5
55E
100
AcDbEntity
  8
RACCORDO
100
AcDbLine
 62
7
  6
CONTINUOUS
 10
7.0
 20
62.5
 11
7.0
 21
64.5
  0
LINE
  5
55F
100
AcDbEntity
  8
0
100
AcDbLine
 62
7
  6
CONTINUOUS
 10
7.132239
 20
-53.1512853561
 11
7.132239
 21
-53.7758770483
  0
LINE
  5
560
100
AcDbEntity
  8
0
100
AcDbLine
 62
7
  6
CONTINUOUS
 10
7.348333
 20
-53.7758770483
 11
7.348333
 21
-53.1512853561
  0
LINE
  5
561
100
AcDbEntity
  8
ASSI
100
AcDbLine
 62
7
  6
CONTINUOUS
 10
8.132446
 20
-2.548037
 11
8.132446
 21
-1.79722
  0
LINE
  5
562
100
AcDbEntity
  8
ASSI
100
AcDbLine
 62
7
  6
CONTINUOUS
 10
8.132446
 20
1.79722
 11
8.132446
 21
2.548037
  0
LINE
  5
563
100
AcDbEntity
  8
RACCORDO
100
AcDbLine
 62
250
  6
CONTINUOUS
 10
9.4932595896
 20
-68.0145319927
 11
9.4932595896
 21
-67.5
  0
LINE
  5
564
100
AcDbEntity
  8
RACCORDO
100
AcDbLine
 62
250
  6
CONTINUOUS
 10
9.4932595896
 20
67.5
 11
9.4932595896
 21
68.0145319927
  0
LINE
  5
565
100
AcDbEntity
  8
DRAFT
100
AcDbLine
 62
7
  6
CONTINUOUS
 10
9.5
 20
55.2875314147
 11
9.5
 21
55.2059230783
  0
LINE
  5
566
100
AcDbEntity
  8
DRAFT
100
AcDbLine
 62
7
  6
CONTINUOUS
 10
9.5
 20
-55.2059230783
 11
9.5
 21
-55.2875314147
  0
LINE
  5
567
100
AcDbEntity
  8
DRAFT
100
AcDbLine
 62
7
  6
CONTINUOUS
 10
9.5
 20
-59.7194598052
 11
9.5
 21
-59.7940769217
  0
LINE
  5
568
100
AcDbEntity
  8
DRAFT
100
AcDbLine
 62
7
  6
CONTINUOUS
 10
9.5
 20
59.7194598052
 11
9.5
 21
59.7940769217
  0
LINE
  5
569
100
AcDbEntity
  8
RACCORDO
100
AcDbLine
 62
250
  6
CONTINUOUS
 10
9.693137755
 20
-68.2948091789
 11
9.693137755
 21
-67.5
  0
LINE
  5
56A
100
AcDbEntity
  8
RACCORDO
100
AcDbLine
 62
250
  6
CONTINUOUS
 10
9.693137755
 20
67.5
 11
9.693137755
 21
68.2948091789
  0
LINE
  5
56B
100
AcDbEntity
  8
RACCORDO
100
AcDbLine
 62
250
  6
CONTINUOUS
 10
10.306862245
 20
68.2948091789
 11
10.306862245
 21
67.5
  0
LINE
  5
56C
100
AcDbEntity
  8
RACCORDO
100
AcDbLine
 62
250
  6
CONTINUOUS
 10
10.306862245
 20
-67.5
 11
10.306862245
 21
-68.2948091789
  0
LINE
  5
56D
100
AcDbEntity
  8
DRAFT
100
AcDbLine
 62
7
  6
CONTINUOUS
 10
10.5
 20
-55.2875314147
 11
10.5
 21
-55.2059230783
  0
LINE
  5
56E
100
AcDbEntity
  8
DRAFT
100
AcDbLine
 62
7
  6
CONTINUOUS
 10
10.5
 20
-59.7194598052
 11
10.5
 21
-59.7940769217
  0
LINE
  5
56F
100
AcDbEntity
  8
DRAFT
100
AcDbLine
 62
7
  6
CONTINUOUS
 10
10.5
 20
55.2059230783
 11
10.5
 21
55.2875314147
  0
LINE
  5
570
100
AcDbEntity
  8
DRAFT
100
AcDbLine
 62
7
  6
CONTINUOUS
 10
10.5
 20
59.7194598052
 11
10.5
 21
59.7940769217
  0
LINE
  5
571
100
AcDbEntity
  8
RACCORDO
100
AcDbLine
 62
250
  6
CONTINUOUS
 10
10.5067404104
 20
68.0145319927
 11
10.5067404104
 21
67.5
  0
LINE
  5
572
100
AcDbEntity
  8
RACCORDO
100
AcDbLine
 62
250
  6
CONTINUOUS
 10
10.5067404104
 20
-67.5
 11
10.5067404104
 21
-68.0145319927
  0
LWPOLYLINE
  5
573
100
AcDbEntity
  8
INCISIONI
100
AcDbPolyline
 62
7
  6
CONTINUOUS
 90
16
 70
0
 10
5.2325942013
 20
-63.3986255277
 10
5.2313001528
 20
-63.46937253
 10
5.2256495047
 20
-63.5369820899
 10
5.215642257
 20
-63.6014542073
 10
5.2014960548
 20
-63.6633560564
 10
5.1829932529
 20
-63.722120463
 10
5.1594809159
 20
-63.7760459046
 10
5.1304439152
 20
-63.8248548334
 10
5.0963973794
 20
-63.8688247971
 10
5.0582337578
 20
-63.9070869167
 10
5.0159061055
 20
-63.9394027562
 10
4.9694613674
 20
-63.9660107515
 10
4.9199328274
 20
-63.9867573308
 10
4.8676649136
 20
-64.0015913033
 10
4.8123131979
 20
-64.0105638597
 10
4.7538776804
 20
-64.013675
  0
LINE
  5
574
100
AcDbEntity
  8
DRAFT
100
AcDbLine
 62
7
  6
CONTINUOUS
 10
9.3426051871
 20
67.7198598045
 11
9.3356316599
 21
67.5
  0
LINE
  5
575
100
AcDbEntity
  8
DRAFT
100
AcDbLine
 62
7
  6
CONTINUOUS
 10
9.3501335989
 20
67.92508963
 11
9.3426051871
 21
67.7198598045
  0
LINE
  5
576
100
AcDbEntity
  8
0
100
AcDbLine
 62
7
  6
CONTINUOUS
 10
-10.8570671264
 20
-63.0
 11
-10.9223432879
 21
-63.2033094437
  0
LINE
  5
577
100
AcDbEntity
  8
0
100
AcDbLine
 62
7
  6
CONTINUOUS
 10
-10.9984628446
 20
-63.521198
 11
-11.123097951
 21
-63.9093870962
  0
LINE
  5
578
100
AcDbEntity
  8
0
100
AcDbLine
 62
7
  6
CONTINUOUS
 10
-10.5690391263
 20
-63.0
 11
-10.9790867974
 21
-64.2771364302
  0
LINE
  5
579
100
AcDbEntity
  8
0
100
AcDbLine
 62
7
  6
CONTINUOUS
 10
-9.8896514899
 20
-63.0
 11
-10.1437394605
 21
-63.791383604
  0
LINE
  5
57A
100
AcDbEntity
  8
0
100
AcDbLine
 62
7
  6
CONTINUOUS
 10
-9.7456373119
 20
-63.3906447007
 11
-10.0302614605
 21
-64.2771364302
  0
LINE
  5
57B
100
AcDbEntity
  8
0
100
AcDbLine
 62
7
  6
CONTINUOUS
 10
-7.8480708911
 20
-63.0
 11
-8.2581185621
 21
-64.2771364302
  0
LINE
  5
57C
100
AcDbEntity
  8
0
100
AcDbLine
 62
7
  6
CONTINUOUS
 10
-6.6394089461
 20
-52.4689035658
 11
-6.628693
 21
-52.4378747298
  0
LINE
  5
57D
100
AcDbEntity
  8
0
100
AcDbLine
 62
7
  6
CONTINUOUS
 10
-7.078784
 20
-53.7758770483
 11
-6.628693
 21
-52.4726043653
  0
LINE
  5
57E
100
AcDbEntity
  8
0
100
AcDbLine
 62
7
  6
CONTINUOUS
 10
-6.726711
 20
-52.2241229517
 11
-7.183554
 21
-53.5423661823
  0
LINE
  5
57F
100
AcDbEntity
  8
RACCORDO
100
AcDbLine
 62
7
  6
CONTINUOUS
 10
-16.8764983111
 20
-17.6331904331
 11
-16.8965699136
 21
-17.6414905497
  0
LINE
  5
580
100
AcDbEntity
  8
RACCORDO
100
AcDbLine
 62
7
  6
CONTINUOUS
 10
-16.8563619371
 20
-17.6250442902
 11
-16.8764983111
 21
-17.6331904331
  0
LINE
  5
581
100
AcDbEntity
  8
RACCORDO
100
AcDbLine
 62
7
  6
CONTINUOUS
 10
-16.8361612236
 20
-17.6170487852
 11
-16.8563619371
 21
-17.6250442902
  0
LWPOLYLINE
  5
582
100
AcDbEntity
  8
RACCORDO
100
AcDbPolyline
 62
7
  6
CONTINUOUS
 90
3
 70
0
 10
-16.8057426494
 20
-17.605313789
 10
-16.8158978989
 20
-17.6091905747
 10
-16.8361612236
 20
-17.6170487852
  0
LINE
  5
583
100
AcDbEntity
  8
RACCORDO
100
AcDbLine
 62
7
  6
CONTINUOUS
 10
19.0640530533
 20
-0.5093811665
 11
19.0
 21
-0.5306627248
  0
LINE
  5
584
100
AcDbEntity
  8
RACCORDO
100
AcDbLine
 62
7
  6
CONTINUOUS
 10
19.0640530533
 20
0.5093811665
 11
19.0
 21
0.5306627248
  0
LINE
  5
585
100
AcDbEntity
  8
RACCORDO
100
AcDbLine
 62
7
  6
CONTINUOUS
 10
-16.8057426494
 20
17.605313789
 11
-16.8260374236
 21
17.6131022402
  0
LINE
  5
586
100
AcDbEntity
  8
RACCORDO
100
AcDbLine
 62
7
  6
CONTINUOUS
 10
-16.8260374236
 20
17.6131022402
 11
-16.8462694427
 21
17.6210290979
  0
LINE
  5
587
100
AcDbEntity
  8
RACCORDO
100
AcDbLine
 62
7
  6
CONTINUOUS
 10
-16.8462694427
 20
17.6210290979
 11
-16.8664382746
 21
17.629097698
  0
LWPOLYLINE
  5
588
100
AcDbEntity
  8
RACCORDO
100
AcDbPolyline
 62
7
  6
CONTINUOUS
 90
3
 70
0
 10
-16.8664382746
 20
17.629097698
 10
-16.8865421908
 20
17.6373213837
 10
-16.8965699136
 20
17.6414905497
  0
LINE
  5
589
100
AcDbEntity
  8
DRAFT
100
AcDbLine
 62
7
  6
CONTINUOUS
 10
10.6529294261
 20
67.7219258624
 11
10.6446518088
 21
67.9276961318
  0
LINE
  5
58A
100
AcDbEntity
  8
DRAFT
100
AcDbLine
 62
7
  6
CONTINUOUS
 10
10.6606004959
 20
67.5
 11
10.6529294261
 21
67.7219258624
  0
LINE
  5
58B
100
AcDbEntity
  8
RACCORDO
100
AcDbLine
 62
250
  6
CONTINUOUS
 10
14.2740647212
 20
42.816209947
 11
14.2514047252
 21
50.999836179
  0
LINE
  5
58C
100
AcDbEntity
  8
RACCORDO
100
AcDbLine
 62
250
  6
CONTINUOUS
 10
14.2857876086
 20
35.5376874993
 11
14.2740647212
 21
42.816209947
  0
LINE
  5
58D
100
AcDbEntity
  8
RACCORDO
100
AcDbLine
 62
250
  6
CONTINUOUS
 10
14.2894908488
 20
28.5
 11
14.2857876086
 21
35.5376874993
  0
LINE
  5
58E
100
AcDbEntity
  8
ASSI
100
AcDbLine
 62
7
  6
CONTINUOUS
 10
12.117556
 20
-0.375
 11
12.117556
 21
0.375
  0
LINE
  5
58F
100
AcDbEntity
  8
ASSI
100
AcDbLine
 62
7
  6
CONTINUOUS
 10
12.517556
 20
-2.5480371177
 11
12.517556
 21
-1.7972169516
  0
LINE
  5
590
100
AcDbEntity
  8
ASSI
100
AcDbLine
 62
7
  6
CONTINUOUS
 10
12.517556
 20
1.79722
 11
12.517556
 21
2.5480371177
  0
LINE
  5
591
100
AcDbEntity
  8
RACCORDO
100
AcDbLine
 62
7
  6
CONTINUOUS
 10
12.7268900626
 20
51.0
 11
12.7268900626
 21
6.0
  0
LINE
  5
592
100
AcDbEntity
  8
RACCORDO
100
AcDbLine
 62
7
  6
CONTINUOUS
 10
12.7268900626
 20
-6.0
 11
12.7268900626
 21
-51.0
  0
LINE
  5
593
100
AcDbEntity
  8
DRAFT
100
AcDbLine
 62
7
  6
CONTINUOUS
 10
13.0
 20
65.5
 11
13.0
 21
65.2
  0
LINE
  5
594
100
AcDbEntity
  8
0
100
AcDbLine
 62
7
  6
CONTINUOUS
 10
13.0
 20
65.2
 11
13.0
 21
64.5
  0
LINE
  5
595
100
AcDbEntity
  8
RACCORDO
100
AcDbLine
 62
7
  6
CONTINUOUS
 10
13.0
 20
64.5
 11
13.0
 21
62.5
  0
LINE
  5
596
100
AcDbEntity
  8
DRAFT
100
AcDbLine
 62
7
  6
CONTINUOUS
 10
13.0
 20
-65.5
 11
13.0
 21
-65.2
  0
LINE
  5
597
100
AcDbEntity
  8
0
100
AcDbLine
 62
7
  6
CONTINUOUS
 10
13.0
 20
-65.2
 11
13.0
 21
-64.5
  0
LINE
  5
598
100
AcDbEntity
  8
RACCORDO
100
AcDbLine
 62
7
  6
CONTINUOUS
 10
13.0
 20
-62.5
 11
13.0
 21
-64.5
  0
LINE
  5
599
100
AcDbEntity
  8
RACCORDO
100
AcDbLine
 62
250
  6
CONTINUOUS
 10
13.2268900626
 20
51.0
 11
13.2268900626
 21
6.0
  0
LINE
  5
59A
100
AcDbEntity
  8
RACCORDO
100
AcDbLine
 62
250
  6
CONTINUOUS
 10
13.2268900626
 20
-6.0
 11
13.2268900626
 21
-51.0
  0
LINE
  5
59B
100
AcDbEntity
  8
RACCORDO
100
AcDbLine
 62
250
  6
CONTINUOUS
 10
13.6255177166
 20
51.0
 11
13.6255177166
 21
6.0
  0
LINE
  5
59C
100
AcDbEntity
  8
RACCORDO
100
AcDbLine
 62
250
  6
CONTINUOUS
 10
13.6255177166
 20
-6.0
 11
13.6255177166
 21
-51.0
  0
LINE
  5
59D
100
AcDbEntity
  8
RACCORDO
100
AcDbLine
 62
250
  6
CONTINUOUS
 10
14.124832484
 20
51.0
 11
14.124832484
 21
6.0
  0
LINE
  5
59E
100
AcDbEntity
  8
RACCORDO
100
AcDbLine
 62
250
  6
CONTINUOUS
 10
14.124832484
 20
-6.0
 11
14.124832484
 21
-51.0
  0
LINE
  5
59F
100
AcDbEntity
  8
RACCORDO
100
AcDbLine
 62
250
  6
CONTINUOUS
 10
14.25
 20
6.0
 11
14.25
 21
-6.0
  0
LINE
  5
5A0
100
AcDbEntity
  8
0
100
AcDbLine
 62
7
  6
CONTINUOUS
 10
14.3
 20
51.0
 11
14.3
 21
6.0
  0
LINE
  5
5A1
100
AcDbEntity
  8
0
100
AcDbLine
 62
7
  6
CONTINUOUS
 10
14.3
 20
-6.0
 11
14.3
 21
-51.0
  0
LINE
  5
5A2
100
AcDbEntity
  8
RACCORDO
100
AcDbLine
 62
7
  6
CONTINUOUS
 10
15.25
 20
65.4300274238
 11
15.25
 21
61.9918713663
  0
LINE
  5
5A3
100
AcDbEntity
  8
RACCORDO
100
AcDbLine
 62
7
  6
CONTINUOUS
 10
15.25
 20
6.0
 11
15.25
 21
-6.0
  0
LINE
  5
5A4
100
AcDbEntity
  8
0
100
AcDbLine
 62
7
  6
CONTINUOUS
 10
15.25
 20
-6.0
 11
15.25
 21
-61.9918713663
  0
LINE
  5
5A5
100
AcDbEntity
  8
RACCORDO
100
AcDbLine
 62
7
  6
CONTINUOUS
 10
15.25
 20
-61.9918713663
 11
15.25
 21
-65.4300274238
  0
LINE
  5
5A6
100
AcDbEntity
  8
0
100
AcDbLine
 62
7
  6
CONTINUOUS
 10
15.25
 20
6.0
 11
15.25
 21
61.9918713663
  0
LINE
  5
5A7
100
AcDbEntity
  8
RACCORDO
100
AcDbLine
 62
250
  6
CONTINUOUS
 10
16.4999999361
 20
66.7892270587
 11
16.4999999901
 21
66.822134669
  0
LINE
  5
5A8
100
AcDbEntity
  8
RACCORDO
100
AcDbLine
 62
250
  6
CONTINUOUS
 10
16.4999999985
 20
-66.7875497669
 11
16.4999999997
 21
-66.8221346312
  0
LINE
  5
5A9
100
AcDbEntity
  8
DRAFT
100
AcDbLine
 62
7
  6
CONTINUOUS
 10
16.8057426494
 20
45.5664150497
 11
16.8057426494
 21
18.394686211
  0
LINE
  5
5AA
100
AcDbEntity
  8
DRAFT
100
AcDbLine
 62
7
  6
CONTINUOUS
 10
16.8057426494
 20
17.605313789
 11
16.8057426494
 21
-17.605313789
  0
LINE
  5
5AB
100
AcDbEntity
  8
DRAFT
100
AcDbLine
 62
7
  6
CONTINUOUS
 10
16.8057426494
 20
-18.394686211
 11
16.8057426494
 21
-45.5664150497
  0
LINE
  5
5AC
100
AcDbEntity
  8
RACCORDO
100
AcDbLine
 62
7
  6
CONTINUOUS
 10
16.8127246754
 20
64.9128008278
 11
16.8127246754
 21
54.8920237204
  0
LINE
  5
5AD
100
AcDbEntity
  8
DRAFT
100
AcDbLine
 62
7
  6
CONTINUOUS
 10
16.8127246754
 20
54.1079762796
 11
16.8127246754
 21
52.9409741574
  0
LINE
  5
5AE
100
AcDbEntity
  8
DRAFT
100
AcDbLine
 62
7
  6
CONTINUOUS
 10
16.8127246754
 20
-52.9409741574
 11
16.8127246754
 21
-54.1079762796
  0
LINE
  5
5AF
100
AcDbEntity
  8
RACCORDO
100
AcDbLine
 62
7
  6
CONTINUOUS
 10
16.8127246754
 20
-54.8920237204
 11
16.8127246754
 21
-64.9128008278
  0
LINE
  5
5B0
100
AcDbEntity
  8
RACCORDO
100
AcDbLine
 62
7
  6
CONTINUOUS
 10
16.9
 20
65.0000761524
 11
16.9
 21
-65.0000761524
  0
LINE
  5
5B1
100
AcDbEntity
  8
RACCORDO
100
AcDbLine
 62
250
  6
CONTINUOUS
 10
14.2839272566
 20
-37.0906019819
 11
14.2894908488
 21
-28.5
  0
LINE
  5
5B2
100
AcDbEntity
  8
RACCORDO
100
AcDbLine
 62
250
  6
CONTINUOUS
 10
14.2618820486
 20
-47.6476035058
 11
14.2839272566
 21
-37.0906019819
  0
LINE
  5
5B3
100
AcDbEntity
  8
RACCORDO
100
AcDbLine
 62
250
  6
CONTINUOUS
 10
14.2514035874
 20
-50.9998361629
 11
14.2618820486
 21
-47.6476035058
  0
LINE
  5
5B4
100
AcDbEntity
  8
RACCORDO
100
AcDbLine
 62
7
  6
CONTINUOUS
 10
16.8996469164
 20
54.326010535
 11
16.8990936139
 21
54.2382602982
  0
LINE
  5
5B5
100
AcDbEntity
  8
RACCORDO
100
AcDbLine
 62
7
  6
CONTINUOUS
 10
16.8996468871
 20
17.8260026499
 11
16.8990936017
 21
17.738258523
  0
LINE
  5
5B6
100
AcDbEntity
  8
RACCORDO
100
AcDbLine
 62
7
  6
CONTINUOUS
 10
16.8996468786
 20
-18.1739996379
 11
16.8990935981
 21
-18.2617419923
  0
LINE
  5
5B7
100
AcDbEntity
  8
RACCORDO
100
AcDbLine
 62
7
  6
CONTINUOUS
 10
16.8996469129
 20
-54.6739903888
 11
16.8990936125
 21
-54.7617399097
  0
LWPOLYLINE
  5
5B8
100
AcDbEntity
  8
RACCORDO
100
AcDbPolyline
 62
7
  6
CONTINUOUS
 90
7
 70
0
 10
16.8990936139
 20
54.2382602982
 10
16.8985167968
 20
54.1926868855
 10
16.8981656914
 20
54.1744745748
 10
16.8977935785
 20
54.1601612061
 10
16.8974066977
 20
54.1500387119
 10
16.8969988094
 20
54.1438151598
 10
16.8965699136
 20
54.1414905497
  0
LWPOLYLINE
  5
5B9
100
AcDbEntity
  8
RACCORDO
100
AcDbPolyline
 62
7
  6
CONTINUOUS
 90
7
 70
0
 10
16.8990936017
 20
17.738258523
 10
16.8985167933
 20
17.6926869728
 10
16.8981656853
 20
17.674474491
 10
16.8977935709
 20
17.6601609672
 10
16.8974066914
 20
17.6500385366
 10
16.8969988057
 20
17.6438150641
 10
16.8965699136
 20
17.6414905497
  0
LWPOLYLINE
  5
5BA
100
AcDbEntity
  8
RACCORDO
100
AcDbPolyline
 62
7
  6
CONTINUOUS
 90
7
 70
0
 10
16.8990935981
 20
-18.2617419923
 10
16.8985167923
 20
-18.3073130021
 10
16.8981656835
 20
-18.3255255335
 10
16.8977935687
 20
-18.3398391021
 10
16.8974066896
 20
-18.3499615143
 10
16.8969988046
 20
-18.3561849637
 10
16.8965699136
 20
-18.3585094503
  0
LINE
  5
5BB
100
AcDbEntity
  8
DRAFT
100
AcDbLine
 62
7
  6
CONTINUOUS
 10
10.652919335
 20
-67.72219636
 11
10.6606004905
 21
-67.5
  0
LINE
  5
5BC
100
AcDbEntity
  8
DRAFT
100
AcDbLine
 62
7
  6
CONTINUOUS
 10
10.644651798
 20
-67.9276961372
 11
10.652919335
 21
-67.72219636
  0
LWPOLYLINE
  5
5BD
100
AcDbEntity
  8
RACCORDO
100
AcDbPolyline
 62
250
  6
CONTINUOUS
 90
9
 70
0
 10
-5.014747968
 20
-70.5622116193
 10
-5.0258167554
 20
-70.606726844
 10
-5.0424243579
 20
-70.6482495332
 10
-5.0641593799
 20
-70.6857510868
 10
-5.0904834088
 20
-70.718302516
 10
-5.120744353
 20
-70.7450974569
 10
-5.1541925955
 20
-70.7654721457
 10
-5.1899995633
 20
-70.7789218605
 10
-5.2225565785
 20
-70.7847422553
  0
LINE
  5
5BE
100
AcDbEntity
  8
0
100
AcDbLine
 62
7
  6
CONTINUOUS
 10
-7.7040577305
 20
-63.4485493051
 11
-7.9700905621
 21
-64.2771364302
  0
LINE
  5
5BF
100
AcDbEntity
  8
0
100
AcDbLine
 62
7
  6
CONTINUOUS
 10
-6.004673
 20
-53.7758770483
 11
-5.837518
 21
-53.3242176819
  0
LINE
  5
5C0
100
AcDbEntity
  8
0
100
AcDbLine
 62
7
  6
CONTINUOUS
 10
-5.770645
 20
-53.1383592445
 11
-5.51207
 21
-52.4492029437
  0
LINE
  5
5C1
100
AcDbEntity
  8
0
100
AcDbLine
 62
7
  6
CONTINUOUS
 10
-5.625849
 20
-52.2241229517
 11
-6.227496
 21
-53.7758770483
  0
LWPOLYLINE
  5
5C2
100
AcDbEntity
  8
RACCORDO
100
AcDbPolyline
 62
7
  6
CONTINUOUS
 90
3
 70
0
 10
19.3624096219
 20
-0.306862245
 10
19.3292147268
 20
-0.3335212214
 10
19.2677845316
 20
-0.3836157366
  0
LWPOLYLINE
  5
5C3
100
AcDbEntity
  8
RACCORDO
100
AcDbPolyline
 62
7
  6
CONTINUOUS
 90
10
 70
0
 10
19.2677845316
 20
-0.3836157366
 10
19.2394988593
 20
-0.406125739
 10
19.2128663853
 20
-0.4266906232
 10
19.1880382262
 20
-0.4455323601
 10
19.1648843723
 20
-0.4624206961
 10
19.1435348333
 20
-0.476946448
 10
19.1245307556
 20
-0.4889203518
 10
19.1080525211
 20
-0.4980628052
 10
19.0939197478
 20
-0.5040764215
 10
19.0821324356
 20
-0.5067404104
  0
LINE
  5
5C4
100
AcDbEntity
  8
RACCORDO
100
AcDbLine
 62
7
  6
CONTINUOUS
 10
19.329220939
 20
0.3335159896
 11
19.3624096219
 21
0.306862245
  0
LINE
  5
5C5
100
AcDbEntity
  8
0
100
AcDbLine
 62
7
  6
CONTINUOUS
 10
-5.968046
 20
57.8578391459
 11
-5.069022
 21
55.1421404873
  0
LINE
  5
5C6
100
AcDbEntity
  8
0
100
AcDbLine
 62
7
  6
CONTINUOUS
 10
-4.788994
 20
55.9879386053
 11
-5.408018
 21
57.8578391459
  0
LINE
  5
5C7
100
AcDbEntity
  8
0
100
AcDbLine
 62
7
  6
CONTINUOUS
 10
-1.556562
 20
56.9329636391
 11
-1.027096
 21
55.1421472762
  0
LINE
  5
5C8
100
AcDbEntity
  8
0
100
AcDbLine
 62
7
  6
CONTINUOUS
 10
-0.747089
 20
56.0892836654
 11
-1.269982
 21
57.8578391459
  0
LWPOLYLINE
  5
5C9
100
AcDbEntity
  8
RACCORDO
100
AcDbPolyline
 62
250
  6
CONTINUOUS
 90
9
 70
0
 10
-5.0147270742
 20
70.5622172317
 10
-5.0257966278
 20
70.6067316555
 10
-5.0424056414
 20
70.6482530773
 10
-5.0641426163
 20
70.685752778
 10
-5.0904690053
 20
70.7183016791
 10
-5.1207325558
 20
70.7450933614
 10
-5.1541834699
 20
70.7654640445
 10
-5.1899929804
 20
70.778909032
 10
-5.2225600517
 20
70.7847254883
  0
LWPOLYLINE
  5
5CA
100
AcDbEntity
  8
RACCORDO
100
AcDbPolyline
 62
7
  6
CONTINUOUS
 90
16
 70
0
 10
16.8127246754
 20
64.9128008278
 10
16.808199598
 20
64.9807572471
 10
16.7954375041
 20
65.0445501122
 10
16.7758399402
 20
65.1033457034
 10
16.751039862
 20
65.1562252044
 10
16.7222203422
 20
65.2033782385
 10
16.689643569
 20
65.2457866389
 10
16.6539086771
 20
65.2834973922
 10
16.6159559728
 20
65.3162614169
 10
16.5759996115
 20
65.3444149054
 10
16.5344922927
 20
65.3680361957
 10
16.492098489
 20
65.387122967
 10
16.4491732791
 20
65.4018245108
 10
16.4061185311
 20
65.4122919758
 10
16.363396362
 20
65.4187091111
 10
16.3213760438
 20
65.4212998914
  0
LWPOLYLINE
  5
5CB
100
AcDbEntity
  8
DRAFT
100
AcDbPolyline
 62
250
  6
CONTINUOUS
 90
10
 70
0
 10
18.7015532202
 20
-40.5546209961
 10
18.7112737924
 20
-42.9910946201
 10
18.7231941931
 20
-45.4663359036
 10
18.7373144221
 20
-47.9803448467
 10
18.7535402673
 20
-50.5332680542
 10
18.7719659408
 20
-53.1249589213
 10
18.7928740801
 20
-55.7549776331
 10
18.8163588975
 20
-58.4231775846
 10
18.8423261806
 20
-61.1297053808
 10
18.8707759294
 20
-63.8745610216
  0
LINE
  5
5CC
100
AcDbEntity
  8
DRAFT
100
AcDbLine
 62
250
  6
CONTINUOUS
 10
18.684816492
 20
-34.4721127146
 11
18.6976613732
 21
-39.4460173716
  0
LINE
  5
5CD
100
AcDbEntity
  8
DRAFT
100
AcDbLine
 62
250
  6
CONTINUOUS
 10
18.6795692595
 20
-29.6725821677
 11
18.684816492
 21
-34.4721127146
  0
LINE
  5
5CE
100
AcDbEntity
  8
RACCORDO
100
AcDbLine
 62
7
  6
CONTINUOUS
 10
18.3
 20
64.801218346
 11
18.3
 21
-64.801218346
  0
LINE
  5
5CF
100
AcDbEntity
  8
DRAFT
100
AcDbLine
 62
250
  6
CONTINUOUS
 10
18.67937941
 20
-0.5506466324
 11
18.6795692595
 21
-29.6725821677
  0
LINE
  5
5D0
100
AcDbEntity
  8
RACCORDO
100
AcDbLine
 62
250
  6
CONTINUOUS
 10
19.0
 20
-39.4693372752
 11
19.0
 21
-39.693137755
  0
LINE
  5
5D1
100
AcDbEntity
  8
RACCORDO
100
AcDbLine
 62
250
  6
CONTINUOUS
 10
19.0
 20
-0.5306627248
 11
19.0
 21
-0.306862245
  0
LINE
  5
5D2
100
AcDbEntity
  8
RACCORDO
100
AcDbLine
 62
250
  6
CONTINUOUS
 10
19.0
 20
-40.306862245
 11
19.0
 21
-40.5306627248
  0
LINE
  5
5D3
100
AcDbEntity
  8
RACCORDO
100
AcDbLine
 62
250
  6
CONTINUOUS
 10
19.0
 20
0.306862245
 11
19.0
 21
0.5306627248
  0
LINE
  5
5D4
100
AcDbEntity
  8
RACCORDO
100
AcDbLine
 62
250
  6
CONTINUOUS
 10
19.0
 20
39.4693372752
 11
19.0
 21
39.693137755
  0
LINE
  5
5D5
100
AcDbEntity
  8
RACCORDO
100
AcDbLine
 62
250
  6
CONTINUOUS
 10
19.0
 20
40.306862245
 11
19.0
 21
40.5306627248
  0
LINE
  5
5D6
100
AcDbEntity
  8
RACCORDO
100
AcDbLine
 62
250
  6
CONTINUOUS
 10
19.0640530533
 20
63.8749158815
 11
19.0640530533
 21
40.5093811665
  0
LINE
  5
5D7
100
AcDbEntity
  8
RACCORDO
100
AcDbLine
 62
250
  6
CONTINUOUS
 10
19.0640530533
 20
39.4906188335
 11
19.0640530533
 21
0.5093811665
  0
LINE
  5
5D8
100
AcDbEntity
  8
RACCORDO
100
AcDbLine
 62
250
  6
CONTINUOUS
 10
19.0640530533
 20
-0.5093811665
 11
19.0640530533
 21
-39.4906188335
  0
LINE
  5
5D9
100
AcDbEntity
  8
RACCORDO
100
AcDbLine
 62
250
  6
CONTINUOUS
 10
19.0640530533
 20
-40.5093811665
 11
19.0640530533
 21
-63.8749158815
  0
LINE
  5
5DA
100
AcDbEntity
  8
RACCORDO
100
AcDbLine
 62
250
  6
CONTINUOUS
 10
19.3624096219
 20
63.8749158815
 11
19.3624096219
 21
40.306862245
  0
LINE
  5
5DB
100
AcDbEntity
  8
RACCORDO
100
AcDbLine
 62
250
  6
CONTINUOUS
 10
19.3624096219
 20
39.693137755
 11
19.3624096219
 21
0.306862245
  0
LINE
  5
5DC
100
AcDbEntity
  8
RACCORDO
100
AcDbLine
 62
250
  6
CONTINUOUS
 10
19.3624096219
 20
-0.306862245
 11
19.3624096219
 21
-39.693137755
  0
LINE
  5
5DD
100
AcDbEntity
  8
RACCORDO
100
AcDbLine
 62
250
  6
CONTINUOUS
 10
19.3624096219
 20
-40.306862245
 11
19.3624096219
 21
-63.8749158815
  0
LINE
  5
5DE
100
AcDbEntity
  8
RACCORDO
100
AcDbLine
 62
250
  6
CONTINUOUS
 10
20.1668162456
 20
-63.8749158815
 11
20.1668162456
 21
63.8749158815
  0
LINE
  5
5DF
100
AcDbEntity
  8
RACCORDO
100
AcDbLine
 62
7
  6
CONTINUOUS
 10
20.4668162456
 20
-63.8749158815
 11
20.4668162456
 21
63.8749158815
  0
LINE
  5
5E0
100
AcDbEntity
  8
DRAFT
100
AcDbLine
 62
250
  6
CONTINUOUS
 10
18.6828352553
 20
33.2567718501
 11
18.67937941
 21
0.5506466324
  0
LWPOLYLINE
  5
5E1
100
AcDbEntity
  8
DRAFT
100
AcDbPolyline
 62
250
  6
CONTINUOUS
 90
3
 70
0
 10
18.697661372
 20
39.4460173718
 10
18.6937162981
 20
38.186581935
 10
18.6828352553
 20
33.2567718501
  0
LWPOLYLINE
  5
5E2
100
AcDbEntity
  8
DRAFT
100
AcDbPolyline
 62
250
  6
CONTINUOUS
 90
10
 70
0
 10
18.8707757132
 20
63.8745367684
 10
18.8423354025
 20
61.1307369237
 10
18.8163747338
 20
58.425001602
 10
18.7928937072
 20
55.7573308031
 10
18.7719859082
 20
53.1275778602
 10
18.7535577512
 20
50.5358894401
 10
18.7373284797
 20
47.9827055437
 10
18.723204508
 20
45.4681728376
 10
18.7112794217
 20
42.9921446552
 10
18.7015532209
 20
40.5546209962
  0
LWPOLYLINE
  5
5E3
100
AcDbEntity
  8
RACCORDO
100
AcDbPolyline
 62
7
  6
CONTINUOUS
 90
7
 70
0
 10
16.8990936125
 20
-54.7617399097
 10
16.8985167964
 20
-54.8073131042
 10
16.8981656907
 20
-54.825525435
 10
16.8977935776
 20
-54.8398388219
 10
16.897406697
 20
-54.8499613086
 10
16.8969988089
 20
-54.8561848514
 10
16.8965699136
 20
-54.8585094503
  0
LWPOLYLINE
  5
5E4
100
AcDbEntity
  8
DRAFT
100
AcDbPolyline
 62
250
  6
CONTINUOUS
 90
19
 70
0
 10
18.8707788826
 20
-63.8746467565
 10
18.8611816826
 20
-64.1676380202
 10
18.8319590866
 20
-64.4593659632
 10
18.7832356871
 20
-64.7485168651
 10
18.7152226946
 20
-65.0337947414
 10
18.62821996
 20
-65.3139065615
 10
18.5226192303
 20
-65.5875690621
 10
18.3988966976
 20
-65.8535441686
 10
18.2576048862
 20
-66.1106373244
 10
18.0993776783
 20
-66.3576827341
 10
17.9249292072
 20
-66.593562109
 10
17.7350429376
 20
-66.8172155939
 10
17.5305665092
 20
-67.0276386919
 10
17.3124142698
 20
-67.2238856655
 10
17.0815727539
 20
-67.4050637465
 10
16.8390915899
 20
-67.5703438723
 10
16.5860684192
 20
-67.7189775355
 10
16.3236415098
 20
-67.8502980641
 10
16.0529947577
 20
-67.963713503
  0
LWPOLYLINE
  5
5E5
100
AcDbEntity
  8
RACCORDO
100
AcDbPolyline
 62
250
  6
CONTINUOUS
 90
13
 70
0
 10
-4.0909505311
 20
-68.4089833199
 10
-4.0752463638
 20
-68.3621902091
 10
-4.0672946755
 20
-68.3133636854
 10
-4.0673122675
 20
-68.2638349945
 10
-4.07529866
 20
-68.2149545266
 10
-4.0910361056
 20
-68.168054998
 10
-4.114095526
 20
-68.1244151151
 10
-4.1438482107
 20
-68.0852247109
 10
-4.1794829584
 20
-68.051552304
 10
-4.2200281948
 20
-68.024315966
 10
-4.2643784619
 20
-68.0042582903
 10
-4.3113245583
 20
-67.9919261456
 10
-4.359586508
 20
-67.9876557653
  0
LWPOLYLINE
  5
5E6
100
AcDbEntity
  8
RACCORDO
100
AcDbPolyline
 62
250
  6
CONTINUOUS
 90
11
 70
0
 10
-5.0147053656
 20
-70.5622132859
 10
-4.9907605394
 20
-70.4937525526
 10
-4.9655257144
 20
-70.4236205425
 10
-4.9390082543
 20
-70.3518172556
 10
-4.9112208151
 20
-70.2783687729
 10
-4.8821678979
 20
-70.2032490133
 10
-4.8518440511
 20
-70.1263797337
 10
-4.820257525
 20
-70.0477652166
 10
-4.7874178223
 20
-69.9674011795
 10
-4.7533186363
 20
-69.8851965314
 10
-4.7179676998
 20
-69.8011532618
  0
LINE
  5
5E7
100
AcDbEntity
  8
INCISIONI
100
AcDbLine
 62
7
  6
CONTINUOUS
 10
-4.460302
 20
-64.198626
 11
-4.293165
 21
-63.732838
  0
LWPOLYLINE
  5
5E8
100
AcDbEntity
  8
RACCORDO
100
AcDbPolyline
 62
250
  6
CONTINUOUS
 90
9
 70
0
 10
-5.3221611039
 20
-70.6226383373
 10
-5.3365314685
 20
-70.6625703396
 10
-5.3549473681
 20
-70.6981350999
 10
-5.3770151348
 20
-70.7293688726
 10
-5.4030161143
 20
-70.7566224424
 10
-5.432462667
 20
-70.77919762
 10
-5.4638416091
 20
-70.7959461359
 10
-5.4965292171
 20
-70.8066905059
 10
-5.5230856177
 20
-70.8109643157
  0
LINE
  5
5E9
100
AcDbEntity
  8
INCISIONI
100
AcDbLine
 62
7
  6
CONTINUOUS
 10
-4.226335
 20
-63.541192
 11
-3.967832
 21
-62.830692
  0
LINE
  5
5EA
100
AcDbEntity
  8
0
100
AcDbLine
 62
7
  6
CONTINUOUS
 10
4.025703
 20
-53.7758770483
 11
4.192871
 21
-53.3242176819
  0
LWPOLYLINE
  5
5EB
100
AcDbEntity
  8
RACCORDO
100
AcDbPolyline
 62
250
  6
CONTINUOUS
 90
13
 70
0
 10
-4.1856088595
 20
-68.4281307093
 10
-4.1678012181
 20
-68.3805197217
 10
-4.1578478834
 20
-68.3311083336
 10
-4.1559045019
 20
-68.2809153336
 10
-4.1623877327
 20
-68.2311026464
 10
-4.1772676363
 20
-68.1827225781
 10
-4.1998467461
 20
-68.1371944131
 10
-4.2294100058
 20
-68.0964609686
 10
-4.2652637327
 20
-68.061588493
 10
-4.3063835894
 20
-68.0331152973
 10
-4.351655892
 20
-68.0120126478
 10
-4.3996354431
 20
-67.9991867143
 10
-4.4487217409
 20
-67.9948548727
  0
LINE
  5
5EC
100
AcDbEntity
  8
0
100
AcDbLine
 62
7
  6
CONTINUOUS
 10
4.259731
 20
-53.1383592445
 11
4.518293
 21
-52.4492029437
  0
LINE
  5
5ED
100
AcDbEntity
  8
INCISIONI
100
AcDbLine
 62
7
  6
CONTINUOUS
 10
-4.081431
 20
-62.598626
 11
-4.683153
 21
-64.198626
  0
LINE
  5
5EE
100
AcDbEntity
  8
0
100
AcDbLine
 62
7
  6
CONTINUOUS
 10
4.404617
 20
-52.2241229517
 11
3.802893
 21
-53.7758770483
  0
LWPOLYLINE
  5
5EF
100
AcDbEntity
  8
RACCORDO
100
AcDbPolyline
 62
7
  6
CONTINUOUS
 90
3
 70
0
 10
-19.3624096219
 20
-39.693137755
 10
-19.3292147268
 20
-39.6664787786
 10
-19.2677845316
 20
-39.6163842634
  0
LWPOLYLINE
  5
5F0
100
AcDbEntity
  8
RACCORDO
100
AcDbPolyline
 62
7
  6
CONTINUOUS
 90
10
 70
0
 10
-19.2677845316
 20
-39.6163842634
 10
-19.2394988593
 20
-39.593874261
 10
-19.2128663853
 20
-39.5733093768
 10
-19.1880382262
 20
-39.5544676399
 10
-19.1648843723
 20
-39.5375793039
 10
-19.1435348333
 20
-39.5230535521
 10
-19.1245307556
 20
-39.5110796482
 10
-19.1080525211
 20
-39.5019371948
 10
-19.0939197478
 20
-39.4959235785
 10
-19.0821324356
 20
-39.4932595896
  0
LWPOLYLINE
  5
5F1
100
AcDbEntity
  8
RACCORDO
100
AcDbPolyline
 62
7
  6
CONTINUOUS
 90
3
 70
0
 10
-19.2677968265
 20
39.6163940967
 10
-19.329220939
 20
39.6664840104
 10
-19.3624096219
 20
39.693137755
  0
LWPOLYLINE
  5
5F2
100
AcDbEntity
  8
RACCORDO
100
AcDbPolyline
 62
250
  6
CONTINUOUS
 90
13
 70
0
 10
-4.1856091197
 20
68.4281306956
 10
-4.1678015339
 20
68.3805199033
 10
-4.1578481929
 20
68.3311087216
 10
-4.155904741
 20
68.2809159231
 10
-4.1623878296
 20
68.2311034329
 10
-4.1772675225
 20
68.1827235243
 10
-4.1998463994
 20
68.1371954137
 10
-4.2294094482
 20
68.0964619137
 10
-4.2652630199
 20
68.0615892912
 10
-4.3063828484
 20
68.033115863
 10
-4.3516552934
 20
68.0120129522
 10
-4.3996351506
 20
67.9991868085
 10
-4.4487218963
 20
67.9948548728
  0
LWPOLYLINE
  5
5F3
100
AcDbEntity
  8
RACCORDO
100
AcDbPolyline
 62
250
  6
CONTINUOUS
 90
9
 70
0
 10
-5.3221619805
 20
70.622637892
 10
-5.3365321259
 20
70.6625693961
 10
-5.3549477521
 20
70.6981338776
 10
-5.3770152104
 20
70.7293675472
 10
-5.4030157242
 20
70.7566210828
 10
-5.4324617483
 20
70.77919635
 10
-5.4638404818
 20
70.7959451925
 10
-5.4965283539
 20
70.8066900081
 10
-5.523083823
 20
70.8109639727
  0
LWPOLYLINE
  5
5F4
100
AcDbEntity
  8
RACCORDO
100
AcDbPolyline
 62
250
  6
CONTINUOUS
 90
13
 70
0
 10
-4.0909593975
 20
68.4089790989
 10
-4.0752557954
 20
68.3621853957
 10
-4.067304332
 20
68.3133585278
 10
-4.0673217903
 20
68.2638296715
 10
-4.0753076951
 20
68.2149491414
 10
-4.091044326
 20
68.168049577
 10
-4.1141026531
 20
68.1244096099
 10
-4.1438540335
 20
68.085219005
 10
-4.1794873506
 20
68.0515462233
 10
-4.2200311271
 20
68.0243092922
 10
-4.264380011
 20
68.0042507774
 10
-4.311324911
 20
67.9919175382
 10
-4.3595859598
 20
67.9876458181
  0
LINE
  5
5F5
100
AcDbEntity
  8
0
100
AcDbLine
 62
7
  6
CONTINUOUS
 10
2.617027
 20
55.6762115741
 11
2.793819
 21
55.1421540651
  0
LINE
  5
5F6
100
AcDbEntity
  8
0
100
AcDbLine
 62
7
  6
CONTINUOUS
 10
2.174788
 20
57.0120478168
 11
2.446199
 21
56.192190178
  0
LINE
  5
5F7
100
AcDbEntity
  8
0
100
AcDbLine
 62
7
  6
CONTINUOUS
 10
3.353847
 20
55.1421472762
 11
2.454816
 21
57.8578459349
  0
LWPOLYLINE
  5
5F8
100
AcDbEntity
  8
0
100
AcDbPolyline
 62
7
  6
CONTINUOUS
 90
13
 70
0
 10
5.8808552493
 20
57.1524651989
 10
5.8566081098
 20
57.2430633083
 10
5.8216715306
 20
57.3316681698
 10
5.7770307059
 20
57.4151778482
 10
5.7222446174
 20
57.4936267928
 10
5.6577542835
 20
57.5669805543
 10
5.5858679537
 20
57.63203385
 10
5.5060685707
 20
57.688404066
 10
5.4188731917
 20
57.7364738161
 10
5.3281412375
 20
57.7741856586
 10
5.2351591817
 20
57.8008537797
 10
5.1386405507
 20
57.8171639933
 10
5.0385853446
 20
57.8231162993
  0
LWPOLYLINE
  5
5F9
100
AcDbEntity
  8
RACCORDO
100
AcDbPolyline
 62
7
  6
CONTINUOUS
 90
16
 70
0
 10
16.8127246754
 20
-64.9213760438
 10
16.8056289939
 20
-64.9862398662
 10
16.7931372429
 20
-65.0476481091
 10
16.7752494224
 20
-65.1048115475
 10
16.7511511466
 20
-65.1569772764
 10
16.7216568013
 20
-65.2040207378
 10
16.6892095438
 20
-65.2462936422
 10
16.6541439618
 20
-65.283650255
 10
16.6161254677
 20
-65.3160798724
 10
16.5765934551
 20
-65.3440376758
 10
16.5356247679
 20
-65.3675834606
 10
16.4931425622
 20
-65.3866726447
 10
16.4503557007
 20
-65.4014778419
 10
16.4076671376
 20
-65.412105353
 10
16.3646739186
 20
-65.4186573214
 10
16.3213760438
 20
-65.4212998914
  0
LWPOLYLINE
  5
5FA
100
AcDbEntity
  8
0
100
AcDbPolyline
 62
7
  6
CONTINUOUS
 90
24
 70
0
 10
18.2466438628
 20
-65.2559159656
 10
18.2399657213
 20
-65.3113161728
 10
18.2143256646
 20
-65.4419091099
 10
18.1783745389
 20
-65.5723588425
 10
18.132185385
 20
-65.700907299
 10
18.0770496897
 20
-65.8241614844
 10
18.0135591178
 20
-65.941721726
 10
17.942383058
 20
-66.0529800997
 10
17.8662082579
 20
-66.1549545933
 10
17.7872779424
 20
-66.2466643524
 10
17.7058272596
 20
-66.3295758911
 10
17.6218633749
 20
-66.4047459983
 10
17.5364497339
 20
-66.4721652554
 10
17.4500591132
 20
-66.5323545612
 10
17.3613255264
 20
-66.5867268072
 10
17.2701332055
 20
-66.6355406969
 10
17.1773869141
 20
-66.6785097317
 10
17.0829642394
 20
-66.7158414991
 10
16.987019324
 20
-66.7475829675
 10
16.8900884656
 20
-66.7736686084
 10
16.7925842681
 20
-66.794094914
 10
16.694867023
 20
-66.8089159753
 10
16.5972355398
 20
-66.8182288585
 10
16.5
 20
-66.8221346312
  0
LWPOLYLINE
  5
5FB
100
AcDbEntity
  8
RACCORDO
100
AcDbPolyline
 62
7
  6
CONTINUOUS
 90
11
 70
0
 10
10.5067404104
 20
-68.0145319927
 10
10.5040841243
 20
-68.0262919647
 10
10.4980878284
 20
-68.0403974557
 10
10.4889687745
 20
-68.0568484657
 10
10.4770280691
 20
-68.0758069229
 10
10.4625376006
 20
-68.097110899
 10
10.4456534772
 20
-68.1202746094
 10
10.4267296215
 20
-68.1452298496
 10
10.4060219385
 20
-68.172044824
 10
10.3834123594
 20
-68.2004383613
 10
10.333381462
 20
-68.2617736769
  0
LINE
  5
5FC
100
AcDbEntity
  8
RACCORDO
100
AcDbLine
 62
250
  6
CONTINUOUS
 10
-4.7179676998
 20
-69.8011532618
 11
-4.6435324989
 21
-69.6274478301
  0
LINE
  5
5FD
100
AcDbEntity
  8
RACCORDO
100
AcDbLine
 62
250
  6
CONTINUOUS
 10
-4.6435324989
 20
-69.6274478301
 11
-4.564134993
 21
-69.4460022817
  0
LINE
  5
5FE
100
AcDbEntity
  8
RACCORDO
100
AcDbLine
 62
250
  6
CONTINUOUS
 10
-4.564134993
 20
-69.4460022817
 11
-4.4797742218
 21
-69.2564875012
  0
LINE
  5
5FF
100
AcDbEntity
  8
RACCORDO
100
AcDbLine
 62
250
  6
CONTINUOUS
 10
-4.4797742218
 20
-69.2564875012
 11
-4.3904299179
 21
-69.0586171684
  0
LINE
  5
600
100
AcDbEntity
  8
RACCORDO
100
AcDbLine
 62
250
  6
CONTINUOUS
 10
-4.3904299179
 20
-69.0586171684
 11
-4.2468003587
 21
-68.7449583258
  0
LINE
  5
601
100
AcDbEntity
  8
RACCORDO
100
AcDbLine
 62
250
  6
CONTINUOUS
 10
-4.2468003587
 20
-68.7449583258
 11
-4.090920539
 21
-68.4089771531
  0
LINE
  5
602
100
AcDbEntity
  8
RACCORDO
100
AcDbLine
 62
250
  6
CONTINUOUS
 10
-5.5499648499
 20
-70.5121708671
 11
-5.3163577823
 21
-70.0330850004
  0
LINE
  5
603
100
AcDbEntity
  8
RACCORDO
100
AcDbLine
 62
250
  6
CONTINUOUS
 10
-5.3163577823
 20
-70.0330850004
 11
-5.0763455381
 21
-69.546262506
  0
LINE
  5
604
100
AcDbEntity
  8
RACCORDO
100
AcDbLine
 62
250
  6
CONTINUOUS
 10
-5.0763455381
 20
-69.546262506
 11
-4.7044452223
 21
-68.8013591621
  0
LINE
  5
605
100
AcDbEntity
  8
RACCORDO
100
AcDbLine
 62
250
  6
CONTINUOUS
 10
-4.7044452223
 20
-68.8013591621
 11
-4.4487217268
 21
-68.2948091789
  0
LINE
  5
606
100
AcDbEntity
  8
RACCORDO
100
AcDbLine
 62
250
  6
CONTINUOUS
 10
-4.95011781
 20
-69.9124107993
 11
-4.1856058167
 21
-68.4281321914
  0
LWPOLYLINE
  5
607
100
AcDbEntity
  8
RACCORDO
100
AcDbPolyline
 62
250
  6
CONTINUOUS
 90
3
 70
0
 10
-5.322176982
 20
-70.6226313155
 10
-5.1986495696
 20
-70.3882906031
 10
-4.95011781
 20
-69.9124107993
  0
LWPOLYLINE
  5
608
100
AcDbEntity
  8
ASSI
100
AcDbPolyline
 62
7
  6
CONTINUOUS
 90
7
 70
0
 10
-1.033356
 20
-56.8744074264
 10
-1.097075855
 20
-56.9871089098
 10
-1.1473173653
 20
-57.1032842552
 10
-1.1840805308
 20
-57.2229334626
 10
-1.2075543023
 20
-57.3475910886
 10
-1.217549729
 20
-57.4757225765
 10
-1.2181312393
 20
-57.4990435024
  0
LINE
  5
609
100
AcDbEntity
  8
RACCORDO
100
AcDbLine
 62
7
  6
CONTINUOUS
 10
16.8764983111
 20
-18.3668095669
 11
16.8965699136
 21
-18.3585094503
  0
LINE
  5
60A
100
AcDbEntity
  8
RACCORDO
100
AcDbLine
 62
7
  6
CONTINUOUS
 10
16.8563619371
 20
-18.3749557098
 11
16.8764983111
 21
-18.3668095669
  0
LINE
  5
60B
100
AcDbEntity
  8
RACCORDO
100
AcDbLine
 62
7
  6
CONTINUOUS
 10
16.8361612236
 20
-18.3829512148
 11
16.8563619371
 21
-18.3749557098
  0
LWPOLYLINE
  5
60C
100
AcDbEntity
  8
RACCORDO
100
AcDbPolyline
 62
7
  6
CONTINUOUS
 90
3
 70
0
 10
16.8057426494
 20
-18.394686211
 10
16.8158978989
 20
-18.3908094253
 10
16.8361612236
 20
-18.3829512148
  0
LINE
  5
60D
100
AcDbEntity
  8
0
100
AcDbLine
 62
250
  6
CONTINUOUS
 10
18.3
 20
28.5
 11
18.67937941
 21
28.5
  0
LINE
  5
60E
100
AcDbEntity
  8
0
100
AcDbLine
 62
250
  6
CONTINUOUS
 10
-18.3
 20
28.5
 11
-18.67937941
 21
28.5
  0
LINE
  5
60F
100
AcDbEntity
  8
RACCORDO
100
AcDbLine
 62
7
  6
CONTINUOUS
 10
16.8057426494
 20
18.394686211
 11
16.8260374236
 21
18.3868977598
  0
LINE
  5
610
100
AcDbEntity
  8
RACCORDO
100
AcDbLine
 62
7
  6
CONTINUOUS
 10
16.8260374236
 20
18.3868977598
 11
16.8462694427
 21
18.3789709021
  0
LINE
  5
611
100
AcDbEntity
  8
RACCORDO
100
AcDbLine
 62
7
  6
CONTINUOUS
 10
16.8462694427
 20
18.3789709021
 11
16.8664382746
 21
18.370902302
  0
LWPOLYLINE
  5
612
100
AcDbEntity
  8
RACCORDO
100
AcDbPolyline
 62
7
  6
CONTINUOUS
 90
3
 70
0
 10
16.8664382746
 20
18.370902302
 10
16.8865421908
 20
18.3626786163
 10
16.8965699136
 20
18.3585094503
  0
LINE
  5
613
100
AcDbEntity
  8
RACCORDO
100
AcDbLine
 62
250
  6
CONTINUOUS
 10
-5.0761600274
 20
70.1544354157
 11
-5.3221771697
 21
70.6226313271
  0
LINE
  5
614
100
AcDbEntity
  8
RACCORDO
100
AcDbLine
 62
250
  6
CONTINUOUS
 10
-4.7014252789
 20
69.4313559622
 11
-5.0761600274
 21
70.1544354157
  0
LINE
  5
615
100
AcDbEntity
  8
RACCORDO
100
AcDbLine
 62
250
  6
CONTINUOUS
 10
-4.1856058473
 20
68.4281322485
 11
-4.7014252789
 21
69.4313559622
  0
LINE
  5
616
100
AcDbEntity
  8
RACCORDO
100
AcDbLine
 62
250
  6
CONTINUOUS
 10
-4.4487219093
 20
68.2948091789
 11
-4.8320835552
 21
69.0558893346
  0
LINE
  5
617
100
AcDbEntity
  8
RACCORDO
100
AcDbLine
 62
250
  6
CONTINUOUS
 10
-4.8320835552
 20
69.0558893346
 11
-5.1990507628
 21
69.7944765587
  0
LWPOLYLINE
  5
618
100
AcDbEntity
  8
RACCORDO
100
AcDbPolyline
 62
250
  6
CONTINUOUS
 90
3
 70
0
 10
-5.1990507628
 20
69.7944765587
 10
-5.4347775513
 20
70.2752608446
 10
-5.5499655405
 20
70.5121708286
  0
LINE
  5
619
100
AcDbEntity
  8
RACCORDO
100
AcDbLine
 62
250
  6
CONTINUOUS
 10
-4.0909497713
 20
68.4089833106
 11
-4.2541164395
 21
68.7608291768
  0
LINE
  5
61A
100
AcDbEntity
  8
RACCORDO
100
AcDbLine
 62
250
  6
CONTINUOUS
 10
-4.2541164395
 20
68.7608291768
 11
-4.4070996857
 21
69.0953508873
  0
LINE
  5
61B
100
AcDbEntity
  8
RACCORDO
100
AcDbLine
 62
250
  6
CONTINUOUS
 10
-4.4070996857
 20
69.0953508873
 11
-4.5035123121
 21
69.3095100098
  0
LWPOLYLINE
  5
61C
100
AcDbEntity
  8
RACCORDO
100
AcDbPolyline
 62
250
  6
CONTINUOUS
 90
13
 70
0
 10
-4.5035123121
 20
69.3095100098
 10
-4.5954626863
 20
69.5171954665
 10
-4.639739089
 20
69.6186754242
 10
-4.6828667918
 20
69.7187437874
 10
-4.7248301851
 20
69.8174010224
 10
-4.7656049083
 20
69.914646663
 10
-4.8051540433
 20
70.0106437467
 10
-4.8434577885
 20
70.105391788
 10
-4.8804840885
 20
70.1988912725
 10
-4.9161611625
 20
70.2913066944
 10
-4.9504385309
 20
70.3826928853
 10
-4.983297612
 20
70.4729950136
 10
-5.0147060559
 20
70.5622130794
  0
LINE
  5
61D
100
AcDbEntity
  8
ASSI
100
AcDbLine
 62
7
  6
CONTINUOUS
 10
-0.7441780971
 20
-58.7511761774
 11
-0.6112770636
 21
-58.5215290932
  0
LINE
  5
61E
100
AcDbEntity
  8
ASSI
100
AcDbLine
 62
7
  6
CONTINUOUS
 10
-0.7441780971
 20
-58.7859058129
 11
-0.5962209121
 21
-58.5302423677
  0
LINE
  5
61F
100
AcDbEntity
  8
0
100
AcDbLine
 62
7
  6
CONTINUOUS
 10
7.698224
 20
-52.2241229517
 11
7.239251
 21
-52.9698183828
  0
LINE
  5
620
100
AcDbEntity
  8
RACCORDO
100
AcDbLine
 62
250
  6
CONTINUOUS
 10
-3.3519928718
 20
-68.8160915622
 11
-2.9901453576
 21
-68.23856283
  0
LINE
  5
621
100
AcDbEntity
  8
RACCORDO
100
AcDbLine
 62
250
  6
CONTINUOUS
 10
-3.7323025343
 20
-69.4170861126
 11
-3.3519928718
 21
-68.8160915622
  0
LINE
  5
622
100
AcDbEntity
  8
RACCORDO
100
AcDbLine
 62
250
  6
CONTINUOUS
 10
-16.8127246754
 20
-64.9128008278
 11
-16.9
 21
-65.0000761524
  0
LINE
  5
623
100
AcDbEntity
  8
RACCORDO
100
AcDbLine
 62
7
  6
CONTINUOUS
 10
-19.0640530533
 20
-39.4906188335
 11
-19.0
 21
-39.4693372752
  0
LINE
  5
624
100
AcDbEntity
  8
RACCORDO
100
AcDbLine
 62
7
  6
CONTINUOUS
 10
-19.0640530533
 20
39.4906188335
 11
-19.0
 21
39.4693372752
  0
LINE
  5
625
100
AcDbEntity
  8
RACCORDO
100
AcDbLine
 62
250
  6
CONTINUOUS
 10
-16.9
 20
65.0000761524
 11
-16.8127246754
 21
64.9128008278
  0
LINE
  5
626
100
AcDbEntity
  8
RACCORDO
100
AcDbLine
 62
250
  6
CONTINUOUS
 10
-3.5213961553
 20
69.0846515728
 11
-3.8073661026
 21
69.5348117777
  0
LWPOLYLINE
  5
627
100
AcDbEntity
  8
RACCORDO
100
AcDbPolyline
 62
250
  6
CONTINUOUS
 90
3
 70
0
 10
-2.9901484665
 20
68.2385623403
 10
-3.10181692
 20
68.4181084327
 10
-3.5213961553
 20
69.0846515728
  0
LINE
  5
628
100
AcDbEntity
  8
0
100
AcDbLine
 62
7
  6
CONTINUOUS
 10
4.776058
 20
56.192190178
 11
5.337269
 21
55.1421540651
  0
LINE
  5
629
100
AcDbEntity
  8
0
100
AcDbLine
 62
7
  6
CONTINUOUS
 10
5.9536083764
 20
55.1344444517
 11
5.3719317229
 21
56.2227791714
  0
LINE
  5
62A
100
AcDbEntity
  8
0
100
AcDbLine
 62
7
  6
CONTINUOUS
 10
5.968046
 20
55.1421608541
 11
5.3719317907
 21
56.2575086802
  0
LINE
  5
62B
100
AcDbEntity
  8
RACCORDO
100
AcDbLine
 62
250
  6
CONTINUOUS
 10
-3.9584440387
 20
-69.7705770488
 11
-3.7323025343
 21
-69.4170861126
  0
LINE
  5
62C
100
AcDbEntity
  8
RACCORDO
100
AcDbLine
 62
250
  6
CONTINUOUS
 10
-4.1653087613
 20
-70.0904236562
 11
-3.9584440387
 21
-69.7705770488
  0
LINE
  5
62D
100
AcDbEntity
  8
0
100
AcDbLine
 62
7
  6
CONTINUOUS
 10
7.348333
 20
-53.1165557206
 11
7.9364759538
 21
-52.2137748263
  0
LINE
  5
62E
100
AcDbEntity
  8
0
100
AcDbLine
 62
7
  6
CONTINUOUS
 10
7.348333
 20
-53.1512853561
 11
7.95236
 21
-52.2241229517
  0
LINE
  5
62F
100
AcDbEntity
  8
RACCORDO
100
AcDbLine
 62
250
  6
CONTINUOUS
 10
-4.308472768
 20
-70.3092351618
 11
-4.1653087613
 21
-70.0904236562
  0
LINE
  5
630
100
AcDbEntity
  8
RACCORDO
100
AcDbLine
 62
250
  6
CONTINUOUS
 10
-4.3983669275
 20
-70.4452832114
 11
-4.308472768
 21
-70.3092351618
  0
LINE
  5
631
100
AcDbEntity
  8
ASSI
100
AcDbLine
 62
7
  6
CONTINUOUS
 10
1.164033
 20
-59.8811148504
 11
1.3152426088
 21
-59.6732158684
  0
LINE
  5
632
100
AcDbEntity
  8
ASSI
100
AcDbLine
 62
7
  6
CONTINUOUS
 10
1.164033
 20
-59.915844486
 11
1.331763
 21
-59.6852315207
  0
LINE
  5
633
100
AcDbEntity
  8
RACCORDO
100
AcDbLine
 62
7
  6
CONTINUOUS
 10
-9.666618538
 20
-68.2617736769
 11
-9.693137755
 21
-68.2948091789
  0
LINE
  5
634
100
AcDbEntity
  8
ASSI
100
AcDbLine
 62
7
  6
CONTINUOUS
 10
-1.343092842
 20
-56.481655561
 11
-1.2168404279
 21
-56.3334796453
  0
LINE
  5
635
100
AcDbEntity
  8
RACCORDO
100
AcDbLine
 62
250
  6
CONTINUOUS
 10
-16.3213760438
 20
-65.4212998914
 11
-16.4000761524
 21
-65.5
  0
LWPOLYLINE
  5
636
100
AcDbEntity
  8
DRAFT
100
AcDbPolyline
 62
7
  6
CONTINUOUS
 90
49
 70
0
 10
18.7015532209
 20
40.5546209962
 10
18.690254634
 20
40.552190365
 10
18.6774582108
 20
40.5485336155
 10
18.6632073329
 20
40.5435451957
 10
18.6474755563
 20
40.5370515814
 10
18.6304244229
 20
40.528977724
 10
18.6123920895
 20
40.5193751622
 10
18.5935138598
 20
40.5081614381
 10
18.5738611677
 20
40.4951880128
 10
18.5536795548
 20
40.4804419536
 10
18.5331498274
 20
40.463866601
 10
18.5123756996
 20
40.4453203262
 10
18.4915056941
 20
40.4246795046
 10
18.4707301017
 20
40.4018644393
 10
18.4502566932
 20
40.3767876205
 10
18.4302992414
 20
40.3493235174
 10
18.411111962
 20
40.3194295276
 10
18.3929678902
 20
40.2870652653
 10
18.3761593452
 20
40.2521343766
 10
18.3609667214
 20
40.2145482177
 10
18.3477847158
 20
40.1744622679
 10
18.337069099
 20
40.1322194149
 10
18.3290843563
 20
40.0875768458
 10
18.3242386437
 20
40.0411149074
 10
18.3228573098
 20
39.9945317573
 10
18.3249426174
 20
39.9481545034
 10
18.3304286451
 20
39.9022001515
 10
18.3389449162
 20
39.858194967
 10
18.3500647763
 20
39.8166835276
 10
18.3635146119
 20
39.7774268929
 10
18.3788652184
 20
39.740658975
 10
18.39574664
 20
39.7064906909
 10
18.4138736028
 20
39.6748633978
 10
18.4329518758
 20
39.6456905207
 10
18.4527085617
 20
39.6189332714
 10
18.4728999384
 20
39.594535392
 10
18.4933244264
 20
39.5723591992
 10
18.5137790154
 20
39.5523171591
 10
18.5340821992
 20
39.5343258074
 10
18.5541058852
 20
39.5182476653
 10
18.5737529015
 20
39.5039438391
 10
18.5928498772
 20
39.4913592975
 10
18.6111752128
 20
39.4804705575
 10
18.6286618835
 20
39.4711361834
 10
18.6451823439
 20
39.4632778647
 10
18.6604289999
 20
39.456937773
 10
18.6742538233
 20
39.4520444178
 10
18.6866782682
 20
39.4484372083
 10
18.697661372
 20
39.4460173718
  0
LINE
  5
637
100
AcDbEntity
  8
RACCORDO
100
AcDbLine
 62
250
  6
CONTINUOUS
 10
19.0821324356
 20
39.4932595896
 11
19.0
 21
39.4932595896
  0
LINE
  5
638
100
AcDbEntity
  8
RACCORDO
100
AcDbLine
 62
250
  6
CONTINUOUS
 10
-19.0
 20
39.4932595896
 11
-19.0821324356
 21
39.4932595896
  0
LINE
  5
639
100
AcDbEntity
  8
RACCORDO
100
AcDbLine
 62
250
  6
CONTINUOUS
 10
19.3624096219
 20
39.693137755
 11
19.0
 21
39.693137755
  0
LINE
  5
63A
100
AcDbEntity
  8
RACCORDO
100
AcDbLine
 62
250
  6
CONTINUOUS
 10
-19.0
 20
39.693137755
 11
-19.3624096219
 21
39.693137755
  0
LWPOLYLINE
  5
63B
100
AcDbEntity
  8
RACCORDO
100
AcDbPolyline
 62
7
  6
CONTINUOUS
 90
10
 70
0
 10
-19.0821324356
 20
39.4932595896
 10
-19.0939227288
 20
39.4959243284
 10
-19.1080576617
 20
39.5019394232
 10
-19.1245372343
 20
39.5110834825
 10
-19.143541272
 20
39.5230581399
 10
-19.1648899494
 20
39.5375835511
 10
-19.1880437911
 20
39.554471771
 10
-19.2128743319
 20
39.5733152395
 10
-19.239510037
 20
39.5938828125
 10
-19.2677968265
 20
39.6163940967
  0
LWPOLYLINE
  5
63C
100
AcDbEntity
  8
DRAFT
100
AcDbPolyline
 62
7
  6
CONTINUOUS
 90
10
 70
0
 10
-11.3508067304
 20
55.6582247495
 10
-11.2640713671
 20
55.5978165112
 10
-11.1752119665
 20
55.5417560484
 10
-11.0842285285
 20
55.4900266379
 10
-10.990888576
 20
55.4425222496
 10
-10.895424586
 20
55.399315611
 10
-10.7985339903
 20
55.3606572405
 10
-10.7004492659
 20
55.3266195304
 10
-10.6009379359
 20
55.2970983055
 10
-10.5
 20
55.2720799058
  0
LINE
  5
63D
100
AcDbEntity
  8
RACCORDO
100
AcDbLine
 62
250
  6
CONTINUOUS
 10
-16.4000761524
 20
65.5
 11
-16.3213760438
 21
65.4212998914
  0
LWPOLYLINE
  5
63E
100
AcDbEntity
  8
RACCORDO
100
AcDbPolyline
 62
7
  6
CONTINUOUS
 90
3
 70
0
 10
-9.693137755
 20
68.2948091789
 10
-9.6665737514
 20
68.261720224
 10
-9.6165011022
 20
68.2003301703
  0
LWPOLYLINE
  5
63F
100
AcDbEntity
  8
RACCORDO
100
AcDbPolyline
 62
7
  6
CONTINUOUS
 90
10
 70
0
 10
-9.6165011022
 20
68.2003301703
 10
-9.593899568
 20
68.1719428416
 10
-9.5732118279
 20
68.1451514649
 10
-9.5543020853
 20
68.1202147304
 10
-9.5374194387
 20
68.0970532088
 10
-9.5229293938
 20
68.0757463293
 10
-9.510997287
 20
68.0567910702
 10
-9.5018928057
 20
68.0403530907
 10
-9.4959094403
 20
68.0262667315
 10
-9.4932595896
 20
68.0145319927
  0
LINE
  5
640
100
AcDbEntity
  8
RACCORDO
100
AcDbLine
 62
250
  6
CONTINUOUS
 10
-4.2395830227
 20
70.2040816226
 11
-4.3983656067
 21
70.4452832908
  0
LINE
  5
641
100
AcDbEntity
  8
RACCORDO
100
AcDbLine
 62
250
  6
CONTINUOUS
 10
-4.0727975878
 20
69.9478880315
 11
-4.2395830227
 21
70.2040816226
  0
LINE
  5
642
100
AcDbEntity
  8
RACCORDO
100
AcDbLine
 62
250
  6
CONTINUOUS
 10
-3.8073661026
 20
69.5348117777
 11
-4.0727975878
 21
69.9478880315
  0
LWPOLYLINE
  5
643
100
AcDbEntity
  8
ASSI
100
AcDbPolyline
 62
7
  6
CONTINUOUS
 90
8
 70
0
 10
-1.2168404279
 20
-56.3334796453
 10
-1.0761656296
 20
-56.2022305344
 10
-0.9204885964
 20
-56.0885887692
 10
-0.750389179
 20
-55.991873809
 10
-0.5726157713
 20
-55.9159226487
 10
-0.3894178378
 20
-55.862014287
 10
-0.1985459141
 20
-55.8288697252
 10
-0.0
 20
-55.8164889636
  0
LINE
  5
644
100
AcDbEntity
  8
ASSI
100
AcDbLine
 62
7
  6
CONTINUOUS
 10
1.0752015271
 20
-56.457374052
 11
0.173343
 21
-57.1944586485
  0
LINE
  5
645
100
AcDbEntity
  8
ASSI
100
AcDbLine
 62
7
  6
CONTINUOUS
 10
0.173343
 20
-57.542563236
 11
1.033356142
 21
-56.8396776748
  0
LINE
  5
646
100
AcDbEntity
  8
ASSI
100
AcDbLine
 62
7
  6
CONTINUOUS
 10
0.173343
 20
-57.5772928716
 11
1.0333561387
 21
-56.8744073131
  0
LWPOLYLINE
  5
647
100
AcDbEntity
  8
RACCORDO
100
AcDbPolyline
 62
7
  6
CONTINUOUS
 90
3
 70
0
 10
19.3624096219
 20
-40.306862245
 10
19.3292147268
 20
-40.3335212214
 10
19.2677845316
 20
-40.3836157366
  0
LWPOLYLINE
  5
648
100
AcDbEntity
  8
RACCORDO
100
AcDbPolyline
 62
7
  6
CONTINUOUS
 90
10
 70
0
 10
19.2677845316
 20
-40.3836157366
 10
19.2394988593
 20
-40.406125739
 10
19.2128663853
 20
-40.4266906232
 10
19.1880382262
 20
-40.4455323601
 10
19.1648843723
 20
-40.4624206961
 10
19.1435348333
 20
-40.476946448
 10
19.1245307556
 20
-40.4889203518
 10
19.1080525211
 20
-40.4980628052
 10
19.0939197478
 20
-40.5040764215
 10
19.0821324356
 20
-40.5067404104
  0
LINE
  5
649
100
AcDbEntity
  8
RACCORDO
100
AcDbLine
 62
7
  6
CONTINUOUS
 10
-16.878033543
 20
-54.1338184268
 11
-16.8965699136
 21
-54.1414905497
  0
LINE
  5
64A
100
AcDbEntity
  8
RACCORDO
100
AcDbLine
 62
7
  6
CONTINUOUS
 10
-16.8594418566
 20
-54.1262785385
 11
-16.878033543
 21
-54.1338184268
  0
LINE
  5
64B
100
AcDbEntity
  8
RACCORDO
100
AcDbLine
 62
7
  6
CONTINUOUS
 10
-16.840795202
 20
-54.1188682126
 11
-16.8594418566
 21
-54.1262785385
  0
LWPOLYLINE
  5
64C
100
AcDbEntity
  8
RACCORDO
100
AcDbPolyline
 62
7
  6
CONTINUOUS
 90
3
 70
0
 10
-16.8127246754
 20
-54.1079762796
 10
-16.8220949699
 20
-54.1115767601
 10
-16.840795202
 20
-54.1188682126
  0
LINE
  5
64D
100
AcDbEntity
  8
RACCORDO
100
AcDbLine
 62
7
  6
CONTINUOUS
 10
19.0640530533
 20
-40.5093811665
 11
19.0
 21
-40.5306627248
  0
LWPOLYLINE
  5
64E
100
AcDbEntity
  8
DRAFT
100
AcDbPolyline
 62
7
  6
CONTINUOUS
 90
49
 70
0
 10
-18.6976613726
 20
39.4460173717
 10
-18.6866776807
 20
39.4484372363
 10
-18.674251372
 20
39.4520451294
 10
-18.6604234369
 20
39.4569399248
 10
-18.6451726221
 20
39.4632822148
 10
-18.6286468622
 20
39.471143738
 10
-18.6111533891
 20
39.4804828552
 10
-18.5928196993
 20
39.491378206
 10
-18.5737131926
 20
39.5039713304
 10
-18.5540558142
 20
39.5182859384
 10
-18.5340215086
 20
39.5343769771
 10
-18.5137074066
 20
39.5523837915
 10
-18.493241189
 20
39.5724449686
 10
-18.4728039843
 20
39.5946452791
 10
-18.4526003746
 20
39.6190715511
 10
-18.4328343734
 20
39.64585933
 10
-18.4137504986
 20
39.6750641538
 10
-18.3956215949
 20
39.7067251277
 10
-18.3787426703
 20
39.7409277917
 10
-18.3633989957
 20
39.7777312968
 10
-18.3499611477
 20
39.8170233733
 10
-18.3388592102
 20
39.8585658977
 10
-18.3303661301
 20
39.9026000023
 10
-18.3249082969
 20
39.9485775012
 10
-18.3228541493
 20
39.9949590238
 10
-18.3242653118
 20
40.0415169176
 10
-18.329135142
 20
40.0879350088
 10
-18.3371376205
 20
40.132534909
 10
-18.3478667741
 20
40.1747435408
 10
-18.3610581661
 20
40.214797396
 10
-18.3762561189
 20
40.2523526534
 10
-18.3930663004
 20
40.2872540316
 10
-18.4112088208
 20
40.3195905666
 10
-18.4303913087
 20
40.3494580074
 10
-18.4503401905
 20
40.3768958839
 10
-18.4708022822
 20
40.4019481164
 10
-18.4915662968
 20
40.4247425783
 10
-18.5124260047
 20
40.4453675087
 10
-18.5331906949
 20
40.4639012749
 10
-18.5537115185
 20
40.4804664929
 10
-18.5738847874
 20
40.4952044026
 10
-18.59353016
 20
40.5081716674
 10
-18.6124022629
 20
40.519380887
 10
-18.6304299626
 20
40.5289804954
 10
-18.647477924
 20
40.5370526604
 10
-18.663207578
 20
40.5435452898
 10
-18.6774572563
 20
40.5485331966
 10
-18.6902535931
 20
40.5521899408
 10
-18.7015532198
 20
40.5546209961
  0
LINE
  5
64F
100
AcDbEntity
  8
RACCORDO
100
AcDbLine
 62
250
  6
CONTINUOUS
 10
-19.3624096219
 20
40.306862245
 11
-19.0
 21
40.306862245
  0
LINE
  5
650
100
AcDbEntity
  8
RACCORDO
100
AcDbLine
 62
250
  6
CONTINUOUS
 10
19.0
 20
40.306862245
 11
19.3624096219
 21
40.306862245
  0
LINE
  5
651
100
AcDbEntity
  8
RACCORDO
100
AcDbLine
 62
250
  6
CONTINUOUS
 10
-19.0821324356
 20
40.5067404104
 11
-19.0
 21
40.5067404104
  0
LINE
  5
652
100
AcDbEntity
  8
RACCORDO
100
AcDbLine
 62
250
  6
CONTINUOUS
 10
19.0
 20
40.5067404104
 11
19.0821324356
 21
40.5067404104
  0
LWPOLYLINE
  5
653
100
AcDbEntity
  8
RACCORDO
100
AcDbPolyline
 62
7
  6
CONTINUOUS
 90
10
 70
0
 10
19.0821324356
 20
40.5067404104
 10
19.0939227288
 20
40.5040756716
 10
19.1080576617
 20
40.4980605768
 10
19.1245372343
 20
40.4889165175
 10
19.143541272
 20
40.4769418601
 10
19.1648899494
 20
40.4624164489
 10
19.1880437912
 20
40.4455282289
 10
19.212874332
 20
40.4266847604
 10
19.239510037
 20
40.4061171875
 10
19.2677968265
 20
40.3836059032
  0
LINE
  5
654
100
AcDbEntity
  8
RACCORDO
100
AcDbLine
 62
7
  6
CONTINUOUS
 10
19.0640530533
 20
40.5093811665
 11
19.0
 21
40.5306627248
  0
LINE
  5
655
100
AcDbEntity
  8
RACCORDO
100
AcDbLine
 62
7
  6
CONTINUOUS
 10
-16.8127246754
 20
54.1079762796
 11
-16.8314518121
 21
54.1152074045
  0
LINE
  5
656
100
AcDbEntity
  8
RACCORDO
100
AcDbLine
 62
7
  6
CONTINUOUS
 10
-16.8314518121
 20
54.1152074045
 11
-16.8501252555
 21
54.1225582937
  0
LINE
  5
657
100
AcDbEntity
  8
RACCORDO
100
AcDbLine
 62
7
  6
CONTINUOUS
 10
-16.8501252555
 20
54.1225582937
 11
-16.8687446577
 21
54.1300316193
  0
LWPOLYLINE
  5
658
100
AcDbEntity
  8
RACCORDO
100
AcDbPolyline
 62
7
  6
CONTINUOUS
 90
3
 70
0
 10
-16.8687446577
 20
54.1300316193
 10
-16.8873086283
 20
54.1376380703
 10
-16.8965699136
 20
54.1414905497
  0
LWPOLYLINE
  5
659
100
AcDbEntity
  8
RACCORDO
100
AcDbPolyline
 62
7
  6
CONTINUOUS
 90
3
 70
0
 10
19.2677968265
 20
40.3836059032
 10
19.329220939
 20
40.3335159896
 10
19.3624096219
 20
40.306862245
  0
LINE
  5
65A
100
AcDbEntity
  8
RACCORDO
100
AcDbLine
 62
7
  6
CONTINUOUS
 10
10.333381462
 20
-68.2617736769
 11
10.306862245
 21
-68.2948091789
  0
LWPOLYLINE
  5
65B
100
AcDbEntity
  8
ASSI
100
AcDbPolyline
 62
7
  6
CONTINUOUS
 90
11
 70
0
 10
0.596221
 20
-58.5302425195
 10
0.7087660379
 20
-58.4604791693
 10
0.8110133465
 20
-58.3813520507
 10
0.9029629256
 20
-58.292861164
 10
0.9855322056
 20
-58.193676531
 10
1.0578037563
 20
-58.0851281298
 10
1.1170252868
 20
-57.971205894
 10
1.1626087346
 20
-57.8517792158
 10
1.1951421623
 20
-57.726978703
 10
1.2136374673
 20
-57.6011861121
 10
1.218131415
 20
-57.4990357751
  0
LWPOLYLINE
  5
65C
100
AcDbEntity
  8
ASSI
100
AcDbPolyline
 62
7
  6
CONTINUOUS
 90
11
 70
0
 10
0.744178
 20
-58.7511760096
 10
0.8779425986
 20
-58.668715028
 10
1.0001574402
 20
-58.5756737772
 10
1.1108225246
 20
-58.472052257
 10
1.210895797
 20
-58.3565105863
 10
1.2994193123
 20
-58.2303886463
 10
1.3735192352
 20
-58.097706081
 10
1.4326616315
 20
-57.9582825879
 10
1.4773804353
 20
-57.8122984694
 10
1.5064036143
 20
-57.6643142769
 10
1.5192763878
 20
-57.5142924294
  0
LWPOLYLINE
  5
65D
100
AcDbEntity
  8
0
100
AcDbPolyline
 62
7
  6
CONTINUOUS
 90
8
 70
0
 10
-3.6553722739
 20
-53.6833129523
 10
-3.5932557626
 20
-53.6507035885
 10
-3.5357480855
 20
-53.611153648
 10
-3.4826229287
 20
-53.5646836096
 10
-3.4341066061
 20
-53.5112729946
 10
-3.391475176
 20
-53.4511510243
 10
-3.3548097109
 20
-53.3838262846
 10
-3.3240291383
 20
-53.3097901896
  0
LINE
  5
65E
100
AcDbEntity
  8
DRAFT
100
AcDbLine
 62
7
  6
CONTINUOUS
 10
16.8057426494
 20
45.5664150497
 11
15.25
 21
45.5664150497
  0
LINE
  5
65F
100
AcDbEntity
  8
DRAFT
100
AcDbLine
 62
7
  6
CONTINUOUS
 10
-15.25
 20
45.5664150497
 11
-16.8057426494
 21
45.5664150497
  0
LWPOLYLINE
  5
660
100
AcDbEntity
  8
0
100
AcDbPolyline
 62
7
  6
CONTINUOUS
 90
12
 70
0
 10
0.5054810376
 20
58.9792501619
 10
0.5227029329
 20
58.9679840445
 10
0.5402778318
 20
58.959258019
 10
0.558617757
 20
58.9533227594
 10
0.5773106858
 20
58.9499275918
 10
0.5955080621
 20
58.9499041339
 10
0.6134425134
 20
58.9537363289
 10
0.6308814123
 20
58.9609402336
 10
0.6462783198
 20
58.970895636
 10
0.6590916595
 20
58.9838333431
 10
0.6698630079
 20
58.9995225478
 10
0.6786706558
 20
59.0166506171
  0
LWPOLYLINE
  5
661
100
AcDbEntity
  8
DRAFT
100
AcDbPolyline
 62
7
  6
CONTINUOUS
 90
10
 70
0
 10
8.6491932696
 20
55.6582247495
 10
8.7359286329
 20
55.5978165112
 10
8.8247880335
 20
55.5417560484
 10
8.9157714715
 20
55.4900266379
 10
9.009111424
 20
55.4425222496
 10
9.104575414
 20
55.399315611
 10
9.2014660097
 20
55.3606572405
 10
9.2995507341
 20
55.3266195304
 10
9.3990620641
 20
55.2970983055
 10
9.5
 20
55.2720799058
  0
LWPOLYLINE
  5
662
100
AcDbEntity
  8
RACCORDO
100
AcDbPolyline
 62
7
  6
CONTINUOUS
 90
3
 70
0
 10
10.306862245
 20
68.2948091789
 10
10.3334262486
 20
68.261720224
 10
10.3834988978
 20
68.2003301703
  0
LWPOLYLINE
  5
663
100
AcDbEntity
  8
RACCORDO
100
AcDbPolyline
 62
7
  6
CONTINUOUS
 90
10
 70
0
 10
10.3834988978
 20
68.2003301703
 10
10.406100432
 20
68.1719428416
 10
10.4267881721
 20
68.1451514649
 10
10.4456979147
 20
68.1202147304
 10
10.4625805613
 20
68.0970532088
 10
10.4770706062
 20
68.0757463293
 10
10.489002713
 20
68.0567910702
 10
10.4981071943
 20
68.0403530907
 10
10.5040905597
 20
68.0262667315
 10
10.5067404104
 20
68.0145319927
  0
LWPOLYLINE
  5
664
100
AcDbEntity
  8
ASSI
100
AcDbPolyline
 62
7
  6
CONTINUOUS
 90
12
 70
0
 10
0.9456467108
 20
-59.2002802888
 10
1.1177044032
 20
-59.1015455077
 10
1.2772868343
 20
-58.9879876997
 10
1.4257158072
 20
-58.8581709833
 10
1.5616695189
 20
-58.71353124
 10
1.6811825598
 20
-58.5583761143
 10
1.7837147739
 20
-58.3924483118
 10
1.8698063172
 20
-58.2160051268
 10
1.9371122488
 20
-58.0341260876
 10
1.9851242249
 20
-57.8466936501
 10
2.0143505893
 20
-57.6538253583
 10
2.0222128963
 20
-57.4997070056
  0
LINE
  5
665
100
AcDbEntity
  8
ASSI
100
AcDbLine
 62
7
  6
CONTINUOUS
 10
0.7611137572
 20
-59.284192043
 11
0.9456467108
 21
-59.2002802888
  0
LWPOLYLINE
  5
666
100
AcDbEntity
  8
DRAFT
100
AcDbPolyline
 62
7
  6
CONTINUOUS
 90
10
 70
0
 10
10.5
 20
55.2720799058
 10
10.6009363781
 20
55.2970977936
 10
10.7004465271
 20
55.3266185786
 10
10.7985304469
 20
55.3606559207
 10
10.8954205979
 20
55.3993139217
 10
10.9908845197
 20
55.442520263
 10
11.0842248319
 20
55.4900246479
 10
11.1752090743
 20
55.5417544241
 10
11.2640697072
 20
55.5978155498
 10
11.3508067304
 20
55.6582247495
  0
LWPOLYLINE
  5
667
100
AcDbEntity
  8
DRAFT
100
AcDbPolyline
 62
7
  6
CONTINUOUS
 90
10
 70
0
 10
-9.5
 20
55.2720799058
 10
-9.3990636219
 20
55.2970977936
 10
-9.2995534729
 20
55.3266185786
 10
-9.2014695531
 20
55.3606559207
 10
-9.1045794021
 20
55.3993139217
 10
-9.0091154803
 20
55.442520263
 10
-8.9157751681
 20
55.4900246479
 10
-8.8247909257
 20
55.5417544241
 10
-8.7359302928
 20
55.5978155498
 10
-8.6491932696
 20
55.6582247495
  0
LINE
  5
668
100
AcDbEntity
  8
0
100
AcDbLine
 62
7
  6
CONTINUOUS
 10
-15.25
 20
51.0
 11
15.25
 21
51.0
  0
LINE
  5
669
100
AcDbEntity
  8
0
100
AcDbLine
 62
7
  6
CONTINUOUS
 10
15.25
 20
51.5
 11
-15.25
 21
51.5
  0
LINE
  5
66A
100
AcDbEntity
  8
DRAFT
100
AcDbLine
 62
7
  6
CONTINUOUS
 10
16.8127246754
 20
52.9409741574
 11
15.25
 21
52.9409741574
  0
LINE
  5
66B
100
AcDbEntity
  8
DRAFT
100
AcDbLine
 62
7
  6
CONTINUOUS
 10
-15.25
 20
52.9409741574
 11
-16.8127246754
 21
52.9409741574
  0
LINE
  5
66C
100
AcDbEntity
  8
0
100
AcDbLine
 62
7
  6
CONTINUOUS
 10
5.337269
 20
55.1421540651
 11
5.968046
 21
55.1421608541
  0
LINE
  5
66D
100
AcDbEntity
  8
0
100
AcDbLine
 62
7
  6
CONTINUOUS
 10
0.99575
 20
55.1421472762
 11
1.555771
 21
55.1421540651
  0
LINE
  5
66E
100
AcDbEntity
  8
0
100
AcDbLine
 62
7
  6
CONTINUOUS
 10
-2.116583
 20
55.1421472762
 11
-1.556562
 21
55.1421472762
  0
LINE
  5
66F
100
AcDbEntity
  8
0
100
AcDbLine
 62
7
  6
CONTINUOUS
 10
0.062384
 20
55.1421472762
 11
0.622405
 21
55.1421472762
  0
LINE
  5
670
100
AcDbEntity
  8
0
100
AcDbLine
 62
7
  6
CONTINUOUS
 10
3.727192
 20
55.1421540651
 11
4.28722
 21
55.1421540651
  0
LINE
  5
671
100
AcDbEntity
  8
0
100
AcDbLine
 62
7
  6
CONTINUOUS
 10
-1.027096
 20
55.1421472762
 11
-0.467089
 21
55.1421540651
  0
LINE
  5
672
100
AcDbEntity
  8
0
100
AcDbLine
 62
7
  6
CONTINUOUS
 10
-3.236611
 20
55.1421404873
 11
-2.67659
 21
55.1421472762
  0
LINE
  5
673
100
AcDbEntity
  8
0
100
AcDbLine
 62
7
  6
CONTINUOUS
 10
2.793819
 20
55.1421540651
 11
3.353847
 21
55.1421472762
  0
LINE
  5
674
100
AcDbEntity
  8
0
100
AcDbLine
 62
7
  6
CONTINUOUS
 10
-5.069022
 20
55.1421404873
 11
-4.50898
 21
55.1421472762
  0
LINE
  5
675
100
AcDbEntity
  8
DRAFT
100
AcDbLine
 62
7
  6
CONTINUOUS
 10
-11.4584748065
 20
55.6582247495
 11
-11.3508067304
 21
55.6582247495
  0
LINE
  5
676
100
AcDbEntity
  8
DRAFT
100
AcDbLine
 62
7
  6
CONTINUOUS
 10
-8.6491932696
 20
55.6582247495
 11
-8.5415251935
 21
55.6582247495
  0
LINE
  5
677
100
AcDbEntity
  8
DRAFT
100
AcDbLine
 62
7
  6
CONTINUOUS
 10
8.5415251935
 20
55.6582247495
 11
8.6491932696
 21
55.6582247495
  0
LINE
  5
678
100
AcDbEntity
  8
DRAFT
100
AcDbLine
 62
7
  6
CONTINUOUS
 10
11.3508067304
 20
55.6582247495
 11
11.4584748065
 21
55.6582247495
  0
LINE
  5
679
100
AcDbEntity
  8
0
100
AcDbLine
 62
7
  6
CONTINUOUS
 10
1.73257
 20
55.6762115741
 11
2.617027
 21
55.6762115741
  0
LINE
  5
67A
100
AcDbEntity
  8
0
100
AcDbLine
 62
7
  6
CONTINUOUS
 10
2.446199
 20
56.1574605425
 11
1.903391
 21
56.1574605425
  0
LINE
  5
67B
100
AcDbEntity
  8
0
100
AcDbLine
 62
7
  6
CONTINUOUS
 10
2.446199
 20
56.192190178
 11
1.903391
 21
56.192190178
  0
LINE
  5
67C
100
AcDbEntity
  8
0
100
AcDbLine
 62
7
  6
CONTINUOUS
 10
4.287283
 20
56.1921969669
 11
4.776058
 21
56.192190178
  0
LINE
  5
67D
100
AcDbEntity
  8
RACCORDO
100
AcDbLine
 62
7
  6
CONTINUOUS
 10
-9.3501335989
 20
-67.92508963
 11
-9.4897066046
 21
-67.9948548704
  0
LINE
  5
67E
100
AcDbEntity
  8
RACCORDO
100
AcDbLine
 62
7
  6
CONTINUOUS
 10
16.878033543
 20
-54.8661815732
 11
16.8965699136
 21
-54.8585094503
  0
LINE
  5
67F
100
AcDbEntity
  8
RACCORDO
100
AcDbLine
 62
7
  6
CONTINUOUS
 10
16.8594418566
 20
-54.8737214615
 11
16.878033543
 21
-54.8661815732
  0
LINE
  5
680
100
AcDbEntity
  8
RACCORDO
100
AcDbLine
 62
7
  6
CONTINUOUS
 10
16.840795202
 20
-54.8811317874
 11
16.8594418566
 21
-54.8737214615
  0
LWPOLYLINE
  5
681
100
AcDbEntity
  8
RACCORDO
100
AcDbPolyline
 62
7
  6
CONTINUOUS
 90
3
 70
0
 10
16.8127246754
 20
-54.8920237204
 10
16.8220949699
 20
-54.8884232399
 10
16.840795202
 20
-54.8811317874
  0
LINE
  5
682
100
AcDbEntity
  8
0
100
AcDbLine
 62
7
  6
CONTINUOUS
 10
4.9608507626
 20
56.659868087
 11
4.279499
 21
56.659868087
  0
LINE
  5
683
100
AcDbEntity
  8
0
100
AcDbLine
 62
7
  6
CONTINUOUS
 10
4.9608506916
 20
56.6945977225
 11
4.279499
 21
56.6945977225
  0
LINE
  5
684
100
AcDbEntity
  8
DRAFT
100
AcDbLine
 62
7
  6
CONTINUOUS
 10
-12.2939750335
 20
57.0
 11
-12.2151700744
 21
57.0
  0
LINE
  5
685
100
AcDbEntity
  8
DRAFT
100
AcDbLine
 62
7
  6
CONTINUOUS
 10
-7.7848299256
 20
57.0
 11
-7.7060249665
 21
57.0
  0
LINE
  5
686
100
AcDbEntity
  8
DRAFT
100
AcDbLine
 62
7
  6
CONTINUOUS
 10
7.7060249665
 20
57.0
 11
7.7848299256
 21
57.0
  0
LINE
  5
687
100
AcDbEntity
  8
DRAFT
100
AcDbLine
 62
7
  6
CONTINUOUS
 10
12.2151700744
 20
57.0
 11
12.2939750335
 21
57.0
  0
LINE
  5
688
100
AcDbEntity
  8
0
100
AcDbLine
 62
7
  6
CONTINUOUS
 10
4.279492
 20
57.3554451793
 11
4.960842
 21
57.3554451793
  0
LINE
  5
689
100
AcDbEntity
  8
0
100
AcDbLine
 62
7
  6
CONTINUOUS
 10
0.622405
 20
57.8231095104
 11
-0.224196
 21
57.8231095104
  0
LINE
  5
68A
100
AcDbEntity
  8
0
100
AcDbLine
 62
7
  6
CONTINUOUS
 10
-1.269982
 20
57.8231095104
 11
-2.116583
 21
57.8231095104
  0
LINE
  5
68B
100
AcDbEntity
  8
0
100
AcDbLine
 62
7
  6
CONTINUOUS
 10
-2.676583
 20
57.8231095104
 11
-3.236604
 21
57.8231095104
  0
LINE
  5
68C
100
AcDbEntity
  8
0
100
AcDbLine
 62
7
  6
CONTINUOUS
 10
-3.609949
 20
57.8231095104
 11
-4.169977
 21
57.8231095104
  0
LINE
  5
68D
100
AcDbEntity
  8
0
100
AcDbLine
 62
7
  6
CONTINUOUS
 10
-5.408018
 20
57.8231095104
 11
-5.968046
 21
57.8231095104
  0
LINE
  5
68E
100
AcDbEntity
  8
0
100
AcDbLine
 62
7
  6
CONTINUOUS
 10
5.0385853446
 20
57.8231162993
 11
3.727192
 21
57.8231162993
  0
LINE
  5
68F
100
AcDbEntity
  8
0
100
AcDbLine
 62
7
  6
CONTINUOUS
 10
2.454816
 20
57.8231162993
 11
1.894767
 21
57.8231162993
  0
LINE
  5
690
100
AcDbEntity
  8
0
100
AcDbLine
 62
7
  6
CONTINUOUS
 10
0.622405
 20
57.8578391459
 11
-0.224196
 21
57.8578391459
  0
LINE
  5
691
100
AcDbEntity
  8
0
100
AcDbLine
 62
7
  6
CONTINUOUS
 10
-1.269982
 20
57.8578391459
 11
-2.116583
 21
57.8578391459
  0
LINE
  5
692
100
AcDbEntity
  8
0
100
AcDbLine
 62
7
  6
CONTINUOUS
 10
-2.676583
 20
57.8578391459
 11
-3.236604
 21
57.8578391459
  0
LINE
  5
693
100
AcDbEntity
  8
0
100
AcDbLine
 62
7
  6
CONTINUOUS
 10
-3.609949
 20
57.8578391459
 11
-4.169977
 21
57.8578391459
  0
LINE
  5
694
100
AcDbEntity
  8
0
100
AcDbLine
 62
7
  6
CONTINUOUS
 10
-5.408018
 20
57.8578391459
 11
-5.968046
 21
57.8578391459
  0
LINE
  5
695
100
AcDbEntity
  8
0
100
AcDbLine
 62
7
  6
CONTINUOUS
 10
5.0385854359
 20
57.8578459349
 11
3.727192
 21
57.8578459349
  0
LINE
  5
696
100
AcDbEntity
  8
0
100
AcDbLine
 62
7
  6
CONTINUOUS
 10
2.454816
 20
57.8578459349
 11
1.894767
 21
57.8578459349
  0
LINE
  5
697
100
AcDbEntity
  8
DRAFT
100
AcDbLine
 62
7
  6
CONTINUOUS
 10
12.2939750335
 20
58.0
 11
12.2167475413
 21
58.0
  0
LINE
  5
698
100
AcDbEntity
  8
DRAFT
100
AcDbLine
 62
7
  6
CONTINUOUS
 10
7.7832524587
 20
58.0
 11
7.7060249665
 21
58.0
  0
LINE
  5
699
100
AcDbEntity
  8
DRAFT
100
AcDbLine
 62
7
  6
CONTINUOUS
 10
-7.7060249665
 20
58.0
 11
-7.7832524587
 21
58.0
  0
LINE
  5
69A
100
AcDbEntity
  8
DRAFT
100
AcDbLine
 62
7
  6
CONTINUOUS
 10
-12.2167475413
 20
58.0
 11
-12.2939750335
 21
58.0
  0
LINE
  5
69B
100
AcDbEntity
  8
0
100
AcDbLine
 62
7
  6
CONTINUOUS
 10
-4.538471
 20
58.673223
 11
-3.677082
 21
58.673223
  0
LINE
  5
69C
100
AcDbEntity
  8
0
100
AcDbLine
 62
7
  6
CONTINUOUS
 10
-2.6756102613
 20
58.673223
 11
-1.098544
 21
58.673223
  0
LINE
  5
69D
100
AcDbEntity
  8
0
100
AcDbLine
 62
7
  6
CONTINUOUS
 10
-0.1758805327
 20
58.673223
 11
1.165828
 21
58.673223
  0
LINE
  5
69E
100
AcDbEntity
  8
0
100
AcDbLine
 62
7
  6
CONTINUOUS
 10
2.3881505528
 20
58.673223
 11
3.962178
 21
58.673223
  0
LINE
  5
69F
100
AcDbEntity
  8
0
100
AcDbLine
 62
7
  6
CONTINUOUS
 10
4.1750981931
 20
61.37224
 11
2.9261027596
 21
61.37224
  0
LINE
  5
6A0
100
AcDbEntity
  8
0
100
AcDbLine
 62
7
  6
CONTINUOUS
 10
1.5156046379
 20
61.37224
 11
0.4547277137
 21
61.37224
  0
LINE
  5
6A1
100
AcDbEntity
  8
0
100
AcDbLine
 62
7
  6
CONTINUOUS
 10
-1.225051
 20
61.37224
 11
-1.981484721
 21
61.3719491805
  0
LWPOLYLINE
  5
6A2
100
AcDbEntity
  8
0
100
AcDbPolyline
 62
7
  6
CONTINUOUS
 90
15
 70
0
 10
5.0385854359
 20
57.8578459349
 10
5.1380026099
 20
57.8519611506
 10
5.2339370965
 20
57.8358522374
 10
5.3263888958
 20
57.8095191953
 10
5.416561661
 20
57.7723824646
 10
5.5032517389
 20
57.7250216049
 10
5.5828481692
 20
57.6691752952
 10
5.6549976928
 20
57.604469892
 10
5.7200535689
 20
57.5312790388
 10
5.7754646142
 20
57.4524623452
 10
5.8208536036
 20
57.3677493856
 10
5.8565977622
 20
57.2774105856
 10
5.8812775822
 20
57.1851168309
 10
5.8943787693
 20
57.090843801
 10
5.8971730797
 20
57.0255199128
  0
LWPOLYLINE
  5
6A3
100
AcDbEntity
  8
0
100
AcDbPolyline
 62
7
  6
CONTINUOUS
 90
19
 70
0
 10
3.7039540621
 20
61.0943802393
 10
3.6603587679
 20
61.1025085749
 10
3.6167592976
 20
61.106031773
 10
3.5731556514
 20
61.1049498336
 10
3.5289576992
 20
61.0991481438
 10
3.484755571
 20
61.0887413165
 10
3.4423196569
 20
61.0740731905
 10
3.401175326
 20
61.0554839697
 10
3.3617972092
 20
61.0326334503
 10
3.3273795897
 20
61.0048448592
 10
3.2997970003
 20
60.9709490041
 10
3.2771749081
 20
60.9321150774
 10
3.2570839982
 20
60.8911738828
 10
3.2415734014
 20
60.8479982103
 10
3.2285939869
 20
60.80271527
 10
3.2095690469
 20
60.7585374948
 10
3.181639679
 20
60.7165356959
 10
3.1476647857
 20
60.6756390621
 10
3.1076443671
 20
60.6358475935
  0
LINE
  5
6A4
100
AcDbEntity
  8
RACCORDO
100
AcDbLine
 62
7
  6
CONTINUOUS
 10
16.8127246754
 20
54.8920237204
 11
16.8314518121
 21
54.8847925955
  0
LINE
  5
6A5
100
AcDbEntity
  8
RACCORDO
100
AcDbLine
 62
7
  6
CONTINUOUS
 10
16.8314518121
 20
54.8847925955
 11
16.8501252555
 21
54.8774417063
  0
LINE
  5
6A6
100
AcDbEntity
  8
RACCORDO
100
AcDbLine
 62
7
  6
CONTINUOUS
 10
16.8501252555
 20
54.8774417063
 11
16.8687446577
 21
54.8699683807
  0
LWPOLYLINE
  5
6A7
100
AcDbEntity
  8
RACCORDO
100
AcDbPolyline
 62
7
  6
CONTINUOUS
 90
3
 70
0
 10
16.8687446577
 20
54.8699683807
 10
16.8873086283
 20
54.8623619297
 10
16.8965699136
 20
54.8585094503
  0
LINE
  5
6A8
100
AcDbEntity
  8
RACCORDO
100
AcDbLine
 62
7
  6
CONTINUOUS
 10
-9.3501336181
 20
67.9250896396
 11
-9.4897066046
 21
67.9948548704
  0
LINE
  5
6A9
100
AcDbEntity
  8
RACCORDO
100
AcDbLine
 62
250
  6
CONTINUOUS
 10
4.4487219094
 20
-68.2948091789
 11
4.1856091198
 21
-68.4281306955
  0
LINE
  5
6AA
100
AcDbEntity
  8
RACCORDO
100
AcDbLine
 62
7
  6
CONTINUOUS
 10
10.644651798
 20
-67.9276961372
 11
10.5102933954
 21
-67.9948548704
  0
LINE
  5
6AB
100
AcDbEntity
  8
RACCORDO
100
AcDbLine
 62
250
  6
CONTINUOUS
 10
5.3221619798
 20
-70.6226378918
 11
5.549965533
 21
-70.5121708289
  0
LWPOLYLINE
  5
6AC
100
AcDbEntity
  8
RACCORDO
100
AcDbPolyline
 62
250
  6
CONTINUOUS
 90
7
 70
0
 10
5.0147154765
 20
70.5622139313
 10
4.9273619984
 20
70.5385925527
 10
4.8328734263
 20
70.5171836969
 10
4.7319373393
 20
70.4975639893
 10
4.6253148595
 20
70.4793167415
 10
4.5138259178
 20
70.4620308848
 10
4.3983391682
 20
70.4453053428
  0
LINE
  5
6AD
100
AcDbEntity
  8
RACCORDO
100
AcDbLine
 62
250
  6
CONTINUOUS
 10
4.0909375869
 20
68.4089804894
 11
4.1856058168
 21
68.4281321914
  0
LWPOLYLINE
  5
6AE
100
AcDbEntity
  8
0
100
AcDbPolyline
 62
250
  6
CONTINUOUS
 90
10
 70
0
 10
-18.3
 20
64.0551423912
 10
-18.3728981462
 20
64.0417141006
 10
-18.4694473425
 20
64.0218119378
 10
-18.5565761597
 20
64.0015332691
 10
-18.634061306
 20
63.9809300336
 10
-18.7017040102
 20
63.9600550502
 10
-18.7593306452
 20
63.9389618847
 10
-18.8067934863
 20
63.9177046162
 10
-18.8439709757
 20
63.8963376957
 10
-18.8707678416
 20
63.8749158792
  0
LWPOLYLINE
  5
6AF
100
AcDbEntity
  8
RACCORDO
100
AcDbPolyline
 62
250
  6
CONTINUOUS
 90
10
 70
0
 10
3.5836371252
 20
68.3127478705
 10
3.6688186067
 20
68.3251597412
 10
3.748164936
 20
68.3377226333
 10
3.8204100663
 20
68.3496143215
 10
3.8852185286
 20
68.3609720909
 10
3.9425421115
 20
68.3721050453
 10
3.9917829095
 20
68.382404906
 10
4.0327903853
 20
68.3917651152
 10
4.0658016389
 20
68.4005857232
 10
4.0909351452
 20
68.4089747595
  0
LWPOLYLINE
  5
6B0
100
AcDbEntity
  8
RACCORDO
100
AcDbPolyline
 62
250
  6
CONTINUOUS
 90
3
 70
0
 10
3.2987787659
 20
68.2747295378
 10
3.397563621
 20
68.2872153265
 10
3.5836371252
 20
68.3127478705
  0
LINE
  5
6B1
100
AcDbEntity
  8
RACCORDO
100
AcDbLine
 62
250
  6
CONTINUOUS
 10
2.9901103788
 20
68.2385834559
 11
3.2987787659
 21
68.2747295378
  0
LINE
  5
6B2
100
AcDbEntity
  8
RACCORDO
100
AcDbLine
 62
250
  6
CONTINUOUS
 10
4.3595865462
 20
67.9876557579
 11
4.448719772
 21
67.9948548704
  0
LINE
  5
6B3
100
AcDbEntity
  8
RACCORDO
100
AcDbLine
 62
7
  6
CONTINUOUS
 10
16.3275841043
 20
67.9842418231
 11
16.457454531
 21
67.9948548704
  0
LWPOLYLINE
  5
6B4
100
AcDbEntity
  8
0
100
AcDbPolyline
 62
7
  6
CONTINUOUS
 90
7
 70
0
 10
16.0113528234
 20
66.8054936617
 10
16.0749118684
 20
66.8104070784
 10
16.137893092
 20
66.8145935809
 10
16.2001458895
 20
66.8179989849
 10
16.2619231243
 20
66.8205751934
 10
16.3233090843
 20
66.8222715524
 10
16.3842194815
 20
66.8230362408
  0
LINE
  5
6B5
100
AcDbEntity
  8
RACCORDO
100
AcDbLine
 62
7
  6
CONTINUOUS
 10
16.1931512761
 20
67.9738570728
 11
16.3275841043
 21
67.9842418231
  0
LINE
  5
6B6
100
AcDbEntity
  8
RACCORDO
100
AcDbLine
 62
7
  6
CONTINUOUS
 10
16.0529993386
 20
67.9637138228
 11
16.1931512761
 21
67.9738570728
  0
LWPOLYLINE
  5
6B7
100
AcDbEntity
  8
RACCORDO
100
AcDbPolyline
 62
7
  6
CONTINUOUS
 90
16
 70
0
 10
-16.3213760438
 20
65.4212998914
 10
-16.3646739186
 20
65.4186573214
 10
-16.4076671376
 20
65.412105353
 10
-16.4503557007
 20
65.4014778419
 10
-16.4931425622
 20
65.3866726447
 10
-16.5356247679
 20
65.3675834606
 10
-16.5765934551
 20
65.3440376758
 10
-16.6161254677
 20
65.3160798724
 10
-16.6541439618
 20
65.283650255
 10
-16.6892095438
 20
65.2462936422
 10
-16.7216568013
 20
65.2040207378
 10
-16.7511511466
 20
65.1569772764
 10
-16.7752494224
 20
65.1048115475
 10
-16.7931372429
 20
65.0476481091
 10
-16.8056289939
 20
64.9862398662
 10
-16.8127246754
 20
64.9213760438
  0
LWPOLYLINE
  5
6B8
100
AcDbEntity
  8
DRAFT
100
AcDbPolyline
 62
7
  6
CONTINUOUS
 90
5
 70
0
 10
15.8574035974
 20
67.9558424144
 10
15.919426372
 20
67.9576807017
 10
15.9724375147
 20
67.9596014245
 10
16.016961837
 20
67.9616124649
 10
16.0529993386
 20
67.9637138228
  0
LINE
  5
6B9
100
AcDbEntity
  8
0
100
AcDbLine
 62
7
  6
CONTINUOUS
 10
-16.5
 20
66.8221346312
 11
-16.4446488192
 21
66.822817441
  0
LINE
  5
6BA
100
AcDbEntity
  8
0
100
AcDbLine
 62
7
  6
CONTINUOUS
 10
-16.4446488192
 20
66.822817441
 11
-16.401450177
 21
66.8230763549
  0
LINE
  5
6BB
100
AcDbEntity
  8
RACCORDO
100
AcDbLine
 62
250
  6
CONTINUOUS
 10
4.0
 20
65.4948091789
 11
4.8
 21
65.4974045895
  0
LINE
  5
6BC
100
AcDbEntity
  8
0
100
AcDbLine
 62
7
  6
CONTINUOUS
 10
16.3842194815
 20
66.8230362408
 11
16.4013967299
 21
66.8230763589
  0
LINE
  5
6BD
100
AcDbEntity
  8
0
100
AcDbLine
 62
7
  6
CONTINUOUS
 10
-0.2414123412
 20
61.9743736336
 11
-1.0616517768
 21
61.9743736336
  0
LINE
  5
6BE
100
AcDbEntity
  8
0
100
AcDbLine
 62
7
  6
CONTINUOUS
 10
-2.8199501557
 20
61.9743736336
 11
-3.6582775922
 21
61.9743736336
  0
LINE
  5
6BF
100
AcDbEntity
  8
0
100
AcDbLine
 62
7
  6
CONTINUOUS
 10
15.25
 20
61.9918713663
 11
-0.2368691191
 21
61.9918713663
  0
LINE
  5
6C0
100
AcDbEntity
  8
0
100
AcDbLine
 62
7
  6
CONTINUOUS
 10
-1.0569034689
 20
61.9918713663
 11
-2.8154069379
 21
61.9918713663
  0
LINE
  5
6C1
100
AcDbEntity
  8
0
100
AcDbLine
 62
7
  6
CONTINUOUS
 10
-3.6536716119
 20
61.9918713663
 11
-15.25
 21
61.9918713663
  0
LINE
  5
6C2
100
AcDbEntity
  8
0
100
AcDbLine
 62
7
  6
CONTINUOUS
 10
13.0
 20
62.5
 11
7.0
 21
62.5
  0
LINE
  5
6C3
100
AcDbEntity
  8
0
100
AcDbLine
 62
7
  6
CONTINUOUS
 10
-7.0
 20
62.5
 11
-13.0
 21
62.5
  0
LINE
  5
6C4
100
AcDbEntity
  8
RACCORDO
100
AcDbLine
 62
250
  6
CONTINUOUS
 10
19.3624096219
 20
63.8749158815
 11
18.8707757132
 21
63.8745367684
  0
LINE
  5
6C5
100
AcDbEntity
  8
RACCORDO
100
AcDbLine
 62
250
  6
CONTINUOUS
 10
20.1668162456
 20
63.8749158815
 11
20.4668162456
 21
63.874915877
  0
LINE
  5
6C6
100
AcDbEntity
  8
RACCORDO
100
AcDbLine
 62
250
  6
CONTINUOUS
 10
-20.1668162456
 20
63.8749158815
 11
-20.4668162456
 21
63.8749158815
  0
LINE
  5
6C7
100
AcDbEntity
  8
0
100
AcDbLine
 62
7
  6
CONTINUOUS
 10
-13.0
 20
64.5
 11
-7.0
 21
64.5
  0
LINE
  5
6C8
100
AcDbEntity
  8
0
100
AcDbLine
 62
7
  6
CONTINUOUS
 10
13.0
 20
64.5
 11
7.0
 21
64.5
  0
LINE
  5
6C9
100
AcDbEntity
  8
RACCORDO
100
AcDbLine
 62
250
  6
CONTINUOUS
 10
16.8127246754
 20
64.9213760438
 11
15.25
 21
64.9213760438
  0
LINE
  5
6CA
100
AcDbEntity
  8
RACCORDO
100
AcDbLine
 62
250
  6
CONTINUOUS
 10
-15.25
 20
64.9213760438
 11
-16.8127246754
 21
64.9213760438
  0
LINE
  5
6CB
100
AcDbEntity
  8
RACCORDO
100
AcDbLine
 62
250
  6
CONTINUOUS
 10
15.25
 20
64.9301035763
 11
13.0
 21
64.9301035763
  0
LINE
  5
6CC
100
AcDbEntity
  8
RACCORDO
100
AcDbLine
 62
250
  6
CONTINUOUS
 10
7.0
 20
64.9301035763
 11
4.8
 21
64.9301035763
  0
LINE
  5
6CD
100
AcDbEntity
  8
RACCORDO
100
AcDbLine
 62
250
  6
CONTINUOUS
 10
4.0
 20
64.9301035763
 11
-4.0
 21
64.9301035763
  0
LINE
  5
6CE
100
AcDbEntity
  8
RACCORDO
100
AcDbLine
 62
250
  6
CONTINUOUS
 10
-4.8
 20
64.9301035763
 11
-7.0
 21
64.9301035763
  0
LINE
  5
6CF
100
AcDbEntity
  8
RACCORDO
100
AcDbLine
 62
250
  6
CONTINUOUS
 10
-13.0
 20
64.9301035763
 11
-15.25
 21
64.9301035763
  0
LINE
  5
6D0
100
AcDbEntity
  8
RACCORDO
100
AcDbLine
 62
7
  6
CONTINUOUS
 10
-4.8
 20
65.1214522078
 11
-4.0
 21
65.1214522078
  0
LINE
  5
6D1
100
AcDbEntity
  8
RACCORDO
100
AcDbLine
 62
7
  6
CONTINUOUS
 10
4.0
 20
65.1214522078
 11
4.8
 21
65.1214522078
  0
LINE
  5
6D2
100
AcDbEntity
  8
RACCORDO
100
AcDbLine
 62
250
  6
CONTINUOUS
 10
-4.8
 20
65.1948548704
 11
-4.0
 21
65.1948548704
  0
LINE
  5
6D3
100
AcDbEntity
  8
RACCORDO
100
AcDbLine
 62
250
  6
CONTINUOUS
 10
4.0
 20
65.1948548704
 11
4.8
 21
65.1948548704
  0
LINE
  5
6D4
100
AcDbEntity
  8
0
100
AcDbLine
 62
7
  6
CONTINUOUS
 10
-13.0
 20
65.2
 11
-7.0
 21
65.2
  0
LINE
  5
6D5
100
AcDbEntity
  8
0
100
AcDbLine
 62
7
  6
CONTINUOUS
 10
13.0
 20
65.2
 11
7.0
 21
65.2
  0
LINE
  5
6D6
100
AcDbEntity
  8
RACCORDO
100
AcDbLine
 62
250
  6
CONTINUOUS
 10
16.3213760438
 20
65.4212998914
 11
15.25
 21
65.4212998914
  0
LINE
  5
6D7
100
AcDbEntity
  8
RACCORDO
100
AcDbLine
 62
250
  6
CONTINUOUS
 10
-15.25
 20
65.4212998914
 11
-16.3213760438
 21
65.4212998914
  0
LINE
  5
6D8
100
AcDbEntity
  8
RACCORDO
100
AcDbLine
 62
250
  6
CONTINUOUS
 10
15.25
 20
65.4300274238
 11
13.0
 21
65.4300274238
  0
LINE
  5
6D9
100
AcDbEntity
  8
RACCORDO
100
AcDbLine
 62
250
  6
CONTINUOUS
 10
7.0
 20
65.4300274238
 11
4.8
 21
65.4300274238
  0
LINE
  5
6DA
100
AcDbEntity
  8
RACCORDO
100
AcDbLine
 62
250
  6
CONTINUOUS
 10
4.0
 20
65.4300274238
 11
-4.0
 21
65.4300274238
  0
LINE
  5
6DB
100
AcDbEntity
  8
RACCORDO
100
AcDbLine
 62
250
  6
CONTINUOUS
 10
-4.8
 20
65.4300274238
 11
-7.0
 21
65.4300274238
  0
LINE
  5
6DC
100
AcDbEntity
  8
RACCORDO
100
AcDbLine
 62
250
  6
CONTINUOUS
 10
-13.0
 20
65.4300274238
 11
-15.25
 21
65.4300274238
  0
LINE
  5
6DD
100
AcDbEntity
  8
DRAFT
100
AcDbLine
 62
7
  6
CONTINUOUS
 10
-4.0
 20
65.4650898701
 11
4.0
 21
65.4650898701
  0
LINE
  5
6DE
100
AcDbEntity
  8
RACCORDO
100
AcDbLine
 62
7
  6
CONTINUOUS
 10
-16.4000761524
 20
65.5
 11
-13.0
 21
65.5
  0
LINE
  5
6DF
100
AcDbEntity
  8
RACCORDO
100
AcDbLine
 62
7
  6
CONTINUOUS
 10
-7.0
 20
65.5
 11
-4.8
 21
65.5
  0
LINE
  5
6E0
100
AcDbEntity
  8
RACCORDO
100
AcDbLine
 62
7
  6
CONTINUOUS
 10
4.8
 20
65.5
 11
7.0
 21
65.5
  0
LINE
  5
6E1
100
AcDbEntity
  8
RACCORDO
100
AcDbLine
 62
7
  6
CONTINUOUS
 10
13.0
 20
65.5
 11
16.4000761524
 21
65.5
  0
LINE
  5
6E2
100
AcDbEntity
  8
0
100
AcDbLine
 62
7
  6
CONTINUOUS
 10
-4.0
 20
66.730158461
 11
4.0
 21
66.730158461
  0
LINE
  5
6E3
100
AcDbEntity
  8
RACCORDO
100
AcDbLine
 62
7
  6
CONTINUOUS
 10
-16.301218346
 20
66.8
 11
-4.0
 21
66.8
  0
LINE
  5
6E4
100
AcDbEntity
  8
RACCORDO
100
AcDbLine
 62
7
  6
CONTINUOUS
 10
4.0
 20
66.8
 11
16.301218346
 21
66.8
  0
LINE
  5
6E5
100
AcDbEntity
  8
RACCORDO
100
AcDbLine
 62
250
  6
CONTINUOUS
 10
9.3356316599
 20
67.5
 11
9.693137755
 21
67.5
  0
LINE
  5
6E6
100
AcDbEntity
  8
RACCORDO
100
AcDbLine
 62
250
  6
CONTINUOUS
 10
-9.3356316707
 20
67.5
 11
-9.693137755
 21
67.5
  0
LINE
  5
6E7
100
AcDbEntity
  8
RACCORDO
100
AcDbLine
 62
250
  6
CONTINUOUS
 10
-10.306862245
 20
67.5
 11
-10.6606004905
 21
67.5
  0
LINE
  5
6E8
100
AcDbEntity
  8
RACCORDO
100
AcDbLine
 62
250
  6
CONTINUOUS
 10
10.306862245
 20
67.5
 11
10.6606004959
 21
67.5
  0
LINE
  5
6E9
100
AcDbEntity
  8
RACCORDO
100
AcDbLine
 62
250
  6
CONTINUOUS
 10
-19.3624096219
 20
63.8749158815
 11
-18.8707759294
 21
63.8745610216
  0
LINE
  5
6EA
100
AcDbEntity
  8
RACCORDO
100
AcDbLine
 62
250
  6
CONTINUOUS
 10
-4.8
 20
65.4974045895
 11
-4.0
 21
65.4948091789
  0
LINE
  5
6EB
100
AcDbEntity
  8
0
100
AcDbLine
 62
7
  6
CONTINUOUS
 10
16.4013967299
 20
66.8230763589
 11
16.444654316
 21
66.822817441
  0
LINE
  5
6EC
100
AcDbEntity
  8
0
100
AcDbLine
 62
7
  6
CONTINUOUS
 10
-16.401450177
 20
66.8230763549
 11
-16.3510928035
 21
66.8227339404
  0
LINE
  5
6ED
100
AcDbEntity
  8
0
100
AcDbLine
 62
7
  6
CONTINUOUS
 10
16.444654316
 20
66.822817441
 11
16.5
 21
66.8221346686
  0
LWPOLYLINE
  5
6EE
100
AcDbEntity
  8
0
100
AcDbPolyline
 62
7
  6
CONTINUOUS
 90
3
 70
0
 10
-16.3510928035
 20
66.8227339404
 10
-16.2560749796
 20
66.8203548873
 10
-16.1595953474
 20
66.8158703365
  0
LWPOLYLINE
  5
6EF
100
AcDbEntity
  8
0
100
AcDbPolyline
 62
7
  6
CONTINUOUS
 90
24
 70
0
 10
16.5
 20
66.8221346686
 10
16.6029797927
 20
66.8178292972
 10
16.7063065879
 20
66.807465083
 10
16.809613285
 20
66.7909373261
 10
16.9125888652
 20
66.7681364081
 10
17.0147653144
 20
66.7390217515
 10
17.1155369041
 20
66.7036648537
 10
17.2143420724
 20
66.6621659018
 10
17.3109561297
 20
66.6145265053
 10
17.4052685687
 20
66.5606908702
 10
17.4962773462
 20
66.5011045037
 10
17.5841739192
 20
66.4355284453
 10
17.6703453434
 20
66.3625052045
 10
17.7548628935
 20
66.2809841221
 10
17.8359790893
 20
66.1915747853
 10
17.9121931444
 20
66.095190808
 10
17.9831044487
 20
65.9915484384
 10
18.0476235395
 20
65.8812772359
 10
18.1039013049
 20
65.7672133902
 10
18.1515642324
 20
65.6506026946
 10
18.1907892959
 20
65.5314558006
 10
18.2212910264
 20
65.4111211128
 10
18.243141168
 20
65.2904900206
 10
18.2467914609
 20
65.2577771495
  0
LWPOLYLINE
  5
6F0
100
AcDbEntity
  8
DRAFT
100
AcDbPolyline
 62
7
  6
CONTINUOUS
 90
7
 70
0
 10
-16.0529947577
 20
67.963713503
 10
-16.0169407546
 20
67.9616087748
 10
-15.9722750016
 20
67.9595931273
 10
-15.9189974989
 20
67.9576665607
 10
-15.8565188572
 20
67.9558197168
 10
-15.7854284657
 20
67.9540619536
 10
-15.6226426995
 20
67.9509013726
  0
LWPOLYLINE
  5
6F1
100
AcDbEntity
  8
RACCORDO
100
AcDbPolyline
 62
250
  6
CONTINUOUS
 90
7
 70
0
 10
-4.3595859596
 20
67.9876557014
 10
-4.3315032237
 20
67.985746442
 10
-4.2934044054
 20
67.983873476
 10
-4.2452895047
 20
67.9820368033
 10
-4.1868284942
 20
67.9802180102
 10
-4.1183514013
 20
67.9784355105
 10
-3.9539183518
 20
67.9751476167
  0
LINE
  5
6F2
100
AcDbEntity
  8
RACCORDO
100
AcDbLine
 62
7
  6
CONTINUOUS
 10
-16.1931783304
 20
67.9738590992
 11
-16.0529947577
 21
67.963713503
  0
LINE
  5
6F3
100
AcDbEntity
  8
RACCORDO
100
AcDbLine
 62
7
  6
CONTINUOUS
 10
-16.3276109862
 20
67.9842439618
 11
-16.1931783304
 21
67.9738590992
  0
LINE
  5
6F4
100
AcDbEntity
  8
RACCORDO
100
AcDbLine
 62
250
  6
CONTINUOUS
 10
-4.4487198486
 20
67.9948548704
 11
-4.3595859596
 21
67.9876557014
  0
LINE
  5
6F5
100
AcDbEntity
  8
RACCORDO
100
AcDbLine
 62
7
  6
CONTINUOUS
 10
-16.457454531
 20
67.9948548704
 11
-16.3276109862
 21
67.9842439618
  0
LWPOLYLINE
  5
6F6
100
AcDbEntity
  8
RACCORDO
100
AcDbPolyline
 62
7
  6
CONTINUOUS
 90
10
 70
0
 10
-16.457454531
 20
67.9948548704
 10
-16.458034392
 20
67.9949204458
 10
-16.4585532494
 20
67.9950144707
 10
-16.459011103
 20
67.9951367362
 10
-16.4594075316
 20
67.9952870073
 10
-16.4597429564
 20
67.9954650868
 10
-16.460018642
 20
67.9956708552
 10
-16.4602350097
 20
67.9959041678
 10
-16.4603916382
 20
67.9961648144
 10
-16.4604885275
 20
67.9964526103
  0
LINE
  5
6F7
100
AcDbEntity
  8
RACCORDO
100
AcDbLine
 62
250
  6
CONTINUOUS
 10
-3.3002217052
 20
68.274905079
 11
-2.9901669641
 21
68.2385911432
  0
LINE
  5
6F8
100
AcDbEntity
  8
RACCORDO
100
AcDbLine
 62
250
  6
CONTINUOUS
 10
-3.3990993211
 20
68.2874078702
 11
-3.3002217052
 21
68.274905079
  0
LWPOLYLINE
  5
6F9
100
AcDbEntity
  8
0
100
AcDbPolyline
 62
250
  6
CONTINUOUS
 90
10
 70
0
 10
18.3
 20
64.055144004
 10
18.3729032343
 20
64.041714911
 10
18.4694556913
 20
64.0218122119
 10
18.5565864491
 20
64.001533179
 10
18.6340722417
 20
63.98092983
 10
18.7017148621
 20
63.9600549291
 10
18.7593414679
 20
63.9389618465
 10
18.806804467
 20
63.9177045926
 10
18.8439820986
 20
63.8963376852
 10
18.8707790875
 20
63.8749158801
  0
LINE
  5
6FA
100
AcDbEntity
  8
RACCORDO
100
AcDbLine
 62
250
  6
CONTINUOUS
 10
-4.1856058473
 20
68.4281322485
 11
-4.0909497713
 21
68.4089833106
  0
LWPOLYLINE
  5
6FB
100
AcDbEntity
  8
RACCORDO
100
AcDbPolyline
 62
250
  6
CONTINUOUS
 90
11
 70
0
 10
-4.090950186
 20
68.4089832601
 10
-4.0659627546
 20
68.4006505912
 10
-4.0331174076
 20
68.3918608509
 10
-3.9922751519
 20
68.3825151547
 10
-3.9431545824
 20
68.3722206117
 10
-3.8859035644
 20
68.3610943889
 10
-3.8211885541
 20
68.349749498
 10
-3.74912085
 20
68.3378789262
 10
-3.6699927175
 20
68.3253388725
 10
-3.5849885585
 20
68.3129394459
 10
-3.3990993211
 20
68.2874078702
  0
LINE
  5
6FC
100
AcDbEntity
  8
RACCORDO
100
AcDbLine
 62
250
  6
CONTINUOUS
 10
5.5499648497
 20
70.5121708671
 11
5.3221611039
 21
70.6226383373
  0
LINE
  5
6FD
100
AcDbEntity
  8
RACCORDO
100
AcDbLine
 62
7
  6
CONTINUOUS
 10
10.6446518088
 20
67.9276961318
 11
10.5102933954
 21
67.9948548704
  0
LINE
  5
6FE
100
AcDbEntity
  8
RACCORDO
100
AcDbLine
 62
250
  6
CONTINUOUS
 10
4.1856088595
 20
68.4281307093
 11
4.4487217425
 21
68.2948091789
  0
LINE
  5
6FF
100
AcDbEntity
  8
RACCORDO
100
AcDbLine
 62
250
  6
CONTINUOUS
 10
5.1177629165
 20
70.5830641505
 11
5.0147159251
 21
70.5622151421
  0
LINE
  5
700
100
AcDbEntity
  8
RACCORDO
100
AcDbLine
 62
250
  6
CONTINUOUS
 10
5.2202768158
 20
70.6032028766
 11
5.1177629165
 21
70.5830641505
  0
LINE
  5
701
100
AcDbEntity
  8
RACCORDO
100
AcDbLine
 62
250
  6
CONTINUOUS
 10
5.3221770072
 20
70.6226313204
 11
5.2202768158
 21
70.6032028766
  0
LINE
  5
702
100
AcDbEntity
  8
RACCORDO
100
AcDbLine
 62
7
  6
CONTINUOUS
 10
-15.4204131443
 20
69.7703154229
 11
-5.5666713344
 21
70.8117053282
  0
LWPOLYLINE
  5
703
100
AcDbEntity
  8
RACCORDO
100
AcDbPolyline
 62
7
  6
CONTINUOUS
 90
7
 70
0
 10
5.523142214
 20
70.8109694089
 10
5.1905314432
 20
70.7820734407
 10
5.0950499428
 20
70.7754696446
 10
4.9878026041
 20
70.7699590821
 10
4.8696200006
 20
70.765670361
 10
4.7414460054
 20
70.7626606596
 10
4.6040019432
 20
70.7610182652
  0
LWPOLYLINE
  5
704
100
AcDbEntity
  8
RACCORDO
100
AcDbPolyline
 62
250
  6
CONTINUOUS
 90
5
 70
0
 10
4.1862385816
 20
67.9802005259
 10
4.2448389787
 20
67.9820212027
 10
4.2931057332
 20
67.983861669
 10
4.3313549223
 20
67.9857398541
 10
4.3595865462
 20
67.9876557579
  0
LINE
  5
705
100
AcDbEntity
  8
RACCORDO
100
AcDbLine
 62
250
  6
CONTINUOUS
 10
-2.9901484665
 20
68.2385623403
 11
-2.615163256
 21
68.2495790507
  0
LINE
  5
706
100
AcDbEntity
  8
RACCORDO
100
AcDbLine
 62
250
  6
CONTINUOUS
 10
-2.615163256
 20
68.2495790507
 11
-2.0006336411
 21
68.2642049331
  0
LINE
  5
707
100
AcDbEntity
  8
RACCORDO
100
AcDbLine
 62
250
  6
CONTINUOUS
 10
4.0399333234
 20
67.9767261166
 11
4.1862385816
 21
67.9802005259
  0
LINE
  5
708
100
AcDbEntity
  8
DRAFT
100
AcDbLine
 62
7
  6
CONTINUOUS
 10
15.7094720204
 20
67.9524604387
 11
15.8574035974
 21
67.9558424144
  0
LINE
  5
709
100
AcDbEntity
  8
RACCORDO
100
AcDbLine
 62
250
  6
CONTINUOUS
 10
-2.0006336411
 20
68.2642049331
 11
-1.5618231532
 21
68.2721960701
  0
LINE
  5
70A
100
AcDbEntity
  8
RACCORDO
100
AcDbLine
 62
250
  6
CONTINUOUS
 10
3.8564407621
 20
67.9736208789
 11
4.0399333234
 21
67.9767261166
  0
LINE
  5
70B
100
AcDbEntity
  8
DRAFT
100
AcDbLine
 62
7
  6
CONTINUOUS
 10
15.5338515276
 20
67.9495384941
 11
15.7094720204
 21
67.9524604387
  0
LINE
  5
70C
100
AcDbEntity
  8
RACCORDO
100
AcDbLine
 62
250
  6
CONTINUOUS
 10
-3.1093523319
 20
70.4649163733
 11
-4.3983656067
 21
70.4452832908
  0
LINE
  5
70D
100
AcDbEntity
  8
RACCORDO
100
AcDbLine
 62
250
  6
CONTINUOUS
 10
-1.5618231532
 20
68.2721960701
 11
-1.1047350408
 21
68.2784154913
  0
LINE
  5
70E
100
AcDbEntity
  8
DRAFT
100
AcDbLine
 62
7
  6
CONTINUOUS
 10
15.2294677955
 20
67.9461261792
 11
15.5338515276
 21
67.9495384941
  0
LINE
  5
70F
100
AcDbEntity
  8
RACCORDO
100
AcDbLine
 62
250
  6
CONTINUOUS
 10
3.5264797177
 20
67.9699551961
 11
3.8564407621
 21
67.9736208789
  0
LINE
  5
710
100
AcDbEntity
  8
RACCORDO
100
AcDbLine
 62
250
  6
CONTINUOUS
 10
-1.7488856867
 20
70.4793004386
 11
-3.1093523319
 21
70.4649163733
  0
LINE
  5
711
100
AcDbEntity
  8
RACCORDO
100
AcDbLine
 62
250
  6
CONTINUOUS
 10
-1.1047350408
 20
68.2784154913
 11
-0.6348678975
 21
68.282558967
  0
LINE
  5
712
100
AcDbEntity
  8
DRAFT
100
AcDbLine
 62
7
  6
CONTINUOUS
 10
13.7900914235
 20
67.9378128432
 11
15.2294677955
 21
67.9461261792
  0
LINE
  5
713
100
AcDbEntity
  8
RACCORDO
100
AcDbLine
 62
250
  6
CONTINUOUS
 10
-0.9818507001
 20
70.4829997591
 11
-1.7488856867
 21
70.4793004386
  0
LWPOLYLINE
  5
714
100
AcDbEntity
  8
RACCORDO
100
AcDbPolyline
 62
250
  6
CONTINUOUS
 90
3
 70
0
 10
3.0265947173
 20
67.9673940156
 10
3.1566570319
 20
67.9677729681
 10
3.5264797177
 20
67.9699551961
  0
LINE
  5
715
100
AcDbEntity
  8
RACCORDO
100
AcDbLine
 62
250
  6
CONTINUOUS
 10
-0.6348678975
 20
68.282558967
 11
-0.1576539894
 21
68.2844679127
  0
LINE
  5
716
100
AcDbEntity
  8
DRAFT
100
AcDbLine
 62
7
  6
CONTINUOUS
 10
10.6446518088
 20
67.9276961318
 11
13.7900914235
 21
67.9378128432
  0
LINE
  5
717
100
AcDbEntity
  8
RACCORDO
100
AcDbLine
 62
7
  6
CONTINUOUS
 10
0.6660197104
 20
67.964225426
 11
3.0265947173
 21
67.9673940156
  0
LINE
  5
718
100
AcDbEntity
  8
DRAFT
100
AcDbLine
 62
7
  6
CONTINUOUS
 10
3.0266102332
 20
67.9187759596
 11
9.3501335989
 21
67.92508963
  0
LINE
  5
719
100
AcDbEntity
  8
RACCORDO
100
AcDbLine
 62
250
  6
CONTINUOUS
 10
-16.457454531
 20
67.9948548704
 11
-10.5102933954
 21
67.9948548704
  0
LINE
  5
71A
100
AcDbEntity
  8
RACCORDO
100
AcDbLine
 62
250
  6
CONTINUOUS
 10
-9.4897066046
 20
67.9948548704
 11
-4.4487198486
 21
67.9948548704
  0
LINE
  5
71B
100
AcDbEntity
  8
RACCORDO
100
AcDbLine
 62
250
  6
CONTINUOUS
 10
4.448719772
 20
67.9948548704
 11
9.4897066046
 21
67.9948548704
  0
LINE
  5
71C
100
AcDbEntity
  8
RACCORDO
100
AcDbLine
 62
250
  6
CONTINUOUS
 10
10.5102933954
 20
67.9948548704
 11
16.457454531
 21
67.9948548704
  0
LINE
  5
71D
100
AcDbEntity
  8
RACCORDO
100
AcDbLine
 62
250
  6
CONTINUOUS
 10
-16.5267142301
 20
68.2948091789
 11
-10.306862245
 21
68.2948091789
  0
LINE
  5
71E
100
AcDbEntity
  8
RACCORDO
100
AcDbLine
 62
250
  6
CONTINUOUS
 10
-9.693137755
 20
68.2948091789
 11
-4.4487219093
 21
68.2948091789
  0
LINE
  5
71F
100
AcDbEntity
  8
RACCORDO
100
AcDbLine
 62
250
  6
CONTINUOUS
 10
4.4487217268
 20
68.2948091789
 11
9.693137755
 21
68.2948091789
  0
LINE
  5
720
100
AcDbEntity
  8
RACCORDO
100
AcDbLine
 62
250
  6
CONTINUOUS
 10
10.306862245
 20
68.2948091789
 11
16.5267142301
 21
68.2948091789
  0
LINE
  5
721
100
AcDbEntity
  8
RACCORDO
100
AcDbLine
 62
250
  6
CONTINUOUS
 10
-0.6661415843
 20
67.9642249755
 11
0.6660197104
 21
67.964225426
  0
LINE
  5
722
100
AcDbEntity
  8
RACCORDO
100
AcDbLine
 62
7
  6
CONTINUOUS
 10
-0.6646237762
 20
70.7637958113
 11
-4.5173128071
 21
70.7607360717
  0
LINE
  5
723
100
AcDbEntity
  8
RACCORDO
100
AcDbLine
 62
7
  6
CONTINUOUS
 10
4.6040019432
 20
70.7610182652
 11
3.7337471556
 21
70.7612186711
  0
LWPOLYLINE
  5
724
100
AcDbEntity
  8
DRAFT
100
AcDbPolyline
 62
7
  6
CONTINUOUS
 90
3
 70
0
 10
-9.3501336181
 20
67.9250896396
 10
-7.384056164
 20
67.9223193717
 10
3.0266102332
 20
67.9187759596
  0
LWPOLYLINE
  5
725
100
AcDbEntity
  8
RACCORDO
100
AcDbPolyline
 62
7
  6
CONTINUOUS
 90
3
 70
0
 10
3.7337471556
 20
70.7612186711
 10
2.6851427366
 20
70.7628738845
 10
-0.6646237762
 20
70.7637958113
  0
LINE
  5
726
100
AcDbEntity
  8
RACCORDO
100
AcDbLine
 62
7
  6
CONTINUOUS
 10
-3.0265940638
 20
67.9673939763
 11
-0.6661415843
 21
67.9642249755
  0
LINE
  5
727
100
AcDbEntity
  8
RACCORDO
100
AcDbLine
 62
250
  6
CONTINUOUS
 10
-0.1576539894
 20
68.2844679127
 11
0.3229809509
 21
68.2840758777
  0
LINE
  5
728
100
AcDbEntity
  8
RACCORDO
100
AcDbLine
 62
250
  6
CONTINUOUS
 10
1.0175858887
 20
70.4829016726
 11
-0.9818507001
 21
70.4829997591
  0
LWPOLYLINE
  5
729
100
AcDbEntity
  8
RACCORDO
100
AcDbPolyline
 62
7
  6
CONTINUOUS
 90
8
 70
0
 10
-4.5173085811
 20
70.76073404
 10
-4.5842817425
 20
70.7609052531
 10
-4.7223526447
 20
70.762343048
 10
-4.851530148
 20
70.7651509785
 10
-4.9710590058
 20
70.7692478434
 10
-5.0799759288
 20
70.7745870759
 10
-5.1774163162
 20
70.781054249
 10
-5.2225583936
 20
70.7847427836
  0
LINE
  5
72A
100
AcDbEntity
  8
RACCORDO
100
AcDbLine
 62
7
  6
CONTINUOUS
 10
1.7963354705
 20
70.7642412342
 11
1.7963712987
 21
70.7642410687
  0
LINE
  5
72B
100
AcDbEntity
  8
DRAFT
100
AcDbLine
 62
7
  6
CONTINUOUS
 10
-14.6939543247
 20
67.9425773046
 11
-10.644651798
 21
67.9276961372
  0
LINE
  5
72C
100
AcDbEntity
  8
RACCORDO
100
AcDbLine
 62
250
  6
CONTINUOUS
 10
-3.4079979015
 20
67.9690611323
 11
-3.0265940638
 21
67.9673939763
  0
LINE
  5
72D
100
AcDbEntity
  8
RACCORDO
100
AcDbLine
 62
250
  6
CONTINUOUS
 10
1.7488877108
 20
70.479300545
 11
1.0175858887
 21
70.4829016726
  0
LINE
  5
72E
100
AcDbEntity
  8
RACCORDO
100
AcDbLine
 62
250
  6
CONTINUOUS
 10
0.3229809509
 20
68.2840758777
 11
0.8015532663
 21
68.2813369789
  0
LINE
  5
72F
100
AcDbEntity
  8
DRAFT
100
AcDbLine
 62
7
  6
CONTINUOUS
 10
-15.3336620967
 20
67.9471031754
 11
-14.6939543247
 21
67.9425773046
  0
LINE
  5
730
100
AcDbEntity
  8
RACCORDO
100
AcDbLine
 62
250
  6
CONTINUOUS
 10
-3.7551731051
 20
67.9722761031
 11
-3.4079979015
 21
67.9690611323
  0
LINE
  5
731
100
AcDbEntity
  8
RACCORDO
100
AcDbLine
 62
250
  6
CONTINUOUS
 10
0.8015532663
 20
68.2813369789
 11
1.2725457225
 21
68.2763871209
  0
LINE
  5
732
100
AcDbEntity
  8
RACCORDO
100
AcDbLine
 62
250
  6
CONTINUOUS
 10
3.1090784591
 20
70.4649195878
 11
1.7488877108
 21
70.479300545
  0
LINE
  5
733
100
AcDbEntity
  8
DRAFT
100
AcDbLine
 62
7
  6
CONTINUOUS
 10
-15.6226426995
 20
67.9509013726
 11
-15.3336620967
 21
67.9471031754
  0
LINE
  5
734
100
AcDbEntity
  8
RACCORDO
100
AcDbLine
 62
250
  6
CONTINUOUS
 10
-3.9539183518
 20
67.9751476167
 11
-3.7551731051
 21
67.9722761031
  0
LINE
  5
735
100
AcDbEntity
  8
RACCORDO
100
AcDbLine
 62
250
  6
CONTINUOUS
 10
1.2725457225
 20
68.2763871209
 11
1.7320877962
 21
68.2693458542
  0
LINE
  5
736
100
AcDbEntity
  8
RACCORDO
100
AcDbLine
 62
250
  6
CONTINUOUS
 10
4.3983250159
 20
70.4452839436
 11
3.1090784591
 21
70.4649195878
  0
LINE
  5
737
100
AcDbEntity
  8
RACCORDO
100
AcDbLine
 62
250
  6
CONTINUOUS
 10
1.7320877962
 20
68.2693458542
 11
2.1748017419
 21
68.2604333678
  0
LINE
  5
738
100
AcDbEntity
  8
RACCORDO
100
AcDbLine
 62
250
  6
CONTINUOUS
 10
2.1748017419
 20
68.2604333678
 11
2.5947209472
 21
68.2501283144
  0
LINE
  5
739
100
AcDbEntity
  8
RACCORDO
100
AcDbLine
 62
250
  6
CONTINUOUS
 10
2.5947209472
 20
68.2501283144
 11
2.9900978305
 21
68.2385637708
  0
LINE
  5
73A
100
AcDbEntity
  8
RACCORDO
100
AcDbLine
 62
7
  6
CONTINUOUS
 10
-5.2231370645
 20
70.7847770331
 11
-5.5239840851
 21
70.8110405843
  0
LINE
  5
73B
100
AcDbEntity
  8
RACCORDO
100
AcDbLine
 62
7
  6
CONTINUOUS
 10
5.5666701799
 20
70.8117053926
 11
15.4204131443
 21
69.7703154229
  0
LWPOLYLINE
  5
73C
100
AcDbEntity
  8
RACCORDO
100
AcDbPolyline
 62
250
  6
CONTINUOUS
 90
7
 70
0
 10
-4.3983852017
 20
70.4453127548
 10
-4.5135983769
 20
70.4619880523
 10
-4.6249402877
 20
70.4792467603
 10
-4.7315304718
 20
70.4974864896
 10
-4.8325304249
 20
70.5171139753
 10
-4.9271588696
 20
70.538546617
 10
-5.0147050443
 20
70.5622110834
  0
LINE
  5
73D
100
AcDbEntity
  8
RACCORDO
100
AcDbLine
 62
250
  6
CONTINUOUS
 10
-5.2202772694
 20
70.6032029758
 11
-5.3221771697
 21
70.6226313271
  0
LINE
  5
73E
100
AcDbEntity
  8
RACCORDO
100
AcDbLine
 62
250
  6
CONTINUOUS
 10
-5.1177600266
 20
70.5830635599
 11
-5.2202772694
 21
70.6032029758
  0
LINE
  5
73F
100
AcDbEntity
  8
RACCORDO
100
AcDbLine
 62
250
  6
CONTINUOUS
 10
-5.0147060559
 20
70.5622130794
 11
-5.1177600266
 21
70.5830635599
  0
LWPOLYLINE
  5
740
100
AcDbEntity
  8
DRAFT
100
AcDbPolyline
 62
250
  6
CONTINUOUS
 90
19
 70
0
 10
16.0529993386
 20
67.9637138228
 10
16.3236485336
 20
67.8502960603
 10
16.58607641
 20
67.7189736488
 10
16.8390992011
 20
67.5703388052
 10
17.0815780426
 20
67.4050590092
 10
17.3124163247
 20
67.22388252
 10
17.5305666795
 20
67.0276365963
 10
17.7350432721
 20
66.8172127799
 10
17.9249305709
 20
66.5935574646
 10
18.0993801426
 20
66.3576758899
 10
18.2576082583
 20
66.11062839
 10
18.3989009898
 20
65.8535327326
 10
18.5226244078
 20
65.5875540825
 10
18.628226215
 20
65.3138853509
 10
18.7152293762
 20
65.0337661951
 10
18.783241236
 20
64.7484843414
 10
18.8319624999
 20
64.4593344945
 10
18.8611830023
 20
64.1676112672
 10
18.8707788685
 20
63.8746283631
  0
ARC
  5
741
100
AcDbEntity
  8
RACCORDO
100
AcDbCircle
 62
7
  6
CONTINUOUS
 10
-14.5
 20
-63.8749158815
 40
5.9668162456
100
AcDbArc
 50
180.0
 51
261.1263902297
  0
ARC
  5
742
100
AcDbEntity
  8
RACCORDO
100
AcDbCircle
 62
250
  6
CONTINUOUS
 10
-14.5
 20
-63.8749158815
 40
5.6668156752
100
AcDbArc
 50
180.0
 51
261.1263902297
  0
ARC
  5
743
100
AcDbEntity
  8
RACCORDO
100
AcDbCircle
 62
250
  6
CONTINUOUS
 10
-14.5
 20
-63.8749158815
 40
4.8624096219
100
AcDbArc
 50
180.0
 51
245.366475279
  0
ARC
  5
744
100
AcDbEntity
  8
RACCORDO
100
AcDbCircle
 62
250
  6
CONTINUOUS
 10
-14.5
 20
-63.8749158815
 40
4.5640530533
100
AcDbArc
 50
180.0
 51
244.5610010117
  0
CIRCLE
  5
745
100
AcDbEntity
  8
ASSI
100
AcDbCircle
 62
7
  6
CONTINUOUS
 10
-10.0
 20
-57.5
 40
3.25
  0
CIRCLE
  5
746
100
AcDbEntity
  8
0
100
AcDbCircle
 62
7
  6
CONTINUOUS
 10
-10.0
 20
-57.5
 40
2.35
  0
ARC
  5
747
100
AcDbEntity
  8
DRAFT
100
AcDbCircle
 62
7
  6
CONTINUOUS
 10
-10.0
 20
-57.5
 40
2.2840347844
100
AcDbArc
 50
282.645070138
 51
347.354929862
  0
ARC
  5
748
100
AcDbEntity
  8
DRAFT
100
AcDbCircle
 62
7
  6
CONTINUOUS
 10
-10.0
 20
-57.5
 40
2.2840347844
100
AcDbArc
 50
12.645070138
 51
53.7426920557
  0
ARC
  5
749
100
AcDbEntity
  8
DRAFT
100
AcDbCircle
 62
7
  6
CONTINUOUS
 10
-10.0
 20
-57.5
 40
2.2840347844
100
AcDbArc
 50
126.2573079443
 51
167.354929862
  0
ARC
  5
74A
100
AcDbEntity
  8
DRAFT
100
AcDbCircle
 62
7
  6
CONTINUOUS
 10
-10.0
 20
-57.5
 40
2.2840347844
100
AcDbArc
 50
192.645070138
 51
257.354929862
  0
CIRCLE
  5
74B
100
AcDbEntity
  8
DRAFT
100
AcDbCircle
 62
7
  6
CONTINUOUS
 10
-10.0
 20
-57.5
 40
2.25
  0
CIRCLE
  5
74C
100
AcDbEntity
  8
0
100
AcDbCircle
 62
7
  6
CONTINUOUS
 10
-10.0
 20
-57.5
 40
1.5
  0
CIRCLE
  5
74D
100
AcDbEntity
  8
0
100
AcDbCircle
 62
7
  6
CONTINUOUS
 10
-10.0
 20
-57.5
 40
0.8123247752
  0
ARC
  5
74E
100
AcDbEntity
  8
DRAFT
100
AcDbCircle
 62
7
  6
CONTINUOUS
 10
-17.25
 20
-18.0
 40
0.5942573506
100
AcDbArc
 50
318.3815368884
 51
41.6184631116
  0
ARC
  5
74F
100
AcDbEntity
  8
DRAFT
100
AcDbCircle
 62
7
  6
CONTINUOUS
 10
-17.25
 20
-54.5
 40
0.5872753246
100
AcDbArc
 50
318.1233091309
 51
41.8766908691
  0
ARC
  5
750
100
AcDbEntity
  8
RACCORDO
100
AcDbCircle
 62
250
  6
CONTINUOUS
 10
-19.0
 20
-40.0
 40
0.506740378
100
AcDbArc
 50
270.0
 51
90.0
  0
ARC
  5
751
100
AcDbEntity
  8
RACCORDO
100
AcDbCircle
 62
250
  6
CONTINUOUS
 10
-10.0
 20
-67.5
 40
0.506740378
100
AcDbArc
 50
0.0
 51
180.0
  0
ARC
  5
752
100
AcDbEntity
  8
RACCORDO
100
AcDbCircle
 62
250
  6
CONTINUOUS
 10
-17.25
 20
-54.5
 40
0.5034300864
100
AcDbArc
 50
314.5912276839
 51
45.4087723161
  0
ARC
  5
753
100
AcDbEntity
  8
RACCORDO
100
AcDbCircle
 62
250
  6
CONTINUOUS
 10
-17.25
 20
-18.0
 40
0.5034300864
100
AcDbArc
 50
314.5912276839
 51
45.4087723161
  0
ARC
  5
754
100
AcDbEntity
  8
0
100
AcDbCircle
 62
7
  6
CONTINUOUS
 10
-12.4801692235
 20
-63.9031952722
 40
0.373941158
100
AcDbArc
 50
111.9128959458
 51
270.0
  0
ARC
  5
755
100
AcDbEntity
  8
RACCORDO
100
AcDbCircle
 62
250
  6
CONTINUOUS
 10
-19.0
 20
-40.0
 40
0.306850815
100
AcDbArc
 50
270.0
 51
90.0
  0
ARC
  5
756
100
AcDbEntity
  8
RACCORDO
100
AcDbCircle
 62
250
  6
CONTINUOUS
 10
-10.0
 20
-67.5
 40
0.3068508077
100
AcDbArc
 50
0.0
 51
180.0
  0
ARC
  5
757
100
AcDbEntity
  8
RACCORDO
100
AcDbCircle
 62
7
  6
CONTINUOUS
 10
-5.5499646262
 20
-70.512170886
 40
0.3
100
AcDbArc
 50
266.8078229978
 51
275.1295530169
  0
ARC
  5
758
100
AcDbEntity
  8
0
100
AcDbCircle
 62
7
  6
CONTINUOUS
 10
-12.4359269778
 20
-63.9031952722
 40
0.1599345
100
AcDbArc
 50
90.0
 51
270.0
  0
ARC
  5
759
100
AcDbEntity
  8
RACCORDO
100
AcDbCircle
 62
7
  6
CONTINUOUS
 10
-14.5
 20
63.8749158815
 40
5.9668162456
100
AcDbArc
 50
98.8736097703
 51
180.0
  0
ARC
  5
75A
100
AcDbEntity
  8
RACCORDO
100
AcDbCircle
 62
250
  6
CONTINUOUS
 10
-14.5
 20
63.8749158815
 40
5.6668156816
100
AcDbArc
 50
98.8736097703
 51
180.0
  0
ARC
  5
75B
100
AcDbEntity
  8
RACCORDO
100
AcDbCircle
 62
250
  6
CONTINUOUS
 10
-14.5
 20
63.8749158815
 40
4.8624096219
100
AcDbArc
 50
114.633524721
 51
180.0
  0
ARC
  5
75C
100
AcDbEntity
  8
RACCORDO
100
AcDbCircle
 62
250
  6
CONTINUOUS
 10
-14.5
 20
63.8749158815
 40
4.5640530533
100
AcDbArc
 50
115.4389989882
 51
180.0
  0
CIRCLE
  5
75D
100
AcDbEntity
  8
ASSI
100
AcDbCircle
 62
7
  6
CONTINUOUS
 10
-10.0
 20
57.5
 40
3.25
  0
CIRCLE
  5
75E
100
AcDbEntity
  8
0
100
AcDbCircle
 62
7
  6
CONTINUOUS
 10
-10.0
 20
57.5
 40
2.35
  0
ARC
  5
75F
100
AcDbEntity
  8
DRAFT
100
AcDbCircle
 62
7
  6
CONTINUOUS
 10
-10.0
 20
57.5
 40
2.2840347844
100
AcDbArc
 50
306.2573079443
 51
347.354929862
  0
ARC
  5
760
100
AcDbEntity
  8
DRAFT
100
AcDbCircle
 62
7
  6
CONTINUOUS
 10
-10.0
 20
57.5
 40
2.2840347844
100
AcDbArc
 50
12.645070138
 51
77.354929862
  0
ARC
  5
761
100
AcDbEntity
  8
DRAFT
100
AcDbCircle
 62
7
  6
CONTINUOUS
 10
-10.0
 20
57.5
 40
2.2840347844
100
AcDbArc
 50
102.645070138
 51
167.354929862
  0
ARC
  5
762
100
AcDbEntity
  8
DRAFT
100
AcDbCircle
 62
7
  6
CONTINUOUS
 10
-10.0
 20
57.5
 40
2.2840347844
100
AcDbArc
 50
192.645070138
 51
233.7426920557
  0
CIRCLE
  5
763
100
AcDbEntity
  8
DRAFT
100
AcDbCircle
 62
7
  6
CONTINUOUS
 10
-10.0
 20
57.5
 40
2.25
  0
CIRCLE
  5
764
100
AcDbEntity
  8
0
100
AcDbCircle
 62
7
  6
CONTINUOUS
 10
-10.0
 20
57.5
 40
1.5
  0
CIRCLE
  5
765
100
AcDbEntity
  8
0
100
AcDbCircle
 62
7
  6
CONTINUOUS
 10
-10.0
 20
57.5
 40
0.8123247752
  0
ARC
  5
766
100
AcDbEntity
  8
DRAFT
100
AcDbCircle
 62
7
  6
CONTINUOUS
 10
-17.25
 20
18.0
 40
0.5942573506
100
AcDbArc
 50
318.3815368884
 51
41.6184631116
  0
ARC
  5
767
100
AcDbEntity
  8
DRAFT
100
AcDbCircle
 62
7
  6
CONTINUOUS
 10
-17.25
 20
54.5
 40
0.5872753246
100
AcDbArc
 50
318.1233091309
 51
41.8766908691
  0
ARC
  5
768
100
AcDbEntity
  8
0
100
AcDbCircle
 62
7
  6
CONTINUOUS
 10
-0.017958
 20
59.177276
 40
0.5282129808
100
AcDbArc
 50
186.08897541
 51
252.6039438981
  0
ARC
  5
769
100
AcDbEntity
  8
RACCORDO
100
AcDbCircle
 62
250
  6
CONTINUOUS
 10
-19.0
 20
40.0
 40
0.506740378
100
AcDbArc
 50
270.0
 51
90.0
  0
ARC
  5
76A
100
AcDbEntity
  8
RACCORDO
100
AcDbCircle
 62
250
  6
CONTINUOUS
 10
-19.0
 20
0.0
 40
0.5067403779
100
AcDbArc
 50
270.0
 51
90.0
  0
ARC
  5
76B
100
AcDbEntity
  8
RACCORDO
100
AcDbCircle
 62
250
  6
CONTINUOUS
 10
-10.0
 20
67.5
 40
0.506740378
100
AcDbArc
 50
180.0
 51
360.0
  0
ARC
  5
76C
100
AcDbEntity
  8
RACCORDO
100
AcDbCircle
 62
250
  6
CONTINUOUS
 10
-17.25
 20
18.0
 40
0.5034300864
100
AcDbArc
 50
314.5912276839
 51
45.4087723161
  0
ARC
  5
76D
100
AcDbEntity
  8
RACCORDO
100
AcDbCircle
 62
250
  6
CONTINUOUS
 10
-17.25
 20
54.5
 40
0.5034300864
100
AcDbArc
 50
314.5912276839
 51
45.4087723161
  0
ARC
  5
76E
100
AcDbEntity
  8
0
100
AcDbCircle
 62
7
  6
CONTINUOUS
 10
-2.563826
 20
59.155444
 40
0.4950078928
100
AcDbArc
 50
171.4768063568
 51
256.9487106122
  0
ARC
  5
76F
100
AcDbEntity
  8
0
100
AcDbCircle
 62
7
  6
CONTINUOUS
 10
-1.458836
 20
60.70733
 40
0.4083431305
100
AcDbArc
 50
69.2440448115
 51
142.7057081635
  0
ARC
  5
770
100
AcDbEntity
  8
0
100
AcDbCircle
 62
7
  6
CONTINUOUS
 10
-1.898804
 20
59.285058
 40
0.3286007386
100
AcDbArc
 50
185.7437138265
 51
275.4688692209
  0
ARC
  5
771
100
AcDbEntity
  8
RACCORDO
100
AcDbCircle
 62
250
  6
CONTINUOUS
 10
-19.0
 20
40.0
 40
0.306850815
100
AcDbArc
 50
270.0
 51
90.0
  0
ARC
  5
772
100
AcDbEntity
  8
RACCORDO
100
AcDbCircle
 62
250
  6
CONTINUOUS
 10
-10.0
 20
67.5
 40
0.3068508077
100
AcDbArc
 50
180.0
 51
360.0
  0
ARC
  5
773
100
AcDbEntity
  8
RACCORDO
100
AcDbCircle
 62
250
  6
CONTINUOUS
 10
-19.0
 20
0.0
 40
0.3068507983
100
AcDbArc
 50
270.0
 51
90.0
  0
ARC
  5
774
100
AcDbEntity
  8
RACCORDO
100
AcDbCircle
 62
7
  6
CONTINUOUS
 10
-5.5499657765
 20
70.5121708082
 40
0.3
100
AcDbArc
 50
84.8702207153
 51
93.192177657
  0
ARC
  5
775
100
AcDbEntity
  8
RACCORDO
100
AcDbCircle
 62
250
  6
CONTINUOUS
 10
-0.0
 20
-29.0
 40
99.6667423157
100
AcDbArc
 50
93.1921775251
 51
98.8736097703
  0
ARC
  5
776
100
AcDbEntity
  8
RACCORDO
100
AcDbCircle
 62
250
  6
CONTINUOUS
 10
-0.0
 20
-29.0
 40
99.666742001
100
AcDbArc
 50
81.1263902297
 51
86.8078228725
  0
ARC
  5
777
100
AcDbEntity
  8
RACCORDO
100
AcDbCircle
 62
7
  6
CONTINUOUS
 10
14.5
 20
-63.8749158815
 40
5.9668162456
100
AcDbArc
 50
278.8736097703
 51
360.0
  0
ARC
  5
778
100
AcDbEntity
  8
RACCORDO
100
AcDbCircle
 62
250
  6
CONTINUOUS
 10
14.5
 20
-63.8749158815
 40
5.6668156816
100
AcDbArc
 50
278.8736097703
 51
360.0
  0
ARC
  5
779
100
AcDbEntity
  8
RACCORDO
100
AcDbCircle
 62
250
  6
CONTINUOUS
 10
14.5
 20
-63.8749158815
 40
4.8624096219
100
AcDbArc
 50
294.633524721
 51
360.0
  0
ARC
  5
77A
100
AcDbEntity
  8
RACCORDO
100
AcDbCircle
 62
250
  6
CONTINUOUS
 10
14.5
 20
-63.8749158815
 40
4.5640530533
100
AcDbArc
 50
295.4389989882
 51
360.0
  0
CIRCLE
  5
77B
100
AcDbEntity
  8
ASSI
100
AcDbCircle
 62
7
  6
CONTINUOUS
 10
10.0
 20
-57.5
 40
3.25
  0
CIRCLE
  5
77C
100
AcDbEntity
  8
0
100
AcDbCircle
 62
7
  6
CONTINUOUS
 10
10.0
 20
-57.5
 40
2.35
  0
ARC
  5
77D
100
AcDbEntity
  8
DRAFT
100
AcDbCircle
 62
7
  6
CONTINUOUS
 10
10.0
 20
-57.5
 40
2.2840347844
100
AcDbArc
 50
192.645070138
 51
257.354929862
  0
ARC
  5
77E
100
AcDbEntity
  8
DRAFT
100
AcDbCircle
 62
7
  6
CONTINUOUS
 10
10.0
 20
-57.5
 40
2.2840347844
100
AcDbArc
 50
126.2573079443
 51
167.354929862
  0
ARC
  5
77F
100
AcDbEntity
  8
DRAFT
100
AcDbCircle
 62
7
  6
CONTINUOUS
 10
10.0
 20
-57.5
 40
2.2840347844
100
AcDbArc
 50
282.645070138
 51
347.354929862
  0
ARC
  5
780
100
AcDbEntity
  8
DRAFT
100
AcDbCircle
 62
7
  6
CONTINUOUS
 10
10.0
 20
-57.5
 40
2.2840347844
100
AcDbArc
 50
12.645070138
 51
53.7426920557
  0
CIRCLE
  5
781
100
AcDbEntity
  8
DRAFT
100
AcDbCircle
 62
7
  6
CONTINUOUS
 10
10.0
 20
-57.5
 40
2.25
  0
CIRCLE
  5
782
100
AcDbEntity
  8
0
100
AcDbCircle
 62
7
  6
CONTINUOUS
 10
10.0
 20
-57.5
 40
1.5
  0
CIRCLE
  5
783
100
AcDbEntity
  8
0
100
AcDbCircle
 62
7
  6
CONTINUOUS
 10
10.0
 20
-57.5
 40
0.8123247752
  0
ARC
  5
784
100
AcDbEntity
  8
DRAFT
100
AcDbCircle
 62
7
  6
CONTINUOUS
 10
17.25
 20
-18.0
 40
0.5942573506
100
AcDbArc
 50
138.3815368884
 51
221.6184631116
  0
ARC
  5
785
100
AcDbEntity
  8
DRAFT
100
AcDbCircle
 62
7
  6
CONTINUOUS
 10
17.25
 20
-54.5
 40
0.5872753246
100
AcDbArc
 50
138.1233091309
 51
221.8766908691
  0
ARC
  5
786
100
AcDbEntity
  8
RACCORDO
100
AcDbCircle
 62
250
  6
CONTINUOUS
 10
19.0
 20
-40.0
 40
0.506740378
100
AcDbArc
 50
90.0
 51
270.0
  0
ARC
  5
787
100
AcDbEntity
  8
RACCORDO
100
AcDbCircle
 62
250
  6
CONTINUOUS
 10
10.0
 20
-67.5
 40
0.506740378
100
AcDbArc
 50
0.0
 51
180.0
  0
ARC
  5
788
100
AcDbEntity
  8
RACCORDO
100
AcDbCircle
 62
250
  6
CONTINUOUS
 10
17.25
 20
-18.0
 40
0.5034300864
100
AcDbArc
 50
134.5912276839
 51
225.4087723161
  0
ARC
  5
789
100
AcDbEntity
  8
RACCORDO
100
AcDbCircle
 62
250
  6
CONTINUOUS
 10
17.25
 20
-54.5
 40
0.5034300864
100
AcDbArc
 50
134.5912276839
 51
225.4087723161
  0
ARC
  5
78A
100
AcDbEntity
  8
RACCORDO
100
AcDbCircle
 62
250
  6
CONTINUOUS
 10
19.0
 20
-40.0
 40
0.306850815
100
AcDbArc
 50
90.0
 51
270.0
  0
ARC
  5
78B
100
AcDbEntity
  8
RACCORDO
100
AcDbCircle
 62
250
  6
CONTINUOUS
 10
10.0
 20
-67.5
 40
0.3068508077
100
AcDbArc
 50
0.0
 51
180.0
  0
ARC
  5
78C
100
AcDbEntity
  8
RACCORDO
100
AcDbCircle
 62
7
  6
CONTINUOUS
 10
5.5499657759
 20
-70.5121708083
 40
0.3
100
AcDbArc
 50
264.8702207094
 51
273.1921776566
  0
ARC
  5
78D
100
AcDbEntity
  8
RACCORDO
100
AcDbCircle
 62
250
  6
CONTINUOUS
 10
-0.0
 20
29.0
 40
99.6667423157
100
AcDbArc
 50
273.1921775248
 51
278.8736097703
  0
ARC
  5
78E
100
AcDbEntity
  8
RACCORDO
100
AcDbCircle
 62
250
  6
CONTINUOUS
 10
-0.0
 20
29.0
 40
99.666742001
100
AcDbArc
 50
261.1263902297
 51
266.8078228725
  0
CIRCLE
  5
78F
100
AcDbEntity
  8
0
100
AcDbCircle
 62
7
  6
CONTINUOUS
 10
0.0
 20
0.0
 40
3.25
  0
ARC
  5
790
100
AcDbEntity
  8
ASSI
100
AcDbCircle
 62
7
  6
CONTINUOUS
 10
8.032446
 20
0.0
 40
2.5499985399
100
AcDbArc
 50
87.7525290943
 51
272.2474709057
  0
CIRCLE
  5
791
100
AcDbEntity
  8
0
100
AcDbCircle
 62
7
  6
CONTINUOUS
 10
0.0
 20
0.0
 40
2.35
  0
CIRCLE
  5
792
100
AcDbEntity
  8
0
100
AcDbCircle
 62
7
  6
CONTINUOUS
 10
0.0
 20
0.0
 40
2.25
  0
ARC
  5
793
100
AcDbEntity
  8
ASSI
100
AcDbCircle
 62
7
  6
CONTINUOUS
 10
8.032446
 20
0.0
 40
1.7999999246
100
AcDbArc
 50
86.8152613297
 51
273.1847386703
  0
CIRCLE
  5
794
100
AcDbEntity
  8
0
100
AcDbCircle
 62
7
  6
CONTINUOUS
 10
0.0
 20
0.0
 40
1.5
  0
CIRCLE
  5
795
100
AcDbEntity
  8
0
100
AcDbCircle
 62
7
  6
CONTINUOUS
 10
0.0
 20
0.0
 40
0.6536304926
  0
ARC
  5
796
100
AcDbEntity
  8
0
100
AcDbCircle
 62
7
  6
CONTINUOUS
 10
3.977871
 20
60.845342
 40
0.5626011625
100
AcDbArc
 50
4.8340074603
 51
69.4782408912
  0
ARC
  5
797
100
AcDbEntity
  8
0
100
AcDbCircle
 62
7
  6
CONTINUOUS
 10
2.928685
 20
60.857231
 40
0.515435
100
AcDbArc
 50
90.0
 51
165.4447411474
  0
ARC
  5
798
100
AcDbEntity
  8
0
100
AcDbCircle
 62
7
  6
CONTINUOUS
 10
1.03175
 20
59.159208
 40
0.5041411809
100
AcDbArc
 50
285.4236044623
 51
341.0054878131
  0
ARC
  5
799
100
AcDbEntity
  8
0
100
AcDbCircle
 62
7
  6
CONTINUOUS
 10
1.515608
 20
60.900359
 40
0.4718803835
100
AcDbArc
 50
345.1449662306
 51
90.0
  0
ARC
  5
79A
100
AcDbEntity
  8
0
100
AcDbCircle
 62
7
  6
CONTINUOUS
 10
2.38815
 20
59.105165
 40
0.4319418989
100
AcDbArc
 50
165.4447308492
 51
270.0
  0
ARC
  5
79B
100
AcDbEntity
  8
0
100
AcDbCircle
 62
7
  6
CONTINUOUS
 10
1.087772
 20
60.698939
 40
0.3985171084
100
AcDbArc
 50
73.6975261887
 51
149.6964629817
  0
ARC
  5
79C
100
AcDbEntity
  8
0
100
AcDbCircle
 62
7
  6
CONTINUOUS
 10
3.208117
 20
59.294326
 40
0.3673600192
100
AcDbArc
 50
176.7577582844
 51
259.7450029505
  0
ARC
  5
79D
100
AcDbEntity
  8
RACCORDO
100
AcDbCircle
 62
7
  6
CONTINUOUS
 10
5.5499646262
 20
70.512170886
 40
0.3
100
AcDbArc
 50
86.8078229978
 51
95.1295530501
  0
ARC
  5
79E
100
AcDbEntity
  8
ASSI
100
AcDbCircle
 62
7
  6
CONTINUOUS
 10
12.417556
 20
0.0
 40
2.5499986575
100
AcDbArc
 50
87.752529198
 51
272.247470802
  0
ARC
  5
79F
100
AcDbEntity
  8
ASSI
100
AcDbCircle
 62
7
  6
CONTINUOUS
 10
12.417556
 20
0.0
 40
1.7999999246
100
AcDbArc
 50
86.8152613297
 51
167.9753003079
  0
ARC
  5
7A0
100
AcDbEntity
  8
ASSI
100
AcDbCircle
 62
7
  6
CONTINUOUS
 10
12.417556
 20
0.0
 40
1.7999968808
100
AcDbArc
 50
192.0247203293
 51
273.1847440612
  0
ARC
  5
7A1
100
AcDbEntity
  8
DRAFT
100
AcDbCircle
 62
7
  6
CONTINUOUS
 10
17.25
 20
18.0
 40
0.5942573506
100
AcDbArc
 50
138.3815368884
 51
221.6184631116
  0
ARC
  5
7A2
100
AcDbEntity
  8
RACCORDO
100
AcDbCircle
 62
250
  6
CONTINUOUS
 10
19.0
 20
-0.0
 40
0.5067403779
100
AcDbArc
 50
90.0
 51
270.0
  0
ARC
  5
7A3
100
AcDbEntity
  8
RACCORDO
100
AcDbCircle
 62
250
  6
CONTINUOUS
 10
17.25
 20
18.0
 40
0.5034300864
100
AcDbArc
 50
134.5912276839
 51
225.4087723161
  0
ARC
  5
7A4
100
AcDbEntity
  8
RACCORDO
100
AcDbCircle
 62
250
  6
CONTINUOUS
 10
19.0
 20
-0.0
 40
0.3068507983
100
AcDbArc
 50
90.0
 51
270.0
  0
ARC
  5
7A5
100
AcDbEntity
  8
RACCORDO
100
AcDbCircle
 62
7
  6
CONTINUOUS
 10
14.5
 20
63.8749158815
 40
5.9668162456
100
AcDbArc
 50
0.0
 51
81.1263902297
  0
ARC
  5
7A6
100
AcDbEntity
  8
RACCORDO
100
AcDbCircle
 62
250
  6
CONTINUOUS
 10
14.5
 20
63.8749158815
 40
5.6668156752
100
AcDbArc
 50
0.0
 51
81.1263902297
  0
ARC
  5
7A7
100
AcDbEntity
  8
RACCORDO
100
AcDbCircle
 62
250
  6
CONTINUOUS
 10
14.5
 20
63.8749158815
 40
4.8624096219
100
AcDbArc
 50
0.0
 51
65.366475279
  0
ARC
  5
7A8
100
AcDbEntity
  8
RACCORDO
100
AcDbCircle
 62
250
  6
CONTINUOUS
 10
14.5
 20
63.8749158815
 40
4.5640530533
100
AcDbArc
 50
0.0
 51
64.5610010117
  0
CIRCLE
  5
7A9
100
AcDbEntity
  8
ASSI
100
AcDbCircle
 62
7
  6
CONTINUOUS
 10
10.0
 20
57.5
 40
3.25
  0
CIRCLE
  5
7AA
100
AcDbEntity
  8
0
100
AcDbCircle
 62
7
  6
CONTINUOUS
 10
10.0
 20
57.5
 40
2.35
  0
ARC
  5
7AB
100
AcDbEntity
  8
DRAFT
100
AcDbCircle
 62
7
  6
CONTINUOUS
 10
10.0
 20
57.5
 40
2.2840347844
100
AcDbArc
 50
192.645070138
 51
233.7426920557
  0
ARC
  5
7AC
100
AcDbEntity
  8
DRAFT
100
AcDbCircle
 62
7
  6
CONTINUOUS
 10
10.0
 20
57.5
 40
2.2840347844
100
AcDbArc
 50
102.645070138
 51
167.354929862
  0
ARC
  5
7AD
100
AcDbEntity
  8
DRAFT
100
AcDbCircle
 62
7
  6
CONTINUOUS
 10
10.0
 20
57.5
 40
2.2840347844
100
AcDbArc
 50
306.2573079443
 51
347.354929862
  0
ARC
  5
7AE
100
AcDbEntity
  8
DRAFT
100
AcDbCircle
 62
7
  6
CONTINUOUS
 10
10.0
 20
57.5
 40
2.2840347844
100
AcDbArc
 50
12.645070138
 51
77.354929862
  0
CIRCLE
  5
7AF
100
AcDbEntity
  8
DRAFT
100
AcDbCircle
 62
7
  6
CONTINUOUS
 10
10.0
 20
57.5
 40
2.25
  0
CIRCLE
  5
7B0
100
AcDbEntity
  8
0
100
AcDbCircle
 62
7
  6
CONTINUOUS
 10
10.0
 20
57.5
 40
1.5
  0
CIRCLE
  5
7B1
100
AcDbEntity
  8
0
100
AcDbCircle
 62
7
  6
CONTINUOUS
 10
10.0
 20
57.5
 40
0.8123247752
  0
ARC
  5
7B2
100
AcDbEntity
  8
DRAFT
100
AcDbCircle
 62
7
  6
CONTINUOUS
 10
17.25
 20
54.5
 40
0.5872753246
100
AcDbArc
 50
138.1233091309
 51
221.8766908691
  0
ARC
  5
7B3
100
AcDbEntity
  8
RACCORDO
100
AcDbCircle
 62
250
  6
CONTINUOUS
 10
19.0
 20
40.0
 40
0.506740378
100
AcDbArc
 50
90.0
 51
270.0
  0
ARC
  5
7B4
100
AcDbEntity
  8
RACCORDO
100
AcDbCircle
 62
250
  6
CONTINUOUS
 10
10.0
 20
67.5
 40
0.506740378
100
AcDbArc
 50
180.0
 51
360.0
  0
ARC
  5
7B5
100
AcDbEntity
  8
RACCORDO
100
AcDbCircle
 62
250
  6
CONTINUOUS
 10
17.25
 20
54.5
 40
0.5034300864
100
AcDbArc
 50
134.5912276839
 51
225.4087723161
  0
ARC
  5
7B6
100
AcDbEntity
  8
RACCORDO
100
AcDbCircle
 62
250
  6
CONTINUOUS
 10
19.0
 20
40.0
 40
0.306850815
100
AcDbArc
 50
90.0
 51
270.0
  0
ARC
  5
7B7
100
AcDbEntity
  8
RACCORDO
100
AcDbCircle
 62
250
  6
CONTINUOUS
 10
10.0
 20
67.5
 40
0.3068508077
100
AcDbArc
 50
180.0
 51
360.0
  0
ELLIPSE
  5
7B8
100
AcDbEntity
  8
RACCORDO
100
AcDbEllipse
 62
7
  6
CONTINUOUS
 10
-16.2987809114
 20
64.7987809114
 30
0.0
 11
1.4159370892
 21
-1.4159370892
 31
0.0
 40
0.998782766
 41
2.3568034778
 42
3.9263818294
  0
ELLIPSE
  5
7B9
100
AcDbEntity
  8
RACCORDO
100
AcDbEllipse
 62
7
  6
CONTINUOUS
 10
16.2987809114
 20
64.7987809114
 30
0.0
 11
1.4159370892
 21
1.4159370892
 31
0.0
 40
0.998782766
 41
-0.7847891758
 42
0.7847891758
  0
ELLIPSE
  5
7BA
100
AcDbEntity
  8
RACCORDO
100
AcDbEllipse
 62
7
  6
CONTINUOUS
 10
16.2987809114
 20
-64.7987809114
 30
0.0
 11
-1.4159370891
 21
1.4159370893
 31
0.0
 40
0.998782766
 41
2.3568034778
 42
3.9263818295
  0
ELLIPSE
  5
7BB
100
AcDbEntity
  8
RACCORDO
100
AcDbEllipse
 62
7
  6
CONTINUOUS
 10
-16.2987809114
 20
-64.7987809114
 30
0.0
 11
-1.4159370891
 21
-1.4159370893
 31
0.0
 40
0.998782766
 41
-0.7847891759
 42
0.7847891757
  0
ELLIPSE
  5
7BC
100
AcDbEntity
  8
0
100
AcDbEllipse
 62
7
  6
CONTINUOUS
 10
4.960842
 20
56.9902908455
 30
0.0
 11
0.340698
 21
-0.0
 31
0.0
 40
0.9698463104
 41
-1.5707706072
 42
-0.2243994753
  0
ELLIPSE
  5
7BD
100
AcDbEntity
  8
DRAFT
100
AcDbEllipse
 62
7
  6
CONTINUOUS
 10
-23.7301669064
 20
27.7473241638
 30
0.0
 11
0.0
 21
397.1
 31
0.0
 40
0.0174550649
 41
-1.5259081969
 42
-1.5073095928
  0
ELLIPSE
  5
7BE
100
AcDbEntity
  8
DRAFT
100
AcDbEllipse
 62
7
  6
CONTINUOUS
 10
-23.7301669064
 20
-27.7473241638
 30
0.0
 11
0.0
 21
397.1
 31
0.0
 40
0.0174550649
 41
-1.6342830608
 42
-1.6156844567
  0
ELLIPSE
  5
7BF
100
AcDbEntity
  8
0
100
AcDbEllipse
 62
7
  6
CONTINUOUS
 10
4.960842
 20
57.0250204811
 30
0.0
 11
0.340698
 21
0.0
 31
0.0
 40
0.9698463104
 41
-1.5707708154
 42
1.5707963268
  0
ELLIPSE
  5
7C0
100
AcDbEntity
  8
DRAFT
100
AcDbEllipse
 62
7
  6
CONTINUOUS
 10
23.7301669064
 20
27.7473241638
 30
0.0
 11
0.0
 21
397.1
 31
0.0
 40
0.0174550649
 41
1.5073095928
 42
1.5259081969
  0
ELLIPSE
  5
7C1
100
AcDbEntity
  8
DRAFT
100
AcDbEllipse
 62
7
  6
CONTINUOUS
 10
23.7301669064
 20
-27.7473241638
 30
0.0
 11
0.0
 21
397.1
 31
0.0
 40
0.0174550649
 41
-4.6675008505
 42
-4.6489022464
  0
ELLIPSE
  5
7C2
100
AcDbEntity
  8
RACCORDO
100
AcDbEllipse
 62
7
  6
CONTINUOUS
 10
-16.399923836
 20
-64.999923836
 30
0.0
 11
0.3536610946
 21
0.3536610946
 31
0.0
 40
0.9996954599
 41
-3.9268385237
 42
-2.3563467834
  0
ELLIPSE
  5
7C3
100
AcDbEntity
  8
RACCORDO
100
AcDbEllipse
 62
7
  6
CONTINUOUS
 10
16.399923836
 20
-64.999923836
 30
0.0
 11
-0.3536610946
 21
0.3536610946
 31
0.0
 40
0.9996954599
 41
-3.9268385237
 42
-2.3563467834
  0
ELLIPSE
  5
7C4
100
AcDbEntity
  8
RACCORDO
100
AcDbEllipse
 62
7
  6
CONTINUOUS
 10
-16.399923836
 20
64.999923836
 30
0.0
 11
-0.3536610946
 21
0.3536610946
 31
0.0
 40
0.9996954599
 41
-0.7852458701
 42
0.7852458701
  0
ELLIPSE
  5
7C5
100
AcDbEntity
  8
RACCORDO
100
AcDbEllipse
 62
7
  6
CONTINUOUS
 10
16.399923836
 20
64.999923836
 30
0.0
 11
0.3536610946
 21
0.3536610946
 31
0.0
 40
0.9996954599
 41
-0.7852458701
 42
0.7852458701
  0
ELLIPSE
  5
7C6
100
AcDbEntity
  8
DRAFT
100
AcDbEllipse
 62
7
  6
CONTINUOUS
 10
18.8018097901
 20
-0.0
 30
0.0
 11
0.5965112096
 21
0.0
 31
0.0
 40
0.9431917355
 41
1.2321093694
 42
1.7775093923
  0
ELLIPSE
  5
7C7
100
AcDbEntity
  8
DRAFT
100
AcDbEllipse
 62
7
  6
CONTINUOUS
 10
18.8018097901
 20
40.0
 30
0.0
 11
0.5965112096
 21
-0.0
 31
0.0
 40
0.9431917355
 41
-1.7462916876
 42
-1.2321093694
  0
ELLIPSE
  5
7C8
100
AcDbEntity
  8
DRAFT
100
AcDbEllipse
 62
7
  6
CONTINUOUS
 10
18.8018097901
 20
40.0
 30
0.0
 11
0.5965112096
 21
0.0
 31
0.0
 40
0.9431917355
 41
1.2321093694
 42
1.7396693994
  0
ELLIPSE
  5
7C9
100
AcDbEntity
  8
RACCORDO
100
AcDbEllipse
 62
7
  6
CONTINUOUS
 10
-19.3624096219
 20
-40.5104762308
 30
0.0
 11
0.3
 21
0.0
 31
0.0
 40
0.0349207695
 41
0.1047197551
 42
0.3646257402
  0
ELLIPSE
  5
7CA
100
AcDbEntity
  8
RACCORDO
100
AcDbEllipse
 62
7
  6
CONTINUOUS
 10
-19.3624096219
 20
-0.5104762308
 30
0.0
 11
0.3
 21
-0.0
 31
0.0
 40
0.0349207695
 41
0.1047197551
 42
0.3646257402
  0
ELLIPSE
  5
7CB
100
AcDbEntity
  8
RACCORDO
100
AcDbEllipse
 62
7
  6
CONTINUOUS
 10
-19.3624096219
 20
39.4895237692
 30
0.0
 11
0.3
 21
0.0
 31
0.0
 40
0.0349207695
 41
0.1047197551
 42
0.3646257402
  0
ELLIPSE
  5
7CC
100
AcDbEntity
  8
RACCORDO
100
AcDbEllipse
 62
7
  6
CONTINUOUS
 10
-10.5104762308
 20
68.2948091789
 30
0.0
 11
0.0
 21
0.3
 31
0.0
 40
0.0349207695
 41
-3.1241393611
 42
-2.7769669134
  0
ELLIPSE
  5
7CD
100
AcDbEntity
  8
RACCORDO
100
AcDbEllipse
 62
7
  6
CONTINUOUS
 10
9.4895237692
 20
68.2948091789
 30
0.0
 11
-0.0
 21
0.3
 31
0.0
 40
0.0349207695
 41
-3.1241393611
 42
-2.7769669134
  0
ELLIPSE
  5
7CE
100
AcDbEntity
  8
RACCORDO
100
AcDbEllipse
 62
7
  6
CONTINUOUS
 10
19.3624096219
 20
40.5104762308
 30
0.0
 11
0.3
 21
-0.0
 31
0.0
 40
0.0349207695
 41
-3.0368728985
 42
-2.7769669134
  0
ELLIPSE
  5
7CF
100
AcDbEntity
  8
RACCORDO
100
AcDbEllipse
 62
7
  6
CONTINUOUS
 10
19.3624096219
 20
0.5104762308
 30
0.0
 11
0.3
 21
-0.0
 31
0.0
 40
0.0349207695
 41
-3.0368728985
 42
-2.7769669134
  0
ELLIPSE
  5
7D0
100
AcDbEntity
  8
RACCORDO
100
AcDbEllipse
 62
7
  6
CONTINUOUS
 10
19.3624096219
 20
-39.4895237692
 30
0.0
 11
0.3
 21
-0.0
 31
0.0
 40
0.0349207695
 41
-3.0368728985
 42
-2.7769669134
  0
ELLIPSE
  5
7D1
100
AcDbEntity
  8
RACCORDO
100
AcDbEllipse
 62
7
  6
CONTINUOUS
 10
10.5104762308
 20
-68.2948091789
 30
0.0
 11
-0.0
 21
0.3
 31
0.0
 40
0.0349207695
 41
0.0174532925
 42
0.3646257402
  0
ELLIPSE
  5
7D2
100
AcDbEntity
  8
RACCORDO
100
AcDbEllipse
 62
7
  6
CONTINUOUS
 10
-9.4895237692
 20
-68.2948091789
 30
0.0
 11
-0.0
 21
0.3
 31
0.0
 40
0.0349207695
 41
0.0174532925
 42
0.3646257402
  0
ELLIPSE
  5
7D3
100
AcDbEntity
  8
DRAFT
100
AcDbEllipse
 62
7
  6
CONTINUOUS
 10
-18.8018097901
 20
40.0
 30
0.0
 11
0.5965112096
 21
-0.0
 31
0.0
 40
0.9431917355
 41
1.4019232524
 42
1.9094832842
  0
ELLIPSE
  5
7D4
100
AcDbEntity
  8
DRAFT
100
AcDbEllipse
 62
7
  6
CONTINUOUS
 10
-18.8018097901
 20
40.0
 30
0.0
 11
0.5965112096
 21
0.0
 31
0.0
 40
0.9431917355
 41
-1.9094832842
 42
-1.3953009671
  0
ELLIPSE
  5
7D5
100
AcDbEntity
  8
DRAFT
100
AcDbEllipse
 62
7
  6
CONTINUOUS
 10
-18.8018097901
 20
0.0
 30
0.0
 11
0.5965112096
 21
0.0
 31
0.0
 40
0.9431917355
 41
1.3640832613
 42
1.9094832842
  0
ELLIPSE
  5
7D6
100
AcDbEntity
  8
DRAFT
100
AcDbEllipse
 62
7
  6
CONTINUOUS
 10
-18.8018097901
 20
0.0
 30
0.0
 11
0.5965112096
 21
0.0
 31
0.0
 40
0.9431917355
 41
-1.9094832842
 42
-1.3640832613
  0
ELLIPSE
  5
7D7
100
AcDbEntity
  8
DRAFT
100
AcDbEllipse
 62
7
  6
CONTINUOUS
 10
-18.8018097901
 20
-40.0
 30
0.0
 11
0.5965112096
 21
-0.0
 31
0.0
 40
0.9431917355
 41
1.3953009671
 42
1.9094832842
  0
ELLIPSE
  5
7D8
100
AcDbEntity
  8
DRAFT
100
AcDbEllipse
 62
7
  6
CONTINUOUS
 10
-18.8018097901
 20
-40.0
 30
0.0
 11
0.5965112096
 21
0.0
 31
0.0
 40
0.9431917355
 41
-1.9094832842
 42
-1.4019232548
  0
ELLIPSE
  5
7D9
100
AcDbEntity
  8
DRAFT
100
AcDbEllipse
 62
7
  6
CONTINUOUS
 10
18.8018097901
 20
-40.0
 30
0.0
 11
0.5965112096
 21
-0.0
 31
0.0
 40
0.9431917355
 41
-1.7396694005
 42
-1.2321093694
  0
ELLIPSE
  5
7DA
100
AcDbEntity
  8
DRAFT
100
AcDbEllipse
 62
7
  6
CONTINUOUS
 10
18.8018097901
 20
-40.0
 30
0.0
 11
0.5965112096
 21
-0.0
 31
0.0
 40
0.9431917355
 41
1.2321093694
 42
1.7462916854
  0
ELLIPSE
  5
7DB
100
AcDbEntity
  8
DRAFT
100
AcDbEllipse
 62
7
  6
CONTINUOUS
 10
10.0
 20
-57.50349561
 30
0.0
 11
0.0
 21
2.2716729313
 31
0.0
 40
0.9999988161
 41
2.9196732426
 42
3.3635120646
  0
ELLIPSE
  5
7DC
100
AcDbEntity
  8
DRAFT
100
AcDbEllipse
 62
7
  6
CONTINUOUS
 10
10.0
 20
-57.50349561
 30
0.0
 11
-0.0
 21
2.2716729313
 31
0.0
 40
0.9999988161
 41
1.3472994347
 42
1.7911382839
  0
ELLIPSE
  5
7DD
100
AcDbEntity
  8
DRAFT
100
AcDbEllipse
 62
7
  6
CONTINUOUS
 10
10.0
 20
-57.50349561
 30
0.0
 11
0.0
 21
2.2716729313
 31
0.0
 40
0.9999988161
 41
-0.221919411
 42
0.221919411
  0
ELLIPSE
  5
7DE
100
AcDbEntity
  8
DRAFT
100
AcDbEllipse
 62
7
  6
CONTINUOUS
 10
10.0
 20
-57.50349561
 30
0.0
 11
-0.0
 21
2.2716729313
 31
0.0
 40
0.9999988161
 41
-1.7911382839
 42
-1.3472994347
  0
ELLIPSE
  5
7DF
100
AcDbEntity
  8
DRAFT
100
AcDbEllipse
 62
7
  6
CONTINUOUS
 10
-10.0
 20
-57.50349561
 30
0.0
 11
-0.0
 21
2.2716729313
 31
0.0
 40
0.9999988161
 41
2.9196732426
 42
3.3635120646
  0
ELLIPSE
  5
7E0
100
AcDbEntity
  8
DRAFT
100
AcDbEllipse
 62
7
  6
CONTINUOUS
 10
-10.0
 20
-57.50349561
 30
0.0
 11
-0.0
 21
2.2716729313
 31
0.0
 40
0.9999988161
 41
1.3472994347
 42
1.7911382839
  0
ELLIPSE
  5
7E1
100
AcDbEntity
  8
DRAFT
100
AcDbEllipse
 62
7
  6
CONTINUOUS
 10
-10.0
 20
-57.50349561
 30
0.0
 11
0.0
 21
2.2716729313
 31
0.0
 40
0.9999988161
 41
-0.221919411
 42
0.221919411
  0
ELLIPSE
  5
7E2
100
AcDbEntity
  8
DRAFT
100
AcDbEllipse
 62
7
  6
CONTINUOUS
 10
-10.0
 20
-57.50349561
 30
0.0
 11
-0.0
 21
2.2716729313
 31
0.0
 40
0.9999988161
 41
-1.7911382839
 42
-1.3472994347
  0
ELLIPSE
  5
7E3
100
AcDbEntity
  8
DRAFT
100
AcDbEllipse
 62
7
  6
CONTINUOUS
 10
10.0
 20
57.50349561
 30
0.0
 11
0.0
 21
2.2716729313
 31
0.0
 40
0.9999988161
 41
2.9196732426
 42
3.3635120646
  0
ELLIPSE
  5
7E4
100
AcDbEntity
  8
DRAFT
100
AcDbEllipse
 62
7
  6
CONTINUOUS
 10
10.0
 20
57.50349561
 30
0.0
 11
0.0
 21
2.2716729313
 31
0.0
 40
0.9999988161
 41
1.3504543697
 42
1.7942932188
  0
ELLIPSE
  5
7E5
100
AcDbEntity
  8
DRAFT
100
AcDbEllipse
 62
7
  6
CONTINUOUS
 10
10.0
 20
57.50349561
 30
0.0
 11
0.0
 21
2.2716729313
 31
0.0
 40
0.9999988161
 41
-0.221919411
 42
0.221919411
  0
ELLIPSE
  5
7E6
100
AcDbEntity
  8
DRAFT
100
AcDbEllipse
 62
7
  6
CONTINUOUS
 10
10.0
 20
57.50349561
 30
0.0
 11
0.0
 21
2.2716729313
 31
0.0
 40
0.9999988161
 41
-1.7942932188
 42
-1.3504543697
  0
ELLIPSE
  5
7E7
100
AcDbEntity
  8
DRAFT
100
AcDbEllipse
 62
7
  6
CONTINUOUS
 10
-10.0
 20
57.50349561
 30
0.0
 11
0.0
 21
2.2716729313
 31
0.0
 40
0.9999988161
 41
2.9196732426
 42
3.3635120646
  0
ELLIPSE
  5
7E8
100
AcDbEntity
  8
DRAFT
100
AcDbEllipse
 62
7
  6
CONTINUOUS
 10
-10.0
 20
57.50349561
 30
0.0
 11
-0.0
 21
2.2716729313
 31
0.0
 40
0.9999988161
 41
1.3504543697
 42
1.7942932188
  0
ELLIPSE
  5
7E9
100
AcDbEntity
  8
DRAFT
100
AcDbEllipse
 62
7
  6
CONTINUOUS
 10
-10.0
 20
57.50349561
 30
0.0
 11
-0.0
 21
2.2716729313
 31
0.0
 40
0.9999988161
 41
-0.221919411
 42
0.221919411
  0
ELLIPSE
  5
7EA
100
AcDbEntity
  8
DRAFT
100
AcDbEllipse
 62
7
  6
CONTINUOUS
 10
-10.0
 20
57.50349561
 30
0.0
 11
-0.0
 21
2.2716729313
 31
0.0
 40
0.9999988161
 41
-1.7942932188
 42
-1.3504543697
  0
ELLIPSE
  5
7EB
100
AcDbEntity
  8
DRAFT
100
AcDbEllipse
 62
7
  6
CONTINUOUS
 10
18.8018097901
 20
-0.0
 30
0.0
 11
0.5965112096
 21
0.0
 31
0.0
 40
0.9431917355
 41
-1.7775093923
 42
-1.2321093694
  0
ENDSEC
  0
SECTION
  2
OBJECTS
  0
DICTIONARY
  5
C
100
AcDbDictionary
280
0
281
1
  3
ACAD_GROUP
350
D
  3
ACAD_MLINESTYLE
350
17
  3
ACAD_LAYOUT
350
1A
  3
ACAD_PLOTSETTINGS
350
19
  3
ACAD_PLOTSTYLENAME
350
E
  0
DICTIONARY
  5
D
102
{ACAD_REACTORS
330
C
102
}
100
AcDbDictionary
280
0
281
1
  0
ACDBDICTIONARYWDFLT
  5
E
102
{ACAD_REACTORS
330
C
102
}
100
AcDbDictionary
281
1
  3
Normal
350
F
100
AcDbDictionaryWithDefault
340
F
  0
DICTIONARY
  5
17
102
{ACAD_REACTORS
330
C
102
}
100
AcDbDictionary
280
0
281
1
  3
Standard
350
18
  0
DICTIONARY
  5
19
102
{ACAD_REACTORS
330
C
102
}
100
AcDbDictionary
281
1
  0
DICTIONARY
  5
1A
102
{ACAD_REACTORS
330
C
102
}
100
AcDbDictionary
281
1
  3
Model
350
7EC
  3
Layout1
350
7ED
  0
ACDBPLACEHOLDER
  5
F
102
{ACAD_REACTORS
330
E
102
}
  0
MLINESTYLE
  5
18
102
{ACAD_REACTORS
330
17
102
}
100
AcDbMlineStyle
  2
STANDARD
 70
0
  3

 62
256
 51
90.0
 52
90.0
 71
2
 49
0.5
 62
256
  6
BYLAYER
 49
-0.5
 62
256
  6
BYLAYER
  0
LAYOUT
  5
7EC
102
{ACAD_REACTORS
330
1A
102
}
100
AcDbPlotSettings
  1

  2
none_device
  4
ISO_A4_(297.00_x_210.00_MM)
  6

 40
0.0
 41
0.0
 42
0.0
 43
0.0
 44
297.0
 45
210.0
 46
0.0
 47
0.0
 48
0.0
 49
0.0
140
0.0
141
0.0
142
1.0
143
1.0
 70
1024
 72
1
 73
0
 74
0
  7

 75
0
147
1.0
148
0.0
149
0.0
100
AcDbLayout
  1
Model
 70
0
 71
0
 10
0.0
 20
0.0
 11
297.0
 21
210.0
 12
0.0
 22
0.0
 32
0.0
 14
0.0
 24
0.0
 34
0.0
 15
0.0
 25
0.0
 35
0.0
146
0.0
 13
0.0
 23
0.0
 33
0.0
 16
1.0
 26
0.0
 36
0.0
 17
0.0
 27
1.0
 37
0.0
 76
0
330
215
345
0
346
0
  0
LAYOUT
  5
7ED
102
{ACAD_REACTORS
330
1A
102
}
100
AcDbPlotSettings
  1

  2
none_device
  4
ISO_A4_(297.00_x_210.00_MM)
  6

 40
0.0
 41
0.0
 42
0.0
 43
0.0
 44
297.0
 45
210.0
 46
0.0
 47
0.0
 48
0.0
 49
0.0
140
0.0
141
0.0
142
1.0
143
1.0
 70
0
 72
1
 73
0
 74
0
  7

 75
0
147
1.0
148
0.0
149
0.0
100
AcDbLayout
  1
Layout1
 70
0
 71
1
 10
0.0
 20
0.0
 11
297.0
 21
210.0
 12
0.0
 22
0.0
 32
0.0
 14
0.0
 24
0.0
 34
0.0
 15
0.0
 25
0.0
 35
0.0
146
0.0
 13
0.0
 23
0.0
 33
0.0
 16
1.0
 26
0.0
 36
0.0
 17
0.0
 27
1.0
 37
0.0
 76
0
330
216
345
0
346
0
  0
ENDSEC
  0
EOF
