  0
SECTION
  2
HEADER
  9
$ACADVER
  1
AC1024
  9
$DWGCODEPAGE
  3
ANSI_1252
  9
$EXTMAX
 10
297.0
 20
210.0
 30
0.0
  9
$EXTMIN
 10
0.0
 20
0.0
 30
0.0
  9
$LIMMIN
 10
0.0
 20
0.0
  9
$LIMMAX
 10
297.0
 20
210.0
  9
$VIEWCTR
 10
148.5
 20
105.0
  9
$VIEWSIZE
 40
210.0
  9
$CLAYER
  8
0
  9
$LTSCALE
 40
16.335
  9
$CELTYPE
  6
BYLAYER
  9
$DIMSCALE
 40
1.0
  9
$DIMASZ
 40
3.0
  9
$DIMEXO
 40
0.5
  9
$DIMDLI
 40
11.286
  9
$DIMEXE
 40
1.5
  9
$DIMCEN
 40
2.673
  9
$DIMLFAC
 40
1.0
  9
$DIMBLK
  1
_FILLED
  9
$DIMALT
 70
0
  9
$DIMALTF
 40
0.0393700787
  9
$DIMTXT
 40
3.0
  9
$DIMTOL
 70
1
  9
$DIMLIM
 70
0
  9
$DIMTFAC
 40
1.0
  9
$DIMTP
 40
0.01
  9
$DIMTM
 40
0.01
  9
$DIMGAP
 40
0.625
  9
$DIMDSEP
 70
44
  9
$AUNITS
 70
0
  9
$PDMODE
 70
3
  9
$PDSIZE
 40
3.0
  9
$HANDSEED
  5
449
  9
$TILEMODE
 70
1
  9
$MEASUREMENT
 70
1
  9
$INSUNITS
 70
4
  0
ENDSEC
  0
SECTION
  2
CLASSES
  0
CLASS
  1
ACDBDICTIONARYWDFLT
  2
AcDbDictionaryWithDefault
  3
AutoCAD 2000
 90
0
 91
1
280
0
281
0
  0
CLASS
  1
ACDBPLACEHOLDER
  2
AcDbPlaceHolder
  3
AutoCAD 2000
 90
0
 91
1
280
0
281
0
  0
CLASS
  1
LAYOUT
  2
AcDbLayout
  3
AutoCAD 2000
 90
0
 91
0
280
0
281
0
  0
ENDSEC
  0
SECTION
  2
TABLES
  0
TABLE
  2
VPORT
  5
8
100
AcDbSymbolTable
 70
2
  0
VPORT
  5
1F4
100
AcDbSymbolTableRecord
100
AcDbViewportTableRecord
  2
*ACTIVE
 70
0
 10
0.0
 20
0.0
 11
1.0
 21
1.0
 12
148.5
 22
105.0
 13
0.0
 23
0.0
 14
1.0
 24
1.0
 15
0.0
 25
0.0
 16
0.0
 26
0.0
 36
1.0
 17
0.0
 27
0.0
 37
0.0
 40
210.0
 41
1.4142857143
 42
50.0
 43
0.0
 44
0.0
 50
0.0
 51
0.0
 71
0
 72
100
 73
1
 74
1
 75
0
 76
0
 77
0
 78
0
  0
ENDTAB
  0
TABLE
  2
LTYPE
  5
5
100
AcDbSymbolTable
 70
6
  0
LTYPE
  5
14
100
AcDbSymbolTableRecord
100
AcDbLinetypeTableRecord
  2
BYBLOCK
 70
0
  3

 72
65
 73
0
 40
0.0
  0
LTYPE
  5
15
100
AcDbSymbolTableRecord
100
AcDbLinetypeTableRecord
  2
BYLAYER
 70
0
  3

 72
65
 73
0
 40
0.0
  0
LTYPE
  5
16
100
AcDbSymbolTableRecord
100
AcDbLinetypeTableRecord
  2
CONTINUOUS
 70
64
  3
Solid line
 72
65
 73
0
 40
0.0
  0
LTYPE
  5
1F5
100
AcDbSymbolTableRecord
100
AcDbLinetypeTableRecord
  2
CENTER
 70
64
  3
____ _ ____ _ ____ _ ____ _ ____ _ ____ _ ____
 72
65
 73
4
 40
0.6
 49
0.375
 74
0
 49
-0.075
 74
0
 49
0.075
 74
0
 49
-0.075
 74
0
  0
LTYPE
  5
1F6
100
AcDbSymbolTableRecord
100
AcDbLinetypeTableRecord
  2
HIDDEN
 70
64
  3
- - - - - - - - - - - - - - - - - - - -
 72
65
 73
2
 40
0.2
 49
0.1
 74
0
 49
-0.1
 74
0
  0
LTYPE
  5
1F7
100
AcDbSymbolTableRecord
100
AcDbLinetypeTableRecord
  2
PHANTOM
 70
64
  3
_____ _ _ _____ _ _ _____ _ _ _____
 72
65
 73
6
 40
0.8
 49
0.45
 74
0
 49
-0.05
 74
0
 49
0.1
 74
0
 49
-0.05
 74
0
 49
0.1
 74
0
 49
-0.05
 74
0
  0
LTYPE
  5
1F8
100
AcDbSymbolTableRecord
100
AcDbLinetypeTableRecord
  2
DOT
 70
64
  3
. . . . . . . . . . . . . . . . . . . .
 72
65
 73
2
 40
0.2
 49
0.1
 74
0
 49
-0.1
 74
0
  0
LTYPE
  5
1F9
100
AcDbSymbolTableRecord
100
AcDbLinetypeTableRecord
  2
DASHED
 70
64
  3
- - - - - - - - - - - - - - - - - - - -
 72
65
 73
2
 40
0.2
 49
0.1
 74
0
 49
-0.1
 74
0
  0
ENDTAB
  0
TABLE
  2
LAYER
  5
2
100
AcDbSymbolTable
 70
36
  0
LAYER
  5
10
100
AcDbSymbolTableRecord
100
AcDbLayerTableRecord
  2
0
 70
0
 62
7
  6
CONTINUOUS
370
-3
390
F
  0
LAYER
  5
1FA
100
AcDbSymbolTableRecord
100
AcDbLayerTableRecord
  2
DEFAULT_1
 70
0
 62
7
  6
CENTER
370
-3
390
F
  0
LAYER
  5
1FB
100
AcDbSymbolTableRecord
100
AcDbLayerTableRecord
  2
DEFAULT_2
 70
0
 62
7
  6
HIDDEN
370
-3
390
F
  0
LAYER
  5
1FC
100
AcDbSymbolTableRecord
100
AcDbLayerTableRecord
  2
DEFAULT_3
 70
0
 62
7
  6
PHANTOM
370
-3
390
F
  0
LAYER
  5
1FD
100
AcDbSymbolTableRecord
100
AcDbLayerTableRecord
  2
ASSI
 70
0
 62
7
  6
CONTINUOUS
370
-3
390
F
  0
LAYER
  5
1FE
100
AcDbSymbolTableRecord
100
AcDbLayerTableRecord
  2
COORDINATE
 70
0
 62
7
  6
CONTINUOUS
370
-3
390
F
  0
LAYER
  5
1FF
100
AcDbSymbolTableRecord
100
AcDbLayerTableRecord
  2
COORD_ORIGINE
 70
0
 62
7
  6
CONTINUOUS
370
-3
390
F
  0
LAYER
  5
200
100
AcDbSymbolTableRecord
100
AcDbLayerTableRecord
  2
COSMETICI
 70
0
 62
7
  6
CONTINUOUS
370
-3
390
F
  0
LAYER
  5
201
100
AcDbSymbolTableRecord
100
AcDbLayerTableRecord
  2
CURVE
 70
0
 62
7
  6
CONTINUOUS
370
-3
390
F
  0
LAYER
  5
202
100
AcDbSymbolTableRecord
100
AcDbLayerTableRecord
  2
DRAFT
 70
0
 62
7
  6
CONTINUOUS
370
-3
390
F
  0
LAYER
  5
203
100
AcDbSymbolTableRecord
100
AcDbLayerTableRecord
  2
IMPORT
 70
0
 62
7
  6
CONTINUOUS
370
-3
390
F
  0
LAYER
  5
204
100
AcDbSymbolTableRecord
100
AcDbLayerTableRecord
  2
LAY0001
 70
0
 62
7
  6
CONTINUOUS
370
-3
390
F
  0
LAYER
  5
205
100
AcDbSymbolTableRecord
100
AcDbLayerTableRecord
  2
NOTE
 70
0
 62
7
  6
CONTINUOUS
370
-3
390
F
  0
LAYER
  5
206
100
AcDbSymbolTableRecord
100
AcDbLayerTableRecord
  2
PIANI
 70
0
 62
7
  6
CONTINUOUS
370
-3
390
F
  0
LAYER
  5
207
100
AcDbSymbolTableRecord
100
AcDbLayerTableRecord
  2
PIANI_ORIGINE
 70
0
 62
7
  6
CONTINUOUS
370
-3
390
F
  0
LAYER
  5
208
100
AcDbSymbolTableRecord
100
AcDbLayerTableRecord
  2
PUNTI
 70
0
 62
7
  6
CONTINUOUS
370
-3
390
F
  0
LAYER
  5
209
100
AcDbSymbolTableRecord
100
AcDbLayerTableRecord
  2
RACCORDO
 70
0
 62
7
  6
CONTINUOUS
370
-3
390
F
  0
LAYER
  5
20A
100
AcDbSymbolTableRecord
100
AcDbLayerTableRecord
  2
SIMBOLI
 70
0
 62
7
  6
CONTINUOUS
370
-3
390
F
  0
LAYER
  5
20B
100
AcDbSymbolTableRecord
100
AcDbLayerTableRecord
  2
SNAPLINE
 70
0
 62
7
  6
CONTINUOUS
370
-3
390
F
  0
LAYER
  5
20C
100
AcDbSymbolTableRecord
100
AcDbLayerTableRecord
  2
SUPERFICI
 70
0
 62
7
  6
CONTINUOUS
370
-3
390
F
  0
LAYER
  5
20D
100
AcDbSymbolTableRecord
100
AcDbLayerTableRecord
  2
TRASH
 70
0
 62
7
  6
CONTINUOUS
370
-3
390
F
  0
LAYER
  5
20E
100
AcDbSymbolTableRecord
100
AcDbLayerTableRecord
  2
XSEC_DATUMS
 70
0
 62
7
  6
CONTINUOUS
370
-3
390
F
  0
ENDTAB
  0
TABLE
  2
STYLE
  5
3
100
AcDbSymbolTable
 70
1
  0
STYLE
  5
11
100
AcDbSymbolTableRecord
100
AcDbTextStyleTableRecord
  2
STANDARD
 70
0
 40
0.0
 41
0.8
 50
0.0
 71
0
 42
0.2
  3
txt
  4

  0
STYLE
  5
20F
100
AcDbSymbolTableRecord
100
AcDbTextStyleTableRecord
  2
TEXTSTYLE_1
 70
0
 40
0.0
 41
0.8
 50
0.0
 71
0
 42
0.2
  3
gdt
  4

  0
ENDTAB
  0
TABLE
  2
VIEW
  5
6
100
AcDbSymbolTable
 70
0
  0
ENDTAB
  0
TABLE
  2
UCS
  5
7
100
AcDbSymbolTable
 70
0
  0
ENDTAB
  0
TABLE
  2
APPID
  5
9
100
AcDbSymbolTable
 70
1
  0
APPID
  5
210
100
AcDbSymbolTableRecord
100
AcDbRegAppTableRecord
  2
ACAD
 70
0
  0
ENDTAB
  0
TABLE
  2
BLOCK_RECORD
  5
1
100
AcDbSymbolTable
 70
0
  0
BLOCK_RECORD
  5
211
100
AcDbSymbolTableRecord
100
AcDbBlockTableRecord
  2
*Model_Space
  0
BLOCK_RECORD
  5
212
100
AcDbSymbolTableRecord
100
AcDbBlockTableRecord
  2
*Paper_Space
  0
BLOCK_RECORD
  5
213
100
AcDbSymbolTableRecord
100
AcDbBlockTableRecord
  2
_FILLED
  0
ENDTAB
  0
TABLE
  2
DIMSTYLE
  5
A
100
AcDbSymbolTable
 70
1
100
AcDbDimStyleTable
 71
0
  0
DIMSTYLE
105
214
100
AcDbSymbolTableRecord
100
AcDbDimStyleTableRecord
  2
STANDARD
 70
0
  3

  4

 40
1.0
 41
3.0
 42
0.5
 43
0.38
 44
1.5
 45
0.0
 46
0.0
 47
0.01
 48
0.01
140
3.0
141
0.09
142
0.0
143
25.4
144
1.0
145
0.0
146
1.0
147
0.625
 71
1
 72
0
 73
0
 74
0
 75
0
 76
0
 77
1
 78
8
 79
2
170
0
171
1
172
0
173
0
174
0
175
0
176
0
177
0
178
0
270
2
179
2
271
2
272
2
273
2
274
2
275
0
280
0
281
0
282
0
283
1
284
8
285
0
286
0
287
3
288
0
340
11
278
44
341
213
342
213
343
213
344
213
  0
ENDTAB
  0
ENDSEC
  0
SECTION
  2
BLOCKS
  0
BLOCK
  5
20
100
AcDbEntity
  8
0
100
AcDbBlockBegin
  2
*Model_Space
 70
0
 10
0.0
 20
0.0
 30
0.0
  3
*Model_Space
  1

  0
ENDBLK
  5
21
100
AcDbEntity
  8
0
100
AcDbBlockEnd
  0
BLOCK
  5
1C
100
AcDbEntity
  8
0
100
AcDbBlockBegin
  2
*Paper_Space
 70
0
 10
0.0
 20
0.0
 30
0.0
  3
*Paper_Space
  1

  0
ENDBLK
  5
1D
100
AcDbEntity
  8
0
100
AcDbBlockEnd
  0
BLOCK
  5
215
100
AcDbEntity
  8
0
100
AcDbBlockBegin
  2
_FILLED
 70
64
 10
0.0
 20
0.0
  3
_FILLED
  1

  0
SOLID
  5
216
100
AcDbEntity
  8
0
  6
BYBLOCK
 62
0
100
AcDbTrace
 10
0.0
 20
0.0
 11
-1.0
 21
0.3166666667
 12
-1.0
 22
-0.3166666667
 13
-1.0
 23
-0.3166666667
  0
ENDBLK
  5
217
100
AcDbEntity
  8
0
  6
BYBLOCK
 62
0
100
AcDbBlockEnd
  0
ENDSEC
  0
SECTION
  2
ENTITIES
  0
LWPOLYLINE
  5
218
100
AcDbEntity
  8
RACCORDO
100
AcDbPolyline
 62
250
  6
CONTINUOUS
 90
13
 70
0
 10
-18.221922776
 20
37.9202753966
 10
-18.2175540955
 20
37.9238860903
 10
-18.2084633357
 20
37.9274390334
 10
-18.1947959042
 20
37.9308774054
 10
-18.1767704133
 20
37.9341462183
 10
-18.1546751825
 20
37.9371931907
 10
-18.1288636276
 20
37.9399695832
 10
-18.099748607
 20
37.9424309839
 10
-18.0677958189
 20
37.9445380256
 10
-18.0335163517
 20
37.9462570086
 10
-17.9974585093
 20
37.9475604341
 10
-17.9601990408
 20
37.9484274445
 10
-17.9223339156
 20
37.9488441626
  0
LWPOLYLINE
  5
219
100
AcDbEntity
  8
RACCORDO
100
AcDbPolyline
 62
7
  6
CONTINUOUS
 90
5
 70
0
 10
-14.003284306
 20
38.219864257
 10
-14.011623876
 20
38.2158728793
 10
-14.0223607933
 20
38.2080922245
 10
-14.0354950581
 20
38.1970966195
 10
-14.0696665377
 20
38.167931029
  0
LINE
  5
21A
100
AcDbEntity
  8
RACCORDO
100
AcDbLine
 62
7
  6
CONTINUOUS
 10
-18.8016445583
 20
-40.0
 11
-3.6749773271
 21
-40.0
  0
LINE
  5
21B
100
AcDbEntity
  8
RACCORDO
100
AcDbLine
 62
7
  6
CONTINUOUS
 10
3.6749773271
 20
-40.0
 11
18.8016445583
 21
-40.0
  0
LINE
  5
21C
100
AcDbEntity
  8
0
100
AcDbLine
 62
7
  6
CONTINUOUS
 10
3.5
 20
-39.8951844414
 11
-3.5
 21
-39.8951844414
  0
LINE
  5
21D
100
AcDbEntity
  8
RACCORDO
100
AcDbLine
 62
7
  6
CONTINUOUS
 10
18.2004111396
 20
-38.497941481
 11
11.7
 21
-38.497941481
  0
LINE
  5
21E
100
AcDbEntity
  8
0
100
AcDbLine
 62
7
  6
CONTINUOUS
 10
-10.7
 20
-38.497941481
 11
-9.5
 21
-38.497941481
  0
LINE
  5
21F
100
AcDbEntity
  8
0
100
AcDbLine
 62
7
  6
CONTINUOUS
 10
10.7
 20
-38.497941481
 11
9.5
 21
-38.497941481
  0
LINE
  5
220
100
AcDbEntity
  8
0
100
AcDbLine
 62
7
  6
CONTINUOUS
 10
8.5
 20
-38.497941481
 11
4.5
 21
-38.497941481
  0
LINE
  5
221
100
AcDbEntity
  8
0
100
AcDbLine
 62
7
  6
CONTINUOUS
 10
-4.5
 20
-38.497941481
 11
-8.5
 21
-38.497941481
  0
LINE
  5
222
100
AcDbEntity
  8
RACCORDO
100
AcDbLine
 62
7
  6
CONTINUOUS
 10
-11.7
 20
-38.497941481
 11
-18.2004111396
 21
-38.497941481
  0
LINE
  5
223
100
AcDbEntity
  8
0
100
AcDbLine
 62
7
  6
CONTINUOUS
 10
-10.7
 20
-38.4140890342
 11
-9.5
 21
-38.4140890342
  0
LINE
  5
224
100
AcDbEntity
  8
0
100
AcDbLine
 62
7
  6
CONTINUOUS
 10
10.7
 20
-38.4140890342
 11
9.5
 21
-38.4140890342
  0
LINE
  5
225
100
AcDbEntity
  8
0
100
AcDbLine
 62
7
  6
CONTINUOUS
 10
3.5
 20
-38.3931259224
 11
-3.5
 21
-38.3931259224
  0
LWPOLYLINE
  5
226
100
AcDbEntity
  8
RACCORDO
100
AcDbPolyline
 62
250
  6
CONTINUOUS
 90
13
 70
0
 10
-17.9223339156
 20
-38.219864257
 10
-17.9613704566
 20
-38.2172032276
 10
-17.9997413957
 20
-38.2094793583
 10
-18.0367924798
 20
-38.1968243466
 10
-18.0718919603
 20
-38.17945397
 10
-18.1044413652
 20
-38.1576644063
 10
-18.1338857028
 20
-38.1318271838
 10
-18.1597229253
 20
-38.1023828462
 10
-18.181512489
 20
-38.0698334413
 10
-18.1988828656
 20
-38.0347339608
 10
-18.2115378772
 20
-37.9976828767
 10
-18.2192617466
 20
-37.9593119377
 10
-18.221922776
 20
-37.9202753966
  0
LWPOLYLINE
  5
227
100
AcDbEntity
  8
RACCORDO
100
AcDbPolyline
 62
7
  6
CONTINUOUS
 90
4
 70
0
 10
-14.003284306
 20
-38.219864257
 10
-14.011623876
 20
-38.2158728793
 10
-14.0223607933
 20
-38.2080922245
 10
-14.0354950581
 20
-38.1970966195
  0
LINE
  5
228
100
AcDbEntity
  8
RACCORDO
100
AcDbLine
 62
7
  6
CONTINUOUS
 10
-14.2269217944
 20
38.02075562
 11
-14.3
 21
37.9488441626
  0
LWPOLYLINE
  5
229
100
AcDbEntity
  8
RACCORDO
100
AcDbPolyline
 62
7
  6
CONTINUOUS
 90
3
 70
0
 10
-14.1550476842
 20
38.0896266682
 10
-14.2026483298
 20
38.0442812323
 10
-14.2269217944
 20
38.02075562
  0
LWPOLYLINE
  5
22A
100
AcDbEntity
  8
RACCORDO
100
AcDbPolyline
 62
7
  6
CONTINUOUS
 90
3
 70
0
 10
-14.0892819367
 20
38.1504216707
 10
-14.1322296352
 20
38.1110464655
 10
-14.1550476842
 20
38.0896266682
  0
LINE
  5
22B
100
AcDbEntity
  8
RACCORDO
100
AcDbLine
 62
7
  6
CONTINUOUS
 10
-14.0696665377
 20
38.167931029
 11
-14.0892819367
 21
38.1504216707
  0
LINE
  5
22C
100
AcDbEntity
  8
0
100
AcDbLine
 62
7
  6
CONTINUOUS
 10
14.0
 20
-38.2463841404
 11
13.2
 21
-38.2463841404
  0
LINE
  5
22D
100
AcDbEntity
  8
0
100
AcDbLine
 62
7
  6
CONTINUOUS
 10
-13.2
 20
-38.2463841404
 11
-14.0
 21
-38.2463841404
  0
LINE
  5
22E
100
AcDbEntity
  8
RACCORDO
100
AcDbLine
 62
250
  6
CONTINUOUS
 10
13.2
 20
-38.2243855672
 11
11.7
 21
-38.2243855672
  0
LINE
  5
22F
100
AcDbEntity
  8
RACCORDO
100
AcDbLine
 62
250
  6
CONTINUOUS
 10
8.5
 20
-38.2243855672
 11
4.5
 21
-38.2243855672
  0
LINE
  5
230
100
AcDbEntity
  8
RACCORDO
100
AcDbLine
 62
250
  6
CONTINUOUS
 10
3.5
 20
-38.2243855672
 11
-3.5
 21
-38.2243855672
  0
LINE
  5
231
100
AcDbEntity
  8
RACCORDO
100
AcDbLine
 62
250
  6
CONTINUOUS
 10
-4.5
 20
-38.2243855672
 11
-8.5
 21
-38.2243855672
  0
LINE
  5
232
100
AcDbEntity
  8
RACCORDO
100
AcDbLine
 62
250
  6
CONTINUOUS
 10
-11.7
 20
-38.2243855672
 11
-13.2
 21
-38.2243855672
  0
LINE
  5
233
100
AcDbEntity
  8
RACCORDO
100
AcDbLine
 62
250
  6
CONTINUOUS
 10
14.003284306
 20
-38.219864257
 11
17.9223339156
 21
-38.219864257
  0
LINE
  5
234
100
AcDbEntity
  8
RACCORDO
100
AcDbLine
 62
250
  6
CONTINUOUS
 10
-14.003284306
 20
-38.219864257
 11
-17.9223339156
 21
-38.219864257
  0
LINE
  5
235
100
AcDbEntity
  8
RACCORDO
100
AcDbLine
 62
250
  6
CONTINUOUS
 10
14.3
 20
-37.9488441626
 11
17.9223326174
 21
-37.9488441626
  0
LINE
  5
236
100
AcDbEntity
  8
RACCORDO
100
AcDbLine
 62
250
  6
CONTINUOUS
 10
-14.3
 20
-37.9488441626
 11
-17.9223325978
 21
-37.9488441626
  0
LINE
  5
237
100
AcDbEntity
  8
RACCORDO
100
AcDbLine
 62
250
  6
CONTINUOUS
 10
13.2
 20
-37.9117031858
 11
11.7
 21
-37.9117031858
  0
LINE
  5
238
100
AcDbEntity
  8
RACCORDO
100
AcDbLine
 62
250
  6
CONTINUOUS
 10
8.5
 20
-37.9117031858
 11
4.5
 21
-37.9117031858
  0
LINE
  5
239
100
AcDbEntity
  8
RACCORDO
100
AcDbLine
 62
250
  6
CONTINUOUS
 10
3.5
 20
-37.9117031858
 11
-3.5
 21
-37.9117031858
  0
LINE
  5
23A
100
AcDbEntity
  8
RACCORDO
100
AcDbLine
 62
250
  6
CONTINUOUS
 10
-4.5
 20
-37.9117031858
 11
-8.5
 21
-37.9117031858
  0
LINE
  5
23B
100
AcDbEntity
  8
RACCORDO
100
AcDbLine
 62
250
  6
CONTINUOUS
 10
-11.7
 20
-37.9117031858
 11
-13.2
 21
-37.9117031858
  0
LINE
  5
23C
100
AcDbEntity
  8
0
100
AcDbLine
 62
7
  6
CONTINUOUS
 10
10.7
 20
-37.5
 11
9.5
 21
-37.5
  0
LINE
  5
23D
100
AcDbEntity
  8
RACCORDO
100
AcDbLine
 62
250
  6
CONTINUOUS
 10
4.5
 20
-37.5
 11
3.6749773271
 21
-37.5
  0
LINE
  5
23E
100
AcDbEntity
  8
RACCORDO
100
AcDbLine
 62
250
  6
CONTINUOUS
 10
-3.6749773271
 20
-37.5
 11
-4.5
 21
-37.5
  0
LINE
  5
23F
100
AcDbEntity
  8
0
100
AcDbLine
 62
7
  6
CONTINUOUS
 10
-9.5
 20
-37.5
 11
-10.7
 21
-37.5
  0
LINE
  5
240
100
AcDbEntity
  8
0
100
AcDbLine
 62
7
  6
CONTINUOUS
 10
-11.7
 20
-36.8
 11
-10.7
 21
-36.8
  0
LINE
  5
241
100
AcDbEntity
  8
0
100
AcDbLine
 62
7
  6
CONTINUOUS
 10
11.7
 20
-36.8
 11
10.7
 21
-36.8
  0
LINE
  5
242
100
AcDbEntity
  8
0
100
AcDbLine
 62
7
  6
CONTINUOUS
 10
-9.5
 20
-36.8
 11
-8.5
 21
-36.8
  0
LINE
  5
243
100
AcDbEntity
  8
0
100
AcDbLine
 62
7
  6
CONTINUOUS
 10
9.5
 20
-36.8
 11
8.5
 21
-36.8
  0
LINE
  5
244
100
AcDbEntity
  8
RACCORDO
100
AcDbLine
 62
7
  6
CONTINUOUS
 10
4.5
 20
-36.7
 11
3.5
 21
-36.7
  0
LINE
  5
245
100
AcDbEntity
  8
RACCORDO
100
AcDbLine
 62
7
  6
CONTINUOUS
 10
-3.5
 20
-36.7
 11
-4.5
 21
-36.7
  0
LINE
  5
246
100
AcDbEntity
  8
0
100
AcDbLine
 62
7
  6
CONTINUOUS
 10
-11.7
 20
-36.0
 11
-10.7
 21
-36.0
  0
LINE
  5
247
100
AcDbEntity
  8
0
100
AcDbLine
 62
7
  6
CONTINUOUS
 10
11.7
 20
-36.0
 11
10.7
 21
-36.0
  0
LINE
  5
248
100
AcDbEntity
  8
0
100
AcDbLine
 62
7
  6
CONTINUOUS
 10
-9.5
 20
-36.0
 11
-8.5
 21
-36.0
  0
LINE
  5
249
100
AcDbEntity
  8
0
100
AcDbLine
 62
7
  6
CONTINUOUS
 10
9.5
 20
-36.0
 11
8.5
 21
-36.0
  0
LWPOLYLINE
  5
24A
100
AcDbEntity
  8
RACCORDO
100
AcDbPolyline
 62
250
  6
CONTINUOUS
 90
13
 70
0
 10
-17.9223339156
 20
-37.9488441626
 10
-17.9601990408
 20
-37.9484274445
 10
-17.9974585093
 20
-37.9475604342
 10
-18.0335163517
 20
-37.9462570086
 10
-18.0677958189
 20
-37.9445380256
 10
-18.099748607
 20
-37.9424309839
 10
-18.1288636275
 20
-37.9399695832
 10
-18.1546751825
 20
-37.9371931907
 10
-18.1767704133
 20
-37.9341462183
 10
-18.1947959042
 20
-37.9308774054
 10
-18.2084633357
 20
-37.9274390334
 10
-18.2175540955
 20
-37.9238860903
 10
-18.221922776
 20
-37.9202753966
  0
LWPOLYLINE
  5
24B
100
AcDbEntity
  8
RACCORDO
100
AcDbPolyline
 62
7
  6
CONTINUOUS
 90
3
 70
0
 10
-14.0354950581
 20
-38.1970966195
 10
-14.0696665377
 20
-38.167931029
 10
-14.0892819367
 20
-38.1504216707
  0
LINE
  5
24C
100
AcDbEntity
  8
RACCORDO
100
AcDbLine
 62
7
  6
CONTINUOUS
 10
-14.0892819367
 20
-38.1504216707
 11
-14.1322296352
 21
-38.1110464655
  0
LWPOLYLINE
  5
24D
100
AcDbEntity
  8
RACCORDO
100
AcDbPolyline
 62
7
  6
CONTINUOUS
 90
3
 70
0
 10
-14.1322296352
 20
-38.1110464655
 10
-14.1550476842
 20
-38.0896266682
 10
-14.2026483298
 20
-38.0442812323
  0
LINE
  5
24E
100
AcDbEntity
  8
RACCORDO
100
AcDbLine
 62
7
  6
CONTINUOUS
 10
-14.2026483298
 20
-38.0442812323
 11
-14.2269217944
 21
-38.02075562
  0
LINE
  5
24F
100
AcDbEntity
  8
RACCORDO
100
AcDbLine
 62
7
  6
CONTINUOUS
 10
-14.2269217944
 20
-38.02075562
 11
-14.3
 21
-37.9488441626
  0
LINE
  5
250
100
AcDbEntity
  8
0
100
AcDbLine
 62
7
  6
CONTINUOUS
 10
3.6749773271
 20
40.0
 11
3.5
 21
39.8951844414
  0
LINE
  5
251
100
AcDbEntity
  8
0
100
AcDbLine
 62
7
  6
CONTINUOUS
 10
-3.966055
 20
35.790917
 11
-2.917751
 21
36.24605
  0
LINE
  5
252
100
AcDbEntity
  8
0
100
AcDbLine
 62
7
  6
CONTINUOUS
 10
-4.201616
 20
34.896037
 11
-3.149695
 21
35.352739
  0
LINE
  5
253
100
AcDbEntity
  8
0
100
AcDbLine
 62
7
  6
CONTINUOUS
 10
-1.074773
 20
35.80231
 11
-0.052708
 21
36.24605
  0
LINE
  5
254
100
AcDbEntity
  8
0
100
AcDbLine
 62
7
  6
CONTINUOUS
 10
-4.375444
 20
34.283053
 11
-3.306991
 21
34.746933
  0
LINE
  5
255
100
AcDbEntity
  8
IMPORT
100
AcDbLine
 62
7
  6
CONTINUOUS
 10
1.157055
 20
-34.875
 11
2.617556
 21
-34.875
  0
LINE
  5
256
100
AcDbEntity
  8
IMPORT
100
AcDbLine
 62
7
  6
CONTINUOUS
 10
1.157051888
 20
-34.125
 11
2.617556
 21
-34.125
  0
LINE
  5
257
100
AcDbEntity
  8
0
100
AcDbLine
 62
7
  6
CONTINUOUS
 10
14.0
 20
-33.4
 11
13.2
 21
-33.4
  0
LINE
  5
258
100
AcDbEntity
  8
0
100
AcDbLine
 62
7
  6
CONTINUOUS
 10
-13.2
 20
-33.4
 11
-14.0
 21
-33.4
  0
LINE
  5
259
100
AcDbEntity
  8
0
100
AcDbLine
 62
7
  6
CONTINUOUS
 10
3.6749773271
 20
-40.0
 11
3.5
 21
-39.8951844414
  0
LINE
  5
25A
100
AcDbEntity
  8
0
100
AcDbLine
 62
7
  6
CONTINUOUS
 10
0.523187
 20
33.054685
 11
1.035156
 21
33.276961
  0
LINE
  5
25B
100
AcDbEntity
  8
0
100
AcDbLine
 62
7
  6
CONTINUOUS
 10
0.3956371095
 20
32.6013610476
 11
1.983772
 21
33.290866
  0
LINE
  5
25C
100
AcDbEntity
  8
0
100
AcDbLine
 62
7
  6
CONTINUOUS
 10
2.490785
 20
33.510991
 11
3.4529366796
 21
33.9287192951
  0
LINE
  5
25D
100
AcDbEntity
  8
0
100
AcDbLine
 62
7
  6
CONTINUOUS
 10
4.41157
 20
-30.906117
 11
5.593816
 21
-30.906117
  0
LINE
  5
25E
100
AcDbEntity
  8
0
100
AcDbLine
 62
7
  6
CONTINUOUS
 10
4.41157
 20
-30.489452
 11
4.780825
 21
-30.489452
  0
LINE
  5
25F
100
AcDbEntity
  8
0
100
AcDbLine
 62
7
  6
CONTINUOUS
 10
5.224704
 20
-30.489452
 11
5.593816
 21
-30.489452
  0
LINE
  5
260
100
AcDbEntity
  8
0
100
AcDbLine
 62
7
  6
CONTINUOUS
 10
0.7895517306
 20
32.262624883
 11
1.834599
 21
32.716343
  0
LINE
  5
261
100
AcDbEntity
  8
0
100
AcDbLine
 62
7
  6
CONTINUOUS
 10
2.341613
 20
32.936468
 11
3.901419
 21
33.613674
  0
LINE
  5
262
100
AcDbEntity
  8
0
100
AcDbLine
 62
7
  6
CONTINUOUS
 10
3.295642
 20
32.995
 11
3.797337
 21
33.212816
  0
LINE
  5
263
100
AcDbEntity
  8
0
100
AcDbLine
 62
7
  6
CONTINUOUS
 10
4.425177
 20
-27.529254
 11
4.780825
 21
-27.529254
  0
LINE
  5
264
100
AcDbEntity
  8
0
100
AcDbLine
 62
7
  6
CONTINUOUS
 10
5.224704
 20
-27.529254
 11
5.580209
 21
-27.529254
  0
LINE
  5
265
100
AcDbEntity
  8
0
100
AcDbLine
 62
7
  6
CONTINUOUS
 10
4.425177
 20
-27.110297
 11
5.580209
 21
-27.110297
  0
LWPOLYLINE
  5
266
100
AcDbEntity
  8
0
100
AcDbPolyline
 62
7
  6
CONTINUOUS
 90
19
 70
0
 10
-3.727991
 20
25.6492138139
 10
-3.688585784
 20
25.6682383063
 10
-3.6497999166
 20
25.6882938232
 10
-3.6116333977
 20
25.7093804958
 10
-3.5740515565
 20
25.7314824177
 10
-3.5370890639
 20
25.7546157757
 10
-3.5008499322
 20
25.7788288571
 10
-3.4653452843
 20
25.8041433758
 10
-3.4305639974
 20
25.8305379561
 10
-3.3965767153
 20
25.8579962662
 10
-3.3632913906
 20
25.8864903613
 10
-3.3308000707
 20
25.9160485533
 10
-3.2994495419
 20
25.9467389145
 10
-3.2691466316
 20
25.9784774366
 10
-3.2399845123
 20
26.0113485529
 10
-3.2125894879
 20
26.0456730881
 10
-3.1871703265
 20
26.081558222
 10
-3.16351826
 20
26.1188974158
 10
-3.1416332884
 20
26.157691
  0
LWPOLYLINE
  5
267
100
AcDbEntity
  8
0
100
AcDbPolyline
 62
7
  6
CONTINUOUS
 90
21
 70
0
 10
-4.1956560369
 20
-25.653534
 10
-4.1476320203
 20
-25.6498278373
 10
-4.1016163981
 20
-25.6421573266
 10
-4.0576091704
 20
-25.6305226634
 10
-4.0153407289
 20
-25.6147021518
 10
-3.9750806819
 20
-25.5949182009
 10
-3.9376378539
 20
-25.5718372321
 10
-3.903149012
 20
-25.5453458067
 10
-3.8714773892
 20
-25.5155584344
 10
-3.843021509
 20
-25.4834832896
 10
-3.8179963252
 20
-25.449153515
 10
-3.7961868839
 20
-25.4125369596
 10
-3.7773468474
 20
-25.3745435023
 10
-3.7617321238
 20
-25.3351902268
 10
-3.7490868049
 20
-25.2944607593
 10
-3.7383968286
 20
-25.2532143687
 10
-3.7293767057
 20
-25.2116117154
 10
-3.7223119253
 20
-25.1694924126
 10
-3.7170448927
 20
-25.1272338287
 10
-3.7135230765
 20
-25.0849617398
 10
-3.7117990082
 20
-25.0425504467
  0
LINE
  5
268
100
AcDbEntity
  8
RACCORDO
100
AcDbLine
 62
7
  6
CONTINUOUS
 10
18.5
 20
-26.4
 11
16.75
 21
-26.4
  0
LINE
  5
269
100
AcDbEntity
  8
0
100
AcDbLine
 62
7
  6
CONTINUOUS
 10
14.0
 20
-26.4
 11
16.75
 21
-26.4
  0
LINE
  5
26A
100
AcDbEntity
  8
0
100
AcDbLine
 62
7
  6
CONTINUOUS
 10
-14.0
 20
-26.4
 11
-16.75
 21
-26.4
  0
LINE
  5
26B
100
AcDbEntity
  8
RACCORDO
100
AcDbLine
 62
7
  6
CONTINUOUS
 10
-16.75
 20
-26.4
 11
-18.5
 21
-26.4
  0
LINE
  5
26C
100
AcDbEntity
  8
0
100
AcDbLine
 62
7
  6
CONTINUOUS
 10
7.807603
 20
-25.85
 11
7.578004
 21
-25.85
  0
LINE
  5
26D
100
AcDbEntity
  8
0
100
AcDbLine
 62
7
  6
CONTINUOUS
 10
6.858271
 20
-25.85
 11
5.766641
 21
-25.85
  0
LINE
  5
26E
100
AcDbEntity
  8
0
100
AcDbLine
 62
7
  6
CONTINUOUS
 10
5.556014
 20
-25.85
 11
5.304967
 21
-25.85
  0
LINE
  5
26F
100
AcDbEntity
  8
0
100
AcDbLine
 62
7
  6
CONTINUOUS
 10
4.277309
 20
-25.85
 11
4.040574
 21
-25.85
  0
LINE
  5
270
100
AcDbEntity
  8
0
100
AcDbLine
 62
7
  6
CONTINUOUS
 10
3.398905
 20
-25.85
 11
3.169264
 21
-25.85
  0
LINE
  5
271
100
AcDbEntity
  8
0
100
AcDbLine
 62
7
  6
CONTINUOUS
 10
2.347641
 20
-25.85
 11
2.117917
 21
-25.85
  0
LINE
  5
272
100
AcDbEntity
  8
0
100
AcDbLine
 62
7
  6
CONTINUOUS
 10
1.064316
 20
-25.85
 11
0.806243
 21
-25.85
  0
LINE
  5
273
100
AcDbEntity
  8
0
100
AcDbLine
 62
7
  6
CONTINUOUS
 10
-0.06273
 20
-25.85
 11
-0.285386
 21
-25.85
  0
LINE
  5
274
100
AcDbEntity
  8
0
100
AcDbLine
 62
7
  6
CONTINUOUS
 10
-0.678373
 20
-25.85
 11
-0.908028
 21
-25.85
  0
LINE
  5
275
100
AcDbEntity
  8
0
100
AcDbLine
 62
7
  6
CONTINUOUS
 10
-1.902511
 20
-25.85
 11
-3.157472
 21
-25.85
  0
LINE
  5
276
100
AcDbEntity
  8
0
100
AcDbLine
 62
7
  6
CONTINUOUS
 10
-4.1898182814
 20
-25.85
 11
-4.878851
 21
-25.85
  0
LINE
  5
277
100
AcDbEntity
  8
0
100
AcDbLine
 62
7
  6
CONTINUOUS
 10
-5.101398
 20
-25.85
 11
-5.352404
 21
-25.85
  0
LINE
  5
278
100
AcDbEntity
  8
0
100
AcDbLine
 62
7
  6
CONTINUOUS
 10
-6.379965
 20
-25.85
 11
-6.616714
 21
-25.85
  0
LINE
  5
279
100
AcDbEntity
  8
0
100
AcDbLine
 62
7
  6
CONTINUOUS
 10
-6.820343
 20
-25.85
 11
-7.042986
 21
-25.85
  0
LINE
  5
27A
100
AcDbEntity
  8
0
100
AcDbLine
 62
7
  6
CONTINUOUS
 10
-7.521208
 20
-25.85
 11
-7.748516
 21
-25.85
  0
LINE
  5
27B
100
AcDbEntity
  8
0
100
AcDbLine
 62
7
  6
CONTINUOUS
 10
-8.22683
 20
-25.85
 11
-8.449383
 21
-25.85
  0
LINE
  5
27C
100
AcDbEntity
  8
0
100
AcDbLine
 62
7
  6
CONTINUOUS
 10
-4.1956560369
 20
-25.653534
 11
-4.649114
 21
-25.653534
  0
LINE
  5
27D
100
AcDbEntity
  8
0
100
AcDbLine
 62
7
  6
CONTINUOUS
 10
6.858271
 20
-25.646385
 11
5.996378
 21
-25.646385
  0
LINE
  5
27E
100
AcDbEntity
  8
0
100
AcDbLine
 62
7
  6
CONTINUOUS
 10
-1.902511
 20
-25.646385
 11
-2.927749
 21
-25.646385
  0
LINE
  5
27F
100
AcDbEntity
  8
0
100
AcDbLine
 62
7
  6
CONTINUOUS
 10
14.0
 20
-25.6
 11
16.75
 21
-25.6
  0
LINE
  5
280
100
AcDbEntity
  8
0
100
AcDbLine
 62
7
  6
CONTINUOUS
 10
-14.0
 20
-25.6
 11
-16.75
 21
-25.6
  0
LINE
  5
281
100
AcDbEntity
  8
RACCORDO
100
AcDbLine
 62
7
  6
CONTINUOUS
 10
16.75
 20
-25.6
 11
18.5
 21
-25.6
  0
LINE
  5
282
100
AcDbEntity
  8
RACCORDO
100
AcDbLine
 62
7
  6
CONTINUOUS
 10
-16.75
 20
-25.6
 11
-18.4580737766
 21
-25.6
  0
LINE
  5
283
100
AcDbEntity
  8
0
100
AcDbLine
 62
7
  6
CONTINUOUS
 10
5.136864
 20
-25.355192
 11
4.454926
 21
-25.355192
  0
LINE
  5
284
100
AcDbEntity
  8
0
100
AcDbLine
 62
7
  6
CONTINUOUS
 10
-5.520493
 20
-25.355192
 11
-6.202363
 21
-25.355192
  0
LINE
  5
285
100
AcDbEntity
  8
0
100
AcDbLine
 62
7
  6
CONTINUOUS
 10
5.053975
 20
-25.151577
 11
4.525964
 21
-25.151577
  0
LINE
  5
286
100
AcDbEntity
  8
0
100
AcDbLine
 62
7
  6
CONTINUOUS
 10
-5.6033
 20
-25.151577
 11
-6.13131
 21
-25.151577
  0
LINE
  5
287
100
AcDbEntity
  8
0
100
AcDbLine
 62
7
  6
CONTINUOUS
 10
-1.997238
 20
-25.07816
 11
-2.927749
 21
-25.07816
  0
LINE
  5
288
100
AcDbEntity
  8
0
100
AcDbLine
 62
7
  6
CONTINUOUS
 10
-1.997238
 20
-24.874545
 11
-2.927749
 21
-24.874545
  0
LINE
  5
289
100
AcDbEntity
  8
0
100
AcDbLine
 62
7
  6
CONTINUOUS
 10
3.974279
 20
-24.353615
 11
3.398905
 21
-24.353615
  0
LINE
  5
28A
100
AcDbEntity
  8
0
100
AcDbLine
 62
7
  6
CONTINUOUS
 10
3.169264
 20
-24.353615
 11
2.59389
 21
-24.353615
  0
LINE
  5
28B
100
AcDbEntity
  8
0
100
AcDbLine
 62
7
  6
CONTINUOUS
 10
-1.919105
 20
-24.353615
 11
-2.927749
 21
-24.353615
  0
LINE
  5
28C
100
AcDbEntity
  8
0
100
AcDbLine
 62
7
  6
CONTINUOUS
 10
-4.1956560369
 20
-24.346466
 11
-4.649114
 21
-24.346466
  0
LINE
  5
28D
100
AcDbEntity
  8
0
100
AcDbLine
 62
7
  6
CONTINUOUS
 10
8.449383
 20
-24.15
 11
8.179362
 21
-24.15
  0
LINE
  5
28E
100
AcDbEntity
  8
0
100
AcDbLine
 62
7
  6
CONTINUOUS
 10
7.203908
 20
-24.15
 11
6.936362
 21
-24.15
  0
LINE
  5
28F
100
AcDbEntity
  8
0
100
AcDbLine
 62
7
  6
CONTINUOUS
 10
5.996378
 20
-24.15
 11
5.766641
 21
-24.15
  0
LINE
  5
290
100
AcDbEntity
  8
0
100
AcDbLine
 62
7
  6
CONTINUOUS
 10
4.940316
 20
-24.15
 11
4.679906
 21
-24.15
  0
LINE
  5
291
100
AcDbEntity
  8
0
100
AcDbLine
 62
7
  6
CONTINUOUS
 10
3.974279
 20
-24.15
 11
2.59389
 21
-24.15
  0
LINE
  5
292
100
AcDbEntity
  8
0
100
AcDbLine
 62
7
  6
CONTINUOUS
 10
2.347641
 20
-24.15
 11
2.117917
 21
-24.15
  0
LINE
  5
293
100
AcDbEntity
  8
0
100
AcDbLine
 62
7
  6
CONTINUOUS
 10
1.064316
 20
-24.15
 11
0.841769
 21
-24.15
  0
LINE
  5
294
100
AcDbEntity
  8
0
100
AcDbLine
 62
7
  6
CONTINUOUS
 10
-0.013043
 20
-24.15
 11
-0.285386
 21
-24.15
  0
LINE
  5
295
100
AcDbEntity
  8
0
100
AcDbLine
 62
7
  6
CONTINUOUS
 10
-0.678373
 20
-24.15
 11
-0.908028
 21
-24.15
  0
LINE
  5
296
100
AcDbEntity
  8
0
100
AcDbLine
 62
7
  6
CONTINUOUS
 10
-1.919105
 20
-24.15
 11
-3.157472
 21
-24.15
  0
LINE
  5
297
100
AcDbEntity
  8
0
100
AcDbLine
 62
7
  6
CONTINUOUS
 10
-4.1825902662
 20
-24.15
 11
-4.878851
 21
-24.15
  0
LINE
  5
298
100
AcDbEntity
  8
0
100
AcDbLine
 62
7
  6
CONTINUOUS
 10
-5.716972
 20
-24.15
 11
-5.977465
 21
-24.15
  0
LINE
  5
299
100
AcDbEntity
  8
0
100
AcDbLine
 62
7
  6
CONTINUOUS
 10
-6.820343
 20
-24.15
 11
-7.147131
 21
-24.15
  0
LINE
  5
29A
100
AcDbEntity
  8
0
100
AcDbLine
 62
7
  6
CONTINUOUS
 10
-8.12026
 20
-24.15
 11
-8.449383
 21
-24.15
  0
LWPOLYLINE
  5
29B
100
AcDbEntity
  8
0
100
AcDbPolyline
 62
7
  6
CONTINUOUS
 90
19
 70
0
 10
-4.1825902662
 20
-24.15
 10
-4.0990277711
 20
-24.1557835414
 10
-4.0210691519
 20
-24.1683196834
 10
-3.9487144085
 20
-24.1876090233
 10
-3.8821294388
 20
-24.2142336858
 10
-3.8211483449
 20
-24.2476137892
 10
-3.7652734333
 20
-24.2860069914
 10
-3.7142892364
 20
-24.3292731344
 10
-3.6684112218
 20
-24.3775551958
 10
-3.6277880991
 20
-24.4295349432
 10
-3.5927587096
 20
-24.48533997
 10
-3.562984212
 20
-24.5448454345
 10
-3.5375967911
 20
-24.6063534436
 10
-3.5163110055
 20
-24.6698200931
 10
-3.4994122966
 20
-24.7352909204
 10
-3.4868891744
 20
-24.8012008351
 10
-3.4787378087
 20
-24.867027933
 10
-3.4749620297
 20
-24.9332942703
 10
-3.4755618373
 20
-25.0
  0
LWPOLYLINE
  5
29C
100
AcDbEntity
  8
RACCORDO
100
AcDbPolyline
 62
250
  6
CONTINUOUS
 90
13
 70
0
 10
-18.221922776
 20
37.9202753966
 10
-18.2192617466
 20
37.9593119376
 10
-18.2115378772
 20
37.9976828767
 10
-18.1988828656
 20
38.0347339608
 10
-18.181512489
 20
38.0698334413
 10
-18.1597229253
 20
38.1023828462
 10
-18.1338857028
 20
38.1318271838
 10
-18.1044413652
 20
38.1576644063
 10
-18.0718919603
 20
38.17945397
 10
-18.0367924798
 20
38.1968243466
 10
-17.9997413957
 20
38.2094793583
 10
-17.9613704566
 20
38.2172032276
 10
-17.9223339156
 20
38.219864257
  0
LWPOLYLINE
  5
29D
100
AcDbEntity
  8
0
100
AcDbPolyline
 62
7
  6
CONTINUOUS
 90
10
 70
0
 10
-3.230122
 20
25.7086186138
 10
-3.2771810817
 20
25.6680679385
 10
-3.3264646411
 20
25.629319031
 10
-3.3779726782
 20
25.5923714518
 10
-3.4319179312
 20
25.5572129834
 10
-3.4880876619
 20
25.5238550224
 10
-3.5458436556
 20
25.4923325711
 10
-3.6049731741
 20
25.4626570536
 10
-3.6656889555
 20
25.4348163244
 10
-3.727991
 20
25.4088100545
  0
LINE
  5
29E
100
AcDbEntity
  8
0
100
AcDbLine
 62
7
  6
CONTINUOUS
 10
-13.2
 20
-23.3
 11
13.2
 21
-23.3
  0
LINE
  5
29F
100
AcDbEntity
  8
0
100
AcDbLine
 62
7
  6
CONTINUOUS
 10
-14.0
 20
-22.9081286337
 11
14.0
 21
-22.9081286337
  0
LINE
  5
2A0
100
AcDbEntity
  8
0
100
AcDbLine
 62
7
  6
CONTINUOUS
 10
-14.0
 20
-22.5
 11
14.0
 21
-22.5
  0
LINE
  5
2A1
100
AcDbEntity
  8
RACCORDO
100
AcDbLine
 62
250
  6
CONTINUOUS
 10
-18.2219224042
 20
37.9202750248
 11
-18.1952688439
 21
32.1634350521
  0
LINE
  5
2A2
100
AcDbEntity
  8
RACCORDO
100
AcDbLine
 62
250
  6
CONTINUOUS
 10
-17.922332567
 20
37.9488441626
 11
-17.895641992
 21
32.1787133925
  0
LINE
  5
2A3
100
AcDbEntity
  8
RACCORDO
100
AcDbLine
 62
250
  6
CONTINUOUS
 10
-18.1952688439
 20
32.1634350521
 11
-18.1729938056
 21
26.4
  0
LINE
  5
2A4
100
AcDbEntity
  8
RACCORDO
100
AcDbLine
 62
250
  6
CONTINUOUS
 10
-17.895641992
 20
32.1787133925
 11
-17.8733327553
 21
26.4
  0
LWPOLYLINE
  5
2A5
100
AcDbEntity
  8
RACCORDO
100
AcDbPolyline
 62
250
  6
CONTINUOUS
 90
7
 70
0
 10
-18.1702511796
 20
25.6
 10
-18.1572522546
 20
21.4049748567
 10
-18.146575666
 20
17.2079597707
 10
-18.1382214137
 20
13.008954742
 10
-18.1321894979
 20
8.8079597707
 10
-18.1284799183
 20
4.6049748567
 10
-18.1270926752
 20
0.4
  0
LWPOLYLINE
  5
2A6
100
AcDbEntity
  8
RACCORDO
100
AcDbPolyline
 62
250
  6
CONTINUOUS
 90
7
 70
0
 10
-17.8705952248
 20
25.6
 10
-17.8576167684
 20
21.4057310994
 10
-17.8469569328
 20
17.2085480371
 10
-17.8386157179
 20
13.0089166931
 10
-17.8325931238
 20
8.8073035164
 10
-17.8288891504
 20
4.6041754743
 10
-17.8275037978
 20
0.4
  0
LINE
  5
2A7
100
AcDbEntity
  8
RACCORDO
100
AcDbLine
 62
7
  6
CONTINUOUS
 10
-20.0
 20
38.8016445583
 11
-20.0
 21
-38.8016445583
  0
LINE
  5
2A8
100
AcDbEntity
  8
RACCORDO
100
AcDbLine
 62
7
  6
CONTINUOUS
 10
-18.5
 20
38.1983526206
 11
-18.5
 21
26.4
  0
LINE
  5
2A9
100
AcDbEntity
  8
DRAFT
100
AcDbLine
 62
7
  6
CONTINUOUS
 10
-18.5
 20
25.6
 11
-18.5
 21
0.4
  0
LINE
  5
2AA
100
AcDbEntity
  8
RACCORDO
100
AcDbLine
 62
7
  6
CONTINUOUS
 10
-18.5
 20
-38.1983526206
 11
-18.5
 21
-0.4
  0
LINE
  5
2AB
100
AcDbEntity
  8
RACCORDO
100
AcDbLine
 62
250
  6
CONTINUOUS
 10
-17.9223339156
 20
38.219864257
 11
-17.9223339156
 21
37.9488441626
  0
LINE
  5
2AC
100
AcDbEntity
  8
RACCORDO
100
AcDbLine
 62
250
  6
CONTINUOUS
 10
-17.9223339156
 20
-37.9488441626
 11
-17.9223339156
 21
-38.219864257
  0
LINE
  5
2AD
100
AcDbEntity
  8
RACCORDO
100
AcDbLine
 62
250
  6
CONTINUOUS
 10
-17.55
 20
-0.4
 11
-17.55
 21
0.4
  0
LINE
  5
2AE
100
AcDbEntity
  8
RACCORDO
100
AcDbLine
 62
250
  6
CONTINUOUS
 10
-17.55
 20
25.6
 11
-17.55
 21
26.4
  0
LWPOLYLINE
  5
2AF
100
AcDbEntity
  8
RACCORDO
100
AcDbPolyline
 62
250
  6
CONTINUOUS
 90
7
 70
0
 10
-18.1270951244
 20
-0.4
 10
-18.1284810774
 20
-4.6049935122
 10
-18.1321898598
 20
-8.8079896196
 10
-18.1382214714
 20
-13.008988322
 10
-18.1465759122
 20
-17.2079896196
 10
-18.1572531824
 20
-21.4049935122
 10
-18.1702532818
 20
-25.6
  0
LWPOLYLINE
  5
2B0
100
AcDbEntity
  8
RACCORDO
100
AcDbPolyline
 62
250
  6
CONTINUOUS
 90
7
 70
0
 10
-17.8275062507
 20
-0.4
 10
-17.8288900588
 20
-4.6041852642
 10
-17.8325932245
 20
-8.8073191774
 10
-17.8386157481
 20
-13.0089343066
 10
-17.8469576295
 20
-17.2085636874
 10
-17.8576188687
 20
-21.4057408758
 10
-17.8705994657
 20
-25.6
  0
LINE
  5
2B1
100
AcDbEntity
  8
RACCORDO
100
AcDbLine
 62
250
  6
CONTINUOUS
 10
-18.203666862
 20
-34.0831143313
 11
-18.172993809
 21
-26.4
  0
LINE
  5
2B2
100
AcDbEntity
  8
RACCORDO
100
AcDbLine
 62
250
  6
CONTINUOUS
 10
-17.9040520414
 20
-34.1031040347
 11
-17.8733327617
 21
-26.4
  0
LINE
  5
2B3
100
AcDbEntity
  8
RACCORDO
100
AcDbLine
 62
250
  6
CONTINUOUS
 10
-18.2219224128
 20
-37.9202750334
 11
-18.203666862
 21
-34.0831143313
  0
LINE
  5
2B4
100
AcDbEntity
  8
RACCORDO
100
AcDbLine
 62
250
  6
CONTINUOUS
 10
-17.9223325978
 20
-37.9488441626
 11
-17.9040520414
 21
-34.1031040347
  0
LWPOLYLINE
  5
2B5
100
AcDbEntity
  8
0
100
AcDbPolyline
 62
7
  6
CONTINUOUS
 90
18
 70
0
 10
-2.8568848222
 20
34.4287076847
 10
-2.8353476185
 20
34.4693395372
 10
-2.8114963032
 20
34.5069070196
 10
-2.7853308763
 20
34.5414098
 10
-2.7566033514
 20
34.5728784686
 10
-2.725561715
 20
34.6012818607
 10
-2.6929499257
 20
34.6265270483
 10
-2.6587541608
 20
34.6483680636
 10
-2.622988243
 20
34.6670504483
 10
-2.5864375997
 20
34.683218607
 10
-2.5492247575
 20
34.6968562158
 10
-2.5112271897
 20
34.7079793914
 10
-2.472862743
 20
34.7172812809
 10
-2.4341911955
 20
34.7247552011
 10
-2.3951527692
 20
34.7304077514
 10
-2.3559859773
 20
34.7349520498
 10
-2.3167224245
 20
34.7383827373
 10
-2.2773305062
 20
34.7407051486
  0
LWPOLYLINE
  5
2B6
100
AcDbEntity
  8
0
100
AcDbPolyline
 62
7
  6
CONTINUOUS
 90
33
 70
0
 10
-2.1623272767
 20
25.8899300316
 10
-2.1209096582
 20
25.9426878445
 10
-2.0759002616
 20
25.9898781836
 10
-2.0268505128
 20
26.0311611587
 10
-1.9742089858
 20
26.0668734795
 10
-1.9202860216
 20
26.0964339195
 10
-1.8652639058
 20
26.1191457718
 10
-1.8089603527
 20
26.1357036583
 10
-1.7531388474
 20
26.1476137341
 10
-1.6977818839
 20
26.1549315325
 10
-1.6429069681
 20
26.1576009672
 10
-1.5903301022
 20
26.1569611485
 10
-1.540571036
 20
26.1532994682
 10
-1.4931100196
 20
26.1463286202
 10
-1.4482038057
 20
26.1365257731
 10
-1.405903777
 20
26.123833988
 10
-1.3661585509
 20
26.1083106028
 10
-1.329070732
 20
26.0906041935
 10
-1.2946886356
 20
26.0707173012
 10
-1.2629639464
 20
26.048647898
 10
-1.2338543238
 20
26.0250376015
 10
-1.2075404666
 20
25.9999694513
 10
-1.1838416758
 20
25.9733608731
 10
-1.1621735137
 20
25.9456049337
 10
-1.1424428472
 20
25.916775425
 10
-1.1247428094
 20
25.8867989614
 10
-1.1087683615
 20
25.8558477591
 10
-1.0943967882
 20
25.823826036
 10
-1.0817508048
 20
25.7908299847
 10
-1.070893519
 20
25.7573196646
 10
-1.0618459669
 20
25.7234484633
 10
-1.0545871124
 20
25.6890632033
 10
-1.0491169555
 20
25.6541640036
  0
LWPOLYLINE
  5
2B7
100
AcDbEntity
  8
0
100
AcDbPolyline
 62
7
  6
CONTINUOUS
 90
5
 70
0
 10
-1.9018167088
 20
25.140692926
 10
-1.9395069435
 20
25.1081765307
 10
-1.9727539478
 20
25.0716437797
 10
-2.0014373234
 20
25.0312392246
 10
-2.0256774685
 20
24.9868203656
  0
LINE
  5
2B8
100
AcDbEntity
  8
0
100
AcDbLine
 62
7
  6
CONTINUOUS
 10
4.780825
 20
-29.107969
 11
3.660464
 21
-28.163833
  0
LINE
  5
2B9
100
AcDbEntity
  8
0
100
AcDbLine
 62
7
  6
CONTINUOUS
 10
4.780825
 20
-28.591613
 11
3.608751
 21
-27.6039
  0
LINE
  5
2BA
100
AcDbEntity
  8
RACCORDO
100
AcDbLine
 62
7
  6
CONTINUOUS
 10
-16.75
 20
-25.6
 11
-16.75
 21
-26.4
  0
LINE
  5
2BB
100
AcDbEntity
  8
RACCORDO
100
AcDbLine
 62
7
  6
CONTINUOUS
 10
-16.75
 20
-0.4
 11
-16.75
 21
0.4
  0
LINE
  5
2BC
100
AcDbEntity
  8
RACCORDO
100
AcDbLine
 62
7
  6
CONTINUOUS
 10
-16.75
 20
25.6
 11
-16.75
 21
26.4
  0
LWPOLYLINE
  5
2BD
100
AcDbEntity
  8
0
100
AcDbPolyline
 62
7
  6
CONTINUOUS
 90
19
 70
0
 10
-0.025153376
 20
34.4734465517
 10
-0.0067748083
 20
34.5059679842
 10
0.0138877738
 20
34.5358202248
 10
0.0368343704
 20
34.5630030463
 10
0.0624573083
 20
34.5873685902
 10
0.0903642607
 20
34.6090643187
 10
0.1193782464
 20
34.6285330438
 10
0.1493530505
 20
34.6456865026
 10
0.1804348881
 20
34.6606127276
 10
0.2118854232
 20
34.6740190509
 10
0.2435176511
 20
34.6859630625
 10
0.2755185766
 20
34.6963870672
 10
0.3077108782
 20
34.705825524
 10
0.3400087007
 20
34.7143045268
 10
0.3724978993
 20
34.7217979336
 10
0.4052587186
 20
34.7287618779
 10
0.4383179067
 20
34.7353484018
 10
0.4716487155
 20
34.7414054454
 10
0.505251145
 20
34.746933
  0
LWPOLYLINE
  5
2BE
100
AcDbEntity
  8
0
100
AcDbPolyline
 62
7
  6
CONTINUOUS
 90
4
 70
0
 10
-1.951944783
 20
25.7888056183
 10
-1.976465525
 20
25.753305002
 10
-1.9981557166
 20
25.7173365348
 10
-2.017183227
 20
25.6811785163
  0
LWPOLYLINE
  5
2BF
100
AcDbEntity
  8
0
100
AcDbPolyline
 62
7
  6
CONTINUOUS
 90
28
 70
0
 10
-2.1070882052
 20
25.1698208223
 10
-2.0670874772
 20
25.224760845
 10
-2.0221754845
 20
25.2738607436
 10
-1.972352227
 20
25.3171186103
 10
-1.9169061394
 20
25.3550936235
 10
-1.856548787
 20
25.3872235694
 10
-1.7934148662
 20
25.4118244511
 10
-1.7273096013
 20
25.4284825112
 10
-1.6584277679
 20
25.4376094406
 10
-1.589488389
 20
25.4387595977
 10
-1.520476865
 20
25.4320194066
 10
-1.4514077956
 20
25.4173027325
 10
-1.3850440027
 20
25.3939057592
 10
-1.3214694076
 20
25.3612944214
 10
-1.260600089
 20
25.3200060313
 10
-1.2049471052
 20
25.2709444127
 10
-1.1542041333
 20
25.2137379568
 10
-1.1086774963
 20
25.1487638408
 10
-1.0717972215
 20
25.0780485826
 10
-1.0446443595
 20
25.000716927
 10
-1.0261378599
 20
24.9176502007
 10
-1.0164645988
 20
24.8335067242
 10
-1.0159716374
 20
24.74815667
 10
-1.0243119145
 20
24.6617313306
 10
-1.040631123
 20
24.579275209
 10
-1.0653671603
 20
24.5015356423
 10
-1.098082129
 20
24.4277608029
 10
-1.1366080301
 20
24.3607422128
  0
LWPOLYLINE
  5
2C0
100
AcDbEntity
  8
0
100
AcDbPolyline
 62
7
  6
CONTINUOUS
 90
41
 70
0
 10
-1.1366080301
 20
24.3607422128
 10
-1.1805828562
 20
24.3011867534
 10
-1.2303686147
 20
24.2483814549
 10
-1.2848833285
 20
24.2029868422
 10
-1.3444055814
 20
24.1650969077
 10
-1.4086567895
 20
24.1346133208
 10
-1.4757192247
 20
24.1119083597
 10
-1.5460990214
 20
24.0972946762
 10
-1.6192900451
 20
24.0904575393
 10
-1.6918561644
 20
24.090828739
 10
-1.7634986466
 20
24.0981825919
 10
-1.8345162244
 20
24.1127451718
 10
-1.9023689635
 20
24.1346264943
 10
-1.9669530249
 20
24.1643526322
 10
-2.0283722476
 20
24.2014002406
 10
-2.0843982139
 20
24.2443054009
 10
-2.1344229514
 20
24.2932747025
 10
-2.1790544324
 20
24.3481053494
 10
-2.2178881563
 20
24.406718519
 10
-2.2503975703
 20
24.4693033646
 10
-2.2771092271
 20
24.5356739062
 10
-2.2991982843
 20
24.6031867555
 10
-2.3164787913
 20
24.6712603906
 10
-2.3291366987
 20
24.7404771238
 10
-2.3389050161
 20
24.8099376967
 10
-2.3460310309
 20
24.8794707442
 10
-2.3502674557
 20
24.9492477076
 10
-2.3526054379
 20
25.0188829321
 10
-2.3533998273
 20
25.0882076133
 10
-2.352295774
 20
25.1573902723
 10
-2.3492198757
 20
25.2265511186
 10
-2.344434323
 20
25.2957489192
 10
-2.3376769253
 20
25.3649248074
 10
-2.3280877082
 20
25.4340225723
 10
-2.3157568933
 20
25.5035286384
 10
-2.300594259
 20
25.5729565592
 10
-2.2814691662
 20
25.6407901143
 10
-2.2582027148
 20
25.7073136192
 10
-2.230973805
 20
25.7722413751
 10
-2.1991884986
 20
25.833200519
 10
-2.1623272767
 20
25.8899300316
  0
LWPOLYLINE
  5
2C1
100
AcDbEntity
  8
0
100
AcDbPolyline
 62
7
  6
CONTINUOUS
 90
4
 70
0
 10
0.554813
 20
25.9314314203
 10
0.4918744903
 20
25.8592631725
 10
0.4317585641
 20
25.7851065601
 10
0.3744652215
 20
25.7089625781
  0
LWPOLYLINE
  5
2C2
100
AcDbEntity
  8
0
100
AcDbPolyline
 62
7
  6
CONTINUOUS
 90
5
 70
0
 10
2.8166216912
 20
25.140692926
 10
2.7789314565
 20
25.1081765307
 10
2.7456844522
 20
25.0716437797
 10
2.7170010766
 20
25.0312392246
 10
2.6927609315
 20
24.9868203656
  0
LINE
  5
2C3
100
AcDbEntity
  8
0
100
AcDbLine
 62
7
  6
CONTINUOUS
 10
-8.12026
 20
-24.15
 11
-7.632526
 21
-25.594181
  0
LINE
  5
2C4
100
AcDbEntity
  8
0
100
AcDbLine
 62
7
  6
CONTINUOUS
 10
-8.22683
 20
-24.424557
 11
-7.748516
 21
-25.85
  0
LINE
  5
2C5
100
AcDbEntity
  8
RACCORDO
100
AcDbLine
 62
250
  6
CONTINUOUS
 10
-14.3
 20
-37.9488441626
 11
-14.3
 21
-26.4
  0
LINE
  5
2C6
100
AcDbEntity
  8
RACCORDO
100
AcDbLine
 62
250
  6
CONTINUOUS
 10
-14.3
 20
-25.6
 11
-14.3
 21
-0.4
  0
LINE
  5
2C7
100
AcDbEntity
  8
RACCORDO
100
AcDbLine
 62
250
  6
CONTINUOUS
 10
-14.3
 20
0.4
 11
-14.3
 21
25.6
  0
LINE
  5
2C8
100
AcDbEntity
  8
RACCORDO
100
AcDbLine
 62
250
  6
CONTINUOUS
 10
-14.3
 20
26.4
 11
-14.3
 21
37.9488441626
  0
LINE
  5
2C9
100
AcDbEntity
  8
0
100
AcDbLine
 62
7
  6
CONTINUOUS
 10
-14.0
 20
-38.2463841404
 11
-14.0
 21
38.2463841404
  0
LINE
  5
2CA
100
AcDbEntity
  8
0
100
AcDbLine
 62
7
  6
CONTINUOUS
 10
-13.2
 20
-38.2463841404
 11
-13.2
 21
-23.3
  0
LINE
  5
2CB
100
AcDbEntity
  8
0
100
AcDbLine
 62
7
  6
CONTINUOUS
 10
-13.2
 20
23.3
 11
-13.2
 21
38.2463841404
  0
LINE
  5
2CC
100
AcDbEntity
  8
RACCORDO
100
AcDbLine
 62
7
  6
CONTINUOUS
 10
-12.5
 20
22.3
 11
-12.5
 21
-22.3
  0
LINE
  5
2CD
100
AcDbEntity
  8
0
100
AcDbLine
 62
7
  6
CONTINUOUS
 10
-11.7
 20
38.497941481
 11
-11.7
 21
36.0
  0
LINE
  5
2CE
100
AcDbEntity
  8
0
100
AcDbLine
 62
7
  6
CONTINUOUS
 10
-11.7
 20
-36.0
 11
-11.7
 21
-38.497941481
  0
LINE
  5
2CF
100
AcDbEntity
  8
0
100
AcDbLine
 62
7
  6
CONTINUOUS
 10
-4.085646
 20
31.748026
 11
-3.306991
 21
34.746933
  0
LINE
  5
2D0
100
AcDbEntity
  8
0
100
AcDbLine
 62
7
  6
CONTINUOUS
 10
-3.149695
 20
35.352739
 11
-2.917751
 21
36.24605
  0
LINE
  5
2D1
100
AcDbEntity
  8
0
100
AcDbLine
 62
7
  6
CONTINUOUS
 10
-5.042745
 20
31.748026
 11
-4.375444
 21
34.283053
  0
LINE
  5
2D2
100
AcDbEntity
  8
0
100
AcDbLine
 62
7
  6
CONTINUOUS
 10
-4.201616
 20
34.896037
 11
-3.966055
 21
35.790917
  0
LINE
  5
2D3
100
AcDbEntity
  8
0
100
AcDbLine
 62
7
  6
CONTINUOUS
 10
-5.473136
 20
28.396592
 11
-4.765688
 21
30.600064
  0
LINE
  5
2D4
100
AcDbEntity
  8
0
100
AcDbLine
 62
7
  6
CONTINUOUS
 10
-5.15312
 20
27.39992
 11
-4.125656
 21
30.600064
  0
LWPOLYLINE
  5
2D5
100
AcDbEntity
  8
0
100
AcDbPolyline
 62
7
  6
CONTINUOUS
 90
15
 70
0
 10
-2.017183227
 20
25.6811785163
 10
-2.0333801869
 20
25.6445528335
 10
-2.0474192157
 20
25.6079215178
 10
-2.0592671072
 20
25.5714115323
 10
-2.0689570675
 20
25.5348959111
 10
-2.0772613347
 20
25.4984556649
 10
-2.0842777846
 20
25.4621813247
 10
-2.0899085413
 20
25.425982324
 10
-2.0946322153
 20
25.3896680532
 10
-2.0985266595
 20
25.353143964
 10
-2.1015140209
 20
25.3165046888
 10
-2.103839351
 20
25.2798434117
 10
-2.1055843337
 20
25.2431911927
 10
-2.1066672851
 20
25.2065169921
 10
-2.1070882052
 20
25.1698208223
  0
LWPOLYLINE
  5
2D6
100
AcDbEntity
  8
0
100
AcDbPolyline
 62
7
  6
CONTINUOUS
 90
18
 70
0
 10
0.3956371095
 20
32.6013610476
 10
0.3793073339
 20
32.5694156924
 10
0.3674260614
 20
32.5365020278
 10
0.359993292
 20
32.5026201728
 10
0.3578412335
 20
32.4671605517
 10
0.3601376781
 20
32.4307330444
 10
0.3643860023
 20
32.3951667207
 10
0.3697325537
 20
32.3607152057
 10
0.3770309847
 20
32.3271246442
 10
0.3863456294
 20
32.2954625178
 10
0.3978874307
 20
32.265967144
 10
0.4114454457
 20
32.23839976
 10
0.42645118
 20
32.2131120792
 10
0.4430373525
 20
32.190384824
 10
0.4610712443
 20
32.1699368518
 10
0.4795862041
 20
32.1512771074
 10
0.4984597029
 20
32.1344928485
 10
0.5178142697
 20
32.1194965776
  0
LWPOLYLINE
  5
2D7
100
AcDbEntity
  8
0
100
AcDbPolyline
 62
7
  6
CONTINUOUS
 90
4
 70
0
 10
2.7664936288
 20
25.7888056341
 10
2.7419728848
 20
25.7533050171
 10
2.7202826915
 20
25.7173365491
 10
2.7012551796
 20
25.6811785298
  0
LWPOLYLINE
  5
2D8
100
AcDbEntity
  8
0
100
AcDbPolyline
 62
7
  6
CONTINUOUS
 90
19
 70
0
 10
0.3744652215
 20
25.7089625781
 10
0.3201874405
 20
25.6305766011
 10
0.268732243
 20
25.5502054363
 10
0.2195206951
 20
25.4686168834
 10
0.1723608885
 20
25.3860307682
 10
0.1274447315
 20
25.3022286471
 10
0.0847690142
 20
25.2173204838
 10
0.0442086662
 20
25.1313189334
 10
0.0058887579
 20
25.0442127678
 10
-0.029818709
 20
24.9560760466
 10
-0.0629362633
 20
24.8668765065
 10
-0.0934413762
 20
24.7766478567
 10
-0.1208944598
 20
24.6855629886
 10
-0.1452671847
 20
24.5935935225
 10
-0.1665878805
 20
24.5007691482
 10
-0.1845019475
 20
24.4073496079
 10
-0.1988911861
 20
24.3134217484
 10
-0.2098737959
 20
24.2188997057
 10
-0.2174497771
 20
24.123784
  0
LWPOLYLINE
  5
2D9
100
AcDbEntity
  8
0
100
AcDbPolyline
 62
7
  6
CONTINUOUS
 90
28
 70
0
 10
2.6113501948
 20
25.1698208223
 10
2.6513509226
 20
25.2247608449
 10
2.6962629152
 20
25.2738607432
 10
2.7460861725
 20
25.3171186099
 10
2.8015322599
 20
25.355093623
 10
2.8618896121
 20
25.387223569
 10
2.9250235327
 20
25.4118244508
 10
2.9911287974
 20
25.428482511
 10
3.0600106307
 20
25.4376094405
 10
3.1289500095
 20
25.4387595977
 10
3.1979615334
 20
25.4320194068
 10
3.2670306029
 20
25.4173027329
 10
3.3333943959
 20
25.3939057598
 10
3.3969689911
 20
25.3612944221
 10
3.4578383099
 20
25.3200060321
 10
3.5134912937
 20
25.2709444137
 10
3.5642342657
 20
25.2137379581
 10
3.6097609029
 20
25.1487638423
 10
3.6466411777
 20
25.0780485843
 10
3.6737940399
 20
25.0007169291
 10
3.6923005397
 20
24.9176502031
 10
3.7019738011
 20
24.8335067269
 10
3.7024667628
 20
24.748156673
 10
3.694126486
 20
24.6617313339
 10
3.6778072779
 20
24.5792752127
 10
3.6530712413
 20
24.5015356464
 10
3.6203562733
 20
24.4277608072
 10
3.5818303729
 20
24.3607422173
  0
LWPOLYLINE
  5
2DA
100
AcDbEntity
  8
0
100
AcDbPolyline
 62
7
  6
CONTINUOUS
 90
41
 70
0
 10
3.5818303729
 20
24.3607422173
 10
3.5378555476
 20
24.3011867579
 10
3.48806979
 20
24.2483814592
 10
3.433555077
 20
24.2029868463
 10
3.3740328249
 20
24.1650969112
 10
3.3097816174
 20
24.1346133235
 10
3.2427191828
 20
24.1119083617
 10
3.1723393864
 20
24.0972946774
 10
3.0991483628
 20
24.0904575397
 10
3.0265822436
 20
24.0908287386
 10
2.9549397613
 20
24.0981825907
 10
2.8839221835
 20
24.1127451696
 10
2.8160694443
 20
24.1346264913
 10
2.7514853825
 20
24.1643526284
 10
2.6900661595
 20
24.2014002358
 10
2.6340401928
 20
24.2443053952
 10
2.5840154548
 20
24.2932746958
 10
2.5393839732
 20
24.3481053416
 10
2.5005502488
 20
24.4067185101
 10
2.4680408342
 20
24.4693033549
 10
2.4413291768
 20
24.5356738955
 10
2.419240119
 20
24.6031867439
 10
2.4019596114
 20
24.6712603781
 10
2.3893017035
 20
24.7404771105
 10
2.3795333855
 20
24.8099376826
 10
2.3724073703
 20
24.8794707294
 10
2.368170945
 20
24.9492476921
 10
2.3658329624
 20
25.018882916
 10
2.3650385726
 20
25.0882075965
 10
2.3661426255
 20
25.1573902548
 10
2.3692185233
 20
25.2265511004
 10
2.3740040754
 20
25.2957489002
 10
2.3807614724
 20
25.3649247877
 10
2.3903506887
 20
25.4340225519
 10
2.4026815026
 20
25.5035286174
 10
2.4178441357
 20
25.5729565377
 10
2.436969227
 20
25.6407900924
 10
2.4602356767
 20
25.7073135972
 10
2.4874645846
 20
25.7722413532
 10
2.5192498889
 20
25.8332004974
 10
2.5561111085
 20
25.8899300108
  0
LWPOLYLINE
  5
2DB
100
AcDbEntity
  8
0
100
AcDbPolyline
 62
7
  6
CONTINUOUS
 90
33
 70
0
 10
2.5561111085
 20
25.8899300108
 10
2.5975287246
 20
25.9426878249
 10
2.642538119
 20
25.9898781655
 10
2.6915878658
 20
26.0311611424
 10
2.7442293908
 20
26.0668734653
 10
2.7981523532
 20
26.0964339076
 10
2.8531744677
 20
26.1191457623
 10
2.9094780196
 20
26.1357036512
 10
2.9652995241
 20
26.1476137295
 10
3.0206564869
 20
26.1549315298
 10
3.0755314023
 20
26.1576009665
 10
3.128108268
 20
26.1569611498
 10
3.1778673341
 20
26.1532994715
 10
3.2253283506
 20
26.1463286256
 10
3.2702345648
 20
26.1365257807
 10
3.312534594
 20
26.123833998
 10
3.3522798209
 20
26.108310615
 10
3.3893676407
 20
26.0906042079
 10
3.4237497382
 20
26.0707173178
 10
3.4554744287
 20
26.0486479167
 10
3.4845840529
 20
26.0250376222
 10
3.5108979116
 20
25.9999694738
 10
3.534596704
 20
25.9733608972
 10
3.5562648677
 20
25.9456049592
 10
3.5759955358
 20
25.9167754517
 10
3.5936955752
 20
25.8867989891
 10
3.6096700247
 20
25.8558477876
 10
3.6240415997
 20
25.8238260653
 10
3.6366875846
 20
25.7908300146
 10
3.647544872
 20
25.7573196951
 10
3.6565924257
 20
25.7234484943
 10
3.6638512819
 20
25.6890632348
 10
3.6693214403
 20
25.6541640354
  0
LINE
  5
2DC
100
AcDbEntity
  8
RACCORDO
100
AcDbLine
 62
250
  6
CONTINUOUS
 10
17.9223339156
 20
38.219864257
 11
18.2004111396
 21
38.497941481
  0
LINE
  5
2DD
100
AcDbEntity
  8
RACCORDO
100
AcDbLine
 62
250
  6
CONTINUOUS
 10
18.2219224042
 20
37.9202750248
 11
18.5
 21
38.1983526206
  0
LINE
  5
2DE
100
AcDbEntity
  8
RACCORDO
100
AcDbLine
 62
250
  6
CONTINUOUS
 10
18.2004111396
 20
-38.497941481
 11
17.9223339156
 21
-38.219864257
  0
LINE
  5
2DF
100
AcDbEntity
  8
RACCORDO
100
AcDbLine
 62
250
  6
CONTINUOUS
 10
18.5
 20
-38.1983526206
 11
18.2219224175
 21
-37.9202750381
  0
LINE
  5
2E0
100
AcDbEntity
  8
0
100
AcDbLine
 62
7
  6
CONTINUOUS
 10
-0.06273
 20
-24.469397
 11
0.806243
 21
-25.85
  0
LINE
  5
2E1
100
AcDbEntity
  8
0
100
AcDbLine
 62
7
  6
CONTINUOUS
 10
-0.013043
 20
-24.15
 11
0.841769
 21
-25.530883
  0
LINE
  5
2E2
100
AcDbEntity
  8
0
100
AcDbLine
 62
7
  6
CONTINUOUS
 10
-5.716972
 20
-24.15
 11
-5.101398
 21
-25.85
  0
LINE
  5
2E3
100
AcDbEntity
  8
0
100
AcDbLine
 62
7
  6
CONTINUOUS
 10
-5.520493
 20
-25.355192
 11
-5.352404
 21
-25.85
  0
LINE
  5
2E4
100
AcDbEntity
  8
0
100
AcDbLine
 62
7
  6
CONTINUOUS
 10
-5.856574
 20
-24.396583
 11
-5.6033
 21
-25.151577
  0
LINE
  5
2E5
100
AcDbEntity
  8
0
100
AcDbLine
 62
7
  6
CONTINUOUS
 10
-10.7
 20
38.497941481
 11
-10.7
 21
36.0
  0
LINE
  5
2E6
100
AcDbEntity
  8
0
100
AcDbLine
 62
7
  6
CONTINUOUS
 10
-10.7
 20
-36.0
 11
-10.7
 21
-38.497941481
  0
LINE
  5
2E7
100
AcDbEntity
  8
0
100
AcDbLine
 62
7
  6
CONTINUOUS
 10
-9.5
 20
38.497941481
 11
-9.5
 21
36.0
  0
LINE
  5
2E8
100
AcDbEntity
  8
0
100
AcDbLine
 62
7
  6
CONTINUOUS
 10
-9.5
 20
-36.0
 11
-9.5
 21
-38.497941481
  0
LINE
  5
2E9
100
AcDbEntity
  8
0
100
AcDbLine
 62
7
  6
CONTINUOUS
 10
-3.39263
 20
32.365343
 11
-2.8568848222
 21
34.4287076847
  0
LINE
  5
2EA
100
AcDbEntity
  8
0
100
AcDbLine
 62
7
  6
CONTINUOUS
 10
-2.473061
 20
32.391302
 11
-1.981874906
 21
34.283053362
  0
LINE
  5
2EB
100
AcDbEntity
  8
0
100
AcDbLine
 62
7
  6
CONTINUOUS
 10
-2.0749847593
 20
32.0643919271
 11
-1.460137
 21
34.432412
  0
LINE
  5
2EC
100
AcDbEntity
  8
0
100
AcDbLine
 62
7
  6
CONTINUOUS
 10
-1.220604
 20
31.748026
 11
-0.052708
 21
36.24605
  0
LINE
  5
2ED
100
AcDbEntity
  8
0
100
AcDbLine
 62
7
  6
CONTINUOUS
 10
-0.603546
 20
32.24583
 11
-0.025153376
 21
34.4734465517
  0
LINE
  5
2EE
100
AcDbEntity
  8
0
100
AcDbLine
 62
7
  6
CONTINUOUS
 10
-1.361167
 20
34.746933
 11
-1.074773
 21
35.80231
  0
LINE
  5
2EF
100
AcDbEntity
  8
0
100
AcDbLine
 62
7
  6
CONTINUOUS
 10
-0.853816
 20
28.516016
 11
-0.256224
 21
30.600064
  0
LINE
  5
2F0
100
AcDbEntity
  8
0
100
AcDbLine
 62
7
  6
CONTINUOUS
 10
0.7506205481
 20
32.1213357195
 11
0.7583416805
 21
32.1420926207
  0
LWPOLYLINE
  5
2F1
100
AcDbEntity
  8
0
100
AcDbPolyline
 62
7
  6
CONTINUOUS
 90
5
 70
0
 10
-2.0256774685
 20
24.9868203656
 10
-2.0444997705
 20
24.9394042429
 10
-2.0575793585
 20
24.8893303996
 10
-2.0652411034
 20
24.8362612169
 10
-2.0674850052
 20
24.7801977906
  0
LINE
  5
2F2
100
AcDbEntity
  8
0
100
AcDbLine
 62
7
  6
CONTINUOUS
 10
5.964676
 20
-30.718741
 11
5.772879
 21
-30.377022
  0
LINE
  5
2F3
100
AcDbEntity
  8
0
100
AcDbLine
 62
7
  6
CONTINUOUS
 10
-8.5
 20
38.497941481
 11
-8.5
 21
36.0
  0
LINE
  5
2F4
100
AcDbEntity
  8
0
100
AcDbLine
 62
7
  6
CONTINUOUS
 10
-8.5
 20
-36.0
 11
-8.5
 21
-38.497941481
  0
LINE
  5
2F5
100
AcDbEntity
  8
0
100
AcDbLine
 62
7
  6
CONTINUOUS
 10
-8.449383
 20
-24.15
 11
-8.449383
 21
-25.85
  0
LINE
  5
2F6
100
AcDbEntity
  8
0
100
AcDbLine
 62
7
  6
CONTINUOUS
 10
-8.22683
 20
-24.424557
 11
-8.22683
 21
-25.85
  0
LINE
  5
2F7
100
AcDbEntity
  8
0
100
AcDbLine
 62
7
  6
CONTINUOUS
 10
-7.042986
 20
-24.42222
 11
-7.042986
 21
-25.85
  0
LINE
  5
2F8
100
AcDbEntity
  8
0
100
AcDbLine
 62
7
  6
CONTINUOUS
 10
-6.820343
 20
-24.15
 11
-6.820343
 21
-25.85
  0
LWPOLYLINE
  5
2F9
100
AcDbEntity
  8
0
100
AcDbPolyline
 62
7
  6
CONTINUOUS
 90
3
 70
0
 10
0.7583416805
 20
32.1420926207
 10
0.7692808473
 20
32.1887104091
 10
0.7895517306
 20
32.262624883
  0
LINE
  5
2FA
100
AcDbEntity
  8
0
100
AcDbLine
 62
7
  6
CONTINUOUS
 10
0.523187
 20
33.054685
 11
0.8263410216
 21
34.2222500831
  0
LINE
  5
2FB
100
AcDbEntity
  8
0
100
AcDbLine
 62
7
  6
CONTINUOUS
 10
1.035156
 20
33.276961
 11
1.332932
 21
34.423815
  0
LINE
  5
2FC
100
AcDbEntity
  8
0
100
AcDbLine
 62
7
  6
CONTINUOUS
 10
1.983772
 20
33.290866
 11
2.190797
 21
34.088201
  0
LINE
  5
2FD
100
AcDbEntity
  8
0
100
AcDbLine
 62
7
  6
CONTINUOUS
 10
1.6760475573
 20
32.1056979976
 11
1.834599
 21
32.716343
  0
LINE
  5
2FE
100
AcDbEntity
  8
0
100
AcDbLine
 62
7
  6
CONTINUOUS
 10
2.188968224
 20
32.3485758626
 11
2.341613
 21
32.936468
  0
LINE
  5
2FF
100
AcDbEntity
  8
0
100
AcDbLine
 62
7
  6
CONTINUOUS
 10
2.490785
 20
33.510991
 11
2.7004409253
 21
34.3184557122
  0
LINE
  5
300
100
AcDbEntity
  8
0
100
AcDbLine
 62
7
  6
CONTINUOUS
 10
-0.533816
 20
27.399928
 11
0.071288
 21
29.5102
  0
LINE
  5
301
100
AcDbEntity
  8
0
100
AcDbLine
 62
7
  6
CONTINUOUS
 10
1.138
 20
27.39992
 11
2.165448
 21
30.600072
  0
LINE
  5
302
100
AcDbEntity
  8
0
100
AcDbLine
 62
7
  6
CONTINUOUS
 10
1.778024
 20
27.399928
 11
1.98008
 21
28.029256
  0
LINE
  5
303
100
AcDbEntity
  8
0
100
AcDbLine
 62
7
  6
CONTINUOUS
 10
2.175304
 20
28.63728
 11
2.485472
 21
29.603392
  0
LWPOLYLINE
  5
304
100
AcDbEntity
  8
0
100
AcDbPolyline
 62
7
  6
CONTINUOUS
 90
5
 70
0
 10
2.6927609315
 20
24.9868203656
 10
2.6739386295
 20
24.9394042429
 10
2.6608590415
 20
24.8893303996
 10
2.6531972966
 20
24.8362612169
 10
2.6509533948
 20
24.7801977906
  0
LWPOLYLINE
  5
305
100
AcDbEntity
  8
0
100
AcDbPolyline
 62
7
  6
CONTINUOUS
 90
15
 70
0
 10
2.7012551796
 20
25.6811785298
 10
2.6850582183
 20
25.6445528461
 10
2.6710191884
 20
25.6079215295
 10
2.659171296
 20
25.571411543
 10
2.6494813349
 20
25.5348959208
 10
2.6411770672
 20
25.4984556736
 10
2.6341606168
 20
25.4621813325
 10
2.6285298596
 20
25.4259823308
 10
2.6238061853
 20
25.389668059
 10
2.6199117409
 20
25.3531439689
 10
2.6169243794
 20
25.3165046927
 10
2.6145990491
 20
25.2798434147
 10
2.6128540663
 20
25.2431911947
 10
2.6117711149
 20
25.206516993
 10
2.6113501948
 20
25.1698208223
  0
LINE
  5
306
100
AcDbEntity
  8
0
100
AcDbLine
 62
7
  6
CONTINUOUS
 10
6.936362
 20
-24.15
 11
7.578004
 21
-25.165738
  0
LINE
  5
307
100
AcDbEntity
  8
0
100
AcDbLine
 62
7
  6
CONTINUOUS
 10
7.203908
 20
-24.15
 11
7.691704
 21
-24.966935
  0
LWPOLYLINE
  5
308
100
AcDbEntity
  8
0
100
AcDbPolyline
 62
7
  6
CONTINUOUS
 90
19
 70
0
 10
-3.4755618373
 20
-25.0
 10
-3.4749634382
 20
-25.0670133405
 10
-3.4787834641
 20
-25.133581322
 10
-3.4870219148
 20
-25.1997037037
 10
-3.49967736
 20
-25.2659184646
 10
-3.51675123
 20
-25.3316873072
 10
-3.538247816
 20
-25.3953948853
 10
-3.5638684335
 20
-25.4570482055
 10
-3.5939117669
 20
-25.5166385034
 10
-3.6292781611
 20
-25.5725255022
 10
-3.6703227846
 20
-25.6246325734
 10
-3.7166904688
 20
-25.6730337
 10
-3.7682160526
 20
-25.716313601
 10
-3.82467918
 20
-25.754575243
 10
-3.886300207
 20
-25.7877129874
 10
-3.95357504
 20
-25.8139981094
 10
-4.0266689811
 20
-25.8328535596
 10
-4.1054167283
 20
-25.8448543638
 10
-4.1898182814
 20
-25.85
  0
LINE
  5
309
100
AcDbEntity
  8
0
100
AcDbLine
 62
7
  6
CONTINUOUS
 10
-4.878851
 20
-24.15
 11
-4.878851
 21
-25.85
  0
LINE
  5
30A
100
AcDbEntity
  8
0
100
AcDbLine
 62
7
  6
CONTINUOUS
 10
-4.649114
 20
-24.346466
 11
-4.649114
 21
-25.653534
  0
LINE
  5
30B
100
AcDbEntity
  8
RACCORDO
100
AcDbLine
 62
7
  6
CONTINUOUS
 10
-4.5
 20
-38.497941481
 11
-4.5
 21
-36.7
  0
LINE
  5
30C
100
AcDbEntity
  8
RACCORDO
100
AcDbLine
 62
7
  6
CONTINUOUS
 10
-4.5
 20
36.7
 11
-4.5
 21
38.497941481
  0
LINE
  5
30D
100
AcDbEntity
  8
0
100
AcDbLine
 62
7
  6
CONTINUOUS
 10
-3.727991
 20
25.4088100545
 11
-3.727991
 21
25.6492138139
  0
LINE
  5
30E
100
AcDbEntity
  8
0
100
AcDbLine
 62
7
  6
CONTINUOUS
 10
-3.698984
 20
27.399912
 11
-3.698976
 21
30.600064
  0
LINE
  5
30F
100
AcDbEntity
  8
RACCORDO
100
AcDbLine
 62
7
  6
CONTINUOUS
 10
-3.6749773271
 20
-37.5
 11
-3.6749773271
 21
-40.0
  0
LINE
  5
310
100
AcDbEntity
  8
RACCORDO
100
AcDbLine
 62
7
  6
CONTINUOUS
 10
-3.6749773271
 20
37.5
 11
-3.6749773271
 21
40.0
  0
LINE
  5
311
100
AcDbEntity
  8
0
100
AcDbLine
 62
7
  6
CONTINUOUS
 10
-3.5
 20
39.8951844414
 11
-3.5
 21
36.7
  0
LINE
  5
312
100
AcDbEntity
  8
0
100
AcDbLine
 62
7
  6
CONTINUOUS
 10
-3.5
 20
-36.7
 11
-3.5
 21
-39.8951844414
  0
LINE
  5
313
100
AcDbEntity
  8
0
100
AcDbLine
 62
7
  6
CONTINUOUS
 10
-3.230122
 20
24.123784
 11
-3.230122
 21
25.7086186138
  0
LINE
  5
314
100
AcDbEntity
  8
0
100
AcDbLine
 62
7
  6
CONTINUOUS
 10
-3.157472
 20
-24.15
 11
-3.157472
 21
-25.85
  0
LINE
  5
315
100
AcDbEntity
  8
0
100
AcDbLine
 62
7
  6
CONTINUOUS
 10
-3.05896
 20
27.39992
 11
-3.058952
 21
30.600064
  0
LINE
  5
316
100
AcDbEntity
  8
0
100
AcDbLine
 62
7
  6
CONTINUOUS
 10
-2.981187
 20
24.123784
 11
-2.981187
 21
26.157691
  0
LINE
  5
317
100
AcDbEntity
  8
0
100
AcDbLine
 62
7
  6
CONTINUOUS
 10
-2.927749
 20
-24.353615
 11
-2.927749
 21
-24.874545
  0
LINE
  5
318
100
AcDbEntity
  8
0
100
AcDbLine
 62
7
  6
CONTINUOUS
 10
-2.927749
 20
-25.07816
 11
-2.927749
 21
-25.646385
  0
LWPOLYLINE
  5
319
100
AcDbEntity
  8
0
100
AcDbPolyline
 62
7
  6
CONTINUOUS
 90
22
 70
0
 10
-3.7117990082
 20
-25.0425504467
 10
-3.7117982002
 20
-24.9574117915
 10
-3.7135271364
 20
-24.9149548662
 10
-3.7170594962
 20
-24.8726291979
 10
-3.7223407244
 20
-24.8303066569
 10
-3.7294253763
 20
-24.7881153448
 10
-3.7384771172
 20
-24.7464394727
 10
-3.7492137677
 20
-24.7051131251
 10
-3.7619175072
 20
-24.6643019788
 10
-3.7775985403
 20
-24.6248872803
 10
-3.7965199948
 20
-24.5868550017
 10
-3.8184187429
 20
-24.5502184493
 10
-3.8435156059
 20
-24.5158994129
 10
-3.8720101109
 20
-24.4838790897
 10
-3.9037027308
 20
-24.4541752352
 10
-3.9382157056
 20
-24.427764097
 10
-3.9757234651
 20
-24.4047447809
 10
-4.0160515795
 20
-24.3850170448
 10
-4.0582989989
 20
-24.3692579331
 10
-4.1021653733
 20
-24.3576928366
 10
-4.1479510526
 20
-24.3500955956
 10
-4.1956560369
 20
-24.346466
  0
LINE
  5
31A
100
AcDbEntity
  8
0
100
AcDbLine
 62
7
  6
CONTINUOUS
 10
3.157049
 20
32.461226
 11
3.295642
 21
32.995
  0
LINE
  5
31B
100
AcDbEntity
  8
0
100
AcDbLine
 62
7
  6
CONTINUOUS
 10
3.4919058544
 20
32.0364814393
 11
3.797337
 21
33.212816
  0
LINE
  5
31C
100
AcDbEntity
  8
0
100
AcDbLine
 62
7
  6
CONTINUOUS
 10
3.901419
 20
33.613674
 11
4.115504098
 21
34.4382003776
  0
LINE
  5
31D
100
AcDbEntity
  8
0
100
AcDbLine
 62
7
  6
CONTINUOUS
 10
4.40242
 20
31.748026
 11
5.042745
 21
34.214168
  0
LINE
  5
31E
100
AcDbEntity
  8
0
100
AcDbLine
 62
7
  6
CONTINUOUS
 10
4.940316
 20
-24.15
 11
5.556014
 21
-25.85
  0
LINE
  5
31F
100
AcDbEntity
  8
0
100
AcDbLine
 62
7
  6
CONTINUOUS
 10
5.136864
 20
-25.355192
 11
5.304967
 21
-25.85
  0
LINE
  5
320
100
AcDbEntity
  8
0
100
AcDbLine
 62
7
  6
CONTINUOUS
 10
4.800687
 20
-24.396583
 11
5.053975
 21
-25.151577
  0
LWPOLYLINE
  5
321
100
AcDbEntity
  8
0
100
AcDbPolyline
 62
7
  6
CONTINUOUS
 90
28
 70
0
 10
-2.0674850052
 20
24.7801977906
 10
-2.0646444285
 20
24.7213916365
 10
-2.0563155583
 20
24.6647067879
 10
-2.0424983944
 20
24.6101424512
 10
-2.0226609079
 20
24.5567191491
 10
-1.9973351279
 20
24.5054150765
 10
-1.9681171416
 20
24.4591649574
 10
-1.9348588162
 20
24.4186692207
 10
-1.8977082845
 20
24.3832242858
 10
-1.8587060324
 20
24.3536578835
 10
-1.8180892493
 20
24.330341616
 10
-1.7756207458
 20
24.3129016741
 10
-1.7326294393
 20
24.3010478591
 10
-1.6892130714
 20
24.2947320091
 10
-1.6452739005
 20
24.2940015785
 10
-1.6018476199
 20
24.2987101553
 10
-1.5588093506
 20
24.3088692437
 10
-1.5162839716
 20
24.3244679055
 10
-1.4756818125
 20
24.3453263562
 10
-1.4367246009
 20
24.3714652883
 10
-1.3996906093
 20
24.4028657321
 10
-1.3668249848
 20
24.4392886233
 10
-1.3385677282
 20
24.4812654529
 10
-1.3144788388
 20
24.5282675393
 10
-1.2954834617
 20
24.5784651692
 10
-1.2818899785
 20
24.6312489129
 10
-1.2733900077
 20
24.6872302787
 10
-1.2699835491
 20
24.7464104657
  0
LINE
  5
322
100
AcDbEntity
  8
0
100
AcDbLine
 62
7
  6
CONTINUOUS
 10
-2.418952
 20
27.39992
 11
-2.418952
 21
30.600064
  0
LINE
  5
323
100
AcDbEntity
  8
0
100
AcDbLine
 62
7
  6
CONTINUOUS
 10
-1.997238
 20
-24.874545
 11
-1.997238
 21
-25.07816
  0
LINE
  5
324
100
AcDbEntity
  8
0
100
AcDbLine
 62
7
  6
CONTINUOUS
 10
-1.919105
 20
-24.15
 11
-1.919105
 21
-24.353615
  0
LINE
  5
325
100
AcDbEntity
  8
0
100
AcDbLine
 62
7
  6
CONTINUOUS
 10
-1.902511
 20
-25.646385
 11
-1.902511
 21
-25.85
  0
LINE
  5
326
100
AcDbEntity
  8
0
100
AcDbLine
 62
7
  6
CONTINUOUS
 10
-1.778928
 20
27.39992
 11
-1.778928
 21
29.5102
  0
LINE
  5
327
100
AcDbEntity
  8
IMPORT
100
AcDbLine
 62
7
  6
CONTINUOUS
 10
-1.367554
 20
-37.048037
 11
-1.367554
 21
-36.29722
  0
LINE
  5
328
100
AcDbEntity
  8
IMPORT
100
AcDbLine
 62
7
  6
CONTINUOUS
 10
-1.367554
 20
-32.70278
 11
-1.367554
 21
-31.951963
  0
LINE
  5
329
100
AcDbEntity
  8
0
100
AcDbLine
 62
7
  6
CONTINUOUS
 10
-0.908028
 20
-24.15
 11
-0.908028
 21
-25.85
  0
LINE
  5
32A
100
AcDbEntity
  8
0
100
AcDbLine
 62
7
  6
CONTINUOUS
 10
-0.754922
 20
25.886126
 11
-0.754922
 21
26.123745
  0
LINE
  5
32B
100
AcDbEntity
  8
0
100
AcDbLine
 62
7
  6
CONTINUOUS
 10
-0.678373
 20
-24.15
 11
-0.678373
 21
-25.85
  0
LINE
  5
32C
100
AcDbEntity
  8
0
100
AcDbLine
 62
7
  6
CONTINUOUS
 10
-0.285386
 20
-24.15
 11
-0.285386
 21
-25.85
  0
LINE
  5
32D
100
AcDbEntity
  8
0
100
AcDbLine
 62
7
  6
CONTINUOUS
 10
-0.06273
 20
-24.469397
 11
-0.06273
 21
-25.85
  0
LINE
  5
32E
100
AcDbEntity
  8
0
100
AcDbLine
 62
7
  6
CONTINUOUS
 10
0.071296
 20
27.39992
 11
0.071288
 21
29.5102
  0
LWPOLYLINE
  5
32F
100
AcDbEntity
  8
0
100
AcDbPolyline
 62
7
  6
CONTINUOUS
 90
20
 70
0
 10
-1.2699835491
 20
24.7464104657
 10
-1.2699277637
 20
24.8020909855
 10
-1.2746735373
 20
24.8554767346
 10
-1.2842208699
 20
24.9065668609
 10
-1.2985996034
 20
24.9558638029
 10
-1.3177798959
 20
25.002863645
 10
-1.3416722216
 20
25.0460555909
 10
-1.370617015
 20
25.0854117356
 10
-1.4042738416
 20
25.1209578586
 10
-1.4415318717
 20
25.1512630341
 10
-1.4826566185
 20
25.1760520489
 10
-1.5273825688
 20
25.1955981607
 10
-1.5738023538
 20
25.2092930153
 10
-1.6221341763
 20
25.2169191403
 10
-1.6721598335
 20
25.2186931729
 10
-1.7213173473
 20
25.2146581857
 10
-1.7694991518
 20
25.2047148149
 10
-1.8168128129
 20
25.1889629639
 10
-1.8610190511
 20
25.1677449058
 10
-1.9018167088
 20
25.140692926
  0
LWPOLYLINE
  5
330
100
AcDbEntity
  8
0
100
AcDbPolyline
 62
7
  6
CONTINUOUS
 90
22
 70
0
 10
-0.4720417981
 20
24.123784
 10
-0.4663728869
 20
24.2156757746
 10
-0.4573232704
 20
24.3070843429
 10
-0.4448929485
 20
24.3980092806
 10
-0.4287746865
 20
24.4885251432
 10
-0.4092757192
 20
24.5785565725
 10
-0.3873177513
 20
24.6678781408
 10
-0.3632515119
 20
24.7564772412
 10
-0.3367262718
 20
24.8443654017
 10
-0.307611549
 20
24.9313531572
 10
-0.2758211855
 20
25.0174383317
 10
-0.2414413393
 20
25.1026218597
 10
-0.2046000016
 20
25.1867187411
 10
-0.1652781955
 20
25.2697035592
 10
-0.1234948979
 20
25.3516003474
 10
-0.0794350317
 20
25.4322981384
 10
-0.033263791
 20
25.5119415441
 10
0.0151840184
 20
25.5903845991
 10
0.0662190566
 20
25.6670801581
 10
0.1199448771
 20
25.7418451089
 10
0.1762579265
 20
25.8148606795
 10
0.2351582047
 20
25.886126
  0
LINE
  5
331
100
AcDbEntity
  8
RACCORDO
100
AcDbLine
 62
7
  6
CONTINUOUS
 10
18.5
 20
-0.4
 11
16.75
 21
-0.4
  0
LINE
  5
332
100
AcDbEntity
  8
0
100
AcDbLine
 62
7
  6
CONTINUOUS
 10
14.0
 20
-0.4
 11
16.75
 21
-0.4
  0
LINE
  5
333
100
AcDbEntity
  8
0
100
AcDbLine
 62
7
  6
CONTINUOUS
 10
-14.0
 20
-0.4
 11
-16.75
 21
-0.4
  0
LINE
  5
334
100
AcDbEntity
  8
RACCORDO
100
AcDbLine
 62
7
  6
CONTINUOUS
 10
-16.75
 20
-0.4
 11
-18.5
 21
-0.4
  0
LINE
  5
335
100
AcDbEntity
  8
RACCORDO
100
AcDbLine
 62
7
  6
CONTINUOUS
 10
-18.5
 20
0.4
 11
-16.75
 21
0.4
  0
LINE
  5
336
100
AcDbEntity
  8
0
100
AcDbLine
 62
7
  6
CONTINUOUS
 10
14.0
 20
0.4
 11
16.75
 21
0.4
  0
LINE
  5
337
100
AcDbEntity
  8
0
100
AcDbLine
 62
7
  6
CONTINUOUS
 10
-14.0
 20
0.4
 11
-16.75
 21
0.4
  0
LINE
  5
338
100
AcDbEntity
  8
RACCORDO
100
AcDbLine
 62
7
  6
CONTINUOUS
 10
16.75
 20
0.4
 11
18.5
 21
0.4
  0
LWPOLYLINE
  5
339
100
AcDbEntity
  8
0
100
AcDbPolyline
 62
7
  6
CONTINUOUS
 90
25
 70
0
 10
1.1375453948
 20
25.6440868075
 10
1.1394850561
 20
25.6000068455
 10
1.1467832081
 20
25.5578544739
 10
1.1594398508
 20
25.5176291797
 10
1.1778239989
 20
25.4784926736
 10
1.2015666376
 20
25.441282417
 10
1.229560723
 20
25.408510954
 10
1.2620660738
 20
25.3807386208
 10
1.2988228713
 20
25.3574032641
 10
1.3379446144
 20
25.3393331546
 10
1.3794968828
 20
25.3269322645
 10
1.423414097
 20
25.3197955453
 10
1.4676130171
 20
25.3175379001
 10
1.5124359151
 20
25.3199064092
 10
1.5575405192
 20
25.3271539957
 10
1.5998167741
 20
25.3396545977
 10
1.6387272658
 20
25.3581104902
 10
1.6748094083
 20
25.3818205094
 10
1.7065653896
 20
25.4090534568
 10
1.7337421367
 20
25.4398867833
 10
1.7565927225
 20
25.4742443742
 10
1.7743785529
 20
25.5101641021
 10
1.7868534298
 20
25.54699197
 10
1.7942635514
 20
25.5853825941
 10
1.7966089176
 20
25.6253363533
  0
LWPOLYLINE
  5
33A
100
AcDbEntity
  8
0
100
AcDbPolyline
 62
7
  6
CONTINUOUS
 90
28
 70
0
 10
1.0555101948
 20
24.7078424088
 10
1.0575735375
 20
24.6587695055
 10
1.0650611355
 20
24.6112738964
 10
1.0779729888
 20
24.5653550841
 10
1.0965842824
 20
24.520231919
 10
1.1206198313
 20
24.4766847542
 10
1.1492540804
 20
24.4370546702
 10
1.1827681052
 20
24.4016823683
 10
1.2208808303
 20
24.3702250665
 10
1.2619234736
 20
24.3439977883
 10
1.3060235088
 20
24.3233617669
 10
1.3530534622
 20
24.3079540241
 10
1.400962131
 20
24.2980032378
 10
1.4497478248
 20
24.2937220478
 10
1.499412234
 20
24.2948972641
 10
1.5479092265
 20
24.3011191038
 10
1.5951885557
 20
24.3123615571
 10
1.6413004683
 20
24.3286512491
 10
1.6843495718
 20
24.3496575749
 10
1.7242609495
 20
24.3755821957
 10
1.7611095182
 20
24.4062250122
 10
1.7932246356
 20
24.4406527734
 10
1.8202160629
 20
24.4793176674
 10
1.8424740388
 20
24.5217694867
 10
1.8594986373
 20
24.5657206662
 10
1.8711232163
 20
24.6104086824
 10
1.8775144178
 20
24.6565967926
 10
1.8786722418
 20
24.7042854571
  0
LWPOLYLINE
  5
33B
100
AcDbEntity
  8
0
100
AcDbPolyline
 62
7
  6
CONTINUOUS
 90
28
 70
0
 10
1.8786722418
 20
24.7042854571
 10
1.8768400265
 20
24.7507101074
 10
1.8698592394
 20
24.7958066981
 10
1.8577298804
 20
24.8395748087
 10
1.8403332249
 20
24.8826102698
 10
1.8177879974
 20
24.9243165629
 10
1.7904503721
 20
24.9629042657
 10
1.7580592812
 20
24.9984065137
 10
1.7208757924
 20
25.0307886104
 10
1.6800392824
 20
25.0581585837
 10
1.6351216431
 20
25.0800972034
 10
1.5865509826
 20
25.0970219997
 10
1.536751001
 20
25.1082959206
 10
1.4855374423
 20
25.1136853394
 10
1.4330945626
 20
25.1134232474
 10
1.3823988302
 20
25.1075727674
 10
1.3337645797
 20
25.0958717613
 10
1.2868774766
 20
25.0785830302
 10
1.243770985
 20
25.0565573196
 10
1.204873535
 20
25.0294843053
 10
1.1697566966
 20
24.9976759021
 10
1.1391686437
 20
24.9629159699
 10
1.113237693
 20
24.9253599046
 10
1.0918355279
 20
24.8848537318
 10
1.075325373
 20
24.8427166157
 10
1.0638283033
 20
24.7993884386
 10
1.0572232439
 20
24.7544301993
 10
1.0555101948
 20
24.7078424088
  0
LWPOLYLINE
  5
33C
100
AcDbEntity
  8
0
100
AcDbPolyline
 62
7
  6
CONTINUOUS
 90
25
 70
0
 10
1.7966089176
 20
25.6253363533
 10
1.7955351197
 20
25.666823734
 10
1.7891125797
 20
25.7069232216
 10
1.7773412977
 20
25.7456344502
 10
1.7599589443
 20
25.7836919577
 10
1.7372278488
 20
25.8203606297
 10
1.7099349995
 20
25.8534351346
 10
1.6778062426
 20
25.882843952
 10
1.6411157318
 20
25.9086571614
 10
1.6014729164
 20
25.9288811285
 10
1.5583829836
 20
25.9428165042
 10
1.5123407461
 20
25.9511613826
 10
1.4664400909
 20
25.9540182772
 10
1.4207224819
 20
25.9513128211
 10
1.3751464552
 20
25.9431193759
 10
1.3326815057
 20
25.929763821
 10
1.2939222458
 20
25.910738985
 10
1.2582740632
 20
25.8865531284
 10
1.2269226156
 20
25.8590552364
 10
1.2000361327
 20
25.8282750221
 10
1.1774463848
 20
25.7941839978
 10
1.1598343402
 20
25.7585432992
 10
1.1474269884
 20
25.7219400439
 10
1.1399973399
 20
25.6837877513
 10
1.1375453948
 20
25.6440868075
  0
LINE
  5
33D
100
AcDbEntity
  8
0
100
AcDbLine
 62
7
  6
CONTINUOUS
 10
0.554813
 20
25.9314314203
 11
0.554813
 21
26.123745
  0
LINE
  5
33E
100
AcDbEntity
  8
0
100
AcDbLine
 62
7
  6
CONTINUOUS
 10
0.71132
 20
27.39992
 11
0.71132
 21
30.600064
  0
LINE
  5
33F
100
AcDbEntity
  8
0
100
AcDbLine
 62
7
  6
CONTINUOUS
 10
0.841769
 20
-24.15
 11
0.841769
 21
-25.530883
  0
LINE
  5
340
100
AcDbEntity
  8
0
100
AcDbLine
 62
7
  6
CONTINUOUS
 10
1.064316
 20
-24.15
 11
1.064316
 21
-25.85
  0
LINE
  5
341
100
AcDbEntity
  8
0
100
AcDbLine
 62
7
  6
CONTINUOUS
 10
2.117917
 20
-24.15
 11
2.117917
 21
-25.85
  0
LINE
  5
342
100
AcDbEntity
  8
0
100
AcDbLine
 62
7
  6
CONTINUOUS
 10
2.347641
 20
-24.15
 11
2.347641
 21
-25.85
  0
LINE
  5
343
100
AcDbEntity
  8
0
100
AcDbLine
 62
7
  6
CONTINUOUS
 10
2.59389
 20
-24.15
 11
2.59389
 21
-24.353615
  0
LINE
  5
344
100
AcDbEntity
  8
IMPORT
100
AcDbLine
 62
7
  6
CONTINUOUS
 10
2.617556
 20
-34.875
 11
2.617556
 21
-34.125
  0
LINE
  5
345
100
AcDbEntity
  8
IMPORT
100
AcDbLine
 62
7
  6
CONTINUOUS
 10
3.017556
 20
-37.0480371177
 11
3.017556
 21
-36.2972169516
  0
LINE
  5
346
100
AcDbEntity
  8
IMPORT
100
AcDbLine
 62
7
  6
CONTINUOUS
 10
3.017556
 20
-32.70278
 11
3.017556
 21
-31.9519628823
  0
LINE
  5
347
100
AcDbEntity
  8
0
100
AcDbLine
 62
7
  6
CONTINUOUS
 10
3.169264
 20
-24.353615
 11
3.169264
 21
-25.85
  0
LINE
  5
348
100
AcDbEntity
  8
0
100
AcDbLine
 62
7
  6
CONTINUOUS
 10
-7.042986
 20
-24.42222
 11
-7.521208
 21
-25.85
  0
LINE
  5
349
100
AcDbEntity
  8
0
100
AcDbLine
 62
7
  6
CONTINUOUS
 10
-7.147131
 20
-24.15
 11
-7.632526
 21
-25.594181
  0
LINE
  5
34A
100
AcDbEntity
  8
0
100
AcDbLine
 62
7
  6
CONTINUOUS
 10
-6.202363
 20
-25.355192
 11
-6.379965
 21
-25.85
  0
LINE
  5
34B
100
AcDbEntity
  8
0
100
AcDbLine
 62
7
  6
CONTINUOUS
 10
-5.856574
 20
-24.396583
 11
-6.13131
 21
-25.151577
  0
LINE
  5
34C
100
AcDbEntity
  8
0
100
AcDbLine
 62
7
  6
CONTINUOUS
 10
-5.977465
 20
-24.15
 11
-6.616714
 21
-25.85
  0
LINE
  5
34D
100
AcDbEntity
  8
0
100
AcDbLine
 62
7
  6
CONTINUOUS
 10
-5.793168
 20
27.399912
 11
-6.820624
 21
30.600064
  0
LWPOLYLINE
  5
34E
100
AcDbEntity
  8
0
100
AcDbPolyline
 62
7
  6
CONTINUOUS
 90
28
 70
0
 10
2.6509533948
 20
24.7801977906
 10
2.6537939715
 20
24.7213916365
 10
2.6621228417
 20
24.6647067879
 10
2.6759400056
 20
24.6101424512
 10
2.6957774921
 20
24.5567191491
 10
2.7211032721
 20
24.5054150765
 10
2.7503212584
 20
24.4591649574
 10
2.7835795838
 20
24.4186692207
 10
2.8207301155
 20
24.3832242858
 10
2.8597323676
 20
24.3536578835
 10
2.9003491507
 20
24.330341616
 10
2.9428176542
 20
24.3129016741
 10
2.9858089607
 20
24.3010478591
 10
3.0292253286
 20
24.2947320091
 10
3.0731644995
 20
24.2940015785
 10
3.1165907801
 20
24.2987101553
 10
3.1596290494
 20
24.3088692437
 10
3.2021544284
 20
24.3244679055
 10
3.2427565875
 20
24.3453263562
 10
3.2817137991
 20
24.3714652883
 10
3.3187477907
 20
24.4028657321
 10
3.3516134152
 20
24.4392886233
 10
3.3798706718
 20
24.4812654529
 10
3.4039595612
 20
24.5282675393
 10
3.4229549383
 20
24.5784651692
 10
3.4365484215
 20
24.6312489129
 10
3.4450483923
 20
24.6872302787
 10
3.4484548509
 20
24.7464104657
  0
LINE
  5
34F
100
AcDbEntity
  8
0
100
AcDbLine
 62
7
  6
CONTINUOUS
 10
3.398905
 20
-24.353615
 11
3.398905
 21
-25.85
  0
LINE
  5
350
100
AcDbEntity
  8
0
100
AcDbLine
 62
7
  6
CONTINUOUS
 10
3.5
 20
-36.7
 11
3.5
 21
-39.8951844414
  0
LINE
  5
351
100
AcDbEntity
  8
0
100
AcDbLine
 62
7
  6
CONTINUOUS
 10
3.5
 20
36.7
 11
3.5
 21
39.8951844414
  0
LINE
  5
352
100
AcDbEntity
  8
RACCORDO
100
AcDbLine
 62
7
  6
CONTINUOUS
 10
3.6749773271
 20
-37.5
 11
3.6749773271
 21
-40.0
  0
LINE
  5
353
100
AcDbEntity
  8
RACCORDO
100
AcDbLine
 62
7
  6
CONTINUOUS
 10
3.6749773271
 20
37.5
 11
3.6749773271
 21
40.0
  0
LINE
  5
354
100
AcDbEntity
  8
0
100
AcDbLine
 62
7
  6
CONTINUOUS
 10
3.974279
 20
-24.15
 11
3.974279
 21
-24.353615
  0
LINE
  5
355
100
AcDbEntity
  8
0
100
AcDbLine
 62
7
  6
CONTINUOUS
 10
4.259648
 20
27.399928
 11
4.259648
 21
30.600072
  0
LINE
  5
356
100
AcDbEntity
  8
0
100
AcDbLine
 62
7
  6
CONTINUOUS
 10
4.41157
 20
-30.906117
 11
4.41157
 21
-30.489452
  0
LINE
  5
357
100
AcDbEntity
  8
0
100
AcDbLine
 62
7
  6
CONTINUOUS
 10
4.425177
 20
-27.529254
 11
4.425177
 21
-27.110297
  0
LINE
  5
358
100
AcDbEntity
  8
RACCORDO
100
AcDbLine
 62
7
  6
CONTINUOUS
 10
4.5
 20
38.497941481
 11
4.5
 21
36.7
  0
LINE
  5
359
100
AcDbEntity
  8
RACCORDO
100
AcDbLine
 62
7
  6
CONTINUOUS
 10
4.5
 20
-36.7
 11
4.5
 21
-38.497941481
  0
LINE
  5
35A
100
AcDbEntity
  8
0
100
AcDbLine
 62
7
  6
CONTINUOUS
 10
4.780825
 20
-30.489452
 11
4.780825
 21
-29.107969
  0
LINE
  5
35B
100
AcDbEntity
  8
0
100
AcDbLine
 62
7
  6
CONTINUOUS
 10
4.780825
 20
-28.591613
 11
4.780825
 21
-27.529254
  0
LINE
  5
35C
100
AcDbEntity
  8
0
100
AcDbLine
 62
7
  6
CONTINUOUS
 10
4.890856
 20
29.229312
 11
4.890848
 21
30.008048
  0
LINE
  5
35D
100
AcDbEntity
  8
0
100
AcDbLine
 62
7
  6
CONTINUOUS
 10
5.224704
 20
-30.489452
 11
5.224704
 21
-29.103309
  0
LINE
  5
35E
100
AcDbEntity
  8
0
100
AcDbLine
 62
7
  6
CONTINUOUS
 10
5.224704
 20
-28.591613
 11
5.224704
 21
-27.529254
  0
LINE
  5
35F
100
AcDbEntity
  8
0
100
AcDbLine
 62
7
  6
CONTINUOUS
 10
5.580209
 20
-27.529254
 11
5.580209
 21
-27.110297
  0
LINE
  5
360
100
AcDbEntity
  8
0
100
AcDbLine
 62
7
  6
CONTINUOUS
 10
5.593816
 20
-30.906117
 11
5.593816
 21
-30.489452
  0
LINE
  5
361
100
AcDbEntity
  8
0
100
AcDbLine
 62
7
  6
CONTINUOUS
 10
5.766641
 20
-24.15
 11
5.766641
 21
-25.85
  0
LINE
  5
362
100
AcDbEntity
  8
0
100
AcDbLine
 62
7
  6
CONTINUOUS
 10
5.996378
 20
-24.15
 11
5.996378
 21
-25.646385
  0
LINE
  5
363
100
AcDbEntity
  8
0
100
AcDbLine
 62
7
  6
CONTINUOUS
 10
4.89968
 20
27.399928
 11
4.899752
 21
28.637288
  0
LWPOLYLINE
  5
364
100
AcDbEntity
  8
0
100
AcDbPolyline
 62
7
  6
CONTINUOUS
 90
20
 70
0
 10
3.4484548509
 20
24.7464104657
 10
3.4485106363
 20
24.8020909855
 10
3.4437648627
 20
24.8554767346
 10
3.4342175301
 20
24.9065668609
 10
3.4198387966
 20
24.9558638029
 10
3.4006585041
 20
25.002863645
 10
3.3767661784
 20
25.0460555909
 10
3.347821385
 20
25.0854117356
 10
3.3141645584
 20
25.1209578586
 10
3.2769065283
 20
25.1512630341
 10
3.2357817815
 20
25.1760520489
 10
3.1910558312
 20
25.1955981607
 10
3.1446360462
 20
25.2092930153
 10
3.0963042237
 20
25.2169191403
 10
3.0462785665
 20
25.2186931729
 10
2.9971210527
 20
25.2146581857
 10
2.9489392482
 20
25.2047148149
 10
2.9016255871
 20
25.1889629639
 10
2.8574193489
 20
25.1677449058
 10
2.8166216912
 20
25.140692926
  0
LINE
  5
365
100
AcDbEntity
  8
0
100
AcDbLine
 62
7
  6
CONTINUOUS
 10
-5.473136
 20
28.396592
 11
-6.180592
 21
30.600064
  0
LWPOLYLINE
  5
366
100
AcDbEntity
  8
0
100
AcDbPolyline
 62
7
  6
CONTINUOUS
 90
20
 70
0
 10
-1.2952226596
 20
25.6343630274
 10
-1.3064880653
 20
25.6836094932
 10
-1.3215370441
 20
25.7293085084
 10
-1.3403695959
 20
25.7714590219
 10
-1.3629296777
 20
25.8104764252
 10
-1.3892733325
 20
25.8459435445
 10
-1.4195686898
 20
25.8766103296
 10
-1.4543125143
 20
25.9022237259
 10
-1.4930080412
 20
25.9230350428
 10
-1.5343331052
 20
25.9385506557
 10
-1.5786707488
 20
25.9488862422
 10
-1.6256379294
 20
25.9539252682
 10
-1.6727633548
 20
25.9528259674
 10
-1.7203521202
 20
25.9450529815
 10
-1.7680991303
 20
25.9311420215
 10
-1.8126178074
 20
25.9118581886
 10
-1.8530387739
 20
25.8862552587
 10
-1.8902314075
 20
25.8552810703
 10
-1.923417263
 20
25.8225413363
 10
-1.951944783
 20
25.7888056183
  0
LINE
  5
367
100
AcDbEntity
  8
0
100
AcDbLine
 62
7
  6
CONTINUOUS
 10
6.858271
 20
-25.646385
 11
6.858271
 21
-25.85
  0
LINE
  5
368
100
AcDbEntity
  8
0
100
AcDbLine
 62
7
  6
CONTINUOUS
 10
7.578004
 20
-25.165738
 11
7.578004
 21
-25.85
  0
LINE
  5
369
100
AcDbEntity
  8
0
100
AcDbLine
 62
7
  6
CONTINUOUS
 10
7.807603
 20
-25.165738
 11
7.807603
 21
-25.85
  0
LINE
  5
36A
100
AcDbEntity
  8
0
100
AcDbLine
 62
7
  6
CONTINUOUS
 10
8.5
 20
-36.0
 11
8.5
 21
-38.497941481
  0
LINE
  5
36B
100
AcDbEntity
  8
0
100
AcDbLine
 62
7
  6
CONTINUOUS
 10
8.5
 20
36.0
 11
8.5
 21
38.497941481
  0
LINE
  5
36C
100
AcDbEntity
  8
0
100
AcDbLine
 62
7
  6
CONTINUOUS
 10
-1.173824
 20
27.39992
 11
-1.778928
 21
29.5102
  0
LINE
  5
36D
100
AcDbEntity
  8
0
100
AcDbLine
 62
7
  6
CONTINUOUS
 10
-0.853816
 20
28.516016
 11
-1.451408
 21
30.600064
  0
LWPOLYLINE
  5
36E
100
AcDbEntity
  8
0
100
AcDbPolyline
 62
7
  6
CONTINUOUS
 90
20
 70
0
 10
3.4232157512
 20
25.63436298
 10
3.4119503474
 20
25.6836094495
 10
3.3969013708
 20
25.7293084684
 10
3.3780688214
 20
25.771458986
 10
3.3555087427
 20
25.8104763936
 10
3.3291650912
 20
25.8459435175
 10
3.2988697368
 20
25.8766103071
 10
3.2641259143
 20
25.9022237079
 10
3.2254303888
 20
25.9230350291
 10
3.1841053258
 20
25.9385506463
 10
3.139767683
 20
25.9488862369
 10
3.0928005026
 20
25.9539252669
 10
3.0456750766
 20
25.9528259699
 10
2.9980863097
 20
25.945052988
 10
2.9503392972
 20
25.9311420319
 10
2.9058206173
 20
25.911858202
 10
2.8653996474
 20
25.8862552737
 10
2.8282070101
 20
25.855281086
 10
2.7950211513
 20
25.8225413522
 10
2.7664936288
 20
25.7888056341
  0
LINE
  5
36F
100
AcDbEntity
  8
0
100
AcDbLine
 62
7
  6
CONTINUOUS
 10
9.5
 20
38.497941481
 11
9.5
 21
36.0
  0
LINE
  5
370
100
AcDbEntity
  8
0
100
AcDbLine
 62
7
  6
CONTINUOUS
 10
9.5
 20
-36.0
 11
9.5
 21
-38.497941481
  0
LINE
  5
371
100
AcDbEntity
  8
0
100
AcDbLine
 62
7
  6
CONTINUOUS
 10
10.7
 20
38.497941481
 11
10.7
 21
36.0
  0
LINE
  5
372
100
AcDbEntity
  8
0
100
AcDbLine
 62
7
  6
CONTINUOUS
 10
10.7
 20
-36.0
 11
10.7
 21
-38.497941481
  0
LINE
  5
373
100
AcDbEntity
  8
0
100
AcDbLine
 62
7
  6
CONTINUOUS
 10
11.7
 20
-36.0
 11
11.7
 21
-38.497941481
  0
LINE
  5
374
100
AcDbEntity
  8
0
100
AcDbLine
 62
7
  6
CONTINUOUS
 10
11.7
 20
36.0
 11
11.7
 21
38.497941481
  0
LINE
  5
375
100
AcDbEntity
  8
0
100
AcDbLine
 62
7
  6
CONTINUOUS
 10
3.192936
 20
27.399928
 11
2.990888
 21
28.029256
  0
LINE
  5
376
100
AcDbEntity
  8
0
100
AcDbLine
 62
7
  6
CONTINUOUS
 10
2.795656
 20
28.63728
 11
2.485472
 21
29.603392
  0
LINE
  5
377
100
AcDbEntity
  8
0
100
AcDbLine
 62
7
  6
CONTINUOUS
 10
3.832968
 20
27.39992
 11
2.805504
 21
30.600072
  0
LINE
  5
378
100
AcDbEntity
  8
RACCORDO
100
AcDbLine
 62
7
  6
CONTINUOUS
 10
12.5
 20
22.3
 11
12.5
 21
-22.3
  0
LINE
  5
379
100
AcDbEntity
  8
0
100
AcDbLine
 62
7
  6
CONTINUOUS
 10
13.2
 20
-38.2463841404
 11
13.2
 21
-23.3
  0
LINE
  5
37A
100
AcDbEntity
  8
0
100
AcDbLine
 62
7
  6
CONTINUOUS
 10
13.2
 20
23.3
 11
13.2
 21
38.2463841404
  0
LINE
  5
37B
100
AcDbEntity
  8
0
100
AcDbLine
 62
7
  6
CONTINUOUS
 10
14.0
 20
-38.2463841404
 11
14.0
 21
38.2463841404
  0
LINE
  5
37C
100
AcDbEntity
  8
RACCORDO
100
AcDbLine
 62
250
  6
CONTINUOUS
 10
14.3
 20
37.9488441626
 11
14.3
 21
26.4
  0
LINE
  5
37D
100
AcDbEntity
  8
RACCORDO
100
AcDbLine
 62
250
  6
CONTINUOUS
 10
14.3
 20
25.6
 11
14.3
 21
0.4
  0
LINE
  5
37E
100
AcDbEntity
  8
RACCORDO
100
AcDbLine
 62
250
  6
CONTINUOUS
 10
14.3
 20
-0.4
 11
14.3
 21
-25.6
  0
LINE
  5
37F
100
AcDbEntity
  8
RACCORDO
100
AcDbLine
 62
250
  6
CONTINUOUS
 10
14.3
 20
-26.4
 11
14.3
 21
-37.9488441626
  0
LINE
  5
380
100
AcDbEntity
  8
0
100
AcDbLine
 62
7
  6
CONTINUOUS
 10
4.454926
 20
-25.355192
 11
4.277309
 21
-25.85
  0
LINE
  5
381
100
AcDbEntity
  8
0
100
AcDbLine
 62
7
  6
CONTINUOUS
 10
4.800687
 20
-24.396583
 11
4.525964
 21
-25.151577
  0
LINE
  5
382
100
AcDbEntity
  8
0
100
AcDbLine
 62
7
  6
CONTINUOUS
 10
4.679906
 20
-24.15
 11
4.040574
 21
-25.85
  0
LINE
  5
383
100
AcDbEntity
  8
RACCORDO
100
AcDbLine
 62
250
  6
CONTINUOUS
 10
-18.2219224128
 20
-37.9202750334
 11
-18.5
 21
-38.1983526206
  0
LINE
  5
384
100
AcDbEntity
  8
RACCORDO
100
AcDbLine
 62
250
  6
CONTINUOUS
 10
-17.9223339156
 20
-38.219864257
 11
-18.2004111396
 21
-38.497941481
  0
LINE
  5
385
100
AcDbEntity
  8
RACCORDO
100
AcDbLine
 62
250
  6
CONTINUOUS
 10
-18.5
 20
38.1983526206
 11
-18.2219224042
 21
37.9202750248
  0
LINE
  5
386
100
AcDbEntity
  8
RACCORDO
100
AcDbLine
 62
250
  6
CONTINUOUS
 10
-18.2004111396
 20
38.497941481
 11
-17.9223339156
 21
38.219864257
  0
LINE
  5
387
100
AcDbEntity
  8
RACCORDO
100
AcDbLine
 62
250
  6
CONTINUOUS
 10
17.9223326174
 20
-37.9488441626
 11
17.8956419989
 21
-32.1787151151
  0
LINE
  5
388
100
AcDbEntity
  8
RACCORDO
100
AcDbLine
 62
250
  6
CONTINUOUS
 10
18.2219224175
 20
-37.9202750381
 11
18.1952688459
 21
-32.1634356369
  0
LINE
  5
389
100
AcDbEntity
  8
RACCORDO
100
AcDbLine
 62
250
  6
CONTINUOUS
 10
17.8956419989
 20
-32.1787151151
 11
17.8733327511
 21
-26.4
  0
LINE
  5
38A
100
AcDbEntity
  8
RACCORDO
100
AcDbLine
 62
250
  6
CONTINUOUS
 10
18.1952688459
 20
-32.1634356369
 11
18.172993802
 21
-26.4
  0
LWPOLYLINE
  5
38B
100
AcDbEntity
  8
RACCORDO
100
AcDbPolyline
 62
250
  6
CONTINUOUS
 90
7
 70
0
 10
18.1702511657
 20
-25.6
 10
18.1572522594
 20
-21.4049821472
 10
18.146575683
 20
-17.2079714356
 10
18.1382214363
 20
-13.008967865
 10
18.1321895195
 20
-8.8079714356
 10
18.1284799324
 20
-4.6049821472
 10
18.1270926752
 20
-0.4
  0
LWPOLYLINE
  5
38C
100
AcDbEntity
  8
RACCORDO
100
AcDbPolyline
 62
250
  6
CONTINUOUS
 90
7
 70
0
 10
17.8705951985
 20
-25.6
 10
17.8576167642
 20
-21.4057371746
 10
17.8469569437
 20
-17.2085577624
 10
17.8386157367
 20
-13.0089276384
 10
17.8325931435
 20
-8.8073132484
 10
17.8288891638
 20
-4.6041815579
 10
17.8275037979
 20
-0.4
  0
LINE
  5
38D
100
AcDbEntity
  8
RACCORDO
100
AcDbLine
 62
7
  6
CONTINUOUS
 10
16.75
 20
26.4
 11
16.75
 21
25.6
  0
LINE
  5
38E
100
AcDbEntity
  8
RACCORDO
100
AcDbLine
 62
7
  6
CONTINUOUS
 10
16.75
 20
0.4
 11
16.75
 21
-0.4
  0
LINE
  5
38F
100
AcDbEntity
  8
RACCORDO
100
AcDbLine
 62
7
  6
CONTINUOUS
 10
16.75
 20
-25.6
 11
16.75
 21
-26.4
  0
LINE
  5
390
100
AcDbEntity
  8
RACCORDO
100
AcDbLine
 62
250
  6
CONTINUOUS
 10
17.55
 20
26.4
 11
17.55
 21
25.6
  0
LINE
  5
391
100
AcDbEntity
  8
RACCORDO
100
AcDbLine
 62
250
  6
CONTINUOUS
 10
17.55
 20
0.4
 11
17.55
 21
-0.4
  0
LINE
  5
392
100
AcDbEntity
  8
RACCORDO
100
AcDbLine
 62
250
  6
CONTINUOUS
 10
17.55
 20
-25.6
 11
17.55
 21
-26.4
  0
LINE
  5
393
100
AcDbEntity
  8
RACCORDO
100
AcDbLine
 62
250
  6
CONTINUOUS
 10
17.9223339156
 20
38.219864257
 11
17.9223339156
 21
37.9488441626
  0
LINE
  5
394
100
AcDbEntity
  8
RACCORDO
100
AcDbLine
 62
250
  6
CONTINUOUS
 10
17.9223339156
 20
-38.219864257
 11
17.9223339156
 21
-37.9488441626
  0
LWPOLYLINE
  5
395
100
AcDbEntity
  8
RACCORDO
100
AcDbPolyline
 62
250
  6
CONTINUOUS
 90
7
 70
0
 10
17.8275062513
 20
0.4
 10
17.8288900479
 20
4.6041795539
 10
17.8325932077
 20
8.8073100426
 10
17.8386157305
 20
13.0089240329
 10
17.8469576164
 20
17.2085545589
 10
17.8576188654
 20
21.4057351734
 10
17.8705994775
 20
25.6
  0
LWPOLYLINE
  5
396
100
AcDbEntity
  8
RACCORDO
100
AcDbPolyline
 62
250
  6
CONTINUOUS
 90
7
 70
0
 10
18.1270951251
 20
0.4
 10
18.128481067
 20
4.6049876064
 10
18.132189843
 20
8.8079801702
 10
18.1382214531
 20
13.0089776915
 10
18.1465758971
 20
17.2079801702
 10
18.1572531752
 20
21.4049876064
 10
18.1702532872
 20
25.6
  0
LINE
  5
397
100
AcDbEntity
  8
RACCORDO
100
AcDbLine
 62
250
  6
CONTINUOUS
 10
17.8733327553
 20
26.4
 11
17.895641992
 21
32.1787133925
  0
LINE
  5
398
100
AcDbEntity
  8
RACCORDO
100
AcDbLine
 62
250
  6
CONTINUOUS
 10
18.1729938056
 20
26.4
 11
18.1952688439
 21
32.1634350521
  0
LINE
  5
399
100
AcDbEntity
  8
RACCORDO
100
AcDbLine
 62
250
  6
CONTINUOUS
 10
17.895641992
 20
32.1787133925
 11
17.922332567
 21
37.9488441626
  0
LINE
  5
39A
100
AcDbEntity
  8
RACCORDO
100
AcDbLine
 62
250
  6
CONTINUOUS
 10
18.1952688439
 20
32.1634350521
 11
18.2219224042
 21
37.9202750248
  0
LINE
  5
39B
100
AcDbEntity
  8
0
100
AcDbLine
 62
7
  6
CONTINUOUS
 10
6.099736
 20
27.399928
 11
5.458352
 21
28.63728
  0
LINE
  5
39C
100
AcDbEntity
  8
RACCORDO
100
AcDbLine
 62
7
  6
CONTINUOUS
 10
18.5
 20
-38.1983526206
 11
18.5
 21
-26.4
  0
LINE
  5
39D
100
AcDbEntity
  8
DRAFT
100
AcDbLine
 62
7
  6
CONTINUOUS
 10
18.5
 20
-25.6
 11
18.5
 21
-0.4
  0
LINE
  5
39E
100
AcDbEntity
  8
DRAFT
100
AcDbLine
 62
7
  6
CONTINUOUS
 10
18.5
 20
0.4
 11
18.5
 21
25.6
  0
LINE
  5
39F
100
AcDbEntity
  8
RACCORDO
100
AcDbLine
 62
7
  6
CONTINUOUS
 10
18.5
 20
26.4
 11
18.5
 21
38.1983526206
  0
LINE
  5
3A0
100
AcDbEntity
  8
RACCORDO
100
AcDbLine
 62
7
  6
CONTINUOUS
 10
20.0
 20
38.8016445583
 11
20.0
 21
-38.8016445583
  0
LWPOLYLINE
  5
3A1
100
AcDbEntity
  8
RACCORDO
100
AcDbPolyline
 62
250
  6
CONTINUOUS
 90
13
 70
0
 10
18.221922776
 20
-37.9202753966
 10
18.2192617466
 20
-37.9593119377
 10
18.2115378772
 20
-37.9976828767
 10
18.1988828656
 20
-38.0347339608
 10
18.181512489
 20
-38.0698334413
 10
18.1597229253
 20
-38.1023828462
 10
18.1338857028
 20
-38.1318271838
 10
18.1044413652
 20
-38.1576644063
 10
18.0718919603
 20
-38.17945397
 10
18.0367924798
 20
-38.1968243466
 10
17.9997413957
 20
-38.2094793583
 10
17.9613704566
 20
-38.2172032276
 10
17.9223339156
 20
-38.219864257
  0
LINE
  5
3A2
100
AcDbEntity
  8
0
100
AcDbLine
 62
7
  6
CONTINUOUS
 10
4.0353241763
 20
-30.7187406859
 11
4.2271209364
 21
-30.3770221132
  0
LINE
  5
3A3
100
AcDbEntity
  8
0
100
AcDbLine
 62
7
  6
CONTINUOUS
 10
8.179362
 20
-24.15
 11
7.691704
 21
-24.966935
  0
LINE
  5
3A4
100
AcDbEntity
  8
0
100
AcDbLine
 62
7
  6
CONTINUOUS
 10
8.449383
 20
-24.15
 11
7.807603
 21
-25.165738
  0
LINE
  5
3A5
100
AcDbEntity
  8
0
100
AcDbLine
 62
7
  6
CONTINUOUS
 10
6.820624
 20
27.399936
 11
6.1393507907
 21
28.7142503331
  0
LINE
  5
3A6
100
AcDbEntity
  8
0
100
AcDbLine
 62
7
  6
CONTINUOUS
 10
6.508932
 20
-32.229018
 11
6.72636
 21
-31.92078
  0
LINE
  5
3A7
100
AcDbEntity
  8
0
100
AcDbLine
 62
7
  6
CONTINUOUS
 10
-14.0
 20
22.5
 11
14.0
 21
22.5
  0
LINE
  5
3A8
100
AcDbEntity
  8
0
100
AcDbLine
 62
7
  6
CONTINUOUS
 10
-14.0
 20
22.9081286337
 11
14.0
 21
22.9081286337
  0
LINE
  5
3A9
100
AcDbEntity
  8
0
100
AcDbLine
 62
7
  6
CONTINUOUS
 10
-13.2
 20
23.3
 11
13.2
 21
23.3
  0
LINE
  5
3AA
100
AcDbEntity
  8
0
100
AcDbLine
 62
7
  6
CONTINUOUS
 10
-3.230122
 20
24.123784
 11
-2.981187
 21
24.123784
  0
LINE
  5
3AB
100
AcDbEntity
  8
0
100
AcDbLine
 62
7
  6
CONTINUOUS
 10
-0.4720417981
 20
24.123784
 11
-0.2174497771
 21
24.123784
  0
LWPOLYLINE
  5
3AC
100
AcDbEntity
  8
0
100
AcDbPolyline
 62
7
  6
CONTINUOUS
 90
41
 70
0
 10
1.1871820184
 20
25.2219325974
 10
1.1620900786
 20
25.2316455702
 10
1.1376486905
 20
25.2424111098
 10
1.1138578542
 20
25.2542292905
 10
1.0906669352
 20
25.2670315551
 10
1.068126568
 20
25.2808866274
 10
1.0463886558
 20
25.296000533
 10
1.0253923935
 20
25.3123074251
 10
1.0051985863
 20
25.3298734047
 10
0.9861415529
 20
25.3491025008
 10
0.9681566465
 20
25.3701063649
 10
0.9513085138
 20
25.392773791
 10
0.9361254139
 20
25.4171746047
 10
0.9226663287
 20
25.4433997688
 10
0.9108722762
 20
25.4713588977
 10
0.9010945698
 20
25.5008497968
 10
0.8933567838
 20
25.5317505477
 10
0.8876353438
 20
25.5641836444
 10
0.8842108406
 20
25.5983135288
 10
0.8828663533
 20
25.6343637027
 10
0.8838188028
 20
25.6721114522
 10
0.8879995415
 20
25.7110518326
 10
0.8952235929
 20
25.7513860557
 10
0.9056759336
 20
25.7929135299
 10
0.9208428448
 20
25.8345262039
 10
0.9410889024
 20
25.8765114317
 10
0.9660495307
 20
25.9185819338
 10
0.996117283
 20
25.9587668977
 10
1.0316067747
 20
25.9971512858
 10
1.0722033905
 20
26.0336492002
 10
1.1173558384
 20
26.0660325521
 10
1.1674482364
 20
26.0939929872
 10
1.2220964666
 20
26.1178372625
 10
1.2795968828
 20
26.1362594232
 10
1.3403844361
 20
26.1486724274
 10
1.4040241755
 20
26.1556622393
 10
1.4675076027
 20
26.1576825172
 10
1.5307701901
 20
26.1549693269
 10
1.5938764653
 20
26.1472866235
 10
1.6540115126
 20
26.1343801614
 10
1.7107804717
 20
26.11578373
  0
LWPOLYLINE
  5
3AD
100
AcDbEntity
  8
0
100
AcDbPolyline
 62
7
  6
CONTINUOUS
 90
35
 70
0
 10
1.1997668157
 20
24.1339795022
 10
1.1358779315
 20
24.1606303276
 10
1.0777096973
 20
24.1936080341
 10
1.0245933675
 20
24.2323044171
 10
0.9772822095
 20
24.2741289675
 10
0.9360287076
 20
24.319116643
 10
0.9005803774
 20
24.3672343715
 10
0.8709330336
 20
24.4157881003
 10
0.8475984974
 20
24.4643438063
 10
0.8300649475
 20
24.5133356748
 10
0.8167927349
 20
24.5613706004
 10
0.8077954948
 20
24.6082847228
 10
0.8030595918
 20
24.6542412089
 10
0.8010044708
 20
24.6983367531
 10
0.801271051
 20
24.7401871884
 10
0.8042184131
 20
24.780175491
 10
0.8093432438
 20
24.8185488935
 10
0.8165466872
 20
24.8554204206
 10
0.8259275992
 20
24.8906762277
 10
0.8372792353
 20
24.9242233193
 10
0.8506359076
 20
24.956092088
 10
0.8659633039
 20
24.986251383
 10
0.8829517428
 20
25.0145158665
 10
0.9016124211
 20
25.0407519251
 10
0.921934142
 20
25.065092459
 10
0.9435736333
 20
25.0877519363
 10
0.9664972259
 20
25.1087288737
 10
0.990738589
 20
25.1280242628
 10
1.0160554576
 20
25.1458563762
 10
1.0424735857
 20
25.1623206834
 10
1.0699672193
 20
25.1773213876
 10
1.0982168321
 20
25.1907899044
 10
1.1271159151
 20
25.2027032837
 10
1.1567709772
 20
25.2130842164
 10
1.1871820184
 20
25.2219325974
  0
LINE
  5
3AE
100
AcDbEntity
  8
0
100
AcDbLine
 62
7
  6
CONTINUOUS
 10
5.224704
 20
-28.591613
 11
6.3937793924
 21
-27.6064256693
  0
LINE
  5
3AF
100
AcDbEntity
  8
0
100
AcDbLine
 62
7
  6
CONTINUOUS
 10
5.224704
 20
-29.103309
 11
6.3395358997
 21
-28.1638330845
  0
LINE
  5
3B0
100
AcDbEntity
  8
0
100
AcDbLine
 62
7
  6
CONTINUOUS
 10
3.4232157512
 20
25.63436298
 11
3.6693214403
 21
25.6541640354
  0
LINE
  5
3B1
100
AcDbEntity
  8
0
100
AcDbLine
 62
7
  6
CONTINUOUS
 10
-1.2952226596
 20
25.6343630274
 11
-1.0491169555
 21
25.6541640036
  0
LINE
  5
3B2
100
AcDbEntity
  8
RACCORDO
100
AcDbLine
 62
7
  6
CONTINUOUS
 10
18.5
 20
25.6
 11
16.75
 21
25.6
  0
LINE
  5
3B3
100
AcDbEntity
  8
0
100
AcDbLine
 62
7
  6
CONTINUOUS
 10
14.0
 20
25.6
 11
16.75
 21
25.6
  0
LINE
  5
3B4
100
AcDbEntity
  8
0
100
AcDbLine
 62
7
  6
CONTINUOUS
 10
-14.0
 20
25.6
 11
-16.75
 21
25.6
  0
LINE
  5
3B5
100
AcDbEntity
  8
RACCORDO
100
AcDbLine
 62
7
  6
CONTINUOUS
 10
-16.75
 20
25.6
 11
-18.5
 21
25.6
  0
LINE
  5
3B6
100
AcDbEntity
  8
0
100
AcDbLine
 62
7
  6
CONTINUOUS
 10
-0.754922
 20
25.886126
 11
0.2351582047
 21
25.886126
  0
LINE
  5
3B7
100
AcDbEntity
  8
0
100
AcDbLine
 62
7
  6
CONTINUOUS
 10
-0.754922
 20
26.123745
 11
0.554813
 21
26.123745
  0
LINE
  5
3B8
100
AcDbEntity
  8
0
100
AcDbLine
 62
7
  6
CONTINUOUS
 10
-3.1416332884
 20
26.157691
 11
-2.981187
 21
26.157691
  0
LINE
  5
3B9
100
AcDbEntity
  8
RACCORDO
100
AcDbLine
 62
7
  6
CONTINUOUS
 10
-18.5
 20
26.4
 11
-16.75
 21
26.4
  0
LINE
  5
3BA
100
AcDbEntity
  8
0
100
AcDbLine
 62
7
  6
CONTINUOUS
 10
14.0
 20
26.4
 11
16.75
 21
26.4
  0
LINE
  5
3BB
100
AcDbEntity
  8
0
100
AcDbLine
 62
7
  6
CONTINUOUS
 10
-14.0
 20
26.4
 11
-16.75
 21
26.4
  0
LINE
  5
3BC
100
AcDbEntity
  8
RACCORDO
100
AcDbLine
 62
7
  6
CONTINUOUS
 10
16.75
 20
26.4
 11
18.5
 21
26.4
  0
LWPOLYLINE
  5
3BD
100
AcDbEntity
  8
0
100
AcDbPolyline
 62
7
  6
CONTINUOUS
 90
42
 70
0
 10
1.7539144332
 20
25.2219325974
 10
1.7836455813
 20
25.2113772918
 10
1.8126065324
 20
25.1994677535
 10
1.8407972866
 20
25.1862040893
 10
1.8682965188
 20
25.1715841999
 10
1.8950255541
 20
25.1556104352
 10
1.9207483671
 20
25.1382895941
 10
1.945454494
 20
25.1197140176
 10
1.9691543986
 20
25.0997916798
 10
1.9916434461
 20
25.0782528828
 10
2.0129806906
 20
25.0550875168
 10
2.0331070781
 20
25.0303061773
 10
2.0516408119
 20
25.0036703258
 10
2.0685757131
 20
24.9750666924
 10
2.0839179605
 20
24.944609253
 10
2.0973042939
 20
24.9124003933
 10
2.1087179276
 20
24.8784838502
 10
2.1181756472
 20
24.8428166709
 10
2.1253645491
 20
24.8053712249
 10
2.1304152695
 20
24.7661589852
 10
2.1331971722
 20
24.7251694177
 10
2.1330054452
 20
24.6823419407
 10
2.1301567475
 20
24.6373057129
 10
2.1243344202
 20
24.5904327782
 10
2.113883674
 20
24.5427766015
 10
2.0986799891
 20
24.4941692342
 10
2.0788478854
 20
24.4447792149
 10
2.0531061337
 20
24.3961638805
 10
2.0209581825
 20
24.3479220442
 10
1.9829005833
 20
24.300454495
 10
1.9391417608
 20
24.2565201024
 10
1.8894787724
 20
24.216212294
 10
1.8341145608
 20
24.1794355586
 10
1.7738663787
 20
24.1486639409
 10
1.7079513701
 20
24.1245895054
 10
1.637152391
 20
24.1065177795
 10
1.5646352618
 20
24.0948426934
 10
1.4901184056
 20
24.0896683039
 10
1.4138833993
 20
24.0908897869
 10
1.3399407937
 20
24.0985881345
 10
1.2687076044
 20
24.1130448707
 10
1.1997668157
 20
24.1339795022
  0
LWPOLYLINE
  5
3BE
100
AcDbEntity
  8
0
100
AcDbPolyline
 62
7
  6
CONTINUOUS
 90
33
 70
0
 10
1.7107804717
 20
26.11578373
 10
1.7645782029
 20
26.0919645941
 10
1.8137743712
 20
26.0640688204
 10
1.857936761
 20
26.0317017134
 10
1.897497588
 20
25.9952595601
 10
1.9321231633
 20
25.957074366
 10
1.9614239292
 20
25.917278673
 10
1.9857894436
 20
25.8757407896
 10
2.0060546913
 20
25.8343953733
 10
2.0222178045
 20
25.7935710982
 10
2.034280651
 20
25.7529391532
 10
2.0430838189
 20
25.7134472214
 10
2.0486706011
 20
25.6752826177
 10
2.0509977047
 20
25.6382574476
 10
2.0507758388
 20
25.6027562545
 10
2.0480696515
 20
25.5689275457
 10
2.0428144947
 20
25.5366221239
 10
2.0355271326
 20
25.5057779179
 10
2.0262512707
 20
25.4763056716
 10
2.0149432034
 20
25.4482940898
 10
2.0019885788
 20
25.4219480377
 10
1.987368511
 20
25.3973572824
 10
1.9711018859
 20
25.374431499
 10
1.9536310088
 20
25.3531054131
 10
1.934998379
 20
25.3334765397
 10
1.9151614974
 20
25.3154469288
 10
1.8944351718
 20
25.2986581854
 10
1.8728544895
 20
25.2830399715
 10
1.8503843632
 20
25.2686623674
 10
1.8272343398
 20
25.2553776761
 10
1.8034742681
 20
25.2431366107
 10
1.7790342993
 20
25.2319882778
 10
1.7539144332
 20
25.2219325974
  0
LWPOLYLINE
  5
3BF
100
AcDbEntity
  8
0
100
AcDbPolyline
 62
7
  6
CONTINUOUS
 90
13
 70
0
 10
0.5178142697
 20
32.1194965776
 10
0.5558133245
 20
32.0918875593
 10
0.5744578126
 20
32.07927473
 10
0.5934535094
 20
32.0691069992
 10
0.6131364637
 20
32.0614324217
 10
0.6331706267
 20
32.0562027771
 10
0.6530170576
 20
32.0546838784
 10
0.6731055476
 20
32.0574715278
 10
0.6930063054
 20
32.063969942
 10
0.7108910158
 20
32.0736575972
 10
0.7262585668
 20
32.0866945049
 10
0.7396100704
 20
32.1029209316
 10
0.7506205481
 20
32.1213357195
  0
LINE
  5
3C0
100
AcDbEntity
  8
0
100
AcDbLine
 62
7
  6
CONTINUOUS
 10
6.099736
 20
27.399928
 11
6.820624
 21
27.399936
  0
LINE
  5
3C1
100
AcDbEntity
  8
0
100
AcDbLine
 62
7
  6
CONTINUOUS
 10
1.138
 20
27.39992
 11
1.778024
 21
27.399928
  0
LINE
  5
3C2
100
AcDbEntity
  8
0
100
AcDbLine
 62
7
  6
CONTINUOUS
 10
-2.418952
 20
27.39992
 11
-1.778928
 21
27.39992
  0
LINE
  5
3C3
100
AcDbEntity
  8
0
100
AcDbLine
 62
7
  6
CONTINUOUS
 10
0.071296
 20
27.39992
 11
0.71132
 21
27.39992
  0
LINE
  5
3C4
100
AcDbEntity
  8
0
100
AcDbLine
 62
7
  6
CONTINUOUS
 10
4.259648
 20
27.399928
 11
4.89968
 21
27.399928
  0
LINE
  5
3C5
100
AcDbEntity
  8
0
100
AcDbLine
 62
7
  6
CONTINUOUS
 10
-1.173824
 20
27.39992
 11
-0.533816
 21
27.399928
  0
LINE
  5
3C6
100
AcDbEntity
  8
0
100
AcDbLine
 62
7
  6
CONTINUOUS
 10
-3.698984
 20
27.399912
 11
-3.05896
 21
27.39992
  0
LINE
  5
3C7
100
AcDbEntity
  8
0
100
AcDbLine
 62
7
  6
CONTINUOUS
 10
3.192936
 20
27.399928
 11
3.832968
 21
27.39992
  0
LINE
  5
3C8
100
AcDbEntity
  8
0
100
AcDbLine
 62
7
  6
CONTINUOUS
 10
-5.793168
 20
27.399912
 11
-5.15312
 21
27.39992
  0
LINE
  5
3C9
100
AcDbEntity
  8
0
100
AcDbLine
 62
7
  6
CONTINUOUS
 10
1.98008
 20
28.029256
 11
2.990888
 21
28.029256
  0
LINE
  5
3CA
100
AcDbEntity
  8
0
100
AcDbLine
 62
7
  6
CONTINUOUS
 10
2.175304
 20
28.63728
 11
2.795656
 21
28.63728
  0
LINE
  5
3CB
100
AcDbEntity
  8
0
100
AcDbLine
 62
7
  6
CONTINUOUS
 10
4.899752
 20
28.637288
 11
5.458352
 21
28.63728
  0
LINE
  5
3CC
100
AcDbEntity
  8
0
100
AcDbLine
 62
7
  6
CONTINUOUS
 10
4.890856
 20
29.229312
 11
5.669534
 21
29.229312
  0
LINE
  5
3CD
100
AcDbEntity
  8
0
100
AcDbLine
 62
7
  6
CONTINUOUS
 10
4.890848
 20
30.008048
 11
5.669534
 21
30.008048
  0
LINE
  5
3CE
100
AcDbEntity
  8
0
100
AcDbLine
 62
7
  6
CONTINUOUS
 10
-3.5
 20
-39.8951844414
 11
-3.6749773271
 21
-40.0
  0
LINE
  5
3CF
100
AcDbEntity
  8
0
100
AcDbLine
 62
7
  6
CONTINUOUS
 10
-6.820624
 20
30.600064
 11
-6.180592
 21
30.600064
  0
LINE
  5
3D0
100
AcDbEntity
  8
0
100
AcDbLine
 62
7
  6
CONTINUOUS
 10
-4.765688
 20
30.600064
 11
-4.125656
 21
30.600064
  0
LINE
  5
3D1
100
AcDbEntity
  8
0
100
AcDbLine
 62
7
  6
CONTINUOUS
 10
-3.698976
 20
30.600064
 11
-3.058952
 21
30.600064
  0
LINE
  5
3D2
100
AcDbEntity
  8
0
100
AcDbLine
 62
7
  6
CONTINUOUS
 10
-2.418952
 20
30.600064
 11
-1.451408
 21
30.600064
  0
LINE
  5
3D3
100
AcDbEntity
  8
0
100
AcDbLine
 62
7
  6
CONTINUOUS
 10
-0.256224
 20
30.600064
 11
0.71132
 21
30.600064
  0
LINE
  5
3D4
100
AcDbEntity
  8
0
100
AcDbLine
 62
7
  6
CONTINUOUS
 10
2.165448
 20
30.600072
 11
2.805504
 21
30.600072
  0
LINE
  5
3D5
100
AcDbEntity
  8
0
100
AcDbLine
 62
7
  6
CONTINUOUS
 10
4.259648
 20
30.600072
 11
5.758368
 21
30.600072
  0
LINE
  5
3D6
100
AcDbEntity
  8
0
100
AcDbLine
 62
7
  6
CONTINUOUS
 10
-5.042745
 20
31.748026
 11
-4.085646
 21
31.748026
  0
LINE
  5
3D7
100
AcDbEntity
  8
0
100
AcDbLine
 62
7
  6
CONTINUOUS
 10
-2.9729022095
 20
31.748026
 11
-1.220604
 21
31.748026
  0
LINE
  5
3D8
100
AcDbEntity
  8
0
100
AcDbLine
 62
7
  6
CONTINUOUS
 10
-0.1954225841
 20
31.748026
 11
1.295365
 21
31.748026
  0
LINE
  5
3D9
100
AcDbEntity
  8
0
100
AcDbLine
 62
7
  6
CONTINUOUS
 10
2.6535
 20
31.748026
 11
4.40242
 21
31.748026
  0
LINE
  5
3DA
100
AcDbEntity
  8
0
100
AcDbLine
 62
7
  6
CONTINUOUS
 10
-3.5
 20
39.8951844414
 11
-3.6749773271
 21
40.0
  0
LWPOLYLINE
  5
3DB
100
AcDbEntity
  8
0
100
AcDbPolyline
 62
7
  6
CONTINUOUS
 90
4
 70
0
 10
-2.2773305062
 20
34.7407051486
 10
-2.1986405673
 20
34.7444557424
 10
-2.1593425467
 20
34.7458839217
 10
-2.120059859
 20
34.746933
  0
LINE
  5
3DC
100
AcDbEntity
  8
0
100
AcDbLine
 62
7
  6
CONTINUOUS
 10
14.0
 20
33.4
 11
13.2
 21
33.4
  0
LINE
  5
3DD
100
AcDbEntity
  8
0
100
AcDbLine
 62
7
  6
CONTINUOUS
 10
-13.2
 20
33.4
 11
-14.0
 21
33.4
  0
LINE
  5
3DE
100
AcDbEntity
  8
0
100
AcDbLine
 62
7
  6
CONTINUOUS
 10
-2.120059859
 20
34.746933
 11
-1.361167
 21
34.746933
  0
LINE
  5
3DF
100
AcDbEntity
  8
0
100
AcDbLine
 62
7
  6
CONTINUOUS
 10
0.505251145
 20
34.746933
 11
1.684009
 21
34.746933
  0
LINE
  5
3E0
100
AcDbEntity
  8
0
100
AcDbLine
 62
7
  6
CONTINUOUS
 10
3.254095
 20
34.746933
 11
4.6389980482
 21
34.746933
  0
LINE
  5
3E1
100
AcDbEntity
  8
0
100
AcDbLine
 62
7
  6
CONTINUOUS
 10
-11.7
 20
36.0
 11
-10.7
 21
36.0
  0
LINE
  5
3E2
100
AcDbEntity
  8
0
100
AcDbLine
 62
7
  6
CONTINUOUS
 10
-9.5
 20
36.0
 11
-8.5
 21
36.0
  0
LINE
  5
3E3
100
AcDbEntity
  8
0
100
AcDbLine
 62
7
  6
CONTINUOUS
 10
8.5
 20
36.0
 11
9.5
 21
36.0
  0
LINE
  5
3E4
100
AcDbEntity
  8
0
100
AcDbLine
 62
7
  6
CONTINUOUS
 10
10.7
 20
36.0
 11
11.7
 21
36.0
  0
LWPOLYLINE
  5
3E5
100
AcDbEntity
  8
0
100
AcDbPolyline
 62
7
  6
CONTINUOUS
 90
40
 70
0
 10
4.115504098
 20
34.4382003776
 10
4.0811504151
 20
34.4449701717
 10
4.0474654759
 20
34.4493878391
 10
4.0144492806
 20
34.4514533502
 10
3.9820289742
 20
34.4510142904
 10
3.9502774117
 20
34.4482230632
 10
3.9194131576
 20
34.4435368865
 10
3.8894863182
 20
34.4369913583
 10
3.8604467872
 20
34.4285509407
 10
3.8323628108
 20
34.4185661512
 10
3.8051150326
 20
34.4070618592
 10
3.778822809
 20
34.3940132897
 10
3.7539124546
 20
34.379696485
 10
3.7302210119
 20
34.3643045692
 10
3.7079114385
 20
34.3476445215
 10
3.6878989218
 20
34.3294131788
 10
3.6706578798
 20
34.3091116839
 10
3.6557138946
 20
34.2872390891
 10
3.6425588989
 20
34.2649890466
 10
3.6313196272
 20
34.2424299475
 10
3.6218693451
 20
34.2194934499
 10
3.6133197829
 20
34.197167967
 10
3.6056219318
 20
34.1757050829
 10
3.5988248006
 20
34.1548531268
 10
3.5921871454
 20
34.1348455505
 10
3.5856043876
 20
34.1157678407
 10
3.5791811059
 20
34.0975344115
 10
3.5724897924
 20
34.0801220952
 10
3.5654814526
 20
34.0635324938
 10
3.5582050811
 20
34.0477639232
 10
3.550380154
 20
34.0327882917
 10
3.5419407255
 20
34.0186413272
 10
3.5329527414
 20
34.0052872323
 10
3.523333515
 20
33.9925906362
 10
3.513028077
 20
33.9805518584
 10
3.5020913968
 20
33.969170531
 10
3.4906056948
 20
33.9583102638
 10
3.4785983781
 20
33.9479255847
 10
3.4660420397
 20
33.9380619336
 10
3.4529366796
 20
33.9287192951
  0
LINE
  5
3E6
100
AcDbEntity
  8
RACCORDO
100
AcDbLine
 62
7
  6
CONTINUOUS
 10
14.2269217944
 20
-38.02075562
 11
14.3
 21
-37.9488441626
  0
LWPOLYLINE
  5
3E7
100
AcDbEntity
  8
RACCORDO
100
AcDbPolyline
 62
7
  6
CONTINUOUS
 90
3
 70
0
 10
14.1550476842
 20
-38.0896266682
 10
14.2026483298
 20
-38.0442812323
 10
14.2269217944
 20
-38.02075562
  0
LWPOLYLINE
  5
3E8
100
AcDbEntity
  8
RACCORDO
100
AcDbPolyline
 62
7
  6
CONTINUOUS
 90
3
 70
0
 10
14.0892819367
 20
-38.1504216707
 10
14.1322296352
 20
-38.1110464655
 10
14.1550476842
 20
-38.0896266682
  0
LINE
  5
3E9
100
AcDbEntity
  8
RACCORDO
100
AcDbLine
 62
7
  6
CONTINUOUS
 10
14.0696665377
 20
-38.167931029
 11
14.0892819367
 21
-38.1504216707
  0
LINE
  5
3EA
100
AcDbEntity
  8
RACCORDO
100
AcDbLine
 62
7
  6
CONTINUOUS
 10
3.5
 20
36.7
 11
4.5
 21
36.7
  0
LINE
  5
3EB
100
AcDbEntity
  8
RACCORDO
100
AcDbLine
 62
7
  6
CONTINUOUS
 10
-3.5
 20
36.7
 11
-4.5
 21
36.7
  0
LINE
  5
3EC
100
AcDbEntity
  8
0
100
AcDbLine
 62
7
  6
CONTINUOUS
 10
-11.7
 20
36.8
 11
-10.7
 21
36.8
  0
LINE
  5
3ED
100
AcDbEntity
  8
0
100
AcDbLine
 62
7
  6
CONTINUOUS
 10
-9.5
 20
36.8
 11
-8.5
 21
36.8
  0
LINE
  5
3EE
100
AcDbEntity
  8
0
100
AcDbLine
 62
7
  6
CONTINUOUS
 10
8.5
 20
36.8
 11
9.5
 21
36.8
  0
LINE
  5
3EF
100
AcDbEntity
  8
0
100
AcDbLine
 62
7
  6
CONTINUOUS
 10
10.7
 20
36.8
 11
11.7
 21
36.8
  0
LINE
  5
3F0
100
AcDbEntity
  8
0
100
AcDbLine
 62
7
  6
CONTINUOUS
 10
10.7
 20
37.5
 11
9.5
 21
37.5
  0
LINE
  5
3F1
100
AcDbEntity
  8
RACCORDO
100
AcDbLine
 62
250
  6
CONTINUOUS
 10
-4.5
 20
37.5
 11
-3.6749773271
 21
37.5
  0
LINE
  5
3F2
100
AcDbEntity
  8
RACCORDO
100
AcDbLine
 62
250
  6
CONTINUOUS
 10
3.6749773271
 20
37.5
 11
4.5
 21
37.5
  0
LINE
  5
3F3
100
AcDbEntity
  8
0
100
AcDbLine
 62
7
  6
CONTINUOUS
 10
-9.5
 20
37.5
 11
-10.7
 21
37.5
  0
LINE
  5
3F4
100
AcDbEntity
  8
RACCORDO
100
AcDbLine
 62
250
  6
CONTINUOUS
 10
13.2
 20
37.9117031858
 11
11.7
 21
37.9117031858
  0
LINE
  5
3F5
100
AcDbEntity
  8
RACCORDO
100
AcDbLine
 62
250
  6
CONTINUOUS
 10
8.5
 20
37.9117031858
 11
4.5
 21
37.9117031858
  0
LINE
  5
3F6
100
AcDbEntity
  8
RACCORDO
100
AcDbLine
 62
250
  6
CONTINUOUS
 10
3.5
 20
37.9117031858
 11
-3.5
 21
37.9117031858
  0
LINE
  5
3F7
100
AcDbEntity
  8
RACCORDO
100
AcDbLine
 62
250
  6
CONTINUOUS
 10
-4.5
 20
37.9117031858
 11
-8.5
 21
37.9117031858
  0
LINE
  5
3F8
100
AcDbEntity
  8
RACCORDO
100
AcDbLine
 62
250
  6
CONTINUOUS
 10
-11.7
 20
37.9117031858
 11
-13.2
 21
37.9117031858
  0
LINE
  5
3F9
100
AcDbEntity
  8
RACCORDO
100
AcDbLine
 62
250
  6
CONTINUOUS
 10
-14.3
 20
37.9488441626
 11
-17.922332567
 21
37.9488441626
  0
LINE
  5
3FA
100
AcDbEntity
  8
RACCORDO
100
AcDbLine
 62
250
  6
CONTINUOUS
 10
17.9223339156
 20
38.219864257
 11
14.003284306
 21
38.219864257
  0
LINE
  5
3FB
100
AcDbEntity
  8
RACCORDO
100
AcDbLine
 62
250
  6
CONTINUOUS
 10
-14.003284306
 20
38.219864257
 11
-17.9223339156
 21
38.219864257
  0
LINE
  5
3FC
100
AcDbEntity
  8
RACCORDO
100
AcDbLine
 62
250
  6
CONTINUOUS
 10
13.2
 20
38.2243855672
 11
11.7
 21
38.2243855672
  0
LINE
  5
3FD
100
AcDbEntity
  8
RACCORDO
100
AcDbLine
 62
250
  6
CONTINUOUS
 10
8.5
 20
38.2243855672
 11
4.5
 21
38.2243855672
  0
LINE
  5
3FE
100
AcDbEntity
  8
RACCORDO
100
AcDbLine
 62
250
  6
CONTINUOUS
 10
3.5
 20
38.2243855672
 11
-3.5
 21
38.2243855672
  0
LINE
  5
3FF
100
AcDbEntity
  8
RACCORDO
100
AcDbLine
 62
250
  6
CONTINUOUS
 10
-4.5
 20
38.2243855672
 11
-8.5
 21
38.2243855672
  0
LINE
  5
400
100
AcDbEntity
  8
RACCORDO
100
AcDbLine
 62
250
  6
CONTINUOUS
 10
-11.7
 20
38.2243855672
 11
-13.2
 21
38.2243855672
  0
LINE
  5
401
100
AcDbEntity
  8
0
100
AcDbLine
 62
7
  6
CONTINUOUS
 10
14.0
 20
38.2463841404
 11
13.2
 21
38.2463841404
  0
LINE
  5
402
100
AcDbEntity
  8
0
100
AcDbLine
 62
7
  6
CONTINUOUS
 10
-13.2
 20
38.2463841404
 11
-14.0
 21
38.2463841404
  0
LINE
  5
403
100
AcDbEntity
  8
0
100
AcDbLine
 62
7
  6
CONTINUOUS
 10
3.5
 20
38.3931259224
 11
-3.5
 21
38.3931259224
  0
LINE
  5
404
100
AcDbEntity
  8
0
100
AcDbLine
 62
7
  6
CONTINUOUS
 10
-10.7
 20
38.4140890342
 11
-9.5
 21
38.4140890342
  0
LINE
  5
405
100
AcDbEntity
  8
0
100
AcDbLine
 62
7
  6
CONTINUOUS
 10
10.7
 20
38.4140890342
 11
9.5
 21
38.4140890342
  0
LINE
  5
406
100
AcDbEntity
  8
RACCORDO
100
AcDbLine
 62
7
  6
CONTINUOUS
 10
-18.2004111396
 20
38.497941481
 11
-11.7
 21
38.497941481
  0
LINE
  5
407
100
AcDbEntity
  8
0
100
AcDbLine
 62
7
  6
CONTINUOUS
 10
-10.7
 20
38.497941481
 11
-9.5
 21
38.497941481
  0
LINE
  5
408
100
AcDbEntity
  8
0
100
AcDbLine
 62
7
  6
CONTINUOUS
 10
10.7
 20
38.497941481
 11
9.5
 21
38.497941481
  0
LINE
  5
409
100
AcDbEntity
  8
0
100
AcDbLine
 62
7
  6
CONTINUOUS
 10
-8.5
 20
38.497941481
 11
-4.5
 21
38.497941481
  0
LINE
  5
40A
100
AcDbEntity
  8
0
100
AcDbLine
 62
7
  6
CONTINUOUS
 10
4.5
 20
38.497941481
 11
8.5
 21
38.497941481
  0
LINE
  5
40B
100
AcDbEntity
  8
RACCORDO
100
AcDbLine
 62
7
  6
CONTINUOUS
 10
11.7
 20
38.497941481
 11
18.2004111396
 21
38.497941481
  0
LWPOLYLINE
  5
40C
100
AcDbEntity
  8
RACCORDO
100
AcDbPolyline
 62
250
  6
CONTINUOUS
 90
3
 70
0
 10
17.9965422809
 20
37.9478473844
 10
17.960155801
 20
37.9488214327
 10
14.3
 20
37.9488441626
  0
LWPOLYLINE
  5
40D
100
AcDbEntity
  8
RACCORDO
100
AcDbPolyline
 62
7
  6
CONTINUOUS
 90
3
 70
0
 10
14.0354950581
 20
38.1970966195
 10
14.0696665377
 20
38.167931029
 10
14.0892819367
 20
38.1504216707
  0
LINE
  5
40E
100
AcDbEntity
  8
RACCORDO
100
AcDbLine
 62
7
  6
CONTINUOUS
 10
14.0892819367
 20
38.1504216707
 11
14.1322296352
 21
38.1110464655
  0
LWPOLYLINE
  5
40F
100
AcDbEntity
  8
RACCORDO
100
AcDbPolyline
 62
7
  6
CONTINUOUS
 90
3
 70
0
 10
14.1322296352
 20
38.1110464655
 10
14.1550476842
 20
38.0896266682
 10
14.2026483298
 20
38.0442812323
  0
LWPOLYLINE
  5
410
100
AcDbEntity
  8
RACCORDO
100
AcDbPolyline
 62
7
  6
CONTINUOUS
 90
3
 70
0
 10
14.2026483298
 20
38.0442812323
 10
14.2269217944
 20
38.02075562
 10
14.3
 20
37.9488441626
  0
LWPOLYLINE
  5
411
100
AcDbEntity
  8
RACCORDO
100
AcDbPolyline
 62
250
  6
CONTINUOUS
 90
13
 70
0
 10
18.221922776
 20
-37.9202753966
 10
18.2175540955
 20
-37.9238860903
 10
18.2084633357
 20
-37.9274390334
 10
18.1947959042
 20
-37.9308774054
 10
18.1767704133
 20
-37.9341462183
 10
18.1546751825
 20
-37.9371931908
 10
18.1288636275
 20
-37.9399695832
 10
18.099748607
 20
-37.9424309839
 10
18.0677958189
 20
-37.9445380256
 10
18.0335163517
 20
-37.9462570086
 10
17.9974585093
 20
-37.9475604342
 10
17.9601990408
 20
-37.9484274445
 10
17.9223339156
 20
-37.9488441626
  0
LWPOLYLINE
  5
412
100
AcDbEntity
  8
RACCORDO
100
AcDbPolyline
 62
7
  6
CONTINUOUS
 90
5
 70
0
 10
14.003284306
 20
-38.219864257
 10
14.011623876
 20
-38.2158728793
 10
14.0223607933
 20
-38.2080922245
 10
14.0354950581
 20
-38.1970966195
 10
14.0696665377
 20
-38.167931029
  0
LINE
  5
413
100
AcDbEntity
  8
0
100
AcDbLine
 62
7
  6
CONTINUOUS
 10
3.5
 20
39.8951844414
 11
-3.5
 21
39.8951844414
  0
LINE
  5
414
100
AcDbEntity
  8
RACCORDO
100
AcDbLine
 62
7
  6
CONTINUOUS
 10
-18.8016445583
 20
40.0
 11
-3.6749773271
 21
40.0
  0
LINE
  5
415
100
AcDbEntity
  8
RACCORDO
100
AcDbLine
 62
7
  6
CONTINUOUS
 10
3.6749773271
 20
40.0
 11
18.8016445583
 21
40.0
  0
LWPOLYLINE
  5
416
100
AcDbEntity
  8
RACCORDO
100
AcDbPolyline
 62
250
  6
CONTINUOUS
 90
13
 70
0
 10
17.9223339156
 20
38.219864257
 10
17.9613704566
 20
38.2172032276
 10
17.9997413957
 20
38.2094793583
 10
18.0367924798
 20
38.1968243466
 10
18.0718919603
 20
38.17945397
 10
18.1044413652
 20
38.1576644063
 10
18.1338857028
 20
38.1318271838
 10
18.1597229253
 20
38.1023828462
 10
18.181512489
 20
38.0698334413
 10
18.1988828656
 20
38.0347339608
 10
18.2115378772
 20
37.9976828767
 10
18.2192617466
 20
37.9593119376
 10
18.221922776
 20
37.9202753966
  0
LWPOLYLINE
  5
417
100
AcDbEntity
  8
RACCORDO
100
AcDbPolyline
 62
7
  6
CONTINUOUS
 90
4
 70
0
 10
14.003284306
 20
38.219864257
 10
14.011623876
 20
38.2158728793
 10
14.0223607933
 20
38.2080922245
 10
14.0354950581
 20
38.1970966195
  0
LWPOLYLINE
  5
418
100
AcDbEntity
  8
RACCORDO
100
AcDbPolyline
 62
250
  6
CONTINUOUS
 90
10
 70
0
 10
18.221922776
 20
37.9202753966
 10
18.2175815243
 20
37.9229675518
 10
18.2084408853
 20
37.9266796132
 10
18.1945426812
 20
37.9308488641
 10
18.1760302752
 20
37.9344338797
 10
18.1532940689
 20
37.9372971784
 10
18.1269583289
 20
37.9402465923
 10
18.0974002696
 20
37.9429111156
 10
18.0652777296
 20
37.9446822569
 10
17.9965422809
 20
37.9478473844
  0
ARC
  5
419
100
AcDbEntity
  8
IMPORT
100
AcDbCircle
 62
7
  6
CONTINUOUS
 10
-1.467554
 20
-34.5
 40
2.5499985399
100
AcDbArc
 50
87.7525290943
 51
272.2474709057
  0
ARC
  5
41A
100
AcDbEntity
  8
IMPORT
100
AcDbCircle
 62
7
  6
CONTINUOUS
 10
-1.467554
 20
-34.5
 40
1.7999999246
100
AcDbArc
 50
86.8152613297
 51
273.1847386703
  0
CIRCLE
  5
41B
100
AcDbEntity
  8
ASSI
100
AcDbCircle
 62
7
  6
CONTINUOUS
 10
-16.0
 20
-29.0
 40
1.5
  0
CIRCLE
  5
41C
100
AcDbEntity
  8
ASSI
100
AcDbCircle
 62
7
  6
CONTINUOUS
 10
-16.0
 20
-29.0
 40
0.8
  0
ARC
  5
41D
100
AcDbEntity
  8
0
100
AcDbCircle
 62
7
  6
CONTINUOUS
 10
-0.019954
 20
32.308085
 40
0.58690315
100
AcDbArc
 50
186.0890316407
 51
252.6040306695
  0
ARC
  5
41E
100
AcDbEntity
  8
0
100
AcDbCircle
 62
7
  6
CONTINUOUS
 10
-2.848695
 20
32.283827
 40
0.5500092204
100
AcDbArc
 50
171.4768836155
 51
256.94845686
  0
ARC
  5
41F
100
AcDbEntity
  8
0
100
AcDbCircle
 62
7
  6
CONTINUOUS
 10
-1.620929
 20
34.008145
 40
0.4537141772
100
AcDbArc
 50
69.2439050387
 51
142.7058999487
  0
ARC
  5
420
100
AcDbEntity
  8
0
100
AcDbCircle
 62
7
  6
CONTINUOUS
 10
-2.109782
 20
32.427842
 40
0.3651120423
100
AcDbArc
 50
185.7437120815
 51
275.468912122
  0
ARC
  5
421
100
AcDbEntity
  8
0
100
AcDbCircle
 62
7
  6
CONTINUOUS
 10
5.0
 20
-29.0
 40
2.6237424326
100
AcDbArc
 50
292.0885393584
 51
273.4297246723
  0
ARC
  5
422
100
AcDbEntity
  8
IMPORT
100
AcDbCircle
 62
7
  6
CONTINUOUS
 10
2.917556
 20
-34.5
 40
2.5499986575
100
AcDbArc
 50
87.752529198
 51
272.247470802
  0
ARC
  5
423
100
AcDbEntity
  8
0
100
AcDbCircle
 62
7
  6
CONTINUOUS
 10
4.920643
 20
-33.946093
 40
2.3390187052
100
AcDbArc
 50
47.2312712626
 51
84.2012841963
  0
ARC
  5
424
100
AcDbEntity
  8
0
100
AcDbCircle
 62
7
  6
CONTINUOUS
 10
5.104722
 20
-33.567224
 40
2.3109495123
100
AcDbArc
 50
45.4348886633
 51
67.5658613447
  0
CIRCLE
  5
425
100
AcDbEntity
  8
0
100
AcDbCircle
 62
7
  6
CONTINUOUS
 10
5.0
 20
-29.0
 40
2.20376
  0
ARC
  5
426
100
AcDbEntity
  8
0
100
AcDbCircle
 62
7
  6
CONTINUOUS
 10
5.0
 20
-29.0
 40
1.9709567246
100
AcDbArc
 50
299.3041457634
 51
44.9957848293
  0
ARC
  5
427
100
AcDbEntity
  8
0
100
AcDbCircle
 62
7
  6
CONTINUOUS
 10
5.0
 20
-29.0
 40
1.9709563643
100
AcDbArc
 50
134.9002846268
 51
240.6958542366
  0
ARC
  5
428
100
AcDbEntity
  8
IMPORT
100
AcDbCircle
 62
7
  6
CONTINUOUS
 10
2.917556
 20
-34.5
 40
1.7999999246
100
AcDbArc
 50
86.8152613297
 51
167.9753003079
  0
ARC
  5
429
100
AcDbEntity
  8
IMPORT
100
AcDbCircle
 62
7
  6
CONTINUOUS
 10
2.917556
 20
-34.5
 40
1.7999968808
100
AcDbArc
 50
192.0247203293
 51
273.1847440612
  0
ARC
  5
42A
100
AcDbEntity
  8
0
100
AcDbCircle
 62
7
  6
CONTINUOUS
 10
5.0
 20
-29.0
 40
1.5790921275
100
AcDbArc
 50
148.0267086216
 51
240.6958772397
  0
ARC
  5
42B
100
AcDbEntity
  8
0
100
AcDbCircle
 62
7
  6
CONTINUOUS
 10
5.0
 20
-29.0
 40
1.5790919977
100
AcDbArc
 50
299.3041227603
 51
31.9732907039
  0
CIRCLE
  5
42C
100
AcDbEntity
  8
ASSI
100
AcDbCircle
 62
7
  6
CONTINUOUS
 10
16.0
 20
29.0
 40
1.5
  0
ARC
  5
42D
100
AcDbEntity
  8
0
100
AcDbCircle
 62
7
  6
CONTINUOUS
 10
5.758368
 20
29.618679
 40
0.9813965052
100
AcDbArc
 50
292.8428400969
 51
90.0
  0
CIRCLE
  5
42E
100
AcDbEntity
  8
ASSI
100
AcDbCircle
 62
7
  6
CONTINUOUS
 10
16.0
 20
29.0
 40
0.8
  0
ARC
  5
42F
100
AcDbEntity
  8
0
100
AcDbCircle
 62
7
  6
CONTINUOUS
 10
4.419856
 20
34.161491
 40
0.625112448
100
AcDbArc
 50
4.833935567
 51
69.4781717286
  0
ARC
  5
430
100
AcDbEntity
  8
0
100
AcDbCircle
 62
7
  6
CONTINUOUS
 10
3.254095
 20
34.174701
 40
0.572706
100
AcDbArc
 50
90.0
 51
165.4447211915
  0
ARC
  5
431
100
AcDbEntity
  8
0
100
AcDbCircle
 62
7
  6
CONTINUOUS
 10
1.146389
 20
32.288009
 40
0.5601566646
100
AcDbArc
 50
285.4236573529
 51
341.0062925582
  0
ARC
  5
432
100
AcDbEntity
  8
0
100
AcDbCircle
 62
7
  6
CONTINUOUS
 10
1.684009
 20
34.222621
 40
0.5243117521
100
AcDbArc
 50
345.1449724564
 51
90.0
  0
ARC
  5
433
100
AcDbEntity
  8
0
100
AcDbCircle
 62
7
  6
CONTINUOUS
 10
2.6535
 20
32.227961
 40
0.4799351165
100
AcDbArc
 50
165.444663087
 51
270.0
  0
ARC
  5
434
100
AcDbEntity
  8
0
100
AcDbCircle
 62
7
  6
CONTINUOUS
 10
1.208635
 20
33.998822
 40
0.4427965608
100
AcDbArc
 50
73.6974726837
 51
149.6962552618
  0
ARC
  5
435
100
AcDbEntity
  8
0
100
AcDbCircle
 62
7
  6
CONTINUOUS
 10
3.564575
 20
32.43814
 40
0.4081793773
100
AcDbArc
 50
176.7577083475
 51
259.744827629
  0
ARC
  5
436
100
AcDbEntity
  8
0
100
AcDbCircle
 62
7
  6
CONTINUOUS
 10
5.669534
 20
29.618679
 40
0.389369
100
AcDbArc
 50
270.0
 51
90.0
  0
ELLIPSE
  5
437
100
AcDbEntity
  8
RACCORDO
100
AcDbEllipse
 62
7
  6
CONTINUOUS
 10
18.7983531848
 20
38.7983531848
 30
0.0
 11
0.8508554921
 21
0.8508554921
 31
0.0
 40
0.9972646886
 41
-0.7840286355
 42
0.7840286355
  0
ELLIPSE
  5
438
100
AcDbEntity
  8
RACCORDO
100
AcDbEllipse
 62
7
  6
CONTINUOUS
 10
18.7983531848
 20
-38.7983531848
 30
0.0
 11
-0.8508554921
 21
0.8508554921
 31
0.0
 40
0.9972646886
 41
2.3575640181
 42
3.9256212891
  0
ELLIPSE
  5
439
100
AcDbEntity
  8
RACCORDO
100
AcDbEllipse
 62
7
  6
CONTINUOUS
 10
-18.7983531848
 20
-38.7983531848
 30
0.0
 11
-0.8508554921
 21
-0.8508554921
 31
0.0
 40
0.9972646886
 41
-0.7840286355
 42
0.7840286355
  0
ELLIPSE
  5
43A
100
AcDbEntity
  8
RACCORDO
100
AcDbEllipse
 62
7
  6
CONTINUOUS
 10
-18.7983531848
 20
38.7983531848
 30
0.0
 11
0.8508554921
 21
-0.8508554921
 31
0.0
 40
0.9972646886
 41
2.3575640181
 42
3.9256212891
  0
ELLIPSE
  5
43B
100
AcDbEntity
  8
RACCORDO
100
AcDbEllipse
 62
7
  6
CONTINUOUS
 10
12.2999695344
 20
-22.3
 30
0.0
 11
0.2000304656
 21
-0.0
 31
0.0
 40
0.9998476952
 41
-1.5707963268
 42
0.0
  0
ELLIPSE
  5
43C
100
AcDbEntity
  8
RACCORDO
100
AcDbEllipse
 62
7
  6
CONTINUOUS
 10
-12.2999695344
 20
-22.3
 30
0.0
 11
0.2000304656
 21
-0.0
 31
0.0
 40
0.9998476952
 41
3.1415926536
 42
4.7123889804
  0
ELLIPSE
  5
43D
100
AcDbEntity
  8
RACCORDO
100
AcDbEllipse
 62
7
  6
CONTINUOUS
 10
-12.2999695344
 20
22.3
 30
0.0
 11
0.2000304656
 21
-0.0
 31
0.0
 40
0.9998476952
 41
1.5707963268
 42
3.1415926536
  0
ELLIPSE
  5
43E
100
AcDbEntity
  8
RACCORDO
100
AcDbEllipse
 62
7
  6
CONTINUOUS
 10
12.2999695344
 20
22.3
 30
0.0
 11
0.2000304656
 21
0.0
 31
0.0
 40
0.9998476952
 41
0.0
 42
1.5707963268
  0
ELLIPSE
  5
43F
100
AcDbEntity
  8
RACCORDO
100
AcDbEllipse
 62
7
  6
CONTINUOUS
 10
18.1995882962
 20
38.1975297772
 30
0.0
 11
0.212713873
 21
0.212713873
 31
0.0
 40
0.9972646886
 41
-0.7840286355
 42
0.7840286355
  0
ELLIPSE
  5
440
100
AcDbEntity
  8
RACCORDO
100
AcDbEllipse
 62
7
  6
CONTINUOUS
 10
-18.1995882962
 20
38.1975297772
 30
0.0
 11
0.212713873
 21
-0.212713873
 31
0.0
 40
0.9972646886
 41
2.3575640181
 42
3.9256212891
  0
ELLIPSE
  5
441
100
AcDbEntity
  8
RACCORDO
100
AcDbEllipse
 62
7
  6
CONTINUOUS
 10
-18.1995882962
 20
-38.1975297772
 30
0.0
 11
0.212713873
 21
0.212713873
 31
0.0
 40
0.9972646886
 41
2.3575640181
 42
3.9256212891
  0
ELLIPSE
  5
442
100
AcDbEntity
  8
RACCORDO
100
AcDbEllipse
 62
7
  6
CONTINUOUS
 10
18.1995882962
 20
-38.1975297772
 30
0.0
 11
0.212713873
 21
-0.212713873
 31
0.0
 40
0.9972646886
 41
-0.7840286355
 42
0.7840286355
  0
ELLIPSE
  5
443
100
AcDbEntity
  8
RACCORDO
100
AcDbEllipse
 62
7
  6
CONTINUOUS
 10
3.6049863962
 20
-37.5
 30
0.0
 11
-0.0
 21
0.8
 31
0.0
 40
0.0874886635
 41
-1.5707963268
 42
-0.0
  0
ELLIPSE
  5
444
100
AcDbEntity
  8
RACCORDO
100
AcDbEllipse
 62
7
  6
CONTINUOUS
 10
3.6049863962
 20
37.5
 30
0.0
 11
-0.0
 21
0.8
 31
0.0
 40
0.0874886635
 41
-3.1415926536
 42
-1.5707963268
  0
ELLIPSE
  5
445
100
AcDbEntity
  8
RACCORDO
100
AcDbEllipse
 62
7
  6
CONTINUOUS
 10
-3.6049863962
 20
-37.5
 30
0.0
 11
-0.0
 21
0.8
 31
0.0
 40
0.0874886635
 41
-0.0
 42
1.5707963268
  0
ELLIPSE
  5
446
100
AcDbEntity
  8
RACCORDO
100
AcDbEllipse
 62
7
  6
CONTINUOUS
 10
-3.6049863962
 20
37.5
 30
0.0
 11
0.0
 21
0.8
 31
0.0
 40
0.0874886635
 41
-4.7123889804
 42
-3.1415926536
  0
ENDSEC
  0
SECTION
  2
OBJECTS
  0
DICTIONARY
  5
C
100
AcDbDictionary
280
0
281
1
  3
ACAD_GROUP
350
D
  3
ACAD_MLINESTYLE
350
17
  3
ACAD_LAYOUT
350
1A
  3
ACAD_PLOTSETTINGS
350
19
  3
ACAD_PLOTSTYLENAME
350
E
  0
DICTIONARY
  5
D
102
{ACAD_REACTORS
330
C
102
}
100
AcDbDictionary
280
0
281
1
  0
ACDBDICTIONARYWDFLT
  5
E
102
{ACAD_REACTORS
330
C
102
}
100
AcDbDictionary
281
1
  3
Normal
350
F
100
AcDbDictionaryWithDefault
340
F
  0
DICTIONARY
  5
17
102
{ACAD_REACTORS
330
C
102
}
100
AcDbDictionary
280
0
281
1
  3
Standard
350
18
  0
DICTIONARY
  5
19
102
{ACAD_REACTORS
330
C
102
}
100
AcDbDictionary
281
1
  0
DICTIONARY
  5
1A
102
{ACAD_REACTORS
330
C
102
}
100
AcDbDictionary
281
1
  3
Model
350
447
  3
Layout1
350
448
  0
ACDBPLACEHOLDER
  5
F
102
{ACAD_REACTORS
330
E
102
}
  0
MLINESTYLE
  5
18
102
{ACAD_REACTORS
330
17
102
}
100
AcDbMlineStyle
  2
STANDARD
 70
0
  3

 62
256
 51
90.0
 52
90.0
 71
2
 49
0.5
 62
256
  6
BYLAYER
 49
-0.5
 62
256
  6
BYLAYER
  0
LAYOUT
  5
447
102
{ACAD_REACTORS
330
1A
102
}
100
AcDbPlotSettings
  1

  2
none_device
  4
ISO_A4_(297.00_x_210.00_MM)
  6

 40
0.0
 41
0.0
 42
0.0
 43
0.0
 44
297.0
 45
210.0
 46
0.0
 47
0.0
 48
0.0
 49
0.0
140
0.0
141
0.0
142
1.0
143
1.0
 70
1024
 72
1
 73
0
 74
0
  7

 75
0
147
1.0
148
0.0
149
0.0
100
AcDbLayout
  1
Model
 70
0
 71
0
 10
0.0
 20
0.0
 11
297.0
 21
210.0
 12
0.0
 22
0.0
 32
0.0
 14
0.0
 24
0.0
 34
0.0
 15
0.0
 25
0.0
 35
0.0
146
0.0
 13
0.0
 23
0.0
 33
0.0
 16
1.0
 26
0.0
 36
0.0
 17
0.0
 27
1.0
 37
0.0
 76
0
330
211
345
0
346
0
  0
LAYOUT
  5
448
102
{ACAD_REACTORS
330
1A
102
}
100
AcDbPlotSettings
  1

  2
none_device
  4
ISO_A4_(297.00_x_210.00_MM)
  6

 40
0.0
 41
0.0
 42
0.0
 43
0.0
 44
297.0
 45
210.0
 46
0.0
 47
0.0
 48
0.0
 49
0.0
140
0.0
141
0.0
142
1.0
143
1.0
 70
0
 72
1
 73
0
 74
0
  7

 75
0
147
1.0
148
0.0
149
0.0
100
AcDbLayout
  1
Layout1
 70
0
 71
1
 10
0.0
 20
0.0
 11
297.0
 21
210.0
 12
0.0
 22
0.0
 32
0.0
 14
0.0
 24
0.0
 34
0.0
 15
0.0
 25
0.0
 35
0.0
146
0.0
 13
0.0
 23
0.0
 33
0.0
 16
1.0
 26
0.0
 36
0.0
 17
0.0
 27
1.0
 37
0.0
 76
0
330
212
345
0
346
0
  0
ENDSEC
  0
EOF
