  0
SECTION
  2
HEADER
  9
$ACADVER
  1
AC1024
  9
$DWGCODEPAGE
  3
ANSI_1252
  9
$EXTMAX
 10
297.0
 20
210.0
 30
0.0
  9
$EXTMIN
 10
0.0
 20
0.0
 30
0.0
  9
$LIMMIN
 10
0.0
 20
0.0
  9
$LIMMAX
 10
297.0
 20
210.0
  9
$VIEWCTR
 10
148.5
 20
105.0
  9
$VIEWSIZE
 40
210.0
  9
$CLAYER
  8
0
  9
$LTSCALE
 40
16.335
  9
$CELTYPE
  6
BYLAYER
  9
$DIMSCALE
 40
1.0
  9
$DIMASZ
 40
3.0
  9
$DIMEXO
 40
0.5
  9
$DIMDLI
 40
11.286
  9
$DIMEXE
 40
1.5
  9
$DIMCEN
 40
2.673
  9
$DIMLFAC
 40
1.0
  9
$DIMBLK
  1
_FILLED
  9
$DIMALT
 70
0
  9
$DIMALTF
 40
0.0393700787
  9
$DIMTXT
 40
3.0
  9
$DIMTOL
 70
1
  9
$DIMLIM
 70
0
  9
$DIMTFAC
 40
1.0
  9
$DIMTP
 40
0.01
  9
$DIMTM
 40
0.01
  9
$DIMGAP
 40
0.625
  9
$DIMDSEP
 70
44
  9
$AUNITS
 70
0
  9
$PDMODE
 70
3
  9
$PDSIZE
 40
3.0
  9
$HANDSEED
  5
502
  9
$TILEMODE
 70
1
  9
$MEASUREMENT
 70
1
  9
$INSUNITS
 70
4
  0
ENDSEC
  0
SECTION
  2
CLASSES
  0
CLASS
  1
ACDBDICTIONARYWDFLT
  2
AcDbDictionaryWithDefault
  3
AutoCAD 2000
 90
0
 91
1
280
0
281
0
  0
CLASS
  1
ACDBPLACEHOLDER
  2
AcDbPlaceHolder
  3
AutoCAD 2000
 90
0
 91
1
280
0
281
0
  0
CLASS
  1
LAYOUT
  2
AcDbLayout
  3
AutoCAD 2000
 90
0
 91
0
280
0
281
0
  0
ENDSEC
  0
SECTION
  2
TABLES
  0
TABLE
  2
VPORT
  5
8
100
AcDbSymbolTable
 70
2
  0
VPORT
  5
1F4
100
AcDbSymbolTableRecord
100
AcDbViewportTableRecord
  2
*ACTIVE
 70
0
 10
0.0
 20
0.0
 11
1.0
 21
1.0
 12
148.5
 22
105.0
 13
0.0
 23
0.0
 14
1.0
 24
1.0
 15
0.0
 25
0.0
 16
0.0
 26
0.0
 36
1.0
 17
0.0
 27
0.0
 37
0.0
 40
210.0
 41
1.4142857143
 42
50.0
 43
0.0
 44
0.0
 50
0.0
 51
0.0
 71
0
 72
100
 73
1
 74
1
 75
0
 76
0
 77
0
 78
0
  0
ENDTAB
  0
TABLE
  2
LTYPE
  5
5
100
AcDbSymbolTable
 70
6
  0
LTYPE
  5
14
100
AcDbSymbolTableRecord
100
AcDbLinetypeTableRecord
  2
BYBLOCK
 70
0
  3

 72
65
 73
0
 40
0.0
  0
LTYPE
  5
15
100
AcDbSymbolTableRecord
100
AcDbLinetypeTableRecord
  2
BYLAYER
 70
0
  3

 72
65
 73
0
 40
0.0
  0
LTYPE
  5
16
100
AcDbSymbolTableRecord
100
AcDbLinetypeTableRecord
  2
CONTINUOUS
 70
64
  3
Solid line
 72
65
 73
0
 40
0.0
  0
LTYPE
  5
1F5
100
AcDbSymbolTableRecord
100
AcDbLinetypeTableRecord
  2
CENTER
 70
64
  3
____ _ ____ _ ____ _ ____ _ ____ _ ____ _ ____
 72
65
 73
4
 40
0.6
 49
0.375
 74
0
 49
-0.075
 74
0
 49
0.075
 74
0
 49
-0.075
 74
0
  0
LTYPE
  5
1F6
100
AcDbSymbolTableRecord
100
AcDbLinetypeTableRecord
  2
HIDDEN
 70
64
  3
- - - - - - - - - - - - - - - - - - - -
 72
65
 73
2
 40
0.2
 49
0.1
 74
0
 49
-0.1
 74
0
  0
LTYPE
  5
1F7
100
AcDbSymbolTableRecord
100
AcDbLinetypeTableRecord
  2
PHANTOM
 70
64
  3
_____ _ _ _____ _ _ _____ _ _ _____
 72
65
 73
6
 40
0.8
 49
0.45
 74
0
 49
-0.05
 74
0
 49
0.1
 74
0
 49
-0.05
 74
0
 49
0.1
 74
0
 49
-0.05
 74
0
  0
LTYPE
  5
1F8
100
AcDbSymbolTableRecord
100
AcDbLinetypeTableRecord
  2
DOT
 70
64
  3
. . . . . . . . . . . . . . . . . . . .
 72
65
 73
2
 40
0.2
 49
0.1
 74
0
 49
-0.1
 74
0
  0
LTYPE
  5
1F9
100
AcDbSymbolTableRecord
100
AcDbLinetypeTableRecord
  2
DASHED
 70
64
  3
- - - - - - - - - - - - - - - - - - - -
 72
65
 73
2
 40
0.2
 49
0.1
 74
0
 49
-0.1
 74
0
  0
ENDTAB
  0
TABLE
  2
LAYER
  5
2
100
AcDbSymbolTable
 70
36
  0
LAYER
  5
10
100
AcDbSymbolTableRecord
100
AcDbLayerTableRecord
  2
0
 70
0
 62
7
  6
CONTINUOUS
370
-3
390
F
  0
LAYER
  5
1FA
100
AcDbSymbolTableRecord
100
AcDbLayerTableRecord
  2
DEFAULT_1
 70
0
 62
7
  6
CENTER
370
-3
390
F
  0
LAYER
  5
1FB
100
AcDbSymbolTableRecord
100
AcDbLayerTableRecord
  2
DEFAULT_2
 70
0
 62
7
  6
HIDDEN
370
-3
390
F
  0
LAYER
  5
1FC
100
AcDbSymbolTableRecord
100
AcDbLayerTableRecord
  2
DEFAULT_3
 70
0
 62
7
  6
PHANTOM
370
-3
390
F
  0
LAYER
  5
1FD
100
AcDbSymbolTableRecord
100
AcDbLayerTableRecord
  2
ASSI
 70
0
 62
7
  6
CONTINUOUS
370
-3
390
F
  0
LAYER
  5
1FE
100
AcDbSymbolTableRecord
100
AcDbLayerTableRecord
  2
COORDINATE
 70
0
 62
7
  6
CONTINUOUS
370
-3
390
F
  0
LAYER
  5
1FF
100
AcDbSymbolTableRecord
100
AcDbLayerTableRecord
  2
COORD_ORIGINE
 70
0
 62
7
  6
CONTINUOUS
370
-3
390
F
  0
LAYER
  5
200
100
AcDbSymbolTableRecord
100
AcDbLayerTableRecord
  2
COSMETICI
 70
0
 62
7
  6
CONTINUOUS
370
-3
390
F
  0
LAYER
  5
201
100
AcDbSymbolTableRecord
100
AcDbLayerTableRecord
  2
CURVE
 70
0
 62
7
  6
CONTINUOUS
370
-3
390
F
  0
LAYER
  5
202
100
AcDbSymbolTableRecord
100
AcDbLayerTableRecord
  2
DRAFT
 70
0
 62
7
  6
CONTINUOUS
370
-3
390
F
  0
LAYER
  5
203
100
AcDbSymbolTableRecord
100
AcDbLayerTableRecord
  2
IMPORT
 70
0
 62
7
  6
CONTINUOUS
370
-3
390
F
  0
LAYER
  5
204
100
AcDbSymbolTableRecord
100
AcDbLayerTableRecord
  2
LAY0001
 70
0
 62
7
  6
CONTINUOUS
370
-3
390
F
  0
LAYER
  5
205
100
AcDbSymbolTableRecord
100
AcDbLayerTableRecord
  2
NOTE
 70
0
 62
7
  6
CONTINUOUS
370
-3
390
F
  0
LAYER
  5
206
100
AcDbSymbolTableRecord
100
AcDbLayerTableRecord
  2
PIANI
 70
0
 62
7
  6
CONTINUOUS
370
-3
390
F
  0
LAYER
  5
207
100
AcDbSymbolTableRecord
100
AcDbLayerTableRecord
  2
PIANI_ORIGINE
 70
0
 62
7
  6
CONTINUOUS
370
-3
390
F
  0
LAYER
  5
208
100
AcDbSymbolTableRecord
100
AcDbLayerTableRecord
  2
PUNTI
 70
0
 62
7
  6
CONTINUOUS
370
-3
390
F
  0
LAYER
  5
209
100
AcDbSymbolTableRecord
100
AcDbLayerTableRecord
  2
RACCORDO
 70
0
 62
7
  6
CONTINUOUS
370
-3
390
F
  0
LAYER
  5
20A
100
AcDbSymbolTableRecord
100
AcDbLayerTableRecord
  2
SIMBOLI
 70
0
 62
7
  6
CONTINUOUS
370
-3
390
F
  0
LAYER
  5
20B
100
AcDbSymbolTableRecord
100
AcDbLayerTableRecord
  2
SNAPLINE
 70
0
 62
7
  6
CONTINUOUS
370
-3
390
F
  0
LAYER
  5
20C
100
AcDbSymbolTableRecord
100
AcDbLayerTableRecord
  2
SUPERFICI
 70
0
 62
7
  6
CONTINUOUS
370
-3
390
F
  0
LAYER
  5
20D
100
AcDbSymbolTableRecord
100
AcDbLayerTableRecord
  2
TRASH
 70
0
 62
7
  6
CONTINUOUS
370
-3
390
F
  0
LAYER
  5
20E
100
AcDbSymbolTableRecord
100
AcDbLayerTableRecord
  2
XSEC_DATUMS
 70
0
 62
7
  6
CONTINUOUS
370
-3
390
F
  0
ENDTAB
  0
TABLE
  2
STYLE
  5
3
100
AcDbSymbolTable
 70
1
  0
STYLE
  5
11
100
AcDbSymbolTableRecord
100
AcDbTextStyleTableRecord
  2
STANDARD
 70
0
 40
0.0
 41
0.8
 50
0.0
 71
0
 42
0.2
  3
txt
  4

  0
STYLE
  5
20F
100
AcDbSymbolTableRecord
100
AcDbTextStyleTableRecord
  2
TEXTSTYLE_1
 70
0
 40
0.0
 41
0.8
 50
0.0
 71
0
 42
0.2
  3
gdt
  4

  0
ENDTAB
  0
TABLE
  2
VIEW
  5
6
100
AcDbSymbolTable
 70
0
  0
ENDTAB
  0
TABLE
  2
UCS
  5
7
100
AcDbSymbolTable
 70
0
  0
ENDTAB
  0
TABLE
  2
APPID
  5
9
100
AcDbSymbolTable
 70
1
  0
APPID
  5
210
100
AcDbSymbolTableRecord
100
AcDbRegAppTableRecord
  2
ACAD
 70
0
  0
ENDTAB
  0
TABLE
  2
BLOCK_RECORD
  5
1
100
AcDbSymbolTable
 70
0
  0
BLOCK_RECORD
  5
211
100
AcDbSymbolTableRecord
100
AcDbBlockTableRecord
  2
*Model_Space
  0
BLOCK_RECORD
  5
212
100
AcDbSymbolTableRecord
100
AcDbBlockTableRecord
  2
*Paper_Space
  0
BLOCK_RECORD
  5
213
100
AcDbSymbolTableRecord
100
AcDbBlockTableRecord
  2
_FILLED
  0
ENDTAB
  0
TABLE
  2
DIMSTYLE
  5
A
100
AcDbSymbolTable
 70
1
100
AcDbDimStyleTable
 71
0
  0
DIMSTYLE
105
214
100
AcDbSymbolTableRecord
100
AcDbDimStyleTableRecord
  2
STANDARD
 70
0
  3

  4

 40
1.0
 41
3.0
 42
0.5
 43
0.38
 44
1.5
 45
0.0
 46
0.0
 47
0.01
 48
0.01
140
3.0
141
0.09
142
0.0
143
25.4
144
1.0
145
0.0
146
1.0
147
0.625
 71
1
 72
0
 73
0
 74
0
 75
0
 76
0
 77
1
 78
8
 79
2
170
0
171
1
172
0
173
0
174
0
175
0
176
0
177
0
178
0
270
2
179
2
271
2
272
2
273
2
274
2
275
0
280
0
281
0
282
0
283
1
284
8
285
0
286
0
287
3
288
0
340
11
278
44
341
213
342
213
343
213
344
213
  0
ENDTAB
  0
ENDSEC
  0
SECTION
  2
BLOCKS
  0
BLOCK
  5
20
100
AcDbEntity
  8
0
100
AcDbBlockBegin
  2
*Model_Space
 70
0
 10
0.0
 20
0.0
 30
0.0
  3
*Model_Space
  1

  0
ENDBLK
  5
21
100
AcDbEntity
  8
0
100
AcDbBlockEnd
  0
BLOCK
  5
1C
100
AcDbEntity
  8
0
100
AcDbBlockBegin
  2
*Paper_Space
 70
0
 10
0.0
 20
0.0
 30
0.0
  3
*Paper_Space
  1

  0
ENDBLK
  5
1D
100
AcDbEntity
  8
0
100
AcDbBlockEnd
  0
BLOCK
  5
215
100
AcDbEntity
  8
0
100
AcDbBlockBegin
  2
_FILLED
 70
64
 10
0.0
 20
0.0
  3
_FILLED
  1

  0
SOLID
  5
216
100
AcDbEntity
  8
0
  6
BYBLOCK
 62
0
100
AcDbTrace
 10
0.0
 20
0.0
 11
-1.0
 21
0.3166666667
 12
-1.0
 22
-0.3166666667
 13
-1.0
 23
-0.3166666667
  0
ENDBLK
  5
217
100
AcDbEntity
  8
0
  6
BYBLOCK
 62
0
100
AcDbBlockEnd
  0
ENDSEC
  0
SECTION
  2
ENTITIES
  0
LWPOLYLINE
  5
218
100
AcDbEntity
  8
RACCORDO
100
AcDbPolyline
 62
250
  6
CONTINUOUS
 90
9
 70
0
 10
17.8748567531
 20
-66.254771901
 10
17.9069793007
 20
-66.253010156
 10
17.9365374727
 20
-66.2503566203
 10
17.9628733437
 20
-66.2474197331
 10
17.9856096713
 20
-66.2445704899
 10
18.0041222054
 20
-66.2410004922
 10
18.0180205294
 20
-66.2368468369
 10
18.0271612533
 20
-66.2331508614
 10
18.031502559
 20
-66.2304750235
  0
LWPOLYLINE
  5
219
100
AcDbEntity
  8
RACCORDO
100
AcDbPolyline
 62
250
  6
CONTINUOUS
 90
3
 70
0
 10
17.7697353887
 20
-66.2588943761
 10
17.8061216239
 20
-66.2579240807
 10
17.8748567531
 20
-66.254771901
  0
LINE
  5
21A
100
AcDbEntity
  8
RACCORDO
100
AcDbLine
 62
7
  6
CONTINUOUS
 10
-18.8016445583
 20
-68.5
 11
-3.6749773271
 21
-68.5
  0
LINE
  5
21B
100
AcDbEntity
  8
RACCORDO
100
AcDbLine
 62
7
  6
CONTINUOUS
 10
3.6749773271
 20
-68.5
 11
18.8016445583
 21
-68.5
  0
LINE
  5
21C
100
AcDbEntity
  8
0
100
AcDbLine
 62
7
  6
CONTINUOUS
 10
3.5
 20
-68.3951844414
 11
-3.5
 21
-68.3951844414
  0
LINE
  5
21D
100
AcDbEntity
  8
RACCORDO
100
AcDbLine
 62
7
  6
CONTINUOUS
 10
18.0004155364
 20
-66.8
 11
11.7
 21
-66.8
  0
LINE
  5
21E
100
AcDbEntity
  8
0
100
AcDbLine
 62
7
  6
CONTINUOUS
 10
8.5
 20
-66.8
 11
4.5
 21
-66.8
  0
LINE
  5
21F
100
AcDbEntity
  8
0
100
AcDbLine
 62
7
  6
CONTINUOUS
 10
-4.5
 20
-66.8
 11
-8.5
 21
-66.8
  0
LINE
  5
220
100
AcDbEntity
  8
0
100
AcDbLine
 62
7
  6
CONTINUOUS
 10
9.5
 20
-66.8
 11
10.7
 21
-66.8
  0
LINE
  5
221
100
AcDbEntity
  8
0
100
AcDbLine
 62
7
  6
CONTINUOUS
 10
-9.5
 20
-66.8
 11
-10.7
 21
-66.8
  0
LINE
  5
222
100
AcDbEntity
  8
RACCORDO
100
AcDbLine
 62
7
  6
CONTINUOUS
 10
-11.7
 20
-66.8
 11
-18.0004155364
 21
-66.8
  0
LINE
  5
223
100
AcDbEntity
  8
0
100
AcDbLine
 62
7
  6
CONTINUOUS
 10
9.5
 20
-66.7156982549
 11
10.7
 21
-66.7156982549
  0
LINE
  5
224
100
AcDbEntity
  8
0
100
AcDbLine
 62
7
  6
CONTINUOUS
 10
-9.5
 20
-66.7156982549
 11
-10.7
 21
-66.7156982549
  0
LINE
  5
225
100
AcDbEntity
  8
0
100
AcDbLine
 62
7
  6
CONTINUOUS
 10
3.5
 20
-66.6946228186
 11
-3.5
 21
-66.6946228186
  0
LINE
  5
226
100
AcDbEntity
  8
0
100
AcDbLine
 62
7
  6
CONTINUOUS
 10
-14.0
 20
-66.5470947647
 11
-13.2
 21
-66.5470947647
  0
LINE
  5
227
100
AcDbEntity
  8
0
100
AcDbLine
 62
7
  6
CONTINUOUS
 10
13.2
 20
-66.5470947647
 11
14.0
 21
-66.5470947647
  0
LINE
  5
228
100
AcDbEntity
  8
RACCORDO
100
AcDbLine
 62
250
  6
CONTINUOUS
 10
13.2
 20
-66.5359670268
 11
11.7
 21
-66.5359670268
  0
LINE
  5
229
100
AcDbEntity
  8
RACCORDO
100
AcDbLine
 62
250
  6
CONTINUOUS
 10
8.5
 20
-66.5359670268
 11
4.5
 21
-66.5359670268
  0
LINE
  5
22A
100
AcDbEntity
  8
RACCORDO
100
AcDbLine
 62
250
  6
CONTINUOUS
 10
3.5
 20
-66.5359670268
 11
-3.5
 21
-66.5359670268
  0
LINE
  5
22B
100
AcDbEntity
  8
RACCORDO
100
AcDbLine
 62
250
  6
CONTINUOUS
 10
-4.5
 20
-66.5359670268
 11
-8.5
 21
-66.5359670268
  0
LINE
  5
22C
100
AcDbEntity
  8
RACCORDO
100
AcDbLine
 62
250
  6
CONTINUOUS
 10
-11.7
 20
-66.5359670268
 11
-13.2
 21
-66.5359670268
  0
LINE
  5
22D
100
AcDbEntity
  8
RACCORDO
100
AcDbLine
 62
250
  6
CONTINUOUS
 10
17.7319136986
 20
-66.5300594754
 11
14.0032776358
 21
-66.5300594754
  0
LINE
  5
22E
100
AcDbEntity
  8
RACCORDO
100
AcDbLine
 62
250
  6
CONTINUOUS
 10
-14.0032776358
 20
-66.5300594754
 11
-17.7319136986
 21
-66.5300594754
  0
LINE
  5
22F
100
AcDbEntity
  8
RACCORDO
100
AcDbLine
 62
250
  6
CONTINUOUS
 10
17.7697353887
 20
-66.2588943761
 11
14.3
 21
-66.2589150801
  0
LINE
  5
230
100
AcDbEntity
  8
RACCORDO
100
AcDbLine
 62
250
  6
CONTINUOUS
 10
-14.3
 20
-66.2589150801
 11
-17.731913102
 21
-66.2589150801
  0
LINE
  5
231
100
AcDbEntity
  8
RACCORDO
100
AcDbLine
 62
250
  6
CONTINUOUS
 10
13.2
 20
-66.2226169751
 11
11.7
 21
-66.2226169751
  0
LINE
  5
232
100
AcDbEntity
  8
RACCORDO
100
AcDbLine
 62
250
  6
CONTINUOUS
 10
8.5
 20
-66.2226169751
 11
4.5
 21
-66.2226169751
  0
LINE
  5
233
100
AcDbEntity
  8
RACCORDO
100
AcDbLine
 62
250
  6
CONTINUOUS
 10
3.5
 20
-66.2226169751
 11
-3.5
 21
-66.2226169751
  0
LINE
  5
234
100
AcDbEntity
  8
RACCORDO
100
AcDbLine
 62
250
  6
CONTINUOUS
 10
-4.5
 20
-66.2226169751
 11
-8.5
 21
-66.2226169751
  0
LINE
  5
235
100
AcDbEntity
  8
RACCORDO
100
AcDbLine
 62
250
  6
CONTINUOUS
 10
-11.7
 20
-66.2226169751
 11
-13.2
 21
-66.2226169751
  0
LINE
  5
236
100
AcDbEntity
  8
0
100
AcDbLine
 62
7
  6
CONTINUOUS
 10
10.7
 20
-66.0
 11
9.5
 21
-66.0
  0
LINE
  5
237
100
AcDbEntity
  8
RACCORDO
100
AcDbLine
 62
250
  6
CONTINUOUS
 10
4.5
 20
-66.0
 11
3.6749773271
 21
-66.0
  0
LINE
  5
238
100
AcDbEntity
  8
RACCORDO
100
AcDbLine
 62
250
  6
CONTINUOUS
 10
-3.6749773271
 20
-66.0
 11
-4.5
 21
-66.0
  0
LINE
  5
239
100
AcDbEntity
  8
0
100
AcDbLine
 62
7
  6
CONTINUOUS
 10
-9.5
 20
-66.0
 11
-10.7
 21
-66.0
  0
LWPOLYLINE
  5
23A
100
AcDbEntity
  8
RACCORDO
100
AcDbPolyline
 62
250
  6
CONTINUOUS
 90
13
 70
0
 10
-17.7319136986
 20
-66.2589150801
 10
-17.7697787748
 20
-66.2585002203
 10
-17.8070381967
 20
-66.2576370987
 10
-17.8430959974
 20
-66.2563395312
 10
-17.8773754301
 20
-66.2546282825
 10
-17.9093281931
 20
-66.252530728
 10
-17.9384431997
 20
-66.2500804153
 10
-17.9642547535
 20
-66.2473165339
 10
-17.986349997
 20
-66.2442832955
 10
-18.0043755154
 20
-66.2410292202
 10
-18.0180429893
 20
-66.2376063531
 10
-18.0271338066
 20
-66.2340694332
 10
-18.031502559
 20
-66.2304750235
  0
LWPOLYLINE
  5
23B
100
AcDbEntity
  8
RACCORDO
100
AcDbPolyline
 62
250
  6
CONTINUOUS
 90
10
 70
0
 10
-17.7319136986
 20
-66.5300594754
 10
-17.7838466814
 20
-66.5253810125
 10
-17.8342072204
 20
-66.5117732901
 10
-17.8814704829
 20
-66.4896483273
 10
-17.9242054164
 20
-66.4596760308
 10
-17.9611180787
 20
-66.4227639117
 10
-17.9910908162
 20
-66.3800296071
 10
-18.0132161046
 20
-66.3327670401
 10
-18.0268240273
 20
-66.2824072421
 10
-18.031502559
 20
-66.2304750235
  0
LWPOLYLINE
  5
23C
100
AcDbEntity
  8
RACCORDO
100
AcDbPolyline
 62
250
  6
CONTINUOUS
 90
13
 70
0
 10
-18.031502559
 20
66.2304750235
 10
-18.0271338066
 20
66.2340694332
 10
-18.0180429893
 20
66.2376063531
 10
-18.0043755154
 20
66.2410292202
 10
-17.986349997
 20
66.2442832955
 10
-17.9642547535
 20
66.2473165339
 10
-17.9384431997
 20
66.2500804153
 10
-17.9093281931
 20
66.252530728
 10
-17.8773754302
 20
66.2546282825
 10
-17.8430959974
 20
66.2563395312
 10
-17.8070381967
 20
66.2576370987
 10
-17.7697787748
 20
66.2585002203
 10
-17.7319136986
 20
66.2589150801
  0
LWPOLYLINE
  5
23D
100
AcDbEntity
  8
RACCORDO
100
AcDbPolyline
 62
7
  6
CONTINUOUS
 90
4
 70
0
 10
-14.0032776358
 20
66.5300594754
 10
-14.0146999104
 20
66.5244987483
 10
-14.0294109621
 20
66.5132415345
 10
-14.069284765
 20
66.4779040116
  0
LWPOLYLINE
  5
23E
100
AcDbEntity
  8
0
100
AcDbPolyline
 62
7
  6
CONTINUOUS
 90
16
 70
0
 10
5.0509933063
 20
-64.1520299979
 10
5.1164246505
 20
-64.1492286866
 10
5.1789061672
 20
-64.1384139226
 10
5.2384378564
 20
-64.1195859125
 10
5.2962472873
 20
-64.0919792624
 10
5.3511068907
 20
-64.0563602888
 10
5.3993339588
 20
-64.0150268055
 10
5.4395165288
 20
-63.9676854973
 10
5.4730665634
 20
-63.9146309569
 10
5.5005372427
 20
-63.8590423856
 10
5.521341474
 20
-63.8012436068
 10
5.53606635
 20
-63.7409115311
 10
5.5470263287
 20
-63.6802542788
 10
5.554992896
 20
-63.6200077937
 10
5.5591945661
 20
-63.559436215
 10
5.5596313389
 20
-63.4985396232
  0
LWPOLYLINE
  5
23F
100
AcDbEntity
  8
0
100
AcDbPolyline
 62
7
  6
CONTINUOUS
 90
19
 70
0
 10
0.2328734532
 20
-63.4345799993
 10
0.2610777831
 20
-63.4341530398
 10
0.289203222
 20
-63.4322564962
 10
0.3172497699
 20
-63.428890376
 10
0.3454985848
 20
-63.4243746345
 10
0.3736685087
 20
-63.418389345
 10
0.4009160679
 20
-63.4099747165
 10
0.4273448668
 20
-63.3989094098
 10
0.452851301
 20
-63.3854148944
 10
0.4762810835
 20
-63.3691956436
 10
0.497567853
 20
-63.3497956511
 10
0.5167779708
 20
-63.3276711998
 10
0.5329562336
 20
-63.3038951748
 10
0.5456326571
 20
-63.2784138217
 10
0.5552772255
 20
-63.2512811218
 10
0.5623446895
 20
-63.2237314216
 10
0.5669866324
 20
-63.1961761522
 10
0.5690514708
 20
-63.1682039303
 10
0.5685392047
 20
-63.139814791
  0
LWPOLYLINE
  5
240
100
AcDbEntity
  8
0
100
AcDbPolyline
 62
7
  6
CONTINUOUS
 90
19
 70
0
 10
-5.6884688287
 20
-63.4345799993
 10
-5.6602644988
 20
-63.4341530398
 10
-5.6321390599
 20
-63.4322564962
 10
-5.604092512
 20
-63.428890376
 10
-5.5758436971
 20
-63.4243746345
 10
-5.5476737732
 20
-63.418389345
 10
-5.520426214
 20
-63.4099747165
 10
-5.4939974151
 20
-63.3989094098
 10
-5.4684909809
 20
-63.3854148944
 10
-5.4450611984
 20
-63.3691956436
 10
-5.4237744289
 20
-63.3497956511
 10
-5.4045643111
 20
-63.3276711998
 10
-5.3883860482
 20
-63.3038951748
 10
-5.3757096248
 20
-63.2784138217
 10
-5.3660650563
 20
-63.2512811218
 10
-5.3589975924
 20
-63.2237314216
 10
-5.3543556495
 20
-63.1961761522
 10
-5.3522908111
 20
-63.1682039303
 10
-5.3528030772
 20
-63.139814791
  0
LINE
  5
241
100
AcDbEntity
  8
0
100
AcDbLine
 62
7
  6
CONTINUOUS
 10
8.5
 20
-65.3
 11
9.5
 21
-65.3
  0
LINE
  5
242
100
AcDbEntity
  8
0
100
AcDbLine
 62
7
  6
CONTINUOUS
 10
-8.5
 20
-65.3
 11
-9.5
 21
-65.3
  0
LINE
  5
243
100
AcDbEntity
  8
0
100
AcDbLine
 62
7
  6
CONTINUOUS
 10
10.7
 20
-65.3
 11
11.7
 21
-65.3
  0
LINE
  5
244
100
AcDbEntity
  8
0
100
AcDbLine
 62
7
  6
CONTINUOUS
 10
-10.7
 20
-65.3
 11
-11.7
 21
-65.3
  0
LINE
  5
245
100
AcDbEntity
  8
RACCORDO
100
AcDbLine
 62
7
  6
CONTINUOUS
 10
4.5
 20
-65.2
 11
3.5
 21
-65.2
  0
LINE
  5
246
100
AcDbEntity
  8
RACCORDO
100
AcDbLine
 62
7
  6
CONTINUOUS
 10
-3.5
 20
-65.2
 11
-4.5
 21
-65.2
  0
LINE
  5
247
100
AcDbEntity
  8
0
100
AcDbLine
 62
7
  6
CONTINUOUS
 10
8.5
 20
-64.5
 11
9.5
 21
-64.5
  0
LINE
  5
248
100
AcDbEntity
  8
0
100
AcDbLine
 62
7
  6
CONTINUOUS
 10
-8.5
 20
-64.5
 11
-9.5
 21
-64.5
  0
LINE
  5
249
100
AcDbEntity
  8
0
100
AcDbLine
 62
7
  6
CONTINUOUS
 10
10.7
 20
-64.5
 11
11.7
 21
-64.5
  0
LINE
  5
24A
100
AcDbEntity
  8
0
100
AcDbLine
 62
7
  6
CONTINUOUS
 10
-10.7
 20
-64.5
 11
-11.7
 21
-64.5
  0
LINE
  5
24B
100
AcDbEntity
  8
0
100
AcDbLine
 62
7
  6
CONTINUOUS
 10
-6.384575
 20
-64.34854
 11
-6.15491
 21
-64.34854
  0
LINE
  5
24C
100
AcDbEntity
  8
0
100
AcDbLine
 62
7
  6
CONTINUOUS
 10
-4.97585
 20
-64.34854
 11
-4.739071
 21
-64.34854
  0
LINE
  5
24D
100
AcDbEntity
  8
0
100
AcDbLine
 62
7
  6
CONTINUOUS
 10
-3.71142
 20
-64.34854
 11
-3.460548
 21
-64.34854
  0
LINE
  5
24E
100
AcDbEntity
  8
0
100
AcDbLine
 62
7
  6
CONTINUOUS
 10
-2.821353
 20
-64.34854
 11
-2.591689
 21
-64.34854
  0
LINE
  5
24F
100
AcDbEntity
  8
0
100
AcDbLine
 62
7
  6
CONTINUOUS
 10
-1.777192
 20
-64.34854
 11
-1.531018
 21
-64.34854
  0
LINE
  5
250
100
AcDbEntity
  8
0
100
AcDbLine
 62
7
  6
CONTINUOUS
 10
-0.463232
 20
-64.34854
 11
-0.233568
 21
-64.34854
  0
LINE
  5
251
100
AcDbEntity
  8
0
100
AcDbLine
 62
7
  6
CONTINUOUS
 10
1.115962
 20
-64.34854
 11
2.370862
 21
-64.34854
  0
LINE
  5
252
100
AcDbEntity
  8
0
100
AcDbLine
 62
7
  6
CONTINUOUS
 10
2.671533
 20
-64.34854
 11
2.894083
 21
-64.34854
  0
LINE
  5
253
100
AcDbEntity
  8
0
100
AcDbLine
 62
7
  6
CONTINUOUS
 10
3.763076
 20
-64.34854
 11
4.021063
 21
-64.34854
  0
LINE
  5
254
100
AcDbEntity
  8
0
100
AcDbLine
 62
7
  6
CONTINUOUS
 10
4.392741
 20
-64.34854
 11
5.0817341014
 21
-64.34854
  0
LINE
  5
255
100
AcDbEntity
  8
0
100
AcDbLine
 62
7
  6
CONTINUOUS
 10
6.116365
 20
-64.34854
 11
6.362674
 21
-64.34854
  0
LINE
  5
256
100
AcDbEntity
  8
0
100
AcDbLine
 62
7
  6
CONTINUOUS
 10
4.622405
 20
-64.15203
 11
5.0509958463
 21
-64.15203
  0
LINE
  5
257
100
AcDbEntity
  8
0
100
AcDbLine
 62
7
  6
CONTINUOUS
 10
1.345627
 20
-64.144915
 11
2.370862
 21
-64.144915
  0
LINE
  5
258
100
AcDbEntity
  8
0
100
AcDbLine
 62
7
  6
CONTINUOUS
 10
-1.777192
 20
-64.097533
 11
-1.531018
 21
-64.097533
  0
LINE
  5
259
100
AcDbEntity
  8
0
100
AcDbLine
 62
7
  6
CONTINUOUS
 10
6.116365
 20
-64.097533
 11
6.362674
 21
-64.097533
  0
LINE
  5
25A
100
AcDbEntity
  8
0
100
AcDbLine
 62
7
  6
CONTINUOUS
 10
-4.561487
 20
-63.85364
 11
-3.879608
 21
-63.85364
  0
LINE
  5
25B
100
AcDbEntity
  8
0
100
AcDbLine
 62
7
  6
CONTINUOUS
 10
-4.490481
 20
-63.650016
 11
-3.962561
 21
-63.650016
  0
LINE
  5
25C
100
AcDbEntity
  8
0
100
AcDbLine
 62
7
  6
CONTINUOUS
 10
-6.15491
 20
-63.63109
 11
-5.6198810083
 21
-63.63109
  0
LINE
  5
25D
100
AcDbEntity
  8
0
100
AcDbLine
 62
7
  6
CONTINUOUS
 10
-0.233568
 20
-63.63109
 11
0.3014612736
 21
-63.63109
  0
LINE
  5
25E
100
AcDbEntity
  8
0
100
AcDbLine
 62
7
  6
CONTINUOUS
 10
1.345627
 20
-63.576728
 11
2.276231
 21
-63.576728
  0
LINE
  5
25F
100
AcDbEntity
  8
0
100
AcDbLine
 62
7
  6
CONTINUOUS
 10
-6.15491
 20
-63.43458
 11
-5.6884672409
 21
-63.43458
  0
LINE
  5
260
100
AcDbEntity
  8
0
100
AcDbLine
 62
7
  6
CONTINUOUS
 10
-0.233568
 20
-63.43458
 11
0.232875041
 21
-63.43458
  0
LINE
  5
261
100
AcDbEntity
  8
0
100
AcDbLine
 62
7
  6
CONTINUOUS
 10
1.345627
 20
-63.373103
 11
2.276231
 21
-63.373103
  0
LINE
  5
262
100
AcDbEntity
  8
0
100
AcDbLine
 62
7
  6
CONTINUOUS
 10
-3.396655
 20
-62.852164
 11
-2.821353
 21
-62.852164
  0
LINE
  5
263
100
AcDbEntity
  8
0
100
AcDbLine
 62
7
  6
CONTINUOUS
 10
-2.591689
 20
-62.852164
 11
-2.016387
 21
-62.852164
  0
LINE
  5
264
100
AcDbEntity
  8
0
100
AcDbLine
 62
7
  6
CONTINUOUS
 10
1.345627
 20
-62.852164
 11
2.354352
 21
-62.852164
  0
LINE
  5
265
100
AcDbEntity
  8
0
100
AcDbLine
 62
7
  6
CONTINUOUS
 10
-6.15491
 20
-62.84505
 11
-5.6884672409
 21
-62.84505
  0
LINE
  5
266
100
AcDbEntity
  8
0
100
AcDbLine
 62
7
  6
CONTINUOUS
 10
-0.233568
 20
-62.84505
 11
0.232875041
 21
-62.84505
  0
LINE
  5
267
100
AcDbEntity
  8
0
100
AcDbLine
 62
7
  6
CONTINUOUS
 10
4.622405
 20
-62.84505
 11
5.0509958463
 21
-62.84505
  0
LINE
  5
268
100
AcDbEntity
  8
0
100
AcDbLine
 62
7
  6
CONTINUOUS
 10
-6.384575
 20
-62.64854
 11
-5.6198368432
 21
-62.64854
  0
LINE
  5
269
100
AcDbEntity
  8
0
100
AcDbLine
 62
7
  6
CONTINUOUS
 10
-4.336521
 20
-62.64854
 11
-4.076118
 21
-62.64854
  0
LINE
  5
26A
100
AcDbEntity
  8
0
100
AcDbLine
 62
7
  6
CONTINUOUS
 10
-3.396655
 20
-62.64854
 11
-2.016387
 21
-62.64854
  0
LINE
  5
26B
100
AcDbEntity
  8
0
100
AcDbLine
 62
7
  6
CONTINUOUS
 10
-0.463232
 20
-62.64854
 11
0.3015054386
 21
-62.64854
  0
LINE
  5
26C
100
AcDbEntity
  8
0
100
AcDbLine
 62
7
  6
CONTINUOUS
 10
1.115962
 20
-62.64854
 11
2.354352
 21
-62.64854
  0
LINE
  5
26D
100
AcDbEntity
  8
0
100
AcDbLine
 62
7
  6
CONTINUOUS
 10
2.671533
 20
-62.64854
 11
2.943882
 21
-62.64854
  0
LINE
  5
26E
100
AcDbEntity
  8
0
100
AcDbLine
 62
7
  6
CONTINUOUS
 10
3.798513
 20
-62.64854
 11
4.021063
 21
-62.64854
  0
LINE
  5
26F
100
AcDbEntity
  8
0
100
AcDbLine
 62
7
  6
CONTINUOUS
 10
4.392741
 20
-62.64854
 11
5.0817341014
 21
-62.64854
  0
LINE
  5
270
100
AcDbEntity
  8
0
100
AcDbLine
 62
7
  6
CONTINUOUS
 10
-14.0
 20
-61.9
 11
-13.2
 21
-61.9
  0
LINE
  5
271
100
AcDbEntity
  8
0
100
AcDbLine
 62
7
  6
CONTINUOUS
 10
13.2
 20
-61.9
 11
14.0
 21
-61.9
  0
LWPOLYLINE
  5
272
100
AcDbEntity
  8
0
100
AcDbPolyline
 62
7
  6
CONTINUOUS
 90
5
 70
0
 10
5.081736567
 20
-62.6485399972
 10
5.1575675236
 20
-62.6530333423
 10
5.2302650629
 20
-62.6639776571
 10
5.2998291848
 20
-62.6813731507
 10
5.3668554546
 20
-62.7054424878
  0
LWPOLYLINE
  5
273
100
AcDbEntity
  8
0
100
AcDbPolyline
 62
7
  6
CONTINUOUS
 90
5
 70
0
 10
-5.6198368432
 20
-62.64854
 10
-5.5475497028
 20
-62.6529800379
 10
-5.4797132481
 20
-62.6644917435
 10
-5.4163274789
 20
-62.683075358
 10
-5.3566870359
 20
-62.7087102762
  0
LWPOLYLINE
  5
274
100
AcDbEntity
  8
0
100
AcDbPolyline
 62
7
  6
CONTINUOUS
 90
5
 70
0
 10
0.3015054386
 20
-62.64854
 10
0.3737925791
 20
-62.6529800379
 10
0.4416290338
 20
-62.6644917435
 10
0.5050148029
 20
-62.683075358
 10
0.564655246
 20
-62.7087102762
  0
LWPOLYLINE
  5
275
100
AcDbEntity
  8
RACCORDO
100
AcDbPolyline
 62
7
  6
CONTINUOUS
 90
3
 70
0
 10
-14.0032776358
 20
-66.5300594754
 10
-14.0146999104
 20
-66.5244987483
 10
-14.0294109621
 20
-66.5132415345
  0
LWPOLYLINE
  5
276
100
AcDbEntity
  8
RACCORDO
100
AcDbPolyline
 62
7
  6
CONTINUOUS
 90
3
 70
0
 10
-14.2086691531
 20
66.3485162705
 10
-14.2691336472
 20
66.2888606436
 10
-14.3
 20
66.2589150801
  0
LWPOLYLINE
  5
277
100
AcDbEntity
  8
RACCORDO
100
AcDbPolyline
 62
7
  6
CONTINUOUS
 90
3
 70
0
 10
-14.1211429409
 20
66.4314095268
 10
-14.178701033
 20
66.3773319678
 10
-14.2086691531
 20
66.3485162705
  0
LWPOLYLINE
  5
278
100
AcDbEntity
  8
RACCORDO
100
AcDbPolyline
 62
7
  6
CONTINUOUS
 90
3
 70
0
 10
-14.069284765
 20
66.4779040116
 10
-14.0944475161
 20
66.4558650433
 10
-14.1211429409
 20
66.4314095268
  0
LINE
  5
279
100
AcDbEntity
  8
0
100
AcDbLine
 62
7
  6
CONTINUOUS
 10
3.6749773271
 20
68.5
 11
3.5
 21
68.3951844414
  0
LINE
  5
27A
100
AcDbEntity
  8
0
100
AcDbLine
 62
7
  6
CONTINUOUS
 10
-3.966055
 20
64.290917
 11
-2.917751
 21
64.74605
  0
LINE
  5
27B
100
AcDbEntity
  8
0
100
AcDbLine
 62
7
  6
CONTINUOUS
 10
-4.201616
 20
63.396037
 11
-3.149695
 21
63.852739
  0
LINE
  5
27C
100
AcDbEntity
  8
0
100
AcDbLine
 62
7
  6
CONTINUOUS
 10
-1.074773
 20
64.30231
 11
-0.052708
 21
64.74605
  0
LINE
  5
27D
100
AcDbEntity
  8
0
100
AcDbLine
 62
7
  6
CONTINUOUS
 10
-4.375444
 20
62.783053
 11
-3.306991
 21
63.246933
  0
LINE
  5
27E
100
AcDbEntity
  8
IMPORT
100
AcDbLine
 62
7
  6
CONTINUOUS
 10
3.117556
 20
-59.375
 11
1.657055
 21
-59.375
  0
LINE
  5
27F
100
AcDbEntity
  8
IMPORT
100
AcDbLine
 62
7
  6
CONTINUOUS
 10
3.117556
 20
-58.625
 11
1.657051888
 21
-58.625
  0
LWPOLYLINE
  5
280
100
AcDbEntity
  8
0
100
AcDbPolyline
 62
7
  6
CONTINUOUS
 90
4
 70
0
 10
-5.3566870359
 20
-62.7087102762
 10
-5.3014972785
 20
-62.7414180229
 10
-5.2528742855
 20
-62.7812622568
 10
-5.2110447042
 20
-62.8293963211
  0
LINE
  5
281
100
AcDbEntity
  8
0
100
AcDbLine
 62
7
  6
CONTINUOUS
 10
3.6749773271
 20
-68.5
 11
3.5
 21
-68.3951844414
  0
LWPOLYLINE
  5
282
100
AcDbEntity
  8
RACCORDO
100
AcDbPolyline
 62
7
  6
CONTINUOUS
 90
4
 70
0
 10
-14.0294109621
 20
-66.5132415345
 10
-14.069284765
 20
-66.4779040116
 10
-14.0944475161
 20
-66.4558650433
 10
-14.1211429409
 20
-66.4314095268
  0
LINE
  5
283
100
AcDbEntity
  8
RACCORDO
100
AcDbLine
 62
7
  6
CONTINUOUS
 10
-14.1211429409
 20
-66.4314095268
 11
-14.178701033
 21
-66.3773319678
  0
LWPOLYLINE
  5
284
100
AcDbEntity
  8
RACCORDO
100
AcDbPolyline
 62
7
  6
CONTINUOUS
 90
3
 70
0
 10
-14.178701033
 20
-66.3773319678
 10
-14.2086691531
 20
-66.3485162705
 10
-14.2691336472
 20
-66.2888606436
  0
LINE
  5
285
100
AcDbEntity
  8
RACCORDO
100
AcDbLine
 62
7
  6
CONTINUOUS
 10
-14.2691336472
 20
-66.2888606436
 11
-14.3
 21
-66.2589150801
  0
LINE
  5
286
100
AcDbEntity
  8
0
100
AcDbLine
 62
7
  6
CONTINUOUS
 10
0.523187
 20
61.554685
 11
1.035156
 21
61.776961
  0
LINE
  5
287
100
AcDbEntity
  8
0
100
AcDbLine
 62
7
  6
CONTINUOUS
 10
0.3956371095
 20
61.1013610476
 11
1.983772
 21
61.790866
  0
LINE
  5
288
100
AcDbEntity
  8
0
100
AcDbLine
 62
7
  6
CONTINUOUS
 10
2.490785
 20
62.010991
 11
3.4529366796
 21
62.4287192951
  0
LINE
  5
289
100
AcDbEntity
  8
0
100
AcDbLine
 62
7
  6
CONTINUOUS
 10
0.7895517306
 20
60.762624883
 11
1.834599
 21
61.216343
  0
LINE
  5
28A
100
AcDbEntity
  8
0
100
AcDbLine
 62
7
  6
CONTINUOUS
 10
2.341613
 20
61.436468
 11
3.901419
 21
62.113674
  0
LINE
  5
28B
100
AcDbEntity
  8
0
100
AcDbLine
 62
7
  6
CONTINUOUS
 10
3.295642
 20
61.495
 11
3.797337
 21
61.712816
  0
LWPOLYLINE
  5
28C
100
AcDbEntity
  8
0
100
AcDbPolyline
 62
7
  6
CONTINUOUS
 90
19
 70
0
 10
-4.1956560369
 20
-55.153534
 10
-4.1411408247
 20
-55.1491783142
 10
-4.0889993618
 20
-55.1394145443
 10
-4.0392316481
 20
-55.1242430086
 10
-3.9912468349
 20
-55.1032552657
 10
-3.9456357709
 20
-55.076860969
 10
-3.9041710032
 20
-55.0462876515
 10
-3.8673402495
 20
-55.0113411259
 10
-3.8346557921
 20
-54.9722172772
 10
-3.8064270249
 20
-54.9307282889
 10
-3.7831917467
 20
-54.8870167068
 10
-3.7644121586
 20
-54.8409412155
 10
-3.7487842577
 20
-54.7938874447
 10
-3.7361223243
 20
-54.7460877858
 10
-3.7266120782
 20
-54.6973104061
 10
-3.7195066758
 20
-54.6482440134
 10
-3.7145571693
 20
-54.5991181549
 10
-3.7120125066
 20
-54.5497034481
 10
-3.7118726877
 20
-54.5
  0
LINE
  5
28D
100
AcDbEntity
  8
0
100
AcDbLine
 62
7
  6
CONTINUOUS
 10
-8.449383
 20
-55.35
 11
-8.22683
 21
-55.35
  0
LINE
  5
28E
100
AcDbEntity
  8
0
100
AcDbLine
 62
7
  6
CONTINUOUS
 10
-7.748516
 20
-55.35
 11
-7.521208
 21
-55.35
  0
LINE
  5
28F
100
AcDbEntity
  8
0
100
AcDbLine
 62
7
  6
CONTINUOUS
 10
-7.042986
 20
-55.35
 11
-6.820343
 21
-55.35
  0
LINE
  5
290
100
AcDbEntity
  8
0
100
AcDbLine
 62
7
  6
CONTINUOUS
 10
-6.616714
 20
-55.35
 11
-6.379965
 21
-55.35
  0
LINE
  5
291
100
AcDbEntity
  8
0
100
AcDbLine
 62
7
  6
CONTINUOUS
 10
-5.352404
 20
-55.35
 11
-5.101398
 21
-55.35
  0
LINE
  5
292
100
AcDbEntity
  8
0
100
AcDbLine
 62
7
  6
CONTINUOUS
 10
-4.878851
 20
-55.35
 11
-4.1898182814
 21
-55.35
  0
LINE
  5
293
100
AcDbEntity
  8
0
100
AcDbLine
 62
7
  6
CONTINUOUS
 10
-3.157472
 20
-55.35
 11
-1.902511
 21
-55.35
  0
LINE
  5
294
100
AcDbEntity
  8
0
100
AcDbLine
 62
7
  6
CONTINUOUS
 10
-0.908028
 20
-55.35
 11
-0.678373
 21
-55.35
  0
LINE
  5
295
100
AcDbEntity
  8
0
100
AcDbLine
 62
7
  6
CONTINUOUS
 10
-0.285386
 20
-55.35
 11
-0.06273
 21
-55.35
  0
LINE
  5
296
100
AcDbEntity
  8
0
100
AcDbLine
 62
7
  6
CONTINUOUS
 10
0.806243
 20
-55.35
 11
1.064316
 21
-55.35
  0
LINE
  5
297
100
AcDbEntity
  8
0
100
AcDbLine
 62
7
  6
CONTINUOUS
 10
2.117917
 20
-55.35
 11
2.347641
 21
-55.35
  0
LINE
  5
298
100
AcDbEntity
  8
0
100
AcDbLine
 62
7
  6
CONTINUOUS
 10
3.169264
 20
-55.35
 11
3.398905
 21
-55.35
  0
LINE
  5
299
100
AcDbEntity
  8
0
100
AcDbLine
 62
7
  6
CONTINUOUS
 10
4.040574
 20
-55.35
 11
4.277309
 21
-55.35
  0
LINE
  5
29A
100
AcDbEntity
  8
0
100
AcDbLine
 62
7
  6
CONTINUOUS
 10
5.304967
 20
-55.35
 11
5.556014
 21
-55.35
  0
LINE
  5
29B
100
AcDbEntity
  8
0
100
AcDbLine
 62
7
  6
CONTINUOUS
 10
5.766641
 20
-55.35
 11
6.858271
 21
-55.35
  0
LINE
  5
29C
100
AcDbEntity
  8
0
100
AcDbLine
 62
7
  6
CONTINUOUS
 10
7.578004
 20
-55.35
 11
7.807603
 21
-55.35
  0
LINE
  5
29D
100
AcDbEntity
  8
0
100
AcDbLine
 62
7
  6
CONTINUOUS
 10
-4.649114
 20
-55.153534
 11
-4.1956560369
 21
-55.153534
  0
LINE
  5
29E
100
AcDbEntity
  8
0
100
AcDbLine
 62
7
  6
CONTINUOUS
 10
-2.927749
 20
-55.146385
 11
-1.902511
 21
-55.146385
  0
LINE
  5
29F
100
AcDbEntity
  8
0
100
AcDbLine
 62
7
  6
CONTINUOUS
 10
5.996378
 20
-55.146385
 11
6.858271
 21
-55.146385
  0
LINE
  5
2A0
100
AcDbEntity
  8
RACCORDO
100
AcDbLine
 62
7
  6
CONTINUOUS
 10
18.3
 20
-54.9
 11
16.75
 21
-54.9
  0
LINE
  5
2A1
100
AcDbEntity
  8
0
100
AcDbLine
 62
7
  6
CONTINUOUS
 10
14.0
 20
-54.9
 11
16.75
 21
-54.9
  0
LINE
  5
2A2
100
AcDbEntity
  8
0
100
AcDbLine
 62
7
  6
CONTINUOUS
 10
-14.0
 20
-54.9
 11
-16.75
 21
-54.9
  0
LINE
  5
2A3
100
AcDbEntity
  8
RACCORDO
100
AcDbLine
 62
7
  6
CONTINUOUS
 10
-16.75
 20
-54.9
 11
-18.3
 21
-54.9
  0
LINE
  5
2A4
100
AcDbEntity
  8
0
100
AcDbLine
 62
7
  6
CONTINUOUS
 10
-6.202363
 20
-54.855192
 11
-5.520493
 21
-54.855192
  0
LINE
  5
2A5
100
AcDbEntity
  8
0
100
AcDbLine
 62
7
  6
CONTINUOUS
 10
4.454926
 20
-54.855192
 11
5.136864
 21
-54.855192
  0
LINE
  5
2A6
100
AcDbEntity
  8
0
100
AcDbLine
 62
7
  6
CONTINUOUS
 10
-6.13131
 20
-54.651577
 11
-5.6033
 21
-54.651577
  0
LINE
  5
2A7
100
AcDbEntity
  8
0
100
AcDbLine
 62
7
  6
CONTINUOUS
 10
4.525964
 20
-54.651577
 11
5.053975
 21
-54.651577
  0
LINE
  5
2A8
100
AcDbEntity
  8
0
100
AcDbLine
 62
7
  6
CONTINUOUS
 10
-2.927749
 20
-54.57816
 11
-1.997238
 21
-54.57816
  0
LINE
  5
2A9
100
AcDbEntity
  8
0
100
AcDbLine
 62
7
  6
CONTINUOUS
 10
-2.927749
 20
-54.374545
 11
-1.997238
 21
-54.374545
  0
LINE
  5
2AA
100
AcDbEntity
  8
RACCORDO
100
AcDbLine
 62
7
  6
CONTINUOUS
 10
-18.3
 20
-54.1
 11
-16.75
 21
-54.1
  0
LINE
  5
2AB
100
AcDbEntity
  8
0
100
AcDbLine
 62
7
  6
CONTINUOUS
 10
14.0
 20
-54.1
 11
16.75
 21
-54.1
  0
LINE
  5
2AC
100
AcDbEntity
  8
0
100
AcDbLine
 62
7
  6
CONTINUOUS
 10
-14.0
 20
-54.1
 11
-16.75
 21
-54.1
  0
LINE
  5
2AD
100
AcDbEntity
  8
RACCORDO
100
AcDbLine
 62
7
  6
CONTINUOUS
 10
16.75
 20
-54.1
 11
18.3
 21
-54.1
  0
LINE
  5
2AE
100
AcDbEntity
  8
0
100
AcDbLine
 62
7
  6
CONTINUOUS
 10
-2.927749
 20
-53.853615
 11
-1.919105
 21
-53.853615
  0
LINE
  5
2AF
100
AcDbEntity
  8
0
100
AcDbLine
 62
7
  6
CONTINUOUS
 10
2.59389
 20
-53.853615
 11
3.169264
 21
-53.853615
  0
LINE
  5
2B0
100
AcDbEntity
  8
0
100
AcDbLine
 62
7
  6
CONTINUOUS
 10
3.398905
 20
-53.853615
 11
3.974279
 21
-53.853615
  0
LINE
  5
2B1
100
AcDbEntity
  8
0
100
AcDbLine
 62
7
  6
CONTINUOUS
 10
-4.649114
 20
-53.846466
 11
-4.1956560369
 21
-53.846466
  0
LINE
  5
2B2
100
AcDbEntity
  8
0
100
AcDbLine
 62
7
  6
CONTINUOUS
 10
-8.449383
 20
-53.65
 11
-8.12026
 21
-53.65
  0
LINE
  5
2B3
100
AcDbEntity
  8
0
100
AcDbLine
 62
7
  6
CONTINUOUS
 10
-7.147131
 20
-53.65
 11
-6.820343
 21
-53.65
  0
LINE
  5
2B4
100
AcDbEntity
  8
0
100
AcDbLine
 62
7
  6
CONTINUOUS
 10
-5.977465
 20
-53.65
 11
-5.716972
 21
-53.65
  0
LINE
  5
2B5
100
AcDbEntity
  8
0
100
AcDbLine
 62
7
  6
CONTINUOUS
 10
-4.878851
 20
-53.65
 11
-4.1825902662
 21
-53.65
  0
LINE
  5
2B6
100
AcDbEntity
  8
0
100
AcDbLine
 62
7
  6
CONTINUOUS
 10
-3.157472
 20
-53.65
 11
-1.919105
 21
-53.65
  0
LINE
  5
2B7
100
AcDbEntity
  8
0
100
AcDbLine
 62
7
  6
CONTINUOUS
 10
-0.908028
 20
-53.65
 11
-0.678373
 21
-53.65
  0
LINE
  5
2B8
100
AcDbEntity
  8
0
100
AcDbLine
 62
7
  6
CONTINUOUS
 10
-0.285386
 20
-53.65
 11
-0.013043
 21
-53.65
  0
LINE
  5
2B9
100
AcDbEntity
  8
0
100
AcDbLine
 62
7
  6
CONTINUOUS
 10
0.841769
 20
-53.65
 11
1.064316
 21
-53.65
  0
LINE
  5
2BA
100
AcDbEntity
  8
0
100
AcDbLine
 62
7
  6
CONTINUOUS
 10
2.117917
 20
-53.65
 11
2.347641
 21
-53.65
  0
LINE
  5
2BB
100
AcDbEntity
  8
0
100
AcDbLine
 62
7
  6
CONTINUOUS
 10
2.59389
 20
-53.65
 11
3.974279
 21
-53.65
  0
LINE
  5
2BC
100
AcDbEntity
  8
0
100
AcDbLine
 62
7
  6
CONTINUOUS
 10
4.679906
 20
-53.65
 11
4.940316
 21
-53.65
  0
LINE
  5
2BD
100
AcDbEntity
  8
0
100
AcDbLine
 62
7
  6
CONTINUOUS
 10
5.766641
 20
-53.65
 11
5.996378
 21
-53.65
  0
LINE
  5
2BE
100
AcDbEntity
  8
0
100
AcDbLine
 62
7
  6
CONTINUOUS
 10
6.936362
 20
-53.65
 11
7.203908
 21
-53.65
  0
LINE
  5
2BF
100
AcDbEntity
  8
0
100
AcDbLine
 62
7
  6
CONTINUOUS
 10
8.179362
 20
-53.65
 11
8.449383
 21
-53.65
  0
LINE
  5
2C0
100
AcDbEntity
  8
0
100
AcDbLine
 62
7
  6
CONTINUOUS
 10
-13.2
 20
-51.8
 11
13.2
 21
-51.8
  0
LWPOLYLINE
  5
2C1
100
AcDbEntity
  8
0
100
AcDbPolyline
 62
7
  6
CONTINUOUS
 90
5
 70
0
 10
-4.1825902662
 20
-53.65
 10
-4.1015365202
 20
-53.6551635235
 10
-4.0253577124
 20
-53.6671117306
 10
-3.9540538426
 20
-53.6858451607
 10
-3.8875630926
 20
-53.7119086651
  0
LWPOLYLINE
  5
2C2
100
AcDbEntity
  8
0
100
AcDbPolyline
 62
7
  6
CONTINUOUS
 90
15
 70
0
 10
5.3668554546
 20
-62.7054424878
 10
5.4307483071
 20
-62.7359638004
 10
5.4897210462
 20
-62.7722706199
 10
5.5434006616
 20
-62.8146616352
 10
5.5921601637
 20
-62.8628394928
 10
5.6353318868
 20
-62.91524352
 10
5.6723877522
 20
-62.9721104257
 10
5.7038558386
 20
-63.0332048045
 10
5.7306527176
 20
-63.0962572686
 10
5.7530563169
 20
-63.1609789554
 10
5.7707887088
 20
-63.2276593228
 10
5.783932681
 20
-63.2948958241
 10
5.7925158293
 20
-63.3622208708
 10
5.7965105579
 20
-63.4301021173
 10
5.7959168668
 20
-63.4985396232
  0
LWPOLYLINE
  5
2C3
100
AcDbEntity
  8
0
100
AcDbPolyline
 62
7
  6
CONTINUOUS
 90
4
 70
0
 10
0.564655246
 20
-62.7087102762
 10
0.6198450034
 20
-62.7414180229
 10
0.6684679964
 20
-62.7812622568
 10
0.7102975777
 20
-62.8293963211
  0
LWPOLYLINE
  5
2C4
100
AcDbEntity
  8
0
100
AcDbPolyline
 62
7
  6
CONTINUOUS
 90
14
 70
0
 10
-3.5913423861
 20
54.1569255116
 10
-3.5551973636
 20
54.1811024743
 10
-3.5196976472
 20
54.2063003997
 10
-3.484846104
 20
54.2325322292
 10
-3.4507054354
 20
54.2598406211
 10
-3.4171359968
 20
54.2882018888
 10
-3.3842774328
 20
54.3176400935
 10
-3.3526113783
 20
54.348269555
 10
-3.3220681484
 20
54.3800297445
 10
-3.2927174282
 20
54.4129816468
 10
-3.2652499072
 20
54.4474219476
 10
-3.2398958155
 20
54.4834497869
 10
-3.2164249232
 20
54.5209666896
 10
-3.1948372302
 20
54.559973
  0
LWPOLYLINE
  5
2C5
100
AcDbEntity
  8
0
100
AcDbPolyline
 62
7
  6
CONTINUOUS
 90
6
 70
0
 10
-3.4880422109
 20
53.9576702353
 10
-3.5443016477
 20
53.9244176278
 10
-3.6018171944
 20
53.8931382469
 10
-3.6603536863
 20
53.8638171904
 10
-3.7201462882
 20
53.8364685866
 10
-3.781195
 20
53.8110920839
  0
LWPOLYLINE
  5
2C6
100
AcDbEntity
  8
0
100
AcDbPolyline
 62
7
  6
CONTINUOUS
 90
8
 70
0
 10
-1.5704238277
 20
52.7265822076
 10
-1.5244954234
 20
52.7501159091
 10
-1.4806198337
 20
52.780242386
 10
-1.4413805166
 20
52.8167490547
 10
-1.4070871661
 20
52.8605940485
 10
-1.3774300882
 20
52.9108229941
 10
-1.3540636586
 20
52.9643538459
 10
-1.3375393359
 20
53.0201595932
  0
LWPOLYLINE
  5
2C7
100
AcDbEntity
  8
0
100
AcDbPolyline
 62
7
  6
CONTINUOUS
 90
6
 70
0
 10
-3.781195
 20
54.0514958343
 10
-3.7420435436
 20
54.0705243251
 10
-3.7034861607
 20
54.0905816792
 10
-3.6655228512
 20
54.1116680289
 10
-3.6281355819
 20
54.1337821303
 10
-3.5913423861
 20
54.1569255116
  0
LWPOLYLINE
  5
2C8
100
AcDbEntity
  8
0
100
AcDbPolyline
 62
7
  6
CONTINUOUS
 90
9
 70
0
 10
-1.8402962219
 20
53.6007982564
 10
-1.891633112
 20
53.5798425286
 10
-1.9414236374
 20
53.551521163
 10
-1.9861888135
 20
53.5162839828
 10
-2.0255690028
 20
53.4734726617
 10
-2.0599238428
 20
53.4237492878
 10
-2.0868532613
 20
53.369543909
 10
-2.1055572344
 20
53.3116673264
 10
-2.116835786
 20
53.2493119938
  0
LINE
  5
2C9
100
AcDbEntity
  8
0
100
AcDbLine
 62
7
  6
CONTINUOUS
 10
14.0
 20
-51.4081286337
 11
-14.0
 21
-51.4081286337
  0
LINE
  5
2CA
100
AcDbEntity
  8
0
100
AcDbLine
 62
7
  6
CONTINUOUS
 10
-14.0
 20
-51.0
 11
14.0
 21
-51.0
  0
LWPOLYLINE
  5
2CB
100
AcDbEntity
  8
0
100
AcDbPolyline
 62
7
  6
CONTINUOUS
 90
15
 70
0
 10
-3.8875630926
 20
-53.7119086651
 10
-3.8259472806
 20
-53.7447594629
 10
-3.7693918619
 20
-53.7827667463
 10
-3.7178801264
 20
-53.8258627243
 10
-3.6714287842
 20
-53.874117918
 10
-3.6302734213
 20
-53.9261084384
 10
-3.5947845154
 20
-53.9818879205
 10
-3.5645915888
 20
-54.0414053299
 10
-3.5388187941
 20
-54.1030788357
 10
-3.5171627475
 20
-54.1669468332
 10
-3.4999268328
 20
-54.2329726158
 10
-3.487145354
 20
-54.2994604074
 10
-3.4788297458
 20
-54.3658447325
 10
-3.4749685736
 20
-54.4326912127
 10
-3.4755618373
 20
-54.5
  0
LWPOLYLINE
  5
2CC
100
AcDbEntity
  8
0
100
AcDbPolyline
 62
7
  6
CONTINUOUS
 90
5
 70
0
 10
-3.283326
 20
54.1109005912
 10
-3.3315038553
 20
54.0695619491
 10
-3.3816433147
 20
54.0302419249
 10
-3.4337443784
 20
53.9929400126
 10
-3.4880422109
 20
53.9576702353
  0
LWPOLYLINE
  5
2CD
100
AcDbEntity
  8
0
100
AcDbPolyline
 62
7
  6
CONTINUOUS
 90
7
 70
0
 10
-1.8708435222
 20
54.3106892965
 10
-1.9146922247
 20
54.2825525063
 10
-1.955286762
 20
54.2471987936
 10
-1.9932796889
 20
54.2052242278
 10
-2.0276294413
 20
54.1583084851
 10
-2.0582226941
 20
54.1064617626
 10
-2.0851727724
 20
54.0496770421
  0
LWPOLYLINE
  5
2CE
100
AcDbEntity
  8
0
100
AcDbPolyline
 62
7
  6
CONTINUOUS
 90
3
 70
0
 10
1.8194877536
 20
53.6822771888
 10
1.7633099034
 20
53.6489772287
 10
1.7007105222
 20
53.6242146596
  0
LWPOLYLINE
  5
2CF
100
AcDbEntity
  8
0
100
AcDbPolyline
 62
7
  6
CONTINUOUS
 90
15
 70
0
 10
-2.1696769758
 20
54.3506603111
 10
-2.1168970289
 20
54.4027847367
 10
-2.0576102961
 20
54.4498717925
 10
-1.9931759812
 20
54.4889297652
 10
-1.9230656947
 20
54.5190956382
 10
-1.8478078261
 20
54.5412287837
 10
-1.7703467476
 20
54.5549207562
 10
-1.6900131266
 20
54.5605090873
 10
-1.6074762957
 20
54.5576552367
 10
-1.5276886248
 20
54.5449372953
 10
-1.4505364647
 20
54.521733767
 10
-1.3761334646
 20
54.4886684233
 10
-1.3097729417
 20
54.4461881139
 10
-1.2528033201
 20
54.3921535883
 10
-1.2038761756
 20
54.328710314
  0
LWPOLYLINE
  5
2D0
100
AcDbEntity
  8
0
100
AcDbPolyline
 62
7
  6
CONTINUOUS
 90
6
 70
0
 10
-5.2110447042
 20
-62.8293963211
 10
-5.1757818874
 20
-62.8846687781
 10
-5.1485219717
 20
-62.9436857912
 10
-5.1297436694
 20
-63.0053162503
 10
-5.1189682682
 20
-63.0706923661
 10
-5.1161957682
 20
-63.139814791
  0
LWPOLYLINE
  5
2D1
100
AcDbEntity
  8
0
100
AcDbPolyline
 62
7
  6
CONTINUOUS
 90
24
 70
0
 10
-2.1602921162
 20
53.5721028845
 10
-2.1128354404
 20
53.6363850856
 10
-2.0585629094
 20
53.6923468846
 10
-1.9974745233
 20
53.7399851547
 10
-1.9276343641
 20
53.7802508564
 10
-1.8509783497
 20
53.812188338
 10
-1.7733142345
 20
53.8329346703
 10
-1.6954794841
 20
53.8410596945
 10
-1.6166366329
 20
53.8379913482
 10
-1.5400810381
 20
53.8251544692
 10
-1.4658956186
 20
53.8027425685
 10
-1.3939974556
 20
53.7705643916
 10
-1.3274331499
 20
53.7294683716
 10
-1.2660957623
 20
53.6794367305
 10
-1.210092232
 20
53.6204926674
 10
-1.1627899777
 20
53.5535463612
 10
-1.1247309196
 20
53.4774756102
 10
-1.0953731375
 20
53.3934107592
 10
-1.0764582892
 20
53.3056387342
 10
-1.0687276354
 20
53.213134481
 10
-1.0714399155
 20
53.1169282437
 10
-1.0841130048
 20
53.0243828548
 10
-1.1072882969
 20
52.9365944816
 10
-1.1404243983
 20
52.8524621463
  0
LWPOLYLINE
  5
2D2
100
AcDbEntity
  8
0
100
AcDbPolyline
 62
7
  6
CONTINUOUS
 90
6
 70
0
 10
0.501609
 20
54.3337133879
 10
0.4403289127
 20
54.2635547981
 10
0.38182341
 20
54.1916508686
 10
0.326092492
 20
54.1180024591
 10
0.2733793551
 20
54.042462791
 10
0.2234408028
 20
53.9651804937
  0
LWPOLYLINE
  5
2D3
100
AcDbEntity
  8
0
100
AcDbPolyline
 62
7
  6
CONTINUOUS
 90
6
 70
0
 10
3.647234
 20
54.3337127496
 10
3.5859539721
 20
54.2635541647
 10
3.527448524
 20
54.1916502452
 10
3.4717176558
 20
54.1180018507
 10
3.4190045634
 20
54.0424622043
 10
3.3690660509
 20
53.9651799336
  0
LWPOLYLINE
  5
2D4
100
AcDbEntity
  8
0
100
AcDbPolyline
 62
7
  6
CONTINUOUS
 90
6
 70
0
 10
0.8442909488
 20
53.4347735972
 10
0.8948909137
 20
53.4915794864
 10
0.9497412855
 20
53.5391949035
 10
1.0069031526
 20
53.5767313255
 10
1.0683154266
 20
53.6050718266
 10
1.1339781074
 20
53.6242146596
  0
LWPOLYLINE
  5
2D5
100
AcDbEntity
  8
0
100
AcDbPolyline
 62
7
  6
CONTINUOUS
 90
39
 70
0
 10
-1.2301757671
 20
52.7080680329
 10
-1.2867910344
 20
52.6477982861
 10
-1.3494075451
 20
52.597115193
 10
-1.4188454698
 20
52.5565918573
 10
-1.4942846378
 20
52.5256488612
 10
-1.5714112754
 20
52.5044360861
 10
-1.6500690106
 20
52.4934534961
 10
-1.7304142153
 20
52.4921988488
 10
-1.8086022316
 20
52.4993197068
 10
-1.8843280797
 20
52.5146771829
 10
-1.9578967393
 20
52.538411504
 10
-2.0263784913
 20
52.569589512
 10
-2.0892383914
 20
52.6085936358
 10
-2.1470113839
 20
52.6550452212
 10
-2.1983725816
 20
52.7068692283
 10
-2.2426597543
 20
52.7642984691
 10
-2.2805351322
 20
52.8271042923
 10
-2.3126605195
 20
52.8925178547
 10
-2.3386838324
 20
52.9602777241
 10
-2.3589571547
 20
53.0306475907
 10
-2.375198542
 20
53.1016441731
 10
-2.3874432787
 20
53.1727714865
 10
-2.3956560805
 20
53.2445258607
 10
-2.40144915
 20
53.3164112773
 10
-2.4052022396
 20
53.3883470901
 10
-2.406535597
 20
53.4604139363
 10
-2.4059221685
 20
53.5323573544
 10
-2.4037096636
 20
53.6041073311
 10
-2.3995503728
 20
53.6757336278
 10
-2.3928741137
 20
53.7471913008
 10
-2.3839057501
 20
53.8186588395
 10
-2.3724204182
 20
53.8899575431
 10
-2.3571733444
 20
53.9605063911
 10
-2.3382876708
 20
54.0307111854
 10
-2.3156402553
 20
54.1001654562
 10
-2.2876168981
 20
54.1670687064
 10
-2.2540564805
 20
54.2316459974
 10
-2.2151201211
 20
54.2936700863
 10
-2.1696769758
 20
54.3506603111
  0
LWPOLYLINE
  5
2D6
100
AcDbEntity
  8
0
100
AcDbPolyline
 62
7
  6
CONTINUOUS
 90
11
 70
0
 10
0.9494428759
 20
54.3643971132
 10
1.0042132119
 20
54.4218679184
 10
1.0651583024
 20
54.4696455575
 10
1.1323334278
 20
54.5057335197
 10
1.2056833075
 20
54.5321228048
 10
1.2812994078
 20
54.5499400418
 10
1.3592314609
 20
54.5595282837
 10
1.4394297345
 20
54.5605430205
 10
1.5178364982
 20
54.5530804218
 10
1.5943582184
 20
54.5375828912
 10
1.6690884286
 20
54.5136092266
  0
LINE
  5
2D7
100
AcDbEntity
  8
RACCORDO
100
AcDbLine
 62
250
  6
CONTINUOUS
 10
17.7319136986
 20
66.5300594754
 11
18.0004155364
 21
66.8
  0
LINE
  5
2D8
100
AcDbEntity
  8
RACCORDO
100
AcDbLine
 62
250
  6
CONTINUOUS
 10
18.0315027638
 20
66.2304752295
 11
18.3
 21
66.5004111278
  0
LINE
  5
2D9
100
AcDbEntity
  8
RACCORDO
100
AcDbLine
 62
250
  6
CONTINUOUS
 10
18.0004155364
 20
-66.8
 11
17.7319136986
 21
-66.5300594754
  0
LINE
  5
2DA
100
AcDbEntity
  8
RACCORDO
100
AcDbLine
 62
250
  6
CONTINUOUS
 10
18.3
 20
-66.5004111278
 11
18.0315027584
 21
-66.230475224
  0
LWPOLYLINE
  5
2DB
100
AcDbEntity
  8
0
100
AcDbPolyline
 62
7
  6
CONTINUOUS
 90
6
 70
0
 10
0.7102975777
 20
-62.8293963211
 10
0.7455603945
 20
-62.8846687781
 10
0.7728203102
 20
-62.9436857912
 10
0.7915986125
 20
-63.0053162503
 10
0.8023740137
 20
-63.0706923661
 10
0.8051465137
 20
-63.139814791
  0
LWPOLYLINE
  5
2DC
100
AcDbEntity
  8
0
100
AcDbPolyline
 62
7
  6
CONTINUOUS
 90
19
 70
0
 10
-2.8568848222
 20
62.9287076847
 10
-2.8326835033
 20
62.9741952101
 10
-2.8051530342
 20
63.0160112763
 10
-2.7742934152
 20
63.0541554386
 10
-2.7396462089
 20
63.0887614184
 10
-2.7016698526
 20
63.1196947395
 10
-2.6617396576
 20
63.1465526887
 10
-2.6198747662
 20
63.1688631278
 10
-2.5760560362
 20
63.1870976133
 10
-2.5316013515
 20
63.2022690637
 10
-2.4868063842
 20
63.2143162757
 10
-2.4413754622
 20
63.2233002209
 10
-2.3957394532
 20
63.2304172004
 10
-2.3499834038
 20
63.2356723148
 10
-2.3040222673
 20
63.2390604002
 10
-2.2580317717
 20
63.2417624175
 10
-2.2120704932
 20
63.2441720219
 10
-2.1660798556
 20
63.2458955505
 10
-2.120059859
 20
63.246933
  0
LWPOLYLINE
  5
2DD
100
AcDbEntity
  8
0
100
AcDbPolyline
 62
7
  6
CONTINUOUS
 90
13
 70
0
 10
-0.025153376
 20
62.9734465517
 10
-0.0015898773
 20
63.0143661276
 10
0.0269597235
 20
63.0517072371
 10
0.0604954265
 20
63.0854694966
 10
0.0998417834
 20
63.1155643431
 10
0.1441742424
 20
63.1420796859
 10
0.1910191483
 20
63.1652799279
 10
0.2400945977
 20
63.1848253524
 10
0.2916824941
 20
63.2010552679
 10
0.3441548915
 20
63.2152527392
 10
0.3969691415
 20
63.2278454297
 10
0.4506678927
 20
63.2384055363
 10
0.505251145
 20
63.246933
  0
LWPOLYLINE
  5
2DE
100
AcDbEntity
  8
0
100
AcDbPolyline
 62
7
  6
CONTINUOUS
 90
11
 70
0
 10
1.984351712
 20
52.7805320763
 10
1.9334479254
 20
52.709388964
 10
1.873710877
 20
52.6475719368
 10
1.8043396242
 20
52.5962614101
 10
1.7261351095
 20
52.5542692274
 10
1.6432771415
 20
52.5228307462
 10
1.5555064997
 20
52.5025137461
 10
1.4630824047
 20
52.4927464801
 10
1.3709623265
 20
52.4930558627
 10
1.2784511436
 20
52.5033493908
 10
1.1862439775
 20
52.52372033
  0
LINE
  5
2DF
100
AcDbEntity
  8
RACCORDO
100
AcDbLine
 62
250
  6
CONTINUOUS
 10
14.0
 20
-28.5
 11
17.9375634796
 21
-28.5
  0
LINE
  5
2E0
100
AcDbEntity
  8
RACCORDO
100
AcDbLine
 62
250
  6
CONTINUOUS
 10
-14.0
 20
-28.5
 11
-17.9375634796
 21
-28.5
  0
LINE
  5
2E1
100
AcDbEntity
  8
0
100
AcDbLine
 62
7
  6
CONTINUOUS
 10
3.763076
 20
-64.34854
 11
2.894083
 21
-62.967786
  0
LINE
  5
2E2
100
AcDbEntity
  8
0
100
AcDbLine
 62
7
  6
CONTINUOUS
 10
0.806243
 20
-55.35
 11
-0.06273
 21
-53.969397
  0
LINE
  5
2E3
100
AcDbEntity
  8
0
100
AcDbLine
 62
7
  6
CONTINUOUS
 10
0.841769
 20
-55.030883
 11
-0.013043
 21
-53.65
  0
LINE
  5
2E4
100
AcDbEntity
  8
0
100
AcDbLine
 62
7
  6
CONTINUOUS
 10
3.798513
 20
-64.029419
 11
2.943882
 21
-62.64854
  0
LWPOLYLINE
  5
2E5
100
AcDbEntity
  8
RACCORDO
100
AcDbPolyline
 62
250
  6
CONTINUOUS
 90
10
 70
0
 10
-18.031502559
 20
66.2304750235
 10
-18.0268240273
 20
66.2824072421
 10
-18.0132161046
 20
66.3327670401
 10
-17.9910908162
 20
66.3800296071
 10
-17.9611180787
 20
66.4227639117
 10
-17.9242054164
 20
66.4596760308
 10
-17.8814704829
 20
66.4896483273
 10
-17.8342072204
 20
66.5117732901
 10
-17.7838466814
 20
66.5253810125
 10
-17.7319136986
 20
66.5300594754
  0
LWPOLYLINE
  5
2E6
100
AcDbEntity
  8
0
100
AcDbPolyline
 62
7
  6
CONTINUOUS
 90
7
 70
0
 10
0.7451279486
 20
60.6104419344
 10
0.7548743309
 20
60.6322284264
 10
0.7615798865
 20
60.6569673202
 10
0.7681135143
 20
60.6825838536
 10
0.7754315141
 20
60.7083864086
 10
0.7825775862
 20
60.7350667234
 10
0.7895517306
 20
60.762624883
  0
LWPOLYLINE
  5
2E7
100
AcDbEntity
  8
0
100
AcDbPolyline
 62
7
  6
CONTINUOUS
 90
28
 70
0
 10
0.3956371095
 20
61.1013610476
 10
0.3784212221
 20
61.0666056555
 10
0.3661943984
 20
61.0309139713
 10
0.3589566384
 20
60.9942861215
 10
0.357687474
 20
60.955997842
 10
0.3614073732
 20
60.9167737312
 10
0.367177741
 20
60.8787869075
 10
0.3739151539
 20
60.8423550269
 10
0.3827030353
 20
60.8071600804
 10
0.3938530595
 20
60.774421229
 10
0.4078011615
 20
60.7445449803
 10
0.4241114064
 20
60.7171242325
 10
0.4417876637
 20
60.6921576056
 10
0.4608653826
 20
60.6699298129
 10
0.4813091139
 20
60.650155694
 10
0.5020163794
 20
60.6319791548
 10
0.5226514745
 20
60.6150495294
 10
0.5435501039
 20
60.5997172893
 10
0.5646169027
 20
60.5861781129
 10
0.5858046596
 20
60.5736865992
 10
0.607160586
 20
60.5629879976
 10
0.6287309506
 20
60.5565138742
 10
0.6511838033
 20
60.5551044381
 10
0.6738510941
 20
60.5579193453
 10
0.6947749422
 20
60.5648693379
 10
0.7137351818
 20
60.576319302
 10
0.7309519786
 20
60.5919046487
 10
0.7451279486
 20
60.6104419344
  0
LWPOLYLINE
  5
2E8
100
AcDbEntity
  8
0
100
AcDbPolyline
 62
7
  6
CONTINUOUS
 90
3
 70
0
 10
-1.1404243983
 20
52.8524621463
 10
-1.1814150043
 20
52.7760458907
 10
-1.2301757671
 20
52.7080680329
  0
LWPOLYLINE
  5
2E9
100
AcDbEntity
  8
0
100
AcDbPolyline
 62
7
  6
CONTINUOUS
 90
17
 70
0
 10
0.2234408028
 20
53.9651804937
 10
0.1755472457
 20
53.886599357
 10
0.1294968158
 20
53.8069001555
 10
0.085491381
 20
53.7259035472
 10
0.0434069558
 20
53.6435130029
 10
0.003081822
 20
53.5598013371
 10
-0.0353223022
 20
53.4746974214
 10
-0.0714442473
 20
53.387889075
 10
-0.1053905654
 20
53.2993361261
 10
-0.1370547045
 20
53.209080988
 10
-0.1657558389
 20
53.1169356993
 10
-0.1914049599
 20
53.0227645123
 10
-0.2140910761
 20
52.9267059018
 10
-0.2334003874
 20
52.8289832663
 10
-0.2491949606
 20
52.7296718681
 10
-0.2616127289
 20
52.6286989982
 10
-0.2706536923
 20
52.526066
  0
LWPOLYLINE
  5
2EA
100
AcDbEntity
  8
0
100
AcDbPolyline
 62
7
  6
CONTINUOUS
 90
17
 70
0
 10
3.3690660509
 20
53.9651799336
 10
3.3211725305
 20
53.8865988247
 10
3.275122134
 20
53.8068996507
 10
3.2311167297
 20
53.7259030709
 10
3.1890323336
 20
53.6435125559
 10
3.148707228
 20
53.5598009204
 10
3.1103031306
 20
53.4746970358
 10
3.0741812109
 20
53.3878887215
 10
3.040234917
 20
53.2993358055
 10
3.0085708009
 20
53.2090807012
 10
2.9798696875
 20
53.1169354482
 10
2.9542205854
 20
53.0227642988
 10
2.9315344862
 20
52.9267057277
 10
2.9122251888
 20
52.8289831333
 10
2.8964306265
 20
52.7296717778
 10
2.8840128661
 20
52.6286989523
 10
2.8749719077
 20
52.526066
  0
LINE
  5
2EB
100
AcDbEntity
  8
0
100
AcDbLine
 62
7
  6
CONTINUOUS
 10
-3.460548
 20
-64.34854
 11
-4.076118
 21
-62.64854
  0
LINE
  5
2EC
100
AcDbEntity
  8
0
100
AcDbLine
 62
7
  6
CONTINUOUS
 10
-5.101398
 20
-55.35
 11
-5.716972
 21
-53.65
  0
LINE
  5
2ED
100
AcDbEntity
  8
0
100
AcDbLine
 62
7
  6
CONTINUOUS
 10
-3.71142
 20
-64.34854
 11
-3.879608
 21
-63.85364
  0
LINE
  5
2EE
100
AcDbEntity
  8
0
100
AcDbLine
 62
7
  6
CONTINUOUS
 10
-7.632526
 20
-55.094181
 11
-8.12026
 21
-53.65
  0
LINE
  5
2EF
100
AcDbEntity
  8
0
100
AcDbLine
 62
7
  6
CONTINUOUS
 10
-7.748516
 20
-55.35
 11
-8.22683
 21
-53.924557
  0
LINE
  5
2F0
100
AcDbEntity
  8
0
100
AcDbLine
 62
7
  6
CONTINUOUS
 10
-3.962561
 20
-63.650016
 11
-4.215822
 21
-62.89511
  0
LINE
  5
2F1
100
AcDbEntity
  8
RACCORDO
100
AcDbLine
 62
7
  6
CONTINUOUS
 10
-20.0
 20
67.3016445583
 11
-20.0
 21
-67.3016445583
  0
LINE
  5
2F2
100
AcDbEntity
  8
0
100
AcDbLine
 62
7
  6
CONTINUOUS
 10
-4.085646
 20
60.248026
 11
-3.306991
 21
63.246933
  0
LINE
  5
2F3
100
AcDbEntity
  8
0
100
AcDbLine
 62
7
  6
CONTINUOUS
 10
-3.149695
 20
63.852739
 11
-2.917751
 21
64.74605
  0
LINE
  5
2F4
100
AcDbEntity
  8
0
100
AcDbLine
 62
7
  6
CONTINUOUS
 10
-3.39263
 20
60.865343
 11
-2.8568848222
 21
62.9287076847
  0
LINE
  5
2F5
100
AcDbEntity
  8
0
100
AcDbLine
 62
7
  6
CONTINUOUS
 10
-5.042745
 20
60.248026
 11
-4.375444
 21
62.783053
  0
LINE
  5
2F6
100
AcDbEntity
  8
0
100
AcDbLine
 62
7
  6
CONTINUOUS
 10
-4.201616
 20
63.396037
 11
-3.966055
 21
64.290917
  0
LINE
  5
2F7
100
AcDbEntity
  8
0
100
AcDbLine
 62
7
  6
CONTINUOUS
 10
-4.765688
 20
59.100064
 11
-5.473136
 21
56.896592
  0
LINE
  5
2F8
100
AcDbEntity
  8
0
100
AcDbLine
 62
7
  6
CONTINUOUS
 10
-4.125656
 20
59.100064
 11
-5.15312
 21
55.89992
  0
LWPOLYLINE
  5
2F9
100
AcDbEntity
  8
0
100
AcDbPolyline
 62
7
  6
CONTINUOUS
 90
8
 70
0
 10
-2.0851727724
 20
54.0496770421
 10
-2.1077780881
 20
53.989607374
 10
-2.1254519885
 20
53.9264886427
 10
-2.1387811262
 20
53.8600876067
 10
-2.1488238709
 20
53.7913527322
 10
-2.1559330124
 20
53.7206007392
 10
-2.1597557608
 20
53.6475170598
 10
-2.1602921162
 20
53.5721028845
  0
LWPOLYLINE
  5
2FA
100
AcDbEntity
  8
0
100
AcDbPolyline
 62
7
  6
CONTINUOUS
 90
5
 70
0
 10
1.0583505457
 20
53.3201987468
 10
1.0344039834
 20
53.2707970777
 10
1.0172464135
 20
53.2198397317
 10
1.0065471803
 20
53.16628187
 10
1.0023062838
 20
53.110124471
  0
LINE
  5
2FB
100
AcDbEntity
  8
RACCORDO
100
AcDbLine
 62
7
  6
CONTINUOUS
 10
18.3
 20
-18.4
 11
16.75
 21
-18.4
  0
LINE
  5
2FC
100
AcDbEntity
  8
0
100
AcDbLine
 62
7
  6
CONTINUOUS
 10
14.0
 20
-18.4
 11
16.75
 21
-18.4
  0
LINE
  5
2FD
100
AcDbEntity
  8
0
100
AcDbLine
 62
7
  6
CONTINUOUS
 10
-14.0
 20
-18.4
 11
-16.75
 21
-18.4
  0
LINE
  5
2FE
100
AcDbEntity
  8
RACCORDO
100
AcDbLine
 62
7
  6
CONTINUOUS
 10
-16.75
 20
-18.4
 11
-18.3
 21
-18.4
  0
LINE
  5
2FF
100
AcDbEntity
  8
0
100
AcDbLine
 62
7
  6
CONTINUOUS
 10
7.578004
 20
-54.665738
 11
6.936362
 21
-53.65
  0
LINE
  5
300
100
AcDbEntity
  8
0
100
AcDbLine
 62
7
  6
CONTINUOUS
 10
7.691704
 20
-54.466935
 11
7.203908
 21
-53.65
  0
LINE
  5
301
100
AcDbEntity
  8
0
100
AcDbLine
 62
7
  6
CONTINUOUS
 10
-5.352404
 20
-55.35
 11
-5.520493
 21
-54.855192
  0
LINE
  5
302
100
AcDbEntity
  8
0
100
AcDbLine
 62
7
  6
CONTINUOUS
 10
-5.6033
 20
-54.651577
 11
-5.856574
 21
-53.896583
  0
LINE
  5
303
100
AcDbEntity
  8
RACCORDO
100
AcDbLine
 62
250
  6
CONTINUOUS
 10
-18.0315027638
 20
66.2304752295
 11
-18.0053789749
 21
60.5678169178
  0
LINE
  5
304
100
AcDbEntity
  8
RACCORDO
100
AcDbLine
 62
250
  6
CONTINUOUS
 10
-17.7319130853
 20
66.2589150801
 11
-17.7057509497
 21
60.5827356536
  0
LINE
  5
305
100
AcDbEntity
  8
RACCORDO
100
AcDbLine
 62
250
  6
CONTINUOUS
 10
-18.0053789749
 20
60.5678169178
 11
-17.9835011739
 21
54.9
  0
LINE
  5
306
100
AcDbEntity
  8
RACCORDO
100
AcDbLine
 62
250
  6
CONTINUOUS
 10
-17.7057509497
 20
60.5827356536
 11
-17.6838422927
 21
54.9
  0
LINE
  5
307
100
AcDbEntity
  8
RACCORDO
100
AcDbLine
 62
250
  6
CONTINUOUS
 10
-17.980756397
 20
54.1
 11
-17.9636951262
 21
48.4161100271
  0
LINE
  5
308
100
AcDbEntity
  8
RACCORDO
100
AcDbLine
 62
250
  6
CONTINUOUS
 10
-17.6811023863
 20
54.1
 11
-17.6640673215
 21
48.4165340161
  0
LINE
  5
309
100
AcDbEntity
  8
RACCORDO
100
AcDbLine
 62
250
  6
CONTINUOUS
 10
-17.9636951262
 20
48.4161100271
 11
-17.9508978761
 21
42.7291104403
  0
LINE
  5
30A
100
AcDbEntity
  8
RACCORDO
100
AcDbLine
 62
250
  6
CONTINUOUS
 10
-17.6640673215
 20
48.4165340161
 11
-17.6512890262
 21
42.7290017691
  0
LINE
  5
30B
100
AcDbEntity
  8
RACCORDO
100
AcDbLine
 62
250
  6
CONTINUOUS
 10
-17.9508978761
 20
42.7291104403
 11
-17.9423649596
 21
37.0391726879
  0
LINE
  5
30C
100
AcDbEntity
  8
RACCORDO
100
AcDbLine
 62
250
  6
CONTINUOUS
 10
-17.6512890262
 20
42.7290017691
 11
-17.6427681855
 21
37.0385644837
  0
LINE
  5
30D
100
AcDbEntity
  8
RACCORDO
100
AcDbLine
 62
250
  6
CONTINUOUS
 10
-17.9423649596
 20
37.0391726879
 11
-17.9380976287
 21
31.3469825636
  0
LINE
  5
30E
100
AcDbEntity
  8
RACCORDO
100
AcDbLine
 62
250
  6
CONTINUOUS
 10
-17.6427681855
 20
37.0385644837
 11
-17.63850754
 21
31.3463820891
  0
LINE
  5
30F
100
AcDbEntity
  8
RACCORDO
100
AcDbLine
 62
7
  6
CONTINUOUS
 10
-18.3
 20
66.5004111278
 11
-18.3
 21
54.9
  0
LINE
  5
310
100
AcDbEntity
  8
DRAFT
100
AcDbLine
 62
7
  6
CONTINUOUS
 10
-18.3
 20
54.1
 11
-18.3
 21
18.4
  0
LINE
  5
311
100
AcDbEntity
  8
DRAFT
100
AcDbLine
 62
7
  6
CONTINUOUS
 10
-18.3
 20
17.6
 11
-18.3
 21
-17.6
  0
LINE
  5
312
100
AcDbEntity
  8
DRAFT
100
AcDbLine
 62
7
  6
CONTINUOUS
 10
-18.3
 20
-18.4
 11
-18.3
 21
-54.1
  0
LINE
  5
313
100
AcDbEntity
  8
RACCORDO
100
AcDbLine
 62
7
  6
CONTINUOUS
 10
-18.3
 20
-54.9
 11
-18.3
 21
-66.5004111278
  0
LINE
  5
314
100
AcDbEntity
  8
RACCORDO
100
AcDbLine
 62
250
  6
CONTINUOUS
 10
-17.9380976287
 20
31.3469825636
 11
-17.9375634796
 21
18.4
  0
LINE
  5
315
100
AcDbEntity
  8
RACCORDO
100
AcDbLine
 62
250
  6
CONTINUOUS
 10
-17.9375634796
 20
17.6
 11
-17.9375634796
 21
-17.6
  0
LINE
  5
316
100
AcDbEntity
  8
RACCORDO
100
AcDbLine
 62
250
  6
CONTINUOUS
 10
-17.7319136986
 20
66.5300594754
 11
-17.7319136986
 21
66.2589150801
  0
LINE
  5
317
100
AcDbEntity
  8
RACCORDO
100
AcDbLine
 62
250
  6
CONTINUOUS
 10
-17.7319136986
 20
-66.2589150801
 11
-17.7319136986
 21
-66.5300594754
  0
LINE
  5
318
100
AcDbEntity
  8
RACCORDO
100
AcDbLine
 62
250
  6
CONTINUOUS
 10
-17.63850754
 20
31.3463820891
 11
-17.6379746191
 21
18.4
  0
LINE
  5
319
100
AcDbEntity
  8
RACCORDO
100
AcDbLine
 62
250
  6
CONTINUOUS
 10
-17.6379746191
 20
17.6
 11
-17.6379746191
 21
-17.6
  0
LINE
  5
31A
100
AcDbEntity
  8
RACCORDO
100
AcDbLine
 62
250
  6
CONTINUOUS
 10
-17.55
 20
-54.9
 11
-17.55
 21
-54.1
  0
LINE
  5
31B
100
AcDbEntity
  8
RACCORDO
100
AcDbLine
 62
250
  6
CONTINUOUS
 10
-17.55
 20
-18.4
 11
-17.55
 21
-17.6
  0
LINE
  5
31C
100
AcDbEntity
  8
RACCORDO
100
AcDbLine
 62
250
  6
CONTINUOUS
 10
-17.55
 20
17.6
 11
-17.55
 21
18.4
  0
LINE
  5
31D
100
AcDbEntity
  8
RACCORDO
100
AcDbLine
 62
250
  6
CONTINUOUS
 10
-17.55
 20
54.1
 11
-17.55
 21
54.9
  0
LINE
  5
31E
100
AcDbEntity
  8
RACCORDO
100
AcDbLine
 62
7
  6
CONTINUOUS
 10
-16.75
 20
-54.9
 11
-16.75
 21
-54.1
  0
LINE
  5
31F
100
AcDbEntity
  8
RACCORDO
100
AcDbLine
 62
7
  6
CONTINUOUS
 10
-16.75
 20
-18.4
 11
-16.75
 21
-17.6
  0
LINE
  5
320
100
AcDbEntity
  8
RACCORDO
100
AcDbLine
 62
7
  6
CONTINUOUS
 10
-16.75
 20
17.6
 11
-16.75
 21
18.4
  0
LINE
  5
321
100
AcDbEntity
  8
RACCORDO
100
AcDbLine
 62
7
  6
CONTINUOUS
 10
-16.75
 20
54.1
 11
-16.75
 21
54.9
  0
LINE
  5
322
100
AcDbEntity
  8
RACCORDO
100
AcDbLine
 62
250
  6
CONTINUOUS
 10
-14.3
 20
-66.2589150801
 11
-14.3
 21
-54.9
  0
LINE
  5
323
100
AcDbEntity
  8
RACCORDO
100
AcDbLine
 62
250
  6
CONTINUOUS
 10
-14.3
 20
-54.1
 11
-14.3
 21
-18.4
  0
LINE
  5
324
100
AcDbEntity
  8
RACCORDO
100
AcDbLine
 62
250
  6
CONTINUOUS
 10
-14.3
 20
-17.6
 11
-14.3
 21
17.6
  0
LINE
  5
325
100
AcDbEntity
  8
RACCORDO
100
AcDbLine
 62
250
  6
CONTINUOUS
 10
-14.3
 20
18.4
 11
-14.3
 21
54.1
  0
LINE
  5
326
100
AcDbEntity
  8
RACCORDO
100
AcDbLine
 62
250
  6
CONTINUOUS
 10
-14.3
 20
54.9
 11
-14.3
 21
66.2589150801
  0
LINE
  5
327
100
AcDbEntity
  8
RACCORDO
100
AcDbLine
 62
7
  6
CONTINUOUS
 10
-14.0
 20
-5.2
 11
-14.0
 21
5.2
  0
LINE
  5
328
100
AcDbEntity
  8
0
100
AcDbLine
 62
7
  6
CONTINUOUS
 10
-14.0
 20
5.2
 11
-14.0
 21
66.5470947647
  0
LINE
  5
329
100
AcDbEntity
  8
0
100
AcDbLine
 62
7
  6
CONTINUOUS
 10
-14.0
 20
-5.2
 11
-14.0
 21
-66.5470947647
  0
LINE
  5
32A
100
AcDbEntity
  8
RACCORDO
100
AcDbLine
 62
250
  6
CONTINUOUS
 10
-17.9375634796
 20
-18.4
 11
-17.9380976192
 21
-31.3469728022
  0
LINE
  5
32B
100
AcDbEntity
  8
RACCORDO
100
AcDbLine
 62
250
  6
CONTINUOUS
 10
-17.6379746191
 20
-18.4
 11
-17.6385075398
 21
-31.3463822863
  0
LINE
  5
32C
100
AcDbEntity
  8
RACCORDO
100
AcDbLine
 62
250
  6
CONTINUOUS
 10
-17.9380976192
 20
-31.3469728022
 11
-17.9423649356
 21
-37.0391520693
  0
LINE
  5
32D
100
AcDbEntity
  8
RACCORDO
100
AcDbLine
 62
250
  6
CONTINUOUS
 10
-17.6385075398
 20
-31.3463822863
 11
-17.6427681852
 21
-37.038564892
  0
LINE
  5
32E
100
AcDbEntity
  8
RACCORDO
100
AcDbLine
 62
250
  6
CONTINUOUS
 10
-17.9423649356
 20
-37.0391520693
 11
-17.9508978411
 21
-42.7290917142
  0
LINE
  5
32F
100
AcDbEntity
  8
RACCORDO
100
AcDbLine
 62
250
  6
CONTINUOUS
 10
-17.6427681852
 20
-37.038564892
 11
-17.651289027
 21
-42.7290021125
  0
LINE
  5
330
100
AcDbEntity
  8
RACCORDO
100
AcDbLine
 62
250
  6
CONTINUOUS
 10
-17.9508978411
 20
-42.7290917142
 11
-17.9636950984
 21
-48.4160987715
  0
LINE
  5
331
100
AcDbEntity
  8
RACCORDO
100
AcDbLine
 62
250
  6
CONTINUOUS
 10
-17.651289027
 20
-42.7290021125
 11
-17.6640673199
 21
-48.4165342077
  0
LINE
  5
332
100
AcDbEntity
  8
RACCORDO
100
AcDbLine
 62
250
  6
CONTINUOUS
 10
-17.6640673199
 20
-48.4165342077
 11
-17.6811023778
 21
-54.1
  0
LINE
  5
333
100
AcDbEntity
  8
RACCORDO
100
AcDbLine
 62
250
  6
CONTINUOUS
 10
-17.9636950984
 20
-48.4160987715
 11
-17.980756398
 21
-54.1
  0
LINE
  5
334
100
AcDbEntity
  8
RACCORDO
100
AcDbLine
 62
250
  6
CONTINUOUS
 10
-18.0136151251
 20
-62.4559425415
 11
-17.9835011743
 21
-54.9
  0
LINE
  5
335
100
AcDbEntity
  8
RACCORDO
100
AcDbLine
 62
250
  6
CONTINUOUS
 10
-17.7139990558
 20
-62.4755813202
 11
-17.6838422957
 21
-54.9
  0
LINE
  5
336
100
AcDbEntity
  8
RACCORDO
100
AcDbLine
 62
250
  6
CONTINUOUS
 10
-18.0315027584
 20
-66.230475224
 11
-18.0136151251
 21
-62.4559425415
  0
LINE
  5
337
100
AcDbEntity
  8
RACCORDO
100
AcDbLine
 62
250
  6
CONTINUOUS
 10
-17.731913102
 20
-66.2589150801
 11
-17.7139990558
 21
-62.4755813202
  0
LINE
  5
338
100
AcDbEntity
  8
0
100
AcDbLine
 62
7
  6
CONTINUOUS
 10
-2.473061
 20
60.891302
 11
-1.981874906
 21
62.783053362
  0
LINE
  5
339
100
AcDbEntity
  8
0
100
AcDbLine
 62
7
  6
CONTINUOUS
 10
-2.0749847593
 20
60.5643919271
 11
-1.460137
 21
62.932412
  0
LINE
  5
33A
100
AcDbEntity
  8
0
100
AcDbLine
 62
7
  6
CONTINUOUS
 10
-1.220604
 20
60.248026
 11
-0.052708
 21
64.74605
  0
LINE
  5
33B
100
AcDbEntity
  8
0
100
AcDbLine
 62
7
  6
CONTINUOUS
 10
-0.603546
 20
60.74583
 11
-0.025153376
 21
62.9734465517
  0
LINE
  5
33C
100
AcDbEntity
  8
0
100
AcDbLine
 62
7
  6
CONTINUOUS
 10
0.523187
 20
61.554685
 11
0.8263410216
 21
62.7222500831
  0
LINE
  5
33D
100
AcDbEntity
  8
0
100
AcDbLine
 62
7
  6
CONTINUOUS
 10
1.035156
 20
61.776961
 11
1.332932
 21
62.923815
  0
LINE
  5
33E
100
AcDbEntity
  8
0
100
AcDbLine
 62
7
  6
CONTINUOUS
 10
-1.361167
 20
63.246933
 11
-1.074773
 21
64.30231
  0
LINE
  5
33F
100
AcDbEntity
  8
0
100
AcDbLine
 62
7
  6
CONTINUOUS
 10
-0.256224
 20
59.100064
 11
-0.853816
 21
57.016016
  0
LINE
  5
340
100
AcDbEntity
  8
0
100
AcDbLine
 62
7
  6
CONTINUOUS
 10
0.071288
 20
58.0102
 11
-0.533816
 21
55.899928
  0
LINE
  5
341
100
AcDbEntity
  8
0
100
AcDbLine
 62
7
  6
CONTINUOUS
 10
2.165448
 20
59.100072
 11
1.138
 21
55.89992
  0
LINE
  5
342
100
AcDbEntity
  8
0
100
AcDbLine
 62
7
  6
CONTINUOUS
 10
1.98008
 20
56.529256
 11
1.778024
 21
55.899928
  0
LINE
  5
343
100
AcDbEntity
  8
0
100
AcDbLine
 62
7
  6
CONTINUOUS
 10
2.485472
 20
58.103392
 11
2.175304
 21
57.13728
  0
LINE
  5
344
100
AcDbEntity
  8
RACCORDO
100
AcDbLine
 62
7
  6
CONTINUOUS
 10
-18.3
 20
-17.6
 11
-16.75
 21
-17.6
  0
LINE
  5
345
100
AcDbEntity
  8
0
100
AcDbLine
 62
7
  6
CONTINUOUS
 10
14.0
 20
-17.6
 11
16.75
 21
-17.6
  0
LINE
  5
346
100
AcDbEntity
  8
0
100
AcDbLine
 62
7
  6
CONTINUOUS
 10
-14.0
 20
-17.6
 11
-16.75
 21
-17.6
  0
LINE
  5
347
100
AcDbEntity
  8
RACCORDO
100
AcDbLine
 62
7
  6
CONTINUOUS
 10
16.75
 20
-17.6
 11
18.3
 21
-17.6
  0
LINE
  5
348
100
AcDbEntity
  8
0
100
AcDbLine
 62
7
  6
CONTINUOUS
 10
-13.2
 20
66.5470947647
 11
-13.2
 21
51.8
  0
LINE
  5
349
100
AcDbEntity
  8
0
100
AcDbLine
 62
7
  6
CONTINUOUS
 10
-13.2
 20
-51.8
 11
-13.2
 21
-66.5470947647
  0
LINE
  5
34A
100
AcDbEntity
  8
RACCORDO
100
AcDbLine
 62
7
  6
CONTINUOUS
 10
-12.5
 20
50.8
 11
-12.5
 21
6.2
  0
LINE
  5
34B
100
AcDbEntity
  8
RACCORDO
100
AcDbLine
 62
7
  6
CONTINUOUS
 10
-12.5
 20
-6.2
 11
-12.5
 21
-50.8
  0
LINE
  5
34C
100
AcDbEntity
  8
RACCORDO
100
AcDbLine
 62
250
  6
CONTINUOUS
 10
-12.5
 20
-5.2
 11
-12.5
 21
5.2
  0
LINE
  5
34D
100
AcDbEntity
  8
0
100
AcDbLine
 62
7
  6
CONTINUOUS
 10
-11.7
 20
66.8
 11
-11.7
 21
64.5
  0
LINE
  5
34E
100
AcDbEntity
  8
0
100
AcDbLine
 62
7
  6
CONTINUOUS
 10
-11.7
 20
-64.5
 11
-11.7
 21
-66.8
  0
LINE
  5
34F
100
AcDbEntity
  8
0
100
AcDbLine
 62
7
  6
CONTINUOUS
 10
-10.7
 20
66.8
 11
-10.7
 21
64.5
  0
LINE
  5
350
100
AcDbEntity
  8
0
100
AcDbLine
 62
7
  6
CONTINUOUS
 10
-10.7
 20
-64.5
 11
-10.7
 21
-66.8
  0
LINE
  5
351
100
AcDbEntity
  8
0
100
AcDbLine
 62
7
  6
CONTINUOUS
 10
-9.5
 20
66.8
 11
-9.5
 21
64.5
  0
LINE
  5
352
100
AcDbEntity
  8
0
100
AcDbLine
 62
7
  6
CONTINUOUS
 10
-9.5
 20
-64.5
 11
-9.5
 21
-66.8
  0
LWPOLYLINE
  5
353
100
AcDbEntity
  8
0
100
AcDbPolyline
 62
7
  6
CONTINUOUS
 90
3
 70
0
 10
-1.3375393359
 20
53.0201595932
 10
-1.3273056615
 20
53.0792694497
 10
-1.3233626354
 20
53.1416847365
  0
LINE
  5
354
100
AcDbEntity
  8
0
100
AcDbLine
 62
7
  6
CONTINUOUS
 10
1.983772
 20
61.790866
 11
2.190797
 21
62.588201
  0
LINE
  5
355
100
AcDbEntity
  8
0
100
AcDbLine
 62
7
  6
CONTINUOUS
 10
1.6760475573
 20
60.6056979976
 11
1.834599
 21
61.216343
  0
LINE
  5
356
100
AcDbEntity
  8
0
100
AcDbLine
 62
7
  6
CONTINUOUS
 10
2.1889682986
 20
60.84857615
 11
2.341613
 21
61.436468
  0
LINE
  5
357
100
AcDbEntity
  8
0
100
AcDbLine
 62
7
  6
CONTINUOUS
 10
2.490785
 20
62.010991
 11
2.7004409253
 21
62.8184557122
  0
LINE
  5
358
100
AcDbEntity
  8
0
100
AcDbLine
 62
7
  6
CONTINUOUS
 10
3.157049
 20
60.961226
 11
3.295642
 21
61.495
  0
LINE
  5
359
100
AcDbEntity
  8
0
100
AcDbLine
 62
7
  6
CONTINUOUS
 10
3.4919058544
 20
60.5364814393
 11
3.797337
 21
61.712816
  0
LINE
  5
35A
100
AcDbEntity
  8
0
100
AcDbLine
 62
7
  6
CONTINUOUS
 10
3.901419
 20
62.113674
 11
4.115504098
 21
62.9382003776
  0
LINE
  5
35B
100
AcDbEntity
  8
0
100
AcDbLine
 62
7
  6
CONTINUOUS
 10
4.40242
 20
60.248026
 11
5.042745
 21
62.714168
  0
LWPOLYLINE
  5
35C
100
AcDbEntity
  8
0
100
AcDbPolyline
 62
7
  6
CONTINUOUS
 90
3
 70
0
 10
1.7245415415
 20
53.9256211644
 10
1.737015309
 20
53.9710920725
 10
1.7430967976
 20
54.019747662
  0
LINE
  5
35D
100
AcDbEntity
  8
0
100
AcDbLine
 62
7
  6
CONTINUOUS
 10
5.556014
 20
-55.35
 11
4.940316
 21
-53.65
  0
LINE
  5
35E
100
AcDbEntity
  8
0
100
AcDbLine
 62
7
  6
CONTINUOUS
 10
5.304967
 20
-55.35
 11
5.136864
 21
-54.855192
  0
LINE
  5
35F
100
AcDbEntity
  8
0
100
AcDbLine
 62
7
  6
CONTINUOUS
 10
5.053975
 20
-54.651577
 11
4.800687
 21
-53.896583
  0
LINE
  5
360
100
AcDbEntity
  8
0
100
AcDbLine
 62
7
  6
CONTINUOUS
 10
-8.5
 20
66.8
 11
-8.5
 21
64.5
  0
LINE
  5
361
100
AcDbEntity
  8
0
100
AcDbLine
 62
7
  6
CONTINUOUS
 10
-8.5
 20
-64.5
 11
-8.5
 21
-66.8
  0
LINE
  5
362
100
AcDbEntity
  8
0
100
AcDbLine
 62
7
  6
CONTINUOUS
 10
-8.449383
 20
-55.35
 11
-8.449383
 21
-53.65
  0
LINE
  5
363
100
AcDbEntity
  8
0
100
AcDbLine
 62
7
  6
CONTINUOUS
 10
-8.22683
 20
-55.35
 11
-8.22683
 21
-53.924557
  0
LINE
  5
364
100
AcDbEntity
  8
0
100
AcDbLine
 62
7
  6
CONTINUOUS
 10
-7.042986
 20
-55.35
 11
-7.042986
 21
-53.92222
  0
LINE
  5
365
100
AcDbEntity
  8
0
100
AcDbLine
 62
7
  6
CONTINUOUS
 10
-6.820343
 20
-55.35
 11
-6.820343
 21
-53.65
  0
LINE
  5
366
100
AcDbEntity
  8
0
100
AcDbLine
 62
7
  6
CONTINUOUS
 10
-6.384575
 20
-64.34854
 11
-6.384575
 21
-62.64854
  0
LINE
  5
367
100
AcDbEntity
  8
0
100
AcDbLine
 62
7
  6
CONTINUOUS
 10
-6.15491
 20
-64.34854
 11
-6.15491
 21
-63.63109
  0
LINE
  5
368
100
AcDbEntity
  8
0
100
AcDbLine
 62
7
  6
CONTINUOUS
 10
-6.15491
 20
-63.43458
 11
-6.15491
 21
-62.84505
  0
LINE
  5
369
100
AcDbEntity
  8
0
100
AcDbLine
 62
7
  6
CONTINUOUS
 10
-4.878851
 20
-55.35
 11
-4.878851
 21
-53.65
  0
LINE
  5
36A
100
AcDbEntity
  8
0
100
AcDbLine
 62
7
  6
CONTINUOUS
 10
-4.649114
 20
-55.153534
 11
-4.649114
 21
-53.846466
  0
LINE
  5
36B
100
AcDbEntity
  8
RACCORDO
100
AcDbLine
 62
7
  6
CONTINUOUS
 10
-4.5
 20
-66.8
 11
-4.5
 21
-65.2
  0
LINE
  5
36C
100
AcDbEntity
  8
RACCORDO
100
AcDbLine
 62
7
  6
CONTINUOUS
 10
-4.5
 20
65.2
 11
-4.5
 21
66.8
  0
LINE
  5
36D
100
AcDbEntity
  8
0
100
AcDbLine
 62
7
  6
CONTINUOUS
 10
-2.116835786
 20
53.2493119938
 11
-2.1206889162
 21
53.1824798528
  0
LINE
  5
36E
100
AcDbEntity
  8
0
100
AcDbLine
 62
7
  6
CONTINUOUS
 10
14.0
 20
-6.0
 11
-14.0
 21
-6.0
  0
LINE
  5
36F
100
AcDbEntity
  8
0
100
AcDbLine
 62
7
  6
CONTINUOUS
 10
14.0
 20
-5.2
 11
-14.0
 21
-5.2
  0
LWPOLYLINE
  5
370
100
AcDbEntity
  8
0
100
AcDbPolyline
 62
7
  6
CONTINUOUS
 90
15
 70
0
 10
-3.4755618373
 20
-54.5
 10
-3.4749715866
 20
-54.5676164494
 10
-3.4788770508
 20
-54.6347611062
 10
-3.4872782299
 20
-54.701433728
 10
-3.5001916744
 20
-54.7682180444
 10
-3.5176008337
 20
-54.8345300089
 10
-3.5394560566
 20
-54.8986170064
 10
-3.5654331437
 20
-54.9603928344
 10
-3.5958562943
 20
-55.0199418834
 10
-3.6316484553
 20
-55.0757662296
 10
-3.6732011589
 20
-55.1278754006
 10
-3.7201228729
 20
-55.1762573899
 10
-3.7721619477
 20
-55.219381127
 10
-3.8292915145
 20
-55.2572749017
 10
-3.891538442
 20
-55.2899078545
  0
LWPOLYLINE
  5
371
100
AcDbEntity
  8
0
100
AcDbPolyline
 62
7
  6
CONTINUOUS
 90
19
 70
0
 10
-3.7118726877
 20
-54.5
 10
-3.7120112039
 20
-54.4502972386
 10
-3.7145563767
 20
-54.4008785991
 10
-3.7195082061
 20
-54.3517440101
 10
-3.7266121537
 20
-54.3026698197
 10
-3.7361227579
 20
-54.2538795837
 10
-3.7488036337
 20
-54.2060438342
 10
-3.7644729484
 20
-54.1589112443
 10
-3.7833125347
 20
-54.1127326412
 10
-3.8066315053
 20
-54.0689311637
 10
-3.8349929013
 20
-54.0273620874
 10
-3.8678336817
 20
-53.988168871
 10
-3.904773836
 20
-53.9532060864
 10
-3.9462824553
 20
-53.9227009113
 10
-3.9918904484
 20
-53.8964243375
 10
-4.0398105315
 20
-53.8755461582
 10
-4.0894469433
 20
-53.8604557955
 10
-4.1413954451
 20
-53.850762524
 10
-4.1956560369
 20
-53.846466
  0
LINE
  5
372
100
AcDbEntity
  8
0
100
AcDbLine
 62
7
  6
CONTINUOUS
 10
-3.781195
 20
53.8110920839
 11
-3.781195
 21
54.0514958343
  0
LINE
  5
373
100
AcDbEntity
  8
0
100
AcDbLine
 62
7
  6
CONTINUOUS
 10
-3.698976
 20
59.100064
 11
-3.698984
 21
55.899912
  0
LINE
  5
374
100
AcDbEntity
  8
RACCORDO
100
AcDbLine
 62
7
  6
CONTINUOUS
 10
-3.6749773271
 20
-66.0
 11
-3.6749773271
 21
-68.5
  0
LINE
  5
375
100
AcDbEntity
  8
RACCORDO
100
AcDbLine
 62
7
  6
CONTINUOUS
 10
-3.6749773271
 20
66.0
 11
-3.6749773271
 21
68.5
  0
LINE
  5
376
100
AcDbEntity
  8
0
100
AcDbLine
 62
7
  6
CONTINUOUS
 10
-3.5
 20
68.3951844414
 11
-3.5
 21
65.2
  0
LINE
  5
377
100
AcDbEntity
  8
0
100
AcDbLine
 62
7
  6
CONTINUOUS
 10
-3.5
 20
-65.2
 11
-3.5
 21
-68.3951844414
  0
LINE
  5
378
100
AcDbEntity
  8
0
100
AcDbLine
 62
7
  6
CONTINUOUS
 10
-3.396655
 20
-62.852164
 11
-3.396655
 21
-62.64854
  0
LINE
  5
379
100
AcDbEntity
  8
0
100
AcDbLine
 62
7
  6
CONTINUOUS
 10
-3.283326
 20
52.526066
 11
-3.283326
 21
54.1109005912
  0
LINE
  5
37A
100
AcDbEntity
  8
0
100
AcDbLine
 62
7
  6
CONTINUOUS
 10
-3.157472
 20
-55.35
 11
-3.157472
 21
-53.65
  0
LINE
  5
37B
100
AcDbEntity
  8
0
100
AcDbLine
 62
7
  6
CONTINUOUS
 10
-3.058952
 20
59.100064
 11
-3.05896
 21
55.89992
  0
LINE
  5
37C
100
AcDbEntity
  8
0
100
AcDbLine
 62
7
  6
CONTINUOUS
 10
-3.034391
 20
52.526066
 11
-3.034391
 21
54.559973
  0
LINE
  5
37D
100
AcDbEntity
  8
0
100
AcDbLine
 62
7
  6
CONTINUOUS
 10
-2.927749
 20
-55.146385
 11
-2.927749
 21
-54.57816
  0
LINE
  5
37E
100
AcDbEntity
  8
0
100
AcDbLine
 62
7
  6
CONTINUOUS
 10
-2.927749
 20
-54.374545
 11
-2.927749
 21
-53.853615
  0
LINE
  5
37F
100
AcDbEntity
  8
0
100
AcDbLine
 62
7
  6
CONTINUOUS
 10
-2.821353
 20
-64.34854
 11
-2.821353
 21
-62.852164
  0
LINE
  5
380
100
AcDbEntity
  8
0
100
AcDbLine
 62
7
  6
CONTINUOUS
 10
-2.591689
 20
-64.34854
 11
-2.591689
 21
-62.852164
  0
LINE
  5
381
100
AcDbEntity
  8
0
100
AcDbLine
 62
7
  6
CONTINUOUS
 10
-2.418952
 20
59.100064
 11
-2.418952
 21
55.89992
  0
LINE
  5
382
100
AcDbEntity
  8
0
100
AcDbLine
 62
7
  6
CONTINUOUS
 10
-2.016387
 20
-62.852164
 11
-2.016387
 21
-62.64854
  0
LINE
  5
383
100
AcDbEntity
  8
0
100
AcDbLine
 62
7
  6
CONTINUOUS
 10
-1.997238
 20
-54.57816
 11
-1.997238
 21
-54.374545
  0
LINE
  5
384
100
AcDbEntity
  8
0
100
AcDbLine
 62
7
  6
CONTINUOUS
 10
-1.919105
 20
-53.853615
 11
-1.919105
 21
-53.65
  0
LINE
  5
385
100
AcDbEntity
  8
0
100
AcDbLine
 62
7
  6
CONTINUOUS
 10
-1.902511
 20
-55.35
 11
-1.902511
 21
-55.146385
  0
LINE
  5
386
100
AcDbEntity
  8
0
100
AcDbLine
 62
7
  6
CONTINUOUS
 10
-1.778928
 20
58.0102
 11
-1.778928
 21
55.89992
  0
LINE
  5
387
100
AcDbEntity
  8
0
100
AcDbLine
 62
7
  6
CONTINUOUS
 10
-1.777192
 20
-64.34854
 11
-1.777192
 21
-64.097533
  0
LINE
  5
388
100
AcDbEntity
  8
0
100
AcDbLine
 62
7
  6
CONTINUOUS
 10
-1.531018
 20
-64.34854
 11
-1.531018
 21
-64.097533
  0
LINE
  5
389
100
AcDbEntity
  8
0
100
AcDbLine
 62
7
  6
CONTINUOUS
 10
-0.908028
 20
-55.35
 11
-0.908028
 21
-53.65
  0
LINE
  5
38A
100
AcDbEntity
  8
IMPORT
100
AcDbLine
 62
7
  6
CONTINUOUS
 10
-0.867554
 20
-56.451963
 11
-0.867554
 21
-57.20278
  0
LINE
  5
38B
100
AcDbEntity
  8
IMPORT
100
AcDbLine
 62
7
  6
CONTINUOUS
 10
-0.867554
 20
-60.79722
 11
-0.867554
 21
-61.548037
  0
LINE
  5
38C
100
AcDbEntity
  8
0
100
AcDbLine
 62
7
  6
CONTINUOUS
 10
-0.808126
 20
54.288408
 11
-0.808126
 21
54.526027
  0
LINE
  5
38D
100
AcDbEntity
  8
0
100
AcDbLine
 62
7
  6
CONTINUOUS
 10
-0.678373
 20
-55.35
 11
-0.678373
 21
-53.65
  0
LINE
  5
38E
100
AcDbEntity
  8
0
100
AcDbLine
 62
7
  6
CONTINUOUS
 10
-0.463232
 20
-64.34854
 11
-0.463232
 21
-62.64854
  0
LINE
  5
38F
100
AcDbEntity
  8
0
100
AcDbLine
 62
7
  6
CONTINUOUS
 10
-0.285386
 20
-55.35
 11
-0.285386
 21
-53.65
  0
LINE
  5
390
100
AcDbEntity
  8
0
100
AcDbLine
 62
7
  6
CONTINUOUS
 10
-0.233568
 20
-64.34854
 11
-0.233568
 21
-63.63109
  0
LINE
  5
391
100
AcDbEntity
  8
0
100
AcDbLine
 62
7
  6
CONTINUOUS
 10
-0.233568
 20
-63.43458
 11
-0.233568
 21
-62.84505
  0
LINE
  5
392
100
AcDbEntity
  8
0
100
AcDbLine
 62
7
  6
CONTINUOUS
 10
-0.06273
 20
-55.35
 11
-0.06273
 21
-53.969397
  0
LINE
  5
393
100
AcDbEntity
  8
0
100
AcDbLine
 62
7
  6
CONTINUOUS
 10
0.071288
 20
58.0102
 11
0.071296
 21
55.89992
  0
LINE
  5
394
100
AcDbEntity
  8
0
100
AcDbLine
 62
7
  6
CONTINUOUS
 10
0.501609
 20
54.3337133879
 11
0.501609
 21
54.526027
  0
LWPOLYLINE
  5
395
100
AcDbEntity
  8
0
100
AcDbPolyline
 62
7
  6
CONTINUOUS
 90
16
 70
0
 10
-1.3233626354
 20
53.1416847365
 10
-1.3227190931
 20
53.2022264616
 10
-1.3279553183
 20
53.2602850425
 10
-1.3390713108
 20
53.3158594631
 10
-1.356119734
 20
53.3698790556
 10
-1.3790479246
 20
53.4214128159
 10
-1.4076978924
 20
53.4676683303
 10
-1.4427189258
 20
53.5080717361
 10
-1.4834617365
 20
53.5431936743
 10
-1.5278204695
 20
53.5719575635
 10
-1.5760338884
 20
53.5943008558
 10
-1.6278632296
 20
53.6102839096
 10
-1.6804863481
 20
53.619014568
 10
-1.7337425761
 20
53.6202335018
 10
-1.7877925813
 20
53.6141995523
 10
-1.8402962219
 20
53.6007982564
  0
LWPOLYLINE
  5
396
100
AcDbEntity
  8
0
100
AcDbPolyline
 62
7
  6
CONTINUOUS
 90
19
 70
0
 10
-5.3528030772
 20
-63.139814791
 10
-5.3522282459
 20
-63.1112667922
 10
-5.35433408
 20
-63.083066867
 10
-5.3591205797
 20
-63.055214991
 10
-5.3664910855
 20
-63.0272031586
 10
-5.3765422568
 20
-62.9995393531
 10
-5.3895640717
 20
-62.9737474153
 10
-5.4059609648
 20
-62.9500523302
 10
-5.4253285014
 20
-62.9282288431
 10
-5.4467433556
 20
-62.9091252789
 10
-5.4703144263
 20
-62.8931245493
 10
-5.4959328146
 20
-62.8798434576
 10
-5.5223484965
 20
-62.8689811555
 10
-5.5493900956
 20
-62.8607687083
 10
-5.5772289883
 20
-62.8549749137
 10
-5.6051292806
 20
-62.8506055755
 10
-5.6328456746
 20
-62.8473292915
 10
-5.6606234681
 20
-62.8454774348
 10
-5.6884626613
 20
-62.8450499978
  0
LWPOLYLINE
  5
397
100
AcDbEntity
  8
0
100
AcDbPolyline
 62
7
  6
CONTINUOUS
 90
6
 70
0
 10
-5.1161957682
 20
-63.139814791
 10
-5.1190335528
 20
-63.2094830667
 10
-5.1299775583
 20
-63.2753118223
 10
-5.1490277846
 20
-63.3373003286
 10
-5.1767466754
 20
-63.3966060568
 10
-5.2125717871
 20
-63.4520703454
  0
LWPOLYLINE
  5
398
100
AcDbEntity
  8
0
100
AcDbPolyline
 62
7
  6
CONTINUOUS
 90
22
 70
0
 10
-0.5252457102
 20
52.526066
 10
-0.51955709
 20
52.617983109
 10
-0.5105171897
 20
52.7093483147
 10
-0.4981260094
 20
52.8001611445
 10
-0.4821370518
 20
52.8904679933
 10
-0.4627968142
 20
52.9802215583
 10
-0.4408447882
 20
53.0692807407
 10
-0.4164740144
 20
53.1576383962
 10
-0.3894914523
 20
53.2453006049
 10
-0.3600574722
 20
53.3321459558
 10
-0.3281865853
 20
53.4181931231
 10
-0.2938642804
 20
53.5034222864
 10
-0.257207395
 20
53.5876541327
 10
-0.2182770828
 20
53.6709139028
 10
-0.1770121901
 20
53.7531750728
 10
-0.1333460927
 20
53.8341804592
 10
-0.0873582566
 20
53.91402433
 10
-0.0389692158
 20
53.992610966
 10
0.0121260519
 20
54.0693978109
 10
0.0660292207
 20
54.1442032572
 10
0.1226386165
 20
54.2172069549
 10
0.1819542393
 20
54.288408
  0
LWPOLYLINE
  5
399
100
AcDbEntity
  8
0
100
AcDbPolyline
 62
7
  6
CONTINUOUS
 90
22
 70
0
 10
2.6203798898
 20
52.526066
 10
2.62606851
 20
52.617983109
 10
2.6351084103
 20
52.7093483147
 10
2.6474995906
 20
52.8001611445
 10
2.6634885482
 20
52.8904679933
 10
2.6828287858
 20
52.9802215583
 10
2.7047808118
 20
53.0692807407
 10
2.7291515856
 20
53.1576383962
 10
2.7561341477
 20
53.2453006049
 10
2.7855681278
 20
53.3321459558
 10
2.8174390147
 20
53.4181931231
 10
2.8517613196
 20
53.5034222864
 10
2.888418205
 20
53.5876541327
 10
2.9273485172
 20
53.6709139028
 10
2.9686134099
 20
53.7531750728
 10
3.0122795073
 20
53.8341804592
 10
3.0582673434
 20
53.91402433
 10
3.1066563842
 20
53.992610966
 10
3.1577516519
 20
54.0693978109
 10
3.2116548207
 20
54.1442032572
 10
3.2682642165
 20
54.2172069549
 10
3.3275798393
 20
54.288408
  0
LINE
  5
39A
100
AcDbEntity
  8
ASSI
100
AcDbLine
 62
7
  6
CONTINUOUS
 10
5.22157
 20
-1.646117
 11
6.403816
 21
-1.646117
  0
LINE
  5
39B
100
AcDbEntity
  8
ASSI
100
AcDbLine
 62
7
  6
CONTINUOUS
 10
6.403816
 20
-1.229452
 11
6.034704
 21
-1.229452
  0
LINE
  5
39C
100
AcDbEntity
  8
ASSI
100
AcDbLine
 62
7
  6
CONTINUOUS
 10
5.590825
 20
-1.229452
 11
5.22157
 21
-1.229452
  0
LWPOLYLINE
  5
39D
100
AcDbEntity
  8
0
100
AcDbPolyline
 62
7
  6
CONTINUOUS
 90
5
 70
0
 10
1.8255378737
 20
53.0963972683
 10
1.8221597443
 20
53.1513520668
 10
1.8127918472
 20
53.2038988556
 10
1.7974341822
 20
53.2540367439
 10
1.775871192
 20
53.3026907434
  0
LWPOLYLINE
  5
39E
100
AcDbEntity
  8
0
100
AcDbPolyline
 62
7
  6
CONTINUOUS
 90
16
 70
0
 10
-2.1206889162
 20
53.1824798528
 10
-2.1168596902
 20
53.1156118032
 10
-2.1063333548
 20
53.0520670242
 10
-2.0891099102
 20
52.991844096
 10
-2.0644320046
 20
52.9338307414
 10
-2.0330569896
 20
52.8791368766
 10
-1.9972569208
 20
52.8310932126
 10
-1.9569051502
 20
52.7905599298
 10
-1.9121283258
 20
52.7566725654
 10
-1.8655784457
 20
52.7301738766
 10
-1.8175441453
 20
52.7113550311
 10
-1.7677367893
 20
52.6999224708
 10
-1.7179424703
 20
52.6957422706
 10
-1.6680766266
 20
52.6989904078
 10
-1.6182238198
 20
52.7094908568
 10
-1.5704238277
 20
52.7265822076
  0
LWPOLYLINE
  5
39F
100
AcDbEntity
  8
0
100
AcDbPolyline
 62
7
  6
CONTINUOUS
 90
22
 70
0
 10
1.0023062838
 20
53.110124471
 10
1.0059351307
 20
53.0461873875
 10
1.0182806639
 20
52.9859696594
 10
1.0393428835
 20
52.9294697665
 10
1.0699457641
 20
52.8753749398
 10
1.1092653311
 20
52.8249954701
 10
1.1548296599
 20
52.7822631863
 10
1.207408368
 20
52.7480228364
 10
1.266231838
 20
52.7214253974
 10
1.3265192934
 20
52.7038610145
 10
1.3879064853
 20
52.6961529179
 10
1.4507576627
 20
52.6974762157
 10
1.5113847956
 20
52.7067494637
 10
1.5697707634
 20
52.7238374158
 10
1.6259326868
 20
52.7488767903
 10
1.6762338974
 20
52.7811946292
 10
1.7202827271
 20
52.8216899898
 10
1.7584708441
 20
52.8694676828
 10
1.7883365837
 20
52.921162694
 10
1.8090593911
 20
52.9756538
 10
1.8214598211
 20
53.0340648049
 10
1.8255378737
 20
53.0963972683
  0
LWPOLYLINE
  5
3A0
100
AcDbEntity
  8
0
100
AcDbPolyline
 62
7
  6
CONTINUOUS
 90
3
 70
0
 10
1.0843414838
 20
54.0463688697
 10
1.0865330594
 20
53.9989401394
 10
1.0950045859
 20
53.9538289065
  0
LWPOLYLINE
  5
3A1
100
AcDbEntity
  8
0
100
AcDbPolyline
 62
7
  6
CONTINUOUS
 90
22
 70
0
 10
1.7430967976
 20
54.019747662
 10
1.7415070693
 20
54.0684620856
 10
1.7334164031
 20
54.114746798
 10
1.7188247993
 20
54.1586010566
 10
1.6973211178
 20
54.2010169718
 10
1.6693164986
 20
54.2410012417
 10
1.6360443612
 20
54.2755743122
 10
1.5968645838
 20
54.3041604399
 10
1.5524172883
 20
54.3273330945
 10
1.5058562594
 20
54.3438358912
 10
1.4571684196
 20
54.3533414962
 10
1.4063668464
 20
54.3561761197
 10
1.3566445572
 20
54.3520639304
 10
1.3078197058
 20
54.3406750502
 10
1.2600741383
 20
54.3223400538
 10
1.21714641
 20
54.2977741638
 10
1.1796860501
 20
54.2662775565
 10
1.1470435294
 20
54.2285523772
 10
1.1210088156
 20
54.1874164243
 10
1.1021785647
 20
54.143809285
 10
1.0899561208
 20
54.0967930832
 10
1.0843414838
 20
54.0463688697
  0
LWPOLYLINE
  5
3A2
100
AcDbEntity
  8
0
100
AcDbPolyline
 62
7
  6
CONTINUOUS
 90
15
 70
0
 10
5.7959168668
 20
-63.4985396232
 10
5.7965023956
 20
-63.5669835919
 10
5.7925098459
 20
-63.6348505079
 10
5.7839392178
 20
-63.7021402286
 10
5.7708115659
 20
-63.7693179714
 10
5.7531058356
 20
-63.8359182937
 10
5.7307588622
 20
-63.9005448334
 10
5.7040663599
 20
-63.96346491
 10
5.6727326146
 20
-64.0244105401
 10
5.6358073198
 20
-64.0811818733
 10
5.592764917
 20
-64.1335724174
 10
5.5441309648
 20
-64.1817875065
 10
5.4905318327
 20
-64.2242446021
 10
5.4315907319
 20
-64.2606504735
 10
5.3676844512
 20
-64.2912972489
  0
LWPOLYLINE
  5
3A3
100
AcDbEntity
  8
0
100
AcDbPolyline
 62
7
  6
CONTINUOUS
 90
16
 70
0
 10
5.5596313389
 20
-63.4985396232
 10
5.5591325088
 20
-63.4368527182
 10
5.5548470154
 20
-63.3756943498
 10
5.5467748589
 20
-63.315064462
 10
5.5356791154
 20
-63.2542764027
 10
5.5207967087
 20
-63.1940167846
 10
5.4998384099
 20
-63.1363451091
 10
5.4722136466
 20
-63.0808988114
 10
5.4385129911
 20
-63.0280397295
 10
5.3982189322
 20
-62.9809131862
 10
5.3498982425
 20
-62.9398165717
 10
5.2949841494
 20
-62.9044510597
 10
5.2372588237
 20
-62.8770670871
 10
5.1779829892
 20
-62.8584143529
 10
5.1158959221
 20
-62.8477420717
 10
5.0509976225
 20
-62.8450499978
  0
LINE
  5
3A4
100
AcDbEntity
  8
0
100
AcDbLine
 62
7
  6
CONTINUOUS
 10
0.71132
 20
59.100064
 11
0.71132
 21
55.89992
  0
LINE
  5
3A5
100
AcDbEntity
  8
0
100
AcDbLine
 62
7
  6
CONTINUOUS
 10
0.841769
 20
-55.030883
 11
0.841769
 21
-53.65
  0
LINE
  5
3A6
100
AcDbEntity
  8
0
100
AcDbLine
 62
7
  6
CONTINUOUS
 10
1.064316
 20
-55.35
 11
1.064316
 21
-53.65
  0
LINE
  5
3A7
100
AcDbEntity
  8
0
100
AcDbLine
 62
7
  6
CONTINUOUS
 10
1.115962
 20
-64.34854
 11
1.115962
 21
-62.64854
  0
LINE
  5
3A8
100
AcDbEntity
  8
0
100
AcDbLine
 62
7
  6
CONTINUOUS
 10
1.345627
 20
-64.144915
 11
1.345627
 21
-63.576728
  0
LINE
  5
3A9
100
AcDbEntity
  8
0
100
AcDbLine
 62
7
  6
CONTINUOUS
 10
1.345627
 20
-63.373103
 11
1.345627
 21
-62.852164
  0
LINE
  5
3AA
100
AcDbEntity
  8
0
100
AcDbLine
 62
7
  6
CONTINUOUS
 10
2.117917
 20
-55.35
 11
2.117917
 21
-53.65
  0
LINE
  5
3AB
100
AcDbEntity
  8
0
100
AcDbLine
 62
7
  6
CONTINUOUS
 10
2.276231
 20
-63.576728
 11
2.276231
 21
-63.373103
  0
LINE
  5
3AC
100
AcDbEntity
  8
0
100
AcDbLine
 62
7
  6
CONTINUOUS
 10
2.3375
 20
54.288408
 11
2.3375
 21
54.526027
  0
LINE
  5
3AD
100
AcDbEntity
  8
0
100
AcDbLine
 62
7
  6
CONTINUOUS
 10
2.347641
 20
-55.35
 11
2.347641
 21
-53.65
  0
LINE
  5
3AE
100
AcDbEntity
  8
0
100
AcDbLine
 62
7
  6
CONTINUOUS
 10
2.354352
 20
-62.852164
 11
2.354352
 21
-62.64854
  0
LINE
  5
3AF
100
AcDbEntity
  8
0
100
AcDbLine
 62
7
  6
CONTINUOUS
 10
2.370862
 20
-64.34854
 11
2.370862
 21
-64.144915
  0
LINE
  5
3B0
100
AcDbEntity
  8
0
100
AcDbLine
 62
7
  6
CONTINUOUS
 10
2.59389
 20
-53.853615
 11
2.59389
 21
-53.65
  0
LINE
  5
3B1
100
AcDbEntity
  8
0
100
AcDbLine
 62
7
  6
CONTINUOUS
 10
2.671533
 20
-64.34854
 11
2.671533
 21
-62.64854
  0
LINE
  5
3B2
100
AcDbEntity
  8
0
100
AcDbLine
 62
7
  6
CONTINUOUS
 10
2.894083
 20
-64.34854
 11
2.894083
 21
-62.967786
  0
LINE
  5
3B3
100
AcDbEntity
  8
IMPORT
100
AcDbLine
 62
7
  6
CONTINUOUS
 10
3.117556
 20
-58.625
 11
3.117556
 21
-59.375
  0
LINE
  5
3B4
100
AcDbEntity
  8
0
100
AcDbLine
 62
7
  6
CONTINUOUS
 10
3.169264
 20
-55.35
 11
3.169264
 21
-53.853615
  0
LINE
  5
3B5
100
AcDbEntity
  8
0
100
AcDbLine
 62
7
  6
CONTINUOUS
 10
3.398905
 20
-55.35
 11
3.398905
 21
-53.853615
  0
LINE
  5
3B6
100
AcDbEntity
  8
0
100
AcDbLine
 62
7
  6
CONTINUOUS
 10
3.5
 20
-65.2
 11
3.5
 21
-68.3951844414
  0
LINE
  5
3B7
100
AcDbEntity
  8
0
100
AcDbLine
 62
7
  6
CONTINUOUS
 10
3.5
 20
65.2
 11
3.5
 21
68.3951844414
  0
LINE
  5
3B8
100
AcDbEntity
  8
IMPORT
100
AcDbLine
 62
7
  6
CONTINUOUS
 10
3.517556
 20
-56.4519628823
 11
3.517556
 21
-57.20278
  0
LINE
  5
3B9
100
AcDbEntity
  8
IMPORT
100
AcDbLine
 62
7
  6
CONTINUOUS
 10
3.517556
 20
-60.7972169516
 11
3.517556
 21
-61.5480371177
  0
LINE
  5
3BA
100
AcDbEntity
  8
0
100
AcDbLine
 62
7
  6
CONTINUOUS
 10
3.647234
 20
54.3337127496
 11
3.647234
 21
54.526027
  0
LINE
  5
3BB
100
AcDbEntity
  8
RACCORDO
100
AcDbLine
 62
7
  6
CONTINUOUS
 10
3.6749773271
 20
-66.0
 11
3.6749773271
 21
-68.5
  0
LINE
  5
3BC
100
AcDbEntity
  8
RACCORDO
100
AcDbLine
 62
7
  6
CONTINUOUS
 10
3.6749773271
 20
66.0
 11
3.6749773271
 21
68.5
  0
LINE
  5
3BD
100
AcDbEntity
  8
0
100
AcDbLine
 62
7
  6
CONTINUOUS
 10
3.798513
 20
-64.029419
 11
3.798513
 21
-62.64854
  0
LINE
  5
3BE
100
AcDbEntity
  8
0
100
AcDbLine
 62
7
  6
CONTINUOUS
 10
3.974279
 20
-53.853615
 11
3.974279
 21
-53.65
  0
LINE
  5
3BF
100
AcDbEntity
  8
0
100
AcDbLine
 62
7
  6
CONTINUOUS
 10
4.021063
 20
-64.34854
 11
4.021063
 21
-62.64854
  0
LINE
  5
3C0
100
AcDbEntity
  8
0
100
AcDbLine
 62
7
  6
CONTINUOUS
 10
4.259648
 20
59.100072
 11
4.259648
 21
55.899928
  0
LINE
  5
3C1
100
AcDbEntity
  8
0
100
AcDbLine
 62
7
  6
CONTINUOUS
 10
4.392741
 20
-64.34854
 11
4.392741
 21
-62.64854
  0
LINE
  5
3C2
100
AcDbEntity
  8
RACCORDO
100
AcDbLine
 62
7
  6
CONTINUOUS
 10
4.5
 20
66.8
 11
4.5
 21
65.2
  0
LINE
  5
3C3
100
AcDbEntity
  8
RACCORDO
100
AcDbLine
 62
7
  6
CONTINUOUS
 10
4.5
 20
-65.2
 11
4.5
 21
-66.8
  0
LINE
  5
3C4
100
AcDbEntity
  8
0
100
AcDbLine
 62
7
  6
CONTINUOUS
 10
4.622405
 20
-64.15203
 11
4.622405
 21
-62.84505
  0
LINE
  5
3C5
100
AcDbEntity
  8
0
100
AcDbLine
 62
7
  6
CONTINUOUS
 10
4.890848
 20
58.508048
 11
4.890856
 21
57.729312
  0
LINE
  5
3C6
100
AcDbEntity
  8
ASSI
100
AcDbLine
 62
7
  6
CONTINUOUS
 10
5.22157
 20
-1.229452
 11
5.22157
 21
-1.646117
  0
LINE
  5
3C7
100
AcDbEntity
  8
ASSI
100
AcDbLine
 62
7
  6
CONTINUOUS
 10
5.235177
 20
2.149703
 11
5.235177
 21
1.730746
  0
LINE
  5
3C8
100
AcDbEntity
  8
0
100
AcDbLine
 62
7
  6
CONTINUOUS
 10
4.899752
 20
57.137288
 11
4.89968
 21
55.899928
  0
LWPOLYLINE
  5
3C9
100
AcDbEntity
  8
0
100
AcDbPolyline
 62
7
  6
CONTINUOUS
 90
19
 70
0
 10
0.5685392047
 20
-63.139814791
 10
0.569114036
 20
-63.1112667922
 10
0.5670082019
 20
-63.083066867
 10
0.5622217022
 20
-63.055214991
 10
0.5548511964
 20
-63.0272031586
 10
0.5448000251
 20
-62.9995393531
 10
0.5317782102
 20
-62.9737474153
 10
0.5153813171
 20
-62.9500523302
 10
0.4960137804
 20
-62.9282288431
 10
0.4745989263
 20
-62.9091252789
 10
0.4510278555
 20
-62.8931245493
 10
0.4254094673
 20
-62.8798434576
 10
0.3989937854
 20
-62.8689811555
 10
0.3719521863
 20
-62.8607687083
 10
0.3441132936
 20
-62.8549749137
 10
0.3162130012
 20
-62.8506055755
 10
0.2884966073
 20
-62.8473292915
 10
0.2607188138
 20
-62.8454774348
 10
0.2328796206
 20
-62.8450499978
  0
LWPOLYLINE
  5
3CA
100
AcDbEntity
  8
0
100
AcDbPolyline
 62
7
  6
CONTINUOUS
 90
6
 70
0
 10
0.8051465137
 20
-63.139814791
 10
0.8023087291
 20
-63.2094830667
 10
0.7913647236
 20
-63.2753118223
 10
0.7723144973
 20
-63.3373003286
 10
0.7445956065
 20
-63.3966060568
 10
0.7087704948
 20
-63.4520703454
  0
LINE
  5
3CB
100
AcDbEntity
  8
ASSI
100
AcDbLine
 62
7
  6
CONTINUOUS
 10
4.8453241763
 20
-1.4587406859
 11
5.0371209365
 21
-1.1170221132
  0
LINE
  5
3CC
100
AcDbEntity
  8
ASSI
100
AcDbLine
 62
7
  6
CONTINUOUS
 10
7.2037793863
 20
1.6535743255
 11
6.034704
 21
0.668387
  0
LINE
  5
3CD
100
AcDbEntity
  8
ASSI
100
AcDbLine
 62
7
  6
CONTINUOUS
 10
6.034704
 20
0.156691
 11
7.1495358967
 21
1.0961669129
  0
LINE
  5
3CE
100
AcDbEntity
  8
ASSI
100
AcDbLine
 62
7
  6
CONTINUOUS
 10
5.235177
 20
1.730746
 11
5.590825
 21
1.730746
  0
LINE
  5
3CF
100
AcDbEntity
  8
ASSI
100
AcDbLine
 62
7
  6
CONTINUOUS
 10
6.034704
 20
1.730746
 11
6.390209
 21
1.730746
  0
LINE
  5
3D0
100
AcDbEntity
  8
ASSI
100
AcDbLine
 62
7
  6
CONTINUOUS
 10
6.390209
 20
2.149703
 11
5.235177
 21
2.149703
  0
LINE
  5
3D1
100
AcDbEntity
  8
0
100
AcDbLine
 62
7
  6
CONTINUOUS
 10
14.0
 20
5.2
 11
-14.0
 21
5.2
  0
LINE
  5
3D2
100
AcDbEntity
  8
ASSI
100
AcDbLine
 62
7
  6
CONTINUOUS
 10
4.470464
 20
1.096167
 11
5.590825
 21
0.152031
  0
LINE
  5
3D3
100
AcDbEntity
  8
ASSI
100
AcDbLine
 62
7
  6
CONTINUOUS
 10
5.590825
 20
0.668387
 11
4.418751
 21
1.6561
  0
LINE
  5
3D4
100
AcDbEntity
  8
ASSI
100
AcDbLine
 62
7
  6
CONTINUOUS
 10
6.582879
 20
-1.117022
 11
6.774676
 21
-1.458741
  0
LINE
  5
3D5
100
AcDbEntity
  8
ASSI
100
AcDbLine
 62
7
  6
CONTINUOUS
 10
5.590825
 20
1.730746
 11
5.590825
 21
0.668387
  0
LINE
  5
3D6
100
AcDbEntity
  8
ASSI
100
AcDbLine
 62
7
  6
CONTINUOUS
 10
5.590825
 20
0.152031
 11
5.590825
 21
-1.229452
  0
LINE
  5
3D7
100
AcDbEntity
  8
0
100
AcDbLine
 62
7
  6
CONTINUOUS
 10
5.766641
 20
-55.35
 11
5.766641
 21
-53.65
  0
LINE
  5
3D8
100
AcDbEntity
  8
0
100
AcDbLine
 62
7
  6
CONTINUOUS
 10
5.996378
 20
-55.146385
 11
5.996378
 21
-53.65
  0
LINE
  5
3D9
100
AcDbEntity
  8
ASSI
100
AcDbLine
 62
7
  6
CONTINUOUS
 10
6.034704
 20
-1.229452
 11
6.034704
 21
0.156691
  0
LINE
  5
3DA
100
AcDbEntity
  8
ASSI
100
AcDbLine
 62
7
  6
CONTINUOUS
 10
6.034704
 20
0.668387
 11
6.034704
 21
1.730746
  0
LINE
  5
3DB
100
AcDbEntity
  8
0
100
AcDbLine
 62
7
  6
CONTINUOUS
 10
6.116365
 20
-64.34854
 11
6.116365
 21
-64.097533
  0
LINE
  5
3DC
100
AcDbEntity
  8
0
100
AcDbLine
 62
7
  6
CONTINUOUS
 10
6.362674
 20
-64.34854
 11
6.362674
 21
-64.097533
  0
LINE
  5
3DD
100
AcDbEntity
  8
ASSI
100
AcDbLine
 62
7
  6
CONTINUOUS
 10
6.390209
 20
1.730746
 11
6.390209
 21
2.149703
  0
LINE
  5
3DE
100
AcDbEntity
  8
ASSI
100
AcDbLine
 62
7
  6
CONTINUOUS
 10
6.403816
 20
-1.646117
 11
6.403816
 21
-1.229452
  0
LINE
  5
3DF
100
AcDbEntity
  8
0
100
AcDbLine
 62
7
  6
CONTINUOUS
 10
6.858271
 20
-55.35
 11
6.858271
 21
-55.146385
  0
LINE
  5
3E0
100
AcDbEntity
  8
0
100
AcDbLine
 62
7
  6
CONTINUOUS
 10
7.578004
 20
-55.35
 11
7.578004
 21
-54.665738
  0
LINE
  5
3E1
100
AcDbEntity
  8
0
100
AcDbLine
 62
7
  6
CONTINUOUS
 10
7.807603
 20
-55.35
 11
7.807603
 21
-54.665738
  0
LINE
  5
3E2
100
AcDbEntity
  8
0
100
AcDbLine
 62
7
  6
CONTINUOUS
 10
8.5
 20
66.8
 11
8.5
 21
64.5
  0
LINE
  5
3E3
100
AcDbEntity
  8
0
100
AcDbLine
 62
7
  6
CONTINUOUS
 10
8.5
 20
-64.5
 11
8.5
 21
-66.8
  0
LINE
  5
3E4
100
AcDbEntity
  8
0
100
AcDbLine
 62
7
  6
CONTINUOUS
 10
9.5
 20
66.8
 11
9.5
 21
64.5
  0
LINE
  5
3E5
100
AcDbEntity
  8
0
100
AcDbLine
 62
7
  6
CONTINUOUS
 10
9.5
 20
-64.5
 11
9.5
 21
-66.8
  0
LINE
  5
3E6
100
AcDbEntity
  8
ASSI
100
AcDbLine
 62
7
  6
CONTINUOUS
 10
7.318932
 20
-2.969018
 11
7.53636
 21
-2.66078
  0
LINE
  5
3E7
100
AcDbEntity
  8
0
100
AcDbLine
 62
7
  6
CONTINUOUS
 10
-14.0
 20
6.0
 11
14.0
 21
6.0
  0
LINE
  5
3E8
100
AcDbEntity
  8
0
100
AcDbLine
 62
7
  6
CONTINUOUS
 10
10.7
 20
66.8
 11
10.7
 21
64.5
  0
LINE
  5
3E9
100
AcDbEntity
  8
0
100
AcDbLine
 62
7
  6
CONTINUOUS
 10
10.7
 20
-64.5
 11
10.7
 21
-66.8
  0
LINE
  5
3EA
100
AcDbEntity
  8
0
100
AcDbLine
 62
7
  6
CONTINUOUS
 10
11.7
 20
66.8
 11
11.7
 21
64.5
  0
LINE
  5
3EB
100
AcDbEntity
  8
0
100
AcDbLine
 62
7
  6
CONTINUOUS
 10
11.7
 20
-64.5
 11
11.7
 21
-66.8
  0
LINE
  5
3EC
100
AcDbEntity
  8
RACCORDO
100
AcDbLine
 62
7
  6
CONTINUOUS
 10
12.5
 20
50.8
 11
12.5
 21
6.2
  0
LINE
  5
3ED
100
AcDbEntity
  8
RACCORDO
100
AcDbLine
 62
250
  6
CONTINUOUS
 10
12.5
 20
5.2
 11
12.5
 21
-5.2
  0
LINE
  5
3EE
100
AcDbEntity
  8
RACCORDO
100
AcDbLine
 62
7
  6
CONTINUOUS
 10
12.5
 20
-6.2
 11
12.5
 21
-50.8
  0
LINE
  5
3EF
100
AcDbEntity
  8
0
100
AcDbLine
 62
7
  6
CONTINUOUS
 10
13.2
 20
66.5470947647
 11
13.2
 21
51.8
  0
LINE
  5
3F0
100
AcDbEntity
  8
0
100
AcDbLine
 62
7
  6
CONTINUOUS
 10
13.2
 20
-51.8
 11
13.2
 21
-66.5470947647
  0
LINE
  5
3F1
100
AcDbEntity
  8
RACCORDO
100
AcDbLine
 62
7
  6
CONTINUOUS
 10
14.0
 20
5.2
 11
14.0
 21
-5.2
  0
LINE
  5
3F2
100
AcDbEntity
  8
0
100
AcDbLine
 62
7
  6
CONTINUOUS
 10
14.0
 20
-5.2
 11
14.0
 21
-66.5470947647
  0
LINE
  5
3F3
100
AcDbEntity
  8
0
100
AcDbLine
 62
7
  6
CONTINUOUS
 10
14.0
 20
5.2
 11
14.0
 21
66.5470947647
  0
LINE
  5
3F4
100
AcDbEntity
  8
RACCORDO
100
AcDbLine
 62
250
  6
CONTINUOUS
 10
14.3
 20
66.2589150801
 11
14.3
 21
54.9
  0
LINE
  5
3F5
100
AcDbEntity
  8
RACCORDO
100
AcDbLine
 62
250
  6
CONTINUOUS
 10
14.3
 20
54.1
 11
14.3
 21
18.4
  0
LINE
  5
3F6
100
AcDbEntity
  8
RACCORDO
100
AcDbLine
 62
250
  6
CONTINUOUS
 10
14.3
 20
17.6
 11
14.3
 21
-17.6
  0
LINE
  5
3F7
100
AcDbEntity
  8
RACCORDO
100
AcDbLine
 62
250
  6
CONTINUOUS
 10
14.3
 20
-18.4
 11
14.3
 21
-54.1
  0
LINE
  5
3F8
100
AcDbEntity
  8
RACCORDO
100
AcDbLine
 62
250
  6
CONTINUOUS
 10
14.3
 20
-54.9
 11
14.3
 21
-66.2589150801
  0
LINE
  5
3F9
100
AcDbEntity
  8
0
100
AcDbLine
 62
7
  6
CONTINUOUS
 10
-7.521208
 20
-55.35
 11
-7.042986
 21
-53.92222
  0
LINE
  5
3FA
100
AcDbEntity
  8
0
100
AcDbLine
 62
7
  6
CONTINUOUS
 10
-7.632526
 20
-55.094181
 11
-7.147131
 21
-53.65
  0
LINE
  5
3FB
100
AcDbEntity
  8
0
100
AcDbLine
 62
7
  6
CONTINUOUS
 10
-6.379965
 20
-55.35
 11
-6.202363
 21
-54.855192
  0
LINE
  5
3FC
100
AcDbEntity
  8
0
100
AcDbLine
 62
7
  6
CONTINUOUS
 10
-6.13131
 20
-54.651577
 11
-5.856574
 21
-53.896583
  0
LINE
  5
3FD
100
AcDbEntity
  8
0
100
AcDbLine
 62
7
  6
CONTINUOUS
 10
-6.616714
 20
-55.35
 11
-5.977465
 21
-53.65
  0
LINE
  5
3FE
100
AcDbEntity
  8
0
100
AcDbLine
 62
7
  6
CONTINUOUS
 10
-6.820624
 20
59.100064
 11
-5.793168
 21
55.899912
  0
LINE
  5
3FF
100
AcDbEntity
  8
0
100
AcDbLine
 62
7
  6
CONTINUOUS
 10
-6.180592
 20
59.100064
 11
-5.473136
 21
56.896592
  0
LINE
  5
400
100
AcDbEntity
  8
0
100
AcDbLine
 62
7
  6
CONTINUOUS
 10
-1.778928
 20
58.0102
 11
-1.173824
 21
55.89992
  0
LINE
  5
401
100
AcDbEntity
  8
0
100
AcDbLine
 62
7
  6
CONTINUOUS
 10
-1.451408
 20
59.100064
 11
-0.853816
 21
57.016016
  0
LWPOLYLINE
  5
402
100
AcDbEntity
  8
0
100
AcDbPolyline
 62
7
  6
CONTINUOUS
 90
18
 70
0
 10
-1.3484265582
 20
54.0366450355
 10
-1.3568241702
 20
54.0750438019
 10
-1.3680817976
 20
54.1121936055
 10
-1.3821994403
 20
54.1480941384
 10
-1.3989917208
 20
54.183444005
 10
-1.4186440167
 20
54.2175441205
 10
-1.4417124607
 20
54.2482972048
 10
-1.4686567686
 20
54.2751938277
 10
-1.4990172245
 20
54.298742113
 10
-1.5319708137
 20
54.3183706829
 10
-1.5673973313
 20
54.3340913068
 10
-1.6054169822
 20
54.3458913307
 10
-1.6455673659
 20
54.3531627597
 10
-1.6882720541
 20
54.3563666284
 10
-1.7331074751
 20
54.3550416104
 10
-1.7783405142
 20
54.3471963408
 10
-1.8243932092
 20
54.3322024549
 10
-1.8708435222
 20
54.3106892965
  0
LINE
  5
403
100
AcDbEntity
  8
RACCORDO
100
AcDbLine
 62
250
  6
CONTINUOUS
 10
17.6979754537
 20
-58.6891614823
 11
17.731913102
 21
-66.2589150801
  0
LINE
  5
404
100
AcDbEntity
  8
RACCORDO
100
AcDbLine
 62
250
  6
CONTINUOUS
 10
17.9976145971
 20
-58.6791174669
 11
18.0315027584
 21
-66.230475224
  0
LINE
  5
405
100
AcDbEntity
  8
RACCORDO
100
AcDbLine
 62
250
  6
CONTINUOUS
 10
17.6838422957
 20
-54.9
 11
17.6979754537
 21
-58.6891614823
  0
LINE
  5
406
100
AcDbEntity
  8
RACCORDO
100
AcDbLine
 62
250
  6
CONTINUOUS
 10
17.9835011743
 20
-54.9
 11
17.9976145971
 21
-58.6791174669
  0
LINE
  5
407
100
AcDbEntity
  8
RACCORDO
100
AcDbLine
 62
250
  6
CONTINUOUS
 10
17.6811023778
 20
-54.1
 11
17.6640673199
 21
-48.4165342077
  0
LINE
  5
408
100
AcDbEntity
  8
RACCORDO
100
AcDbLine
 62
250
  6
CONTINUOUS
 10
17.980756398
 20
-54.1
 11
17.9636950984
 21
-48.4160987715
  0
LINE
  5
409
100
AcDbEntity
  8
RACCORDO
100
AcDbLine
 62
250
  6
CONTINUOUS
 10
17.6640673199
 20
-48.4165342077
 11
17.651289027
 21
-42.7290021125
  0
LINE
  5
40A
100
AcDbEntity
  8
RACCORDO
100
AcDbLine
 62
250
  6
CONTINUOUS
 10
17.9636950984
 20
-48.4160987715
 11
17.9508978411
 21
-42.7290917142
  0
LINE
  5
40B
100
AcDbEntity
  8
RACCORDO
100
AcDbLine
 62
250
  6
CONTINUOUS
 10
17.651289027
 20
-42.7290021125
 11
17.6427681852
 21
-37.038564892
  0
LINE
  5
40C
100
AcDbEntity
  8
RACCORDO
100
AcDbLine
 62
250
  6
CONTINUOUS
 10
17.9508978411
 20
-42.7290917142
 11
17.9423649356
 21
-37.0391520693
  0
LINE
  5
40D
100
AcDbEntity
  8
RACCORDO
100
AcDbLine
 62
250
  6
CONTINUOUS
 10
17.6427681852
 20
-37.038564892
 11
17.6385075398
 21
-31.3463822863
  0
LINE
  5
40E
100
AcDbEntity
  8
RACCORDO
100
AcDbLine
 62
250
  6
CONTINUOUS
 10
17.9423649356
 20
-37.0391520693
 11
17.9380976192
 21
-31.3469728022
  0
LINE
  5
40F
100
AcDbEntity
  8
RACCORDO
100
AcDbLine
 62
7
  6
CONTINUOUS
 10
16.75
 20
54.9
 11
16.75
 21
54.1
  0
LINE
  5
410
100
AcDbEntity
  8
RACCORDO
100
AcDbLine
 62
7
  6
CONTINUOUS
 10
16.75
 20
18.4
 11
16.75
 21
17.6
  0
LINE
  5
411
100
AcDbEntity
  8
RACCORDO
100
AcDbLine
 62
7
  6
CONTINUOUS
 10
16.75
 20
-17.6
 11
16.75
 21
-18.4
  0
LINE
  5
412
100
AcDbEntity
  8
RACCORDO
100
AcDbLine
 62
7
  6
CONTINUOUS
 10
16.75
 20
-54.1
 11
16.75
 21
-54.9
  0
LINE
  5
413
100
AcDbEntity
  8
RACCORDO
100
AcDbLine
 62
250
  6
CONTINUOUS
 10
17.55
 20
54.9
 11
17.55
 21
54.1
  0
LINE
  5
414
100
AcDbEntity
  8
RACCORDO
100
AcDbLine
 62
250
  6
CONTINUOUS
 10
17.55
 20
18.4
 11
17.55
 21
17.6
  0
LINE
  5
415
100
AcDbEntity
  8
RACCORDO
100
AcDbLine
 62
250
  6
CONTINUOUS
 10
17.55
 20
-17.6
 11
17.55
 21
-18.4
  0
LINE
  5
416
100
AcDbEntity
  8
RACCORDO
100
AcDbLine
 62
250
  6
CONTINUOUS
 10
17.55
 20
-54.1
 11
17.55
 21
-54.9
  0
LINE
  5
417
100
AcDbEntity
  8
RACCORDO
100
AcDbLine
 62
250
  6
CONTINUOUS
 10
17.6385075398
 20
-31.3463822863
 11
17.6379746191
 21
-18.4
  0
LINE
  5
418
100
AcDbEntity
  8
RACCORDO
100
AcDbLine
 62
250
  6
CONTINUOUS
 10
17.6379746191
 20
-17.6
 11
17.6379746191
 21
17.6
  0
LINE
  5
419
100
AcDbEntity
  8
RACCORDO
100
AcDbLine
 62
250
  6
CONTINUOUS
 10
17.7319136986
 20
66.5300594754
 11
17.7319136986
 21
66.2589150801
  0
LINE
  5
41A
100
AcDbEntity
  8
RACCORDO
100
AcDbLine
 62
250
  6
CONTINUOUS
 10
17.7319136986
 20
-66.2589150801
 11
17.7319136986
 21
-66.5300594754
  0
LINE
  5
41B
100
AcDbEntity
  8
RACCORDO
100
AcDbLine
 62
250
  6
CONTINUOUS
 10
17.9380976192
 20
-31.3469728022
 11
17.9375634796
 21
-18.4
  0
LINE
  5
41C
100
AcDbEntity
  8
RACCORDO
100
AcDbLine
 62
250
  6
CONTINUOUS
 10
17.9375634796
 20
-17.6
 11
17.9375634796
 21
17.6
  0
LINE
  5
41D
100
AcDbEntity
  8
RACCORDO
100
AcDbLine
 62
7
  6
CONTINUOUS
 10
18.3
 20
-66.5004111278
 11
18.3
 21
-54.9
  0
LINE
  5
41E
100
AcDbEntity
  8
DRAFT
100
AcDbLine
 62
7
  6
CONTINUOUS
 10
18.3
 20
-54.1
 11
18.3
 21
-18.4
  0
LINE
  5
41F
100
AcDbEntity
  8
DRAFT
100
AcDbLine
 62
7
  6
CONTINUOUS
 10
18.3
 20
-17.6
 11
18.3
 21
17.6
  0
LINE
  5
420
100
AcDbEntity
  8
DRAFT
100
AcDbLine
 62
7
  6
CONTINUOUS
 10
18.3
 20
18.4
 11
18.3
 21
54.1
  0
LINE
  5
421
100
AcDbEntity
  8
RACCORDO
100
AcDbLine
 62
7
  6
CONTINUOUS
 10
18.3
 20
54.9
 11
18.3
 21
66.5004111278
  0
LINE
  5
422
100
AcDbEntity
  8
RACCORDO
100
AcDbLine
 62
250
  6
CONTINUOUS
 10
17.6379746191
 20
18.4
 11
17.63850754
 21
31.3463820891
  0
LINE
  5
423
100
AcDbEntity
  8
RACCORDO
100
AcDbLine
 62
250
  6
CONTINUOUS
 10
17.9375634796
 20
18.4
 11
17.9380976287
 21
31.3469825636
  0
LINE
  5
424
100
AcDbEntity
  8
RACCORDO
100
AcDbLine
 62
250
  6
CONTINUOUS
 10
17.63850754
 20
31.3463820891
 11
17.6427681855
 21
37.0385644837
  0
LINE
  5
425
100
AcDbEntity
  8
RACCORDO
100
AcDbLine
 62
250
  6
CONTINUOUS
 10
17.9380976287
 20
31.3469825636
 11
17.9423649596
 21
37.0391726879
  0
LINE
  5
426
100
AcDbEntity
  8
RACCORDO
100
AcDbLine
 62
250
  6
CONTINUOUS
 10
17.6427681855
 20
37.0385644837
 11
17.6512890262
 21
42.7290017691
  0
LINE
  5
427
100
AcDbEntity
  8
RACCORDO
100
AcDbLine
 62
250
  6
CONTINUOUS
 10
17.9423649596
 20
37.0391726879
 11
17.9508978761
 21
42.7291104403
  0
LINE
  5
428
100
AcDbEntity
  8
RACCORDO
100
AcDbLine
 62
250
  6
CONTINUOUS
 10
17.6512890262
 20
42.7290017691
 11
17.6640673215
 21
48.4165340161
  0
LINE
  5
429
100
AcDbEntity
  8
RACCORDO
100
AcDbLine
 62
250
  6
CONTINUOUS
 10
17.9508978761
 20
42.7291104403
 11
17.9636951262
 21
48.4161100271
  0
LINE
  5
42A
100
AcDbEntity
  8
RACCORDO
100
AcDbLine
 62
250
  6
CONTINUOUS
 10
17.6640673215
 20
48.4165340161
 11
17.6811023863
 21
54.1
  0
LINE
  5
42B
100
AcDbEntity
  8
RACCORDO
100
AcDbLine
 62
250
  6
CONTINUOUS
 10
17.9636951262
 20
48.4161100271
 11
17.980756397
 21
54.1
  0
LINE
  5
42C
100
AcDbEntity
  8
RACCORDO
100
AcDbLine
 62
250
  6
CONTINUOUS
 10
17.6838422927
 20
54.9
 11
17.7057509497
 21
60.5827356536
  0
LINE
  5
42D
100
AcDbEntity
  8
RACCORDO
100
AcDbLine
 62
250
  6
CONTINUOUS
 10
17.9835011739
 20
54.9
 11
18.0053789749
 21
60.5678169178
  0
LINE
  5
42E
100
AcDbEntity
  8
RACCORDO
100
AcDbLine
 62
250
  6
CONTINUOUS
 10
17.7057509497
 20
60.5827356536
 11
17.7319130853
 21
66.2589150801
  0
LINE
  5
42F
100
AcDbEntity
  8
RACCORDO
100
AcDbLine
 62
250
  6
CONTINUOUS
 10
18.0053789749
 20
60.5678169178
 11
18.0315027638
 21
66.2304752295
  0
LINE
  5
430
100
AcDbEntity
  8
0
100
AcDbLine
 62
7
  6
CONTINUOUS
 10
-4.739071
 20
-64.34854
 11
-4.561487
 21
-63.85364
  0
LINE
  5
431
100
AcDbEntity
  8
0
100
AcDbLine
 62
7
  6
CONTINUOUS
 10
-4.490481
 20
-63.650016
 11
-4.215822
 21
-62.89511
  0
LINE
  5
432
100
AcDbEntity
  8
0
100
AcDbLine
 62
7
  6
CONTINUOUS
 10
-4.97585
 20
-64.34854
 11
-4.336521
 21
-62.64854
  0
LINE
  5
433
100
AcDbEntity
  8
RACCORDO
100
AcDbLine
 62
7
  6
CONTINUOUS
 10
18.3
 20
17.6
 11
16.75
 21
17.6
  0
LINE
  5
434
100
AcDbEntity
  8
0
100
AcDbLine
 62
7
  6
CONTINUOUS
 10
14.0
 20
17.6
 11
16.75
 21
17.6
  0
LINE
  5
435
100
AcDbEntity
  8
0
100
AcDbLine
 62
7
  6
CONTINUOUS
 10
-14.0
 20
17.6
 11
-16.75
 21
17.6
  0
LINE
  5
436
100
AcDbEntity
  8
RACCORDO
100
AcDbLine
 62
7
  6
CONTINUOUS
 10
-16.75
 20
17.6
 11
-18.3
 21
17.6
  0
LINE
  5
437
100
AcDbEntity
  8
RACCORDO
100
AcDbLine
 62
7
  6
CONTINUOUS
 10
-18.3
 20
18.4
 11
-16.75
 21
18.4
  0
LINE
  5
438
100
AcDbEntity
  8
0
100
AcDbLine
 62
7
  6
CONTINUOUS
 10
14.0
 20
18.4
 11
16.75
 21
18.4
  0
LINE
  5
439
100
AcDbEntity
  8
0
100
AcDbLine
 62
7
  6
CONTINUOUS
 10
-14.0
 20
18.4
 11
-16.75
 21
18.4
  0
LINE
  5
43A
100
AcDbEntity
  8
RACCORDO
100
AcDbLine
 62
7
  6
CONTINUOUS
 10
16.75
 20
18.4
 11
18.3
 21
18.4
  0
LWPOLYLINE
  5
43B
100
AcDbEntity
  8
0
100
AcDbPolyline
 62
7
  6
CONTINUOUS
 90
8
 70
0
 10
1.0950045859
 20
53.9538289065
 10
1.1097560634
 20
53.9110345029
 10
1.1310848457
 20
53.8695418215
 10
1.1586935789
 20
53.8303648994
 10
1.1916902012
 20
53.7965460584
 10
1.2308580167
 20
53.7686810703
 10
1.2754137214
 20
53.7461719112
 10
1.3221153408
 20
53.7302695278
  0
LINE
  5
43C
100
AcDbEntity
  8
RACCORDO
100
AcDbLine
 62
7
  6
CONTINUOUS
 10
20.0
 20
67.3016445583
 11
20.0
 21
-67.3016445583
  0
LWPOLYLINE
  5
43D
100
AcDbEntity
  8
RACCORDO
100
AcDbPolyline
 62
250
  6
CONTINUOUS
 90
10
 70
0
 10
18.031502559
 20
-66.2304750235
 10
18.0268240273
 20
-66.2824072421
 10
18.0132161046
 20
-66.3327670401
 10
17.9910908162
 20
-66.3800296071
 10
17.9611180787
 20
-66.4227639117
 10
17.9242054164
 20
-66.4596760308
 10
17.8814704829
 20
-66.4896483273
 10
17.8342072204
 20
-66.5117732901
 10
17.7838466814
 20
-66.5253810125
 10
17.7319136986
 20
-66.5300594754
  0
LINE
  5
43E
100
AcDbEntity
  8
0
100
AcDbLine
 62
7
  6
CONTINUOUS
 10
4.277309
 20
-55.35
 11
4.454926
 21
-54.855192
  0
LINE
  5
43F
100
AcDbEntity
  8
0
100
AcDbLine
 62
7
  6
CONTINUOUS
 10
4.525964
 20
-54.651577
 11
4.800687
 21
-53.896583
  0
LINE
  5
440
100
AcDbEntity
  8
0
100
AcDbLine
 62
7
  6
CONTINUOUS
 10
4.040574
 20
-55.35
 11
4.679906
 21
-53.65
  0
LINE
  5
441
100
AcDbEntity
  8
0
100
AcDbLine
 62
7
  6
CONTINUOUS
 10
2.990888
 20
56.529256
 11
3.192936
 21
55.899928
  0
LINE
  5
442
100
AcDbEntity
  8
0
100
AcDbLine
 62
7
  6
CONTINUOUS
 10
2.485472
 20
58.103392
 11
2.795656
 21
57.13728
  0
LINE
  5
443
100
AcDbEntity
  8
0
100
AcDbLine
 62
7
  6
CONTINUOUS
 10
2.805504
 20
59.100072
 11
3.832968
 21
55.89992
  0
LINE
  5
444
100
AcDbEntity
  8
RACCORDO
100
AcDbLine
 62
250
  6
CONTINUOUS
 10
14.0
 20
28.5
 11
17.9375634796
 21
28.5
  0
LINE
  5
445
100
AcDbEntity
  8
RACCORDO
100
AcDbLine
 62
250
  6
CONTINUOUS
 10
-14.0
 20
28.5
 11
-17.9375634796
 21
28.5
  0
LWPOLYLINE
  5
446
100
AcDbEntity
  8
0
100
AcDbPolyline
 62
7
  6
CONTINUOUS
 90
5
 70
0
 10
-1.2038761756
 20
54.328710314
 10
-1.1642395528
 20
54.2627302723
 10
-1.1343094667
 20
54.1965036439
 10
-1.1136699022
 20
54.1277418333
 10
-1.1023208595
 20
54.0564460113
  0
LWPOLYLINE
  5
447
100
AcDbEntity
  8
0
100
AcDbPolyline
 62
7
  6
CONTINUOUS
 90
7
 70
0
 10
1.775871192
 20
53.3026907434
 10
1.748318434
 20
53.3489343879
 10
1.7154225809
 20
53.3899887709
 10
1.6766644205
 20
53.4251557039
 10
1.632563165
 20
53.4551305573
 10
1.585323124
 20
53.4792240436
 10
1.5348024093
 20
53.4973994186
  0
LWPOLYLINE
  5
448
100
AcDbEntity
  8
0
100
AcDbPolyline
 62
7
  6
CONTINUOUS
 90
9
 70
0
 10
1.9920424281
 20
53.4126718357
 10
2.0313877294
 20
53.3449966853
 10
2.0585340729
 20
53.2699312621
 10
2.0750964238
 20
53.1883765091
 10
2.0800874507
 20
53.1056911939
 10
2.0728576827
 20
53.0217702496
 10
2.0540565906
 20
52.9367202552
 10
2.0246452559
 20
52.8562111968
 10
1.984351712
 20
52.7805320763
  0
LWPOLYLINE
  5
449
100
AcDbEntity
  8
0
100
AcDbPolyline
 62
7
  6
CONTINUOUS
 90
10
 70
0
 10
0.8487033011
 20
52.7669369069
 10
0.8088558509
 20
52.8361113957
 10
0.7788528642
 20
52.9087594549
 10
0.7589522902
 20
52.9855180093
 10
0.7488961798
 20
53.0657538546
 10
0.7483792377
 20
53.1449194295
 10
0.7571237076
 20
53.2233143966
 10
0.7754073458
 20
53.3006378944
 10
0.8037581253
 20
53.3714362426
 10
0.8442909488
 20
53.4347735972
  0
LWPOLYLINE
  5
44A
100
AcDbEntity
  8
0
100
AcDbPolyline
 62
7
  6
CONTINUOUS
 90
11
 70
0
 10
1.9085457384
 20
54.3194639642
 10
1.9460022628
 20
54.2540046925
 10
1.9736996653
 20
54.1833530673
 10
1.9910093813
 20
54.1122431474
 10
1.9979524467
 20
54.0408182499
 10
1.9945078256
 20
53.9689355426
 10
1.9799838449
 20
53.9008957496
 10
1.9525973375
 20
53.8365612103
 10
1.9141314707
 20
53.7760663782
 10
1.8692440728
 20
53.7241164262
 10
1.8194877536
 20
53.6822771888
  0
LINE
  5
44B
100
AcDbEntity
  8
RACCORDO
100
AcDbLine
 62
250
  6
CONTINUOUS
 10
-18.0315027584
 20
-66.230475224
 11
-18.3
 21
-66.5004111278
  0
LINE
  5
44C
100
AcDbEntity
  8
RACCORDO
100
AcDbLine
 62
250
  6
CONTINUOUS
 10
-18.3
 20
66.5004111278
 11
-18.0315027638
 21
66.2304752295
  0
LINE
  5
44D
100
AcDbEntity
  8
0
100
AcDbLine
 62
7
  6
CONTINUOUS
 10
5.458352
 20
57.13728
 11
6.099736
 21
55.899928
  0
LINE
  5
44E
100
AcDbEntity
  8
0
100
AcDbLine
 62
7
  6
CONTINUOUS
 10
6.1393507907
 20
57.2142503331
 11
6.820624
 21
55.899936
  0
LINE
  5
44F
100
AcDbEntity
  8
0
100
AcDbLine
 62
7
  6
CONTINUOUS
 10
7.691704
 20
-54.466935
 11
8.179362
 21
-53.65
  0
LINE
  5
450
100
AcDbEntity
  8
0
100
AcDbLine
 62
7
  6
CONTINUOUS
 10
7.807603
 20
-54.665738
 11
8.449383
 21
-53.65
  0
LWPOLYLINE
  5
451
100
AcDbEntity
  8
0
100
AcDbPolyline
 62
7
  6
CONTINUOUS
 90
4
 70
0
 10
-5.2125717871
 20
-63.4520703454
 10
-5.2548157885
 20
-63.5002178342
 10
-5.3036503398
 20
-63.5397917738
 10
-5.3589037808
 20
-63.5720471012
  0
LINE
  5
452
100
AcDbEntity
  8
RACCORDO
100
AcDbLine
 62
250
  6
CONTINUOUS
 10
-17.7319136986
 20
-66.5300594754
 11
-18.0004155364
 21
-66.8
  0
LINE
  5
453
100
AcDbEntity
  8
RACCORDO
100
AcDbLine
 62
250
  6
CONTINUOUS
 10
-18.0004155364
 20
66.8
 11
-17.7319136986
 21
66.5300594754
  0
LWPOLYLINE
  5
454
100
AcDbEntity
  8
0
100
AcDbPolyline
 62
7
  6
CONTINUOUS
 90
11
 70
0
 10
0.969931858
 20
53.7164082766
 10
0.9243744371
 20
53.7647377485
 10
0.8842220188
 20
53.8212843344
 10
0.8545306327
 20
53.8825329777
 10
0.8370443651
 20
53.9487837432
 10
0.8300191298
 20
54.0197405073
 10
0.8332786972
 20
54.0909908051
 10
0.8468867762
 20
54.1627720896
 10
0.870779658
 20
54.2348471452
 10
0.9045899871
 20
54.3020871359
 10
0.9494428759
 20
54.3643971132
  0
LWPOLYLINE
  5
455
100
AcDbEntity
  8
0
100
AcDbPolyline
 62
7
  6
CONTINUOUS
 90
4
 70
0
 10
0.7087704948
 20
-63.4520703454
 10
0.6665264934
 20
-63.5002178342
 10
0.6176919421
 20
-63.5397917738
 10
0.5624385011
 20
-63.5720471012
  0
LWPOLYLINE
  5
456
100
AcDbEntity
  8
0
100
AcDbPolyline
 62
7
  6
CONTINUOUS
 90
5
 70
0
 10
-3.891538442
 20
-55.2899078545
 10
-3.9587316869
 20
-55.3156596943
 10
-4.0308142344
 20
-55.3339895897
 10
-4.1078430993
 20
-55.3454365145
 10
-4.1898182814
 20
-55.35
  0
LWPOLYLINE
  5
457
100
AcDbEntity
  8
0
100
AcDbPolyline
 62
7
  6
CONTINUOUS
 90
8
 70
0
 10
1.4718537135
 20
53.7234492462
 10
1.5205753683
 20
53.7343950217
 10
1.5680894227
 20
53.7518897159
 10
1.610723682
 20
53.7755666259
 10
1.6477582427
 20
53.8063053175
 10
1.6799130083
 20
53.8432285467
 10
1.705675495
 20
53.8833340055
 10
1.7245415415
 20
53.9256211644
  0
LWPOLYLINE
  5
458
100
AcDbEntity
  8
0
100
AcDbPolyline
 62
7
  6
CONTINUOUS
 90
8
 70
0
 10
1.372133871
 20
53.5148936122
 10
1.3167843329
 20
53.507802928
 10
1.2640467696
 20
53.4936344148
 10
1.2140099779
 20
53.4717406327
 10
1.1665851608
 20
53.4427707945
 10
1.1246267133
 20
53.4080570187
 10
1.0887554447
 20
53.366998319
 10
1.0583505457
 20
53.3201987468
  0
LINE
  5
459
100
AcDbEntity
  8
0
100
AcDbLine
 62
7
  6
CONTINUOUS
 10
-14.0
 20
51.0
 11
14.0
 21
51.0
  0
LINE
  5
45A
100
AcDbEntity
  8
0
100
AcDbLine
 62
7
  6
CONTINUOUS
 10
14.0
 20
51.4081286337
 11
-14.0
 21
51.4081286337
  0
LINE
  5
45B
100
AcDbEntity
  8
0
100
AcDbLine
 62
7
  6
CONTINUOUS
 10
-13.2
 20
51.8
 11
13.2
 21
51.8
  0
LINE
  5
45C
100
AcDbEntity
  8
0
100
AcDbLine
 62
7
  6
CONTINUOUS
 10
-3.283326
 20
52.526066
 11
-3.034391
 21
52.526066
  0
LINE
  5
45D
100
AcDbEntity
  8
0
100
AcDbLine
 62
7
  6
CONTINUOUS
 10
-0.5252457102
 20
52.526066
 11
-0.2706536923
 21
52.526066
  0
LINE
  5
45E
100
AcDbEntity
  8
0
100
AcDbLine
 62
7
  6
CONTINUOUS
 10
2.6203798898
 20
52.526066
 11
2.8749719077
 21
52.526066
  0
LWPOLYLINE
  5
45F
100
AcDbEntity
  8
0
100
AcDbPolyline
 62
7
  6
CONTINUOUS
 90
3
 70
0
 10
1.5348024093
 20
53.4973994186
 10
1.4811429091
 20
53.5096917445
 10
1.4269745977
 20
53.5155196095
  0
LWPOLYLINE
  5
460
100
AcDbEntity
  8
0
100
AcDbPolyline
 62
7
  6
CONTINUOUS
 90
6
 70
0
 10
1.7007105222
 20
53.6242146596
 10
1.7677028058
 20
53.6006042175
 10
1.829943323
 20
53.5678201528
 10
1.887432074
 20
53.5258644833
 10
1.9421131342
 20
53.4738509574
 10
1.9920424281
 20
53.4126718357
  0
LWPOLYLINE
  5
461
100
AcDbEntity
  8
0
100
AcDbPolyline
 62
7
  6
CONTINUOUS
 90
6
 70
0
 10
1.1862439775
 20
52.52372033
 10
1.1013836629
 20
52.5539753411
 10
1.025541458
 20
52.5953131688
 10
0.9570461047
 20
52.6465403065
 10
0.8979266627
 20
52.7038746769
 10
0.8487033011
 20
52.7669369069
  0
LWPOLYLINE
  5
462
100
AcDbEntity
  8
0
100
AcDbPolyline
 62
7
  6
CONTINUOUS
 90
4
 70
0
 10
1.1339781074
 20
53.6242146596
 10
1.0738910216
 20
53.6467348223
 10
1.0192089385
 20
53.6774654695
 10
0.969931858
 20
53.7164082766
  0
LWPOLYLINE
  5
463
100
AcDbEntity
  8
0
100
AcDbPolyline
 62
7
  6
CONTINUOUS
 90
5
 70
0
 10
1.6690884286
 20
54.5136092266
 10
1.7382499987
 20
54.4799310561
 10
1.8019807126
 20
54.4346404513
 10
1.8601427864
 20
54.379650513
 10
1.9085457384
 20
54.3194639642
  0
LWPOLYLINE
  5
464
100
AcDbEntity
  8
RACCORDO
100
AcDbPolyline
 62
7
  6
CONTINUOUS
 90
3
 70
0
 10
14.2086691531
 20
-66.3485162705
 10
14.2691336472
 20
-66.2888606436
 10
14.3
 20
-66.2589150801
  0
LINE
  5
465
100
AcDbEntity
  8
0
100
AcDbLine
 62
7
  6
CONTINUOUS
 10
-3.5
 20
-68.3951844414
 11
-3.6749773271
 21
-68.5
  0
LWPOLYLINE
  5
466
100
AcDbEntity
  8
0
100
AcDbPolyline
 62
7
  6
CONTINUOUS
 90
5
 70
0
 10
-5.3589037808
 20
-63.5720471012
 10
-5.4183737993
 20
-63.5972757311
 10
-5.4813262914
 20
-63.6155747139
 10
-5.548495361
 20
-63.6268462052
 10
-5.6198810083
 20
-63.63109
  0
LINE
  5
467
100
AcDbEntity
  8
0
100
AcDbLine
 62
7
  6
CONTINUOUS
 10
-1.3484265582
 20
54.0366450355
 11
-1.1023208595
 21
54.0564460113
  0
LINE
  5
468
100
AcDbEntity
  8
0
100
AcDbLine
 62
7
  6
CONTINUOUS
 10
1.4269745977
 20
53.5155196095
 11
1.372133871
 21
53.5148936122
  0
LINE
  5
469
100
AcDbEntity
  8
RACCORDO
100
AcDbLine
 62
7
  6
CONTINUOUS
 10
18.3
 20
54.1
 11
16.75
 21
54.1
  0
LINE
  5
46A
100
AcDbEntity
  8
0
100
AcDbLine
 62
7
  6
CONTINUOUS
 10
14.0
 20
54.1
 11
16.75
 21
54.1
  0
LINE
  5
46B
100
AcDbEntity
  8
0
100
AcDbLine
 62
7
  6
CONTINUOUS
 10
-14.0
 20
54.1
 11
-16.75
 21
54.1
  0
LINE
  5
46C
100
AcDbEntity
  8
RACCORDO
100
AcDbLine
 62
7
  6
CONTINUOUS
 10
-16.75
 20
54.1
 11
-18.3
 21
54.1
  0
LINE
  5
46D
100
AcDbEntity
  8
0
100
AcDbLine
 62
7
  6
CONTINUOUS
 10
-0.808126
 20
54.288408
 11
0.1819542393
 21
54.288408
  0
LINE
  5
46E
100
AcDbEntity
  8
0
100
AcDbLine
 62
7
  6
CONTINUOUS
 10
2.3375
 20
54.288408
 11
3.3275798393
 21
54.288408
  0
LINE
  5
46F
100
AcDbEntity
  8
0
100
AcDbLine
 62
7
  6
CONTINUOUS
 10
-0.808126
 20
54.526027
 11
0.501609
 21
54.526027
  0
LINE
  5
470
100
AcDbEntity
  8
0
100
AcDbLine
 62
7
  6
CONTINUOUS
 10
2.3375
 20
54.526027
 11
3.647234
 21
54.526027
  0
LINE
  5
471
100
AcDbEntity
  8
0
100
AcDbLine
 62
7
  6
CONTINUOUS
 10
-3.1948372302
 20
54.559973
 11
-3.034391
 21
54.559973
  0
LINE
  5
472
100
AcDbEntity
  8
RACCORDO
100
AcDbLine
 62
7
  6
CONTINUOUS
 10
-18.3
 20
54.9
 11
-16.75
 21
54.9
  0
LINE
  5
473
100
AcDbEntity
  8
0
100
AcDbLine
 62
7
  6
CONTINUOUS
 10
14.0
 20
54.9
 11
16.75
 21
54.9
  0
LINE
  5
474
100
AcDbEntity
  8
0
100
AcDbLine
 62
7
  6
CONTINUOUS
 10
-14.0
 20
54.9
 11
-16.75
 21
54.9
  0
LINE
  5
475
100
AcDbEntity
  8
RACCORDO
100
AcDbLine
 62
7
  6
CONTINUOUS
 10
16.75
 20
54.9
 11
18.3
 21
54.9
  0
LINE
  5
476
100
AcDbEntity
  8
0
100
AcDbLine
 62
7
  6
CONTINUOUS
 10
6.820624
 20
55.899936
 11
6.099736
 21
55.899928
  0
LINE
  5
477
100
AcDbEntity
  8
0
100
AcDbLine
 62
7
  6
CONTINUOUS
 10
1.778024
 20
55.899928
 11
1.138
 21
55.89992
  0
LINE
  5
478
100
AcDbEntity
  8
0
100
AcDbLine
 62
7
  6
CONTINUOUS
 10
0.71132
 20
55.89992
 11
0.071296
 21
55.89992
  0
LINE
  5
479
100
AcDbEntity
  8
0
100
AcDbLine
 62
7
  6
CONTINUOUS
 10
-1.778928
 20
55.89992
 11
-2.418952
 21
55.89992
  0
LINE
  5
47A
100
AcDbEntity
  8
0
100
AcDbLine
 62
7
  6
CONTINUOUS
 10
4.89968
 20
55.899928
 11
4.259648
 21
55.899928
  0
LINE
  5
47B
100
AcDbEntity
  8
0
100
AcDbLine
 62
7
  6
CONTINUOUS
 10
-0.533816
 20
55.899928
 11
-1.173824
 21
55.89992
  0
LINE
  5
47C
100
AcDbEntity
  8
0
100
AcDbLine
 62
7
  6
CONTINUOUS
 10
-3.05896
 20
55.89992
 11
-3.698984
 21
55.899912
  0
LINE
  5
47D
100
AcDbEntity
  8
0
100
AcDbLine
 62
7
  6
CONTINUOUS
 10
3.832968
 20
55.89992
 11
3.192936
 21
55.899928
  0
LINE
  5
47E
100
AcDbEntity
  8
0
100
AcDbLine
 62
7
  6
CONTINUOUS
 10
-5.15312
 20
55.89992
 11
-5.793168
 21
55.899912
  0
LINE
  5
47F
100
AcDbEntity
  8
0
100
AcDbLine
 62
7
  6
CONTINUOUS
 10
2.990888
 20
56.529256
 11
1.98008
 21
56.529256
  0
LINE
  5
480
100
AcDbEntity
  8
0
100
AcDbLine
 62
7
  6
CONTINUOUS
 10
2.795656
 20
57.13728
 11
2.175304
 21
57.13728
  0
LINE
  5
481
100
AcDbEntity
  8
0
100
AcDbLine
 62
7
  6
CONTINUOUS
 10
5.458352
 20
57.13728
 11
4.899752
 21
57.137288
  0
LWPOLYLINE
  5
482
100
AcDbEntity
  8
0
100
AcDbPolyline
 62
7
  6
CONTINUOUS
 90
3
 70
0
 10
1.3710000553
 20
53.7214095701
 10
1.4220306846
 20
53.7191552812
 10
1.4718537135
 20
53.7234492462
  0
LINE
  5
483
100
AcDbEntity
  8
0
100
AcDbLine
 62
7
  6
CONTINUOUS
 10
1.3221153408
 20
53.7302695278
 11
1.3710000553
 21
53.7214095701
  0
LINE
  5
484
100
AcDbEntity
  8
0
100
AcDbLine
 62
7
  6
CONTINUOUS
 10
-3.5
 20
68.3951844414
 11
-3.6749773271
 21
68.5
  0
LWPOLYLINE
  5
485
100
AcDbEntity
  8
RACCORDO
100
AcDbPolyline
 62
7
  6
CONTINUOUS
 90
3
 70
0
 10
14.178701033
 20
66.3773319678
 10
14.2086691531
 20
66.3485162705
 10
14.2691336472
 20
66.2888606436
  0
LINE
  5
486
100
AcDbEntity
  8
RACCORDO
100
AcDbLine
 62
7
  6
CONTINUOUS
 10
14.2691336472
 20
66.2888606436
 11
14.3
 21
66.2589150801
  0
LWPOLYLINE
  5
487
100
AcDbEntity
  8
RACCORDO
100
AcDbPolyline
 62
7
  6
CONTINUOUS
 90
3
 70
0
 10
14.1211429409
 20
-66.4314095268
 10
14.178701033
 20
-66.3773319678
 10
14.2086691531
 20
-66.3485162705
  0
LWPOLYLINE
  5
488
100
AcDbEntity
  8
RACCORDO
100
AcDbPolyline
 62
7
  6
CONTINUOUS
 90
3
 70
0
 10
14.069284765
 20
-66.4779040116
 10
14.0944475161
 20
-66.4558650433
 10
14.1211429409
 20
-66.4314095268
  0
LWPOLYLINE
  5
489
100
AcDbEntity
  8
0
100
AcDbPolyline
 62
7
  6
CONTINUOUS
 90
5
 70
0
 10
0.5624385011
 20
-63.5720471012
 10
0.5029684826
 20
-63.5972757311
 10
0.4400159905
 20
-63.6155747139
 10
0.3728469208
 20
-63.6268462052
 10
0.3014612736
 20
-63.63109
  0
LWPOLYLINE
  5
48A
100
AcDbEntity
  8
0
100
AcDbPolyline
 62
7
  6
CONTINUOUS
 90
5
 70
0
 10
5.3676844512
 20
-64.2912972489
 10
5.3005697271
 20
-64.3154803248
 10
5.2308321381
 20
-64.3329646042
 10
5.1578861056
 20
-64.3439845502
 10
5.0817316295
 20
-64.3485399983
  0
LINE
  5
48B
100
AcDbEntity
  8
0
100
AcDbLine
 62
7
  6
CONTINUOUS
 10
5.669534
 20
57.729312
 11
4.890856
 21
57.729312
  0
LINE
  5
48C
100
AcDbEntity
  8
0
100
AcDbLine
 62
7
  6
CONTINUOUS
 10
5.669534
 20
58.508048
 11
4.890848
 21
58.508048
  0
LINE
  5
48D
100
AcDbEntity
  8
0
100
AcDbLine
 62
7
  6
CONTINUOUS
 10
0.71132
 20
59.100064
 11
-0.256224
 21
59.100064
  0
LINE
  5
48E
100
AcDbEntity
  8
0
100
AcDbLine
 62
7
  6
CONTINUOUS
 10
-1.451408
 20
59.100064
 11
-2.418952
 21
59.100064
  0
LINE
  5
48F
100
AcDbEntity
  8
0
100
AcDbLine
 62
7
  6
CONTINUOUS
 10
-3.058952
 20
59.100064
 11
-3.698976
 21
59.100064
  0
LINE
  5
490
100
AcDbEntity
  8
0
100
AcDbLine
 62
7
  6
CONTINUOUS
 10
-4.125656
 20
59.100064
 11
-4.765688
 21
59.100064
  0
LINE
  5
491
100
AcDbEntity
  8
0
100
AcDbLine
 62
7
  6
CONTINUOUS
 10
-6.180592
 20
59.100064
 11
-6.820624
 21
59.100064
  0
LINE
  5
492
100
AcDbEntity
  8
0
100
AcDbLine
 62
7
  6
CONTINUOUS
 10
5.758368
 20
59.100072
 11
4.259648
 21
59.100072
  0
LINE
  5
493
100
AcDbEntity
  8
0
100
AcDbLine
 62
7
  6
CONTINUOUS
 10
2.805504
 20
59.100072
 11
2.165448
 21
59.100072
  0
LINE
  5
494
100
AcDbEntity
  8
0
100
AcDbLine
 62
7
  6
CONTINUOUS
 10
-5.042745
 20
60.248026
 11
-4.085646
 21
60.248026
  0
LINE
  5
495
100
AcDbEntity
  8
0
100
AcDbLine
 62
7
  6
CONTINUOUS
 10
-2.9729022095
 20
60.248026
 11
-1.220604
 21
60.248026
  0
LINE
  5
496
100
AcDbEntity
  8
0
100
AcDbLine
 62
7
  6
CONTINUOUS
 10
-0.1954225841
 20
60.248026
 11
1.295365
 21
60.248026
  0
LINE
  5
497
100
AcDbEntity
  8
0
100
AcDbLine
 62
7
  6
CONTINUOUS
 10
2.6535
 20
60.248026
 11
4.40242
 21
60.248026
  0
LINE
  5
498
100
AcDbEntity
  8
0
100
AcDbLine
 62
7
  6
CONTINUOUS
 10
-14.0
 20
61.9
 11
-13.2
 21
61.9
  0
LINE
  5
499
100
AcDbEntity
  8
0
100
AcDbLine
 62
7
  6
CONTINUOUS
 10
13.2
 20
61.9
 11
14.0
 21
61.9
  0
LWPOLYLINE
  5
49A
100
AcDbEntity
  8
RACCORDO
100
AcDbPolyline
 62
7
  6
CONTINUOUS
 90
4
 70
0
 10
14.0294109621
 20
66.5132415345
 10
14.069284765
 20
66.4779040116
 10
14.0944475161
 20
66.4558650433
 10
14.1211429409
 20
66.4314095268
  0
LINE
  5
49B
100
AcDbEntity
  8
RACCORDO
100
AcDbLine
 62
7
  6
CONTINUOUS
 10
14.1211429409
 20
66.4314095268
 11
14.178701033
 21
66.3773319678
  0
LWPOLYLINE
  5
49C
100
AcDbEntity
  8
RACCORDO
100
AcDbPolyline
 62
7
  6
CONTINUOUS
 90
4
 70
0
 10
14.0032776358
 20
-66.5300594754
 10
14.0146999104
 20
-66.5244987483
 10
14.0294109621
 20
-66.5132415345
 10
14.069284765
 20
-66.4779040116
  0
LINE
  5
49D
100
AcDbEntity
  8
0
100
AcDbLine
 62
7
  6
CONTINUOUS
 10
-2.120059859
 20
63.246933
 11
-1.361167
 21
63.246933
  0
LINE
  5
49E
100
AcDbEntity
  8
0
100
AcDbLine
 62
7
  6
CONTINUOUS
 10
0.505251145
 20
63.246933
 11
1.684009
 21
63.246933
  0
LINE
  5
49F
100
AcDbEntity
  8
0
100
AcDbLine
 62
7
  6
CONTINUOUS
 10
3.254095
 20
63.246933
 11
4.6389980482
 21
63.246933
  0
LINE
  5
4A0
100
AcDbEntity
  8
0
100
AcDbLine
 62
7
  6
CONTINUOUS
 10
8.5
 20
64.5
 11
9.5
 21
64.5
  0
LINE
  5
4A1
100
AcDbEntity
  8
0
100
AcDbLine
 62
7
  6
CONTINUOUS
 10
-8.5
 20
64.5
 11
-9.5
 21
64.5
  0
LINE
  5
4A2
100
AcDbEntity
  8
0
100
AcDbLine
 62
7
  6
CONTINUOUS
 10
10.7
 20
64.5
 11
11.7
 21
64.5
  0
LINE
  5
4A3
100
AcDbEntity
  8
0
100
AcDbLine
 62
7
  6
CONTINUOUS
 10
-10.7
 20
64.5
 11
-11.7
 21
64.5
  0
LINE
  5
4A4
100
AcDbEntity
  8
RACCORDO
100
AcDbLine
 62
7
  6
CONTINUOUS
 10
3.5
 20
65.2
 11
4.5
 21
65.2
  0
LINE
  5
4A5
100
AcDbEntity
  8
RACCORDO
100
AcDbLine
 62
7
  6
CONTINUOUS
 10
-3.5
 20
65.2
 11
-4.5
 21
65.2
  0
LINE
  5
4A6
100
AcDbEntity
  8
0
100
AcDbLine
 62
7
  6
CONTINUOUS
 10
8.5
 20
65.3
 11
9.5
 21
65.3
  0
LINE
  5
4A7
100
AcDbEntity
  8
0
100
AcDbLine
 62
7
  6
CONTINUOUS
 10
-8.5
 20
65.3
 11
-9.5
 21
65.3
  0
LINE
  5
4A8
100
AcDbEntity
  8
0
100
AcDbLine
 62
7
  6
CONTINUOUS
 10
10.7
 20
65.3
 11
11.7
 21
65.3
  0
LINE
  5
4A9
100
AcDbEntity
  8
0
100
AcDbLine
 62
7
  6
CONTINUOUS
 10
-10.7
 20
65.3
 11
-11.7
 21
65.3
  0
LINE
  5
4AA
100
AcDbEntity
  8
0
100
AcDbLine
 62
7
  6
CONTINUOUS
 10
10.7
 20
66.0
 11
9.5
 21
66.0
  0
LINE
  5
4AB
100
AcDbEntity
  8
RACCORDO
100
AcDbLine
 62
250
  6
CONTINUOUS
 10
-4.5
 20
66.0
 11
-3.6749773271
 21
66.0
  0
LINE
  5
4AC
100
AcDbEntity
  8
RACCORDO
100
AcDbLine
 62
250
  6
CONTINUOUS
 10
3.6749773271
 20
66.0
 11
4.5
 21
66.0
  0
LINE
  5
4AD
100
AcDbEntity
  8
0
100
AcDbLine
 62
7
  6
CONTINUOUS
 10
-9.5
 20
66.0
 11
-10.7
 21
66.0
  0
LINE
  5
4AE
100
AcDbEntity
  8
RACCORDO
100
AcDbLine
 62
250
  6
CONTINUOUS
 10
13.2
 20
66.2226169751
 11
11.7
 21
66.2226169751
  0
LINE
  5
4AF
100
AcDbEntity
  8
RACCORDO
100
AcDbLine
 62
250
  6
CONTINUOUS
 10
8.5
 20
66.2226169751
 11
4.5
 21
66.2226169751
  0
LINE
  5
4B0
100
AcDbEntity
  8
RACCORDO
100
AcDbLine
 62
250
  6
CONTINUOUS
 10
3.5
 20
66.2226169751
 11
-3.5
 21
66.2226169751
  0
LINE
  5
4B1
100
AcDbEntity
  8
RACCORDO
100
AcDbLine
 62
250
  6
CONTINUOUS
 10
-4.5
 20
66.2226169751
 11
-8.5
 21
66.2226169751
  0
LINE
  5
4B2
100
AcDbEntity
  8
RACCORDO
100
AcDbLine
 62
250
  6
CONTINUOUS
 10
-11.7
 20
66.2226169751
 11
-13.2
 21
66.2226169751
  0
LINE
  5
4B3
100
AcDbEntity
  8
RACCORDO
100
AcDbLine
 62
250
  6
CONTINUOUS
 10
-14.3
 20
66.2589150801
 11
-17.7319130853
 21
66.2589150801
  0
LINE
  5
4B4
100
AcDbEntity
  8
RACCORDO
100
AcDbLine
 62
250
  6
CONTINUOUS
 10
17.7319136986
 20
66.5300594754
 11
14.0032776358
 21
66.5300594754
  0
LINE
  5
4B5
100
AcDbEntity
  8
RACCORDO
100
AcDbLine
 62
250
  6
CONTINUOUS
 10
-14.0032776358
 20
66.5300594754
 11
-17.7319136986
 21
66.5300594754
  0
LINE
  5
4B6
100
AcDbEntity
  8
RACCORDO
100
AcDbLine
 62
250
  6
CONTINUOUS
 10
13.2
 20
66.5359670268
 11
11.7
 21
66.5359670268
  0
LINE
  5
4B7
100
AcDbEntity
  8
RACCORDO
100
AcDbLine
 62
250
  6
CONTINUOUS
 10
8.5
 20
66.5359670268
 11
4.5
 21
66.5359670268
  0
LINE
  5
4B8
100
AcDbEntity
  8
RACCORDO
100
AcDbLine
 62
250
  6
CONTINUOUS
 10
3.5
 20
66.5359670268
 11
-3.5
 21
66.5359670268
  0
LINE
  5
4B9
100
AcDbEntity
  8
RACCORDO
100
AcDbLine
 62
250
  6
CONTINUOUS
 10
-4.5
 20
66.5359670268
 11
-8.5
 21
66.5359670268
  0
LINE
  5
4BA
100
AcDbEntity
  8
RACCORDO
100
AcDbLine
 62
250
  6
CONTINUOUS
 10
-11.7
 20
66.5359670268
 11
-13.2
 21
66.5359670268
  0
LINE
  5
4BB
100
AcDbEntity
  8
0
100
AcDbLine
 62
7
  6
CONTINUOUS
 10
-14.0
 20
66.5470947647
 11
-13.2
 21
66.5470947647
  0
LINE
  5
4BC
100
AcDbEntity
  8
0
100
AcDbLine
 62
7
  6
CONTINUOUS
 10
13.2
 20
66.5470947647
 11
14.0
 21
66.5470947647
  0
LINE
  5
4BD
100
AcDbEntity
  8
0
100
AcDbLine
 62
7
  6
CONTINUOUS
 10
3.5
 20
66.6946228186
 11
-3.5
 21
66.6946228186
  0
LINE
  5
4BE
100
AcDbEntity
  8
0
100
AcDbLine
 62
7
  6
CONTINUOUS
 10
9.5
 20
66.7156982549
 11
10.7
 21
66.7156982549
  0
LINE
  5
4BF
100
AcDbEntity
  8
0
100
AcDbLine
 62
7
  6
CONTINUOUS
 10
-9.5
 20
66.7156982549
 11
-10.7
 21
66.7156982549
  0
LINE
  5
4C0
100
AcDbEntity
  8
RACCORDO
100
AcDbLine
 62
7
  6
CONTINUOUS
 10
-18.0004155364
 20
66.8
 11
-11.7
 21
66.8
  0
LINE
  5
4C1
100
AcDbEntity
  8
0
100
AcDbLine
 62
7
  6
CONTINUOUS
 10
-8.5
 20
66.8
 11
-4.5
 21
66.8
  0
LINE
  5
4C2
100
AcDbEntity
  8
0
100
AcDbLine
 62
7
  6
CONTINUOUS
 10
4.5
 20
66.8
 11
8.5
 21
66.8
  0
LINE
  5
4C3
100
AcDbEntity
  8
0
100
AcDbLine
 62
7
  6
CONTINUOUS
 10
9.5
 20
66.8
 11
10.7
 21
66.8
  0
LINE
  5
4C4
100
AcDbEntity
  8
0
100
AcDbLine
 62
7
  6
CONTINUOUS
 10
-9.5
 20
66.8
 11
-10.7
 21
66.8
  0
LINE
  5
4C5
100
AcDbEntity
  8
RACCORDO
100
AcDbLine
 62
7
  6
CONTINUOUS
 10
11.7
 20
66.8
 11
18.0004155364
 21
66.8
  0
LINE
  5
4C6
100
AcDbEntity
  8
0
100
AcDbLine
 62
7
  6
CONTINUOUS
 10
3.5
 20
68.3951844414
 11
-3.5
 21
68.3951844414
  0
LINE
  5
4C7
100
AcDbEntity
  8
RACCORDO
100
AcDbLine
 62
7
  6
CONTINUOUS
 10
-18.8016445583
 20
68.5
 11
-3.6749773271
 21
68.5
  0
LINE
  5
4C8
100
AcDbEntity
  8
RACCORDO
100
AcDbLine
 62
7
  6
CONTINUOUS
 10
3.6749773271
 20
68.5
 11
18.8016445583
 21
68.5
  0
LWPOLYLINE
  5
4C9
100
AcDbEntity
  8
RACCORDO
100
AcDbPolyline
 62
250
  6
CONTINUOUS
 90
3
 70
0
 10
17.8061216239
 20
66.2579240807
 10
17.7697353887
 20
66.2588943761
 10
14.3
 20
66.2589150801
  0
LWPOLYLINE
  5
4CA
100
AcDbEntity
  8
RACCORDO
100
AcDbPolyline
 62
250
  6
CONTINUOUS
 90
10
 70
0
 10
17.7319136986
 20
66.5300594754
 10
17.7838466814
 20
66.5253810125
 10
17.8342072204
 20
66.5117732901
 10
17.8814704829
 20
66.4896483273
 10
17.9242054164
 20
66.4596760308
 10
17.9611180787
 20
66.4227639117
 10
17.9910908162
 20
66.3800296071
 10
18.0132161046
 20
66.3327670401
 10
18.0268240273
 20
66.2824072421
 10
18.031502559
 20
66.2304750235
  0
LWPOLYLINE
  5
4CB
100
AcDbEntity
  8
0
100
AcDbPolyline
 62
7
  6
CONTINUOUS
 90
22
 70
0
 10
4.115504098
 20
62.9382003776
 10
4.0659214133
 20
62.9466970748
 10
4.0176739479
 20
62.9506265664
 10
3.970761702
 20
62.9499888011
 10
3.9247817761
 20
62.9442926802
 10
3.8801370695
 20
62.934029388
 10
3.8380362803
 20
62.9206723449
 10
3.7985721786
 20
62.9047463064
 10
3.7616519942
 20
62.8857267627
 10
3.7282061141
 20
62.8635132415
 10
3.6985483931
 20
62.8379923598
 10
3.6723649765
 20
62.8092779496
 10
3.649644687
 20
62.7776103924
 10
3.6315667325
 20
62.7425666973
 10
3.6169519052
 20
62.7045704678
 10
3.6022514038
 20
62.6651318326
 10
3.588216182
 20
62.623736198
 10
3.574095286
 20
62.5808985618
 10
3.5540870541
 20
62.5396728973
 10
3.5262575987
 20
62.5010769017
 10
3.4925408072
 20
62.4640924257
 10
3.4529366796
 20
62.4287192951
  0
LWPOLYLINE
  5
4CC
100
AcDbEntity
  8
RACCORDO
100
AcDbPolyline
 62
7
  6
CONTINUOUS
 90
3
 70
0
 10
14.0032776358
 20
66.5300594754
 10
14.0146999104
 20
66.5244987483
 10
14.0294109621
 20
66.5132415345
  0
LWPOLYLINE
  5
4CD
100
AcDbEntity
  8
RACCORDO
100
AcDbPolyline
 62
250
  6
CONTINUOUS
 90
10
 70
0
 10
18.031502559
 20
66.2304750235
 10
18.0271612533
 20
66.2331508614
 10
18.0180205295
 20
66.2368468369
 10
18.0041222056
 20
66.2410004921
 10
17.9856096715
 20
66.2445704899
 10
17.9628733439
 20
66.2474197331
 10
17.936537473
 20
66.2503566203
 10
17.9069793009
 20
66.253010156
 10
17.8748567532
 20
66.254771901
 10
17.8061216239
 20
66.2579240807
  0
ARC
  5
4CE
100
AcDbEntity
  8
ASSI
100
AcDbCircle
 62
7
  6
CONTINUOUS
 10
5.81
 20
0.26
 40
2.6237424326
100
AcDbArc
 50
292.0885381954
 51
273.4296794337
  0
ARC
  5
4CF
100
AcDbEntity
  8
IMPORT
100
AcDbCircle
 62
7
  6
CONTINUOUS
 10
3.417556
 20
-59.0
 40
2.5499986575
100
AcDbArc
 50
87.752529198
 51
272.247470802
  0
ARC
  5
4D0
100
AcDbEntity
  8
IMPORT
100
AcDbCircle
 62
7
  6
CONTINUOUS
 10
-0.967554
 20
-59.0
 40
2.5499985399
100
AcDbArc
 50
87.7525290943
 51
272.2474709057
  0
ARC
  5
4D1
100
AcDbEntity
  8
ASSI
100
AcDbCircle
 62
7
  6
CONTINUOUS
 10
5.730643
 20
-4.686093
 40
2.3390187052
100
AcDbArc
 50
47.2312712626
 51
84.2013393862
  0
ARC
  5
4D2
100
AcDbEntity
  8
ASSI
100
AcDbCircle
 62
7
  6
CONTINUOUS
 10
5.914722
 20
-4.307224
 40
2.3109495123
100
AcDbArc
 50
45.4348886633
 51
67.5658629526
  0
CIRCLE
  5
4D3
100
AcDbEntity
  8
ASSI
100
AcDbCircle
 62
7
  6
CONTINUOUS
 10
5.81
 20
0.26
 40
2.20376
  0
ARC
  5
4D4
100
AcDbEntity
  8
ASSI
100
AcDbCircle
 62
7
  6
CONTINUOUS
 10
5.81
 20
0.26
 40
1.9709567246
100
AcDbArc
 50
299.3041457634
 51
44.9957848492
  0
ARC
  5
4D5
100
AcDbEntity
  8
ASSI
100
AcDbCircle
 62
7
  6
CONTINUOUS
 10
5.81
 20
0.26
 40
1.9709563643
100
AcDbArc
 50
134.9002846268
 51
240.6958542366
  0
ARC
  5
4D6
100
AcDbEntity
  8
IMPORT
100
AcDbCircle
 62
7
  6
CONTINUOUS
 10
-0.967554
 20
-59.0
 40
1.7999999246
100
AcDbArc
 50
86.8152613297
 51
273.1847386703
  0
ARC
  5
4D7
100
AcDbEntity
  8
IMPORT
100
AcDbCircle
 62
7
  6
CONTINUOUS
 10
3.417556
 20
-59.0
 40
1.7999999246
100
AcDbArc
 50
86.8152613297
 51
167.9753003079
  0
ARC
  5
4D8
100
AcDbEntity
  8
IMPORT
100
AcDbCircle
 62
7
  6
CONTINUOUS
 10
3.417556
 20
-59.0
 40
1.7999968808
100
AcDbArc
 50
192.0247203293
 51
273.1847440612
  0
ARC
  5
4D9
100
AcDbEntity
  8
ASSI
100
AcDbCircle
 62
7
  6
CONTINUOUS
 10
5.81
 20
0.26
 40
1.5790921275
100
AcDbArc
 50
148.0267086216
 51
240.6958772397
  0
ARC
  5
4DA
100
AcDbEntity
  8
ASSI
100
AcDbCircle
 62
7
  6
CONTINUOUS
 10
5.81
 20
0.26
 40
1.5790919977
100
AcDbArc
 50
299.3041227603
 51
31.9732906835
  0
CIRCLE
  5
4DB
100
AcDbEntity
  8
ASSI
100
AcDbCircle
 62
7
  6
CONTINUOUS
 10
-16.0
 20
-57.5
 40
1.5
  0
CIRCLE
  5
4DC
100
AcDbEntity
  8
ASSI
100
AcDbCircle
 62
7
  6
CONTINUOUS
 10
16.0
 20
57.5
 40
1.5
  0
ARC
  5
4DD
100
AcDbEntity
  8
0
100
AcDbCircle
 62
7
  6
CONTINUOUS
 10
5.758368
 20
58.118679
 40
0.9813965052
100
AcDbArc
 50
292.8428400969
 51
90.0
  0
CIRCLE
  5
4DE
100
AcDbEntity
  8
ASSI
100
AcDbCircle
 62
7
  6
CONTINUOUS
 10
-16.0
 20
-57.5
 40
0.8
  0
CIRCLE
  5
4DF
100
AcDbEntity
  8
ASSI
100
AcDbCircle
 62
7
  6
CONTINUOUS
 10
16.0
 20
57.5
 40
0.8
  0
ARC
  5
4E0
100
AcDbEntity
  8
0
100
AcDbCircle
 62
7
  6
CONTINUOUS
 10
4.419856
 20
62.661491
 40
0.625112448
100
AcDbArc
 50
4.833935567
 51
69.4781717286
  0
ARC
  5
4E1
100
AcDbEntity
  8
0
100
AcDbCircle
 62
7
  6
CONTINUOUS
 10
-0.019954
 20
60.808085
 40
0.58690315
100
AcDbArc
 50
186.0890316407
 51
252.6040306695
  0
ARC
  5
4E2
100
AcDbEntity
  8
0
100
AcDbCircle
 62
7
  6
CONTINUOUS
 10
3.254095
 20
62.674701
 40
0.572706
100
AcDbArc
 50
90.0
 51
165.4447211915
  0
ARC
  5
4E3
100
AcDbEntity
  8
0
100
AcDbCircle
 62
7
  6
CONTINUOUS
 10
1.146389
 20
60.788009
 40
0.5601566646
100
AcDbArc
 50
285.4236573529
 51
341.0062925582
  0
ARC
  5
4E4
100
AcDbEntity
  8
0
100
AcDbCircle
 62
7
  6
CONTINUOUS
 10
-2.848695
 20
60.783827
 40
0.5500092204
100
AcDbArc
 50
171.4768836155
 51
256.94845686
  0
ARC
  5
4E5
100
AcDbEntity
  8
0
100
AcDbCircle
 62
7
  6
CONTINUOUS
 10
1.684009
 20
62.722621
 40
0.5243117521
100
AcDbArc
 50
345.1449724565
 51
90.0
  0
ARC
  5
4E6
100
AcDbEntity
  8
0
100
AcDbCircle
 62
7
  6
CONTINUOUS
 10
2.6535
 20
60.727961
 40
0.4799351165
100
AcDbArc
 50
165.4446276481
 51
270.0
  0
ARC
  5
4E7
100
AcDbEntity
  8
0
100
AcDbCircle
 62
7
  6
CONTINUOUS
 10
-1.620929
 20
62.508145
 40
0.4537141772
100
AcDbArc
 50
69.2439050387
 51
142.7058999487
  0
ARC
  5
4E8
100
AcDbEntity
  8
0
100
AcDbCircle
 62
7
  6
CONTINUOUS
 10
1.208635
 20
62.498822
 40
0.4427965608
100
AcDbArc
 50
73.6974726837
 51
149.6962552618
  0
ARC
  5
4E9
100
AcDbEntity
  8
0
100
AcDbCircle
 62
7
  6
CONTINUOUS
 10
3.564575
 20
60.93814
 40
0.4081793773
100
AcDbArc
 50
176.7577083474
 51
259.744827629
  0
ARC
  5
4EA
100
AcDbEntity
  8
0
100
AcDbCircle
 62
7
  6
CONTINUOUS
 10
5.669534
 20
58.118679
 40
0.389369
100
AcDbArc
 50
270.0
 51
90.0
  0
ARC
  5
4EB
100
AcDbEntity
  8
0
100
AcDbCircle
 62
7
  6
CONTINUOUS
 10
-2.109782
 20
60.927842
 40
0.3651120423
100
AcDbArc
 50
185.7437120815
 51
275.468912122
  0
ELLIPSE
  5
4EC
100
AcDbEntity
  8
RACCORDO
100
AcDbEllipse
 62
7
  6
CONTINUOUS
 10
-18.7983531848
 20
-67.2983531848
 30
0.0
 11
-0.8508554921
 21
-0.8508554921
 31
0.0
 40
0.9972646886
 41
-0.7840286355
 42
0.7840286355
  0
ELLIPSE
  5
4ED
100
AcDbEntity
  8
RACCORDO
100
AcDbEllipse
 62
7
  6
CONTINUOUS
 10
-18.7983531848
 20
67.2983531848
 30
0.0
 11
0.8508554921
 21
-0.8508554921
 31
0.0
 40
0.9972646886
 41
2.3575640181
 42
3.9256212891
  0
ELLIPSE
  5
4EE
100
AcDbEntity
  8
RACCORDO
100
AcDbEllipse
 62
7
  6
CONTINUOUS
 10
18.7983531848
 20
67.2983531848
 30
0.0
 11
0.8508554921
 21
0.8508554921
 31
0.0
 40
0.9972646886
 41
-0.7840286355
 42
0.7840286355
  0
ELLIPSE
  5
4EF
100
AcDbEntity
  8
RACCORDO
100
AcDbEllipse
 62
7
  6
CONTINUOUS
 10
18.7983531848
 20
-67.2983531848
 30
0.0
 11
-0.8508554921
 21
0.8508554921
 31
0.0
 40
0.9972646886
 41
2.3575640181
 42
3.9256212891
  0
ELLIPSE
  5
4F0
100
AcDbEntity
  8
RACCORDO
100
AcDbEllipse
 62
7
  6
CONTINUOUS
 10
12.2999695344
 20
-6.2
 30
0.0
 11
0.2000304656
 21
0.0
 31
0.0
 40
0.9998476952
 41
-0.0
 42
1.5707963268
  0
ELLIPSE
  5
4F1
100
AcDbEntity
  8
RACCORDO
100
AcDbEllipse
 62
7
  6
CONTINUOUS
 10
12.2999695344
 20
6.2
 30
0.0
 11
0.2000304656
 21
-0.0
 31
0.0
 40
0.9998476952
 41
-1.5707963268
 42
0.0
  0
ELLIPSE
  5
4F2
100
AcDbEntity
  8
RACCORDO
100
AcDbEllipse
 62
7
  6
CONTINUOUS
 10
-12.2999695344
 20
6.2
 30
0.0
 11
0.2000304656
 21
0.0
 31
0.0
 40
0.9998476952
 41
3.1415926536
 42
4.7123889804
  0
ELLIPSE
  5
4F3
100
AcDbEntity
  8
RACCORDO
100
AcDbEllipse
 62
7
  6
CONTINUOUS
 10
-12.2999695344
 20
-6.2
 30
0.0
 11
0.2000304656
 21
-0.0
 31
0.0
 40
0.9998476952
 41
1.5707963268
 42
3.1415926536
  0
ELLIPSE
  5
4F4
100
AcDbEntity
  8
RACCORDO
100
AcDbEllipse
 62
7
  6
CONTINUOUS
 10
12.2999695344
 20
-50.8
 30
0.0
 11
0.2000304656
 21
-0.0
 31
0.0
 40
0.9998476952
 41
-1.5707963268
 42
0.0
  0
ELLIPSE
  5
4F5
100
AcDbEntity
  8
RACCORDO
100
AcDbEllipse
 62
7
  6
CONTINUOUS
 10
-12.2999695344
 20
-50.8
 30
0.0
 11
0.2000304656
 21
-0.0
 31
0.0
 40
0.9998476952
 41
-3.1415926536
 42
-1.5707963268
  0
ELLIPSE
  5
4F6
100
AcDbEntity
  8
RACCORDO
100
AcDbEllipse
 62
7
  6
CONTINUOUS
 10
-12.2999695344
 20
50.8
 30
0.0
 11
0.2000304656
 21
0.0
 31
0.0
 40
0.9998476952
 41
1.5707963268
 42
3.1415926536
  0
ELLIPSE
  5
4F7
100
AcDbEntity
  8
RACCORDO
100
AcDbEllipse
 62
7
  6
CONTINUOUS
 10
12.2999695344
 20
50.8
 30
0.0
 11
0.2000304656
 21
0.0
 31
0.0
 40
0.9998476952
 41
0.0
 42
1.5707963268
  0
ELLIPSE
  5
4F8
100
AcDbEntity
  8
RACCORDO
100
AcDbEllipse
 62
7
  6
CONTINUOUS
 10
17.9995882962
 20
-66.4995838755
 30
0.0
 11
-0.2121478699
 21
0.2132846008
 31
0.0
 40
0.9972500536
 41
-3.9229420456
 42
-2.3548994104
  0
ELLIPSE
  5
4F9
100
AcDbEntity
  8
RACCORDO
100
AcDbEllipse
 62
7
  6
CONTINUOUS
 10
17.9995882962
 20
66.4995838755
 30
0.0
 11
0.2121478699
 21
0.2132846008
 31
0.0
 40
0.9972500536
 41
-0.7866932432
 42
0.781349392
  0
ELLIPSE
  5
4FA
100
AcDbEntity
  8
RACCORDO
100
AcDbEllipse
 62
7
  6
CONTINUOUS
 10
-17.9995882962
 20
66.4995838755
 30
0.0
 11
-0.2121478699
 21
0.2132846008
 31
0.0
 40
0.9972500536
 41
-0.781349392
 42
0.7866932432
  0
ELLIPSE
  5
4FB
100
AcDbEntity
  8
RACCORDO
100
AcDbEllipse
 62
7
  6
CONTINUOUS
 10
-17.9995882962
 20
-66.4995838755
 30
0.0
 11
0.2121478699
 21
0.2132846008
 31
0.0
 40
0.9972500536
 41
-3.9282858967
 42
-2.3602432616
  0
ELLIPSE
  5
4FC
100
AcDbEntity
  8
RACCORDO
100
AcDbEllipse
 62
7
  6
CONTINUOUS
 10
3.6049863962
 20
-66.0
 30
0.0
 11
-0.0
 21
0.8
 31
0.0
 40
0.0874886635
 41
-1.5707963268
 42
0.0
  0
ELLIPSE
  5
4FD
100
AcDbEntity
  8
RACCORDO
100
AcDbEllipse
 62
7
  6
CONTINUOUS
 10
3.6049863962
 20
66.0
 30
0.0
 11
0.0
 21
0.8
 31
0.0
 40
0.0874886635
 41
-3.1415926536
 42
-1.5707963268
  0
ELLIPSE
  5
4FE
100
AcDbEntity
  8
RACCORDO
100
AcDbEllipse
 62
7
  6
CONTINUOUS
 10
-3.6049863962
 20
-66.0
 30
0.0
 11
0.0
 21
0.8
 31
0.0
 40
0.0874886635
 41
0.0
 42
1.5707963268
  0
ELLIPSE
  5
4FF
100
AcDbEntity
  8
RACCORDO
100
AcDbEllipse
 62
7
  6
CONTINUOUS
 10
-3.6049863962
 20
66.0
 30
0.0
 11
0.0
 21
0.8
 31
0.0
 40
0.0874886635
 41
-4.7123889804
 42
-3.1415926536
  0
ENDSEC
  0
SECTION
  2
OBJECTS
  0
DICTIONARY
  5
C
100
AcDbDictionary
280
0
281
1
  3
ACAD_GROUP
350
D
  3
ACAD_MLINESTYLE
350
17
  3
ACAD_LAYOUT
350
1A
  3
ACAD_PLOTSETTINGS
350
19
  3
ACAD_PLOTSTYLENAME
350
E
  0
DICTIONARY
  5
D
102
{ACAD_REACTORS
330
C
102
}
100
AcDbDictionary
280
0
281
1
  0
ACDBDICTIONARYWDFLT
  5
E
102
{ACAD_REACTORS
330
C
102
}
100
AcDbDictionary
281
1
  3
Normal
350
F
100
AcDbDictionaryWithDefault
340
F
  0
DICTIONARY
  5
17
102
{ACAD_REACTORS
330
C
102
}
100
AcDbDictionary
280
0
281
1
  3
Standard
350
18
  0
DICTIONARY
  5
19
102
{ACAD_REACTORS
330
C
102
}
100
AcDbDictionary
281
1
  0
DICTIONARY
  5
1A
102
{ACAD_REACTORS
330
C
102
}
100
AcDbDictionary
281
1
  3
Model
350
500
  3
Layout1
350
501
  0
ACDBPLACEHOLDER
  5
F
102
{ACAD_REACTORS
330
E
102
}
  0
MLINESTYLE
  5
18
102
{ACAD_REACTORS
330
17
102
}
100
AcDbMlineStyle
  2
STANDARD
 70
0
  3

 62
256
 51
90.0
 52
90.0
 71
2
 49
0.5
 62
256
  6
BYLAYER
 49
-0.5
 62
256
  6
BYLAYER
  0
LAYOUT
  5
500
102
{ACAD_REACTORS
330
1A
102
}
100
AcDbPlotSettings
  1

  2
none_device
  4
ISO_A4_(297.00_x_210.00_MM)
  6

 40
0.0
 41
0.0
 42
0.0
 43
0.0
 44
297.0
 45
210.0
 46
0.0
 47
0.0
 48
0.0
 49
0.0
140
0.0
141
0.0
142
1.0
143
1.0
 70
1024
 72
1
 73
0
 74
0
  7

 75
0
147
1.0
148
0.0
149
0.0
100
AcDbLayout
  1
Model
 70
0
 71
0
 10
0.0
 20
0.0
 11
297.0
 21
210.0
 12
0.0
 22
0.0
 32
0.0
 14
0.0
 24
0.0
 34
0.0
 15
0.0
 25
0.0
 35
0.0
146
0.0
 13
0.0
 23
0.0
 33
0.0
 16
1.0
 26
0.0
 36
0.0
 17
0.0
 27
1.0
 37
0.0
 76
0
330
211
345
0
346
0
  0
LAYOUT
  5
501
102
{ACAD_REACTORS
330
1A
102
}
100
AcDbPlotSettings
  1

  2
none_device
  4
ISO_A4_(297.00_x_210.00_MM)
  6

 40
0.0
 41
0.0
 42
0.0
 43
0.0
 44
297.0
 45
210.0
 46
0.0
 47
0.0
 48
0.0
 49
0.0
140
0.0
141
0.0
142
1.0
143
1.0
 70
0
 72
1
 73
0
 74
0
  7

 75
0
147
1.0
148
0.0
149
0.0
100
AcDbLayout
  1
Layout1
 70
0
 71
1
 10
0.0
 20
0.0
 11
297.0
 21
210.0
 12
0.0
 22
0.0
 32
0.0
 14
0.0
 24
0.0
 34
0.0
 15
0.0
 25
0.0
 35
0.0
146
0.0
 13
0.0
 23
0.0
 33
0.0
 16
1.0
 26
0.0
 36
0.0
 17
0.0
 27
1.0
 37
0.0
 76
0
330
212
345
0
346
0
  0
ENDSEC
  0
EOF
