  0
SECTION
  2
HEADER
  9
$ACADVER
  1
AC1024
  9
$DWGCODEPAGE
  3
ANSI_1252
  9
$EXTMAX
 10
297.0
 20
210.0
 30
0.0
  9
$EXTMIN
 10
0.0
 20
0.0
 30
0.0
  9
$LIMMIN
 10
0.0
 20
0.0
  9
$LIMMAX
 10
297.0
 20
210.0
  9
$VIEWCTR
 10
148.5
 20
105.0
  9
$VIEWSIZE
 40
210.0
  9
$CLAYER
  8
0
  9
$LTSCALE
 40
16.335
  9
$CELTYPE
  6
BYLAYER
  9
$DIMSCALE
 40
1.0
  9
$DIMASZ
 40
3.0
  9
$DIMEXO
 40
0.5
  9
$DIMDLI
 40
11.286
  9
$DIMEXE
 40
1.5
  9
$DIMCEN
 40
2.673
  9
$DIMLFAC
 40
1.0
  9
$DIMBLK
  1
_FILLED
  9
$DIMALT
 70
0
  9
$DIMALTF
 40
0.0393700787
  9
$DIMTXT
 40
3.0
  9
$DIMTOL
 70
1
  9
$DIMLIM
 70
0
  9
$DIMTFAC
 40
1.0
  9
$DIMTP
 40
0.01
  9
$DIMTM
 40
0.01
  9
$DIMGAP
 40
0.625
  9
$DIMDSEP
 70
44
  9
$AUNITS
 70
0
  9
$PDMODE
 70
3
  9
$PDSIZE
 40
3.0
  9
$HANDSEED
  5
39F
  9
$TILEMODE
 70
1
  9
$MEASUREMENT
 70
1
  9
$INSUNITS
 70
4
  0
ENDSEC
  0
SECTION
  2
CLASSES
  0
CLASS
  1
ACDBDICTIONARYWDFLT
  2
AcDbDictionaryWithDefault
  3
AutoCAD 2000
 90
0
 91
1
280
0
281
0
  0
CLASS
  1
ACDBPLACEHOLDER
  2
AcDbPlaceHolder
  3
AutoCAD 2000
 90
0
 91
1
280
0
281
0
  0
CLASS
  1
LAYOUT
  2
AcDbLayout
  3
AutoCAD 2000
 90
0
 91
0
280
0
281
0
  0
ENDSEC
  0
SECTION
  2
TABLES
  0
TABLE
  2
VPORT
  5
8
100
AcDbSymbolTable
 70
2
  0
VPORT
  5
1F4
100
AcDbSymbolTableRecord
100
AcDbViewportTableRecord
  2
*ACTIVE
 70
0
 10
0.0
 20
0.0
 11
1.0
 21
1.0
 12
148.5
 22
105.0
 13
0.0
 23
0.0
 14
1.0
 24
1.0
 15
0.0
 25
0.0
 16
0.0
 26
0.0
 36
1.0
 17
0.0
 27
0.0
 37
0.0
 40
210.0
 41
1.4142857143
 42
50.0
 43
0.0
 44
0.0
 50
0.0
 51
0.0
 71
0
 72
100
 73
1
 74
1
 75
0
 76
0
 77
0
 78
0
  0
ENDTAB
  0
TABLE
  2
LTYPE
  5
5
100
AcDbSymbolTable
 70
6
  0
LTYPE
  5
14
100
AcDbSymbolTableRecord
100
AcDbLinetypeTableRecord
  2
BYBLOCK
 70
0
  3

 72
65
 73
0
 40
0.0
  0
LTYPE
  5
15
100
AcDbSymbolTableRecord
100
AcDbLinetypeTableRecord
  2
BYLAYER
 70
0
  3

 72
65
 73
0
 40
0.0
  0
LTYPE
  5
16
100
AcDbSymbolTableRecord
100
AcDbLinetypeTableRecord
  2
CONTINUOUS
 70
64
  3
Solid line
 72
65
 73
0
 40
0.0
  0
LTYPE
  5
1F5
100
AcDbSymbolTableRecord
100
AcDbLinetypeTableRecord
  2
CENTER
 70
64
  3
____ _ ____ _ ____ _ ____ _ ____ _ ____ _ ____
 72
65
 73
4
 40
0.6
 49
0.375
 74
0
 49
-0.075
 74
0
 49
0.075
 74
0
 49
-0.075
 74
0
  0
LTYPE
  5
1F6
100
AcDbSymbolTableRecord
100
AcDbLinetypeTableRecord
  2
HIDDEN
 70
64
  3
- - - - - - - - - - - - - - - - - - - -
 72
65
 73
2
 40
0.2
 49
0.1
 74
0
 49
-0.1
 74
0
  0
LTYPE
  5
1F7
100
AcDbSymbolTableRecord
100
AcDbLinetypeTableRecord
  2
PHANTOM
 70
64
  3
_____ _ _ _____ _ _ _____ _ _ _____
 72
65
 73
6
 40
0.8
 49
0.45
 74
0
 49
-0.05
 74
0
 49
0.1
 74
0
 49
-0.05
 74
0
 49
0.1
 74
0
 49
-0.05
 74
0
  0
LTYPE
  5
1F8
100
AcDbSymbolTableRecord
100
AcDbLinetypeTableRecord
  2
DOT
 70
64
  3
. . . . . . . . . . . . . . . . . . . .
 72
65
 73
2
 40
0.2
 49
0.1
 74
0
 49
-0.1
 74
0
  0
LTYPE
  5
1F9
100
AcDbSymbolTableRecord
100
AcDbLinetypeTableRecord
  2
DASHED
 70
64
  3
- - - - - - - - - - - - - - - - - - - -
 72
65
 73
2
 40
0.2
 49
0.1
 74
0
 49
-0.1
 74
0
  0
ENDTAB
  0
TABLE
  2
LAYER
  5
2
100
AcDbSymbolTable
 70
36
  0
LAYER
  5
10
100
AcDbSymbolTableRecord
100
AcDbLayerTableRecord
  2
0
 70
0
 62
7
  6
CONTINUOUS
370
-3
390
F
  0
LAYER
  5
1FA
100
AcDbSymbolTableRecord
100
AcDbLayerTableRecord
  2
DEFAULT_1
 70
0
 62
7
  6
CENTER
370
-3
390
F
  0
LAYER
  5
1FB
100
AcDbSymbolTableRecord
100
AcDbLayerTableRecord
  2
DEFAULT_2
 70
0
 62
7
  6
HIDDEN
370
-3
390
F
  0
LAYER
  5
1FC
100
AcDbSymbolTableRecord
100
AcDbLayerTableRecord
  2
DEFAULT_3
 70
0
 62
7
  6
PHANTOM
370
-3
390
F
  0
LAYER
  5
1FD
100
AcDbSymbolTableRecord
100
AcDbLayerTableRecord
  2
ASSI
 70
0
 62
7
  6
CONTINUOUS
370
-3
390
F
  0
LAYER
  5
1FE
100
AcDbSymbolTableRecord
100
AcDbLayerTableRecord
  2
COLOR5
 70
0
 62
7
  6
CONTINUOUS
370
-3
390
F
  0
LAYER
  5
1FF
100
AcDbSymbolTableRecord
100
AcDbLayerTableRecord
  2
COORDINATE
 70
0
 62
7
  6
CONTINUOUS
370
-3
390
F
  0
LAYER
  5
200
100
AcDbSymbolTableRecord
100
AcDbLayerTableRecord
  2
COORD_ORIGINE
 70
0
 62
7
  6
CONTINUOUS
370
-3
390
F
  0
LAYER
  5
201
100
AcDbSymbolTableRecord
100
AcDbLayerTableRecord
  2
COSMETICI
 70
0
 62
7
  6
CONTINUOUS
370
-3
390
F
  0
LAYER
  5
202
100
AcDbSymbolTableRecord
100
AcDbLayerTableRecord
  2
CURVE
 70
0
 62
7
  6
CONTINUOUS
370
-3
390
F
  0
LAYER
  5
203
100
AcDbSymbolTableRecord
100
AcDbLayerTableRecord
  2
DRAFT
 70
0
 62
7
  6
CONTINUOUS
370
-3
390
F
  0
LAYER
  5
204
100
AcDbSymbolTableRecord
100
AcDbLayerTableRecord
  2
INTF_1
 70
0
 62
7
  6
CONTINUOUS
370
-3
390
F
  0
LAYER
  5
205
100
AcDbSymbolTableRecord
100
AcDbLayerTableRecord
  2
INTF_7
 70
0
 62
7
  6
CONTINUOUS
370
-3
390
F
  0
LAYER
  5
206
100
AcDbSymbolTableRecord
100
AcDbLayerTableRecord
  2
NOTE
 70
0
 62
7
  6
CONTINUOUS
370
-3
390
F
  0
LAYER
  5
207
100
AcDbSymbolTableRecord
100
AcDbLayerTableRecord
  2
PIANI
 70
0
 62
7
  6
CONTINUOUS
370
-3
390
F
  0
LAYER
  5
208
100
AcDbSymbolTableRecord
100
AcDbLayerTableRecord
  2
PIANI_ORIGINE
 70
0
 62
7
  6
CONTINUOUS
370
-3
390
F
  0
LAYER
  5
209
100
AcDbSymbolTableRecord
100
AcDbLayerTableRecord
  2
PIANI_RIF
 70
0
 62
7
  6
CONTINUOUS
370
-3
390
F
  0
LAYER
  5
20A
100
AcDbSymbolTableRecord
100
AcDbLayerTableRecord
  2
PUNTI
 70
0
 62
7
  6
CONTINUOUS
370
-3
390
F
  0
LAYER
  5
20B
100
AcDbSymbolTableRecord
100
AcDbLayerTableRecord
  2
RACCORDO
 70
0
 62
7
  6
CONTINUOUS
370
-3
390
F
  0
LAYER
  5
20C
100
AcDbSymbolTableRecord
100
AcDbLayerTableRecord
  2
RGB__255__255__255__
 70
0
 62
7
  6
CONTINUOUS
370
-3
390
F
  0
LAYER
  5
20D
100
AcDbSymbolTableRecord
100
AcDbLayerTableRecord
  2
RGB____0____0____0__
 70
0
 62
7
  6
CONTINUOUS
370
-3
390
F
  0
LAYER
  5
20E
100
AcDbSymbolTableRecord
100
AcDbLayerTableRecord
  2
SCRITTE
 70
0
 62
7
  6
CONTINUOUS
370
-3
390
F
  0
LAYER
  5
20F
100
AcDbSymbolTableRecord
100
AcDbLayerTableRecord
  2
SMUSSO
 70
0
 62
7
  6
CONTINUOUS
370
-3
390
F
  0
LAYER
  5
210
100
AcDbSymbolTableRecord
100
AcDbLayerTableRecord
  2
SNAPLINE
 70
0
 62
7
  6
CONTINUOUS
370
-3
390
F
  0
LAYER
  5
211
100
AcDbSymbolTableRecord
100
AcDbLayerTableRecord
  2
SUPERFICI
 70
0
 62
7
  6
CONTINUOUS
370
-3
390
F
  0
LAYER
  5
212
100
AcDbSymbolTableRecord
100
AcDbLayerTableRecord
  2
TRASH
 70
0
 62
7
  6
CONTINUOUS
370
-3
390
F
  0
LAYER
  5
213
100
AcDbSymbolTableRecord
100
AcDbLayerTableRecord
  2
XSEC_DATUMS
 70
0
 62
7
  6
CONTINUOUS
370
-3
390
F
  0
ENDTAB
  0
TABLE
  2
STYLE
  5
3
100
AcDbSymbolTable
 70
1
  0
STYLE
  5
11
100
AcDbSymbolTableRecord
100
AcDbTextStyleTableRecord
  2
STANDARD
 70
0
 40
0.0
 41
0.8
 50
0.0
 71
0
 42
0.2
  3
txt
  4

  0
STYLE
  5
214
100
AcDbSymbolTableRecord
100
AcDbTextStyleTableRecord
  2
TEXTSTYLE_1
 70
0
 40
0.0
 41
0.8
 50
0.0
 71
0
 42
0.2
  3
gdt
  4

  0
ENDTAB
  0
TABLE
  2
VIEW
  5
6
100
AcDbSymbolTable
 70
0
  0
ENDTAB
  0
TABLE
  2
UCS
  5
7
100
AcDbSymbolTable
 70
0
  0
ENDTAB
  0
TABLE
  2
APPID
  5
9
100
AcDbSymbolTable
 70
1
  0
APPID
  5
215
100
AcDbSymbolTableRecord
100
AcDbRegAppTableRecord
  2
ACAD
 70
0
  0
ENDTAB
  0
TABLE
  2
BLOCK_RECORD
  5
1
100
AcDbSymbolTable
 70
0
  0
BLOCK_RECORD
  5
216
100
AcDbSymbolTableRecord
100
AcDbBlockTableRecord
  2
*Model_Space
  0
BLOCK_RECORD
  5
217
100
AcDbSymbolTableRecord
100
AcDbBlockTableRecord
  2
*Paper_Space
  0
BLOCK_RECORD
  5
218
100
AcDbSymbolTableRecord
100
AcDbBlockTableRecord
  2
_FILLED
  0
ENDTAB
  0
TABLE
  2
DIMSTYLE
  5
A
100
AcDbSymbolTable
 70
1
100
AcDbDimStyleTable
 71
0
  0
DIMSTYLE
105
219
100
AcDbSymbolTableRecord
100
AcDbDimStyleTableRecord
  2
STANDARD
 70
0
  3

  4

 40
1.0
 41
3.0
 42
0.5
 43
0.38
 44
1.5
 45
0.0
 46
0.0
 47
0.01
 48
0.01
140
3.0
141
0.09
142
0.0
143
25.4
144
1.0
145
0.0
146
1.0
147
0.625
 71
1
 72
0
 73
0
 74
0
 75
0
 76
0
 77
1
 78
8
 79
2
170
0
171
1
172
0
173
0
174
0
175
0
176
0
177
0
178
0
270
2
179
2
271
2
272
2
273
2
274
2
275
0
280
0
281
0
282
0
283
1
284
8
285
0
286
0
287
3
288
0
340
11
278
44
341
218
342
218
343
218
344
218
  0
ENDTAB
  0
ENDSEC
  0
SECTION
  2
BLOCKS
  0
BLOCK
  5
20
100
AcDbEntity
  8
0
100
AcDbBlockBegin
  2
*Model_Space
 70
0
 10
0.0
 20
0.0
 30
0.0
  3
*Model_Space
  1

  0
ENDBLK
  5
21
100
AcDbEntity
  8
0
100
AcDbBlockEnd
  0
BLOCK
  5
1C
100
AcDbEntity
  8
0
100
AcDbBlockBegin
  2
*Paper_Space
 70
0
 10
0.0
 20
0.0
 30
0.0
  3
*Paper_Space
  1

  0
ENDBLK
  5
1D
100
AcDbEntity
  8
0
100
AcDbBlockEnd
  0
BLOCK
  5
21A
100
AcDbEntity
  8
0
100
AcDbBlockBegin
  2
_FILLED
 70
64
 10
0.0
 20
0.0
  3
_FILLED
  1

  0
SOLID
  5
21B
100
AcDbEntity
  8
0
  6
BYBLOCK
 62
0
100
AcDbTrace
 10
0.0
 20
0.0
 11
-1.0
 21
0.3166666667
 12
-1.0
 22
-0.3166666667
 13
-1.0
 23
-0.3166666667
  0
ENDBLK
  5
21C
100
AcDbEntity
  8
0
  6
BYBLOCK
 62
0
100
AcDbBlockEnd
  0
ENDSEC
  0
SECTION
  2
ENTITIES
  0
LINE
  5
21D
100
AcDbEntity
  8
RACCORDO
100
AcDbLine
 62
250
  6
CONTINUOUS
 10
-57.3090782795
 20
-43.2013970801
 11
-57.3398924878
 21
-43.1710510088
  0
LWPOLYLINE
  5
21E
100
AcDbEntity
  8
RACCORDO
100
AcDbPolyline
 62
250
  6
CONTINUOUS
 90
7
 70
0
 10
-57.407068097
 20
32.8879178045
 10
-57.4367034516
 20
32.847132429
 10
-57.4608725575
 20
32.8037147643
 10
-57.4793665871
 20
32.7605804904
 10
-57.4921159311
 20
32.7187015009
 10
-57.4991901989
 20
32.6771059022
 10
-57.5005893903
 20
32.6357936945
  0
LINE
  5
21F
100
AcDbEntity
  8
RACCORDO
100
AcDbLine
 62
7
  6
CONTINUOUS
 10
61.6469680872
 20
-54.330282832
 11
61.7519348638
 21
-54.3091552847
  0
LWPOLYLINE
  5
220
100
AcDbEntity
  8
RACCORDO
100
AcDbPolyline
 62
250
  6
CONTINUOUS
 90
5
 70
0
 10
-57.3398924878
 20
-43.1710510088
 10
-57.3755893903
 20
-43.1464355025
 10
-57.4150843544
 20
-43.1282984909
 10
-57.4571773459
 20
-43.1171910579
 10
-57.5005893903
 20
-43.1134506973
  0
LWPOLYLINE
  5
221
100
AcDbEntity
  8
RACCORDO
100
AcDbPolyline
 62
7
  6
CONTINUOUS
 90
10
 70
0
 10
-57.2505893903
 20
-46.7067769223
 10
-57.2553063567
 20
-46.6620807288
 10
-57.2664701366
 20
-46.6210483855
 10
-57.2840807299
 20
-46.5836798925
 10
-57.3090469508
 20
-46.5490802426
 10
-57.340459985
 20
-46.5181444429
 10
-57.3755933904
 20
-46.493557515
 10
-57.4135383526
 20
-46.4762144662
 10
-57.4552036859
 20
-46.4652202892
 10
-57.5005893903
 20
-46.4605749841
  0
LWPOLYLINE
  5
222
100
AcDbEntity
  8
RACCORDO
100
AcDbPolyline
 62
250
  6
CONTINUOUS
 90
5
 70
0
 10
-57.2505893903
 20
-43.3596526355
 10
-57.254387452
 20
-43.3169001176
 10
-57.2656662351
 20
-43.2754466133
 10
-57.2840830393
 20
-43.2365516664
 10
-57.3090782795
 20
-43.2013970801
  0
LWPOLYLINE
  5
223
100
AcDbEntity
  8
RACCORDO
100
AcDbPolyline
 62
7
  6
CONTINUOUS
 90
19
 70
0
 10
-60.0098715462
 20
-53.2328440932
 10
-60.0079807213
 20
-53.280388761
 10
-60.0005445269
 20
-53.363537219
 10
-59.9876495211
 20
-53.4470723962
 10
-59.9691253369
 20
-53.530611708
 10
-59.9447964628
 20
-53.6136266524
 10
-59.9144661678
 20
-53.6954372399
 10
-59.878122669
 20
-53.7753721159
 10
-59.8356657498
 20
-53.8529975681
 10
-59.7867138176
 20
-53.9278686157
 10
-59.7313430431
 20
-53.999212452
 10
-59.6695210967
 20
-54.0663655071
 10
-59.6005479645
 20
-54.1287455838
 10
-59.5246399023
 20
-54.1853563596
 10
-59.441919304
 20
-54.2351615249
 10
-59.3514180721
 20
-54.2769470761
 10
-59.2531136443
 20
-54.3091552847
 10
-59.1481468678
 20
-54.330282832
 10
-59.037508209
 20
-54.3388271146
  0
LINE
  5
224
100
AcDbEntity
  8
RACCORDO
100
AcDbLine
 62
7
  6
CONTINUOUS
 10
-60.0098470136
 20
-53.2333340184
 11
-60.1681589074
 21
-46.2876711199
  0
LINE
  5
225
100
AcDbEntity
  8
RACCORDO
100
AcDbLine
 62
250
  6
CONTINUOUS
 10
-58.9883430441
 20
-54.3390370082
 11
-59.1679161477
 21
-46.4605749841
  0
LINE
  5
226
100
AcDbEntity
  8
RACCORDO
100
AcDbLine
 62
7
  6
CONTINUOUS
 10
-59.5299555462
 20
33.9607911965
 11
-59.5299555462
 21
-37.2957576611
  0
LINE
  5
227
100
AcDbEntity
  8
RACCORDO
100
AcDbLine
 62
250
  6
CONTINUOUS
 10
-57.2495038388
 20
32.5309480483
 11
-57.2505893903
 21
32.5107936945
  0
LWPOLYLINE
  5
228
100
AcDbEntity
  8
RACCORDO
100
AcDbPolyline
 62
250
  6
CONTINUOUS
 90
12
 70
0
 10
-53.1928128694
 20
55.2727872039
 10
-53.17419192
 20
55.4428070612
 10
-53.1557803062
 20
55.5775109026
 10
-53.1376648829
 20
55.6763516864
 10
-53.120106215
 20
55.737688288
 10
-53.1031096205
 20
55.7609332147
 10
-53.0866697814
 20
55.7466739591
 10
-53.0710313087
 20
55.6950318753
 10
-53.0562085244
 20
55.605384376
 10
-53.0421871065
 20
55.4783540484
 10
-53.0291686995
 20
55.3159300075
 10
-53.0171726564
 20
55.1176981193
  0
LWPOLYLINE
  5
229
100
AcDbEntity
  8
RACCORDO
100
AcDbPolyline
 62
7
  6
CONTINUOUS
 90
4
 70
0
 10
-57.2005893903
 20
29.7641625684
 10
-57.2170980506
 20
29.7440434058
 10
-57.2347086439
 20
29.7111821045
 10
-57.2458724238
 20
29.6750988674
  0
LWPOLYLINE
  5
22A
100
AcDbEntity
  8
RACCORDO
100
AcDbPolyline
 62
250
  6
CONTINUOUS
 90
7
 70
0
 10
-57.1895113987
 20
32.6522500962
 10
-57.2038753969
 20
32.6368139294
 10
-57.2188823479
 20
32.6163215984
 10
-57.2309979038
 20
32.5948111788
 10
-57.2400028967
 20
32.573130519
 10
-57.2460632204
 20
32.5518052666
 10
-57.2495038388
 20
32.5309480483
  0
LWPOLYLINE
  5
22B
100
AcDbEntity
  8
RACCORDO
100
AcDbPolyline
 62
250
  6
CONTINUOUS
 90
3
 70
0
 10
-57.3296177131
 20
32.9611367155
 10
-57.3710760294
 20
32.9258434046
 10
-57.407068097
 20
32.8879178045
  0
LINE
  5
22C
100
AcDbEntity
  8
RACCORDO
100
AcDbLine
 62
7
  6
CONTINUOUS
 10
61.5363294284
 20
-54.3388271146
 11
61.6469680872
 21
-54.330282832
  0
LWPOLYLINE
  5
22D
100
AcDbEntity
  8
RACCORDO
100
AcDbPolyline
 62
7
  6
CONTINUOUS
 90
5
 70
0
 10
-57.2005893903
 20
-27.0588832464
 10
-57.2125291565
 20
-27.0380706895
 10
-57.2330299169
 20
-26.9856381334
 10
-57.2457166615
 20
-26.9304025377
 10
-57.2505893903
 20
-26.8723639025
  0
LWPOLYLINE
  5
22E
100
AcDbEntity
  8
RACCORDO
100
AcDbPolyline
 62
250
  6
CONTINUOUS
 90
6
 70
0
 10
-57.2505893903
 20
-37.4207576611
 10
-57.2543879499
 20
-37.399050227
 10
-57.2656679223
 20
-37.3780028248
 10
-57.2840861387
 20
-37.3582549761
 10
-57.309082491
 20
-37.3404066992
 10
-57.3398971641
 20
-37.3250001423
  0
LINE
  5
22F
100
AcDbEntity
  8
RACCORDO
100
AcDbLine
 62
7
  6
CONTINUOUS
 10
-55.094662746
 20
-43.3558545738
 11
-54.6411067151
 21
-46.300028109
  0
LINE
  5
230
100
AcDbEntity
  8
RACCORDO
100
AcDbLine
 62
250
  6
CONTINUOUS
 10
-57.5005893903
 20
32.6357936945
 11
-57.5005893903
 21
-46.4605749841
  0
LINE
  5
231
100
AcDbEntity
  8
RACCORDO
100
AcDbLine
 62
7
  6
CONTINUOUS
 10
-57.2505893903
 20
32.5107936945
 11
-57.2505893903
 21
-46.4710258093
  0
LINE
  5
232
100
AcDbEntity
  8
RACCORDO
100
AcDbLine
 62
7
  6
CONTINUOUS
 10
-57.2505893903
 20
-46.7067769223
 11
-57.2505893903
 21
-52.3694215021
  0
LINE
  5
233
100
AcDbEntity
  8
RACCORDO
100
AcDbLine
 62
7
  6
CONTINUOUS
 10
-57.2005893903
 20
32.5923604541
 11
-57.2005893903
 21
-37.2957576611
  0
LINE
  5
234
100
AcDbEntity
  8
ASSI
100
AcDbLine
 62
7
  6
CONTINUOUS
 10
-57.2005893903
 20
-37.2957576611
 11
-57.2005893903
 21
-46.4710258093
  0
LINE
  5
235
100
AcDbEntity
  8
RACCORDO
100
AcDbLine
 62
7
  6
CONTINUOUS
 10
-57.2005893903
 20
-46.4710258093
 11
-57.2005893903
 21
-51.5481588687
  0
LINE
  5
236
100
AcDbEntity
  8
RACCORDO
100
AcDbLine
 62
250
  6
CONTINUOUS
 10
-57.0005893901
 20
32.8038419991
 11
-57.0005893899
 21
33.0688063961
  0
LINE
  5
237
100
AcDbEntity
  8
RACCORDO
100
AcDbLine
 62
7
  6
CONTINUOUS
 10
-55.2505893903
 20
-37.2957576611
 11
-55.2505893903
 21
27.656675182
  0
LINE
  5
238
100
AcDbEntity
  8
DRAFT
100
AcDbLine
 62
7
  6
CONTINUOUS
 10
-55.2005893903
 20
32.8089987752
 11
-55.2005893903
 21
28.5221730265
  0
LINE
  5
239
100
AcDbEntity
  8
DRAFT
100
AcDbLine
 62
7
  6
CONTINUOUS
 10
-55.1132874665
 20
31.4833930915
 11
-55.1132874665
 21
29.5315371743
  0
LINE
  5
23A
100
AcDbEntity
  8
RACCORDO
100
AcDbLine
 62
250
  6
CONTINUOUS
 10
-52.989716468
 20
48.3126399511
 11
-54.6411067151
 21
-46.300028109
  0
LINE
  5
23B
100
AcDbEntity
  8
RACCORDO
100
AcDbLine
 62
250
  6
CONTINUOUS
 10
-53.2288041817
 20
54.8817970854
 11
-53.2309433398
 21
54.8251583165
  0
LINE
  5
23C
100
AcDbEntity
  8
RACCORDO
100
AcDbLine
 62
7
  6
CONTINUOUS
 10
-55.2505893903
 20
27.656675182
 11
-55.2484492158
 21
27.7127322028
  0
LINE
  5
23D
100
AcDbEntity
  8
RACCORDO
100
AcDbLine
 62
7
  6
CONTINUOUS
 10
-60.1678105194
 20
-46.2822843978
 11
-60.1681186966
 21
-46.2876686981
  0
LINE
  5
23E
100
AcDbEntity
  8
RACCORDO
100
AcDbLine
 62
250
  6
CONTINUOUS
 10
-55.2505893903
 20
27.656675182
 11
-53.2309433398
 21
54.8251583165
  0
LINE
  5
23F
100
AcDbEntity
  8
RACCORDO
100
AcDbLine
 62
7
  6
CONTINUOUS
 10
-53.2207923705
 20
54.9867657042
 11
-55.2485169959
 21
27.7124158545
  0
LWPOLYLINE
  5
240
100
AcDbEntity
  8
RACCORDO
100
AcDbPolyline
 62
250
  6
CONTINUOUS
 90
3
 70
0
 10
-53.2309433398
 20
54.8251583165
 10
-53.2117300093
 20
55.066904289
 10
-53.1928128694
 20
55.2727872039
  0
LINE
  5
241
100
AcDbEntity
  8
RACCORDO
100
AcDbLine
 62
7
  6
CONTINUOUS
 10
-53.2093803773
 20
55.1268451081
 11
-53.2207923705
 21
54.9867657042
  0
LWPOLYLINE
  5
242
100
AcDbEntity
  8
RACCORDO
100
AcDbPolyline
 62
7
  6
CONTINUOUS
 90
5
 70
0
 10
-57.2505893903
 20
18.1609570943
 10
-57.2457166615
 20
18.2189957296
 10
-57.2330299169
 20
18.2742313252
 10
-57.2125291565
 20
18.3266638813
 10
-57.2005893903
 20
18.3474764383
  0
LWPOLYLINE
  5
243
100
AcDbEntity
  8
RACCORDO
100
AcDbPolyline
 62
7
  6
CONTINUOUS
 90
5
 70
0
 10
-57.2505893903
 20
-11.2839066344
 10
-57.2457166615
 20
-11.2258679991
 10
-57.2330299169
 20
-11.1706324034
 10
-57.2125291565
 20
-11.1181998473
 10
-57.2005893903
 20
-11.0973872904
  0
LWPOLYLINE
  5
244
100
AcDbEntity
  8
RACCORDO
100
AcDbPolyline
 62
7
  6
CONTINUOUS
 90
5
 70
0
 10
-57.2005893903
 20
17.3474764383
 10
-57.2125291565
 20
17.3266638813
 10
-57.2330299169
 20
17.2742313252
 10
-57.2457166615
 20
17.2189957296
 10
-57.2505893903
 20
17.1609570943
  0
LINE
  5
245
100
AcDbEntity
  8
RACCORDO
100
AcDbLine
 62
7
  6
CONTINUOUS
 10
-58.9883430441
 20
-54.3390370082
 11
61.4871642636
 21
-54.3390370082
  0
LWPOLYLINE
  5
246
100
AcDbEntity
  8
RACCORDO
100
AcDbPolyline
 62
250
  6
CONTINUOUS
 90
5
 70
0
 10
-57.3398971641
 20
-37.3250001423
 10
-57.3755938866
 20
-37.3125031858
 10
-57.4150880439
 20
-37.3032954099
 10
-57.4571795081
 20
-37.2976564988
 10
-57.5005893903
 20
-37.2957576583
  0
LINE
  5
247
100
AcDbEntity
  8
DRAFT
100
AcDbLine
 62
7
  6
CONTINUOUS
 10
-55.1132874665
 20
31.4833930915
 11
-55.2005893903
 21
32.8089987752
  0
LWPOLYLINE
  5
248
100
AcDbEntity
  8
RACCORDO
100
AcDbPolyline
 62
250
  6
CONTINUOUS
 90
17
 70
0
 10
-53.0171726564
 20
55.1176981193
 10
-53.0061796242
 20
54.8840725178
 10
-52.9963331893
 20
54.6182847199
 10
-52.9876464816
 20
54.3199655444
 10
-52.9801063713
 20
53.9894841723
 10
-52.9738170556
 20
53.6311796637
 10
-52.9687935447
 20
53.2445052746
 10
-52.9650208285
 20
52.8300077488
 10
-52.9625580731
 20
52.3936663774
 10
-52.9614270952
 20
51.9350953662
 10
-52.9616060782
 20
51.4546805094
 10
-52.9630887386
 20
50.9595584805
 10
-52.965894999
 20
50.4496145212
 10
-52.9700049368
 20
49.9249633897
 10
-52.9753525
 20
49.3930860344
 10
-52.9819156713
 20
48.8564761047
 10
-52.989716468
 20
48.3126399511
  0
LINE
  5
249
100
AcDbEntity
  8
RACCORDO
100
AcDbLine
 62
250
  6
CONTINUOUS
 10
-51.9993640631
 20
47.7441278253
 11
-53.6443968944
 21
-46.4710258093
  0
LINE
  5
24A
100
AcDbEntity
  8
RACCORDO
100
AcDbLine
 62
7
  6
CONTINUOUS
 10
-59.6796451247
 20
-43.1134506973
 11
-60.1678105194
 21
-46.2822843978
  0
LWPOLYLINE
  5
24B
100
AcDbEntity
  8
RACCORDO
100
AcDbPolyline
 62
7
  6
CONTINUOUS
 90
10
 70
0
 10
59.9994106097
 20
-46.4605749841
 10
59.9540249054
 20
-46.4652202892
 10
59.9123595721
 20
-46.4762144662
 10
59.8744146098
 20
-46.493557515
 10
59.8392812045
 20
-46.5181444429
 10
59.8078681702
 20
-46.5490802426
 10
59.7829019494
 20
-46.5836798925
 10
59.7652913561
 20
-46.6210483855
 10
59.7541275762
 20
-46.6620807288
 10
59.7494106097
 20
-46.7067769223
  0
LINE
  5
24C
100
AcDbEntity
  8
0
100
AcDbLine
 62
7
  6
CONTINUOUS
 10
-57.2505893903
 20
-52.3694215021
 11
59.7494106097
 21
-52.3694215021
  0
LINE
  5
24D
100
AcDbEntity
  8
RACCORDO
100
AcDbLine
 62
7
  6
CONTINUOUS
 10
-56.7005893903
 20
-52.0558721747
 11
59.1994106097
 21
-52.0558721747
  0
LINE
  5
24E
100
AcDbEntity
  8
0
100
AcDbLine
 62
250
  6
CONTINUOUS
 10
-57.2505893903
 20
-49.0222972153
 11
-57.2005893903
 21
-49.0222972153
  0
LINE
  5
24F
100
AcDbEntity
  8
0
100
AcDbLine
 62
250
  6
CONTINUOUS
 10
59.6994106097
 20
-49.0222972153
 11
59.7494106097
 21
-49.0222972153
  0
LWPOLYLINE
  5
250
100
AcDbEntity
  8
RACCORDO
100
AcDbPolyline
 62
7
  6
CONTINUOUS
 90
5
 70
0
 10
-57.2005893903
 20
2.3859804823
 10
-57.2125291565
 20
2.4067930392
 10
-57.2330299169
 20
2.4592255953
 10
-57.2457166615
 20
2.514461191
 10
-57.2505893903
 20
2.5724998262
  0
LWPOLYLINE
  5
251
100
AcDbEntity
  8
RACCORDO
100
AcDbPolyline
 62
250
  6
CONTINUOUS
 90
6
 70
0
 10
-57.2505893903
 20
32.5107936945
 10
-57.254387452
 20
32.5324997167
 10
-57.2656662351
 20
32.5535462124
 10
-57.2840830393
 20
32.5732936945
 10
-57.3090782795
 20
32.5911421457
 10
-57.3398924878
 20
32.6065492499
  0
LINE
  5
252
100
AcDbEntity
  8
RACCORDO
100
AcDbLine
 62
7
  6
CONTINUOUS
 10
-45.9718438796
 20
25.3280036833
 11
-45.9877067153
 21
25.4924433786
  0
LINE
  5
253
100
AcDbEntity
  8
RACCORDO
100
AcDbLine
 62
7
  6
CONTINUOUS
 10
-45.977606426
 20
25.3768859072
 11
-45.9875079181
 21
25.4892345998
  0
LINE
  5
254
100
AcDbEntity
  8
RACCORDO
100
AcDbLine
 62
7
  6
CONTINUOUS
 10
-45.9875079181
 20
25.4892345998
 11
-45.9877255196
 21
25.4923474784
  0
LINE
  5
255
100
AcDbEntity
  8
RACCORDO
100
AcDbLine
 62
7
  6
CONTINUOUS
 10
-45.9877255196
 20
25.4923474784
 11
-45.9948644411
 21
25.6532020335
  0
LWPOLYLINE
  5
256
100
AcDbEntity
  8
RACCORDO
100
AcDbPolyline
 62
250
  6
CONTINUOUS
 90
34
 70
0
 10
-45.9948644411
 20
25.6532020335
 10
-45.9879375678
 20
25.9360032532
 10
-45.9564416705
 20
26.2131059411
 10
-45.9012274176
 20
26.4823320794
 10
-45.8231937031
 20
26.742916949
 10
-45.7237365541
 20
26.9916660644
 10
-45.6053080514
 20
27.2231602586
 10
-45.4704022309
 20
27.4352520056
 10
-45.3209748315
 20
27.6278474199
 10
-45.1593417131
 20
27.7991874114
 10
-44.9881118483
 20
27.9482755119
 10
-44.8091855014
 20
28.0754339162
 10
-44.6236335469
 20
28.1810177189
 10
-44.4336183833
 20
28.2648181798
 10
-44.2407561427
 20
28.3271016818
 10
-44.044908058
 20
28.3685418756
 10
-43.847721573
 20
28.3891761869
 10
-43.6507535575
 20
28.3890363486
 10
-43.4535585864
 20
28.3681151907
 10
-43.257648758
 20
28.3263564897
 10
-43.0647229113
 20
28.263730744
 10
-42.8747794891
 20
28.1796299957
 10
-42.6894529792
 20
28.0738215859
 10
-42.5108589071
 20
27.9465362677
 10
-42.3400826233
 20
27.7975056772
 10
-42.1790512084
 20
27.626520138
 10
-42.0302528386
 20
27.434525094
 10
-41.89582616
 20
27.2230858801
 10
-41.7777354171
 20
26.9923126759
 10
-41.6784631119
 20
26.7442935708
 10
-41.6003888474
 20
26.4840728992
 10
-41.5449910425
 20
26.214688879
 10
-41.5133121563
 20
25.9370048033
 10
-41.5063143394
 20
25.6532020335
  0
LWPOLYLINE
  5
257
100
AcDbEntity
  8
RACCORDO
100
AcDbPolyline
 62
250
  6
CONTINUOUS
 90
34
 70
0
 10
-46.2946816892
 20
25.647967109
 10
-46.2844138491
 20
25.9600459113
 10
-46.2487015686
 20
26.2617934837
 10
-46.1875448479
 20
26.5532098264
 10
-46.0987361384
 20
26.8375535708
 10
-45.9844829886
 20
27.1115660855
 10
-45.8514080441
 20
27.3654714757
 10
-45.6991912023
 20
27.5971960485
 10
-45.5281525658
 20
27.8088134968
 10
-45.3458750887
 20
27.996769004
 10
-45.1529311945
 20
28.1598741582
 10
-44.9487484596
 20
28.2993173712
 10
-44.7391925679
 20
28.4151090629
 10
-44.5249523552
 20
28.5069904579
 10
-44.3053389857
 20
28.5752203315
 10
-44.0841516357
 20
28.6205854287
 10
-43.8616105728
 20
28.6433519377
 10
-43.6374955295
 20
28.6432536703
 10
-43.4149448787
 20
28.6202788069
 10
-43.1936930873
 20
28.5746542943
 10
-42.9740056884
 20
28.5061531858
 10
-42.7598176545
 20
28.4140828213
 10
-42.5505025046
 20
28.2981676473
 10
-42.3466867196
 20
28.1586832174
 10
-42.1541847149
 20
27.9957635324
 10
-41.9724868462
 20
27.8083389682
 10
-41.8021027577
 20
27.597479149
 10
-41.6503757973
 20
27.3665269475
 10
-41.5175316485
 20
27.1135445192
 10
-41.4033446278
 20
26.8404697087
 10
-41.3144810321
 20
26.5564589217
 10
-41.2531629602
 20
26.2645642938
 10
-41.2171683133
 20
25.9617336896
 10
-41.2064970913
 20
25.647967109
  0
LINE
  5
258
100
AcDbEntity
  8
RACCORDO
100
AcDbLine
 62
7
  6
CONTINUOUS
 10
-41.5063143394
 20
25.6532020335
 11
-41.5130244535
 21
25.4986140217
  0
LWPOLYLINE
  5
259
100
AcDbEntity
  8
RACCORDO
100
AcDbPolyline
 62
250
  6
CONTINUOUS
 90
34
 70
0
 10
-41.2064970913
 20
25.647967109
 10
-41.2268470435
 20
25.3441787178
 10
-41.2709872223
 20
25.0513911325
 10
-41.3389176276
 20
24.7696043531
 10
-41.4327828743
 20
24.4959398696
 10
-41.5504383476
 20
24.2332761921
 10
-41.6854502027
 20
23.9902488504
 10
-41.8380100624
 20
23.7687376924
 10
-42.007926304
 20
23.5668628703
 10
-42.1881902146
 20
23.3876203704
 10
-42.3782570039
 20
23.2320386918
 10
-42.5786714622
 20
23.0990893355
 10
-42.7840592479
 20
22.9886827908
 10
-42.9937997929
 20
22.9010315078
 10
-43.2085136653
 20
22.8359230364
 10
-43.4246882273
 20
22.7926305161
 10
-43.6421245591
 20
22.7709089435
 10
-43.8610215804
 20
22.7710033221
 10
-44.078463413
 20
22.7929218012
 10
-44.2946904994
 20
22.8364543797
 10
-44.5094623971
 20
22.9018110589
 10
-44.7191418997
 20
22.9896299922
 10
-44.9242909944
 20
23.1001358295
 10
-45.1243476941
 20
23.233103921
 10
-45.3139888313
 20
23.3884984709
 10
-45.4937036501
 20
23.5672440222
 10
-45.6630029063
 20
23.768416032
 10
-45.8150957
 20
23.9892050748
 10
-45.9498685184
 20
24.2313528631
 10
-46.0674348741
 20
24.4931176844
 10
-46.1613444053
 20
24.766464976
 10
-46.2294469912
 20
25.0487165501
 10
-46.2738927525
 20
25.3425505945
 10
-46.2946816892
 20
25.647967109
  0
LINE
  5
25A
100
AcDbEntity
  8
RACCORDO
100
AcDbLine
 62
7
  6
CONTINUOUS
 10
-41.5130244535
 20
25.4986140217
 11
-41.5136520483
 21
25.4895019783
  0
LINE
  5
25B
100
AcDbEntity
  8
RACCORDO
100
AcDbLine
 62
7
  6
CONTINUOUS
 10
-41.5136520483
 20
25.4895019783
 11
-41.5234713184
 21
25.3778353984
  0
LINE
  5
25C
100
AcDbEntity
  8
RACCORDO
100
AcDbLine
 62
7
  6
CONTINUOUS
 10
-41.5130703622
 20
25.4985502468
 11
-41.5293768721
 21
25.3278755313
  0
LINE
  5
25D
100
AcDbEntity
  8
RACCORDO
100
AcDbLine
 62
7
  6
CONTINUOUS
 10
-41.5234713184
 20
25.3778353984
 11
-41.5635884279
 21
25.1094099037
  0
LINE
  5
25E
100
AcDbEntity
  8
RACCORDO
100
AcDbLine
 62
7
  6
CONTINUOUS
 10
-41.5293768721
 20
25.3278755313
 11
-41.5713705616
 21
25.0756097153
  0
LWPOLYLINE
  5
25F
100
AcDbEntity
  8
RACCORDO
100
AcDbPolyline
 62
7
  6
CONTINUOUS
 90
29
 70
0
 10
-41.5635884279
 20
25.1094099037
 10
-41.6257735191
 20
24.8498376401
 10
-41.7092157383
 20
24.5997714146
 10
-41.8124680063
 20
24.3620561047
 10
-41.9329573655
 20
24.1414412143
 10
-42.0683787641
 20
23.9397109646
 10
-42.2170163952
 20
23.7568884829
 10
-42.3766198089
 20
23.5944480311
 10
-42.5448543397
 20
23.453159162
 10
-42.7200761976
 20
23.3326960645
 10
-42.9012231646
 20
23.2327262075
 10
-43.0863770809
 20
23.1533761055
 10
-43.2741413468
 20
23.0943768903
 10
-43.4645556393
 20
23.0551350663
 10
-43.6561665494
 20
23.0356009807
 10
-43.8476175202
 20
23.0357326467
 10
-44.0392334136
 20
23.0555355351
 10
-44.2296993352
 20
23.0950725497
 10
-44.417515056
 20
23.1543868532
 10
-44.6025936713
 20
23.2340122732
 10
-44.7835186354
 20
23.3341827591
 10
-44.9584180747
 20
23.4547526124
 10
-45.1262221622
 20
23.5959834539
 10
-45.2852610773
 20
23.7581033041
 10
-45.4333055915
 20
23.9403821965
 10
-45.5682677893
 20
24.1415154185
 10
-45.6884209885
 20
24.3614616165
 10
-45.7914749689
 20
24.5984924231
 10
-45.8749396078
 20
24.8482088497
  0
LWPOLYLINE
  5
260
100
AcDbEntity
  8
RACCORDO
100
AcDbPolyline
 62
7
  6
CONTINUOUS
 90
29
 70
0
 10
-41.5713705616
 20
25.0756097153
 10
-41.6328382503
 20
24.8335558743
 10
-41.7121053112
 20
24.6037407201
 10
-41.8078218153
 20
24.3868833216
 10
-41.9193112
 20
24.1827436144
 10
-42.0453251209
 20
23.9926944652
 10
-42.1845515812
 20
23.8180566386
 10
-42.3366589713
 20
23.6589577856
 10
-42.5002907468
 20
23.516686502
 10
-42.6739099561
 20
23.392559386
 10
-42.8569752287
 20
23.2871485945
 10
-43.0476840482
 20
23.2015150442
 10
-43.2441629675
 20
23.1366061511
 10
-43.4455663265
 20
23.0929862845
 10
-43.6498787997
 20
23.0710740371
 10
-43.8548349802
 20
23.07122303
 10
-44.0590250482
 20
23.0935452077
 10
-44.2602538482
 20
23.1375306579
 10
-44.4565093725
 20
23.2026506075
 10
-44.6468557845
 20
23.2885110447
 10
-44.8295817876
 20
23.3940853669
 10
-45.0028996128
 20
23.5182497353
 10
-45.1661262452
 20
23.6604836245
 10
-45.3178619834
 20
23.8194983765
 10
-45.456816347
 20
23.9940018842
 10
-45.5825435632
 20
24.1838429445
 10
-45.6937949442
 20
24.3878001833
 10
-45.7893672127
 20
24.6045456277
 10
-45.8685227947
 20
24.8341726634
  0
LWPOLYLINE
  5
261
100
AcDbEntity
  8
RACCORDO
100
AcDbPolyline
 62
7
  6
CONTINUOUS
 90
5
 70
0
 10
-57.2005893903
 20
-12.0973872904
 10
-57.2125291565
 20
-12.1181998473
 10
-57.2330299169
 20
-12.1706324034
 10
-57.2457166615
 20
-12.2258679991
 10
-57.2505893903
 20
-12.2839066344
  0
LINE
  5
262
100
AcDbEntity
  8
RACCORDO
100
AcDbLine
 62
7
  6
CONTINUOUS
 10
59.6994106097
 20
-46.4710258093
 11
56.1432181139
 21
-46.4710258093
  0
LINE
  5
263
100
AcDbEntity
  8
RACCORDO
100
AcDbLine
 62
7
  6
CONTINUOUS
 10
-53.6443968944
 20
-46.4710258093
 11
-57.2005893903
 21
-46.4710258093
  0
LINE
  5
264
100
AcDbEntity
  8
RACCORDO
100
AcDbLine
 62
7
  6
CONTINUOUS
 10
-59.1679161477
 20
-46.4605749841
 11
-57.5005893903
 21
-46.4605749841
  0
LINE
  5
265
100
AcDbEntity
  8
RACCORDO
100
AcDbLine
 62
7
  6
CONTINUOUS
 10
59.9994106097
 20
-46.4605749841
 11
61.6667373672
 21
-46.4605749841
  0
LINE
  5
266
100
AcDbEntity
  8
DRAFT
100
AcDbLine
 62
250
  6
CONTINUOUS
 10
-55.094662746
 20
-43.3558545738
 11
-57.2005893903
 21
-43.3558545738
  0
LINE
  5
267
100
AcDbEntity
  8
DRAFT
100
AcDbLine
 62
250
  6
CONTINUOUS
 10
57.5934839655
 20
-43.3558545738
 11
59.6994106097
 21
-43.3558545738
  0
LINE
  5
268
100
AcDbEntity
  8
RACCORDO
100
AcDbLine
 62
250
  6
CONTINUOUS
 10
-59.6796451247
 20
-43.1134506973
 11
-57.5005893903
 21
-43.1134506973
  0
LINE
  5
269
100
AcDbEntity
  8
RACCORDO
100
AcDbLine
 62
250
  6
CONTINUOUS
 10
59.9994106097
 20
-43.1134506973
 11
62.1784663442
 21
-43.1134506973
  0
LINE
  5
26A
100
AcDbEntity
  8
0
100
AcDbLine
 62
250
  6
CONTINUOUS
 10
-57.2505893903
 20
-40.2957576611
 11
-57.2005893903
 21
-40.2957576611
  0
LINE
  5
26B
100
AcDbEntity
  8
0
100
AcDbLine
 62
250
  6
CONTINUOUS
 10
59.6994106097
 20
-40.2957576611
 11
59.7494106097
 21
-40.2957576611
  0
LINE
  5
26C
100
AcDbEntity
  8
0
100
AcDbLine
 62
7
  6
CONTINUOUS
 10
18.4049186097
 20
-38.1205459261
 11
20.4324156097
 21
-38.1205260075
  0
LINE
  5
26D
100
AcDbEntity
  8
0
100
AcDbLine
 62
7
  6
CONTINUOUS
 10
4.4500356097
 20
-38.1205649787
 11
6.2501026097
 21
-38.1205459261
  0
LINE
  5
26E
100
AcDbEntity
  8
0
100
AcDbLine
 62
7
  6
CONTINUOUS
 10
-5.5538923903
 20
-38.1205649787
 11
-3.7538243903
 21
-38.1205649787
  0
LINE
  5
26F
100
AcDbEntity
  8
0
100
AcDbLine
 62
7
  6
CONTINUOUS
 10
1.4499306097
 20
-38.1205649787
 11
3.2499986097
 21
-38.1205649787
  0
LINE
  5
270
100
AcDbEntity
  8
0
100
AcDbLine
 62
7
  6
CONTINUOUS
 10
13.2296706097
 20
-38.1205459261
 11
15.0297616097
 21
-38.1205459261
  0
LINE
  5
271
100
AcDbEntity
  8
0
100
AcDbLine
 62
7
  6
CONTINUOUS
 10
-2.0519693903
 20
-38.1205649787
 11
-0.2519463903
 21
-38.1205459261
  0
LINE
  5
272
100
AcDbEntity
  8
0
100
AcDbLine
 62
7
  6
CONTINUOUS
 10
-9.1539813903
 20
-38.1205848973
 11
-7.3539143903
 21
-38.1205649787
  0
LINE
  5
273
100
AcDbEntity
  8
0
100
AcDbLine
 62
7
  6
CONTINUOUS
 10
10.2295426097
 20
-38.1205459261
 11
12.0296336097
 21
-38.1205649787
  0
LINE
  5
274
100
AcDbEntity
  8
0
100
AcDbLine
 62
7
  6
CONTINUOUS
 10
-15.0438743903
 20
-38.1205848973
 11
-13.2437403903
 21
-38.1205649787
  0
LINE
  5
275
100
AcDbEntity
  8
RACCORDO
100
AcDbLine
 62
250
  6
CONTINUOUS
 10
-59.5299555462
 20
-37.2957576611
 11
-57.5005893903
 21
-37.2957576611
  0
LINE
  5
276
100
AcDbEntity
  8
DRAFT
100
AcDbLine
 62
250
  6
CONTINUOUS
 10
59.6994106097
 20
-37.2957576611
 11
57.7494106097
 21
-37.2957576611
  0
LINE
  5
277
100
AcDbEntity
  8
DRAFT
100
AcDbLine
 62
250
  6
CONTINUOUS
 10
-57.2005893903
 20
-37.2957576611
 11
-55.2505893903
 21
-37.2957576611
  0
LINE
  5
278
100
AcDbEntity
  8
RACCORDO
100
AcDbLine
 62
250
  6
CONTINUOUS
 10
59.9994106097
 20
-37.2957576611
 11
62.0287767657
 21
-37.2957576611
  0
LINE
  5
279
100
AcDbEntity
  8
RACCORDO
100
AcDbLine
 62
7
  6
CONTINUOUS
 10
-45.8685227947
 20
24.8341726634
 11
-45.9299032623
 21
25.0759756784
  0
LINE
  5
27A
100
AcDbEntity
  8
RACCORDO
100
AcDbLine
 62
7
  6
CONTINUOUS
 10
-45.8749396078
 20
24.8482088497
 11
-45.9372992858
 21
25.1079191518
  0
LINE
  5
27B
100
AcDbEntity
  8
RACCORDO
100
AcDbLine
 62
7
  6
CONTINUOUS
 10
-45.9299032623
 20
25.0759756784
 11
-45.9718438796
 21
25.3280036833
  0
LINE
  5
27C
100
AcDbEntity
  8
RACCORDO
100
AcDbLine
 62
7
  6
CONTINUOUS
 10
-45.9372992858
 20
25.1079191518
 11
-45.977606426
 21
25.3768859072
  0
LINE
  5
27D
100
AcDbEntity
  8
0
100
AcDbLine
 62
7
  6
CONTINUOUS
 10
-8.8812027723
 20
41.8260455611
 11
-8.7679318431
 21
41.9776028338
  0
LINE
  5
27E
100
AcDbEntity
  8
0
100
AcDbLine
 62
7
  6
CONTINUOUS
 10
-7.0701783903
 20
32.6859814945
 11
-10.0176243903
 21
31.5777608282
  0
LINE
  5
27F
100
AcDbEntity
  8
0
100
AcDbLine
 62
7
  6
CONTINUOUS
 10
6.8183856097
 20
-36.5876930858
 11
9.6612826097
 21
-36.5876930858
  0
LINE
  5
280
100
AcDbEntity
  8
0
100
AcDbLine
 62
7
  6
CONTINUOUS
 10
9.1121936097
 20
-35.1067324876
 11
7.3674536097
 21
-35.1067324876
  0
LINE
  5
281
100
AcDbEntity
  8
0
100
AcDbLine
 62
7
  6
CONTINUOUS
 10
15.0299626097
 20
-35.106712569
 11
16.6010256097
 21
-35.1067324876
  0
LINE
  5
282
100
AcDbEntity
  8
0
100
AcDbLine
 62
7
  6
CONTINUOUS
 10
17.1950110722
 20
-33.664721382
 11
15.0049426097
 21
-33.664721382
  0
LINE
  5
283
100
AcDbEntity
  8
0
100
AcDbLine
 62
7
  6
CONTINUOUS
 10
15.0049216097
 20
-31.7679568728
 11
17.1949638999
 21
-31.7679568728
  0
LINE
  5
284
100
AcDbEntity
  8
0
100
AcDbLine
 62
7
  6
CONTINUOUS
 10
-9.012821797
 20
41.6023365803
 11
-8.8812027723
 21
41.8260455611
  0
LINE
  5
285
100
AcDbEntity
  8
0
100
AcDbLine
 62
7
  6
CONTINUOUS
 10
-10.6799373903
 20
29.3987759604
 11
-7.7223213903
 21
30.5108201288
  0
LINE
  5
286
100
AcDbEntity
  8
0
100
AcDbLine
 62
7
  6
CONTINUOUS
 10
0.9852686097
 20
32.6859814945
 11
-1.8884023903
 21
31.6054987559
  0
LINE
  5
287
100
AcDbEntity
  8
0
100
AcDbLine
 62
7
  6
CONTINUOUS
 10
-8.1645803903
 20
29.0357147284
 11
-11.1686763903
 21
27.9061933013
  0
LINE
  5
288
100
AcDbEntity
  8
0
100
AcDbLine
 62
7
  6
CONTINUOUS
 10
3.2499986097
 20
-30.3259856043
 11
0.5287796097
 21
-30.3259856043
  0
LINE
  5
289
100
AcDbEntity
  8
0
100
AcDbLine
 62
7
  6
CONTINUOUS
 10
-2.8326743903
 20
-30.3259856043
 11
-5.5538923903
 21
-30.3259856043
  0
LINE
  5
28A
100
AcDbEntity
  8
0
100
AcDbLine
 62
7
  6
CONTINUOUS
 10
-7.3538923903
 20
-30.3259856043
 11
-9.1539603903
 21
-30.3259856043
  0
LINE
  5
28B
100
AcDbEntity
  8
0
100
AcDbLine
 62
7
  6
CONTINUOUS
 10
-10.3539973903
 20
-30.3259856043
 11
-12.1540863903
 21
-30.3259856043
  0
LINE
  5
28C
100
AcDbEntity
  8
0
100
AcDbLine
 62
7
  6
CONTINUOUS
 10
-16.1335043903
 20
-30.3259856043
 11
-17.9335943903
 21
-30.3259856043
  0
LINE
  5
28D
100
AcDbEntity
  8
0
100
AcDbLine
 62
7
  6
CONTINUOUS
 10
17.444860677
 20
-30.3259656857
 11
13.2296706097
 21
-30.3259656857
  0
LINE
  5
28E
100
AcDbEntity
  8
0
100
AcDbLine
 62
7
  6
CONTINUOUS
 10
9.1398906097
 20
-30.3259656857
 11
7.3397336097
 21
-30.3259656857
  0
LINE
  5
28F
100
AcDbEntity
  8
0
100
AcDbLine
 62
7
  6
CONTINUOUS
 10
-17.9335943903
 20
-30.3259856043
 11
-15.0438743903
 21
-38.1205848973
  0
LINE
  5
290
100
AcDbEntity
  8
0
100
AcDbLine
 62
7
  6
CONTINUOUS
 10
-14.1437843903
 20
-35.6929745283
 11
-16.1335043903
 21
-30.3259856043
  0
LINE
  5
291
100
AcDbEntity
  8
0
100
AcDbLine
 62
7
  6
CONTINUOUS
 10
-9.0661294929
 20
41.4826143259
 11
-9.012821797
 21
41.6023365803
  0
LWPOLYLINE
  5
292
100
AcDbEntity
  8
ASSI
100
AcDbPolyline
 62
7
  6
CONTINUOUS
 90
38
 70
0
 10
5.2588162382
 20
54.5886220302
 10
5.1486150228
 20
54.3916858319
 10
5.0159365918
 20
54.1938313817
 10
4.8620929301
 20
53.9958146782
 10
4.6903775606
 20
53.8030925942
 10
4.5010216099
 20
53.6178700938
 10
4.2937939514
 20
53.4400642498
 10
4.0712947279
 20
53.2720543003
 10
3.8360462752
 20
53.1151937169
 10
3.5855262575
 20
52.9697715464
 10
3.3147678101
 20
52.8365146599
 10
3.0196410778
 20
52.7136410153
 10
2.7042759158
 20
52.603969204
 10
2.3760950258
 20
52.5152099509
 10
2.0336984232
 20
52.4491726852
 10
1.6784860926
 20
52.4049203035
 10
1.3220806885
 20
52.3860813288
 10
0.9646262616
 20
52.3945196113
 10
0.6059787612
 20
52.4284354784
 10
0.2573286902
 20
52.4857775027
 10
-0.0808575074
 20
52.5678834257
 10
-0.4090462756
 20
52.6725824321
 10
-0.7174464435
 20
52.7925330057
 10
-1.001810874
 20
52.9254818267
 10
-1.2663867043
 20
53.0725276799
 10
-1.5141241747
 20
53.2314538035
 10
-1.7466806378
 20
53.401548533
 10
-1.9623987411
 20
53.5818471057
 10
-2.1592566672
 20
53.7697638829
 10
-2.337570698
 20
53.9652120668
 10
-2.4970245517
 20
54.1661152502
 10
-2.6346475652
 20
54.3672394733
 10
-2.7492794173
 20
54.5678432607
 10
-2.8420804292
 20
54.7668132022
 10
-2.9135609023
 20
54.9591882787
 10
-2.9638909371
 20
55.1432267877
 10
-2.9929004331
 20
55.319822267
 10
-3.0005893903
 20
55.4884856067
  0
LINE
  5
293
100
AcDbEntity
  8
0
100
AcDbLine
 62
7
  6
CONTINUOUS
 10
4.0439416097
 20
25.4564144141
 11
2.6044756097
 21
24.9151823117
  0
LINE
  5
294
100
AcDbEntity
  8
0
100
AcDbLine
 62
7
  6
CONTINUOUS
 10
-8.9025365241
 20
41.3535750214
 11
-8.9289948694
 21
41.2041110728
  0
LINE
  5
295
100
AcDbEntity
  8
0
100
AcDbLine
 62
7
  6
CONTINUOUS
 10
-8.8786020219
 20
41.4676903546
 11
-8.8159850633
 21
41.8176903546
  0
LWPOLYLINE
  5
296
100
AcDbEntity
  8
0
100
AcDbPolyline
 62
7
  6
CONTINUOUS
 90
3
 70
0
 10
-8.9025761956
 20
41.353258914
 10
-8.8991320022
 20
41.3721487622
 10
-8.8786020219
 20
41.4676903546
  0
LINE
  5
297
100
AcDbEntity
  8
0
100
AcDbLine
 62
7
  6
CONTINUOUS
 10
-10.3538733903
 20
21.7335400782
 11
-8.1645803903
 21
29.0357147284
  0
LINE
  5
298
100
AcDbEntity
  8
0
100
AcDbLine
 62
7
  6
CONTINUOUS
 10
-7.7223213903
 20
30.5108201288
 11
-7.0701783903
 21
32.6859814945
  0
LINE
  5
299
100
AcDbEntity
  8
0
100
AcDbLine
 62
7
  6
CONTINUOUS
 10
-11.1686763903
 20
27.9061933013
 11
-13.0448833903
 21
21.7335400782
  0
LINE
  5
29A
100
AcDbEntity
  8
0
100
AcDbLine
 62
7
  6
CONTINUOUS
 10
-10.0176243903
 20
31.5777608282
 11
-10.6799373903
 21
29.3987759604
  0
LINE
  5
29B
100
AcDbEntity
  8
0
100
AcDbLine
 62
7
  6
CONTINUOUS
 10
6.487178203
 20
41.6023365803
 11
6.6187972277
 21
41.8260455611
  0
LINE
  5
29C
100
AcDbEntity
  8
0
100
AcDbLine
 62
7
  6
CONTINUOUS
 10
6.6187972277
 20
41.8260455611
 11
6.7320681569
 21
41.9776028338
  0
LINE
  5
29D
100
AcDbEntity
  8
0
100
AcDbLine
 62
7
  6
CONTINUOUS
 10
2.2458513483
 20
23.8113644203
 11
6.7111026097
 21
25.4902716772
  0
LINE
  5
29E
100
AcDbEntity
  8
0
100
AcDbLine
 62
7
  6
CONTINUOUS
 10
8.1366396097
 20
26.0262643259
 11
10.8418540752
 21
27.0434087396
  0
LINE
  5
29F
100
AcDbEntity
  8
0
100
AcDbLine
 62
7
  6
CONTINUOUS
 10
6.2916846097
 20
24.0913392733
 11
3.3533948742
 21
22.9865607814
  0
LINE
  5
2A0
100
AcDbEntity
  8
0
100
AcDbLine
 62
7
  6
CONTINUOUS
 10
12.1028216097
 20
26.2762919222
 11
7.7172196097
 21
24.627331922
  0
LINE
  5
2A1
100
AcDbEntity
  8
0
100
AcDbLine
 62
7
  6
CONTINUOUS
 10
10.3995996097
 20
24.7698519906
 11
11.8101836097
 21
25.3002232684
  0
LWPOLYLINE
  5
2A2
100
AcDbEntity
  8
0
100
AcDbPolyline
 62
7
  6
CONTINUOUS
 90
10
 70
0
 10
4.7755546097
 20
21.7335400782
 10
4.948610866
 20
21.7862265815
 10
5.1088284962
 20
21.8512977541
 10
5.2562075004
 20
21.9287535961
 10
5.3916730144
 20
22.020413531
 10
5.5142999023
 20
22.1244581353
 10
5.6213127563
 20
22.2354291382
 10
5.7117864406
 20
22.3515071163
 10
5.7866460909
 20
22.4745114929
 10
5.8458917075
 20
22.6044422683
  0
LINE
  5
2A3
100
AcDbEntity
  8
0
100
AcDbLine
 62
7
  6
CONTINUOUS
 10
-9.1539603903
 20
-30.3259856043
 11
-9.1539813903
 21
-38.1205848973
  0
LWPOLYLINE
  5
2A4
100
AcDbEntity
  8
0
100
AcDbPolyline
 62
7
  6
CONTINUOUS
 90
3
 70
0
 10
-8.9233865273
 20
41.1932386661
 10
-8.9145294875
 20
41.2762654436
 10
-8.9025761956
 20
41.353258914
  0
LWPOLYLINE
  5
2A5
100
AcDbEntity
  8
0
100
AcDbPolyline
 62
7
  6
CONTINUOUS
 90
16
 70
0
 10
-8.4053653903
 20
23.2366735247
 10
-8.4199512077
 20
23.1107904146
 10
-8.4209209671
 20
22.9856811725
 10
-8.4082746687
 20
22.8613457984
 10
-8.3819647604
 20
22.7365847232
 10
-8.3420387941
 20
22.6125975159
 10
-8.288639426
 20
22.4929828843
 10
-8.2218466173
 20
22.3780912655
 10
-8.1415804067
 20
22.2675722224
 10
-8.0477435661
 20
22.1639731511
 10
-7.9393518907
 20
22.0666340299
 10
-7.8173895852
 20
21.9762148805
 10
-7.6847120359
 20
21.8972431645
 10
-7.5422710382
 20
21.8312280357
 10
-7.3891147967
 20
21.7766603402
 10
-7.2252433114
 20
21.7335400782
  0
LWPOLYLINE
  5
2A6
100
AcDbEntity
  8
ASSI
100
AcDbPolyline
 62
7
  6
CONTINUOUS
 90
7
 70
0
 10
-3.0005893903
 20
56.6845308309
 10
-2.9977343773
 20
56.7056519245
 10
-2.98737546
 20
56.7221324185
 10
-2.9695126383
 20
56.7340077728
 10
-2.9443340442
 20
56.7413287632
 10
-2.9116515456
 20
56.7440990919
 10
-2.9071445936
 20
56.7441276768
  0
LWPOLYLINE
  5
2A7
100
AcDbEntity
  8
RACCORDO
100
AcDbPolyline
 62
7
  6
CONTINUOUS
 90
17
 70
0
 10
-3.6345258324
 20
42.605045966
 10
-3.6809835003
 20
42.2944341997
 10
-3.751268266
 20
41.992760681
 10
-3.8442982917
 20
41.7020808058
 10
-3.9590272598
 20
41.4240845949
 10
-4.0944125492
 20
41.1603410349
 10
-4.2492326046
 20
40.9127160972
 10
-4.4222473
 20
40.6829252667
 10
-4.612117532
 20
40.472504491
 10
-4.8172843593
 20
40.2830825384
 10
-5.035970211
 20
40.1163440242
 10
-5.2657977097
 20
39.97377413
 10
-5.5044064563
 20
39.8564332728
 10
-5.7495066573
 20
39.7651480891
 10
-5.9981514427
 20
39.7002225101
 10
-6.247672104
 20
39.6615608388
 10
-6.5005892594
 20
39.6486368822
  0
LINE
  5
2A8
100
AcDbEntity
  8
0
100
AcDbLine
 62
7
  6
CONTINUOUS
 10
-6.8990475755
 20
28.2608517371
 11
-8.4053653903
 21
23.2366735247
  0
LINE
  5
2A9
100
AcDbEntity
  8
0
100
AcDbLine
 62
7
  6
CONTINUOUS
 10
-5.8198743903
 20
23.2998812548
 11
-4.4388396607
 21
27.9061923992
  0
LINE
  5
2AA
100
AcDbEntity
  8
0
100
AcDbLine
 62
7
  6
CONTINUOUS
 10
-2.9719043903
 20
28.2698746074
 11
-4.700632465
 21
22.5038720236
  0
LINE
  5
2AB
100
AcDbEntity
  8
0
100
AcDbLine
 62
7
  6
CONTINUOUS
 10
-1.8884023903
 20
31.6054987559
 11
-2.6936373903
 21
29.0357147284
  0
LINE
  5
2AC
100
AcDbEntity
  8
0
100
AcDbLine
 62
7
  6
CONTINUOUS
 10
6.4338705071
 20
41.4826143259
 11
6.487178203
 21
41.6023365803
  0
LWPOLYLINE
  5
2AD
100
AcDbEntity
  8
0
100
AcDbPolyline
 62
7
  6
CONTINUOUS
 90
19
 70
0
 10
10.8418540752
 20
27.0434087396
 10
10.9572915125
 20
27.1340403397
 10
11.0564730091
 20
27.2316947423
 10
11.139398565
 20
27.3363719472
 10
11.1989677468
 20
27.4520476795
 10
11.2422809879
 20
27.5747462141
 10
11.2906395887
 20
27.6925403766
 10
11.3475654781
 20
27.8039537647
 10
11.4095367273
 20
27.9104627806
 10
11.48728885
 20
28.0045694566
 10
11.5862449903
 20
28.0831429872
 10
11.7009820042
 20
28.1493141779
 10
11.825965974
 20
28.2049774781
 10
11.9621387896
 20
28.2521759481
 10
12.108558561
 20
28.2888665275
 10
12.2568657008
 20
28.3108144839
 10
12.4042736798
 20
28.3166082397
 10
12.5535690271
 20
28.3076593726
 10
12.7047517427
 20
28.2839678823
  0
LINE
  5
2AE
100
AcDbEntity
  8
0
100
AcDbLine
 62
7
  6
CONTINUOUS
 10
-3.7538243903
 20
-32.9805639111
 11
-2.0519693903
 21
-38.1205649787
  0
LINE
  5
2AF
100
AcDbEntity
  8
0
100
AcDbLine
 62
7
  6
CONTINUOUS
 10
-1.1519463903
 20
-35.4020939157
 11
-2.8326743903
 21
-30.3259856043
  0
LINE
  5
2B0
100
AcDbEntity
  8
RACCORDO
100
AcDbLine
 62
7
  6
CONTINUOUS
 10
-9.3826852643
 20
42.795333414
 11
-9.3827752594
 21
42.7968422498
  0
LWPOLYLINE
  5
2B1
100
AcDbEntity
  8
RACCORDO
100
AcDbPolyline
 62
7
  6
CONTINUOUS
 90
22
 70
0
 10
-9.3827752594
 20
42.7968422498
 10
-9.3869280299
 20
42.8816685949
 10
-9.3873070564
 20
43.1841795344
 10
-9.3652743535
 20
43.4839685107
 10
-9.3212473537
 20
43.7792708293
 10
-9.2558185607
 20
44.0685320299
 10
-9.1702837543
 20
44.3466862179
 10
-9.066114381
 20
44.6117748661
 10
-8.9445868808
 20
44.8632468801
 10
-8.8073913486
 20
45.0984733322
 10
-8.6561939257
 20
45.316351602
 10
-8.4926137811
 20
45.5164785514
 10
-8.3184677409
 20
45.6975785184
 10
-8.1358235376
 20
45.8588723374
 10
-7.9459955306
 20
46.0006680594
 10
-7.7495256592
 20
46.1233713501
 10
-7.5476886647
 20
46.2268831218
 10
-7.3420400253
 20
46.3111296723
 10
-7.1333039661
 20
46.3764022851
 10
-6.9225507624
 20
46.4228111229
 10
-6.711242867
 20
46.4504125174
 10
-6.5005893903
 20
46.4594292474
  0
LINE
  5
2B2
100
AcDbEntity
  8
0
100
AcDbLine
 62
7
  6
CONTINUOUS
 10
-7.3539143903
 20
-38.1205649787
 11
-7.3538923903
 21
-30.3259856043
  0
LINE
  5
2B3
100
AcDbEntity
  8
0
100
AcDbLine
 62
7
  6
CONTINUOUS
 10
-5.5538923903
 20
-30.3259856043
 11
-5.5538923903
 21
-38.1205649787
  0
LINE
  5
2B4
100
AcDbEntity
  8
0
100
AcDbLine
 62
7
  6
CONTINUOUS
 10
-3.7538243903
 20
-38.1205649787
 11
-3.7538243903
 21
-32.9805639111
  0
LINE
  5
2B5
100
AcDbEntity
  8
RACCORDO
100
AcDbLine
 62
7
  6
CONTINUOUS
 10
-3.618407288
 20
42.7967789045
 11
-3.6184445901
 21
42.796152519
  0
LWPOLYLINE
  5
2B6
100
AcDbEntity
  8
RACCORDO
100
AcDbPolyline
 62
7
  6
CONTINUOUS
 90
20
 70
0
 10
-3.6184398512
 20
42.7961284647
 10
-3.6362923607
 20
42.5878721004
 10
-3.6805618879
 20
42.2924302343
 10
-3.7462928424
 20
42.0031024726
 10
-3.8320498052
 20
41.724911872
 10
-3.9364480011
 20
41.4596855068
 10
-4.0582708279
 20
41.2080615953
 10
-4.195610747
 20
40.9728553287
 10
-4.3467454958
 20
40.7551984751
 10
-4.5101727927
 20
40.5553581744
 10
-4.6840958377
 20
40.3744920079
 10
-4.8665696577
 20
40.2132839546
 10
-5.0563048759
 20
40.0714859069
 10
-5.252628321
 20
39.9487865151
 10
-5.4543006786
 20
39.8452706458
 10
-5.6598380604
 20
39.7609943563
 10
-5.8684071458
 20
39.6957132786
 10
-6.0789282328
 20
39.6493119226
 10
-6.2900420104
 20
39.6217064641
 10
-6.5005893903
 20
39.6126742949
  0
LWPOLYLINE
  5
2B7
100
AcDbEntity
  8
0
100
AcDbPolyline
 62
7
  6
CONTINUOUS
 90
4
 70
0
 10
2.1490167928
 20
23.5894465801
 10
2.1698435939
 20
23.6687171631
 10
2.202121779
 20
23.7426897765
 10
2.2458513483
 20
23.8113644203
  0
LINE
  5
2B8
100
AcDbEntity
  8
0
100
AcDbLine
 62
7
  6
CONTINUOUS
 10
-2.2984253903
 20
21.7335400782
 11
0.9852686097
 21
32.6859814945
  0
LINE
  5
2B9
100
AcDbEntity
  8
0
100
AcDbLine
 62
7
  6
CONTINUOUS
 10
1.0627435609
 20
28.3697921257
 11
-0.5634843903
 21
22.9456647403
  0
LINE
  5
2BA
100
AcDbEntity
  8
0
100
AcDbLine
 62
7
  6
CONTINUOUS
 10
2.6044756097
 20
24.9151823117
 11
3.4568333033
 21
27.7581400403
  0
LWPOLYLINE
  5
2BB
100
AcDbEntity
  8
0
100
AcDbPolyline
 62
7
  6
CONTINUOUS
 90
34
 70
0
 10
3.3533948742
 20
22.9865607814
 10
3.3351817215
 20
22.9354551296
 10
3.3181463391
 20
22.884523875
 10
3.3022887271
 20
22.8337670175
 10
3.2896804765
 20
22.7823219263
 10
3.2782499963
 20
22.7310512322
 10
3.2617825133
 20
22.6825428279
 10
3.2383897277
 20
22.6363379762
 10
3.2099599393
 20
22.5928954142
 10
3.1759432743
 20
22.5561792463
 10
3.1354580731
 20
22.5272988849
 10
3.0893859954
 20
22.5051449175
 10
3.0398221455
 20
22.4903532104
 10
2.9864646022
 20
22.4827192005
 10
2.9296152867
 20
22.4824474509
 10
2.872275067
 20
22.4907875169
 10
2.8152654515
 20
22.5097799782
 10
2.7577649316
 20
22.5373842551
 10
2.70030985
 20
22.5687281641
 10
2.6430725558
 20
22.6018824212
 10
2.5858806997
 20
22.6387763105
 10
2.5287535764
 20
22.6803255007
 10
2.470273815
 20
22.7259185808
 10
2.4118587862
 20
22.7761669618
 10
2.3577798969
 20
22.8338205453
 10
2.3086336753
 20
22.9005701908
 10
2.263823593
 20
22.9747250388
 10
2.2258314716
 20
23.0539624128
 10
2.1953735766
 20
23.1390646712
 10
2.1717336424
 20
23.2292494555
 10
2.1552446944
 20
23.3198470138
 10
2.144584275
 20
23.4112043431
 10
2.1410748419
 20
23.5029744464
 10
2.1490167928
 20
23.5894465801
  0
LWPOLYLINE
  5
2BC
100
AcDbEntity
  8
RACCORDO
100
AcDbPolyline
 62
250
  6
CONTINUOUS
 90
5
 70
0
 10
59.8387120866
 20
32.6065485704
 10
59.8744089028
 20
32.6190463777
 10
59.9139041101
 20
32.6282550063
 10
59.9559976781
 20
32.633894586
 10
59.9994106095
 20
32.6357936952
  0
LINE
  5
2BD
100
AcDbEntity
  8
0
100
AcDbLine
 62
7
  6
CONTINUOUS
 10
16.6010256097
 20
-35.1067324876
 11
18.4049186097
 21
-38.1205459261
  0
LINE
  5
2BE
100
AcDbEntity
  8
0
100
AcDbLine
 62
7
  6
CONTINUOUS
 10
8.2398016097
 20
-32.7535760547
 11
9.1121936097
 21
-35.1067324876
  0
LINE
  5
2BF
100
AcDbEntity
  8
0
100
AcDbLine
 62
7
  6
CONTINUOUS
 10
9.6612826097
 20
-36.5876930858
 11
10.2295426097
 21
-38.1205459261
  0
LINE
  5
2C0
100
AcDbEntity
  8
ASSI
100
AcDbLine
 62
7
  6
CONTINUOUS
 10
-3.0005893903
 20
55.4884856067
 11
-3.0005893903
 21
56.6845308309
  0
LINE
  5
2C1
100
AcDbEntity
  8
0
100
AcDbLine
 62
7
  6
CONTINUOUS
 10
1.4499076097
 20
-32.9805639111
 11
1.4499306097
 21
-38.1205649787
  0
LINE
  5
2C2
100
AcDbEntity
  8
0
100
AcDbLine
 62
7
  6
CONTINUOUS
 10
6.5974634759
 20
41.3535750214
 11
6.5710051306
 21
41.2041110728
  0
LINE
  5
2C3
100
AcDbEntity
  8
0
100
AcDbLine
 62
7
  6
CONTINUOUS
 10
6.6213979781
 20
41.4676903546
 11
6.6840149367
 21
41.8176903546
  0
LWPOLYLINE
  5
2C4
100
AcDbEntity
  8
0
100
AcDbPolyline
 62
7
  6
CONTINUOUS
 90
3
 70
0
 10
6.5974238044
 20
41.353258914
 10
6.6008679978
 20
41.3721487622
 10
6.6213979781
 20
41.4676903546
  0
LWPOLYLINE
  5
2C5
100
AcDbEntity
  8
0
100
AcDbPolyline
 62
7
  6
CONTINUOUS
 90
19
 70
0
 10
7.2931816097
 20
27.4317386858
 10
7.3226097633
 20
27.5518385792
 10
7.338752445
 20
27.6719888685
 10
7.3416096546
 20
27.7921895537
 10
7.3312511458
 20
27.9133915232
 10
7.307607165
 20
28.0346438886
 10
7.2704684515
 20
28.1530939848
 10
7.2196993778
 20
28.2688042496
 10
7.1554355714
 20
28.3817122452
 10
7.0778746542
 20
28.4887779922
 10
6.9865411045
 20
28.5903404683
 10
6.8819104441
 20
28.6860606958
 10
6.7656068609
 20
28.7718817637
 10
6.6366025814
 20
28.8477512667
 10
6.495925379
 20
28.91372161
 10
6.3482827623
 20
28.9658930974
 10
6.1952439007
 20
29.0029658303
 10
6.0352396248
 20
29.0262397073
 10
5.8682699345
 20
29.0357147284
  0
LINE
  5
2C6
100
AcDbEntity
  8
0
100
AcDbLine
 62
7
  6
CONTINUOUS
 10
4.8811806097
 20
28.2489401754
 11
4.0439416097
 21
25.4564144141
  0
LINE
  5
2C7
100
AcDbEntity
  8
0
100
AcDbLine
 62
7
  6
CONTINUOUS
 10
5.8458917075
 20
22.6044422683
 11
6.2916846097
 21
24.0913392733
  0
LINE
  5
2C8
100
AcDbEntity
  8
0
100
AcDbLine
 62
7
  6
CONTINUOUS
 10
6.7111026097
 20
25.4902716772
 11
7.2931816097
 21
27.4317386858
  0
LINE
  5
2C9
100
AcDbEntity
  8
0
100
AcDbLine
 62
7
  6
CONTINUOUS
 10
7.7172196097
 20
24.627331922
 11
7.2880396097
 21
23.1958447571
  0
LINE
  5
2CA
100
AcDbEntity
  8
0
100
AcDbLine
 62
7
  6
CONTINUOUS
 10
8.7292831916
 20
28.0029717843
 11
8.1366396097
 21
26.0262643259
  0
LINE
  5
2CB
100
AcDbEntity
  8
0
100
AcDbLine
 62
7
  6
CONTINUOUS
 10
-12.1540863903
 20
-30.3259856043
 11
-14.1437843903
 21
-35.6929745283
  0
LINE
  5
2CC
100
AcDbEntity
  8
0
100
AcDbLine
 62
7
  6
CONTINUOUS
 10
-13.2437403903
 20
-38.1205649787
 11
-10.3539973903
 21
-30.3259856043
  0
LWPOLYLINE
  5
2CD
100
AcDbEntity
  8
RACCORDO
100
AcDbPolyline
 62
250
  6
CONTINUOUS
 90
24
 70
0
 10
-52.1016112628
 20
56.7441277284
 10
-52.0872174941
 20
56.7276388148
 10
-52.07158904
 20
56.6689954692
 10
-52.0567760132
 20
56.5681935429
 10
-52.0427640371
 20
56.4257233302
 10
-52.0297542853
 20
56.242391078
 10
-52.0177660801
 20
56.0192490096
 10
-52.0067800993
 20
55.757362512
 10
-51.9969395498
 20
55.4578267408
 10
-51.9882575135
 20
55.1220518245
 10
-51.9807209084
 20
54.7516184199
 10
-51.9744336964
 20
54.3479847916
 10
-51.9694107817
 20
53.9127981805
 10
-51.96563726
 20
53.4482144278
 10
-51.9631723801
 20
52.9566651825
 10
-51.962037932
 20
52.4404407982
 10
-51.9622121256
 20
51.9019971284
 10
-51.9636888395
 20
51.3442836104
 10
-51.9664855048
 20
50.7702320748
 10
-51.9705846904
 20
50.1823255336
 10
-51.9759279805
 20
49.582964829
 10
-51.9824959034
 20
48.9748368617
 10
-51.990307931
 20
48.3609288454
 10
-51.9993640631
 20
47.7441278253
  0
LINE
  5
2CE
100
AcDbEntity
  8
0
100
AcDbLine
 62
7
  6
CONTINUOUS
 10
20.4324156097
 20
-38.1205260075
 11
18.5163352279
 21
-34.9192548543
  0
LINE
  5
2CF
100
AcDbEntity
  8
0
100
AcDbLine
 62
7
  6
CONTINUOUS
 10
12.0296336097
 20
-38.1205649787
 11
9.1398906097
 21
-30.3259656857
  0
LWPOLYLINE
  5
2D0
100
AcDbEntity
  8
0
100
AcDbPolyline
 62
7
  6
CONTINUOUS
 90
16
 70
0
 10
-5.8198743903
 20
23.2998812548
 10
-5.8052122166
 20
23.2148206064
 10
-5.7811645522
 20
23.1320449842
 10
-5.747731397
 20
23.0515543883
 10
-5.7047515118
 20
22.9724324891
 10
-5.6523861358
 20
22.8955956161
 10
-5.5911189868
 20
22.8237927577
 10
-5.5208350419
 20
22.7571229006
 10
-5.4416493239
 20
22.695487058
 10
-5.3543906193
 20
22.6413372573
 10
-5.2579400337
 20
22.5945529656
 10
-5.1534164614
 20
22.5552547158
 10
-5.0450053715
 20
22.5262561341
 10
-4.9341019203
 20
22.5084950958
 10
-4.8193109515
 20
22.5010337257
 10
-4.700632465
 20
22.5038720236
  0
LINE
  5
2D1
100
AcDbEntity
  8
0
100
AcDbLine
 62
7
  6
CONTINUOUS
 10
3.2499986097
 20
-38.1205649787
 11
3.2499986097
 21
-30.3259856043
  0
LINE
  5
2D2
100
AcDbEntity
  8
ASSI
100
AcDbLine
 62
7
  6
CONTINUOUS
 10
5.4994106097
 20
56.6845308309
 11
5.4994106097
 21
55.4884856067
  0
LWPOLYLINE
  5
2D3
100
AcDbEntity
  8
ASSI
100
AcDbPolyline
 62
7
  6
CONTINUOUS
 90
6
 70
0
 10
5.4994106097
 20
55.4884856067
 10
5.4922516746
 20
55.3240566771
 10
5.4645699411
 20
55.1517391811
 10
5.4163654091
 20
54.9719387529
 10
5.3478522229
 20
54.7836754085
 10
5.2588162382
 20
54.5886220302
  0
LWPOLYLINE
  5
2D4
100
AcDbEntity
  8
0
100
AcDbPolyline
 62
7
  6
CONTINUOUS
 90
3
 70
0
 10
6.5766134727
 20
41.1932386661
 10
6.5854705125
 20
41.2762654436
 10
6.5974238044
 20
41.353258914
  0
LWPOLYLINE
  5
2D5
100
AcDbEntity
  8
RACCORDO
100
AcDbPolyline
 62
7
  6
CONTINUOUS
 90
17
 70
0
 10
11.8654741676
 20
42.605045966
 10
11.8190164997
 20
42.2944341997
 10
11.748731734
 20
41.992760681
 10
11.6557017083
 20
41.7020808058
 10
11.5409727402
 20
41.4240845949
 10
11.4055874508
 20
41.1603410349
 10
11.2507673954
 20
40.9127160972
 10
11.0777527
 20
40.6829252667
 10
10.887882468
 20
40.472504491
 10
10.6827156407
 20
40.2830825384
 10
10.464029789
 20
40.1163440242
 10
10.2342022903
 20
39.97377413
 10
9.9955935437
 20
39.8564332728
 10
9.7504933427
 20
39.7651480891
 10
9.5018485573
 20
39.7002225101
 10
9.252327896
 20
39.6615608388
 10
8.9994107406
 20
39.6486368822
  0
LWPOLYLINE
  5
2D6
100
AcDbEntity
  8
0
100
AcDbPolyline
 62
7
  6
CONTINUOUS
 90
19
 70
0
 10
7.2880396097
 20
23.1958447571
 10
7.2618273321
 20
23.0861643997
 10
7.2477016685
 20
22.9764750636
 10
7.2456626189
 20
22.8667767487
 10
7.2556468255
 20
22.7562082268
 10
7.2777176461
 20
22.6456307261
 10
7.3120651543
 20
22.5376279317
 10
7.3588129061
 20
22.4321391664
 10
7.4178373456
 20
22.3292251073
 10
7.4889578781
 20
22.2316514708
 10
7.5726096444
 20
22.1391106278
 10
7.6683575037
 20
22.0519102074
 10
7.7747154382
 20
21.9737388129
 10
7.8926170032
 20
21.9046466126
 10
8.0211286433
 20
21.8445834381
 10
8.1559636756
 20
21.7970873876
 10
8.2956932057
 20
21.7633378271
 10
8.4417461278
 20
21.7421553907
 10
8.5941224421
 20
21.7335400782
  0
LINE
  5
2D7
100
AcDbEntity
  8
0
100
AcDbLine
 62
7
  6
CONTINUOUS
 10
10.0099286097
 20
23.4701427152
 11
10.3995996097
 21
24.7698519906
  0
LINE
  5
2D8
100
AcDbEntity
  8
0
100
AcDbLine
 62
7
  6
CONTINUOUS
 10
12.7047517427
 20
28.2839678823
 11
12.1028216097
 21
26.2762919222
  0
LINE
  5
2D9
100
AcDbEntity
  8
0
100
AcDbLine
 62
7
  6
CONTINUOUS
 10
11.8101836097
 20
25.3002232684
 11
10.9514240127
 21
22.435914134
  0
LINE
  5
2DA
100
AcDbEntity
  8
0
100
AcDbLine
 62
7
  6
CONTINUOUS
 10
13.5114546097
 20
21.7335400782
 11
15.3118136097
 21
27.7384623671
  0
LWPOLYLINE
  5
2DB
100
AcDbEntity
  8
0
100
AcDbPolyline
 62
7
  6
CONTINUOUS
 90
3
 70
0
 10
-4.1225767586
 20
41.4676903546
 10
-4.1020467783
 20
41.3721487622
 10
-4.0986025849
 20
41.353258914
  0
LINE
  5
2DC
100
AcDbEntity
  8
0
100
AcDbLine
 62
7
  6
CONTINUOUS
 10
-4.1851937173
 20
41.8176903546
 11
-4.1225767586
 21
41.4676903546
  0
LINE
  5
2DD
100
AcDbEntity
  8
0
100
AcDbLine
 62
7
  6
CONTINUOUS
 10
-4.0986422564
 20
41.3535750214
 11
-4.0721225045
 21
41.203764185
  0
LWPOLYLINE
  5
2DE
100
AcDbEntity
  8
0
100
AcDbPolyline
 62
7
  6
CONTINUOUS
 90
13
 70
0
 10
-0.5634843903
 20
22.9456647403
 10
-0.5407404812
 20
22.8160106772
 10
-0.5045022382
 20
22.6897820485
 10
-0.4547696612
 20
22.5669788542
 10
-0.3915304807
 20
22.4465925375
 10
-0.3147969663
 20
22.3296316552
 10
-0.2246059266
 20
22.2191218779
 10
-0.1204115582
 20
22.1147401953
 10
-0.0027596644
 20
22.0168096177
 10
0.1266755353
 20
21.929324847
 10
0.267335968
 20
21.8536174504
 10
0.4197797067
 20
21.7883558608
 10
0.5840067515
 20
21.7335400782
  0
LWPOLYLINE
  5
2DF
100
AcDbEntity
  8
0
100
AcDbPolyline
 62
7
  6
CONTINUOUS
 90
3
 70
0
 10
-4.0986025849
 20
41.353258914
 10
-4.086649293
 20
41.2762654436
 10
-4.0777463525
 20
41.1928083883
  0
LINE
  5
2E0
100
AcDbEntity
  8
RACCORDO
100
AcDbLine
 62
7
  6
CONTINUOUS
 10
6.1173147357
 20
42.795333414
 11
6.1172247406
 21
42.7968422498
  0
LWPOLYLINE
  5
2E1
100
AcDbEntity
  8
RACCORDO
100
AcDbPolyline
 62
7
  6
CONTINUOUS
 90
22
 70
0
 10
6.1172247406
 20
42.7968422498
 10
6.1130719701
 20
42.8816685949
 10
6.1126929436
 20
43.1841795344
 10
6.1347256465
 20
43.4839685107
 10
6.1787526463
 20
43.7792708293
 10
6.2441814393
 20
44.0685320299
 10
6.3297162457
 20
44.3466862179
 10
6.433885619
 20
44.6117748661
 10
6.5554131192
 20
44.8632468801
 10
6.6926086514
 20
45.0984733322
 10
6.8438060743
 20
45.316351602
 10
7.0073862189
 20
45.5164785514
 10
7.1815322591
 20
45.6975785184
 10
7.3641764624
 20
45.8588723374
 10
7.5540044694
 20
46.0006680594
 10
7.7504743408
 20
46.1233713501
 10
7.9523113353
 20
46.2268831218
 10
8.1579599747
 20
46.3111296723
 10
8.3666960339
 20
46.3764022851
 10
8.5774492376
 20
46.4228111229
 10
8.788757133
 20
46.4504125174
 10
8.9994106097
 20
46.4594292474
  0
LWPOLYLINE
  5
2E2
100
AcDbEntity
  8
0
100
AcDbPolyline
 62
7
  6
CONTINUOUS
 90
13
 70
0
 10
10.0099286097
 20
23.4701427152
 10
10.0100713774
 20
23.3560668944
 10
10.0248361377
 20
23.2446914334
 10
10.0542228905
 20
23.1360163322
 10
10.0982712709
 20
23.0286833725
 10
10.156941644
 20
22.9240507726
 10
10.230115104
 20
22.8261931875
 10
10.3185690112
 20
22.7347487676
 10
10.4215260055
 20
22.6500793625
 10
10.5365351013
 20
22.5773451762
 10
10.6627793035
 20
22.5182662767
 10
10.8010756073
 20
22.471122596
 10
10.9514240127
 20
22.435914134
  0
LINE
  5
2E3
100
AcDbEntity
  8
RACCORDO
100
AcDbLine
 62
7
  6
CONTINUOUS
 10
11.881592712
 20
42.7967789045
 11
11.8815554099
 21
42.796152519
  0
LWPOLYLINE
  5
2E4
100
AcDbEntity
  8
RACCORDO
100
AcDbPolyline
 62
7
  6
CONTINUOUS
 90
20
 70
0
 10
11.8815601488
 20
42.7961284647
 10
11.8637076393
 20
42.5878721004
 10
11.8194381121
 20
42.2924302343
 10
11.7537071576
 20
42.0031024726
 10
11.6679501948
 20
41.724911872
 10
11.5635519989
 20
41.4596855068
 10
11.4417291721
 20
41.2080615953
 10
11.304389253
 20
40.9728553288
 10
11.1532545042
 20
40.7551984751
 10
10.9898272073
 20
40.5553581744
 10
10.8159041623
 20
40.3744920079
 10
10.6334303423
 20
40.2132839546
 10
10.4436951241
 20
40.0714859069
 10
10.247371679
 20
39.9487865151
 10
10.0456993214
 20
39.8452706458
 10
9.8401619396
 20
39.7609943563
 10
9.6315928542
 20
39.6957132786
 10
9.4210717672
 20
39.6493119226
 10
9.2099579896
 20
39.6217064641
 10
8.9994106097
 20
39.6126742949
  0
LINE
  5
2E5
100
AcDbEntity
  8
0
100
AcDbLine
 62
7
  6
CONTINUOUS
 10
0.5287796097
 20
-30.3259856043
 11
-1.1519463903
 21
-35.4020939157
  0
LINE
  5
2E6
100
AcDbEntity
  8
0
100
AcDbLine
 62
7
  6
CONTINUOUS
 10
-0.2519463903
 20
-38.1205459261
 11
1.4499076097
 21
-32.9805639111
  0
LWPOLYLINE
  5
2E7
100
AcDbEntity
  8
RACCORDO
100
AcDbPolyline
 62
250
  6
CONTINUOUS
 90
5
 70
0
 10
-57.3398924878
 20
32.6065492499
 10
-57.3755893903
 20
32.6190468699
 10
-57.4150843544
 20
32.6282552721
 10
-57.4571773459
 20
32.6338946636
 10
-57.5005893903
 20
32.6357936945
  0
LINE
  5
2E8
100
AcDbEntity
  8
0
100
AcDbLine
 62
7
  6
CONTINUOUS
 10
-3.9310012854
 20
41.4735230314
 11
-3.9883569835
 21
41.6023365803
  0
LINE
  5
2E9
100
AcDbEntity
  8
0
100
AcDbLine
 62
7
  6
CONTINUOUS
 10
13.2296706097
 20
-30.3259656857
 11
13.2296706097
 21
-38.1205459261
  0
LINE
  5
2EA
100
AcDbEntity
  8
0
100
AcDbLine
 62
7
  6
CONTINUOUS
 10
15.0049426097
 20
-33.664721382
 11
15.0049216097
 21
-31.7679568728
  0
LINE
  5
2EB
100
AcDbEntity
  8
0
100
AcDbLine
 62
7
  6
CONTINUOUS
 10
15.0297616097
 20
-38.1205459261
 11
15.0299626097
 21
-35.106712569
  0
LINE
  5
2EC
100
AcDbEntity
  8
0
100
AcDbLine
 62
7
  6
CONTINUOUS
 10
7.3397336097
 20
-30.3259656857
 11
4.4500356097
 21
-38.1205649787
  0
LINE
  5
2ED
100
AcDbEntity
  8
0
100
AcDbLine
 62
7
  6
CONTINUOUS
 10
-3.9883569835
 20
41.6023365803
 11
-4.1199760082
 21
41.8260455611
  0
LINE
  5
2EE
100
AcDbEntity
  8
0
100
AcDbLine
 62
7
  6
CONTINUOUS
 10
11.3148062827
 20
41.8176903546
 11
11.3774232414
 21
41.4676903546
  0
LINE
  5
2EF
100
AcDbEntity
  8
0
100
AcDbLine
 62
7
  6
CONTINUOUS
 10
11.4013577436
 20
41.3535750214
 11
11.4278774955
 21
41.203764185
  0
LWPOLYLINE
  5
2F0
100
AcDbEntity
  8
0
100
AcDbPolyline
 62
7
  6
CONTINUOUS
 90
3
 70
0
 10
11.4013974151
 20
41.353258914
 10
11.413350707
 20
41.2762654436
 10
11.4222536475
 20
41.1928083883
  0
LINE
  5
2F1
100
AcDbEntity
  8
0
100
AcDbLine
 62
7
  6
CONTINUOUS
 10
7.3674536097
 20
-35.1067324876
 11
8.2398016097
 21
-32.7535760547
  0
LINE
  5
2F2
100
AcDbEntity
  8
0
100
AcDbLine
 62
7
  6
CONTINUOUS
 10
6.2501026097
 20
-38.1205459261
 11
6.8183856097
 21
-36.5876930858
  0
LINE
  5
2F3
100
AcDbEntity
  8
0
100
AcDbLine
 62
7
  6
CONTINUOUS
 10
-13.0448833903
 20
21.7335400782
 11
-10.3538733903
 21
21.7335400782
  0
LINE
  5
2F4
100
AcDbEntity
  8
0
100
AcDbLine
 62
7
  6
CONTINUOUS
 10
-7.2252433114
 20
21.7335400782
 11
-2.2984253903
 21
21.7335400782
  0
LINE
  5
2F5
100
AcDbEntity
  8
0
100
AcDbLine
 62
7
  6
CONTINUOUS
 10
0.5840067515
 20
21.7335400782
 11
4.7755546097
 21
21.7335400782
  0
LINE
  5
2F6
100
AcDbEntity
  8
0
100
AcDbLine
 62
7
  6
CONTINUOUS
 10
8.5941224421
 20
21.7335400782
 11
13.5114546097
 21
21.7335400782
  0
LINE
  5
2F7
100
AcDbEntity
  8
0
100
AcDbLine
 62
7
  6
CONTINUOUS
 10
-4.1199760082
 20
41.8260455611
 11
-4.2332469374
 21
41.9776028338
  0
LWPOLYLINE
  5
2F8
100
AcDbEntity
  8
0
100
AcDbPolyline
 62
7
  6
CONTINUOUS
 90
3
 70
0
 10
11.3774232414
 20
41.4676903546
 10
11.3979532217
 20
41.3721487622
 10
11.4013974151
 20
41.353258914
  0
LWPOLYLINE
  5
2F9
100
AcDbEntity
  8
0
100
AcDbPolyline
 62
7
  6
CONTINUOUS
 90
13
 70
0
 10
15.3118136097
 20
27.7384623671
 10
15.2917560847
 20
27.8735078165
 10
15.2579807633
 20
28.0053729384
 10
15.2104876454
 20
28.1340577328
 10
15.1492922059
 20
28.2605315019
 10
15.07437897
 20
28.3838249434
 10
14.9857015133
 20
28.5010301505
 10
14.8827950213
 20
28.6124695959
 10
14.7661243084
 20
28.7178208068
 10
14.6370373939
 20
28.813208458
 10
14.4959836177
 20
28.8973407745
 10
14.3425136399
 20
28.9715095313
 10
14.1766274605
 20
29.0357147284
  0
LWPOLYLINE
  5
2FA
100
AcDbEntity
  8
0
100
AcDbPolyline
 62
7
  6
CONTINUOUS
 90
16
 70
0
 10
2.5540436923
 20
29.0357147284
 10
2.4195834575
 20
29.0167574393
 10
2.2886841617
 20
28.9951066779
 10
2.161345805
 20
28.9707624442
 10
2.0370355641
 20
28.9442160225
 10
1.9162862623
 20
28.9149761286
 10
1.8006963693
 20
28.881568909
 10
1.6902131642
 20
28.8437581754
 10
1.5848893679
 20
28.8017801161
 10
1.4864816136
 20
28.754869443
 10
1.3949103224
 20
28.7027154232
 10
1.3102550732
 20
28.6456287895
 10
1.2345112355
 20
28.583776452
 10
1.1683439325
 20
28.5172140471
 10
1.1110880409
 20
28.4458859384
 10
1.0627435609
 20
28.3697921257
  0
LWPOLYLINE
  5
2FB
100
AcDbEntity
  8
0
100
AcDbPolyline
 62
7
  6
CONTINUOUS
 90
16
 70
0
 10
-4.8273737647
 20
29.0357147284
 10
-5.0176681822
 20
29.0334982638
 10
-5.2024920436
 20
29.0264568883
 10
-5.3818453489
 20
29.0145906019
 10
-5.5564418707
 20
28.9993086396
 10
-5.7255678363
 20
28.9792017665
 10
-5.8870819279
 20
28.9500422774
 10
-6.0413085767
 20
28.9106904036
 10
-6.1879233513
 20
28.8622859139
 10
-6.3238116398
 20
28.80402041
 10
-6.4482540666
 20
28.7350643352
 10
-6.5619700073
 20
28.6562472464
 10
-6.664002977
 20
28.569249415
 10
-6.7540341475
 20
28.4746309315
 10
-6.832382347
 20
28.3718317056
 10
-6.8990475755
 20
28.2608517371
  0
LINE
  5
2FC
100
AcDbEntity
  8
RACCORDO
100
AcDbLine
 62
7
  6
CONTINUOUS
 10
57.6871426253
 20
28.5221730265
 11
57.7994106097
 21
28.5221730265
  0
LINE
  5
2FD
100
AcDbEntity
  8
0
100
AcDbLine
 62
7
  6
CONTINUOUS
 10
14.1766274605
 20
29.0357147284
 11
10.2751965731
 21
29.0357147284
  0
LINE
  5
2FE
100
AcDbEntity
  8
0
100
AcDbLine
 62
7
  6
CONTINUOUS
 10
5.8682699345
 20
29.0357147284
 11
2.5540436923
 21
29.0357147284
  0
LINE
  5
2FF
100
AcDbEntity
  8
0
100
AcDbLine
 62
7
  6
CONTINUOUS
 10
-2.6936373903
 20
29.0357147284
 11
-4.8273737647
 21
29.0357147284
  0
LWPOLYLINE
  5
300
100
AcDbEntity
  8
0
100
AcDbPolyline
 62
7
  6
CONTINUOUS
 90
13
 70
0
 10
4.8811806097
 20
28.2489401754
 10
4.7403381058
 20
28.2765243542
 10
4.6003217332
 20
28.2903364134
 10
4.4611314921
 20
28.2903763529
 10
4.3205808147
 20
28.2760313425
 10
4.1808562688
 20
28.2479142123
 10
4.0485175568
 20
28.207863453
 10
3.9244873167
 20
28.1551026214
 10
3.8078429105
 20
28.0904081605
 10
3.7023761272
 20
28.0179478901
 10
3.6093508964
 20
27.9391110831
 10
3.5275032884
 20
27.8525084666
 10
3.4568333033
 20
27.7581400403
  0
LWPOLYLINE
  5
301
100
AcDbEntity
  8
0
100
AcDbPolyline
 62
7
  6
CONTINUOUS
 90
13
 70
0
 10
-2.9719043903
 20
28.2698746074
 10
-3.1061901784
 20
28.306438437
 10
-3.2414036962
 20
28.3300388034
 10
-3.3775449437
 20
28.3406757067
 10
-3.5166630154
 20
28.3380699582
 10
-3.6567088168
 20
28.3225007465
 10
-3.7915350645
 20
28.2948056377
 10
-3.9205648011
 20
28.2541332233
 10
-4.044374984
 20
28.2013349118
 10
-4.1585492025
 20
28.1398024944
 10
-4.2616153196
 20
28.0706665685
 10
-4.3550454724
 20
27.9927965367
 10
-4.4388396607
 20
27.9061923992
  0
LINE
  5
302
100
AcDbEntity
  8
0
100
AcDbLine
 62
7
  6
CONTINUOUS
 10
11.5689987146
 20
41.4735230314
 11
11.5116430165
 21
41.6023365803
  0
LWPOLYLINE
  5
303
100
AcDbEntity
  8
RACCORDO
100
AcDbPolyline
 62
250
  6
CONTINUOUS
 90
8
 70
0
 10
-57.0005893903
 20
33.0688063964
 10
-57.0468217223
 20
33.0677306221
 10
-57.0935600534
 20
33.0619356988
 10
-57.1408043835
 20
33.0514216264
 10
-57.1895853886
 20
33.0362371924
 10
-57.2388723927
 20
33.0163336094
 10
-57.2855733684
 20
32.9915645153
 10
-57.3296177131
 20
32.9611367155
  0
LINE
  5
304
100
AcDbEntity
  8
DRAFT
100
AcDbLine
 62
7
  6
CONTINUOUS
 10
57.712108686
 20
31.4833930915
 11
57.4670119548
 21
31.4833930915
  0
LINE
  5
305
100
AcDbEntity
  8
DRAFT
100
AcDbLine
 62
7
  6
CONTINUOUS
 10
-54.9681907354
 20
31.4833930915
 11
-55.1132874665
 21
31.4833930915
  0
LINE
  5
306
100
AcDbEntity
  8
RACCORDO
100
AcDbLine
 62
250
  6
CONTINUOUS
 10
57.7994106097
 20
32.7273000454
 11
57.3745426125
 21
32.7273000454
  0
LINE
  5
307
100
AcDbEntity
  8
RACCORDO
100
AcDbLine
 62
250
  6
CONTINUOUS
 10
-54.8757213931
 20
32.7273000454
 11
-55.2005893903
 21
32.7273000454
  0
LINE
  5
308
100
AcDbEntity
  8
RACCORDO
100
AcDbLine
 62
7
  6
CONTINUOUS
 10
-56.9505893903
 20
32.8089987752
 11
-55.2005893903
 21
32.8089987752
  0
LINE
  5
309
100
AcDbEntity
  8
RACCORDO
100
AcDbLine
 62
7
  6
CONTINUOUS
 10
57.7994106097
 20
32.8089987752
 11
59.4494106097
 21
32.8089987752
  0
LINE
  5
30A
100
AcDbEntity
  8
RACCORDO
100
AcDbLine
 62
250
  6
CONTINUOUS
 10
59.4994106097
 20
33.0688063964
 11
57.3491557718
 21
33.0688063964
  0
LINE
  5
30B
100
AcDbEntity
  8
RACCORDO
100
AcDbLine
 62
250
  6
CONTINUOUS
 10
-54.8503345524
 20
33.0688063964
 11
-57.0005893903
 21
33.0688063964
  0
LINE
  5
30C
100
AcDbEntity
  8
RACCORDO
100
AcDbLine
 62
7
  6
CONTINUOUS
 10
-58.5305647192
 20
34.826289041
 11
-54.7196871083
 21
34.826289041
  0
LINE
  5
30D
100
AcDbEntity
  8
RACCORDO
100
AcDbLine
 62
7
  6
CONTINUOUS
 10
57.2185083277
 20
34.826289041
 11
61.0293859386
 21
34.826289041
  0
LINE
  5
30E
100
AcDbEntity
  8
0
100
AcDbLine
 62
7
  6
CONTINUOUS
 10
11.3800239918
 20
41.8260455611
 11
11.2667530626
 21
41.9776028338
  0
LINE
  5
30F
100
AcDbEntity
  8
0
100
AcDbLine
 62
7
  6
CONTINUOUS
 10
11.5116430165
 20
41.6023365803
 11
11.3800239918
 21
41.8260455611
  0
LWPOLYLINE
  5
310
100
AcDbEntity
  8
RACCORDO
100
AcDbPolyline
 62
250
  6
CONTINUOUS
 90
40
 70
0
 10
-6.5005893903
 20
39.3485300948
 10
-6.7330772283
 20
39.3575201232
 10
-6.9642125533
 20
39.3868965714
 10
-7.1939953653
 20
39.4366594394
 10
-7.423940544
 20
39.5067334018
 10
-7.6525332097
 20
39.597193784
 10
-7.8752287232
 20
39.7082665616
 10
-8.0918080603
 20
39.8399972479
 10
-8.3024902451
 20
39.9923403296
 10
-8.5033877116
 20
40.1653852426
 10
-8.6950527338
 20
40.3599117548
 10
-8.8769330377
 20
40.5751400984
 10
-9.0434842351
 20
40.8088204065
 10
-9.194623889
 20
41.0619103473
 10
-9.3304344365
 20
41.3334522526
 10
-9.4456188004
 20
41.6183232508
 10
-9.5395701867
 20
41.9177068994
 10
-9.6128953894
 20
42.2304196409
 10
-9.6621177142
 20
42.5477879313
 10
-9.6860610757
 20
42.8700778932
 10
-9.6859015593
 20
43.197023404
 10
-9.6616907265
 20
43.5191525512
 10
-9.6122738169
 20
43.8361544737
 10
-9.5388055908
 20
44.1483400326
 10
-9.4448018908
 20
44.4471698991
 10
-9.329714571
 20
44.7314437478
 10
-9.1940917773
 20
45.0023619041
 10
-9.0430937899
 20
45.2549860156
 10
-8.8765623361
 20
45.4884774787
 10
-8.6946556886
 20
45.703674897
 10
-8.5030089452
 20
45.8981557286
 10
-8.3021696399
 20
46.0710798988
 10
-8.0915902388
 20
46.2232874823
 10
-7.8752632371
 20
46.3548761616
 10
-7.6531860304
 20
46.4657649841
 10
-7.4253612232
 20
46.5560349023
 10
-7.1957891246
 20
46.6260264569
 10
-6.9658031712
 20
46.6758531611
 10
-6.7340699264
 20
46.7054015017
 10
-6.5005893903
 20
46.7146714784
  0
LWPOLYLINE
  5
311
100
AcDbEntity
  8
RACCORDO
100
AcDbPolyline
 62
250
  6
CONTINUOUS
 90
40
 70
0
 10
8.9994106097
 20
39.3485300948
 10
8.7669227717
 20
39.3575201232
 10
8.5357874467
 20
39.3868965714
 10
8.3060046347
 20
39.4366594394
 10
8.076059456
 20
39.5067334018
 10
7.8474667903
 20
39.597193784
 10
7.6247712768
 20
39.7082665616
 10
7.4081919397
 20
39.8399972479
 10
7.1975097549
 20
39.9923403296
 10
6.9966122884
 20
40.1653852426
 10
6.8049472662
 20
40.3599117548
 10
6.6230669623
 20
40.5751400984
 10
6.4565157649
 20
40.8088204065
 10
6.305376111
 20
41.0619103473
 10
6.1695655635
 20
41.3334522526
 10
6.0543811996
 20
41.6183232508
 10
5.9604298133
 20
41.9177068994
 10
5.8871046106
 20
42.2304196409
 10
5.8378822858
 20
42.5477879313
 10
5.8139389243
 20
42.8700778932
 10
5.8140984407
 20
43.197023404
 10
5.8383092735
 20
43.5191525512
 10
5.8877261831
 20
43.8361544737
 10
5.9611944092
 20
44.1483400326
 10
6.0551981092
 20
44.4471698991
 10
6.170285429
 20
44.7314437478
 10
6.3059082227
 20
45.0023619041
 10
6.4569062101
 20
45.2549860156
 10
6.6234376639
 20
45.4884774787
 10
6.8053443114
 20
45.703674897
 10
6.9969910548
 20
45.8981557286
 10
7.1978303601
 20
46.0710798988
 10
7.4084097612
 20
46.2232874823
 10
7.6247367629
 20
46.3548761616
 10
7.8468139696
 20
46.4657649841
 10
8.0746387768
 20
46.5560349023
 10
8.3042108754
 20
46.6260264569
 10
8.5341968288
 20
46.6758531611
 10
8.7659300736
 20
46.7054015017
 10
8.9994106097
 20
46.7146714784
  0
LWPOLYLINE
  5
312
100
AcDbEntity
  8
RACCORDO
100
AcDbPolyline
 62
7
  6
CONTINUOUS
 90
20
 70
0
 10
-6.5005893903
 20
39.6126742949
 10
-6.7100010714
 20
39.621574577
 10
-6.9202722939
 20
39.6489371598
 10
-7.1302515327
 20
39.6950386448
 10
-7.3386999296
 20
39.760056805
 10
-7.5443985811
 20
39.8441387195
 10
-7.7461468604
 20
39.9474167933
 10
-7.9423182752
 20
40.0697267249
 10
-8.1318530819
 20
40.2110360073
 10
-8.3142102373
 20
40.3717397341
 10
-8.4881393989
 20
40.5521330827
 10
-8.6516491518
 20
40.7515117969
 10
-8.8029294177
 20
40.9687236259
 10
-8.9404717938
 20
41.2035024001
 10
-9.0625550651
 20
41.4547299193
 10
-9.1672685572
 20
41.719613192
 10
-9.2533982512
 20
41.9975579126
 10
-9.3195350364
 20
42.2867074618
 10
-9.3642188969
 20
42.5819437585
 10
-9.3826852643
 20
42.795333414
  0
LWPOLYLINE
  5
313
100
AcDbEntity
  8
RACCORDO
100
AcDbPolyline
 62
7
  6
CONTINUOUS
 90
20
 70
0
 10
8.9994106097
 20
39.6126742949
 10
8.7899989286
 20
39.621574577
 10
8.5797277061
 20
39.6489371598
 10
8.3697484673
 20
39.6950386448
 10
8.1613000704
 20
39.760056805
 10
7.9556014189
 20
39.8441387195
 10
7.7538531396
 20
39.9474167933
 10
7.5576817248
 20
40.0697267249
 10
7.3681469181
 20
40.2110360073
 10
7.1857897627
 20
40.3717397341
 10
7.0118606011
 20
40.5521330827
 10
6.8483508482
 20
40.7515117969
 10
6.6970705823
 20
40.9687236259
 10
6.5595282062
 20
41.2035024001
 10
6.4374449349
 20
41.4547299193
 10
6.3327314428
 20
41.719613192
 10
6.2466017488
 20
41.9975579126
 10
6.1804649636
 20
42.2867074618
 10
6.1357811031
 20
42.5819437585
 10
6.1173147357
 20
42.795333414
  0
LWPOLYLINE
  5
314
100
AcDbEntity
  8
RACCORDO
100
AcDbPolyline
 62
7
  6
CONTINUOUS
 90
17
 70
0
 10
-6.5005892633
 20
39.6486296452
 10
-6.7344969338
 20
39.6597337858
 10
-6.9855438633
 20
39.6966367906
 10
-7.2356940915
 20
39.7601590537
 10
-7.4823570304
 20
39.8502856429
 10
-7.7225844525
 20
39.9666909847
 10
-7.9539701769
 20
40.1086547333
 10
-8.1742905785
 20
40.2750608164
 10
-8.3810471794
 20
40.464401018
 10
-8.5723939232
 20
40.6750288875
 10
-8.7468533821
 20
40.9053306271
 10
-8.9029534568
 20
41.1536268434
 10
-9.0394128606
 20
41.4181688617
 10
-9.1550702963
 20
41.6971560134
 10
-9.2488530114
 20
41.9889311528
 10
-9.3196886208
 20
42.2917685999
 10
-9.3664970559
 20
42.6036387997
  0
LWPOLYLINE
  5
315
100
AcDbEntity
  8
RACCORDO
100
AcDbPolyline
 62
7
  6
CONTINUOUS
 90
17
 70
0
 10
8.9994107367
 20
39.6486296452
 10
8.7655030662
 20
39.6597337858
 10
8.5144561367
 20
39.6966367906
 10
8.2643059085
 20
39.7601590537
 10
8.0176429696
 20
39.8502856429
 10
7.7774155475
 20
39.9666909847
 10
7.5460298231
 20
40.1086547333
 10
7.3257094215
 20
40.2750608164
 10
7.1189528206
 20
40.464401018
 10
6.9276060768
 20
40.6750288875
 10
6.7531466179
 20
40.9053306271
 10
6.5970465432
 20
41.1536268434
 10
6.4605871394
 20
41.4181688617
 10
6.3449297037
 20
41.6971560134
 10
6.2511469886
 20
41.9889311528
 10
6.1803113792
 20
42.2917685999
 10
6.1335029441
 20
42.6036387997
  0
LINE
  5
316
100
AcDbEntity
  8
RACCORDO
100
AcDbLine
 62
7
  6
CONTINUOUS
 10
44.0281561204
 20
25.3280036833
 11
44.0122932847
 21
25.4924433786
  0
LINE
  5
317
100
AcDbEntity
  8
RACCORDO
100
AcDbLine
 62
7
  6
CONTINUOUS
 10
44.022393574
 20
25.3768859072
 11
44.0124920819
 21
25.4892345998
  0
LINE
  5
318
100
AcDbEntity
  8
RACCORDO
100
AcDbLine
 62
7
  6
CONTINUOUS
 10
44.0124920819
 20
25.4892345998
 11
44.0122744804
 21
25.4923474784
  0
LINE
  5
319
100
AcDbEntity
  8
RACCORDO
100
AcDbLine
 62
7
  6
CONTINUOUS
 10
44.0122744804
 20
25.4923474784
 11
44.0051355589
 21
25.6532020335
  0
LWPOLYLINE
  5
31A
100
AcDbEntity
  8
RACCORDO
100
AcDbPolyline
 62
250
  6
CONTINUOUS
 90
34
 70
0
 10
44.0051355589
 20
25.6532020335
 10
44.0120624322
 20
25.9360032532
 10
44.0435583295
 20
26.2131059411
 10
44.0987725824
 20
26.4823320794
 10
44.1768062969
 20
26.742916949
 10
44.2762634459
 20
26.9916660644
 10
44.3946919486
 20
27.2231602586
 10
44.5295977691
 20
27.4352520056
 10
44.6790251685
 20
27.6278474199
 10
44.8406582869
 20
27.7991874114
 10
45.0118881517
 20
27.9482755119
 10
45.1908144986
 20
28.0754339162
 10
45.3763664531
 20
28.1810177189
 10
45.5663816167
 20
28.2648181798
 10
45.7592438573
 20
28.3271016818
 10
45.955091942
 20
28.3685418756
 10
46.152278427
 20
28.3891761869
 10
46.3492464425
 20
28.3890363486
 10
46.5464414136
 20
28.3681151907
 10
46.742351242
 20
28.3263564897
 10
46.9352770887
 20
28.263730744
 10
47.1252205109
 20
28.1796299957
 10
47.3105470208
 20
28.0738215859
 10
47.4891410929
 20
27.9465362677
 10
47.6599173767
 20
27.7975056772
 10
47.8209487916
 20
27.626520138
 10
47.9697471614
 20
27.434525094
 10
48.10417384
 20
27.2230858801
 10
48.2222645829
 20
26.9923126759
 10
48.3215368881
 20
26.7442935708
 10
48.3996111526
 20
26.4840728992
 10
48.4550089575
 20
26.214688879
 10
48.4866878437
 20
25.9370048033
 10
48.4936856606
 20
25.6532020335
  0
LWPOLYLINE
  5
31B
100
AcDbEntity
  8
RACCORDO
100
AcDbPolyline
 62
250
  6
CONTINUOUS
 90
34
 70
0
 10
43.7053183108
 20
25.647967109
 10
43.7155861509
 20
25.9600459113
 10
43.7512984314
 20
26.2617934837
 10
43.8124551521
 20
26.5532098264
 10
43.9012638616
 20
26.8375535708
 10
44.0155170114
 20
27.1115660855
 10
44.1485919559
 20
27.3654714757
 10
44.3008087977
 20
27.5971960485
 10
44.4718474342
 20
27.8088134968
 10
44.6541249113
 20
27.996769004
 10
44.8470688055
 20
28.1598741582
 10
45.0512515404
 20
28.2993173712
 10
45.2608074321
 20
28.4151090629
 10
45.4750476448
 20
28.5069904579
 10
45.6946610143
 20
28.5752203315
 10
45.9158483643
 20
28.6205854287
 10
46.1383894272
 20
28.6433519377
 10
46.3625044705
 20
28.6432536703
 10
46.5850551213
 20
28.6202788069
 10
46.8063069127
 20
28.5746542943
 10
47.0259943116
 20
28.5061531858
 10
47.2401823455
 20
28.4140828213
 10
47.4494974954
 20
28.2981676473
 10
47.6533132804
 20
28.1586832174
 10
47.8458152851
 20
27.9957635324
 10
48.0275131538
 20
27.8083389682
 10
48.1978972423
 20
27.597479149
 10
48.3496242027
 20
27.3665269475
 10
48.4824683515
 20
27.1135445192
 10
48.5966553722
 20
26.8404697087
 10
48.6855189679
 20
26.5564589217
 10
48.7468370398
 20
26.2645642938
 10
48.7828316867
 20
25.9617336896
 10
48.7935029087
 20
25.647967109
  0
LINE
  5
31C
100
AcDbEntity
  8
RACCORDO
100
AcDbLine
 62
7
  6
CONTINUOUS
 10
48.4869296378
 20
25.4985502468
 11
48.4706231279
 21
25.3278755313
  0
LINE
  5
31D
100
AcDbEntity
  8
RACCORDO
100
AcDbLine
 62
7
  6
CONTINUOUS
 10
48.4765286816
 20
25.3778353984
 11
48.4364115721
 21
25.1094099037
  0
LINE
  5
31E
100
AcDbEntity
  8
RACCORDO
100
AcDbLine
 62
7
  6
CONTINUOUS
 10
48.4706231279
 20
25.3278755313
 11
48.4286294384
 21
25.0756097153
  0
LWPOLYLINE
  5
31F
100
AcDbEntity
  8
RACCORDO
100
AcDbPolyline
 62
7
  6
CONTINUOUS
 90
29
 70
0
 10
48.4364115721
 20
25.1094099037
 10
48.3742264809
 20
24.8498376401
 10
48.2907842617
 20
24.5997714146
 10
48.1875319937
 20
24.3620561047
 10
48.0670426345
 20
24.1414412143
 10
47.9316212359
 20
23.9397109646
 10
47.7829836048
 20
23.7568884829
 10
47.6233801911
 20
23.5944480311
 10
47.4551456603
 20
23.453159162
 10
47.2799238024
 20
23.3326960645
 10
47.0987768354
 20
23.2327262075
 10
46.9136229191
 20
23.1533761055
 10
46.7258586532
 20
23.0943768903
 10
46.5354443607
 20
23.0551350663
 10
46.3438334506
 20
23.0356009807
 10
46.1523824798
 20
23.0357326467
 10
45.9607665864
 20
23.0555355351
 10
45.7703006648
 20
23.0950725497
 10
45.582484944
 20
23.1543868532
 10
45.3974063287
 20
23.2340122732
 10
45.2164813646
 20
23.3341827591
 10
45.0415819253
 20
23.4547526124
 10
44.8737778378
 20
23.5959834539
 10
44.7147389227
 20
23.7581033041
 10
44.5666944085
 20
23.9403821965
 10
44.4317322107
 20
24.1415154185
 10
44.3115790115
 20
24.3614616165
 10
44.2085250311
 20
24.5984924231
 10
44.1250603922
 20
24.8482088497
  0
LWPOLYLINE
  5
320
100
AcDbEntity
  8
RACCORDO
100
AcDbPolyline
 62
7
  6
CONTINUOUS
 90
29
 70
0
 10
48.4286294384
 20
25.0756097153
 10
48.3671617497
 20
24.8335558743
 10
48.2878946888
 20
24.6037407201
 10
48.1921781847
 20
24.3868833216
 10
48.0806888
 20
24.1827436144
 10
47.9546748791
 20
23.9926944652
 10
47.8154484188
 20
23.8180566386
 10
47.6633410287
 20
23.6589577856
 10
47.4997092532
 20
23.516686502
 10
47.3260900439
 20
23.392559386
 10
47.1430247713
 20
23.2871485945
 10
46.9523159518
 20
23.2015150442
 10
46.7558370325
 20
23.1366061511
 10
46.5544336735
 20
23.0929862845
 10
46.3501212003
 20
23.0710740371
 10
46.1451650198
 20
23.07122303
 10
45.9409749518
 20
23.0935452077
 10
45.7397461518
 20
23.1375306579
 10
45.5434906275
 20
23.2026506075
 10
45.3531442155
 20
23.2885110447
 10
45.1704182124
 20
23.3940853669
 10
44.9971003872
 20
23.5182497353
 10
44.8338737548
 20
23.6604836245
 10
44.6821380166
 20
23.8194983765
 10
44.543183653
 20
23.9940018842
 10
44.4174564368
 20
24.1838429445
 10
44.3062050558
 20
24.3878001833
 10
44.2106327873
 20
24.6045456277
 10
44.1314772053
 20
24.8341726634
  0
LWPOLYLINE
  5
321
100
AcDbEntity
  8
0
100
AcDbPolyline
 62
7
  6
CONTINUOUS
 90
31
 70
0
 10
18.5163352279
 20
-34.9192548543
 10
18.7641240613
 20
-34.8130989668
 10
18.9926633992
 20
-34.6932433738
 10
19.2019532416
 20
-34.5596880753
 10
19.3918005991
 20
-34.4119411277
 10
19.5623984611
 20
-34.2504944745
 10
19.7143257959
 20
-34.0768239465
 10
19.8490803785
 20
-33.8883788562
 10
19.9651644339
 20
-33.6877098909
 10
20.0586636057
 20
-33.4839449433
 10
20.1277812829
 20
-33.2789970086
 10
20.1743140765
 20
-33.0709530914
 10
20.1997374632
 20
-32.8632020983
 10
20.2043608045
 20
-32.6560048373
 10
20.1878747388
 20
-32.4491005002
 10
20.1508266587
 20
-32.2450955689
 10
20.0926296203
 20
-32.0429379058
 10
20.0138705675
 20
-31.8436796483
 10
19.9168577244
 20
-31.653083691
 10
19.8027849684
 20
-31.4728231989
 10
19.6704584221
 20
-31.301225007
 10
19.5186046775
 20
-31.1390325146
 10
19.3447443705
 20
-30.9840784142
 10
19.1513568652
 20
-30.8385300132
 10
18.9446068465
 20
-30.7096326335
 10
18.7262144923
 20
-30.5988548916
 10
18.4944596247
 20
-30.5047281709
 10
18.2503463942
 20
-30.4300919428
 10
17.9942095179
 20
-30.3758926978
 10
17.7257142788
 20
-30.3411839455
 10
17.444860677
 20
-30.3259656857
  0
LWPOLYLINE
  5
322
100
AcDbEntity
  8
0
100
AcDbPolyline
 62
7
  6
CONTINUOUS
 90
43
 70
0
 10
8.9994106097
 20
43.4360900544
 10
8.9226935604
 20
43.4350082854
 10
8.8462162942
 20
43.4317932451
 10
8.769978811
 20
43.4264449336
 10
8.6939019756
 20
43.4189533037
 10
8.6180649233
 20
43.4093284027
 10
8.5427050597
 20
43.3976003716
 10
8.4678238581
 20
43.3837626167
 10
8.3934198452
 20
43.3678217318
 10
8.319726007
 20
43.34982764
 10
8.2467445757
 20
43.3297739062
 10
8.1744733192
 20
43.3076669655
 10
8.1031385267
 20
43.2835760457
 10
8.0327431339
 20
43.2574949283
 10
7.9632842052
 20
43.2294298319
 10
7.8949792227
 20
43.1994686394
 10
7.8278318038
 20
43.167605408
 10
7.7618383312
 20
43.1338460806
 10
7.697205435
 20
43.0982963688
 10
7.6339373803
 20
43.0609506612
 10
7.5720299019
 20
43.0218145694
 10
7.5116768355
 20
42.9810106394
 10
7.4528830532
 20
42.9385336441
 10
7.3956436828
 20
42.8943888108
 10
7.3401379422
 20
42.8487143678
 10
7.2863712656
 20
42.801505521
 10
7.2343382188
 20
42.7527670646
 10
7.1842017174
 20
42.7026516091
 10
7.1359677061
 20
42.6511548388
 10
7.0896302402
 20
42.5982810694
 10
7.0453344011
 20
42.5441958588
 10
7.0030865883
 20
42.4888954099
 10
6.9628804023
 20
42.4323835198
 10
6.9248417264
 20
42.3748371364
 10
6.8889773544
 20
42.3162530175
 10
6.8552804925
 20
42.2566344054
 10
6.8238566421
 20
42.1961679746
 10
6.7947129278
 20
42.1348510679
 10
6.7678422251
 20
42.0726863424
 10
6.7433286618
 20
42.0098684438
 10
6.7212002807
 20
41.9464622539
 10
6.701429039
 20
41.8824028908
 10
6.6840149367
 20
41.8176903546
  0
LWPOLYLINE
  5
323
100
AcDbEntity
  8
0
100
AcDbPolyline
 62
7
  6
CONTINUOUS
 90
43
 70
0
 10
-6.5005893903
 20
43.4360900544
 10
-6.5773064396
 20
43.4350082854
 10
-6.6537837058
 20
43.4317932451
 10
-6.730021189
 20
43.4264449336
 10
-6.8060980244
 20
43.4189533037
 10
-6.8819350767
 20
43.4093284027
 10
-6.9572949403
 20
43.3976003716
 10
-7.0321761419
 20
43.3837626167
 10
-7.1065801548
 20
43.3678217318
 10
-7.180273993
 20
43.34982764
 10
-7.2532554243
 20
43.3297739062
 10
-7.3255266808
 20
43.3076669655
 10
-7.3968614733
 20
43.2835760457
 10
-7.4672568661
 20
43.2574949283
 10
-7.5367157948
 20
43.2294298319
 10
-7.6050207773
 20
43.1994686394
 10
-7.6721681962
 20
43.167605408
 10
-7.7381616688
 20
43.1338460806
 10
-7.802794565
 20
43.0982963688
 10
-7.8660626197
 20
43.0609506612
 10
-7.9279700981
 20
43.0218145694
 10
-7.9883231645
 20
42.9810106394
 10
-8.0471169468
 20
42.9385336441
 10
-8.1043563172
 20
42.8943888108
 10
-8.1598620578
 20
42.8487143678
 10
-8.2136287344
 20
42.801505521
 10
-8.2656617812
 20
42.7527670646
 10
-8.3157982826
 20
42.7026516091
 10
-8.3640322939
 20
42.6511548388
 10
-8.4103697598
 20
42.5982810694
 10
-8.4546655989
 20
42.5441958588
 10
-8.4969134117
 20
42.4888954099
 10
-8.5371195977
 20
42.4323835198
 10
-8.5751582736
 20
42.3748371364
 10
-8.6110226456
 20
42.3162530175
 10
-8.6447195075
 20
42.2566344054
 10
-8.6761433579
 20
42.1961679746
 10
-8.7052870722
 20
42.1348510679
 10
-8.7321577749
 20
42.0726863424
 10
-8.7566713382
 20
42.0098684438
 10
-8.7787997193
 20
41.9464622539
 10
-8.798570961
 20
41.8824028908
 10
-8.8159850633
 20
41.8176903546
  0
LINE
  5
324
100
AcDbEntity
  8
0
100
AcDbLine
 62
7
  6
CONTINUOUS
 10
11.2751189964
 20
40.9516649508
 11
6.7240169296
 21
40.9516649508
  0
LINE
  5
325
100
AcDbEntity
  8
0
100
AcDbLine
 62
7
  6
CONTINUOUS
 10
-4.2248810036
 20
40.9516649508
 11
-8.7759830704
 21
40.9516649508
  0
LINE
  5
326
100
AcDbEntity
  8
0
100
AcDbLine
 62
7
  6
CONTINUOUS
 10
-8.8786020219
 20
41.4676903546
 11
-4.1225767586
 21
41.4676903546
  0
LINE
  5
327
100
AcDbEntity
  8
0
100
AcDbLine
 62
7
  6
CONTINUOUS
 10
6.6213979781
 20
41.4676903546
 11
11.3774232414
 21
41.4676903546
  0
LINE
  5
328
100
AcDbEntity
  8
0
100
AcDbLine
 62
7
  6
CONTINUOUS
 10
11.3148062827
 20
41.8176903546
 11
6.6840149367
 21
41.8176903546
  0
LINE
  5
329
100
AcDbEntity
  8
0
100
AcDbLine
 62
7
  6
CONTINUOUS
 10
-4.1851937173
 20
41.8176903546
 11
-8.8159850633
 21
41.8176903546
  0
LWPOLYLINE
  5
32A
100
AcDbEntity
  8
0
100
AcDbPolyline
 62
7
  6
CONTINUOUS
 90
43
 70
0
 10
-6.5005893903
 20
43.4360900544
 10
-6.423872341
 20
43.4350082854
 10
-6.3473950747
 20
43.4317932451
 10
-6.2711575915
 20
43.4264449336
 10
-6.1950807561
 20
43.4189533037
 10
-6.1192437038
 20
43.4093284027
 10
-6.0438838402
 20
43.3976003716
 10
-5.9690026386
 20
43.3837626167
 10
-5.8945986257
 20
43.3678217318
 10
-5.8209047875
 20
43.34982764
 10
-5.7479233563
 20
43.3297739062
 10
-5.6756520997
 20
43.3076669655
 10
-5.6043173072
 20
43.2835760457
 10
-5.5339219145
 20
43.2574949283
 10
-5.4644629857
 20
43.2294298319
 10
-5.3961580033
 20
43.1994686394
 10
-5.3290105844
 20
43.167605408
 10
-5.2630171117
 20
43.1338460806
 10
-5.1983842156
 20
43.0982963688
 10
-5.1351161608
 20
43.0609506612
 10
-5.0732086825
 20
43.0218145694
 10
-5.012855616
 20
42.9810106394
 10
-4.9540618338
 20
42.9385336441
 10
-4.8968224634
 20
42.8943888108
 10
-4.8413167228
 20
42.8487143678
 10
-4.7875500461
 20
42.801505521
 10
-4.7355169993
 20
42.7527670646
 10
-4.6853804979
 20
42.7026516091
 10
-4.6371464866
 20
42.6511548388
 10
-4.5908090207
 20
42.5982810694
 10
-4.5465131817
 20
42.5441958588
 10
-4.5042653688
 20
42.4888954099
 10
-4.4640591829
 20
42.4323835198
 10
-4.4260205069
 20
42.3748371364
 10
-4.3901561349
 20
42.3162530175
 10
-4.356459273
 20
42.2566344054
 10
-4.3250354227
 20
42.1961679746
 10
-4.2958917084
 20
42.1348510679
 10
-4.2690210057
 20
42.0726863424
 10
-4.2445074424
 20
42.0098684438
 10
-4.2223790612
 20
41.9464622539
 10
-4.2026078195
 20
41.8824028908
 10
-4.1851937173
 20
41.8176903546
  0
LWPOLYLINE
  5
32B
100
AcDbEntity
  8
0
100
AcDbPolyline
 62
7
  6
CONTINUOUS
 90
43
 70
0
 10
8.9994106097
 20
43.4360900544
 10
9.076127659
 20
43.4350082854
 10
9.1526049253
 20
43.4317932451
 10
9.2288424085
 20
43.4264449336
 10
9.3049192439
 20
43.4189533037
 10
9.3807562962
 20
43.4093284027
 10
9.4561161598
 20
43.3976003716
 10
9.5309973614
 20
43.3837626167
 10
9.6054013743
 20
43.3678217318
 10
9.6790952125
 20
43.34982764
 10
9.7520766437
 20
43.3297739062
 10
9.8243479003
 20
43.3076669655
 10
9.8956826928
 20
43.2835760457
 10
9.9660780855
 20
43.2574949283
 10
10.0355370143
 20
43.2294298319
 10
10.1038419967
 20
43.1994686394
 10
10.1709894156
 20
43.167605408
 10
10.2369828883
 20
43.1338460806
 10
10.3016157844
 20
43.0982963688
 10
10.3648838392
 20
43.0609506612
 10
10.4267913175
 20
43.0218145694
 10
10.487144384
 20
42.9810106394
 10
10.5459381662
 20
42.9385336441
 10
10.6031775366
 20
42.8943888108
 10
10.6586832772
 20
42.8487143678
 10
10.7124499539
 20
42.801505521
 10
10.7644830007
 20
42.7527670646
 10
10.8146195021
 20
42.7026516091
 10
10.8628535134
 20
42.6511548388
 10
10.9091909793
 20
42.5982810694
 10
10.9534868183
 20
42.5441958588
 10
10.9957346312
 20
42.4888954099
 10
11.0359408171
 20
42.4323835198
 10
11.0739794931
 20
42.3748371364
 10
11.1098438651
 20
42.3162530175
 10
11.143540727
 20
42.2566344054
 10
11.1749645773
 20
42.1961679746
 10
11.2041082916
 20
42.1348510679
 10
11.2309789943
 20
42.0726863424
 10
11.2554925576
 20
42.0098684438
 10
11.2776209388
 20
41.9464622539
 10
11.2973921805
 20
41.8824028908
 10
11.3148062827
 20
41.8176903546
  0
LWPOLYLINE
  5
32C
100
AcDbEntity
  8
RACCORDO
100
AcDbPolyline
 62
7
  6
CONTINUOUS
 90
22
 70
0
 10
-6.5005893903
 20
46.4594292474
 10
-6.2938391713
 20
46.4508796688
 10
-6.0853183035
 20
46.4240792928
 10
-5.8762151974
 20
46.3786080535
 10
-5.6676130083
 20
46.3140976833
 10
-5.4610411524
 20
46.2302992702
 10
-5.2584230606
 20
46.1272080755
 10
-5.0617422521
 20
46.0051609151
 10
-4.871790312
 20
45.8641048884
 10
-4.6888769739
 20
45.7034746375
 10
-4.5142397381
 20
45.5228520517
 10
-4.3500671434
 20
45.3230733742
 10
-4.1982606766
 20
45.1054777586
 10
-4.0604743319
 20
44.8705175632
 10
-3.9383428048
 20
44.6192476246
 10
-3.833538418
 20
44.3542238359
 10
-3.747340816
 20
44.0759280055
 10
-3.6812708661
 20
43.7863783789
 10
-3.6366647601
 20
43.4907657829
 10
-3.6141116452
 20
43.1906841255
 10
-3.6140169256
 20
42.8878725484
 10
-3.618407288
 20
42.7967789045
  0
LWPOLYLINE
  5
32D
100
AcDbEntity
  8
RACCORDO
100
AcDbPolyline
 62
7
  6
CONTINUOUS
 90
5
 70
0
 10
59.6994106097
 20
-11.0973872904
 10
59.711350376
 20
-11.1181998473
 10
59.7318511363
 20
-11.1706324034
 10
59.7445378809
 20
-11.2258679991
 10
59.7494106097
 20
-11.2839066344
  0
LINE
  5
32E
100
AcDbEntity
  8
RACCORDO
100
AcDbLine
 62
7
  6
CONTINUOUS
 10
48.4936856606
 20
25.6532020335
 11
48.4869755465
 21
25.4986140217
  0
LWPOLYLINE
  5
32F
100
AcDbEntity
  8
RACCORDO
100
AcDbPolyline
 62
250
  6
CONTINUOUS
 90
34
 70
0
 10
48.7935029087
 20
25.647967109
 10
48.7731529565
 20
25.3441787178
 10
48.7290127777
 20
25.0513911325
 10
48.6610823724
 20
24.7696043531
 10
48.5672171257
 20
24.4959398696
 10
48.4495616524
 20
24.2332761921
 10
48.3145497973
 20
23.9902488504
 10
48.1619899376
 20
23.7687376924
 10
47.992073696
 20
23.5668628703
 10
47.8118097854
 20
23.3876203704
 10
47.6217429961
 20
23.2320386918
 10
47.4213285378
 20
23.0990893355
 10
47.2159407521
 20
22.9886827908
 10
47.0062002071
 20
22.9010315078
 10
46.7914863347
 20
22.8359230364
 10
46.5753117727
 20
22.7926305161
 10
46.3578754409
 20
22.7709089435
 10
46.1389784196
 20
22.7710033221
 10
45.921536587
 20
22.7929218012
 10
45.7053095006
 20
22.8364543797
 10
45.4905376029
 20
22.9018110589
 10
45.2808581003
 20
22.9896299922
 10
45.0757090056
 20
23.1001358295
 10
44.8756523059
 20
23.233103921
 10
44.6860111687
 20
23.3884984709
 10
44.5062963499
 20
23.5672440222
 10
44.3369970937
 20
23.768416032
 10
44.1849043
 20
23.9892050748
 10
44.0501314816
 20
24.2313528631
 10
43.9325651259
 20
24.4931176844
 10
43.8386555947
 20
24.766464976
 10
43.7705530088
 20
25.0487165501
 10
43.7261072475
 20
25.3425505945
 10
43.7053183108
 20
25.647967109
  0
LINE
  5
330
100
AcDbEntity
  8
RACCORDO
100
AcDbLine
 62
7
  6
CONTINUOUS
 10
48.4869755465
 20
25.4986140217
 11
48.4863479517
 21
25.4895019783
  0
LINE
  5
331
100
AcDbEntity
  8
RACCORDO
100
AcDbLine
 62
7
  6
CONTINUOUS
 10
48.4863479517
 20
25.4895019783
 11
48.4765286816
 21
25.3778353984
  0
LINE
  5
332
100
AcDbEntity
  8
RACCORDO
100
AcDbLine
 62
250
  6
CONTINUOUS
 10
54.4981852825
 20
47.7441278253
 11
55.4975761095
 21
47.7615775737
  0
LINE
  5
333
100
AcDbEntity
  8
RACCORDO
100
AcDbLine
 62
250
  6
CONTINUOUS
 10
-51.9993640631
 20
47.7441278253
 11
54.4981852825
 21
47.7441278253
  0
LINE
  5
334
100
AcDbEntity
  8
RACCORDO
100
AcDbLine
 62
250
  6
CONTINUOUS
 10
-51.9993640631
 20
47.7441278253
 11
-52.9987548901
 21
47.7615775737
  0
LWPOLYLINE
  5
335
100
AcDbEntity
  8
RACCORDO
100
AcDbPolyline
 62
250
  6
CONTINUOUS
 90
40
 70
0
 10
-6.5005893903
 20
46.7146714784
 10
-6.2717745338
 20
46.7063366915
 10
-6.0433906691
 20
46.677654333
 10
-5.815437796
 20
46.6286244028
 10
-5.5861095773
 20
46.5593254908
 10
-5.3572123502
 20
46.4696790071
 10
-5.134165127
 20
46.3594491824
 10
-4.9175255732
 20
46.2286484602
 10
-4.7067360233
 20
46.077264397
 10
-4.5055424919
 20
45.905023893
 10
-4.3132717763
 20
45.7110163634
 10
-4.1305970792
 20
45.496152393
 10
-3.9632840238
 20
45.2628906371
 10
-3.8115238548
 20
45.0104264272
 10
-3.6751253276
 20
44.7395644317
 10
-3.5592803307
 20
44.4551773112
 10
-3.4645266758
 20
44.155971688
 10
-3.3903265514
 20
43.8432409396
 10
-3.3402584111
 20
43.5257378593
 10
-3.3155212892
 20
43.2032046974
 10
-3.3149161515
 20
42.8758992035
 10
-3.3384243491
 20
42.5533474196
 10
-3.3871943047
 20
42.2358885661
 10
-3.4600775957
 20
41.9231834226
 10
-3.5536103054
 20
41.6237403705
 10
-3.6683908972
 20
41.3386854966
 10
-3.8038209078
 20
41.0668927141
 10
-3.9546410303
 20
40.8134921436
 10
-4.1209349322
 20
40.579433145
 10
-4.3026189461
 20
40.3637663584
 10
-4.4941827626
 20
40.1687738247
 10
-4.6951373403
 20
39.9952142386
 10
-4.9059717207
 20
39.8423289054
 10
-5.1226427188
 20
39.7101237818
 10
-5.3451567514
 20
39.5986993444
 10
-5.5735074018
 20
39.5079551165
 10
-5.8036322344
 20
39.4375956249
 10
-6.0341771041
 20
39.3875223786
 10
-6.2664961561
 20
39.3578338685
 10
-6.5005893903
 20
39.3485300948
  0
LWPOLYLINE
  5
336
100
AcDbEntity
  8
RACCORDO
100
AcDbPolyline
 62
250
  6
CONTINUOUS
 90
40
 70
0
 10
8.9994106097
 20
46.7146714784
 10
9.2282254662
 20
46.7063366915
 10
9.4566093309
 20
46.677654333
 10
9.684562204
 20
46.6286244028
 10
9.9138904227
 20
46.5593254908
 10
10.1427876498
 20
46.4696790071
 10
10.365834873
 20
46.3594491824
 10
10.5824744268
 20
46.2286484602
 10
10.7932639767
 20
46.077264397
 10
10.9944575081
 20
45.905023893
 10
11.1867282237
 20
45.7110163634
 10
11.3694029208
 20
45.496152393
 10
11.5367159762
 20
45.2628906371
 10
11.6884761452
 20
45.0104264272
 10
11.8248746724
 20
44.7395644317
 10
11.9407196693
 20
44.4551773112
 10
12.0354733242
 20
44.155971688
 10
12.1096734486
 20
43.8432409396
 10
12.1597415889
 20
43.5257378593
 10
12.1844787108
 20
43.2032046974
 10
12.1850838485
 20
42.8758992035
 10
12.1615756509
 20
42.5533474196
 10
12.1128056953
 20
42.2358885661
 10
12.0399224043
 20
41.9231834226
 10
11.9463896946
 20
41.6237403705
 10
11.8316091028
 20
41.3386854966
 10
11.6961790922
 20
41.0668927141
 10
11.5453589697
 20
40.8134921436
 10
11.3790650678
 20
40.579433145
 10
11.1973810539
 20
40.3637663584
 10
11.0058172374
 20
40.1687738247
 10
10.8048626597
 20
39.9952142386
 10
10.5940282793
 20
39.8423289054
 10
10.3773572812
 20
39.7101237818
 10
10.1548432486
 20
39.5986993444
 10
9.9264925982
 20
39.5079551165
 10
9.6963677656
 20
39.4375956249
 10
9.4658228959
 20
39.3875223786
 10
9.2335038439
 20
39.3578338685
 10
8.9994106097
 20
39.3485300948
  0
LWPOLYLINE
  5
337
100
AcDbEntity
  8
RACCORDO
100
AcDbPolyline
 62
7
  6
CONTINUOUS
 90
22
 70
0
 10
8.9994106097
 20
46.4594292474
 10
9.2061608287
 20
46.4508796688
 10
9.4146816965
 20
46.4240792928
 10
9.6237848026
 20
46.3786080535
 10
9.8323869917
 20
46.3140976833
 10
10.0389588476
 20
46.2302992702
 10
10.2415769394
 20
46.1272080755
 10
10.4382577479
 20
46.0051609151
 10
10.628209688
 20
45.8641048884
 10
10.8111230261
 20
45.7034746375
 10
10.9857602619
 20
45.5228520517
 10
11.1499328566
 20
45.3230733742
 10
11.3017393234
 20
45.1054777586
 10
11.4395256681
 20
44.8705175632
 10
11.5616571952
 20
44.6192476246
 10
11.666461582
 20
44.3542238359
 10
11.752659184
 20
44.0759280055
 10
11.8187291339
 20
43.7863783789
 10
11.8633352399
 20
43.4907657829
 10
11.8858883548
 20
43.1906841255
 10
11.8859830744
 20
42.8878725484
 10
11.881592712
 20
42.7967789045
  0
LINE
  5
338
100
AcDbEntity
  8
RACCORDO
100
AcDbLine
 62
7
  6
CONTINUOUS
 10
44.1314772053
 20
24.8341726634
 11
44.0700967377
 21
25.0759756784
  0
LINE
  5
339
100
AcDbEntity
  8
RACCORDO
100
AcDbLine
 62
7
  6
CONTINUOUS
 10
44.1250603922
 20
24.8482088497
 11
44.0627007142
 21
25.1079191518
  0
LINE
  5
33A
100
AcDbEntity
  8
RACCORDO
100
AcDbLine
 62
7
  6
CONTINUOUS
 10
44.0700967377
 20
25.0759756784
 11
44.0281561204
 21
25.3280036833
  0
LINE
  5
33B
100
AcDbEntity
  8
RACCORDO
100
AcDbLine
 62
7
  6
CONTINUOUS
 10
44.0627007142
 20
25.1079191518
 11
44.022393574
 21
25.3768859072
  0
LINE
  5
33C
100
AcDbEntity
  8
RACCORDO
100
AcDbLine
 62
250
  6
CONTINUOUS
 10
56.1432181139
 20
-46.4710258093
 11
54.4981852825
 21
47.7441278253
  0
LWPOLYLINE
  5
33D
100
AcDbEntity
  8
RACCORDO
100
AcDbPolyline
 62
250
  6
CONTINUOUS
 90
18
 70
0
 10
57.1399279346
 20
-46.300028109
 10
55.4885376874
 20
48.3126399513
 10
55.4807368907
 20
48.8564761049
 10
55.4741737194
 20
49.3930860347
 10
55.4688261562
 20
49.92496339
 10
55.4647162185
 20
50.4496145214
 10
55.461909958
 20
50.9595584806
 10
55.4604272977
 20
51.4546805095
 10
55.4602483147
 20
51.9350953662
 10
55.4613792925
 20
52.3936663773
 10
55.4638420479
 20
52.8300077487
 10
55.4676147642
 20
53.2445052745
 10
55.4726382751
 20
53.6311796637
 10
55.4789275908
 20
53.9894841724
 10
55.4864677011
 20
54.3199655444
 10
55.4951544088
 20
54.6182847199
 10
55.5050008436
 20
54.8840725178
 10
55.5159938758
 20
55.1176981193
  0
LWPOLYLINE
  5
33E
100
AcDbEntity
  8
RACCORDO
100
AcDbPolyline
 62
250
  6
CONTINUOUS
 90
24
 70
0
 10
54.4981852825
 20
47.7441278253
 10
54.4891291504
 20
48.3609288454
 10
54.4813171229
 20
48.9748368617
 10
54.4747492
 20
49.582964829
 10
54.4694059098
 20
50.1823255336
 10
54.4653067243
 20
50.7702320748
 10
54.4625100589
 20
51.3442836104
 10
54.4610333451
 20
51.9019971284
 10
54.4608591515
 20
52.4404407982
 10
54.4619935996
 20
52.9566651825
 10
54.4644584795
 20
53.4482144278
 10
54.4682320012
 20
53.9127981805
 10
54.4732549159
 20
54.3479847916
 10
54.4795421279
 20
54.7516184199
 10
54.4870787329
 20
55.1220518245
 10
54.4957607693
 20
55.4578267408
 10
54.5056013188
 20
55.757362512
 10
54.5165872996
 20
56.0192490096
 10
54.5285755048
 20
56.242391078
 10
54.5415852565
 20
56.4257233302
 10
54.5555972326
 20
56.5681935429
 10
54.5704102594
 20
56.6689954692
 10
54.5860387135
 20
56.7276388148
 10
54.6004321715
 20
56.7441277267
  0
LWPOLYLINE
  5
33F
100
AcDbEntity
  8
RACCORDO
100
AcDbPolyline
 62
250
  6
CONTINUOUS
 90
12
 70
0
 10
55.5159938758
 20
55.1176981193
 10
55.527989919
 20
55.3159300075
 10
55.5410083259
 20
55.4783540484
 10
55.5550297438
 20
55.6053843761
 10
55.5698525281
 20
55.6950318754
 10
55.5854910009
 20
55.7466739593
 10
55.60193084
 20
55.7609332147
 10
55.6189274345
 20
55.7376882878
 10
55.6364861023
 20
55.6763516857
 10
55.6546015256
 20
55.5775109013
 10
55.6730131394
 20
55.4428070597
 10
55.6916340889
 20
55.2727872026
  0
LINE
  5
340
100
AcDbEntity
  8
DRAFT
100
AcDbLine
 62
7
  6
CONTINUOUS
 10
57.7994106097
 20
32.8089987752
 11
57.712108686
 21
31.4833930915
  0
LWPOLYLINE
  5
341
100
AcDbEntity
  8
RACCORDO
100
AcDbPolyline
 62
250
  6
CONTINUOUS
 90
6
 70
0
 10
59.7494106097
 20
32.5107936945
 10
59.7532085409
 20
32.5324993464
 10
59.7644869979
 20
32.5535455855
 10
59.7829033847
 20
32.5732929379
 10
59.8078982026
 20
32.5911413737
 10
59.8387120866
 20
32.6065485704
  0
LWPOLYLINE
  5
342
100
AcDbEntity
  8
RACCORDO
100
AcDbPolyline
 62
250
  6
CONTINUOUS
 90
5
 70
0
 10
59.8387137073
 20
-37.3250021057
 10
59.8744106097
 20
-37.3125044857
 10
59.9139055739
 20
-37.3032960835
 10
59.9559985653
 20
-37.297656692
 10
59.9994106097
 20
-37.2957576611
  0
LWPOLYLINE
  5
343
100
AcDbEntity
  8
ASSI
100
AcDbPolyline
 62
7
  6
CONTINUOUS
 90
7
 70
0
 10
4.9867328805
 20
56.6577333489
 10
5.0860092527
 20
56.6842315876
 10
5.1751917473
 20
56.7065796553
 10
5.2537391005
 20
56.7241652542
 10
5.3212635077
 20
56.736413004
 10
5.3774409553
 20
56.7430178054
 10
5.4054472268
 20
56.7441275091
  0
LWPOLYLINE
  5
344
100
AcDbEntity
  8
ASSI
100
AcDbPolyline
 62
7
  6
CONTINUOUS
 90
4
 70
0
 10
-2.5858299696
 20
54.7441245615
 10
-2.6533557072
 20
54.7422726351
 10
-2.7531339665
 20
54.7293086555
 10
-2.8152142794
 20
54.7092108535
  0
LWPOLYLINE
  5
345
100
AcDbEntity
  8
ASSI
100
AcDbPolyline
 62
7
  6
CONTINUOUS
 90
28
 70
0
 10
5.0854139637
 20
54.744126327
 10
5.0182046685
 20
54.7423912857
 10
4.8729762565
 20
54.7301769329
 10
4.7067686893
 20
54.7076007931
 10
4.5168021868
 20
54.6760729646
 10
4.3058565291
 20
54.6370958013
 10
4.0818070773
 20
54.5937863849
 10
3.8441092519
 20
54.5487561876
 10
3.5933076322
 20
54.5034363833
 10
3.338911318
 20
54.4598520483
 10
3.0863008456
 20
54.4201262379
 10
2.8300956785
 20
54.3850014895
 10
2.5636633071
 20
54.3539834933
 10
2.2838040485
 20
54.3268456595
 10
1.9937175855
 20
54.3050328614
 10
1.6963704575
 20
54.2902258294
 10
1.3891953499
 20
54.2830371657
 10
1.0747595772
 20
54.2833913906
 10
0.763731622
 20
54.2917509305
 10
0.4578029238
 20
54.3082794079
 10
0.155282043
 20
54.3321626043
 10
-0.1382368563
 20
54.3621403819
 10
-0.4220410652
 20
54.3974846392
 10
-0.6968432927
 20
54.4372230119
 10
-0.959187502
 20
54.4796303225
 10
-1.2088694949
 20
54.5235504274
 10
-1.4460934695
 20
54.5676749247
 10
-1.8743995115
 20
54.6494516623
  0
LINE
  5
346
100
AcDbEntity
  8
RACCORDO
100
AcDbLine
 62
7
  6
CONTINUOUS
 10
54.6004321715
 20
56.7441277267
 11
54.6004740319
 21
56.7441278226
  0
LINE
  5
347
100
AcDbEntity
  8
0
100
AcDbLine
 62
250
  6
CONTINUOUS
 10
-2.3006657904
 20
53.9247609753
 11
4.7987840836
 21
53.9247609753
  0
LINE
  5
348
100
AcDbEntity
  8
ASSI
100
AcDbLine
 62
7
  6
CONTINUOUS
 10
-52.102334748
 20
56.7441278253
 11
-3.0005893903
 21
56.7441278253
  0
LINE
  5
349
100
AcDbEntity
  8
ASSI
100
AcDbLine
 62
7
  6
CONTINUOUS
 10
5.4994106097
 20
56.7441278253
 11
54.6011559674
 21
56.7441278253
  0
LINE
  5
34A
100
AcDbEntity
  8
RACCORDO
100
AcDbLine
 62
7
  6
CONTINUOUS
 10
-52.1016528125
 20
56.7441278226
 11
-52.1016112628
 21
56.7441277284
  0
LWPOLYLINE
  5
34B
100
AcDbEntity
  8
ASSI
100
AcDbPolyline
 62
7
  6
CONTINUOUS
 90
6
 70
0
 10
5.4054472268
 20
56.7441275091
 10
5.422595457
 20
56.7436370016
 10
5.4573112496
 20
56.738086141
 10
5.4817830787
 20
56.7264085357
 10
5.4958161988
 20
56.7085644278
 10
5.4994106097
 20
56.6845308309
  0
LINE
  5
34C
100
AcDbEntity
  8
ASSI
100
AcDbLine
 62
7
  6
CONTINUOUS
 10
-2.9071445936
 20
56.7441276768
 11
-2.8709007469
 21
56.7423918746
  0
LWPOLYLINE
  5
34D
100
AcDbEntity
  8
ASSI
100
AcDbPolyline
 62
7
  6
CONTINUOUS
 90
7
 70
0
 10
-2.8709007469
 20
56.7423918746
 10
-2.822084218
 20
56.7363687888
 10
-2.7651993889
 20
56.7261787009
 10
-2.6996741535
 20
56.712017814
 10
-2.6257341216
 20
56.6940946858
 10
-2.5431536834
 20
56.6725767981
 10
-2.4506839039
 20
56.647625306
  0
LWPOLYLINE
  5
34E
100
AcDbEntity
  8
ASSI
100
AcDbPolyline
 62
7
  6
CONTINUOUS
 90
6
 70
0
 10
-1.8743995115
 20
54.6494516623
 10
-2.0654815789
 20
54.6841477437
 10
-2.2391313188
 20
54.7123151429
 10
-2.3950703105
 20
54.7325055166
 10
-2.5335769748
 20
54.743004319
 10
-2.5858299696
 20
54.7441245615
  0
LWPOLYLINE
  5
34F
100
AcDbEntity
  8
ASSI
100
AcDbPolyline
 62
7
  6
CONTINUOUS
 90
29
 70
0
 10
-1.9762481182
 20
56.5167952041
 10
-1.8281147572
 20
56.4772847333
 10
-1.6694681794
 20
56.4365490985
 10
-1.5000421647
 20
56.395095917
 10
-1.3201029332
 20
56.353200685
 10
-1.1316278268
 20
56.3120786457
 10
-0.9372567832
 20
56.2725170383
 10
-0.7343498646
 20
56.2346205868
 10
-0.5169646001
 20
56.1986465943
 10
-0.2839155696
 20
56.1642193564
 10
-0.0363881931
 20
56.132307713
 10
0.2280037405
 20
56.1052803154
 10
0.513247328
 20
56.0832700489
 10
0.8153554725
 20
56.0667721209
 10
1.1247530946
 20
56.0588382459
 10
1.4426961985
 20
56.0604687869
 10
1.7679287799
 20
56.0707834478
 10
2.0871077465
 20
56.0898623675
 10
2.3997184412
 20
56.1183358591
 10
2.7062755212
 20
56.1546063712
 10
2.9949798655
 20
56.1953742625
 10
3.2623233297
 20
56.2400899903
 10
3.5118140582
 20
56.2880275734
 10
3.7421773629
 20
56.3360872288
 10
3.9516955027
 20
56.3833955269
 10
4.1420862186
 20
56.430008426
 10
4.3172280454
 20
56.4747148405
 10
4.4772879074
 20
56.5169503277
 10
4.9867328805
 20
56.6577333489
  0
LWPOLYLINE
  5
350
100
AcDbEntity
  8
ASSI
100
AcDbPolyline
 62
7
  6
CONTINUOUS
 90
3
 70
0
 10
-2.4506839039
 20
56.647625306
 10
-2.2364454013
 20
56.5880138865
 10
-1.9762481182
 20
56.5167952041
  0
LWPOLYLINE
  5
351
100
AcDbEntity
  8
ASSI
100
AcDbPolyline
 62
7
  6
CONTINUOUS
 90
4
 70
0
 10
5.3140967013
 20
54.7097263357
 10
5.2459233585
 20
54.7306914961
 10
5.1429179051
 20
54.7427923163
 10
5.0854139637
 20
54.744126327
  0
LINE
  5
352
100
AcDbEntity
  8
RACCORDO
100
AcDbLine
 62
7
  6
CONTINUOUS
 10
62.1784663442
 20
-43.1134506973
 11
62.6666317388
 21
-46.2822843978
  0
LWPOLYLINE
  5
353
100
AcDbEntity
  8
RACCORDO
100
AcDbPolyline
 62
7
  6
CONTINUOUS
 90
30
 70
0
 10
55.6907178249
 20
55.3199296829
 10
55.6851144551
 20
55.3763077217
 10
55.6795166397
 20
55.4299669638
 10
55.6739126353
 20
55.4810261404
 10
55.668264149
 20
55.5298119472
 10
55.6625574567
 20
55.5763987954
 10
55.6567786552
 20
55.6208493893
 10
55.6508701375
 20
55.6635214074
 10
55.6448222269
 20
55.7043734143
 10
55.6385789923
 20
55.7436559437
 10
55.6319627893
 20
55.7822395395
 10
55.6249675973
 20
55.8198428242
 10
55.6174290168
 20
55.8569986477
 10
55.6087652824
 20
55.8958423293
 10
55.5988527883
 20
55.9358972665
 10
55.5872568513
 20
55.9777876501
 10
55.57236916
 20
56.0252824489
 10
55.5530753896
 20
56.0787994145
 10
55.5284334699
 20
56.1375253213
 10
55.4960584998
 20
56.2030978857
 10
55.4527698432
 20
56.2765977543
 10
55.397488329
 20
56.3543075109
 10
55.3314823382
 20
56.4305928834
 10
55.254727868
 20
56.5030548165
 10
55.1660558102
 20
56.5704607449
 10
55.0668689167
 20
56.6296446106
 10
54.9584594367
 20
56.6783187037
 10
54.841005388
 20
56.7149230628
 10
54.7151209056
 20
56.7375157772
 10
54.6004100387
 20
56.7440639622
  0
LINE
  5
354
100
AcDbEntity
  8
RACCORDO
100
AcDbLine
 62
250
  6
CONTINUOUS
 10
55.6916340889
 20
55.2727872026
 11
55.7105512288
 21
55.0669042882
  0
LINE
  5
355
100
AcDbEntity
  8
RACCORDO
100
AcDbLine
 62
7
  6
CONTINUOUS
 10
55.7019509967
 20
55.1988634259
 11
55.6907178249
 21
55.3199296829
  0
LWPOLYLINE
  5
356
100
AcDbEntity
  8
RACCORDO
100
AcDbPolyline
 62
7
  6
CONTINUOUS
 90
5
 70
0
 10
59.7494106097
 20
-12.2839066344
 10
59.7445378809
 20
-12.2258679991
 10
59.7318511363
 20
-12.1706324034
 10
59.711350376
 20
-12.1181998473
 10
59.6994106097
 20
-12.0973872904
  0
LWPOLYLINE
  5
357
100
AcDbEntity
  8
RACCORDO
100
AcDbPolyline
 62
7
  6
CONTINUOUS
 90
5
 70
0
 10
59.7494106097
 20
17.1609570943
 10
59.7445378809
 20
17.2189957296
 10
59.7318511363
 20
17.2742313252
 10
59.711350376
 20
17.3266638813
 10
59.6994106097
 20
17.3474764383
  0
LINE
  5
358
100
AcDbEntity
  8
RACCORDO
100
AcDbLine
 62
7
  6
CONTINUOUS
 10
55.7132616815
 20
55.0661051552
 11
55.7019509967
 21
55.1988634259
  0
LINE
  5
359
100
AcDbEntity
  8
RACCORDO
100
AcDbLine
 62
250
  6
CONTINUOUS
 10
55.7105512288
 20
55.0669042882
 11
55.7297645593
 21
54.8251583165
  0
LINE
  5
35A
100
AcDbEntity
  8
RACCORDO
100
AcDbLine
 62
7
  6
CONTINUOUS
 10
55.7246571463
 20
54.9213114008
 11
55.7132616815
 21
55.0661051552
  0
LINE
  5
35B
100
AcDbEntity
  8
RACCORDO
100
AcDbLine
 62
250
  6
CONTINUOUS
 10
55.7297645593
 20
54.8251583165
 11
57.7494106097
 21
27.656675182
  0
LINE
  5
35C
100
AcDbEntity
  8
RACCORDO
100
AcDbLine
 62
7
  6
CONTINUOUS
 10
55.7246571463
 20
54.9213114008
 11
57.7473382154
 21
27.7124158543
  0
LINE
  5
35D
100
AcDbEntity
  8
RACCORDO
100
AcDbLine
 62
7
  6
CONTINUOUS
 10
62.6669399041
 20
-46.2876687033
 11
62.6666317388
 21
-46.2822843978
  0
LWPOLYLINE
  5
35E
100
AcDbEntity
  8
RACCORDO
100
AcDbPolyline
 62
250
  6
CONTINUOUS
 90
8
 70
0
 10
59.7494106097
 20
32.5107936945
 10
59.7483250583
 20
32.5309480483
 10
59.7448844398
 20
32.5518052666
 10
59.7388241162
 20
32.573130519
 10
59.7298191233
 20
32.5948111788
 10
59.7177035673
 20
32.6163215984
 10
59.7026966164
 20
32.6368139294
 10
59.6883326181
 20
32.6522500962
  0
LINE
  5
35F
100
AcDbEntity
  8
RACCORDO
100
AcDbLine
 62
7
  6
CONTINUOUS
 10
57.7472704181
 20
27.7127322379
 11
57.7494106097
 21
27.656675182
  0
LINE
  5
360
100
AcDbEntity
  8
RACCORDO
100
AcDbLine
 62
250
  6
CONTINUOUS
 10
55.727625497
 20
54.8817957952
 11
55.7297645593
 21
54.8251583165
  0
LWPOLYLINE
  5
361
100
AcDbEntity
  8
RACCORDO
100
AcDbPolyline
 62
250
  6
CONTINUOUS
 90
9
 70
0
 10
59.9994106097
 20
32.6357936945
 10
59.9980114261
 20
32.6771059045
 10
59.9909371627
 20
32.7187015042
 10
59.9781878195
 20
32.7605804938
 10
59.9596937851
 20
32.8037147655
 10
59.9355246708
 20
32.847132427
 10
59.9058893109
 20
32.887917801
 10
59.8698972452
 20
32.9258434039
 10
59.8284389339
 20
32.9611367193
  0
LINE
  5
362
100
AcDbEntity
  8
DRAFT
100
AcDbLine
 62
7
  6
CONTINUOUS
 10
57.712108686
 20
31.4833930915
 11
57.712108686
 21
28.5221730265
  0
LINE
  5
363
100
AcDbEntity
  8
RACCORDO
100
AcDbLine
 62
7
  6
CONTINUOUS
 10
57.7494106097
 20
27.656675182
 11
57.7494106097
 21
-37.2957576611
  0
LINE
  5
364
100
AcDbEntity
  8
DRAFT
100
AcDbLine
 62
7
  6
CONTINUOUS
 10
57.7994106097
 20
32.8089987752
 11
57.7994106097
 21
28.5221730265
  0
LINE
  5
365
100
AcDbEntity
  8
RACCORDO
100
AcDbLine
 62
250
  6
CONTINUOUS
 10
59.4994106097
 20
32.803841999
 11
59.4994106097
 21
33.0688063964
  0
LINE
  5
366
100
AcDbEntity
  8
ASSI
100
AcDbLine
 62
7
  6
CONTINUOUS
 10
59.6994106097
 20
-46.4710258093
 11
59.6994106097
 21
-37.2957576611
  0
LINE
  5
367
100
AcDbEntity
  8
RACCORDO
100
AcDbLine
 62
7
  6
CONTINUOUS
 10
59.6994106097
 20
-46.4710258093
 11
59.6994106097
 21
-51.5481588687
  0
LINE
  5
368
100
AcDbEntity
  8
RACCORDO
100
AcDbLine
 62
7
  6
CONTINUOUS
 10
59.6994106097
 20
-37.2957576611
 11
59.6994106097
 21
32.5923604541
  0
LINE
  5
369
100
AcDbEntity
  8
RACCORDO
100
AcDbLine
 62
7
  6
CONTINUOUS
 10
59.7494106097
 20
-52.3694215021
 11
59.7494106097
 21
32.5107936945
  0
LINE
  5
36A
100
AcDbEntity
  8
RACCORDO
100
AcDbLine
 62
250
  6
CONTINUOUS
 10
59.9994106097
 20
-46.4605749841
 11
59.9994106097
 21
32.6357936945
  0
LINE
  5
36B
100
AcDbEntity
  8
RACCORDO
100
AcDbLine
 62
7
  6
CONTINUOUS
 10
62.0287767657
 20
33.9607911965
 11
62.0287767657
 21
-37.2957576611
  0
LWPOLYLINE
  5
36C
100
AcDbEntity
  8
RACCORDO
100
AcDbPolyline
 62
7
  6
CONTINUOUS
 90
5
 70
0
 10
59.7494106097
 20
2.5724998262
 10
59.7445378809
 20
2.514461191
 10
59.7318511363
 20
2.4592255953
 10
59.711350376
 20
2.4067930392
 10
59.6994106097
 20
2.3859804823
  0
LWPOLYLINE
  5
36D
100
AcDbEntity
  8
RACCORDO
100
AcDbPolyline
 62
7
  6
CONTINUOUS
 90
5
 70
0
 10
59.7494106097
 20
-26.8723639025
 10
59.7445378809
 20
-26.9304025377
 10
59.7318511363
 20
-26.9856381334
 10
59.711350376
 20
-27.0380706895
 10
59.6994106097
 20
-27.0588832464
  0
LWPOLYLINE
  5
36E
100
AcDbEntity
  8
RACCORDO
100
AcDbPolyline
 62
7
  6
CONTINUOUS
 90
32
 70
0
 10
-52.1015891306
 20
56.7440639651
 10
-52.2151270242
 20
56.7376494416
 10
-52.34104476
 20
56.7152024878
 10
-52.4587210037
 20
56.6786667111
 10
-52.5674316308
 20
56.6299657472
 10
-52.6669751096
 20
56.5706363311
 10
-52.7560308417
 20
56.5029491578
 10
-52.8331050708
 20
56.4301277806
 10
-52.899377695
 20
56.3533988954
 10
-52.9548554257
 20
56.2751886258
 10
-52.9982046526
 20
56.2012898721
 10
-53.0305125604
 20
56.1355329704
 10
-53.055041575
 20
56.0767617751
 10
-53.074234892
 20
56.0232236005
 10
-53.0890445769
 20
55.9757046793
 10
-53.1005754346
 20
55.9338086125
 10
-53.1104397032
 20
55.8937224195
 10
-53.1190713989
 20
55.854808056
 10
-53.126588995
 20
55.8175558126
 10
-53.133570459
 20
55.7798297505
 10
-53.1401782954
 20
55.7410994903
 10
-53.1464181601
 20
55.7016454579
 10
-53.1524674968
 20
55.6605892605
 10
-53.1583819984
 20
55.6176758377
 10
-53.1641705585
 20
55.5729478063
 10
-53.1698903696
 20
55.5260449057
 10
-53.175555495
 20
55.4768986329
 10
-53.1811791042
 20
55.4254354045
 10
-53.1867982903
 20
55.3713355575
 10
-53.1924243133
 20
55.3144826222
 10
-53.1980568584
 20
55.2548669455
 10
-53.2093803773
 20
55.1268451081
  0
LWPOLYLINE
  5
36F
100
AcDbEntity
  8
RACCORDO
100
AcDbPolyline
 62
250
  6
CONTINUOUS
 90
8
 70
0
 10
59.8284389339
 20
32.9611367193
 10
59.7843945921
 20
32.9915645206
 10
59.7376936144
 20
33.0163336094
 10
59.6884066063
 20
33.0362371841
 10
59.6396255986
 20
33.0514216133
 10
59.5923812685
 20
33.0619356865
 10
59.5456429388
 20
33.0677306142
 10
59.4994106097
 20
33.0688063964
  0
LWPOLYLINE
  5
370
100
AcDbEntity
  8
RACCORDO
100
AcDbPolyline
 62
7
  6
CONTINUOUS
 90
5
 70
0
 10
59.6994106097
 20
18.3474764383
 10
59.711350376
 20
18.3266638813
 10
59.7318511363
 20
18.2742313252
 10
59.7445378809
 20
18.2189957296
 10
59.7494106097
 20
18.1609570943
  0
LINE
  5
371
100
AcDbEntity
  8
RACCORDO
100
AcDbLine
 62
250
  6
CONTINUOUS
 10
61.6667373672
 20
-46.4605749841
 11
61.4871642636
 21
-54.3390370082
  0
LINE
  5
372
100
AcDbEntity
  8
RACCORDO
100
AcDbLine
 62
7
  6
CONTINUOUS
 10
62.6669801268
 20
-46.2876711198
 11
62.508668233
 21
-53.2333340184
  0
LWPOLYLINE
  5
373
100
AcDbEntity
  8
RACCORDO
100
AcDbPolyline
 62
250
  6
CONTINUOUS
 90
5
 70
0
 10
59.7494106097
 20
-43.3596526355
 10
59.7532089809
 20
-43.3168983892
 10
59.7644885034
 20
-43.2754437756
 10
59.7829061853
 20
-43.2365483804
 10
59.8079021165
 20
-43.2013940083
  0
LINE
  5
374
100
AcDbEntity
  8
RACCORDO
100
AcDbLine
 62
7
  6
CONTINUOUS
 10
57.1399279346
 20
-46.300028109
 11
57.5934839655
 21
-43.3558545738
  0
LWPOLYLINE
  5
375
100
AcDbEntity
  8
RACCORDO
100
AcDbPolyline
 62
250
  6
CONTINUOUS
 90
6
 70
0
 10
59.7494106097
 20
-37.4207576611
 10
59.7532086715
 20
-37.3990516389
 10
59.7644874545
 20
-37.3780051432
 10
59.7829042588
 20
-37.3582576611
 10
59.807899499
 20
-37.3404092099
 10
59.8387137073
 20
-37.3250021057
  0
LWPOLYLINE
  5
376
100
AcDbEntity
  8
RACCORDO
100
AcDbPolyline
 62
7
  6
CONTINUOUS
 90
5
 70
0
 10
59.7494106097
 20
29.6357936945
 10
59.7446936433
 20
29.6750988674
 10
59.7335298634
 20
29.7111821045
 10
59.7159192701
 20
29.7440434058
 10
59.6994106097
 20
29.7641625684
  0
LWPOLYLINE
  5
377
100
AcDbEntity
  8
RACCORDO
100
AcDbPolyline
 62
250
  6
CONTINUOUS
 90
5
 70
0
 10
59.8387166132
 20
-43.1710486077
 10
59.8744134035
 20
-43.1464339143
 10
59.9139078662
 20
-43.1282976696
 10
59.9559999087
 20
-43.117190825
 10
59.9994106097
 20
-43.1134506976
  0
LWPOLYLINE
  5
378
100
AcDbEntity
  8
RACCORDO
100
AcDbPolyline
 62
7
  6
CONTINUOUS
 90
17
 70
0
 10
61.7519348638
 20
-54.3091552847
 10
61.8502392915
 20
-54.2769470761
 10
61.9407405235
 20
-54.2351615249
 10
62.0234611217
 20
-54.1853563596
 10
62.099369184
 20
-54.1287455838
 10
62.1683423162
 20
-54.0663655071
 10
62.2301642626
 20
-53.999212452
 10
62.2855350371
 20
-53.9278686157
 10
62.3344869693
 20
-53.8529975681
 10
62.3769438884
 20
-53.7753721159
 10
62.4132873873
 20
-53.6954372399
 10
62.4436176823
 20
-53.6136266524
 10
62.4679465563
 20
-53.530611708
 10
62.4864707406
 20
-53.4470723962
 10
62.4993657464
 20
-53.363537219
 10
62.5068019407
 20
-53.280388761
 10
62.5086927656
 20
-53.2328440932
  0
LINE
  5
379
100
AcDbEntity
  8
RACCORDO
100
AcDbLine
 62
250
  6
CONTINUOUS
 10
59.8079021165
 20
-43.2013940083
 11
59.8387166132
 21
-43.1710486077
  0
CIRCLE
  5
37A
100
AcDbEntity
  8
ASSI
100
AcDbCircle
 62
7
  6
CONTINUOUS
 10
-45.5005893903
 20
-39.1557034041
 40
6.9660254038
  0
CIRCLE
  5
37B
100
AcDbEntity
  8
ASSI
100
AcDbCircle
 62
7
  6
CONTINUOUS
 10
-45.5005893903
 20
-39.1557034041
 40
6.1
  0
CIRCLE
  5
37C
100
AcDbEntity
  8
0
100
AcDbCircle
 62
7
  6
CONTINUOUS
 10
-45.5005893903
 20
-39.1557034041
 40
6.0
  0
CIRCLE
  5
37D
100
AcDbEntity
  8
0
100
AcDbCircle
 62
7
  6
CONTINUOUS
 10
-45.5005893903
 20
-39.1557034041
 40
4.048134511
  0
CIRCLE
  5
37E
100
AcDbEntity
  8
ASSI
100
AcDbCircle
 62
7
  6
CONTINUOUS
 10
-43.7505893903
 20
39.8442965959
 40
6.9660254038
  0
CIRCLE
  5
37F
100
AcDbEntity
  8
ASSI
100
AcDbCircle
 62
7
  6
CONTINUOUS
 10
-43.7505893903
 20
39.8442965959
 40
6.1
  0
CIRCLE
  5
380
100
AcDbEntity
  8
0
100
AcDbCircle
 62
7
  6
CONTINUOUS
 10
-43.7505893903
 20
39.8442965959
 40
6.0
  0
CIRCLE
  5
381
100
AcDbEntity
  8
0
100
AcDbCircle
 62
7
  6
CONTINUOUS
 10
-43.7505893903
 20
39.8442965959
 40
4.048134511
  0
CIRCLE
  5
382
100
AcDbEntity
  8
ASSI
100
AcDbCircle
 62
7
  6
CONTINUOUS
 10
47.9994106097
 20
-39.1557034041
 40
6.9660254038
  0
CIRCLE
  5
383
100
AcDbEntity
  8
ASSI
100
AcDbCircle
 62
7
  6
CONTINUOUS
 10
47.9994106097
 20
-39.1557034041
 40
6.1
  0
CIRCLE
  5
384
100
AcDbEntity
  8
0
100
AcDbCircle
 62
7
  6
CONTINUOUS
 10
47.9994106097
 20
-39.1557034041
 40
6.0
  0
CIRCLE
  5
385
100
AcDbEntity
  8
0
100
AcDbCircle
 62
7
  6
CONTINUOUS
 10
47.9994106097
 20
-39.1557034041
 40
4.048134511
  0
CIRCLE
  5
386
100
AcDbEntity
  8
0
100
AcDbCircle
 62
7
  6
CONTINUOUS
 10
1.2494106097
 20
2.3442965959
 40
13.0
  0
CIRCLE
  5
387
100
AcDbEntity
  8
ASSI
100
AcDbCircle
 62
7
  6
CONTINUOUS
 10
46.2494106097
 20
39.8442965959
 40
6.9660254038
  0
CIRCLE
  5
388
100
AcDbEntity
  8
ASSI
100
AcDbCircle
 62
7
  6
CONTINUOUS
 10
46.2494106097
 20
39.8442965959
 40
6.1
  0
CIRCLE
  5
389
100
AcDbEntity
  8
0
100
AcDbCircle
 62
7
  6
CONTINUOUS
 10
46.2494106097
 20
39.8442965959
 40
6.0
  0
CIRCLE
  5
38A
100
AcDbEntity
  8
0
100
AcDbCircle
 62
7
  6
CONTINUOUS
 10
46.2494106097
 20
39.8442965959
 40
4.048134511
  0
ELLIPSE
  5
38B
100
AcDbEntity
  8
DRAFT
100
AcDbEllipse
 62
7
  6
CONTINUOUS
 10
-59.9490047801
 20
-31.2957576611
 30
0.0
 11
-0.2097163347
 21
11.999998325
 31
0.0
 40
0.0302330481
 41
-2.9675880921
 42
-2.0949234661
  0
ELLIPSE
  5
38C
100
AcDbEntity
  8
DRAFT
100
AcDbEllipse
 62
7
  6
CONTINUOUS
 10
62.4478259996
 20
-31.2957576611
 30
0.0
 11
0.2097163347
 21
11.999998325
 31
0.0
 40
0.0302330481
 41
-4.1882618411
 42
-3.3155972151
  0
ELLIPSE
  5
38D
100
AcDbEntity
  8
RACCORDO
100
AcDbEllipse
 62
7
  6
CONTINUOUS
 10
-58.9883430441
 20
-54.1653888305
 30
0.0
 11
1.0002518941
 21
-0.0
 31
0.0
 40
0.1736044477
 41
-1.619968924
 42
-1.5707963268
  0
ELLIPSE
  5
38E
100
AcDbEntity
  8
RACCORDO
100
AcDbEllipse
 62
7
  6
CONTINUOUS
 10
61.4871642636
 20
-54.1653888305
 30
0.0
 11
1.0002518941
 21
0.0
 31
0.0
 40
0.1736044477
 41
-1.5707963268
 42
-1.5216237295
  0
ELLIPSE
  5
38F
100
AcDbEntity
  8
RACCORDO
100
AcDbEllipse
 62
7
  6
CONTINUOUS
 10
61.0281672214
 20
33.9597357563
 30
0.0
 11
1.000602865
 21
0.0042216572
 31
0.0
 40
0.8660209074
 41
-0.0036538243
 42
1.5659245273
  0
ELLIPSE
  5
390
100
AcDbEntity
  8
RACCORDO
100
AcDbEllipse
 62
7
  6
CONTINUOUS
 10
-58.5293460019
 20
33.9597357563
 30
0.0
 11
1.000602865
 21
-0.0042216572
 31
0.0
 40
0.8660209074
 41
1.5756681263
 42
3.1452464779
  0
ELLIPSE
  5
391
100
AcDbEntity
  8
RACCORDO
100
AcDbEllipse
 62
7
  6
CONTINUOUS
 10
-59.1679161477
 20
-46.2869268064
 30
0.0
 11
1.0002518941
 21
-0.0
 31
0.0
 40
0.1736044477
 41
-3.1373200846
 42
-1.5707963268
  0
ELLIPSE
  5
392
100
AcDbEntity
  8
RACCORDO
100
AcDbEllipse
 62
7
  6
CONTINUOUS
 10
61.6667373672
 20
-46.2869268064
 30
0.0
 11
1.0002518941
 21
0.0
 31
0.0
 40
0.1736044477
 41
-1.5707963268
 42
-0.0042725988
  0
ELLIPSE
  5
393
100
AcDbEntity
  8
RACCORDO
100
AcDbEllipse
 62
7
  6
CONTINUOUS
 10
-56.7005893903
 20
-51.5481588687
 30
0.0
 11
-0.0
 21
-0.5077133059
 31
0.0
 40
0.984807753
 41
-1.5707963268
 42
0.0
  0
ELLIPSE
  5
394
100
AcDbEntity
  8
RACCORDO
100
AcDbEllipse
 62
7
  6
CONTINUOUS
 10
59.4494106097
 20
32.5923604541
 30
0.0
 11
0.25
 21
0.0
 31
0.0
 40
0.8665532846
 41
6.2831853072
 42
7.853981634
  0
ELLIPSE
  5
395
100
AcDbEntity
  8
RACCORDO
100
AcDbEllipse
 62
7
  6
CONTINUOUS
 10
59.1994106097
 20
-51.5481588687
 30
0.0
 11
0.0
 21
0.5077133059
 31
0.0
 40
0.984807753
 41
3.1415926536
 42
4.7123889804
  0
ELLIPSE
  5
396
100
AcDbEntity
  8
RACCORDO
100
AcDbEllipse
 62
7
  6
CONTINUOUS
 10
-56.9505893903
 20
32.5923604541
 30
0.0
 11
0.25
 21
0.0
 31
0.0
 40
0.8665532846
 41
1.5707963268
 42
3.1415926536
  0
ELLIPSE
  5
397
100
AcDbEntity
  8
0
100
AcDbEllipse
 62
7
  6
CONTINUOUS
 10
17.1949746097
 20
-32.7163430245
 30
0.0
 11
1.0951
 21
-0.0
 31
0.0
 40
0.8660254038
 41
-1.5707630306
 42
1.5708061065
  0
ELLIPSE
  5
398
100
AcDbEntity
  8
0
100
AcDbEllipse
 62
7
  6
CONTINUOUS
 10
10.2827846097
 20
27.6423621261
 30
0.0
 11
1.610238
 21
-0.0
 31
0.0
 40
0.8660254038
 41
1.5755116021
 42
2.8796148261
  0
ELLIPSE
  5
399
100
AcDbEntity
  8
RACCORDO
100
AcDbEllipse
 62
7
  6
CONTINUOUS
 10
56.140139377
 20
-46.2946988286
 30
0.0
 11
1.0001571546
 21
-0.0005601904
 31
0.0
 40
0.1762983847
 41
-1.5676193236
 42
-0.0270514509
  0
ELLIPSE
  5
39A
100
AcDbEntity
  8
RACCORDO
100
AcDbEllipse
 62
7
  6
CONTINUOUS
 10
-53.6413181575
 20
-46.2946988286
 30
0.0
 11
1.0001571546
 21
0.0005601904
 31
0.0
 40
0.1762983847
 41
-3.1145412026
 42
-1.57397333
  0
ELLIPSE
  5
39B
100
AcDbEntity
  8
DRAFT
100
AcDbEllipse
 62
7
  6
CONTINUOUS
 10
-54.8140797716
 20
-31.0457576611
 30
0.0
 11
0.2184545153
 21
12.4999982552
 31
0.0
 40
0.0302330481
 41
2.0949234661
 42
2.9675880921
  0
ELLIPSE
  5
39C
100
AcDbEntity
  8
DRAFT
100
AcDbEllipse
 62
7
  6
CONTINUOUS
 10
57.3129009911
 20
-31.0457576611
 30
0.0
 11
-0.2184545153
 21
12.4999982552
 31
0.0
 40
0.0302330481
 41
3.3155972151
 42
4.1882618411
  0
ENDSEC
  0
SECTION
  2
OBJECTS
  0
DICTIONARY
  5
C
100
AcDbDictionary
280
0
281
1
  3
ACAD_GROUP
350
D
  3
ACAD_MLINESTYLE
350
17
  3
ACAD_LAYOUT
350
1A
  3
ACAD_PLOTSETTINGS
350
19
  3
ACAD_PLOTSTYLENAME
350
E
  0
DICTIONARY
  5
D
102
{ACAD_REACTORS
330
C
102
}
100
AcDbDictionary
280
0
281
1
  0
ACDBDICTIONARYWDFLT
  5
E
102
{ACAD_REACTORS
330
C
102
}
100
AcDbDictionary
281
1
  3
Normal
350
F
100
AcDbDictionaryWithDefault
340
F
  0
DICTIONARY
  5
17
102
{ACAD_REACTORS
330
C
102
}
100
AcDbDictionary
280
0
281
1
  3
Standard
350
18
  0
DICTIONARY
  5
19
102
{ACAD_REACTORS
330
C
102
}
100
AcDbDictionary
281
1
  0
DICTIONARY
  5
1A
102
{ACAD_REACTORS
330
C
102
}
100
AcDbDictionary
281
1
  3
Model
350
39D
  3
Layout1
350
39E
  0
ACDBPLACEHOLDER
  5
F
102
{ACAD_REACTORS
330
E
102
}
  0
MLINESTYLE
  5
18
102
{ACAD_REACTORS
330
17
102
}
100
AcDbMlineStyle
  2
STANDARD
 70
0
  3

 62
256
 51
90.0
 52
90.0
 71
2
 49
0.5
 62
256
  6
BYLAYER
 49
-0.5
 62
256
  6
BYLAYER
  0
LAYOUT
  5
39D
102
{ACAD_REACTORS
330
1A
102
}
100
AcDbPlotSettings
  1

  2
none_device
  4
ISO_A4_(297.00_x_210.00_MM)
  6

 40
0.0
 41
0.0
 42
0.0
 43
0.0
 44
297.0
 45
210.0
 46
0.0
 47
0.0
 48
0.0
 49
0.0
140
0.0
141
0.0
142
1.0
143
1.0
 70
1024
 72
1
 73
0
 74
0
  7

 75
0
147
1.0
148
0.0
149
0.0
100
AcDbLayout
  1
Model
 70
0
 71
0
 10
0.0
 20
0.0
 11
297.0
 21
210.0
 12
0.0
 22
0.0
 32
0.0
 14
0.0
 24
0.0
 34
0.0
 15
0.0
 25
0.0
 35
0.0
146
0.0
 13
0.0
 23
0.0
 33
0.0
 16
1.0
 26
0.0
 36
0.0
 17
0.0
 27
1.0
 37
0.0
 76
0
330
216
345
0
346
0
  0
LAYOUT
  5
39E
102
{ACAD_REACTORS
330
1A
102
}
100
AcDbPlotSettings
  1

  2
none_device
  4
ISO_A4_(297.00_x_210.00_MM)
  6

 40
0.0
 41
0.0
 42
0.0
 43
0.0
 44
297.0
 45
210.0
 46
0.0
 47
0.0
 48
0.0
 49
0.0
140
0.0
141
0.0
142
1.0
143
1.0
 70
0
 72
1
 73
0
 74
0
  7

 75
0
147
1.0
148
0.0
149
0.0
100
AcDbLayout
  1
Layout1
 70
0
 71
1
 10
0.0
 20
0.0
 11
297.0
 21
210.0
 12
0.0
 22
0.0
 32
0.0
 14
0.0
 24
0.0
 34
0.0
 15
0.0
 25
0.0
 35
0.0
146
0.0
 13
0.0
 23
0.0
 33
0.0
 16
1.0
 26
0.0
 36
0.0
 17
0.0
 27
1.0
 37
0.0
 76
0
330
217
345
0
346
0
  0
ENDSEC
  0
EOF
