  0
SECTION
  2
HEADER
  9
$ACADVER
  1
AC1015
  9
$DWGCODEPAGE
  3
ANSI_1252
  9
$EXTMAX
 10
297.0
 20
210.0
 30
0.0
  9
$EXTMIN
 10
0.0
 20
0.0
 30
0.0
  9
$LIMMIN
 10
0.0
 20
0.0
  9
$LIMMAX
 10
297.0
 20
210.0
  9
$VIEWCTR
 10
148.5
 20
105.0
  9
$VIEWSIZE
 40
210.0
  9
$CLAYER
  8
0
  9
$LTSCALE
 40
16.335
  9
$CELTYPE
  6
BYLAYER
  9
$DIMSCALE
 40
1.0
  9
$DIMASZ
 40
3.0
  9
$DIMEXO
 40
0.5
  9
$DIMDLI
 40
11.286
  9
$DIMEXE
 40
1.5
  9
$DIMCEN
 40
2.673
  9
$DIMLFAC
 40
1.0
  9
$DIMBLK
  1
_FILLED
  9
$DIMTXT
 40
3.0
  9
$DIMTOL
 70
1
  9
$DIMLIM
 70
0
  9
$DIMTFAC
 40
1.0
  9
$DIMTP
 40
0.01
  9
$DIMTM
 40
0.01
  9
$DIMGAP
 40
0.625
  9
$DIMDSEP
 70
44
  9
$PDMODE
 70
3
  9
$PDSIZE
 40
3.0
  9
$HANDSEED
  5
403
  9
$TILEMODE
 70
1
  9
$MEASUREMENT
 70
1
  9
$INSUNITS
 70
4
  0
ENDSEC
  0
SECTION
  2
CLASSES
  0
CLASS
  1
ACDBDICTIONARYWDFLT
  2
AcDbDictionaryWithDefault
  3
AutoCAD 2000
 90
0
280
0
281
0
  0
CLASS
  1
ACDBPLACEHOLDER
  2
AcDbPlaceHolder
  3
AutoCAD 2000
 90
0
280
0
281
0
  0
CLASS
  1
LAYOUT
  2
AcDbLayout
  3
AutoCAD 2000
 90
0
280
0
281
0
  0
ENDSEC
  0
SECTION
  2
TABLES
  0
TABLE
  2
VPORT
  5
8
100
AcDbSymbolTable
 70
2
  0
VPORT
  5
1F4
100
AcDbSymbolTableRecord
100
AcDbViewportTableRecord
  2
*ACTIVE
 70
0
 10
0.0
 20
0.0
 11
1.0
 21
1.0
 12
148.5
 22
105.0
 13
0.0
 23
0.0
 14
1.0
 24
1.0
 15
0.0
 25
0.0
 16
0.0
 26
0.0
 36
1.0
 17
0.0
 27
0.0
 37
0.0
 40
210.0
 41
1.4142857143
 42
50.0
 43
0.0
 44
0.0
 50
0.0
 51
0.0
 71
0
 72
100
 73
1
 74
1
 75
0
 76
0
 77
0
 78
0
  0
ENDTAB
  0
TABLE
  2
LTYPE
  5
5
100
AcDbSymbolTable
 70
6
  0
LTYPE
  5
14
100
AcDbSymbolTableRecord
100
AcDbLinetypeTableRecord
  2
BYBLOCK
 70
0
  3

 72
65
 73
0
 40
0.0
  0
LTYPE
  5
15
100
AcDbSymbolTableRecord
100
AcDbLinetypeTableRecord
  2
BYLAYER
 70
0
  3

 72
65
 73
0
 40
0.0
  0
LTYPE
  5
16
100
AcDbSymbolTableRecord
100
AcDbLinetypeTableRecord
  2
CONTINUOUS
 70
64
  3
Solid line
 72
65
 73
0
 40
0.0
  0
LTYPE
  5
1F5
100
AcDbSymbolTableRecord
100
AcDbLinetypeTableRecord
  2
CENTER
 70
64
  3
____ _ ____ _ ____ _ ____ _ ____ _ ____ _ ____
 72
65
 73
4
 40
0.6
 49
0.375
 74
0
 49
-0.075
 74
0
 49
0.075
 74
0
 49
-0.075
 74
0
  0
LTYPE
  5
1F6
100
AcDbSymbolTableRecord
100
AcDbLinetypeTableRecord
  2
HIDDEN
 70
64
  3
- - - - - - - - - - - - - - - - - - - -
 72
65
 73
2
 40
0.2
 49
0.1
 74
0
 49
-0.1
 74
0
  0
LTYPE
  5
1F7
100
AcDbSymbolTableRecord
100
AcDbLinetypeTableRecord
  2
PHANTOM
 70
64
  3
_____ _ _ _____ _ _ _____ _ _ _____
 72
65
 73
6
 40
0.8
 49
0.45
 74
0
 49
-0.05
 74
0
 49
0.1
 74
0
 49
-0.05
 74
0
 49
0.1
 74
0
 49
-0.05
 74
0
  0
LTYPE
  5
1F8
100
AcDbSymbolTableRecord
100
AcDbLinetypeTableRecord
  2
DOT
 70
64
  3
. . . . . . . . . . . . . . . . . . . .
 72
65
 73
2
 40
0.2
 49
0.1
 74
0
 49
-0.1
 74
0
  0
LTYPE
  5
1F9
100
AcDbSymbolTableRecord
100
AcDbLinetypeTableRecord
  2
DASHED
 70
64
  3
- - - - - - - - - - - - - - - - - - - -
 72
65
 73
2
 40
0.2
 49
0.1
 74
0
 49
-0.1
 74
0
  0
ENDTAB
  0
TABLE
  2
LAYER
  5
2
100
AcDbSymbolTable
 70
36
  0
LAYER
  5
10
100
AcDbSymbolTableRecord
100
AcDbLayerTableRecord
  2
0
 70
0
 62
7
  6
CONTINUOUS
370
-3
390
F
  0
LAYER
  5
1FA
100
AcDbSymbolTableRecord
100
AcDbLayerTableRecord
  2
DEFAULT_1
 70
0
 62
7
  6
CENTER
370
-3
390
F
  0
LAYER
  5
1FB
100
AcDbSymbolTableRecord
100
AcDbLayerTableRecord
  2
DEFAULT_2
 70
0
 62
7
  6
HIDDEN
370
-3
390
F
  0
LAYER
  5
1FC
100
AcDbSymbolTableRecord
100
AcDbLayerTableRecord
  2
DEFAULT_3
 70
0
 62
7
  6
PHANTOM
370
-3
390
F
  0
LAYER
  5
1FD
100
AcDbSymbolTableRecord
100
AcDbLayerTableRecord
  2
ASSI
 70
0
 62
7
  6
CONTINUOUS
370
-3
390
F
  0
LAYER
  5
1FE
100
AcDbSymbolTableRecord
100
AcDbLayerTableRecord
  2
COLOR5
 70
0
 62
7
  6
CONTINUOUS
370
-3
390
F
  0
LAYER
  5
1FF
100
AcDbSymbolTableRecord
100
AcDbLayerTableRecord
  2
COORDINATE
 70
0
 62
7
  6
CONTINUOUS
370
-3
390
F
  0
LAYER
  5
200
100
AcDbSymbolTableRecord
100
AcDbLayerTableRecord
  2
COORD_ORIGINE
 70
0
 62
7
  6
CONTINUOUS
370
-3
390
F
  0
LAYER
  5
201
100
AcDbSymbolTableRecord
100
AcDbLayerTableRecord
  2
COSMETICI
 70
0
 62
7
  6
CONTINUOUS
370
-3
390
F
  0
LAYER
  5
202
100
AcDbSymbolTableRecord
100
AcDbLayerTableRecord
  2
CURVE
 70
0
 62
7
  6
CONTINUOUS
370
-3
390
F
  0
LAYER
  5
203
100
AcDbSymbolTableRecord
100
AcDbLayerTableRecord
  2
DRAFT
 70
0
 62
7
  6
CONTINUOUS
370
-3
390
F
  0
LAYER
  5
204
100
AcDbSymbolTableRecord
100
AcDbLayerTableRecord
  2
NOTE
 70
0
 62
7
  6
CONTINUOUS
370
-3
390
F
  0
LAYER
  5
205
100
AcDbSymbolTableRecord
100
AcDbLayerTableRecord
  2
PIANI
 70
0
 62
7
  6
CONTINUOUS
370
-3
390
F
  0
LAYER
  5
206
100
AcDbSymbolTableRecord
100
AcDbLayerTableRecord
  2
PIANI_ORIGINE
 70
0
 62
7
  6
CONTINUOUS
370
-3
390
F
  0
LAYER
  5
207
100
AcDbSymbolTableRecord
100
AcDbLayerTableRecord
  2
PIANI_RIF
 70
0
 62
7
  6
CONTINUOUS
370
-3
390
F
  0
LAYER
  5
208
100
AcDbSymbolTableRecord
100
AcDbLayerTableRecord
  2
PUNTI
 70
0
 62
7
  6
CONTINUOUS
370
-3
390
F
  0
LAYER
  5
209
100
AcDbSymbolTableRecord
100
AcDbLayerTableRecord
  2
RACCORDO
 70
0
 62
7
  6
CONTINUOUS
370
-3
390
F
  0
LAYER
  5
20A
100
AcDbSymbolTableRecord
100
AcDbLayerTableRecord
  2
SCRITTE
 70
0
 62
7
  6
CONTINUOUS
370
-3
390
F
  0
LAYER
  5
20B
100
AcDbSymbolTableRecord
100
AcDbLayerTableRecord
  2
SMUSSO
 70
0
 62
7
  6
CONTINUOUS
370
-3
390
F
  0
LAYER
  5
20C
100
AcDbSymbolTableRecord
100
AcDbLayerTableRecord
  2
SUPERFICI
 70
0
 62
7
  6
CONTINUOUS
370
-3
390
F
  0
LAYER
  5
20D
100
AcDbSymbolTableRecord
100
AcDbLayerTableRecord
  2
TRASH
 70
0
 62
7
  6
CONTINUOUS
370
-3
390
F
  0
LAYER
  5
20E
100
AcDbSymbolTableRecord
100
AcDbLayerTableRecord
  2
XSEC_DATUMS
 70
0
 62
7
  6
CONTINUOUS
370
-3
390
F
  0
ENDTAB
  0
TABLE
  2
STYLE
  5
3
100
AcDbSymbolTable
 70
1
  0
STYLE
  5
11
100
AcDbSymbolTableRecord
100
AcDbTextStyleTableRecord
  2
STANDARD
 70
0
 40
0.0
 41
0.8
 50
0.0
 71
0
 42
0.2
  3
txt
  4

  0
STYLE
  5
20F
100
AcDbSymbolTableRecord
100
AcDbTextStyleTableRecord
  2
TEXTSTYLE_1
 70
0
 40
0.0
 41
0.8
 50
0.0
 71
0
 42
0.2
  3
gdt
  4

  0
ENDTAB
  0
TABLE
  2
VIEW
  5
6
100
AcDbSymbolTable
 70
0
  0
ENDTAB
  0
TABLE
  2
UCS
  5
7
100
AcDbSymbolTable
 70
0
  0
ENDTAB
  0
TABLE
  2
APPID
  5
9
100
AcDbSymbolTable
 70
1
  0
APPID
  5
210
100
AcDbSymbolTableRecord
100
AcDbRegAppTableRecord
  2
ACAD
 70
0
  0
ENDTAB
  0
TABLE
  2
BLOCK_RECORD
  5
1
100
AcDbSymbolTable
 70
0
  0
BLOCK_RECORD
  5
211
100
AcDbSymbolTableRecord
100
AcDbBlockTableRecord
  2
*Model_Space
  0
BLOCK_RECORD
  5
212
100
AcDbSymbolTableRecord
100
AcDbBlockTableRecord
  2
*Paper_Space
  0
ENDTAB
  0
TABLE
  2
DIMSTYLE
  5
A
100
AcDbSymbolTable
 70
1
100
AcDbDimStyleTable
 71
0
  0
DIMSTYLE
105
213
100
AcDbSymbolTableRecord
100
AcDbDimStyleTableRecord
  2
STANDARD
 70
0
  3

  4

 40
1.0
 41
3.0
 42
0.5
 43
0.38
 44
1.5
 45
0.0
 46
0.0
 47
0.01
 48
0.01
140
3.0
141
0.09
142
0.0
143
25.4
144
1.0
145
0.0
146
1.0
147
0.625
 71
1.0
 72
0.0
 73
0
 74
0
 75
0
 76
0
 77
1
 78
8
170
0
171
2
172
0
173
0
174
0
175
0
176
0
177
0
178
0
270
2
271
2
272
2
273
2
274
2
275
0
280
0
281
0
282
0
283
1
284
8
285
0
286
0
287
3
288
0
340
11
278
44
  0
ENDTAB
  0
ENDSEC
  0
SECTION
  2
BLOCKS
  0
BLOCK
  5
20
100
AcDbEntity
  8
0
100
AcDbBlockBegin
  2
*Model_Space
 70
0
 10
0.0
 20
0.0
 30
0.0
  3
*Model_Space
  1

  0
ENDBLK
  5
21
100
AcDbEntity
  8
0
100
AcDbBlockEnd
  0
BLOCK
  5
1C
100
AcDbEntity
  8
0
100
AcDbBlockBegin
  2
*Paper_Space
 70
0
 10
0.0
 20
0.0
 30
0.0
  3
*Paper_Space
  1

  0
ENDBLK
  5
1D
100
AcDbEntity
  8
0
100
AcDbBlockEnd
  0
ENDSEC
  0
SECTION
  2
ENTITIES
  0
LWPOLYLINE
  5
214
100
AcDbEntity
  8
RACCORDO
100
AcDbPolyline
 62
7
  6
CONTINUOUS
 90
10
 70
0
 10
-96.9200642669
 20
-47.0622900095
 10
-96.9247812333
 20
-47.017593816
 10
-96.9359450132
 20
-46.9765614727
 10
-96.9535556065
 20
-46.9391929797
 10
-96.9785218274
 20
-46.9045933298
 10
-97.0099348616
 20
-46.8736575301
 10
-97.0450682669
 20
-46.8490706022
 10
-97.0830132292
 20
-46.8317275534
 10
-97.1246785625
 20
-46.8207333764
 10
-97.1700642669
 20
-46.8160880713
  0
LWPOLYLINE
  5
215
100
AcDbEntity
  8
RACCORDO
100
AcDbPolyline
 62
253
  6
CONTINUOUS
 90
8
 70
0
 10
-96.9200642669
 20
-43.7151657227
 10
-96.9238623286
 20
-43.6724132048
 10
-96.9351411117
 20
-43.6309597005
 10
-96.9535579159
 20
-43.5920647536
 10
-96.9785531561
 20
-43.5569101673
 10
-97.0093673644
 20
-43.5265640961
 10
-97.0450642669
 20
-43.5019485898
 10
-97.084559231
 20
-43.4838115781
  0
LINE
  5
216
100
AcDbEntity
  8
RACCORDO
100
AcDbLine
 62
7
  6
CONTINUOUS
 10
-99.86475143
 20
-46.8160880713
 11
-99.7071214197
 21
-53.7318344993
  0
LINE
  5
217
100
AcDbEntity
  8
RACCORDO
100
AcDbLine
 62
7
  6
CONTINUOUS
 10
-99.1994304228
 20
33.6052781093
 11
-99.1994304228
 21
-37.6512707483
  0
LWPOLYLINE
  5
218
100
AcDbEntity
  8
RACCORDO
100
AcDbPolyline
 62
253
  6
CONTINUOUS
 90
10
 70
0
 10
-92.8581055353
 20
54.9583201318
 10
-92.8375400654
 20
55.1359542602
 10
-92.8172480645
 20
55.2697783062
 10
-92.7973499774
 20
55.3591334702
 10
-92.7782071387
 20
55.4020433541
 10
-92.7598316726
 20
55.3975481329
 10
-92.742211455
 20
55.3466076315
 10
-92.7256714485
 20
55.2501249268
 10
-92.7102389093
 20
55.1072493712
 10
-92.6958865812
 20
54.9188316122
  0
LWPOLYLINE
  5
219
100
AcDbEntity
  8
RACCORDO
100
AcDbPolyline
 62
253
  6
CONTINUOUS
 90
8
 70
0
 10
-96.9200642669
 20
-37.7762707483
 10
-96.9238631082
 20
-37.7545625151
 10
-96.9351437539
 20
-37.7335145998
 10
-96.9535627698
 20
-37.7137665434
 10
-96.978559752
 20
-37.6959183648
 10
-97.009374689
 20
-37.6805121174
 10
-97.0450713102
 20
-37.6680155365
 10
-97.0845650108
 20
-37.6588081152
  0
LINE
  5
21A
100
AcDbEntity
  8
RACCORDO
100
AcDbLine
 62
7
  6
CONTINUOUS
 10
-94.7641376226
 20
-43.711367661
 11
-94.3105815917
 21
-46.6555411962
  0
LINE
  5
21B
100
AcDbEntity
  8
DRAFT
100
AcDbLine
 62
7
  6
CONTINUOUS
 10
-94.7827623431
 20
31.1278800043
 11
-94.8700642669
 21
32.453485688
  0
LWPOLYLINE
  5
21C
100
AcDbEntity
  8
RACCORDO
100
AcDbPolyline
 62
253
  6
CONTINUOUS
 90
14
 70
0
 10
-92.6608191785
 20
54.0999085865
 10
-92.651954521
 20
53.7477437526
 10
-92.6446033912
 20
53.3579711335
 10
-92.6387451414
 20
52.9312863138
 10
-92.6344873017
 20
52.4749510321
 10
-92.6318600883
 20
51.9882115077
 10
-92.630833285
 20
51.4718215212
 10
-92.6314237746
 20
50.935304153
 10
-92.6336643644
 20
50.378371045
 10
-92.637522247
 20
49.8013105554
 10
-92.6429158825
 20
49.2145108393
 10
-92.649818091
 20
48.6214346149
 10
-92.6582560524
 20
48.0186191639
 10
-92.6682297667
 20
47.4060644865
  0
LINE
  5
21D
100
AcDbEntity
  8
RACCORDO
100
AcDbLine
 62
253
  6
CONTINUOUS
 10
-97.1700642669
 20
32.7132933091
 11
-97.1700642669
 21
-46.8160880713
  0
LINE
  5
21E
100
AcDbEntity
  8
RACCORDO
100
AcDbLine
 62
7
  6
CONTINUOUS
 10
-96.9200642669
 20
32.3717869582
 11
-96.9200642669
 21
-46.8265388965
  0
LINE
  5
21F
100
AcDbEntity
  8
RACCORDO
100
AcDbLine
 62
7
  6
CONTINUOUS
 10
-96.9200642669
 20
-47.0622900095
 11
-96.9200642669
 21
-52.7249345893
  0
LINE
  5
220
100
AcDbEntity
  8
RACCORDO
100
AcDbLine
 62
7
  6
CONTINUOUS
 10
-96.8700642669
 20
32.2368473669
 11
-96.8700642669
 21
-37.6512707483
  0
LINE
  5
221
100
AcDbEntity
  8
ASSI
100
AcDbLine
 62
7
  6
CONTINUOUS
 10
-96.8700642669
 20
-37.6512707483
 11
-96.8700642669
 21
-46.8265388965
  0
LINE
  5
222
100
AcDbEntity
  8
RACCORDO
100
AcDbLine
 62
7
  6
CONTINUOUS
 10
-96.8700642669
 20
-46.8265388965
 11
-96.8700642669
 21
-51.903671956
  0
LINE
  5
223
100
AcDbEntity
  8
RACCORDO
100
AcDbLine
 62
7
  6
CONTINUOUS
 10
-94.9200642669
 20
-37.6512707483
 11
-94.9200642669
 21
27.3011620948
  0
LINE
  5
224
100
AcDbEntity
  8
DRAFT
100
AcDbLine
 62
7
  6
CONTINUOUS
 10
-94.8700642669
 20
32.453485688
 11
-94.8700642669
 21
28.1666599393
  0
LINE
  5
225
100
AcDbEntity
  8
DRAFT
100
AcDbLine
 62
7
  6
CONTINUOUS
 10
-94.7827623431
 20
31.1278800043
 11
-94.7827623431
 21
29.1760240871
  0
LINE
  5
226
100
AcDbEntity
  8
RACCORDO
100
AcDbLine
 62
253
  6
CONTINUOUS
 10
-92.6682297667
 20
47.4060644865
 11
-94.3105815917
 21
-46.6555411962
  0
LINE
  5
227
100
AcDbEntity
  8
RACCORDO
100
AcDbLine
 62
253
  6
CONTINUOUS
 10
-91.6688389397
 20
47.3886147381
 11
-93.313871771
 21
-46.8265388965
  0
LINE
  5
228
100
AcDbEntity
  8
RACCORDO
100
AcDbLine
 62
253
  6
CONTINUOUS
 10
-92.8982808139
 20
54.5262603576
 11
-92.9004182164
 21
54.4696452293
  0
LINE
  5
229
100
AcDbEntity
  8
RACCORDO
100
AcDbLine
 62
7
  6
CONTINUOUS
 10
-94.9200642669
 20
27.3011620948
 11
-94.9179240922
 21
27.3572191159
  0
LINE
  5
22A
100
AcDbEntity
  8
RACCORDO
100
AcDbLine
 62
253
  6
CONTINUOUS
 10
-94.9200642669
 20
27.3011620948
 11
-92.9004182164
 21
54.4696452293
  0
LINE
  5
22B
100
AcDbEntity
  8
RACCORDO
100
AcDbLine
 62
7
  6
CONTINUOUS
 10
-92.8876980535
 20
54.6637179345
 11
-94.9179918725
 21
27.3569027673
  0
LWPOLYLINE
  5
22C
100
AcDbEntity
  8
RACCORDO
100
AcDbPolyline
 62
253
  6
CONTINUOUS
 90
3
 70
0
 10
-92.9004182164
 20
54.4696452293
 10
-92.879064919
 20
54.7362171215
 10
-92.8581055353
 20
54.9583201318
  0
LWPOLYLINE
  5
22D
100
AcDbEntity
  8
RACCORDO
100
AcDbPolyline
 62
7
  6
CONTINUOUS
 90
5
 70
0
 10
-96.9200642669
 20
17.8054440071
 10
-96.9151318835
 20
17.8636072674
 10
-96.9024093462
 20
17.9189176381
 10
-96.881896655
 20
17.9713751192
 10
-96.8700642669
 20
17.9919916889
  0
LWPOLYLINE
  5
22E
100
AcDbEntity
  8
RACCORDO
100
AcDbPolyline
 62
7
  6
CONTINUOUS
 90
5
 70
0
 10
-96.9200642669
 20
-11.6394197216
 10
-96.9151318835
 20
-11.5812564613
 10
-96.9024093462
 20
-11.5259460906
 10
-96.881896655
 20
-11.4734886095
 10
-96.8700642669
 20
-11.4528720398
  0
LWPOLYLINE
  5
22F
100
AcDbEntity
  8
RACCORDO
100
AcDbPolyline
 62
7
  6
CONTINUOUS
 90
5
 70
0
 10
-92.8566087572
 20
55.0124659477
 10
-92.862991501
 20
54.947572182
 10
-92.8693028462
 20
54.8800002659
 10
-92.8755220133
 20
54.810101634
 10
-92.8876980535
 20
54.6637179345
  0
LINE
  5
230
100
AcDbEntity
  8
DRAFT
100
AcDbLine
 62
7
  6
CONTINUOUS
 10
-99.3491200013
 20
-43.4689637845
 11
-99.86475143
 21
-46.8160880713
  0
LWPOLYLINE
  5
231
100
AcDbEntity
  8
RACCORDO
100
AcDbPolyline
 62
7
  6
CONTINUOUS
 90
5
 70
0
 10
-96.8700642669
 20
16.9919916889
 10
-96.881896655
 20
16.9713751192
 10
-96.9024093462
 20
16.9189176381
 10
-96.9151318835
 20
16.8636072674
 10
-96.9200642669
 20
16.8054440071
  0
LWPOLYLINE
  5
232
100
AcDbEntity
  8
RACCORDO
100
AcDbPolyline
 62
7
  6
CONTINUOUS
 90
5
 70
0
 10
-96.8700642669
 20
-27.4144246715
 10
-96.881896655
 20
-27.3938081018
 10
-96.9024093462
 20
-27.3413506207
 10
-96.9151318835
 20
-27.28604025
 10
-96.9200642669
 20
-27.2278769897
  0
LINE
  5
233
100
AcDbEntity
  8
RACCORDO
100
AcDbLine
 62
7
  6
CONTINUOUS
 10
-85.6569362573
 20
25.1330598537
 11
-85.6572151888
 21
25.137049223
  0
LWPOLYLINE
  5
234
100
AcDbEntity
  8
RACCORDO
100
AcDbPolyline
 62
253
  6
CONTINUOUS
 90
4
 70
0
 10
-92.6958865812
 20
54.9188316122
 10
-92.6828576589
 20
54.6883266689
 10
-92.6711767158
 20
54.4151612198
 10
-92.6608191785
 20
54.0999085865
  0
LINE
  5
235
100
AcDbEntity
  8
RACCORDO
100
AcDbLine
 62
7
  6
CONTINUOUS
 10
-85.6572151888
 20
25.137049223
 11
-85.6643393177
 21
25.2976889463
  0
LINE
  5
236
100
AcDbEntity
  8
RACCORDO
100
AcDbLine
 62
253
  6
CONTINUOUS
 10
-85.6643393177
 20
25.2976889463
 11
-85.657334144
 21
25.5816051433
  0
LWPOLYLINE
  5
237
100
AcDbEntity
  8
RACCORDO
100
AcDbPolyline
 62
253
  6
CONTINUOUS
 90
34
 70
0
 10
-85.9641565658
 20
25.2924540218
 10
-85.9535768665
 20
25.6058616651
 10
-85.9176465051
 20
25.9084596161
 10
-85.8563654815
 20
26.2002478747
 10
-85.7675005247
 20
26.484333507
 10
-85.6532849057
 20
26.757609447
 10
-85.5204184377
 20
27.0107544968
 10
-85.3686906631
 20
27.2417636361
 10
-85.1983120395
 20
27.4526418852
 10
-85.0166137538
 20
27.6400831063
 10
-84.824094664
 20
27.8030307969
 10
-84.620255912
 20
27.9425414596
 10
-84.41093211
 20
28.0584784642
 10
-84.1967611004
 20
28.1505613639
 10
-83.9771050408
 20
28.2190706057
 10
-83.7558850155
 20
28.2647108995
 10
-83.5333626071
 20
28.2877138458
 10
-83.309276233
 20
28.2878478442
 10
-83.08676223
 20
28.2651228039
 10
-82.865565839
 20
28.2197729534
 10
-82.6459418191
 20
28.1515640644
 10
-82.4317907843
 20
28.0598033609
 10
-82.2224790666
 20
27.9442188448
 10
-82.018640334
 20
27.8050825142
 10
-81.8260762055
 20
27.642517589
 10
-81.6442731577
 20
27.4554520271
 10
-81.4737447141
 20
27.2449578705
 10
-81.3218330637
 20
27.0143744648
 10
-81.1887644266
 20
26.7619713872
 10
-81.0743125829
 20
26.4894790606
 10
-80.9851410622
 20
26.2054280993
 10
-80.923471041
 20
25.9126620415
 10
-80.887081343
 20
25.608337349
 10
-80.8759719679
 20
25.2924540218
  0
LINE
  5
238
100
AcDbEntity
  8
RACCORDO
100
AcDbLine
 62
7
  6
CONTINUOUS
 10
-81.1829628111
 20
25.137225258
 11
-81.2020812945
 21
24.9471494232
  0
LWPOLYLINE
  5
239
100
AcDbEntity
  8
RACCORDO
100
AcDbPolyline
 62
253
  6
CONTINUOUS
 90
32
 70
0
 10
-85.657334144
 20
25.5816051433
 10
-85.6256250855
 20
25.8594172032
 10
-85.5701696008
 20
26.1289400993
 10
-85.4919991547
 20
26.3893261415
 10
-85.3925928585
 20
26.6375106482
 10
-85.2743599569
 20
26.8683877267
 10
-85.1398151036
 20
27.0798426422
 10
-84.9909191436
 20
27.2718016925
 10
-84.8297930823
 20
27.4427357405
 10
-84.6589138262
 20
27.5917109044
 10
-84.4802214283
 20
27.7189246593
 10
-84.2948139741
 20
27.8246428246
 10
-84.1048194097
 20
27.908634881
 10
-83.911864903
 20
27.9711420319
 10
-83.7159315656
 20
28.0127807819
 10
-83.518713159
 20
28.0335823955
 10
-83.3217268476
 20
28.0336002434
 10
-83.1245244666
 20
28.0128383164
 10
-82.9286234949
 20
27.9712476653
 10
-82.735714686
 20
27.9088005267
 10
-82.5457728864
 20
27.8248860521
 10
-82.360423986
 20
27.7192675042
 10
-82.1817899826
 20
27.5921758465
 10
-82.0109561242
 20
27.4433414984
 10
-81.8498440758
 20
27.2725487126
 10
-81.7009455264
 20
27.0807449755
 10
-81.5664083295
 20
26.8695095018
 10
-81.4482442471
 20
26.6390738435
 10
-81.3488566167
 20
26.3914119446
 10
-81.270528399
 20
26.1311960899
 10
-81.2148083971
 20
25.8613159082
 10
-81.1828752225
 20
25.5827489978
  0
LWPOLYLINE
  5
23A
100
AcDbEntity
  8
RACCORDO
100
AcDbPolyline
 62
7
  6
CONTINUOUS
 90
28
 70
0
 10
-81.1960651861
 20
24.9939102704
 10
-81.2440675131
 20
24.6995384214
 10
-81.3184117677
 20
24.4170717081
 10
-81.4177671689
 20
24.1475303028
 10
-81.5400319015
 20
23.8943067356
 10
-81.6817944836
 20
23.6628035597
 10
-81.8398489146
 20
23.4551933244
 10
-82.0119362357
 20
23.2712449129
 10
-82.1955854163
 20
23.11200853
 10
-82.3879166171
 20
22.9782101708
 10
-82.5868281111
 20
22.8694583263
 10
-82.7913780698
 20
22.7851324738
 10
-82.9992473295
 20
22.7252815856
 10
-83.208674137
 20
22.6896471183
 10
-83.4199217936
 20
22.6777636921
 10
-83.6311573756
 20
22.6896086748
 10
-83.8405512657
 20
22.7251986869
 10
-84.0483725374
 20
22.7849900998
 10
-84.252860993
 20
22.8692358517
 10
-84.4517029975
 20
22.9778836839
 10
-84.6439690181
 20
23.1115519044
 10
-84.8275778366
 20
23.2706460027
 10
-84.9996366805
 20
23.4544271284
 10
-85.1576470932
 20
23.6617948629
 10
-85.2992866952
 20
23.8928142342
 10
-85.4214822666
 20
24.1454513968
 10
-85.520989896
 20
24.4147648452
 10
-85.5956390986
 20
24.6975645185
  0
LWPOLYLINE
  5
23B
100
AcDbEntity
  8
RACCORDO
100
AcDbPolyline
 62
7
  6
CONTINUOUS
 90
28
 70
0
 10
-81.2020812945
 20
24.9471494232
 10
-81.2514792835
 20
24.6714066519
 10
-81.3241293399
 20
24.4081836254
 10
-81.4178451974
 20
24.1601046493
 10
-81.5309016944
 20
23.9280709625
 10
-81.6624777398
 20
23.7118453798
 10
-81.8109629156
 20
23.513242595
 10
-81.9746196957
 20
23.33405107
 10
-82.152930985
 20
23.1746554831
 10
-82.3438782886
 20
23.036771581
 10
-82.5453269572
 20
22.9220414712
 10
-82.7564601273
 20
22.8312644734
 10
-82.9747139901
 20
22.765548617
 10
-83.1973205602
 20
22.7259174573
 10
-83.4227500906
 20
22.7129702512
 10
-83.6481015982
 20
22.7266247374
 10
-83.8704572923
 20
22.7666852795
 10
-84.0882120368
 20
22.832922756
 10
-84.2988346968
 20
22.924134432
 10
-84.4998358979
 20
23.0390351969
 10
-84.6901239943
 20
23.1769873532
 10
-84.8677984819
 20
23.3363771763
 10
-85.0310178463
 20
23.5154678429
 10
-85.1790114782
 20
23.7138097163
 10
-85.3101247125
 20
23.9297469202
 10
-85.4228761651
 20
24.1615886505
 10
-85.5163728594
 20
24.4093699369
 10
-85.5888493647
 20
24.6721574471
  0
LWPOLYLINE
  5
23C
100
AcDbEntity
  8
RACCORDO
100
AcDbPolyline
 62
253
  6
CONTINUOUS
 90
27
 70
0
 10
-80.9533601365
 20
24.6362534835
 10
-81.0340559836
 20
24.330171587
 10
-81.1457011711
 20
24.0354061953
 10
-81.2853475338
 20
23.7553197186
 10
-81.4441505767
 20
23.4999993884
 10
-81.6220450468
 20
23.2719382249
 10
-81.819096197
 20
23.0686432079
 10
-82.0266552915
 20
22.8927225071
 10
-82.243935259
 20
22.7452056366
 10
-82.4717231707
 20
22.6250630824
 10
-82.703731504
 20
22.5318144723
 10
-82.9392740869
 20
22.4654935685
 10
-83.1790370914
 20
22.4260666088
 10
-83.4187915115
 20
22.4129519353
 10
-83.6585310987
 20
22.4257709336
 10
-83.8982621015
 20
22.464902218
 10
-84.1337742594
 20
22.5308999739
 10
-84.3657474413
 20
22.6237881912
 10
-84.5935017783
 20
22.74354288
 10
-84.8107874032
 20
22.8906462552
 10
-85.0184040276
 20
23.0661405478
 10
-85.2155519398
 20
23.2689835268
 10
-85.3935821374
 20
23.4965307147
 10
-85.5525314987
 20
23.7509694803
 10
-85.6923631454
 20
24.0301124547
 10
-85.8043174392
 20
24.3247530545
 10
-85.8854745009
 20
24.6318224183
  0
LWPOLYLINE
  5
23D
100
AcDbEntity
  8
RACCORDO
100
AcDbPolyline
 62
7
  6
CONTINUOUS
 90
5
 70
0
 10
-96.8700642669
 20
2.0304390572
 10
-96.881896655
 20
2.0510556269
 10
-96.9024093462
 20
2.103513108
 10
-96.9151318835
 20
2.1588234787
 10
-96.9200642669
 20
2.216986739
  0
LWPOLYLINE
  5
23E
100
AcDbEntity
  8
RACCORDO
100
AcDbPolyline
 62
7
  6
CONTINUOUS
 90
3
 70
0
 10
-96.9200642669
 20
32.3717869582
 10
-96.9259545705
 20
32.4072536054
 10
-96.9420712491
 20
32.4448121997
  0
LINE
  5
23F
100
AcDbEntity
  8
RACCORDO
100
AcDbLine
 62
7
  6
CONTINUOUS
 10
-85.638137343
 20
24.9474503688
 11
-85.6572011085
 21
25.1371406378
  0
LINE
  5
240
100
AcDbEntity
  8
RACCORDO
100
AcDbLine
 62
7
  6
CONTINUOUS
 10
-85.6439241831
 20
24.9927052748
 11
-85.6569362573
 21
25.1330598537
  0
LINE
  5
241
100
AcDbEntity
  8
RACCORDO
100
AcDbLine
 62
253
  6
CONTINUOUS
 10
-81.1828752225
 20
25.5827489978
 11
-81.175789216
 21
25.2976889463
  0
LINE
  5
242
100
AcDbEntity
  8
RACCORDO
100
AcDbLine
 62
7
  6
CONTINUOUS
 10
-81.175789216
 20
25.2976889463
 11
-81.1829150004
 21
25.1370254535
  0
LINE
  5
243
100
AcDbEntity
  8
RACCORDO
100
AcDbLine
 62
7
  6
CONTINUOUS
 10
-81.1829150004
 20
25.1370254535
 11
-81.1831744826
 21
25.1333121452
  0
LWPOLYLINE
  5
244
100
AcDbEntity
  8
RACCORDO
100
AcDbPolyline
 62
253
  6
CONTINUOUS
 90
3
 70
0
 10
-80.8759719679
 20
25.2924540218
 10
-80.9006654646
 20
24.9570142951
 10
-80.9533601365
 20
24.6362534835
  0
LINE
  5
245
100
AcDbEntity
  8
RACCORDO
100
AcDbLine
 62
7
  6
CONTINUOUS
 10
-81.1831744826
 20
25.1333121452
 11
-81.1960651861
 21
24.9939102704
  0
LWPOLYLINE
  5
246
100
AcDbEntity
  8
RACCORDO
100
AcDbPolyline
 62
7
  6
CONTINUOUS
 90
5
 70
0
 10
-96.8700642669
 20
-12.4528720398
 10
-96.881896655
 20
-12.4734886095
 10
-96.9024093462
 20
-12.5259460906
 10
-96.9151318835
 20
-12.5812564613
 10
-96.9200642669
 20
-12.6394197216
  0
LINE
  5
247
100
AcDbEntity
  8
RACCORDO
100
AcDbLine
 62
7
  6
CONTINUOUS
 10
-85.5888493647
 20
24.6721574471
 11
-85.638137343
 21
24.9474503688
  0
LWPOLYLINE
  5
248
100
AcDbEntity
  8
RACCORDO
100
AcDbPolyline
 62
253
  6
CONTINUOUS
 90
3
 70
0
 10
-85.8854745009
 20
24.6318224183
 10
-85.9387542097
 20
24.9543894074
 10
-85.9641565658
 20
25.2924540218
  0
LINE
  5
249
100
AcDbEntity
  8
RACCORDO
100
AcDbLine
 62
7
  6
CONTINUOUS
 10
-85.5956390986
 20
24.6975645185
 11
-85.6439241831
 21
24.9927052748
  0
LINE
  5
24A
100
AcDbEntity
  8
DRAFT
100
AcDbLine
 62
7
  6
CONTINUOUS
 10
-68.6319444822
 20
5.7387835087
 11
-68.6319444822
 21
-1.7612164913
  0
LINE
  5
24B
100
AcDbEntity
  8
DRAFT
100
AcDbLine
 62
7
  6
CONTINUOUS
 10
-68.1700642669
 20
5.7387835087
 11
-68.1700642669
 21
-1.7612164913
  0
LWPOLYLINE
  5
24C
100
AcDbEntity
  8
RACCORDO
100
AcDbPolyline
 62
253
  6
CONTINUOUS
 90
3
 70
0
 10
95.2444343646
 20
-43.4838102641
 10
95.286525838
 20
-43.4727037725
 10
95.3299357331
 20
-43.4689637851
  0
LWPOLYLINE
  5
24D
100
AcDbEntity
  8
RACCORDO
100
AcDbPolyline
 62
253
  6
CONTINUOUS
 90
3
 70
0
 10
-97.084559231
 20
-43.4838115781
 10
-97.1266522224
 20
-43.4727041451
 10
-97.1700642669
 20
-43.4689637845
  0
LINE
  5
24E
100
AcDbEntity
  8
SMUSSO
100
AcDbLine
 62
7
  6
CONTINUOUS
 10
-67.6700642669
 20
-1.7612164913
 11
-67.6700642669
 21
5.7387835087
  0
LINE
  5
24F
100
AcDbEntity
  8
SMUSSO
100
AcDbLine
 62
7
  6
CONTINUOUS
 10
-66.9772439438
 20
-1.7612164913
 11
-66.9772439438
 21
5.7387835087
  0
LINE
  5
250
100
AcDbEntity
  8
SMUSSO
100
AcDbLine
 62
7
  6
CONTINUOUS
 10
-64.8628845899
 20
5.7387835087
 11
-64.8628845899
 21
-1.7612164913
  0
LINE
  5
251
100
AcDbEntity
  8
SMUSSO
100
AcDbLine
 62
7
  6
CONTINUOUS
 10
-64.1700642669
 20
5.7387835087
 11
-64.1700642669
 21
-1.7612164913
  0
LINE
  5
252
100
AcDbEntity
  8
DRAFT
100
AcDbLine
 62
7
  6
CONTINUOUS
 10
-63.6700642669
 20
-1.7612164913
 11
-63.6700642669
 21
5.7387835087
  0
LINE
  5
253
100
AcDbEntity
  8
DRAFT
100
AcDbLine
 62
7
  6
CONTINUOUS
 10
-63.2081840515
 20
-1.7612164913
 11
-63.2081840515
 21
5.7387835087
  0
LWPOLYLINE
  5
254
100
AcDbEntity
  8
RACCORDO
100
AcDbPolyline
 62
7
  6
CONTINUOUS
 90
6
 70
0
 10
-96.9420712491
 20
32.4448121997
 10
-96.965968393
 20
32.483729868
 10
-96.9948665028
 20
32.5246388375
 10
-97.0268123346
 20
32.5665977291
 10
-97.0613300632
 20
32.6066843484
 10
-97.0976551224
 20
32.6438709016
  0
LWPOLYLINE
  5
255
100
AcDbEntity
  8
ASSI
100
AcDbPolyline
 62
7
  6
CONTINUOUS
 90
7
 70
0
 10
2.8171364548
 20
56.286859879
 10
2.9157672156
 20
56.3155256083
 10
3.004610601
 20
56.3402452027
 10
3.0829938665
 20
56.3603928591
 10
3.1505036473
 20
56.3753882156
 10
3.2068709213
 20
56.3849135719
 10
3.2561196401
 20
56.3886145868
  0
LWPOLYLINE
  5
256
100
AcDbEntity
  8
RACCORDO
100
AcDbPolyline
 62
7
  6
CONTINUOUS
 90
10
 70
0
 10
95.3299357331
 20
-46.8160880713
 10
95.2845500288
 20
-46.8207333764
 10
95.2428846955
 20
-46.8317275534
 10
95.2049397332
 20
-46.8490706022
 10
95.1698063279
 20
-46.8736575301
 10
95.1383932936
 20
-46.9045933298
 10
95.1134270728
 20
-46.9391929797
 10
95.0958164795
 20
-46.9765614727
 10
95.0846526996
 20
-47.017593816
 10
95.0799357331
 20
-47.0622900095
  0
LINE
  5
257
100
AcDbEntity
  8
RACCORDO
100
AcDbLine
 62
7
  6
CONTINUOUS
 10
-98.7070154201
 20
-54.6945500954
 11
96.8668868864
 21
-54.6945500954
  0
LINE
  5
258
100
AcDbEntity
  8
0
100
AcDbLine
 62
7
  6
CONTINUOUS
 10
-96.9200642669
 20
-52.7249345893
 11
95.0799357331
 21
-52.7249345893
  0
LINE
  5
259
100
AcDbEntity
  8
RACCORDO
100
AcDbLine
 62
7
  6
CONTINUOUS
 10
-96.3700642669
 20
-52.4113852619
 11
94.5299357331
 21
-52.4113852619
  0
LINE
  5
25A
100
AcDbEntity
  8
DRAFT
100
AcDbLine
 62
7
  6
CONTINUOUS
 10
-48.8819444822
 20
31.2307272601
 11
-48.8819444822
 21
16.2307272601
  0
LINE
  5
25B
100
AcDbEntity
  8
DRAFT
100
AcDbLine
 62
7
  6
CONTINUOUS
 10
-48.4200642669
 20
31.2307272601
 11
-48.4200642669
 21
16.2307272601
  0
LINE
  5
25C
100
AcDbEntity
  8
SMUSSO
100
AcDbLine
 62
7
  6
CONTINUOUS
 10
-47.9200642669
 20
16.2307272601
 11
-47.9200642669
 21
31.2307272601
  0
LINE
  5
25D
100
AcDbEntity
  8
SMUSSO
100
AcDbLine
 62
7
  6
CONTINUOUS
 10
-47.2272439438
 20
16.2307272601
 11
-47.2272439438
 21
31.2307272601
  0
LWPOLYLINE
  5
25E
100
AcDbEntity
  8
RACCORDO
100
AcDbPolyline
 62
253
  6
CONTINUOUS
 90
3
 70
0
 10
95.2444306973
 20
-37.6588091707
 10
95.2865236887
 20
-37.6531697792
 10
95.3299357331
 20
-37.6512707483
  0
LINE
  5
25F
100
AcDbEntity
  8
RACCORDO
100
AcDbLine
 62
7
  6
CONTINUOUS
 10
95.0299357331
 20
-46.8265388965
 11
91.4737432373
 21
-46.8265388965
  0
LINE
  5
260
100
AcDbEntity
  8
RACCORDO
100
AcDbLine
 62
7
  6
CONTINUOUS
 10
-93.313871771
 20
-46.8265388965
 11
-96.8700642669
 21
-46.8265388965
  0
LINE
  5
261
100
AcDbEntity
  8
RACCORDO
100
AcDbLine
 62
7
  6
CONTINUOUS
 10
-99.86475143
 20
-46.8160880713
 11
-97.1700642669
 21
-46.8160880713
  0
LINE
  5
262
100
AcDbEntity
  8
RACCORDO
100
AcDbLine
 62
7
  6
CONTINUOUS
 10
95.3299357331
 20
-46.8160880713
 11
98.0246228963
 21
-46.8160880713
  0
LINE
  5
263
100
AcDbEntity
  8
DRAFT
100
AcDbLine
 62
253
  6
CONTINUOUS
 10
92.9240090889
 20
-43.711367661
 11
95.0299357331
 21
-43.711367661
  0
LINE
  5
264
100
AcDbEntity
  8
DRAFT
100
AcDbLine
 62
253
  6
CONTINUOUS
 10
-94.7641376226
 20
-43.711367661
 11
-96.8700642669
 21
-43.711367661
  0
LWPOLYLINE
  5
265
100
AcDbEntity
  8
RACCORDO
100
AcDbPolyline
 62
253
  6
CONTINUOUS
 90
3
 70
0
 10
-97.0845650108
 20
-37.6588081152
 10
-97.1266556099
 20
-37.6531694763
 10
-97.1700642669
 20
-37.6512707436
  0
LINE
  5
266
100
AcDbEntity
  8
RACCORDO
100
AcDbLine
 62
253
  6
CONTINUOUS
 10
-99.3491200013
 20
-43.4689637845
 11
-97.1700642669
 21
-43.4689637845
  0
LINE
  5
267
100
AcDbEntity
  8
RACCORDO
100
AcDbLine
 62
253
  6
CONTINUOUS
 10
95.3299357331
 20
-43.4689637845
 11
97.5089914676
 21
-43.4689637845
  0
LINE
  5
268
100
AcDbEntity
  8
0
100
AcDbLine
 62
253
  6
CONTINUOUS
 10
95.0299357331
 20
-40.6512707483
 11
95.0799357331
 21
-40.6512707483
  0
LINE
  5
269
100
AcDbEntity
  8
0
100
AcDbLine
 62
7
  6
CONTINUOUS
 10
16.2354437331
 20
-38.4760590133
 11
18.2629407331
 21
-38.4760390947
  0
LINE
  5
26A
100
AcDbEntity
  8
0
100
AcDbLine
 62
7
  6
CONTINUOUS
 10
2.2805607331
 20
-38.4760780659
 11
4.0806277331
 21
-38.4760590133
  0
LINE
  5
26B
100
AcDbEntity
  8
0
100
AcDbLine
 62
7
  6
CONTINUOUS
 10
-7.7233672669
 20
-38.4760780659
 11
-5.9232992669
 21
-38.4760780659
  0
LINE
  5
26C
100
AcDbEntity
  8
0
100
AcDbLine
 62
7
  6
CONTINUOUS
 10
-0.7195442669
 20
-38.4760780659
 11
1.0805237331
 21
-38.4760780659
  0
LINE
  5
26D
100
AcDbEntity
  8
0
100
AcDbLine
 62
7
  6
CONTINUOUS
 10
11.0601957331
 20
-38.4760590133
 11
12.8602867331
 21
-38.4760590133
  0
LINE
  5
26E
100
AcDbEntity
  8
0
100
AcDbLine
 62
7
  6
CONTINUOUS
 10
-4.2214442669
 20
-38.4760780659
 11
-2.4214212669
 21
-38.4760590133
  0
LINE
  5
26F
100
AcDbEntity
  8
0
100
AcDbLine
 62
7
  6
CONTINUOUS
 10
-11.3234562669
 20
-38.4760979845
 11
-9.5233892669
 21
-38.4760780659
  0
LINE
  5
270
100
AcDbEntity
  8
0
100
AcDbLine
 62
7
  6
CONTINUOUS
 10
8.0600677331
 20
-38.4760590133
 11
9.8601587331
 21
-38.4760780659
  0
LINE
  5
271
100
AcDbEntity
  8
0
100
AcDbLine
 62
7
  6
CONTINUOUS
 10
-17.2133492669
 20
-38.4760979845
 11
-15.4132152669
 21
-38.4760780659
  0
LINE
  5
272
100
AcDbEntity
  8
RACCORDO
100
AcDbLine
 62
253
  6
CONTINUOUS
 10
-99.1994304228
 20
-37.6512707483
 11
-97.1700642669
 21
-37.6512707483
  0
LINE
  5
273
100
AcDbEntity
  8
DRAFT
100
AcDbLine
 62
253
  6
CONTINUOUS
 10
-96.8700642669
 20
-37.6512707483
 11
-94.9200642669
 21
-37.6512707483
  0
LINE
  5
274
100
AcDbEntity
  8
DRAFT
100
AcDbLine
 62
253
  6
CONTINUOUS
 10
95.0299357331
 20
-37.6512707483
 11
93.0799357331
 21
-37.6512707483
  0
LINE
  5
275
100
AcDbEntity
  8
RACCORDO
100
AcDbLine
 62
253
  6
CONTINUOUS
 10
95.3299357331
 20
-37.6512707483
 11
97.3593018891
 21
-37.6512707483
  0
LINE
  5
276
100
AcDbEntity
  8
0
100
AcDbLine
 62
7
  6
CONTINUOUS
 10
4.6489107331
 20
-36.943206173
 11
7.4918077331
 21
-36.943206173
  0
LWPOLYLINE
  5
277
100
AcDbEntity
  8
RACCORDO
100
AcDbPolyline
 62
7
  6
CONTINUOUS
 90
3
 70
0
 10
-97.0976551224
 20
32.6438709016
 10
-97.1342237486
 20
32.679326464
 10
-97.1700642669
 20
32.7132933091
  0
LINE
  5
278
100
AcDbEntity
  8
SMUSSO
100
AcDbLine
 62
7
  6
CONTINUOUS
 10
-34.6128845899
 20
31.2307272601
 11
-34.6128845899
 21
16.2307272601
  0
LINE
  5
279
100
AcDbEntity
  8
SMUSSO
100
AcDbLine
 62
7
  6
CONTINUOUS
 10
-33.9200642669
 20
31.2307272601
 11
-33.9200642669
 21
16.2307272601
  0
LINE
  5
27A
100
AcDbEntity
  8
DRAFT
100
AcDbLine
 62
7
  6
CONTINUOUS
 10
-33.4200642669
 20
16.2307272601
 11
-33.4200642669
 21
31.2307272601
  0
LINE
  5
27B
100
AcDbEntity
  8
DRAFT
100
AcDbLine
 62
7
  6
CONTINUOUS
 10
-32.9581840515
 20
16.2307272601
 11
-32.9581840515
 21
31.2307272601
  0
LINE
  5
27C
100
AcDbEntity
  8
0
100
AcDbLine
 62
7
  6
CONTINUOUS
 10
-11.0516341273
 20
41.4699494957
 11
-10.9389588806
 21
41.6176422179
  0
LINE
  5
27D
100
AcDbEntity
  8
0
100
AcDbLine
 62
7
  6
CONTINUOUS
 10
-9.2396532669
 20
32.3304684073
 11
-12.1870992669
 21
31.222247741
  0
LINE
  5
27E
100
AcDbEntity
  8
0
100
AcDbLine
 62
7
  6
CONTINUOUS
 10
-12.8494122669
 20
29.0432628732
 11
-9.8917962669
 21
30.1553070416
  0
LINE
  5
27F
100
AcDbEntity
  8
0
100
AcDbLine
 62
7
  6
CONTINUOUS
 10
-1.1842062669
 20
32.3304684073
 11
-4.0578772669
 21
31.2499856686
  0
LINE
  5
280
100
AcDbEntity
  8
0
100
AcDbLine
 62
7
  6
CONTINUOUS
 10
-10.3340552669
 20
28.6802016412
 11
-13.3381512669
 21
27.5506802141
  0
LINE
  5
281
100
AcDbEntity
  8
0
100
AcDbLine
 62
7
  6
CONTINUOUS
 10
6.9427187331
 20
-35.4622455748
 11
5.1979787331
 21
-35.4622455748
  0
LINE
  5
282
100
AcDbEntity
  8
0
100
AcDbLine
 62
7
  6
CONTINUOUS
 10
12.8604877331
 20
-35.4622256563
 11
14.4315507331
 21
-35.4622455748
  0
LINE
  5
283
100
AcDbEntity
  8
0
100
AcDbLine
 62
7
  6
CONTINUOUS
 10
15.0255321708
 20
-34.0202344692
 11
12.8354677331
 21
-34.0202344692
  0
LINE
  5
284
100
AcDbEntity
  8
0
100
AcDbLine
 62
7
  6
CONTINUOUS
 10
12.8354467331
 20
-32.12346996
 11
15.0254901832
 21
-32.12346996
  0
LINE
  5
285
100
AcDbEntity
  8
0
100
AcDbLine
 62
7
  6
CONTINUOUS
 10
1.0805237331
 20
-30.6814986915
 11
-1.6406952669
 21
-30.6814986915
  0
LINE
  5
286
100
AcDbEntity
  8
0
100
AcDbLine
 62
7
  6
CONTINUOUS
 10
-5.0021492669
 20
-30.6814986915
 11
-7.7233672669
 21
-30.6814986915
  0
LINE
  5
287
100
AcDbEntity
  8
0
100
AcDbLine
 62
7
  6
CONTINUOUS
 10
-9.5233672669
 20
-30.6814986915
 11
-11.3234352669
 21
-30.6814986915
  0
LINE
  5
288
100
AcDbEntity
  8
0
100
AcDbLine
 62
7
  6
CONTINUOUS
 10
-12.5234722669
 20
-30.6814986915
 11
-14.3235612669
 21
-30.6814986915
  0
LINE
  5
289
100
AcDbEntity
  8
0
100
AcDbLine
 62
7
  6
CONTINUOUS
 10
-18.3029792669
 20
-30.6814986915
 11
-20.1030692669
 21
-30.6814986915
  0
LINE
  5
28A
100
AcDbEntity
  8
0
100
AcDbLine
 62
7
  6
CONTINUOUS
 10
15.2753816878
 20
-30.681478773
 11
11.0601957331
 21
-30.681478773
  0
LINE
  5
28B
100
AcDbEntity
  8
0
100
AcDbLine
 62
7
  6
CONTINUOUS
 10
6.9704157331
 20
-30.681478773
 11
5.1702587331
 21
-30.681478773
  0
LINE
  5
28C
100
AcDbEntity
  8
0
100
AcDbLine
 62
7
  6
CONTINUOUS
 10
-11.2346854449
 20
41.1263010622
 11
-11.1938941106
 21
41.2233593611
  0
LINE
  5
28D
100
AcDbEntity
  8
0
100
AcDbLine
 62
7
  6
CONTINUOUS
 10
-11.1938941106
 20
41.2233593611
 11
-11.0516341273
 21
41.4699494957
  0
LINE
  5
28E
100
AcDbEntity
  8
0
100
AcDbLine
 62
7
  6
CONTINUOUS
 10
1.8744667331
 20
25.1009013269
 11
0.4350007331
 21
24.5596692245
  0
LINE
  5
28F
100
AcDbEntity
  8
0
100
AcDbLine
 62
7
  6
CONTINUOUS
 10
-20.1030692669
 20
-30.6814986915
 11
-17.2133492669
 21
-38.4760979845
  0
LINE
  5
290
100
AcDbEntity
  8
0
100
AcDbLine
 62
7
  6
CONTINUOUS
 10
-16.3132592669
 20
-36.0484876155
 11
-18.3029792669
 21
-30.6814986915
  0
LINE
  5
291
100
AcDbEntity
  8
0
100
AcDbLine
 62
7
  6
CONTINUOUS
 10
-11.0748910606
 20
40.9621772674
 11
-10.9854599399
 21
41.4621772674
  0
LWPOLYLINE
  5
292
100
AcDbEntity
  8
0
100
AcDbPolyline
 62
7
  6
CONTINUOUS
 90
3
 70
0
 10
-11.0982625308
 20
40.8497685501
 10
-11.0951975608
 20
40.8666140313
 10
-11.0748910606
 20
40.9621772674
  0
LINE
  5
293
100
AcDbEntity
  8
RACCORDO
100
AcDbLine
 62
7
  6
CONTINUOUS
 10
-5.8521975752
 20
41.9298011599
 11
-5.9245105833
 21
41.6237065892
  0
LWPOLYLINE
  5
294
100
AcDbEntity
  8
RACCORDO
100
AcDbPolyline
 62
7
  6
CONTINUOUS
 90
13
 70
0
 10
-5.8730850252
 20
41.8237429292
 10
-5.9626987638
 20
41.4861815369
 10
-6.0793986306
 20
41.16604369
 10
-6.2207040565
 20
40.866166932
 10
-6.3844315213
 20
40.5874013046
 10
-6.5672822531
 20
40.3336017666
 10
-6.7660299464
 20
40.1065197058
 10
-6.9783590588
 20
39.9059326959
 10
-7.2022481086
 20
39.7322581712
 10
-7.4350557328
 20
39.5860169067
 10
-7.6745566449
 20
39.4670222314
 10
-7.9197406798
 20
39.3747376908
 10
-8.1689428668
 20
39.309051992
  0
LINE
  5
295
100
AcDbEntity
  8
0
100
AcDbLine
 62
7
  6
CONTINUOUS
 10
-12.5233482669
 20
21.3780269909
 11
-10.3340552669
 21
28.6802016412
  0
LINE
  5
296
100
AcDbEntity
  8
0
100
AcDbLine
 62
7
  6
CONTINUOUS
 10
-9.8917962669
 20
30.1553070416
 11
-9.2396532669
 21
32.3304684073
  0
LINE
  5
297
100
AcDbEntity
  8
0
100
AcDbLine
 62
7
  6
CONTINUOUS
 10
-9.0685224509
 20
27.9053386538
 11
-10.5748402669
 21
22.8811604375
  0
LINE
  5
298
100
AcDbEntity
  8
0
100
AcDbLine
 62
7
  6
CONTINUOUS
 10
-13.3381512669
 20
27.5506802141
 11
-15.2143582669
 21
21.3780269909
  0
LINE
  5
299
100
AcDbEntity
  8
0
100
AcDbLine
 62
7
  6
CONTINUOUS
 10
-12.1870992669
 20
31.222247741
 11
-12.8494122669
 21
29.0432628732
  0
LWPOLYLINE
  5
29A
100
AcDbEntity
  8
RACCORDO
100
AcDbPolyline
 62
7
  6
CONTINUOUS
 90
13
 70
0
 10
-5.9245105833
 20
41.6237065892
 10
-6.0203100935
 20
41.3288643163
 10
-6.1384405511
 20
41.0472161806
 10
-6.2778468466
 20
40.7804387914
 10
-6.437396249
 20
40.5303106118
 10
-6.6156567561
 20
40.2987329261
 10
-6.8111196868
 20
40.0874727808
 10
-7.0223634282
 20
39.8981604267
 10
-7.2473900061
 20
39.7325211044
 10
-7.4834727522
 20
39.5921554038
 10
-7.7282839645
 20
39.4782087092
 10
-7.9793558473
 20
39.391414404
 10
-8.2334813106
 20
39.3319769388
  0
LINE
  5
29B
100
AcDbEntity
  8
0
100
AcDbLine
 62
7
  6
CONTINUOUS
 10
4.3061058894
 20
41.2233593611
 11
4.4483658727
 21
41.4699494957
  0
LINE
  5
29C
100
AcDbEntity
  8
0
100
AcDbLine
 62
7
  6
CONTINUOUS
 10
4.4483658727
 20
41.4699494957
 11
4.5610411194
 21
41.6176422179
  0
LWPOLYLINE
  5
29D
100
AcDbEntity
  8
0
100
AcDbPolyline
 62
7
  6
CONTINUOUS
 90
19
 70
0
 10
8.6723791979
 20
26.6878956521
 10
8.7879829869
 20
26.7787853357
 10
8.8873000236
 20
26.8766806734
 10
8.9703303081
 20
26.9815816654
 10
9.029909204
 20
27.0974511812
 10
9.0732013476
 20
27.2203263512
 10
9.1217006478
 20
27.3383185666
 10
9.1790685296
 20
27.4500294981
 10
9.241643568
 20
27.5568574749
 10
9.3199353971
 20
27.6511088765
 10
9.4194068177
 20
27.7295441979
 10
9.5345950289
 20
27.795402944
 10
9.6596212626
 20
27.8507100094
 10
9.795094179
 20
27.8974945107
 10
9.9404051179
 20
27.9337273313
 10
10.0878493308
 20
27.9553460156
 10
10.2348585685
 20
27.9609964117
 10
10.3840010802
 20
27.9520326716
 10
10.5352768661
 20
27.9284547951
  0
LINE
  5
29E
100
AcDbEntity
  8
0
100
AcDbLine
 62
7
  6
CONTINUOUS
 10
0.0763764718
 20
23.4558513331
 11
4.5416277331
 21
25.13475859
  0
LINE
  5
29F
100
AcDbEntity
  8
0
100
AcDbLine
 62
7
  6
CONTINUOUS
 10
5.9671647331
 20
25.6707512387
 11
8.6723791979
 21
26.6878956521
  0
LINE
  5
2A0
100
AcDbEntity
  8
0
100
AcDbLine
 62
7
  6
CONTINUOUS
 10
4.1222097331
 20
23.7358261861
 11
1.1839199976
 21
22.6310476942
  0
LINE
  5
2A1
100
AcDbEntity
  8
0
100
AcDbLine
 62
7
  6
CONTINUOUS
 10
9.9333467331
 20
25.920778835
 11
5.5477447331
 21
24.2718188347
  0
LINE
  5
2A2
100
AcDbEntity
  8
0
100
AcDbLine
 62
7
  6
CONTINUOUS
 10
8.2301247331
 20
24.4143389034
 11
9.6407087331
 21
24.9447101812
  0
LWPOLYLINE
  5
2A3
100
AcDbEntity
  8
0
100
AcDbPolyline
 62
7
  6
CONTINUOUS
 90
10
 70
0
 10
2.6060797331
 20
21.3780269909
 10
2.7791359894
 20
21.4307134943
 10
2.9393536196
 20
21.4957846669
 10
3.0867326238
 20
21.5732405089
 10
3.2221981378
 20
21.6649004438
 10
3.3448250257
 20
21.7689450481
 10
3.4518378797
 20
21.879916051
 10
3.542311564
 20
21.995994029
 10
3.6171712144
 20
22.1189984057
 10
3.6764168309
 20
22.248929181
  0
LWPOLYLINE
  5
2A4
100
AcDbEntity
  8
RACCORDO
100
AcDbPolyline
 62
253
  6
CONTINUOUS
 90
22
 70
0
 10
-91.7711392724
 20
56.3886147381
 10
-91.7603395416
 20
56.3794039117
 10
-91.7427372129
 20
56.3220643583
 10
-91.7262142377
 20
56.2126226941
 10
-91.7107979333
 20
56.0518674816
 10
-91.6964609824
 20
55.8407825126
 10
-91.6834455913
 20
55.5806712768
 10
-91.6717762791
 20
55.2732256868
 10
-91.6614285266
 20
54.920225537
 10
-91.6525709828
 20
54.5233806689
 10
-91.6452240256
 20
54.0847869849
 10
-91.639367277
 20
53.6070593446
 10
-91.6351082524
 20
53.0929255915
 10
-91.6324770382
 20
52.5451236139
 10
-91.631443548
 20
51.9669875221
 10
-91.6320250382
 20
51.3625356033
 10
-91.6342503772
 20
50.7356893308
 10
-91.6380906966
 20
50.0898107411
 10
-91.6434766474
 20
49.4283252129
 10
-91.6503851134
 20
48.7549560909
 10
-91.6588392108
 20
48.0737338097
 10
-91.6688389397
 20
47.3886147381
  0
LINE
  5
2A5
100
AcDbEntity
  8
0
100
AcDbLine
 62
7
  6
CONTINUOUS
 10
-5.9232992669
 20
-33.3360769983
 11
-4.2214442669
 21
-38.4760780659
  0
LINE
  5
2A6
100
AcDbEntity
  8
RACCORDO
100
AcDbLine
 62
7
  6
CONTINUOUS
 10
-11.5234824057
 20
42.1439633359
 11
-11.5522367948
 21
42.4411047905
  0
LWPOLYLINE
  5
2A7
100
AcDbEntity
  8
RACCORDO
100
AcDbPolyline
 62
253
  6
CONTINUOUS
 90
17
 70
0
 10
-11.8202427127
 20
42.1018594703
 10
-11.8535127507
 20
42.480572071
 10
-11.8537226783
 20
42.8670741226
 10
-11.8208457794
 20
43.2458765481
 10
-11.7528053882
 20
43.6161162451
 10
-11.6516781705
 20
43.9786563158
 10
-11.5236674075
 20
44.3205969895
 10
-11.3678330534
 20
44.6399240032
 10
-11.1851151541
 20
44.9386516199
 10
-10.9845371285
 20
45.2099228572
 10
-10.7664909521
 20
45.4519500786
 10
-10.5305846495
 20
45.6665209207
 10
-10.2846657129
 20
45.8521413113
 10
-10.0292950657
 20
46.0081561022
 10
-9.7639117844
 20
46.1352204417
 10
-9.4946805917
 20
46.233805703
 10
-9.223656395
 20
46.3040690106
  0
LINE
  5
2A8
100
AcDbEntity
  8
RACCORDO
100
AcDbLine
 62
7
  6
CONTINUOUS
 10
-11.5522367948
 20
42.4411047905
 11
-11.5526032295
 21
42.4473462607
  0
LWPOLYLINE
  5
2A9
100
AcDbEntity
  8
RACCORDO
100
AcDbPolyline
 62
7
  6
CONTINUOUS
 90
19
 70
0
 10
-11.5526032295
 20
42.4473462607
 10
-11.5551573492
 20
42.4966142308
 10
-11.5558025047
 20
42.8539630599
 10
-11.5252628474
 20
43.2068875506
 10
-11.4643795652
 20
43.5522518394
 10
-11.3742679087
 20
43.8878167639
 10
-11.2572122313
 20
44.2060728499
 10
-11.1157478026
 20
44.5041124499
 10
-10.9521638631
 20
44.7811205499
 10
-10.769504381
 20
45.0333996675
 10
-10.5710142698
 20
45.2591407453
 10
-10.3591113219
 20
45.4585308842
 10
-10.1356304288
 20
45.6312299049
 10
-9.903275031
 20
45.7766569203
 10
-9.6643329848
 20
45.8949839979
 10
-9.4195824344
 20
45.9868141493
 10
-9.1706386785
 20
46.0522290161
 10
-8.9201218673
 20
46.0911626155
 10
-8.6700642669
 20
46.1039161602
  0
LINE
  5
2AA
100
AcDbEntity
  8
0
100
AcDbLine
 62
7
  6
CONTINUOUS
 10
-11.3234352669
 20
-30.6814986915
 11
-11.3234562669
 21
-38.4760979845
  0
LINE
  5
2AB
100
AcDbEntity
  8
0
100
AcDbLine
 62
7
  6
CONTINUOUS
 10
-9.5233892669
 20
-38.4760780659
 11
-9.5233672669
 21
-30.6814986915
  0
LINE
  5
2AC
100
AcDbEntity
  8
0
100
AcDbLine
 62
7
  6
CONTINUOUS
 10
-7.7233672669
 20
-30.6814986915
 11
-7.7233672669
 21
-38.4760780659
  0
LINE
  5
2AD
100
AcDbEntity
  8
RACCORDO
100
AcDbLine
 62
7
  6
CONTINUOUS
 10
-5.7875460685
 20
42.4469889843
 11
-5.7878917122
 21
42.4411052235
  0
LINE
  5
2AE
100
AcDbEntity
  8
RACCORDO
100
AcDbLine
 62
7
  6
CONTINUOUS
 10
-5.7875440015
 20
42.4469657801
 11
-5.8044789945
 21
42.2450947864
  0
LINE
  5
2AF
100
AcDbEntity
  8
RACCORDO
100
AcDbLine
 62
7
  6
CONTINUOUS
 10
-5.7878917122
 20
42.4411052235
 11
-5.8131017213
 21
42.1710458077
  0
LWPOLYLINE
  5
2B0
100
AcDbEntity
  8
0
100
AcDbPolyline
 62
7
  6
CONTINUOUS
 90
16
 70
0
 10
-10.5748402669
 20
22.8811604375
 10
-10.5894305167
 20
22.7551932416
 10
-10.5903880866
 20
22.6300046558
 10
-10.5777129765
 20
22.5055946804
 10
-10.5513589053
 20
22.3807640912
 10
-10.5113721541
 20
22.2567121123
 10
-10.4578915666
 20
22.1370364152
 10
-10.3909706716
 20
22.0220694509
 10
-10.3105559402
 20
21.9114787683
 10
-10.2166256298
 20
21.8078646863
 10
-10.1082263791
 20
21.7106074019
 10
-9.9863115493
 20
21.6203267181
 10
-9.8537194812
 20
21.5414823623
 10
-9.7113962882
 20
21.4755609104
 10
-9.5583958568
 20
21.4210757866
 10
-9.394718187
 20
21.3780269909
  0
LINE
  5
2B1
100
AcDbEntity
  8
RACCORDO
100
AcDbLine
 62
7
  6
CONTINUOUS
 10
-5.8044789945
 20
42.2450947864
 11
-5.8521975752
 21
41.9298011599
  0
LWPOLYLINE
  5
2B2
100
AcDbEntity
  8
ASSI
100
AcDbPolyline
 62
7
  6
CONTINUOUS
 90
6
 70
0
 10
-5.1700642669
 20
56.3421036167
 10
-5.1668007915
 20
56.3614509641
 10
-5.1549529106
 20
56.375586825
 10
-5.1345206241
 20
56.3845636181
 10
-5.105727095
 20
56.3884401099
 10
-5.0964959668
 20
56.3886145749
  0
LINE
  5
2B3
100
AcDbEntity
  8
RACCORDO
100
AcDbLine
 62
7
  6
CONTINUOUS
 10
-5.8131017213
 20
42.1710458077
 11
-5.8730850252
 21
41.8237429292
  0
LWPOLYLINE
  5
2B4
100
AcDbEntity
  8
RACCORDO
100
AcDbPolyline
 62
253
  6
CONTINUOUS
 90
15
 70
0
 10
-5.5157057912
 20
42.1333434137
 10
-5.5818016442
 20
41.7606907033
 10
-5.6813685937
 20
41.3954433203
 10
-5.8082365315
 20
41.0507747992
 10
-5.9633910679
 20
40.7287192503
 10
-6.1458465925
 20
40.4272425633
 10
-6.3464761656
 20
40.153415943
 10
-6.5648917956
 20
39.9090723646
 10
-6.8014814739
 20
39.6923788527
 10
-7.0482822359
 20
39.5049076856
 10
-7.3047704769
 20
39.347326566
 10
-7.5714698015
 20
39.2189677913
 10
-7.8419880579
 20
39.1194005311
 10
-8.114194529
 20
39.0484811754
 10
-8.390219932
 20
39.0063533342
  0
LINE
  5
2B5
100
AcDbEntity
  8
0
100
AcDbLine
 62
7
  6
CONTINUOUS
 10
-7.9893492669
 20
22.9443681676
 11
-6.6083145375
 21
27.5506793115
  0
LINE
  5
2B6
100
AcDbEntity
  8
0
100
AcDbLine
 62
7
  6
CONTINUOUS
 10
-5.1413792669
 20
27.9143615202
 11
-6.8701073416
 21
22.1483589364
  0
LINE
  5
2B7
100
AcDbEntity
  8
0
100
AcDbLine
 62
7
  6
CONTINUOUS
 10
-4.4679002669
 20
21.3780269909
 11
-1.1842062669
 21
32.3304684073
  0
LINE
  5
2B8
100
AcDbEntity
  8
0
100
AcDbLine
 62
7
  6
CONTINUOUS
 10
-1.1067312768
 20
28.0142791681
 11
-2.7329592669
 21
22.5901516531
  0
LINE
  5
2B9
100
AcDbEntity
  8
0
100
AcDbLine
 62
7
  6
CONTINUOUS
 10
-4.0578772669
 20
31.2499856686
 11
-4.8631122669
 21
28.6802016412
  0
LWPOLYLINE
  5
2BA
100
AcDbEntity
  8
0
100
AcDbPolyline
 62
7
  6
CONTINUOUS
 90
3
 70
0
 10
-0.0050642328
 20
23.2945393317
 10
0.0288044845
 20
23.3777076709
 10
0.0763764718
 20
23.4558513331
  0
LINE
  5
2BB
100
AcDbEntity
  8
0
100
AcDbLine
 62
7
  6
CONTINUOUS
 10
4.2653145551
 20
41.1263010622
 11
4.3061058894
 21
41.2233593611
  0
LINE
  5
2BC
100
AcDbEntity
  8
0
100
AcDbLine
 62
7
  6
CONTINUOUS
 10
-3.3214212669
 20
-35.7576070029
 11
-5.0021492669
 21
-30.6814986915
  0
LINE
  5
2BD
100
AcDbEntity
  8
0
100
AcDbLine
 62
7
  6
CONTINUOUS
 10
-5.9232992669
 20
-38.4760780659
 11
-5.9232992669
 21
-33.3360769983
  0
LINE
  5
2BE
100
AcDbEntity
  8
ASSI
100
AcDbLine
 62
7
  6
CONTINUOUS
 10
-5.1700642669
 20
54.9538860128
 11
-5.1700642669
 21
56.3421036167
  0
LINE
  5
2BF
100
AcDbEntity
  8
0
100
AcDbLine
 62
7
  6
CONTINUOUS
 10
-0.7195672669
 20
-33.3360769983
 11
-0.7195442669
 21
-38.4760780659
  0
LWPOLYLINE
  5
2C0
100
AcDbEntity
  8
ASSI
100
AcDbPolyline
 62
7
  6
CONTINUOUS
 90
40
 70
0
 10
3.3299357331
 20
54.9538860128
 10
3.3127564655
 20
54.7185352327
 10
3.2630747572
 20
54.4760013839
 10
3.1808906081
 20
54.2283087855
 10
3.0640857618
 20
53.9752944675
 10
2.9147784746
 20
53.7206104345
 10
2.7393235167
 20
53.4726029941
 10
2.5385752895
 20
53.2356726758
 10
2.3116793915
 20
53.0096732601
 10
2.0624273875
 20
52.7965736847
 10
1.791079563
 20
52.5970689931
 10
1.4973756325
 20
52.4132199227
 10
1.1843263045
 20
52.2489032943
 10
0.8491385188
 20
52.1044597511
 10
0.4946053355
 20
51.9814441284
 10
0.1321166437
 20
51.8855556789
 10
-0.2383607428
 20
51.8191025748
 10
-0.6167936378
 20
51.7808426009
 10
-0.9916925941
 20
51.770991618
 10
-1.3634601875
 20
51.7914456042
 10
-1.7316938421
 20
51.8402423125
 10
-2.083696384
 20
51.9116012217
 10
-2.4173543374
 20
52.0063428223
 10
-2.734781178
 20
52.1227609113
 10
-3.0296201587
 20
52.2513874629
 10
-3.2977652022
 20
52.3892585779
 10
-3.5433223859
 20
52.5384093399
 10
-3.7722531944
 20
52.6970609029
 10
-3.9862955177
 20
52.8638708507
 10
-4.1837114657
 20
53.038904053
 10
-4.3652488532
 20
53.2223724456
 10
-4.5325264938
 20
53.4149696412
 10
-4.6839255739
 20
53.6139700325
 10
-4.8153374661
 20
53.8145653542
 10
-4.9256073082
 20
54.0164721105
 10
-5.0158899624
 20
54.2181006541
 10
-5.0855413894
 20
54.4135058115
 10
-5.1343469092
 20
54.6006933087
 10
-5.1625212017
 20
54.7809596177
 10
-5.1700642669
 20
54.9538860128
  0
LINE
  5
2C1
100
AcDbEntity
  8
0
100
AcDbLine
 62
7
  6
CONTINUOUS
 10
4.4251089394
 20
40.9621772674
 11
4.5145400601
 21
41.4621772674
  0
LWPOLYLINE
  5
2C2
100
AcDbEntity
  8
0
100
AcDbPolyline
 62
7
  6
CONTINUOUS
 90
3
 70
0
 10
4.4017374692
 20
40.8497685501
 10
4.4048024392
 20
40.8666140313
 10
4.4251089394
 20
40.9621772674
  0
LWPOLYLINE
  5
2C3
100
AcDbEntity
  8
0
100
AcDbPolyline
 62
7
  6
CONTINUOUS
 90
16
 70
0
 10
5.1185647331
 20
22.8403316698
 10
5.0883536085
 20
22.7076968481
 10
5.0757177193
 20
22.5757158329
 10
5.0806570656
 20
22.4443886242
 10
5.1031859842
 20
22.312125052
 10
5.1432901382
 20
22.1805152863
 10
5.2009265171
 20
22.0543298376
 10
5.2764849601
 20
21.9333819174
 10
5.3695756281
 20
21.8178583142
 10
5.4789859924
 20
21.7130899037
 10
5.6062039935
 20
21.6187415425
 10
5.749741691
 20
21.5351483739
 10
5.9039227346
 20
21.4686467038
 10
6.0668550078
 20
21.4213486343
 10
6.2404306271
 20
21.3911420634
 10
6.4246495927
 20
21.3780269909
  0
LWPOLYLINE
  5
2C4
100
AcDbEntity
  8
0
100
AcDbPolyline
 62
7
  6
CONTINUOUS
 90
16
 70
0
 10
5.1237067331
 20
27.0762255986
 10
5.1576560894
 20
27.2214665698
 10
5.1722861303
 20
27.3660465373
 10
5.1675968557
 20
27.5099655013
 10
5.1435725179
 20
27.6549780528
 10
5.1002288648
 20
27.7993296007
 10
5.0376131396
 20
27.9377563711
 10
4.9552994159
 20
28.070456641
 10
4.8537136203
 20
28.1972321334
 10
4.7341807758
 20
28.3122242435
 10
4.5950665899
 20
28.4158062889
 10
4.4380053552
 20
28.507604952
 10
4.2692249724
 20
28.5806416745
 10
4.0908014085
 20
28.6325902706
 10
3.9006586965
 20
28.6657769261
 10
3.6987968364
 20
28.6802016412
  0
LINE
  5
2C5
100
AcDbEntity
  8
RACCORDO
100
AcDbLine
 62
7
  6
CONTINUOUS
 10
9.6478024248
 20
41.9298011599
 11
9.5754894167
 21
41.6237065892
  0
LWPOLYLINE
  5
2C6
100
AcDbEntity
  8
RACCORDO
100
AcDbPolyline
 62
7
  6
CONTINUOUS
 90
13
 70
0
 10
9.6269149748
 20
41.8237429292
 10
9.5373012362
 20
41.4861815369
 10
9.4206013694
 20
41.16604369
 10
9.2792959435
 20
40.866166932
 10
9.1155684787
 20
40.5874013046
 10
8.9327177469
 20
40.3336017666
 10
8.7339700536
 20
40.1065197058
 10
8.5216409412
 20
39.9059326959
 10
8.2977518914
 20
39.7322581712
 10
8.0649442672
 20
39.5860169067
 10
7.8254433551
 20
39.4670222314
 10
7.5802593202
 20
39.3747376908
 10
7.3310571332
 20
39.309051992
  0
LINE
  5
2C7
100
AcDbEntity
  8
0
100
AcDbLine
 62
7
  6
CONTINUOUS
 10
0.4350007331
 20
24.5596692245
 11
1.2873584265
 21
27.4026269524
  0
LINE
  5
2C8
100
AcDbEntity
  8
0
100
AcDbLine
 62
7
  6
CONTINUOUS
 10
2.7117057331
 20
27.8934270881
 11
1.8744667331
 21
25.1009013269
  0
LINE
  5
2C9
100
AcDbEntity
  8
0
100
AcDbLine
 62
7
  6
CONTINUOUS
 10
3.6764168309
 20
22.248929181
 11
4.1222097331
 21
23.7358261861
  0
LINE
  5
2CA
100
AcDbEntity
  8
0
100
AcDbLine
 62
7
  6
CONTINUOUS
 10
4.5416277331
 20
25.13475859
 11
5.1237067331
 21
27.0762255986
  0
LINE
  5
2CB
100
AcDbEntity
  8
0
100
AcDbLine
 62
7
  6
CONTINUOUS
 10
5.5477447331
 20
24.2718188347
 11
5.1185647331
 21
22.8403316698
  0
LINE
  5
2CC
100
AcDbEntity
  8
0
100
AcDbLine
 62
7
  6
CONTINUOUS
 10
6.559808315
 20
27.6474586971
 11
5.9671647331
 21
25.6707512387
  0
LWPOLYLINE
  5
2CD
100
AcDbEntity
  8
RACCORDO
100
AcDbPolyline
 62
7
  6
CONTINUOUS
 90
13
 70
0
 10
9.5754894167
 20
41.6237065892
 10
9.4796899065
 20
41.3288643163
 10
9.3615594489
 20
41.0472161806
 10
9.2221531534
 20
40.7804387914
 10
9.062603751
 20
40.5303106118
 10
8.8843432439
 20
40.2987329261
 10
8.6888803132
 20
40.0874727808
 10
8.4776365718
 20
39.8981604267
 10
8.2526099939
 20
39.7325211044
 10
8.0165272478
 20
39.5921554038
 10
7.7717160355
 20
39.4782087092
 10
7.5206441527
 20
39.391414404
 10
7.2665186894
 20
39.3319769388
  0
LWPOLYLINE
  5
2CE
100
AcDbEntity
  8
0
100
AcDbPolyline
 62
7
  6
CONTINUOUS
 90
32
 70
0
 10
1.1839199976
 20
22.6310476942
 10
1.1652137101
 20
22.5744907315
 10
1.1470441458
 20
22.5183729963
 10
1.1294113048
 20
22.4626944885
 10
1.1147319531
 20
22.4061013237
 10
1.1005893246
 20
22.3499473863
 10
1.0797331218
 20
22.2982943298
 10
1.0494862722
 20
22.2512125348
 10
1.0125258484
 20
22.2086316208
 10
0.9696327704
 20
22.174402099
 10
0.9199940289
 20
22.1492819194
 10
0.8644226333
 20
22.1325131322
 10
0.8061385321
 20
22.1256723992
 10
0.7451912601
 20
22.1301116026
 10
0.6815312826
 20
22.1444788602
 10
0.618229944
 20
22.1662951877
 10
0.5565197872
 20
22.195893113
 10
0.4951682693
 20
22.2329401081
 10
0.4335491066
 20
22.2739596045
 10
0.3703993807
 20
22.3164951014
 10
0.3069820098
 20
22.3630030995
 10
0.2464594655
 20
22.4173765334
 10
0.1881802344
 20
22.4810966757
 10
0.1327958299
 20
22.5526822536
 10
0.0854232628
 20
22.6315823837
 10
0.0479496906
 20
22.7195075375
 10
0.018487956
 20
22.8147472434
 10
-0.0035064024
 20
22.9116192039
 10
-0.0202935025
 20
23.010448297
 10
-0.0296132263
 20
23.1109096448
 10
-0.0252296801
 20
23.2063463154
 10
-0.0050642328
 20
23.2945393317
  0
LINE
  5
2CF
100
AcDbEntity
  8
0
100
AcDbLine
 62
7
  6
CONTINUOUS
 10
-14.3235612669
 20
-30.6814986915
 11
-16.3132592669
 21
-36.0484876155
  0
LINE
  5
2D0
100
AcDbEntity
  8
0
100
AcDbLine
 62
7
  6
CONTINUOUS
 10
-15.4132152669
 20
-38.4760780659
 11
-12.5234722669
 21
-30.6814986915
  0
LINE
  5
2D1
100
AcDbEntity
  8
DRAFT
100
AcDbLine
 62
253
  6
CONTINUOUS
 10
61.3680555178
 20
-1.76121685
 11
61.8299357331
 21
-1.7612164913
  0
LINE
  5
2D2
100
AcDbEntity
  8
DRAFT
100
AcDbLine
 62
253
  6
CONTINUOUS
 10
-68.6319444822
 20
-1.7612164913
 11
-68.1700642669
 21
-1.7612164913
  0
LINE
  5
2D3
100
AcDbEntity
  8
SMUSSO
100
AcDbLine
 62
253
  6
CONTINUOUS
 10
-67.6700642669
 20
-1.7612164913
 11
-66.9772439438
 21
-1.7612164913
  0
LINE
  5
2D4
100
AcDbEntity
  8
DRAFT
100
AcDbLine
 62
253
  6
CONTINUOUS
 10
66.7918159485
 20
-1.7612164913
 11
66.3299357331
 21
-1.7612164913
  0
LINE
  5
2D5
100
AcDbEntity
  8
SMUSSO
100
AcDbLine
 62
253
  6
CONTINUOUS
 10
65.8299357331
 20
-1.7612164913
 11
65.1371154101
 21
-1.7612164913
  0
LINE
  5
2D6
100
AcDbEntity
  8
SMUSSO
100
AcDbLine
 62
253
  6
CONTINUOUS
 10
62.3299357331
 20
-1.7612164913
 11
63.0227560562
 21
-1.7612164913
  0
LINE
  5
2D7
100
AcDbEntity
  8
DRAFT
100
AcDbLine
 62
253
  6
CONTINUOUS
 10
-63.2081840515
 20
-1.7612164913
 11
-63.6700642669
 21
-1.7612164913
  0
LINE
  5
2D8
100
AcDbEntity
  8
SMUSSO
100
AcDbLine
 62
253
  6
CONTINUOUS
 10
-64.1700642669
 20
-1.7612164913
 11
-64.8628845899
 21
-1.7612164913
  0
LINE
  5
2D9
100
AcDbEntity
  8
0
100
AcDbLine
 62
7
  6
CONTINUOUS
 10
14.4315507331
 20
-35.4622455748
 11
16.2354437331
 21
-38.4760590133
  0
LINE
  5
2DA
100
AcDbEntity
  8
0
100
AcDbLine
 62
7
  6
CONTINUOUS
 10
18.2629407331
 20
-38.4760390947
 11
16.3468603514
 21
-35.2747679415
  0
LINE
  5
2DB
100
AcDbEntity
  8
0
100
AcDbLine
 62
7
  6
CONTINUOUS
 10
6.0703267331
 20
-33.1090891419
 11
6.9427187331
 21
-35.4622455748
  0
LINE
  5
2DC
100
AcDbEntity
  8
0
100
AcDbLine
 62
7
  6
CONTINUOUS
 10
7.4918077331
 20
-36.943206173
 11
8.0600677331
 21
-38.4760590133
  0
LINE
  5
2DD
100
AcDbEntity
  8
0
100
AcDbLine
 62
7
  6
CONTINUOUS
 10
9.8601587331
 20
-38.4760780659
 11
6.9704157331
 21
-30.681478773
  0
LINE
  5
2DE
100
AcDbEntity
  8
RACCORDO
100
AcDbLine
 62
7
  6
CONTINUOUS
 10
-11.3704224665
 20
41.4641386628
 11
-11.4615605329
 21
41.7990441882
  0
LINE
  5
2DF
100
AcDbEntity
  8
RACCORDO
100
AcDbLine
 62
7
  6
CONTINUOUS
 10
-11.4142606106
 20
41.6188964642
 11
-11.4873122747
 21
41.9266376829
  0
LWPOLYLINE
  5
2E0
100
AcDbEntity
  8
0
100
AcDbPolyline
 62
7
  6
CONTINUOUS
 90
13
 70
0
 10
-7.9893492669
 20
22.9443681676
 10
-7.9693837662
 20
22.8370303957
 10
-7.9349485733
 20
22.7343829857
 10
-7.8860436883
 20
22.6364259376
 10
-7.8223349847
 20
22.5415104149
 10
-7.7441565889
 20
22.451285254
 10
-7.6525108802
 20
22.3706969649
 10
-7.545943854
 20
22.2995823698
 10
-7.4259095149
 20
22.2381046465
 10
-7.2977722549
 20
22.1916998372
 10
-7.1633202047
 20
22.1621799562
 10
-7.0207652336
 20
22.1477329892
 10
-6.8701073416
 20
22.1483589364
  0
LINE
  5
2E1
100
AcDbEntity
  8
RACCORDO
100
AcDbLine
 62
7
  6
CONTINUOUS
 10
-11.4615605329
 20
41.7990441882
 11
-11.5234824057
 21
42.1439633359
  0
LWPOLYLINE
  5
2E2
100
AcDbEntity
  8
RACCORDO
100
AcDbPolyline
 62
7
  6
CONTINUOUS
 90
3
 70
0
 10
-11.4873122747
 20
41.9266376829
 10
-11.5354922691
 20
42.2436324665
 10
-11.552611039
 20
42.4473257861
  0
LWPOLYLINE
  5
2E3
100
AcDbEntity
  8
RACCORDO
100
AcDbPolyline
 62
253
  6
CONTINUOUS
 90
17
 70
0
 10
3.6797572873
 20
42.1018594703
 10
3.6464872493
 20
42.480572071
 10
3.6462773217
 20
42.8670741226
 10
3.6791542206
 20
43.2458765481
 10
3.7471946118
 20
43.6161162451
 10
3.8483218295
 20
43.9786563158
 10
3.9763325925
 20
44.3205969895
 10
4.1321669466
 20
44.6399240032
 10
4.3148848459
 20
44.9386516199
 10
4.5154628715
 20
45.2099228572
 10
4.7335090479
 20
45.4519500786
 10
4.9694153505
 20
45.6665209207
 10
5.2153342871
 20
45.8521413113
 10
5.4707049343
 20
46.0081561022
 10
5.7360882156
 20
46.1352204417
 10
6.0053194083
 20
46.233805703
 10
6.276343605
 20
46.3040690106
  0
LINE
  5
2E4
100
AcDbEntity
  8
RACCORDO
100
AcDbLine
 62
7
  6
CONTINUOUS
 10
3.9477632052
 20
42.4411047905
 11
3.9473967705
 21
42.4473462607
  0
LWPOLYLINE
  5
2E5
100
AcDbEntity
  8
RACCORDO
100
AcDbPolyline
 62
7
  6
CONTINUOUS
 90
19
 70
0
 10
3.9473967705
 20
42.4473462607
 10
3.9448426508
 20
42.4966142308
 10
3.9441974953
 20
42.8539630599
 10
3.9747371526
 20
43.2068875506
 10
4.0356204348
 20
43.5522518394
 10
4.1257320913
 20
43.8878167639
 10
4.2427877687
 20
44.2060728499
 10
4.3842521974
 20
44.5041124499
 10
4.5478361369
 20
44.7811205499
 10
4.730495619
 20
45.0333996675
 10
4.9289857302
 20
45.2591407453
 10
5.1408886781
 20
45.4585308842
 10
5.3643695712
 20
45.6312299049
 10
5.596724969
 20
45.7766569203
 10
5.8356670152
 20
45.8949839979
 10
6.0804175656
 20
45.9868141493
 10
6.3293613215
 20
46.0522290161
 10
6.5798781327
 20
46.0911626155
 10
6.8299357331
 20
46.1039161602
  0
LINE
  5
2E6
100
AcDbEntity
  8
0
100
AcDbLine
 62
7
  6
CONTINUOUS
 10
1.0805237331
 20
-38.4760780659
 11
1.0805237331
 21
-30.6814986915
  0
LINE
  5
2E7
100
AcDbEntity
  8
ASSI
100
AcDbLine
 62
7
  6
CONTINUOUS
 10
3.3299357331
 20
56.3421036167
 11
3.3299357331
 21
54.9538860128
  0
LINE
  5
2E8
100
AcDbEntity
  8
RACCORDO
100
AcDbLine
 62
7
  6
CONTINUOUS
 10
9.7124539315
 20
42.4469889843
 11
9.7121082878
 21
42.4411052235
  0
LINE
  5
2E9
100
AcDbEntity
  8
RACCORDO
100
AcDbLine
 62
7
  6
CONTINUOUS
 10
9.7124559985
 20
42.4469657801
 11
9.6955210055
 21
42.2450947864
  0
LINE
  5
2EA
100
AcDbEntity
  8
RACCORDO
100
AcDbLine
 62
7
  6
CONTINUOUS
 10
9.7121082878
 20
42.4411052235
 11
9.6868982787
 21
42.1710458077
  0
LINE
  5
2EB
100
AcDbEntity
  8
RACCORDO
100
AcDbLine
 62
7
  6
CONTINUOUS
 10
9.6955210055
 20
42.2450947864
 11
9.6478024248
 21
41.9298011599
  0
LINE
  5
2EC
100
AcDbEntity
  8
RACCORDO
100
AcDbLine
 62
7
  6
CONTINUOUS
 10
9.6868982787
 20
42.1710458077
 11
9.6269149748
 21
41.8237429292
  0
LWPOLYLINE
  5
2ED
100
AcDbEntity
  8
RACCORDO
100
AcDbPolyline
 62
253
  6
CONTINUOUS
 90
15
 70
0
 10
9.9842942088
 20
42.1333434137
 10
9.9181983558
 20
41.7606907033
 10
9.8186314063
 20
41.3954433203
 10
9.6917634685
 20
41.0507747992
 10
9.5366089321
 20
40.7287192503
 10
9.3541534075
 20
40.4272425633
 10
9.1535238344
 20
40.153415943
 10
8.9351082044
 20
39.9090723646
 10
8.6985185261
 20
39.6923788527
 10
8.4517177641
 20
39.5049076856
 10
8.1952295231
 20
39.347326566
 10
7.9285301985
 20
39.2189677913
 10
7.6580119421
 20
39.1194005311
 10
7.385805471
 20
39.0484811754
 10
7.109780068
 20
39.0063533342
  0
LINE
  5
2EE
100
AcDbEntity
  8
0
100
AcDbLine
 62
7
  6
CONTINUOUS
 10
7.8404537331
 20
23.114629628
 11
8.2301247331
 21
24.4143389034
  0
LINE
  5
2EF
100
AcDbEntity
  8
0
100
AcDbLine
 62
7
  6
CONTINUOUS
 10
10.5352768661
 20
27.9284547951
 11
9.9333467331
 21
25.920778835
  0
LINE
  5
2F0
100
AcDbEntity
  8
0
100
AcDbLine
 62
7
  6
CONTINUOUS
 10
9.6407087331
 20
24.9447101812
 11
8.7819491361
 21
22.0804010468
  0
LINE
  5
2F1
100
AcDbEntity
  8
0
100
AcDbLine
 62
7
  6
CONTINUOUS
 10
11.3419797331
 20
21.3780269909
 11
13.1423387331
 21
27.3829492799
  0
LINE
  5
2F2
100
AcDbEntity
  8
DRAFT
100
AcDbLine
 62
253
  6
CONTINUOUS
 10
66.7918159485
 20
5.7387839031
 11
66.3299357331
 21
5.7387835087
  0
LINE
  5
2F3
100
AcDbEntity
  8
DRAFT
100
AcDbLine
 62
253
  6
CONTINUOUS
 10
-68.6319444822
 20
5.7387835087
 11
-68.1700642669
 21
5.7387835087
  0
LINE
  5
2F4
100
AcDbEntity
  8
SMUSSO
100
AcDbLine
 62
253
  6
CONTINUOUS
 10
-67.6700642669
 20
5.7387835087
 11
-66.9772439438
 21
5.7387835087
  0
LINE
  5
2F5
100
AcDbEntity
  8
SMUSSO
100
AcDbLine
 62
253
  6
CONTINUOUS
 10
65.8299357331
 20
5.7387835087
 11
65.1371154101
 21
5.7387835087
  0
LINE
  5
2F6
100
AcDbEntity
  8
DRAFT
100
AcDbLine
 62
253
  6
CONTINUOUS
 10
61.3680555178
 20
5.7387835087
 11
61.8299357331
 21
5.7387835087
  0
LINE
  5
2F7
100
AcDbEntity
  8
SMUSSO
100
AcDbLine
 62
253
  6
CONTINUOUS
 10
62.3299357331
 20
5.7387835087
 11
63.0227560562
 21
5.7387835087
  0
LINE
  5
2F8
100
AcDbEntity
  8
DRAFT
100
AcDbLine
 62
253
  6
CONTINUOUS
 10
-63.2081840515
 20
5.7387835087
 11
-63.6700642669
 21
5.7387835087
  0
LINE
  5
2F9
100
AcDbEntity
  8
SMUSSO
100
AcDbLine
 62
253
  6
CONTINUOUS
 10
-64.1700642669
 20
5.7387835087
 11
-64.8628845899
 21
5.7387835087
  0
LINE
  5
2FA
100
AcDbEntity
  8
RACCORDO
100
AcDbLine
 62
7
  6
CONTINUOUS
 10
-11.3174864379
 20
41.3225842049
 11
-11.4142606106
 21
41.6188964642
  0
LINE
  5
2FB
100
AcDbEntity
  8
0
100
AcDbLine
 62
7
  6
CONTINUOUS
 10
-6.2652374731
 20
40.9621772674
 11
-6.2449309729
 21
40.8666140313
  0
LINE
  5
2FC
100
AcDbEntity
  8
0
100
AcDbLine
 62
7
  6
CONTINUOUS
 10
-6.3546685938
 20
41.4621772674
 11
-6.2652374731
 21
40.9621772674
  0
LINE
  5
2FD
100
AcDbEntity
  8
0
100
AcDbLine
 62
7
  6
CONTINUOUS
 10
-6.2449309729
 20
40.8666140313
 11
-6.2418032788
 21
40.8494142196
  0
LWPOLYLINE
  5
2FE
100
AcDbEntity
  8
0
100
AcDbPolyline
 62
7
  6
CONTINUOUS
 90
13
 70
0
 10
-2.7329592669
 20
22.5901516531
 10
-2.7102153578
 20
22.46049759
 10
-2.6739771148
 20
22.3342689613
 10
-2.6242445378
 20
22.211465767
 10
-2.5610053573
 20
22.0910794503
 10
-2.4842718429
 20
21.974118568
 10
-2.3940808032
 20
21.8636087907
 10
-2.2898864348
 20
21.7592271081
 10
-2.172234541
 20
21.6612965305
 10
-2.0427993413
 20
21.5738117597
 10
-1.9021389086
 20
21.4981043632
 10
-1.7496951698
 20
21.4328427736
 10
-1.5854681251
 20
21.3780269909
  0
LINE
  5
2FF
100
AcDbEntity
  8
RACCORDO
100
AcDbLine
 62
7
  6
CONTINUOUS
 10
3.9765175943
 20
42.1439633359
 11
3.9477632052
 21
42.4411047905
  0
LWPOLYLINE
  5
300
100
AcDbEntity
  8
0
100
AcDbPolyline
 62
7
  6
CONTINUOUS
 90
13
 70
0
 10
7.8404537331
 20
23.114629628
 10
7.8405984763
 20
23.0004144758
 10
7.8554087033
 20
22.8889031653
 10
7.8848844143
 20
22.7800956966
 10
7.9290914052
 20
22.6726099794
 10
7.9879638799
 20
22.5678281039
 10
8.0613044511
 20
22.4698963412
 10
8.1498930264
 20
22.3784949163
 10
8.2529496981
 20
22.2939436042
 10
8.367937356
 20
22.2213480016
 10
8.4940102965
 20
22.1624099739
 10
8.6320142232
 20
22.1154276556
 10
8.7819491361
 20
22.0804010468
  0
LINE
  5
301
100
AcDbEntity
  8
0
100
AcDbLine
 62
7
  6
CONTINUOUS
 10
11.0601957331
 20
-30.681478773
 11
11.0601957331
 21
-38.4760590133
  0
LINE
  5
302
100
AcDbEntity
  8
0
100
AcDbLine
 62
7
  6
CONTINUOUS
 10
12.8354677331
 20
-34.0202344692
 11
12.8354467331
 21
-32.12346996
  0
LINE
  5
303
100
AcDbEntity
  8
0
100
AcDbLine
 62
7
  6
CONTINUOUS
 10
12.8602867331
 20
-38.4760590133
 11
12.8604877331
 21
-35.4622256563
  0
LINE
  5
304
100
AcDbEntity
  8
0
100
AcDbLine
 62
7
  6
CONTINUOUS
 10
-1.6406952669
 20
-30.6814986915
 11
-3.3214212669
 21
-35.7576070029
  0
LINE
  5
305
100
AcDbEntity
  8
0
100
AcDbLine
 62
7
  6
CONTINUOUS
 10
-2.4214212669
 20
-38.4760590133
 11
-0.7195672669
 21
-33.3360769983
  0
LINE
  5
306
100
AcDbEntity
  8
DRAFT
100
AcDbLine
 62
253
  6
CONTINUOUS
 10
-48.8819444822
 20
16.2307272601
 11
-48.4200642669
 21
16.2307272601
  0
LINE
  5
307
100
AcDbEntity
  8
SMUSSO
100
AcDbLine
 62
253
  6
CONTINUOUS
 10
-47.9200642669
 20
16.2307272601
 11
-47.2272439438
 21
16.2307272601
  0
LINE
  5
308
100
AcDbEntity
  8
DRAFT
100
AcDbLine
 62
253
  6
CONTINUOUS
 10
47.0418159485
 20
16.2307272601
 11
46.5799357331
 21
16.2307272601
  0
LINE
  5
309
100
AcDbEntity
  8
SMUSSO
100
AcDbLine
 62
253
  6
CONTINUOUS
 10
46.0799357331
 20
16.2307272601
 11
45.3871154101
 21
16.2307272601
  0
LINE
  5
30A
100
AcDbEntity
  8
DRAFT
100
AcDbLine
 62
253
  6
CONTINUOUS
 10
31.1180555178
 20
16.2307272601
 11
31.5799357331
 21
16.2307272601
  0
LINE
  5
30B
100
AcDbEntity
  8
SMUSSO
100
AcDbLine
 62
253
  6
CONTINUOUS
 10
32.0799357331
 20
16.2307272601
 11
32.7727560562
 21
16.2307272601
  0
LINE
  5
30C
100
AcDbEntity
  8
DRAFT
100
AcDbLine
 62
253
  6
CONTINUOUS
 10
-32.9581840515
 20
16.2307272601
 11
-33.4200642669
 21
16.2307272601
  0
LINE
  5
30D
100
AcDbEntity
  8
SMUSSO
100
AcDbLine
 62
253
  6
CONTINUOUS
 10
-33.9200642669
 20
16.2307272601
 11
-34.6128845899
 21
16.2307272601
  0
LINE
  5
30E
100
AcDbEntity
  8
0
100
AcDbLine
 62
7
  6
CONTINUOUS
 10
-6.1462344231
 20
41.2233593611
 11
-6.2884944064
 21
41.4699494957
  0
LINE
  5
30F
100
AcDbEntity
  8
0
100
AcDbLine
 62
7
  6
CONTINUOUS
 10
-6.1053566177
 20
41.1260953143
 11
-6.1462344231
 21
41.2233593611
  0
LINE
  5
310
100
AcDbEntity
  8
RACCORDO
100
AcDbLine
 62
7
  6
CONTINUOUS
 10
4.1295775335
 20
41.4641386628
 11
4.0384394671
 21
41.7990441882
  0
LINE
  5
311
100
AcDbEntity
  8
RACCORDO
100
AcDbLine
 62
7
  6
CONTINUOUS
 10
4.0857393894
 20
41.6188964642
 11
4.0126877253
 21
41.9266376829
  0
LINE
  5
312
100
AcDbEntity
  8
RACCORDO
100
AcDbLine
 62
7
  6
CONTINUOUS
 10
4.0384394671
 20
41.7990441882
 11
3.9765175943
 21
42.1439633359
  0
LWPOLYLINE
  5
313
100
AcDbEntity
  8
RACCORDO
100
AcDbPolyline
 62
7
  6
CONTINUOUS
 90
3
 70
0
 10
4.0126877253
 20
41.9266376829
 10
3.9645077309
 20
42.2436324665
 10
3.947388961
 20
42.4473257861
  0
LINE
  5
314
100
AcDbEntity
  8
0
100
AcDbLine
 62
7
  6
CONTINUOUS
 10
5.1702587331
 20
-30.681478773
 11
2.2805607331
 21
-38.4760780659
  0
LINE
  5
315
100
AcDbEntity
  8
0
100
AcDbLine
 62
7
  6
CONTINUOUS
 10
5.1979787331
 20
-35.4622455748
 11
6.0703267331
 21
-33.1090891419
  0
LINE
  5
316
100
AcDbEntity
  8
0
100
AcDbLine
 62
7
  6
CONTINUOUS
 10
4.0806277331
 20
-38.4760590133
 11
4.6489107331
 21
-36.943206173
  0
LINE
  5
317
100
AcDbEntity
  8
0
100
AcDbLine
 62
7
  6
CONTINUOUS
 10
-15.2143582669
 20
21.3780269909
 11
-12.5233482669
 21
21.3780269909
  0
LINE
  5
318
100
AcDbEntity
  8
0
100
AcDbLine
 62
7
  6
CONTINUOUS
 10
-9.394718187
 20
21.3780269909
 11
-4.4679002669
 21
21.3780269909
  0
LINE
  5
319
100
AcDbEntity
  8
0
100
AcDbLine
 62
7
  6
CONTINUOUS
 10
-1.5854681251
 20
21.3780269909
 11
2.6060797331
 21
21.3780269909
  0
LINE
  5
31A
100
AcDbEntity
  8
0
100
AcDbLine
 62
7
  6
CONTINUOUS
 10
6.4246495927
 20
21.3780269909
 11
11.3419797331
 21
21.3780269909
  0
LINE
  5
31B
100
AcDbEntity
  8
0
100
AcDbLine
 62
7
  6
CONTINUOUS
 10
-6.2884944064
 20
41.4699494957
 11
-6.4011696531
 21
41.6176422179
  0
LINE
  5
31C
100
AcDbEntity
  8
RACCORDO
100
AcDbLine
 62
7
  6
CONTINUOUS
 10
4.1825135621
 20
41.3225842049
 11
4.0857393894
 21
41.6188964642
  0
LINE
  5
31D
100
AcDbEntity
  8
0
100
AcDbLine
 62
7
  6
CONTINUOUS
 10
9.2347625269
 20
40.9621772674
 11
9.2550690271
 21
40.8666140313
  0
LINE
  5
31E
100
AcDbEntity
  8
0
100
AcDbLine
 62
7
  6
CONTINUOUS
 10
9.1453314062
 20
41.4621772674
 11
9.2347625269
 21
40.9621772674
  0
LINE
  5
31F
100
AcDbEntity
  8
0
100
AcDbLine
 62
7
  6
CONTINUOUS
 10
9.2550690271
 20
40.8666140313
 11
9.2581967212
 21
40.8494142196
  0
LWPOLYLINE
  5
320
100
AcDbEntity
  8
0
100
AcDbPolyline
 62
7
  6
CONTINUOUS
 90
13
 70
0
 10
13.1423387331
 20
27.3829492799
 10
13.1222812081
 20
27.5179947293
 10
13.0885058867
 20
27.6498598512
 10
13.0410127688
 20
27.7785446456
 10
12.9798173294
 20
27.9050184147
 10
12.9049040935
 20
28.0283118562
 10
12.8162266367
 20
28.1455170633
 10
12.7133201447
 20
28.2569565087
 10
12.5966494318
 20
28.3623077196
 10
12.4675625174
 20
28.4576953708
 10
12.3265087411
 20
28.5418276873
 10
12.1730387633
 20
28.6159964441
 10
12.0071525839
 20
28.6802016412
  0
LWPOLYLINE
  5
321
100
AcDbEntity
  8
0
100
AcDbPolyline
 62
7
  6
CONTINUOUS
 90
13
 70
0
 10
0.3845688171
 20
28.6802016412
 10
0.2186336363
 20
28.6573881288
 10
0.0583282198
 20
28.6297077503
 10
-0.0963474326
 20
28.5971605055
 10
-0.246534859
 20
28.5605477073
 10
-0.3910925213
 20
28.5190680429
 10
-0.5265958043
 20
28.4703175742
 10
-0.6532325414
 20
28.4137187229
 10
-0.7708148994
 20
28.3498490672
 10
-0.8753547634
 20
28.2780374043
 10
-0.9655227618
 20
28.1980599996
 10
-1.0426482663
 20
28.1101405875
 10
-1.1067312768
 20
28.0142791681
  0
LWPOLYLINE
  5
322
100
AcDbEntity
  8
0
100
AcDbPolyline
 62
7
  6
CONTINUOUS
 90
16
 70
0
 10
-6.9968486422
 20
28.6802016412
 10
-7.1848765908
 20
28.677995947
 10
-7.367811284
 20
28.6710735809
 10
-7.5456527217
 20
28.6594345428
 10
-7.7191030485
 20
28.6445195836
 10
-7.88746012
 20
28.6248879525
 10
-8.0486175022
 20
28.5962173967
 10
-8.2029634584
 20
28.5574133954
 10
-8.3501097254
 20
28.5095704695
 10
-8.4867850798
 20
28.4516499296
 10
-8.6123392302
 20
28.3827529813
 10
-8.727422468
 20
28.303778419
 10
-8.8307144439
 20
28.2163839357
 10
-8.9217750415
 20
28.121122096
 10
-9.0010443771
 20
28.0174403354
 10
-9.0685224509
 20
27.9053386538
  0
LINE
  5
323
100
AcDbEntity
  8
RACCORDO
100
AcDbLine
 62
7
  6
CONTINUOUS
 10
93.0176677487
 20
28.1666599393
 11
93.1299357331
 21
28.1666599393
  0
LINE
  5
324
100
AcDbEntity
  8
0
100
AcDbLine
 62
7
  6
CONTINUOUS
 10
12.0071525839
 20
28.6802016412
 11
8.1057216966
 21
28.6802016412
  0
LINE
  5
325
100
AcDbEntity
  8
0
100
AcDbLine
 62
7
  6
CONTINUOUS
 10
3.6987968364
 20
28.6802016412
 11
0.3845688171
 21
28.6802016412
  0
LINE
  5
326
100
AcDbEntity
  8
0
100
AcDbLine
 62
7
  6
CONTINUOUS
 10
-4.8631122669
 20
28.6802016412
 11
-6.9968486422
 21
28.6802016412
  0
LINE
  5
327
100
AcDbEntity
  8
0
100
AcDbLine
 62
7
  6
CONTINUOUS
 10
95.0299357331
 20
29.4967869582
 11
95.0799357331
 21
29.4967869582
  0
LINE
  5
328
100
AcDbEntity
  8
DRAFT
100
AcDbLine
 62
7
  6
CONTINUOUS
 10
93.0426338094
 20
31.1278800043
 11
92.7975370782
 21
31.1278800043
  0
LINE
  5
329
100
AcDbEntity
  8
DRAFT
100
AcDbLine
 62
7
  6
CONTINUOUS
 10
-94.6376656119
 20
31.1278800043
 11
-94.7827623431
 21
31.1278800043
  0
LINE
  5
32A
100
AcDbEntity
  8
DRAFT
100
AcDbLine
 62
253
  6
CONTINUOUS
 10
47.0418159485
 20
31.2307276504
 11
46.5799357331
 21
31.2307272601
  0
LINE
  5
32B
100
AcDbEntity
  8
DRAFT
100
AcDbLine
 62
253
  6
CONTINUOUS
 10
-48.8819444822
 20
31.2307272601
 11
-48.4200642669
 21
31.2307272601
  0
LINE
  5
32C
100
AcDbEntity
  8
SMUSSO
100
AcDbLine
 62
253
  6
CONTINUOUS
 10
-47.9200642669
 20
31.2307272601
 11
-47.2272439438
 21
31.2307272601
  0
LINE
  5
32D
100
AcDbEntity
  8
SMUSSO
100
AcDbLine
 62
253
  6
CONTINUOUS
 10
46.0799357331
 20
31.2307272601
 11
45.3871154101
 21
31.2307272601
  0
LINE
  5
32E
100
AcDbEntity
  8
DRAFT
100
AcDbLine
 62
253
  6
CONTINUOUS
 10
31.1180555178
 20
31.2307272601
 11
31.5799357331
 21
31.2307272601
  0
LINE
  5
32F
100
AcDbEntity
  8
SMUSSO
100
AcDbLine
 62
253
  6
CONTINUOUS
 10
32.0799357331
 20
31.2307272601
 11
32.7727560562
 21
31.2307272601
  0
LINE
  5
330
100
AcDbEntity
  8
DRAFT
100
AcDbLine
 62
253
  6
CONTINUOUS
 10
-32.9581840515
 20
31.2307272601
 11
-33.4200642669
 21
31.2307272601
  0
LINE
  5
331
100
AcDbEntity
  8
SMUSSO
100
AcDbLine
 62
253
  6
CONTINUOUS
 10
-33.9200642669
 20
31.2307272601
 11
-34.6128845899
 21
31.2307272601
  0
LWPOLYLINE
  5
332
100
AcDbEntity
  8
0
100
AcDbPolyline
 62
7
  6
CONTINUOUS
 90
13
 70
0
 10
2.7117057331
 20
27.8934270881
 10
2.5706723492
 20
27.9210420862
 10
2.4304658034
 20
27.9348450132
 10
2.2910860956
 20
27.9348358691
 10
2.1503056593
 20
27.9203756599
 10
2.010352061
 20
27.8921033796
 10
1.8779080009
 20
27.8519360099
 10
1.7539770052
 20
27.7991178013
 10
1.6375555477
 20
27.7344045032
 10
1.5323157489
 20
27.6619803463
 10
1.4394816493
 20
27.5832400739
 10
1.3578292085
 20
27.4967889426
 10
1.2873584265
 20
27.4026269524
  0
LWPOLYLINE
  5
333
100
AcDbEntity
  8
0
100
AcDbPolyline
 62
7
  6
CONTINUOUS
 90
13
 70
0
 10
-5.1413792669
 20
27.9143615202
 10
-5.2758359035
 20
27.9509670525
 10
-5.4112257951
 20
27.9745731635
 10
-5.5475489415
 20
27.9851798532
 10
-5.6868955956
 20
27.9824880621
 10
-5.8271755046
 20
27.9667968498
 10
-5.9621179102
 20
27.9390033944
 10
-6.0910706602
 20
27.8982664073
 10
-6.2146859067
 20
27.8454271771
 10
-6.3286493479
 20
27.7839067481
 10
-6.4315228831
 20
27.7148454681
 10
-6.524744613
 20
27.6371029893
 10
-6.6083145375
 20
27.5506793115
  0
LINE
  5
334
100
AcDbEntity
  8
0
100
AcDbLine
 62
7
  6
CONTINUOUS
 10
9.3537655769
 20
41.2233593611
 11
9.2115055936
 21
41.4699494957
  0
LINE
  5
335
100
AcDbEntity
  8
0
100
AcDbLine
 62
7
  6
CONTINUOUS
 10
9.3946433823
 20
41.1260953143
 11
9.3537655769
 21
41.2233593611
  0
LINE
  5
336
100
AcDbEntity
  8
DRAFT
100
AcDbLine
 62
7
  6
CONTINUOUS
 10
31.1180555178
 20
31.2307272601
 11
31.1180555178
 21
16.2307272601
  0
LINE
  5
337
100
AcDbEntity
  8
DRAFT
100
AcDbLine
 62
7
  6
CONTINUOUS
 10
31.5799357331
 20
31.2307272601
 11
31.5799357331
 21
16.2307272601
  0
LINE
  5
338
100
AcDbEntity
  8
SMUSSO
100
AcDbLine
 62
7
  6
CONTINUOUS
 10
32.0799357331
 20
16.2307272601
 11
32.0799357331
 21
31.2307272601
  0
LINE
  5
339
100
AcDbEntity
  8
SMUSSO
100
AcDbLine
 62
7
  6
CONTINUOUS
 10
32.7727560562
 20
16.2307272601
 11
32.7727560562
 21
31.2307272601
  0
LWPOLYLINE
  5
33A
100
AcDbEntity
  8
RACCORDO
100
AcDbPolyline
 62
7
  6
CONTINUOUS
 90
10
 70
0
 10
95.3299357331
 20
32.7132933091
 10
95.2922051615
 20
32.6809632982
 10
95.255960427
 20
32.6452272374
 10
95.2212015295
 20
32.6066843484
 10
95.1865919872
 20
32.5666772421
 10
95.1534682819
 20
32.5257384189
 10
95.1258398593
 20
32.483729868
 10
95.1050432012
 20
32.4421271002
 10
95.0897418259
 20
32.4038624326
 10
95.0799357331
 20
32.3717869582
  0
LWPOLYLINE
  5
33B
100
AcDbEntity
  8
RACCORDO
100
AcDbPolyline
 62
7
  6
CONTINUOUS
 90
3
 70
0
 10
7.3310571332
 20
39.309051992
 10
7.0802949579
 20
39.269965906
 10
6.8299357331
 20
39.2571612076
  0
LWPOLYLINE
  5
33C
100
AcDbEntity
  8
RACCORDO
100
AcDbPolyline
 62
7
  6
CONTINUOUS
 90
3
 70
0
 10
7.2665186894
 20
39.3319769388
 10
7.0121070158
 20
39.2997982058
 10
6.8299362792
 20
39.2931619461
  0
LINE
  5
33D
100
AcDbEntity
  8
RACCORDO
100
AcDbLine
 62
253
  6
CONTINUOUS
 10
7.109780068
 20
39.0063533342
 11
6.8299357331
 21
38.9930170076
  0
LINE
  5
33E
100
AcDbEntity
  8
RACCORDO
100
AcDbLine
 62
253
  6
CONTINUOUS
 10
-8.390219932
 20
39.0063533342
 11
-8.6700642669
 21
38.9930170076
  0
LINE
  5
33F
100
AcDbEntity
  8
RACCORDO
100
AcDbLine
 62
253
  6
CONTINUOUS
 10
-96.9200642669
 20
32.3717869582
 11
-96.8700642669
 21
32.3717869582
  0
LINE
  5
340
100
AcDbEntity
  8
RACCORDO
100
AcDbLine
 62
253
  6
CONTINUOUS
 10
-94.8700642669
 20
32.3717869582
 11
-94.5451962696
 21
32.3717869582
  0
LINE
  5
341
100
AcDbEntity
  8
RACCORDO
100
AcDbLine
 62
253
  6
CONTINUOUS
 10
92.7050677359
 20
32.3717869582
 11
93.1299357331
 21
32.3717869582
  0
LINE
  5
342
100
AcDbEntity
  8
RACCORDO
100
AcDbLine
 62
253
  6
CONTINUOUS
 10
94.9746098801
 20
32.3717869582
 11
95.0799357331
 21
32.3717869582
  0
LINE
  5
343
100
AcDbEntity
  8
RACCORDO
100
AcDbLine
 62
7
  6
CONTINUOUS
 10
-96.6200642669
 20
32.453485688
 11
-94.8700642669
 21
32.453485688
  0
LINE
  5
344
100
AcDbEntity
  8
RACCORDO
100
AcDbLine
 62
7
  6
CONTINUOUS
 10
93.1299357331
 20
32.453485688
 11
94.7799357331
 21
32.453485688
  0
LINE
  5
345
100
AcDbEntity
  8
RACCORDO
100
AcDbLine
 62
253
  6
CONTINUOUS
 10
-97.1700642669
 20
32.7132933091
 11
-94.519809429
 21
32.7132933091
  0
LINE
  5
346
100
AcDbEntity
  8
RACCORDO
100
AcDbLine
 62
253
  6
CONTINUOUS
 10
92.6796808953
 20
32.7132933091
 11
95.3299357331
 21
32.7132933091
  0
LINE
  5
347
100
AcDbEntity
  8
RACCORDO
100
AcDbLine
 62
7
  6
CONTINUOUS
 10
-98.2000395958
 20
34.4707759538
 11
-94.3891619849
 21
34.4707759538
  0
LINE
  5
348
100
AcDbEntity
  8
RACCORDO
100
AcDbLine
 62
7
  6
CONTINUOUS
 10
92.5490334511
 20
34.4707759538
 11
96.3599110621
 21
34.4707759538
  0
LINE
  5
349
100
AcDbEntity
  8
RACCORDO
100
AcDbLine
 62
7
  6
CONTINUOUS
 10
-8.6700637211
 20
39.2931848312
 11
-8.8270211403
 21
39.2981623101
  0
LINE
  5
34A
100
AcDbEntity
  8
RACCORDO
100
AcDbLine
 62
7
  6
CONTINUOUS
 10
6.8299362789
 20
39.2931848312
 11
6.6729788597
 21
39.2981623101
  0
LWPOLYLINE
  5
34B
100
AcDbEntity
  8
RACCORDO
100
AcDbPolyline
 62
253
  6
CONTINUOUS
 90
3
 70
0
 10
-8.6700642669
 20
38.9930170076
 10
-8.947074407
 20
39.0058611667
 10
-9.2207716968
 20
39.0472663707
  0
LWPOLYLINE
  5
34C
100
AcDbEntity
  8
RACCORDO
100
AcDbPolyline
 62
253
  6
CONTINUOUS
 90
3
 70
0
 10
6.8299357331
 20
38.9930170076
 10
6.552925593
 20
39.0058611667
 10
6.2792283032
 20
39.0472663707
  0
LWPOLYLINE
  5
34D
100
AcDbEntity
  8
RACCORDO
100
AcDbPolyline
 62
7
  6
CONTINUOUS
 90
3
 70
0
 10
-8.6700642669
 20
39.2571612076
 10
-8.9185488439
 20
39.2697428537
 10
-9.1676754989
 20
39.3082954901
  0
LWPOLYLINE
  5
34E
100
AcDbEntity
  8
RACCORDO
100
AcDbPolyline
 62
7
  6
CONTINUOUS
 90
3
 70
0
 10
6.8299357331
 20
39.2571612076
 10
6.5814511561
 20
39.2697428537
 10
6.3323245011
 20
39.3082954901
  0
LINE
  5
34F
100
AcDbEntity
  8
RACCORDO
100
AcDbLine
 62
7
  6
CONTINUOUS
 10
-8.8270211403
 20
39.2981623101
 11
-9.0834412129
 21
39.3279011795
  0
LWPOLYLINE
  5
350
100
AcDbEntity
  8
RACCORDO
100
AcDbPolyline
 62
7
  6
CONTINUOUS
 90
12
 70
0
 10
-9.0834412129
 20
39.3279011795
 10
-9.339558258
 20
39.3853533286
 10
-9.5926466992
 20
39.4705752875
 10
-9.8396541835
 20
39.5832053736
 10
-10.0778260489
 20
39.7226649383
 10
-10.3049080602
 20
39.8878131314
 10
-10.5183481256
 20
40.0770255754
 10
-10.7158529049
 20
40.2885301771
 10
-10.8959654981
 20
40.5207064811
 10
-11.057248105
 20
40.7717856827
 10
-11.1981446959
 20
41.0396797211
 10
-11.3174864379
 20
41.3225842049
  0
LWPOLYLINE
  5
351
100
AcDbEntity
  8
RACCORDO
100
AcDbPolyline
 62
253
  6
CONTINUOUS
 90
14
 70
0
 10
-9.2207716968
 20
39.0472663707
 10
-9.4911561363
 20
39.1172326195
 10
-9.7604944303
 20
39.2156422938
 10
-10.0265198739
 20
39.3426130129
 10
-10.2824323534
 20
39.4984976347
 10
-10.5285516866
 20
39.6839232448
 10
-10.7645580557
 20
39.8982627576
 10
-10.9826918936
 20
40.1399877745
 10
-11.1833448228
 20
40.410830207
 10
-11.3661252207
 20
40.7090581436
 10
-11.5220986522
 20
41.0279474516
 10
-11.6503713535
 20
41.3695473933
 10
-11.7518370883
 20
41.7318087063
 10
-11.8202427127
 20
42.1018594703
  0
LWPOLYLINE
  5
352
100
AcDbEntity
  8
RACCORDO
100
AcDbPolyline
 62
253
  6
CONTINUOUS
 90
14
 70
0
 10
6.2792283032
 20
39.0472663707
 10
6.0088438637
 20
39.1172326195
 10
5.7395055697
 20
39.2156422938
 10
5.4734801261
 20
39.3426130129
 10
5.2175676466
 20
39.4984976347
 10
4.9714483134
 20
39.6839232448
 10
4.7354419443
 20
39.8982627576
 10
4.5173081064
 20
40.1399877745
 10
4.3166551772
 20
40.410830207
 10
4.1338747793
 20
40.7090581436
 10
3.9779013478
 20
41.0279474516
 10
3.8496286465
 20
41.3695473933
 10
3.7481629117
 20
41.7318087063
 10
3.6797572873
 20
42.1018594703
  0
LWPOLYLINE
  5
353
100
AcDbEntity
  8
RACCORDO
100
AcDbPolyline
 62
7
  6
CONTINUOUS
 90
12
 70
0
 10
-9.1676754989
 20
39.3082954901
 10
-9.4155131583
 20
39.3731851335
 10
-9.6597294703
 20
39.4645023603
 10
-9.8985620986
 20
39.582387656
 10
-10.1307195796
 20
39.727262066
 10
-10.3539216961
 20
39.8992260222
 10
-10.5656863316
 20
40.0978050642
 10
-10.7640713319
 20
40.3226066875
 10
-10.9467909631
 20
40.5738112349
 10
-11.1107047533
 20
40.8497374556
 10
-11.2526350335
 20
41.1467658507
 10
-11.3704224665
 20
41.4641386628
  0
LINE
  5
354
100
AcDbEntity
  8
0
100
AcDbLine
 62
7
  6
CONTINUOUS
 10
9.2115055936
 20
41.4699494957
 11
9.0988303469
 21
41.6176422179
  0
LINE
  5
355
100
AcDbEntity
  8
SMUSSO
100
AcDbLine
 62
7
  6
CONTINUOUS
 10
45.3871154101
 20
31.2307272601
 11
45.3871154101
 21
16.2307272601
  0
LWPOLYLINE
  5
356
100
AcDbEntity
  8
0
100
AcDbPolyline
 62
7
  6
CONTINUOUS
 90
28
 70
0
 10
16.3468603514
 20
-35.2747679415
 10
16.6206750456
 20
-35.1557689805
 10
16.8711417101
 20
-35.0197534002
 10
17.0982603448
 20
-34.8667212006
 10
17.3024933331
 20
-34.6951075138
 10
17.4833782917
 20
-34.5064772077
 10
17.6395280703
 20
-34.305524886
 10
17.7713279267
 20
-34.0904406789
 10
17.8783926032
 20
-33.8630344563
 10
17.9581791771
 20
-33.6334304314
 10
18.0092642943
 20
-33.4036061533
 10
18.0330713089
 20
-33.1715840729
 10
18.0313273605
 20
-32.9415557569
 10
18.0041043073
 20
-32.7131785101
 10
17.951330291
 20
-32.4867950276
 10
17.8745168768
 20
-32.2676249621
 10
17.773953361
 20
-32.0560713998
 10
17.6493504472
 20
-31.8517312545
 10
17.5013518121
 20
-31.6586149192
 10
17.3286587905
 20
-31.4756447831
 10
17.1325700476
 20
-31.3038984571
 10
16.9176252546
 20
-31.1506191664
 10
16.6840664171
 20
-31.0164346098
 10
16.4316515296
 20
-30.9007170886
 10
16.1641942474
 20
-30.8088267314
 10
15.8829657889
 20
-30.7425502479
 10
15.5866949357
 20
-30.7001009284
 10
15.2753816878
 20
-30.681478773
  0
LWPOLYLINE
  5
357
100
AcDbEntity
  8
RACCORDO
100
AcDbPolyline
 62
7
  6
CONTINUOUS
 90
3
 70
0
 10
-8.1689428668
 20
39.309051992
 10
-8.4197050421
 20
39.269965906
 10
-8.6700642669
 20
39.2571612076
  0
LWPOLYLINE
  5
358
100
AcDbEntity
  8
RACCORDO
100
AcDbPolyline
 62
253
  6
CONTINUOUS
 90
3
 70
0
 10
6.276343605
 20
46.3040690106
 10
6.5512157133
 20
46.34585324
 10
6.8299357331
 20
46.3591583912
  0
LWPOLYLINE
  5
359
100
AcDbEntity
  8
RACCORDO
100
AcDbPolyline
 62
253
  6
CONTINUOUS
 90
3
 70
0
 10
-9.223656395
 20
46.3040690106
 10
-8.9487842867
 20
46.34585324
 10
-8.6700642669
 20
46.3591583912
  0
LWPOLYLINE
  5
35A
100
AcDbEntity
  8
RACCORDO
100
AcDbPolyline
 62
7
  6
CONTINUOUS
 90
3
 70
0
 10
-8.2334813106
 20
39.3319769388
 10
-8.4878929842
 20
39.2997982058
 10
-8.6700637208
 20
39.2931619461
  0
LINE
  5
35B
100
AcDbEntity
  8
RACCORDO
100
AcDbLine
 62
253
  6
CONTINUOUS
 10
89.8287104059
 20
47.3886147381
 11
90.828101233
 21
47.4060644865
  0
LWPOLYLINE
  5
35C
100
AcDbEntity
  8
0
100
AcDbPolyline
 62
7
  6
CONTINUOUS
 90
43
 70
0
 10
6.8299357331
 20
43.0805769672
 10
6.7532186838
 20
43.0794951982
 10
6.6767414176
 20
43.0762801579
 10
6.6005039344
 20
43.0709318464
 10
6.524427099
 20
43.0634402165
 10
6.4485900467
 20
43.0538153154
 10
6.3732301831
 20
43.0420872844
 10
6.2983489815
 20
43.0282495295
 10
6.2239449686
 20
43.0123086446
 10
6.1502511304
 20
42.9943145528
 10
6.0772696991
 20
42.974260819
 10
6.0049984426
 20
42.9521538783
 10
5.9336636501
 20
42.9280629585
 10
5.8632682573
 20
42.9019818411
 10
5.7938093286
 20
42.8739167447
 10
5.7255043461
 20
42.8439555522
 10
5.6583569272
 20
42.8120923208
 10
5.5923634546
 20
42.7783329933
 10
5.5277305584
 20
42.7427832816
 10
5.4644625037
 20
42.705437574
 10
5.4025550254
 20
42.6663014821
 10
5.3422019589
 20
42.6254975522
 10
5.2834081766
 20
42.5830205569
 10
5.2261688062
 20
42.5388757236
 10
5.1706630657
 20
42.4932012806
 10
5.116896389
 20
42.4459924338
 10
5.0648633422
 20
42.3972539774
 10
5.0147268408
 20
42.3471385219
 10
4.9664928295
 20
42.2956417516
 10
4.9201553636
 20
42.2427679822
 10
4.8758595245
 20
42.1886827715
 10
4.8336117117
 20
42.1333823227
 10
4.7934055257
 20
42.0768704326
 10
4.7553668498
 20
42.0193240492
 10
4.7195024778
 20
41.9607399303
 10
4.6858056159
 20
41.9011213182
 10
4.6543817655
 20
41.8406548873
 10
4.6252380513
 20
41.7793379807
 10
4.5983673485
 20
41.7171732552
 10
4.5738537853
 20
41.6543553566
 10
4.5517254041
 20
41.5909491667
 10
4.5319541624
 20
41.5268898036
 10
4.5145400601
 20
41.4621772674
  0
LWPOLYLINE
  5
35D
100
AcDbEntity
  8
0
100
AcDbPolyline
 62
7
  6
CONTINUOUS
 90
43
 70
0
 10
-8.6700642669
 20
43.0805769672
 10
-8.7467813162
 20
43.0794951982
 10
-8.8232585824
 20
43.0762801579
 10
-8.8994960656
 20
43.0709318464
 10
-8.975572901
 20
43.0634402165
 10
-9.0514099533
 20
43.0538153154
 10
-9.1267698169
 20
43.0420872844
 10
-9.2016510185
 20
43.0282495295
 10
-9.2760550314
 20
43.0123086446
 10
-9.3497488696
 20
42.9943145528
 10
-9.4227303009
 20
42.974260819
 10
-9.4950015574
 20
42.9521538783
 10
-9.5663363499
 20
42.9280629585
 10
-9.6367317427
 20
42.9019818411
 10
-9.7061906714
 20
42.8739167447
 10
-9.7744956539
 20
42.8439555522
 10
-9.8416430728
 20
42.8120923208
 10
-9.9076365454
 20
42.7783329933
 10
-9.9722694416
 20
42.7427832816
 10
-10.0355374963
 20
42.705437574
 10
-10.0974449746
 20
42.6663014821
 10
-10.1577980411
 20
42.6254975522
 10
-10.2165918234
 20
42.5830205569
 10
-10.2738311938
 20
42.5388757236
 10
-10.3293369343
 20
42.4932012806
 10
-10.383103611
 20
42.4459924338
 10
-10.4351366578
 20
42.3972539774
 10
-10.4852731592
 20
42.3471385219
 10
-10.5335071705
 20
42.2956417516
 10
-10.5798446364
 20
42.2427679822
 10
-10.6241404755
 20
42.1886827715
 10
-10.6663882883
 20
42.1333823227
 10
-10.7065944743
 20
42.0768704326
 10
-10.7446331502
 20
42.0193240492
 10
-10.7804975222
 20
41.9607399303
 10
-10.8141943841
 20
41.9011213182
 10
-10.8456182345
 20
41.8406548873
 10
-10.8747619487
 20
41.7793379807
 10
-10.9016326515
 20
41.7171732552
 10
-10.9261462147
 20
41.6543553566
 10
-10.9482745959
 20
41.5909491667
 10
-10.9680458376
 20
41.5268898036
 10
-10.9854599399
 20
41.4621772674
  0
LINE
  5
35E
100
AcDbEntity
  8
0
100
AcDbLine
 62
7
  6
CONTINUOUS
 10
9.1046019473
 20
40.5961518636
 11
4.555571595
 21
40.5961518636
  0
LINE
  5
35F
100
AcDbEntity
  8
0
100
AcDbLine
 62
7
  6
CONTINUOUS
 10
-6.3953980527
 20
40.5961518636
 11
-10.944428405
 21
40.5961518636
  0
LINE
  5
360
100
AcDbEntity
  8
0
100
AcDbLine
 62
7
  6
CONTINUOUS
 10
9.2347625269
 20
40.9621772674
 11
4.4251089394
 21
40.9621772674
  0
LINE
  5
361
100
AcDbEntity
  8
0
100
AcDbLine
 62
7
  6
CONTINUOUS
 10
-6.2652374731
 20
40.9621772674
 11
-11.0748910606
 21
40.9621772674
  0
LINE
  5
362
100
AcDbEntity
  8
0
100
AcDbLine
 62
7
  6
CONTINUOUS
 10
9.1453314062
 20
41.4621772674
 11
4.5145400601
 21
41.4621772674
  0
LINE
  5
363
100
AcDbEntity
  8
0
100
AcDbLine
 62
7
  6
CONTINUOUS
 10
-6.3546685938
 20
41.4621772674
 11
-10.9854599399
 21
41.4621772674
  0
LWPOLYLINE
  5
364
100
AcDbEntity
  8
0
100
AcDbPolyline
 62
7
  6
CONTINUOUS
 90
43
 70
0
 10
-8.6700642669
 20
43.0805769672
 10
-8.5933472175
 20
43.0794951982
 10
-8.5168699513
 20
43.0762801579
 10
-8.4406324681
 20
43.0709318464
 10
-8.3645556327
 20
43.0634402165
 10
-8.2887185804
 20
43.0538153154
 10
-8.2133587168
 20
43.0420872844
 10
-8.1384775152
 20
43.0282495295
 10
-8.0640735023
 20
43.0123086446
 10
-7.9903796641
 20
42.9943145528
 10
-7.9173982329
 20
42.974260819
 10
-7.8451269763
 20
42.9521538783
 10
-7.7737921838
 20
42.9280629585
 10
-7.703396791
 20
42.9019818411
 10
-7.6339378623
 20
42.8739167447
 10
-7.5656328798
 20
42.8439555522
 10
-7.498485461
 20
42.8120923208
 10
-7.4324919883
 20
42.7783329933
 10
-7.3678590921
 20
42.7427832816
 10
-7.3045910374
 20
42.705437574
 10
-7.2426835591
 20
42.6663014821
 10
-7.1823304926
 20
42.6254975522
 10
-7.1235367104
 20
42.5830205569
 10
-7.0662973399
 20
42.5388757236
 10
-7.0107915994
 20
42.4932012806
 10
-6.9570249227
 20
42.4459924338
 10
-6.9049918759
 20
42.3972539774
 10
-6.8548553745
 20
42.3471385219
 10
-6.8066213632
 20
42.2956417516
 10
-6.7602838973
 20
42.2427679822
 10
-6.7159880583
 20
42.1886827715
 10
-6.6737402454
 20
42.1333823227
 10
-6.6335340594
 20
42.0768704326
 10
-6.5954953835
 20
42.0193240492
 10
-6.5596310115
 20
41.9607399303
 10
-6.5259341496
 20
41.9011213182
 10
-6.4945102992
 20
41.8406548873
 10
-6.465366585
 20
41.7793379807
 10
-6.4384958822
 20
41.7171732552
 10
-6.413982319
 20
41.6543553566
 10
-6.3918539378
 20
41.5909491667
 10
-6.3720826961
 20
41.5268898036
 10
-6.3546685938
 20
41.4621772674
  0
LWPOLYLINE
  5
365
100
AcDbEntity
  8
0
100
AcDbPolyline
 62
7
  6
CONTINUOUS
 90
43
 70
0
 10
6.8299357331
 20
43.0805769672
 10
6.9066527825
 20
43.0794951982
 10
6.9831300487
 20
43.0762801579
 10
7.0593675319
 20
43.0709318464
 10
7.1354443673
 20
43.0634402165
 10
7.2112814196
 20
43.0538153154
 10
7.2866412832
 20
43.0420872844
 10
7.3615224848
 20
43.0282495295
 10
7.4359264977
 20
43.0123086446
 10
7.5096203359
 20
42.9943145528
 10
7.5826017671
 20
42.974260819
 10
7.6548730237
 20
42.9521538783
 10
7.7262078162
 20
42.9280629585
 10
7.796603209
 20
42.9019818411
 10
7.8660621377
 20
42.8739167447
 10
7.9343671202
 20
42.8439555522
 10
8.001514539
 20
42.8120923208
 10
8.0675080117
 20
42.7783329933
 10
8.1321409079
 20
42.7427832816
 10
8.1954089626
 20
42.705437574
 10
8.2573164409
 20
42.6663014821
 10
8.3176695074
 20
42.6254975522
 10
8.3764632896
 20
42.5830205569
 10
8.4337026601
 20
42.5388757236
 10
8.4892084006
 20
42.4932012806
 10
8.5429750773
 20
42.4459924338
 10
8.5950081241
 20
42.3972539774
 10
8.6451446255
 20
42.3471385219
 10
8.6933786368
 20
42.2956417516
 10
8.7397161027
 20
42.2427679822
 10
8.7840119417
 20
42.1886827715
 10
8.8262597546
 20
42.1333823227
 10
8.8664659406
 20
42.0768704326
 10
8.9045046165
 20
42.0193240492
 10
8.9403689885
 20
41.9607399303
 10
8.9740658504
 20
41.9011213182
 10
9.0054897008
 20
41.8406548873
 10
9.034633415
 20
41.7793379807
 10
9.0615041178
 20
41.7171732552
 10
9.086017681
 20
41.6543553566
 10
9.1081460622
 20
41.5909491667
 10
9.1279173039
 20
41.5268898036
 10
9.1453314062
 20
41.4621772674
  0
LINE
  5
366
100
AcDbEntity
  8
RACCORDO
100
AcDbLine
 62
253
  6
CONTINUOUS
 10
-91.6688389397
 20
47.3886147381
 11
-92.6682297667
 21
47.4060644865
  0
LWPOLYLINE
  5
367
100
AcDbEntity
  8
RACCORDO
100
AcDbPolyline
 62
253
  6
CONTINUOUS
 90
3
 70
0
 10
-8.6700642669
 20
46.3591583912
 10
-8.4085602354
 20
46.3495914089
 10
-8.1463713496
 20
46.311622948
  0
LWPOLYLINE
  5
368
100
AcDbEntity
  8
RACCORDO
100
AcDbPolyline
 62
253
  6
CONTINUOUS
 90
3
 70
0
 10
6.8299357331
 20
46.3591583912
 10
7.0914397646
 20
46.3495914089
 10
7.3536286504
 20
46.311622948
  0
LWPOLYLINE
  5
369
100
AcDbEntity
  8
RACCORDO
100
AcDbPolyline
 62
7
  6
CONTINUOUS
 90
19
 70
0
 10
-8.6700642669
 20
46.1039161602
 10
-8.4352329723
 20
46.0932149099
 10
-8.195928728
 20
46.0580125713
 10
-7.954044954
 20
45.9972053289
 10
-7.711195432
 20
45.9097653094
 10
-7.4702816097
 20
45.7948848721
 10
-7.2353057954
 20
45.6523952775
 10
-7.0093704536
 20
45.4823700492
 10
-6.7944695577
 20
45.2850360696
 10
-6.5929799129
 20
45.0610860263
 10
-6.4075053825
 20
44.8105958373
 10
-6.2410672316
 20
44.5351659542
 10
-6.0965890541
 20
44.2382144591
 10
-5.9763899895
 20
43.9204420656
 10
-5.8831284085
 20
43.5848285989
 10
-5.8191838758
 20
43.2388663159
 10
-5.7857480229
 20
42.8847744266
 10
-5.7837439448
 20
42.5257496456
 10
-5.7875460685
 20
42.4469889843
  0
LWPOLYLINE
  5
36A
100
AcDbEntity
  8
RACCORDO
100
AcDbPolyline
 62
7
  6
CONTINUOUS
 90
19
 70
0
 10
6.8299357331
 20
46.1039161602
 10
7.0647670277
 20
46.0932149099
 10
7.304071272
 20
46.0580125713
 10
7.545955046
 20
45.9972053289
 10
7.788804568
 20
45.9097653094
 10
8.0297183903
 20
45.7948848721
 10
8.2646942046
 20
45.6523952775
 10
8.4906295464
 20
45.4823700492
 10
8.7055304423
 20
45.2850360696
 10
8.9070200871
 20
45.0610860263
 10
9.0924946175
 20
44.8105958373
 10
9.2589327684
 20
44.5351659542
 10
9.4034109459
 20
44.2382144591
 10
9.5236100105
 20
43.9204420656
 10
9.6168715915
 20
43.5848285989
 10
9.6808161242
 20
43.2388663159
 10
9.7142519771
 20
42.8847744266
 10
9.7162560552
 20
42.5257496456
 10
9.7124539315
 20
42.4469889843
  0
LINE
  5
36B
100
AcDbEntity
  8
RACCORDO
100
AcDbLine
 62
7
  6
CONTINUOUS
 10
6.6729788597
 20
39.2981623101
 11
6.4165587871
 21
39.3279011795
  0
LWPOLYLINE
  5
36C
100
AcDbEntity
  8
RACCORDO
100
AcDbPolyline
 62
7
  6
CONTINUOUS
 90
12
 70
0
 10
6.4165587871
 20
39.3279011795
 10
6.160441742
 20
39.3853533286
 10
5.9073533008
 20
39.4705752875
 10
5.6603458165
 20
39.5832053736
 10
5.4221739511
 20
39.7226649383
 10
5.1950919398
 20
39.8878131314
 10
4.9816518744
 20
40.0770255754
 10
4.7841470951
 20
40.2885301771
 10
4.6040345019
 20
40.5207064811
 10
4.442751895
 20
40.7717856827
 10
4.3018553041
 20
41.0396797211
 10
4.1825135621
 20
41.3225842049
  0
LWPOLYLINE
  5
36D
100
AcDbEntity
  8
RACCORDO
100
AcDbPolyline
 62
253
  6
CONTINUOUS
 90
17
 70
0
 10
-8.1463713496
 20
46.311622948
 10
-7.8834976096
 20
46.2452530088
 10
-7.6166209179
 20
46.1508334884
 10
-7.3490593719
 20
46.0280124896
 10
-7.0907672639
 20
45.8757343204
 10
-6.8422162953
 20
45.6930643661
 10
-6.6029347646
 20
45.4809372413
 10
-6.3814618599
 20
45.2411010985
 10
-6.1776539415
 20
44.971958329
 10
-5.9916546492
 20
44.6751065414
 10
-5.8324340901
 20
44.3570867143
 10
-5.7008229873
 20
44.0157894503
 10
-5.5959906178
 20
43.6533241468
 10
-5.5244149197
 20
43.2825599743
 10
-5.4881837305
 20
42.9025519243
 10
-5.4852092126
 20
42.5142450054
 10
-5.5157057912
 20
42.1333434137
  0
LWPOLYLINE
  5
36E
100
AcDbEntity
  8
RACCORDO
100
AcDbPolyline
 62
253
  6
CONTINUOUS
 90
17
 70
0
 10
7.3536286504
 20
46.311622948
 10
7.6165023904
 20
46.2452530088
 10
7.8833790821
 20
46.1508334884
 10
8.1509406281
 20
46.0280124896
 10
8.4092327361
 20
45.8757343204
 10
8.6577837047
 20
45.6930643661
 10
8.8970652354
 20
45.4809372413
 10
9.1185381401
 20
45.2411010985
 10
9.3223460585
 20
44.971958329
 10
9.5083453508
 20
44.6751065414
 10
9.6675659099
 20
44.3570867143
 10
9.7991770127
 20
44.0157894503
 10
9.9040093822
 20
43.6533241468
 10
9.9755850803
 20
43.2825599743
 10
10.0118162695
 20
42.9025519243
 10
10.0147907874
 20
42.5142450054
 10
9.9842942088
 20
42.1333434137
  0
LWPOLYLINE
  5
36F
100
AcDbEntity
  8
RACCORDO
100
AcDbPolyline
 62
7
  6
CONTINUOUS
 90
12
 70
0
 10
6.3323245011
 20
39.3082954901
 10
6.0844868417
 20
39.3731851335
 10
5.8402705297
 20
39.4645023603
 10
5.6014379014
 20
39.582387656
 10
5.3692804204
 20
39.727262066
 10
5.1460783039
 20
39.8992260222
 10
4.9343136684
 20
40.0978050642
 10
4.7359286681
 20
40.3226066875
 10
4.5532090369
 20
40.5738112349
 10
4.3892952467
 20
40.8497374556
 10
4.2473649665
 20
41.1467658507
 10
4.1295775335
 20
41.4641386628
  0
LINE
  5
370
100
AcDbEntity
  8
SMUSSO
100
AcDbLine
 62
7
  6
CONTINUOUS
 10
46.0799357331
 20
31.2307272601
 11
46.0799357331
 21
16.2307272601
  0
LINE
  5
371
100
AcDbEntity
  8
DRAFT
100
AcDbLine
 62
7
  6
CONTINUOUS
 10
46.5799357331
 20
16.2307272601
 11
46.5799357331
 21
31.2307272601
  0
LINE
  5
372
100
AcDbEntity
  8
DRAFT
100
AcDbLine
 62
7
  6
CONTINUOUS
 10
47.0418159485
 20
16.2307272601
 11
47.0418159485
 21
31.2307276504
  0
LWPOLYLINE
  5
373
100
AcDbEntity
  8
ASSI
100
AcDbPolyline
 62
7
  6
CONTINUOUS
 90
4
 70
0
 10
-4.7610958278
 20
54.1886146632
 10
-4.8765463032
 20
54.1817476454
 10
-4.9624906739
 20
54.1627999021
 10
-4.9864106912
 20
54.1522645024
  0
LWPOLYLINE
  5
374
100
AcDbEntity
  8
ASSI
100
AcDbPolyline
 62
7
  6
CONTINUOUS
 90
27
 70
0
 10
2.9214481417
 20
54.1886147182
 10
2.7825112199
 20
54.1820728588
 10
2.6302951111
 20
54.1644275824
 10
2.4589768613
 20
54.1373577031
 10
2.2659234167
 20
54.1024737773
 10
2.0537678312
 20
54.0613015917
 10
1.8314910427
 20
54.0169373529
 10
1.5994931975
 20
53.9720195025
 10
1.3573741494
 20
53.9277912687
 10
1.1129143979
 20
53.8856601428
 10
0.871572866
 20
53.8473949334
 10
0.6278906307
 20
53.8136982006
 10
0.3732714223
 20
53.7838420913
 10
0.1037744464
 20
53.7573837779
 10
-0.1766595027
 20
53.7357951119
 10
-0.4648043121
 20
53.7209435036
 10
-0.7633347024
 20
53.7134903606
 10
-1.069575953
 20
53.713282926
 10
-1.3722777896
 20
53.7208234805
 10
-1.6691045382
 20
53.7362807314
 10
-1.9623918728
 20
53.7589250612
 10
-2.2478965409
 20
53.7876729853
 10
-2.525156387
 20
53.8218141157
 10
-2.7946335666
 20
53.8605264282
 10
-3.0534712941
 20
53.9024151508
 10
-3.3018956458
 20
53.9464303424
 10
-3.5396805452
 20
53.9912407757
  0
LINE
  5
375
100
AcDbEntity
  8
RACCORDO
100
AcDbLine
 62
253
  6
CONTINUOUS
 10
-91.6688389397
 20
47.3886147381
 11
89.8287104059
 21
47.3886147381
  0
LINE
  5
376
100
AcDbEntity
  8
0
100
AcDbLine
 62
253
  6
CONTINUOUS
 10
-4.5131483462
 20
53.3926583695
 11
2.6715873917
 21
53.3926583695
  0
LWPOLYLINE
  5
377
100
AcDbEntity
  8
ASSI
100
AcDbPolyline
 62
7
  6
CONTINUOUS
 90
7
 70
0
 10
-3.5396805452
 20
53.9912407757
 10
-3.9725841171
 20
54.0764365922
 10
-4.1677027895
 20
54.1138513655
 10
-4.3455404555
 20
54.1451909279
 10
-4.5054149521
 20
54.1691259502
 10
-4.6480084423
 20
54.1840855036
 10
-4.7610958278
 20
54.1886146632
  0
LWPOLYLINE
  5
378
100
AcDbEntity
  8
ASSI
100
AcDbPolyline
 62
7
  6
CONTINUOUS
 90
4
 70
0
 10
-4.9659883674
 20
56.3702422823
 10
-4.9010055092
 20
56.3548249999
 10
-4.8256289882
 20
56.3350286539
 10
-4.7401442762
 20
56.3110224494
  0
LWPOLYLINE
  5
379
100
AcDbEntity
  8
ASSI
100
AcDbPolyline
 62
7
  6
CONTINUOUS
 90
29
 70
0
 10
-4.2822893183
 20
56.1763504733
 10
-4.1348577552
 20
56.1343628271
 10
-3.9729869744
 20
56.0896953762
 10
-3.7967337346
 20
56.0427332133
 10
-3.6042756992
 20
55.9947302455
 10
-3.3952706588
 20
55.9459469254
 10
-3.1700608227
 20
55.8969679935
 10
-2.927850482
 20
55.8499354392
 10
-2.66728795
 20
55.8052316443
 10
-2.3897249135
 20
55.7635781289
 10
-2.0984207236
 20
55.7280296995
 10
-1.7916355907
 20
55.6993709285
 10
-1.4711093045
 20
55.6778832018
 10
-1.1453205858
 20
55.6660117994
 10
-0.8131730615
 20
55.6646902983
 10
-0.4757631048
 20
55.6732524033
 10
-0.1448585559
 20
55.6915393474
 10
0.1798274506
 20
55.7202215564
 10
0.4980080493
 20
55.7576422376
 10
0.7970548034
 20
55.800103244
 10
1.0733078793
 20
55.8470800819
 10
1.3304271107
 20
55.8977313156
 10
1.5667635622
 20
55.9484185545
 10
1.7802178229
 20
55.9981762723
 10
1.9728893037
 20
56.0471824838
 10
2.1494273025
 20
56.0941003857
 10
2.3100254207
 20
56.1383446467
 10
2.454490057
 20
56.1799961831
 10
2.8171364548
 20
56.286859879
  0
LINE
  5
37A
100
AcDbEntity
  8
ASSI
100
AcDbLine
 62
7
  6
CONTINUOUS
 10
-4.7401442762
 20
56.3110224494
 11
-4.2822893183
 21
56.1763504733
  0
LWPOLYLINE
  5
37B
100
AcDbEntity
  8
ASSI
100
AcDbPolyline
 62
7
  6
CONTINUOUS
 90
4
 70
0
 10
3.1457801765
 20
54.1522550754
 10
3.1140724882
 20
54.1654279274
 10
3.0243999084
 20
54.1832786179
 10
2.9214481417
 20
54.1886147182
  0
LWPOLYLINE
  5
37C
100
AcDbEntity
  8
RACCORDO
100
AcDbPolyline
 62
7
  6
CONTINUOUS
 90
26
 70
0
 10
-91.7711340303
 20
56.3885545747
 10
-91.8462145993
 20
56.3857526182
 10
-91.9825233182
 20
56.3661268281
 10
-92.1070114314
 20
56.3309242043
 10
-92.2215534048
 20
56.2823013519
 10
-92.3262498731
 20
56.2219551145
 10
-92.4192893917
 20
56.1527073285
 10
-92.5001947156
 20
56.0771345312
 10
-92.5704146313
 20
55.9959109274
 10
-92.6292440031
 20
55.9119828783
 10
-92.6749944383
 20
55.831855968
 10
-92.7091174035
 20
55.7592200032
 10
-92.7350205191
 20
55.69293121
 10
-92.7549277985
 20
55.6323029169
 10
-92.7699380041
 20
55.5787172307
 10
-92.7815982245
 20
55.5309089112
 10
-92.7916729157
 20
55.4841971542
 10
-92.8006247899
 20
55.4377518623
 10
-92.8085731295
 20
55.392128908
 10
-92.8160752366
 20
55.3449433289
 10
-92.823286709
 20
55.2955744369
 10
-92.8302023585
 20
55.2443747523
 10
-92.8369605656
 20
55.1905799367
 10
-92.8436106369
 20
55.1339396061
 10
-92.8501538317
 20
55.0745774077
 10
-92.8566087572
 20
55.0124659477
  0
LINE
  5
37D
100
AcDbEntity
  8
ASSI
100
AcDbLine
 62
7
  6
CONTINUOUS
 10
-91.7715659253
 20
56.3886147381
 11
-5.1700642669
 21
56.3886147381
  0
LINE
  5
37E
100
AcDbEntity
  8
ASSI
100
AcDbLine
 62
7
  6
CONTINUOUS
 10
3.3299357331
 20
56.3886147381
 11
89.9314373916
 21
56.3886147381
  0
LWPOLYLINE
  5
37F
100
AcDbEntity
  8
ASSI
100
AcDbPolyline
 62
7
  6
CONTINUOUS
 90
4
 70
0
 10
-5.0964959668
 20
56.3886145749
 10
-5.0683491603
 20
56.3872441417
 10
-5.0217173311
 20
56.3811055117
 10
-4.9659883674
 20
56.3702422823
  0
LWPOLYLINE
  5
380
100
AcDbEntity
  8
ASSI
100
AcDbPolyline
 62
7
  6
CONTINUOUS
 90
5
 70
0
 10
3.2561196401
 20
56.3886145868
 10
3.2873787162
 20
56.3861429425
 10
3.3120441721
 20
56.3776087343
 10
3.3262298444
 20
56.3629415855
 10
3.3299357331
 20
56.3421036167
  0
LINE
  5
381
100
AcDbEntity
  8
DRAFT
100
AcDbLine
 62
7
  6
CONTINUOUS
 10
61.3680555178
 20
5.7387835087
 11
61.3680555178
 21
-1.76121685
  0
LINE
  5
382
100
AcDbEntity
  8
DRAFT
100
AcDbLine
 62
7
  6
CONTINUOUS
 10
61.8299357331
 20
5.7387835087
 11
61.8299357331
 21
-1.7612164913
  0
LINE
  5
383
100
AcDbEntity
  8
SMUSSO
100
AcDbLine
 62
7
  6
CONTINUOUS
 10
62.3299357331
 20
-1.7612164913
 11
62.3299357331
 21
5.7387835087
  0
LINE
  5
384
100
AcDbEntity
  8
SMUSSO
100
AcDbLine
 62
7
  6
CONTINUOUS
 10
63.0227560562
 20
-1.7612164913
 11
63.0227560562
 21
5.7387835087
  0
LINE
  5
385
100
AcDbEntity
  8
SMUSSO
100
AcDbLine
 62
7
  6
CONTINUOUS
 10
65.1371154101
 20
5.7387835087
 11
65.1371154101
 21
-1.7612164913
  0
LINE
  5
386
100
AcDbEntity
  8
SMUSSO
100
AcDbLine
 62
7
  6
CONTINUOUS
 10
65.8299357331
 20
5.7387835087
 11
65.8299357331
 21
-1.7612164913
  0
LINE
  5
387
100
AcDbEntity
  8
DRAFT
100
AcDbLine
 62
7
  6
CONTINUOUS
 10
66.3299357331
 20
-1.7612164913
 11
66.3299357331
 21
5.7387835087
  0
LINE
  5
388
100
AcDbEntity
  8
DRAFT
100
AcDbLine
 62
7
  6
CONTINUOUS
 10
66.7918159485
 20
-1.7612164913
 11
66.7918159485
 21
5.7387839031
  0
LWPOLYLINE
  5
389
100
AcDbEntity
  8
RACCORDO
100
AcDbPolyline
 62
253
  6
CONTINUOUS
 90
27
 70
0
 10
84.0466398635
 20
24.6362534835
 10
83.9659440164
 20
24.330171587
 10
83.8542988289
 20
24.0354061953
 10
83.7146524662
 20
23.7553197186
 10
83.5558494233
 20
23.4999993884
 10
83.3779549532
 20
23.2719382249
 10
83.180903803
 20
23.0686432079
 10
82.9733447085
 20
22.8927225071
 10
82.756064741
 20
22.7452056366
 10
82.5282768293
 20
22.6250630824
 10
82.296268496
 20
22.5318144723
 10
82.0607259131
 20
22.4654935685
 10
81.8209629086
 20
22.4260666088
 10
81.5812084885
 20
22.4129519353
 10
81.3414689013
 20
22.4257709336
 10
81.1017378985
 20
22.464902218
 10
80.8662257406
 20
22.5308999739
 10
80.6342525587
 20
22.6237881912
 10
80.4064982217
 20
22.74354288
 10
80.1892125968
 20
22.8906462552
 10
79.9815959724
 20
23.0661405478
 10
79.7844480602
 20
23.2689835268
 10
79.6064178626
 20
23.4965307147
 10
79.4474685013
 20
23.7509694803
 10
79.3076368546
 20
24.0301124547
 10
79.1956825608
 20
24.3247530545
 10
79.1145254991
 20
24.6318224183
  0
LINE
  5
38A
100
AcDbEntity
  8
RACCORDO
100
AcDbLine
 62
7
  6
CONTINUOUS
 10
79.361862657
 20
24.9474503688
 11
79.3427988915
 21
25.1371406378
  0
LINE
  5
38B
100
AcDbEntity
  8
RACCORDO
100
AcDbLine
 62
7
  6
CONTINUOUS
 10
79.3560758169
 20
24.9927052748
 11
79.3430637427
 21
25.1330598537
  0
LINE
  5
38C
100
AcDbEntity
  8
RACCORDO
100
AcDbLine
 62
7
  6
CONTINUOUS
 10
79.3430637427
 20
25.1330598537
 11
79.3427848112
 21
25.137049223
  0
LINE
  5
38D
100
AcDbEntity
  8
RACCORDO
100
AcDbLine
 62
7
  6
CONTINUOUS
 10
79.3427848112
 20
25.137049223
 11
79.3356606823
 21
25.2976889463
  0
LINE
  5
38E
100
AcDbEntity
  8
RACCORDO
100
AcDbLine
 62
253
  6
CONTINUOUS
 10
79.3356606823
 20
25.2976889463
 11
79.342665856
 21
25.5816051433
  0
LWPOLYLINE
  5
38F
100
AcDbEntity
  8
RACCORDO
100
AcDbPolyline
 62
253
  6
CONTINUOUS
 90
34
 70
0
 10
79.0358434342
 20
25.2924540218
 10
79.0464231335
 20
25.6058616651
 10
79.0823534949
 20
25.9084596161
 10
79.1436345185
 20
26.2002478747
 10
79.2324994753
 20
26.484333507
 10
79.3467150943
 20
26.757609447
 10
79.4795815623
 20
27.0107544968
 10
79.6313093369
 20
27.2417636361
 10
79.8016879605
 20
27.4526418852
 10
79.9833862462
 20
27.6400831063
 10
80.175905336
 20
27.8030307969
 10
80.379744088
 20
27.9425414596
 10
80.58906789
 20
28.0584784642
 10
80.8032388996
 20
28.1505613639
 10
81.0228949592
 20
28.2190706057
 10
81.2441149845
 20
28.2647108995
 10
81.4666373929
 20
28.2877138458
 10
81.690723767
 20
28.2878478442
 10
81.91323777
 20
28.2651228039
 10
82.134434161
 20
28.2197729534
 10
82.3540581809
 20
28.1515640644
 10
82.5682092157
 20
28.0598033609
 10
82.7775209334
 20
27.9442188448
 10
82.981359666
 20
27.8050825142
 10
83.1739237945
 20
27.642517589
 10
83.3557268423
 20
27.4554520271
 10
83.5262552859
 20
27.2449578705
 10
83.6781669363
 20
27.0143744648
 10
83.8112355734
 20
26.7619713872
 10
83.9256874171
 20
26.4894790606
 10
84.0148589378
 20
26.2054280993
 10
84.076528959
 20
25.9126620415
 10
84.112918657
 20
25.608337349
 10
84.1240280321
 20
25.2924540218
  0
LINE
  5
390
100
AcDbEntity
  8
RACCORDO
100
AcDbLine
 62
7
  6
CONTINUOUS
 10
83.824210784
 20
25.2976889463
 11
83.8170849996
 21
25.1370254535
  0
LINE
  5
391
100
AcDbEntity
  8
RACCORDO
100
AcDbLine
 62
7
  6
CONTINUOUS
 10
83.8170849996
 20
25.1370254535
 11
83.8168255174
 21
25.1333121452
  0
LWPOLYLINE
  5
392
100
AcDbEntity
  8
RACCORDO
100
AcDbPolyline
 62
253
  6
CONTINUOUS
 90
3
 70
0
 10
84.1240280321
 20
25.2924540218
 10
84.0993345354
 20
24.9570142951
 10
84.0466398635
 20
24.6362534835
  0
LINE
  5
393
100
AcDbEntity
  8
RACCORDO
100
AcDbLine
 62
7
  6
CONTINUOUS
 10
83.8168255174
 20
25.1333121452
 11
83.8039348139
 21
24.9939102704
  0
LINE
  5
394
100
AcDbEntity
  8
RACCORDO
100
AcDbLine
 62
7
  6
CONTINUOUS
 10
83.8170371889
 20
25.137225258
 11
83.7979187055
 21
24.9471494232
  0
LWPOLYLINE
  5
395
100
AcDbEntity
  8
RACCORDO
100
AcDbPolyline
 62
253
  6
CONTINUOUS
 90
32
 70
0
 10
79.342665856
 20
25.5816051433
 10
79.3743749145
 20
25.8594172032
 10
79.4298303992
 20
26.1289400993
 10
79.5080008453
 20
26.3893261415
 10
79.6074071415
 20
26.6375106482
 10
79.7256400431
 20
26.8683877267
 10
79.8601848964
 20
27.0798426422
 10
80.0090808564
 20
27.2718016925
 10
80.1702069177
 20
27.4427357405
 10
80.3410861738
 20
27.5917109044
 10
80.5197785717
 20
27.7189246593
 10
80.7051860259
 20
27.8246428246
 10
80.8951805903
 20
27.908634881
 10
81.088135097
 20
27.9711420319
 10
81.2840684344
 20
28.0127807819
 10
81.481286841
 20
28.0335823955
 10
81.6782731524
 20
28.0336002434
 10
81.8754755334
 20
28.0128383164
 10
82.0713765051
 20
27.9712476653
 10
82.264285314
 20
27.9088005267
 10
82.4542271136
 20
27.8248860521
 10
82.639576014
 20
27.7192675042
 10
82.8182100174
 20
27.5921758465
 10
82.9890438758
 20
27.4433414984
 10
83.1501559242
 20
27.2725487126
 10
83.2990544736
 20
27.0807449755
 10
83.4335916705
 20
26.8695095018
 10
83.5517557529
 20
26.6390738435
 10
83.6511433833
 20
26.3914119446
 10
83.729471601
 20
26.1311960899
 10
83.7851916029
 20
25.8613159082
 10
83.8171247775
 20
25.5827489978
  0
LWPOLYLINE
  5
396
100
AcDbEntity
  8
RACCORDO
100
AcDbPolyline
 62
7
  6
CONTINUOUS
 90
28
 70
0
 10
83.8039348139
 20
24.9939102704
 10
83.7559324869
 20
24.6995384214
 10
83.6815882323
 20
24.4170717081
 10
83.5822328311
 20
24.1475303028
 10
83.4599680985
 20
23.8943067356
 10
83.3182055164
 20
23.6628035597
 10
83.1601510854
 20
23.4551933244
 10
82.9880637643
 20
23.2712449129
 10
82.8044145837
 20
23.11200853
 10
82.6120833829
 20
22.9782101708
 10
82.4131718889
 20
22.8694583263
 10
82.2086219302
 20
22.7851324738
 10
82.0007526705
 20
22.7252815856
 10
81.791325863
 20
22.6896471183
 10
81.5800782064
 20
22.6777636921
 10
81.3688426244
 20
22.6896086748
 10
81.1594487343
 20
22.7251986869
 10
80.9516274626
 20
22.7849900998
 10
80.747139007
 20
22.8692358517
 10
80.5482970025
 20
22.9778836839
 10
80.3560309819
 20
23.1115519044
 10
80.1724221634
 20
23.2706460027
 10
80.0003633195
 20
23.4544271284
 10
79.8423529068
 20
23.6617948629
 10
79.7007133048
 20
23.8928142342
 10
79.5785177334
 20
24.1454513968
 10
79.479010104
 20
24.4147648452
 10
79.4043609014
 20
24.6975645185
  0
LWPOLYLINE
  5
397
100
AcDbEntity
  8
RACCORDO
100
AcDbPolyline
 62
7
  6
CONTINUOUS
 90
28
 70
0
 10
83.7979187055
 20
24.9471494232
 10
83.7485207165
 20
24.6714066519
 10
83.6758706601
 20
24.4081836254
 10
83.5821548026
 20
24.1601046493
 10
83.4690983056
 20
23.9280709625
 10
83.3375222602
 20
23.7118453798
 10
83.1890370844
 20
23.513242595
 10
83.0253803043
 20
23.33405107
 10
82.847069015
 20
23.1746554831
 10
82.6561217114
 20
23.036771581
 10
82.4546730428
 20
22.9220414712
 10
82.2435398727
 20
22.8312644734
 10
82.0252860099
 20
22.765548617
 10
81.8026794398
 20
22.7259174573
 10
81.5772499094
 20
22.7129702512
 10
81.3518984018
 20
22.7266247374
 10
81.1295427077
 20
22.7666852795
 10
80.9117879632
 20
22.832922756
 10
80.7011653032
 20
22.924134432
 10
80.5001641021
 20
23.0390351969
 10
80.3098760057
 20
23.1769873532
 10
80.1322015181
 20
23.3363771763
 10
79.9689821537
 20
23.5154678429
 10
79.8209885218
 20
23.7138097163
 10
79.6898752875
 20
23.9297469202
 10
79.5771238349
 20
24.1615886505
 10
79.4836271406
 20
24.4093699369
 10
79.4111506353
 20
24.6721574471
  0
LWPOLYLINE
  5
398
100
AcDbEntity
  8
RACCORDO
100
AcDbPolyline
 62
7
  6
CONTINUOUS
 90
5
 70
0
 10
95.0299357331
 20
-11.4528720398
 10
95.0417681213
 20
-11.4734886095
 10
95.0622808125
 20
-11.5259460906
 10
95.0750033498
 20
-11.5812564613
 10
95.0799357331
 20
-11.6394197216
  0
LINE
  5
399
100
AcDbEntity
  8
RACCORDO
100
AcDbLine
 62
7
  6
CONTINUOUS
 10
79.4111506353
 20
24.6721574471
 11
79.361862657
 21
24.9474503688
  0
LWPOLYLINE
  5
39A
100
AcDbEntity
  8
RACCORDO
100
AcDbPolyline
 62
253
  6
CONTINUOUS
 90
3
 70
0
 10
79.1145254991
 20
24.6318224183
 10
79.0612457903
 20
24.9543894074
 10
79.0358434342
 20
25.2924540218
  0
LINE
  5
39B
100
AcDbEntity
  8
RACCORDO
100
AcDbLine
 62
7
  6
CONTINUOUS
 10
79.4043609014
 20
24.6975645185
 11
79.3560758169
 21
24.9927052748
  0
LINE
  5
39C
100
AcDbEntity
  8
RACCORDO
100
AcDbLine
 62
253
  6
CONTINUOUS
 10
83.8171247775
 20
25.5827489978
 11
83.824210784
 21
25.2976889463
  0
LINE
  5
39D
100
AcDbEntity
  8
RACCORDO
100
AcDbLine
 62
253
  6
CONTINUOUS
 10
91.4737432373
 20
-46.8265388965
 11
89.8287104059
 21
47.3886147381
  0
LWPOLYLINE
  5
39E
100
AcDbEntity
  8
RACCORDO
100
AcDbPolyline
 62
253
  6
CONTINUOUS
 90
22
 70
0
 10
89.8287104059
 20
47.3886147381
 10
89.818710677
 20
48.0737338097
 10
89.8102565796
 20
48.7549560909
 10
89.8033481136
 20
49.4283252129
 10
89.7979621628
 20
50.0898107411
 10
89.7941218434
 20
50.7356893308
 10
89.7918965045
 20
51.3625356033
 10
89.7913150143
 20
51.9669875221
 10
89.7923485045
 20
52.5451236139
 10
89.7949797187
 20
53.0929255915
 10
89.7992387433
 20
53.6070593446
 10
89.8050954919
 20
54.0847869849
 10
89.8124424491
 20
54.5233806689
 10
89.8212999929
 20
54.920225537
 10
89.8316477454
 20
55.2732256868
 10
89.8433170576
 20
55.5806712768
 10
89.8563324487
 20
55.8407825126
 10
89.8706693996
 20
56.0518674816
 10
89.886085704
 20
56.2126226941
 10
89.9026086791
 20
56.3220643583
 10
89.9202110079
 20
56.3794039117
 10
89.9310151041
 20
56.3886147366
  0
LWPOLYLINE
  5
39F
100
AcDbEntity
  8
RACCORDO
100
AcDbPolyline
 62
253
  6
CONTINUOUS
 90
4
 70
0
 10
90.8206906448
 20
54.0999085865
 10
90.8310481821
 20
54.4151612198
 10
90.8427291252
 20
54.6883266689
 10
90.8557580475
 20
54.9188316122
  0
LINE
  5
3A0
100
AcDbEntity
  8
DRAFT
100
AcDbLine
 62
7
  6
CONTINUOUS
 10
93.1299357331
 20
32.453485688
 11
93.0426338094
 21
31.1278800043
  0
LWPOLYLINE
  5
3A1
100
AcDbEntity
  8
RACCORDO
100
AcDbPolyline
 62
253
  6
CONTINUOUS
 90
10
 70
0
 10
90.8557580475
 20
54.9188316122
 10
90.8701103756
 20
55.1072493711
 10
90.8855429148
 20
55.2501249267
 10
90.9020829213
 20
55.3466076319
 10
90.9197031389
 20
55.3975481336
 10
90.938078605
 20
55.4020433547
 10
90.9572214437
 20
55.3591334691
 10
90.9771195308
 20
55.2697783028
 10
90.9974115318
 20
55.1359542557
 10
91.0179770016
 20
54.9583201277
  0
LWPOLYLINE
  5
3A2
100
AcDbEntity
  8
RACCORDO
100
AcDbPolyline
 62
7
  6
CONTINUOUS
 90
5
 70
0
 10
95.0299357331
 20
17.9919916889
 10
95.0417681213
 20
17.9713751192
 10
95.0622808125
 20
17.9189176381
 10
95.0750033498
 20
17.8636072674
 10
95.0799357331
 20
17.8054440071
  0
LINE
  5
3A3
100
AcDbEntity
  8
DRAFT
100
AcDbLine
 62
7
  6
CONTINUOUS
 10
97.5089914676
 20
-43.4689637845
 11
98.0246228963
 21
-46.8160880713
  0
LWPOLYLINE
  5
3A4
100
AcDbEntity
  8
RACCORDO
100
AcDbPolyline
 62
7
  6
CONTINUOUS
 90
29
 70
0
 10
91.0183878427
 20
54.9934335962
 10
91.0124928944
 20
55.0512503893
 10
91.0065519027
 20
55.1065394786
 10
91.0005509439
 20
55.1593619159
 10
90.9944859643
 20
55.2096812622
 10
90.9883301318
 20
55.2576471662
 10
90.9820114541
 20
55.303695662
 10
90.9755237954
 20
55.3477144301
 10
90.9687935846
 20
55.3900247141
 10
90.961575931
 20
55.4318072177
 10
90.9538281436
 20
55.4728164575
 10
90.945354305
 20
55.5135427552
 10
90.935438557
 20
55.5564003739
 10
90.9237993252
 20
55.6011360128
 10
90.9098848676
 20
55.6482455245
 10
90.8918610605
 20
55.7013346663
 10
90.8680432935
 20
55.7614302535
 10
90.8373768235
 20
55.8269512165
 10
90.7982020469
 20
55.8972980258
 10
90.7478331248
 20
55.9726676644
 10
90.6852301811
 20
56.0499666265
 10
90.6122545149
 20
56.1237655951
 10
90.529821511
 20
56.1914833843
 10
90.4368028532
 20
56.2524630052
 10
90.3335220608
 20
56.3046732345
 10
90.2211977069
 20
56.3458582297
 10
90.1002923983
 20
56.3742287048
 10
89.9705017554
 20
56.38777998
 10
89.931022469
 20
56.3885546385
  0
LINE
  5
3A5
100
AcDbEntity
  8
RACCORDO
100
AcDbLine
 62
7
  6
CONTINUOUS
 10
91.0242469803
 20
54.9330442415
 11
91.0183878427
 21
54.9934335962
  0
LWPOLYLINE
  5
3A6
100
AcDbEntity
  8
RACCORDO
100
AcDbPolyline
 62
253
  6
CONTINUOUS
 90
3
 70
0
 10
91.0179770016
 20
54.9583201277
 10
91.0389363853
 20
54.7362171189
 10
91.0602896827
 20
54.4696452293
  0
LINE
  5
3A7
100
AcDbEntity
  8
RACCORDO
100
AcDbLine
 62
7
  6
CONTINUOUS
 10
91.0358517771
 20
54.8048205707
 11
91.0242469803
 21
54.9330442415
  0
LWPOLYLINE
  5
3A8
100
AcDbEntity
  8
RACCORDO
100
AcDbPolyline
 62
7
  6
CONTINUOUS
 90
5
 70
0
 10
95.0799357331
 20
-12.6394197216
 10
95.0750033498
 20
-12.5812564613
 10
95.0622808125
 20
-12.5259460906
 10
95.0417681213
 20
-12.4734886095
 10
95.0299357331
 20
-12.4528720398
  0
LWPOLYLINE
  5
3A9
100
AcDbEntity
  8
RACCORDO
100
AcDbPolyline
 62
7
  6
CONTINUOUS
 90
5
 70
0
 10
95.0799357331
 20
16.8054440071
 10
95.0750033498
 20
16.8636072674
 10
95.0622808125
 20
16.9189176381
 10
95.0417681213
 20
16.9713751192
 10
95.0299357331
 20
16.9919916889
  0
LINE
  5
3AA
100
AcDbEntity
  8
RACCORDO
100
AcDbLine
 62
7
  6
CONTINUOUS
 10
91.0472905092
 20
54.6672137954
 11
91.0358517771
 21
54.8048205707
  0
LINE
  5
3AB
100
AcDbEntity
  8
RACCORDO
100
AcDbLine
 62
253
  6
CONTINUOUS
 10
91.0602896827
 20
54.4696452293
 11
93.0799357331
 21
27.3011620948
  0
LINE
  5
3AC
100
AcDbEntity
  8
RACCORDO
100
AcDbLine
 62
7
  6
CONTINUOUS
 10
91.0472905092
 20
54.6672137954
 11
93.0778633388
 21
27.3569027671
  0
LINE
  5
3AD
100
AcDbEntity
  8
RACCORDO
100
AcDbLine
 62
7
  6
CONTINUOUS
 10
93.0777955416
 20
27.3572191504
 11
93.0799357331
 21
27.3011620948
  0
LINE
  5
3AE
100
AcDbEntity
  8
RACCORDO
100
AcDbLine
 62
253
  6
CONTINUOUS
 10
91.0581518145
 20
54.5262666303
 11
91.0602896827
 21
54.4696452293
  0
LINE
  5
3AF
100
AcDbEntity
  8
RACCORDO
100
AcDbLine
 62
253
  6
CONTINUOUS
 10
92.470453058
 20
-46.6555411962
 11
90.828101233
 21
47.4060644865
  0
LWPOLYLINE
  5
3B0
100
AcDbEntity
  8
RACCORDO
100
AcDbPolyline
 62
253
  6
CONTINUOUS
 90
14
 70
0
 10
90.828101233
 20
47.4060644865
 10
90.8181275186
 20
48.0186191645
 10
90.8096895571
 20
48.6214346158
 10
90.8027873487
 20
49.2145108402
 10
90.7973937132
 20
49.8013105561
 10
90.7935358307
 20
50.3783710453
 10
90.7912952409
 20
50.9353041529
 10
90.7907047514
 20
51.471821521
 10
90.7917315546
 20
51.9882115076
 10
90.794358768
 20
52.4749510321
 10
90.7986166076
 20
52.9312863138
 10
90.8044748575
 20
53.3579711335
 10
90.8118259873
 20
53.7477437526
 10
90.8206906448
 20
54.0999085865
  0
LINE
  5
3B1
100
AcDbEntity
  8
DRAFT
100
AcDbLine
 62
7
  6
CONTINUOUS
 10
93.0426338094
 20
31.1278800043
 11
93.0426338094
 21
28.1666599393
  0
LINE
  5
3B2
100
AcDbEntity
  8
RACCORDO
100
AcDbLine
 62
7
  6
CONTINUOUS
 10
93.0799357331
 20
27.3011620948
 11
93.0799357331
 21
-37.6512707483
  0
LINE
  5
3B3
100
AcDbEntity
  8
DRAFT
100
AcDbLine
 62
7
  6
CONTINUOUS
 10
93.1299357331
 20
32.453485688
 11
93.1299357331
 21
28.1666599393
  0
LINE
  5
3B4
100
AcDbEntity
  8
ASSI
100
AcDbLine
 62
7
  6
CONTINUOUS
 10
95.0299357331
 20
-46.8265388965
 11
95.0299357331
 21
-37.6512707483
  0
LINE
  5
3B5
100
AcDbEntity
  8
RACCORDO
100
AcDbLine
 62
7
  6
CONTINUOUS
 10
95.0299357331
 20
-46.8265388965
 11
95.0299357331
 21
-51.903671956
  0
LINE
  5
3B6
100
AcDbEntity
  8
RACCORDO
100
AcDbLine
 62
7
  6
CONTINUOUS
 10
95.0299357331
 20
-37.6512707483
 11
95.0299357331
 21
32.2368473669
  0
LINE
  5
3B7
100
AcDbEntity
  8
RACCORDO
100
AcDbLine
 62
7
  6
CONTINUOUS
 10
95.0799357331
 20
-52.7249345893
 11
95.0799357331
 21
32.3717869582
  0
LINE
  5
3B8
100
AcDbEntity
  8
RACCORDO
100
AcDbLine
 62
253
  6
CONTINUOUS
 10
95.3299357331
 20
-46.8160880713
 11
95.3299357331
 21
32.7132933091
  0
LINE
  5
3B9
100
AcDbEntity
  8
RACCORDO
100
AcDbLine
 62
7
  6
CONTINUOUS
 10
97.3593018891
 20
33.6052781093
 11
97.3593018891
 21
-37.6512707483
  0
LWPOLYLINE
  5
3BA
100
AcDbEntity
  8
RACCORDO
100
AcDbPolyline
 62
7
  6
CONTINUOUS
 90
5
 70
0
 10
95.0799357331
 20
2.216986739
 10
95.0750033498
 20
2.1588234787
 10
95.0622808125
 20
2.103513108
 10
95.0417681213
 20
2.0510556269
 10
95.0299357331
 20
2.0304390572
  0
LWPOLYLINE
  5
3BB
100
AcDbEntity
  8
RACCORDO
100
AcDbPolyline
 62
7
  6
CONTINUOUS
 90
5
 70
0
 10
95.0799357331
 20
-27.2278769897
 10
95.0750033498
 20
-27.28604025
 10
95.0622808125
 20
-27.3413506207
 10
95.0417681213
 20
-27.3938081018
 10
95.0299357331
 20
-27.4144246715
  0
LINE
  5
3BC
100
AcDbEntity
  8
RACCORDO
100
AcDbLine
 62
7
  6
CONTINUOUS
 10
98.0246228963
 20
-46.8160880713
 11
97.866992886
 21
-53.7318344993
  0
LWPOLYLINE
  5
3BD
100
AcDbEntity
  8
RACCORDO
100
AcDbPolyline
 62
253
  6
CONTINUOUS
 90
8
 70
0
 10
95.0799357331
 20
-43.7151657227
 10
95.0837342898
 20
-43.672410441
 10
95.0950142552
 20
-43.6309551626
 10
95.1134324632
 20
-43.5920594986
 10
95.1384288088
 20
-43.5569052544
 10
95.169243479
 20
-43.5265602554
 10
95.2049402024
 20
-43.5019460491
 10
95.2444343646
 20
-43.4838102641
  0
LINE
  5
3BE
100
AcDbEntity
  8
RACCORDO
100
AcDbLine
 62
7
  6
CONTINUOUS
 10
92.470453058
 20
-46.6555411962
 11
92.9240090889
 21
-43.711367661
  0
LWPOLYLINE
  5
3BF
100
AcDbEntity
  8
RACCORDO
100
AcDbPolyline
 62
253
  6
CONTINUOUS
 90
8
 70
0
 10
95.0799357331
 20
-37.7762707483
 10
95.0837337949
 20
-37.7545647261
 10
95.0950125779
 20
-37.7335182304
 10
95.1134293822
 20
-37.7137707483
 10
95.1384246224
 20
-37.6959222971
 10
95.1692388307
 20
-37.6805151929
 10
95.2049357331
 20
-37.6680175729
 10
95.2444306973
 20
-37.6588091707
  0
CIRCLE
  5
3C0
100
AcDbEntity
  8
ASSI
100
AcDbCircle
 62
7
  6
CONTINUOUS
 10
-85.1700642669
 20
-39.5112164913
 40
6.9660254038
  0
CIRCLE
  5
3C1
100
AcDbEntity
  8
ASSI
100
AcDbCircle
 62
7
  6
CONTINUOUS
 10
-85.1700642669
 20
-39.5112164913
 40
6.1
  0
CIRCLE
  5
3C2
100
AcDbEntity
  8
0
100
AcDbCircle
 62
7
  6
CONTINUOUS
 10
-85.1700642669
 20
-39.5112164913
 40
6.0
  0
CIRCLE
  5
3C3
100
AcDbEntity
  8
0
100
AcDbCircle
 62
7
  6
CONTINUOUS
 10
-85.1700642669
 20
-39.5112164913
 40
4.048134511
  0
ARC
  5
3C4
100
AcDbEntity
  8
DRAFT
100
AcDbCircle
 62
7
  6
CONTINUOUS
 10
-65.9200642669
 20
-1.7612164913
 40
2.7118802154
100
AcDbArc
 50
180.0
 51
360.0
  0
ARC
  5
3C5
100
AcDbEntity
  8
DRAFT
100
AcDbCircle
 62
7
  6
CONTINUOUS
 10
-65.9200642669
 20
-1.7612164913
 40
2.25
100
AcDbArc
 50
180.0
 51
360.0
  0
ARC
  5
3C6
100
AcDbEntity
  8
SMUSSO
100
AcDbCircle
 62
7
  6
CONTINUOUS
 10
-65.9200642669
 20
-1.7612164913
 40
1.7501969989
100
AcDbArc
 50
180.0
 51
360.0
  0
ARC
  5
3C7
100
AcDbEntity
  8
SMUSSO
100
AcDbCircle
 62
7
  6
CONTINUOUS
 10
-65.9200642669
 20
-1.7612164913
 40
1.0571862342
100
AcDbArc
 50
180.0
 51
360.0
  0
ARC
  5
3C8
100
AcDbEntity
  8
DRAFT
100
AcDbCircle
 62
7
  6
CONTINUOUS
 10
-40.9200642669
 20
31.2307272601
 40
7.9618802154
100
AcDbArc
 50
0.0
 51
180.0
  0
ARC
  5
3C9
100
AcDbEntity
  8
DRAFT
100
AcDbCircle
 62
7
  6
CONTINUOUS
 10
-40.9200642669
 20
16.2307272601
 40
7.9618802154
100
AcDbArc
 50
180.0
 51
360.0
  0
ARC
  5
3CA
100
AcDbEntity
  8
DRAFT
100
AcDbCircle
 62
7
  6
CONTINUOUS
 10
-40.9200642669
 20
16.2307272601
 40
7.5
100
AcDbArc
 50
180.0
 51
360.0
  0
ARC
  5
3CB
100
AcDbEntity
  8
DRAFT
100
AcDbCircle
 62
7
  6
CONTINUOUS
 10
-40.9200642669
 20
31.2307272601
 40
7.5
100
AcDbArc
 50
0.0
 51
180.0
  0
ARC
  5
3CC
100
AcDbEntity
  8
SMUSSO
100
AcDbCircle
 62
7
  6
CONTINUOUS
 10
-40.9200642669
 20
16.2307272601
 40
6.9996251422
100
AcDbArc
 50
180.0
 51
360.0
  0
ARC
  5
3CD
100
AcDbEntity
  8
SMUSSO
100
AcDbCircle
 62
7
  6
CONTINUOUS
 10
-40.9200642669
 20
31.2307272601
 40
6.9996251422
100
AcDbArc
 50
0.0
 51
180.0
  0
CIRCLE
  5
3CE
100
AcDbEntity
  8
ASSI
100
AcDbCircle
 62
7
  6
CONTINUOUS
 10
-83.4200642669
 20
39.4887835087
 40
6.9660254038
  0
ARC
  5
3CF
100
AcDbEntity
  8
SMUSSO
100
AcDbCircle
 62
7
  6
CONTINUOUS
 10
-40.9200642669
 20
16.2307272601
 40
6.307061822
100
AcDbArc
 50
180.0
 51
360.0
  0
ARC
  5
3D0
100
AcDbEntity
  8
SMUSSO
100
AcDbCircle
 62
7
  6
CONTINUOUS
 10
-40.9200642669
 20
31.2307272601
 40
6.307061822
100
AcDbArc
 50
0.0
 51
180.0
  0
CIRCLE
  5
3D1
100
AcDbEntity
  8
ASSI
100
AcDbCircle
 62
7
  6
CONTINUOUS
 10
-83.4200642669
 20
39.4887835087
 40
6.1
  0
CIRCLE
  5
3D2
100
AcDbEntity
  8
0
100
AcDbCircle
 62
7
  6
CONTINUOUS
 10
-83.4200642669
 20
39.4887835087
 40
6.0
  0
CIRCLE
  5
3D3
100
AcDbEntity
  8
0
100
AcDbCircle
 62
7
  6
CONTINUOUS
 10
-83.4200642669
 20
39.4887835087
 40
4.048134511
  0
ARC
  5
3D4
100
AcDbEntity
  8
DRAFT
100
AcDbCircle
 62
7
  6
CONTINUOUS
 10
-65.9200642669
 20
5.7387835087
 40
2.7118802154
100
AcDbArc
 50
0.0
 51
180.0
  0
ARC
  5
3D5
100
AcDbEntity
  8
DRAFT
100
AcDbCircle
 62
7
  6
CONTINUOUS
 10
-65.9200642669
 20
5.7387835087
 40
2.25
100
AcDbArc
 50
0.0
 51
180.0
  0
ARC
  5
3D6
100
AcDbEntity
  8
SMUSSO
100
AcDbCircle
 62
7
  6
CONTINUOUS
 10
-65.9200642669
 20
5.7387835087
 40
1.7501969989
100
AcDbArc
 50
0.0
 51
180.0
  0
ARC
  5
3D7
100
AcDbEntity
  8
SMUSSO
100
AcDbCircle
 62
7
  6
CONTINUOUS
 10
-65.9200642669
 20
5.7387835087
 40
1.0571862342
100
AcDbArc
 50
0.0
 51
180.0
  0
CIRCLE
  5
3D8
100
AcDbEntity
  8
ASSI
100
AcDbCircle
 62
7
  6
CONTINUOUS
 10
83.3299357331
 20
-39.5112164913
 40
6.9660254038
  0
CIRCLE
  5
3D9
100
AcDbEntity
  8
ASSI
100
AcDbCircle
 62
7
  6
CONTINUOUS
 10
83.3299357331
 20
-39.5112164913
 40
6.1
  0
CIRCLE
  5
3DA
100
AcDbEntity
  8
0
100
AcDbCircle
 62
7
  6
CONTINUOUS
 10
83.3299357331
 20
-39.5112164913
 40
6.0
  0
CIRCLE
  5
3DB
100
AcDbEntity
  8
0
100
AcDbCircle
 62
7
  6
CONTINUOUS
 10
83.3299357331
 20
-39.5112164913
 40
4.048134511
  0
ARC
  5
3DC
100
AcDbEntity
  8
DRAFT
100
AcDbCircle
 62
7
  6
CONTINUOUS
 10
64.0799357331
 20
-1.7612164913
 40
2.7118802154
100
AcDbArc
 50
180.0000075784
 51
360.0
  0
ARC
  5
3DD
100
AcDbEntity
  8
DRAFT
100
AcDbCircle
 62
7
  6
CONTINUOUS
 10
64.0799357331
 20
-1.7612164913
 40
2.25
100
AcDbArc
 50
180.0
 51
360.0
  0
ARC
  5
3DE
100
AcDbEntity
  8
SMUSSO
100
AcDbCircle
 62
7
  6
CONTINUOUS
 10
64.0799357331
 20
-1.7612164913
 40
1.7501969989
100
AcDbArc
 50
180.0
 51
360.0
  0
ARC
  5
3DF
100
AcDbEntity
  8
SMUSSO
100
AcDbCircle
 62
7
  6
CONTINUOUS
 10
64.0799357331
 20
-1.7612164913
 40
1.0571862342
100
AcDbArc
 50
180.0
 51
360.0
  0
CIRCLE
  5
3E0
100
AcDbEntity
  8
0
100
AcDbCircle
 62
7
  6
CONTINUOUS
 10
-0.9200642669
 20
1.9887835087
 40
13.0
  0
ARC
  5
3E1
100
AcDbEntity
  8
DRAFT
100
AcDbCircle
 62
7
  6
CONTINUOUS
 10
39.0799357331
 20
16.2307272601
 40
7.9618802154
100
AcDbArc
 50
180.0
 51
360.0
  0
ARC
  5
3E2
100
AcDbEntity
  8
DRAFT
100
AcDbCircle
 62
7
  6
CONTINUOUS
 10
39.0799357331
 20
31.2307272601
 40
7.9618802154
100
AcDbArc
 50
0.0000028087
 51
180.0
  0
ARC
  5
3E3
100
AcDbEntity
  8
DRAFT
100
AcDbCircle
 62
7
  6
CONTINUOUS
 10
39.0799357331
 20
31.2307272601
 40
7.5
100
AcDbArc
 50
0.0
 51
180.0
  0
ARC
  5
3E4
100
AcDbEntity
  8
DRAFT
100
AcDbCircle
 62
7
  6
CONTINUOUS
 10
39.0799357331
 20
16.2307272601
 40
7.5
100
AcDbArc
 50
180.0
 51
360.0
  0
ARC
  5
3E5
100
AcDbEntity
  8
SMUSSO
100
AcDbCircle
 62
7
  6
CONTINUOUS
 10
39.0799357331
 20
16.2307272601
 40
6.9996251422
100
AcDbArc
 50
180.0
 51
360.0
  0
ARC
  5
3E6
100
AcDbEntity
  8
SMUSSO
100
AcDbCircle
 62
7
  6
CONTINUOUS
 10
39.0799357331
 20
31.2307272601
 40
6.9996251422
100
AcDbArc
 50
0.0
 51
180.0
  0
CIRCLE
  5
3E7
100
AcDbEntity
  8
ASSI
100
AcDbCircle
 62
7
  6
CONTINUOUS
 10
81.5799357331
 20
39.4887835087
 40
6.9660254038
  0
ARC
  5
3E8
100
AcDbEntity
  8
SMUSSO
100
AcDbCircle
 62
7
  6
CONTINUOUS
 10
39.0799357331
 20
16.2307272601
 40
6.307061822
100
AcDbArc
 50
180.0
 51
360.0
  0
ARC
  5
3E9
100
AcDbEntity
  8
SMUSSO
100
AcDbCircle
 62
7
  6
CONTINUOUS
 10
39.0799357331
 20
31.2307272601
 40
6.307061822
100
AcDbArc
 50
0.0
 51
180.0
  0
CIRCLE
  5
3EA
100
AcDbEntity
  8
ASSI
100
AcDbCircle
 62
7
  6
CONTINUOUS
 10
81.5799357331
 20
39.4887835087
 40
6.1
  0
CIRCLE
  5
3EB
100
AcDbEntity
  8
0
100
AcDbCircle
 62
7
  6
CONTINUOUS
 10
81.5799357331
 20
39.4887835087
 40
6.0
  0
CIRCLE
  5
3EC
100
AcDbEntity
  8
0
100
AcDbCircle
 62
7
  6
CONTINUOUS
 10
81.5799357331
 20
39.4887835087
 40
4.048134511
  0
ARC
  5
3ED
100
AcDbEntity
  8
DRAFT
100
AcDbCircle
 62
7
  6
CONTINUOUS
 10
64.0799357331
 20
5.7387835087
 40
2.7118802154
100
AcDbArc
 50
0.0000083322
 51
180.0
  0
ARC
  5
3EE
100
AcDbEntity
  8
DRAFT
100
AcDbCircle
 62
7
  6
CONTINUOUS
 10
64.0799357331
 20
5.7387835087
 40
2.25
100
AcDbArc
 50
0.0
 51
180.0
  0
ARC
  5
3EF
100
AcDbEntity
  8
SMUSSO
100
AcDbCircle
 62
7
  6
CONTINUOUS
 10
64.0799357331
 20
5.7387835087
 40
1.7501969989
100
AcDbArc
 50
0.0
 51
180.0
  0
ARC
  5
3F0
100
AcDbEntity
  8
SMUSSO
100
AcDbCircle
 62
7
  6
CONTINUOUS
 10
64.0799357331
 20
5.7387835087
 40
1.0571862342
100
AcDbArc
 50
0.0
 51
180.0
  0
ELLIPSE
  5
3F1
100
AcDbEntity
  8
DRAFT
100
AcDbEllipse
 62
7
  6
CONTINUOUS
 10
-99.6184796567
 20
-31.6512707483
 30
0.0
 11
-0.2097163347
 21
11.999998325
 31
0.0
 40
0.0302330481
 41
-2.9675880921
 42
-2.0949234661
  0
ELLIPSE
  5
3F2
100
AcDbEntity
  8
DRAFT
100
AcDbEllipse
 62
7
  6
CONTINUOUS
 10
97.778351123
 20
-31.6512707483
 30
0.0
 11
0.2097163347
 21
11.999998325
 31
0.0
 40
0.0302330481
 41
-4.1882618411
 42
-3.3155972151
  0
ELLIPSE
  5
3F3
100
AcDbEntity
  8
RACCORDO
100
AcDbEllipse
 62
7
  6
CONTINUOUS
 10
96.8668868864
 20
-53.7097423424
 30
0.0
 11
1.0003577403
 21
-0.0
 31
0.0
 40
0.9844555736
 41
-1.5707963268
 42
-0.022434846
  0
ELLIPSE
  5
3F4
100
AcDbEntity
  8
RACCORDO
100
AcDbEllipse
 62
7
  6
CONTINUOUS
 10
-98.7070154201
 20
-53.7097423424
 30
0.0
 11
1.0003577403
 21
0.0
 31
0.0
 40
0.9844555736
 41
-3.1191578076
 42
-1.5707963268
  0
ELLIPSE
  5
3F5
100
AcDbEntity
  8
RACCORDO
100
AcDbEllipse
 62
7
  6
CONTINUOUS
 10
96.3586923448
 20
33.6042226691
 30
0.0
 11
1.000602865
 21
0.0042216572
 31
0.0
 40
0.8660209074
 41
-0.0036538243
 42
1.5659245273
  0
ELLIPSE
  5
3F6
100
AcDbEntity
  8
RACCORDO
100
AcDbEllipse
 62
7
  6
CONTINUOUS
 10
-98.1988208785
 20
33.6042226691
 30
0.0
 11
1.000602865
 21
-0.0042216572
 31
0.0
 40
0.8660209074
 41
1.5756681263
 42
3.1452464779
  0
ELLIPSE
  5
3F7
100
AcDbEntity
  8
RACCORDO
100
AcDbEllipse
 62
7
  6
CONTINUOUS
 10
-96.3700642669
 20
-51.903671956
 30
0.0
 11
-0.0
 21
-0.5077133059
 31
0.0
 40
0.984807753
 41
-1.5707963268
 42
0.0
  0
ELLIPSE
  5
3F8
100
AcDbEntity
  8
RACCORDO
100
AcDbEllipse
 62
7
  6
CONTINUOUS
 10
94.5299357331
 20
-51.903671956
 30
0.0
 11
0.0
 21
0.5077133059
 31
0.0
 40
0.984807753
 41
3.1415926536
 42
4.7123889804
  0
ELLIPSE
  5
3F9
100
AcDbEntity
  8
RACCORDO
100
AcDbEllipse
 62
7
  6
CONTINUOUS
 10
-96.6200642669
 20
32.2368473669
 30
0.0
 11
0.25
 21
0.0
 31
0.0
 40
0.8665532846
 41
7.853981634
 42
9.4247779608
  0
ELLIPSE
  5
3FA
100
AcDbEntity
  8
RACCORDO
100
AcDbEllipse
 62
7
  6
CONTINUOUS
 10
94.7799357331
 20
32.2368473669
 30
0.0
 11
0.25
 21
-0.0
 31
0.0
 40
0.8665532846
 41
6.2831853072
 42
7.853981634
  0
ELLIPSE
  5
3FB
100
AcDbEntity
  8
0
100
AcDbEllipse
 62
7
  6
CONTINUOUS
 10
15.0254997331
 20
-33.0718561117
 30
0.0
 11
1.0951
 21
-0.0
 31
0.0
 40
0.8660254038
 41
-1.5707667059
 42
1.5708050474
  0
ELLIPSE
  5
3FC
100
AcDbEntity
  8
0
100
AcDbEllipse
 62
7
  6
CONTINUOUS
 10
8.1133097331
 20
27.2868490389
 30
0.0
 11
1.610238
 21
-0.0
 31
0.0
 40
0.8660254038
 41
1.5755116021
 42
2.8796148261
  0
ELLIPSE
  5
3FD
100
AcDbEntity
  8
RACCORDO
100
AcDbEllipse
 62
7
  6
CONTINUOUS
 10
91.4706645004
 20
-46.6502119158
 30
0.0
 11
1.0001571546
 21
-0.0005601904
 31
0.0
 40
0.1762983847
 41
-1.5676193236
 42
-0.0270514509
  0
ELLIPSE
  5
3FE
100
AcDbEntity
  8
RACCORDO
100
AcDbEllipse
 62
7
  6
CONTINUOUS
 10
-93.3107930341
 20
-46.6502119158
 30
0.0
 11
1.0001571546
 21
0.0005601904
 31
0.0
 40
0.1762983847
 41
-3.1145412026
 42
-1.57397333
  0
ELLIPSE
  5
3FF
100
AcDbEntity
  8
DRAFT
100
AcDbEllipse
 62
7
  6
CONTINUOUS
 10
-94.4835546482
 20
-31.4012707483
 30
0.0
 11
0.2184545153
 21
12.4999982552
 31
0.0
 40
0.0302330481
 41
2.0949234661
 42
2.9675880921
  0
ELLIPSE
  5
400
100
AcDbEntity
  8
DRAFT
100
AcDbEllipse
 62
7
  6
CONTINUOUS
 10
92.6434261145
 20
-31.4012707483
 30
0.0
 11
-0.2184545153
 21
12.4999982552
 31
0.0
 40
0.0302330481
 41
3.3155972151
 42
4.1882618411
  0
ENDSEC
  0
SECTION
  2
OBJECTS
  0
DICTIONARY
  5
C
100
AcDbDictionary
280
0
281
1
  3
ACAD_GROUP
350
D
  3
ACAD_MLINESTYLE
350
17
  3
ACAD_LAYOUT
350
1A
  3
ACAD_PLOTSETTINGS
350
19
  3
ACAD_PLOTSTYLENAME
350
E
  0
DICTIONARY
  5
D
102
{ACAD_REACTORS
330
C
102
}
100
AcDbDictionary
280
0
281
1
  0
ACDBDICTIONARYWDFLT
  5
E
102
{ACAD_REACTORS
330
C
102
}
100
AcDbDictionary
281
1
  3
Normal
350
F
100
AcDbDictionaryWithDefault
340
F
  0
DICTIONARY
  5
17
102
{ACAD_REACTORS
330
C
102
}
100
AcDbDictionary
280
0
281
1
  3
Standard
350
18
  0
DICTIONARY
  5
19
102
{ACAD_REACTORS
330
C
102
}
100
AcDbDictionary
281
1
  0
DICTIONARY
  5
1A
102
{ACAD_REACTORS
330
C
102
}
100
AcDbDictionary
281
1
  3
Model
350
401
  3
Layout1
350
402
  0
ACDBPLACEHOLDER
  5
F
102
{ACAD_REACTORS
330
E
102
}
  0
MLINESTYLE
  5
18
102
{ACAD_REACTORS
330
17
102
}
100
AcDbMlineStyle
  2
STANDARD
 70
0
  3

 62
256
 51
90.0
 52
90.0
 71
2
 49
0.5
 62
256
  6
BYLAYER
 49
-0.5
 62
256
  6
BYLAYER
  0
LAYOUT
  5
401
102
{ACAD_REACTORS
330
1A
102
}
100
AcDbPlotSettings
  1

  2
none_device
  4
ISO_A4_(297.00_x_210.00_MM)
  6

 40
0.0
 41
0.0
 42
0.0
 43
0.0
 44
297.0
 45
210.0
 46
0.0
 47
0.0
 48
0.0
 49
0.0
140
0.0
141
0.0
142
1.0
143
1.0
 70
1024
 72
1
 73
0
 74
0
  7

 75
0
147
1.0
148
0.0
149
0.0
100
AcDbLayout
  1
Model
 70
0
 71
0
 10
0.0
 20
0.0
 11
297.0
 21
210.0
 12
0.0
 22
0.0
 32
0.0
 14
0.0
 24
0.0
 34
0.0
 15
0.0
 25
0.0
 35
0.0
146
0.0
 13
0.0
 23
0.0
 33
0.0
 16
1.0
 26
0.0
 36
0.0
 17
0.0
 27
1.0
 37
0.0
 76
0
330
211
345
0
346
0
  0
LAYOUT
  5
402
102
{ACAD_REACTORS
330
1A
102
}
100
AcDbPlotSettings
  1

  2
none_device
  4
ISO_A4_(297.00_x_210.00_MM)
  6

 40
0.0
 41
0.0
 42
0.0
 43
0.0
 44
297.0
 45
210.0
 46
0.0
 47
0.0
 48
0.0
 49
0.0
140
0.0
141
0.0
142
1.0
143
1.0
 70
0
 72
1
 73
0
 74
0
  7

 75
0
147
1.0
148
0.0
149
0.0
100
AcDbLayout
  1
Layout1
 70
0
 71
1
 10
0.0
 20
0.0
 11
297.0
 21
210.0
 12
0.0
 22
0.0
 32
0.0
 14
0.0
 24
0.0
 34
0.0
 15
0.0
 25
0.0
 35
0.0
146
0.0
 13
0.0
 23
0.0
 33
0.0
 16
1.0
 26
0.0
 36
0.0
 17
0.0
 27
1.0
 37
0.0
 76
0
330
212
345
0
346
0
  0
ENDSEC
  0
EOF
