  0
SECTION
  2
HEADER
  9
$ACADVER
  1
AC1015
  9
$DWGCODEPAGE
  3
ANSI_1252
  9
$EXTMAX
 10
297.0
 20
210.0
 30
0.0
  9
$EXTMIN
 10
0.0
 20
0.0
 30
0.0
  9
$LIMMIN
 10
0.0
 20
0.0
  9
$LIMMAX
 10
297.0
 20
210.0
  9
$VIEWCTR
 10
148.5
 20
105.0
  9
$VIEWSIZE
 40
210.0
  9
$CLAYER
  8
0
  9
$LTSCALE
 40
16.335
  9
$CELTYPE
  6
BYLAYER
  9
$DIMSCALE
 40
1.0
  9
$DIMASZ
 40
3.0
  9
$DIMEXO
 40
1.85625
  9
$DIMDLI
 40
11.286
  9
$DIMEXE
 40
5.346
  9
$DIMCEN
 40
2.673
  9
$DIMLFAC
 40
1.0
  9
$DIMBLK
  1
_FILLED
  9
$DIMTXT
 40
3.0
  9
$DIMTOL
 70
1
  9
$DIMLIM
 70
0
  9
$DIMTFAC
 40
1.0
  9
$DIMTP
 40
0.01
  9
$DIMTM
 40
0.01
  9
$PDMODE
 70
3
  9
$PDSIZE
 40
3.0
  9
$HANDSEED
  5
494
  9
$TILEMODE
 70
1
  9
$MEASUREMENT
 70
1
  9
$INSUNITS
 70
4
  0
ENDSEC
  0
SECTION
  2
CLASSES
  0
CLASS
  1
ACDBDICTIONARYWDFLT
  2
AcDbDictionaryWithDefault
  3
AutoCAD 2000
 90
0
280
0
281
0
  0
CLASS
  1
ACDBPLACEHOLDER
  2
AcDbPlaceHolder
  3
AutoCAD 2000
 90
0
280
0
281
0
  0
CLASS
  1
LAYOUT
  2
AcDbLayout
  3
AutoCAD 2000
 90
0
280
0
281
0
  0
ENDSEC
  0
SECTION
  2
TABLES
  0
TABLE
  2
VPORT
  5
8
100
AcDbSymbolTable
 70
2
  0
VPORT
  5
1F4
100
AcDbSymbolTableRecord
100
AcDbViewportTableRecord
  2
*ACTIVE
 70
0
 10
0.0
 20
0.0
 11
1.0
 21
1.0
 12
148.5
 22
105.0
 13
0.0
 23
0.0
 14
1.0
 24
1.0
 15
0.0
 25
0.0
 16
0.0
 26
0.0
 36
1.0
 17
0.0
 27
0.0
 37
0.0
 40
210.0
 41
1.4142857143
 42
50.0
 43
0.0
 44
0.0
 50
0.0
 51
0.0
 71
0
 72
100
 73
1
 74
1
 75
0
 76
0
 77
0
 78
0
  0
ENDTAB
  0
TABLE
  2
LTYPE
  5
5
100
AcDbSymbolTable
 70
6
  0
LTYPE
  5
14
100
AcDbSymbolTableRecord
100
AcDbLinetypeTableRecord
  2
BYBLOCK
 70
0
  3

 72
65
 73
0
 40
0.0
  0
LTYPE
  5
15
100
AcDbSymbolTableRecord
100
AcDbLinetypeTableRecord
  2
BYLAYER
 70
0
  3

 72
65
 73
0
 40
0.0
  0
LTYPE
  5
16
100
AcDbSymbolTableRecord
100
AcDbLinetypeTableRecord
  2
CONTINUOUS
 70
64
  3
Solid line
 72
65
 73
0
 40
0.0
  0
LTYPE
  5
1F5
100
AcDbSymbolTableRecord
100
AcDbLinetypeTableRecord
  2
CENTER
 70
64
  3
____ _ ____ _ ____ _ ____ _ ____ _ ____ _ ____
 72
65
 73
4
 40
0.6
 49
0.375
 74
0
 49
-0.075
 74
0
 49
0.075
 74
0
 49
-0.075
 74
0
  0
LTYPE
  5
1F6
100
AcDbSymbolTableRecord
100
AcDbLinetypeTableRecord
  2
HIDDEN
 70
64
  3
- - - - - - - - - - - - - - - - - - - -
 72
65
 73
2
 40
0.2
 49
0.1
 74
0
 49
-0.1
 74
0
  0
LTYPE
  5
1F7
100
AcDbSymbolTableRecord
100
AcDbLinetypeTableRecord
  2
PHANTOM
 70
64
  3
_____ _ _ _____ _ _ _____ _ _ _____
 72
65
 73
6
 40
0.8
 49
0.45
 74
0
 49
-0.05
 74
0
 49
0.1
 74
0
 49
-0.05
 74
0
 49
0.1
 74
0
 49
-0.05
 74
0
  0
LTYPE
  5
1F8
100
AcDbSymbolTableRecord
100
AcDbLinetypeTableRecord
  2
DOT
 70
64
  3
. . . . . . . . . . . . . . . . . . . .
 72
65
 73
2
 40
0.2
 49
0.1
 74
0
 49
-0.1
 74
0
  0
LTYPE
  5
1F9
100
AcDbSymbolTableRecord
100
AcDbLinetypeTableRecord
  2
DASHED
 70
64
  3
- - - - - - - - - - - - - - - - - - - -
 72
65
 73
2
 40
0.2
 49
0.1
 74
0
 49
-0.1
 74
0
  0
ENDTAB
  0
TABLE
  2
LAYER
  5
2
100
AcDbSymbolTable
 70
36
  0
LAYER
  5
10
100
AcDbSymbolTableRecord
100
AcDbLayerTableRecord
  2
0
 70
0
 62
7
  6
CONTINUOUS
370
-3
390
F
  0
LAYER
  5
1FA
100
AcDbSymbolTableRecord
100
AcDbLayerTableRecord
  2
DEFAULT_1
 70
0
 62
7
  6
CENTER
370
-3
390
F
  0
LAYER
  5
1FB
100
AcDbSymbolTableRecord
100
AcDbLayerTableRecord
  2
DEFAULT_2
 70
0
 62
7
  6
HIDDEN
370
-3
390
F
  0
LAYER
  5
1FC
100
AcDbSymbolTableRecord
100
AcDbLayerTableRecord
  2
DEFAULT_3
 70
0
 62
7
  6
PHANTOM
370
-3
390
F
  0
LAYER
  5
1FD
100
AcDbSymbolTableRecord
100
AcDbLayerTableRecord
  2
ASSI
 70
0
 62
7
  6
CONTINUOUS
370
-3
390
F
  0
LAYER
  5
1FE
100
AcDbSymbolTableRecord
100
AcDbLayerTableRecord
  2
COORDINATE
 70
0
 62
7
  6
CONTINUOUS
370
-3
390
F
  0
LAYER
  5
1FF
100
AcDbSymbolTableRecord
100
AcDbLayerTableRecord
  2
COORD_ORIGINE
 70
0
 62
7
  6
CONTINUOUS
370
-3
390
F
  0
LAYER
  5
200
100
AcDbSymbolTableRecord
100
AcDbLayerTableRecord
  2
COPY_PUBLISH
 70
0
 62
7
  6
CONTINUOUS
370
-3
390
F
  0
LAYER
  5
201
100
AcDbSymbolTableRecord
100
AcDbLayerTableRecord
  2
COSMETIC
 70
0
 62
7
  6
CONTINUOUS
370
-3
390
F
  0
LAYER
  5
202
100
AcDbSymbolTableRecord
100
AcDbLayerTableRecord
  2
CURVE
 70
0
 62
7
  6
CONTINUOUS
370
-3
390
F
  0
LAYER
  5
203
100
AcDbSymbolTableRecord
100
AcDbLayerTableRecord
  2
DRAFT
 70
0
 62
7
  6
CONTINUOUS
370
-3
390
F
  0
LAYER
  5
204
100
AcDbSymbolTableRecord
100
AcDbLayerTableRecord
  2
IGES
 70
0
 62
7
  6
CONTINUOUS
370
-3
390
F
  0
LAYER
  5
205
100
AcDbSymbolTableRecord
100
AcDbLayerTableRecord
  2
IMPORT_IGES
 70
0
 62
7
  6
CONTINUOUS
370
-3
390
F
  0
LAYER
  5
206
100
AcDbSymbolTableRecord
100
AcDbLayerTableRecord
  2
NOTE
 70
0
 62
7
  6
CONTINUOUS
370
-3
390
F
  0
LAYER
  5
207
100
AcDbSymbolTableRecord
100
AcDbLayerTableRecord
  2
PIANI
 70
0
 62
7
  6
CONTINUOUS
370
-3
390
F
  0
LAYER
  5
208
100
AcDbSymbolTableRecord
100
AcDbLayerTableRecord
  2
PIANI_ORIGINE
 70
0
 62
7
  6
CONTINUOUS
370
-3
390
F
  0
LAYER
  5
209
100
AcDbSymbolTableRecord
100
AcDbLayerTableRecord
  2
RACCORDO
 70
0
 62
7
  6
CONTINUOUS
370
-3
390
F
  0
LAYER
  5
20A
100
AcDbSymbolTableRecord
100
AcDbLayerTableRecord
  2
SMUSSO
 70
0
 62
7
  6
CONTINUOUS
370
-3
390
F
  0
LAYER
  5
20B
100
AcDbSymbolTableRecord
100
AcDbLayerTableRecord
  2
SNAPLINE
 70
0
 62
7
  6
CONTINUOUS
370
-3
390
F
  0
LAYER
  5
20C
100
AcDbSymbolTableRecord
100
AcDbLayerTableRecord
  2
SUPERFICI
 70
0
 62
7
  6
CONTINUOUS
370
-3
390
F
  0
LAYER
  5
20D
100
AcDbSymbolTableRecord
100
AcDbLayerTableRecord
  2
TRASH
 70
0
 62
7
  6
CONTINUOUS
370
-3
390
F
  0
ENDTAB
  0
TABLE
  2
STYLE
  5
3
100
AcDbSymbolTable
 70
1
  0
STYLE
  5
11
100
AcDbSymbolTableRecord
100
AcDbTextStyleTableRecord
  2
STANDARD
 70
0
 40
0.0
 41
0.8
 50
0.0
 71
0
 42
0.2
  3
txt
  4

  0
STYLE
  5
20E
100
AcDbSymbolTableRecord
100
AcDbTextStyleTableRecord
  2
TEXTSTYLE_1
 70
0
 40
0.0
 41
0.8
 50
0.0
 71
0
 42
0.2
  3
gdt
  4

  0
ENDTAB
  0
TABLE
  2
VIEW
  5
6
100
AcDbSymbolTable
 70
0
  0
ENDTAB
  0
TABLE
  2
UCS
  5
7
100
AcDbSymbolTable
 70
0
  0
ENDTAB
  0
TABLE
  2
APPID
  5
9
100
AcDbSymbolTable
 70
1
  0
APPID
  5
20F
100
AcDbSymbolTableRecord
100
AcDbRegAppTableRecord
  2
ACAD
 70
0
  0
ENDTAB
  0
TABLE
  2
BLOCK_RECORD
  5
1
100
AcDbSymbolTable
 70
0
  0
BLOCK_RECORD
  5
210
100
AcDbSymbolTableRecord
100
AcDbBlockTableRecord
  2
*Model_Space
  0
BLOCK_RECORD
  5
211
100
AcDbSymbolTableRecord
100
AcDbBlockTableRecord
  2
*Paper_Space
  0
ENDTAB
  0
TABLE
  2
DIMSTYLE
  5
A
100
AcDbSymbolTable
 70
1
100
AcDbDimStyleTable
 71
0
  0
DIMSTYLE
105
212
100
AcDbSymbolTableRecord
100
AcDbDimStyleTableRecord
  2
STANDARD
 70
0
  3

  4

 40
1.0
 41
3.0
 42
0.0625
 43
0.38
 44
0.18
 45
0.0
 46
0.0
 47
0.01
 48
0.01
140
3.0
141
0.09
142
0.0
143
25.4
144
1.0
145
0.0
146
1.0
147
0.09
 71
1.0
 72
0.0
 73
0
 74
0
 75
0
 76
0
 77
1
 78
8
170
0
171
2
172
0
173
0
174
0
175
0
176
0
177
0
178
0
270
2
271
2
272
2
273
2
274
2
275
0
280
0
281
0
282
0
283
1
284
8
285
0
286
0
287
3
288
0
340
11
  0
ENDTAB
  0
ENDSEC
  0
SECTION
  2
BLOCKS
  0
BLOCK
  5
20
100
AcDbEntity
  8
0
100
AcDbBlockBegin
  2
*Model_Space
 70
0
 10
0.0
 20
0.0
 30
0.0
  3
*Model_Space
  1

  0
ENDBLK
  5
21
100
AcDbEntity
  8
0
100
AcDbBlockEnd
  0
BLOCK
  5
1C
100
AcDbEntity
  8
0
100
AcDbBlockBegin
  2
*Paper_Space
 70
0
 10
0.0
 20
0.0
 30
0.0
  3
*Paper_Space
  1

  0
ENDBLK
  5
1D
100
AcDbEntity
  8
0
100
AcDbBlockEnd
  0
ENDSEC
  0
SECTION
  2
ENTITIES
  0
LINE
  5
213
100
AcDbEntity
  8
RACCORDO
100
AcDbLine
 62
7
  6
CONTINUOUS
 10
-11.2635764447
 20
7.9350221067
 11
-11.2617395483
 21
7.936859003
  0
LINE
  5
214
100
AcDbEntity
  8
RACCORDO
100
AcDbLine
 62
7
  6
CONTINUOUS
 10
-12.3500833669
 20
-9.0489132041
 11
-12.3635764447
 21
-1.6941391092
  0
LINE
  5
215
100
AcDbEntity
  8
DRAFT
100
AcDbLine
 62
7
  6
CONTINUOUS
 10
-12.3635764447
 20
7.9350221067
 11
-12.3635764447
 21
-1.6941391092
  0
LINE
  5
216
100
AcDbEntity
  8
RACCORDO
100
AcDbLine
 62
7
  6
CONTINUOUS
 10
-12.3565944187
 20
8.2368133116
 11
-12.3565944187
 21
8.9374253777
  0
LINE
  5
217
100
AcDbEntity
  8
RACCORDO
100
AcDbLine
 62
7
  6
CONTINUOUS
 10
-11.2391393538
 20
-6.7707205427
 11
-11.192101706
 21
-6.8177581906
  0
LINE
  5
218
100
AcDbEntity
  8
DRAFT
100
AcDbLine
 62
7
  6
CONTINUOUS
 10
-11.2590688588
 20
-4.1511230867
 11
-11.2496251893
 21
-9.2986555761
  0
LINE
  5
219
100
AcDbEntity
  8
DRAFT
100
AcDbLine
 62
7
  6
CONTINUOUS
 10
-11.5590688588
 20
-4.1511230867
 11
-11.5635764447
 21
-1.6556306726
  0
LINE
  5
21A
100
AcDbEntity
  8
DRAFT
100
AcDbLine
 62
7
  6
CONTINUOUS
 10
-11.2635764447
 20
7.9350221067
 11
-11.2635764447
 21
-1.6556306726
  0
LINE
  5
21B
100
AcDbEntity
  8
RACCORDO
100
AcDbLine
 62
7
  6
CONTINUOUS
 10
-11.2565944187
 20
8.2368133116
 11
-11.2565944187
 21
8.0467345222
  0
LINE
  5
21C
100
AcDbEntity
  8
RACCORDO
100
AcDbLine
 62
7
  6
CONTINUOUS
 10
-11.2496123927
 20
-9.2986523772
 11
-11.2496123927
 21
-7.9108643035
  0
LINE
  5
21D
100
AcDbEntity
  8
DRAFT
100
AcDbLine
 62
7
  6
CONTINUOUS
 10
-11.2461213798
 20
-1.0475228284
 11
-11.2461213798
 21
-1.6730857375
  0
LINE
  5
21E
100
AcDbEntity
  8
DRAFT
100
AcDbLine
 62
7
  6
CONTINUOUS
 10
-11.2461213798
 20
-4.1381756077
 11
-11.2461213798
 21
-4.7637385168
  0
LINE
  5
21F
100
AcDbEntity
  8
DRAFT
100
AcDbLine
 62
7
  6
CONTINUOUS
 10
-11.2391393538
 20
1.7594591976
 11
-11.2391393538
 21
1.1292794573
  0
LINE
  5
220
100
AcDbEntity
  8
DRAFT
100
AcDbLine
 62
7
  6
CONTINUOUS
 10
-11.2391393538
 20
-6.1405408024
 11
-11.2391393538
 21
-6.7707205427
  0
LINE
  5
221
100
AcDbEntity
  8
RACCORDO
100
AcDbLine
 62
7
  6
CONTINUOUS
 10
-9.8963033965
 20
-6.8229037207
 11
-9.9433414449
 21
-6.7758656723
  0
LINE
  5
222
100
AcDbEntity
  8
RACCORDO
100
AcDbLine
 62
7
  6
CONTINUOUS
 10
-11.2461213798
 20
-4.7637385168
 11
-11.1908473589
 21
-4.8190125377
  0
LINE
  5
223
100
AcDbEntity
  8
DRAFT
100
AcDbLine
 62
7
  6
CONTINUOUS
 10
-10.4810315096
 20
-4.1381756077
 11
-10.4810315096
 21
-1.6730857375
  0
LINE
  5
224
100
AcDbEntity
  8
RACCORDO
100
AcDbLine
 62
253
  6
CONTINUOUS
 10
-10.2432957535
 20
-6.7707205427
 11
-10.2432957535
 21
-6.1405408024
  0
LINE
  5
225
100
AcDbEntity
  8
RACCORDO
100
AcDbLine
 62
253
  6
CONTINUOUS
 10
-10.2432957535
 20
1.1292794573
 11
-10.2432957535
 21
1.7594591976
  0
LINE
  5
226
100
AcDbEntity
  8
DRAFT
100
AcDbLine
 62
7
  6
CONTINUOUS
 10
-10.2135764447
 20
-4.7637385168
 11
-10.2135764447
 21
-1.0475228284
  0
LINE
  5
227
100
AcDbEntity
  8
RACCORDO
100
AcDbLine
 62
253
  6
CONTINUOUS
 10
-10.8879099334
 20
1.8158786014
 11
-10.8867692996
 21
7.9717186115
  0
LINE
  5
228
100
AcDbEntity
  8
RACCORDO
100
AcDbLine
 62
253
  6
CONTINUOUS
 10
-10.8889455583
 20
-0.9851577572
 11
-10.8881530698
 21
1.0731033622
  0
LINE
  5
229
100
AcDbEntity
  8
RACCORDO
100
AcDbLine
 62
253
  6
CONTINUOUS
 10
-10.8916632216
 20
-6.0878773468
 11
-10.8908901649
 21
-4.8241576036
  0
LINE
  5
22A
100
AcDbEntity
  8
RACCORDO
100
AcDbLine
 62
253
  6
CONTINUOUS
 10
-10.8924978099
 20
-7.3452970674
 11
-10.8921431597
 21
-6.8229037212
  0
LINE
  5
22B
100
AcDbEntity
  8
RACCORDO
100
AcDbLine
 62
253
  6
CONTINUOUS
 10
-11.2496123927
 20
-7.9108643035
 11
-11.1924521185
 21
-7.3334445912
  0
LINE
  5
22C
100
AcDbEntity
  8
RACCORDO
100
AcDbLine
 62
7
  6
CONTINUOUS
 10
-7.6187215743
 20
7.9892241978
 11
-7.6362271606
 21
7.9717186115
  0
LINE
  5
22D
100
AcDbEntity
  8
DRAFT
100
AcDbLine
 62
7
  6
CONTINUOUS
 10
-10.4810315096
 20
-4.1381756077
 11
-10.5418767946
 21
-4.0773303226
  0
LINE
  5
22E
100
AcDbEntity
  8
DRAFT
100
AcDbLine
 62
7
  6
CONTINUOUS
 10
-9.9635764447
 20
-0.9851577574
 11
-9.9635764447
 21
-1.0216729227
  0
LINE
  5
22F
100
AcDbEntity
  8
DRAFT
100
AcDbLine
 62
7
  6
CONTINUOUS
 10
-9.9635764447
 20
-4.7895884225
 11
-9.9635764447
 21
-4.8241576033
  0
LINE
  5
230
100
AcDbEntity
  8
RACCORDO
100
AcDbLine
 62
253
  6
CONTINUOUS
 10
-9.9433414449
 20
-6.7758656723
 11
-9.9433414449
 21
-6.1353956728
  0
LINE
  5
231
100
AcDbEntity
  8
RACCORDO
100
AcDbLine
 62
253
  6
CONTINUOUS
 10
-9.9433414449
 20
1.1241343277
 11
-9.9433414449
 21
1.7646043272
  0
LINE
  5
232
100
AcDbEntity
  8
DRAFT
100
AcDbLine
 62
7
  6
CONTINUOUS
 10
-9.5635764447
 20
-4.7855573479
 11
-9.5635764447
 21
-1.0257039972
  0
LINE
  5
233
100
AcDbEntity
  8
RACCORDO
100
AcDbLine
 62
253
  6
CONTINUOUS
 10
-10.9504760064
 20
-8.214569088
 11
-10.8924978086
 21
-7.6288869036
  0
LINE
  5
234
100
AcDbEntity
  8
RACCORDO
100
AcDbLine
 62
7
  6
CONTINUOUS
 10
-11.1878675272
 20
1.8107310241
 11
-11.2391393538
 21
1.7594591976
  0
LINE
  5
235
100
AcDbEntity
  8
RACCORDO
100
AcDbLine
 62
7
  6
CONTINUOUS
 10
11.9724722984
 20
-9.2986555761
 11
11.1224722999
 21
-9.2986555761
  0
LINE
  5
236
100
AcDbEntity
  8
RACCORDO
100
AcDbLine
 62
7
  6
CONTINUOUS
 10
-11.2496251893
 20
-9.2986555761
 11
-12.0996251878
 21
-9.2986555761
  0
LINE
  5
237
100
AcDbEntity
  8
DRAFT
100
AcDbLine
 62
7
  6
CONTINUOUS
 10
-11.2496219901
 20
-9.2986539767
 11
11.1224691008
 21
-9.2986539767
  0
LINE
  5
238
100
AcDbEntity
  8
DRAFT
100
AcDbLine
 62
7
  6
CONTINUOUS
 10
-11.5635764447
 20
-1.6556306726
 11
-11.4840886866
 21
-1.7351184306
  0
LINE
  5
239
100
AcDbEntity
  8
DRAFT
100
AcDbLine
 62
7
  6
CONTINUOUS
 10
-8.5760424353
 20
9.1873873014
 11
-8.5760424353
 21
8.0467345222
  0
LINE
  5
23A
100
AcDbEntity
  8
DRAFT
100
AcDbLine
 62
7
  6
CONTINUOUS
 10
-8.3135764447
 20
9.1350221067
 11
-8.3135764447
 21
7.9943693274
  0
LINE
  5
23B
100
AcDbEntity
  8
RACCORDO
100
AcDbLine
 62
7
  6
CONTINUOUS
 10
-9.8920671709
 20
1.8158786013
 11
-9.9433414449
 21
1.7646043272
  0
LINE
  5
23C
100
AcDbEntity
  8
RACCORDO
100
AcDbLine
 62
7
  6
CONTINUOUS
 10
-10.9504760064
 20
-8.214569088
 11
10.823323117
 21
-8.214569088
  0
LINE
  5
23D
100
AcDbEntity
  8
DRAFT
100
AcDbLine
 62
7
  6
CONTINUOUS
 10
-11.2635764447
 20
-1.6556306726
 11
-11.2461213798
 21
-1.6730857375
  0
LINE
  5
23E
100
AcDbEntity
  8
RACCORDO
100
AcDbLine
 62
253
  6
CONTINUOUS
 10
-6.0984718722
 20
-6.5706895536
 11
-6.0687215743
 21
-6.6004398515
  0
LINE
  5
23F
100
AcDbEntity
  8
RACCORDO
100
AcDbLine
 62
253
  6
CONTINUOUS
 10
-5.7987132556
 20
-6.2705395531
 11
-5.7687672327
 21
-6.3004855761
  0
LINE
  5
240
100
AcDbEntity
  8
RACCORDO
100
AcDbLine
 62
253
  6
CONTINUOUS
 10
-7.6022890034
 20
5.1286839025
 11
-7.6146315982
 21
5.8357906837
  0
LINE
  5
241
100
AcDbEntity
  8
RACCORDO
100
AcDbLine
 62
253
  6
CONTINUOUS
 10
-7.3023346949
 20
5.3408159368
 11
-7.3146772896
 21
6.047922718
  0
LINE
  5
242
100
AcDbEntity
  8
RACCORDO
100
AcDbLine
 62
253
  6
CONTINUOUS
 10
-7.6187215743
 20
6.4014761086
 11
-7.6187215743
 21
7.9892241978
  0
LINE
  5
243
100
AcDbEntity
  8
RACCORDO
100
AcDbLine
 62
253
  6
CONTINUOUS
 10
-7.6012665094
 20
3.6031730239
 11
-7.6012665094
 21
4.9872625462
  0
LINE
  5
244
100
AcDbEntity
  8
RACCORDO
100
AcDbLine
 62
253
  6
CONTINUOUS
 10
-7.3187672658
 20
6.4014604749
 11
-7.3187672658
 21
7.9943693274
  0
LINE
  5
245
100
AcDbEntity
  8
RACCORDO
100
AcDbLine
 62
253
  6
CONTINUOUS
 10
-7.3013122008
 20
3.6031730239
 11
-7.3013122008
 21
4.9872625462
  0
LINE
  5
246
100
AcDbEntity
  8
RACCORDO
100
AcDbLine
 62
253
  6
CONTINUOUS
 10
-7.1258406885
 20
4.9872625462
 11
-7.1258406885
 21
3.6031730239
  0
LINE
  5
247
100
AcDbEntity
  8
RACCORDO
100
AcDbLine
 62
253
  6
CONTINUOUS
 10
-7.1083856236
 20
7.9943693274
 11
-7.1083856236
 21
6.401460772
  0
LINE
  5
248
100
AcDbEntity
  8
RACCORDO
100
AcDbLine
 62
253
  6
CONTINUOUS
 10
-7.1124755997
 20
6.047922718
 11
-7.1248181945
 21
5.3408159368
  0
LINE
  5
249
100
AcDbEntity
  8
RACCORDO
100
AcDbLine
 62
253
  6
CONTINUOUS
 10
-7.6355218255
 20
3.3723782552
 11
-7.6046965958
 21
3.4032034849
  0
LINE
  5
24A
100
AcDbEntity
  8
RACCORDO
100
AcDbLine
 62
253
  6
CONTINUOUS
 10
-7.3354912608
 20
3.0725002028
 11
-7.3047422872
 21
3.1032491763
  0
LINE
  5
24B
100
AcDbEntity
  8
RACCORDO
100
AcDbLine
 62
7
  6
CONTINUOUS
 10
-11.1889052159
 20
-0.9903066645
 11
-11.2461213798
 21
-1.0475228284
  0
LINE
  5
24C
100
AcDbEntity
  8
RACCORDO
100
AcDbLine
 62
7
  6
CONTINUOUS
 10
-5.7687672658
 20
-7.9324459189
 11
-5.5583856236
 21
-7.9324459189
  0
LINE
  5
24D
100
AcDbEntity
  8
RACCORDO
100
AcDbLine
 62
7
  6
CONTINUOUS
 10
5.6416143764
 20
-7.9324459189
 11
5.4312327342
 21
-7.9324459189
  0
LINE
  5
24E
100
AcDbEntity
  8
RACCORDO
100
AcDbLine
 62
253
  6
CONTINUOUS
 10
10.7653449193
 20
-7.6288869036
 11
5.9664736492
 21
-7.6288869036
  0
LINE
  5
24F
100
AcDbEntity
  8
RACCORDO
100
AcDbLine
 62
253
  6
CONTINUOUS
 10
5.1063734614
 20
-7.6288869036
 11
-5.2335263508
 21
-7.6288869036
  0
LINE
  5
250
100
AcDbEntity
  8
RACCORDO
100
AcDbLine
 62
253
  6
CONTINUOUS
 10
-6.0936265386
 20
-7.6288869036
 11
-10.8924978086
 21
-7.6288869036
  0
LINE
  5
251
100
AcDbEntity
  8
RACCORDO
100
AcDbLine
 62
253
  6
CONTINUOUS
 10
10.7653449205
 20
-7.3452970674
 11
5.9707967681
 21
-7.3452970674
  0
LINE
  5
252
100
AcDbEntity
  8
RACCORDO
100
AcDbLine
 62
253
  6
CONTINUOUS
 10
5.1020503425
 20
-7.3452970674
 11
-5.2292032319
 21
-7.3452970674
  0
LINE
  5
253
100
AcDbEntity
  8
RACCORDO
100
AcDbLine
 62
253
  6
CONTINUOUS
 10
-6.0979496575
 20
-7.3452970674
 11
-10.8924978099
 21
-7.3452970674
  0
LINE
  5
254
100
AcDbEntity
  8
RACCORDO
100
AcDbLine
 62
7
  6
CONTINUOUS
 10
-11.2391393538
 20
1.1292794573
 11
-11.1881076347
 21
1.0782477382
  0
LINE
  5
255
100
AcDbEntity
  8
RACCORDO
100
AcDbLine
 62
7
  6
CONTINUOUS
 10
-6.0936265386
 20
-7.6288869036
 11
-6.0687215743
 21
-7.8804710237
  0
LINE
  5
256
100
AcDbEntity
  8
RACCORDO
100
AcDbLine
 62
253
  6
CONTINUOUS
 10
-6.82588638
 20
4.9872625462
 11
-6.82588638
 21
3.6031730239
  0
LINE
  5
257
100
AcDbEntity
  8
RACCORDO
100
AcDbLine
 62
253
  6
CONTINUOUS
 10
-6.8084313151
 20
7.9892241978
 11
-6.8084313151
 21
6.4014761086
  0
LINE
  5
258
100
AcDbEntity
  8
RACCORDO
100
AcDbLine
 62
253
  6
CONTINUOUS
 10
-6.8125212912
 20
5.8357906837
 11
-6.824863886
 21
5.1286839025
  0
LINE
  5
259
100
AcDbEntity
  8
DRAFT
100
AcDbLine
 62
7
  6
CONTINUOUS
 10
-10.4810315096
 20
-1.6730857375
 11
-10.5430642027
 21
-1.7351184306
  0
LINE
  5
25A
100
AcDbEntity
  8
0
100
AcDbLine
 62
7
  6
CONTINUOUS
 10
1.3130192849
 20
-6.3384633561
 11
1.5662107947
 21
-6.3030466726
  0
LINE
  5
25B
100
AcDbEntity
  8
0
100
AcDbLine
 62
7
  6
CONTINUOUS
 10
0.5896150145
 20
-7.0467966726
 11
0.8789767835
 21
-7.0467966726
  0
LINE
  5
25C
100
AcDbEntity
  8
0
100
AcDbLine
 62
7
  6
CONTINUOUS
 10
0.6257852229
 20
-6.8342966726
 11
2.0364235553
 21
-6.8342966726
  0
LINE
  5
25D
100
AcDbEntity
  8
RACCORDO
100
AcDbLine
 62
7
  6
CONTINUOUS
 10
-10.8921431597
 20
-6.8229037207
 11
-9.8963033965
 21
-6.8229037207
  0
LINE
  5
25E
100
AcDbEntity
  8
RACCORDO
100
AcDbLine
 62
7
  6
CONTINUOUS
 10
9.7691505072
 20
-6.8229037207
 11
10.7649902704
 21
-6.8229037207
  0
LINE
  5
25F
100
AcDbEntity
  8
RACCORDO
100
AcDbLine
 62
7
  6
CONTINUOUS
 10
-11.2391393538
 20
-6.7707205427
 11
-10.2432957535
 21
-6.7707205427
  0
LINE
  5
260
100
AcDbEntity
  8
RACCORDO
100
AcDbLine
 62
7
  6
CONTINUOUS
 10
11.1119864644
 20
-6.7707205427
 11
10.1161428641
 21
-6.7707205427
  0
LINE
  5
261
100
AcDbEntity
  8
0
100
AcDbLine
 62
7
  6
CONTINUOUS
 10
0.3364235553
 20
-6.6217966726
 11
2.0364235553
 21
-6.6217966726
  0
LINE
  5
262
100
AcDbEntity
  8
RACCORDO
100
AcDbLine
 62
253
  6
CONTINUOUS
 10
5.1312784257
 20
-6.6004398515
 11
5.9415686849
 21
-6.6004398515
  0
LINE
  5
263
100
AcDbEntity
  8
RACCORDO
100
AcDbLine
 62
253
  6
CONTINUOUS
 10
-5.2584313151
 20
-6.6004398515
 11
-6.0687215743
 21
-6.6004398515
  0
LINE
  5
264
100
AcDbEntity
  8
0
100
AcDbLine
 62
7
  6
CONTINUOUS
 10
1.0598278257
 20
-6.3384633561
 11
1.3130192849
 21
-6.3384633561
  0
LINE
  5
265
100
AcDbEntity
  8
RACCORDO
100
AcDbLine
 62
253
  6
CONTINUOUS
 10
5.6416143764
 20
-6.300485543
 11
5.4312327471
 21
-6.3004855558
  0
LINE
  5
266
100
AcDbEntity
  8
RACCORDO
100
AcDbLine
 62
253
  6
CONTINUOUS
 10
-5.558385641
 20
-6.3004855603
 11
-5.7687672327
 21
-6.3004855761
  0
LINE
  5
267
100
AcDbEntity
  8
RACCORDO
100
AcDbLine
 62
7
  6
CONTINUOUS
 10
-5.7987132556
 20
-6.2705395531
 11
-5.5284396338
 21
-6.2705395531
  0
LINE
  5
268
100
AcDbEntity
  8
RACCORDO
100
AcDbLine
 62
7
  6
CONTINUOUS
 10
5.4012867444
 20
-6.2705395531
 11
5.6715603662
 21
-6.2705395531
  0
LINE
  5
269
100
AcDbEntity
  8
0
100
AcDbLine
 62
7
  6
CONTINUOUS
 10
1.0598278257
 20
-6.1613800397
 11
1.1321682426
 21
-6.1613800397
  0
LINE
  5
26A
100
AcDbEntity
  8
RACCORDO
100
AcDbLine
 62
7
  6
CONTINUOUS
 10
-11.2391393538
 20
-6.1405408024
 11
-10.2432957535
 21
-6.1405408024
  0
LINE
  5
26B
100
AcDbEntity
  8
RACCORDO
100
AcDbLine
 62
7
  6
CONTINUOUS
 10
11.1119864644
 20
-6.1405408024
 11
10.1161428641
 21
-6.1405408024
  0
LINE
  5
26C
100
AcDbEntity
  8
0
100
AcDbLine
 62
7
  6
CONTINUOUS
 10
1.4215299609
 20
-6.1259633055
 11
1.5300405863
 21
-6.1259633055
  0
LINE
  5
26D
100
AcDbEntity
  8
RACCORDO
100
AcDbLine
 62
7
  6
CONTINUOUS
 10
-10.8916632217
 20
-6.0878773463
 11
-9.8958231184
 21
-6.0878773463
  0
LINE
  5
26E
100
AcDbEntity
  8
RACCORDO
100
AcDbLine
 62
7
  6
CONTINUOUS
 10
9.768670229
 20
-6.0878773463
 11
10.7645103324
 21
-6.0878773463
  0
LINE
  5
26F
100
AcDbEntity
  8
0
100
AcDbLine
 62
7
  6
CONTINUOUS
 10
1.0598278257
 20
-6.3384633561
 11
0.8066363665
 21
-6.3030466726
  0
LINE
  5
270
100
AcDbEntity
  8
0
100
AcDbLine
 62
7
  6
CONTINUOUS
 10
-0.9610704447
 20
-6.3373186726
 11
-2.1311384447
 21
-6.0033966726
  0
LINE
  5
271
100
AcDbEntity
  8
RACCORDO
100
AcDbLine
 62
7
  6
CONTINUOUS
 10
-9.8923104795
 20
1.0731033622
 11
-9.9433414449
 21
1.1241343277
  0
LINE
  5
272
100
AcDbEntity
  8
RACCORDO
100
AcDbLine
 62
253
  6
CONTINUOUS
 10
-6.0687215743
 20
-6.6004398515
 11
-6.0687215743
 21
-7.8804710237
  0
LINE
  5
273
100
AcDbEntity
  8
RACCORDO
100
AcDbLine
 62
253
  6
CONTINUOUS
 10
-5.7687672658
 20
-6.3004855761
 11
-5.7687672658
 21
-7.9324459189
  0
LINE
  5
274
100
AcDbEntity
  8
RACCORDO
100
AcDbLine
 62
253
  6
CONTINUOUS
 10
-5.5583856236
 20
-7.9324459189
 11
-5.5583856236
 21
-6.3004855603
  0
LINE
  5
275
100
AcDbEntity
  8
RACCORDO
100
AcDbLine
 62
253
  6
CONTINUOUS
 10
-5.2584313151
 20
-7.8804710237
 11
-5.2584313151
 21
-6.6004398515
  0
LINE
  5
276
100
AcDbEntity
  8
DRAFT
100
AcDbLine
 62
7
  6
CONTINUOUS
 10
-11.5590688588
 20
-4.1511230867
 11
-11.4852760947
 21
-4.0773303226
  0
LINE
  5
277
100
AcDbEntity
  8
DRAFT
100
AcDbLine
 62
7
  6
CONTINUOUS
 10
-11.2590688588
 20
-4.1511230867
 11
-11.2461213798
 21
-4.1381756077
  0
LINE
  5
278
100
AcDbEntity
  8
0
100
AcDbLine
 62
7
  6
CONTINUOUS
 10
-0.9610704447
 20
-6.3373186726
 11
-2.1311384447
 21
-6.6613436726
  0
LINE
  5
279
100
AcDbEntity
  8
0
100
AcDbLine
 62
7
  6
CONTINUOUS
 10
-0.4312754447
 20
-5.5171326726
 11
-2.1312404447
 21
-5.5171326726
  0
LINE
  5
27A
100
AcDbEntity
  8
0
100
AcDbLine
 62
7
  6
CONTINUOUS
 10
1.4215299609
 20
-5.2405466726
 11
1.5300405863
 21
-5.2405466726
  0
LINE
  5
27B
100
AcDbEntity
  8
0
100
AcDbLine
 62
7
  6
CONTINUOUS
 10
-0.4312754447
 20
-5.1623046726
 11
-2.1312404447
 21
-5.1623046726
  0
LINE
  5
27C
100
AcDbEntity
  8
0
100
AcDbLine
 62
7
  6
CONTINUOUS
 10
1.3853597018
 20
-5.0634634068
 11
1.5662107947
 21
-5.0634634068
  0
LINE
  5
27D
100
AcDbEntity
  8
0
100
AcDbLine
 62
7
  6
CONTINUOUS
 10
1.0598278257
 20
-6.1613800397
 11
0.842806575
 21
-6.1259633055
  0
LINE
  5
27E
100
AcDbEntity
  8
0
100
AcDbLine
 62
7
  6
CONTINUOUS
 10
-0.4312754447
 20
-6.1952146726
 11
-2.1311384447
 21
-5.6488106726
  0
LINE
  5
27F
100
AcDbEntity
  8
0
100
AcDbLine
 62
7
  6
CONTINUOUS
 10
0.842806575
 20
-6.1259633055
 11
0.7342958483
 21
-6.0905466726
  0
LINE
  5
280
100
AcDbEntity
  8
0
100
AcDbLine
 62
7
  6
CONTINUOUS
 10
1.4215299609
 20
-6.1259633055
 11
1.3130192849
 21
-6.0905466726
  0
LINE
  5
281
100
AcDbEntity
  8
0
100
AcDbLine
 62
7
  6
CONTINUOUS
 10
0.8066363665
 20
-6.3030466726
 11
0.6257852229
 21
-6.2322133561
  0
LINE
  5
282
100
AcDbEntity
  8
RACCORDO
100
AcDbLine
 62
7
  6
CONTINUOUS
 10
-5.2335263508
 20
-7.6288869036
 11
-5.2584313151
 21
-7.8804710237
  0
LINE
  5
283
100
AcDbEntity
  8
DRAFT
100
AcDbLine
 62
7
  6
CONTINUOUS
 10
10.0864235553
 20
-4.7637385168
 11
9.4364235553
 21
-4.775084309
  0
LINE
  5
284
100
AcDbEntity
  8
DRAFT
100
AcDbLine
 62
7
  6
CONTINUOUS
 10
-9.9635764447
 20
-4.7895884225
 11
-9.5635764447
 21
-4.7855573479
  0
LINE
  5
285
100
AcDbEntity
  8
RACCORDO
100
AcDbLine
 62
7
  6
CONTINUOUS
 10
-10.8908901649
 20
-4.8241576033
 11
-9.9635764447
 21
-4.8241576033
  0
LINE
  5
286
100
AcDbEntity
  8
RACCORDO
100
AcDbLine
 62
7
  6
CONTINUOUS
 10
9.8364235553
 20
-4.8241576033
 11
10.7637372755
 21
-4.8241576033
  0
LINE
  5
287
100
AcDbEntity
  8
0
100
AcDbLine
 62
7
  6
CONTINUOUS
 10
1.4938703778
 20
-4.7801299384
 11
1.6023810032
 21
-4.7801299384
  0
LINE
  5
288
100
AcDbEntity
  8
DRAFT
100
AcDbLine
 62
7
  6
CONTINUOUS
 10
-11.2461213798
 20
-4.7637385168
 11
-10.2135764447
 21
-4.7637385168
  0
LINE
  5
289
100
AcDbEntity
  8
DRAFT
100
AcDbLine
 62
7
  6
CONTINUOUS
 10
10.0864235553
 20
-4.7637385168
 11
11.1189684904
 21
-4.7637385168
  0
LINE
  5
28A
100
AcDbEntity
  8
0
100
AcDbLine
 62
7
  6
CONTINUOUS
 10
0.7704661581
 20
-4.7447134068
 11
0.8789767835
 21
-4.7447134068
  0
LINE
  5
28B
100
AcDbEntity
  8
0
100
AcDbLine
 62
7
  6
CONTINUOUS
 10
1.4938703778
 20
-4.6030466726
 11
1.6023810032
 21
-4.6030466726
  0
LINE
  5
28C
100
AcDbEntity
  8
0
100
AcDbLine
 62
7
  6
CONTINUOUS
 10
0.7704661581
 20
-4.5676299384
 11
0.842806575
 21
-4.5676299384
  0
LINE
  5
28D
100
AcDbEntity
  8
DRAFT
100
AcDbLine
 62
7
  6
CONTINUOUS
 10
11.4319159694
 20
-4.1511230867
 11
11.1319159694
 21
-4.1511230867
  0
LINE
  5
28E
100
AcDbEntity
  8
DRAFT
100
AcDbLine
 62
7
  6
CONTINUOUS
 10
-11.2590688588
 20
-4.1511230867
 11
-11.5590688588
 21
-4.1511230867
  0
LINE
  5
28F
100
AcDbEntity
  8
DRAFT
100
AcDbLine
 62
7
  6
CONTINUOUS
 10
-11.2461213798
 20
-4.1381756077
 11
-10.4810315096
 21
-4.1381756077
  0
LINE
  5
290
100
AcDbEntity
  8
DRAFT
100
AcDbLine
 62
7
  6
CONTINUOUS
 10
11.1189684904
 20
-4.1381756077
 11
10.3538786202
 21
-4.1381756077
  0
LINE
  5
291
100
AcDbEntity
  8
DRAFT
100
AcDbLine
 62
7
  6
CONTINUOUS
 10
-11.4852760947
 20
-4.0773303226
 11
-10.5418767946
 21
-4.0773303226
  0
LINE
  5
292
100
AcDbEntity
  8
DRAFT
100
AcDbLine
 62
7
  6
CONTINUOUS
 10
10.4147239053
 20
-4.0773303226
 11
11.3581232054
 21
-4.0773303226
  0
LINE
  5
293
100
AcDbEntity
  8
DRAFT
100
AcDbLine
 62
7
  6
CONTINUOUS
 10
9.4364235553
 20
-4.7855573479
 11
9.8364235553
 21
-4.7895884225
  0
LINE
  5
294
100
AcDbEntity
  8
DRAFT
100
AcDbLine
 62
7
  6
CONTINUOUS
 10
-9.5635764447
 20
-4.775084309
 11
-10.2135764447
 21
-4.7637385168
  0
LINE
  5
295
100
AcDbEntity
  8
0
100
AcDbLine
 62
7
  6
CONTINUOUS
 10
-0.4312754447
 20
-4.6318346726
 11
-1.5412544447
 21
-4.5552626726
  0
LINE
  5
296
100
AcDbEntity
  8
0
100
AcDbLine
 62
7
  6
CONTINUOUS
 10
-0.4312754447
 20
-4.9712896726
 11
-2.1311384447
 21
-4.8178026726
  0
LINE
  5
297
100
AcDbEntity
  8
0
100
AcDbLine
 62
7
  6
CONTINUOUS
 10
1.6385512117
 20
-5.2759634068
 11
1.5300405863
 21
-5.2405466726
  0
LINE
  5
298
100
AcDbEntity
  8
0
100
AcDbLine
 62
7
  6
CONTINUOUS
 10
-1.1873694447
 20
-4.1121866726
 11
-2.1311384447
 21
-3.7573586726
  0
LINE
  5
299
100
AcDbEntity
  8
0
100
AcDbLine
 62
7
  6
CONTINUOUS
 10
1.7470618623
 20
-5.1342966726
 11
1.5662107947
 21
-5.0634634068
  0
LINE
  5
29A
100
AcDbEntity
  8
0
100
AcDbLine
 62
7
  6
CONTINUOUS
 10
0.7704661581
 20
-4.7447134068
 11
0.5896150145
 21
-4.6738799384
  0
LINE
  5
29B
100
AcDbEntity
  8
0
100
AcDbLine
 62
7
  6
CONTINUOUS
 10
0.7342958483
 20
-6.0905466726
 11
0.6257852229
 21
-6.0197133055
  0
LINE
  5
29C
100
AcDbEntity
  8
0
100
AcDbLine
 62
7
  6
CONTINUOUS
 10
0.6257852229
 20
-6.2322133561
 11
0.4811043891
 21
-6.1259633055
  0
LINE
  5
29D
100
AcDbEntity
  8
0
100
AcDbLine
 62
7
  6
CONTINUOUS
 10
0.5896150145
 20
-7.0467966726
 11
0.3364235553
 21
-6.8342966726
  0
LINE
  5
29E
100
AcDbEntity
  8
0
100
AcDbLine
 62
7
  6
CONTINUOUS
 10
0.8789767835
 20
-7.0467966726
 11
0.6257852229
 21
-6.8342966726
  0
LINE
  5
29F
100
AcDbEntity
  8
RACCORDO
100
AcDbLine
 62
253
  6
CONTINUOUS
 10
-3.8854219695
 20
3.9909238031
 11
-3.8854219695
 21
5.5978148518
  0
LINE
  5
2A0
100
AcDbEntity
  8
RACCORDO
100
AcDbLine
 62
253
  6
CONTINUOUS
 10
-3.6035141832
 20
3.9943693274
 11
-3.6035141832
 21
5.5943693274
  0
LINE
  5
2A1
100
AcDbEntity
  8
DRAFT
100
AcDbLine
 62
7
  6
CONTINUOUS
 10
-3.1332122051
 20
5.5943693274
 11
-3.1332122051
 21
3.9943693274
  0
LINE
  5
2A2
100
AcDbEntity
  8
DRAFT
100
AcDbLine
 62
7
  6
CONTINUOUS
 10
-3.0635764447
 20
0.7943693274
 11
-3.0635764447
 21
3.985641795
  0
LINE
  5
2A3
100
AcDbEntity
  8
DRAFT
100
AcDbLine
 62
7
  6
CONTINUOUS
 10
-3.0635764447
 20
5.6030968599
 11
-3.0635764447
 21
7.2943693274
  0
LINE
  5
2A4
100
AcDbEntity
  8
DRAFT
100
AcDbLine
 62
7
  6
CONTINUOUS
 10
-3.0310315096
 20
2.3769142625
 11
-3.0310315096
 21
3.985641795
  0
LINE
  5
2A5
100
AcDbEntity
  8
DRAFT
100
AcDbLine
 62
7
  6
CONTINUOUS
 10
-3.0310315096
 20
5.6030968599
 11
-3.0310315096
 21
7.2118243923
  0
LINE
  5
2A6
100
AcDbEntity
  8
RACCORDO
100
AcDbLine
 62
7
  6
CONTINUOUS
 10
-11.1916278202
 20
-6.0930292689
 11
-11.2391393538
 21
-6.1405408024
  0
LINE
  5
2A7
100
AcDbEntity
  8
0
100
AcDbLine
 62
7
  6
CONTINUOUS
 10
-0.4312754447
 20
-3.2473346726
 11
-2.1311384447
 21
-3.4062916726
  0
LINE
  5
2A8
100
AcDbEntity
  8
0
100
AcDbLine
 62
7
  6
CONTINUOUS
 10
-0.4312754447
 20
-3.5944506726
 11
-1.5366274447
 21
-3.6673516726
  0
LINE
  5
2A9
100
AcDbEntity
  8
0
100
AcDbLine
 62
7
  6
CONTINUOUS
 10
0.7704661581
 20
-3.7176299384
 11
0.842806575
 21
-3.7176299384
  0
LINE
  5
2AA
100
AcDbEntity
  8
0
100
AcDbLine
 62
7
  6
CONTINUOUS
 10
1.4938703778
 20
-3.6822134068
 11
1.6023810032
 21
-3.6822134068
  0
LINE
  5
2AB
100
AcDbEntity
  8
0
100
AcDbLine
 62
7
  6
CONTINUOUS
 10
0.7704661581
 20
-3.5405466726
 11
0.8789767835
 21
-3.5405466726
  0
LINE
  5
2AC
100
AcDbEntity
  8
0
100
AcDbLine
 62
7
  6
CONTINUOUS
 10
1.4938703778
 20
-3.505130141
 11
1.6023810032
 21
-3.505130141
  0
LINE
  5
2AD
100
AcDbEntity
  8
0
100
AcDbLine
 62
7
  6
CONTINUOUS
 10
1.3130192849
 20
-3.2217966726
 11
1.5300405863
 21
-3.2217966726
  0
LINE
  5
2AE
100
AcDbEntity
  8
0
100
AcDbLine
 62
7
  6
CONTINUOUS
 10
-0.4312754447
 20
-3.1916176726
 11
-2.1311384447
 21
-2.6584326726
  0
LINE
  5
2AF
100
AcDbEntity
  8
0
100
AcDbLine
 62
7
  6
CONTINUOUS
 10
-0.4312754447
 20
-4.0892426726
 11
-1.5366274447
 21
-3.6673516726
  0
LINE
  5
2B0
100
AcDbEntity
  8
0
100
AcDbLine
 62
7
  6
CONTINUOUS
 10
1.4938703778
 20
-4.7801299384
 11
1.3130192849
 21
-4.7092966726
  0
LINE
  5
2B1
100
AcDbEntity
  8
0
100
AcDbLine
 62
7
  6
CONTINUOUS
 10
1.7470618623
 20
-5.3467966726
 11
1.6385512117
 21
-5.2759634068
  0
LINE
  5
2B2
100
AcDbEntity
  8
0
100
AcDbLine
 62
7
  6
CONTINUOUS
 10
0.7704661581
 20
-4.5676299384
 11
0.6619554314
 21
-4.4967966726
  0
LINE
  5
2B3
100
AcDbEntity
  8
0
100
AcDbLine
 62
7
  6
CONTINUOUS
 10
1.8917427088
 20
-5.2405466726
 11
1.7470618623
 21
-5.1342966726
  0
LINE
  5
2B4
100
AcDbEntity
  8
0
100
AcDbLine
 62
7
  6
CONTINUOUS
 10
1.3130192849
 20
-6.0905466726
 11
1.240678868
 21
-6.0197133055
  0
LINE
  5
2B5
100
AcDbEntity
  8
DRAFT
100
AcDbLine
 62
7
  6
CONTINUOUS
 10
-2.9635764447
 20
5.5985980783
 11
-2.9635764447
 21
3.9901405766
  0
LINE
  5
2B6
100
AcDbEntity
  8
DRAFT
100
AcDbLine
 62
7
  6
CONTINUOUS
 10
-2.5600854317
 20
7.2153154053
 11
-2.5600854317
 21
2.3734232495
  0
LINE
  5
2B7
100
AcDbEntity
  8
0
100
AcDbLine
 62
7
  6
CONTINUOUS
 10
-2.1312404447
 20
-5.5171326726
 11
-2.1312404447
 21
-5.1623046726
  0
LINE
  5
2B8
100
AcDbEntity
  8
0
100
AcDbLine
 62
7
  6
CONTINUOUS
 10
-2.1311384447
 20
-7.0467966726
 11
-2.1311384447
 21
-6.6613436726
  0
LINE
  5
2B9
100
AcDbEntity
  8
0
100
AcDbLine
 62
7
  6
CONTINUOUS
 10
-2.1311384447
 20
-6.0033966726
 11
-2.1311384447
 21
-5.6488106726
  0
LINE
  5
2BA
100
AcDbEntity
  8
0
100
AcDbLine
 62
7
  6
CONTINUOUS
 10
-2.1311384447
 20
-4.8178026726
 11
-2.1311384447
 21
-4.4632676726
  0
LINE
  5
2BB
100
AcDbEntity
  8
0
100
AcDbLine
 62
7
  6
CONTINUOUS
 10
-2.1311384447
 20
-3.7573586726
 11
-2.1311384447
 21
-3.4062916726
  0
LINE
  5
2BC
100
AcDbEntity
  8
0
100
AcDbLine
 62
7
  6
CONTINUOUS
 10
-2.1311384447
 20
-2.6584326726
 11
-2.1311384447
 21
-2.3151786726
  0
LINE
  5
2BD
100
AcDbEntity
  8
RACCORDO
100
AcDbLine
 62
7
  6
CONTINUOUS
 10
-9.8958231184
 20
-6.0878773463
 11
-9.9433414449
 21
-6.1353956728
  0
LINE
  5
2BE
100
AcDbEntity
  8
0
100
AcDbLine
 62
7
  6
CONTINUOUS
 10
-0.4312754447
 20
-2.1675926726
 11
-0.7706284447
 21
-2.2595116726
  0
LINE
  5
2BF
100
AcDbEntity
  8
0
100
AcDbLine
 62
7
  6
CONTINUOUS
 10
-1.0332184447
 20
-2.3304246726
 11
-1.6640594447
 21
-2.4934726726
  0
LINE
  5
2C0
100
AcDbEntity
  8
0
100
AcDbLine
 62
7
  6
CONTINUOUS
 10
0.6257852229
 20
-2.3717966726
 11
1.3130192849
 21
-2.3717966726
  0
LINE
  5
2C1
100
AcDbEntity
  8
0
100
AcDbLine
 62
7
  6
CONTINUOUS
 10
1.5300405863
 20
-2.3717966726
 11
2.0364235553
 21
-2.3717966726
  0
LINE
  5
2C2
100
AcDbEntity
  8
0
100
AcDbLine
 62
7
  6
CONTINUOUS
 10
0.3364235553
 20
-2.1592966726
 11
1.3130192849
 21
-2.1592966726
  0
LINE
  5
2C3
100
AcDbEntity
  8
0
100
AcDbLine
 62
7
  6
CONTINUOUS
 10
1.5300405863
 20
-2.1592966726
 11
2.0364235553
 21
-2.1592966726
  0
LINE
  5
2C4
100
AcDbEntity
  8
0
100
AcDbLine
 62
7
  6
CONTINUOUS
 10
-1.0332184447
 20
-2.6701466726
 11
-1.6640594447
 21
-2.4934726726
  0
LINE
  5
2C5
100
AcDbEntity
  8
0
100
AcDbLine
 62
7
  6
CONTINUOUS
 10
-0.4312754447
 20
-2.8406396726
 11
-0.7706284447
 21
-2.7427286726
  0
LINE
  5
2C6
100
AcDbEntity
  8
0
100
AcDbLine
 62
7
  6
CONTINUOUS
 10
1.7832320708
 20
-3.5759632041
 11
1.6023810032
 21
-3.505130141
  0
LINE
  5
2C7
100
AcDbEntity
  8
0
100
AcDbLine
 62
7
  6
CONTINUOUS
 10
1.0236576173
 20
-3.611380141
 11
0.8789767835
 21
-3.5405466726
  0
LINE
  5
2C8
100
AcDbEntity
  8
0
100
AcDbLine
 62
7
  6
CONTINUOUS
 10
0.9513172004
 20
-3.7884634068
 11
0.842806575
 21
-3.7176299384
  0
LINE
  5
2C9
100
AcDbEntity
  8
0
100
AcDbLine
 62
7
  6
CONTINUOUS
 10
1.4938703778
 20
-4.6030466726
 11
1.3491894934
 21
-4.4967966726
  0
LINE
  5
2CA
100
AcDbEntity
  8
0
100
AcDbLine
 62
7
  6
CONTINUOUS
 10
1.7470618623
 20
-3.7884634068
 11
1.6023810032
 21
-3.6822134068
  0
LINE
  5
2CB
100
AcDbEntity
  8
0
100
AcDbLine
 62
7
  6
CONTINUOUS
 10
0.5896150145
 20
-4.6738799384
 11
0.4811043891
 21
-4.5676299384
  0
LINE
  5
2CC
100
AcDbEntity
  8
RACCORDO
100
AcDbLine
 62
253
  6
CONTINUOUS
 10
-7.1224106021
 20
3.1032491763
 11
-7.0916616286
 21
3.0725002028
  0
LINE
  5
2CD
100
AcDbEntity
  8
RACCORDO
100
AcDbLine
 62
253
  6
CONTINUOUS
 10
-6.8224562936
 20
3.4032034849
 11
-6.7916310639
 21
3.3723782552
  0
LINE
  5
2CE
100
AcDbEntity
  8
RACCORDO
100
AcDbLine
 62
7
  6
CONTINUOUS
 10
-11.2565944187
 20
8.0467345222
 11
-11.186723366
 21
7.9768634694
  0
LINE
  5
2CF
100
AcDbEntity
  8
0
100
AcDbLine
 62
7
  6
CONTINUOUS
 10
0.6619554314
 20
-4.4967966726
 11
0.553444806
 21
-4.3551299384
  0
LINE
  5
2D0
100
AcDbEntity
  8
0
100
AcDbLine
 62
7
  6
CONTINUOUS
 10
0.6257852229
 20
-6.0197133055
 11
0.553444806
 21
-5.9134633055
  0
LINE
  5
2D1
100
AcDbEntity
  8
0
100
AcDbLine
 62
7
  6
CONTINUOUS
 10
1.1321682426
 20
-6.1613800397
 11
0.9874874088
 21
-5.9488800397
  0
LINE
  5
2D2
100
AcDbEntity
  8
0
100
AcDbLine
 62
7
  6
CONTINUOUS
 10
1.240678868
 20
-6.0197133055
 11
1.1683384511
 21
-5.9134633055
  0
LINE
  5
2D3
100
AcDbEntity
  8
0
100
AcDbLine
 62
7
  6
CONTINUOUS
 10
0.4811043891
 20
-6.1259633055
 11
0.3725937638
 21
-5.9488800397
  0
LINE
  5
2D4
100
AcDbEntity
  8
0
100
AcDbLine
 62
7
  6
CONTINUOUS
 10
-1.3749046132
 20
-1.347789241
 11
-1.3749046132
 21
-1.1450085281
  0
LINE
  5
2D5
100
AcDbEntity
  8
0
100
AcDbLine
 62
7
  6
CONTINUOUS
 10
-1.0965081606
 20
-1.3360236766
 11
-1.0965081606
 21
-1.1457733535
  0
LINE
  5
2D6
100
AcDbEntity
  8
0
100
AcDbLine
 62
7
  6
CONTINUOUS
 10
-1.0332184447
 20
-2.6701466726
 11
-1.0332184447
 21
-2.3304246726
  0
LINE
  5
2D7
100
AcDbEntity
  8
RACCORDO
100
AcDbLine
 62
7
  6
CONTINUOUS
 10
6.6812784257
 20
7.9892241978
 11
6.6637728394
 21
7.9717186115
  0
LINE
  5
2D8
100
AcDbEntity
  8
DRAFT
100
AcDbLine
 62
7
  6
CONTINUOUS
 10
9.4364235553
 20
-1.0257039972
 11
9.8364235553
 21
-1.0216729227
  0
LINE
  5
2D9
100
AcDbEntity
  8
0
100
AcDbLine
 62
7
  6
CONTINUOUS
 10
1.3130192849
 20
-1.805130141
 11
1.5300405863
 21
-1.805130141
  0
LINE
  5
2DA
100
AcDbEntity
  8
DRAFT
100
AcDbLine
 62
7
  6
CONTINUOUS
 10
-11.4840886866
 20
-1.7351184306
 11
-10.5430642027
 21
-1.7351184306
  0
LINE
  5
2DB
100
AcDbEntity
  8
DRAFT
100
AcDbLine
 62
7
  6
CONTINUOUS
 10
10.4159113134
 20
-1.7351184306
 11
11.3569357973
 21
-1.7351184306
  0
LINE
  5
2DC
100
AcDbEntity
  8
DRAFT
100
AcDbLine
 62
7
  6
CONTINUOUS
 10
-12.3635764447
 20
-1.6941391092
 11
-11.5635764447
 21
-1.6941391092
  0
LINE
  5
2DD
100
AcDbEntity
  8
DRAFT
100
AcDbLine
 62
7
  6
CONTINUOUS
 10
11.4364235553
 20
-1.6941391092
 11
12.2364235553
 21
-1.6941391092
  0
LINE
  5
2DE
100
AcDbEntity
  8
0
100
AcDbLine
 62
7
  6
CONTINUOUS
 10
-0.431275758
 20
-1.6894240087
 11
-2.1112785269
 21
-1.6894240087
  0
LINE
  5
2DF
100
AcDbEntity
  8
DRAFT
100
AcDbLine
 62
7
  6
CONTINUOUS
 10
-11.2461213798
 20
-1.6730857375
 11
-10.4810315096
 21
-1.6730857375
  0
LINE
  5
2E0
100
AcDbEntity
  8
DRAFT
100
AcDbLine
 62
7
  6
CONTINUOUS
 10
11.1189684904
 20
-1.6730857375
 11
10.3538786202
 21
-1.6730857375
  0
LINE
  5
2E1
100
AcDbEntity
  8
DRAFT
100
AcDbLine
 62
7
  6
CONTINUOUS
 10
-11.5635764447
 20
-1.6556306726
 11
-11.2635764447
 21
-1.6556306726
  0
LINE
  5
2E2
100
AcDbEntity
  8
DRAFT
100
AcDbLine
 62
7
  6
CONTINUOUS
 10
11.1364235553
 20
-1.6556306726
 11
11.4364235553
 21
-1.6556306726
  0
LINE
  5
2E3
100
AcDbEntity
  8
0
100
AcDbLine
 62
7
  6
CONTINUOUS
 10
0.5896150145
 20
-1.5217966726
 11
0.8789767835
 21
-1.5217966726
  0
LINE
  5
2E4
100
AcDbEntity
  8
0
100
AcDbLine
 62
7
  6
CONTINUOUS
 10
-1.3749046132
 20
-1.347789241
 11
-1.8415500957
 21
-1.347789241
  0
LINE
  5
2E5
100
AcDbEntity
  8
0
100
AcDbLine
 62
7
  6
CONTINUOUS
 10
-0.431275758
 20
-1.3360236766
 11
-1.0965081606
 21
-1.3360236766
  0
LINE
  5
2E6
100
AcDbEntity
  8
0
100
AcDbLine
 62
7
  6
CONTINUOUS
 10
0.6257852229
 20
-1.3092966726
 11
2.0364235553
 21
-1.3092966726
  0
LINE
  5
2E7
100
AcDbEntity
  8
0
100
AcDbLine
 62
7
  6
CONTINUOUS
 10
0.3364235553
 20
-1.0967966726
 11
2.0364235553
 21
-1.0967966726
  0
LINE
  5
2E8
100
AcDbEntity
  8
DRAFT
100
AcDbLine
 62
7
  6
CONTINUOUS
 10
-11.2461213798
 20
-1.0475228284
 11
-10.2135764447
 21
-1.0475228284
  0
LINE
  5
2E9
100
AcDbEntity
  8
DRAFT
100
AcDbLine
 62
7
  6
CONTINUOUS
 10
10.0864235553
 20
-1.0475228284
 11
11.1189684904
 21
-1.0475228284
  0
LINE
  5
2EA
100
AcDbEntity
  8
RACCORDO
100
AcDbLine
 62
7
  6
CONTINUOUS
 10
-10.8889455582
 20
-0.9851577574
 11
-9.9635764447
 21
-0.9851577574
  0
LINE
  5
2EB
100
AcDbEntity
  8
RACCORDO
100
AcDbLine
 62
7
  6
CONTINUOUS
 10
9.8364235553
 20
-0.9851577574
 11
10.7617926689
 21
-0.9851577574
  0
LINE
  5
2EC
100
AcDbEntity
  8
DRAFT
100
AcDbLine
 62
7
  6
CONTINUOUS
 10
-9.9635764447
 20
-1.0216729227
 11
-9.5635764447
 21
-1.0257039972
  0
LINE
  5
2ED
100
AcDbEntity
  8
0
100
AcDbLine
 62
7
  6
CONTINUOUS
 10
1.3130192849
 20
-3.2217966726
 11
0.3364235553
 21
-2.3717966726
  0
LINE
  5
2EE
100
AcDbEntity
  8
0
100
AcDbLine
 62
7
  6
CONTINUOUS
 10
1.3130192849
 20
-2.973880141
 11
0.6257852229
 21
-2.3717966726
  0
LINE
  5
2EF
100
AcDbEntity
  8
0
100
AcDbLine
 62
7
  6
CONTINUOUS
 10
1.1321682426
 20
-3.7176299384
 11
1.0236576173
 21
-3.611380141
  0
LINE
  5
2F0
100
AcDbEntity
  8
0
100
AcDbLine
 62
7
  6
CONTINUOUS
 10
1.8917427088
 20
-3.6822134068
 11
1.7832320708
 21
-3.5759632041
  0
LINE
  5
2F1
100
AcDbEntity
  8
RACCORDO
100
AcDbLine
 62
253
  6
CONTINUOUS
 10
5.1015281278
 20
-6.5706895536
 11
5.1312784257
 21
-6.6004398515
  0
LINE
  5
2F2
100
AcDbEntity
  8
0
100
AcDbLine
 62
7
  6
CONTINUOUS
 10
1.3130192849
 20
-4.7092966726
 11
1.2045086595
 21
-4.5676299384
  0
LINE
  5
2F3
100
AcDbEntity
  8
0
100
AcDbLine
 62
7
  6
CONTINUOUS
 10
1.0598278257
 20
-3.9301299384
 11
0.9513172004
 21
-3.7884634068
  0
LINE
  5
2F4
100
AcDbEntity
  8
0
100
AcDbLine
 62
7
  6
CONTINUOUS
 10
1.8194022793
 20
-5.4530466726
 11
1.7470618623
 21
-5.3467966726
  0
LINE
  5
2F5
100
AcDbEntity
  8
0
100
AcDbLine
 62
7
  6
CONTINUOUS
 10
0.4811043891
 20
-4.5676299384
 11
0.3725937638
 21
-4.3905466726
  0
LINE
  5
2F6
100
AcDbEntity
  8
0
100
AcDbLine
 62
7
  6
CONTINUOUS
 10
2.0002533437
 20
-5.4176300397
 11
1.8917427088
 21
-5.2405466726
  0
LINE
  5
2F7
100
AcDbEntity
  8
0
100
AcDbLine
 62
7
  6
CONTINUOUS
 10
1.2045086595
 20
-4.5676299384
 11
1.1683384511
 21
-4.4967966726
  0
LINE
  5
2F8
100
AcDbEntity
  8
0
100
AcDbLine
 62
7
  6
CONTINUOUS
 10
0.553444806
 20
-5.9134633055
 11
0.5172745976
 21
-5.8072133055
  0
LINE
  5
2F9
100
AcDbEntity
  8
0
100
AcDbLine
 62
7
  6
CONTINUOUS
 10
-0.7706284447
 20
-2.7427286726
 11
-0.7706284447
 21
-2.2595116726
  0
LINE
  5
2FA
100
AcDbEntity
  8
0
100
AcDbLine
 62
7
  6
CONTINUOUS
 10
-0.431275758
 20
-1.6894240087
 11
-0.431275758
 21
-1.3360236766
  0
LINE
  5
2FB
100
AcDbEntity
  8
0
100
AcDbLine
 62
7
  6
CONTINUOUS
 10
-0.431275758
 20
-0.7926534575
 11
-0.431275758
 21
-0.4513501141
  0
LINE
  5
2FC
100
AcDbEntity
  8
0
100
AcDbLine
 62
7
  6
CONTINUOUS
 10
-0.4312754447
 20
-6.5079066726
 11
-0.4312754447
 21
-6.1952146726
  0
LINE
  5
2FD
100
AcDbEntity
  8
0
100
AcDbLine
 62
7
  6
CONTINUOUS
 10
-0.4312754447
 20
-5.5171326726
 11
-0.4312754447
 21
-5.1623046726
  0
LINE
  5
2FE
100
AcDbEntity
  8
0
100
AcDbLine
 62
7
  6
CONTINUOUS
 10
-0.4312754447
 20
-4.9712896726
 11
-0.4312754447
 21
-4.6318346726
  0
LINE
  5
2FF
100
AcDbEntity
  8
0
100
AcDbLine
 62
7
  6
CONTINUOUS
 10
-0.4312754447
 20
-4.1390066726
 11
-0.4312754447
 21
-4.0892426726
  0
LINE
  5
300
100
AcDbEntity
  8
0
100
AcDbLine
 62
7
  6
CONTINUOUS
 10
-0.4312754447
 20
-3.5944506726
 11
-0.4312754447
 21
-3.2473346726
  0
LINE
  5
301
100
AcDbEntity
  8
0
100
AcDbLine
 62
7
  6
CONTINUOUS
 10
-0.4312754447
 20
-3.1916176726
 11
-0.4312754447
 21
-2.8406396726
  0
LINE
  5
302
100
AcDbEntity
  8
0
100
AcDbLine
 62
7
  6
CONTINUOUS
 10
-0.4312754447
 20
-2.1675926726
 11
-0.4312754447
 21
-1.7936186726
  0
LINE
  5
303
100
AcDbEntity
  8
DRAFT
100
AcDbLine
 62
7
  6
CONTINUOUS
 10
-9.5635764447
 20
-1.0361770362
 11
-10.2135764447
 21
-1.0475228284
  0
LINE
  5
304
100
AcDbEntity
  8
0
100
AcDbLine
 62
7
  6
CONTINUOUS
 10
-1.2247566363
 20
-0.7771784898
 11
-1.2348013435
 21
-0.7771784898
  0
LINE
  5
305
100
AcDbEntity
  8
DRAFT
100
AcDbLine
 62
7
  6
CONTINUOUS
 10
10.0864235553
 20
-1.0475228284
 11
9.4364235553
 21
-1.0361770362
  0
LINE
  5
306
100
AcDbEntity
  8
0
100
AcDbLine
 62
7
  6
CONTINUOUS
 10
0.5896150145
 20
-1.5217966726
 11
0.3364235553
 21
-1.3092966726
  0
LINE
  5
307
100
AcDbEntity
  8
0
100
AcDbLine
 62
7
  6
CONTINUOUS
 10
0.8789767835
 20
-1.5217966726
 11
0.6257852229
 21
-1.3092966726
  0
LINE
  5
308
100
AcDbEntity
  8
RACCORDO
100
AcDbLine
 62
253
  6
CONTINUOUS
 10
5.4012867444
 20
-6.2705395531
 11
5.4312327471
 21
-6.3004855558
  0
LINE
  5
309
100
AcDbEntity
  8
0
100
AcDbLine
 62
7
  6
CONTINUOUS
 10
2.0002533437
 20
-3.8592966726
 11
1.8917427088
 21
-3.6822134068
  0
LINE
  5
30A
100
AcDbEntity
  8
0
100
AcDbLine
 62
7
  6
CONTINUOUS
 10
1.3491894934
 20
-4.4967966726
 11
1.2768490764
 21
-4.3551299384
  0
LINE
  5
30B
100
AcDbEntity
  8
0
100
AcDbLine
 62
7
  6
CONTINUOUS
 10
1.1683384511
 20
-3.7884634068
 11
1.1321682426
 21
-3.7176299384
  0
LINE
  5
30C
100
AcDbEntity
  8
0
100
AcDbLine
 62
7
  6
CONTINUOUS
 10
1.8194022793
 20
-3.9301299384
 11
1.7470618623
 21
-3.7884634068
  0
LINE
  5
30D
100
AcDbEntity
  8
0
100
AcDbLine
 62
7
  6
CONTINUOUS
 10
1.1683384511
 20
-5.9134633055
 11
1.1321682426
 21
-5.8072133055
  0
LINE
  5
30E
100
AcDbEntity
  8
0
100
AcDbLine
 62
7
  6
CONTINUOUS
 10
1.8555724877
 20
-5.5592966726
 11
1.8194022793
 21
-5.4530466726
  0
LINE
  5
30F
100
AcDbEntity
  8
0
100
AcDbLine
 62
7
  6
CONTINUOUS
 10
0.553444806
 20
-4.3551299384
 11
0.5172745976
 21
-4.2134634068
  0
LINE
  5
310
100
AcDbEntity
  8
0
100
AcDbLine
 62
7
  6
CONTINUOUS
 10
1.0959980342
 20
-4.0717966726
 11
1.0598278257
 21
-3.9301299384
  0
LINE
  5
311
100
AcDbEntity
  8
0
100
AcDbLine
 62
7
  6
CONTINUOUS
 10
0.3725937638
 20
-5.9488800397
 11
0.3364235553
 21
-5.7717966726
  0
LINE
  5
312
100
AcDbEntity
  8
0
100
AcDbLine
 62
7
  6
CONTINUOUS
 10
0.3725937638
 20
-4.3905466726
 11
0.3364235553
 21
-4.2134634068
  0
LINE
  5
313
100
AcDbEntity
  8
0
100
AcDbLine
 62
7
  6
CONTINUOUS
 10
0.9874874088
 20
-5.9488800397
 11
0.9513172004
 21
-5.7717966726
  0
LINE
  5
314
100
AcDbEntity
  8
0
100
AcDbLine
 62
7
  6
CONTINUOUS
 10
0.3364235553
 20
-6.8342966726
 11
0.3364235553
 21
-6.6217966726
  0
LINE
  5
315
100
AcDbEntity
  8
0
100
AcDbLine
 62
7
  6
CONTINUOUS
 10
0.3364235553
 20
-5.7717966726
 11
0.3364235553
 21
-5.6301300397
  0
LINE
  5
316
100
AcDbEntity
  8
0
100
AcDbLine
 62
7
  6
CONTINUOUS
 10
0.3364235553
 20
-4.2134634068
 11
0.3364235553
 21
-4.0717966726
  0
LINE
  5
317
100
AcDbEntity
  8
0
100
AcDbLine
 62
7
  6
CONTINUOUS
 10
0.3364235553
 20
-2.3717966726
 11
0.3364235553
 21
-2.1592966726
  0
LINE
  5
318
100
AcDbEntity
  8
0
100
AcDbLine
 62
7
  6
CONTINUOUS
 10
0.3364235553
 20
-1.3092966726
 11
0.3364235553
 21
-1.0967966726
  0
LINE
  5
319
100
AcDbEntity
  8
0
100
AcDbLine
 62
7
  6
CONTINUOUS
 10
0.5172745976
 20
-5.8072133055
 11
0.5172745976
 21
-5.5947133055
  0
LINE
  5
31A
100
AcDbEntity
  8
0
100
AcDbLine
 62
7
  6
CONTINUOUS
 10
0.5172745976
 20
-4.2134634068
 11
0.5172745976
 21
-4.0717966726
  0
LINE
  5
31B
100
AcDbEntity
  8
0
100
AcDbLine
 62
7
  6
CONTINUOUS
 10
0.7342958483
 20
-5.3113799384
 11
0.7342958483
 21
-5.1342966726
  0
LINE
  5
31C
100
AcDbEntity
  8
0
100
AcDbLine
 62
7
  6
CONTINUOUS
 10
0.9513172004
 20
-5.7717966726
 11
0.9513172004
 21
-5.5947133055
  0
LINE
  5
31D
100
AcDbEntity
  8
0
100
AcDbLine
 62
7
  6
CONTINUOUS
 10
1.0959980342
 20
-4.2134634068
 11
1.0959980342
 21
-4.0717966726
  0
LINE
  5
31E
100
AcDbEntity
  8
RACCORDO
100
AcDbLine
 62
253
  6
CONTINUOUS
 10
-5.558385641
 20
-6.3004855603
 11
-5.5284396338
 21
-6.2705395531
  0
LINE
  5
31F
100
AcDbEntity
  8
RACCORDO
100
AcDbLine
 62
253
  6
CONTINUOUS
 10
-5.2584313151
 20
-6.6004398515
 11
-5.2286810172
 21
-6.5706895536
  0
LINE
  5
320
100
AcDbEntity
  8
0
100
AcDbLine
 62
7
  6
CONTINUOUS
 10
-3.0635764447
 20
0.7943693274
 11
2.9364235553
 21
0.7943693274
  0
LINE
  5
321
100
AcDbEntity
  8
RACCORDO
100
AcDbLine
 62
7
  6
CONTINUOUS
 10
-10.8881530698
 20
1.0731033622
 11
-9.8923104795
 21
1.0731033622
  0
LINE
  5
322
100
AcDbEntity
  8
RACCORDO
100
AcDbLine
 62
7
  6
CONTINUOUS
 10
9.7651575901
 20
1.0731033622
 11
10.7610001804
 21
1.0731033622
  0
LINE
  5
323
100
AcDbEntity
  8
RACCORDO
100
AcDbLine
 62
7
  6
CONTINUOUS
 10
-6.8084313151
 20
7.9892241978
 11
-6.7909257288
 21
7.9717186115
  0
LINE
  5
324
100
AcDbEntity
  8
0
100
AcDbLine
 62
7
  6
CONTINUOUS
 10
1.2768490764
 20
-4.3551299384
 11
1.240678868
 21
-4.2134634068
  0
LINE
  5
325
100
AcDbEntity
  8
0
100
AcDbLine
 62
7
  6
CONTINUOUS
 10
1.8555724877
 20
-4.0717966726
 11
1.8194022793
 21
-3.9301299384
  0
LINE
  5
326
100
AcDbEntity
  8
0
100
AcDbLine
 62
7
  6
CONTINUOUS
 10
2.0364235553
 20
-5.5947133055
 11
2.0002533437
 21
-5.4176300397
  0
LINE
  5
327
100
AcDbEntity
  8
0
100
AcDbLine
 62
7
  6
CONTINUOUS
 10
1.1321682426
 20
-5.8072133055
 11
1.1321682426
 21
-5.5592966726
  0
LINE
  5
328
100
AcDbEntity
  8
0
100
AcDbLine
 62
7
  6
CONTINUOUS
 10
1.240678868
 20
-4.2134634068
 11
1.240678868
 21
-4.0717966726
  0
LINE
  5
329
100
AcDbEntity
  8
0
100
AcDbLine
 62
7
  6
CONTINUOUS
 10
1.3130192849
 20
-2.973880141
 11
1.3130192849
 21
-2.3717966726
  0
LINE
  5
32A
100
AcDbEntity
  8
0
100
AcDbLine
 62
7
  6
CONTINUOUS
 10
1.3130192849
 20
-2.1592966726
 11
1.3130192849
 21
-1.805130141
  0
LINE
  5
32B
100
AcDbEntity
  8
0
100
AcDbLine
 62
7
  6
CONTINUOUS
 10
1.5300405863
 20
-3.2217966726
 11
1.5300405863
 21
-2.3717966726
  0
LINE
  5
32C
100
AcDbEntity
  8
0
100
AcDbLine
 62
7
  6
CONTINUOUS
 10
1.5300405863
 20
-2.1592966726
 11
1.5300405863
 21
-1.805130141
  0
LINE
  5
32D
100
AcDbEntity
  8
0
100
AcDbLine
 62
7
  6
CONTINUOUS
 10
1.8555724877
 20
-5.8072133055
 11
1.8555724877
 21
-5.5592966726
  0
LINE
  5
32E
100
AcDbEntity
  8
0
100
AcDbLine
 62
7
  6
CONTINUOUS
 10
1.8555724877
 20
-4.2134634068
 11
1.8555724877
 21
-4.0717966726
  0
LINE
  5
32F
100
AcDbEntity
  8
0
100
AcDbLine
 62
7
  6
CONTINUOUS
 10
2.0364235553
 20
-6.8342966726
 11
2.0364235553
 21
-6.6217966726
  0
LINE
  5
330
100
AcDbEntity
  8
0
100
AcDbLine
 62
7
  6
CONTINUOUS
 10
2.0364235553
 20
-5.7717966726
 11
2.0364235553
 21
-5.5947133055
  0
LINE
  5
331
100
AcDbEntity
  8
0
100
AcDbLine
 62
7
  6
CONTINUOUS
 10
2.0364235553
 20
-4.2488799384
 11
2.0364235553
 21
-4.0363799384
  0
LINE
  5
332
100
AcDbEntity
  8
0
100
AcDbLine
 62
7
  6
CONTINUOUS
 10
2.0364235553
 20
-2.3717966726
 11
2.0364235553
 21
-2.1592966726
  0
LINE
  5
333
100
AcDbEntity
  8
0
100
AcDbLine
 62
7
  6
CONTINUOUS
 10
2.0364235553
 20
-1.3092966726
 11
2.0364235553
 21
-1.0967966726
  0
LINE
  5
334
100
AcDbEntity
  8
0
100
AcDbLine
 62
7
  6
CONTINUOUS
 10
0.3364235553
 20
-4.0717966726
 11
0.3725937638
 21
-3.8947134068
  0
LINE
  5
335
100
AcDbEntity
  8
0
100
AcDbLine
 62
7
  6
CONTINUOUS
 10
0.3364235553
 20
-5.6301300397
 11
0.3725937638
 21
-5.4530466726
  0
LINE
  5
336
100
AcDbEntity
  8
0
100
AcDbLine
 62
7
  6
CONTINUOUS
 10
0.9513172004
 20
-5.5947133055
 11
0.9874874088
 21
-5.4176300397
  0
LINE
  5
337
100
AcDbEntity
  8
0
100
AcDbLine
 62
7
  6
CONTINUOUS
 10
0.5172745976
 20
-4.0717966726
 11
0.553444806
 21
-3.9301299384
  0
LINE
  5
338
100
AcDbEntity
  8
0
100
AcDbLine
 62
7
  6
CONTINUOUS
 10
1.0598278257
 20
-4.3551299384
 11
1.0959980342
 21
-4.2134634068
  0
LINE
  5
339
100
AcDbEntity
  8
RACCORDO
100
AcDbLine
 62
7
  6
CONTINUOUS
 10
11.0595704766
 20
7.9768634694
 11
11.1294415293
 21
8.0467345222
  0
LINE
  5
33A
100
AcDbEntity
  8
0
100
AcDbLine
 62
7
  6
CONTINUOUS
 10
-0.4312754447
 20
-1.7936186726
 11
-2.1311384447
 21
-2.3151786726
  0
LINE
  5
33B
100
AcDbEntity
  8
RACCORDO
100
AcDbLine
 62
7
  6
CONTINUOUS
 10
-11.2391393538
 20
1.1292794573
 11
-10.2432957535
 21
1.1292794573
  0
LINE
  5
33C
100
AcDbEntity
  8
RACCORDO
100
AcDbLine
 62
7
  6
CONTINUOUS
 10
11.1119864644
 20
1.1292794573
 11
10.1161428641
 21
1.1292794573
  0
LINE
  5
33D
100
AcDbEntity
  8
RACCORDO
100
AcDbLine
 62
7
  6
CONTINUOUS
 10
-11.2391393538
 20
1.7594591976
 11
-10.2432957535
 21
1.7594591976
  0
LINE
  5
33E
100
AcDbEntity
  8
RACCORDO
100
AcDbLine
 62
7
  6
CONTINUOUS
 10
11.1119864644
 20
1.7594591976
 11
10.1161428641
 21
1.7594591976
  0
LINE
  5
33F
100
AcDbEntity
  8
RACCORDO
100
AcDbLine
 62
7
  6
CONTINUOUS
 10
-10.8879099334
 20
1.8158786013
 11
-9.8920671709
 21
1.8158786013
  0
LINE
  5
340
100
AcDbEntity
  8
RACCORDO
100
AcDbLine
 62
7
  6
CONTINUOUS
 10
9.7649142815
 20
1.8158786013
 11
10.760757044
 21
1.8158786013
  0
LINE
  5
341
100
AcDbEntity
  8
0
100
AcDbLine
 62
7
  6
CONTINUOUS
 10
2.0364235553
 20
-4.0363799384
 11
2.0002533437
 21
-3.8592966726
  0
LINE
  5
342
100
AcDbEntity
  8
DRAFT
100
AcDbLine
 62
7
  6
CONTINUOUS
 10
2.4329325423
 20
7.2153154053
 11
2.4329325423
 21
2.3734232495
  0
LINE
  5
343
100
AcDbEntity
  8
DRAFT
100
AcDbLine
 62
7
  6
CONTINUOUS
 10
2.8364235553
 20
5.5985980783
 11
2.8364235553
 21
3.9901405766
  0
LINE
  5
344
100
AcDbEntity
  8
DRAFT
100
AcDbLine
 62
7
  6
CONTINUOUS
 10
2.9038786202
 20
7.2118243923
 11
2.9038786202
 21
5.6030968599
  0
LINE
  5
345
100
AcDbEntity
  8
DRAFT
100
AcDbLine
 62
7
  6
CONTINUOUS
 10
2.9038786202
 20
3.985641795
 11
2.9038786202
 21
2.3769142625
  0
LINE
  5
346
100
AcDbEntity
  8
DRAFT
100
AcDbLine
 62
7
  6
CONTINUOUS
 10
2.9364235553
 20
0.7943693274
 11
2.9364235553
 21
3.985641795
  0
LINE
  5
347
100
AcDbEntity
  8
DRAFT
100
AcDbLine
 62
7
  6
CONTINUOUS
 10
2.9364235553
 20
5.6030968599
 11
2.9364235553
 21
7.2943693274
  0
LINE
  5
348
100
AcDbEntity
  8
DRAFT
100
AcDbLine
 62
7
  6
CONTINUOUS
 10
3.0060593157
 20
5.5943693274
 11
3.0060593157
 21
3.9943693274
  0
LINE
  5
349
100
AcDbEntity
  8
0
100
AcDbLine
 62
7
  6
CONTINUOUS
 10
2.0002533437
 20
-4.4259634068
 11
2.0364235553
 21
-4.2488799384
  0
LINE
  5
34A
100
AcDbEntity
  8
0
100
AcDbLine
 62
7
  6
CONTINUOUS
 10
2.0002533437
 20
-5.9488800397
 11
2.0364235553
 21
-5.7717966726
  0
LINE
  5
34B
100
AcDbEntity
  8
0
100
AcDbLine
 62
7
  6
CONTINUOUS
 10
1.240678868
 20
-4.0717966726
 11
1.2768490764
 21
-3.9301299384
  0
LINE
  5
34C
100
AcDbEntity
  8
0
100
AcDbLine
 62
7
  6
CONTINUOUS
 10
1.8194022793
 20
-4.3551299384
 11
1.8555724877
 21
-4.2134634068
  0
LINE
  5
34D
100
AcDbEntity
  8
0
100
AcDbLine
 62
7
  6
CONTINUOUS
 10
0.5172745976
 20
-5.5947133055
 11
0.553444806
 21
-5.4884633055
  0
LINE
  5
34E
100
AcDbEntity
  8
0
100
AcDbLine
 62
7
  6
CONTINUOUS
 10
1.1321682426
 20
-5.5592966726
 11
1.1683384511
 21
-5.4530466726
  0
LINE
  5
34F
100
AcDbEntity
  8
0
100
AcDbLine
 62
7
  6
CONTINUOUS
 10
1.1683384511
 20
-3.7884634068
 11
1.2045086595
 21
-3.7176299384
  0
LINE
  5
350
100
AcDbEntity
  8
0
100
AcDbLine
 62
7
  6
CONTINUOUS
 10
1.2768490764
 20
-3.9301299384
 11
1.3491894934
 21
-3.7884634068
  0
LINE
  5
351
100
AcDbEntity
  8
0
100
AcDbLine
 62
7
  6
CONTINUOUS
 10
1.1321682426
 20
-4.5676299384
 11
1.1683384511
 21
-4.4967966726
  0
LINE
  5
352
100
AcDbEntity
  8
0
100
AcDbLine
 62
7
  6
CONTINUOUS
 10
0.3725937638
 20
-3.8947134068
 11
0.4811043891
 21
-3.7176299384
  0
LINE
  5
353
100
AcDbEntity
  8
0
100
AcDbLine
 62
7
  6
CONTINUOUS
 10
0.3725937638
 20
-5.4530466726
 11
0.4811043891
 21
-5.2759634068
  0
LINE
  5
354
100
AcDbEntity
  8
0
100
AcDbLine
 62
7
  6
CONTINUOUS
 10
0.553444806
 20
-3.9301299384
 11
0.6619554314
 21
-3.7884634068
  0
LINE
  5
355
100
AcDbEntity
  8
RACCORDO
100
AcDbLine
 62
253
  6
CONTINUOUS
 10
6.6644781745
 20
3.3723782552
 11
6.6953034042
 21
3.4032034849
  0
LINE
  5
356
100
AcDbEntity
  8
RACCORDO
100
AcDbLine
 62
253
  6
CONTINUOUS
 10
6.9645087392
 20
3.0725002028
 11
6.9952577128
 21
3.1032491763
  0
LINE
  5
357
100
AcDbEntity
  8
0
100
AcDbLine
 62
7
  6
CONTINUOUS
 10
0.4811043891
 20
-3.7176299384
 11
0.5896150145
 21
-3.611380141
  0
LINE
  5
358
100
AcDbEntity
  8
DRAFT
100
AcDbLine
 62
7
  6
CONTINUOUS
 10
2.4329325423
 20
2.3734232495
 11
-2.5600854317
 21
2.3734232495
  0
LINE
  5
359
100
AcDbEntity
  8
DRAFT
100
AcDbLine
 62
7
  6
CONTINUOUS
 10
-3.0310315096
 20
2.3769142625
 11
-2.5635764447
 21
2.3769142625
  0
LINE
  5
35A
100
AcDbEntity
  8
DRAFT
100
AcDbLine
 62
7
  6
CONTINUOUS
 10
2.9038786202
 20
2.3769142625
 11
2.4364235553
 21
2.3769142625
  0
LINE
  5
35B
100
AcDbEntity
  8
RACCORDO
100
AcDbLine
 62
7
  6
CONTINUOUS
 10
-7.3354912608
 20
3.0725002028
 11
-7.0916616286
 21
3.0725002028
  0
LINE
  5
35C
100
AcDbEntity
  8
RACCORDO
100
AcDbLine
 62
7
  6
CONTINUOUS
 10
6.9645087392
 20
3.0725002028
 11
7.2083383714
 21
3.0725002028
  0
LINE
  5
35D
100
AcDbEntity
  8
RACCORDO
100
AcDbLine
 62
253
  6
CONTINUOUS
 10
-7.3047422872
 20
3.1032491763
 11
-7.1224106021
 21
3.1032491763
  0
LINE
  5
35E
100
AcDbEntity
  8
RACCORDO
100
AcDbLine
 62
253
  6
CONTINUOUS
 10
6.9952577128
 20
3.1032491763
 11
7.1775893979
 21
3.1032491763
  0
LINE
  5
35F
100
AcDbEntity
  8
RACCORDO
100
AcDbLine
 62
7
  6
CONTINUOUS
 10
9.768670229
 20
-6.0878773463
 11
9.8161885556
 21
-6.1353956728
  0
LINE
  5
360
100
AcDbEntity
  8
RACCORDO
100
AcDbLine
 62
253
  6
CONTINUOUS
 10
3.4763612939
 20
3.9943693274
 11
3.4763612939
 21
5.5943693274
  0
LINE
  5
361
100
AcDbEntity
  8
RACCORDO
100
AcDbLine
 62
253
  6
CONTINUOUS
 10
3.7582690801
 20
3.9909238031
 11
3.7582690801
 21
5.5978148518
  0
LINE
  5
362
100
AcDbEntity
  8
0
100
AcDbLine
 62
7
  6
CONTINUOUS
 10
1.8194022793
 20
-5.9134633055
 11
1.8555724877
 21
-5.8072133055
  0
LINE
  5
363
100
AcDbEntity
  8
0
100
AcDbLine
 62
7
  6
CONTINUOUS
 10
1.7470618623
 20
-4.4967966726
 11
1.8194022793
 21
-4.3551299384
  0
LINE
  5
364
100
AcDbEntity
  8
0
100
AcDbLine
 62
7
  6
CONTINUOUS
 10
0.9874874088
 20
-5.4176300397
 11
1.0959980342
 21
-5.2405466726
  0
LINE
  5
365
100
AcDbEntity
  8
0
100
AcDbLine
 62
7
  6
CONTINUOUS
 10
1.8917427088
 20
-4.6030466726
 11
2.0002533437
 21
-4.4259634068
  0
LINE
  5
366
100
AcDbEntity
  8
0
100
AcDbLine
 62
7
  6
CONTINUOUS
 10
0.553444806
 20
-5.4884633055
 11
0.6257852229
 21
-5.3822133055
  0
LINE
  5
367
100
AcDbEntity
  8
0
100
AcDbLine
 62
7
  6
CONTINUOUS
 10
1.1683384511
 20
-5.4530466726
 11
1.240678868
 21
-5.3467966726
  0
LINE
  5
368
100
AcDbEntity
  8
0
100
AcDbLine
 62
7
  6
CONTINUOUS
 10
1.2045086595
 20
-3.7176299384
 11
1.3130192849
 21
-3.5759632041
  0
LINE
  5
369
100
AcDbEntity
  8
0
100
AcDbLine
 62
7
  6
CONTINUOUS
 10
0.9513172004
 20
-4.4967966726
 11
1.0598278257
 21
-4.3551299384
  0
LINE
  5
36A
100
AcDbEntity
  8
0
100
AcDbLine
 62
7
  6
CONTINUOUS
 10
1.0236576173
 20
-4.6738799384
 11
1.1321682426
 21
-4.5676299384
  0
LINE
  5
36B
100
AcDbEntity
  8
0
100
AcDbLine
 62
7
  6
CONTINUOUS
 10
1.3491894934
 20
-3.7884634068
 11
1.4938703778
 21
-3.6822134068
  0
LINE
  5
36C
100
AcDbEntity
  8
0
100
AcDbLine
 62
7
  6
CONTINUOUS
 10
0.6619554314
 20
-3.7884634068
 11
0.7704661581
 21
-3.7176299384
  0
LINE
  5
36D
100
AcDbEntity
  8
0
100
AcDbLine
 62
7
  6
CONTINUOUS
 10
0.5896150145
 20
-3.611380141
 11
0.7704661581
 21
-3.5405466726
  0
LINE
  5
36E
100
AcDbEntity
  8
0
100
AcDbLine
 62
7
  6
CONTINUOUS
 10
1.3130192849
 20
-3.5759632041
 11
1.4938703778
 21
-3.505130141
  0
LINE
  5
36F
100
AcDbEntity
  8
0
100
AcDbLine
 62
7
  6
CONTINUOUS
 10
-0.4312754447
 20
-4.1390066726
 11
-1.5412544447
 21
-4.5552626726
  0
LINE
  5
370
100
AcDbEntity
  8
0
100
AcDbLine
 62
7
  6
CONTINUOUS
 10
-1.1873694447
 20
-4.1121866726
 11
-2.1311384447
 21
-4.4632676726
  0
LINE
  5
371
100
AcDbEntity
  8
RACCORDO
100
AcDbLine
 62
7
  6
CONTINUOUS
 10
-3.8854219695
 20
3.9909238031
 11
-4.2990125687
 21
3.9710890746
  0
LINE
  5
372
100
AcDbEntity
  8
DRAFT
100
AcDbLine
 62
7
  6
CONTINUOUS
 10
3.0060593157
 20
3.9943693274
 11
2.8364235553
 21
3.9901405766
  0
LINE
  5
373
100
AcDbEntity
  8
DRAFT
100
AcDbLine
 62
7
  6
CONTINUOUS
 10
-3.0635764447
 20
3.985641795
 11
-2.9635764447
 21
3.9866495636
  0
LINE
  5
374
100
AcDbEntity
  8
RACCORDO
100
AcDbLine
 62
253
  6
CONTINUOUS
 10
-7.6012665094
 20
3.6031730239
 11
-6.82588638
 21
3.6031730239
  0
LINE
  5
375
100
AcDbEntity
  8
RACCORDO
100
AcDbLine
 62
253
  6
CONTINUOUS
 10
6.6987334906
 20
3.6031730239
 11
7.47411362
 21
3.6031730239
  0
LINE
  5
376
100
AcDbEntity
  8
RACCORDO
100
AcDbLine
 62
7
  6
CONTINUOUS
 10
4.3597994175
 20
3.9687922856
 11
2.9364235553
 21
3.9687922856
  0
LINE
  5
377
100
AcDbEntity
  8
RACCORDO
100
AcDbLine
 62
7
  6
CONTINUOUS
 10
-3.0635764447
 20
3.9687922856
 11
-4.4869523069
 21
3.9687922856
  0
LINE
  5
378
100
AcDbEntity
  8
RACCORDO
100
AcDbLine
 62
7
  6
CONTINUOUS
 10
3.4763612939
 20
3.9943693274
 11
3.0060593157
 21
3.9943693274
  0
LINE
  5
379
100
AcDbEntity
  8
RACCORDO
100
AcDbLine
 62
7
  6
CONTINUOUS
 10
-3.1332122051
 20
3.9943693274
 11
-3.6035141832
 21
3.9943693274
  0
LINE
  5
37A
100
AcDbEntity
  8
DRAFT
100
AcDbLine
 62
7
  6
CONTINUOUS
 10
2.8364235553
 20
3.9866495636
 11
2.9364235553
 21
3.985641795
  0
LINE
  5
37B
100
AcDbEntity
  8
DRAFT
100
AcDbLine
 62
7
  6
CONTINUOUS
 10
-2.9635764447
 20
3.9901405766
 11
-3.1332122051
 21
3.9943693274
  0
LINE
  5
37C
100
AcDbEntity
  8
RACCORDO
100
AcDbLine
 62
7
  6
CONTINUOUS
 10
4.1718596793
 20
3.9710890746
 11
3.7582690801
 21
3.9909238031
  0
LINE
  5
37D
100
AcDbEntity
  8
RACCORDO
100
AcDbLine
 62
7
  6
CONTINUOUS
 10
11.1119864644
 20
-6.1405408024
 11
11.0644749308
 21
-6.0930292689
  0
LINE
  5
37E
100
AcDbEntity
  8
RACCORDO
100
AcDbLine
 62
7
  6
CONTINUOUS
 10
5.1063734614
 20
-7.6288869036
 11
5.1312784257
 21
-7.8804710237
  0
LINE
  5
37F
100
AcDbEntity
  8
RACCORDO
100
AcDbLine
 62
253
  6
CONTINUOUS
 10
5.1312784257
 20
-6.6004398515
 11
5.1312784257
 21
-7.8804710237
  0
LINE
  5
380
100
AcDbEntity
  8
0
100
AcDbLine
 62
7
  6
CONTINUOUS
 10
1.8917427088
 20
-6.1259633055
 11
2.0002533437
 21
-5.9488800397
  0
LINE
  5
381
100
AcDbEntity
  8
0
100
AcDbLine
 62
7
  6
CONTINUOUS
 10
1.7470618623
 20
-6.0197133055
 11
1.8194022793
 21
-5.9134633055
  0
LINE
  5
382
100
AcDbEntity
  8
0
100
AcDbLine
 62
7
  6
CONTINUOUS
 10
1.0959980342
 20
-5.2405466726
 11
1.2045086595
 21
-5.1342966726
  0
LINE
  5
383
100
AcDbEntity
  8
0
100
AcDbLine
 62
7
  6
CONTINUOUS
 10
1.7832320708
 20
-4.7092966726
 11
1.8917427088
 21
-4.6030466726
  0
LINE
  5
384
100
AcDbEntity
  8
0
100
AcDbLine
 62
7
  6
CONTINUOUS
 10
1.240678868
 20
-5.3467966726
 11
1.3130192849
 21
-5.2759634068
  0
LINE
  5
385
100
AcDbEntity
  8
0
100
AcDbLine
 62
7
  6
CONTINUOUS
 10
0.4811043891
 20
-5.2759634068
 11
0.6257852229
 21
-5.1697134068
  0
LINE
  5
386
100
AcDbEntity
  8
0
100
AcDbLine
 62
7
  6
CONTINUOUS
 10
1.6023810032
 20
-4.6030466726
 11
1.7470618623
 21
-4.4967966726
  0
LINE
  5
387
100
AcDbEntity
  8
0
100
AcDbLine
 62
7
  6
CONTINUOUS
 10
0.842806575
 20
-4.5676299384
 11
0.9513172004
 21
-4.4967966726
  0
LINE
  5
388
100
AcDbEntity
  8
0
100
AcDbLine
 62
7
  6
CONTINUOUS
 10
0.6257852229
 20
-5.3822133055
 11
0.7342958483
 21
-5.3113799384
  0
LINE
  5
389
100
AcDbEntity
  8
0
100
AcDbLine
 62
7
  6
CONTINUOUS
 10
0.8789767835
 20
-4.7447134068
 11
1.0236576173
 21
-4.6738799384
  0
LINE
  5
38A
100
AcDbEntity
  8
0
100
AcDbLine
 62
7
  6
CONTINUOUS
 10
1.6023810032
 20
-4.7801299384
 11
1.7832320708
 21
-4.7092966726
  0
LINE
  5
38B
100
AcDbEntity
  8
0
100
AcDbLine
 62
7
  6
CONTINUOUS
 10
1.2045086595
 20
-5.1342966726
 11
1.3853597018
 21
-5.0634634068
  0
LINE
  5
38C
100
AcDbEntity
  8
0
100
AcDbLine
 62
7
  6
CONTINUOUS
 10
0.6257852229
 20
-5.1697134068
 11
0.7342958483
 21
-5.1342966726
  0
LINE
  5
38D
100
AcDbEntity
  8
RACCORDO
100
AcDbLine
 62
253
  6
CONTINUOUS
 10
6.6987334906
 20
4.9872625462
 11
7.47411362
 21
4.9872625462
  0
LINE
  5
38E
100
AcDbEntity
  8
RACCORDO
100
AcDbLine
 62
253
  6
CONTINUOUS
 10
-6.82588638
 20
4.9872625462
 11
-7.6012665094
 21
4.9872625462
  0
LINE
  5
38F
100
AcDbEntity
  8
DRAFT
100
AcDbLine
 62
7
  6
CONTINUOUS
 10
11.1319159694
 20
-4.1511230867
 11
11.1189684904
 21
-4.1381756077
  0
LINE
  5
390
100
AcDbEntity
  8
DRAFT
100
AcDbLine
 62
7
  6
CONTINUOUS
 10
11.4319159694
 20
-4.1511230867
 11
11.3581232054
 21
-4.0773303226
  0
LINE
  5
391
100
AcDbEntity
  8
RACCORDO
100
AcDbLine
 62
253
  6
CONTINUOUS
 10
5.4312327342
 20
-6.3004855558
 11
5.4312327342
 21
-7.9324459189
  0
LINE
  5
392
100
AcDbEntity
  8
RACCORDO
100
AcDbLine
 62
253
  6
CONTINUOUS
 10
5.6416143764
 20
-7.9324459189
 11
5.6416143764
 21
-6.300485543
  0
LINE
  5
393
100
AcDbEntity
  8
RACCORDO
100
AcDbLine
 62
253
  6
CONTINUOUS
 10
5.9415686849
 20
-7.8804710237
 11
5.9415686849
 21
-6.6004398515
  0
LINE
  5
394
100
AcDbEntity
  8
RACCORDO
100
AcDbLine
 62
7
  6
CONTINUOUS
 10
9.7651575901
 20
1.0731033622
 11
9.8161885556
 21
1.1241343277
  0
LINE
  5
395
100
AcDbEntity
  8
0
100
AcDbLine
 62
7
  6
CONTINUOUS
 10
1.7470618623
 20
-6.2322133561
 11
1.8917427088
 21
-6.1259633055
  0
LINE
  5
396
100
AcDbEntity
  8
0
100
AcDbLine
 62
7
  6
CONTINUOUS
 10
1.6385512117
 20
-6.0905466726
 11
1.7470618623
 21
-6.0197133055
  0
LINE
  5
397
100
AcDbEntity
  8
0
100
AcDbLine
 62
7
  6
CONTINUOUS
 10
1.3130192849
 20
-5.2759634068
 11
1.4215299609
 21
-5.2405466726
  0
LINE
  5
398
100
AcDbEntity
  8
0
100
AcDbLine
 62
7
  6
CONTINUOUS
 10
1.5300405863
 20
-6.1259633055
 11
1.6385512117
 21
-6.0905466726
  0
LINE
  5
399
100
AcDbEntity
  8
0
100
AcDbLine
 62
7
  6
CONTINUOUS
 10
-0.4312754447
 20
-6.5079066726
 11
-2.1311384447
 21
-7.0467966726
  0
LINE
  5
39A
100
AcDbEntity
  8
DRAFT
100
AcDbLine
 62
7
  6
CONTINUOUS
 10
8.4488895459
 20
8.0467345222
 11
8.1864235553
 21
7.9943693274
  0
LINE
  5
39B
100
AcDbEntity
  8
RACCORDO
100
AcDbLine
 62
7
  6
CONTINUOUS
 10
4.1783705944
 20
5.6179618267
 11
3.7582690801
 21
5.5978148518
  0
LINE
  5
39C
100
AcDbEntity
  8
DRAFT
100
AcDbLine
 62
7
  6
CONTINUOUS
 10
-2.9635764447
 20
5.5985980783
 11
-3.1332122051
 21
5.5943693274
  0
LINE
  5
39D
100
AcDbEntity
  8
DRAFT
100
AcDbLine
 62
7
  6
CONTINUOUS
 10
2.8364235553
 20
5.6020890912
 11
2.9364235553
 21
5.6030968599
  0
LINE
  5
39E
100
AcDbEntity
  8
RACCORDO
100
AcDbLine
 62
253
  6
CONTINUOUS
 10
7.1751818055
 20
5.3408159368
 11
6.9976653051
 21
5.3408159368
  0
LINE
  5
39F
100
AcDbEntity
  8
RACCORDO
100
AcDbLine
 62
253
  6
CONTINUOUS
 10
-7.1248181945
 20
5.3408159368
 11
-7.3023346949
 21
5.3408159368
  0
LINE
  5
3A0
100
AcDbEntity
  8
RACCORDO
100
AcDbLine
 62
7
  6
CONTINUOUS
 10
3.4763612939
 20
5.5943693274
 11
3.0060593157
 21
5.5943693274
  0
LINE
  5
3A1
100
AcDbEntity
  8
RACCORDO
100
AcDbLine
 62
7
  6
CONTINUOUS
 10
-3.1332122051
 20
5.5943693274
 11
-3.6035141832
 21
5.5943693274
  0
LINE
  5
3A2
100
AcDbEntity
  8
RACCORDO
100
AcDbLine
 62
7
  6
CONTINUOUS
 10
-4.4934752121
 20
5.6202593391
 11
-3.0635764447
 21
5.6202593391
  0
LINE
  5
3A3
100
AcDbEntity
  8
RACCORDO
100
AcDbLine
 62
7
  6
CONTINUOUS
 10
2.9364235553
 20
5.6202593391
 11
4.3663223228
 21
5.6202593391
  0
LINE
  5
3A4
100
AcDbEntity
  8
RACCORDO
100
AcDbLine
 62
253
  6
CONTINUOUS
 10
-7.3146772896
 20
6.047922718
 11
-7.1124755997
 21
6.047922718
  0
LINE
  5
3A5
100
AcDbEntity
  8
RACCORDO
100
AcDbLine
 62
253
  6
CONTINUOUS
 10
6.9853227104
 20
6.047922718
 11
7.1875244003
 21
6.047922718
  0
LINE
  5
3A6
100
AcDbEntity
  8
DRAFT
100
AcDbLine
 62
7
  6
CONTINUOUS
 10
-3.0635764447
 20
5.6030968599
 11
-2.9635764447
 21
5.6020890912
  0
LINE
  5
3A7
100
AcDbEntity
  8
DRAFT
100
AcDbLine
 62
7
  6
CONTINUOUS
 10
3.0060593157
 20
5.5943693274
 11
2.8364235553
 21
5.5985980783
  0
LINE
  5
3A8
100
AcDbEntity
  8
RACCORDO
100
AcDbLine
 62
7
  6
CONTINUOUS
 10
-3.8854219695
 20
5.5978148518
 11
-4.3055234837
 21
5.6179618267
  0
LINE
  5
3A9
100
AcDbEntity
  8
DRAFT
100
AcDbLine
 62
7
  6
CONTINUOUS
 10
-8.5760424353
 20
8.0467345222
 11
-8.3135764447
 21
7.9943693274
  0
LINE
  5
3AA
100
AcDbEntity
  8
DRAFT
100
AcDbLine
 62
7
  6
CONTINUOUS
 10
10.3538786202
 20
-1.6730857375
 11
10.4159113134
 21
-1.7351184306
  0
LINE
  5
3AB
100
AcDbEntity
  8
RACCORDO
100
AcDbLine
 62
253
  6
CONTINUOUS
 10
6.6977109966
 20
5.1286839025
 11
6.6853684018
 21
5.8357906837
  0
LINE
  5
3AC
100
AcDbEntity
  8
RACCORDO
100
AcDbLine
 62
253
  6
CONTINUOUS
 10
6.9976653051
 20
5.3408159368
 11
6.9853227104
 21
6.047922718
  0
LINE
  5
3AD
100
AcDbEntity
  8
RACCORDO
100
AcDbLine
 62
253
  6
CONTINUOUS
 10
6.6812784257
 20
6.4014761086
 11
6.6812784257
 21
7.9892241978
  0
LINE
  5
3AE
100
AcDbEntity
  8
RACCORDO
100
AcDbLine
 62
253
  6
CONTINUOUS
 10
6.6987334906
 20
3.6031730239
 11
6.6987334906
 21
4.9872625462
  0
LINE
  5
3AF
100
AcDbEntity
  8
RACCORDO
100
AcDbLine
 62
253
  6
CONTINUOUS
 10
6.9812327342
 20
6.4014604749
 11
6.9812327342
 21
7.9943693274
  0
LINE
  5
3B0
100
AcDbEntity
  8
RACCORDO
100
AcDbLine
 62
253
  6
CONTINUOUS
 10
6.9986877992
 20
3.6031730239
 11
6.9986877992
 21
4.9872625462
  0
LINE
  5
3B1
100
AcDbEntity
  8
RACCORDO
100
AcDbLine
 62
253
  6
CONTINUOUS
 10
7.1741593115
 20
4.9872625462
 11
7.1741593115
 21
3.6031730239
  0
LINE
  5
3B2
100
AcDbEntity
  8
RACCORDO
100
AcDbLine
 62
253
  6
CONTINUOUS
 10
7.1916143764
 20
7.9943693274
 11
7.1916143764
 21
6.401460772
  0
LINE
  5
3B3
100
AcDbEntity
  8
RACCORDO
100
AcDbLine
 62
253
  6
CONTINUOUS
 10
7.1875244003
 20
6.047922718
 11
7.1751818055
 21
5.3408159368
  0
LINE
  5
3B4
100
AcDbEntity
  8
RACCORDO
100
AcDbLine
 62
7
  6
CONTINUOUS
 10
5.9664736492
 20
-7.6288869036
 11
5.9415686849
 21
-7.8804710237
  0
LINE
  5
3B5
100
AcDbEntity
  8
RACCORDO
100
AcDbLine
 62
7
  6
CONTINUOUS
 10
11.0609547453
 20
1.0782477382
 11
11.1119864644
 21
1.1292794573
  0
LINE
  5
3B6
100
AcDbEntity
  8
0
100
AcDbLine
 62
7
  6
CONTINUOUS
 10
1.5662107947
 20
-6.3030466726
 11
1.7470618623
 21
-6.2322133561
  0
LINE
  5
3B7
100
AcDbEntity
  8
RACCORDO
100
AcDbLine
 62
253
  6
CONTINUOUS
 10
6.6812784257
 20
6.4014761086
 11
7.4915686849
 21
6.4014761086
  0
LINE
  5
3B8
100
AcDbEntity
  8
RACCORDO
100
AcDbLine
 62
253
  6
CONTINUOUS
 10
-6.8084313151
 20
6.4014761086
 11
-7.6187215743
 21
6.4014761086
  0
LINE
  5
3B9
100
AcDbEntity
  8
DRAFT
100
AcDbLine
 62
7
  6
CONTINUOUS
 10
-3.0310315096
 20
7.2118243923
 11
-2.5635764447
 21
7.2118243923
  0
LINE
  5
3BA
100
AcDbEntity
  8
DRAFT
100
AcDbLine
 62
7
  6
CONTINUOUS
 10
2.9038786202
 20
7.2118243923
 11
2.4364235553
 21
7.2118243923
  0
LINE
  5
3BB
100
AcDbEntity
  8
DRAFT
100
AcDbLine
 62
7
  6
CONTINUOUS
 10
-2.5600854317
 20
7.2153154053
 11
2.4329325423
 21
7.2153154053
  0
LINE
  5
3BC
100
AcDbEntity
  8
RACCORDO
100
AcDbLine
 62
7
  6
CONTINUOUS
 10
11.1189684904
 20
-1.0475228284
 11
11.0617523265
 21
-0.9903066645
  0
LINE
  5
3BD
100
AcDbEntity
  8
RACCORDO
100
AcDbLine
 62
253
  6
CONTINUOUS
 10
7.47411362
 20
4.9872625462
 11
7.47411362
 21
3.6031730239
  0
LINE
  5
3BE
100
AcDbEntity
  8
RACCORDO
100
AcDbLine
 62
253
  6
CONTINUOUS
 10
7.4915686849
 20
7.9892241978
 11
7.4915686849
 21
6.4014761086
  0
LINE
  5
3BF
100
AcDbEntity
  8
DRAFT
100
AcDbLine
 62
7
  6
CONTINUOUS
 10
8.1864235553
 20
9.1350221067
 11
8.1864235553
 21
7.9943693274
  0
LINE
  5
3C0
100
AcDbEntity
  8
RACCORDO
100
AcDbLine
 62
253
  6
CONTINUOUS
 10
7.4874787088
 20
5.8357906837
 11
7.475136114
 21
5.1286839025
  0
LINE
  5
3C1
100
AcDbEntity
  8
DRAFT
100
AcDbLine
 62
7
  6
CONTINUOUS
 10
8.4488895459
 20
9.1873873014
 11
8.1864235553
 21
9.1350221067
  0
LINE
  5
3C2
100
AcDbEntity
  8
0
100
AcDbLine
 62
7
  6
CONTINUOUS
 10
-3.0635764447
 20
7.2943693274
 11
2.9364235553
 21
7.2943693274
  0
LINE
  5
3C3
100
AcDbEntity
  8
DRAFT
100
AcDbLine
 62
7
  6
CONTINUOUS
 10
-12.3635764447
 20
7.9350221067
 11
-11.2635764447
 21
7.9350221067
  0
LINE
  5
3C4
100
AcDbEntity
  8
DRAFT
100
AcDbLine
 62
7
  6
CONTINUOUS
 10
11.1364235553
 20
7.9350221067
 11
12.2364235553
 21
7.9350221067
  0
LINE
  5
3C5
100
AcDbEntity
  8
RACCORDO
100
AcDbLine
 62
253
  6
CONTINUOUS
 10
-12.3617395483
 20
7.936859003
 11
-11.2617395483
 21
7.936859003
  0
LINE
  5
3C6
100
AcDbEntity
  8
RACCORDO
100
AcDbLine
 62
253
  6
CONTINUOUS
 10
11.134586659
 20
7.936859003
 11
12.234586659
 21
7.936859003
  0
LINE
  5
3C7
100
AcDbEntity
  8
RACCORDO
100
AcDbLine
 62
7
  6
CONTINUOUS
 10
-10.8867692996
 20
7.9717186115
 11
-7.6362271606
 21
7.9717186115
  0
LINE
  5
3C8
100
AcDbEntity
  8
DRAFT
100
AcDbLine
 62
7
  6
CONTINUOUS
 10
-6.7909257288
 20
7.9717186115
 11
6.6637728394
 21
7.9717186115
  0
LINE
  5
3C9
100
AcDbEntity
  8
RACCORDO
100
AcDbLine
 62
7
  6
CONTINUOUS
 10
7.5090742712
 20
7.9717186115
 11
10.7596164102
 21
7.9717186115
  0
LINE
  5
3CA
100
AcDbEntity
  8
RACCORDO
100
AcDbLine
 62
7
  6
CONTINUOUS
 10
-8.3135764447
 20
7.9943693274
 11
-7.3187672658
 21
7.9943693274
  0
LINE
  5
3CB
100
AcDbEntity
  8
RACCORDO
100
AcDbLine
 62
7
  6
CONTINUOUS
 10
-7.1083856236
 20
7.9943693274
 11
6.9812327342
 21
7.9943693274
  0
LINE
  5
3CC
100
AcDbEntity
  8
RACCORDO
100
AcDbLine
 62
7
  6
CONTINUOUS
 10
7.1916143764
 20
7.9943693274
 11
8.1864235553
 21
7.9943693274
  0
LINE
  5
3CD
100
AcDbEntity
  8
DRAFT
100
AcDbLine
 62
7
  6
CONTINUOUS
 10
-11.2565944187
 20
8.0467345222
 11
-8.5760424353
 21
8.0467345222
  0
LINE
  5
3CE
100
AcDbEntity
  8
DRAFT
100
AcDbLine
 62
7
  6
CONTINUOUS
 10
8.4488895459
 20
8.0467345222
 11
11.1294415293
 21
8.0467345222
  0
LINE
  5
3CF
100
AcDbEntity
  8
RACCORDO
100
AcDbLine
 62
253
  6
CONTINUOUS
 10
-12.3565944187
 20
8.2368133116
 11
-11.2565944187
 21
8.2368133116
  0
LINE
  5
3D0
100
AcDbEntity
  8
RACCORDO
100
AcDbLine
 62
253
  6
CONTINUOUS
 10
11.1294415293
 20
8.2368133116
 11
12.2294415293
 21
8.2368133116
  0
LINE
  5
3D1
100
AcDbEntity
  8
DRAFT
100
AcDbLine
 62
7
  6
CONTINUOUS
 10
-8.5760424353
 20
9.1873873014
 11
-8.3135764447
 21
9.1350221067
  0
LINE
  5
3D2
100
AcDbEntity
  8
RACCORDO
100
AcDbLine
 62
253
  6
CONTINUOUS
 10
7.1775893979
 20
3.1032491763
 11
7.2083383714
 21
3.0725002028
  0
LINE
  5
3D3
100
AcDbEntity
  8
RACCORDO
100
AcDbLine
 62
253
  6
CONTINUOUS
 10
7.4775437064
 20
3.4032034849
 11
7.5083689361
 21
3.3723782552
  0
LINE
  5
3D4
100
AcDbEntity
  8
RACCORDO
100
AcDbLine
 62
7
  6
CONTINUOUS
 10
9.7649142815
 20
1.8158786013
 11
9.8161885556
 21
1.7646043272
  0
LINE
  5
3D5
100
AcDbEntity
  8
DRAFT
100
AcDbLine
 62
7
  6
CONTINUOUS
 10
8.4488895459
 20
9.1873873014
 11
8.4488895459
 21
8.0467345222
  0
LINE
  5
3D6
100
AcDbEntity
  8
RACCORDO
100
AcDbLine
 62
253
  6
CONTINUOUS
 10
5.6416143764
 20
-6.300485543
 11
5.6715603662
 21
-6.2705395531
  0
LINE
  5
3D7
100
AcDbEntity
  8
RACCORDO
100
AcDbLine
 62
253
  6
CONTINUOUS
 10
5.9415686849
 20
-6.6004398515
 11
5.9713189828
 21
-6.5706895536
  0
LINE
  5
3D8
100
AcDbEntity
  8
DRAFT
100
AcDbLine
 62
7
  6
CONTINUOUS
 10
11.1364235553
 20
-1.6556306726
 11
11.1189684904
 21
-1.6730857375
  0
LINE
  5
3D9
100
AcDbEntity
  8
DRAFT
100
AcDbLine
 62
7
  6
CONTINUOUS
 10
11.4364235553
 20
-1.6556306726
 11
11.3569357973
 21
-1.7351184306
  0
LINE
  5
3DA
100
AcDbEntity
  8
DRAFT
100
AcDbLine
 62
7
  6
CONTINUOUS
 10
-8.3135764447
 20
9.1350221067
 11
8.1864235553
 21
9.1350221067
  0
LINE
  5
3DB
100
AcDbEntity
  8
RACCORDO
100
AcDbLine
 62
7
  6
CONTINUOUS
 10
-12.1066324949
 20
9.1873873014
 11
-8.5760424353
 21
9.1873873014
  0
LINE
  5
3DC
100
AcDbEntity
  8
RACCORDO
100
AcDbLine
 62
7
  6
CONTINUOUS
 10
8.4488895459
 20
9.1873873014
 11
11.9794796056
 21
9.1873873014
  0
LINE
  5
3DD
100
AcDbEntity
  8
RACCORDO
100
AcDbLine
 62
7
  6
CONTINUOUS
 10
11.1119864644
 20
1.7594591976
 11
11.0607146378
 21
1.8107310241
  0
LINE
  5
3DE
100
AcDbEntity
  8
RACCORDO
100
AcDbLine
 62
253
  6
CONTINUOUS
 10
10.7653449193
 20
-7.6288869036
 11
10.823323117
 21
-8.214569088
  0
LINE
  5
3DF
100
AcDbEntity
  8
RACCORDO
100
AcDbLine
 62
253
  6
CONTINUOUS
 10
11.0652992292
 20
-7.3334445912
 11
11.1224595034
 21
-7.9108643035
  0
LINE
  5
3E0
100
AcDbEntity
  8
DRAFT
100
AcDbLine
 62
7
  6
CONTINUOUS
 10
9.4364235553
 20
-4.7855573479
 11
9.4364235553
 21
-1.0257039972
  0
LINE
  5
3E1
100
AcDbEntity
  8
RACCORDO
100
AcDbLine
 62
253
  6
CONTINUOUS
 10
9.8161885556
 20
1.7646043272
 11
9.8161885556
 21
1.1241343277
  0
LINE
  5
3E2
100
AcDbEntity
  8
RACCORDO
100
AcDbLine
 62
253
  6
CONTINUOUS
 10
9.8161885556
 20
-6.1353956728
 11
9.8161885556
 21
-6.7758656723
  0
LINE
  5
3E3
100
AcDbEntity
  8
DRAFT
100
AcDbLine
 62
7
  6
CONTINUOUS
 10
9.8364235553
 20
-4.8241576033
 11
9.8364235553
 21
-4.7895884225
  0
LINE
  5
3E4
100
AcDbEntity
  8
DRAFT
100
AcDbLine
 62
7
  6
CONTINUOUS
 10
9.8364235553
 20
-1.0216729227
 11
9.8364235553
 21
-0.9851577574
  0
LINE
  5
3E5
100
AcDbEntity
  8
DRAFT
100
AcDbLine
 62
7
  6
CONTINUOUS
 10
10.0864235553
 20
-4.7637385168
 11
10.0864235553
 21
-1.0475228284
  0
LINE
  5
3E6
100
AcDbEntity
  8
RACCORDO
100
AcDbLine
 62
253
  6
CONTINUOUS
 10
10.1161428641
 20
1.7594591976
 11
10.1161428641
 21
1.1292794573
  0
LINE
  5
3E7
100
AcDbEntity
  8
RACCORDO
100
AcDbLine
 62
253
  6
CONTINUOUS
 10
10.1161428641
 20
-6.1405408024
 11
10.1161428641
 21
-6.7707205427
  0
LINE
  5
3E8
100
AcDbEntity
  8
DRAFT
100
AcDbLine
 62
7
  6
CONTINUOUS
 10
10.3538786202
 20
-4.1381756077
 11
10.4147239053
 21
-4.0773303226
  0
LINE
  5
3E9
100
AcDbEntity
  8
RACCORDO
100
AcDbLine
 62
253
  6
CONTINUOUS
 10
10.7649902703
 20
-6.8229037212
 11
10.7653449205
 21
-7.3452970674
  0
LINE
  5
3EA
100
AcDbEntity
  8
RACCORDO
100
AcDbLine
 62
253
  6
CONTINUOUS
 10
10.7637372755
 20
-4.8241576036
 11
10.7645103322
 21
-6.0878773468
  0
LINE
  5
3EB
100
AcDbEntity
  8
RACCORDO
100
AcDbLine
 62
253
  6
CONTINUOUS
 10
10.7610001804
 20
1.0731033622
 11
10.7617926689
 21
-0.9851577572
  0
LINE
  5
3EC
100
AcDbEntity
  8
RACCORDO
100
AcDbLine
 62
253
  6
CONTINUOUS
 10
10.7596164102
 20
7.9717186115
 11
10.7607570441
 21
1.8158786014
  0
LINE
  5
3ED
100
AcDbEntity
  8
DRAFT
100
AcDbLine
 62
7
  6
CONTINUOUS
 10
10.3538786202
 20
-1.6730857375
 11
10.3538786202
 21
-4.1381756077
  0
LINE
  5
3EE
100
AcDbEntity
  8
DRAFT
100
AcDbLine
 62
7
  6
CONTINUOUS
 10
11.1119864644
 20
1.7594591976
 11
11.1119864644
 21
1.1292794573
  0
LINE
  5
3EF
100
AcDbEntity
  8
DRAFT
100
AcDbLine
 62
7
  6
CONTINUOUS
 10
11.1119864644
 20
-6.1405408024
 11
11.1119864644
 21
-6.7707205427
  0
LINE
  5
3F0
100
AcDbEntity
  8
DRAFT
100
AcDbLine
 62
7
  6
CONTINUOUS
 10
11.1189684904
 20
-1.0475228284
 11
11.1189684904
 21
-1.6730857375
  0
LINE
  5
3F1
100
AcDbEntity
  8
DRAFT
100
AcDbLine
 62
7
  6
CONTINUOUS
 10
11.1189684904
 20
-4.1381756077
 11
11.1189684904
 21
-4.7637385168
  0
LINE
  5
3F2
100
AcDbEntity
  8
RACCORDO
100
AcDbLine
 62
7
  6
CONTINUOUS
 10
11.1224595034
 20
-7.9108643035
 11
11.1224595034
 21
-9.2986523772
  0
LINE
  5
3F3
100
AcDbEntity
  8
RACCORDO
100
AcDbLine
 62
7
  6
CONTINUOUS
 10
11.1294415293
 20
8.2368133116
 11
11.1294415293
 21
8.0467345222
  0
LINE
  5
3F4
100
AcDbEntity
  8
DRAFT
100
AcDbLine
 62
7
  6
CONTINUOUS
 10
11.1364235553
 20
7.9350221067
 11
11.1364235553
 21
-1.6556306726
  0
LINE
  5
3F5
100
AcDbEntity
  8
DRAFT
100
AcDbLine
 62
7
  6
CONTINUOUS
 10
11.1224722999
 20
-9.2986555761
 11
11.1319159694
 21
-4.1511230867
  0
LINE
  5
3F6
100
AcDbEntity
  8
RACCORDO
100
AcDbLine
 62
7
  6
CONTINUOUS
 10
11.0636944695
 20
-4.8190125377
 11
11.1189684904
 21
-4.7637385168
  0
LINE
  5
3F7
100
AcDbEntity
  8
RACCORDO
100
AcDbLine
 62
7
  6
CONTINUOUS
 10
7.4915686849
 20
7.9892241978
 11
7.5090742712
 21
7.9717186115
  0
LINE
  5
3F8
100
AcDbEntity
  8
RACCORDO
100
AcDbLine
 62
7
  6
CONTINUOUS
 10
12.2294415293
 20
8.9374253777
 11
12.2294415293
 21
8.2368133116
  0
LINE
  5
3F9
100
AcDbEntity
  8
DRAFT
100
AcDbLine
 62
7
  6
CONTINUOUS
 10
12.2364235553
 20
7.9350221067
 11
12.2364235553
 21
-1.6941391092
  0
LINE
  5
3FA
100
AcDbEntity
  8
DRAFT
100
AcDbLine
 62
7
  6
CONTINUOUS
 10
11.4364235553
 20
-1.6556306726
 11
11.4319159694
 21
-4.1511230867
  0
LINE
  5
3FB
100
AcDbEntity
  8
RACCORDO
100
AcDbLine
 62
7
  6
CONTINUOUS
 10
12.2229304776
 20
-9.0489132041
 11
12.2364235553
 21
-1.6941391092
  0
LINE
  5
3FC
100
AcDbEntity
  8
RACCORDO
100
AcDbLine
 62
7
  6
CONTINUOUS
 10
9.7691505072
 20
-6.8229037207
 11
9.8161885556
 21
-6.7758656723
  0
LINE
  5
3FD
100
AcDbEntity
  8
RACCORDO
100
AcDbLine
 62
7
  6
CONTINUOUS
 10
11.0649488166
 20
-6.8177581906
 11
11.1119864644
 21
-6.7707205427
  0
LINE
  5
3FE
100
AcDbEntity
  8
RACCORDO
100
AcDbLine
 62
7
  6
CONTINUOUS
 10
11.1364235553
 20
7.9350221067
 11
11.134586659
 21
7.936859003
  0
LINE
  5
3FF
100
AcDbEntity
  8
RACCORDO
100
AcDbLine
 62
7
  6
CONTINUOUS
 10
12.2364235553
 20
7.9350221067
 11
12.234586659
 21
7.936859003
  0
ARC
  5
400
100
AcDbEntity
  8
RACCORDO
100
AcDbCircle
 62
253
  6
CONTINUOUS
 10
-46.97368263
 20
5.010184421
 40
53.9723683883
100
AcDbArc
 50
359.9756666866
 51
0.3509927801
  0
ARC
  5
401
100
AcDbEntity
  8
RACCORDO
100
AcDbCircle
 62
253
  6
CONTINUOUS
 10
-61.2736826297
 20
5.0101844195
 40
53.9723683881
100
AcDbArc
 50
359.9756666882
 51
0.3509927817
  0
ARC
  5
402
100
AcDbEntity
  8
RACCORDO
100
AcDbCircle
 62
253
  6
CONTINUOUS
 10
61.1465284027
 20
5.0101844326
 40
53.9723670504
100
AcDbArc
 50
179.6490072234
 51
180.0243333263
  0
ARC
  5
403
100
AcDbEntity
  8
RACCORDO
100
AcDbCircle
 62
253
  6
CONTINUOUS
 10
46.8465284026
 20
5.0101844326
 40
53.9723670503
100
AcDbArc
 50
179.6490072234
 51
180.0243333263
  0
CIRCLE
  5
404
100
AcDbEntity
  8
0
100
AcDbCircle
 62
7
  6
CONTINUOUS
 10
-0.0635764447
 20
4.7943693274
 40
1.1
  0
CIRCLE
  5
405
100
AcDbEntity
  8
0
100
AcDbCircle
 62
7
  6
CONTINUOUS
 10
-0.0635764447
 20
4.7943693274
 40
0.9
  0
ARC
  5
406
100
AcDbEntity
  8
RACCORDO
100
AcDbCircle
 62
253
  6
CONTINUOUS
 10
5.6415053401
 20
-6.6005488876
 40
0.3000638606
100
AcDbArc
 50
0.0208199654
 51
89.9791799927
  0
ARC
  5
407
100
AcDbEntity
  8
RACCORDO
100
AcDbCircle
 62
253
  6
CONTINUOUS
 10
5.4313417706
 20
-6.6005488876
 40
0.3000638606
100
AcDbArc
 50
90.0208200089
 51
179.979180033
  0
ARC
  5
408
100
AcDbEntity
  8
RACCORDO
100
AcDbCircle
 62
253
  6
CONTINUOUS
 10
-5.5584946599
 20
-6.6005488876
 40
0.3000638606
100
AcDbArc
 50
0.0208199654
 51
89.9791799927
  0
ARC
  5
409
100
AcDbEntity
  8
RACCORDO
100
AcDbCircle
 62
253
  6
CONTINUOUS
 10
-5.7686582294
 20
-6.6005488876
 40
0.3000638606
100
AcDbArc
 50
90.0208200089
 51
179.979180033
  0
ARC
  5
40A
100
AcDbEntity
  8
RACCORDO
100
AcDbCircle
 62
253
  6
CONTINUOUS
 10
-7.1225196187
 20
3.4033125015
 40
0.3000638408
100
AcDbArc
 50
270.0208162411
 51
359.9791837589
  0
ARC
  5
40B
100
AcDbEntity
  8
RACCORDO
100
AcDbCircle
 62
253
  6
CONTINUOUS
 10
7.1774803813
 20
3.4033125015
 40
0.3000638408
100
AcDbArc
 50
270.0208162411
 51
359.9791837589
  0
ARC
  5
40C
100
AcDbEntity
  8
RACCORDO
100
AcDbCircle
 62
253
  6
CONTINUOUS
 10
-7.3046333044
 20
3.4033124677
 40
0.3000638385
100
AcDbArc
 50
180.0208097933
 51
269.9791901905
  0
ARC
  5
40D
100
AcDbEntity
  8
RACCORDO
100
AcDbCircle
 62
253
  6
CONTINUOUS
 10
6.9953666956
 20
3.4033124677
 40
0.3000638385
100
AcDbArc
 50
180.0208097933
 51
269.9791901905
  0
ARC
  5
40E
100
AcDbEntity
  8
RACCORDO
100
AcDbCircle
 62
7
  6
CONTINUOUS
 10
-7.0916159628
 20
3.372491926
 40
0.299988256
100
AcDbArc
 50
269.9912782391
 51
359.9782893814
  0
ARC
  5
40F
100
AcDbEntity
  8
RACCORDO
100
AcDbCircle
 62
7
  6
CONTINUOUS
 10
-7.3355369227
 20
3.3724919221
 40
0.299988256
100
AcDbArc
 50
180.0217098738
 51
270.0087210175
  0
ARC
  5
410
100
AcDbEntity
  8
RACCORDO
100
AcDbCircle
 62
7
  6
CONTINUOUS
 10
6.9644630773
 20
3.3724919221
 40
0.299988256
100
AcDbArc
 50
180.0217098733
 51
270.0087210181
  0
ARC
  5
411
100
AcDbEntity
  8
RACCORDO
100
AcDbCircle
 62
7
  6
CONTINUOUS
 10
7.2083840372
 20
3.372491926
 40
0.299988256
100
AcDbArc
 50
269.9912782389
 51
359.9782893815
  0
ARC
  5
412
100
AcDbEntity
  8
RACCORDO
100
AcDbCircle
 62
7
  6
CONTINUOUS
 10
5.6715097954
 20
-6.5703322009
 40
0.2997998761
100
AcDbArc
 50
359.931707257
 51
89.9903350081
  0
ARC
  5
413
100
AcDbEntity
  8
RACCORDO
100
AcDbCircle
 62
7
  6
CONTINUOUS
 10
5.401337315
 20
-6.5703322001
 40
0.2997998758
100
AcDbArc
 50
90.0096649434
 51
180.0682929026
  0
ARC
  5
414
100
AcDbEntity
  8
RACCORDO
100
AcDbCircle
 62
7
  6
CONTINUOUS
 10
-5.5284902046
 20
-6.5703322009
 40
0.299799876
100
AcDbArc
 50
359.9317072534
 51
89.9903350117
  0
ARC
  5
415
100
AcDbEntity
  8
RACCORDO
100
AcDbCircle
 62
7
  6
CONTINUOUS
 10
-5.798662685
 20
-6.5703322001
 40
0.2997998758
100
AcDbArc
 50
90.0096649436
 51
180.0682929025
  0
SPLINE
  5
416
100
AcDbEntity
  8
0
100
AcDbSpline
 62
7
  6
CONTINUOUS
 70
0
 71
3
 72
9
 73
5
 74
3
 42
0.0000001
 43
0.0000001
 44
0.0000000001
 12
-0.0094537596
 22
0.4232572779
 32
0.0
 13
-0.4233861002
 23
-0.0063259668
 33
0.0
 40
0.0
 40
0.0
 40
0.0
 40
0.0
 40
0.479537544
 40
1.0
 40
1.0
 40
1.0
 40
1.0
 10
-1.3749046132
 20
-1.1450085281
 30
0.0
 10
-1.3764157574
 20
-1.0773526096
 30
0.0
 10
-1.405037529
 20
-0.9202105333
 30
0.0
 10
-1.5654704755
 20
-0.8682785935
 30
0.0
 10
-1.6389226654
 20
-0.8693760696
 30
0.0
 11
-1.3749046132
 21
-1.1450085281
 31
0.0
 11
-1.4341769898
 21
-0.950835288
 31
0.0
 11
-1.6389226654
 21
-0.8693760696
 31
0.0
  0
SPLINE
  5
417
100
AcDbEntity
  8
0
100
AcDbSpline
 62
7
  6
CONTINUOUS
 70
0
 71
3
 72
9
 73
5
 74
3
 42
0.0000001
 43
0.0000001
 44
0.0000000001
 12
-0.3133621804
 22
-0.004682097
 32
0.0
 13
-0.0361338581
 23
-0.3113313547
 33
0.0
 40
0.0
 40
0.0
 40
0.0
 40
0.0
 40
0.4988583522
 40
1.0
 40
1.0
 40
1.0
 40
1.0
 10
-1.6389226656
 20
-0.8693760549
 30
0.0
 10
-1.6910304459
 20
-0.8701546226
 30
0.0
 10
-1.7997044032
 20
-0.9125791697
 30
0.0
 10
-1.8455215469
 20
-1.0178154151
 30
0.0
 10
-1.8515576073
 20
-1.0698224511
 30
0.0
 11
-1.6389226656
 21
-0.8693760549
 31
0.0
 11
-1.7838137434
 21
-0.9281135995
 31
0.0
 11
-1.8515576073
 21
-1.0698224511
 31
0.0
  0
SPLINE
  5
418
100
AcDbEntity
  8
0
100
AcDbSpline
 62
7
  6
CONTINUOUS
 70
0
 71
3
 72
9
 73
5
 74
3
 42
0.0000001
 43
0.0000001
 44
0.0000000001
 12
-0.0321345863
 22
-0.2768734098
 32
0.0
 13
0.0468836161
 23
-0.2747605688
 33
0.0
 40
0.0
 40
0.0
 40
0.0
 40
0.0
 40
0.7295958321
 40
1.0
 40
1.0
 40
1.0
 40
1.0
 10
-1.8515576072
 20
-1.0698224511
 30
0.0
 10
-1.8593726939
 20
-1.1371576797
 30
0.0
 10
-1.8596739419
 20
-1.2311503683
 30
0.0
 10
-1.8457759374
 20
-1.3230237733
 30
0.0
 10
-1.8415500957
 20
-1.347789241
 30
0.0
 11
-1.8515576072
 21
-1.0698224511
 31
0.0
 11
-1.8522538672
 21
-1.2731829114
 31
0.0
 11
-1.8415500957
 21
-1.347789241
 31
0.0
  0
SPLINE
  5
419
100
AcDbEntity
  8
0
100
AcDbSpline
 62
7
  6
CONTINUOUS
 70
0
 71
3
 72
9
 73
5
 74
3
 42
0.0000001
 43
0.0000001
 44
0.0000000001
 12
-0.128341011
 22
0.8723735981
 32
0.0
 13
0.2997650463
 23
0.8292493193
 33
0.0
 40
0.0
 40
0.0
 40
0.0
 40
0.0
 40
0.7041528059
 40
1.0
 40
1.0
 40
1.0
 40
1.0
 10
-2.1112785269
 20
-1.6894240087
 30
0.0
 10
-2.1414024212
 20
-1.4846625697
 30
0.0
 10
-2.1710546226
 20
-1.1892682439
 30
0.0
 10
-2.1228983054
 20
-0.8954155443
 30
0.0
 10
-2.0933367561
 20
-0.8136385162
 30
0.0
 11
-2.1112785269
 21
-1.6894240087
 31
0.0
 11
-2.1445818937
 21
-1.0694214693
 31
0.0
 11
-2.0933367561
 21
-0.8136385162
 31
0.0
  0
SPLINE
  5
41A
100
AcDbEntity
  8
0
100
AcDbSpline
 62
7
  6
CONTINUOUS
 70
0
 71
3
 72
20
 73
16
 74
14
 42
0.0000001
 43
0.0000001
 44
0.0000000001
 12
0.3602221359
 22
0.9969834579
 32
0.0
 13
0.1356584285
 23
-1.0513528212
 33
0.0
 40
0.0
 40
0.0
 40
0.0
 40
0.0
 40
0.079756987
 40
0.1893481532
 40
0.2529748389
 40
0.3223669702
 40
0.3985017405
 40
0.4831988921
 40
0.5372476303
 40
0.5875584989
 40
0.6787382851
 40
0.7596505358
 40
0.8314106377
 40
0.9440765302
 40
1.0
 40
1.0
 40
1.0
 40
1.0
 10
-2.0933367941
 20
-0.8136385009
 30
0.0
 10
-2.08376005
 20
-0.7871330353
 30
0.0
 10
-2.0511004283
 20
-0.7278924828
 30
0.0
 10
-1.9914047943
 20
-0.6601268431
 30
0.0
 10
-1.9226432017
 20
-0.6084200252
 30
0.0
 10
-1.8570453651
 20
-0.5736547615
 30
0.0
 10
-1.7793908456
 20
-0.5480805024
 30
0.0
 10
-1.7038614251
 20
-0.537186001
 30
0.0
 10
-1.6369750868
 20
-0.5359971289
 30
0.0
 10
-1.5680105399
 20
-0.5413845887
 30
0.0
 10
-1.4907558336
 20
-0.5588077612
 30
0.0
 10
-1.4116648017
 20
-0.5937086017
 30
0.0
 10
-1.3324105122
 20
-0.6457642134
 30
0.0
 10
-1.2765986429
 20
-0.7077766098
 30
0.0
 10
-1.2373301735
 20
-0.7575800573
 30
0.0
 10
-1.2348013435
 20
-0.7771784898
 30
0.0
 11
-2.0933367941
 21
-0.8136385009
 31
0.0
 11
-2.0541134036
 21
-0.7387380456
 31
0.0
 11
-1.9772683663
 21
-0.6516100898
 31
0.0
 11
-1.9233578342
 21
-0.6110764339
 31
0.0
 11
-1.8583770516
 21
-0.5765998368
 31
0.0
 11
-1.7817673375
 21
-0.5512079317
 31
0.0
 11
-1.6929700109
 21
-0.5379283516
 31
0.0
 11
-1.6356834853
 21
-0.5369208895
 31
0.0
 11
-1.5825198094
 21
-0.5411671582
 31
0.0
 11
-1.4883015336
 21
-0.5627417579
 31
0.0
 11
-1.4097962376
 21
-0.5972938915
 31
0.0
 11
-1.3464849753
 21
-0.6394652995
 31
0.0
 11
-1.2633687679
 21
-0.7252329017
 31
0.0
 11
-1.2348013435
 21
-0.7771784898
 31
0.0
  0
SPLINE
  5
41B
100
AcDbEntity
  8
0
100
AcDbSpline
 62
7
  6
CONTINUOUS
 70
0
 71
3
 72
8
 73
4
 74
2
 42
0.0000001
 43
0.0000001
 44
0.0000000001
 12
0.0158042388
 22
0.0396344546
 32
0.0
 13
0.0235835294
 23
0.0350454229
 33
0.0
 40
0.0
 40
0.0
 40
0.0
 40
0.0
 40
1.0
 40
1.0
 40
1.0
 40
1.0
 10
-1.2247566363
 20
-0.7771784898
 30
0.0
 10
-1.2194885567
 20
-0.763967005
 30
0.0
 10
-1.2128103093
 20
-0.7515442267
 30
0.0
 10
-1.2049491329
 20
-0.7398624191
 30
0.0
 11
-1.2247566363
 21
-0.7771784898
 31
0.0
 11
-1.2049491329
 21
-0.7398624191
 31
0.0
  0
SPLINE
  5
41C
100
AcDbEntity
  8
0
100
AcDbSpline
 62
7
  6
CONTINUOUS
 70
0
 71
3
 72
9
 73
5
 74
3
 42
0.0000001
 43
0.0000001
 44
0.0000000001
 12
0.1952007325
 22
0.290070757
 32
0.0
 13
0.3407596404
 23
0.0928370592
 33
0.0
 40
0.0
 40
0.0
 40
0.0
 40
0.0
 40
0.7279432117
 40
1.0
 40
1.0
 40
1.0
 40
1.0
 10
-1.2049491329
 20
-0.7398624191
 30
0.0
 10
-1.1575841168
 20
-0.6694774062
 30
0.0
 10
-1.0335240682
 20
-0.6097396508
 30
0.0
 10
-0.9222220681
 20
-0.5810604897
 30
0.0
 10
-0.891320077
 20
-0.5726415057
 30
0.0
 11
-1.2049491329
 21
-0.7398624191
 31
0.0
 11
-0.9837272831
 21
-0.5989640093
 31
0.0
 11
-0.891320077
 21
-0.5726415057
 31
0.0
  0
SPLINE
  5
41D
100
AcDbEntity
  8
0
100
AcDbSpline
 62
7
  6
CONTINUOUS
 70
0
 71
3
 72
9
 73
5
 74
3
 42
0.0000001
 43
0.0000001
 44
0.0000000001
 12
0.4590342986
 22
0.125059974
 32
0.0
 13
0.4591324757
 23
0.1246990799
 33
0.0
 40
0.0
 40
0.0
 40
0.0
 40
0.0
 40
0.8019701206
 40
1.0
 40
1.0
 40
1.0
 40
1.0
 10
-0.891320077
 20
-0.5726415054
 30
0.0
 10
-0.7686094798
 20
-0.5392100513
 30
0.0
 10
-0.6149712357
 20
-0.4998672227
 30
0.0
 10
-0.4615830742
 20
-0.4595814954
 30
0.0
 10
-0.431275758
 20
-0.4513501141
 30
0.0
 11
-0.891320077
 21
-0.5726415054
 31
0.0
 11
-0.5223437597
 21
-0.4755000743
 31
0.0
 11
-0.431275758
 21
-0.4513501141
 31
0.0
  0
SPLINE
  5
41E
100
AcDbEntity
  8
0
100
AcDbSpline
 62
7
  6
CONTINUOUS
 70
0
 71
3
 72
9
 73
5
 74
3
 42
0.0000001
 43
0.0000001
 44
0.0000000001
 12
-0.5174692086
 22
-0.1487744753
 32
0.0
 13
-0.5040219036
 23
-0.1893972716
 33
0.0
 40
0.0
 40
0.0
 40
0.0
 40
0.0
 40
0.4412847493
 40
1.0
 40
1.0
 40
1.0
 40
1.0
 10
-0.431275758
 20
-0.7926534575
 30
0.0
 10
-0.507392848
 20
-0.8145374265
 30
0.0
 10
-0.6791754844
 20
-0.8662093467
 30
0.0
 10
-0.8529687603
 20
-0.9125782531
 30
0.0
 10
-0.9468370017
 20
-0.9478513011
 30
0.0
 11
-0.431275758
 21
-0.7926534575
 31
0.0
 11
-0.6593944996
 21
-0.8591088195
 31
0.0
 11
-0.9468370017
 21
-0.9478513011
 31
0.0
  0
SPLINE
  5
41F
100
AcDbEntity
  8
0
100
AcDbSpline
 62
7
  6
CONTINUOUS
 70
0
 71
3
 72
9
 73
5
 74
3
 42
0.0000001
 43
0.0000001
 44
0.0000000001
 12
-0.243894777
 22
-0.0916489686
 32
0.0
 13
-0.0
 23
-0.2605161169
 33
0.0
 40
0.0
 40
0.0
 40
0.0
 40
0.0
 40
0.6439294634
 40
1.0
 40
1.0
 40
1.0
 40
1.0
 10
-0.9468370087
 20
-0.9478512824
 30
0.0
 10
-0.999187353
 20
-0.9675231062
 30
0.0
 10
-1.0777929157
 20
-1.025941138
 30
0.0
 10
-1.0965081606
 20
-1.114852649
 30
0.0
 10
-1.0965081606
 20
-1.1457733535
 30
0.0
 11
-0.9468370087
 21
-0.9478512824
 31
0.0
 11
-1.0755869986
 21
-1.0554012633
 31
0.0
 11
-1.0965081606
 21
-1.1457733535
 31
0.0
  0
SPLINE
  5
420
100
AcDbEntity
  8
RACCORDO
100
AcDbSpline
 62
7
  6
CONTINUOUS
 70
0
 71
3
 72
10
 73
6
 74
4
 42
0.0000001
 43
0.0000001
 44
0.0000000001
 12
-0.1883407282
 22
0.1821744696
 32
0.0
 13
-0.1853866385
 23
0.1851798087
 33
0.0
 40
0.0
 40
0.0
 40
0.0
 40
0.0
 40
0.2861514979
 40
0.6199988295
 40
1.0
 40
1.0
 40
1.0
 40
1.0
 10
10.9520186981
 20
-7.5291759539
 30
0.0
 10
10.9340540376
 20
-7.5117994548
 30
0.0
 10
10.8952704385
 20
-7.4740052671
 30
0.0
 10
10.8330405211
 20
-7.4127161919
 30
0.0
 10
10.7888273005
 20
-7.3687532377
 30
0.0
 10
10.7653449206
 20
-7.3452970564
 30
0.0
 11
10.9520186981
 21
-7.5291759539
 31
0.0
 11
10.8982968607
 21
-7.4768690716
 31
0.0
 11
10.8359584948
 21
-7.415498585
 31
0.0
 11
10.7653449206
 21
-7.3452970564
 31
0.0
  0
SPLINE
  5
421
100
AcDbEntity
  8
RACCORDO
100
AcDbSpline
 62
7
  6
CONTINUOUS
 70
0
 71
3
 72
10
 73
6
 74
4
 42
0.0000001
 43
0.0000001
 44
0.0000000001
 12
0.1932351421
 22
0.1319011105
 32
0.0
 13
0.0048001619
 23
0.233911696
 33
0.0
 40
0.0
 40
0.0
 40
0.0
 40
0.0
 40
0.3395046921
 40
0.6724952268
 40
1.0
 40
1.0
 40
1.0
 40
1.0
 10
10.9520186981
 20
-7.5291759539
 30
0.0
 10
10.9738867772
 20
-7.5142489386
 30
0.0
 10
11.0134694672
 20
-7.4786023203
 30
0.0
 10
11.0542676543
 20
-7.4107117987
 30
0.0
 10
11.0647752039
 20
-7.3589803237
 30
0.0
 10
11.0652992292
 20
-7.3334445914
 30
0.0
 11
10.9520186981
 21
-7.5291759539
 31
0.0
 11
11.010757249
 21
-7.475705956
 31
0.0
 11
11.0503130453
 21
-7.4085881097
 31
0.0
 11
11.0652992292
 21
-7.3334445914
 31
0.0
  0
SPLINE
  5
422
100
AcDbEntity
  8
RACCORDO
100
AcDbSpline
 62
7
  6
CONTINUOUS
 70
0
 71
3
 72
10
 73
6
 74
4
 42
0.0000001
 43
0.0000001
 44
0.0000000001
 12
0.2111534819
 22
0.0378729015
 32
0.0
 13
0.1518156339
 23
0.1515657049
 33
0.0
 40
0.0
 40
0.0
 40
0.0
 40
0.0
 40
0.3420454831
 40
0.6747450136
 40
1.0
 40
1.0
 40
1.0
 40
1.0
 10
10.7653449193
 20
-7.6288869036
 30
0.0
 10
10.7894196175
 20
-7.6245688186
 30
0.0
 10
10.8360950881
 20
-7.6105559869
 30
0.0
 10
10.8990789705
 20
-7.5758194381
 30
0.0
 10
10.9355591007
 20
-7.5456084543
 30
0.0
 10
10.9520186981
 20
-7.5291759539
 30
0.0
 11
10.7653449193
 21
-7.6288869036
 31
0.0
 11
10.8356681105
 21
-7.6079397949
 31
0.0
 11
10.8982795354
 21
-7.5736800113
 31
0.0
 11
10.9520186981
 21
-7.5291759539
 31
0.0
  0
SPLINE
  5
423
100
AcDbEntity
  8
RACCORDO
100
AcDbSpline
 62
7
  6
CONTINUOUS
 70
0
 71
3
 72
11
 73
7
 74
5
 42
0.0000001
 43
0.0000001
 44
0.0000000001
 12
-0.1934720276
 22
0.1323336071
 32
0.0
 13
-0.004777495
 23
0.2343518393
 33
0.0
 40
0.0
 40
0.0
 40
0.0
 40
0.0
 40
0.2553623096
 40
0.5075354551
 40
0.7552605149
 40
1.0
 40
1.0
 40
1.0
 40
1.0
 10
-11.0791646505
 20
-7.5291825957
 30
0.0
 10
-11.0956331385
 20
-7.5179182572
 30
0.0
 10
-11.1262160987
 20
-7.4921524326
 30
0.0
 10
-11.1624060426
 20
-7.4449069477
 30
0.0
 10
-11.1860514202
 20
-7.3911074844
 30
0.0
 10
-11.1920623713
 20
-7.3525629742
 30
0.0
 10
-11.1924521185
 20
-7.3334445914
 30
0.0
 11
-11.0791646505
 21
-7.5291825957
 31
0.0
 11
-11.1248227058
 21
-7.4904758813
 31
0.0
 11
-11.1605631163
 21
-7.4433955422
 31
0.0
 11
-11.1837102376
 21
-7.3901416786
 31
0.0
 11
-11.1924521185
 21
-7.3334445914
 31
0.0
  0
SPLINE
  5
424
100
AcDbEntity
  8
RACCORDO
100
AcDbSpline
 62
7
  6
CONTINUOUS
 70
0
 71
3
 72
10
 73
6
 74
4
 42
0.0000001
 43
0.0000001
 44
0.0000000001
 12
0.1883472662
 22
0.1821697226
 32
0.0
 13
0.1853876284
 23
0.1851807974
 33
0.0
 40
0.0
 40
0.0
 40
0.0
 40
0.0
 40
0.2877120613
 40
0.6240039224
 40
1.0
 40
1.0
 40
1.0
 40
1.0
 10
-11.0791735059
 20
-7.5291759895
 30
0.0
 10
-11.0611102458
 20
-7.5117051807
 30
0.0
 10
-11.0220760326
 20
-7.4736665022
 30
0.0
 10
-10.9598486733
 20
-7.4123741583
 30
0.0
 10
-10.915732817
 20
-7.3685061409
 30
0.0
 10
-10.89249781
 20
-7.3452970564
 30
0.0
 11
-11.0791735059
 21
-7.5291759895
 31
0.0
 11
-11.0251583034
 21
-7.4765836647
 31
0.0
 11
-10.9623657132
 21
-7.4147608635
 31
0.0
 11
-10.89249781
 21
-7.3452970564
 31
0.0
  0
SPLINE
  5
425
100
AcDbEntity
  8
RACCORDO
100
AcDbSpline
 62
7
  6
CONTINUOUS
 70
0
 71
3
 72
10
 73
6
 74
4
 42
0.0000001
 43
0.0000001
 44
0.0000000001
 12
-0.2113510983
 22
0.0367634485
 32
0.0
 13
-0.1528975824
 23
0.1504764673
 33
0.0
 40
0.0
 40
0.0
 40
0.0
 40
0.0
 40
0.3410974996
 40
0.6751553688
 40
1.0
 40
1.0
 40
1.0
 40
1.0
 10
-10.8924978086
 20
-7.6288869036
 30
0.0
 10
-10.9165282524
 20
-7.6247069301
 30
0.0
 10
-10.9631850018
 20
-7.610501188
 30
0.0
 10
-11.0262641251
 20
-7.5759171388
 30
0.0
 10
-11.0626175196
 20
-7.5454698136
 30
0.0
 10
-11.0791735059
 20
-7.5291759895
 30
0.0
 11
-10.8924978086
 21
-7.6288869036
 31
0.0
 11
-10.9626330205
 21
-7.6080191846
 31
0.0
 11
-11.0255062119
 21
-7.5736296287
 31
0.0
 11
-11.0791735059
 21
-7.5291759895
 31
0.0
  0
SPLINE
  5
426
100
AcDbEntity
  8
RACCORDO
100
AcDbSpline
 62
253
  6
CONTINUOUS
 70
0
 71
3
 72
12
 73
8
 74
6
 42
0.0000001
 43
0.0000001
 44
0.0000000001
 12
-0.0070145166
 22
0.4019838217
 32
0.0
 13
-0.4020297068
 23
0.0035087299
 33
0.0
 40
0.0
 40
0.0
 40
0.0
 40
0.0
 40
0.1664007688
 40
0.3475548035
 40
0.549388854
 40
0.7695487352
 40
1.0
 40
1.0
 40
1.0
 40
1.0
 10
-6.8125212912
 20
5.8357906837
 30
0.0
 10
-6.8129103648
 20
5.8580874893
 30
0.0
 10
-6.8246906975
 20
5.9049126758
 30
0.0
 10
-6.8703360483
 20
5.9646205714
 30
0.0
 10
-6.9379283189
 20
6.0109294546
 30
0.0
 10
-7.0210410552
 20
6.0405561432
 30
0.0
 10
-7.0815928483
 20
6.0476531876
 30
0.0
 10
-7.1124755997
 20
6.047922718
 30
0.0
 11
-6.8125212912
 21
5.8357906837
 31
0.0
 11
-6.8281094555
 21
5.900849883
 31
0.0
 11
-6.8711012251
 21
5.9596395011
 31
0.0
 11
-6.9373535983
 21
6.0064941395
 31
0.0
 11
-7.0204820108
 21
6.036898542
 31
0.0
 11
-7.1124755997
 21
6.047922718
 31
0.0
  0
SPLINE
  5
427
100
AcDbEntity
  8
RACCORDO
100
AcDbSpline
 62
253
  6
CONTINUOUS
 70
0
 71
3
 72
12
 73
8
 74
6
 42
0.0000001
 43
0.0000001
 44
0.0000000001
 12
-0.0070145118
 22
0.401983857
 32
0.0
 13
-0.402029743
 23
0.0035086199
 33
0.0
 40
0.0
 40
0.0
 40
0.0
 40
0.0
 40
0.1663980738
 40
0.3475504099
 40
0.549384185
 40
0.7695456059
 40
1.0
 40
1.0
 40
1.0
 40
1.0
 10
-6.824863886
 20
5.1286839025
 30
0.0
 10
-6.8252529531
 20
5.150980349
 30
0.0
 10
-6.8370329346
 20
5.1978049439
 30
0.0
 10
-6.8826774433
 20
5.2575126828
 30
0.0
 10
-6.950269387
 20
5.3038219817
 30
0.0
 10
-7.0333825864
 20
5.3334492168
 30
0.0
 10
-7.0939350209
 20
5.340546411
 30
0.0
 10
-7.1248181945
 20
5.3408159366
 30
0.0
 11
-6.824863886
 21
5.1286839025
 31
0.0
 11
-6.8404515705
 21
5.1937421086
 31
0.0
 11
-6.8834425165
 21
5.2525314909
 31
0.0
 11
-6.9496944932
 21
5.2993865104
 31
0.0
 11
-7.032823363
 21
5.3297914873
 31
0.0
 11
-7.1248181945
 21
5.3408159366
 31
0.0
  0
SPLINE
  5
428
100
AcDbEntity
  8
RACCORDO
100
AcDbSpline
 62
253
  6
CONTINUOUS
 70
0
 71
3
 72
12
 73
8
 74
6
 42
0.0000001
 43
0.0000001
 44
0.0000000001
 12
0.0070145165
 22
0.4019838218
 32
0.0
 13
0.4020297069
 23
0.003508728
 33
0.0
 40
0.0
 40
0.0
 40
0.0
 40
0.0
 40
0.1664007686
 40
0.3475548033
 40
0.549388854
 40
0.7695487354
 40
1.0
 40
1.0
 40
1.0
 40
1.0
 10
-7.6022890034
 20
5.1286839025
 30
0.0
 10
-7.6018999298
 20
5.1509807081
 30
0.0
 10
-7.5901195972
 20
5.1978058946
 30
0.0
 10
-7.5444742463
 20
5.2575137901
 30
0.0
 10
-7.4768819757
 20
5.3038226734
 30
0.0
 10
-7.3937692395
 20
5.3334493623
 30
0.0
 10
-7.3332174463
 20
5.3405464066
 30
0.0
 10
-7.3023346949
 20
5.3408159368
 30
0.0
 11
-7.6022890034
 21
5.1286839025
 31
0.0
 11
-7.5867008392
 21
5.1937431018
 31
0.0
 11
-7.5437090695
 21
5.2525327199
 31
0.0
 11
-7.4774566963
 21
5.2993873584
 31
0.0
 11
-7.3943282838
 21
5.329791761
 31
0.0
 11
-7.3023346949
 21
5.3408159368
 31
0.0
  0
SPLINE
  5
429
100
AcDbEntity
  8
RACCORDO
100
AcDbSpline
 62
253
  6
CONTINUOUS
 70
0
 71
3
 72
12
 73
8
 74
6
 42
0.0000001
 43
0.0000001
 44
0.0000000001
 12
0.0070145164
 22
0.4019837961
 32
0.0
 13
0.4020296812
 23
0.0035087308
 33
0.0
 40
0.0
 40
0.0
 40
0.0
 40
0.0
 40
0.1664062852
 40
0.3475634824
 40
0.549397719
 40
0.769554416
 40
1.0
 40
1.0
 40
1.0
 40
1.0
 10
-7.6146315982
 20
5.8357906837
 30
0.0
 10
-7.6142425116
 20
5.8580882271
 30
0.0
 10
-7.6024614865
 20
5.9049145888
 30
0.0
 10
-7.5568145129
 20
5.9646227695
 30
0.0
 10
-7.4892216872
 20
6.0109308115
 30
0.0
 10
-7.4061098641
 20
6.0405564497
 30
0.0
 10
-7.3455592778
 20
6.0476531933
 30
0.0
 10
-7.3146772896
 20
6.0479227171
 30
0.0
 11
-7.6146315982
 21
5.8357906837
 31
0.0
 11
-7.5990424664
 21
5.9008519274
 31
0.0
 11
-7.5560491191
 21
5.9596419612
 31
0.0
 11
-7.4897960906
 21
6.0064957936
 31
0.0
 11
-7.4066686359
 21
6.0368990714
 31
0.0
 11
-7.3146772896
 21
6.0479227171
 31
0.0
  0
SPLINE
  5
42A
100
AcDbEntity
  8
RACCORDO
100
AcDbSpline
 62
253
  6
CONTINUOUS
 70
0
 71
3
 72
12
 73
8
 74
6
 42
0.0000001
 43
0.0000001
 44
0.0000000001
 12
0.0070145165
 22
0.4019838218
 32
0.0
 13
0.4020297069
 23
0.003508728
 33
0.0
 40
0.0
 40
0.0
 40
0.0
 40
0.0
 40
0.1664007686
 40
0.3475548033
 40
0.549388854
 40
0.7695487354
 40
1.0
 40
1.0
 40
1.0
 40
1.0
 10
6.6977109966
 20
5.1286839025
 30
0.0
 10
6.6981000702
 20
5.1509807081
 30
0.0
 10
6.7098804028
 20
5.1978058946
 30
0.0
 10
6.7555257537
 20
5.2575137901
 30
0.0
 10
6.8231180243
 20
5.3038226734
 30
0.0
 10
6.9062307605
 20
5.3334493623
 30
0.0
 10
6.9667825537
 20
5.3405464066
 30
0.0
 10
6.9976653051
 20
5.3408159368
 30
0.0
 11
6.6977109966
 21
5.1286839025
 31
0.0
 11
6.7132991608
 21
5.1937431018
 31
0.0
 11
6.7562909305
 21
5.2525327199
 31
0.0
 11
6.8225433037
 21
5.2993873584
 31
0.0
 11
6.9056717162
 21
5.329791761
 31
0.0
 11
6.9976653051
 21
5.3408159368
 31
0.0
  0
SPLINE
  5
42B
100
AcDbEntity
  8
RACCORDO
100
AcDbSpline
 62
253
  6
CONTINUOUS
 70
0
 71
3
 72
12
 73
8
 74
6
 42
0.0000001
 43
0.0000001
 44
0.0000000001
 12
0.0070145164
 22
0.4019837961
 32
0.0
 13
0.4020296812
 23
0.0035087308
 33
0.0
 40
0.0
 40
0.0
 40
0.0
 40
0.0
 40
0.1664062852
 40
0.3475634824
 40
0.549397719
 40
0.769554416
 40
1.0
 40
1.0
 40
1.0
 40
1.0
 10
6.6853684018
 20
5.8357906837
 30
0.0
 10
6.6857574884
 20
5.8580882271
 30
0.0
 10
6.6975385135
 20
5.9049145888
 30
0.0
 10
6.7431854871
 20
5.9646227695
 30
0.0
 10
6.8107783128
 20
6.0109308115
 30
0.0
 10
6.8938901359
 20
6.0405564497
 30
0.0
 10
6.9544407222
 20
6.0476531933
 30
0.0
 10
6.9853227104
 20
6.0479227171
 30
0.0
 11
6.6853684018
 21
5.8357906837
 31
0.0
 11
6.7009575336
 21
5.9008519274
 31
0.0
 11
6.7439508809
 21
5.9596419612
 31
0.0
 11
6.8102039094
 21
6.0064957936
 31
0.0
 11
6.8933313641
 21
6.0368990714
 31
0.0
 11
6.9853227104
 21
6.0479227171
 31
0.0
  0
SPLINE
  5
42C
100
AcDbEntity
  8
RACCORDO
100
AcDbSpline
 62
253
  6
CONTINUOUS
 70
0
 71
3
 72
9
 73
5
 74
3
 42
0.0000001
 43
0.0000001
 44
0.0000000001
 12
0.0053518739
 22
-1.6514713674
 32
0.0
 13
0.0076939806
 23
-1.6514621166
 33
0.0
 40
0.0
 40
0.0
 40
0.0
 40
0.0
 40
0.5000101671
 40
1.0
 40
1.0
 40
1.0
 40
1.0
 10
-4.4934752121
 20
5.6202593391
 30
0.0
 10
-4.492583215
 20
5.3450085143
 30
0.0
 10
-4.4906040877
 20
4.7945186737
 30
0.0
 10
-4.4882346109
 20
4.2440303748
 30
0.0
 10
-4.4869523069
 20
3.9687922856
 30
0.0
 11
-4.4934752121
 21
5.6202593391
 31
0.0
 11
-4.4905064561
 21
4.7945078654
 31
0.0
 11
-4.4869523069
 21
3.9687922856
 31
0.0
  0
SPLINE
  5
42D
100
AcDbEntity
  8
RACCORDO
100
AcDbSpline
 62
253
  6
CONTINUOUS
 70
0
 71
3
 72
12
 73
8
 74
6
 42
0.0000001
 43
0.0000001
 44
0.0000000001
 12
-0.0070145166
 22
0.4019838217
 32
0.0
 13
-0.4020297068
 23
0.0035087299
 33
0.0
 40
0.0
 40
0.0
 40
0.0
 40
0.0
 40
0.1664007688
 40
0.3475548035
 40
0.549388854
 40
0.7695487352
 40
1.0
 40
1.0
 40
1.0
 40
1.0
 10
7.4874787088
 20
5.8357906837
 30
0.0
 10
7.4870896352
 20
5.8580874893
 30
0.0
 10
7.4753093025
 20
5.9049126758
 30
0.0
 10
7.4296639517
 20
5.9646205714
 30
0.0
 10
7.3620716811
 20
6.0109294546
 30
0.0
 10
7.2789589448
 20
6.0405561432
 30
0.0
 10
7.2184071517
 20
6.0476531876
 30
0.0
 10
7.1875244003
 20
6.047922718
 30
0.0
 11
7.4874787088
 21
5.8357906837
 31
0.0
 11
7.4718905445
 21
5.900849883
 31
0.0
 11
7.4288987749
 21
5.9596395011
 31
0.0
 11
7.3626464017
 21
6.0064941395
 31
0.0
 11
7.2795179892
 21
6.036898542
 31
0.0
 11
7.1875244003
 21
6.047922718
 31
0.0
  0
SPLINE
  5
42E
100
AcDbEntity
  8
RACCORDO
100
AcDbSpline
 62
253
  6
CONTINUOUS
 70
0
 71
3
 72
9
 73
5
 74
3
 42
0.0000001
 43
0.0000001
 44
0.0000000001
 12
0.0076939806
 22
1.6514621166
 32
0.0
 13
0.0053518739
 23
1.6514713674
 33
0.0
 40
0.0
 40
0.0
 40
0.0
 40
0.0
 40
0.4999889708
 40
1.0
 40
1.0
 40
1.0
 40
1.0
 10
4.3597994175
 20
3.9687922856
 30
0.0
 10
4.3610817193
 20
4.2440299002
 30
0.0
 10
4.3634511964
 20
4.7945181991
 30
0.0
 10
4.3654303241
 20
5.3450080397
 30
0.0
 10
4.3663223228
 20
5.6202593391
 30
0.0
 11
4.3597994175
 21
3.9687922856
 31
0.0
 11
4.3633535611
 21
4.7945064416
 31
0.0
 11
4.3663223228
 21
5.6202593391
 31
0.0
  0
SPLINE
  5
42F
100
AcDbEntity
  8
RACCORDO
100
AcDbSpline
 62
253
  6
CONTINUOUS
 70
0
 71
3
 72
12
 73
8
 74
6
 42
0.0000001
 43
0.0000001
 44
0.0000000001
 12
-0.0070145118
 22
0.401983857
 32
0.0
 13
-0.402029743
 23
0.0035086199
 33
0.0
 40
0.0
 40
0.0
 40
0.0
 40
0.0
 40
0.1663980738
 40
0.3475504099
 40
0.549384185
 40
0.7695456059
 40
1.0
 40
1.0
 40
1.0
 40
1.0
 10
7.475136114
 20
5.1286839025
 30
0.0
 10
7.4747470469
 20
5.150980349
 30
0.0
 10
7.4629670654
 20
5.1978049439
 30
0.0
 10
7.4173225567
 20
5.2575126828
 30
0.0
 10
7.349730613
 20
5.3038219817
 30
0.0
 10
7.2666174136
 20
5.3334492168
 30
0.0
 10
7.2060649791
 20
5.340546411
 30
0.0
 10
7.1751818055
 20
5.3408159366
 30
0.0
 11
7.475136114
 21
5.1286839025
 31
0.0
 11
7.4595484295
 21
5.1937421086
 31
0.0
 11
7.4165574835
 21
5.2525314909
 31
0.0
 11
7.3503055068
 21
5.2993865104
 31
0.0
 11
7.267176637
 21
5.3297914873
 31
0.0
 11
7.1751818055
 21
5.3408159366
 31
0.0
  0
SPLINE
  5
430
100
AcDbEntity
  8
RACCORDO
100
AcDbSpline
 62
253
  6
CONTINUOUS
 70
0
 71
3
 72
13
 73
9
 74
7
 42
0.0000001
 43
0.0000001
 44
0.0000000001
 12
0.1860199012
 22
0.4640617589
 32
0.0
 13
0.0000037631
 23
0.4999567178
 33
0.0
 40
0.0
 40
0.0
 40
0.0
 40
0.0
 40
0.0378218875
 40
0.1397846932
 40
0.2991078666
 40
0.5051686897
 40
0.7442254983
 40
1.0
 40
1.0
 40
1.0
 40
1.0
 10
6.9952577128
 20
3.1032491763
 30
0.0
 10
6.9976029207
 20
3.1090997402
 30
0.0
 10
6.9941811304
 20
3.1333825545
 30
0.0
 10
6.9984786084
 20
3.1823381156
 30
0.0
 10
6.9972323741
 20
3.2606843904
 30
0.0
 10
6.9984892009
 20
3.3612301663
 30
0.0
 10
6.9985520229
 20
3.4780984693
 30
0.0
 10
6.9986874783
 20
3.5605476304
 30
0.0
 10
6.9986877992
 20
3.6031730239
 30
0.0
 11
6.9952577128
 21
3.1032491763
 31
0.0
 11
6.9961487759
 21
3.1221374766
 31
0.0
 11
6.9969766911
 21
3.1731077428
 31
0.0
 11
6.9976867141
 21
3.2527592691
 31
0.0
 11
6.9982307893
 21
3.3557793252
 31
0.0
 11
6.9985717873
 21
3.4752968961
 31
0.0
 11
6.9986877992
 21
3.6031730239
 31
0.0
  0
SPLINE
  5
431
100
AcDbEntity
  8
RACCORDO
100
AcDbSpline
 62
253
  6
CONTINUOUS
 70
0
 71
3
 72
13
 73
9
 74
7
 42
0.0000001
 43
0.0000001
 44
0.0000000001
 12
0.0000037631
 22
-0.4999567178
 32
0.0
 13
0.1860199013
 23
-0.4640617589
 33
0.0
 40
0.0
 40
0.0
 40
0.0
 40
0.0
 40
0.2557745015
 40
0.4948313101
 40
0.7008921333
 40
0.8602153068
 40
0.9621781125
 40
1.0
 40
1.0
 40
1.0
 40
1.0
 10
7.1741593115
 20
3.6031730239
 30
0.0
 10
7.1741596323
 20
3.5605476305
 30
0.0
 10
7.1742950877
 20
3.4780984694
 30
0.0
 10
7.1743579097
 20
3.3612301664
 30
0.0
 10
7.1756147365
 20
3.2606843905
 30
0.0
 10
7.1743685022
 20
3.1823381157
 30
0.0
 10
7.1786659803
 20
3.1333825545
 30
0.0
 10
7.1752441899
 20
3.1090997402
 30
0.0
 10
7.1775893979
 20
3.1032491763
 30
0.0
 11
7.1741593115
 21
3.6031730239
 31
0.0
 11
7.1742753233
 21
3.4752968962
 31
0.0
 11
7.1746163213
 21
3.3557793253
 31
0.0
 11
7.1751603965
 21
3.2527592691
 31
0.0
 11
7.1758704195
 21
3.1731077428
 31
0.0
 11
7.1766983347
 21
3.1221374766
 31
0.0
 11
7.1775893979
 21
3.1032491763
 31
0.0
  0
SPLINE
  5
432
100
AcDbEntity
  8
RACCORDO
100
AcDbSpline
 62
253
  6
CONTINUOUS
 70
0
 71
3
 72
13
 73
9
 74
7
 42
0.0000001
 43
0.0000001
 44
0.0000000001
 12
0.0000037631
 22
-0.4999567178
 32
0.0
 13
0.1860199013
 23
-0.4640617589
 33
0.0
 40
0.0
 40
0.0
 40
0.0
 40
0.0
 40
0.2557745015
 40
0.4948313101
 40
0.7008921333
 40
0.8602153068
 40
0.9621781125
 40
1.0
 40
1.0
 40
1.0
 40
1.0
 10
-7.1258406885
 20
3.6031730239
 30
0.0
 10
-7.1258403677
 20
3.5605476305
 30
0.0
 10
-7.1257049123
 20
3.4780984694
 30
0.0
 10
-7.1256420903
 20
3.3612301664
 30
0.0
 10
-7.1243852635
 20
3.2606843905
 30
0.0
 10
-7.1256314978
 20
3.1823381157
 30
0.0
 10
-7.1213340197
 20
3.1333825545
 30
0.0
 10
-7.1247558101
 20
3.1090997402
 30
0.0
 10
-7.1224106021
 20
3.1032491763
 30
0.0
 11
-7.1258406885
 21
3.6031730239
 31
0.0
 11
-7.1257246767
 21
3.4752968962
 31
0.0
 11
-7.1253836787
 21
3.3557793253
 31
0.0
 11
-7.1248396035
 21
3.2527592691
 31
0.0
 11
-7.1241295805
 21
3.1731077428
 31
0.0
 11
-7.1233016653
 21
3.1221374766
 31
0.0
 11
-7.1224106021
 21
3.1032491763
 31
0.0
  0
SPLINE
  5
433
100
AcDbEntity
  8
RACCORDO
100
AcDbSpline
 62
253
  6
CONTINUOUS
 70
0
 71
3
 72
13
 73
9
 74
7
 42
0.0000001
 43
0.0000001
 44
0.0000000001
 12
0.1860199012
 22
0.4640617589
 32
0.0
 13
0.0000037631
 23
0.4999567178
 33
0.0
 40
0.0
 40
0.0
 40
0.0
 40
0.0
 40
0.0378218875
 40
0.1397846932
 40
0.2991078666
 40
0.5051686897
 40
0.7442254983
 40
1.0
 40
1.0
 40
1.0
 40
1.0
 10
-7.3047422872
 20
3.1032491763
 30
0.0
 10
-7.3023970793
 20
3.1090997402
 30
0.0
 10
-7.3058188696
 20
3.1333825545
 30
0.0
 10
-7.3015213916
 20
3.1823381156
 30
0.0
 10
-7.3027676259
 20
3.2606843904
 30
0.0
 10
-7.3015107991
 20
3.3612301663
 30
0.0
 10
-7.3014479771
 20
3.4780984693
 30
0.0
 10
-7.3013125217
 20
3.5605476304
 30
0.0
 10
-7.3013122008
 20
3.6031730239
 30
0.0
 11
-7.3047422872
 21
3.1032491763
 31
0.0
 11
-7.3038512241
 21
3.1221374766
 31
0.0
 11
-7.3030233089
 21
3.1731077428
 31
0.0
 11
-7.3023132859
 21
3.2527592691
 31
0.0
 11
-7.3017692107
 21
3.3557793252
 31
0.0
 11
-7.3014282127
 21
3.4752968961
 31
0.0
 11
-7.3013122008
 21
3.6031730239
 31
0.0
  0
SPLINE
  5
434
100
AcDbEntity
  8
RACCORDO
100
AcDbSpline
 62
253
  6
CONTINUOUS
 70
0
 71
3
 72
9
 73
5
 74
3
 42
0.0000001
 43
0.0000001
 44
0.0000000001
 12
0.0053452796
 22
-1.6468770511
 32
0.0
 13
0.0076765739
 23
-1.6468678343
 33
0.0
 40
0.0
 40
0.0
 40
0.0
 40
0.0
 40
0.500013719
 40
1.0
 40
1.0
 40
1.0
 40
1.0
 10
-4.3055234837
 20
5.6179618267
 30
0.0
 10
-4.3046325793
 20
5.3434747871
 30
0.0
 10
-4.3026564991
 20
4.7945163836
 30
0.0
 10
-4.3002919625
 20
4.2455595159
 30
0.0
 10
-4.2990125687
 20
3.9710890746
 30
0.0
 11
-4.3055234837
 21
5.6179618267
 31
0.0
 11
-4.3025593255
 21
4.7945017052
 31
0.0
 11
-4.2990125687
 21
3.9710890746
 31
0.0
  0
SPLINE
  5
435
100
AcDbEntity
  8
RACCORDO
100
AcDbSpline
 62
253
  6
CONTINUOUS
 70
0
 71
3
 72
9
 73
5
 74
3
 42
0.0000001
 43
0.0000001
 44
0.0000000001
 12
0.0076765739
 22
1.6468678343
 32
0.0
 13
0.0053452796
 23
1.6468770511
 33
0.0
 40
0.0
 40
0.0
 40
0.0
 40
0.0
 40
0.4999867127
 40
1.0
 40
1.0
 40
1.0
 40
1.0
 10
4.1718596793
 20
3.9710890746
 30
0.0
 10
4.1731390743
 20
4.2455597529
 30
0.0
 10
4.1755036107
 20
4.7945166206
 30
0.0
 10
4.1774796907
 20
5.3434750241
 30
0.0
 10
4.1783705944
 20
5.6179618267
 30
0.0
 11
4.1718596793
 21
3.9710890746
 31
0.0
 11
4.1754064389
 21
4.7945024162
 31
0.0
 11
4.1783705944
 21
5.6179618267
 31
0.0
  0
SPLINE
  5
436
100
AcDbEntity
  8
RACCORDO
100
AcDbSpline
 62
253
  6
CONTINUOUS
 70
0
 71
3
 72
11
 73
7
 74
5
 42
0.0000001
 43
0.0000001
 44
0.0000000001
 12
-0.0098781004
 22
0.3534330094
 32
0.0
 13
0.0000006738
 23
0.3535710239
 33
0.0
 40
0.0
 40
0.0
 40
0.0
 40
0.0
 40
0.210108614
 40
0.4581332567
 40
0.7266954159
 40
1.0
 40
1.0
 40
1.0
 40
1.0
 10
6.9853227104
 20
6.047922718
 30
0.0
 10
6.9846308857
 20
6.0726758246
 30
0.0
 10
6.9834281777
 20
6.1266575356
 30
0.0
 10
6.9821736344
 20
6.2122950783
 30
0.0
 10
6.9814037169
 20
6.3053866897
 30
0.0
 10
6.9812327152
 20
6.3692496143
 30
0.0
 10
6.9812327766
 20
6.4014604749
 30
0.0
 11
6.9853227104
 21
6.047922718
 31
0.0
 11
6.9836143311
 21
6.1221913897
 31
0.0
 11
6.9822985983
 21
6.2098758457
 31
0.0
 11
6.981496074
 21
6.304828252
 31
0.0
 11
6.9812327766
 21
6.4014604749
 31
0.0
  0
SPLINE
  5
437
100
AcDbEntity
  8
RACCORDO
100
AcDbSpline
 62
253
  6
CONTINUOUS
 70
0
 71
3
 72
11
 73
7
 74
5
 42
0.0000001
 43
0.0000001
 44
0.0000000001
 12
-0.0098331854
 22
0.5656207508
 32
0.0
 13
0.0000098444
 23
0.5657062181
 33
0.0
 40
0.0
 40
0.0
 40
0.0
 40
0.0
 40
0.2097951049
 40
0.4583292293
 40
0.7269157337
 40
1.0
 40
1.0
 40
1.0
 40
1.0
 10
6.6853684018
 20
5.8357906837
 30
0.0
 10
6.6846807504
 20
5.8753455052
 30
0.0
 10
6.6834716507
 20
5.9617641515
 30
0.0
 10
6.6822195174
 20
6.0988324053
 30
0.0
 10
6.6814493866
 20
6.247838693
 30
0.0
 10
6.6812775296
 20
6.3499809528
 30
0.0
 10
6.6812784257
 20
6.4014761086
 30
0.0
 11
6.6853684018
 21
5.8357906837
 31
0.0
 11
6.6836617662
 21
5.9544608078
 31
0.0
 11
6.6823433975
 21
6.0950519262
 31
0.0
 11
6.6815413113
 21
6.2469908648
 31
0.0
 11
6.6812784257
 21
6.4014761086
 31
0.0
  0
SPLINE
  5
438
100
AcDbEntity
  8
RACCORDO
100
AcDbSpline
 62
253
  6
CONTINUOUS
 70
0
 71
3
 72
11
 73
7
 74
5
 42
0.0000001
 43
0.0000001
 44
0.0000000001
 12
-0.0000003835
 22
0.1414265542
 32
0.0
 13
-0.0024684792
 23
0.1414050099
 33
0.0
 40
0.0
 40
0.0
 40
0.0
 40
0.0
 40
0.2753968051
 40
0.5412973202
 40
0.7858857424
 40
1.0
 40
1.0
 40
1.0
 40
1.0
 10
6.6987334906
 20
4.9872625462
 30
0.0
 10
6.6987334554
 20
5.0002453533
 30
0.0
 10
6.6986905381
 20
5.0257633127
 30
0.0
 10
6.698498512
 20
5.0628112718
 30
0.0
 10
6.6981871422
 20
5.0969693163
 30
0.0
 10
6.6978871755
 20
5.1185916262
 30
0.0
 10
6.6977109966
 20
5.1286839025
 30
0.0
 11
6.6987334906
 21
4.9872625462
 31
0.0
 11
6.6986666583
 21
5.0262109101
 31
0.0
 11
6.698467631
 21
5.063815777
 31
0.0
 11
6.6981448026
 21
5.0984055683
 31
0.0
 11
6.6977109966
 21
5.1286839025
 31
0.0
  0
SPLINE
  5
439
100
AcDbEntity
  8
RACCORDO
100
AcDbSpline
 62
253
  6
CONTINUOUS
 70
0
 71
3
 72
13
 73
9
 74
7
 42
0.0000001
 43
0.0000001
 44
0.0000000001
 12
0.141041107
 22
0.141873385
 32
0.0
 13
0.0000012265
 23
0.2000516215
 33
0.0
 40
0.0
 40
0.0
 40
0.0
 40
0.0
 40
0.0379383612
 40
0.1398218345
 40
0.2991571384
 40
0.5055293226
 40
0.744720332
 40
1.0
 40
1.0
 40
1.0
 40
1.0
 10
6.6953034042
 20
3.4032034849
 30
0.0
 10
6.697087027
 20
3.4049976328
 30
0.0
 10
6.694951538
 20
3.4158822662
 30
0.0
 10
6.6980992496
 20
3.4344147079
 30
0.0
 10
6.6974547659
 20
3.4663255931
 30
0.0
 10
6.6984729238
 20
3.506366826
 30
0.0
 10
6.6986180993
 20
3.5532014037
 30
0.0
 10
6.6987333863
 20
3.5861499867
 30
0.0
 10
6.6987334906
 20
3.6031730239
 30
0.0
 11
6.6953034042
 21
3.4032034849
 31
0.0
 11
6.6961936983
 21
3.4107407171
 31
0.0
 11
6.6970218567
 21
3.4311058394
 31
0.0
 11
6.6977321288
 21
3.4629732108
 31
0.0
 11
6.6982765948
 21
3.5042547106
 31
0.0
 11
6.6986177759
 21
3.5521040435
 31
0.0
 11
6.6987334906
 21
3.6031730239
 31
0.0
  0
SPLINE
  5
43A
100
AcDbEntity
  8
RACCORDO
100
AcDbSpline
 62
253
  6
CONTINUOUS
 70
0
 71
3
 72
13
 73
9
 74
7
 42
0.0000001
 43
0.0000001
 44
0.0000000001
 12
0.0000012265
 22
-0.2000516215
 32
0.0
 13
0.1410411064
 23
-0.1418733857
 33
0.0
 40
0.0
 40
0.0
 40
0.0
 40
0.0
 40
0.2552796677
 40
0.4944706773
 40
0.7008428616
 40
0.8601781655
 40
0.9620616388
 40
1.0
 40
1.0
 40
1.0
 40
1.0
 10
7.47411362
 20
3.6031730239
 30
0.0
 10
7.4741137244
 20
3.5861499868
 30
0.0
 10
7.4742290113
 20
3.5532014037
 30
0.0
 10
7.4743741869
 20
3.5063668261
 30
0.0
 10
7.4753923447
 20
3.4663255931
 30
0.0
 10
7.4747478611
 20
3.4344147079
 30
0.0
 10
7.4778955726
 20
3.4158822662
 30
0.0
 10
7.4757600836
 20
3.4049976328
 30
0.0
 10
7.4775437064
 20
3.4032034849
 30
0.0
 11
7.47411362
 21
3.6031730239
 31
0.0
 11
7.4742293347
 21
3.5521040435
 31
0.0
 11
7.4745705158
 21
3.5042547106
 31
0.0
 11
7.4751149818
 21
3.4629732109
 31
0.0
 11
7.475825254
 21
3.4311058394
 31
0.0
 11
7.4766534123
 21
3.4107407171
 31
0.0
 11
7.4775437064
 21
3.4032034849
 31
0.0
  0
SPLINE
  5
43B
100
AcDbEntity
  8
RACCORDO
100
AcDbSpline
 62
253
  6
CONTINUOUS
 70
0
 71
3
 72
11
 73
7
 74
5
 42
0.0000001
 43
0.0000001
 44
0.0000000001
 12
-0.0024684792
 22
-0.1414050099
 32
0.0
 13
-0.0000003835
 23
-0.1414265542
 33
0.0
 40
0.0
 40
0.0
 40
0.0
 40
0.0
 40
0.2141142612
 40
0.458702684
 40
0.7246031997
 40
1.0
 40
1.0
 40
1.0
 40
1.0
 10
7.475136114
 20
5.1286839025
 30
0.0
 10
7.4749599352
 20
5.1185916261
 30
0.0
 10
7.4746599684
 20
5.0969693159
 30
0.0
 10
7.4743485987
 20
5.0628112712
 30
0.0
 10
7.4741565725
 20
5.0257633123
 30
0.0
 10
7.4741136552
 20
5.0002453531
 30
0.0
 10
7.47411362
 20
4.9872625462
 30
0.0
 11
7.475136114
 21
5.1286839025
 31
0.0
 11
7.474702308
 21
5.0984055678
 31
0.0
 11
7.4743794796
 21
5.0638157764
 31
0.0
 11
7.4741804523
 21
5.0262109094
 31
0.0
 11
7.47411362
 21
4.9872625462
 31
0.0
  0
SPLINE
  5
43C
100
AcDbEntity
  8
RACCORDO
100
AcDbSpline
 62
253
  6
CONTINUOUS
 70
0
 71
3
 72
11
 73
7
 74
5
 42
0.0000001
 43
0.0000001
 44
0.0000000001
 12
0.0000096882
 22
-0.5657062181
 32
0.0
 13
-0.0098336718
 23
-0.5656207424
 33
0.0
 40
0.0
 40
0.0
 40
0.0
 40
0.0
 40
0.2730824888
 40
0.5416689789
 40
0.7902032012
 40
1.0
 40
1.0
 40
1.0
 40
1.0
 10
7.4915686849
 20
6.4014761086
 30
0.0
 10
7.4915695668
 20
6.3499812879
 30
0.0
 10
7.4913977327
 20
6.2478393661
 30
0.0
 10
7.4906276036
 20
6.0988333976
 30
0.0
 10
7.4893754486
 20
5.9617648091
 30
0.0
 10
7.4881663998
 20
5.875345824
 30
0.0
 10
7.4874787088
 20
5.8357906837
 30
0.0
 11
7.4915686849
 21
6.4014761086
 31
0.0
 11
7.4913058039
 21
6.2469918703
 31
0.0
 11
7.49050372
 21
6.0950529398
 31
0.0
 11
7.4891853551
 21
5.954461766
 31
0.0
 11
7.4874787088
 21
5.8357906837
 31
0.0
  0
SPLINE
  5
43D
100
AcDbEntity
  8
RACCORDO
100
AcDbSpline
 62
253
  6
CONTINUOUS
 70
0
 71
3
 72
13
 73
9
 74
7
 42
0.0000001
 43
0.0000001
 44
0.0000000001
 12
0.0000012265
 22
-0.2000516215
 32
0.0
 13
0.1410411064
 23
-0.1418733857
 33
0.0
 40
0.0
 40
0.0
 40
0.0
 40
0.0
 40
0.2552796677
 40
0.4944706773
 40
0.7008428616
 40
0.8601781655
 40
0.9620616388
 40
1.0
 40
1.0
 40
1.0
 40
1.0
 10
-6.82588638
 20
3.6031730239
 30
0.0
 10
-6.8258862756
 20
3.5861499868
 30
0.0
 10
-6.8257709887
 20
3.5532014037
 30
0.0
 10
-6.8256258131
 20
3.5063668261
 30
0.0
 10
-6.8246076553
 20
3.4663255931
 30
0.0
 10
-6.8252521389
 20
3.4344147079
 30
0.0
 10
-6.8221044274
 20
3.4158822662
 30
0.0
 10
-6.8242399164
 20
3.4049976328
 30
0.0
 10
-6.8224562936
 20
3.4032034849
 30
0.0
 11
-6.82588638
 21
3.6031730239
 31
0.0
 11
-6.8257706653
 21
3.5521040435
 31
0.0
 11
-6.8254294842
 21
3.5042547106
 31
0.0
 11
-6.8248850182
 21
3.4629732109
 31
0.0
 11
-6.824174746
 21
3.4311058394
 31
0.0
 11
-6.8233465877
 21
3.4107407171
 31
0.0
 11
-6.8224562936
 21
3.4032034849
 31
0.0
  0
SPLINE
  5
43E
100
AcDbEntity
  8
RACCORDO
100
AcDbSpline
 62
253
  6
CONTINUOUS
 70
0
 71
3
 72
11
 73
7
 74
5
 42
0.0000001
 43
0.0000001
 44
0.0000000001
 12
-0.0024684792
 22
-0.1414050099
 32
0.0
 13
-0.0000003835
 23
-0.1414265542
 33
0.0
 40
0.0
 40
0.0
 40
0.0
 40
0.0
 40
0.2141142612
 40
0.458702684
 40
0.7246031997
 40
1.0
 40
1.0
 40
1.0
 40
1.0
 10
-6.824863886
 20
5.1286839025
 30
0.0
 10
-6.8250400648
 20
5.1185916261
 30
0.0
 10
-6.8253400316
 20
5.0969693159
 30
0.0
 10
-6.8256514013
 20
5.0628112712
 30
0.0
 10
-6.8258434275
 20
5.0257633123
 30
0.0
 10
-6.8258863448
 20
5.0002453531
 30
0.0
 10
-6.82588638
 20
4.9872625462
 30
0.0
 11
-6.824863886
 21
5.1286839025
 31
0.0
 11
-6.825297692
 21
5.0984055678
 31
0.0
 11
-6.8256205204
 21
5.0638157764
 31
0.0
 11
-6.8258195477
 21
5.0262109094
 31
0.0
 11
-6.82588638
 21
4.9872625462
 31
0.0
  0
SPLINE
  5
43F
100
AcDbEntity
  8
RACCORDO
100
AcDbSpline
 62
253
  6
CONTINUOUS
 70
0
 71
3
 72
11
 73
7
 74
5
 42
0.0000001
 43
0.0000001
 44
0.0000000001
 12
0.0000096882
 22
-0.5657062181
 32
0.0
 13
-0.0098336718
 23
-0.5656207424
 33
0.0
 40
0.0
 40
0.0
 40
0.0
 40
0.0
 40
0.2730824888
 40
0.5416689789
 40
0.7902032012
 40
1.0
 40
1.0
 40
1.0
 40
1.0
 10
-6.8084313151
 20
6.4014761086
 30
0.0
 10
-6.8084304332
 20
6.3499812879
 30
0.0
 10
-6.8086022673
 20
6.2478393661
 30
0.0
 10
-6.8093723964
 20
6.0988333976
 30
0.0
 10
-6.8106245514
 20
5.9617648091
 30
0.0
 10
-6.8118336002
 20
5.875345824
 30
0.0
 10
-6.8125212912
 20
5.8357906837
 30
0.0
 11
-6.8084313151
 21
6.4014761086
 31
0.0
 11
-6.8086941961
 21
6.2469918703
 31
0.0
 11
-6.80949628
 21
6.0950529398
 31
0.0
 11
-6.8108146449
 21
5.954461766
 31
0.0
 11
-6.8125212912
 21
5.8357906837
 31
0.0
  0
SPLINE
  5
440
100
AcDbEntity
  8
RACCORDO
100
AcDbSpline
 62
253
  6
CONTINUOUS
 70
0
 71
3
 72
11
 73
7
 74
5
 42
0.0000001
 43
0.0000001
 44
0.0000000001
 12
-0.0098331854
 22
0.5656207508
 32
0.0
 13
0.0000098444
 23
0.5657062181
 33
0.0
 40
0.0
 40
0.0
 40
0.0
 40
0.0
 40
0.2097951049
 40
0.4583292293
 40
0.7269157337
 40
1.0
 40
1.0
 40
1.0
 40
1.0
 10
-7.6146315982
 20
5.8357906837
 30
0.0
 10
-7.6153192496
 20
5.8753455052
 30
0.0
 10
-7.6165283493
 20
5.9617641515
 30
0.0
 10
-7.6177804826
 20
6.0988324053
 30
0.0
 10
-7.6185506134
 20
6.247838693
 30
0.0
 10
-7.6187224704
 20
6.3499809528
 30
0.0
 10
-7.6187215743
 20
6.4014761086
 30
0.0
 11
-7.6146315982
 21
5.8357906837
 31
0.0
 11
-7.6163382338
 21
5.9544608078
 31
0.0
 11
-7.6176566025
 21
6.0950519262
 31
0.0
 11
-7.6184586887
 21
6.2469908648
 31
0.0
 11
-7.6187215743
 21
6.4014761086
 31
0.0
  0
SPLINE
  5
441
100
AcDbEntity
  8
RACCORDO
100
AcDbSpline
 62
253
  6
CONTINUOUS
 70
0
 71
3
 72
11
 73
7
 74
5
 42
0.0000001
 43
0.0000001
 44
0.0000000001
 12
-0.0000003835
 22
0.1414265542
 32
0.0
 13
-0.0024684792
 23
0.1414050099
 33
0.0
 40
0.0
 40
0.0
 40
0.0
 40
0.0
 40
0.2753968051
 40
0.5412973202
 40
0.7858857424
 40
1.0
 40
1.0
 40
1.0
 40
1.0
 10
-7.6012665094
 20
4.9872625462
 30
0.0
 10
-7.6012665446
 20
5.0002453533
 30
0.0
 10
-7.6013094619
 20
5.0257633127
 30
0.0
 10
-7.601501488
 20
5.0628112718
 30
0.0
 10
-7.6018128578
 20
5.0969693163
 30
0.0
 10
-7.6021128245
 20
5.1185916262
 30
0.0
 10
-7.6022890034
 20
5.1286839025
 30
0.0
 11
-7.6012665094
 21
4.9872625462
 31
0.0
 11
-7.6013333417
 21
5.0262109101
 31
0.0
 11
-7.601532369
 21
5.063815777
 31
0.0
 11
-7.6018551974
 21
5.0984055683
 31
0.0
 11
-7.6022890034
 21
5.1286839025
 31
0.0
  0
SPLINE
  5
442
100
AcDbEntity
  8
RACCORDO
100
AcDbSpline
 62
253
  6
CONTINUOUS
 70
0
 71
3
 72
13
 73
9
 74
7
 42
0.0000001
 43
0.0000001
 44
0.0000000001
 12
0.141041107
 22
0.141873385
 32
0.0
 13
0.0000012265
 23
0.2000516215
 33
0.0
 40
0.0
 40
0.0
 40
0.0
 40
0.0
 40
0.0379383612
 40
0.1398218345
 40
0.2991571384
 40
0.5055293226
 40
0.744720332
 40
1.0
 40
1.0
 40
1.0
 40
1.0
 10
-7.6046965958
 20
3.4032034849
 30
0.0
 10
-7.602912973
 20
3.4049976328
 30
0.0
 10
-7.605048462
 20
3.4158822662
 30
0.0
 10
-7.6019007504
 20
3.4344147079
 30
0.0
 10
-7.6025452341
 20
3.4663255931
 30
0.0
 10
-7.6015270762
 20
3.506366826
 30
0.0
 10
-7.6013819007
 20
3.5532014037
 30
0.0
 10
-7.6012666137
 20
3.5861499867
 30
0.0
 10
-7.6012665094
 20
3.6031730239
 30
0.0
 11
-7.6046965958
 21
3.4032034849
 31
0.0
 11
-7.6038063017
 21
3.4107407171
 31
0.0
 11
-7.6029781433
 21
3.4311058394
 31
0.0
 11
-7.6022678712
 21
3.4629732108
 31
0.0
 11
-7.6017234052
 21
3.5042547106
 31
0.0
 11
-7.6013822241
 21
3.5521040435
 31
0.0
 11
-7.6012665094
 21
3.6031730239
 31
0.0
  0
SPLINE
  5
443
100
AcDbEntity
  8
RACCORDO
100
AcDbSpline
 62
253
  6
CONTINUOUS
 70
0
 71
3
 72
9
 73
5
 74
3
 42
0.0000001
 43
0.0000001
 44
0.0000000001
 12
0.0003603392
 22
-6.1661325534
 32
0.0
 13
0.0019281047
 23
-6.1661322625
 33
0.0
 40
0.0
 40
0.0
 40
0.0
 40
0.0
 40
0.5000355593
 40
1.0
 40
1.0
 40
1.0
 40
1.0
 10
11.0595704766
 20
7.9768634694
 30
0.0
 10
11.0596305374
 20
6.9491016227
 30
0.0
 10
11.0598812835
 20
4.8937241104
 30
0.0
 10
11.0603933099
 20
2.8383466467
 30
0.0
 10
11.0607146378
 20
1.8107310241
 30
0.0
 11
11.0595704766
 21
7.9768634694
 31
0.0
 11
11.0599466307
 21
4.8935779468
 31
0.0
 11
11.0607146378
 21
1.8107310241
 31
0.0
  0
LINE
  5
444
100
AcDbEntity
  8
RACCORDO
100
AcDbLine
 62
253
  6
CONTINUOUS
 10
11.0609547453
 20
1.0782477382
 11
11.0617523265
 21
-0.9903066645
  0
LINE
  5
445
100
AcDbEntity
  8
RACCORDO
100
AcDbLine
 62
253
  6
CONTINUOUS
 10
11.0636944695
 20
-4.8190125377
 11
11.0644749308
 21
-6.0930292689
  0
LINE
  5
446
100
AcDbEntity
  8
RACCORDO
100
AcDbLine
 62
253
  6
CONTINUOUS
 10
11.0649488166
 20
-6.8177581906
 11
11.0652992292
 21
-7.3334445912
  0
LINE
  5
447
100
AcDbEntity
  8
RACCORDO
100
AcDbLine
 62
253
  6
CONTINUOUS
 10
-11.1916278202
 20
-6.0930292689
 11
-11.1908473589
 21
-4.8190125377
  0
LINE
  5
448
100
AcDbEntity
  8
RACCORDO
100
AcDbLine
 62
253
  6
CONTINUOUS
 10
-11.1924521185
 20
-7.3334445912
 11
-11.192101706
 21
-6.8177581906
  0
LINE
  5
449
100
AcDbEntity
  8
RACCORDO
100
AcDbLine
 62
253
  6
CONTINUOUS
 10
-11.1889052159
 20
-0.9903066645
 11
-11.1881076347
 21
1.0782477382
  0
SPLINE
  5
44A
100
AcDbEntity
  8
RACCORDO
100
AcDbSpline
 62
253
  6
CONTINUOUS
 70
0
 71
3
 72
9
 73
5
 74
3
 42
0.0000001
 43
0.0000001
 44
0.0000000001
 12
0.0019281047
 22
6.1661322625
 32
0.0
 13
0.0003603392
 23
6.1661325534
 33
0.0
 40
0.0
 40
0.0
 40
0.0
 40
0.0
 40
0.4999644622
 40
1.0
 40
1.0
 40
1.0
 40
1.0
 10
-11.1878675272
 20
1.8107310241
 30
0.0
 10
-11.1875461993
 20
2.8383466909
 30
0.0
 10
-11.1870341728
 20
4.8937241546
 30
0.0
 10
-11.1867834268
 20
6.9491016669
 30
0.0
 10
-11.186723366
 20
7.9768634694
 30
0.0
 11
-11.1878675272
 21
1.8107310241
 31
0.0
 11
-11.18709952
 21
4.8935780794
 31
0.0
 11
-11.186723366
 21
7.9768634694
 31
0.0
  0
SPLINE
  5
44B
100
AcDbEntity
  8
RACCORDO
100
AcDbSpline
 62
7
  6
CONTINUOUS
 70
0
 71
3
 72
12
 73
8
 74
6
 42
0.0000001
 43
0.0000001
 44
0.0000000001
 12
0.3000709641
 22
-0.0
 32
0.0
 13
0.2121822176
 23
0.2121822095
 33
0.0
 40
0.0
 40
0.0
 40
0.0
 40
0.0
 40
0.3041016913
 40
0.5820964833
 40
0.8023227261
 40
0.9471197879
 40
1.0
 40
1.0
 40
1.0
 40
1.0
 10
10.7596164102
 20
7.9717186115
 30
0.0
 10
10.7900337727
 20
7.9717186115
 30
0.0
 10
10.8484120587
 20
7.9715872826
 30
0.0
 10
10.928057877
 20
7.9733522417
 30
0.0
 10
10.9939235062
 20
7.9715263135
 30
0.0
 10
11.0326635074
 20
7.9782603532
 30
0.0
 10
11.0558303964
 20
7.9731233894
 30
0.0
 10
11.0595704766
 20
7.9768634694
 30
0.0
 11
10.7596164102
 21
7.9717186115
 31
0.0
 11
10.8508681606
 21
7.9719667206
 31
0.0
 11
10.9342831236
 21
7.9726976345
 31
0.0
 11
11.000356915
 21
7.9738304182
 31
0.0
 11
11.0437822481
 21
7.9752761972
 31
0.0
 11
11.0595704766
 21
7.9768634694
 31
0.0
  0
SPLINE
  5
44C
100
AcDbEntity
  8
RACCORDO
100
AcDbSpline
 62
7
  6
CONTINUOUS
 70
0
 71
3
 72
12
 73
8
 74
6
 42
0.0000001
 43
0.0000001
 44
0.0000000001
 12
0.2121822176
 22
-0.2121822095
 32
0.0
 13
0.3000709641
 23
0.0
 33
0.0
 40
0.0
 40
0.0
 40
0.0
 40
0.0
 40
0.0528802121
 40
0.1976772739
 40
0.4179035167
 40
0.6958983087
 40
1.0
 40
1.0
 40
1.0
 40
1.0
 10
-11.186723366
 20
7.9768634694
 30
0.0
 10
-11.1829832857
 20
7.9731233894
 30
0.0
 10
-11.1598163968
 20
7.9782603532
 30
0.0
 10
-11.1210763956
 20
7.9715263135
 30
0.0
 10
-11.0552107664
 20
7.9733522417
 30
0.0
 10
-10.9755649481
 20
7.9715872826
 30
0.0
 10
-10.9171866621
 20
7.9717186115
 30
0.0
 10
-10.8867692996
 20
7.9717186115
 30
0.0
 11
-11.186723366
 21
7.9768634694
 31
0.0
 11
-11.1709351375
 21
7.9752761972
 31
0.0
 11
-11.1275098043
 21
7.9738304182
 31
0.0
 11
-11.061436013
 21
7.9726976345
 31
0.0
 11
-10.9780210499
 21
7.9719667206
 31
0.0
 11
-10.8867692996
 21
7.9717186115
 31
0.0
  0
SPLINE
  5
44D
100
AcDbEntity
  8
RACCORDO
100
AcDbSpline
 62
7
  6
CONTINUOUS
 70
0
 71
3
 72
12
 73
8
 74
6
 42
0.0000001
 43
0.0000001
 44
0.0000000001
 12
0.3000740987
 22
-0.0
 32
0.0
 13
0.2121856528
 23
0.2121832073
 33
0.0
 40
0.0
 40
0.0
 40
0.0
 40
0.0
 40
0.3040972291
 40
0.5820915378
 40
0.8023192843
 40
0.9471184771
 40
1.0
 40
1.0
 40
1.0
 40
1.0
 10
10.7637372755
 20
-4.8241576033
 30
0.0
 10
10.7941545095
 20
-4.8241576033
 30
0.0
 10
10.8525329045
 20
-4.8242889192
 30
0.0
 10
10.9321792268
 20
-4.8225239558
 30
0.0
 10
10.9980458361
 20
-4.8243498444
 30
0.0
 10
11.0367867505
 20
-4.817615705
 30
0.0
 10
11.059954236
 20
-4.822752728
 30
0.0
 10
11.0636944695
 20
-4.8190125377
 30
0.0
 11
10.7637372755
 21
-4.8241576033
 31
0.0
 11
10.8549886402
 21
-4.8239094887
 31
0.0
 11
10.9384043294
 21
-4.8231785528
 31
0.0
 11
11.0044792617
 21
-4.8220457267
 31
0.0
 11
11.0479056867
 21
-4.8205998859
 31
0.0
 11
11.0636944695
 21
-4.8190125377
 31
0.0
  0
SPLINE
  5
44E
100
AcDbEntity
  8
RACCORDO
100
AcDbSpline
 62
7
  6
CONTINUOUS
 70
0
 71
3
 72
12
 73
8
 74
6
 42
0.0000001
 43
0.0000001
 44
0.0000000001
 12
0.2121856528
 22
-0.2121832073
 32
0.0
 13
0.3000740987
 23
0.0
 33
0.0
 40
0.0
 40
0.0
 40
0.0
 40
0.0
 40
0.0528815229
 40
0.1976807157
 40
0.4179084622
 40
0.6959027709
 40
1.0
 40
1.0
 40
1.0
 40
1.0
 10
-11.1908473589
 20
-4.8190125377
 30
0.0
 10
-11.1871071254
 20
-4.822752728
 30
0.0
 10
-11.1639396399
 20
-4.817615705
 30
0.0
 10
-11.1251987255
 20
-4.8243498444
 30
0.0
 10
-11.0593321162
 20
-4.8225239558
 30
0.0
 10
-10.9796857939
 20
-4.8242889192
 30
0.0
 10
-10.9213073989
 20
-4.8241576033
 30
0.0
 10
-10.8908901649
 20
-4.8241576033
 30
0.0
 11
-11.1908473589
 21
-4.8190125377
 31
0.0
 11
-11.1750585761
 21
-4.8205998859
 31
0.0
 11
-11.1316321511
 21
-4.8220457267
 31
0.0
 11
-11.0655572188
 21
-4.8231785528
 31
0.0
 11
-10.9821415295
 21
-4.8239094887
 31
0.0
 11
-10.8908901649
 21
-4.8241576033
 31
0.0
  0
SPLINE
  5
44F
100
AcDbEntity
  8
RACCORDO
100
AcDbSpline
 62
7
  6
CONTINUOUS
 70
0
 71
3
 72
12
 73
8
 74
6
 42
0.0000001
 43
0.0000001
 44
0.0000000001
 12
-0.2121859816
 22
0.212186588
 32
0.0
 13
-0.3000767217
 23
0.0
 33
0.0
 40
0.0
 40
0.0
 40
0.0
 40
0.0
 40
0.0529127559
 40
0.197756379
 40
0.4180080058
 40
0.6959861204
 40
1.0
 40
1.0
 40
1.0
 40
1.0
 10
11.0617523265
 20
-0.9903066645
 30
0.0
 10
11.0580098782
 20
-0.9865642055
 30
0.0
 10
11.0348332642
 20
-0.9917021031
 30
0.0
 10
10.9960826364
 20
-0.9849666693
 30
0.0
 10
10.9302103281
 20
-0.9867914638
 30
0.0
 10
10.8505707007
 20
-0.9850266676
 30
0.0
 10
10.7922018317
 20
-0.9851577574
 30
0.0
 10
10.7617926689
 20
-0.9851577574
 30
0.0
 11
11.0617523265
 21
-0.9903066645
 31
0.0
 11
11.0459541473
 21
-0.9887176998
 31
0.0
 11
11.0025140407
 21
-0.9872707108
 31
0.0
 11
10.9364313756
 21
-0.9861371814
 31
0.0
 11
10.8530198197
 21
-0.9854059213
 31
0.0
 11
10.7617926689
 21
-0.9851577574
 31
0.0
  0
SPLINE
  5
450
100
AcDbEntity
  8
RACCORDO
100
AcDbSpline
 62
7
  6
CONTINUOUS
 70
0
 71
3
 72
12
 73
8
 74
6
 42
0.0000001
 43
0.0000001
 44
0.0000000001
 12
-0.3000767217
 22
-0.0
 32
0.0
 13
-0.2121859816
 23
-0.212186588
 33
0.0
 40
0.0
 40
0.0
 40
0.0
 40
0.0
 40
0.3040138796
 40
0.5819919942
 40
0.802243621
 40
0.9470872441
 40
1.0
 40
1.0
 40
1.0
 40
1.0
 10
-10.8889455582
 20
-0.9851577574
 30
0.0
 10
-10.919354721
 20
-0.9851577574
 30
0.0
 10
-10.9777235901
 20
-0.9850266676
 30
0.0
 10
-11.0573632175
 20
-0.9867914638
 30
0.0
 10
-11.1232355258
 20
-0.9849666693
 30
0.0
 10
-11.1619861535
 20
-0.9917021031
 30
0.0
 10
-11.1851627675
 20
-0.9865642055
 30
0.0
 10
-11.1889052159
 20
-0.9903066645
 30
0.0
 11
-10.8889455582
 21
-0.9851577574
 31
0.0
 11
-10.9801727091
 21
-0.9854059213
 31
0.0
 11
-11.063584265
 21
-0.9861371814
 31
0.0
 11
-11.12966693
 21
-0.9872707108
 31
0.0
 11
-11.1731070367
 21
-0.9887176998
 31
0.0
 11
-11.1889052159
 21
-0.9903066645
 31
0.0
  0
SPLINE
  5
451
100
AcDbEntity
  8
RACCORDO
100
AcDbSpline
 62
7
  6
CONTINUOUS
 70
0
 71
3
 72
12
 73
8
 74
6
 42
0.0000001
 43
0.0000001
 44
0.0000000001
 12
0.2121872725
 22
-0.2121835264
 32
0.0
 13
0.3000754696
 23
0.0
 33
0.0
 40
0.0
 40
0.0
 40
0.0
 40
0.0
 40
0.0528851833
 40
0.1976896626
 40
0.4179203758
 40
0.6959128578
 40
1.0
 40
1.0
 40
1.0
 40
1.0
 10
-11.192101706
 20
-6.8177581906
 30
0.0
 10
-11.188361185
 20
-6.8214986454
 30
0.0
 10
-11.1651925715
 20
-6.8163615256
 30
0.0
 10
-11.1264503294
 20
-6.8230958194
 30
0.0
 10
-11.0605828006
 20
-6.8212700628
 30
0.0
 10
-10.9809369828
 20
-6.8230350078
 30
0.0
 10
-10.9225595237
 20
-6.8229037207
 30
0.0
 10
-10.8921431597
 20
-6.8229037207
 30
0.0
 11
-11.192101706
 21
-6.8177581906
 31
0.0
 11
-11.1763117657
 21
-6.8193457302
 31
0.0
 11
-11.1328835594
 21
-6.8207917095
 31
0.0
 11
-11.0668074362
 21
-6.8219246223
 31
0.0
 11
-10.9833919144
 21
-6.8226555988
 31
0.0
 11
-10.8921431597
 21
-6.8229037207
 31
0.0
  0
SPLINE
  5
452
100
AcDbEntity
  8
RACCORDO
100
AcDbSpline
 62
7
  6
CONTINUOUS
 70
0
 71
3
 72
12
 73
8
 74
6
 42
0.0000001
 43
0.0000001
 44
0.0000000001
 12
-0.300081786
 22
0.0
 32
0.0
 13
-0.2121906568
 23
-0.2121890748
 33
0.0
 40
0.0
 40
0.0
 40
0.0
 40
0.0
 40
0.3039485293
 40
0.5819142421
 40
0.8021848151
 40
0.9470630692
 40
1.0
 40
1.0
 40
1.0
 40
1.0
 10
-10.8916632217
 20
-6.0878773463
 30
0.0
 10
-10.9220663609
 20
-6.0878773463
 30
0.0
 10
-10.9804283718
 20
-6.0877464376
 30
0.0
 10
-11.060063614
 20
-6.0895111084
 30
0.0
 10
-11.1259410454
 20
-6.0876871702
 30
0.0
 10
-11.1646997283
 20
-6.0944236169
 30
0.0
 10
-11.1878835795
 20
-6.0892850561
 30
0.0
 10
-11.1916278202
 20
-6.0930292689
 30
0.0
 11
-10.8916632217
 21
-6.0878773463
 31
0.0
 11
-10.9828723015
 21
-6.0881255526
 31
0.0
 11
-11.0662815414
 21
-6.0888570712
 31
0.0
 11
-11.1323709987
 21
-6.0899911567
 31
0.0
 11
-11.1758222072
 21
-6.0914390465
 31
0.0
 11
-11.1916278202
 21
-6.0930292689
 31
0.0
  0
SPLINE
  5
453
100
AcDbEntity
  8
RACCORDO
100
AcDbSpline
 62
7
  6
CONTINUOUS
 70
0
 71
3
 72
12
 73
8
 74
6
 42
0.0000001
 43
0.0000001
 44
0.0000000001
 12
0.212182242
 22
-0.2121828612
 32
0.0
 13
0.3000714422
 23
-0.0
 33
0.0
 40
0.0
 40
0.0
 40
0.0
 40
0.0
 40
0.0528761536
 40
0.1976675351
 40
0.4178908253
 40
0.6958877974
 40
1.0
 40
1.0
 40
1.0
 40
1.0
 10
-11.1881076347
 20
1.0782477382
 30
0.0
 10
-11.1843678411
 20
1.0745079336
 30
0.0
 10
-11.1612020436
 20
1.0796448207
 30
0.0
 10
-11.1224631953
 20
1.0729109071
 30
0.0
 10
-11.0565980843
 20
1.0747369929
 30
0.0
 10
-10.9769511917
 20
1.0729720026
 30
0.0
 10
-10.9185715322
 20
1.0731033622
 30
0.0
 10
-10.8881530698
 20
1.0731033622
 30
0.0
 11
-11.1881076347
 21
1.0782477382
 31
0.0
 11
-11.1723205841
 21
1.0766606717
 31
0.0
 11
-11.1288968823
 21
1.0752150367
 31
0.0
 11
-11.0628238703
 21
1.0740823398
 31
0.0
 11
-10.9794081198
 21
1.0733514652
 31
0.0
 11
-10.8881530698
 21
1.0731033622
 31
0.0
  0
SPLINE
  5
454
100
AcDbEntity
  8
RACCORDO
100
AcDbSpline
 62
7
  6
CONTINUOUS
 70
0
 71
3
 72
12
 73
8
 74
6
 42
0.0000001
 43
0.0000001
 44
0.0000000001
 12
-0.3000746033
 22
-0.0
 32
0.0
 13
-0.2121845123
 23
-0.2121850614
 33
0.0
 40
0.0
 40
0.0
 40
0.0
 40
0.0
 40
0.3040426971
 40
0.5820262833
 40
0.8022695576
 40
0.9470979026
 40
1.0
 40
1.0
 40
1.0
 40
1.0
 10
-10.8879099334
 20
1.8158786013
 30
0.0
 10
-10.918321764
 20
1.8158786013
 30
0.0
 10
-10.9766936789
 20
1.8160097695
 30
0.0
 10
-11.0563352745
 20
1.814244921
 30
0.0
 10
-11.1222053394
 20
1.8160700859
 30
0.0
 10
-11.1609524482
 20
1.8093351133
 30
0.0
 10
-11.1841258586
 20
1.8144727024
 30
0.0
 10
-11.1878675272
 20
1.8107310241
 30
0.0
 11
-10.8879099334
 21
1.8158786013
 31
0.0
 11
-10.9791450877
 21
1.8156304555
 31
0.0
 11
-11.0625576977
 21
1.8148993094
 31
0.0
 11
-11.1286373935
 21
1.8137660253
 31
0.0
 11
-11.1720726193
 21
1.8123194338
 31
0.0
 11
-11.1878675272
 21
1.8107310241
 31
0.0
  0
SPLINE
  5
455
100
AcDbEntity
  8
RACCORDO
100
AcDbSpline
 62
7
  6
CONTINUOUS
 70
0
 71
3
 72
12
 73
8
 74
6
 42
0.0000001
 43
0.0000001
 44
0.0000000001
 12
-0.2121906568
 22
0.2121890748
 32
0.0
 13
-0.300081786
 23
-0.0
 33
0.0
 40
0.0
 40
0.0
 40
0.0
 40
0.0
 40
0.0529369308
 40
0.1978151849
 40
0.4180857579
 40
0.6960514707
 40
1.0
 40
1.0
 40
1.0
 40
1.0
 10
11.0644749308
 20
-6.0930292689
 30
0.0
 10
11.0607306901
 20
-6.0892850561
 30
0.0
 10
11.0375468389
 20
-6.0944236169
 30
0.0
 10
10.998788156
 20
-6.0876871702
 30
0.0
 10
10.9329107246
 20
-6.0895111084
 30
0.0
 10
10.8532754824
 20
-6.0877464376
 30
0.0
 10
10.7949134715
 20
-6.0878773463
 30
0.0
 10
10.7645103324
 20
-6.0878773463
 30
0.0
 11
11.0644749308
 21
-6.0930292689
 31
0.0
 11
11.0486693178
 21
-6.0914390465
 31
0.0
 11
11.0052181093
 21
-6.0899911567
 31
0.0
 11
10.939128652
 21
-6.0888570712
 31
0.0
 11
10.8557194122
 21
-6.0881255526
 31
0.0
 11
10.7645103324
 21
-6.0878773463
 31
0.0
  0
SPLINE
  5
456
100
AcDbEntity
  8
RACCORDO
100
AcDbSpline
 62
7
  6
CONTINUOUS
 70
0
 71
3
 72
12
 73
8
 74
6
 42
0.0000001
 43
0.0000001
 44
0.0000000001
 12
0.3000754696
 22
-0.0
 32
0.0
 13
0.2121872724
 23
0.2121835264
 33
0.0
 40
0.0
 40
0.0
 40
0.0
 40
0.0
 40
0.3040871422
 40
0.5820796242
 40
0.8023103374
 40
0.9471148167
 40
1.0
 40
1.0
 40
1.0
 40
1.0
 10
10.7649902704
 20
-6.8229037207
 30
0.0
 10
10.7954066344
 20
-6.8229037207
 30
0.0
 10
10.8537840934
 20
-6.8230350078
 30
0.0
 10
10.9334299112
 20
-6.8212700628
 30
0.0
 10
10.99929744
 20
-6.8230958194
 30
0.0
 10
11.0380396821
 20
-6.8163615256
 30
0.0
 10
11.0612082957
 20
-6.8214986454
 30
0.0
 10
11.0649488166
 20
-6.8177581906
 30
0.0
 11
10.7649902704
 21
-6.8229037207
 31
0.0
 11
10.856239025
 21
-6.8226555988
 31
0.0
 11
10.9396545469
 21
-6.8219246223
 31
0.0
 11
11.00573067
 21
-6.8207917095
 31
0.0
 11
11.0491588763
 21
-6.8193457302
 31
0.0
 11
11.0649488166
 21
-6.8177581906
 31
0.0
  0
SPLINE
  5
457
100
AcDbEntity
  8
RACCORDO
100
AcDbSpline
 62
7
  6
CONTINUOUS
 70
0
 71
3
 72
12
 73
8
 74
6
 42
0.0000001
 43
0.0000001
 44
0.0000000001
 12
-0.2121845123
 22
0.2121850614
 32
0.0
 13
-0.3000746033
 23
0.0
 33
0.0
 40
0.0
 40
0.0
 40
0.0
 40
0.0
 40
0.0529020974
 40
0.1977304424
 40
0.4179737167
 40
0.6959573029
 40
1.0
 40
1.0
 40
1.0
 40
1.0
 10
11.0607146378
 20
1.8107310241
 30
0.0
 10
11.0569729693
 20
1.8144727024
 30
0.0
 10
11.0337995588
 20
1.8093351133
 30
0.0
 10
10.9950524501
 20
1.8160700859
 30
0.0
 10
10.9291823851
 20
1.814244921
 30
0.0
 10
10.8495407896
 20
1.8160097695
 30
0.0
 10
10.7911688746
 20
1.8158786013
 30
0.0
 10
10.760757044
 20
1.8158786013
 30
0.0
 11
11.0607146378
 21
1.8107310241
 31
0.0
 11
11.04491973
 21
1.8123194338
 31
0.0
 11
11.0014845042
 21
1.8137660253
 31
0.0
 11
10.9354048083
 21
1.8148993094
 31
0.0
 11
10.8519921983
 21
1.8156304555
 31
0.0
 11
10.760757044
 21
1.8158786013
 31
0.0
  0
SPLINE
  5
458
100
AcDbEntity
  8
RACCORDO
100
AcDbSpline
 62
7
  6
CONTINUOUS
 70
0
 71
3
 72
12
 73
8
 74
6
 42
0.0000001
 43
0.0000001
 44
0.0000000001
 12
0.3000714422
 22
0.0
 32
0.0
 13
0.212182242
 23
0.2121828612
 33
0.0
 40
0.0
 40
0.0
 40
0.0
 40
0.0
 40
0.3041122026
 40
0.5821091747
 40
0.8023324649
 40
0.9471238464
 40
1.0
 40
1.0
 40
1.0
 40
1.0
 10
10.7610001804
 20
1.0731033622
 30
0.0
 10
10.7914186428
 20
1.0731033622
 30
0.0
 10
10.8497983024
 20
1.0729720026
 30
0.0
 10
10.929445195
 20
1.0747369929
 30
0.0
 10
10.9953103059
 20
1.0729109071
 30
0.0
 10
11.0340491543
 20
1.0796448207
 30
0.0
 10
11.0572149517
 20
1.0745079336
 30
0.0
 10
11.0609547453
 20
1.0782477382
 30
0.0
 11
10.7610001804
 21
1.0731033622
 31
0.0
 11
10.8522552304
 21
1.0733514652
 31
0.0
 11
10.9356709809
 21
1.0740823398
 31
0.0
 11
11.001743993
 21
1.0752150367
 31
0.0
 11
11.0451676947
 21
1.0766606717
 31
0.0
 11
11.0609547453
 21
1.0782477382
 31
0.0
  0
SPLINE
  5
459
100
AcDbEntity
  8
RACCORDO
100
AcDbSpline
 62
253
  6
CONTINUOUS
 70
0
 71
3
 72
11
 73
7
 74
5
 42
0.0000001
 43
0.0000001
 44
0.0000000001
 12
0.000000661
 22
-0.353571321
 32
0.0
 13
-0.0098781864
 23
-0.3534333042
 33
0.0
 40
0.0
 40
0.0
 40
0.0
 40
0.0
 40
0.2733034014
 40
0.5418653407
 40
0.7898898962
 40
1.0
 40
1.0
 40
1.0
 40
1.0
 10
7.1916143349
 20
6.401460772
 30
0.0
 10
7.1916143951
 20
6.3692500238
 30
0.0
 10
7.1914433964
 20
6.3053872108
 30
0.0
 10
7.1906734872
 20
6.2122956966
 30
0.0
 10
7.1894189332
 20
6.1266579428
 30
0.0
 10
7.1882162358
 20
6.0726760208
 30
0.0
 10
7.1875244003
 20
6.047922718
 30
0.0
 11
7.1916143349
 21
6.401460772
 31
0.0
 11
7.1913510407
 21
6.304828886
 31
0.0
 11
7.1905485209
 21
6.2098764777
 31
0.0
 11
7.1892327884
 21
6.1221919789
 31
0.0
 11
7.1875244003
 21
6.047922718
 31
0.0
  0
SPLINE
  5
45A
100
AcDbEntity
  8
RACCORDO
100
AcDbSpline
 62
253
  6
CONTINUOUS
 70
0
 71
3
 72
11
 73
7
 74
5
 42
0.0000001
 43
0.0000001
 44
0.0000000001
 12
0.000000661
 22
-0.353571321
 32
0.0
 13
-0.0098781864
 23
-0.3534333042
 33
0.0
 40
0.0
 40
0.0
 40
0.0
 40
0.0
 40
0.2733034014
 40
0.5418653407
 40
0.7898898962
 40
1.0
 40
1.0
 40
1.0
 40
1.0
 10
-7.1083856651
 20
6.401460772
 30
0.0
 10
-7.1083856049
 20
6.3692500238
 30
0.0
 10
-7.1085566036
 20
6.3053872108
 30
0.0
 10
-7.1093265128
 20
6.2122956966
 30
0.0
 10
-7.1105810668
 20
6.1266579428
 30
0.0
 10
-7.1117837642
 20
6.0726760208
 30
0.0
 10
-7.1124755997
 20
6.047922718
 30
0.0
 11
-7.1083856651
 21
6.401460772
 31
0.0
 11
-7.1086489593
 21
6.304828886
 31
0.0
 11
-7.1094514791
 21
6.2098764777
 31
0.0
 11
-7.1107672116
 21
6.1221919789
 31
0.0
 11
-7.1124755997
 21
6.047922718
 31
0.0
  0
SPLINE
  5
45B
100
AcDbEntity
  8
RACCORDO
100
AcDbSpline
 62
253
  6
CONTINUOUS
 70
0
 71
3
 72
11
 73
7
 74
5
 42
0.0000001
 43
0.0000001
 44
0.0000000001
 12
-0.0098781004
 22
0.3534330094
 32
0.0
 13
0.0000006738
 23
0.3535710239
 33
0.0
 40
0.0
 40
0.0
 40
0.0
 40
0.0
 40
0.210108614
 40
0.4581332567
 40
0.7266954159
 40
1.0
 40
1.0
 40
1.0
 40
1.0
 10
-7.3146772896
 20
6.047922718
 30
0.0
 10
-7.3153691143
 20
6.0726758246
 30
0.0
 10
-7.3165718223
 20
6.1266575356
 30
0.0
 10
-7.3178263656
 20
6.2122950783
 30
0.0
 10
-7.3185962831
 20
6.3053866897
 30
0.0
 10
-7.3187672848
 20
6.3692496143
 30
0.0
 10
-7.3187672234
 20
6.4014604749
 30
0.0
 11
-7.3146772896
 21
6.047922718
 31
0.0
 11
-7.3163856689
 21
6.1221913897
 31
0.0
 11
-7.3177014017
 21
6.2098758457
 31
0.0
 11
-7.318503926
 21
6.304828252
 31
0.0
 11
-7.3187672234
 21
6.4014604749
 31
0.0
  0
SPLINE
  5
45C
100
AcDbEntity
  8
RACCORDO
100
AcDbSpline
 62
7
  6
CONTINUOUS
 70
0
 71
3
 72
11
 73
7
 74
5
 42
0.0000001
 43
0.0000001
 44
0.0000000001
 12
0.1877591309
 22
0.0090044277
 32
0.0
 13
0.1879749211
 23
0.0
 33
0.0
 40
0.0
 40
0.0
 40
0.0
 40
0.0
 40
0.1555665837
 40
0.3898430933
 40
0.6801151059
 40
1.0
 40
1.0
 40
1.0
 40
1.0
 10
4.1783705944
 20
5.6179618267
 30
0.0
 10
4.1881069432
 20
5.6184287561
 30
0.0
 10
4.2125291192
 20
5.6190571942
 30
0.0
 10
4.2551375034
 20
5.6197361462
 30
0.0
 10
4.3080475813
 20
5.6201591189
 30
0.0
 10
4.3462788769
 20
5.6202593391
 30
0.0
 10
4.3663223228
 20
5.6202593391
 30
0.0
 11
4.1783705944
 21
5.6179618267
 31
0.0
 11
4.2075984063
 21
5.6188922115
 31
0.0
 11
4.2516303642
 21
5.6196282022
 31
0.0
 11
4.306192202
 21
5.6200977983
 31
0.0
 11
4.3663223228
 21
5.6202593391
 31
0.0
  0
SPLINE
  5
45D
100
AcDbEntity
  8
RACCORDO
100
AcDbSpline
 62
7
  6
CONTINUOUS
 70
0
 71
3
 72
11
 73
7
 74
5
 42
0.0000001
 43
0.0000001
 44
0.0000000001
 12
-0.1879629201
 22
0.0
 32
0.0
 13
-0.1877471435
 23
0.009003857
 33
0.0
 40
0.0
 40
0.0
 40
0.0
 40
0.0
 40
0.3199428211
 40
0.6102303145
 40
0.8444792159
 40
1.0
 40
1.0
 40
1.0
 40
1.0
 10
4.3597994175
 20
3.9687922856
 30
0.0
 10
4.3397536219
 20
3.9687922856
 30
0.0
 10
4.301520168
 20
3.9688924888
 30
0.0
 10
4.2486105976
 20
3.96931537
 30
0.0
 10
4.2060085619
 20
3.9699941283
 30
0.0
 10
4.1815925403
 20
3.9706223123
 30
0.0
 10
4.1718596793
 20
3.9710890746
 30
0.0
 11
4.3597994175
 21
3.9687922856
 31
0.0
 11
4.2996622475
 21
3.9689538138
 31
0.0
 11
4.2451009827
 21
3.9694233281
 31
0.0
 11
4.2010770231
 21
3.9701590885
 31
0.0
 11
4.1718596793
 21
3.9710890746
 31
0.0
  0
SPLINE
  5
45E
100
AcDbEntity
  8
RACCORDO
100
AcDbSpline
 62
7
  6
CONTINUOUS
 70
0
 71
3
 72
11
 73
7
 74
5
 42
0.0000001
 43
0.0000001
 44
0.0000000001
 12
-0.1877471435
 22
-0.009003857
 32
0.0
 13
-0.1879629201
 23
-0.0
 33
0.0
 40
0.0
 40
0.0
 40
0.0
 40
0.0
 40
0.1555207841
 40
0.3897696855
 40
0.6800571789
 40
1.0
 40
1.0
 40
1.0
 40
1.0
 10
-4.2990125687
 20
3.9710890746
 30
0.0
 10
-4.3087454297
 20
3.9706223123
 30
0.0
 10
-4.3331614512
 20
3.9699941283
 30
0.0
 10
-4.375763487
 20
3.96931537
 30
0.0
 10
-4.4286730574
 20
3.9688924888
 30
0.0
 10
-4.4669065113
 20
3.9687922856
 30
0.0
 10
-4.4869523069
 20
3.9687922856
 30
0.0
 11
-4.2990125687
 21
3.9710890746
 31
0.0
 11
-4.3282299124
 21
3.9701590885
 31
0.0
 11
-4.3722538721
 21
3.9694233281
 31
0.0
 11
-4.4268151369
 21
3.9689538138
 31
0.0
 11
-4.4869523069
 21
3.9687922856
 31
0.0
  0
SPLINE
  5
45F
100
AcDbEntity
  8
RACCORDO
100
AcDbSpline
 62
7
  6
CONTINUOUS
 70
0
 71
3
 72
11
 73
7
 74
5
 42
0.0000001
 43
0.0000001
 44
0.0000000001
 12
0.1879749211
 22
0.0
 32
0.0
 13
0.1877591309
 23
-0.0090044277
 33
0.0
 40
0.0
 40
0.0
 40
0.0
 40
0.0
 40
0.3198848941
 40
0.6101569067
 40
0.8444334163
 40
1.0
 40
1.0
 40
1.0
 40
1.0
 10
-4.4934752121
 20
5.6202593391
 30
0.0
 10
-4.4734317662
 20
5.6202593391
 30
0.0
 10
-4.4352004707
 20
5.6201591189
 30
0.0
 10
-4.3822903928
 20
5.6197361462
 30
0.0
 10
-4.3396820086
 20
5.6190571942
 30
0.0
 10
-4.3152598326
 20
5.6184287561
 30
0.0
 10
-4.3055234837
 20
5.6179618267
 30
0.0
 11
-4.4934752121
 21
5.6202593391
 31
0.0
 11
-4.4333450914
 21
5.6200977983
 31
0.0
 11
-4.3787832535
 21
5.6196282022
 31
0.0
 11
-4.3347512957
 21
5.6188922115
 31
0.0
 11
-4.3055234837
 21
5.6179618267
 31
0.0
  0
ELLIPSE
  5
460
100
AcDbEntity
  8
RACCORDO
100
AcDbEllipse
 62
7
  6
CONTINUOUS
 10
11.9728924653
 20
-9.0488751628
 30
0.0
 11
0.2183310446
 21
0.1221043275
 31
0.0
 40
0.9980297029
 41
-2.0815635429
 42
-0.5109195152
  0
ELLIPSE
  5
461
100
AcDbEntity
  8
RACCORDO
100
AcDbEllipse
 62
7
  6
CONTINUOUS
 10
-12.1000453547
 20
-9.0488751628
 30
0.0
 11
0.2183310446
 21
-0.1221043275
 31
0.0
 40
0.9980297029
 41
-2.6306731384
 42
-1.0600291107
  0
ELLIPSE
  5
462
100
AcDbEntity
  8
RACCORDO
100
AcDbEllipse
 62
7
  6
CONTINUOUS
 10
-12.1065563367
 20
8.9373492194
 30
0.0
 11
-0.1768305473
 21
0.1768305473
 31
0.0
 40
0.9996954599
 41
-0.7852458701
 42
0.7852458701
  0
ELLIPSE
  5
463
100
AcDbEntity
  8
RACCORDO
100
AcDbEllipse
 62
7
  6
CONTINUOUS
 10
11.9794034473
 20
8.9373492194
 30
0.0
 11
-0.1768305473
 21
-0.1768305473
 31
0.0
 40
0.9996954599
 41
2.3563467834
 42
3.9268385237
  0
ELLIPSE
  5
464
100
AcDbEntity
  8
RACCORDO
100
AcDbEllipse
 62
7
  6
CONTINUOUS
 10
-12.3618309382
 20
8.2368133116
 30
0.0
 11
0.0
 21
0.3
 31
0.0
 40
0.0174550649
 41
-3.1241393611
 42
-1.5707963268
  0
ELLIPSE
  5
465
100
AcDbEntity
  8
RACCORDO
100
AcDbEllipse
 62
7
  6
CONTINUOUS
 10
12.2346780488
 20
8.2368133116
 30
0.0
 11
-0.0
 21
0.3
 31
0.0
 40
0.0174550649
 41
-4.7123889804
 42
-3.1590459461
  0
ELLIPSE
  5
466
100
AcDbEntity
  8
DRAFT
100
AcDbEllipse
 62
7
  6
CONTINUOUS
 10
-17.286595049
 20
9.3943693274
 30
0.0
 11
0.0
 21
423.7
 31
0.0
 40
0.0174550649
 41
-1.6090810457
 42
-1.6073450502
  0
ELLIPSE
  5
467
100
AcDbEntity
  8
DRAFT
100
AcDbEllipse
 62
7
  6
CONTINUOUS
 10
-17.286595049
 20
9.3943693274
 30
0.0
 11
0.0
 21
423.7
 31
0.0
 40
0.0174550649
 41
-1.5904371127
 42
-1.588683735
  0
ELLIPSE
  5
468
100
AcDbEntity
  8
RACCORDO
100
AcDbEllipse
 62
7
  6
CONTINUOUS
 10
-0.2405578404
 20
9.3943693274
 30
0.0
 11
0.0
 21
423.7
 31
0.0
 40
0.0174550649
 41
-4.7090312901
 42
-4.6981756364
  0
ELLIPSE
  5
469
100
AcDbEntity
  8
RACCORDO
100
AcDbEllipse
 62
7
  6
CONTINUOUS
 10
10.822413805
 20
-7.9099411044
 30
0.0
 11
-0.0300136675
 21
0.3031910442
 31
0.0
 40
0.9846622838
 41
-3.2387599651
 42
-1.6709942215
  0
ELLIPSE
  5
46A
100
AcDbEntity
  8
RACCORDO
100
AcDbEllipse
 62
7
  6
CONTINUOUS
 10
-10.9495666943
 20
-7.9099411044
 30
0.0
 11
0.0300136675
 21
0.3031910442
 31
0.0
 40
0.9846622838
 41
-4.6121910857
 42
-3.0444253421
  0
ELLIPSE
  5
46B
100
AcDbEntity
  8
RACCORDO
100
AcDbEllipse
 62
7
  6
CONTINUOUS
 10
-7.1083856236
 20
7.9891328079
 30
0.0
 11
0.3
 21
-0.0
 31
0.0
 40
0.0174550649
 41
0.0174532925
 42
1.5707963268
  0
ELLIPSE
  5
46C
100
AcDbEntity
  8
RACCORDO
100
AcDbEllipse
 62
7
  6
CONTINUOUS
 10
-14.186595049
 20
9.3943693274
 30
0.0
 11
0.0
 21
423.7
 31
0.0
 40
0.0174550649
 41
-1.5850096708
 42
-1.5741540171
  0
ELLIPSE
  5
46D
100
AcDbEntity
  8
RACCORDO
100
AcDbEllipse
 62
7
  6
CONTINUOUS
 10
14.0594421596
 20
9.3943693274
 30
0.0
 11
0.0
 21
423.7
 31
0.0
 40
0.0174550649
 41
-4.7090312901
 42
-4.6981756364
  0
ELLIPSE
  5
46E
100
AcDbEntity
  8
RACCORDO
100
AcDbEllipse
 62
7
  6
CONTINUOUS
 10
0.113404951
 20
9.3943693274
 30
0.0
 11
0.0
 21
423.7
 31
0.0
 40
0.0174550649
 41
-1.5850096708
 42
-1.5741540171
  0
ELLIPSE
  5
46F
100
AcDbEntity
  8
RACCORDO
100
AcDbEllipse
 62
7
  6
CONTINUOUS
 10
-7.3187672658
 20
7.9891328079
 30
0.0
 11
0.3
 21
0.0
 31
0.0
 40
0.0174550649
 41
1.5707963268
 42
3.1241393611
  0
ELLIPSE
  5
470
100
AcDbEntity
  8
RACCORDO
100
AcDbEllipse
 62
7
  6
CONTINUOUS
 10
6.9812327342
 20
7.9891328079
 30
0.0
 11
0.3
 21
-0.0
 31
0.0
 40
0.0174550649
 41
1.5707963268
 42
3.1241393611
  0
ELLIPSE
  5
471
100
AcDbEntity
  8
RACCORDO
100
AcDbEllipse
 62
7
  6
CONTINUOUS
 10
7.1916143764
 20
7.9891328079
 30
0.0
 11
0.3
 21
-0.0
 31
0.0
 40
0.0174550649
 41
0.0174532925
 42
1.5707963268
  0
ELLIPSE
  5
472
100
AcDbEntity
  8
RACCORDO
100
AcDbEllipse
 62
7
  6
CONTINUOUS
 10
-3.6035141832
 20
5.5996058469
 30
0.0
 11
0.3
 21
-0.0
 31
0.0
 40
0.0174550649
 41
-2.7925268032
 42
-1.5707963268
  0
ELLIPSE
  5
473
100
AcDbEntity
  8
RACCORDO
100
AcDbEllipse
 62
7
  6
CONTINUOUS
 10
3.4763612939
 20
5.5996058469
 30
0.0
 11
0.3
 21
0.0
 31
0.0
 40
0.0174550649
 41
-1.5707963268
 42
-0.3490658504
  0
ELLIPSE
  5
474
100
AcDbEntity
  8
DRAFT
100
AcDbEllipse
 62
7
  6
CONTINUOUS
 10
17.1594421596
 20
9.3943693274
 30
0.0
 11
-0.0
 21
423.7
 31
0.0
 40
0.0174550649
 41
-4.6945015721
 42
-4.6927481945
  0
ELLIPSE
  5
475
100
AcDbEntity
  8
RACCORDO
100
AcDbEllipse
 62
7
  6
CONTINUOUS
 10
-3.6035141832
 20
3.9891328079
 30
0.0
 11
0.3
 21
0.0
 31
0.0
 40
0.0174550649
 41
1.5707963268
 42
2.7925268032
  0
ELLIPSE
  5
476
100
AcDbEntity
  8
DRAFT
100
AcDbEllipse
 62
7
  6
CONTINUOUS
 10
17.1594421596
 20
9.3943693274
 30
0.0
 11
0.0
 21
423.7
 31
0.0
 40
0.0174550649
 41
-4.675840257
 42
-4.6741042615
  0
ELLIPSE
  5
477
100
AcDbEntity
  8
RACCORDO
100
AcDbEllipse
 62
7
  6
CONTINUOUS
 10
3.4763612939
 20
3.9891328079
 30
0.0
 11
0.3
 21
0.0
 31
0.0
 40
0.0174550649
 41
0.3490658504
 42
1.5707963268
  0
ELLIPSE
  5
478
100
AcDbEntity
  8
RACCORDO
100
AcDbEllipse
 62
7
  6
CONTINUOUS
 10
-1.419139984
 20
9.3943693274
 30
0.0
 11
0.0
 21
423.7
 31
0.0
 40
0.0174550649
 41
-1.6103149114
 42
-1.60848535
  0
ELLIPSE
  5
479
100
AcDbEntity
  8
RACCORDO
100
AcDbEllipse
 62
7
  6
CONTINUOUS
 10
12.4919870946
 20
9.3943693274
 30
0.0
 11
0.0
 21
423.7
 31
0.0
 40
0.0174550649
 41
-4.6746999572
 42
-4.6728703958
  0
ELLIPSE
  5
47A
100
AcDbEntity
  8
DRAFT
100
AcDbEllipse
 62
7
  6
CONTINUOUS
 10
-3.1499050612
 20
9.3943693274
 30
0.0
 11
0.0
 21
423.7
 31
0.0
 40
0.0174550649
 41
-4.6861185815
 42
-4.6805882475
  0
ELLIPSE
  5
47B
100
AcDbEntity
  8
DRAFT
100
AcDbEllipse
 62
7
  6
CONTINUOUS
 10
-18.8772478282
 20
9.3943693274
 30
0.0
 11
0.0
 21
423.7
 31
0.0
 40
0.0174550649
 41
-1.6025970597
 42
-1.5970667257
  0
ELLIPSE
  5
47C
100
AcDbEntity
  8
DRAFT
100
AcDbEllipse
 62
7
  6
CONTINUOUS
 10
3.0227521718
 20
9.3943693274
 30
0.0
 11
0.0
 21
423.7
 31
0.0
 40
0.0174550649
 41
-1.6025970597
 42
-1.5970667257
  0
ELLIPSE
  5
47D
100
AcDbEntity
  8
DRAFT
100
AcDbEllipse
 62
7
  6
CONTINUOUS
 10
18.7500949388
 20
9.3943693274
 30
0.0
 11
0.0
 21
423.7
 31
0.0
 40
0.0174550649
 41
-4.6861185815
 42
-4.6805882475
  0
ELLIPSE
  5
47E
100
AcDbEntity
  8
RACCORDO
100
AcDbEllipse
 62
7
  6
CONTINUOUS
 10
-12.619139984
 20
9.3943693274
 30
0.0
 11
0.0
 21
423.7
 31
0.0
 40
0.0174550649
 41
-1.6103149114
 42
-1.60848535
  0
ELLIPSE
  5
47F
100
AcDbEntity
  8
RACCORDO
100
AcDbEllipse
 62
7
  6
CONTINUOUS
 10
1.2919870946
 20
9.3943693274
 30
0.0
 11
0.0
 21
423.7
 31
0.0
 40
0.0174550649
 41
-4.6746999572
 42
-4.6728703958
  0
ELLIPSE
  5
480
100
AcDbEntity
  8
RACCORDO
100
AcDbEllipse
 62
7
  6
CONTINUOUS
 10
-10.2432957535
 20
-6.7759570622
 30
0.0
 11
0.3
 21
0.0
 31
0.0
 40
0.0174550649
 41
0.0174532925
 42
1.5707963268
  0
ELLIPSE
  5
481
100
AcDbEntity
  8
RACCORDO
100
AcDbEllipse
 62
7
  6
CONTINUOUS
 10
-10.2432957535
 20
-6.135304283
 30
0.0
 11
0.3
 21
0.0
 31
0.0
 40
0.0174550649
 41
-1.5707963268
 42
-0.0174532925
  0
ELLIPSE
  5
482
100
AcDbEntity
  8
RACCORDO
100
AcDbEllipse
 62
7
  6
CONTINUOUS
 10
-10.2432957535
 20
1.1240429378
 30
0.0
 11
0.3
 21
-0.0
 31
0.0
 40
0.0174550649
 41
0.0174532925
 42
1.5707963268
  0
ELLIPSE
  5
483
100
AcDbEntity
  8
RACCORDO
100
AcDbEllipse
 62
7
  6
CONTINUOUS
 10
-10.2432957535
 20
1.764695717
 30
0.0
 11
0.3
 21
0.0
 31
0.0
 40
0.0174550649
 41
-1.5707963268
 42
-0.0174532925
  0
ELLIPSE
  5
484
100
AcDbEntity
  8
RACCORDO
100
AcDbEllipse
 62
7
  6
CONTINUOUS
 10
10.1161428641
 20
-6.135304283
 30
0.0
 11
0.3
 21
0.0
 31
0.0
 40
0.0174550649
 41
-3.1241393611
 42
-1.5707963268
  0
ELLIPSE
  5
485
100
AcDbEntity
  8
RACCORDO
100
AcDbEllipse
 62
7
  6
CONTINUOUS
 10
10.1161428641
 20
-6.7759570622
 30
0.0
 11
0.3
 21
0.0
 31
0.0
 40
0.0174550649
 41
1.5707963268
 42
3.1241393611
  0
ELLIPSE
  5
486
100
AcDbEntity
  8
RACCORDO
100
AcDbEllipse
 62
7
  6
CONTINUOUS
 10
10.1161428641
 20
1.764695717
 30
0.0
 11
0.3
 21
0.0
 31
0.0
 40
0.0174550649
 41
-3.1241393611
 42
-1.5707963268
  0
ELLIPSE
  5
487
100
AcDbEntity
  8
RACCORDO
100
AcDbEllipse
 62
7
  6
CONTINUOUS
 10
10.1161428641
 20
1.1240429378
 30
0.0
 11
0.3
 21
0.0
 31
0.0
 40
0.0174550649
 41
1.5707963268
 42
3.1241393611
  0
ELLIPSE
  5
488
100
AcDbEntity
  8
RACCORDO
100
AcDbEllipse
 62
7
  6
CONTINUOUS
 10
-6.0927172265
 20
-7.3334445777
 30
0.0
 11
0.0
 21
0.3
 31
0.0
 40
0.0174550649
 41
-4.6728703958
 42
-3.3161255788
  0
ELLIPSE
  5
489
100
AcDbEntity
  8
RACCORDO
100
AcDbEllipse
 62
7
  6
CONTINUOUS
 10
-5.2344356629
 20
-7.3334445777
 30
0.0
 11
-0.0
 21
0.3
 31
0.0
 40
0.0174550649
 41
-2.9670597284
 42
-1.6103149114
  0
ELLIPSE
  5
48A
100
AcDbEntity
  8
RACCORDO
100
AcDbEllipse
 62
7
  6
CONTINUOUS
 10
5.9655643371
 20
-7.3334445777
 30
0.0
 11
0.0
 21
0.3
 31
0.0
 40
0.0174550649
 41
-2.9670597284
 42
-1.6103149114
  0
ELLIPSE
  5
48B
100
AcDbEntity
  8
RACCORDO
100
AcDbEllipse
 62
7
  6
CONTINUOUS
 10
5.1072827735
 20
-7.3334445777
 30
0.0
 11
-0.0
 21
0.3
 31
0.0
 40
0.0174550649
 41
-4.6728703958
 42
-3.3161255788
  0
ELLIPSE
  5
48C
100
AcDbEntity
  8
RACCORDO
100
AcDbEllipse
 62
7
  6
CONTINUOUS
 10
5.6416143764
 20
-7.8795478247
 30
0.0
 11
0.3
 21
0.0
 31
0.0
 40
0.1763269807
 41
-1.5707963268
 42
-0.0174532925
  0
ELLIPSE
  5
48D
100
AcDbEntity
  8
RACCORDO
100
AcDbEllipse
 62
7
  6
CONTINUOUS
 10
-11.2618309382
 20
8.2368133116
 30
0.0
 11
0.0
 21
0.3
 31
0.0
 40
0.0174550649
 41
-3.1241393611
 42
-1.5707963268
  0
ELLIPSE
  5
48E
100
AcDbEntity
  8
RACCORDO
100
AcDbEllipse
 62
7
  6
CONTINUOUS
 10
11.1346780488
 20
8.2368133116
 30
0.0
 11
0.0
 21
0.3
 31
0.0
 40
0.0174550649
 41
-4.7123889804
 42
-3.1590459461
  0
ELLIPSE
  5
48F
100
AcDbEntity
  8
RACCORDO
100
AcDbEllipse
 62
7
  6
CONTINUOUS
 10
-5.5583856236
 20
-7.8795478247
 30
0.0
 11
0.3
 21
-0.0
 31
0.0
 40
0.1763269807
 41
-1.5707963268
 42
-0.0174532925
  0
ELLIPSE
  5
490
100
AcDbEntity
  8
RACCORDO
100
AcDbEllipse
 62
7
  6
CONTINUOUS
 10
-5.7687672658
 20
-7.8795478247
 30
0.0
 11
0.3
 21
-0.0
 31
0.0
 40
0.1763269807
 41
-3.1241393611
 42
-1.5707963268
  0
ELLIPSE
  5
491
100
AcDbEntity
  8
RACCORDO
100
AcDbEllipse
 62
7
  6
CONTINUOUS
 10
5.4312327342
 20
-7.8795478247
 30
0.0
 11
0.3
 21
0.0
 31
0.0
 40
0.1763269807
 41
-3.1241393611
 42
-1.5707963268
  0
ENDSEC
  0
SECTION
  2
OBJECTS
  0
DICTIONARY
  5
C
100
AcDbDictionary
280
0
281
1
  3
ACAD_GROUP
350
D
  3
ACAD_MLINESTYLE
350
17
  3
ACAD_LAYOUT
350
1A
  3
ACAD_PLOTSETTINGS
350
19
  3
ACAD_PLOTSTYLENAME
350
E
  0
DICTIONARY
  5
D
102
{ACAD_REACTORS
330
C
102
}
100
AcDbDictionary
280
0
281
1
  0
ACDBDICTIONARYWDFLT
  5
E
102
{ACAD_REACTORS
330
C
102
}
100
AcDbDictionary
281
1
  3
Normal
350
F
100
AcDbDictionaryWithDefault
340
F
  0
DICTIONARY
  5
17
102
{ACAD_REACTORS
330
C
102
}
100
AcDbDictionary
280
0
281
1
  3
Standard
350
18
  0
DICTIONARY
  5
19
102
{ACAD_REACTORS
330
C
102
}
100
AcDbDictionary
281
1
  0
DICTIONARY
  5
1A
102
{ACAD_REACTORS
330
C
102
}
100
AcDbDictionary
281
1
  3
Model
350
492
  3
Layout1
350
493
  0
ACDBPLACEHOLDER
  5
F
102
{ACAD_REACTORS
330
E
102
}
  0
MLINESTYLE
  5
18
102
{ACAD_REACTORS
330
17
102
}
100
AcDbMlineStyle
  2
STANDARD
 70
0
  3

 62
256
 51
90.0
 52
90.0
 71
2
 49
0.5
 62
256
  6
BYLAYER
 49
-0.5
 62
256
  6
BYLAYER
  0
LAYOUT
  5
492
102
{ACAD_REACTORS
330
1A
102
}
100
AcDbPlotSettings
  1

  2
none_device
  4
ISO_A4_(297.00_x_210.00_MM)
  6

 40
0.0
 41
0.0
 42
0.0
 43
0.0
 44
297.0
 45
210.0
 46
0.0
 47
0.0
 48
0.0
 49
0.0
140
0.0
141
0.0
142
1.0
143
1.0
 70
1024
 72
1
 73
0
 74
0
  7

 75
0
147
1.0
148
0.0
149
0.0
100
AcDbLayout
  1
Model
 70
0
 71
0
 10
0.0
 20
0.0
 11
297.0
 21
210.0
 12
0.0
 22
0.0
 32
0.0
 14
0.0
 24
0.0
 34
0.0
 15
0.0
 25
0.0
 35
0.0
146
0.0
 13
0.0
 23
0.0
 33
0.0
 16
1.0
 26
0.0
 36
0.0
 17
0.0
 27
1.0
 37
0.0
 76
0
330
210
345
0
346
0
  0
LAYOUT
  5
493
102
{ACAD_REACTORS
330
1A
102
}
100
AcDbPlotSettings
  1

  2
none_device
  4
ISO_A4_(297.00_x_210.00_MM)
  6

 40
0.0
 41
0.0
 42
0.0
 43
0.0
 44
297.0
 45
210.0
 46
0.0
 47
0.0
 48
0.0
 49
0.0
140
0.0
141
0.0
142
1.0
143
1.0
 70
0
 72
1
 73
0
 74
0
  7

 75
0
147
1.0
148
0.0
149
0.0
100
AcDbLayout
  1
Layout1
 70
0
 71
1
 10
0.0
 20
0.0
 11
297.0
 21
210.0
 12
0.0
 22
0.0
 32
0.0
 14
0.0
 24
0.0
 34
0.0
 15
0.0
 25
0.0
 35
0.0
146
0.0
 13
0.0
 23
0.0
 33
0.0
 16
1.0
 26
0.0
 36
0.0
 17
0.0
 27
1.0
 37
0.0
 76
0
330
211
345
0
346
0
  0
ENDSEC
  0
EOF
