  0
SECTION
  2
HEADER
  9
$ACADVER
  1
AC1015
  9
$DWGCODEPAGE
  3
ANSI_1252
  9
$EXTMAX
 10
297.0
 20
210.0
 30
0.0
  9
$EXTMIN
 10
0.0
 20
0.0
 30
0.0
  9
$LIMMIN
 10
0.0
 20
0.0
  9
$LIMMAX
 10
297.0
 20
210.0
  9
$VIEWCTR
 10
148.5
 20
105.0
  9
$VIEWSIZE
 40
210.0
  9
$CLAYER
  8
0
  9
$LTSCALE
 40
16.335
  9
$CELTYPE
  6
BYLAYER
  9
$DIMSCALE
 40
1.0
  9
$DIMASZ
 40
3.0
  9
$DIMEXO
 40
1.85625
  9
$DIMDLI
 40
11.286
  9
$DIMEXE
 40
5.346
  9
$DIMCEN
 40
2.673
  9
$DIMLFAC
 40
1.0
  9
$DIMBLK
  1
_FILLED
  9
$DIMTXT
 40
3.0
  9
$DIMTOL
 70
1
  9
$DIMLIM
 70
0
  9
$DIMTFAC
 40
1.0
  9
$DIMTP
 40
0.01
  9
$DIMTM
 40
0.01
  9
$PDMODE
 70
3
  9
$PDSIZE
 40
3.0
  9
$HANDSEED
  5
706
  9
$TILEMODE
 70
1
  9
$MEASUREMENT
 70
1
  9
$INSUNITS
 70
4
  0
ENDSEC
  0
SECTION
  2
CLASSES
  0
CLASS
  1
ACDBDICTIONARYWDFLT
  2
AcDbDictionaryWithDefault
  3
AutoCAD 2000
 90
0
280
0
281
0
  0
CLASS
  1
ACDBPLACEHOLDER
  2
AcDbPlaceHolder
  3
AutoCAD 2000
 90
0
280
0
281
0
  0
CLASS
  1
LAYOUT
  2
AcDbLayout
  3
AutoCAD 2000
 90
0
280
0
281
0
  0
ENDSEC
  0
SECTION
  2
TABLES
  0
TABLE
  2
VPORT
  5
8
100
AcDbSymbolTable
 70
2
  0
VPORT
  5
1F4
100
AcDbSymbolTableRecord
100
AcDbViewportTableRecord
  2
*ACTIVE
 70
0
 10
0.0
 20
0.0
 11
1.0
 21
1.0
 12
148.5
 22
105.0
 13
0.0
 23
0.0
 14
1.0
 24
1.0
 15
0.0
 25
0.0
 16
0.0
 26
0.0
 36
1.0
 17
0.0
 27
0.0
 37
0.0
 40
210.0
 41
1.4142857143
 42
50.0
 43
0.0
 44
0.0
 50
0.0
 51
0.0
 71
0
 72
100
 73
1
 74
1
 75
0
 76
0
 77
0
 78
0
  0
ENDTAB
  0
TABLE
  2
LTYPE
  5
5
100
AcDbSymbolTable
 70
6
  0
LTYPE
  5
14
100
AcDbSymbolTableRecord
100
AcDbLinetypeTableRecord
  2
BYBLOCK
 70
0
  3

 72
65
 73
0
 40
0.0
  0
LTYPE
  5
15
100
AcDbSymbolTableRecord
100
AcDbLinetypeTableRecord
  2
BYLAYER
 70
0
  3

 72
65
 73
0
 40
0.0
  0
LTYPE
  5
16
100
AcDbSymbolTableRecord
100
AcDbLinetypeTableRecord
  2
CONTINUOUS
 70
64
  3
Solid line
 72
65
 73
0
 40
0.0
  0
LTYPE
  5
1F5
100
AcDbSymbolTableRecord
100
AcDbLinetypeTableRecord
  2
CENTER
 70
64
  3
____ _ ____ _ ____ _ ____ _ ____ _ ____ _ ____
 72
65
 73
4
 40
0.6
 49
0.375
 74
0
 49
-0.075
 74
0
 49
0.075
 74
0
 49
-0.075
 74
0
  0
LTYPE
  5
1F6
100
AcDbSymbolTableRecord
100
AcDbLinetypeTableRecord
  2
HIDDEN
 70
64
  3
- - - - - - - - - - - - - - - - - - - -
 72
65
 73
2
 40
0.2
 49
0.1
 74
0
 49
-0.1
 74
0
  0
LTYPE
  5
1F7
100
AcDbSymbolTableRecord
100
AcDbLinetypeTableRecord
  2
PHANTOM
 70
64
  3
_____ _ _ _____ _ _ _____ _ _ _____
 72
65
 73
6
 40
0.8
 49
0.45
 74
0
 49
-0.05
 74
0
 49
0.1
 74
0
 49
-0.05
 74
0
 49
0.1
 74
0
 49
-0.05
 74
0
  0
LTYPE
  5
1F8
100
AcDbSymbolTableRecord
100
AcDbLinetypeTableRecord
  2
DOT
 70
64
  3
. . . . . . . . . . . . . . . . . . . .
 72
65
 73
2
 40
0.2
 49
0.1
 74
0
 49
-0.1
 74
0
  0
LTYPE
  5
1F9
100
AcDbSymbolTableRecord
100
AcDbLinetypeTableRecord
  2
DASHED
 70
64
  3
- - - - - - - - - - - - - - - - - - - -
 72
65
 73
2
 40
0.2
 49
0.1
 74
0
 49
-0.1
 74
0
  0
ENDTAB
  0
TABLE
  2
LAYER
  5
2
100
AcDbSymbolTable
 70
36
  0
LAYER
  5
10
100
AcDbSymbolTableRecord
100
AcDbLayerTableRecord
  2
0
 70
0
 62
7
  6
CONTINUOUS
370
-3
390
F
  0
LAYER
  5
1FA
100
AcDbSymbolTableRecord
100
AcDbLayerTableRecord
  2
DEFAULT_1
 70
0
 62
7
  6
CENTER
370
-3
390
F
  0
LAYER
  5
1FB
100
AcDbSymbolTableRecord
100
AcDbLayerTableRecord
  2
DEFAULT_2
 70
0
 62
7
  6
HIDDEN
370
-3
390
F
  0
LAYER
  5
1FC
100
AcDbSymbolTableRecord
100
AcDbLayerTableRecord
  2
DEFAULT_3
 70
0
 62
7
  6
PHANTOM
370
-3
390
F
  0
LAYER
  5
1FD
100
AcDbSymbolTableRecord
100
AcDbLayerTableRecord
  2
ASSI
 70
0
 62
7
  6
CONTINUOUS
370
-3
390
F
  0
LAYER
  5
1FE
100
AcDbSymbolTableRecord
100
AcDbLayerTableRecord
  2
COORDINATE
 70
0
 62
7
  6
CONTINUOUS
370
-3
390
F
  0
LAYER
  5
1FF
100
AcDbSymbolTableRecord
100
AcDbLayerTableRecord
  2
COORD_ORIGINE
 70
0
 62
7
  6
CONTINUOUS
370
-3
390
F
  0
LAYER
  5
200
100
AcDbSymbolTableRecord
100
AcDbLayerTableRecord
  2
COPY_PUBLISH
 70
0
 62
7
  6
CONTINUOUS
370
-3
390
F
  0
LAYER
  5
201
100
AcDbSymbolTableRecord
100
AcDbLayerTableRecord
  2
COSMETIC
 70
0
 62
7
  6
CONTINUOUS
370
-3
390
F
  0
LAYER
  5
202
100
AcDbSymbolTableRecord
100
AcDbLayerTableRecord
  2
CURVE
 70
0
 62
7
  6
CONTINUOUS
370
-3
390
F
  0
LAYER
  5
203
100
AcDbSymbolTableRecord
100
AcDbLayerTableRecord
  2
DRAFT
 70
0
 62
7
  6
CONTINUOUS
370
-3
390
F
  0
LAYER
  5
204
100
AcDbSymbolTableRecord
100
AcDbLayerTableRecord
  2
IGES
 70
0
 62
7
  6
CONTINUOUS
370
-3
390
F
  0
LAYER
  5
205
100
AcDbSymbolTableRecord
100
AcDbLayerTableRecord
  2
IMPORT_IGES
 70
0
 62
7
  6
CONTINUOUS
370
-3
390
F
  0
LAYER
  5
206
100
AcDbSymbolTableRecord
100
AcDbLayerTableRecord
  2
INTF_12
 70
0
 62
7
  6
CONTINUOUS
370
-3
390
F
  0
LAYER
  5
207
100
AcDbSymbolTableRecord
100
AcDbLayerTableRecord
  2
INTF_9
 70
0
 62
7
  6
CONTINUOUS
370
-3
390
F
  0
LAYER
  5
208
100
AcDbSymbolTableRecord
100
AcDbLayerTableRecord
  2
NOTE
 70
0
 62
7
  6
CONTINUOUS
370
-3
390
F
  0
LAYER
  5
209
100
AcDbSymbolTableRecord
100
AcDbLayerTableRecord
  2
PIANI
 70
0
 62
7
  6
CONTINUOUS
370
-3
390
F
  0
LAYER
  5
20A
100
AcDbSymbolTableRecord
100
AcDbLayerTableRecord
  2
PIANI_ORIGINE
 70
0
 62
7
  6
CONTINUOUS
370
-3
390
F
  0
LAYER
  5
20B
100
AcDbSymbolTableRecord
100
AcDbLayerTableRecord
  2
RACCORDO
 70
0
 62
7
  6
CONTINUOUS
370
-3
390
F
  0
LAYER
  5
20C
100
AcDbSymbolTableRecord
100
AcDbLayerTableRecord
  2
SMUSSO
 70
0
 62
7
  6
CONTINUOUS
370
-3
390
F
  0
LAYER
  5
20D
100
AcDbSymbolTableRecord
100
AcDbLayerTableRecord
  2
SNAPLINE
 70
0
 62
7
  6
CONTINUOUS
370
-3
390
F
  0
LAYER
  5
20E
100
AcDbSymbolTableRecord
100
AcDbLayerTableRecord
  2
SUPERFICI
 70
0
 62
7
  6
CONTINUOUS
370
-3
390
F
  0
LAYER
  5
20F
100
AcDbSymbolTableRecord
100
AcDbLayerTableRecord
  2
TRASH
 70
0
 62
7
  6
CONTINUOUS
370
-3
390
F
  0
ENDTAB
  0
TABLE
  2
STYLE
  5
3
100
AcDbSymbolTable
 70
1
  0
STYLE
  5
11
100
AcDbSymbolTableRecord
100
AcDbTextStyleTableRecord
  2
STANDARD
 70
0
 40
0.0
 41
0.8
 50
0.0
 71
0
 42
0.2
  3
txt
  4

  0
STYLE
  5
210
100
AcDbSymbolTableRecord
100
AcDbTextStyleTableRecord
  2
TEXTSTYLE_1
 70
0
 40
0.0
 41
0.8
 50
0.0
 71
0
 42
0.2
  3
gdt
  4

  0
ENDTAB
  0
TABLE
  2
VIEW
  5
6
100
AcDbSymbolTable
 70
0
  0
ENDTAB
  0
TABLE
  2
UCS
  5
7
100
AcDbSymbolTable
 70
0
  0
ENDTAB
  0
TABLE
  2
APPID
  5
9
100
AcDbSymbolTable
 70
1
  0
APPID
  5
211
100
AcDbSymbolTableRecord
100
AcDbRegAppTableRecord
  2
ACAD
 70
0
  0
ENDTAB
  0
TABLE
  2
BLOCK_RECORD
  5
1
100
AcDbSymbolTable
 70
0
  0
BLOCK_RECORD
  5
212
100
AcDbSymbolTableRecord
100
AcDbBlockTableRecord
  2
*Model_Space
  0
BLOCK_RECORD
  5
213
100
AcDbSymbolTableRecord
100
AcDbBlockTableRecord
  2
*Paper_Space
  0
ENDTAB
  0
TABLE
  2
DIMSTYLE
  5
A
100
AcDbSymbolTable
 70
1
100
AcDbDimStyleTable
 71
0
  0
DIMSTYLE
105
214
100
AcDbSymbolTableRecord
100
AcDbDimStyleTableRecord
  2
STANDARD
 70
0
  3

  4

 40
1.0
 41
3.0
 42
0.0625
 43
0.38
 44
0.18
 45
0.0
 46
0.0
 47
0.01
 48
0.01
140
3.0
141
0.09
142
0.0
143
25.4
144
1.0
145
0.0
146
1.0
147
0.09
 71
1.0
 72
0.0
 73
0
 74
0
 75
0
 76
0
 77
1
 78
8
170
0
171
2
172
0
173
0
174
0
175
0
176
0
177
0
178
0
270
2
271
2
272
2
273
2
274
2
275
0
280
0
281
0
282
0
283
1
284
8
285
0
286
0
287
3
288
0
340
11
  0
ENDTAB
  0
ENDSEC
  0
SECTION
  2
BLOCKS
  0
BLOCK
  5
20
100
AcDbEntity
  8
0
100
AcDbBlockBegin
  2
*Model_Space
 70
0
 10
0.0
 20
0.0
 30
0.0
  3
*Model_Space
  1

  0
ENDBLK
  5
21
100
AcDbEntity
  8
0
100
AcDbBlockEnd
  0
BLOCK
  5
1C
100
AcDbEntity
  8
0
100
AcDbBlockBegin
  2
*Paper_Space
 70
0
 10
0.0
 20
0.0
 30
0.0
  3
*Paper_Space
  1

  0
ENDBLK
  5
1D
100
AcDbEntity
  8
0
100
AcDbBlockEnd
  0
ENDSEC
  0
SECTION
  2
ENTITIES
  0
LINE
  5
215
100
AcDbEntity
  8
RACCORDO
100
AcDbLine
 62
7
  6
CONTINUOUS
 10
-11.3343684825
 20
7.9340830186
 11
-11.3325315862
 21
7.9359199149
  0
LINE
  5
216
100
AcDbEntity
  8
ASSI
100
AcDbLine
 62
7
  6
CONTINUOUS
 10
-11.3343684825
 20
7.9340830186
 11
-11.3325315862
 21
7.9359199149
  0
LINE
  5
217
100
AcDbEntity
  8
RACCORDO
100
AcDbLine
 62
7
  6
CONTINUOUS
 10
-12.4208754048
 20
-9.0498522922
 11
-12.4343684825
 21
-1.6950781973
  0
LINE
  5
218
100
AcDbEntity
  8
ASSI
100
AcDbLine
 62
7
  6
CONTINUOUS
 10
-12.4208754048
 20
-9.0498522922
 11
-12.4343684825
 21
-1.6950781973
  0
LINE
  5
219
100
AcDbEntity
  8
DRAFT
100
AcDbLine
 62
7
  6
CONTINUOUS
 10
-12.4343684825
 20
7.9340830186
 11
-12.4343684825
 21
-1.6950781973
  0
LINE
  5
21A
100
AcDbEntity
  8
ASSI
100
AcDbLine
 62
7
  6
CONTINUOUS
 10
-12.4343684825
 20
7.9340830186
 11
-12.4343684825
 21
-1.6950781973
  0
LINE
  5
21B
100
AcDbEntity
  8
RACCORDO
100
AcDbLine
 62
7
  6
CONTINUOUS
 10
-12.4273864566
 20
8.2358742235
 11
-12.4273864566
 21
8.9364862896
  0
LINE
  5
21C
100
AcDbEntity
  8
ASSI
100
AcDbLine
 62
7
  6
CONTINUOUS
 10
-12.4273864566
 20
8.2358742235
 11
-12.4273864566
 21
8.9364862896
  0
LINE
  5
21D
100
AcDbEntity
  8
RACCORDO
100
AcDbLine
 62
7
  6
CONTINUOUS
 10
-11.3099313916
 20
-6.7716596308
 11
-11.2628937438
 21
-6.8186972787
  0
LINE
  5
21E
100
AcDbEntity
  8
ASSI
100
AcDbLine
 62
7
  6
CONTINUOUS
 10
-11.3099313916
 20
-6.7716596308
 11
-11.2628937438
 21
-6.8186972787
  0
LINE
  5
21F
100
AcDbEntity
  8
DRAFT
100
AcDbLine
 62
7
  6
CONTINUOUS
 10
-11.3298608967
 20
-4.1520621748
 11
-11.3204172271
 21
-9.2995946642
  0
LINE
  5
220
100
AcDbEntity
  8
ASSI
100
AcDbLine
 62
7
  6
CONTINUOUS
 10
-11.3298608967
 20
-4.1520621748
 11
-11.3204172271
 21
-9.2995946642
  0
LINE
  5
221
100
AcDbEntity
  8
DRAFT
100
AcDbLine
 62
7
  6
CONTINUOUS
 10
-11.6298608967
 20
-4.1520621748
 11
-11.6343684825
 21
-1.6565697607
  0
LINE
  5
222
100
AcDbEntity
  8
ASSI
100
AcDbLine
 62
7
  6
CONTINUOUS
 10
-11.6298608967
 20
-4.1520621748
 11
-11.6343684825
 21
-1.6565697607
  0
LINE
  5
223
100
AcDbEntity
  8
DRAFT
100
AcDbLine
 62
7
  6
CONTINUOUS
 10
-11.3343684825
 20
7.9340830186
 11
-11.3343684825
 21
-1.6565697607
  0
LINE
  5
224
100
AcDbEntity
  8
ASSI
100
AcDbLine
 62
7
  6
CONTINUOUS
 10
-11.3343684825
 20
7.9340830186
 11
-11.3343684825
 21
-1.6565697607
  0
LINE
  5
225
100
AcDbEntity
  8
RACCORDO
100
AcDbLine
 62
7
  6
CONTINUOUS
 10
-11.3273864566
 20
8.2358742235
 11
-11.3273864566
 21
8.0457954341
  0
LINE
  5
226
100
AcDbEntity
  8
ASSI
100
AcDbLine
 62
7
  6
CONTINUOUS
 10
-11.3273864566
 20
8.2358742235
 11
-11.3273864566
 21
8.0457954341
  0
LINE
  5
227
100
AcDbEntity
  8
RACCORDO
100
AcDbLine
 62
7
  6
CONTINUOUS
 10
-11.3204044306
 20
-9.2995914653
 11
-11.3204044306
 21
-7.9118033916
  0
LINE
  5
228
100
AcDbEntity
  8
ASSI
100
AcDbLine
 62
7
  6
CONTINUOUS
 10
-11.3204044306
 20
-9.2995914653
 11
-11.3204044306
 21
-7.9118033916
  0
LINE
  5
229
100
AcDbEntity
  8
DRAFT
100
AcDbLine
 62
7
  6
CONTINUOUS
 10
-11.3169134176
 20
-1.0484619165
 11
-11.3169134176
 21
-1.6740248256
  0
LINE
  5
22A
100
AcDbEntity
  8
ASSI
100
AcDbLine
 62
7
  6
CONTINUOUS
 10
-11.3169134176
 20
-1.0484619165
 11
-11.3169134176
 21
-1.6740248256
  0
LINE
  5
22B
100
AcDbEntity
  8
DRAFT
100
AcDbLine
 62
7
  6
CONTINUOUS
 10
-11.3169134176
 20
-4.1391146958
 11
-11.3169134176
 21
-4.7646776049
  0
LINE
  5
22C
100
AcDbEntity
  8
ASSI
100
AcDbLine
 62
7
  6
CONTINUOUS
 10
-11.3169134176
 20
-4.1391146958
 11
-11.3169134176
 21
-4.7646776049
  0
LINE
  5
22D
100
AcDbEntity
  8
DRAFT
100
AcDbLine
 62
7
  6
CONTINUOUS
 10
-11.3099313916
 20
1.7585201095
 11
-11.3099313916
 21
1.1283403692
  0
LINE
  5
22E
100
AcDbEntity
  8
ASSI
100
AcDbLine
 62
7
  6
CONTINUOUS
 10
-11.3099313916
 20
1.7585201095
 11
-11.3099313916
 21
1.1283403692
  0
LINE
  5
22F
100
AcDbEntity
  8
DRAFT
100
AcDbLine
 62
7
  6
CONTINUOUS
 10
-11.3099313916
 20
-6.1414798905
 11
-11.3099313916
 21
-6.7716596308
  0
LINE
  5
230
100
AcDbEntity
  8
ASSI
100
AcDbLine
 62
7
  6
CONTINUOUS
 10
-11.3099313916
 20
-6.1414798905
 11
-11.3099313916
 21
-6.7716596308
  0
LINE
  5
231
100
AcDbEntity
  8
RACCORDO
100
AcDbLine
 62
7
  6
CONTINUOUS
 10
-9.9670954344
 20
-6.8238428088
 11
-10.0141334828
 21
-6.7768047604
  0
LINE
  5
232
100
AcDbEntity
  8
ASSI
100
AcDbLine
 62
7
  6
CONTINUOUS
 10
-9.9670954344
 20
-6.8238428088
 11
-10.0141334828
 21
-6.7768047604
  0
LINE
  5
233
100
AcDbEntity
  8
RACCORDO
100
AcDbLine
 62
7
  6
CONTINUOUS
 10
-11.3169134176
 20
-4.7646776049
 11
-11.2616393967
 21
-4.8199516258
  0
LINE
  5
234
100
AcDbEntity
  8
ASSI
100
AcDbLine
 62
7
  6
CONTINUOUS
 10
-11.3169134176
 20
-4.7646776049
 11
-11.2616393967
 21
-4.8199516258
  0
LINE
  5
235
100
AcDbEntity
  8
DRAFT
100
AcDbLine
 62
7
  6
CONTINUOUS
 10
-10.5518235475
 20
-4.1391146958
 11
-10.5518235475
 21
-1.6740248256
  0
LINE
  5
236
100
AcDbEntity
  8
ASSI
100
AcDbLine
 62
7
  6
CONTINUOUS
 10
-10.5518235475
 20
-4.1391146958
 11
-10.5518235475
 21
-1.6740248256
  0
LINE
  5
237
100
AcDbEntity
  8
RACCORDO
100
AcDbLine
 62
253
  6
CONTINUOUS
 10
-10.3140877913
 20
-6.7716596308
 11
-10.3140877913
 21
-6.1414798905
  0
LINE
  5
238
100
AcDbEntity
  8
ASSI
100
AcDbLine
 62
253
  6
CONTINUOUS
 10
-10.3140877913
 20
-6.7716596308
 11
-10.3140877913
 21
-6.1414798905
  0
LINE
  5
239
100
AcDbEntity
  8
RACCORDO
100
AcDbLine
 62
253
  6
CONTINUOUS
 10
-10.3140877913
 20
1.1283403692
 11
-10.3140877913
 21
1.7585201095
  0
LINE
  5
23A
100
AcDbEntity
  8
ASSI
100
AcDbLine
 62
253
  6
CONTINUOUS
 10
-10.3140877913
 20
1.1283403692
 11
-10.3140877913
 21
1.7585201095
  0
LINE
  5
23B
100
AcDbEntity
  8
DRAFT
100
AcDbLine
 62
7
  6
CONTINUOUS
 10
-10.2843684825
 20
-4.7646776049
 11
-10.2843684825
 21
-1.0484619165
  0
LINE
  5
23C
100
AcDbEntity
  8
ASSI
100
AcDbLine
 62
7
  6
CONTINUOUS
 10
-10.2843684825
 20
-4.7646776049
 11
-10.2843684825
 21
-1.0484619165
  0
LINE
  5
23D
100
AcDbEntity
  8
RACCORDO
100
AcDbLine
 62
253
  6
CONTINUOUS
 10
-10.9587019713
 20
1.8149395133
 11
-10.9575613374
 21
7.9707795234
  0
LINE
  5
23E
100
AcDbEntity
  8
ASSI
100
AcDbLine
 62
253
  6
CONTINUOUS
 10
-10.9587019713
 20
1.8149395133
 11
-10.9575613374
 21
7.9707795234
  0
LINE
  5
23F
100
AcDbEntity
  8
RACCORDO
100
AcDbLine
 62
253
  6
CONTINUOUS
 10
-10.9597375961
 20
-0.9860968453
 11
-10.9589451077
 21
1.0721642741
  0
LINE
  5
240
100
AcDbEntity
  8
ASSI
100
AcDbLine
 62
253
  6
CONTINUOUS
 10
-10.9597375961
 20
-0.9860968453
 11
-10.9589451077
 21
1.0721642741
  0
LINE
  5
241
100
AcDbEntity
  8
RACCORDO
100
AcDbLine
 62
253
  6
CONTINUOUS
 10
-10.9624552594
 20
-6.0888164349
 11
-10.9616822027
 21
-4.8250966917
  0
LINE
  5
242
100
AcDbEntity
  8
ASSI
100
AcDbLine
 62
253
  6
CONTINUOUS
 10
-10.9624552594
 20
-6.0888164349
 11
-10.9616822027
 21
-4.8250966917
  0
LINE
  5
243
100
AcDbEntity
  8
RACCORDO
100
AcDbLine
 62
253
  6
CONTINUOUS
 10
-10.9632898477
 20
-7.3462361556
 11
-10.9629351975
 21
-6.8238428093
  0
LINE
  5
244
100
AcDbEntity
  8
ASSI
100
AcDbLine
 62
253
  6
CONTINUOUS
 10
-10.9632898477
 20
-7.3462361556
 11
-10.9629351975
 21
-6.8238428093
  0
LINE
  5
245
100
AcDbEntity
  8
RACCORDO
100
AcDbLine
 62
253
  6
CONTINUOUS
 10
-11.3204044306
 20
-7.9118033916
 11
-11.2632441564
 21
-7.3343836793
  0
LINE
  5
246
100
AcDbEntity
  8
ASSI
100
AcDbLine
 62
253
  6
CONTINUOUS
 10
-11.3204044306
 20
-7.9118033916
 11
-11.2632441564
 21
-7.3343836793
  0
LINE
  5
247
100
AcDbEntity
  8
RACCORDO
100
AcDbLine
 62
7
  6
CONTINUOUS
 10
-7.6895136122
 20
7.9882851097
 11
-7.7070191985
 21
7.9707795234
  0
LINE
  5
248
100
AcDbEntity
  8
ASSI
100
AcDbLine
 62
7
  6
CONTINUOUS
 10
-7.6895136122
 20
7.9882851097
 11
-7.7070191985
 21
7.9707795234
  0
LINE
  5
249
100
AcDbEntity
  8
DRAFT
100
AcDbLine
 62
7
  6
CONTINUOUS
 10
-10.5518235475
 20
-4.1391146958
 11
-10.6126688325
 21
-4.0782694107
  0
LINE
  5
24A
100
AcDbEntity
  8
ASSI
100
AcDbLine
 62
7
  6
CONTINUOUS
 10
-10.5518235475
 20
-4.1391146958
 11
-10.6126688325
 21
-4.0782694107
  0
LINE
  5
24B
100
AcDbEntity
  8
DRAFT
100
AcDbLine
 62
7
  6
CONTINUOUS
 10
-10.0343684825
 20
-0.9860968455
 11
-10.0343684825
 21
-1.0226120108
  0
LINE
  5
24C
100
AcDbEntity
  8
ASSI
100
AcDbLine
 62
7
  6
CONTINUOUS
 10
-10.0343684825
 20
-0.9860968455
 11
-10.0343684825
 21
-1.0226120108
  0
LINE
  5
24D
100
AcDbEntity
  8
DRAFT
100
AcDbLine
 62
7
  6
CONTINUOUS
 10
-10.0343684825
 20
-4.7905275106
 11
-10.0343684825
 21
-4.8250966914
  0
LINE
  5
24E
100
AcDbEntity
  8
ASSI
100
AcDbLine
 62
7
  6
CONTINUOUS
 10
-10.0343684825
 20
-4.7905275106
 11
-10.0343684825
 21
-4.8250966914
  0
LINE
  5
24F
100
AcDbEntity
  8
RACCORDO
100
AcDbLine
 62
253
  6
CONTINUOUS
 10
-10.0141334828
 20
-6.7768047604
 11
-10.0141334828
 21
-6.1363347609
  0
LINE
  5
250
100
AcDbEntity
  8
ASSI
100
AcDbLine
 62
253
  6
CONTINUOUS
 10
-10.0141334828
 20
-6.7768047604
 11
-10.0141334828
 21
-6.1363347609
  0
LINE
  5
251
100
AcDbEntity
  8
RACCORDO
100
AcDbLine
 62
253
  6
CONTINUOUS
 10
-10.0141334828
 20
1.1231952396
 11
-10.0141334828
 21
1.7636652391
  0
LINE
  5
252
100
AcDbEntity
  8
ASSI
100
AcDbLine
 62
253
  6
CONTINUOUS
 10
-10.0141334828
 20
1.1231952396
 11
-10.0141334828
 21
1.7636652391
  0
LINE
  5
253
100
AcDbEntity
  8
DRAFT
100
AcDbLine
 62
7
  6
CONTINUOUS
 10
-9.6343684825
 20
-4.786496436
 11
-9.6343684825
 21
-1.0266430854
  0
LINE
  5
254
100
AcDbEntity
  8
ASSI
100
AcDbLine
 62
7
  6
CONTINUOUS
 10
-9.6343684825
 20
-4.786496436
 11
-9.6343684825
 21
-1.0266430854
  0
LINE
  5
255
100
AcDbEntity
  8
RACCORDO
100
AcDbLine
 62
253
  6
CONTINUOUS
 10
-11.0212680442
 20
-8.2155081761
 11
-10.9632898465
 21
-7.6298259917
  0
LINE
  5
256
100
AcDbEntity
  8
ASSI
100
AcDbLine
 62
253
  6
CONTINUOUS
 10
-11.0212680442
 20
-8.2155081761
 11
-10.9632898465
 21
-7.6298259917
  0
LINE
  5
257
100
AcDbEntity
  8
RACCORDO
100
AcDbLine
 62
7
  6
CONTINUOUS
 10
-11.2586595651
 20
1.809791936
 11
-11.3099313916
 21
1.7585201095
  0
LINE
  5
258
100
AcDbEntity
  8
ASSI
100
AcDbLine
 62
7
  6
CONTINUOUS
 10
-11.2586595651
 20
1.809791936
 11
-11.3099313916
 21
1.7585201095
  0
LINE
  5
259
100
AcDbEntity
  8
RACCORDO
100
AcDbLine
 62
7
  6
CONTINUOUS
 10
11.9016802606
 20
-9.2995946642
 11
11.051680262
 21
-9.2995946642
  0
LINE
  5
25A
100
AcDbEntity
  8
RACCORDO
100
AcDbLine
 62
7
  6
CONTINUOUS
 10
-11.3204172271
 20
-9.2995946642
 11
-12.1704172257
 21
-9.2995946642
  0
LINE
  5
25B
100
AcDbEntity
  8
DRAFT
100
AcDbLine
 62
7
  6
CONTINUOUS
 10
-11.320414028
 20
-9.2995930648
 11
11.0516770629
 21
-9.2995930648
  0
LINE
  5
25C
100
AcDbEntity
  8
ASSI
100
AcDbLine
 62
7
  6
CONTINUOUS
 10
-12.1704172257
 20
-9.2995946642
 11
11.9016802606
 21
-9.2995946642
  0
LINE
  5
25D
100
AcDbEntity
  8
DRAFT
100
AcDbLine
 62
7
  6
CONTINUOUS
 10
-11.6343684825
 20
-1.6565697607
 11
-11.5548807245
 21
-1.7360575187
  0
LINE
  5
25E
100
AcDbEntity
  8
ASSI
100
AcDbLine
 62
7
  6
CONTINUOUS
 10
-11.6343684825
 20
-1.6565697607
 11
-11.5548807245
 21
-1.7360575187
  0
LINE
  5
25F
100
AcDbEntity
  8
DRAFT
100
AcDbLine
 62
7
  6
CONTINUOUS
 10
-8.6468344731
 20
9.1864482133
 11
-8.6468344731
 21
8.0457954341
  0
LINE
  5
260
100
AcDbEntity
  8
ASSI
100
AcDbLine
 62
7
  6
CONTINUOUS
 10
-8.6468344731
 20
9.1864482133
 11
-8.6468344731
 21
8.0457954341
  0
LINE
  5
261
100
AcDbEntity
  8
DRAFT
100
AcDbLine
 62
7
  6
CONTINUOUS
 10
-8.3843684825
 20
9.1340830186
 11
-8.3843684825
 21
7.9934302393
  0
LINE
  5
262
100
AcDbEntity
  8
ASSI
100
AcDbLine
 62
7
  6
CONTINUOUS
 10
-8.3843684825
 20
9.1340830186
 11
-8.3843684825
 21
7.9934302393
  0
LINE
  5
263
100
AcDbEntity
  8
RACCORDO
100
AcDbLine
 62
7
  6
CONTINUOUS
 10
-9.9628592087
 20
1.8149395131
 11
-10.0141334828
 21
1.7636652391
  0
LINE
  5
264
100
AcDbEntity
  8
ASSI
100
AcDbLine
 62
7
  6
CONTINUOUS
 10
-9.9628592087
 20
1.8149395131
 11
-10.0141334828
 21
1.7636652391
  0
LINE
  5
265
100
AcDbEntity
  8
RACCORDO
100
AcDbLine
 62
7
  6
CONTINUOUS
 10
-11.0212680442
 20
-8.2155081761
 11
10.7525310792
 21
-8.2155081761
  0
LINE
  5
266
100
AcDbEntity
  8
ASSI
100
AcDbLine
 62
7
  6
CONTINUOUS
 10
-11.0212680442
 20
-8.2155081761
 11
10.7525310792
 21
-8.2155081761
  0
LINE
  5
267
100
AcDbEntity
  8
DRAFT
100
AcDbLine
 62
7
  6
CONTINUOUS
 10
-11.3343684825
 20
-1.6565697607
 11
-11.3169134176
 21
-1.6740248256
  0
LINE
  5
268
100
AcDbEntity
  8
ASSI
100
AcDbLine
 62
7
  6
CONTINUOUS
 10
-11.3343684825
 20
-1.6565697607
 11
-11.3169134176
 21
-1.6740248256
  0
LINE
  5
269
100
AcDbEntity
  8
RACCORDO
100
AcDbLine
 62
253
  6
CONTINUOUS
 10
-6.1692639101
 20
-6.5716286417
 11
-6.1395136122
 21
-6.6013789396
  0
LINE
  5
26A
100
AcDbEntity
  8
ASSI
100
AcDbLine
 62
253
  6
CONTINUOUS
 10
-6.1692639101
 20
-6.5716286417
 11
-6.1395136122
 21
-6.6013789396
  0
LINE
  5
26B
100
AcDbEntity
  8
RACCORDO
100
AcDbLine
 62
253
  6
CONTINUOUS
 10
-5.8695052934
 20
-6.2714786413
 11
-5.8395592705
 21
-6.3014246642
  0
LINE
  5
26C
100
AcDbEntity
  8
ASSI
100
AcDbLine
 62
253
  6
CONTINUOUS
 10
-5.8695052934
 20
-6.2714786413
 11
-5.8395592705
 21
-6.3014246642
  0
LINE
  5
26D
100
AcDbEntity
  8
RACCORDO
100
AcDbLine
 62
253
  6
CONTINUOUS
 10
-7.6730810413
 20
5.1277448144
 11
-7.685423636
 21
5.8348515956
  0
LINE
  5
26E
100
AcDbEntity
  8
ASSI
100
AcDbLine
 62
253
  6
CONTINUOUS
 10
-7.6730810413
 20
5.1277448144
 11
-7.685423636
 21
5.8348515956
  0
LINE
  5
26F
100
AcDbEntity
  8
RACCORDO
100
AcDbLine
 62
253
  6
CONTINUOUS
 10
-7.3731267327
 20
5.3398768487
 11
-7.3854693275
 21
6.0469836299
  0
LINE
  5
270
100
AcDbEntity
  8
ASSI
100
AcDbLine
 62
253
  6
CONTINUOUS
 10
-7.3731267327
 20
5.3398768487
 11
-7.3854693275
 21
6.0469836299
  0
LINE
  5
271
100
AcDbEntity
  8
RACCORDO
100
AcDbLine
 62
253
  6
CONTINUOUS
 10
-7.6895136122
 20
6.4005370205
 11
-7.6895136122
 21
7.9882851097
  0
LINE
  5
272
100
AcDbEntity
  8
ASSI
100
AcDbLine
 62
253
  6
CONTINUOUS
 10
-7.6895136122
 20
6.4005370205
 11
-7.6895136122
 21
7.9882851097
  0
LINE
  5
273
100
AcDbEntity
  8
RACCORDO
100
AcDbLine
 62
253
  6
CONTINUOUS
 10
-7.6720585472
 20
3.6022339358
 11
-7.6720585472
 21
4.9863234581
  0
LINE
  5
274
100
AcDbEntity
  8
ASSI
100
AcDbLine
 62
253
  6
CONTINUOUS
 10
-7.6720585472
 20
3.6022339358
 11
-7.6720585472
 21
4.9863234581
  0
LINE
  5
275
100
AcDbEntity
  8
RACCORDO
100
AcDbLine
 62
253
  6
CONTINUOUS
 10
-7.3895593036
 20
6.4005213868
 11
-7.3895593036
 21
7.9934302393
  0
LINE
  5
276
100
AcDbEntity
  8
ASSI
100
AcDbLine
 62
253
  6
CONTINUOUS
 10
-7.3895593036
 20
6.4005213868
 11
-7.3895593036
 21
7.9934302393
  0
LINE
  5
277
100
AcDbEntity
  8
RACCORDO
100
AcDbLine
 62
253
  6
CONTINUOUS
 10
-7.3721042387
 20
3.6022339358
 11
-7.3721042387
 21
4.9863234581
  0
LINE
  5
278
100
AcDbEntity
  8
ASSI
100
AcDbLine
 62
253
  6
CONTINUOUS
 10
-7.3721042387
 20
3.6022339358
 11
-7.3721042387
 21
4.9863234581
  0
LINE
  5
279
100
AcDbEntity
  8
RACCORDO
100
AcDbLine
 62
253
  6
CONTINUOUS
 10
-7.1966327264
 20
4.9863234581
 11
-7.1966327264
 21
3.6022339358
  0
LINE
  5
27A
100
AcDbEntity
  8
ASSI
100
AcDbLine
 62
253
  6
CONTINUOUS
 10
-7.1966327264
 20
4.9863234581
 11
-7.1966327264
 21
3.6022339358
  0
LINE
  5
27B
100
AcDbEntity
  8
RACCORDO
100
AcDbLine
 62
253
  6
CONTINUOUS
 10
-7.1791776615
 20
7.9934302393
 11
-7.1791776615
 21
6.4005216839
  0
LINE
  5
27C
100
AcDbEntity
  8
ASSI
100
AcDbLine
 62
253
  6
CONTINUOUS
 10
-7.1791776615
 20
7.9934302393
 11
-7.1791776615
 21
6.4005216839
  0
LINE
  5
27D
100
AcDbEntity
  8
RACCORDO
100
AcDbLine
 62
253
  6
CONTINUOUS
 10
-7.1832676376
 20
6.0469836299
 11
-7.1956102324
 21
5.3398768487
  0
LINE
  5
27E
100
AcDbEntity
  8
ASSI
100
AcDbLine
 62
253
  6
CONTINUOUS
 10
-7.1832676376
 20
6.0469836299
 11
-7.1956102324
 21
5.3398768487
  0
LINE
  5
27F
100
AcDbEntity
  8
RACCORDO
100
AcDbLine
 62
253
  6
CONTINUOUS
 10
-7.7063138633
 20
3.3714391671
 11
-7.6754886336
 21
3.4022643968
  0
LINE
  5
280
100
AcDbEntity
  8
ASSI
100
AcDbLine
 62
253
  6
CONTINUOUS
 10
-7.7063138633
 20
3.3714391671
 11
-7.6754886336
 21
3.4022643968
  0
LINE
  5
281
100
AcDbEntity
  8
RACCORDO
100
AcDbLine
 62
253
  6
CONTINUOUS
 10
-7.4062832986
 20
3.0715611147
 11
-7.3755343251
 21
3.1023100882
  0
LINE
  5
282
100
AcDbEntity
  8
ASSI
100
AcDbLine
 62
253
  6
CONTINUOUS
 10
-7.4062832986
 20
3.0715611147
 11
-7.3755343251
 21
3.1023100882
  0
LINE
  5
283
100
AcDbEntity
  8
RACCORDO
100
AcDbLine
 62
7
  6
CONTINUOUS
 10
-11.2596972537
 20
-0.9912457526
 11
-11.3169134176
 21
-1.0484619165
  0
LINE
  5
284
100
AcDbEntity
  8
ASSI
100
AcDbLine
 62
7
  6
CONTINUOUS
 10
-11.2596972537
 20
-0.9912457526
 11
-11.3169134176
 21
-1.0484619165
  0
LINE
  5
285
100
AcDbEntity
  8
RACCORDO
100
AcDbLine
 62
7
  6
CONTINUOUS
 10
-5.8395593036
 20
-7.933385007
 11
-5.6291776615
 21
-7.933385007
  0
LINE
  5
286
100
AcDbEntity
  8
ASSI
100
AcDbLine
 62
7
  6
CONTINUOUS
 10
-5.8395593036
 20
-7.933385007
 11
-5.6291776615
 21
-7.933385007
  0
LINE
  5
287
100
AcDbEntity
  8
RACCORDO
100
AcDbLine
 62
7
  6
CONTINUOUS
 10
5.5708223385
 20
-7.933385007
 11
5.3604406964
 21
-7.933385007
  0
LINE
  5
288
100
AcDbEntity
  8
ASSI
100
AcDbLine
 62
7
  6
CONTINUOUS
 10
5.5708223385
 20
-7.933385007
 11
5.3604406964
 21
-7.933385007
  0
LINE
  5
289
100
AcDbEntity
  8
RACCORDO
100
AcDbLine
 62
253
  6
CONTINUOUS
 10
10.6945528814
 20
-7.6298259917
 11
5.8956816113
 21
-7.6298259917
  0
LINE
  5
28A
100
AcDbEntity
  8
ASSI
100
AcDbLine
 62
253
  6
CONTINUOUS
 10
10.6945528814
 20
-7.6298259917
 11
5.8956816113
 21
-7.6298259917
  0
LINE
  5
28B
100
AcDbEntity
  8
RACCORDO
100
AcDbLine
 62
253
  6
CONTINUOUS
 10
5.0355814236
 20
-7.6298259917
 11
-5.3043183887
 21
-7.6298259917
  0
LINE
  5
28C
100
AcDbEntity
  8
ASSI
100
AcDbLine
 62
253
  6
CONTINUOUS
 10
5.0355814236
 20
-7.6298259917
 11
-5.3043183887
 21
-7.6298259917
  0
LINE
  5
28D
100
AcDbEntity
  8
RACCORDO
100
AcDbLine
 62
253
  6
CONTINUOUS
 10
-6.1644185764
 20
-7.6298259917
 11
-10.9632898465
 21
-7.6298259917
  0
LINE
  5
28E
100
AcDbEntity
  8
ASSI
100
AcDbLine
 62
253
  6
CONTINUOUS
 10
-6.1644185764
 20
-7.6298259917
 11
-10.9632898465
 21
-7.6298259917
  0
LINE
  5
28F
100
AcDbEntity
  8
RACCORDO
100
AcDbLine
 62
253
  6
CONTINUOUS
 10
10.6945528826
 20
-7.3462361556
 11
5.9000047303
 21
-7.3462361556
  0
LINE
  5
290
100
AcDbEntity
  8
ASSI
100
AcDbLine
 62
253
  6
CONTINUOUS
 10
10.6945528826
 20
-7.3462361556
 11
5.9000047303
 21
-7.3462361556
  0
LINE
  5
291
100
AcDbEntity
  8
RACCORDO
100
AcDbLine
 62
253
  6
CONTINUOUS
 10
5.0312583046
 20
-7.3462361556
 11
-5.2999952697
 21
-7.3462361556
  0
LINE
  5
292
100
AcDbEntity
  8
ASSI
100
AcDbLine
 62
253
  6
CONTINUOUS
 10
5.0312583046
 20
-7.3462361556
 11
-5.2999952697
 21
-7.3462361556
  0
LINE
  5
293
100
AcDbEntity
  8
RACCORDO
100
AcDbLine
 62
253
  6
CONTINUOUS
 10
-6.1687416954
 20
-7.3462361556
 11
-10.9632898477
 21
-7.3462361556
  0
LINE
  5
294
100
AcDbEntity
  8
ASSI
100
AcDbLine
 62
253
  6
CONTINUOUS
 10
-6.1687416954
 20
-7.3462361556
 11
-10.9632898477
 21
-7.3462361556
  0
LINE
  5
295
100
AcDbEntity
  8
RACCORDO
100
AcDbLine
 62
7
  6
CONTINUOUS
 10
-11.3099313916
 20
1.1283403692
 11
-11.2588996725
 21
1.07730865
  0
LINE
  5
296
100
AcDbEntity
  8
ASSI
100
AcDbLine
 62
7
  6
CONTINUOUS
 10
-11.3099313916
 20
1.1283403692
 11
-11.2588996725
 21
1.07730865
  0
LINE
  5
297
100
AcDbEntity
  8
RACCORDO
100
AcDbLine
 62
7
  6
CONTINUOUS
 10
-6.1644185764
 20
-7.6298259917
 11
-6.1395136122
 21
-7.8814101118
  0
LINE
  5
298
100
AcDbEntity
  8
ASSI
100
AcDbLine
 62
7
  6
CONTINUOUS
 10
-6.1644185764
 20
-7.6298259917
 11
-6.1395136122
 21
-7.8814101118
  0
LINE
  5
299
100
AcDbEntity
  8
RACCORDO
100
AcDbLine
 62
253
  6
CONTINUOUS
 10
-6.8966784179
 20
4.9863234581
 11
-6.8966784179
 21
3.6022339358
  0
LINE
  5
29A
100
AcDbEntity
  8
ASSI
100
AcDbLine
 62
253
  6
CONTINUOUS
 10
-6.8966784179
 20
4.9863234581
 11
-6.8966784179
 21
3.6022339358
  0
LINE
  5
29B
100
AcDbEntity
  8
RACCORDO
100
AcDbLine
 62
253
  6
CONTINUOUS
 10
-6.8792233529
 20
7.9882851097
 11
-6.8792233529
 21
6.4005370205
  0
LINE
  5
29C
100
AcDbEntity
  8
ASSI
100
AcDbLine
 62
253
  6
CONTINUOUS
 10
-6.8792233529
 20
7.9882851097
 11
-6.8792233529
 21
6.4005370205
  0
LINE
  5
29D
100
AcDbEntity
  8
RACCORDO
100
AcDbLine
 62
253
  6
CONTINUOUS
 10
-6.883313329
 20
5.8348515956
 11
-6.8956559238
 21
5.1277448144
  0
LINE
  5
29E
100
AcDbEntity
  8
ASSI
100
AcDbLine
 62
253
  6
CONTINUOUS
 10
-6.883313329
 20
5.8348515956
 11
-6.8956559238
 21
5.1277448144
  0
LINE
  5
29F
100
AcDbEntity
  8
DRAFT
100
AcDbLine
 62
7
  6
CONTINUOUS
 10
-10.5518235475
 20
-1.6740248256
 11
-10.6138562406
 21
-1.7360575187
  0
LINE
  5
2A0
100
AcDbEntity
  8
ASSI
100
AcDbLine
 62
7
  6
CONTINUOUS
 10
-10.5518235475
 20
-1.6740248256
 11
-10.6138562406
 21
-1.7360575187
  0
LINE
  5
2A1
100
AcDbEntity
  8
0
100
AcDbLine
 62
7
  6
CONTINUOUS
 10
1.242227247
 20
-6.3394024442
 11
1.4954187569
 21
-6.3039857607
  0
LINE
  5
2A2
100
AcDbEntity
  8
ASSI
100
AcDbLine
 62
7
  6
CONTINUOUS
 10
1.242227247
 20
-6.3394024442
 11
1.4954187569
 21
-6.3039857607
  0
LINE
  5
2A3
100
AcDbEntity
  8
0
100
AcDbLine
 62
7
  6
CONTINUOUS
 10
0.5188229766
 20
-7.0477357607
 11
0.8081847456
 21
-7.0477357607
  0
LINE
  5
2A4
100
AcDbEntity
  8
ASSI
100
AcDbLine
 62
7
  6
CONTINUOUS
 10
0.5188229766
 20
-7.0477357607
 11
0.8081847456
 21
-7.0477357607
  0
LINE
  5
2A5
100
AcDbEntity
  8
0
100
AcDbLine
 62
7
  6
CONTINUOUS
 10
0.5549931851
 20
-6.8352357607
 11
1.9656315175
 21
-6.8352357607
  0
LINE
  5
2A6
100
AcDbEntity
  8
ASSI
100
AcDbLine
 62
7
  6
CONTINUOUS
 10
0.5549931851
 20
-6.8352357607
 11
1.9656315175
 21
-6.8352357607
  0
LINE
  5
2A7
100
AcDbEntity
  8
RACCORDO
100
AcDbLine
 62
7
  6
CONTINUOUS
 10
-10.9629351976
 20
-6.8238428088
 11
-9.9670954344
 21
-6.8238428088
  0
LINE
  5
2A8
100
AcDbEntity
  8
ASSI
100
AcDbLine
 62
7
  6
CONTINUOUS
 10
-10.9629351976
 20
-6.8238428088
 11
-9.9670954344
 21
-6.8238428088
  0
LINE
  5
2A9
100
AcDbEntity
  8
RACCORDO
100
AcDbLine
 62
7
  6
CONTINUOUS
 10
9.6983584693
 20
-6.8238428088
 11
10.6941982325
 21
-6.8238428088
  0
LINE
  5
2AA
100
AcDbEntity
  8
ASSI
100
AcDbLine
 62
7
  6
CONTINUOUS
 10
9.6983584693
 20
-6.8238428088
 11
10.6941982325
 21
-6.8238428088
  0
LINE
  5
2AB
100
AcDbEntity
  8
RACCORDO
100
AcDbLine
 62
7
  6
CONTINUOUS
 10
-11.3099313916
 20
-6.7716596308
 11
-10.3140877913
 21
-6.7716596308
  0
LINE
  5
2AC
100
AcDbEntity
  8
ASSI
100
AcDbLine
 62
7
  6
CONTINUOUS
 10
-11.3099313916
 20
-6.7716596308
 11
-10.3140877913
 21
-6.7716596308
  0
LINE
  5
2AD
100
AcDbEntity
  8
RACCORDO
100
AcDbLine
 62
7
  6
CONTINUOUS
 10
11.0411944266
 20
-6.7716596308
 11
10.0453508263
 21
-6.7716596308
  0
LINE
  5
2AE
100
AcDbEntity
  8
ASSI
100
AcDbLine
 62
7
  6
CONTINUOUS
 10
11.0411944266
 20
-6.7716596308
 11
10.0453508263
 21
-6.7716596308
  0
LINE
  5
2AF
100
AcDbEntity
  8
0
100
AcDbLine
 62
7
  6
CONTINUOUS
 10
0.2656315175
 20
-6.6227357607
 11
1.9656315175
 21
-6.6227357607
  0
LINE
  5
2B0
100
AcDbEntity
  8
ASSI
100
AcDbLine
 62
7
  6
CONTINUOUS
 10
0.2656315175
 20
-6.6227357607
 11
1.9656315175
 21
-6.6227357607
  0
LINE
  5
2B1
100
AcDbEntity
  8
RACCORDO
100
AcDbLine
 62
253
  6
CONTINUOUS
 10
5.0604863878
 20
-6.6013789396
 11
5.8707766471
 21
-6.6013789396
  0
LINE
  5
2B2
100
AcDbEntity
  8
ASSI
100
AcDbLine
 62
253
  6
CONTINUOUS
 10
5.0604863878
 20
-6.6013789396
 11
5.8707766471
 21
-6.6013789396
  0
LINE
  5
2B3
100
AcDbEntity
  8
RACCORDO
100
AcDbLine
 62
253
  6
CONTINUOUS
 10
-5.3292233529
 20
-6.6013789396
 11
-6.1395136122
 21
-6.6013789396
  0
LINE
  5
2B4
100
AcDbEntity
  8
ASSI
100
AcDbLine
 62
253
  6
CONTINUOUS
 10
-5.3292233529
 20
-6.6013789396
 11
-6.1395136122
 21
-6.6013789396
  0
LINE
  5
2B5
100
AcDbEntity
  8
0
100
AcDbLine
 62
7
  6
CONTINUOUS
 10
0.9890357879
 20
-6.3394024442
 11
1.242227247
 21
-6.3394024442
  0
LINE
  5
2B6
100
AcDbEntity
  8
ASSI
100
AcDbLine
 62
7
  6
CONTINUOUS
 10
0.9890357879
 20
-6.3394024442
 11
1.242227247
 21
-6.3394024442
  0
LINE
  5
2B7
100
AcDbEntity
  8
RACCORDO
100
AcDbLine
 62
253
  6
CONTINUOUS
 10
5.5708223385
 20
-6.3014246311
 11
5.3604407092
 21
-6.3014246439
  0
LINE
  5
2B8
100
AcDbEntity
  8
ASSI
100
AcDbLine
 62
253
  6
CONTINUOUS
 10
5.5708223385
 20
-6.3014246311
 11
5.3604407092
 21
-6.3014246439
  0
LINE
  5
2B9
100
AcDbEntity
  8
RACCORDO
100
AcDbLine
 62
253
  6
CONTINUOUS
 10
-5.6291776788
 20
-6.3014246484
 11
-5.8395592705
 21
-6.3014246642
  0
LINE
  5
2BA
100
AcDbEntity
  8
ASSI
100
AcDbLine
 62
253
  6
CONTINUOUS
 10
-5.6291776788
 20
-6.3014246484
 11
-5.8395592705
 21
-6.3014246642
  0
LINE
  5
2BB
100
AcDbEntity
  8
RACCORDO
100
AcDbLine
 62
7
  6
CONTINUOUS
 10
-5.8695052934
 20
-6.2714786413
 11
-5.5992316717
 21
-6.2714786413
  0
LINE
  5
2BC
100
AcDbEntity
  8
ASSI
100
AcDbLine
 62
7
  6
CONTINUOUS
 10
-5.8695052934
 20
-6.2714786413
 11
-5.5992316717
 21
-6.2714786413
  0
LINE
  5
2BD
100
AcDbEntity
  8
RACCORDO
100
AcDbLine
 62
7
  6
CONTINUOUS
 10
5.3304947066
 20
-6.2714786413
 11
5.6007683283
 21
-6.2714786413
  0
LINE
  5
2BE
100
AcDbEntity
  8
ASSI
100
AcDbLine
 62
7
  6
CONTINUOUS
 10
5.3304947066
 20
-6.2714786413
 11
5.6007683283
 21
-6.2714786413
  0
LINE
  5
2BF
100
AcDbEntity
  8
0
100
AcDbLine
 62
7
  6
CONTINUOUS
 10
0.9890357879
 20
-6.1623191278
 11
1.0613762048
 21
-6.1623191278
  0
LINE
  5
2C0
100
AcDbEntity
  8
ASSI
100
AcDbLine
 62
7
  6
CONTINUOUS
 10
0.9890357879
 20
-6.1623191278
 11
1.0613762048
 21
-6.1623191278
  0
LINE
  5
2C1
100
AcDbEntity
  8
RACCORDO
100
AcDbLine
 62
7
  6
CONTINUOUS
 10
-11.3099313916
 20
-6.1414798905
 11
-10.3140877913
 21
-6.1414798905
  0
LINE
  5
2C2
100
AcDbEntity
  8
ASSI
100
AcDbLine
 62
7
  6
CONTINUOUS
 10
-11.3099313916
 20
-6.1414798905
 11
-10.3140877913
 21
-6.1414798905
  0
LINE
  5
2C3
100
AcDbEntity
  8
RACCORDO
100
AcDbLine
 62
7
  6
CONTINUOUS
 10
11.0411944266
 20
-6.1414798905
 11
10.0453508263
 21
-6.1414798905
  0
LINE
  5
2C4
100
AcDbEntity
  8
ASSI
100
AcDbLine
 62
7
  6
CONTINUOUS
 10
11.0411944266
 20
-6.1414798905
 11
10.0453508263
 21
-6.1414798905
  0
LINE
  5
2C5
100
AcDbEntity
  8
0
100
AcDbLine
 62
7
  6
CONTINUOUS
 10
1.3507379231
 20
-6.1269023936
 11
1.4592485484
 21
-6.1269023936
  0
LINE
  5
2C6
100
AcDbEntity
  8
ASSI
100
AcDbLine
 62
7
  6
CONTINUOUS
 10
1.3507379231
 20
-6.1269023936
 11
1.4592485484
 21
-6.1269023936
  0
LINE
  5
2C7
100
AcDbEntity
  8
RACCORDO
100
AcDbLine
 62
7
  6
CONTINUOUS
 10
-10.9624552596
 20
-6.0888164344
 11
-9.9666151562
 21
-6.0888164344
  0
LINE
  5
2C8
100
AcDbEntity
  8
ASSI
100
AcDbLine
 62
7
  6
CONTINUOUS
 10
-10.9624552596
 20
-6.0888164344
 11
-9.9666151562
 21
-6.0888164344
  0
LINE
  5
2C9
100
AcDbEntity
  8
RACCORDO
100
AcDbLine
 62
7
  6
CONTINUOUS
 10
9.6978781911
 20
-6.0888164344
 11
10.6937182945
 21
-6.0888164344
  0
LINE
  5
2CA
100
AcDbEntity
  8
ASSI
100
AcDbLine
 62
7
  6
CONTINUOUS
 10
9.6978781911
 20
-6.0888164344
 11
10.6937182945
 21
-6.0888164344
  0
LINE
  5
2CB
100
AcDbEntity
  8
0
100
AcDbLine
 62
7
  6
CONTINUOUS
 10
0.9890357879
 20
-6.3394024442
 11
0.7358443287
 21
-6.3039857607
  0
LINE
  5
2CC
100
AcDbEntity
  8
ASSI
100
AcDbLine
 62
7
  6
CONTINUOUS
 10
0.9890357879
 20
-6.3394024442
 11
0.7358443287
 21
-6.3039857607
  0
LINE
  5
2CD
100
AcDbEntity
  8
0
100
AcDbLine
 62
7
  6
CONTINUOUS
 10
-1.0318624825
 20
-6.3382577607
 11
-2.2019304825
 21
-6.0043357607
  0
LINE
  5
2CE
100
AcDbEntity
  8
ASSI
100
AcDbLine
 62
7
  6
CONTINUOUS
 10
-1.0318624825
 20
-6.3382577607
 11
-2.2019304825
 21
-6.0043357607
  0
LINE
  5
2CF
100
AcDbEntity
  8
RACCORDO
100
AcDbLine
 62
7
  6
CONTINUOUS
 10
-9.9631025173
 20
1.0721642741
 11
-10.0141334828
 21
1.1231952396
  0
LINE
  5
2D0
100
AcDbEntity
  8
ASSI
100
AcDbLine
 62
7
  6
CONTINUOUS
 10
-9.9631025173
 20
1.0721642741
 11
-10.0141334828
 21
1.1231952396
  0
LINE
  5
2D1
100
AcDbEntity
  8
RACCORDO
100
AcDbLine
 62
253
  6
CONTINUOUS
 10
-6.1395136122
 20
-6.6013789396
 11
-6.1395136122
 21
-7.8814101118
  0
LINE
  5
2D2
100
AcDbEntity
  8
ASSI
100
AcDbLine
 62
253
  6
CONTINUOUS
 10
-6.1395136122
 20
-6.6013789396
 11
-6.1395136122
 21
-7.8814101118
  0
LINE
  5
2D3
100
AcDbEntity
  8
RACCORDO
100
AcDbLine
 62
253
  6
CONTINUOUS
 10
-5.8395593036
 20
-6.3014246642
 11
-5.8395593036
 21
-7.933385007
  0
LINE
  5
2D4
100
AcDbEntity
  8
ASSI
100
AcDbLine
 62
253
  6
CONTINUOUS
 10
-5.8395593036
 20
-6.3014246642
 11
-5.8395593036
 21
-7.933385007
  0
LINE
  5
2D5
100
AcDbEntity
  8
RACCORDO
100
AcDbLine
 62
253
  6
CONTINUOUS
 10
-5.6291776615
 20
-7.933385007
 11
-5.6291776615
 21
-6.3014246484
  0
LINE
  5
2D6
100
AcDbEntity
  8
ASSI
100
AcDbLine
 62
253
  6
CONTINUOUS
 10
-5.6291776615
 20
-7.933385007
 11
-5.6291776615
 21
-6.3014246484
  0
LINE
  5
2D7
100
AcDbEntity
  8
RACCORDO
100
AcDbLine
 62
253
  6
CONTINUOUS
 10
-5.3292233529
 20
-7.8814101118
 11
-5.3292233529
 21
-6.6013789396
  0
LINE
  5
2D8
100
AcDbEntity
  8
ASSI
100
AcDbLine
 62
253
  6
CONTINUOUS
 10
-5.3292233529
 20
-7.8814101118
 11
-5.3292233529
 21
-6.6013789396
  0
LINE
  5
2D9
100
AcDbEntity
  8
DRAFT
100
AcDbLine
 62
7
  6
CONTINUOUS
 10
-11.6298608967
 20
-4.1520621748
 11
-11.5560681326
 21
-4.0782694107
  0
LINE
  5
2DA
100
AcDbEntity
  8
ASSI
100
AcDbLine
 62
7
  6
CONTINUOUS
 10
-11.6298608967
 20
-4.1520621748
 11
-11.5560681326
 21
-4.0782694107
  0
LINE
  5
2DB
100
AcDbEntity
  8
DRAFT
100
AcDbLine
 62
7
  6
CONTINUOUS
 10
-11.3298608967
 20
-4.1520621748
 11
-11.3169134176
 21
-4.1391146958
  0
LINE
  5
2DC
100
AcDbEntity
  8
ASSI
100
AcDbLine
 62
7
  6
CONTINUOUS
 10
-11.3298608967
 20
-4.1520621748
 11
-11.3169134176
 21
-4.1391146958
  0
LINE
  5
2DD
100
AcDbEntity
  8
0
100
AcDbLine
 62
7
  6
CONTINUOUS
 10
-1.0318624825
 20
-6.3382577607
 11
-2.2019304825
 21
-6.6622827607
  0
LINE
  5
2DE
100
AcDbEntity
  8
ASSI
100
AcDbLine
 62
7
  6
CONTINUOUS
 10
-1.0318624825
 20
-6.3382577607
 11
-2.2019304825
 21
-6.6622827607
  0
LINE
  5
2DF
100
AcDbEntity
  8
0
100
AcDbLine
 62
7
  6
CONTINUOUS
 10
-0.5020674825
 20
-5.5180717607
 11
-2.2020324825
 21
-5.5180717607
  0
LINE
  5
2E0
100
AcDbEntity
  8
ASSI
100
AcDbLine
 62
7
  6
CONTINUOUS
 10
-0.5020674825
 20
-5.5180717607
 11
-2.2020324825
 21
-5.5180717607
  0
LINE
  5
2E1
100
AcDbEntity
  8
0
100
AcDbLine
 62
7
  6
CONTINUOUS
 10
1.3507379231
 20
-5.2414857607
 11
1.4592485484
 21
-5.2414857607
  0
LINE
  5
2E2
100
AcDbEntity
  8
ASSI
100
AcDbLine
 62
7
  6
CONTINUOUS
 10
1.3507379231
 20
-5.2414857607
 11
1.4592485484
 21
-5.2414857607
  0
LINE
  5
2E3
100
AcDbEntity
  8
0
100
AcDbLine
 62
7
  6
CONTINUOUS
 10
-0.5020674825
 20
-5.1632437607
 11
-2.2020324825
 21
-5.1632437607
  0
LINE
  5
2E4
100
AcDbEntity
  8
ASSI
100
AcDbLine
 62
7
  6
CONTINUOUS
 10
-0.5020674825
 20
-5.1632437607
 11
-2.2020324825
 21
-5.1632437607
  0
LINE
  5
2E5
100
AcDbEntity
  8
0
100
AcDbLine
 62
7
  6
CONTINUOUS
 10
1.314567664
 20
-5.0644024949
 11
1.4954187569
 21
-5.0644024949
  0
LINE
  5
2E6
100
AcDbEntity
  8
ASSI
100
AcDbLine
 62
7
  6
CONTINUOUS
 10
1.314567664
 20
-5.0644024949
 11
1.4954187569
 21
-5.0644024949
  0
LINE
  5
2E7
100
AcDbEntity
  8
0
100
AcDbLine
 62
7
  6
CONTINUOUS
 10
0.9890357879
 20
-6.1623191278
 11
0.7720145371
 21
-6.1269023936
  0
LINE
  5
2E8
100
AcDbEntity
  8
ASSI
100
AcDbLine
 62
7
  6
CONTINUOUS
 10
0.9890357879
 20
-6.1623191278
 11
0.7720145371
 21
-6.1269023936
  0
LINE
  5
2E9
100
AcDbEntity
  8
0
100
AcDbLine
 62
7
  6
CONTINUOUS
 10
-0.5020674825
 20
-6.1961537607
 11
-2.2019304825
 21
-5.6497497607
  0
LINE
  5
2EA
100
AcDbEntity
  8
ASSI
100
AcDbLine
 62
7
  6
CONTINUOUS
 10
-0.5020674825
 20
-6.1961537607
 11
-2.2019304825
 21
-5.6497497607
  0
LINE
  5
2EB
100
AcDbEntity
  8
0
100
AcDbLine
 62
7
  6
CONTINUOUS
 10
0.7720145371
 20
-6.1269023936
 11
0.6635038105
 21
-6.0914857607
  0
LINE
  5
2EC
100
AcDbEntity
  8
ASSI
100
AcDbLine
 62
7
  6
CONTINUOUS
 10
0.7720145371
 20
-6.1269023936
 11
0.6635038105
 21
-6.0914857607
  0
LINE
  5
2ED
100
AcDbEntity
  8
0
100
AcDbLine
 62
7
  6
CONTINUOUS
 10
1.3507379231
 20
-6.1269023936
 11
1.242227247
 21
-6.0914857607
  0
LINE
  5
2EE
100
AcDbEntity
  8
ASSI
100
AcDbLine
 62
7
  6
CONTINUOUS
 10
1.3507379231
 20
-6.1269023936
 11
1.242227247
 21
-6.0914857607
  0
LINE
  5
2EF
100
AcDbEntity
  8
0
100
AcDbLine
 62
7
  6
CONTINUOUS
 10
0.7358443287
 20
-6.3039857607
 11
0.5549931851
 21
-6.2331524442
  0
LINE
  5
2F0
100
AcDbEntity
  8
ASSI
100
AcDbLine
 62
7
  6
CONTINUOUS
 10
0.7358443287
 20
-6.3039857607
 11
0.5549931851
 21
-6.2331524442
  0
LINE
  5
2F1
100
AcDbEntity
  8
ASSI
100
AcDbLine
 62
253
  6
CONTINUOUS
 10
-4.56426725
 20
5.6193202509
 11
-4.5577443447
 21
3.9678531975
  0
LINE
  5
2F2
100
AcDbEntity
  8
RACCORDO
100
AcDbLine
 62
7
  6
CONTINUOUS
 10
-5.3043183887
 20
-7.6298259917
 11
-5.3292233529
 21
-7.8814101118
  0
LINE
  5
2F3
100
AcDbEntity
  8
ASSI
100
AcDbLine
 62
7
  6
CONTINUOUS
 10
-5.3043183887
 20
-7.6298259917
 11
-5.3292233529
 21
-7.8814101118
  0
LINE
  5
2F4
100
AcDbEntity
  8
DRAFT
100
AcDbLine
 62
7
  6
CONTINUOUS
 10
10.0156315175
 20
-4.7646776049
 11
9.3656315175
 21
-4.7760233971
  0
LINE
  5
2F5
100
AcDbEntity
  8
ASSI
100
AcDbLine
 62
7
  6
CONTINUOUS
 10
10.0156315175
 20
-4.7646776049
 11
9.3656315175
 21
-4.7760233971
  0
LINE
  5
2F6
100
AcDbEntity
  8
DRAFT
100
AcDbLine
 62
7
  6
CONTINUOUS
 10
-10.0343684825
 20
-4.7905275106
 11
-9.6343684825
 21
-4.786496436
  0
LINE
  5
2F7
100
AcDbEntity
  8
ASSI
100
AcDbLine
 62
7
  6
CONTINUOUS
 10
-10.0343684825
 20
-4.7905275106
 11
-9.6343684825
 21
-4.786496436
  0
LINE
  5
2F8
100
AcDbEntity
  8
RACCORDO
100
AcDbLine
 62
7
  6
CONTINUOUS
 10
-10.9616822028
 20
-4.8250966914
 11
-10.0343684825
 21
-4.8250966914
  0
LINE
  5
2F9
100
AcDbEntity
  8
ASSI
100
AcDbLine
 62
7
  6
CONTINUOUS
 10
-10.9616822028
 20
-4.8250966914
 11
-10.0343684825
 21
-4.8250966914
  0
LINE
  5
2FA
100
AcDbEntity
  8
RACCORDO
100
AcDbLine
 62
7
  6
CONTINUOUS
 10
9.7656315175
 20
-4.8250966914
 11
10.6929452377
 21
-4.8250966914
  0
LINE
  5
2FB
100
AcDbEntity
  8
ASSI
100
AcDbLine
 62
7
  6
CONTINUOUS
 10
9.7656315175
 20
-4.8250966914
 11
10.6929452377
 21
-4.8250966914
  0
LINE
  5
2FC
100
AcDbEntity
  8
0
100
AcDbLine
 62
7
  6
CONTINUOUS
 10
1.42307834
 20
-4.7810690265
 11
1.5315889653
 21
-4.7810690265
  0
LINE
  5
2FD
100
AcDbEntity
  8
ASSI
100
AcDbLine
 62
7
  6
CONTINUOUS
 10
1.42307834
 20
-4.7810690265
 11
1.5315889653
 21
-4.7810690265
  0
LINE
  5
2FE
100
AcDbEntity
  8
DRAFT
100
AcDbLine
 62
7
  6
CONTINUOUS
 10
-11.3169134176
 20
-4.7646776049
 11
-10.2843684825
 21
-4.7646776049
  0
LINE
  5
2FF
100
AcDbEntity
  8
ASSI
100
AcDbLine
 62
7
  6
CONTINUOUS
 10
-11.3169134176
 20
-4.7646776049
 11
-10.2843684825
 21
-4.7646776049
  0
LINE
  5
300
100
AcDbEntity
  8
DRAFT
100
AcDbLine
 62
7
  6
CONTINUOUS
 10
10.0156315175
 20
-4.7646776049
 11
11.0481764525
 21
-4.7646776049
  0
LINE
  5
301
100
AcDbEntity
  8
ASSI
100
AcDbLine
 62
7
  6
CONTINUOUS
 10
10.0156315175
 20
-4.7646776049
 11
11.0481764525
 21
-4.7646776049
  0
LINE
  5
302
100
AcDbEntity
  8
0
100
AcDbLine
 62
7
  6
CONTINUOUS
 10
0.6996741202
 20
-4.7456524949
 11
0.8081847456
 21
-4.7456524949
  0
LINE
  5
303
100
AcDbEntity
  8
ASSI
100
AcDbLine
 62
7
  6
CONTINUOUS
 10
0.6996741202
 20
-4.7456524949
 11
0.8081847456
 21
-4.7456524949
  0
LINE
  5
304
100
AcDbEntity
  8
0
100
AcDbLine
 62
7
  6
CONTINUOUS
 10
1.42307834
 20
-4.6039857607
 11
1.5315889653
 21
-4.6039857607
  0
LINE
  5
305
100
AcDbEntity
  8
ASSI
100
AcDbLine
 62
7
  6
CONTINUOUS
 10
1.42307834
 20
-4.6039857607
 11
1.5315889653
 21
-4.6039857607
  0
LINE
  5
306
100
AcDbEntity
  8
0
100
AcDbLine
 62
7
  6
CONTINUOUS
 10
0.6996741202
 20
-4.5685690265
 11
0.7720145371
 21
-4.5685690265
  0
LINE
  5
307
100
AcDbEntity
  8
ASSI
100
AcDbLine
 62
7
  6
CONTINUOUS
 10
0.6996741202
 20
-4.5685690265
 11
0.7720145371
 21
-4.5685690265
  0
LINE
  5
308
100
AcDbEntity
  8
DRAFT
100
AcDbLine
 62
7
  6
CONTINUOUS
 10
11.3611239316
 20
-4.1520621748
 11
11.0611239316
 21
-4.1520621748
  0
LINE
  5
309
100
AcDbEntity
  8
ASSI
100
AcDbLine
 62
7
  6
CONTINUOUS
 10
11.3611239316
 20
-4.1520621748
 11
11.0611239316
 21
-4.1520621748
  0
LINE
  5
30A
100
AcDbEntity
  8
DRAFT
100
AcDbLine
 62
7
  6
CONTINUOUS
 10
-11.3298608967
 20
-4.1520621748
 11
-11.6298608967
 21
-4.1520621748
  0
LINE
  5
30B
100
AcDbEntity
  8
ASSI
100
AcDbLine
 62
7
  6
CONTINUOUS
 10
-11.3298608967
 20
-4.1520621748
 11
-11.6298608967
 21
-4.1520621748
  0
LINE
  5
30C
100
AcDbEntity
  8
DRAFT
100
AcDbLine
 62
7
  6
CONTINUOUS
 10
-11.3169134176
 20
-4.1391146958
 11
-10.5518235475
 21
-4.1391146958
  0
LINE
  5
30D
100
AcDbEntity
  8
ASSI
100
AcDbLine
 62
7
  6
CONTINUOUS
 10
-11.3169134176
 20
-4.1391146958
 11
-10.5518235475
 21
-4.1391146958
  0
LINE
  5
30E
100
AcDbEntity
  8
DRAFT
100
AcDbLine
 62
7
  6
CONTINUOUS
 10
11.0481764525
 20
-4.1391146958
 11
10.2830865824
 21
-4.1391146958
  0
LINE
  5
30F
100
AcDbEntity
  8
ASSI
100
AcDbLine
 62
7
  6
CONTINUOUS
 10
11.0481764525
 20
-4.1391146958
 11
10.2830865824
 21
-4.1391146958
  0
LINE
  5
310
100
AcDbEntity
  8
DRAFT
100
AcDbLine
 62
7
  6
CONTINUOUS
 10
-11.5560681326
 20
-4.0782694107
 11
-10.6126688325
 21
-4.0782694107
  0
LINE
  5
311
100
AcDbEntity
  8
ASSI
100
AcDbLine
 62
7
  6
CONTINUOUS
 10
-11.5560681326
 20
-4.0782694107
 11
-10.6126688325
 21
-4.0782694107
  0
LINE
  5
312
100
AcDbEntity
  8
DRAFT
100
AcDbLine
 62
7
  6
CONTINUOUS
 10
10.3439318674
 20
-4.0782694107
 11
11.2873311675
 21
-4.0782694107
  0
LINE
  5
313
100
AcDbEntity
  8
ASSI
100
AcDbLine
 62
7
  6
CONTINUOUS
 10
10.3439318674
 20
-4.0782694107
 11
11.2873311675
 21
-4.0782694107
  0
LINE
  5
314
100
AcDbEntity
  8
DRAFT
100
AcDbLine
 62
7
  6
CONTINUOUS
 10
9.3656315175
 20
-4.786496436
 11
9.7656315175
 21
-4.7905275106
  0
LINE
  5
315
100
AcDbEntity
  8
ASSI
100
AcDbLine
 62
7
  6
CONTINUOUS
 10
9.3656315175
 20
-4.786496436
 11
9.7656315175
 21
-4.7905275106
  0
LINE
  5
316
100
AcDbEntity
  8
DRAFT
100
AcDbLine
 62
7
  6
CONTINUOUS
 10
-9.6343684825
 20
-4.7760233971
 11
-10.2843684825
 21
-4.7646776049
  0
LINE
  5
317
100
AcDbEntity
  8
ASSI
100
AcDbLine
 62
7
  6
CONTINUOUS
 10
-9.6343684825
 20
-4.7760233971
 11
-10.2843684825
 21
-4.7646776049
  0
LINE
  5
318
100
AcDbEntity
  8
0
100
AcDbLine
 62
7
  6
CONTINUOUS
 10
-0.5020674825
 20
-4.6327737607
 11
-1.6120464825
 21
-4.5562017607
  0
LINE
  5
319
100
AcDbEntity
  8
ASSI
100
AcDbLine
 62
7
  6
CONTINUOUS
 10
-0.5020674825
 20
-4.6327737607
 11
-1.6120464825
 21
-4.5562017607
  0
LINE
  5
31A
100
AcDbEntity
  8
0
100
AcDbLine
 62
7
  6
CONTINUOUS
 10
-0.5020674825
 20
-4.9722287607
 11
-2.2019304825
 21
-4.8187417607
  0
LINE
  5
31B
100
AcDbEntity
  8
ASSI
100
AcDbLine
 62
7
  6
CONTINUOUS
 10
-0.5020674825
 20
-4.9722287607
 11
-2.2019304825
 21
-4.8187417607
  0
LINE
  5
31C
100
AcDbEntity
  8
0
100
AcDbLine
 62
7
  6
CONTINUOUS
 10
1.5677591738
 20
-5.2769024949
 11
1.4592485484
 21
-5.2414857607
  0
LINE
  5
31D
100
AcDbEntity
  8
ASSI
100
AcDbLine
 62
7
  6
CONTINUOUS
 10
1.5677591738
 20
-5.2769024949
 11
1.4592485484
 21
-5.2414857607
  0
LINE
  5
31E
100
AcDbEntity
  8
0
100
AcDbLine
 62
7
  6
CONTINUOUS
 10
-1.2581614825
 20
-4.1131257607
 11
-2.2019304825
 21
-3.7582977607
  0
LINE
  5
31F
100
AcDbEntity
  8
ASSI
100
AcDbLine
 62
7
  6
CONTINUOUS
 10
-1.2581614825
 20
-4.1131257607
 11
-2.2019304825
 21
-3.7582977607
  0
LINE
  5
320
100
AcDbEntity
  8
0
100
AcDbLine
 62
7
  6
CONTINUOUS
 10
1.6762698245
 20
-5.1352357607
 11
1.4954187569
 21
-5.0644024949
  0
LINE
  5
321
100
AcDbEntity
  8
ASSI
100
AcDbLine
 62
7
  6
CONTINUOUS
 10
1.6762698245
 20
-5.1352357607
 11
1.4954187569
 21
-5.0644024949
  0
LINE
  5
322
100
AcDbEntity
  8
0
100
AcDbLine
 62
7
  6
CONTINUOUS
 10
0.6996741202
 20
-4.7456524949
 11
0.5188229766
 21
-4.6748190265
  0
LINE
  5
323
100
AcDbEntity
  8
ASSI
100
AcDbLine
 62
7
  6
CONTINUOUS
 10
0.6996741202
 20
-4.7456524949
 11
0.5188229766
 21
-4.6748190265
  0
LINE
  5
324
100
AcDbEntity
  8
0
100
AcDbLine
 62
7
  6
CONTINUOUS
 10
0.6635038105
 20
-6.0914857607
 11
0.5549931851
 21
-6.0206523936
  0
LINE
  5
325
100
AcDbEntity
  8
ASSI
100
AcDbLine
 62
7
  6
CONTINUOUS
 10
0.6635038105
 20
-6.0914857607
 11
0.5549931851
 21
-6.0206523936
  0
LINE
  5
326
100
AcDbEntity
  8
0
100
AcDbLine
 62
7
  6
CONTINUOUS
 10
0.5549931851
 20
-6.2331524442
 11
0.4103123513
 21
-6.1269023936
  0
LINE
  5
327
100
AcDbEntity
  8
ASSI
100
AcDbLine
 62
7
  6
CONTINUOUS
 10
0.5549931851
 20
-6.2331524442
 11
0.4103123513
 21
-6.1269023936
  0
LINE
  5
328
100
AcDbEntity
  8
0
100
AcDbLine
 62
7
  6
CONTINUOUS
 10
0.5188229766
 20
-7.0477357607
 11
0.2656315175
 21
-6.8352357607
  0
LINE
  5
329
100
AcDbEntity
  8
ASSI
100
AcDbLine
 62
7
  6
CONTINUOUS
 10
0.5188229766
 20
-7.0477357607
 11
0.2656315175
 21
-6.8352357607
  0
LINE
  5
32A
100
AcDbEntity
  8
0
100
AcDbLine
 62
7
  6
CONTINUOUS
 10
0.8081847456
 20
-7.0477357607
 11
0.5549931851
 21
-6.8352357607
  0
LINE
  5
32B
100
AcDbEntity
  8
ASSI
100
AcDbLine
 62
7
  6
CONTINUOUS
 10
0.8081847456
 20
-7.0477357607
 11
0.5549931851
 21
-6.8352357607
  0
LINE
  5
32C
100
AcDbEntity
  8
RACCORDO
100
AcDbLine
 62
253
  6
CONTINUOUS
 10
-3.9562140073
 20
3.989984715
 11
-3.9562140073
 21
5.5968757636
  0
LINE
  5
32D
100
AcDbEntity
  8
ASSI
100
AcDbLine
 62
253
  6
CONTINUOUS
 10
-3.9562140073
 20
3.989984715
 11
-3.9562140073
 21
5.5968757636
  0
LINE
  5
32E
100
AcDbEntity
  8
RACCORDO
100
AcDbLine
 62
253
  6
CONTINUOUS
 10
-3.6743062211
 20
3.9934302393
 11
-3.6743062211
 21
5.5934302393
  0
LINE
  5
32F
100
AcDbEntity
  8
ASSI
100
AcDbLine
 62
253
  6
CONTINUOUS
 10
-3.6743062211
 20
3.9934302393
 11
-3.6743062211
 21
5.5934302393
  0
LINE
  5
330
100
AcDbEntity
  8
DRAFT
100
AcDbLine
 62
7
  6
CONTINUOUS
 10
-3.2040042429
 20
5.5934302393
 11
-3.2040042429
 21
3.9934302393
  0
LINE
  5
331
100
AcDbEntity
  8
ASSI
100
AcDbLine
 62
7
  6
CONTINUOUS
 10
-3.2040042429
 20
5.5934302393
 11
-3.2040042429
 21
3.9934302393
  0
LINE
  5
332
100
AcDbEntity
  8
DRAFT
100
AcDbLine
 62
7
  6
CONTINUOUS
 10
-3.1343684825
 20
0.7934302393
 11
-3.1343684825
 21
3.9847027068
  0
LINE
  5
333
100
AcDbEntity
  8
ASSI
100
AcDbLine
 62
7
  6
CONTINUOUS
 10
-3.1343684825
 20
0.7934302393
 11
-3.1343684825
 21
3.9847027068
  0
LINE
  5
334
100
AcDbEntity
  8
DRAFT
100
AcDbLine
 62
7
  6
CONTINUOUS
 10
-3.1343684825
 20
5.6021577718
 11
-3.1343684825
 21
7.2934302393
  0
LINE
  5
335
100
AcDbEntity
  8
ASSI
100
AcDbLine
 62
7
  6
CONTINUOUS
 10
-3.1343684825
 20
5.6021577718
 11
-3.1343684825
 21
7.2934302393
  0
LINE
  5
336
100
AcDbEntity
  8
DRAFT
100
AcDbLine
 62
7
  6
CONTINUOUS
 10
-3.1018235475
 20
2.3759751744
 11
-3.1018235475
 21
3.9847027068
  0
LINE
  5
337
100
AcDbEntity
  8
DRAFT
100
AcDbLine
 62
7
  6
CONTINUOUS
 10
-3.1018235475
 20
5.6021577718
 11
-3.1018235475
 21
7.2108853042
  0
LINE
  5
338
100
AcDbEntity
  8
RACCORDO
100
AcDbLine
 62
7
  6
CONTINUOUS
 10
-11.2624198581
 20
-6.093968357
 11
-11.3099313916
 21
-6.1414798905
  0
LINE
  5
339
100
AcDbEntity
  8
ASSI
100
AcDbLine
 62
7
  6
CONTINUOUS
 10
-11.2624198581
 20
-6.093968357
 11
-11.3099313916
 21
-6.1414798905
  0
LINE
  5
33A
100
AcDbEntity
  8
0
100
AcDbLine
 62
7
  6
CONTINUOUS
 10
-0.5020674825
 20
-3.2482737607
 11
-2.2019304825
 21
-3.4072307607
  0
LINE
  5
33B
100
AcDbEntity
  8
ASSI
100
AcDbLine
 62
7
  6
CONTINUOUS
 10
-0.5020674825
 20
-3.2482737607
 11
-2.2019304825
 21
-3.4072307607
  0
LINE
  5
33C
100
AcDbEntity
  8
0
100
AcDbLine
 62
7
  6
CONTINUOUS
 10
-0.5020674825
 20
-3.5953897607
 11
-1.6074194825
 21
-3.6682907607
  0
LINE
  5
33D
100
AcDbEntity
  8
ASSI
100
AcDbLine
 62
7
  6
CONTINUOUS
 10
-0.5020674825
 20
-3.5953897607
 11
-1.6074194825
 21
-3.6682907607
  0
LINE
  5
33E
100
AcDbEntity
  8
0
100
AcDbLine
 62
7
  6
CONTINUOUS
 10
0.6996741202
 20
-3.7185690265
 11
0.7720145371
 21
-3.7185690265
  0
LINE
  5
33F
100
AcDbEntity
  8
ASSI
100
AcDbLine
 62
7
  6
CONTINUOUS
 10
0.6996741202
 20
-3.7185690265
 11
0.7720145371
 21
-3.7185690265
  0
LINE
  5
340
100
AcDbEntity
  8
0
100
AcDbLine
 62
7
  6
CONTINUOUS
 10
1.42307834
 20
-3.6831524949
 11
1.5315889653
 21
-3.6831524949
  0
LINE
  5
341
100
AcDbEntity
  8
ASSI
100
AcDbLine
 62
7
  6
CONTINUOUS
 10
1.42307834
 20
-3.6831524949
 11
1.5315889653
 21
-3.6831524949
  0
LINE
  5
342
100
AcDbEntity
  8
0
100
AcDbLine
 62
7
  6
CONTINUOUS
 10
0.6996741202
 20
-3.5414857607
 11
0.8081847456
 21
-3.5414857607
  0
LINE
  5
343
100
AcDbEntity
  8
ASSI
100
AcDbLine
 62
7
  6
CONTINUOUS
 10
0.6996741202
 20
-3.5414857607
 11
0.8081847456
 21
-3.5414857607
  0
LINE
  5
344
100
AcDbEntity
  8
0
100
AcDbLine
 62
7
  6
CONTINUOUS
 10
1.42307834
 20
-3.5060692291
 11
1.5315889653
 21
-3.5060692291
  0
LINE
  5
345
100
AcDbEntity
  8
ASSI
100
AcDbLine
 62
7
  6
CONTINUOUS
 10
1.42307834
 20
-3.5060692291
 11
1.5315889653
 21
-3.5060692291
  0
LINE
  5
346
100
AcDbEntity
  8
0
100
AcDbLine
 62
7
  6
CONTINUOUS
 10
1.242227247
 20
-3.2227357607
 11
1.4592485484
 21
-3.2227357607
  0
LINE
  5
347
100
AcDbEntity
  8
ASSI
100
AcDbLine
 62
7
  6
CONTINUOUS
 10
1.242227247
 20
-3.2227357607
 11
1.4592485484
 21
-3.2227357607
  0
LINE
  5
348
100
AcDbEntity
  8
0
100
AcDbLine
 62
7
  6
CONTINUOUS
 10
-0.5020674825
 20
-3.1925567607
 11
-2.2019304825
 21
-2.6593717607
  0
LINE
  5
349
100
AcDbEntity
  8
ASSI
100
AcDbLine
 62
7
  6
CONTINUOUS
 10
-0.5020674825
 20
-3.1925567607
 11
-2.2019304825
 21
-2.6593717607
  0
LINE
  5
34A
100
AcDbEntity
  8
0
100
AcDbLine
 62
7
  6
CONTINUOUS
 10
-0.5020674825
 20
-4.0901817607
 11
-1.6074194825
 21
-3.6682907607
  0
LINE
  5
34B
100
AcDbEntity
  8
ASSI
100
AcDbLine
 62
7
  6
CONTINUOUS
 10
-0.5020674825
 20
-4.0901817607
 11
-1.6074194825
 21
-3.6682907607
  0
LINE
  5
34C
100
AcDbEntity
  8
0
100
AcDbLine
 62
7
  6
CONTINUOUS
 10
1.42307834
 20
-4.7810690265
 11
1.242227247
 21
-4.7102357607
  0
LINE
  5
34D
100
AcDbEntity
  8
ASSI
100
AcDbLine
 62
7
  6
CONTINUOUS
 10
1.42307834
 20
-4.7810690265
 11
1.242227247
 21
-4.7102357607
  0
LINE
  5
34E
100
AcDbEntity
  8
0
100
AcDbLine
 62
7
  6
CONTINUOUS
 10
1.6762698245
 20
-5.3477357607
 11
1.5677591738
 21
-5.2769024949
  0
LINE
  5
34F
100
AcDbEntity
  8
ASSI
100
AcDbLine
 62
7
  6
CONTINUOUS
 10
1.6762698245
 20
-5.3477357607
 11
1.5677591738
 21
-5.2769024949
  0
LINE
  5
350
100
AcDbEntity
  8
0
100
AcDbLine
 62
7
  6
CONTINUOUS
 10
0.6996741202
 20
-4.5685690265
 11
0.5911633935
 21
-4.4977357607
  0
LINE
  5
351
100
AcDbEntity
  8
ASSI
100
AcDbLine
 62
7
  6
CONTINUOUS
 10
0.6996741202
 20
-4.5685690265
 11
0.5911633935
 21
-4.4977357607
  0
LINE
  5
352
100
AcDbEntity
  8
0
100
AcDbLine
 62
7
  6
CONTINUOUS
 10
1.820950671
 20
-5.2414857607
 11
1.6762698245
 21
-5.1352357607
  0
LINE
  5
353
100
AcDbEntity
  8
ASSI
100
AcDbLine
 62
7
  6
CONTINUOUS
 10
1.820950671
 20
-5.2414857607
 11
1.6762698245
 21
-5.1352357607
  0
LINE
  5
354
100
AcDbEntity
  8
0
100
AcDbLine
 62
7
  6
CONTINUOUS
 10
1.242227247
 20
-6.0914857607
 11
1.1698868301
 21
-6.0206523936
  0
LINE
  5
355
100
AcDbEntity
  8
ASSI
100
AcDbLine
 62
7
  6
CONTINUOUS
 10
1.242227247
 20
-6.0914857607
 11
1.1698868301
 21
-6.0206523936
  0
LINE
  5
356
100
AcDbEntity
  8
DRAFT
100
AcDbLine
 62
7
  6
CONTINUOUS
 10
-3.0343684825
 20
5.5976589901
 11
-3.0343684825
 21
3.9892014885
  0
LINE
  5
357
100
AcDbEntity
  8
ASSI
100
AcDbLine
 62
7
  6
CONTINUOUS
 10
-3.0343684825
 20
5.5976589901
 11
-3.0343684825
 21
3.9892014885
  0
LINE
  5
358
100
AcDbEntity
  8
DRAFT
100
AcDbLine
 62
7
  6
CONTINUOUS
 10
-2.6308774696
 20
7.2143763172
 11
-2.6308774696
 21
2.3724841614
  0
LINE
  5
359
100
AcDbEntity
  8
0
100
AcDbLine
 62
7
  6
CONTINUOUS
 10
-2.2020324825
 20
-5.5180717607
 11
-2.2020324825
 21
-5.1632437607
  0
LINE
  5
35A
100
AcDbEntity
  8
ASSI
100
AcDbLine
 62
7
  6
CONTINUOUS
 10
-2.2020324825
 20
-5.5180717607
 11
-2.2020324825
 21
-5.1632437607
  0
LINE
  5
35B
100
AcDbEntity
  8
0
100
AcDbLine
 62
7
  6
CONTINUOUS
 10
-2.2019304825
 20
-7.0477357607
 11
-2.2019304825
 21
-6.6622827607
  0
LINE
  5
35C
100
AcDbEntity
  8
ASSI
100
AcDbLine
 62
7
  6
CONTINUOUS
 10
-2.2019304825
 20
-7.0477357607
 11
-2.2019304825
 21
-6.6622827607
  0
LINE
  5
35D
100
AcDbEntity
  8
0
100
AcDbLine
 62
7
  6
CONTINUOUS
 10
-2.2019304825
 20
-6.0043357607
 11
-2.2019304825
 21
-5.6497497607
  0
LINE
  5
35E
100
AcDbEntity
  8
ASSI
100
AcDbLine
 62
7
  6
CONTINUOUS
 10
-2.2019304825
 20
-6.0043357607
 11
-2.2019304825
 21
-5.6497497607
  0
LINE
  5
35F
100
AcDbEntity
  8
0
100
AcDbLine
 62
7
  6
CONTINUOUS
 10
-2.2019304825
 20
-4.8187417607
 11
-2.2019304825
 21
-4.4642067607
  0
LINE
  5
360
100
AcDbEntity
  8
ASSI
100
AcDbLine
 62
7
  6
CONTINUOUS
 10
-2.2019304825
 20
-4.8187417607
 11
-2.2019304825
 21
-4.4642067607
  0
LINE
  5
361
100
AcDbEntity
  8
0
100
AcDbLine
 62
7
  6
CONTINUOUS
 10
-2.2019304825
 20
-3.7582977607
 11
-2.2019304825
 21
-3.4072307607
  0
LINE
  5
362
100
AcDbEntity
  8
ASSI
100
AcDbLine
 62
7
  6
CONTINUOUS
 10
-2.2019304825
 20
-3.7582977607
 11
-2.2019304825
 21
-3.4072307607
  0
LINE
  5
363
100
AcDbEntity
  8
0
100
AcDbLine
 62
7
  6
CONTINUOUS
 10
-2.2019304825
 20
-2.6593717607
 11
-2.2019304825
 21
-2.3161177607
  0
LINE
  5
364
100
AcDbEntity
  8
ASSI
100
AcDbLine
 62
7
  6
CONTINUOUS
 10
-2.2019304825
 20
-2.6593717607
 11
-2.2019304825
 21
-2.3161177607
  0
LINE
  5
365
100
AcDbEntity
  8
RACCORDO
100
AcDbLine
 62
7
  6
CONTINUOUS
 10
-9.9666151562
 20
-6.0888164344
 11
-10.0141334828
 21
-6.1363347609
  0
LINE
  5
366
100
AcDbEntity
  8
ASSI
100
AcDbLine
 62
7
  6
CONTINUOUS
 10
-9.9666151562
 20
-6.0888164344
 11
-10.0141334828
 21
-6.1363347609
  0
LINE
  5
367
100
AcDbEntity
  8
0
100
AcDbLine
 62
7
  6
CONTINUOUS
 10
-0.5020674825
 20
-2.1685317607
 11
-0.8414204825
 21
-2.2604507607
  0
LINE
  5
368
100
AcDbEntity
  8
ASSI
100
AcDbLine
 62
7
  6
CONTINUOUS
 10
-0.5020674825
 20
-2.1685317607
 11
-0.8414204825
 21
-2.2604507607
  0
LINE
  5
369
100
AcDbEntity
  8
0
100
AcDbLine
 62
7
  6
CONTINUOUS
 10
-1.1040104825
 20
-2.3313637607
 11
-1.7348514825
 21
-2.4944117607
  0
LINE
  5
36A
100
AcDbEntity
  8
ASSI
100
AcDbLine
 62
7
  6
CONTINUOUS
 10
-1.1040104825
 20
-2.3313637607
 11
-1.7348514825
 21
-2.4944117607
  0
LINE
  5
36B
100
AcDbEntity
  8
0
100
AcDbLine
 62
7
  6
CONTINUOUS
 10
0.5549931851
 20
-2.3727357607
 11
1.242227247
 21
-2.3727357607
  0
LINE
  5
36C
100
AcDbEntity
  8
ASSI
100
AcDbLine
 62
7
  6
CONTINUOUS
 10
0.5549931851
 20
-2.3727357607
 11
1.242227247
 21
-2.3727357607
  0
LINE
  5
36D
100
AcDbEntity
  8
0
100
AcDbLine
 62
7
  6
CONTINUOUS
 10
1.4592485484
 20
-2.3727357607
 11
1.9656315175
 21
-2.3727357607
  0
LINE
  5
36E
100
AcDbEntity
  8
ASSI
100
AcDbLine
 62
7
  6
CONTINUOUS
 10
1.4592485484
 20
-2.3727357607
 11
1.9656315175
 21
-2.3727357607
  0
LINE
  5
36F
100
AcDbEntity
  8
0
100
AcDbLine
 62
7
  6
CONTINUOUS
 10
0.2656315175
 20
-2.1602357607
 11
1.242227247
 21
-2.1602357607
  0
LINE
  5
370
100
AcDbEntity
  8
ASSI
100
AcDbLine
 62
7
  6
CONTINUOUS
 10
0.2656315175
 20
-2.1602357607
 11
1.242227247
 21
-2.1602357607
  0
LINE
  5
371
100
AcDbEntity
  8
0
100
AcDbLine
 62
7
  6
CONTINUOUS
 10
1.4592485484
 20
-2.1602357607
 11
1.9656315175
 21
-2.1602357607
  0
LINE
  5
372
100
AcDbEntity
  8
ASSI
100
AcDbLine
 62
7
  6
CONTINUOUS
 10
1.4592485484
 20
-2.1602357607
 11
1.9656315175
 21
-2.1602357607
  0
LINE
  5
373
100
AcDbEntity
  8
0
100
AcDbLine
 62
7
  6
CONTINUOUS
 10
-1.1040104825
 20
-2.6710857607
 11
-1.7348514825
 21
-2.4944117607
  0
LINE
  5
374
100
AcDbEntity
  8
ASSI
100
AcDbLine
 62
7
  6
CONTINUOUS
 10
-1.1040104825
 20
-2.6710857607
 11
-1.7348514825
 21
-2.4944117607
  0
LINE
  5
375
100
AcDbEntity
  8
0
100
AcDbLine
 62
7
  6
CONTINUOUS
 10
-0.5020674825
 20
-2.8415787607
 11
-0.8414204825
 21
-2.7436677607
  0
LINE
  5
376
100
AcDbEntity
  8
ASSI
100
AcDbLine
 62
7
  6
CONTINUOUS
 10
-0.5020674825
 20
-2.8415787607
 11
-0.8414204825
 21
-2.7436677607
  0
LINE
  5
377
100
AcDbEntity
  8
0
100
AcDbLine
 62
7
  6
CONTINUOUS
 10
1.7124400329
 20
-3.5769022922
 11
1.5315889653
 21
-3.5060692291
  0
LINE
  5
378
100
AcDbEntity
  8
ASSI
100
AcDbLine
 62
7
  6
CONTINUOUS
 10
1.7124400329
 20
-3.5769022922
 11
1.5315889653
 21
-3.5060692291
  0
LINE
  5
379
100
AcDbEntity
  8
0
100
AcDbLine
 62
7
  6
CONTINUOUS
 10
0.9528655794
 20
-3.6123192291
 11
0.8081847456
 21
-3.5414857607
  0
LINE
  5
37A
100
AcDbEntity
  8
ASSI
100
AcDbLine
 62
7
  6
CONTINUOUS
 10
0.9528655794
 20
-3.6123192291
 11
0.8081847456
 21
-3.5414857607
  0
LINE
  5
37B
100
AcDbEntity
  8
0
100
AcDbLine
 62
7
  6
CONTINUOUS
 10
0.8805251625
 20
-3.7894024949
 11
0.7720145371
 21
-3.7185690265
  0
LINE
  5
37C
100
AcDbEntity
  8
ASSI
100
AcDbLine
 62
7
  6
CONTINUOUS
 10
0.8805251625
 20
-3.7894024949
 11
0.7720145371
 21
-3.7185690265
  0
LINE
  5
37D
100
AcDbEntity
  8
0
100
AcDbLine
 62
7
  6
CONTINUOUS
 10
1.42307834
 20
-4.6039857607
 11
1.2783974555
 21
-4.4977357607
  0
LINE
  5
37E
100
AcDbEntity
  8
ASSI
100
AcDbLine
 62
7
  6
CONTINUOUS
 10
1.42307834
 20
-4.6039857607
 11
1.2783974555
 21
-4.4977357607
  0
LINE
  5
37F
100
AcDbEntity
  8
0
100
AcDbLine
 62
7
  6
CONTINUOUS
 10
1.6762698245
 20
-3.7894024949
 11
1.5315889653
 21
-3.6831524949
  0
LINE
  5
380
100
AcDbEntity
  8
ASSI
100
AcDbLine
 62
7
  6
CONTINUOUS
 10
1.6762698245
 20
-3.7894024949
 11
1.5315889653
 21
-3.6831524949
  0
LINE
  5
381
100
AcDbEntity
  8
0
100
AcDbLine
 62
7
  6
CONTINUOUS
 10
0.5188229766
 20
-4.6748190265
 11
0.4103123513
 21
-4.5685690265
  0
LINE
  5
382
100
AcDbEntity
  8
ASSI
100
AcDbLine
 62
7
  6
CONTINUOUS
 10
0.5188229766
 20
-4.6748190265
 11
0.4103123513
 21
-4.5685690265
  0
LINE
  5
383
100
AcDbEntity
  8
RACCORDO
100
AcDbLine
 62
253
  6
CONTINUOUS
 10
-7.19320264
 20
3.1023100882
 11
-7.1624536664
 21
3.0715611147
  0
LINE
  5
384
100
AcDbEntity
  8
ASSI
100
AcDbLine
 62
253
  6
CONTINUOUS
 10
-7.19320264
 20
3.1023100882
 11
-7.1624536664
 21
3.0715611147
  0
LINE
  5
385
100
AcDbEntity
  8
RACCORDO
100
AcDbLine
 62
253
  6
CONTINUOUS
 10
-6.8932483314
 20
3.4022643968
 11
-6.8624231018
 21
3.3714391671
  0
LINE
  5
386
100
AcDbEntity
  8
ASSI
100
AcDbLine
 62
253
  6
CONTINUOUS
 10
-6.8932483314
 20
3.4022643968
 11
-6.8624231018
 21
3.3714391671
  0
LINE
  5
387
100
AcDbEntity
  8
RACCORDO
100
AcDbLine
 62
7
  6
CONTINUOUS
 10
-11.3273864566
 20
8.0457954341
 11
-11.2575154038
 21
7.9759243813
  0
LINE
  5
388
100
AcDbEntity
  8
ASSI
100
AcDbLine
 62
7
  6
CONTINUOUS
 10
-11.3273864566
 20
8.0457954341
 11
-11.2575154038
 21
7.9759243813
  0
LINE
  5
389
100
AcDbEntity
  8
0
100
AcDbLine
 62
7
  6
CONTINUOUS
 10
0.5911633935
 20
-4.4977357607
 11
0.4826527682
 21
-4.3560690265
  0
LINE
  5
38A
100
AcDbEntity
  8
ASSI
100
AcDbLine
 62
7
  6
CONTINUOUS
 10
0.5911633935
 20
-4.4977357607
 11
0.4826527682
 21
-4.3560690265
  0
LINE
  5
38B
100
AcDbEntity
  8
0
100
AcDbLine
 62
7
  6
CONTINUOUS
 10
0.5549931851
 20
-6.0206523936
 11
0.4826527682
 21
-5.9144023936
  0
LINE
  5
38C
100
AcDbEntity
  8
ASSI
100
AcDbLine
 62
7
  6
CONTINUOUS
 10
0.5549931851
 20
-6.0206523936
 11
0.4826527682
 21
-5.9144023936
  0
LINE
  5
38D
100
AcDbEntity
  8
0
100
AcDbLine
 62
7
  6
CONTINUOUS
 10
1.0613762048
 20
-6.1623191278
 11
0.916695371
 21
-5.9498191278
  0
LINE
  5
38E
100
AcDbEntity
  8
ASSI
100
AcDbLine
 62
7
  6
CONTINUOUS
 10
1.0613762048
 20
-6.1623191278
 11
0.916695371
 21
-5.9498191278
  0
LINE
  5
38F
100
AcDbEntity
  8
0
100
AcDbLine
 62
7
  6
CONTINUOUS
 10
1.1698868301
 20
-6.0206523936
 11
1.0975464132
 21
-5.9144023936
  0
LINE
  5
390
100
AcDbEntity
  8
ASSI
100
AcDbLine
 62
7
  6
CONTINUOUS
 10
1.1698868301
 20
-6.0206523936
 11
1.0975464132
 21
-5.9144023936
  0
LINE
  5
391
100
AcDbEntity
  8
0
100
AcDbLine
 62
7
  6
CONTINUOUS
 10
0.4103123513
 20
-6.1269023936
 11
0.3018017259
 21
-5.9498191278
  0
LINE
  5
392
100
AcDbEntity
  8
ASSI
100
AcDbLine
 62
7
  6
CONTINUOUS
 10
0.4103123513
 20
-6.1269023936
 11
0.3018017259
 21
-5.9498191278
  0
LINE
  5
393
100
AcDbEntity
  8
0
100
AcDbLine
 62
7
  6
CONTINUOUS
 10
-1.445696651
 20
-1.3487283291
 11
-1.445696651
 21
-1.1459476162
  0
LINE
  5
394
100
AcDbEntity
  8
ASSI
100
AcDbLine
 62
7
  6
CONTINUOUS
 10
-1.445696651
 20
-1.3487283291
 11
-1.445696651
 21
-1.1459476162
  0
LINE
  5
395
100
AcDbEntity
  8
0
100
AcDbLine
 62
7
  6
CONTINUOUS
 10
-1.1673001984
 20
-1.3369627647
 11
-1.1673001984
 21
-1.1467124417
  0
LINE
  5
396
100
AcDbEntity
  8
ASSI
100
AcDbLine
 62
7
  6
CONTINUOUS
 10
-1.1673001984
 20
-1.3369627647
 11
-1.1673001984
 21
-1.1467124417
  0
LINE
  5
397
100
AcDbEntity
  8
0
100
AcDbLine
 62
7
  6
CONTINUOUS
 10
-1.1040104825
 20
-2.6710857607
 11
-1.1040104825
 21
-2.3313637607
  0
LINE
  5
398
100
AcDbEntity
  8
ASSI
100
AcDbLine
 62
7
  6
CONTINUOUS
 10
-1.1040104825
 20
-2.6710857607
 11
-1.1040104825
 21
-2.3313637607
  0
LINE
  5
399
100
AcDbEntity
  8
RACCORDO
100
AcDbLine
 62
7
  6
CONTINUOUS
 10
6.6104863878
 20
7.9882851097
 11
6.5929808015
 21
7.9707795234
  0
LINE
  5
39A
100
AcDbEntity
  8
ASSI
100
AcDbLine
 62
7
  6
CONTINUOUS
 10
6.6104863878
 20
7.9882851097
 11
6.5929808015
 21
7.9707795234
  0
LINE
  5
39B
100
AcDbEntity
  8
DRAFT
100
AcDbLine
 62
7
  6
CONTINUOUS
 10
9.3656315175
 20
-1.0266430854
 11
9.7656315175
 21
-1.0226120108
  0
LINE
  5
39C
100
AcDbEntity
  8
ASSI
100
AcDbLine
 62
7
  6
CONTINUOUS
 10
9.3656315175
 20
-1.0266430854
 11
9.7656315175
 21
-1.0226120108
  0
LINE
  5
39D
100
AcDbEntity
  8
0
100
AcDbLine
 62
7
  6
CONTINUOUS
 10
1.242227247
 20
-1.8060692291
 11
1.4592485484
 21
-1.8060692291
  0
LINE
  5
39E
100
AcDbEntity
  8
ASSI
100
AcDbLine
 62
7
  6
CONTINUOUS
 10
1.242227247
 20
-1.8060692291
 11
1.4592485484
 21
-1.8060692291
  0
LINE
  5
39F
100
AcDbEntity
  8
DRAFT
100
AcDbLine
 62
7
  6
CONTINUOUS
 10
-11.5548807245
 20
-1.7360575187
 11
-10.6138562406
 21
-1.7360575187
  0
LINE
  5
3A0
100
AcDbEntity
  8
ASSI
100
AcDbLine
 62
7
  6
CONTINUOUS
 10
-11.5548807245
 20
-1.7360575187
 11
-10.6138562406
 21
-1.7360575187
  0
LINE
  5
3A1
100
AcDbEntity
  8
DRAFT
100
AcDbLine
 62
7
  6
CONTINUOUS
 10
10.3451192755
 20
-1.7360575187
 11
11.2861437594
 21
-1.7360575187
  0
LINE
  5
3A2
100
AcDbEntity
  8
ASSI
100
AcDbLine
 62
7
  6
CONTINUOUS
 10
10.3451192755
 20
-1.7360575187
 11
11.2861437594
 21
-1.7360575187
  0
LINE
  5
3A3
100
AcDbEntity
  8
DRAFT
100
AcDbLine
 62
7
  6
CONTINUOUS
 10
-12.4343684825
 20
-1.6950781973
 11
-11.6343684825
 21
-1.6950781973
  0
LINE
  5
3A4
100
AcDbEntity
  8
ASSI
100
AcDbLine
 62
7
  6
CONTINUOUS
 10
-12.4343684825
 20
-1.6950781973
 11
-11.6343684825
 21
-1.6950781973
  0
LINE
  5
3A5
100
AcDbEntity
  8
DRAFT
100
AcDbLine
 62
7
  6
CONTINUOUS
 10
11.3656315175
 20
-1.6950781973
 11
12.1656315175
 21
-1.6950781973
  0
LINE
  5
3A6
100
AcDbEntity
  8
ASSI
100
AcDbLine
 62
7
  6
CONTINUOUS
 10
11.3656315175
 20
-1.6950781973
 11
12.1656315175
 21
-1.6950781973
  0
LINE
  5
3A7
100
AcDbEntity
  8
0
100
AcDbLine
 62
7
  6
CONTINUOUS
 10
-0.5020677958
 20
-1.6903630968
 11
-2.1820705647
 21
-1.6903630968
  0
LINE
  5
3A8
100
AcDbEntity
  8
ASSI
100
AcDbLine
 62
7
  6
CONTINUOUS
 10
-0.5020677958
 20
-1.6903630968
 11
-2.1820705647
 21
-1.6903630968
  0
LINE
  5
3A9
100
AcDbEntity
  8
DRAFT
100
AcDbLine
 62
7
  6
CONTINUOUS
 10
-11.3169134176
 20
-1.6740248256
 11
-10.5518235475
 21
-1.6740248256
  0
LINE
  5
3AA
100
AcDbEntity
  8
ASSI
100
AcDbLine
 62
7
  6
CONTINUOUS
 10
-11.3169134176
 20
-1.6740248256
 11
-10.5518235475
 21
-1.6740248256
  0
LINE
  5
3AB
100
AcDbEntity
  8
DRAFT
100
AcDbLine
 62
7
  6
CONTINUOUS
 10
11.0481764525
 20
-1.6740248256
 11
10.2830865824
 21
-1.6740248256
  0
LINE
  5
3AC
100
AcDbEntity
  8
ASSI
100
AcDbLine
 62
7
  6
CONTINUOUS
 10
11.0481764525
 20
-1.6740248256
 11
10.2830865824
 21
-1.6740248256
  0
LINE
  5
3AD
100
AcDbEntity
  8
DRAFT
100
AcDbLine
 62
7
  6
CONTINUOUS
 10
-11.6343684825
 20
-1.6565697607
 11
-11.3343684825
 21
-1.6565697607
  0
LINE
  5
3AE
100
AcDbEntity
  8
ASSI
100
AcDbLine
 62
7
  6
CONTINUOUS
 10
-11.6343684825
 20
-1.6565697607
 11
-11.3343684825
 21
-1.6565697607
  0
LINE
  5
3AF
100
AcDbEntity
  8
DRAFT
100
AcDbLine
 62
7
  6
CONTINUOUS
 10
11.0656315175
 20
-1.6565697607
 11
11.3656315175
 21
-1.6565697607
  0
LINE
  5
3B0
100
AcDbEntity
  8
ASSI
100
AcDbLine
 62
7
  6
CONTINUOUS
 10
11.0656315175
 20
-1.6565697607
 11
11.3656315175
 21
-1.6565697607
  0
LINE
  5
3B1
100
AcDbEntity
  8
0
100
AcDbLine
 62
7
  6
CONTINUOUS
 10
0.5188229766
 20
-1.5227357607
 11
0.8081847456
 21
-1.5227357607
  0
LINE
  5
3B2
100
AcDbEntity
  8
ASSI
100
AcDbLine
 62
7
  6
CONTINUOUS
 10
0.5188229766
 20
-1.5227357607
 11
0.8081847456
 21
-1.5227357607
  0
LINE
  5
3B3
100
AcDbEntity
  8
0
100
AcDbLine
 62
7
  6
CONTINUOUS
 10
-1.445696651
 20
-1.3487283291
 11
-1.9123421335
 21
-1.3487283291
  0
LINE
  5
3B4
100
AcDbEntity
  8
ASSI
100
AcDbLine
 62
7
  6
CONTINUOUS
 10
-1.445696651
 20
-1.3487283291
 11
-1.9123421335
 21
-1.3487283291
  0
LINE
  5
3B5
100
AcDbEntity
  8
0
100
AcDbLine
 62
7
  6
CONTINUOUS
 10
-0.5020677958
 20
-1.3369627647
 11
-1.1673001984
 21
-1.3369627647
  0
LINE
  5
3B6
100
AcDbEntity
  8
ASSI
100
AcDbLine
 62
7
  6
CONTINUOUS
 10
-0.5020677958
 20
-1.3369627647
 11
-1.1673001984
 21
-1.3369627647
  0
LINE
  5
3B7
100
AcDbEntity
  8
0
100
AcDbLine
 62
7
  6
CONTINUOUS
 10
0.5549931851
 20
-1.3102357607
 11
1.9656315175
 21
-1.3102357607
  0
LINE
  5
3B8
100
AcDbEntity
  8
ASSI
100
AcDbLine
 62
7
  6
CONTINUOUS
 10
0.5549931851
 20
-1.3102357607
 11
1.9656315175
 21
-1.3102357607
  0
LINE
  5
3B9
100
AcDbEntity
  8
0
100
AcDbLine
 62
7
  6
CONTINUOUS
 10
0.2656315175
 20
-1.0977357607
 11
1.9656315175
 21
-1.0977357607
  0
LINE
  5
3BA
100
AcDbEntity
  8
ASSI
100
AcDbLine
 62
7
  6
CONTINUOUS
 10
0.2656315175
 20
-1.0977357607
 11
1.9656315175
 21
-1.0977357607
  0
LINE
  5
3BB
100
AcDbEntity
  8
DRAFT
100
AcDbLine
 62
7
  6
CONTINUOUS
 10
-11.3169134176
 20
-1.0484619165
 11
-10.2843684825
 21
-1.0484619165
  0
LINE
  5
3BC
100
AcDbEntity
  8
ASSI
100
AcDbLine
 62
7
  6
CONTINUOUS
 10
-11.3169134176
 20
-1.0484619165
 11
-10.2843684825
 21
-1.0484619165
  0
LINE
  5
3BD
100
AcDbEntity
  8
DRAFT
100
AcDbLine
 62
7
  6
CONTINUOUS
 10
10.0156315175
 20
-1.0484619165
 11
11.0481764525
 21
-1.0484619165
  0
LINE
  5
3BE
100
AcDbEntity
  8
ASSI
100
AcDbLine
 62
7
  6
CONTINUOUS
 10
10.0156315175
 20
-1.0484619165
 11
11.0481764525
 21
-1.0484619165
  0
LINE
  5
3BF
100
AcDbEntity
  8
RACCORDO
100
AcDbLine
 62
7
  6
CONTINUOUS
 10
-10.9597375961
 20
-0.9860968455
 11
-10.0343684825
 21
-0.9860968455
  0
LINE
  5
3C0
100
AcDbEntity
  8
ASSI
100
AcDbLine
 62
7
  6
CONTINUOUS
 10
-10.9597375961
 20
-0.9860968455
 11
-10.0343684825
 21
-0.9860968455
  0
LINE
  5
3C1
100
AcDbEntity
  8
RACCORDO
100
AcDbLine
 62
7
  6
CONTINUOUS
 10
9.7656315175
 20
-0.9860968455
 11
10.691000631
 21
-0.9860968455
  0
LINE
  5
3C2
100
AcDbEntity
  8
ASSI
100
AcDbLine
 62
7
  6
CONTINUOUS
 10
9.7656315175
 20
-0.9860968455
 11
10.691000631
 21
-0.9860968455
  0
LINE
  5
3C3
100
AcDbEntity
  8
DRAFT
100
AcDbLine
 62
7
  6
CONTINUOUS
 10
-10.0343684825
 20
-1.0226120108
 11
-9.6343684825
 21
-1.0266430854
  0
LINE
  5
3C4
100
AcDbEntity
  8
ASSI
100
AcDbLine
 62
7
  6
CONTINUOUS
 10
-10.0343684825
 20
-1.0226120108
 11
-9.6343684825
 21
-1.0266430854
  0
LINE
  5
3C5
100
AcDbEntity
  8
0
100
AcDbLine
 62
7
  6
CONTINUOUS
 10
1.242227247
 20
-3.2227357607
 11
0.2656315175
 21
-2.3727357607
  0
LINE
  5
3C6
100
AcDbEntity
  8
ASSI
100
AcDbLine
 62
7
  6
CONTINUOUS
 10
1.242227247
 20
-3.2227357607
 11
0.2656315175
 21
-2.3727357607
  0
LINE
  5
3C7
100
AcDbEntity
  8
0
100
AcDbLine
 62
7
  6
CONTINUOUS
 10
1.242227247
 20
-2.9748192291
 11
0.5549931851
 21
-2.3727357607
  0
LINE
  5
3C8
100
AcDbEntity
  8
ASSI
100
AcDbLine
 62
7
  6
CONTINUOUS
 10
1.242227247
 20
-2.9748192291
 11
0.5549931851
 21
-2.3727357607
  0
LINE
  5
3C9
100
AcDbEntity
  8
0
100
AcDbLine
 62
7
  6
CONTINUOUS
 10
1.0613762048
 20
-3.7185690265
 11
0.9528655794
 21
-3.6123192291
  0
LINE
  5
3CA
100
AcDbEntity
  8
ASSI
100
AcDbLine
 62
7
  6
CONTINUOUS
 10
1.0613762048
 20
-3.7185690265
 11
0.9528655794
 21
-3.6123192291
  0
LINE
  5
3CB
100
AcDbEntity
  8
0
100
AcDbLine
 62
7
  6
CONTINUOUS
 10
1.820950671
 20
-3.6831524949
 11
1.7124400329
 21
-3.5769022922
  0
LINE
  5
3CC
100
AcDbEntity
  8
ASSI
100
AcDbLine
 62
7
  6
CONTINUOUS
 10
1.820950671
 20
-3.6831524949
 11
1.7124400329
 21
-3.5769022922
  0
LINE
  5
3CD
100
AcDbEntity
  8
RACCORDO
100
AcDbLine
 62
253
  6
CONTINUOUS
 10
5.0307360899
 20
-6.5716286417
 11
5.0604863878
 21
-6.6013789396
  0
LINE
  5
3CE
100
AcDbEntity
  8
ASSI
100
AcDbLine
 62
253
  6
CONTINUOUS
 10
5.0307360899
 20
-6.5716286417
 11
5.0604863878
 21
-6.6013789396
  0
LINE
  5
3CF
100
AcDbEntity
  8
0
100
AcDbLine
 62
7
  6
CONTINUOUS
 10
1.242227247
 20
-4.7102357607
 11
1.1337166217
 21
-4.5685690265
  0
LINE
  5
3D0
100
AcDbEntity
  8
ASSI
100
AcDbLine
 62
7
  6
CONTINUOUS
 10
1.242227247
 20
-4.7102357607
 11
1.1337166217
 21
-4.5685690265
  0
LINE
  5
3D1
100
AcDbEntity
  8
0
100
AcDbLine
 62
7
  6
CONTINUOUS
 10
0.9890357879
 20
-3.9310690265
 11
0.8805251625
 21
-3.7894024949
  0
LINE
  5
3D2
100
AcDbEntity
  8
ASSI
100
AcDbLine
 62
7
  6
CONTINUOUS
 10
0.9890357879
 20
-3.9310690265
 11
0.8805251625
 21
-3.7894024949
  0
LINE
  5
3D3
100
AcDbEntity
  8
0
100
AcDbLine
 62
7
  6
CONTINUOUS
 10
1.7486102414
 20
-5.4539857607
 11
1.6762698245
 21
-5.3477357607
  0
LINE
  5
3D4
100
AcDbEntity
  8
ASSI
100
AcDbLine
 62
7
  6
CONTINUOUS
 10
1.7486102414
 20
-5.4539857607
 11
1.6762698245
 21
-5.3477357607
  0
LINE
  5
3D5
100
AcDbEntity
  8
0
100
AcDbLine
 62
7
  6
CONTINUOUS
 10
0.4103123513
 20
-4.5685690265
 11
0.3018017259
 21
-4.3914857607
  0
LINE
  5
3D6
100
AcDbEntity
  8
ASSI
100
AcDbLine
 62
7
  6
CONTINUOUS
 10
0.4103123513
 20
-4.5685690265
 11
0.3018017259
 21
-4.3914857607
  0
LINE
  5
3D7
100
AcDbEntity
  8
0
100
AcDbLine
 62
7
  6
CONTINUOUS
 10
1.9294613058
 20
-5.4185691278
 11
1.820950671
 21
-5.2414857607
  0
LINE
  5
3D8
100
AcDbEntity
  8
ASSI
100
AcDbLine
 62
7
  6
CONTINUOUS
 10
1.9294613058
 20
-5.4185691278
 11
1.820950671
 21
-5.2414857607
  0
LINE
  5
3D9
100
AcDbEntity
  8
0
100
AcDbLine
 62
7
  6
CONTINUOUS
 10
1.1337166217
 20
-4.5685690265
 11
1.0975464132
 21
-4.4977357607
  0
LINE
  5
3DA
100
AcDbEntity
  8
ASSI
100
AcDbLine
 62
7
  6
CONTINUOUS
 10
1.1337166217
 20
-4.5685690265
 11
1.0975464132
 21
-4.4977357607
  0
LINE
  5
3DB
100
AcDbEntity
  8
0
100
AcDbLine
 62
7
  6
CONTINUOUS
 10
0.4826527682
 20
-5.9144023936
 11
0.4464825597
 21
-5.8081523936
  0
LINE
  5
3DC
100
AcDbEntity
  8
ASSI
100
AcDbLine
 62
7
  6
CONTINUOUS
 10
0.4826527682
 20
-5.9144023936
 11
0.4464825597
 21
-5.8081523936
  0
LINE
  5
3DD
100
AcDbEntity
  8
0
100
AcDbLine
 62
7
  6
CONTINUOUS
 10
-0.8414204825
 20
-2.7436677607
 11
-0.8414204825
 21
-2.2604507607
  0
LINE
  5
3DE
100
AcDbEntity
  8
ASSI
100
AcDbLine
 62
7
  6
CONTINUOUS
 10
-0.8414204825
 20
-2.7436677607
 11
-0.8414204825
 21
-2.2604507607
  0
LINE
  5
3DF
100
AcDbEntity
  8
0
100
AcDbLine
 62
7
  6
CONTINUOUS
 10
-0.5020677958
 20
-1.6903630968
 11
-0.5020677958
 21
-1.3369627647
  0
LINE
  5
3E0
100
AcDbEntity
  8
ASSI
100
AcDbLine
 62
7
  6
CONTINUOUS
 10
-0.5020677958
 20
-1.6903630968
 11
-0.5020677958
 21
-1.3369627647
  0
LINE
  5
3E1
100
AcDbEntity
  8
0
100
AcDbLine
 62
7
  6
CONTINUOUS
 10
-0.5020677958
 20
-0.7935925456
 11
-0.5020677958
 21
-0.4522892022
  0
LINE
  5
3E2
100
AcDbEntity
  8
ASSI
100
AcDbLine
 62
7
  6
CONTINUOUS
 10
-0.5020677958
 20
-0.7935925456
 11
-0.5020677958
 21
-0.4522892022
  0
LINE
  5
3E3
100
AcDbEntity
  8
0
100
AcDbLine
 62
7
  6
CONTINUOUS
 10
-0.5020674825
 20
-6.5088457607
 11
-0.5020674825
 21
-6.1961537607
  0
LINE
  5
3E4
100
AcDbEntity
  8
ASSI
100
AcDbLine
 62
7
  6
CONTINUOUS
 10
-0.5020674825
 20
-6.5088457607
 11
-0.5020674825
 21
-6.1961537607
  0
LINE
  5
3E5
100
AcDbEntity
  8
0
100
AcDbLine
 62
7
  6
CONTINUOUS
 10
-0.5020674825
 20
-5.5180717607
 11
-0.5020674825
 21
-5.1632437607
  0
LINE
  5
3E6
100
AcDbEntity
  8
ASSI
100
AcDbLine
 62
7
  6
CONTINUOUS
 10
-0.5020674825
 20
-5.5180717607
 11
-0.5020674825
 21
-5.1632437607
  0
LINE
  5
3E7
100
AcDbEntity
  8
0
100
AcDbLine
 62
7
  6
CONTINUOUS
 10
-0.5020674825
 20
-4.9722287607
 11
-0.5020674825
 21
-4.6327737607
  0
LINE
  5
3E8
100
AcDbEntity
  8
ASSI
100
AcDbLine
 62
7
  6
CONTINUOUS
 10
-0.5020674825
 20
-4.9722287607
 11
-0.5020674825
 21
-4.6327737607
  0
LINE
  5
3E9
100
AcDbEntity
  8
0
100
AcDbLine
 62
7
  6
CONTINUOUS
 10
-0.5020674825
 20
-4.1399457607
 11
-0.5020674825
 21
-4.0901817607
  0
LINE
  5
3EA
100
AcDbEntity
  8
ASSI
100
AcDbLine
 62
7
  6
CONTINUOUS
 10
-0.5020674825
 20
-4.1399457607
 11
-0.5020674825
 21
-4.0901817607
  0
LINE
  5
3EB
100
AcDbEntity
  8
0
100
AcDbLine
 62
7
  6
CONTINUOUS
 10
-0.5020674825
 20
-3.5953897607
 11
-0.5020674825
 21
-3.2482737607
  0
LINE
  5
3EC
100
AcDbEntity
  8
ASSI
100
AcDbLine
 62
7
  6
CONTINUOUS
 10
-0.5020674825
 20
-3.5953897607
 11
-0.5020674825
 21
-3.2482737607
  0
LINE
  5
3ED
100
AcDbEntity
  8
0
100
AcDbLine
 62
7
  6
CONTINUOUS
 10
-0.5020674825
 20
-3.1925567607
 11
-0.5020674825
 21
-2.8415787607
  0
LINE
  5
3EE
100
AcDbEntity
  8
ASSI
100
AcDbLine
 62
7
  6
CONTINUOUS
 10
-0.5020674825
 20
-3.1925567607
 11
-0.5020674825
 21
-2.8415787607
  0
LINE
  5
3EF
100
AcDbEntity
  8
0
100
AcDbLine
 62
7
  6
CONTINUOUS
 10
-0.5020674825
 20
-2.1685317607
 11
-0.5020674825
 21
-1.7945577607
  0
LINE
  5
3F0
100
AcDbEntity
  8
ASSI
100
AcDbLine
 62
7
  6
CONTINUOUS
 10
-0.5020674825
 20
-2.1685317607
 11
-0.5020674825
 21
-1.7945577607
  0
LINE
  5
3F1
100
AcDbEntity
  8
DRAFT
100
AcDbLine
 62
7
  6
CONTINUOUS
 10
-9.6343684825
 20
-1.0371161243
 11
-10.2843684825
 21
-1.0484619165
  0
LINE
  5
3F2
100
AcDbEntity
  8
ASSI
100
AcDbLine
 62
7
  6
CONTINUOUS
 10
-9.6343684825
 20
-1.0371161243
 11
-10.2843684825
 21
-1.0484619165
  0
LINE
  5
3F3
100
AcDbEntity
  8
0
100
AcDbLine
 62
7
  6
CONTINUOUS
 10
-1.2955486742
 20
-0.7781175779
 11
-1.3055933813
 21
-0.7781175779
  0
LINE
  5
3F4
100
AcDbEntity
  8
ASSI
100
AcDbLine
 62
7
  6
CONTINUOUS
 10
-1.2955486742
 20
-0.7781175779
 11
-1.3055933813
 21
-0.7781175779
  0
LINE
  5
3F5
100
AcDbEntity
  8
DRAFT
100
AcDbLine
 62
7
  6
CONTINUOUS
 10
10.0156315175
 20
-1.0484619165
 11
9.3656315175
 21
-1.0371161243
  0
LINE
  5
3F6
100
AcDbEntity
  8
ASSI
100
AcDbLine
 62
7
  6
CONTINUOUS
 10
10.0156315175
 20
-1.0484619165
 11
9.3656315175
 21
-1.0371161243
  0
LINE
  5
3F7
100
AcDbEntity
  8
0
100
AcDbLine
 62
7
  6
CONTINUOUS
 10
0.5188229766
 20
-1.5227357607
 11
0.2656315175
 21
-1.3102357607
  0
LINE
  5
3F8
100
AcDbEntity
  8
ASSI
100
AcDbLine
 62
7
  6
CONTINUOUS
 10
0.5188229766
 20
-1.5227357607
 11
0.2656315175
 21
-1.3102357607
  0
LINE
  5
3F9
100
AcDbEntity
  8
0
100
AcDbLine
 62
7
  6
CONTINUOUS
 10
0.8081847456
 20
-1.5227357607
 11
0.5549931851
 21
-1.3102357607
  0
LINE
  5
3FA
100
AcDbEntity
  8
ASSI
100
AcDbLine
 62
7
  6
CONTINUOUS
 10
0.8081847456
 20
-1.5227357607
 11
0.5549931851
 21
-1.3102357607
  0
LINE
  5
3FB
100
AcDbEntity
  8
RACCORDO
100
AcDbLine
 62
253
  6
CONTINUOUS
 10
5.3304947066
 20
-6.2714786413
 11
5.3604407092
 21
-6.3014246439
  0
LINE
  5
3FC
100
AcDbEntity
  8
ASSI
100
AcDbLine
 62
253
  6
CONTINUOUS
 10
5.3304947066
 20
-6.2714786413
 11
5.3604407092
 21
-6.3014246439
  0
LINE
  5
3FD
100
AcDbEntity
  8
0
100
AcDbLine
 62
7
  6
CONTINUOUS
 10
1.9294613058
 20
-3.8602357607
 11
1.820950671
 21
-3.6831524949
  0
LINE
  5
3FE
100
AcDbEntity
  8
ASSI
100
AcDbLine
 62
7
  6
CONTINUOUS
 10
1.9294613058
 20
-3.8602357607
 11
1.820950671
 21
-3.6831524949
  0
LINE
  5
3FF
100
AcDbEntity
  8
0
100
AcDbLine
 62
7
  6
CONTINUOUS
 10
1.2783974555
 20
-4.4977357607
 11
1.2060570386
 21
-4.3560690265
  0
LINE
  5
400
100
AcDbEntity
  8
ASSI
100
AcDbLine
 62
7
  6
CONTINUOUS
 10
1.2783974555
 20
-4.4977357607
 11
1.2060570386
 21
-4.3560690265
  0
LINE
  5
401
100
AcDbEntity
  8
0
100
AcDbLine
 62
7
  6
CONTINUOUS
 10
1.0975464132
 20
-3.7894024949
 11
1.0613762048
 21
-3.7185690265
  0
LINE
  5
402
100
AcDbEntity
  8
ASSI
100
AcDbLine
 62
7
  6
CONTINUOUS
 10
1.0975464132
 20
-3.7894024949
 11
1.0613762048
 21
-3.7185690265
  0
LINE
  5
403
100
AcDbEntity
  8
0
100
AcDbLine
 62
7
  6
CONTINUOUS
 10
1.7486102414
 20
-3.9310690265
 11
1.6762698245
 21
-3.7894024949
  0
LINE
  5
404
100
AcDbEntity
  8
ASSI
100
AcDbLine
 62
7
  6
CONTINUOUS
 10
1.7486102414
 20
-3.9310690265
 11
1.6762698245
 21
-3.7894024949
  0
LINE
  5
405
100
AcDbEntity
  8
0
100
AcDbLine
 62
7
  6
CONTINUOUS
 10
1.0975464132
 20
-5.9144023936
 11
1.0613762048
 21
-5.8081523936
  0
LINE
  5
406
100
AcDbEntity
  8
ASSI
100
AcDbLine
 62
7
  6
CONTINUOUS
 10
1.0975464132
 20
-5.9144023936
 11
1.0613762048
 21
-5.8081523936
  0
LINE
  5
407
100
AcDbEntity
  8
0
100
AcDbLine
 62
7
  6
CONTINUOUS
 10
1.7847804499
 20
-5.5602357607
 11
1.7486102414
 21
-5.4539857607
  0
LINE
  5
408
100
AcDbEntity
  8
ASSI
100
AcDbLine
 62
7
  6
CONTINUOUS
 10
1.7847804499
 20
-5.5602357607
 11
1.7486102414
 21
-5.4539857607
  0
LINE
  5
409
100
AcDbEntity
  8
0
100
AcDbLine
 62
7
  6
CONTINUOUS
 10
0.4826527682
 20
-4.3560690265
 11
0.4464825597
 21
-4.2144024949
  0
LINE
  5
40A
100
AcDbEntity
  8
ASSI
100
AcDbLine
 62
7
  6
CONTINUOUS
 10
0.4826527682
 20
-4.3560690265
 11
0.4464825597
 21
-4.2144024949
  0
LINE
  5
40B
100
AcDbEntity
  8
0
100
AcDbLine
 62
7
  6
CONTINUOUS
 10
1.0252059963
 20
-4.0727357607
 11
0.9890357879
 21
-3.9310690265
  0
LINE
  5
40C
100
AcDbEntity
  8
ASSI
100
AcDbLine
 62
7
  6
CONTINUOUS
 10
1.0252059963
 20
-4.0727357607
 11
0.9890357879
 21
-3.9310690265
  0
LINE
  5
40D
100
AcDbEntity
  8
0
100
AcDbLine
 62
7
  6
CONTINUOUS
 10
0.3018017259
 20
-5.9498191278
 11
0.2656315175
 21
-5.7727357607
  0
LINE
  5
40E
100
AcDbEntity
  8
ASSI
100
AcDbLine
 62
7
  6
CONTINUOUS
 10
0.3018017259
 20
-5.9498191278
 11
0.2656315175
 21
-5.7727357607
  0
LINE
  5
40F
100
AcDbEntity
  8
0
100
AcDbLine
 62
7
  6
CONTINUOUS
 10
0.3018017259
 20
-4.3914857607
 11
0.2656315175
 21
-4.2144024949
  0
LINE
  5
410
100
AcDbEntity
  8
ASSI
100
AcDbLine
 62
7
  6
CONTINUOUS
 10
0.3018017259
 20
-4.3914857607
 11
0.2656315175
 21
-4.2144024949
  0
LINE
  5
411
100
AcDbEntity
  8
0
100
AcDbLine
 62
7
  6
CONTINUOUS
 10
0.916695371
 20
-5.9498191278
 11
0.8805251625
 21
-5.7727357607
  0
LINE
  5
412
100
AcDbEntity
  8
ASSI
100
AcDbLine
 62
7
  6
CONTINUOUS
 10
0.916695371
 20
-5.9498191278
 11
0.8805251625
 21
-5.7727357607
  0
LINE
  5
413
100
AcDbEntity
  8
0
100
AcDbLine
 62
7
  6
CONTINUOUS
 10
0.2656315175
 20
-6.8352357607
 11
0.2656315175
 21
-6.6227357607
  0
LINE
  5
414
100
AcDbEntity
  8
ASSI
100
AcDbLine
 62
7
  6
CONTINUOUS
 10
0.2656315175
 20
-6.8352357607
 11
0.2656315175
 21
-6.6227357607
  0
LINE
  5
415
100
AcDbEntity
  8
0
100
AcDbLine
 62
7
  6
CONTINUOUS
 10
0.2656315175
 20
-5.7727357607
 11
0.2656315175
 21
-5.6310691278
  0
LINE
  5
416
100
AcDbEntity
  8
ASSI
100
AcDbLine
 62
7
  6
CONTINUOUS
 10
0.2656315175
 20
-5.7727357607
 11
0.2656315175
 21
-5.6310691278
  0
LINE
  5
417
100
AcDbEntity
  8
0
100
AcDbLine
 62
7
  6
CONTINUOUS
 10
0.2656315175
 20
-4.2144024949
 11
0.2656315175
 21
-4.0727357607
  0
LINE
  5
418
100
AcDbEntity
  8
ASSI
100
AcDbLine
 62
7
  6
CONTINUOUS
 10
0.2656315175
 20
-4.2144024949
 11
0.2656315175
 21
-4.0727357607
  0
LINE
  5
419
100
AcDbEntity
  8
0
100
AcDbLine
 62
7
  6
CONTINUOUS
 10
0.2656315175
 20
-2.3727357607
 11
0.2656315175
 21
-2.1602357607
  0
LINE
  5
41A
100
AcDbEntity
  8
ASSI
100
AcDbLine
 62
7
  6
CONTINUOUS
 10
0.2656315175
 20
-2.3727357607
 11
0.2656315175
 21
-2.1602357607
  0
LINE
  5
41B
100
AcDbEntity
  8
0
100
AcDbLine
 62
7
  6
CONTINUOUS
 10
0.2656315175
 20
-1.3102357607
 11
0.2656315175
 21
-1.0977357607
  0
LINE
  5
41C
100
AcDbEntity
  8
ASSI
100
AcDbLine
 62
7
  6
CONTINUOUS
 10
0.2656315175
 20
-1.3102357607
 11
0.2656315175
 21
-1.0977357607
  0
LINE
  5
41D
100
AcDbEntity
  8
0
100
AcDbLine
 62
7
  6
CONTINUOUS
 10
0.4464825597
 20
-5.8081523936
 11
0.4464825597
 21
-5.5956523936
  0
LINE
  5
41E
100
AcDbEntity
  8
ASSI
100
AcDbLine
 62
7
  6
CONTINUOUS
 10
0.4464825597
 20
-5.8081523936
 11
0.4464825597
 21
-5.5956523936
  0
LINE
  5
41F
100
AcDbEntity
  8
0
100
AcDbLine
 62
7
  6
CONTINUOUS
 10
0.4464825597
 20
-4.2144024949
 11
0.4464825597
 21
-4.0727357607
  0
LINE
  5
420
100
AcDbEntity
  8
ASSI
100
AcDbLine
 62
7
  6
CONTINUOUS
 10
0.4464825597
 20
-4.2144024949
 11
0.4464825597
 21
-4.0727357607
  0
LINE
  5
421
100
AcDbEntity
  8
0
100
AcDbLine
 62
7
  6
CONTINUOUS
 10
0.6635038105
 20
-5.3123190265
 11
0.6635038105
 21
-5.1352357607
  0
LINE
  5
422
100
AcDbEntity
  8
ASSI
100
AcDbLine
 62
7
  6
CONTINUOUS
 10
0.6635038105
 20
-5.3123190265
 11
0.6635038105
 21
-5.1352357607
  0
LINE
  5
423
100
AcDbEntity
  8
0
100
AcDbLine
 62
7
  6
CONTINUOUS
 10
0.8805251625
 20
-5.7727357607
 11
0.8805251625
 21
-5.5956523936
  0
LINE
  5
424
100
AcDbEntity
  8
ASSI
100
AcDbLine
 62
7
  6
CONTINUOUS
 10
0.8805251625
 20
-5.7727357607
 11
0.8805251625
 21
-5.5956523936
  0
LINE
  5
425
100
AcDbEntity
  8
0
100
AcDbLine
 62
7
  6
CONTINUOUS
 10
1.0252059963
 20
-4.2144024949
 11
1.0252059963
 21
-4.0727357607
  0
LINE
  5
426
100
AcDbEntity
  8
ASSI
100
AcDbLine
 62
7
  6
CONTINUOUS
 10
1.0252059963
 20
-4.2144024949
 11
1.0252059963
 21
-4.0727357607
  0
LINE
  5
427
100
AcDbEntity
  8
RACCORDO
100
AcDbLine
 62
253
  6
CONTINUOUS
 10
-5.6291776788
 20
-6.3014246484
 11
-5.5992316717
 21
-6.2714786413
  0
LINE
  5
428
100
AcDbEntity
  8
ASSI
100
AcDbLine
 62
253
  6
CONTINUOUS
 10
-5.6291776788
 20
-6.3014246484
 11
-5.5992316717
 21
-6.2714786413
  0
LINE
  5
429
100
AcDbEntity
  8
RACCORDO
100
AcDbLine
 62
253
  6
CONTINUOUS
 10
-5.3292233529
 20
-6.6013789396
 11
-5.299473055
 21
-6.5716286417
  0
LINE
  5
42A
100
AcDbEntity
  8
ASSI
100
AcDbLine
 62
253
  6
CONTINUOUS
 10
-5.3292233529
 20
-6.6013789396
 11
-5.299473055
 21
-6.5716286417
  0
LINE
  5
42B
100
AcDbEntity
  8
0
100
AcDbLine
 62
7
  6
CONTINUOUS
 10
-3.1343684825
 20
0.7934302393
 11
2.8656315175
 21
0.7934302393
  0
LINE
  5
42C
100
AcDbEntity
  8
ASSI
100
AcDbLine
 62
7
  6
CONTINUOUS
 10
-3.1343684825
 20
0.7934302393
 11
2.8656315175
 21
0.7934302393
  0
LINE
  5
42D
100
AcDbEntity
  8
RACCORDO
100
AcDbLine
 62
7
  6
CONTINUOUS
 10
-10.9589451077
 20
1.0721642741
 11
-9.9631025173
 21
1.0721642741
  0
LINE
  5
42E
100
AcDbEntity
  8
ASSI
100
AcDbLine
 62
7
  6
CONTINUOUS
 10
-10.9589451077
 20
1.0721642741
 11
-9.9631025173
 21
1.0721642741
  0
LINE
  5
42F
100
AcDbEntity
  8
RACCORDO
100
AcDbLine
 62
7
  6
CONTINUOUS
 10
9.6943655523
 20
1.0721642741
 11
10.6902081426
 21
1.0721642741
  0
LINE
  5
430
100
AcDbEntity
  8
ASSI
100
AcDbLine
 62
7
  6
CONTINUOUS
 10
9.6943655523
 20
1.0721642741
 11
10.6902081426
 21
1.0721642741
  0
LINE
  5
431
100
AcDbEntity
  8
RACCORDO
100
AcDbLine
 62
7
  6
CONTINUOUS
 10
-6.8792233529
 20
7.9882851097
 11
-6.8617177666
 21
7.9707795234
  0
LINE
  5
432
100
AcDbEntity
  8
ASSI
100
AcDbLine
 62
7
  6
CONTINUOUS
 10
-6.8792233529
 20
7.9882851097
 11
-6.8617177666
 21
7.9707795234
  0
LINE
  5
433
100
AcDbEntity
  8
0
100
AcDbLine
 62
7
  6
CONTINUOUS
 10
1.2060570386
 20
-4.3560690265
 11
1.1698868301
 21
-4.2144024949
  0
LINE
  5
434
100
AcDbEntity
  8
ASSI
100
AcDbLine
 62
7
  6
CONTINUOUS
 10
1.2060570386
 20
-4.3560690265
 11
1.1698868301
 21
-4.2144024949
  0
LINE
  5
435
100
AcDbEntity
  8
0
100
AcDbLine
 62
7
  6
CONTINUOUS
 10
1.7847804499
 20
-4.0727357607
 11
1.7486102414
 21
-3.9310690265
  0
LINE
  5
436
100
AcDbEntity
  8
ASSI
100
AcDbLine
 62
7
  6
CONTINUOUS
 10
1.7847804499
 20
-4.0727357607
 11
1.7486102414
 21
-3.9310690265
  0
LINE
  5
437
100
AcDbEntity
  8
0
100
AcDbLine
 62
7
  6
CONTINUOUS
 10
1.9656315175
 20
-5.5956523936
 11
1.9294613058
 21
-5.4185691278
  0
LINE
  5
438
100
AcDbEntity
  8
ASSI
100
AcDbLine
 62
7
  6
CONTINUOUS
 10
1.9656315175
 20
-5.5956523936
 11
1.9294613058
 21
-5.4185691278
  0
LINE
  5
439
100
AcDbEntity
  8
0
100
AcDbLine
 62
7
  6
CONTINUOUS
 10
1.0613762048
 20
-5.8081523936
 11
1.0613762048
 21
-5.5602357607
  0
LINE
  5
43A
100
AcDbEntity
  8
ASSI
100
AcDbLine
 62
7
  6
CONTINUOUS
 10
1.0613762048
 20
-5.8081523936
 11
1.0613762048
 21
-5.5602357607
  0
LINE
  5
43B
100
AcDbEntity
  8
0
100
AcDbLine
 62
7
  6
CONTINUOUS
 10
1.1698868301
 20
-4.2144024949
 11
1.1698868301
 21
-4.0727357607
  0
LINE
  5
43C
100
AcDbEntity
  8
ASSI
100
AcDbLine
 62
7
  6
CONTINUOUS
 10
1.1698868301
 20
-4.2144024949
 11
1.1698868301
 21
-4.0727357607
  0
LINE
  5
43D
100
AcDbEntity
  8
0
100
AcDbLine
 62
7
  6
CONTINUOUS
 10
1.242227247
 20
-2.9748192291
 11
1.242227247
 21
-2.3727357607
  0
LINE
  5
43E
100
AcDbEntity
  8
ASSI
100
AcDbLine
 62
7
  6
CONTINUOUS
 10
1.242227247
 20
-2.9748192291
 11
1.242227247
 21
-2.3727357607
  0
LINE
  5
43F
100
AcDbEntity
  8
0
100
AcDbLine
 62
7
  6
CONTINUOUS
 10
1.242227247
 20
-2.1602357607
 11
1.242227247
 21
-1.8060692291
  0
LINE
  5
440
100
AcDbEntity
  8
ASSI
100
AcDbLine
 62
7
  6
CONTINUOUS
 10
1.242227247
 20
-2.1602357607
 11
1.242227247
 21
-1.8060692291
  0
LINE
  5
441
100
AcDbEntity
  8
0
100
AcDbLine
 62
7
  6
CONTINUOUS
 10
1.4592485484
 20
-3.2227357607
 11
1.4592485484
 21
-2.3727357607
  0
LINE
  5
442
100
AcDbEntity
  8
ASSI
100
AcDbLine
 62
7
  6
CONTINUOUS
 10
1.4592485484
 20
-3.2227357607
 11
1.4592485484
 21
-2.3727357607
  0
LINE
  5
443
100
AcDbEntity
  8
0
100
AcDbLine
 62
7
  6
CONTINUOUS
 10
1.4592485484
 20
-2.1602357607
 11
1.4592485484
 21
-1.8060692291
  0
LINE
  5
444
100
AcDbEntity
  8
ASSI
100
AcDbLine
 62
7
  6
CONTINUOUS
 10
1.4592485484
 20
-2.1602357607
 11
1.4592485484
 21
-1.8060692291
  0
LINE
  5
445
100
AcDbEntity
  8
0
100
AcDbLine
 62
7
  6
CONTINUOUS
 10
1.7847804499
 20
-5.8081523936
 11
1.7847804499
 21
-5.5602357607
  0
LINE
  5
446
100
AcDbEntity
  8
ASSI
100
AcDbLine
 62
7
  6
CONTINUOUS
 10
1.7847804499
 20
-5.8081523936
 11
1.7847804499
 21
-5.5602357607
  0
LINE
  5
447
100
AcDbEntity
  8
0
100
AcDbLine
 62
7
  6
CONTINUOUS
 10
1.7847804499
 20
-4.2144024949
 11
1.7847804499
 21
-4.0727357607
  0
LINE
  5
448
100
AcDbEntity
  8
ASSI
100
AcDbLine
 62
7
  6
CONTINUOUS
 10
1.7847804499
 20
-4.2144024949
 11
1.7847804499
 21
-4.0727357607
  0
LINE
  5
449
100
AcDbEntity
  8
0
100
AcDbLine
 62
7
  6
CONTINUOUS
 10
1.9656315175
 20
-6.8352357607
 11
1.9656315175
 21
-6.6227357607
  0
LINE
  5
44A
100
AcDbEntity
  8
ASSI
100
AcDbLine
 62
7
  6
CONTINUOUS
 10
1.9656315175
 20
-6.8352357607
 11
1.9656315175
 21
-6.6227357607
  0
LINE
  5
44B
100
AcDbEntity
  8
0
100
AcDbLine
 62
7
  6
CONTINUOUS
 10
1.9656315175
 20
-5.7727357607
 11
1.9656315175
 21
-5.5956523936
  0
LINE
  5
44C
100
AcDbEntity
  8
ASSI
100
AcDbLine
 62
7
  6
CONTINUOUS
 10
1.9656315175
 20
-5.7727357607
 11
1.9656315175
 21
-5.5956523936
  0
LINE
  5
44D
100
AcDbEntity
  8
0
100
AcDbLine
 62
7
  6
CONTINUOUS
 10
1.9656315175
 20
-4.2498190265
 11
1.9656315175
 21
-4.0373190265
  0
LINE
  5
44E
100
AcDbEntity
  8
ASSI
100
AcDbLine
 62
7
  6
CONTINUOUS
 10
1.9656315175
 20
-4.2498190265
 11
1.9656315175
 21
-4.0373190265
  0
LINE
  5
44F
100
AcDbEntity
  8
0
100
AcDbLine
 62
7
  6
CONTINUOUS
 10
1.9656315175
 20
-2.3727357607
 11
1.9656315175
 21
-2.1602357607
  0
LINE
  5
450
100
AcDbEntity
  8
ASSI
100
AcDbLine
 62
7
  6
CONTINUOUS
 10
1.9656315175
 20
-2.3727357607
 11
1.9656315175
 21
-2.1602357607
  0
LINE
  5
451
100
AcDbEntity
  8
0
100
AcDbLine
 62
7
  6
CONTINUOUS
 10
1.9656315175
 20
-1.3102357607
 11
1.9656315175
 21
-1.0977357607
  0
LINE
  5
452
100
AcDbEntity
  8
ASSI
100
AcDbLine
 62
7
  6
CONTINUOUS
 10
1.9656315175
 20
-1.3102357607
 11
1.9656315175
 21
-1.0977357607
  0
LINE
  5
453
100
AcDbEntity
  8
0
100
AcDbLine
 62
7
  6
CONTINUOUS
 10
0.2656315175
 20
-4.0727357607
 11
0.3018017259
 21
-3.8956524949
  0
LINE
  5
454
100
AcDbEntity
  8
ASSI
100
AcDbLine
 62
7
  6
CONTINUOUS
 10
0.2656315175
 20
-4.0727357607
 11
0.3018017259
 21
-3.8956524949
  0
LINE
  5
455
100
AcDbEntity
  8
0
100
AcDbLine
 62
7
  6
CONTINUOUS
 10
0.2656315175
 20
-5.6310691278
 11
0.3018017259
 21
-5.4539857607
  0
LINE
  5
456
100
AcDbEntity
  8
ASSI
100
AcDbLine
 62
7
  6
CONTINUOUS
 10
0.2656315175
 20
-5.6310691278
 11
0.3018017259
 21
-5.4539857607
  0
LINE
  5
457
100
AcDbEntity
  8
0
100
AcDbLine
 62
7
  6
CONTINUOUS
 10
0.8805251625
 20
-5.5956523936
 11
0.916695371
 21
-5.4185691278
  0
LINE
  5
458
100
AcDbEntity
  8
ASSI
100
AcDbLine
 62
7
  6
CONTINUOUS
 10
0.8805251625
 20
-5.5956523936
 11
0.916695371
 21
-5.4185691278
  0
LINE
  5
459
100
AcDbEntity
  8
0
100
AcDbLine
 62
7
  6
CONTINUOUS
 10
0.4464825597
 20
-4.0727357607
 11
0.4826527682
 21
-3.9310690265
  0
LINE
  5
45A
100
AcDbEntity
  8
ASSI
100
AcDbLine
 62
7
  6
CONTINUOUS
 10
0.4464825597
 20
-4.0727357607
 11
0.4826527682
 21
-3.9310690265
  0
LINE
  5
45B
100
AcDbEntity
  8
0
100
AcDbLine
 62
7
  6
CONTINUOUS
 10
0.9890357879
 20
-4.3560690265
 11
1.0252059963
 21
-4.2144024949
  0
LINE
  5
45C
100
AcDbEntity
  8
ASSI
100
AcDbLine
 62
7
  6
CONTINUOUS
 10
0.9890357879
 20
-4.3560690265
 11
1.0252059963
 21
-4.2144024949
  0
LINE
  5
45D
100
AcDbEntity
  8
RACCORDO
100
AcDbLine
 62
7
  6
CONTINUOUS
 10
10.9887784387
 20
7.9759243813
 11
11.0586494915
 21
8.0457954341
  0
LINE
  5
45E
100
AcDbEntity
  8
ASSI
100
AcDbLine
 62
7
  6
CONTINUOUS
 10
10.9887784387
 20
7.9759243813
 11
11.0586494915
 21
8.0457954341
  0
LINE
  5
45F
100
AcDbEntity
  8
0
100
AcDbLine
 62
7
  6
CONTINUOUS
 10
-0.5020674825
 20
-1.7945577607
 11
-2.2019304825
 21
-2.3161177607
  0
LINE
  5
460
100
AcDbEntity
  8
ASSI
100
AcDbLine
 62
7
  6
CONTINUOUS
 10
-0.5020674825
 20
-1.7945577607
 11
-2.2019304825
 21
-2.3161177607
  0
LINE
  5
461
100
AcDbEntity
  8
RACCORDO
100
AcDbLine
 62
7
  6
CONTINUOUS
 10
-11.3099313916
 20
1.1283403692
 11
-10.3140877913
 21
1.1283403692
  0
LINE
  5
462
100
AcDbEntity
  8
ASSI
100
AcDbLine
 62
7
  6
CONTINUOUS
 10
-11.3099313916
 20
1.1283403692
 11
-10.3140877913
 21
1.1283403692
  0
LINE
  5
463
100
AcDbEntity
  8
RACCORDO
100
AcDbLine
 62
7
  6
CONTINUOUS
 10
11.0411944266
 20
1.1283403692
 11
10.0453508263
 21
1.1283403692
  0
LINE
  5
464
100
AcDbEntity
  8
ASSI
100
AcDbLine
 62
7
  6
CONTINUOUS
 10
11.0411944266
 20
1.1283403692
 11
10.0453508263
 21
1.1283403692
  0
LINE
  5
465
100
AcDbEntity
  8
RACCORDO
100
AcDbLine
 62
7
  6
CONTINUOUS
 10
-11.3099313916
 20
1.7585201095
 11
-10.3140877913
 21
1.7585201095
  0
LINE
  5
466
100
AcDbEntity
  8
ASSI
100
AcDbLine
 62
7
  6
CONTINUOUS
 10
-11.3099313916
 20
1.7585201095
 11
-10.3140877913
 21
1.7585201095
  0
LINE
  5
467
100
AcDbEntity
  8
RACCORDO
100
AcDbLine
 62
7
  6
CONTINUOUS
 10
11.0411944266
 20
1.7585201095
 11
10.0453508263
 21
1.7585201095
  0
LINE
  5
468
100
AcDbEntity
  8
ASSI
100
AcDbLine
 62
7
  6
CONTINUOUS
 10
11.0411944266
 20
1.7585201095
 11
10.0453508263
 21
1.7585201095
  0
LINE
  5
469
100
AcDbEntity
  8
RACCORDO
100
AcDbLine
 62
7
  6
CONTINUOUS
 10
-10.9587019713
 20
1.8149395131
 11
-9.9628592087
 21
1.8149395131
  0
LINE
  5
46A
100
AcDbEntity
  8
ASSI
100
AcDbLine
 62
7
  6
CONTINUOUS
 10
-10.9587019713
 20
1.8149395131
 11
-9.9628592087
 21
1.8149395131
  0
LINE
  5
46B
100
AcDbEntity
  8
RACCORDO
100
AcDbLine
 62
7
  6
CONTINUOUS
 10
9.6941222436
 20
1.8149395131
 11
10.6899650062
 21
1.8149395131
  0
LINE
  5
46C
100
AcDbEntity
  8
ASSI
100
AcDbLine
 62
7
  6
CONTINUOUS
 10
9.6941222436
 20
1.8149395131
 11
10.6899650062
 21
1.8149395131
  0
LINE
  5
46D
100
AcDbEntity
  8
0
100
AcDbLine
 62
7
  6
CONTINUOUS
 10
1.9656315175
 20
-4.0373190265
 11
1.9294613058
 21
-3.8602357607
  0
LINE
  5
46E
100
AcDbEntity
  8
ASSI
100
AcDbLine
 62
7
  6
CONTINUOUS
 10
1.9656315175
 20
-4.0373190265
 11
1.9294613058
 21
-3.8602357607
  0
LINE
  5
46F
100
AcDbEntity
  8
DRAFT
100
AcDbLine
 62
7
  6
CONTINUOUS
 10
2.3621405045
 20
7.2143763172
 11
2.3621405045
 21
2.3724841614
  0
LINE
  5
470
100
AcDbEntity
  8
DRAFT
100
AcDbLine
 62
7
  6
CONTINUOUS
 10
2.7656315175
 20
5.5976589901
 11
2.7656315175
 21
3.9892014885
  0
LINE
  5
471
100
AcDbEntity
  8
ASSI
100
AcDbLine
 62
7
  6
CONTINUOUS
 10
2.7656315175
 20
5.5976589901
 11
2.7656315175
 21
3.9892014885
  0
LINE
  5
472
100
AcDbEntity
  8
DRAFT
100
AcDbLine
 62
7
  6
CONTINUOUS
 10
2.8330865824
 20
7.2108853042
 11
2.8330865824
 21
5.6021577718
  0
LINE
  5
473
100
AcDbEntity
  8
DRAFT
100
AcDbLine
 62
7
  6
CONTINUOUS
 10
2.8330865824
 20
3.9847027068
 11
2.8330865824
 21
2.3759751744
  0
LINE
  5
474
100
AcDbEntity
  8
DRAFT
100
AcDbLine
 62
7
  6
CONTINUOUS
 10
2.8656315175
 20
0.7934302393
 11
2.8656315175
 21
3.9847027068
  0
LINE
  5
475
100
AcDbEntity
  8
ASSI
100
AcDbLine
 62
7
  6
CONTINUOUS
 10
2.8656315175
 20
0.7934302393
 11
2.8656315175
 21
3.9847027068
  0
LINE
  5
476
100
AcDbEntity
  8
DRAFT
100
AcDbLine
 62
7
  6
CONTINUOUS
 10
2.8656315175
 20
5.6021577718
 11
2.8656315175
 21
7.2934302393
  0
LINE
  5
477
100
AcDbEntity
  8
ASSI
100
AcDbLine
 62
7
  6
CONTINUOUS
 10
2.8656315175
 20
5.6021577718
 11
2.8656315175
 21
7.2934302393
  0
LINE
  5
478
100
AcDbEntity
  8
DRAFT
100
AcDbLine
 62
7
  6
CONTINUOUS
 10
2.9352672779
 20
5.5934302393
 11
2.9352672779
 21
3.9934302393
  0
LINE
  5
479
100
AcDbEntity
  8
ASSI
100
AcDbLine
 62
7
  6
CONTINUOUS
 10
2.9352672779
 20
5.5934302393
 11
2.9352672779
 21
3.9934302393
  0
LINE
  5
47A
100
AcDbEntity
  8
0
100
AcDbLine
 62
7
  6
CONTINUOUS
 10
1.9294613058
 20
-4.4269024949
 11
1.9656315175
 21
-4.2498190265
  0
LINE
  5
47B
100
AcDbEntity
  8
ASSI
100
AcDbLine
 62
7
  6
CONTINUOUS
 10
1.9294613058
 20
-4.4269024949
 11
1.9656315175
 21
-4.2498190265
  0
LINE
  5
47C
100
AcDbEntity
  8
0
100
AcDbLine
 62
7
  6
CONTINUOUS
 10
1.9294613058
 20
-5.9498191278
 11
1.9656315175
 21
-5.7727357607
  0
LINE
  5
47D
100
AcDbEntity
  8
ASSI
100
AcDbLine
 62
7
  6
CONTINUOUS
 10
1.9294613058
 20
-5.9498191278
 11
1.9656315175
 21
-5.7727357607
  0
LINE
  5
47E
100
AcDbEntity
  8
0
100
AcDbLine
 62
7
  6
CONTINUOUS
 10
1.1698868301
 20
-4.0727357607
 11
1.2060570386
 21
-3.9310690265
  0
LINE
  5
47F
100
AcDbEntity
  8
ASSI
100
AcDbLine
 62
7
  6
CONTINUOUS
 10
1.1698868301
 20
-4.0727357607
 11
1.2060570386
 21
-3.9310690265
  0
LINE
  5
480
100
AcDbEntity
  8
0
100
AcDbLine
 62
7
  6
CONTINUOUS
 10
1.7486102414
 20
-4.3560690265
 11
1.7847804499
 21
-4.2144024949
  0
LINE
  5
481
100
AcDbEntity
  8
ASSI
100
AcDbLine
 62
7
  6
CONTINUOUS
 10
1.7486102414
 20
-4.3560690265
 11
1.7847804499
 21
-4.2144024949
  0
LINE
  5
482
100
AcDbEntity
  8
0
100
AcDbLine
 62
7
  6
CONTINUOUS
 10
0.4464825597
 20
-5.5956523936
 11
0.4826527682
 21
-5.4894023936
  0
LINE
  5
483
100
AcDbEntity
  8
ASSI
100
AcDbLine
 62
7
  6
CONTINUOUS
 10
0.4464825597
 20
-5.5956523936
 11
0.4826527682
 21
-5.4894023936
  0
LINE
  5
484
100
AcDbEntity
  8
0
100
AcDbLine
 62
7
  6
CONTINUOUS
 10
1.0613762048
 20
-5.5602357607
 11
1.0975464132
 21
-5.4539857607
  0
LINE
  5
485
100
AcDbEntity
  8
ASSI
100
AcDbLine
 62
7
  6
CONTINUOUS
 10
1.0613762048
 20
-5.5602357607
 11
1.0975464132
 21
-5.4539857607
  0
LINE
  5
486
100
AcDbEntity
  8
0
100
AcDbLine
 62
7
  6
CONTINUOUS
 10
1.0975464132
 20
-3.7894024949
 11
1.1337166217
 21
-3.7185690265
  0
LINE
  5
487
100
AcDbEntity
  8
ASSI
100
AcDbLine
 62
7
  6
CONTINUOUS
 10
1.0975464132
 20
-3.7894024949
 11
1.1337166217
 21
-3.7185690265
  0
LINE
  5
488
100
AcDbEntity
  8
0
100
AcDbLine
 62
7
  6
CONTINUOUS
 10
1.2060570386
 20
-3.9310690265
 11
1.2783974555
 21
-3.7894024949
  0
LINE
  5
489
100
AcDbEntity
  8
ASSI
100
AcDbLine
 62
7
  6
CONTINUOUS
 10
1.2060570386
 20
-3.9310690265
 11
1.2783974555
 21
-3.7894024949
  0
LINE
  5
48A
100
AcDbEntity
  8
0
100
AcDbLine
 62
7
  6
CONTINUOUS
 10
1.0613762048
 20
-4.5685690265
 11
1.0975464132
 21
-4.4977357607
  0
LINE
  5
48B
100
AcDbEntity
  8
ASSI
100
AcDbLine
 62
7
  6
CONTINUOUS
 10
1.0613762048
 20
-4.5685690265
 11
1.0975464132
 21
-4.4977357607
  0
LINE
  5
48C
100
AcDbEntity
  8
0
100
AcDbLine
 62
7
  6
CONTINUOUS
 10
0.3018017259
 20
-3.8956524949
 11
0.4103123513
 21
-3.7185690265
  0
LINE
  5
48D
100
AcDbEntity
  8
ASSI
100
AcDbLine
 62
7
  6
CONTINUOUS
 10
0.3018017259
 20
-3.8956524949
 11
0.4103123513
 21
-3.7185690265
  0
LINE
  5
48E
100
AcDbEntity
  8
0
100
AcDbLine
 62
7
  6
CONTINUOUS
 10
0.3018017259
 20
-5.4539857607
 11
0.4103123513
 21
-5.2769024949
  0
LINE
  5
48F
100
AcDbEntity
  8
ASSI
100
AcDbLine
 62
7
  6
CONTINUOUS
 10
0.3018017259
 20
-5.4539857607
 11
0.4103123513
 21
-5.2769024949
  0
LINE
  5
490
100
AcDbEntity
  8
0
100
AcDbLine
 62
7
  6
CONTINUOUS
 10
0.4826527682
 20
-3.9310690265
 11
0.5911633935
 21
-3.7894024949
  0
LINE
  5
491
100
AcDbEntity
  8
ASSI
100
AcDbLine
 62
7
  6
CONTINUOUS
 10
0.4826527682
 20
-3.9310690265
 11
0.5911633935
 21
-3.7894024949
  0
LINE
  5
492
100
AcDbEntity
  8
RACCORDO
100
AcDbLine
 62
253
  6
CONTINUOUS
 10
6.5936861367
 20
3.3714391671
 11
6.6245113664
 21
3.4022643968
  0
LINE
  5
493
100
AcDbEntity
  8
ASSI
100
AcDbLine
 62
253
  6
CONTINUOUS
 10
6.5936861367
 20
3.3714391671
 11
6.6245113664
 21
3.4022643968
  0
LINE
  5
494
100
AcDbEntity
  8
RACCORDO
100
AcDbLine
 62
253
  6
CONTINUOUS
 10
6.8937167014
 20
3.0715611147
 11
6.9244656749
 21
3.1023100882
  0
LINE
  5
495
100
AcDbEntity
  8
ASSI
100
AcDbLine
 62
253
  6
CONTINUOUS
 10
6.8937167014
 20
3.0715611147
 11
6.9244656749
 21
3.1023100882
  0
LINE
  5
496
100
AcDbEntity
  8
0
100
AcDbLine
 62
7
  6
CONTINUOUS
 10
0.4103123513
 20
-3.7185690265
 11
0.5188229766
 21
-3.6123192291
  0
LINE
  5
497
100
AcDbEntity
  8
ASSI
100
AcDbLine
 62
7
  6
CONTINUOUS
 10
0.4103123513
 20
-3.7185690265
 11
0.5188229766
 21
-3.6123192291
  0
LINE
  5
498
100
AcDbEntity
  8
DRAFT
100
AcDbLine
 62
7
  6
CONTINUOUS
 10
2.3621405045
 20
2.3724841614
 11
-2.6308774696
 21
2.3724841614
  0
LINE
  5
499
100
AcDbEntity
  8
DRAFT
100
AcDbLine
 62
7
  6
CONTINUOUS
 10
-3.1018235475
 20
2.3759751744
 11
-2.6343684825
 21
2.3759751744
  0
LINE
  5
49A
100
AcDbEntity
  8
DRAFT
100
AcDbLine
 62
7
  6
CONTINUOUS
 10
2.8330865824
 20
2.3759751744
 11
2.3656315175
 21
2.3759751744
  0
LINE
  5
49B
100
AcDbEntity
  8
RACCORDO
100
AcDbLine
 62
7
  6
CONTINUOUS
 10
-7.4062832986
 20
3.0715611147
 11
-7.1624536664
 21
3.0715611147
  0
LINE
  5
49C
100
AcDbEntity
  8
ASSI
100
AcDbLine
 62
7
  6
CONTINUOUS
 10
-7.4062832986
 20
3.0715611147
 11
-7.1624536664
 21
3.0715611147
  0
LINE
  5
49D
100
AcDbEntity
  8
RACCORDO
100
AcDbLine
 62
7
  6
CONTINUOUS
 10
6.8937167014
 20
3.0715611147
 11
7.1375463336
 21
3.0715611147
  0
LINE
  5
49E
100
AcDbEntity
  8
ASSI
100
AcDbLine
 62
7
  6
CONTINUOUS
 10
6.8937167014
 20
3.0715611147
 11
7.1375463336
 21
3.0715611147
  0
LINE
  5
49F
100
AcDbEntity
  8
RACCORDO
100
AcDbLine
 62
253
  6
CONTINUOUS
 10
-7.3755343251
 20
3.1023100882
 11
-7.19320264
 21
3.1023100882
  0
LINE
  5
4A0
100
AcDbEntity
  8
ASSI
100
AcDbLine
 62
253
  6
CONTINUOUS
 10
-7.3755343251
 20
3.1023100882
 11
-7.19320264
 21
3.1023100882
  0
LINE
  5
4A1
100
AcDbEntity
  8
RACCORDO
100
AcDbLine
 62
253
  6
CONTINUOUS
 10
6.9244656749
 20
3.1023100882
 11
7.10679736
 21
3.1023100882
  0
LINE
  5
4A2
100
AcDbEntity
  8
ASSI
100
AcDbLine
 62
253
  6
CONTINUOUS
 10
6.9244656749
 20
3.1023100882
 11
7.10679736
 21
3.1023100882
  0
LINE
  5
4A3
100
AcDbEntity
  8
RACCORDO
100
AcDbLine
 62
7
  6
CONTINUOUS
 10
9.6978781911
 20
-6.0888164344
 11
9.7453965177
 21
-6.1363347609
  0
LINE
  5
4A4
100
AcDbEntity
  8
ASSI
100
AcDbLine
 62
7
  6
CONTINUOUS
 10
9.6978781911
 20
-6.0888164344
 11
9.7453965177
 21
-6.1363347609
  0
LINE
  5
4A5
100
AcDbEntity
  8
RACCORDO
100
AcDbLine
 62
253
  6
CONTINUOUS
 10
3.405569256
 20
3.9934302393
 11
3.405569256
 21
5.5934302393
  0
LINE
  5
4A6
100
AcDbEntity
  8
ASSI
100
AcDbLine
 62
253
  6
CONTINUOUS
 10
3.405569256
 20
3.9934302393
 11
3.405569256
 21
5.5934302393
  0
LINE
  5
4A7
100
AcDbEntity
  8
RACCORDO
100
AcDbLine
 62
253
  6
CONTINUOUS
 10
3.6874770422
 20
3.989984715
 11
3.6874770422
 21
5.5968757636
  0
LINE
  5
4A8
100
AcDbEntity
  8
ASSI
100
AcDbLine
 62
253
  6
CONTINUOUS
 10
3.6874770422
 20
3.989984715
 11
3.6874770422
 21
5.5968757636
  0
LINE
  5
4A9
100
AcDbEntity
  8
0
100
AcDbLine
 62
7
  6
CONTINUOUS
 10
1.7486102414
 20
-5.9144023936
 11
1.7847804499
 21
-5.8081523936
  0
LINE
  5
4AA
100
AcDbEntity
  8
ASSI
100
AcDbLine
 62
7
  6
CONTINUOUS
 10
1.7486102414
 20
-5.9144023936
 11
1.7847804499
 21
-5.8081523936
  0
LINE
  5
4AB
100
AcDbEntity
  8
0
100
AcDbLine
 62
7
  6
CONTINUOUS
 10
1.6762698245
 20
-4.4977357607
 11
1.7486102414
 21
-4.3560690265
  0
LINE
  5
4AC
100
AcDbEntity
  8
ASSI
100
AcDbLine
 62
7
  6
CONTINUOUS
 10
1.6762698245
 20
-4.4977357607
 11
1.7486102414
 21
-4.3560690265
  0
LINE
  5
4AD
100
AcDbEntity
  8
0
100
AcDbLine
 62
7
  6
CONTINUOUS
 10
0.916695371
 20
-5.4185691278
 11
1.0252059963
 21
-5.2414857607
  0
LINE
  5
4AE
100
AcDbEntity
  8
ASSI
100
AcDbLine
 62
7
  6
CONTINUOUS
 10
0.916695371
 20
-5.4185691278
 11
1.0252059963
 21
-5.2414857607
  0
LINE
  5
4AF
100
AcDbEntity
  8
0
100
AcDbLine
 62
7
  6
CONTINUOUS
 10
1.820950671
 20
-4.6039857607
 11
1.9294613058
 21
-4.4269024949
  0
LINE
  5
4B0
100
AcDbEntity
  8
ASSI
100
AcDbLine
 62
7
  6
CONTINUOUS
 10
1.820950671
 20
-4.6039857607
 11
1.9294613058
 21
-4.4269024949
  0
LINE
  5
4B1
100
AcDbEntity
  8
0
100
AcDbLine
 62
7
  6
CONTINUOUS
 10
0.4826527682
 20
-5.4894023936
 11
0.5549931851
 21
-5.3831523936
  0
LINE
  5
4B2
100
AcDbEntity
  8
ASSI
100
AcDbLine
 62
7
  6
CONTINUOUS
 10
0.4826527682
 20
-5.4894023936
 11
0.5549931851
 21
-5.3831523936
  0
LINE
  5
4B3
100
AcDbEntity
  8
0
100
AcDbLine
 62
7
  6
CONTINUOUS
 10
1.0975464132
 20
-5.4539857607
 11
1.1698868301
 21
-5.3477357607
  0
LINE
  5
4B4
100
AcDbEntity
  8
ASSI
100
AcDbLine
 62
7
  6
CONTINUOUS
 10
1.0975464132
 20
-5.4539857607
 11
1.1698868301
 21
-5.3477357607
  0
LINE
  5
4B5
100
AcDbEntity
  8
0
100
AcDbLine
 62
7
  6
CONTINUOUS
 10
1.1337166217
 20
-3.7185690265
 11
1.242227247
 21
-3.5769022922
  0
LINE
  5
4B6
100
AcDbEntity
  8
ASSI
100
AcDbLine
 62
7
  6
CONTINUOUS
 10
1.1337166217
 20
-3.7185690265
 11
1.242227247
 21
-3.5769022922
  0
LINE
  5
4B7
100
AcDbEntity
  8
0
100
AcDbLine
 62
7
  6
CONTINUOUS
 10
0.8805251625
 20
-4.4977357607
 11
0.9890357879
 21
-4.3560690265
  0
LINE
  5
4B8
100
AcDbEntity
  8
ASSI
100
AcDbLine
 62
7
  6
CONTINUOUS
 10
0.8805251625
 20
-4.4977357607
 11
0.9890357879
 21
-4.3560690265
  0
LINE
  5
4B9
100
AcDbEntity
  8
0
100
AcDbLine
 62
7
  6
CONTINUOUS
 10
0.9528655794
 20
-4.6748190265
 11
1.0613762048
 21
-4.5685690265
  0
LINE
  5
4BA
100
AcDbEntity
  8
ASSI
100
AcDbLine
 62
7
  6
CONTINUOUS
 10
0.9528655794
 20
-4.6748190265
 11
1.0613762048
 21
-4.5685690265
  0
LINE
  5
4BB
100
AcDbEntity
  8
0
100
AcDbLine
 62
7
  6
CONTINUOUS
 10
1.2783974555
 20
-3.7894024949
 11
1.42307834
 21
-3.6831524949
  0
LINE
  5
4BC
100
AcDbEntity
  8
ASSI
100
AcDbLine
 62
7
  6
CONTINUOUS
 10
1.2783974555
 20
-3.7894024949
 11
1.42307834
 21
-3.6831524949
  0
LINE
  5
4BD
100
AcDbEntity
  8
0
100
AcDbLine
 62
7
  6
CONTINUOUS
 10
0.5911633935
 20
-3.7894024949
 11
0.6996741202
 21
-3.7185690265
  0
LINE
  5
4BE
100
AcDbEntity
  8
ASSI
100
AcDbLine
 62
7
  6
CONTINUOUS
 10
0.5911633935
 20
-3.7894024949
 11
0.6996741202
 21
-3.7185690265
  0
LINE
  5
4BF
100
AcDbEntity
  8
0
100
AcDbLine
 62
7
  6
CONTINUOUS
 10
0.5188229766
 20
-3.6123192291
 11
0.6996741202
 21
-3.5414857607
  0
LINE
  5
4C0
100
AcDbEntity
  8
ASSI
100
AcDbLine
 62
7
  6
CONTINUOUS
 10
0.5188229766
 20
-3.6123192291
 11
0.6996741202
 21
-3.5414857607
  0
LINE
  5
4C1
100
AcDbEntity
  8
0
100
AcDbLine
 62
7
  6
CONTINUOUS
 10
1.242227247
 20
-3.5769022922
 11
1.42307834
 21
-3.5060692291
  0
LINE
  5
4C2
100
AcDbEntity
  8
ASSI
100
AcDbLine
 62
7
  6
CONTINUOUS
 10
1.242227247
 20
-3.5769022922
 11
1.42307834
 21
-3.5060692291
  0
LINE
  5
4C3
100
AcDbEntity
  8
0
100
AcDbLine
 62
7
  6
CONTINUOUS
 10
-0.5020674825
 20
-4.1399457607
 11
-1.6120464825
 21
-4.5562017607
  0
LINE
  5
4C4
100
AcDbEntity
  8
ASSI
100
AcDbLine
 62
7
  6
CONTINUOUS
 10
-0.5020674825
 20
-4.1399457607
 11
-1.6120464825
 21
-4.5562017607
  0
LINE
  5
4C5
100
AcDbEntity
  8
0
100
AcDbLine
 62
7
  6
CONTINUOUS
 10
-1.2581614825
 20
-4.1131257607
 11
-2.2019304825
 21
-4.4642067607
  0
LINE
  5
4C6
100
AcDbEntity
  8
ASSI
100
AcDbLine
 62
7
  6
CONTINUOUS
 10
-1.2581614825
 20
-4.1131257607
 11
-2.2019304825
 21
-4.4642067607
  0
LINE
  5
4C7
100
AcDbEntity
  8
RACCORDO
100
AcDbLine
 62
7
  6
CONTINUOUS
 10
-3.9562140073
 20
3.989984715
 11
-4.3698046065
 21
3.9701499865
  0
LINE
  5
4C8
100
AcDbEntity
  8
ASSI
100
AcDbLine
 62
7
  6
CONTINUOUS
 10
-3.9562140073
 20
3.989984715
 11
-4.3698046065
 21
3.9701499865
  0
LINE
  5
4C9
100
AcDbEntity
  8
DRAFT
100
AcDbLine
 62
7
  6
CONTINUOUS
 10
2.9352672779
 20
3.9934302393
 11
2.7656315175
 21
3.9892014885
  0
LINE
  5
4CA
100
AcDbEntity
  8
ASSI
100
AcDbLine
 62
7
  6
CONTINUOUS
 10
2.9352672779
 20
3.9934302393
 11
2.7656315175
 21
3.9892014885
  0
LINE
  5
4CB
100
AcDbEntity
  8
DRAFT
100
AcDbLine
 62
7
  6
CONTINUOUS
 10
-3.1343684825
 20
3.9847027068
 11
-3.0343684825
 21
3.9857104755
  0
LINE
  5
4CC
100
AcDbEntity
  8
ASSI
100
AcDbLine
 62
7
  6
CONTINUOUS
 10
-3.1343684825
 20
3.9847027068
 11
-3.0343684825
 21
3.9857104755
  0
LINE
  5
4CD
100
AcDbEntity
  8
RACCORDO
100
AcDbLine
 62
253
  6
CONTINUOUS
 10
-7.6720585472
 20
3.6022339358
 11
-6.8966784179
 21
3.6022339358
  0
LINE
  5
4CE
100
AcDbEntity
  8
ASSI
100
AcDbLine
 62
253
  6
CONTINUOUS
 10
-7.6720585472
 20
3.6022339358
 11
-6.8966784179
 21
3.6022339358
  0
LINE
  5
4CF
100
AcDbEntity
  8
RACCORDO
100
AcDbLine
 62
253
  6
CONTINUOUS
 10
6.6279414528
 20
3.6022339358
 11
7.4033215821
 21
3.6022339358
  0
LINE
  5
4D0
100
AcDbEntity
  8
ASSI
100
AcDbLine
 62
253
  6
CONTINUOUS
 10
6.6279414528
 20
3.6022339358
 11
7.4033215821
 21
3.6022339358
  0
LINE
  5
4D1
100
AcDbEntity
  8
RACCORDO
100
AcDbLine
 62
7
  6
CONTINUOUS
 10
4.2890073797
 20
3.9678531975
 11
2.8656315175
 21
3.9678531975
  0
LINE
  5
4D2
100
AcDbEntity
  8
ASSI
100
AcDbLine
 62
7
  6
CONTINUOUS
 10
4.2890073797
 20
3.9678531975
 11
2.8656315175
 21
3.9678531975
  0
LINE
  5
4D3
100
AcDbEntity
  8
RACCORDO
100
AcDbLine
 62
7
  6
CONTINUOUS
 10
-3.1343684825
 20
3.9678531975
 11
-4.5577443447
 21
3.9678531975
  0
LINE
  5
4D4
100
AcDbEntity
  8
ASSI
100
AcDbLine
 62
7
  6
CONTINUOUS
 10
-3.1343684825
 20
3.9678531975
 11
-4.5577443447
 21
3.9678531975
  0
LINE
  5
4D5
100
AcDbEntity
  8
RACCORDO
100
AcDbLine
 62
7
  6
CONTINUOUS
 10
3.405569256
 20
3.9934302393
 11
2.9352672779
 21
3.9934302393
  0
LINE
  5
4D6
100
AcDbEntity
  8
ASSI
100
AcDbLine
 62
7
  6
CONTINUOUS
 10
3.405569256
 20
3.9934302393
 11
2.9352672779
 21
3.9934302393
  0
LINE
  5
4D7
100
AcDbEntity
  8
RACCORDO
100
AcDbLine
 62
7
  6
CONTINUOUS
 10
-3.2040042429
 20
3.9934302393
 11
-3.6743062211
 21
3.9934302393
  0
LINE
  5
4D8
100
AcDbEntity
  8
ASSI
100
AcDbLine
 62
7
  6
CONTINUOUS
 10
-3.2040042429
 20
3.9934302393
 11
-3.6743062211
 21
3.9934302393
  0
LINE
  5
4D9
100
AcDbEntity
  8
DRAFT
100
AcDbLine
 62
7
  6
CONTINUOUS
 10
2.7656315175
 20
3.9857104755
 11
2.8656315175
 21
3.9847027068
  0
LINE
  5
4DA
100
AcDbEntity
  8
ASSI
100
AcDbLine
 62
7
  6
CONTINUOUS
 10
2.7656315175
 20
3.9857104755
 11
2.8656315175
 21
3.9847027068
  0
LINE
  5
4DB
100
AcDbEntity
  8
DRAFT
100
AcDbLine
 62
7
  6
CONTINUOUS
 10
-3.0343684825
 20
3.9892014885
 11
-3.2040042429
 21
3.9934302393
  0
LINE
  5
4DC
100
AcDbEntity
  8
ASSI
100
AcDbLine
 62
7
  6
CONTINUOUS
 10
-3.0343684825
 20
3.9892014885
 11
-3.2040042429
 21
3.9934302393
  0
LINE
  5
4DD
100
AcDbEntity
  8
RACCORDO
100
AcDbLine
 62
7
  6
CONTINUOUS
 10
4.1010676414
 20
3.9701499865
 11
3.6874770422
 21
3.989984715
  0
LINE
  5
4DE
100
AcDbEntity
  8
ASSI
100
AcDbLine
 62
7
  6
CONTINUOUS
 10
4.1010676414
 20
3.9701499865
 11
3.6874770422
 21
3.989984715
  0
LINE
  5
4DF
100
AcDbEntity
  8
RACCORDO
100
AcDbLine
 62
7
  6
CONTINUOUS
 10
11.0411944266
 20
-6.1414798905
 11
10.993682893
 21
-6.093968357
  0
LINE
  5
4E0
100
AcDbEntity
  8
ASSI
100
AcDbLine
 62
7
  6
CONTINUOUS
 10
11.0411944266
 20
-6.1414798905
 11
10.993682893
 21
-6.093968357
  0
LINE
  5
4E1
100
AcDbEntity
  8
RACCORDO
100
AcDbLine
 62
7
  6
CONTINUOUS
 10
5.0355814236
 20
-7.6298259917
 11
5.0604863878
 21
-7.8814101118
  0
LINE
  5
4E2
100
AcDbEntity
  8
ASSI
100
AcDbLine
 62
7
  6
CONTINUOUS
 10
5.0355814236
 20
-7.6298259917
 11
5.0604863878
 21
-7.8814101118
  0
LINE
  5
4E3
100
AcDbEntity
  8
RACCORDO
100
AcDbLine
 62
253
  6
CONTINUOUS
 10
5.0604863878
 20
-6.6013789396
 11
5.0604863878
 21
-7.8814101118
  0
LINE
  5
4E4
100
AcDbEntity
  8
ASSI
100
AcDbLine
 62
253
  6
CONTINUOUS
 10
5.0604863878
 20
-6.6013789396
 11
5.0604863878
 21
-7.8814101118
  0
LINE
  5
4E5
100
AcDbEntity
  8
ASSI
100
AcDbLine
 62
253
  6
CONTINUOUS
 10
4.2890073797
 20
3.9678531975
 11
4.2955302849
 21
5.6193202509
  0
LINE
  5
4E6
100
AcDbEntity
  8
0
100
AcDbLine
 62
7
  6
CONTINUOUS
 10
1.820950671
 20
-6.1269023936
 11
1.9294613058
 21
-5.9498191278
  0
LINE
  5
4E7
100
AcDbEntity
  8
ASSI
100
AcDbLine
 62
7
  6
CONTINUOUS
 10
1.820950671
 20
-6.1269023936
 11
1.9294613058
 21
-5.9498191278
  0
LINE
  5
4E8
100
AcDbEntity
  8
0
100
AcDbLine
 62
7
  6
CONTINUOUS
 10
1.6762698245
 20
-6.0206523936
 11
1.7486102414
 21
-5.9144023936
  0
LINE
  5
4E9
100
AcDbEntity
  8
ASSI
100
AcDbLine
 62
7
  6
CONTINUOUS
 10
1.6762698245
 20
-6.0206523936
 11
1.7486102414
 21
-5.9144023936
  0
LINE
  5
4EA
100
AcDbEntity
  8
0
100
AcDbLine
 62
7
  6
CONTINUOUS
 10
1.0252059963
 20
-5.2414857607
 11
1.1337166217
 21
-5.1352357607
  0
LINE
  5
4EB
100
AcDbEntity
  8
ASSI
100
AcDbLine
 62
7
  6
CONTINUOUS
 10
1.0252059963
 20
-5.2414857607
 11
1.1337166217
 21
-5.1352357607
  0
LINE
  5
4EC
100
AcDbEntity
  8
0
100
AcDbLine
 62
7
  6
CONTINUOUS
 10
1.7124400329
 20
-4.7102357607
 11
1.820950671
 21
-4.6039857607
  0
LINE
  5
4ED
100
AcDbEntity
  8
ASSI
100
AcDbLine
 62
7
  6
CONTINUOUS
 10
1.7124400329
 20
-4.7102357607
 11
1.820950671
 21
-4.6039857607
  0
LINE
  5
4EE
100
AcDbEntity
  8
0
100
AcDbLine
 62
7
  6
CONTINUOUS
 10
1.1698868301
 20
-5.3477357607
 11
1.242227247
 21
-5.2769024949
  0
LINE
  5
4EF
100
AcDbEntity
  8
ASSI
100
AcDbLine
 62
7
  6
CONTINUOUS
 10
1.1698868301
 20
-5.3477357607
 11
1.242227247
 21
-5.2769024949
  0
LINE
  5
4F0
100
AcDbEntity
  8
0
100
AcDbLine
 62
7
  6
CONTINUOUS
 10
0.4103123513
 20
-5.2769024949
 11
0.5549931851
 21
-5.1706524949
  0
LINE
  5
4F1
100
AcDbEntity
  8
ASSI
100
AcDbLine
 62
7
  6
CONTINUOUS
 10
0.4103123513
 20
-5.2769024949
 11
0.5549931851
 21
-5.1706524949
  0
LINE
  5
4F2
100
AcDbEntity
  8
0
100
AcDbLine
 62
7
  6
CONTINUOUS
 10
1.5315889653
 20
-4.6039857607
 11
1.6762698245
 21
-4.4977357607
  0
LINE
  5
4F3
100
AcDbEntity
  8
ASSI
100
AcDbLine
 62
7
  6
CONTINUOUS
 10
1.5315889653
 20
-4.6039857607
 11
1.6762698245
 21
-4.4977357607
  0
LINE
  5
4F4
100
AcDbEntity
  8
0
100
AcDbLine
 62
7
  6
CONTINUOUS
 10
0.7720145371
 20
-4.5685690265
 11
0.8805251625
 21
-4.4977357607
  0
LINE
  5
4F5
100
AcDbEntity
  8
ASSI
100
AcDbLine
 62
7
  6
CONTINUOUS
 10
0.7720145371
 20
-4.5685690265
 11
0.8805251625
 21
-4.4977357607
  0
LINE
  5
4F6
100
AcDbEntity
  8
0
100
AcDbLine
 62
7
  6
CONTINUOUS
 10
0.5549931851
 20
-5.3831523936
 11
0.6635038105
 21
-5.3123190265
  0
LINE
  5
4F7
100
AcDbEntity
  8
ASSI
100
AcDbLine
 62
7
  6
CONTINUOUS
 10
0.5549931851
 20
-5.3831523936
 11
0.6635038105
 21
-5.3123190265
  0
LINE
  5
4F8
100
AcDbEntity
  8
0
100
AcDbLine
 62
7
  6
CONTINUOUS
 10
0.8081847456
 20
-4.7456524949
 11
0.9528655794
 21
-4.6748190265
  0
LINE
  5
4F9
100
AcDbEntity
  8
ASSI
100
AcDbLine
 62
7
  6
CONTINUOUS
 10
0.8081847456
 20
-4.7456524949
 11
0.9528655794
 21
-4.6748190265
  0
LINE
  5
4FA
100
AcDbEntity
  8
0
100
AcDbLine
 62
7
  6
CONTINUOUS
 10
1.5315889653
 20
-4.7810690265
 11
1.7124400329
 21
-4.7102357607
  0
LINE
  5
4FB
100
AcDbEntity
  8
ASSI
100
AcDbLine
 62
7
  6
CONTINUOUS
 10
1.5315889653
 20
-4.7810690265
 11
1.7124400329
 21
-4.7102357607
  0
LINE
  5
4FC
100
AcDbEntity
  8
0
100
AcDbLine
 62
7
  6
CONTINUOUS
 10
1.1337166217
 20
-5.1352357607
 11
1.314567664
 21
-5.0644024949
  0
LINE
  5
4FD
100
AcDbEntity
  8
ASSI
100
AcDbLine
 62
7
  6
CONTINUOUS
 10
1.1337166217
 20
-5.1352357607
 11
1.314567664
 21
-5.0644024949
  0
LINE
  5
4FE
100
AcDbEntity
  8
0
100
AcDbLine
 62
7
  6
CONTINUOUS
 10
0.5549931851
 20
-5.1706524949
 11
0.6635038105
 21
-5.1352357607
  0
LINE
  5
4FF
100
AcDbEntity
  8
ASSI
100
AcDbLine
 62
7
  6
CONTINUOUS
 10
0.5549931851
 20
-5.1706524949
 11
0.6635038105
 21
-5.1352357607
  0
LINE
  5
500
100
AcDbEntity
  8
RACCORDO
100
AcDbLine
 62
253
  6
CONTINUOUS
 10
6.6279414528
 20
4.9863234581
 11
7.4033215821
 21
4.9863234581
  0
LINE
  5
501
100
AcDbEntity
  8
ASSI
100
AcDbLine
 62
253
  6
CONTINUOUS
 10
6.6279414528
 20
4.9863234581
 11
7.4033215821
 21
4.9863234581
  0
LINE
  5
502
100
AcDbEntity
  8
RACCORDO
100
AcDbLine
 62
253
  6
CONTINUOUS
 10
-6.8966784179
 20
4.9863234581
 11
-7.6720585472
 21
4.9863234581
  0
LINE
  5
503
100
AcDbEntity
  8
ASSI
100
AcDbLine
 62
253
  6
CONTINUOUS
 10
-6.8966784179
 20
4.9863234581
 11
-7.6720585472
 21
4.9863234581
  0
LINE
  5
504
100
AcDbEntity
  8
DRAFT
100
AcDbLine
 62
7
  6
CONTINUOUS
 10
11.0611239316
 20
-4.1520621748
 11
11.0481764525
 21
-4.1391146958
  0
LINE
  5
505
100
AcDbEntity
  8
ASSI
100
AcDbLine
 62
7
  6
CONTINUOUS
 10
11.0611239316
 20
-4.1520621748
 11
11.0481764525
 21
-4.1391146958
  0
LINE
  5
506
100
AcDbEntity
  8
DRAFT
100
AcDbLine
 62
7
  6
CONTINUOUS
 10
11.3611239316
 20
-4.1520621748
 11
11.2873311675
 21
-4.0782694107
  0
LINE
  5
507
100
AcDbEntity
  8
ASSI
100
AcDbLine
 62
7
  6
CONTINUOUS
 10
11.3611239316
 20
-4.1520621748
 11
11.2873311675
 21
-4.0782694107
  0
LINE
  5
508
100
AcDbEntity
  8
RACCORDO
100
AcDbLine
 62
253
  6
CONTINUOUS
 10
5.3604406964
 20
-6.3014246439
 11
5.3604406964
 21
-7.933385007
  0
LINE
  5
509
100
AcDbEntity
  8
ASSI
100
AcDbLine
 62
253
  6
CONTINUOUS
 10
5.3604406964
 20
-6.3014246439
 11
5.3604406964
 21
-7.933385007
  0
LINE
  5
50A
100
AcDbEntity
  8
RACCORDO
100
AcDbLine
 62
253
  6
CONTINUOUS
 10
5.5708223385
 20
-7.933385007
 11
5.5708223385
 21
-6.3014246311
  0
LINE
  5
50B
100
AcDbEntity
  8
ASSI
100
AcDbLine
 62
253
  6
CONTINUOUS
 10
5.5708223385
 20
-7.933385007
 11
5.5708223385
 21
-6.3014246311
  0
LINE
  5
50C
100
AcDbEntity
  8
RACCORDO
100
AcDbLine
 62
253
  6
CONTINUOUS
 10
5.8707766471
 20
-7.8814101118
 11
5.8707766471
 21
-6.6013789396
  0
LINE
  5
50D
100
AcDbEntity
  8
ASSI
100
AcDbLine
 62
253
  6
CONTINUOUS
 10
5.8707766471
 20
-7.8814101118
 11
5.8707766471
 21
-6.6013789396
  0
LINE
  5
50E
100
AcDbEntity
  8
RACCORDO
100
AcDbLine
 62
7
  6
CONTINUOUS
 10
9.6943655523
 20
1.0721642741
 11
9.7453965177
 21
1.1231952396
  0
LINE
  5
50F
100
AcDbEntity
  8
ASSI
100
AcDbLine
 62
7
  6
CONTINUOUS
 10
9.6943655523
 20
1.0721642741
 11
9.7453965177
 21
1.1231952396
  0
LINE
  5
510
100
AcDbEntity
  8
0
100
AcDbLine
 62
7
  6
CONTINUOUS
 10
1.6762698245
 20
-6.2331524442
 11
1.820950671
 21
-6.1269023936
  0
LINE
  5
511
100
AcDbEntity
  8
ASSI
100
AcDbLine
 62
7
  6
CONTINUOUS
 10
1.6762698245
 20
-6.2331524442
 11
1.820950671
 21
-6.1269023936
  0
LINE
  5
512
100
AcDbEntity
  8
0
100
AcDbLine
 62
7
  6
CONTINUOUS
 10
1.5677591738
 20
-6.0914857607
 11
1.6762698245
 21
-6.0206523936
  0
LINE
  5
513
100
AcDbEntity
  8
ASSI
100
AcDbLine
 62
7
  6
CONTINUOUS
 10
1.5677591738
 20
-6.0914857607
 11
1.6762698245
 21
-6.0206523936
  0
LINE
  5
514
100
AcDbEntity
  8
0
100
AcDbLine
 62
7
  6
CONTINUOUS
 10
1.242227247
 20
-5.2769024949
 11
1.3507379231
 21
-5.2414857607
  0
LINE
  5
515
100
AcDbEntity
  8
ASSI
100
AcDbLine
 62
7
  6
CONTINUOUS
 10
1.242227247
 20
-5.2769024949
 11
1.3507379231
 21
-5.2414857607
  0
LINE
  5
516
100
AcDbEntity
  8
0
100
AcDbLine
 62
7
  6
CONTINUOUS
 10
1.4592485484
 20
-6.1269023936
 11
1.5677591738
 21
-6.0914857607
  0
LINE
  5
517
100
AcDbEntity
  8
ASSI
100
AcDbLine
 62
7
  6
CONTINUOUS
 10
1.4592485484
 20
-6.1269023936
 11
1.5677591738
 21
-6.0914857607
  0
LINE
  5
518
100
AcDbEntity
  8
0
100
AcDbLine
 62
7
  6
CONTINUOUS
 10
-0.5020674825
 20
-6.5088457607
 11
-2.2019304825
 21
-7.0477357607
  0
LINE
  5
519
100
AcDbEntity
  8
ASSI
100
AcDbLine
 62
7
  6
CONTINUOUS
 10
-0.5020674825
 20
-6.5088457607
 11
-2.2019304825
 21
-7.0477357607
  0
LINE
  5
51A
100
AcDbEntity
  8
DRAFT
100
AcDbLine
 62
7
  6
CONTINUOUS
 10
8.378097508
 20
8.0457954341
 11
8.1156315175
 21
7.9934302393
  0
LINE
  5
51B
100
AcDbEntity
  8
ASSI
100
AcDbLine
 62
7
  6
CONTINUOUS
 10
8.378097508
 20
8.0457954341
 11
8.1156315175
 21
7.9934302393
  0
LINE
  5
51C
100
AcDbEntity
  8
RACCORDO
100
AcDbLine
 62
7
  6
CONTINUOUS
 10
4.1075785565
 20
5.6170227386
 11
3.6874770422
 21
5.5968757636
  0
LINE
  5
51D
100
AcDbEntity
  8
ASSI
100
AcDbLine
 62
7
  6
CONTINUOUS
 10
4.1075785565
 20
5.6170227386
 11
3.6874770422
 21
5.5968757636
  0
LINE
  5
51E
100
AcDbEntity
  8
DRAFT
100
AcDbLine
 62
7
  6
CONTINUOUS
 10
-3.0343684825
 20
5.5976589901
 11
-3.2040042429
 21
5.5934302393
  0
LINE
  5
51F
100
AcDbEntity
  8
ASSI
100
AcDbLine
 62
7
  6
CONTINUOUS
 10
-3.0343684825
 20
5.5976589901
 11
-3.2040042429
 21
5.5934302393
  0
LINE
  5
520
100
AcDbEntity
  8
DRAFT
100
AcDbLine
 62
7
  6
CONTINUOUS
 10
2.7656315175
 20
5.6011500031
 11
2.8656315175
 21
5.6021577718
  0
LINE
  5
521
100
AcDbEntity
  8
ASSI
100
AcDbLine
 62
7
  6
CONTINUOUS
 10
2.7656315175
 20
5.6011500031
 11
2.8656315175
 21
5.6021577718
  0
LINE
  5
522
100
AcDbEntity
  8
RACCORDO
100
AcDbLine
 62
253
  6
CONTINUOUS
 10
7.1043897676
 20
5.3398768487
 11
6.9268732673
 21
5.3398768487
  0
LINE
  5
523
100
AcDbEntity
  8
ASSI
100
AcDbLine
 62
253
  6
CONTINUOUS
 10
7.1043897676
 20
5.3398768487
 11
6.9268732673
 21
5.3398768487
  0
LINE
  5
524
100
AcDbEntity
  8
RACCORDO
100
AcDbLine
 62
253
  6
CONTINUOUS
 10
-7.1956102324
 20
5.3398768487
 11
-7.3731267327
 21
5.3398768487
  0
LINE
  5
525
100
AcDbEntity
  8
ASSI
100
AcDbLine
 62
253
  6
CONTINUOUS
 10
-7.1956102324
 20
5.3398768487
 11
-7.3731267327
 21
5.3398768487
  0
LINE
  5
526
100
AcDbEntity
  8
RACCORDO
100
AcDbLine
 62
7
  6
CONTINUOUS
 10
3.405569256
 20
5.5934302393
 11
2.9352672779
 21
5.5934302393
  0
LINE
  5
527
100
AcDbEntity
  8
ASSI
100
AcDbLine
 62
7
  6
CONTINUOUS
 10
3.405569256
 20
5.5934302393
 11
2.9352672779
 21
5.5934302393
  0
LINE
  5
528
100
AcDbEntity
  8
RACCORDO
100
AcDbLine
 62
7
  6
CONTINUOUS
 10
-3.2040042429
 20
5.5934302393
 11
-3.6743062211
 21
5.5934302393
  0
LINE
  5
529
100
AcDbEntity
  8
ASSI
100
AcDbLine
 62
7
  6
CONTINUOUS
 10
-3.2040042429
 20
5.5934302393
 11
-3.6743062211
 21
5.5934302393
  0
LINE
  5
52A
100
AcDbEntity
  8
RACCORDO
100
AcDbLine
 62
7
  6
CONTINUOUS
 10
-4.56426725
 20
5.6193202509
 11
-3.1343684825
 21
5.6193202509
  0
LINE
  5
52B
100
AcDbEntity
  8
ASSI
100
AcDbLine
 62
7
  6
CONTINUOUS
 10
-4.56426725
 20
5.6193202509
 11
-3.1343684825
 21
5.6193202509
  0
LINE
  5
52C
100
AcDbEntity
  8
RACCORDO
100
AcDbLine
 62
7
  6
CONTINUOUS
 10
2.8656315175
 20
5.6193202509
 11
4.2955302849
 21
5.6193202509
  0
LINE
  5
52D
100
AcDbEntity
  8
ASSI
100
AcDbLine
 62
7
  6
CONTINUOUS
 10
2.8656315175
 20
5.6193202509
 11
4.2955302849
 21
5.6193202509
  0
LINE
  5
52E
100
AcDbEntity
  8
RACCORDO
100
AcDbLine
 62
253
  6
CONTINUOUS
 10
-7.3854693275
 20
6.0469836299
 11
-7.1832676376
 21
6.0469836299
  0
LINE
  5
52F
100
AcDbEntity
  8
ASSI
100
AcDbLine
 62
253
  6
CONTINUOUS
 10
-7.3854693275
 20
6.0469836299
 11
-7.1832676376
 21
6.0469836299
  0
LINE
  5
530
100
AcDbEntity
  8
RACCORDO
100
AcDbLine
 62
253
  6
CONTINUOUS
 10
6.9145306725
 20
6.0469836299
 11
7.1167323624
 21
6.0469836299
  0
LINE
  5
531
100
AcDbEntity
  8
ASSI
100
AcDbLine
 62
253
  6
CONTINUOUS
 10
6.9145306725
 20
6.0469836299
 11
7.1167323624
 21
6.0469836299
  0
LINE
  5
532
100
AcDbEntity
  8
DRAFT
100
AcDbLine
 62
7
  6
CONTINUOUS
 10
-3.1343684825
 20
5.6021577718
 11
-3.0343684825
 21
5.6011500031
  0
LINE
  5
533
100
AcDbEntity
  8
ASSI
100
AcDbLine
 62
7
  6
CONTINUOUS
 10
-3.1343684825
 20
5.6021577718
 11
-3.0343684825
 21
5.6011500031
  0
LINE
  5
534
100
AcDbEntity
  8
DRAFT
100
AcDbLine
 62
7
  6
CONTINUOUS
 10
2.9352672779
 20
5.5934302393
 11
2.7656315175
 21
5.5976589901
  0
LINE
  5
535
100
AcDbEntity
  8
ASSI
100
AcDbLine
 62
7
  6
CONTINUOUS
 10
2.9352672779
 20
5.5934302393
 11
2.7656315175
 21
5.5976589901
  0
LINE
  5
536
100
AcDbEntity
  8
RACCORDO
100
AcDbLine
 62
7
  6
CONTINUOUS
 10
-3.9562140073
 20
5.5968757636
 11
-4.3763155216
 21
5.6170227386
  0
LINE
  5
537
100
AcDbEntity
  8
ASSI
100
AcDbLine
 62
7
  6
CONTINUOUS
 10
-3.9562140073
 20
5.5968757636
 11
-4.3763155216
 21
5.6170227386
  0
LINE
  5
538
100
AcDbEntity
  8
DRAFT
100
AcDbLine
 62
7
  6
CONTINUOUS
 10
-8.6468344731
 20
8.0457954341
 11
-8.3843684825
 21
7.9934302393
  0
LINE
  5
539
100
AcDbEntity
  8
ASSI
100
AcDbLine
 62
7
  6
CONTINUOUS
 10
-8.6468344731
 20
8.0457954341
 11
-8.3843684825
 21
7.9934302393
  0
LINE
  5
53A
100
AcDbEntity
  8
DRAFT
100
AcDbLine
 62
7
  6
CONTINUOUS
 10
10.2830865824
 20
-1.6740248256
 11
10.3451192755
 21
-1.7360575187
  0
LINE
  5
53B
100
AcDbEntity
  8
ASSI
100
AcDbLine
 62
7
  6
CONTINUOUS
 10
10.2830865824
 20
-1.6740248256
 11
10.3451192755
 21
-1.7360575187
  0
LINE
  5
53C
100
AcDbEntity
  8
RACCORDO
100
AcDbLine
 62
253
  6
CONTINUOUS
 10
6.6269189587
 20
5.1277448144
 11
6.614576364
 21
5.8348515956
  0
LINE
  5
53D
100
AcDbEntity
  8
ASSI
100
AcDbLine
 62
253
  6
CONTINUOUS
 10
6.6269189587
 20
5.1277448144
 11
6.614576364
 21
5.8348515956
  0
LINE
  5
53E
100
AcDbEntity
  8
RACCORDO
100
AcDbLine
 62
253
  6
CONTINUOUS
 10
6.9268732673
 20
5.3398768487
 11
6.9145306725
 21
6.0469836299
  0
LINE
  5
53F
100
AcDbEntity
  8
ASSI
100
AcDbLine
 62
253
  6
CONTINUOUS
 10
6.9268732673
 20
5.3398768487
 11
6.9145306725
 21
6.0469836299
  0
LINE
  5
540
100
AcDbEntity
  8
RACCORDO
100
AcDbLine
 62
253
  6
CONTINUOUS
 10
6.6104863878
 20
6.4005370205
 11
6.6104863878
 21
7.9882851097
  0
LINE
  5
541
100
AcDbEntity
  8
ASSI
100
AcDbLine
 62
253
  6
CONTINUOUS
 10
6.6104863878
 20
6.4005370205
 11
6.6104863878
 21
7.9882851097
  0
LINE
  5
542
100
AcDbEntity
  8
RACCORDO
100
AcDbLine
 62
253
  6
CONTINUOUS
 10
6.6279414528
 20
3.6022339358
 11
6.6279414528
 21
4.9863234581
  0
LINE
  5
543
100
AcDbEntity
  8
ASSI
100
AcDbLine
 62
253
  6
CONTINUOUS
 10
6.6279414528
 20
3.6022339358
 11
6.6279414528
 21
4.9863234581
  0
LINE
  5
544
100
AcDbEntity
  8
RACCORDO
100
AcDbLine
 62
253
  6
CONTINUOUS
 10
6.9104406964
 20
6.4005213868
 11
6.9104406964
 21
7.9934302393
  0
LINE
  5
545
100
AcDbEntity
  8
ASSI
100
AcDbLine
 62
253
  6
CONTINUOUS
 10
6.9104406964
 20
6.4005213868
 11
6.9104406964
 21
7.9934302393
  0
LINE
  5
546
100
AcDbEntity
  8
RACCORDO
100
AcDbLine
 62
253
  6
CONTINUOUS
 10
6.9278957613
 20
3.6022339358
 11
6.9278957613
 21
4.9863234581
  0
LINE
  5
547
100
AcDbEntity
  8
ASSI
100
AcDbLine
 62
253
  6
CONTINUOUS
 10
6.9278957613
 20
3.6022339358
 11
6.9278957613
 21
4.9863234581
  0
LINE
  5
548
100
AcDbEntity
  8
RACCORDO
100
AcDbLine
 62
253
  6
CONTINUOUS
 10
7.1033672736
 20
4.9863234581
 11
7.1033672736
 21
3.6022339358
  0
LINE
  5
549
100
AcDbEntity
  8
ASSI
100
AcDbLine
 62
253
  6
CONTINUOUS
 10
7.1033672736
 20
4.9863234581
 11
7.1033672736
 21
3.6022339358
  0
LINE
  5
54A
100
AcDbEntity
  8
RACCORDO
100
AcDbLine
 62
253
  6
CONTINUOUS
 10
7.1208223385
 20
7.9934302393
 11
7.1208223385
 21
6.4005216839
  0
LINE
  5
54B
100
AcDbEntity
  8
ASSI
100
AcDbLine
 62
253
  6
CONTINUOUS
 10
7.1208223385
 20
7.9934302393
 11
7.1208223385
 21
6.4005216839
  0
LINE
  5
54C
100
AcDbEntity
  8
RACCORDO
100
AcDbLine
 62
253
  6
CONTINUOUS
 10
7.1167323624
 20
6.0469836299
 11
7.1043897676
 21
5.3398768487
  0
LINE
  5
54D
100
AcDbEntity
  8
ASSI
100
AcDbLine
 62
253
  6
CONTINUOUS
 10
7.1167323624
 20
6.0469836299
 11
7.1043897676
 21
5.3398768487
  0
LINE
  5
54E
100
AcDbEntity
  8
RACCORDO
100
AcDbLine
 62
7
  6
CONTINUOUS
 10
5.8956816113
 20
-7.6298259917
 11
5.8707766471
 21
-7.8814101118
  0
LINE
  5
54F
100
AcDbEntity
  8
ASSI
100
AcDbLine
 62
7
  6
CONTINUOUS
 10
5.8956816113
 20
-7.6298259917
 11
5.8707766471
 21
-7.8814101118
  0
LINE
  5
550
100
AcDbEntity
  8
RACCORDO
100
AcDbLine
 62
7
  6
CONTINUOUS
 10
10.9901627074
 20
1.07730865
 11
11.0411944266
 21
1.1283403692
  0
LINE
  5
551
100
AcDbEntity
  8
ASSI
100
AcDbLine
 62
7
  6
CONTINUOUS
 10
10.9901627074
 20
1.07730865
 11
11.0411944266
 21
1.1283403692
  0
LINE
  5
552
100
AcDbEntity
  8
0
100
AcDbLine
 62
7
  6
CONTINUOUS
 10
1.4954187569
 20
-6.3039857607
 11
1.6762698245
 21
-6.2331524442
  0
LINE
  5
553
100
AcDbEntity
  8
ASSI
100
AcDbLine
 62
7
  6
CONTINUOUS
 10
1.4954187569
 20
-6.3039857607
 11
1.6762698245
 21
-6.2331524442
  0
LINE
  5
554
100
AcDbEntity
  8
RACCORDO
100
AcDbLine
 62
253
  6
CONTINUOUS
 10
6.6104863878
 20
6.4005370205
 11
7.4207766471
 21
6.4005370205
  0
LINE
  5
555
100
AcDbEntity
  8
ASSI
100
AcDbLine
 62
253
  6
CONTINUOUS
 10
6.6104863878
 20
6.4005370205
 11
7.4207766471
 21
6.4005370205
  0
LINE
  5
556
100
AcDbEntity
  8
RACCORDO
100
AcDbLine
 62
253
  6
CONTINUOUS
 10
-6.8792233529
 20
6.4005370205
 11
-7.6895136122
 21
6.4005370205
  0
LINE
  5
557
100
AcDbEntity
  8
ASSI
100
AcDbLine
 62
253
  6
CONTINUOUS
 10
-6.8792233529
 20
6.4005370205
 11
-7.6895136122
 21
6.4005370205
  0
LINE
  5
558
100
AcDbEntity
  8
DRAFT
100
AcDbLine
 62
7
  6
CONTINUOUS
 10
-3.1018235475
 20
7.2108853042
 11
-2.6343684825
 21
7.2108853042
  0
LINE
  5
559
100
AcDbEntity
  8
DRAFT
100
AcDbLine
 62
7
  6
CONTINUOUS
 10
2.8330865824
 20
7.2108853042
 11
2.3656315175
 21
7.2108853042
  0
LINE
  5
55A
100
AcDbEntity
  8
DRAFT
100
AcDbLine
 62
7
  6
CONTINUOUS
 10
-2.6308774696
 20
7.2143763172
 11
2.3621405045
 21
7.2143763172
  0
LINE
  5
55B
100
AcDbEntity
  8
RACCORDO
100
AcDbLine
 62
7
  6
CONTINUOUS
 10
11.0481764525
 20
-1.0484619165
 11
10.9909602887
 21
-0.9912457526
  0
LINE
  5
55C
100
AcDbEntity
  8
ASSI
100
AcDbLine
 62
7
  6
CONTINUOUS
 10
11.0481764525
 20
-1.0484619165
 11
10.9909602887
 21
-0.9912457526
  0
LINE
  5
55D
100
AcDbEntity
  8
RACCORDO
100
AcDbLine
 62
253
  6
CONTINUOUS
 10
7.4033215821
 20
4.9863234581
 11
7.4033215821
 21
3.6022339358
  0
LINE
  5
55E
100
AcDbEntity
  8
ASSI
100
AcDbLine
 62
253
  6
CONTINUOUS
 10
7.4033215821
 20
4.9863234581
 11
7.4033215821
 21
3.6022339358
  0
LINE
  5
55F
100
AcDbEntity
  8
RACCORDO
100
AcDbLine
 62
253
  6
CONTINUOUS
 10
7.4207766471
 20
7.9882851097
 11
7.4207766471
 21
6.4005370205
  0
LINE
  5
560
100
AcDbEntity
  8
ASSI
100
AcDbLine
 62
253
  6
CONTINUOUS
 10
7.4207766471
 20
7.9882851097
 11
7.4207766471
 21
6.4005370205
  0
LINE
  5
561
100
AcDbEntity
  8
DRAFT
100
AcDbLine
 62
7
  6
CONTINUOUS
 10
8.1156315175
 20
9.1340830186
 11
8.1156315175
 21
7.9934302393
  0
LINE
  5
562
100
AcDbEntity
  8
ASSI
100
AcDbLine
 62
7
  6
CONTINUOUS
 10
8.1156315175
 20
9.1340830186
 11
8.1156315175
 21
7.9934302393
  0
LINE
  5
563
100
AcDbEntity
  8
RACCORDO
100
AcDbLine
 62
253
  6
CONTINUOUS
 10
7.416686671
 20
5.8348515956
 11
7.4043440762
 21
5.1277448144
  0
LINE
  5
564
100
AcDbEntity
  8
ASSI
100
AcDbLine
 62
253
  6
CONTINUOUS
 10
7.416686671
 20
5.8348515956
 11
7.4043440762
 21
5.1277448144
  0
LINE
  5
565
100
AcDbEntity
  8
DRAFT
100
AcDbLine
 62
7
  6
CONTINUOUS
 10
8.378097508
 20
9.1864482133
 11
8.1156315175
 21
9.1340830186
  0
LINE
  5
566
100
AcDbEntity
  8
ASSI
100
AcDbLine
 62
7
  6
CONTINUOUS
 10
8.378097508
 20
9.1864482133
 11
8.1156315175
 21
9.1340830186
  0
LINE
  5
567
100
AcDbEntity
  8
0
100
AcDbLine
 62
7
  6
CONTINUOUS
 10
-3.1343684825
 20
7.2934302393
 11
2.8656315175
 21
7.2934302393
  0
LINE
  5
568
100
AcDbEntity
  8
ASSI
100
AcDbLine
 62
7
  6
CONTINUOUS
 10
-3.1343684825
 20
7.2934302393
 11
2.8656315175
 21
7.2934302393
  0
LINE
  5
569
100
AcDbEntity
  8
DRAFT
100
AcDbLine
 62
7
  6
CONTINUOUS
 10
-12.4343684825
 20
7.9340830186
 11
-11.3343684825
 21
7.9340830186
  0
LINE
  5
56A
100
AcDbEntity
  8
ASSI
100
AcDbLine
 62
7
  6
CONTINUOUS
 10
-12.4343684825
 20
7.9340830186
 11
-11.3343684825
 21
7.9340830186
  0
LINE
  5
56B
100
AcDbEntity
  8
DRAFT
100
AcDbLine
 62
7
  6
CONTINUOUS
 10
11.0656315175
 20
7.9340830186
 11
12.1656315175
 21
7.9340830186
  0
LINE
  5
56C
100
AcDbEntity
  8
ASSI
100
AcDbLine
 62
7
  6
CONTINUOUS
 10
11.0656315175
 20
7.9340830186
 11
12.1656315175
 21
7.9340830186
  0
LINE
  5
56D
100
AcDbEntity
  8
RACCORDO
100
AcDbLine
 62
253
  6
CONTINUOUS
 10
-12.4325315862
 20
7.9359199149
 11
-11.3325315862
 21
7.9359199149
  0
LINE
  5
56E
100
AcDbEntity
  8
ASSI
100
AcDbLine
 62
253
  6
CONTINUOUS
 10
-12.4325315862
 20
7.9359199149
 11
-11.3325315862
 21
7.9359199149
  0
LINE
  5
56F
100
AcDbEntity
  8
RACCORDO
100
AcDbLine
 62
253
  6
CONTINUOUS
 10
11.0637946211
 20
7.9359199149
 11
12.1637946211
 21
7.9359199149
  0
LINE
  5
570
100
AcDbEntity
  8
ASSI
100
AcDbLine
 62
253
  6
CONTINUOUS
 10
11.0637946211
 20
7.9359199149
 11
12.1637946211
 21
7.9359199149
  0
LINE
  5
571
100
AcDbEntity
  8
RACCORDO
100
AcDbLine
 62
7
  6
CONTINUOUS
 10
-10.9575613374
 20
7.9707795234
 11
-7.7070191985
 21
7.9707795234
  0
LINE
  5
572
100
AcDbEntity
  8
ASSI
100
AcDbLine
 62
7
  6
CONTINUOUS
 10
-10.9575613374
 20
7.9707795234
 11
-7.7070191985
 21
7.9707795234
  0
LINE
  5
573
100
AcDbEntity
  8
DRAFT
100
AcDbLine
 62
7
  6
CONTINUOUS
 10
-6.8617177666
 20
7.9707795234
 11
6.5929808015
 21
7.9707795234
  0
LINE
  5
574
100
AcDbEntity
  8
ASSI
100
AcDbLine
 62
7
  6
CONTINUOUS
 10
-6.8617177666
 20
7.9707795234
 11
6.5929808015
 21
7.9707795234
  0
LINE
  5
575
100
AcDbEntity
  8
RACCORDO
100
AcDbLine
 62
7
  6
CONTINUOUS
 10
7.4382822334
 20
7.9707795234
 11
10.6888243723
 21
7.9707795234
  0
LINE
  5
576
100
AcDbEntity
  8
ASSI
100
AcDbLine
 62
7
  6
CONTINUOUS
 10
7.4382822334
 20
7.9707795234
 11
10.6888243723
 21
7.9707795234
  0
LINE
  5
577
100
AcDbEntity
  8
RACCORDO
100
AcDbLine
 62
7
  6
CONTINUOUS
 10
-8.3843684825
 20
7.9934302393
 11
-7.3895593036
 21
7.9934302393
  0
LINE
  5
578
100
AcDbEntity
  8
ASSI
100
AcDbLine
 62
7
  6
CONTINUOUS
 10
-8.3843684825
 20
7.9934302393
 11
-7.3895593036
 21
7.9934302393
  0
LINE
  5
579
100
AcDbEntity
  8
RACCORDO
100
AcDbLine
 62
7
  6
CONTINUOUS
 10
-7.1791776615
 20
7.9934302393
 11
6.9104406964
 21
7.9934302393
  0
LINE
  5
57A
100
AcDbEntity
  8
ASSI
100
AcDbLine
 62
7
  6
CONTINUOUS
 10
-7.1791776615
 20
7.9934302393
 11
6.9104406964
 21
7.9934302393
  0
LINE
  5
57B
100
AcDbEntity
  8
RACCORDO
100
AcDbLine
 62
7
  6
CONTINUOUS
 10
7.1208223385
 20
7.9934302393
 11
8.1156315175
 21
7.9934302393
  0
LINE
  5
57C
100
AcDbEntity
  8
ASSI
100
AcDbLine
 62
7
  6
CONTINUOUS
 10
7.1208223385
 20
7.9934302393
 11
8.1156315175
 21
7.9934302393
  0
LINE
  5
57D
100
AcDbEntity
  8
DRAFT
100
AcDbLine
 62
7
  6
CONTINUOUS
 10
-11.3273864566
 20
8.0457954341
 11
-8.6468344731
 21
8.0457954341
  0
LINE
  5
57E
100
AcDbEntity
  8
ASSI
100
AcDbLine
 62
7
  6
CONTINUOUS
 10
-11.3273864566
 20
8.0457954341
 11
-8.6468344731
 21
8.0457954341
  0
LINE
  5
57F
100
AcDbEntity
  8
DRAFT
100
AcDbLine
 62
7
  6
CONTINUOUS
 10
8.378097508
 20
8.0457954341
 11
11.0586494915
 21
8.0457954341
  0
LINE
  5
580
100
AcDbEntity
  8
ASSI
100
AcDbLine
 62
7
  6
CONTINUOUS
 10
8.378097508
 20
8.0457954341
 11
11.0586494915
 21
8.0457954341
  0
LINE
  5
581
100
AcDbEntity
  8
RACCORDO
100
AcDbLine
 62
253
  6
CONTINUOUS
 10
-12.4273864566
 20
8.2358742235
 11
-11.3273864566
 21
8.2358742235
  0
LINE
  5
582
100
AcDbEntity
  8
ASSI
100
AcDbLine
 62
253
  6
CONTINUOUS
 10
-12.4273864566
 20
8.2358742235
 11
-11.3273864566
 21
8.2358742235
  0
LINE
  5
583
100
AcDbEntity
  8
RACCORDO
100
AcDbLine
 62
253
  6
CONTINUOUS
 10
11.0586494915
 20
8.2358742235
 11
12.1586494915
 21
8.2358742235
  0
LINE
  5
584
100
AcDbEntity
  8
ASSI
100
AcDbLine
 62
253
  6
CONTINUOUS
 10
11.0586494915
 20
8.2358742235
 11
12.1586494915
 21
8.2358742235
  0
LINE
  5
585
100
AcDbEntity
  8
DRAFT
100
AcDbLine
 62
7
  6
CONTINUOUS
 10
-8.6468344731
 20
9.1864482133
 11
-8.3843684825
 21
9.1340830186
  0
LINE
  5
586
100
AcDbEntity
  8
ASSI
100
AcDbLine
 62
7
  6
CONTINUOUS
 10
-8.6468344731
 20
9.1864482133
 11
-8.3843684825
 21
9.1340830186
  0
LINE
  5
587
100
AcDbEntity
  8
RACCORDO
100
AcDbLine
 62
253
  6
CONTINUOUS
 10
7.10679736
 20
3.1023100882
 11
7.1375463336
 21
3.0715611147
  0
LINE
  5
588
100
AcDbEntity
  8
ASSI
100
AcDbLine
 62
253
  6
CONTINUOUS
 10
7.10679736
 20
3.1023100882
 11
7.1375463336
 21
3.0715611147
  0
LINE
  5
589
100
AcDbEntity
  8
RACCORDO
100
AcDbLine
 62
253
  6
CONTINUOUS
 10
7.4067516686
 20
3.4022643968
 11
7.4375768982
 21
3.3714391671
  0
LINE
  5
58A
100
AcDbEntity
  8
ASSI
100
AcDbLine
 62
253
  6
CONTINUOUS
 10
7.4067516686
 20
3.4022643968
 11
7.4375768982
 21
3.3714391671
  0
LINE
  5
58B
100
AcDbEntity
  8
RACCORDO
100
AcDbLine
 62
7
  6
CONTINUOUS
 10
9.6941222436
 20
1.8149395131
 11
9.7453965177
 21
1.7636652391
  0
LINE
  5
58C
100
AcDbEntity
  8
ASSI
100
AcDbLine
 62
7
  6
CONTINUOUS
 10
9.6941222436
 20
1.8149395131
 11
9.7453965177
 21
1.7636652391
  0
LINE
  5
58D
100
AcDbEntity
  8
DRAFT
100
AcDbLine
 62
7
  6
CONTINUOUS
 10
8.378097508
 20
9.1864482133
 11
8.378097508
 21
8.0457954341
  0
LINE
  5
58E
100
AcDbEntity
  8
ASSI
100
AcDbLine
 62
7
  6
CONTINUOUS
 10
8.378097508
 20
9.1864482133
 11
8.378097508
 21
8.0457954341
  0
LINE
  5
58F
100
AcDbEntity
  8
RACCORDO
100
AcDbLine
 62
253
  6
CONTINUOUS
 10
5.5708223385
 20
-6.3014246311
 11
5.6007683283
 21
-6.2714786413
  0
LINE
  5
590
100
AcDbEntity
  8
ASSI
100
AcDbLine
 62
253
  6
CONTINUOUS
 10
5.5708223385
 20
-6.3014246311
 11
5.6007683283
 21
-6.2714786413
  0
LINE
  5
591
100
AcDbEntity
  8
RACCORDO
100
AcDbLine
 62
253
  6
CONTINUOUS
 10
5.8707766471
 20
-6.6013789396
 11
5.900526945
 21
-6.5716286417
  0
LINE
  5
592
100
AcDbEntity
  8
ASSI
100
AcDbLine
 62
253
  6
CONTINUOUS
 10
5.8707766471
 20
-6.6013789396
 11
5.900526945
 21
-6.5716286417
  0
LINE
  5
593
100
AcDbEntity
  8
DRAFT
100
AcDbLine
 62
7
  6
CONTINUOUS
 10
11.0656315175
 20
-1.6565697607
 11
11.0481764525
 21
-1.6740248256
  0
LINE
  5
594
100
AcDbEntity
  8
ASSI
100
AcDbLine
 62
7
  6
CONTINUOUS
 10
11.0656315175
 20
-1.6565697607
 11
11.0481764525
 21
-1.6740248256
  0
LINE
  5
595
100
AcDbEntity
  8
DRAFT
100
AcDbLine
 62
7
  6
CONTINUOUS
 10
11.3656315175
 20
-1.6565697607
 11
11.2861437594
 21
-1.7360575187
  0
LINE
  5
596
100
AcDbEntity
  8
ASSI
100
AcDbLine
 62
7
  6
CONTINUOUS
 10
11.3656315175
 20
-1.6565697607
 11
11.2861437594
 21
-1.7360575187
  0
LINE
  5
597
100
AcDbEntity
  8
DRAFT
100
AcDbLine
 62
7
  6
CONTINUOUS
 10
-8.3843684825
 20
9.1340830186
 11
8.1156315175
 21
9.1340830186
  0
LINE
  5
598
100
AcDbEntity
  8
ASSI
100
AcDbLine
 62
7
  6
CONTINUOUS
 10
-8.3843684825
 20
9.1340830186
 11
8.1156315175
 21
9.1340830186
  0
LINE
  5
599
100
AcDbEntity
  8
RACCORDO
100
AcDbLine
 62
7
  6
CONTINUOUS
 10
-12.1774245328
 20
9.1864482133
 11
-8.6468344731
 21
9.1864482133
  0
LINE
  5
59A
100
AcDbEntity
  8
ASSI
100
AcDbLine
 62
7
  6
CONTINUOUS
 10
-12.1774245328
 20
9.1864482133
 11
-8.6468344731
 21
9.1864482133
  0
LINE
  5
59B
100
AcDbEntity
  8
RACCORDO
100
AcDbLine
 62
7
  6
CONTINUOUS
 10
8.378097508
 20
9.1864482133
 11
11.9086875677
 21
9.1864482133
  0
LINE
  5
59C
100
AcDbEntity
  8
ASSI
100
AcDbLine
 62
7
  6
CONTINUOUS
 10
8.378097508
 20
9.1864482133
 11
11.9086875677
 21
9.1864482133
  0
LINE
  5
59D
100
AcDbEntity
  8
RACCORDO
100
AcDbLine
 62
7
  6
CONTINUOUS
 10
11.0411944266
 20
1.7585201095
 11
10.9899226
 21
1.809791936
  0
LINE
  5
59E
100
AcDbEntity
  8
ASSI
100
AcDbLine
 62
7
  6
CONTINUOUS
 10
11.0411944266
 20
1.7585201095
 11
10.9899226
 21
1.809791936
  0
LINE
  5
59F
100
AcDbEntity
  8
RACCORDO
100
AcDbLine
 62
253
  6
CONTINUOUS
 10
10.6945528814
 20
-7.6298259917
 11
10.7525310792
 21
-8.2155081761
  0
LINE
  5
5A0
100
AcDbEntity
  8
ASSI
100
AcDbLine
 62
253
  6
CONTINUOUS
 10
10.6945528814
 20
-7.6298259917
 11
10.7525310792
 21
-8.2155081761
  0
LINE
  5
5A1
100
AcDbEntity
  8
RACCORDO
100
AcDbLine
 62
253
  6
CONTINUOUS
 10
10.9945071913
 20
-7.3343836793
 11
11.0516674655
 21
-7.9118033916
  0
LINE
  5
5A2
100
AcDbEntity
  8
ASSI
100
AcDbLine
 62
253
  6
CONTINUOUS
 10
10.9945071913
 20
-7.3343836793
 11
11.0516674655
 21
-7.9118033916
  0
LINE
  5
5A3
100
AcDbEntity
  8
DRAFT
100
AcDbLine
 62
7
  6
CONTINUOUS
 10
9.3656315175
 20
-4.786496436
 11
9.3656315175
 21
-1.0266430854
  0
LINE
  5
5A4
100
AcDbEntity
  8
ASSI
100
AcDbLine
 62
7
  6
CONTINUOUS
 10
9.3656315175
 20
-4.786496436
 11
9.3656315175
 21
-1.0266430854
  0
LINE
  5
5A5
100
AcDbEntity
  8
RACCORDO
100
AcDbLine
 62
253
  6
CONTINUOUS
 10
9.7453965177
 20
1.7636652391
 11
9.7453965177
 21
1.1231952396
  0
LINE
  5
5A6
100
AcDbEntity
  8
ASSI
100
AcDbLine
 62
253
  6
CONTINUOUS
 10
9.7453965177
 20
1.7636652391
 11
9.7453965177
 21
1.1231952396
  0
LINE
  5
5A7
100
AcDbEntity
  8
RACCORDO
100
AcDbLine
 62
253
  6
CONTINUOUS
 10
9.7453965177
 20
-6.1363347609
 11
9.7453965177
 21
-6.7768047604
  0
LINE
  5
5A8
100
AcDbEntity
  8
ASSI
100
AcDbLine
 62
253
  6
CONTINUOUS
 10
9.7453965177
 20
-6.1363347609
 11
9.7453965177
 21
-6.7768047604
  0
LINE
  5
5A9
100
AcDbEntity
  8
DRAFT
100
AcDbLine
 62
7
  6
CONTINUOUS
 10
9.7656315175
 20
-4.8250966914
 11
9.7656315175
 21
-4.7905275106
  0
LINE
  5
5AA
100
AcDbEntity
  8
ASSI
100
AcDbLine
 62
7
  6
CONTINUOUS
 10
9.7656315175
 20
-4.8250966914
 11
9.7656315175
 21
-4.7905275106
  0
LINE
  5
5AB
100
AcDbEntity
  8
DRAFT
100
AcDbLine
 62
7
  6
CONTINUOUS
 10
9.7656315175
 20
-1.0226120108
 11
9.7656315175
 21
-0.9860968455
  0
LINE
  5
5AC
100
AcDbEntity
  8
ASSI
100
AcDbLine
 62
7
  6
CONTINUOUS
 10
9.7656315175
 20
-1.0226120108
 11
9.7656315175
 21
-0.9860968455
  0
LINE
  5
5AD
100
AcDbEntity
  8
DRAFT
100
AcDbLine
 62
7
  6
CONTINUOUS
 10
10.0156315175
 20
-4.7646776049
 11
10.0156315175
 21
-1.0484619165
  0
LINE
  5
5AE
100
AcDbEntity
  8
ASSI
100
AcDbLine
 62
7
  6
CONTINUOUS
 10
10.0156315175
 20
-4.7646776049
 11
10.0156315175
 21
-1.0484619165
  0
LINE
  5
5AF
100
AcDbEntity
  8
RACCORDO
100
AcDbLine
 62
253
  6
CONTINUOUS
 10
10.0453508263
 20
1.7585201095
 11
10.0453508263
 21
1.1283403692
  0
LINE
  5
5B0
100
AcDbEntity
  8
ASSI
100
AcDbLine
 62
253
  6
CONTINUOUS
 10
10.0453508263
 20
1.7585201095
 11
10.0453508263
 21
1.1283403692
  0
LINE
  5
5B1
100
AcDbEntity
  8
RACCORDO
100
AcDbLine
 62
253
  6
CONTINUOUS
 10
10.0453508263
 20
-6.1414798905
 11
10.0453508263
 21
-6.7716596308
  0
LINE
  5
5B2
100
AcDbEntity
  8
ASSI
100
AcDbLine
 62
253
  6
CONTINUOUS
 10
10.0453508263
 20
-6.1414798905
 11
10.0453508263
 21
-6.7716596308
  0
LINE
  5
5B3
100
AcDbEntity
  8
DRAFT
100
AcDbLine
 62
7
  6
CONTINUOUS
 10
10.2830865824
 20
-4.1391146958
 11
10.3439318674
 21
-4.0782694107
  0
LINE
  5
5B4
100
AcDbEntity
  8
ASSI
100
AcDbLine
 62
7
  6
CONTINUOUS
 10
10.2830865824
 20
-4.1391146958
 11
10.3439318674
 21
-4.0782694107
  0
LINE
  5
5B5
100
AcDbEntity
  8
RACCORDO
100
AcDbLine
 62
253
  6
CONTINUOUS
 10
10.6941982325
 20
-6.8238428093
 11
10.6945528826
 21
-7.3462361556
  0
LINE
  5
5B6
100
AcDbEntity
  8
ASSI
100
AcDbLine
 62
253
  6
CONTINUOUS
 10
10.6941982325
 20
-6.8238428093
 11
10.6945528826
 21
-7.3462361556
  0
LINE
  5
5B7
100
AcDbEntity
  8
RACCORDO
100
AcDbLine
 62
253
  6
CONTINUOUS
 10
10.6929452377
 20
-4.8250966917
 11
10.6937182943
 21
-6.0888164349
  0
LINE
  5
5B8
100
AcDbEntity
  8
ASSI
100
AcDbLine
 62
253
  6
CONTINUOUS
 10
10.6929452377
 20
-4.8250966917
 11
10.6937182943
 21
-6.0888164349
  0
LINE
  5
5B9
100
AcDbEntity
  8
RACCORDO
100
AcDbLine
 62
253
  6
CONTINUOUS
 10
10.6902081426
 20
1.0721642741
 11
10.6910006311
 21
-0.9860968453
  0
LINE
  5
5BA
100
AcDbEntity
  8
ASSI
100
AcDbLine
 62
253
  6
CONTINUOUS
 10
10.6902081426
 20
1.0721642741
 11
10.6910006311
 21
-0.9860968453
  0
LINE
  5
5BB
100
AcDbEntity
  8
RACCORDO
100
AcDbLine
 62
253
  6
CONTINUOUS
 10
10.6888243723
 20
7.9707795234
 11
10.6899650062
 21
1.8149395133
  0
LINE
  5
5BC
100
AcDbEntity
  8
ASSI
100
AcDbLine
 62
253
  6
CONTINUOUS
 10
10.6888243723
 20
7.9707795234
 11
10.6899650062
 21
1.8149395133
  0
LINE
  5
5BD
100
AcDbEntity
  8
DRAFT
100
AcDbLine
 62
7
  6
CONTINUOUS
 10
10.2830865824
 20
-1.6740248256
 11
10.2830865824
 21
-4.1391146958
  0
LINE
  5
5BE
100
AcDbEntity
  8
ASSI
100
AcDbLine
 62
7
  6
CONTINUOUS
 10
10.2830865824
 20
-1.6740248256
 11
10.2830865824
 21
-4.1391146958
  0
LINE
  5
5BF
100
AcDbEntity
  8
DRAFT
100
AcDbLine
 62
7
  6
CONTINUOUS
 10
11.0411944266
 20
1.7585201095
 11
11.0411944266
 21
1.1283403692
  0
LINE
  5
5C0
100
AcDbEntity
  8
ASSI
100
AcDbLine
 62
7
  6
CONTINUOUS
 10
11.0411944266
 20
1.7585201095
 11
11.0411944266
 21
1.1283403692
  0
LINE
  5
5C1
100
AcDbEntity
  8
DRAFT
100
AcDbLine
 62
7
  6
CONTINUOUS
 10
11.0411944266
 20
-6.1414798905
 11
11.0411944266
 21
-6.7716596308
  0
LINE
  5
5C2
100
AcDbEntity
  8
ASSI
100
AcDbLine
 62
7
  6
CONTINUOUS
 10
11.0411944266
 20
-6.1414798905
 11
11.0411944266
 21
-6.7716596308
  0
LINE
  5
5C3
100
AcDbEntity
  8
DRAFT
100
AcDbLine
 62
7
  6
CONTINUOUS
 10
11.0481764525
 20
-1.0484619165
 11
11.0481764525
 21
-1.6740248256
  0
LINE
  5
5C4
100
AcDbEntity
  8
ASSI
100
AcDbLine
 62
7
  6
CONTINUOUS
 10
11.0481764525
 20
-1.0484619165
 11
11.0481764525
 21
-1.6740248256
  0
LINE
  5
5C5
100
AcDbEntity
  8
DRAFT
100
AcDbLine
 62
7
  6
CONTINUOUS
 10
11.0481764525
 20
-4.1391146958
 11
11.0481764525
 21
-4.7646776049
  0
LINE
  5
5C6
100
AcDbEntity
  8
ASSI
100
AcDbLine
 62
7
  6
CONTINUOUS
 10
11.0481764525
 20
-4.1391146958
 11
11.0481764525
 21
-4.7646776049
  0
LINE
  5
5C7
100
AcDbEntity
  8
RACCORDO
100
AcDbLine
 62
7
  6
CONTINUOUS
 10
11.0516674655
 20
-7.9118033916
 11
11.0516674655
 21
-9.2995914653
  0
LINE
  5
5C8
100
AcDbEntity
  8
ASSI
100
AcDbLine
 62
7
  6
CONTINUOUS
 10
11.0516674655
 20
-7.9118033916
 11
11.0516674655
 21
-9.2995914653
  0
LINE
  5
5C9
100
AcDbEntity
  8
RACCORDO
100
AcDbLine
 62
7
  6
CONTINUOUS
 10
11.0586494915
 20
8.2358742235
 11
11.0586494915
 21
8.0457954341
  0
LINE
  5
5CA
100
AcDbEntity
  8
ASSI
100
AcDbLine
 62
7
  6
CONTINUOUS
 10
11.0586494915
 20
8.2358742235
 11
11.0586494915
 21
8.0457954341
  0
LINE
  5
5CB
100
AcDbEntity
  8
DRAFT
100
AcDbLine
 62
7
  6
CONTINUOUS
 10
11.0656315175
 20
7.9340830186
 11
11.0656315175
 21
-1.6565697607
  0
LINE
  5
5CC
100
AcDbEntity
  8
ASSI
100
AcDbLine
 62
7
  6
CONTINUOUS
 10
11.0656315175
 20
7.9340830186
 11
11.0656315175
 21
-1.6565697607
  0
LINE
  5
5CD
100
AcDbEntity
  8
DRAFT
100
AcDbLine
 62
7
  6
CONTINUOUS
 10
11.051680262
 20
-9.2995946642
 11
11.0611239316
 21
-4.1520621748
  0
LINE
  5
5CE
100
AcDbEntity
  8
ASSI
100
AcDbLine
 62
7
  6
CONTINUOUS
 10
11.051680262
 20
-9.2995946642
 11
11.0611239316
 21
-4.1520621748
  0
LINE
  5
5CF
100
AcDbEntity
  8
RACCORDO
100
AcDbLine
 62
7
  6
CONTINUOUS
 10
10.9929024316
 20
-4.8199516258
 11
11.0481764525
 21
-4.7646776049
  0
LINE
  5
5D0
100
AcDbEntity
  8
ASSI
100
AcDbLine
 62
7
  6
CONTINUOUS
 10
10.9929024316
 20
-4.8199516258
 11
11.0481764525
 21
-4.7646776049
  0
LINE
  5
5D1
100
AcDbEntity
  8
RACCORDO
100
AcDbLine
 62
7
  6
CONTINUOUS
 10
7.4207766471
 20
7.9882851097
 11
7.4382822334
 21
7.9707795234
  0
LINE
  5
5D2
100
AcDbEntity
  8
ASSI
100
AcDbLine
 62
7
  6
CONTINUOUS
 10
7.4207766471
 20
7.9882851097
 11
7.4382822334
 21
7.9707795234
  0
LINE
  5
5D3
100
AcDbEntity
  8
RACCORDO
100
AcDbLine
 62
7
  6
CONTINUOUS
 10
12.1586494915
 20
8.9364862896
 11
12.1586494915
 21
8.2358742235
  0
LINE
  5
5D4
100
AcDbEntity
  8
ASSI
100
AcDbLine
 62
7
  6
CONTINUOUS
 10
12.1586494915
 20
8.9364862896
 11
12.1586494915
 21
8.2358742235
  0
LINE
  5
5D5
100
AcDbEntity
  8
DRAFT
100
AcDbLine
 62
7
  6
CONTINUOUS
 10
12.1656315175
 20
7.9340830186
 11
12.1656315175
 21
-1.6950781973
  0
LINE
  5
5D6
100
AcDbEntity
  8
ASSI
100
AcDbLine
 62
7
  6
CONTINUOUS
 10
12.1656315175
 20
7.9340830186
 11
12.1656315175
 21
-1.6950781973
  0
LINE
  5
5D7
100
AcDbEntity
  8
DRAFT
100
AcDbLine
 62
7
  6
CONTINUOUS
 10
11.3656315175
 20
-1.6565697607
 11
11.3611239316
 21
-4.1520621748
  0
LINE
  5
5D8
100
AcDbEntity
  8
ASSI
100
AcDbLine
 62
7
  6
CONTINUOUS
 10
11.3656315175
 20
-1.6565697607
 11
11.3611239316
 21
-4.1520621748
  0
LINE
  5
5D9
100
AcDbEntity
  8
RACCORDO
100
AcDbLine
 62
7
  6
CONTINUOUS
 10
12.1521384397
 20
-9.0498522922
 11
12.1656315175
 21
-1.6950781973
  0
LINE
  5
5DA
100
AcDbEntity
  8
ASSI
100
AcDbLine
 62
7
  6
CONTINUOUS
 10
12.1521384397
 20
-9.0498522922
 11
12.1656315175
 21
-1.6950781973
  0
LINE
  5
5DB
100
AcDbEntity
  8
RACCORDO
100
AcDbLine
 62
7
  6
CONTINUOUS
 10
9.6983584693
 20
-6.8238428088
 11
9.7453965177
 21
-6.7768047604
  0
LINE
  5
5DC
100
AcDbEntity
  8
ASSI
100
AcDbLine
 62
7
  6
CONTINUOUS
 10
9.6983584693
 20
-6.8238428088
 11
9.7453965177
 21
-6.7768047604
  0
LINE
  5
5DD
100
AcDbEntity
  8
RACCORDO
100
AcDbLine
 62
7
  6
CONTINUOUS
 10
10.9941567787
 20
-6.8186972787
 11
11.0411944266
 21
-6.7716596308
  0
LINE
  5
5DE
100
AcDbEntity
  8
ASSI
100
AcDbLine
 62
7
  6
CONTINUOUS
 10
10.9941567787
 20
-6.8186972787
 11
11.0411944266
 21
-6.7716596308
  0
LINE
  5
5DF
100
AcDbEntity
  8
RACCORDO
100
AcDbLine
 62
7
  6
CONTINUOUS
 10
11.0656315175
 20
7.9340830186
 11
11.0637946211
 21
7.9359199149
  0
LINE
  5
5E0
100
AcDbEntity
  8
ASSI
100
AcDbLine
 62
7
  6
CONTINUOUS
 10
11.0656315175
 20
7.9340830186
 11
11.0637946211
 21
7.9359199149
  0
ARC
  5
5E1
100
AcDbEntity
  8
RACCORDO
100
AcDbCircle
 62
253
  6
CONTINUOUS
 10
-5.6292866978
 20
-6.6014879757
 40
0.3000638606
100
AcDbArc
 50
0.0208199654
 51
89.9791799927
  0
ARC
  5
5E2
100
AcDbEntity
  8
RACCORDO
100
AcDbCircle
 62
253
  6
CONTINUOUS
 10
-5.8394502673
 20
-6.6014879757
 40
0.3000638606
100
AcDbArc
 50
90.0208200089
 51
179.979180033
  0
ARC
  5
5E3
100
AcDbEntity
  8
ASSI
100
AcDbCircle
 62
253
  6
CONTINUOUS
 10
-5.6292866978
 20
-6.6014879757
 40
0.3000638606
100
AcDbArc
 50
0.0208199654
 51
89.9791799927
  0
ARC
  5
5E4
100
AcDbEntity
  8
ASSI
100
AcDbCircle
 62
253
  6
CONTINUOUS
 10
-5.8394502673
 20
-6.6014879757
 40
0.3000638606
100
AcDbArc
 50
90.0208200089
 51
179.979180033
  0
ARC
  5
5E5
100
AcDbEntity
  8
RACCORDO
100
AcDbCircle
 62
7
  6
CONTINUOUS
 10
-5.5992822424
 20
-6.571271289
 40
0.299799876
100
AcDbArc
 50
359.9317072534
 51
89.9903350117
  0
ARC
  5
5E6
100
AcDbEntity
  8
RACCORDO
100
AcDbCircle
 62
7
  6
CONTINUOUS
 10
-5.8694547229
 20
-6.5712712882
 40
0.2997998758
100
AcDbArc
 50
90.0096649437
 51
180.0682929024
  0
ARC
  5
5E7
100
AcDbEntity
  8
ASSI
100
AcDbCircle
 62
7
  6
CONTINUOUS
 10
-5.5992822424
 20
-6.571271289
 40
0.299799876
100
AcDbArc
 50
359.9317072534
 51
89.9903350117
  0
ARC
  5
5E8
100
AcDbEntity
  8
ASSI
100
AcDbCircle
 62
7
  6
CONTINUOUS
 10
-5.8694547229
 20
-6.5712712882
 40
0.2997998758
100
AcDbArc
 50
90.0096649437
 51
180.0682929024
  0
ARC
  5
5E9
100
AcDbEntity
  8
0
100
AcDbCircle
 62
7
  6
CONTINUOUS
 10
-1.0909106207
 20
-0.8653700405
 40
0.2228893261
100
AcDbArc
 50
140.7847405624
 51
146.0215768876
  0
ARC
  5
5EA
100
AcDbEntity
  8
ASSI
100
AcDbCircle
 62
7
  6
CONTINUOUS
 10
-1.0909106207
 20
-0.8653700405
 40
0.2228893261
100
AcDbArc
 50
140.7847405624
 51
146.0215768876
  0
ARC
  5
5EB
100
AcDbEntity
  8
ASSI
100
AcDbCircle
 62
7
  6
CONTINUOUS
 10
-1.1058120404
 20
-0.8553132153
 40
0.2049117874
100
AcDbArc
 50
146.0247890675
 51
151.8600118649
  0
ARC
  5
5EC
100
AcDbEntity
  8
ASSI
100
AcDbCircle
 62
7
  6
CONTINUOUS
 10
-1.1162949879
 20
-0.8496736502
 40
0.1930081747
100
AcDbArc
 50
151.8685943696
 51
158.2386669592
  0
ARC
  5
5ED
100
AcDbEntity
  8
RACCORDO
100
AcDbCircle
 62
253
  6
CONTINUOUS
 10
-47.0444746678
 20
5.0092453329
 40
53.9723683883
100
AcDbArc
 50
359.9756666866
 51
0.3509927801
  0
ARC
  5
5EE
100
AcDbEntity
  8
RACCORDO
100
AcDbCircle
 62
253
  6
CONTINUOUS
 10
-61.3444746676
 20
5.0092453311
 40
53.9723683881
100
AcDbArc
 50
359.9756666885
 51
0.350992782
  0
ARC
  5
5EF
100
AcDbEntity
  8
ASSI
100
AcDbCircle
 62
253
  6
CONTINUOUS
 10
-47.0444746678
 20
5.0092453329
 40
53.9723683883
100
AcDbArc
 50
359.9756666866
 51
0.3509927801
  0
ARC
  5
5F0
100
AcDbEntity
  8
ASSI
100
AcDbCircle
 62
253
  6
CONTINUOUS
 10
-61.3444746676
 20
5.0092453311
 40
53.9723683881
100
AcDbArc
 50
359.9756666885
 51
0.350992782
  0
ARC
  5
5F1
100
AcDbEntity
  8
RACCORDO
100
AcDbCircle
 62
253
  6
CONTINUOUS
 10
-7.1933116566
 20
3.4023734134
 40
0.3000638408
100
AcDbArc
 50
270.0208162411
 51
359.9791837589
  0
ARC
  5
5F2
100
AcDbEntity
  8
ASSI
100
AcDbCircle
 62
253
  6
CONTINUOUS
 10
-7.1933116566
 20
3.4023734134
 40
0.3000638408
100
AcDbArc
 50
270.0208162411
 51
359.9791837589
  0
ARC
  5
5F3
100
AcDbEntity
  8
RACCORDO
100
AcDbCircle
 62
253
  6
CONTINUOUS
 10
-7.3754253422
 20
3.4023733796
 40
0.3000638385
100
AcDbArc
 50
180.0208097933
 51
269.9791901905
  0
ARC
  5
5F4
100
AcDbEntity
  8
ASSI
100
AcDbCircle
 62
253
  6
CONTINUOUS
 10
-7.3754253422
 20
3.4023733796
 40
0.3000638385
100
AcDbArc
 50
180.0208097933
 51
269.9791901905
  0
ARC
  5
5F5
100
AcDbEntity
  8
RACCORDO
100
AcDbCircle
 62
7
  6
CONTINUOUS
 10
-7.1624080007
 20
3.3715528379
 40
0.299988256
100
AcDbArc
 50
269.9912782382
 51
359.9782893823
  0
ARC
  5
5F6
100
AcDbEntity
  8
RACCORDO
100
AcDbCircle
 62
7
  6
CONTINUOUS
 10
-7.4063289605
 20
3.371552834
 40
0.299988256
100
AcDbArc
 50
180.0217098732
 51
270.0087210181
  0
ARC
  5
5F7
100
AcDbEntity
  8
ASSI
100
AcDbCircle
 62
7
  6
CONTINUOUS
 10
-7.1624080007
 20
3.3715528379
 40
0.299988256
100
AcDbArc
 50
269.9912782382
 51
359.9782893823
  0
ARC
  5
5F8
100
AcDbEntity
  8
ASSI
100
AcDbCircle
 62
7
  6
CONTINUOUS
 10
-7.4063289605
 20
3.371552834
 40
0.299988256
100
AcDbArc
 50
180.0217098732
 51
270.0087210181
  0
ARC
  5
5F9
100
AcDbEntity
  8
RACCORDO
100
AcDbCircle
 62
253
  6
CONTINUOUS
 10
5.5707133022
 20
-6.6014879757
 40
0.3000638606
100
AcDbArc
 50
0.0208199654
 51
89.9791799927
  0
ARC
  5
5FA
100
AcDbEntity
  8
RACCORDO
100
AcDbCircle
 62
253
  6
CONTINUOUS
 10
5.3605497327
 20
-6.6014879757
 40
0.3000638606
100
AcDbArc
 50
90.0208200089
 51
179.979180033
  0
ARC
  5
5FB
100
AcDbEntity
  8
ASSI
100
AcDbCircle
 62
253
  6
CONTINUOUS
 10
5.5707133022
 20
-6.6014879757
 40
0.3000638606
100
AcDbArc
 50
0.0208199654
 51
89.9791799927
  0
ARC
  5
5FC
100
AcDbEntity
  8
ASSI
100
AcDbCircle
 62
253
  6
CONTINUOUS
 10
5.3605497327
 20
-6.6014879757
 40
0.3000638606
100
AcDbArc
 50
90.0208200089
 51
179.979180033
  0
ARC
  5
5FD
100
AcDbEntity
  8
RACCORDO
100
AcDbCircle
 62
7
  6
CONTINUOUS
 10
5.6007177575
 20
-6.571271289
 40
0.2997998761
100
AcDbArc
 50
359.931707257
 51
89.9903350081
  0
ARC
  5
5FE
100
AcDbEntity
  8
RACCORDO
100
AcDbCircle
 62
7
  6
CONTINUOUS
 10
5.3305452772
 20
-6.5712712882
 40
0.2997998759
100
AcDbArc
 50
90.0096649515
 51
180.0682928946
  0
ARC
  5
5FF
100
AcDbEntity
  8
ASSI
100
AcDbCircle
 62
7
  6
CONTINUOUS
 10
5.6007177575
 20
-6.571271289
 40
0.2997998761
100
AcDbArc
 50
359.931707257
 51
89.9903350081
  0
ARC
  5
600
100
AcDbEntity
  8
ASSI
100
AcDbCircle
 62
7
  6
CONTINUOUS
 10
5.3305452772
 20
-6.5712712882
 40
0.2997998759
100
AcDbArc
 50
90.0096649515
 51
180.0682928946
  0
ARC
  5
601
100
AcDbEntity
  8
RACCORDO
100
AcDbCircle
 62
253
  6
CONTINUOUS
 10
61.0757363648
 20
5.0092453444
 40
53.9723670504
100
AcDbArc
 50
179.6490072234
 51
180.0243333263
  0
ARC
  5
602
100
AcDbEntity
  8
RACCORDO
100
AcDbCircle
 62
253
  6
CONTINUOUS
 10
46.7757363648
 20
5.0092453449
 40
53.9723670503
100
AcDbArc
 50
179.649007224
 51
180.0243333268
  0
ARC
  5
603
100
AcDbEntity
  8
ASSI
100
AcDbCircle
 62
253
  6
CONTINUOUS
 10
61.0757363648
 20
5.0092453444
 40
53.9723670504
100
AcDbArc
 50
179.6490072234
 51
180.0243333263
  0
ARC
  5
604
100
AcDbEntity
  8
ASSI
100
AcDbCircle
 62
253
  6
CONTINUOUS
 10
46.7757363648
 20
5.0092453449
 40
53.9723670503
100
AcDbArc
 50
179.649007224
 51
180.0243333268
  0
CIRCLE
  5
605
100
AcDbEntity
  8
0
100
AcDbCircle
 62
7
  6
CONTINUOUS
 10
-0.1343684825
 20
4.7934302393
 40
1.1
  0
CIRCLE
  5
606
100
AcDbEntity
  8
0
100
AcDbCircle
 62
7
  6
CONTINUOUS
 10
-0.1343684825
 20
4.7934302393
 40
0.9
  0
ARC
  5
607
100
AcDbEntity
  8
RACCORDO
100
AcDbCircle
 62
253
  6
CONTINUOUS
 10
7.1066883434
 20
3.4023734134
 40
0.3000638408
100
AcDbArc
 50
270.0208162411
 51
359.9791837589
  0
ARC
  5
608
100
AcDbEntity
  8
ASSI
100
AcDbCircle
 62
253
  6
CONTINUOUS
 10
7.1066883434
 20
3.4023734134
 40
0.3000638408
100
AcDbArc
 50
270.0208162411
 51
359.9791837589
  0
ARC
  5
609
100
AcDbEntity
  8
RACCORDO
100
AcDbCircle
 62
253
  6
CONTINUOUS
 10
6.9245746578
 20
3.4023733796
 40
0.3000638385
100
AcDbArc
 50
180.0208097933
 51
269.9791901905
  0
ARC
  5
60A
100
AcDbEntity
  8
ASSI
100
AcDbCircle
 62
253
  6
CONTINUOUS
 10
6.9245746578
 20
3.4023733796
 40
0.3000638385
100
AcDbArc
 50
180.0208097933
 51
269.9791901905
  0
ARC
  5
60B
100
AcDbEntity
  8
RACCORDO
100
AcDbCircle
 62
7
  6
CONTINUOUS
 10
6.8936710395
 20
3.371552834
 40
0.299988256
100
AcDbArc
 50
180.0217098746
 51
270.0087210168
  0
ARC
  5
60C
100
AcDbEntity
  8
RACCORDO
100
AcDbCircle
 62
7
  6
CONTINUOUS
 10
7.1375919994
 20
3.3715528378
 40
0.299988256
100
AcDbArc
 50
269.9912782302
 51
359.9782893903
  0
ARC
  5
60D
100
AcDbEntity
  8
ASSI
100
AcDbCircle
 62
7
  6
CONTINUOUS
 10
6.8936710395
 20
3.371552834
 40
0.299988256
100
AcDbArc
 50
180.0217098746
 51
270.0087210168
  0
ARC
  5
60E
100
AcDbEntity
  8
ASSI
100
AcDbCircle
 62
7
  6
CONTINUOUS
 10
7.1375919994
 20
3.3715528378
 40
0.299988256
100
AcDbArc
 50
269.9912782302
 51
359.9782893903
  0
SPLINE
  5
60F
100
AcDbEntity
  8
0
100
AcDbSpline
 62
7
  6
CONTINUOUS
 70
0
 71
3
 72
9
 73
5
 74
3
 42
0.0000001
 43
0.0000001
 44
0.0000000001
 12
-0.0094537596
 22
0.4232572779
 32
0.0
 13
-0.4233861002
 23
-0.0063259668
 33
0.0
 40
0.0
 40
0.0
 40
0.0
 40
0.0
 40
0.479537544
 40
1.0
 40
1.0
 40
1.0
 40
1.0
 10
-1.445696651
 20
-1.1459476162
 30
0.0
 10
-1.4472077953
 20
-1.0782916977
 30
0.0
 10
-1.4758295668
 20
-0.9211496214
 30
0.0
 10
-1.6362625134
 20
-0.8692176816
 30
0.0
 10
-1.7097147032
 20
-0.8703151577
 30
0.0
 11
-1.445696651
 21
-1.1459476162
 31
0.0
 11
-1.5049690277
 21
-0.9517743761
 31
0.0
 11
-1.7097147032
 21
-0.8703151577
 31
0.0
  0
SPLINE
  5
610
100
AcDbEntity
  8
0
100
AcDbSpline
 62
7
  6
CONTINUOUS
 70
0
 71
3
 72
9
 73
5
 74
3
 42
0.0000001
 43
0.0000001
 44
0.0000000001
 12
-0.3133621804
 22
-0.004682097
 32
0.0
 13
-0.0361338581
 23
-0.3113313547
 33
0.0
 40
0.0
 40
0.0
 40
0.0
 40
0.0
 40
0.4988583522
 40
1.0
 40
1.0
 40
1.0
 40
1.0
 10
-1.7097147035
 20
-0.870315143
 30
0.0
 10
-1.7618224838
 20
-0.8710937107
 30
0.0
 10
-1.870496441
 20
-0.9135182579
 30
0.0
 10
-1.9163135848
 20
-1.0187545032
 30
0.0
 10
-1.9223496452
 20
-1.0707615392
 30
0.0
 11
-1.7097147035
 21
-0.870315143
 31
0.0
 11
-1.8546057813
 21
-0.9290526876
 31
0.0
 11
-1.9223496452
 21
-1.0707615392
 31
0.0
  0
SPLINE
  5
611
100
AcDbEntity
  8
0
100
AcDbSpline
 62
7
  6
CONTINUOUS
 70
0
 71
3
 72
9
 73
5
 74
3
 42
0.0000001
 43
0.0000001
 44
0.0000000001
 12
-0.0321345863
 22
-0.2768734098
 32
0.0
 13
0.0468836161
 23
-0.2747605688
 33
0.0
 40
0.0
 40
0.0
 40
0.0
 40
0.0
 40
0.7295958321
 40
1.0
 40
1.0
 40
1.0
 40
1.0
 10
-1.922349645
 20
-1.0707615392
 30
0.0
 10
-1.9301647318
 20
-1.1380967678
 30
0.0
 10
-1.9304659797
 20
-1.2320894564
 30
0.0
 10
-1.9165679753
 20
-1.3239628614
 30
0.0
 10
-1.9123421335
 20
-1.3487283291
 30
0.0
 11
-1.922349645
 21
-1.0707615392
 31
0.0
 11
-1.9230459051
 21
-1.2741219995
 31
0.0
 11
-1.9123421335
 21
-1.3487283291
 31
0.0
  0
SPLINE
  5
612
100
AcDbEntity
  8
0
100
AcDbSpline
 62
7
  6
CONTINUOUS
 70
0
 71
3
 72
9
 73
5
 74
3
 42
0.0000001
 43
0.0000001
 44
0.0000000001
 12
-0.128341011
 22
0.8723735981
 32
0.0
 13
0.2997650463
 23
0.8292493193
 33
0.0
 40
0.0
 40
0.0
 40
0.0
 40
0.0
 40
0.7041528059
 40
1.0
 40
1.0
 40
1.0
 40
1.0
 10
-2.1820705647
 20
-1.6903630968
 30
0.0
 10
-2.2121944591
 20
-1.4856016578
 30
0.0
 10
-2.2418466605
 20
-1.190207332
 30
0.0
 10
-2.1936903432
 20
-0.8963546324
 30
0.0
 10
-2.164128794
 20
-0.8145776043
 30
0.0
 11
-2.1820705647
 21
-1.6903630968
 31
0.0
 11
-2.2153739316
 21
-1.0703605574
 31
0.0
 11
-2.164128794
 21
-0.8145776043
 31
0.0
  0
SPLINE
  5
613
100
AcDbEntity
  8
0
100
AcDbSpline
 62
7
  6
CONTINUOUS
 70
0
 71
3
 72
20
 73
16
 74
14
 42
0.0000001
 43
0.0000001
 44
0.0000000001
 12
0.3602221359
 22
0.9969834579
 32
0.0
 13
0.1356584285
 23
-1.0513528212
 33
0.0
 40
0.0
 40
0.0
 40
0.0
 40
0.0
 40
0.079756987
 40
0.1893481532
 40
0.2529748389
 40
0.3223669702
 40
0.3985017405
 40
0.4831988921
 40
0.5372476303
 40
0.5875584989
 40
0.6787382851
 40
0.7596505358
 40
0.8314106377
 40
0.9440765302
 40
1.0
 40
1.0
 40
1.0
 40
1.0
 10
-2.1641288319
 20
-0.814577589
 30
0.0
 10
-2.1545520879
 20
-0.7880721234
 30
0.0
 10
-2.1218924661
 20
-0.7288315709
 30
0.0
 10
-2.0621968322
 20
-0.6610659312
 30
0.0
 10
-1.9934352395
 20
-0.6093591133
 30
0.0
 10
-1.9278374029
 20
-0.5745938496
 30
0.0
 10
-1.8501828834
 20
-0.5490195905
 30
0.0
 10
-1.774653463
 20
-0.5381250891
 30
0.0
 10
-1.7077671246
 20
-0.536936217
 30
0.0
 10
-1.6388025778
 20
-0.5423236768
 30
0.0
 10
-1.5615478714
 20
-0.5597468493
 30
0.0
 10
-1.4824568395
 20
-0.5946476898
 30
0.0
 10
-1.4032025501
 20
-0.6467033015
 30
0.0
 10
-1.3473906808
 20
-0.7087156979
 30
0.0
 10
-1.3081222113
 20
-0.7585191454
 30
0.0
 10
-1.3055933813
 20
-0.7781175779
 30
0.0
 11
-2.1641288319
 21
-0.814577589
 31
0.0
 11
-2.1249054415
 21
-0.7396771337
 31
0.0
 11
-2.0480604042
 21
-0.6525491779
 31
0.0
 11
-1.994149872
 21
-0.612015522
 31
0.0
 11
-1.9291690894
 21
-0.577538925
 31
0.0
 11
-1.8525593754
 21
-0.5521470198
 31
0.0
 11
-1.7637620487
 21
-0.5388674397
 31
0.0
 11
-1.7064755232
 21
-0.5378599776
 31
0.0
 11
-1.6533118473
 21
-0.5421062463
 31
0.0
 11
-1.5590935715
 21
-0.563680846
 31
0.0
 11
-1.4805882755
 21
-0.5982329796
 31
0.0
 11
-1.4172770132
 21
-0.6404043876
 31
0.0
 11
-1.3341608058
 21
-0.7261719898
 31
0.0
 11
-1.3055933813
 21
-0.7781175779
 31
0.0
  0
SPLINE
  5
614
100
AcDbEntity
  8
0
100
AcDbSpline
 62
7
  6
CONTINUOUS
 70
0
 71
3
 72
8
 73
4
 74
2
 42
0.0000001
 43
0.0000001
 44
0.0000000001
 12
0.0158042388
 22
0.0396344546
 32
0.0
 13
0.0235835294
 23
0.0350454229
 33
0.0
 40
0.0
 40
0.0
 40
0.0
 40
0.0
 40
1.0
 40
1.0
 40
1.0
 40
1.0
 10
-1.2955486742
 20
-0.7781175779
 30
0.0
 10
-1.2902805946
 20
-0.7649060931
 30
0.0
 10
-1.2836023472
 20
-0.7524833148
 30
0.0
 10
-1.2757411707
 20
-0.7408015072
 30
0.0
 11
-1.2955486742
 21
-0.7781175779
 31
0.0
 11
-1.2757411707
 21
-0.7408015072
 31
0.0
  0
SPLINE
  5
615
100
AcDbEntity
  8
0
100
AcDbSpline
 62
7
  6
CONTINUOUS
 70
0
 71
3
 72
9
 73
5
 74
3
 42
0.0000001
 43
0.0000001
 44
0.0000000001
 12
0.2092440046
 22
0.2567965258
 32
0.0
 13
0.3209543859
 23
0.0874412864
 33
0.0
 40
0.0
 40
0.0
 40
0.0
 40
0.0
 40
0.7111552999
 40
1.0
 40
1.0
 40
1.0
 40
1.0
 10
-1.2635999513
 20
-0.7244514582
 30
0.0
 10
-1.2139982903
 20
-0.6635773881
 30
0.0
 10
-1.0978471345
 20
-0.6090118805
 30
0.0
 10
-0.9930141059
 20
-0.5819995778
 30
0.0
 10
-0.9621121148
 20
-0.5735805938
 30
0.0
 11
-1.2635999513
 21
-0.7244514582
 31
0.0
 11
-1.0545193209
 21
-0.5999030974
 31
0.0
 11
-0.9621121148
 21
-0.5735805938
 31
0.0
  0
SPLINE
  5
616
100
AcDbEntity
  8
0
100
AcDbSpline
 62
7
  6
CONTINUOUS
 70
0
 71
3
 72
9
 73
5
 74
3
 42
0.0000001
 43
0.0000001
 44
0.0000000001
 12
0.4590342986
 22
0.125059974
 32
0.0
 13
0.4591324757
 23
0.1246990799
 33
0.0
 40
0.0
 40
0.0
 40
0.0
 40
0.0
 40
0.8019701206
 40
1.0
 40
1.0
 40
1.0
 40
1.0
 10
-0.9621121149
 20
-0.5735805936
 30
0.0
 10
-0.8394015176
 20
-0.5401491394
 30
0.0
 10
-0.6857632736
 20
-0.5008063108
 30
0.0
 10
-0.5323751121
 20
-0.4605205835
 30
0.0
 10
-0.5020677958
 20
-0.4522892022
 30
0.0
 11
-0.9621121149
 21
-0.5735805936
 31
0.0
 11
-0.5931357975
 21
-0.4764391624
 31
0.0
 11
-0.5020677958
 21
-0.4522892022
 31
0.0
  0
SPLINE
  5
617
100
AcDbEntity
  8
0
100
AcDbSpline
 62
7
  6
CONTINUOUS
 70
0
 71
3
 72
9
 73
5
 74
3
 42
0.0000001
 43
0.0000001
 44
0.0000000001
 12
-0.5174692086
 22
-0.1487744753
 32
0.0
 13
-0.5040219036
 23
-0.1893972716
 33
0.0
 40
0.0
 40
0.0
 40
0.0
 40
0.0
 40
0.4412847493
 40
1.0
 40
1.0
 40
1.0
 40
1.0
 10
-0.5020677958
 20
-0.7935925456
 30
0.0
 10
-0.5781848858
 20
-0.8154765146
 30
0.0
 10
-0.7499675223
 20
-0.8671484348
 30
0.0
 10
-0.9237607981
 20
-0.9135173412
 30
0.0
 10
-1.0176290395
 20
-0.9487903892
 30
0.0
 11
-0.5020677958
 21
-0.7935925456
 31
0.0
 11
-0.7301865375
 21
-0.8600479076
 31
0.0
 11
-1.0176290395
 21
-0.9487903892
 31
0.0
  0
SPLINE
  5
618
100
AcDbEntity
  8
0
100
AcDbSpline
 62
7
  6
CONTINUOUS
 70
0
 71
3
 72
9
 73
5
 74
3
 42
0.0000001
 43
0.0000001
 44
0.0000000001
 12
-0.243894777
 22
-0.0916489686
 32
0.0
 13
-0.0
 23
-0.2605161169
 33
0.0
 40
0.0
 40
0.0
 40
0.0
 40
0.0
 40
0.6439294634
 40
1.0
 40
1.0
 40
1.0
 40
1.0
 10
-1.0176290465
 20
-0.9487903706
 30
0.0
 10
-1.0699793908
 20
-0.9684621943
 30
0.0
 10
-1.1485849536
 20
-1.0268802261
 30
0.0
 10
-1.1673001984
 20
-1.1157917371
 30
0.0
 10
-1.1673001984
 20
-1.1467124417
 30
0.0
 11
-1.0176290465
 21
-0.9487903706
 31
0.0
 11
-1.1463790364
 21
-1.0563403514
 31
0.0
 11
-1.1673001984
 21
-1.1467124417
 31
0.0
  0
SPLINE
  5
619
100
AcDbEntity
  8
RACCORDO
100
AcDbSpline
 62
7
  6
CONTINUOUS
 70
0
 71
3
 72
10
 73
6
 74
4
 42
0.0000001
 43
0.0000001
 44
0.0000000001
 12
-0.1883407282
 22
0.1821744696
 32
0.0
 13
-0.1853866385
 23
0.1851798087
 33
0.0
 40
0.0
 40
0.0
 40
0.0
 40
0.0
 40
0.2861514979
 40
0.6199988295
 40
1.0
 40
1.0
 40
1.0
 40
1.0
 10
10.8812266602
 20
-7.530115042
 30
0.0
 10
10.8632619997
 20
-7.5127385429
 30
0.0
 10
10.8244784007
 20
-7.4749443552
 30
0.0
 10
10.7622484832
 20
-7.41365528
 30
0.0
 10
10.7180352626
 20
-7.3696923258
 30
0.0
 10
10.6945528828
 20
-7.3462361445
 30
0.0
 11
10.8812266602
 21
-7.530115042
 31
0.0
 11
10.8275048229
 21
-7.4778081598
 31
0.0
 11
10.7651664569
 21
-7.4164376731
 31
0.0
 11
10.6945528828
 21
-7.3462361445
 31
0.0
  0
SPLINE
  5
61A
100
AcDbEntity
  8
RACCORDO
100
AcDbSpline
 62
7
  6
CONTINUOUS
 70
0
 71
3
 72
10
 73
6
 74
4
 42
0.0000001
 43
0.0000001
 44
0.0000000001
 12
0.1932351421
 22
0.1319011105
 32
0.0
 13
0.0048001619
 23
0.233911696
 33
0.0
 40
0.0
 40
0.0
 40
0.0
 40
0.0
 40
0.3395046921
 40
0.6724952268
 40
1.0
 40
1.0
 40
1.0
 40
1.0
 10
10.8812266602
 20
-7.530115042
 30
0.0
 10
10.9030947394
 20
-7.5151880267
 30
0.0
 10
10.9426774294
 20
-7.4795414084
 30
0.0
 10
10.9834756165
 20
-7.4116508868
 30
0.0
 10
10.993983166
 20
-7.3599194118
 30
0.0
 10
10.9945071913
 20
-7.3343836795
 30
0.0
 11
10.8812266602
 21
-7.530115042
 31
0.0
 11
10.9399652112
 21
-7.4766450442
 31
0.0
 11
10.9795210075
 21
-7.4095271978
 31
0.0
 11
10.9945071913
 21
-7.3343836795
 31
0.0
  0
SPLINE
  5
61B
100
AcDbEntity
  8
RACCORDO
100
AcDbSpline
 62
7
  6
CONTINUOUS
 70
0
 71
3
 72
10
 73
6
 74
4
 42
0.0000001
 43
0.0000001
 44
0.0000000001
 12
0.2111534819
 22
0.0378729015
 32
0.0
 13
0.1518156339
 23
0.1515657049
 33
0.0
 40
0.0
 40
0.0
 40
0.0
 40
0.0
 40
0.3420454831
 40
0.6747450136
 40
1.0
 40
1.0
 40
1.0
 40
1.0
 10
10.6945528814
 20
-7.6298259917
 30
0.0
 10
10.7186275797
 20
-7.6255079067
 30
0.0
 10
10.7653030503
 20
-7.611495075
 30
0.0
 10
10.8282869326
 20
-7.5767585262
 30
0.0
 10
10.8647670629
 20
-7.5465475424
 30
0.0
 10
10.8812266602
 20
-7.530115042
 30
0.0
 11
10.6945528814
 21
-7.6298259917
 31
0.0
 11
10.7648760726
 21
-7.608878883
 31
0.0
 11
10.8274874976
 21
-7.5746190994
 31
0.0
 11
10.8812266602
 21
-7.530115042
 31
0.0
  0
SPLINE
  5
61C
100
AcDbEntity
  8
RACCORDO
100
AcDbSpline
 62
7
  6
CONTINUOUS
 70
0
 71
3
 72
11
 73
7
 74
5
 42
0.0000001
 43
0.0000001
 44
0.0000000001
 12
-0.1934720276
 22
0.1323336071
 32
0.0
 13
-0.004777495
 23
0.2343518393
 33
0.0
 40
0.0
 40
0.0
 40
0.0
 40
0.0
 40
0.2553623096
 40
0.5075354551
 40
0.7552605149
 40
1.0
 40
1.0
 40
1.0
 40
1.0
 10
-11.1499566884
 20
-7.5301216838
 30
0.0
 10
-11.1664251763
 20
-7.5188573453
 30
0.0
 10
-11.1970081365
 20
-7.4930915207
 30
0.0
 10
-11.2331980804
 20
-7.4458460358
 30
0.0
 10
-11.2568434581
 20
-7.3920465725
 30
0.0
 10
-11.2628544092
 20
-7.3535020623
 30
0.0
 10
-11.2632441564
 20
-7.3343836795
 30
0.0
 11
-11.1499566884
 21
-7.5301216838
 31
0.0
 11
-11.1956147437
 21
-7.4914149694
 31
0.0
 11
-11.2313551541
 21
-7.4443346303
 31
0.0
 11
-11.2545022754
 21
-7.3910807667
 31
0.0
 11
-11.2632441564
 21
-7.3343836795
 31
0.0
  0
SPLINE
  5
61D
100
AcDbEntity
  8
RACCORDO
100
AcDbSpline
 62
7
  6
CONTINUOUS
 70
0
 71
3
 72
10
 73
6
 74
4
 42
0.0000001
 43
0.0000001
 44
0.0000000001
 12
0.1883472662
 22
0.1821697226
 32
0.0
 13
0.1853876284
 23
0.1851807974
 33
0.0
 40
0.0
 40
0.0
 40
0.0
 40
0.0
 40
0.2877120613
 40
0.6240039224
 40
1.0
 40
1.0
 40
1.0
 40
1.0
 10
-11.1499655437
 20
-7.5301150776
 30
0.0
 10
-11.1319022837
 20
-7.5126442688
 30
0.0
 10
-11.0928680705
 20
-7.4746055903
 30
0.0
 10
-11.0306407111
 20
-7.4133132465
 30
0.0
 10
-10.9865248549
 20
-7.369445229
 30
0.0
 10
-10.9632898478
 20
-7.3462361445
 30
0.0
 11
-11.1499655437
 21
-7.5301150776
 31
0.0
 11
-11.0959503412
 21
-7.4775227529
 31
0.0
 11
-11.033157751
 21
-7.4156999516
 31
0.0
 11
-10.9632898478
 21
-7.3462361445
 31
0.0
  0
SPLINE
  5
61E
100
AcDbEntity
  8
RACCORDO
100
AcDbSpline
 62
7
  6
CONTINUOUS
 70
0
 71
3
 72
10
 73
6
 74
4
 42
0.0000001
 43
0.0000001
 44
0.0000000001
 12
-0.2113510983
 22
0.0367634485
 32
0.0
 13
-0.1528975824
 23
0.1504764673
 33
0.0
 40
0.0
 40
0.0
 40
0.0
 40
0.0
 40
0.3410974996
 40
0.6751553688
 40
1.0
 40
1.0
 40
1.0
 40
1.0
 10
-10.9632898465
 20
-7.6298259917
 30
0.0
 10
-10.9873202902
 20
-7.6256460182
 30
0.0
 10
-11.0339770396
 20
-7.6114402761
 30
0.0
 10
-11.097056163
 20
-7.5768562269
 30
0.0
 10
-11.1334095575
 20
-7.5464089017
 30
0.0
 10
-11.1499655437
 20
-7.5301150776
 30
0.0
 11
-10.9632898465
 21
-7.6298259917
 31
0.0
 11
-11.0334250583
 21
-7.6089582727
 31
0.0
 11
-11.0962982498
 21
-7.5745687169
 31
0.0
 11
-11.1499655437
 21
-7.5301150776
 31
0.0
  0
SPLINE
  5
61F
100
AcDbEntity
  8
RACCORDO
100
AcDbSpline
 62
253
  6
CONTINUOUS
 70
0
 71
3
 72
12
 73
8
 74
6
 42
0.0000001
 43
0.0000001
 44
0.0000000001
 12
-0.0070145166
 22
0.4019838217
 32
0.0
 13
-0.4020297068
 23
0.0035087299
 33
0.0
 40
0.0
 40
0.0
 40
0.0
 40
0.0
 40
0.1664007688
 40
0.3475548035
 40
0.549388854
 40
0.7695487352
 40
1.0
 40
1.0
 40
1.0
 40
1.0
 10
-6.883313329
 20
5.8348515956
 30
0.0
 10
-6.8837024027
 20
5.8571484012
 30
0.0
 10
-6.8954827353
 20
5.9039735877
 30
0.0
 10
-6.9411280862
 20
5.9636814833
 30
0.0
 10
-7.0087203567
 20
6.0099903665
 30
0.0
 10
-7.091833093
 20
6.0396170551
 30
0.0
 10
-7.1523848861
 20
6.0467140995
 30
0.0
 10
-7.1832676376
 20
6.0469836299
 30
0.0
 11
-6.883313329
 21
5.8348515956
 31
0.0
 11
-6.8989014934
 21
5.8999107949
 31
0.0
 11
-6.941893263
 21
5.958700413
 31
0.0
 11
-7.0081456361
 21
6.0055550514
 31
0.0
 11
-7.0912740486
 21
6.0359594539
 31
0.0
 11
-7.1832676376
 21
6.0469836299
 31
0.0
  0
SPLINE
  5
620
100
AcDbEntity
  8
RACCORDO
100
AcDbSpline
 62
253
  6
CONTINUOUS
 70
0
 71
3
 72
12
 73
8
 74
6
 42
0.0000001
 43
0.0000001
 44
0.0000000001
 12
-0.0070145118
 22
0.401983857
 32
0.0
 13
-0.402029743
 23
0.0035086199
 33
0.0
 40
0.0
 40
0.0
 40
0.0
 40
0.0
 40
0.1663980738
 40
0.3475504099
 40
0.549384185
 40
0.7695456059
 40
1.0
 40
1.0
 40
1.0
 40
1.0
 10
-6.8956559238
 20
5.1277448144
 30
0.0
 10
-6.8960449909
 20
5.1500412609
 30
0.0
 10
-6.9078249724
 20
5.1968658558
 30
0.0
 10
-6.9534694811
 20
5.2565735947
 30
0.0
 10
-7.0210614249
 20
5.3028828936
 30
0.0
 10
-7.1041746242
 20
5.3325101287
 30
0.0
 10
-7.1647270588
 20
5.3396073229
 30
0.0
 10
-7.1956102324
 20
5.3398768485
 30
0.0
 11
-6.8956559238
 21
5.1277448144
 31
0.0
 11
-6.9112436084
 21
5.1928030205
 31
0.0
 11
-6.9542345544
 21
5.2515924028
 31
0.0
 11
-7.0204865311
 21
5.2984474223
 31
0.0
 11
-7.1036154009
 21
5.3288523992
 31
0.0
 11
-7.1956102324
 21
5.3398768485
 31
0.0
  0
SPLINE
  5
621
100
AcDbEntity
  8
RACCORDO
100
AcDbSpline
 62
253
  6
CONTINUOUS
 70
0
 71
3
 72
12
 73
8
 74
6
 42
0.0000001
 43
0.0000001
 44
0.0000000001
 12
0.0070145165
 22
0.4019838218
 32
0.0
 13
0.4020297069
 23
0.003508728
 33
0.0
 40
0.0
 40
0.0
 40
0.0
 40
0.0
 40
0.1664007686
 40
0.3475548033
 40
0.549388854
 40
0.7695487354
 40
1.0
 40
1.0
 40
1.0
 40
1.0
 10
-7.6730810413
 20
5.1277448144
 30
0.0
 10
-7.6726919676
 20
5.15004162
 30
0.0
 10
-7.6609116351
 20
5.1968668065
 30
0.0
 10
-7.6152662841
 20
5.256574702
 30
0.0
 10
-7.5476740136
 20
5.3028835853
 30
0.0
 10
-7.4645612773
 20
5.3325102742
 30
0.0
 10
-7.4040094842
 20
5.3396073185
 30
0.0
 10
-7.3731267327
 20
5.3398768487
 30
0.0
 11
-7.6730810413
 21
5.1277448144
 31
0.0
 11
-7.657492877
 21
5.1928040137
 31
0.0
 11
-7.6145011073
 21
5.2515936318
 31
0.0
 11
-7.5482487342
 21
5.2984482703
 31
0.0
 11
-7.4651203216
 21
5.3288526729
 31
0.0
 11
-7.3731267327
 21
5.3398768487
 31
0.0
  0
SPLINE
  5
622
100
AcDbEntity
  8
RACCORDO
100
AcDbSpline
 62
253
  6
CONTINUOUS
 70
0
 71
3
 72
12
 73
8
 74
6
 42
0.0000001
 43
0.0000001
 44
0.0000000001
 12
0.0070145164
 22
0.4019837961
 32
0.0
 13
0.4020296812
 23
0.0035087308
 33
0.0
 40
0.0
 40
0.0
 40
0.0
 40
0.0
 40
0.1664062852
 40
0.3475634824
 40
0.549397719
 40
0.769554416
 40
1.0
 40
1.0
 40
1.0
 40
1.0
 10
-7.685423636
 20
5.8348515956
 30
0.0
 10
-7.6850345495
 20
5.857149139
 30
0.0
 10
-7.6732535243
 20
5.9039755007
 30
0.0
 10
-7.6276065507
 20
5.9636836814
 30
0.0
 10
-7.560013725
 20
6.0099917234
 30
0.0
 10
-7.476901902
 20
6.0396173616
 30
0.0
 10
-7.4163513157
 20
6.0467141052
 30
0.0
 10
-7.3854693275
 20
6.046983629
 30
0.0
 11
-7.685423636
 21
5.8348515956
 31
0.0
 11
-7.6698345042
 21
5.8999128393
 31
0.0
 11
-7.6268411569
 21
5.9587028731
 31
0.0
 11
-7.5605881285
 21
6.0055567055
 31
0.0
 11
-7.4774606738
 21
6.0359599833
 31
0.0
 11
-7.3854693275
 21
6.046983629
 31
0.0
  0
SPLINE
  5
623
100
AcDbEntity
  8
RACCORDO
100
AcDbSpline
 62
253
  6
CONTINUOUS
 70
0
 71
3
 72
12
 73
8
 74
6
 42
0.0000001
 43
0.0000001
 44
0.0000000001
 12
0.0070145165
 22
0.4019838218
 32
0.0
 13
0.4020297069
 23
0.003508728
 33
0.0
 40
0.0
 40
0.0
 40
0.0
 40
0.0
 40
0.1664007686
 40
0.3475548033
 40
0.549388854
 40
0.7695487354
 40
1.0
 40
1.0
 40
1.0
 40
1.0
 10
6.6269189587
 20
5.1277448144
 30
0.0
 10
6.6273080324
 20
5.15004162
 30
0.0
 10
6.6390883649
 20
5.1968668065
 30
0.0
 10
6.6847337159
 20
5.256574702
 30
0.0
 10
6.7523259864
 20
5.3028835853
 30
0.0
 10
6.8354387227
 20
5.3325102742
 30
0.0
 10
6.8959905158
 20
5.3396073185
 30
0.0
 10
6.9268732673
 20
5.3398768487
 30
0.0
 11
6.6269189587
 21
5.1277448144
 31
0.0
 11
6.642507123
 21
5.1928040137
 31
0.0
 11
6.6854988927
 21
5.2515936318
 31
0.0
 11
6.7517512658
 21
5.2984482703
 31
0.0
 11
6.8348796784
 21
5.3288526729
 31
0.0
 11
6.9268732673
 21
5.3398768487
 31
0.0
  0
SPLINE
  5
624
100
AcDbEntity
  8
RACCORDO
100
AcDbSpline
 62
253
  6
CONTINUOUS
 70
0
 71
3
 72
12
 73
8
 74
6
 42
0.0000001
 43
0.0000001
 44
0.0000000001
 12
0.0070145164
 22
0.4019837961
 32
0.0
 13
0.4020296812
 23
0.0035087308
 33
0.0
 40
0.0
 40
0.0
 40
0.0
 40
0.0
 40
0.1664062852
 40
0.3475634824
 40
0.549397719
 40
0.769554416
 40
1.0
 40
1.0
 40
1.0
 40
1.0
 10
6.614576364
 20
5.8348515956
 30
0.0
 10
6.6149654505
 20
5.857149139
 30
0.0
 10
6.6267464757
 20
5.9039755007
 30
0.0
 10
6.6723934493
 20
5.9636836814
 30
0.0
 10
6.739986275
 20
6.0099917234
 30
0.0
 10
6.823098098
 20
6.0396173616
 30
0.0
 10
6.8836486843
 20
6.0467141052
 30
0.0
 10
6.9145306725
 20
6.046983629
 30
0.0
 11
6.614576364
 21
5.8348515956
 31
0.0
 11
6.6301654958
 21
5.8999128393
 31
0.0
 11
6.6731588431
 21
5.9587028731
 31
0.0
 11
6.7394118715
 21
6.0055567055
 31
0.0
 11
6.8225393262
 21
6.0359599833
 31
0.0
 11
6.9145306725
 21
6.046983629
 31
0.0
  0
SPLINE
  5
625
100
AcDbEntity
  8
RACCORDO
100
AcDbSpline
 62
253
  6
CONTINUOUS
 70
0
 71
3
 72
9
 73
5
 74
3
 42
0.0000001
 43
0.0000001
 44
0.0000000001
 12
0.0053518739
 22
-1.6514713674
 32
0.0
 13
0.0076939806
 23
-1.6514621166
 33
0.0
 40
0.0
 40
0.0
 40
0.0
 40
0.0
 40
0.5000101671
 40
1.0
 40
1.0
 40
1.0
 40
1.0
 10
-4.56426725
 20
5.6193202509
 30
0.0
 10
-4.5633752529
 20
5.3440694262
 30
0.0
 10
-4.5613961256
 20
4.7935795856
 30
0.0
 10
-4.5590266488
 20
4.2430912867
 30
0.0
 10
-4.5577443447
 20
3.9678531975
 30
0.0
 11
-4.56426725
 21
5.6193202509
 31
0.0
 11
-4.561298494
 21
4.7935687773
 31
0.0
 11
-4.5577443447
 21
3.9678531975
 31
0.0
  0
SPLINE
  5
626
100
AcDbEntity
  8
RACCORDO
100
AcDbSpline
 62
253
  6
CONTINUOUS
 70
0
 71
3
 72
12
 73
8
 74
6
 42
0.0000001
 43
0.0000001
 44
0.0000000001
 12
-0.0070145166
 22
0.4019838217
 32
0.0
 13
-0.4020297068
 23
0.0035087299
 33
0.0
 40
0.0
 40
0.0
 40
0.0
 40
0.0
 40
0.1664007688
 40
0.3475548035
 40
0.549388854
 40
0.7695487352
 40
1.0
 40
1.0
 40
1.0
 40
1.0
 10
7.416686671
 20
5.8348515956
 30
0.0
 10
7.4162975973
 20
5.8571484012
 30
0.0
 10
7.4045172647
 20
5.9039735877
 30
0.0
 10
7.3588719138
 20
5.9636814833
 30
0.0
 10
7.2912796433
 20
6.0099903665
 30
0.0
 10
7.208166907
 20
6.0396170551
 30
0.0
 10
7.1476151139
 20
6.0467140995
 30
0.0
 10
7.1167323624
 20
6.0469836299
 30
0.0
 11
7.416686671
 21
5.8348515956
 31
0.0
 11
7.4010985066
 21
5.8999107949
 31
0.0
 11
7.358106737
 21
5.958700413
 31
0.0
 11
7.2918543639
 21
6.0055550514
 31
0.0
 11
7.2087259514
 21
6.0359594539
 31
0.0
 11
7.1167323624
 21
6.0469836299
 31
0.0
  0
SPLINE
  5
627
100
AcDbEntity
  8
RACCORDO
100
AcDbSpline
 62
253
  6
CONTINUOUS
 70
0
 71
3
 72
9
 73
5
 74
3
 42
0.0000001
 43
0.0000001
 44
0.0000000001
 12
0.0076939806
 22
1.6514621166
 32
0.0
 13
0.0053518739
 23
1.6514713674
 33
0.0
 40
0.0
 40
0.0
 40
0.0
 40
0.0
 40
0.4999889708
 40
1.0
 40
1.0
 40
1.0
 40
1.0
 10
4.2890073797
 20
3.9678531975
 30
0.0
 10
4.2902896815
 20
4.2430908121
 30
0.0
 10
4.2926591586
 20
4.793579111
 30
0.0
 10
4.2946382863
 20
5.3440689516
 30
0.0
 10
4.2955302849
 20
5.6193202509
 30
0.0
 11
4.2890073797
 21
3.9678531975
 31
0.0
 11
4.2925615233
 21
4.7935673535
 31
0.0
 11
4.2955302849
 21
5.6193202509
 31
0.0
  0
SPLINE
  5
628
100
AcDbEntity
  8
RACCORDO
100
AcDbSpline
 62
253
  6
CONTINUOUS
 70
0
 71
3
 72
12
 73
8
 74
6
 42
0.0000001
 43
0.0000001
 44
0.0000000001
 12
-0.0070145118
 22
0.401983857
 32
0.0
 13
-0.402029743
 23
0.0035086199
 33
0.0
 40
0.0
 40
0.0
 40
0.0
 40
0.0
 40
0.1663980738
 40
0.3475504099
 40
0.549384185
 40
0.7695456059
 40
1.0
 40
1.0
 40
1.0
 40
1.0
 10
7.4043440762
 20
5.1277448144
 30
0.0
 10
7.4039550091
 20
5.1500412609
 30
0.0
 10
7.3921750276
 20
5.1968658558
 30
0.0
 10
7.3465305189
 20
5.2565735947
 30
0.0
 10
7.2789385751
 20
5.3028828936
 30
0.0
 10
7.1958253758
 20
5.3325101287
 30
0.0
 10
7.1352729412
 20
5.3396073229
 30
0.0
 10
7.1043897676
 20
5.3398768485
 30
0.0
 11
7.4043440762
 21
5.1277448144
 31
0.0
 11
7.3887563916
 21
5.1928030205
 31
0.0
 11
7.3457654456
 21
5.2515924028
 31
0.0
 11
7.2795134689
 21
5.2984474223
 31
0.0
 11
7.1963845991
 21
5.3288523992
 31
0.0
 11
7.1043897676
 21
5.3398768485
 31
0.0
  0
SPLINE
  5
629
100
AcDbEntity
  8
RACCORDO
100
AcDbSpline
 62
253
  6
CONTINUOUS
 70
0
 71
3
 72
13
 73
9
 74
7
 42
0.0000001
 43
0.0000001
 44
0.0000000001
 12
0.1860199012
 22
0.4640617589
 32
0.0
 13
0.0000037631
 23
0.4999567178
 33
0.0
 40
0.0
 40
0.0
 40
0.0
 40
0.0
 40
0.0378218875
 40
0.1397846932
 40
0.2991078666
 40
0.5051686897
 40
0.7442254983
 40
1.0
 40
1.0
 40
1.0
 40
1.0
 10
6.9244656749
 20
3.1023100882
 30
0.0
 10
6.9268108828
 20
3.1081606521
 30
0.0
 10
6.9233890925
 20
3.1324434664
 30
0.0
 10
6.9276865706
 20
3.1813990275
 30
0.0
 10
6.9264403363
 20
3.2597453023
 30
0.0
 10
6.9276971631
 20
3.3602910782
 30
0.0
 10
6.9277599851
 20
3.4771593812
 30
0.0
 10
6.9278954405
 20
3.5596085423
 30
0.0
 10
6.9278957613
 20
3.6022339358
 30
0.0
 11
6.9244656749
 21
3.1023100882
 31
0.0
 11
6.9253567381
 21
3.1211983885
 31
0.0
 11
6.9261846533
 21
3.1721686547
 31
0.0
 11
6.9268946763
 21
3.251820181
 31
0.0
 11
6.9274387515
 21
3.3548402371
 31
0.0
 11
6.9277797494
 21
3.474357808
 31
0.0
 11
6.9278957613
 21
3.6022339358
 31
0.0
  0
SPLINE
  5
62A
100
AcDbEntity
  8
RACCORDO
100
AcDbSpline
 62
253
  6
CONTINUOUS
 70
0
 71
3
 72
13
 73
9
 74
7
 42
0.0000001
 43
0.0000001
 44
0.0000000001
 12
0.0000037631
 22
-0.4999567178
 32
0.0
 13
0.1860199013
 23
-0.4640617589
 33
0.0
 40
0.0
 40
0.0
 40
0.0
 40
0.0
 40
0.2557745015
 40
0.4948313101
 40
0.7008921333
 40
0.8602153068
 40
0.9621781125
 40
1.0
 40
1.0
 40
1.0
 40
1.0
 10
7.1033672736
 20
3.6022339358
 30
0.0
 10
7.1033675944
 20
3.5596085424
 30
0.0
 10
7.1035030499
 20
3.4771593812
 30
0.0
 10
7.1035658719
 20
3.3602910783
 30
0.0
 10
7.1048226986
 20
3.2597453024
 30
0.0
 10
7.1035764643
 20
3.1813990275
 30
0.0
 10
7.1078739424
 20
3.1324434664
 30
0.0
 10
7.1044521521
 20
3.1081606521
 30
0.0
 10
7.10679736
 20
3.1023100882
 30
0.0
 11
7.1033672736
 21
3.6022339358
 31
0.0
 11
7.1034832855
 21
3.4743578081
 31
0.0
 11
7.1038242834
 21
3.3548402372
 31
0.0
 11
7.1043683586
 21
3.251820181
 31
0.0
 11
7.1050783816
 21
3.1721686547
 31
0.0
 11
7.1059062968
 21
3.1211983885
 31
0.0
 11
7.10679736
 21
3.1023100882
 31
0.0
  0
SPLINE
  5
62B
100
AcDbEntity
  8
RACCORDO
100
AcDbSpline
 62
253
  6
CONTINUOUS
 70
0
 71
3
 72
13
 73
9
 74
7
 42
0.0000001
 43
0.0000001
 44
0.0000000001
 12
0.0000037631
 22
-0.4999567178
 32
0.0
 13
0.1860199013
 23
-0.4640617589
 33
0.0
 40
0.0
 40
0.0
 40
0.0
 40
0.0
 40
0.2557745015
 40
0.4948313101
 40
0.7008921333
 40
0.8602153068
 40
0.9621781125
 40
1.0
 40
1.0
 40
1.0
 40
1.0
 10
-7.1966327264
 20
3.6022339358
 30
0.0
 10
-7.1966324056
 20
3.5596085424
 30
0.0
 10
-7.1964969501
 20
3.4771593812
 30
0.0
 10
-7.1964341281
 20
3.3602910783
 30
0.0
 10
-7.1951773014
 20
3.2597453024
 30
0.0
 10
-7.1964235357
 20
3.1813990275
 30
0.0
 10
-7.1921260576
 20
3.1324434664
 30
0.0
 10
-7.1955478479
 20
3.1081606521
 30
0.0
 10
-7.19320264
 20
3.1023100882
 30
0.0
 11
-7.1966327264
 21
3.6022339358
 31
0.0
 11
-7.1965167145
 21
3.4743578081
 31
0.0
 11
-7.1961757166
 21
3.3548402372
 31
0.0
 11
-7.1956316414
 21
3.251820181
 31
0.0
 11
-7.1949216184
 21
3.1721686547
 31
0.0
 11
-7.1940937032
 21
3.1211983885
 31
0.0
 11
-7.19320264
 21
3.1023100882
 31
0.0
  0
SPLINE
  5
62C
100
AcDbEntity
  8
RACCORDO
100
AcDbSpline
 62
253
  6
CONTINUOUS
 70
0
 71
3
 72
13
 73
9
 74
7
 42
0.0000001
 43
0.0000001
 44
0.0000000001
 12
0.1860199012
 22
0.4640617589
 32
0.0
 13
0.0000037631
 23
0.4999567178
 33
0.0
 40
0.0
 40
0.0
 40
0.0
 40
0.0
 40
0.0378218875
 40
0.1397846932
 40
0.2991078666
 40
0.5051686897
 40
0.7442254983
 40
1.0
 40
1.0
 40
1.0
 40
1.0
 10
-7.3755343251
 20
3.1023100882
 30
0.0
 10
-7.3731891172
 20
3.1081606521
 30
0.0
 10
-7.3766109075
 20
3.1324434664
 30
0.0
 10
-7.3723134294
 20
3.1813990275
 30
0.0
 10
-7.3735596637
 20
3.2597453023
 30
0.0
 10
-7.3723028369
 20
3.3602910782
 30
0.0
 10
-7.3722400149
 20
3.4771593812
 30
0.0
 10
-7.3721045595
 20
3.5596085423
 30
0.0
 10
-7.3721042387
 20
3.6022339358
 30
0.0
 11
-7.3755343251
 21
3.1023100882
 31
0.0
 11
-7.3746432619
 21
3.1211983885
 31
0.0
 11
-7.3738153467
 21
3.1721686547
 31
0.0
 11
-7.3731053237
 21
3.251820181
 31
0.0
 11
-7.3725612485
 21
3.3548402371
 31
0.0
 11
-7.3722202506
 21
3.474357808
 31
0.0
 11
-7.3721042387
 21
3.6022339358
 31
0.0
  0
SPLINE
  5
62D
100
AcDbEntity
  8
RACCORDO
100
AcDbSpline
 62
253
  6
CONTINUOUS
 70
0
 71
3
 72
9
 73
5
 74
3
 42
0.0000001
 43
0.0000001
 44
0.0000000001
 12
0.0053452796
 22
-1.6468770511
 32
0.0
 13
0.0076765739
 23
-1.6468678343
 33
0.0
 40
0.0
 40
0.0
 40
0.0
 40
0.0
 40
0.500013719
 40
1.0
 40
1.0
 40
1.0
 40
1.0
 10
-4.3763155216
 20
5.6170227386
 30
0.0
 10
-4.3754246172
 20
5.342535699
 30
0.0
 10
-4.373448537
 20
4.7935772955
 30
0.0
 10
-4.3710840004
 20
4.2446204278
 30
0.0
 10
-4.3698046065
 20
3.9701499865
 30
0.0
 11
-4.3763155216
 21
5.6170227386
 31
0.0
 11
-4.3733513633
 21
4.7935626171
 31
0.0
 11
-4.3698046065
 21
3.9701499865
 31
0.0
  0
SPLINE
  5
62E
100
AcDbEntity
  8
RACCORDO
100
AcDbSpline
 62
253
  6
CONTINUOUS
 70
0
 71
3
 72
9
 73
5
 74
3
 42
0.0000001
 43
0.0000001
 44
0.0000000001
 12
0.0076765739
 22
1.6468678343
 32
0.0
 13
0.0053452796
 23
1.6468770511
 33
0.0
 40
0.0
 40
0.0
 40
0.0
 40
0.0
 40
0.4999867127
 40
1.0
 40
1.0
 40
1.0
 40
1.0
 10
4.1010676414
 20
3.9701499865
 30
0.0
 10
4.1023470364
 20
4.2446206648
 30
0.0
 10
4.1047115728
 20
4.7935775325
 30
0.0
 10
4.1066876529
 20
5.342535936
 30
0.0
 10
4.1075785565
 20
5.6170227386
 30
0.0
 11
4.1010676414
 21
3.9701499865
 31
0.0
 11
4.1046144011
 21
4.7935633281
 31
0.0
 11
4.1075785565
 21
5.6170227386
 31
0.0
  0
SPLINE
  5
62F
100
AcDbEntity
  8
RACCORDO
100
AcDbSpline
 62
253
  6
CONTINUOUS
 70
0
 71
3
 72
11
 73
7
 74
5
 42
0.0000001
 43
0.0000001
 44
0.0000000001
 12
-0.0098781004
 22
0.3534330094
 32
0.0
 13
0.0000006738
 23
0.3535710239
 33
0.0
 40
0.0
 40
0.0
 40
0.0
 40
0.0
 40
0.210108614
 40
0.4581332567
 40
0.7266954159
 40
1.0
 40
1.0
 40
1.0
 40
1.0
 10
6.9145306725
 20
6.0469836299
 30
0.0
 10
6.9138388479
 20
6.0717367365
 30
0.0
 10
6.9126361399
 20
6.1257184475
 30
0.0
 10
6.9113815966
 20
6.2113559902
 30
0.0
 10
6.9106116791
 20
6.3044476016
 30
0.0
 10
6.9104406773
 20
6.3683105262
 30
0.0
 10
6.9104407387
 20
6.4005213868
 30
0.0
 11
6.9145306725
 21
6.0469836299
 31
0.0
 11
6.9128222932
 21
6.1212523016
 31
0.0
 11
6.9115065604
 21
6.2089367576
 31
0.0
 11
6.9107040362
 21
6.3038891638
 31
0.0
 11
6.9104407387
 21
6.4005213868
 31
0.0
  0
SPLINE
  5
630
100
AcDbEntity
  8
RACCORDO
100
AcDbSpline
 62
253
  6
CONTINUOUS
 70
0
 71
3
 72
11
 73
7
 74
5
 42
0.0000001
 43
0.0000001
 44
0.0000000001
 12
-0.0098331854
 22
0.5656207508
 32
0.0
 13
0.0000098444
 23
0.5657062181
 33
0.0
 40
0.0
 40
0.0
 40
0.0
 40
0.0
 40
0.2097951049
 40
0.4583292293
 40
0.7269157337
 40
1.0
 40
1.0
 40
1.0
 40
1.0
 10
6.614576364
 20
5.8348515956
 30
0.0
 10
6.6138887126
 20
5.8744064171
 30
0.0
 10
6.6126796128
 20
5.9608250634
 30
0.0
 10
6.6114274795
 20
6.0978933172
 30
0.0
 10
6.6106573488
 20
6.2468996049
 30
0.0
 10
6.6104854917
 20
6.3490418647
 30
0.0
 10
6.6104863878
 20
6.4005370205
 30
0.0
 11
6.614576364
 21
5.8348515956
 31
0.0
 11
6.6128697283
 21
5.9535217197
 31
0.0
 11
6.6115513596
 21
6.0941128381
 31
0.0
 11
6.6107492735
 21
6.2460517767
 31
0.0
 11
6.6104863878
 21
6.4005370205
 31
0.0
  0
SPLINE
  5
631
100
AcDbEntity
  8
RACCORDO
100
AcDbSpline
 62
253
  6
CONTINUOUS
 70
0
 71
3
 72
11
 73
7
 74
5
 42
0.0000001
 43
0.0000001
 44
0.0000000001
 12
-0.0000003835
 22
0.1414265542
 32
0.0
 13
-0.0024684792
 23
0.1414050099
 33
0.0
 40
0.0
 40
0.0
 40
0.0
 40
0.0
 40
0.2753968051
 40
0.5412973202
 40
0.7858857424
 40
1.0
 40
1.0
 40
1.0
 40
1.0
 10
6.6279414528
 20
4.9863234581
 30
0.0
 10
6.6279414176
 20
4.9993062652
 30
0.0
 10
6.6278985003
 20
5.0248242246
 30
0.0
 10
6.6277064741
 20
5.0618721837
 30
0.0
 10
6.6273951043
 20
5.0960302282
 30
0.0
 10
6.6270951376
 20
5.1176525381
 30
0.0
 10
6.6269189587
 20
5.1277448144
 30
0.0
 11
6.6279414528
 21
4.9863234581
 31
0.0
 11
6.6278746204
 21
5.025271822
 31
0.0
 11
6.6276755932
 21
5.0628766889
 31
0.0
 11
6.6273527648
 21
5.0974664802
 31
0.0
 11
6.6269189587
 21
5.1277448144
 31
0.0
  0
SPLINE
  5
632
100
AcDbEntity
  8
RACCORDO
100
AcDbSpline
 62
253
  6
CONTINUOUS
 70
0
 71
3
 72
13
 73
9
 74
7
 42
0.0000001
 43
0.0000001
 44
0.0000000001
 12
0.141041107
 22
0.141873385
 32
0.0
 13
0.0000012265
 23
0.2000516215
 33
0.0
 40
0.0
 40
0.0
 40
0.0
 40
0.0
 40
0.0379383612
 40
0.1398218345
 40
0.2991571384
 40
0.5055293226
 40
0.744720332
 40
1.0
 40
1.0
 40
1.0
 40
1.0
 10
6.6245113664
 20
3.4022643968
 30
0.0
 10
6.6262949892
 20
3.4040585447
 30
0.0
 10
6.6241595002
 20
3.4149431781
 30
0.0
 10
6.6273072117
 20
3.4334756198
 30
0.0
 10
6.6266627281
 20
3.465386505
 30
0.0
 10
6.6276808859
 20
3.5054277379
 30
0.0
 10
6.6278260615
 20
3.5522623156
 30
0.0
 10
6.6279413484
 20
3.5852108986
 30
0.0
 10
6.6279414528
 20
3.6022339358
 30
0.0
 11
6.6245113664
 21
3.4022643968
 31
0.0
 11
6.6254016604
 21
3.409801629
 31
0.0
 11
6.6262298188
 21
3.4301667513
 31
0.0
 11
6.626940091
 21
3.4620341227
 31
0.0
 11
6.627484557
 21
3.5033156225
 31
0.0
 11
6.627825738
 21
3.5511649554
 31
0.0
 11
6.6279414528
 21
3.6022339358
 31
0.0
  0
SPLINE
  5
633
100
AcDbEntity
  8
RACCORDO
100
AcDbSpline
 62
253
  6
CONTINUOUS
 70
0
 71
3
 72
13
 73
9
 74
7
 42
0.0000001
 43
0.0000001
 44
0.0000000001
 12
0.0000012265
 22
-0.2000516215
 32
0.0
 13
0.1410411064
 23
-0.1418733857
 33
0.0
 40
0.0
 40
0.0
 40
0.0
 40
0.0
 40
0.2552796677
 40
0.4944706773
 40
0.7008428616
 40
0.8601781655
 40
0.9620616388
 40
1.0
 40
1.0
 40
1.0
 40
1.0
 10
7.4033215821
 20
3.6022339358
 30
0.0
 10
7.4033216865
 20
3.5852108986
 30
0.0
 10
7.4034369734
 20
3.5522623156
 30
0.0
 10
7.403582149
 20
3.505427738
 30
0.0
 10
7.4046003069
 20
3.465386505
 30
0.0
 10
7.4039558232
 20
3.4334756198
 30
0.0
 10
7.4071035348
 20
3.4149431781
 30
0.0
 10
7.4049680457
 20
3.4040585447
 30
0.0
 10
7.4067516686
 20
3.4022643968
 30
0.0
 11
7.4033215821
 21
3.6022339358
 31
0.0
 11
7.4034372969
 21
3.5511649554
 31
0.0
 11
7.403778478
 21
3.5033156225
 31
0.0
 11
7.4043229439
 21
3.4620341228
 31
0.0
 11
7.4050332161
 21
3.4301667513
 31
0.0
 11
7.4058613745
 21
3.409801629
 31
0.0
 11
7.4067516686
 21
3.4022643968
 31
0.0
  0
SPLINE
  5
634
100
AcDbEntity
  8
RACCORDO
100
AcDbSpline
 62
253
  6
CONTINUOUS
 70
0
 71
3
 72
11
 73
7
 74
5
 42
0.0000001
 43
0.0000001
 44
0.0000000001
 12
-0.0024684792
 22
-0.1414050099
 32
0.0
 13
-0.0000003835
 23
-0.1414265542
 33
0.0
 40
0.0
 40
0.0
 40
0.0
 40
0.0
 40
0.2141142612
 40
0.458702684
 40
0.7246031997
 40
1.0
 40
1.0
 40
1.0
 40
1.0
 10
7.4043440762
 20
5.1277448144
 30
0.0
 10
7.4041678973
 20
5.117652538
 30
0.0
 10
7.4038679306
 20
5.0960302278
 30
0.0
 10
7.4035565608
 20
5.0618721831
 30
0.0
 10
7.4033645346
 20
5.0248242242
 30
0.0
 10
7.4033216173
 20
4.999306265
 30
0.0
 10
7.4033215821
 20
4.9863234581
 30
0.0
 11
7.4043440762
 21
5.1277448144
 31
0.0
 11
7.4039102701
 21
5.0974664797
 31
0.0
 11
7.4035874418
 21
5.0628766883
 31
0.0
 11
7.4033884145
 21
5.0252718213
 31
0.0
 11
7.4033215821
 21
4.9863234581
 31
0.0
  0
SPLINE
  5
635
100
AcDbEntity
  8
RACCORDO
100
AcDbSpline
 62
253
  6
CONTINUOUS
 70
0
 71
3
 72
11
 73
7
 74
5
 42
0.0000001
 43
0.0000001
 44
0.0000000001
 12
0.0000096882
 22
-0.5657062181
 32
0.0
 13
-0.0098336718
 23
-0.5656207424
 33
0.0
 40
0.0
 40
0.0
 40
0.0
 40
0.0
 40
0.2730824888
 40
0.5416689789
 40
0.7902032012
 40
1.0
 40
1.0
 40
1.0
 40
1.0
 10
7.4207766471
 20
6.4005370205
 30
0.0
 10
7.420777529
 20
6.3490421998
 30
0.0
 10
7.4206056948
 20
6.246900278
 30
0.0
 10
7.4198355657
 20
6.0978943095
 30
0.0
 10
7.4185834108
 20
5.960825721
 30
0.0
 10
7.4173743619
 20
5.8744067359
 30
0.0
 10
7.416686671
 20
5.8348515956
 30
0.0
 11
7.4207766471
 21
6.4005370205
 31
0.0
 11
7.4205137661
 21
6.2460527822
 31
0.0
 11
7.4197116822
 21
6.0941138517
 31
0.0
 11
7.4183933172
 21
5.9535226779
 31
0.0
 11
7.416686671
 21
5.8348515956
 31
0.0
  0
SPLINE
  5
636
100
AcDbEntity
  8
RACCORDO
100
AcDbSpline
 62
253
  6
CONTINUOUS
 70
0
 71
3
 72
13
 73
9
 74
7
 42
0.0000001
 43
0.0000001
 44
0.0000000001
 12
0.0000012265
 22
-0.2000516215
 32
0.0
 13
0.1410411064
 23
-0.1418733857
 33
0.0
 40
0.0
 40
0.0
 40
0.0
 40
0.0
 40
0.2552796677
 40
0.4944706773
 40
0.7008428616
 40
0.8601781655
 40
0.9620616388
 40
1.0
 40
1.0
 40
1.0
 40
1.0
 10
-6.8966784179
 20
3.6022339358
 30
0.0
 10
-6.8966783135
 20
3.5852108986
 30
0.0
 10
-6.8965630266
 20
3.5522623156
 30
0.0
 10
-6.896417851
 20
3.505427738
 30
0.0
 10
-6.8953996931
 20
3.465386505
 30
0.0
 10
-6.8960441768
 20
3.4334756198
 30
0.0
 10
-6.8928964652
 20
3.4149431781
 30
0.0
 10
-6.8950319543
 20
3.4040585447
 30
0.0
 10
-6.8932483314
 20
3.4022643968
 30
0.0
 11
-6.8966784179
 21
3.6022339358
 31
0.0
 11
-6.8965627031
 21
3.5511649554
 31
0.0
 11
-6.896221522
 21
3.5033156225
 31
0.0
 11
-6.8956770561
 21
3.4620341228
 31
0.0
 11
-6.8949667839
 21
3.4301667513
 31
0.0
 11
-6.8941386255
 21
3.409801629
 31
0.0
 11
-6.8932483314
 21
3.4022643968
 31
0.0
  0
SPLINE
  5
637
100
AcDbEntity
  8
RACCORDO
100
AcDbSpline
 62
253
  6
CONTINUOUS
 70
0
 71
3
 72
11
 73
7
 74
5
 42
0.0000001
 43
0.0000001
 44
0.0000000001
 12
-0.0024684792
 22
-0.1414050099
 32
0.0
 13
-0.0000003835
 23
-0.1414265542
 33
0.0
 40
0.0
 40
0.0
 40
0.0
 40
0.0
 40
0.2141142612
 40
0.458702684
 40
0.7246031997
 40
1.0
 40
1.0
 40
1.0
 40
1.0
 10
-6.8956559238
 20
5.1277448144
 30
0.0
 10
-6.8958321027
 20
5.117652538
 30
0.0
 10
-6.8961320694
 20
5.0960302278
 30
0.0
 10
-6.8964434392
 20
5.0618721831
 30
0.0
 10
-6.8966354654
 20
5.0248242242
 30
0.0
 10
-6.8966783827
 20
4.999306265
 30
0.0
 10
-6.8966784179
 20
4.9863234581
 30
0.0
 11
-6.8956559238
 21
5.1277448144
 31
0.0
 11
-6.8960897299
 21
5.0974664797
 31
0.0
 11
-6.8964125582
 21
5.0628766883
 31
0.0
 11
-6.8966115855
 21
5.0252718213
 31
0.0
 11
-6.8966784179
 21
4.9863234581
 31
0.0
  0
SPLINE
  5
638
100
AcDbEntity
  8
RACCORDO
100
AcDbSpline
 62
253
  6
CONTINUOUS
 70
0
 71
3
 72
11
 73
7
 74
5
 42
0.0000001
 43
0.0000001
 44
0.0000000001
 12
0.0000096882
 22
-0.5657062181
 32
0.0
 13
-0.0098336718
 23
-0.5656207424
 33
0.0
 40
0.0
 40
0.0
 40
0.0
 40
0.0
 40
0.2730824888
 40
0.5416689789
 40
0.7902032012
 40
1.0
 40
1.0
 40
1.0
 40
1.0
 10
-6.8792233529
 20
6.4005370205
 30
0.0
 10
-6.879222471
 20
6.3490421998
 30
0.0
 10
-6.8793943052
 20
6.246900278
 30
0.0
 10
-6.8801644343
 20
6.0978943095
 30
0.0
 10
-6.8814165892
 20
5.960825721
 30
0.0
 10
-6.8826256381
 20
5.8744067359
 30
0.0
 10
-6.883313329
 20
5.8348515956
 30
0.0
 11
-6.8792233529
 21
6.4005370205
 31
0.0
 11
-6.8794862339
 21
6.2460527822
 31
0.0
 11
-6.8802883178
 21
6.0941138517
 31
0.0
 11
-6.8816066828
 21
5.9535226779
 31
0.0
 11
-6.883313329
 21
5.8348515956
 31
0.0
  0
SPLINE
  5
639
100
AcDbEntity
  8
RACCORDO
100
AcDbSpline
 62
253
  6
CONTINUOUS
 70
0
 71
3
 72
11
 73
7
 74
5
 42
0.0000001
 43
0.0000001
 44
0.0000000001
 12
-0.0098331854
 22
0.5656207508
 32
0.0
 13
0.0000098444
 23
0.5657062181
 33
0.0
 40
0.0
 40
0.0
 40
0.0
 40
0.0
 40
0.2097951049
 40
0.4583292293
 40
0.7269157337
 40
1.0
 40
1.0
 40
1.0
 40
1.0
 10
-7.685423636
 20
5.8348515956
 30
0.0
 10
-7.6861112874
 20
5.8744064171
 30
0.0
 10
-7.6873203872
 20
5.9608250634
 30
0.0
 10
-7.6885725205
 20
6.0978933172
 30
0.0
 10
-7.6893426512
 20
6.2468996049
 30
0.0
 10
-7.6895145083
 20
6.3490418647
 30
0.0
 10
-7.6895136122
 20
6.4005370205
 30
0.0
 11
-7.685423636
 21
5.8348515956
 31
0.0
 11
-7.6871302717
 21
5.9535217197
 31
0.0
 11
-7.6884486404
 21
6.0941128381
 31
0.0
 11
-7.6892507265
 21
6.2460517767
 31
0.0
 11
-7.6895136122
 21
6.4005370205
 31
0.0
  0
SPLINE
  5
63A
100
AcDbEntity
  8
RACCORDO
100
AcDbSpline
 62
253
  6
CONTINUOUS
 70
0
 71
3
 72
11
 73
7
 74
5
 42
0.0000001
 43
0.0000001
 44
0.0000000001
 12
-0.0000003835
 22
0.1414265542
 32
0.0
 13
-0.0024684792
 23
0.1414050099
 33
0.0
 40
0.0
 40
0.0
 40
0.0
 40
0.0
 40
0.2753968051
 40
0.5412973202
 40
0.7858857424
 40
1.0
 40
1.0
 40
1.0
 40
1.0
 10
-7.6720585472
 20
4.9863234581
 30
0.0
 10
-7.6720585824
 20
4.9993062652
 30
0.0
 10
-7.6721014997
 20
5.0248242246
 30
0.0
 10
-7.6722935259
 20
5.0618721837
 30
0.0
 10
-7.6726048957
 20
5.0960302282
 30
0.0
 10
-7.6729048624
 20
5.1176525381
 30
0.0
 10
-7.6730810413
 20
5.1277448144
 30
0.0
 11
-7.6720585472
 21
4.9863234581
 31
0.0
 11
-7.6721253796
 21
5.025271822
 31
0.0
 11
-7.6723244068
 21
5.0628766889
 31
0.0
 11
-7.6726472352
 21
5.0974664802
 31
0.0
 11
-7.6730810413
 21
5.1277448144
 31
0.0
  0
SPLINE
  5
63B
100
AcDbEntity
  8
RACCORDO
100
AcDbSpline
 62
253
  6
CONTINUOUS
 70
0
 71
3
 72
13
 73
9
 74
7
 42
0.0000001
 43
0.0000001
 44
0.0000000001
 12
0.141041107
 22
0.141873385
 32
0.0
 13
0.0000012265
 23
0.2000516215
 33
0.0
 40
0.0
 40
0.0
 40
0.0
 40
0.0
 40
0.0379383612
 40
0.1398218345
 40
0.2991571384
 40
0.5055293226
 40
0.744720332
 40
1.0
 40
1.0
 40
1.0
 40
1.0
 10
-7.6754886336
 20
3.4022643968
 30
0.0
 10
-7.6737050108
 20
3.4040585447
 30
0.0
 10
-7.6758404998
 20
3.4149431781
 30
0.0
 10
-7.6726927883
 20
3.4334756198
 30
0.0
 10
-7.6733372719
 20
3.465386505
 30
0.0
 10
-7.6723191141
 20
3.5054277379
 30
0.0
 10
-7.6721739385
 20
3.5522623156
 30
0.0
 10
-7.6720586516
 20
3.5852108986
 30
0.0
 10
-7.6720585472
 20
3.6022339358
 30
0.0
 11
-7.6754886336
 21
3.4022643968
 31
0.0
 11
-7.6745983396
 21
3.409801629
 31
0.0
 11
-7.6737701812
 21
3.4301667513
 31
0.0
 11
-7.673059909
 21
3.4620341227
 31
0.0
 11
-7.672515443
 21
3.5033156225
 31
0.0
 11
-7.672174262
 21
3.5511649554
 31
0.0
 11
-7.6720585472
 21
3.6022339358
 31
0.0
  0
SPLINE
  5
63C
100
AcDbEntity
  8
RACCORDO
100
AcDbSpline
 62
253
  6
CONTINUOUS
 70
0
 71
3
 72
9
 73
5
 74
3
 42
0.0000001
 43
0.0000001
 44
0.0000000001
 12
0.0003603392
 22
-6.1661325534
 32
0.0
 13
0.0019281047
 23
-6.1661322625
 33
0.0
 40
0.0
 40
0.0
 40
0.0
 40
0.0
 40
0.5000355593
 40
1.0
 40
1.0
 40
1.0
 40
1.0
 10
10.9887784387
 20
7.9759243813
 30
0.0
 10
10.9888384995
 20
6.9481625346
 30
0.0
 10
10.9890892456
 20
4.8927850223
 30
0.0
 10
10.9896012721
 20
2.8374075586
 30
0.0
 10
10.9899226
 20
1.809791936
 30
0.0
 11
10.9887784387
 21
7.9759243813
 31
0.0
 11
10.9891545928
 21
4.8926388587
 31
0.0
 11
10.9899226
 21
1.809791936
 31
0.0
  0
LINE
  5
63D
100
AcDbEntity
  8
RACCORDO
100
AcDbLine
 62
253
  6
CONTINUOUS
 10
10.9901627074
 20
1.07730865
 11
10.9909602887
 21
-0.9912457526
  0
LINE
  5
63E
100
AcDbEntity
  8
RACCORDO
100
AcDbLine
 62
253
  6
CONTINUOUS
 10
10.9929024316
 20
-4.8199516258
 11
10.993682893
 21
-6.093968357
  0
LINE
  5
63F
100
AcDbEntity
  8
RACCORDO
100
AcDbLine
 62
253
  6
CONTINUOUS
 10
10.9941567787
 20
-6.8186972787
 11
10.9945071913
 21
-7.3343836793
  0
LINE
  5
640
100
AcDbEntity
  8
RACCORDO
100
AcDbLine
 62
253
  6
CONTINUOUS
 10
-11.2624198581
 20
-6.093968357
 11
-11.2616393967
 21
-4.8199516258
  0
LINE
  5
641
100
AcDbEntity
  8
RACCORDO
100
AcDbLine
 62
253
  6
CONTINUOUS
 10
-11.2632441564
 20
-7.3343836793
 11
-11.2628937438
 21
-6.8186972787
  0
LINE
  5
642
100
AcDbEntity
  8
RACCORDO
100
AcDbLine
 62
253
  6
CONTINUOUS
 10
-11.2596972537
 20
-0.9912457526
 11
-11.2588996725
 21
1.07730865
  0
SPLINE
  5
643
100
AcDbEntity
  8
RACCORDO
100
AcDbSpline
 62
253
  6
CONTINUOUS
 70
0
 71
3
 72
9
 73
5
 74
3
 42
0.0000001
 43
0.0000001
 44
0.0000000001
 12
0.0019281047
 22
6.1661322625
 32
0.0
 13
0.0003603392
 23
6.1661325534
 33
0.0
 40
0.0
 40
0.0
 40
0.0
 40
0.0
 40
0.4999644622
 40
1.0
 40
1.0
 40
1.0
 40
1.0
 10
-11.2586595651
 20
1.809791936
 30
0.0
 10
-11.2583382371
 20
2.8374076028
 30
0.0
 10
-11.2578262107
 20
4.8927850665
 30
0.0
 10
-11.2575754646
 20
6.9481625787
 30
0.0
 10
-11.2575154038
 20
7.9759243813
 30
0.0
 11
-11.2586595651
 21
1.809791936
 31
0.0
 11
-11.2578915579
 21
4.8926389912
 31
0.0
 11
-11.2575154038
 21
7.9759243813
 31
0.0
  0
SPLINE
  5
644
100
AcDbEntity
  8
RACCORDO
100
AcDbSpline
 62
7
  6
CONTINUOUS
 70
0
 71
3
 72
12
 73
8
 74
6
 42
0.0000001
 43
0.0000001
 44
0.0000000001
 12
0.3000709641
 22
-0.0
 32
0.0
 13
0.2121822176
 23
0.2121822095
 33
0.0
 40
0.0
 40
0.0
 40
0.0
 40
0.0
 40
0.3041016913
 40
0.5820964833
 40
0.8023227261
 40
0.9471197879
 40
1.0
 40
1.0
 40
1.0
 40
1.0
 10
10.6888243723
 20
7.9707795234
 30
0.0
 10
10.7192417349
 20
7.9707795234
 30
0.0
 10
10.7776200209
 20
7.9706481945
 30
0.0
 10
10.8572658392
 20
7.9724131536
 30
0.0
 10
10.9231314683
 20
7.9705872254
 30
0.0
 10
10.9618714696
 20
7.9773212651
 30
0.0
 10
10.9850383585
 20
7.9721843013
 30
0.0
 10
10.9887784387
 20
7.9759243813
 30
0.0
 11
10.6888243723
 21
7.9707795234
 31
0.0
 11
10.7800761227
 21
7.9710276325
 31
0.0
 11
10.8634910858
 21
7.9717585464
 31
0.0
 11
10.9295648771
 21
7.9728913301
 31
0.0
 11
10.9729902102
 21
7.9743371091
 31
0.0
 11
10.9887784387
 21
7.9759243813
 31
0.0
  0
SPLINE
  5
645
100
AcDbEntity
  8
RACCORDO
100
AcDbSpline
 62
7
  6
CONTINUOUS
 70
0
 71
3
 72
12
 73
8
 74
6
 42
0.0000001
 43
0.0000001
 44
0.0000000001
 12
0.2121822176
 22
-0.2121822095
 32
0.0
 13
0.3000709641
 23
0.0
 33
0.0
 40
0.0
 40
0.0
 40
0.0
 40
0.0
 40
0.0528802121
 40
0.1976772739
 40
0.4179035167
 40
0.6958983087
 40
1.0
 40
1.0
 40
1.0
 40
1.0
 10
-11.2575154038
 20
7.9759243813
 30
0.0
 10
-11.2537753236
 20
7.9721843013
 30
0.0
 10
-11.2306084346
 20
7.9773212651
 30
0.0
 10
-11.1918684334
 20
7.9705872254
 30
0.0
 10
-11.1260028043
 20
7.9724131536
 30
0.0
 10
-11.0463569859
 20
7.9706481945
 30
0.0
 10
-10.9879787
 20
7.9707795234
 30
0.0
 10
-10.9575613374
 20
7.9707795234
 30
0.0
 11
-11.2575154038
 21
7.9759243813
 31
0.0
 11
-11.2417271753
 21
7.9743371091
 31
0.0
 11
-11.1983018422
 21
7.9728913301
 31
0.0
 11
-11.1322280508
 21
7.9717585464
 31
0.0
 11
-11.0488130878
 21
7.9710276325
 31
0.0
 11
-10.9575613374
 21
7.9707795234
 31
0.0
  0
SPLINE
  5
646
100
AcDbEntity
  8
RACCORDO
100
AcDbSpline
 62
7
  6
CONTINUOUS
 70
0
 71
3
 72
12
 73
8
 74
6
 42
0.0000001
 43
0.0000001
 44
0.0000000001
 12
0.3000740987
 22
-0.0
 32
0.0
 13
0.2121856528
 23
0.2121832073
 33
0.0
 40
0.0
 40
0.0
 40
0.0
 40
0.0
 40
0.3040972291
 40
0.5820915378
 40
0.8023192843
 40
0.9471184771
 40
1.0
 40
1.0
 40
1.0
 40
1.0
 10
10.6929452377
 20
-4.8250966914
 30
0.0
 10
10.7233624717
 20
-4.8250966914
 30
0.0
 10
10.7817408667
 20
-4.8252280073
 30
0.0
 10
10.861387189
 20
-4.8234630439
 30
0.0
 10
10.9272537983
 20
-4.8252889325
 30
0.0
 10
10.9659947127
 20
-4.8185547931
 30
0.0
 10
10.9891621981
 20
-4.8236918161
 30
0.0
 10
10.9929024316
 20
-4.8199516258
 30
0.0
 11
10.6929452377
 21
-4.8250966914
 31
0.0
 11
10.7841966023
 21
-4.8248485768
 31
0.0
 11
10.8676122915
 21
-4.8241176409
 31
0.0
 11
10.9336872239
 21
-4.8229848148
 31
0.0
 11
10.9771136489
 21
-4.821538974
 31
0.0
 11
10.9929024316
 21
-4.8199516258
 31
0.0
  0
SPLINE
  5
647
100
AcDbEntity
  8
RACCORDO
100
AcDbSpline
 62
7
  6
CONTINUOUS
 70
0
 71
3
 72
12
 73
8
 74
6
 42
0.0000001
 43
0.0000001
 44
0.0000000001
 12
0.2121856528
 22
-0.2121832073
 32
0.0
 13
0.3000740987
 23
0.0
 33
0.0
 40
0.0
 40
0.0
 40
0.0
 40
0.0
 40
0.0528815229
 40
0.1976807157
 40
0.4179084622
 40
0.6959027709
 40
1.0
 40
1.0
 40
1.0
 40
1.0
 10
-11.2616393967
 20
-4.8199516258
 30
0.0
 10
-11.2578991632
 20
-4.8236918161
 30
0.0
 10
-11.2347316778
 20
-4.8185547931
 30
0.0
 10
-11.1959907633
 20
-4.8252889325
 30
0.0
 10
-11.130124154
 20
-4.8234630439
 30
0.0
 10
-11.0504778317
 20
-4.8252280073
 30
0.0
 10
-10.9920994367
 20
-4.8250966914
 30
0.0
 10
-10.9616822028
 20
-4.8250966914
 30
0.0
 11
-11.2616393967
 21
-4.8199516258
 31
0.0
 11
-11.245850614
 21
-4.821538974
 31
0.0
 11
-11.2024241889
 21
-4.8229848148
 31
0.0
 11
-11.1363492566
 21
-4.8241176409
 31
0.0
 11
-11.0529335674
 21
-4.8248485768
 31
0.0
 11
-10.9616822028
 21
-4.8250966914
 31
0.0
  0
SPLINE
  5
648
100
AcDbEntity
  8
RACCORDO
100
AcDbSpline
 62
7
  6
CONTINUOUS
 70
0
 71
3
 72
12
 73
8
 74
6
 42
0.0000001
 43
0.0000001
 44
0.0000000001
 12
-0.2121859816
 22
0.212186588
 32
0.0
 13
-0.3000767217
 23
0.0
 33
0.0
 40
0.0
 40
0.0
 40
0.0
 40
0.0
 40
0.0529127559
 40
0.197756379
 40
0.4180080058
 40
0.6959861204
 40
1.0
 40
1.0
 40
1.0
 40
1.0
 10
10.9909602887
 20
-0.9912457526
 30
0.0
 10
10.9872178403
 20
-0.9875032936
 30
0.0
 10
10.9640412263
 20
-0.9926411912
 30
0.0
 10
10.9252905985
 20
-0.9859057574
 30
0.0
 10
10.8594182902
 20
-0.9877305519
 30
0.0
 10
10.7797786629
 20
-0.9859657557
 30
0.0
 10
10.7214097938
 20
-0.9860968455
 30
0.0
 10
10.691000631
 20
-0.9860968455
 30
0.0
 11
10.9909602887
 21
-0.9912457526
 31
0.0
 11
10.9751621095
 21
-0.9896567879
 31
0.0
 11
10.9317220028
 21
-0.988209799
 31
0.0
 11
10.8656393378
 21
-0.9870762695
 31
0.0
 11
10.7822277818
 21
-0.9863450094
 31
0.0
 11
10.691000631
 21
-0.9860968455
 31
0.0
  0
SPLINE
  5
649
100
AcDbEntity
  8
RACCORDO
100
AcDbSpline
 62
7
  6
CONTINUOUS
 70
0
 71
3
 72
12
 73
8
 74
6
 42
0.0000001
 43
0.0000001
 44
0.0000000001
 12
-0.3000767217
 22
-0.0
 32
0.0
 13
-0.2121859816
 23
-0.212186588
 33
0.0
 40
0.0
 40
0.0
 40
0.0
 40
0.0
 40
0.3040138796
 40
0.5819919942
 40
0.802243621
 40
0.9470872441
 40
1.0
 40
1.0
 40
1.0
 40
1.0
 10
-10.9597375961
 20
-0.9860968455
 30
0.0
 10
-10.9901467589
 20
-0.9860968455
 30
0.0
 10
-11.048515628
 20
-0.9859657557
 30
0.0
 10
-11.1281552553
 20
-0.9877305519
 30
0.0
 10
-11.1940275636
 20
-0.9859057574
 30
0.0
 10
-11.2327781914
 20
-0.9926411912
 30
0.0
 10
-11.2559548054
 20
-0.9875032936
 30
0.0
 10
-11.2596972537
 20
-0.9912457526
 30
0.0
 11
-10.9597375961
 21
-0.9860968455
 31
0.0
 11
-11.0509647469
 21
-0.9863450094
 31
0.0
 11
-11.1343763029
 21
-0.9870762695
 31
0.0
 11
-11.2004589679
 21
-0.988209799
 31
0.0
 11
-11.2438990746
 21
-0.9896567879
 31
0.0
 11
-11.2596972537
 21
-0.9912457526
 31
0.0
  0
SPLINE
  5
64A
100
AcDbEntity
  8
RACCORDO
100
AcDbSpline
 62
7
  6
CONTINUOUS
 70
0
 71
3
 72
12
 73
8
 74
6
 42
0.0000001
 43
0.0000001
 44
0.0000000001
 12
0.2121872725
 22
-0.2121835264
 32
0.0
 13
0.3000754696
 23
0.0
 33
0.0
 40
0.0
 40
0.0
 40
0.0
 40
0.0
 40
0.0528851833
 40
0.1976896626
 40
0.4179203758
 40
0.6959128578
 40
1.0
 40
1.0
 40
1.0
 40
1.0
 10
-11.2628937438
 20
-6.8186972787
 30
0.0
 10
-11.2591532229
 20
-6.8224377336
 30
0.0
 10
-11.2359846093
 20
-6.8173006138
 30
0.0
 10
-11.1972423672
 20
-6.8240349075
 30
0.0
 10
-11.1313748385
 20
-6.8222091509
 30
0.0
 10
-11.0517290207
 20
-6.8239740959
 30
0.0
 10
-10.9933515616
 20
-6.8238428088
 30
0.0
 10
-10.9629351976
 20
-6.8238428088
 30
0.0
 11
-11.2628937438
 21
-6.8186972787
 31
0.0
 11
-11.2471038035
 21
-6.8202848183
 31
0.0
 11
-11.2036755973
 21
-6.8217307977
 31
0.0
 11
-11.1375994741
 21
-6.8228637104
 31
0.0
 11
-11.0541839522
 21
-6.8235946869
 31
0.0
 11
-10.9629351976
 21
-6.8238428088
 31
0.0
  0
SPLINE
  5
64B
100
AcDbEntity
  8
RACCORDO
100
AcDbSpline
 62
7
  6
CONTINUOUS
 70
0
 71
3
 72
12
 73
8
 74
6
 42
0.0000001
 43
0.0000001
 44
0.0000000001
 12
-0.300081786
 22
0.0
 32
0.0
 13
-0.2121906568
 23
-0.2121890748
 33
0.0
 40
0.0
 40
0.0
 40
0.0
 40
0.0
 40
0.3039485293
 40
0.5819142421
 40
0.8021848151
 40
0.9470630692
 40
1.0
 40
1.0
 40
1.0
 40
1.0
 10
-10.9624552596
 20
-6.0888164344
 30
0.0
 10
-10.9928583988
 20
-6.0888164344
 30
0.0
 10
-11.0512204097
 20
-6.0886855258
 30
0.0
 10
-11.1308556518
 20
-6.0904501965
 30
0.0
 10
-11.1967330833
 20
-6.0886262583
 30
0.0
 10
-11.2354917661
 20
-6.095362705
 30
0.0
 10
-11.2586756174
 20
-6.0902241442
 30
0.0
 10
-11.2624198581
 20
-6.093968357
 30
0.0
 11
-10.9624552596
 21
-6.0888164344
 31
0.0
 11
-11.0536643394
 21
-6.0890646407
 31
0.0
 11
-11.1370735792
 21
-6.0897961593
 31
0.0
 11
-11.2031630365
 21
-6.0909302448
 31
0.0
 11
-11.246614245
 21
-6.0923781346
 31
0.0
 11
-11.2624198581
 21
-6.093968357
 31
0.0
  0
SPLINE
  5
64C
100
AcDbEntity
  8
RACCORDO
100
AcDbSpline
 62
7
  6
CONTINUOUS
 70
0
 71
3
 72
12
 73
8
 74
6
 42
0.0000001
 43
0.0000001
 44
0.0000000001
 12
0.212182242
 22
-0.2121828612
 32
0.0
 13
0.3000714422
 23
-0.0
 33
0.0
 40
0.0
 40
0.0
 40
0.0
 40
0.0
 40
0.0528761536
 40
0.1976675351
 40
0.4178908253
 40
0.6958877974
 40
1.0
 40
1.0
 40
1.0
 40
1.0
 10
-11.2588996725
 20
1.07730865
 30
0.0
 10
-11.2551598789
 20
1.0735688455
 30
0.0
 10
-11.2319940815
 20
1.0787057326
 30
0.0
 10
-11.1932552331
 20
1.071971819
 30
0.0
 10
-11.1273901222
 20
1.0737979048
 30
0.0
 10
-11.0477432296
 20
1.0720329145
 30
0.0
 10
-10.9893635701
 20
1.0721642741
 30
0.0
 10
-10.9589451077
 20
1.0721642741
 30
0.0
 11
-11.2588996725
 21
1.07730865
 31
0.0
 11
-11.2431126219
 21
1.0757215836
 31
0.0
 11
-11.1996889202
 21
1.0742759486
 31
0.0
 11
-11.1336159081
 21
1.0731432517
 31
0.0
 11
-11.0502001576
 21
1.0724123771
 31
0.0
 11
-10.9589451077
 21
1.0721642741
 31
0.0
  0
SPLINE
  5
64D
100
AcDbEntity
  8
RACCORDO
100
AcDbSpline
 62
7
  6
CONTINUOUS
 70
0
 71
3
 72
12
 73
8
 74
6
 42
0.0000001
 43
0.0000001
 44
0.0000000001
 12
-0.3000746033
 22
-0.0
 32
0.0
 13
-0.2121845123
 23
-0.2121850614
 33
0.0
 40
0.0
 40
0.0
 40
0.0
 40
0.0
 40
0.3040426971
 40
0.5820262833
 40
0.8022695576
 40
0.9470979026
 40
1.0
 40
1.0
 40
1.0
 40
1.0
 10
-10.9587019713
 20
1.8149395131
 30
0.0
 10
-10.9891138018
 20
1.8149395131
 30
0.0
 10
-11.0474857168
 20
1.8150706814
 30
0.0
 10
-11.1271273124
 20
1.8133058329
 30
0.0
 10
-11.1929973773
 20
1.8151309978
 30
0.0
 10
-11.231744486
 20
1.8083960252
 30
0.0
 10
-11.2549178965
 20
1.8135336143
 30
0.0
 10
-11.2586595651
 20
1.809791936
 30
0.0
 11
-10.9587019713
 21
1.8149395131
 31
0.0
 11
-11.0499371255
 21
1.8146913674
 31
0.0
 11
-11.1333497356
 21
1.8139602213
 31
0.0
 11
-11.1994294314
 21
1.8128269372
 31
0.0
 11
-11.2428646572
 21
1.8113803457
 31
0.0
 11
-11.2586595651
 21
1.809791936
 31
0.0
  0
SPLINE
  5
64E
100
AcDbEntity
  8
RACCORDO
100
AcDbSpline
 62
7
  6
CONTINUOUS
 70
0
 71
3
 72
12
 73
8
 74
6
 42
0.0000001
 43
0.0000001
 44
0.0000000001
 12
-0.2121906568
 22
0.2121890748
 32
0.0
 13
-0.300081786
 23
-0.0
 33
0.0
 40
0.0
 40
0.0
 40
0.0
 40
0.0
 40
0.0529369308
 40
0.1978151849
 40
0.4180857579
 40
0.6960514707
 40
1.0
 40
1.0
 40
1.0
 40
1.0
 10
10.993682893
 20
-6.093968357
 30
0.0
 10
10.9899386523
 20
-6.0902241442
 30
0.0
 10
10.9667548011
 20
-6.095362705
 30
0.0
 10
10.9279961182
 20
-6.0886262583
 30
0.0
 10
10.8621186867
 20
-6.0904501965
 30
0.0
 10
10.7824834446
 20
-6.0886855258
 30
0.0
 10
10.7241214337
 20
-6.0888164344
 30
0.0
 10
10.6937182945
 20
-6.0888164344
 30
0.0
 11
10.993682893
 21
-6.093968357
 31
0.0
 11
10.9778772799
 21
-6.0923781346
 31
0.0
 11
10.9344260714
 21
-6.0909302448
 31
0.0
 11
10.8683366141
 21
-6.0897961593
 31
0.0
 11
10.7849273743
 21
-6.0890646407
 31
0.0
 11
10.6937182945
 21
-6.0888164344
 31
0.0
  0
SPLINE
  5
64F
100
AcDbEntity
  8
RACCORDO
100
AcDbSpline
 62
7
  6
CONTINUOUS
 70
0
 71
3
 72
12
 73
8
 74
6
 42
0.0000001
 43
0.0000001
 44
0.0000000001
 12
0.3000754696
 22
-0.0
 32
0.0
 13
0.2121872724
 23
0.2121835264
 33
0.0
 40
0.0
 40
0.0
 40
0.0
 40
0.0
 40
0.3040871422
 40
0.5820796242
 40
0.8023103374
 40
0.9471148167
 40
1.0
 40
1.0
 40
1.0
 40
1.0
 10
10.6941982325
 20
-6.8238428088
 30
0.0
 10
10.7246145965
 20
-6.8238428088
 30
0.0
 10
10.7829920556
 20
-6.8239740959
 30
0.0
 10
10.8626378734
 20
-6.8222091509
 30
0.0
 10
10.9285054021
 20
-6.8240349075
 30
0.0
 10
10.9672476443
 20
-6.8173006138
 30
0.0
 10
10.9904162578
 20
-6.8224377336
 30
0.0
 10
10.9941567787
 20
-6.8186972787
 30
0.0
 11
10.6941982325
 21
-6.8238428088
 31
0.0
 11
10.7854469872
 21
-6.8235946869
 31
0.0
 11
10.868862509
 21
-6.8228637104
 31
0.0
 11
10.9349386322
 21
-6.8217307977
 31
0.0
 11
10.9783668384
 21
-6.8202848183
 31
0.0
 11
10.9941567787
 21
-6.8186972787
 31
0.0
  0
SPLINE
  5
650
100
AcDbEntity
  8
RACCORDO
100
AcDbSpline
 62
7
  6
CONTINUOUS
 70
0
 71
3
 72
12
 73
8
 74
6
 42
0.0000001
 43
0.0000001
 44
0.0000000001
 12
-0.2121845123
 22
0.2121850614
 32
0.0
 13
-0.3000746033
 23
0.0
 33
0.0
 40
0.0
 40
0.0
 40
0.0
 40
0.0
 40
0.0529020974
 40
0.1977304424
 40
0.4179737167
 40
0.6959573029
 40
1.0
 40
1.0
 40
1.0
 40
1.0
 10
10.9899226
 20
1.809791936
 30
0.0
 10
10.9861809314
 20
1.8135336143
 30
0.0
 10
10.9630075209
 20
1.8083960252
 30
0.0
 10
10.9242604122
 20
1.8151309978
 30
0.0
 10
10.8583903473
 20
1.8133058329
 30
0.0
 10
10.7787487517
 20
1.8150706814
 30
0.0
 10
10.7203768368
 20
1.8149395131
 30
0.0
 10
10.6899650062
 20
1.8149395131
 30
0.0
 11
10.9899226
 21
1.809791936
 31
0.0
 11
10.9741276921
 21
1.8113803457
 31
0.0
 11
10.9306924663
 21
1.8128269372
 31
0.0
 11
10.8646127705
 21
1.8139602213
 31
0.0
 11
10.7812001605
 21
1.8146913674
 31
0.0
 11
10.6899650062
 21
1.8149395131
 31
0.0
  0
SPLINE
  5
651
100
AcDbEntity
  8
RACCORDO
100
AcDbSpline
 62
7
  6
CONTINUOUS
 70
0
 71
3
 72
12
 73
8
 74
6
 42
0.0000001
 43
0.0000001
 44
0.0000000001
 12
0.3000714422
 22
0.0
 32
0.0
 13
0.212182242
 23
0.2121828612
 33
0.0
 40
0.0
 40
0.0
 40
0.0
 40
0.0
 40
0.3041122026
 40
0.5821091747
 40
0.8023324649
 40
0.9471238464
 40
1.0
 40
1.0
 40
1.0
 40
1.0
 10
10.6902081426
 20
1.0721642741
 30
0.0
 10
10.720626605
 20
1.0721642741
 30
0.0
 10
10.7790062645
 20
1.0720329145
 30
0.0
 10
10.8586531571
 20
1.0737979048
 30
0.0
 10
10.9245182681
 20
1.071971819
 30
0.0
 10
10.9632571164
 20
1.0787057326
 30
0.0
 10
10.9864229138
 20
1.0735688455
 30
0.0
 10
10.9901627074
 20
1.07730865
 30
0.0
 11
10.6902081426
 21
1.0721642741
 31
0.0
 11
10.7814631925
 21
1.0724123771
 31
0.0
 11
10.8648789431
 21
1.0731432517
 31
0.0
 11
10.9309519551
 21
1.0742759486
 31
0.0
 11
10.9743756568
 21
1.0757215836
 31
0.0
 11
10.9901627074
 21
1.07730865
 31
0.0
  0
SPLINE
  5
652
100
AcDbEntity
  8
RACCORDO
100
AcDbSpline
 62
253
  6
CONTINUOUS
 70
0
 71
3
 72
11
 73
7
 74
5
 42
0.0000001
 43
0.0000001
 44
0.0000000001
 12
0.000000661
 22
-0.353571321
 32
0.0
 13
-0.0098781864
 23
-0.3534333042
 33
0.0
 40
0.0
 40
0.0
 40
0.0
 40
0.0
 40
0.2733034014
 40
0.5418653407
 40
0.7898898962
 40
1.0
 40
1.0
 40
1.0
 40
1.0
 10
7.120822297
 20
6.4005216839
 30
0.0
 10
7.1208223572
 20
6.3683109357
 30
0.0
 10
7.1206513586
 20
6.3044481227
 30
0.0
 10
7.1198814494
 20
6.2113566085
 30
0.0
 10
7.1186268954
 20
6.1257188547
 30
0.0
 10
7.117424198
 20
6.0717369327
 30
0.0
 10
7.1167323624
 20
6.0469836299
 30
0.0
 11
7.120822297
 21
6.4005216839
 31
0.0
 11
7.1205590028
 21
6.3038897979
 31
0.0
 11
7.1197564831
 21
6.2089373896
 31
0.0
 11
7.1184407506
 21
6.1212528908
 31
0.0
 11
7.1167323624
 21
6.0469836299
 31
0.0
  0
SPLINE
  5
653
100
AcDbEntity
  8
RACCORDO
100
AcDbSpline
 62
253
  6
CONTINUOUS
 70
0
 71
3
 72
11
 73
7
 74
5
 42
0.0000001
 43
0.0000001
 44
0.0000000001
 12
0.000000661
 22
-0.353571321
 32
0.0
 13
-0.0098781864
 23
-0.3534333042
 33
0.0
 40
0.0
 40
0.0
 40
0.0
 40
0.0
 40
0.2733034014
 40
0.5418653407
 40
0.7898898962
 40
1.0
 40
1.0
 40
1.0
 40
1.0
 10
-7.179177703
 20
6.4005216839
 30
0.0
 10
-7.1791776428
 20
6.3683109357
 30
0.0
 10
-7.1793486414
 20
6.3044481227
 30
0.0
 10
-7.1801185506
 20
6.2113566085
 30
0.0
 10
-7.1813731046
 20
6.1257188547
 30
0.0
 10
-7.182575802
 20
6.0717369327
 30
0.0
 10
-7.1832676376
 20
6.0469836299
 30
0.0
 11
-7.179177703
 21
6.4005216839
 31
0.0
 11
-7.1794409972
 21
6.3038897979
 31
0.0
 11
-7.1802435169
 21
6.2089373896
 31
0.0
 11
-7.1815592494
 21
6.1212528908
 31
0.0
 11
-7.1832676376
 21
6.0469836299
 31
0.0
  0
SPLINE
  5
654
100
AcDbEntity
  8
RACCORDO
100
AcDbSpline
 62
253
  6
CONTINUOUS
 70
0
 71
3
 72
11
 73
7
 74
5
 42
0.0000001
 43
0.0000001
 44
0.0000000001
 12
-0.0098781004
 22
0.3534330094
 32
0.0
 13
0.0000006738
 23
0.3535710239
 33
0.0
 40
0.0
 40
0.0
 40
0.0
 40
0.0
 40
0.210108614
 40
0.4581332567
 40
0.7266954159
 40
1.0
 40
1.0
 40
1.0
 40
1.0
 10
-7.3854693275
 20
6.0469836299
 30
0.0
 10
-7.3861611521
 20
6.0717367365
 30
0.0
 10
-7.3873638601
 20
6.1257184475
 30
0.0
 10
-7.3886184034
 20
6.2113559902
 30
0.0
 10
-7.3893883209
 20
6.3044476016
 30
0.0
 10
-7.3895593227
 20
6.3683105262
 30
0.0
 10
-7.3895592613
 20
6.4005213868
 30
0.0
 11
-7.3854693275
 21
6.0469836299
 31
0.0
 11
-7.3871777068
 21
6.1212523016
 31
0.0
 11
-7.3884934396
 21
6.2089367576
 31
0.0
 11
-7.3892959638
 21
6.3038891638
 31
0.0
 11
-7.3895592613
 21
6.4005213868
 31
0.0
  0
SPLINE
  5
655
100
AcDbEntity
  8
RACCORDO
100
AcDbSpline
 62
7
  6
CONTINUOUS
 70
0
 71
3
 72
11
 73
7
 74
5
 42
0.0000001
 43
0.0000001
 44
0.0000000001
 12
0.1877591309
 22
0.0090044277
 32
0.0
 13
0.1879749211
 23
-0.0
 33
0.0
 40
0.0
 40
0.0
 40
0.0
 40
0.0
 40
0.1555665837
 40
0.3898430933
 40
0.6801151059
 40
1.0
 40
1.0
 40
1.0
 40
1.0
 10
4.1075785565
 20
5.6170227386
 30
0.0
 10
4.1173149054
 20
5.617489668
 30
0.0
 10
4.1417370814
 20
5.6181181061
 30
0.0
 10
4.1843454655
 20
5.6187970581
 30
0.0
 10
4.2372555435
 20
5.6192200308
 30
0.0
 10
4.275486839
 20
5.6193202509
 30
0.0
 10
4.2955302849
 20
5.6193202509
 30
0.0
 11
4.1075785565
 21
5.6170227386
 31
0.0
 11
4.1368063685
 21
5.6179531234
 31
0.0
 11
4.1808383263
 21
5.6186891141
 31
0.0
 11
4.2354001642
 21
5.6191587102
 31
0.0
 11
4.2955302849
 21
5.6193202509
 31
0.0
  0
SPLINE
  5
656
100
AcDbEntity
  8
RACCORDO
100
AcDbSpline
 62
7
  6
CONTINUOUS
 70
0
 71
3
 72
11
 73
7
 74
5
 42
0.0000001
 43
0.0000001
 44
0.0000000001
 12
-0.1879629201
 22
0.0
 32
0.0
 13
-0.1877471435
 23
0.009003857
 33
0.0
 40
0.0
 40
0.0
 40
0.0
 40
0.0
 40
0.3199428211
 40
0.6102303145
 40
0.8444792159
 40
1.0
 40
1.0
 40
1.0
 40
1.0
 10
4.2890073797
 20
3.9678531975
 30
0.0
 10
4.268961584
 20
3.9678531975
 30
0.0
 10
4.2307281301
 20
3.9679534007
 30
0.0
 10
4.1778185597
 20
3.9683762819
 30
0.0
 10
4.135216524
 20
3.9690550402
 30
0.0
 10
4.1108005024
 20
3.9696832242
 30
0.0
 10
4.1010676414
 20
3.9701499865
 30
0.0
 11
4.2890073797
 21
3.9678531975
 31
0.0
 11
4.2288702097
 21
3.9680147257
 31
0.0
 11
4.1743089449
 21
3.96848424
 31
0.0
 11
4.1302849852
 21
3.9692200004
 31
0.0
 11
4.1010676414
 21
3.9701499865
 31
0.0
  0
SPLINE
  5
657
100
AcDbEntity
  8
RACCORDO
100
AcDbSpline
 62
7
  6
CONTINUOUS
 70
0
 71
3
 72
11
 73
7
 74
5
 42
0.0000001
 43
0.0000001
 44
0.0000000001
 12
-0.1877471435
 22
-0.009003857
 32
0.0
 13
-0.1879629201
 23
-0.0
 33
0.0
 40
0.0
 40
0.0
 40
0.0
 40
0.0
 40
0.1555207841
 40
0.3897696855
 40
0.6800571789
 40
1.0
 40
1.0
 40
1.0
 40
1.0
 10
-4.3698046065
 20
3.9701499865
 30
0.0
 10
-4.3795374675
 20
3.9696832242
 30
0.0
 10
-4.4039534891
 20
3.9690550402
 30
0.0
 10
-4.4465555248
 20
3.9683762819
 30
0.0
 10
-4.4994650952
 20
3.9679534007
 30
0.0
 10
-4.5376985491
 20
3.9678531975
 30
0.0
 10
-4.5577443447
 20
3.9678531975
 30
0.0
 11
-4.3698046065
 21
3.9701499865
 31
0.0
 11
-4.3990219503
 21
3.9692200004
 31
0.0
 11
-4.44304591
 21
3.96848424
 31
0.0
 11
-4.4976071748
 21
3.9680147257
 31
0.0
 11
-4.5577443447
 21
3.9678531975
 31
0.0
  0
SPLINE
  5
658
100
AcDbEntity
  8
RACCORDO
100
AcDbSpline
 62
7
  6
CONTINUOUS
 70
0
 71
3
 72
11
 73
7
 74
5
 42
0.0000001
 43
0.0000001
 44
0.0000000001
 12
0.1879749211
 22
0.0
 32
0.0
 13
0.1877591309
 23
-0.0090044277
 33
0.0
 40
0.0
 40
0.0
 40
0.0
 40
0.0
 40
0.3198848941
 40
0.6101569067
 40
0.8444334163
 40
1.0
 40
1.0
 40
1.0
 40
1.0
 10
-4.56426725
 20
5.6193202509
 30
0.0
 10
-4.5442238041
 20
5.6193202509
 30
0.0
 10
-4.5059925085
 20
5.6192200308
 30
0.0
 10
-4.4530824306
 20
5.6187970581
 30
0.0
 10
-4.4104740464
 20
5.6181181061
 30
0.0
 10
-4.3860518704
 20
5.617489668
 30
0.0
 10
-4.3763155216
 20
5.6170227386
 30
0.0
 11
-4.56426725
 21
5.6193202509
 31
0.0
 11
-4.5041371293
 21
5.6191587102
 31
0.0
 11
-4.4495752914
 21
5.6186891141
 31
0.0
 11
-4.4055433335
 21
5.6179531234
 31
0.0
 11
-4.3763155216
 21
5.6170227386
 31
0.0
  0
SPLINE
  5
659
100
AcDbEntity
  8
ASSI
100
AcDbSpline
 62
7
  6
CONTINUOUS
 70
0
 71
3
 72
9
 73
5
 74
3
 42
0.0000001
 43
0.0000001
 44
0.0000000001
 12
-0.0094537596
 22
0.4232572779
 32
0.0
 13
-0.4233861002
 23
-0.0063259668
 33
0.0
 40
0.0
 40
0.0
 40
0.0
 40
0.0
 40
0.479537544
 40
1.0
 40
1.0
 40
1.0
 40
1.0
 10
-1.445696651
 20
-1.1459476162
 30
0.0
 10
-1.4472077953
 20
-1.0782916977
 30
0.0
 10
-1.4758295668
 20
-0.9211496214
 30
0.0
 10
-1.6362625134
 20
-0.8692176816
 30
0.0
 10
-1.7097147032
 20
-0.8703151577
 30
0.0
 11
-1.445696651
 21
-1.1459476162
 31
0.0
 11
-1.5049690277
 21
-0.9517743761
 31
0.0
 11
-1.7097147032
 21
-0.8703151577
 31
0.0
  0
SPLINE
  5
65A
100
AcDbEntity
  8
ASSI
100
AcDbSpline
 62
7
  6
CONTINUOUS
 70
0
 71
3
 72
9
 73
5
 74
3
 42
0.0000001
 43
0.0000001
 44
0.0000000001
 12
-0.3133621804
 22
-0.004682097
 32
0.0
 13
-0.0361338581
 23
-0.3113313547
 33
0.0
 40
0.0
 40
0.0
 40
0.0
 40
0.0
 40
0.4988583522
 40
1.0
 40
1.0
 40
1.0
 40
1.0
 10
-1.7097147035
 20
-0.870315143
 30
0.0
 10
-1.7618224838
 20
-0.8710937107
 30
0.0
 10
-1.870496441
 20
-0.9135182579
 30
0.0
 10
-1.9163135848
 20
-1.0187545032
 30
0.0
 10
-1.9223496452
 20
-1.0707615392
 30
0.0
 11
-1.7097147035
 21
-0.870315143
 31
0.0
 11
-1.8546057813
 21
-0.9290526876
 31
0.0
 11
-1.9223496452
 21
-1.0707615392
 31
0.0
  0
SPLINE
  5
65B
100
AcDbEntity
  8
ASSI
100
AcDbSpline
 62
7
  6
CONTINUOUS
 70
0
 71
3
 72
9
 73
5
 74
3
 42
0.0000001
 43
0.0000001
 44
0.0000000001
 12
-0.0321345863
 22
-0.2768734098
 32
0.0
 13
0.0468836161
 23
-0.2747605688
 33
0.0
 40
0.0
 40
0.0
 40
0.0
 40
0.0
 40
0.7295958321
 40
1.0
 40
1.0
 40
1.0
 40
1.0
 10
-1.922349645
 20
-1.0707615392
 30
0.0
 10
-1.9301647318
 20
-1.1380967678
 30
0.0
 10
-1.9304659797
 20
-1.2320894564
 30
0.0
 10
-1.9165679753
 20
-1.3239628614
 30
0.0
 10
-1.9123421335
 20
-1.3487283291
 30
0.0
 11
-1.922349645
 21
-1.0707615392
 31
0.0
 11
-1.9230459051
 21
-1.2741219995
 31
0.0
 11
-1.9123421335
 21
-1.3487283291
 31
0.0
  0
SPLINE
  5
65C
100
AcDbEntity
  8
ASSI
100
AcDbSpline
 62
7
  6
CONTINUOUS
 70
0
 71
3
 72
9
 73
5
 74
3
 42
0.0000001
 43
0.0000001
 44
0.0000000001
 12
-0.128341011
 22
0.8723735981
 32
0.0
 13
0.2997650463
 23
0.8292493193
 33
0.0
 40
0.0
 40
0.0
 40
0.0
 40
0.0
 40
0.7041528059
 40
1.0
 40
1.0
 40
1.0
 40
1.0
 10
-2.1820705647
 20
-1.6903630968
 30
0.0
 10
-2.2121944591
 20
-1.4856016578
 30
0.0
 10
-2.2418466605
 20
-1.190207332
 30
0.0
 10
-2.1936903432
 20
-0.8963546324
 30
0.0
 10
-2.164128794
 20
-0.8145776043
 30
0.0
 11
-2.1820705647
 21
-1.6903630968
 31
0.0
 11
-2.2153739316
 21
-1.0703605574
 31
0.0
 11
-2.164128794
 21
-0.8145776043
 31
0.0
  0
SPLINE
  5
65D
100
AcDbEntity
  8
ASSI
100
AcDbSpline
 62
7
  6
CONTINUOUS
 70
0
 71
3
 72
20
 73
16
 74
14
 42
0.0000001
 43
0.0000001
 44
0.0000000001
 12
0.3602221359
 22
0.9969834579
 32
0.0
 13
0.1356584285
 23
-1.0513528212
 33
0.0
 40
0.0
 40
0.0
 40
0.0
 40
0.0
 40
0.079756987
 40
0.1893481532
 40
0.2529748389
 40
0.3223669702
 40
0.3985017405
 40
0.4831988921
 40
0.5372476303
 40
0.5875584989
 40
0.6787382851
 40
0.7596505358
 40
0.8314106377
 40
0.9440765302
 40
1.0
 40
1.0
 40
1.0
 40
1.0
 10
-2.1641288319
 20
-0.814577589
 30
0.0
 10
-2.1545520879
 20
-0.7880721234
 30
0.0
 10
-2.1218924661
 20
-0.7288315709
 30
0.0
 10
-2.0621968322
 20
-0.6610659312
 30
0.0
 10
-1.9934352395
 20
-0.6093591133
 30
0.0
 10
-1.9278374029
 20
-0.5745938496
 30
0.0
 10
-1.8501828834
 20
-0.5490195905
 30
0.0
 10
-1.774653463
 20
-0.5381250891
 30
0.0
 10
-1.7077671246
 20
-0.536936217
 30
0.0
 10
-1.6388025778
 20
-0.5423236768
 30
0.0
 10
-1.5615478714
 20
-0.5597468493
 30
0.0
 10
-1.4824568395
 20
-0.5946476898
 30
0.0
 10
-1.4032025501
 20
-0.6467033015
 30
0.0
 10
-1.3473906808
 20
-0.7087156979
 30
0.0
 10
-1.3081222113
 20
-0.7585191454
 30
0.0
 10
-1.3055933813
 20
-0.7781175779
 30
0.0
 11
-2.1641288319
 21
-0.814577589
 31
0.0
 11
-2.1249054415
 21
-0.7396771337
 31
0.0
 11
-2.0480604042
 21
-0.6525491779
 31
0.0
 11
-1.994149872
 21
-0.612015522
 31
0.0
 11
-1.9291690894
 21
-0.577538925
 31
0.0
 11
-1.8525593754
 21
-0.5521470198
 31
0.0
 11
-1.7637620487
 21
-0.5388674397
 31
0.0
 11
-1.7064755232
 21
-0.5378599776
 31
0.0
 11
-1.6533118473
 21
-0.5421062463
 31
0.0
 11
-1.5590935715
 21
-0.563680846
 31
0.0
 11
-1.4805882755
 21
-0.5982329796
 31
0.0
 11
-1.4172770132
 21
-0.6404043876
 31
0.0
 11
-1.3341608058
 21
-0.7261719898
 31
0.0
 11
-1.3055933813
 21
-0.7781175779
 31
0.0
  0
SPLINE
  5
65E
100
AcDbEntity
  8
ASSI
100
AcDbSpline
 62
7
  6
CONTINUOUS
 70
0
 71
3
 72
9
 73
5
 74
3
 42
0.0000001
 43
0.0000001
 44
0.0000000001
 12
0.2092440046
 22
0.2567965258
 32
0.0
 13
0.3209543859
 23
0.0874412864
 33
0.0
 40
0.0
 40
0.0
 40
0.0
 40
0.0
 40
0.7111552999
 40
1.0
 40
1.0
 40
1.0
 40
1.0
 10
-1.2635999513
 20
-0.7244514582
 30
0.0
 10
-1.2139982903
 20
-0.6635773881
 30
0.0
 10
-1.0978471345
 20
-0.6090118805
 30
0.0
 10
-0.9930141059
 20
-0.5819995778
 30
0.0
 10
-0.9621121148
 20
-0.5735805938
 30
0.0
 11
-1.2635999513
 21
-0.7244514582
 31
0.0
 11
-1.0545193209
 21
-0.5999030974
 31
0.0
 11
-0.9621121148
 21
-0.5735805938
 31
0.0
  0
SPLINE
  5
65F
100
AcDbEntity
  8
ASSI
100
AcDbSpline
 62
7
  6
CONTINUOUS
 70
0
 71
3
 72
9
 73
5
 74
3
 42
0.0000001
 43
0.0000001
 44
0.0000000001
 12
0.4590342986
 22
0.125059974
 32
0.0
 13
0.4591324757
 23
0.1246990799
 33
0.0
 40
0.0
 40
0.0
 40
0.0
 40
0.0
 40
0.8019701206
 40
1.0
 40
1.0
 40
1.0
 40
1.0
 10
-0.9621121149
 20
-0.5735805936
 30
0.0
 10
-0.8394015176
 20
-0.5401491394
 30
0.0
 10
-0.6857632736
 20
-0.5008063108
 30
0.0
 10
-0.5323751121
 20
-0.4605205835
 30
0.0
 10
-0.5020677958
 20
-0.4522892022
 30
0.0
 11
-0.9621121149
 21
-0.5735805936
 31
0.0
 11
-0.5931357975
 21
-0.4764391624
 31
0.0
 11
-0.5020677958
 21
-0.4522892022
 31
0.0
  0
SPLINE
  5
660
100
AcDbEntity
  8
ASSI
100
AcDbSpline
 62
7
  6
CONTINUOUS
 70
0
 71
3
 72
9
 73
5
 74
3
 42
0.0000001
 43
0.0000001
 44
0.0000000001
 12
-0.5174692086
 22
-0.1487744753
 32
0.0
 13
-0.5040219036
 23
-0.1893972716
 33
0.0
 40
0.0
 40
0.0
 40
0.0
 40
0.0
 40
0.4412847493
 40
1.0
 40
1.0
 40
1.0
 40
1.0
 10
-0.5020677958
 20
-0.7935925456
 30
0.0
 10
-0.5781848858
 20
-0.8154765146
 30
0.0
 10
-0.7499675223
 20
-0.8671484348
 30
0.0
 10
-0.9237607981
 20
-0.9135173412
 30
0.0
 10
-1.0176290395
 20
-0.9487903892
 30
0.0
 11
-0.5020677958
 21
-0.7935925456
 31
0.0
 11
-0.7301865375
 21
-0.8600479076
 31
0.0
 11
-1.0176290395
 21
-0.9487903892
 31
0.0
  0
SPLINE
  5
661
100
AcDbEntity
  8
ASSI
100
AcDbSpline
 62
7
  6
CONTINUOUS
 70
0
 71
3
 72
9
 73
5
 74
3
 42
0.0000001
 43
0.0000001
 44
0.0000000001
 12
-0.243894777
 22
-0.0916489686
 32
0.0
 13
-0.0
 23
-0.2605161169
 33
0.0
 40
0.0
 40
0.0
 40
0.0
 40
0.0
 40
0.6439294634
 40
1.0
 40
1.0
 40
1.0
 40
1.0
 10
-1.0176290465
 20
-0.9487903706
 30
0.0
 10
-1.0699793908
 20
-0.9684621943
 30
0.0
 10
-1.1485849536
 20
-1.0268802261
 30
0.0
 10
-1.1673001984
 20
-1.1157917371
 30
0.0
 10
-1.1673001984
 20
-1.1467124417
 30
0.0
 11
-1.0176290465
 21
-0.9487903706
 31
0.0
 11
-1.1463790364
 21
-1.0563403514
 31
0.0
 11
-1.1673001984
 21
-1.1467124417
 31
0.0
  0
SPLINE
  5
662
100
AcDbEntity
  8
ASSI
100
AcDbSpline
 62
7
  6
CONTINUOUS
 70
0
 71
3
 72
10
 73
6
 74
4
 42
0.0000001
 43
0.0000001
 44
0.0000000001
 12
-0.1883407282
 22
0.1821744696
 32
0.0
 13
-0.1853866385
 23
0.1851798087
 33
0.0
 40
0.0
 40
0.0
 40
0.0
 40
0.0
 40
0.2861514979
 40
0.6199988295
 40
1.0
 40
1.0
 40
1.0
 40
1.0
 10
10.8812266602
 20
-7.530115042
 30
0.0
 10
10.8632619997
 20
-7.5127385429
 30
0.0
 10
10.8244784007
 20
-7.4749443552
 30
0.0
 10
10.7622484832
 20
-7.41365528
 30
0.0
 10
10.7180352626
 20
-7.3696923258
 30
0.0
 10
10.6945528828
 20
-7.3462361445
 30
0.0
 11
10.8812266602
 21
-7.530115042
 31
0.0
 11
10.8275048229
 21
-7.4778081598
 31
0.0
 11
10.7651664569
 21
-7.4164376731
 31
0.0
 11
10.6945528828
 21
-7.3462361445
 31
0.0
  0
SPLINE
  5
663
100
AcDbEntity
  8
ASSI
100
AcDbSpline
 62
7
  6
CONTINUOUS
 70
0
 71
3
 72
10
 73
6
 74
4
 42
0.0000001
 43
0.0000001
 44
0.0000000001
 12
0.1932351421
 22
0.1319011105
 32
0.0
 13
0.0048001619
 23
0.233911696
 33
0.0
 40
0.0
 40
0.0
 40
0.0
 40
0.0
 40
0.3395046921
 40
0.6724952268
 40
1.0
 40
1.0
 40
1.0
 40
1.0
 10
10.8812266602
 20
-7.530115042
 30
0.0
 10
10.9030947394
 20
-7.5151880267
 30
0.0
 10
10.9426774294
 20
-7.4795414084
 30
0.0
 10
10.9834756165
 20
-7.4116508868
 30
0.0
 10
10.993983166
 20
-7.3599194118
 30
0.0
 10
10.9945071913
 20
-7.3343836795
 30
0.0
 11
10.8812266602
 21
-7.530115042
 31
0.0
 11
10.9399652112
 21
-7.4766450442
 31
0.0
 11
10.9795210075
 21
-7.4095271978
 31
0.0
 11
10.9945071913
 21
-7.3343836795
 31
0.0
  0
SPLINE
  5
664
100
AcDbEntity
  8
ASSI
100
AcDbSpline
 62
7
  6
CONTINUOUS
 70
0
 71
3
 72
10
 73
6
 74
4
 42
0.0000001
 43
0.0000001
 44
0.0000000001
 12
0.2111534819
 22
0.0378729015
 32
0.0
 13
0.1518156339
 23
0.1515657049
 33
0.0
 40
0.0
 40
0.0
 40
0.0
 40
0.0
 40
0.3420454831
 40
0.6747450136
 40
1.0
 40
1.0
 40
1.0
 40
1.0
 10
10.6945528814
 20
-7.6298259917
 30
0.0
 10
10.7186275797
 20
-7.6255079067
 30
0.0
 10
10.7653030503
 20
-7.611495075
 30
0.0
 10
10.8282869326
 20
-7.5767585262
 30
0.0
 10
10.8647670629
 20
-7.5465475424
 30
0.0
 10
10.8812266602
 20
-7.530115042
 30
0.0
 11
10.6945528814
 21
-7.6298259917
 31
0.0
 11
10.7648760726
 21
-7.608878883
 31
0.0
 11
10.8274874976
 21
-7.5746190994
 31
0.0
 11
10.8812266602
 21
-7.530115042
 31
0.0
  0
SPLINE
  5
665
100
AcDbEntity
  8
ASSI
100
AcDbSpline
 62
7
  6
CONTINUOUS
 70
0
 71
3
 72
11
 73
7
 74
5
 42
0.0000001
 43
0.0000001
 44
0.0000000001
 12
-0.1934720276
 22
0.1323336071
 32
0.0
 13
-0.004777495
 23
0.2343518393
 33
0.0
 40
0.0
 40
0.0
 40
0.0
 40
0.0
 40
0.2553623096
 40
0.5075354551
 40
0.7552605149
 40
1.0
 40
1.0
 40
1.0
 40
1.0
 10
-11.1499566884
 20
-7.5301216838
 30
0.0
 10
-11.1664251763
 20
-7.5188573453
 30
0.0
 10
-11.1970081365
 20
-7.4930915207
 30
0.0
 10
-11.2331980804
 20
-7.4458460358
 30
0.0
 10
-11.2568434581
 20
-7.3920465725
 30
0.0
 10
-11.2628544092
 20
-7.3535020623
 30
0.0
 10
-11.2632441564
 20
-7.3343836795
 30
0.0
 11
-11.1499566884
 21
-7.5301216838
 31
0.0
 11
-11.1956147437
 21
-7.4914149694
 31
0.0
 11
-11.2313551541
 21
-7.4443346303
 31
0.0
 11
-11.2545022754
 21
-7.3910807667
 31
0.0
 11
-11.2632441564
 21
-7.3343836795
 31
0.0
  0
SPLINE
  5
666
100
AcDbEntity
  8
ASSI
100
AcDbSpline
 62
7
  6
CONTINUOUS
 70
0
 71
3
 72
10
 73
6
 74
4
 42
0.0000001
 43
0.0000001
 44
0.0000000001
 12
0.1883472662
 22
0.1821697226
 32
0.0
 13
0.1853876284
 23
0.1851807974
 33
0.0
 40
0.0
 40
0.0
 40
0.0
 40
0.0
 40
0.2877120613
 40
0.6240039224
 40
1.0
 40
1.0
 40
1.0
 40
1.0
 10
-11.1499655437
 20
-7.5301150776
 30
0.0
 10
-11.1319022837
 20
-7.5126442688
 30
0.0
 10
-11.0928680705
 20
-7.4746055903
 30
0.0
 10
-11.0306407111
 20
-7.4133132465
 30
0.0
 10
-10.9865248549
 20
-7.369445229
 30
0.0
 10
-10.9632898478
 20
-7.3462361445
 30
0.0
 11
-11.1499655437
 21
-7.5301150776
 31
0.0
 11
-11.0959503412
 21
-7.4775227529
 31
0.0
 11
-11.033157751
 21
-7.4156999516
 31
0.0
 11
-10.9632898478
 21
-7.3462361445
 31
0.0
  0
SPLINE
  5
667
100
AcDbEntity
  8
ASSI
100
AcDbSpline
 62
7
  6
CONTINUOUS
 70
0
 71
3
 72
10
 73
6
 74
4
 42
0.0000001
 43
0.0000001
 44
0.0000000001
 12
-0.2113510983
 22
0.0367634485
 32
0.0
 13
-0.1528975824
 23
0.1504764673
 33
0.0
 40
0.0
 40
0.0
 40
0.0
 40
0.0
 40
0.3410974996
 40
0.6751553688
 40
1.0
 40
1.0
 40
1.0
 40
1.0
 10
-10.9632898465
 20
-7.6298259917
 30
0.0
 10
-10.9873202902
 20
-7.6256460182
 30
0.0
 10
-11.0339770396
 20
-7.6114402761
 30
0.0
 10
-11.097056163
 20
-7.5768562269
 30
0.0
 10
-11.1334095575
 20
-7.5464089017
 30
0.0
 10
-11.1499655437
 20
-7.5301150776
 30
0.0
 11
-10.9632898465
 21
-7.6298259917
 31
0.0
 11
-11.0334250583
 21
-7.6089582727
 31
0.0
 11
-11.0962982498
 21
-7.5745687169
 31
0.0
 11
-11.1499655437
 21
-7.5301150776
 31
0.0
  0
SPLINE
  5
668
100
AcDbEntity
  8
ASSI
100
AcDbSpline
 62
253
  6
CONTINUOUS
 70
0
 71
3
 72
12
 73
8
 74
6
 42
0.0000001
 43
0.0000001
 44
0.0000000001
 12
-0.0070145166
 22
0.4019838217
 32
0.0
 13
-0.4020297068
 23
0.0035087299
 33
0.0
 40
0.0
 40
0.0
 40
0.0
 40
0.0
 40
0.1664007688
 40
0.3475548035
 40
0.549388854
 40
0.7695487352
 40
1.0
 40
1.0
 40
1.0
 40
1.0
 10
-6.883313329
 20
5.8348515956
 30
0.0
 10
-6.8837024027
 20
5.8571484012
 30
0.0
 10
-6.8954827353
 20
5.9039735877
 30
0.0
 10
-6.9411280862
 20
5.9636814833
 30
0.0
 10
-7.0087203567
 20
6.0099903665
 30
0.0
 10
-7.091833093
 20
6.0396170551
 30
0.0
 10
-7.1523848861
 20
6.0467140995
 30
0.0
 10
-7.1832676376
 20
6.0469836299
 30
0.0
 11
-6.883313329
 21
5.8348515956
 31
0.0
 11
-6.8989014934
 21
5.8999107949
 31
0.0
 11
-6.941893263
 21
5.958700413
 31
0.0
 11
-7.0081456361
 21
6.0055550514
 31
0.0
 11
-7.0912740486
 21
6.0359594539
 31
0.0
 11
-7.1832676376
 21
6.0469836299
 31
0.0
  0
SPLINE
  5
669
100
AcDbEntity
  8
ASSI
100
AcDbSpline
 62
253
  6
CONTINUOUS
 70
0
 71
3
 72
12
 73
8
 74
6
 42
0.0000001
 43
0.0000001
 44
0.0000000001
 12
-0.0070145118
 22
0.401983857
 32
0.0
 13
-0.402029743
 23
0.0035086199
 33
0.0
 40
0.0
 40
0.0
 40
0.0
 40
0.0
 40
0.1663980738
 40
0.3475504099
 40
0.549384185
 40
0.7695456059
 40
1.0
 40
1.0
 40
1.0
 40
1.0
 10
-6.8956559238
 20
5.1277448144
 30
0.0
 10
-6.8960449909
 20
5.1500412609
 30
0.0
 10
-6.9078249724
 20
5.1968658558
 30
0.0
 10
-6.9534694811
 20
5.2565735947
 30
0.0
 10
-7.0210614249
 20
5.3028828936
 30
0.0
 10
-7.1041746242
 20
5.3325101287
 30
0.0
 10
-7.1647270588
 20
5.3396073229
 30
0.0
 10
-7.1956102324
 20
5.3398768485
 30
0.0
 11
-6.8956559238
 21
5.1277448144
 31
0.0
 11
-6.9112436084
 21
5.1928030205
 31
0.0
 11
-6.9542345544
 21
5.2515924028
 31
0.0
 11
-7.0204865311
 21
5.2984474223
 31
0.0
 11
-7.1036154009
 21
5.3288523992
 31
0.0
 11
-7.1956102324
 21
5.3398768485
 31
0.0
  0
SPLINE
  5
66A
100
AcDbEntity
  8
ASSI
100
AcDbSpline
 62
253
  6
CONTINUOUS
 70
0
 71
3
 72
12
 73
8
 74
6
 42
0.0000001
 43
0.0000001
 44
0.0000000001
 12
0.0070145165
 22
0.4019838218
 32
0.0
 13
0.4020297069
 23
0.003508728
 33
0.0
 40
0.0
 40
0.0
 40
0.0
 40
0.0
 40
0.1664007686
 40
0.3475548033
 40
0.549388854
 40
0.7695487354
 40
1.0
 40
1.0
 40
1.0
 40
1.0
 10
-7.6730810413
 20
5.1277448144
 30
0.0
 10
-7.6726919676
 20
5.15004162
 30
0.0
 10
-7.6609116351
 20
5.1968668065
 30
0.0
 10
-7.6152662841
 20
5.256574702
 30
0.0
 10
-7.5476740136
 20
5.3028835853
 30
0.0
 10
-7.4645612773
 20
5.3325102742
 30
0.0
 10
-7.4040094842
 20
5.3396073185
 30
0.0
 10
-7.3731267327
 20
5.3398768487
 30
0.0
 11
-7.6730810413
 21
5.1277448144
 31
0.0
 11
-7.657492877
 21
5.1928040137
 31
0.0
 11
-7.6145011073
 21
5.2515936318
 31
0.0
 11
-7.5482487342
 21
5.2984482703
 31
0.0
 11
-7.4651203216
 21
5.3288526729
 31
0.0
 11
-7.3731267327
 21
5.3398768487
 31
0.0
  0
SPLINE
  5
66B
100
AcDbEntity
  8
ASSI
100
AcDbSpline
 62
253
  6
CONTINUOUS
 70
0
 71
3
 72
12
 73
8
 74
6
 42
0.0000001
 43
0.0000001
 44
0.0000000001
 12
0.0070145164
 22
0.4019837961
 32
0.0
 13
0.4020296812
 23
0.0035087308
 33
0.0
 40
0.0
 40
0.0
 40
0.0
 40
0.0
 40
0.1664062852
 40
0.3475634824
 40
0.549397719
 40
0.769554416
 40
1.0
 40
1.0
 40
1.0
 40
1.0
 10
-7.685423636
 20
5.8348515956
 30
0.0
 10
-7.6850345495
 20
5.857149139
 30
0.0
 10
-7.6732535243
 20
5.9039755007
 30
0.0
 10
-7.6276065507
 20
5.9636836814
 30
0.0
 10
-7.560013725
 20
6.0099917234
 30
0.0
 10
-7.476901902
 20
6.0396173616
 30
0.0
 10
-7.4163513157
 20
6.0467141052
 30
0.0
 10
-7.3854693275
 20
6.046983629
 30
0.0
 11
-7.685423636
 21
5.8348515956
 31
0.0
 11
-7.6698345042
 21
5.8999128393
 31
0.0
 11
-7.6268411569
 21
5.9587028731
 31
0.0
 11
-7.5605881285
 21
6.0055567055
 31
0.0
 11
-7.4774606738
 21
6.0359599833
 31
0.0
 11
-7.3854693275
 21
6.046983629
 31
0.0
  0
SPLINE
  5
66C
100
AcDbEntity
  8
ASSI
100
AcDbSpline
 62
253
  6
CONTINUOUS
 70
0
 71
3
 72
12
 73
8
 74
6
 42
0.0000001
 43
0.0000001
 44
0.0000000001
 12
0.0070145165
 22
0.4019838218
 32
0.0
 13
0.4020297069
 23
0.003508728
 33
0.0
 40
0.0
 40
0.0
 40
0.0
 40
0.0
 40
0.1664007686
 40
0.3475548033
 40
0.549388854
 40
0.7695487354
 40
1.0
 40
1.0
 40
1.0
 40
1.0
 10
6.6269189587
 20
5.1277448144
 30
0.0
 10
6.6273080324
 20
5.15004162
 30
0.0
 10
6.6390883649
 20
5.1968668065
 30
0.0
 10
6.6847337159
 20
5.256574702
 30
0.0
 10
6.7523259864
 20
5.3028835853
 30
0.0
 10
6.8354387227
 20
5.3325102742
 30
0.0
 10
6.8959905158
 20
5.3396073185
 30
0.0
 10
6.9268732673
 20
5.3398768487
 30
0.0
 11
6.6269189587
 21
5.1277448144
 31
0.0
 11
6.642507123
 21
5.1928040137
 31
0.0
 11
6.6854988927
 21
5.2515936318
 31
0.0
 11
6.7517512658
 21
5.2984482703
 31
0.0
 11
6.8348796784
 21
5.3288526729
 31
0.0
 11
6.9268732673
 21
5.3398768487
 31
0.0
  0
SPLINE
  5
66D
100
AcDbEntity
  8
ASSI
100
AcDbSpline
 62
253
  6
CONTINUOUS
 70
0
 71
3
 72
12
 73
8
 74
6
 42
0.0000001
 43
0.0000001
 44
0.0000000001
 12
0.0070145164
 22
0.4019837961
 32
0.0
 13
0.4020296812
 23
0.0035087308
 33
0.0
 40
0.0
 40
0.0
 40
0.0
 40
0.0
 40
0.1664062852
 40
0.3475634824
 40
0.549397719
 40
0.769554416
 40
1.0
 40
1.0
 40
1.0
 40
1.0
 10
6.614576364
 20
5.8348515956
 30
0.0
 10
6.6149654505
 20
5.857149139
 30
0.0
 10
6.6267464757
 20
5.9039755007
 30
0.0
 10
6.6723934493
 20
5.9636836814
 30
0.0
 10
6.739986275
 20
6.0099917234
 30
0.0
 10
6.823098098
 20
6.0396173616
 30
0.0
 10
6.8836486843
 20
6.0467141052
 30
0.0
 10
6.9145306725
 20
6.046983629
 30
0.0
 11
6.614576364
 21
5.8348515956
 31
0.0
 11
6.6301654958
 21
5.8999128393
 31
0.0
 11
6.6731588431
 21
5.9587028731
 31
0.0
 11
6.7394118715
 21
6.0055567055
 31
0.0
 11
6.8225393262
 21
6.0359599833
 31
0.0
 11
6.9145306725
 21
6.046983629
 31
0.0
  0
SPLINE
  5
66E
100
AcDbEntity
  8
ASSI
100
AcDbSpline
 62
253
  6
CONTINUOUS
 70
0
 71
3
 72
12
 73
8
 74
6
 42
0.0000001
 43
0.0000001
 44
0.0000000001
 12
-0.0070145166
 22
0.4019838217
 32
0.0
 13
-0.4020297068
 23
0.0035087299
 33
0.0
 40
0.0
 40
0.0
 40
0.0
 40
0.0
 40
0.1664007688
 40
0.3475548035
 40
0.549388854
 40
0.7695487352
 40
1.0
 40
1.0
 40
1.0
 40
1.0
 10
7.416686671
 20
5.8348515956
 30
0.0
 10
7.4162975973
 20
5.8571484012
 30
0.0
 10
7.4045172647
 20
5.9039735877
 30
0.0
 10
7.3588719138
 20
5.9636814833
 30
0.0
 10
7.2912796433
 20
6.0099903665
 30
0.0
 10
7.208166907
 20
6.0396170551
 30
0.0
 10
7.1476151139
 20
6.0467140995
 30
0.0
 10
7.1167323624
 20
6.0469836299
 30
0.0
 11
7.416686671
 21
5.8348515956
 31
0.0
 11
7.4010985066
 21
5.8999107949
 31
0.0
 11
7.358106737
 21
5.958700413
 31
0.0
 11
7.2918543639
 21
6.0055550514
 31
0.0
 11
7.2087259514
 21
6.0359594539
 31
0.0
 11
7.1167323624
 21
6.0469836299
 31
0.0
  0
SPLINE
  5
66F
100
AcDbEntity
  8
ASSI
100
AcDbSpline
 62
253
  6
CONTINUOUS
 70
0
 71
3
 72
12
 73
8
 74
6
 42
0.0000001
 43
0.0000001
 44
0.0000000001
 12
-0.0070145118
 22
0.401983857
 32
0.0
 13
-0.402029743
 23
0.0035086199
 33
0.0
 40
0.0
 40
0.0
 40
0.0
 40
0.0
 40
0.1663980738
 40
0.3475504099
 40
0.549384185
 40
0.7695456059
 40
1.0
 40
1.0
 40
1.0
 40
1.0
 10
7.4043440762
 20
5.1277448144
 30
0.0
 10
7.4039550091
 20
5.1500412609
 30
0.0
 10
7.3921750276
 20
5.1968658558
 30
0.0
 10
7.3465305189
 20
5.2565735947
 30
0.0
 10
7.2789385751
 20
5.3028828936
 30
0.0
 10
7.1958253758
 20
5.3325101287
 30
0.0
 10
7.1352729412
 20
5.3396073229
 30
0.0
 10
7.1043897676
 20
5.3398768485
 30
0.0
 11
7.4043440762
 21
5.1277448144
 31
0.0
 11
7.3887563916
 21
5.1928030205
 31
0.0
 11
7.3457654456
 21
5.2515924028
 31
0.0
 11
7.2795134689
 21
5.2984474223
 31
0.0
 11
7.1963845991
 21
5.3288523992
 31
0.0
 11
7.1043897676
 21
5.3398768485
 31
0.0
  0
SPLINE
  5
670
100
AcDbEntity
  8
ASSI
100
AcDbSpline
 62
253
  6
CONTINUOUS
 70
0
 71
3
 72
13
 73
9
 74
7
 42
0.0000001
 43
0.0000001
 44
0.0000000001
 12
0.1860199012
 22
0.4640617589
 32
0.0
 13
0.0000037631
 23
0.4999567178
 33
0.0
 40
0.0
 40
0.0
 40
0.0
 40
0.0
 40
0.0378218875
 40
0.1397846932
 40
0.2991078666
 40
0.5051686897
 40
0.7442254983
 40
1.0
 40
1.0
 40
1.0
 40
1.0
 10
6.9244656749
 20
3.1023100882
 30
0.0
 10
6.9268108828
 20
3.1081606521
 30
0.0
 10
6.9233890925
 20
3.1324434664
 30
0.0
 10
6.9276865706
 20
3.1813990275
 30
0.0
 10
6.9264403363
 20
3.2597453023
 30
0.0
 10
6.9276971631
 20
3.3602910782
 30
0.0
 10
6.9277599851
 20
3.4771593812
 30
0.0
 10
6.9278954405
 20
3.5596085423
 30
0.0
 10
6.9278957613
 20
3.6022339358
 30
0.0
 11
6.9244656749
 21
3.1023100882
 31
0.0
 11
6.9253567381
 21
3.1211983885
 31
0.0
 11
6.9261846533
 21
3.1721686547
 31
0.0
 11
6.9268946763
 21
3.251820181
 31
0.0
 11
6.9274387515
 21
3.3548402371
 31
0.0
 11
6.9277797494
 21
3.474357808
 31
0.0
 11
6.9278957613
 21
3.6022339358
 31
0.0
  0
SPLINE
  5
671
100
AcDbEntity
  8
ASSI
100
AcDbSpline
 62
253
  6
CONTINUOUS
 70
0
 71
3
 72
13
 73
9
 74
7
 42
0.0000001
 43
0.0000001
 44
0.0000000001
 12
0.0000037631
 22
-0.4999567178
 32
0.0
 13
0.1860199013
 23
-0.4640617589
 33
0.0
 40
0.0
 40
0.0
 40
0.0
 40
0.0
 40
0.2557745015
 40
0.4948313101
 40
0.7008921333
 40
0.8602153068
 40
0.9621781125
 40
1.0
 40
1.0
 40
1.0
 40
1.0
 10
7.1033672736
 20
3.6022339358
 30
0.0
 10
7.1033675944
 20
3.5596085424
 30
0.0
 10
7.1035030499
 20
3.4771593812
 30
0.0
 10
7.1035658719
 20
3.3602910783
 30
0.0
 10
7.1048226986
 20
3.2597453024
 30
0.0
 10
7.1035764643
 20
3.1813990275
 30
0.0
 10
7.1078739424
 20
3.1324434664
 30
0.0
 10
7.1044521521
 20
3.1081606521
 30
0.0
 10
7.10679736
 20
3.1023100882
 30
0.0
 11
7.1033672736
 21
3.6022339358
 31
0.0
 11
7.1034832855
 21
3.4743578081
 31
0.0
 11
7.1038242834
 21
3.3548402372
 31
0.0
 11
7.1043683586
 21
3.251820181
 31
0.0
 11
7.1050783816
 21
3.1721686547
 31
0.0
 11
7.1059062968
 21
3.1211983885
 31
0.0
 11
7.10679736
 21
3.1023100882
 31
0.0
  0
SPLINE
  5
672
100
AcDbEntity
  8
ASSI
100
AcDbSpline
 62
253
  6
CONTINUOUS
 70
0
 71
3
 72
9
 73
5
 74
3
 42
0.0000001
 43
0.0000001
 44
0.0000000001
 12
0.0053452796
 22
-1.6468770511
 32
0.0
 13
0.0076765739
 23
-1.6468678343
 33
0.0
 40
0.0
 40
0.0
 40
0.0
 40
0.0
 40
0.500013719
 40
1.0
 40
1.0
 40
1.0
 40
1.0
 10
-4.3763155216
 20
5.6170227386
 30
0.0
 10
-4.3754246172
 20
5.342535699
 30
0.0
 10
-4.373448537
 20
4.7935772955
 30
0.0
 10
-4.3710840004
 20
4.2446204278
 30
0.0
 10
-4.3698046065
 20
3.9701499865
 30
0.0
 11
-4.3763155216
 21
5.6170227386
 31
0.0
 11
-4.3733513633
 21
4.7935626171
 31
0.0
 11
-4.3698046065
 21
3.9701499865
 31
0.0
  0
SPLINE
  5
673
100
AcDbEntity
  8
ASSI
100
AcDbSpline
 62
253
  6
CONTINUOUS
 70
0
 71
3
 72
9
 73
5
 74
3
 42
0.0000001
 43
0.0000001
 44
0.0000000001
 12
0.0076765739
 22
1.6468678343
 32
0.0
 13
0.0053452796
 23
1.6468770511
 33
0.0
 40
0.0
 40
0.0
 40
0.0
 40
0.0
 40
0.4999867127
 40
1.0
 40
1.0
 40
1.0
 40
1.0
 10
4.1010676414
 20
3.9701499865
 30
0.0
 10
4.1023470364
 20
4.2446206648
 30
0.0
 10
4.1047115728
 20
4.7935775325
 30
0.0
 10
4.1066876529
 20
5.342535936
 30
0.0
 10
4.1075785565
 20
5.6170227386
 30
0.0
 11
4.1010676414
 21
3.9701499865
 31
0.0
 11
4.1046144011
 21
4.7935633281
 31
0.0
 11
4.1075785565
 21
5.6170227386
 31
0.0
  0
SPLINE
  5
674
100
AcDbEntity
  8
ASSI
100
AcDbSpline
 62
253
  6
CONTINUOUS
 70
0
 71
3
 72
11
 73
7
 74
5
 42
0.0000001
 43
0.0000001
 44
0.0000000001
 12
-0.0098331854
 22
0.5656207508
 32
0.0
 13
0.0000098444
 23
0.5657062181
 33
0.0
 40
0.0
 40
0.0
 40
0.0
 40
0.0
 40
0.2097951049
 40
0.4583292293
 40
0.7269157337
 40
1.0
 40
1.0
 40
1.0
 40
1.0
 10
6.614576364
 20
5.8348515956
 30
0.0
 10
6.6138887126
 20
5.8744064171
 30
0.0
 10
6.6126796128
 20
5.9608250634
 30
0.0
 10
6.6114274795
 20
6.0978933172
 30
0.0
 10
6.6106573488
 20
6.2468996049
 30
0.0
 10
6.6104854917
 20
6.3490418647
 30
0.0
 10
6.6104863878
 20
6.4005370205
 30
0.0
 11
6.614576364
 21
5.8348515956
 31
0.0
 11
6.6128697283
 21
5.9535217197
 31
0.0
 11
6.6115513596
 21
6.0941128381
 31
0.0
 11
6.6107492735
 21
6.2460517767
 31
0.0
 11
6.6104863878
 21
6.4005370205
 31
0.0
  0
SPLINE
  5
675
100
AcDbEntity
  8
ASSI
100
AcDbSpline
 62
253
  6
CONTINUOUS
 70
0
 71
3
 72
11
 73
7
 74
5
 42
0.0000001
 43
0.0000001
 44
0.0000000001
 12
-0.0000003835
 22
0.1414265542
 32
0.0
 13
-0.0024684792
 23
0.1414050099
 33
0.0
 40
0.0
 40
0.0
 40
0.0
 40
0.0
 40
0.2753968051
 40
0.5412973202
 40
0.7858857424
 40
1.0
 40
1.0
 40
1.0
 40
1.0
 10
6.6279414528
 20
4.9863234581
 30
0.0
 10
6.6279414176
 20
4.9993062652
 30
0.0
 10
6.6278985003
 20
5.0248242246
 30
0.0
 10
6.6277064741
 20
5.0618721837
 30
0.0
 10
6.6273951043
 20
5.0960302282
 30
0.0
 10
6.6270951376
 20
5.1176525381
 30
0.0
 10
6.6269189587
 20
5.1277448144
 30
0.0
 11
6.6279414528
 21
4.9863234581
 31
0.0
 11
6.6278746204
 21
5.025271822
 31
0.0
 11
6.6276755932
 21
5.0628766889
 31
0.0
 11
6.6273527648
 21
5.0974664802
 31
0.0
 11
6.6269189587
 21
5.1277448144
 31
0.0
  0
SPLINE
  5
676
100
AcDbEntity
  8
ASSI
100
AcDbSpline
 62
253
  6
CONTINUOUS
 70
0
 71
3
 72
13
 73
9
 74
7
 42
0.0000001
 43
0.0000001
 44
0.0000000001
 12
0.141041107
 22
0.141873385
 32
0.0
 13
0.0000012265
 23
0.2000516215
 33
0.0
 40
0.0
 40
0.0
 40
0.0
 40
0.0
 40
0.0379383612
 40
0.1398218345
 40
0.2991571384
 40
0.5055293226
 40
0.744720332
 40
1.0
 40
1.0
 40
1.0
 40
1.0
 10
6.6245113664
 20
3.4022643968
 30
0.0
 10
6.6262949892
 20
3.4040585447
 30
0.0
 10
6.6241595002
 20
3.4149431781
 30
0.0
 10
6.6273072117
 20
3.4334756198
 30
0.0
 10
6.6266627281
 20
3.465386505
 30
0.0
 10
6.6276808859
 20
3.5054277379
 30
0.0
 10
6.6278260615
 20
3.5522623156
 30
0.0
 10
6.6279413484
 20
3.5852108986
 30
0.0
 10
6.6279414528
 20
3.6022339358
 30
0.0
 11
6.6245113664
 21
3.4022643968
 31
0.0
 11
6.6254016604
 21
3.409801629
 31
0.0
 11
6.6262298188
 21
3.4301667513
 31
0.0
 11
6.626940091
 21
3.4620341227
 31
0.0
 11
6.627484557
 21
3.5033156225
 31
0.0
 11
6.627825738
 21
3.5511649554
 31
0.0
 11
6.6279414528
 21
3.6022339358
 31
0.0
  0
SPLINE
  5
677
100
AcDbEntity
  8
ASSI
100
AcDbSpline
 62
253
  6
CONTINUOUS
 70
0
 71
3
 72
13
 73
9
 74
7
 42
0.0000001
 43
0.0000001
 44
0.0000000001
 12
0.0000012265
 22
-0.2000516215
 32
0.0
 13
0.1410411064
 23
-0.1418733857
 33
0.0
 40
0.0
 40
0.0
 40
0.0
 40
0.0
 40
0.2552796677
 40
0.4944706773
 40
0.7008428616
 40
0.8601781655
 40
0.9620616388
 40
1.0
 40
1.0
 40
1.0
 40
1.0
 10
7.4033215821
 20
3.6022339358
 30
0.0
 10
7.4033216865
 20
3.5852108986
 30
0.0
 10
7.4034369734
 20
3.5522623156
 30
0.0
 10
7.403582149
 20
3.505427738
 30
0.0
 10
7.4046003069
 20
3.465386505
 30
0.0
 10
7.4039558232
 20
3.4334756198
 30
0.0
 10
7.4071035348
 20
3.4149431781
 30
0.0
 10
7.4049680457
 20
3.4040585447
 30
0.0
 10
7.4067516686
 20
3.4022643968
 30
0.0
 11
7.4033215821
 21
3.6022339358
 31
0.0
 11
7.4034372969
 21
3.5511649554
 31
0.0
 11
7.403778478
 21
3.5033156225
 31
0.0
 11
7.4043229439
 21
3.4620341228
 31
0.0
 11
7.4050332161
 21
3.4301667513
 31
0.0
 11
7.4058613745
 21
3.409801629
 31
0.0
 11
7.4067516686
 21
3.4022643968
 31
0.0
  0
SPLINE
  5
678
100
AcDbEntity
  8
ASSI
100
AcDbSpline
 62
253
  6
CONTINUOUS
 70
0
 71
3
 72
11
 73
7
 74
5
 42
0.0000001
 43
0.0000001
 44
0.0000000001
 12
-0.0024684792
 22
-0.1414050099
 32
0.0
 13
-0.0000003835
 23
-0.1414265542
 33
0.0
 40
0.0
 40
0.0
 40
0.0
 40
0.0
 40
0.2141142612
 40
0.458702684
 40
0.7246031997
 40
1.0
 40
1.0
 40
1.0
 40
1.0
 10
7.4043440762
 20
5.1277448144
 30
0.0
 10
7.4041678973
 20
5.117652538
 30
0.0
 10
7.4038679306
 20
5.0960302278
 30
0.0
 10
7.4035565608
 20
5.0618721831
 30
0.0
 10
7.4033645346
 20
5.0248242242
 30
0.0
 10
7.4033216173
 20
4.999306265
 30
0.0
 10
7.4033215821
 20
4.9863234581
 30
0.0
 11
7.4043440762
 21
5.1277448144
 31
0.0
 11
7.4039102701
 21
5.0974664797
 31
0.0
 11
7.4035874418
 21
5.0628766883
 31
0.0
 11
7.4033884145
 21
5.0252718213
 31
0.0
 11
7.4033215821
 21
4.9863234581
 31
0.0
  0
SPLINE
  5
679
100
AcDbEntity
  8
ASSI
100
AcDbSpline
 62
253
  6
CONTINUOUS
 70
0
 71
3
 72
11
 73
7
 74
5
 42
0.0000001
 43
0.0000001
 44
0.0000000001
 12
0.0000096882
 22
-0.5657062181
 32
0.0
 13
-0.0098336718
 23
-0.5656207424
 33
0.0
 40
0.0
 40
0.0
 40
0.0
 40
0.0
 40
0.2730824888
 40
0.5416689789
 40
0.7902032012
 40
1.0
 40
1.0
 40
1.0
 40
1.0
 10
7.4207766471
 20
6.4005370205
 30
0.0
 10
7.420777529
 20
6.3490421998
 30
0.0
 10
7.4206056948
 20
6.246900278
 30
0.0
 10
7.4198355657
 20
6.0978943095
 30
0.0
 10
7.4185834108
 20
5.960825721
 30
0.0
 10
7.4173743619
 20
5.8744067359
 30
0.0
 10
7.416686671
 20
5.8348515956
 30
0.0
 11
7.4207766471
 21
6.4005370205
 31
0.0
 11
7.4205137661
 21
6.2460527822
 31
0.0
 11
7.4197116822
 21
6.0941138517
 31
0.0
 11
7.4183933172
 21
5.9535226779
 31
0.0
 11
7.416686671
 21
5.8348515956
 31
0.0
  0
SPLINE
  5
67A
100
AcDbEntity
  8
ASSI
100
AcDbSpline
 62
253
  6
CONTINUOUS
 70
0
 71
3
 72
13
 73
9
 74
7
 42
0.0000001
 43
0.0000001
 44
0.0000000001
 12
0.0000012265
 22
-0.2000516215
 32
0.0
 13
0.1410411064
 23
-0.1418733857
 33
0.0
 40
0.0
 40
0.0
 40
0.0
 40
0.0
 40
0.2552796677
 40
0.4944706773
 40
0.7008428616
 40
0.8601781655
 40
0.9620616388
 40
1.0
 40
1.0
 40
1.0
 40
1.0
 10
-6.8966784179
 20
3.6022339358
 30
0.0
 10
-6.8966783135
 20
3.5852108986
 30
0.0
 10
-6.8965630266
 20
3.5522623156
 30
0.0
 10
-6.896417851
 20
3.505427738
 30
0.0
 10
-6.8953996931
 20
3.465386505
 30
0.0
 10
-6.8960441768
 20
3.4334756198
 30
0.0
 10
-6.8928964652
 20
3.4149431781
 30
0.0
 10
-6.8950319543
 20
3.4040585447
 30
0.0
 10
-6.8932483314
 20
3.4022643968
 30
0.0
 11
-6.8966784179
 21
3.6022339358
 31
0.0
 11
-6.8965627031
 21
3.5511649554
 31
0.0
 11
-6.896221522
 21
3.5033156225
 31
0.0
 11
-6.8956770561
 21
3.4620341228
 31
0.0
 11
-6.8949667839
 21
3.4301667513
 31
0.0
 11
-6.8941386255
 21
3.409801629
 31
0.0
 11
-6.8932483314
 21
3.4022643968
 31
0.0
  0
SPLINE
  5
67B
100
AcDbEntity
  8
ASSI
100
AcDbSpline
 62
253
  6
CONTINUOUS
 70
0
 71
3
 72
11
 73
7
 74
5
 42
0.0000001
 43
0.0000001
 44
0.0000000001
 12
-0.0024684792
 22
-0.1414050099
 32
0.0
 13
-0.0000003835
 23
-0.1414265542
 33
0.0
 40
0.0
 40
0.0
 40
0.0
 40
0.0
 40
0.2141142612
 40
0.458702684
 40
0.7246031997
 40
1.0
 40
1.0
 40
1.0
 40
1.0
 10
-6.8956559238
 20
5.1277448144
 30
0.0
 10
-6.8958321027
 20
5.117652538
 30
0.0
 10
-6.8961320694
 20
5.0960302278
 30
0.0
 10
-6.8964434392
 20
5.0618721831
 30
0.0
 10
-6.8966354654
 20
5.0248242242
 30
0.0
 10
-6.8966783827
 20
4.999306265
 30
0.0
 10
-6.8966784179
 20
4.9863234581
 30
0.0
 11
-6.8956559238
 21
5.1277448144
 31
0.0
 11
-6.8960897299
 21
5.0974664797
 31
0.0
 11
-6.8964125582
 21
5.0628766883
 31
0.0
 11
-6.8966115855
 21
5.0252718213
 31
0.0
 11
-6.8966784179
 21
4.9863234581
 31
0.0
  0
SPLINE
  5
67C
100
AcDbEntity
  8
ASSI
100
AcDbSpline
 62
253
  6
CONTINUOUS
 70
0
 71
3
 72
11
 73
7
 74
5
 42
0.0000001
 43
0.0000001
 44
0.0000000001
 12
0.0000096882
 22
-0.5657062181
 32
0.0
 13
-0.0098336718
 23
-0.5656207424
 33
0.0
 40
0.0
 40
0.0
 40
0.0
 40
0.0
 40
0.2730824888
 40
0.5416689789
 40
0.7902032012
 40
1.0
 40
1.0
 40
1.0
 40
1.0
 10
-6.8792233529
 20
6.4005370205
 30
0.0
 10
-6.879222471
 20
6.3490421998
 30
0.0
 10
-6.8793943052
 20
6.246900278
 30
0.0
 10
-6.8801644343
 20
6.0978943095
 30
0.0
 10
-6.8814165892
 20
5.960825721
 30
0.0
 10
-6.8826256381
 20
5.8744067359
 30
0.0
 10
-6.883313329
 20
5.8348515956
 30
0.0
 11
-6.8792233529
 21
6.4005370205
 31
0.0
 11
-6.8794862339
 21
6.2460527822
 31
0.0
 11
-6.8802883178
 21
6.0941138517
 31
0.0
 11
-6.8816066828
 21
5.9535226779
 31
0.0
 11
-6.883313329
 21
5.8348515956
 31
0.0
  0
SPLINE
  5
67D
100
AcDbEntity
  8
ASSI
100
AcDbSpline
 62
253
  6
CONTINUOUS
 70
0
 71
3
 72
11
 73
7
 74
5
 42
0.0000001
 43
0.0000001
 44
0.0000000001
 12
-0.0098331854
 22
0.5656207508
 32
0.0
 13
0.0000098444
 23
0.5657062181
 33
0.0
 40
0.0
 40
0.0
 40
0.0
 40
0.0
 40
0.2097951049
 40
0.4583292293
 40
0.7269157337
 40
1.0
 40
1.0
 40
1.0
 40
1.0
 10
-7.685423636
 20
5.8348515956
 30
0.0
 10
-7.6861112874
 20
5.8744064171
 30
0.0
 10
-7.6873203872
 20
5.9608250634
 30
0.0
 10
-7.6885725205
 20
6.0978933172
 30
0.0
 10
-7.6893426512
 20
6.2468996049
 30
0.0
 10
-7.6895145083
 20
6.3490418647
 30
0.0
 10
-7.6895136122
 20
6.4005370205
 30
0.0
 11
-7.685423636
 21
5.8348515956
 31
0.0
 11
-7.6871302717
 21
5.9535217197
 31
0.0
 11
-7.6884486404
 21
6.0941128381
 31
0.0
 11
-7.6892507265
 21
6.2460517767
 31
0.0
 11
-7.6895136122
 21
6.4005370205
 31
0.0
  0
SPLINE
  5
67E
100
AcDbEntity
  8
ASSI
100
AcDbSpline
 62
253
  6
CONTINUOUS
 70
0
 71
3
 72
11
 73
7
 74
5
 42
0.0000001
 43
0.0000001
 44
0.0000000001
 12
-0.0000003835
 22
0.1414265542
 32
0.0
 13
-0.0024684792
 23
0.1414050099
 33
0.0
 40
0.0
 40
0.0
 40
0.0
 40
0.0
 40
0.2753968051
 40
0.5412973202
 40
0.7858857424
 40
1.0
 40
1.0
 40
1.0
 40
1.0
 10
-7.6720585472
 20
4.9863234581
 30
0.0
 10
-7.6720585824
 20
4.9993062652
 30
0.0
 10
-7.6721014997
 20
5.0248242246
 30
0.0
 10
-7.6722935259
 20
5.0618721837
 30
0.0
 10
-7.6726048957
 20
5.0960302282
 30
0.0
 10
-7.6729048624
 20
5.1176525381
 30
0.0
 10
-7.6730810413
 20
5.1277448144
 30
0.0
 11
-7.6720585472
 21
4.9863234581
 31
0.0
 11
-7.6721253796
 21
5.025271822
 31
0.0
 11
-7.6723244068
 21
5.0628766889
 31
0.0
 11
-7.6726472352
 21
5.0974664802
 31
0.0
 11
-7.6730810413
 21
5.1277448144
 31
0.0
  0
SPLINE
  5
67F
100
AcDbEntity
  8
ASSI
100
AcDbSpline
 62
253
  6
CONTINUOUS
 70
0
 71
3
 72
13
 73
9
 74
7
 42
0.0000001
 43
0.0000001
 44
0.0000000001
 12
0.141041107
 22
0.141873385
 32
0.0
 13
0.0000012265
 23
0.2000516215
 33
0.0
 40
0.0
 40
0.0
 40
0.0
 40
0.0
 40
0.0379383612
 40
0.1398218345
 40
0.2991571384
 40
0.5055293226
 40
0.744720332
 40
1.0
 40
1.0
 40
1.0
 40
1.0
 10
-7.6754886336
 20
3.4022643968
 30
0.0
 10
-7.6737050108
 20
3.4040585447
 30
0.0
 10
-7.6758404998
 20
3.4149431781
 30
0.0
 10
-7.6726927883
 20
3.4334756198
 30
0.0
 10
-7.6733372719
 20
3.465386505
 30
0.0
 10
-7.6723191141
 20
3.5054277379
 30
0.0
 10
-7.6721739385
 20
3.5522623156
 30
0.0
 10
-7.6720586516
 20
3.5852108986
 30
0.0
 10
-7.6720585472
 20
3.6022339358
 30
0.0
 11
-7.6754886336
 21
3.4022643968
 31
0.0
 11
-7.6745983396
 21
3.409801629
 31
0.0
 11
-7.6737701812
 21
3.4301667513
 31
0.0
 11
-7.673059909
 21
3.4620341227
 31
0.0
 11
-7.672515443
 21
3.5033156225
 31
0.0
 11
-7.672174262
 21
3.5511649554
 31
0.0
 11
-7.6720585472
 21
3.6022339358
 31
0.0
  0
SPLINE
  5
680
100
AcDbEntity
  8
ASSI
100
AcDbSpline
 62
253
  6
CONTINUOUS
 70
0
 71
3
 72
9
 73
5
 74
3
 42
0.0000001
 43
0.0000001
 44
0.0000000001
 12
0.0003603392
 22
-6.1661325534
 32
0.0
 13
0.0019281047
 23
-6.1661322625
 33
0.0
 40
0.0
 40
0.0
 40
0.0
 40
0.0
 40
0.5000355593
 40
1.0
 40
1.0
 40
1.0
 40
1.0
 10
10.9887784387
 20
7.9759243813
 30
0.0
 10
10.9888384995
 20
6.9481625346
 30
0.0
 10
10.9890892456
 20
4.8927850223
 30
0.0
 10
10.9896012721
 20
2.8374075586
 30
0.0
 10
10.9899226
 20
1.809791936
 30
0.0
 11
10.9887784387
 21
7.9759243813
 31
0.0
 11
10.9891545928
 21
4.8926388587
 31
0.0
 11
10.9899226
 21
1.809791936
 31
0.0
  0
LINE
  5
681
100
AcDbEntity
  8
ASSI
100
AcDbLine
 62
253
  6
CONTINUOUS
 10
10.9901627074
 20
1.07730865
 11
10.9909602887
 21
-0.9912457526
  0
LINE
  5
682
100
AcDbEntity
  8
ASSI
100
AcDbLine
 62
253
  6
CONTINUOUS
 10
10.9929024316
 20
-4.8199516258
 11
10.993682893
 21
-6.093968357
  0
LINE
  5
683
100
AcDbEntity
  8
ASSI
100
AcDbLine
 62
253
  6
CONTINUOUS
 10
10.9941567787
 20
-6.8186972787
 11
10.9945071913
 21
-7.3343836793
  0
LINE
  5
684
100
AcDbEntity
  8
ASSI
100
AcDbLine
 62
253
  6
CONTINUOUS
 10
-11.2624198581
 20
-6.093968357
 11
-11.2616393967
 21
-4.8199516258
  0
LINE
  5
685
100
AcDbEntity
  8
ASSI
100
AcDbLine
 62
253
  6
CONTINUOUS
 10
-11.2632441564
 20
-7.3343836793
 11
-11.2628937438
 21
-6.8186972787
  0
LINE
  5
686
100
AcDbEntity
  8
ASSI
100
AcDbLine
 62
253
  6
CONTINUOUS
 10
-11.2596972537
 20
-0.9912457526
 11
-11.2588996725
 21
1.07730865
  0
SPLINE
  5
687
100
AcDbEntity
  8
ASSI
100
AcDbSpline
 62
253
  6
CONTINUOUS
 70
0
 71
3
 72
9
 73
5
 74
3
 42
0.0000001
 43
0.0000001
 44
0.0000000001
 12
0.0019281047
 22
6.1661322625
 32
0.0
 13
0.0003603392
 23
6.1661325534
 33
0.0
 40
0.0
 40
0.0
 40
0.0
 40
0.0
 40
0.4999644622
 40
1.0
 40
1.0
 40
1.0
 40
1.0
 10
-11.2586595651
 20
1.809791936
 30
0.0
 10
-11.2583382371
 20
2.8374076028
 30
0.0
 10
-11.2578262107
 20
4.8927850665
 30
0.0
 10
-11.2575754646
 20
6.9481625787
 30
0.0
 10
-11.2575154038
 20
7.9759243813
 30
0.0
 11
-11.2586595651
 21
1.809791936
 31
0.0
 11
-11.2578915579
 21
4.8926389912
 31
0.0
 11
-11.2575154038
 21
7.9759243813
 31
0.0
  0
SPLINE
  5
688
100
AcDbEntity
  8
ASSI
100
AcDbSpline
 62
7
  6
CONTINUOUS
 70
0
 71
3
 72
12
 73
8
 74
6
 42
0.0000001
 43
0.0000001
 44
0.0000000001
 12
0.3000709641
 22
-0.0
 32
0.0
 13
0.2121822176
 23
0.2121822095
 33
0.0
 40
0.0
 40
0.0
 40
0.0
 40
0.0
 40
0.3041016913
 40
0.5820964833
 40
0.8023227261
 40
0.9471197879
 40
1.0
 40
1.0
 40
1.0
 40
1.0
 10
10.6888243723
 20
7.9707795234
 30
0.0
 10
10.7192417349
 20
7.9707795234
 30
0.0
 10
10.7776200209
 20
7.9706481945
 30
0.0
 10
10.8572658392
 20
7.9724131536
 30
0.0
 10
10.9231314683
 20
7.9705872254
 30
0.0
 10
10.9618714696
 20
7.9773212651
 30
0.0
 10
10.9850383585
 20
7.9721843013
 30
0.0
 10
10.9887784387
 20
7.9759243813
 30
0.0
 11
10.6888243723
 21
7.9707795234
 31
0.0
 11
10.7800761227
 21
7.9710276325
 31
0.0
 11
10.8634910858
 21
7.9717585464
 31
0.0
 11
10.9295648771
 21
7.9728913301
 31
0.0
 11
10.9729902102
 21
7.9743371091
 31
0.0
 11
10.9887784387
 21
7.9759243813
 31
0.0
  0
SPLINE
  5
689
100
AcDbEntity
  8
ASSI
100
AcDbSpline
 62
7
  6
CONTINUOUS
 70
0
 71
3
 72
12
 73
8
 74
6
 42
0.0000001
 43
0.0000001
 44
0.0000000001
 12
0.2121822176
 22
-0.2121822095
 32
0.0
 13
0.3000709641
 23
0.0
 33
0.0
 40
0.0
 40
0.0
 40
0.0
 40
0.0
 40
0.0528802121
 40
0.1976772739
 40
0.4179035167
 40
0.6958983087
 40
1.0
 40
1.0
 40
1.0
 40
1.0
 10
-11.2575154038
 20
7.9759243813
 30
0.0
 10
-11.2537753236
 20
7.9721843013
 30
0.0
 10
-11.2306084346
 20
7.9773212651
 30
0.0
 10
-11.1918684334
 20
7.9705872254
 30
0.0
 10
-11.1260028043
 20
7.9724131536
 30
0.0
 10
-11.0463569859
 20
7.9706481945
 30
0.0
 10
-10.9879787
 20
7.9707795234
 30
0.0
 10
-10.9575613374
 20
7.9707795234
 30
0.0
 11
-11.2575154038
 21
7.9759243813
 31
0.0
 11
-11.2417271753
 21
7.9743371091
 31
0.0
 11
-11.1983018422
 21
7.9728913301
 31
0.0
 11
-11.1322280508
 21
7.9717585464
 31
0.0
 11
-11.0488130878
 21
7.9710276325
 31
0.0
 11
-10.9575613374
 21
7.9707795234
 31
0.0
  0
SPLINE
  5
68A
100
AcDbEntity
  8
ASSI
100
AcDbSpline
 62
7
  6
CONTINUOUS
 70
0
 71
3
 72
12
 73
8
 74
6
 42
0.0000001
 43
0.0000001
 44
0.0000000001
 12
0.3000740987
 22
-0.0
 32
0.0
 13
0.2121856528
 23
0.2121832073
 33
0.0
 40
0.0
 40
0.0
 40
0.0
 40
0.0
 40
0.3040972291
 40
0.5820915378
 40
0.8023192843
 40
0.9471184771
 40
1.0
 40
1.0
 40
1.0
 40
1.0
 10
10.6929452377
 20
-4.8250966914
 30
0.0
 10
10.7233624717
 20
-4.8250966914
 30
0.0
 10
10.7817408667
 20
-4.8252280073
 30
0.0
 10
10.861387189
 20
-4.8234630439
 30
0.0
 10
10.9272537983
 20
-4.8252889325
 30
0.0
 10
10.9659947127
 20
-4.8185547931
 30
0.0
 10
10.9891621981
 20
-4.8236918161
 30
0.0
 10
10.9929024316
 20
-4.8199516258
 30
0.0
 11
10.6929452377
 21
-4.8250966914
 31
0.0
 11
10.7841966023
 21
-4.8248485768
 31
0.0
 11
10.8676122915
 21
-4.8241176409
 31
0.0
 11
10.9336872239
 21
-4.8229848148
 31
0.0
 11
10.9771136489
 21
-4.821538974
 31
0.0
 11
10.9929024316
 21
-4.8199516258
 31
0.0
  0
SPLINE
  5
68B
100
AcDbEntity
  8
ASSI
100
AcDbSpline
 62
7
  6
CONTINUOUS
 70
0
 71
3
 72
12
 73
8
 74
6
 42
0.0000001
 43
0.0000001
 44
0.0000000001
 12
0.2121856528
 22
-0.2121832073
 32
0.0
 13
0.3000740987
 23
0.0
 33
0.0
 40
0.0
 40
0.0
 40
0.0
 40
0.0
 40
0.0528815229
 40
0.1976807157
 40
0.4179084622
 40
0.6959027709
 40
1.0
 40
1.0
 40
1.0
 40
1.0
 10
-11.2616393967
 20
-4.8199516258
 30
0.0
 10
-11.2578991632
 20
-4.8236918161
 30
0.0
 10
-11.2347316778
 20
-4.8185547931
 30
0.0
 10
-11.1959907633
 20
-4.8252889325
 30
0.0
 10
-11.130124154
 20
-4.8234630439
 30
0.0
 10
-11.0504778317
 20
-4.8252280073
 30
0.0
 10
-10.9920994367
 20
-4.8250966914
 30
0.0
 10
-10.9616822028
 20
-4.8250966914
 30
0.0
 11
-11.2616393967
 21
-4.8199516258
 31
0.0
 11
-11.245850614
 21
-4.821538974
 31
0.0
 11
-11.2024241889
 21
-4.8229848148
 31
0.0
 11
-11.1363492566
 21
-4.8241176409
 31
0.0
 11
-11.0529335674
 21
-4.8248485768
 31
0.0
 11
-10.9616822028
 21
-4.8250966914
 31
0.0
  0
SPLINE
  5
68C
100
AcDbEntity
  8
ASSI
100
AcDbSpline
 62
7
  6
CONTINUOUS
 70
0
 71
3
 72
12
 73
8
 74
6
 42
0.0000001
 43
0.0000001
 44
0.0000000001
 12
-0.2121859816
 22
0.212186588
 32
0.0
 13
-0.3000767217
 23
0.0
 33
0.0
 40
0.0
 40
0.0
 40
0.0
 40
0.0
 40
0.0529127559
 40
0.197756379
 40
0.4180080058
 40
0.6959861204
 40
1.0
 40
1.0
 40
1.0
 40
1.0
 10
10.9909602887
 20
-0.9912457526
 30
0.0
 10
10.9872178403
 20
-0.9875032936
 30
0.0
 10
10.9640412263
 20
-0.9926411912
 30
0.0
 10
10.9252905985
 20
-0.9859057574
 30
0.0
 10
10.8594182902
 20
-0.9877305519
 30
0.0
 10
10.7797786629
 20
-0.9859657557
 30
0.0
 10
10.7214097938
 20
-0.9860968455
 30
0.0
 10
10.691000631
 20
-0.9860968455
 30
0.0
 11
10.9909602887
 21
-0.9912457526
 31
0.0
 11
10.9751621095
 21
-0.9896567879
 31
0.0
 11
10.9317220028
 21
-0.988209799
 31
0.0
 11
10.8656393378
 21
-0.9870762695
 31
0.0
 11
10.7822277818
 21
-0.9863450094
 31
0.0
 11
10.691000631
 21
-0.9860968455
 31
0.0
  0
SPLINE
  5
68D
100
AcDbEntity
  8
ASSI
100
AcDbSpline
 62
7
  6
CONTINUOUS
 70
0
 71
3
 72
12
 73
8
 74
6
 42
0.0000001
 43
0.0000001
 44
0.0000000001
 12
-0.3000767217
 22
-0.0
 32
0.0
 13
-0.2121859816
 23
-0.212186588
 33
0.0
 40
0.0
 40
0.0
 40
0.0
 40
0.0
 40
0.3040138796
 40
0.5819919942
 40
0.802243621
 40
0.9470872441
 40
1.0
 40
1.0
 40
1.0
 40
1.0
 10
-10.9597375961
 20
-0.9860968455
 30
0.0
 10
-10.9901467589
 20
-0.9860968455
 30
0.0
 10
-11.048515628
 20
-0.9859657557
 30
0.0
 10
-11.1281552553
 20
-0.9877305519
 30
0.0
 10
-11.1940275636
 20
-0.9859057574
 30
0.0
 10
-11.2327781914
 20
-0.9926411912
 30
0.0
 10
-11.2559548054
 20
-0.9875032936
 30
0.0
 10
-11.2596972537
 20
-0.9912457526
 30
0.0
 11
-10.9597375961
 21
-0.9860968455
 31
0.0
 11
-11.0509647469
 21
-0.9863450094
 31
0.0
 11
-11.1343763029
 21
-0.9870762695
 31
0.0
 11
-11.2004589679
 21
-0.988209799
 31
0.0
 11
-11.2438990746
 21
-0.9896567879
 31
0.0
 11
-11.2596972537
 21
-0.9912457526
 31
0.0
  0
SPLINE
  5
68E
100
AcDbEntity
  8
ASSI
100
AcDbSpline
 62
7
  6
CONTINUOUS
 70
0
 71
3
 72
12
 73
8
 74
6
 42
0.0000001
 43
0.0000001
 44
0.0000000001
 12
0.2121872725
 22
-0.2121835264
 32
0.0
 13
0.3000754696
 23
0.0
 33
0.0
 40
0.0
 40
0.0
 40
0.0
 40
0.0
 40
0.0528851833
 40
0.1976896626
 40
0.4179203758
 40
0.6959128578
 40
1.0
 40
1.0
 40
1.0
 40
1.0
 10
-11.2628937438
 20
-6.8186972787
 30
0.0
 10
-11.2591532229
 20
-6.8224377336
 30
0.0
 10
-11.2359846093
 20
-6.8173006138
 30
0.0
 10
-11.1972423672
 20
-6.8240349075
 30
0.0
 10
-11.1313748385
 20
-6.8222091509
 30
0.0
 10
-11.0517290207
 20
-6.8239740959
 30
0.0
 10
-10.9933515616
 20
-6.8238428088
 30
0.0
 10
-10.9629351976
 20
-6.8238428088
 30
0.0
 11
-11.2628937438
 21
-6.8186972787
 31
0.0
 11
-11.2471038035
 21
-6.8202848183
 31
0.0
 11
-11.2036755973
 21
-6.8217307977
 31
0.0
 11
-11.1375994741
 21
-6.8228637104
 31
0.0
 11
-11.0541839522
 21
-6.8235946869
 31
0.0
 11
-10.9629351976
 21
-6.8238428088
 31
0.0
  0
SPLINE
  5
68F
100
AcDbEntity
  8
ASSI
100
AcDbSpline
 62
7
  6
CONTINUOUS
 70
0
 71
3
 72
12
 73
8
 74
6
 42
0.0000001
 43
0.0000001
 44
0.0000000001
 12
-0.300081786
 22
0.0
 32
0.0
 13
-0.2121906568
 23
-0.2121890748
 33
0.0
 40
0.0
 40
0.0
 40
0.0
 40
0.0
 40
0.3039485293
 40
0.5819142421
 40
0.8021848151
 40
0.9470630692
 40
1.0
 40
1.0
 40
1.0
 40
1.0
 10
-10.9624552596
 20
-6.0888164344
 30
0.0
 10
-10.9928583988
 20
-6.0888164344
 30
0.0
 10
-11.0512204097
 20
-6.0886855258
 30
0.0
 10
-11.1308556518
 20
-6.0904501965
 30
0.0
 10
-11.1967330833
 20
-6.0886262583
 30
0.0
 10
-11.2354917661
 20
-6.095362705
 30
0.0
 10
-11.2586756174
 20
-6.0902241442
 30
0.0
 10
-11.2624198581
 20
-6.093968357
 30
0.0
 11
-10.9624552596
 21
-6.0888164344
 31
0.0
 11
-11.0536643394
 21
-6.0890646407
 31
0.0
 11
-11.1370735792
 21
-6.0897961593
 31
0.0
 11
-11.2031630365
 21
-6.0909302448
 31
0.0
 11
-11.246614245
 21
-6.0923781346
 31
0.0
 11
-11.2624198581
 21
-6.093968357
 31
0.0
  0
SPLINE
  5
690
100
AcDbEntity
  8
ASSI
100
AcDbSpline
 62
7
  6
CONTINUOUS
 70
0
 71
3
 72
12
 73
8
 74
6
 42
0.0000001
 43
0.0000001
 44
0.0000000001
 12
0.212182242
 22
-0.2121828612
 32
0.0
 13
0.3000714422
 23
-0.0
 33
0.0
 40
0.0
 40
0.0
 40
0.0
 40
0.0
 40
0.0528761536
 40
0.1976675351
 40
0.4178908253
 40
0.6958877974
 40
1.0
 40
1.0
 40
1.0
 40
1.0
 10
-11.2588996725
 20
1.07730865
 30
0.0
 10
-11.2551598789
 20
1.0735688455
 30
0.0
 10
-11.2319940815
 20
1.0787057326
 30
0.0
 10
-11.1932552331
 20
1.071971819
 30
0.0
 10
-11.1273901222
 20
1.0737979048
 30
0.0
 10
-11.0477432296
 20
1.0720329145
 30
0.0
 10
-10.9893635701
 20
1.0721642741
 30
0.0
 10
-10.9589451077
 20
1.0721642741
 30
0.0
 11
-11.2588996725
 21
1.07730865
 31
0.0
 11
-11.2431126219
 21
1.0757215836
 31
0.0
 11
-11.1996889202
 21
1.0742759486
 31
0.0
 11
-11.1336159081
 21
1.0731432517
 31
0.0
 11
-11.0502001576
 21
1.0724123771
 31
0.0
 11
-10.9589451077
 21
1.0721642741
 31
0.0
  0
SPLINE
  5
691
100
AcDbEntity
  8
ASSI
100
AcDbSpline
 62
7
  6
CONTINUOUS
 70
0
 71
3
 72
12
 73
8
 74
6
 42
0.0000001
 43
0.0000001
 44
0.0000000001
 12
-0.3000746033
 22
-0.0
 32
0.0
 13
-0.2121845123
 23
-0.2121850614
 33
0.0
 40
0.0
 40
0.0
 40
0.0
 40
0.0
 40
0.3040426971
 40
0.5820262833
 40
0.8022695576
 40
0.9470979026
 40
1.0
 40
1.0
 40
1.0
 40
1.0
 10
-10.9587019713
 20
1.8149395131
 30
0.0
 10
-10.9891138018
 20
1.8149395131
 30
0.0
 10
-11.0474857168
 20
1.8150706814
 30
0.0
 10
-11.1271273124
 20
1.8133058329
 30
0.0
 10
-11.1929973773
 20
1.8151309978
 30
0.0
 10
-11.231744486
 20
1.8083960252
 30
0.0
 10
-11.2549178965
 20
1.8135336143
 30
0.0
 10
-11.2586595651
 20
1.809791936
 30
0.0
 11
-10.9587019713
 21
1.8149395131
 31
0.0
 11
-11.0499371255
 21
1.8146913674
 31
0.0
 11
-11.1333497356
 21
1.8139602213
 31
0.0
 11
-11.1994294314
 21
1.8128269372
 31
0.0
 11
-11.2428646572
 21
1.8113803457
 31
0.0
 11
-11.2586595651
 21
1.809791936
 31
0.0
  0
SPLINE
  5
692
100
AcDbEntity
  8
ASSI
100
AcDbSpline
 62
7
  6
CONTINUOUS
 70
0
 71
3
 72
12
 73
8
 74
6
 42
0.0000001
 43
0.0000001
 44
0.0000000001
 12
-0.2121906568
 22
0.2121890748
 32
0.0
 13
-0.300081786
 23
-0.0
 33
0.0
 40
0.0
 40
0.0
 40
0.0
 40
0.0
 40
0.0529369308
 40
0.1978151849
 40
0.4180857579
 40
0.6960514707
 40
1.0
 40
1.0
 40
1.0
 40
1.0
 10
10.993682893
 20
-6.093968357
 30
0.0
 10
10.9899386523
 20
-6.0902241442
 30
0.0
 10
10.9667548011
 20
-6.095362705
 30
0.0
 10
10.9279961182
 20
-6.0886262583
 30
0.0
 10
10.8621186867
 20
-6.0904501965
 30
0.0
 10
10.7824834446
 20
-6.0886855258
 30
0.0
 10
10.7241214337
 20
-6.0888164344
 30
0.0
 10
10.6937182945
 20
-6.0888164344
 30
0.0
 11
10.993682893
 21
-6.093968357
 31
0.0
 11
10.9778772799
 21
-6.0923781346
 31
0.0
 11
10.9344260714
 21
-6.0909302448
 31
0.0
 11
10.8683366141
 21
-6.0897961593
 31
0.0
 11
10.7849273743
 21
-6.0890646407
 31
0.0
 11
10.6937182945
 21
-6.0888164344
 31
0.0
  0
SPLINE
  5
693
100
AcDbEntity
  8
ASSI
100
AcDbSpline
 62
7
  6
CONTINUOUS
 70
0
 71
3
 72
12
 73
8
 74
6
 42
0.0000001
 43
0.0000001
 44
0.0000000001
 12
0.3000754696
 22
-0.0
 32
0.0
 13
0.2121872724
 23
0.2121835264
 33
0.0
 40
0.0
 40
0.0
 40
0.0
 40
0.0
 40
0.3040871422
 40
0.5820796242
 40
0.8023103374
 40
0.9471148167
 40
1.0
 40
1.0
 40
1.0
 40
1.0
 10
10.6941982325
 20
-6.8238428088
 30
0.0
 10
10.7246145965
 20
-6.8238428088
 30
0.0
 10
10.7829920556
 20
-6.8239740959
 30
0.0
 10
10.8626378734
 20
-6.8222091509
 30
0.0
 10
10.9285054021
 20
-6.8240349075
 30
0.0
 10
10.9672476443
 20
-6.8173006138
 30
0.0
 10
10.9904162578
 20
-6.8224377336
 30
0.0
 10
10.9941567787
 20
-6.8186972787
 30
0.0
 11
10.6941982325
 21
-6.8238428088
 31
0.0
 11
10.7854469872
 21
-6.8235946869
 31
0.0
 11
10.868862509
 21
-6.8228637104
 31
0.0
 11
10.9349386322
 21
-6.8217307977
 31
0.0
 11
10.9783668384
 21
-6.8202848183
 31
0.0
 11
10.9941567787
 21
-6.8186972787
 31
0.0
  0
SPLINE
  5
694
100
AcDbEntity
  8
ASSI
100
AcDbSpline
 62
7
  6
CONTINUOUS
 70
0
 71
3
 72
12
 73
8
 74
6
 42
0.0000001
 43
0.0000001
 44
0.0000000001
 12
-0.2121845123
 22
0.2121850614
 32
0.0
 13
-0.3000746033
 23
0.0
 33
0.0
 40
0.0
 40
0.0
 40
0.0
 40
0.0
 40
0.0529020974
 40
0.1977304424
 40
0.4179737167
 40
0.6959573029
 40
1.0
 40
1.0
 40
1.0
 40
1.0
 10
10.9899226
 20
1.809791936
 30
0.0
 10
10.9861809314
 20
1.8135336143
 30
0.0
 10
10.9630075209
 20
1.8083960252
 30
0.0
 10
10.9242604122
 20
1.8151309978
 30
0.0
 10
10.8583903473
 20
1.8133058329
 30
0.0
 10
10.7787487517
 20
1.8150706814
 30
0.0
 10
10.7203768368
 20
1.8149395131
 30
0.0
 10
10.6899650062
 20
1.8149395131
 30
0.0
 11
10.9899226
 21
1.809791936
 31
0.0
 11
10.9741276921
 21
1.8113803457
 31
0.0
 11
10.9306924663
 21
1.8128269372
 31
0.0
 11
10.8646127705
 21
1.8139602213
 31
0.0
 11
10.7812001605
 21
1.8146913674
 31
0.0
 11
10.6899650062
 21
1.8149395131
 31
0.0
  0
SPLINE
  5
695
100
AcDbEntity
  8
ASSI
100
AcDbSpline
 62
7
  6
CONTINUOUS
 70
0
 71
3
 72
12
 73
8
 74
6
 42
0.0000001
 43
0.0000001
 44
0.0000000001
 12
0.3000714422
 22
0.0
 32
0.0
 13
0.212182242
 23
0.2121828612
 33
0.0
 40
0.0
 40
0.0
 40
0.0
 40
0.0
 40
0.3041122026
 40
0.5821091747
 40
0.8023324649
 40
0.9471238464
 40
1.0
 40
1.0
 40
1.0
 40
1.0
 10
10.6902081426
 20
1.0721642741
 30
0.0
 10
10.720626605
 20
1.0721642741
 30
0.0
 10
10.7790062645
 20
1.0720329145
 30
0.0
 10
10.8586531571
 20
1.0737979048
 30
0.0
 10
10.9245182681
 20
1.071971819
 30
0.0
 10
10.9632571164
 20
1.0787057326
 30
0.0
 10
10.9864229138
 20
1.0735688455
 30
0.0
 10
10.9901627074
 20
1.07730865
 30
0.0
 11
10.6902081426
 21
1.0721642741
 31
0.0
 11
10.7814631925
 21
1.0724123771
 31
0.0
 11
10.8648789431
 21
1.0731432517
 31
0.0
 11
10.9309519551
 21
1.0742759486
 31
0.0
 11
10.9743756568
 21
1.0757215836
 31
0.0
 11
10.9901627074
 21
1.07730865
 31
0.0
  0
SPLINE
  5
696
100
AcDbEntity
  8
ASSI
100
AcDbSpline
 62
253
  6
CONTINUOUS
 70
0
 71
3
 72
13
 73
9
 74
7
 42
0.0000001
 43
0.0000001
 44
0.0000000001
 12
0.0000037631
 22
-0.4999567178
 32
0.0
 13
0.1860199013
 23
-0.4640617589
 33
0.0
 40
0.0
 40
0.0
 40
0.0
 40
0.0
 40
0.2557745015
 40
0.4948313101
 40
0.7008921333
 40
0.8602153068
 40
0.9621781125
 40
1.0
 40
1.0
 40
1.0
 40
1.0
 10
-7.1966327264
 20
3.6022339358
 30
0.0
 10
-7.1966324056
 20
3.5596085424
 30
0.0
 10
-7.1964969501
 20
3.4771593812
 30
0.0
 10
-7.1964341281
 20
3.3602910783
 30
0.0
 10
-7.1951773014
 20
3.2597453024
 30
0.0
 10
-7.1964235357
 20
3.1813990275
 30
0.0
 10
-7.1921260576
 20
3.1324434664
 30
0.0
 10
-7.1955478479
 20
3.1081606521
 30
0.0
 10
-7.19320264
 20
3.1023100882
 30
0.0
 11
-7.1966327264
 21
3.6022339358
 31
0.0
 11
-7.1965167145
 21
3.4743578081
 31
0.0
 11
-7.1961757166
 21
3.3548402372
 31
0.0
 11
-7.1956316414
 21
3.251820181
 31
0.0
 11
-7.1949216184
 21
3.1721686547
 31
0.0
 11
-7.1940937032
 21
3.1211983885
 31
0.0
 11
-7.19320264
 21
3.1023100882
 31
0.0
  0
SPLINE
  5
697
100
AcDbEntity
  8
ASSI
100
AcDbSpline
 62
253
  6
CONTINUOUS
 70
0
 71
3
 72
13
 73
9
 74
7
 42
0.0000001
 43
0.0000001
 44
0.0000000001
 12
0.1860199012
 22
0.4640617589
 32
0.0
 13
0.0000037631
 23
0.4999567178
 33
0.0
 40
0.0
 40
0.0
 40
0.0
 40
0.0
 40
0.0378218875
 40
0.1397846932
 40
0.2991078666
 40
0.5051686897
 40
0.7442254983
 40
1.0
 40
1.0
 40
1.0
 40
1.0
 10
-7.3755343251
 20
3.1023100882
 30
0.0
 10
-7.3731891172
 20
3.1081606521
 30
0.0
 10
-7.3766109075
 20
3.1324434664
 30
0.0
 10
-7.3723134294
 20
3.1813990275
 30
0.0
 10
-7.3735596637
 20
3.2597453023
 30
0.0
 10
-7.3723028369
 20
3.3602910782
 30
0.0
 10
-7.3722400149
 20
3.4771593812
 30
0.0
 10
-7.3721045595
 20
3.5596085423
 30
0.0
 10
-7.3721042387
 20
3.6022339358
 30
0.0
 11
-7.3755343251
 21
3.1023100882
 31
0.0
 11
-7.3746432619
 21
3.1211983885
 31
0.0
 11
-7.3738153467
 21
3.1721686547
 31
0.0
 11
-7.3731053237
 21
3.251820181
 31
0.0
 11
-7.3725612485
 21
3.3548402371
 31
0.0
 11
-7.3722202506
 21
3.474357808
 31
0.0
 11
-7.3721042387
 21
3.6022339358
 31
0.0
  0
SPLINE
  5
698
100
AcDbEntity
  8
ASSI
100
AcDbSpline
 62
253
  6
CONTINUOUS
 70
0
 71
3
 72
11
 73
7
 74
5
 42
0.0000001
 43
0.0000001
 44
0.0000000001
 12
-0.0098781004
 22
0.3534330094
 32
0.0
 13
0.0000006738
 23
0.3535710239
 33
0.0
 40
0.0
 40
0.0
 40
0.0
 40
0.0
 40
0.210108614
 40
0.4581332567
 40
0.7266954159
 40
1.0
 40
1.0
 40
1.0
 40
1.0
 10
6.9145306725
 20
6.0469836299
 30
0.0
 10
6.9138388479
 20
6.0717367365
 30
0.0
 10
6.9126361399
 20
6.1257184475
 30
0.0
 10
6.9113815966
 20
6.2113559902
 30
0.0
 10
6.9106116791
 20
6.3044476016
 30
0.0
 10
6.9104406773
 20
6.3683105262
 30
0.0
 10
6.9104407387
 20
6.4005213868
 30
0.0
 11
6.9145306725
 21
6.0469836299
 31
0.0
 11
6.9128222932
 21
6.1212523016
 31
0.0
 11
6.9115065604
 21
6.2089367576
 31
0.0
 11
6.9107040362
 21
6.3038891638
 31
0.0
 11
6.9104407387
 21
6.4005213868
 31
0.0
  0
SPLINE
  5
699
100
AcDbEntity
  8
ASSI
100
AcDbSpline
 62
253
  6
CONTINUOUS
 70
0
 71
3
 72
11
 73
7
 74
5
 42
0.0000001
 43
0.0000001
 44
0.0000000001
 12
0.000000661
 22
-0.353571321
 32
0.0
 13
-0.0098781864
 23
-0.3534333042
 33
0.0
 40
0.0
 40
0.0
 40
0.0
 40
0.0
 40
0.2733034014
 40
0.5418653407
 40
0.7898898962
 40
1.0
 40
1.0
 40
1.0
 40
1.0
 10
7.120822297
 20
6.4005216839
 30
0.0
 10
7.1208223572
 20
6.3683109357
 30
0.0
 10
7.1206513586
 20
6.3044481227
 30
0.0
 10
7.1198814494
 20
6.2113566085
 30
0.0
 10
7.1186268954
 20
6.1257188547
 30
0.0
 10
7.117424198
 20
6.0717369327
 30
0.0
 10
7.1167323624
 20
6.0469836299
 30
0.0
 11
7.120822297
 21
6.4005216839
 31
0.0
 11
7.1205590028
 21
6.3038897979
 31
0.0
 11
7.1197564831
 21
6.2089373896
 31
0.0
 11
7.1184407506
 21
6.1212528908
 31
0.0
 11
7.1167323624
 21
6.0469836299
 31
0.0
  0
SPLINE
  5
69A
100
AcDbEntity
  8
ASSI
100
AcDbSpline
 62
253
  6
CONTINUOUS
 70
0
 71
3
 72
11
 73
7
 74
5
 42
0.0000001
 43
0.0000001
 44
0.0000000001
 12
0.000000661
 22
-0.353571321
 32
0.0
 13
-0.0098781864
 23
-0.3534333042
 33
0.0
 40
0.0
 40
0.0
 40
0.0
 40
0.0
 40
0.2733034014
 40
0.5418653407
 40
0.7898898962
 40
1.0
 40
1.0
 40
1.0
 40
1.0
 10
-7.179177703
 20
6.4005216839
 30
0.0
 10
-7.1791776428
 20
6.3683109357
 30
0.0
 10
-7.1793486414
 20
6.3044481227
 30
0.0
 10
-7.1801185506
 20
6.2113566085
 30
0.0
 10
-7.1813731046
 20
6.1257188547
 30
0.0
 10
-7.182575802
 20
6.0717369327
 30
0.0
 10
-7.1832676376
 20
6.0469836299
 30
0.0
 11
-7.179177703
 21
6.4005216839
 31
0.0
 11
-7.1794409972
 21
6.3038897979
 31
0.0
 11
-7.1802435169
 21
6.2089373896
 31
0.0
 11
-7.1815592494
 21
6.1212528908
 31
0.0
 11
-7.1832676376
 21
6.0469836299
 31
0.0
  0
SPLINE
  5
69B
100
AcDbEntity
  8
ASSI
100
AcDbSpline
 62
253
  6
CONTINUOUS
 70
0
 71
3
 72
11
 73
7
 74
5
 42
0.0000001
 43
0.0000001
 44
0.0000000001
 12
-0.0098781004
 22
0.3534330094
 32
0.0
 13
0.0000006738
 23
0.3535710239
 33
0.0
 40
0.0
 40
0.0
 40
0.0
 40
0.0
 40
0.210108614
 40
0.4581332567
 40
0.7266954159
 40
1.0
 40
1.0
 40
1.0
 40
1.0
 10
-7.3854693275
 20
6.0469836299
 30
0.0
 10
-7.3861611521
 20
6.0717367365
 30
0.0
 10
-7.3873638601
 20
6.1257184475
 30
0.0
 10
-7.3886184034
 20
6.2113559902
 30
0.0
 10
-7.3893883209
 20
6.3044476016
 30
0.0
 10
-7.3895593227
 20
6.3683105262
 30
0.0
 10
-7.3895592613
 20
6.4005213868
 30
0.0
 11
-7.3854693275
 21
6.0469836299
 31
0.0
 11
-7.3871777068
 21
6.1212523016
 31
0.0
 11
-7.3884934396
 21
6.2089367576
 31
0.0
 11
-7.3892959638
 21
6.3038891638
 31
0.0
 11
-7.3895592613
 21
6.4005213868
 31
0.0
  0
SPLINE
  5
69C
100
AcDbEntity
  8
ASSI
100
AcDbSpline
 62
7
  6
CONTINUOUS
 70
0
 71
3
 72
11
 73
7
 74
5
 42
0.0000001
 43
0.0000001
 44
0.0000000001
 12
0.1877591309
 22
0.0090044277
 32
0.0
 13
0.1879749211
 23
-0.0
 33
0.0
 40
0.0
 40
0.0
 40
0.0
 40
0.0
 40
0.1555665837
 40
0.3898430933
 40
0.6801151059
 40
1.0
 40
1.0
 40
1.0
 40
1.0
 10
4.1075785565
 20
5.6170227386
 30
0.0
 10
4.1173149054
 20
5.617489668
 30
0.0
 10
4.1417370814
 20
5.6181181061
 30
0.0
 10
4.1843454655
 20
5.6187970581
 30
0.0
 10
4.2372555435
 20
5.6192200308
 30
0.0
 10
4.275486839
 20
5.6193202509
 30
0.0
 10
4.2955302849
 20
5.6193202509
 30
0.0
 11
4.1075785565
 21
5.6170227386
 31
0.0
 11
4.1368063685
 21
5.6179531234
 31
0.0
 11
4.1808383263
 21
5.6186891141
 31
0.0
 11
4.2354001642
 21
5.6191587102
 31
0.0
 11
4.2955302849
 21
5.6193202509
 31
0.0
  0
SPLINE
  5
69D
100
AcDbEntity
  8
ASSI
100
AcDbSpline
 62
7
  6
CONTINUOUS
 70
0
 71
3
 72
11
 73
7
 74
5
 42
0.0000001
 43
0.0000001
 44
0.0000000001
 12
-0.1879629201
 22
0.0
 32
0.0
 13
-0.1877471435
 23
0.009003857
 33
0.0
 40
0.0
 40
0.0
 40
0.0
 40
0.0
 40
0.3199428211
 40
0.6102303145
 40
0.8444792159
 40
1.0
 40
1.0
 40
1.0
 40
1.0
 10
4.2890073797
 20
3.9678531975
 30
0.0
 10
4.268961584
 20
3.9678531975
 30
0.0
 10
4.2307281301
 20
3.9679534007
 30
0.0
 10
4.1778185597
 20
3.9683762819
 30
0.0
 10
4.135216524
 20
3.9690550402
 30
0.0
 10
4.1108005024
 20
3.9696832242
 30
0.0
 10
4.1010676414
 20
3.9701499865
 30
0.0
 11
4.2890073797
 21
3.9678531975
 31
0.0
 11
4.2288702097
 21
3.9680147257
 31
0.0
 11
4.1743089449
 21
3.96848424
 31
0.0
 11
4.1302849852
 21
3.9692200004
 31
0.0
 11
4.1010676414
 21
3.9701499865
 31
0.0
  0
SPLINE
  5
69E
100
AcDbEntity
  8
ASSI
100
AcDbSpline
 62
7
  6
CONTINUOUS
 70
0
 71
3
 72
11
 73
7
 74
5
 42
0.0000001
 43
0.0000001
 44
0.0000000001
 12
-0.1877471435
 22
-0.009003857
 32
0.0
 13
-0.1879629201
 23
-0.0
 33
0.0
 40
0.0
 40
0.0
 40
0.0
 40
0.0
 40
0.1555207841
 40
0.3897696855
 40
0.6800571789
 40
1.0
 40
1.0
 40
1.0
 40
1.0
 10
-4.3698046065
 20
3.9701499865
 30
0.0
 10
-4.3795374675
 20
3.9696832242
 30
0.0
 10
-4.4039534891
 20
3.9690550402
 30
0.0
 10
-4.4465555248
 20
3.9683762819
 30
0.0
 10
-4.4994650952
 20
3.9679534007
 30
0.0
 10
-4.5376985491
 20
3.9678531975
 30
0.0
 10
-4.5577443447
 20
3.9678531975
 30
0.0
 11
-4.3698046065
 21
3.9701499865
 31
0.0
 11
-4.3990219503
 21
3.9692200004
 31
0.0
 11
-4.44304591
 21
3.96848424
 31
0.0
 11
-4.4976071748
 21
3.9680147257
 31
0.0
 11
-4.5577443447
 21
3.9678531975
 31
0.0
  0
SPLINE
  5
69F
100
AcDbEntity
  8
ASSI
100
AcDbSpline
 62
7
  6
CONTINUOUS
 70
0
 71
3
 72
11
 73
7
 74
5
 42
0.0000001
 43
0.0000001
 44
0.0000000001
 12
0.1879749211
 22
0.0
 32
0.0
 13
0.1877591309
 23
-0.0090044277
 33
0.0
 40
0.0
 40
0.0
 40
0.0
 40
0.0
 40
0.3198848941
 40
0.6101569067
 40
0.8444334163
 40
1.0
 40
1.0
 40
1.0
 40
1.0
 10
-4.56426725
 20
5.6193202509
 30
0.0
 10
-4.5442238041
 20
5.6193202509
 30
0.0
 10
-4.5059925085
 20
5.6192200308
 30
0.0
 10
-4.4530824306
 20
5.6187970581
 30
0.0
 10
-4.4104740464
 20
5.6181181061
 30
0.0
 10
-4.3860518704
 20
5.617489668
 30
0.0
 10
-4.3763155216
 20
5.6170227386
 30
0.0
 11
-4.56426725
 21
5.6193202509
 31
0.0
 11
-4.5041371293
 21
5.6191587102
 31
0.0
 11
-4.4495752914
 21
5.6186891141
 31
0.0
 11
-4.4055433335
 21
5.6179531234
 31
0.0
 11
-4.3763155216
 21
5.6170227386
 31
0.0
  0
ELLIPSE
  5
6A0
100
AcDbEntity
  8
RACCORDO
100
AcDbEllipse
 62
7
  6
CONTINUOUS
 10
11.9021004275
 20
-9.0498142509
 30
0.0
 11
0.2183310446
 21
0.1221043275
 31
0.0
 40
0.9980297029
 41
-2.0815635429
 42
-0.5109195152
  0
ELLIPSE
  5
6A1
100
AcDbEntity
  8
RACCORDO
100
AcDbEllipse
 62
7
  6
CONTINUOUS
 10
-12.1708373926
 20
-9.0498142509
 30
0.0
 11
0.2183310446
 21
-0.1221043275
 31
0.0
 40
0.9980297029
 41
-2.6306731384
 42
-1.0600291107
  0
ELLIPSE
  5
6A2
100
AcDbEntity
  8
RACCORDO
100
AcDbEllipse
 62
7
  6
CONTINUOUS
 10
-12.1773483746
 20
8.9364101313
 30
0.0
 11
-0.1768305473
 21
0.1768305473
 31
0.0
 40
0.9996954599
 41
-0.7852458701
 42
0.7852458701
  0
ELLIPSE
  5
6A3
100
AcDbEntity
  8
RACCORDO
100
AcDbEllipse
 62
7
  6
CONTINUOUS
 10
11.9086114095
 20
8.9364101313
 30
0.0
 11
-0.1768305473
 21
-0.1768305473
 31
0.0
 40
0.9996954599
 41
2.3563467834
 42
3.9268385237
  0
ELLIPSE
  5
6A4
100
AcDbEntity
  8
RACCORDO
100
AcDbEllipse
 62
7
  6
CONTINUOUS
 10
-12.432622976
 20
8.2358742235
 30
0.0
 11
-0.0
 21
0.3
 31
0.0
 40
0.0174550649
 41
-3.1241393611
 42
-1.5707963268
  0
ELLIPSE
  5
6A5
100
AcDbEntity
  8
RACCORDO
100
AcDbEllipse
 62
7
  6
CONTINUOUS
 10
12.163886011
 20
8.2358742235
 30
0.0
 11
-0.0
 21
0.3
 31
0.0
 40
0.0174550649
 41
-4.7123889804
 42
-3.1590459461
  0
ELLIPSE
  5
6A6
100
AcDbEntity
  8
DRAFT
100
AcDbEllipse
 62
7
  6
CONTINUOUS
 10
-17.3573870868
 20
9.3934302393
 30
0.0
 11
0.0
 21
423.7
 31
0.0
 40
0.0174550649
 41
-1.6090810457
 42
-1.6073450502
  0
ELLIPSE
  5
6A7
100
AcDbEntity
  8
DRAFT
100
AcDbEllipse
 62
7
  6
CONTINUOUS
 10
-17.3573870868
 20
9.3934302393
 30
0.0
 11
0.0
 21
423.7
 31
0.0
 40
0.0174550649
 41
-1.5904371127
 42
-1.588683735
  0
ELLIPSE
  5
6A8
100
AcDbEntity
  8
RACCORDO
100
AcDbEllipse
 62
7
  6
CONTINUOUS
 10
-0.3113498783
 20
9.3934302393
 30
0.0
 11
0.0
 21
423.7
 31
0.0
 40
0.0174550649
 41
-4.7090312901
 42
-4.6981756364
  0
ELLIPSE
  5
6A9
100
AcDbEntity
  8
RACCORDO
100
AcDbEllipse
 62
7
  6
CONTINUOUS
 10
10.7516217671
 20
-7.9108801926
 30
0.0
 11
-0.0300136675
 21
0.3031910442
 31
0.0
 40
0.9846622838
 41
-3.2387599651
 42
-1.6709942215
  0
ELLIPSE
  5
6AA
100
AcDbEntity
  8
RACCORDO
100
AcDbEllipse
 62
7
  6
CONTINUOUS
 10
-11.0203587322
 20
-7.9108801926
 30
0.0
 11
0.0300136675
 21
0.3031910442
 31
0.0
 40
0.9846622838
 41
-4.6121910857
 42
-3.0444253421
  0
ELLIPSE
  5
6AB
100
AcDbEntity
  8
RACCORDO
100
AcDbEllipse
 62
7
  6
CONTINUOUS
 10
-7.1791776615
 20
7.9881937198
 30
0.0
 11
0.3
 21
0.0
 31
0.0
 40
0.0174550649
 41
0.0174532925
 42
1.5707963268
  0
ELLIPSE
  5
6AC
100
AcDbEntity
  8
RACCORDO
100
AcDbEllipse
 62
7
  6
CONTINUOUS
 10
-14.2573870868
 20
9.3934302393
 30
0.0
 11
0.0
 21
423.7
 31
0.0
 40
0.0174550649
 41
-1.5850096708
 42
-1.5741540171
  0
ELLIPSE
  5
6AD
100
AcDbEntity
  8
RACCORDO
100
AcDbEllipse
 62
7
  6
CONTINUOUS
 10
13.9886501217
 20
9.3934302393
 30
0.0
 11
0.0
 21
423.7
 31
0.0
 40
0.0174550649
 41
-4.7090312901
 42
-4.6981756364
  0
ELLIPSE
  5
6AE
100
AcDbEntity
  8
RACCORDO
100
AcDbEllipse
 62
7
  6
CONTINUOUS
 10
0.0426129132
 20
9.3934302393
 30
0.0
 11
0.0
 21
423.7
 31
0.0
 40
0.0174550649
 41
-1.5850096708
 42
-1.5741540171
  0
ELLIPSE
  5
6AF
100
AcDbEntity
  8
RACCORDO
100
AcDbEllipse
 62
7
  6
CONTINUOUS
 10
-7.3895593036
 20
7.9881937198
 30
0.0
 11
0.3
 21
-0.0
 31
0.0
 40
0.0174550649
 41
1.5707963268
 42
3.1241393611
  0
ELLIPSE
  5
6B0
100
AcDbEntity
  8
RACCORDO
100
AcDbEllipse
 62
7
  6
CONTINUOUS
 10
6.9104406964
 20
7.9881937198
 30
0.0
 11
0.3
 21
-0.0
 31
0.0
 40
0.0174550649
 41
1.5707963268
 42
3.1241393611
  0
ELLIPSE
  5
6B1
100
AcDbEntity
  8
RACCORDO
100
AcDbEllipse
 62
7
  6
CONTINUOUS
 10
7.1208223385
 20
7.9881937198
 30
0.0
 11
0.3
 21
-0.0
 31
0.0
 40
0.0174550649
 41
0.0174532925
 42
1.5707963268
  0
ELLIPSE
  5
6B2
100
AcDbEntity
  8
RACCORDO
100
AcDbEllipse
 62
7
  6
CONTINUOUS
 10
-3.6743062211
 20
5.5986667588
 30
0.0
 11
0.3
 21
-0.0
 31
0.0
 40
0.0174550649
 41
-2.7925268032
 42
-1.5707963268
  0
ELLIPSE
  5
6B3
100
AcDbEntity
  8
RACCORDO
100
AcDbEllipse
 62
7
  6
CONTINUOUS
 10
3.405569256
 20
5.5986667588
 30
0.0
 11
0.3
 21
0.0
 31
0.0
 40
0.0174550649
 41
-1.5707963268
 42
-0.3490658504
  0
ELLIPSE
  5
6B4
100
AcDbEntity
  8
DRAFT
100
AcDbEllipse
 62
7
  6
CONTINUOUS
 10
17.0886501217
 20
9.3934302393
 30
0.0
 11
-0.0
 21
423.7
 31
0.0
 40
0.0174550649
 41
-4.6945015721
 42
-4.6927481945
  0
ELLIPSE
  5
6B5
100
AcDbEntity
  8
RACCORDO
100
AcDbEllipse
 62
7
  6
CONTINUOUS
 10
-3.6743062211
 20
3.9881937198
 30
0.0
 11
0.3
 21
-0.0
 31
0.0
 40
0.0174550649
 41
1.5707963268
 42
2.7925268032
  0
ELLIPSE
  5
6B6
100
AcDbEntity
  8
DRAFT
100
AcDbEllipse
 62
7
  6
CONTINUOUS
 10
17.0886501217
 20
9.3934302393
 30
0.0
 11
0.0
 21
423.7
 31
0.0
 40
0.0174550649
 41
-4.675840257
 42
-4.6741042615
  0
ELLIPSE
  5
6B7
100
AcDbEntity
  8
RACCORDO
100
AcDbEllipse
 62
7
  6
CONTINUOUS
 10
3.405569256
 20
3.9881937198
 30
0.0
 11
0.3
 21
0.0
 31
0.0
 40
0.0174550649
 41
0.3490658504
 42
1.5707963268
  0
ELLIPSE
  5
6B8
100
AcDbEntity
  8
RACCORDO
100
AcDbEllipse
 62
7
  6
CONTINUOUS
 10
-1.4899320219
 20
9.3934302393
 30
0.0
 11
0.0
 21
423.7
 31
0.0
 40
0.0174550649
 41
-1.6103149114
 42
-1.60848535
  0
ELLIPSE
  5
6B9
100
AcDbEntity
  8
RACCORDO
100
AcDbEllipse
 62
7
  6
CONTINUOUS
 10
12.4211950568
 20
9.3934302393
 30
0.0
 11
0.0
 21
423.7
 31
0.0
 40
0.0174550649
 41
-4.6746999572
 42
-4.6728703958
  0
ELLIPSE
  5
6BA
100
AcDbEntity
  8
DRAFT
100
AcDbEllipse
 62
7
  6
CONTINUOUS
 10
-3.220697099
 20
9.3934302393
 30
0.0
 11
0.0
 21
423.7
 31
0.0
 40
0.0174550649
 41
-4.6861185815
 42
-4.6805882475
  0
ELLIPSE
  5
6BB
100
AcDbEntity
  8
DRAFT
100
AcDbEllipse
 62
7
  6
CONTINUOUS
 10
-18.948039866
 20
9.3934302393
 30
0.0
 11
0.0
 21
423.7
 31
0.0
 40
0.0174550649
 41
-1.6025970597
 42
-1.5970667257
  0
ELLIPSE
  5
6BC
100
AcDbEntity
  8
DRAFT
100
AcDbEllipse
 62
7
  6
CONTINUOUS
 10
2.951960134
 20
9.3934302393
 30
0.0
 11
0.0
 21
423.7
 31
0.0
 40
0.0174550649
 41
-1.6025970597
 42
-1.5970667257
  0
ELLIPSE
  5
6BD
100
AcDbEntity
  8
DRAFT
100
AcDbEllipse
 62
7
  6
CONTINUOUS
 10
18.679302901
 20
9.3934302393
 30
0.0
 11
0.0
 21
423.7
 31
0.0
 40
0.0174550649
 41
-4.6861185815
 42
-4.6805882475
  0
ELLIPSE
  5
6BE
100
AcDbEntity
  8
RACCORDO
100
AcDbEllipse
 62
7
  6
CONTINUOUS
 10
-12.6899320219
 20
9.3934302393
 30
0.0
 11
0.0
 21
423.7
 31
0.0
 40
0.0174550649
 41
-1.6103149114
 42
-1.60848535
  0
ELLIPSE
  5
6BF
100
AcDbEntity
  8
RACCORDO
100
AcDbEllipse
 62
7
  6
CONTINUOUS
 10
1.2211950568
 20
9.3934302393
 30
0.0
 11
0.0
 21
423.7
 31
0.0
 40
0.0174550649
 41
-4.6746999572
 42
-4.6728703958
  0
ELLIPSE
  5
6C0
100
AcDbEntity
  8
RACCORDO
100
AcDbEllipse
 62
7
  6
CONTINUOUS
 10
-10.3140877913
 20
-6.7768961503
 30
0.0
 11
0.3
 21
0.0
 31
0.0
 40
0.0174550649
 41
0.0174532925
 42
1.5707963268
  0
ELLIPSE
  5
6C1
100
AcDbEntity
  8
RACCORDO
100
AcDbEllipse
 62
7
  6
CONTINUOUS
 10
-10.3140877913
 20
-6.1362433711
 30
0.0
 11
0.3
 21
0.0
 31
0.0
 40
0.0174550649
 41
-1.5707963268
 42
-0.0174532925
  0
ELLIPSE
  5
6C2
100
AcDbEntity
  8
RACCORDO
100
AcDbEllipse
 62
7
  6
CONTINUOUS
 10
-10.3140877913
 20
1.1231038497
 30
0.0
 11
0.3
 21
-0.0
 31
0.0
 40
0.0174550649
 41
0.0174532925
 42
1.5707963268
  0
ELLIPSE
  5
6C3
100
AcDbEntity
  8
RACCORDO
100
AcDbEllipse
 62
7
  6
CONTINUOUS
 10
-10.3140877913
 20
1.7637566289
 30
0.0
 11
0.3
 21
-0.0
 31
0.0
 40
0.0174550649
 41
-1.5707963268
 42
-0.0174532925
  0
ELLIPSE
  5
6C4
100
AcDbEntity
  8
RACCORDO
100
AcDbEllipse
 62
7
  6
CONTINUOUS
 10
10.0453508263
 20
-6.1362433711
 30
0.0
 11
0.3
 21
0.0
 31
0.0
 40
0.0174550649
 41
-3.1241393611
 42
-1.5707963268
  0
ELLIPSE
  5
6C5
100
AcDbEntity
  8
RACCORDO
100
AcDbEllipse
 62
7
  6
CONTINUOUS
 10
10.0453508263
 20
-6.7768961503
 30
0.0
 11
0.3
 21
0.0
 31
0.0
 40
0.0174550649
 41
1.5707963268
 42
3.1241393611
  0
ELLIPSE
  5
6C6
100
AcDbEntity
  8
RACCORDO
100
AcDbEllipse
 62
7
  6
CONTINUOUS
 10
10.0453508263
 20
1.7637566289
 30
0.0
 11
0.3
 21
0.0
 31
0.0
 40
0.0174550649
 41
-3.1241393611
 42
-1.5707963268
  0
ELLIPSE
  5
6C7
100
AcDbEntity
  8
RACCORDO
100
AcDbEllipse
 62
7
  6
CONTINUOUS
 10
10.0453508263
 20
1.1231038497
 30
0.0
 11
0.3
 21
0.0
 31
0.0
 40
0.0174550649
 41
1.5707963268
 42
3.1241393611
  0
ELLIPSE
  5
6C8
100
AcDbEntity
  8
RACCORDO
100
AcDbEllipse
 62
7
  6
CONTINUOUS
 10
-6.1635092643
 20
-7.3343836658
 30
0.0
 11
0.0
 21
0.3
 31
0.0
 40
0.0174550649
 41
-4.6728703958
 42
-3.3161255788
  0
ELLIPSE
  5
6C9
100
AcDbEntity
  8
RACCORDO
100
AcDbEllipse
 62
7
  6
CONTINUOUS
 10
-5.3052277007
 20
-7.3343836658
 30
0.0
 11
0.0
 21
0.3
 31
0.0
 40
0.0174550649
 41
-2.9670597284
 42
-1.6103149114
  0
ELLIPSE
  5
6CA
100
AcDbEntity
  8
RACCORDO
100
AcDbEllipse
 62
7
  6
CONTINUOUS
 10
5.8947722993
 20
-7.3343836658
 30
0.0
 11
-0.0
 21
0.3
 31
0.0
 40
0.0174550649
 41
-2.9670597284
 42
-1.6103149114
  0
ELLIPSE
  5
6CB
100
AcDbEntity
  8
RACCORDO
100
AcDbEllipse
 62
7
  6
CONTINUOUS
 10
5.0364907357
 20
-7.3343836658
 30
0.0
 11
-0.0
 21
0.3
 31
0.0
 40
0.0174550649
 41
-4.6728703958
 42
-3.3161255788
  0
ELLIPSE
  5
6CC
100
AcDbEntity
  8
RACCORDO
100
AcDbEllipse
 62
7
  6
CONTINUOUS
 10
5.5708223385
 20
-7.8804869128
 30
0.0
 11
0.3
 21
0.0
 31
0.0
 40
0.1763269807
 41
-1.5707963268
 42
-0.0174532925
  0
ELLIPSE
  5
6CD
100
AcDbEntity
  8
RACCORDO
100
AcDbEllipse
 62
7
  6
CONTINUOUS
 10
-11.332622976
 20
8.2358742235
 30
0.0
 11
0.0
 21
0.3
 31
0.0
 40
0.0174550649
 41
-3.1241393611
 42
-1.5707963268
  0
ELLIPSE
  5
6CE
100
AcDbEntity
  8
RACCORDO
100
AcDbEllipse
 62
7
  6
CONTINUOUS
 10
11.063886011
 20
8.2358742235
 30
0.0
 11
0.0
 21
0.3
 31
0.0
 40
0.0174550649
 41
-4.7123889804
 42
-3.1590459461
  0
ELLIPSE
  5
6CF
100
AcDbEntity
  8
RACCORDO
100
AcDbEllipse
 62
7
  6
CONTINUOUS
 10
-5.6291776615
 20
-7.8804869128
 30
0.0
 11
0.3
 21
-0.0
 31
0.0
 40
0.1763269807
 41
-1.5707963268
 42
-0.0174532925
  0
ELLIPSE
  5
6D0
100
AcDbEntity
  8
RACCORDO
100
AcDbEllipse
 62
7
  6
CONTINUOUS
 10
-5.8395593036
 20
-7.8804869128
 30
0.0
 11
0.3
 21
-0.0
 31
0.0
 40
0.1763269807
 41
-3.1241393611
 42
-1.5707963268
  0
ELLIPSE
  5
6D1
100
AcDbEntity
  8
RACCORDO
100
AcDbEllipse
 62
7
  6
CONTINUOUS
 10
5.3604406964
 20
-7.8804869128
 30
0.0
 11
0.3
 21
0.0
 31
0.0
 40
0.1763269807
 41
-3.1241393611
 42
-1.5707963268
  0
ELLIPSE
  5
6D2
100
AcDbEntity
  8
ASSI
100
AcDbEllipse
 62
7
  6
CONTINUOUS
 10
11.9021004275
 20
-9.0498142509
 30
0.0
 11
0.2183310446
 21
0.1221043275
 31
0.0
 40
0.9980297029
 41
-2.0815635429
 42
-0.5109195152
  0
ELLIPSE
  5
6D3
100
AcDbEntity
  8
ASSI
100
AcDbEllipse
 62
7
  6
CONTINUOUS
 10
-12.1708373926
 20
-9.0498142509
 30
0.0
 11
0.2183310446
 21
-0.1221043275
 31
0.0
 40
0.9980297029
 41
-2.6306731384
 42
-1.0600291107
  0
ELLIPSE
  5
6D4
100
AcDbEntity
  8
ASSI
100
AcDbEllipse
 62
7
  6
CONTINUOUS
 10
-12.1773483746
 20
8.9364101313
 30
0.0
 11
-0.1768305473
 21
0.1768305473
 31
0.0
 40
0.9996954599
 41
-0.7852458701
 42
0.7852458701
  0
ELLIPSE
  5
6D5
100
AcDbEntity
  8
ASSI
100
AcDbEllipse
 62
7
  6
CONTINUOUS
 10
11.9086114095
 20
8.9364101313
 30
0.0
 11
-0.1768305473
 21
-0.1768305473
 31
0.0
 40
0.9996954599
 41
2.3563467834
 42
3.9268385237
  0
ELLIPSE
  5
6D6
100
AcDbEntity
  8
ASSI
100
AcDbEllipse
 62
7
  6
CONTINUOUS
 10
-12.432622976
 20
8.2358742235
 30
0.0
 11
-0.0
 21
0.3
 31
0.0
 40
0.0174550649
 41
-3.1241393611
 42
-1.5707963268
  0
ELLIPSE
  5
6D7
100
AcDbEntity
  8
ASSI
100
AcDbEllipse
 62
7
  6
CONTINUOUS
 10
12.163886011
 20
8.2358742235
 30
0.0
 11
-0.0
 21
0.3
 31
0.0
 40
0.0174550649
 41
-4.7123889804
 42
-3.1590459461
  0
ELLIPSE
  5
6D8
100
AcDbEntity
  8
ASSI
100
AcDbEllipse
 62
7
  6
CONTINUOUS
 10
-12.6899320219
 20
9.3934302393
 30
0.0
 11
0.0
 21
423.7
 31
0.0
 40
0.0174550649
 41
-1.6103149114
 42
-1.60848535
  0
ELLIPSE
  5
6D9
100
AcDbEntity
  8
ASSI
100
AcDbEllipse
 62
7
  6
CONTINUOUS
 10
1.2211950568
 20
9.3934302393
 30
0.0
 11
0.0
 21
423.7
 31
0.0
 40
0.0174550649
 41
-4.6746999572
 42
-4.6728703958
  0
ELLIPSE
  5
6DA
100
AcDbEntity
  8
ASSI
100
AcDbEllipse
 62
7
  6
CONTINUOUS
 10
-17.3573870868
 20
9.3934302393
 30
0.0
 11
0.0
 21
423.7
 31
0.0
 40
0.0174550649
 41
-1.6090810457
 42
-1.6073450502
  0
ELLIPSE
  5
6DB
100
AcDbEntity
  8
ASSI
100
AcDbEllipse
 62
7
  6
CONTINUOUS
 10
10.7516217671
 20
-7.9108801926
 30
0.0
 11
-0.0300136675
 21
0.3031910442
 31
0.0
 40
0.9846622838
 41
-3.2387599651
 42
-1.6709942215
  0
ELLIPSE
  5
6DC
100
AcDbEntity
  8
ASSI
100
AcDbEllipse
 62
7
  6
CONTINUOUS
 10
-11.0203587322
 20
-7.9108801926
 30
0.0
 11
0.0300136675
 21
0.3031910442
 31
0.0
 40
0.9846622838
 41
-4.6121910857
 42
-3.0444253421
  0
ELLIPSE
  5
6DD
100
AcDbEntity
  8
ASSI
100
AcDbEllipse
 62
7
  6
CONTINUOUS
 10
-7.1791776615
 20
7.9881937198
 30
0.0
 11
0.3
 21
0.0
 31
0.0
 40
0.0174550649
 41
0.0174532925
 42
1.5707963268
  0
ELLIPSE
  5
6DE
100
AcDbEntity
  8
ASSI
100
AcDbEllipse
 62
7
  6
CONTINUOUS
 10
-17.3573870868
 20
9.3934302393
 30
0.0
 11
0.0
 21
423.7
 31
0.0
 40
0.0174550649
 41
-1.5904371127
 42
-1.588683735
  0
ELLIPSE
  5
6DF
100
AcDbEntity
  8
ASSI
100
AcDbEllipse
 62
7
  6
CONTINUOUS
 10
-0.3113498783
 20
9.3934302393
 30
0.0
 11
0.0
 21
423.7
 31
0.0
 40
0.0174550649
 41
-4.7090312901
 42
-4.6981756364
  0
ELLIPSE
  5
6E0
100
AcDbEntity
  8
ASSI
100
AcDbEllipse
 62
7
  6
CONTINUOUS
 10
-7.3895593036
 20
7.9881937198
 30
0.0
 11
0.3
 21
-0.0
 31
0.0
 40
0.0174550649
 41
1.5707963268
 42
3.1241393611
  0
ELLIPSE
  5
6E1
100
AcDbEntity
  8
ASSI
100
AcDbEllipse
 62
7
  6
CONTINUOUS
 10
-14.2573870868
 20
9.3934302393
 30
0.0
 11
0.0
 21
423.7
 31
0.0
 40
0.0174550649
 41
-1.5850096708
 42
-1.5741540171
  0
ELLIPSE
  5
6E2
100
AcDbEntity
  8
ASSI
100
AcDbEllipse
 62
7
  6
CONTINUOUS
 10
13.9886501217
 20
9.3934302393
 30
0.0
 11
0.0
 21
423.7
 31
0.0
 40
0.0174550649
 41
-4.7090312901
 42
-4.6981756364
  0
ELLIPSE
  5
6E3
100
AcDbEntity
  8
ASSI
100
AcDbEllipse
 62
7
  6
CONTINUOUS
 10
0.0426129132
 20
9.3934302393
 30
0.0
 11
0.0
 21
423.7
 31
0.0
 40
0.0174550649
 41
-1.5850096708
 42
-1.5741540171
  0
ELLIPSE
  5
6E4
100
AcDbEntity
  8
ASSI
100
AcDbEllipse
 62
7
  6
CONTINUOUS
 10
-1.4899320219
 20
9.3934302393
 30
0.0
 11
0.0
 21
423.7
 31
0.0
 40
0.0174550649
 41
-1.6103149114
 42
-1.60848535
  0
ELLIPSE
  5
6E5
100
AcDbEntity
  8
ASSI
100
AcDbEllipse
 62
7
  6
CONTINUOUS
 10
6.9104406964
 20
7.9881937198
 30
0.0
 11
0.3
 21
-0.0
 31
0.0
 40
0.0174550649
 41
1.5707963268
 42
3.1241393611
  0
ELLIPSE
  5
6E6
100
AcDbEntity
  8
ASSI
100
AcDbEllipse
 62
7
  6
CONTINUOUS
 10
7.1208223385
 20
7.9881937198
 30
0.0
 11
0.3
 21
-0.0
 31
0.0
 40
0.0174550649
 41
0.0174532925
 42
1.5707963268
  0
ELLIPSE
  5
6E7
100
AcDbEntity
  8
ASSI
100
AcDbEllipse
 62
7
  6
CONTINUOUS
 10
-3.6743062211
 20
5.5986667588
 30
0.0
 11
0.3
 21
-0.0
 31
0.0
 40
0.0174550649
 41
-2.7925268032
 42
-1.5707963268
  0
ELLIPSE
  5
6E8
100
AcDbEntity
  8
ASSI
100
AcDbEllipse
 62
7
  6
CONTINUOUS
 10
3.405569256
 20
5.5986667588
 30
0.0
 11
0.3
 21
0.0
 31
0.0
 40
0.0174550649
 41
-1.5707963268
 42
-0.3490658504
  0
ELLIPSE
  5
6E9
100
AcDbEntity
  8
ASSI
100
AcDbEllipse
 62
7
  6
CONTINUOUS
 10
-3.6743062211
 20
3.9881937198
 30
0.0
 11
0.3
 21
-0.0
 31
0.0
 40
0.0174550649
 41
1.5707963268
 42
2.7925268032
  0
ELLIPSE
  5
6EA
100
AcDbEntity
  8
ASSI
100
AcDbEllipse
 62
7
  6
CONTINUOUS
 10
12.4211950568
 20
9.3934302393
 30
0.0
 11
0.0
 21
423.7
 31
0.0
 40
0.0174550649
 41
-4.6746999572
 42
-4.6728703958
  0
ELLIPSE
  5
6EB
100
AcDbEntity
  8
ASSI
100
AcDbEllipse
 62
7
  6
CONTINUOUS
 10
3.405569256
 20
3.9881937198
 30
0.0
 11
0.3
 21
0.0
 31
0.0
 40
0.0174550649
 41
0.3490658504
 42
1.5707963268
  0
ELLIPSE
  5
6EC
100
AcDbEntity
  8
ASSI
100
AcDbEllipse
 62
7
  6
CONTINUOUS
 10
17.0886501217
 20
9.3934302393
 30
0.0
 11
-0.0
 21
423.7
 31
0.0
 40
0.0174550649
 41
-4.6945015721
 42
-4.6927481945
  0
ELLIPSE
  5
6ED
100
AcDbEntity
  8
ASSI
100
AcDbEllipse
 62
7
  6
CONTINUOUS
 10
-3.220697099
 20
9.3934302393
 30
0.0
 11
0.0
 21
423.7
 31
0.0
 40
0.0174550649
 41
-4.6861185815
 42
-4.6805882475
  0
ELLIPSE
  5
6EE
100
AcDbEntity
  8
ASSI
100
AcDbEllipse
 62
7
  6
CONTINUOUS
 10
-18.948039866
 20
9.3934302393
 30
0.0
 11
0.0
 21
423.7
 31
0.0
 40
0.0174550649
 41
-1.6025970597
 42
-1.5970667257
  0
ELLIPSE
  5
6EF
100
AcDbEntity
  8
ASSI
100
AcDbEllipse
 62
7
  6
CONTINUOUS
 10
2.951960134
 20
9.3934302393
 30
0.0
 11
0.0
 21
423.7
 31
0.0
 40
0.0174550649
 41
-1.6025970597
 42
-1.5970667257
  0
ELLIPSE
  5
6F0
100
AcDbEntity
  8
ASSI
100
AcDbEllipse
 62
7
  6
CONTINUOUS
 10
18.679302901
 20
9.3934302393
 30
0.0
 11
0.0
 21
423.7
 31
0.0
 40
0.0174550649
 41
-4.6861185815
 42
-4.6805882475
  0
ELLIPSE
  5
6F1
100
AcDbEntity
  8
ASSI
100
AcDbEllipse
 62
7
  6
CONTINUOUS
 10
17.0886501217
 20
9.3934302393
 30
0.0
 11
0.0
 21
423.7
 31
0.0
 40
0.0174550649
 41
-4.675840257
 42
-4.6741042615
  0
ELLIPSE
  5
6F2
100
AcDbEntity
  8
ASSI
100
AcDbEllipse
 62
7
  6
CONTINUOUS
 10
-10.3140877913
 20
-6.7768961503
 30
0.0
 11
0.3
 21
0.0
 31
0.0
 40
0.0174550649
 41
0.0174532925
 42
1.5707963268
  0
ELLIPSE
  5
6F3
100
AcDbEntity
  8
ASSI
100
AcDbEllipse
 62
7
  6
CONTINUOUS
 10
-10.3140877913
 20
-6.1362433711
 30
0.0
 11
0.3
 21
0.0
 31
0.0
 40
0.0174550649
 41
-1.5707963268
 42
-0.0174532925
  0
ELLIPSE
  5
6F4
100
AcDbEntity
  8
ASSI
100
AcDbEllipse
 62
7
  6
CONTINUOUS
 10
-10.3140877913
 20
1.1231038497
 30
0.0
 11
0.3
 21
-0.0
 31
0.0
 40
0.0174550649
 41
0.0174532925
 42
1.5707963268
  0
ELLIPSE
  5
6F5
100
AcDbEntity
  8
ASSI
100
AcDbEllipse
 62
7
  6
CONTINUOUS
 10
-10.3140877913
 20
1.7637566289
 30
0.0
 11
0.3
 21
-0.0
 31
0.0
 40
0.0174550649
 41
-1.5707963268
 42
-0.0174532925
  0
ELLIPSE
  5
6F6
100
AcDbEntity
  8
ASSI
100
AcDbEllipse
 62
7
  6
CONTINUOUS
 10
10.0453508263
 20
-6.1362433711
 30
0.0
 11
0.3
 21
0.0
 31
0.0
 40
0.0174550649
 41
-3.1241393611
 42
-1.5707963268
  0
ELLIPSE
  5
6F7
100
AcDbEntity
  8
ASSI
100
AcDbEllipse
 62
7
  6
CONTINUOUS
 10
10.0453508263
 20
-6.7768961503
 30
0.0
 11
0.3
 21
0.0
 31
0.0
 40
0.0174550649
 41
1.5707963268
 42
3.1241393611
  0
ELLIPSE
  5
6F8
100
AcDbEntity
  8
ASSI
100
AcDbEllipse
 62
7
  6
CONTINUOUS
 10
10.0453508263
 20
1.7637566289
 30
0.0
 11
0.3
 21
0.0
 31
0.0
 40
0.0174550649
 41
-3.1241393611
 42
-1.5707963268
  0
ELLIPSE
  5
6F9
100
AcDbEntity
  8
ASSI
100
AcDbEllipse
 62
7
  6
CONTINUOUS
 10
10.0453508263
 20
1.1231038497
 30
0.0
 11
0.3
 21
0.0
 31
0.0
 40
0.0174550649
 41
1.5707963268
 42
3.1241393611
  0
ELLIPSE
  5
6FA
100
AcDbEntity
  8
ASSI
100
AcDbEllipse
 62
7
  6
CONTINUOUS
 10
-6.1635092643
 20
-7.3343836658
 30
0.0
 11
0.0
 21
0.3
 31
0.0
 40
0.0174550649
 41
-4.6728703958
 42
-3.3161255788
  0
ELLIPSE
  5
6FB
100
AcDbEntity
  8
ASSI
100
AcDbEllipse
 62
7
  6
CONTINUOUS
 10
-5.3052277007
 20
-7.3343836658
 30
0.0
 11
0.0
 21
0.3
 31
0.0
 40
0.0174550649
 41
-2.9670597284
 42
-1.6103149114
  0
ELLIPSE
  5
6FC
100
AcDbEntity
  8
ASSI
100
AcDbEllipse
 62
7
  6
CONTINUOUS
 10
5.8947722993
 20
-7.3343836658
 30
0.0
 11
-0.0
 21
0.3
 31
0.0
 40
0.0174550649
 41
-2.9670597284
 42
-1.6103149114
  0
ELLIPSE
  5
6FD
100
AcDbEntity
  8
ASSI
100
AcDbEllipse
 62
7
  6
CONTINUOUS
 10
5.0364907357
 20
-7.3343836658
 30
0.0
 11
-0.0
 21
0.3
 31
0.0
 40
0.0174550649
 41
-4.6728703958
 42
-3.3161255788
  0
ELLIPSE
  5
6FE
100
AcDbEntity
  8
ASSI
100
AcDbEllipse
 62
7
  6
CONTINUOUS
 10
5.5708223385
 20
-7.8804869128
 30
0.0
 11
0.3
 21
0.0
 31
0.0
 40
0.1763269807
 41
-1.5707963268
 42
-0.0174532925
  0
ELLIPSE
  5
6FF
100
AcDbEntity
  8
ASSI
100
AcDbEllipse
 62
7
  6
CONTINUOUS
 10
-11.332622976
 20
8.2358742235
 30
0.0
 11
0.0
 21
0.3
 31
0.0
 40
0.0174550649
 41
-3.1241393611
 42
-1.5707963268
  0
ELLIPSE
  5
700
100
AcDbEntity
  8
ASSI
100
AcDbEllipse
 62
7
  6
CONTINUOUS
 10
11.063886011
 20
8.2358742235
 30
0.0
 11
0.0
 21
0.3
 31
0.0
 40
0.0174550649
 41
-4.7123889804
 42
-3.1590459461
  0
ELLIPSE
  5
701
100
AcDbEntity
  8
ASSI
100
AcDbEllipse
 62
7
  6
CONTINUOUS
 10
-5.6291776615
 20
-7.8804869128
 30
0.0
 11
0.3
 21
-0.0
 31
0.0
 40
0.1763269807
 41
-1.5707963268
 42
-0.0174532925
  0
ELLIPSE
  5
702
100
AcDbEntity
  8
ASSI
100
AcDbEllipse
 62
7
  6
CONTINUOUS
 10
-5.8395593036
 20
-7.8804869128
 30
0.0
 11
0.3
 21
-0.0
 31
0.0
 40
0.1763269807
 41
-3.1241393611
 42
-1.5707963268
  0
ELLIPSE
  5
703
100
AcDbEntity
  8
ASSI
100
AcDbEllipse
 62
7
  6
CONTINUOUS
 10
5.3604406964
 20
-7.8804869128
 30
0.0
 11
0.3
 21
0.0
 31
0.0
 40
0.1763269807
 41
-3.1241393611
 42
-1.5707963268
  0
ENDSEC
  0
SECTION
  2
OBJECTS
  0
DICTIONARY
  5
C
100
AcDbDictionary
280
0
281
1
  3
ACAD_GROUP
350
D
  3
ACAD_MLINESTYLE
350
17
  3
ACAD_LAYOUT
350
1A
  3
ACAD_PLOTSETTINGS
350
19
  3
ACAD_PLOTSTYLENAME
350
E
  0
DICTIONARY
  5
D
102
{ACAD_REACTORS
330
C
102
}
100
AcDbDictionary
280
0
281
1
  0
ACDBDICTIONARYWDFLT
  5
E
102
{ACAD_REACTORS
330
C
102
}
100
AcDbDictionary
281
1
  3
Normal
350
F
100
AcDbDictionaryWithDefault
340
F
  0
DICTIONARY
  5
17
102
{ACAD_REACTORS
330
C
102
}
100
AcDbDictionary
280
0
281
1
  3
Standard
350
18
  0
DICTIONARY
  5
19
102
{ACAD_REACTORS
330
C
102
}
100
AcDbDictionary
281
1
  0
DICTIONARY
  5
1A
102
{ACAD_REACTORS
330
C
102
}
100
AcDbDictionary
281
1
  3
Model
350
704
  3
Layout1
350
705
  0
ACDBPLACEHOLDER
  5
F
102
{ACAD_REACTORS
330
E
102
}
  0
MLINESTYLE
  5
18
102
{ACAD_REACTORS
330
17
102
}
100
AcDbMlineStyle
  2
STANDARD
 70
0
  3

 62
256
 51
90.0
 52
90.0
 71
2
 49
0.5
 62
256
  6
BYLAYER
 49
-0.5
 62
256
  6
BYLAYER
  0
LAYOUT
  5
704
102
{ACAD_REACTORS
330
1A
102
}
100
AcDbPlotSettings
  1

  2
none_device
  4
ISO_A4_(297.00_x_210.00_MM)
  6

 40
0.0
 41
0.0
 42
0.0
 43
0.0
 44
297.0
 45
210.0
 46
0.0
 47
0.0
 48
0.0
 49
0.0
140
0.0
141
0.0
142
1.0
143
1.0
 70
1024
 72
1
 73
0
 74
0
  7

 75
0
147
1.0
148
0.0
149
0.0
100
AcDbLayout
  1
Model
 70
0
 71
0
 10
0.0
 20
0.0
 11
297.0
 21
210.0
 12
0.0
 22
0.0
 32
0.0
 14
0.0
 24
0.0
 34
0.0
 15
0.0
 25
0.0
 35
0.0
146
0.0
 13
0.0
 23
0.0
 33
0.0
 16
1.0
 26
0.0
 36
0.0
 17
0.0
 27
1.0
 37
0.0
 76
0
330
212
345
0
346
0
  0
LAYOUT
  5
705
102
{ACAD_REACTORS
330
1A
102
}
100
AcDbPlotSettings
  1

  2
none_device
  4
ISO_A4_(297.00_x_210.00_MM)
  6

 40
0.0
 41
0.0
 42
0.0
 43
0.0
 44
297.0
 45
210.0
 46
0.0
 47
0.0
 48
0.0
 49
0.0
140
0.0
141
0.0
142
1.0
143
1.0
 70
0
 72
1
 73
0
 74
0
  7

 75
0
147
1.0
148
0.0
149
0.0
100
AcDbLayout
  1
Layout1
 70
0
 71
1
 10
0.0
 20
0.0
 11
297.0
 21
210.0
 12
0.0
 22
0.0
 32
0.0
 14
0.0
 24
0.0
 34
0.0
 15
0.0
 25
0.0
 35
0.0
146
0.0
 13
0.0
 23
0.0
 33
0.0
 16
1.0
 26
0.0
 36
0.0
 17
0.0
 27
1.0
 37
0.0
 76
0
330
213
345
0
346
0
  0
ENDSEC
  0
EOF
