  0
SECTION
  2
HEADER
  9
$ACADVER
  1
AC1015
  9
$DWGCODEPAGE
  3
ANSI_1252
  9
$EXTMAX
 10
297.0
 20
210.0
 30
0.0
  9
$EXTMIN
 10
0.0
 20
0.0
 30
0.0
  9
$LIMMIN
 10
0.0
 20
0.0
  9
$LIMMAX
 10
297.0
 20
210.0
  9
$VIEWCTR
 10
148.5
 20
105.0
  9
$VIEWSIZE
 40
210.0
  9
$CLAYER
  8
0
  9
$LTSCALE
 40
16.335
  9
$CELTYPE
  6
BYLAYER
  9
$DIMSCALE
 40
1.0
  9
$DIMASZ
 40
3.0
  9
$DIMEXO
 40
1.85625
  9
$DIMDLI
 40
11.286
  9
$DIMEXE
 40
5.346
  9
$DIMCEN
 40
2.673
  9
$DIMLFAC
 40
1.0
  9
$DIMBLK
  1
_FILLED
  9
$DIMTXT
 40
3.0
  9
$DIMTOL
 70
1
  9
$DIMLIM
 70
0
  9
$DIMTFAC
 40
1.0
  9
$DIMTP
 40
0.01
  9
$DIMTM
 40
0.01
  9
$PDMODE
 70
3
  9
$PDSIZE
 40
3.0
  9
$HANDSEED
  5
706
  9
$TILEMODE
 70
1
  9
$MEASUREMENT
 70
1
  9
$INSUNITS
 70
4
  0
ENDSEC
  0
SECTION
  2
CLASSES
  0
CLASS
  1
ACDBDICTIONARYWDFLT
  2
AcDbDictionaryWithDefault
  3
AutoCAD 2000
 90
0
280
0
281
0
  0
CLASS
  1
ACDBPLACEHOLDER
  2
AcDbPlaceHolder
  3
AutoCAD 2000
 90
0
280
0
281
0
  0
CLASS
  1
LAYOUT
  2
AcDbLayout
  3
AutoCAD 2000
 90
0
280
0
281
0
  0
ENDSEC
  0
SECTION
  2
TABLES
  0
TABLE
  2
VPORT
  5
8
100
AcDbSymbolTable
 70
2
  0
VPORT
  5
1F4
100
AcDbSymbolTableRecord
100
AcDbViewportTableRecord
  2
*ACTIVE
 70
0
 10
0.0
 20
0.0
 11
1.0
 21
1.0
 12
148.5
 22
105.0
 13
0.0
 23
0.0
 14
1.0
 24
1.0
 15
0.0
 25
0.0
 16
0.0
 26
0.0
 36
1.0
 17
0.0
 27
0.0
 37
0.0
 40
210.0
 41
1.4142857143
 42
50.0
 43
0.0
 44
0.0
 50
0.0
 51
0.0
 71
0
 72
100
 73
1
 74
1
 75
0
 76
0
 77
0
 78
0
  0
ENDTAB
  0
TABLE
  2
LTYPE
  5
5
100
AcDbSymbolTable
 70
6
  0
LTYPE
  5
14
100
AcDbSymbolTableRecord
100
AcDbLinetypeTableRecord
  2
BYBLOCK
 70
0
  3

 72
65
 73
0
 40
0.0
  0
LTYPE
  5
15
100
AcDbSymbolTableRecord
100
AcDbLinetypeTableRecord
  2
BYLAYER
 70
0
  3

 72
65
 73
0
 40
0.0
  0
LTYPE
  5
16
100
AcDbSymbolTableRecord
100
AcDbLinetypeTableRecord
  2
CONTINUOUS
 70
64
  3
Solid line
 72
65
 73
0
 40
0.0
  0
LTYPE
  5
1F5
100
AcDbSymbolTableRecord
100
AcDbLinetypeTableRecord
  2
CENTER
 70
64
  3
____ _ ____ _ ____ _ ____ _ ____ _ ____ _ ____
 72
65
 73
4
 40
0.6
 49
0.375
 74
0
 49
-0.075
 74
0
 49
0.075
 74
0
 49
-0.075
 74
0
  0
LTYPE
  5
1F6
100
AcDbSymbolTableRecord
100
AcDbLinetypeTableRecord
  2
HIDDEN
 70
64
  3
- - - - - - - - - - - - - - - - - - - -
 72
65
 73
2
 40
0.2
 49
0.1
 74
0
 49
-0.1
 74
0
  0
LTYPE
  5
1F7
100
AcDbSymbolTableRecord
100
AcDbLinetypeTableRecord
  2
PHANTOM
 70
64
  3
_____ _ _ _____ _ _ _____ _ _ _____
 72
65
 73
6
 40
0.8
 49
0.45
 74
0
 49
-0.05
 74
0
 49
0.1
 74
0
 49
-0.05
 74
0
 49
0.1
 74
0
 49
-0.05
 74
0
  0
LTYPE
  5
1F8
100
AcDbSymbolTableRecord
100
AcDbLinetypeTableRecord
  2
DOT
 70
64
  3
. . . . . . . . . . . . . . . . . . . .
 72
65
 73
2
 40
0.2
 49
0.1
 74
0
 49
-0.1
 74
0
  0
LTYPE
  5
1F9
100
AcDbSymbolTableRecord
100
AcDbLinetypeTableRecord
  2
DASHED
 70
64
  3
- - - - - - - - - - - - - - - - - - - -
 72
65
 73
2
 40
0.2
 49
0.1
 74
0
 49
-0.1
 74
0
  0
ENDTAB
  0
TABLE
  2
LAYER
  5
2
100
AcDbSymbolTable
 70
36
  0
LAYER
  5
10
100
AcDbSymbolTableRecord
100
AcDbLayerTableRecord
  2
0
 70
0
 62
7
  6
CONTINUOUS
370
-3
390
F
  0
LAYER
  5
1FA
100
AcDbSymbolTableRecord
100
AcDbLayerTableRecord
  2
DEFAULT_1
 70
0
 62
7
  6
CENTER
370
-3
390
F
  0
LAYER
  5
1FB
100
AcDbSymbolTableRecord
100
AcDbLayerTableRecord
  2
DEFAULT_2
 70
0
 62
7
  6
HIDDEN
370
-3
390
F
  0
LAYER
  5
1FC
100
AcDbSymbolTableRecord
100
AcDbLayerTableRecord
  2
DEFAULT_3
 70
0
 62
7
  6
PHANTOM
370
-3
390
F
  0
LAYER
  5
1FD
100
AcDbSymbolTableRecord
100
AcDbLayerTableRecord
  2
ASSI
 70
0
 62
7
  6
CONTINUOUS
370
-3
390
F
  0
LAYER
  5
1FE
100
AcDbSymbolTableRecord
100
AcDbLayerTableRecord
  2
COORDINATE
 70
0
 62
7
  6
CONTINUOUS
370
-3
390
F
  0
LAYER
  5
1FF
100
AcDbSymbolTableRecord
100
AcDbLayerTableRecord
  2
COORD_ORIGINE
 70
0
 62
7
  6
CONTINUOUS
370
-3
390
F
  0
LAYER
  5
200
100
AcDbSymbolTableRecord
100
AcDbLayerTableRecord
  2
COPY_PUBLISH
 70
0
 62
7
  6
CONTINUOUS
370
-3
390
F
  0
LAYER
  5
201
100
AcDbSymbolTableRecord
100
AcDbLayerTableRecord
  2
COSMETIC
 70
0
 62
7
  6
CONTINUOUS
370
-3
390
F
  0
LAYER
  5
202
100
AcDbSymbolTableRecord
100
AcDbLayerTableRecord
  2
CURVE
 70
0
 62
7
  6
CONTINUOUS
370
-3
390
F
  0
LAYER
  5
203
100
AcDbSymbolTableRecord
100
AcDbLayerTableRecord
  2
DRAFT
 70
0
 62
7
  6
CONTINUOUS
370
-3
390
F
  0
LAYER
  5
204
100
AcDbSymbolTableRecord
100
AcDbLayerTableRecord
  2
IGES
 70
0
 62
7
  6
CONTINUOUS
370
-3
390
F
  0
LAYER
  5
205
100
AcDbSymbolTableRecord
100
AcDbLayerTableRecord
  2
IMPORT_IGES
 70
0
 62
7
  6
CONTINUOUS
370
-3
390
F
  0
LAYER
  5
206
100
AcDbSymbolTableRecord
100
AcDbLayerTableRecord
  2
INTF_12
 70
0
 62
7
  6
CONTINUOUS
370
-3
390
F
  0
LAYER
  5
207
100
AcDbSymbolTableRecord
100
AcDbLayerTableRecord
  2
INTF_9
 70
0
 62
7
  6
CONTINUOUS
370
-3
390
F
  0
LAYER
  5
208
100
AcDbSymbolTableRecord
100
AcDbLayerTableRecord
  2
NOTE
 70
0
 62
7
  6
CONTINUOUS
370
-3
390
F
  0
LAYER
  5
209
100
AcDbSymbolTableRecord
100
AcDbLayerTableRecord
  2
PIANI
 70
0
 62
7
  6
CONTINUOUS
370
-3
390
F
  0
LAYER
  5
20A
100
AcDbSymbolTableRecord
100
AcDbLayerTableRecord
  2
PIANI_ORIGINE
 70
0
 62
7
  6
CONTINUOUS
370
-3
390
F
  0
LAYER
  5
20B
100
AcDbSymbolTableRecord
100
AcDbLayerTableRecord
  2
RACCORDO
 70
0
 62
7
  6
CONTINUOUS
370
-3
390
F
  0
LAYER
  5
20C
100
AcDbSymbolTableRecord
100
AcDbLayerTableRecord
  2
SMUSSO
 70
0
 62
7
  6
CONTINUOUS
370
-3
390
F
  0
LAYER
  5
20D
100
AcDbSymbolTableRecord
100
AcDbLayerTableRecord
  2
SNAPLINE
 70
0
 62
7
  6
CONTINUOUS
370
-3
390
F
  0
LAYER
  5
20E
100
AcDbSymbolTableRecord
100
AcDbLayerTableRecord
  2
SUPERFICI
 70
0
 62
7
  6
CONTINUOUS
370
-3
390
F
  0
LAYER
  5
20F
100
AcDbSymbolTableRecord
100
AcDbLayerTableRecord
  2
TRASH
 70
0
 62
7
  6
CONTINUOUS
370
-3
390
F
  0
ENDTAB
  0
TABLE
  2
STYLE
  5
3
100
AcDbSymbolTable
 70
1
  0
STYLE
  5
11
100
AcDbSymbolTableRecord
100
AcDbTextStyleTableRecord
  2
STANDARD
 70
0
 40
0.0
 41
0.8
 50
0.0
 71
0
 42
0.2
  3
txt
  4

  0
STYLE
  5
210
100
AcDbSymbolTableRecord
100
AcDbTextStyleTableRecord
  2
TEXTSTYLE_1
 70
0
 40
0.0
 41
0.8
 50
0.0
 71
0
 42
0.2
  3
gdt
  4

  0
ENDTAB
  0
TABLE
  2
VIEW
  5
6
100
AcDbSymbolTable
 70
0
  0
ENDTAB
  0
TABLE
  2
UCS
  5
7
100
AcDbSymbolTable
 70
0
  0
ENDTAB
  0
TABLE
  2
APPID
  5
9
100
AcDbSymbolTable
 70
1
  0
APPID
  5
211
100
AcDbSymbolTableRecord
100
AcDbRegAppTableRecord
  2
ACAD
 70
0
  0
ENDTAB
  0
TABLE
  2
BLOCK_RECORD
  5
1
100
AcDbSymbolTable
 70
0
  0
BLOCK_RECORD
  5
212
100
AcDbSymbolTableRecord
100
AcDbBlockTableRecord
  2
*Model_Space
  0
BLOCK_RECORD
  5
213
100
AcDbSymbolTableRecord
100
AcDbBlockTableRecord
  2
*Paper_Space
  0
ENDTAB
  0
TABLE
  2
DIMSTYLE
  5
A
100
AcDbSymbolTable
 70
1
100
AcDbDimStyleTable
 71
0
  0
DIMSTYLE
105
214
100
AcDbSymbolTableRecord
100
AcDbDimStyleTableRecord
  2
STANDARD
 70
0
  3

  4

 40
1.0
 41
3.0
 42
0.0625
 43
0.38
 44
0.18
 45
0.0
 46
0.0
 47
0.01
 48
0.01
140
3.0
141
0.09
142
0.0
143
25.4
144
1.0
145
0.0
146
1.0
147
0.09
 71
1.0
 72
0.0
 73
0
 74
0
 75
0
 76
0
 77
1
 78
8
170
0
171
2
172
0
173
0
174
0
175
0
176
0
177
0
178
0
270
2
271
2
272
2
273
2
274
2
275
0
280
0
281
0
282
0
283
1
284
8
285
0
286
0
287
3
288
0
340
11
  0
ENDTAB
  0
ENDSEC
  0
SECTION
  2
BLOCKS
  0
BLOCK
  5
20
100
AcDbEntity
  8
0
100
AcDbBlockBegin
  2
*Model_Space
 70
0
 10
0.0
 20
0.0
 30
0.0
  3
*Model_Space
  1

  0
ENDBLK
  5
21
100
AcDbEntity
  8
0
100
AcDbBlockEnd
  0
BLOCK
  5
1C
100
AcDbEntity
  8
0
100
AcDbBlockBegin
  2
*Paper_Space
 70
0
 10
0.0
 20
0.0
 30
0.0
  3
*Paper_Space
  1

  0
ENDBLK
  5
1D
100
AcDbEntity
  8
0
100
AcDbBlockEnd
  0
ENDSEC
  0
SECTION
  2
ENTITIES
  0
LINE
  5
215
100
AcDbEntity
  8
RACCORDO
100
AcDbLine
 62
7
  6
CONTINUOUS
 10
-11.2007821489
 20
7.9034799436
 11
-11.1989452525
 21
7.90531684
  0
LINE
  5
216
100
AcDbEntity
  8
ASSI
100
AcDbLine
 62
7
  6
CONTINUOUS
 10
-11.2007821489
 20
7.9034799436
 11
-11.1989452525
 21
7.90531684
  0
LINE
  5
217
100
AcDbEntity
  8
RACCORDO
100
AcDbLine
 62
7
  6
CONTINUOUS
 10
-12.2872890711
 20
-9.0804553672
 11
-12.3007821489
 21
-1.7256812722
  0
LINE
  5
218
100
AcDbEntity
  8
ASSI
100
AcDbLine
 62
7
  6
CONTINUOUS
 10
-12.2872890711
 20
-9.0804553672
 11
-12.3007821489
 21
-1.7256812722
  0
LINE
  5
219
100
AcDbEntity
  8
DRAFT
100
AcDbLine
 62
7
  6
CONTINUOUS
 10
-12.3007821489
 20
7.9034799436
 11
-12.3007821489
 21
-1.7256812722
  0
LINE
  5
21A
100
AcDbEntity
  8
ASSI
100
AcDbLine
 62
7
  6
CONTINUOUS
 10
-12.3007821489
 20
7.9034799436
 11
-12.3007821489
 21
-1.7256812722
  0
LINE
  5
21B
100
AcDbEntity
  8
RACCORDO
100
AcDbLine
 62
7
  6
CONTINUOUS
 10
-12.2938001229
 20
8.2052711485
 11
-12.2938001229
 21
8.9058832146
  0
LINE
  5
21C
100
AcDbEntity
  8
ASSI
100
AcDbLine
 62
7
  6
CONTINUOUS
 10
-12.2938001229
 20
8.2052711485
 11
-12.2938001229
 21
8.9058832146
  0
LINE
  5
21D
100
AcDbEntity
  8
RACCORDO
100
AcDbLine
 62
7
  6
CONTINUOUS
 10
-11.176345058
 20
-6.8022627058
 11
-11.1293074101
 21
-6.8493003536
  0
LINE
  5
21E
100
AcDbEntity
  8
ASSI
100
AcDbLine
 62
7
  6
CONTINUOUS
 10
-11.176345058
 20
-6.8022627058
 11
-11.1293074101
 21
-6.8493003536
  0
LINE
  5
21F
100
AcDbEntity
  8
DRAFT
100
AcDbLine
 62
7
  6
CONTINUOUS
 10
-11.196274563
 20
-4.1826652497
 11
-11.1868308934
 21
-9.3301977392
  0
LINE
  5
220
100
AcDbEntity
  8
ASSI
100
AcDbLine
 62
7
  6
CONTINUOUS
 10
-11.196274563
 20
-4.1826652497
 11
-11.1868308934
 21
-9.3301977392
  0
LINE
  5
221
100
AcDbEntity
  8
DRAFT
100
AcDbLine
 62
7
  6
CONTINUOUS
 10
-11.496274563
 20
-4.1826652497
 11
-11.5007821489
 21
-1.6871728356
  0
LINE
  5
222
100
AcDbEntity
  8
ASSI
100
AcDbLine
 62
7
  6
CONTINUOUS
 10
-11.496274563
 20
-4.1826652497
 11
-11.5007821489
 21
-1.6871728356
  0
LINE
  5
223
100
AcDbEntity
  8
DRAFT
100
AcDbLine
 62
7
  6
CONTINUOUS
 10
-11.2007821489
 20
7.9034799436
 11
-11.2007821489
 21
-1.6871728356
  0
LINE
  5
224
100
AcDbEntity
  8
ASSI
100
AcDbLine
 62
7
  6
CONTINUOUS
 10
-11.2007821489
 20
7.9034799436
 11
-11.2007821489
 21
-1.6871728356
  0
LINE
  5
225
100
AcDbEntity
  8
RACCORDO
100
AcDbLine
 62
7
  6
CONTINUOUS
 10
-11.1938001229
 20
8.2052711485
 11
-11.1938001229
 21
8.0151923592
  0
LINE
  5
226
100
AcDbEntity
  8
ASSI
100
AcDbLine
 62
7
  6
CONTINUOUS
 10
-11.1938001229
 20
8.2052711485
 11
-11.1938001229
 21
8.0151923592
  0
LINE
  5
227
100
AcDbEntity
  8
RACCORDO
100
AcDbLine
 62
7
  6
CONTINUOUS
 10
-11.1868180969
 20
-9.3301945403
 11
-11.1868180969
 21
-7.9424064665
  0
LINE
  5
228
100
AcDbEntity
  8
ASSI
100
AcDbLine
 62
7
  6
CONTINUOUS
 10
-11.1868180969
 20
-9.3301945403
 11
-11.1868180969
 21
-7.9424064665
  0
LINE
  5
229
100
AcDbEntity
  8
DRAFT
100
AcDbLine
 62
7
  6
CONTINUOUS
 10
-11.1833270839
 20
-1.0790649914
 11
-11.1833270839
 21
-1.7046279005
  0
LINE
  5
22A
100
AcDbEntity
  8
ASSI
100
AcDbLine
 62
7
  6
CONTINUOUS
 10
-11.1833270839
 20
-1.0790649914
 11
-11.1833270839
 21
-1.7046279005
  0
LINE
  5
22B
100
AcDbEntity
  8
DRAFT
100
AcDbLine
 62
7
  6
CONTINUOUS
 10
-11.1833270839
 20
-4.1697177707
 11
-11.1833270839
 21
-4.7952806798
  0
LINE
  5
22C
100
AcDbEntity
  8
ASSI
100
AcDbLine
 62
7
  6
CONTINUOUS
 10
-11.1833270839
 20
-4.1697177707
 11
-11.1833270839
 21
-4.7952806798
  0
LINE
  5
22D
100
AcDbEntity
  8
DRAFT
100
AcDbLine
 62
7
  6
CONTINUOUS
 10
-11.176345058
 20
1.7279170345
 11
-11.176345058
 21
1.0977372942
  0
LINE
  5
22E
100
AcDbEntity
  8
ASSI
100
AcDbLine
 62
7
  6
CONTINUOUS
 10
-11.176345058
 20
1.7279170345
 11
-11.176345058
 21
1.0977372942
  0
LINE
  5
22F
100
AcDbEntity
  8
DRAFT
100
AcDbLine
 62
7
  6
CONTINUOUS
 10
-11.176345058
 20
-6.1720829655
 11
-11.176345058
 21
-6.8022627058
  0
LINE
  5
230
100
AcDbEntity
  8
ASSI
100
AcDbLine
 62
7
  6
CONTINUOUS
 10
-11.176345058
 20
-6.1720829655
 11
-11.176345058
 21
-6.8022627058
  0
LINE
  5
231
100
AcDbEntity
  8
RACCORDO
100
AcDbLine
 62
7
  6
CONTINUOUS
 10
-9.8335091007
 20
-6.8544458838
 11
-9.8805471491
 21
-6.8074078354
  0
LINE
  5
232
100
AcDbEntity
  8
ASSI
100
AcDbLine
 62
7
  6
CONTINUOUS
 10
-9.8335091007
 20
-6.8544458838
 11
-9.8805471491
 21
-6.8074078354
  0
LINE
  5
233
100
AcDbEntity
  8
RACCORDO
100
AcDbLine
 62
7
  6
CONTINUOUS
 10
-11.1833270839
 20
-4.7952806798
 11
-11.128053063
 21
-4.8505547007
  0
LINE
  5
234
100
AcDbEntity
  8
ASSI
100
AcDbLine
 62
7
  6
CONTINUOUS
 10
-11.1833270839
 20
-4.7952806798
 11
-11.128053063
 21
-4.8505547007
  0
LINE
  5
235
100
AcDbEntity
  8
DRAFT
100
AcDbLine
 62
7
  6
CONTINUOUS
 10
-10.4182372138
 20
-4.1697177707
 11
-10.4182372138
 21
-1.7046279005
  0
LINE
  5
236
100
AcDbEntity
  8
ASSI
100
AcDbLine
 62
7
  6
CONTINUOUS
 10
-10.4182372138
 20
-4.1697177707
 11
-10.4182372138
 21
-1.7046279005
  0
LINE
  5
237
100
AcDbEntity
  8
RACCORDO
100
AcDbLine
 62
253
  6
CONTINUOUS
 10
-10.1805014576
 20
-6.8022627058
 11
-10.1805014576
 21
-6.1720829655
  0
LINE
  5
238
100
AcDbEntity
  8
ASSI
100
AcDbLine
 62
253
  6
CONTINUOUS
 10
-10.1805014576
 20
-6.8022627058
 11
-10.1805014576
 21
-6.1720829655
  0
LINE
  5
239
100
AcDbEntity
  8
RACCORDO
100
AcDbLine
 62
253
  6
CONTINUOUS
 10
-10.1805014576
 20
1.0977372942
 11
-10.1805014576
 21
1.7279170345
  0
LINE
  5
23A
100
AcDbEntity
  8
ASSI
100
AcDbLine
 62
253
  6
CONTINUOUS
 10
-10.1805014576
 20
1.0977372942
 11
-10.1805014576
 21
1.7279170345
  0
LINE
  5
23B
100
AcDbEntity
  8
DRAFT
100
AcDbLine
 62
7
  6
CONTINUOUS
 10
-10.1507821489
 20
-4.7952806798
 11
-10.1507821489
 21
-1.0790649914
  0
LINE
  5
23C
100
AcDbEntity
  8
ASSI
100
AcDbLine
 62
7
  6
CONTINUOUS
 10
-10.1507821489
 20
-4.7952806798
 11
-10.1507821489
 21
-1.0790649914
  0
LINE
  5
23D
100
AcDbEntity
  8
RACCORDO
100
AcDbLine
 62
253
  6
CONTINUOUS
 10
-10.8251156376
 20
1.7843364383
 11
-10.8239750037
 21
7.9401764485
  0
LINE
  5
23E
100
AcDbEntity
  8
ASSI
100
AcDbLine
 62
253
  6
CONTINUOUS
 10
-10.8251156376
 20
1.7843364383
 11
-10.8239750037
 21
7.9401764485
  0
LINE
  5
23F
100
AcDbEntity
  8
RACCORDO
100
AcDbLine
 62
253
  6
CONTINUOUS
 10
-10.8261512625
 20
-1.0166999203
 11
-10.825358774
 21
1.0415611992
  0
LINE
  5
240
100
AcDbEntity
  8
ASSI
100
AcDbLine
 62
253
  6
CONTINUOUS
 10
-10.8261512625
 20
-1.0166999203
 11
-10.825358774
 21
1.0415611992
  0
LINE
  5
241
100
AcDbEntity
  8
RACCORDO
100
AcDbLine
 62
253
  6
CONTINUOUS
 10
-10.8288689257
 20
-6.1194195098
 11
-10.8280958691
 21
-4.8556997666
  0
LINE
  5
242
100
AcDbEntity
  8
ASSI
100
AcDbLine
 62
253
  6
CONTINUOUS
 10
-10.8288689257
 20
-6.1194195098
 11
-10.8280958691
 21
-4.8556997666
  0
LINE
  5
243
100
AcDbEntity
  8
RACCORDO
100
AcDbLine
 62
253
  6
CONTINUOUS
 10
-10.829703514
 20
-7.3768392305
 11
-10.8293488639
 21
-6.8544458842
  0
LINE
  5
244
100
AcDbEntity
  8
ASSI
100
AcDbLine
 62
253
  6
CONTINUOUS
 10
-10.829703514
 20
-7.3768392305
 11
-10.8293488639
 21
-6.8544458842
  0
LINE
  5
245
100
AcDbEntity
  8
RACCORDO
100
AcDbLine
 62
253
  6
CONTINUOUS
 10
-11.1868180969
 20
-7.9424064665
 11
-11.1296578227
 21
-7.3649867543
  0
LINE
  5
246
100
AcDbEntity
  8
ASSI
100
AcDbLine
 62
253
  6
CONTINUOUS
 10
-11.1868180969
 20
-7.9424064665
 11
-11.1296578227
 21
-7.3649867543
  0
LINE
  5
247
100
AcDbEntity
  8
RACCORDO
100
AcDbLine
 62
7
  6
CONTINUOUS
 10
-7.5559272785
 20
7.9576820348
 11
-7.5734328648
 21
7.9401764485
  0
LINE
  5
248
100
AcDbEntity
  8
ASSI
100
AcDbLine
 62
7
  6
CONTINUOUS
 10
-7.5559272785
 20
7.9576820348
 11
-7.5734328648
 21
7.9401764485
  0
LINE
  5
249
100
AcDbEntity
  8
DRAFT
100
AcDbLine
 62
7
  6
CONTINUOUS
 10
-10.4182372138
 20
-4.1697177707
 11
-10.4790824988
 21
-4.1088724857
  0
LINE
  5
24A
100
AcDbEntity
  8
ASSI
100
AcDbLine
 62
7
  6
CONTINUOUS
 10
-10.4182372138
 20
-4.1697177707
 11
-10.4790824988
 21
-4.1088724857
  0
LINE
  5
24B
100
AcDbEntity
  8
DRAFT
100
AcDbLine
 62
7
  6
CONTINUOUS
 10
-9.9007821489
 20
-1.0166999204
 11
-9.9007821489
 21
-1.0532150857
  0
LINE
  5
24C
100
AcDbEntity
  8
ASSI
100
AcDbLine
 62
7
  6
CONTINUOUS
 10
-9.9007821489
 20
-1.0166999204
 11
-9.9007821489
 21
-1.0532150857
  0
LINE
  5
24D
100
AcDbEntity
  8
DRAFT
100
AcDbLine
 62
7
  6
CONTINUOUS
 10
-9.9007821489
 20
-4.8211305855
 11
-9.9007821489
 21
-4.8556997664
  0
LINE
  5
24E
100
AcDbEntity
  8
ASSI
100
AcDbLine
 62
7
  6
CONTINUOUS
 10
-9.9007821489
 20
-4.8211305855
 11
-9.9007821489
 21
-4.8556997664
  0
LINE
  5
24F
100
AcDbEntity
  8
RACCORDO
100
AcDbLine
 62
253
  6
CONTINUOUS
 10
-9.8805471491
 20
-6.8074078354
 11
-9.8805471491
 21
-6.1669378359
  0
LINE
  5
250
100
AcDbEntity
  8
ASSI
100
AcDbLine
 62
253
  6
CONTINUOUS
 10
-9.8805471491
 20
-6.8074078354
 11
-9.8805471491
 21
-6.1669378359
  0
LINE
  5
251
100
AcDbEntity
  8
RACCORDO
100
AcDbLine
 62
253
  6
CONTINUOUS
 10
-9.8805471491
 20
1.0925921646
 11
-9.8805471491
 21
1.7330621641
  0
LINE
  5
252
100
AcDbEntity
  8
ASSI
100
AcDbLine
 62
253
  6
CONTINUOUS
 10
-9.8805471491
 20
1.0925921646
 11
-9.8805471491
 21
1.7330621641
  0
LINE
  5
253
100
AcDbEntity
  8
DRAFT
100
AcDbLine
 62
7
  6
CONTINUOUS
 10
-9.5007821489
 20
-4.8170995109
 11
-9.5007821489
 21
-1.0572461603
  0
LINE
  5
254
100
AcDbEntity
  8
ASSI
100
AcDbLine
 62
7
  6
CONTINUOUS
 10
-9.5007821489
 20
-4.8170995109
 11
-9.5007821489
 21
-1.0572461603
  0
LINE
  5
255
100
AcDbEntity
  8
RACCORDO
100
AcDbLine
 62
253
  6
CONTINUOUS
 10
-10.8876817106
 20
-8.2461112511
 11
-10.8297035128
 21
-7.6604290666
  0
LINE
  5
256
100
AcDbEntity
  8
ASSI
100
AcDbLine
 62
253
  6
CONTINUOUS
 10
-10.8876817106
 20
-8.2461112511
 11
-10.8297035128
 21
-7.6604290666
  0
LINE
  5
257
100
AcDbEntity
  8
RACCORDO
100
AcDbLine
 62
7
  6
CONTINUOUS
 10
-11.1250732314
 20
1.7791888611
 11
-11.176345058
 21
1.7279170345
  0
LINE
  5
258
100
AcDbEntity
  8
ASSI
100
AcDbLine
 62
7
  6
CONTINUOUS
 10
-11.1250732314
 20
1.7791888611
 11
-11.176345058
 21
1.7279170345
  0
LINE
  5
259
100
AcDbEntity
  8
RACCORDO
100
AcDbLine
 62
7
  6
CONTINUOUS
 10
12.0352665943
 20
-9.3301977392
 11
11.1852665957
 21
-9.3301977392
  0
LINE
  5
25A
100
AcDbEntity
  8
RACCORDO
100
AcDbLine
 62
7
  6
CONTINUOUS
 10
-11.1868308934
 20
-9.3301977392
 11
-12.036830892
 21
-9.3301977392
  0
LINE
  5
25B
100
AcDbEntity
  8
DRAFT
100
AcDbLine
 62
7
  6
CONTINUOUS
 10
-11.1868276943
 20
-9.3301961397
 11
11.1852633966
 21
-9.3301961397
  0
LINE
  5
25C
100
AcDbEntity
  8
ASSI
100
AcDbLine
 62
7
  6
CONTINUOUS
 10
-12.036830892
 20
-9.3301977392
 11
12.0352665943
 21
-9.3301977392
  0
LINE
  5
25D
100
AcDbEntity
  8
DRAFT
100
AcDbLine
 62
7
  6
CONTINUOUS
 10
-11.5007821489
 20
-1.6871728356
 11
-11.4212943908
 21
-1.7666605937
  0
LINE
  5
25E
100
AcDbEntity
  8
ASSI
100
AcDbLine
 62
7
  6
CONTINUOUS
 10
-11.5007821489
 20
-1.6871728356
 11
-11.4212943908
 21
-1.7666605937
  0
LINE
  5
25F
100
AcDbEntity
  8
DRAFT
100
AcDbLine
 62
7
  6
CONTINUOUS
 10
-8.5132481394
 20
9.1558451384
 11
-8.5132481394
 21
8.0151923592
  0
LINE
  5
260
100
AcDbEntity
  8
ASSI
100
AcDbLine
 62
7
  6
CONTINUOUS
 10
-8.5132481394
 20
9.1558451384
 11
-8.5132481394
 21
8.0151923592
  0
LINE
  5
261
100
AcDbEntity
  8
DRAFT
100
AcDbLine
 62
7
  6
CONTINUOUS
 10
-8.2507821489
 20
9.1034799436
 11
-8.2507821489
 21
7.9628271644
  0
LINE
  5
262
100
AcDbEntity
  8
ASSI
100
AcDbLine
 62
7
  6
CONTINUOUS
 10
-8.2507821489
 20
9.1034799436
 11
-8.2507821489
 21
7.9628271644
  0
LINE
  5
263
100
AcDbEntity
  8
RACCORDO
100
AcDbLine
 62
7
  6
CONTINUOUS
 10
-9.829272875
 20
1.7843364382
 11
-9.8805471491
 21
1.7330621641
  0
LINE
  5
264
100
AcDbEntity
  8
ASSI
100
AcDbLine
 62
7
  6
CONTINUOUS
 10
-9.829272875
 20
1.7843364382
 11
-9.8805471491
 21
1.7330621641
  0
LINE
  5
265
100
AcDbEntity
  8
RACCORDO
100
AcDbLine
 62
7
  6
CONTINUOUS
 10
-10.8876817106
 20
-8.2461112511
 11
10.8861174129
 21
-8.2461112511
  0
LINE
  5
266
100
AcDbEntity
  8
ASSI
100
AcDbLine
 62
7
  6
CONTINUOUS
 10
-10.8876817106
 20
-8.2461112511
 11
10.8861174129
 21
-8.2461112511
  0
LINE
  5
267
100
AcDbEntity
  8
DRAFT
100
AcDbLine
 62
7
  6
CONTINUOUS
 10
-11.2007821489
 20
-1.6871728356
 11
-11.1833270839
 21
-1.7046279005
  0
LINE
  5
268
100
AcDbEntity
  8
ASSI
100
AcDbLine
 62
7
  6
CONTINUOUS
 10
-11.2007821489
 20
-1.6871728356
 11
-11.1833270839
 21
-1.7046279005
  0
LINE
  5
269
100
AcDbEntity
  8
RACCORDO
100
AcDbLine
 62
253
  6
CONTINUOUS
 10
-6.0356775764
 20
-6.6022317166
 11
-6.0059272785
 21
-6.6319820146
  0
LINE
  5
26A
100
AcDbEntity
  8
ASSI
100
AcDbLine
 62
253
  6
CONTINUOUS
 10
-6.0356775764
 20
-6.6022317166
 11
-6.0059272785
 21
-6.6319820146
  0
LINE
  5
26B
100
AcDbEntity
  8
RACCORDO
100
AcDbLine
 62
253
  6
CONTINUOUS
 10
-5.7359189597
 20
-6.3020817162
 11
-5.7059729368
 21
-6.3320277391
  0
LINE
  5
26C
100
AcDbEntity
  8
ASSI
100
AcDbLine
 62
253
  6
CONTINUOUS
 10
-5.7359189597
 20
-6.3020817162
 11
-5.7059729368
 21
-6.3320277391
  0
LINE
  5
26D
100
AcDbEntity
  8
RACCORDO
100
AcDbLine
 62
253
  6
CONTINUOUS
 10
-7.5394947076
 20
5.0971417394
 11
-7.5518373023
 21
5.8042485206
  0
LINE
  5
26E
100
AcDbEntity
  8
ASSI
100
AcDbLine
 62
253
  6
CONTINUOUS
 10
-7.5394947076
 20
5.0971417394
 11
-7.5518373023
 21
5.8042485206
  0
LINE
  5
26F
100
AcDbEntity
  8
RACCORDO
100
AcDbLine
 62
253
  6
CONTINUOUS
 10
-7.239540399
 20
5.3092737738
 11
-7.2518829938
 21
6.016380555
  0
LINE
  5
270
100
AcDbEntity
  8
ASSI
100
AcDbLine
 62
253
  6
CONTINUOUS
 10
-7.239540399
 20
5.3092737738
 11
-7.2518829938
 21
6.016380555
  0
LINE
  5
271
100
AcDbEntity
  8
RACCORDO
100
AcDbLine
 62
253
  6
CONTINUOUS
 10
-7.5559272785
 20
6.3699339456
 11
-7.5559272785
 21
7.9576820348
  0
LINE
  5
272
100
AcDbEntity
  8
ASSI
100
AcDbLine
 62
253
  6
CONTINUOUS
 10
-7.5559272785
 20
6.3699339456
 11
-7.5559272785
 21
7.9576820348
  0
LINE
  5
273
100
AcDbEntity
  8
RACCORDO
100
AcDbLine
 62
253
  6
CONTINUOUS
 10
-7.5384722135
 20
3.5716308609
 11
-7.5384722135
 21
4.9557203832
  0
LINE
  5
274
100
AcDbEntity
  8
ASSI
100
AcDbLine
 62
253
  6
CONTINUOUS
 10
-7.5384722135
 20
3.5716308609
 11
-7.5384722135
 21
4.9557203832
  0
LINE
  5
275
100
AcDbEntity
  8
RACCORDO
100
AcDbLine
 62
253
  6
CONTINUOUS
 10
-7.2559729699
 20
6.3699183119
 11
-7.2559729699
 21
7.9628271644
  0
LINE
  5
276
100
AcDbEntity
  8
ASSI
100
AcDbLine
 62
253
  6
CONTINUOUS
 10
-7.2559729699
 20
6.3699183119
 11
-7.2559729699
 21
7.9628271644
  0
LINE
  5
277
100
AcDbEntity
  8
RACCORDO
100
AcDbLine
 62
253
  6
CONTINUOUS
 10
-7.238517905
 20
3.5716308609
 11
-7.238517905
 21
4.9557203832
  0
LINE
  5
278
100
AcDbEntity
  8
ASSI
100
AcDbLine
 62
253
  6
CONTINUOUS
 10
-7.238517905
 20
3.5716308609
 11
-7.238517905
 21
4.9557203832
  0
LINE
  5
279
100
AcDbEntity
  8
RACCORDO
100
AcDbLine
 62
253
  6
CONTINUOUS
 10
-7.0630463927
 20
4.9557203832
 11
-7.0630463927
 21
3.5716308609
  0
LINE
  5
27A
100
AcDbEntity
  8
ASSI
100
AcDbLine
 62
253
  6
CONTINUOUS
 10
-7.0630463927
 20
4.9557203832
 11
-7.0630463927
 21
3.5716308609
  0
LINE
  5
27B
100
AcDbEntity
  8
RACCORDO
100
AcDbLine
 62
253
  6
CONTINUOUS
 10
-7.0455913278
 20
7.9628271644
 11
-7.0455913278
 21
6.369918609
  0
LINE
  5
27C
100
AcDbEntity
  8
ASSI
100
AcDbLine
 62
253
  6
CONTINUOUS
 10
-7.0455913278
 20
7.9628271644
 11
-7.0455913278
 21
6.369918609
  0
LINE
  5
27D
100
AcDbEntity
  8
RACCORDO
100
AcDbLine
 62
253
  6
CONTINUOUS
 10
-7.0496813039
 20
6.016380555
 11
-7.0620238987
 21
5.3092737738
  0
LINE
  5
27E
100
AcDbEntity
  8
ASSI
100
AcDbLine
 62
253
  6
CONTINUOUS
 10
-7.0496813039
 20
6.016380555
 11
-7.0620238987
 21
5.3092737738
  0
LINE
  5
27F
100
AcDbEntity
  8
RACCORDO
100
AcDbLine
 62
253
  6
CONTINUOUS
 10
-7.5727275296
 20
3.3408360921
 11
-7.5419023
 21
3.3716613218
  0
LINE
  5
280
100
AcDbEntity
  8
ASSI
100
AcDbLine
 62
253
  6
CONTINUOUS
 10
-7.5727275296
 20
3.3408360921
 11
-7.5419023
 21
3.3716613218
  0
LINE
  5
281
100
AcDbEntity
  8
RACCORDO
100
AcDbLine
 62
253
  6
CONTINUOUS
 10
-7.272696965
 20
3.0409580397
 11
-7.2419479914
 21
3.0717070133
  0
LINE
  5
282
100
AcDbEntity
  8
ASSI
100
AcDbLine
 62
253
  6
CONTINUOUS
 10
-7.272696965
 20
3.0409580397
 11
-7.2419479914
 21
3.0717070133
  0
LINE
  5
283
100
AcDbEntity
  8
RACCORDO
100
AcDbLine
 62
7
  6
CONTINUOUS
 10
-11.1261109201
 20
-1.0218488276
 11
-11.1833270839
 21
-1.0790649914
  0
LINE
  5
284
100
AcDbEntity
  8
ASSI
100
AcDbLine
 62
7
  6
CONTINUOUS
 10
-11.1261109201
 20
-1.0218488276
 11
-11.1833270839
 21
-1.0790649914
  0
LINE
  5
285
100
AcDbEntity
  8
RACCORDO
100
AcDbLine
 62
7
  6
CONTINUOUS
 10
-5.7059729699
 20
-7.9639880819
 11
-5.4955913278
 21
-7.9639880819
  0
LINE
  5
286
100
AcDbEntity
  8
ASSI
100
AcDbLine
 62
7
  6
CONTINUOUS
 10
-5.7059729699
 20
-7.9639880819
 11
-5.4955913278
 21
-7.9639880819
  0
LINE
  5
287
100
AcDbEntity
  8
RACCORDO
100
AcDbLine
 62
7
  6
CONTINUOUS
 10
5.7044086722
 20
-7.9639880819
 11
5.4940270301
 21
-7.9639880819
  0
LINE
  5
288
100
AcDbEntity
  8
ASSI
100
AcDbLine
 62
7
  6
CONTINUOUS
 10
5.7044086722
 20
-7.9639880819
 11
5.4940270301
 21
-7.9639880819
  0
LINE
  5
289
100
AcDbEntity
  8
RACCORDO
100
AcDbLine
 62
253
  6
CONTINUOUS
 10
10.8281392151
 20
-7.6604290666
 11
6.029267945
 21
-7.6604290666
  0
LINE
  5
28A
100
AcDbEntity
  8
ASSI
100
AcDbLine
 62
253
  6
CONTINUOUS
 10
10.8281392151
 20
-7.6604290666
 11
6.029267945
 21
-7.6604290666
  0
LINE
  5
28B
100
AcDbEntity
  8
RACCORDO
100
AcDbLine
 62
253
  6
CONTINUOUS
 10
5.1691677573
 20
-7.6604290666
 11
-5.170732055
 21
-7.6604290666
  0
LINE
  5
28C
100
AcDbEntity
  8
ASSI
100
AcDbLine
 62
253
  6
CONTINUOUS
 10
5.1691677573
 20
-7.6604290666
 11
-5.170732055
 21
-7.6604290666
  0
LINE
  5
28D
100
AcDbEntity
  8
RACCORDO
100
AcDbLine
 62
253
  6
CONTINUOUS
 10
-6.0308322427
 20
-7.6604290666
 11
-10.8297035128
 21
-7.6604290666
  0
LINE
  5
28E
100
AcDbEntity
  8
ASSI
100
AcDbLine
 62
253
  6
CONTINUOUS
 10
-6.0308322427
 20
-7.6604290666
 11
-10.8297035128
 21
-7.6604290666
  0
LINE
  5
28F
100
AcDbEntity
  8
RACCORDO
100
AcDbLine
 62
253
  6
CONTINUOUS
 10
10.8281392163
 20
-7.3768392305
 11
6.033591064
 21
-7.3768392305
  0
LINE
  5
290
100
AcDbEntity
  8
ASSI
100
AcDbLine
 62
253
  6
CONTINUOUS
 10
10.8281392163
 20
-7.3768392305
 11
6.033591064
 21
-7.3768392305
  0
LINE
  5
291
100
AcDbEntity
  8
RACCORDO
100
AcDbLine
 62
253
  6
CONTINUOUS
 10
5.1648446383
 20
-7.3768392305
 11
-5.166408936
 21
-7.3768392305
  0
LINE
  5
292
100
AcDbEntity
  8
ASSI
100
AcDbLine
 62
253
  6
CONTINUOUS
 10
5.1648446383
 20
-7.3768392305
 11
-5.166408936
 21
-7.3768392305
  0
LINE
  5
293
100
AcDbEntity
  8
RACCORDO
100
AcDbLine
 62
253
  6
CONTINUOUS
 10
-6.0351553617
 20
-7.3768392305
 11
-10.829703514
 21
-7.3768392305
  0
LINE
  5
294
100
AcDbEntity
  8
ASSI
100
AcDbLine
 62
253
  6
CONTINUOUS
 10
-6.0351553617
 20
-7.3768392305
 11
-10.829703514
 21
-7.3768392305
  0
LINE
  5
295
100
AcDbEntity
  8
RACCORDO
100
AcDbLine
 62
7
  6
CONTINUOUS
 10
-11.176345058
 20
1.0977372942
 11
-11.1253133388
 21
1.0467055751
  0
LINE
  5
296
100
AcDbEntity
  8
ASSI
100
AcDbLine
 62
7
  6
CONTINUOUS
 10
-11.176345058
 20
1.0977372942
 11
-11.1253133388
 21
1.0467055751
  0
LINE
  5
297
100
AcDbEntity
  8
RACCORDO
100
AcDbLine
 62
7
  6
CONTINUOUS
 10
-6.0308322427
 20
-7.6604290666
 11
-6.0059272785
 21
-7.9120131867
  0
LINE
  5
298
100
AcDbEntity
  8
ASSI
100
AcDbLine
 62
7
  6
CONTINUOUS
 10
-6.0308322427
 20
-7.6604290666
 11
-6.0059272785
 21
-7.9120131867
  0
LINE
  5
299
100
AcDbEntity
  8
RACCORDO
100
AcDbLine
 62
253
  6
CONTINUOUS
 10
-6.7630920842
 20
4.9557203832
 11
-6.7630920842
 21
3.5716308609
  0
LINE
  5
29A
100
AcDbEntity
  8
ASSI
100
AcDbLine
 62
253
  6
CONTINUOUS
 10
-6.7630920842
 20
4.9557203832
 11
-6.7630920842
 21
3.5716308609
  0
LINE
  5
29B
100
AcDbEntity
  8
RACCORDO
100
AcDbLine
 62
253
  6
CONTINUOUS
 10
-6.7456370192
 20
7.9576820348
 11
-6.7456370192
 21
6.3699339456
  0
LINE
  5
29C
100
AcDbEntity
  8
ASSI
100
AcDbLine
 62
253
  6
CONTINUOUS
 10
-6.7456370192
 20
7.9576820348
 11
-6.7456370192
 21
6.3699339456
  0
LINE
  5
29D
100
AcDbEntity
  8
RACCORDO
100
AcDbLine
 62
253
  6
CONTINUOUS
 10
-6.7497269954
 20
5.8042485206
 11
-6.7620695901
 21
5.0971417394
  0
LINE
  5
29E
100
AcDbEntity
  8
ASSI
100
AcDbLine
 62
253
  6
CONTINUOUS
 10
-6.7497269954
 20
5.8042485206
 11
-6.7620695901
 21
5.0971417394
  0
LINE
  5
29F
100
AcDbEntity
  8
DRAFT
100
AcDbLine
 62
7
  6
CONTINUOUS
 10
-10.4182372138
 20
-1.7046279005
 11
-10.4802699069
 21
-1.7666605937
  0
LINE
  5
2A0
100
AcDbEntity
  8
ASSI
100
AcDbLine
 62
7
  6
CONTINUOUS
 10
-10.4182372138
 20
-1.7046279005
 11
-10.4802699069
 21
-1.7666605937
  0
LINE
  5
2A1
100
AcDbEntity
  8
0
100
AcDbLine
 62
7
  6
CONTINUOUS
 10
1.3758135807
 20
-6.3700055192
 11
1.6290050906
 21
-6.3345888356
  0
LINE
  5
2A2
100
AcDbEntity
  8
ASSI
100
AcDbLine
 62
7
  6
CONTINUOUS
 10
1.3758135807
 20
-6.3700055192
 11
1.6290050906
 21
-6.3345888356
  0
LINE
  5
2A3
100
AcDbEntity
  8
0
100
AcDbLine
 62
7
  6
CONTINUOUS
 10
0.6524093103
 20
-7.0783388356
 11
0.9417710793
 21
-7.0783388356
  0
LINE
  5
2A4
100
AcDbEntity
  8
ASSI
100
AcDbLine
 62
7
  6
CONTINUOUS
 10
0.6524093103
 20
-7.0783388356
 11
0.9417710793
 21
-7.0783388356
  0
LINE
  5
2A5
100
AcDbEntity
  8
0
100
AcDbLine
 62
7
  6
CONTINUOUS
 10
0.6885795188
 20
-6.8658388356
 11
2.0992178511
 21
-6.8658388356
  0
LINE
  5
2A6
100
AcDbEntity
  8
ASSI
100
AcDbLine
 62
7
  6
CONTINUOUS
 10
0.6885795188
 20
-6.8658388356
 11
2.0992178511
 21
-6.8658388356
  0
LINE
  5
2A7
100
AcDbEntity
  8
RACCORDO
100
AcDbLine
 62
7
  6
CONTINUOUS
 10
-10.8293488639
 20
-6.8544458838
 11
-9.8335091007
 21
-6.8544458838
  0
LINE
  5
2A8
100
AcDbEntity
  8
ASSI
100
AcDbLine
 62
7
  6
CONTINUOUS
 10
-10.8293488639
 20
-6.8544458838
 11
-9.8335091007
 21
-6.8544458838
  0
LINE
  5
2A9
100
AcDbEntity
  8
RACCORDO
100
AcDbLine
 62
7
  6
CONTINUOUS
 10
9.831944803
 20
-6.8544458838
 11
10.8277845662
 21
-6.8544458838
  0
LINE
  5
2AA
100
AcDbEntity
  8
ASSI
100
AcDbLine
 62
7
  6
CONTINUOUS
 10
9.831944803
 20
-6.8544458838
 11
10.8277845662
 21
-6.8544458838
  0
LINE
  5
2AB
100
AcDbEntity
  8
RACCORDO
100
AcDbLine
 62
7
  6
CONTINUOUS
 10
-11.176345058
 20
-6.8022627058
 11
-10.1805014576
 21
-6.8022627058
  0
LINE
  5
2AC
100
AcDbEntity
  8
ASSI
100
AcDbLine
 62
7
  6
CONTINUOUS
 10
-11.176345058
 20
-6.8022627058
 11
-10.1805014576
 21
-6.8022627058
  0
LINE
  5
2AD
100
AcDbEntity
  8
RACCORDO
100
AcDbLine
 62
7
  6
CONTINUOUS
 10
11.1747807602
 20
-6.8022627058
 11
10.1789371599
 21
-6.8022627058
  0
LINE
  5
2AE
100
AcDbEntity
  8
ASSI
100
AcDbLine
 62
7
  6
CONTINUOUS
 10
11.1747807602
 20
-6.8022627058
 11
10.1789371599
 21
-6.8022627058
  0
LINE
  5
2AF
100
AcDbEntity
  8
0
100
AcDbLine
 62
7
  6
CONTINUOUS
 10
0.3992178511
 20
-6.6533388356
 11
2.0992178511
 21
-6.6533388356
  0
LINE
  5
2B0
100
AcDbEntity
  8
ASSI
100
AcDbLine
 62
7
  6
CONTINUOUS
 10
0.3992178511
 20
-6.6533388356
 11
2.0992178511
 21
-6.6533388356
  0
LINE
  5
2B1
100
AcDbEntity
  8
RACCORDO
100
AcDbLine
 62
253
  6
CONTINUOUS
 10
5.1940727215
 20
-6.6319820146
 11
6.0043629808
 21
-6.6319820146
  0
LINE
  5
2B2
100
AcDbEntity
  8
ASSI
100
AcDbLine
 62
253
  6
CONTINUOUS
 10
5.1940727215
 20
-6.6319820146
 11
6.0043629808
 21
-6.6319820146
  0
LINE
  5
2B3
100
AcDbEntity
  8
RACCORDO
100
AcDbLine
 62
253
  6
CONTINUOUS
 10
-5.1956370192
 20
-6.6319820146
 11
-6.0059272785
 21
-6.6319820146
  0
LINE
  5
2B4
100
AcDbEntity
  8
ASSI
100
AcDbLine
 62
253
  6
CONTINUOUS
 10
-5.1956370192
 20
-6.6319820146
 11
-6.0059272785
 21
-6.6319820146
  0
LINE
  5
2B5
100
AcDbEntity
  8
0
100
AcDbLine
 62
7
  6
CONTINUOUS
 10
1.1226221216
 20
-6.3700055192
 11
1.3758135807
 21
-6.3700055192
  0
LINE
  5
2B6
100
AcDbEntity
  8
ASSI
100
AcDbLine
 62
7
  6
CONTINUOUS
 10
1.1226221216
 20
-6.3700055192
 11
1.3758135807
 21
-6.3700055192
  0
LINE
  5
2B7
100
AcDbEntity
  8
RACCORDO
100
AcDbLine
 62
253
  6
CONTINUOUS
 10
5.7044086722
 20
-6.332027706
 11
5.4940270429
 21
-6.3320277188
  0
LINE
  5
2B8
100
AcDbEntity
  8
ASSI
100
AcDbLine
 62
253
  6
CONTINUOUS
 10
5.7044086722
 20
-6.332027706
 11
5.4940270429
 21
-6.3320277188
  0
LINE
  5
2B9
100
AcDbEntity
  8
RACCORDO
100
AcDbLine
 62
253
  6
CONTINUOUS
 10
-5.4955913452
 20
-6.3320277234
 11
-5.7059729368
 21
-6.3320277391
  0
LINE
  5
2BA
100
AcDbEntity
  8
ASSI
100
AcDbLine
 62
253
  6
CONTINUOUS
 10
-5.4955913452
 20
-6.3320277234
 11
-5.7059729368
 21
-6.3320277391
  0
LINE
  5
2BB
100
AcDbEntity
  8
RACCORDO
100
AcDbLine
 62
7
  6
CONTINUOUS
 10
-5.7359189597
 20
-6.3020817162
 11
-5.465645338
 21
-6.3020817162
  0
LINE
  5
2BC
100
AcDbEntity
  8
ASSI
100
AcDbLine
 62
7
  6
CONTINUOUS
 10
-5.7359189597
 20
-6.3020817162
 11
-5.465645338
 21
-6.3020817162
  0
LINE
  5
2BD
100
AcDbEntity
  8
RACCORDO
100
AcDbLine
 62
7
  6
CONTINUOUS
 10
5.4640810403
 20
-6.3020817162
 11
5.734354662
 21
-6.3020817162
  0
LINE
  5
2BE
100
AcDbEntity
  8
ASSI
100
AcDbLine
 62
7
  6
CONTINUOUS
 10
5.4640810403
 20
-6.3020817162
 11
5.734354662
 21
-6.3020817162
  0
LINE
  5
2BF
100
AcDbEntity
  8
0
100
AcDbLine
 62
7
  6
CONTINUOUS
 10
1.1226221216
 20
-6.1929222027
 11
1.1949625385
 21
-6.1929222027
  0
LINE
  5
2C0
100
AcDbEntity
  8
ASSI
100
AcDbLine
 62
7
  6
CONTINUOUS
 10
1.1226221216
 20
-6.1929222027
 11
1.1949625385
 21
-6.1929222027
  0
LINE
  5
2C1
100
AcDbEntity
  8
RACCORDO
100
AcDbLine
 62
7
  6
CONTINUOUS
 10
-11.176345058
 20
-6.1720829655
 11
-10.1805014576
 21
-6.1720829655
  0
LINE
  5
2C2
100
AcDbEntity
  8
ASSI
100
AcDbLine
 62
7
  6
CONTINUOUS
 10
-11.176345058
 20
-6.1720829655
 11
-10.1805014576
 21
-6.1720829655
  0
LINE
  5
2C3
100
AcDbEntity
  8
RACCORDO
100
AcDbLine
 62
7
  6
CONTINUOUS
 10
11.1747807602
 20
-6.1720829655
 11
10.1789371599
 21
-6.1720829655
  0
LINE
  5
2C4
100
AcDbEntity
  8
ASSI
100
AcDbLine
 62
7
  6
CONTINUOUS
 10
11.1747807602
 20
-6.1720829655
 11
10.1789371599
 21
-6.1720829655
  0
LINE
  5
2C5
100
AcDbEntity
  8
0
100
AcDbLine
 62
7
  6
CONTINUOUS
 10
1.4843242568
 20
-6.1575054685
 11
1.5928348821
 21
-6.1575054685
  0
LINE
  5
2C6
100
AcDbEntity
  8
ASSI
100
AcDbLine
 62
7
  6
CONTINUOUS
 10
1.4843242568
 20
-6.1575054685
 11
1.5928348821
 21
-6.1575054685
  0
LINE
  5
2C7
100
AcDbEntity
  8
RACCORDO
100
AcDbLine
 62
7
  6
CONTINUOUS
 10
-10.8288689259
 20
-6.1194195093
 11
-9.8330288225
 21
-6.1194195093
  0
LINE
  5
2C8
100
AcDbEntity
  8
ASSI
100
AcDbLine
 62
7
  6
CONTINUOUS
 10
-10.8288689259
 20
-6.1194195093
 11
-9.8330288225
 21
-6.1194195093
  0
LINE
  5
2C9
100
AcDbEntity
  8
RACCORDO
100
AcDbLine
 62
7
  6
CONTINUOUS
 10
9.8314645248
 20
-6.1194195093
 11
10.8273046282
 21
-6.1194195093
  0
LINE
  5
2CA
100
AcDbEntity
  8
ASSI
100
AcDbLine
 62
7
  6
CONTINUOUS
 10
9.8314645248
 20
-6.1194195093
 11
10.8273046282
 21
-6.1194195093
  0
LINE
  5
2CB
100
AcDbEntity
  8
0
100
AcDbLine
 62
7
  6
CONTINUOUS
 10
1.1226221216
 20
-6.3700055192
 11
0.8694306624
 21
-6.3345888356
  0
LINE
  5
2CC
100
AcDbEntity
  8
ASSI
100
AcDbLine
 62
7
  6
CONTINUOUS
 10
1.1226221216
 20
-6.3700055192
 11
0.8694306624
 21
-6.3345888356
  0
LINE
  5
2CD
100
AcDbEntity
  8
0
100
AcDbLine
 62
7
  6
CONTINUOUS
 10
-0.8982761489
 20
-6.3688608356
 11
-2.0683441489
 21
-6.0349388356
  0
LINE
  5
2CE
100
AcDbEntity
  8
ASSI
100
AcDbLine
 62
7
  6
CONTINUOUS
 10
-0.8982761489
 20
-6.3688608356
 11
-2.0683441489
 21
-6.0349388356
  0
LINE
  5
2CF
100
AcDbEntity
  8
RACCORDO
100
AcDbLine
 62
7
  6
CONTINUOUS
 10
-9.8295161837
 20
1.0415611992
 11
-9.8805471491
 21
1.0925921646
  0
LINE
  5
2D0
100
AcDbEntity
  8
ASSI
100
AcDbLine
 62
7
  6
CONTINUOUS
 10
-9.8295161837
 20
1.0415611992
 11
-9.8805471491
 21
1.0925921646
  0
LINE
  5
2D1
100
AcDbEntity
  8
RACCORDO
100
AcDbLine
 62
253
  6
CONTINUOUS
 10
-6.0059272785
 20
-6.6319820146
 11
-6.0059272785
 21
-7.9120131867
  0
LINE
  5
2D2
100
AcDbEntity
  8
ASSI
100
AcDbLine
 62
253
  6
CONTINUOUS
 10
-6.0059272785
 20
-6.6319820146
 11
-6.0059272785
 21
-7.9120131867
  0
LINE
  5
2D3
100
AcDbEntity
  8
RACCORDO
100
AcDbLine
 62
253
  6
CONTINUOUS
 10
-5.7059729699
 20
-6.3320277391
 11
-5.7059729699
 21
-7.9639880819
  0
LINE
  5
2D4
100
AcDbEntity
  8
ASSI
100
AcDbLine
 62
253
  6
CONTINUOUS
 10
-5.7059729699
 20
-6.3320277391
 11
-5.7059729699
 21
-7.9639880819
  0
LINE
  5
2D5
100
AcDbEntity
  8
RACCORDO
100
AcDbLine
 62
253
  6
CONTINUOUS
 10
-5.4955913278
 20
-7.9639880819
 11
-5.4955913278
 21
-6.3320277234
  0
LINE
  5
2D6
100
AcDbEntity
  8
ASSI
100
AcDbLine
 62
253
  6
CONTINUOUS
 10
-5.4955913278
 20
-7.9639880819
 11
-5.4955913278
 21
-6.3320277234
  0
LINE
  5
2D7
100
AcDbEntity
  8
RACCORDO
100
AcDbLine
 62
253
  6
CONTINUOUS
 10
-5.1956370192
 20
-7.9120131867
 11
-5.1956370192
 21
-6.6319820146
  0
LINE
  5
2D8
100
AcDbEntity
  8
ASSI
100
AcDbLine
 62
253
  6
CONTINUOUS
 10
-5.1956370192
 20
-7.9120131867
 11
-5.1956370192
 21
-6.6319820146
  0
LINE
  5
2D9
100
AcDbEntity
  8
DRAFT
100
AcDbLine
 62
7
  6
CONTINUOUS
 10
-11.496274563
 20
-4.1826652497
 11
-11.4224817989
 21
-4.1088724857
  0
LINE
  5
2DA
100
AcDbEntity
  8
ASSI
100
AcDbLine
 62
7
  6
CONTINUOUS
 10
-11.496274563
 20
-4.1826652497
 11
-11.4224817989
 21
-4.1088724857
  0
LINE
  5
2DB
100
AcDbEntity
  8
DRAFT
100
AcDbLine
 62
7
  6
CONTINUOUS
 10
-11.196274563
 20
-4.1826652497
 11
-11.1833270839
 21
-4.1697177707
  0
LINE
  5
2DC
100
AcDbEntity
  8
ASSI
100
AcDbLine
 62
7
  6
CONTINUOUS
 10
-11.196274563
 20
-4.1826652497
 11
-11.1833270839
 21
-4.1697177707
  0
LINE
  5
2DD
100
AcDbEntity
  8
0
100
AcDbLine
 62
7
  6
CONTINUOUS
 10
-0.8982761489
 20
-6.3688608356
 11
-2.0683441489
 21
-6.6928858356
  0
LINE
  5
2DE
100
AcDbEntity
  8
ASSI
100
AcDbLine
 62
7
  6
CONTINUOUS
 10
-0.8982761489
 20
-6.3688608356
 11
-2.0683441489
 21
-6.6928858356
  0
LINE
  5
2DF
100
AcDbEntity
  8
0
100
AcDbLine
 62
7
  6
CONTINUOUS
 10
-0.3684811489
 20
-5.5486748356
 11
-2.0684461489
 21
-5.5486748356
  0
LINE
  5
2E0
100
AcDbEntity
  8
ASSI
100
AcDbLine
 62
7
  6
CONTINUOUS
 10
-0.3684811489
 20
-5.5486748356
 11
-2.0684461489
 21
-5.5486748356
  0
LINE
  5
2E1
100
AcDbEntity
  8
0
100
AcDbLine
 62
7
  6
CONTINUOUS
 10
1.4843242568
 20
-5.2720888356
 11
1.5928348821
 21
-5.2720888356
  0
LINE
  5
2E2
100
AcDbEntity
  8
ASSI
100
AcDbLine
 62
7
  6
CONTINUOUS
 10
1.4843242568
 20
-5.2720888356
 11
1.5928348821
 21
-5.2720888356
  0
LINE
  5
2E3
100
AcDbEntity
  8
0
100
AcDbLine
 62
7
  6
CONTINUOUS
 10
-0.3684811489
 20
-5.1938468356
 11
-2.0684461489
 21
-5.1938468356
  0
LINE
  5
2E4
100
AcDbEntity
  8
ASSI
100
AcDbLine
 62
7
  6
CONTINUOUS
 10
-0.3684811489
 20
-5.1938468356
 11
-2.0684461489
 21
-5.1938468356
  0
LINE
  5
2E5
100
AcDbEntity
  8
0
100
AcDbLine
 62
7
  6
CONTINUOUS
 10
1.4481539976
 20
-5.0950055698
 11
1.6290050906
 21
-5.0950055698
  0
LINE
  5
2E6
100
AcDbEntity
  8
ASSI
100
AcDbLine
 62
7
  6
CONTINUOUS
 10
1.4481539976
 20
-5.0950055698
 11
1.6290050906
 21
-5.0950055698
  0
LINE
  5
2E7
100
AcDbEntity
  8
0
100
AcDbLine
 62
7
  6
CONTINUOUS
 10
1.1226221216
 20
-6.1929222027
 11
0.9056008708
 21
-6.1575054685
  0
LINE
  5
2E8
100
AcDbEntity
  8
ASSI
100
AcDbLine
 62
7
  6
CONTINUOUS
 10
1.1226221216
 20
-6.1929222027
 11
0.9056008708
 21
-6.1575054685
  0
LINE
  5
2E9
100
AcDbEntity
  8
0
100
AcDbLine
 62
7
  6
CONTINUOUS
 10
-0.3684811489
 20
-6.2267568356
 11
-2.0683441489
 21
-5.6803528356
  0
LINE
  5
2EA
100
AcDbEntity
  8
ASSI
100
AcDbLine
 62
7
  6
CONTINUOUS
 10
-0.3684811489
 20
-6.2267568356
 11
-2.0683441489
 21
-5.6803528356
  0
LINE
  5
2EB
100
AcDbEntity
  8
0
100
AcDbLine
 62
7
  6
CONTINUOUS
 10
0.9056008708
 20
-6.1575054685
 11
0.7970901441
 21
-6.1220888356
  0
LINE
  5
2EC
100
AcDbEntity
  8
ASSI
100
AcDbLine
 62
7
  6
CONTINUOUS
 10
0.9056008708
 20
-6.1575054685
 11
0.7970901441
 21
-6.1220888356
  0
LINE
  5
2ED
100
AcDbEntity
  8
0
100
AcDbLine
 62
7
  6
CONTINUOUS
 10
1.4843242568
 20
-6.1575054685
 11
1.3758135807
 21
-6.1220888356
  0
LINE
  5
2EE
100
AcDbEntity
  8
ASSI
100
AcDbLine
 62
7
  6
CONTINUOUS
 10
1.4843242568
 20
-6.1575054685
 11
1.3758135807
 21
-6.1220888356
  0
LINE
  5
2EF
100
AcDbEntity
  8
0
100
AcDbLine
 62
7
  6
CONTINUOUS
 10
0.8694306624
 20
-6.3345888356
 11
0.6885795188
 21
-6.2637555192
  0
LINE
  5
2F0
100
AcDbEntity
  8
ASSI
100
AcDbLine
 62
7
  6
CONTINUOUS
 10
0.8694306624
 20
-6.3345888356
 11
0.6885795188
 21
-6.2637555192
  0
LINE
  5
2F1
100
AcDbEntity
  8
ASSI
100
AcDbLine
 62
253
  6
CONTINUOUS
 10
-4.4306809163
 20
5.588717176
 11
-4.4241580111
 21
3.9372501225
  0
LINE
  5
2F2
100
AcDbEntity
  8
RACCORDO
100
AcDbLine
 62
7
  6
CONTINUOUS
 10
-5.170732055
 20
-7.6604290666
 11
-5.1956370192
 21
-7.9120131867
  0
LINE
  5
2F3
100
AcDbEntity
  8
ASSI
100
AcDbLine
 62
7
  6
CONTINUOUS
 10
-5.170732055
 20
-7.6604290666
 11
-5.1956370192
 21
-7.9120131867
  0
LINE
  5
2F4
100
AcDbEntity
  8
DRAFT
100
AcDbLine
 62
7
  6
CONTINUOUS
 10
10.1492178511
 20
-4.7952806798
 11
9.4992178511
 21
-4.806626472
  0
LINE
  5
2F5
100
AcDbEntity
  8
ASSI
100
AcDbLine
 62
7
  6
CONTINUOUS
 10
10.1492178511
 20
-4.7952806798
 11
9.4992178511
 21
-4.806626472
  0
LINE
  5
2F6
100
AcDbEntity
  8
DRAFT
100
AcDbLine
 62
7
  6
CONTINUOUS
 10
-9.9007821489
 20
-4.8211305855
 11
-9.5007821489
 21
-4.8170995109
  0
LINE
  5
2F7
100
AcDbEntity
  8
ASSI
100
AcDbLine
 62
7
  6
CONTINUOUS
 10
-9.9007821489
 20
-4.8211305855
 11
-9.5007821489
 21
-4.8170995109
  0
LINE
  5
2F8
100
AcDbEntity
  8
RACCORDO
100
AcDbLine
 62
7
  6
CONTINUOUS
 10
-10.8280958691
 20
-4.8556997664
 11
-9.9007821489
 21
-4.8556997664
  0
LINE
  5
2F9
100
AcDbEntity
  8
ASSI
100
AcDbLine
 62
7
  6
CONTINUOUS
 10
-10.8280958691
 20
-4.8556997664
 11
-9.9007821489
 21
-4.8556997664
  0
LINE
  5
2FA
100
AcDbEntity
  8
RACCORDO
100
AcDbLine
 62
7
  6
CONTINUOUS
 10
9.8992178511
 20
-4.8556997664
 11
10.8265315714
 21
-4.8556997664
  0
LINE
  5
2FB
100
AcDbEntity
  8
ASSI
100
AcDbLine
 62
7
  6
CONTINUOUS
 10
9.8992178511
 20
-4.8556997664
 11
10.8265315714
 21
-4.8556997664
  0
LINE
  5
2FC
100
AcDbEntity
  8
0
100
AcDbLine
 62
7
  6
CONTINUOUS
 10
1.5566646737
 20
-4.8116721014
 11
1.665175299
 21
-4.8116721014
  0
LINE
  5
2FD
100
AcDbEntity
  8
ASSI
100
AcDbLine
 62
7
  6
CONTINUOUS
 10
1.5566646737
 20
-4.8116721014
 11
1.665175299
 21
-4.8116721014
  0
LINE
  5
2FE
100
AcDbEntity
  8
DRAFT
100
AcDbLine
 62
7
  6
CONTINUOUS
 10
-11.1833270839
 20
-4.7952806798
 11
-10.1507821489
 21
-4.7952806798
  0
LINE
  5
2FF
100
AcDbEntity
  8
ASSI
100
AcDbLine
 62
7
  6
CONTINUOUS
 10
-11.1833270839
 20
-4.7952806798
 11
-10.1507821489
 21
-4.7952806798
  0
LINE
  5
300
100
AcDbEntity
  8
DRAFT
100
AcDbLine
 62
7
  6
CONTINUOUS
 10
10.1492178511
 20
-4.7952806798
 11
11.1817627862
 21
-4.7952806798
  0
LINE
  5
301
100
AcDbEntity
  8
ASSI
100
AcDbLine
 62
7
  6
CONTINUOUS
 10
10.1492178511
 20
-4.7952806798
 11
11.1817627862
 21
-4.7952806798
  0
LINE
  5
302
100
AcDbEntity
  8
0
100
AcDbLine
 62
7
  6
CONTINUOUS
 10
0.8332604539
 20
-4.7762555698
 11
0.9417710793
 21
-4.7762555698
  0
LINE
  5
303
100
AcDbEntity
  8
ASSI
100
AcDbLine
 62
7
  6
CONTINUOUS
 10
0.8332604539
 20
-4.7762555698
 11
0.9417710793
 21
-4.7762555698
  0
LINE
  5
304
100
AcDbEntity
  8
0
100
AcDbLine
 62
7
  6
CONTINUOUS
 10
1.5566646737
 20
-4.6345888356
 11
1.665175299
 21
-4.6345888356
  0
LINE
  5
305
100
AcDbEntity
  8
ASSI
100
AcDbLine
 62
7
  6
CONTINUOUS
 10
1.5566646737
 20
-4.6345888356
 11
1.665175299
 21
-4.6345888356
  0
LINE
  5
306
100
AcDbEntity
  8
0
100
AcDbLine
 62
7
  6
CONTINUOUS
 10
0.8332604539
 20
-4.5991721014
 11
0.9056008708
 21
-4.5991721014
  0
LINE
  5
307
100
AcDbEntity
  8
ASSI
100
AcDbLine
 62
7
  6
CONTINUOUS
 10
0.8332604539
 20
-4.5991721014
 11
0.9056008708
 21
-4.5991721014
  0
LINE
  5
308
100
AcDbEntity
  8
DRAFT
100
AcDbLine
 62
7
  6
CONTINUOUS
 10
11.4947102653
 20
-4.1826652497
 11
11.1947102653
 21
-4.1826652497
  0
LINE
  5
309
100
AcDbEntity
  8
ASSI
100
AcDbLine
 62
7
  6
CONTINUOUS
 10
11.4947102653
 20
-4.1826652497
 11
11.1947102653
 21
-4.1826652497
  0
LINE
  5
30A
100
AcDbEntity
  8
DRAFT
100
AcDbLine
 62
7
  6
CONTINUOUS
 10
-11.196274563
 20
-4.1826652497
 11
-11.496274563
 21
-4.1826652497
  0
LINE
  5
30B
100
AcDbEntity
  8
ASSI
100
AcDbLine
 62
7
  6
CONTINUOUS
 10
-11.196274563
 20
-4.1826652497
 11
-11.496274563
 21
-4.1826652497
  0
LINE
  5
30C
100
AcDbEntity
  8
DRAFT
100
AcDbLine
 62
7
  6
CONTINUOUS
 10
-11.1833270839
 20
-4.1697177707
 11
-10.4182372138
 21
-4.1697177707
  0
LINE
  5
30D
100
AcDbEntity
  8
ASSI
100
AcDbLine
 62
7
  6
CONTINUOUS
 10
-11.1833270839
 20
-4.1697177707
 11
-10.4182372138
 21
-4.1697177707
  0
LINE
  5
30E
100
AcDbEntity
  8
DRAFT
100
AcDbLine
 62
7
  6
CONTINUOUS
 10
11.1817627862
 20
-4.1697177707
 11
10.4166729161
 21
-4.1697177707
  0
LINE
  5
30F
100
AcDbEntity
  8
ASSI
100
AcDbLine
 62
7
  6
CONTINUOUS
 10
11.1817627862
 20
-4.1697177707
 11
10.4166729161
 21
-4.1697177707
  0
LINE
  5
310
100
AcDbEntity
  8
DRAFT
100
AcDbLine
 62
7
  6
CONTINUOUS
 10
-11.4224817989
 20
-4.1088724857
 11
-10.4790824988
 21
-4.1088724857
  0
LINE
  5
311
100
AcDbEntity
  8
ASSI
100
AcDbLine
 62
7
  6
CONTINUOUS
 10
-11.4224817989
 20
-4.1088724857
 11
-10.4790824988
 21
-4.1088724857
  0
LINE
  5
312
100
AcDbEntity
  8
DRAFT
100
AcDbLine
 62
7
  6
CONTINUOUS
 10
10.4775182011
 20
-4.1088724857
 11
11.4209175012
 21
-4.1088724857
  0
LINE
  5
313
100
AcDbEntity
  8
ASSI
100
AcDbLine
 62
7
  6
CONTINUOUS
 10
10.4775182011
 20
-4.1088724857
 11
11.4209175012
 21
-4.1088724857
  0
LINE
  5
314
100
AcDbEntity
  8
DRAFT
100
AcDbLine
 62
7
  6
CONTINUOUS
 10
9.4992178511
 20
-4.8170995109
 11
9.8992178511
 21
-4.8211305855
  0
LINE
  5
315
100
AcDbEntity
  8
ASSI
100
AcDbLine
 62
7
  6
CONTINUOUS
 10
9.4992178511
 20
-4.8170995109
 11
9.8992178511
 21
-4.8211305855
  0
LINE
  5
316
100
AcDbEntity
  8
DRAFT
100
AcDbLine
 62
7
  6
CONTINUOUS
 10
-9.5007821489
 20
-4.806626472
 11
-10.1507821489
 21
-4.7952806798
  0
LINE
  5
317
100
AcDbEntity
  8
ASSI
100
AcDbLine
 62
7
  6
CONTINUOUS
 10
-9.5007821489
 20
-4.806626472
 11
-10.1507821489
 21
-4.7952806798
  0
LINE
  5
318
100
AcDbEntity
  8
0
100
AcDbLine
 62
7
  6
CONTINUOUS
 10
-0.3684811489
 20
-4.6633768356
 11
-1.4784601489
 21
-4.5868048356
  0
LINE
  5
319
100
AcDbEntity
  8
ASSI
100
AcDbLine
 62
7
  6
CONTINUOUS
 10
-0.3684811489
 20
-4.6633768356
 11
-1.4784601489
 21
-4.5868048356
  0
LINE
  5
31A
100
AcDbEntity
  8
0
100
AcDbLine
 62
7
  6
CONTINUOUS
 10
-0.3684811489
 20
-5.0028318356
 11
-2.0683441489
 21
-4.8493448356
  0
LINE
  5
31B
100
AcDbEntity
  8
ASSI
100
AcDbLine
 62
7
  6
CONTINUOUS
 10
-0.3684811489
 20
-5.0028318356
 11
-2.0683441489
 21
-4.8493448356
  0
LINE
  5
31C
100
AcDbEntity
  8
0
100
AcDbLine
 62
7
  6
CONTINUOUS
 10
1.7013455075
 20
-5.3075055698
 11
1.5928348821
 21
-5.2720888356
  0
LINE
  5
31D
100
AcDbEntity
  8
ASSI
100
AcDbLine
 62
7
  6
CONTINUOUS
 10
1.7013455075
 20
-5.3075055698
 11
1.5928348821
 21
-5.2720888356
  0
LINE
  5
31E
100
AcDbEntity
  8
0
100
AcDbLine
 62
7
  6
CONTINUOUS
 10
-1.1245751489
 20
-4.1437288356
 11
-2.0683441489
 21
-3.7889008356
  0
LINE
  5
31F
100
AcDbEntity
  8
ASSI
100
AcDbLine
 62
7
  6
CONTINUOUS
 10
-1.1245751489
 20
-4.1437288356
 11
-2.0683441489
 21
-3.7889008356
  0
LINE
  5
320
100
AcDbEntity
  8
0
100
AcDbLine
 62
7
  6
CONTINUOUS
 10
1.8098561582
 20
-5.1658388356
 11
1.6290050906
 21
-5.0950055698
  0
LINE
  5
321
100
AcDbEntity
  8
ASSI
100
AcDbLine
 62
7
  6
CONTINUOUS
 10
1.8098561582
 20
-5.1658388356
 11
1.6290050906
 21
-5.0950055698
  0
LINE
  5
322
100
AcDbEntity
  8
0
100
AcDbLine
 62
7
  6
CONTINUOUS
 10
0.8332604539
 20
-4.7762555698
 11
0.6524093103
 21
-4.7054221014
  0
LINE
  5
323
100
AcDbEntity
  8
ASSI
100
AcDbLine
 62
7
  6
CONTINUOUS
 10
0.8332604539
 20
-4.7762555698
 11
0.6524093103
 21
-4.7054221014
  0
LINE
  5
324
100
AcDbEntity
  8
0
100
AcDbLine
 62
7
  6
CONTINUOUS
 10
0.7970901441
 20
-6.1220888356
 11
0.6885795188
 21
-6.0512554685
  0
LINE
  5
325
100
AcDbEntity
  8
ASSI
100
AcDbLine
 62
7
  6
CONTINUOUS
 10
0.7970901441
 20
-6.1220888356
 11
0.6885795188
 21
-6.0512554685
  0
LINE
  5
326
100
AcDbEntity
  8
0
100
AcDbLine
 62
7
  6
CONTINUOUS
 10
0.6885795188
 20
-6.2637555192
 11
0.543898685
 21
-6.1575054685
  0
LINE
  5
327
100
AcDbEntity
  8
ASSI
100
AcDbLine
 62
7
  6
CONTINUOUS
 10
0.6885795188
 20
-6.2637555192
 11
0.543898685
 21
-6.1575054685
  0
LINE
  5
328
100
AcDbEntity
  8
0
100
AcDbLine
 62
7
  6
CONTINUOUS
 10
0.6524093103
 20
-7.0783388356
 11
0.3992178511
 21
-6.8658388356
  0
LINE
  5
329
100
AcDbEntity
  8
ASSI
100
AcDbLine
 62
7
  6
CONTINUOUS
 10
0.6524093103
 20
-7.0783388356
 11
0.3992178511
 21
-6.8658388356
  0
LINE
  5
32A
100
AcDbEntity
  8
0
100
AcDbLine
 62
7
  6
CONTINUOUS
 10
0.9417710793
 20
-7.0783388356
 11
0.6885795188
 21
-6.8658388356
  0
LINE
  5
32B
100
AcDbEntity
  8
ASSI
100
AcDbLine
 62
7
  6
CONTINUOUS
 10
0.9417710793
 20
-7.0783388356
 11
0.6885795188
 21
-6.8658388356
  0
LINE
  5
32C
100
AcDbEntity
  8
RACCORDO
100
AcDbLine
 62
253
  6
CONTINUOUS
 10
-3.8226276736
 20
3.95938164
 11
-3.8226276736
 21
5.5662726887
  0
LINE
  5
32D
100
AcDbEntity
  8
ASSI
100
AcDbLine
 62
253
  6
CONTINUOUS
 10
-3.8226276736
 20
3.95938164
 11
-3.8226276736
 21
5.5662726887
  0
LINE
  5
32E
100
AcDbEntity
  8
RACCORDO
100
AcDbLine
 62
253
  6
CONTINUOUS
 10
-3.5407198874
 20
3.9628271644
 11
-3.5407198874
 21
5.5628271644
  0
LINE
  5
32F
100
AcDbEntity
  8
ASSI
100
AcDbLine
 62
253
  6
CONTINUOUS
 10
-3.5407198874
 20
3.9628271644
 11
-3.5407198874
 21
5.5628271644
  0
LINE
  5
330
100
AcDbEntity
  8
DRAFT
100
AcDbLine
 62
7
  6
CONTINUOUS
 10
-3.0704179093
 20
5.5628271644
 11
-3.0704179093
 21
3.9628271644
  0
LINE
  5
331
100
AcDbEntity
  8
ASSI
100
AcDbLine
 62
7
  6
CONTINUOUS
 10
-3.0704179093
 20
5.5628271644
 11
-3.0704179093
 21
3.9628271644
  0
LINE
  5
332
100
AcDbEntity
  8
DRAFT
100
AcDbLine
 62
7
  6
CONTINUOUS
 10
-3.0007821489
 20
0.7628271644
 11
-3.0007821489
 21
3.9540996319
  0
LINE
  5
333
100
AcDbEntity
  8
ASSI
100
AcDbLine
 62
7
  6
CONTINUOUS
 10
-3.0007821489
 20
0.7628271644
 11
-3.0007821489
 21
3.9540996319
  0
LINE
  5
334
100
AcDbEntity
  8
DRAFT
100
AcDbLine
 62
7
  6
CONTINUOUS
 10
-3.0007821489
 20
5.5715546968
 11
-3.0007821489
 21
7.2628271644
  0
LINE
  5
335
100
AcDbEntity
  8
ASSI
100
AcDbLine
 62
7
  6
CONTINUOUS
 10
-3.0007821489
 20
5.5715546968
 11
-3.0007821489
 21
7.2628271644
  0
LINE
  5
336
100
AcDbEntity
  8
DRAFT
100
AcDbLine
 62
7
  6
CONTINUOUS
 10
-2.9682372138
 20
2.3453720995
 11
-2.9682372138
 21
3.9540996319
  0
LINE
  5
337
100
AcDbEntity
  8
DRAFT
100
AcDbLine
 62
7
  6
CONTINUOUS
 10
-2.9682372138
 20
5.5715546968
 11
-2.9682372138
 21
7.1802822293
  0
LINE
  5
338
100
AcDbEntity
  8
RACCORDO
100
AcDbLine
 62
7
  6
CONTINUOUS
 10
-11.1288335244
 20
-6.1245714319
 11
-11.176345058
 21
-6.1720829655
  0
LINE
  5
339
100
AcDbEntity
  8
ASSI
100
AcDbLine
 62
7
  6
CONTINUOUS
 10
-11.1288335244
 20
-6.1245714319
 11
-11.176345058
 21
-6.1720829655
  0
LINE
  5
33A
100
AcDbEntity
  8
0
100
AcDbLine
 62
7
  6
CONTINUOUS
 10
-0.3684811489
 20
-3.2788768356
 11
-2.0683441489
 21
-3.4378338356
  0
LINE
  5
33B
100
AcDbEntity
  8
ASSI
100
AcDbLine
 62
7
  6
CONTINUOUS
 10
-0.3684811489
 20
-3.2788768356
 11
-2.0683441489
 21
-3.4378338356
  0
LINE
  5
33C
100
AcDbEntity
  8
0
100
AcDbLine
 62
7
  6
CONTINUOUS
 10
-0.3684811489
 20
-3.6259928356
 11
-1.4738331489
 21
-3.6988938356
  0
LINE
  5
33D
100
AcDbEntity
  8
ASSI
100
AcDbLine
 62
7
  6
CONTINUOUS
 10
-0.3684811489
 20
-3.6259928356
 11
-1.4738331489
 21
-3.6988938356
  0
LINE
  5
33E
100
AcDbEntity
  8
0
100
AcDbLine
 62
7
  6
CONTINUOUS
 10
0.8332604539
 20
-3.7491721014
 11
0.9056008708
 21
-3.7491721014
  0
LINE
  5
33F
100
AcDbEntity
  8
ASSI
100
AcDbLine
 62
7
  6
CONTINUOUS
 10
0.8332604539
 20
-3.7491721014
 11
0.9056008708
 21
-3.7491721014
  0
LINE
  5
340
100
AcDbEntity
  8
0
100
AcDbLine
 62
7
  6
CONTINUOUS
 10
1.5566646737
 20
-3.7137555698
 11
1.665175299
 21
-3.7137555698
  0
LINE
  5
341
100
AcDbEntity
  8
ASSI
100
AcDbLine
 62
7
  6
CONTINUOUS
 10
1.5566646737
 20
-3.7137555698
 11
1.665175299
 21
-3.7137555698
  0
LINE
  5
342
100
AcDbEntity
  8
0
100
AcDbLine
 62
7
  6
CONTINUOUS
 10
0.8332604539
 20
-3.5720888356
 11
0.9417710793
 21
-3.5720888356
  0
LINE
  5
343
100
AcDbEntity
  8
ASSI
100
AcDbLine
 62
7
  6
CONTINUOUS
 10
0.8332604539
 20
-3.5720888356
 11
0.9417710793
 21
-3.5720888356
  0
LINE
  5
344
100
AcDbEntity
  8
0
100
AcDbLine
 62
7
  6
CONTINUOUS
 10
1.5566646737
 20
-3.5366723041
 11
1.665175299
 21
-3.5366723041
  0
LINE
  5
345
100
AcDbEntity
  8
ASSI
100
AcDbLine
 62
7
  6
CONTINUOUS
 10
1.5566646737
 20
-3.5366723041
 11
1.665175299
 21
-3.5366723041
  0
LINE
  5
346
100
AcDbEntity
  8
0
100
AcDbLine
 62
7
  6
CONTINUOUS
 10
1.3758135807
 20
-3.2533388356
 11
1.5928348821
 21
-3.2533388356
  0
LINE
  5
347
100
AcDbEntity
  8
ASSI
100
AcDbLine
 62
7
  6
CONTINUOUS
 10
1.3758135807
 20
-3.2533388356
 11
1.5928348821
 21
-3.2533388356
  0
LINE
  5
348
100
AcDbEntity
  8
0
100
AcDbLine
 62
7
  6
CONTINUOUS
 10
-0.3684811489
 20
-3.2231598356
 11
-2.0683441489
 21
-2.6899748356
  0
LINE
  5
349
100
AcDbEntity
  8
ASSI
100
AcDbLine
 62
7
  6
CONTINUOUS
 10
-0.3684811489
 20
-3.2231598356
 11
-2.0683441489
 21
-2.6899748356
  0
LINE
  5
34A
100
AcDbEntity
  8
0
100
AcDbLine
 62
7
  6
CONTINUOUS
 10
-0.3684811489
 20
-4.1207848356
 11
-1.4738331489
 21
-3.6988938356
  0
LINE
  5
34B
100
AcDbEntity
  8
ASSI
100
AcDbLine
 62
7
  6
CONTINUOUS
 10
-0.3684811489
 20
-4.1207848356
 11
-1.4738331489
 21
-3.6988938356
  0
LINE
  5
34C
100
AcDbEntity
  8
0
100
AcDbLine
 62
7
  6
CONTINUOUS
 10
1.5566646737
 20
-4.8116721014
 11
1.3758135807
 21
-4.7408388356
  0
LINE
  5
34D
100
AcDbEntity
  8
ASSI
100
AcDbLine
 62
7
  6
CONTINUOUS
 10
1.5566646737
 20
-4.8116721014
 11
1.3758135807
 21
-4.7408388356
  0
LINE
  5
34E
100
AcDbEntity
  8
0
100
AcDbLine
 62
7
  6
CONTINUOUS
 10
1.8098561582
 20
-5.3783388356
 11
1.7013455075
 21
-5.3075055698
  0
LINE
  5
34F
100
AcDbEntity
  8
ASSI
100
AcDbLine
 62
7
  6
CONTINUOUS
 10
1.8098561582
 20
-5.3783388356
 11
1.7013455075
 21
-5.3075055698
  0
LINE
  5
350
100
AcDbEntity
  8
0
100
AcDbLine
 62
7
  6
CONTINUOUS
 10
0.8332604539
 20
-4.5991721014
 11
0.7247497272
 21
-4.5283388356
  0
LINE
  5
351
100
AcDbEntity
  8
ASSI
100
AcDbLine
 62
7
  6
CONTINUOUS
 10
0.8332604539
 20
-4.5991721014
 11
0.7247497272
 21
-4.5283388356
  0
LINE
  5
352
100
AcDbEntity
  8
0
100
AcDbLine
 62
7
  6
CONTINUOUS
 10
1.9545370047
 20
-5.2720888356
 11
1.8098561582
 21
-5.1658388356
  0
LINE
  5
353
100
AcDbEntity
  8
ASSI
100
AcDbLine
 62
7
  6
CONTINUOUS
 10
1.9545370047
 20
-5.2720888356
 11
1.8098561582
 21
-5.1658388356
  0
LINE
  5
354
100
AcDbEntity
  8
0
100
AcDbLine
 62
7
  6
CONTINUOUS
 10
1.3758135807
 20
-6.1220888356
 11
1.3034731638
 21
-6.0512554685
  0
LINE
  5
355
100
AcDbEntity
  8
ASSI
100
AcDbLine
 62
7
  6
CONTINUOUS
 10
1.3758135807
 20
-6.1220888356
 11
1.3034731638
 21
-6.0512554685
  0
LINE
  5
356
100
AcDbEntity
  8
DRAFT
100
AcDbLine
 62
7
  6
CONTINUOUS
 10
-2.9007821489
 20
5.5670559152
 11
-2.9007821489
 21
3.9585984135
  0
LINE
  5
357
100
AcDbEntity
  8
ASSI
100
AcDbLine
 62
7
  6
CONTINUOUS
 10
-2.9007821489
 20
5.5670559152
 11
-2.9007821489
 21
3.9585984135
  0
LINE
  5
358
100
AcDbEntity
  8
DRAFT
100
AcDbLine
 62
7
  6
CONTINUOUS
 10
-2.4972911359
 20
7.1837732423
 11
-2.4972911359
 21
2.3418810865
  0
LINE
  5
359
100
AcDbEntity
  8
0
100
AcDbLine
 62
7
  6
CONTINUOUS
 10
-2.0684461489
 20
-5.5486748356
 11
-2.0684461489
 21
-5.1938468356
  0
LINE
  5
35A
100
AcDbEntity
  8
ASSI
100
AcDbLine
 62
7
  6
CONTINUOUS
 10
-2.0684461489
 20
-5.5486748356
 11
-2.0684461489
 21
-5.1938468356
  0
LINE
  5
35B
100
AcDbEntity
  8
0
100
AcDbLine
 62
7
  6
CONTINUOUS
 10
-2.0683441489
 20
-7.0783388356
 11
-2.0683441489
 21
-6.6928858356
  0
LINE
  5
35C
100
AcDbEntity
  8
ASSI
100
AcDbLine
 62
7
  6
CONTINUOUS
 10
-2.0683441489
 20
-7.0783388356
 11
-2.0683441489
 21
-6.6928858356
  0
LINE
  5
35D
100
AcDbEntity
  8
0
100
AcDbLine
 62
7
  6
CONTINUOUS
 10
-2.0683441489
 20
-6.0349388356
 11
-2.0683441489
 21
-5.6803528356
  0
LINE
  5
35E
100
AcDbEntity
  8
ASSI
100
AcDbLine
 62
7
  6
CONTINUOUS
 10
-2.0683441489
 20
-6.0349388356
 11
-2.0683441489
 21
-5.6803528356
  0
LINE
  5
35F
100
AcDbEntity
  8
0
100
AcDbLine
 62
7
  6
CONTINUOUS
 10
-2.0683441489
 20
-4.8493448356
 11
-2.0683441489
 21
-4.4948098356
  0
LINE
  5
360
100
AcDbEntity
  8
ASSI
100
AcDbLine
 62
7
  6
CONTINUOUS
 10
-2.0683441489
 20
-4.8493448356
 11
-2.0683441489
 21
-4.4948098356
  0
LINE
  5
361
100
AcDbEntity
  8
0
100
AcDbLine
 62
7
  6
CONTINUOUS
 10
-2.0683441489
 20
-3.7889008356
 11
-2.0683441489
 21
-3.4378338356
  0
LINE
  5
362
100
AcDbEntity
  8
ASSI
100
AcDbLine
 62
7
  6
CONTINUOUS
 10
-2.0683441489
 20
-3.7889008356
 11
-2.0683441489
 21
-3.4378338356
  0
LINE
  5
363
100
AcDbEntity
  8
0
100
AcDbLine
 62
7
  6
CONTINUOUS
 10
-2.0683441489
 20
-2.6899748356
 11
-2.0683441489
 21
-2.3467208356
  0
LINE
  5
364
100
AcDbEntity
  8
ASSI
100
AcDbLine
 62
7
  6
CONTINUOUS
 10
-2.0683441489
 20
-2.6899748356
 11
-2.0683441489
 21
-2.3467208356
  0
LINE
  5
365
100
AcDbEntity
  8
RACCORDO
100
AcDbLine
 62
7
  6
CONTINUOUS
 10
-9.8330288225
 20
-6.1194195093
 11
-9.8805471491
 21
-6.1669378359
  0
LINE
  5
366
100
AcDbEntity
  8
ASSI
100
AcDbLine
 62
7
  6
CONTINUOUS
 10
-9.8330288225
 20
-6.1194195093
 11
-9.8805471491
 21
-6.1669378359
  0
LINE
  5
367
100
AcDbEntity
  8
0
100
AcDbLine
 62
7
  6
CONTINUOUS
 10
-0.3684811489
 20
-2.1991348356
 11
-0.7078341489
 21
-2.2910538356
  0
LINE
  5
368
100
AcDbEntity
  8
ASSI
100
AcDbLine
 62
7
  6
CONTINUOUS
 10
-0.3684811489
 20
-2.1991348356
 11
-0.7078341489
 21
-2.2910538356
  0
LINE
  5
369
100
AcDbEntity
  8
0
100
AcDbLine
 62
7
  6
CONTINUOUS
 10
-0.9704241489
 20
-2.3619668356
 11
-1.6012651489
 21
-2.5250148356
  0
LINE
  5
36A
100
AcDbEntity
  8
ASSI
100
AcDbLine
 62
7
  6
CONTINUOUS
 10
-0.9704241489
 20
-2.3619668356
 11
-1.6012651489
 21
-2.5250148356
  0
LINE
  5
36B
100
AcDbEntity
  8
0
100
AcDbLine
 62
7
  6
CONTINUOUS
 10
0.6885795188
 20
-2.4033388356
 11
1.3758135807
 21
-2.4033388356
  0
LINE
  5
36C
100
AcDbEntity
  8
ASSI
100
AcDbLine
 62
7
  6
CONTINUOUS
 10
0.6885795188
 20
-2.4033388356
 11
1.3758135807
 21
-2.4033388356
  0
LINE
  5
36D
100
AcDbEntity
  8
0
100
AcDbLine
 62
7
  6
CONTINUOUS
 10
1.5928348821
 20
-2.4033388356
 11
2.0992178511
 21
-2.4033388356
  0
LINE
  5
36E
100
AcDbEntity
  8
ASSI
100
AcDbLine
 62
7
  6
CONTINUOUS
 10
1.5928348821
 20
-2.4033388356
 11
2.0992178511
 21
-2.4033388356
  0
LINE
  5
36F
100
AcDbEntity
  8
0
100
AcDbLine
 62
7
  6
CONTINUOUS
 10
0.3992178511
 20
-2.1908388356
 11
1.3758135807
 21
-2.1908388356
  0
LINE
  5
370
100
AcDbEntity
  8
ASSI
100
AcDbLine
 62
7
  6
CONTINUOUS
 10
0.3992178511
 20
-2.1908388356
 11
1.3758135807
 21
-2.1908388356
  0
LINE
  5
371
100
AcDbEntity
  8
0
100
AcDbLine
 62
7
  6
CONTINUOUS
 10
1.5928348821
 20
-2.1908388356
 11
2.0992178511
 21
-2.1908388356
  0
LINE
  5
372
100
AcDbEntity
  8
ASSI
100
AcDbLine
 62
7
  6
CONTINUOUS
 10
1.5928348821
 20
-2.1908388356
 11
2.0992178511
 21
-2.1908388356
  0
LINE
  5
373
100
AcDbEntity
  8
0
100
AcDbLine
 62
7
  6
CONTINUOUS
 10
-0.9704241489
 20
-2.7016888356
 11
-1.6012651489
 21
-2.5250148356
  0
LINE
  5
374
100
AcDbEntity
  8
ASSI
100
AcDbLine
 62
7
  6
CONTINUOUS
 10
-0.9704241489
 20
-2.7016888356
 11
-1.6012651489
 21
-2.5250148356
  0
LINE
  5
375
100
AcDbEntity
  8
0
100
AcDbLine
 62
7
  6
CONTINUOUS
 10
-0.3684811489
 20
-2.8721818356
 11
-0.7078341489
 21
-2.7742708356
  0
LINE
  5
376
100
AcDbEntity
  8
ASSI
100
AcDbLine
 62
7
  6
CONTINUOUS
 10
-0.3684811489
 20
-2.8721818356
 11
-0.7078341489
 21
-2.7742708356
  0
LINE
  5
377
100
AcDbEntity
  8
0
100
AcDbLine
 62
7
  6
CONTINUOUS
 10
1.8460263666
 20
-3.6075053672
 11
1.665175299
 21
-3.5366723041
  0
LINE
  5
378
100
AcDbEntity
  8
ASSI
100
AcDbLine
 62
7
  6
CONTINUOUS
 10
1.8460263666
 20
-3.6075053672
 11
1.665175299
 21
-3.5366723041
  0
LINE
  5
379
100
AcDbEntity
  8
0
100
AcDbLine
 62
7
  6
CONTINUOUS
 10
1.0864519131
 20
-3.6429223041
 11
0.9417710793
 21
-3.5720888356
  0
LINE
  5
37A
100
AcDbEntity
  8
ASSI
100
AcDbLine
 62
7
  6
CONTINUOUS
 10
1.0864519131
 20
-3.6429223041
 11
0.9417710793
 21
-3.5720888356
  0
LINE
  5
37B
100
AcDbEntity
  8
0
100
AcDbLine
 62
7
  6
CONTINUOUS
 10
1.0141114962
 20
-3.8200055698
 11
0.9056008708
 21
-3.7491721014
  0
LINE
  5
37C
100
AcDbEntity
  8
ASSI
100
AcDbLine
 62
7
  6
CONTINUOUS
 10
1.0141114962
 20
-3.8200055698
 11
0.9056008708
 21
-3.7491721014
  0
LINE
  5
37D
100
AcDbEntity
  8
0
100
AcDbLine
 62
7
  6
CONTINUOUS
 10
1.5566646737
 20
-4.6345888356
 11
1.4119837892
 21
-4.5283388356
  0
LINE
  5
37E
100
AcDbEntity
  8
ASSI
100
AcDbLine
 62
7
  6
CONTINUOUS
 10
1.5566646737
 20
-4.6345888356
 11
1.4119837892
 21
-4.5283388356
  0
LINE
  5
37F
100
AcDbEntity
  8
0
100
AcDbLine
 62
7
  6
CONTINUOUS
 10
1.8098561582
 20
-3.8200055698
 11
1.665175299
 21
-3.7137555698
  0
LINE
  5
380
100
AcDbEntity
  8
ASSI
100
AcDbLine
 62
7
  6
CONTINUOUS
 10
1.8098561582
 20
-3.8200055698
 11
1.665175299
 21
-3.7137555698
  0
LINE
  5
381
100
AcDbEntity
  8
0
100
AcDbLine
 62
7
  6
CONTINUOUS
 10
0.6524093103
 20
-4.7054221014
 11
0.543898685
 21
-4.5991721014
  0
LINE
  5
382
100
AcDbEntity
  8
ASSI
100
AcDbLine
 62
7
  6
CONTINUOUS
 10
0.6524093103
 20
-4.7054221014
 11
0.543898685
 21
-4.5991721014
  0
LINE
  5
383
100
AcDbEntity
  8
RACCORDO
100
AcDbLine
 62
253
  6
CONTINUOUS
 10
-7.0596163063
 20
3.0717070133
 11
-7.0288673328
 21
3.0409580397
  0
LINE
  5
384
100
AcDbEntity
  8
ASSI
100
AcDbLine
 62
253
  6
CONTINUOUS
 10
-7.0596163063
 20
3.0717070133
 11
-7.0288673328
 21
3.0409580397
  0
LINE
  5
385
100
AcDbEntity
  8
RACCORDO
100
AcDbLine
 62
253
  6
CONTINUOUS
 10
-6.7596619978
 20
3.3716613218
 11
-6.7288367681
 21
3.3408360921
  0
LINE
  5
386
100
AcDbEntity
  8
ASSI
100
AcDbLine
 62
253
  6
CONTINUOUS
 10
-6.7596619978
 20
3.3716613218
 11
-6.7288367681
 21
3.3408360921
  0
LINE
  5
387
100
AcDbEntity
  8
RACCORDO
100
AcDbLine
 62
7
  6
CONTINUOUS
 10
-11.1938001229
 20
8.0151923592
 11
-11.1239290701
 21
7.9453213064
  0
LINE
  5
388
100
AcDbEntity
  8
ASSI
100
AcDbLine
 62
7
  6
CONTINUOUS
 10
-11.1938001229
 20
8.0151923592
 11
-11.1239290701
 21
7.9453213064
  0
LINE
  5
389
100
AcDbEntity
  8
0
100
AcDbLine
 62
7
  6
CONTINUOUS
 10
0.7247497272
 20
-4.5283388356
 11
0.6162391019
 21
-4.3866721014
  0
LINE
  5
38A
100
AcDbEntity
  8
ASSI
100
AcDbLine
 62
7
  6
CONTINUOUS
 10
0.7247497272
 20
-4.5283388356
 11
0.6162391019
 21
-4.3866721014
  0
LINE
  5
38B
100
AcDbEntity
  8
0
100
AcDbLine
 62
7
  6
CONTINUOUS
 10
0.6885795188
 20
-6.0512554685
 11
0.6162391019
 21
-5.9450054685
  0
LINE
  5
38C
100
AcDbEntity
  8
ASSI
100
AcDbLine
 62
7
  6
CONTINUOUS
 10
0.6885795188
 20
-6.0512554685
 11
0.6162391019
 21
-5.9450054685
  0
LINE
  5
38D
100
AcDbEntity
  8
0
100
AcDbLine
 62
7
  6
CONTINUOUS
 10
1.1949625385
 20
-6.1929222027
 11
1.0502817046
 21
-5.9804222027
  0
LINE
  5
38E
100
AcDbEntity
  8
ASSI
100
AcDbLine
 62
7
  6
CONTINUOUS
 10
1.1949625385
 20
-6.1929222027
 11
1.0502817046
 21
-5.9804222027
  0
LINE
  5
38F
100
AcDbEntity
  8
0
100
AcDbLine
 62
7
  6
CONTINUOUS
 10
1.3034731638
 20
-6.0512554685
 11
1.2311327469
 21
-5.9450054685
  0
LINE
  5
390
100
AcDbEntity
  8
ASSI
100
AcDbLine
 62
7
  6
CONTINUOUS
 10
1.3034731638
 20
-6.0512554685
 11
1.2311327469
 21
-5.9450054685
  0
LINE
  5
391
100
AcDbEntity
  8
0
100
AcDbLine
 62
7
  6
CONTINUOUS
 10
0.543898685
 20
-6.1575054685
 11
0.4353880596
 21
-5.9804222027
  0
LINE
  5
392
100
AcDbEntity
  8
ASSI
100
AcDbLine
 62
7
  6
CONTINUOUS
 10
0.543898685
 20
-6.1575054685
 11
0.4353880596
 21
-5.9804222027
  0
LINE
  5
393
100
AcDbEntity
  8
0
100
AcDbLine
 62
7
  6
CONTINUOUS
 10
-1.3121103174
 20
-1.379331404
 11
-1.3121103174
 21
-1.1765506912
  0
LINE
  5
394
100
AcDbEntity
  8
ASSI
100
AcDbLine
 62
7
  6
CONTINUOUS
 10
-1.3121103174
 20
-1.379331404
 11
-1.3121103174
 21
-1.1765506912
  0
LINE
  5
395
100
AcDbEntity
  8
0
100
AcDbLine
 62
7
  6
CONTINUOUS
 10
-1.0337138647
 20
-1.3675658396
 11
-1.0337138647
 21
-1.1773155166
  0
LINE
  5
396
100
AcDbEntity
  8
ASSI
100
AcDbLine
 62
7
  6
CONTINUOUS
 10
-1.0337138647
 20
-1.3675658396
 11
-1.0337138647
 21
-1.1773155166
  0
LINE
  5
397
100
AcDbEntity
  8
0
100
AcDbLine
 62
7
  6
CONTINUOUS
 10
-0.9704241489
 20
-2.7016888356
 11
-0.9704241489
 21
-2.3619668356
  0
LINE
  5
398
100
AcDbEntity
  8
ASSI
100
AcDbLine
 62
7
  6
CONTINUOUS
 10
-0.9704241489
 20
-2.7016888356
 11
-0.9704241489
 21
-2.3619668356
  0
LINE
  5
399
100
AcDbEntity
  8
RACCORDO
100
AcDbLine
 62
7
  6
CONTINUOUS
 10
6.7440727215
 20
7.9576820348
 11
6.7265671352
 21
7.9401764485
  0
LINE
  5
39A
100
AcDbEntity
  8
ASSI
100
AcDbLine
 62
7
  6
CONTINUOUS
 10
6.7440727215
 20
7.9576820348
 11
6.7265671352
 21
7.9401764485
  0
LINE
  5
39B
100
AcDbEntity
  8
DRAFT
100
AcDbLine
 62
7
  6
CONTINUOUS
 10
9.4992178511
 20
-1.0572461603
 11
9.8992178511
 21
-1.0532150857
  0
LINE
  5
39C
100
AcDbEntity
  8
ASSI
100
AcDbLine
 62
7
  6
CONTINUOUS
 10
9.4992178511
 20
-1.0572461603
 11
9.8992178511
 21
-1.0532150857
  0
LINE
  5
39D
100
AcDbEntity
  8
0
100
AcDbLine
 62
7
  6
CONTINUOUS
 10
1.3758135807
 20
-1.8366723041
 11
1.5928348821
 21
-1.8366723041
  0
LINE
  5
39E
100
AcDbEntity
  8
ASSI
100
AcDbLine
 62
7
  6
CONTINUOUS
 10
1.3758135807
 20
-1.8366723041
 11
1.5928348821
 21
-1.8366723041
  0
LINE
  5
39F
100
AcDbEntity
  8
DRAFT
100
AcDbLine
 62
7
  6
CONTINUOUS
 10
-11.4212943908
 20
-1.7666605937
 11
-10.4802699069
 21
-1.7666605937
  0
LINE
  5
3A0
100
AcDbEntity
  8
ASSI
100
AcDbLine
 62
7
  6
CONTINUOUS
 10
-11.4212943908
 20
-1.7666605937
 11
-10.4802699069
 21
-1.7666605937
  0
LINE
  5
3A1
100
AcDbEntity
  8
DRAFT
100
AcDbLine
 62
7
  6
CONTINUOUS
 10
10.4787056092
 20
-1.7666605937
 11
11.4197300931
 21
-1.7666605937
  0
LINE
  5
3A2
100
AcDbEntity
  8
ASSI
100
AcDbLine
 62
7
  6
CONTINUOUS
 10
10.4787056092
 20
-1.7666605937
 11
11.4197300931
 21
-1.7666605937
  0
LINE
  5
3A3
100
AcDbEntity
  8
DRAFT
100
AcDbLine
 62
7
  6
CONTINUOUS
 10
-12.3007821489
 20
-1.7256812722
 11
-11.5007821489
 21
-1.7256812722
  0
LINE
  5
3A4
100
AcDbEntity
  8
ASSI
100
AcDbLine
 62
7
  6
CONTINUOUS
 10
-12.3007821489
 20
-1.7256812722
 11
-11.5007821489
 21
-1.7256812722
  0
LINE
  5
3A5
100
AcDbEntity
  8
DRAFT
100
AcDbLine
 62
7
  6
CONTINUOUS
 10
11.4992178511
 20
-1.7256812722
 11
12.2992178511
 21
-1.7256812722
  0
LINE
  5
3A6
100
AcDbEntity
  8
ASSI
100
AcDbLine
 62
7
  6
CONTINUOUS
 10
11.4992178511
 20
-1.7256812722
 11
12.2992178511
 21
-1.7256812722
  0
LINE
  5
3A7
100
AcDbEntity
  8
0
100
AcDbLine
 62
7
  6
CONTINUOUS
 10
-0.3684814622
 20
-1.7209661717
 11
-2.048484231
 21
-1.7209661717
  0
LINE
  5
3A8
100
AcDbEntity
  8
ASSI
100
AcDbLine
 62
7
  6
CONTINUOUS
 10
-0.3684814622
 20
-1.7209661717
 11
-2.048484231
 21
-1.7209661717
  0
LINE
  5
3A9
100
AcDbEntity
  8
DRAFT
100
AcDbLine
 62
7
  6
CONTINUOUS
 10
-11.1833270839
 20
-1.7046279005
 11
-10.4182372138
 21
-1.7046279005
  0
LINE
  5
3AA
100
AcDbEntity
  8
ASSI
100
AcDbLine
 62
7
  6
CONTINUOUS
 10
-11.1833270839
 20
-1.7046279005
 11
-10.4182372138
 21
-1.7046279005
  0
LINE
  5
3AB
100
AcDbEntity
  8
DRAFT
100
AcDbLine
 62
7
  6
CONTINUOUS
 10
11.1817627862
 20
-1.7046279005
 11
10.4166729161
 21
-1.7046279005
  0
LINE
  5
3AC
100
AcDbEntity
  8
ASSI
100
AcDbLine
 62
7
  6
CONTINUOUS
 10
11.1817627862
 20
-1.7046279005
 11
10.4166729161
 21
-1.7046279005
  0
LINE
  5
3AD
100
AcDbEntity
  8
DRAFT
100
AcDbLine
 62
7
  6
CONTINUOUS
 10
-11.5007821489
 20
-1.6871728356
 11
-11.2007821489
 21
-1.6871728356
  0
LINE
  5
3AE
100
AcDbEntity
  8
ASSI
100
AcDbLine
 62
7
  6
CONTINUOUS
 10
-11.5007821489
 20
-1.6871728356
 11
-11.2007821489
 21
-1.6871728356
  0
LINE
  5
3AF
100
AcDbEntity
  8
DRAFT
100
AcDbLine
 62
7
  6
CONTINUOUS
 10
11.1992178511
 20
-1.6871728356
 11
11.4992178511
 21
-1.6871728356
  0
LINE
  5
3B0
100
AcDbEntity
  8
ASSI
100
AcDbLine
 62
7
  6
CONTINUOUS
 10
11.1992178511
 20
-1.6871728356
 11
11.4992178511
 21
-1.6871728356
  0
LINE
  5
3B1
100
AcDbEntity
  8
0
100
AcDbLine
 62
7
  6
CONTINUOUS
 10
0.6524093103
 20
-1.5533388356
 11
0.9417710793
 21
-1.5533388356
  0
LINE
  5
3B2
100
AcDbEntity
  8
ASSI
100
AcDbLine
 62
7
  6
CONTINUOUS
 10
0.6524093103
 20
-1.5533388356
 11
0.9417710793
 21
-1.5533388356
  0
LINE
  5
3B3
100
AcDbEntity
  8
0
100
AcDbLine
 62
7
  6
CONTINUOUS
 10
-1.3121103174
 20
-1.379331404
 11
-1.7787557998
 21
-1.379331404
  0
LINE
  5
3B4
100
AcDbEntity
  8
ASSI
100
AcDbLine
 62
7
  6
CONTINUOUS
 10
-1.3121103174
 20
-1.379331404
 11
-1.7787557998
 21
-1.379331404
  0
LINE
  5
3B5
100
AcDbEntity
  8
0
100
AcDbLine
 62
7
  6
CONTINUOUS
 10
-0.3684814622
 20
-1.3675658396
 11
-1.0337138647
 21
-1.3675658396
  0
LINE
  5
3B6
100
AcDbEntity
  8
ASSI
100
AcDbLine
 62
7
  6
CONTINUOUS
 10
-0.3684814622
 20
-1.3675658396
 11
-1.0337138647
 21
-1.3675658396
  0
LINE
  5
3B7
100
AcDbEntity
  8
0
100
AcDbLine
 62
7
  6
CONTINUOUS
 10
0.6885795188
 20
-1.3408388356
 11
2.0992178511
 21
-1.3408388356
  0
LINE
  5
3B8
100
AcDbEntity
  8
ASSI
100
AcDbLine
 62
7
  6
CONTINUOUS
 10
0.6885795188
 20
-1.3408388356
 11
2.0992178511
 21
-1.3408388356
  0
LINE
  5
3B9
100
AcDbEntity
  8
0
100
AcDbLine
 62
7
  6
CONTINUOUS
 10
0.3992178511
 20
-1.1283388356
 11
2.0992178511
 21
-1.1283388356
  0
LINE
  5
3BA
100
AcDbEntity
  8
ASSI
100
AcDbLine
 62
7
  6
CONTINUOUS
 10
0.3992178511
 20
-1.1283388356
 11
2.0992178511
 21
-1.1283388356
  0
LINE
  5
3BB
100
AcDbEntity
  8
DRAFT
100
AcDbLine
 62
7
  6
CONTINUOUS
 10
-11.1833270839
 20
-1.0790649914
 11
-10.1507821489
 21
-1.0790649914
  0
LINE
  5
3BC
100
AcDbEntity
  8
ASSI
100
AcDbLine
 62
7
  6
CONTINUOUS
 10
-11.1833270839
 20
-1.0790649914
 11
-10.1507821489
 21
-1.0790649914
  0
LINE
  5
3BD
100
AcDbEntity
  8
DRAFT
100
AcDbLine
 62
7
  6
CONTINUOUS
 10
10.1492178511
 20
-1.0790649914
 11
11.1817627862
 21
-1.0790649914
  0
LINE
  5
3BE
100
AcDbEntity
  8
ASSI
100
AcDbLine
 62
7
  6
CONTINUOUS
 10
10.1492178511
 20
-1.0790649914
 11
11.1817627862
 21
-1.0790649914
  0
LINE
  5
3BF
100
AcDbEntity
  8
RACCORDO
100
AcDbLine
 62
7
  6
CONTINUOUS
 10
-10.8261512624
 20
-1.0166999204
 11
-9.9007821489
 21
-1.0166999204
  0
LINE
  5
3C0
100
AcDbEntity
  8
ASSI
100
AcDbLine
 62
7
  6
CONTINUOUS
 10
-10.8261512624
 20
-1.0166999204
 11
-9.9007821489
 21
-1.0166999204
  0
LINE
  5
3C1
100
AcDbEntity
  8
RACCORDO
100
AcDbLine
 62
7
  6
CONTINUOUS
 10
9.8992178511
 20
-1.0166999204
 11
10.8245869647
 21
-1.0166999204
  0
LINE
  5
3C2
100
AcDbEntity
  8
ASSI
100
AcDbLine
 62
7
  6
CONTINUOUS
 10
9.8992178511
 20
-1.0166999204
 11
10.8245869647
 21
-1.0166999204
  0
LINE
  5
3C3
100
AcDbEntity
  8
DRAFT
100
AcDbLine
 62
7
  6
CONTINUOUS
 10
-9.9007821489
 20
-1.0532150857
 11
-9.5007821489
 21
-1.0572461603
  0
LINE
  5
3C4
100
AcDbEntity
  8
ASSI
100
AcDbLine
 62
7
  6
CONTINUOUS
 10
-9.9007821489
 20
-1.0532150857
 11
-9.5007821489
 21
-1.0572461603
  0
LINE
  5
3C5
100
AcDbEntity
  8
0
100
AcDbLine
 62
7
  6
CONTINUOUS
 10
1.3758135807
 20
-3.2533388356
 11
0.3992178511
 21
-2.4033388356
  0
LINE
  5
3C6
100
AcDbEntity
  8
ASSI
100
AcDbLine
 62
7
  6
CONTINUOUS
 10
1.3758135807
 20
-3.2533388356
 11
0.3992178511
 21
-2.4033388356
  0
LINE
  5
3C7
100
AcDbEntity
  8
0
100
AcDbLine
 62
7
  6
CONTINUOUS
 10
1.3758135807
 20
-3.0054223041
 11
0.6885795188
 21
-2.4033388356
  0
LINE
  5
3C8
100
AcDbEntity
  8
ASSI
100
AcDbLine
 62
7
  6
CONTINUOUS
 10
1.3758135807
 20
-3.0054223041
 11
0.6885795188
 21
-2.4033388356
  0
LINE
  5
3C9
100
AcDbEntity
  8
0
100
AcDbLine
 62
7
  6
CONTINUOUS
 10
1.1949625385
 20
-3.7491721014
 11
1.0864519131
 21
-3.6429223041
  0
LINE
  5
3CA
100
AcDbEntity
  8
ASSI
100
AcDbLine
 62
7
  6
CONTINUOUS
 10
1.1949625385
 20
-3.7491721014
 11
1.0864519131
 21
-3.6429223041
  0
LINE
  5
3CB
100
AcDbEntity
  8
0
100
AcDbLine
 62
7
  6
CONTINUOUS
 10
1.9545370047
 20
-3.7137555698
 11
1.8460263666
 21
-3.6075053672
  0
LINE
  5
3CC
100
AcDbEntity
  8
ASSI
100
AcDbLine
 62
7
  6
CONTINUOUS
 10
1.9545370047
 20
-3.7137555698
 11
1.8460263666
 21
-3.6075053672
  0
LINE
  5
3CD
100
AcDbEntity
  8
RACCORDO
100
AcDbLine
 62
253
  6
CONTINUOUS
 10
5.1643224236
 20
-6.6022317166
 11
5.1940727215
 21
-6.6319820146
  0
LINE
  5
3CE
100
AcDbEntity
  8
ASSI
100
AcDbLine
 62
253
  6
CONTINUOUS
 10
5.1643224236
 20
-6.6022317166
 11
5.1940727215
 21
-6.6319820146
  0
LINE
  5
3CF
100
AcDbEntity
  8
0
100
AcDbLine
 62
7
  6
CONTINUOUS
 10
1.3758135807
 20
-4.7408388356
 11
1.2673029554
 21
-4.5991721014
  0
LINE
  5
3D0
100
AcDbEntity
  8
ASSI
100
AcDbLine
 62
7
  6
CONTINUOUS
 10
1.3758135807
 20
-4.7408388356
 11
1.2673029554
 21
-4.5991721014
  0
LINE
  5
3D1
100
AcDbEntity
  8
0
100
AcDbLine
 62
7
  6
CONTINUOUS
 10
1.1226221216
 20
-3.9616721014
 11
1.0141114962
 21
-3.8200055698
  0
LINE
  5
3D2
100
AcDbEntity
  8
ASSI
100
AcDbLine
 62
7
  6
CONTINUOUS
 10
1.1226221216
 20
-3.9616721014
 11
1.0141114962
 21
-3.8200055698
  0
LINE
  5
3D3
100
AcDbEntity
  8
0
100
AcDbLine
 62
7
  6
CONTINUOUS
 10
1.8821965751
 20
-5.4845888356
 11
1.8098561582
 21
-5.3783388356
  0
LINE
  5
3D4
100
AcDbEntity
  8
ASSI
100
AcDbLine
 62
7
  6
CONTINUOUS
 10
1.8821965751
 20
-5.4845888356
 11
1.8098561582
 21
-5.3783388356
  0
LINE
  5
3D5
100
AcDbEntity
  8
0
100
AcDbLine
 62
7
  6
CONTINUOUS
 10
0.543898685
 20
-4.5991721014
 11
0.4353880596
 21
-4.4220888356
  0
LINE
  5
3D6
100
AcDbEntity
  8
ASSI
100
AcDbLine
 62
7
  6
CONTINUOUS
 10
0.543898685
 20
-4.5991721014
 11
0.4353880596
 21
-4.4220888356
  0
LINE
  5
3D7
100
AcDbEntity
  8
0
100
AcDbLine
 62
7
  6
CONTINUOUS
 10
2.0630476395
 20
-5.4491722027
 11
1.9545370047
 21
-5.2720888356
  0
LINE
  5
3D8
100
AcDbEntity
  8
ASSI
100
AcDbLine
 62
7
  6
CONTINUOUS
 10
2.0630476395
 20
-5.4491722027
 11
1.9545370047
 21
-5.2720888356
  0
LINE
  5
3D9
100
AcDbEntity
  8
0
100
AcDbLine
 62
7
  6
CONTINUOUS
 10
1.2673029554
 20
-4.5991721014
 11
1.2311327469
 21
-4.5283388356
  0
LINE
  5
3DA
100
AcDbEntity
  8
ASSI
100
AcDbLine
 62
7
  6
CONTINUOUS
 10
1.2673029554
 20
-4.5991721014
 11
1.2311327469
 21
-4.5283388356
  0
LINE
  5
3DB
100
AcDbEntity
  8
0
100
AcDbLine
 62
7
  6
CONTINUOUS
 10
0.6162391019
 20
-5.9450054685
 11
0.5800688934
 21
-5.8387554685
  0
LINE
  5
3DC
100
AcDbEntity
  8
ASSI
100
AcDbLine
 62
7
  6
CONTINUOUS
 10
0.6162391019
 20
-5.9450054685
 11
0.5800688934
 21
-5.8387554685
  0
LINE
  5
3DD
100
AcDbEntity
  8
0
100
AcDbLine
 62
7
  6
CONTINUOUS
 10
-0.7078341489
 20
-2.7742708356
 11
-0.7078341489
 21
-2.2910538356
  0
LINE
  5
3DE
100
AcDbEntity
  8
ASSI
100
AcDbLine
 62
7
  6
CONTINUOUS
 10
-0.7078341489
 20
-2.7742708356
 11
-0.7078341489
 21
-2.2910538356
  0
LINE
  5
3DF
100
AcDbEntity
  8
0
100
AcDbLine
 62
7
  6
CONTINUOUS
 10
-0.3684814622
 20
-1.7209661717
 11
-0.3684814622
 21
-1.3675658396
  0
LINE
  5
3E0
100
AcDbEntity
  8
ASSI
100
AcDbLine
 62
7
  6
CONTINUOUS
 10
-0.3684814622
 20
-1.7209661717
 11
-0.3684814622
 21
-1.3675658396
  0
LINE
  5
3E1
100
AcDbEntity
  8
0
100
AcDbLine
 62
7
  6
CONTINUOUS
 10
-0.3684814622
 20
-0.8241956205
 11
-0.3684814622
 21
-0.4828922772
  0
LINE
  5
3E2
100
AcDbEntity
  8
ASSI
100
AcDbLine
 62
7
  6
CONTINUOUS
 10
-0.3684814622
 20
-0.8241956205
 11
-0.3684814622
 21
-0.4828922772
  0
LINE
  5
3E3
100
AcDbEntity
  8
0
100
AcDbLine
 62
7
  6
CONTINUOUS
 10
-0.3684811489
 20
-6.5394488356
 11
-0.3684811489
 21
-6.2267568356
  0
LINE
  5
3E4
100
AcDbEntity
  8
ASSI
100
AcDbLine
 62
7
  6
CONTINUOUS
 10
-0.3684811489
 20
-6.5394488356
 11
-0.3684811489
 21
-6.2267568356
  0
LINE
  5
3E5
100
AcDbEntity
  8
0
100
AcDbLine
 62
7
  6
CONTINUOUS
 10
-0.3684811489
 20
-5.5486748356
 11
-0.3684811489
 21
-5.1938468356
  0
LINE
  5
3E6
100
AcDbEntity
  8
ASSI
100
AcDbLine
 62
7
  6
CONTINUOUS
 10
-0.3684811489
 20
-5.5486748356
 11
-0.3684811489
 21
-5.1938468356
  0
LINE
  5
3E7
100
AcDbEntity
  8
0
100
AcDbLine
 62
7
  6
CONTINUOUS
 10
-0.3684811489
 20
-5.0028318356
 11
-0.3684811489
 21
-4.6633768356
  0
LINE
  5
3E8
100
AcDbEntity
  8
ASSI
100
AcDbLine
 62
7
  6
CONTINUOUS
 10
-0.3684811489
 20
-5.0028318356
 11
-0.3684811489
 21
-4.6633768356
  0
LINE
  5
3E9
100
AcDbEntity
  8
0
100
AcDbLine
 62
7
  6
CONTINUOUS
 10
-0.3684811489
 20
-4.1705488356
 11
-0.3684811489
 21
-4.1207848356
  0
LINE
  5
3EA
100
AcDbEntity
  8
ASSI
100
AcDbLine
 62
7
  6
CONTINUOUS
 10
-0.3684811489
 20
-4.1705488356
 11
-0.3684811489
 21
-4.1207848356
  0
LINE
  5
3EB
100
AcDbEntity
  8
0
100
AcDbLine
 62
7
  6
CONTINUOUS
 10
-0.3684811489
 20
-3.6259928356
 11
-0.3684811489
 21
-3.2788768356
  0
LINE
  5
3EC
100
AcDbEntity
  8
ASSI
100
AcDbLine
 62
7
  6
CONTINUOUS
 10
-0.3684811489
 20
-3.6259928356
 11
-0.3684811489
 21
-3.2788768356
  0
LINE
  5
3ED
100
AcDbEntity
  8
0
100
AcDbLine
 62
7
  6
CONTINUOUS
 10
-0.3684811489
 20
-3.2231598356
 11
-0.3684811489
 21
-2.8721818356
  0
LINE
  5
3EE
100
AcDbEntity
  8
ASSI
100
AcDbLine
 62
7
  6
CONTINUOUS
 10
-0.3684811489
 20
-3.2231598356
 11
-0.3684811489
 21
-2.8721818356
  0
LINE
  5
3EF
100
AcDbEntity
  8
0
100
AcDbLine
 62
7
  6
CONTINUOUS
 10
-0.3684811489
 20
-2.1991348356
 11
-0.3684811489
 21
-1.8251608356
  0
LINE
  5
3F0
100
AcDbEntity
  8
ASSI
100
AcDbLine
 62
7
  6
CONTINUOUS
 10
-0.3684811489
 20
-2.1991348356
 11
-0.3684811489
 21
-1.8251608356
  0
LINE
  5
3F1
100
AcDbEntity
  8
DRAFT
100
AcDbLine
 62
7
  6
CONTINUOUS
 10
-9.5007821489
 20
-1.0677191992
 11
-10.1507821489
 21
-1.0790649914
  0
LINE
  5
3F2
100
AcDbEntity
  8
ASSI
100
AcDbLine
 62
7
  6
CONTINUOUS
 10
-9.5007821489
 20
-1.0677191992
 11
-10.1507821489
 21
-1.0790649914
  0
LINE
  5
3F3
100
AcDbEntity
  8
0
100
AcDbLine
 62
7
  6
CONTINUOUS
 10
-1.1619623405
 20
-0.8087206529
 11
-1.1720070476
 21
-0.8087206529
  0
LINE
  5
3F4
100
AcDbEntity
  8
ASSI
100
AcDbLine
 62
7
  6
CONTINUOUS
 10
-1.1619623405
 20
-0.8087206529
 11
-1.1720070476
 21
-0.8087206529
  0
LINE
  5
3F5
100
AcDbEntity
  8
DRAFT
100
AcDbLine
 62
7
  6
CONTINUOUS
 10
10.1492178511
 20
-1.0790649914
 11
9.4992178511
 21
-1.0677191992
  0
LINE
  5
3F6
100
AcDbEntity
  8
ASSI
100
AcDbLine
 62
7
  6
CONTINUOUS
 10
10.1492178511
 20
-1.0790649914
 11
9.4992178511
 21
-1.0677191992
  0
LINE
  5
3F7
100
AcDbEntity
  8
0
100
AcDbLine
 62
7
  6
CONTINUOUS
 10
0.6524093103
 20
-1.5533388356
 11
0.3992178511
 21
-1.3408388356
  0
LINE
  5
3F8
100
AcDbEntity
  8
ASSI
100
AcDbLine
 62
7
  6
CONTINUOUS
 10
0.6524093103
 20
-1.5533388356
 11
0.3992178511
 21
-1.3408388356
  0
LINE
  5
3F9
100
AcDbEntity
  8
0
100
AcDbLine
 62
7
  6
CONTINUOUS
 10
0.9417710793
 20
-1.5533388356
 11
0.6885795188
 21
-1.3408388356
  0
LINE
  5
3FA
100
AcDbEntity
  8
ASSI
100
AcDbLine
 62
7
  6
CONTINUOUS
 10
0.9417710793
 20
-1.5533388356
 11
0.6885795188
 21
-1.3408388356
  0
LINE
  5
3FB
100
AcDbEntity
  8
RACCORDO
100
AcDbLine
 62
253
  6
CONTINUOUS
 10
5.4640810403
 20
-6.3020817162
 11
5.4940270429
 21
-6.3320277188
  0
LINE
  5
3FC
100
AcDbEntity
  8
ASSI
100
AcDbLine
 62
253
  6
CONTINUOUS
 10
5.4640810403
 20
-6.3020817162
 11
5.4940270429
 21
-6.3320277188
  0
LINE
  5
3FD
100
AcDbEntity
  8
0
100
AcDbLine
 62
7
  6
CONTINUOUS
 10
2.0630476395
 20
-3.8908388356
 11
1.9545370047
 21
-3.7137555698
  0
LINE
  5
3FE
100
AcDbEntity
  8
ASSI
100
AcDbLine
 62
7
  6
CONTINUOUS
 10
2.0630476395
 20
-3.8908388356
 11
1.9545370047
 21
-3.7137555698
  0
LINE
  5
3FF
100
AcDbEntity
  8
0
100
AcDbLine
 62
7
  6
CONTINUOUS
 10
1.4119837892
 20
-4.5283388356
 11
1.3396433723
 21
-4.3866721014
  0
LINE
  5
400
100
AcDbEntity
  8
ASSI
100
AcDbLine
 62
7
  6
CONTINUOUS
 10
1.4119837892
 20
-4.5283388356
 11
1.3396433723
 21
-4.3866721014
  0
LINE
  5
401
100
AcDbEntity
  8
0
100
AcDbLine
 62
7
  6
CONTINUOUS
 10
1.2311327469
 20
-3.8200055698
 11
1.1949625385
 21
-3.7491721014
  0
LINE
  5
402
100
AcDbEntity
  8
ASSI
100
AcDbLine
 62
7
  6
CONTINUOUS
 10
1.2311327469
 20
-3.8200055698
 11
1.1949625385
 21
-3.7491721014
  0
LINE
  5
403
100
AcDbEntity
  8
0
100
AcDbLine
 62
7
  6
CONTINUOUS
 10
1.8821965751
 20
-3.9616721014
 11
1.8098561582
 21
-3.8200055698
  0
LINE
  5
404
100
AcDbEntity
  8
ASSI
100
AcDbLine
 62
7
  6
CONTINUOUS
 10
1.8821965751
 20
-3.9616721014
 11
1.8098561582
 21
-3.8200055698
  0
LINE
  5
405
100
AcDbEntity
  8
0
100
AcDbLine
 62
7
  6
CONTINUOUS
 10
1.2311327469
 20
-5.9450054685
 11
1.1949625385
 21
-5.8387554685
  0
LINE
  5
406
100
AcDbEntity
  8
ASSI
100
AcDbLine
 62
7
  6
CONTINUOUS
 10
1.2311327469
 20
-5.9450054685
 11
1.1949625385
 21
-5.8387554685
  0
LINE
  5
407
100
AcDbEntity
  8
0
100
AcDbLine
 62
7
  6
CONTINUOUS
 10
1.9183667835
 20
-5.5908388356
 11
1.8821965751
 21
-5.4845888356
  0
LINE
  5
408
100
AcDbEntity
  8
ASSI
100
AcDbLine
 62
7
  6
CONTINUOUS
 10
1.9183667835
 20
-5.5908388356
 11
1.8821965751
 21
-5.4845888356
  0
LINE
  5
409
100
AcDbEntity
  8
0
100
AcDbLine
 62
7
  6
CONTINUOUS
 10
0.6162391019
 20
-4.3866721014
 11
0.5800688934
 21
-4.2450055698
  0
LINE
  5
40A
100
AcDbEntity
  8
ASSI
100
AcDbLine
 62
7
  6
CONTINUOUS
 10
0.6162391019
 20
-4.3866721014
 11
0.5800688934
 21
-4.2450055698
  0
LINE
  5
40B
100
AcDbEntity
  8
0
100
AcDbLine
 62
7
  6
CONTINUOUS
 10
1.15879233
 20
-4.1033388356
 11
1.1226221216
 21
-3.9616721014
  0
LINE
  5
40C
100
AcDbEntity
  8
ASSI
100
AcDbLine
 62
7
  6
CONTINUOUS
 10
1.15879233
 20
-4.1033388356
 11
1.1226221216
 21
-3.9616721014
  0
LINE
  5
40D
100
AcDbEntity
  8
0
100
AcDbLine
 62
7
  6
CONTINUOUS
 10
0.4353880596
 20
-5.9804222027
 11
0.3992178511
 21
-5.8033388356
  0
LINE
  5
40E
100
AcDbEntity
  8
ASSI
100
AcDbLine
 62
7
  6
CONTINUOUS
 10
0.4353880596
 20
-5.9804222027
 11
0.3992178511
 21
-5.8033388356
  0
LINE
  5
40F
100
AcDbEntity
  8
0
100
AcDbLine
 62
7
  6
CONTINUOUS
 10
0.4353880596
 20
-4.4220888356
 11
0.3992178511
 21
-4.2450055698
  0
LINE
  5
410
100
AcDbEntity
  8
ASSI
100
AcDbLine
 62
7
  6
CONTINUOUS
 10
0.4353880596
 20
-4.4220888356
 11
0.3992178511
 21
-4.2450055698
  0
LINE
  5
411
100
AcDbEntity
  8
0
100
AcDbLine
 62
7
  6
CONTINUOUS
 10
1.0502817046
 20
-5.9804222027
 11
1.0141114962
 21
-5.8033388356
  0
LINE
  5
412
100
AcDbEntity
  8
ASSI
100
AcDbLine
 62
7
  6
CONTINUOUS
 10
1.0502817046
 20
-5.9804222027
 11
1.0141114962
 21
-5.8033388356
  0
LINE
  5
413
100
AcDbEntity
  8
0
100
AcDbLine
 62
7
  6
CONTINUOUS
 10
0.3992178511
 20
-6.8658388356
 11
0.3992178511
 21
-6.6533388356
  0
LINE
  5
414
100
AcDbEntity
  8
ASSI
100
AcDbLine
 62
7
  6
CONTINUOUS
 10
0.3992178511
 20
-6.8658388356
 11
0.3992178511
 21
-6.6533388356
  0
LINE
  5
415
100
AcDbEntity
  8
0
100
AcDbLine
 62
7
  6
CONTINUOUS
 10
0.3992178511
 20
-5.8033388356
 11
0.3992178511
 21
-5.6616722027
  0
LINE
  5
416
100
AcDbEntity
  8
ASSI
100
AcDbLine
 62
7
  6
CONTINUOUS
 10
0.3992178511
 20
-5.8033388356
 11
0.3992178511
 21
-5.6616722027
  0
LINE
  5
417
100
AcDbEntity
  8
0
100
AcDbLine
 62
7
  6
CONTINUOUS
 10
0.3992178511
 20
-4.2450055698
 11
0.3992178511
 21
-4.1033388356
  0
LINE
  5
418
100
AcDbEntity
  8
ASSI
100
AcDbLine
 62
7
  6
CONTINUOUS
 10
0.3992178511
 20
-4.2450055698
 11
0.3992178511
 21
-4.1033388356
  0
LINE
  5
419
100
AcDbEntity
  8
0
100
AcDbLine
 62
7
  6
CONTINUOUS
 10
0.3992178511
 20
-2.4033388356
 11
0.3992178511
 21
-2.1908388356
  0
LINE
  5
41A
100
AcDbEntity
  8
ASSI
100
AcDbLine
 62
7
  6
CONTINUOUS
 10
0.3992178511
 20
-2.4033388356
 11
0.3992178511
 21
-2.1908388356
  0
LINE
  5
41B
100
AcDbEntity
  8
0
100
AcDbLine
 62
7
  6
CONTINUOUS
 10
0.3992178511
 20
-1.3408388356
 11
0.3992178511
 21
-1.1283388356
  0
LINE
  5
41C
100
AcDbEntity
  8
ASSI
100
AcDbLine
 62
7
  6
CONTINUOUS
 10
0.3992178511
 20
-1.3408388356
 11
0.3992178511
 21
-1.1283388356
  0
LINE
  5
41D
100
AcDbEntity
  8
0
100
AcDbLine
 62
7
  6
CONTINUOUS
 10
0.5800688934
 20
-5.8387554685
 11
0.5800688934
 21
-5.6262554685
  0
LINE
  5
41E
100
AcDbEntity
  8
ASSI
100
AcDbLine
 62
7
  6
CONTINUOUS
 10
0.5800688934
 20
-5.8387554685
 11
0.5800688934
 21
-5.6262554685
  0
LINE
  5
41F
100
AcDbEntity
  8
0
100
AcDbLine
 62
7
  6
CONTINUOUS
 10
0.5800688934
 20
-4.2450055698
 11
0.5800688934
 21
-4.1033388356
  0
LINE
  5
420
100
AcDbEntity
  8
ASSI
100
AcDbLine
 62
7
  6
CONTINUOUS
 10
0.5800688934
 20
-4.2450055698
 11
0.5800688934
 21
-4.1033388356
  0
LINE
  5
421
100
AcDbEntity
  8
0
100
AcDbLine
 62
7
  6
CONTINUOUS
 10
0.7970901441
 20
-5.3429221014
 11
0.7970901441
 21
-5.1658388356
  0
LINE
  5
422
100
AcDbEntity
  8
ASSI
100
AcDbLine
 62
7
  6
CONTINUOUS
 10
0.7970901441
 20
-5.3429221014
 11
0.7970901441
 21
-5.1658388356
  0
LINE
  5
423
100
AcDbEntity
  8
0
100
AcDbLine
 62
7
  6
CONTINUOUS
 10
1.0141114962
 20
-5.8033388356
 11
1.0141114962
 21
-5.6262554685
  0
LINE
  5
424
100
AcDbEntity
  8
ASSI
100
AcDbLine
 62
7
  6
CONTINUOUS
 10
1.0141114962
 20
-5.8033388356
 11
1.0141114962
 21
-5.6262554685
  0
LINE
  5
425
100
AcDbEntity
  8
0
100
AcDbLine
 62
7
  6
CONTINUOUS
 10
1.15879233
 20
-4.2450055698
 11
1.15879233
 21
-4.1033388356
  0
LINE
  5
426
100
AcDbEntity
  8
ASSI
100
AcDbLine
 62
7
  6
CONTINUOUS
 10
1.15879233
 20
-4.2450055698
 11
1.15879233
 21
-4.1033388356
  0
LINE
  5
427
100
AcDbEntity
  8
RACCORDO
100
AcDbLine
 62
253
  6
CONTINUOUS
 10
-5.4955913452
 20
-6.3320277234
 11
-5.465645338
 21
-6.3020817162
  0
LINE
  5
428
100
AcDbEntity
  8
ASSI
100
AcDbLine
 62
253
  6
CONTINUOUS
 10
-5.4955913452
 20
-6.3320277234
 11
-5.465645338
 21
-6.3020817162
  0
LINE
  5
429
100
AcDbEntity
  8
RACCORDO
100
AcDbLine
 62
253
  6
CONTINUOUS
 10
-5.1956370192
 20
-6.6319820146
 11
-5.1658867213
 21
-6.6022317166
  0
LINE
  5
42A
100
AcDbEntity
  8
ASSI
100
AcDbLine
 62
253
  6
CONTINUOUS
 10
-5.1956370192
 20
-6.6319820146
 11
-5.1658867213
 21
-6.6022317166
  0
LINE
  5
42B
100
AcDbEntity
  8
0
100
AcDbLine
 62
7
  6
CONTINUOUS
 10
-3.0007821489
 20
0.7628271644
 11
2.9992178511
 21
0.7628271644
  0
LINE
  5
42C
100
AcDbEntity
  8
ASSI
100
AcDbLine
 62
7
  6
CONTINUOUS
 10
-3.0007821489
 20
0.7628271644
 11
2.9992178511
 21
0.7628271644
  0
LINE
  5
42D
100
AcDbEntity
  8
RACCORDO
100
AcDbLine
 62
7
  6
CONTINUOUS
 10
-10.825358774
 20
1.0415611992
 11
-9.8295161837
 21
1.0415611992
  0
LINE
  5
42E
100
AcDbEntity
  8
ASSI
100
AcDbLine
 62
7
  6
CONTINUOUS
 10
-10.825358774
 20
1.0415611992
 11
-9.8295161837
 21
1.0415611992
  0
LINE
  5
42F
100
AcDbEntity
  8
RACCORDO
100
AcDbLine
 62
7
  6
CONTINUOUS
 10
9.8279518859
 20
1.0415611992
 11
10.8237944763
 21
1.0415611992
  0
LINE
  5
430
100
AcDbEntity
  8
ASSI
100
AcDbLine
 62
7
  6
CONTINUOUS
 10
9.8279518859
 20
1.0415611992
 11
10.8237944763
 21
1.0415611992
  0
LINE
  5
431
100
AcDbEntity
  8
RACCORDO
100
AcDbLine
 62
7
  6
CONTINUOUS
 10
-6.7456370192
 20
7.9576820348
 11
-6.7281314329
 21
7.9401764485
  0
LINE
  5
432
100
AcDbEntity
  8
ASSI
100
AcDbLine
 62
7
  6
CONTINUOUS
 10
-6.7456370192
 20
7.9576820348
 11
-6.7281314329
 21
7.9401764485
  0
LINE
  5
433
100
AcDbEntity
  8
0
100
AcDbLine
 62
7
  6
CONTINUOUS
 10
1.3396433723
 20
-4.3866721014
 11
1.3034731638
 21
-4.2450055698
  0
LINE
  5
434
100
AcDbEntity
  8
ASSI
100
AcDbLine
 62
7
  6
CONTINUOUS
 10
1.3396433723
 20
-4.3866721014
 11
1.3034731638
 21
-4.2450055698
  0
LINE
  5
435
100
AcDbEntity
  8
0
100
AcDbLine
 62
7
  6
CONTINUOUS
 10
1.9183667835
 20
-4.1033388356
 11
1.8821965751
 21
-3.9616721014
  0
LINE
  5
436
100
AcDbEntity
  8
ASSI
100
AcDbLine
 62
7
  6
CONTINUOUS
 10
1.9183667835
 20
-4.1033388356
 11
1.8821965751
 21
-3.9616721014
  0
LINE
  5
437
100
AcDbEntity
  8
0
100
AcDbLine
 62
7
  6
CONTINUOUS
 10
2.0992178511
 20
-5.6262554685
 11
2.0630476395
 21
-5.4491722027
  0
LINE
  5
438
100
AcDbEntity
  8
ASSI
100
AcDbLine
 62
7
  6
CONTINUOUS
 10
2.0992178511
 20
-5.6262554685
 11
2.0630476395
 21
-5.4491722027
  0
LINE
  5
439
100
AcDbEntity
  8
0
100
AcDbLine
 62
7
  6
CONTINUOUS
 10
1.1949625385
 20
-5.8387554685
 11
1.1949625385
 21
-5.5908388356
  0
LINE
  5
43A
100
AcDbEntity
  8
ASSI
100
AcDbLine
 62
7
  6
CONTINUOUS
 10
1.1949625385
 20
-5.8387554685
 11
1.1949625385
 21
-5.5908388356
  0
LINE
  5
43B
100
AcDbEntity
  8
0
100
AcDbLine
 62
7
  6
CONTINUOUS
 10
1.3034731638
 20
-4.2450055698
 11
1.3034731638
 21
-4.1033388356
  0
LINE
  5
43C
100
AcDbEntity
  8
ASSI
100
AcDbLine
 62
7
  6
CONTINUOUS
 10
1.3034731638
 20
-4.2450055698
 11
1.3034731638
 21
-4.1033388356
  0
LINE
  5
43D
100
AcDbEntity
  8
0
100
AcDbLine
 62
7
  6
CONTINUOUS
 10
1.3758135807
 20
-3.0054223041
 11
1.3758135807
 21
-2.4033388356
  0
LINE
  5
43E
100
AcDbEntity
  8
ASSI
100
AcDbLine
 62
7
  6
CONTINUOUS
 10
1.3758135807
 20
-3.0054223041
 11
1.3758135807
 21
-2.4033388356
  0
LINE
  5
43F
100
AcDbEntity
  8
0
100
AcDbLine
 62
7
  6
CONTINUOUS
 10
1.3758135807
 20
-2.1908388356
 11
1.3758135807
 21
-1.8366723041
  0
LINE
  5
440
100
AcDbEntity
  8
ASSI
100
AcDbLine
 62
7
  6
CONTINUOUS
 10
1.3758135807
 20
-2.1908388356
 11
1.3758135807
 21
-1.8366723041
  0
LINE
  5
441
100
AcDbEntity
  8
0
100
AcDbLine
 62
7
  6
CONTINUOUS
 10
1.5928348821
 20
-3.2533388356
 11
1.5928348821
 21
-2.4033388356
  0
LINE
  5
442
100
AcDbEntity
  8
ASSI
100
AcDbLine
 62
7
  6
CONTINUOUS
 10
1.5928348821
 20
-3.2533388356
 11
1.5928348821
 21
-2.4033388356
  0
LINE
  5
443
100
AcDbEntity
  8
0
100
AcDbLine
 62
7
  6
CONTINUOUS
 10
1.5928348821
 20
-2.1908388356
 11
1.5928348821
 21
-1.8366723041
  0
LINE
  5
444
100
AcDbEntity
  8
ASSI
100
AcDbLine
 62
7
  6
CONTINUOUS
 10
1.5928348821
 20
-2.1908388356
 11
1.5928348821
 21
-1.8366723041
  0
LINE
  5
445
100
AcDbEntity
  8
0
100
AcDbLine
 62
7
  6
CONTINUOUS
 10
1.9183667835
 20
-5.8387554685
 11
1.9183667835
 21
-5.5908388356
  0
LINE
  5
446
100
AcDbEntity
  8
ASSI
100
AcDbLine
 62
7
  6
CONTINUOUS
 10
1.9183667835
 20
-5.8387554685
 11
1.9183667835
 21
-5.5908388356
  0
LINE
  5
447
100
AcDbEntity
  8
0
100
AcDbLine
 62
7
  6
CONTINUOUS
 10
1.9183667835
 20
-4.2450055698
 11
1.9183667835
 21
-4.1033388356
  0
LINE
  5
448
100
AcDbEntity
  8
ASSI
100
AcDbLine
 62
7
  6
CONTINUOUS
 10
1.9183667835
 20
-4.2450055698
 11
1.9183667835
 21
-4.1033388356
  0
LINE
  5
449
100
AcDbEntity
  8
0
100
AcDbLine
 62
7
  6
CONTINUOUS
 10
2.0992178511
 20
-6.8658388356
 11
2.0992178511
 21
-6.6533388356
  0
LINE
  5
44A
100
AcDbEntity
  8
ASSI
100
AcDbLine
 62
7
  6
CONTINUOUS
 10
2.0992178511
 20
-6.8658388356
 11
2.0992178511
 21
-6.6533388356
  0
LINE
  5
44B
100
AcDbEntity
  8
0
100
AcDbLine
 62
7
  6
CONTINUOUS
 10
2.0992178511
 20
-5.8033388356
 11
2.0992178511
 21
-5.6262554685
  0
LINE
  5
44C
100
AcDbEntity
  8
ASSI
100
AcDbLine
 62
7
  6
CONTINUOUS
 10
2.0992178511
 20
-5.8033388356
 11
2.0992178511
 21
-5.6262554685
  0
LINE
  5
44D
100
AcDbEntity
  8
0
100
AcDbLine
 62
7
  6
CONTINUOUS
 10
2.0992178511
 20
-4.2804221014
 11
2.0992178511
 21
-4.0679221014
  0
LINE
  5
44E
100
AcDbEntity
  8
ASSI
100
AcDbLine
 62
7
  6
CONTINUOUS
 10
2.0992178511
 20
-4.2804221014
 11
2.0992178511
 21
-4.0679221014
  0
LINE
  5
44F
100
AcDbEntity
  8
0
100
AcDbLine
 62
7
  6
CONTINUOUS
 10
2.0992178511
 20
-2.4033388356
 11
2.0992178511
 21
-2.1908388356
  0
LINE
  5
450
100
AcDbEntity
  8
ASSI
100
AcDbLine
 62
7
  6
CONTINUOUS
 10
2.0992178511
 20
-2.4033388356
 11
2.0992178511
 21
-2.1908388356
  0
LINE
  5
451
100
AcDbEntity
  8
0
100
AcDbLine
 62
7
  6
CONTINUOUS
 10
2.0992178511
 20
-1.3408388356
 11
2.0992178511
 21
-1.1283388356
  0
LINE
  5
452
100
AcDbEntity
  8
ASSI
100
AcDbLine
 62
7
  6
CONTINUOUS
 10
2.0992178511
 20
-1.3408388356
 11
2.0992178511
 21
-1.1283388356
  0
LINE
  5
453
100
AcDbEntity
  8
0
100
AcDbLine
 62
7
  6
CONTINUOUS
 10
0.3992178511
 20
-4.1033388356
 11
0.4353880596
 21
-3.9262555698
  0
LINE
  5
454
100
AcDbEntity
  8
ASSI
100
AcDbLine
 62
7
  6
CONTINUOUS
 10
0.3992178511
 20
-4.1033388356
 11
0.4353880596
 21
-3.9262555698
  0
LINE
  5
455
100
AcDbEntity
  8
0
100
AcDbLine
 62
7
  6
CONTINUOUS
 10
0.3992178511
 20
-5.6616722027
 11
0.4353880596
 21
-5.4845888356
  0
LINE
  5
456
100
AcDbEntity
  8
ASSI
100
AcDbLine
 62
7
  6
CONTINUOUS
 10
0.3992178511
 20
-5.6616722027
 11
0.4353880596
 21
-5.4845888356
  0
LINE
  5
457
100
AcDbEntity
  8
0
100
AcDbLine
 62
7
  6
CONTINUOUS
 10
1.0141114962
 20
-5.6262554685
 11
1.0502817046
 21
-5.4491722027
  0
LINE
  5
458
100
AcDbEntity
  8
ASSI
100
AcDbLine
 62
7
  6
CONTINUOUS
 10
1.0141114962
 20
-5.6262554685
 11
1.0502817046
 21
-5.4491722027
  0
LINE
  5
459
100
AcDbEntity
  8
0
100
AcDbLine
 62
7
  6
CONTINUOUS
 10
0.5800688934
 20
-4.1033388356
 11
0.6162391019
 21
-3.9616721014
  0
LINE
  5
45A
100
AcDbEntity
  8
ASSI
100
AcDbLine
 62
7
  6
CONTINUOUS
 10
0.5800688934
 20
-4.1033388356
 11
0.6162391019
 21
-3.9616721014
  0
LINE
  5
45B
100
AcDbEntity
  8
0
100
AcDbLine
 62
7
  6
CONTINUOUS
 10
1.1226221216
 20
-4.3866721014
 11
1.15879233
 21
-4.2450055698
  0
LINE
  5
45C
100
AcDbEntity
  8
ASSI
100
AcDbLine
 62
7
  6
CONTINUOUS
 10
1.1226221216
 20
-4.3866721014
 11
1.15879233
 21
-4.2450055698
  0
LINE
  5
45D
100
AcDbEntity
  8
RACCORDO
100
AcDbLine
 62
7
  6
CONTINUOUS
 10
11.1223647724
 20
7.9453213064
 11
11.1922358252
 21
8.0151923592
  0
LINE
  5
45E
100
AcDbEntity
  8
ASSI
100
AcDbLine
 62
7
  6
CONTINUOUS
 10
11.1223647724
 20
7.9453213064
 11
11.1922358252
 21
8.0151923592
  0
LINE
  5
45F
100
AcDbEntity
  8
0
100
AcDbLine
 62
7
  6
CONTINUOUS
 10
-0.3684811489
 20
-1.8251608356
 11
-2.0683441489
 21
-2.3467208356
  0
LINE
  5
460
100
AcDbEntity
  8
ASSI
100
AcDbLine
 62
7
  6
CONTINUOUS
 10
-0.3684811489
 20
-1.8251608356
 11
-2.0683441489
 21
-2.3467208356
  0
LINE
  5
461
100
AcDbEntity
  8
RACCORDO
100
AcDbLine
 62
7
  6
CONTINUOUS
 10
-11.176345058
 20
1.0977372942
 11
-10.1805014576
 21
1.0977372942
  0
LINE
  5
462
100
AcDbEntity
  8
ASSI
100
AcDbLine
 62
7
  6
CONTINUOUS
 10
-11.176345058
 20
1.0977372942
 11
-10.1805014576
 21
1.0977372942
  0
LINE
  5
463
100
AcDbEntity
  8
RACCORDO
100
AcDbLine
 62
7
  6
CONTINUOUS
 10
11.1747807602
 20
1.0977372942
 11
10.1789371599
 21
1.0977372942
  0
LINE
  5
464
100
AcDbEntity
  8
ASSI
100
AcDbLine
 62
7
  6
CONTINUOUS
 10
11.1747807602
 20
1.0977372942
 11
10.1789371599
 21
1.0977372942
  0
LINE
  5
465
100
AcDbEntity
  8
RACCORDO
100
AcDbLine
 62
7
  6
CONTINUOUS
 10
-11.176345058
 20
1.7279170345
 11
-10.1805014576
 21
1.7279170345
  0
LINE
  5
466
100
AcDbEntity
  8
ASSI
100
AcDbLine
 62
7
  6
CONTINUOUS
 10
-11.176345058
 20
1.7279170345
 11
-10.1805014576
 21
1.7279170345
  0
LINE
  5
467
100
AcDbEntity
  8
RACCORDO
100
AcDbLine
 62
7
  6
CONTINUOUS
 10
11.1747807602
 20
1.7279170345
 11
10.1789371599
 21
1.7279170345
  0
LINE
  5
468
100
AcDbEntity
  8
ASSI
100
AcDbLine
 62
7
  6
CONTINUOUS
 10
11.1747807602
 20
1.7279170345
 11
10.1789371599
 21
1.7279170345
  0
LINE
  5
469
100
AcDbEntity
  8
RACCORDO
100
AcDbLine
 62
7
  6
CONTINUOUS
 10
-10.8251156376
 20
1.7843364382
 11
-9.829272875
 21
1.7843364382
  0
LINE
  5
46A
100
AcDbEntity
  8
ASSI
100
AcDbLine
 62
7
  6
CONTINUOUS
 10
-10.8251156376
 20
1.7843364382
 11
-9.829272875
 21
1.7843364382
  0
LINE
  5
46B
100
AcDbEntity
  8
RACCORDO
100
AcDbLine
 62
7
  6
CONTINUOUS
 10
9.8277085773
 20
1.7843364382
 11
10.8235513399
 21
1.7843364382
  0
LINE
  5
46C
100
AcDbEntity
  8
ASSI
100
AcDbLine
 62
7
  6
CONTINUOUS
 10
9.8277085773
 20
1.7843364382
 11
10.8235513399
 21
1.7843364382
  0
LINE
  5
46D
100
AcDbEntity
  8
0
100
AcDbLine
 62
7
  6
CONTINUOUS
 10
2.0992178511
 20
-4.0679221014
 11
2.0630476395
 21
-3.8908388356
  0
LINE
  5
46E
100
AcDbEntity
  8
ASSI
100
AcDbLine
 62
7
  6
CONTINUOUS
 10
2.0992178511
 20
-4.0679221014
 11
2.0630476395
 21
-3.8908388356
  0
LINE
  5
46F
100
AcDbEntity
  8
DRAFT
100
AcDbLine
 62
7
  6
CONTINUOUS
 10
2.4957268382
 20
7.1837732423
 11
2.4957268382
 21
2.3418810865
  0
LINE
  5
470
100
AcDbEntity
  8
DRAFT
100
AcDbLine
 62
7
  6
CONTINUOUS
 10
2.8992178511
 20
5.5670559152
 11
2.8992178511
 21
3.9585984135
  0
LINE
  5
471
100
AcDbEntity
  8
ASSI
100
AcDbLine
 62
7
  6
CONTINUOUS
 10
2.8992178511
 20
5.5670559152
 11
2.8992178511
 21
3.9585984135
  0
LINE
  5
472
100
AcDbEntity
  8
DRAFT
100
AcDbLine
 62
7
  6
CONTINUOUS
 10
2.9666729161
 20
7.1802822293
 11
2.9666729161
 21
5.5715546968
  0
LINE
  5
473
100
AcDbEntity
  8
DRAFT
100
AcDbLine
 62
7
  6
CONTINUOUS
 10
2.9666729161
 20
3.9540996319
 11
2.9666729161
 21
2.3453720995
  0
LINE
  5
474
100
AcDbEntity
  8
DRAFT
100
AcDbLine
 62
7
  6
CONTINUOUS
 10
2.9992178511
 20
0.7628271644
 11
2.9992178511
 21
3.9540996319
  0
LINE
  5
475
100
AcDbEntity
  8
ASSI
100
AcDbLine
 62
7
  6
CONTINUOUS
 10
2.9992178511
 20
0.7628271644
 11
2.9992178511
 21
3.9540996319
  0
LINE
  5
476
100
AcDbEntity
  8
DRAFT
100
AcDbLine
 62
7
  6
CONTINUOUS
 10
2.9992178511
 20
5.5715546968
 11
2.9992178511
 21
7.2628271644
  0
LINE
  5
477
100
AcDbEntity
  8
ASSI
100
AcDbLine
 62
7
  6
CONTINUOUS
 10
2.9992178511
 20
5.5715546968
 11
2.9992178511
 21
7.2628271644
  0
LINE
  5
478
100
AcDbEntity
  8
DRAFT
100
AcDbLine
 62
7
  6
CONTINUOUS
 10
3.0688536115
 20
5.5628271644
 11
3.0688536115
 21
3.9628271644
  0
LINE
  5
479
100
AcDbEntity
  8
ASSI
100
AcDbLine
 62
7
  6
CONTINUOUS
 10
3.0688536115
 20
5.5628271644
 11
3.0688536115
 21
3.9628271644
  0
LINE
  5
47A
100
AcDbEntity
  8
0
100
AcDbLine
 62
7
  6
CONTINUOUS
 10
2.0630476395
 20
-4.4575055698
 11
2.0992178511
 21
-4.2804221014
  0
LINE
  5
47B
100
AcDbEntity
  8
ASSI
100
AcDbLine
 62
7
  6
CONTINUOUS
 10
2.0630476395
 20
-4.4575055698
 11
2.0992178511
 21
-4.2804221014
  0
LINE
  5
47C
100
AcDbEntity
  8
0
100
AcDbLine
 62
7
  6
CONTINUOUS
 10
2.0630476395
 20
-5.9804222027
 11
2.0992178511
 21
-5.8033388356
  0
LINE
  5
47D
100
AcDbEntity
  8
ASSI
100
AcDbLine
 62
7
  6
CONTINUOUS
 10
2.0630476395
 20
-5.9804222027
 11
2.0992178511
 21
-5.8033388356
  0
LINE
  5
47E
100
AcDbEntity
  8
0
100
AcDbLine
 62
7
  6
CONTINUOUS
 10
1.3034731638
 20
-4.1033388356
 11
1.3396433723
 21
-3.9616721014
  0
LINE
  5
47F
100
AcDbEntity
  8
ASSI
100
AcDbLine
 62
7
  6
CONTINUOUS
 10
1.3034731638
 20
-4.1033388356
 11
1.3396433723
 21
-3.9616721014
  0
LINE
  5
480
100
AcDbEntity
  8
0
100
AcDbLine
 62
7
  6
CONTINUOUS
 10
1.8821965751
 20
-4.3866721014
 11
1.9183667835
 21
-4.2450055698
  0
LINE
  5
481
100
AcDbEntity
  8
ASSI
100
AcDbLine
 62
7
  6
CONTINUOUS
 10
1.8821965751
 20
-4.3866721014
 11
1.9183667835
 21
-4.2450055698
  0
LINE
  5
482
100
AcDbEntity
  8
0
100
AcDbLine
 62
7
  6
CONTINUOUS
 10
0.5800688934
 20
-5.6262554685
 11
0.6162391019
 21
-5.5200054685
  0
LINE
  5
483
100
AcDbEntity
  8
ASSI
100
AcDbLine
 62
7
  6
CONTINUOUS
 10
0.5800688934
 20
-5.6262554685
 11
0.6162391019
 21
-5.5200054685
  0
LINE
  5
484
100
AcDbEntity
  8
0
100
AcDbLine
 62
7
  6
CONTINUOUS
 10
1.1949625385
 20
-5.5908388356
 11
1.2311327469
 21
-5.4845888356
  0
LINE
  5
485
100
AcDbEntity
  8
ASSI
100
AcDbLine
 62
7
  6
CONTINUOUS
 10
1.1949625385
 20
-5.5908388356
 11
1.2311327469
 21
-5.4845888356
  0
LINE
  5
486
100
AcDbEntity
  8
0
100
AcDbLine
 62
7
  6
CONTINUOUS
 10
1.2311327469
 20
-3.8200055698
 11
1.2673029554
 21
-3.7491721014
  0
LINE
  5
487
100
AcDbEntity
  8
ASSI
100
AcDbLine
 62
7
  6
CONTINUOUS
 10
1.2311327469
 20
-3.8200055698
 11
1.2673029554
 21
-3.7491721014
  0
LINE
  5
488
100
AcDbEntity
  8
0
100
AcDbLine
 62
7
  6
CONTINUOUS
 10
1.3396433723
 20
-3.9616721014
 11
1.4119837892
 21
-3.8200055698
  0
LINE
  5
489
100
AcDbEntity
  8
ASSI
100
AcDbLine
 62
7
  6
CONTINUOUS
 10
1.3396433723
 20
-3.9616721014
 11
1.4119837892
 21
-3.8200055698
  0
LINE
  5
48A
100
AcDbEntity
  8
0
100
AcDbLine
 62
7
  6
CONTINUOUS
 10
1.1949625385
 20
-4.5991721014
 11
1.2311327469
 21
-4.5283388356
  0
LINE
  5
48B
100
AcDbEntity
  8
ASSI
100
AcDbLine
 62
7
  6
CONTINUOUS
 10
1.1949625385
 20
-4.5991721014
 11
1.2311327469
 21
-4.5283388356
  0
LINE
  5
48C
100
AcDbEntity
  8
0
100
AcDbLine
 62
7
  6
CONTINUOUS
 10
0.4353880596
 20
-3.9262555698
 11
0.543898685
 21
-3.7491721014
  0
LINE
  5
48D
100
AcDbEntity
  8
ASSI
100
AcDbLine
 62
7
  6
CONTINUOUS
 10
0.4353880596
 20
-3.9262555698
 11
0.543898685
 21
-3.7491721014
  0
LINE
  5
48E
100
AcDbEntity
  8
0
100
AcDbLine
 62
7
  6
CONTINUOUS
 10
0.4353880596
 20
-5.4845888356
 11
0.543898685
 21
-5.3075055698
  0
LINE
  5
48F
100
AcDbEntity
  8
ASSI
100
AcDbLine
 62
7
  6
CONTINUOUS
 10
0.4353880596
 20
-5.4845888356
 11
0.543898685
 21
-5.3075055698
  0
LINE
  5
490
100
AcDbEntity
  8
0
100
AcDbLine
 62
7
  6
CONTINUOUS
 10
0.6162391019
 20
-3.9616721014
 11
0.7247497272
 21
-3.8200055698
  0
LINE
  5
491
100
AcDbEntity
  8
ASSI
100
AcDbLine
 62
7
  6
CONTINUOUS
 10
0.6162391019
 20
-3.9616721014
 11
0.7247497272
 21
-3.8200055698
  0
LINE
  5
492
100
AcDbEntity
  8
RACCORDO
100
AcDbLine
 62
253
  6
CONTINUOUS
 10
6.7272724704
 20
3.3408360921
 11
6.7580977
 21
3.3716613218
  0
LINE
  5
493
100
AcDbEntity
  8
ASSI
100
AcDbLine
 62
253
  6
CONTINUOUS
 10
6.7272724704
 20
3.3408360921
 11
6.7580977
 21
3.3716613218
  0
LINE
  5
494
100
AcDbEntity
  8
RACCORDO
100
AcDbLine
 62
253
  6
CONTINUOUS
 10
7.027303035
 20
3.0409580397
 11
7.0580520086
 21
3.0717070133
  0
LINE
  5
495
100
AcDbEntity
  8
ASSI
100
AcDbLine
 62
253
  6
CONTINUOUS
 10
7.027303035
 20
3.0409580397
 11
7.0580520086
 21
3.0717070133
  0
LINE
  5
496
100
AcDbEntity
  8
0
100
AcDbLine
 62
7
  6
CONTINUOUS
 10
0.543898685
 20
-3.7491721014
 11
0.6524093103
 21
-3.6429223041
  0
LINE
  5
497
100
AcDbEntity
  8
ASSI
100
AcDbLine
 62
7
  6
CONTINUOUS
 10
0.543898685
 20
-3.7491721014
 11
0.6524093103
 21
-3.6429223041
  0
LINE
  5
498
100
AcDbEntity
  8
DRAFT
100
AcDbLine
 62
7
  6
CONTINUOUS
 10
2.4957268382
 20
2.3418810865
 11
-2.4972911359
 21
2.3418810865
  0
LINE
  5
499
100
AcDbEntity
  8
DRAFT
100
AcDbLine
 62
7
  6
CONTINUOUS
 10
-2.9682372138
 20
2.3453720995
 11
-2.5007821489
 21
2.3453720995
  0
LINE
  5
49A
100
AcDbEntity
  8
DRAFT
100
AcDbLine
 62
7
  6
CONTINUOUS
 10
2.9666729161
 20
2.3453720995
 11
2.4992178511
 21
2.3453720995
  0
LINE
  5
49B
100
AcDbEntity
  8
RACCORDO
100
AcDbLine
 62
7
  6
CONTINUOUS
 10
-7.272696965
 20
3.0409580397
 11
-7.0288673328
 21
3.0409580397
  0
LINE
  5
49C
100
AcDbEntity
  8
ASSI
100
AcDbLine
 62
7
  6
CONTINUOUS
 10
-7.272696965
 20
3.0409580397
 11
-7.0288673328
 21
3.0409580397
  0
LINE
  5
49D
100
AcDbEntity
  8
RACCORDO
100
AcDbLine
 62
7
  6
CONTINUOUS
 10
7.027303035
 20
3.0409580397
 11
7.2711326672
 21
3.0409580397
  0
LINE
  5
49E
100
AcDbEntity
  8
ASSI
100
AcDbLine
 62
7
  6
CONTINUOUS
 10
7.027303035
 20
3.0409580397
 11
7.2711326672
 21
3.0409580397
  0
LINE
  5
49F
100
AcDbEntity
  8
RACCORDO
100
AcDbLine
 62
253
  6
CONTINUOUS
 10
-7.2419479914
 20
3.0717070133
 11
-7.0596163063
 21
3.0717070133
  0
LINE
  5
4A0
100
AcDbEntity
  8
ASSI
100
AcDbLine
 62
253
  6
CONTINUOUS
 10
-7.2419479914
 20
3.0717070133
 11
-7.0596163063
 21
3.0717070133
  0
LINE
  5
4A1
100
AcDbEntity
  8
RACCORDO
100
AcDbLine
 62
253
  6
CONTINUOUS
 10
7.0580520086
 20
3.0717070133
 11
7.2403836937
 21
3.0717070133
  0
LINE
  5
4A2
100
AcDbEntity
  8
ASSI
100
AcDbLine
 62
253
  6
CONTINUOUS
 10
7.0580520086
 20
3.0717070133
 11
7.2403836937
 21
3.0717070133
  0
LINE
  5
4A3
100
AcDbEntity
  8
RACCORDO
100
AcDbLine
 62
7
  6
CONTINUOUS
 10
9.8314645248
 20
-6.1194195093
 11
9.8789828514
 21
-6.1669378359
  0
LINE
  5
4A4
100
AcDbEntity
  8
ASSI
100
AcDbLine
 62
7
  6
CONTINUOUS
 10
9.8314645248
 20
-6.1194195093
 11
9.8789828514
 21
-6.1669378359
  0
LINE
  5
4A5
100
AcDbEntity
  8
RACCORDO
100
AcDbLine
 62
253
  6
CONTINUOUS
 10
3.5391555897
 20
3.9628271644
 11
3.5391555897
 21
5.5628271644
  0
LINE
  5
4A6
100
AcDbEntity
  8
ASSI
100
AcDbLine
 62
253
  6
CONTINUOUS
 10
3.5391555897
 20
3.9628271644
 11
3.5391555897
 21
5.5628271644
  0
LINE
  5
4A7
100
AcDbEntity
  8
RACCORDO
100
AcDbLine
 62
253
  6
CONTINUOUS
 10
3.8210633759
 20
3.95938164
 11
3.8210633759
 21
5.5662726887
  0
LINE
  5
4A8
100
AcDbEntity
  8
ASSI
100
AcDbLine
 62
253
  6
CONTINUOUS
 10
3.8210633759
 20
3.95938164
 11
3.8210633759
 21
5.5662726887
  0
LINE
  5
4A9
100
AcDbEntity
  8
0
100
AcDbLine
 62
7
  6
CONTINUOUS
 10
1.8821965751
 20
-5.9450054685
 11
1.9183667835
 21
-5.8387554685
  0
LINE
  5
4AA
100
AcDbEntity
  8
ASSI
100
AcDbLine
 62
7
  6
CONTINUOUS
 10
1.8821965751
 20
-5.9450054685
 11
1.9183667835
 21
-5.8387554685
  0
LINE
  5
4AB
100
AcDbEntity
  8
0
100
AcDbLine
 62
7
  6
CONTINUOUS
 10
1.8098561582
 20
-4.5283388356
 11
1.8821965751
 21
-4.3866721014
  0
LINE
  5
4AC
100
AcDbEntity
  8
ASSI
100
AcDbLine
 62
7
  6
CONTINUOUS
 10
1.8098561582
 20
-4.5283388356
 11
1.8821965751
 21
-4.3866721014
  0
LINE
  5
4AD
100
AcDbEntity
  8
0
100
AcDbLine
 62
7
  6
CONTINUOUS
 10
1.0502817046
 20
-5.4491722027
 11
1.15879233
 21
-5.2720888356
  0
LINE
  5
4AE
100
AcDbEntity
  8
ASSI
100
AcDbLine
 62
7
  6
CONTINUOUS
 10
1.0502817046
 20
-5.4491722027
 11
1.15879233
 21
-5.2720888356
  0
LINE
  5
4AF
100
AcDbEntity
  8
0
100
AcDbLine
 62
7
  6
CONTINUOUS
 10
1.9545370047
 20
-4.6345888356
 11
2.0630476395
 21
-4.4575055698
  0
LINE
  5
4B0
100
AcDbEntity
  8
ASSI
100
AcDbLine
 62
7
  6
CONTINUOUS
 10
1.9545370047
 20
-4.6345888356
 11
2.0630476395
 21
-4.4575055698
  0
LINE
  5
4B1
100
AcDbEntity
  8
0
100
AcDbLine
 62
7
  6
CONTINUOUS
 10
0.6162391019
 20
-5.5200054685
 11
0.6885795188
 21
-5.4137554685
  0
LINE
  5
4B2
100
AcDbEntity
  8
ASSI
100
AcDbLine
 62
7
  6
CONTINUOUS
 10
0.6162391019
 20
-5.5200054685
 11
0.6885795188
 21
-5.4137554685
  0
LINE
  5
4B3
100
AcDbEntity
  8
0
100
AcDbLine
 62
7
  6
CONTINUOUS
 10
1.2311327469
 20
-5.4845888356
 11
1.3034731638
 21
-5.3783388356
  0
LINE
  5
4B4
100
AcDbEntity
  8
ASSI
100
AcDbLine
 62
7
  6
CONTINUOUS
 10
1.2311327469
 20
-5.4845888356
 11
1.3034731638
 21
-5.3783388356
  0
LINE
  5
4B5
100
AcDbEntity
  8
0
100
AcDbLine
 62
7
  6
CONTINUOUS
 10
1.2673029554
 20
-3.7491721014
 11
1.3758135807
 21
-3.6075053672
  0
LINE
  5
4B6
100
AcDbEntity
  8
ASSI
100
AcDbLine
 62
7
  6
CONTINUOUS
 10
1.2673029554
 20
-3.7491721014
 11
1.3758135807
 21
-3.6075053672
  0
LINE
  5
4B7
100
AcDbEntity
  8
0
100
AcDbLine
 62
7
  6
CONTINUOUS
 10
1.0141114962
 20
-4.5283388356
 11
1.1226221216
 21
-4.3866721014
  0
LINE
  5
4B8
100
AcDbEntity
  8
ASSI
100
AcDbLine
 62
7
  6
CONTINUOUS
 10
1.0141114962
 20
-4.5283388356
 11
1.1226221216
 21
-4.3866721014
  0
LINE
  5
4B9
100
AcDbEntity
  8
0
100
AcDbLine
 62
7
  6
CONTINUOUS
 10
1.0864519131
 20
-4.7054221014
 11
1.1949625385
 21
-4.5991721014
  0
LINE
  5
4BA
100
AcDbEntity
  8
ASSI
100
AcDbLine
 62
7
  6
CONTINUOUS
 10
1.0864519131
 20
-4.7054221014
 11
1.1949625385
 21
-4.5991721014
  0
LINE
  5
4BB
100
AcDbEntity
  8
0
100
AcDbLine
 62
7
  6
CONTINUOUS
 10
1.4119837892
 20
-3.8200055698
 11
1.5566646737
 21
-3.7137555698
  0
LINE
  5
4BC
100
AcDbEntity
  8
ASSI
100
AcDbLine
 62
7
  6
CONTINUOUS
 10
1.4119837892
 20
-3.8200055698
 11
1.5566646737
 21
-3.7137555698
  0
LINE
  5
4BD
100
AcDbEntity
  8
0
100
AcDbLine
 62
7
  6
CONTINUOUS
 10
0.7247497272
 20
-3.8200055698
 11
0.8332604539
 21
-3.7491721014
  0
LINE
  5
4BE
100
AcDbEntity
  8
ASSI
100
AcDbLine
 62
7
  6
CONTINUOUS
 10
0.7247497272
 20
-3.8200055698
 11
0.8332604539
 21
-3.7491721014
  0
LINE
  5
4BF
100
AcDbEntity
  8
0
100
AcDbLine
 62
7
  6
CONTINUOUS
 10
0.6524093103
 20
-3.6429223041
 11
0.8332604539
 21
-3.5720888356
  0
LINE
  5
4C0
100
AcDbEntity
  8
ASSI
100
AcDbLine
 62
7
  6
CONTINUOUS
 10
0.6524093103
 20
-3.6429223041
 11
0.8332604539
 21
-3.5720888356
  0
LINE
  5
4C1
100
AcDbEntity
  8
0
100
AcDbLine
 62
7
  6
CONTINUOUS
 10
1.3758135807
 20
-3.6075053672
 11
1.5566646737
 21
-3.5366723041
  0
LINE
  5
4C2
100
AcDbEntity
  8
ASSI
100
AcDbLine
 62
7
  6
CONTINUOUS
 10
1.3758135807
 20
-3.6075053672
 11
1.5566646737
 21
-3.5366723041
  0
LINE
  5
4C3
100
AcDbEntity
  8
0
100
AcDbLine
 62
7
  6
CONTINUOUS
 10
-0.3684811489
 20
-4.1705488356
 11
-1.4784601489
 21
-4.5868048356
  0
LINE
  5
4C4
100
AcDbEntity
  8
ASSI
100
AcDbLine
 62
7
  6
CONTINUOUS
 10
-0.3684811489
 20
-4.1705488356
 11
-1.4784601489
 21
-4.5868048356
  0
LINE
  5
4C5
100
AcDbEntity
  8
0
100
AcDbLine
 62
7
  6
CONTINUOUS
 10
-1.1245751489
 20
-4.1437288356
 11
-2.0683441489
 21
-4.4948098356
  0
LINE
  5
4C6
100
AcDbEntity
  8
ASSI
100
AcDbLine
 62
7
  6
CONTINUOUS
 10
-1.1245751489
 20
-4.1437288356
 11
-2.0683441489
 21
-4.4948098356
  0
LINE
  5
4C7
100
AcDbEntity
  8
RACCORDO
100
AcDbLine
 62
7
  6
CONTINUOUS
 10
-3.8226276736
 20
3.95938164
 11
-4.2362182728
 21
3.9395469116
  0
LINE
  5
4C8
100
AcDbEntity
  8
ASSI
100
AcDbLine
 62
7
  6
CONTINUOUS
 10
-3.8226276736
 20
3.95938164
 11
-4.2362182728
 21
3.9395469116
  0
LINE
  5
4C9
100
AcDbEntity
  8
DRAFT
100
AcDbLine
 62
7
  6
CONTINUOUS
 10
3.0688536115
 20
3.9628271644
 11
2.8992178511
 21
3.9585984135
  0
LINE
  5
4CA
100
AcDbEntity
  8
ASSI
100
AcDbLine
 62
7
  6
CONTINUOUS
 10
3.0688536115
 20
3.9628271644
 11
2.8992178511
 21
3.9585984135
  0
LINE
  5
4CB
100
AcDbEntity
  8
DRAFT
100
AcDbLine
 62
7
  6
CONTINUOUS
 10
-3.0007821489
 20
3.9540996319
 11
-2.9007821489
 21
3.9551074006
  0
LINE
  5
4CC
100
AcDbEntity
  8
ASSI
100
AcDbLine
 62
7
  6
CONTINUOUS
 10
-3.0007821489
 20
3.9540996319
 11
-2.9007821489
 21
3.9551074006
  0
LINE
  5
4CD
100
AcDbEntity
  8
RACCORDO
100
AcDbLine
 62
253
  6
CONTINUOUS
 10
-7.5384722135
 20
3.5716308609
 11
-6.7630920842
 21
3.5716308609
  0
LINE
  5
4CE
100
AcDbEntity
  8
ASSI
100
AcDbLine
 62
253
  6
CONTINUOUS
 10
-7.5384722135
 20
3.5716308609
 11
-6.7630920842
 21
3.5716308609
  0
LINE
  5
4CF
100
AcDbEntity
  8
RACCORDO
100
AcDbLine
 62
253
  6
CONTINUOUS
 10
6.7615277865
 20
3.5716308609
 11
7.5369079158
 21
3.5716308609
  0
LINE
  5
4D0
100
AcDbEntity
  8
ASSI
100
AcDbLine
 62
253
  6
CONTINUOUS
 10
6.7615277865
 20
3.5716308609
 11
7.5369079158
 21
3.5716308609
  0
LINE
  5
4D1
100
AcDbEntity
  8
RACCORDO
100
AcDbLine
 62
7
  6
CONTINUOUS
 10
4.4225937134
 20
3.9372501225
 11
2.9992178511
 21
3.9372501225
  0
LINE
  5
4D2
100
AcDbEntity
  8
ASSI
100
AcDbLine
 62
7
  6
CONTINUOUS
 10
4.4225937134
 20
3.9372501225
 11
2.9992178511
 21
3.9372501225
  0
LINE
  5
4D3
100
AcDbEntity
  8
RACCORDO
100
AcDbLine
 62
7
  6
CONTINUOUS
 10
-3.0007821489
 20
3.9372501225
 11
-4.4241580111
 21
3.9372501225
  0
LINE
  5
4D4
100
AcDbEntity
  8
ASSI
100
AcDbLine
 62
7
  6
CONTINUOUS
 10
-3.0007821489
 20
3.9372501225
 11
-4.4241580111
 21
3.9372501225
  0
LINE
  5
4D5
100
AcDbEntity
  8
RACCORDO
100
AcDbLine
 62
7
  6
CONTINUOUS
 10
3.5391555897
 20
3.9628271644
 11
3.0688536115
 21
3.9628271644
  0
LINE
  5
4D6
100
AcDbEntity
  8
ASSI
100
AcDbLine
 62
7
  6
CONTINUOUS
 10
3.5391555897
 20
3.9628271644
 11
3.0688536115
 21
3.9628271644
  0
LINE
  5
4D7
100
AcDbEntity
  8
RACCORDO
100
AcDbLine
 62
7
  6
CONTINUOUS
 10
-3.0704179093
 20
3.9628271644
 11
-3.5407198874
 21
3.9628271644
  0
LINE
  5
4D8
100
AcDbEntity
  8
ASSI
100
AcDbLine
 62
7
  6
CONTINUOUS
 10
-3.0704179093
 20
3.9628271644
 11
-3.5407198874
 21
3.9628271644
  0
LINE
  5
4D9
100
AcDbEntity
  8
DRAFT
100
AcDbLine
 62
7
  6
CONTINUOUS
 10
2.8992178511
 20
3.9551074006
 11
2.9992178511
 21
3.9540996319
  0
LINE
  5
4DA
100
AcDbEntity
  8
ASSI
100
AcDbLine
 62
7
  6
CONTINUOUS
 10
2.8992178511
 20
3.9551074006
 11
2.9992178511
 21
3.9540996319
  0
LINE
  5
4DB
100
AcDbEntity
  8
DRAFT
100
AcDbLine
 62
7
  6
CONTINUOUS
 10
-2.9007821489
 20
3.9585984135
 11
-3.0704179093
 21
3.9628271644
  0
LINE
  5
4DC
100
AcDbEntity
  8
ASSI
100
AcDbLine
 62
7
  6
CONTINUOUS
 10
-2.9007821489
 20
3.9585984135
 11
-3.0704179093
 21
3.9628271644
  0
LINE
  5
4DD
100
AcDbEntity
  8
RACCORDO
100
AcDbLine
 62
7
  6
CONTINUOUS
 10
4.2346539751
 20
3.9395469116
 11
3.8210633759
 21
3.95938164
  0
LINE
  5
4DE
100
AcDbEntity
  8
ASSI
100
AcDbLine
 62
7
  6
CONTINUOUS
 10
4.2346539751
 20
3.9395469116
 11
3.8210633759
 21
3.95938164
  0
LINE
  5
4DF
100
AcDbEntity
  8
RACCORDO
100
AcDbLine
 62
7
  6
CONTINUOUS
 10
11.1747807602
 20
-6.1720829655
 11
11.1272692267
 21
-6.1245714319
  0
LINE
  5
4E0
100
AcDbEntity
  8
ASSI
100
AcDbLine
 62
7
  6
CONTINUOUS
 10
11.1747807602
 20
-6.1720829655
 11
11.1272692267
 21
-6.1245714319
  0
LINE
  5
4E1
100
AcDbEntity
  8
RACCORDO
100
AcDbLine
 62
7
  6
CONTINUOUS
 10
5.1691677573
 20
-7.6604290666
 11
5.1940727215
 21
-7.9120131867
  0
LINE
  5
4E2
100
AcDbEntity
  8
ASSI
100
AcDbLine
 62
7
  6
CONTINUOUS
 10
5.1691677573
 20
-7.6604290666
 11
5.1940727215
 21
-7.9120131867
  0
LINE
  5
4E3
100
AcDbEntity
  8
RACCORDO
100
AcDbLine
 62
253
  6
CONTINUOUS
 10
5.1940727215
 20
-6.6319820146
 11
5.1940727215
 21
-7.9120131867
  0
LINE
  5
4E4
100
AcDbEntity
  8
ASSI
100
AcDbLine
 62
253
  6
CONTINUOUS
 10
5.1940727215
 20
-6.6319820146
 11
5.1940727215
 21
-7.9120131867
  0
LINE
  5
4E5
100
AcDbEntity
  8
ASSI
100
AcDbLine
 62
253
  6
CONTINUOUS
 10
4.4225937134
 20
3.9372501225
 11
4.4291166186
 21
5.588717176
  0
LINE
  5
4E6
100
AcDbEntity
  8
0
100
AcDbLine
 62
7
  6
CONTINUOUS
 10
1.9545370047
 20
-6.1575054685
 11
2.0630476395
 21
-5.9804222027
  0
LINE
  5
4E7
100
AcDbEntity
  8
ASSI
100
AcDbLine
 62
7
  6
CONTINUOUS
 10
1.9545370047
 20
-6.1575054685
 11
2.0630476395
 21
-5.9804222027
  0
LINE
  5
4E8
100
AcDbEntity
  8
0
100
AcDbLine
 62
7
  6
CONTINUOUS
 10
1.8098561582
 20
-6.0512554685
 11
1.8821965751
 21
-5.9450054685
  0
LINE
  5
4E9
100
AcDbEntity
  8
ASSI
100
AcDbLine
 62
7
  6
CONTINUOUS
 10
1.8098561582
 20
-6.0512554685
 11
1.8821965751
 21
-5.9450054685
  0
LINE
  5
4EA
100
AcDbEntity
  8
0
100
AcDbLine
 62
7
  6
CONTINUOUS
 10
1.15879233
 20
-5.2720888356
 11
1.2673029554
 21
-5.1658388356
  0
LINE
  5
4EB
100
AcDbEntity
  8
ASSI
100
AcDbLine
 62
7
  6
CONTINUOUS
 10
1.15879233
 20
-5.2720888356
 11
1.2673029554
 21
-5.1658388356
  0
LINE
  5
4EC
100
AcDbEntity
  8
0
100
AcDbLine
 62
7
  6
CONTINUOUS
 10
1.8460263666
 20
-4.7408388356
 11
1.9545370047
 21
-4.6345888356
  0
LINE
  5
4ED
100
AcDbEntity
  8
ASSI
100
AcDbLine
 62
7
  6
CONTINUOUS
 10
1.8460263666
 20
-4.7408388356
 11
1.9545370047
 21
-4.6345888356
  0
LINE
  5
4EE
100
AcDbEntity
  8
0
100
AcDbLine
 62
7
  6
CONTINUOUS
 10
1.3034731638
 20
-5.3783388356
 11
1.3758135807
 21
-5.3075055698
  0
LINE
  5
4EF
100
AcDbEntity
  8
ASSI
100
AcDbLine
 62
7
  6
CONTINUOUS
 10
1.3034731638
 20
-5.3783388356
 11
1.3758135807
 21
-5.3075055698
  0
LINE
  5
4F0
100
AcDbEntity
  8
0
100
AcDbLine
 62
7
  6
CONTINUOUS
 10
0.543898685
 20
-5.3075055698
 11
0.6885795188
 21
-5.2012555698
  0
LINE
  5
4F1
100
AcDbEntity
  8
ASSI
100
AcDbLine
 62
7
  6
CONTINUOUS
 10
0.543898685
 20
-5.3075055698
 11
0.6885795188
 21
-5.2012555698
  0
LINE
  5
4F2
100
AcDbEntity
  8
0
100
AcDbLine
 62
7
  6
CONTINUOUS
 10
1.665175299
 20
-4.6345888356
 11
1.8098561582
 21
-4.5283388356
  0
LINE
  5
4F3
100
AcDbEntity
  8
ASSI
100
AcDbLine
 62
7
  6
CONTINUOUS
 10
1.665175299
 20
-4.6345888356
 11
1.8098561582
 21
-4.5283388356
  0
LINE
  5
4F4
100
AcDbEntity
  8
0
100
AcDbLine
 62
7
  6
CONTINUOUS
 10
0.9056008708
 20
-4.5991721014
 11
1.0141114962
 21
-4.5283388356
  0
LINE
  5
4F5
100
AcDbEntity
  8
ASSI
100
AcDbLine
 62
7
  6
CONTINUOUS
 10
0.9056008708
 20
-4.5991721014
 11
1.0141114962
 21
-4.5283388356
  0
LINE
  5
4F6
100
AcDbEntity
  8
0
100
AcDbLine
 62
7
  6
CONTINUOUS
 10
0.6885795188
 20
-5.4137554685
 11
0.7970901441
 21
-5.3429221014
  0
LINE
  5
4F7
100
AcDbEntity
  8
ASSI
100
AcDbLine
 62
7
  6
CONTINUOUS
 10
0.6885795188
 20
-5.4137554685
 11
0.7970901441
 21
-5.3429221014
  0
LINE
  5
4F8
100
AcDbEntity
  8
0
100
AcDbLine
 62
7
  6
CONTINUOUS
 10
0.9417710793
 20
-4.7762555698
 11
1.0864519131
 21
-4.7054221014
  0
LINE
  5
4F9
100
AcDbEntity
  8
ASSI
100
AcDbLine
 62
7
  6
CONTINUOUS
 10
0.9417710793
 20
-4.7762555698
 11
1.0864519131
 21
-4.7054221014
  0
LINE
  5
4FA
100
AcDbEntity
  8
0
100
AcDbLine
 62
7
  6
CONTINUOUS
 10
1.665175299
 20
-4.8116721014
 11
1.8460263666
 21
-4.7408388356
  0
LINE
  5
4FB
100
AcDbEntity
  8
ASSI
100
AcDbLine
 62
7
  6
CONTINUOUS
 10
1.665175299
 20
-4.8116721014
 11
1.8460263666
 21
-4.7408388356
  0
LINE
  5
4FC
100
AcDbEntity
  8
0
100
AcDbLine
 62
7
  6
CONTINUOUS
 10
1.2673029554
 20
-5.1658388356
 11
1.4481539976
 21
-5.0950055698
  0
LINE
  5
4FD
100
AcDbEntity
  8
ASSI
100
AcDbLine
 62
7
  6
CONTINUOUS
 10
1.2673029554
 20
-5.1658388356
 11
1.4481539976
 21
-5.0950055698
  0
LINE
  5
4FE
100
AcDbEntity
  8
0
100
AcDbLine
 62
7
  6
CONTINUOUS
 10
0.6885795188
 20
-5.2012555698
 11
0.7970901441
 21
-5.1658388356
  0
LINE
  5
4FF
100
AcDbEntity
  8
ASSI
100
AcDbLine
 62
7
  6
CONTINUOUS
 10
0.6885795188
 20
-5.2012555698
 11
0.7970901441
 21
-5.1658388356
  0
LINE
  5
500
100
AcDbEntity
  8
RACCORDO
100
AcDbLine
 62
253
  6
CONTINUOUS
 10
6.7615277865
 20
4.9557203832
 11
7.5369079158
 21
4.9557203832
  0
LINE
  5
501
100
AcDbEntity
  8
ASSI
100
AcDbLine
 62
253
  6
CONTINUOUS
 10
6.7615277865
 20
4.9557203832
 11
7.5369079158
 21
4.9557203832
  0
LINE
  5
502
100
AcDbEntity
  8
RACCORDO
100
AcDbLine
 62
253
  6
CONTINUOUS
 10
-6.7630920842
 20
4.9557203832
 11
-7.5384722135
 21
4.9557203832
  0
LINE
  5
503
100
AcDbEntity
  8
ASSI
100
AcDbLine
 62
253
  6
CONTINUOUS
 10
-6.7630920842
 20
4.9557203832
 11
-7.5384722135
 21
4.9557203832
  0
LINE
  5
504
100
AcDbEntity
  8
DRAFT
100
AcDbLine
 62
7
  6
CONTINUOUS
 10
11.1947102653
 20
-4.1826652497
 11
11.1817627862
 21
-4.1697177707
  0
LINE
  5
505
100
AcDbEntity
  8
ASSI
100
AcDbLine
 62
7
  6
CONTINUOUS
 10
11.1947102653
 20
-4.1826652497
 11
11.1817627862
 21
-4.1697177707
  0
LINE
  5
506
100
AcDbEntity
  8
DRAFT
100
AcDbLine
 62
7
  6
CONTINUOUS
 10
11.4947102653
 20
-4.1826652497
 11
11.4209175012
 21
-4.1088724857
  0
LINE
  5
507
100
AcDbEntity
  8
ASSI
100
AcDbLine
 62
7
  6
CONTINUOUS
 10
11.4947102653
 20
-4.1826652497
 11
11.4209175012
 21
-4.1088724857
  0
LINE
  5
508
100
AcDbEntity
  8
RACCORDO
100
AcDbLine
 62
253
  6
CONTINUOUS
 10
5.4940270301
 20
-6.3320277188
 11
5.4940270301
 21
-7.9639880819
  0
LINE
  5
509
100
AcDbEntity
  8
ASSI
100
AcDbLine
 62
253
  6
CONTINUOUS
 10
5.4940270301
 20
-6.3320277188
 11
5.4940270301
 21
-7.9639880819
  0
LINE
  5
50A
100
AcDbEntity
  8
RACCORDO
100
AcDbLine
 62
253
  6
CONTINUOUS
 10
5.7044086722
 20
-7.9639880819
 11
5.7044086722
 21
-6.332027706
  0
LINE
  5
50B
100
AcDbEntity
  8
ASSI
100
AcDbLine
 62
253
  6
CONTINUOUS
 10
5.7044086722
 20
-7.9639880819
 11
5.7044086722
 21
-6.332027706
  0
LINE
  5
50C
100
AcDbEntity
  8
RACCORDO
100
AcDbLine
 62
253
  6
CONTINUOUS
 10
6.0043629808
 20
-7.9120131867
 11
6.0043629808
 21
-6.6319820146
  0
LINE
  5
50D
100
AcDbEntity
  8
ASSI
100
AcDbLine
 62
253
  6
CONTINUOUS
 10
6.0043629808
 20
-7.9120131867
 11
6.0043629808
 21
-6.6319820146
  0
LINE
  5
50E
100
AcDbEntity
  8
RACCORDO
100
AcDbLine
 62
7
  6
CONTINUOUS
 10
9.8279518859
 20
1.0415611992
 11
9.8789828514
 21
1.0925921646
  0
LINE
  5
50F
100
AcDbEntity
  8
ASSI
100
AcDbLine
 62
7
  6
CONTINUOUS
 10
9.8279518859
 20
1.0415611992
 11
9.8789828514
 21
1.0925921646
  0
LINE
  5
510
100
AcDbEntity
  8
0
100
AcDbLine
 62
7
  6
CONTINUOUS
 10
1.8098561582
 20
-6.2637555192
 11
1.9545370047
 21
-6.1575054685
  0
LINE
  5
511
100
AcDbEntity
  8
ASSI
100
AcDbLine
 62
7
  6
CONTINUOUS
 10
1.8098561582
 20
-6.2637555192
 11
1.9545370047
 21
-6.1575054685
  0
LINE
  5
512
100
AcDbEntity
  8
0
100
AcDbLine
 62
7
  6
CONTINUOUS
 10
1.7013455075
 20
-6.1220888356
 11
1.8098561582
 21
-6.0512554685
  0
LINE
  5
513
100
AcDbEntity
  8
ASSI
100
AcDbLine
 62
7
  6
CONTINUOUS
 10
1.7013455075
 20
-6.1220888356
 11
1.8098561582
 21
-6.0512554685
  0
LINE
  5
514
100
AcDbEntity
  8
0
100
AcDbLine
 62
7
  6
CONTINUOUS
 10
1.3758135807
 20
-5.3075055698
 11
1.4843242568
 21
-5.2720888356
  0
LINE
  5
515
100
AcDbEntity
  8
ASSI
100
AcDbLine
 62
7
  6
CONTINUOUS
 10
1.3758135807
 20
-5.3075055698
 11
1.4843242568
 21
-5.2720888356
  0
LINE
  5
516
100
AcDbEntity
  8
0
100
AcDbLine
 62
7
  6
CONTINUOUS
 10
1.5928348821
 20
-6.1575054685
 11
1.7013455075
 21
-6.1220888356
  0
LINE
  5
517
100
AcDbEntity
  8
ASSI
100
AcDbLine
 62
7
  6
CONTINUOUS
 10
1.5928348821
 20
-6.1575054685
 11
1.7013455075
 21
-6.1220888356
  0
LINE
  5
518
100
AcDbEntity
  8
0
100
AcDbLine
 62
7
  6
CONTINUOUS
 10
-0.3684811489
 20
-6.5394488356
 11
-2.0683441489
 21
-7.0783388356
  0
LINE
  5
519
100
AcDbEntity
  8
ASSI
100
AcDbLine
 62
7
  6
CONTINUOUS
 10
-0.3684811489
 20
-6.5394488356
 11
-2.0683441489
 21
-7.0783388356
  0
LINE
  5
51A
100
AcDbEntity
  8
DRAFT
100
AcDbLine
 62
7
  6
CONTINUOUS
 10
8.5116838417
 20
8.0151923592
 11
8.2492178511
 21
7.9628271644
  0
LINE
  5
51B
100
AcDbEntity
  8
ASSI
100
AcDbLine
 62
7
  6
CONTINUOUS
 10
8.5116838417
 20
8.0151923592
 11
8.2492178511
 21
7.9628271644
  0
LINE
  5
51C
100
AcDbEntity
  8
RACCORDO
100
AcDbLine
 62
7
  6
CONTINUOUS
 10
4.2411648902
 20
5.5864196637
 11
3.8210633759
 21
5.5662726887
  0
LINE
  5
51D
100
AcDbEntity
  8
ASSI
100
AcDbLine
 62
7
  6
CONTINUOUS
 10
4.2411648902
 20
5.5864196637
 11
3.8210633759
 21
5.5662726887
  0
LINE
  5
51E
100
AcDbEntity
  8
DRAFT
100
AcDbLine
 62
7
  6
CONTINUOUS
 10
-2.9007821489
 20
5.5670559152
 11
-3.0704179093
 21
5.5628271644
  0
LINE
  5
51F
100
AcDbEntity
  8
ASSI
100
AcDbLine
 62
7
  6
CONTINUOUS
 10
-2.9007821489
 20
5.5670559152
 11
-3.0704179093
 21
5.5628271644
  0
LINE
  5
520
100
AcDbEntity
  8
DRAFT
100
AcDbLine
 62
7
  6
CONTINUOUS
 10
2.8992178511
 20
5.5705469282
 11
2.9992178511
 21
5.5715546968
  0
LINE
  5
521
100
AcDbEntity
  8
ASSI
100
AcDbLine
 62
7
  6
CONTINUOUS
 10
2.8992178511
 20
5.5705469282
 11
2.9992178511
 21
5.5715546968
  0
LINE
  5
522
100
AcDbEntity
  8
RACCORDO
100
AcDbLine
 62
253
  6
CONTINUOUS
 10
7.2379761013
 20
5.3092737738
 11
7.060459601
 21
5.3092737738
  0
LINE
  5
523
100
AcDbEntity
  8
ASSI
100
AcDbLine
 62
253
  6
CONTINUOUS
 10
7.2379761013
 20
5.3092737738
 11
7.060459601
 21
5.3092737738
  0
LINE
  5
524
100
AcDbEntity
  8
RACCORDO
100
AcDbLine
 62
253
  6
CONTINUOUS
 10
-7.0620238987
 20
5.3092737738
 11
-7.239540399
 21
5.3092737738
  0
LINE
  5
525
100
AcDbEntity
  8
ASSI
100
AcDbLine
 62
253
  6
CONTINUOUS
 10
-7.0620238987
 20
5.3092737738
 11
-7.239540399
 21
5.3092737738
  0
LINE
  5
526
100
AcDbEntity
  8
RACCORDO
100
AcDbLine
 62
7
  6
CONTINUOUS
 10
3.5391555897
 20
5.5628271644
 11
3.0688536115
 21
5.5628271644
  0
LINE
  5
527
100
AcDbEntity
  8
ASSI
100
AcDbLine
 62
7
  6
CONTINUOUS
 10
3.5391555897
 20
5.5628271644
 11
3.0688536115
 21
5.5628271644
  0
LINE
  5
528
100
AcDbEntity
  8
RACCORDO
100
AcDbLine
 62
7
  6
CONTINUOUS
 10
-3.0704179093
 20
5.5628271644
 11
-3.5407198874
 21
5.5628271644
  0
LINE
  5
529
100
AcDbEntity
  8
ASSI
100
AcDbLine
 62
7
  6
CONTINUOUS
 10
-3.0704179093
 20
5.5628271644
 11
-3.5407198874
 21
5.5628271644
  0
LINE
  5
52A
100
AcDbEntity
  8
RACCORDO
100
AcDbLine
 62
7
  6
CONTINUOUS
 10
-4.4306809163
 20
5.588717176
 11
-3.0007821489
 21
5.588717176
  0
LINE
  5
52B
100
AcDbEntity
  8
ASSI
100
AcDbLine
 62
7
  6
CONTINUOUS
 10
-4.4306809163
 20
5.588717176
 11
-3.0007821489
 21
5.588717176
  0
LINE
  5
52C
100
AcDbEntity
  8
RACCORDO
100
AcDbLine
 62
7
  6
CONTINUOUS
 10
2.9992178511
 20
5.588717176
 11
4.4291166186
 21
5.588717176
  0
LINE
  5
52D
100
AcDbEntity
  8
ASSI
100
AcDbLine
 62
7
  6
CONTINUOUS
 10
2.9992178511
 20
5.588717176
 11
4.4291166186
 21
5.588717176
  0
LINE
  5
52E
100
AcDbEntity
  8
RACCORDO
100
AcDbLine
 62
253
  6
CONTINUOUS
 10
-7.2518829938
 20
6.016380555
 11
-7.0496813039
 21
6.016380555
  0
LINE
  5
52F
100
AcDbEntity
  8
ASSI
100
AcDbLine
 62
253
  6
CONTINUOUS
 10
-7.2518829938
 20
6.016380555
 11
-7.0496813039
 21
6.016380555
  0
LINE
  5
530
100
AcDbEntity
  8
RACCORDO
100
AcDbLine
 62
253
  6
CONTINUOUS
 10
7.0481170062
 20
6.016380555
 11
7.2503186961
 21
6.016380555
  0
LINE
  5
531
100
AcDbEntity
  8
ASSI
100
AcDbLine
 62
253
  6
CONTINUOUS
 10
7.0481170062
 20
6.016380555
 11
7.2503186961
 21
6.016380555
  0
LINE
  5
532
100
AcDbEntity
  8
DRAFT
100
AcDbLine
 62
7
  6
CONTINUOUS
 10
-3.0007821489
 20
5.5715546968
 11
-2.9007821489
 21
5.5705469282
  0
LINE
  5
533
100
AcDbEntity
  8
ASSI
100
AcDbLine
 62
7
  6
CONTINUOUS
 10
-3.0007821489
 20
5.5715546968
 11
-2.9007821489
 21
5.5705469282
  0
LINE
  5
534
100
AcDbEntity
  8
DRAFT
100
AcDbLine
 62
7
  6
CONTINUOUS
 10
3.0688536115
 20
5.5628271644
 11
2.8992178511
 21
5.5670559152
  0
LINE
  5
535
100
AcDbEntity
  8
ASSI
100
AcDbLine
 62
7
  6
CONTINUOUS
 10
3.0688536115
 20
5.5628271644
 11
2.8992178511
 21
5.5670559152
  0
LINE
  5
536
100
AcDbEntity
  8
RACCORDO
100
AcDbLine
 62
7
  6
CONTINUOUS
 10
-3.8226276736
 20
5.5662726887
 11
-4.2427291879
 21
5.5864196637
  0
LINE
  5
537
100
AcDbEntity
  8
ASSI
100
AcDbLine
 62
7
  6
CONTINUOUS
 10
-3.8226276736
 20
5.5662726887
 11
-4.2427291879
 21
5.5864196637
  0
LINE
  5
538
100
AcDbEntity
  8
DRAFT
100
AcDbLine
 62
7
  6
CONTINUOUS
 10
-8.5132481394
 20
8.0151923592
 11
-8.2507821489
 21
7.9628271644
  0
LINE
  5
539
100
AcDbEntity
  8
ASSI
100
AcDbLine
 62
7
  6
CONTINUOUS
 10
-8.5132481394
 20
8.0151923592
 11
-8.2507821489
 21
7.9628271644
  0
LINE
  5
53A
100
AcDbEntity
  8
DRAFT
100
AcDbLine
 62
7
  6
CONTINUOUS
 10
10.4166729161
 20
-1.7046279005
 11
10.4787056092
 21
-1.7666605937
  0
LINE
  5
53B
100
AcDbEntity
  8
ASSI
100
AcDbLine
 62
7
  6
CONTINUOUS
 10
10.4166729161
 20
-1.7046279005
 11
10.4787056092
 21
-1.7666605937
  0
LINE
  5
53C
100
AcDbEntity
  8
RACCORDO
100
AcDbLine
 62
253
  6
CONTINUOUS
 10
6.7605052924
 20
5.0971417394
 11
6.7481626977
 21
5.8042485206
  0
LINE
  5
53D
100
AcDbEntity
  8
ASSI
100
AcDbLine
 62
253
  6
CONTINUOUS
 10
6.7605052924
 20
5.0971417394
 11
6.7481626977
 21
5.8042485206
  0
LINE
  5
53E
100
AcDbEntity
  8
RACCORDO
100
AcDbLine
 62
253
  6
CONTINUOUS
 10
7.060459601
 20
5.3092737738
 11
7.0481170062
 21
6.016380555
  0
LINE
  5
53F
100
AcDbEntity
  8
ASSI
100
AcDbLine
 62
253
  6
CONTINUOUS
 10
7.060459601
 20
5.3092737738
 11
7.0481170062
 21
6.016380555
  0
LINE
  5
540
100
AcDbEntity
  8
RACCORDO
100
AcDbLine
 62
253
  6
CONTINUOUS
 10
6.7440727215
 20
6.3699339456
 11
6.7440727215
 21
7.9576820348
  0
LINE
  5
541
100
AcDbEntity
  8
ASSI
100
AcDbLine
 62
253
  6
CONTINUOUS
 10
6.7440727215
 20
6.3699339456
 11
6.7440727215
 21
7.9576820348
  0
LINE
  5
542
100
AcDbEntity
  8
RACCORDO
100
AcDbLine
 62
253
  6
CONTINUOUS
 10
6.7615277865
 20
3.5716308609
 11
6.7615277865
 21
4.9557203832
  0
LINE
  5
543
100
AcDbEntity
  8
ASSI
100
AcDbLine
 62
253
  6
CONTINUOUS
 10
6.7615277865
 20
3.5716308609
 11
6.7615277865
 21
4.9557203832
  0
LINE
  5
544
100
AcDbEntity
  8
RACCORDO
100
AcDbLine
 62
253
  6
CONTINUOUS
 10
7.0440270301
 20
6.3699183119
 11
7.0440270301
 21
7.9628271644
  0
LINE
  5
545
100
AcDbEntity
  8
ASSI
100
AcDbLine
 62
253
  6
CONTINUOUS
 10
7.0440270301
 20
6.3699183119
 11
7.0440270301
 21
7.9628271644
  0
LINE
  5
546
100
AcDbEntity
  8
RACCORDO
100
AcDbLine
 62
253
  6
CONTINUOUS
 10
7.061482095
 20
3.5716308609
 11
7.061482095
 21
4.9557203832
  0
LINE
  5
547
100
AcDbEntity
  8
ASSI
100
AcDbLine
 62
253
  6
CONTINUOUS
 10
7.061482095
 20
3.5716308609
 11
7.061482095
 21
4.9557203832
  0
LINE
  5
548
100
AcDbEntity
  8
RACCORDO
100
AcDbLine
 62
253
  6
CONTINUOUS
 10
7.2369536073
 20
4.9557203832
 11
7.2369536073
 21
3.5716308609
  0
LINE
  5
549
100
AcDbEntity
  8
ASSI
100
AcDbLine
 62
253
  6
CONTINUOUS
 10
7.2369536073
 20
4.9557203832
 11
7.2369536073
 21
3.5716308609
  0
LINE
  5
54A
100
AcDbEntity
  8
RACCORDO
100
AcDbLine
 62
253
  6
CONTINUOUS
 10
7.2544086722
 20
7.9628271644
 11
7.2544086722
 21
6.369918609
  0
LINE
  5
54B
100
AcDbEntity
  8
ASSI
100
AcDbLine
 62
253
  6
CONTINUOUS
 10
7.2544086722
 20
7.9628271644
 11
7.2544086722
 21
6.369918609
  0
LINE
  5
54C
100
AcDbEntity
  8
RACCORDO
100
AcDbLine
 62
253
  6
CONTINUOUS
 10
7.2503186961
 20
6.016380555
 11
7.2379761013
 21
5.3092737738
  0
LINE
  5
54D
100
AcDbEntity
  8
ASSI
100
AcDbLine
 62
253
  6
CONTINUOUS
 10
7.2503186961
 20
6.016380555
 11
7.2379761013
 21
5.3092737738
  0
LINE
  5
54E
100
AcDbEntity
  8
RACCORDO
100
AcDbLine
 62
7
  6
CONTINUOUS
 10
6.029267945
 20
-7.6604290666
 11
6.0043629808
 21
-7.9120131867
  0
LINE
  5
54F
100
AcDbEntity
  8
ASSI
100
AcDbLine
 62
7
  6
CONTINUOUS
 10
6.029267945
 20
-7.6604290666
 11
6.0043629808
 21
-7.9120131867
  0
LINE
  5
550
100
AcDbEntity
  8
RACCORDO
100
AcDbLine
 62
7
  6
CONTINUOUS
 10
11.1237490411
 20
1.0467055751
 11
11.1747807602
 21
1.0977372942
  0
LINE
  5
551
100
AcDbEntity
  8
ASSI
100
AcDbLine
 62
7
  6
CONTINUOUS
 10
11.1237490411
 20
1.0467055751
 11
11.1747807602
 21
1.0977372942
  0
LINE
  5
552
100
AcDbEntity
  8
0
100
AcDbLine
 62
7
  6
CONTINUOUS
 10
1.6290050906
 20
-6.3345888356
 11
1.8098561582
 21
-6.2637555192
  0
LINE
  5
553
100
AcDbEntity
  8
ASSI
100
AcDbLine
 62
7
  6
CONTINUOUS
 10
1.6290050906
 20
-6.3345888356
 11
1.8098561582
 21
-6.2637555192
  0
LINE
  5
554
100
AcDbEntity
  8
RACCORDO
100
AcDbLine
 62
253
  6
CONTINUOUS
 10
6.7440727215
 20
6.3699339456
 11
7.5543629808
 21
6.3699339456
  0
LINE
  5
555
100
AcDbEntity
  8
ASSI
100
AcDbLine
 62
253
  6
CONTINUOUS
 10
6.7440727215
 20
6.3699339456
 11
7.5543629808
 21
6.3699339456
  0
LINE
  5
556
100
AcDbEntity
  8
RACCORDO
100
AcDbLine
 62
253
  6
CONTINUOUS
 10
-6.7456370192
 20
6.3699339456
 11
-7.5559272785
 21
6.3699339456
  0
LINE
  5
557
100
AcDbEntity
  8
ASSI
100
AcDbLine
 62
253
  6
CONTINUOUS
 10
-6.7456370192
 20
6.3699339456
 11
-7.5559272785
 21
6.3699339456
  0
LINE
  5
558
100
AcDbEntity
  8
DRAFT
100
AcDbLine
 62
7
  6
CONTINUOUS
 10
-2.9682372138
 20
7.1802822293
 11
-2.5007821489
 21
7.1802822293
  0
LINE
  5
559
100
AcDbEntity
  8
DRAFT
100
AcDbLine
 62
7
  6
CONTINUOUS
 10
2.9666729161
 20
7.1802822293
 11
2.4992178511
 21
7.1802822293
  0
LINE
  5
55A
100
AcDbEntity
  8
DRAFT
100
AcDbLine
 62
7
  6
CONTINUOUS
 10
-2.4972911359
 20
7.1837732423
 11
2.4957268382
 21
7.1837732423
  0
LINE
  5
55B
100
AcDbEntity
  8
RACCORDO
100
AcDbLine
 62
7
  6
CONTINUOUS
 10
11.1817627862
 20
-1.0790649914
 11
11.1245466223
 21
-1.0218488276
  0
LINE
  5
55C
100
AcDbEntity
  8
ASSI
100
AcDbLine
 62
7
  6
CONTINUOUS
 10
11.1817627862
 20
-1.0790649914
 11
11.1245466223
 21
-1.0218488276
  0
LINE
  5
55D
100
AcDbEntity
  8
RACCORDO
100
AcDbLine
 62
253
  6
CONTINUOUS
 10
7.5369079158
 20
4.9557203832
 11
7.5369079158
 21
3.5716308609
  0
LINE
  5
55E
100
AcDbEntity
  8
ASSI
100
AcDbLine
 62
253
  6
CONTINUOUS
 10
7.5369079158
 20
4.9557203832
 11
7.5369079158
 21
3.5716308609
  0
LINE
  5
55F
100
AcDbEntity
  8
RACCORDO
100
AcDbLine
 62
253
  6
CONTINUOUS
 10
7.5543629808
 20
7.9576820348
 11
7.5543629808
 21
6.3699339456
  0
LINE
  5
560
100
AcDbEntity
  8
ASSI
100
AcDbLine
 62
253
  6
CONTINUOUS
 10
7.5543629808
 20
7.9576820348
 11
7.5543629808
 21
6.3699339456
  0
LINE
  5
561
100
AcDbEntity
  8
DRAFT
100
AcDbLine
 62
7
  6
CONTINUOUS
 10
8.2492178511
 20
9.1034799436
 11
8.2492178511
 21
7.9628271644
  0
LINE
  5
562
100
AcDbEntity
  8
ASSI
100
AcDbLine
 62
7
  6
CONTINUOUS
 10
8.2492178511
 20
9.1034799436
 11
8.2492178511
 21
7.9628271644
  0
LINE
  5
563
100
AcDbEntity
  8
RACCORDO
100
AcDbLine
 62
253
  6
CONTINUOUS
 10
7.5502730046
 20
5.8042485206
 11
7.5379304099
 21
5.0971417394
  0
LINE
  5
564
100
AcDbEntity
  8
ASSI
100
AcDbLine
 62
253
  6
CONTINUOUS
 10
7.5502730046
 20
5.8042485206
 11
7.5379304099
 21
5.0971417394
  0
LINE
  5
565
100
AcDbEntity
  8
DRAFT
100
AcDbLine
 62
7
  6
CONTINUOUS
 10
8.5116838417
 20
9.1558451384
 11
8.2492178511
 21
9.1034799436
  0
LINE
  5
566
100
AcDbEntity
  8
ASSI
100
AcDbLine
 62
7
  6
CONTINUOUS
 10
8.5116838417
 20
9.1558451384
 11
8.2492178511
 21
9.1034799436
  0
LINE
  5
567
100
AcDbEntity
  8
0
100
AcDbLine
 62
7
  6
CONTINUOUS
 10
-3.0007821489
 20
7.2628271644
 11
2.9992178511
 21
7.2628271644
  0
LINE
  5
568
100
AcDbEntity
  8
ASSI
100
AcDbLine
 62
7
  6
CONTINUOUS
 10
-3.0007821489
 20
7.2628271644
 11
2.9992178511
 21
7.2628271644
  0
LINE
  5
569
100
AcDbEntity
  8
DRAFT
100
AcDbLine
 62
7
  6
CONTINUOUS
 10
-12.3007821489
 20
7.9034799436
 11
-11.2007821489
 21
7.9034799436
  0
LINE
  5
56A
100
AcDbEntity
  8
ASSI
100
AcDbLine
 62
7
  6
CONTINUOUS
 10
-12.3007821489
 20
7.9034799436
 11
-11.2007821489
 21
7.9034799436
  0
LINE
  5
56B
100
AcDbEntity
  8
DRAFT
100
AcDbLine
 62
7
  6
CONTINUOUS
 10
11.1992178511
 20
7.9034799436
 11
12.2992178511
 21
7.9034799436
  0
LINE
  5
56C
100
AcDbEntity
  8
ASSI
100
AcDbLine
 62
7
  6
CONTINUOUS
 10
11.1992178511
 20
7.9034799436
 11
12.2992178511
 21
7.9034799436
  0
LINE
  5
56D
100
AcDbEntity
  8
RACCORDO
100
AcDbLine
 62
253
  6
CONTINUOUS
 10
-12.2989452525
 20
7.90531684
 11
-11.1989452525
 21
7.90531684
  0
LINE
  5
56E
100
AcDbEntity
  8
ASSI
100
AcDbLine
 62
253
  6
CONTINUOUS
 10
-12.2989452525
 20
7.90531684
 11
-11.1989452525
 21
7.90531684
  0
LINE
  5
56F
100
AcDbEntity
  8
RACCORDO
100
AcDbLine
 62
253
  6
CONTINUOUS
 10
11.1973809548
 20
7.90531684
 11
12.2973809548
 21
7.90531684
  0
LINE
  5
570
100
AcDbEntity
  8
ASSI
100
AcDbLine
 62
253
  6
CONTINUOUS
 10
11.1973809548
 20
7.90531684
 11
12.2973809548
 21
7.90531684
  0
LINE
  5
571
100
AcDbEntity
  8
RACCORDO
100
AcDbLine
 62
7
  6
CONTINUOUS
 10
-10.8239750037
 20
7.9401764485
 11
-7.5734328648
 21
7.9401764485
  0
LINE
  5
572
100
AcDbEntity
  8
ASSI
100
AcDbLine
 62
7
  6
CONTINUOUS
 10
-10.8239750037
 20
7.9401764485
 11
-7.5734328648
 21
7.9401764485
  0
LINE
  5
573
100
AcDbEntity
  8
DRAFT
100
AcDbLine
 62
7
  6
CONTINUOUS
 10
-6.7281314329
 20
7.9401764485
 11
6.7265671352
 21
7.9401764485
  0
LINE
  5
574
100
AcDbEntity
  8
ASSI
100
AcDbLine
 62
7
  6
CONTINUOUS
 10
-6.7281314329
 20
7.9401764485
 11
6.7265671352
 21
7.9401764485
  0
LINE
  5
575
100
AcDbEntity
  8
RACCORDO
100
AcDbLine
 62
7
  6
CONTINUOUS
 10
7.5718685671
 20
7.9401764485
 11
10.822410706
 21
7.9401764485
  0
LINE
  5
576
100
AcDbEntity
  8
ASSI
100
AcDbLine
 62
7
  6
CONTINUOUS
 10
7.5718685671
 20
7.9401764485
 11
10.822410706
 21
7.9401764485
  0
LINE
  5
577
100
AcDbEntity
  8
RACCORDO
100
AcDbLine
 62
7
  6
CONTINUOUS
 10
-8.2507821489
 20
7.9628271644
 11
-7.2559729699
 21
7.9628271644
  0
LINE
  5
578
100
AcDbEntity
  8
ASSI
100
AcDbLine
 62
7
  6
CONTINUOUS
 10
-8.2507821489
 20
7.9628271644
 11
-7.2559729699
 21
7.9628271644
  0
LINE
  5
579
100
AcDbEntity
  8
RACCORDO
100
AcDbLine
 62
7
  6
CONTINUOUS
 10
-7.0455913278
 20
7.9628271644
 11
7.0440270301
 21
7.9628271644
  0
LINE
  5
57A
100
AcDbEntity
  8
ASSI
100
AcDbLine
 62
7
  6
CONTINUOUS
 10
-7.0455913278
 20
7.9628271644
 11
7.0440270301
 21
7.9628271644
  0
LINE
  5
57B
100
AcDbEntity
  8
RACCORDO
100
AcDbLine
 62
7
  6
CONTINUOUS
 10
7.2544086722
 20
7.9628271644
 11
8.2492178511
 21
7.9628271644
  0
LINE
  5
57C
100
AcDbEntity
  8
ASSI
100
AcDbLine
 62
7
  6
CONTINUOUS
 10
7.2544086722
 20
7.9628271644
 11
8.2492178511
 21
7.9628271644
  0
LINE
  5
57D
100
AcDbEntity
  8
DRAFT
100
AcDbLine
 62
7
  6
CONTINUOUS
 10
-11.1938001229
 20
8.0151923592
 11
-8.5132481394
 21
8.0151923592
  0
LINE
  5
57E
100
AcDbEntity
  8
ASSI
100
AcDbLine
 62
7
  6
CONTINUOUS
 10
-11.1938001229
 20
8.0151923592
 11
-8.5132481394
 21
8.0151923592
  0
LINE
  5
57F
100
AcDbEntity
  8
DRAFT
100
AcDbLine
 62
7
  6
CONTINUOUS
 10
8.5116838417
 20
8.0151923592
 11
11.1922358252
 21
8.0151923592
  0
LINE
  5
580
100
AcDbEntity
  8
ASSI
100
AcDbLine
 62
7
  6
CONTINUOUS
 10
8.5116838417
 20
8.0151923592
 11
11.1922358252
 21
8.0151923592
  0
LINE
  5
581
100
AcDbEntity
  8
RACCORDO
100
AcDbLine
 62
253
  6
CONTINUOUS
 10
-12.2938001229
 20
8.2052711485
 11
-11.1938001229
 21
8.2052711485
  0
LINE
  5
582
100
AcDbEntity
  8
ASSI
100
AcDbLine
 62
253
  6
CONTINUOUS
 10
-12.2938001229
 20
8.2052711485
 11
-11.1938001229
 21
8.2052711485
  0
LINE
  5
583
100
AcDbEntity
  8
RACCORDO
100
AcDbLine
 62
253
  6
CONTINUOUS
 10
11.1922358252
 20
8.2052711485
 11
12.2922358252
 21
8.2052711485
  0
LINE
  5
584
100
AcDbEntity
  8
ASSI
100
AcDbLine
 62
253
  6
CONTINUOUS
 10
11.1922358252
 20
8.2052711485
 11
12.2922358252
 21
8.2052711485
  0
LINE
  5
585
100
AcDbEntity
  8
DRAFT
100
AcDbLine
 62
7
  6
CONTINUOUS
 10
-8.5132481394
 20
9.1558451384
 11
-8.2507821489
 21
9.1034799436
  0
LINE
  5
586
100
AcDbEntity
  8
ASSI
100
AcDbLine
 62
7
  6
CONTINUOUS
 10
-8.5132481394
 20
9.1558451384
 11
-8.2507821489
 21
9.1034799436
  0
LINE
  5
587
100
AcDbEntity
  8
RACCORDO
100
AcDbLine
 62
253
  6
CONTINUOUS
 10
7.2403836937
 20
3.0717070133
 11
7.2711326672
 21
3.0409580397
  0
LINE
  5
588
100
AcDbEntity
  8
ASSI
100
AcDbLine
 62
253
  6
CONTINUOUS
 10
7.2403836937
 20
3.0717070133
 11
7.2711326672
 21
3.0409580397
  0
LINE
  5
589
100
AcDbEntity
  8
RACCORDO
100
AcDbLine
 62
253
  6
CONTINUOUS
 10
7.5403380022
 20
3.3716613218
 11
7.5711632319
 21
3.3408360921
  0
LINE
  5
58A
100
AcDbEntity
  8
ASSI
100
AcDbLine
 62
253
  6
CONTINUOUS
 10
7.5403380022
 20
3.3716613218
 11
7.5711632319
 21
3.3408360921
  0
LINE
  5
58B
100
AcDbEntity
  8
RACCORDO
100
AcDbLine
 62
7
  6
CONTINUOUS
 10
9.8277085773
 20
1.7843364382
 11
9.8789828514
 21
1.7330621641
  0
LINE
  5
58C
100
AcDbEntity
  8
ASSI
100
AcDbLine
 62
7
  6
CONTINUOUS
 10
9.8277085773
 20
1.7843364382
 11
9.8789828514
 21
1.7330621641
  0
LINE
  5
58D
100
AcDbEntity
  8
DRAFT
100
AcDbLine
 62
7
  6
CONTINUOUS
 10
8.5116838417
 20
9.1558451384
 11
8.5116838417
 21
8.0151923592
  0
LINE
  5
58E
100
AcDbEntity
  8
ASSI
100
AcDbLine
 62
7
  6
CONTINUOUS
 10
8.5116838417
 20
9.1558451384
 11
8.5116838417
 21
8.0151923592
  0
LINE
  5
58F
100
AcDbEntity
  8
RACCORDO
100
AcDbLine
 62
253
  6
CONTINUOUS
 10
5.7044086722
 20
-6.332027706
 11
5.734354662
 21
-6.3020817162
  0
LINE
  5
590
100
AcDbEntity
  8
ASSI
100
AcDbLine
 62
253
  6
CONTINUOUS
 10
5.7044086722
 20
-6.332027706
 11
5.734354662
 21
-6.3020817162
  0
LINE
  5
591
100
AcDbEntity
  8
RACCORDO
100
AcDbLine
 62
253
  6
CONTINUOUS
 10
6.0043629808
 20
-6.6319820146
 11
6.0341132787
 21
-6.6022317166
  0
LINE
  5
592
100
AcDbEntity
  8
ASSI
100
AcDbLine
 62
253
  6
CONTINUOUS
 10
6.0043629808
 20
-6.6319820146
 11
6.0341132787
 21
-6.6022317166
  0
LINE
  5
593
100
AcDbEntity
  8
DRAFT
100
AcDbLine
 62
7
  6
CONTINUOUS
 10
11.1992178511
 20
-1.6871728356
 11
11.1817627862
 21
-1.7046279005
  0
LINE
  5
594
100
AcDbEntity
  8
ASSI
100
AcDbLine
 62
7
  6
CONTINUOUS
 10
11.1992178511
 20
-1.6871728356
 11
11.1817627862
 21
-1.7046279005
  0
LINE
  5
595
100
AcDbEntity
  8
DRAFT
100
AcDbLine
 62
7
  6
CONTINUOUS
 10
11.4992178511
 20
-1.6871728356
 11
11.4197300931
 21
-1.7666605937
  0
LINE
  5
596
100
AcDbEntity
  8
ASSI
100
AcDbLine
 62
7
  6
CONTINUOUS
 10
11.4992178511
 20
-1.6871728356
 11
11.4197300931
 21
-1.7666605937
  0
LINE
  5
597
100
AcDbEntity
  8
DRAFT
100
AcDbLine
 62
7
  6
CONTINUOUS
 10
-8.2507821489
 20
9.1034799436
 11
8.2492178511
 21
9.1034799436
  0
LINE
  5
598
100
AcDbEntity
  8
ASSI
100
AcDbLine
 62
7
  6
CONTINUOUS
 10
-8.2507821489
 20
9.1034799436
 11
8.2492178511
 21
9.1034799436
  0
LINE
  5
599
100
AcDbEntity
  8
RACCORDO
100
AcDbLine
 62
7
  6
CONTINUOUS
 10
-12.0438381991
 20
9.1558451384
 11
-8.5132481394
 21
9.1558451384
  0
LINE
  5
59A
100
AcDbEntity
  8
ASSI
100
AcDbLine
 62
7
  6
CONTINUOUS
 10
-12.0438381991
 20
9.1558451384
 11
-8.5132481394
 21
9.1558451384
  0
LINE
  5
59B
100
AcDbEntity
  8
RACCORDO
100
AcDbLine
 62
7
  6
CONTINUOUS
 10
8.5116838417
 20
9.1558451384
 11
12.0422739014
 21
9.1558451384
  0
LINE
  5
59C
100
AcDbEntity
  8
ASSI
100
AcDbLine
 62
7
  6
CONTINUOUS
 10
8.5116838417
 20
9.1558451384
 11
12.0422739014
 21
9.1558451384
  0
LINE
  5
59D
100
AcDbEntity
  8
RACCORDO
100
AcDbLine
 62
7
  6
CONTINUOUS
 10
11.1747807602
 20
1.7279170345
 11
11.1235089337
 21
1.7791888611
  0
LINE
  5
59E
100
AcDbEntity
  8
ASSI
100
AcDbLine
 62
7
  6
CONTINUOUS
 10
11.1747807602
 20
1.7279170345
 11
11.1235089337
 21
1.7791888611
  0
LINE
  5
59F
100
AcDbEntity
  8
RACCORDO
100
AcDbLine
 62
253
  6
CONTINUOUS
 10
10.8281392151
 20
-7.6604290666
 11
10.8861174129
 21
-8.2461112511
  0
LINE
  5
5A0
100
AcDbEntity
  8
ASSI
100
AcDbLine
 62
253
  6
CONTINUOUS
 10
10.8281392151
 20
-7.6604290666
 11
10.8861174129
 21
-8.2461112511
  0
LINE
  5
5A1
100
AcDbEntity
  8
RACCORDO
100
AcDbLine
 62
253
  6
CONTINUOUS
 10
11.128093525
 20
-7.3649867543
 11
11.1852537992
 21
-7.9424064665
  0
LINE
  5
5A2
100
AcDbEntity
  8
ASSI
100
AcDbLine
 62
253
  6
CONTINUOUS
 10
11.128093525
 20
-7.3649867543
 11
11.1852537992
 21
-7.9424064665
  0
LINE
  5
5A3
100
AcDbEntity
  8
DRAFT
100
AcDbLine
 62
7
  6
CONTINUOUS
 10
9.4992178511
 20
-4.8170995109
 11
9.4992178511
 21
-1.0572461603
  0
LINE
  5
5A4
100
AcDbEntity
  8
ASSI
100
AcDbLine
 62
7
  6
CONTINUOUS
 10
9.4992178511
 20
-4.8170995109
 11
9.4992178511
 21
-1.0572461603
  0
LINE
  5
5A5
100
AcDbEntity
  8
RACCORDO
100
AcDbLine
 62
253
  6
CONTINUOUS
 10
9.8789828514
 20
1.7330621641
 11
9.8789828514
 21
1.0925921646
  0
LINE
  5
5A6
100
AcDbEntity
  8
ASSI
100
AcDbLine
 62
253
  6
CONTINUOUS
 10
9.8789828514
 20
1.7330621641
 11
9.8789828514
 21
1.0925921646
  0
LINE
  5
5A7
100
AcDbEntity
  8
RACCORDO
100
AcDbLine
 62
253
  6
CONTINUOUS
 10
9.8789828514
 20
-6.1669378359
 11
9.8789828514
 21
-6.8074078354
  0
LINE
  5
5A8
100
AcDbEntity
  8
ASSI
100
AcDbLine
 62
253
  6
CONTINUOUS
 10
9.8789828514
 20
-6.1669378359
 11
9.8789828514
 21
-6.8074078354
  0
LINE
  5
5A9
100
AcDbEntity
  8
DRAFT
100
AcDbLine
 62
7
  6
CONTINUOUS
 10
9.8992178511
 20
-4.8556997664
 11
9.8992178511
 21
-4.8211305855
  0
LINE
  5
5AA
100
AcDbEntity
  8
ASSI
100
AcDbLine
 62
7
  6
CONTINUOUS
 10
9.8992178511
 20
-4.8556997664
 11
9.8992178511
 21
-4.8211305855
  0
LINE
  5
5AB
100
AcDbEntity
  8
DRAFT
100
AcDbLine
 62
7
  6
CONTINUOUS
 10
9.8992178511
 20
-1.0532150857
 11
9.8992178511
 21
-1.0166999204
  0
LINE
  5
5AC
100
AcDbEntity
  8
ASSI
100
AcDbLine
 62
7
  6
CONTINUOUS
 10
9.8992178511
 20
-1.0532150857
 11
9.8992178511
 21
-1.0166999204
  0
LINE
  5
5AD
100
AcDbEntity
  8
DRAFT
100
AcDbLine
 62
7
  6
CONTINUOUS
 10
10.1492178511
 20
-4.7952806798
 11
10.1492178511
 21
-1.0790649914
  0
LINE
  5
5AE
100
AcDbEntity
  8
ASSI
100
AcDbLine
 62
7
  6
CONTINUOUS
 10
10.1492178511
 20
-4.7952806798
 11
10.1492178511
 21
-1.0790649914
  0
LINE
  5
5AF
100
AcDbEntity
  8
RACCORDO
100
AcDbLine
 62
253
  6
CONTINUOUS
 10
10.1789371599
 20
1.7279170345
 11
10.1789371599
 21
1.0977372942
  0
LINE
  5
5B0
100
AcDbEntity
  8
ASSI
100
AcDbLine
 62
253
  6
CONTINUOUS
 10
10.1789371599
 20
1.7279170345
 11
10.1789371599
 21
1.0977372942
  0
LINE
  5
5B1
100
AcDbEntity
  8
RACCORDO
100
AcDbLine
 62
253
  6
CONTINUOUS
 10
10.1789371599
 20
-6.1720829655
 11
10.1789371599
 21
-6.8022627058
  0
LINE
  5
5B2
100
AcDbEntity
  8
ASSI
100
AcDbLine
 62
253
  6
CONTINUOUS
 10
10.1789371599
 20
-6.1720829655
 11
10.1789371599
 21
-6.8022627058
  0
LINE
  5
5B3
100
AcDbEntity
  8
DRAFT
100
AcDbLine
 62
7
  6
CONTINUOUS
 10
10.4166729161
 20
-4.1697177707
 11
10.4775182011
 21
-4.1088724857
  0
LINE
  5
5B4
100
AcDbEntity
  8
ASSI
100
AcDbLine
 62
7
  6
CONTINUOUS
 10
10.4166729161
 20
-4.1697177707
 11
10.4775182011
 21
-4.1088724857
  0
LINE
  5
5B5
100
AcDbEntity
  8
RACCORDO
100
AcDbLine
 62
253
  6
CONTINUOUS
 10
10.8277845661
 20
-6.8544458842
 11
10.8281392163
 21
-7.3768392305
  0
LINE
  5
5B6
100
AcDbEntity
  8
ASSI
100
AcDbLine
 62
253
  6
CONTINUOUS
 10
10.8277845661
 20
-6.8544458842
 11
10.8281392163
 21
-7.3768392305
  0
LINE
  5
5B7
100
AcDbEntity
  8
RACCORDO
100
AcDbLine
 62
253
  6
CONTINUOUS
 10
10.8265315713
 20
-4.8556997666
 11
10.827304628
 21
-6.1194195098
  0
LINE
  5
5B8
100
AcDbEntity
  8
ASSI
100
AcDbLine
 62
253
  6
CONTINUOUS
 10
10.8265315713
 20
-4.8556997666
 11
10.827304628
 21
-6.1194195098
  0
LINE
  5
5B9
100
AcDbEntity
  8
RACCORDO
100
AcDbLine
 62
253
  6
CONTINUOUS
 10
10.8237944763
 20
1.0415611992
 11
10.8245869647
 21
-1.0166999203
  0
LINE
  5
5BA
100
AcDbEntity
  8
ASSI
100
AcDbLine
 62
253
  6
CONTINUOUS
 10
10.8237944763
 20
1.0415611992
 11
10.8245869647
 21
-1.0166999203
  0
LINE
  5
5BB
100
AcDbEntity
  8
RACCORDO
100
AcDbLine
 62
253
  6
CONTINUOUS
 10
10.822410706
 20
7.9401764485
 11
10.8235513399
 21
1.7843364383
  0
LINE
  5
5BC
100
AcDbEntity
  8
ASSI
100
AcDbLine
 62
253
  6
CONTINUOUS
 10
10.822410706
 20
7.9401764485
 11
10.8235513399
 21
1.7843364383
  0
LINE
  5
5BD
100
AcDbEntity
  8
DRAFT
100
AcDbLine
 62
7
  6
CONTINUOUS
 10
10.4166729161
 20
-1.7046279005
 11
10.4166729161
 21
-4.1697177707
  0
LINE
  5
5BE
100
AcDbEntity
  8
ASSI
100
AcDbLine
 62
7
  6
CONTINUOUS
 10
10.4166729161
 20
-1.7046279005
 11
10.4166729161
 21
-4.1697177707
  0
LINE
  5
5BF
100
AcDbEntity
  8
DRAFT
100
AcDbLine
 62
7
  6
CONTINUOUS
 10
11.1747807602
 20
1.7279170345
 11
11.1747807602
 21
1.0977372942
  0
LINE
  5
5C0
100
AcDbEntity
  8
ASSI
100
AcDbLine
 62
7
  6
CONTINUOUS
 10
11.1747807602
 20
1.7279170345
 11
11.1747807602
 21
1.0977372942
  0
LINE
  5
5C1
100
AcDbEntity
  8
DRAFT
100
AcDbLine
 62
7
  6
CONTINUOUS
 10
11.1747807602
 20
-6.1720829655
 11
11.1747807602
 21
-6.8022627058
  0
LINE
  5
5C2
100
AcDbEntity
  8
ASSI
100
AcDbLine
 62
7
  6
CONTINUOUS
 10
11.1747807602
 20
-6.1720829655
 11
11.1747807602
 21
-6.8022627058
  0
LINE
  5
5C3
100
AcDbEntity
  8
DRAFT
100
AcDbLine
 62
7
  6
CONTINUOUS
 10
11.1817627862
 20
-1.0790649914
 11
11.1817627862
 21
-1.7046279005
  0
LINE
  5
5C4
100
AcDbEntity
  8
ASSI
100
AcDbLine
 62
7
  6
CONTINUOUS
 10
11.1817627862
 20
-1.0790649914
 11
11.1817627862
 21
-1.7046279005
  0
LINE
  5
5C5
100
AcDbEntity
  8
DRAFT
100
AcDbLine
 62
7
  6
CONTINUOUS
 10
11.1817627862
 20
-4.1697177707
 11
11.1817627862
 21
-4.7952806798
  0
LINE
  5
5C6
100
AcDbEntity
  8
ASSI
100
AcDbLine
 62
7
  6
CONTINUOUS
 10
11.1817627862
 20
-4.1697177707
 11
11.1817627862
 21
-4.7952806798
  0
LINE
  5
5C7
100
AcDbEntity
  8
RACCORDO
100
AcDbLine
 62
7
  6
CONTINUOUS
 10
11.1852537992
 20
-7.9424064665
 11
11.1852537992
 21
-9.3301945403
  0
LINE
  5
5C8
100
AcDbEntity
  8
ASSI
100
AcDbLine
 62
7
  6
CONTINUOUS
 10
11.1852537992
 20
-7.9424064665
 11
11.1852537992
 21
-9.3301945403
  0
LINE
  5
5C9
100
AcDbEntity
  8
RACCORDO
100
AcDbLine
 62
7
  6
CONTINUOUS
 10
11.1922358252
 20
8.2052711485
 11
11.1922358252
 21
8.0151923592
  0
LINE
  5
5CA
100
AcDbEntity
  8
ASSI
100
AcDbLine
 62
7
  6
CONTINUOUS
 10
11.1922358252
 20
8.2052711485
 11
11.1922358252
 21
8.0151923592
  0
LINE
  5
5CB
100
AcDbEntity
  8
DRAFT
100
AcDbLine
 62
7
  6
CONTINUOUS
 10
11.1992178511
 20
7.9034799436
 11
11.1992178511
 21
-1.6871728356
  0
LINE
  5
5CC
100
AcDbEntity
  8
ASSI
100
AcDbLine
 62
7
  6
CONTINUOUS
 10
11.1992178511
 20
7.9034799436
 11
11.1992178511
 21
-1.6871728356
  0
LINE
  5
5CD
100
AcDbEntity
  8
DRAFT
100
AcDbLine
 62
7
  6
CONTINUOUS
 10
11.1852665957
 20
-9.3301977392
 11
11.1947102653
 21
-4.1826652497
  0
LINE
  5
5CE
100
AcDbEntity
  8
ASSI
100
AcDbLine
 62
7
  6
CONTINUOUS
 10
11.1852665957
 20
-9.3301977392
 11
11.1947102653
 21
-4.1826652497
  0
LINE
  5
5CF
100
AcDbEntity
  8
RACCORDO
100
AcDbLine
 62
7
  6
CONTINUOUS
 10
11.1264887653
 20
-4.8505547007
 11
11.1817627862
 21
-4.7952806798
  0
LINE
  5
5D0
100
AcDbEntity
  8
ASSI
100
AcDbLine
 62
7
  6
CONTINUOUS
 10
11.1264887653
 20
-4.8505547007
 11
11.1817627862
 21
-4.7952806798
  0
LINE
  5
5D1
100
AcDbEntity
  8
RACCORDO
100
AcDbLine
 62
7
  6
CONTINUOUS
 10
7.5543629808
 20
7.9576820348
 11
7.5718685671
 21
7.9401764485
  0
LINE
  5
5D2
100
AcDbEntity
  8
ASSI
100
AcDbLine
 62
7
  6
CONTINUOUS
 10
7.5543629808
 20
7.9576820348
 11
7.5718685671
 21
7.9401764485
  0
LINE
  5
5D3
100
AcDbEntity
  8
RACCORDO
100
AcDbLine
 62
7
  6
CONTINUOUS
 10
12.2922358252
 20
8.9058832146
 11
12.2922358252
 21
8.2052711485
  0
LINE
  5
5D4
100
AcDbEntity
  8
ASSI
100
AcDbLine
 62
7
  6
CONTINUOUS
 10
12.2922358252
 20
8.9058832146
 11
12.2922358252
 21
8.2052711485
  0
LINE
  5
5D5
100
AcDbEntity
  8
DRAFT
100
AcDbLine
 62
7
  6
CONTINUOUS
 10
12.2992178511
 20
7.9034799436
 11
12.2992178511
 21
-1.7256812722
  0
LINE
  5
5D6
100
AcDbEntity
  8
ASSI
100
AcDbLine
 62
7
  6
CONTINUOUS
 10
12.2992178511
 20
7.9034799436
 11
12.2992178511
 21
-1.7256812722
  0
LINE
  5
5D7
100
AcDbEntity
  8
DRAFT
100
AcDbLine
 62
7
  6
CONTINUOUS
 10
11.4992178511
 20
-1.6871728356
 11
11.4947102653
 21
-4.1826652497
  0
LINE
  5
5D8
100
AcDbEntity
  8
ASSI
100
AcDbLine
 62
7
  6
CONTINUOUS
 10
11.4992178511
 20
-1.6871728356
 11
11.4947102653
 21
-4.1826652497
  0
LINE
  5
5D9
100
AcDbEntity
  8
RACCORDO
100
AcDbLine
 62
7
  6
CONTINUOUS
 10
12.2857247734
 20
-9.0804553672
 11
12.2992178511
 21
-1.7256812722
  0
LINE
  5
5DA
100
AcDbEntity
  8
ASSI
100
AcDbLine
 62
7
  6
CONTINUOUS
 10
12.2857247734
 20
-9.0804553672
 11
12.2992178511
 21
-1.7256812722
  0
LINE
  5
5DB
100
AcDbEntity
  8
RACCORDO
100
AcDbLine
 62
7
  6
CONTINUOUS
 10
9.831944803
 20
-6.8544458838
 11
9.8789828514
 21
-6.8074078354
  0
LINE
  5
5DC
100
AcDbEntity
  8
ASSI
100
AcDbLine
 62
7
  6
CONTINUOUS
 10
9.831944803
 20
-6.8544458838
 11
9.8789828514
 21
-6.8074078354
  0
LINE
  5
5DD
100
AcDbEntity
  8
RACCORDO
100
AcDbLine
 62
7
  6
CONTINUOUS
 10
11.1277431124
 20
-6.8493003536
 11
11.1747807602
 21
-6.8022627058
  0
LINE
  5
5DE
100
AcDbEntity
  8
ASSI
100
AcDbLine
 62
7
  6
CONTINUOUS
 10
11.1277431124
 20
-6.8493003536
 11
11.1747807602
 21
-6.8022627058
  0
LINE
  5
5DF
100
AcDbEntity
  8
RACCORDO
100
AcDbLine
 62
7
  6
CONTINUOUS
 10
11.1992178511
 20
7.9034799436
 11
11.1973809548
 21
7.90531684
  0
LINE
  5
5E0
100
AcDbEntity
  8
ASSI
100
AcDbLine
 62
7
  6
CONTINUOUS
 10
11.1992178511
 20
7.9034799436
 11
11.1973809548
 21
7.90531684
  0
ARC
  5
5E1
100
AcDbEntity
  8
RACCORDO
100
AcDbCircle
 62
253
  6
CONTINUOUS
 10
-5.4957003641
 20
-6.6320910507
 40
0.3000638606
100
AcDbArc
 50
0.0208199654
 51
89.9791799927
  0
ARC
  5
5E2
100
AcDbEntity
  8
RACCORDO
100
AcDbCircle
 62
253
  6
CONTINUOUS
 10
-5.7058639336
 20
-6.6320910507
 40
0.3000638606
100
AcDbArc
 50
90.0208200089
 51
179.979180033
  0
ARC
  5
5E3
100
AcDbEntity
  8
ASSI
100
AcDbCircle
 62
253
  6
CONTINUOUS
 10
-5.4957003641
 20
-6.6320910507
 40
0.3000638606
100
AcDbArc
 50
0.0208199654
 51
89.9791799927
  0
ARC
  5
5E4
100
AcDbEntity
  8
ASSI
100
AcDbCircle
 62
253
  6
CONTINUOUS
 10
-5.7058639336
 20
-6.6320910507
 40
0.3000638606
100
AcDbArc
 50
90.0208200089
 51
179.979180033
  0
ARC
  5
5E5
100
AcDbEntity
  8
RACCORDO
100
AcDbCircle
 62
7
  6
CONTINUOUS
 10
-5.4656959088
 20
-6.6018743639
 40
0.299799876
100
AcDbArc
 50
359.9317072534
 51
89.9903350117
  0
ARC
  5
5E6
100
AcDbEntity
  8
RACCORDO
100
AcDbCircle
 62
7
  6
CONTINUOUS
 10
-5.7358683892
 20
-6.6018743631
 40
0.2997998759
100
AcDbArc
 50
90.009664951
 51
180.0682928951
  0
ARC
  5
5E7
100
AcDbEntity
  8
ASSI
100
AcDbCircle
 62
7
  6
CONTINUOUS
 10
-5.4656959088
 20
-6.6018743639
 40
0.299799876
100
AcDbArc
 50
359.9317072534
 51
89.9903350117
  0
ARC
  5
5E8
100
AcDbEntity
  8
ASSI
100
AcDbCircle
 62
7
  6
CONTINUOUS
 10
-5.7358683892
 20
-6.6018743631
 40
0.2997998759
100
AcDbArc
 50
90.009664951
 51
180.0682928951
  0
ARC
  5
5E9
100
AcDbEntity
  8
0
100
AcDbCircle
 62
7
  6
CONTINUOUS
 10
-0.9573242871
 20
-0.8959731154
 40
0.2228893261
100
AcDbArc
 50
140.7847405624
 51
146.0215768876
  0
ARC
  5
5EA
100
AcDbEntity
  8
ASSI
100
AcDbCircle
 62
7
  6
CONTINUOUS
 10
-0.9573242871
 20
-0.8959731154
 40
0.2228893261
100
AcDbArc
 50
140.7847405624
 51
146.0215768876
  0
ARC
  5
5EB
100
AcDbEntity
  8
ASSI
100
AcDbCircle
 62
7
  6
CONTINUOUS
 10
-0.9722257067
 20
-0.8859162902
 40
0.2049117874
100
AcDbArc
 50
146.0247890675
 51
151.860011865
  0
ARC
  5
5EC
100
AcDbEntity
  8
ASSI
100
AcDbCircle
 62
7
  6
CONTINUOUS
 10
-0.9827086542
 20
-0.8802767251
 40
0.1930081747
100
AcDbArc
 50
151.8685943696
 51
158.2386669593
  0
ARC
  5
5ED
100
AcDbEntity
  8
RACCORDO
100
AcDbCircle
 62
253
  6
CONTINUOUS
 10
-46.9108883342
 20
4.978642258
 40
53.9723683883
100
AcDbArc
 50
359.9756666866
 51
0.3509927801
  0
ARC
  5
5EE
100
AcDbEntity
  8
RACCORDO
100
AcDbCircle
 62
253
  6
CONTINUOUS
 10
-61.2108883339
 20
4.9786422565
 40
53.9723683881
100
AcDbArc
 50
359.9756666882
 51
0.3509927817
  0
ARC
  5
5EF
100
AcDbEntity
  8
ASSI
100
AcDbCircle
 62
253
  6
CONTINUOUS
 10
-46.9108883342
 20
4.978642258
 40
53.9723683883
100
AcDbArc
 50
359.9756666866
 51
0.3509927801
  0
ARC
  5
5F0
100
AcDbEntity
  8
ASSI
100
AcDbCircle
 62
253
  6
CONTINUOUS
 10
-61.2108883339
 20
4.9786422565
 40
53.9723683881
100
AcDbArc
 50
359.9756666882
 51
0.3509927817
  0
ARC
  5
5F1
100
AcDbEntity
  8
RACCORDO
100
AcDbCircle
 62
253
  6
CONTINUOUS
 10
-7.0597253229
 20
3.3717703384
 40
0.3000638408
100
AcDbArc
 50
270.0208162411
 51
359.9791837589
  0
ARC
  5
5F2
100
AcDbEntity
  8
ASSI
100
AcDbCircle
 62
253
  6
CONTINUOUS
 10
-7.0597253229
 20
3.3717703384
 40
0.3000638408
100
AcDbArc
 50
270.0208162411
 51
359.9791837589
  0
ARC
  5
5F3
100
AcDbEntity
  8
RACCORDO
100
AcDbCircle
 62
253
  6
CONTINUOUS
 10
-7.2418390085
 20
3.3717703047
 40
0.3000638385
100
AcDbArc
 50
180.0208097933
 51
269.9791901905
  0
ARC
  5
5F4
100
AcDbEntity
  8
ASSI
100
AcDbCircle
 62
253
  6
CONTINUOUS
 10
-7.2418390085
 20
3.3717703047
 40
0.3000638385
100
AcDbArc
 50
180.0208097933
 51
269.9791901905
  0
ARC
  5
5F5
100
AcDbEntity
  8
RACCORDO
100
AcDbCircle
 62
7
  6
CONTINUOUS
 10
-7.028821667
 20
3.340949763
 40
0.299988256
100
AcDbArc
 50
269.9912782391
 51
359.9782893814
  0
ARC
  5
5F6
100
AcDbEntity
  8
RACCORDO
100
AcDbCircle
 62
7
  6
CONTINUOUS
 10
-7.2727426268
 20
3.3409497591
 40
0.299988256
100
AcDbArc
 50
180.0217098738
 51
270.0087210175
  0
ARC
  5
5F7
100
AcDbEntity
  8
ASSI
100
AcDbCircle
 62
7
  6
CONTINUOUS
 10
-7.028821667
 20
3.340949763
 40
0.299988256
100
AcDbArc
 50
269.9912782391
 51
359.9782893814
  0
ARC
  5
5F8
100
AcDbEntity
  8
ASSI
100
AcDbCircle
 62
7
  6
CONTINUOUS
 10
-7.2727426268
 20
3.3409497591
 40
0.299988256
100
AcDbArc
 50
180.0217098738
 51
270.0087210175
  0
ARC
  5
5F9
100
AcDbEntity
  8
RACCORDO
100
AcDbCircle
 62
253
  6
CONTINUOUS
 10
5.7042996359
 20
-6.6320910507
 40
0.3000638606
100
AcDbArc
 50
0.0208199654
 51
89.9791799927
  0
ARC
  5
5FA
100
AcDbEntity
  8
RACCORDO
100
AcDbCircle
 62
253
  6
CONTINUOUS
 10
5.4941360664
 20
-6.6320910507
 40
0.3000638606
100
AcDbArc
 50
90.0208200089
 51
179.979180033
  0
ARC
  5
5FB
100
AcDbEntity
  8
ASSI
100
AcDbCircle
 62
253
  6
CONTINUOUS
 10
5.7042996359
 20
-6.6320910507
 40
0.3000638606
100
AcDbArc
 50
0.0208199654
 51
89.9791799927
  0
ARC
  5
5FC
100
AcDbEntity
  8
ASSI
100
AcDbCircle
 62
253
  6
CONTINUOUS
 10
5.4941360664
 20
-6.6320910507
 40
0.3000638606
100
AcDbArc
 50
90.0208200089
 51
179.979180033
  0
ARC
  5
5FD
100
AcDbEntity
  8
RACCORDO
100
AcDbCircle
 62
7
  6
CONTINUOUS
 10
5.7343040912
 20
-6.6018743639
 40
0.2997998761
100
AcDbArc
 50
359.931707257
 51
89.9903350081
  0
ARC
  5
5FE
100
AcDbEntity
  8
RACCORDO
100
AcDbCircle
 62
7
  6
CONTINUOUS
 10
5.4641316108
 20
-6.6018743631
 40
0.2997998758
100
AcDbArc
 50
90.0096649434
 51
180.0682929026
  0
ARC
  5
5FF
100
AcDbEntity
  8
ASSI
100
AcDbCircle
 62
7
  6
CONTINUOUS
 10
5.7343040912
 20
-6.6018743639
 40
0.2997998761
100
AcDbArc
 50
359.931707257
 51
89.9903350081
  0
ARC
  5
600
100
AcDbEntity
  8
ASSI
100
AcDbCircle
 62
7
  6
CONTINUOUS
 10
5.4641316108
 20
-6.6018743631
 40
0.2997998758
100
AcDbArc
 50
90.0096649434
 51
180.0682929026
  0
ARC
  5
601
100
AcDbEntity
  8
RACCORDO
100
AcDbCircle
 62
253
  6
CONTINUOUS
 10
61.2093226985
 20
4.9786422695
 40
53.9723670504
100
AcDbArc
 50
179.6490072234
 51
180.0243333263
  0
ARC
  5
602
100
AcDbEntity
  8
RACCORDO
100
AcDbCircle
 62
253
  6
CONTINUOUS
 10
46.9093226984
 20
4.9786422695
 40
53.9723670503
100
AcDbArc
 50
179.6490072234
 51
180.0243333263
  0
ARC
  5
603
100
AcDbEntity
  8
ASSI
100
AcDbCircle
 62
253
  6
CONTINUOUS
 10
61.2093226985
 20
4.9786422695
 40
53.9723670504
100
AcDbArc
 50
179.6490072234
 51
180.0243333263
  0
ARC
  5
604
100
AcDbEntity
  8
ASSI
100
AcDbCircle
 62
253
  6
CONTINUOUS
 10
46.9093226984
 20
4.9786422695
 40
53.9723670503
100
AcDbArc
 50
179.6490072234
 51
180.0243333263
  0
CIRCLE
  5
605
100
AcDbEntity
  8
0
100
AcDbCircle
 62
7
  6
CONTINUOUS
 10
-0.0007821489
 20
4.7628271644
 40
1.1
  0
CIRCLE
  5
606
100
AcDbEntity
  8
0
100
AcDbCircle
 62
7
  6
CONTINUOUS
 10
-0.0007821489
 20
4.7628271644
 40
0.9
  0
ARC
  5
607
100
AcDbEntity
  8
RACCORDO
100
AcDbCircle
 62
253
  6
CONTINUOUS
 10
7.2402746771
 20
3.3717703384
 40
0.3000638408
100
AcDbArc
 50
270.0208162411
 51
359.9791837589
  0
ARC
  5
608
100
AcDbEntity
  8
ASSI
100
AcDbCircle
 62
253
  6
CONTINUOUS
 10
7.2402746771
 20
3.3717703384
 40
0.3000638408
100
AcDbArc
 50
270.0208162411
 51
359.9791837589
  0
ARC
  5
609
100
AcDbEntity
  8
RACCORDO
100
AcDbCircle
 62
253
  6
CONTINUOUS
 10
7.0581609915
 20
3.3717703047
 40
0.3000638385
100
AcDbArc
 50
180.0208097933
 51
269.9791901905
  0
ARC
  5
60A
100
AcDbEntity
  8
ASSI
100
AcDbCircle
 62
253
  6
CONTINUOUS
 10
7.0581609915
 20
3.3717703047
 40
0.3000638385
100
AcDbArc
 50
180.0208097933
 51
269.9791901905
  0
ARC
  5
60B
100
AcDbEntity
  8
RACCORDO
100
AcDbCircle
 62
7
  6
CONTINUOUS
 10
7.0272573732
 20
3.3409497591
 40
0.299988256
100
AcDbArc
 50
180.0217098728
 51
270.0087210186
  0
ARC
  5
60C
100
AcDbEntity
  8
RACCORDO
100
AcDbCircle
 62
7
  6
CONTINUOUS
 10
7.271178333
 20
3.340949763
 40
0.299988256
100
AcDbArc
 50
269.9912782389
 51
359.9782893815
  0
ARC
  5
60D
100
AcDbEntity
  8
ASSI
100
AcDbCircle
 62
7
  6
CONTINUOUS
 10
7.0272573732
 20
3.3409497591
 40
0.299988256
100
AcDbArc
 50
180.0217098728
 51
270.0087210186
  0
ARC
  5
60E
100
AcDbEntity
  8
ASSI
100
AcDbCircle
 62
7
  6
CONTINUOUS
 10
7.271178333
 20
3.340949763
 40
0.299988256
100
AcDbArc
 50
269.9912782389
 51
359.9782893815
  0
SPLINE
  5
60F
100
AcDbEntity
  8
0
100
AcDbSpline
 62
7
  6
CONTINUOUS
 70
0
 71
3
 72
9
 73
5
 74
3
 42
0.0000001
 43
0.0000001
 44
0.0000000001
 12
-0.0094537596
 22
0.4232572779
 32
0.0
 13
-0.4233861002
 23
-0.0063259668
 33
0.0
 40
0.0
 40
0.0
 40
0.0
 40
0.0
 40
0.479537544
 40
1.0
 40
1.0
 40
1.0
 40
1.0
 10
-1.3121103174
 20
-1.1765506912
 30
0.0
 10
-1.3136214616
 20
-1.1088947727
 30
0.0
 10
-1.3422432331
 20
-0.9517526963
 30
0.0
 10
-1.5026761797
 20
-0.8998207566
 30
0.0
 10
-1.5761283696
 20
-0.9009182326
 30
0.0
 11
-1.3121103174
 21
-1.1765506912
 31
0.0
 11
-1.371382694
 21
-0.9823774511
 31
0.0
 11
-1.5761283696
 21
-0.9009182326
 31
0.0
  0
SPLINE
  5
610
100
AcDbEntity
  8
0
100
AcDbSpline
 62
7
  6
CONTINUOUS
 70
0
 71
3
 72
9
 73
5
 74
3
 42
0.0000001
 43
0.0000001
 44
0.0000000001
 12
-0.3133621804
 22
-0.004682097
 32
0.0
 13
-0.0361338581
 23
-0.3113313547
 33
0.0
 40
0.0
 40
0.0
 40
0.0
 40
0.0
 40
0.4988583522
 40
1.0
 40
1.0
 40
1.0
 40
1.0
 10
-1.5761283698
 20
-0.9009182179
 30
0.0
 10
-1.6282361501
 20
-0.9016967857
 30
0.0
 10
-1.7369101073
 20
-0.9441213328
 30
0.0
 10
-1.7827272511
 20
-1.0493575781
 30
0.0
 10
-1.7887633115
 20
-1.1013646141
 30
0.0
 11
-1.5761283698
 21
-0.9009182179
 31
0.0
 11
-1.7210194476
 21
-0.9596557626
 31
0.0
 11
-1.7887633115
 21
-1.1013646141
 31
0.0
  0
SPLINE
  5
611
100
AcDbEntity
  8
0
100
AcDbSpline
 62
7
  6
CONTINUOUS
 70
0
 71
3
 72
9
 73
5
 74
3
 42
0.0000001
 43
0.0000001
 44
0.0000000001
 12
-0.0321345863
 22
-0.2768734098
 32
0.0
 13
0.0468836161
 23
-0.2747605688
 33
0.0
 40
0.0
 40
0.0
 40
0.0
 40
0.0
 40
0.7295958321
 40
1.0
 40
1.0
 40
1.0
 40
1.0
 10
-1.7887633114
 20
-1.1013646141
 30
0.0
 10
-1.7965783981
 20
-1.1686998427
 30
0.0
 10
-1.796879646
 20
-1.2626925313
 30
0.0
 10
-1.7829816416
 20
-1.3545659363
 30
0.0
 10
-1.7787557998
 20
-1.379331404
 30
0.0
 11
-1.7887633114
 21
-1.1013646141
 31
0.0
 11
-1.7894595714
 21
-1.3047250744
 31
0.0
 11
-1.7787557998
 21
-1.379331404
 31
0.0
  0
SPLINE
  5
612
100
AcDbEntity
  8
0
100
AcDbSpline
 62
7
  6
CONTINUOUS
 70
0
 71
3
 72
9
 73
5
 74
3
 42
0.0000001
 43
0.0000001
 44
0.0000000001
 12
-0.128341011
 22
0.8723735981
 32
0.0
 13
0.2997650463
 23
0.8292493193
 33
0.0
 40
0.0
 40
0.0
 40
0.0
 40
0.0
 40
0.7041528059
 40
1.0
 40
1.0
 40
1.0
 40
1.0
 10
-2.048484231
 20
-1.7209661717
 30
0.0
 10
-2.0786081254
 20
-1.5162047327
 30
0.0
 10
-2.1082603268
 20
-1.2208104069
 30
0.0
 10
-2.0601040096
 20
-0.9269577073
 30
0.0
 10
-2.0305424603
 20
-0.8451806792
 30
0.0
 11
-2.048484231
 21
-1.7209661717
 31
0.0
 11
-2.0817875979
 21
-1.1009636323
 31
0.0
 11
-2.0305424603
 21
-0.8451806792
 31
0.0
  0
SPLINE
  5
613
100
AcDbEntity
  8
0
100
AcDbSpline
 62
7
  6
CONTINUOUS
 70
0
 71
3
 72
20
 73
16
 74
14
 42
0.0000001
 43
0.0000001
 44
0.0000000001
 12
0.3602221359
 22
0.9969834579
 32
0.0
 13
0.1356584285
 23
-1.0513528212
 33
0.0
 40
0.0
 40
0.0
 40
0.0
 40
0.0
 40
0.079756987
 40
0.1893481532
 40
0.2529748389
 40
0.3223669702
 40
0.3985017405
 40
0.4831988921
 40
0.5372476303
 40
0.5875584989
 40
0.6787382851
 40
0.7596505358
 40
0.8314106377
 40
0.9440765302
 40
1.0
 40
1.0
 40
1.0
 40
1.0
 10
-2.0305424983
 20
-0.8451806639
 30
0.0
 10
-2.0209657542
 20
-0.8186751983
 30
0.0
 10
-1.9883061325
 20
-0.7594346458
 30
0.0
 10
-1.9286104985
 20
-0.6916690062
 30
0.0
 10
-1.8598489059
 20
-0.6399621882
 30
0.0
 10
-1.7942510692
 20
-0.6051969245
 30
0.0
 10
-1.7165965497
 20
-0.5796226654
 30
0.0
 10
-1.6410671293
 20
-0.568728164
 30
0.0
 10
-1.574180791
 20
-0.5675392919
 30
0.0
 10
-1.5052162441
 20
-0.5729267517
 30
0.0
 10
-1.4279615377
 20
-0.5903499242
 30
0.0
 10
-1.3488705059
 20
-0.6252507647
 30
0.0
 10
-1.2696162164
 20
-0.6773063764
 30
0.0
 10
-1.2138043471
 20
-0.7393187728
 30
0.0
 10
-1.1745358777
 20
-0.7891222203
 30
0.0
 10
-1.1720070476
 20
-0.8087206529
 30
0.0
 11
-2.0305424983
 21
-0.8451806639
 31
0.0
 11
-1.9913191078
 21
-0.7702802086
 31
0.0
 11
-1.9144740705
 21
-0.6831522529
 31
0.0
 11
-1.8605635383
 21
-0.642618597
 31
0.0
 11
-1.7955827558
 21
-0.6081419999
 31
0.0
 11
-1.7189730417
 21
-0.5827500947
 31
0.0
 11
-1.6301757151
 21
-0.5694705146
 31
0.0
 11
-1.5728891895
 21
-0.5684630526
 31
0.0
 11
-1.5197255136
 21
-0.5727093212
 31
0.0
 11
-1.4255072378
 21
-0.594283921
 31
0.0
 11
-1.3470019418
 21
-0.6288360545
 31
0.0
 11
-1.2836906795
 21
-0.6710074626
 31
0.0
 11
-1.2005744721
 21
-0.7567750648
 31
0.0
 11
-1.1720070476
 21
-0.8087206529
 31
0.0
  0
SPLINE
  5
614
100
AcDbEntity
  8
0
100
AcDbSpline
 62
7
  6
CONTINUOUS
 70
0
 71
3
 72
8
 73
4
 74
2
 42
0.0000001
 43
0.0000001
 44
0.0000000001
 12
0.0158042388
 22
0.0396344546
 32
0.0
 13
0.0235835294
 23
0.0350454229
 33
0.0
 40
0.0
 40
0.0
 40
0.0
 40
0.0
 40
1.0
 40
1.0
 40
1.0
 40
1.0
 10
-1.1619623405
 20
-0.8087206529
 30
0.0
 10
-1.1566942609
 20
-0.795509168
 30
0.0
 10
-1.1500160135
 20
-0.7830863897
 30
0.0
 10
-1.142154837
 20
-0.7714045821
 30
0.0
 11
-1.1619623405
 21
-0.8087206529
 31
0.0
 11
-1.142154837
 21
-0.7714045821
 31
0.0
  0
SPLINE
  5
615
100
AcDbEntity
  8
0
100
AcDbSpline
 62
7
  6
CONTINUOUS
 70
0
 71
3
 72
9
 73
5
 74
3
 42
0.0000001
 43
0.0000001
 44
0.0000000001
 12
0.2092440046
 22
0.2567965258
 32
0.0
 13
0.3209543859
 23
0.0874412864
 33
0.0
 40
0.0
 40
0.0
 40
0.0
 40
0.0
 40
0.7111552999
 40
1.0
 40
1.0
 40
1.0
 40
1.0
 10
-1.1300136176
 20
-0.7550545332
 30
0.0
 10
-1.0804119566
 20
-0.6941804631
 30
0.0
 10
-0.9642608008
 20
-0.6396149554
 30
0.0
 10
-0.8594277723
 20
-0.6126026528
 30
0.0
 10
-0.8285257811
 20
-0.6041836687
 30
0.0
 11
-1.1300136176
 21
-0.7550545332
 31
0.0
 11
-0.9209329873
 21
-0.6305061723
 31
0.0
 11
-0.8285257811
 21
-0.6041836687
 31
0.0
  0
SPLINE
  5
616
100
AcDbEntity
  8
0
100
AcDbSpline
 62
7
  6
CONTINUOUS
 70
0
 71
3
 72
9
 73
5
 74
3
 42
0.0000001
 43
0.0000001
 44
0.0000000001
 12
0.4590342986
 22
0.125059974
 32
0.0
 13
0.4591324757
 23
0.1246990799
 33
0.0
 40
0.0
 40
0.0
 40
0.0
 40
0.0
 40
0.8019701206
 40
1.0
 40
1.0
 40
1.0
 40
1.0
 10
-0.8285257812
 20
-0.6041836685
 30
0.0
 10
-0.7058151839
 20
-0.5707522143
 30
0.0
 10
-0.5521769399
 20
-0.5314093857
 30
0.0
 10
-0.3987887784
 20
-0.4911236584
 30
0.0
 10
-0.3684814622
 20
-0.4828922772
 30
0.0
 11
-0.8285257812
 21
-0.6041836685
 31
0.0
 11
-0.4595494638
 21
-0.5070422373
 31
0.0
 11
-0.3684814622
 21
-0.4828922772
 31
0.0
  0
SPLINE
  5
617
100
AcDbEntity
  8
0
100
AcDbSpline
 62
7
  6
CONTINUOUS
 70
0
 71
3
 72
9
 73
5
 74
3
 42
0.0000001
 43
0.0000001
 44
0.0000000001
 12
-0.5174692086
 22
-0.1487744753
 32
0.0
 13
-0.5040219036
 23
-0.1893972716
 33
0.0
 40
0.0
 40
0.0
 40
0.0
 40
0.0
 40
0.4412847493
 40
1.0
 40
1.0
 40
1.0
 40
1.0
 10
-0.3684814622
 20
-0.8241956205
 30
0.0
 10
-0.4445985522
 20
-0.8460795895
 30
0.0
 10
-0.6163811886
 20
-0.8977515097
 30
0.0
 10
-0.7901744644
 20
-0.9441204161
 30
0.0
 10
-0.8840427058
 20
-0.9793934642
 30
0.0
 11
-0.3684814622
 21
-0.8241956205
 31
0.0
 11
-0.5966002038
 21
-0.8906509825
 31
0.0
 11
-0.8840427058
 21
-0.9793934642
 31
0.0
  0
SPLINE
  5
618
100
AcDbEntity
  8
0
100
AcDbSpline
 62
7
  6
CONTINUOUS
 70
0
 71
3
 72
9
 73
5
 74
3
 42
0.0000001
 43
0.0000001
 44
0.0000000001
 12
-0.243894777
 22
-0.0916489686
 32
0.0
 13
-0.0
 23
-0.2605161169
 33
0.0
 40
0.0
 40
0.0
 40
0.0
 40
0.0
 40
0.6439294634
 40
1.0
 40
1.0
 40
1.0
 40
1.0
 10
-0.8840427129
 20
-0.9793934455
 30
0.0
 10
-0.9363930571
 20
-0.9990652692
 30
0.0
 10
-1.0149986199
 20
-1.057483301
 30
0.0
 10
-1.0337138647
 20
-1.1463948121
 30
0.0
 10
-1.0337138647
 20
-1.1773155166
 30
0.0
 11
-0.8840427129
 21
-0.9793934455
 31
0.0
 11
-1.0127927028
 21
-1.0869434264
 31
0.0
 11
-1.0337138647
 21
-1.1773155166
 31
0.0
  0
SPLINE
  5
619
100
AcDbEntity
  8
RACCORDO
100
AcDbSpline
 62
7
  6
CONTINUOUS
 70
0
 71
3
 72
10
 73
6
 74
4
 42
0.0000001
 43
0.0000001
 44
0.0000000001
 12
-0.1883407282
 22
0.1821744696
 32
0.0
 13
-0.1853866385
 23
0.1851798087
 33
0.0
 40
0.0
 40
0.0
 40
0.0
 40
0.0
 40
0.2861514979
 40
0.6199988295
 40
1.0
 40
1.0
 40
1.0
 40
1.0
 10
11.0148129939
 20
-7.5607181169
 30
0.0
 10
10.9968483334
 20
-7.5433416178
 30
0.0
 10
10.9580647344
 20
-7.5055474302
 30
0.0
 10
10.8958348169
 20
-7.444258355
 30
0.0
 10
10.8516215963
 20
-7.4002954008
 30
0.0
 10
10.8281392164
 20
-7.3768392194
 30
0.0
 11
11.0148129939
 21
-7.5607181169
 31
0.0
 11
10.9610911566
 21
-7.5084112347
 31
0.0
 11
10.8987527906
 21
-7.447040748
 31
0.0
 11
10.8281392164
 21
-7.3768392194
 31
0.0
  0
SPLINE
  5
61A
100
AcDbEntity
  8
RACCORDO
100
AcDbSpline
 62
7
  6
CONTINUOUS
 70
0
 71
3
 72
10
 73
6
 74
4
 42
0.0000001
 43
0.0000001
 44
0.0000000001
 12
0.1932351421
 22
0.1319011105
 32
0.0
 13
0.0048001619
 23
0.233911696
 33
0.0
 40
0.0
 40
0.0
 40
0.0
 40
0.0
 40
0.3395046921
 40
0.6724952268
 40
1.0
 40
1.0
 40
1.0
 40
1.0
 10
11.0148129939
 20
-7.5607181169
 30
0.0
 10
11.036681073
 20
-7.5457911016
 30
0.0
 10
11.076263763
 20
-7.5101444834
 30
0.0
 10
11.1170619501
 20
-7.4422539617
 30
0.0
 10
11.1275694997
 20
-7.3905224867
 30
0.0
 10
11.128093525
 20
-7.3649867544
 30
0.0
 11
11.0148129939
 21
-7.5607181169
 31
0.0
 11
11.0735515449
 21
-7.5072481191
 31
0.0
 11
11.1131073412
 21
-7.4401302727
 31
0.0
 11
11.128093525
 21
-7.3649867544
 31
0.0
  0
SPLINE
  5
61B
100
AcDbEntity
  8
RACCORDO
100
AcDbSpline
 62
7
  6
CONTINUOUS
 70
0
 71
3
 72
10
 73
6
 74
4
 42
0.0000001
 43
0.0000001
 44
0.0000000001
 12
0.2111534819
 22
0.0378729015
 32
0.0
 13
0.1518156339
 23
0.1515657049
 33
0.0
 40
0.0
 40
0.0
 40
0.0
 40
0.0
 40
0.3420454831
 40
0.6747450136
 40
1.0
 40
1.0
 40
1.0
 40
1.0
 10
10.8281392151
 20
-7.6604290666
 30
0.0
 10
10.8522139133
 20
-7.6561109817
 30
0.0
 10
10.8988893839
 20
-7.6420981499
 30
0.0
 10
10.9618732663
 20
-7.6073616011
 30
0.0
 10
10.9983533966
 20
-7.5771506174
 30
0.0
 10
11.0148129939
 20
-7.5607181169
 30
0.0
 11
10.8281392151
 21
-7.6604290666
 31
0.0
 11
10.8984624063
 21
-7.6394819579
 31
0.0
 11
10.9610738313
 21
-7.6052221744
 31
0.0
 11
11.0148129939
 21
-7.5607181169
 31
0.0
  0
SPLINE
  5
61C
100
AcDbEntity
  8
RACCORDO
100
AcDbSpline
 62
7
  6
CONTINUOUS
 70
0
 71
3
 72
11
 73
7
 74
5
 42
0.0000001
 43
0.0000001
 44
0.0000000001
 12
-0.1934720276
 22
0.1323336071
 32
0.0
 13
-0.004777495
 23
0.2343518393
 33
0.0
 40
0.0
 40
0.0
 40
0.0
 40
0.0
 40
0.2553623096
 40
0.5075354551
 40
0.7552605149
 40
1.0
 40
1.0
 40
1.0
 40
1.0
 10
-11.0163703547
 20
-7.5607247587
 30
0.0
 10
-11.0328388426
 20
-7.5494604202
 30
0.0
 10
-11.0634218028
 20
-7.5236945956
 30
0.0
 10
-11.0996117468
 20
-7.4764491108
 30
0.0
 10
-11.1232571244
 20
-7.4226496475
 30
0.0
 10
-11.1292680755
 20
-7.3841051372
 30
0.0
 10
-11.1296578227
 20
-7.3649867544
 30
0.0
 11
-11.0163703547
 21
-7.5607247587
 31
0.0
 11
-11.06202841
 21
-7.5220180443
 31
0.0
 11
-11.0977688205
 21
-7.4749377052
 31
0.0
 11
-11.1209159417
 21
-7.4216838416
 31
0.0
 11
-11.1296578227
 21
-7.3649867544
 31
0.0
  0
SPLINE
  5
61D
100
AcDbEntity
  8
RACCORDO
100
AcDbSpline
 62
7
  6
CONTINUOUS
 70
0
 71
3
 72
10
 73
6
 74
4
 42
0.0000001
 43
0.0000001
 44
0.0000000001
 12
0.1883472662
 22
0.1821697226
 32
0.0
 13
0.1853876284
 23
0.1851807974
 33
0.0
 40
0.0
 40
0.0
 40
0.0
 40
0.0
 40
0.2877120613
 40
0.6240039224
 40
1.0
 40
1.0
 40
1.0
 40
1.0
 10
-11.0163792101
 20
-7.5607181525
 30
0.0
 10
-10.99831595
 20
-7.5432473437
 30
0.0
 10
-10.9592817368
 20
-7.5052086652
 30
0.0
 10
-10.8970543774
 20
-7.4439163214
 30
0.0
 10
-10.8529385212
 20
-7.4000483039
 30
0.0
 10
-10.8297035142
 20
-7.3768392194
 30
0.0
 11
-11.0163792101
 21
-7.5607181525
 31
0.0
 11
-10.9623640076
 21
-7.5081258278
 31
0.0
 11
-10.8995714173
 21
-7.4463030266
 31
0.0
 11
-10.8297035142
 21
-7.3768392194
 31
0.0
  0
SPLINE
  5
61E
100
AcDbEntity
  8
RACCORDO
100
AcDbSpline
 62
7
  6
CONTINUOUS
 70
0
 71
3
 72
10
 73
6
 74
4
 42
0.0000001
 43
0.0000001
 44
0.0000000001
 12
-0.2113510983
 22
0.0367634485
 32
0.0
 13
-0.1528975824
 23
0.1504764673
 33
0.0
 40
0.0
 40
0.0
 40
0.0
 40
0.0
 40
0.3410974996
 40
0.6751553688
 40
1.0
 40
1.0
 40
1.0
 40
1.0
 10
-10.8297035128
 20
-7.6604290666
 30
0.0
 10
-10.8537339565
 20
-7.6562490932
 30
0.0
 10
-10.900390706
 20
-7.6420433511
 30
0.0
 10
-10.9634698293
 20
-7.6074593018
 30
0.0
 10
-10.9998232238
 20
-7.5770119767
 30
0.0
 10
-11.0163792101
 20
-7.5607181525
 30
0.0
 11
-10.8297035128
 21
-7.6604290666
 31
0.0
 11
-10.8998387246
 21
-7.6395613476
 31
0.0
 11
-10.9627119161
 21
-7.6051717918
 31
0.0
 11
-11.0163792101
 21
-7.5607181525
 31
0.0
  0
SPLINE
  5
61F
100
AcDbEntity
  8
RACCORDO
100
AcDbSpline
 62
253
  6
CONTINUOUS
 70
0
 71
3
 72
12
 73
8
 74
6
 42
0.0000001
 43
0.0000001
 44
0.0000000001
 12
-0.0070145166
 22
0.4019838217
 32
0.0
 13
-0.4020297068
 23
0.0035087299
 33
0.0
 40
0.0
 40
0.0
 40
0.0
 40
0.0
 40
0.1664007688
 40
0.3475548035
 40
0.549388854
 40
0.7695487352
 40
1.0
 40
1.0
 40
1.0
 40
1.0
 10
-6.7497269954
 20
5.8042485206
 30
0.0
 10
-6.750116069
 20
5.8265453263
 30
0.0
 10
-6.7618964016
 20
5.8733705127
 30
0.0
 10
-6.8075417525
 20
5.9330784083
 30
0.0
 10
-6.875134023
 20
5.9793872916
 30
0.0
 10
-6.9582467594
 20
6.0090139802
 30
0.0
 10
-7.0187985524
 20
6.0161110246
 30
0.0
 10
-7.0496813039
 20
6.016380555
 30
0.0
 11
-6.7497269954
 21
5.8042485206
 31
0.0
 11
-6.7653151597
 21
5.86930772
 31
0.0
 11
-6.8083069293
 21
5.9280973381
 31
0.0
 11
-6.8745593024
 21
5.9749519765
 31
0.0
 11
-6.9576877149
 21
6.0053563789
 31
0.0
 11
-7.0496813039
 21
6.016380555
 31
0.0
  0
SPLINE
  5
620
100
AcDbEntity
  8
RACCORDO
100
AcDbSpline
 62
253
  6
CONTINUOUS
 70
0
 71
3
 72
12
 73
8
 74
6
 42
0.0000001
 43
0.0000001
 44
0.0000000001
 12
-0.0070145118
 22
0.401983857
 32
0.0
 13
-0.402029743
 23
0.0035086199
 33
0.0
 40
0.0
 40
0.0
 40
0.0
 40
0.0
 40
0.1663980738
 40
0.3475504099
 40
0.549384185
 40
0.7695456059
 40
1.0
 40
1.0
 40
1.0
 40
1.0
 10
-6.7620695901
 20
5.0971417394
 30
0.0
 10
-6.7624586572
 20
5.1194381859
 30
0.0
 10
-6.7742386388
 20
5.1662627809
 30
0.0
 10
-6.8198831474
 20
5.2259705198
 30
0.0
 10
-6.8874750912
 20
5.2722798187
 30
0.0
 10
-6.9705882905
 20
5.3019070537
 30
0.0
 10
-7.0311407251
 20
5.309004248
 30
0.0
 10
-7.0620238987
 20
5.3092737736
 30
0.0
 11
-6.7620695901
 21
5.0971417394
 31
0.0
 11
-6.7776572747
 21
5.1621999456
 31
0.0
 11
-6.8206482207
 21
5.2209893279
 31
0.0
 11
-6.8869001974
 21
5.2678443474
 31
0.0
 11
-6.9700290672
 21
5.2982493243
 31
0.0
 11
-7.0620238987
 21
5.3092737736
 31
0.0
  0
SPLINE
  5
621
100
AcDbEntity
  8
RACCORDO
100
AcDbSpline
 62
253
  6
CONTINUOUS
 70
0
 71
3
 72
12
 73
8
 74
6
 42
0.0000001
 43
0.0000001
 44
0.0000000001
 12
0.0070145165
 22
0.4019838218
 32
0.0
 13
0.4020297069
 23
0.003508728
 33
0.0
 40
0.0
 40
0.0
 40
0.0
 40
0.0
 40
0.1664007686
 40
0.3475548033
 40
0.549388854
 40
0.7695487354
 40
1.0
 40
1.0
 40
1.0
 40
1.0
 10
-7.5394947076
 20
5.0971417394
 30
0.0
 10
-7.5391056339
 20
5.1194385451
 30
0.0
 10
-7.5273253014
 20
5.1662637315
 30
0.0
 10
-7.4816799504
 20
5.2259716271
 30
0.0
 10
-7.4140876799
 20
5.2722805104
 30
0.0
 10
-7.3309749436
 20
5.3019071993
 30
0.0
 10
-7.2704231505
 20
5.3090042435
 30
0.0
 10
-7.239540399
 20
5.3092737738
 30
0.0
 11
-7.5394947076
 21
5.0971417394
 31
0.0
 11
-7.5239065433
 21
5.1622009387
 31
0.0
 11
-7.4809147737
 21
5.2209905568
 31
0.0
 11
-7.4146624005
 21
5.2678451954
 31
0.0
 11
-7.331533988
 21
5.298249598
 31
0.0
 11
-7.239540399
 21
5.3092737738
 31
0.0
  0
SPLINE
  5
622
100
AcDbEntity
  8
RACCORDO
100
AcDbSpline
 62
253
  6
CONTINUOUS
 70
0
 71
3
 72
12
 73
8
 74
6
 42
0.0000001
 43
0.0000001
 44
0.0000000001
 12
0.0070145164
 22
0.4019837961
 32
0.0
 13
0.4020296812
 23
0.0035087308
 33
0.0
 40
0.0
 40
0.0
 40
0.0
 40
0.0
 40
0.1664062852
 40
0.3475634824
 40
0.549397719
 40
0.769554416
 40
1.0
 40
1.0
 40
1.0
 40
1.0
 10
-7.5518373023
 20
5.8042485206
 30
0.0
 10
-7.5514482158
 20
5.826546064
 30
0.0
 10
-7.5396671906
 20
5.8733724258
 30
0.0
 10
-7.494020217
 20
5.9330806065
 30
0.0
 10
-7.4264273914
 20
5.9793886485
 30
0.0
 10
-7.3433155683
 20
6.0090142866
 30
0.0
 10
-7.282764982
 20
6.0161110302
 30
0.0
 10
-7.2518829938
 20
6.0163805541
 30
0.0
 11
-7.5518373023
 21
5.8042485206
 31
0.0
 11
-7.5362481706
 21
5.8693097644
 31
0.0
 11
-7.4932548232
 21
5.9280997982
 31
0.0
 11
-7.4270017948
 21
5.9749536306
 31
0.0
 11
-7.3438743401
 21
6.0053569084
 31
0.0
 11
-7.2518829938
 21
6.0163805541
 31
0.0
  0
SPLINE
  5
623
100
AcDbEntity
  8
RACCORDO
100
AcDbSpline
 62
253
  6
CONTINUOUS
 70
0
 71
3
 72
12
 73
8
 74
6
 42
0.0000001
 43
0.0000001
 44
0.0000000001
 12
0.0070145165
 22
0.4019838218
 32
0.0
 13
0.4020297069
 23
0.003508728
 33
0.0
 40
0.0
 40
0.0
 40
0.0
 40
0.0
 40
0.1664007686
 40
0.3475548033
 40
0.549388854
 40
0.7695487354
 40
1.0
 40
1.0
 40
1.0
 40
1.0
 10
6.7605052924
 20
5.0971417394
 30
0.0
 10
6.7608943661
 20
5.1194385451
 30
0.0
 10
6.7726746986
 20
5.1662637315
 30
0.0
 10
6.8183200496
 20
5.2259716271
 30
0.0
 10
6.8859123201
 20
5.2722805104
 30
0.0
 10
6.9690250564
 20
5.3019071993
 30
0.0
 10
7.0295768495
 20
5.3090042435
 30
0.0
 10
7.060459601
 20
5.3092737738
 30
0.0
 11
6.7605052924
 21
5.0971417394
 31
0.0
 11
6.7760934567
 21
5.1622009387
 31
0.0
 11
6.8190852263
 21
5.2209905568
 31
0.0
 11
6.8853375995
 21
5.2678451954
 31
0.0
 11
6.968466012
 21
5.298249598
 31
0.0
 11
7.060459601
 21
5.3092737738
 31
0.0
  0
SPLINE
  5
624
100
AcDbEntity
  8
RACCORDO
100
AcDbSpline
 62
253
  6
CONTINUOUS
 70
0
 71
3
 72
12
 73
8
 74
6
 42
0.0000001
 43
0.0000001
 44
0.0000000001
 12
0.0070145164
 22
0.4019837961
 32
0.0
 13
0.4020296812
 23
0.0035087308
 33
0.0
 40
0.0
 40
0.0
 40
0.0
 40
0.0
 40
0.1664062852
 40
0.3475634824
 40
0.549397719
 40
0.769554416
 40
1.0
 40
1.0
 40
1.0
 40
1.0
 10
6.7481626977
 20
5.8042485206
 30
0.0
 10
6.7485517842
 20
5.826546064
 30
0.0
 10
6.7603328094
 20
5.8733724258
 30
0.0
 10
6.805979783
 20
5.9330806065
 30
0.0
 10
6.8735726086
 20
5.9793886485
 30
0.0
 10
6.9566844317
 20
6.0090142866
 30
0.0
 10
7.017235018
 20
6.0161110302
 30
0.0
 10
7.0481170062
 20
6.0163805541
 30
0.0
 11
6.7481626977
 21
5.8042485206
 31
0.0
 11
6.7637518294
 21
5.8693097644
 31
0.0
 11
6.8067451768
 21
5.9280997982
 31
0.0
 11
6.8729982052
 21
5.9749536306
 31
0.0
 11
6.9561256599
 21
6.0053569084
 31
0.0
 11
7.0481170062
 21
6.0163805541
 31
0.0
  0
SPLINE
  5
625
100
AcDbEntity
  8
RACCORDO
100
AcDbSpline
 62
253
  6
CONTINUOUS
 70
0
 71
3
 72
9
 73
5
 74
3
 42
0.0000001
 43
0.0000001
 44
0.0000000001
 12
0.0053518739
 22
-1.6514713674
 32
0.0
 13
0.0076939806
 23
-1.6514621166
 33
0.0
 40
0.0
 40
0.0
 40
0.0
 40
0.0
 40
0.5000101671
 40
1.0
 40
1.0
 40
1.0
 40
1.0
 10
-4.4306809163
 20
5.588717176
 30
0.0
 10
-4.4297889192
 20
5.3134663512
 30
0.0
 10
-4.4278097919
 20
4.7629765106
 30
0.0
 10
-4.4254403151
 20
4.2124882118
 30
0.0
 10
-4.4241580111
 20
3.9372501225
 30
0.0
 11
-4.4306809163
 21
5.588717176
 31
0.0
 11
-4.4277121603
 21
4.7629657024
 31
0.0
 11
-4.4241580111
 21
3.9372501225
 31
0.0
  0
SPLINE
  5
626
100
AcDbEntity
  8
RACCORDO
100
AcDbSpline
 62
253
  6
CONTINUOUS
 70
0
 71
3
 72
12
 73
8
 74
6
 42
0.0000001
 43
0.0000001
 44
0.0000000001
 12
-0.0070145166
 22
0.4019838217
 32
0.0
 13
-0.4020297068
 23
0.0035087299
 33
0.0
 40
0.0
 40
0.0
 40
0.0
 40
0.0
 40
0.1664007688
 40
0.3475548035
 40
0.549388854
 40
0.7695487352
 40
1.0
 40
1.0
 40
1.0
 40
1.0
 10
7.5502730046
 20
5.8042485206
 30
0.0
 10
7.549883931
 20
5.8265453263
 30
0.0
 10
7.5381035984
 20
5.8733705127
 30
0.0
 10
7.4924582475
 20
5.9330784083
 30
0.0
 10
7.424865977
 20
5.9793872916
 30
0.0
 10
7.3417532406
 20
6.0090139802
 30
0.0
 10
7.2812014476
 20
6.0161110246
 30
0.0
 10
7.2503186961
 20
6.016380555
 30
0.0
 11
7.5502730046
 21
5.8042485206
 31
0.0
 11
7.5346848403
 21
5.86930772
 31
0.0
 11
7.4916930707
 21
5.9280973381
 31
0.0
 11
7.4254406976
 21
5.9749519765
 31
0.0
 11
7.3423122851
 21
6.0053563789
 31
0.0
 11
7.2503186961
 21
6.016380555
 31
0.0
  0
SPLINE
  5
627
100
AcDbEntity
  8
RACCORDO
100
AcDbSpline
 62
253
  6
CONTINUOUS
 70
0
 71
3
 72
9
 73
5
 74
3
 42
0.0000001
 43
0.0000001
 44
0.0000000001
 12
0.0076939806
 22
1.6514621166
 32
0.0
 13
0.0053518739
 23
1.6514713674
 33
0.0
 40
0.0
 40
0.0
 40
0.0
 40
0.0
 40
0.4999889708
 40
1.0
 40
1.0
 40
1.0
 40
1.0
 10
4.4225937134
 20
3.9372501225
 30
0.0
 10
4.4238760152
 20
4.2124877372
 30
0.0
 10
4.4262454923
 20
4.762976036
 30
0.0
 10
4.4282246199
 20
5.3134658766
 30
0.0
 10
4.4291166186
 20
5.588717176
 30
0.0
 11
4.4225937134
 21
3.9372501225
 31
0.0
 11
4.426147857
 21
4.7629642786
 31
0.0
 11
4.4291166186
 21
5.588717176
 31
0.0
  0
SPLINE
  5
628
100
AcDbEntity
  8
RACCORDO
100
AcDbSpline
 62
253
  6
CONTINUOUS
 70
0
 71
3
 72
12
 73
8
 74
6
 42
0.0000001
 43
0.0000001
 44
0.0000000001
 12
-0.0070145118
 22
0.401983857
 32
0.0
 13
-0.402029743
 23
0.0035086199
 33
0.0
 40
0.0
 40
0.0
 40
0.0
 40
0.0
 40
0.1663980738
 40
0.3475504099
 40
0.549384185
 40
0.7695456059
 40
1.0
 40
1.0
 40
1.0
 40
1.0
 10
7.5379304099
 20
5.0971417394
 30
0.0
 10
7.5375413428
 20
5.1194381859
 30
0.0
 10
7.5257613612
 20
5.1662627809
 30
0.0
 10
7.4801168526
 20
5.2259705198
 30
0.0
 10
7.4125249088
 20
5.2722798187
 30
0.0
 10
7.3294117095
 20
5.3019070537
 30
0.0
 10
7.2688592749
 20
5.309004248
 30
0.0
 10
7.2379761013
 20
5.3092737736
 30
0.0
 11
7.5379304099
 21
5.0971417394
 31
0.0
 11
7.5223427253
 21
5.1621999456
 31
0.0
 11
7.4793517793
 21
5.2209893279
 31
0.0
 11
7.4130998026
 21
5.2678443474
 31
0.0
 11
7.3299709328
 21
5.2982493243
 31
0.0
 11
7.2379761013
 21
5.3092737736
 31
0.0
  0
SPLINE
  5
629
100
AcDbEntity
  8
RACCORDO
100
AcDbSpline
 62
253
  6
CONTINUOUS
 70
0
 71
3
 72
13
 73
9
 74
7
 42
0.0000001
 43
0.0000001
 44
0.0000000001
 12
0.1860199012
 22
0.4640617589
 32
0.0
 13
0.0000037631
 23
0.4999567178
 33
0.0
 40
0.0
 40
0.0
 40
0.0
 40
0.0
 40
0.0378218875
 40
0.1397846932
 40
0.2991078666
 40
0.5051686897
 40
0.7442254983
 40
1.0
 40
1.0
 40
1.0
 40
1.0
 10
7.0580520086
 20
3.0717070133
 30
0.0
 10
7.0603972165
 20
3.0775575772
 30
0.0
 10
7.0569754262
 20
3.1018403915
 30
0.0
 10
7.0612729043
 20
3.1507959526
 30
0.0
 10
7.06002667
 20
3.2291422274
 30
0.0
 10
7.0612834967
 20
3.3296880033
 30
0.0
 10
7.0613463187
 20
3.4465563063
 30
0.0
 10
7.0614817742
 20
3.5290054674
 30
0.0
 10
7.061482095
 20
3.5716308609
 30
0.0
 11
7.0580520086
 21
3.0717070133
 31
0.0
 11
7.0589430718
 21
3.0905953136
 31
0.0
 11
7.059770987
 21
3.1415655797
 31
0.0
 11
7.06048101
 21
3.2212171061
 31
0.0
 11
7.0610250852
 21
3.3242371622
 31
0.0
 11
7.0613660831
 21
3.4437547331
 31
0.0
 11
7.061482095
 21
3.5716308609
 31
0.0
  0
SPLINE
  5
62A
100
AcDbEntity
  8
RACCORDO
100
AcDbSpline
 62
253
  6
CONTINUOUS
 70
0
 71
3
 72
13
 73
9
 74
7
 42
0.0000001
 43
0.0000001
 44
0.0000000001
 12
0.0000037631
 22
-0.4999567178
 32
0.0
 13
0.1860199013
 23
-0.4640617589
 33
0.0
 40
0.0
 40
0.0
 40
0.0
 40
0.0
 40
0.2557745015
 40
0.4948313101
 40
0.7008921333
 40
0.8602153068
 40
0.9621781125
 40
1.0
 40
1.0
 40
1.0
 40
1.0
 10
7.2369536073
 20
3.5716308609
 30
0.0
 10
7.2369539281
 20
3.5290054674
 30
0.0
 10
7.2370893835
 20
3.4465563063
 30
0.0
 10
7.2371522055
 20
3.3296880034
 30
0.0
 10
7.2384090323
 20
3.2291422274
 30
0.0
 10
7.237162798
 20
3.1507959526
 30
0.0
 10
7.2414602761
 20
3.1018403915
 30
0.0
 10
7.2380384858
 20
3.0775575772
 30
0.0
 10
7.2403836937
 20
3.0717070133
 30
0.0
 11
7.2369536073
 21
3.5716308609
 31
0.0
 11
7.2370696192
 21
3.4437547332
 31
0.0
 11
7.2374106171
 21
3.3242371622
 31
0.0
 11
7.2379546923
 21
3.2212171061
 31
0.0
 11
7.2386647153
 21
3.1415655797
 31
0.0
 11
7.2394926305
 21
3.0905953136
 31
0.0
 11
7.2403836937
 21
3.0717070133
 31
0.0
  0
SPLINE
  5
62B
100
AcDbEntity
  8
RACCORDO
100
AcDbSpline
 62
253
  6
CONTINUOUS
 70
0
 71
3
 72
13
 73
9
 74
7
 42
0.0000001
 43
0.0000001
 44
0.0000000001
 12
0.0000037631
 22
-0.4999567178
 32
0.0
 13
0.1860199013
 23
-0.4640617589
 33
0.0
 40
0.0
 40
0.0
 40
0.0
 40
0.0
 40
0.2557745015
 40
0.4948313101
 40
0.7008921333
 40
0.8602153068
 40
0.9621781125
 40
1.0
 40
1.0
 40
1.0
 40
1.0
 10
-7.0630463927
 20
3.5716308609
 30
0.0
 10
-7.0630460719
 20
3.5290054674
 30
0.0
 10
-7.0629106165
 20
3.4465563063
 30
0.0
 10
-7.0628477945
 20
3.3296880034
 30
0.0
 10
-7.0615909677
 20
3.2291422274
 30
0.0
 10
-7.062837202
 20
3.1507959526
 30
0.0
 10
-7.0585397239
 20
3.1018403915
 30
0.0
 10
-7.0619615142
 20
3.0775575772
 30
0.0
 10
-7.0596163063
 20
3.0717070133
 30
0.0
 11
-7.0630463927
 21
3.5716308609
 31
0.0
 11
-7.0629303808
 21
3.4437547332
 31
0.0
 11
-7.0625893829
 21
3.3242371622
 31
0.0
 11
-7.0620453077
 21
3.2212171061
 31
0.0
 11
-7.0613352847
 21
3.1415655797
 31
0.0
 11
-7.0605073695
 21
3.0905953136
 31
0.0
 11
-7.0596163063
 21
3.0717070133
 31
0.0
  0
SPLINE
  5
62C
100
AcDbEntity
  8
RACCORDO
100
AcDbSpline
 62
253
  6
CONTINUOUS
 70
0
 71
3
 72
13
 73
9
 74
7
 42
0.0000001
 43
0.0000001
 44
0.0000000001
 12
0.1860199012
 22
0.4640617589
 32
0.0
 13
0.0000037631
 23
0.4999567178
 33
0.0
 40
0.0
 40
0.0
 40
0.0
 40
0.0
 40
0.0378218875
 40
0.1397846932
 40
0.2991078666
 40
0.5051686897
 40
0.7442254983
 40
1.0
 40
1.0
 40
1.0
 40
1.0
 10
-7.2419479914
 20
3.0717070133
 30
0.0
 10
-7.2396027835
 20
3.0775575772
 30
0.0
 10
-7.2430245738
 20
3.1018403915
 30
0.0
 10
-7.2387270957
 20
3.1507959526
 30
0.0
 10
-7.23997333
 20
3.2291422274
 30
0.0
 10
-7.2387165033
 20
3.3296880033
 30
0.0
 10
-7.2386536813
 20
3.4465563063
 30
0.0
 10
-7.2385182258
 20
3.5290054674
 30
0.0
 10
-7.238517905
 20
3.5716308609
 30
0.0
 11
-7.2419479914
 21
3.0717070133
 31
0.0
 11
-7.2410569282
 21
3.0905953136
 31
0.0
 11
-7.240229013
 21
3.1415655797
 31
0.0
 11
-7.23951899
 21
3.2212171061
 31
0.0
 11
-7.2389749148
 21
3.3242371622
 31
0.0
 11
-7.2386339169
 21
3.4437547331
 31
0.0
 11
-7.238517905
 21
3.5716308609
 31
0.0
  0
SPLINE
  5
62D
100
AcDbEntity
  8
RACCORDO
100
AcDbSpline
 62
253
  6
CONTINUOUS
 70
0
 71
3
 72
9
 73
5
 74
3
 42
0.0000001
 43
0.0000001
 44
0.0000000001
 12
0.0053452796
 22
-1.6468770511
 32
0.0
 13
0.0076765739
 23
-1.6468678343
 33
0.0
 40
0.0
 40
0.0
 40
0.0
 40
0.0
 40
0.500013719
 40
1.0
 40
1.0
 40
1.0
 40
1.0
 10
-4.2427291879
 20
5.5864196637
 30
0.0
 10
-4.2418382835
 20
5.311932624
 30
0.0
 10
-4.2398622033
 20
4.7629742206
 30
0.0
 10
-4.2374976667
 20
4.2140173528
 30
0.0
 10
-4.2362182728
 20
3.9395469116
 30
0.0
 11
-4.2427291879
 21
5.5864196637
 31
0.0
 11
-4.2397650297
 21
4.7629595422
 31
0.0
 11
-4.2362182728
 21
3.9395469116
 31
0.0
  0
SPLINE
  5
62E
100
AcDbEntity
  8
RACCORDO
100
AcDbSpline
 62
253
  6
CONTINUOUS
 70
0
 71
3
 72
9
 73
5
 74
3
 42
0.0000001
 43
0.0000001
 44
0.0000000001
 12
0.0076765739
 22
1.6468678343
 32
0.0
 13
0.0053452796
 23
1.6468770511
 33
0.0
 40
0.0
 40
0.0
 40
0.0
 40
0.0
 40
0.4999867127
 40
1.0
 40
1.0
 40
1.0
 40
1.0
 10
4.2346539751
 20
3.9395469116
 30
0.0
 10
4.2359333701
 20
4.2140175898
 30
0.0
 10
4.2382979065
 20
4.7629744575
 30
0.0
 10
4.2402739866
 20
5.311932861
 30
0.0
 10
4.2411648902
 20
5.5864196637
 30
0.0
 11
4.2346539751
 21
3.9395469116
 31
0.0
 11
4.2382007348
 21
4.7629602532
 31
0.0
 11
4.2411648902
 21
5.5864196637
 31
0.0
  0
SPLINE
  5
62F
100
AcDbEntity
  8
RACCORDO
100
AcDbSpline
 62
253
  6
CONTINUOUS
 70
0
 71
3
 72
11
 73
7
 74
5
 42
0.0000001
 43
0.0000001
 44
0.0000000001
 12
-0.0098781004
 22
0.3534330094
 32
0.0
 13
0.0000006738
 23
0.3535710239
 33
0.0
 40
0.0
 40
0.0
 40
0.0
 40
0.0
 40
0.210108614
 40
0.4581332567
 40
0.7266954159
 40
1.0
 40
1.0
 40
1.0
 40
1.0
 10
7.0481170062
 20
6.016380555
 30
0.0
 10
7.0474251815
 20
6.0411336616
 30
0.0
 10
7.0462224735
 20
6.0951153726
 30
0.0
 10
7.0449679303
 20
6.1807529152
 30
0.0
 10
7.0441980127
 20
6.2738445267
 30
0.0
 10
7.044027011
 20
6.3377074513
 30
0.0
 10
7.0440270724
 20
6.3699183119
 30
0.0
 11
7.0481170062
 21
6.016380555
 31
0.0
 11
7.0464086269
 21
6.0906492267
 31
0.0
 11
7.0450928941
 21
6.1783336826
 31
0.0
 11
7.0442903699
 21
6.2732860889
 31
0.0
 11
7.0440270724
 21
6.3699183119
 31
0.0
  0
SPLINE
  5
630
100
AcDbEntity
  8
RACCORDO
100
AcDbSpline
 62
253
  6
CONTINUOUS
 70
0
 71
3
 72
11
 73
7
 74
5
 42
0.0000001
 43
0.0000001
 44
0.0000000001
 12
-0.0098331854
 22
0.5656207508
 32
0.0
 13
0.0000098444
 23
0.5657062181
 33
0.0
 40
0.0
 40
0.0
 40
0.0
 40
0.0
 40
0.2097951049
 40
0.4583292293
 40
0.7269157337
 40
1.0
 40
1.0
 40
1.0
 40
1.0
 10
6.7481626977
 20
5.8042485206
 30
0.0
 10
6.7474750463
 20
5.8438033422
 30
0.0
 10
6.7462659465
 20
5.9302219885
 30
0.0
 10
6.7450138132
 20
6.0672902422
 30
0.0
 10
6.7442436824
 20
6.21629653
 30
0.0
 10
6.7440718254
 20
6.3184387897
 30
0.0
 10
6.7440727215
 20
6.3699339456
 30
0.0
 11
6.7481626977
 21
5.8042485206
 31
0.0
 11
6.746456062
 21
5.9229186448
 31
0.0
 11
6.7451376933
 21
6.0635097631
 31
0.0
 11
6.7443356072
 21
6.2154487017
 31
0.0
 11
6.7440727215
 21
6.3699339456
 31
0.0
  0
SPLINE
  5
631
100
AcDbEntity
  8
RACCORDO
100
AcDbSpline
 62
253
  6
CONTINUOUS
 70
0
 71
3
 72
11
 73
7
 74
5
 42
0.0000001
 43
0.0000001
 44
0.0000000001
 12
-0.0000003835
 22
0.1414265542
 32
0.0
 13
-0.0024684792
 23
0.1414050099
 33
0.0
 40
0.0
 40
0.0
 40
0.0
 40
0.0
 40
0.2753968051
 40
0.5412973202
 40
0.7858857424
 40
1.0
 40
1.0
 40
1.0
 40
1.0
 10
6.7615277865
 20
4.9557203832
 30
0.0
 10
6.7615277513
 20
4.9687031903
 30
0.0
 10
6.761484834
 20
4.9942211497
 30
0.0
 10
6.7612928078
 20
5.0312691087
 30
0.0
 10
6.760981438
 20
5.0654271533
 30
0.0
 10
6.7606814713
 20
5.0870494632
 30
0.0
 10
6.7605052924
 20
5.0971417394
 30
0.0
 11
6.7615277865
 21
4.9557203832
 31
0.0
 11
6.7614609541
 21
4.994668747
 31
0.0
 11
6.7612619268
 21
5.032273614
 31
0.0
 11
6.7609390984
 21
5.0668634052
 31
0.0
 11
6.7605052924
 21
5.0971417394
 31
0.0
  0
SPLINE
  5
632
100
AcDbEntity
  8
RACCORDO
100
AcDbSpline
 62
253
  6
CONTINUOUS
 70
0
 71
3
 72
13
 73
9
 74
7
 42
0.0000001
 43
0.0000001
 44
0.0000000001
 12
0.141041107
 22
0.141873385
 32
0.0
 13
0.0000012265
 23
0.2000516215
 33
0.0
 40
0.0
 40
0.0
 40
0.0
 40
0.0
 40
0.0379383612
 40
0.1398218345
 40
0.2991571384
 40
0.5055293226
 40
0.744720332
 40
1.0
 40
1.0
 40
1.0
 40
1.0
 10
6.7580977
 20
3.3716613218
 30
0.0
 10
6.7598813229
 20
3.3734554697
 30
0.0
 10
6.7577458338
 20
3.3843401031
 30
0.0
 10
6.7608935454
 20
3.4028725449
 30
0.0
 10
6.7602490617
 20
3.43478343
 30
0.0
 10
6.7612672196
 20
3.474824663
 30
0.0
 10
6.7614123952
 20
3.5216592406
 30
0.0
 10
6.7615276821
 20
3.5546078237
 30
0.0
 10
6.7615277865
 20
3.5716308609
 30
0.0
 11
6.7580977
 21
3.3716613218
 31
0.0
 11
6.7589879941
 21
3.3791985541
 31
0.0
 11
6.7598161525
 21
3.3995636763
 31
0.0
 11
6.7605264247
 21
3.4314310478
 31
0.0
 11
6.7610708907
 21
3.4727125475
 31
0.0
 11
6.7614120717
 21
3.5205618805
 31
0.0
 11
6.7615277865
 21
3.5716308609
 31
0.0
  0
SPLINE
  5
633
100
AcDbEntity
  8
RACCORDO
100
AcDbSpline
 62
253
  6
CONTINUOUS
 70
0
 71
3
 72
13
 73
9
 74
7
 42
0.0000001
 43
0.0000001
 44
0.0000000001
 12
0.0000012265
 22
-0.2000516215
 32
0.0
 13
0.1410411064
 23
-0.1418733857
 33
0.0
 40
0.0
 40
0.0
 40
0.0
 40
0.0
 40
0.2552796677
 40
0.4944706773
 40
0.7008428616
 40
0.8601781655
 40
0.9620616388
 40
1.0
 40
1.0
 40
1.0
 40
1.0
 10
7.5369079158
 20
3.5716308609
 30
0.0
 10
7.5369080202
 20
3.5546078237
 30
0.0
 10
7.5370233071
 20
3.5216592407
 30
0.0
 10
7.5371684827
 20
3.474824663
 30
0.0
 10
7.5381866405
 20
3.4347834301
 30
0.0
 10
7.5375421569
 20
3.4028725449
 30
0.0
 10
7.5406898684
 20
3.3843401031
 30
0.0
 10
7.5385543794
 20
3.3734554698
 30
0.0
 10
7.5403380022
 20
3.3716613218
 30
0.0
 11
7.5369079158
 21
3.5716308609
 31
0.0
 11
7.5370236306
 21
3.5205618805
 31
0.0
 11
7.5373648116
 21
3.4727125476
 31
0.0
 11
7.5379092776
 21
3.4314310478
 31
0.0
 11
7.5386195498
 21
3.3995636763
 31
0.0
 11
7.5394477082
 21
3.3791985541
 31
0.0
 11
7.5403380022
 21
3.3716613218
 31
0.0
  0
SPLINE
  5
634
100
AcDbEntity
  8
RACCORDO
100
AcDbSpline
 62
253
  6
CONTINUOUS
 70
0
 71
3
 72
11
 73
7
 74
5
 42
0.0000001
 43
0.0000001
 44
0.0000000001
 12
-0.0024684792
 22
-0.1414050099
 32
0.0
 13
-0.0000003835
 23
-0.1414265542
 33
0.0
 40
0.0
 40
0.0
 40
0.0
 40
0.0
 40
0.2141142612
 40
0.458702684
 40
0.7246031997
 40
1.0
 40
1.0
 40
1.0
 40
1.0
 10
7.5379304099
 20
5.0971417394
 30
0.0
 10
7.537754231
 20
5.087049463
 30
0.0
 10
7.5374542643
 20
5.0654271529
 30
0.0
 10
7.5371428945
 20
5.0312691082
 30
0.0
 10
7.5369508683
 20
4.9942211493
 30
0.0
 10
7.536907951
 20
4.96870319
 30
0.0
 10
7.5369079158
 20
4.9557203832
 30
0.0
 11
7.5379304099
 21
5.0971417394
 31
0.0
 11
7.5374966038
 21
5.0668634047
 31
0.0
 11
7.5371737754
 21
5.0322736134
 31
0.0
 11
7.5369747482
 21
4.9946687464
 31
0.0
 11
7.5369079158
 21
4.9557203832
 31
0.0
  0
SPLINE
  5
635
100
AcDbEntity
  8
RACCORDO
100
AcDbSpline
 62
253
  6
CONTINUOUS
 70
0
 71
3
 72
11
 73
7
 74
5
 42
0.0000001
 43
0.0000001
 44
0.0000000001
 12
0.0000096882
 22
-0.5657062181
 32
0.0
 13
-0.0098336718
 23
-0.5656207424
 33
0.0
 40
0.0
 40
0.0
 40
0.0
 40
0.0
 40
0.2730824888
 40
0.5416689789
 40
0.7902032012
 40
1.0
 40
1.0
 40
1.0
 40
1.0
 10
7.5543629808
 20
6.3699339456
 30
0.0
 10
7.5543638626
 20
6.3184391249
 30
0.0
 10
7.5541920285
 20
6.2162972031
 30
0.0
 10
7.5534218994
 20
6.0672912346
 30
0.0
 10
7.5521697445
 20
5.9302226461
 30
0.0
 10
7.5509606956
 20
5.843803661
 30
0.0
 10
7.5502730046
 20
5.8042485206
 30
0.0
 11
7.5543629808
 21
6.3699339456
 31
0.0
 11
7.5541000997
 21
6.2154497072
 31
0.0
 11
7.5532980159
 21
6.0635107768
 31
0.0
 11
7.5519796509
 21
5.922919603
 31
0.0
 11
7.5502730046
 21
5.8042485206
 31
0.0
  0
SPLINE
  5
636
100
AcDbEntity
  8
RACCORDO
100
AcDbSpline
 62
253
  6
CONTINUOUS
 70
0
 71
3
 72
13
 73
9
 74
7
 42
0.0000001
 43
0.0000001
 44
0.0000000001
 12
0.0000012265
 22
-0.2000516215
 32
0.0
 13
0.1410411064
 23
-0.1418733857
 33
0.0
 40
0.0
 40
0.0
 40
0.0
 40
0.0
 40
0.2552796677
 40
0.4944706773
 40
0.7008428616
 40
0.8601781655
 40
0.9620616388
 40
1.0
 40
1.0
 40
1.0
 40
1.0
 10
-6.7630920842
 20
3.5716308609
 30
0.0
 10
-6.7630919798
 20
3.5546078237
 30
0.0
 10
-6.7629766929
 20
3.5216592407
 30
0.0
 10
-6.7628315173
 20
3.474824663
 30
0.0
 10
-6.7618133595
 20
3.4347834301
 30
0.0
 10
-6.7624578431
 20
3.4028725449
 30
0.0
 10
-6.7593101316
 20
3.3843401031
 30
0.0
 10
-6.7614456206
 20
3.3734554698
 30
0.0
 10
-6.7596619978
 20
3.3716613218
 30
0.0
 11
-6.7630920842
 21
3.5716308609
 31
0.0
 11
-6.7629763694
 21
3.5205618805
 31
0.0
 11
-6.7626351884
 21
3.4727125476
 31
0.0
 11
-6.7620907224
 21
3.4314310478
 31
0.0
 11
-6.7613804502
 21
3.3995636763
 31
0.0
 11
-6.7605522918
 21
3.3791985541
 31
0.0
 11
-6.7596619978
 21
3.3716613218
 31
0.0
  0
SPLINE
  5
637
100
AcDbEntity
  8
RACCORDO
100
AcDbSpline
 62
253
  6
CONTINUOUS
 70
0
 71
3
 72
11
 73
7
 74
5
 42
0.0000001
 43
0.0000001
 44
0.0000000001
 12
-0.0024684792
 22
-0.1414050099
 32
0.0
 13
-0.0000003835
 23
-0.1414265542
 33
0.0
 40
0.0
 40
0.0
 40
0.0
 40
0.0
 40
0.2141142612
 40
0.458702684
 40
0.7246031997
 40
1.0
 40
1.0
 40
1.0
 40
1.0
 10
-6.7620695901
 20
5.0971417394
 30
0.0
 10
-6.762245769
 20
5.087049463
 30
0.0
 10
-6.7625457357
 20
5.0654271529
 30
0.0
 10
-6.7628571055
 20
5.0312691082
 30
0.0
 10
-6.7630491317
 20
4.9942211493
 30
0.0
 10
-6.763092049
 20
4.96870319
 30
0.0
 10
-6.7630920842
 20
4.9557203832
 30
0.0
 11
-6.7620695901
 21
5.0971417394
 31
0.0
 11
-6.7625033962
 21
5.0668634047
 31
0.0
 11
-6.7628262246
 21
5.0322736134
 31
0.0
 11
-6.7630252518
 21
4.9946687464
 31
0.0
 11
-6.7630920842
 21
4.9557203832
 31
0.0
  0
SPLINE
  5
638
100
AcDbEntity
  8
RACCORDO
100
AcDbSpline
 62
253
  6
CONTINUOUS
 70
0
 71
3
 72
11
 73
7
 74
5
 42
0.0000001
 43
0.0000001
 44
0.0000000001
 12
0.0000096882
 22
-0.5657062181
 32
0.0
 13
-0.0098336718
 23
-0.5656207424
 33
0.0
 40
0.0
 40
0.0
 40
0.0
 40
0.0
 40
0.2730824888
 40
0.5416689789
 40
0.7902032012
 40
1.0
 40
1.0
 40
1.0
 40
1.0
 10
-6.7456370192
 20
6.3699339456
 30
0.0
 10
-6.7456361374
 20
6.3184391249
 30
0.0
 10
-6.7458079715
 20
6.2162972031
 30
0.0
 10
-6.7465781006
 20
6.0672912346
 30
0.0
 10
-6.7478302555
 20
5.9302226461
 30
0.0
 10
-6.7490393044
 20
5.843803661
 30
0.0
 10
-6.7497269954
 20
5.8042485206
 30
0.0
 11
-6.7456370192
 21
6.3699339456
 31
0.0
 11
-6.7458999003
 21
6.2154497072
 31
0.0
 11
-6.7467019841
 21
6.0635107768
 31
0.0
 11
-6.7480203491
 21
5.922919603
 31
0.0
 11
-6.7497269954
 21
5.8042485206
 31
0.0
  0
SPLINE
  5
639
100
AcDbEntity
  8
RACCORDO
100
AcDbSpline
 62
253
  6
CONTINUOUS
 70
0
 71
3
 72
11
 73
7
 74
5
 42
0.0000001
 43
0.0000001
 44
0.0000000001
 12
-0.0098331854
 22
0.5656207508
 32
0.0
 13
0.0000098444
 23
0.5657062181
 33
0.0
 40
0.0
 40
0.0
 40
0.0
 40
0.0
 40
0.2097951049
 40
0.4583292293
 40
0.7269157337
 40
1.0
 40
1.0
 40
1.0
 40
1.0
 10
-7.5518373023
 20
5.8042485206
 30
0.0
 10
-7.5525249537
 20
5.8438033422
 30
0.0
 10
-7.5537340535
 20
5.9302219885
 30
0.0
 10
-7.5549861868
 20
6.0672902422
 30
0.0
 10
-7.5557563176
 20
6.21629653
 30
0.0
 10
-7.5559281746
 20
6.3184387897
 30
0.0
 10
-7.5559272785
 20
6.3699339456
 30
0.0
 11
-7.5518373023
 21
5.8042485206
 31
0.0
 11
-7.553543938
 21
5.9229186448
 31
0.0
 11
-7.5548623067
 21
6.0635097631
 31
0.0
 11
-7.5556643928
 21
6.2154487017
 31
0.0
 11
-7.5559272785
 21
6.3699339456
 31
0.0
  0
SPLINE
  5
63A
100
AcDbEntity
  8
RACCORDO
100
AcDbSpline
 62
253
  6
CONTINUOUS
 70
0
 71
3
 72
11
 73
7
 74
5
 42
0.0000001
 43
0.0000001
 44
0.0000000001
 12
-0.0000003835
 22
0.1414265542
 32
0.0
 13
-0.0024684792
 23
0.1414050099
 33
0.0
 40
0.0
 40
0.0
 40
0.0
 40
0.0
 40
0.2753968051
 40
0.5412973202
 40
0.7858857424
 40
1.0
 40
1.0
 40
1.0
 40
1.0
 10
-7.5384722135
 20
4.9557203832
 30
0.0
 10
-7.5384722487
 20
4.9687031903
 30
0.0
 10
-7.538515166
 20
4.9942211497
 30
0.0
 10
-7.5387071922
 20
5.0312691087
 30
0.0
 10
-7.539018562
 20
5.0654271533
 30
0.0
 10
-7.5393185287
 20
5.0870494632
 30
0.0
 10
-7.5394947076
 20
5.0971417394
 30
0.0
 11
-7.5384722135
 21
4.9557203832
 31
0.0
 11
-7.5385390459
 21
4.994668747
 31
0.0
 11
-7.5387380732
 21
5.032273614
 31
0.0
 11
-7.5390609016
 21
5.0668634052
 31
0.0
 11
-7.5394947076
 21
5.0971417394
 31
0.0
  0
SPLINE
  5
63B
100
AcDbEntity
  8
RACCORDO
100
AcDbSpline
 62
253
  6
CONTINUOUS
 70
0
 71
3
 72
13
 73
9
 74
7
 42
0.0000001
 43
0.0000001
 44
0.0000000001
 12
0.141041107
 22
0.141873385
 32
0.0
 13
0.0000012265
 23
0.2000516215
 33
0.0
 40
0.0
 40
0.0
 40
0.0
 40
0.0
 40
0.0379383612
 40
0.1398218345
 40
0.2991571384
 40
0.5055293226
 40
0.744720332
 40
1.0
 40
1.0
 40
1.0
 40
1.0
 10
-7.5419023
 20
3.3716613218
 30
0.0
 10
-7.5401186771
 20
3.3734554697
 30
0.0
 10
-7.5422541662
 20
3.3843401031
 30
0.0
 10
-7.5391064546
 20
3.4028725449
 30
0.0
 10
-7.5397509383
 20
3.43478343
 30
0.0
 10
-7.5387327804
 20
3.474824663
 30
0.0
 10
-7.5385876048
 20
3.5216592406
 30
0.0
 10
-7.5384723179
 20
3.5546078237
 30
0.0
 10
-7.5384722135
 20
3.5716308609
 30
0.0
 11
-7.5419023
 21
3.3716613218
 31
0.0
 11
-7.5410120059
 21
3.3791985541
 31
0.0
 11
-7.5401838475
 21
3.3995636763
 31
0.0
 11
-7.5394735753
 21
3.4314310478
 31
0.0
 11
-7.5389291093
 21
3.4727125475
 31
0.0
 11
-7.5385879283
 21
3.5205618805
 31
0.0
 11
-7.5384722135
 21
3.5716308609
 31
0.0
  0
SPLINE
  5
63C
100
AcDbEntity
  8
RACCORDO
100
AcDbSpline
 62
253
  6
CONTINUOUS
 70
0
 71
3
 72
9
 73
5
 74
3
 42
0.0000001
 43
0.0000001
 44
0.0000000001
 12
0.0003603392
 22
-6.1661325534
 32
0.0
 13
0.0019281047
 23
-6.1661322625
 33
0.0
 40
0.0
 40
0.0
 40
0.0
 40
0.0
 40
0.5000355593
 40
1.0
 40
1.0
 40
1.0
 40
1.0
 10
11.1223647724
 20
7.9453213064
 30
0.0
 10
11.1224248332
 20
6.9175594596
 30
0.0
 10
11.1226755793
 20
4.8621819474
 30
0.0
 10
11.1231876057
 20
2.8068044836
 30
0.0
 10
11.1235089337
 20
1.7791888611
 30
0.0
 11
11.1223647724
 21
7.9453213064
 31
0.0
 11
11.1227409265
 21
4.8620357838
 31
0.0
 11
11.1235089337
 21
1.7791888611
 31
0.0
  0
LINE
  5
63D
100
AcDbEntity
  8
RACCORDO
100
AcDbLine
 62
253
  6
CONTINUOUS
 10
11.1237490411
 20
1.0467055751
 11
11.1245466223
 21
-1.0218488276
  0
LINE
  5
63E
100
AcDbEntity
  8
RACCORDO
100
AcDbLine
 62
253
  6
CONTINUOUS
 10
11.1264887653
 20
-4.8505547007
 11
11.1272692267
 21
-6.1245714319
  0
LINE
  5
63F
100
AcDbEntity
  8
RACCORDO
100
AcDbLine
 62
253
  6
CONTINUOUS
 10
11.1277431124
 20
-6.8493003536
 11
11.128093525
 21
-7.3649867543
  0
LINE
  5
640
100
AcDbEntity
  8
RACCORDO
100
AcDbLine
 62
253
  6
CONTINUOUS
 10
-11.1288335244
 20
-6.1245714319
 11
-11.128053063
 21
-4.8505547007
  0
LINE
  5
641
100
AcDbEntity
  8
RACCORDO
100
AcDbLine
 62
253
  6
CONTINUOUS
 10
-11.1296578227
 20
-7.3649867543
 11
-11.1293074101
 21
-6.8493003536
  0
LINE
  5
642
100
AcDbEntity
  8
RACCORDO
100
AcDbLine
 62
253
  6
CONTINUOUS
 10
-11.1261109201
 20
-1.0218488276
 11
-11.1253133388
 21
1.0467055751
  0
SPLINE
  5
643
100
AcDbEntity
  8
RACCORDO
100
AcDbSpline
 62
253
  6
CONTINUOUS
 70
0
 71
3
 72
9
 73
5
 74
3
 42
0.0000001
 43
0.0000001
 44
0.0000000001
 12
0.0019281047
 22
6.1661322625
 32
0.0
 13
0.0003603392
 23
6.1661325534
 33
0.0
 40
0.0
 40
0.0
 40
0.0
 40
0.0
 40
0.4999644622
 40
1.0
 40
1.0
 40
1.0
 40
1.0
 10
-11.1250732314
 20
1.7791888611
 30
0.0
 10
-11.1247519034
 20
2.8068045278
 30
0.0
 10
-11.124239877
 20
4.8621819916
 30
0.0
 10
-11.1239891309
 20
6.9175595038
 30
0.0
 10
-11.1239290701
 20
7.9453213064
 30
0.0
 11
-11.1250732314
 21
1.7791888611
 31
0.0
 11
-11.1243052242
 21
4.8620359163
 31
0.0
 11
-11.1239290701
 21
7.9453213064
 31
0.0
  0
SPLINE
  5
644
100
AcDbEntity
  8
RACCORDO
100
AcDbSpline
 62
7
  6
CONTINUOUS
 70
0
 71
3
 72
12
 73
8
 74
6
 42
0.0000001
 43
0.0000001
 44
0.0000000001
 12
0.3000709641
 22
-0.0
 32
0.0
 13
0.2121822176
 23
0.2121822095
 33
0.0
 40
0.0
 40
0.0
 40
0.0
 40
0.0
 40
0.3041016913
 40
0.5820964833
 40
0.8023227261
 40
0.9471197879
 40
1.0
 40
1.0
 40
1.0
 40
1.0
 10
10.822410706
 20
7.9401764485
 30
0.0
 10
10.8528280686
 20
7.9401764485
 30
0.0
 10
10.9112063546
 20
7.9400451196
 30
0.0
 10
10.9908521729
 20
7.9418100787
 30
0.0
 10
11.056717802
 20
7.9399841505
 30
0.0
 10
11.0954578032
 20
7.9467181901
 30
0.0
 10
11.1186246922
 20
7.9415812263
 30
0.0
 10
11.1223647724
 20
7.9453213064
 30
0.0
 11
10.822410706
 21
7.9401764485
 31
0.0
 11
10.9136624564
 21
7.9404245575
 31
0.0
 11
10.9970774194
 21
7.9411554714
 31
0.0
 11
11.0631512108
 21
7.9422882551
 31
0.0
 11
11.1065765439
 21
7.9437340342
 31
0.0
 11
11.1223647724
 21
7.9453213064
 31
0.0
  0
SPLINE
  5
645
100
AcDbEntity
  8
RACCORDO
100
AcDbSpline
 62
7
  6
CONTINUOUS
 70
0
 71
3
 72
12
 73
8
 74
6
 42
0.0000001
 43
0.0000001
 44
0.0000000001
 12
0.2121822176
 22
-0.2121822095
 32
0.0
 13
0.3000709641
 23
0.0
 33
0.0
 40
0.0
 40
0.0
 40
0.0
 40
0.0
 40
0.0528802121
 40
0.1976772739
 40
0.4179035167
 40
0.6958983087
 40
1.0
 40
1.0
 40
1.0
 40
1.0
 10
-11.1239290701
 20
7.9453213064
 30
0.0
 10
-11.1201889899
 20
7.9415812263
 30
0.0
 10
-11.097022101
 20
7.9467181901
 30
0.0
 10
-11.0582820997
 20
7.9399841505
 30
0.0
 10
-10.9924164706
 20
7.9418100787
 30
0.0
 10
-10.9127706523
 20
7.9400451196
 30
0.0
 10
-10.8543923663
 20
7.9401764485
 30
0.0
 10
-10.8239750037
 20
7.9401764485
 30
0.0
 11
-11.1239290701
 21
7.9453213064
 31
0.0
 11
-11.1081408416
 21
7.9437340342
 31
0.0
 11
-11.0647155085
 21
7.9422882551
 31
0.0
 11
-10.9986417172
 21
7.9411554714
 31
0.0
 11
-10.9152267541
 21
7.9404245575
 31
0.0
 11
-10.8239750037
 21
7.9401764485
 31
0.0
  0
SPLINE
  5
646
100
AcDbEntity
  8
RACCORDO
100
AcDbSpline
 62
7
  6
CONTINUOUS
 70
0
 71
3
 72
12
 73
8
 74
6
 42
0.0000001
 43
0.0000001
 44
0.0000000001
 12
0.3000740987
 22
-0.0
 32
0.0
 13
0.2121856528
 23
0.2121832073
 33
0.0
 40
0.0
 40
0.0
 40
0.0
 40
0.0
 40
0.3040972291
 40
0.5820915378
 40
0.8023192843
 40
0.9471184771
 40
1.0
 40
1.0
 40
1.0
 40
1.0
 10
10.8265315714
 20
-4.8556997664
 30
0.0
 10
10.8569488053
 20
-4.8556997664
 30
0.0
 10
10.9153272003
 20
-4.8558310822
 30
0.0
 10
10.9949735226
 20
-4.8540661188
 30
0.0
 10
11.0608401319
 20
-4.8558920074
 30
0.0
 10
11.0995810464
 20
-4.8491578681
 30
0.0
 10
11.1227485318
 20
-4.8542948911
 30
0.0
 10
11.1264887653
 20
-4.8505547007
 30
0.0
 11
10.8265315714
 21
-4.8556997664
 31
0.0
 11
10.917782936
 21
-4.8554516517
 31
0.0
 11
11.0011986252
 21
-4.8547207159
 31
0.0
 11
11.0672735575
 21
-4.8535878897
 31
0.0
 11
11.1106999826
 21
-4.8521420489
 31
0.0
 11
11.1264887653
 21
-4.8505547007
 31
0.0
  0
SPLINE
  5
647
100
AcDbEntity
  8
RACCORDO
100
AcDbSpline
 62
7
  6
CONTINUOUS
 70
0
 71
3
 72
12
 73
8
 74
6
 42
0.0000001
 43
0.0000001
 44
0.0000000001
 12
0.2121856528
 22
-0.2121832073
 32
0.0
 13
0.3000740987
 23
0.0
 33
0.0
 40
0.0
 40
0.0
 40
0.0
 40
0.0
 40
0.0528815229
 40
0.1976807157
 40
0.4179084622
 40
0.6959027709
 40
1.0
 40
1.0
 40
1.0
 40
1.0
 10
-11.128053063
 20
-4.8505547007
 30
0.0
 10
-11.1243128295
 20
-4.8542948911
 30
0.0
 10
-11.1011453441
 20
-4.8491578681
 30
0.0
 10
-11.0624044297
 20
-4.8558920074
 30
0.0
 10
-10.9965378204
 20
-4.8540661188
 30
0.0
 10
-10.916891498
 20
-4.8558310822
 30
0.0
 10
-10.8585131031
 20
-4.8556997664
 30
0.0
 10
-10.8280958691
 20
-4.8556997664
 30
0.0
 11
-11.128053063
 21
-4.8505547007
 31
0.0
 11
-11.1122642803
 21
-4.8521420489
 31
0.0
 11
-11.0688378553
 21
-4.8535878897
 31
0.0
 11
-11.0027629229
 21
-4.8547207159
 31
0.0
 11
-10.9193472337
 21
-4.8554516517
 31
0.0
 11
-10.8280958691
 21
-4.8556997664
 31
0.0
  0
SPLINE
  5
648
100
AcDbEntity
  8
RACCORDO
100
AcDbSpline
 62
7
  6
CONTINUOUS
 70
0
 71
3
 72
12
 73
8
 74
6
 42
0.0000001
 43
0.0000001
 44
0.0000000001
 12
-0.2121859816
 22
0.212186588
 32
0.0
 13
-0.3000767217
 23
0.0
 33
0.0
 40
0.0
 40
0.0
 40
0.0
 40
0.0
 40
0.0529127559
 40
0.197756379
 40
0.4180080058
 40
0.6959861204
 40
1.0
 40
1.0
 40
1.0
 40
1.0
 10
11.1245466223
 20
-1.0218488276
 30
0.0
 10
11.120804174
 20
-1.0181063685
 30
0.0
 10
11.09762756
 20
-1.0232442661
 30
0.0
 10
11.0588769322
 20
-1.0165088323
 30
0.0
 10
10.9930046239
 20
-1.0183336269
 30
0.0
 10
10.9133649966
 20
-1.0165688307
 30
0.0
 10
10.8549961275
 20
-1.0166999204
 30
0.0
 10
10.8245869647
 20
-1.0166999204
 30
0.0
 11
11.1245466223
 21
-1.0218488276
 31
0.0
 11
11.1087484432
 21
-1.0202598628
 31
0.0
 11
11.0653083365
 21
-1.0188128739
 31
0.0
 11
10.9992256715
 21
-1.0176793444
 31
0.0
 11
10.9158141155
 21
-1.0169480844
 31
0.0
 11
10.8245869647
 21
-1.0166999204
 31
0.0
  0
SPLINE
  5
649
100
AcDbEntity
  8
RACCORDO
100
AcDbSpline
 62
7
  6
CONTINUOUS
 70
0
 71
3
 72
12
 73
8
 74
6
 42
0.0000001
 43
0.0000001
 44
0.0000000001
 12
-0.3000767217
 22
-0.0
 32
0.0
 13
-0.2121859816
 23
-0.212186588
 33
0.0
 40
0.0
 40
0.0
 40
0.0
 40
0.0
 40
0.3040138796
 40
0.5819919942
 40
0.802243621
 40
0.9470872441
 40
1.0
 40
1.0
 40
1.0
 40
1.0
 10
-10.8261512624
 20
-1.0166999204
 30
0.0
 10
-10.8565604252
 20
-1.0166999204
 30
0.0
 10
-10.9149292943
 20
-1.0165688307
 30
0.0
 10
-10.9945689216
 20
-1.0183336269
 30
0.0
 10
-11.0604412299
 20
-1.0165088323
 30
0.0
 10
-11.0991918577
 20
-1.0232442661
 30
0.0
 10
-11.1223684717
 20
-1.0181063685
 30
0.0
 10
-11.1261109201
 20
-1.0218488276
 30
0.0
 11
-10.8261512624
 21
-1.0166999204
 31
0.0
 11
-10.9173784132
 21
-1.0169480844
 31
0.0
 11
-11.0007899692
 21
-1.0176793444
 31
0.0
 11
-11.0668726342
 21
-1.0188128739
 31
0.0
 11
-11.1103127409
 21
-1.0202598628
 31
0.0
 11
-11.1261109201
 21
-1.0218488276
 31
0.0
  0
SPLINE
  5
64A
100
AcDbEntity
  8
RACCORDO
100
AcDbSpline
 62
7
  6
CONTINUOUS
 70
0
 71
3
 72
12
 73
8
 74
6
 42
0.0000001
 43
0.0000001
 44
0.0000000001
 12
0.2121872725
 22
-0.2121835264
 32
0.0
 13
0.3000754696
 23
0.0
 33
0.0
 40
0.0
 40
0.0
 40
0.0
 40
0.0
 40
0.0528851833
 40
0.1976896626
 40
0.4179203758
 40
0.6959128578
 40
1.0
 40
1.0
 40
1.0
 40
1.0
 10
-11.1293074101
 20
-6.8493003536
 30
0.0
 10
-11.1255668892
 20
-6.8530408085
 30
0.0
 10
-11.1023982757
 20
-6.8479036887
 30
0.0
 10
-11.0636560335
 20
-6.8546379825
 30
0.0
 10
-10.9977885048
 20
-6.8528122259
 30
0.0
 10
-10.918142687
 20
-6.8545771708
 30
0.0
 10
-10.8597652279
 20
-6.8544458838
 30
0.0
 10
-10.8293488639
 20
-6.8544458838
 30
0.0
 11
-11.1293074101
 21
-6.8493003536
 31
0.0
 11
-11.1135174698
 21
-6.8508878932
 31
0.0
 11
-11.0700892636
 21
-6.8523338726
 31
0.0
 11
-11.0040131404
 21
-6.8534667853
 31
0.0
 11
-10.9205976186
 21
-6.8541977619
 31
0.0
 11
-10.8293488639
 21
-6.8544458838
 31
0.0
  0
SPLINE
  5
64B
100
AcDbEntity
  8
RACCORDO
100
AcDbSpline
 62
7
  6
CONTINUOUS
 70
0
 71
3
 72
12
 73
8
 74
6
 42
0.0000001
 43
0.0000001
 44
0.0000000001
 12
-0.300081786
 22
0.0
 32
0.0
 13
-0.2121906568
 23
-0.2121890748
 33
0.0
 40
0.0
 40
0.0
 40
0.0
 40
0.0
 40
0.3039485293
 40
0.5819142421
 40
0.8021848151
 40
0.9470630692
 40
1.0
 40
1.0
 40
1.0
 40
1.0
 10
-10.8288689259
 20
-6.1194195093
 30
0.0
 10
-10.8592720651
 20
-6.1194195093
 30
0.0
 10
-10.917634076
 20
-6.1192886007
 30
0.0
 10
-10.9972693181
 20
-6.1210532714
 30
0.0
 10
-11.0631467496
 20
-6.1192293332
 30
0.0
 10
-11.1019054325
 20
-6.1259657799
 30
0.0
 10
-11.1250892837
 20
-6.1208272191
 30
0.0
 10
-11.1288335244
 20
-6.1245714319
 30
0.0
 11
-10.8288689259
 21
-6.1194195093
 31
0.0
 11
-10.9200780057
 21
-6.1196677156
 31
0.0
 11
-11.0034872455
 21
-6.1203992342
 31
0.0
 11
-11.0695767028
 21
-6.1215333198
 31
0.0
 11
-11.1130279113
 21
-6.1229812095
 31
0.0
 11
-11.1288335244
 21
-6.1245714319
 31
0.0
  0
SPLINE
  5
64C
100
AcDbEntity
  8
RACCORDO
100
AcDbSpline
 62
7
  6
CONTINUOUS
 70
0
 71
3
 72
12
 73
8
 74
6
 42
0.0000001
 43
0.0000001
 44
0.0000000001
 12
0.212182242
 22
-0.2121828612
 32
0.0
 13
0.3000714422
 23
-0.0
 33
0.0
 40
0.0
 40
0.0
 40
0.0
 40
0.0
 40
0.0528761536
 40
0.1976675351
 40
0.4178908253
 40
0.6958877974
 40
1.0
 40
1.0
 40
1.0
 40
1.0
 10
-11.1253133388
 20
1.0467055751
 30
0.0
 10
-11.1215735452
 20
1.0429657706
 30
0.0
 10
-11.0984077478
 20
1.0481026576
 30
0.0
 10
-11.0596688995
 20
1.0413687441
 30
0.0
 10
-10.9938037885
 20
1.0431948299
 30
0.0
 10
-10.9141568959
 20
1.0414298395
 30
0.0
 10
-10.8557772364
 20
1.0415611992
 30
0.0
 10
-10.825358774
 20
1.0415611992
 30
0.0
 11
-11.1253133388
 21
1.0467055751
 31
0.0
 11
-11.1095262882
 21
1.0451185087
 31
0.0
 11
-11.0661025865
 21
1.0436728736
 31
0.0
 11
-11.0000295745
 21
1.0425401768
 31
0.0
 11
-10.9166138239
 21
1.0418093022
 31
0.0
 11
-10.825358774
 21
1.0415611992
 31
0.0
  0
SPLINE
  5
64D
100
AcDbEntity
  8
RACCORDO
100
AcDbSpline
 62
7
  6
CONTINUOUS
 70
0
 71
3
 72
12
 73
8
 74
6
 42
0.0000001
 43
0.0000001
 44
0.0000000001
 12
-0.3000746033
 22
-0.0
 32
0.0
 13
-0.2121845123
 23
-0.2121850614
 33
0.0
 40
0.0
 40
0.0
 40
0.0
 40
0.0
 40
0.3040426971
 40
0.5820262833
 40
0.8022695576
 40
0.9470979026
 40
1.0
 40
1.0
 40
1.0
 40
1.0
 10
-10.8251156376
 20
1.7843364382
 30
0.0
 10
-10.8555274682
 20
1.7843364382
 30
0.0
 10
-10.9138993831
 20
1.7844676065
 30
0.0
 10
-10.9935409787
 20
1.7827027579
 30
0.0
 10
-11.0594110436
 20
1.7845279229
 30
0.0
 10
-11.0981581523
 20
1.7777929503
 30
0.0
 10
-11.1213315628
 20
1.7829305394
 30
0.0
 10
-11.1250732314
 20
1.7791888611
 30
0.0
 11
-10.8251156376
 21
1.7843364382
 31
0.0
 11
-10.9163507919
 21
1.7840882925
 31
0.0
 11
-10.9997634019
 21
1.7833571464
 31
0.0
 11
-11.0658430977
 21
1.7822238622
 31
0.0
 11
-11.1092783235
 21
1.7807772707
 31
0.0
 11
-11.1250732314
 21
1.7791888611
 31
0.0
  0
SPLINE
  5
64E
100
AcDbEntity
  8
RACCORDO
100
AcDbSpline
 62
7
  6
CONTINUOUS
 70
0
 71
3
 72
12
 73
8
 74
6
 42
0.0000001
 43
0.0000001
 44
0.0000000001
 12
-0.2121906568
 22
0.2121890748
 32
0.0
 13
-0.300081786
 23
-0.0
 33
0.0
 40
0.0
 40
0.0
 40
0.0
 40
0.0
 40
0.0529369308
 40
0.1978151849
 40
0.4180857579
 40
0.6960514707
 40
1.0
 40
1.0
 40
1.0
 40
1.0
 10
11.1272692267
 20
-6.1245714319
 30
0.0
 10
11.123524986
 20
-6.1208272191
 30
0.0
 10
11.1003411347
 20
-6.1259657799
 30
0.0
 10
11.0615824519
 20
-6.1192293332
 30
0.0
 10
10.9957050204
 20
-6.1210532714
 30
0.0
 10
10.9160697783
 20
-6.1192886007
 30
0.0
 10
10.8577077674
 20
-6.1194195093
 30
0.0
 10
10.8273046282
 20
-6.1194195093
 30
0.0
 11
11.1272692267
 21
-6.1245714319
 31
0.0
 11
11.1114636136
 21
-6.1229812095
 31
0.0
 11
11.0680124051
 21
-6.1215333198
 31
0.0
 11
11.0019229478
 21
-6.1203992342
 31
0.0
 11
10.918513708
 21
-6.1196677156
 31
0.0
 11
10.8273046282
 21
-6.1194195093
 31
0.0
  0
SPLINE
  5
64F
100
AcDbEntity
  8
RACCORDO
100
AcDbSpline
 62
7
  6
CONTINUOUS
 70
0
 71
3
 72
12
 73
8
 74
6
 42
0.0000001
 43
0.0000001
 44
0.0000000001
 12
0.3000754696
 22
-0.0
 32
0.0
 13
0.2121872724
 23
0.2121835264
 33
0.0
 40
0.0
 40
0.0
 40
0.0
 40
0.0
 40
0.3040871422
 40
0.5820796242
 40
0.8023103374
 40
0.9471148167
 40
1.0
 40
1.0
 40
1.0
 40
1.0
 10
10.8277845662
 20
-6.8544458838
 30
0.0
 10
10.8582009302
 20
-6.8544458838
 30
0.0
 10
10.9165783893
 20
-6.8545771708
 30
0.0
 10
10.9962242071
 20
-6.8528122259
 30
0.0
 10
11.0620917358
 20
-6.8546379825
 30
0.0
 10
11.1008339779
 20
-6.8479036887
 30
0.0
 10
11.1240025915
 20
-6.8530408085
 30
0.0
 10
11.1277431124
 20
-6.8493003536
 30
0.0
 11
10.8277845662
 21
-6.8544458838
 31
0.0
 11
10.9190333208
 21
-6.8541977619
 31
0.0
 11
11.0024488427
 21
-6.8534667853
 31
0.0
 11
11.0685249659
 21
-6.8523338726
 31
0.0
 11
11.1119531721
 21
-6.8508878932
 31
0.0
 11
11.1277431124
 21
-6.8493003536
 31
0.0
  0
SPLINE
  5
650
100
AcDbEntity
  8
RACCORDO
100
AcDbSpline
 62
7
  6
CONTINUOUS
 70
0
 71
3
 72
12
 73
8
 74
6
 42
0.0000001
 43
0.0000001
 44
0.0000000001
 12
-0.2121845123
 22
0.2121850614
 32
0.0
 13
-0.3000746033
 23
0.0
 33
0.0
 40
0.0
 40
0.0
 40
0.0
 40
0.0
 40
0.0529020974
 40
0.1977304424
 40
0.4179737167
 40
0.6959573029
 40
1.0
 40
1.0
 40
1.0
 40
1.0
 10
11.1235089337
 20
1.7791888611
 30
0.0
 10
11.1197672651
 20
1.7829305394
 30
0.0
 10
11.0965938546
 20
1.7777929503
 30
0.0
 10
11.0578467459
 20
1.7845279229
 30
0.0
 10
10.991976681
 20
1.7827027579
 30
0.0
 10
10.9123350854
 20
1.7844676065
 30
0.0
 10
10.8539631704
 20
1.7843364382
 30
0.0
 10
10.8235513399
 20
1.7843364382
 30
0.0
 11
11.1235089337
 21
1.7791888611
 31
0.0
 11
11.1077140258
 21
1.7807772707
 31
0.0
 11
11.0642788
 21
1.7822238622
 31
0.0
 11
10.9981991042
 21
1.7833571464
 31
0.0
 11
10.9147864941
 21
1.7840882925
 31
0.0
 11
10.8235513399
 21
1.7843364382
 31
0.0
  0
SPLINE
  5
651
100
AcDbEntity
  8
RACCORDO
100
AcDbSpline
 62
7
  6
CONTINUOUS
 70
0
 71
3
 72
12
 73
8
 74
6
 42
0.0000001
 43
0.0000001
 44
0.0000000001
 12
0.3000714422
 22
0.0
 32
0.0
 13
0.212182242
 23
0.2121828612
 33
0.0
 40
0.0
 40
0.0
 40
0.0
 40
0.0
 40
0.3041122026
 40
0.5821091747
 40
0.8023324649
 40
0.9471238464
 40
1.0
 40
1.0
 40
1.0
 40
1.0
 10
10.8237944763
 20
1.0415611992
 30
0.0
 10
10.8542129387
 20
1.0415611992
 30
0.0
 10
10.9125925982
 20
1.0414298395
 30
0.0
 10
10.9922394908
 20
1.0431948299
 30
0.0
 10
11.0581046017
 20
1.0413687441
 30
0.0
 10
11.0968434501
 20
1.0481026576
 30
0.0
 10
11.1200092475
 20
1.0429657706
 30
0.0
 10
11.1237490411
 20
1.0467055751
 30
0.0
 11
10.8237944763
 21
1.0415611992
 31
0.0
 11
10.9150495262
 21
1.0418093022
 31
0.0
 11
10.9984652767
 21
1.0425401768
 31
0.0
 11
11.0645382888
 21
1.0436728736
 31
0.0
 11
11.1079619905
 21
1.0451185087
 31
0.0
 11
11.1237490411
 21
1.0467055751
 31
0.0
  0
SPLINE
  5
652
100
AcDbEntity
  8
RACCORDO
100
AcDbSpline
 62
253
  6
CONTINUOUS
 70
0
 71
3
 72
11
 73
7
 74
5
 42
0.0000001
 43
0.0000001
 44
0.0000000001
 12
0.000000661
 22
-0.353571321
 32
0.0
 13
-0.0098781864
 23
-0.3534333042
 33
0.0
 40
0.0
 40
0.0
 40
0.0
 40
0.0
 40
0.2733034014
 40
0.5418653407
 40
0.7898898962
 40
1.0
 40
1.0
 40
1.0
 40
1.0
 10
7.2544086307
 20
6.369918609
 30
0.0
 10
7.2544086909
 20
6.3377078607
 30
0.0
 10
7.2542376922
 20
6.2738450478
 30
0.0
 10
7.253467783
 20
6.1807535336
 30
0.0
 10
7.2522132291
 20
6.0951157798
 30
0.0
 10
7.2510105317
 20
6.0411338577
 30
0.0
 10
7.2503186961
 20
6.016380555
 30
0.0
 11
7.2544086307
 21
6.369918609
 31
0.0
 11
7.2541453365
 21
6.273286723
 31
0.0
 11
7.2533428167
 21
6.1783343146
 31
0.0
 11
7.2520270842
 21
6.0906498158
 31
0.0
 11
7.2503186961
 21
6.016380555
 31
0.0
  0
SPLINE
  5
653
100
AcDbEntity
  8
RACCORDO
100
AcDbSpline
 62
253
  6
CONTINUOUS
 70
0
 71
3
 72
11
 73
7
 74
5
 42
0.0000001
 43
0.0000001
 44
0.0000000001
 12
0.000000661
 22
-0.353571321
 32
0.0
 13
-0.0098781864
 23
-0.3534333042
 33
0.0
 40
0.0
 40
0.0
 40
0.0
 40
0.0
 40
0.2733034014
 40
0.5418653407
 40
0.7898898962
 40
1.0
 40
1.0
 40
1.0
 40
1.0
 10
-7.0455913693
 20
6.369918609
 30
0.0
 10
-7.0455913091
 20
6.3377078607
 30
0.0
 10
-7.0457623078
 20
6.2738450478
 30
0.0
 10
-7.046532217
 20
6.1807535336
 30
0.0
 10
-7.0477867709
 20
6.0951157798
 30
0.0
 10
-7.0489894683
 20
6.0411338577
 30
0.0
 10
-7.0496813039
 20
6.016380555
 30
0.0
 11
-7.0455913693
 21
6.369918609
 31
0.0
 11
-7.0458546635
 21
6.273286723
 31
0.0
 11
-7.0466571833
 21
6.1783343146
 31
0.0
 11
-7.0479729158
 21
6.0906498158
 31
0.0
 11
-7.0496813039
 21
6.016380555
 31
0.0
  0
SPLINE
  5
654
100
AcDbEntity
  8
RACCORDO
100
AcDbSpline
 62
253
  6
CONTINUOUS
 70
0
 71
3
 72
11
 73
7
 74
5
 42
0.0000001
 43
0.0000001
 44
0.0000000001
 12
-0.0098781004
 22
0.3534330094
 32
0.0
 13
0.0000006738
 23
0.3535710239
 33
0.0
 40
0.0
 40
0.0
 40
0.0
 40
0.0
 40
0.210108614
 40
0.4581332567
 40
0.7266954159
 40
1.0
 40
1.0
 40
1.0
 40
1.0
 10
-7.2518829938
 20
6.016380555
 30
0.0
 10
-7.2525748185
 20
6.0411336616
 30
0.0
 10
-7.2537775265
 20
6.0951153726
 30
0.0
 10
-7.2550320697
 20
6.1807529152
 30
0.0
 10
-7.2558019873
 20
6.2738445267
 30
0.0
 10
-7.255972989
 20
6.3377074513
 30
0.0
 10
-7.2559729276
 20
6.3699183119
 30
0.0
 11
-7.2518829938
 21
6.016380555
 31
0.0
 11
-7.2535913731
 21
6.0906492267
 31
0.0
 11
-7.2549071059
 21
6.1783336826
 31
0.0
 11
-7.2557096301
 21
6.2732860889
 31
0.0
 11
-7.2559729276
 21
6.3699183119
 31
0.0
  0
SPLINE
  5
655
100
AcDbEntity
  8
RACCORDO
100
AcDbSpline
 62
7
  6
CONTINUOUS
 70
0
 71
3
 72
11
 73
7
 74
5
 42
0.0000001
 43
0.0000001
 44
0.0000000001
 12
0.1877591309
 22
0.0090044277
 32
0.0
 13
0.1879749211
 23
0.0
 33
0.0
 40
0.0
 40
0.0
 40
0.0
 40
0.0
 40
0.1555665837
 40
0.3898430933
 40
0.6801151059
 40
1.0
 40
1.0
 40
1.0
 40
1.0
 10
4.2411648902
 20
5.5864196637
 30
0.0
 10
4.250901239
 20
5.5868865931
 30
0.0
 10
4.275323415
 20
5.5875150312
 30
0.0
 10
4.3179317992
 20
5.5881939831
 30
0.0
 10
4.3708418771
 20
5.5886169558
 30
0.0
 10
4.4090731727
 20
5.588717176
 30
0.0
 10
4.4291166186
 20
5.588717176
 30
0.0
 11
4.2411648902
 21
5.5864196637
 31
0.0
 11
4.2703927022
 21
5.5873500484
 31
0.0
 11
4.31442466
 21
5.5880860391
 31
0.0
 11
4.3689864979
 21
5.5885556353
 31
0.0
 11
4.4291166186
 21
5.588717176
 31
0.0
  0
SPLINE
  5
656
100
AcDbEntity
  8
RACCORDO
100
AcDbSpline
 62
7
  6
CONTINUOUS
 70
0
 71
3
 72
11
 73
7
 74
5
 42
0.0000001
 43
0.0000001
 44
0.0000000001
 12
-0.1879629201
 22
0.0
 32
0.0
 13
-0.1877471435
 23
0.009003857
 33
0.0
 40
0.0
 40
0.0
 40
0.0
 40
0.0
 40
0.3199428211
 40
0.6102303145
 40
0.8444792159
 40
1.0
 40
1.0
 40
1.0
 40
1.0
 10
4.4225937134
 20
3.9372501225
 30
0.0
 10
4.4025479177
 20
3.9372501225
 30
0.0
 10
4.3643144638
 20
3.9373503257
 30
0.0
 10
4.3114048934
 20
3.937773207
 30
0.0
 10
4.2688028577
 20
3.9384519653
 30
0.0
 10
4.2443868361
 20
3.9390801493
 30
0.0
 10
4.2346539751
 20
3.9395469116
 30
0.0
 11
4.4225937134
 21
3.9372501225
 31
0.0
 11
4.3624565434
 21
3.9374116508
 31
0.0
 11
4.3078952786
 21
3.937881165
 31
0.0
 11
4.2638713189
 21
3.9386169254
 31
0.0
 11
4.2346539751
 21
3.9395469116
 31
0.0
  0
SPLINE
  5
657
100
AcDbEntity
  8
RACCORDO
100
AcDbSpline
 62
7
  6
CONTINUOUS
 70
0
 71
3
 72
11
 73
7
 74
5
 42
0.0000001
 43
0.0000001
 44
0.0000000001
 12
-0.1877471435
 22
-0.009003857
 32
0.0
 13
-0.1879629201
 23
0.0
 33
0.0
 40
0.0
 40
0.0
 40
0.0
 40
0.0
 40
0.1555207841
 40
0.3897696855
 40
0.6800571789
 40
1.0
 40
1.0
 40
1.0
 40
1.0
 10
-4.2362182728
 20
3.9395469116
 30
0.0
 10
-4.2459511338
 20
3.9390801493
 30
0.0
 10
-4.2703671554
 20
3.9384519653
 30
0.0
 10
-4.3129691911
 20
3.937773207
 30
0.0
 10
-4.3658787615
 20
3.9373503257
 30
0.0
 10
-4.4041122154
 20
3.9372501225
 30
0.0
 10
-4.4241580111
 20
3.9372501225
 30
0.0
 11
-4.2362182728
 21
3.9395469116
 31
0.0
 11
-4.2654356166
 21
3.9386169254
 31
0.0
 11
-4.3094595763
 21
3.937881165
 31
0.0
 11
-4.3640208411
 21
3.9374116508
 31
0.0
 11
-4.4241580111
 21
3.9372501225
 31
0.0
  0
SPLINE
  5
658
100
AcDbEntity
  8
RACCORDO
100
AcDbSpline
 62
7
  6
CONTINUOUS
 70
0
 71
3
 72
11
 73
7
 74
5
 42
0.0000001
 43
0.0000001
 44
0.0000000001
 12
0.1879749211
 22
0.0
 32
0.0
 13
0.1877591309
 23
-0.0090044277
 33
0.0
 40
0.0
 40
0.0
 40
0.0
 40
0.0
 40
0.3198848941
 40
0.6101569067
 40
0.8444334163
 40
1.0
 40
1.0
 40
1.0
 40
1.0
 10
-4.4306809163
 20
5.588717176
 30
0.0
 10
-4.4106374704
 20
5.588717176
 30
0.0
 10
-4.3724061749
 20
5.5886169558
 30
0.0
 10
-4.3194960969
 20
5.5881939831
 30
0.0
 10
-4.2768877128
 20
5.5875150312
 30
0.0
 10
-4.2524655368
 20
5.5868865931
 30
0.0
 10
-4.2427291879
 20
5.5864196637
 30
0.0
 11
-4.4306809163
 21
5.588717176
 31
0.0
 11
-4.3705507956
 21
5.5885556353
 31
0.0
 11
-4.3159889577
 21
5.5880860391
 31
0.0
 11
-4.2719569999
 21
5.5873500484
 31
0.0
 11
-4.2427291879
 21
5.5864196637
 31
0.0
  0
SPLINE
  5
659
100
AcDbEntity
  8
ASSI
100
AcDbSpline
 62
7
  6
CONTINUOUS
 70
0
 71
3
 72
9
 73
5
 74
3
 42
0.0000001
 43
0.0000001
 44
0.0000000001
 12
-0.0094537596
 22
0.4232572779
 32
0.0
 13
-0.4233861002
 23
-0.0063259668
 33
0.0
 40
0.0
 40
0.0
 40
0.0
 40
0.0
 40
0.479537544
 40
1.0
 40
1.0
 40
1.0
 40
1.0
 10
-1.3121103174
 20
-1.1765506912
 30
0.0
 10
-1.3136214616
 20
-1.1088947727
 30
0.0
 10
-1.3422432331
 20
-0.9517526963
 30
0.0
 10
-1.5026761797
 20
-0.8998207566
 30
0.0
 10
-1.5761283696
 20
-0.9009182326
 30
0.0
 11
-1.3121103174
 21
-1.1765506912
 31
0.0
 11
-1.371382694
 21
-0.9823774511
 31
0.0
 11
-1.5761283696
 21
-0.9009182326
 31
0.0
  0
SPLINE
  5
65A
100
AcDbEntity
  8
ASSI
100
AcDbSpline
 62
7
  6
CONTINUOUS
 70
0
 71
3
 72
9
 73
5
 74
3
 42
0.0000001
 43
0.0000001
 44
0.0000000001
 12
-0.3133621804
 22
-0.004682097
 32
0.0
 13
-0.0361338581
 23
-0.3113313547
 33
0.0
 40
0.0
 40
0.0
 40
0.0
 40
0.0
 40
0.4988583522
 40
1.0
 40
1.0
 40
1.0
 40
1.0
 10
-1.5761283698
 20
-0.9009182179
 30
0.0
 10
-1.6282361501
 20
-0.9016967857
 30
0.0
 10
-1.7369101073
 20
-0.9441213328
 30
0.0
 10
-1.7827272511
 20
-1.0493575781
 30
0.0
 10
-1.7887633115
 20
-1.1013646141
 30
0.0
 11
-1.5761283698
 21
-0.9009182179
 31
0.0
 11
-1.7210194476
 21
-0.9596557626
 31
0.0
 11
-1.7887633115
 21
-1.1013646141
 31
0.0
  0
SPLINE
  5
65B
100
AcDbEntity
  8
ASSI
100
AcDbSpline
 62
7
  6
CONTINUOUS
 70
0
 71
3
 72
9
 73
5
 74
3
 42
0.0000001
 43
0.0000001
 44
0.0000000001
 12
-0.0321345863
 22
-0.2768734098
 32
0.0
 13
0.0468836161
 23
-0.2747605688
 33
0.0
 40
0.0
 40
0.0
 40
0.0
 40
0.0
 40
0.7295958321
 40
1.0
 40
1.0
 40
1.0
 40
1.0
 10
-1.7887633114
 20
-1.1013646141
 30
0.0
 10
-1.7965783981
 20
-1.1686998427
 30
0.0
 10
-1.796879646
 20
-1.2626925313
 30
0.0
 10
-1.7829816416
 20
-1.3545659363
 30
0.0
 10
-1.7787557998
 20
-1.379331404
 30
0.0
 11
-1.7887633114
 21
-1.1013646141
 31
0.0
 11
-1.7894595714
 21
-1.3047250744
 31
0.0
 11
-1.7787557998
 21
-1.379331404
 31
0.0
  0
SPLINE
  5
65C
100
AcDbEntity
  8
ASSI
100
AcDbSpline
 62
7
  6
CONTINUOUS
 70
0
 71
3
 72
9
 73
5
 74
3
 42
0.0000001
 43
0.0000001
 44
0.0000000001
 12
-0.128341011
 22
0.8723735981
 32
0.0
 13
0.2997650463
 23
0.8292493193
 33
0.0
 40
0.0
 40
0.0
 40
0.0
 40
0.0
 40
0.7041528059
 40
1.0
 40
1.0
 40
1.0
 40
1.0
 10
-2.048484231
 20
-1.7209661717
 30
0.0
 10
-2.0786081254
 20
-1.5162047327
 30
0.0
 10
-2.1082603268
 20
-1.2208104069
 30
0.0
 10
-2.0601040096
 20
-0.9269577073
 30
0.0
 10
-2.0305424603
 20
-0.8451806792
 30
0.0
 11
-2.048484231
 21
-1.7209661717
 31
0.0
 11
-2.0817875979
 21
-1.1009636323
 31
0.0
 11
-2.0305424603
 21
-0.8451806792
 31
0.0
  0
SPLINE
  5
65D
100
AcDbEntity
  8
ASSI
100
AcDbSpline
 62
7
  6
CONTINUOUS
 70
0
 71
3
 72
20
 73
16
 74
14
 42
0.0000001
 43
0.0000001
 44
0.0000000001
 12
0.3602221359
 22
0.9969834579
 32
0.0
 13
0.1356584285
 23
-1.0513528212
 33
0.0
 40
0.0
 40
0.0
 40
0.0
 40
0.0
 40
0.079756987
 40
0.1893481532
 40
0.2529748389
 40
0.3223669702
 40
0.3985017405
 40
0.4831988921
 40
0.5372476303
 40
0.5875584989
 40
0.6787382851
 40
0.7596505358
 40
0.8314106377
 40
0.9440765302
 40
1.0
 40
1.0
 40
1.0
 40
1.0
 10
-2.0305424983
 20
-0.8451806639
 30
0.0
 10
-2.0209657542
 20
-0.8186751983
 30
0.0
 10
-1.9883061325
 20
-0.7594346458
 30
0.0
 10
-1.9286104985
 20
-0.6916690062
 30
0.0
 10
-1.8598489059
 20
-0.6399621882
 30
0.0
 10
-1.7942510692
 20
-0.6051969245
 30
0.0
 10
-1.7165965497
 20
-0.5796226654
 30
0.0
 10
-1.6410671293
 20
-0.568728164
 30
0.0
 10
-1.574180791
 20
-0.5675392919
 30
0.0
 10
-1.5052162441
 20
-0.5729267517
 30
0.0
 10
-1.4279615377
 20
-0.5903499242
 30
0.0
 10
-1.3488705059
 20
-0.6252507647
 30
0.0
 10
-1.2696162164
 20
-0.6773063764
 30
0.0
 10
-1.2138043471
 20
-0.7393187728
 30
0.0
 10
-1.1745358777
 20
-0.7891222203
 30
0.0
 10
-1.1720070476
 20
-0.8087206529
 30
0.0
 11
-2.0305424983
 21
-0.8451806639
 31
0.0
 11
-1.9913191078
 21
-0.7702802086
 31
0.0
 11
-1.9144740705
 21
-0.6831522529
 31
0.0
 11
-1.8605635383
 21
-0.642618597
 31
0.0
 11
-1.7955827558
 21
-0.6081419999
 31
0.0
 11
-1.7189730417
 21
-0.5827500947
 31
0.0
 11
-1.6301757151
 21
-0.5694705146
 31
0.0
 11
-1.5728891895
 21
-0.5684630526
 31
0.0
 11
-1.5197255136
 21
-0.5727093212
 31
0.0
 11
-1.4255072378
 21
-0.594283921
 31
0.0
 11
-1.3470019418
 21
-0.6288360545
 31
0.0
 11
-1.2836906795
 21
-0.6710074626
 31
0.0
 11
-1.2005744721
 21
-0.7567750648
 31
0.0
 11
-1.1720070476
 21
-0.8087206529
 31
0.0
  0
SPLINE
  5
65E
100
AcDbEntity
  8
ASSI
100
AcDbSpline
 62
7
  6
CONTINUOUS
 70
0
 71
3
 72
9
 73
5
 74
3
 42
0.0000001
 43
0.0000001
 44
0.0000000001
 12
0.2092440046
 22
0.2567965258
 32
0.0
 13
0.3209543859
 23
0.0874412864
 33
0.0
 40
0.0
 40
0.0
 40
0.0
 40
0.0
 40
0.7111552999
 40
1.0
 40
1.0
 40
1.0
 40
1.0
 10
-1.1300136176
 20
-0.7550545332
 30
0.0
 10
-1.0804119566
 20
-0.6941804631
 30
0.0
 10
-0.9642608008
 20
-0.6396149554
 30
0.0
 10
-0.8594277723
 20
-0.6126026528
 30
0.0
 10
-0.8285257811
 20
-0.6041836687
 30
0.0
 11
-1.1300136176
 21
-0.7550545332
 31
0.0
 11
-0.9209329873
 21
-0.6305061723
 31
0.0
 11
-0.8285257811
 21
-0.6041836687
 31
0.0
  0
SPLINE
  5
65F
100
AcDbEntity
  8
ASSI
100
AcDbSpline
 62
7
  6
CONTINUOUS
 70
0
 71
3
 72
9
 73
5
 74
3
 42
0.0000001
 43
0.0000001
 44
0.0000000001
 12
0.4590342986
 22
0.125059974
 32
0.0
 13
0.4591324757
 23
0.1246990799
 33
0.0
 40
0.0
 40
0.0
 40
0.0
 40
0.0
 40
0.8019701206
 40
1.0
 40
1.0
 40
1.0
 40
1.0
 10
-0.8285257812
 20
-0.6041836685
 30
0.0
 10
-0.7058151839
 20
-0.5707522143
 30
0.0
 10
-0.5521769399
 20
-0.5314093857
 30
0.0
 10
-0.3987887784
 20
-0.4911236584
 30
0.0
 10
-0.3684814622
 20
-0.4828922772
 30
0.0
 11
-0.8285257812
 21
-0.6041836685
 31
0.0
 11
-0.4595494638
 21
-0.5070422373
 31
0.0
 11
-0.3684814622
 21
-0.4828922772
 31
0.0
  0
SPLINE
  5
660
100
AcDbEntity
  8
ASSI
100
AcDbSpline
 62
7
  6
CONTINUOUS
 70
0
 71
3
 72
9
 73
5
 74
3
 42
0.0000001
 43
0.0000001
 44
0.0000000001
 12
-0.5174692086
 22
-0.1487744753
 32
0.0
 13
-0.5040219036
 23
-0.1893972716
 33
0.0
 40
0.0
 40
0.0
 40
0.0
 40
0.0
 40
0.4412847493
 40
1.0
 40
1.0
 40
1.0
 40
1.0
 10
-0.3684814622
 20
-0.8241956205
 30
0.0
 10
-0.4445985522
 20
-0.8460795895
 30
0.0
 10
-0.6163811886
 20
-0.8977515097
 30
0.0
 10
-0.7901744644
 20
-0.9441204161
 30
0.0
 10
-0.8840427058
 20
-0.9793934642
 30
0.0
 11
-0.3684814622
 21
-0.8241956205
 31
0.0
 11
-0.5966002038
 21
-0.8906509825
 31
0.0
 11
-0.8840427058
 21
-0.9793934642
 31
0.0
  0
SPLINE
  5
661
100
AcDbEntity
  8
ASSI
100
AcDbSpline
 62
7
  6
CONTINUOUS
 70
0
 71
3
 72
9
 73
5
 74
3
 42
0.0000001
 43
0.0000001
 44
0.0000000001
 12
-0.243894777
 22
-0.0916489686
 32
0.0
 13
-0.0
 23
-0.2605161169
 33
0.0
 40
0.0
 40
0.0
 40
0.0
 40
0.0
 40
0.6439294634
 40
1.0
 40
1.0
 40
1.0
 40
1.0
 10
-0.8840427129
 20
-0.9793934455
 30
0.0
 10
-0.9363930571
 20
-0.9990652692
 30
0.0
 10
-1.0149986199
 20
-1.057483301
 30
0.0
 10
-1.0337138647
 20
-1.1463948121
 30
0.0
 10
-1.0337138647
 20
-1.1773155166
 30
0.0
 11
-0.8840427129
 21
-0.9793934455
 31
0.0
 11
-1.0127927028
 21
-1.0869434264
 31
0.0
 11
-1.0337138647
 21
-1.1773155166
 31
0.0
  0
SPLINE
  5
662
100
AcDbEntity
  8
ASSI
100
AcDbSpline
 62
7
  6
CONTINUOUS
 70
0
 71
3
 72
10
 73
6
 74
4
 42
0.0000001
 43
0.0000001
 44
0.0000000001
 12
-0.1883407282
 22
0.1821744696
 32
0.0
 13
-0.1853866385
 23
0.1851798087
 33
0.0
 40
0.0
 40
0.0
 40
0.0
 40
0.0
 40
0.2861514979
 40
0.6199988295
 40
1.0
 40
1.0
 40
1.0
 40
1.0
 10
11.0148129939
 20
-7.5607181169
 30
0.0
 10
10.9968483334
 20
-7.5433416178
 30
0.0
 10
10.9580647344
 20
-7.5055474302
 30
0.0
 10
10.8958348169
 20
-7.444258355
 30
0.0
 10
10.8516215963
 20
-7.4002954008
 30
0.0
 10
10.8281392164
 20
-7.3768392194
 30
0.0
 11
11.0148129939
 21
-7.5607181169
 31
0.0
 11
10.9610911566
 21
-7.5084112347
 31
0.0
 11
10.8987527906
 21
-7.447040748
 31
0.0
 11
10.8281392164
 21
-7.3768392194
 31
0.0
  0
SPLINE
  5
663
100
AcDbEntity
  8
ASSI
100
AcDbSpline
 62
7
  6
CONTINUOUS
 70
0
 71
3
 72
10
 73
6
 74
4
 42
0.0000001
 43
0.0000001
 44
0.0000000001
 12
0.1932351421
 22
0.1319011105
 32
0.0
 13
0.0048001619
 23
0.233911696
 33
0.0
 40
0.0
 40
0.0
 40
0.0
 40
0.0
 40
0.3395046921
 40
0.6724952268
 40
1.0
 40
1.0
 40
1.0
 40
1.0
 10
11.0148129939
 20
-7.5607181169
 30
0.0
 10
11.036681073
 20
-7.5457911016
 30
0.0
 10
11.076263763
 20
-7.5101444834
 30
0.0
 10
11.1170619501
 20
-7.4422539617
 30
0.0
 10
11.1275694997
 20
-7.3905224867
 30
0.0
 10
11.128093525
 20
-7.3649867544
 30
0.0
 11
11.0148129939
 21
-7.5607181169
 31
0.0
 11
11.0735515449
 21
-7.5072481191
 31
0.0
 11
11.1131073412
 21
-7.4401302727
 31
0.0
 11
11.128093525
 21
-7.3649867544
 31
0.0
  0
SPLINE
  5
664
100
AcDbEntity
  8
ASSI
100
AcDbSpline
 62
7
  6
CONTINUOUS
 70
0
 71
3
 72
10
 73
6
 74
4
 42
0.0000001
 43
0.0000001
 44
0.0000000001
 12
0.2111534819
 22
0.0378729015
 32
0.0
 13
0.1518156339
 23
0.1515657049
 33
0.0
 40
0.0
 40
0.0
 40
0.0
 40
0.0
 40
0.3420454831
 40
0.6747450136
 40
1.0
 40
1.0
 40
1.0
 40
1.0
 10
10.8281392151
 20
-7.6604290666
 30
0.0
 10
10.8522139133
 20
-7.6561109817
 30
0.0
 10
10.8988893839
 20
-7.6420981499
 30
0.0
 10
10.9618732663
 20
-7.6073616011
 30
0.0
 10
10.9983533966
 20
-7.5771506174
 30
0.0
 10
11.0148129939
 20
-7.5607181169
 30
0.0
 11
10.8281392151
 21
-7.6604290666
 31
0.0
 11
10.8984624063
 21
-7.6394819579
 31
0.0
 11
10.9610738313
 21
-7.6052221744
 31
0.0
 11
11.0148129939
 21
-7.5607181169
 31
0.0
  0
SPLINE
  5
665
100
AcDbEntity
  8
ASSI
100
AcDbSpline
 62
7
  6
CONTINUOUS
 70
0
 71
3
 72
11
 73
7
 74
5
 42
0.0000001
 43
0.0000001
 44
0.0000000001
 12
-0.1934720276
 22
0.1323336071
 32
0.0
 13
-0.004777495
 23
0.2343518393
 33
0.0
 40
0.0
 40
0.0
 40
0.0
 40
0.0
 40
0.2553623096
 40
0.5075354551
 40
0.7552605149
 40
1.0
 40
1.0
 40
1.0
 40
1.0
 10
-11.0163703547
 20
-7.5607247587
 30
0.0
 10
-11.0328388426
 20
-7.5494604202
 30
0.0
 10
-11.0634218028
 20
-7.5236945956
 30
0.0
 10
-11.0996117468
 20
-7.4764491108
 30
0.0
 10
-11.1232571244
 20
-7.4226496475
 30
0.0
 10
-11.1292680755
 20
-7.3841051372
 30
0.0
 10
-11.1296578227
 20
-7.3649867544
 30
0.0
 11
-11.0163703547
 21
-7.5607247587
 31
0.0
 11
-11.06202841
 21
-7.5220180443
 31
0.0
 11
-11.0977688205
 21
-7.4749377052
 31
0.0
 11
-11.1209159417
 21
-7.4216838416
 31
0.0
 11
-11.1296578227
 21
-7.3649867544
 31
0.0
  0
SPLINE
  5
666
100
AcDbEntity
  8
ASSI
100
AcDbSpline
 62
7
  6
CONTINUOUS
 70
0
 71
3
 72
10
 73
6
 74
4
 42
0.0000001
 43
0.0000001
 44
0.0000000001
 12
0.1883472662
 22
0.1821697226
 32
0.0
 13
0.1853876284
 23
0.1851807974
 33
0.0
 40
0.0
 40
0.0
 40
0.0
 40
0.0
 40
0.2877120613
 40
0.6240039224
 40
1.0
 40
1.0
 40
1.0
 40
1.0
 10
-11.0163792101
 20
-7.5607181525
 30
0.0
 10
-10.99831595
 20
-7.5432473437
 30
0.0
 10
-10.9592817368
 20
-7.5052086652
 30
0.0
 10
-10.8970543774
 20
-7.4439163214
 30
0.0
 10
-10.8529385212
 20
-7.4000483039
 30
0.0
 10
-10.8297035142
 20
-7.3768392194
 30
0.0
 11
-11.0163792101
 21
-7.5607181525
 31
0.0
 11
-10.9623640076
 21
-7.5081258278
 31
0.0
 11
-10.8995714173
 21
-7.4463030266
 31
0.0
 11
-10.8297035142
 21
-7.3768392194
 31
0.0
  0
SPLINE
  5
667
100
AcDbEntity
  8
ASSI
100
AcDbSpline
 62
7
  6
CONTINUOUS
 70
0
 71
3
 72
10
 73
6
 74
4
 42
0.0000001
 43
0.0000001
 44
0.0000000001
 12
-0.2113510983
 22
0.0367634485
 32
0.0
 13
-0.1528975824
 23
0.1504764673
 33
0.0
 40
0.0
 40
0.0
 40
0.0
 40
0.0
 40
0.3410974996
 40
0.6751553688
 40
1.0
 40
1.0
 40
1.0
 40
1.0
 10
-10.8297035128
 20
-7.6604290666
 30
0.0
 10
-10.8537339565
 20
-7.6562490932
 30
0.0
 10
-10.900390706
 20
-7.6420433511
 30
0.0
 10
-10.9634698293
 20
-7.6074593018
 30
0.0
 10
-10.9998232238
 20
-7.5770119767
 30
0.0
 10
-11.0163792101
 20
-7.5607181525
 30
0.0
 11
-10.8297035128
 21
-7.6604290666
 31
0.0
 11
-10.8998387246
 21
-7.6395613476
 31
0.0
 11
-10.9627119161
 21
-7.6051717918
 31
0.0
 11
-11.0163792101
 21
-7.5607181525
 31
0.0
  0
SPLINE
  5
668
100
AcDbEntity
  8
ASSI
100
AcDbSpline
 62
253
  6
CONTINUOUS
 70
0
 71
3
 72
12
 73
8
 74
6
 42
0.0000001
 43
0.0000001
 44
0.0000000001
 12
-0.0070145166
 22
0.4019838217
 32
0.0
 13
-0.4020297068
 23
0.0035087299
 33
0.0
 40
0.0
 40
0.0
 40
0.0
 40
0.0
 40
0.1664007688
 40
0.3475548035
 40
0.549388854
 40
0.7695487352
 40
1.0
 40
1.0
 40
1.0
 40
1.0
 10
-6.7497269954
 20
5.8042485206
 30
0.0
 10
-6.750116069
 20
5.8265453263
 30
0.0
 10
-6.7618964016
 20
5.8733705127
 30
0.0
 10
-6.8075417525
 20
5.9330784083
 30
0.0
 10
-6.875134023
 20
5.9793872916
 30
0.0
 10
-6.9582467594
 20
6.0090139802
 30
0.0
 10
-7.0187985524
 20
6.0161110246
 30
0.0
 10
-7.0496813039
 20
6.016380555
 30
0.0
 11
-6.7497269954
 21
5.8042485206
 31
0.0
 11
-6.7653151597
 21
5.86930772
 31
0.0
 11
-6.8083069293
 21
5.9280973381
 31
0.0
 11
-6.8745593024
 21
5.9749519765
 31
0.0
 11
-6.9576877149
 21
6.0053563789
 31
0.0
 11
-7.0496813039
 21
6.016380555
 31
0.0
  0
SPLINE
  5
669
100
AcDbEntity
  8
ASSI
100
AcDbSpline
 62
253
  6
CONTINUOUS
 70
0
 71
3
 72
12
 73
8
 74
6
 42
0.0000001
 43
0.0000001
 44
0.0000000001
 12
-0.0070145118
 22
0.401983857
 32
0.0
 13
-0.402029743
 23
0.0035086199
 33
0.0
 40
0.0
 40
0.0
 40
0.0
 40
0.0
 40
0.1663980738
 40
0.3475504099
 40
0.549384185
 40
0.7695456059
 40
1.0
 40
1.0
 40
1.0
 40
1.0
 10
-6.7620695901
 20
5.0971417394
 30
0.0
 10
-6.7624586572
 20
5.1194381859
 30
0.0
 10
-6.7742386388
 20
5.1662627809
 30
0.0
 10
-6.8198831474
 20
5.2259705198
 30
0.0
 10
-6.8874750912
 20
5.2722798187
 30
0.0
 10
-6.9705882905
 20
5.3019070537
 30
0.0
 10
-7.0311407251
 20
5.309004248
 30
0.0
 10
-7.0620238987
 20
5.3092737736
 30
0.0
 11
-6.7620695901
 21
5.0971417394
 31
0.0
 11
-6.7776572747
 21
5.1621999456
 31
0.0
 11
-6.8206482207
 21
5.2209893279
 31
0.0
 11
-6.8869001974
 21
5.2678443474
 31
0.0
 11
-6.9700290672
 21
5.2982493243
 31
0.0
 11
-7.0620238987
 21
5.3092737736
 31
0.0
  0
SPLINE
  5
66A
100
AcDbEntity
  8
ASSI
100
AcDbSpline
 62
253
  6
CONTINUOUS
 70
0
 71
3
 72
12
 73
8
 74
6
 42
0.0000001
 43
0.0000001
 44
0.0000000001
 12
0.0070145165
 22
0.4019838218
 32
0.0
 13
0.4020297069
 23
0.003508728
 33
0.0
 40
0.0
 40
0.0
 40
0.0
 40
0.0
 40
0.1664007686
 40
0.3475548033
 40
0.549388854
 40
0.7695487354
 40
1.0
 40
1.0
 40
1.0
 40
1.0
 10
-7.5394947076
 20
5.0971417394
 30
0.0
 10
-7.5391056339
 20
5.1194385451
 30
0.0
 10
-7.5273253014
 20
5.1662637315
 30
0.0
 10
-7.4816799504
 20
5.2259716271
 30
0.0
 10
-7.4140876799
 20
5.2722805104
 30
0.0
 10
-7.3309749436
 20
5.3019071993
 30
0.0
 10
-7.2704231505
 20
5.3090042435
 30
0.0
 10
-7.239540399
 20
5.3092737738
 30
0.0
 11
-7.5394947076
 21
5.0971417394
 31
0.0
 11
-7.5239065433
 21
5.1622009387
 31
0.0
 11
-7.4809147737
 21
5.2209905568
 31
0.0
 11
-7.4146624005
 21
5.2678451954
 31
0.0
 11
-7.331533988
 21
5.298249598
 31
0.0
 11
-7.239540399
 21
5.3092737738
 31
0.0
  0
SPLINE
  5
66B
100
AcDbEntity
  8
ASSI
100
AcDbSpline
 62
253
  6
CONTINUOUS
 70
0
 71
3
 72
12
 73
8
 74
6
 42
0.0000001
 43
0.0000001
 44
0.0000000001
 12
0.0070145164
 22
0.4019837961
 32
0.0
 13
0.4020296812
 23
0.0035087308
 33
0.0
 40
0.0
 40
0.0
 40
0.0
 40
0.0
 40
0.1664062852
 40
0.3475634824
 40
0.549397719
 40
0.769554416
 40
1.0
 40
1.0
 40
1.0
 40
1.0
 10
-7.5518373023
 20
5.8042485206
 30
0.0
 10
-7.5514482158
 20
5.826546064
 30
0.0
 10
-7.5396671906
 20
5.8733724258
 30
0.0
 10
-7.494020217
 20
5.9330806065
 30
0.0
 10
-7.4264273914
 20
5.9793886485
 30
0.0
 10
-7.3433155683
 20
6.0090142866
 30
0.0
 10
-7.282764982
 20
6.0161110302
 30
0.0
 10
-7.2518829938
 20
6.0163805541
 30
0.0
 11
-7.5518373023
 21
5.8042485206
 31
0.0
 11
-7.5362481706
 21
5.8693097644
 31
0.0
 11
-7.4932548232
 21
5.9280997982
 31
0.0
 11
-7.4270017948
 21
5.9749536306
 31
0.0
 11
-7.3438743401
 21
6.0053569084
 31
0.0
 11
-7.2518829938
 21
6.0163805541
 31
0.0
  0
SPLINE
  5
66C
100
AcDbEntity
  8
ASSI
100
AcDbSpline
 62
253
  6
CONTINUOUS
 70
0
 71
3
 72
12
 73
8
 74
6
 42
0.0000001
 43
0.0000001
 44
0.0000000001
 12
0.0070145165
 22
0.4019838218
 32
0.0
 13
0.4020297069
 23
0.003508728
 33
0.0
 40
0.0
 40
0.0
 40
0.0
 40
0.0
 40
0.1664007686
 40
0.3475548033
 40
0.549388854
 40
0.7695487354
 40
1.0
 40
1.0
 40
1.0
 40
1.0
 10
6.7605052924
 20
5.0971417394
 30
0.0
 10
6.7608943661
 20
5.1194385451
 30
0.0
 10
6.7726746986
 20
5.1662637315
 30
0.0
 10
6.8183200496
 20
5.2259716271
 30
0.0
 10
6.8859123201
 20
5.2722805104
 30
0.0
 10
6.9690250564
 20
5.3019071993
 30
0.0
 10
7.0295768495
 20
5.3090042435
 30
0.0
 10
7.060459601
 20
5.3092737738
 30
0.0
 11
6.7605052924
 21
5.0971417394
 31
0.0
 11
6.7760934567
 21
5.1622009387
 31
0.0
 11
6.8190852263
 21
5.2209905568
 31
0.0
 11
6.8853375995
 21
5.2678451954
 31
0.0
 11
6.968466012
 21
5.298249598
 31
0.0
 11
7.060459601
 21
5.3092737738
 31
0.0
  0
SPLINE
  5
66D
100
AcDbEntity
  8
ASSI
100
AcDbSpline
 62
253
  6
CONTINUOUS
 70
0
 71
3
 72
12
 73
8
 74
6
 42
0.0000001
 43
0.0000001
 44
0.0000000001
 12
0.0070145164
 22
0.4019837961
 32
0.0
 13
0.4020296812
 23
0.0035087308
 33
0.0
 40
0.0
 40
0.0
 40
0.0
 40
0.0
 40
0.1664062852
 40
0.3475634824
 40
0.549397719
 40
0.769554416
 40
1.0
 40
1.0
 40
1.0
 40
1.0
 10
6.7481626977
 20
5.8042485206
 30
0.0
 10
6.7485517842
 20
5.826546064
 30
0.0
 10
6.7603328094
 20
5.8733724258
 30
0.0
 10
6.805979783
 20
5.9330806065
 30
0.0
 10
6.8735726086
 20
5.9793886485
 30
0.0
 10
6.9566844317
 20
6.0090142866
 30
0.0
 10
7.017235018
 20
6.0161110302
 30
0.0
 10
7.0481170062
 20
6.0163805541
 30
0.0
 11
6.7481626977
 21
5.8042485206
 31
0.0
 11
6.7637518294
 21
5.8693097644
 31
0.0
 11
6.8067451768
 21
5.9280997982
 31
0.0
 11
6.8729982052
 21
5.9749536306
 31
0.0
 11
6.9561256599
 21
6.0053569084
 31
0.0
 11
7.0481170062
 21
6.0163805541
 31
0.0
  0
SPLINE
  5
66E
100
AcDbEntity
  8
ASSI
100
AcDbSpline
 62
253
  6
CONTINUOUS
 70
0
 71
3
 72
12
 73
8
 74
6
 42
0.0000001
 43
0.0000001
 44
0.0000000001
 12
-0.0070145166
 22
0.4019838217
 32
0.0
 13
-0.4020297068
 23
0.0035087299
 33
0.0
 40
0.0
 40
0.0
 40
0.0
 40
0.0
 40
0.1664007688
 40
0.3475548035
 40
0.549388854
 40
0.7695487352
 40
1.0
 40
1.0
 40
1.0
 40
1.0
 10
7.5502730046
 20
5.8042485206
 30
0.0
 10
7.549883931
 20
5.8265453263
 30
0.0
 10
7.5381035984
 20
5.8733705127
 30
0.0
 10
7.4924582475
 20
5.9330784083
 30
0.0
 10
7.424865977
 20
5.9793872916
 30
0.0
 10
7.3417532406
 20
6.0090139802
 30
0.0
 10
7.2812014476
 20
6.0161110246
 30
0.0
 10
7.2503186961
 20
6.016380555
 30
0.0
 11
7.5502730046
 21
5.8042485206
 31
0.0
 11
7.5346848403
 21
5.86930772
 31
0.0
 11
7.4916930707
 21
5.9280973381
 31
0.0
 11
7.4254406976
 21
5.9749519765
 31
0.0
 11
7.3423122851
 21
6.0053563789
 31
0.0
 11
7.2503186961
 21
6.016380555
 31
0.0
  0
SPLINE
  5
66F
100
AcDbEntity
  8
ASSI
100
AcDbSpline
 62
253
  6
CONTINUOUS
 70
0
 71
3
 72
12
 73
8
 74
6
 42
0.0000001
 43
0.0000001
 44
0.0000000001
 12
-0.0070145118
 22
0.401983857
 32
0.0
 13
-0.402029743
 23
0.0035086199
 33
0.0
 40
0.0
 40
0.0
 40
0.0
 40
0.0
 40
0.1663980738
 40
0.3475504099
 40
0.549384185
 40
0.7695456059
 40
1.0
 40
1.0
 40
1.0
 40
1.0
 10
7.5379304099
 20
5.0971417394
 30
0.0
 10
7.5375413428
 20
5.1194381859
 30
0.0
 10
7.5257613612
 20
5.1662627809
 30
0.0
 10
7.4801168526
 20
5.2259705198
 30
0.0
 10
7.4125249088
 20
5.2722798187
 30
0.0
 10
7.3294117095
 20
5.3019070537
 30
0.0
 10
7.2688592749
 20
5.309004248
 30
0.0
 10
7.2379761013
 20
5.3092737736
 30
0.0
 11
7.5379304099
 21
5.0971417394
 31
0.0
 11
7.5223427253
 21
5.1621999456
 31
0.0
 11
7.4793517793
 21
5.2209893279
 31
0.0
 11
7.4130998026
 21
5.2678443474
 31
0.0
 11
7.3299709328
 21
5.2982493243
 31
0.0
 11
7.2379761013
 21
5.3092737736
 31
0.0
  0
SPLINE
  5
670
100
AcDbEntity
  8
ASSI
100
AcDbSpline
 62
253
  6
CONTINUOUS
 70
0
 71
3
 72
13
 73
9
 74
7
 42
0.0000001
 43
0.0000001
 44
0.0000000001
 12
0.1860199012
 22
0.4640617589
 32
0.0
 13
0.0000037631
 23
0.4999567178
 33
0.0
 40
0.0
 40
0.0
 40
0.0
 40
0.0
 40
0.0378218875
 40
0.1397846932
 40
0.2991078666
 40
0.5051686897
 40
0.7442254983
 40
1.0
 40
1.0
 40
1.0
 40
1.0
 10
7.0580520086
 20
3.0717070133
 30
0.0
 10
7.0603972165
 20
3.0775575772
 30
0.0
 10
7.0569754262
 20
3.1018403915
 30
0.0
 10
7.0612729043
 20
3.1507959526
 30
0.0
 10
7.06002667
 20
3.2291422274
 30
0.0
 10
7.0612834967
 20
3.3296880033
 30
0.0
 10
7.0613463187
 20
3.4465563063
 30
0.0
 10
7.0614817742
 20
3.5290054674
 30
0.0
 10
7.061482095
 20
3.5716308609
 30
0.0
 11
7.0580520086
 21
3.0717070133
 31
0.0
 11
7.0589430718
 21
3.0905953136
 31
0.0
 11
7.059770987
 21
3.1415655797
 31
0.0
 11
7.06048101
 21
3.2212171061
 31
0.0
 11
7.0610250852
 21
3.3242371622
 31
0.0
 11
7.0613660831
 21
3.4437547331
 31
0.0
 11
7.061482095
 21
3.5716308609
 31
0.0
  0
SPLINE
  5
671
100
AcDbEntity
  8
ASSI
100
AcDbSpline
 62
253
  6
CONTINUOUS
 70
0
 71
3
 72
13
 73
9
 74
7
 42
0.0000001
 43
0.0000001
 44
0.0000000001
 12
0.0000037631
 22
-0.4999567178
 32
0.0
 13
0.1860199013
 23
-0.4640617589
 33
0.0
 40
0.0
 40
0.0
 40
0.0
 40
0.0
 40
0.2557745015
 40
0.4948313101
 40
0.7008921333
 40
0.8602153068
 40
0.9621781125
 40
1.0
 40
1.0
 40
1.0
 40
1.0
 10
7.2369536073
 20
3.5716308609
 30
0.0
 10
7.2369539281
 20
3.5290054674
 30
0.0
 10
7.2370893835
 20
3.4465563063
 30
0.0
 10
7.2371522055
 20
3.3296880034
 30
0.0
 10
7.2384090323
 20
3.2291422274
 30
0.0
 10
7.237162798
 20
3.1507959526
 30
0.0
 10
7.2414602761
 20
3.1018403915
 30
0.0
 10
7.2380384858
 20
3.0775575772
 30
0.0
 10
7.2403836937
 20
3.0717070133
 30
0.0
 11
7.2369536073
 21
3.5716308609
 31
0.0
 11
7.2370696192
 21
3.4437547332
 31
0.0
 11
7.2374106171
 21
3.3242371622
 31
0.0
 11
7.2379546923
 21
3.2212171061
 31
0.0
 11
7.2386647153
 21
3.1415655797
 31
0.0
 11
7.2394926305
 21
3.0905953136
 31
0.0
 11
7.2403836937
 21
3.0717070133
 31
0.0
  0
SPLINE
  5
672
100
AcDbEntity
  8
ASSI
100
AcDbSpline
 62
253
  6
CONTINUOUS
 70
0
 71
3
 72
9
 73
5
 74
3
 42
0.0000001
 43
0.0000001
 44
0.0000000001
 12
0.0053452796
 22
-1.6468770511
 32
0.0
 13
0.0076765739
 23
-1.6468678343
 33
0.0
 40
0.0
 40
0.0
 40
0.0
 40
0.0
 40
0.500013719
 40
1.0
 40
1.0
 40
1.0
 40
1.0
 10
-4.2427291879
 20
5.5864196637
 30
0.0
 10
-4.2418382835
 20
5.311932624
 30
0.0
 10
-4.2398622033
 20
4.7629742206
 30
0.0
 10
-4.2374976667
 20
4.2140173528
 30
0.0
 10
-4.2362182728
 20
3.9395469116
 30
0.0
 11
-4.2427291879
 21
5.5864196637
 31
0.0
 11
-4.2397650297
 21
4.7629595422
 31
0.0
 11
-4.2362182728
 21
3.9395469116
 31
0.0
  0
SPLINE
  5
673
100
AcDbEntity
  8
ASSI
100
AcDbSpline
 62
253
  6
CONTINUOUS
 70
0
 71
3
 72
9
 73
5
 74
3
 42
0.0000001
 43
0.0000001
 44
0.0000000001
 12
0.0076765739
 22
1.6468678343
 32
0.0
 13
0.0053452796
 23
1.6468770511
 33
0.0
 40
0.0
 40
0.0
 40
0.0
 40
0.0
 40
0.4999867127
 40
1.0
 40
1.0
 40
1.0
 40
1.0
 10
4.2346539751
 20
3.9395469116
 30
0.0
 10
4.2359333701
 20
4.2140175898
 30
0.0
 10
4.2382979065
 20
4.7629744575
 30
0.0
 10
4.2402739866
 20
5.311932861
 30
0.0
 10
4.2411648902
 20
5.5864196637
 30
0.0
 11
4.2346539751
 21
3.9395469116
 31
0.0
 11
4.2382007348
 21
4.7629602532
 31
0.0
 11
4.2411648902
 21
5.5864196637
 31
0.0
  0
SPLINE
  5
674
100
AcDbEntity
  8
ASSI
100
AcDbSpline
 62
253
  6
CONTINUOUS
 70
0
 71
3
 72
11
 73
7
 74
5
 42
0.0000001
 43
0.0000001
 44
0.0000000001
 12
-0.0098331854
 22
0.5656207508
 32
0.0
 13
0.0000098444
 23
0.5657062181
 33
0.0
 40
0.0
 40
0.0
 40
0.0
 40
0.0
 40
0.2097951049
 40
0.4583292293
 40
0.7269157337
 40
1.0
 40
1.0
 40
1.0
 40
1.0
 10
6.7481626977
 20
5.8042485206
 30
0.0
 10
6.7474750463
 20
5.8438033422
 30
0.0
 10
6.7462659465
 20
5.9302219885
 30
0.0
 10
6.7450138132
 20
6.0672902422
 30
0.0
 10
6.7442436824
 20
6.21629653
 30
0.0
 10
6.7440718254
 20
6.3184387897
 30
0.0
 10
6.7440727215
 20
6.3699339456
 30
0.0
 11
6.7481626977
 21
5.8042485206
 31
0.0
 11
6.746456062
 21
5.9229186448
 31
0.0
 11
6.7451376933
 21
6.0635097631
 31
0.0
 11
6.7443356072
 21
6.2154487017
 31
0.0
 11
6.7440727215
 21
6.3699339456
 31
0.0
  0
SPLINE
  5
675
100
AcDbEntity
  8
ASSI
100
AcDbSpline
 62
253
  6
CONTINUOUS
 70
0
 71
3
 72
11
 73
7
 74
5
 42
0.0000001
 43
0.0000001
 44
0.0000000001
 12
-0.0000003835
 22
0.1414265542
 32
0.0
 13
-0.0024684792
 23
0.1414050099
 33
0.0
 40
0.0
 40
0.0
 40
0.0
 40
0.0
 40
0.2753968051
 40
0.5412973202
 40
0.7858857424
 40
1.0
 40
1.0
 40
1.0
 40
1.0
 10
6.7615277865
 20
4.9557203832
 30
0.0
 10
6.7615277513
 20
4.9687031903
 30
0.0
 10
6.761484834
 20
4.9942211497
 30
0.0
 10
6.7612928078
 20
5.0312691087
 30
0.0
 10
6.760981438
 20
5.0654271533
 30
0.0
 10
6.7606814713
 20
5.0870494632
 30
0.0
 10
6.7605052924
 20
5.0971417394
 30
0.0
 11
6.7615277865
 21
4.9557203832
 31
0.0
 11
6.7614609541
 21
4.994668747
 31
0.0
 11
6.7612619268
 21
5.032273614
 31
0.0
 11
6.7609390984
 21
5.0668634052
 31
0.0
 11
6.7605052924
 21
5.0971417394
 31
0.0
  0
SPLINE
  5
676
100
AcDbEntity
  8
ASSI
100
AcDbSpline
 62
253
  6
CONTINUOUS
 70
0
 71
3
 72
13
 73
9
 74
7
 42
0.0000001
 43
0.0000001
 44
0.0000000001
 12
0.141041107
 22
0.141873385
 32
0.0
 13
0.0000012265
 23
0.2000516215
 33
0.0
 40
0.0
 40
0.0
 40
0.0
 40
0.0
 40
0.0379383612
 40
0.1398218345
 40
0.2991571384
 40
0.5055293226
 40
0.744720332
 40
1.0
 40
1.0
 40
1.0
 40
1.0
 10
6.7580977
 20
3.3716613218
 30
0.0
 10
6.7598813229
 20
3.3734554697
 30
0.0
 10
6.7577458338
 20
3.3843401031
 30
0.0
 10
6.7608935454
 20
3.4028725449
 30
0.0
 10
6.7602490617
 20
3.43478343
 30
0.0
 10
6.7612672196
 20
3.474824663
 30
0.0
 10
6.7614123952
 20
3.5216592406
 30
0.0
 10
6.7615276821
 20
3.5546078237
 30
0.0
 10
6.7615277865
 20
3.5716308609
 30
0.0
 11
6.7580977
 21
3.3716613218
 31
0.0
 11
6.7589879941
 21
3.3791985541
 31
0.0
 11
6.7598161525
 21
3.3995636763
 31
0.0
 11
6.7605264247
 21
3.4314310478
 31
0.0
 11
6.7610708907
 21
3.4727125475
 31
0.0
 11
6.7614120717
 21
3.5205618805
 31
0.0
 11
6.7615277865
 21
3.5716308609
 31
0.0
  0
SPLINE
  5
677
100
AcDbEntity
  8
ASSI
100
AcDbSpline
 62
253
  6
CONTINUOUS
 70
0
 71
3
 72
13
 73
9
 74
7
 42
0.0000001
 43
0.0000001
 44
0.0000000001
 12
0.0000012265
 22
-0.2000516215
 32
0.0
 13
0.1410411064
 23
-0.1418733857
 33
0.0
 40
0.0
 40
0.0
 40
0.0
 40
0.0
 40
0.2552796677
 40
0.4944706773
 40
0.7008428616
 40
0.8601781655
 40
0.9620616388
 40
1.0
 40
1.0
 40
1.0
 40
1.0
 10
7.5369079158
 20
3.5716308609
 30
0.0
 10
7.5369080202
 20
3.5546078237
 30
0.0
 10
7.5370233071
 20
3.5216592407
 30
0.0
 10
7.5371684827
 20
3.474824663
 30
0.0
 10
7.5381866405
 20
3.4347834301
 30
0.0
 10
7.5375421569
 20
3.4028725449
 30
0.0
 10
7.5406898684
 20
3.3843401031
 30
0.0
 10
7.5385543794
 20
3.3734554698
 30
0.0
 10
7.5403380022
 20
3.3716613218
 30
0.0
 11
7.5369079158
 21
3.5716308609
 31
0.0
 11
7.5370236306
 21
3.5205618805
 31
0.0
 11
7.5373648116
 21
3.4727125476
 31
0.0
 11
7.5379092776
 21
3.4314310478
 31
0.0
 11
7.5386195498
 21
3.3995636763
 31
0.0
 11
7.5394477082
 21
3.3791985541
 31
0.0
 11
7.5403380022
 21
3.3716613218
 31
0.0
  0
SPLINE
  5
678
100
AcDbEntity
  8
ASSI
100
AcDbSpline
 62
253
  6
CONTINUOUS
 70
0
 71
3
 72
11
 73
7
 74
5
 42
0.0000001
 43
0.0000001
 44
0.0000000001
 12
-0.0024684792
 22
-0.1414050099
 32
0.0
 13
-0.0000003835
 23
-0.1414265542
 33
0.0
 40
0.0
 40
0.0
 40
0.0
 40
0.0
 40
0.2141142612
 40
0.458702684
 40
0.7246031997
 40
1.0
 40
1.0
 40
1.0
 40
1.0
 10
7.5379304099
 20
5.0971417394
 30
0.0
 10
7.537754231
 20
5.087049463
 30
0.0
 10
7.5374542643
 20
5.0654271529
 30
0.0
 10
7.5371428945
 20
5.0312691082
 30
0.0
 10
7.5369508683
 20
4.9942211493
 30
0.0
 10
7.536907951
 20
4.96870319
 30
0.0
 10
7.5369079158
 20
4.9557203832
 30
0.0
 11
7.5379304099
 21
5.0971417394
 31
0.0
 11
7.5374966038
 21
5.0668634047
 31
0.0
 11
7.5371737754
 21
5.0322736134
 31
0.0
 11
7.5369747482
 21
4.9946687464
 31
0.0
 11
7.5369079158
 21
4.9557203832
 31
0.0
  0
SPLINE
  5
679
100
AcDbEntity
  8
ASSI
100
AcDbSpline
 62
253
  6
CONTINUOUS
 70
0
 71
3
 72
11
 73
7
 74
5
 42
0.0000001
 43
0.0000001
 44
0.0000000001
 12
0.0000096882
 22
-0.5657062181
 32
0.0
 13
-0.0098336718
 23
-0.5656207424
 33
0.0
 40
0.0
 40
0.0
 40
0.0
 40
0.0
 40
0.2730824888
 40
0.5416689789
 40
0.7902032012
 40
1.0
 40
1.0
 40
1.0
 40
1.0
 10
7.5543629808
 20
6.3699339456
 30
0.0
 10
7.5543638626
 20
6.3184391249
 30
0.0
 10
7.5541920285
 20
6.2162972031
 30
0.0
 10
7.5534218994
 20
6.0672912346
 30
0.0
 10
7.5521697445
 20
5.9302226461
 30
0.0
 10
7.5509606956
 20
5.843803661
 30
0.0
 10
7.5502730046
 20
5.8042485206
 30
0.0
 11
7.5543629808
 21
6.3699339456
 31
0.0
 11
7.5541000997
 21
6.2154497072
 31
0.0
 11
7.5532980159
 21
6.0635107768
 31
0.0
 11
7.5519796509
 21
5.922919603
 31
0.0
 11
7.5502730046
 21
5.8042485206
 31
0.0
  0
SPLINE
  5
67A
100
AcDbEntity
  8
ASSI
100
AcDbSpline
 62
253
  6
CONTINUOUS
 70
0
 71
3
 72
13
 73
9
 74
7
 42
0.0000001
 43
0.0000001
 44
0.0000000001
 12
0.0000012265
 22
-0.2000516215
 32
0.0
 13
0.1410411064
 23
-0.1418733857
 33
0.0
 40
0.0
 40
0.0
 40
0.0
 40
0.0
 40
0.2552796677
 40
0.4944706773
 40
0.7008428616
 40
0.8601781655
 40
0.9620616388
 40
1.0
 40
1.0
 40
1.0
 40
1.0
 10
-6.7630920842
 20
3.5716308609
 30
0.0
 10
-6.7630919798
 20
3.5546078237
 30
0.0
 10
-6.7629766929
 20
3.5216592407
 30
0.0
 10
-6.7628315173
 20
3.474824663
 30
0.0
 10
-6.7618133595
 20
3.4347834301
 30
0.0
 10
-6.7624578431
 20
3.4028725449
 30
0.0
 10
-6.7593101316
 20
3.3843401031
 30
0.0
 10
-6.7614456206
 20
3.3734554698
 30
0.0
 10
-6.7596619978
 20
3.3716613218
 30
0.0
 11
-6.7630920842
 21
3.5716308609
 31
0.0
 11
-6.7629763694
 21
3.5205618805
 31
0.0
 11
-6.7626351884
 21
3.4727125476
 31
0.0
 11
-6.7620907224
 21
3.4314310478
 31
0.0
 11
-6.7613804502
 21
3.3995636763
 31
0.0
 11
-6.7605522918
 21
3.3791985541
 31
0.0
 11
-6.7596619978
 21
3.3716613218
 31
0.0
  0
SPLINE
  5
67B
100
AcDbEntity
  8
ASSI
100
AcDbSpline
 62
253
  6
CONTINUOUS
 70
0
 71
3
 72
11
 73
7
 74
5
 42
0.0000001
 43
0.0000001
 44
0.0000000001
 12
-0.0024684792
 22
-0.1414050099
 32
0.0
 13
-0.0000003835
 23
-0.1414265542
 33
0.0
 40
0.0
 40
0.0
 40
0.0
 40
0.0
 40
0.2141142612
 40
0.458702684
 40
0.7246031997
 40
1.0
 40
1.0
 40
1.0
 40
1.0
 10
-6.7620695901
 20
5.0971417394
 30
0.0
 10
-6.762245769
 20
5.087049463
 30
0.0
 10
-6.7625457357
 20
5.0654271529
 30
0.0
 10
-6.7628571055
 20
5.0312691082
 30
0.0
 10
-6.7630491317
 20
4.9942211493
 30
0.0
 10
-6.763092049
 20
4.96870319
 30
0.0
 10
-6.7630920842
 20
4.9557203832
 30
0.0
 11
-6.7620695901
 21
5.0971417394
 31
0.0
 11
-6.7625033962
 21
5.0668634047
 31
0.0
 11
-6.7628262246
 21
5.0322736134
 31
0.0
 11
-6.7630252518
 21
4.9946687464
 31
0.0
 11
-6.7630920842
 21
4.9557203832
 31
0.0
  0
SPLINE
  5
67C
100
AcDbEntity
  8
ASSI
100
AcDbSpline
 62
253
  6
CONTINUOUS
 70
0
 71
3
 72
11
 73
7
 74
5
 42
0.0000001
 43
0.0000001
 44
0.0000000001
 12
0.0000096882
 22
-0.5657062181
 32
0.0
 13
-0.0098336718
 23
-0.5656207424
 33
0.0
 40
0.0
 40
0.0
 40
0.0
 40
0.0
 40
0.2730824888
 40
0.5416689789
 40
0.7902032012
 40
1.0
 40
1.0
 40
1.0
 40
1.0
 10
-6.7456370192
 20
6.3699339456
 30
0.0
 10
-6.7456361374
 20
6.3184391249
 30
0.0
 10
-6.7458079715
 20
6.2162972031
 30
0.0
 10
-6.7465781006
 20
6.0672912346
 30
0.0
 10
-6.7478302555
 20
5.9302226461
 30
0.0
 10
-6.7490393044
 20
5.843803661
 30
0.0
 10
-6.7497269954
 20
5.8042485206
 30
0.0
 11
-6.7456370192
 21
6.3699339456
 31
0.0
 11
-6.7458999003
 21
6.2154497072
 31
0.0
 11
-6.7467019841
 21
6.0635107768
 31
0.0
 11
-6.7480203491
 21
5.922919603
 31
0.0
 11
-6.7497269954
 21
5.8042485206
 31
0.0
  0
SPLINE
  5
67D
100
AcDbEntity
  8
ASSI
100
AcDbSpline
 62
253
  6
CONTINUOUS
 70
0
 71
3
 72
11
 73
7
 74
5
 42
0.0000001
 43
0.0000001
 44
0.0000000001
 12
-0.0098331854
 22
0.5656207508
 32
0.0
 13
0.0000098444
 23
0.5657062181
 33
0.0
 40
0.0
 40
0.0
 40
0.0
 40
0.0
 40
0.2097951049
 40
0.4583292293
 40
0.7269157337
 40
1.0
 40
1.0
 40
1.0
 40
1.0
 10
-7.5518373023
 20
5.8042485206
 30
0.0
 10
-7.5525249537
 20
5.8438033422
 30
0.0
 10
-7.5537340535
 20
5.9302219885
 30
0.0
 10
-7.5549861868
 20
6.0672902422
 30
0.0
 10
-7.5557563176
 20
6.21629653
 30
0.0
 10
-7.5559281746
 20
6.3184387897
 30
0.0
 10
-7.5559272785
 20
6.3699339456
 30
0.0
 11
-7.5518373023
 21
5.8042485206
 31
0.0
 11
-7.553543938
 21
5.9229186448
 31
0.0
 11
-7.5548623067
 21
6.0635097631
 31
0.0
 11
-7.5556643928
 21
6.2154487017
 31
0.0
 11
-7.5559272785
 21
6.3699339456
 31
0.0
  0
SPLINE
  5
67E
100
AcDbEntity
  8
ASSI
100
AcDbSpline
 62
253
  6
CONTINUOUS
 70
0
 71
3
 72
11
 73
7
 74
5
 42
0.0000001
 43
0.0000001
 44
0.0000000001
 12
-0.0000003835
 22
0.1414265542
 32
0.0
 13
-0.0024684792
 23
0.1414050099
 33
0.0
 40
0.0
 40
0.0
 40
0.0
 40
0.0
 40
0.2753968051
 40
0.5412973202
 40
0.7858857424
 40
1.0
 40
1.0
 40
1.0
 40
1.0
 10
-7.5384722135
 20
4.9557203832
 30
0.0
 10
-7.5384722487
 20
4.9687031903
 30
0.0
 10
-7.538515166
 20
4.9942211497
 30
0.0
 10
-7.5387071922
 20
5.0312691087
 30
0.0
 10
-7.539018562
 20
5.0654271533
 30
0.0
 10
-7.5393185287
 20
5.0870494632
 30
0.0
 10
-7.5394947076
 20
5.0971417394
 30
0.0
 11
-7.5384722135
 21
4.9557203832
 31
0.0
 11
-7.5385390459
 21
4.994668747
 31
0.0
 11
-7.5387380732
 21
5.032273614
 31
0.0
 11
-7.5390609016
 21
5.0668634052
 31
0.0
 11
-7.5394947076
 21
5.0971417394
 31
0.0
  0
SPLINE
  5
67F
100
AcDbEntity
  8
ASSI
100
AcDbSpline
 62
253
  6
CONTINUOUS
 70
0
 71
3
 72
13
 73
9
 74
7
 42
0.0000001
 43
0.0000001
 44
0.0000000001
 12
0.141041107
 22
0.141873385
 32
0.0
 13
0.0000012265
 23
0.2000516215
 33
0.0
 40
0.0
 40
0.0
 40
0.0
 40
0.0
 40
0.0379383612
 40
0.1398218345
 40
0.2991571384
 40
0.5055293226
 40
0.744720332
 40
1.0
 40
1.0
 40
1.0
 40
1.0
 10
-7.5419023
 20
3.3716613218
 30
0.0
 10
-7.5401186771
 20
3.3734554697
 30
0.0
 10
-7.5422541662
 20
3.3843401031
 30
0.0
 10
-7.5391064546
 20
3.4028725449
 30
0.0
 10
-7.5397509383
 20
3.43478343
 30
0.0
 10
-7.5387327804
 20
3.474824663
 30
0.0
 10
-7.5385876048
 20
3.5216592406
 30
0.0
 10
-7.5384723179
 20
3.5546078237
 30
0.0
 10
-7.5384722135
 20
3.5716308609
 30
0.0
 11
-7.5419023
 21
3.3716613218
 31
0.0
 11
-7.5410120059
 21
3.3791985541
 31
0.0
 11
-7.5401838475
 21
3.3995636763
 31
0.0
 11
-7.5394735753
 21
3.4314310478
 31
0.0
 11
-7.5389291093
 21
3.4727125475
 31
0.0
 11
-7.5385879283
 21
3.5205618805
 31
0.0
 11
-7.5384722135
 21
3.5716308609
 31
0.0
  0
SPLINE
  5
680
100
AcDbEntity
  8
ASSI
100
AcDbSpline
 62
253
  6
CONTINUOUS
 70
0
 71
3
 72
9
 73
5
 74
3
 42
0.0000001
 43
0.0000001
 44
0.0000000001
 12
0.0003603392
 22
-6.1661325534
 32
0.0
 13
0.0019281047
 23
-6.1661322625
 33
0.0
 40
0.0
 40
0.0
 40
0.0
 40
0.0
 40
0.5000355593
 40
1.0
 40
1.0
 40
1.0
 40
1.0
 10
11.1223647724
 20
7.9453213064
 30
0.0
 10
11.1224248332
 20
6.9175594596
 30
0.0
 10
11.1226755793
 20
4.8621819474
 30
0.0
 10
11.1231876057
 20
2.8068044836
 30
0.0
 10
11.1235089337
 20
1.7791888611
 30
0.0
 11
11.1223647724
 21
7.9453213064
 31
0.0
 11
11.1227409265
 21
4.8620357838
 31
0.0
 11
11.1235089337
 21
1.7791888611
 31
0.0
  0
LINE
  5
681
100
AcDbEntity
  8
ASSI
100
AcDbLine
 62
253
  6
CONTINUOUS
 10
11.1237490411
 20
1.0467055751
 11
11.1245466223
 21
-1.0218488276
  0
LINE
  5
682
100
AcDbEntity
  8
ASSI
100
AcDbLine
 62
253
  6
CONTINUOUS
 10
11.1264887653
 20
-4.8505547007
 11
11.1272692267
 21
-6.1245714319
  0
LINE
  5
683
100
AcDbEntity
  8
ASSI
100
AcDbLine
 62
253
  6
CONTINUOUS
 10
11.1277431124
 20
-6.8493003536
 11
11.128093525
 21
-7.3649867543
  0
LINE
  5
684
100
AcDbEntity
  8
ASSI
100
AcDbLine
 62
253
  6
CONTINUOUS
 10
-11.1288335244
 20
-6.1245714319
 11
-11.128053063
 21
-4.8505547007
  0
LINE
  5
685
100
AcDbEntity
  8
ASSI
100
AcDbLine
 62
253
  6
CONTINUOUS
 10
-11.1296578227
 20
-7.3649867543
 11
-11.1293074101
 21
-6.8493003536
  0
LINE
  5
686
100
AcDbEntity
  8
ASSI
100
AcDbLine
 62
253
  6
CONTINUOUS
 10
-11.1261109201
 20
-1.0218488276
 11
-11.1253133388
 21
1.0467055751
  0
SPLINE
  5
687
100
AcDbEntity
  8
ASSI
100
AcDbSpline
 62
253
  6
CONTINUOUS
 70
0
 71
3
 72
9
 73
5
 74
3
 42
0.0000001
 43
0.0000001
 44
0.0000000001
 12
0.0019281047
 22
6.1661322625
 32
0.0
 13
0.0003603392
 23
6.1661325534
 33
0.0
 40
0.0
 40
0.0
 40
0.0
 40
0.0
 40
0.4999644622
 40
1.0
 40
1.0
 40
1.0
 40
1.0
 10
-11.1250732314
 20
1.7791888611
 30
0.0
 10
-11.1247519034
 20
2.8068045278
 30
0.0
 10
-11.124239877
 20
4.8621819916
 30
0.0
 10
-11.1239891309
 20
6.9175595038
 30
0.0
 10
-11.1239290701
 20
7.9453213064
 30
0.0
 11
-11.1250732314
 21
1.7791888611
 31
0.0
 11
-11.1243052242
 21
4.8620359163
 31
0.0
 11
-11.1239290701
 21
7.9453213064
 31
0.0
  0
SPLINE
  5
688
100
AcDbEntity
  8
ASSI
100
AcDbSpline
 62
7
  6
CONTINUOUS
 70
0
 71
3
 72
12
 73
8
 74
6
 42
0.0000001
 43
0.0000001
 44
0.0000000001
 12
0.3000709641
 22
-0.0
 32
0.0
 13
0.2121822176
 23
0.2121822095
 33
0.0
 40
0.0
 40
0.0
 40
0.0
 40
0.0
 40
0.3041016913
 40
0.5820964833
 40
0.8023227261
 40
0.9471197879
 40
1.0
 40
1.0
 40
1.0
 40
1.0
 10
10.822410706
 20
7.9401764485
 30
0.0
 10
10.8528280686
 20
7.9401764485
 30
0.0
 10
10.9112063546
 20
7.9400451196
 30
0.0
 10
10.9908521729
 20
7.9418100787
 30
0.0
 10
11.056717802
 20
7.9399841505
 30
0.0
 10
11.0954578032
 20
7.9467181901
 30
0.0
 10
11.1186246922
 20
7.9415812263
 30
0.0
 10
11.1223647724
 20
7.9453213064
 30
0.0
 11
10.822410706
 21
7.9401764485
 31
0.0
 11
10.9136624564
 21
7.9404245575
 31
0.0
 11
10.9970774194
 21
7.9411554714
 31
0.0
 11
11.0631512108
 21
7.9422882551
 31
0.0
 11
11.1065765439
 21
7.9437340342
 31
0.0
 11
11.1223647724
 21
7.9453213064
 31
0.0
  0
SPLINE
  5
689
100
AcDbEntity
  8
ASSI
100
AcDbSpline
 62
7
  6
CONTINUOUS
 70
0
 71
3
 72
12
 73
8
 74
6
 42
0.0000001
 43
0.0000001
 44
0.0000000001
 12
0.2121822176
 22
-0.2121822095
 32
0.0
 13
0.3000709641
 23
0.0
 33
0.0
 40
0.0
 40
0.0
 40
0.0
 40
0.0
 40
0.0528802121
 40
0.1976772739
 40
0.4179035167
 40
0.6958983087
 40
1.0
 40
1.0
 40
1.0
 40
1.0
 10
-11.1239290701
 20
7.9453213064
 30
0.0
 10
-11.1201889899
 20
7.9415812263
 30
0.0
 10
-11.097022101
 20
7.9467181901
 30
0.0
 10
-11.0582820997
 20
7.9399841505
 30
0.0
 10
-10.9924164706
 20
7.9418100787
 30
0.0
 10
-10.9127706523
 20
7.9400451196
 30
0.0
 10
-10.8543923663
 20
7.9401764485
 30
0.0
 10
-10.8239750037
 20
7.9401764485
 30
0.0
 11
-11.1239290701
 21
7.9453213064
 31
0.0
 11
-11.1081408416
 21
7.9437340342
 31
0.0
 11
-11.0647155085
 21
7.9422882551
 31
0.0
 11
-10.9986417172
 21
7.9411554714
 31
0.0
 11
-10.9152267541
 21
7.9404245575
 31
0.0
 11
-10.8239750037
 21
7.9401764485
 31
0.0
  0
SPLINE
  5
68A
100
AcDbEntity
  8
ASSI
100
AcDbSpline
 62
7
  6
CONTINUOUS
 70
0
 71
3
 72
12
 73
8
 74
6
 42
0.0000001
 43
0.0000001
 44
0.0000000001
 12
0.3000740987
 22
-0.0
 32
0.0
 13
0.2121856528
 23
0.2121832073
 33
0.0
 40
0.0
 40
0.0
 40
0.0
 40
0.0
 40
0.3040972291
 40
0.5820915378
 40
0.8023192843
 40
0.9471184771
 40
1.0
 40
1.0
 40
1.0
 40
1.0
 10
10.8265315714
 20
-4.8556997664
 30
0.0
 10
10.8569488053
 20
-4.8556997664
 30
0.0
 10
10.9153272003
 20
-4.8558310822
 30
0.0
 10
10.9949735226
 20
-4.8540661188
 30
0.0
 10
11.0608401319
 20
-4.8558920074
 30
0.0
 10
11.0995810464
 20
-4.8491578681
 30
0.0
 10
11.1227485318
 20
-4.8542948911
 30
0.0
 10
11.1264887653
 20
-4.8505547007
 30
0.0
 11
10.8265315714
 21
-4.8556997664
 31
0.0
 11
10.917782936
 21
-4.8554516517
 31
0.0
 11
11.0011986252
 21
-4.8547207159
 31
0.0
 11
11.0672735575
 21
-4.8535878897
 31
0.0
 11
11.1106999826
 21
-4.8521420489
 31
0.0
 11
11.1264887653
 21
-4.8505547007
 31
0.0
  0
SPLINE
  5
68B
100
AcDbEntity
  8
ASSI
100
AcDbSpline
 62
7
  6
CONTINUOUS
 70
0
 71
3
 72
12
 73
8
 74
6
 42
0.0000001
 43
0.0000001
 44
0.0000000001
 12
0.2121856528
 22
-0.2121832073
 32
0.0
 13
0.3000740987
 23
0.0
 33
0.0
 40
0.0
 40
0.0
 40
0.0
 40
0.0
 40
0.0528815229
 40
0.1976807157
 40
0.4179084622
 40
0.6959027709
 40
1.0
 40
1.0
 40
1.0
 40
1.0
 10
-11.128053063
 20
-4.8505547007
 30
0.0
 10
-11.1243128295
 20
-4.8542948911
 30
0.0
 10
-11.1011453441
 20
-4.8491578681
 30
0.0
 10
-11.0624044297
 20
-4.8558920074
 30
0.0
 10
-10.9965378204
 20
-4.8540661188
 30
0.0
 10
-10.916891498
 20
-4.8558310822
 30
0.0
 10
-10.8585131031
 20
-4.8556997664
 30
0.0
 10
-10.8280958691
 20
-4.8556997664
 30
0.0
 11
-11.128053063
 21
-4.8505547007
 31
0.0
 11
-11.1122642803
 21
-4.8521420489
 31
0.0
 11
-11.0688378553
 21
-4.8535878897
 31
0.0
 11
-11.0027629229
 21
-4.8547207159
 31
0.0
 11
-10.9193472337
 21
-4.8554516517
 31
0.0
 11
-10.8280958691
 21
-4.8556997664
 31
0.0
  0
SPLINE
  5
68C
100
AcDbEntity
  8
ASSI
100
AcDbSpline
 62
7
  6
CONTINUOUS
 70
0
 71
3
 72
12
 73
8
 74
6
 42
0.0000001
 43
0.0000001
 44
0.0000000001
 12
-0.2121859816
 22
0.212186588
 32
0.0
 13
-0.3000767217
 23
0.0
 33
0.0
 40
0.0
 40
0.0
 40
0.0
 40
0.0
 40
0.0529127559
 40
0.197756379
 40
0.4180080058
 40
0.6959861204
 40
1.0
 40
1.0
 40
1.0
 40
1.0
 10
11.1245466223
 20
-1.0218488276
 30
0.0
 10
11.120804174
 20
-1.0181063685
 30
0.0
 10
11.09762756
 20
-1.0232442661
 30
0.0
 10
11.0588769322
 20
-1.0165088323
 30
0.0
 10
10.9930046239
 20
-1.0183336269
 30
0.0
 10
10.9133649966
 20
-1.0165688307
 30
0.0
 10
10.8549961275
 20
-1.0166999204
 30
0.0
 10
10.8245869647
 20
-1.0166999204
 30
0.0
 11
11.1245466223
 21
-1.0218488276
 31
0.0
 11
11.1087484432
 21
-1.0202598628
 31
0.0
 11
11.0653083365
 21
-1.0188128739
 31
0.0
 11
10.9992256715
 21
-1.0176793444
 31
0.0
 11
10.9158141155
 21
-1.0169480844
 31
0.0
 11
10.8245869647
 21
-1.0166999204
 31
0.0
  0
SPLINE
  5
68D
100
AcDbEntity
  8
ASSI
100
AcDbSpline
 62
7
  6
CONTINUOUS
 70
0
 71
3
 72
12
 73
8
 74
6
 42
0.0000001
 43
0.0000001
 44
0.0000000001
 12
-0.3000767217
 22
-0.0
 32
0.0
 13
-0.2121859816
 23
-0.212186588
 33
0.0
 40
0.0
 40
0.0
 40
0.0
 40
0.0
 40
0.3040138796
 40
0.5819919942
 40
0.802243621
 40
0.9470872441
 40
1.0
 40
1.0
 40
1.0
 40
1.0
 10
-10.8261512624
 20
-1.0166999204
 30
0.0
 10
-10.8565604252
 20
-1.0166999204
 30
0.0
 10
-10.9149292943
 20
-1.0165688307
 30
0.0
 10
-10.9945689216
 20
-1.0183336269
 30
0.0
 10
-11.0604412299
 20
-1.0165088323
 30
0.0
 10
-11.0991918577
 20
-1.0232442661
 30
0.0
 10
-11.1223684717
 20
-1.0181063685
 30
0.0
 10
-11.1261109201
 20
-1.0218488276
 30
0.0
 11
-10.8261512624
 21
-1.0166999204
 31
0.0
 11
-10.9173784132
 21
-1.0169480844
 31
0.0
 11
-11.0007899692
 21
-1.0176793444
 31
0.0
 11
-11.0668726342
 21
-1.0188128739
 31
0.0
 11
-11.1103127409
 21
-1.0202598628
 31
0.0
 11
-11.1261109201
 21
-1.0218488276
 31
0.0
  0
SPLINE
  5
68E
100
AcDbEntity
  8
ASSI
100
AcDbSpline
 62
7
  6
CONTINUOUS
 70
0
 71
3
 72
12
 73
8
 74
6
 42
0.0000001
 43
0.0000001
 44
0.0000000001
 12
0.2121872725
 22
-0.2121835264
 32
0.0
 13
0.3000754696
 23
0.0
 33
0.0
 40
0.0
 40
0.0
 40
0.0
 40
0.0
 40
0.0528851833
 40
0.1976896626
 40
0.4179203758
 40
0.6959128578
 40
1.0
 40
1.0
 40
1.0
 40
1.0
 10
-11.1293074101
 20
-6.8493003536
 30
0.0
 10
-11.1255668892
 20
-6.8530408085
 30
0.0
 10
-11.1023982757
 20
-6.8479036887
 30
0.0
 10
-11.0636560335
 20
-6.8546379825
 30
0.0
 10
-10.9977885048
 20
-6.8528122259
 30
0.0
 10
-10.918142687
 20
-6.8545771708
 30
0.0
 10
-10.8597652279
 20
-6.8544458838
 30
0.0
 10
-10.8293488639
 20
-6.8544458838
 30
0.0
 11
-11.1293074101
 21
-6.8493003536
 31
0.0
 11
-11.1135174698
 21
-6.8508878932
 31
0.0
 11
-11.0700892636
 21
-6.8523338726
 31
0.0
 11
-11.0040131404
 21
-6.8534667853
 31
0.0
 11
-10.9205976186
 21
-6.8541977619
 31
0.0
 11
-10.8293488639
 21
-6.8544458838
 31
0.0
  0
SPLINE
  5
68F
100
AcDbEntity
  8
ASSI
100
AcDbSpline
 62
7
  6
CONTINUOUS
 70
0
 71
3
 72
12
 73
8
 74
6
 42
0.0000001
 43
0.0000001
 44
0.0000000001
 12
-0.300081786
 22
0.0
 32
0.0
 13
-0.2121906568
 23
-0.2121890748
 33
0.0
 40
0.0
 40
0.0
 40
0.0
 40
0.0
 40
0.3039485293
 40
0.5819142421
 40
0.8021848151
 40
0.9470630692
 40
1.0
 40
1.0
 40
1.0
 40
1.0
 10
-10.8288689259
 20
-6.1194195093
 30
0.0
 10
-10.8592720651
 20
-6.1194195093
 30
0.0
 10
-10.917634076
 20
-6.1192886007
 30
0.0
 10
-10.9972693181
 20
-6.1210532714
 30
0.0
 10
-11.0631467496
 20
-6.1192293332
 30
0.0
 10
-11.1019054325
 20
-6.1259657799
 30
0.0
 10
-11.1250892837
 20
-6.1208272191
 30
0.0
 10
-11.1288335244
 20
-6.1245714319
 30
0.0
 11
-10.8288689259
 21
-6.1194195093
 31
0.0
 11
-10.9200780057
 21
-6.1196677156
 31
0.0
 11
-11.0034872455
 21
-6.1203992342
 31
0.0
 11
-11.0695767028
 21
-6.1215333198
 31
0.0
 11
-11.1130279113
 21
-6.1229812095
 31
0.0
 11
-11.1288335244
 21
-6.1245714319
 31
0.0
  0
SPLINE
  5
690
100
AcDbEntity
  8
ASSI
100
AcDbSpline
 62
7
  6
CONTINUOUS
 70
0
 71
3
 72
12
 73
8
 74
6
 42
0.0000001
 43
0.0000001
 44
0.0000000001
 12
0.212182242
 22
-0.2121828612
 32
0.0
 13
0.3000714422
 23
-0.0
 33
0.0
 40
0.0
 40
0.0
 40
0.0
 40
0.0
 40
0.0528761536
 40
0.1976675351
 40
0.4178908253
 40
0.6958877974
 40
1.0
 40
1.0
 40
1.0
 40
1.0
 10
-11.1253133388
 20
1.0467055751
 30
0.0
 10
-11.1215735452
 20
1.0429657706
 30
0.0
 10
-11.0984077478
 20
1.0481026576
 30
0.0
 10
-11.0596688995
 20
1.0413687441
 30
0.0
 10
-10.9938037885
 20
1.0431948299
 30
0.0
 10
-10.9141568959
 20
1.0414298395
 30
0.0
 10
-10.8557772364
 20
1.0415611992
 30
0.0
 10
-10.825358774
 20
1.0415611992
 30
0.0
 11
-11.1253133388
 21
1.0467055751
 31
0.0
 11
-11.1095262882
 21
1.0451185087
 31
0.0
 11
-11.0661025865
 21
1.0436728736
 31
0.0
 11
-11.0000295745
 21
1.0425401768
 31
0.0
 11
-10.9166138239
 21
1.0418093022
 31
0.0
 11
-10.825358774
 21
1.0415611992
 31
0.0
  0
SPLINE
  5
691
100
AcDbEntity
  8
ASSI
100
AcDbSpline
 62
7
  6
CONTINUOUS
 70
0
 71
3
 72
12
 73
8
 74
6
 42
0.0000001
 43
0.0000001
 44
0.0000000001
 12
-0.3000746033
 22
-0.0
 32
0.0
 13
-0.2121845123
 23
-0.2121850614
 33
0.0
 40
0.0
 40
0.0
 40
0.0
 40
0.0
 40
0.3040426971
 40
0.5820262833
 40
0.8022695576
 40
0.9470979026
 40
1.0
 40
1.0
 40
1.0
 40
1.0
 10
-10.8251156376
 20
1.7843364382
 30
0.0
 10
-10.8555274682
 20
1.7843364382
 30
0.0
 10
-10.9138993831
 20
1.7844676065
 30
0.0
 10
-10.9935409787
 20
1.7827027579
 30
0.0
 10
-11.0594110436
 20
1.7845279229
 30
0.0
 10
-11.0981581523
 20
1.7777929503
 30
0.0
 10
-11.1213315628
 20
1.7829305394
 30
0.0
 10
-11.1250732314
 20
1.7791888611
 30
0.0
 11
-10.8251156376
 21
1.7843364382
 31
0.0
 11
-10.9163507919
 21
1.7840882925
 31
0.0
 11
-10.9997634019
 21
1.7833571464
 31
0.0
 11
-11.0658430977
 21
1.7822238622
 31
0.0
 11
-11.1092783235
 21
1.7807772707
 31
0.0
 11
-11.1250732314
 21
1.7791888611
 31
0.0
  0
SPLINE
  5
692
100
AcDbEntity
  8
ASSI
100
AcDbSpline
 62
7
  6
CONTINUOUS
 70
0
 71
3
 72
12
 73
8
 74
6
 42
0.0000001
 43
0.0000001
 44
0.0000000001
 12
-0.2121906568
 22
0.2121890748
 32
0.0
 13
-0.300081786
 23
-0.0
 33
0.0
 40
0.0
 40
0.0
 40
0.0
 40
0.0
 40
0.0529369308
 40
0.1978151849
 40
0.4180857579
 40
0.6960514707
 40
1.0
 40
1.0
 40
1.0
 40
1.0
 10
11.1272692267
 20
-6.1245714319
 30
0.0
 10
11.123524986
 20
-6.1208272191
 30
0.0
 10
11.1003411347
 20
-6.1259657799
 30
0.0
 10
11.0615824519
 20
-6.1192293332
 30
0.0
 10
10.9957050204
 20
-6.1210532714
 30
0.0
 10
10.9160697783
 20
-6.1192886007
 30
0.0
 10
10.8577077674
 20
-6.1194195093
 30
0.0
 10
10.8273046282
 20
-6.1194195093
 30
0.0
 11
11.1272692267
 21
-6.1245714319
 31
0.0
 11
11.1114636136
 21
-6.1229812095
 31
0.0
 11
11.0680124051
 21
-6.1215333198
 31
0.0
 11
11.0019229478
 21
-6.1203992342
 31
0.0
 11
10.918513708
 21
-6.1196677156
 31
0.0
 11
10.8273046282
 21
-6.1194195093
 31
0.0
  0
SPLINE
  5
693
100
AcDbEntity
  8
ASSI
100
AcDbSpline
 62
7
  6
CONTINUOUS
 70
0
 71
3
 72
12
 73
8
 74
6
 42
0.0000001
 43
0.0000001
 44
0.0000000001
 12
0.3000754696
 22
-0.0
 32
0.0
 13
0.2121872724
 23
0.2121835264
 33
0.0
 40
0.0
 40
0.0
 40
0.0
 40
0.0
 40
0.3040871422
 40
0.5820796242
 40
0.8023103374
 40
0.9471148167
 40
1.0
 40
1.0
 40
1.0
 40
1.0
 10
10.8277845662
 20
-6.8544458838
 30
0.0
 10
10.8582009302
 20
-6.8544458838
 30
0.0
 10
10.9165783893
 20
-6.8545771708
 30
0.0
 10
10.9962242071
 20
-6.8528122259
 30
0.0
 10
11.0620917358
 20
-6.8546379825
 30
0.0
 10
11.1008339779
 20
-6.8479036887
 30
0.0
 10
11.1240025915
 20
-6.8530408085
 30
0.0
 10
11.1277431124
 20
-6.8493003536
 30
0.0
 11
10.8277845662
 21
-6.8544458838
 31
0.0
 11
10.9190333208
 21
-6.8541977619
 31
0.0
 11
11.0024488427
 21
-6.8534667853
 31
0.0
 11
11.0685249659
 21
-6.8523338726
 31
0.0
 11
11.1119531721
 21
-6.8508878932
 31
0.0
 11
11.1277431124
 21
-6.8493003536
 31
0.0
  0
SPLINE
  5
694
100
AcDbEntity
  8
ASSI
100
AcDbSpline
 62
7
  6
CONTINUOUS
 70
0
 71
3
 72
12
 73
8
 74
6
 42
0.0000001
 43
0.0000001
 44
0.0000000001
 12
-0.2121845123
 22
0.2121850614
 32
0.0
 13
-0.3000746033
 23
0.0
 33
0.0
 40
0.0
 40
0.0
 40
0.0
 40
0.0
 40
0.0529020974
 40
0.1977304424
 40
0.4179737167
 40
0.6959573029
 40
1.0
 40
1.0
 40
1.0
 40
1.0
 10
11.1235089337
 20
1.7791888611
 30
0.0
 10
11.1197672651
 20
1.7829305394
 30
0.0
 10
11.0965938546
 20
1.7777929503
 30
0.0
 10
11.0578467459
 20
1.7845279229
 30
0.0
 10
10.991976681
 20
1.7827027579
 30
0.0
 10
10.9123350854
 20
1.7844676065
 30
0.0
 10
10.8539631704
 20
1.7843364382
 30
0.0
 10
10.8235513399
 20
1.7843364382
 30
0.0
 11
11.1235089337
 21
1.7791888611
 31
0.0
 11
11.1077140258
 21
1.7807772707
 31
0.0
 11
11.0642788
 21
1.7822238622
 31
0.0
 11
10.9981991042
 21
1.7833571464
 31
0.0
 11
10.9147864941
 21
1.7840882925
 31
0.0
 11
10.8235513399
 21
1.7843364382
 31
0.0
  0
SPLINE
  5
695
100
AcDbEntity
  8
ASSI
100
AcDbSpline
 62
7
  6
CONTINUOUS
 70
0
 71
3
 72
12
 73
8
 74
6
 42
0.0000001
 43
0.0000001
 44
0.0000000001
 12
0.3000714422
 22
0.0
 32
0.0
 13
0.212182242
 23
0.2121828612
 33
0.0
 40
0.0
 40
0.0
 40
0.0
 40
0.0
 40
0.3041122026
 40
0.5821091747
 40
0.8023324649
 40
0.9471238464
 40
1.0
 40
1.0
 40
1.0
 40
1.0
 10
10.8237944763
 20
1.0415611992
 30
0.0
 10
10.8542129387
 20
1.0415611992
 30
0.0
 10
10.9125925982
 20
1.0414298395
 30
0.0
 10
10.9922394908
 20
1.0431948299
 30
0.0
 10
11.0581046017
 20
1.0413687441
 30
0.0
 10
11.0968434501
 20
1.0481026576
 30
0.0
 10
11.1200092475
 20
1.0429657706
 30
0.0
 10
11.1237490411
 20
1.0467055751
 30
0.0
 11
10.8237944763
 21
1.0415611992
 31
0.0
 11
10.9150495262
 21
1.0418093022
 31
0.0
 11
10.9984652767
 21
1.0425401768
 31
0.0
 11
11.0645382888
 21
1.0436728736
 31
0.0
 11
11.1079619905
 21
1.0451185087
 31
0.0
 11
11.1237490411
 21
1.0467055751
 31
0.0
  0
SPLINE
  5
696
100
AcDbEntity
  8
ASSI
100
AcDbSpline
 62
253
  6
CONTINUOUS
 70
0
 71
3
 72
13
 73
9
 74
7
 42
0.0000001
 43
0.0000001
 44
0.0000000001
 12
0.0000037631
 22
-0.4999567178
 32
0.0
 13
0.1860199013
 23
-0.4640617589
 33
0.0
 40
0.0
 40
0.0
 40
0.0
 40
0.0
 40
0.2557745015
 40
0.4948313101
 40
0.7008921333
 40
0.8602153068
 40
0.9621781125
 40
1.0
 40
1.0
 40
1.0
 40
1.0
 10
-7.0630463927
 20
3.5716308609
 30
0.0
 10
-7.0630460719
 20
3.5290054674
 30
0.0
 10
-7.0629106165
 20
3.4465563063
 30
0.0
 10
-7.0628477945
 20
3.3296880034
 30
0.0
 10
-7.0615909677
 20
3.2291422274
 30
0.0
 10
-7.062837202
 20
3.1507959526
 30
0.0
 10
-7.0585397239
 20
3.1018403915
 30
0.0
 10
-7.0619615142
 20
3.0775575772
 30
0.0
 10
-7.0596163063
 20
3.0717070133
 30
0.0
 11
-7.0630463927
 21
3.5716308609
 31
0.0
 11
-7.0629303808
 21
3.4437547332
 31
0.0
 11
-7.0625893829
 21
3.3242371622
 31
0.0
 11
-7.0620453077
 21
3.2212171061
 31
0.0
 11
-7.0613352847
 21
3.1415655797
 31
0.0
 11
-7.0605073695
 21
3.0905953136
 31
0.0
 11
-7.0596163063
 21
3.0717070133
 31
0.0
  0
SPLINE
  5
697
100
AcDbEntity
  8
ASSI
100
AcDbSpline
 62
253
  6
CONTINUOUS
 70
0
 71
3
 72
13
 73
9
 74
7
 42
0.0000001
 43
0.0000001
 44
0.0000000001
 12
0.1860199012
 22
0.4640617589
 32
0.0
 13
0.0000037631
 23
0.4999567178
 33
0.0
 40
0.0
 40
0.0
 40
0.0
 40
0.0
 40
0.0378218875
 40
0.1397846932
 40
0.2991078666
 40
0.5051686897
 40
0.7442254983
 40
1.0
 40
1.0
 40
1.0
 40
1.0
 10
-7.2419479914
 20
3.0717070133
 30
0.0
 10
-7.2396027835
 20
3.0775575772
 30
0.0
 10
-7.2430245738
 20
3.1018403915
 30
0.0
 10
-7.2387270957
 20
3.1507959526
 30
0.0
 10
-7.23997333
 20
3.2291422274
 30
0.0
 10
-7.2387165033
 20
3.3296880033
 30
0.0
 10
-7.2386536813
 20
3.4465563063
 30
0.0
 10
-7.2385182258
 20
3.5290054674
 30
0.0
 10
-7.238517905
 20
3.5716308609
 30
0.0
 11
-7.2419479914
 21
3.0717070133
 31
0.0
 11
-7.2410569282
 21
3.0905953136
 31
0.0
 11
-7.240229013
 21
3.1415655797
 31
0.0
 11
-7.23951899
 21
3.2212171061
 31
0.0
 11
-7.2389749148
 21
3.3242371622
 31
0.0
 11
-7.2386339169
 21
3.4437547331
 31
0.0
 11
-7.238517905
 21
3.5716308609
 31
0.0
  0
SPLINE
  5
698
100
AcDbEntity
  8
ASSI
100
AcDbSpline
 62
253
  6
CONTINUOUS
 70
0
 71
3
 72
11
 73
7
 74
5
 42
0.0000001
 43
0.0000001
 44
0.0000000001
 12
-0.0098781004
 22
0.3534330094
 32
0.0
 13
0.0000006738
 23
0.3535710239
 33
0.0
 40
0.0
 40
0.0
 40
0.0
 40
0.0
 40
0.210108614
 40
0.4581332567
 40
0.7266954159
 40
1.0
 40
1.0
 40
1.0
 40
1.0
 10
7.0481170062
 20
6.016380555
 30
0.0
 10
7.0474251815
 20
6.0411336616
 30
0.0
 10
7.0462224735
 20
6.0951153726
 30
0.0
 10
7.0449679303
 20
6.1807529152
 30
0.0
 10
7.0441980127
 20
6.2738445267
 30
0.0
 10
7.044027011
 20
6.3377074513
 30
0.0
 10
7.0440270724
 20
6.3699183119
 30
0.0
 11
7.0481170062
 21
6.016380555
 31
0.0
 11
7.0464086269
 21
6.0906492267
 31
0.0
 11
7.0450928941
 21
6.1783336826
 31
0.0
 11
7.0442903699
 21
6.2732860889
 31
0.0
 11
7.0440270724
 21
6.3699183119
 31
0.0
  0
SPLINE
  5
699
100
AcDbEntity
  8
ASSI
100
AcDbSpline
 62
253
  6
CONTINUOUS
 70
0
 71
3
 72
11
 73
7
 74
5
 42
0.0000001
 43
0.0000001
 44
0.0000000001
 12
0.000000661
 22
-0.353571321
 32
0.0
 13
-0.0098781864
 23
-0.3534333042
 33
0.0
 40
0.0
 40
0.0
 40
0.0
 40
0.0
 40
0.2733034014
 40
0.5418653407
 40
0.7898898962
 40
1.0
 40
1.0
 40
1.0
 40
1.0
 10
7.2544086307
 20
6.369918609
 30
0.0
 10
7.2544086909
 20
6.3377078607
 30
0.0
 10
7.2542376922
 20
6.2738450478
 30
0.0
 10
7.253467783
 20
6.1807535336
 30
0.0
 10
7.2522132291
 20
6.0951157798
 30
0.0
 10
7.2510105317
 20
6.0411338577
 30
0.0
 10
7.2503186961
 20
6.016380555
 30
0.0
 11
7.2544086307
 21
6.369918609
 31
0.0
 11
7.2541453365
 21
6.273286723
 31
0.0
 11
7.2533428167
 21
6.1783343146
 31
0.0
 11
7.2520270842
 21
6.0906498158
 31
0.0
 11
7.2503186961
 21
6.016380555
 31
0.0
  0
SPLINE
  5
69A
100
AcDbEntity
  8
ASSI
100
AcDbSpline
 62
253
  6
CONTINUOUS
 70
0
 71
3
 72
11
 73
7
 74
5
 42
0.0000001
 43
0.0000001
 44
0.0000000001
 12
0.000000661
 22
-0.353571321
 32
0.0
 13
-0.0098781864
 23
-0.3534333042
 33
0.0
 40
0.0
 40
0.0
 40
0.0
 40
0.0
 40
0.2733034014
 40
0.5418653407
 40
0.7898898962
 40
1.0
 40
1.0
 40
1.0
 40
1.0
 10
-7.0455913693
 20
6.369918609
 30
0.0
 10
-7.0455913091
 20
6.3377078607
 30
0.0
 10
-7.0457623078
 20
6.2738450478
 30
0.0
 10
-7.046532217
 20
6.1807535336
 30
0.0
 10
-7.0477867709
 20
6.0951157798
 30
0.0
 10
-7.0489894683
 20
6.0411338577
 30
0.0
 10
-7.0496813039
 20
6.016380555
 30
0.0
 11
-7.0455913693
 21
6.369918609
 31
0.0
 11
-7.0458546635
 21
6.273286723
 31
0.0
 11
-7.0466571833
 21
6.1783343146
 31
0.0
 11
-7.0479729158
 21
6.0906498158
 31
0.0
 11
-7.0496813039
 21
6.016380555
 31
0.0
  0
SPLINE
  5
69B
100
AcDbEntity
  8
ASSI
100
AcDbSpline
 62
253
  6
CONTINUOUS
 70
0
 71
3
 72
11
 73
7
 74
5
 42
0.0000001
 43
0.0000001
 44
0.0000000001
 12
-0.0098781004
 22
0.3534330094
 32
0.0
 13
0.0000006738
 23
0.3535710239
 33
0.0
 40
0.0
 40
0.0
 40
0.0
 40
0.0
 40
0.210108614
 40
0.4581332567
 40
0.7266954159
 40
1.0
 40
1.0
 40
1.0
 40
1.0
 10
-7.2518829938
 20
6.016380555
 30
0.0
 10
-7.2525748185
 20
6.0411336616
 30
0.0
 10
-7.2537775265
 20
6.0951153726
 30
0.0
 10
-7.2550320697
 20
6.1807529152
 30
0.0
 10
-7.2558019873
 20
6.2738445267
 30
0.0
 10
-7.255972989
 20
6.3377074513
 30
0.0
 10
-7.2559729276
 20
6.3699183119
 30
0.0
 11
-7.2518829938
 21
6.016380555
 31
0.0
 11
-7.2535913731
 21
6.0906492267
 31
0.0
 11
-7.2549071059
 21
6.1783336826
 31
0.0
 11
-7.2557096301
 21
6.2732860889
 31
0.0
 11
-7.2559729276
 21
6.3699183119
 31
0.0
  0
SPLINE
  5
69C
100
AcDbEntity
  8
ASSI
100
AcDbSpline
 62
7
  6
CONTINUOUS
 70
0
 71
3
 72
11
 73
7
 74
5
 42
0.0000001
 43
0.0000001
 44
0.0000000001
 12
0.1877591309
 22
0.0090044277
 32
0.0
 13
0.1879749211
 23
0.0
 33
0.0
 40
0.0
 40
0.0
 40
0.0
 40
0.0
 40
0.1555665837
 40
0.3898430933
 40
0.6801151059
 40
1.0
 40
1.0
 40
1.0
 40
1.0
 10
4.2411648902
 20
5.5864196637
 30
0.0
 10
4.250901239
 20
5.5868865931
 30
0.0
 10
4.275323415
 20
5.5875150312
 30
0.0
 10
4.3179317992
 20
5.5881939831
 30
0.0
 10
4.3708418771
 20
5.5886169558
 30
0.0
 10
4.4090731727
 20
5.588717176
 30
0.0
 10
4.4291166186
 20
5.588717176
 30
0.0
 11
4.2411648902
 21
5.5864196637
 31
0.0
 11
4.2703927022
 21
5.5873500484
 31
0.0
 11
4.31442466
 21
5.5880860391
 31
0.0
 11
4.3689864979
 21
5.5885556353
 31
0.0
 11
4.4291166186
 21
5.588717176
 31
0.0
  0
SPLINE
  5
69D
100
AcDbEntity
  8
ASSI
100
AcDbSpline
 62
7
  6
CONTINUOUS
 70
0
 71
3
 72
11
 73
7
 74
5
 42
0.0000001
 43
0.0000001
 44
0.0000000001
 12
-0.1879629201
 22
0.0
 32
0.0
 13
-0.1877471435
 23
0.009003857
 33
0.0
 40
0.0
 40
0.0
 40
0.0
 40
0.0
 40
0.3199428211
 40
0.6102303145
 40
0.8444792159
 40
1.0
 40
1.0
 40
1.0
 40
1.0
 10
4.4225937134
 20
3.9372501225
 30
0.0
 10
4.4025479177
 20
3.9372501225
 30
0.0
 10
4.3643144638
 20
3.9373503257
 30
0.0
 10
4.3114048934
 20
3.937773207
 30
0.0
 10
4.2688028577
 20
3.9384519653
 30
0.0
 10
4.2443868361
 20
3.9390801493
 30
0.0
 10
4.2346539751
 20
3.9395469116
 30
0.0
 11
4.4225937134
 21
3.9372501225
 31
0.0
 11
4.3624565434
 21
3.9374116508
 31
0.0
 11
4.3078952786
 21
3.937881165
 31
0.0
 11
4.2638713189
 21
3.9386169254
 31
0.0
 11
4.2346539751
 21
3.9395469116
 31
0.0
  0
SPLINE
  5
69E
100
AcDbEntity
  8
ASSI
100
AcDbSpline
 62
7
  6
CONTINUOUS
 70
0
 71
3
 72
11
 73
7
 74
5
 42
0.0000001
 43
0.0000001
 44
0.0000000001
 12
-0.1877471435
 22
-0.009003857
 32
0.0
 13
-0.1879629201
 23
0.0
 33
0.0
 40
0.0
 40
0.0
 40
0.0
 40
0.0
 40
0.1555207841
 40
0.3897696855
 40
0.6800571789
 40
1.0
 40
1.0
 40
1.0
 40
1.0
 10
-4.2362182728
 20
3.9395469116
 30
0.0
 10
-4.2459511338
 20
3.9390801493
 30
0.0
 10
-4.2703671554
 20
3.9384519653
 30
0.0
 10
-4.3129691911
 20
3.937773207
 30
0.0
 10
-4.3658787615
 20
3.9373503257
 30
0.0
 10
-4.4041122154
 20
3.9372501225
 30
0.0
 10
-4.4241580111
 20
3.9372501225
 30
0.0
 11
-4.2362182728
 21
3.9395469116
 31
0.0
 11
-4.2654356166
 21
3.9386169254
 31
0.0
 11
-4.3094595763
 21
3.937881165
 31
0.0
 11
-4.3640208411
 21
3.9374116508
 31
0.0
 11
-4.4241580111
 21
3.9372501225
 31
0.0
  0
SPLINE
  5
69F
100
AcDbEntity
  8
ASSI
100
AcDbSpline
 62
7
  6
CONTINUOUS
 70
0
 71
3
 72
11
 73
7
 74
5
 42
0.0000001
 43
0.0000001
 44
0.0000000001
 12
0.1879749211
 22
0.0
 32
0.0
 13
0.1877591309
 23
-0.0090044277
 33
0.0
 40
0.0
 40
0.0
 40
0.0
 40
0.0
 40
0.3198848941
 40
0.6101569067
 40
0.8444334163
 40
1.0
 40
1.0
 40
1.0
 40
1.0
 10
-4.4306809163
 20
5.588717176
 30
0.0
 10
-4.4106374704
 20
5.588717176
 30
0.0
 10
-4.3724061749
 20
5.5886169558
 30
0.0
 10
-4.3194960969
 20
5.5881939831
 30
0.0
 10
-4.2768877128
 20
5.5875150312
 30
0.0
 10
-4.2524655368
 20
5.5868865931
 30
0.0
 10
-4.2427291879
 20
5.5864196637
 30
0.0
 11
-4.4306809163
 21
5.588717176
 31
0.0
 11
-4.3705507956
 21
5.5885556353
 31
0.0
 11
-4.3159889577
 21
5.5880860391
 31
0.0
 11
-4.2719569999
 21
5.5873500484
 31
0.0
 11
-4.2427291879
 21
5.5864196637
 31
0.0
  0
ELLIPSE
  5
6A0
100
AcDbEntity
  8
RACCORDO
100
AcDbEllipse
 62
7
  6
CONTINUOUS
 10
12.0356867612
 20
-9.0804173258
 30
0.0
 11
0.2183310446
 21
0.1221043275
 31
0.0
 40
0.9980297029
 41
-2.0815635429
 42
-0.5109195152
  0
ELLIPSE
  5
6A1
100
AcDbEntity
  8
RACCORDO
100
AcDbEllipse
 62
7
  6
CONTINUOUS
 10
-12.0372510589
 20
-9.0804173258
 30
0.0
 11
0.2183310446
 21
-0.1221043275
 31
0.0
 40
0.9980297029
 41
-2.6306731384
 42
-1.0600291107
  0
ELLIPSE
  5
6A2
100
AcDbEntity
  8
RACCORDO
100
AcDbEllipse
 62
7
  6
CONTINUOUS
 10
-12.0437620409
 20
8.9058070564
 30
0.0
 11
-0.1768305473
 21
0.1768305473
 31
0.0
 40
0.9996954599
 41
-0.7852458701
 42
0.7852458701
  0
ELLIPSE
  5
6A3
100
AcDbEntity
  8
RACCORDO
100
AcDbEllipse
 62
7
  6
CONTINUOUS
 10
12.0421977432
 20
8.9058070564
 30
0.0
 11
-0.1768305473
 21
-0.1768305473
 31
0.0
 40
0.9996954599
 41
2.3563467834
 42
3.9268385237
  0
ELLIPSE
  5
6A4
100
AcDbEntity
  8
RACCORDO
100
AcDbEllipse
 62
7
  6
CONTINUOUS
 10
-12.2990366424
 20
8.2052711485
 30
0.0
 11
-0.0
 21
0.3
 31
0.0
 40
0.0174550649
 41
-3.1241393611
 42
-1.5707963268
  0
ELLIPSE
  5
6A5
100
AcDbEntity
  8
RACCORDO
100
AcDbEllipse
 62
7
  6
CONTINUOUS
 10
12.2974723446
 20
8.2052711485
 30
0.0
 11
0.0
 21
0.3
 31
0.0
 40
0.0174550649
 41
-4.7123889804
 42
-3.1590459461
  0
ELLIPSE
  5
6A6
100
AcDbEntity
  8
DRAFT
100
AcDbEllipse
 62
7
  6
CONTINUOUS
 10
-17.2238007531
 20
9.3628271644
 30
0.0
 11
0.0
 21
423.7
 31
0.0
 40
0.0174550649
 41
-1.6090810457
 42
-1.6073450502
  0
ELLIPSE
  5
6A7
100
AcDbEntity
  8
DRAFT
100
AcDbEllipse
 62
7
  6
CONTINUOUS
 10
-17.2238007531
 20
9.3628271644
 30
0.0
 11
0.0
 21
423.7
 31
0.0
 40
0.0174550649
 41
-1.5904371127
 42
-1.588683735
  0
ELLIPSE
  5
6A8
100
AcDbEntity
  8
RACCORDO
100
AcDbEllipse
 62
7
  6
CONTINUOUS
 10
-0.1777635446
 20
9.3628271644
 30
0.0
 11
0.0
 21
423.7
 31
0.0
 40
0.0174550649
 41
-4.7090312901
 42
-4.6981756364
  0
ELLIPSE
  5
6A9
100
AcDbEntity
  8
RACCORDO
100
AcDbEllipse
 62
7
  6
CONTINUOUS
 10
10.8852081008
 20
-7.9414832675
 30
0.0
 11
-0.0300136675
 21
0.3031910442
 31
0.0
 40
0.9846622838
 41
-3.2387599651
 42
-1.6709942215
  0
ELLIPSE
  5
6AA
100
AcDbEntity
  8
RACCORDO
100
AcDbEllipse
 62
7
  6
CONTINUOUS
 10
-10.8867723985
 20
-7.9414832675
 30
0.0
 11
0.0300136675
 21
0.3031910442
 31
0.0
 40
0.9846622838
 41
-4.6121910857
 42
-3.0444253421
  0
ELLIPSE
  5
6AB
100
AcDbEntity
  8
RACCORDO
100
AcDbEllipse
 62
7
  6
CONTINUOUS
 10
-7.0455913278
 20
7.9575906449
 30
0.0
 11
0.3
 21
0.0
 31
0.0
 40
0.0174550649
 41
0.0174532925
 42
1.5707963268
  0
ELLIPSE
  5
6AC
100
AcDbEntity
  8
RACCORDO
100
AcDbEllipse
 62
7
  6
CONTINUOUS
 10
-14.1238007531
 20
9.3628271644
 30
0.0
 11
0.0
 21
423.7
 31
0.0
 40
0.0174550649
 41
-1.5850096708
 42
-1.5741540171
  0
ELLIPSE
  5
6AD
100
AcDbEntity
  8
RACCORDO
100
AcDbEllipse
 62
7
  6
CONTINUOUS
 10
14.1222364554
 20
9.3628271644
 30
0.0
 11
0.0
 21
423.7
 31
0.0
 40
0.0174550649
 41
-4.7090312901
 42
-4.6981756364
  0
ELLIPSE
  5
6AE
100
AcDbEntity
  8
RACCORDO
100
AcDbEllipse
 62
7
  6
CONTINUOUS
 10
0.1761992469
 20
9.3628271644
 30
0.0
 11
0.0
 21
423.7
 31
0.0
 40
0.0174550649
 41
-1.5850096708
 42
-1.5741540171
  0
ELLIPSE
  5
6AF
100
AcDbEntity
  8
RACCORDO
100
AcDbEllipse
 62
7
  6
CONTINUOUS
 10
-7.2559729699
 20
7.9575906449
 30
0.0
 11
0.3
 21
-0.0
 31
0.0
 40
0.0174550649
 41
1.5707963268
 42
3.1241393611
  0
ELLIPSE
  5
6B0
100
AcDbEntity
  8
RACCORDO
100
AcDbEllipse
 62
7
  6
CONTINUOUS
 10
7.0440270301
 20
7.9575906449
 30
0.0
 11
0.3
 21
0.0
 31
0.0
 40
0.0174550649
 41
1.5707963268
 42
3.1241393611
  0
ELLIPSE
  5
6B1
100
AcDbEntity
  8
RACCORDO
100
AcDbEllipse
 62
7
  6
CONTINUOUS
 10
7.2544086722
 20
7.9575906449
 30
0.0
 11
0.3
 21
0.0
 31
0.0
 40
0.0174550649
 41
0.0174532925
 42
1.5707963268
  0
ELLIPSE
  5
6B2
100
AcDbEntity
  8
RACCORDO
100
AcDbEllipse
 62
7
  6
CONTINUOUS
 10
-3.5407198874
 20
5.5680636839
 30
0.0
 11
0.3
 21
-0.0
 31
0.0
 40
0.0174550649
 41
-2.7925268032
 42
-1.5707963268
  0
ELLIPSE
  5
6B3
100
AcDbEntity
  8
RACCORDO
100
AcDbEllipse
 62
7
  6
CONTINUOUS
 10
3.5391555897
 20
5.5680636839
 30
0.0
 11
0.3
 21
0.0
 31
0.0
 40
0.0174550649
 41
-1.5707963268
 42
-0.3490658504
  0
ELLIPSE
  5
6B4
100
AcDbEntity
  8
DRAFT
100
AcDbEllipse
 62
7
  6
CONTINUOUS
 10
17.2222364554
 20
9.3628271644
 30
0.0
 11
-0.0
 21
423.7
 31
0.0
 40
0.0174550649
 41
-4.6945015721
 42
-4.6927481945
  0
ELLIPSE
  5
6B5
100
AcDbEntity
  8
RACCORDO
100
AcDbEllipse
 62
7
  6
CONTINUOUS
 10
-3.5407198874
 20
3.9575906449
 30
0.0
 11
0.3
 21
0.0
 31
0.0
 40
0.0174550649
 41
1.5707963268
 42
2.7925268032
  0
ELLIPSE
  5
6B6
100
AcDbEntity
  8
DRAFT
100
AcDbEllipse
 62
7
  6
CONTINUOUS
 10
17.2222364554
 20
9.3628271644
 30
0.0
 11
0.0
 21
423.7
 31
0.0
 40
0.0174550649
 41
-4.675840257
 42
-4.6741042615
  0
ELLIPSE
  5
6B7
100
AcDbEntity
  8
RACCORDO
100
AcDbEllipse
 62
7
  6
CONTINUOUS
 10
3.5391555897
 20
3.9575906449
 30
0.0
 11
0.3
 21
0.0
 31
0.0
 40
0.0174550649
 41
0.3490658504
 42
1.5707963268
  0
ELLIPSE
  5
6B8
100
AcDbEntity
  8
RACCORDO
100
AcDbEllipse
 62
7
  6
CONTINUOUS
 10
-1.3563456882
 20
9.3628271644
 30
0.0
 11
0.0
 21
423.7
 31
0.0
 40
0.0174550649
 41
-1.6103149114
 42
-1.60848535
  0
ELLIPSE
  5
6B9
100
AcDbEntity
  8
RACCORDO
100
AcDbEllipse
 62
7
  6
CONTINUOUS
 10
12.5547813905
 20
9.3628271644
 30
0.0
 11
0.0
 21
423.7
 31
0.0
 40
0.0174550649
 41
-4.6746999572
 42
-4.6728703958
  0
ELLIPSE
  5
6BA
100
AcDbEntity
  8
DRAFT
100
AcDbEllipse
 62
7
  6
CONTINUOUS
 10
-3.0871107654
 20
9.3628271644
 30
0.0
 11
0.0
 21
423.7
 31
0.0
 40
0.0174550649
 41
-4.6861185815
 42
-4.6805882475
  0
ELLIPSE
  5
6BB
100
AcDbEntity
  8
DRAFT
100
AcDbEllipse
 62
7
  6
CONTINUOUS
 10
-18.8144535324
 20
9.3628271644
 30
0.0
 11
0.0
 21
423.7
 31
0.0
 40
0.0174550649
 41
-1.6025970597
 42
-1.5970667257
  0
ELLIPSE
  5
6BC
100
AcDbEntity
  8
DRAFT
100
AcDbEllipse
 62
7
  6
CONTINUOUS
 10
3.0855464676
 20
9.3628271644
 30
0.0
 11
0.0
 21
423.7
 31
0.0
 40
0.0174550649
 41
-1.6025970597
 42
-1.5970667257
  0
ELLIPSE
  5
6BD
100
AcDbEntity
  8
DRAFT
100
AcDbEllipse
 62
7
  6
CONTINUOUS
 10
18.8128892346
 20
9.3628271644
 30
0.0
 11
0.0
 21
423.7
 31
0.0
 40
0.0174550649
 41
-4.6861185815
 42
-4.6805882475
  0
ELLIPSE
  5
6BE
100
AcDbEntity
  8
RACCORDO
100
AcDbEllipse
 62
7
  6
CONTINUOUS
 10
-12.5563456882
 20
9.3628271644
 30
0.0
 11
0.0
 21
423.7
 31
0.0
 40
0.0174550649
 41
-1.6103149114
 42
-1.60848535
  0
ELLIPSE
  5
6BF
100
AcDbEntity
  8
RACCORDO
100
AcDbEllipse
 62
7
  6
CONTINUOUS
 10
1.3547813905
 20
9.3628271644
 30
0.0
 11
0.0
 21
423.7
 31
0.0
 40
0.0174550649
 41
-4.6746999572
 42
-4.6728703958
  0
ELLIPSE
  5
6C0
100
AcDbEntity
  8
RACCORDO
100
AcDbEllipse
 62
7
  6
CONTINUOUS
 10
-10.1805014576
 20
-6.8074992252
 30
0.0
 11
0.3
 21
0.0
 31
0.0
 40
0.0174550649
 41
0.0174532925
 42
1.5707963268
  0
ELLIPSE
  5
6C1
100
AcDbEntity
  8
RACCORDO
100
AcDbEllipse
 62
7
  6
CONTINUOUS
 10
-10.1805014576
 20
-6.166846446
 30
0.0
 11
0.3
 21
-0.0
 31
0.0
 40
0.0174550649
 41
-1.5707963268
 42
-0.0174532925
  0
ELLIPSE
  5
6C2
100
AcDbEntity
  8
RACCORDO
100
AcDbEllipse
 62
7
  6
CONTINUOUS
 10
-10.1805014576
 20
1.0925007748
 30
0.0
 11
0.3
 21
0.0
 31
0.0
 40
0.0174550649
 41
0.0174532925
 42
1.5707963268
  0
ELLIPSE
  5
6C3
100
AcDbEntity
  8
RACCORDO
100
AcDbEllipse
 62
7
  6
CONTINUOUS
 10
-10.1805014576
 20
1.733153554
 30
0.0
 11
0.3
 21
-0.0
 31
0.0
 40
0.0174550649
 41
-1.5707963268
 42
-0.0174532925
  0
ELLIPSE
  5
6C4
100
AcDbEntity
  8
RACCORDO
100
AcDbEllipse
 62
7
  6
CONTINUOUS
 10
10.1789371599
 20
-6.166846446
 30
0.0
 11
0.3
 21
-0.0
 31
0.0
 40
0.0174550649
 41
-3.1241393611
 42
-1.5707963268
  0
ELLIPSE
  5
6C5
100
AcDbEntity
  8
RACCORDO
100
AcDbEllipse
 62
7
  6
CONTINUOUS
 10
10.1789371599
 20
-6.8074992252
 30
0.0
 11
0.3
 21
0.0
 31
0.0
 40
0.0174550649
 41
1.5707963268
 42
3.1241393611
  0
ELLIPSE
  5
6C6
100
AcDbEntity
  8
RACCORDO
100
AcDbEllipse
 62
7
  6
CONTINUOUS
 10
10.1789371599
 20
1.733153554
 30
0.0
 11
0.3
 21
0.0
 31
0.0
 40
0.0174550649
 41
-3.1241393611
 42
-1.5707963268
  0
ELLIPSE
  5
6C7
100
AcDbEntity
  8
RACCORDO
100
AcDbEllipse
 62
7
  6
CONTINUOUS
 10
10.1789371599
 20
1.0925007748
 30
0.0
 11
0.3
 21
0.0
 31
0.0
 40
0.0174550649
 41
1.5707963268
 42
3.1241393611
  0
ELLIPSE
  5
6C8
100
AcDbEntity
  8
RACCORDO
100
AcDbEllipse
 62
7
  6
CONTINUOUS
 10
-6.0299229307
 20
-7.3649867407
 30
0.0
 11
0.0
 21
0.3
 31
0.0
 40
0.0174550649
 41
-4.6728703958
 42
-3.3161255788
  0
ELLIPSE
  5
6C9
100
AcDbEntity
  8
RACCORDO
100
AcDbEllipse
 62
7
  6
CONTINUOUS
 10
-5.1716413671
 20
-7.3649867407
 30
0.0
 11
-0.0
 21
0.3
 31
0.0
 40
0.0174550649
 41
-2.9670597284
 42
-1.6103149114
  0
ELLIPSE
  5
6CA
100
AcDbEntity
  8
RACCORDO
100
AcDbEllipse
 62
7
  6
CONTINUOUS
 10
6.0283586329
 20
-7.3649867407
 30
0.0
 11
0.0
 21
0.3
 31
0.0
 40
0.0174550649
 41
-2.9670597284
 42
-1.6103149114
  0
ELLIPSE
  5
6CB
100
AcDbEntity
  8
RACCORDO
100
AcDbEllipse
 62
7
  6
CONTINUOUS
 10
5.1700770693
 20
-7.3649867407
 30
0.0
 11
-0.0
 21
0.3
 31
0.0
 40
0.0174550649
 41
-4.6728703958
 42
-3.3161255788
  0
ELLIPSE
  5
6CC
100
AcDbEntity
  8
RACCORDO
100
AcDbEllipse
 62
7
  6
CONTINUOUS
 10
5.7044086722
 20
-7.9110899877
 30
0.0
 11
0.3
 21
0.0
 31
0.0
 40
0.1763269807
 41
-1.5707963268
 42
-0.0174532925
  0
ELLIPSE
  5
6CD
100
AcDbEntity
  8
RACCORDO
100
AcDbEllipse
 62
7
  6
CONTINUOUS
 10
-11.1990366424
 20
8.2052711485
 30
0.0
 11
-0.0
 21
0.3
 31
0.0
 40
0.0174550649
 41
-3.1241393611
 42
-1.5707963268
  0
ELLIPSE
  5
6CE
100
AcDbEntity
  8
RACCORDO
100
AcDbEllipse
 62
7
  6
CONTINUOUS
 10
11.1974723446
 20
8.2052711485
 30
0.0
 11
0.0
 21
0.3
 31
0.0
 40
0.0174550649
 41
-4.7123889804
 42
-3.1590459461
  0
ELLIPSE
  5
6CF
100
AcDbEntity
  8
RACCORDO
100
AcDbEllipse
 62
7
  6
CONTINUOUS
 10
-5.4955913278
 20
-7.9110899877
 30
0.0
 11
0.3
 21
0.0
 31
0.0
 40
0.1763269807
 41
-1.5707963268
 42
-0.0174532925
  0
ELLIPSE
  5
6D0
100
AcDbEntity
  8
RACCORDO
100
AcDbEllipse
 62
7
  6
CONTINUOUS
 10
-5.7059729699
 20
-7.9110899877
 30
0.0
 11
0.3
 21
-0.0
 31
0.0
 40
0.1763269807
 41
-3.1241393611
 42
-1.5707963268
  0
ELLIPSE
  5
6D1
100
AcDbEntity
  8
RACCORDO
100
AcDbEllipse
 62
7
  6
CONTINUOUS
 10
5.4940270301
 20
-7.9110899877
 30
0.0
 11
0.3
 21
0.0
 31
0.0
 40
0.1763269807
 41
-3.1241393611
 42
-1.5707963268
  0
ELLIPSE
  5
6D2
100
AcDbEntity
  8
ASSI
100
AcDbEllipse
 62
7
  6
CONTINUOUS
 10
12.0356867612
 20
-9.0804173258
 30
0.0
 11
0.2183310446
 21
0.1221043275
 31
0.0
 40
0.9980297029
 41
-2.0815635429
 42
-0.5109195152
  0
ELLIPSE
  5
6D3
100
AcDbEntity
  8
ASSI
100
AcDbEllipse
 62
7
  6
CONTINUOUS
 10
-12.0372510589
 20
-9.0804173258
 30
0.0
 11
0.2183310446
 21
-0.1221043275
 31
0.0
 40
0.9980297029
 41
-2.6306731384
 42
-1.0600291107
  0
ELLIPSE
  5
6D4
100
AcDbEntity
  8
ASSI
100
AcDbEllipse
 62
7
  6
CONTINUOUS
 10
-12.0437620409
 20
8.9058070564
 30
0.0
 11
-0.1768305473
 21
0.1768305473
 31
0.0
 40
0.9996954599
 41
-0.7852458701
 42
0.7852458701
  0
ELLIPSE
  5
6D5
100
AcDbEntity
  8
ASSI
100
AcDbEllipse
 62
7
  6
CONTINUOUS
 10
12.0421977432
 20
8.9058070564
 30
0.0
 11
-0.1768305473
 21
-0.1768305473
 31
0.0
 40
0.9996954599
 41
2.3563467834
 42
3.9268385237
  0
ELLIPSE
  5
6D6
100
AcDbEntity
  8
ASSI
100
AcDbEllipse
 62
7
  6
CONTINUOUS
 10
-12.2990366424
 20
8.2052711485
 30
0.0
 11
-0.0
 21
0.3
 31
0.0
 40
0.0174550649
 41
-3.1241393611
 42
-1.5707963268
  0
ELLIPSE
  5
6D7
100
AcDbEntity
  8
ASSI
100
AcDbEllipse
 62
7
  6
CONTINUOUS
 10
12.2974723446
 20
8.2052711485
 30
0.0
 11
0.0
 21
0.3
 31
0.0
 40
0.0174550649
 41
-4.7123889804
 42
-3.1590459461
  0
ELLIPSE
  5
6D8
100
AcDbEntity
  8
ASSI
100
AcDbEllipse
 62
7
  6
CONTINUOUS
 10
-12.5563456882
 20
9.3628271644
 30
0.0
 11
0.0
 21
423.7
 31
0.0
 40
0.0174550649
 41
-1.6103149114
 42
-1.60848535
  0
ELLIPSE
  5
6D9
100
AcDbEntity
  8
ASSI
100
AcDbEllipse
 62
7
  6
CONTINUOUS
 10
1.3547813905
 20
9.3628271644
 30
0.0
 11
0.0
 21
423.7
 31
0.0
 40
0.0174550649
 41
-4.6746999572
 42
-4.6728703958
  0
ELLIPSE
  5
6DA
100
AcDbEntity
  8
ASSI
100
AcDbEllipse
 62
7
  6
CONTINUOUS
 10
-17.2238007531
 20
9.3628271644
 30
0.0
 11
0.0
 21
423.7
 31
0.0
 40
0.0174550649
 41
-1.6090810457
 42
-1.6073450502
  0
ELLIPSE
  5
6DB
100
AcDbEntity
  8
ASSI
100
AcDbEllipse
 62
7
  6
CONTINUOUS
 10
10.8852081008
 20
-7.9414832675
 30
0.0
 11
-0.0300136675
 21
0.3031910442
 31
0.0
 40
0.9846622838
 41
-3.2387599651
 42
-1.6709942215
  0
ELLIPSE
  5
6DC
100
AcDbEntity
  8
ASSI
100
AcDbEllipse
 62
7
  6
CONTINUOUS
 10
-10.8867723985
 20
-7.9414832675
 30
0.0
 11
0.0300136675
 21
0.3031910442
 31
0.0
 40
0.9846622838
 41
-4.6121910857
 42
-3.0444253421
  0
ELLIPSE
  5
6DD
100
AcDbEntity
  8
ASSI
100
AcDbEllipse
 62
7
  6
CONTINUOUS
 10
-7.0455913278
 20
7.9575906449
 30
0.0
 11
0.3
 21
0.0
 31
0.0
 40
0.0174550649
 41
0.0174532925
 42
1.5707963268
  0
ELLIPSE
  5
6DE
100
AcDbEntity
  8
ASSI
100
AcDbEllipse
 62
7
  6
CONTINUOUS
 10
-17.2238007531
 20
9.3628271644
 30
0.0
 11
0.0
 21
423.7
 31
0.0
 40
0.0174550649
 41
-1.5904371127
 42
-1.588683735
  0
ELLIPSE
  5
6DF
100
AcDbEntity
  8
ASSI
100
AcDbEllipse
 62
7
  6
CONTINUOUS
 10
-0.1777635446
 20
9.3628271644
 30
0.0
 11
0.0
 21
423.7
 31
0.0
 40
0.0174550649
 41
-4.7090312901
 42
-4.6981756364
  0
ELLIPSE
  5
6E0
100
AcDbEntity
  8
ASSI
100
AcDbEllipse
 62
7
  6
CONTINUOUS
 10
-7.2559729699
 20
7.9575906449
 30
0.0
 11
0.3
 21
-0.0
 31
0.0
 40
0.0174550649
 41
1.5707963268
 42
3.1241393611
  0
ELLIPSE
  5
6E1
100
AcDbEntity
  8
ASSI
100
AcDbEllipse
 62
7
  6
CONTINUOUS
 10
-14.1238007531
 20
9.3628271644
 30
0.0
 11
0.0
 21
423.7
 31
0.0
 40
0.0174550649
 41
-1.5850096708
 42
-1.5741540171
  0
ELLIPSE
  5
6E2
100
AcDbEntity
  8
ASSI
100
AcDbEllipse
 62
7
  6
CONTINUOUS
 10
14.1222364554
 20
9.3628271644
 30
0.0
 11
0.0
 21
423.7
 31
0.0
 40
0.0174550649
 41
-4.7090312901
 42
-4.6981756364
  0
ELLIPSE
  5
6E3
100
AcDbEntity
  8
ASSI
100
AcDbEllipse
 62
7
  6
CONTINUOUS
 10
0.1761992469
 20
9.3628271644
 30
0.0
 11
0.0
 21
423.7
 31
0.0
 40
0.0174550649
 41
-1.5850096708
 42
-1.5741540171
  0
ELLIPSE
  5
6E4
100
AcDbEntity
  8
ASSI
100
AcDbEllipse
 62
7
  6
CONTINUOUS
 10
-1.3563456882
 20
9.3628271644
 30
0.0
 11
0.0
 21
423.7
 31
0.0
 40
0.0174550649
 41
-1.6103149114
 42
-1.60848535
  0
ELLIPSE
  5
6E5
100
AcDbEntity
  8
ASSI
100
AcDbEllipse
 62
7
  6
CONTINUOUS
 10
7.0440270301
 20
7.9575906449
 30
0.0
 11
0.3
 21
0.0
 31
0.0
 40
0.0174550649
 41
1.5707963268
 42
3.1241393611
  0
ELLIPSE
  5
6E6
100
AcDbEntity
  8
ASSI
100
AcDbEllipse
 62
7
  6
CONTINUOUS
 10
7.2544086722
 20
7.9575906449
 30
0.0
 11
0.3
 21
0.0
 31
0.0
 40
0.0174550649
 41
0.0174532925
 42
1.5707963268
  0
ELLIPSE
  5
6E7
100
AcDbEntity
  8
ASSI
100
AcDbEllipse
 62
7
  6
CONTINUOUS
 10
-3.5407198874
 20
5.5680636839
 30
0.0
 11
0.3
 21
-0.0
 31
0.0
 40
0.0174550649
 41
-2.7925268032
 42
-1.5707963268
  0
ELLIPSE
  5
6E8
100
AcDbEntity
  8
ASSI
100
AcDbEllipse
 62
7
  6
CONTINUOUS
 10
3.5391555897
 20
5.5680636839
 30
0.0
 11
0.3
 21
0.0
 31
0.0
 40
0.0174550649
 41
-1.5707963268
 42
-0.3490658504
  0
ELLIPSE
  5
6E9
100
AcDbEntity
  8
ASSI
100
AcDbEllipse
 62
7
  6
CONTINUOUS
 10
-3.5407198874
 20
3.9575906449
 30
0.0
 11
0.3
 21
0.0
 31
0.0
 40
0.0174550649
 41
1.5707963268
 42
2.7925268032
  0
ELLIPSE
  5
6EA
100
AcDbEntity
  8
ASSI
100
AcDbEllipse
 62
7
  6
CONTINUOUS
 10
12.5547813905
 20
9.3628271644
 30
0.0
 11
0.0
 21
423.7
 31
0.0
 40
0.0174550649
 41
-4.6746999572
 42
-4.6728703958
  0
ELLIPSE
  5
6EB
100
AcDbEntity
  8
ASSI
100
AcDbEllipse
 62
7
  6
CONTINUOUS
 10
3.5391555897
 20
3.9575906449
 30
0.0
 11
0.3
 21
0.0
 31
0.0
 40
0.0174550649
 41
0.3490658504
 42
1.5707963268
  0
ELLIPSE
  5
6EC
100
AcDbEntity
  8
ASSI
100
AcDbEllipse
 62
7
  6
CONTINUOUS
 10
17.2222364554
 20
9.3628271644
 30
0.0
 11
-0.0
 21
423.7
 31
0.0
 40
0.0174550649
 41
-4.6945015721
 42
-4.6927481945
  0
ELLIPSE
  5
6ED
100
AcDbEntity
  8
ASSI
100
AcDbEllipse
 62
7
  6
CONTINUOUS
 10
-3.0871107654
 20
9.3628271644
 30
0.0
 11
0.0
 21
423.7
 31
0.0
 40
0.0174550649
 41
-4.6861185815
 42
-4.6805882475
  0
ELLIPSE
  5
6EE
100
AcDbEntity
  8
ASSI
100
AcDbEllipse
 62
7
  6
CONTINUOUS
 10
-18.8144535324
 20
9.3628271644
 30
0.0
 11
0.0
 21
423.7
 31
0.0
 40
0.0174550649
 41
-1.6025970597
 42
-1.5970667257
  0
ELLIPSE
  5
6EF
100
AcDbEntity
  8
ASSI
100
AcDbEllipse
 62
7
  6
CONTINUOUS
 10
3.0855464676
 20
9.3628271644
 30
0.0
 11
0.0
 21
423.7
 31
0.0
 40
0.0174550649
 41
-1.6025970597
 42
-1.5970667257
  0
ELLIPSE
  5
6F0
100
AcDbEntity
  8
ASSI
100
AcDbEllipse
 62
7
  6
CONTINUOUS
 10
18.8128892346
 20
9.3628271644
 30
0.0
 11
0.0
 21
423.7
 31
0.0
 40
0.0174550649
 41
-4.6861185815
 42
-4.6805882475
  0
ELLIPSE
  5
6F1
100
AcDbEntity
  8
ASSI
100
AcDbEllipse
 62
7
  6
CONTINUOUS
 10
17.2222364554
 20
9.3628271644
 30
0.0
 11
0.0
 21
423.7
 31
0.0
 40
0.0174550649
 41
-4.675840257
 42
-4.6741042615
  0
ELLIPSE
  5
6F2
100
AcDbEntity
  8
ASSI
100
AcDbEllipse
 62
7
  6
CONTINUOUS
 10
-10.1805014576
 20
-6.8074992252
 30
0.0
 11
0.3
 21
0.0
 31
0.0
 40
0.0174550649
 41
0.0174532925
 42
1.5707963268
  0
ELLIPSE
  5
6F3
100
AcDbEntity
  8
ASSI
100
AcDbEllipse
 62
7
  6
CONTINUOUS
 10
-10.1805014576
 20
-6.166846446
 30
0.0
 11
0.3
 21
-0.0
 31
0.0
 40
0.0174550649
 41
-1.5707963268
 42
-0.0174532925
  0
ELLIPSE
  5
6F4
100
AcDbEntity
  8
ASSI
100
AcDbEllipse
 62
7
  6
CONTINUOUS
 10
-10.1805014576
 20
1.0925007748
 30
0.0
 11
0.3
 21
0.0
 31
0.0
 40
0.0174550649
 41
0.0174532925
 42
1.5707963268
  0
ELLIPSE
  5
6F5
100
AcDbEntity
  8
ASSI
100
AcDbEllipse
 62
7
  6
CONTINUOUS
 10
-10.1805014576
 20
1.733153554
 30
0.0
 11
0.3
 21
-0.0
 31
0.0
 40
0.0174550649
 41
-1.5707963268
 42
-0.0174532925
  0
ELLIPSE
  5
6F6
100
AcDbEntity
  8
ASSI
100
AcDbEllipse
 62
7
  6
CONTINUOUS
 10
10.1789371599
 20
-6.166846446
 30
0.0
 11
0.3
 21
-0.0
 31
0.0
 40
0.0174550649
 41
-3.1241393611
 42
-1.5707963268
  0
ELLIPSE
  5
6F7
100
AcDbEntity
  8
ASSI
100
AcDbEllipse
 62
7
  6
CONTINUOUS
 10
10.1789371599
 20
-6.8074992252
 30
0.0
 11
0.3
 21
0.0
 31
0.0
 40
0.0174550649
 41
1.5707963268
 42
3.1241393611
  0
ELLIPSE
  5
6F8
100
AcDbEntity
  8
ASSI
100
AcDbEllipse
 62
7
  6
CONTINUOUS
 10
10.1789371599
 20
1.733153554
 30
0.0
 11
0.3
 21
0.0
 31
0.0
 40
0.0174550649
 41
-3.1241393611
 42
-1.5707963268
  0
ELLIPSE
  5
6F9
100
AcDbEntity
  8
ASSI
100
AcDbEllipse
 62
7
  6
CONTINUOUS
 10
10.1789371599
 20
1.0925007748
 30
0.0
 11
0.3
 21
0.0
 31
0.0
 40
0.0174550649
 41
1.5707963268
 42
3.1241393611
  0
ELLIPSE
  5
6FA
100
AcDbEntity
  8
ASSI
100
AcDbEllipse
 62
7
  6
CONTINUOUS
 10
-6.0299229307
 20
-7.3649867407
 30
0.0
 11
0.0
 21
0.3
 31
0.0
 40
0.0174550649
 41
-4.6728703958
 42
-3.3161255788
  0
ELLIPSE
  5
6FB
100
AcDbEntity
  8
ASSI
100
AcDbEllipse
 62
7
  6
CONTINUOUS
 10
-5.1716413671
 20
-7.3649867407
 30
0.0
 11
-0.0
 21
0.3
 31
0.0
 40
0.0174550649
 41
-2.9670597284
 42
-1.6103149114
  0
ELLIPSE
  5
6FC
100
AcDbEntity
  8
ASSI
100
AcDbEllipse
 62
7
  6
CONTINUOUS
 10
6.0283586329
 20
-7.3649867407
 30
0.0
 11
0.0
 21
0.3
 31
0.0
 40
0.0174550649
 41
-2.9670597284
 42
-1.6103149114
  0
ELLIPSE
  5
6FD
100
AcDbEntity
  8
ASSI
100
AcDbEllipse
 62
7
  6
CONTINUOUS
 10
5.1700770693
 20
-7.3649867407
 30
0.0
 11
-0.0
 21
0.3
 31
0.0
 40
0.0174550649
 41
-4.6728703958
 42
-3.3161255788
  0
ELLIPSE
  5
6FE
100
AcDbEntity
  8
ASSI
100
AcDbEllipse
 62
7
  6
CONTINUOUS
 10
5.7044086722
 20
-7.9110899877
 30
0.0
 11
0.3
 21
0.0
 31
0.0
 40
0.1763269807
 41
-1.5707963268
 42
-0.0174532925
  0
ELLIPSE
  5
6FF
100
AcDbEntity
  8
ASSI
100
AcDbEllipse
 62
7
  6
CONTINUOUS
 10
-11.1990366424
 20
8.2052711485
 30
0.0
 11
-0.0
 21
0.3
 31
0.0
 40
0.0174550649
 41
-3.1241393611
 42
-1.5707963268
  0
ELLIPSE
  5
700
100
AcDbEntity
  8
ASSI
100
AcDbEllipse
 62
7
  6
CONTINUOUS
 10
11.1974723446
 20
8.2052711485
 30
0.0
 11
0.0
 21
0.3
 31
0.0
 40
0.0174550649
 41
-4.7123889804
 42
-3.1590459461
  0
ELLIPSE
  5
701
100
AcDbEntity
  8
ASSI
100
AcDbEllipse
 62
7
  6
CONTINUOUS
 10
-5.4955913278
 20
-7.9110899877
 30
0.0
 11
0.3
 21
0.0
 31
0.0
 40
0.1763269807
 41
-1.5707963268
 42
-0.0174532925
  0
ELLIPSE
  5
702
100
AcDbEntity
  8
ASSI
100
AcDbEllipse
 62
7
  6
CONTINUOUS
 10
-5.7059729699
 20
-7.9110899877
 30
0.0
 11
0.3
 21
-0.0
 31
0.0
 40
0.1763269807
 41
-3.1241393611
 42
-1.5707963268
  0
ELLIPSE
  5
703
100
AcDbEntity
  8
ASSI
100
AcDbEllipse
 62
7
  6
CONTINUOUS
 10
5.4940270301
 20
-7.9110899877
 30
0.0
 11
0.3
 21
0.0
 31
0.0
 40
0.1763269807
 41
-3.1241393611
 42
-1.5707963268
  0
ENDSEC
  0
SECTION
  2
OBJECTS
  0
DICTIONARY
  5
C
100
AcDbDictionary
280
0
281
1
  3
ACAD_GROUP
350
D
  3
ACAD_MLINESTYLE
350
17
  3
ACAD_LAYOUT
350
1A
  3
ACAD_PLOTSETTINGS
350
19
  3
ACAD_PLOTSTYLENAME
350
E
  0
DICTIONARY
  5
D
102
{ACAD_REACTORS
330
C
102
}
100
AcDbDictionary
280
0
281
1
  0
ACDBDICTIONARYWDFLT
  5
E
102
{ACAD_REACTORS
330
C
102
}
100
AcDbDictionary
281
1
  3
Normal
350
F
100
AcDbDictionaryWithDefault
340
F
  0
DICTIONARY
  5
17
102
{ACAD_REACTORS
330
C
102
}
100
AcDbDictionary
280
0
281
1
  3
Standard
350
18
  0
DICTIONARY
  5
19
102
{ACAD_REACTORS
330
C
102
}
100
AcDbDictionary
281
1
  0
DICTIONARY
  5
1A
102
{ACAD_REACTORS
330
C
102
}
100
AcDbDictionary
281
1
  3
Model
350
704
  3
Layout1
350
705
  0
ACDBPLACEHOLDER
  5
F
102
{ACAD_REACTORS
330
E
102
}
  0
MLINESTYLE
  5
18
102
{ACAD_REACTORS
330
17
102
}
100
AcDbMlineStyle
  2
STANDARD
 70
0
  3

 62
256
 51
90.0
 52
90.0
 71
2
 49
0.5
 62
256
  6
BYLAYER
 49
-0.5
 62
256
  6
BYLAYER
  0
LAYOUT
  5
704
102
{ACAD_REACTORS
330
1A
102
}
100
AcDbPlotSettings
  1

  2
none_device
  4
ISO_A4_(297.00_x_210.00_MM)
  6

 40
0.0
 41
0.0
 42
0.0
 43
0.0
 44
297.0
 45
210.0
 46
0.0
 47
0.0
 48
0.0
 49
0.0
140
0.0
141
0.0
142
1.0
143
1.0
 70
1024
 72
1
 73
0
 74
0
  7

 75
0
147
1.0
148
0.0
149
0.0
100
AcDbLayout
  1
Model
 70
0
 71
0
 10
0.0
 20
0.0
 11
297.0
 21
210.0
 12
0.0
 22
0.0
 32
0.0
 14
0.0
 24
0.0
 34
0.0
 15
0.0
 25
0.0
 35
0.0
146
0.0
 13
0.0
 23
0.0
 33
0.0
 16
1.0
 26
0.0
 36
0.0
 17
0.0
 27
1.0
 37
0.0
 76
0
330
212
345
0
346
0
  0
LAYOUT
  5
705
102
{ACAD_REACTORS
330
1A
102
}
100
AcDbPlotSettings
  1

  2
none_device
  4
ISO_A4_(297.00_x_210.00_MM)
  6

 40
0.0
 41
0.0
 42
0.0
 43
0.0
 44
297.0
 45
210.0
 46
0.0
 47
0.0
 48
0.0
 49
0.0
140
0.0
141
0.0
142
1.0
143
1.0
 70
0
 72
1
 73
0
 74
0
  7

 75
0
147
1.0
148
0.0
149
0.0
100
AcDbLayout
  1
Layout1
 70
0
 71
1
 10
0.0
 20
0.0
 11
297.0
 21
210.0
 12
0.0
 22
0.0
 32
0.0
 14
0.0
 24
0.0
 34
0.0
 15
0.0
 25
0.0
 35
0.0
146
0.0
 13
0.0
 23
0.0
 33
0.0
 16
1.0
 26
0.0
 36
0.0
 17
0.0
 27
1.0
 37
0.0
 76
0
330
213
345
0
346
0
  0
ENDSEC
  0
EOF
