  0
SECTION
  2
HEADER
  9
$ACADVER
  1
AC1015
  9
$DWGCODEPAGE
  3
ANSI_1252
  9
$EXTMAX
 10
297.0
 20
210.0
 30
0.0
  9
$EXTMIN
 10
0.0
 20
0.0
 30
0.0
  9
$LIMMIN
 10
0.0
 20
0.0
  9
$LIMMAX
 10
297.0
 20
210.0
  9
$VIEWCTR
 10
148.5
 20
105.0
  9
$VIEWSIZE
 40
210.0
  9
$CLAYER
  8
0
  9
$LTSCALE
 40
16.335
  9
$CELTYPE
  6
BYLAYER
  9
$DIMSCALE
 40
1.0
  9
$DIMASZ
 40
3.0
  9
$DIMEXO
 40
1.85625
  9
$DIMDLI
 40
11.286
  9
$DIMEXE
 40
5.346
  9
$DIMCEN
 40
2.673
  9
$DIMLFAC
 40
1.0
  9
$DIMBLK
  1
_FILLED
  9
$DIMTXT
 40
3.0
  9
$DIMTOL
 70
1
  9
$DIMLIM
 70
0
  9
$DIMTFAC
 40
1.0
  9
$DIMTP
 40
0.01
  9
$DIMTM
 40
0.01
  9
$PDMODE
 70
3
  9
$PDSIZE
 40
3.0
  9
$HANDSEED
  5
706
  9
$TILEMODE
 70
1
  9
$MEASUREMENT
 70
1
  9
$INSUNITS
 70
4
  0
ENDSEC
  0
SECTION
  2
CLASSES
  0
CLASS
  1
ACDBDICTIONARYWDFLT
  2
AcDbDictionaryWithDefault
  3
AutoCAD 2000
 90
0
280
0
281
0
  0
CLASS
  1
ACDBPLACEHOLDER
  2
AcDbPlaceHolder
  3
AutoCAD 2000
 90
0
280
0
281
0
  0
CLASS
  1
LAYOUT
  2
AcDbLayout
  3
AutoCAD 2000
 90
0
280
0
281
0
  0
ENDSEC
  0
SECTION
  2
TABLES
  0
TABLE
  2
VPORT
  5
8
100
AcDbSymbolTable
 70
2
  0
VPORT
  5
1F4
100
AcDbSymbolTableRecord
100
AcDbViewportTableRecord
  2
*ACTIVE
 70
0
 10
0.0
 20
0.0
 11
1.0
 21
1.0
 12
148.5
 22
105.0
 13
0.0
 23
0.0
 14
1.0
 24
1.0
 15
0.0
 25
0.0
 16
0.0
 26
0.0
 36
1.0
 17
0.0
 27
0.0
 37
0.0
 40
210.0
 41
1.4142857143
 42
50.0
 43
0.0
 44
0.0
 50
0.0
 51
0.0
 71
0
 72
100
 73
1
 74
1
 75
0
 76
0
 77
0
 78
0
  0
ENDTAB
  0
TABLE
  2
LTYPE
  5
5
100
AcDbSymbolTable
 70
6
  0
LTYPE
  5
14
100
AcDbSymbolTableRecord
100
AcDbLinetypeTableRecord
  2
BYBLOCK
 70
0
  3

 72
65
 73
0
 40
0.0
  0
LTYPE
  5
15
100
AcDbSymbolTableRecord
100
AcDbLinetypeTableRecord
  2
BYLAYER
 70
0
  3

 72
65
 73
0
 40
0.0
  0
LTYPE
  5
16
100
AcDbSymbolTableRecord
100
AcDbLinetypeTableRecord
  2
CONTINUOUS
 70
64
  3
Solid line
 72
65
 73
0
 40
0.0
  0
LTYPE
  5
1F5
100
AcDbSymbolTableRecord
100
AcDbLinetypeTableRecord
  2
CENTER
 70
64
  3
____ _ ____ _ ____ _ ____ _ ____ _ ____ _ ____
 72
65
 73
4
 40
0.6
 49
0.375
 74
0
 49
-0.075
 74
0
 49
0.075
 74
0
 49
-0.075
 74
0
  0
LTYPE
  5
1F6
100
AcDbSymbolTableRecord
100
AcDbLinetypeTableRecord
  2
HIDDEN
 70
64
  3
- - - - - - - - - - - - - - - - - - - -
 72
65
 73
2
 40
0.2
 49
0.1
 74
0
 49
-0.1
 74
0
  0
LTYPE
  5
1F7
100
AcDbSymbolTableRecord
100
AcDbLinetypeTableRecord
  2
PHANTOM
 70
64
  3
_____ _ _ _____ _ _ _____ _ _ _____
 72
65
 73
6
 40
0.8
 49
0.45
 74
0
 49
-0.05
 74
0
 49
0.1
 74
0
 49
-0.05
 74
0
 49
0.1
 74
0
 49
-0.05
 74
0
  0
LTYPE
  5
1F8
100
AcDbSymbolTableRecord
100
AcDbLinetypeTableRecord
  2
DOT
 70
64
  3
. . . . . . . . . . . . . . . . . . . .
 72
65
 73
2
 40
0.2
 49
0.1
 74
0
 49
-0.1
 74
0
  0
LTYPE
  5
1F9
100
AcDbSymbolTableRecord
100
AcDbLinetypeTableRecord
  2
DASHED
 70
64
  3
- - - - - - - - - - - - - - - - - - - -
 72
65
 73
2
 40
0.2
 49
0.1
 74
0
 49
-0.1
 74
0
  0
ENDTAB
  0
TABLE
  2
LAYER
  5
2
100
AcDbSymbolTable
 70
36
  0
LAYER
  5
10
100
AcDbSymbolTableRecord
100
AcDbLayerTableRecord
  2
0
 70
0
 62
7
  6
CONTINUOUS
370
-3
390
F
  0
LAYER
  5
1FA
100
AcDbSymbolTableRecord
100
AcDbLayerTableRecord
  2
DEFAULT_1
 70
0
 62
7
  6
CENTER
370
-3
390
F
  0
LAYER
  5
1FB
100
AcDbSymbolTableRecord
100
AcDbLayerTableRecord
  2
DEFAULT_2
 70
0
 62
7
  6
HIDDEN
370
-3
390
F
  0
LAYER
  5
1FC
100
AcDbSymbolTableRecord
100
AcDbLayerTableRecord
  2
DEFAULT_3
 70
0
 62
7
  6
PHANTOM
370
-3
390
F
  0
LAYER
  5
1FD
100
AcDbSymbolTableRecord
100
AcDbLayerTableRecord
  2
ASSI
 70
0
 62
7
  6
CONTINUOUS
370
-3
390
F
  0
LAYER
  5
1FE
100
AcDbSymbolTableRecord
100
AcDbLayerTableRecord
  2
COORDINATE
 70
0
 62
7
  6
CONTINUOUS
370
-3
390
F
  0
LAYER
  5
1FF
100
AcDbSymbolTableRecord
100
AcDbLayerTableRecord
  2
COORD_ORIGINE
 70
0
 62
7
  6
CONTINUOUS
370
-3
390
F
  0
LAYER
  5
200
100
AcDbSymbolTableRecord
100
AcDbLayerTableRecord
  2
COPY_PUBLISH
 70
0
 62
7
  6
CONTINUOUS
370
-3
390
F
  0
LAYER
  5
201
100
AcDbSymbolTableRecord
100
AcDbLayerTableRecord
  2
COSMETIC
 70
0
 62
7
  6
CONTINUOUS
370
-3
390
F
  0
LAYER
  5
202
100
AcDbSymbolTableRecord
100
AcDbLayerTableRecord
  2
CURVE
 70
0
 62
7
  6
CONTINUOUS
370
-3
390
F
  0
LAYER
  5
203
100
AcDbSymbolTableRecord
100
AcDbLayerTableRecord
  2
DRAFT
 70
0
 62
7
  6
CONTINUOUS
370
-3
390
F
  0
LAYER
  5
204
100
AcDbSymbolTableRecord
100
AcDbLayerTableRecord
  2
IGES
 70
0
 62
7
  6
CONTINUOUS
370
-3
390
F
  0
LAYER
  5
205
100
AcDbSymbolTableRecord
100
AcDbLayerTableRecord
  2
IMPORT_IGES
 70
0
 62
7
  6
CONTINUOUS
370
-3
390
F
  0
LAYER
  5
206
100
AcDbSymbolTableRecord
100
AcDbLayerTableRecord
  2
INTF_12
 70
0
 62
7
  6
CONTINUOUS
370
-3
390
F
  0
LAYER
  5
207
100
AcDbSymbolTableRecord
100
AcDbLayerTableRecord
  2
INTF_9
 70
0
 62
7
  6
CONTINUOUS
370
-3
390
F
  0
LAYER
  5
208
100
AcDbSymbolTableRecord
100
AcDbLayerTableRecord
  2
NOTE
 70
0
 62
7
  6
CONTINUOUS
370
-3
390
F
  0
LAYER
  5
209
100
AcDbSymbolTableRecord
100
AcDbLayerTableRecord
  2
PIANI
 70
0
 62
7
  6
CONTINUOUS
370
-3
390
F
  0
LAYER
  5
20A
100
AcDbSymbolTableRecord
100
AcDbLayerTableRecord
  2
PIANI_ORIGINE
 70
0
 62
7
  6
CONTINUOUS
370
-3
390
F
  0
LAYER
  5
20B
100
AcDbSymbolTableRecord
100
AcDbLayerTableRecord
  2
RACCORDO
 70
0
 62
7
  6
CONTINUOUS
370
-3
390
F
  0
LAYER
  5
20C
100
AcDbSymbolTableRecord
100
AcDbLayerTableRecord
  2
SMUSSO
 70
0
 62
7
  6
CONTINUOUS
370
-3
390
F
  0
LAYER
  5
20D
100
AcDbSymbolTableRecord
100
AcDbLayerTableRecord
  2
SNAPLINE
 70
0
 62
7
  6
CONTINUOUS
370
-3
390
F
  0
LAYER
  5
20E
100
AcDbSymbolTableRecord
100
AcDbLayerTableRecord
  2
SUPERFICI
 70
0
 62
7
  6
CONTINUOUS
370
-3
390
F
  0
LAYER
  5
20F
100
AcDbSymbolTableRecord
100
AcDbLayerTableRecord
  2
TRASH
 70
0
 62
7
  6
CONTINUOUS
370
-3
390
F
  0
ENDTAB
  0
TABLE
  2
STYLE
  5
3
100
AcDbSymbolTable
 70
1
  0
STYLE
  5
11
100
AcDbSymbolTableRecord
100
AcDbTextStyleTableRecord
  2
STANDARD
 70
0
 40
0.0
 41
0.8
 50
0.0
 71
0
 42
0.2
  3
txt
  4

  0
STYLE
  5
210
100
AcDbSymbolTableRecord
100
AcDbTextStyleTableRecord
  2
TEXTSTYLE_1
 70
0
 40
0.0
 41
0.8
 50
0.0
 71
0
 42
0.2
  3
gdt
  4

  0
ENDTAB
  0
TABLE
  2
VIEW
  5
6
100
AcDbSymbolTable
 70
0
  0
ENDTAB
  0
TABLE
  2
UCS
  5
7
100
AcDbSymbolTable
 70
0
  0
ENDTAB
  0
TABLE
  2
APPID
  5
9
100
AcDbSymbolTable
 70
1
  0
APPID
  5
211
100
AcDbSymbolTableRecord
100
AcDbRegAppTableRecord
  2
ACAD
 70
0
  0
ENDTAB
  0
TABLE
  2
BLOCK_RECORD
  5
1
100
AcDbSymbolTable
 70
0
  0
BLOCK_RECORD
  5
212
100
AcDbSymbolTableRecord
100
AcDbBlockTableRecord
  2
*Model_Space
  0
BLOCK_RECORD
  5
213
100
AcDbSymbolTableRecord
100
AcDbBlockTableRecord
  2
*Paper_Space
  0
ENDTAB
  0
TABLE
  2
DIMSTYLE
  5
A
100
AcDbSymbolTable
 70
1
100
AcDbDimStyleTable
 71
0
  0
DIMSTYLE
105
214
100
AcDbSymbolTableRecord
100
AcDbDimStyleTableRecord
  2
STANDARD
 70
0
  3

  4

 40
1.0
 41
3.0
 42
0.0625
 43
0.38
 44
0.18
 45
0.0
 46
0.0
 47
0.01
 48
0.01
140
3.0
141
0.09
142
0.0
143
25.4
144
1.0
145
0.0
146
1.0
147
0.09
 71
1.0
 72
0.0
 73
0
 74
0
 75
0
 76
0
 77
1
 78
8
170
0
171
2
172
0
173
0
174
0
175
0
176
0
177
0
178
0
270
2
271
2
272
2
273
2
274
2
275
0
280
0
281
0
282
0
283
1
284
8
285
0
286
0
287
3
288
0
340
11
  0
ENDTAB
  0
ENDSEC
  0
SECTION
  2
BLOCKS
  0
BLOCK
  5
20
100
AcDbEntity
  8
0
100
AcDbBlockBegin
  2
*Model_Space
 70
0
 10
0.0
 20
0.0
 30
0.0
  3
*Model_Space
  1

  0
ENDBLK
  5
21
100
AcDbEntity
  8
0
100
AcDbBlockEnd
  0
BLOCK
  5
1C
100
AcDbEntity
  8
0
100
AcDbBlockBegin
  2
*Paper_Space
 70
0
 10
0.0
 20
0.0
 30
0.0
  3
*Paper_Space
  1

  0
ENDBLK
  5
1D
100
AcDbEntity
  8
0
100
AcDbBlockEnd
  0
ENDSEC
  0
SECTION
  2
ENTITIES
  0
LINE
  5
215
100
AcDbEntity
  8
RACCORDO
100
AcDbLine
 62
7
  6
CONTINUOUS
 10
-11.2026047069
 20
7.9555863613
 11
-11.2007678105
 21
7.9574232577
  0
LINE
  5
216
100
AcDbEntity
  8
ASSI
100
AcDbLine
 62
7
  6
CONTINUOUS
 10
-11.2026047069
 20
7.9555863613
 11
-11.2007678105
 21
7.9574232577
  0
LINE
  5
217
100
AcDbEntity
  8
RACCORDO
100
AcDbLine
 62
7
  6
CONTINUOUS
 10
-12.2891116291
 20
-9.0283489495
 11
-12.3026047069
 21
-1.6735748546
  0
LINE
  5
218
100
AcDbEntity
  8
ASSI
100
AcDbLine
 62
7
  6
CONTINUOUS
 10
-12.2891116291
 20
-9.0283489495
 11
-12.3026047069
 21
-1.6735748546
  0
LINE
  5
219
100
AcDbEntity
  8
DRAFT
100
AcDbLine
 62
7
  6
CONTINUOUS
 10
-12.3026047069
 20
7.9555863613
 11
-12.3026047069
 21
-1.6735748546
  0
LINE
  5
21A
100
AcDbEntity
  8
ASSI
100
AcDbLine
 62
7
  6
CONTINUOUS
 10
-12.3026047069
 20
7.9555863613
 11
-12.3026047069
 21
-1.6735748546
  0
LINE
  5
21B
100
AcDbEntity
  8
RACCORDO
100
AcDbLine
 62
7
  6
CONTINUOUS
 10
-12.2956226809
 20
8.2573775662
 11
-12.2956226809
 21
8.9579896323
  0
LINE
  5
21C
100
AcDbEntity
  8
ASSI
100
AcDbLine
 62
7
  6
CONTINUOUS
 10
-12.2956226809
 20
8.2573775662
 11
-12.2956226809
 21
8.9579896323
  0
LINE
  5
21D
100
AcDbEntity
  8
RACCORDO
100
AcDbLine
 62
7
  6
CONTINUOUS
 10
-11.178167616
 20
-6.7501562881
 11
-11.1311299681
 21
-6.7971939359
  0
LINE
  5
21E
100
AcDbEntity
  8
ASSI
100
AcDbLine
 62
7
  6
CONTINUOUS
 10
-11.178167616
 20
-6.7501562881
 11
-11.1311299681
 21
-6.7971939359
  0
LINE
  5
21F
100
AcDbEntity
  8
DRAFT
100
AcDbLine
 62
7
  6
CONTINUOUS
 10
-11.198097121
 20
-4.1305588321
 11
-11.1886534514
 21
-9.2780913215
  0
LINE
  5
220
100
AcDbEntity
  8
ASSI
100
AcDbLine
 62
7
  6
CONTINUOUS
 10
-11.198097121
 20
-4.1305588321
 11
-11.1886534514
 21
-9.2780913215
  0
LINE
  5
221
100
AcDbEntity
  8
DRAFT
100
AcDbLine
 62
7
  6
CONTINUOUS
 10
-11.498097121
 20
-4.1305588321
 11
-11.5026047069
 21
-1.6350664179
  0
LINE
  5
222
100
AcDbEntity
  8
ASSI
100
AcDbLine
 62
7
  6
CONTINUOUS
 10
-11.498097121
 20
-4.1305588321
 11
-11.5026047069
 21
-1.6350664179
  0
LINE
  5
223
100
AcDbEntity
  8
DRAFT
100
AcDbLine
 62
7
  6
CONTINUOUS
 10
-11.2026047069
 20
7.9555863613
 11
-11.2026047069
 21
-1.6350664179
  0
LINE
  5
224
100
AcDbEntity
  8
ASSI
100
AcDbLine
 62
7
  6
CONTINUOUS
 10
-11.2026047069
 20
7.9555863613
 11
-11.2026047069
 21
-1.6350664179
  0
LINE
  5
225
100
AcDbEntity
  8
RACCORDO
100
AcDbLine
 62
7
  6
CONTINUOUS
 10
-11.1956226809
 20
8.2573775662
 11
-11.1956226809
 21
8.0672987768
  0
LINE
  5
226
100
AcDbEntity
  8
ASSI
100
AcDbLine
 62
7
  6
CONTINUOUS
 10
-11.1956226809
 20
8.2573775662
 11
-11.1956226809
 21
8.0672987768
  0
LINE
  5
227
100
AcDbEntity
  8
RACCORDO
100
AcDbLine
 62
7
  6
CONTINUOUS
 10
-11.1886406549
 20
-9.2780881226
 11
-11.1886406549
 21
-7.8903000489
  0
LINE
  5
228
100
AcDbEntity
  8
ASSI
100
AcDbLine
 62
7
  6
CONTINUOUS
 10
-11.1886406549
 20
-9.2780881226
 11
-11.1886406549
 21
-7.8903000489
  0
LINE
  5
229
100
AcDbEntity
  8
DRAFT
100
AcDbLine
 62
7
  6
CONTINUOUS
 10
-11.1851496419
 20
-1.0269585738
 11
-11.1851496419
 21
-1.6525214829
  0
LINE
  5
22A
100
AcDbEntity
  8
ASSI
100
AcDbLine
 62
7
  6
CONTINUOUS
 10
-11.1851496419
 20
-1.0269585738
 11
-11.1851496419
 21
-1.6525214829
  0
LINE
  5
22B
100
AcDbEntity
  8
DRAFT
100
AcDbLine
 62
7
  6
CONTINUOUS
 10
-11.1851496419
 20
-4.117611353
 11
-11.1851496419
 21
-4.7431742621
  0
LINE
  5
22C
100
AcDbEntity
  8
ASSI
100
AcDbLine
 62
7
  6
CONTINUOUS
 10
-11.1851496419
 20
-4.117611353
 11
-11.1851496419
 21
-4.7431742621
  0
LINE
  5
22D
100
AcDbEntity
  8
DRAFT
100
AcDbLine
 62
7
  6
CONTINUOUS
 10
-11.178167616
 20
1.7800234522
 11
-11.178167616
 21
1.1498437119
  0
LINE
  5
22E
100
AcDbEntity
  8
ASSI
100
AcDbLine
 62
7
  6
CONTINUOUS
 10
-11.178167616
 20
1.7800234522
 11
-11.178167616
 21
1.1498437119
  0
LINE
  5
22F
100
AcDbEntity
  8
DRAFT
100
AcDbLine
 62
7
  6
CONTINUOUS
 10
-11.178167616
 20
-6.1199765478
 11
-11.178167616
 21
-6.7501562881
  0
LINE
  5
230
100
AcDbEntity
  8
ASSI
100
AcDbLine
 62
7
  6
CONTINUOUS
 10
-11.178167616
 20
-6.1199765478
 11
-11.178167616
 21
-6.7501562881
  0
LINE
  5
231
100
AcDbEntity
  8
RACCORDO
100
AcDbLine
 62
7
  6
CONTINUOUS
 10
-9.8353316587
 20
-6.8023394661
 11
-9.8823697071
 21
-6.7553014177
  0
LINE
  5
232
100
AcDbEntity
  8
ASSI
100
AcDbLine
 62
7
  6
CONTINUOUS
 10
-9.8353316587
 20
-6.8023394661
 11
-9.8823697071
 21
-6.7553014177
  0
LINE
  5
233
100
AcDbEntity
  8
RACCORDO
100
AcDbLine
 62
7
  6
CONTINUOUS
 10
-11.1851496419
 20
-4.7431742621
 11
-11.129875621
 21
-4.798448283
  0
LINE
  5
234
100
AcDbEntity
  8
ASSI
100
AcDbLine
 62
7
  6
CONTINUOUS
 10
-11.1851496419
 20
-4.7431742621
 11
-11.129875621
 21
-4.798448283
  0
LINE
  5
235
100
AcDbEntity
  8
DRAFT
100
AcDbLine
 62
7
  6
CONTINUOUS
 10
-10.4200597718
 20
-4.117611353
 11
-10.4200597718
 21
-1.6525214829
  0
LINE
  5
236
100
AcDbEntity
  8
ASSI
100
AcDbLine
 62
7
  6
CONTINUOUS
 10
-10.4200597718
 20
-4.117611353
 11
-10.4200597718
 21
-1.6525214829
  0
LINE
  5
237
100
AcDbEntity
  8
RACCORDO
100
AcDbLine
 62
253
  6
CONTINUOUS
 10
-10.1823240156
 20
-6.7501562881
 11
-10.1823240156
 21
-6.1199765478
  0
LINE
  5
238
100
AcDbEntity
  8
ASSI
100
AcDbLine
 62
253
  6
CONTINUOUS
 10
-10.1823240156
 20
-6.7501562881
 11
-10.1823240156
 21
-6.1199765478
  0
LINE
  5
239
100
AcDbEntity
  8
RACCORDO
100
AcDbLine
 62
253
  6
CONTINUOUS
 10
-10.1823240156
 20
1.1498437119
 11
-10.1823240156
 21
1.7800234522
  0
LINE
  5
23A
100
AcDbEntity
  8
ASSI
100
AcDbLine
 62
253
  6
CONTINUOUS
 10
-10.1823240156
 20
1.1498437119
 11
-10.1823240156
 21
1.7800234522
  0
LINE
  5
23B
100
AcDbEntity
  8
DRAFT
100
AcDbLine
 62
7
  6
CONTINUOUS
 10
-10.1526047069
 20
-4.7431742621
 11
-10.1526047069
 21
-1.0269585738
  0
LINE
  5
23C
100
AcDbEntity
  8
ASSI
100
AcDbLine
 62
7
  6
CONTINUOUS
 10
-10.1526047069
 20
-4.7431742621
 11
-10.1526047069
 21
-1.0269585738
  0
LINE
  5
23D
100
AcDbEntity
  8
RACCORDO
100
AcDbLine
 62
253
  6
CONTINUOUS
 10
-10.8269381956
 20
1.836442856
 11
-10.8257975617
 21
7.9922828661
  0
LINE
  5
23E
100
AcDbEntity
  8
ASSI
100
AcDbLine
 62
253
  6
CONTINUOUS
 10
-10.8269381956
 20
1.836442856
 11
-10.8257975617
 21
7.9922828661
  0
LINE
  5
23F
100
AcDbEntity
  8
RACCORDO
100
AcDbLine
 62
253
  6
CONTINUOUS
 10
-10.8279738205
 20
-0.9645935026
 11
-10.827181332
 21
1.0936676169
  0
LINE
  5
240
100
AcDbEntity
  8
ASSI
100
AcDbLine
 62
253
  6
CONTINUOUS
 10
-10.8279738205
 20
-0.9645935026
 11
-10.827181332
 21
1.0936676169
  0
LINE
  5
241
100
AcDbEntity
  8
RACCORDO
100
AcDbLine
 62
253
  6
CONTINUOUS
 10
-10.8306914837
 20
-6.0673130921
 11
-10.8299184271
 21
-4.8035933489
  0
LINE
  5
242
100
AcDbEntity
  8
ASSI
100
AcDbLine
 62
253
  6
CONTINUOUS
 10
-10.8306914837
 20
-6.0673130921
 11
-10.8299184271
 21
-4.8035933489
  0
LINE
  5
243
100
AcDbEntity
  8
RACCORDO
100
AcDbLine
 62
253
  6
CONTINUOUS
 10
-10.831526072
 20
-7.3247328128
 11
-10.8311714219
 21
-6.8023394666
  0
LINE
  5
244
100
AcDbEntity
  8
ASSI
100
AcDbLine
 62
253
  6
CONTINUOUS
 10
-10.831526072
 20
-7.3247328128
 11
-10.8311714219
 21
-6.8023394666
  0
LINE
  5
245
100
AcDbEntity
  8
RACCORDO
100
AcDbLine
 62
253
  6
CONTINUOUS
 10
-11.1886406549
 20
-7.8903000489
 11
-11.1314803807
 21
-7.3128803366
  0
LINE
  5
246
100
AcDbEntity
  8
ASSI
100
AcDbLine
 62
253
  6
CONTINUOUS
 10
-11.1886406549
 20
-7.8903000489
 11
-11.1314803807
 21
-7.3128803366
  0
LINE
  5
247
100
AcDbEntity
  8
RACCORDO
100
AcDbLine
 62
7
  6
CONTINUOUS
 10
-7.5577498365
 20
8.0097884524
 11
-7.5752554228
 21
7.9922828661
  0
LINE
  5
248
100
AcDbEntity
  8
ASSI
100
AcDbLine
 62
7
  6
CONTINUOUS
 10
-7.5577498365
 20
8.0097884524
 11
-7.5752554228
 21
7.9922828661
  0
LINE
  5
249
100
AcDbEntity
  8
DRAFT
100
AcDbLine
 62
7
  6
CONTINUOUS
 10
-10.4200597718
 20
-4.117611353
 11
-10.4809050568
 21
-4.056766068
  0
LINE
  5
24A
100
AcDbEntity
  8
ASSI
100
AcDbLine
 62
7
  6
CONTINUOUS
 10
-10.4200597718
 20
-4.117611353
 11
-10.4809050568
 21
-4.056766068
  0
LINE
  5
24B
100
AcDbEntity
  8
DRAFT
100
AcDbLine
 62
7
  6
CONTINUOUS
 10
-9.9026047069
 20
-0.9645935027
 11
-9.9026047069
 21
-1.001108668
  0
LINE
  5
24C
100
AcDbEntity
  8
ASSI
100
AcDbLine
 62
7
  6
CONTINUOUS
 10
-9.9026047069
 20
-0.9645935027
 11
-9.9026047069
 21
-1.001108668
  0
LINE
  5
24D
100
AcDbEntity
  8
DRAFT
100
AcDbLine
 62
7
  6
CONTINUOUS
 10
-9.9026047069
 20
-4.7690241678
 11
-9.9026047069
 21
-4.8035933487
  0
LINE
  5
24E
100
AcDbEntity
  8
ASSI
100
AcDbLine
 62
7
  6
CONTINUOUS
 10
-9.9026047069
 20
-4.7690241678
 11
-9.9026047069
 21
-4.8035933487
  0
LINE
  5
24F
100
AcDbEntity
  8
RACCORDO
100
AcDbLine
 62
253
  6
CONTINUOUS
 10
-9.8823697071
 20
-6.7553014177
 11
-9.8823697071
 21
-6.1148314182
  0
LINE
  5
250
100
AcDbEntity
  8
ASSI
100
AcDbLine
 62
253
  6
CONTINUOUS
 10
-9.8823697071
 20
-6.7553014177
 11
-9.8823697071
 21
-6.1148314182
  0
LINE
  5
251
100
AcDbEntity
  8
RACCORDO
100
AcDbLine
 62
253
  6
CONTINUOUS
 10
-9.8823697071
 20
1.1446985823
 11
-9.8823697071
 21
1.7851685818
  0
LINE
  5
252
100
AcDbEntity
  8
ASSI
100
AcDbLine
 62
253
  6
CONTINUOUS
 10
-9.8823697071
 20
1.1446985823
 11
-9.8823697071
 21
1.7851685818
  0
LINE
  5
253
100
AcDbEntity
  8
DRAFT
100
AcDbLine
 62
7
  6
CONTINUOUS
 10
-9.5026047069
 20
-4.7649930933
 11
-9.5026047069
 21
-1.0051397426
  0
LINE
  5
254
100
AcDbEntity
  8
ASSI
100
AcDbLine
 62
7
  6
CONTINUOUS
 10
-9.5026047069
 20
-4.7649930933
 11
-9.5026047069
 21
-1.0051397426
  0
LINE
  5
255
100
AcDbEntity
  8
RACCORDO
100
AcDbLine
 62
253
  6
CONTINUOUS
 10
-10.8895042686
 20
-8.1940048334
 11
-10.8315260708
 21
-7.6083226489
  0
LINE
  5
256
100
AcDbEntity
  8
ASSI
100
AcDbLine
 62
253
  6
CONTINUOUS
 10
-10.8895042686
 20
-8.1940048334
 11
-10.8315260708
 21
-7.6083226489
  0
LINE
  5
257
100
AcDbEntity
  8
RACCORDO
100
AcDbLine
 62
7
  6
CONTINUOUS
 10
-11.1268957894
 20
1.8312952788
 11
-11.178167616
 21
1.7800234522
  0
LINE
  5
258
100
AcDbEntity
  8
ASSI
100
AcDbLine
 62
7
  6
CONTINUOUS
 10
-11.1268957894
 20
1.8312952788
 11
-11.178167616
 21
1.7800234522
  0
LINE
  5
259
100
AcDbEntity
  8
RACCORDO
100
AcDbLine
 62
7
  6
CONTINUOUS
 10
12.0334440363
 20
-9.2780913215
 11
11.1834440377
 21
-9.2780913215
  0
LINE
  5
25A
100
AcDbEntity
  8
RACCORDO
100
AcDbLine
 62
7
  6
CONTINUOUS
 10
-11.1886534514
 20
-9.2780913215
 11
-12.03865345
 21
-9.2780913215
  0
LINE
  5
25B
100
AcDbEntity
  8
DRAFT
100
AcDbLine
 62
7
  6
CONTINUOUS
 10
-11.1886502523
 20
-9.278089722
 11
11.1834408386
 21
-9.278089722
  0
LINE
  5
25C
100
AcDbEntity
  8
ASSI
100
AcDbLine
 62
7
  6
CONTINUOUS
 10
-12.03865345
 20
-9.2780913215
 11
12.0334440363
 21
-9.2780913215
  0
LINE
  5
25D
100
AcDbEntity
  8
DRAFT
100
AcDbLine
 62
7
  6
CONTINUOUS
 10
-11.5026047069
 20
-1.6350664179
 11
-11.4231169488
 21
-1.714554176
  0
LINE
  5
25E
100
AcDbEntity
  8
ASSI
100
AcDbLine
 62
7
  6
CONTINUOUS
 10
-11.5026047069
 20
-1.6350664179
 11
-11.4231169488
 21
-1.714554176
  0
LINE
  5
25F
100
AcDbEntity
  8
DRAFT
100
AcDbLine
 62
7
  6
CONTINUOUS
 10
-8.5150706974
 20
9.2079515561
 11
-8.5150706974
 21
8.0672987768
  0
LINE
  5
260
100
AcDbEntity
  8
ASSI
100
AcDbLine
 62
7
  6
CONTINUOUS
 10
-8.5150706974
 20
9.2079515561
 11
-8.5150706974
 21
8.0672987768
  0
LINE
  5
261
100
AcDbEntity
  8
DRAFT
100
AcDbLine
 62
7
  6
CONTINUOUS
 10
-8.2526047069
 20
9.1555863613
 11
-8.2526047069
 21
8.0149335821
  0
LINE
  5
262
100
AcDbEntity
  8
ASSI
100
AcDbLine
 62
7
  6
CONTINUOUS
 10
-8.2526047069
 20
9.1555863613
 11
-8.2526047069
 21
8.0149335821
  0
LINE
  5
263
100
AcDbEntity
  8
RACCORDO
100
AcDbLine
 62
7
  6
CONTINUOUS
 10
-9.831095433
 20
1.8364428559
 11
-9.8823697071
 21
1.7851685818
  0
LINE
  5
264
100
AcDbEntity
  8
ASSI
100
AcDbLine
 62
7
  6
CONTINUOUS
 10
-9.831095433
 20
1.8364428559
 11
-9.8823697071
 21
1.7851685818
  0
LINE
  5
265
100
AcDbEntity
  8
RACCORDO
100
AcDbLine
 62
7
  6
CONTINUOUS
 10
-10.8895042686
 20
-8.1940048334
 11
10.8842948549
 21
-8.1940048334
  0
LINE
  5
266
100
AcDbEntity
  8
ASSI
100
AcDbLine
 62
7
  6
CONTINUOUS
 10
-10.8895042686
 20
-8.1940048334
 11
10.8842948549
 21
-8.1940048334
  0
LINE
  5
267
100
AcDbEntity
  8
DRAFT
100
AcDbLine
 62
7
  6
CONTINUOUS
 10
-11.2026047069
 20
-1.6350664179
 11
-11.1851496419
 21
-1.6525214829
  0
LINE
  5
268
100
AcDbEntity
  8
ASSI
100
AcDbLine
 62
7
  6
CONTINUOUS
 10
-11.2026047069
 20
-1.6350664179
 11
-11.1851496419
 21
-1.6525214829
  0
LINE
  5
269
100
AcDbEntity
  8
RACCORDO
100
AcDbLine
 62
253
  6
CONTINUOUS
 10
-6.0375001344
 20
-6.550125299
 11
-6.0077498365
 21
-6.5798755969
  0
LINE
  5
26A
100
AcDbEntity
  8
ASSI
100
AcDbLine
 62
253
  6
CONTINUOUS
 10
-6.0375001344
 20
-6.550125299
 11
-6.0077498365
 21
-6.5798755969
  0
LINE
  5
26B
100
AcDbEntity
  8
RACCORDO
100
AcDbLine
 62
253
  6
CONTINUOUS
 10
-5.7377415177
 20
-6.2499752985
 11
-5.7077954948
 21
-6.2799213214
  0
LINE
  5
26C
100
AcDbEntity
  8
ASSI
100
AcDbLine
 62
253
  6
CONTINUOUS
 10
-5.7377415177
 20
-6.2499752985
 11
-5.7077954948
 21
-6.2799213214
  0
LINE
  5
26D
100
AcDbEntity
  8
RACCORDO
100
AcDbLine
 62
253
  6
CONTINUOUS
 10
-7.5413172656
 20
5.1492481571
 11
-7.5536598603
 21
5.8563549383
  0
LINE
  5
26E
100
AcDbEntity
  8
ASSI
100
AcDbLine
 62
253
  6
CONTINUOUS
 10
-7.5413172656
 20
5.1492481571
 11
-7.5536598603
 21
5.8563549383
  0
LINE
  5
26F
100
AcDbEntity
  8
RACCORDO
100
AcDbLine
 62
253
  6
CONTINUOUS
 10
-7.241362957
 20
5.3613801915
 11
-7.2537055518
 21
6.0684869727
  0
LINE
  5
270
100
AcDbEntity
  8
ASSI
100
AcDbLine
 62
253
  6
CONTINUOUS
 10
-7.241362957
 20
5.3613801915
 11
-7.2537055518
 21
6.0684869727
  0
LINE
  5
271
100
AcDbEntity
  8
RACCORDO
100
AcDbLine
 62
253
  6
CONTINUOUS
 10
-7.5577498365
 20
6.4220403632
 11
-7.5577498365
 21
8.0097884524
  0
LINE
  5
272
100
AcDbEntity
  8
ASSI
100
AcDbLine
 62
253
  6
CONTINUOUS
 10
-7.5577498365
 20
6.4220403632
 11
-7.5577498365
 21
8.0097884524
  0
LINE
  5
273
100
AcDbEntity
  8
RACCORDO
100
AcDbLine
 62
253
  6
CONTINUOUS
 10
-7.5402947715
 20
3.6237372785
 11
-7.5402947715
 21
5.0078268009
  0
LINE
  5
274
100
AcDbEntity
  8
ASSI
100
AcDbLine
 62
253
  6
CONTINUOUS
 10
-7.5402947715
 20
3.6237372785
 11
-7.5402947715
 21
5.0078268009
  0
LINE
  5
275
100
AcDbEntity
  8
RACCORDO
100
AcDbLine
 62
253
  6
CONTINUOUS
 10
-7.2577955279
 20
6.4220247295
 11
-7.2577955279
 21
8.0149335821
  0
LINE
  5
276
100
AcDbEntity
  8
ASSI
100
AcDbLine
 62
253
  6
CONTINUOUS
 10
-7.2577955279
 20
6.4220247295
 11
-7.2577955279
 21
8.0149335821
  0
LINE
  5
277
100
AcDbEntity
  8
RACCORDO
100
AcDbLine
 62
253
  6
CONTINUOUS
 10
-7.240340463
 20
3.6237372785
 11
-7.240340463
 21
5.0078268009
  0
LINE
  5
278
100
AcDbEntity
  8
ASSI
100
AcDbLine
 62
253
  6
CONTINUOUS
 10
-7.240340463
 20
3.6237372785
 11
-7.240340463
 21
5.0078268009
  0
LINE
  5
279
100
AcDbEntity
  8
RACCORDO
100
AcDbLine
 62
253
  6
CONTINUOUS
 10
-7.0648689507
 20
5.0078268009
 11
-7.0648689507
 21
3.6237372785
  0
LINE
  5
27A
100
AcDbEntity
  8
ASSI
100
AcDbLine
 62
253
  6
CONTINUOUS
 10
-7.0648689507
 20
5.0078268009
 11
-7.0648689507
 21
3.6237372785
  0
LINE
  5
27B
100
AcDbEntity
  8
RACCORDO
100
AcDbLine
 62
253
  6
CONTINUOUS
 10
-7.0474138858
 20
8.0149335821
 11
-7.0474138858
 21
6.4220250266
  0
LINE
  5
27C
100
AcDbEntity
  8
ASSI
100
AcDbLine
 62
253
  6
CONTINUOUS
 10
-7.0474138858
 20
8.0149335821
 11
-7.0474138858
 21
6.4220250266
  0
LINE
  5
27D
100
AcDbEntity
  8
RACCORDO
100
AcDbLine
 62
253
  6
CONTINUOUS
 10
-7.0515038619
 20
6.0684869727
 11
-7.0638464567
 21
5.3613801915
  0
LINE
  5
27E
100
AcDbEntity
  8
ASSI
100
AcDbLine
 62
253
  6
CONTINUOUS
 10
-7.0515038619
 20
6.0684869727
 11
-7.0638464567
 21
5.3613801915
  0
LINE
  5
27F
100
AcDbEntity
  8
RACCORDO
100
AcDbLine
 62
253
  6
CONTINUOUS
 10
-7.5745500876
 20
3.3929425098
 11
-7.5437248579
 21
3.4237677395
  0
LINE
  5
280
100
AcDbEntity
  8
ASSI
100
AcDbLine
 62
253
  6
CONTINUOUS
 10
-7.5745500876
 20
3.3929425098
 11
-7.5437248579
 21
3.4237677395
  0
LINE
  5
281
100
AcDbEntity
  8
RACCORDO
100
AcDbLine
 62
253
  6
CONTINUOUS
 10
-7.274519523
 20
3.0930644574
 11
-7.2437705494
 21
3.123813431
  0
LINE
  5
282
100
AcDbEntity
  8
ASSI
100
AcDbLine
 62
253
  6
CONTINUOUS
 10
-7.274519523
 20
3.0930644574
 11
-7.2437705494
 21
3.123813431
  0
LINE
  5
283
100
AcDbEntity
  8
RACCORDO
100
AcDbLine
 62
7
  6
CONTINUOUS
 10
-11.1279334781
 20
-0.9697424099
 11
-11.1851496419
 21
-1.0269585738
  0
LINE
  5
284
100
AcDbEntity
  8
ASSI
100
AcDbLine
 62
7
  6
CONTINUOUS
 10
-11.1279334781
 20
-0.9697424099
 11
-11.1851496419
 21
-1.0269585738
  0
LINE
  5
285
100
AcDbEntity
  8
RACCORDO
100
AcDbLine
 62
7
  6
CONTINUOUS
 10
-5.7077955279
 20
-7.9118816642
 11
-5.4974138858
 21
-7.9118816642
  0
LINE
  5
286
100
AcDbEntity
  8
ASSI
100
AcDbLine
 62
7
  6
CONTINUOUS
 10
-5.7077955279
 20
-7.9118816642
 11
-5.4974138858
 21
-7.9118816642
  0
LINE
  5
287
100
AcDbEntity
  8
RACCORDO
100
AcDbLine
 62
7
  6
CONTINUOUS
 10
5.7025861142
 20
-7.9118816642
 11
5.4922044721
 21
-7.9118816642
  0
LINE
  5
288
100
AcDbEntity
  8
ASSI
100
AcDbLine
 62
7
  6
CONTINUOUS
 10
5.7025861142
 20
-7.9118816642
 11
5.4922044721
 21
-7.9118816642
  0
LINE
  5
289
100
AcDbEntity
  8
RACCORDO
100
AcDbLine
 62
253
  6
CONTINUOUS
 10
10.8263166571
 20
-7.6083226489
 11
6.027445387
 21
-7.6083226489
  0
LINE
  5
28A
100
AcDbEntity
  8
ASSI
100
AcDbLine
 62
253
  6
CONTINUOUS
 10
10.8263166571
 20
-7.6083226489
 11
6.027445387
 21
-7.6083226489
  0
LINE
  5
28B
100
AcDbEntity
  8
RACCORDO
100
AcDbLine
 62
253
  6
CONTINUOUS
 10
5.1673451993
 20
-7.6083226489
 11
-5.172554613
 21
-7.6083226489
  0
LINE
  5
28C
100
AcDbEntity
  8
ASSI
100
AcDbLine
 62
253
  6
CONTINUOUS
 10
5.1673451993
 20
-7.6083226489
 11
-5.172554613
 21
-7.6083226489
  0
LINE
  5
28D
100
AcDbEntity
  8
RACCORDO
100
AcDbLine
 62
253
  6
CONTINUOUS
 10
-6.0326548007
 20
-7.6083226489
 11
-10.8315260708
 21
-7.6083226489
  0
LINE
  5
28E
100
AcDbEntity
  8
ASSI
100
AcDbLine
 62
253
  6
CONTINUOUS
 10
-6.0326548007
 20
-7.6083226489
 11
-10.8315260708
 21
-7.6083226489
  0
LINE
  5
28F
100
AcDbEntity
  8
RACCORDO
100
AcDbLine
 62
253
  6
CONTINUOUS
 10
10.8263166583
 20
-7.3247328128
 11
6.031768506
 21
-7.3247328128
  0
LINE
  5
290
100
AcDbEntity
  8
ASSI
100
AcDbLine
 62
253
  6
CONTINUOUS
 10
10.8263166583
 20
-7.3247328128
 11
6.031768506
 21
-7.3247328128
  0
LINE
  5
291
100
AcDbEntity
  8
RACCORDO
100
AcDbLine
 62
253
  6
CONTINUOUS
 10
5.1630220803
 20
-7.3247328128
 11
-5.168231494
 21
-7.3247328128
  0
LINE
  5
292
100
AcDbEntity
  8
ASSI
100
AcDbLine
 62
253
  6
CONTINUOUS
 10
5.1630220803
 20
-7.3247328128
 11
-5.168231494
 21
-7.3247328128
  0
LINE
  5
293
100
AcDbEntity
  8
RACCORDO
100
AcDbLine
 62
253
  6
CONTINUOUS
 10
-6.0369779197
 20
-7.3247328128
 11
-10.831526072
 21
-7.3247328128
  0
LINE
  5
294
100
AcDbEntity
  8
ASSI
100
AcDbLine
 62
253
  6
CONTINUOUS
 10
-6.0369779197
 20
-7.3247328128
 11
-10.831526072
 21
-7.3247328128
  0
LINE
  5
295
100
AcDbEntity
  8
RACCORDO
100
AcDbLine
 62
7
  6
CONTINUOUS
 10
-11.178167616
 20
1.1498437119
 11
-11.1271358968
 21
1.0988119928
  0
LINE
  5
296
100
AcDbEntity
  8
ASSI
100
AcDbLine
 62
7
  6
CONTINUOUS
 10
-11.178167616
 20
1.1498437119
 11
-11.1271358968
 21
1.0988119928
  0
LINE
  5
297
100
AcDbEntity
  8
RACCORDO
100
AcDbLine
 62
7
  6
CONTINUOUS
 10
-6.0326548007
 20
-7.6083226489
 11
-6.0077498365
 21
-7.8599067691
  0
LINE
  5
298
100
AcDbEntity
  8
ASSI
100
AcDbLine
 62
7
  6
CONTINUOUS
 10
-6.0326548007
 20
-7.6083226489
 11
-6.0077498365
 21
-7.8599067691
  0
LINE
  5
299
100
AcDbEntity
  8
RACCORDO
100
AcDbLine
 62
253
  6
CONTINUOUS
 10
-6.7649146422
 20
5.0078268009
 11
-6.7649146422
 21
3.6237372785
  0
LINE
  5
29A
100
AcDbEntity
  8
ASSI
100
AcDbLine
 62
253
  6
CONTINUOUS
 10
-6.7649146422
 20
5.0078268009
 11
-6.7649146422
 21
3.6237372785
  0
LINE
  5
29B
100
AcDbEntity
  8
RACCORDO
100
AcDbLine
 62
253
  6
CONTINUOUS
 10
-6.7474595772
 20
8.0097884524
 11
-6.7474595772
 21
6.4220403632
  0
LINE
  5
29C
100
AcDbEntity
  8
ASSI
100
AcDbLine
 62
253
  6
CONTINUOUS
 10
-6.7474595772
 20
8.0097884524
 11
-6.7474595772
 21
6.4220403632
  0
LINE
  5
29D
100
AcDbEntity
  8
RACCORDO
100
AcDbLine
 62
253
  6
CONTINUOUS
 10
-6.7515495534
 20
5.8563549383
 11
-6.7638921481
 21
5.1492481571
  0
LINE
  5
29E
100
AcDbEntity
  8
ASSI
100
AcDbLine
 62
253
  6
CONTINUOUS
 10
-6.7515495534
 20
5.8563549383
 11
-6.7638921481
 21
5.1492481571
  0
LINE
  5
29F
100
AcDbEntity
  8
DRAFT
100
AcDbLine
 62
7
  6
CONTINUOUS
 10
-10.4200597718
 20
-1.6525214829
 11
-10.4820924649
 21
-1.714554176
  0
LINE
  5
2A0
100
AcDbEntity
  8
ASSI
100
AcDbLine
 62
7
  6
CONTINUOUS
 10
-10.4200597718
 20
-1.6525214829
 11
-10.4820924649
 21
-1.714554176
  0
LINE
  5
2A1
100
AcDbEntity
  8
0
100
AcDbLine
 62
7
  6
CONTINUOUS
 10
1.3739910227
 20
-6.3178991015
 11
1.6271825326
 21
-6.2824824179
  0
LINE
  5
2A2
100
AcDbEntity
  8
ASSI
100
AcDbLine
 62
7
  6
CONTINUOUS
 10
1.3739910227
 20
-6.3178991015
 11
1.6271825326
 21
-6.2824824179
  0
LINE
  5
2A3
100
AcDbEntity
  8
0
100
AcDbLine
 62
7
  6
CONTINUOUS
 10
0.6505867523
 20
-7.0262324179
 11
0.9399485213
 21
-7.0262324179
  0
LINE
  5
2A4
100
AcDbEntity
  8
ASSI
100
AcDbLine
 62
7
  6
CONTINUOUS
 10
0.6505867523
 20
-7.0262324179
 11
0.9399485213
 21
-7.0262324179
  0
LINE
  5
2A5
100
AcDbEntity
  8
0
100
AcDbLine
 62
7
  6
CONTINUOUS
 10
0.6867569608
 20
-6.8137324179
 11
2.0973952931
 21
-6.8137324179
  0
LINE
  5
2A6
100
AcDbEntity
  8
ASSI
100
AcDbLine
 62
7
  6
CONTINUOUS
 10
0.6867569608
 20
-6.8137324179
 11
2.0973952931
 21
-6.8137324179
  0
LINE
  5
2A7
100
AcDbEntity
  8
RACCORDO
100
AcDbLine
 62
7
  6
CONTINUOUS
 10
-10.8311714219
 20
-6.8023394661
 11
-9.8353316587
 21
-6.8023394661
  0
LINE
  5
2A8
100
AcDbEntity
  8
ASSI
100
AcDbLine
 62
7
  6
CONTINUOUS
 10
-10.8311714219
 20
-6.8023394661
 11
-9.8353316587
 21
-6.8023394661
  0
LINE
  5
2A9
100
AcDbEntity
  8
RACCORDO
100
AcDbLine
 62
7
  6
CONTINUOUS
 10
9.830122245
 20
-6.8023394661
 11
10.8259620082
 21
-6.8023394661
  0
LINE
  5
2AA
100
AcDbEntity
  8
ASSI
100
AcDbLine
 62
7
  6
CONTINUOUS
 10
9.830122245
 20
-6.8023394661
 11
10.8259620082
 21
-6.8023394661
  0
LINE
  5
2AB
100
AcDbEntity
  8
RACCORDO
100
AcDbLine
 62
7
  6
CONTINUOUS
 10
-11.178167616
 20
-6.7501562881
 11
-10.1823240156
 21
-6.7501562881
  0
LINE
  5
2AC
100
AcDbEntity
  8
ASSI
100
AcDbLine
 62
7
  6
CONTINUOUS
 10
-11.178167616
 20
-6.7501562881
 11
-10.1823240156
 21
-6.7501562881
  0
LINE
  5
2AD
100
AcDbEntity
  8
RACCORDO
100
AcDbLine
 62
7
  6
CONTINUOUS
 10
11.1729582022
 20
-6.7501562881
 11
10.1771146019
 21
-6.7501562881
  0
LINE
  5
2AE
100
AcDbEntity
  8
ASSI
100
AcDbLine
 62
7
  6
CONTINUOUS
 10
11.1729582022
 20
-6.7501562881
 11
10.1771146019
 21
-6.7501562881
  0
LINE
  5
2AF
100
AcDbEntity
  8
0
100
AcDbLine
 62
7
  6
CONTINUOUS
 10
0.3973952931
 20
-6.6012324179
 11
2.0973952931
 21
-6.6012324179
  0
LINE
  5
2B0
100
AcDbEntity
  8
ASSI
100
AcDbLine
 62
7
  6
CONTINUOUS
 10
0.3973952931
 20
-6.6012324179
 11
2.0973952931
 21
-6.6012324179
  0
LINE
  5
2B1
100
AcDbEntity
  8
RACCORDO
100
AcDbLine
 62
253
  6
CONTINUOUS
 10
5.1922501635
 20
-6.5798755969
 11
6.0025404228
 21
-6.5798755969
  0
LINE
  5
2B2
100
AcDbEntity
  8
ASSI
100
AcDbLine
 62
253
  6
CONTINUOUS
 10
5.1922501635
 20
-6.5798755969
 11
6.0025404228
 21
-6.5798755969
  0
LINE
  5
2B3
100
AcDbEntity
  8
RACCORDO
100
AcDbLine
 62
253
  6
CONTINUOUS
 10
-5.1974595772
 20
-6.5798755969
 11
-6.0077498365
 21
-6.5798755969
  0
LINE
  5
2B4
100
AcDbEntity
  8
ASSI
100
AcDbLine
 62
253
  6
CONTINUOUS
 10
-5.1974595772
 20
-6.5798755969
 11
-6.0077498365
 21
-6.5798755969
  0
LINE
  5
2B5
100
AcDbEntity
  8
0
100
AcDbLine
 62
7
  6
CONTINUOUS
 10
1.1207995636
 20
-6.3178991015
 11
1.3739910227
 21
-6.3178991015
  0
LINE
  5
2B6
100
AcDbEntity
  8
ASSI
100
AcDbLine
 62
7
  6
CONTINUOUS
 10
1.1207995636
 20
-6.3178991015
 11
1.3739910227
 21
-6.3178991015
  0
LINE
  5
2B7
100
AcDbEntity
  8
RACCORDO
100
AcDbLine
 62
253
  6
CONTINUOUS
 10
5.7025861142
 20
-6.2799212883
 11
5.4922044849
 21
-6.2799213012
  0
LINE
  5
2B8
100
AcDbEntity
  8
ASSI
100
AcDbLine
 62
253
  6
CONTINUOUS
 10
5.7025861142
 20
-6.2799212883
 11
5.4922044849
 21
-6.2799213012
  0
LINE
  5
2B9
100
AcDbEntity
  8
RACCORDO
100
AcDbLine
 62
253
  6
CONTINUOUS
 10
-5.4974139031
 20
-6.2799213057
 11
-5.7077954948
 21
-6.2799213214
  0
LINE
  5
2BA
100
AcDbEntity
  8
ASSI
100
AcDbLine
 62
253
  6
CONTINUOUS
 10
-5.4974139031
 20
-6.2799213057
 11
-5.7077954948
 21
-6.2799213214
  0
LINE
  5
2BB
100
AcDbEntity
  8
RACCORDO
100
AcDbLine
 62
7
  6
CONTINUOUS
 10
-5.7377415177
 20
-6.2499752985
 11
-5.467467896
 21
-6.2499752985
  0
LINE
  5
2BC
100
AcDbEntity
  8
ASSI
100
AcDbLine
 62
7
  6
CONTINUOUS
 10
-5.7377415177
 20
-6.2499752985
 11
-5.467467896
 21
-6.2499752985
  0
LINE
  5
2BD
100
AcDbEntity
  8
RACCORDO
100
AcDbLine
 62
7
  6
CONTINUOUS
 10
5.4622584823
 20
-6.2499752985
 11
5.732532104
 21
-6.2499752985
  0
LINE
  5
2BE
100
AcDbEntity
  8
ASSI
100
AcDbLine
 62
7
  6
CONTINUOUS
 10
5.4622584823
 20
-6.2499752985
 11
5.732532104
 21
-6.2499752985
  0
LINE
  5
2BF
100
AcDbEntity
  8
0
100
AcDbLine
 62
7
  6
CONTINUOUS
 10
1.1207995636
 20
-6.1408157851
 11
1.1931399805
 21
-6.1408157851
  0
LINE
  5
2C0
100
AcDbEntity
  8
ASSI
100
AcDbLine
 62
7
  6
CONTINUOUS
 10
1.1207995636
 20
-6.1408157851
 11
1.1931399805
 21
-6.1408157851
  0
LINE
  5
2C1
100
AcDbEntity
  8
RACCORDO
100
AcDbLine
 62
7
  6
CONTINUOUS
 10
-11.178167616
 20
-6.1199765478
 11
-10.1823240156
 21
-6.1199765478
  0
LINE
  5
2C2
100
AcDbEntity
  8
ASSI
100
AcDbLine
 62
7
  6
CONTINUOUS
 10
-11.178167616
 20
-6.1199765478
 11
-10.1823240156
 21
-6.1199765478
  0
LINE
  5
2C3
100
AcDbEntity
  8
RACCORDO
100
AcDbLine
 62
7
  6
CONTINUOUS
 10
11.1729582022
 20
-6.1199765478
 11
10.1771146019
 21
-6.1199765478
  0
LINE
  5
2C4
100
AcDbEntity
  8
ASSI
100
AcDbLine
 62
7
  6
CONTINUOUS
 10
11.1729582022
 20
-6.1199765478
 11
10.1771146019
 21
-6.1199765478
  0
LINE
  5
2C5
100
AcDbEntity
  8
0
100
AcDbLine
 62
7
  6
CONTINUOUS
 10
1.4825016988
 20
-6.1053990508
 11
1.5910123241
 21
-6.1053990508
  0
LINE
  5
2C6
100
AcDbEntity
  8
ASSI
100
AcDbLine
 62
7
  6
CONTINUOUS
 10
1.4825016988
 20
-6.1053990508
 11
1.5910123241
 21
-6.1053990508
  0
LINE
  5
2C7
100
AcDbEntity
  8
RACCORDO
100
AcDbLine
 62
7
  6
CONTINUOUS
 10
-10.8306914839
 20
-6.0673130916
 11
-9.8348513805
 21
-6.0673130916
  0
LINE
  5
2C8
100
AcDbEntity
  8
ASSI
100
AcDbLine
 62
7
  6
CONTINUOUS
 10
-10.8306914839
 20
-6.0673130916
 11
-9.8348513805
 21
-6.0673130916
  0
LINE
  5
2C9
100
AcDbEntity
  8
RACCORDO
100
AcDbLine
 62
7
  6
CONTINUOUS
 10
9.8296419668
 20
-6.0673130916
 11
10.8254820702
 21
-6.0673130916
  0
LINE
  5
2CA
100
AcDbEntity
  8
ASSI
100
AcDbLine
 62
7
  6
CONTINUOUS
 10
9.8296419668
 20
-6.0673130916
 11
10.8254820702
 21
-6.0673130916
  0
LINE
  5
2CB
100
AcDbEntity
  8
0
100
AcDbLine
 62
7
  6
CONTINUOUS
 10
1.1207995636
 20
-6.3178991015
 11
0.8676081044
 21
-6.2824824179
  0
LINE
  5
2CC
100
AcDbEntity
  8
ASSI
100
AcDbLine
 62
7
  6
CONTINUOUS
 10
1.1207995636
 20
-6.3178991015
 11
0.8676081044
 21
-6.2824824179
  0
LINE
  5
2CD
100
AcDbEntity
  8
0
100
AcDbLine
 62
7
  6
CONTINUOUS
 10
-0.9000987069
 20
-6.3167544179
 11
-2.0701667069
 21
-5.9828324179
  0
LINE
  5
2CE
100
AcDbEntity
  8
ASSI
100
AcDbLine
 62
7
  6
CONTINUOUS
 10
-0.9000987069
 20
-6.3167544179
 11
-2.0701667069
 21
-5.9828324179
  0
LINE
  5
2CF
100
AcDbEntity
  8
RACCORDO
100
AcDbLine
 62
7
  6
CONTINUOUS
 10
-9.8313387417
 20
1.0936676169
 11
-9.8823697071
 21
1.1446985823
  0
LINE
  5
2D0
100
AcDbEntity
  8
ASSI
100
AcDbLine
 62
7
  6
CONTINUOUS
 10
-9.8313387417
 20
1.0936676169
 11
-9.8823697071
 21
1.1446985823
  0
LINE
  5
2D1
100
AcDbEntity
  8
RACCORDO
100
AcDbLine
 62
253
  6
CONTINUOUS
 10
-6.0077498365
 20
-6.5798755969
 11
-6.0077498365
 21
-7.8599067691
  0
LINE
  5
2D2
100
AcDbEntity
  8
ASSI
100
AcDbLine
 62
253
  6
CONTINUOUS
 10
-6.0077498365
 20
-6.5798755969
 11
-6.0077498365
 21
-7.8599067691
  0
LINE
  5
2D3
100
AcDbEntity
  8
RACCORDO
100
AcDbLine
 62
253
  6
CONTINUOUS
 10
-5.7077955279
 20
-6.2799213214
 11
-5.7077955279
 21
-7.9118816642
  0
LINE
  5
2D4
100
AcDbEntity
  8
ASSI
100
AcDbLine
 62
253
  6
CONTINUOUS
 10
-5.7077955279
 20
-6.2799213214
 11
-5.7077955279
 21
-7.9118816642
  0
LINE
  5
2D5
100
AcDbEntity
  8
RACCORDO
100
AcDbLine
 62
253
  6
CONTINUOUS
 10
-5.4974138858
 20
-7.9118816642
 11
-5.4974138858
 21
-6.2799213057
  0
LINE
  5
2D6
100
AcDbEntity
  8
ASSI
100
AcDbLine
 62
253
  6
CONTINUOUS
 10
-5.4974138858
 20
-7.9118816642
 11
-5.4974138858
 21
-6.2799213057
  0
LINE
  5
2D7
100
AcDbEntity
  8
RACCORDO
100
AcDbLine
 62
253
  6
CONTINUOUS
 10
-5.1974595772
 20
-7.8599067691
 11
-5.1974595772
 21
-6.5798755969
  0
LINE
  5
2D8
100
AcDbEntity
  8
ASSI
100
AcDbLine
 62
253
  6
CONTINUOUS
 10
-5.1974595772
 20
-7.8599067691
 11
-5.1974595772
 21
-6.5798755969
  0
LINE
  5
2D9
100
AcDbEntity
  8
DRAFT
100
AcDbLine
 62
7
  6
CONTINUOUS
 10
-11.498097121
 20
-4.1305588321
 11
-11.4243043569
 21
-4.056766068
  0
LINE
  5
2DA
100
AcDbEntity
  8
ASSI
100
AcDbLine
 62
7
  6
CONTINUOUS
 10
-11.498097121
 20
-4.1305588321
 11
-11.4243043569
 21
-4.056766068
  0
LINE
  5
2DB
100
AcDbEntity
  8
DRAFT
100
AcDbLine
 62
7
  6
CONTINUOUS
 10
-11.198097121
 20
-4.1305588321
 11
-11.1851496419
 21
-4.117611353
  0
LINE
  5
2DC
100
AcDbEntity
  8
ASSI
100
AcDbLine
 62
7
  6
CONTINUOUS
 10
-11.198097121
 20
-4.1305588321
 11
-11.1851496419
 21
-4.117611353
  0
LINE
  5
2DD
100
AcDbEntity
  8
0
100
AcDbLine
 62
7
  6
CONTINUOUS
 10
-0.9000987069
 20
-6.3167544179
 11
-2.0701667069
 21
-6.6407794179
  0
LINE
  5
2DE
100
AcDbEntity
  8
ASSI
100
AcDbLine
 62
7
  6
CONTINUOUS
 10
-0.9000987069
 20
-6.3167544179
 11
-2.0701667069
 21
-6.6407794179
  0
LINE
  5
2DF
100
AcDbEntity
  8
0
100
AcDbLine
 62
7
  6
CONTINUOUS
 10
-0.3703037069
 20
-5.4965684179
 11
-2.0702687069
 21
-5.4965684179
  0
LINE
  5
2E0
100
AcDbEntity
  8
ASSI
100
AcDbLine
 62
7
  6
CONTINUOUS
 10
-0.3703037069
 20
-5.4965684179
 11
-2.0702687069
 21
-5.4965684179
  0
LINE
  5
2E1
100
AcDbEntity
  8
0
100
AcDbLine
 62
7
  6
CONTINUOUS
 10
1.4825016988
 20
-5.2199824179
 11
1.5910123241
 21
-5.2199824179
  0
LINE
  5
2E2
100
AcDbEntity
  8
ASSI
100
AcDbLine
 62
7
  6
CONTINUOUS
 10
1.4825016988
 20
-5.2199824179
 11
1.5910123241
 21
-5.2199824179
  0
LINE
  5
2E3
100
AcDbEntity
  8
0
100
AcDbLine
 62
7
  6
CONTINUOUS
 10
-0.3703037069
 20
-5.1417404179
 11
-2.0702687069
 21
-5.1417404179
  0
LINE
  5
2E4
100
AcDbEntity
  8
ASSI
100
AcDbLine
 62
7
  6
CONTINUOUS
 10
-0.3703037069
 20
-5.1417404179
 11
-2.0702687069
 21
-5.1417404179
  0
LINE
  5
2E5
100
AcDbEntity
  8
0
100
AcDbLine
 62
7
  6
CONTINUOUS
 10
1.4463314396
 20
-5.0428991522
 11
1.6271825326
 21
-5.0428991522
  0
LINE
  5
2E6
100
AcDbEntity
  8
ASSI
100
AcDbLine
 62
7
  6
CONTINUOUS
 10
1.4463314396
 20
-5.0428991522
 11
1.6271825326
 21
-5.0428991522
  0
LINE
  5
2E7
100
AcDbEntity
  8
0
100
AcDbLine
 62
7
  6
CONTINUOUS
 10
1.1207995636
 20
-6.1408157851
 11
0.9037783128
 21
-6.1053990508
  0
LINE
  5
2E8
100
AcDbEntity
  8
ASSI
100
AcDbLine
 62
7
  6
CONTINUOUS
 10
1.1207995636
 20
-6.1408157851
 11
0.9037783128
 21
-6.1053990508
  0
LINE
  5
2E9
100
AcDbEntity
  8
0
100
AcDbLine
 62
7
  6
CONTINUOUS
 10
-0.3703037069
 20
-6.1746504179
 11
-2.0701667069
 21
-5.6282464179
  0
LINE
  5
2EA
100
AcDbEntity
  8
ASSI
100
AcDbLine
 62
7
  6
CONTINUOUS
 10
-0.3703037069
 20
-6.1746504179
 11
-2.0701667069
 21
-5.6282464179
  0
LINE
  5
2EB
100
AcDbEntity
  8
0
100
AcDbLine
 62
7
  6
CONTINUOUS
 10
0.9037783128
 20
-6.1053990508
 11
0.7952675861
 21
-6.0699824179
  0
LINE
  5
2EC
100
AcDbEntity
  8
ASSI
100
AcDbLine
 62
7
  6
CONTINUOUS
 10
0.9037783128
 20
-6.1053990508
 11
0.7952675861
 21
-6.0699824179
  0
LINE
  5
2ED
100
AcDbEntity
  8
0
100
AcDbLine
 62
7
  6
CONTINUOUS
 10
1.4825016988
 20
-6.1053990508
 11
1.3739910227
 21
-6.0699824179
  0
LINE
  5
2EE
100
AcDbEntity
  8
ASSI
100
AcDbLine
 62
7
  6
CONTINUOUS
 10
1.4825016988
 20
-6.1053990508
 11
1.3739910227
 21
-6.0699824179
  0
LINE
  5
2EF
100
AcDbEntity
  8
0
100
AcDbLine
 62
7
  6
CONTINUOUS
 10
0.8676081044
 20
-6.2824824179
 11
0.6867569608
 21
-6.2116491015
  0
LINE
  5
2F0
100
AcDbEntity
  8
ASSI
100
AcDbLine
 62
7
  6
CONTINUOUS
 10
0.8676081044
 20
-6.2824824179
 11
0.6867569608
 21
-6.2116491015
  0
LINE
  5
2F1
100
AcDbEntity
  8
ASSI
100
AcDbLine
 62
253
  6
CONTINUOUS
 10
-4.4325034743
 20
5.6408235937
 11
-4.4259805691
 21
3.9893565402
  0
LINE
  5
2F2
100
AcDbEntity
  8
RACCORDO
100
AcDbLine
 62
7
  6
CONTINUOUS
 10
-5.172554613
 20
-7.6083226489
 11
-5.1974595772
 21
-7.8599067691
  0
LINE
  5
2F3
100
AcDbEntity
  8
ASSI
100
AcDbLine
 62
7
  6
CONTINUOUS
 10
-5.172554613
 20
-7.6083226489
 11
-5.1974595772
 21
-7.8599067691
  0
LINE
  5
2F4
100
AcDbEntity
  8
DRAFT
100
AcDbLine
 62
7
  6
CONTINUOUS
 10
10.1473952931
 20
-4.7431742621
 11
9.4973952931
 21
-4.7545200543
  0
LINE
  5
2F5
100
AcDbEntity
  8
ASSI
100
AcDbLine
 62
7
  6
CONTINUOUS
 10
10.1473952931
 20
-4.7431742621
 11
9.4973952931
 21
-4.7545200543
  0
LINE
  5
2F6
100
AcDbEntity
  8
DRAFT
100
AcDbLine
 62
7
  6
CONTINUOUS
 10
-9.9026047069
 20
-4.7690241678
 11
-9.5026047069
 21
-4.7649930933
  0
LINE
  5
2F7
100
AcDbEntity
  8
ASSI
100
AcDbLine
 62
7
  6
CONTINUOUS
 10
-9.9026047069
 20
-4.7690241678
 11
-9.5026047069
 21
-4.7649930933
  0
LINE
  5
2F8
100
AcDbEntity
  8
RACCORDO
100
AcDbLine
 62
7
  6
CONTINUOUS
 10
-10.8299184271
 20
-4.8035933487
 11
-9.9026047069
 21
-4.8035933487
  0
LINE
  5
2F9
100
AcDbEntity
  8
ASSI
100
AcDbLine
 62
7
  6
CONTINUOUS
 10
-10.8299184271
 20
-4.8035933487
 11
-9.9026047069
 21
-4.8035933487
  0
LINE
  5
2FA
100
AcDbEntity
  8
RACCORDO
100
AcDbLine
 62
7
  6
CONTINUOUS
 10
9.8973952931
 20
-4.8035933487
 11
10.8247090134
 21
-4.8035933487
  0
LINE
  5
2FB
100
AcDbEntity
  8
ASSI
100
AcDbLine
 62
7
  6
CONTINUOUS
 10
9.8973952931
 20
-4.8035933487
 11
10.8247090134
 21
-4.8035933487
  0
LINE
  5
2FC
100
AcDbEntity
  8
0
100
AcDbLine
 62
7
  6
CONTINUOUS
 10
1.5548421157
 20
-4.7595656837
 11
1.663352741
 21
-4.7595656837
  0
LINE
  5
2FD
100
AcDbEntity
  8
ASSI
100
AcDbLine
 62
7
  6
CONTINUOUS
 10
1.5548421157
 20
-4.7595656837
 11
1.663352741
 21
-4.7595656837
  0
LINE
  5
2FE
100
AcDbEntity
  8
DRAFT
100
AcDbLine
 62
7
  6
CONTINUOUS
 10
-11.1851496419
 20
-4.7431742621
 11
-10.1526047069
 21
-4.7431742621
  0
LINE
  5
2FF
100
AcDbEntity
  8
ASSI
100
AcDbLine
 62
7
  6
CONTINUOUS
 10
-11.1851496419
 20
-4.7431742621
 11
-10.1526047069
 21
-4.7431742621
  0
LINE
  5
300
100
AcDbEntity
  8
DRAFT
100
AcDbLine
 62
7
  6
CONTINUOUS
 10
10.1473952931
 20
-4.7431742621
 11
11.1799402282
 21
-4.7431742621
  0
LINE
  5
301
100
AcDbEntity
  8
ASSI
100
AcDbLine
 62
7
  6
CONTINUOUS
 10
10.1473952931
 20
-4.7431742621
 11
11.1799402282
 21
-4.7431742621
  0
LINE
  5
302
100
AcDbEntity
  8
0
100
AcDbLine
 62
7
  6
CONTINUOUS
 10
0.8314378959
 20
-4.7241491522
 11
0.9399485213
 21
-4.7241491522
  0
LINE
  5
303
100
AcDbEntity
  8
ASSI
100
AcDbLine
 62
7
  6
CONTINUOUS
 10
0.8314378959
 20
-4.7241491522
 11
0.9399485213
 21
-4.7241491522
  0
LINE
  5
304
100
AcDbEntity
  8
0
100
AcDbLine
 62
7
  6
CONTINUOUS
 10
1.5548421157
 20
-4.5824824179
 11
1.663352741
 21
-4.5824824179
  0
LINE
  5
305
100
AcDbEntity
  8
ASSI
100
AcDbLine
 62
7
  6
CONTINUOUS
 10
1.5548421157
 20
-4.5824824179
 11
1.663352741
 21
-4.5824824179
  0
LINE
  5
306
100
AcDbEntity
  8
0
100
AcDbLine
 62
7
  6
CONTINUOUS
 10
0.8314378959
 20
-4.5470656837
 11
0.9037783128
 21
-4.5470656837
  0
LINE
  5
307
100
AcDbEntity
  8
ASSI
100
AcDbLine
 62
7
  6
CONTINUOUS
 10
0.8314378959
 20
-4.5470656837
 11
0.9037783128
 21
-4.5470656837
  0
LINE
  5
308
100
AcDbEntity
  8
DRAFT
100
AcDbLine
 62
7
  6
CONTINUOUS
 10
11.4928877073
 20
-4.1305588321
 11
11.1928877073
 21
-4.1305588321
  0
LINE
  5
309
100
AcDbEntity
  8
ASSI
100
AcDbLine
 62
7
  6
CONTINUOUS
 10
11.4928877073
 20
-4.1305588321
 11
11.1928877073
 21
-4.1305588321
  0
LINE
  5
30A
100
AcDbEntity
  8
DRAFT
100
AcDbLine
 62
7
  6
CONTINUOUS
 10
-11.198097121
 20
-4.1305588321
 11
-11.498097121
 21
-4.1305588321
  0
LINE
  5
30B
100
AcDbEntity
  8
ASSI
100
AcDbLine
 62
7
  6
CONTINUOUS
 10
-11.198097121
 20
-4.1305588321
 11
-11.498097121
 21
-4.1305588321
  0
LINE
  5
30C
100
AcDbEntity
  8
DRAFT
100
AcDbLine
 62
7
  6
CONTINUOUS
 10
-11.1851496419
 20
-4.117611353
 11
-10.4200597718
 21
-4.117611353
  0
LINE
  5
30D
100
AcDbEntity
  8
ASSI
100
AcDbLine
 62
7
  6
CONTINUOUS
 10
-11.1851496419
 20
-4.117611353
 11
-10.4200597718
 21
-4.117611353
  0
LINE
  5
30E
100
AcDbEntity
  8
DRAFT
100
AcDbLine
 62
7
  6
CONTINUOUS
 10
11.1799402282
 20
-4.117611353
 11
10.4148503581
 21
-4.117611353
  0
LINE
  5
30F
100
AcDbEntity
  8
ASSI
100
AcDbLine
 62
7
  6
CONTINUOUS
 10
11.1799402282
 20
-4.117611353
 11
10.4148503581
 21
-4.117611353
  0
LINE
  5
310
100
AcDbEntity
  8
DRAFT
100
AcDbLine
 62
7
  6
CONTINUOUS
 10
-11.4243043569
 20
-4.056766068
 11
-10.4809050568
 21
-4.056766068
  0
LINE
  5
311
100
AcDbEntity
  8
ASSI
100
AcDbLine
 62
7
  6
CONTINUOUS
 10
-11.4243043569
 20
-4.056766068
 11
-10.4809050568
 21
-4.056766068
  0
LINE
  5
312
100
AcDbEntity
  8
DRAFT
100
AcDbLine
 62
7
  6
CONTINUOUS
 10
10.4756956431
 20
-4.056766068
 11
11.4190949432
 21
-4.056766068
  0
LINE
  5
313
100
AcDbEntity
  8
ASSI
100
AcDbLine
 62
7
  6
CONTINUOUS
 10
10.4756956431
 20
-4.056766068
 11
11.4190949432
 21
-4.056766068
  0
LINE
  5
314
100
AcDbEntity
  8
DRAFT
100
AcDbLine
 62
7
  6
CONTINUOUS
 10
9.4973952931
 20
-4.7649930933
 11
9.8973952931
 21
-4.7690241678
  0
LINE
  5
315
100
AcDbEntity
  8
ASSI
100
AcDbLine
 62
7
  6
CONTINUOUS
 10
9.4973952931
 20
-4.7649930933
 11
9.8973952931
 21
-4.7690241678
  0
LINE
  5
316
100
AcDbEntity
  8
DRAFT
100
AcDbLine
 62
7
  6
CONTINUOUS
 10
-9.5026047069
 20
-4.7545200543
 11
-10.1526047069
 21
-4.7431742621
  0
LINE
  5
317
100
AcDbEntity
  8
ASSI
100
AcDbLine
 62
7
  6
CONTINUOUS
 10
-9.5026047069
 20
-4.7545200543
 11
-10.1526047069
 21
-4.7431742621
  0
LINE
  5
318
100
AcDbEntity
  8
0
100
AcDbLine
 62
7
  6
CONTINUOUS
 10
-0.3703037069
 20
-4.6112704179
 11
-1.4802827069
 21
-4.5346984179
  0
LINE
  5
319
100
AcDbEntity
  8
ASSI
100
AcDbLine
 62
7
  6
CONTINUOUS
 10
-0.3703037069
 20
-4.6112704179
 11
-1.4802827069
 21
-4.5346984179
  0
LINE
  5
31A
100
AcDbEntity
  8
0
100
AcDbLine
 62
7
  6
CONTINUOUS
 10
-0.3703037069
 20
-4.9507254179
 11
-2.0701667069
 21
-4.7972384179
  0
LINE
  5
31B
100
AcDbEntity
  8
ASSI
100
AcDbLine
 62
7
  6
CONTINUOUS
 10
-0.3703037069
 20
-4.9507254179
 11
-2.0701667069
 21
-4.7972384179
  0
LINE
  5
31C
100
AcDbEntity
  8
0
100
AcDbLine
 62
7
  6
CONTINUOUS
 10
1.6995229495
 20
-5.2553991522
 11
1.5910123241
 21
-5.2199824179
  0
LINE
  5
31D
100
AcDbEntity
  8
ASSI
100
AcDbLine
 62
7
  6
CONTINUOUS
 10
1.6995229495
 20
-5.2553991522
 11
1.5910123241
 21
-5.2199824179
  0
LINE
  5
31E
100
AcDbEntity
  8
0
100
AcDbLine
 62
7
  6
CONTINUOUS
 10
-1.1263977069
 20
-4.0916224179
 11
-2.0701667069
 21
-3.7367944179
  0
LINE
  5
31F
100
AcDbEntity
  8
ASSI
100
AcDbLine
 62
7
  6
CONTINUOUS
 10
-1.1263977069
 20
-4.0916224179
 11
-2.0701667069
 21
-3.7367944179
  0
LINE
  5
320
100
AcDbEntity
  8
0
100
AcDbLine
 62
7
  6
CONTINUOUS
 10
1.8080336002
 20
-5.1137324179
 11
1.6271825326
 21
-5.0428991522
  0
LINE
  5
321
100
AcDbEntity
  8
ASSI
100
AcDbLine
 62
7
  6
CONTINUOUS
 10
1.8080336002
 20
-5.1137324179
 11
1.6271825326
 21
-5.0428991522
  0
LINE
  5
322
100
AcDbEntity
  8
0
100
AcDbLine
 62
7
  6
CONTINUOUS
 10
0.8314378959
 20
-4.7241491522
 11
0.6505867523
 21
-4.6533156837
  0
LINE
  5
323
100
AcDbEntity
  8
ASSI
100
AcDbLine
 62
7
  6
CONTINUOUS
 10
0.8314378959
 20
-4.7241491522
 11
0.6505867523
 21
-4.6533156837
  0
LINE
  5
324
100
AcDbEntity
  8
0
100
AcDbLine
 62
7
  6
CONTINUOUS
 10
0.7952675861
 20
-6.0699824179
 11
0.6867569608
 21
-5.9991490508
  0
LINE
  5
325
100
AcDbEntity
  8
ASSI
100
AcDbLine
 62
7
  6
CONTINUOUS
 10
0.7952675861
 20
-6.0699824179
 11
0.6867569608
 21
-5.9991490508
  0
LINE
  5
326
100
AcDbEntity
  8
0
100
AcDbLine
 62
7
  6
CONTINUOUS
 10
0.6867569608
 20
-6.2116491015
 11
0.542076127
 21
-6.1053990508
  0
LINE
  5
327
100
AcDbEntity
  8
ASSI
100
AcDbLine
 62
7
  6
CONTINUOUS
 10
0.6867569608
 20
-6.2116491015
 11
0.542076127
 21
-6.1053990508
  0
LINE
  5
328
100
AcDbEntity
  8
0
100
AcDbLine
 62
7
  6
CONTINUOUS
 10
0.6505867523
 20
-7.0262324179
 11
0.3973952931
 21
-6.8137324179
  0
LINE
  5
329
100
AcDbEntity
  8
ASSI
100
AcDbLine
 62
7
  6
CONTINUOUS
 10
0.6505867523
 20
-7.0262324179
 11
0.3973952931
 21
-6.8137324179
  0
LINE
  5
32A
100
AcDbEntity
  8
0
100
AcDbLine
 62
7
  6
CONTINUOUS
 10
0.9399485213
 20
-7.0262324179
 11
0.6867569608
 21
-6.8137324179
  0
LINE
  5
32B
100
AcDbEntity
  8
ASSI
100
AcDbLine
 62
7
  6
CONTINUOUS
 10
0.9399485213
 20
-7.0262324179
 11
0.6867569608
 21
-6.8137324179
  0
LINE
  5
32C
100
AcDbEntity
  8
RACCORDO
100
AcDbLine
 62
253
  6
CONTINUOUS
 10
-3.8244502316
 20
4.0114880577
 11
-3.8244502316
 21
5.6183791064
  0
LINE
  5
32D
100
AcDbEntity
  8
ASSI
100
AcDbLine
 62
253
  6
CONTINUOUS
 10
-3.8244502316
 20
4.0114880577
 11
-3.8244502316
 21
5.6183791064
  0
LINE
  5
32E
100
AcDbEntity
  8
RACCORDO
100
AcDbLine
 62
253
  6
CONTINUOUS
 10
-3.5425424454
 20
4.0149335821
 11
-3.5425424454
 21
5.6149335821
  0
LINE
  5
32F
100
AcDbEntity
  8
ASSI
100
AcDbLine
 62
253
  6
CONTINUOUS
 10
-3.5425424454
 20
4.0149335821
 11
-3.5425424454
 21
5.6149335821
  0
LINE
  5
330
100
AcDbEntity
  8
DRAFT
100
AcDbLine
 62
7
  6
CONTINUOUS
 10
-3.0722404673
 20
5.6149335821
 11
-3.0722404673
 21
4.0149335821
  0
LINE
  5
331
100
AcDbEntity
  8
ASSI
100
AcDbLine
 62
7
  6
CONTINUOUS
 10
-3.0722404673
 20
5.6149335821
 11
-3.0722404673
 21
4.0149335821
  0
LINE
  5
332
100
AcDbEntity
  8
DRAFT
100
AcDbLine
 62
7
  6
CONTINUOUS
 10
-3.0026047069
 20
0.8149335821
 11
-3.0026047069
 21
4.0062060496
  0
LINE
  5
333
100
AcDbEntity
  8
ASSI
100
AcDbLine
 62
7
  6
CONTINUOUS
 10
-3.0026047069
 20
0.8149335821
 11
-3.0026047069
 21
4.0062060496
  0
LINE
  5
334
100
AcDbEntity
  8
DRAFT
100
AcDbLine
 62
7
  6
CONTINUOUS
 10
-3.0026047069
 20
5.6236611145
 11
-3.0026047069
 21
7.3149335821
  0
LINE
  5
335
100
AcDbEntity
  8
ASSI
100
AcDbLine
 62
7
  6
CONTINUOUS
 10
-3.0026047069
 20
5.6236611145
 11
-3.0026047069
 21
7.3149335821
  0
LINE
  5
336
100
AcDbEntity
  8
DRAFT
100
AcDbLine
 62
7
  6
CONTINUOUS
 10
-2.9700597718
 20
2.3974785171
 11
-2.9700597718
 21
4.0062060496
  0
LINE
  5
337
100
AcDbEntity
  8
DRAFT
100
AcDbLine
 62
7
  6
CONTINUOUS
 10
-2.9700597718
 20
5.6236611145
 11
-2.9700597718
 21
7.232388647
  0
LINE
  5
338
100
AcDbEntity
  8
RACCORDO
100
AcDbLine
 62
7
  6
CONTINUOUS
 10
-11.1306560824
 20
-6.0724650142
 11
-11.178167616
 21
-6.1199765478
  0
LINE
  5
339
100
AcDbEntity
  8
ASSI
100
AcDbLine
 62
7
  6
CONTINUOUS
 10
-11.1306560824
 20
-6.0724650142
 11
-11.178167616
 21
-6.1199765478
  0
LINE
  5
33A
100
AcDbEntity
  8
0
100
AcDbLine
 62
7
  6
CONTINUOUS
 10
-0.3703037069
 20
-3.2267704179
 11
-2.0701667069
 21
-3.3857274179
  0
LINE
  5
33B
100
AcDbEntity
  8
ASSI
100
AcDbLine
 62
7
  6
CONTINUOUS
 10
-0.3703037069
 20
-3.2267704179
 11
-2.0701667069
 21
-3.3857274179
  0
LINE
  5
33C
100
AcDbEntity
  8
0
100
AcDbLine
 62
7
  6
CONTINUOUS
 10
-0.3703037069
 20
-3.5738864179
 11
-1.4756557069
 21
-3.6467874179
  0
LINE
  5
33D
100
AcDbEntity
  8
ASSI
100
AcDbLine
 62
7
  6
CONTINUOUS
 10
-0.3703037069
 20
-3.5738864179
 11
-1.4756557069
 21
-3.6467874179
  0
LINE
  5
33E
100
AcDbEntity
  8
0
100
AcDbLine
 62
7
  6
CONTINUOUS
 10
0.8314378959
 20
-3.6970656837
 11
0.9037783128
 21
-3.6970656837
  0
LINE
  5
33F
100
AcDbEntity
  8
ASSI
100
AcDbLine
 62
7
  6
CONTINUOUS
 10
0.8314378959
 20
-3.6970656837
 11
0.9037783128
 21
-3.6970656837
  0
LINE
  5
340
100
AcDbEntity
  8
0
100
AcDbLine
 62
7
  6
CONTINUOUS
 10
1.5548421157
 20
-3.6616491522
 11
1.663352741
 21
-3.6616491522
  0
LINE
  5
341
100
AcDbEntity
  8
ASSI
100
AcDbLine
 62
7
  6
CONTINUOUS
 10
1.5548421157
 20
-3.6616491522
 11
1.663352741
 21
-3.6616491522
  0
LINE
  5
342
100
AcDbEntity
  8
0
100
AcDbLine
 62
7
  6
CONTINUOUS
 10
0.8314378959
 20
-3.5199824179
 11
0.9399485213
 21
-3.5199824179
  0
LINE
  5
343
100
AcDbEntity
  8
ASSI
100
AcDbLine
 62
7
  6
CONTINUOUS
 10
0.8314378959
 20
-3.5199824179
 11
0.9399485213
 21
-3.5199824179
  0
LINE
  5
344
100
AcDbEntity
  8
0
100
AcDbLine
 62
7
  6
CONTINUOUS
 10
1.5548421157
 20
-3.4845658864
 11
1.663352741
 21
-3.4845658864
  0
LINE
  5
345
100
AcDbEntity
  8
ASSI
100
AcDbLine
 62
7
  6
CONTINUOUS
 10
1.5548421157
 20
-3.4845658864
 11
1.663352741
 21
-3.4845658864
  0
LINE
  5
346
100
AcDbEntity
  8
0
100
AcDbLine
 62
7
  6
CONTINUOUS
 10
1.3739910227
 20
-3.2012324179
 11
1.5910123241
 21
-3.2012324179
  0
LINE
  5
347
100
AcDbEntity
  8
ASSI
100
AcDbLine
 62
7
  6
CONTINUOUS
 10
1.3739910227
 20
-3.2012324179
 11
1.5910123241
 21
-3.2012324179
  0
LINE
  5
348
100
AcDbEntity
  8
0
100
AcDbLine
 62
7
  6
CONTINUOUS
 10
-0.3703037069
 20
-3.1710534179
 11
-2.0701667069
 21
-2.6378684179
  0
LINE
  5
349
100
AcDbEntity
  8
ASSI
100
AcDbLine
 62
7
  6
CONTINUOUS
 10
-0.3703037069
 20
-3.1710534179
 11
-2.0701667069
 21
-2.6378684179
  0
LINE
  5
34A
100
AcDbEntity
  8
0
100
AcDbLine
 62
7
  6
CONTINUOUS
 10
-0.3703037069
 20
-4.0686784179
 11
-1.4756557069
 21
-3.6467874179
  0
LINE
  5
34B
100
AcDbEntity
  8
ASSI
100
AcDbLine
 62
7
  6
CONTINUOUS
 10
-0.3703037069
 20
-4.0686784179
 11
-1.4756557069
 21
-3.6467874179
  0
LINE
  5
34C
100
AcDbEntity
  8
0
100
AcDbLine
 62
7
  6
CONTINUOUS
 10
1.5548421157
 20
-4.7595656837
 11
1.3739910227
 21
-4.6887324179
  0
LINE
  5
34D
100
AcDbEntity
  8
ASSI
100
AcDbLine
 62
7
  6
CONTINUOUS
 10
1.5548421157
 20
-4.7595656837
 11
1.3739910227
 21
-4.6887324179
  0
LINE
  5
34E
100
AcDbEntity
  8
0
100
AcDbLine
 62
7
  6
CONTINUOUS
 10
1.8080336002
 20
-5.3262324179
 11
1.6995229495
 21
-5.2553991522
  0
LINE
  5
34F
100
AcDbEntity
  8
ASSI
100
AcDbLine
 62
7
  6
CONTINUOUS
 10
1.8080336002
 20
-5.3262324179
 11
1.6995229495
 21
-5.2553991522
  0
LINE
  5
350
100
AcDbEntity
  8
0
100
AcDbLine
 62
7
  6
CONTINUOUS
 10
0.8314378959
 20
-4.5470656837
 11
0.7229271692
 21
-4.4762324179
  0
LINE
  5
351
100
AcDbEntity
  8
ASSI
100
AcDbLine
 62
7
  6
CONTINUOUS
 10
0.8314378959
 20
-4.5470656837
 11
0.7229271692
 21
-4.4762324179
  0
LINE
  5
352
100
AcDbEntity
  8
0
100
AcDbLine
 62
7
  6
CONTINUOUS
 10
1.9527144467
 20
-5.2199824179
 11
1.8080336002
 21
-5.1137324179
  0
LINE
  5
353
100
AcDbEntity
  8
ASSI
100
AcDbLine
 62
7
  6
CONTINUOUS
 10
1.9527144467
 20
-5.2199824179
 11
1.8080336002
 21
-5.1137324179
  0
LINE
  5
354
100
AcDbEntity
  8
0
100
AcDbLine
 62
7
  6
CONTINUOUS
 10
1.3739910227
 20
-6.0699824179
 11
1.3016506058
 21
-5.9991490508
  0
LINE
  5
355
100
AcDbEntity
  8
ASSI
100
AcDbLine
 62
7
  6
CONTINUOUS
 10
1.3739910227
 20
-6.0699824179
 11
1.3016506058
 21
-5.9991490508
  0
LINE
  5
356
100
AcDbEntity
  8
DRAFT
100
AcDbLine
 62
7
  6
CONTINUOUS
 10
-2.9026047069
 20
5.6191623329
 11
-2.9026047069
 21
4.0107048312
  0
LINE
  5
357
100
AcDbEntity
  8
ASSI
100
AcDbLine
 62
7
  6
CONTINUOUS
 10
-2.9026047069
 20
5.6191623329
 11
-2.9026047069
 21
4.0107048312
  0
LINE
  5
358
100
AcDbEntity
  8
DRAFT
100
AcDbLine
 62
7
  6
CONTINUOUS
 10
-2.4991136939
 20
7.23587966
 11
-2.4991136939
 21
2.3939875041
  0
LINE
  5
359
100
AcDbEntity
  8
0
100
AcDbLine
 62
7
  6
CONTINUOUS
 10
-2.0702687069
 20
-5.4965684179
 11
-2.0702687069
 21
-5.1417404179
  0
LINE
  5
35A
100
AcDbEntity
  8
ASSI
100
AcDbLine
 62
7
  6
CONTINUOUS
 10
-2.0702687069
 20
-5.4965684179
 11
-2.0702687069
 21
-5.1417404179
  0
LINE
  5
35B
100
AcDbEntity
  8
0
100
AcDbLine
 62
7
  6
CONTINUOUS
 10
-2.0701667069
 20
-7.0262324179
 11
-2.0701667069
 21
-6.6407794179
  0
LINE
  5
35C
100
AcDbEntity
  8
ASSI
100
AcDbLine
 62
7
  6
CONTINUOUS
 10
-2.0701667069
 20
-7.0262324179
 11
-2.0701667069
 21
-6.6407794179
  0
LINE
  5
35D
100
AcDbEntity
  8
0
100
AcDbLine
 62
7
  6
CONTINUOUS
 10
-2.0701667069
 20
-5.9828324179
 11
-2.0701667069
 21
-5.6282464179
  0
LINE
  5
35E
100
AcDbEntity
  8
ASSI
100
AcDbLine
 62
7
  6
CONTINUOUS
 10
-2.0701667069
 20
-5.9828324179
 11
-2.0701667069
 21
-5.6282464179
  0
LINE
  5
35F
100
AcDbEntity
  8
0
100
AcDbLine
 62
7
  6
CONTINUOUS
 10
-2.0701667069
 20
-4.7972384179
 11
-2.0701667069
 21
-4.4427034179
  0
LINE
  5
360
100
AcDbEntity
  8
ASSI
100
AcDbLine
 62
7
  6
CONTINUOUS
 10
-2.0701667069
 20
-4.7972384179
 11
-2.0701667069
 21
-4.4427034179
  0
LINE
  5
361
100
AcDbEntity
  8
0
100
AcDbLine
 62
7
  6
CONTINUOUS
 10
-2.0701667069
 20
-3.7367944179
 11
-2.0701667069
 21
-3.3857274179
  0
LINE
  5
362
100
AcDbEntity
  8
ASSI
100
AcDbLine
 62
7
  6
CONTINUOUS
 10
-2.0701667069
 20
-3.7367944179
 11
-2.0701667069
 21
-3.3857274179
  0
LINE
  5
363
100
AcDbEntity
  8
0
100
AcDbLine
 62
7
  6
CONTINUOUS
 10
-2.0701667069
 20
-2.6378684179
 11
-2.0701667069
 21
-2.2946144179
  0
LINE
  5
364
100
AcDbEntity
  8
ASSI
100
AcDbLine
 62
7
  6
CONTINUOUS
 10
-2.0701667069
 20
-2.6378684179
 11
-2.0701667069
 21
-2.2946144179
  0
LINE
  5
365
100
AcDbEntity
  8
RACCORDO
100
AcDbLine
 62
7
  6
CONTINUOUS
 10
-9.8348513805
 20
-6.0673130916
 11
-9.8823697071
 21
-6.1148314182
  0
LINE
  5
366
100
AcDbEntity
  8
ASSI
100
AcDbLine
 62
7
  6
CONTINUOUS
 10
-9.8348513805
 20
-6.0673130916
 11
-9.8823697071
 21
-6.1148314182
  0
LINE
  5
367
100
AcDbEntity
  8
0
100
AcDbLine
 62
7
  6
CONTINUOUS
 10
-0.3703037069
 20
-2.1470284179
 11
-0.7096567069
 21
-2.2389474179
  0
LINE
  5
368
100
AcDbEntity
  8
ASSI
100
AcDbLine
 62
7
  6
CONTINUOUS
 10
-0.3703037069
 20
-2.1470284179
 11
-0.7096567069
 21
-2.2389474179
  0
LINE
  5
369
100
AcDbEntity
  8
0
100
AcDbLine
 62
7
  6
CONTINUOUS
 10
-0.9722467069
 20
-2.3098604179
 11
-1.6030877069
 21
-2.4729084179
  0
LINE
  5
36A
100
AcDbEntity
  8
ASSI
100
AcDbLine
 62
7
  6
CONTINUOUS
 10
-0.9722467069
 20
-2.3098604179
 11
-1.6030877069
 21
-2.4729084179
  0
LINE
  5
36B
100
AcDbEntity
  8
0
100
AcDbLine
 62
7
  6
CONTINUOUS
 10
0.6867569608
 20
-2.3512324179
 11
1.3739910227
 21
-2.3512324179
  0
LINE
  5
36C
100
AcDbEntity
  8
ASSI
100
AcDbLine
 62
7
  6
CONTINUOUS
 10
0.6867569608
 20
-2.3512324179
 11
1.3739910227
 21
-2.3512324179
  0
LINE
  5
36D
100
AcDbEntity
  8
0
100
AcDbLine
 62
7
  6
CONTINUOUS
 10
1.5910123241
 20
-2.3512324179
 11
2.0973952931
 21
-2.3512324179
  0
LINE
  5
36E
100
AcDbEntity
  8
ASSI
100
AcDbLine
 62
7
  6
CONTINUOUS
 10
1.5910123241
 20
-2.3512324179
 11
2.0973952931
 21
-2.3512324179
  0
LINE
  5
36F
100
AcDbEntity
  8
0
100
AcDbLine
 62
7
  6
CONTINUOUS
 10
0.3973952931
 20
-2.1387324179
 11
1.3739910227
 21
-2.1387324179
  0
LINE
  5
370
100
AcDbEntity
  8
ASSI
100
AcDbLine
 62
7
  6
CONTINUOUS
 10
0.3973952931
 20
-2.1387324179
 11
1.3739910227
 21
-2.1387324179
  0
LINE
  5
371
100
AcDbEntity
  8
0
100
AcDbLine
 62
7
  6
CONTINUOUS
 10
1.5910123241
 20
-2.1387324179
 11
2.0973952931
 21
-2.1387324179
  0
LINE
  5
372
100
AcDbEntity
  8
ASSI
100
AcDbLine
 62
7
  6
CONTINUOUS
 10
1.5910123241
 20
-2.1387324179
 11
2.0973952931
 21
-2.1387324179
  0
LINE
  5
373
100
AcDbEntity
  8
0
100
AcDbLine
 62
7
  6
CONTINUOUS
 10
-0.9722467069
 20
-2.6495824179
 11
-1.6030877069
 21
-2.4729084179
  0
LINE
  5
374
100
AcDbEntity
  8
ASSI
100
AcDbLine
 62
7
  6
CONTINUOUS
 10
-0.9722467069
 20
-2.6495824179
 11
-1.6030877069
 21
-2.4729084179
  0
LINE
  5
375
100
AcDbEntity
  8
0
100
AcDbLine
 62
7
  6
CONTINUOUS
 10
-0.3703037069
 20
-2.8200754179
 11
-0.7096567069
 21
-2.7221644179
  0
LINE
  5
376
100
AcDbEntity
  8
ASSI
100
AcDbLine
 62
7
  6
CONTINUOUS
 10
-0.3703037069
 20
-2.8200754179
 11
-0.7096567069
 21
-2.7221644179
  0
LINE
  5
377
100
AcDbEntity
  8
0
100
AcDbLine
 62
7
  6
CONTINUOUS
 10
1.8442038086
 20
-3.5553989495
 11
1.663352741
 21
-3.4845658864
  0
LINE
  5
378
100
AcDbEntity
  8
ASSI
100
AcDbLine
 62
7
  6
CONTINUOUS
 10
1.8442038086
 20
-3.5553989495
 11
1.663352741
 21
-3.4845658864
  0
LINE
  5
379
100
AcDbEntity
  8
0
100
AcDbLine
 62
7
  6
CONTINUOUS
 10
1.0846293551
 20
-3.5908158864
 11
0.9399485213
 21
-3.5199824179
  0
LINE
  5
37A
100
AcDbEntity
  8
ASSI
100
AcDbLine
 62
7
  6
CONTINUOUS
 10
1.0846293551
 20
-3.5908158864
 11
0.9399485213
 21
-3.5199824179
  0
LINE
  5
37B
100
AcDbEntity
  8
0
100
AcDbLine
 62
7
  6
CONTINUOUS
 10
1.0122889382
 20
-3.7678991522
 11
0.9037783128
 21
-3.6970656837
  0
LINE
  5
37C
100
AcDbEntity
  8
ASSI
100
AcDbLine
 62
7
  6
CONTINUOUS
 10
1.0122889382
 20
-3.7678991522
 11
0.9037783128
 21
-3.6970656837
  0
LINE
  5
37D
100
AcDbEntity
  8
0
100
AcDbLine
 62
7
  6
CONTINUOUS
 10
1.5548421157
 20
-4.5824824179
 11
1.4101612312
 21
-4.4762324179
  0
LINE
  5
37E
100
AcDbEntity
  8
ASSI
100
AcDbLine
 62
7
  6
CONTINUOUS
 10
1.5548421157
 20
-4.5824824179
 11
1.4101612312
 21
-4.4762324179
  0
LINE
  5
37F
100
AcDbEntity
  8
0
100
AcDbLine
 62
7
  6
CONTINUOUS
 10
1.8080336002
 20
-3.7678991522
 11
1.663352741
 21
-3.6616491522
  0
LINE
  5
380
100
AcDbEntity
  8
ASSI
100
AcDbLine
 62
7
  6
CONTINUOUS
 10
1.8080336002
 20
-3.7678991522
 11
1.663352741
 21
-3.6616491522
  0
LINE
  5
381
100
AcDbEntity
  8
0
100
AcDbLine
 62
7
  6
CONTINUOUS
 10
0.6505867523
 20
-4.6533156837
 11
0.542076127
 21
-4.5470656837
  0
LINE
  5
382
100
AcDbEntity
  8
ASSI
100
AcDbLine
 62
7
  6
CONTINUOUS
 10
0.6505867523
 20
-4.6533156837
 11
0.542076127
 21
-4.5470656837
  0
LINE
  5
383
100
AcDbEntity
  8
RACCORDO
100
AcDbLine
 62
253
  6
CONTINUOUS
 10
-7.0614388643
 20
3.123813431
 11
-7.0306898908
 21
3.0930644574
  0
LINE
  5
384
100
AcDbEntity
  8
ASSI
100
AcDbLine
 62
253
  6
CONTINUOUS
 10
-7.0614388643
 20
3.123813431
 11
-7.0306898908
 21
3.0930644574
  0
LINE
  5
385
100
AcDbEntity
  8
RACCORDO
100
AcDbLine
 62
253
  6
CONTINUOUS
 10
-6.7614845558
 20
3.4237677395
 11
-6.7306593261
 21
3.3929425098
  0
LINE
  5
386
100
AcDbEntity
  8
ASSI
100
AcDbLine
 62
253
  6
CONTINUOUS
 10
-6.7614845558
 20
3.4237677395
 11
-6.7306593261
 21
3.3929425098
  0
LINE
  5
387
100
AcDbEntity
  8
RACCORDO
100
AcDbLine
 62
7
  6
CONTINUOUS
 10
-11.1956226809
 20
8.0672987768
 11
-11.1257516281
 21
7.9974277241
  0
LINE
  5
388
100
AcDbEntity
  8
ASSI
100
AcDbLine
 62
7
  6
CONTINUOUS
 10
-11.1956226809
 20
8.0672987768
 11
-11.1257516281
 21
7.9974277241
  0
LINE
  5
389
100
AcDbEntity
  8
0
100
AcDbLine
 62
7
  6
CONTINUOUS
 10
0.7229271692
 20
-4.4762324179
 11
0.6144165439
 21
-4.3345656837
  0
LINE
  5
38A
100
AcDbEntity
  8
ASSI
100
AcDbLine
 62
7
  6
CONTINUOUS
 10
0.7229271692
 20
-4.4762324179
 11
0.6144165439
 21
-4.3345656837
  0
LINE
  5
38B
100
AcDbEntity
  8
0
100
AcDbLine
 62
7
  6
CONTINUOUS
 10
0.6867569608
 20
-5.9991490508
 11
0.6144165439
 21
-5.8928990508
  0
LINE
  5
38C
100
AcDbEntity
  8
ASSI
100
AcDbLine
 62
7
  6
CONTINUOUS
 10
0.6867569608
 20
-5.9991490508
 11
0.6144165439
 21
-5.8928990508
  0
LINE
  5
38D
100
AcDbEntity
  8
0
100
AcDbLine
 62
7
  6
CONTINUOUS
 10
1.1931399805
 20
-6.1408157851
 11
1.0484591466
 21
-5.9283157851
  0
LINE
  5
38E
100
AcDbEntity
  8
ASSI
100
AcDbLine
 62
7
  6
CONTINUOUS
 10
1.1931399805
 20
-6.1408157851
 11
1.0484591466
 21
-5.9283157851
  0
LINE
  5
38F
100
AcDbEntity
  8
0
100
AcDbLine
 62
7
  6
CONTINUOUS
 10
1.3016506058
 20
-5.9991490508
 11
1.2293101889
 21
-5.8928990508
  0
LINE
  5
390
100
AcDbEntity
  8
ASSI
100
AcDbLine
 62
7
  6
CONTINUOUS
 10
1.3016506058
 20
-5.9991490508
 11
1.2293101889
 21
-5.8928990508
  0
LINE
  5
391
100
AcDbEntity
  8
0
100
AcDbLine
 62
7
  6
CONTINUOUS
 10
0.542076127
 20
-6.1053990508
 11
0.4335655016
 21
-5.9283157851
  0
LINE
  5
392
100
AcDbEntity
  8
ASSI
100
AcDbLine
 62
7
  6
CONTINUOUS
 10
0.542076127
 20
-6.1053990508
 11
0.4335655016
 21
-5.9283157851
  0
LINE
  5
393
100
AcDbEntity
  8
0
100
AcDbLine
 62
7
  6
CONTINUOUS
 10
-1.3139328754
 20
-1.3272249863
 11
-1.3139328754
 21
-1.1244442735
  0
LINE
  5
394
100
AcDbEntity
  8
ASSI
100
AcDbLine
 62
7
  6
CONTINUOUS
 10
-1.3139328754
 20
-1.3272249863
 11
-1.3139328754
 21
-1.1244442735
  0
LINE
  5
395
100
AcDbEntity
  8
0
100
AcDbLine
 62
7
  6
CONTINUOUS
 10
-1.0355364227
 20
-1.315459422
 11
-1.0355364227
 21
-1.1252090989
  0
LINE
  5
396
100
AcDbEntity
  8
ASSI
100
AcDbLine
 62
7
  6
CONTINUOUS
 10
-1.0355364227
 20
-1.315459422
 11
-1.0355364227
 21
-1.1252090989
  0
LINE
  5
397
100
AcDbEntity
  8
0
100
AcDbLine
 62
7
  6
CONTINUOUS
 10
-0.9722467069
 20
-2.6495824179
 11
-0.9722467069
 21
-2.3098604179
  0
LINE
  5
398
100
AcDbEntity
  8
ASSI
100
AcDbLine
 62
7
  6
CONTINUOUS
 10
-0.9722467069
 20
-2.6495824179
 11
-0.9722467069
 21
-2.3098604179
  0
LINE
  5
399
100
AcDbEntity
  8
RACCORDO
100
AcDbLine
 62
7
  6
CONTINUOUS
 10
6.7422501635
 20
8.0097884524
 11
6.7247445772
 21
7.9922828661
  0
LINE
  5
39A
100
AcDbEntity
  8
ASSI
100
AcDbLine
 62
7
  6
CONTINUOUS
 10
6.7422501635
 20
8.0097884524
 11
6.7247445772
 21
7.9922828661
  0
LINE
  5
39B
100
AcDbEntity
  8
DRAFT
100
AcDbLine
 62
7
  6
CONTINUOUS
 10
9.4973952931
 20
-1.0051397426
 11
9.8973952931
 21
-1.001108668
  0
LINE
  5
39C
100
AcDbEntity
  8
ASSI
100
AcDbLine
 62
7
  6
CONTINUOUS
 10
9.4973952931
 20
-1.0051397426
 11
9.8973952931
 21
-1.001108668
  0
LINE
  5
39D
100
AcDbEntity
  8
0
100
AcDbLine
 62
7
  6
CONTINUOUS
 10
1.3739910227
 20
-1.7845658864
 11
1.5910123241
 21
-1.7845658864
  0
LINE
  5
39E
100
AcDbEntity
  8
ASSI
100
AcDbLine
 62
7
  6
CONTINUOUS
 10
1.3739910227
 20
-1.7845658864
 11
1.5910123241
 21
-1.7845658864
  0
LINE
  5
39F
100
AcDbEntity
  8
DRAFT
100
AcDbLine
 62
7
  6
CONTINUOUS
 10
-11.4231169488
 20
-1.714554176
 11
-10.4820924649
 21
-1.714554176
  0
LINE
  5
3A0
100
AcDbEntity
  8
ASSI
100
AcDbLine
 62
7
  6
CONTINUOUS
 10
-11.4231169488
 20
-1.714554176
 11
-10.4820924649
 21
-1.714554176
  0
LINE
  5
3A1
100
AcDbEntity
  8
DRAFT
100
AcDbLine
 62
7
  6
CONTINUOUS
 10
10.4768830512
 20
-1.714554176
 11
11.4179075351
 21
-1.714554176
  0
LINE
  5
3A2
100
AcDbEntity
  8
ASSI
100
AcDbLine
 62
7
  6
CONTINUOUS
 10
10.4768830512
 20
-1.714554176
 11
11.4179075351
 21
-1.714554176
  0
LINE
  5
3A3
100
AcDbEntity
  8
DRAFT
100
AcDbLine
 62
7
  6
CONTINUOUS
 10
-12.3026047069
 20
-1.6735748546
 11
-11.5026047069
 21
-1.6735748546
  0
LINE
  5
3A4
100
AcDbEntity
  8
ASSI
100
AcDbLine
 62
7
  6
CONTINUOUS
 10
-12.3026047069
 20
-1.6735748546
 11
-11.5026047069
 21
-1.6735748546
  0
LINE
  5
3A5
100
AcDbEntity
  8
DRAFT
100
AcDbLine
 62
7
  6
CONTINUOUS
 10
11.4973952931
 20
-1.6735748546
 11
12.2973952931
 21
-1.6735748546
  0
LINE
  5
3A6
100
AcDbEntity
  8
ASSI
100
AcDbLine
 62
7
  6
CONTINUOUS
 10
11.4973952931
 20
-1.6735748546
 11
12.2973952931
 21
-1.6735748546
  0
LINE
  5
3A7
100
AcDbEntity
  8
0
100
AcDbLine
 62
7
  6
CONTINUOUS
 10
-0.3703040202
 20
-1.668859754
 11
-2.050306789
 21
-1.668859754
  0
LINE
  5
3A8
100
AcDbEntity
  8
ASSI
100
AcDbLine
 62
7
  6
CONTINUOUS
 10
-0.3703040202
 20
-1.668859754
 11
-2.050306789
 21
-1.668859754
  0
LINE
  5
3A9
100
AcDbEntity
  8
DRAFT
100
AcDbLine
 62
7
  6
CONTINUOUS
 10
-11.1851496419
 20
-1.6525214829
 11
-10.4200597718
 21
-1.6525214829
  0
LINE
  5
3AA
100
AcDbEntity
  8
ASSI
100
AcDbLine
 62
7
  6
CONTINUOUS
 10
-11.1851496419
 20
-1.6525214829
 11
-10.4200597718
 21
-1.6525214829
  0
LINE
  5
3AB
100
AcDbEntity
  8
DRAFT
100
AcDbLine
 62
7
  6
CONTINUOUS
 10
11.1799402282
 20
-1.6525214829
 11
10.4148503581
 21
-1.6525214829
  0
LINE
  5
3AC
100
AcDbEntity
  8
ASSI
100
AcDbLine
 62
7
  6
CONTINUOUS
 10
11.1799402282
 20
-1.6525214829
 11
10.4148503581
 21
-1.6525214829
  0
LINE
  5
3AD
100
AcDbEntity
  8
DRAFT
100
AcDbLine
 62
7
  6
CONTINUOUS
 10
-11.5026047069
 20
-1.6350664179
 11
-11.2026047069
 21
-1.6350664179
  0
LINE
  5
3AE
100
AcDbEntity
  8
ASSI
100
AcDbLine
 62
7
  6
CONTINUOUS
 10
-11.5026047069
 20
-1.6350664179
 11
-11.2026047069
 21
-1.6350664179
  0
LINE
  5
3AF
100
AcDbEntity
  8
DRAFT
100
AcDbLine
 62
7
  6
CONTINUOUS
 10
11.1973952931
 20
-1.6350664179
 11
11.4973952931
 21
-1.6350664179
  0
LINE
  5
3B0
100
AcDbEntity
  8
ASSI
100
AcDbLine
 62
7
  6
CONTINUOUS
 10
11.1973952931
 20
-1.6350664179
 11
11.4973952931
 21
-1.6350664179
  0
LINE
  5
3B1
100
AcDbEntity
  8
0
100
AcDbLine
 62
7
  6
CONTINUOUS
 10
0.6505867523
 20
-1.5012324179
 11
0.9399485213
 21
-1.5012324179
  0
LINE
  5
3B2
100
AcDbEntity
  8
ASSI
100
AcDbLine
 62
7
  6
CONTINUOUS
 10
0.6505867523
 20
-1.5012324179
 11
0.9399485213
 21
-1.5012324179
  0
LINE
  5
3B3
100
AcDbEntity
  8
0
100
AcDbLine
 62
7
  6
CONTINUOUS
 10
-1.3139328754
 20
-1.3272249863
 11
-1.7805783578
 21
-1.3272249863
  0
LINE
  5
3B4
100
AcDbEntity
  8
ASSI
100
AcDbLine
 62
7
  6
CONTINUOUS
 10
-1.3139328754
 20
-1.3272249863
 11
-1.7805783578
 21
-1.3272249863
  0
LINE
  5
3B5
100
AcDbEntity
  8
0
100
AcDbLine
 62
7
  6
CONTINUOUS
 10
-0.3703040202
 20
-1.315459422
 11
-1.0355364227
 21
-1.315459422
  0
LINE
  5
3B6
100
AcDbEntity
  8
ASSI
100
AcDbLine
 62
7
  6
CONTINUOUS
 10
-0.3703040202
 20
-1.315459422
 11
-1.0355364227
 21
-1.315459422
  0
LINE
  5
3B7
100
AcDbEntity
  8
0
100
AcDbLine
 62
7
  6
CONTINUOUS
 10
0.6867569608
 20
-1.2887324179
 11
2.0973952931
 21
-1.2887324179
  0
LINE
  5
3B8
100
AcDbEntity
  8
ASSI
100
AcDbLine
 62
7
  6
CONTINUOUS
 10
0.6867569608
 20
-1.2887324179
 11
2.0973952931
 21
-1.2887324179
  0
LINE
  5
3B9
100
AcDbEntity
  8
0
100
AcDbLine
 62
7
  6
CONTINUOUS
 10
0.3973952931
 20
-1.0762324179
 11
2.0973952931
 21
-1.0762324179
  0
LINE
  5
3BA
100
AcDbEntity
  8
ASSI
100
AcDbLine
 62
7
  6
CONTINUOUS
 10
0.3973952931
 20
-1.0762324179
 11
2.0973952931
 21
-1.0762324179
  0
LINE
  5
3BB
100
AcDbEntity
  8
DRAFT
100
AcDbLine
 62
7
  6
CONTINUOUS
 10
-11.1851496419
 20
-1.0269585738
 11
-10.1526047069
 21
-1.0269585738
  0
LINE
  5
3BC
100
AcDbEntity
  8
ASSI
100
AcDbLine
 62
7
  6
CONTINUOUS
 10
-11.1851496419
 20
-1.0269585738
 11
-10.1526047069
 21
-1.0269585738
  0
LINE
  5
3BD
100
AcDbEntity
  8
DRAFT
100
AcDbLine
 62
7
  6
CONTINUOUS
 10
10.1473952931
 20
-1.0269585738
 11
11.1799402282
 21
-1.0269585738
  0
LINE
  5
3BE
100
AcDbEntity
  8
ASSI
100
AcDbLine
 62
7
  6
CONTINUOUS
 10
10.1473952931
 20
-1.0269585738
 11
11.1799402282
 21
-1.0269585738
  0
LINE
  5
3BF
100
AcDbEntity
  8
RACCORDO
100
AcDbLine
 62
7
  6
CONTINUOUS
 10
-10.8279738204
 20
-0.9645935027
 11
-9.9026047069
 21
-0.9645935027
  0
LINE
  5
3C0
100
AcDbEntity
  8
ASSI
100
AcDbLine
 62
7
  6
CONTINUOUS
 10
-10.8279738204
 20
-0.9645935027
 11
-9.9026047069
 21
-0.9645935027
  0
LINE
  5
3C1
100
AcDbEntity
  8
RACCORDO
100
AcDbLine
 62
7
  6
CONTINUOUS
 10
9.8973952931
 20
-0.9645935027
 11
10.8227644067
 21
-0.9645935027
  0
LINE
  5
3C2
100
AcDbEntity
  8
ASSI
100
AcDbLine
 62
7
  6
CONTINUOUS
 10
9.8973952931
 20
-0.9645935027
 11
10.8227644067
 21
-0.9645935027
  0
LINE
  5
3C3
100
AcDbEntity
  8
DRAFT
100
AcDbLine
 62
7
  6
CONTINUOUS
 10
-9.9026047069
 20
-1.001108668
 11
-9.5026047069
 21
-1.0051397426
  0
LINE
  5
3C4
100
AcDbEntity
  8
ASSI
100
AcDbLine
 62
7
  6
CONTINUOUS
 10
-9.9026047069
 20
-1.001108668
 11
-9.5026047069
 21
-1.0051397426
  0
LINE
  5
3C5
100
AcDbEntity
  8
0
100
AcDbLine
 62
7
  6
CONTINUOUS
 10
1.3739910227
 20
-3.2012324179
 11
0.3973952931
 21
-2.3512324179
  0
LINE
  5
3C6
100
AcDbEntity
  8
ASSI
100
AcDbLine
 62
7
  6
CONTINUOUS
 10
1.3739910227
 20
-3.2012324179
 11
0.3973952931
 21
-2.3512324179
  0
LINE
  5
3C7
100
AcDbEntity
  8
0
100
AcDbLine
 62
7
  6
CONTINUOUS
 10
1.3739910227
 20
-2.9533158864
 11
0.6867569608
 21
-2.3512324179
  0
LINE
  5
3C8
100
AcDbEntity
  8
ASSI
100
AcDbLine
 62
7
  6
CONTINUOUS
 10
1.3739910227
 20
-2.9533158864
 11
0.6867569608
 21
-2.3512324179
  0
LINE
  5
3C9
100
AcDbEntity
  8
0
100
AcDbLine
 62
7
  6
CONTINUOUS
 10
1.1931399805
 20
-3.6970656837
 11
1.0846293551
 21
-3.5908158864
  0
LINE
  5
3CA
100
AcDbEntity
  8
ASSI
100
AcDbLine
 62
7
  6
CONTINUOUS
 10
1.1931399805
 20
-3.6970656837
 11
1.0846293551
 21
-3.5908158864
  0
LINE
  5
3CB
100
AcDbEntity
  8
0
100
AcDbLine
 62
7
  6
CONTINUOUS
 10
1.9527144467
 20
-3.6616491522
 11
1.8442038086
 21
-3.5553989495
  0
LINE
  5
3CC
100
AcDbEntity
  8
ASSI
100
AcDbLine
 62
7
  6
CONTINUOUS
 10
1.9527144467
 20
-3.6616491522
 11
1.8442038086
 21
-3.5553989495
  0
LINE
  5
3CD
100
AcDbEntity
  8
RACCORDO
100
AcDbLine
 62
253
  6
CONTINUOUS
 10
5.1624998656
 20
-6.550125299
 11
5.1922501635
 21
-6.5798755969
  0
LINE
  5
3CE
100
AcDbEntity
  8
ASSI
100
AcDbLine
 62
253
  6
CONTINUOUS
 10
5.1624998656
 20
-6.550125299
 11
5.1922501635
 21
-6.5798755969
  0
LINE
  5
3CF
100
AcDbEntity
  8
0
100
AcDbLine
 62
7
  6
CONTINUOUS
 10
1.3739910227
 20
-4.6887324179
 11
1.2654803974
 21
-4.5470656837
  0
LINE
  5
3D0
100
AcDbEntity
  8
ASSI
100
AcDbLine
 62
7
  6
CONTINUOUS
 10
1.3739910227
 20
-4.6887324179
 11
1.2654803974
 21
-4.5470656837
  0
LINE
  5
3D1
100
AcDbEntity
  8
0
100
AcDbLine
 62
7
  6
CONTINUOUS
 10
1.1207995636
 20
-3.9095656837
 11
1.0122889382
 21
-3.7678991522
  0
LINE
  5
3D2
100
AcDbEntity
  8
ASSI
100
AcDbLine
 62
7
  6
CONTINUOUS
 10
1.1207995636
 20
-3.9095656837
 11
1.0122889382
 21
-3.7678991522
  0
LINE
  5
3D3
100
AcDbEntity
  8
0
100
AcDbLine
 62
7
  6
CONTINUOUS
 10
1.8803740171
 20
-5.4324824179
 11
1.8080336002
 21
-5.3262324179
  0
LINE
  5
3D4
100
AcDbEntity
  8
ASSI
100
AcDbLine
 62
7
  6
CONTINUOUS
 10
1.8803740171
 20
-5.4324824179
 11
1.8080336002
 21
-5.3262324179
  0
LINE
  5
3D5
100
AcDbEntity
  8
0
100
AcDbLine
 62
7
  6
CONTINUOUS
 10
0.542076127
 20
-4.5470656837
 11
0.4335655016
 21
-4.3699824179
  0
LINE
  5
3D6
100
AcDbEntity
  8
ASSI
100
AcDbLine
 62
7
  6
CONTINUOUS
 10
0.542076127
 20
-4.5470656837
 11
0.4335655016
 21
-4.3699824179
  0
LINE
  5
3D7
100
AcDbEntity
  8
0
100
AcDbLine
 62
7
  6
CONTINUOUS
 10
2.0612250815
 20
-5.3970657851
 11
1.9527144467
 21
-5.2199824179
  0
LINE
  5
3D8
100
AcDbEntity
  8
ASSI
100
AcDbLine
 62
7
  6
CONTINUOUS
 10
2.0612250815
 20
-5.3970657851
 11
1.9527144467
 21
-5.2199824179
  0
LINE
  5
3D9
100
AcDbEntity
  8
0
100
AcDbLine
 62
7
  6
CONTINUOUS
 10
1.2654803974
 20
-4.5470656837
 11
1.2293101889
 21
-4.4762324179
  0
LINE
  5
3DA
100
AcDbEntity
  8
ASSI
100
AcDbLine
 62
7
  6
CONTINUOUS
 10
1.2654803974
 20
-4.5470656837
 11
1.2293101889
 21
-4.4762324179
  0
LINE
  5
3DB
100
AcDbEntity
  8
0
100
AcDbLine
 62
7
  6
CONTINUOUS
 10
0.6144165439
 20
-5.8928990508
 11
0.5782463354
 21
-5.7866490508
  0
LINE
  5
3DC
100
AcDbEntity
  8
ASSI
100
AcDbLine
 62
7
  6
CONTINUOUS
 10
0.6144165439
 20
-5.8928990508
 11
0.5782463354
 21
-5.7866490508
  0
LINE
  5
3DD
100
AcDbEntity
  8
0
100
AcDbLine
 62
7
  6
CONTINUOUS
 10
-0.7096567069
 20
-2.7221644179
 11
-0.7096567069
 21
-2.2389474179
  0
LINE
  5
3DE
100
AcDbEntity
  8
ASSI
100
AcDbLine
 62
7
  6
CONTINUOUS
 10
-0.7096567069
 20
-2.7221644179
 11
-0.7096567069
 21
-2.2389474179
  0
LINE
  5
3DF
100
AcDbEntity
  8
0
100
AcDbLine
 62
7
  6
CONTINUOUS
 10
-0.3703040202
 20
-1.668859754
 11
-0.3703040202
 21
-1.315459422
  0
LINE
  5
3E0
100
AcDbEntity
  8
ASSI
100
AcDbLine
 62
7
  6
CONTINUOUS
 10
-0.3703040202
 20
-1.668859754
 11
-0.3703040202
 21
-1.315459422
  0
LINE
  5
3E1
100
AcDbEntity
  8
0
100
AcDbLine
 62
7
  6
CONTINUOUS
 10
-0.3703040202
 20
-0.7720892028
 11
-0.3703040202
 21
-0.4307858595
  0
LINE
  5
3E2
100
AcDbEntity
  8
ASSI
100
AcDbLine
 62
7
  6
CONTINUOUS
 10
-0.3703040202
 20
-0.7720892028
 11
-0.3703040202
 21
-0.4307858595
  0
LINE
  5
3E3
100
AcDbEntity
  8
0
100
AcDbLine
 62
7
  6
CONTINUOUS
 10
-0.3703037069
 20
-6.4873424179
 11
-0.3703037069
 21
-6.1746504179
  0
LINE
  5
3E4
100
AcDbEntity
  8
ASSI
100
AcDbLine
 62
7
  6
CONTINUOUS
 10
-0.3703037069
 20
-6.4873424179
 11
-0.3703037069
 21
-6.1746504179
  0
LINE
  5
3E5
100
AcDbEntity
  8
0
100
AcDbLine
 62
7
  6
CONTINUOUS
 10
-0.3703037069
 20
-5.4965684179
 11
-0.3703037069
 21
-5.1417404179
  0
LINE
  5
3E6
100
AcDbEntity
  8
ASSI
100
AcDbLine
 62
7
  6
CONTINUOUS
 10
-0.3703037069
 20
-5.4965684179
 11
-0.3703037069
 21
-5.1417404179
  0
LINE
  5
3E7
100
AcDbEntity
  8
0
100
AcDbLine
 62
7
  6
CONTINUOUS
 10
-0.3703037069
 20
-4.9507254179
 11
-0.3703037069
 21
-4.6112704179
  0
LINE
  5
3E8
100
AcDbEntity
  8
ASSI
100
AcDbLine
 62
7
  6
CONTINUOUS
 10
-0.3703037069
 20
-4.9507254179
 11
-0.3703037069
 21
-4.6112704179
  0
LINE
  5
3E9
100
AcDbEntity
  8
0
100
AcDbLine
 62
7
  6
CONTINUOUS
 10
-0.3703037069
 20
-4.1184424179
 11
-0.3703037069
 21
-4.0686784179
  0
LINE
  5
3EA
100
AcDbEntity
  8
ASSI
100
AcDbLine
 62
7
  6
CONTINUOUS
 10
-0.3703037069
 20
-4.1184424179
 11
-0.3703037069
 21
-4.0686784179
  0
LINE
  5
3EB
100
AcDbEntity
  8
0
100
AcDbLine
 62
7
  6
CONTINUOUS
 10
-0.3703037069
 20
-3.5738864179
 11
-0.3703037069
 21
-3.2267704179
  0
LINE
  5
3EC
100
AcDbEntity
  8
ASSI
100
AcDbLine
 62
7
  6
CONTINUOUS
 10
-0.3703037069
 20
-3.5738864179
 11
-0.3703037069
 21
-3.2267704179
  0
LINE
  5
3ED
100
AcDbEntity
  8
0
100
AcDbLine
 62
7
  6
CONTINUOUS
 10
-0.3703037069
 20
-3.1710534179
 11
-0.3703037069
 21
-2.8200754179
  0
LINE
  5
3EE
100
AcDbEntity
  8
ASSI
100
AcDbLine
 62
7
  6
CONTINUOUS
 10
-0.3703037069
 20
-3.1710534179
 11
-0.3703037069
 21
-2.8200754179
  0
LINE
  5
3EF
100
AcDbEntity
  8
0
100
AcDbLine
 62
7
  6
CONTINUOUS
 10
-0.3703037069
 20
-2.1470284179
 11
-0.3703037069
 21
-1.7730544179
  0
LINE
  5
3F0
100
AcDbEntity
  8
ASSI
100
AcDbLine
 62
7
  6
CONTINUOUS
 10
-0.3703037069
 20
-2.1470284179
 11
-0.3703037069
 21
-1.7730544179
  0
LINE
  5
3F1
100
AcDbEntity
  8
DRAFT
100
AcDbLine
 62
7
  6
CONTINUOUS
 10
-9.5026047069
 20
-1.0156127816
 11
-10.1526047069
 21
-1.0269585738
  0
LINE
  5
3F2
100
AcDbEntity
  8
ASSI
100
AcDbLine
 62
7
  6
CONTINUOUS
 10
-9.5026047069
 20
-1.0156127816
 11
-10.1526047069
 21
-1.0269585738
  0
LINE
  5
3F3
100
AcDbEntity
  8
0
100
AcDbLine
 62
7
  6
CONTINUOUS
 10
-1.1637848985
 20
-0.7566142352
 11
-1.1738296056
 21
-0.7566142352
  0
LINE
  5
3F4
100
AcDbEntity
  8
ASSI
100
AcDbLine
 62
7
  6
CONTINUOUS
 10
-1.1637848985
 20
-0.7566142352
 11
-1.1738296056
 21
-0.7566142352
  0
LINE
  5
3F5
100
AcDbEntity
  8
DRAFT
100
AcDbLine
 62
7
  6
CONTINUOUS
 10
10.1473952931
 20
-1.0269585738
 11
9.4973952931
 21
-1.0156127816
  0
LINE
  5
3F6
100
AcDbEntity
  8
ASSI
100
AcDbLine
 62
7
  6
CONTINUOUS
 10
10.1473952931
 20
-1.0269585738
 11
9.4973952931
 21
-1.0156127816
  0
LINE
  5
3F7
100
AcDbEntity
  8
0
100
AcDbLine
 62
7
  6
CONTINUOUS
 10
0.6505867523
 20
-1.5012324179
 11
0.3973952931
 21
-1.2887324179
  0
LINE
  5
3F8
100
AcDbEntity
  8
ASSI
100
AcDbLine
 62
7
  6
CONTINUOUS
 10
0.6505867523
 20
-1.5012324179
 11
0.3973952931
 21
-1.2887324179
  0
LINE
  5
3F9
100
AcDbEntity
  8
0
100
AcDbLine
 62
7
  6
CONTINUOUS
 10
0.9399485213
 20
-1.5012324179
 11
0.6867569608
 21
-1.2887324179
  0
LINE
  5
3FA
100
AcDbEntity
  8
ASSI
100
AcDbLine
 62
7
  6
CONTINUOUS
 10
0.9399485213
 20
-1.5012324179
 11
0.6867569608
 21
-1.2887324179
  0
LINE
  5
3FB
100
AcDbEntity
  8
RACCORDO
100
AcDbLine
 62
253
  6
CONTINUOUS
 10
5.4622584823
 20
-6.2499752985
 11
5.4922044849
 21
-6.2799213012
  0
LINE
  5
3FC
100
AcDbEntity
  8
ASSI
100
AcDbLine
 62
253
  6
CONTINUOUS
 10
5.4622584823
 20
-6.2499752985
 11
5.4922044849
 21
-6.2799213012
  0
LINE
  5
3FD
100
AcDbEntity
  8
0
100
AcDbLine
 62
7
  6
CONTINUOUS
 10
2.0612250815
 20
-3.8387324179
 11
1.9527144467
 21
-3.6616491522
  0
LINE
  5
3FE
100
AcDbEntity
  8
ASSI
100
AcDbLine
 62
7
  6
CONTINUOUS
 10
2.0612250815
 20
-3.8387324179
 11
1.9527144467
 21
-3.6616491522
  0
LINE
  5
3FF
100
AcDbEntity
  8
0
100
AcDbLine
 62
7
  6
CONTINUOUS
 10
1.4101612312
 20
-4.4762324179
 11
1.3378208143
 21
-4.3345656837
  0
LINE
  5
400
100
AcDbEntity
  8
ASSI
100
AcDbLine
 62
7
  6
CONTINUOUS
 10
1.4101612312
 20
-4.4762324179
 11
1.3378208143
 21
-4.3345656837
  0
LINE
  5
401
100
AcDbEntity
  8
0
100
AcDbLine
 62
7
  6
CONTINUOUS
 10
1.2293101889
 20
-3.7678991522
 11
1.1931399805
 21
-3.6970656837
  0
LINE
  5
402
100
AcDbEntity
  8
ASSI
100
AcDbLine
 62
7
  6
CONTINUOUS
 10
1.2293101889
 20
-3.7678991522
 11
1.1931399805
 21
-3.6970656837
  0
LINE
  5
403
100
AcDbEntity
  8
0
100
AcDbLine
 62
7
  6
CONTINUOUS
 10
1.8803740171
 20
-3.9095656837
 11
1.8080336002
 21
-3.7678991522
  0
LINE
  5
404
100
AcDbEntity
  8
ASSI
100
AcDbLine
 62
7
  6
CONTINUOUS
 10
1.8803740171
 20
-3.9095656837
 11
1.8080336002
 21
-3.7678991522
  0
LINE
  5
405
100
AcDbEntity
  8
0
100
AcDbLine
 62
7
  6
CONTINUOUS
 10
1.2293101889
 20
-5.8928990508
 11
1.1931399805
 21
-5.7866490508
  0
LINE
  5
406
100
AcDbEntity
  8
ASSI
100
AcDbLine
 62
7
  6
CONTINUOUS
 10
1.2293101889
 20
-5.8928990508
 11
1.1931399805
 21
-5.7866490508
  0
LINE
  5
407
100
AcDbEntity
  8
0
100
AcDbLine
 62
7
  6
CONTINUOUS
 10
1.9165442255
 20
-5.5387324179
 11
1.8803740171
 21
-5.4324824179
  0
LINE
  5
408
100
AcDbEntity
  8
ASSI
100
AcDbLine
 62
7
  6
CONTINUOUS
 10
1.9165442255
 20
-5.5387324179
 11
1.8803740171
 21
-5.4324824179
  0
LINE
  5
409
100
AcDbEntity
  8
0
100
AcDbLine
 62
7
  6
CONTINUOUS
 10
0.6144165439
 20
-4.3345656837
 11
0.5782463354
 21
-4.1928991522
  0
LINE
  5
40A
100
AcDbEntity
  8
ASSI
100
AcDbLine
 62
7
  6
CONTINUOUS
 10
0.6144165439
 20
-4.3345656837
 11
0.5782463354
 21
-4.1928991522
  0
LINE
  5
40B
100
AcDbEntity
  8
0
100
AcDbLine
 62
7
  6
CONTINUOUS
 10
1.156969772
 20
-4.0512324179
 11
1.1207995636
 21
-3.9095656837
  0
LINE
  5
40C
100
AcDbEntity
  8
ASSI
100
AcDbLine
 62
7
  6
CONTINUOUS
 10
1.156969772
 20
-4.0512324179
 11
1.1207995636
 21
-3.9095656837
  0
LINE
  5
40D
100
AcDbEntity
  8
0
100
AcDbLine
 62
7
  6
CONTINUOUS
 10
0.4335655016
 20
-5.9283157851
 11
0.3973952931
 21
-5.7512324179
  0
LINE
  5
40E
100
AcDbEntity
  8
ASSI
100
AcDbLine
 62
7
  6
CONTINUOUS
 10
0.4335655016
 20
-5.9283157851
 11
0.3973952931
 21
-5.7512324179
  0
LINE
  5
40F
100
AcDbEntity
  8
0
100
AcDbLine
 62
7
  6
CONTINUOUS
 10
0.4335655016
 20
-4.3699824179
 11
0.3973952931
 21
-4.1928991522
  0
LINE
  5
410
100
AcDbEntity
  8
ASSI
100
AcDbLine
 62
7
  6
CONTINUOUS
 10
0.4335655016
 20
-4.3699824179
 11
0.3973952931
 21
-4.1928991522
  0
LINE
  5
411
100
AcDbEntity
  8
0
100
AcDbLine
 62
7
  6
CONTINUOUS
 10
1.0484591466
 20
-5.9283157851
 11
1.0122889382
 21
-5.7512324179
  0
LINE
  5
412
100
AcDbEntity
  8
ASSI
100
AcDbLine
 62
7
  6
CONTINUOUS
 10
1.0484591466
 20
-5.9283157851
 11
1.0122889382
 21
-5.7512324179
  0
LINE
  5
413
100
AcDbEntity
  8
0
100
AcDbLine
 62
7
  6
CONTINUOUS
 10
0.3973952931
 20
-6.8137324179
 11
0.3973952931
 21
-6.6012324179
  0
LINE
  5
414
100
AcDbEntity
  8
ASSI
100
AcDbLine
 62
7
  6
CONTINUOUS
 10
0.3973952931
 20
-6.8137324179
 11
0.3973952931
 21
-6.6012324179
  0
LINE
  5
415
100
AcDbEntity
  8
0
100
AcDbLine
 62
7
  6
CONTINUOUS
 10
0.3973952931
 20
-5.7512324179
 11
0.3973952931
 21
-5.6095657851
  0
LINE
  5
416
100
AcDbEntity
  8
ASSI
100
AcDbLine
 62
7
  6
CONTINUOUS
 10
0.3973952931
 20
-5.7512324179
 11
0.3973952931
 21
-5.6095657851
  0
LINE
  5
417
100
AcDbEntity
  8
0
100
AcDbLine
 62
7
  6
CONTINUOUS
 10
0.3973952931
 20
-4.1928991522
 11
0.3973952931
 21
-4.0512324179
  0
LINE
  5
418
100
AcDbEntity
  8
ASSI
100
AcDbLine
 62
7
  6
CONTINUOUS
 10
0.3973952931
 20
-4.1928991522
 11
0.3973952931
 21
-4.0512324179
  0
LINE
  5
419
100
AcDbEntity
  8
0
100
AcDbLine
 62
7
  6
CONTINUOUS
 10
0.3973952931
 20
-2.3512324179
 11
0.3973952931
 21
-2.1387324179
  0
LINE
  5
41A
100
AcDbEntity
  8
ASSI
100
AcDbLine
 62
7
  6
CONTINUOUS
 10
0.3973952931
 20
-2.3512324179
 11
0.3973952931
 21
-2.1387324179
  0
LINE
  5
41B
100
AcDbEntity
  8
0
100
AcDbLine
 62
7
  6
CONTINUOUS
 10
0.3973952931
 20
-1.2887324179
 11
0.3973952931
 21
-1.0762324179
  0
LINE
  5
41C
100
AcDbEntity
  8
ASSI
100
AcDbLine
 62
7
  6
CONTINUOUS
 10
0.3973952931
 20
-1.2887324179
 11
0.3973952931
 21
-1.0762324179
  0
LINE
  5
41D
100
AcDbEntity
  8
0
100
AcDbLine
 62
7
  6
CONTINUOUS
 10
0.5782463354
 20
-5.7866490508
 11
0.5782463354
 21
-5.5741490508
  0
LINE
  5
41E
100
AcDbEntity
  8
ASSI
100
AcDbLine
 62
7
  6
CONTINUOUS
 10
0.5782463354
 20
-5.7866490508
 11
0.5782463354
 21
-5.5741490508
  0
LINE
  5
41F
100
AcDbEntity
  8
0
100
AcDbLine
 62
7
  6
CONTINUOUS
 10
0.5782463354
 20
-4.1928991522
 11
0.5782463354
 21
-4.0512324179
  0
LINE
  5
420
100
AcDbEntity
  8
ASSI
100
AcDbLine
 62
7
  6
CONTINUOUS
 10
0.5782463354
 20
-4.1928991522
 11
0.5782463354
 21
-4.0512324179
  0
LINE
  5
421
100
AcDbEntity
  8
0
100
AcDbLine
 62
7
  6
CONTINUOUS
 10
0.7952675861
 20
-5.2908156837
 11
0.7952675861
 21
-5.1137324179
  0
LINE
  5
422
100
AcDbEntity
  8
ASSI
100
AcDbLine
 62
7
  6
CONTINUOUS
 10
0.7952675861
 20
-5.2908156837
 11
0.7952675861
 21
-5.1137324179
  0
LINE
  5
423
100
AcDbEntity
  8
0
100
AcDbLine
 62
7
  6
CONTINUOUS
 10
1.0122889382
 20
-5.7512324179
 11
1.0122889382
 21
-5.5741490508
  0
LINE
  5
424
100
AcDbEntity
  8
ASSI
100
AcDbLine
 62
7
  6
CONTINUOUS
 10
1.0122889382
 20
-5.7512324179
 11
1.0122889382
 21
-5.5741490508
  0
LINE
  5
425
100
AcDbEntity
  8
0
100
AcDbLine
 62
7
  6
CONTINUOUS
 10
1.156969772
 20
-4.1928991522
 11
1.156969772
 21
-4.0512324179
  0
LINE
  5
426
100
AcDbEntity
  8
ASSI
100
AcDbLine
 62
7
  6
CONTINUOUS
 10
1.156969772
 20
-4.1928991522
 11
1.156969772
 21
-4.0512324179
  0
LINE
  5
427
100
AcDbEntity
  8
RACCORDO
100
AcDbLine
 62
253
  6
CONTINUOUS
 10
-5.4974139031
 20
-6.2799213057
 11
-5.467467896
 21
-6.2499752985
  0
LINE
  5
428
100
AcDbEntity
  8
ASSI
100
AcDbLine
 62
253
  6
CONTINUOUS
 10
-5.4974139031
 20
-6.2799213057
 11
-5.467467896
 21
-6.2499752985
  0
LINE
  5
429
100
AcDbEntity
  8
RACCORDO
100
AcDbLine
 62
253
  6
CONTINUOUS
 10
-5.1974595772
 20
-6.5798755969
 11
-5.1677092793
 21
-6.550125299
  0
LINE
  5
42A
100
AcDbEntity
  8
ASSI
100
AcDbLine
 62
253
  6
CONTINUOUS
 10
-5.1974595772
 20
-6.5798755969
 11
-5.1677092793
 21
-6.550125299
  0
LINE
  5
42B
100
AcDbEntity
  8
0
100
AcDbLine
 62
7
  6
CONTINUOUS
 10
-3.0026047069
 20
0.8149335821
 11
2.9973952931
 21
0.8149335821
  0
LINE
  5
42C
100
AcDbEntity
  8
ASSI
100
AcDbLine
 62
7
  6
CONTINUOUS
 10
-3.0026047069
 20
0.8149335821
 11
2.9973952931
 21
0.8149335821
  0
LINE
  5
42D
100
AcDbEntity
  8
RACCORDO
100
AcDbLine
 62
7
  6
CONTINUOUS
 10
-10.827181332
 20
1.0936676169
 11
-9.8313387417
 21
1.0936676169
  0
LINE
  5
42E
100
AcDbEntity
  8
ASSI
100
AcDbLine
 62
7
  6
CONTINUOUS
 10
-10.827181332
 20
1.0936676169
 11
-9.8313387417
 21
1.0936676169
  0
LINE
  5
42F
100
AcDbEntity
  8
RACCORDO
100
AcDbLine
 62
7
  6
CONTINUOUS
 10
9.8261293279
 20
1.0936676169
 11
10.8219719183
 21
1.0936676169
  0
LINE
  5
430
100
AcDbEntity
  8
ASSI
100
AcDbLine
 62
7
  6
CONTINUOUS
 10
9.8261293279
 20
1.0936676169
 11
10.8219719183
 21
1.0936676169
  0
LINE
  5
431
100
AcDbEntity
  8
RACCORDO
100
AcDbLine
 62
7
  6
CONTINUOUS
 10
-6.7474595772
 20
8.0097884524
 11
-6.7299539909
 21
7.9922828661
  0
LINE
  5
432
100
AcDbEntity
  8
ASSI
100
AcDbLine
 62
7
  6
CONTINUOUS
 10
-6.7474595772
 20
8.0097884524
 11
-6.7299539909
 21
7.9922828661
  0
LINE
  5
433
100
AcDbEntity
  8
0
100
AcDbLine
 62
7
  6
CONTINUOUS
 10
1.3378208143
 20
-4.3345656837
 11
1.3016506058
 21
-4.1928991522
  0
LINE
  5
434
100
AcDbEntity
  8
ASSI
100
AcDbLine
 62
7
  6
CONTINUOUS
 10
1.3378208143
 20
-4.3345656837
 11
1.3016506058
 21
-4.1928991522
  0
LINE
  5
435
100
AcDbEntity
  8
0
100
AcDbLine
 62
7
  6
CONTINUOUS
 10
1.9165442255
 20
-4.0512324179
 11
1.8803740171
 21
-3.9095656837
  0
LINE
  5
436
100
AcDbEntity
  8
ASSI
100
AcDbLine
 62
7
  6
CONTINUOUS
 10
1.9165442255
 20
-4.0512324179
 11
1.8803740171
 21
-3.9095656837
  0
LINE
  5
437
100
AcDbEntity
  8
0
100
AcDbLine
 62
7
  6
CONTINUOUS
 10
2.0973952931
 20
-5.5741490508
 11
2.0612250815
 21
-5.3970657851
  0
LINE
  5
438
100
AcDbEntity
  8
ASSI
100
AcDbLine
 62
7
  6
CONTINUOUS
 10
2.0973952931
 20
-5.5741490508
 11
2.0612250815
 21
-5.3970657851
  0
LINE
  5
439
100
AcDbEntity
  8
0
100
AcDbLine
 62
7
  6
CONTINUOUS
 10
1.1931399805
 20
-5.7866490508
 11
1.1931399805
 21
-5.5387324179
  0
LINE
  5
43A
100
AcDbEntity
  8
ASSI
100
AcDbLine
 62
7
  6
CONTINUOUS
 10
1.1931399805
 20
-5.7866490508
 11
1.1931399805
 21
-5.5387324179
  0
LINE
  5
43B
100
AcDbEntity
  8
0
100
AcDbLine
 62
7
  6
CONTINUOUS
 10
1.3016506058
 20
-4.1928991522
 11
1.3016506058
 21
-4.0512324179
  0
LINE
  5
43C
100
AcDbEntity
  8
ASSI
100
AcDbLine
 62
7
  6
CONTINUOUS
 10
1.3016506058
 20
-4.1928991522
 11
1.3016506058
 21
-4.0512324179
  0
LINE
  5
43D
100
AcDbEntity
  8
0
100
AcDbLine
 62
7
  6
CONTINUOUS
 10
1.3739910227
 20
-2.9533158864
 11
1.3739910227
 21
-2.3512324179
  0
LINE
  5
43E
100
AcDbEntity
  8
ASSI
100
AcDbLine
 62
7
  6
CONTINUOUS
 10
1.3739910227
 20
-2.9533158864
 11
1.3739910227
 21
-2.3512324179
  0
LINE
  5
43F
100
AcDbEntity
  8
0
100
AcDbLine
 62
7
  6
CONTINUOUS
 10
1.3739910227
 20
-2.1387324179
 11
1.3739910227
 21
-1.7845658864
  0
LINE
  5
440
100
AcDbEntity
  8
ASSI
100
AcDbLine
 62
7
  6
CONTINUOUS
 10
1.3739910227
 20
-2.1387324179
 11
1.3739910227
 21
-1.7845658864
  0
LINE
  5
441
100
AcDbEntity
  8
0
100
AcDbLine
 62
7
  6
CONTINUOUS
 10
1.5910123241
 20
-3.2012324179
 11
1.5910123241
 21
-2.3512324179
  0
LINE
  5
442
100
AcDbEntity
  8
ASSI
100
AcDbLine
 62
7
  6
CONTINUOUS
 10
1.5910123241
 20
-3.2012324179
 11
1.5910123241
 21
-2.3512324179
  0
LINE
  5
443
100
AcDbEntity
  8
0
100
AcDbLine
 62
7
  6
CONTINUOUS
 10
1.5910123241
 20
-2.1387324179
 11
1.5910123241
 21
-1.7845658864
  0
LINE
  5
444
100
AcDbEntity
  8
ASSI
100
AcDbLine
 62
7
  6
CONTINUOUS
 10
1.5910123241
 20
-2.1387324179
 11
1.5910123241
 21
-1.7845658864
  0
LINE
  5
445
100
AcDbEntity
  8
0
100
AcDbLine
 62
7
  6
CONTINUOUS
 10
1.9165442255
 20
-5.7866490508
 11
1.9165442255
 21
-5.5387324179
  0
LINE
  5
446
100
AcDbEntity
  8
ASSI
100
AcDbLine
 62
7
  6
CONTINUOUS
 10
1.9165442255
 20
-5.7866490508
 11
1.9165442255
 21
-5.5387324179
  0
LINE
  5
447
100
AcDbEntity
  8
0
100
AcDbLine
 62
7
  6
CONTINUOUS
 10
1.9165442255
 20
-4.1928991522
 11
1.9165442255
 21
-4.0512324179
  0
LINE
  5
448
100
AcDbEntity
  8
ASSI
100
AcDbLine
 62
7
  6
CONTINUOUS
 10
1.9165442255
 20
-4.1928991522
 11
1.9165442255
 21
-4.0512324179
  0
LINE
  5
449
100
AcDbEntity
  8
0
100
AcDbLine
 62
7
  6
CONTINUOUS
 10
2.0973952931
 20
-6.8137324179
 11
2.0973952931
 21
-6.6012324179
  0
LINE
  5
44A
100
AcDbEntity
  8
ASSI
100
AcDbLine
 62
7
  6
CONTINUOUS
 10
2.0973952931
 20
-6.8137324179
 11
2.0973952931
 21
-6.6012324179
  0
LINE
  5
44B
100
AcDbEntity
  8
0
100
AcDbLine
 62
7
  6
CONTINUOUS
 10
2.0973952931
 20
-5.7512324179
 11
2.0973952931
 21
-5.5741490508
  0
LINE
  5
44C
100
AcDbEntity
  8
ASSI
100
AcDbLine
 62
7
  6
CONTINUOUS
 10
2.0973952931
 20
-5.7512324179
 11
2.0973952931
 21
-5.5741490508
  0
LINE
  5
44D
100
AcDbEntity
  8
0
100
AcDbLine
 62
7
  6
CONTINUOUS
 10
2.0973952931
 20
-4.2283156837
 11
2.0973952931
 21
-4.0158156837
  0
LINE
  5
44E
100
AcDbEntity
  8
ASSI
100
AcDbLine
 62
7
  6
CONTINUOUS
 10
2.0973952931
 20
-4.2283156837
 11
2.0973952931
 21
-4.0158156837
  0
LINE
  5
44F
100
AcDbEntity
  8
0
100
AcDbLine
 62
7
  6
CONTINUOUS
 10
2.0973952931
 20
-2.3512324179
 11
2.0973952931
 21
-2.1387324179
  0
LINE
  5
450
100
AcDbEntity
  8
ASSI
100
AcDbLine
 62
7
  6
CONTINUOUS
 10
2.0973952931
 20
-2.3512324179
 11
2.0973952931
 21
-2.1387324179
  0
LINE
  5
451
100
AcDbEntity
  8
0
100
AcDbLine
 62
7
  6
CONTINUOUS
 10
2.0973952931
 20
-1.2887324179
 11
2.0973952931
 21
-1.0762324179
  0
LINE
  5
452
100
AcDbEntity
  8
ASSI
100
AcDbLine
 62
7
  6
CONTINUOUS
 10
2.0973952931
 20
-1.2887324179
 11
2.0973952931
 21
-1.0762324179
  0
LINE
  5
453
100
AcDbEntity
  8
0
100
AcDbLine
 62
7
  6
CONTINUOUS
 10
0.3973952931
 20
-4.0512324179
 11
0.4335655016
 21
-3.8741491522
  0
LINE
  5
454
100
AcDbEntity
  8
ASSI
100
AcDbLine
 62
7
  6
CONTINUOUS
 10
0.3973952931
 20
-4.0512324179
 11
0.4335655016
 21
-3.8741491522
  0
LINE
  5
455
100
AcDbEntity
  8
0
100
AcDbLine
 62
7
  6
CONTINUOUS
 10
0.3973952931
 20
-5.6095657851
 11
0.4335655016
 21
-5.4324824179
  0
LINE
  5
456
100
AcDbEntity
  8
ASSI
100
AcDbLine
 62
7
  6
CONTINUOUS
 10
0.3973952931
 20
-5.6095657851
 11
0.4335655016
 21
-5.4324824179
  0
LINE
  5
457
100
AcDbEntity
  8
0
100
AcDbLine
 62
7
  6
CONTINUOUS
 10
1.0122889382
 20
-5.5741490508
 11
1.0484591466
 21
-5.3970657851
  0
LINE
  5
458
100
AcDbEntity
  8
ASSI
100
AcDbLine
 62
7
  6
CONTINUOUS
 10
1.0122889382
 20
-5.5741490508
 11
1.0484591466
 21
-5.3970657851
  0
LINE
  5
459
100
AcDbEntity
  8
0
100
AcDbLine
 62
7
  6
CONTINUOUS
 10
0.5782463354
 20
-4.0512324179
 11
0.6144165439
 21
-3.9095656837
  0
LINE
  5
45A
100
AcDbEntity
  8
ASSI
100
AcDbLine
 62
7
  6
CONTINUOUS
 10
0.5782463354
 20
-4.0512324179
 11
0.6144165439
 21
-3.9095656837
  0
LINE
  5
45B
100
AcDbEntity
  8
0
100
AcDbLine
 62
7
  6
CONTINUOUS
 10
1.1207995636
 20
-4.3345656837
 11
1.156969772
 21
-4.1928991522
  0
LINE
  5
45C
100
AcDbEntity
  8
ASSI
100
AcDbLine
 62
7
  6
CONTINUOUS
 10
1.1207995636
 20
-4.3345656837
 11
1.156969772
 21
-4.1928991522
  0
LINE
  5
45D
100
AcDbEntity
  8
RACCORDO
100
AcDbLine
 62
7
  6
CONTINUOUS
 10
11.1205422144
 20
7.9974277241
 11
11.1904132672
 21
8.0672987768
  0
LINE
  5
45E
100
AcDbEntity
  8
ASSI
100
AcDbLine
 62
7
  6
CONTINUOUS
 10
11.1205422144
 20
7.9974277241
 11
11.1904132672
 21
8.0672987768
  0
LINE
  5
45F
100
AcDbEntity
  8
0
100
AcDbLine
 62
7
  6
CONTINUOUS
 10
-0.3703037069
 20
-1.7730544179
 11
-2.0701667069
 21
-2.2946144179
  0
LINE
  5
460
100
AcDbEntity
  8
ASSI
100
AcDbLine
 62
7
  6
CONTINUOUS
 10
-0.3703037069
 20
-1.7730544179
 11
-2.0701667069
 21
-2.2946144179
  0
LINE
  5
461
100
AcDbEntity
  8
RACCORDO
100
AcDbLine
 62
7
  6
CONTINUOUS
 10
-11.178167616
 20
1.1498437119
 11
-10.1823240156
 21
1.1498437119
  0
LINE
  5
462
100
AcDbEntity
  8
ASSI
100
AcDbLine
 62
7
  6
CONTINUOUS
 10
-11.178167616
 20
1.1498437119
 11
-10.1823240156
 21
1.1498437119
  0
LINE
  5
463
100
AcDbEntity
  8
RACCORDO
100
AcDbLine
 62
7
  6
CONTINUOUS
 10
11.1729582022
 20
1.1498437119
 11
10.1771146019
 21
1.1498437119
  0
LINE
  5
464
100
AcDbEntity
  8
ASSI
100
AcDbLine
 62
7
  6
CONTINUOUS
 10
11.1729582022
 20
1.1498437119
 11
10.1771146019
 21
1.1498437119
  0
LINE
  5
465
100
AcDbEntity
  8
RACCORDO
100
AcDbLine
 62
7
  6
CONTINUOUS
 10
-11.178167616
 20
1.7800234522
 11
-10.1823240156
 21
1.7800234522
  0
LINE
  5
466
100
AcDbEntity
  8
ASSI
100
AcDbLine
 62
7
  6
CONTINUOUS
 10
-11.178167616
 20
1.7800234522
 11
-10.1823240156
 21
1.7800234522
  0
LINE
  5
467
100
AcDbEntity
  8
RACCORDO
100
AcDbLine
 62
7
  6
CONTINUOUS
 10
11.1729582022
 20
1.7800234522
 11
10.1771146019
 21
1.7800234522
  0
LINE
  5
468
100
AcDbEntity
  8
ASSI
100
AcDbLine
 62
7
  6
CONTINUOUS
 10
11.1729582022
 20
1.7800234522
 11
10.1771146019
 21
1.7800234522
  0
LINE
  5
469
100
AcDbEntity
  8
RACCORDO
100
AcDbLine
 62
7
  6
CONTINUOUS
 10
-10.8269381956
 20
1.8364428559
 11
-9.831095433
 21
1.8364428559
  0
LINE
  5
46A
100
AcDbEntity
  8
ASSI
100
AcDbLine
 62
7
  6
CONTINUOUS
 10
-10.8269381956
 20
1.8364428559
 11
-9.831095433
 21
1.8364428559
  0
LINE
  5
46B
100
AcDbEntity
  8
RACCORDO
100
AcDbLine
 62
7
  6
CONTINUOUS
 10
9.8258860193
 20
1.8364428559
 11
10.8217287819
 21
1.8364428559
  0
LINE
  5
46C
100
AcDbEntity
  8
ASSI
100
AcDbLine
 62
7
  6
CONTINUOUS
 10
9.8258860193
 20
1.8364428559
 11
10.8217287819
 21
1.8364428559
  0
LINE
  5
46D
100
AcDbEntity
  8
0
100
AcDbLine
 62
7
  6
CONTINUOUS
 10
2.0973952931
 20
-4.0158156837
 11
2.0612250815
 21
-3.8387324179
  0
LINE
  5
46E
100
AcDbEntity
  8
ASSI
100
AcDbLine
 62
7
  6
CONTINUOUS
 10
2.0973952931
 20
-4.0158156837
 11
2.0612250815
 21
-3.8387324179
  0
LINE
  5
46F
100
AcDbEntity
  8
DRAFT
100
AcDbLine
 62
7
  6
CONTINUOUS
 10
2.4939042802
 20
7.23587966
 11
2.4939042802
 21
2.3939875041
  0
LINE
  5
470
100
AcDbEntity
  8
DRAFT
100
AcDbLine
 62
7
  6
CONTINUOUS
 10
2.8973952931
 20
5.6191623329
 11
2.8973952931
 21
4.0107048312
  0
LINE
  5
471
100
AcDbEntity
  8
ASSI
100
AcDbLine
 62
7
  6
CONTINUOUS
 10
2.8973952931
 20
5.6191623329
 11
2.8973952931
 21
4.0107048312
  0
LINE
  5
472
100
AcDbEntity
  8
DRAFT
100
AcDbLine
 62
7
  6
CONTINUOUS
 10
2.9648503581
 20
7.232388647
 11
2.9648503581
 21
5.6236611145
  0
LINE
  5
473
100
AcDbEntity
  8
DRAFT
100
AcDbLine
 62
7
  6
CONTINUOUS
 10
2.9648503581
 20
4.0062060496
 11
2.9648503581
 21
2.3974785171
  0
LINE
  5
474
100
AcDbEntity
  8
DRAFT
100
AcDbLine
 62
7
  6
CONTINUOUS
 10
2.9973952931
 20
0.8149335821
 11
2.9973952931
 21
4.0062060496
  0
LINE
  5
475
100
AcDbEntity
  8
ASSI
100
AcDbLine
 62
7
  6
CONTINUOUS
 10
2.9973952931
 20
0.8149335821
 11
2.9973952931
 21
4.0062060496
  0
LINE
  5
476
100
AcDbEntity
  8
DRAFT
100
AcDbLine
 62
7
  6
CONTINUOUS
 10
2.9973952931
 20
5.6236611145
 11
2.9973952931
 21
7.3149335821
  0
LINE
  5
477
100
AcDbEntity
  8
ASSI
100
AcDbLine
 62
7
  6
CONTINUOUS
 10
2.9973952931
 20
5.6236611145
 11
2.9973952931
 21
7.3149335821
  0
LINE
  5
478
100
AcDbEntity
  8
DRAFT
100
AcDbLine
 62
7
  6
CONTINUOUS
 10
3.0670310535
 20
5.6149335821
 11
3.0670310535
 21
4.0149335821
  0
LINE
  5
479
100
AcDbEntity
  8
ASSI
100
AcDbLine
 62
7
  6
CONTINUOUS
 10
3.0670310535
 20
5.6149335821
 11
3.0670310535
 21
4.0149335821
  0
LINE
  5
47A
100
AcDbEntity
  8
0
100
AcDbLine
 62
7
  6
CONTINUOUS
 10
2.0612250815
 20
-4.4053991522
 11
2.0973952931
 21
-4.2283156837
  0
LINE
  5
47B
100
AcDbEntity
  8
ASSI
100
AcDbLine
 62
7
  6
CONTINUOUS
 10
2.0612250815
 20
-4.4053991522
 11
2.0973952931
 21
-4.2283156837
  0
LINE
  5
47C
100
AcDbEntity
  8
0
100
AcDbLine
 62
7
  6
CONTINUOUS
 10
2.0612250815
 20
-5.9283157851
 11
2.0973952931
 21
-5.7512324179
  0
LINE
  5
47D
100
AcDbEntity
  8
ASSI
100
AcDbLine
 62
7
  6
CONTINUOUS
 10
2.0612250815
 20
-5.9283157851
 11
2.0973952931
 21
-5.7512324179
  0
LINE
  5
47E
100
AcDbEntity
  8
0
100
AcDbLine
 62
7
  6
CONTINUOUS
 10
1.3016506058
 20
-4.0512324179
 11
1.3378208143
 21
-3.9095656837
  0
LINE
  5
47F
100
AcDbEntity
  8
ASSI
100
AcDbLine
 62
7
  6
CONTINUOUS
 10
1.3016506058
 20
-4.0512324179
 11
1.3378208143
 21
-3.9095656837
  0
LINE
  5
480
100
AcDbEntity
  8
0
100
AcDbLine
 62
7
  6
CONTINUOUS
 10
1.8803740171
 20
-4.3345656837
 11
1.9165442255
 21
-4.1928991522
  0
LINE
  5
481
100
AcDbEntity
  8
ASSI
100
AcDbLine
 62
7
  6
CONTINUOUS
 10
1.8803740171
 20
-4.3345656837
 11
1.9165442255
 21
-4.1928991522
  0
LINE
  5
482
100
AcDbEntity
  8
0
100
AcDbLine
 62
7
  6
CONTINUOUS
 10
0.5782463354
 20
-5.5741490508
 11
0.6144165439
 21
-5.4678990508
  0
LINE
  5
483
100
AcDbEntity
  8
ASSI
100
AcDbLine
 62
7
  6
CONTINUOUS
 10
0.5782463354
 20
-5.5741490508
 11
0.6144165439
 21
-5.4678990508
  0
LINE
  5
484
100
AcDbEntity
  8
0
100
AcDbLine
 62
7
  6
CONTINUOUS
 10
1.1931399805
 20
-5.5387324179
 11
1.2293101889
 21
-5.4324824179
  0
LINE
  5
485
100
AcDbEntity
  8
ASSI
100
AcDbLine
 62
7
  6
CONTINUOUS
 10
1.1931399805
 20
-5.5387324179
 11
1.2293101889
 21
-5.4324824179
  0
LINE
  5
486
100
AcDbEntity
  8
0
100
AcDbLine
 62
7
  6
CONTINUOUS
 10
1.2293101889
 20
-3.7678991522
 11
1.2654803974
 21
-3.6970656837
  0
LINE
  5
487
100
AcDbEntity
  8
ASSI
100
AcDbLine
 62
7
  6
CONTINUOUS
 10
1.2293101889
 20
-3.7678991522
 11
1.2654803974
 21
-3.6970656837
  0
LINE
  5
488
100
AcDbEntity
  8
0
100
AcDbLine
 62
7
  6
CONTINUOUS
 10
1.3378208143
 20
-3.9095656837
 11
1.4101612312
 21
-3.7678991522
  0
LINE
  5
489
100
AcDbEntity
  8
ASSI
100
AcDbLine
 62
7
  6
CONTINUOUS
 10
1.3378208143
 20
-3.9095656837
 11
1.4101612312
 21
-3.7678991522
  0
LINE
  5
48A
100
AcDbEntity
  8
0
100
AcDbLine
 62
7
  6
CONTINUOUS
 10
1.1931399805
 20
-4.5470656837
 11
1.2293101889
 21
-4.4762324179
  0
LINE
  5
48B
100
AcDbEntity
  8
ASSI
100
AcDbLine
 62
7
  6
CONTINUOUS
 10
1.1931399805
 20
-4.5470656837
 11
1.2293101889
 21
-4.4762324179
  0
LINE
  5
48C
100
AcDbEntity
  8
0
100
AcDbLine
 62
7
  6
CONTINUOUS
 10
0.4335655016
 20
-3.8741491522
 11
0.542076127
 21
-3.6970656837
  0
LINE
  5
48D
100
AcDbEntity
  8
ASSI
100
AcDbLine
 62
7
  6
CONTINUOUS
 10
0.4335655016
 20
-3.8741491522
 11
0.542076127
 21
-3.6970656837
  0
LINE
  5
48E
100
AcDbEntity
  8
0
100
AcDbLine
 62
7
  6
CONTINUOUS
 10
0.4335655016
 20
-5.4324824179
 11
0.542076127
 21
-5.2553991522
  0
LINE
  5
48F
100
AcDbEntity
  8
ASSI
100
AcDbLine
 62
7
  6
CONTINUOUS
 10
0.4335655016
 20
-5.4324824179
 11
0.542076127
 21
-5.2553991522
  0
LINE
  5
490
100
AcDbEntity
  8
0
100
AcDbLine
 62
7
  6
CONTINUOUS
 10
0.6144165439
 20
-3.9095656837
 11
0.7229271692
 21
-3.7678991522
  0
LINE
  5
491
100
AcDbEntity
  8
ASSI
100
AcDbLine
 62
7
  6
CONTINUOUS
 10
0.6144165439
 20
-3.9095656837
 11
0.7229271692
 21
-3.7678991522
  0
LINE
  5
492
100
AcDbEntity
  8
RACCORDO
100
AcDbLine
 62
253
  6
CONTINUOUS
 10
6.7254499124
 20
3.3929425098
 11
6.7562751421
 21
3.4237677395
  0
LINE
  5
493
100
AcDbEntity
  8
ASSI
100
AcDbLine
 62
253
  6
CONTINUOUS
 10
6.7254499124
 20
3.3929425098
 11
6.7562751421
 21
3.4237677395
  0
LINE
  5
494
100
AcDbEntity
  8
RACCORDO
100
AcDbLine
 62
253
  6
CONTINUOUS
 10
7.025480477
 20
3.0930644574
 11
7.0562294506
 21
3.123813431
  0
LINE
  5
495
100
AcDbEntity
  8
ASSI
100
AcDbLine
 62
253
  6
CONTINUOUS
 10
7.025480477
 20
3.0930644574
 11
7.0562294506
 21
3.123813431
  0
LINE
  5
496
100
AcDbEntity
  8
0
100
AcDbLine
 62
7
  6
CONTINUOUS
 10
0.542076127
 20
-3.6970656837
 11
0.6505867523
 21
-3.5908158864
  0
LINE
  5
497
100
AcDbEntity
  8
ASSI
100
AcDbLine
 62
7
  6
CONTINUOUS
 10
0.542076127
 20
-3.6970656837
 11
0.6505867523
 21
-3.5908158864
  0
LINE
  5
498
100
AcDbEntity
  8
DRAFT
100
AcDbLine
 62
7
  6
CONTINUOUS
 10
2.4939042802
 20
2.3939875041
 11
-2.4991136939
 21
2.3939875041
  0
LINE
  5
499
100
AcDbEntity
  8
DRAFT
100
AcDbLine
 62
7
  6
CONTINUOUS
 10
-2.9700597718
 20
2.3974785171
 11
-2.5026047069
 21
2.3974785171
  0
LINE
  5
49A
100
AcDbEntity
  8
DRAFT
100
AcDbLine
 62
7
  6
CONTINUOUS
 10
2.9648503581
 20
2.3974785171
 11
2.4973952931
 21
2.3974785171
  0
LINE
  5
49B
100
AcDbEntity
  8
RACCORDO
100
AcDbLine
 62
7
  6
CONTINUOUS
 10
-7.274519523
 20
3.0930644574
 11
-7.0306898908
 21
3.0930644574
  0
LINE
  5
49C
100
AcDbEntity
  8
ASSI
100
AcDbLine
 62
7
  6
CONTINUOUS
 10
-7.274519523
 20
3.0930644574
 11
-7.0306898908
 21
3.0930644574
  0
LINE
  5
49D
100
AcDbEntity
  8
RACCORDO
100
AcDbLine
 62
7
  6
CONTINUOUS
 10
7.025480477
 20
3.0930644574
 11
7.2693101092
 21
3.0930644574
  0
LINE
  5
49E
100
AcDbEntity
  8
ASSI
100
AcDbLine
 62
7
  6
CONTINUOUS
 10
7.025480477
 20
3.0930644574
 11
7.2693101092
 21
3.0930644574
  0
LINE
  5
49F
100
AcDbEntity
  8
RACCORDO
100
AcDbLine
 62
253
  6
CONTINUOUS
 10
-7.2437705494
 20
3.123813431
 11
-7.0614388643
 21
3.123813431
  0
LINE
  5
4A0
100
AcDbEntity
  8
ASSI
100
AcDbLine
 62
253
  6
CONTINUOUS
 10
-7.2437705494
 20
3.123813431
 11
-7.0614388643
 21
3.123813431
  0
LINE
  5
4A1
100
AcDbEntity
  8
RACCORDO
100
AcDbLine
 62
253
  6
CONTINUOUS
 10
7.0562294506
 20
3.123813431
 11
7.2385611357
 21
3.123813431
  0
LINE
  5
4A2
100
AcDbEntity
  8
ASSI
100
AcDbLine
 62
253
  6
CONTINUOUS
 10
7.0562294506
 20
3.123813431
 11
7.2385611357
 21
3.123813431
  0
LINE
  5
4A3
100
AcDbEntity
  8
RACCORDO
100
AcDbLine
 62
7
  6
CONTINUOUS
 10
9.8296419668
 20
-6.0673130916
 11
9.8771602934
 21
-6.1148314182
  0
LINE
  5
4A4
100
AcDbEntity
  8
ASSI
100
AcDbLine
 62
7
  6
CONTINUOUS
 10
9.8296419668
 20
-6.0673130916
 11
9.8771602934
 21
-6.1148314182
  0
LINE
  5
4A5
100
AcDbEntity
  8
RACCORDO
100
AcDbLine
 62
253
  6
CONTINUOUS
 10
3.5373330317
 20
4.0149335821
 11
3.5373330317
 21
5.6149335821
  0
LINE
  5
4A6
100
AcDbEntity
  8
ASSI
100
AcDbLine
 62
253
  6
CONTINUOUS
 10
3.5373330317
 20
4.0149335821
 11
3.5373330317
 21
5.6149335821
  0
LINE
  5
4A7
100
AcDbEntity
  8
RACCORDO
100
AcDbLine
 62
253
  6
CONTINUOUS
 10
3.8192408179
 20
4.0114880577
 11
3.8192408179
 21
5.6183791064
  0
LINE
  5
4A8
100
AcDbEntity
  8
ASSI
100
AcDbLine
 62
253
  6
CONTINUOUS
 10
3.8192408179
 20
4.0114880577
 11
3.8192408179
 21
5.6183791064
  0
LINE
  5
4A9
100
AcDbEntity
  8
0
100
AcDbLine
 62
7
  6
CONTINUOUS
 10
1.8803740171
 20
-5.8928990508
 11
1.9165442255
 21
-5.7866490508
  0
LINE
  5
4AA
100
AcDbEntity
  8
ASSI
100
AcDbLine
 62
7
  6
CONTINUOUS
 10
1.8803740171
 20
-5.8928990508
 11
1.9165442255
 21
-5.7866490508
  0
LINE
  5
4AB
100
AcDbEntity
  8
0
100
AcDbLine
 62
7
  6
CONTINUOUS
 10
1.8080336002
 20
-4.4762324179
 11
1.8803740171
 21
-4.3345656837
  0
LINE
  5
4AC
100
AcDbEntity
  8
ASSI
100
AcDbLine
 62
7
  6
CONTINUOUS
 10
1.8080336002
 20
-4.4762324179
 11
1.8803740171
 21
-4.3345656837
  0
LINE
  5
4AD
100
AcDbEntity
  8
0
100
AcDbLine
 62
7
  6
CONTINUOUS
 10
1.0484591466
 20
-5.3970657851
 11
1.156969772
 21
-5.2199824179
  0
LINE
  5
4AE
100
AcDbEntity
  8
ASSI
100
AcDbLine
 62
7
  6
CONTINUOUS
 10
1.0484591466
 20
-5.3970657851
 11
1.156969772
 21
-5.2199824179
  0
LINE
  5
4AF
100
AcDbEntity
  8
0
100
AcDbLine
 62
7
  6
CONTINUOUS
 10
1.9527144467
 20
-4.5824824179
 11
2.0612250815
 21
-4.4053991522
  0
LINE
  5
4B0
100
AcDbEntity
  8
ASSI
100
AcDbLine
 62
7
  6
CONTINUOUS
 10
1.9527144467
 20
-4.5824824179
 11
2.0612250815
 21
-4.4053991522
  0
LINE
  5
4B1
100
AcDbEntity
  8
0
100
AcDbLine
 62
7
  6
CONTINUOUS
 10
0.6144165439
 20
-5.4678990508
 11
0.6867569608
 21
-5.3616490508
  0
LINE
  5
4B2
100
AcDbEntity
  8
ASSI
100
AcDbLine
 62
7
  6
CONTINUOUS
 10
0.6144165439
 20
-5.4678990508
 11
0.6867569608
 21
-5.3616490508
  0
LINE
  5
4B3
100
AcDbEntity
  8
0
100
AcDbLine
 62
7
  6
CONTINUOUS
 10
1.2293101889
 20
-5.4324824179
 11
1.3016506058
 21
-5.3262324179
  0
LINE
  5
4B4
100
AcDbEntity
  8
ASSI
100
AcDbLine
 62
7
  6
CONTINUOUS
 10
1.2293101889
 20
-5.4324824179
 11
1.3016506058
 21
-5.3262324179
  0
LINE
  5
4B5
100
AcDbEntity
  8
0
100
AcDbLine
 62
7
  6
CONTINUOUS
 10
1.2654803974
 20
-3.6970656837
 11
1.3739910227
 21
-3.5553989495
  0
LINE
  5
4B6
100
AcDbEntity
  8
ASSI
100
AcDbLine
 62
7
  6
CONTINUOUS
 10
1.2654803974
 20
-3.6970656837
 11
1.3739910227
 21
-3.5553989495
  0
LINE
  5
4B7
100
AcDbEntity
  8
0
100
AcDbLine
 62
7
  6
CONTINUOUS
 10
1.0122889382
 20
-4.4762324179
 11
1.1207995636
 21
-4.3345656837
  0
LINE
  5
4B8
100
AcDbEntity
  8
ASSI
100
AcDbLine
 62
7
  6
CONTINUOUS
 10
1.0122889382
 20
-4.4762324179
 11
1.1207995636
 21
-4.3345656837
  0
LINE
  5
4B9
100
AcDbEntity
  8
0
100
AcDbLine
 62
7
  6
CONTINUOUS
 10
1.0846293551
 20
-4.6533156837
 11
1.1931399805
 21
-4.5470656837
  0
LINE
  5
4BA
100
AcDbEntity
  8
ASSI
100
AcDbLine
 62
7
  6
CONTINUOUS
 10
1.0846293551
 20
-4.6533156837
 11
1.1931399805
 21
-4.5470656837
  0
LINE
  5
4BB
100
AcDbEntity
  8
0
100
AcDbLine
 62
7
  6
CONTINUOUS
 10
1.4101612312
 20
-3.7678991522
 11
1.5548421157
 21
-3.6616491522
  0
LINE
  5
4BC
100
AcDbEntity
  8
ASSI
100
AcDbLine
 62
7
  6
CONTINUOUS
 10
1.4101612312
 20
-3.7678991522
 11
1.5548421157
 21
-3.6616491522
  0
LINE
  5
4BD
100
AcDbEntity
  8
0
100
AcDbLine
 62
7
  6
CONTINUOUS
 10
0.7229271692
 20
-3.7678991522
 11
0.8314378959
 21
-3.6970656837
  0
LINE
  5
4BE
100
AcDbEntity
  8
ASSI
100
AcDbLine
 62
7
  6
CONTINUOUS
 10
0.7229271692
 20
-3.7678991522
 11
0.8314378959
 21
-3.6970656837
  0
LINE
  5
4BF
100
AcDbEntity
  8
0
100
AcDbLine
 62
7
  6
CONTINUOUS
 10
0.6505867523
 20
-3.5908158864
 11
0.8314378959
 21
-3.5199824179
  0
LINE
  5
4C0
100
AcDbEntity
  8
ASSI
100
AcDbLine
 62
7
  6
CONTINUOUS
 10
0.6505867523
 20
-3.5908158864
 11
0.8314378959
 21
-3.5199824179
  0
LINE
  5
4C1
100
AcDbEntity
  8
0
100
AcDbLine
 62
7
  6
CONTINUOUS
 10
1.3739910227
 20
-3.5553989495
 11
1.5548421157
 21
-3.4845658864
  0
LINE
  5
4C2
100
AcDbEntity
  8
ASSI
100
AcDbLine
 62
7
  6
CONTINUOUS
 10
1.3739910227
 20
-3.5553989495
 11
1.5548421157
 21
-3.4845658864
  0
LINE
  5
4C3
100
AcDbEntity
  8
0
100
AcDbLine
 62
7
  6
CONTINUOUS
 10
-0.3703037069
 20
-4.1184424179
 11
-1.4802827069
 21
-4.5346984179
  0
LINE
  5
4C4
100
AcDbEntity
  8
ASSI
100
AcDbLine
 62
7
  6
CONTINUOUS
 10
-0.3703037069
 20
-4.1184424179
 11
-1.4802827069
 21
-4.5346984179
  0
LINE
  5
4C5
100
AcDbEntity
  8
0
100
AcDbLine
 62
7
  6
CONTINUOUS
 10
-1.1263977069
 20
-4.0916224179
 11
-2.0701667069
 21
-4.4427034179
  0
LINE
  5
4C6
100
AcDbEntity
  8
ASSI
100
AcDbLine
 62
7
  6
CONTINUOUS
 10
-1.1263977069
 20
-4.0916224179
 11
-2.0701667069
 21
-4.4427034179
  0
LINE
  5
4C7
100
AcDbEntity
  8
RACCORDO
100
AcDbLine
 62
7
  6
CONTINUOUS
 10
-3.8244502316
 20
4.0114880577
 11
-4.2380408308
 21
3.9916533293
  0
LINE
  5
4C8
100
AcDbEntity
  8
ASSI
100
AcDbLine
 62
7
  6
CONTINUOUS
 10
-3.8244502316
 20
4.0114880577
 11
-4.2380408308
 21
3.9916533293
  0
LINE
  5
4C9
100
AcDbEntity
  8
DRAFT
100
AcDbLine
 62
7
  6
CONTINUOUS
 10
3.0670310535
 20
4.0149335821
 11
2.8973952931
 21
4.0107048312
  0
LINE
  5
4CA
100
AcDbEntity
  8
ASSI
100
AcDbLine
 62
7
  6
CONTINUOUS
 10
3.0670310535
 20
4.0149335821
 11
2.8973952931
 21
4.0107048312
  0
LINE
  5
4CB
100
AcDbEntity
  8
DRAFT
100
AcDbLine
 62
7
  6
CONTINUOUS
 10
-3.0026047069
 20
4.0062060496
 11
-2.9026047069
 21
4.0072138182
  0
LINE
  5
4CC
100
AcDbEntity
  8
ASSI
100
AcDbLine
 62
7
  6
CONTINUOUS
 10
-3.0026047069
 20
4.0062060496
 11
-2.9026047069
 21
4.0072138182
  0
LINE
  5
4CD
100
AcDbEntity
  8
RACCORDO
100
AcDbLine
 62
253
  6
CONTINUOUS
 10
-7.5402947715
 20
3.6237372785
 11
-6.7649146422
 21
3.6237372785
  0
LINE
  5
4CE
100
AcDbEntity
  8
ASSI
100
AcDbLine
 62
253
  6
CONTINUOUS
 10
-7.5402947715
 20
3.6237372785
 11
-6.7649146422
 21
3.6237372785
  0
LINE
  5
4CF
100
AcDbEntity
  8
RACCORDO
100
AcDbLine
 62
253
  6
CONTINUOUS
 10
6.7597052285
 20
3.6237372785
 11
7.5350853578
 21
3.6237372785
  0
LINE
  5
4D0
100
AcDbEntity
  8
ASSI
100
AcDbLine
 62
253
  6
CONTINUOUS
 10
6.7597052285
 20
3.6237372785
 11
7.5350853578
 21
3.6237372785
  0
LINE
  5
4D1
100
AcDbEntity
  8
RACCORDO
100
AcDbLine
 62
7
  6
CONTINUOUS
 10
4.4207711554
 20
3.9893565402
 11
2.9973952931
 21
3.9893565402
  0
LINE
  5
4D2
100
AcDbEntity
  8
ASSI
100
AcDbLine
 62
7
  6
CONTINUOUS
 10
4.4207711554
 20
3.9893565402
 11
2.9973952931
 21
3.9893565402
  0
LINE
  5
4D3
100
AcDbEntity
  8
RACCORDO
100
AcDbLine
 62
7
  6
CONTINUOUS
 10
-3.0026047069
 20
3.9893565402
 11
-4.4259805691
 21
3.9893565402
  0
LINE
  5
4D4
100
AcDbEntity
  8
ASSI
100
AcDbLine
 62
7
  6
CONTINUOUS
 10
-3.0026047069
 20
3.9893565402
 11
-4.4259805691
 21
3.9893565402
  0
LINE
  5
4D5
100
AcDbEntity
  8
RACCORDO
100
AcDbLine
 62
7
  6
CONTINUOUS
 10
3.5373330317
 20
4.0149335821
 11
3.0670310535
 21
4.0149335821
  0
LINE
  5
4D6
100
AcDbEntity
  8
ASSI
100
AcDbLine
 62
7
  6
CONTINUOUS
 10
3.5373330317
 20
4.0149335821
 11
3.0670310535
 21
4.0149335821
  0
LINE
  5
4D7
100
AcDbEntity
  8
RACCORDO
100
AcDbLine
 62
7
  6
CONTINUOUS
 10
-3.0722404673
 20
4.0149335821
 11
-3.5425424454
 21
4.0149335821
  0
LINE
  5
4D8
100
AcDbEntity
  8
ASSI
100
AcDbLine
 62
7
  6
CONTINUOUS
 10
-3.0722404673
 20
4.0149335821
 11
-3.5425424454
 21
4.0149335821
  0
LINE
  5
4D9
100
AcDbEntity
  8
DRAFT
100
AcDbLine
 62
7
  6
CONTINUOUS
 10
2.8973952931
 20
4.0072138182
 11
2.9973952931
 21
4.0062060496
  0
LINE
  5
4DA
100
AcDbEntity
  8
ASSI
100
AcDbLine
 62
7
  6
CONTINUOUS
 10
2.8973952931
 20
4.0072138182
 11
2.9973952931
 21
4.0062060496
  0
LINE
  5
4DB
100
AcDbEntity
  8
DRAFT
100
AcDbLine
 62
7
  6
CONTINUOUS
 10
-2.9026047069
 20
4.0107048312
 11
-3.0722404673
 21
4.0149335821
  0
LINE
  5
4DC
100
AcDbEntity
  8
ASSI
100
AcDbLine
 62
7
  6
CONTINUOUS
 10
-2.9026047069
 20
4.0107048312
 11
-3.0722404673
 21
4.0149335821
  0
LINE
  5
4DD
100
AcDbEntity
  8
RACCORDO
100
AcDbLine
 62
7
  6
CONTINUOUS
 10
4.2328314171
 20
3.9916533293
 11
3.8192408179
 21
4.0114880577
  0
LINE
  5
4DE
100
AcDbEntity
  8
ASSI
100
AcDbLine
 62
7
  6
CONTINUOUS
 10
4.2328314171
 20
3.9916533293
 11
3.8192408179
 21
4.0114880577
  0
LINE
  5
4DF
100
AcDbEntity
  8
RACCORDO
100
AcDbLine
 62
7
  6
CONTINUOUS
 10
11.1729582022
 20
-6.1199765478
 11
11.1254466687
 21
-6.0724650142
  0
LINE
  5
4E0
100
AcDbEntity
  8
ASSI
100
AcDbLine
 62
7
  6
CONTINUOUS
 10
11.1729582022
 20
-6.1199765478
 11
11.1254466687
 21
-6.0724650142
  0
LINE
  5
4E1
100
AcDbEntity
  8
RACCORDO
100
AcDbLine
 62
7
  6
CONTINUOUS
 10
5.1673451993
 20
-7.6083226489
 11
5.1922501635
 21
-7.8599067691
  0
LINE
  5
4E2
100
AcDbEntity
  8
ASSI
100
AcDbLine
 62
7
  6
CONTINUOUS
 10
5.1673451993
 20
-7.6083226489
 11
5.1922501635
 21
-7.8599067691
  0
LINE
  5
4E3
100
AcDbEntity
  8
RACCORDO
100
AcDbLine
 62
253
  6
CONTINUOUS
 10
5.1922501635
 20
-6.5798755969
 11
5.1922501635
 21
-7.8599067691
  0
LINE
  5
4E4
100
AcDbEntity
  8
ASSI
100
AcDbLine
 62
253
  6
CONTINUOUS
 10
5.1922501635
 20
-6.5798755969
 11
5.1922501635
 21
-7.8599067691
  0
LINE
  5
4E5
100
AcDbEntity
  8
ASSI
100
AcDbLine
 62
253
  6
CONTINUOUS
 10
4.4207711554
 20
3.9893565402
 11
4.4272940606
 21
5.6408235937
  0
LINE
  5
4E6
100
AcDbEntity
  8
0
100
AcDbLine
 62
7
  6
CONTINUOUS
 10
1.9527144467
 20
-6.1053990508
 11
2.0612250815
 21
-5.9283157851
  0
LINE
  5
4E7
100
AcDbEntity
  8
ASSI
100
AcDbLine
 62
7
  6
CONTINUOUS
 10
1.9527144467
 20
-6.1053990508
 11
2.0612250815
 21
-5.9283157851
  0
LINE
  5
4E8
100
AcDbEntity
  8
0
100
AcDbLine
 62
7
  6
CONTINUOUS
 10
1.8080336002
 20
-5.9991490508
 11
1.8803740171
 21
-5.8928990508
  0
LINE
  5
4E9
100
AcDbEntity
  8
ASSI
100
AcDbLine
 62
7
  6
CONTINUOUS
 10
1.8080336002
 20
-5.9991490508
 11
1.8803740171
 21
-5.8928990508
  0
LINE
  5
4EA
100
AcDbEntity
  8
0
100
AcDbLine
 62
7
  6
CONTINUOUS
 10
1.156969772
 20
-5.2199824179
 11
1.2654803974
 21
-5.1137324179
  0
LINE
  5
4EB
100
AcDbEntity
  8
ASSI
100
AcDbLine
 62
7
  6
CONTINUOUS
 10
1.156969772
 20
-5.2199824179
 11
1.2654803974
 21
-5.1137324179
  0
LINE
  5
4EC
100
AcDbEntity
  8
0
100
AcDbLine
 62
7
  6
CONTINUOUS
 10
1.8442038086
 20
-4.6887324179
 11
1.9527144467
 21
-4.5824824179
  0
LINE
  5
4ED
100
AcDbEntity
  8
ASSI
100
AcDbLine
 62
7
  6
CONTINUOUS
 10
1.8442038086
 20
-4.6887324179
 11
1.9527144467
 21
-4.5824824179
  0
LINE
  5
4EE
100
AcDbEntity
  8
0
100
AcDbLine
 62
7
  6
CONTINUOUS
 10
1.3016506058
 20
-5.3262324179
 11
1.3739910227
 21
-5.2553991522
  0
LINE
  5
4EF
100
AcDbEntity
  8
ASSI
100
AcDbLine
 62
7
  6
CONTINUOUS
 10
1.3016506058
 20
-5.3262324179
 11
1.3739910227
 21
-5.2553991522
  0
LINE
  5
4F0
100
AcDbEntity
  8
0
100
AcDbLine
 62
7
  6
CONTINUOUS
 10
0.542076127
 20
-5.2553991522
 11
0.6867569608
 21
-5.1491491522
  0
LINE
  5
4F1
100
AcDbEntity
  8
ASSI
100
AcDbLine
 62
7
  6
CONTINUOUS
 10
0.542076127
 20
-5.2553991522
 11
0.6867569608
 21
-5.1491491522
  0
LINE
  5
4F2
100
AcDbEntity
  8
0
100
AcDbLine
 62
7
  6
CONTINUOUS
 10
1.663352741
 20
-4.5824824179
 11
1.8080336002
 21
-4.4762324179
  0
LINE
  5
4F3
100
AcDbEntity
  8
ASSI
100
AcDbLine
 62
7
  6
CONTINUOUS
 10
1.663352741
 20
-4.5824824179
 11
1.8080336002
 21
-4.4762324179
  0
LINE
  5
4F4
100
AcDbEntity
  8
0
100
AcDbLine
 62
7
  6
CONTINUOUS
 10
0.9037783128
 20
-4.5470656837
 11
1.0122889382
 21
-4.4762324179
  0
LINE
  5
4F5
100
AcDbEntity
  8
ASSI
100
AcDbLine
 62
7
  6
CONTINUOUS
 10
0.9037783128
 20
-4.5470656837
 11
1.0122889382
 21
-4.4762324179
  0
LINE
  5
4F6
100
AcDbEntity
  8
0
100
AcDbLine
 62
7
  6
CONTINUOUS
 10
0.6867569608
 20
-5.3616490508
 11
0.7952675861
 21
-5.2908156837
  0
LINE
  5
4F7
100
AcDbEntity
  8
ASSI
100
AcDbLine
 62
7
  6
CONTINUOUS
 10
0.6867569608
 20
-5.3616490508
 11
0.7952675861
 21
-5.2908156837
  0
LINE
  5
4F8
100
AcDbEntity
  8
0
100
AcDbLine
 62
7
  6
CONTINUOUS
 10
0.9399485213
 20
-4.7241491522
 11
1.0846293551
 21
-4.6533156837
  0
LINE
  5
4F9
100
AcDbEntity
  8
ASSI
100
AcDbLine
 62
7
  6
CONTINUOUS
 10
0.9399485213
 20
-4.7241491522
 11
1.0846293551
 21
-4.6533156837
  0
LINE
  5
4FA
100
AcDbEntity
  8
0
100
AcDbLine
 62
7
  6
CONTINUOUS
 10
1.663352741
 20
-4.7595656837
 11
1.8442038086
 21
-4.6887324179
  0
LINE
  5
4FB
100
AcDbEntity
  8
ASSI
100
AcDbLine
 62
7
  6
CONTINUOUS
 10
1.663352741
 20
-4.7595656837
 11
1.8442038086
 21
-4.6887324179
  0
LINE
  5
4FC
100
AcDbEntity
  8
0
100
AcDbLine
 62
7
  6
CONTINUOUS
 10
1.2654803974
 20
-5.1137324179
 11
1.4463314396
 21
-5.0428991522
  0
LINE
  5
4FD
100
AcDbEntity
  8
ASSI
100
AcDbLine
 62
7
  6
CONTINUOUS
 10
1.2654803974
 20
-5.1137324179
 11
1.4463314396
 21
-5.0428991522
  0
LINE
  5
4FE
100
AcDbEntity
  8
0
100
AcDbLine
 62
7
  6
CONTINUOUS
 10
0.6867569608
 20
-5.1491491522
 11
0.7952675861
 21
-5.1137324179
  0
LINE
  5
4FF
100
AcDbEntity
  8
ASSI
100
AcDbLine
 62
7
  6
CONTINUOUS
 10
0.6867569608
 20
-5.1491491522
 11
0.7952675861
 21
-5.1137324179
  0
LINE
  5
500
100
AcDbEntity
  8
RACCORDO
100
AcDbLine
 62
253
  6
CONTINUOUS
 10
6.7597052285
 20
5.0078268009
 11
7.5350853578
 21
5.0078268009
  0
LINE
  5
501
100
AcDbEntity
  8
ASSI
100
AcDbLine
 62
253
  6
CONTINUOUS
 10
6.7597052285
 20
5.0078268009
 11
7.5350853578
 21
5.0078268009
  0
LINE
  5
502
100
AcDbEntity
  8
RACCORDO
100
AcDbLine
 62
253
  6
CONTINUOUS
 10
-6.7649146422
 20
5.0078268009
 11
-7.5402947715
 21
5.0078268009
  0
LINE
  5
503
100
AcDbEntity
  8
ASSI
100
AcDbLine
 62
253
  6
CONTINUOUS
 10
-6.7649146422
 20
5.0078268009
 11
-7.5402947715
 21
5.0078268009
  0
LINE
  5
504
100
AcDbEntity
  8
DRAFT
100
AcDbLine
 62
7
  6
CONTINUOUS
 10
11.1928877073
 20
-4.1305588321
 11
11.1799402282
 21
-4.117611353
  0
LINE
  5
505
100
AcDbEntity
  8
ASSI
100
AcDbLine
 62
7
  6
CONTINUOUS
 10
11.1928877073
 20
-4.1305588321
 11
11.1799402282
 21
-4.117611353
  0
LINE
  5
506
100
AcDbEntity
  8
DRAFT
100
AcDbLine
 62
7
  6
CONTINUOUS
 10
11.4928877073
 20
-4.1305588321
 11
11.4190949432
 21
-4.056766068
  0
LINE
  5
507
100
AcDbEntity
  8
ASSI
100
AcDbLine
 62
7
  6
CONTINUOUS
 10
11.4928877073
 20
-4.1305588321
 11
11.4190949432
 21
-4.056766068
  0
LINE
  5
508
100
AcDbEntity
  8
RACCORDO
100
AcDbLine
 62
253
  6
CONTINUOUS
 10
5.4922044721
 20
-6.2799213012
 11
5.4922044721
 21
-7.9118816642
  0
LINE
  5
509
100
AcDbEntity
  8
ASSI
100
AcDbLine
 62
253
  6
CONTINUOUS
 10
5.4922044721
 20
-6.2799213012
 11
5.4922044721
 21
-7.9118816642
  0
LINE
  5
50A
100
AcDbEntity
  8
RACCORDO
100
AcDbLine
 62
253
  6
CONTINUOUS
 10
5.7025861142
 20
-7.9118816642
 11
5.7025861142
 21
-6.2799212883
  0
LINE
  5
50B
100
AcDbEntity
  8
ASSI
100
AcDbLine
 62
253
  6
CONTINUOUS
 10
5.7025861142
 20
-7.9118816642
 11
5.7025861142
 21
-6.2799212883
  0
LINE
  5
50C
100
AcDbEntity
  8
RACCORDO
100
AcDbLine
 62
253
  6
CONTINUOUS
 10
6.0025404228
 20
-7.8599067691
 11
6.0025404228
 21
-6.5798755969
  0
LINE
  5
50D
100
AcDbEntity
  8
ASSI
100
AcDbLine
 62
253
  6
CONTINUOUS
 10
6.0025404228
 20
-7.8599067691
 11
6.0025404228
 21
-6.5798755969
  0
LINE
  5
50E
100
AcDbEntity
  8
RACCORDO
100
AcDbLine
 62
7
  6
CONTINUOUS
 10
9.8261293279
 20
1.0936676169
 11
9.8771602934
 21
1.1446985823
  0
LINE
  5
50F
100
AcDbEntity
  8
ASSI
100
AcDbLine
 62
7
  6
CONTINUOUS
 10
9.8261293279
 20
1.0936676169
 11
9.8771602934
 21
1.1446985823
  0
LINE
  5
510
100
AcDbEntity
  8
0
100
AcDbLine
 62
7
  6
CONTINUOUS
 10
1.8080336002
 20
-6.2116491015
 11
1.9527144467
 21
-6.1053990508
  0
LINE
  5
511
100
AcDbEntity
  8
ASSI
100
AcDbLine
 62
7
  6
CONTINUOUS
 10
1.8080336002
 20
-6.2116491015
 11
1.9527144467
 21
-6.1053990508
  0
LINE
  5
512
100
AcDbEntity
  8
0
100
AcDbLine
 62
7
  6
CONTINUOUS
 10
1.6995229495
 20
-6.0699824179
 11
1.8080336002
 21
-5.9991490508
  0
LINE
  5
513
100
AcDbEntity
  8
ASSI
100
AcDbLine
 62
7
  6
CONTINUOUS
 10
1.6995229495
 20
-6.0699824179
 11
1.8080336002
 21
-5.9991490508
  0
LINE
  5
514
100
AcDbEntity
  8
0
100
AcDbLine
 62
7
  6
CONTINUOUS
 10
1.3739910227
 20
-5.2553991522
 11
1.4825016988
 21
-5.2199824179
  0
LINE
  5
515
100
AcDbEntity
  8
ASSI
100
AcDbLine
 62
7
  6
CONTINUOUS
 10
1.3739910227
 20
-5.2553991522
 11
1.4825016988
 21
-5.2199824179
  0
LINE
  5
516
100
AcDbEntity
  8
0
100
AcDbLine
 62
7
  6
CONTINUOUS
 10
1.5910123241
 20
-6.1053990508
 11
1.6995229495
 21
-6.0699824179
  0
LINE
  5
517
100
AcDbEntity
  8
ASSI
100
AcDbLine
 62
7
  6
CONTINUOUS
 10
1.5910123241
 20
-6.1053990508
 11
1.6995229495
 21
-6.0699824179
  0
LINE
  5
518
100
AcDbEntity
  8
0
100
AcDbLine
 62
7
  6
CONTINUOUS
 10
-0.3703037069
 20
-6.4873424179
 11
-2.0701667069
 21
-7.0262324179
  0
LINE
  5
519
100
AcDbEntity
  8
ASSI
100
AcDbLine
 62
7
  6
CONTINUOUS
 10
-0.3703037069
 20
-6.4873424179
 11
-2.0701667069
 21
-7.0262324179
  0
LINE
  5
51A
100
AcDbEntity
  8
DRAFT
100
AcDbLine
 62
7
  6
CONTINUOUS
 10
8.5098612837
 20
8.0672987768
 11
8.2473952931
 21
8.0149335821
  0
LINE
  5
51B
100
AcDbEntity
  8
ASSI
100
AcDbLine
 62
7
  6
CONTINUOUS
 10
8.5098612837
 20
8.0672987768
 11
8.2473952931
 21
8.0149335821
  0
LINE
  5
51C
100
AcDbEntity
  8
RACCORDO
100
AcDbLine
 62
7
  6
CONTINUOUS
 10
4.2393423322
 20
5.6385260814
 11
3.8192408179
 21
5.6183791064
  0
LINE
  5
51D
100
AcDbEntity
  8
ASSI
100
AcDbLine
 62
7
  6
CONTINUOUS
 10
4.2393423322
 20
5.6385260814
 11
3.8192408179
 21
5.6183791064
  0
LINE
  5
51E
100
AcDbEntity
  8
DRAFT
100
AcDbLine
 62
7
  6
CONTINUOUS
 10
-2.9026047069
 20
5.6191623329
 11
-3.0722404673
 21
5.6149335821
  0
LINE
  5
51F
100
AcDbEntity
  8
ASSI
100
AcDbLine
 62
7
  6
CONTINUOUS
 10
-2.9026047069
 20
5.6191623329
 11
-3.0722404673
 21
5.6149335821
  0
LINE
  5
520
100
AcDbEntity
  8
DRAFT
100
AcDbLine
 62
7
  6
CONTINUOUS
 10
2.8973952931
 20
5.6226533459
 11
2.9973952931
 21
5.6236611145
  0
LINE
  5
521
100
AcDbEntity
  8
ASSI
100
AcDbLine
 62
7
  6
CONTINUOUS
 10
2.8973952931
 20
5.6226533459
 11
2.9973952931
 21
5.6236611145
  0
LINE
  5
522
100
AcDbEntity
  8
RACCORDO
100
AcDbLine
 62
253
  6
CONTINUOUS
 10
7.2361535433
 20
5.3613801915
 11
7.058637043
 21
5.3613801915
  0
LINE
  5
523
100
AcDbEntity
  8
ASSI
100
AcDbLine
 62
253
  6
CONTINUOUS
 10
7.2361535433
 20
5.3613801915
 11
7.058637043
 21
5.3613801915
  0
LINE
  5
524
100
AcDbEntity
  8
RACCORDO
100
AcDbLine
 62
253
  6
CONTINUOUS
 10
-7.0638464567
 20
5.3613801915
 11
-7.241362957
 21
5.3613801915
  0
LINE
  5
525
100
AcDbEntity
  8
ASSI
100
AcDbLine
 62
253
  6
CONTINUOUS
 10
-7.0638464567
 20
5.3613801915
 11
-7.241362957
 21
5.3613801915
  0
LINE
  5
526
100
AcDbEntity
  8
RACCORDO
100
AcDbLine
 62
7
  6
CONTINUOUS
 10
3.5373330317
 20
5.6149335821
 11
3.0670310535
 21
5.6149335821
  0
LINE
  5
527
100
AcDbEntity
  8
ASSI
100
AcDbLine
 62
7
  6
CONTINUOUS
 10
3.5373330317
 20
5.6149335821
 11
3.0670310535
 21
5.6149335821
  0
LINE
  5
528
100
AcDbEntity
  8
RACCORDO
100
AcDbLine
 62
7
  6
CONTINUOUS
 10
-3.0722404673
 20
5.6149335821
 11
-3.5425424454
 21
5.6149335821
  0
LINE
  5
529
100
AcDbEntity
  8
ASSI
100
AcDbLine
 62
7
  6
CONTINUOUS
 10
-3.0722404673
 20
5.6149335821
 11
-3.5425424454
 21
5.6149335821
  0
LINE
  5
52A
100
AcDbEntity
  8
RACCORDO
100
AcDbLine
 62
7
  6
CONTINUOUS
 10
-4.4325034743
 20
5.6408235937
 11
-3.0026047069
 21
5.6408235937
  0
LINE
  5
52B
100
AcDbEntity
  8
ASSI
100
AcDbLine
 62
7
  6
CONTINUOUS
 10
-4.4325034743
 20
5.6408235937
 11
-3.0026047069
 21
5.6408235937
  0
LINE
  5
52C
100
AcDbEntity
  8
RACCORDO
100
AcDbLine
 62
7
  6
CONTINUOUS
 10
2.9973952931
 20
5.6408235937
 11
4.4272940606
 21
5.6408235937
  0
LINE
  5
52D
100
AcDbEntity
  8
ASSI
100
AcDbLine
 62
7
  6
CONTINUOUS
 10
2.9973952931
 20
5.6408235937
 11
4.4272940606
 21
5.6408235937
  0
LINE
  5
52E
100
AcDbEntity
  8
RACCORDO
100
AcDbLine
 62
253
  6
CONTINUOUS
 10
-7.2537055518
 20
6.0684869727
 11
-7.0515038619
 21
6.0684869727
  0
LINE
  5
52F
100
AcDbEntity
  8
ASSI
100
AcDbLine
 62
253
  6
CONTINUOUS
 10
-7.2537055518
 20
6.0684869727
 11
-7.0515038619
 21
6.0684869727
  0
LINE
  5
530
100
AcDbEntity
  8
RACCORDO
100
AcDbLine
 62
253
  6
CONTINUOUS
 10
7.0462944482
 20
6.0684869727
 11
7.2484961381
 21
6.0684869727
  0
LINE
  5
531
100
AcDbEntity
  8
ASSI
100
AcDbLine
 62
253
  6
CONTINUOUS
 10
7.0462944482
 20
6.0684869727
 11
7.2484961381
 21
6.0684869727
  0
LINE
  5
532
100
AcDbEntity
  8
DRAFT
100
AcDbLine
 62
7
  6
CONTINUOUS
 10
-3.0026047069
 20
5.6236611145
 11
-2.9026047069
 21
5.6226533459
  0
LINE
  5
533
100
AcDbEntity
  8
ASSI
100
AcDbLine
 62
7
  6
CONTINUOUS
 10
-3.0026047069
 20
5.6236611145
 11
-2.9026047069
 21
5.6226533459
  0
LINE
  5
534
100
AcDbEntity
  8
DRAFT
100
AcDbLine
 62
7
  6
CONTINUOUS
 10
3.0670310535
 20
5.6149335821
 11
2.8973952931
 21
5.6191623329
  0
LINE
  5
535
100
AcDbEntity
  8
ASSI
100
AcDbLine
 62
7
  6
CONTINUOUS
 10
3.0670310535
 20
5.6149335821
 11
2.8973952931
 21
5.6191623329
  0
LINE
  5
536
100
AcDbEntity
  8
RACCORDO
100
AcDbLine
 62
7
  6
CONTINUOUS
 10
-3.8244502316
 20
5.6183791064
 11
-4.2445517459
 21
5.6385260814
  0
LINE
  5
537
100
AcDbEntity
  8
ASSI
100
AcDbLine
 62
7
  6
CONTINUOUS
 10
-3.8244502316
 20
5.6183791064
 11
-4.2445517459
 21
5.6385260814
  0
LINE
  5
538
100
AcDbEntity
  8
DRAFT
100
AcDbLine
 62
7
  6
CONTINUOUS
 10
-8.5150706974
 20
8.0672987768
 11
-8.2526047069
 21
8.0149335821
  0
LINE
  5
539
100
AcDbEntity
  8
ASSI
100
AcDbLine
 62
7
  6
CONTINUOUS
 10
-8.5150706974
 20
8.0672987768
 11
-8.2526047069
 21
8.0149335821
  0
LINE
  5
53A
100
AcDbEntity
  8
DRAFT
100
AcDbLine
 62
7
  6
CONTINUOUS
 10
10.4148503581
 20
-1.6525214829
 11
10.4768830512
 21
-1.714554176
  0
LINE
  5
53B
100
AcDbEntity
  8
ASSI
100
AcDbLine
 62
7
  6
CONTINUOUS
 10
10.4148503581
 20
-1.6525214829
 11
10.4768830512
 21
-1.714554176
  0
LINE
  5
53C
100
AcDbEntity
  8
RACCORDO
100
AcDbLine
 62
253
  6
CONTINUOUS
 10
6.7586827344
 20
5.1492481571
 11
6.7463401397
 21
5.8563549383
  0
LINE
  5
53D
100
AcDbEntity
  8
ASSI
100
AcDbLine
 62
253
  6
CONTINUOUS
 10
6.7586827344
 20
5.1492481571
 11
6.7463401397
 21
5.8563549383
  0
LINE
  5
53E
100
AcDbEntity
  8
RACCORDO
100
AcDbLine
 62
253
  6
CONTINUOUS
 10
7.058637043
 20
5.3613801915
 11
7.0462944482
 21
6.0684869727
  0
LINE
  5
53F
100
AcDbEntity
  8
ASSI
100
AcDbLine
 62
253
  6
CONTINUOUS
 10
7.058637043
 20
5.3613801915
 11
7.0462944482
 21
6.0684869727
  0
LINE
  5
540
100
AcDbEntity
  8
RACCORDO
100
AcDbLine
 62
253
  6
CONTINUOUS
 10
6.7422501635
 20
6.4220403632
 11
6.7422501635
 21
8.0097884524
  0
LINE
  5
541
100
AcDbEntity
  8
ASSI
100
AcDbLine
 62
253
  6
CONTINUOUS
 10
6.7422501635
 20
6.4220403632
 11
6.7422501635
 21
8.0097884524
  0
LINE
  5
542
100
AcDbEntity
  8
RACCORDO
100
AcDbLine
 62
253
  6
CONTINUOUS
 10
6.7597052285
 20
3.6237372785
 11
6.7597052285
 21
5.0078268009
  0
LINE
  5
543
100
AcDbEntity
  8
ASSI
100
AcDbLine
 62
253
  6
CONTINUOUS
 10
6.7597052285
 20
3.6237372785
 11
6.7597052285
 21
5.0078268009
  0
LINE
  5
544
100
AcDbEntity
  8
RACCORDO
100
AcDbLine
 62
253
  6
CONTINUOUS
 10
7.0422044721
 20
6.4220247295
 11
7.0422044721
 21
8.0149335821
  0
LINE
  5
545
100
AcDbEntity
  8
ASSI
100
AcDbLine
 62
253
  6
CONTINUOUS
 10
7.0422044721
 20
6.4220247295
 11
7.0422044721
 21
8.0149335821
  0
LINE
  5
546
100
AcDbEntity
  8
RACCORDO
100
AcDbLine
 62
253
  6
CONTINUOUS
 10
7.059659537
 20
3.6237372785
 11
7.059659537
 21
5.0078268009
  0
LINE
  5
547
100
AcDbEntity
  8
ASSI
100
AcDbLine
 62
253
  6
CONTINUOUS
 10
7.059659537
 20
3.6237372785
 11
7.059659537
 21
5.0078268009
  0
LINE
  5
548
100
AcDbEntity
  8
RACCORDO
100
AcDbLine
 62
253
  6
CONTINUOUS
 10
7.2351310493
 20
5.0078268009
 11
7.2351310493
 21
3.6237372785
  0
LINE
  5
549
100
AcDbEntity
  8
ASSI
100
AcDbLine
 62
253
  6
CONTINUOUS
 10
7.2351310493
 20
5.0078268009
 11
7.2351310493
 21
3.6237372785
  0
LINE
  5
54A
100
AcDbEntity
  8
RACCORDO
100
AcDbLine
 62
253
  6
CONTINUOUS
 10
7.2525861142
 20
8.0149335821
 11
7.2525861142
 21
6.4220250266
  0
LINE
  5
54B
100
AcDbEntity
  8
ASSI
100
AcDbLine
 62
253
  6
CONTINUOUS
 10
7.2525861142
 20
8.0149335821
 11
7.2525861142
 21
6.4220250266
  0
LINE
  5
54C
100
AcDbEntity
  8
RACCORDO
100
AcDbLine
 62
253
  6
CONTINUOUS
 10
7.2484961381
 20
6.0684869727
 11
7.2361535433
 21
5.3613801915
  0
LINE
  5
54D
100
AcDbEntity
  8
ASSI
100
AcDbLine
 62
253
  6
CONTINUOUS
 10
7.2484961381
 20
6.0684869727
 11
7.2361535433
 21
5.3613801915
  0
LINE
  5
54E
100
AcDbEntity
  8
RACCORDO
100
AcDbLine
 62
7
  6
CONTINUOUS
 10
6.027445387
 20
-7.6083226489
 11
6.0025404228
 21
-7.8599067691
  0
LINE
  5
54F
100
AcDbEntity
  8
ASSI
100
AcDbLine
 62
7
  6
CONTINUOUS
 10
6.027445387
 20
-7.6083226489
 11
6.0025404228
 21
-7.8599067691
  0
LINE
  5
550
100
AcDbEntity
  8
RACCORDO
100
AcDbLine
 62
7
  6
CONTINUOUS
 10
11.1219264831
 20
1.0988119928
 11
11.1729582022
 21
1.1498437119
  0
LINE
  5
551
100
AcDbEntity
  8
ASSI
100
AcDbLine
 62
7
  6
CONTINUOUS
 10
11.1219264831
 20
1.0988119928
 11
11.1729582022
 21
1.1498437119
  0
LINE
  5
552
100
AcDbEntity
  8
0
100
AcDbLine
 62
7
  6
CONTINUOUS
 10
1.6271825326
 20
-6.2824824179
 11
1.8080336002
 21
-6.2116491015
  0
LINE
  5
553
100
AcDbEntity
  8
ASSI
100
AcDbLine
 62
7
  6
CONTINUOUS
 10
1.6271825326
 20
-6.2824824179
 11
1.8080336002
 21
-6.2116491015
  0
LINE
  5
554
100
AcDbEntity
  8
RACCORDO
100
AcDbLine
 62
253
  6
CONTINUOUS
 10
6.7422501635
 20
6.4220403632
 11
7.5525404228
 21
6.4220403632
  0
LINE
  5
555
100
AcDbEntity
  8
ASSI
100
AcDbLine
 62
253
  6
CONTINUOUS
 10
6.7422501635
 20
6.4220403632
 11
7.5525404228
 21
6.4220403632
  0
LINE
  5
556
100
AcDbEntity
  8
RACCORDO
100
AcDbLine
 62
253
  6
CONTINUOUS
 10
-6.7474595772
 20
6.4220403632
 11
-7.5577498365
 21
6.4220403632
  0
LINE
  5
557
100
AcDbEntity
  8
ASSI
100
AcDbLine
 62
253
  6
CONTINUOUS
 10
-6.7474595772
 20
6.4220403632
 11
-7.5577498365
 21
6.4220403632
  0
LINE
  5
558
100
AcDbEntity
  8
DRAFT
100
AcDbLine
 62
7
  6
CONTINUOUS
 10
-2.9700597718
 20
7.232388647
 11
-2.5026047069
 21
7.232388647
  0
LINE
  5
559
100
AcDbEntity
  8
DRAFT
100
AcDbLine
 62
7
  6
CONTINUOUS
 10
2.9648503581
 20
7.232388647
 11
2.4973952931
 21
7.232388647
  0
LINE
  5
55A
100
AcDbEntity
  8
DRAFT
100
AcDbLine
 62
7
  6
CONTINUOUS
 10
-2.4991136939
 20
7.23587966
 11
2.4939042802
 21
7.23587966
  0
LINE
  5
55B
100
AcDbEntity
  8
RACCORDO
100
AcDbLine
 62
7
  6
CONTINUOUS
 10
11.1799402282
 20
-1.0269585738
 11
11.1227240643
 21
-0.9697424099
  0
LINE
  5
55C
100
AcDbEntity
  8
ASSI
100
AcDbLine
 62
7
  6
CONTINUOUS
 10
11.1799402282
 20
-1.0269585738
 11
11.1227240643
 21
-0.9697424099
  0
LINE
  5
55D
100
AcDbEntity
  8
RACCORDO
100
AcDbLine
 62
253
  6
CONTINUOUS
 10
7.5350853578
 20
5.0078268009
 11
7.5350853578
 21
3.6237372785
  0
LINE
  5
55E
100
AcDbEntity
  8
ASSI
100
AcDbLine
 62
253
  6
CONTINUOUS
 10
7.5350853578
 20
5.0078268009
 11
7.5350853578
 21
3.6237372785
  0
LINE
  5
55F
100
AcDbEntity
  8
RACCORDO
100
AcDbLine
 62
253
  6
CONTINUOUS
 10
7.5525404228
 20
8.0097884524
 11
7.5525404228
 21
6.4220403632
  0
LINE
  5
560
100
AcDbEntity
  8
ASSI
100
AcDbLine
 62
253
  6
CONTINUOUS
 10
7.5525404228
 20
8.0097884524
 11
7.5525404228
 21
6.4220403632
  0
LINE
  5
561
100
AcDbEntity
  8
DRAFT
100
AcDbLine
 62
7
  6
CONTINUOUS
 10
8.2473952931
 20
9.1555863613
 11
8.2473952931
 21
8.0149335821
  0
LINE
  5
562
100
AcDbEntity
  8
ASSI
100
AcDbLine
 62
7
  6
CONTINUOUS
 10
8.2473952931
 20
9.1555863613
 11
8.2473952931
 21
8.0149335821
  0
LINE
  5
563
100
AcDbEntity
  8
RACCORDO
100
AcDbLine
 62
253
  6
CONTINUOUS
 10
7.5484504466
 20
5.8563549383
 11
7.5361078519
 21
5.1492481571
  0
LINE
  5
564
100
AcDbEntity
  8
ASSI
100
AcDbLine
 62
253
  6
CONTINUOUS
 10
7.5484504466
 20
5.8563549383
 11
7.5361078519
 21
5.1492481571
  0
LINE
  5
565
100
AcDbEntity
  8
DRAFT
100
AcDbLine
 62
7
  6
CONTINUOUS
 10
8.5098612837
 20
9.2079515561
 11
8.2473952931
 21
9.1555863613
  0
LINE
  5
566
100
AcDbEntity
  8
ASSI
100
AcDbLine
 62
7
  6
CONTINUOUS
 10
8.5098612837
 20
9.2079515561
 11
8.2473952931
 21
9.1555863613
  0
LINE
  5
567
100
AcDbEntity
  8
0
100
AcDbLine
 62
7
  6
CONTINUOUS
 10
-3.0026047069
 20
7.3149335821
 11
2.9973952931
 21
7.3149335821
  0
LINE
  5
568
100
AcDbEntity
  8
ASSI
100
AcDbLine
 62
7
  6
CONTINUOUS
 10
-3.0026047069
 20
7.3149335821
 11
2.9973952931
 21
7.3149335821
  0
LINE
  5
569
100
AcDbEntity
  8
DRAFT
100
AcDbLine
 62
7
  6
CONTINUOUS
 10
-12.3026047069
 20
7.9555863613
 11
-11.2026047069
 21
7.9555863613
  0
LINE
  5
56A
100
AcDbEntity
  8
ASSI
100
AcDbLine
 62
7
  6
CONTINUOUS
 10
-12.3026047069
 20
7.9555863613
 11
-11.2026047069
 21
7.9555863613
  0
LINE
  5
56B
100
AcDbEntity
  8
DRAFT
100
AcDbLine
 62
7
  6
CONTINUOUS
 10
11.1973952931
 20
7.9555863613
 11
12.2973952931
 21
7.9555863613
  0
LINE
  5
56C
100
AcDbEntity
  8
ASSI
100
AcDbLine
 62
7
  6
CONTINUOUS
 10
11.1973952931
 20
7.9555863613
 11
12.2973952931
 21
7.9555863613
  0
LINE
  5
56D
100
AcDbEntity
  8
RACCORDO
100
AcDbLine
 62
253
  6
CONTINUOUS
 10
-12.3007678105
 20
7.9574232577
 11
-11.2007678105
 21
7.9574232577
  0
LINE
  5
56E
100
AcDbEntity
  8
ASSI
100
AcDbLine
 62
253
  6
CONTINUOUS
 10
-12.3007678105
 20
7.9574232577
 11
-11.2007678105
 21
7.9574232577
  0
LINE
  5
56F
100
AcDbEntity
  8
RACCORDO
100
AcDbLine
 62
253
  6
CONTINUOUS
 10
11.1955583968
 20
7.9574232577
 11
12.2955583968
 21
7.9574232577
  0
LINE
  5
570
100
AcDbEntity
  8
ASSI
100
AcDbLine
 62
253
  6
CONTINUOUS
 10
11.1955583968
 20
7.9574232577
 11
12.2955583968
 21
7.9574232577
  0
LINE
  5
571
100
AcDbEntity
  8
RACCORDO
100
AcDbLine
 62
7
  6
CONTINUOUS
 10
-10.8257975617
 20
7.9922828661
 11
-7.5752554228
 21
7.9922828661
  0
LINE
  5
572
100
AcDbEntity
  8
ASSI
100
AcDbLine
 62
7
  6
CONTINUOUS
 10
-10.8257975617
 20
7.9922828661
 11
-7.5752554228
 21
7.9922828661
  0
LINE
  5
573
100
AcDbEntity
  8
DRAFT
100
AcDbLine
 62
7
  6
CONTINUOUS
 10
-6.7299539909
 20
7.9922828661
 11
6.7247445772
 21
7.9922828661
  0
LINE
  5
574
100
AcDbEntity
  8
ASSI
100
AcDbLine
 62
7
  6
CONTINUOUS
 10
-6.7299539909
 20
7.9922828661
 11
6.7247445772
 21
7.9922828661
  0
LINE
  5
575
100
AcDbEntity
  8
RACCORDO
100
AcDbLine
 62
7
  6
CONTINUOUS
 10
7.5700460091
 20
7.9922828661
 11
10.820588148
 21
7.9922828661
  0
LINE
  5
576
100
AcDbEntity
  8
ASSI
100
AcDbLine
 62
7
  6
CONTINUOUS
 10
7.5700460091
 20
7.9922828661
 11
10.820588148
 21
7.9922828661
  0
LINE
  5
577
100
AcDbEntity
  8
RACCORDO
100
AcDbLine
 62
7
  6
CONTINUOUS
 10
-8.2526047069
 20
8.0149335821
 11
-7.2577955279
 21
8.0149335821
  0
LINE
  5
578
100
AcDbEntity
  8
ASSI
100
AcDbLine
 62
7
  6
CONTINUOUS
 10
-8.2526047069
 20
8.0149335821
 11
-7.2577955279
 21
8.0149335821
  0
LINE
  5
579
100
AcDbEntity
  8
RACCORDO
100
AcDbLine
 62
7
  6
CONTINUOUS
 10
-7.0474138858
 20
8.0149335821
 11
7.0422044721
 21
8.0149335821
  0
LINE
  5
57A
100
AcDbEntity
  8
ASSI
100
AcDbLine
 62
7
  6
CONTINUOUS
 10
-7.0474138858
 20
8.0149335821
 11
7.0422044721
 21
8.0149335821
  0
LINE
  5
57B
100
AcDbEntity
  8
RACCORDO
100
AcDbLine
 62
7
  6
CONTINUOUS
 10
7.2525861142
 20
8.0149335821
 11
8.2473952931
 21
8.0149335821
  0
LINE
  5
57C
100
AcDbEntity
  8
ASSI
100
AcDbLine
 62
7
  6
CONTINUOUS
 10
7.2525861142
 20
8.0149335821
 11
8.2473952931
 21
8.0149335821
  0
LINE
  5
57D
100
AcDbEntity
  8
DRAFT
100
AcDbLine
 62
7
  6
CONTINUOUS
 10
-11.1956226809
 20
8.0672987768
 11
-8.5150706974
 21
8.0672987768
  0
LINE
  5
57E
100
AcDbEntity
  8
ASSI
100
AcDbLine
 62
7
  6
CONTINUOUS
 10
-11.1956226809
 20
8.0672987768
 11
-8.5150706974
 21
8.0672987768
  0
LINE
  5
57F
100
AcDbEntity
  8
DRAFT
100
AcDbLine
 62
7
  6
CONTINUOUS
 10
8.5098612837
 20
8.0672987768
 11
11.1904132672
 21
8.0672987768
  0
LINE
  5
580
100
AcDbEntity
  8
ASSI
100
AcDbLine
 62
7
  6
CONTINUOUS
 10
8.5098612837
 20
8.0672987768
 11
11.1904132672
 21
8.0672987768
  0
LINE
  5
581
100
AcDbEntity
  8
RACCORDO
100
AcDbLine
 62
253
  6
CONTINUOUS
 10
-12.2956226809
 20
8.2573775662
 11
-11.1956226809
 21
8.2573775662
  0
LINE
  5
582
100
AcDbEntity
  8
ASSI
100
AcDbLine
 62
253
  6
CONTINUOUS
 10
-12.2956226809
 20
8.2573775662
 11
-11.1956226809
 21
8.2573775662
  0
LINE
  5
583
100
AcDbEntity
  8
RACCORDO
100
AcDbLine
 62
253
  6
CONTINUOUS
 10
11.1904132672
 20
8.2573775662
 11
12.2904132672
 21
8.2573775662
  0
LINE
  5
584
100
AcDbEntity
  8
ASSI
100
AcDbLine
 62
253
  6
CONTINUOUS
 10
11.1904132672
 20
8.2573775662
 11
12.2904132672
 21
8.2573775662
  0
LINE
  5
585
100
AcDbEntity
  8
DRAFT
100
AcDbLine
 62
7
  6
CONTINUOUS
 10
-8.5150706974
 20
9.2079515561
 11
-8.2526047069
 21
9.1555863613
  0
LINE
  5
586
100
AcDbEntity
  8
ASSI
100
AcDbLine
 62
7
  6
CONTINUOUS
 10
-8.5150706974
 20
9.2079515561
 11
-8.2526047069
 21
9.1555863613
  0
LINE
  5
587
100
AcDbEntity
  8
RACCORDO
100
AcDbLine
 62
253
  6
CONTINUOUS
 10
7.2385611357
 20
3.123813431
 11
7.2693101092
 21
3.0930644574
  0
LINE
  5
588
100
AcDbEntity
  8
ASSI
100
AcDbLine
 62
253
  6
CONTINUOUS
 10
7.2385611357
 20
3.123813431
 11
7.2693101092
 21
3.0930644574
  0
LINE
  5
589
100
AcDbEntity
  8
RACCORDO
100
AcDbLine
 62
253
  6
CONTINUOUS
 10
7.5385154442
 20
3.4237677395
 11
7.5693406739
 21
3.3929425098
  0
LINE
  5
58A
100
AcDbEntity
  8
ASSI
100
AcDbLine
 62
253
  6
CONTINUOUS
 10
7.5385154442
 20
3.4237677395
 11
7.5693406739
 21
3.3929425098
  0
LINE
  5
58B
100
AcDbEntity
  8
RACCORDO
100
AcDbLine
 62
7
  6
CONTINUOUS
 10
9.8258860193
 20
1.8364428559
 11
9.8771602934
 21
1.7851685818
  0
LINE
  5
58C
100
AcDbEntity
  8
ASSI
100
AcDbLine
 62
7
  6
CONTINUOUS
 10
9.8258860193
 20
1.8364428559
 11
9.8771602934
 21
1.7851685818
  0
LINE
  5
58D
100
AcDbEntity
  8
DRAFT
100
AcDbLine
 62
7
  6
CONTINUOUS
 10
8.5098612837
 20
9.2079515561
 11
8.5098612837
 21
8.0672987768
  0
LINE
  5
58E
100
AcDbEntity
  8
ASSI
100
AcDbLine
 62
7
  6
CONTINUOUS
 10
8.5098612837
 20
9.2079515561
 11
8.5098612837
 21
8.0672987768
  0
LINE
  5
58F
100
AcDbEntity
  8
RACCORDO
100
AcDbLine
 62
253
  6
CONTINUOUS
 10
5.7025861142
 20
-6.2799212883
 11
5.732532104
 21
-6.2499752985
  0
LINE
  5
590
100
AcDbEntity
  8
ASSI
100
AcDbLine
 62
253
  6
CONTINUOUS
 10
5.7025861142
 20
-6.2799212883
 11
5.732532104
 21
-6.2499752985
  0
LINE
  5
591
100
AcDbEntity
  8
RACCORDO
100
AcDbLine
 62
253
  6
CONTINUOUS
 10
6.0025404228
 20
-6.5798755969
 11
6.0322907207
 21
-6.550125299
  0
LINE
  5
592
100
AcDbEntity
  8
ASSI
100
AcDbLine
 62
253
  6
CONTINUOUS
 10
6.0025404228
 20
-6.5798755969
 11
6.0322907207
 21
-6.550125299
  0
LINE
  5
593
100
AcDbEntity
  8
DRAFT
100
AcDbLine
 62
7
  6
CONTINUOUS
 10
11.1973952931
 20
-1.6350664179
 11
11.1799402282
 21
-1.6525214829
  0
LINE
  5
594
100
AcDbEntity
  8
ASSI
100
AcDbLine
 62
7
  6
CONTINUOUS
 10
11.1973952931
 20
-1.6350664179
 11
11.1799402282
 21
-1.6525214829
  0
LINE
  5
595
100
AcDbEntity
  8
DRAFT
100
AcDbLine
 62
7
  6
CONTINUOUS
 10
11.4973952931
 20
-1.6350664179
 11
11.4179075351
 21
-1.714554176
  0
LINE
  5
596
100
AcDbEntity
  8
ASSI
100
AcDbLine
 62
7
  6
CONTINUOUS
 10
11.4973952931
 20
-1.6350664179
 11
11.4179075351
 21
-1.714554176
  0
LINE
  5
597
100
AcDbEntity
  8
DRAFT
100
AcDbLine
 62
7
  6
CONTINUOUS
 10
-8.2526047069
 20
9.1555863613
 11
8.2473952931
 21
9.1555863613
  0
LINE
  5
598
100
AcDbEntity
  8
ASSI
100
AcDbLine
 62
7
  6
CONTINUOUS
 10
-8.2526047069
 20
9.1555863613
 11
8.2473952931
 21
9.1555863613
  0
LINE
  5
599
100
AcDbEntity
  8
RACCORDO
100
AcDbLine
 62
7
  6
CONTINUOUS
 10
-12.0456607571
 20
9.2079515561
 11
-8.5150706974
 21
9.2079515561
  0
LINE
  5
59A
100
AcDbEntity
  8
ASSI
100
AcDbLine
 62
7
  6
CONTINUOUS
 10
-12.0456607571
 20
9.2079515561
 11
-8.5150706974
 21
9.2079515561
  0
LINE
  5
59B
100
AcDbEntity
  8
RACCORDO
100
AcDbLine
 62
7
  6
CONTINUOUS
 10
8.5098612837
 20
9.2079515561
 11
12.0404513434
 21
9.2079515561
  0
LINE
  5
59C
100
AcDbEntity
  8
ASSI
100
AcDbLine
 62
7
  6
CONTINUOUS
 10
8.5098612837
 20
9.2079515561
 11
12.0404513434
 21
9.2079515561
  0
LINE
  5
59D
100
AcDbEntity
  8
RACCORDO
100
AcDbLine
 62
7
  6
CONTINUOUS
 10
11.1729582022
 20
1.7800234522
 11
11.1216863757
 21
1.8312952788
  0
LINE
  5
59E
100
AcDbEntity
  8
ASSI
100
AcDbLine
 62
7
  6
CONTINUOUS
 10
11.1729582022
 20
1.7800234522
 11
11.1216863757
 21
1.8312952788
  0
LINE
  5
59F
100
AcDbEntity
  8
RACCORDO
100
AcDbLine
 62
253
  6
CONTINUOUS
 10
10.8263166571
 20
-7.6083226489
 11
10.8842948549
 21
-8.1940048334
  0
LINE
  5
5A0
100
AcDbEntity
  8
ASSI
100
AcDbLine
 62
253
  6
CONTINUOUS
 10
10.8263166571
 20
-7.6083226489
 11
10.8842948549
 21
-8.1940048334
  0
LINE
  5
5A1
100
AcDbEntity
  8
RACCORDO
100
AcDbLine
 62
253
  6
CONTINUOUS
 10
11.126270967
 20
-7.3128803366
 11
11.1834312412
 21
-7.8903000489
  0
LINE
  5
5A2
100
AcDbEntity
  8
ASSI
100
AcDbLine
 62
253
  6
CONTINUOUS
 10
11.126270967
 20
-7.3128803366
 11
11.1834312412
 21
-7.8903000489
  0
LINE
  5
5A3
100
AcDbEntity
  8
DRAFT
100
AcDbLine
 62
7
  6
CONTINUOUS
 10
9.4973952931
 20
-4.7649930933
 11
9.4973952931
 21
-1.0051397426
  0
LINE
  5
5A4
100
AcDbEntity
  8
ASSI
100
AcDbLine
 62
7
  6
CONTINUOUS
 10
9.4973952931
 20
-4.7649930933
 11
9.4973952931
 21
-1.0051397426
  0
LINE
  5
5A5
100
AcDbEntity
  8
RACCORDO
100
AcDbLine
 62
253
  6
CONTINUOUS
 10
9.8771602934
 20
1.7851685818
 11
9.8771602934
 21
1.1446985823
  0
LINE
  5
5A6
100
AcDbEntity
  8
ASSI
100
AcDbLine
 62
253
  6
CONTINUOUS
 10
9.8771602934
 20
1.7851685818
 11
9.8771602934
 21
1.1446985823
  0
LINE
  5
5A7
100
AcDbEntity
  8
RACCORDO
100
AcDbLine
 62
253
  6
CONTINUOUS
 10
9.8771602934
 20
-6.1148314182
 11
9.8771602934
 21
-6.7553014177
  0
LINE
  5
5A8
100
AcDbEntity
  8
ASSI
100
AcDbLine
 62
253
  6
CONTINUOUS
 10
9.8771602934
 20
-6.1148314182
 11
9.8771602934
 21
-6.7553014177
  0
LINE
  5
5A9
100
AcDbEntity
  8
DRAFT
100
AcDbLine
 62
7
  6
CONTINUOUS
 10
9.8973952931
 20
-4.8035933487
 11
9.8973952931
 21
-4.7690241678
  0
LINE
  5
5AA
100
AcDbEntity
  8
ASSI
100
AcDbLine
 62
7
  6
CONTINUOUS
 10
9.8973952931
 20
-4.8035933487
 11
9.8973952931
 21
-4.7690241678
  0
LINE
  5
5AB
100
AcDbEntity
  8
DRAFT
100
AcDbLine
 62
7
  6
CONTINUOUS
 10
9.8973952931
 20
-1.001108668
 11
9.8973952931
 21
-0.9645935027
  0
LINE
  5
5AC
100
AcDbEntity
  8
ASSI
100
AcDbLine
 62
7
  6
CONTINUOUS
 10
9.8973952931
 20
-1.001108668
 11
9.8973952931
 21
-0.9645935027
  0
LINE
  5
5AD
100
AcDbEntity
  8
DRAFT
100
AcDbLine
 62
7
  6
CONTINUOUS
 10
10.1473952931
 20
-4.7431742621
 11
10.1473952931
 21
-1.0269585738
  0
LINE
  5
5AE
100
AcDbEntity
  8
ASSI
100
AcDbLine
 62
7
  6
CONTINUOUS
 10
10.1473952931
 20
-4.7431742621
 11
10.1473952931
 21
-1.0269585738
  0
LINE
  5
5AF
100
AcDbEntity
  8
RACCORDO
100
AcDbLine
 62
253
  6
CONTINUOUS
 10
10.1771146019
 20
1.7800234522
 11
10.1771146019
 21
1.1498437119
  0
LINE
  5
5B0
100
AcDbEntity
  8
ASSI
100
AcDbLine
 62
253
  6
CONTINUOUS
 10
10.1771146019
 20
1.7800234522
 11
10.1771146019
 21
1.1498437119
  0
LINE
  5
5B1
100
AcDbEntity
  8
RACCORDO
100
AcDbLine
 62
253
  6
CONTINUOUS
 10
10.1771146019
 20
-6.1199765478
 11
10.1771146019
 21
-6.7501562881
  0
LINE
  5
5B2
100
AcDbEntity
  8
ASSI
100
AcDbLine
 62
253
  6
CONTINUOUS
 10
10.1771146019
 20
-6.1199765478
 11
10.1771146019
 21
-6.7501562881
  0
LINE
  5
5B3
100
AcDbEntity
  8
DRAFT
100
AcDbLine
 62
7
  6
CONTINUOUS
 10
10.4148503581
 20
-4.117611353
 11
10.4756956431
 21
-4.056766068
  0
LINE
  5
5B4
100
AcDbEntity
  8
ASSI
100
AcDbLine
 62
7
  6
CONTINUOUS
 10
10.4148503581
 20
-4.117611353
 11
10.4756956431
 21
-4.056766068
  0
LINE
  5
5B5
100
AcDbEntity
  8
RACCORDO
100
AcDbLine
 62
253
  6
CONTINUOUS
 10
10.8259620081
 20
-6.8023394666
 11
10.8263166583
 21
-7.3247328128
  0
LINE
  5
5B6
100
AcDbEntity
  8
ASSI
100
AcDbLine
 62
253
  6
CONTINUOUS
 10
10.8259620081
 20
-6.8023394666
 11
10.8263166583
 21
-7.3247328128
  0
LINE
  5
5B7
100
AcDbEntity
  8
RACCORDO
100
AcDbLine
 62
253
  6
CONTINUOUS
 10
10.8247090133
 20
-4.8035933489
 11
10.82548207
 21
-6.0673130921
  0
LINE
  5
5B8
100
AcDbEntity
  8
ASSI
100
AcDbLine
 62
253
  6
CONTINUOUS
 10
10.8247090133
 20
-4.8035933489
 11
10.82548207
 21
-6.0673130921
  0
LINE
  5
5B9
100
AcDbEntity
  8
RACCORDO
100
AcDbLine
 62
253
  6
CONTINUOUS
 10
10.8219719183
 20
1.0936676169
 11
10.8227644067
 21
-0.9645935026
  0
LINE
  5
5BA
100
AcDbEntity
  8
ASSI
100
AcDbLine
 62
253
  6
CONTINUOUS
 10
10.8219719183
 20
1.0936676169
 11
10.8227644067
 21
-0.9645935026
  0
LINE
  5
5BB
100
AcDbEntity
  8
RACCORDO
100
AcDbLine
 62
253
  6
CONTINUOUS
 10
10.820588148
 20
7.9922828661
 11
10.8217287819
 21
1.836442856
  0
LINE
  5
5BC
100
AcDbEntity
  8
ASSI
100
AcDbLine
 62
253
  6
CONTINUOUS
 10
10.820588148
 20
7.9922828661
 11
10.8217287819
 21
1.836442856
  0
LINE
  5
5BD
100
AcDbEntity
  8
DRAFT
100
AcDbLine
 62
7
  6
CONTINUOUS
 10
10.4148503581
 20
-1.6525214829
 11
10.4148503581
 21
-4.117611353
  0
LINE
  5
5BE
100
AcDbEntity
  8
ASSI
100
AcDbLine
 62
7
  6
CONTINUOUS
 10
10.4148503581
 20
-1.6525214829
 11
10.4148503581
 21
-4.117611353
  0
LINE
  5
5BF
100
AcDbEntity
  8
DRAFT
100
AcDbLine
 62
7
  6
CONTINUOUS
 10
11.1729582022
 20
1.7800234522
 11
11.1729582022
 21
1.1498437119
  0
LINE
  5
5C0
100
AcDbEntity
  8
ASSI
100
AcDbLine
 62
7
  6
CONTINUOUS
 10
11.1729582022
 20
1.7800234522
 11
11.1729582022
 21
1.1498437119
  0
LINE
  5
5C1
100
AcDbEntity
  8
DRAFT
100
AcDbLine
 62
7
  6
CONTINUOUS
 10
11.1729582022
 20
-6.1199765478
 11
11.1729582022
 21
-6.7501562881
  0
LINE
  5
5C2
100
AcDbEntity
  8
ASSI
100
AcDbLine
 62
7
  6
CONTINUOUS
 10
11.1729582022
 20
-6.1199765478
 11
11.1729582022
 21
-6.7501562881
  0
LINE
  5
5C3
100
AcDbEntity
  8
DRAFT
100
AcDbLine
 62
7
  6
CONTINUOUS
 10
11.1799402282
 20
-1.0269585738
 11
11.1799402282
 21
-1.6525214829
  0
LINE
  5
5C4
100
AcDbEntity
  8
ASSI
100
AcDbLine
 62
7
  6
CONTINUOUS
 10
11.1799402282
 20
-1.0269585738
 11
11.1799402282
 21
-1.6525214829
  0
LINE
  5
5C5
100
AcDbEntity
  8
DRAFT
100
AcDbLine
 62
7
  6
CONTINUOUS
 10
11.1799402282
 20
-4.117611353
 11
11.1799402282
 21
-4.7431742621
  0
LINE
  5
5C6
100
AcDbEntity
  8
ASSI
100
AcDbLine
 62
7
  6
CONTINUOUS
 10
11.1799402282
 20
-4.117611353
 11
11.1799402282
 21
-4.7431742621
  0
LINE
  5
5C7
100
AcDbEntity
  8
RACCORDO
100
AcDbLine
 62
7
  6
CONTINUOUS
 10
11.1834312412
 20
-7.8903000489
 11
11.1834312412
 21
-9.2780881226
  0
LINE
  5
5C8
100
AcDbEntity
  8
ASSI
100
AcDbLine
 62
7
  6
CONTINUOUS
 10
11.1834312412
 20
-7.8903000489
 11
11.1834312412
 21
-9.2780881226
  0
LINE
  5
5C9
100
AcDbEntity
  8
RACCORDO
100
AcDbLine
 62
7
  6
CONTINUOUS
 10
11.1904132672
 20
8.2573775662
 11
11.1904132672
 21
8.0672987768
  0
LINE
  5
5CA
100
AcDbEntity
  8
ASSI
100
AcDbLine
 62
7
  6
CONTINUOUS
 10
11.1904132672
 20
8.2573775662
 11
11.1904132672
 21
8.0672987768
  0
LINE
  5
5CB
100
AcDbEntity
  8
DRAFT
100
AcDbLine
 62
7
  6
CONTINUOUS
 10
11.1973952931
 20
7.9555863613
 11
11.1973952931
 21
-1.6350664179
  0
LINE
  5
5CC
100
AcDbEntity
  8
ASSI
100
AcDbLine
 62
7
  6
CONTINUOUS
 10
11.1973952931
 20
7.9555863613
 11
11.1973952931
 21
-1.6350664179
  0
LINE
  5
5CD
100
AcDbEntity
  8
DRAFT
100
AcDbLine
 62
7
  6
CONTINUOUS
 10
11.1834440377
 20
-9.2780913215
 11
11.1928877073
 21
-4.1305588321
  0
LINE
  5
5CE
100
AcDbEntity
  8
ASSI
100
AcDbLine
 62
7
  6
CONTINUOUS
 10
11.1834440377
 20
-9.2780913215
 11
11.1928877073
 21
-4.1305588321
  0
LINE
  5
5CF
100
AcDbEntity
  8
RACCORDO
100
AcDbLine
 62
7
  6
CONTINUOUS
 10
11.1246662073
 20
-4.798448283
 11
11.1799402282
 21
-4.7431742621
  0
LINE
  5
5D0
100
AcDbEntity
  8
ASSI
100
AcDbLine
 62
7
  6
CONTINUOUS
 10
11.1246662073
 20
-4.798448283
 11
11.1799402282
 21
-4.7431742621
  0
LINE
  5
5D1
100
AcDbEntity
  8
RACCORDO
100
AcDbLine
 62
7
  6
CONTINUOUS
 10
7.5525404228
 20
8.0097884524
 11
7.5700460091
 21
7.9922828661
  0
LINE
  5
5D2
100
AcDbEntity
  8
ASSI
100
AcDbLine
 62
7
  6
CONTINUOUS
 10
7.5525404228
 20
8.0097884524
 11
7.5700460091
 21
7.9922828661
  0
LINE
  5
5D3
100
AcDbEntity
  8
RACCORDO
100
AcDbLine
 62
7
  6
CONTINUOUS
 10
12.2904132672
 20
8.9579896323
 11
12.2904132672
 21
8.2573775662
  0
LINE
  5
5D4
100
AcDbEntity
  8
ASSI
100
AcDbLine
 62
7
  6
CONTINUOUS
 10
12.2904132672
 20
8.9579896323
 11
12.2904132672
 21
8.2573775662
  0
LINE
  5
5D5
100
AcDbEntity
  8
DRAFT
100
AcDbLine
 62
7
  6
CONTINUOUS
 10
12.2973952931
 20
7.9555863613
 11
12.2973952931
 21
-1.6735748546
  0
LINE
  5
5D6
100
AcDbEntity
  8
ASSI
100
AcDbLine
 62
7
  6
CONTINUOUS
 10
12.2973952931
 20
7.9555863613
 11
12.2973952931
 21
-1.6735748546
  0
LINE
  5
5D7
100
AcDbEntity
  8
DRAFT
100
AcDbLine
 62
7
  6
CONTINUOUS
 10
11.4973952931
 20
-1.6350664179
 11
11.4928877073
 21
-4.1305588321
  0
LINE
  5
5D8
100
AcDbEntity
  8
ASSI
100
AcDbLine
 62
7
  6
CONTINUOUS
 10
11.4973952931
 20
-1.6350664179
 11
11.4928877073
 21
-4.1305588321
  0
LINE
  5
5D9
100
AcDbEntity
  8
RACCORDO
100
AcDbLine
 62
7
  6
CONTINUOUS
 10
12.2839022154
 20
-9.0283489495
 11
12.2973952931
 21
-1.6735748546
  0
LINE
  5
5DA
100
AcDbEntity
  8
ASSI
100
AcDbLine
 62
7
  6
CONTINUOUS
 10
12.2839022154
 20
-9.0283489495
 11
12.2973952931
 21
-1.6735748546
  0
LINE
  5
5DB
100
AcDbEntity
  8
RACCORDO
100
AcDbLine
 62
7
  6
CONTINUOUS
 10
9.830122245
 20
-6.8023394661
 11
9.8771602934
 21
-6.7553014177
  0
LINE
  5
5DC
100
AcDbEntity
  8
ASSI
100
AcDbLine
 62
7
  6
CONTINUOUS
 10
9.830122245
 20
-6.8023394661
 11
9.8771602934
 21
-6.7553014177
  0
LINE
  5
5DD
100
AcDbEntity
  8
RACCORDO
100
AcDbLine
 62
7
  6
CONTINUOUS
 10
11.1259205544
 20
-6.7971939359
 11
11.1729582022
 21
-6.7501562881
  0
LINE
  5
5DE
100
AcDbEntity
  8
ASSI
100
AcDbLine
 62
7
  6
CONTINUOUS
 10
11.1259205544
 20
-6.7971939359
 11
11.1729582022
 21
-6.7501562881
  0
LINE
  5
5DF
100
AcDbEntity
  8
RACCORDO
100
AcDbLine
 62
7
  6
CONTINUOUS
 10
11.1973952931
 20
7.9555863613
 11
11.1955583968
 21
7.9574232577
  0
LINE
  5
5E0
100
AcDbEntity
  8
ASSI
100
AcDbLine
 62
7
  6
CONTINUOUS
 10
11.1973952931
 20
7.9555863613
 11
11.1955583968
 21
7.9574232577
  0
ARC
  5
5E1
100
AcDbEntity
  8
RACCORDO
100
AcDbCircle
 62
253
  6
CONTINUOUS
 10
-5.4975229221
 20
-6.579984633
 40
0.3000638606
100
AcDbArc
 50
0.0208199654
 51
89.9791799927
  0
ARC
  5
5E2
100
AcDbEntity
  8
RACCORDO
100
AcDbCircle
 62
253
  6
CONTINUOUS
 10
-5.7076864916
 20
-6.579984633
 40
0.3000638606
100
AcDbArc
 50
90.0208200089
 51
179.979180033
  0
ARC
  5
5E3
100
AcDbEntity
  8
ASSI
100
AcDbCircle
 62
253
  6
CONTINUOUS
 10
-5.4975229221
 20
-6.579984633
 40
0.3000638606
100
AcDbArc
 50
0.0208199654
 51
89.9791799927
  0
ARC
  5
5E4
100
AcDbEntity
  8
ASSI
100
AcDbCircle
 62
253
  6
CONTINUOUS
 10
-5.7076864916
 20
-6.579984633
 40
0.3000638606
100
AcDbArc
 50
90.0208200089
 51
179.979180033
  0
ARC
  5
5E5
100
AcDbEntity
  8
RACCORDO
100
AcDbCircle
 62
7
  6
CONTINUOUS
 10
-5.4675184668
 20
-6.5497679463
 40
0.299799876
100
AcDbArc
 50
359.9317072534
 51
89.9903350117
  0
ARC
  5
5E6
100
AcDbEntity
  8
RACCORDO
100
AcDbCircle
 62
7
  6
CONTINUOUS
 10
-5.7376909472
 20
-6.5497679454
 40
0.2997998758
100
AcDbArc
 50
90.0096649437
 51
180.0682929024
  0
ARC
  5
5E7
100
AcDbEntity
  8
ASSI
100
AcDbCircle
 62
7
  6
CONTINUOUS
 10
-5.4675184668
 20
-6.5497679463
 40
0.299799876
100
AcDbArc
 50
359.9317072534
 51
89.9903350117
  0
ARC
  5
5E8
100
AcDbEntity
  8
ASSI
100
AcDbCircle
 62
7
  6
CONTINUOUS
 10
-5.7376909472
 20
-6.5497679454
 40
0.2997998758
100
AcDbArc
 50
90.0096649437
 51
180.0682929024
  0
ARC
  5
5E9
100
AcDbEntity
  8
0
100
AcDbCircle
 62
7
  6
CONTINUOUS
 10
-0.9591468451
 20
-0.8438666978
 40
0.2228893261
100
AcDbArc
 50
140.7847405624
 51
146.0215768876
  0
ARC
  5
5EA
100
AcDbEntity
  8
ASSI
100
AcDbCircle
 62
7
  6
CONTINUOUS
 10
-0.9591468451
 20
-0.8438666978
 40
0.2228893261
100
AcDbArc
 50
140.7847405624
 51
146.0215768876
  0
ARC
  5
5EB
100
AcDbEntity
  8
ASSI
100
AcDbCircle
 62
7
  6
CONTINUOUS
 10
-0.9740482647
 20
-0.8338098725
 40
0.2049117874
100
AcDbArc
 50
146.0247890675
 51
151.8600118649
  0
ARC
  5
5EC
100
AcDbEntity
  8
ASSI
100
AcDbCircle
 62
7
  6
CONTINUOUS
 10
-0.9845312122
 20
-0.8281703074
 40
0.1930081747
100
AcDbArc
 50
151.8685943696
 51
158.2386669593
  0
ARC
  5
5ED
100
AcDbEntity
  8
RACCORDO
100
AcDbCircle
 62
253
  6
CONTINUOUS
 10
-46.9127108922
 20
5.0307486756
 40
53.9723683883
100
AcDbArc
 50
359.9756666866
 51
0.3509927801
  0
ARC
  5
5EE
100
AcDbEntity
  8
RACCORDO
100
AcDbCircle
 62
253
  6
CONTINUOUS
 10
-61.2127108919
 20
5.0307486733
 40
53.9723683881
100
AcDbArc
 50
359.9756666891
 51
0.3509927826
  0
ARC
  5
5EF
100
AcDbEntity
  8
ASSI
100
AcDbCircle
 62
253
  6
CONTINUOUS
 10
-46.9127108922
 20
5.0307486756
 40
53.9723683883
100
AcDbArc
 50
359.9756666866
 51
0.3509927801
  0
ARC
  5
5F0
100
AcDbEntity
  8
ASSI
100
AcDbCircle
 62
253
  6
CONTINUOUS
 10
-61.2127108919
 20
5.0307486733
 40
53.9723683881
100
AcDbArc
 50
359.9756666891
 51
0.3509927826
  0
ARC
  5
5F1
100
AcDbEntity
  8
RACCORDO
100
AcDbCircle
 62
253
  6
CONTINUOUS
 10
-7.0615478809
 20
3.4238767561
 40
0.3000638408
100
AcDbArc
 50
270.0208162411
 51
359.9791837589
  0
ARC
  5
5F2
100
AcDbEntity
  8
ASSI
100
AcDbCircle
 62
253
  6
CONTINUOUS
 10
-7.0615478809
 20
3.4238767561
 40
0.3000638408
100
AcDbArc
 50
270.0208162411
 51
359.9791837589
  0
ARC
  5
5F3
100
AcDbEntity
  8
RACCORDO
100
AcDbCircle
 62
253
  6
CONTINUOUS
 10
-7.2436615665
 20
3.4238767223
 40
0.3000638385
100
AcDbArc
 50
180.0208097933
 51
269.9791901905
  0
ARC
  5
5F4
100
AcDbEntity
  8
ASSI
100
AcDbCircle
 62
253
  6
CONTINUOUS
 10
-7.2436615665
 20
3.4238767223
 40
0.3000638385
100
AcDbArc
 50
180.0208097933
 51
269.9791901905
  0
ARC
  5
5F5
100
AcDbEntity
  8
RACCORDO
100
AcDbCircle
 62
7
  6
CONTINUOUS
 10
-7.030644225
 20
3.3930561806
 40
0.2999882561
100
AcDbArc
 50
269.9912782404
 51
359.9782893801
  0
ARC
  5
5F6
100
AcDbEntity
  8
RACCORDO
100
AcDbCircle
 62
7
  6
CONTINUOUS
 10
-7.2745651848
 20
3.3930561767
 40
0.299988256
100
AcDbArc
 50
180.0217098732
 51
270.0087210181
  0
ARC
  5
5F7
100
AcDbEntity
  8
ASSI
100
AcDbCircle
 62
7
  6
CONTINUOUS
 10
-7.030644225
 20
3.3930561806
 40
0.2999882561
100
AcDbArc
 50
269.9912782404
 51
359.9782893801
  0
ARC
  5
5F8
100
AcDbEntity
  8
ASSI
100
AcDbCircle
 62
7
  6
CONTINUOUS
 10
-7.2745651848
 20
3.3930561767
 40
0.299988256
100
AcDbArc
 50
180.0217098732
 51
270.0087210181
  0
ARC
  5
5F9
100
AcDbEntity
  8
RACCORDO
100
AcDbCircle
 62
253
  6
CONTINUOUS
 10
5.7024770779
 20
-6.579984633
 40
0.3000638606
100
AcDbArc
 50
0.0208199654
 51
89.9791799927
  0
ARC
  5
5FA
100
AcDbEntity
  8
RACCORDO
100
AcDbCircle
 62
253
  6
CONTINUOUS
 10
5.4923135084
 20
-6.579984633
 40
0.3000638606
100
AcDbArc
 50
90.0208200089
 51
179.979180033
  0
ARC
  5
5FB
100
AcDbEntity
  8
ASSI
100
AcDbCircle
 62
253
  6
CONTINUOUS
 10
5.4923135084
 20
-6.579984633
 40
0.3000638606
100
AcDbArc
 50
90.0208200089
 51
179.979180033
  0
ARC
  5
5FC
100
AcDbEntity
  8
ASSI
100
AcDbCircle
 62
253
  6
CONTINUOUS
 10
5.7024770779
 20
-6.579984633
 40
0.3000638606
100
AcDbArc
 50
0.0208199654
 51
89.9791799927
  0
ARC
  5
5FD
100
AcDbEntity
  8
RACCORDO
100
AcDbCircle
 62
7
  6
CONTINUOUS
 10
5.7324815332
 20
-6.5497679463
 40
0.2997998761
100
AcDbArc
 50
359.931707257
 51
89.9903350081
  0
ARC
  5
5FE
100
AcDbEntity
  8
RACCORDO
100
AcDbCircle
 62
7
  6
CONTINUOUS
 10
5.4623090528
 20
-6.5497679455
 40
0.2997998759
100
AcDbArc
 50
90.0096649515
 51
180.0682928946
  0
ARC
  5
5FF
100
AcDbEntity
  8
ASSI
100
AcDbCircle
 62
7
  6
CONTINUOUS
 10
5.4623090528
 20
-6.5497679455
 40
0.2997998759
100
AcDbArc
 50
90.0096649515
 51
180.0682928946
  0
ARC
  5
600
100
AcDbEntity
  8
ASSI
100
AcDbCircle
 62
7
  6
CONTINUOUS
 10
5.7324815332
 20
-6.5497679463
 40
0.2997998761
100
AcDbArc
 50
359.931707257
 51
89.9903350081
  0
ARC
  5
601
100
AcDbEntity
  8
RACCORDO
100
AcDbCircle
 62
253
  6
CONTINUOUS
 10
61.2075001405
 20
5.0307486872
 40
53.9723670504
100
AcDbArc
 50
179.6490072234
 51
180.0243333263
  0
ARC
  5
602
100
AcDbEntity
  8
RACCORDO
100
AcDbCircle
 62
253
  6
CONTINUOUS
 10
46.9075001404
 20
5.0307486877
 40
53.9723670503
100
AcDbArc
 50
179.649007224
 51
180.0243333268
  0
ARC
  5
603
100
AcDbEntity
  8
ASSI
100
AcDbCircle
 62
253
  6
CONTINUOUS
 10
61.2075001405
 20
5.0307486872
 40
53.9723670504
100
AcDbArc
 50
179.6490072234
 51
180.0243333263
  0
ARC
  5
604
100
AcDbEntity
  8
ASSI
100
AcDbCircle
 62
253
  6
CONTINUOUS
 10
46.9075001404
 20
5.0307486877
 40
53.9723670503
100
AcDbArc
 50
179.649007224
 51
180.0243333268
  0
CIRCLE
  5
605
100
AcDbEntity
  8
0
100
AcDbCircle
 62
7
  6
CONTINUOUS
 10
-0.0026047069
 20
4.8149335821
 40
1.1
  0
CIRCLE
  5
606
100
AcDbEntity
  8
0
100
AcDbCircle
 62
7
  6
CONTINUOUS
 10
-0.0026047069
 20
4.8149335821
 40
0.9
  0
ARC
  5
607
100
AcDbEntity
  8
RACCORDO
100
AcDbCircle
 62
253
  6
CONTINUOUS
 10
7.2384521191
 20
3.4238767561
 40
0.3000638408
100
AcDbArc
 50
270.0208162411
 51
359.9791837589
  0
ARC
  5
608
100
AcDbEntity
  8
ASSI
100
AcDbCircle
 62
253
  6
CONTINUOUS
 10
7.2384521191
 20
3.4238767561
 40
0.3000638408
100
AcDbArc
 50
270.0208162411
 51
359.9791837589
  0
ARC
  5
609
100
AcDbEntity
  8
RACCORDO
100
AcDbCircle
 62
253
  6
CONTINUOUS
 10
7.0563384335
 20
3.4238767223
 40
0.3000638385
100
AcDbArc
 50
180.0208097933
 51
269.9791901905
  0
ARC
  5
60A
100
AcDbEntity
  8
ASSI
100
AcDbCircle
 62
253
  6
CONTINUOUS
 10
7.0563384335
 20
3.4238767223
 40
0.3000638385
100
AcDbArc
 50
180.0208097933
 51
269.9791901905
  0
ARC
  5
60B
100
AcDbEntity
  8
RACCORDO
100
AcDbCircle
 62
7
  6
CONTINUOUS
 10
7.0254348152
 20
3.3930561767
 40
0.299988256
100
AcDbArc
 50
180.0217098731
 51
270.0087210183
  0
ARC
  5
60C
100
AcDbEntity
  8
RACCORDO
100
AcDbCircle
 62
7
  6
CONTINUOUS
 10
7.2693557751
 20
3.3930561806
 40
0.299988256
100
AcDbArc
 50
269.9912782302
 51
359.9782893903
  0
ARC
  5
60D
100
AcDbEntity
  8
ASSI
100
AcDbCircle
 62
7
  6
CONTINUOUS
 10
7.0254348152
 20
3.3930561767
 40
0.299988256
100
AcDbArc
 50
180.0217098731
 51
270.0087210183
  0
ARC
  5
60E
100
AcDbEntity
  8
ASSI
100
AcDbCircle
 62
7
  6
CONTINUOUS
 10
7.2693557751
 20
3.3930561806
 40
0.299988256
100
AcDbArc
 50
269.9912782302
 51
359.9782893903
  0
SPLINE
  5
60F
100
AcDbEntity
  8
0
100
AcDbSpline
 62
7
  6
CONTINUOUS
 70
0
 71
3
 72
9
 73
5
 74
3
 42
0.0000001
 43
0.0000001
 44
0.0000000001
 12
-0.0094537596
 22
0.4232572779
 32
0.0
 13
-0.4233861002
 23
-0.0063259668
 33
0.0
 40
0.0
 40
0.0
 40
0.0
 40
0.0
 40
0.479537544
 40
1.0
 40
1.0
 40
1.0
 40
1.0
 10
-1.3139328754
 20
-1.1244442735
 30
0.0
 10
-1.3154440196
 20
-1.056788355
 30
0.0
 10
-1.3440657911
 20
-0.8996462786
 30
0.0
 10
-1.5044987377
 20
-0.8477143389
 30
0.0
 10
-1.5779509276
 20
-0.848811815
 30
0.0
 11
-1.3139328754
 21
-1.1244442735
 31
0.0
 11
-1.373205252
 21
-0.9302710334
 31
0.0
 11
-1.5779509276
 21
-0.848811815
 31
0.0
  0
SPLINE
  5
610
100
AcDbEntity
  8
0
100
AcDbSpline
 62
7
  6
CONTINUOUS
 70
0
 71
3
 72
9
 73
5
 74
3
 42
0.0000001
 43
0.0000001
 44
0.0000000001
 12
-0.3133621804
 22
-0.004682097
 32
0.0
 13
-0.0361338581
 23
-0.3113313547
 33
0.0
 40
0.0
 40
0.0
 40
0.0
 40
0.0
 40
0.4988583522
 40
1.0
 40
1.0
 40
1.0
 40
1.0
 10
-1.5779509278
 20
-0.8488118003
 30
0.0
 10
-1.6300587081
 20
-0.849590368
 30
0.0
 10
-1.7387326653
 20
-0.8920149151
 30
0.0
 10
-1.7845498091
 20
-0.9972511604
 30
0.0
 10
-1.7905858695
 20
-1.0492581964
 30
0.0
 11
-1.5779509278
 21
-0.8488118003
 31
0.0
 11
-1.7228420056
 21
-0.9075493449
 31
0.0
 11
-1.7905858695
 21
-1.0492581964
 31
0.0
  0
SPLINE
  5
611
100
AcDbEntity
  8
0
100
AcDbSpline
 62
7
  6
CONTINUOUS
 70
0
 71
3
 72
9
 73
5
 74
3
 42
0.0000001
 43
0.0000001
 44
0.0000000001
 12
-0.0321345863
 22
-0.2768734098
 32
0.0
 13
0.0468836161
 23
-0.2747605688
 33
0.0
 40
0.0
 40
0.0
 40
0.0
 40
0.0
 40
0.7295958321
 40
1.0
 40
1.0
 40
1.0
 40
1.0
 10
-1.7905858694
 20
-1.0492581965
 30
0.0
 10
-1.7984009561
 20
-1.1165934251
 30
0.0
 10
-1.798702204
 20
-1.2105861137
 30
0.0
 10
-1.7848041996
 20
-1.3024595187
 30
0.0
 10
-1.7805783578
 20
-1.3272249863
 30
0.0
 11
-1.7905858694
 21
-1.0492581965
 31
0.0
 11
-1.7912821294
 21
-1.2526186568
 31
0.0
 11
-1.7805783578
 21
-1.3272249863
 31
0.0
  0
SPLINE
  5
612
100
AcDbEntity
  8
0
100
AcDbSpline
 62
7
  6
CONTINUOUS
 70
0
 71
3
 72
9
 73
5
 74
3
 42
0.0000001
 43
0.0000001
 44
0.0000000001
 12
-0.128341011
 22
0.8723735981
 32
0.0
 13
0.2997650463
 23
0.8292493193
 33
0.0
 40
0.0
 40
0.0
 40
0.0
 40
0.0
 40
0.7041528059
 40
1.0
 40
1.0
 40
1.0
 40
1.0
 10
-2.050306789
 20
-1.668859754
 30
0.0
 10
-2.0804306834
 20
-1.4640983151
 30
0.0
 10
-2.1100828848
 20
-1.1687039892
 30
0.0
 10
-2.0619265676
 20
-0.8748512897
 30
0.0
 10
-2.0323650183
 20
-0.7930742615
 30
0.0
 11
-2.050306789
 21
-1.668859754
 31
0.0
 11
-2.0836101559
 21
-1.0488572147
 31
0.0
 11
-2.0323650183
 21
-0.7930742615
 31
0.0
  0
SPLINE
  5
613
100
AcDbEntity
  8
0
100
AcDbSpline
 62
7
  6
CONTINUOUS
 70
0
 71
3
 72
20
 73
16
 74
14
 42
0.0000001
 43
0.0000001
 44
0.0000000001
 12
0.3602221359
 22
0.9969834579
 32
0.0
 13
0.1356584285
 23
-1.0513528212
 33
0.0
 40
0.0
 40
0.0
 40
0.0
 40
0.0
 40
0.079756987
 40
0.1893481532
 40
0.2529748389
 40
0.3223669702
 40
0.3985017405
 40
0.4831988921
 40
0.5372476303
 40
0.5875584989
 40
0.6787382851
 40
0.7596505358
 40
0.8314106377
 40
0.9440765302
 40
1.0
 40
1.0
 40
1.0
 40
1.0
 10
-2.0323650563
 20
-0.7930742462
 30
0.0
 10
-2.0227883122
 20
-0.7665687807
 30
0.0
 10
-1.9901286905
 20
-0.7073282281
 30
0.0
 10
-1.9304330565
 20
-0.6395625885
 30
0.0
 10
-1.8616714639
 20
-0.5878557705
 30
0.0
 10
-1.7960736272
 20
-0.5530905068
 30
0.0
 10
-1.7184191077
 20
-0.5275162477
 30
0.0
 10
-1.6428896873
 20
-0.5166217463
 30
0.0
 10
-1.576003349
 20
-0.5154328742
 30
0.0
 10
-1.5070388021
 20
-0.5208203341
 30
0.0
 10
-1.4297840957
 20
-0.5382435065
 30
0.0
 10
-1.3506930639
 20
-0.573144347
 30
0.0
 10
-1.2714387744
 20
-0.6251999587
 30
0.0
 10
-1.2156269051
 20
-0.6872123552
 30
0.0
 10
-1.1763584357
 20
-0.7370158026
 30
0.0
 10
-1.1738296056
 20
-0.7566142352
 30
0.0
 11
-2.0323650563
 21
-0.7930742462
 31
0.0
 11
-1.9931416658
 21
-0.7181737909
 31
0.0
 11
-1.9162966285
 21
-0.6310458352
 31
0.0
 11
-1.8623860963
 21
-0.5905121793
 31
0.0
 11
-1.7974053138
 21
-0.5560355822
 31
0.0
 11
-1.7207955997
 21
-0.530643677
 31
0.0
 11
-1.6319982731
 21
-0.5173640969
 31
0.0
 11
-1.5747117475
 21
-0.5163566349
 31
0.0
 11
-1.5215480716
 21
-0.5206029035
 31
0.0
 11
-1.4273297958
 21
-0.5421775033
 31
0.0
 11
-1.3488244998
 21
-0.5767296369
 31
0.0
 11
-1.2855132375
 21
-0.6189010449
 31
0.0
 11
-1.2023970301
 21
-0.7046686471
 31
0.0
 11
-1.1738296056
 21
-0.7566142352
 31
0.0
  0
SPLINE
  5
614
100
AcDbEntity
  8
0
100
AcDbSpline
 62
7
  6
CONTINUOUS
 70
0
 71
3
 72
8
 73
4
 74
2
 42
0.0000001
 43
0.0000001
 44
0.0000000001
 12
0.0158042388
 22
0.0396344546
 32
0.0
 13
0.0235835294
 23
0.0350454229
 33
0.0
 40
0.0
 40
0.0
 40
0.0
 40
0.0
 40
1.0
 40
1.0
 40
1.0
 40
1.0
 10
-1.1637848985
 20
-0.7566142352
 30
0.0
 10
-1.1585168189
 20
-0.7434027503
 30
0.0
 10
-1.1518385715
 20
-0.7309799721
 30
0.0
 10
-1.143977395
 20
-0.7192981644
 30
0.0
 11
-1.1637848985
 21
-0.7566142352
 31
0.0
 11
-1.143977395
 21
-0.7192981644
 31
0.0
  0
SPLINE
  5
615
100
AcDbEntity
  8
0
100
AcDbSpline
 62
7
  6
CONTINUOUS
 70
0
 71
3
 72
9
 73
5
 74
3
 42
0.0000001
 43
0.0000001
 44
0.0000000001
 12
0.2092440046
 22
0.2567965258
 32
0.0
 13
0.3209543859
 23
0.0874412864
 33
0.0
 40
0.0
 40
0.0
 40
0.0
 40
0.0
 40
0.7111552999
 40
1.0
 40
1.0
 40
1.0
 40
1.0
 10
-1.1318361756
 20
-0.7029481155
 30
0.0
 10
-1.0822345146
 20
-0.6420740454
 30
0.0
 10
-0.9660833588
 20
-0.5875085378
 30
0.0
 10
-0.8612503303
 20
-0.5604962351
 30
0.0
 10
-0.8303483391
 20
-0.5520772511
 30
0.0
 11
-1.1318361756
 21
-0.7029481155
 31
0.0
 11
-0.9227555453
 21
-0.5783997547
 31
0.0
 11
-0.8303483391
 21
-0.5520772511
 31
0.0
  0
SPLINE
  5
616
100
AcDbEntity
  8
0
100
AcDbSpline
 62
7
  6
CONTINUOUS
 70
0
 71
3
 72
9
 73
5
 74
3
 42
0.0000001
 43
0.0000001
 44
0.0000000001
 12
0.4590342986
 22
0.125059974
 32
0.0
 13
0.4591324757
 23
0.1246990799
 33
0.0
 40
0.0
 40
0.0
 40
0.0
 40
0.0
 40
0.8019701206
 40
1.0
 40
1.0
 40
1.0
 40
1.0
 10
-0.8303483392
 20
-0.5520772508
 30
0.0
 10
-0.7076377419
 20
-0.5186457967
 30
0.0
 10
-0.5539994979
 20
-0.479302968
 30
0.0
 10
-0.4006113364
 20
-0.4390172407
 30
0.0
 10
-0.3703040202
 20
-0.4307858595
 30
0.0
 11
-0.8303483392
 21
-0.5520772508
 31
0.0
 11
-0.4613720218
 21
-0.4549358196
 31
0.0
 11
-0.3703040202
 21
-0.4307858595
 31
0.0
  0
SPLINE
  5
617
100
AcDbEntity
  8
0
100
AcDbSpline
 62
7
  6
CONTINUOUS
 70
0
 71
3
 72
9
 73
5
 74
3
 42
0.0000001
 43
0.0000001
 44
0.0000000001
 12
-0.5174692086
 22
-0.1487744753
 32
0.0
 13
-0.5040219036
 23
-0.1893972716
 33
0.0
 40
0.0
 40
0.0
 40
0.0
 40
0.0
 40
0.4412847493
 40
1.0
 40
1.0
 40
1.0
 40
1.0
 10
-0.3703040202
 20
-0.7720892028
 30
0.0
 10
-0.4464211102
 20
-0.7939731719
 30
0.0
 10
-0.6182037466
 20
-0.845645092
 30
0.0
 10
-0.7919970224
 20
-0.8920139985
 30
0.0
 10
-0.8858652638
 20
-0.9272870465
 30
0.0
 11
-0.3703040202
 21
-0.7720892028
 31
0.0
 11
-0.5984227618
 21
-0.8385445648
 31
0.0
 11
-0.8858652638
 21
-0.9272870465
 31
0.0
  0
SPLINE
  5
618
100
AcDbEntity
  8
0
100
AcDbSpline
 62
7
  6
CONTINUOUS
 70
0
 71
3
 72
9
 73
5
 74
3
 42
0.0000001
 43
0.0000001
 44
0.0000000001
 12
-0.243894777
 22
-0.0916489686
 32
0.0
 13
-0.0
 23
-0.2605161169
 33
0.0
 40
0.0
 40
0.0
 40
0.0
 40
0.0
 40
0.6439294634
 40
1.0
 40
1.0
 40
1.0
 40
1.0
 10
-0.8858652709
 20
-0.9272870278
 30
0.0
 10
-0.9382156151
 20
-0.9469588515
 30
0.0
 10
-1.0168211779
 20
-1.0053768834
 30
0.0
 10
-1.0355364227
 20
-1.0942883944
 30
0.0
 10
-1.0355364227
 20
-1.1252090989
 30
0.0
 11
-0.8858652709
 21
-0.9272870278
 31
0.0
 11
-1.0146152608
 21
-1.0348370087
 31
0.0
 11
-1.0355364227
 21
-1.1252090989
 31
0.0
  0
SPLINE
  5
619
100
AcDbEntity
  8
RACCORDO
100
AcDbSpline
 62
7
  6
CONTINUOUS
 70
0
 71
3
 72
10
 73
6
 74
4
 42
0.0000001
 43
0.0000001
 44
0.0000000001
 12
-0.1883407282
 22
0.1821744696
 32
0.0
 13
-0.1853866385
 23
0.1851798087
 33
0.0
 40
0.0
 40
0.0
 40
0.0
 40
0.0
 40
0.2861514979
 40
0.6199988295
 40
1.0
 40
1.0
 40
1.0
 40
1.0
 10
11.0129904359
 20
-7.5086116993
 30
0.0
 10
10.9950257754
 20
-7.4912352001
 30
0.0
 10
10.9562421764
 20
-7.4534410125
 30
0.0
 10
10.8940122589
 20
-7.3921519373
 30
0.0
 10
10.8497990383
 20
-7.3481889831
 30
0.0
 10
10.8263166584
 20
-7.3247328017
 30
0.0
 11
11.0129904359
 21
-7.5086116993
 31
0.0
 11
10.9592685986
 21
-7.456304817
 31
0.0
 11
10.8969302326
 21
-7.3949343303
 31
0.0
 11
10.8263166584
 21
-7.3247328017
 31
0.0
  0
SPLINE
  5
61A
100
AcDbEntity
  8
RACCORDO
100
AcDbSpline
 62
7
  6
CONTINUOUS
 70
0
 71
3
 72
10
 73
6
 74
4
 42
0.0000001
 43
0.0000001
 44
0.0000000001
 12
0.1932351421
 22
0.1319011105
 32
0.0
 13
0.0048001619
 23
0.233911696
 33
0.0
 40
0.0
 40
0.0
 40
0.0
 40
0.0
 40
0.3395046921
 40
0.6724952268
 40
1.0
 40
1.0
 40
1.0
 40
1.0
 10
11.0129904359
 20
-7.5086116993
 30
0.0
 10
11.034858515
 20
-7.493684684
 30
0.0
 10
11.074441205
 20
-7.4580380657
 30
0.0
 10
11.1152393921
 20
-7.390147544
 30
0.0
 10
11.1257469417
 20
-7.3384160691
 30
0.0
 10
11.126270967
 20
-7.3128803367
 30
0.0
 11
11.0129904359
 21
-7.5086116993
 31
0.0
 11
11.0717289869
 21
-7.4551417014
 31
0.0
 11
11.1112847832
 21
-7.388023855
 31
0.0
 11
11.126270967
 21
-7.3128803367
 31
0.0
  0
SPLINE
  5
61B
100
AcDbEntity
  8
RACCORDO
100
AcDbSpline
 62
7
  6
CONTINUOUS
 70
0
 71
3
 72
10
 73
6
 74
4
 42
0.0000001
 43
0.0000001
 44
0.0000000001
 12
0.2111534819
 22
0.0378729015
 32
0.0
 13
0.1518156339
 23
0.1515657049
 33
0.0
 40
0.0
 40
0.0
 40
0.0
 40
0.0
 40
0.3420454831
 40
0.6747450136
 40
1.0
 40
1.0
 40
1.0
 40
1.0
 10
10.8263166571
 20
-7.6083226489
 30
0.0
 10
10.8503913553
 20
-7.604004564
 30
0.0
 10
10.8970668259
 20
-7.5899917322
 30
0.0
 10
10.9600507083
 20
-7.5552551834
 30
0.0
 10
10.9965308386
 20
-7.5250441997
 30
0.0
 10
11.0129904359
 20
-7.5086116993
 30
0.0
 11
10.8263166571
 21
-7.6083226489
 31
0.0
 11
10.8966398483
 21
-7.5873755403
 31
0.0
 11
10.9592512733
 21
-7.5531157567
 31
0.0
 11
11.0129904359
 21
-7.5086116993
 31
0.0
  0
SPLINE
  5
61C
100
AcDbEntity
  8
RACCORDO
100
AcDbSpline
 62
7
  6
CONTINUOUS
 70
0
 71
3
 72
11
 73
7
 74
5
 42
0.0000001
 43
0.0000001
 44
0.0000000001
 12
-0.1934720276
 22
0.1323336071
 32
0.0
 13
-0.004777495
 23
0.2343518393
 33
0.0
 40
0.0
 40
0.0
 40
0.0
 40
0.0
 40
0.2553623096
 40
0.5075354551
 40
0.7552605149
 40
1.0
 40
1.0
 40
1.0
 40
1.0
 10
-11.0181929127
 20
-7.508618341
 30
0.0
 10
-11.0346614006
 20
-7.4973540025
 30
0.0
 10
-11.0652443608
 20
-7.471588178
 30
0.0
 10
-11.1014343048
 20
-7.4243426931
 30
0.0
 10
-11.1250796824
 20
-7.3705432298
 30
0.0
 10
-11.1310906335
 20
-7.3319987196
 30
0.0
 10
-11.1314803807
 20
-7.3128803367
 30
0.0
 11
-11.0181929127
 21
-7.508618341
 31
0.0
 11
-11.063850968
 21
-7.4699116266
 31
0.0
 11
-11.0995913785
 21
-7.4228312875
 31
0.0
 11
-11.1227384997
 21
-7.369577424
 31
0.0
 11
-11.1314803807
 21
-7.3128803367
 31
0.0
  0
SPLINE
  5
61D
100
AcDbEntity
  8
RACCORDO
100
AcDbSpline
 62
7
  6
CONTINUOUS
 70
0
 71
3
 72
10
 73
6
 74
4
 42
0.0000001
 43
0.0000001
 44
0.0000000001
 12
0.1883472662
 22
0.1821697226
 32
0.0
 13
0.1853876284
 23
0.1851807974
 33
0.0
 40
0.0
 40
0.0
 40
0.0
 40
0.0
 40
0.2877120613
 40
0.6240039224
 40
1.0
 40
1.0
 40
1.0
 40
1.0
 10
-11.018201768
 20
-7.5086117348
 30
0.0
 10
-11.000138508
 20
-7.491140926
 30
0.0
 10
-10.9611042948
 20
-7.4531022476
 30
0.0
 10
-10.8988769354
 20
-7.3918099037
 30
0.0
 10
-10.8547610792
 20
-7.3479418862
 30
0.0
 10
-10.8315260722
 20
-7.3247328017
 30
0.0
 11
-11.018201768
 21
-7.5086117348
 31
0.0
 11
-10.9641865656
 21
-7.4560194101
 31
0.0
 11
-10.9013939753
 21
-7.3941966089
 31
0.0
 11
-10.8315260722
 21
-7.3247328017
 31
0.0
  0
SPLINE
  5
61E
100
AcDbEntity
  8
RACCORDO
100
AcDbSpline
 62
7
  6
CONTINUOUS
 70
0
 71
3
 72
10
 73
6
 74
4
 42
0.0000001
 43
0.0000001
 44
0.0000000001
 12
-0.2113510983
 22
0.0367634485
 32
0.0
 13
-0.1528975824
 23
0.1504764673
 33
0.0
 40
0.0
 40
0.0
 40
0.0
 40
0.0
 40
0.3410974996
 40
0.6751553688
 40
1.0
 40
1.0
 40
1.0
 40
1.0
 10
-10.8315260708
 20
-7.6083226489
 30
0.0
 10
-10.8555565145
 20
-7.6041426755
 30
0.0
 10
-10.902213264
 20
-7.5899369334
 30
0.0
 10
-10.9652923873
 20
-7.5553528842
 30
0.0
 10
-11.0016457818
 20
-7.524905559
 30
0.0
 10
-11.018201768
 20
-7.5086117348
 30
0.0
 11
-10.8315260708
 21
-7.6083226489
 31
0.0
 11
-10.9016612826
 21
-7.5874549299
 31
0.0
 11
-10.9645344741
 21
-7.5530653741
 31
0.0
 11
-11.018201768
 21
-7.5086117348
 31
0.0
  0
SPLINE
  5
61F
100
AcDbEntity
  8
RACCORDO
100
AcDbSpline
 62
253
  6
CONTINUOUS
 70
0
 71
3
 72
12
 73
8
 74
6
 42
0.0000001
 43
0.0000001
 44
0.0000000001
 12
-0.0070145166
 22
0.4019838217
 32
0.0
 13
-0.4020297068
 23
0.0035087299
 33
0.0
 40
0.0
 40
0.0
 40
0.0
 40
0.0
 40
0.1664007688
 40
0.3475548035
 40
0.549388854
 40
0.7695487352
 40
1.0
 40
1.0
 40
1.0
 40
1.0
 10
-6.7515495534
 20
5.8563549383
 30
0.0
 10
-6.751938627
 20
5.8786517439
 30
0.0
 10
-6.7637189596
 20
5.9254769304
 30
0.0
 10
-6.8093643105
 20
5.985184826
 30
0.0
 10
-6.876956581
 20
6.0314937092
 30
0.0
 10
-6.9600693174
 20
6.0611203978
 30
0.0
 10
-7.0206211104
 20
6.0682174422
 30
0.0
 10
-7.0515038619
 20
6.0684869727
 30
0.0
 11
-6.7515495534
 21
5.8563549383
 31
0.0
 11
-6.7671377177
 21
5.9214141376
 31
0.0
 11
-6.8101294873
 21
5.9802037558
 31
0.0
 11
-6.8763818604
 21
6.0270583942
 31
0.0
 11
-6.9595102729
 21
6.0574627966
 31
0.0
 11
-7.0515038619
 21
6.0684869727
 31
0.0
  0
SPLINE
  5
620
100
AcDbEntity
  8
RACCORDO
100
AcDbSpline
 62
253
  6
CONTINUOUS
 70
0
 71
3
 72
12
 73
8
 74
6
 42
0.0000001
 43
0.0000001
 44
0.0000000001
 12
-0.0070145118
 22
0.401983857
 32
0.0
 13
-0.402029743
 23
0.0035086199
 33
0.0
 40
0.0
 40
0.0
 40
0.0
 40
0.0
 40
0.1663980738
 40
0.3475504099
 40
0.549384185
 40
0.7695456059
 40
1.0
 40
1.0
 40
1.0
 40
1.0
 10
-6.7638921481
 20
5.1492481571
 30
0.0
 10
-6.7642812152
 20
5.1715446036
 30
0.0
 10
-6.7760611967
 20
5.2183691985
 30
0.0
 10
-6.8217057054
 20
5.2780769374
 30
0.0
 10
-6.8892976492
 20
5.3243862363
 30
0.0
 10
-6.9724108485
 20
5.3540134714
 30
0.0
 10
-7.0329632831
 20
5.3611106656
 30
0.0
 10
-7.0638464567
 20
5.3613801913
 30
0.0
 11
-6.7638921481
 21
5.1492481571
 31
0.0
 11
-6.7794798327
 21
5.2143063633
 31
0.0
 11
-6.8224707787
 21
5.2730957456
 31
0.0
 11
-6.8887227554
 21
5.3199507651
 31
0.0
 11
-6.9718516252
 21
5.350355742
 31
0.0
 11
-7.0638464567
 21
5.3613801913
 31
0.0
  0
SPLINE
  5
621
100
AcDbEntity
  8
RACCORDO
100
AcDbSpline
 62
253
  6
CONTINUOUS
 70
0
 71
3
 72
12
 73
8
 74
6
 42
0.0000001
 43
0.0000001
 44
0.0000000001
 12
0.0070145165
 22
0.4019838218
 32
0.0
 13
0.4020297069
 23
0.003508728
 33
0.0
 40
0.0
 40
0.0
 40
0.0
 40
0.0
 40
0.1664007686
 40
0.3475548033
 40
0.549388854
 40
0.7695487354
 40
1.0
 40
1.0
 40
1.0
 40
1.0
 10
-7.5413172656
 20
5.1492481571
 30
0.0
 10
-7.5409281919
 20
5.1715449627
 30
0.0
 10
-7.5291478594
 20
5.2183701492
 30
0.0
 10
-7.4835025084
 20
5.2780780448
 30
0.0
 10
-7.4159102379
 20
5.3243869281
 30
0.0
 10
-7.3327975016
 20
5.354013617
 30
0.0
 10
-7.2722457085
 20
5.3611106612
 30
0.0
 10
-7.241362957
 20
5.3613801915
 30
0.0
 11
-7.5413172656
 21
5.1492481571
 31
0.0
 11
-7.5257291013
 21
5.2143073564
 31
0.0
 11
-7.4827373317
 21
5.2730969745
 31
0.0
 11
-7.4164849585
 21
5.319951613
 31
0.0
 11
-7.333356546
 21
5.3503560157
 31
0.0
 11
-7.241362957
 21
5.3613801915
 31
0.0
  0
SPLINE
  5
622
100
AcDbEntity
  8
RACCORDO
100
AcDbSpline
 62
253
  6
CONTINUOUS
 70
0
 71
3
 72
12
 73
8
 74
6
 42
0.0000001
 43
0.0000001
 44
0.0000000001
 12
0.0070145164
 22
0.4019837961
 32
0.0
 13
0.4020296812
 23
0.0035087308
 33
0.0
 40
0.0
 40
0.0
 40
0.0
 40
0.0
 40
0.1664062852
 40
0.3475634824
 40
0.549397719
 40
0.769554416
 40
1.0
 40
1.0
 40
1.0
 40
1.0
 10
-7.5536598603
 20
5.8563549383
 30
0.0
 10
-7.5532707738
 20
5.8786524817
 30
0.0
 10
-7.5414897486
 20
5.9254788435
 30
0.0
 10
-7.495842775
 20
5.9851870242
 30
0.0
 10
-7.4282499494
 20
6.0314950662
 30
0.0
 10
-7.3451381263
 20
6.0611207043
 30
0.0
 10
-7.28458754
 20
6.0682174479
 30
0.0
 10
-7.2537055518
 20
6.0684869717
 30
0.0
 11
-7.5536598603
 21
5.8563549383
 31
0.0
 11
-7.5380707286
 21
5.9214161821
 31
0.0
 11
-7.4950773812
 21
5.9802062159
 31
0.0
 11
-7.4288243528
 21
6.0270600483
 31
0.0
 11
-7.3456968981
 21
6.057463326
 31
0.0
 11
-7.2537055518
 21
6.0684869717
 31
0.0
  0
SPLINE
  5
623
100
AcDbEntity
  8
RACCORDO
100
AcDbSpline
 62
253
  6
CONTINUOUS
 70
0
 71
3
 72
12
 73
8
 74
6
 42
0.0000001
 43
0.0000001
 44
0.0000000001
 12
0.0070145165
 22
0.4019838218
 32
0.0
 13
0.4020297069
 23
0.003508728
 33
0.0
 40
0.0
 40
0.0
 40
0.0
 40
0.0
 40
0.1664007686
 40
0.3475548033
 40
0.549388854
 40
0.7695487354
 40
1.0
 40
1.0
 40
1.0
 40
1.0
 10
6.7586827344
 20
5.1492481571
 30
0.0
 10
6.7590718081
 20
5.1715449627
 30
0.0
 10
6.7708521406
 20
5.2183701492
 30
0.0
 10
6.8164974916
 20
5.2780780448
 30
0.0
 10
6.8840897621
 20
5.3243869281
 30
0.0
 10
6.9672024984
 20
5.354013617
 30
0.0
 10
7.0277542915
 20
5.3611106612
 30
0.0
 10
7.058637043
 20
5.3613801915
 30
0.0
 11
6.7586827344
 21
5.1492481571
 31
0.0
 11
6.7742708987
 21
5.2143073564
 31
0.0
 11
6.8172626683
 21
5.2730969745
 31
0.0
 11
6.8835150415
 21
5.319951613
 31
0.0
 11
6.966643454
 21
5.3503560157
 31
0.0
 11
7.058637043
 21
5.3613801915
 31
0.0
  0
SPLINE
  5
624
100
AcDbEntity
  8
RACCORDO
100
AcDbSpline
 62
253
  6
CONTINUOUS
 70
0
 71
3
 72
12
 73
8
 74
6
 42
0.0000001
 43
0.0000001
 44
0.0000000001
 12
0.0070145164
 22
0.4019837961
 32
0.0
 13
0.4020296812
 23
0.0035087308
 33
0.0
 40
0.0
 40
0.0
 40
0.0
 40
0.0
 40
0.1664062852
 40
0.3475634824
 40
0.549397719
 40
0.769554416
 40
1.0
 40
1.0
 40
1.0
 40
1.0
 10
6.7463401397
 20
5.8563549383
 30
0.0
 10
6.7467292262
 20
5.8786524817
 30
0.0
 10
6.7585102514
 20
5.9254788435
 30
0.0
 10
6.804157225
 20
5.9851870242
 30
0.0
 10
6.8717500506
 20
6.0314950662
 30
0.0
 10
6.9548618737
 20
6.0611207043
 30
0.0
 10
7.01541246
 20
6.0682174479
 30
0.0
 10
7.0462944482
 20
6.0684869717
 30
0.0
 11
6.7463401397
 21
5.8563549383
 31
0.0
 11
6.7619292714
 21
5.9214161821
 31
0.0
 11
6.8049226188
 21
5.9802062159
 31
0.0
 11
6.8711756472
 21
6.0270600483
 31
0.0
 11
6.9543031019
 21
6.057463326
 31
0.0
 11
7.0462944482
 21
6.0684869717
 31
0.0
  0
SPLINE
  5
625
100
AcDbEntity
  8
RACCORDO
100
AcDbSpline
 62
253
  6
CONTINUOUS
 70
0
 71
3
 72
9
 73
5
 74
3
 42
0.0000001
 43
0.0000001
 44
0.0000000001
 12
0.0053518739
 22
-1.6514713674
 32
0.0
 13
0.0076939806
 23
-1.6514621166
 33
0.0
 40
0.0
 40
0.0
 40
0.0
 40
0.0
 40
0.5000101671
 40
1.0
 40
1.0
 40
1.0
 40
1.0
 10
-4.4325034743
 20
5.6408235937
 30
0.0
 10
-4.4316114772
 20
5.3655727689
 30
0.0
 10
-4.4296323499
 20
4.8150829283
 30
0.0
 10
-4.4272628731
 20
4.2645946295
 30
0.0
 10
-4.4259805691
 20
3.9893565402
 30
0.0
 11
-4.4325034743
 21
5.6408235937
 31
0.0
 11
-4.4295347183
 21
4.81507212
 31
0.0
 11
-4.4259805691
 21
3.9893565402
 31
0.0
  0
SPLINE
  5
626
100
AcDbEntity
  8
RACCORDO
100
AcDbSpline
 62
253
  6
CONTINUOUS
 70
0
 71
3
 72
12
 73
8
 74
6
 42
0.0000001
 43
0.0000001
 44
0.0000000001
 12
-0.0070145166
 22
0.4019838217
 32
0.0
 13
-0.4020297068
 23
0.0035087299
 33
0.0
 40
0.0
 40
0.0
 40
0.0
 40
0.0
 40
0.1664007688
 40
0.3475548035
 40
0.549388854
 40
0.7695487352
 40
1.0
 40
1.0
 40
1.0
 40
1.0
 10
7.5484504466
 20
5.8563549383
 30
0.0
 10
7.548061373
 20
5.8786517439
 30
0.0
 10
7.5362810404
 20
5.9254769304
 30
0.0
 10
7.4906356895
 20
5.985184826
 30
0.0
 10
7.423043419
 20
6.0314937092
 30
0.0
 10
7.3399306826
 20
6.0611203978
 30
0.0
 10
7.2793788896
 20
6.0682174422
 30
0.0
 10
7.2484961381
 20
6.0684869727
 30
0.0
 11
7.5484504466
 21
5.8563549383
 31
0.0
 11
7.5328622823
 21
5.9214141376
 31
0.0
 11
7.4898705127
 21
5.9802037558
 31
0.0
 11
7.4236181396
 21
6.0270583942
 31
0.0
 11
7.3404897271
 21
6.0574627966
 31
0.0
 11
7.2484961381
 21
6.0684869727
 31
0.0
  0
SPLINE
  5
627
100
AcDbEntity
  8
RACCORDO
100
AcDbSpline
 62
253
  6
CONTINUOUS
 70
0
 71
3
 72
9
 73
5
 74
3
 42
0.0000001
 43
0.0000001
 44
0.0000000001
 12
0.0076939806
 22
1.6514621166
 32
0.0
 13
0.0053518739
 23
1.6514713674
 33
0.0
 40
0.0
 40
0.0
 40
0.0
 40
0.0
 40
0.4999889708
 40
1.0
 40
1.0
 40
1.0
 40
1.0
 10
4.4207711554
 20
3.9893565402
 30
0.0
 10
4.4220534572
 20
4.2645941549
 30
0.0
 10
4.4244229343
 20
4.8150824537
 30
0.0
 10
4.4264020619
 20
5.3655722943
 30
0.0
 10
4.4272940606
 20
5.6408235937
 30
0.0
 11
4.4207711554
 21
3.9893565402
 31
0.0
 11
4.424325299
 21
4.8150706962
 31
0.0
 11
4.4272940606
 21
5.6408235937
 31
0.0
  0
SPLINE
  5
628
100
AcDbEntity
  8
RACCORDO
100
AcDbSpline
 62
253
  6
CONTINUOUS
 70
0
 71
3
 72
12
 73
8
 74
6
 42
0.0000001
 43
0.0000001
 44
0.0000000001
 12
-0.0070145118
 22
0.401983857
 32
0.0
 13
-0.402029743
 23
0.0035086199
 33
0.0
 40
0.0
 40
0.0
 40
0.0
 40
0.0
 40
0.1663980738
 40
0.3475504099
 40
0.549384185
 40
0.7695456059
 40
1.0
 40
1.0
 40
1.0
 40
1.0
 10
7.5361078519
 20
5.1492481571
 30
0.0
 10
7.5357187848
 20
5.1715446036
 30
0.0
 10
7.5239388033
 20
5.2183691985
 30
0.0
 10
7.4782942946
 20
5.2780769374
 30
0.0
 10
7.4107023508
 20
5.3243862363
 30
0.0
 10
7.3275891515
 20
5.3540134714
 30
0.0
 10
7.2670367169
 20
5.3611106656
 30
0.0
 10
7.2361535433
 20
5.3613801913
 30
0.0
 11
7.5361078519
 21
5.1492481571
 31
0.0
 11
7.5205201673
 21
5.2143063633
 31
0.0
 11
7.4775292213
 21
5.2730957456
 31
0.0
 11
7.4112772446
 21
5.3199507651
 31
0.0
 11
7.3281483748
 21
5.350355742
 31
0.0
 11
7.2361535433
 21
5.3613801913
 31
0.0
  0
SPLINE
  5
629
100
AcDbEntity
  8
RACCORDO
100
AcDbSpline
 62
253
  6
CONTINUOUS
 70
0
 71
3
 72
13
 73
9
 74
7
 42
0.0000001
 43
0.0000001
 44
0.0000000001
 12
0.1860199012
 22
0.4640617589
 32
0.0
 13
0.0000037631
 23
0.4999567178
 33
0.0
 40
0.0
 40
0.0
 40
0.0
 40
0.0
 40
0.0378218875
 40
0.1397846932
 40
0.2991078666
 40
0.5051686897
 40
0.7442254983
 40
1.0
 40
1.0
 40
1.0
 40
1.0
 10
7.0562294506
 20
3.123813431
 30
0.0
 10
7.0585746585
 20
3.1296639948
 30
0.0
 10
7.0551528682
 20
3.1539468091
 30
0.0
 10
7.0594503463
 20
3.2029023703
 30
0.0
 10
7.058204112
 20
3.2812486451
 30
0.0
 10
7.0594609388
 20
3.381794421
 30
0.0
 10
7.0595237607
 20
3.4986627239
 30
0.0
 10
7.0596592162
 20
3.5811118851
 30
0.0
 10
7.059659537
 20
3.6237372785
 30
0.0
 11
7.0562294506
 21
3.123813431
 31
0.0
 11
7.0571205138
 21
3.1427017313
 31
0.0
 11
7.057948429
 21
3.1936719974
 31
0.0
 11
7.058658452
 21
3.2733235237
 31
0.0
 11
7.0592025272
 21
3.3763435799
 31
0.0
 11
7.0595435251
 21
3.4958611508
 31
0.0
 11
7.059659537
 21
3.6237372785
 31
0.0
  0
SPLINE
  5
62A
100
AcDbEntity
  8
RACCORDO
100
AcDbSpline
 62
253
  6
CONTINUOUS
 70
0
 71
3
 72
13
 73
9
 74
7
 42
0.0000001
 43
0.0000001
 44
0.0000000001
 12
0.0000037631
 22
-0.4999567178
 32
0.0
 13
0.1860199013
 23
-0.4640617589
 33
0.0
 40
0.0
 40
0.0
 40
0.0
 40
0.0
 40
0.2557745015
 40
0.4948313101
 40
0.7008921333
 40
0.8602153068
 40
0.9621781125
 40
1.0
 40
1.0
 40
1.0
 40
1.0
 10
7.2351310493
 20
3.6237372785
 30
0.0
 10
7.2351313701
 20
3.5811118851
 30
0.0
 10
7.2352668255
 20
3.498662724
 30
0.0
 10
7.2353296475
 20
3.3817944211
 30
0.0
 10
7.2365864743
 20
3.2812486451
 30
0.0
 10
7.23534024
 20
3.2029023703
 30
0.0
 10
7.2396377181
 20
3.1539468091
 30
0.0
 10
7.2362159278
 20
3.1296639948
 30
0.0
 10
7.2385611357
 20
3.123813431
 30
0.0
 11
7.2351310493
 21
3.6237372785
 31
0.0
 11
7.2352470612
 21
3.4958611509
 31
0.0
 11
7.2355880591
 21
3.3763435799
 31
0.0
 11
7.2361321343
 21
3.2733235238
 31
0.0
 11
7.2368421573
 21
3.1936719974
 31
0.0
 11
7.2376700725
 21
3.1427017313
 31
0.0
 11
7.2385611357
 21
3.123813431
 31
0.0
  0
SPLINE
  5
62B
100
AcDbEntity
  8
RACCORDO
100
AcDbSpline
 62
253
  6
CONTINUOUS
 70
0
 71
3
 72
13
 73
9
 74
7
 42
0.0000001
 43
0.0000001
 44
0.0000000001
 12
0.0000037631
 22
-0.4999567178
 32
0.0
 13
0.1860199013
 23
-0.4640617589
 33
0.0
 40
0.0
 40
0.0
 40
0.0
 40
0.0
 40
0.2557745015
 40
0.4948313101
 40
0.7008921333
 40
0.8602153068
 40
0.9621781125
 40
1.0
 40
1.0
 40
1.0
 40
1.0
 10
-7.0648689507
 20
3.6237372785
 30
0.0
 10
-7.0648686299
 20
3.5811118851
 30
0.0
 10
-7.0647331745
 20
3.498662724
 30
0.0
 10
-7.0646703525
 20
3.3817944211
 30
0.0
 10
-7.0634135257
 20
3.2812486451
 30
0.0
 10
-7.06465976
 20
3.2029023703
 30
0.0
 10
-7.0603622819
 20
3.1539468091
 30
0.0
 10
-7.0637840722
 20
3.1296639948
 30
0.0
 10
-7.0614388643
 20
3.123813431
 30
0.0
 11
-7.0648689507
 21
3.6237372785
 31
0.0
 11
-7.0647529388
 21
3.4958611509
 31
0.0
 11
-7.0644119409
 21
3.3763435799
 31
0.0
 11
-7.0638678657
 21
3.2733235238
 31
0.0
 11
-7.0631578427
 21
3.1936719974
 31
0.0
 11
-7.0623299275
 21
3.1427017313
 31
0.0
 11
-7.0614388643
 21
3.123813431
 31
0.0
  0
SPLINE
  5
62C
100
AcDbEntity
  8
RACCORDO
100
AcDbSpline
 62
253
  6
CONTINUOUS
 70
0
 71
3
 72
13
 73
9
 74
7
 42
0.0000001
 43
0.0000001
 44
0.0000000001
 12
0.1860199012
 22
0.4640617589
 32
0.0
 13
0.0000037631
 23
0.4999567178
 33
0.0
 40
0.0
 40
0.0
 40
0.0
 40
0.0
 40
0.0378218875
 40
0.1397846932
 40
0.2991078666
 40
0.5051686897
 40
0.7442254983
 40
1.0
 40
1.0
 40
1.0
 40
1.0
 10
-7.2437705494
 20
3.123813431
 30
0.0
 10
-7.2414253415
 20
3.1296639948
 30
0.0
 10
-7.2448471318
 20
3.1539468091
 30
0.0
 10
-7.2405496537
 20
3.2029023703
 30
0.0
 10
-7.241795888
 20
3.2812486451
 30
0.0
 10
-7.2405390612
 20
3.381794421
 30
0.0
 10
-7.2404762393
 20
3.4986627239
 30
0.0
 10
-7.2403407838
 20
3.5811118851
 30
0.0
 10
-7.240340463
 20
3.6237372785
 30
0.0
 11
-7.2437705494
 21
3.123813431
 31
0.0
 11
-7.2428794862
 21
3.1427017313
 31
0.0
 11
-7.242051571
 21
3.1936719974
 31
0.0
 11
-7.241341548
 21
3.2733235237
 31
0.0
 11
-7.2407974728
 21
3.3763435799
 31
0.0
 11
-7.2404564749
 21
3.4958611508
 31
0.0
 11
-7.240340463
 21
3.6237372785
 31
0.0
  0
SPLINE
  5
62D
100
AcDbEntity
  8
RACCORDO
100
AcDbSpline
 62
253
  6
CONTINUOUS
 70
0
 71
3
 72
9
 73
5
 74
3
 42
0.0000001
 43
0.0000001
 44
0.0000000001
 12
0.0053452796
 22
-1.6468770511
 32
0.0
 13
0.0076765739
 23
-1.6468678343
 33
0.0
 40
0.0
 40
0.0
 40
0.0
 40
0.0
 40
0.500013719
 40
1.0
 40
1.0
 40
1.0
 40
1.0
 10
-4.2445517459
 20
5.6385260814
 30
0.0
 10
-4.2436608415
 20
5.3640390417
 30
0.0
 10
-4.2416847613
 20
4.8150806382
 30
0.0
 10
-4.2393202247
 20
4.2661237705
 30
0.0
 10
-4.2380408308
 20
3.9916533293
 30
0.0
 11
-4.2445517459
 21
5.6385260814
 31
0.0
 11
-4.2415875877
 21
4.8150659599
 31
0.0
 11
-4.2380408308
 21
3.9916533293
 31
0.0
  0
SPLINE
  5
62E
100
AcDbEntity
  8
RACCORDO
100
AcDbSpline
 62
253
  6
CONTINUOUS
 70
0
 71
3
 72
9
 73
5
 74
3
 42
0.0000001
 43
0.0000001
 44
0.0000000001
 12
0.0076765739
 22
1.6468678343
 32
0.0
 13
0.0053452796
 23
1.6468770511
 33
0.0
 40
0.0
 40
0.0
 40
0.0
 40
0.0
 40
0.4999867127
 40
1.0
 40
1.0
 40
1.0
 40
1.0
 10
4.2328314171
 20
3.9916533293
 30
0.0
 10
4.2341108121
 20
4.2661240075
 30
0.0
 10
4.2364753485
 20
4.8150808752
 30
0.0
 10
4.2384514286
 20
5.3640392787
 30
0.0
 10
4.2393423322
 20
5.6385260814
 30
0.0
 11
4.2328314171
 21
3.9916533293
 31
0.0
 11
4.2363781768
 21
4.8150666709
 31
0.0
 11
4.2393423322
 21
5.6385260814
 31
0.0
  0
SPLINE
  5
62F
100
AcDbEntity
  8
RACCORDO
100
AcDbSpline
 62
253
  6
CONTINUOUS
 70
0
 71
3
 72
11
 73
7
 74
5
 42
0.0000001
 43
0.0000001
 44
0.0000000001
 12
-0.0098781004
 22
0.3534330094
 32
0.0
 13
0.0000006738
 23
0.3535710239
 33
0.0
 40
0.0
 40
0.0
 40
0.0
 40
0.0
 40
0.210108614
 40
0.4581332567
 40
0.7266954159
 40
1.0
 40
1.0
 40
1.0
 40
1.0
 10
7.0462944482
 20
6.0684869727
 30
0.0
 10
7.0456026235
 20
6.0932400792
 30
0.0
 10
7.0443999155
 20
6.1472217903
 30
0.0
 10
7.0431453723
 20
6.2328593329
 30
0.0
 10
7.0423754547
 20
6.3259509444
 30
0.0
 10
7.042204453
 20
6.389813869
 30
0.0
 10
7.0422045144
 20
6.4220247295
 30
0.0
 11
7.0462944482
 21
6.0684869727
 31
0.0
 11
7.0445860689
 21
6.1427556444
 31
0.0
 11
7.0432703361
 21
6.2304401003
 31
0.0
 11
7.0424678119
 21
6.3253925066
 31
0.0
 11
7.0422045144
 21
6.4220247295
 31
0.0
  0
SPLINE
  5
630
100
AcDbEntity
  8
RACCORDO
100
AcDbSpline
 62
253
  6
CONTINUOUS
 70
0
 71
3
 72
11
 73
7
 74
5
 42
0.0000001
 43
0.0000001
 44
0.0000000001
 12
-0.0098331854
 22
0.5656207508
 32
0.0
 13
0.0000098444
 23
0.5657062181
 33
0.0
 40
0.0
 40
0.0
 40
0.0
 40
0.0
 40
0.2097951049
 40
0.4583292293
 40
0.7269157337
 40
1.0
 40
1.0
 40
1.0
 40
1.0
 10
6.7463401397
 20
5.8563549383
 30
0.0
 10
6.7456524883
 20
5.8959097599
 30
0.0
 10
6.7444433885
 20
5.9823284062
 30
0.0
 10
6.7431912552
 20
6.1193966599
 30
0.0
 10
6.7424211244
 20
6.2684029477
 30
0.0
 10
6.7422492674
 20
6.3705452074
 30
0.0
 10
6.7422501635
 20
6.4220403632
 30
0.0
 11
6.7463401397
 21
5.8563549383
 31
0.0
 11
6.744633504
 21
5.9750250625
 31
0.0
 11
6.7433151353
 21
6.1156161808
 31
0.0
 11
6.7425130492
 21
6.2675551194
 31
0.0
 11
6.7422501635
 21
6.4220403632
 31
0.0
  0
SPLINE
  5
631
100
AcDbEntity
  8
RACCORDO
100
AcDbSpline
 62
253
  6
CONTINUOUS
 70
0
 71
3
 72
11
 73
7
 74
5
 42
0.0000001
 43
0.0000001
 44
0.0000000001
 12
-0.0000003835
 22
0.1414265542
 32
0.0
 13
-0.0024684792
 23
0.1414050099
 33
0.0
 40
0.0
 40
0.0
 40
0.0
 40
0.0
 40
0.2753968051
 40
0.5412973202
 40
0.7858857424
 40
1.0
 40
1.0
 40
1.0
 40
1.0
 10
6.7597052285
 20
5.0078268009
 30
0.0
 10
6.7597051933
 20
5.0208096079
 30
0.0
 10
6.759662276
 20
5.0463275674
 30
0.0
 10
6.7594702498
 20
5.0833755264
 30
0.0
 10
6.75915888
 20
5.1175335709
 30
0.0
 10
6.7588589133
 20
5.1391558809
 30
0.0
 10
6.7586827344
 20
5.1492481571
 30
0.0
 11
6.7597052285
 21
5.0078268009
 31
0.0
 11
6.7596383961
 21
5.0467751647
 31
0.0
 11
6.7594393688
 21
5.0843800316
 31
0.0
 11
6.7591165404
 21
5.1189698229
 31
0.0
 11
6.7586827344
 21
5.1492481571
 31
0.0
  0
SPLINE
  5
632
100
AcDbEntity
  8
RACCORDO
100
AcDbSpline
 62
253
  6
CONTINUOUS
 70
0
 71
3
 72
13
 73
9
 74
7
 42
0.0000001
 43
0.0000001
 44
0.0000000001
 12
0.141041107
 22
0.141873385
 32
0.0
 13
0.0000012265
 23
0.2000516215
 33
0.0
 40
0.0
 40
0.0
 40
0.0
 40
0.0
 40
0.0379383612
 40
0.1398218345
 40
0.2991571384
 40
0.5055293226
 40
0.744720332
 40
1.0
 40
1.0
 40
1.0
 40
1.0
 10
6.7562751421
 20
3.4237677395
 30
0.0
 10
6.7580587649
 20
3.4255618874
 30
0.0
 10
6.7559232758
 20
3.4364465208
 30
0.0
 10
6.7590709874
 20
3.4549789626
 30
0.0
 10
6.7584265037
 20
3.4868898477
 30
0.0
 10
6.7594446616
 20
3.5269310807
 30
0.0
 10
6.7595898372
 20
3.5737656583
 30
0.0
 10
6.7597051241
 20
3.6067142414
 30
0.0
 10
6.7597052285
 20
3.6237372785
 30
0.0
 11
6.7562751421
 21
3.4237677395
 31
0.0
 11
6.7571654361
 21
3.4313049718
 31
0.0
 11
6.7579935945
 21
3.451670094
 31
0.0
 11
6.7587038667
 21
3.4835374655
 31
0.0
 11
6.7592483327
 21
3.5248189652
 31
0.0
 11
6.7595895137
 21
3.5726682981
 31
0.0
 11
6.7597052285
 21
3.6237372785
 31
0.0
  0
SPLINE
  5
633
100
AcDbEntity
  8
RACCORDO
100
AcDbSpline
 62
253
  6
CONTINUOUS
 70
0
 71
3
 72
13
 73
9
 74
7
 42
0.0000001
 43
0.0000001
 44
0.0000000001
 12
0.0000012265
 22
-0.2000516215
 32
0.0
 13
0.1410411064
 23
-0.1418733857
 33
0.0
 40
0.0
 40
0.0
 40
0.0
 40
0.0
 40
0.2552796677
 40
0.4944706773
 40
0.7008428616
 40
0.8601781655
 40
0.9620616388
 40
1.0
 40
1.0
 40
1.0
 40
1.0
 10
7.5350853578
 20
3.6237372785
 30
0.0
 10
7.5350854622
 20
3.6067142414
 30
0.0
 10
7.5352007491
 20
3.5737656583
 30
0.0
 10
7.5353459247
 20
3.5269310807
 30
0.0
 10
7.5363640825
 20
3.4868898477
 30
0.0
 10
7.5357195989
 20
3.4549789626
 30
0.0
 10
7.5388673104
 20
3.4364465208
 30
0.0
 10
7.5367318214
 20
3.4255618874
 30
0.0
 10
7.5385154442
 20
3.4237677395
 30
0.0
 11
7.5350853578
 21
3.6237372785
 31
0.0
 11
7.5352010726
 21
3.5726682982
 31
0.0
 11
7.5355422536
 21
3.5248189652
 31
0.0
 11
7.5360867196
 21
3.4835374655
 31
0.0
 11
7.5367969918
 21
3.451670094
 31
0.0
 11
7.5376251502
 21
3.4313049718
 31
0.0
 11
7.5385154442
 21
3.4237677395
 31
0.0
  0
SPLINE
  5
634
100
AcDbEntity
  8
RACCORDO
100
AcDbSpline
 62
253
  6
CONTINUOUS
 70
0
 71
3
 72
11
 73
7
 74
5
 42
0.0000001
 43
0.0000001
 44
0.0000000001
 12
-0.0024684792
 22
-0.1414050099
 32
0.0
 13
-0.0000003835
 23
-0.1414265542
 33
0.0
 40
0.0
 40
0.0
 40
0.0
 40
0.0
 40
0.2141142612
 40
0.458702684
 40
0.7246031997
 40
1.0
 40
1.0
 40
1.0
 40
1.0
 10
7.5361078519
 20
5.1492481571
 30
0.0
 10
7.535931673
 20
5.1391558807
 30
0.0
 10
7.5356317063
 20
5.1175335706
 30
0.0
 10
7.5353203365
 20
5.0833755258
 30
0.0
 10
7.5351283103
 20
5.046327567
 30
0.0
 10
7.535085393
 20
5.0208096077
 30
0.0
 10
7.5350853578
 20
5.0078268009
 30
0.0
 11
7.5361078519
 21
5.1492481571
 31
0.0
 11
7.5356740458
 21
5.1189698224
 31
0.0
 11
7.5353512174
 21
5.084380031
 31
0.0
 11
7.5351521902
 21
5.046775164
 31
0.0
 11
7.5350853578
 21
5.0078268009
 31
0.0
  0
SPLINE
  5
635
100
AcDbEntity
  8
RACCORDO
100
AcDbSpline
 62
253
  6
CONTINUOUS
 70
0
 71
3
 72
11
 73
7
 74
5
 42
0.0000001
 43
0.0000001
 44
0.0000000001
 12
0.0000096882
 22
-0.5657062181
 32
0.0
 13
-0.0098336718
 23
-0.5656207424
 33
0.0
 40
0.0
 40
0.0
 40
0.0
 40
0.0
 40
0.2730824888
 40
0.5416689789
 40
0.7902032012
 40
1.0
 40
1.0
 40
1.0
 40
1.0
 10
7.5525404228
 20
6.4220403632
 30
0.0
 10
7.5525413047
 20
6.3705455426
 30
0.0
 10
7.5523694705
 20
6.2684036207
 30
0.0
 10
7.5515993414
 20
6.1193976522
 30
0.0
 10
7.5503471865
 20
5.9823290638
 30
0.0
 10
7.5491381376
 20
5.8959100787
 30
0.0
 10
7.5484504466
 20
5.8563549383
 30
0.0
 11
7.5525404228
 21
6.4220403632
 31
0.0
 11
7.5522775418
 21
6.2675561249
 31
0.0
 11
7.5514754579
 21
6.1156171944
 31
0.0
 11
7.5501570929
 21
5.9750260206
 31
0.0
 11
7.5484504466
 21
5.8563549383
 31
0.0
  0
SPLINE
  5
636
100
AcDbEntity
  8
RACCORDO
100
AcDbSpline
 62
253
  6
CONTINUOUS
 70
0
 71
3
 72
13
 73
9
 74
7
 42
0.0000001
 43
0.0000001
 44
0.0000000001
 12
0.0000012265
 22
-0.2000516215
 32
0.0
 13
0.1410411064
 23
-0.1418733857
 33
0.0
 40
0.0
 40
0.0
 40
0.0
 40
0.0
 40
0.2552796677
 40
0.4944706773
 40
0.7008428616
 40
0.8601781655
 40
0.9620616388
 40
1.0
 40
1.0
 40
1.0
 40
1.0
 10
-6.7649146422
 20
3.6237372785
 30
0.0
 10
-6.7649145378
 20
3.6067142414
 30
0.0
 10
-6.7647992509
 20
3.5737656583
 30
0.0
 10
-6.7646540753
 20
3.5269310807
 30
0.0
 10
-6.7636359175
 20
3.4868898477
 30
0.0
 10
-6.7642804011
 20
3.4549789626
 30
0.0
 10
-6.7611326896
 20
3.4364465208
 30
0.0
 10
-6.7632681786
 20
3.4255618874
 30
0.0
 10
-6.7614845558
 20
3.4237677395
 30
0.0
 11
-6.7649146422
 21
3.6237372785
 31
0.0
 11
-6.7647989274
 21
3.5726682982
 31
0.0
 11
-6.7644577464
 21
3.5248189652
 31
0.0
 11
-6.7639132804
 21
3.4835374655
 31
0.0
 11
-6.7632030082
 21
3.451670094
 31
0.0
 11
-6.7623748498
 21
3.4313049718
 31
0.0
 11
-6.7614845558
 21
3.4237677395
 31
0.0
  0
SPLINE
  5
637
100
AcDbEntity
  8
RACCORDO
100
AcDbSpline
 62
253
  6
CONTINUOUS
 70
0
 71
3
 72
11
 73
7
 74
5
 42
0.0000001
 43
0.0000001
 44
0.0000000001
 12
-0.0024684792
 22
-0.1414050099
 32
0.0
 13
-0.0000003835
 23
-0.1414265542
 33
0.0
 40
0.0
 40
0.0
 40
0.0
 40
0.0
 40
0.2141142612
 40
0.458702684
 40
0.7246031997
 40
1.0
 40
1.0
 40
1.0
 40
1.0
 10
-6.7638921481
 20
5.1492481571
 30
0.0
 10
-6.764068327
 20
5.1391558807
 30
0.0
 10
-6.7643682937
 20
5.1175335706
 30
0.0
 10
-6.7646796635
 20
5.0833755258
 30
0.0
 10
-6.7648716897
 20
5.046327567
 30
0.0
 10
-6.764914607
 20
5.0208096077
 30
0.0
 10
-6.7649146422
 20
5.0078268009
 30
0.0
 11
-6.7638921481
 21
5.1492481571
 31
0.0
 11
-6.7643259542
 21
5.1189698224
 31
0.0
 11
-6.7646487826
 21
5.084380031
 31
0.0
 11
-6.7648478098
 21
5.046775164
 31
0.0
 11
-6.7649146422
 21
5.0078268009
 31
0.0
  0
SPLINE
  5
638
100
AcDbEntity
  8
RACCORDO
100
AcDbSpline
 62
253
  6
CONTINUOUS
 70
0
 71
3
 72
11
 73
7
 74
5
 42
0.0000001
 43
0.0000001
 44
0.0000000001
 12
0.0000096882
 22
-0.5657062181
 32
0.0
 13
-0.0098336718
 23
-0.5656207424
 33
0.0
 40
0.0
 40
0.0
 40
0.0
 40
0.0
 40
0.2730824888
 40
0.5416689789
 40
0.7902032012
 40
1.0
 40
1.0
 40
1.0
 40
1.0
 10
-6.7474595772
 20
6.4220403632
 30
0.0
 10
-6.7474586953
 20
6.3705455426
 30
0.0
 10
-6.7476305295
 20
6.2684036207
 30
0.0
 10
-6.7484006586
 20
6.1193976522
 30
0.0
 10
-6.7496528135
 20
5.9823290638
 30
0.0
 10
-6.7508618624
 20
5.8959100787
 30
0.0
 10
-6.7515495534
 20
5.8563549383
 30
0.0
 11
-6.7474595772
 21
6.4220403632
 31
0.0
 11
-6.7477224582
 21
6.2675561249
 31
0.0
 11
-6.7485245421
 21
6.1156171944
 31
0.0
 11
-6.7498429071
 21
5.9750260206
 31
0.0
 11
-6.7515495534
 21
5.8563549383
 31
0.0
  0
SPLINE
  5
639
100
AcDbEntity
  8
RACCORDO
100
AcDbSpline
 62
253
  6
CONTINUOUS
 70
0
 71
3
 72
11
 73
7
 74
5
 42
0.0000001
 43
0.0000001
 44
0.0000000001
 12
-0.0098331854
 22
0.5656207508
 32
0.0
 13
0.0000098444
 23
0.5657062181
 33
0.0
 40
0.0
 40
0.0
 40
0.0
 40
0.0
 40
0.2097951049
 40
0.4583292293
 40
0.7269157337
 40
1.0
 40
1.0
 40
1.0
 40
1.0
 10
-7.5536598603
 20
5.8563549383
 30
0.0
 10
-7.5543475117
 20
5.8959097599
 30
0.0
 10
-7.5555566115
 20
5.9823284062
 30
0.0
 10
-7.5568087448
 20
6.1193966599
 30
0.0
 10
-7.5575788756
 20
6.2684029477
 30
0.0
 10
-7.5577507326
 20
6.3705452074
 30
0.0
 10
-7.5577498365
 20
6.4220403632
 30
0.0
 11
-7.5536598603
 21
5.8563549383
 31
0.0
 11
-7.555366496
 21
5.9750250625
 31
0.0
 11
-7.5566848647
 21
6.1156161808
 31
0.0
 11
-7.5574869508
 21
6.2675551194
 31
0.0
 11
-7.5577498365
 21
6.4220403632
 31
0.0
  0
SPLINE
  5
63A
100
AcDbEntity
  8
RACCORDO
100
AcDbSpline
 62
253
  6
CONTINUOUS
 70
0
 71
3
 72
11
 73
7
 74
5
 42
0.0000001
 43
0.0000001
 44
0.0000000001
 12
-0.0000003835
 22
0.1414265542
 32
0.0
 13
-0.0024684792
 23
0.1414050099
 33
0.0
 40
0.0
 40
0.0
 40
0.0
 40
0.0
 40
0.2753968051
 40
0.5412973202
 40
0.7858857424
 40
1.0
 40
1.0
 40
1.0
 40
1.0
 10
-7.5402947715
 20
5.0078268009
 30
0.0
 10
-7.5402948067
 20
5.0208096079
 30
0.0
 10
-7.540337724
 20
5.0463275674
 30
0.0
 10
-7.5405297502
 20
5.0833755264
 30
0.0
 10
-7.54084112
 20
5.1175335709
 30
0.0
 10
-7.5411410867
 20
5.1391558809
 30
0.0
 10
-7.5413172656
 20
5.1492481571
 30
0.0
 11
-7.5402947715
 21
5.0078268009
 31
0.0
 11
-7.5403616039
 21
5.0467751647
 31
0.0
 11
-7.5405606312
 21
5.0843800316
 31
0.0
 11
-7.5408834596
 21
5.1189698229
 31
0.0
 11
-7.5413172656
 21
5.1492481571
 31
0.0
  0
SPLINE
  5
63B
100
AcDbEntity
  8
RACCORDO
100
AcDbSpline
 62
253
  6
CONTINUOUS
 70
0
 71
3
 72
13
 73
9
 74
7
 42
0.0000001
 43
0.0000001
 44
0.0000000001
 12
0.141041107
 22
0.141873385
 32
0.0
 13
0.0000012265
 23
0.2000516215
 33
0.0
 40
0.0
 40
0.0
 40
0.0
 40
0.0
 40
0.0379383612
 40
0.1398218345
 40
0.2991571384
 40
0.5055293226
 40
0.744720332
 40
1.0
 40
1.0
 40
1.0
 40
1.0
 10
-7.5437248579
 20
3.4237677395
 30
0.0
 10
-7.5419412351
 20
3.4255618874
 30
0.0
 10
-7.5440767242
 20
3.4364465208
 30
0.0
 10
-7.5409290126
 20
3.4549789626
 30
0.0
 10
-7.5415734963
 20
3.4868898477
 30
0.0
 10
-7.5405553384
 20
3.5269310807
 30
0.0
 10
-7.5404101628
 20
3.5737656583
 30
0.0
 10
-7.5402948759
 20
3.6067142414
 30
0.0
 10
-7.5402947715
 20
3.6237372785
 30
0.0
 11
-7.5437248579
 21
3.4237677395
 31
0.0
 11
-7.5428345639
 21
3.4313049718
 31
0.0
 11
-7.5420064055
 21
3.451670094
 31
0.0
 11
-7.5412961333
 21
3.4835374655
 31
0.0
 11
-7.5407516673
 21
3.5248189652
 31
0.0
 11
-7.5404104863
 21
3.5726682981
 31
0.0
 11
-7.5402947715
 21
3.6237372785
 31
0.0
  0
SPLINE
  5
63C
100
AcDbEntity
  8
RACCORDO
100
AcDbSpline
 62
253
  6
CONTINUOUS
 70
0
 71
3
 72
9
 73
5
 74
3
 42
0.0000001
 43
0.0000001
 44
0.0000000001
 12
0.0003603392
 22
-6.1661325534
 32
0.0
 13
0.0019281047
 23
-6.1661322625
 33
0.0
 40
0.0
 40
0.0
 40
0.0
 40
0.0
 40
0.5000355593
 40
1.0
 40
1.0
 40
1.0
 40
1.0
 10
11.1205422144
 20
7.9974277241
 30
0.0
 10
11.1206022752
 20
6.9696658773
 30
0.0
 10
11.1208530213
 20
4.9142883651
 30
0.0
 10
11.1213650477
 20
2.8589109013
 30
0.0
 10
11.1216863757
 20
1.8312952788
 30
0.0
 11
11.1205422144
 21
7.9974277241
 31
0.0
 11
11.1209183685
 21
4.9141422015
 31
0.0
 11
11.1216863757
 21
1.8312952788
 31
0.0
  0
LINE
  5
63D
100
AcDbEntity
  8
RACCORDO
100
AcDbLine
 62
253
  6
CONTINUOUS
 10
11.1219264831
 20
1.0988119928
 11
11.1227240643
 21
-0.9697424099
  0
LINE
  5
63E
100
AcDbEntity
  8
RACCORDO
100
AcDbLine
 62
253
  6
CONTINUOUS
 10
11.1246662073
 20
-4.798448283
 11
11.1254466687
 21
-6.0724650142
  0
LINE
  5
63F
100
AcDbEntity
  8
RACCORDO
100
AcDbLine
 62
253
  6
CONTINUOUS
 10
11.1259205544
 20
-6.7971939359
 11
11.126270967
 21
-7.3128803366
  0
LINE
  5
640
100
AcDbEntity
  8
RACCORDO
100
AcDbLine
 62
253
  6
CONTINUOUS
 10
-11.1306560824
 20
-6.0724650142
 11
-11.129875621
 21
-4.798448283
  0
LINE
  5
641
100
AcDbEntity
  8
RACCORDO
100
AcDbLine
 62
253
  6
CONTINUOUS
 10
-11.1314803807
 20
-7.3128803366
 11
-11.1311299681
 21
-6.7971939359
  0
LINE
  5
642
100
AcDbEntity
  8
RACCORDO
100
AcDbLine
 62
253
  6
CONTINUOUS
 10
-11.1279334781
 20
-0.9697424099
 11
-11.1271358968
 21
1.0988119928
  0
SPLINE
  5
643
100
AcDbEntity
  8
RACCORDO
100
AcDbSpline
 62
253
  6
CONTINUOUS
 70
0
 71
3
 72
9
 73
5
 74
3
 42
0.0000001
 43
0.0000001
 44
0.0000000001
 12
0.0019281047
 22
6.1661322625
 32
0.0
 13
0.0003603392
 23
6.1661325534
 33
0.0
 40
0.0
 40
0.0
 40
0.0
 40
0.0
 40
0.4999644622
 40
1.0
 40
1.0
 40
1.0
 40
1.0
 10
-11.1268957894
 20
1.8312952788
 30
0.0
 10
-11.1265744614
 20
2.8589109455
 30
0.0
 10
-11.126062435
 20
4.9142884093
 30
0.0
 10
-11.1258116889
 20
6.9696659215
 30
0.0
 10
-11.1257516281
 20
7.9974277241
 30
0.0
 11
-11.1268957894
 21
1.8312952788
 31
0.0
 11
-11.1261277822
 21
4.914142334
 31
0.0
 11
-11.1257516281
 21
7.9974277241
 31
0.0
  0
SPLINE
  5
644
100
AcDbEntity
  8
RACCORDO
100
AcDbSpline
 62
7
  6
CONTINUOUS
 70
0
 71
3
 72
12
 73
8
 74
6
 42
0.0000001
 43
0.0000001
 44
0.0000000001
 12
0.3000709641
 22
-0.0
 32
0.0
 13
0.2121822176
 23
0.2121822095
 33
0.0
 40
0.0
 40
0.0
 40
0.0
 40
0.0
 40
0.3041016913
 40
0.5820964833
 40
0.8023227261
 40
0.9471197879
 40
1.0
 40
1.0
 40
1.0
 40
1.0
 10
10.820588148
 20
7.9922828661
 30
0.0
 10
10.8510055106
 20
7.9922828661
 30
0.0
 10
10.9093837966
 20
7.9921515372
 30
0.0
 10
10.9890296149
 20
7.9939164963
 30
0.0
 10
11.054895244
 20
7.9920905682
 30
0.0
 10
11.0936352452
 20
7.9988246078
 30
0.0
 10
11.1168021342
 20
7.993687644
 30
0.0
 10
11.1205422144
 20
7.9974277241
 30
0.0
 11
10.820588148
 21
7.9922828661
 31
0.0
 11
10.9118398984
 21
7.9925309752
 31
0.0
 11
10.9952548614
 21
7.9932618891
 31
0.0
 11
11.0613286528
 21
7.9943946728
 31
0.0
 11
11.1047539859
 21
7.9958404519
 31
0.0
 11
11.1205422144
 21
7.9974277241
 31
0.0
  0
SPLINE
  5
645
100
AcDbEntity
  8
RACCORDO
100
AcDbSpline
 62
7
  6
CONTINUOUS
 70
0
 71
3
 72
12
 73
8
 74
6
 42
0.0000001
 43
0.0000001
 44
0.0000000001
 12
0.2121822176
 22
-0.2121822095
 32
0.0
 13
0.3000709641
 23
0.0
 33
0.0
 40
0.0
 40
0.0
 40
0.0
 40
0.0
 40
0.0528802121
 40
0.1976772739
 40
0.4179035167
 40
0.6958983087
 40
1.0
 40
1.0
 40
1.0
 40
1.0
 10
-11.1257516281
 20
7.9974277241
 30
0.0
 10
-11.1220115479
 20
7.993687644
 30
0.0
 10
-11.098844659
 20
7.9988246078
 30
0.0
 10
-11.0601046577
 20
7.9920905682
 30
0.0
 10
-10.9942390286
 20
7.9939164963
 30
0.0
 10
-10.9145932103
 20
7.9921515372
 30
0.0
 10
-10.8562149243
 20
7.9922828661
 30
0.0
 10
-10.8257975617
 20
7.9922828661
 30
0.0
 11
-11.1257516281
 21
7.9974277241
 31
0.0
 11
-11.1099633996
 21
7.9958404519
 31
0.0
 11
-11.0665380665
 21
7.9943946728
 31
0.0
 11
-11.0004642751
 21
7.9932618891
 31
0.0
 11
-10.9170493121
 21
7.9925309752
 31
0.0
 11
-10.8257975617
 21
7.9922828661
 31
0.0
  0
SPLINE
  5
646
100
AcDbEntity
  8
RACCORDO
100
AcDbSpline
 62
7
  6
CONTINUOUS
 70
0
 71
3
 72
12
 73
8
 74
6
 42
0.0000001
 43
0.0000001
 44
0.0000000001
 12
0.3000740987
 22
-0.0
 32
0.0
 13
0.2121856528
 23
0.2121832073
 33
0.0
 40
0.0
 40
0.0
 40
0.0
 40
0.0
 40
0.3040972291
 40
0.5820915378
 40
0.8023192843
 40
0.9471184771
 40
1.0
 40
1.0
 40
1.0
 40
1.0
 10
10.8247090134
 20
-4.8035933487
 30
0.0
 10
10.8551262473
 20
-4.8035933487
 30
0.0
 10
10.9135046423
 20
-4.8037246645
 30
0.0
 10
10.9931509646
 20
-4.8019597012
 30
0.0
 10
11.0590175739
 20
-4.8037855898
 30
0.0
 10
11.0977584884
 20
-4.7970514504
 30
0.0
 10
11.1209259738
 20
-4.8021884734
 30
0.0
 10
11.1246662073
 20
-4.798448283
 30
0.0
 11
10.8247090134
 21
-4.8035933487
 31
0.0
 11
10.915960378
 21
-4.8033452341
 31
0.0
 11
10.9993760672
 21
-4.8026142982
 31
0.0
 11
11.0654509995
 21
-4.801481472
 31
0.0
 11
11.1088774246
 21
-4.8000356313
 31
0.0
 11
11.1246662073
 21
-4.798448283
 31
0.0
  0
SPLINE
  5
647
100
AcDbEntity
  8
RACCORDO
100
AcDbSpline
 62
7
  6
CONTINUOUS
 70
0
 71
3
 72
12
 73
8
 74
6
 42
0.0000001
 43
0.0000001
 44
0.0000000001
 12
0.2121856528
 22
-0.2121832073
 32
0.0
 13
0.3000740987
 23
0.0
 33
0.0
 40
0.0
 40
0.0
 40
0.0
 40
0.0
 40
0.0528815229
 40
0.1976807157
 40
0.4179084622
 40
0.6959027709
 40
1.0
 40
1.0
 40
1.0
 40
1.0
 10
-11.129875621
 20
-4.798448283
 30
0.0
 10
-11.1261353875
 20
-4.8021884734
 30
0.0
 10
-11.1029679021
 20
-4.7970514504
 30
0.0
 10
-11.0642269876
 20
-4.8037855898
 30
0.0
 10
-10.9983603784
 20
-4.8019597012
 30
0.0
 10
-10.918714056
 20
-4.8037246645
 30
0.0
 10
-10.8603356611
 20
-4.8035933487
 30
0.0
 10
-10.8299184271
 20
-4.8035933487
 30
0.0
 11
-11.129875621
 21
-4.798448283
 31
0.0
 11
-11.1140868383
 21
-4.8000356313
 31
0.0
 11
-11.0706604133
 21
-4.801481472
 31
0.0
 11
-11.0045854809
 21
-4.8026142982
 31
0.0
 11
-10.9211697917
 21
-4.8033452341
 31
0.0
 11
-10.8299184271
 21
-4.8035933487
 31
0.0
  0
SPLINE
  5
648
100
AcDbEntity
  8
RACCORDO
100
AcDbSpline
 62
7
  6
CONTINUOUS
 70
0
 71
3
 72
12
 73
8
 74
6
 42
0.0000001
 43
0.0000001
 44
0.0000000001
 12
-0.2121859816
 22
0.212186588
 32
0.0
 13
-0.3000767217
 23
0.0
 33
0.0
 40
0.0
 40
0.0
 40
0.0
 40
0.0
 40
0.0529127559
 40
0.197756379
 40
0.4180080058
 40
0.6959861204
 40
1.0
 40
1.0
 40
1.0
 40
1.0
 10
11.1227240643
 20
-0.9697424099
 30
0.0
 10
11.118981616
 20
-0.9659999509
 30
0.0
 10
11.095805002
 20
-0.9711378484
 30
0.0
 10
11.0570543742
 20
-0.9644024146
 30
0.0
 10
10.9911820659
 20
-0.9662272092
 30
0.0
 10
10.9115424386
 20
-0.964462413
 30
0.0
 10
10.8531735695
 20
-0.9645935027
 30
0.0
 10
10.8227644067
 20
-0.9645935027
 30
0.0
 11
11.1227240643
 21
-0.9697424099
 31
0.0
 11
11.1069258852
 21
-0.9681534451
 31
0.0
 11
11.0634857785
 21
-0.9667064562
 31
0.0
 11
10.9974031135
 21
-0.9655729268
 31
0.0
 11
10.9139915575
 21
-0.9648416667
 31
0.0
 11
10.8227644067
 21
-0.9645935027
 31
0.0
  0
SPLINE
  5
649
100
AcDbEntity
  8
RACCORDO
100
AcDbSpline
 62
7
  6
CONTINUOUS
 70
0
 71
3
 72
12
 73
8
 74
6
 42
0.0000001
 43
0.0000001
 44
0.0000000001
 12
-0.3000767217
 22
-0.0
 32
0.0
 13
-0.2121859816
 23
-0.212186588
 33
0.0
 40
0.0
 40
0.0
 40
0.0
 40
0.0
 40
0.3040138796
 40
0.5819919942
 40
0.802243621
 40
0.9470872441
 40
1.0
 40
1.0
 40
1.0
 40
1.0
 10
-10.8279738204
 20
-0.9645935027
 30
0.0
 10
-10.8583829832
 20
-0.9645935027
 30
0.0
 10
-10.9167518523
 20
-0.964462413
 30
0.0
 10
-10.9963914796
 20
-0.9662272092
 30
0.0
 10
-11.0622637879
 20
-0.9644024146
 30
0.0
 10
-11.1010144157
 20
-0.9711378484
 30
0.0
 10
-11.1241910297
 20
-0.9659999509
 30
0.0
 10
-11.1279334781
 20
-0.9697424099
 30
0.0
 11
-10.8279738204
 21
-0.9645935027
 31
0.0
 11
-10.9192009712
 21
-0.9648416667
 31
0.0
 11
-11.0026125272
 21
-0.9655729268
 31
0.0
 11
-11.0686951922
 21
-0.9667064562
 31
0.0
 11
-11.1121352989
 21
-0.9681534451
 31
0.0
 11
-11.1279334781
 21
-0.9697424099
 31
0.0
  0
SPLINE
  5
64A
100
AcDbEntity
  8
RACCORDO
100
AcDbSpline
 62
7
  6
CONTINUOUS
 70
0
 71
3
 72
12
 73
8
 74
6
 42
0.0000001
 43
0.0000001
 44
0.0000000001
 12
0.2121872725
 22
-0.2121835264
 32
0.0
 13
0.3000754696
 23
0.0
 33
0.0
 40
0.0
 40
0.0
 40
0.0
 40
0.0
 40
0.0528851833
 40
0.1976896626
 40
0.4179203758
 40
0.6959128578
 40
1.0
 40
1.0
 40
1.0
 40
1.0
 10
-11.1311299681
 20
-6.7971939359
 30
0.0
 10
-11.1273894472
 20
-6.8009343908
 30
0.0
 10
-11.1042208337
 20
-6.795797271
 30
0.0
 10
-11.0654785915
 20
-6.8025315648
 30
0.0
 10
-10.9996110628
 20
-6.8007058082
 30
0.0
 10
-10.919965245
 20
-6.8024707531
 30
0.0
 10
-10.8615877859
 20
-6.8023394661
 30
0.0
 10
-10.8311714219
 20
-6.8023394661
 30
0.0
 11
-11.1311299681
 21
-6.7971939359
 31
0.0
 11
-11.1153400278
 21
-6.7987814755
 31
0.0
 11
-11.0719118216
 21
-6.8002274549
 31
0.0
 11
-11.0058356984
 21
-6.8013603676
 31
0.0
 11
-10.9224201766
 21
-6.8020913442
 31
0.0
 11
-10.8311714219
 21
-6.8023394661
 31
0.0
  0
SPLINE
  5
64B
100
AcDbEntity
  8
RACCORDO
100
AcDbSpline
 62
7
  6
CONTINUOUS
 70
0
 71
3
 72
12
 73
8
 74
6
 42
0.0000001
 43
0.0000001
 44
0.0000000001
 12
-0.300081786
 22
0.0
 32
0.0
 13
-0.2121906568
 23
-0.2121890748
 33
0.0
 40
0.0
 40
0.0
 40
0.0
 40
0.0
 40
0.3039485293
 40
0.5819142421
 40
0.8021848151
 40
0.9470630692
 40
1.0
 40
1.0
 40
1.0
 40
1.0
 10
-10.8306914839
 20
-6.0673130916
 30
0.0
 10
-10.8610946231
 20
-6.0673130916
 30
0.0
 10
-10.919456634
 20
-6.067182183
 30
0.0
 10
-10.9990918761
 20
-6.0689468537
 30
0.0
 10
-11.0649693076
 20
-6.0671229155
 30
0.0
 10
-11.1037279904
 20
-6.0738593623
 30
0.0
 10
-11.1269118417
 20
-6.0687208014
 30
0.0
 10
-11.1306560824
 20
-6.0724650142
 30
0.0
 11
-10.8306914839
 21
-6.0673130916
 31
0.0
 11
-10.9219005637
 21
-6.067561298
 31
0.0
 11
-11.0053098035
 21
-6.0682928165
 31
0.0
 11
-11.0713992608
 21
-6.0694269021
 31
0.0
 11
-11.1148504693
 21
-6.0708747919
 31
0.0
 11
-11.1306560824
 21
-6.0724650142
 31
0.0
  0
SPLINE
  5
64C
100
AcDbEntity
  8
RACCORDO
100
AcDbSpline
 62
7
  6
CONTINUOUS
 70
0
 71
3
 72
12
 73
8
 74
6
 42
0.0000001
 43
0.0000001
 44
0.0000000001
 12
0.212182242
 22
-0.2121828612
 32
0.0
 13
0.3000714422
 23
-0.0
 33
0.0
 40
0.0
 40
0.0
 40
0.0
 40
0.0
 40
0.0528761536
 40
0.1976675351
 40
0.4178908253
 40
0.6958877974
 40
1.0
 40
1.0
 40
1.0
 40
1.0
 10
-11.1271358968
 20
1.0988119928
 30
0.0
 10
-11.1233961032
 20
1.0950721883
 30
0.0
 10
-11.1002303058
 20
1.1002090753
 30
0.0
 10
-11.0614914574
 20
1.0934751618
 30
0.0
 10
-10.9956263465
 20
1.0953012475
 30
0.0
 10
-10.9159794539
 20
1.0935362572
 30
0.0
 10
-10.8575997944
 20
1.0936676169
 30
0.0
 10
-10.827181332
 20
1.0936676169
 30
0.0
 11
-11.1271358968
 21
1.0988119928
 31
0.0
 11
-11.1113488462
 21
1.0972249263
 31
0.0
 11
-11.0679251445
 21
1.0957792913
 31
0.0
 11
-11.0018521325
 21
1.0946465945
 31
0.0
 11
-10.9184363819
 21
1.0939157199
 31
0.0
 11
-10.827181332
 21
1.0936676169
 31
0.0
  0
SPLINE
  5
64D
100
AcDbEntity
  8
RACCORDO
100
AcDbSpline
 62
7
  6
CONTINUOUS
 70
0
 71
3
 72
12
 73
8
 74
6
 42
0.0000001
 43
0.0000001
 44
0.0000000001
 12
-0.3000746033
 22
-0.0
 32
0.0
 13
-0.2121845123
 23
-0.2121850614
 33
0.0
 40
0.0
 40
0.0
 40
0.0
 40
0.0
 40
0.3040426971
 40
0.5820262833
 40
0.8022695576
 40
0.9470979026
 40
1.0
 40
1.0
 40
1.0
 40
1.0
 10
-10.8269381956
 20
1.8364428559
 30
0.0
 10
-10.8573500262
 20
1.8364428559
 30
0.0
 10
-10.9157219411
 20
1.8365740242
 30
0.0
 10
-10.9953635367
 20
1.8348091756
 30
0.0
 10
-11.0612336016
 20
1.8366343405
 30
0.0
 10
-11.0999807103
 20
1.829899368
 30
0.0
 10
-11.1231541208
 20
1.835036957
 30
0.0
 10
-11.1268957894
 20
1.8312952788
 30
0.0
 11
-10.8269381956
 21
1.8364428559
 31
0.0
 11
-10.9181733499
 21
1.8361947102
 31
0.0
 11
-11.0015859599
 21
1.8354635641
 31
0.0
 11
-11.0676656557
 21
1.8343302799
 31
0.0
 11
-11.1111008815
 21
1.8328836884
 31
0.0
 11
-11.1268957894
 21
1.8312952788
 31
0.0
  0
SPLINE
  5
64E
100
AcDbEntity
  8
RACCORDO
100
AcDbSpline
 62
7
  6
CONTINUOUS
 70
0
 71
3
 72
12
 73
8
 74
6
 42
0.0000001
 43
0.0000001
 44
0.0000000001
 12
-0.2121906568
 22
0.2121890748
 32
0.0
 13
-0.300081786
 23
-0.0
 33
0.0
 40
0.0
 40
0.0
 40
0.0
 40
0.0
 40
0.0529369308
 40
0.1978151849
 40
0.4180857579
 40
0.6960514707
 40
1.0
 40
1.0
 40
1.0
 40
1.0
 10
11.1254466687
 20
-6.0724650142
 30
0.0
 10
11.121702428
 20
-6.0687208014
 30
0.0
 10
11.0985185767
 20
-6.0738593623
 30
0.0
 10
11.0597598939
 20
-6.0671229155
 30
0.0
 10
10.9938824624
 20
-6.0689468537
 30
0.0
 10
10.9142472203
 20
-6.067182183
 30
0.0
 10
10.8558852094
 20
-6.0673130916
 30
0.0
 10
10.8254820702
 20
-6.0673130916
 30
0.0
 11
11.1254466687
 21
-6.0724650142
 31
0.0
 11
11.1096410556
 21
-6.0708747919
 31
0.0
 11
11.0661898471
 21
-6.0694269021
 31
0.0
 11
11.0001003898
 21
-6.0682928165
 31
0.0
 11
10.91669115
 21
-6.067561298
 31
0.0
 11
10.8254820702
 21
-6.0673130916
 31
0.0
  0
SPLINE
  5
64F
100
AcDbEntity
  8
RACCORDO
100
AcDbSpline
 62
7
  6
CONTINUOUS
 70
0
 71
3
 72
12
 73
8
 74
6
 42
0.0000001
 43
0.0000001
 44
0.0000000001
 12
0.3000754696
 22
-0.0
 32
0.0
 13
0.2121872724
 23
0.2121835264
 33
0.0
 40
0.0
 40
0.0
 40
0.0
 40
0.0
 40
0.3040871422
 40
0.5820796242
 40
0.8023103374
 40
0.9471148167
 40
1.0
 40
1.0
 40
1.0
 40
1.0
 10
10.8259620082
 20
-6.8023394661
 30
0.0
 10
10.8563783722
 20
-6.8023394661
 30
0.0
 10
10.9147558313
 20
-6.8024707531
 30
0.0
 10
10.9944016491
 20
-6.8007058082
 30
0.0
 10
11.0602691778
 20
-6.8025315648
 30
0.0
 10
11.0990114199
 20
-6.795797271
 30
0.0
 10
11.1221800335
 20
-6.8009343908
 30
0.0
 10
11.1259205544
 20
-6.7971939359
 30
0.0
 11
10.8259620082
 21
-6.8023394661
 31
0.0
 11
10.9172107628
 21
-6.8020913442
 31
0.0
 11
11.0006262847
 21
-6.8013603676
 31
0.0
 11
11.0667024079
 21
-6.8002274549
 31
0.0
 11
11.1101306141
 21
-6.7987814755
 31
0.0
 11
11.1259205544
 21
-6.7971939359
 31
0.0
  0
SPLINE
  5
650
100
AcDbEntity
  8
RACCORDO
100
AcDbSpline
 62
7
  6
CONTINUOUS
 70
0
 71
3
 72
12
 73
8
 74
6
 42
0.0000001
 43
0.0000001
 44
0.0000000001
 12
-0.2121845123
 22
0.2121850614
 32
0.0
 13
-0.3000746033
 23
0.0
 33
0.0
 40
0.0
 40
0.0
 40
0.0
 40
0.0
 40
0.0529020974
 40
0.1977304424
 40
0.4179737167
 40
0.6959573029
 40
1.0
 40
1.0
 40
1.0
 40
1.0
 10
11.1216863757
 20
1.8312952788
 30
0.0
 10
11.1179447071
 20
1.835036957
 30
0.0
 10
11.0947712966
 20
1.829899368
 30
0.0
 10
11.0560241879
 20
1.8366343405
 30
0.0
 10
10.990154123
 20
1.8348091756
 30
0.0
 10
10.9105125274
 20
1.8365740242
 30
0.0
 10
10.8521406125
 20
1.8364428559
 30
0.0
 10
10.8217287819
 20
1.8364428559
 30
0.0
 11
11.1216863757
 21
1.8312952788
 31
0.0
 11
11.1058914678
 21
1.8328836884
 31
0.0
 11
11.062456242
 21
1.8343302799
 31
0.0
 11
10.9963765462
 21
1.8354635641
 31
0.0
 11
10.9129639361
 21
1.8361947102
 31
0.0
 11
10.8217287819
 21
1.8364428559
 31
0.0
  0
SPLINE
  5
651
100
AcDbEntity
  8
RACCORDO
100
AcDbSpline
 62
7
  6
CONTINUOUS
 70
0
 71
3
 72
12
 73
8
 74
6
 42
0.0000001
 43
0.0000001
 44
0.0000000001
 12
0.3000714422
 22
0.0
 32
0.0
 13
0.212182242
 23
0.2121828612
 33
0.0
 40
0.0
 40
0.0
 40
0.0
 40
0.0
 40
0.3041122026
 40
0.5821091747
 40
0.8023324649
 40
0.9471238464
 40
1.0
 40
1.0
 40
1.0
 40
1.0
 10
10.8219719183
 20
1.0936676169
 30
0.0
 10
10.8523903807
 20
1.0936676169
 30
0.0
 10
10.9107700402
 20
1.0935362572
 30
0.0
 10
10.9904169328
 20
1.0953012475
 30
0.0
 10
11.0562820437
 20
1.0934751618
 30
0.0
 10
11.0950208921
 20
1.1002090753
 30
0.0
 10
11.1181866895
 20
1.0950721883
 30
0.0
 10
11.1219264831
 20
1.0988119928
 30
0.0
 11
10.8219719183
 21
1.0936676169
 31
0.0
 11
10.9132269682
 21
1.0939157199
 31
0.0
 11
10.9966427187
 21
1.0946465945
 31
0.0
 11
11.0627157308
 21
1.0957792913
 31
0.0
 11
11.1061394325
 21
1.0972249263
 31
0.0
 11
11.1219264831
 21
1.0988119928
 31
0.0
  0
SPLINE
  5
652
100
AcDbEntity
  8
RACCORDO
100
AcDbSpline
 62
253
  6
CONTINUOUS
 70
0
 71
3
 72
11
 73
7
 74
5
 42
0.0000001
 43
0.0000001
 44
0.0000000001
 12
0.000000661
 22
-0.353571321
 32
0.0
 13
-0.0098781864
 23
-0.3534333042
 33
0.0
 40
0.0
 40
0.0
 40
0.0
 40
0.0
 40
0.2733034014
 40
0.5418653407
 40
0.7898898962
 40
1.0
 40
1.0
 40
1.0
 40
1.0
 10
7.2525860727
 20
6.4220250266
 30
0.0
 10
7.2525861329
 20
6.3898142784
 30
0.0
 10
7.2524151343
 20
6.3259514655
 30
0.0
 10
7.251645225
 20
6.2328599512
 30
0.0
 10
7.2503906711
 20
6.1472221975
 30
0.0
 10
7.2491879737
 20
6.0932402754
 30
0.0
 10
7.2484961381
 20
6.0684869727
 30
0.0
 11
7.2525860727
 21
6.4220250266
 31
0.0
 11
7.2523227785
 21
6.3253931406
 31
0.0
 11
7.2515202587
 21
6.2304407323
 31
0.0
 11
7.2502045262
 21
6.1427562335
 31
0.0
 11
7.2484961381
 21
6.0684869727
 31
0.0
  0
SPLINE
  5
653
100
AcDbEntity
  8
RACCORDO
100
AcDbSpline
 62
253
  6
CONTINUOUS
 70
0
 71
3
 72
11
 73
7
 74
5
 42
0.0000001
 43
0.0000001
 44
0.0000000001
 12
0.000000661
 22
-0.353571321
 32
0.0
 13
-0.0098781864
 23
-0.3534333042
 33
0.0
 40
0.0
 40
0.0
 40
0.0
 40
0.0
 40
0.2733034014
 40
0.5418653407
 40
0.7898898962
 40
1.0
 40
1.0
 40
1.0
 40
1.0
 10
-7.0474139273
 20
6.4220250266
 30
0.0
 10
-7.0474138671
 20
6.3898142784
 30
0.0
 10
-7.0475848657
 20
6.3259514655
 30
0.0
 10
-7.048354775
 20
6.2328599512
 30
0.0
 10
-7.0496093289
 20
6.1472221975
 30
0.0
 10
-7.0508120263
 20
6.0932402754
 30
0.0
 10
-7.0515038619
 20
6.0684869727
 30
0.0
 11
-7.0474139273
 21
6.4220250266
 31
0.0
 11
-7.0476772215
 21
6.3253931406
 31
0.0
 11
-7.0484797413
 21
6.2304407323
 31
0.0
 11
-7.0497954738
 21
6.1427562335
 31
0.0
 11
-7.0515038619
 21
6.0684869727
 31
0.0
  0
SPLINE
  5
654
100
AcDbEntity
  8
RACCORDO
100
AcDbSpline
 62
253
  6
CONTINUOUS
 70
0
 71
3
 72
11
 73
7
 74
5
 42
0.0000001
 43
0.0000001
 44
0.0000000001
 12
-0.0098781004
 22
0.3534330094
 32
0.0
 13
0.0000006738
 23
0.3535710239
 33
0.0
 40
0.0
 40
0.0
 40
0.0
 40
0.0
 40
0.210108614
 40
0.4581332567
 40
0.7266954159
 40
1.0
 40
1.0
 40
1.0
 40
1.0
 10
-7.2537055518
 20
6.0684869727
 30
0.0
 10
-7.2543973765
 20
6.0932400792
 30
0.0
 10
-7.2556000845
 20
6.1472217903
 30
0.0
 10
-7.2568546277
 20
6.2328593329
 30
0.0
 10
-7.2576245453
 20
6.3259509444
 30
0.0
 10
-7.257795547
 20
6.389813869
 30
0.0
 10
-7.2577954856
 20
6.4220247295
 30
0.0
 11
-7.2537055518
 21
6.0684869727
 31
0.0
 11
-7.2554139311
 21
6.1427556444
 31
0.0
 11
-7.2567296639
 21
6.2304401003
 31
0.0
 11
-7.2575321881
 21
6.3253925066
 31
0.0
 11
-7.2577954856
 21
6.4220247295
 31
0.0
  0
SPLINE
  5
655
100
AcDbEntity
  8
RACCORDO
100
AcDbSpline
 62
7
  6
CONTINUOUS
 70
0
 71
3
 72
11
 73
7
 74
5
 42
0.0000001
 43
0.0000001
 44
0.0000000001
 12
0.1877591309
 22
0.0090044277
 32
0.0
 13
0.1879749211
 23
0.0
 33
0.0
 40
0.0
 40
0.0
 40
0.0
 40
0.0
 40
0.1555665837
 40
0.3898430933
 40
0.6801151059
 40
1.0
 40
1.0
 40
1.0
 40
1.0
 10
4.2393423322
 20
5.6385260814
 30
0.0
 10
4.249078681
 20
5.6389930107
 30
0.0
 10
4.273500857
 20
5.6396214488
 30
0.0
 10
4.3161092412
 20
5.6403004008
 30
0.0
 10
4.3690193191
 20
5.6407233735
 30
0.0
 10
4.4072506147
 20
5.6408235937
 30
0.0
 10
4.4272940606
 20
5.6408235937
 30
0.0
 11
4.2393423322
 21
5.6385260814
 31
0.0
 11
4.2685701442
 21
5.6394564661
 31
0.0
 11
4.312602102
 21
5.6401924568
 31
0.0
 11
4.3671639399
 21
5.6406620529
 31
0.0
 11
4.4272940606
 21
5.6408235937
 31
0.0
  0
SPLINE
  5
656
100
AcDbEntity
  8
RACCORDO
100
AcDbSpline
 62
7
  6
CONTINUOUS
 70
0
 71
3
 72
11
 73
7
 74
5
 42
0.0000001
 43
0.0000001
 44
0.0000000001
 12
-0.1879629201
 22
0.0
 32
0.0
 13
-0.1877471435
 23
0.009003857
 33
0.0
 40
0.0
 40
0.0
 40
0.0
 40
0.0
 40
0.3199428211
 40
0.6102303145
 40
0.8444792159
 40
1.0
 40
1.0
 40
1.0
 40
1.0
 10
4.4207711554
 20
3.9893565402
 30
0.0
 10
4.4007253597
 20
3.9893565402
 30
0.0
 10
4.3624919058
 20
3.9894567434
 30
0.0
 10
4.3095823354
 20
3.9898796247
 30
0.0
 10
4.2669802997
 20
3.9905583829
 30
0.0
 10
4.2425642781
 20
3.991186567
 30
0.0
 10
4.2328314171
 20
3.9916533293
 30
0.0
 11
4.4207711554
 21
3.9893565402
 31
0.0
 11
4.3606339854
 21
3.9895180685
 31
0.0
 11
4.3060727206
 21
3.9899875827
 31
0.0
 11
4.2620487609
 21
3.9907233431
 31
0.0
 11
4.2328314171
 21
3.9916533293
 31
0.0
  0
SPLINE
  5
657
100
AcDbEntity
  8
RACCORDO
100
AcDbSpline
 62
7
  6
CONTINUOUS
 70
0
 71
3
 72
11
 73
7
 74
5
 42
0.0000001
 43
0.0000001
 44
0.0000000001
 12
-0.1877471435
 22
-0.009003857
 32
0.0
 13
-0.1879629201
 23
0.0
 33
0.0
 40
0.0
 40
0.0
 40
0.0
 40
0.0
 40
0.1555207841
 40
0.3897696855
 40
0.6800571789
 40
1.0
 40
1.0
 40
1.0
 40
1.0
 10
-4.2380408308
 20
3.9916533293
 30
0.0
 10
-4.2477736918
 20
3.991186567
 30
0.0
 10
-4.2721897134
 20
3.9905583829
 30
0.0
 10
-4.3147917491
 20
3.9898796247
 30
0.0
 10
-4.3677013195
 20
3.9894567434
 30
0.0
 10
-4.4059347734
 20
3.9893565402
 30
0.0
 10
-4.4259805691
 20
3.9893565402
 30
0.0
 11
-4.2380408308
 21
3.9916533293
 31
0.0
 11
-4.2672581746
 21
3.9907233431
 31
0.0
 11
-4.3112821343
 21
3.9899875827
 31
0.0
 11
-4.3658433991
 21
3.9895180685
 31
0.0
 11
-4.4259805691
 21
3.9893565402
 31
0.0
  0
SPLINE
  5
658
100
AcDbEntity
  8
RACCORDO
100
AcDbSpline
 62
7
  6
CONTINUOUS
 70
0
 71
3
 72
11
 73
7
 74
5
 42
0.0000001
 43
0.0000001
 44
0.0000000001
 12
0.1879749211
 22
0.0
 32
0.0
 13
0.1877591309
 23
-0.0090044277
 33
0.0
 40
0.0
 40
0.0
 40
0.0
 40
0.0
 40
0.3198848941
 40
0.6101569067
 40
0.8444334163
 40
1.0
 40
1.0
 40
1.0
 40
1.0
 10
-4.4325034743
 20
5.6408235937
 30
0.0
 10
-4.4124600284
 20
5.6408235937
 30
0.0
 10
-4.3742287329
 20
5.6407233735
 30
0.0
 10
-4.3213186549
 20
5.6403004008
 30
0.0
 10
-4.2787102708
 20
5.6396214488
 30
0.0
 10
-4.2542880948
 20
5.6389930107
 30
0.0
 10
-4.2445517459
 20
5.6385260814
 30
0.0
 11
-4.4325034743
 21
5.6408235937
 31
0.0
 11
-4.3723733536
 21
5.6406620529
 31
0.0
 11
-4.3178115157
 21
5.6401924568
 31
0.0
 11
-4.2737795579
 21
5.6394564661
 31
0.0
 11
-4.2445517459
 21
5.6385260814
 31
0.0
  0
SPLINE
  5
659
100
AcDbEntity
  8
ASSI
100
AcDbSpline
 62
7
  6
CONTINUOUS
 70
0
 71
3
 72
9
 73
5
 74
3
 42
0.0000001
 43
0.0000001
 44
0.0000000001
 12
-0.0094537596
 22
0.4232572779
 32
0.0
 13
-0.4233861002
 23
-0.0063259668
 33
0.0
 40
0.0
 40
0.0
 40
0.0
 40
0.0
 40
0.479537544
 40
1.0
 40
1.0
 40
1.0
 40
1.0
 10
-1.3139328754
 20
-1.1244442735
 30
0.0
 10
-1.3154440196
 20
-1.056788355
 30
0.0
 10
-1.3440657911
 20
-0.8996462786
 30
0.0
 10
-1.5044987377
 20
-0.8477143389
 30
0.0
 10
-1.5779509276
 20
-0.848811815
 30
0.0
 11
-1.3139328754
 21
-1.1244442735
 31
0.0
 11
-1.373205252
 21
-0.9302710334
 31
0.0
 11
-1.5779509276
 21
-0.848811815
 31
0.0
  0
SPLINE
  5
65A
100
AcDbEntity
  8
ASSI
100
AcDbSpline
 62
7
  6
CONTINUOUS
 70
0
 71
3
 72
9
 73
5
 74
3
 42
0.0000001
 43
0.0000001
 44
0.0000000001
 12
-0.3133621804
 22
-0.004682097
 32
0.0
 13
-0.0361338581
 23
-0.3113313547
 33
0.0
 40
0.0
 40
0.0
 40
0.0
 40
0.0
 40
0.4988583522
 40
1.0
 40
1.0
 40
1.0
 40
1.0
 10
-1.5779509278
 20
-0.8488118003
 30
0.0
 10
-1.6300587081
 20
-0.849590368
 30
0.0
 10
-1.7387326653
 20
-0.8920149151
 30
0.0
 10
-1.7845498091
 20
-0.9972511604
 30
0.0
 10
-1.7905858695
 20
-1.0492581964
 30
0.0
 11
-1.5779509278
 21
-0.8488118003
 31
0.0
 11
-1.7228420056
 21
-0.9075493449
 31
0.0
 11
-1.7905858695
 21
-1.0492581964
 31
0.0
  0
SPLINE
  5
65B
100
AcDbEntity
  8
ASSI
100
AcDbSpline
 62
7
  6
CONTINUOUS
 70
0
 71
3
 72
9
 73
5
 74
3
 42
0.0000001
 43
0.0000001
 44
0.0000000001
 12
-0.0321345863
 22
-0.2768734098
 32
0.0
 13
0.0468836161
 23
-0.2747605688
 33
0.0
 40
0.0
 40
0.0
 40
0.0
 40
0.0
 40
0.7295958321
 40
1.0
 40
1.0
 40
1.0
 40
1.0
 10
-1.7905858694
 20
-1.0492581965
 30
0.0
 10
-1.7984009561
 20
-1.1165934251
 30
0.0
 10
-1.798702204
 20
-1.2105861137
 30
0.0
 10
-1.7848041996
 20
-1.3024595187
 30
0.0
 10
-1.7805783578
 20
-1.3272249863
 30
0.0
 11
-1.7905858694
 21
-1.0492581965
 31
0.0
 11
-1.7912821294
 21
-1.2526186568
 31
0.0
 11
-1.7805783578
 21
-1.3272249863
 31
0.0
  0
SPLINE
  5
65C
100
AcDbEntity
  8
ASSI
100
AcDbSpline
 62
7
  6
CONTINUOUS
 70
0
 71
3
 72
9
 73
5
 74
3
 42
0.0000001
 43
0.0000001
 44
0.0000000001
 12
-0.128341011
 22
0.8723735981
 32
0.0
 13
0.2997650463
 23
0.8292493193
 33
0.0
 40
0.0
 40
0.0
 40
0.0
 40
0.0
 40
0.7041528059
 40
1.0
 40
1.0
 40
1.0
 40
1.0
 10
-2.050306789
 20
-1.668859754
 30
0.0
 10
-2.0804306834
 20
-1.4640983151
 30
0.0
 10
-2.1100828848
 20
-1.1687039892
 30
0.0
 10
-2.0619265676
 20
-0.8748512897
 30
0.0
 10
-2.0323650183
 20
-0.7930742615
 30
0.0
 11
-2.050306789
 21
-1.668859754
 31
0.0
 11
-2.0836101559
 21
-1.0488572147
 31
0.0
 11
-2.0323650183
 21
-0.7930742615
 31
0.0
  0
SPLINE
  5
65D
100
AcDbEntity
  8
ASSI
100
AcDbSpline
 62
7
  6
CONTINUOUS
 70
0
 71
3
 72
20
 73
16
 74
14
 42
0.0000001
 43
0.0000001
 44
0.0000000001
 12
0.3602221359
 22
0.9969834579
 32
0.0
 13
0.1356584285
 23
-1.0513528212
 33
0.0
 40
0.0
 40
0.0
 40
0.0
 40
0.0
 40
0.079756987
 40
0.1893481532
 40
0.2529748389
 40
0.3223669702
 40
0.3985017405
 40
0.4831988921
 40
0.5372476303
 40
0.5875584989
 40
0.6787382851
 40
0.7596505358
 40
0.8314106377
 40
0.9440765302
 40
1.0
 40
1.0
 40
1.0
 40
1.0
 10
-2.0323650563
 20
-0.7930742462
 30
0.0
 10
-2.0227883122
 20
-0.7665687807
 30
0.0
 10
-1.9901286905
 20
-0.7073282281
 30
0.0
 10
-1.9304330565
 20
-0.6395625885
 30
0.0
 10
-1.8616714639
 20
-0.5878557705
 30
0.0
 10
-1.7960736272
 20
-0.5530905068
 30
0.0
 10
-1.7184191077
 20
-0.5275162477
 30
0.0
 10
-1.6428896873
 20
-0.5166217463
 30
0.0
 10
-1.576003349
 20
-0.5154328742
 30
0.0
 10
-1.5070388021
 20
-0.5208203341
 30
0.0
 10
-1.4297840957
 20
-0.5382435065
 30
0.0
 10
-1.3506930639
 20
-0.573144347
 30
0.0
 10
-1.2714387744
 20
-0.6251999587
 30
0.0
 10
-1.2156269051
 20
-0.6872123552
 30
0.0
 10
-1.1763584357
 20
-0.7370158026
 30
0.0
 10
-1.1738296056
 20
-0.7566142352
 30
0.0
 11
-2.0323650563
 21
-0.7930742462
 31
0.0
 11
-1.9931416658
 21
-0.7181737909
 31
0.0
 11
-1.9162966285
 21
-0.6310458352
 31
0.0
 11
-1.8623860963
 21
-0.5905121793
 31
0.0
 11
-1.7974053138
 21
-0.5560355822
 31
0.0
 11
-1.7207955997
 21
-0.530643677
 31
0.0
 11
-1.6319982731
 21
-0.5173640969
 31
0.0
 11
-1.5747117475
 21
-0.5163566349
 31
0.0
 11
-1.5215480716
 21
-0.5206029035
 31
0.0
 11
-1.4273297958
 21
-0.5421775033
 31
0.0
 11
-1.3488244998
 21
-0.5767296369
 31
0.0
 11
-1.2855132375
 21
-0.6189010449
 31
0.0
 11
-1.2023970301
 21
-0.7046686471
 31
0.0
 11
-1.1738296056
 21
-0.7566142352
 31
0.0
  0
SPLINE
  5
65E
100
AcDbEntity
  8
ASSI
100
AcDbSpline
 62
7
  6
CONTINUOUS
 70
0
 71
3
 72
9
 73
5
 74
3
 42
0.0000001
 43
0.0000001
 44
0.0000000001
 12
0.2092440046
 22
0.2567965258
 32
0.0
 13
0.3209543859
 23
0.0874412864
 33
0.0
 40
0.0
 40
0.0
 40
0.0
 40
0.0
 40
0.7111552999
 40
1.0
 40
1.0
 40
1.0
 40
1.0
 10
-1.1318361756
 20
-0.7029481155
 30
0.0
 10
-1.0822345146
 20
-0.6420740454
 30
0.0
 10
-0.9660833588
 20
-0.5875085378
 30
0.0
 10
-0.8612503303
 20
-0.5604962351
 30
0.0
 10
-0.8303483391
 20
-0.5520772511
 30
0.0
 11
-1.1318361756
 21
-0.7029481155
 31
0.0
 11
-0.9227555453
 21
-0.5783997547
 31
0.0
 11
-0.8303483391
 21
-0.5520772511
 31
0.0
  0
SPLINE
  5
65F
100
AcDbEntity
  8
ASSI
100
AcDbSpline
 62
7
  6
CONTINUOUS
 70
0
 71
3
 72
9
 73
5
 74
3
 42
0.0000001
 43
0.0000001
 44
0.0000000001
 12
0.4590342986
 22
0.125059974
 32
0.0
 13
0.4591324757
 23
0.1246990799
 33
0.0
 40
0.0
 40
0.0
 40
0.0
 40
0.0
 40
0.8019701206
 40
1.0
 40
1.0
 40
1.0
 40
1.0
 10
-0.8303483392
 20
-0.5520772508
 30
0.0
 10
-0.7076377419
 20
-0.5186457967
 30
0.0
 10
-0.5539994979
 20
-0.479302968
 30
0.0
 10
-0.4006113364
 20
-0.4390172407
 30
0.0
 10
-0.3703040202
 20
-0.4307858595
 30
0.0
 11
-0.8303483392
 21
-0.5520772508
 31
0.0
 11
-0.4613720218
 21
-0.4549358196
 31
0.0
 11
-0.3703040202
 21
-0.4307858595
 31
0.0
  0
SPLINE
  5
660
100
AcDbEntity
  8
ASSI
100
AcDbSpline
 62
7
  6
CONTINUOUS
 70
0
 71
3
 72
9
 73
5
 74
3
 42
0.0000001
 43
0.0000001
 44
0.0000000001
 12
-0.5174692086
 22
-0.1487744753
 32
0.0
 13
-0.5040219036
 23
-0.1893972716
 33
0.0
 40
0.0
 40
0.0
 40
0.0
 40
0.0
 40
0.4412847493
 40
1.0
 40
1.0
 40
1.0
 40
1.0
 10
-0.3703040202
 20
-0.7720892028
 30
0.0
 10
-0.4464211102
 20
-0.7939731719
 30
0.0
 10
-0.6182037466
 20
-0.845645092
 30
0.0
 10
-0.7919970224
 20
-0.8920139985
 30
0.0
 10
-0.8858652638
 20
-0.9272870465
 30
0.0
 11
-0.3703040202
 21
-0.7720892028
 31
0.0
 11
-0.5984227618
 21
-0.8385445648
 31
0.0
 11
-0.8858652638
 21
-0.9272870465
 31
0.0
  0
SPLINE
  5
661
100
AcDbEntity
  8
ASSI
100
AcDbSpline
 62
7
  6
CONTINUOUS
 70
0
 71
3
 72
9
 73
5
 74
3
 42
0.0000001
 43
0.0000001
 44
0.0000000001
 12
-0.243894777
 22
-0.0916489686
 32
0.0
 13
-0.0
 23
-0.2605161169
 33
0.0
 40
0.0
 40
0.0
 40
0.0
 40
0.0
 40
0.6439294634
 40
1.0
 40
1.0
 40
1.0
 40
1.0
 10
-0.8858652709
 20
-0.9272870278
 30
0.0
 10
-0.9382156151
 20
-0.9469588515
 30
0.0
 10
-1.0168211779
 20
-1.0053768834
 30
0.0
 10
-1.0355364227
 20
-1.0942883944
 30
0.0
 10
-1.0355364227
 20
-1.1252090989
 30
0.0
 11
-0.8858652709
 21
-0.9272870278
 31
0.0
 11
-1.0146152608
 21
-1.0348370087
 31
0.0
 11
-1.0355364227
 21
-1.1252090989
 31
0.0
  0
SPLINE
  5
662
100
AcDbEntity
  8
ASSI
100
AcDbSpline
 62
7
  6
CONTINUOUS
 70
0
 71
3
 72
10
 73
6
 74
4
 42
0.0000001
 43
0.0000001
 44
0.0000000001
 12
-0.1883407282
 22
0.1821744696
 32
0.0
 13
-0.1853866385
 23
0.1851798087
 33
0.0
 40
0.0
 40
0.0
 40
0.0
 40
0.0
 40
0.2861514979
 40
0.6199988295
 40
1.0
 40
1.0
 40
1.0
 40
1.0
 10
11.0129904359
 20
-7.5086116993
 30
0.0
 10
10.9950257754
 20
-7.4912352001
 30
0.0
 10
10.9562421764
 20
-7.4534410125
 30
0.0
 10
10.8940122589
 20
-7.3921519373
 30
0.0
 10
10.8497990383
 20
-7.3481889831
 30
0.0
 10
10.8263166584
 20
-7.3247328017
 30
0.0
 11
11.0129904359
 21
-7.5086116993
 31
0.0
 11
10.9592685986
 21
-7.456304817
 31
0.0
 11
10.8969302326
 21
-7.3949343303
 31
0.0
 11
10.8263166584
 21
-7.3247328017
 31
0.0
  0
SPLINE
  5
663
100
AcDbEntity
  8
ASSI
100
AcDbSpline
 62
7
  6
CONTINUOUS
 70
0
 71
3
 72
10
 73
6
 74
4
 42
0.0000001
 43
0.0000001
 44
0.0000000001
 12
0.1932351421
 22
0.1319011105
 32
0.0
 13
0.0048001619
 23
0.233911696
 33
0.0
 40
0.0
 40
0.0
 40
0.0
 40
0.0
 40
0.3395046921
 40
0.6724952268
 40
1.0
 40
1.0
 40
1.0
 40
1.0
 10
11.0129904359
 20
-7.5086116993
 30
0.0
 10
11.034858515
 20
-7.493684684
 30
0.0
 10
11.074441205
 20
-7.4580380657
 30
0.0
 10
11.1152393921
 20
-7.390147544
 30
0.0
 10
11.1257469417
 20
-7.3384160691
 30
0.0
 10
11.126270967
 20
-7.3128803367
 30
0.0
 11
11.0129904359
 21
-7.5086116993
 31
0.0
 11
11.0717289869
 21
-7.4551417014
 31
0.0
 11
11.1112847832
 21
-7.388023855
 31
0.0
 11
11.126270967
 21
-7.3128803367
 31
0.0
  0
SPLINE
  5
664
100
AcDbEntity
  8
ASSI
100
AcDbSpline
 62
7
  6
CONTINUOUS
 70
0
 71
3
 72
10
 73
6
 74
4
 42
0.0000001
 43
0.0000001
 44
0.0000000001
 12
0.2111534819
 22
0.0378729015
 32
0.0
 13
0.1518156339
 23
0.1515657049
 33
0.0
 40
0.0
 40
0.0
 40
0.0
 40
0.0
 40
0.3420454831
 40
0.6747450136
 40
1.0
 40
1.0
 40
1.0
 40
1.0
 10
10.8263166571
 20
-7.6083226489
 30
0.0
 10
10.8503913553
 20
-7.604004564
 30
0.0
 10
10.8970668259
 20
-7.5899917322
 30
0.0
 10
10.9600507083
 20
-7.5552551834
 30
0.0
 10
10.9965308386
 20
-7.5250441997
 30
0.0
 10
11.0129904359
 20
-7.5086116993
 30
0.0
 11
10.8263166571
 21
-7.6083226489
 31
0.0
 11
10.8966398483
 21
-7.5873755403
 31
0.0
 11
10.9592512733
 21
-7.5531157567
 31
0.0
 11
11.0129904359
 21
-7.5086116993
 31
0.0
  0
SPLINE
  5
665
100
AcDbEntity
  8
ASSI
100
AcDbSpline
 62
7
  6
CONTINUOUS
 70
0
 71
3
 72
11
 73
7
 74
5
 42
0.0000001
 43
0.0000001
 44
0.0000000001
 12
-0.1934720276
 22
0.1323336071
 32
0.0
 13
-0.004777495
 23
0.2343518393
 33
0.0
 40
0.0
 40
0.0
 40
0.0
 40
0.0
 40
0.2553623096
 40
0.5075354551
 40
0.7552605149
 40
1.0
 40
1.0
 40
1.0
 40
1.0
 10
-11.0181929127
 20
-7.508618341
 30
0.0
 10
-11.0346614006
 20
-7.4973540025
 30
0.0
 10
-11.0652443608
 20
-7.471588178
 30
0.0
 10
-11.1014343048
 20
-7.4243426931
 30
0.0
 10
-11.1250796824
 20
-7.3705432298
 30
0.0
 10
-11.1310906335
 20
-7.3319987196
 30
0.0
 10
-11.1314803807
 20
-7.3128803367
 30
0.0
 11
-11.0181929127
 21
-7.508618341
 31
0.0
 11
-11.063850968
 21
-7.4699116266
 31
0.0
 11
-11.0995913785
 21
-7.4228312875
 31
0.0
 11
-11.1227384997
 21
-7.369577424
 31
0.0
 11
-11.1314803807
 21
-7.3128803367
 31
0.0
  0
SPLINE
  5
666
100
AcDbEntity
  8
ASSI
100
AcDbSpline
 62
7
  6
CONTINUOUS
 70
0
 71
3
 72
10
 73
6
 74
4
 42
0.0000001
 43
0.0000001
 44
0.0000000001
 12
0.1883472662
 22
0.1821697226
 32
0.0
 13
0.1853876284
 23
0.1851807974
 33
0.0
 40
0.0
 40
0.0
 40
0.0
 40
0.0
 40
0.2877120613
 40
0.6240039224
 40
1.0
 40
1.0
 40
1.0
 40
1.0
 10
-11.018201768
 20
-7.5086117348
 30
0.0
 10
-11.000138508
 20
-7.491140926
 30
0.0
 10
-10.9611042948
 20
-7.4531022476
 30
0.0
 10
-10.8988769354
 20
-7.3918099037
 30
0.0
 10
-10.8547610792
 20
-7.3479418862
 30
0.0
 10
-10.8315260722
 20
-7.3247328017
 30
0.0
 11
-11.018201768
 21
-7.5086117348
 31
0.0
 11
-10.9641865656
 21
-7.4560194101
 31
0.0
 11
-10.9013939753
 21
-7.3941966089
 31
0.0
 11
-10.8315260722
 21
-7.3247328017
 31
0.0
  0
SPLINE
  5
667
100
AcDbEntity
  8
ASSI
100
AcDbSpline
 62
7
  6
CONTINUOUS
 70
0
 71
3
 72
10
 73
6
 74
4
 42
0.0000001
 43
0.0000001
 44
0.0000000001
 12
-0.2113510983
 22
0.0367634485
 32
0.0
 13
-0.1528975824
 23
0.1504764673
 33
0.0
 40
0.0
 40
0.0
 40
0.0
 40
0.0
 40
0.3410974996
 40
0.6751553688
 40
1.0
 40
1.0
 40
1.0
 40
1.0
 10
-10.8315260708
 20
-7.6083226489
 30
0.0
 10
-10.8555565145
 20
-7.6041426755
 30
0.0
 10
-10.902213264
 20
-7.5899369334
 30
0.0
 10
-10.9652923873
 20
-7.5553528842
 30
0.0
 10
-11.0016457818
 20
-7.524905559
 30
0.0
 10
-11.018201768
 20
-7.5086117348
 30
0.0
 11
-10.8315260708
 21
-7.6083226489
 31
0.0
 11
-10.9016612826
 21
-7.5874549299
 31
0.0
 11
-10.9645344741
 21
-7.5530653741
 31
0.0
 11
-11.018201768
 21
-7.5086117348
 31
0.0
  0
SPLINE
  5
668
100
AcDbEntity
  8
ASSI
100
AcDbSpline
 62
253
  6
CONTINUOUS
 70
0
 71
3
 72
12
 73
8
 74
6
 42
0.0000001
 43
0.0000001
 44
0.0000000001
 12
-0.0070145166
 22
0.4019838217
 32
0.0
 13
-0.4020297068
 23
0.0035087299
 33
0.0
 40
0.0
 40
0.0
 40
0.0
 40
0.0
 40
0.1664007688
 40
0.3475548035
 40
0.549388854
 40
0.7695487352
 40
1.0
 40
1.0
 40
1.0
 40
1.0
 10
-6.7515495534
 20
5.8563549383
 30
0.0
 10
-6.751938627
 20
5.8786517439
 30
0.0
 10
-6.7637189596
 20
5.9254769304
 30
0.0
 10
-6.8093643105
 20
5.985184826
 30
0.0
 10
-6.876956581
 20
6.0314937092
 30
0.0
 10
-6.9600693174
 20
6.0611203978
 30
0.0
 10
-7.0206211104
 20
6.0682174422
 30
0.0
 10
-7.0515038619
 20
6.0684869727
 30
0.0
 11
-6.7515495534
 21
5.8563549383
 31
0.0
 11
-6.7671377177
 21
5.9214141376
 31
0.0
 11
-6.8101294873
 21
5.9802037558
 31
0.0
 11
-6.8763818604
 21
6.0270583942
 31
0.0
 11
-6.9595102729
 21
6.0574627966
 31
0.0
 11
-7.0515038619
 21
6.0684869727
 31
0.0
  0
SPLINE
  5
669
100
AcDbEntity
  8
ASSI
100
AcDbSpline
 62
253
  6
CONTINUOUS
 70
0
 71
3
 72
12
 73
8
 74
6
 42
0.0000001
 43
0.0000001
 44
0.0000000001
 12
-0.0070145118
 22
0.401983857
 32
0.0
 13
-0.402029743
 23
0.0035086199
 33
0.0
 40
0.0
 40
0.0
 40
0.0
 40
0.0
 40
0.1663980738
 40
0.3475504099
 40
0.549384185
 40
0.7695456059
 40
1.0
 40
1.0
 40
1.0
 40
1.0
 10
-6.7638921481
 20
5.1492481571
 30
0.0
 10
-6.7642812152
 20
5.1715446036
 30
0.0
 10
-6.7760611967
 20
5.2183691985
 30
0.0
 10
-6.8217057054
 20
5.2780769374
 30
0.0
 10
-6.8892976492
 20
5.3243862363
 30
0.0
 10
-6.9724108485
 20
5.3540134714
 30
0.0
 10
-7.0329632831
 20
5.3611106656
 30
0.0
 10
-7.0638464567
 20
5.3613801913
 30
0.0
 11
-6.7638921481
 21
5.1492481571
 31
0.0
 11
-6.7794798327
 21
5.2143063633
 31
0.0
 11
-6.8224707787
 21
5.2730957456
 31
0.0
 11
-6.8887227554
 21
5.3199507651
 31
0.0
 11
-6.9718516252
 21
5.350355742
 31
0.0
 11
-7.0638464567
 21
5.3613801913
 31
0.0
  0
SPLINE
  5
66A
100
AcDbEntity
  8
ASSI
100
AcDbSpline
 62
253
  6
CONTINUOUS
 70
0
 71
3
 72
12
 73
8
 74
6
 42
0.0000001
 43
0.0000001
 44
0.0000000001
 12
0.0070145165
 22
0.4019838218
 32
0.0
 13
0.4020297069
 23
0.003508728
 33
0.0
 40
0.0
 40
0.0
 40
0.0
 40
0.0
 40
0.1664007686
 40
0.3475548033
 40
0.549388854
 40
0.7695487354
 40
1.0
 40
1.0
 40
1.0
 40
1.0
 10
-7.5413172656
 20
5.1492481571
 30
0.0
 10
-7.5409281919
 20
5.1715449627
 30
0.0
 10
-7.5291478594
 20
5.2183701492
 30
0.0
 10
-7.4835025084
 20
5.2780780448
 30
0.0
 10
-7.4159102379
 20
5.3243869281
 30
0.0
 10
-7.3327975016
 20
5.354013617
 30
0.0
 10
-7.2722457085
 20
5.3611106612
 30
0.0
 10
-7.241362957
 20
5.3613801915
 30
0.0
 11
-7.5413172656
 21
5.1492481571
 31
0.0
 11
-7.5257291013
 21
5.2143073564
 31
0.0
 11
-7.4827373317
 21
5.2730969745
 31
0.0
 11
-7.4164849585
 21
5.319951613
 31
0.0
 11
-7.333356546
 21
5.3503560157
 31
0.0
 11
-7.241362957
 21
5.3613801915
 31
0.0
  0
SPLINE
  5
66B
100
AcDbEntity
  8
ASSI
100
AcDbSpline
 62
253
  6
CONTINUOUS
 70
0
 71
3
 72
12
 73
8
 74
6
 42
0.0000001
 43
0.0000001
 44
0.0000000001
 12
0.0070145164
 22
0.4019837961
 32
0.0
 13
0.4020296812
 23
0.0035087308
 33
0.0
 40
0.0
 40
0.0
 40
0.0
 40
0.0
 40
0.1664062852
 40
0.3475634824
 40
0.549397719
 40
0.769554416
 40
1.0
 40
1.0
 40
1.0
 40
1.0
 10
-7.5536598603
 20
5.8563549383
 30
0.0
 10
-7.5532707738
 20
5.8786524817
 30
0.0
 10
-7.5414897486
 20
5.9254788435
 30
0.0
 10
-7.495842775
 20
5.9851870242
 30
0.0
 10
-7.4282499494
 20
6.0314950662
 30
0.0
 10
-7.3451381263
 20
6.0611207043
 30
0.0
 10
-7.28458754
 20
6.0682174479
 30
0.0
 10
-7.2537055518
 20
6.0684869717
 30
0.0
 11
-7.5536598603
 21
5.8563549383
 31
0.0
 11
-7.5380707286
 21
5.9214161821
 31
0.0
 11
-7.4950773812
 21
5.9802062159
 31
0.0
 11
-7.4288243528
 21
6.0270600483
 31
0.0
 11
-7.3456968981
 21
6.057463326
 31
0.0
 11
-7.2537055518
 21
6.0684869717
 31
0.0
  0
SPLINE
  5
66C
100
AcDbEntity
  8
ASSI
100
AcDbSpline
 62
253
  6
CONTINUOUS
 70
0
 71
3
 72
12
 73
8
 74
6
 42
0.0000001
 43
0.0000001
 44
0.0000000001
 12
0.0070145165
 22
0.4019838218
 32
0.0
 13
0.4020297069
 23
0.003508728
 33
0.0
 40
0.0
 40
0.0
 40
0.0
 40
0.0
 40
0.1664007686
 40
0.3475548033
 40
0.549388854
 40
0.7695487354
 40
1.0
 40
1.0
 40
1.0
 40
1.0
 10
6.7586827344
 20
5.1492481571
 30
0.0
 10
6.7590718081
 20
5.1715449627
 30
0.0
 10
6.7708521406
 20
5.2183701492
 30
0.0
 10
6.8164974916
 20
5.2780780448
 30
0.0
 10
6.8840897621
 20
5.3243869281
 30
0.0
 10
6.9672024984
 20
5.354013617
 30
0.0
 10
7.0277542915
 20
5.3611106612
 30
0.0
 10
7.058637043
 20
5.3613801915
 30
0.0
 11
6.7586827344
 21
5.1492481571
 31
0.0
 11
6.7742708987
 21
5.2143073564
 31
0.0
 11
6.8172626683
 21
5.2730969745
 31
0.0
 11
6.8835150415
 21
5.319951613
 31
0.0
 11
6.966643454
 21
5.3503560157
 31
0.0
 11
7.058637043
 21
5.3613801915
 31
0.0
  0
SPLINE
  5
66D
100
AcDbEntity
  8
ASSI
100
AcDbSpline
 62
253
  6
CONTINUOUS
 70
0
 71
3
 72
12
 73
8
 74
6
 42
0.0000001
 43
0.0000001
 44
0.0000000001
 12
0.0070145164
 22
0.4019837961
 32
0.0
 13
0.4020296812
 23
0.0035087308
 33
0.0
 40
0.0
 40
0.0
 40
0.0
 40
0.0
 40
0.1664062852
 40
0.3475634824
 40
0.549397719
 40
0.769554416
 40
1.0
 40
1.0
 40
1.0
 40
1.0
 10
6.7463401397
 20
5.8563549383
 30
0.0
 10
6.7467292262
 20
5.8786524817
 30
0.0
 10
6.7585102514
 20
5.9254788435
 30
0.0
 10
6.804157225
 20
5.9851870242
 30
0.0
 10
6.8717500506
 20
6.0314950662
 30
0.0
 10
6.9548618737
 20
6.0611207043
 30
0.0
 10
7.01541246
 20
6.0682174479
 30
0.0
 10
7.0462944482
 20
6.0684869717
 30
0.0
 11
6.7463401397
 21
5.8563549383
 31
0.0
 11
6.7619292714
 21
5.9214161821
 31
0.0
 11
6.8049226188
 21
5.9802062159
 31
0.0
 11
6.8711756472
 21
6.0270600483
 31
0.0
 11
6.9543031019
 21
6.057463326
 31
0.0
 11
7.0462944482
 21
6.0684869717
 31
0.0
  0
SPLINE
  5
66E
100
AcDbEntity
  8
ASSI
100
AcDbSpline
 62
253
  6
CONTINUOUS
 70
0
 71
3
 72
12
 73
8
 74
6
 42
0.0000001
 43
0.0000001
 44
0.0000000001
 12
-0.0070145166
 22
0.4019838217
 32
0.0
 13
-0.4020297068
 23
0.0035087299
 33
0.0
 40
0.0
 40
0.0
 40
0.0
 40
0.0
 40
0.1664007688
 40
0.3475548035
 40
0.549388854
 40
0.7695487352
 40
1.0
 40
1.0
 40
1.0
 40
1.0
 10
7.5484504466
 20
5.8563549383
 30
0.0
 10
7.548061373
 20
5.8786517439
 30
0.0
 10
7.5362810404
 20
5.9254769304
 30
0.0
 10
7.4906356895
 20
5.985184826
 30
0.0
 10
7.423043419
 20
6.0314937092
 30
0.0
 10
7.3399306826
 20
6.0611203978
 30
0.0
 10
7.2793788896
 20
6.0682174422
 30
0.0
 10
7.2484961381
 20
6.0684869727
 30
0.0
 11
7.5484504466
 21
5.8563549383
 31
0.0
 11
7.5328622823
 21
5.9214141376
 31
0.0
 11
7.4898705127
 21
5.9802037558
 31
0.0
 11
7.4236181396
 21
6.0270583942
 31
0.0
 11
7.3404897271
 21
6.0574627966
 31
0.0
 11
7.2484961381
 21
6.0684869727
 31
0.0
  0
SPLINE
  5
66F
100
AcDbEntity
  8
ASSI
100
AcDbSpline
 62
253
  6
CONTINUOUS
 70
0
 71
3
 72
12
 73
8
 74
6
 42
0.0000001
 43
0.0000001
 44
0.0000000001
 12
-0.0070145118
 22
0.401983857
 32
0.0
 13
-0.402029743
 23
0.0035086199
 33
0.0
 40
0.0
 40
0.0
 40
0.0
 40
0.0
 40
0.1663980738
 40
0.3475504099
 40
0.549384185
 40
0.7695456059
 40
1.0
 40
1.0
 40
1.0
 40
1.0
 10
7.5361078519
 20
5.1492481571
 30
0.0
 10
7.5357187848
 20
5.1715446036
 30
0.0
 10
7.5239388033
 20
5.2183691985
 30
0.0
 10
7.4782942946
 20
5.2780769374
 30
0.0
 10
7.4107023508
 20
5.3243862363
 30
0.0
 10
7.3275891515
 20
5.3540134714
 30
0.0
 10
7.2670367169
 20
5.3611106656
 30
0.0
 10
7.2361535433
 20
5.3613801913
 30
0.0
 11
7.5361078519
 21
5.1492481571
 31
0.0
 11
7.5205201673
 21
5.2143063633
 31
0.0
 11
7.4775292213
 21
5.2730957456
 31
0.0
 11
7.4112772446
 21
5.3199507651
 31
0.0
 11
7.3281483748
 21
5.350355742
 31
0.0
 11
7.2361535433
 21
5.3613801913
 31
0.0
  0
SPLINE
  5
670
100
AcDbEntity
  8
ASSI
100
AcDbSpline
 62
253
  6
CONTINUOUS
 70
0
 71
3
 72
13
 73
9
 74
7
 42
0.0000001
 43
0.0000001
 44
0.0000000001
 12
0.1860199012
 22
0.4640617589
 32
0.0
 13
0.0000037631
 23
0.4999567178
 33
0.0
 40
0.0
 40
0.0
 40
0.0
 40
0.0
 40
0.0378218875
 40
0.1397846932
 40
0.2991078666
 40
0.5051686897
 40
0.7442254983
 40
1.0
 40
1.0
 40
1.0
 40
1.0
 10
7.0562294506
 20
3.123813431
 30
0.0
 10
7.0585746585
 20
3.1296639948
 30
0.0
 10
7.0551528682
 20
3.1539468091
 30
0.0
 10
7.0594503463
 20
3.2029023703
 30
0.0
 10
7.058204112
 20
3.2812486451
 30
0.0
 10
7.0594609388
 20
3.381794421
 30
0.0
 10
7.0595237607
 20
3.4986627239
 30
0.0
 10
7.0596592162
 20
3.5811118851
 30
0.0
 10
7.059659537
 20
3.6237372785
 30
0.0
 11
7.0562294506
 21
3.123813431
 31
0.0
 11
7.0571205138
 21
3.1427017313
 31
0.0
 11
7.057948429
 21
3.1936719974
 31
0.0
 11
7.058658452
 21
3.2733235237
 31
0.0
 11
7.0592025272
 21
3.3763435799
 31
0.0
 11
7.0595435251
 21
3.4958611508
 31
0.0
 11
7.059659537
 21
3.6237372785
 31
0.0
  0
SPLINE
  5
671
100
AcDbEntity
  8
ASSI
100
AcDbSpline
 62
253
  6
CONTINUOUS
 70
0
 71
3
 72
9
 73
5
 74
3
 42
0.0000001
 43
0.0000001
 44
0.0000000001
 12
0.0053452796
 22
-1.6468770511
 32
0.0
 13
0.0076765739
 23
-1.6468678343
 33
0.0
 40
0.0
 40
0.0
 40
0.0
 40
0.0
 40
0.500013719
 40
1.0
 40
1.0
 40
1.0
 40
1.0
 10
-4.2445517459
 20
5.6385260814
 30
0.0
 10
-4.2436608415
 20
5.3640390417
 30
0.0
 10
-4.2416847613
 20
4.8150806382
 30
0.0
 10
-4.2393202247
 20
4.2661237705
 30
0.0
 10
-4.2380408308
 20
3.9916533293
 30
0.0
 11
-4.2445517459
 21
5.6385260814
 31
0.0
 11
-4.2415875877
 21
4.8150659599
 31
0.0
 11
-4.2380408308
 21
3.9916533293
 31
0.0
  0
SPLINE
  5
672
100
AcDbEntity
  8
ASSI
100
AcDbSpline
 62
253
  6
CONTINUOUS
 70
0
 71
3
 72
9
 73
5
 74
3
 42
0.0000001
 43
0.0000001
 44
0.0000000001
 12
0.0076765739
 22
1.6468678343
 32
0.0
 13
0.0053452796
 23
1.6468770511
 33
0.0
 40
0.0
 40
0.0
 40
0.0
 40
0.0
 40
0.4999867127
 40
1.0
 40
1.0
 40
1.0
 40
1.0
 10
4.2328314171
 20
3.9916533293
 30
0.0
 10
4.2341108121
 20
4.2661240075
 30
0.0
 10
4.2364753485
 20
4.8150808752
 30
0.0
 10
4.2384514286
 20
5.3640392787
 30
0.0
 10
4.2393423322
 20
5.6385260814
 30
0.0
 11
4.2328314171
 21
3.9916533293
 31
0.0
 11
4.2363781768
 21
4.8150666709
 31
0.0
 11
4.2393423322
 21
5.6385260814
 31
0.0
  0
SPLINE
  5
673
100
AcDbEntity
  8
ASSI
100
AcDbSpline
 62
253
  6
CONTINUOUS
 70
0
 71
3
 72
13
 73
9
 74
7
 42
0.0000001
 43
0.0000001
 44
0.0000000001
 12
0.0000037631
 22
-0.4999567178
 32
0.0
 13
0.1860199013
 23
-0.4640617589
 33
0.0
 40
0.0
 40
0.0
 40
0.0
 40
0.0
 40
0.2557745015
 40
0.4948313101
 40
0.7008921333
 40
0.8602153068
 40
0.9621781125
 40
1.0
 40
1.0
 40
1.0
 40
1.0
 10
7.2351310493
 20
3.6237372785
 30
0.0
 10
7.2351313701
 20
3.5811118851
 30
0.0
 10
7.2352668255
 20
3.498662724
 30
0.0
 10
7.2353296475
 20
3.3817944211
 30
0.0
 10
7.2365864743
 20
3.2812486451
 30
0.0
 10
7.23534024
 20
3.2029023703
 30
0.0
 10
7.2396377181
 20
3.1539468091
 30
0.0
 10
7.2362159278
 20
3.1296639948
 30
0.0
 10
7.2385611357
 20
3.123813431
 30
0.0
 11
7.2351310493
 21
3.6237372785
 31
0.0
 11
7.2352470612
 21
3.4958611509
 31
0.0
 11
7.2355880591
 21
3.3763435799
 31
0.0
 11
7.2361321343
 21
3.2733235238
 31
0.0
 11
7.2368421573
 21
3.1936719974
 31
0.0
 11
7.2376700725
 21
3.1427017313
 31
0.0
 11
7.2385611357
 21
3.123813431
 31
0.0
  0
SPLINE
  5
674
100
AcDbEntity
  8
ASSI
100
AcDbSpline
 62
253
  6
CONTINUOUS
 70
0
 71
3
 72
11
 73
7
 74
5
 42
0.0000001
 43
0.0000001
 44
0.0000000001
 12
-0.0098331854
 22
0.5656207508
 32
0.0
 13
0.0000098444
 23
0.5657062181
 33
0.0
 40
0.0
 40
0.0
 40
0.0
 40
0.0
 40
0.2097951049
 40
0.4583292293
 40
0.7269157337
 40
1.0
 40
1.0
 40
1.0
 40
1.0
 10
6.7463401397
 20
5.8563549383
 30
0.0
 10
6.7456524883
 20
5.8959097599
 30
0.0
 10
6.7444433885
 20
5.9823284062
 30
0.0
 10
6.7431912552
 20
6.1193966599
 30
0.0
 10
6.7424211244
 20
6.2684029477
 30
0.0
 10
6.7422492674
 20
6.3705452074
 30
0.0
 10
6.7422501635
 20
6.4220403632
 30
0.0
 11
6.7463401397
 21
5.8563549383
 31
0.0
 11
6.744633504
 21
5.9750250625
 31
0.0
 11
6.7433151353
 21
6.1156161808
 31
0.0
 11
6.7425130492
 21
6.2675551194
 31
0.0
 11
6.7422501635
 21
6.4220403632
 31
0.0
  0
SPLINE
  5
675
100
AcDbEntity
  8
ASSI
100
AcDbSpline
 62
253
  6
CONTINUOUS
 70
0
 71
3
 72
11
 73
7
 74
5
 42
0.0000001
 43
0.0000001
 44
0.0000000001
 12
-0.0000003835
 22
0.1414265542
 32
0.0
 13
-0.0024684792
 23
0.1414050099
 33
0.0
 40
0.0
 40
0.0
 40
0.0
 40
0.0
 40
0.2753968051
 40
0.5412973202
 40
0.7858857424
 40
1.0
 40
1.0
 40
1.0
 40
1.0
 10
6.7597052285
 20
5.0078268009
 30
0.0
 10
6.7597051933
 20
5.0208096079
 30
0.0
 10
6.759662276
 20
5.0463275674
 30
0.0
 10
6.7594702498
 20
5.0833755264
 30
0.0
 10
6.75915888
 20
5.1175335709
 30
0.0
 10
6.7588589133
 20
5.1391558809
 30
0.0
 10
6.7586827344
 20
5.1492481571
 30
0.0
 11
6.7597052285
 21
5.0078268009
 31
0.0
 11
6.7596383961
 21
5.0467751647
 31
0.0
 11
6.7594393688
 21
5.0843800316
 31
0.0
 11
6.7591165404
 21
5.1189698229
 31
0.0
 11
6.7586827344
 21
5.1492481571
 31
0.0
  0
SPLINE
  5
676
100
AcDbEntity
  8
ASSI
100
AcDbSpline
 62
253
  6
CONTINUOUS
 70
0
 71
3
 72
13
 73
9
 74
7
 42
0.0000001
 43
0.0000001
 44
0.0000000001
 12
0.141041107
 22
0.141873385
 32
0.0
 13
0.0000012265
 23
0.2000516215
 33
0.0
 40
0.0
 40
0.0
 40
0.0
 40
0.0
 40
0.0379383612
 40
0.1398218345
 40
0.2991571384
 40
0.5055293226
 40
0.744720332
 40
1.0
 40
1.0
 40
1.0
 40
1.0
 10
6.7562751421
 20
3.4237677395
 30
0.0
 10
6.7580587649
 20
3.4255618874
 30
0.0
 10
6.7559232758
 20
3.4364465208
 30
0.0
 10
6.7590709874
 20
3.4549789626
 30
0.0
 10
6.7584265037
 20
3.4868898477
 30
0.0
 10
6.7594446616
 20
3.5269310807
 30
0.0
 10
6.7595898372
 20
3.5737656583
 30
0.0
 10
6.7597051241
 20
3.6067142414
 30
0.0
 10
6.7597052285
 20
3.6237372785
 30
0.0
 11
6.7562751421
 21
3.4237677395
 31
0.0
 11
6.7571654361
 21
3.4313049718
 31
0.0
 11
6.7579935945
 21
3.451670094
 31
0.0
 11
6.7587038667
 21
3.4835374655
 31
0.0
 11
6.7592483327
 21
3.5248189652
 31
0.0
 11
6.7595895137
 21
3.5726682981
 31
0.0
 11
6.7597052285
 21
3.6237372785
 31
0.0
  0
SPLINE
  5
677
100
AcDbEntity
  8
ASSI
100
AcDbSpline
 62
253
  6
CONTINUOUS
 70
0
 71
3
 72
13
 73
9
 74
7
 42
0.0000001
 43
0.0000001
 44
0.0000000001
 12
0.0000012265
 22
-0.2000516215
 32
0.0
 13
0.1410411064
 23
-0.1418733857
 33
0.0
 40
0.0
 40
0.0
 40
0.0
 40
0.0
 40
0.2552796677
 40
0.4944706773
 40
0.7008428616
 40
0.8601781655
 40
0.9620616388
 40
1.0
 40
1.0
 40
1.0
 40
1.0
 10
7.5350853578
 20
3.6237372785
 30
0.0
 10
7.5350854622
 20
3.6067142414
 30
0.0
 10
7.5352007491
 20
3.5737656583
 30
0.0
 10
7.5353459247
 20
3.5269310807
 30
0.0
 10
7.5363640825
 20
3.4868898477
 30
0.0
 10
7.5357195989
 20
3.4549789626
 30
0.0
 10
7.5388673104
 20
3.4364465208
 30
0.0
 10
7.5367318214
 20
3.4255618874
 30
0.0
 10
7.5385154442
 20
3.4237677395
 30
0.0
 11
7.5350853578
 21
3.6237372785
 31
0.0
 11
7.5352010726
 21
3.5726682982
 31
0.0
 11
7.5355422536
 21
3.5248189652
 31
0.0
 11
7.5360867196
 21
3.4835374655
 31
0.0
 11
7.5367969918
 21
3.451670094
 31
0.0
 11
7.5376251502
 21
3.4313049718
 31
0.0
 11
7.5385154442
 21
3.4237677395
 31
0.0
  0
SPLINE
  5
678
100
AcDbEntity
  8
ASSI
100
AcDbSpline
 62
253
  6
CONTINUOUS
 70
0
 71
3
 72
11
 73
7
 74
5
 42
0.0000001
 43
0.0000001
 44
0.0000000001
 12
-0.0024684792
 22
-0.1414050099
 32
0.0
 13
-0.0000003835
 23
-0.1414265542
 33
0.0
 40
0.0
 40
0.0
 40
0.0
 40
0.0
 40
0.2141142612
 40
0.458702684
 40
0.7246031997
 40
1.0
 40
1.0
 40
1.0
 40
1.0
 10
7.5361078519
 20
5.1492481571
 30
0.0
 10
7.535931673
 20
5.1391558807
 30
0.0
 10
7.5356317063
 20
5.1175335706
 30
0.0
 10
7.5353203365
 20
5.0833755258
 30
0.0
 10
7.5351283103
 20
5.046327567
 30
0.0
 10
7.535085393
 20
5.0208096077
 30
0.0
 10
7.5350853578
 20
5.0078268009
 30
0.0
 11
7.5361078519
 21
5.1492481571
 31
0.0
 11
7.5356740458
 21
5.1189698224
 31
0.0
 11
7.5353512174
 21
5.084380031
 31
0.0
 11
7.5351521902
 21
5.046775164
 31
0.0
 11
7.5350853578
 21
5.0078268009
 31
0.0
  0
SPLINE
  5
679
100
AcDbEntity
  8
ASSI
100
AcDbSpline
 62
253
  6
CONTINUOUS
 70
0
 71
3
 72
11
 73
7
 74
5
 42
0.0000001
 43
0.0000001
 44
0.0000000001
 12
0.0000096882
 22
-0.5657062181
 32
0.0
 13
-0.0098336718
 23
-0.5656207424
 33
0.0
 40
0.0
 40
0.0
 40
0.0
 40
0.0
 40
0.2730824888
 40
0.5416689789
 40
0.7902032012
 40
1.0
 40
1.0
 40
1.0
 40
1.0
 10
7.5525404228
 20
6.4220403632
 30
0.0
 10
7.5525413047
 20
6.3705455426
 30
0.0
 10
7.5523694705
 20
6.2684036207
 30
0.0
 10
7.5515993414
 20
6.1193976522
 30
0.0
 10
7.5503471865
 20
5.9823290638
 30
0.0
 10
7.5491381376
 20
5.8959100787
 30
0.0
 10
7.5484504466
 20
5.8563549383
 30
0.0
 11
7.5525404228
 21
6.4220403632
 31
0.0
 11
7.5522775418
 21
6.2675561249
 31
0.0
 11
7.5514754579
 21
6.1156171944
 31
0.0
 11
7.5501570929
 21
5.9750260206
 31
0.0
 11
7.5484504466
 21
5.8563549383
 31
0.0
  0
SPLINE
  5
67A
100
AcDbEntity
  8
ASSI
100
AcDbSpline
 62
253
  6
CONTINUOUS
 70
0
 71
3
 72
13
 73
9
 74
7
 42
0.0000001
 43
0.0000001
 44
0.0000000001
 12
0.0000012265
 22
-0.2000516215
 32
0.0
 13
0.1410411064
 23
-0.1418733857
 33
0.0
 40
0.0
 40
0.0
 40
0.0
 40
0.0
 40
0.2552796677
 40
0.4944706773
 40
0.7008428616
 40
0.8601781655
 40
0.9620616388
 40
1.0
 40
1.0
 40
1.0
 40
1.0
 10
-6.7649146422
 20
3.6237372785
 30
0.0
 10
-6.7649145378
 20
3.6067142414
 30
0.0
 10
-6.7647992509
 20
3.5737656583
 30
0.0
 10
-6.7646540753
 20
3.5269310807
 30
0.0
 10
-6.7636359175
 20
3.4868898477
 30
0.0
 10
-6.7642804011
 20
3.4549789626
 30
0.0
 10
-6.7611326896
 20
3.4364465208
 30
0.0
 10
-6.7632681786
 20
3.4255618874
 30
0.0
 10
-6.7614845558
 20
3.4237677395
 30
0.0
 11
-6.7649146422
 21
3.6237372785
 31
0.0
 11
-6.7647989274
 21
3.5726682982
 31
0.0
 11
-6.7644577464
 21
3.5248189652
 31
0.0
 11
-6.7639132804
 21
3.4835374655
 31
0.0
 11
-6.7632030082
 21
3.451670094
 31
0.0
 11
-6.7623748498
 21
3.4313049718
 31
0.0
 11
-6.7614845558
 21
3.4237677395
 31
0.0
  0
SPLINE
  5
67B
100
AcDbEntity
  8
ASSI
100
AcDbSpline
 62
253
  6
CONTINUOUS
 70
0
 71
3
 72
11
 73
7
 74
5
 42
0.0000001
 43
0.0000001
 44
0.0000000001
 12
-0.0024684792
 22
-0.1414050099
 32
0.0
 13
-0.0000003835
 23
-0.1414265542
 33
0.0
 40
0.0
 40
0.0
 40
0.0
 40
0.0
 40
0.2141142612
 40
0.458702684
 40
0.7246031997
 40
1.0
 40
1.0
 40
1.0
 40
1.0
 10
-6.7638921481
 20
5.1492481571
 30
0.0
 10
-6.764068327
 20
5.1391558807
 30
0.0
 10
-6.7643682937
 20
5.1175335706
 30
0.0
 10
-6.7646796635
 20
5.0833755258
 30
0.0
 10
-6.7648716897
 20
5.046327567
 30
0.0
 10
-6.764914607
 20
5.0208096077
 30
0.0
 10
-6.7649146422
 20
5.0078268009
 30
0.0
 11
-6.7638921481
 21
5.1492481571
 31
0.0
 11
-6.7643259542
 21
5.1189698224
 31
0.0
 11
-6.7646487826
 21
5.084380031
 31
0.0
 11
-6.7648478098
 21
5.046775164
 31
0.0
 11
-6.7649146422
 21
5.0078268009
 31
0.0
  0
SPLINE
  5
67C
100
AcDbEntity
  8
ASSI
100
AcDbSpline
 62
253
  6
CONTINUOUS
 70
0
 71
3
 72
11
 73
7
 74
5
 42
0.0000001
 43
0.0000001
 44
0.0000000001
 12
0.0000096882
 22
-0.5657062181
 32
0.0
 13
-0.0098336718
 23
-0.5656207424
 33
0.0
 40
0.0
 40
0.0
 40
0.0
 40
0.0
 40
0.2730824888
 40
0.5416689789
 40
0.7902032012
 40
1.0
 40
1.0
 40
1.0
 40
1.0
 10
-6.7474595772
 20
6.4220403632
 30
0.0
 10
-6.7474586953
 20
6.3705455426
 30
0.0
 10
-6.7476305295
 20
6.2684036207
 30
0.0
 10
-6.7484006586
 20
6.1193976522
 30
0.0
 10
-6.7496528135
 20
5.9823290638
 30
0.0
 10
-6.7508618624
 20
5.8959100787
 30
0.0
 10
-6.7515495534
 20
5.8563549383
 30
0.0
 11
-6.7474595772
 21
6.4220403632
 31
0.0
 11
-6.7477224582
 21
6.2675561249
 31
0.0
 11
-6.7485245421
 21
6.1156171944
 31
0.0
 11
-6.7498429071
 21
5.9750260206
 31
0.0
 11
-6.7515495534
 21
5.8563549383
 31
0.0
  0
SPLINE
  5
67D
100
AcDbEntity
  8
ASSI
100
AcDbSpline
 62
253
  6
CONTINUOUS
 70
0
 71
3
 72
11
 73
7
 74
5
 42
0.0000001
 43
0.0000001
 44
0.0000000001
 12
-0.0098331854
 22
0.5656207508
 32
0.0
 13
0.0000098444
 23
0.5657062181
 33
0.0
 40
0.0
 40
0.0
 40
0.0
 40
0.0
 40
0.2097951049
 40
0.4583292293
 40
0.7269157337
 40
1.0
 40
1.0
 40
1.0
 40
1.0
 10
-7.5536598603
 20
5.8563549383
 30
0.0
 10
-7.5543475117
 20
5.8959097599
 30
0.0
 10
-7.5555566115
 20
5.9823284062
 30
0.0
 10
-7.5568087448
 20
6.1193966599
 30
0.0
 10
-7.5575788756
 20
6.2684029477
 30
0.0
 10
-7.5577507326
 20
6.3705452074
 30
0.0
 10
-7.5577498365
 20
6.4220403632
 30
0.0
 11
-7.5536598603
 21
5.8563549383
 31
0.0
 11
-7.555366496
 21
5.9750250625
 31
0.0
 11
-7.5566848647
 21
6.1156161808
 31
0.0
 11
-7.5574869508
 21
6.2675551194
 31
0.0
 11
-7.5577498365
 21
6.4220403632
 31
0.0
  0
SPLINE
  5
67E
100
AcDbEntity
  8
ASSI
100
AcDbSpline
 62
253
  6
CONTINUOUS
 70
0
 71
3
 72
11
 73
7
 74
5
 42
0.0000001
 43
0.0000001
 44
0.0000000001
 12
-0.0000003835
 22
0.1414265542
 32
0.0
 13
-0.0024684792
 23
0.1414050099
 33
0.0
 40
0.0
 40
0.0
 40
0.0
 40
0.0
 40
0.2753968051
 40
0.5412973202
 40
0.7858857424
 40
1.0
 40
1.0
 40
1.0
 40
1.0
 10
-7.5402947715
 20
5.0078268009
 30
0.0
 10
-7.5402948067
 20
5.0208096079
 30
0.0
 10
-7.540337724
 20
5.0463275674
 30
0.0
 10
-7.5405297502
 20
5.0833755264
 30
0.0
 10
-7.54084112
 20
5.1175335709
 30
0.0
 10
-7.5411410867
 20
5.1391558809
 30
0.0
 10
-7.5413172656
 20
5.1492481571
 30
0.0
 11
-7.5402947715
 21
5.0078268009
 31
0.0
 11
-7.5403616039
 21
5.0467751647
 31
0.0
 11
-7.5405606312
 21
5.0843800316
 31
0.0
 11
-7.5408834596
 21
5.1189698229
 31
0.0
 11
-7.5413172656
 21
5.1492481571
 31
0.0
  0
SPLINE
  5
67F
100
AcDbEntity
  8
ASSI
100
AcDbSpline
 62
253
  6
CONTINUOUS
 70
0
 71
3
 72
13
 73
9
 74
7
 42
0.0000001
 43
0.0000001
 44
0.0000000001
 12
0.141041107
 22
0.141873385
 32
0.0
 13
0.0000012265
 23
0.2000516215
 33
0.0
 40
0.0
 40
0.0
 40
0.0
 40
0.0
 40
0.0379383612
 40
0.1398218345
 40
0.2991571384
 40
0.5055293226
 40
0.744720332
 40
1.0
 40
1.0
 40
1.0
 40
1.0
 10
-7.5437248579
 20
3.4237677395
 30
0.0
 10
-7.5419412351
 20
3.4255618874
 30
0.0
 10
-7.5440767242
 20
3.4364465208
 30
0.0
 10
-7.5409290126
 20
3.4549789626
 30
0.0
 10
-7.5415734963
 20
3.4868898477
 30
0.0
 10
-7.5405553384
 20
3.5269310807
 30
0.0
 10
-7.5404101628
 20
3.5737656583
 30
0.0
 10
-7.5402948759
 20
3.6067142414
 30
0.0
 10
-7.5402947715
 20
3.6237372785
 30
0.0
 11
-7.5437248579
 21
3.4237677395
 31
0.0
 11
-7.5428345639
 21
3.4313049718
 31
0.0
 11
-7.5420064055
 21
3.451670094
 31
0.0
 11
-7.5412961333
 21
3.4835374655
 31
0.0
 11
-7.5407516673
 21
3.5248189652
 31
0.0
 11
-7.5404104863
 21
3.5726682981
 31
0.0
 11
-7.5402947715
 21
3.6237372785
 31
0.0
  0
SPLINE
  5
680
100
AcDbEntity
  8
ASSI
100
AcDbSpline
 62
253
  6
CONTINUOUS
 70
0
 71
3
 72
9
 73
5
 74
3
 42
0.0000001
 43
0.0000001
 44
0.0000000001
 12
0.0003603392
 22
-6.1661325534
 32
0.0
 13
0.0019281047
 23
-6.1661322625
 33
0.0
 40
0.0
 40
0.0
 40
0.0
 40
0.0
 40
0.5000355593
 40
1.0
 40
1.0
 40
1.0
 40
1.0
 10
11.1205422144
 20
7.9974277241
 30
0.0
 10
11.1206022752
 20
6.9696658773
 30
0.0
 10
11.1208530213
 20
4.9142883651
 30
0.0
 10
11.1213650477
 20
2.8589109013
 30
0.0
 10
11.1216863757
 20
1.8312952788
 30
0.0
 11
11.1205422144
 21
7.9974277241
 31
0.0
 11
11.1209183685
 21
4.9141422015
 31
0.0
 11
11.1216863757
 21
1.8312952788
 31
0.0
  0
LINE
  5
681
100
AcDbEntity
  8
ASSI
100
AcDbLine
 62
253
  6
CONTINUOUS
 10
11.1219264831
 20
1.0988119928
 11
11.1227240643
 21
-0.9697424099
  0
LINE
  5
682
100
AcDbEntity
  8
ASSI
100
AcDbLine
 62
253
  6
CONTINUOUS
 10
11.1246662073
 20
-4.798448283
 11
11.1254466687
 21
-6.0724650142
  0
LINE
  5
683
100
AcDbEntity
  8
ASSI
100
AcDbLine
 62
253
  6
CONTINUOUS
 10
11.1259205544
 20
-6.7971939359
 11
11.126270967
 21
-7.3128803366
  0
LINE
  5
684
100
AcDbEntity
  8
ASSI
100
AcDbLine
 62
253
  6
CONTINUOUS
 10
-11.1306560824
 20
-6.0724650142
 11
-11.129875621
 21
-4.798448283
  0
LINE
  5
685
100
AcDbEntity
  8
ASSI
100
AcDbLine
 62
253
  6
CONTINUOUS
 10
-11.1314803807
 20
-7.3128803366
 11
-11.1311299681
 21
-6.7971939359
  0
LINE
  5
686
100
AcDbEntity
  8
ASSI
100
AcDbLine
 62
253
  6
CONTINUOUS
 10
-11.1279334781
 20
-0.9697424099
 11
-11.1271358968
 21
1.0988119928
  0
SPLINE
  5
687
100
AcDbEntity
  8
ASSI
100
AcDbSpline
 62
253
  6
CONTINUOUS
 70
0
 71
3
 72
9
 73
5
 74
3
 42
0.0000001
 43
0.0000001
 44
0.0000000001
 12
0.0019281047
 22
6.1661322625
 32
0.0
 13
0.0003603392
 23
6.1661325534
 33
0.0
 40
0.0
 40
0.0
 40
0.0
 40
0.0
 40
0.4999644622
 40
1.0
 40
1.0
 40
1.0
 40
1.0
 10
-11.1268957894
 20
1.8312952788
 30
0.0
 10
-11.1265744614
 20
2.8589109455
 30
0.0
 10
-11.126062435
 20
4.9142884093
 30
0.0
 10
-11.1258116889
 20
6.9696659215
 30
0.0
 10
-11.1257516281
 20
7.9974277241
 30
0.0
 11
-11.1268957894
 21
1.8312952788
 31
0.0
 11
-11.1261277822
 21
4.914142334
 31
0.0
 11
-11.1257516281
 21
7.9974277241
 31
0.0
  0
SPLINE
  5
688
100
AcDbEntity
  8
ASSI
100
AcDbSpline
 62
7
  6
CONTINUOUS
 70
0
 71
3
 72
12
 73
8
 74
6
 42
0.0000001
 43
0.0000001
 44
0.0000000001
 12
0.3000709641
 22
-0.0
 32
0.0
 13
0.2121822176
 23
0.2121822095
 33
0.0
 40
0.0
 40
0.0
 40
0.0
 40
0.0
 40
0.3041016913
 40
0.5820964833
 40
0.8023227261
 40
0.9471197879
 40
1.0
 40
1.0
 40
1.0
 40
1.0
 10
10.820588148
 20
7.9922828661
 30
0.0
 10
10.8510055106
 20
7.9922828661
 30
0.0
 10
10.9093837966
 20
7.9921515372
 30
0.0
 10
10.9890296149
 20
7.9939164963
 30
0.0
 10
11.054895244
 20
7.9920905682
 30
0.0
 10
11.0936352452
 20
7.9988246078
 30
0.0
 10
11.1168021342
 20
7.993687644
 30
0.0
 10
11.1205422144
 20
7.9974277241
 30
0.0
 11
10.820588148
 21
7.9922828661
 31
0.0
 11
10.9118398984
 21
7.9925309752
 31
0.0
 11
10.9952548614
 21
7.9932618891
 31
0.0
 11
11.0613286528
 21
7.9943946728
 31
0.0
 11
11.1047539859
 21
7.9958404519
 31
0.0
 11
11.1205422144
 21
7.9974277241
 31
0.0
  0
SPLINE
  5
689
100
AcDbEntity
  8
ASSI
100
AcDbSpline
 62
7
  6
CONTINUOUS
 70
0
 71
3
 72
12
 73
8
 74
6
 42
0.0000001
 43
0.0000001
 44
0.0000000001
 12
0.2121822176
 22
-0.2121822095
 32
0.0
 13
0.3000709641
 23
0.0
 33
0.0
 40
0.0
 40
0.0
 40
0.0
 40
0.0
 40
0.0528802121
 40
0.1976772739
 40
0.4179035167
 40
0.6958983087
 40
1.0
 40
1.0
 40
1.0
 40
1.0
 10
-11.1257516281
 20
7.9974277241
 30
0.0
 10
-11.1220115479
 20
7.993687644
 30
0.0
 10
-11.098844659
 20
7.9988246078
 30
0.0
 10
-11.0601046577
 20
7.9920905682
 30
0.0
 10
-10.9942390286
 20
7.9939164963
 30
0.0
 10
-10.9145932103
 20
7.9921515372
 30
0.0
 10
-10.8562149243
 20
7.9922828661
 30
0.0
 10
-10.8257975617
 20
7.9922828661
 30
0.0
 11
-11.1257516281
 21
7.9974277241
 31
0.0
 11
-11.1099633996
 21
7.9958404519
 31
0.0
 11
-11.0665380665
 21
7.9943946728
 31
0.0
 11
-11.0004642751
 21
7.9932618891
 31
0.0
 11
-10.9170493121
 21
7.9925309752
 31
0.0
 11
-10.8257975617
 21
7.9922828661
 31
0.0
  0
SPLINE
  5
68A
100
AcDbEntity
  8
ASSI
100
AcDbSpline
 62
7
  6
CONTINUOUS
 70
0
 71
3
 72
12
 73
8
 74
6
 42
0.0000001
 43
0.0000001
 44
0.0000000001
 12
0.3000740987
 22
-0.0
 32
0.0
 13
0.2121856528
 23
0.2121832073
 33
0.0
 40
0.0
 40
0.0
 40
0.0
 40
0.0
 40
0.3040972291
 40
0.5820915378
 40
0.8023192843
 40
0.9471184771
 40
1.0
 40
1.0
 40
1.0
 40
1.0
 10
10.8247090134
 20
-4.8035933487
 30
0.0
 10
10.8551262473
 20
-4.8035933487
 30
0.0
 10
10.9135046423
 20
-4.8037246645
 30
0.0
 10
10.9931509646
 20
-4.8019597012
 30
0.0
 10
11.0590175739
 20
-4.8037855898
 30
0.0
 10
11.0977584884
 20
-4.7970514504
 30
0.0
 10
11.1209259738
 20
-4.8021884734
 30
0.0
 10
11.1246662073
 20
-4.798448283
 30
0.0
 11
10.8247090134
 21
-4.8035933487
 31
0.0
 11
10.915960378
 21
-4.8033452341
 31
0.0
 11
10.9993760672
 21
-4.8026142982
 31
0.0
 11
11.0654509995
 21
-4.801481472
 31
0.0
 11
11.1088774246
 21
-4.8000356313
 31
0.0
 11
11.1246662073
 21
-4.798448283
 31
0.0
  0
SPLINE
  5
68B
100
AcDbEntity
  8
ASSI
100
AcDbSpline
 62
7
  6
CONTINUOUS
 70
0
 71
3
 72
12
 73
8
 74
6
 42
0.0000001
 43
0.0000001
 44
0.0000000001
 12
0.2121856528
 22
-0.2121832073
 32
0.0
 13
0.3000740987
 23
0.0
 33
0.0
 40
0.0
 40
0.0
 40
0.0
 40
0.0
 40
0.0528815229
 40
0.1976807157
 40
0.4179084622
 40
0.6959027709
 40
1.0
 40
1.0
 40
1.0
 40
1.0
 10
-11.129875621
 20
-4.798448283
 30
0.0
 10
-11.1261353875
 20
-4.8021884734
 30
0.0
 10
-11.1029679021
 20
-4.7970514504
 30
0.0
 10
-11.0642269876
 20
-4.8037855898
 30
0.0
 10
-10.9983603784
 20
-4.8019597012
 30
0.0
 10
-10.918714056
 20
-4.8037246645
 30
0.0
 10
-10.8603356611
 20
-4.8035933487
 30
0.0
 10
-10.8299184271
 20
-4.8035933487
 30
0.0
 11
-11.129875621
 21
-4.798448283
 31
0.0
 11
-11.1140868383
 21
-4.8000356313
 31
0.0
 11
-11.0706604133
 21
-4.801481472
 31
0.0
 11
-11.0045854809
 21
-4.8026142982
 31
0.0
 11
-10.9211697917
 21
-4.8033452341
 31
0.0
 11
-10.8299184271
 21
-4.8035933487
 31
0.0
  0
SPLINE
  5
68C
100
AcDbEntity
  8
ASSI
100
AcDbSpline
 62
7
  6
CONTINUOUS
 70
0
 71
3
 72
12
 73
8
 74
6
 42
0.0000001
 43
0.0000001
 44
0.0000000001
 12
-0.2121859816
 22
0.212186588
 32
0.0
 13
-0.3000767217
 23
0.0
 33
0.0
 40
0.0
 40
0.0
 40
0.0
 40
0.0
 40
0.0529127559
 40
0.197756379
 40
0.4180080058
 40
0.6959861204
 40
1.0
 40
1.0
 40
1.0
 40
1.0
 10
11.1227240643
 20
-0.9697424099
 30
0.0
 10
11.118981616
 20
-0.9659999509
 30
0.0
 10
11.095805002
 20
-0.9711378484
 30
0.0
 10
11.0570543742
 20
-0.9644024146
 30
0.0
 10
10.9911820659
 20
-0.9662272092
 30
0.0
 10
10.9115424386
 20
-0.964462413
 30
0.0
 10
10.8531735695
 20
-0.9645935027
 30
0.0
 10
10.8227644067
 20
-0.9645935027
 30
0.0
 11
11.1227240643
 21
-0.9697424099
 31
0.0
 11
11.1069258852
 21
-0.9681534451
 31
0.0
 11
11.0634857785
 21
-0.9667064562
 31
0.0
 11
10.9974031135
 21
-0.9655729268
 31
0.0
 11
10.9139915575
 21
-0.9648416667
 31
0.0
 11
10.8227644067
 21
-0.9645935027
 31
0.0
  0
SPLINE
  5
68D
100
AcDbEntity
  8
ASSI
100
AcDbSpline
 62
7
  6
CONTINUOUS
 70
0
 71
3
 72
12
 73
8
 74
6
 42
0.0000001
 43
0.0000001
 44
0.0000000001
 12
-0.3000767217
 22
-0.0
 32
0.0
 13
-0.2121859816
 23
-0.212186588
 33
0.0
 40
0.0
 40
0.0
 40
0.0
 40
0.0
 40
0.3040138796
 40
0.5819919942
 40
0.802243621
 40
0.9470872441
 40
1.0
 40
1.0
 40
1.0
 40
1.0
 10
-10.8279738204
 20
-0.9645935027
 30
0.0
 10
-10.8583829832
 20
-0.9645935027
 30
0.0
 10
-10.9167518523
 20
-0.964462413
 30
0.0
 10
-10.9963914796
 20
-0.9662272092
 30
0.0
 10
-11.0622637879
 20
-0.9644024146
 30
0.0
 10
-11.1010144157
 20
-0.9711378484
 30
0.0
 10
-11.1241910297
 20
-0.9659999509
 30
0.0
 10
-11.1279334781
 20
-0.9697424099
 30
0.0
 11
-10.8279738204
 21
-0.9645935027
 31
0.0
 11
-10.9192009712
 21
-0.9648416667
 31
0.0
 11
-11.0026125272
 21
-0.9655729268
 31
0.0
 11
-11.0686951922
 21
-0.9667064562
 31
0.0
 11
-11.1121352989
 21
-0.9681534451
 31
0.0
 11
-11.1279334781
 21
-0.9697424099
 31
0.0
  0
SPLINE
  5
68E
100
AcDbEntity
  8
ASSI
100
AcDbSpline
 62
7
  6
CONTINUOUS
 70
0
 71
3
 72
12
 73
8
 74
6
 42
0.0000001
 43
0.0000001
 44
0.0000000001
 12
0.2121872725
 22
-0.2121835264
 32
0.0
 13
0.3000754696
 23
0.0
 33
0.0
 40
0.0
 40
0.0
 40
0.0
 40
0.0
 40
0.0528851833
 40
0.1976896626
 40
0.4179203758
 40
0.6959128578
 40
1.0
 40
1.0
 40
1.0
 40
1.0
 10
-11.1311299681
 20
-6.7971939359
 30
0.0
 10
-11.1273894472
 20
-6.8009343908
 30
0.0
 10
-11.1042208337
 20
-6.795797271
 30
0.0
 10
-11.0654785915
 20
-6.8025315648
 30
0.0
 10
-10.9996110628
 20
-6.8007058082
 30
0.0
 10
-10.919965245
 20
-6.8024707531
 30
0.0
 10
-10.8615877859
 20
-6.8023394661
 30
0.0
 10
-10.8311714219
 20
-6.8023394661
 30
0.0
 11
-11.1311299681
 21
-6.7971939359
 31
0.0
 11
-11.1153400278
 21
-6.7987814755
 31
0.0
 11
-11.0719118216
 21
-6.8002274549
 31
0.0
 11
-11.0058356984
 21
-6.8013603676
 31
0.0
 11
-10.9224201766
 21
-6.8020913442
 31
0.0
 11
-10.8311714219
 21
-6.8023394661
 31
0.0
  0
SPLINE
  5
68F
100
AcDbEntity
  8
ASSI
100
AcDbSpline
 62
7
  6
CONTINUOUS
 70
0
 71
3
 72
12
 73
8
 74
6
 42
0.0000001
 43
0.0000001
 44
0.0000000001
 12
-0.300081786
 22
0.0
 32
0.0
 13
-0.2121906568
 23
-0.2121890748
 33
0.0
 40
0.0
 40
0.0
 40
0.0
 40
0.0
 40
0.3039485293
 40
0.5819142421
 40
0.8021848151
 40
0.9470630692
 40
1.0
 40
1.0
 40
1.0
 40
1.0
 10
-10.8306914839
 20
-6.0673130916
 30
0.0
 10
-10.8610946231
 20
-6.0673130916
 30
0.0
 10
-10.919456634
 20
-6.067182183
 30
0.0
 10
-10.9990918761
 20
-6.0689468537
 30
0.0
 10
-11.0649693076
 20
-6.0671229155
 30
0.0
 10
-11.1037279904
 20
-6.0738593623
 30
0.0
 10
-11.1269118417
 20
-6.0687208014
 30
0.0
 10
-11.1306560824
 20
-6.0724650142
 30
0.0
 11
-10.8306914839
 21
-6.0673130916
 31
0.0
 11
-10.9219005637
 21
-6.067561298
 31
0.0
 11
-11.0053098035
 21
-6.0682928165
 31
0.0
 11
-11.0713992608
 21
-6.0694269021
 31
0.0
 11
-11.1148504693
 21
-6.0708747919
 31
0.0
 11
-11.1306560824
 21
-6.0724650142
 31
0.0
  0
SPLINE
  5
690
100
AcDbEntity
  8
ASSI
100
AcDbSpline
 62
7
  6
CONTINUOUS
 70
0
 71
3
 72
12
 73
8
 74
6
 42
0.0000001
 43
0.0000001
 44
0.0000000001
 12
0.212182242
 22
-0.2121828612
 32
0.0
 13
0.3000714422
 23
-0.0
 33
0.0
 40
0.0
 40
0.0
 40
0.0
 40
0.0
 40
0.0528761536
 40
0.1976675351
 40
0.4178908253
 40
0.6958877974
 40
1.0
 40
1.0
 40
1.0
 40
1.0
 10
-11.1271358968
 20
1.0988119928
 30
0.0
 10
-11.1233961032
 20
1.0950721883
 30
0.0
 10
-11.1002303058
 20
1.1002090753
 30
0.0
 10
-11.0614914574
 20
1.0934751618
 30
0.0
 10
-10.9956263465
 20
1.0953012475
 30
0.0
 10
-10.9159794539
 20
1.0935362572
 30
0.0
 10
-10.8575997944
 20
1.0936676169
 30
0.0
 10
-10.827181332
 20
1.0936676169
 30
0.0
 11
-11.1271358968
 21
1.0988119928
 31
0.0
 11
-11.1113488462
 21
1.0972249263
 31
0.0
 11
-11.0679251445
 21
1.0957792913
 31
0.0
 11
-11.0018521325
 21
1.0946465945
 31
0.0
 11
-10.9184363819
 21
1.0939157199
 31
0.0
 11
-10.827181332
 21
1.0936676169
 31
0.0
  0
SPLINE
  5
691
100
AcDbEntity
  8
ASSI
100
AcDbSpline
 62
7
  6
CONTINUOUS
 70
0
 71
3
 72
12
 73
8
 74
6
 42
0.0000001
 43
0.0000001
 44
0.0000000001
 12
-0.3000746033
 22
-0.0
 32
0.0
 13
-0.2121845123
 23
-0.2121850614
 33
0.0
 40
0.0
 40
0.0
 40
0.0
 40
0.0
 40
0.3040426971
 40
0.5820262833
 40
0.8022695576
 40
0.9470979026
 40
1.0
 40
1.0
 40
1.0
 40
1.0
 10
-10.8269381956
 20
1.8364428559
 30
0.0
 10
-10.8573500262
 20
1.8364428559
 30
0.0
 10
-10.9157219411
 20
1.8365740242
 30
0.0
 10
-10.9953635367
 20
1.8348091756
 30
0.0
 10
-11.0612336016
 20
1.8366343405
 30
0.0
 10
-11.0999807103
 20
1.829899368
 30
0.0
 10
-11.1231541208
 20
1.835036957
 30
0.0
 10
-11.1268957894
 20
1.8312952788
 30
0.0
 11
-10.8269381956
 21
1.8364428559
 31
0.0
 11
-10.9181733499
 21
1.8361947102
 31
0.0
 11
-11.0015859599
 21
1.8354635641
 31
0.0
 11
-11.0676656557
 21
1.8343302799
 31
0.0
 11
-11.1111008815
 21
1.8328836884
 31
0.0
 11
-11.1268957894
 21
1.8312952788
 31
0.0
  0
SPLINE
  5
692
100
AcDbEntity
  8
ASSI
100
AcDbSpline
 62
7
  6
CONTINUOUS
 70
0
 71
3
 72
12
 73
8
 74
6
 42
0.0000001
 43
0.0000001
 44
0.0000000001
 12
-0.2121906568
 22
0.2121890748
 32
0.0
 13
-0.300081786
 23
-0.0
 33
0.0
 40
0.0
 40
0.0
 40
0.0
 40
0.0
 40
0.0529369308
 40
0.1978151849
 40
0.4180857579
 40
0.6960514707
 40
1.0
 40
1.0
 40
1.0
 40
1.0
 10
11.1254466687
 20
-6.0724650142
 30
0.0
 10
11.121702428
 20
-6.0687208014
 30
0.0
 10
11.0985185767
 20
-6.0738593623
 30
0.0
 10
11.0597598939
 20
-6.0671229155
 30
0.0
 10
10.9938824624
 20
-6.0689468537
 30
0.0
 10
10.9142472203
 20
-6.067182183
 30
0.0
 10
10.8558852094
 20
-6.0673130916
 30
0.0
 10
10.8254820702
 20
-6.0673130916
 30
0.0
 11
11.1254466687
 21
-6.0724650142
 31
0.0
 11
11.1096410556
 21
-6.0708747919
 31
0.0
 11
11.0661898471
 21
-6.0694269021
 31
0.0
 11
11.0001003898
 21
-6.0682928165
 31
0.0
 11
10.91669115
 21
-6.067561298
 31
0.0
 11
10.8254820702
 21
-6.0673130916
 31
0.0
  0
SPLINE
  5
693
100
AcDbEntity
  8
ASSI
100
AcDbSpline
 62
7
  6
CONTINUOUS
 70
0
 71
3
 72
12
 73
8
 74
6
 42
0.0000001
 43
0.0000001
 44
0.0000000001
 12
0.3000754696
 22
-0.0
 32
0.0
 13
0.2121872724
 23
0.2121835264
 33
0.0
 40
0.0
 40
0.0
 40
0.0
 40
0.0
 40
0.3040871422
 40
0.5820796242
 40
0.8023103374
 40
0.9471148167
 40
1.0
 40
1.0
 40
1.0
 40
1.0
 10
10.8259620082
 20
-6.8023394661
 30
0.0
 10
10.8563783722
 20
-6.8023394661
 30
0.0
 10
10.9147558313
 20
-6.8024707531
 30
0.0
 10
10.9944016491
 20
-6.8007058082
 30
0.0
 10
11.0602691778
 20
-6.8025315648
 30
0.0
 10
11.0990114199
 20
-6.795797271
 30
0.0
 10
11.1221800335
 20
-6.8009343908
 30
0.0
 10
11.1259205544
 20
-6.7971939359
 30
0.0
 11
10.8259620082
 21
-6.8023394661
 31
0.0
 11
10.9172107628
 21
-6.8020913442
 31
0.0
 11
11.0006262847
 21
-6.8013603676
 31
0.0
 11
11.0667024079
 21
-6.8002274549
 31
0.0
 11
11.1101306141
 21
-6.7987814755
 31
0.0
 11
11.1259205544
 21
-6.7971939359
 31
0.0
  0
SPLINE
  5
694
100
AcDbEntity
  8
ASSI
100
AcDbSpline
 62
7
  6
CONTINUOUS
 70
0
 71
3
 72
12
 73
8
 74
6
 42
0.0000001
 43
0.0000001
 44
0.0000000001
 12
-0.2121845123
 22
0.2121850614
 32
0.0
 13
-0.3000746033
 23
0.0
 33
0.0
 40
0.0
 40
0.0
 40
0.0
 40
0.0
 40
0.0529020974
 40
0.1977304424
 40
0.4179737167
 40
0.6959573029
 40
1.0
 40
1.0
 40
1.0
 40
1.0
 10
11.1216863757
 20
1.8312952788
 30
0.0
 10
11.1179447071
 20
1.835036957
 30
0.0
 10
11.0947712966
 20
1.829899368
 30
0.0
 10
11.0560241879
 20
1.8366343405
 30
0.0
 10
10.990154123
 20
1.8348091756
 30
0.0
 10
10.9105125274
 20
1.8365740242
 30
0.0
 10
10.8521406125
 20
1.8364428559
 30
0.0
 10
10.8217287819
 20
1.8364428559
 30
0.0
 11
11.1216863757
 21
1.8312952788
 31
0.0
 11
11.1058914678
 21
1.8328836884
 31
0.0
 11
11.062456242
 21
1.8343302799
 31
0.0
 11
10.9963765462
 21
1.8354635641
 31
0.0
 11
10.9129639361
 21
1.8361947102
 31
0.0
 11
10.8217287819
 21
1.8364428559
 31
0.0
  0
SPLINE
  5
695
100
AcDbEntity
  8
ASSI
100
AcDbSpline
 62
7
  6
CONTINUOUS
 70
0
 71
3
 72
12
 73
8
 74
6
 42
0.0000001
 43
0.0000001
 44
0.0000000001
 12
0.3000714422
 22
0.0
 32
0.0
 13
0.212182242
 23
0.2121828612
 33
0.0
 40
0.0
 40
0.0
 40
0.0
 40
0.0
 40
0.3041122026
 40
0.5821091747
 40
0.8023324649
 40
0.9471238464
 40
1.0
 40
1.0
 40
1.0
 40
1.0
 10
10.8219719183
 20
1.0936676169
 30
0.0
 10
10.8523903807
 20
1.0936676169
 30
0.0
 10
10.9107700402
 20
1.0935362572
 30
0.0
 10
10.9904169328
 20
1.0953012475
 30
0.0
 10
11.0562820437
 20
1.0934751618
 30
0.0
 10
11.0950208921
 20
1.1002090753
 30
0.0
 10
11.1181866895
 20
1.0950721883
 30
0.0
 10
11.1219264831
 20
1.0988119928
 30
0.0
 11
10.8219719183
 21
1.0936676169
 31
0.0
 11
10.9132269682
 21
1.0939157199
 31
0.0
 11
10.9966427187
 21
1.0946465945
 31
0.0
 11
11.0627157308
 21
1.0957792913
 31
0.0
 11
11.1061394325
 21
1.0972249263
 31
0.0
 11
11.1219264831
 21
1.0988119928
 31
0.0
  0
SPLINE
  5
696
100
AcDbEntity
  8
ASSI
100
AcDbSpline
 62
253
  6
CONTINUOUS
 70
0
 71
3
 72
13
 73
9
 74
7
 42
0.0000001
 43
0.0000001
 44
0.0000000001
 12
0.0000037631
 22
-0.4999567178
 32
0.0
 13
0.1860199013
 23
-0.4640617589
 33
0.0
 40
0.0
 40
0.0
 40
0.0
 40
0.0
 40
0.2557745015
 40
0.4948313101
 40
0.7008921333
 40
0.8602153068
 40
0.9621781125
 40
1.0
 40
1.0
 40
1.0
 40
1.0
 10
-7.0648689507
 20
3.6237372785
 30
0.0
 10
-7.0648686299
 20
3.5811118851
 30
0.0
 10
-7.0647331745
 20
3.498662724
 30
0.0
 10
-7.0646703525
 20
3.3817944211
 30
0.0
 10
-7.0634135257
 20
3.2812486451
 30
0.0
 10
-7.06465976
 20
3.2029023703
 30
0.0
 10
-7.0603622819
 20
3.1539468091
 30
0.0
 10
-7.0637840722
 20
3.1296639948
 30
0.0
 10
-7.0614388643
 20
3.123813431
 30
0.0
 11
-7.0648689507
 21
3.6237372785
 31
0.0
 11
-7.0647529388
 21
3.4958611509
 31
0.0
 11
-7.0644119409
 21
3.3763435799
 31
0.0
 11
-7.0638678657
 21
3.2733235238
 31
0.0
 11
-7.0631578427
 21
3.1936719974
 31
0.0
 11
-7.0623299275
 21
3.1427017313
 31
0.0
 11
-7.0614388643
 21
3.123813431
 31
0.0
  0
SPLINE
  5
697
100
AcDbEntity
  8
ASSI
100
AcDbSpline
 62
253
  6
CONTINUOUS
 70
0
 71
3
 72
13
 73
9
 74
7
 42
0.0000001
 43
0.0000001
 44
0.0000000001
 12
0.1860199012
 22
0.4640617589
 32
0.0
 13
0.0000037631
 23
0.4999567178
 33
0.0
 40
0.0
 40
0.0
 40
0.0
 40
0.0
 40
0.0378218875
 40
0.1397846932
 40
0.2991078666
 40
0.5051686897
 40
0.7442254983
 40
1.0
 40
1.0
 40
1.0
 40
1.0
 10
-7.2437705494
 20
3.123813431
 30
0.0
 10
-7.2414253415
 20
3.1296639948
 30
0.0
 10
-7.2448471318
 20
3.1539468091
 30
0.0
 10
-7.2405496537
 20
3.2029023703
 30
0.0
 10
-7.241795888
 20
3.2812486451
 30
0.0
 10
-7.2405390612
 20
3.381794421
 30
0.0
 10
-7.2404762393
 20
3.4986627239
 30
0.0
 10
-7.2403407838
 20
3.5811118851
 30
0.0
 10
-7.240340463
 20
3.6237372785
 30
0.0
 11
-7.2437705494
 21
3.123813431
 31
0.0
 11
-7.2428794862
 21
3.1427017313
 31
0.0
 11
-7.242051571
 21
3.1936719974
 31
0.0
 11
-7.241341548
 21
3.2733235237
 31
0.0
 11
-7.2407974728
 21
3.3763435799
 31
0.0
 11
-7.2404564749
 21
3.4958611508
 31
0.0
 11
-7.240340463
 21
3.6237372785
 31
0.0
  0
SPLINE
  5
698
100
AcDbEntity
  8
ASSI
100
AcDbSpline
 62
253
  6
CONTINUOUS
 70
0
 71
3
 72
11
 73
7
 74
5
 42
0.0000001
 43
0.0000001
 44
0.0000000001
 12
-0.0098781004
 22
0.3534330094
 32
0.0
 13
0.0000006738
 23
0.3535710239
 33
0.0
 40
0.0
 40
0.0
 40
0.0
 40
0.0
 40
0.210108614
 40
0.4581332567
 40
0.7266954159
 40
1.0
 40
1.0
 40
1.0
 40
1.0
 10
7.0462944482
 20
6.0684869727
 30
0.0
 10
7.0456026235
 20
6.0932400792
 30
0.0
 10
7.0443999155
 20
6.1472217903
 30
0.0
 10
7.0431453723
 20
6.2328593329
 30
0.0
 10
7.0423754547
 20
6.3259509444
 30
0.0
 10
7.042204453
 20
6.389813869
 30
0.0
 10
7.0422045144
 20
6.4220247295
 30
0.0
 11
7.0462944482
 21
6.0684869727
 31
0.0
 11
7.0445860689
 21
6.1427556444
 31
0.0
 11
7.0432703361
 21
6.2304401003
 31
0.0
 11
7.0424678119
 21
6.3253925066
 31
0.0
 11
7.0422045144
 21
6.4220247295
 31
0.0
  0
SPLINE
  5
699
100
AcDbEntity
  8
ASSI
100
AcDbSpline
 62
253
  6
CONTINUOUS
 70
0
 71
3
 72
11
 73
7
 74
5
 42
0.0000001
 43
0.0000001
 44
0.0000000001
 12
0.000000661
 22
-0.353571321
 32
0.0
 13
-0.0098781864
 23
-0.3534333042
 33
0.0
 40
0.0
 40
0.0
 40
0.0
 40
0.0
 40
0.2733034014
 40
0.5418653407
 40
0.7898898962
 40
1.0
 40
1.0
 40
1.0
 40
1.0
 10
7.2525860727
 20
6.4220250266
 30
0.0
 10
7.2525861329
 20
6.3898142784
 30
0.0
 10
7.2524151343
 20
6.3259514655
 30
0.0
 10
7.251645225
 20
6.2328599512
 30
0.0
 10
7.2503906711
 20
6.1472221975
 30
0.0
 10
7.2491879737
 20
6.0932402754
 30
0.0
 10
7.2484961381
 20
6.0684869727
 30
0.0
 11
7.2525860727
 21
6.4220250266
 31
0.0
 11
7.2523227785
 21
6.3253931406
 31
0.0
 11
7.2515202587
 21
6.2304407323
 31
0.0
 11
7.2502045262
 21
6.1427562335
 31
0.0
 11
7.2484961381
 21
6.0684869727
 31
0.0
  0
SPLINE
  5
69A
100
AcDbEntity
  8
ASSI
100
AcDbSpline
 62
253
  6
CONTINUOUS
 70
0
 71
3
 72
11
 73
7
 74
5
 42
0.0000001
 43
0.0000001
 44
0.0000000001
 12
0.000000661
 22
-0.353571321
 32
0.0
 13
-0.0098781864
 23
-0.3534333042
 33
0.0
 40
0.0
 40
0.0
 40
0.0
 40
0.0
 40
0.2733034014
 40
0.5418653407
 40
0.7898898962
 40
1.0
 40
1.0
 40
1.0
 40
1.0
 10
-7.0474139273
 20
6.4220250266
 30
0.0
 10
-7.0474138671
 20
6.3898142784
 30
0.0
 10
-7.0475848657
 20
6.3259514655
 30
0.0
 10
-7.048354775
 20
6.2328599512
 30
0.0
 10
-7.0496093289
 20
6.1472221975
 30
0.0
 10
-7.0508120263
 20
6.0932402754
 30
0.0
 10
-7.0515038619
 20
6.0684869727
 30
0.0
 11
-7.0474139273
 21
6.4220250266
 31
0.0
 11
-7.0476772215
 21
6.3253931406
 31
0.0
 11
-7.0484797413
 21
6.2304407323
 31
0.0
 11
-7.0497954738
 21
6.1427562335
 31
0.0
 11
-7.0515038619
 21
6.0684869727
 31
0.0
  0
SPLINE
  5
69B
100
AcDbEntity
  8
ASSI
100
AcDbSpline
 62
253
  6
CONTINUOUS
 70
0
 71
3
 72
11
 73
7
 74
5
 42
0.0000001
 43
0.0000001
 44
0.0000000001
 12
-0.0098781004
 22
0.3534330094
 32
0.0
 13
0.0000006738
 23
0.3535710239
 33
0.0
 40
0.0
 40
0.0
 40
0.0
 40
0.0
 40
0.210108614
 40
0.4581332567
 40
0.7266954159
 40
1.0
 40
1.0
 40
1.0
 40
1.0
 10
-7.2537055518
 20
6.0684869727
 30
0.0
 10
-7.2543973765
 20
6.0932400792
 30
0.0
 10
-7.2556000845
 20
6.1472217903
 30
0.0
 10
-7.2568546277
 20
6.2328593329
 30
0.0
 10
-7.2576245453
 20
6.3259509444
 30
0.0
 10
-7.257795547
 20
6.389813869
 30
0.0
 10
-7.2577954856
 20
6.4220247295
 30
0.0
 11
-7.2537055518
 21
6.0684869727
 31
0.0
 11
-7.2554139311
 21
6.1427556444
 31
0.0
 11
-7.2567296639
 21
6.2304401003
 31
0.0
 11
-7.2575321881
 21
6.3253925066
 31
0.0
 11
-7.2577954856
 21
6.4220247295
 31
0.0
  0
SPLINE
  5
69C
100
AcDbEntity
  8
ASSI
100
AcDbSpline
 62
7
  6
CONTINUOUS
 70
0
 71
3
 72
11
 73
7
 74
5
 42
0.0000001
 43
0.0000001
 44
0.0000000001
 12
0.1877591309
 22
0.0090044277
 32
0.0
 13
0.1879749211
 23
0.0
 33
0.0
 40
0.0
 40
0.0
 40
0.0
 40
0.0
 40
0.1555665837
 40
0.3898430933
 40
0.6801151059
 40
1.0
 40
1.0
 40
1.0
 40
1.0
 10
4.2393423322
 20
5.6385260814
 30
0.0
 10
4.249078681
 20
5.6389930107
 30
0.0
 10
4.273500857
 20
5.6396214488
 30
0.0
 10
4.3161092412
 20
5.6403004008
 30
0.0
 10
4.3690193191
 20
5.6407233735
 30
0.0
 10
4.4072506147
 20
5.6408235937
 30
0.0
 10
4.4272940606
 20
5.6408235937
 30
0.0
 11
4.2393423322
 21
5.6385260814
 31
0.0
 11
4.2685701442
 21
5.6394564661
 31
0.0
 11
4.312602102
 21
5.6401924568
 31
0.0
 11
4.3671639399
 21
5.6406620529
 31
0.0
 11
4.4272940606
 21
5.6408235937
 31
0.0
  0
SPLINE
  5
69D
100
AcDbEntity
  8
ASSI
100
AcDbSpline
 62
7
  6
CONTINUOUS
 70
0
 71
3
 72
11
 73
7
 74
5
 42
0.0000001
 43
0.0000001
 44
0.0000000001
 12
-0.1879629201
 22
0.0
 32
0.0
 13
-0.1877471435
 23
0.009003857
 33
0.0
 40
0.0
 40
0.0
 40
0.0
 40
0.0
 40
0.3199428211
 40
0.6102303145
 40
0.8444792159
 40
1.0
 40
1.0
 40
1.0
 40
1.0
 10
4.4207711554
 20
3.9893565402
 30
0.0
 10
4.4007253597
 20
3.9893565402
 30
0.0
 10
4.3624919058
 20
3.9894567434
 30
0.0
 10
4.3095823354
 20
3.9898796247
 30
0.0
 10
4.2669802997
 20
3.9905583829
 30
0.0
 10
4.2425642781
 20
3.991186567
 30
0.0
 10
4.2328314171
 20
3.9916533293
 30
0.0
 11
4.4207711554
 21
3.9893565402
 31
0.0
 11
4.3606339854
 21
3.9895180685
 31
0.0
 11
4.3060727206
 21
3.9899875827
 31
0.0
 11
4.2620487609
 21
3.9907233431
 31
0.0
 11
4.2328314171
 21
3.9916533293
 31
0.0
  0
SPLINE
  5
69E
100
AcDbEntity
  8
ASSI
100
AcDbSpline
 62
7
  6
CONTINUOUS
 70
0
 71
3
 72
11
 73
7
 74
5
 42
0.0000001
 43
0.0000001
 44
0.0000000001
 12
-0.1877471435
 22
-0.009003857
 32
0.0
 13
-0.1879629201
 23
0.0
 33
0.0
 40
0.0
 40
0.0
 40
0.0
 40
0.0
 40
0.1555207841
 40
0.3897696855
 40
0.6800571789
 40
1.0
 40
1.0
 40
1.0
 40
1.0
 10
-4.2380408308
 20
3.9916533293
 30
0.0
 10
-4.2477736918
 20
3.991186567
 30
0.0
 10
-4.2721897134
 20
3.9905583829
 30
0.0
 10
-4.3147917491
 20
3.9898796247
 30
0.0
 10
-4.3677013195
 20
3.9894567434
 30
0.0
 10
-4.4059347734
 20
3.9893565402
 30
0.0
 10
-4.4259805691
 20
3.9893565402
 30
0.0
 11
-4.2380408308
 21
3.9916533293
 31
0.0
 11
-4.2672581746
 21
3.9907233431
 31
0.0
 11
-4.3112821343
 21
3.9899875827
 31
0.0
 11
-4.3658433991
 21
3.9895180685
 31
0.0
 11
-4.4259805691
 21
3.9893565402
 31
0.0
  0
SPLINE
  5
69F
100
AcDbEntity
  8
ASSI
100
AcDbSpline
 62
7
  6
CONTINUOUS
 70
0
 71
3
 72
11
 73
7
 74
5
 42
0.0000001
 43
0.0000001
 44
0.0000000001
 12
0.1879749211
 22
0.0
 32
0.0
 13
0.1877591309
 23
-0.0090044277
 33
0.0
 40
0.0
 40
0.0
 40
0.0
 40
0.0
 40
0.3198848941
 40
0.6101569067
 40
0.8444334163
 40
1.0
 40
1.0
 40
1.0
 40
1.0
 10
-4.4325034743
 20
5.6408235937
 30
0.0
 10
-4.4124600284
 20
5.6408235937
 30
0.0
 10
-4.3742287329
 20
5.6407233735
 30
0.0
 10
-4.3213186549
 20
5.6403004008
 30
0.0
 10
-4.2787102708
 20
5.6396214488
 30
0.0
 10
-4.2542880948
 20
5.6389930107
 30
0.0
 10
-4.2445517459
 20
5.6385260814
 30
0.0
 11
-4.4325034743
 21
5.6408235937
 31
0.0
 11
-4.3723733536
 21
5.6406620529
 31
0.0
 11
-4.3178115157
 21
5.6401924568
 31
0.0
 11
-4.2737795579
 21
5.6394564661
 31
0.0
 11
-4.2445517459
 21
5.6385260814
 31
0.0
  0
ELLIPSE
  5
6A0
100
AcDbEntity
  8
RACCORDO
100
AcDbEllipse
 62
7
  6
CONTINUOUS
 10
12.0338642032
 20
-9.0283109082
 30
0.0
 11
0.2183310446
 21
0.1221043275
 31
0.0
 40
0.9980297029
 41
-2.0815635429
 42
-0.5109195152
  0
ELLIPSE
  5
6A1
100
AcDbEntity
  8
RACCORDO
100
AcDbEllipse
 62
7
  6
CONTINUOUS
 10
-12.0390736169
 20
-9.0283109082
 30
0.0
 11
0.2183310446
 21
-0.1221043275
 31
0.0
 40
0.9980297029
 41
-2.6306731384
 42
-1.0600291107
  0
ELLIPSE
  5
6A2
100
AcDbEntity
  8
RACCORDO
100
AcDbEllipse
 62
7
  6
CONTINUOUS
 10
-12.0455845989
 20
8.9579134741
 30
0.0
 11
-0.1768305473
 21
0.1768305473
 31
0.0
 40
0.9996954599
 41
-0.7852458701
 42
0.7852458701
  0
ELLIPSE
  5
6A3
100
AcDbEntity
  8
RACCORDO
100
AcDbEllipse
 62
7
  6
CONTINUOUS
 10
12.0403751852
 20
8.9579134741
 30
0.0
 11
-0.1768305473
 21
-0.1768305473
 31
0.0
 40
0.9996954599
 41
2.3563467834
 42
3.9268385237
  0
ELLIPSE
  5
6A4
100
AcDbEntity
  8
RACCORDO
100
AcDbEllipse
 62
7
  6
CONTINUOUS
 10
-12.3008592004
 20
8.2573775662
 30
0.0
 11
-0.0
 21
0.3
 31
0.0
 40
0.0174550649
 41
-3.1241393611
 42
-1.5707963268
  0
ELLIPSE
  5
6A5
100
AcDbEntity
  8
RACCORDO
100
AcDbEllipse
 62
7
  6
CONTINUOUS
 10
12.2956497866
 20
8.2573775662
 30
0.0
 11
-0.0
 21
0.3
 31
0.0
 40
0.0174550649
 41
-4.7123889804
 42
-3.1590459461
  0
ELLIPSE
  5
6A6
100
AcDbEntity
  8
DRAFT
100
AcDbEllipse
 62
7
  6
CONTINUOUS
 10
-17.2256233111
 20
9.4149335821
 30
0.0
 11
0.0
 21
423.7
 31
0.0
 40
0.0174550649
 41
-1.6090810457
 42
-1.6073450502
  0
ELLIPSE
  5
6A7
100
AcDbEntity
  8
DRAFT
100
AcDbEllipse
 62
7
  6
CONTINUOUS
 10
-17.2256233111
 20
9.4149335821
 30
0.0
 11
0.0
 21
423.7
 31
0.0
 40
0.0174550649
 41
-1.5904371127
 42
-1.588683735
  0
ELLIPSE
  5
6A8
100
AcDbEntity
  8
RACCORDO
100
AcDbEllipse
 62
7
  6
CONTINUOUS
 10
-0.1795861026
 20
9.4149335821
 30
0.0
 11
0.0
 21
423.7
 31
0.0
 40
0.0174550649
 41
-4.7090312901
 42
-4.6981756364
  0
ELLIPSE
  5
6A9
100
AcDbEntity
  8
RACCORDO
100
AcDbEllipse
 62
7
  6
CONTINUOUS
 10
10.8833855428
 20
-7.8893768498
 30
0.0
 11
-0.0300136675
 21
0.3031910442
 31
0.0
 40
0.9846622838
 41
-3.2387599651
 42
-1.6709942215
  0
ELLIPSE
  5
6AA
100
AcDbEntity
  8
RACCORDO
100
AcDbEllipse
 62
7
  6
CONTINUOUS
 10
-10.8885949565
 20
-7.8893768498
 30
0.0
 11
0.0300136675
 21
0.3031910442
 31
0.0
 40
0.9846622838
 41
-4.6121910857
 42
-3.0444253421
  0
ELLIPSE
  5
6AB
100
AcDbEntity
  8
RACCORDO
100
AcDbEllipse
 62
7
  6
CONTINUOUS
 10
-7.0474138858
 20
8.0096970626
 30
0.0
 11
0.3
 21
0.0
 31
0.0
 40
0.0174550649
 41
0.0174532925
 42
1.5707963268
  0
ELLIPSE
  5
6AC
100
AcDbEntity
  8
RACCORDO
100
AcDbEllipse
 62
7
  6
CONTINUOUS
 10
-14.1256233111
 20
9.4149335821
 30
0.0
 11
0.0
 21
423.7
 31
0.0
 40
0.0174550649
 41
-1.5850096708
 42
-1.5741540171
  0
ELLIPSE
  5
6AD
100
AcDbEntity
  8
RACCORDO
100
AcDbEllipse
 62
7
  6
CONTINUOUS
 10
14.1204138974
 20
9.4149335821
 30
0.0
 11
0.0
 21
423.7
 31
0.0
 40
0.0174550649
 41
-4.7090312901
 42
-4.6981756364
  0
ELLIPSE
  5
6AE
100
AcDbEntity
  8
RACCORDO
100
AcDbEllipse
 62
7
  6
CONTINUOUS
 10
0.1743766889
 20
9.4149335821
 30
0.0
 11
0.0
 21
423.7
 31
0.0
 40
0.0174550649
 41
-1.5850096708
 42
-1.5741540171
  0
ELLIPSE
  5
6AF
100
AcDbEntity
  8
RACCORDO
100
AcDbEllipse
 62
7
  6
CONTINUOUS
 10
-7.2577955279
 20
8.0096970626
 30
0.0
 11
0.3
 21
-0.0
 31
0.0
 40
0.0174550649
 41
1.5707963268
 42
3.1241393611
  0
ELLIPSE
  5
6B0
100
AcDbEntity
  8
RACCORDO
100
AcDbEllipse
 62
7
  6
CONTINUOUS
 10
7.0422044721
 20
8.0096970626
 30
0.0
 11
0.3
 21
-0.0
 31
0.0
 40
0.0174550649
 41
1.5707963268
 42
3.1241393611
  0
ELLIPSE
  5
6B1
100
AcDbEntity
  8
RACCORDO
100
AcDbEllipse
 62
7
  6
CONTINUOUS
 10
7.2525861142
 20
8.0096970626
 30
0.0
 11
0.3
 21
-0.0
 31
0.0
 40
0.0174550649
 41
0.0174532925
 42
1.5707963268
  0
ELLIPSE
  5
6B2
100
AcDbEntity
  8
RACCORDO
100
AcDbEllipse
 62
7
  6
CONTINUOUS
 10
-3.5425424454
 20
5.6201701015
 30
0.0
 11
0.3
 21
-0.0
 31
0.0
 40
0.0174550649
 41
-2.7925268032
 42
-1.5707963268
  0
ELLIPSE
  5
6B3
100
AcDbEntity
  8
RACCORDO
100
AcDbEllipse
 62
7
  6
CONTINUOUS
 10
3.5373330317
 20
5.6201701015
 30
0.0
 11
0.3
 21
-0.0
 31
0.0
 40
0.0174550649
 41
-1.5707963268
 42
-0.3490658504
  0
ELLIPSE
  5
6B4
100
AcDbEntity
  8
DRAFT
100
AcDbEllipse
 62
7
  6
CONTINUOUS
 10
17.2204138974
 20
9.4149335821
 30
0.0
 11
-0.0
 21
423.7
 31
0.0
 40
0.0174550649
 41
-4.6945015721
 42
-4.6927481945
  0
ELLIPSE
  5
6B5
100
AcDbEntity
  8
RACCORDO
100
AcDbEllipse
 62
7
  6
CONTINUOUS
 10
-3.5425424454
 20
4.0096970626
 30
0.0
 11
0.3
 21
0.0
 31
0.0
 40
0.0174550649
 41
1.5707963268
 42
2.7925268032
  0
ELLIPSE
  5
6B6
100
AcDbEntity
  8
DRAFT
100
AcDbEllipse
 62
7
  6
CONTINUOUS
 10
17.2204138974
 20
9.4149335821
 30
0.0
 11
0.0
 21
423.7
 31
0.0
 40
0.0174550649
 41
-4.675840257
 42
-4.6741042615
  0
ELLIPSE
  5
6B7
100
AcDbEntity
  8
RACCORDO
100
AcDbEllipse
 62
7
  6
CONTINUOUS
 10
3.5373330317
 20
4.0096970626
 30
0.0
 11
0.3
 21
0.0
 31
0.0
 40
0.0174550649
 41
0.3490658504
 42
1.5707963268
  0
ELLIPSE
  5
6B8
100
AcDbEntity
  8
RACCORDO
100
AcDbEllipse
 62
7
  6
CONTINUOUS
 10
-1.3581682462
 20
9.4149335821
 30
0.0
 11
0.0
 21
423.7
 31
0.0
 40
0.0174550649
 41
-1.6103149114
 42
-1.60848535
  0
ELLIPSE
  5
6B9
100
AcDbEntity
  8
RACCORDO
100
AcDbEllipse
 62
7
  6
CONTINUOUS
 10
12.5529588325
 20
9.4149335821
 30
0.0
 11
0.0
 21
423.7
 31
0.0
 40
0.0174550649
 41
-4.6746999572
 42
-4.6728703958
  0
ELLIPSE
  5
6BA
100
AcDbEntity
  8
DRAFT
100
AcDbEllipse
 62
7
  6
CONTINUOUS
 10
-3.0889333233
 20
9.4149335821
 30
0.0
 11
0.0
 21
423.7
 31
0.0
 40
0.0174550649
 41
-4.6861185815
 42
-4.6805882475
  0
ELLIPSE
  5
6BB
100
AcDbEntity
  8
DRAFT
100
AcDbEllipse
 62
7
  6
CONTINUOUS
 10
-18.8162760904
 20
9.4149335821
 30
0.0
 11
0.0
 21
423.7
 31
0.0
 40
0.0174550649
 41
-1.6025970597
 42
-1.5970667257
  0
ELLIPSE
  5
6BC
100
AcDbEntity
  8
DRAFT
100
AcDbEllipse
 62
7
  6
CONTINUOUS
 10
3.0837239096
 20
9.4149335821
 30
0.0
 11
0.0
 21
423.7
 31
0.0
 40
0.0174550649
 41
-1.6025970597
 42
-1.5970667257
  0
ELLIPSE
  5
6BD
100
AcDbEntity
  8
DRAFT
100
AcDbEllipse
 62
7
  6
CONTINUOUS
 10
18.8110666767
 20
9.4149335821
 30
0.0
 11
0.0
 21
423.7
 31
0.0
 40
0.0174550649
 41
-4.6861185815
 42
-4.6805882475
  0
ELLIPSE
  5
6BE
100
AcDbEntity
  8
RACCORDO
100
AcDbEllipse
 62
7
  6
CONTINUOUS
 10
-12.5581682462
 20
9.4149335821
 30
0.0
 11
0.0
 21
423.7
 31
0.0
 40
0.0174550649
 41
-1.6103149114
 42
-1.60848535
  0
ELLIPSE
  5
6BF
100
AcDbEntity
  8
RACCORDO
100
AcDbEllipse
 62
7
  6
CONTINUOUS
 10
1.3529588325
 20
9.4149335821
 30
0.0
 11
0.0
 21
423.7
 31
0.0
 40
0.0174550649
 41
-4.6746999572
 42
-4.6728703958
  0
ELLIPSE
  5
6C0
100
AcDbEntity
  8
RACCORDO
100
AcDbEllipse
 62
7
  6
CONTINUOUS
 10
-10.1823240156
 20
-6.7553928076
 30
0.0
 11
0.3
 21
0.0
 31
0.0
 40
0.0174550649
 41
0.0174532925
 42
1.5707963268
  0
ELLIPSE
  5
6C1
100
AcDbEntity
  8
RACCORDO
100
AcDbEllipse
 62
7
  6
CONTINUOUS
 10
-10.1823240156
 20
-6.1147400283
 30
0.0
 11
0.3
 21
-0.0
 31
0.0
 40
0.0174550649
 41
-1.5707963268
 42
-0.0174532925
  0
ELLIPSE
  5
6C2
100
AcDbEntity
  8
RACCORDO
100
AcDbEllipse
 62
7
  6
CONTINUOUS
 10
-10.1823240156
 20
1.1446071924
 30
0.0
 11
0.3
 21
-0.0
 31
0.0
 40
0.0174550649
 41
0.0174532925
 42
1.5707963268
  0
ELLIPSE
  5
6C3
100
AcDbEntity
  8
RACCORDO
100
AcDbEllipse
 62
7
  6
CONTINUOUS
 10
-10.1823240156
 20
1.7852599717
 30
0.0
 11
0.3
 21
-0.0
 31
0.0
 40
0.0174550649
 41
-1.5707963268
 42
-0.0174532925
  0
ELLIPSE
  5
6C4
100
AcDbEntity
  8
RACCORDO
100
AcDbEllipse
 62
7
  6
CONTINUOUS
 10
10.1771146019
 20
-6.1147400283
 30
0.0
 11
0.3
 21
0.0
 31
0.0
 40
0.0174550649
 41
-3.1241393611
 42
-1.5707963268
  0
ELLIPSE
  5
6C5
100
AcDbEntity
  8
RACCORDO
100
AcDbEllipse
 62
7
  6
CONTINUOUS
 10
10.1771146019
 20
-6.7553928076
 30
0.0
 11
0.3
 21
0.0
 31
0.0
 40
0.0174550649
 41
1.5707963268
 42
3.1241393611
  0
ELLIPSE
  5
6C6
100
AcDbEntity
  8
RACCORDO
100
AcDbEllipse
 62
7
  6
CONTINUOUS
 10
10.1771146019
 20
1.7852599717
 30
0.0
 11
0.3
 21
0.0
 31
0.0
 40
0.0174550649
 41
-3.1241393611
 42
-1.5707963268
  0
ELLIPSE
  5
6C7
100
AcDbEntity
  8
RACCORDO
100
AcDbEllipse
 62
7
  6
CONTINUOUS
 10
10.1771146019
 20
1.1446071924
 30
0.0
 11
0.3
 21
0.0
 31
0.0
 40
0.0174550649
 41
1.5707963268
 42
3.1241393611
  0
ELLIPSE
  5
6C8
100
AcDbEntity
  8
RACCORDO
100
AcDbEllipse
 62
7
  6
CONTINUOUS
 10
-6.0317454887
 20
-7.312880323
 30
0.0
 11
0.0
 21
0.3
 31
0.0
 40
0.0174550649
 41
-4.6728703958
 42
-3.3161255788
  0
ELLIPSE
  5
6C9
100
AcDbEntity
  8
RACCORDO
100
AcDbEllipse
 62
7
  6
CONTINUOUS
 10
-5.1734639251
 20
-7.312880323
 30
0.0
 11
0.0
 21
0.3
 31
0.0
 40
0.0174550649
 41
-2.9670597284
 42
-1.6103149114
  0
ELLIPSE
  5
6CA
100
AcDbEntity
  8
RACCORDO
100
AcDbEllipse
 62
7
  6
CONTINUOUS
 10
6.0265360749
 20
-7.312880323
 30
0.0
 11
-0.0
 21
0.3
 31
0.0
 40
0.0174550649
 41
-2.9670597284
 42
-1.6103149114
  0
ELLIPSE
  5
6CB
100
AcDbEntity
  8
RACCORDO
100
AcDbEllipse
 62
7
  6
CONTINUOUS
 10
5.1682545113
 20
-7.312880323
 30
0.0
 11
-0.0
 21
0.3
 31
0.0
 40
0.0174550649
 41
-4.6728703958
 42
-3.3161255788
  0
ELLIPSE
  5
6CC
100
AcDbEntity
  8
RACCORDO
100
AcDbEllipse
 62
7
  6
CONTINUOUS
 10
5.7025861142
 20
-7.85898357
 30
0.0
 11
0.3
 21
-0.0
 31
0.0
 40
0.1763269807
 41
-1.5707963268
 42
-0.0174532925
  0
ELLIPSE
  5
6CD
100
AcDbEntity
  8
RACCORDO
100
AcDbEllipse
 62
7
  6
CONTINUOUS
 10
-11.2008592004
 20
8.2573775662
 30
0.0
 11
-0.0
 21
0.3
 31
0.0
 40
0.0174550649
 41
-3.1241393611
 42
-1.5707963268
  0
ELLIPSE
  5
6CE
100
AcDbEntity
  8
RACCORDO
100
AcDbEllipse
 62
7
  6
CONTINUOUS
 10
11.1956497866
 20
8.2573775662
 30
0.0
 11
-0.0
 21
0.3
 31
0.0
 40
0.0174550649
 41
-4.7123889804
 42
-3.1590459461
  0
ELLIPSE
  5
6CF
100
AcDbEntity
  8
RACCORDO
100
AcDbEllipse
 62
7
  6
CONTINUOUS
 10
-5.4974138858
 20
-7.85898357
 30
0.0
 11
0.3
 21
-0.0
 31
0.0
 40
0.1763269807
 41
-1.5707963268
 42
-0.0174532925
  0
ELLIPSE
  5
6D0
100
AcDbEntity
  8
RACCORDO
100
AcDbEllipse
 62
7
  6
CONTINUOUS
 10
-5.7077955279
 20
-7.85898357
 30
0.0
 11
0.3
 21
-0.0
 31
0.0
 40
0.1763269807
 41
-3.1241393611
 42
-1.5707963268
  0
ELLIPSE
  5
6D1
100
AcDbEntity
  8
RACCORDO
100
AcDbEllipse
 62
7
  6
CONTINUOUS
 10
5.4922044721
 20
-7.85898357
 30
0.0
 11
0.3
 21
0.0
 31
0.0
 40
0.1763269807
 41
-3.1241393611
 42
-1.5707963268
  0
ELLIPSE
  5
6D2
100
AcDbEntity
  8
ASSI
100
AcDbEllipse
 62
7
  6
CONTINUOUS
 10
12.0338642032
 20
-9.0283109082
 30
0.0
 11
0.2183310446
 21
0.1221043275
 31
0.0
 40
0.9980297029
 41
-2.0815635429
 42
-0.5109195152
  0
ELLIPSE
  5
6D3
100
AcDbEntity
  8
ASSI
100
AcDbEllipse
 62
7
  6
CONTINUOUS
 10
-12.0390736169
 20
-9.0283109082
 30
0.0
 11
0.2183310446
 21
-0.1221043275
 31
0.0
 40
0.9980297029
 41
-2.6306731384
 42
-1.0600291107
  0
ELLIPSE
  5
6D4
100
AcDbEntity
  8
ASSI
100
AcDbEllipse
 62
7
  6
CONTINUOUS
 10
-12.0455845989
 20
8.9579134741
 30
0.0
 11
-0.1768305473
 21
0.1768305473
 31
0.0
 40
0.9996954599
 41
-0.7852458701
 42
0.7852458701
  0
ELLIPSE
  5
6D5
100
AcDbEntity
  8
ASSI
100
AcDbEllipse
 62
7
  6
CONTINUOUS
 10
12.0403751852
 20
8.9579134741
 30
0.0
 11
-0.1768305473
 21
-0.1768305473
 31
0.0
 40
0.9996954599
 41
2.3563467834
 42
3.9268385237
  0
ELLIPSE
  5
6D6
100
AcDbEntity
  8
ASSI
100
AcDbEllipse
 62
7
  6
CONTINUOUS
 10
-12.3008592004
 20
8.2573775662
 30
0.0
 11
-0.0
 21
0.3
 31
0.0
 40
0.0174550649
 41
-3.1241393611
 42
-1.5707963268
  0
ELLIPSE
  5
6D7
100
AcDbEntity
  8
ASSI
100
AcDbEllipse
 62
7
  6
CONTINUOUS
 10
12.2956497866
 20
8.2573775662
 30
0.0
 11
-0.0
 21
0.3
 31
0.0
 40
0.0174550649
 41
-4.7123889804
 42
-3.1590459461
  0
ELLIPSE
  5
6D8
100
AcDbEntity
  8
ASSI
100
AcDbEllipse
 62
7
  6
CONTINUOUS
 10
-1.3581682462
 20
9.4149335821
 30
0.0
 11
0.0
 21
423.7
 31
0.0
 40
0.0174550649
 41
-1.6103149114
 42
-1.60848535
  0
ELLIPSE
  5
6D9
100
AcDbEntity
  8
ASSI
100
AcDbEllipse
 62
7
  6
CONTINUOUS
 10
12.5529588325
 20
9.4149335821
 30
0.0
 11
0.0
 21
423.7
 31
0.0
 40
0.0174550649
 41
-4.6746999572
 42
-4.6728703958
  0
ELLIPSE
  5
6DA
100
AcDbEntity
  8
ASSI
100
AcDbEllipse
 62
7
  6
CONTINUOUS
 10
-12.5581682462
 20
9.4149335821
 30
0.0
 11
0.0
 21
423.7
 31
0.0
 40
0.0174550649
 41
-1.6103149114
 42
-1.60848535
  0
ELLIPSE
  5
6DB
100
AcDbEntity
  8
ASSI
100
AcDbEllipse
 62
7
  6
CONTINUOUS
 10
1.3529588325
 20
9.4149335821
 30
0.0
 11
0.0
 21
423.7
 31
0.0
 40
0.0174550649
 41
-4.6746999572
 42
-4.6728703958
  0
ELLIPSE
  5
6DC
100
AcDbEntity
  8
ASSI
100
AcDbEllipse
 62
7
  6
CONTINUOUS
 10
-17.2256233111
 20
9.4149335821
 30
0.0
 11
0.0
 21
423.7
 31
0.0
 40
0.0174550649
 41
-1.6090810457
 42
-1.6073450502
  0
ELLIPSE
  5
6DD
100
AcDbEntity
  8
ASSI
100
AcDbEllipse
 62
7
  6
CONTINUOUS
 10
10.8833855428
 20
-7.8893768498
 30
0.0
 11
-0.0300136675
 21
0.3031910442
 31
0.0
 40
0.9846622838
 41
-3.2387599651
 42
-1.6709942215
  0
ELLIPSE
  5
6DE
100
AcDbEntity
  8
ASSI
100
AcDbEllipse
 62
7
  6
CONTINUOUS
 10
-10.8885949565
 20
-7.8893768498
 30
0.0
 11
0.0300136675
 21
0.3031910442
 31
0.0
 40
0.9846622838
 41
-4.6121910857
 42
-3.0444253421
  0
ELLIPSE
  5
6DF
100
AcDbEntity
  8
ASSI
100
AcDbEllipse
 62
7
  6
CONTINUOUS
 10
-7.0474138858
 20
8.0096970626
 30
0.0
 11
0.3
 21
0.0
 31
0.0
 40
0.0174550649
 41
0.0174532925
 42
1.5707963268
  0
ELLIPSE
  5
6E0
100
AcDbEntity
  8
ASSI
100
AcDbEllipse
 62
7
  6
CONTINUOUS
 10
-17.2256233111
 20
9.4149335821
 30
0.0
 11
0.0
 21
423.7
 31
0.0
 40
0.0174550649
 41
-1.5904371127
 42
-1.588683735
  0
ELLIPSE
  5
6E1
100
AcDbEntity
  8
ASSI
100
AcDbEllipse
 62
7
  6
CONTINUOUS
 10
-0.1795861026
 20
9.4149335821
 30
0.0
 11
0.0
 21
423.7
 31
0.0
 40
0.0174550649
 41
-4.7090312901
 42
-4.6981756364
  0
ELLIPSE
  5
6E2
100
AcDbEntity
  8
ASSI
100
AcDbEllipse
 62
7
  6
CONTINUOUS
 10
-14.1256233111
 20
9.4149335821
 30
0.0
 11
0.0
 21
423.7
 31
0.0
 40
0.0174550649
 41
-1.5850096708
 42
-1.5741540171
  0
ELLIPSE
  5
6E3
100
AcDbEntity
  8
ASSI
100
AcDbEllipse
 62
7
  6
CONTINUOUS
 10
-7.2577955279
 20
8.0096970626
 30
0.0
 11
0.3
 21
-0.0
 31
0.0
 40
0.0174550649
 41
1.5707963268
 42
3.1241393611
  0
ELLIPSE
  5
6E4
100
AcDbEntity
  8
ASSI
100
AcDbEllipse
 62
7
  6
CONTINUOUS
 10
14.1204138974
 20
9.4149335821
 30
0.0
 11
0.0
 21
423.7
 31
0.0
 40
0.0174550649
 41
-4.7090312901
 42
-4.6981756364
  0
ELLIPSE
  5
6E5
100
AcDbEntity
  8
ASSI
100
AcDbEllipse
 62
7
  6
CONTINUOUS
 10
0.1743766889
 20
9.4149335821
 30
0.0
 11
0.0
 21
423.7
 31
0.0
 40
0.0174550649
 41
-1.5850096708
 42
-1.5741540171
  0
ELLIPSE
  5
6E6
100
AcDbEntity
  8
ASSI
100
AcDbEllipse
 62
7
  6
CONTINUOUS
 10
17.2204138974
 20
9.4149335821
 30
0.0
 11
0.0
 21
423.7
 31
0.0
 40
0.0174550649
 41
-4.675840257
 42
-4.6741042615
  0
ELLIPSE
  5
6E7
100
AcDbEntity
  8
ASSI
100
AcDbEllipse
 62
7
  6
CONTINUOUS
 10
7.0422044721
 20
8.0096970626
 30
0.0
 11
0.3
 21
-0.0
 31
0.0
 40
0.0174550649
 41
1.5707963268
 42
3.1241393611
  0
ELLIPSE
  5
6E8
100
AcDbEntity
  8
ASSI
100
AcDbEllipse
 62
7
  6
CONTINUOUS
 10
7.2525861142
 20
8.0096970626
 30
0.0
 11
0.3
 21
-0.0
 31
0.0
 40
0.0174550649
 41
0.0174532925
 42
1.5707963268
  0
ELLIPSE
  5
6E9
100
AcDbEntity
  8
ASSI
100
AcDbEllipse
 62
7
  6
CONTINUOUS
 10
-3.5425424454
 20
5.6201701015
 30
0.0
 11
0.3
 21
-0.0
 31
0.0
 40
0.0174550649
 41
-2.7925268032
 42
-1.5707963268
  0
ELLIPSE
  5
6EA
100
AcDbEntity
  8
ASSI
100
AcDbEllipse
 62
7
  6
CONTINUOUS
 10
3.5373330317
 20
5.6201701015
 30
0.0
 11
0.3
 21
-0.0
 31
0.0
 40
0.0174550649
 41
-1.5707963268
 42
-0.3490658504
  0
ELLIPSE
  5
6EB
100
AcDbEntity
  8
ASSI
100
AcDbEllipse
 62
7
  6
CONTINUOUS
 10
-3.5425424454
 20
4.0096970626
 30
0.0
 11
0.3
 21
0.0
 31
0.0
 40
0.0174550649
 41
1.5707963268
 42
2.7925268032
  0
ELLIPSE
  5
6EC
100
AcDbEntity
  8
ASSI
100
AcDbEllipse
 62
7
  6
CONTINUOUS
 10
3.5373330317
 20
4.0096970626
 30
0.0
 11
0.3
 21
0.0
 31
0.0
 40
0.0174550649
 41
0.3490658504
 42
1.5707963268
  0
ELLIPSE
  5
6ED
100
AcDbEntity
  8
ASSI
100
AcDbEllipse
 62
7
  6
CONTINUOUS
 10
-3.0889333233
 20
9.4149335821
 30
0.0
 11
0.0
 21
423.7
 31
0.0
 40
0.0174550649
 41
-4.6861185815
 42
-4.6805882475
  0
ELLIPSE
  5
6EE
100
AcDbEntity
  8
ASSI
100
AcDbEllipse
 62
7
  6
CONTINUOUS
 10
-18.8162760904
 20
9.4149335821
 30
0.0
 11
0.0
 21
423.7
 31
0.0
 40
0.0174550649
 41
-1.6025970597
 42
-1.5970667257
  0
ELLIPSE
  5
6EF
100
AcDbEntity
  8
ASSI
100
AcDbEllipse
 62
7
  6
CONTINUOUS
 10
3.0837239096
 20
9.4149335821
 30
0.0
 11
0.0
 21
423.7
 31
0.0
 40
0.0174550649
 41
-1.6025970597
 42
-1.5970667257
  0
ELLIPSE
  5
6F0
100
AcDbEntity
  8
ASSI
100
AcDbEllipse
 62
7
  6
CONTINUOUS
 10
18.8110666767
 20
9.4149335821
 30
0.0
 11
0.0
 21
423.7
 31
0.0
 40
0.0174550649
 41
-4.6861185815
 42
-4.6805882475
  0
ELLIPSE
  5
6F1
100
AcDbEntity
  8
ASSI
100
AcDbEllipse
 62
7
  6
CONTINUOUS
 10
17.2204138974
 20
9.4149335821
 30
0.0
 11
-0.0
 21
423.7
 31
0.0
 40
0.0174550649
 41
-4.6945015721
 42
-4.6927481945
  0
ELLIPSE
  5
6F2
100
AcDbEntity
  8
ASSI
100
AcDbEllipse
 62
7
  6
CONTINUOUS
 10
-10.1823240156
 20
-6.7553928076
 30
0.0
 11
0.3
 21
0.0
 31
0.0
 40
0.0174550649
 41
0.0174532925
 42
1.5707963268
  0
ELLIPSE
  5
6F3
100
AcDbEntity
  8
ASSI
100
AcDbEllipse
 62
7
  6
CONTINUOUS
 10
-10.1823240156
 20
-6.1147400283
 30
0.0
 11
0.3
 21
-0.0
 31
0.0
 40
0.0174550649
 41
-1.5707963268
 42
-0.0174532925
  0
ELLIPSE
  5
6F4
100
AcDbEntity
  8
ASSI
100
AcDbEllipse
 62
7
  6
CONTINUOUS
 10
-10.1823240156
 20
1.1446071924
 30
0.0
 11
0.3
 21
-0.0
 31
0.0
 40
0.0174550649
 41
0.0174532925
 42
1.5707963268
  0
ELLIPSE
  5
6F5
100
AcDbEntity
  8
ASSI
100
AcDbEllipse
 62
7
  6
CONTINUOUS
 10
-10.1823240156
 20
1.7852599717
 30
0.0
 11
0.3
 21
-0.0
 31
0.0
 40
0.0174550649
 41
-1.5707963268
 42
-0.0174532925
  0
ELLIPSE
  5
6F6
100
AcDbEntity
  8
ASSI
100
AcDbEllipse
 62
7
  6
CONTINUOUS
 10
10.1771146019
 20
-6.1147400283
 30
0.0
 11
0.3
 21
0.0
 31
0.0
 40
0.0174550649
 41
-3.1241393611
 42
-1.5707963268
  0
ELLIPSE
  5
6F7
100
AcDbEntity
  8
ASSI
100
AcDbEllipse
 62
7
  6
CONTINUOUS
 10
10.1771146019
 20
-6.7553928076
 30
0.0
 11
0.3
 21
0.0
 31
0.0
 40
0.0174550649
 41
1.5707963268
 42
3.1241393611
  0
ELLIPSE
  5
6F8
100
AcDbEntity
  8
ASSI
100
AcDbEllipse
 62
7
  6
CONTINUOUS
 10
10.1771146019
 20
1.7852599717
 30
0.0
 11
0.3
 21
0.0
 31
0.0
 40
0.0174550649
 41
-3.1241393611
 42
-1.5707963268
  0
ELLIPSE
  5
6F9
100
AcDbEntity
  8
ASSI
100
AcDbEllipse
 62
7
  6
CONTINUOUS
 10
10.1771146019
 20
1.1446071924
 30
0.0
 11
0.3
 21
0.0
 31
0.0
 40
0.0174550649
 41
1.5707963268
 42
3.1241393611
  0
ELLIPSE
  5
6FA
100
AcDbEntity
  8
ASSI
100
AcDbEllipse
 62
7
  6
CONTINUOUS
 10
-6.0317454887
 20
-7.312880323
 30
0.0
 11
0.0
 21
0.3
 31
0.0
 40
0.0174550649
 41
-4.6728703958
 42
-3.3161255788
  0
ELLIPSE
  5
6FB
100
AcDbEntity
  8
ASSI
100
AcDbEllipse
 62
7
  6
CONTINUOUS
 10
-5.1734639251
 20
-7.312880323
 30
0.0
 11
0.0
 21
0.3
 31
0.0
 40
0.0174550649
 41
-2.9670597284
 42
-1.6103149114
  0
ELLIPSE
  5
6FC
100
AcDbEntity
  8
ASSI
100
AcDbEllipse
 62
7
  6
CONTINUOUS
 10
6.0265360749
 20
-7.312880323
 30
0.0
 11
-0.0
 21
0.3
 31
0.0
 40
0.0174550649
 41
-2.9670597284
 42
-1.6103149114
  0
ELLIPSE
  5
6FD
100
AcDbEntity
  8
ASSI
100
AcDbEllipse
 62
7
  6
CONTINUOUS
 10
5.1682545113
 20
-7.312880323
 30
0.0
 11
-0.0
 21
0.3
 31
0.0
 40
0.0174550649
 41
-4.6728703958
 42
-3.3161255788
  0
ELLIPSE
  5
6FE
100
AcDbEntity
  8
ASSI
100
AcDbEllipse
 62
7
  6
CONTINUOUS
 10
5.7025861142
 20
-7.85898357
 30
0.0
 11
0.3
 21
-0.0
 31
0.0
 40
0.1763269807
 41
-1.5707963268
 42
-0.0174532925
  0
ELLIPSE
  5
6FF
100
AcDbEntity
  8
ASSI
100
AcDbEllipse
 62
7
  6
CONTINUOUS
 10
-11.2008592004
 20
8.2573775662
 30
0.0
 11
-0.0
 21
0.3
 31
0.0
 40
0.0174550649
 41
-3.1241393611
 42
-1.5707963268
  0
ELLIPSE
  5
700
100
AcDbEntity
  8
ASSI
100
AcDbEllipse
 62
7
  6
CONTINUOUS
 10
11.1956497866
 20
8.2573775662
 30
0.0
 11
-0.0
 21
0.3
 31
0.0
 40
0.0174550649
 41
-4.7123889804
 42
-3.1590459461
  0
ELLIPSE
  5
701
100
AcDbEntity
  8
ASSI
100
AcDbEllipse
 62
7
  6
CONTINUOUS
 10
-5.4974138858
 20
-7.85898357
 30
0.0
 11
0.3
 21
-0.0
 31
0.0
 40
0.1763269807
 41
-1.5707963268
 42
-0.0174532925
  0
ELLIPSE
  5
702
100
AcDbEntity
  8
ASSI
100
AcDbEllipse
 62
7
  6
CONTINUOUS
 10
-5.7077955279
 20
-7.85898357
 30
0.0
 11
0.3
 21
-0.0
 31
0.0
 40
0.1763269807
 41
-3.1241393611
 42
-1.5707963268
  0
ELLIPSE
  5
703
100
AcDbEntity
  8
ASSI
100
AcDbEllipse
 62
7
  6
CONTINUOUS
 10
5.4922044721
 20
-7.85898357
 30
0.0
 11
0.3
 21
0.0
 31
0.0
 40
0.1763269807
 41
-3.1241393611
 42
-1.5707963268
  0
ENDSEC
  0
SECTION
  2
OBJECTS
  0
DICTIONARY
  5
C
100
AcDbDictionary
280
0
281
1
  3
ACAD_GROUP
350
D
  3
ACAD_MLINESTYLE
350
17
  3
ACAD_LAYOUT
350
1A
  3
ACAD_PLOTSETTINGS
350
19
  3
ACAD_PLOTSTYLENAME
350
E
  0
DICTIONARY
  5
D
102
{ACAD_REACTORS
330
C
102
}
100
AcDbDictionary
280
0
281
1
  0
ACDBDICTIONARYWDFLT
  5
E
102
{ACAD_REACTORS
330
C
102
}
100
AcDbDictionary
281
1
  3
Normal
350
F
100
AcDbDictionaryWithDefault
340
F
  0
DICTIONARY
  5
17
102
{ACAD_REACTORS
330
C
102
}
100
AcDbDictionary
280
0
281
1
  3
Standard
350
18
  0
DICTIONARY
  5
19
102
{ACAD_REACTORS
330
C
102
}
100
AcDbDictionary
281
1
  0
DICTIONARY
  5
1A
102
{ACAD_REACTORS
330
C
102
}
100
AcDbDictionary
281
1
  3
Model
350
704
  3
Layout1
350
705
  0
ACDBPLACEHOLDER
  5
F
102
{ACAD_REACTORS
330
E
102
}
  0
MLINESTYLE
  5
18
102
{ACAD_REACTORS
330
17
102
}
100
AcDbMlineStyle
  2
STANDARD
 70
0
  3

 62
256
 51
90.0
 52
90.0
 71
2
 49
0.5
 62
256
  6
BYLAYER
 49
-0.5
 62
256
  6
BYLAYER
  0
LAYOUT
  5
704
102
{ACAD_REACTORS
330
1A
102
}
100
AcDbPlotSettings
  1

  2
none_device
  4
ISO_A4_(297.00_x_210.00_MM)
  6

 40
0.0
 41
0.0
 42
0.0
 43
0.0
 44
297.0
 45
210.0
 46
0.0
 47
0.0
 48
0.0
 49
0.0
140
0.0
141
0.0
142
1.0
143
1.0
 70
1024
 72
1
 73
0
 74
0
  7

 75
0
147
1.0
148
0.0
149
0.0
100
AcDbLayout
  1
Model
 70
0
 71
0
 10
0.0
 20
0.0
 11
297.0
 21
210.0
 12
0.0
 22
0.0
 32
0.0
 14
0.0
 24
0.0
 34
0.0
 15
0.0
 25
0.0
 35
0.0
146
0.0
 13
0.0
 23
0.0
 33
0.0
 16
1.0
 26
0.0
 36
0.0
 17
0.0
 27
1.0
 37
0.0
 76
0
330
212
345
0
346
0
  0
LAYOUT
  5
705
102
{ACAD_REACTORS
330
1A
102
}
100
AcDbPlotSettings
  1

  2
none_device
  4
ISO_A4_(297.00_x_210.00_MM)
  6

 40
0.0
 41
0.0
 42
0.0
 43
0.0
 44
297.0
 45
210.0
 46
0.0
 47
0.0
 48
0.0
 49
0.0
140
0.0
141
0.0
142
1.0
143
1.0
 70
0
 72
1
 73
0
 74
0
  7

 75
0
147
1.0
148
0.0
149
0.0
100
AcDbLayout
  1
Layout1
 70
0
 71
1
 10
0.0
 20
0.0
 11
297.0
 21
210.0
 12
0.0
 22
0.0
 32
0.0
 14
0.0
 24
0.0
 34
0.0
 15
0.0
 25
0.0
 35
0.0
146
0.0
 13
0.0
 23
0.0
 33
0.0
 16
1.0
 26
0.0
 36
0.0
 17
0.0
 27
1.0
 37
0.0
 76
0
330
213
345
0
346
0
  0
ENDSEC
  0
EOF
