  0
SECTION
  2
HEADER
  9
$ACADVER
  1
AC1015
  9
$DWGCODEPAGE
  3
ANSI_1252
  9
$EXTMAX
 10
297.0
 20
210.0
 30
0.0
  9
$EXTMIN
 10
0.0
 20
0.0
 30
0.0
  9
$LIMMIN
 10
0.0
 20
0.0
  9
$LIMMAX
 10
297.0
 20
210.0
  9
$VIEWCTR
 10
148.5
 20
105.0
  9
$VIEWSIZE
 40
210.0
  9
$CLAYER
  8
0
  9
$LTSCALE
 40
16.335
  9
$CELTYPE
  6
BYLAYER
  9
$DIMSCALE
 40
1.0
  9
$DIMASZ
 40
3.0
  9
$DIMEXO
 40
1.85625
  9
$DIMDLI
 40
11.286
  9
$DIMEXE
 40
5.346
  9
$DIMCEN
 40
2.673
  9
$DIMLFAC
 40
1.0
  9
$DIMBLK
  1
_FILLED
  9
$DIMTXT
 40
3.0
  9
$DIMTOL
 70
1
  9
$DIMLIM
 70
0
  9
$DIMTFAC
 40
1.0
  9
$DIMTP
 40
0.01
  9
$DIMTM
 40
0.01
  9
$PDMODE
 70
3
  9
$PDSIZE
 40
3.0
  9
$HANDSEED
  5
4D7
  9
$TILEMODE
 70
1
  9
$MEASUREMENT
 70
1
  9
$INSUNITS
 70
4
  0
ENDSEC
  0
SECTION
  2
CLASSES
  0
CLASS
  1
ACDBDICTIONARYWDFLT
  2
AcDbDictionaryWithDefault
  3
AutoCAD 2000
 90
0
280
0
281
0
  0
CLASS
  1
ACDBPLACEHOLDER
  2
AcDbPlaceHolder
  3
AutoCAD 2000
 90
0
280
0
281
0
  0
CLASS
  1
LAYOUT
  2
AcDbLayout
  3
AutoCAD 2000
 90
0
280
0
281
0
  0
ENDSEC
  0
SECTION
  2
TABLES
  0
TABLE
  2
VPORT
  5
8
100
AcDbSymbolTable
 70
2
  0
VPORT
  5
1F4
100
AcDbSymbolTableRecord
100
AcDbViewportTableRecord
  2
*ACTIVE
 70
0
 10
0.0
 20
0.0
 11
1.0
 21
1.0
 12
148.5
 22
105.0
 13
0.0
 23
0.0
 14
1.0
 24
1.0
 15
0.0
 25
0.0
 16
0.0
 26
0.0
 36
1.0
 17
0.0
 27
0.0
 37
0.0
 40
210.0
 41
1.4142857143
 42
50.0
 43
0.0
 44
0.0
 50
0.0
 51
0.0
 71
0
 72
100
 73
1
 74
1
 75
0
 76
0
 77
0
 78
0
  0
ENDTAB
  0
TABLE
  2
LTYPE
  5
5
100
AcDbSymbolTable
 70
6
  0
LTYPE
  5
14
100
AcDbSymbolTableRecord
100
AcDbLinetypeTableRecord
  2
BYBLOCK
 70
0
  3

 72
65
 73
0
 40
0.0
  0
LTYPE
  5
15
100
AcDbSymbolTableRecord
100
AcDbLinetypeTableRecord
  2
BYLAYER
 70
0
  3

 72
65
 73
0
 40
0.0
  0
LTYPE
  5
16
100
AcDbSymbolTableRecord
100
AcDbLinetypeTableRecord
  2
CONTINUOUS
 70
64
  3
Solid line
 72
65
 73
0
 40
0.0
  0
LTYPE
  5
1F5
100
AcDbSymbolTableRecord
100
AcDbLinetypeTableRecord
  2
CENTER
 70
64
  3
____ _ ____ _ ____ _ ____ _ ____ _ ____ _ ____
 72
65
 73
4
 40
0.6
 49
0.375
 74
0
 49
-0.075
 74
0
 49
0.075
 74
0
 49
-0.075
 74
0
  0
LTYPE
  5
1F6
100
AcDbSymbolTableRecord
100
AcDbLinetypeTableRecord
  2
HIDDEN
 70
64
  3
- - - - - - - - - - - - - - - - - - - -
 72
65
 73
2
 40
0.2
 49
0.1
 74
0
 49
-0.1
 74
0
  0
LTYPE
  5
1F7
100
AcDbSymbolTableRecord
100
AcDbLinetypeTableRecord
  2
PHANTOM
 70
64
  3
_____ _ _ _____ _ _ _____ _ _ _____
 72
65
 73
6
 40
0.8
 49
0.45
 74
0
 49
-0.05
 74
0
 49
0.1
 74
0
 49
-0.05
 74
0
 49
0.1
 74
0
 49
-0.05
 74
0
  0
LTYPE
  5
1F8
100
AcDbSymbolTableRecord
100
AcDbLinetypeTableRecord
  2
DOT
 70
64
  3
. . . . . . . . . . . . . . . . . . . .
 72
65
 73
2
 40
0.2
 49
0.1
 74
0
 49
-0.1
 74
0
  0
LTYPE
  5
1F9
100
AcDbSymbolTableRecord
100
AcDbLinetypeTableRecord
  2
DASHED
 70
64
  3
- - - - - - - - - - - - - - - - - - - -
 72
65
 73
2
 40
0.2
 49
0.1
 74
0
 49
-0.1
 74
0
  0
ENDTAB
  0
TABLE
  2
LAYER
  5
2
100
AcDbSymbolTable
 70
36
  0
LAYER
  5
10
100
AcDbSymbolTableRecord
100
AcDbLayerTableRecord
  2
0
 70
0
 62
7
  6
CONTINUOUS
370
-3
390
F
  0
LAYER
  5
1FA
100
AcDbSymbolTableRecord
100
AcDbLayerTableRecord
  2
DEFAULT_1
 70
0
 62
7
  6
CENTER
370
-3
390
F
  0
LAYER
  5
1FB
100
AcDbSymbolTableRecord
100
AcDbLayerTableRecord
  2
DEFAULT_2
 70
0
 62
7
  6
HIDDEN
370
-3
390
F
  0
LAYER
  5
1FC
100
AcDbSymbolTableRecord
100
AcDbLayerTableRecord
  2
DEFAULT_3
 70
0
 62
7
  6
PHANTOM
370
-3
390
F
  0
LAYER
  5
1FD
100
AcDbSymbolTableRecord
100
AcDbLayerTableRecord
  2
ASSI
 70
0
 62
7
  6
CONTINUOUS
370
-3
390
F
  0
LAYER
  5
1FE
100
AcDbSymbolTableRecord
100
AcDbLayerTableRecord
  2
COORDINATE
 70
0
 62
7
  6
CONTINUOUS
370
-3
390
F
  0
LAYER
  5
1FF
100
AcDbSymbolTableRecord
100
AcDbLayerTableRecord
  2
COORD_ORIGINE
 70
0
 62
7
  6
CONTINUOUS
370
-3
390
F
  0
LAYER
  5
200
100
AcDbSymbolTableRecord
100
AcDbLayerTableRecord
  2
COPY_PUBLISH
 70
0
 62
7
  6
CONTINUOUS
370
-3
390
F
  0
LAYER
  5
201
100
AcDbSymbolTableRecord
100
AcDbLayerTableRecord
  2
COSMETIC
 70
0
 62
7
  6
CONTINUOUS
370
-3
390
F
  0
LAYER
  5
202
100
AcDbSymbolTableRecord
100
AcDbLayerTableRecord
  2
CURVE
 70
0
 62
7
  6
CONTINUOUS
370
-3
390
F
  0
LAYER
  5
203
100
AcDbSymbolTableRecord
100
AcDbLayerTableRecord
  2
DRAFT
 70
0
 62
7
  6
CONTINUOUS
370
-3
390
F
  0
LAYER
  5
204
100
AcDbSymbolTableRecord
100
AcDbLayerTableRecord
  2
IGES
 70
0
 62
7
  6
CONTINUOUS
370
-3
390
F
  0
LAYER
  5
205
100
AcDbSymbolTableRecord
100
AcDbLayerTableRecord
  2
IMPORT_IGES
 70
0
 62
7
  6
CONTINUOUS
370
-3
390
F
  0
LAYER
  5
206
100
AcDbSymbolTableRecord
100
AcDbLayerTableRecord
  2
NOTE
 70
0
 62
7
  6
CONTINUOUS
370
-3
390
F
  0
LAYER
  5
207
100
AcDbSymbolTableRecord
100
AcDbLayerTableRecord
  2
PIANI
 70
0
 62
7
  6
CONTINUOUS
370
-3
390
F
  0
LAYER
  5
208
100
AcDbSymbolTableRecord
100
AcDbLayerTableRecord
  2
PIANI_ORIGINE
 70
0
 62
7
  6
CONTINUOUS
370
-3
390
F
  0
LAYER
  5
209
100
AcDbSymbolTableRecord
100
AcDbLayerTableRecord
  2
RACCORDO
 70
0
 62
7
  6
CONTINUOUS
370
-3
390
F
  0
LAYER
  5
20A
100
AcDbSymbolTableRecord
100
AcDbLayerTableRecord
  2
SMUSSO
 70
0
 62
7
  6
CONTINUOUS
370
-3
390
F
  0
LAYER
  5
20B
100
AcDbSymbolTableRecord
100
AcDbLayerTableRecord
  2
SNAPLINE
 70
0
 62
7
  6
CONTINUOUS
370
-3
390
F
  0
LAYER
  5
20C
100
AcDbSymbolTableRecord
100
AcDbLayerTableRecord
  2
SUPERFICI
 70
0
 62
7
  6
CONTINUOUS
370
-3
390
F
  0
LAYER
  5
20D
100
AcDbSymbolTableRecord
100
AcDbLayerTableRecord
  2
TRASH
 70
0
 62
7
  6
CONTINUOUS
370
-3
390
F
  0
ENDTAB
  0
TABLE
  2
STYLE
  5
3
100
AcDbSymbolTable
 70
1
  0
STYLE
  5
11
100
AcDbSymbolTableRecord
100
AcDbTextStyleTableRecord
  2
STANDARD
 70
0
 40
0.0
 41
0.8
 50
0.0
 71
0
 42
0.2
  3
txt
  4

  0
STYLE
  5
20E
100
AcDbSymbolTableRecord
100
AcDbTextStyleTableRecord
  2
TEXTSTYLE_1
 70
0
 40
0.0
 41
0.8
 50
0.0
 71
0
 42
0.2
  3
gdt
  4

  0
ENDTAB
  0
TABLE
  2
VIEW
  5
6
100
AcDbSymbolTable
 70
0
  0
ENDTAB
  0
TABLE
  2
UCS
  5
7
100
AcDbSymbolTable
 70
0
  0
ENDTAB
  0
TABLE
  2
APPID
  5
9
100
AcDbSymbolTable
 70
1
  0
APPID
  5
20F
100
AcDbSymbolTableRecord
100
AcDbRegAppTableRecord
  2
ACAD
 70
0
  0
ENDTAB
  0
TABLE
  2
BLOCK_RECORD
  5
1
100
AcDbSymbolTable
 70
0
  0
BLOCK_RECORD
  5
210
100
AcDbSymbolTableRecord
100
AcDbBlockTableRecord
  2
*Model_Space
  0
BLOCK_RECORD
  5
211
100
AcDbSymbolTableRecord
100
AcDbBlockTableRecord
  2
*Paper_Space
  0
ENDTAB
  0
TABLE
  2
DIMSTYLE
  5
A
100
AcDbSymbolTable
 70
1
100
AcDbDimStyleTable
 71
0
  0
DIMSTYLE
105
212
100
AcDbSymbolTableRecord
100
AcDbDimStyleTableRecord
  2
STANDARD
 70
0
  3

  4

 40
1.0
 41
3.0
 42
0.0625
 43
0.38
 44
0.18
 45
0.0
 46
0.0
 47
0.01
 48
0.01
140
3.0
141
0.09
142
0.0
143
25.4
144
1.0
145
0.0
146
1.0
147
0.09
 71
1.0
 72
0.0
 73
0
 74
0
 75
0
 76
0
 77
1
 78
8
170
0
171
2
172
0
173
0
174
0
175
0
176
0
177
0
178
0
270
2
271
2
272
2
273
2
274
2
275
0
280
0
281
0
282
0
283
1
284
8
285
0
286
0
287
3
288
0
340
11
  0
ENDTAB
  0
ENDSEC
  0
SECTION
  2
BLOCKS
  0
BLOCK
  5
20
100
AcDbEntity
  8
0
100
AcDbBlockBegin
  2
*Model_Space
 70
0
 10
0.0
 20
0.0
 30
0.0
  3
*Model_Space
  1

  0
ENDBLK
  5
21
100
AcDbEntity
  8
0
100
AcDbBlockEnd
  0
BLOCK
  5
1C
100
AcDbEntity
  8
0
100
AcDbBlockBegin
  2
*Paper_Space
 70
0
 10
0.0
 20
0.0
 30
0.0
  3
*Paper_Space
  1

  0
ENDBLK
  5
1D
100
AcDbEntity
  8
0
100
AcDbBlockEnd
  0
ENDSEC
  0
SECTION
  2
ENTITIES
  0
LINE
  5
213
100
AcDbEntity
  8
RACCORDO
100
AcDbLine
 62
7
  6
CONTINUOUS
 10
-24.9498038742
 20
-8.950504966
 11
-24.963296952
 21
-1.5957308711
  0
LINE
  5
214
100
AcDbEntity
  8
DRAFT
100
AcDbLine
 62
7
  6
CONTINUOUS
 10
-24.963296952
 20
8.0334303448
 11
-24.963296952
 21
-1.5957308711
  0
LINE
  5
215
100
AcDbEntity
  8
RACCORDO
100
AcDbLine
 62
7
  6
CONTINUOUS
 10
-24.956314926
 20
8.3352215497
 11
-24.956314926
 21
9.0358336158
  0
LINE
  5
216
100
AcDbEntity
  8
DRAFT
100
AcDbLine
 62
7
  6
CONTINUOUS
 10
-23.8493347325
 20
-9.2052238122
 11
-23.8587893669
 21
-4.0527148494
  0
LINE
  5
217
100
AcDbEntity
  8
DRAFT
100
AcDbLine
 62
7
  6
CONTINUOUS
 10
-24.1587893661
 20
-4.0527148486
 11
-24.163296952
 21
-1.5572224345
  0
LINE
  5
218
100
AcDbEntity
  8
DRAFT
100
AcDbLine
 62
7
  6
CONTINUOUS
 10
-23.863296952
 20
8.0334303448
 11
-23.863296952
 21
-1.5572224345
  0
LINE
  5
219
100
AcDbEntity
  8
RACCORDO
100
AcDbLine
 62
7
  6
CONTINUOUS
 10
-23.856314926
 20
8.3352215497
 11
-23.856314926
 21
8.1451427603
  0
LINE
  5
21A
100
AcDbEntity
  8
RACCORDO
100
AcDbLine
 62
7
  6
CONTINUOUS
 10
-23.8493329001
 20
-9.2002441391
 11
-23.8493329001
 21
-7.8124560654
  0
LINE
  5
21B
100
AcDbEntity
  8
DRAFT
100
AcDbLine
 62
7
  6
CONTINUOUS
 10
-23.8458418871
 20
-4.6653302786
 11
-23.8458418871
 21
-4.0397673695
  0
LINE
  5
21C
100
AcDbEntity
  8
DRAFT
100
AcDbLine
 62
7
  6
CONTINUOUS
 10
-23.8458418871
 20
-1.5746774994
 11
-23.8458418871
 21
-0.9491145903
  0
LINE
  5
21D
100
AcDbEntity
  8
DRAFT
100
AcDbLine
 62
7
  6
CONTINUOUS
 10
-23.8388598611
 20
1.8578674357
 11
-23.8388598611
 21
1.2276876954
  0
LINE
  5
21E
100
AcDbEntity
  8
DRAFT
100
AcDbLine
 62
7
  6
CONTINUOUS
 10
-23.8388598611
 20
-6.0421325643
 11
-23.8388598611
 21
-6.6723123046
  0
LINE
  5
21F
100
AcDbEntity
  8
DRAFT
100
AcDbLine
 62
7
  6
CONTINUOUS
 10
-23.0807520169
 20
-4.0397673695
 11
-23.0807520169
 21
-1.5746774994
  0
LINE
  5
220
100
AcDbEntity
  8
RACCORDO
100
AcDbLine
 62
253
  6
CONTINUOUS
 10
-23.4876304408
 20
1.9142868395
 11
-23.4864898069
 21
8.0701268496
  0
LINE
  5
221
100
AcDbEntity
  8
RACCORDO
100
AcDbLine
 62
253
  6
CONTINUOUS
 10
-23.4886660656
 20
-0.8867495191
 11
-23.4878735771
 21
1.1715116004
  0
LINE
  5
222
100
AcDbEntity
  8
RACCORDO
100
AcDbLine
 62
253
  6
CONTINUOUS
 10
-23.4913837289
 20
-5.9894691087
 11
-23.4906106722
 21
-4.7257493655
  0
LINE
  5
223
100
AcDbEntity
  8
RACCORDO
100
AcDbLine
 62
253
  6
CONTINUOUS
 10
-23.4923861551
 20
-7.4885042051
 11
-23.491863667
 21
-6.7244954827
  0
LINE
  5
224
100
AcDbEntity
  8
RACCORDO
100
AcDbLine
 62
253
  6
CONTINUOUS
 10
-23.8493329001
 20
-7.8124560654
 11
-23.7921726246
 21
-7.2350363407
  0
LINE
  5
225
100
AcDbEntity
  8
RACCORDO
100
AcDbLine
 62
7
  6
CONTINUOUS
 10
-24.963296952
 20
8.0334303448
 11
-24.9614600556
 21
8.0352672411
  0
LINE
  5
226
100
AcDbEntity
  8
RACCORDO
100
AcDbLine
 62
253
  6
CONTINUOUS
 10
-22.8430162608
 20
-6.6723123046
 11
-22.8430162608
 21
-6.0421325643
  0
LINE
  5
227
100
AcDbEntity
  8
RACCORDO
100
AcDbLine
 62
253
  6
CONTINUOUS
 10
-22.8430162608
 20
1.2276876954
 11
-22.8430162608
 21
1.8578674357
  0
LINE
  5
228
100
AcDbEntity
  8
DRAFT
100
AcDbLine
 62
7
  6
CONTINUOUS
 10
-22.813296952
 20
-4.6653302786
 11
-22.813296952
 21
-0.9491145903
  0
LINE
  5
229
100
AcDbEntity
  8
DRAFT
100
AcDbLine
 62
7
  6
CONTINUOUS
 10
-22.563296952
 20
-4.7257493652
 11
-22.563296952
 21
-4.6911208815
  0
LINE
  5
22A
100
AcDbEntity
  8
DRAFT
100
AcDbLine
 62
7
  6
CONTINUOUS
 10
-22.563296952
 20
-0.9233239874
 11
-22.563296952
 21
-0.8867495193
  0
LINE
  5
22B
100
AcDbEntity
  8
RACCORDO
100
AcDbLine
 62
253
  6
CONTINUOUS
 10
-22.5430619522
 20
-6.6774574342
 11
-22.5430619522
 21
-6.0369874347
  0
LINE
  5
22C
100
AcDbEntity
  8
RACCORDO
100
AcDbLine
 62
253
  6
CONTINUOUS
 10
-22.5430619522
 20
1.2225425658
 11
-22.5430619522
 21
1.8630125653
  0
LINE
  5
22D
100
AcDbEntity
  8
DRAFT
100
AcDbLine
 62
7
  6
CONTINUOUS
 10
-22.013296952
 20
-4.6792943306
 11
-22.013296952
 21
-0.9351505383
  0
LINE
  5
22E
100
AcDbEntity
  8
DRAFT
100
AcDbLine
 62
7
  6
CONTINUOUS
 10
-21.4757629426
 20
9.2857955396
 11
-21.4757629426
 21
8.1451427603
  0
LINE
  5
22F
100
AcDbEntity
  8
DRAFT
100
AcDbLine
 62
7
  6
CONTINUOUS
 10
-21.213296952
 20
9.2334303448
 11
-21.213296952
 21
8.0927775655
  0
LINE
  5
230
100
AcDbEntity
  8
RACCORDO
100
AcDbLine
 62
253
  6
CONTINUOUS
 10
-23.5501965137
 20
-8.1161608499
 11
-23.4880631553
 21
-7.4885042051
  0
LINE
  5
231
100
AcDbEntity
  8
RACCORDO
100
AcDbLine
 62
7
  6
CONTINUOUS
 10
-23.863296952
 20
8.0334303448
 11
-23.8614600556
 21
8.0352672411
  0
LINE
  5
232
100
AcDbEntity
  8
RACCORDO
100
AcDbLine
 62
7
  6
CONTINUOUS
 10
-23.7918222133
 20
-6.7193499524
 11
-23.8388598611
 21
-6.6723123046
  0
LINE
  5
233
100
AcDbEntity
  8
RACCORDO
100
AcDbLine
 62
7
  6
CONTINUOUS
 10
-18.6975022065
 20
-7.4885042051
 11
-18.6684420816
 21
-7.7820627856
  0
LINE
  5
234
100
AcDbEntity
  8
RACCORDO
100
AcDbLine
 62
253
  6
CONTINUOUS
 10
-20.2020095107
 20
5.2270921406
 11
-20.2143521055
 21
5.9341989218
  0
LINE
  5
235
100
AcDbEntity
  8
RACCORDO
100
AcDbLine
 62
253
  6
CONTINUOUS
 10
-19.9020540617
 20
5.4391588394
 11
-19.9143979907
 21
6.1463420586
  0
LINE
  5
236
100
AcDbEntity
  8
RACCORDO
100
AcDbLine
 62
253
  6
CONTINUOUS
 10
-20.2184420816
 20
6.4998843467
 11
-20.2184420816
 21
8.0876324359
  0
LINE
  5
237
100
AcDbEntity
  8
RACCORDO
100
AcDbLine
 62
253
  6
CONTINUOUS
 10
-20.2009870167
 20
3.701581262
 11
-20.2009870167
 21
5.0856707844
  0
LINE
  5
238
100
AcDbEntity
  8
RACCORDO
100
AcDbLine
 62
253
  6
CONTINUOUS
 10
-19.9184877731
 20
6.4998958532
 11
-19.9184877731
 21
8.0927775655
  0
LINE
  5
239
100
AcDbEntity
  8
RACCORDO
100
AcDbLine
 62
253
  6
CONTINUOUS
 10
-19.9010327081
 20
3.701581262
 11
-19.9010327081
 21
5.0856707844
  0
LINE
  5
23A
100
AcDbEntity
  8
RACCORDO
100
AcDbLine
 62
253
  6
CONTINUOUS
 10
-19.7255611959
 20
5.0856707844
 11
-19.7255611959
 21
3.701581262
  0
LINE
  5
23B
100
AcDbEntity
  8
RACCORDO
100
AcDbLine
 62
253
  6
CONTINUOUS
 10
-19.7081061309
 20
8.0927775655
 11
-19.7081061309
 21
6.4998955228
  0
LINE
  5
23C
100
AcDbEntity
  8
RACCORDO
100
AcDbLine
 62
253
  6
CONTINUOUS
 10
-19.4256068873
 20
5.0856707844
 11
-19.4256068873
 21
3.701581262
  0
LINE
  5
23D
100
AcDbEntity
  8
RACCORDO
100
AcDbLine
 62
253
  6
CONTINUOUS
 10
-19.4081518224
 20
8.0876324359
 11
-19.4081518224
 21
6.4998843467
  0
LINE
  5
23E
100
AcDbEntity
  8
RACCORDO
100
AcDbLine
 62
253
  6
CONTINUOUS
 10
-19.7121959037
 20
6.1463426085
 11
-19.7245398421
 21
5.4391588472
  0
LINE
  5
23F
100
AcDbEntity
  8
RACCORDO
100
AcDbLine
 62
253
  6
CONTINUOUS
 10
-19.4122417985
 20
5.9341989218
 11
-19.4245843933
 21
5.2270921406
  0
LINE
  5
240
100
AcDbEntity
  8
RACCORDO
100
AcDbLine
 62
7
  6
CONTINUOUS
 10
-20.2184420816
 20
8.0876324359
 11
-20.2359476679
 21
8.0701268496
  0
LINE
  5
241
100
AcDbEntity
  8
RACCORDO
100
AcDbLine
 62
7
  6
CONTINUOUS
 10
-22.5430619522
 20
-6.6774574342
 11
-22.4960239038
 21
-6.7244954826
  0
LINE
  5
242
100
AcDbEntity
  8
RACCORDO
100
AcDbLine
 62
7
  6
CONTINUOUS
 10
-23.7905678662
 20
-4.7206042995
 11
-23.8458418871
 21
-4.6653302786
  0
LINE
  5
243
100
AcDbEntity
  8
RACCORDO
100
AcDbLine
 62
253
  6
CONTINUOUS
 10
-18.6684420816
 20
-7.7820627856
 11
-18.6684420816
 21
-6.5020316134
  0
LINE
  5
244
100
AcDbEntity
  8
RACCORDO
100
AcDbLine
 62
253
  6
CONTINUOUS
 10
-18.3684877731
 20
-7.8340376808
 11
-18.3684877731
 21
-6.2020773048
  0
LINE
  5
245
100
AcDbEntity
  8
RACCORDO
100
AcDbLine
 62
253
  6
CONTINUOUS
 10
-18.1581061309
 20
-6.2020773048
 11
-18.1581061309
 21
-7.8340376808
  0
LINE
  5
246
100
AcDbEntity
  8
RACCORDO
100
AcDbLine
 62
253
  6
CONTINUOUS
 10
-17.8581518224
 20
-6.5020316134
 11
-17.8581518224
 21
-7.7820627856
  0
LINE
  5
247
100
AcDbEntity
  8
RACCORDO
100
AcDbLine
 62
7
  6
CONTINUOUS
 10
-23.7875880345
 20
1.9091392623
 11
-23.8388598611
 21
1.8578674357
  0
LINE
  5
248
100
AcDbEntity
  8
DRAFT
100
AcDbLine
 62
7
  6
CONTINUOUS
 10
-23.0807520169
 20
-4.0397673695
 11
-23.1415973019
 21
-3.9789220845
  0
LINE
  5
249
100
AcDbEntity
  8
DRAFT
100
AcDbLine
 62
7
  6
CONTINUOUS
 10
-24.163296952
 20
-1.5572224345
 11
-24.0838091939
 21
-1.6367101925
  0
LINE
  5
24A
100
AcDbEntity
  8
DRAFT
100
AcDbLine
 62
7
  6
CONTINUOUS
 10
-23.863296952
 20
-1.5572224345
 11
-23.8458418871
 21
-1.5746774994
  0
LINE
  5
24B
100
AcDbEntity
  8
RACCORDO
100
AcDbLine
 62
253
  6
CONTINUOUS
 10
-18.6684420816
 20
-6.5020316134
 11
-18.6981923795
 21
-6.4722813155
  0
LINE
  5
24C
100
AcDbEntity
  8
RACCORDO
100
AcDbLine
 62
7
  6
CONTINUOUS
 10
-17.8332468581
 20
-7.5304786655
 11
-17.8581518224
 21
-7.7820627856
  0
LINE
  5
24D
100
AcDbEntity
  8
RACCORDO
100
AcDbLine
 62
7
  6
CONTINUOUS
 10
-22.5430619522
 20
1.8630125653
 11
-22.4917876782
 21
1.9142868394
  0
LINE
  5
24E
100
AcDbEntity
  8
RACCORDO
100
AcDbLine
 62
253
  6
CONTINUOUS
 10
-20.2352423328
 20
3.4707864933
 11
-20.2044171031
 21
3.501611723
  0
LINE
  5
24F
100
AcDbEntity
  8
RACCORDO
100
AcDbLine
 62
253
  6
CONTINUOUS
 10
-19.9352117681
 20
3.1709084409
 11
-19.9044627945
 21
3.2016574144
  0
LINE
  5
250
100
AcDbEntity
  8
RACCORDO
100
AcDbLine
 62
7
  6
CONTINUOUS
 10
-23.7886257232
 20
-0.8918984264
 11
-23.8458418871
 21
-0.9491145903
  0
LINE
  5
251
100
AcDbEntity
  8
RACCORDO
100
AcDbLine
 62
253
  6
CONTINUOUS
 10
-18.3684877731
 20
-6.2020773048
 11
-18.3984337629
 21
-6.172131315
  0
LINE
  5
252
100
AcDbEntity
  8
RACCORDO
100
AcDbLine
 62
7
  6
CONTINUOUS
 10
-23.787828142
 20
1.1766559763
 11
-23.8388598611
 21
1.2276876954
  0
LINE
  5
253
100
AcDbEntity
  8
0
100
AcDbLine
 62
7
  6
CONTINUOUS
 10
-14.063296952
 20
-2.2820766626
 11
-14.063296952
 21
-1.9927148936
  0
LINE
  5
254
100
AcDbEntity
  8
DRAFT
100
AcDbLine
 62
7
  6
CONTINUOUS
 10
-23.0807520169
 20
-1.5746774994
 11
-23.1427847101
 21
-1.6367101925
  0
LINE
  5
255
100
AcDbEntity
  8
DRAFT
100
AcDbLine
 62
7
  6
CONTINUOUS
 10
-24.1587893661
 20
-4.0527148486
 11
-24.0849966021
 21
-3.9789220845
  0
LINE
  5
256
100
AcDbEntity
  8
RACCORDO
100
AcDbLine
 62
7
  6
CONTINUOUS
 10
-22.5430619522
 20
1.2225425658
 11
-22.4920309868
 21
1.1715116003
  0
LINE
  5
257
100
AcDbEntity
  8
0
100
AcDbLine
 62
7
  6
CONTINUOUS
 10
-13.850796952
 20
-3.4395234345
 11
-13.850796952
 21
-2.0288851021
  0
LINE
  5
258
100
AcDbEntity
  8
0
100
AcDbLine
 62
7
  6
CONTINUOUS
 10
-13.638296952
 20
-3.4395234345
 11
-13.638296952
 21
-1.7395234345
  0
LINE
  5
259
100
AcDbEntity
  8
0
100
AcDbLine
 62
7
  6
CONTINUOUS
 10
-13.3549636355
 20
-2.716119164
 11
-13.3549636355
 21
-2.4629277049
  0
LINE
  5
25A
100
AcDbEntity
  8
0
100
AcDbLine
 62
7
  6
CONTINUOUS
 10
-13.1778803191
 20
-2.5352681218
 11
-13.1778803191
 21
-2.4629277049
  0
LINE
  5
25B
100
AcDbEntity
  8
0
100
AcDbLine
 62
7
  6
CONTINUOUS
 10
-13.1424635849
 20
-2.9331404654
 11
-13.1424635849
 21
-2.8246298401
  0
LINE
  5
25C
100
AcDbEntity
  8
0
100
AcDbLine
 62
7
  6
CONTINUOUS
 10
-13.3549636355
 20
-2.4629277049
 11
-13.319546952
 21
-2.2097362457
  0
LINE
  5
25D
100
AcDbEntity
  8
0
100
AcDbLine
 62
7
  6
CONTINUOUS
 10
-13.1778803191
 20
-2.4629277049
 11
-13.1424635849
 21
-2.2459064541
  0
LINE
  5
25E
100
AcDbEntity
  8
DRAFT
100
AcDbLine
 62
7
  6
CONTINUOUS
 10
-23.8587893669
 20
-4.0527148494
 11
-23.8458418871
 21
-4.0397673695
  0
LINE
  5
25F
100
AcDbEntity
  8
RACCORDO
100
AcDbLine
 62
7
  6
CONTINUOUS
 10
-23.7913483275
 20
-5.9946210307
 11
-23.8388598611
 21
-6.0421325643
  0
LINE
  5
260
100
AcDbEntity
  8
0
100
AcDbLine
 62
7
  6
CONTINUOUS
 10
-13.1424635849
 20
-3.294842588
 11
-13.2487136355
 21
-3.1501617415
  0
LINE
  5
261
100
AcDbEntity
  8
0
100
AcDbLine
 62
7
  6
CONTINUOUS
 10
-13.0362135849
 20
-3.1501617415
 11
-13.107046952
 21
-3.0416510908
  0
LINE
  5
262
100
AcDbEntity
  8
0
100
AcDbLine
 62
7
  6
CONTINUOUS
 10
-13.2487136355
 20
-3.1501617415
 11
-13.319546952
 21
-2.9693106739
  0
LINE
  5
263
100
AcDbEntity
  8
0
100
AcDbLine
 62
7
  6
CONTINUOUS
 10
-12.0799636862
 20
-2.788459581
 11
-12.150796952
 21
-2.6076085387
  0
LINE
  5
264
100
AcDbEntity
  8
0
100
AcDbLine
 62
7
  6
CONTINUOUS
 10
-13.107046952
 20
-3.0416510908
 11
-13.1424635849
 21
-2.9331404654
  0
LINE
  5
265
100
AcDbEntity
  8
0
100
AcDbLine
 62
7
  6
CONTINUOUS
 10
-12.257046952
 20
-2.8246298401
 11
-12.2924636862
 21
-2.716119164
  0
LINE
  5
266
100
AcDbEntity
  8
0
100
AcDbLine
 62
7
  6
CONTINUOUS
 10
-13.319546952
 20
-2.9693106739
 11
-13.3549636355
 21
-2.716119164
  0
LINE
  5
267
100
AcDbEntity
  8
0
100
AcDbLine
 62
7
  6
CONTINUOUS
 10
-12.257046952
 20
-2.9331404654
 11
-12.257046952
 21
-2.8246298401
  0
LINE
  5
268
100
AcDbEntity
  8
0
100
AcDbLine
 62
7
  6
CONTINUOUS
 10
-12.0799636862
 20
-2.9693106739
 11
-12.0799636862
 21
-2.788459581
  0
LINE
  5
269
100
AcDbEntity
  8
0
100
AcDbLine
 62
7
  6
CONTINUOUS
 10
-11.7966302178
 20
-3.0054808823
 11
-11.7966302178
 21
-2.896970257
  0
LINE
  5
26A
100
AcDbEntity
  8
0
100
AcDbLine
 62
7
  6
CONTINUOUS
 10
-11.7612136862
 20
-2.2820766626
 11
-11.7612136862
 21
-2.1735660372
  0
LINE
  5
26B
100
AcDbEntity
  8
0
100
AcDbLine
 62
7
  6
CONTINUOUS
 10
-11.619546952
 20
-3.0054808823
 11
-11.619546952
 21
-2.896970257
  0
LINE
  5
26C
100
AcDbEntity
  8
0
100
AcDbLine
 62
7
  6
CONTINUOUS
 10
-11.5841302178
 20
-2.2459064541
 11
-11.5841302178
 21
-2.1735660372
  0
LINE
  5
26D
100
AcDbEntity
  8
0
100
AcDbLine
 62
7
  6
CONTINUOUS
 10
-10.7341302178
 20
-2.2459064541
 11
-10.7341302178
 21
-2.1735660372
  0
LINE
  5
26E
100
AcDbEntity
  8
0
100
AcDbLine
 62
7
  6
CONTINUOUS
 10
-10.6987136862
 20
-3.0054808823
 11
-10.6987136862
 21
-2.896970257
  0
LINE
  5
26F
100
AcDbEntity
  8
0
100
AcDbLine
 62
7
  6
CONTINUOUS
 10
-10.557046952
 20
-2.2820766626
 11
-10.557046952
 21
-2.1735660372
  0
LINE
  5
270
100
AcDbEntity
  8
0
100
AcDbLine
 62
7
  6
CONTINUOUS
 10
-10.5216304204
 20
-3.0054808823
 11
-10.5216304204
 21
-2.896970257
  0
LINE
  5
271
100
AcDbEntity
  8
0
100
AcDbLine
 62
7
  6
CONTINUOUS
 10
-13.1424635849
 20
-2.2459064541
 11
-13.107046952
 21
-2.1373957275
  0
LINE
  5
272
100
AcDbEntity
  8
0
100
AcDbLine
 62
7
  6
CONTINUOUS
 10
-13.1424635849
 20
-2.8246298401
 11
-13.107046952
 21
-2.716119164
  0
LINE
  5
273
100
AcDbEntity
  8
0
100
AcDbLine
 62
7
  6
CONTINUOUS
 10
-12.2924636862
 20
-3.0416510908
 11
-12.257046952
 21
-2.9331404654
  0
LINE
  5
274
100
AcDbEntity
  8
0
100
AcDbLine
 62
7
  6
CONTINUOUS
 10
-13.319546952
 20
-2.2097362457
 11
-13.2487136355
 21
-2.0288851021
  0
LINE
  5
275
100
AcDbEntity
  8
RACCORDO
100
AcDbLine
 62
7
  6
CONTINUOUS
 10
-22.5430619522
 20
-6.0369874347
 11
-22.4955436257
 21
-5.9894691081
  0
LINE
  5
276
100
AcDbEntity
  8
RACCORDO
100
AcDbLine
 62
253
  6
CONTINUOUS
 10
-19.7221311094
 20
3.2016574144
 11
-19.6913821359
 21
3.1709084409
  0
LINE
  5
277
100
AcDbEntity
  8
RACCORDO
100
AcDbLine
 62
253
  6
CONTINUOUS
 10
-19.4221768009
 20
3.501611723
 11
-19.3913515712
 21
3.4707864933
  0
LINE
  5
278
100
AcDbEntity
  8
RACCORDO
100
AcDbLine
 62
7
  6
CONTINUOUS
 10
-23.856314926
 20
8.1451427603
 11
-23.7864438733
 21
8.0752717076
  0
LINE
  5
279
100
AcDbEntity
  8
0
100
AcDbLine
 62
7
  6
CONTINUOUS
 10
-12.2924636862
 20
-2.716119164
 11
-12.363296952
 21
-2.6437787471
  0
LINE
  5
27A
100
AcDbEntity
  8
0
100
AcDbLine
 62
7
  6
CONTINUOUS
 10
-11.619546952
 20
-3.294842588
 11
-11.725796952
 21
-3.1863319499
  0
LINE
  5
27B
100
AcDbEntity
  8
0
100
AcDbLine
 62
7
  6
CONTINUOUS
 10
-12.150796952
 20
-2.6076085387
 11
-12.257046952
 21
-2.4990979133
  0
LINE
  5
27C
100
AcDbEntity
  8
0
100
AcDbLine
 62
7
  6
CONTINUOUS
 10
-11.513296952
 20
-3.1501617415
 11
-11.619546952
 21
-3.0054808823
  0
LINE
  5
27D
100
AcDbEntity
  8
0
100
AcDbLine
 62
7
  6
CONTINUOUS
 10
-12.1862136862
 20
-2.0288851021
 11
-12.2924636862
 21
-1.8842042683
  0
LINE
  5
27E
100
AcDbEntity
  8
0
100
AcDbLine
 62
7
  6
CONTINUOUS
 10
-12.3278802178
 20
-2.1373957275
 11
-12.3987135849
 21
-2.0288851021
  0
LINE
  5
27F
100
AcDbEntity
  8
0
100
AcDbLine
 62
7
  6
CONTINUOUS
 10
-11.513296952
 20
-2.3544170795
 11
-11.5841302178
 21
-2.2459064541
  0
LINE
  5
280
100
AcDbEntity
  8
0
100
AcDbLine
 62
7
  6
CONTINUOUS
 10
-11.6903802178
 20
-2.4267574964
 11
-11.7612136862
 21
-2.2820766626
  0
LINE
  5
281
100
AcDbEntity
  8
0
100
AcDbLine
 62
7
  6
CONTINUOUS
 10
-11.725796952
 20
-3.1863319499
 11
-11.7966302178
 21
-3.0054808823
  0
LINE
  5
282
100
AcDbEntity
  8
0
100
AcDbLine
 62
7
  6
CONTINUOUS
 10
-10.5216304204
 20
-2.896970257
 11
-10.5924634836
 21
-2.716119164
  0
LINE
  5
283
100
AcDbEntity
  8
0
100
AcDbLine
 62
7
  6
CONTINUOUS
 10
-10.557046952
 20
-2.1735660372
 11
-10.6278804204
 21
-1.9927148936
  0
LINE
  5
284
100
AcDbEntity
  8
0
100
AcDbLine
 62
7
  6
CONTINUOUS
 10
-12.150796952
 20
-2.1373957275
 11
-12.1862136862
 21
-2.0288851021
  0
LINE
  5
285
100
AcDbEntity
  8
0
100
AcDbLine
 62
7
  6
CONTINUOUS
 10
-10.238296952
 20
-2.9331404654
 11
-10.238296952
 21
-2.716119164
  0
LINE
  5
286
100
AcDbEntity
  8
0
100
AcDbLine
 62
7
  6
CONTINUOUS
 10
-9.388296952
 20
-3.4395234345
 11
-9.388296952
 21
-2.9331404654
  0
LINE
  5
287
100
AcDbEntity
  8
0
100
AcDbLine
 62
7
  6
CONTINUOUS
 10
-9.388296952
 20
-2.716119164
 11
-9.388296952
 21
-2.0288851021
  0
LINE
  5
288
100
AcDbEntity
  8
0
100
AcDbLine
 62
7
  6
CONTINUOUS
 10
-9.175796952
 20
-3.4395234345
 11
-9.175796952
 21
-2.9331404654
  0
LINE
  5
289
100
AcDbEntity
  8
0
100
AcDbLine
 62
7
  6
CONTINUOUS
 10
-9.175796952
 20
-2.716119164
 11
-9.175796952
 21
-1.7395234345
  0
LINE
  5
28A
100
AcDbEntity
  8
0
100
AcDbLine
 62
7
  6
CONTINUOUS
 10
-8.8216304204
 20
-2.9331404654
 11
-8.8216304204
 21
-2.716119164
  0
LINE
  5
28B
100
AcDbEntity
  8
0
100
AcDbLine
 62
7
  6
CONTINUOUS
 10
-12.150796952
 20
-3.1501617415
 11
-12.0799636862
 21
-2.9693106739
  0
LINE
  5
28C
100
AcDbEntity
  8
0
100
AcDbLine
 62
7
  6
CONTINUOUS
 10
-11.7612136862
 20
-2.1735660372
 11
-11.6903802178
 21
-1.9927148936
  0
LINE
  5
28D
100
AcDbEntity
  8
0
100
AcDbLine
 62
7
  6
CONTINUOUS
 10
-11.7966302178
 20
-2.896970257
 11
-11.725796952
 21
-2.716119164
  0
LINE
  5
28E
100
AcDbEntity
  8
0
100
AcDbLine
 62
7
  6
CONTINUOUS
 10
-13.107046952
 20
-2.1373957275
 11
-13.0362135849
 21
-2.0288851021
  0
LINE
  5
28F
100
AcDbEntity
  8
0
100
AcDbLine
 62
7
  6
CONTINUOUS
 10
-13.2487136355
 20
-2.0288851021
 11
-13.1424635849
 21
-1.8842042683
  0
LINE
  5
290
100
AcDbEntity
  8
0
100
AcDbLine
 62
7
  6
CONTINUOUS
 10
-14.063296952
 20
-1.9927148936
 11
-13.850796952
 21
-1.7395234345
  0
LINE
  5
291
100
AcDbEntity
  8
0
100
AcDbLine
 62
7
  6
CONTINUOUS
 10
-14.063296952
 20
-2.2820766626
 11
-13.850796952
 21
-2.0288851021
  0
LINE
  5
292
100
AcDbEntity
  8
RACCORDO
100
AcDbLine
 62
7
  6
CONTINUOUS
 10
24.3727517911
 20
-9.200247338
 11
23.5227517926
 21
-9.200247338
  0
LINE
  5
293
100
AcDbEntity
  8
RACCORDO
100
AcDbLine
 62
7
  6
CONTINUOUS
 10
-23.8493456966
 20
-9.200247338
 11
-24.6993456951
 21
-9.200247338
  0
LINE
  5
294
100
AcDbEntity
  8
DRAFT
100
AcDbLine
 62
7
  6
CONTINUOUS
 10
-23.8493424974
 20
-9.2002457386
 11
23.5227485935
 21
-9.2002457386
  0
LINE
  5
295
100
AcDbEntity
  8
0
100
AcDbLine
 62
7
  6
CONTINUOUS
 10
-12.9653803191
 20
-3.4033532228
 11
-13.1424635849
 21
-3.294842588
  0
LINE
  5
296
100
AcDbEntity
  8
0
100
AcDbLine
 62
7
  6
CONTINUOUS
 10
-11.4424636862
 20
-3.4033532228
 11
-11.619546952
 21
-3.294842588
  0
LINE
  5
297
100
AcDbEntity
  8
0
100
AcDbLine
 62
7
  6
CONTINUOUS
 10
-12.9299635849
 20
-3.2225021584
 11
-13.0362135849
 21
-3.1501617415
  0
LINE
  5
298
100
AcDbEntity
  8
0
100
AcDbLine
 62
7
  6
CONTINUOUS
 10
-12.363296952
 20
-2.6437787471
 11
-12.469546952
 21
-2.5714383302
  0
LINE
  5
299
100
AcDbEntity
  8
0
100
AcDbLine
 62
7
  6
CONTINUOUS
 10
-12.3987135849
 20
-2.0288851021
 11
-12.5049635849
 21
-1.9565446852
  0
LINE
  5
29A
100
AcDbEntity
  8
0
100
AcDbLine
 62
7
  6
CONTINUOUS
 10
-11.3716302178
 20
-2.4629277049
 11
-11.513296952
 21
-2.3544170795
  0
LINE
  5
29B
100
AcDbEntity
  8
RACCORDO
100
AcDbLine
 62
253
  6
CONTINUOUS
 10
-7.4684420816
 20
-6.5020316134
 11
-7.4981923795
 21
-6.4722813155
  0
LINE
  5
29C
100
AcDbEntity
  8
RACCORDO
100
AcDbLine
 62
253
  6
CONTINUOUS
 10
-7.1684877731
 20
-6.2020773048
 11
-7.1984337629
 21
-6.172131315
  0
LINE
  5
29D
100
AcDbEntity
  8
0
100
AcDbLine
 62
7
  6
CONTINUOUS
 10
-11.5841302178
 20
-2.5352681218
 11
-11.6903802178
 21
-2.4267574964
  0
LINE
  5
29E
100
AcDbEntity
  8
0
100
AcDbLine
 62
7
  6
CONTINUOUS
 10
-10.6278804204
 20
-1.9927148936
 11
-10.7341302178
 21
-1.8842042683
  0
LINE
  5
29F
100
AcDbEntity
  8
0
100
AcDbLine
 62
7
  6
CONTINUOUS
 10
-10.6987136862
 20
-2.896970257
 11
-10.8049636862
 21
-2.7522893725
  0
LINE
  5
2A0
100
AcDbEntity
  8
0
100
AcDbLine
 62
7
  6
CONTINUOUS
 10
-10.7341302178
 20
-2.1735660372
 11
-10.8049636862
 21
-2.0650553105
  0
LINE
  5
2A1
100
AcDbEntity
  8
RACCORDO
100
AcDbLine
 62
7
  6
CONTINUOUS
 10
-7.4933470459
 20
-7.5304786655
 11
-7.4684420816
 21
-7.7820627856
  0
LINE
  5
2A2
100
AcDbEntity
  8
0
100
AcDbLine
 62
7
  6
CONTINUOUS
 10
-8.538296952
 20
-3.4395234345
 11
-8.538296952
 21
-3.2586723669
  0
LINE
  5
2A3
100
AcDbEntity
  8
0
100
AcDbLine
 62
7
  6
CONTINUOUS
 10
-7.475796952
 20
-2.2097362457
 11
-7.475796952
 21
-2.1373957275
  0
LINE
  5
2A4
100
AcDbEntity
  8
RACCORDO
100
AcDbLine
 62
253
  6
CONTINUOUS
 10
-7.4684420816
 20
-7.7820627856
 11
-7.4684420816
 21
-6.5020316134
  0
LINE
  5
2A5
100
AcDbEntity
  8
0
100
AcDbLine
 62
7
  6
CONTINUOUS
 10
-7.263296952
 20
-3.4395234345
 11
-7.263296952
 21
-3.2586723669
  0
LINE
  5
2A6
100
AcDbEntity
  8
0
100
AcDbLine
 62
7
  6
CONTINUOUS
 10
-7.263296952
 20
-2.2097362457
 11
-7.263296952
 21
-2.1373957275
  0
LINE
  5
2A7
100
AcDbEntity
  8
RACCORDO
100
AcDbLine
 62
253
  6
CONTINUOUS
 10
-7.1684877731
 20
-7.8340376808
 11
-7.1684877731
 21
-6.2020773048
  0
LINE
  5
2A8
100
AcDbEntity
  8
0
100
AcDbLine
 62
7
  6
CONTINUOUS
 10
-8.5028804204
 20
-2.1373957275
 11
-8.4674634836
 21
-1.9927148936
  0
LINE
  5
2A9
100
AcDbEntity
  8
0
100
AcDbLine
 62
7
  6
CONTINUOUS
 10
-10.5924634836
 20
-3.1863319499
 11
-10.5216304204
 21
-3.0054808823
  0
LINE
  5
2AA
100
AcDbEntity
  8
0
100
AcDbLine
 62
7
  6
CONTINUOUS
 10
-10.6278804204
 20
-2.4267574964
 11
-10.557046952
 21
-2.2820766626
  0
LINE
  5
2AB
100
AcDbEntity
  8
0
100
AcDbLine
 62
7
  6
CONTINUOUS
 10
-12.363296952
 20
-3.1501617415
 11
-12.2924636862
 21
-3.0416510908
  0
LINE
  5
2AC
100
AcDbEntity
  8
0
100
AcDbLine
 62
7
  6
CONTINUOUS
 10
-11.5841302178
 20
-2.1735660372
 11
-11.513296952
 21
-2.0650553105
  0
LINE
  5
2AD
100
AcDbEntity
  8
0
100
AcDbLine
 62
7
  6
CONTINUOUS
 10
-10.8049636862
 20
-2.3544170795
 11
-10.7341302178
 21
-2.2459064541
  0
LINE
  5
2AE
100
AcDbEntity
  8
0
100
AcDbLine
 62
7
  6
CONTINUOUS
 10
-12.257046952
 20
-3.294842588
 11
-12.150796952
 21
-3.1501617415
  0
LINE
  5
2AF
100
AcDbEntity
  8
0
100
AcDbLine
 62
7
  6
CONTINUOUS
 10
-11.619546952
 20
-2.896970257
 11
-11.513296952
 21
-2.7522893725
  0
LINE
  5
2B0
100
AcDbEntity
  8
0
100
AcDbLine
 62
7
  6
CONTINUOUS
 10
-13.107046952
 20
-2.716119164
 11
-13.0362135849
 21
-2.6437787471
  0
LINE
  5
2B1
100
AcDbEntity
  8
RACCORDO
100
AcDbLine
 62
253
  6
CONTINUOUS
 10
-18.1281601411
 20
-6.172131315
 11
-18.1581061309
 21
-6.2020773048
  0
LINE
  5
2B2
100
AcDbEntity
  8
RACCORDO
100
AcDbLine
 62
253
  6
CONTINUOUS
 10
-17.8284015245
 20
-6.4722813155
 11
-17.8581518224
 21
-6.5020316134
  0
LINE
  5
2B3
100
AcDbEntity
  8
RACCORDO
100
AcDbLine
 62
7
  6
CONTINUOUS
 10
-23.5501965137
 20
-8.1161608499
 11
23.2236026097
 21
-8.1161608499
  0
LINE
  5
2B4
100
AcDbEntity
  8
RACCORDO
100
AcDbLine
 62
7
  6
CONTINUOUS
 10
-7.1684877731
 20
-7.8340376808
 11
-6.9581061309
 21
-7.8340376808
  0
LINE
  5
2B5
100
AcDbEntity
  8
RACCORDO
100
AcDbLine
 62
7
  6
CONTINUOUS
 10
6.8418938691
 20
-7.8340376808
 11
6.6315122269
 21
-7.8340376808
  0
LINE
  5
2B6
100
AcDbEntity
  8
RACCORDO
100
AcDbLine
 62
7
  6
CONTINUOUS
 10
17.8315122269
 20
-7.8340376808
 11
18.0418938691
 21
-7.8340376808
  0
LINE
  5
2B7
100
AcDbEntity
  8
RACCORDO
100
AcDbLine
 62
7
  6
CONTINUOUS
 10
-18.1581061309
 20
-7.8340376808
 11
-18.3684877731
 21
-7.8340376808
  0
LINE
  5
2B8
100
AcDbEntity
  8
RACCORDO
100
AcDbLine
 62
253
  6
CONTINUOUS
 10
23.165624412
 20
-7.5304786655
 11
18.3667531419
 21
-7.5304786655
  0
LINE
  5
2B9
100
AcDbEntity
  8
RACCORDO
100
AcDbLine
 62
253
  6
CONTINUOUS
 10
6.3066529541
 20
-7.5304786655
 11
-6.6332468581
 21
-7.5304786655
  0
LINE
  5
2BA
100
AcDbEntity
  8
RACCORDO
100
AcDbLine
 62
253
  6
CONTINUOUS
 10
-7.4933470459
 20
-7.5304786655
 11
-17.8332468581
 21
-7.5304786655
  0
LINE
  5
2BB
100
AcDbEntity
  8
DRAFT
100
AcDbLine
 62
7
  6
CONTINUOUS
 10
17.5024977935
 20
-7.4885042051
 11
7.1709083025
 21
-7.4885042051
  0
LINE
  5
2BC
100
AcDbEntity
  8
RACCORDO
100
AcDbLine
 62
7
  6
CONTINUOUS
 10
-18.6975022065
 20
-7.4885042051
 11
-23.4880631553
 21
-7.4885042051
  0
LINE
  5
2BD
100
AcDbEntity
  8
RACCORDO
100
AcDbLine
 62
253
  6
CONTINUOUS
 10
23.1656244121
 20
-7.2468888293
 11
18.3710762608
 21
-7.2468888293
  0
LINE
  5
2BE
100
AcDbEntity
  8
RACCORDO
100
AcDbLine
 62
253
  6
CONTINUOUS
 10
6.3023298352
 20
-7.2468888293
 11
-6.6289237392
 21
-7.2468888293
  0
LINE
  5
2BF
100
AcDbEntity
  8
RACCORDO
100
AcDbLine
 62
253
  6
CONTINUOUS
 10
-7.4976701648
 20
-7.2468888293
 11
-17.8289237392
 21
-7.2468888293
  0
LINE
  5
2C0
100
AcDbEntity
  8
0
100
AcDbLine
 62
7
  6
CONTINUOUS
 10
-12.8237135849
 20
-3.2586723669
 11
-12.9299635849
 21
-3.2225021584
  0
LINE
  5
2C1
100
AcDbEntity
  8
0
100
AcDbLine
 62
7
  6
CONTINUOUS
 10
-11.3716302178
 20
-3.2225021584
 11
-11.513296952
 21
-3.1501617415
  0
LINE
  5
2C2
100
AcDbEntity
  8
0
100
AcDbLine
 62
7
  6
CONTINUOUS
 10
-11.513296952
 20
-2.5714383302
 11
-11.5841302178
 21
-2.5352681218
  0
LINE
  5
2C3
100
AcDbEntity
  8
0
100
AcDbLine
 62
7
  6
CONTINUOUS
 10
-10.8049636862
 20
-2.7522893725
 11
-10.9466302178
 21
-2.6799489556
  0
LINE
  5
2C4
100
AcDbEntity
  8
0
100
AcDbLine
 62
7
  6
CONTINUOUS
 10
-10.7341302178
 20
-2.6076085387
 11
-10.8049636862
 21
-2.5714383302
  0
LINE
  5
2C5
100
AcDbEntity
  8
0
100
AcDbLine
 62
7
  6
CONTINUOUS
 10
-12.257046952
 20
-2.4990979133
 11
-12.4341303191
 21
-2.390587288
  0
LINE
  5
2C6
100
AcDbEntity
  8
0
100
AcDbLine
 62
7
  6
CONTINUOUS
 10
-12.2924636862
 20
-1.8842042683
 11
-12.469546952
 21
-1.7756936429
  0
LINE
  5
2C7
100
AcDbEntity
  8
0
100
AcDbLine
 62
7
  6
CONTINUOUS
 10
-10.7341302178
 20
-1.8842042683
 11
-10.9112136862
 21
-1.7756936429
  0
LINE
  5
2C8
100
AcDbEntity
  8
0
100
AcDbLine
 62
7
  6
CONTINUOUS
 10
-10.5924634836
 20
-2.716119164
 11
-10.7341302178
 21
-2.6076085387
  0
LINE
  5
2C9
100
AcDbEntity
  8
0
100
AcDbLine
 62
7
  6
CONTINUOUS
 10
-10.8049636862
 20
-2.0650553105
 11
-10.9466302178
 21
-1.9565446852
  0
LINE
  5
2CA
100
AcDbEntity
  8
RACCORDO
100
AcDbLine
 62
7
  6
CONTINUOUS
 10
-19.4081518224
 20
8.0876324359
 11
-19.3906462361
 21
8.0701268496
  0
LINE
  5
2CB
100
AcDbEntity
  8
0
100
AcDbLine
 62
7
  6
CONTINUOUS
 10
-7.475796952
 20
-2.1373957275
 11
-7.5466304204
 21
-2.0288851021
  0
LINE
  5
2CC
100
AcDbEntity
  8
0
100
AcDbLine
 62
7
  6
CONTINUOUS
 10
-7.263296952
 20
-2.1373957275
 11
-7.2987134836
 21
-1.9927148936
  0
LINE
  5
2CD
100
AcDbEntity
  8
RACCORDO
100
AcDbLine
 62
253
  6
CONTINUOUS
 10
-6.9581061309
 20
-6.2020773048
 11
-6.9581061309
 21
-7.8340376808
  0
LINE
  5
2CE
100
AcDbEntity
  8
RACCORDO
100
AcDbLine
 62
253
  6
CONTINUOUS
 10
-6.6581518224
 20
-6.5020316134
 11
-6.6581518224
 21
-7.7820627856
  0
LINE
  5
2CF
100
AcDbEntity
  8
RACCORDO
100
AcDbLine
 62
7
  6
CONTINUOUS
 10
-6.6332468581
 20
-7.5304786655
 11
-6.6581518224
 21
-7.7820627856
  0
LINE
  5
2D0
100
AcDbEntity
  8
0
100
AcDbLine
 62
7
  6
CONTINUOUS
 10
-7.2987134836
 20
-2.3544170795
 11
-7.263296952
 21
-2.2097362457
  0
LINE
  5
2D1
100
AcDbEntity
  8
0
100
AcDbLine
 62
7
  6
CONTINUOUS
 10
-7.5466304204
 20
-2.3544170795
 11
-7.475796952
 21
-2.2097362457
  0
LINE
  5
2D2
100
AcDbEntity
  8
0
100
AcDbLine
 62
7
  6
CONTINUOUS
 10
-8.325796952
 20
-2.1373957275
 11
-8.2549634836
 21
-2.0288851021
  0
LINE
  5
2D3
100
AcDbEntity
  8
0
100
AcDbLine
 62
7
  6
CONTINUOUS
 10
-10.8049636862
 20
-3.1501617415
 11
-10.6987136862
 21
-3.0054808823
  0
LINE
  5
2D4
100
AcDbEntity
  8
0
100
AcDbLine
 62
7
  6
CONTINUOUS
 10
-10.238296952
 20
-2.716119164
 11
-9.388296952
 21
-1.7395234345
  0
LINE
  5
2D5
100
AcDbEntity
  8
0
100
AcDbLine
 62
7
  6
CONTINUOUS
 10
-9.9903804204
 20
-2.716119164
 11
-9.388296952
 21
-2.0288851021
  0
LINE
  5
2D6
100
AcDbEntity
  8
0
100
AcDbLine
 62
7
  6
CONTINUOUS
 10
-11.6903802178
 20
-1.9927148936
 11
-11.5841302178
 21
-1.8842042683
  0
LINE
  5
2D7
100
AcDbEntity
  8
0
100
AcDbLine
 62
7
  6
CONTINUOUS
 10
-10.7341302178
 20
-2.5352681218
 11
-10.6278804204
 21
-2.4267574964
  0
LINE
  5
2D8
100
AcDbEntity
  8
0
100
AcDbLine
 62
7
  6
CONTINUOUS
 10
-10.6987136862
 20
-3.294842588
 11
-10.5924634836
 21
-3.1863319499
  0
LINE
  5
2D9
100
AcDbEntity
  8
0
100
AcDbLine
 62
7
  6
CONTINUOUS
 10
-11.513296952
 20
-2.0650553105
 11
-11.3716302178
 21
-1.9565446852
  0
LINE
  5
2DA
100
AcDbEntity
  8
0
100
AcDbLine
 62
7
  6
CONTINUOUS
 10
-13.0362135849
 20
-2.0288851021
 11
-12.9299635849
 21
-1.9565446852
  0
LINE
  5
2DB
100
AcDbEntity
  8
0
100
AcDbLine
 62
7
  6
CONTINUOUS
 10
-13.1778803191
 20
-2.5352681218
 11
-12.9653803191
 21
-2.390587288
  0
LINE
  5
2DC
100
AcDbEntity
  8
0
100
AcDbLine
 62
7
  6
CONTINUOUS
 10
-13.1424635849
 20
-1.8842042683
 11
-12.9653803191
 21
-1.7756936429
  0
LINE
  5
2DD
100
AcDbEntity
  8
DRAFT
100
AcDbLine
 62
7
  6
CONTINUOUS
 10
21.686703048
 20
-4.6792943306
 11
22.486703048
 21
-4.6653302786
  0
LINE
  5
2DE
100
AcDbEntity
  8
RACCORDO
100
AcDbLine
 62
7
  6
CONTINUOUS
 10
23.165269763
 20
-6.7244954826
 11
22.1694299999
 21
-6.7244954826
  0
LINE
  5
2DF
100
AcDbEntity
  8
RACCORDO
100
AcDbLine
 62
7
  6
CONTINUOUS
 10
-22.4960239038
 20
-6.7244954826
 11
-23.491863667
 21
-6.7244954826
  0
LINE
  5
2E0
100
AcDbEntity
  8
RACCORDO
100
AcDbLine
 62
7
  6
CONTINUOUS
 10
-23.8388598611
 20
-6.6723123046
 11
-22.8430162608
 21
-6.6723123046
  0
LINE
  5
2E1
100
AcDbEntity
  8
RACCORDO
100
AcDbLine
 62
7
  6
CONTINUOUS
 10
22.5164223568
 20
-6.6723123046
 11
23.5122659571
 21
-6.6723123046
  0
LINE
  5
2E2
100
AcDbEntity
  8
RACCORDO
100
AcDbLine
 62
253
  6
CONTINUOUS
 10
6.3315579184
 20
-6.5020316134
 11
7.1418481776
 21
-6.5020316134
  0
LINE
  5
2E3
100
AcDbEntity
  8
RACCORDO
100
AcDbLine
 62
253
  6
CONTINUOUS
 10
-6.6581518224
 20
-6.5020316134
 11
-7.4684420816
 21
-6.5020316134
  0
LINE
  5
2E4
100
AcDbEntity
  8
RACCORDO
100
AcDbLine
 62
253
  6
CONTINUOUS
 10
17.5315579184
 20
-6.5020316134
 11
18.3418481776
 21
-6.5020316134
  0
LINE
  5
2E5
100
AcDbEntity
  8
RACCORDO
100
AcDbLine
 62
253
  6
CONTINUOUS
 10
-17.8581518224
 20
-6.5020316134
 11
-18.6684420816
 21
-6.5020316134
  0
LINE
  5
2E6
100
AcDbEntity
  8
RACCORDO
100
AcDbLine
 62
253
  6
CONTINUOUS
 10
18.0418938691
 20
-6.2020773048
 11
17.8315122269
 21
-6.2020773048
  0
LINE
  5
2E7
100
AcDbEntity
  8
RACCORDO
100
AcDbLine
 62
253
  6
CONTINUOUS
 10
6.8418938691
 20
-6.2020773048
 11
6.6315122269
 21
-6.2020773048
  0
LINE
  5
2E8
100
AcDbEntity
  8
RACCORDO
100
AcDbLine
 62
253
  6
CONTINUOUS
 10
-6.9581061309
 20
-6.2020773048
 11
-7.1684877731
 21
-6.2020773048
  0
LINE
  5
2E9
100
AcDbEntity
  8
RACCORDO
100
AcDbLine
 62
253
  6
CONTINUOUS
 10
-18.1581061309
 20
-6.2020773048
 11
-18.3684877731
 21
-6.2020773048
  0
LINE
  5
2EA
100
AcDbEntity
  8
RACCORDO
100
AcDbLine
 62
7
  6
CONTINUOUS
 10
-18.3984337629
 20
-6.172131315
 11
-18.1281601411
 21
-6.172131315
  0
LINE
  5
2EB
100
AcDbEntity
  8
RACCORDO
100
AcDbLine
 62
7
  6
CONTINUOUS
 10
-7.1984337629
 20
-6.172131315
 11
-6.9281601411
 21
-6.172131315
  0
LINE
  5
2EC
100
AcDbEntity
  8
RACCORDO
100
AcDbLine
 62
7
  6
CONTINUOUS
 10
6.6015662371
 20
-6.172131315
 11
6.8718398589
 21
-6.172131315
  0
LINE
  5
2ED
100
AcDbEntity
  8
RACCORDO
100
AcDbLine
 62
7
  6
CONTINUOUS
 10
17.8015662371
 20
-6.172131315
 11
18.0718398589
 21
-6.172131315
  0
LINE
  5
2EE
100
AcDbEntity
  8
RACCORDO
100
AcDbLine
 62
7
  6
CONTINUOUS
 10
23.5122659571
 20
-6.0421325643
 11
22.5164223568
 21
-6.0421325643
  0
LINE
  5
2EF
100
AcDbEntity
  8
RACCORDO
100
AcDbLine
 62
7
  6
CONTINUOUS
 10
-22.8430162608
 20
-6.0421325643
 11
-23.8388598611
 21
-6.0421325643
  0
LINE
  5
2F0
100
AcDbEntity
  8
RACCORDO
100
AcDbLine
 62
7
  6
CONTINUOUS
 10
-23.4913837291
 20
-5.9894691081
 11
-22.4955436257
 21
-5.9894691081
  0
LINE
  5
2F1
100
AcDbEntity
  8
RACCORDO
100
AcDbLine
 62
7
  6
CONTINUOUS
 10
22.1689497217
 20
-5.9894691081
 11
23.1647898251
 21
-5.9894691081
  0
LINE
  5
2F2
100
AcDbEntity
  8
DRAFT
100
AcDbLine
 62
7
  6
CONTINUOUS
 10
-22.813296952
 20
-4.6653302786
 11
-22.013296952
 21
-4.6792943306
  0
LINE
  5
2F3
100
AcDbEntity
  8
0
100
AcDbLine
 62
7
  6
CONTINUOUS
 10
-12.788296952
 20
-3.4395234345
 11
-12.9653803191
 21
-3.4033532228
  0
LINE
  5
2F4
100
AcDbEntity
  8
0
100
AcDbLine
 62
7
  6
CONTINUOUS
 10
-11.2653802178
 20
-3.4395234345
 11
-11.4424636862
 21
-3.4033532228
  0
LINE
  5
2F5
100
AcDbEntity
  8
0
100
AcDbLine
 62
7
  6
CONTINUOUS
 10
-11.2299636862
 20
-3.2586723669
 11
-11.3716302178
 21
-3.2225021584
  0
LINE
  5
2F6
100
AcDbEntity
  8
0
100
AcDbLine
 62
7
  6
CONTINUOUS
 10
-10.9466302178
 20
-2.6799489556
 11
-11.088296952
 21
-2.6437787471
  0
LINE
  5
2F7
100
AcDbEntity
  8
0
100
AcDbLine
 62
7
  6
CONTINUOUS
 10
-11.2299636862
 20
-2.4990979133
 11
-11.3716302178
 21
-2.4629277049
  0
LINE
  5
2F8
100
AcDbEntity
  8
0
100
AcDbLine
 62
7
  6
CONTINUOUS
 10
-12.469546952
 20
-2.5714383302
 11
-12.575796952
 21
-2.5352681218
  0
LINE
  5
2F9
100
AcDbEntity
  8
0
100
AcDbLine
 62
7
  6
CONTINUOUS
 10
-12.5049635849
 20
-1.9565446852
 11
-12.6112135849
 21
-1.9203744767
  0
LINE
  5
2FA
100
AcDbEntity
  8
0
100
AcDbLine
 62
7
  6
CONTINUOUS
 10
-7.5466304204
 20
-2.0288851021
 11
-7.6528804204
 21
-1.9565446852
  0
LINE
  5
2FB
100
AcDbEntity
  8
0
100
AcDbLine
 62
7
  6
CONTINUOUS
 10
-7.2987134836
 20
-1.9927148936
 11
-7.4403804204
 21
-1.8480340598
  0
LINE
  5
2FC
100
AcDbEntity
  8
RACCORDO
100
AcDbLine
 62
253
  6
CONTINUOUS
 10
-4.5931957189
 20
5.7186675772
 11
-4.5866728141
 21
4.0672005237
  0
LINE
  5
2FD
100
AcDbEntity
  8
RACCORDO
100
AcDbLine
 62
253
  6
CONTINUOUS
 10
-3.9851424768
 20
4.0893320412
 11
-3.9851424768
 21
5.6962230899
  0
LINE
  5
2FE
100
AcDbEntity
  8
RACCORDO
100
AcDbLine
 62
253
  6
CONTINUOUS
 10
-3.7032346905
 20
4.0927775655
 11
-3.7032346905
 21
5.6927775655
  0
LINE
  5
2FF
100
AcDbEntity
  8
0
100
AcDbLine
 62
7
  6
CONTINUOUS
 10
-7.369546952
 20
-2.4629277049
 11
-7.2987134836
 21
-2.3544170795
  0
LINE
  5
300
100
AcDbEntity
  8
0
100
AcDbLine
 62
7
  6
CONTINUOUS
 10
-8.4674634836
 20
-1.9927148936
 11
-8.325796952
 21
-1.8480340598
  0
LINE
  5
301
100
AcDbEntity
  8
0
100
AcDbLine
 62
7
  6
CONTINUOUS
 10
-11.725796952
 20
-2.716119164
 11
-11.5841302178
 21
-2.6076085387
  0
LINE
  5
302
100
AcDbEntity
  8
0
100
AcDbLine
 62
7
  6
CONTINUOUS
 10
-10.9466302178
 20
-2.4629277049
 11
-10.8049636862
 21
-2.3544170795
  0
LINE
  5
303
100
AcDbEntity
  8
0
100
AcDbLine
 62
7
  6
CONTINUOUS
 10
-13.0362135849
 20
-2.6437787471
 11
-12.9299635849
 21
-2.5714383302
  0
LINE
  5
304
100
AcDbEntity
  8
0
100
AcDbLine
 62
7
  6
CONTINUOUS
 10
-12.469546952
 20
-3.2225021584
 11
-12.363296952
 21
-3.1501617415
  0
LINE
  5
305
100
AcDbEntity
  8
0
100
AcDbLine
 62
7
  6
CONTINUOUS
 10
-11.5841302178
 20
-1.8842042683
 11
-11.407046952
 21
-1.7756936429
  0
LINE
  5
306
100
AcDbEntity
  8
0
100
AcDbLine
 62
7
  6
CONTINUOUS
 10
-12.4341303191
 20
-3.4033532228
 11
-12.257046952
 21
-3.294842588
  0
LINE
  5
307
100
AcDbEntity
  8
DRAFT
100
AcDbLine
 62
7
  6
CONTINUOUS
 10
-22.013296952
 20
-4.6855781539
 11
-22.563296952
 21
-4.6911208815
  0
LINE
  5
308
100
AcDbEntity
  8
RACCORDO
100
AcDbLine
 62
7
  6
CONTINUOUS
 10
23.1640167682
 20
-4.7257493652
 11
22.236703048
 21
-4.7257493652
  0
LINE
  5
309
100
AcDbEntity
  8
RACCORDO
100
AcDbLine
 62
7
  6
CONTINUOUS
 10
-22.563296952
 20
-4.7257493652
 11
-23.4906106722
 21
-4.7257493652
  0
LINE
  5
30A
100
AcDbEntity
  8
DRAFT
100
AcDbLine
 62
7
  6
CONTINUOUS
 10
-23.8458418871
 20
-4.6653302786
 11
-22.813296952
 21
-4.6653302786
  0
LINE
  5
30B
100
AcDbEntity
  8
DRAFT
100
AcDbLine
 62
7
  6
CONTINUOUS
 10
22.486703048
 20
-4.6653302786
 11
23.5192479831
 21
-4.6653302786
  0
LINE
  5
30C
100
AcDbEntity
  8
DRAFT
100
AcDbLine
 62
7
  6
CONTINUOUS
 10
23.8321954621
 20
-4.0527148486
 11
23.5321954621
 21
-4.0527148486
  0
LINE
  5
30D
100
AcDbEntity
  8
DRAFT
100
AcDbLine
 62
7
  6
CONTINUOUS
 10
-23.8587893661
 20
-4.0527148486
 11
-24.1587893661
 21
-4.0527148486
  0
LINE
  5
30E
100
AcDbEntity
  8
DRAFT
100
AcDbLine
 62
7
  6
CONTINUOUS
 10
-23.8458418871
 20
-4.0397673695
 11
-23.0807520169
 21
-4.0397673695
  0
LINE
  5
30F
100
AcDbEntity
  8
DRAFT
100
AcDbLine
 62
7
  6
CONTINUOUS
 10
23.5192479831
 20
-4.0397673695
 11
22.7541581129
 21
-4.0397673695
  0
LINE
  5
310
100
AcDbEntity
  8
DRAFT
100
AcDbLine
 62
7
  6
CONTINUOUS
 10
-24.0849966021
 20
-3.9789220845
 11
-23.1415973019
 21
-3.9789220845
  0
LINE
  5
311
100
AcDbEntity
  8
DRAFT
100
AcDbLine
 62
7
  6
CONTINUOUS
 10
22.8150033979
 20
-3.9789220845
 11
23.7584026981
 21
-3.9789220845
  0
LINE
  5
312
100
AcDbEntity
  8
0
100
AcDbLine
 62
7
  6
CONTINUOUS
 10
-13.850796952
 20
-3.4395234345
 11
-13.638296952
 21
-3.4395234345
  0
LINE
  5
313
100
AcDbEntity
  8
0
100
AcDbLine
 62
7
  6
CONTINUOUS
 10
-12.788296952
 20
-3.4395234345
 11
-12.6112135849
 21
-3.4395234345
  0
LINE
  5
314
100
AcDbEntity
  8
0
100
AcDbLine
 62
7
  6
CONTINUOUS
 10
-11.2653802178
 20
-3.4395234345
 11
-11.0528802178
 21
-3.4395234345
  0
LINE
  5
315
100
AcDbEntity
  8
0
100
AcDbLine
 62
7
  6
CONTINUOUS
 10
-9.388296952
 20
-3.4395234345
 11
-9.175796952
 21
-3.4395234345
  0
LINE
  5
316
100
AcDbEntity
  8
0
100
AcDbLine
 62
7
  6
CONTINUOUS
 10
-8.538296952
 20
-3.4395234345
 11
-7.263296952
 21
-3.4395234345
  0
LINE
  5
317
100
AcDbEntity
  8
0
100
AcDbLine
 62
7
  6
CONTINUOUS
 10
7.534427048
 20
-3.4395234345
 11
7.847119048
 21
-3.4395234345
  0
LINE
  5
318
100
AcDbEntity
  8
0
100
AcDbLine
 62
7
  6
CONTINUOUS
 10
8.525201048
 20
-3.4395234345
 11
8.880029048
 21
-3.4395234345
  0
LINE
  5
319
100
AcDbEntity
  8
0
100
AcDbLine
 62
7
  6
CONTINUOUS
 10
9.071044048
 20
-3.4395234345
 11
9.410499048
 21
-3.4395234345
  0
LINE
  5
31A
100
AcDbEntity
  8
0
100
AcDbLine
 62
7
  6
CONTINUOUS
 10
9.903327048
 20
-3.4395234345
 11
9.953091048
 21
-3.4395234345
  0
LINE
  5
31B
100
AcDbEntity
  8
0
100
AcDbLine
 62
7
  6
CONTINUOUS
 10
10.447883048
 20
-3.4395234345
 11
10.794999048
 21
-3.4395234345
  0
LINE
  5
31C
100
AcDbEntity
  8
0
100
AcDbLine
 62
7
  6
CONTINUOUS
 10
10.850716048
 20
-3.4395234345
 11
11.201694048
 21
-3.4395234345
  0
LINE
  5
31D
100
AcDbEntity
  8
0
100
AcDbLine
 62
7
  6
CONTINUOUS
 10
11.874741048
 20
-3.4395234345
 11
12.248715048
 21
-3.4395234345
  0
LINE
  5
31E
100
AcDbEntity
  8
0
100
AcDbLine
 62
7
  6
CONTINUOUS
 10
12.3529097119
 20
-3.4395231212
 11
12.706310044
 21
-3.4395231212
  0
LINE
  5
31F
100
AcDbEntity
  8
0
100
AcDbLine
 62
7
  6
CONTINUOUS
 10
13.2496802631
 20
-3.4395231212
 11
13.5909836065
 21
-3.4395231212
  0
LINE
  5
320
100
AcDbEntity
  8
0
100
AcDbLine
 62
7
  6
CONTINUOUS
 10
-12.8237135849
 20
-3.2586723669
 11
-12.575796952
 21
-3.2586723669
  0
LINE
  5
321
100
AcDbEntity
  8
0
100
AcDbLine
 62
7
  6
CONTINUOUS
 10
-11.2299636862
 20
-3.2586723669
 11
-11.088296952
 21
-3.2586723669
  0
LINE
  5
322
100
AcDbEntity
  8
0
100
AcDbLine
 62
7
  6
CONTINUOUS
 10
-8.2549634836
 20
-3.2586723669
 11
-7.263296952
 21
-3.2586723669
  0
LINE
  5
323
100
AcDbEntity
  8
DRAFT
100
AcDbLine
 62
7
  6
CONTINUOUS
 10
22.236703048
 20
-4.6911208815
 11
21.686703048
 21
-4.6855781539
  0
LINE
  5
324
100
AcDbEntity
  8
0
100
AcDbLine
 62
7
  6
CONTINUOUS
 10
-12.4341303191
 20
-2.390587288
 11
-12.6112135849
 21
-2.3544170795
  0
LINE
  5
325
100
AcDbEntity
  8
0
100
AcDbLine
 62
7
  6
CONTINUOUS
 10
-12.469546952
 20
-1.7756936429
 11
-12.6466303191
 21
-1.7395234345
  0
LINE
  5
326
100
AcDbEntity
  8
0
100
AcDbLine
 62
7
  6
CONTINUOUS
 10
-10.9112136862
 20
-1.7756936429
 11
-11.088296952
 21
-1.7395234345
  0
LINE
  5
327
100
AcDbEntity
  8
0
100
AcDbLine
 62
7
  6
CONTINUOUS
 10
-7.6528804204
 20
-1.9565446852
 11
-7.8299634836
 21
-1.9203744767
  0
LINE
  5
328
100
AcDbEntity
  8
0
100
AcDbLine
 62
7
  6
CONTINUOUS
 10
-10.9466302178
 20
-1.9565446852
 11
-11.088296952
 21
-1.9203744767
  0
LINE
  5
329
100
AcDbEntity
  8
0
100
AcDbLine
 62
7
  6
CONTINUOUS
 10
-7.4403804204
 20
-1.8480340598
 11
-7.582046952
 21
-1.7756936429
  0
LINE
  5
32A
100
AcDbEntity
  8
DRAFT
100
AcDbLine
 62
7
  6
CONTINUOUS
 10
-3.3055619251
 20
5.6927775655
 11
-3.3055619251
 21
4.0927775655
  0
LINE
  5
32B
100
AcDbEntity
  8
DRAFT
100
AcDbLine
 62
7
  6
CONTINUOUS
 10
-3.163296952
 20
0.8927775655
 11
-3.163296952
 21
4.0840500331
  0
LINE
  5
32C
100
AcDbEntity
  8
DRAFT
100
AcDbLine
 62
7
  6
CONTINUOUS
 10
-3.163296952
 20
5.701505098
 11
-3.163296952
 21
7.3927775655
  0
LINE
  5
32D
100
AcDbEntity
  8
DRAFT
100
AcDbLine
 62
7
  6
CONTINUOUS
 10
-3.1307520169
 20
2.4753225006
 11
-3.1307520169
 21
4.0840500331
  0
LINE
  5
32E
100
AcDbEntity
  8
DRAFT
100
AcDbLine
 62
7
  6
CONTINUOUS
 10
-3.1307520169
 20
5.701505098
 11
-3.1307520169
 21
7.3102326305
  0
LINE
  5
32F
100
AcDbEntity
  8
DRAFT
100
AcDbLine
 62
7
  6
CONTINUOUS
 10
-3.063296952
 20
5.6970063164
 11
-3.063296952
 21
4.0885488147
  0
LINE
  5
330
100
AcDbEntity
  8
DRAFT
100
AcDbLine
 62
7
  6
CONTINUOUS
 10
-2.659805939
 20
7.3137236435
 11
-2.659805939
 21
2.4718314876
  0
LINE
  5
331
100
AcDbEntity
  8
0
100
AcDbLine
 62
7
  6
CONTINUOUS
 10
-8.538296952
 20
-3.2586723669
 11
-7.5466304204
 21
-2.3544170795
  0
LINE
  5
332
100
AcDbEntity
  8
0
100
AcDbLine
 62
7
  6
CONTINUOUS
 10
-8.2549634836
 20
-3.2586723669
 11
-7.369546952
 21
-2.4629277049
  0
LINE
  5
333
100
AcDbEntity
  8
0
100
AcDbLine
 62
7
  6
CONTINUOUS
 10
-8.2549634836
 20
-2.0288851021
 11
-8.1487134836
 21
-1.9565446852
  0
LINE
  5
334
100
AcDbEntity
  8
0
100
AcDbLine
 62
7
  6
CONTINUOUS
 10
-10.875796952
 20
-3.4033532228
 11
-10.6987136862
 21
-3.294842588
  0
LINE
  5
335
100
AcDbEntity
  8
0
100
AcDbLine
 62
7
  6
CONTINUOUS
 10
-11.5841302178
 20
-2.6076085387
 11
-11.513296952
 21
-2.5714383302
  0
LINE
  5
336
100
AcDbEntity
  8
0
100
AcDbLine
 62
7
  6
CONTINUOUS
 10
-11.513296952
 20
-2.7522893725
 11
-11.3716302178
 21
-2.6799489556
  0
LINE
  5
337
100
AcDbEntity
  8
0
100
AcDbLine
 62
7
  6
CONTINUOUS
 10
-10.8049636862
 20
-2.5714383302
 11
-10.7341302178
 21
-2.5352681218
  0
LINE
  5
338
100
AcDbEntity
  8
0
100
AcDbLine
 62
7
  6
CONTINUOUS
 10
-8.325796952
 20
-1.8480340598
 11
-8.1841304204
 21
-1.7756936429
  0
LINE
  5
339
100
AcDbEntity
  8
0
100
AcDbLine
 62
7
  6
CONTINUOUS
 10
-10.9466302178
 20
-3.2225021584
 11
-10.8049636862
 21
-3.1501617415
  0
LINE
  5
33A
100
AcDbEntity
  8
0
100
AcDbLine
 62
7
  6
CONTINUOUS
 10
-12.9299635849
 20
-1.9565446852
 11
-12.8237135849
 21
-1.9203744767
  0
LINE
  5
33B
100
AcDbEntity
  8
0
100
AcDbLine
 62
7
  6
CONTINUOUS
 10
-12.9299635849
 20
-2.5714383302
 11
-12.8237135849
 21
-2.5352681218
  0
LINE
  5
33C
100
AcDbEntity
  8
0
100
AcDbLine
 62
7
  6
CONTINUOUS
 10
11.299605048
 20
-3.1001704345
 11
11.782822048
 21
-3.1001704345
  0
LINE
  5
33D
100
AcDbEntity
  8
0
100
AcDbLine
 62
7
  6
CONTINUOUS
 10
-10.238296952
 20
-2.9331404654
 11
-9.388296952
 21
-2.9331404654
  0
LINE
  5
33E
100
AcDbEntity
  8
0
100
AcDbLine
 62
7
  6
CONTINUOUS
 10
-9.175796952
 20
-2.9331404654
 11
-8.8216304204
 21
-2.9331404654
  0
LINE
  5
33F
100
AcDbEntity
  8
0
100
AcDbLine
 62
7
  6
CONTINUOUS
 10
11.372187048
 20
-2.8375804345
 11
11.711909048
 21
-2.8375804345
  0
LINE
  5
340
100
AcDbEntity
  8
0
100
AcDbLine
 62
7
  6
CONTINUOUS
 10
12.706310044
 20
-2.7742907186
 11
12.896560367
 21
-2.7742907186
  0
LINE
  5
341
100
AcDbEntity
  8
0
100
AcDbLine
 62
7
  6
CONTINUOUS
 10
-9.9903804204
 20
-2.716119164
 11
-9.388296952
 21
-2.716119164
  0
LINE
  5
342
100
AcDbEntity
  8
0
100
AcDbLine
 62
7
  6
CONTINUOUS
 10
-9.175796952
 20
-2.716119164
 11
-8.8216304204
 21
-2.716119164
  0
LINE
  5
343
100
AcDbEntity
  8
0
100
AcDbLine
 62
7
  6
CONTINUOUS
 10
-11.2299636862
 20
-2.6437787471
 11
-11.088296952
 21
-2.6437787471
  0
LINE
  5
344
100
AcDbEntity
  8
0
100
AcDbLine
 62
7
  6
CONTINUOUS
 10
-12.8237135849
 20
-2.5352681218
 11
-12.575796952
 21
-2.5352681218
  0
LINE
  5
345
100
AcDbEntity
  8
0
100
AcDbLine
 62
7
  6
CONTINUOUS
 10
-11.2299636862
 20
-2.4990979133
 11
-11.088296952
 21
-2.4990979133
  0
LINE
  5
346
100
AcDbEntity
  8
0
100
AcDbLine
 62
7
  6
CONTINUOUS
 10
12.6945444796
 20
-2.495894266
 11
12.8973251925
 21
-2.495894266
  0
LINE
  5
347
100
AcDbEntity
  8
0
100
AcDbLine
 62
7
  6
CONTINUOUS
 10
-12.788296952
 20
-2.3544170795
 11
-12.6112135849
 21
-2.3544170795
  0
LINE
  5
348
100
AcDbEntity
  8
0
100
AcDbLine
 62
7
  6
CONTINUOUS
 10
-12.3278802178
 20
-2.1373957275
 11
-12.150796952
 21
-2.1373957275
  0
LINE
  5
349
100
AcDbEntity
  8
0
100
AcDbLine
 62
7
  6
CONTINUOUS
 10
-8.5028804204
 20
-2.1373957275
 11
-8.325796952
 21
-2.1373957275
  0
LINE
  5
34A
100
AcDbEntity
  8
0
100
AcDbLine
 62
7
  6
CONTINUOUS
 10
-12.8237135849
 20
-1.9203744767
 11
-12.6112135849
 21
-1.9203744767
  0
LINE
  5
34B
100
AcDbEntity
  8
0
100
AcDbLine
 62
7
  6
CONTINUOUS
 10
-11.2299636862
 20
-1.9203744767
 11
-11.088296952
 21
-1.9203744767
  0
LINE
  5
34C
100
AcDbEntity
  8
0
100
AcDbLine
 62
7
  6
CONTINUOUS
 10
-7.9716304204
 20
-1.9203744767
 11
-7.8299634836
 21
-1.9203744767
  0
LINE
  5
34D
100
AcDbEntity
  8
0
100
AcDbLine
 62
7
  6
CONTINUOUS
 10
6.995537048
 20
-1.7396604345
 11
7.380990048
 21
-1.7396604345
  0
LINE
  5
34E
100
AcDbEntity
  8
0
100
AcDbLine
 62
7
  6
CONTINUOUS
 10
8.038937048
 20
-1.7396604345
 11
8.393523048
 21
-1.7396604345
  0
LINE
  5
34F
100
AcDbEntity
  8
0
100
AcDbLine
 62
7
  6
CONTINUOUS
 10
9.224531048
 20
-1.7396604345
 11
9.579066048
 21
-1.7396604345
  0
LINE
  5
350
100
AcDbEntity
  8
0
100
AcDbLine
 62
7
  6
CONTINUOUS
 10
10.284975048
 20
-1.7396604345
 11
10.636042048
 21
-1.7396604345
  0
LINE
  5
351
100
AcDbEntity
  8
0
100
AcDbLine
 62
7
  6
CONTINUOUS
 10
11.383901048
 20
-1.7396604345
 11
11.727155048
 21
-1.7396604345
  0
LINE
  5
352
100
AcDbEntity
  8
0
100
AcDbLine
 62
7
  6
CONTINUOUS
 10
8.525201048
 20
-1.7395584345
 11
8.880029048
 21
-1.7395584345
  0
LINE
  5
353
100
AcDbEntity
  8
0
100
AcDbLine
 62
7
  6
CONTINUOUS
 10
-13.850796952
 20
-1.7395234345
 11
-13.638296952
 21
-1.7395234345
  0
LINE
  5
354
100
AcDbEntity
  8
0
100
AcDbLine
 62
7
  6
CONTINUOUS
 10
-12.788296952
 20
-1.7395234345
 11
-12.6466303191
 21
-1.7395234345
  0
LINE
  5
355
100
AcDbEntity
  8
0
100
AcDbLine
 62
7
  6
CONTINUOUS
 10
-11.2299636862
 20
-1.7395234345
 11
-11.088296952
 21
-1.7395234345
  0
LINE
  5
356
100
AcDbEntity
  8
0
100
AcDbLine
 62
7
  6
CONTINUOUS
 10
-9.388296952
 20
-1.7395234345
 11
-9.175796952
 21
-1.7395234345
  0
LINE
  5
357
100
AcDbEntity
  8
0
100
AcDbLine
 62
7
  6
CONTINUOUS
 10
-7.9362134836
 20
-1.7395234345
 11
-7.794546952
 21
-1.7395234345
  0
LINE
  5
358
100
AcDbEntity
  8
DRAFT
100
AcDbLine
 62
7
  6
CONTINUOUS
 10
-24.0838091939
 20
-1.6367101925
 11
-23.1427847101
 21
-1.6367101925
  0
LINE
  5
359
100
AcDbEntity
  8
DRAFT
100
AcDbLine
 62
7
  6
CONTINUOUS
 10
22.8161908061
 20
-1.6367101925
 11
23.7572152899
 21
-1.6367101925
  0
LINE
  5
35A
100
AcDbEntity
  8
DRAFT
100
AcDbLine
 62
7
  6
CONTINUOUS
 10
-24.963296952
 20
-1.5957308711
 11
-24.163296952
 21
-1.5957308711
  0
LINE
  5
35B
100
AcDbEntity
  8
DRAFT
100
AcDbLine
 62
7
  6
CONTINUOUS
 10
23.836703048
 20
-1.5957308711
 11
24.636703048
 21
-1.5957308711
  0
LINE
  5
35C
100
AcDbEntity
  8
DRAFT
100
AcDbLine
 62
7
  6
CONTINUOUS
 10
-23.8458418871
 20
-1.5746774994
 11
-23.0807520169
 21
-1.5746774994
  0
LINE
  5
35D
100
AcDbEntity
  8
DRAFT
100
AcDbLine
 62
7
  6
CONTINUOUS
 10
23.5192479831
 20
-1.5746774994
 11
22.7541581129
 21
-1.5746774994
  0
LINE
  5
35E
100
AcDbEntity
  8
DRAFT
100
AcDbLine
 62
7
  6
CONTINUOUS
 10
-24.163296952
 20
-1.5572224345
 11
-23.863296952
 21
-1.5572224345
  0
LINE
  5
35F
100
AcDbEntity
  8
DRAFT
100
AcDbLine
 62
7
  6
CONTINUOUS
 10
23.536703048
 20
-1.5572224345
 11
23.836703048
 21
-1.5572224345
  0
LINE
  5
360
100
AcDbEntity
  8
0
100
AcDbLine
 62
7
  6
CONTINUOUS
 10
-7.582046952
 20
-1.7756936429
 11
-7.794546952
 21
-1.7395234345
  0
LINE
  5
361
100
AcDbEntity
  8
RACCORDO
100
AcDbLine
 62
253
  6
CONTINUOUS
 10
-6.9281601411
 20
-6.172131315
 11
-6.9581061309
 21
-6.2020773048
  0
LINE
  5
362
100
AcDbEntity
  8
RACCORDO
100
AcDbLine
 62
253
  6
CONTINUOUS
 10
-6.6284015245
 20
-6.4722813155
 11
-6.6581518224
 21
-6.5020316134
  0
LINE
  5
363
100
AcDbEntity
  8
0
100
AcDbLine
 62
7
  6
CONTINUOUS
 10
-12.575796952
 20
-3.2586723669
 11
-12.469546952
 21
-3.2225021584
  0
LINE
  5
364
100
AcDbEntity
  8
0
100
AcDbLine
 62
7
  6
CONTINUOUS
 10
-11.088296952
 20
-3.2586723669
 11
-10.9466302178
 21
-3.2225021584
  0
LINE
  5
365
100
AcDbEntity
  8
0
100
AcDbLine
 62
7
  6
CONTINUOUS
 10
-11.3716302178
 20
-2.6799489556
 11
-11.2299636862
 21
-2.6437787471
  0
LINE
  5
366
100
AcDbEntity
  8
0
100
AcDbLine
 62
7
  6
CONTINUOUS
 10
-11.0528802178
 20
-3.4395234345
 11
-10.875796952
 21
-3.4033532228
  0
LINE
  5
367
100
AcDbEntity
  8
0
100
AcDbLine
 62
7
  6
CONTINUOUS
 10
-12.6112135849
 20
-3.4395234345
 11
-12.4341303191
 21
-3.4033532228
  0
LINE
  5
368
100
AcDbEntity
  8
0
100
AcDbLine
 62
7
  6
CONTINUOUS
 10
-8.1487134836
 20
-1.9565446852
 11
-7.9716304204
 21
-1.9203744767
  0
LINE
  5
369
100
AcDbEntity
  8
0
100
AcDbLine
 62
7
  6
CONTINUOUS
 10
-12.9653803191
 20
-2.390587288
 11
-12.788296952
 21
-2.3544170795
  0
LINE
  5
36A
100
AcDbEntity
  8
0
100
AcDbLine
 62
7
  6
CONTINUOUS
 10
-8.1841304204
 20
-1.7756936429
 11
-7.9362134836
 21
-1.7395234345
  0
LINE
  5
36B
100
AcDbEntity
  8
DRAFT
100
AcDbLine
 62
7
  6
CONTINUOUS
 10
-22.013296952
 20
-0.9351505383
 11
-22.813296952
 21
-0.9491145903
  0
LINE
  5
36C
100
AcDbEntity
  8
DRAFT
100
AcDbLine
 62
7
  6
CONTINUOUS
 10
21.686703048
 20
-0.928866715
 11
22.236703048
 21
-0.9233239874
  0
LINE
  5
36D
100
AcDbEntity
  8
DRAFT
100
AcDbLine
 62
7
  6
CONTINUOUS
 10
23.5192479831
 20
-0.9491145903
 11
22.486703048
 21
-0.9491145903
  0
LINE
  5
36E
100
AcDbEntity
  8
DRAFT
100
AcDbLine
 62
7
  6
CONTINUOUS
 10
-22.813296952
 20
-0.9491145903
 11
-23.8458418871
 21
-0.9491145903
  0
LINE
  5
36F
100
AcDbEntity
  8
RACCORDO
100
AcDbLine
 62
7
  6
CONTINUOUS
 10
-23.4886660656
 20
-0.8867495193
 11
-22.563296952
 21
-0.8867495193
  0
LINE
  5
370
100
AcDbEntity
  8
RACCORDO
100
AcDbLine
 62
7
  6
CONTINUOUS
 10
22.236703048
 20
-0.8867495193
 11
23.1620721616
 21
-0.8867495193
  0
LINE
  5
371
100
AcDbEntity
  8
DRAFT
100
AcDbLine
 62
7
  6
CONTINUOUS
 10
-22.563296952
 20
-0.9233239874
 11
-22.013296952
 21
-0.928866715
  0
LINE
  5
372
100
AcDbEntity
  8
DRAFT
100
AcDbLine
 62
7
  6
CONTINUOUS
 10
22.486703048
 20
-0.9491145903
 11
21.686703048
 21
-0.9351505383
  0
LINE
  5
373
100
AcDbEntity
  8
RACCORDO
100
AcDbLine
 62
253
  6
CONTINUOUS
 10
6.3315579184
 20
-6.5020316134
 11
6.3018076205
 21
-6.4722813155
  0
LINE
  5
374
100
AcDbEntity
  8
0
100
AcDbLine
 62
7
  6
CONTINUOUS
 10
-11.088296952
 20
-2.4990979133
 11
-10.9466302178
 21
-2.4629277049
  0
LINE
  5
375
100
AcDbEntity
  8
0
100
AcDbLine
 62
7
  6
CONTINUOUS
 10
-11.3716302178
 20
-1.9565446852
 11
-11.2299636862
 21
-1.9203744767
  0
LINE
  5
376
100
AcDbEntity
  8
0
100
AcDbLine
 62
7
  6
CONTINUOUS
 10
-11.407046952
 20
-1.7756936429
 11
-11.2299636862
 21
-1.7395234345
  0
LINE
  5
377
100
AcDbEntity
  8
0
100
AcDbLine
 62
7
  6
CONTINUOUS
 10
-12.9653803191
 20
-1.7756936429
 11
-12.788296952
 21
-1.7395234345
  0
LINE
  5
378
100
AcDbEntity
  8
0
100
AcDbLine
 62
7
  6
CONTINUOUS
 10
-3.163296952
 20
0.8927775655
 11
2.836703048
 21
0.8927775655
  0
LINE
  5
379
100
AcDbEntity
  8
RACCORDO
100
AcDbLine
 62
7
  6
CONTINUOUS
 10
23.1612796731
 20
1.1715116003
 11
22.1654370828
 21
1.1715116003
  0
LINE
  5
37A
100
AcDbEntity
  8
RACCORDO
100
AcDbLine
 62
7
  6
CONTINUOUS
 10
-22.4920309868
 20
1.1715116003
 11
-23.4878735771
 21
1.1715116003
  0
LINE
  5
37B
100
AcDbEntity
  8
RACCORDO
100
AcDbLine
 62
7
  6
CONTINUOUS
 10
-23.8388598611
 20
1.2276876954
 11
-22.8430162608
 21
1.2276876954
  0
LINE
  5
37C
100
AcDbEntity
  8
RACCORDO
100
AcDbLine
 62
7
  6
CONTINUOUS
 10
22.5164223568
 20
1.2276876954
 11
23.5122659571
 21
1.2276876954
  0
LINE
  5
37D
100
AcDbEntity
  8
RACCORDO
100
AcDbLine
 62
7
  6
CONTINUOUS
 10
23.5122659571
 20
1.8578674357
 11
22.5164223568
 21
1.8578674357
  0
LINE
  5
37E
100
AcDbEntity
  8
RACCORDO
100
AcDbLine
 62
7
  6
CONTINUOUS
 10
-22.8430162608
 20
1.8578674357
 11
-23.8388598611
 21
1.8578674357
  0
LINE
  5
37F
100
AcDbEntity
  8
RACCORDO
100
AcDbLine
 62
7
  6
CONTINUOUS
 10
-23.4876304407
 20
1.9142868394
 11
-22.4917876782
 21
1.9142868394
  0
LINE
  5
380
100
AcDbEntity
  8
RACCORDO
100
AcDbLine
 62
7
  6
CONTINUOUS
 10
22.1651937742
 20
1.9142868394
 11
23.1610365367
 21
1.9142868394
  0
LINE
  5
381
100
AcDbEntity
  8
RACCORDO
100
AcDbLine
 62
253
  6
CONTINUOUS
 10
6.6315122269
 20
-6.2020773048
 11
6.6015662371
 21
-6.172131315
  0
LINE
  5
382
100
AcDbEntity
  8
DRAFT
100
AcDbLine
 62
7
  6
CONTINUOUS
 10
2.333212035
 20
7.3137236435
 11
2.333212035
 21
2.4718314876
  0
LINE
  5
383
100
AcDbEntity
  8
DRAFT
100
AcDbLine
 62
7
  6
CONTINUOUS
 10
2.736703048
 20
5.6970063164
 11
2.736703048
 21
4.0885488147
  0
LINE
  5
384
100
AcDbEntity
  8
DRAFT
100
AcDbLine
 62
7
  6
CONTINUOUS
 10
2.8041581129
 20
7.3102326305
 11
2.8041581129
 21
5.701505098
  0
LINE
  5
385
100
AcDbEntity
  8
DRAFT
100
AcDbLine
 62
7
  6
CONTINUOUS
 10
2.8041581129
 20
4.0840500331
 11
2.8041581129
 21
2.4753225006
  0
LINE
  5
386
100
AcDbEntity
  8
DRAFT
100
AcDbLine
 62
7
  6
CONTINUOUS
 10
2.836703048
 20
0.8927775655
 11
2.836703048
 21
4.0840500331
  0
LINE
  5
387
100
AcDbEntity
  8
DRAFT
100
AcDbLine
 62
7
  6
CONTINUOUS
 10
2.836703048
 20
5.701505098
 11
2.836703048
 21
7.3927775655
  0
LINE
  5
388
100
AcDbEntity
  8
DRAFT
100
AcDbLine
 62
7
  6
CONTINUOUS
 10
2.9789680211
 20
5.6927775655
 11
2.9789680211
 21
4.0927775655
  0
LINE
  5
389
100
AcDbEntity
  8
RACCORDO
100
AcDbLine
 62
253
  6
CONTINUOUS
 10
3.3766407865
 20
4.0927775655
 11
3.3766407865
 21
5.6927775655
  0
LINE
  5
38A
100
AcDbEntity
  8
DRAFT
100
AcDbLine
 62
7
  6
CONTINUOUS
 10
2.333212035
 20
2.4718314876
 11
-2.659805939
 21
2.4718314876
  0
LINE
  5
38B
100
AcDbEntity
  8
DRAFT
100
AcDbLine
 62
7
  6
CONTINUOUS
 10
-3.1307520169
 20
2.4753225006
 11
-2.663296952
 21
2.4753225006
  0
LINE
  5
38C
100
AcDbEntity
  8
DRAFT
100
AcDbLine
 62
7
  6
CONTINUOUS
 10
2.8041581129
 20
2.4753225006
 11
2.336703048
 21
2.4753225006
  0
LINE
  5
38D
100
AcDbEntity
  8
RACCORDO
100
AcDbLine
 62
7
  6
CONTINUOUS
 10
-19.9352117681
 20
3.1709084409
 11
-19.6913821359
 21
3.1709084409
  0
LINE
  5
38E
100
AcDbEntity
  8
RACCORDO
100
AcDbLine
 62
7
  6
CONTINUOUS
 10
19.3647882319
 20
3.1709084409
 11
19.6086178641
 21
3.1709084409
  0
LINE
  5
38F
100
AcDbEntity
  8
RACCORDO
100
AcDbLine
 62
253
  6
CONTINUOUS
 10
-19.9044627945
 20
3.2016574144
 11
-19.7221311094
 21
3.2016574144
  0
LINE
  5
390
100
AcDbEntity
  8
RACCORDO
100
AcDbLine
 62
253
  6
CONTINUOUS
 10
19.3955372055
 20
3.2016574144
 11
19.5778688906
 21
3.2016574144
  0
LINE
  5
391
100
AcDbEntity
  8
RACCORDO
100
AcDbLine
 62
253
  6
CONTINUOUS
 10
-20.2009870167
 20
3.701581262
 11
-19.4256068873
 21
3.701581262
  0
LINE
  5
392
100
AcDbEntity
  8
RACCORDO
100
AcDbLine
 62
253
  6
CONTINUOUS
 10
19.8743931127
 20
3.701581262
 11
19.0990129833
 21
3.701581262
  0
LINE
  5
393
100
AcDbEntity
  8
RACCORDO
100
AcDbLine
 62
253
  6
CONTINUOUS
 10
3.6585485728
 20
4.0893320412
 11
3.6585485728
 21
5.6962230899
  0
LINE
  5
394
100
AcDbEntity
  8
RACCORDO
100
AcDbLine
 62
253
  6
CONTINUOUS
 10
4.2600789102
 20
4.0672005237
 11
4.266601815
 21
5.7186675772
  0
LINE
  5
395
100
AcDbEntity
  8
DRAFT
100
AcDbLine
 62
7
  6
CONTINUOUS
 10
21.1491690386
 20
8.1451427603
 11
20.886703048
 21
8.0927775655
  0
LINE
  5
396
100
AcDbEntity
  8
DRAFT
100
AcDbLine
 62
7
  6
CONTINUOUS
 10
21.1491690386
 20
9.2857955396
 11
20.886703048
 21
9.2334303448
  0
LINE
  5
397
100
AcDbEntity
  8
RACCORDO
100
AcDbLine
 62
7
  6
CONTINUOUS
 10
-3.9851424768
 20
4.0893320412
 11
-4.398733076
 21
4.0694973127
  0
LINE
  5
398
100
AcDbEntity
  8
RACCORDO
100
AcDbLine
 62
7
  6
CONTINUOUS
 10
4.078650087
 20
5.7163700649
 11
3.6585485728
 21
5.6962230899
  0
LINE
  5
399
100
AcDbEntity
  8
DRAFT
100
AcDbLine
 62
7
  6
CONTINUOUS
 10
2.9789680211
 20
4.0927775655
 11
2.736703048
 21
4.0885488147
  0
LINE
  5
39A
100
AcDbEntity
  8
DRAFT
100
AcDbLine
 62
7
  6
CONTINUOUS
 10
-3.163296952
 20
4.0840500331
 11
-3.063296952
 21
4.0850578017
  0
LINE
  5
39B
100
AcDbEntity
  8
RACCORDO
100
AcDbLine
 62
7
  6
CONTINUOUS
 10
4.2600789102
 20
4.0672005237
 11
2.836703048
 21
4.0672005237
  0
LINE
  5
39C
100
AcDbEntity
  8
RACCORDO
100
AcDbLine
 62
7
  6
CONTINUOUS
 10
-3.163296952
 20
4.0672005237
 11
-4.5866728141
 21
4.0672005237
  0
LINE
  5
39D
100
AcDbEntity
  8
RACCORDO
100
AcDbLine
 62
7
  6
CONTINUOUS
 10
3.3766407865
 20
4.0927775655
 11
2.9789680211
 21
4.0927775655
  0
LINE
  5
39E
100
AcDbEntity
  8
RACCORDO
100
AcDbLine
 62
7
  6
CONTINUOUS
 10
-3.3055619251
 20
4.0927775655
 11
-3.7032346905
 21
4.0927775655
  0
LINE
  5
39F
100
AcDbEntity
  8
RACCORDO
100
AcDbLine
 62
253
  6
CONTINUOUS
 10
19.0990129833
 20
5.0856707844
 11
19.8743931127
 21
5.0856707844
  0
LINE
  5
3A0
100
AcDbEntity
  8
RACCORDO
100
AcDbLine
 62
253
  6
CONTINUOUS
 10
-19.4256068873
 20
5.0856707844
 11
-20.2009870167
 21
5.0856707844
  0
LINE
  5
3A1
100
AcDbEntity
  8
RACCORDO
100
AcDbLine
 62
253
  6
CONTINUOUS
 10
19.5754601579
 20
5.4391588472
 11
19.3979459383
 21
5.4391588394
  0
LINE
  5
3A2
100
AcDbEntity
  8
RACCORDO
100
AcDbLine
 62
253
  6
CONTINUOUS
 10
-19.7245398421
 20
5.4391588472
 11
-19.9020540617
 21
5.4391588394
  0
LINE
  5
3A3
100
AcDbEntity
  8
DRAFT
100
AcDbLine
 62
7
  6
CONTINUOUS
 10
2.736703048
 20
4.0850578017
 11
2.836703048
 21
4.0840500331
  0
LINE
  5
3A4
100
AcDbEntity
  8
DRAFT
100
AcDbLine
 62
7
  6
CONTINUOUS
 10
-3.063296952
 20
4.0885488147
 11
-3.3055619251
 21
4.0927775655
  0
LINE
  5
3A5
100
AcDbEntity
  8
RACCORDO
100
AcDbLine
 62
7
  6
CONTINUOUS
 10
4.072139172
 20
4.0694973127
 11
3.6585485728
 21
4.0893320412
  0
LINE
  5
3A6
100
AcDbEntity
  8
RACCORDO
100
AcDbLine
 62
7
  6
CONTINUOUS
 10
-3.9851424768
 20
5.6962230899
 11
-4.405243991
 21
5.7163700649
  0
LINE
  5
3A7
100
AcDbEntity
  8
DRAFT
100
AcDbLine
 62
7
  6
CONTINUOUS
 10
-21.4757629426
 20
8.1451427603
 11
-21.213296952
 21
8.0927775655
  0
LINE
  5
3A8
100
AcDbEntity
  8
DRAFT
100
AcDbLine
 62
7
  6
CONTINUOUS
 10
-21.4757629426
 20
9.2857955396
 11
-21.213296952
 21
9.2334303448
  0
LINE
  5
3A9
100
AcDbEntity
  8
RACCORDO
100
AcDbLine
 62
7
  6
CONTINUOUS
 10
6.3066529541
 20
-7.5304786655
 11
6.3315579184
 21
-7.7820627856
  0
LINE
  5
3AA
100
AcDbEntity
  8
RACCORDO
100
AcDbLine
 62
253
  6
CONTINUOUS
 10
6.3315579184
 20
-7.7820627856
 11
6.3315579184
 21
-6.5020316134
  0
LINE
  5
3AB
100
AcDbEntity
  8
RACCORDO
100
AcDbLine
 62
253
  6
CONTINUOUS
 10
6.6315122269
 20
-7.8340376808
 11
6.6315122269
 21
-6.2020773048
  0
LINE
  5
3AC
100
AcDbEntity
  8
RACCORDO
100
AcDbLine
 62
253
  6
CONTINUOUS
 10
6.8418938691
 20
-6.2020773048
 11
6.8418938691
 21
-7.8340376808
  0
LINE
  5
3AD
100
AcDbEntity
  8
DRAFT
100
AcDbLine
 62
7
  6
CONTINUOUS
 10
-3.063296952
 20
5.6970063164
 11
-3.3055619251
 21
5.6927775655
  0
LINE
  5
3AE
100
AcDbEntity
  8
DRAFT
100
AcDbLine
 62
7
  6
CONTINUOUS
 10
2.736703048
 20
5.7004973294
 11
2.836703048
 21
5.701505098
  0
LINE
  5
3AF
100
AcDbEntity
  8
RACCORDO
100
AcDbLine
 62
7
  6
CONTINUOUS
 10
3.3766407865
 20
5.6927775655
 11
2.9789680211
 21
5.6927775655
  0
LINE
  5
3B0
100
AcDbEntity
  8
RACCORDO
100
AcDbLine
 62
7
  6
CONTINUOUS
 10
-3.3055619251
 20
5.6927775655
 11
-3.7032346905
 21
5.6927775655
  0
LINE
  5
3B1
100
AcDbEntity
  8
RACCORDO
100
AcDbLine
 62
7
  6
CONTINUOUS
 10
-4.5931957189
 20
5.7186675772
 11
-3.163296952
 21
5.7186675772
  0
LINE
  5
3B2
100
AcDbEntity
  8
RACCORDO
100
AcDbLine
 62
7
  6
CONTINUOUS
 10
2.836703048
 20
5.7186675772
 11
4.266601815
 21
5.7186675772
  0
LINE
  5
3B3
100
AcDbEntity
  8
RACCORDO
100
AcDbLine
 62
253
  6
CONTINUOUS
 10
19.3856020093
 20
6.1463420586
 11
19.5878040963
 21
6.1463426085
  0
LINE
  5
3B4
100
AcDbEntity
  8
RACCORDO
100
AcDbLine
 62
253
  6
CONTINUOUS
 10
-19.9143979907
 20
6.1463420586
 11
-19.7121959037
 21
6.1463426085
  0
LINE
  5
3B5
100
AcDbEntity
  8
RACCORDO
100
AcDbLine
 62
253
  6
CONTINUOUS
 10
-19.4081518224
 20
6.4998843467
 11
-20.2184420816
 21
6.4998843467
  0
LINE
  5
3B6
100
AcDbEntity
  8
RACCORDO
100
AcDbLine
 62
253
  6
CONTINUOUS
 10
19.0815579184
 20
6.4998843467
 11
19.8918481776
 21
6.4998843467
  0
LINE
  5
3B7
100
AcDbEntity
  8
DRAFT
100
AcDbLine
 62
7
  6
CONTINUOUS
 10
-3.1307520169
 20
7.3102326305
 11
-2.663296952
 21
7.3102326305
  0
LINE
  5
3B8
100
AcDbEntity
  8
DRAFT
100
AcDbLine
 62
7
  6
CONTINUOUS
 10
2.8041581129
 20
7.3102326305
 11
2.336703048
 21
7.3102326305
  0
LINE
  5
3B9
100
AcDbEntity
  8
DRAFT
100
AcDbLine
 62
7
  6
CONTINUOUS
 10
-2.659805939
 20
7.3137236435
 11
2.333212035
 21
7.3137236435
  0
LINE
  5
3BA
100
AcDbEntity
  8
DRAFT
100
AcDbLine
 62
7
  6
CONTINUOUS
 10
-3.163296952
 20
5.701505098
 11
-3.063296952
 21
5.7004973294
  0
LINE
  5
3BB
100
AcDbEntity
  8
DRAFT
100
AcDbLine
 62
7
  6
CONTINUOUS
 10
2.9789680211
 20
5.6927775655
 11
2.736703048
 21
5.6970063164
  0
LINE
  5
3BC
100
AcDbEntity
  8
0
100
AcDbLine
 62
7
  6
CONTINUOUS
 10
7.534427048
 20
-3.4395234345
 11
6.995537048
 21
-1.7396604345
  0
LINE
  5
3BD
100
AcDbEntity
  8
0
100
AcDbLine
 62
7
  6
CONTINUOUS
 10
7.705015048
 20
-2.9097284345
 11
7.380990048
 21
-1.7396604345
  0
LINE
  5
3BE
100
AcDbEntity
  8
RACCORDO
100
AcDbLine
 62
253
  6
CONTINUOUS
 10
7.1418481776
 20
-6.5020316134
 11
7.1418481776
 21
-7.7820627856
  0
LINE
  5
3BF
100
AcDbEntity
  8
0
100
AcDbLine
 62
7
  6
CONTINUOUS
 10
8.525201048
 20
-3.4395234345
 11
8.525201048
 21
-1.7395584345
  0
LINE
  5
3C0
100
AcDbEntity
  8
0
100
AcDbLine
 62
7
  6
CONTINUOUS
 10
8.880029048
 20
-3.4395234345
 11
8.880029048
 21
-1.7395584345
  0
LINE
  5
3C1
100
AcDbEntity
  8
RACCORDO
100
AcDbLine
 62
7
  6
CONTINUOUS
 10
7.1709083025
 20
-7.4885042051
 11
7.1418481776
 21
-7.7820627856
  0
LINE
  5
3C2
100
AcDbEntity
  8
0
100
AcDbLine
 62
7
  6
CONTINUOUS
 10
7.705015048
 20
-2.9097284345
 11
8.038937048
 21
-1.7396604345
  0
LINE
  5
3C3
100
AcDbEntity
  8
0
100
AcDbLine
 62
7
  6
CONTINUOUS
 10
7.847119048
 20
-3.4395234345
 11
8.393523048
 21
-1.7396604345
  0
LINE
  5
3C4
100
AcDbEntity
  8
RACCORDO
100
AcDbLine
 62
7
  6
CONTINUOUS
 10
19.0815579184
 20
8.0876324359
 11
19.0640523321
 21
8.0701268496
  0
LINE
  5
3C5
100
AcDbEntity
  8
0
100
AcDbLine
 62
7
  6
CONTINUOUS
 10
-3.163296952
 20
7.3927775655
 11
2.836703048
 21
7.3927775655
  0
LINE
  5
3C6
100
AcDbEntity
  8
DRAFT
100
AcDbLine
 62
7
  6
CONTINUOUS
 10
-24.963296952
 20
8.0334303448
 11
-23.863296952
 21
8.0334303448
  0
LINE
  5
3C7
100
AcDbEntity
  8
DRAFT
100
AcDbLine
 62
7
  6
CONTINUOUS
 10
23.536703048
 20
8.0334303448
 11
24.636703048
 21
8.0334303448
  0
LINE
  5
3C8
100
AcDbEntity
  8
RACCORDO
100
AcDbLine
 62
253
  6
CONTINUOUS
 10
-24.9614600556
 20
8.0352672411
 11
-23.8614600556
 21
8.0352672411
  0
LINE
  5
3C9
100
AcDbEntity
  8
RACCORDO
100
AcDbLine
 62
253
  6
CONTINUOUS
 10
23.5348661516
 20
8.0352672411
 11
24.6348661516
 21
8.0352672411
  0
LINE
  5
3CA
100
AcDbEntity
  8
RACCORDO
100
AcDbLine
 62
7
  6
CONTINUOUS
 10
-23.4864898069
 20
8.0701268496
 11
-20.2359476679
 21
8.0701268496
  0
LINE
  5
3CB
100
AcDbEntity
  8
DRAFT
100
AcDbLine
 62
7
  6
CONTINUOUS
 10
-19.3906462361
 20
8.0701268496
 11
19.0640523321
 21
8.0701268496
  0
LINE
  5
3CC
100
AcDbEntity
  8
RACCORDO
100
AcDbLine
 62
7
  6
CONTINUOUS
 10
19.9093537639
 20
8.0701268496
 11
23.1598959029
 21
8.0701268496
  0
LINE
  5
3CD
100
AcDbEntity
  8
RACCORDO
100
AcDbLine
 62
7
  6
CONTINUOUS
 10
-21.213296952
 20
8.0927775655
 11
-19.9184877731
 21
8.0927775655
  0
LINE
  5
3CE
100
AcDbEntity
  8
RACCORDO
100
AcDbLine
 62
7
  6
CONTINUOUS
 10
-19.7081061309
 20
8.0927775655
 11
19.3815122269
 21
8.0927775655
  0
LINE
  5
3CF
100
AcDbEntity
  8
RACCORDO
100
AcDbLine
 62
7
  6
CONTINUOUS
 10
19.5918938691
 20
8.0927775655
 11
20.886703048
 21
8.0927775655
  0
LINE
  5
3D0
100
AcDbEntity
  8
DRAFT
100
AcDbLine
 62
7
  6
CONTINUOUS
 10
-23.856314926
 20
8.1451427603
 11
-21.4757629426
 21
8.1451427603
  0
LINE
  5
3D1
100
AcDbEntity
  8
DRAFT
100
AcDbLine
 62
7
  6
CONTINUOUS
 10
21.1491690386
 20
8.1451427603
 11
23.529721022
 21
8.1451427603
  0
LINE
  5
3D2
100
AcDbEntity
  8
RACCORDO
100
AcDbLine
 62
253
  6
CONTINUOUS
 10
-24.956314926
 20
8.3352215497
 11
-23.856314926
 21
8.3352215497
  0
LINE
  5
3D3
100
AcDbEntity
  8
RACCORDO
100
AcDbLine
 62
253
  6
CONTINUOUS
 10
23.529721022
 20
8.3352215497
 11
24.629721022
 21
8.3352215497
  0
LINE
  5
3D4
100
AcDbEntity
  8
RACCORDO
100
AcDbLine
 62
253
  6
CONTINUOUS
 10
17.5315579184
 20
-6.5020316134
 11
17.5018076205
 21
-6.4722813155
  0
LINE
  5
3D5
100
AcDbEntity
  8
RACCORDO
100
AcDbLine
 62
253
  6
CONTINUOUS
 10
17.8315122269
 20
-6.2020773048
 11
17.8015662371
 21
-6.172131315
  0
LINE
  5
3D6
100
AcDbEntity
  8
0
100
AcDbLine
 62
7
  6
CONTINUOUS
 10
9.903327048
 20
-3.4395234345
 11
9.487071048
 21
-2.3295444345
  0
LINE
  5
3D7
100
AcDbEntity
  8
0
100
AcDbLine
 62
7
  6
CONTINUOUS
 10
9.930147048
 20
-2.6834294345
 11
9.579066048
 21
-1.7396604345
  0
LINE
  5
3D8
100
AcDbEntity
  8
0
100
AcDbLine
 62
7
  6
CONTINUOUS
 10
10.794999048
 20
-3.4395234345
 11
10.636042048
 21
-1.7396604345
  0
LINE
  5
3D9
100
AcDbEntity
  8
0
100
AcDbLine
 62
7
  6
CONTINUOUS
 10
10.447883048
 20
-3.4395234345
 11
10.374982048
 21
-2.3341714345
  0
LINE
  5
3DA
100
AcDbEntity
  8
0
100
AcDbLine
 62
7
  6
CONTINUOUS
 10
9.410499048
 20
-3.4395234345
 11
9.487071048
 21
-2.3295444345
  0
LINE
  5
3DB
100
AcDbEntity
  8
0
100
AcDbLine
 62
7
  6
CONTINUOUS
 10
9.071044048
 20
-3.4395234345
 11
9.224531048
 21
-1.7396604345
  0
LINE
  5
3DC
100
AcDbEntity
  8
0
100
AcDbLine
 62
7
  6
CONTINUOUS
 10
9.930147048
 20
-2.6834294345
 11
10.284975048
 21
-1.7396604345
  0
LINE
  5
3DD
100
AcDbEntity
  8
0
100
AcDbLine
 62
7
  6
CONTINUOUS
 10
9.953091048
 20
-3.4395234345
 11
10.374982048
 21
-2.3341714345
  0
LINE
  5
3DE
100
AcDbEntity
  8
RACCORDO
100
AcDbLine
 62
253
  6
CONTINUOUS
 10
6.8718398589
 20
-6.172131315
 11
6.8418938691
 21
-6.2020773048
  0
LINE
  5
3DF
100
AcDbEntity
  8
RACCORDO
100
AcDbLine
 62
253
  6
CONTINUOUS
 10
7.1715984755
 20
-6.4722813155
 11
7.1418481776
 21
-6.5020316134
  0
LINE
  5
3E0
100
AcDbEntity
  8
DRAFT
100
AcDbLine
 62
7
  6
CONTINUOUS
 10
-21.213296952
 20
9.2334303448
 11
20.886703048
 21
9.2334303448
  0
LINE
  5
3E1
100
AcDbEntity
  8
RACCORDO
100
AcDbLine
 62
7
  6
CONTINUOUS
 10
-24.7063530022
 20
9.2857955396
 11
-21.4757629426
 21
9.2857955396
  0
LINE
  5
3E2
100
AcDbEntity
  8
RACCORDO
100
AcDbLine
 62
7
  6
CONTINUOUS
 10
21.1491690386
 20
9.2857955396
 11
24.3797590982
 21
9.2857955396
  0
LINE
  5
3E3
100
AcDbEntity
  8
0
100
AcDbLine
 62
7
  6
CONTINUOUS
 10
11.874741048
 20
-3.4395234345
 11
11.782822048
 21
-3.1001704345
  0
LINE
  5
3E4
100
AcDbEntity
  8
0
100
AcDbLine
 62
7
  6
CONTINUOUS
 10
11.711909048
 20
-2.8375804345
 11
11.548861048
 21
-2.2067394345
  0
LINE
  5
3E5
100
AcDbEntity
  8
0
100
AcDbLine
 62
7
  6
CONTINUOUS
 10
12.3529097119
 20
-3.4395231212
 11
12.3529097119
 21
-1.7595203523
  0
LINE
  5
3E6
100
AcDbEntity
  8
0
100
AcDbLine
 62
7
  6
CONTINUOUS
 10
11.372187048
 20
-2.8375804345
 11
11.548861048
 21
-2.2067394345
  0
LINE
  5
3E7
100
AcDbEntity
  8
0
100
AcDbLine
 62
7
  6
CONTINUOUS
 10
11.201694048
 20
-3.4395234345
 11
11.299605048
 21
-3.1001704345
  0
LINE
  5
3E8
100
AcDbEntity
  8
0
100
AcDbLine
 62
7
  6
CONTINUOUS
 10
10.850716048
 20
-3.4395234345
 11
11.383901048
 21
-1.7396604345
  0
LINE
  5
3E9
100
AcDbEntity
  8
RACCORDO
100
AcDbLine
 62
7
  6
CONTINUOUS
 10
23.4598499693
 20
8.0752717076
 11
23.529721022
 21
8.1451427603
  0
LINE
  5
3EA
100
AcDbEntity
  8
RACCORDO
100
AcDbLine
 62
253
  6
CONTINUOUS
 10
19.0647576672
 20
3.4707864933
 11
19.0955828969
 21
3.501611723
  0
LINE
  5
3EB
100
AcDbEntity
  8
RACCORDO
100
AcDbLine
 62
253
  6
CONTINUOUS
 10
19.3647882319
 20
3.1709084409
 11
19.3955372055
 21
3.2016574144
  0
LINE
  5
3EC
100
AcDbEntity
  8
RACCORDO
100
AcDbLine
 62
7
  6
CONTINUOUS
 10
22.2164680483
 20
-6.0369874347
 11
22.1689497217
 21
-5.9894691081
  0
LINE
  5
3ED
100
AcDbEntity
  8
RACCORDO
100
AcDbLine
 62
7
  6
CONTINUOUS
 10
23.4647544235
 20
-5.9946210307
 11
23.5122659571
 21
-6.0421325643
  0
LINE
  5
3EE
100
AcDbEntity
  8
0
100
AcDbLine
 62
7
  6
CONTINUOUS
 10
12.248715048
 20
-3.4395234345
 11
11.727155048
 21
-1.7396604345
  0
LINE
  5
3EF
100
AcDbEntity
  8
0
100
AcDbLine
 62
7
  6
CONTINUOUS
 10
12.6945444796
 20
-2.495894266
 11
12.6945444796
 21
-2.0292487835
  0
LINE
  5
3F0
100
AcDbEntity
  8
0
100
AcDbLine
 62
7
  6
CONTINUOUS
 10
12.706310044
 20
-3.4395231212
 11
12.706310044
 21
-2.7742907186
  0
LINE
  5
3F1
100
AcDbEntity
  8
0
100
AcDbLine
 62
7
  6
CONTINUOUS
 10
13.2651552308
 20
-2.6460422428
 11
13.2651552308
 21
-2.6359975357
  0
LINE
  5
3F2
100
AcDbEntity
  8
DRAFT
100
AcDbLine
 62
7
  6
CONTINUOUS
 10
23.5321954629
 20
-4.0527148494
 11
23.5192479831
 21
-4.0397673695
  0
LINE
  5
3F3
100
AcDbEntity
  8
DRAFT
100
AcDbLine
 62
7
  6
CONTINUOUS
 10
23.8321954621
 20
-4.0527148486
 11
23.7584026981
 21
-3.9789220845
  0
LINE
  5
3F4
100
AcDbEntity
  8
RACCORDO
100
AcDbLine
 62
7
  6
CONTINUOUS
 10
22.2164680483
 20
1.2225425658
 11
22.1654370828
 21
1.1715116003
  0
LINE
  5
3F5
100
AcDbEntity
  8
RACCORDO
100
AcDbLine
 62
7
  6
CONTINUOUS
 10
23.461234238
 20
1.1766559763
 11
23.5122659571
 21
1.2276876954
  0
LINE
  5
3F6
100
AcDbEntity
  8
DRAFT
100
AcDbLine
 62
7
  6
CONTINUOUS
 10
22.7541581129
 20
-1.5746774994
 11
22.8161908061
 21
-1.6367101925
  0
LINE
  5
3F7
100
AcDbEntity
  8
RACCORDO
100
AcDbLine
 62
7
  6
CONTINUOUS
 10
23.4620318192
 20
-0.8918984264
 11
23.5192479831
 21
-0.9491145903
  0
LINE
  5
3F8
100
AcDbEntity
  8
RACCORDO
100
AcDbLine
 62
7
  6
CONTINUOUS
 10
17.5024977935
 20
-7.4885042051
 11
17.5315579184
 21
-7.7820627856
  0
LINE
  5
3F9
100
AcDbEntity
  8
RACCORDO
100
AcDbLine
 62
253
  6
CONTINUOUS
 10
17.5315579184
 20
-7.7820627856
 11
17.5315579184
 21
-6.5020316134
  0
LINE
  5
3FA
100
AcDbEntity
  8
RACCORDO
100
AcDbLine
 62
253
  6
CONTINUOUS
 10
18.0718398589
 20
-6.172131315
 11
18.0418938691
 21
-6.2020773048
  0
LINE
  5
3FB
100
AcDbEntity
  8
RACCORDO
100
AcDbLine
 62
253
  6
CONTINUOUS
 10
18.3715984755
 20
-6.4722813155
 11
18.3418481776
 21
-6.5020316134
  0
LINE
  5
3FC
100
AcDbEntity
  8
RACCORDO
100
AcDbLine
 62
253
  6
CONTINUOUS
 10
19.5778688906
 20
3.2016574144
 11
19.6086178641
 21
3.1709084409
  0
LINE
  5
3FD
100
AcDbEntity
  8
RACCORDO
100
AcDbLine
 62
253
  6
CONTINUOUS
 10
19.8778231991
 20
3.501611723
 11
19.9086484288
 21
3.4707864933
  0
LINE
  5
3FE
100
AcDbEntity
  8
RACCORDO
100
AcDbLine
 62
7
  6
CONTINUOUS
 10
22.2164680483
 20
1.8630125653
 11
22.1651937742
 21
1.9142868394
  0
LINE
  5
3FF
100
AcDbEntity
  8
RACCORDO
100
AcDbLine
 62
253
  6
CONTINUOUS
 10
19.0979904893
 20
5.2270921406
 11
19.0856478945
 21
5.9341989218
  0
LINE
  5
400
100
AcDbEntity
  8
RACCORDO
100
AcDbLine
 62
253
  6
CONTINUOUS
 10
17.8315122269
 20
-7.8340376808
 11
17.8315122269
 21
-6.2020773048
  0
LINE
  5
401
100
AcDbEntity
  8
RACCORDO
100
AcDbLine
 62
253
  6
CONTINUOUS
 10
18.0418938691
 20
-6.2020773048
 11
18.0418938691
 21
-7.8340376808
  0
LINE
  5
402
100
AcDbEntity
  8
RACCORDO
100
AcDbLine
 62
253
  6
CONTINUOUS
 10
18.3418481776
 20
-6.5020316134
 11
18.3418481776
 21
-7.7820627856
  0
LINE
  5
403
100
AcDbEntity
  8
RACCORDO
100
AcDbLine
 62
253
  6
CONTINUOUS
 10
19.0815579184
 20
6.4998843467
 11
19.0815579184
 21
8.0876324359
  0
LINE
  5
404
100
AcDbEntity
  8
RACCORDO
100
AcDbLine
 62
253
  6
CONTINUOUS
 10
19.0990129833
 20
3.701581262
 11
19.0990129833
 21
5.0856707844
  0
LINE
  5
405
100
AcDbEntity
  8
RACCORDO
100
AcDbLine
 62
253
  6
CONTINUOUS
 10
19.3815122269
 20
6.4998958532
 11
19.3815122269
 21
8.0927775655
  0
LINE
  5
406
100
AcDbEntity
  8
RACCORDO
100
AcDbLine
 62
253
  6
CONTINUOUS
 10
19.3989672919
 20
3.701581262
 11
19.3989672919
 21
5.0856707844
  0
LINE
  5
407
100
AcDbEntity
  8
RACCORDO
100
AcDbLine
 62
253
  6
CONTINUOUS
 10
19.5878040963
 20
6.1463426085
 11
19.5754601579
 21
5.4391588472
  0
LINE
  5
408
100
AcDbEntity
  8
RACCORDO
100
AcDbLine
 62
7
  6
CONTINUOUS
 10
18.3667531419
 20
-7.5304786655
 11
18.3418481776
 21
-7.7820627856
  0
LINE
  5
409
100
AcDbEntity
  8
DRAFT
100
AcDbLine
 62
7
  6
CONTINUOUS
 10
23.536703048
 20
-1.5572224345
 11
23.5192479831
 21
-1.5746774994
  0
LINE
  5
40A
100
AcDbEntity
  8
DRAFT
100
AcDbLine
 62
7
  6
CONTINUOUS
 10
23.836703048
 20
-1.5572224345
 11
23.7572152899
 21
-1.6367101925
  0
LINE
  5
40B
100
AcDbEntity
  8
DRAFT
100
AcDbLine
 62
7
  6
CONTINUOUS
 10
22.7541581129
 20
-4.0397673695
 11
22.8150033979
 21
-3.9789220845
  0
LINE
  5
40C
100
AcDbEntity
  8
RACCORDO
100
AcDbLine
 62
7
  6
CONTINUOUS
 10
23.4609941305
 20
1.9091392623
 11
23.5122659571
 21
1.8578674357
  0
LINE
  5
40D
100
AcDbEntity
  8
RACCORDO
100
AcDbLine
 62
253
  6
CONTINUOUS
 10
19.3979459383
 20
5.4391588394
 11
19.3856020093
 21
6.1463420586
  0
LINE
  5
40E
100
AcDbEntity
  8
RACCORDO
100
AcDbLine
 62
253
  6
CONTINUOUS
 10
19.5744388041
 20
5.0856707844
 11
19.5744388041
 21
3.701581262
  0
LINE
  5
40F
100
AcDbEntity
  8
RACCORDO
100
AcDbLine
 62
253
  6
CONTINUOUS
 10
19.5918938691
 20
8.0927775655
 11
19.5918938691
 21
6.4998955228
  0
LINE
  5
410
100
AcDbEntity
  8
RACCORDO
100
AcDbLine
 62
253
  6
CONTINUOUS
 10
19.8743931127
 20
5.0856707844
 11
19.8743931127
 21
3.701581262
  0
LINE
  5
411
100
AcDbEntity
  8
RACCORDO
100
AcDbLine
 62
253
  6
CONTINUOUS
 10
19.8918481776
 20
8.0876324359
 11
19.8918481776
 21
6.4998843467
  0
LINE
  5
412
100
AcDbEntity
  8
DRAFT
100
AcDbLine
 62
7
  6
CONTINUOUS
 10
20.886703048
 20
9.2334303448
 11
20.886703048
 21
8.0927775655
  0
LINE
  5
413
100
AcDbEntity
  8
DRAFT
100
AcDbLine
 62
7
  6
CONTINUOUS
 10
21.1491690386
 20
9.2857955396
 11
21.1491690386
 21
8.1451427603
  0
LINE
  5
414
100
AcDbEntity
  8
RACCORDO
100
AcDbLine
 62
253
  6
CONTINUOUS
 10
19.8877582015
 20
5.9341989218
 11
19.8754156067
 21
5.2270921406
  0
LINE
  5
415
100
AcDbEntity
  8
RACCORDO
100
AcDbLine
 62
7
  6
CONTINUOUS
 10
23.4639739622
 20
-4.7206042995
 11
23.5192479831
 21
-4.6653302786
  0
LINE
  5
416
100
AcDbEntity
  8
RACCORDO
100
AcDbLine
 62
7
  6
CONTINUOUS
 10
22.2164680483
 20
-6.6774574342
 11
22.1694299999
 21
-6.7244954826
  0
LINE
  5
417
100
AcDbEntity
  8
RACCORDO
100
AcDbLine
 62
7
  6
CONTINUOUS
 10
19.8918481776
 20
8.0876324359
 11
19.9093537639
 21
8.0701268496
  0
LINE
  5
418
100
AcDbEntity
  8
RACCORDO
100
AcDbLine
 62
253
  6
CONTINUOUS
 10
23.165624412
 20
-7.5304786655
 11
23.2236026097
 21
-8.1161608499
  0
LINE
  5
419
100
AcDbEntity
  8
RACCORDO
100
AcDbLine
 62
253
  6
CONTINUOUS
 10
23.4655787206
 20
-7.2350363407
 11
23.5227389961
 21
-7.8124560654
  0
LINE
  5
41A
100
AcDbEntity
  8
DRAFT
100
AcDbLine
 62
7
  6
CONTINUOUS
 10
21.686703048
 20
-4.6792943306
 11
21.686703048
 21
-0.9351505383
  0
LINE
  5
41B
100
AcDbEntity
  8
RACCORDO
100
AcDbLine
 62
253
  6
CONTINUOUS
 10
22.2164680483
 20
1.8630125653
 11
22.2164680483
 21
1.2225425658
  0
LINE
  5
41C
100
AcDbEntity
  8
RACCORDO
100
AcDbLine
 62
253
  6
CONTINUOUS
 10
22.2164680483
 20
-6.0369874347
 11
22.2164680483
 21
-6.6774574342
  0
LINE
  5
41D
100
AcDbEntity
  8
DRAFT
100
AcDbLine
 62
7
  6
CONTINUOUS
 10
22.236703048
 20
-0.8867495193
 11
22.236703048
 21
-0.9233239874
  0
LINE
  5
41E
100
AcDbEntity
  8
DRAFT
100
AcDbLine
 62
7
  6
CONTINUOUS
 10
22.236703048
 20
-4.6911208815
 11
22.236703048
 21
-4.7257493652
  0
LINE
  5
41F
100
AcDbEntity
  8
DRAFT
100
AcDbLine
 62
7
  6
CONTINUOUS
 10
22.486703048
 20
-4.6653302786
 11
22.486703048
 21
-0.9491145903
  0
LINE
  5
420
100
AcDbEntity
  8
RACCORDO
100
AcDbLine
 62
253
  6
CONTINUOUS
 10
22.5164223568
 20
1.8578674357
 11
22.5164223568
 21
1.2276876954
  0
LINE
  5
421
100
AcDbEntity
  8
RACCORDO
100
AcDbLine
 62
253
  6
CONTINUOUS
 10
22.5164223568
 20
-6.0421325643
 11
22.5164223568
 21
-6.6723123046
  0
LINE
  5
422
100
AcDbEntity
  8
DRAFT
100
AcDbLine
 62
7
  6
CONTINUOUS
 10
22.7541581129
 20
-1.5746774994
 11
22.7541581129
 21
-4.0397673695
  0
LINE
  5
423
100
AcDbEntity
  8
RACCORDO
100
AcDbLine
 62
7
  6
CONTINUOUS
 10
23.4652283093
 20
-6.7193499524
 11
23.5122659571
 21
-6.6723123046
  0
LINE
  5
424
100
AcDbEntity
  8
RACCORDO
100
AcDbLine
 62
7
  6
CONTINUOUS
 10
23.536703048
 20
8.0334303448
 11
23.5348661516
 21
8.0352672411
  0
LINE
  5
425
100
AcDbEntity
  8
RACCORDO
100
AcDbLine
 62
253
  6
CONTINUOUS
 10
23.165269763
 20
-6.7244954827
 11
23.1656244121
 21
-7.2468888293
  0
LINE
  5
426
100
AcDbEntity
  8
RACCORDO
100
AcDbLine
 62
253
  6
CONTINUOUS
 10
23.1640167682
 20
-4.7257493655
 11
23.1647898249
 21
-5.9894691087
  0
LINE
  5
427
100
AcDbEntity
  8
RACCORDO
100
AcDbLine
 62
253
  6
CONTINUOUS
 10
23.1612796731
 20
1.1715116004
 11
23.1620721616
 21
-0.8867495191
  0
LINE
  5
428
100
AcDbEntity
  8
RACCORDO
100
AcDbLine
 62
253
  6
CONTINUOUS
 10
23.1598959029
 20
8.0701268496
 11
23.1610365368
 21
1.9142868395
  0
LINE
  5
429
100
AcDbEntity
  8
DRAFT
100
AcDbLine
 62
7
  6
CONTINUOUS
 10
23.5122659571
 20
1.8578674357
 11
23.5122659571
 21
1.2276876954
  0
LINE
  5
42A
100
AcDbEntity
  8
DRAFT
100
AcDbLine
 62
7
  6
CONTINUOUS
 10
23.5122659571
 20
-6.0421325643
 11
23.5122659571
 21
-6.6723123046
  0
LINE
  5
42B
100
AcDbEntity
  8
DRAFT
100
AcDbLine
 62
7
  6
CONTINUOUS
 10
23.5192479831
 20
-0.9491145903
 11
23.5192479831
 21
-1.5746774994
  0
LINE
  5
42C
100
AcDbEntity
  8
DRAFT
100
AcDbLine
 62
7
  6
CONTINUOUS
 10
23.5192479831
 20
-4.0397673695
 11
23.5192479831
 21
-4.6653302786
  0
LINE
  5
42D
100
AcDbEntity
  8
RACCORDO
100
AcDbLine
 62
7
  6
CONTINUOUS
 10
23.5227389961
 20
-7.8124560654
 11
23.5227389961
 21
-9.2002441391
  0
LINE
  5
42E
100
AcDbEntity
  8
RACCORDO
100
AcDbLine
 62
7
  6
CONTINUOUS
 10
23.529721022
 20
8.3352215497
 11
23.529721022
 21
8.1451427603
  0
LINE
  5
42F
100
AcDbEntity
  8
DRAFT
100
AcDbLine
 62
7
  6
CONTINUOUS
 10
23.536703048
 20
8.0334303448
 11
23.536703048
 21
-1.5572224345
  0
LINE
  5
430
100
AcDbEntity
  8
RACCORDO
100
AcDbLine
 62
7
  6
CONTINUOUS
 10
24.629721022
 20
9.0358336158
 11
24.629721022
 21
8.3352215497
  0
LINE
  5
431
100
AcDbEntity
  8
DRAFT
100
AcDbLine
 62
7
  6
CONTINUOUS
 10
24.636703048
 20
8.0334303448
 11
24.636703048
 21
-1.5957308711
  0
LINE
  5
432
100
AcDbEntity
  8
DRAFT
100
AcDbLine
 62
7
  6
CONTINUOUS
 10
23.5321954629
 20
-4.0527148494
 11
23.5227408286
 21
-9.2052238122
  0
LINE
  5
433
100
AcDbEntity
  8
DRAFT
100
AcDbLine
 62
7
  6
CONTINUOUS
 10
23.836703048
 20
-1.5572224345
 11
23.8321954621
 21
-4.0527148486
  0
LINE
  5
434
100
AcDbEntity
  8
RACCORDO
100
AcDbLine
 62
7
  6
CONTINUOUS
 10
24.6232099703
 20
-8.950504966
 11
24.636703048
 21
-1.5957308711
  0
LINE
  5
435
100
AcDbEntity
  8
RACCORDO
100
AcDbLine
 62
7
  6
CONTINUOUS
 10
24.636703048
 20
8.0334303448
 11
24.6348661516
 21
8.0352672411
  0
ARC
  5
436
100
AcDbEntity
  8
RACCORDO
100
AcDbCircle
 62
253
  6
CONTINUOUS
 10
76.393909367
 20
5.0996122357
 40
56.8194743415
100
AcDbArc
 50
179.6576049437
 51
180.0140583201
  0
ARC
  5
437
100
AcDbEntity
  8
RACCORDO
100
AcDbCircle
 62
253
  6
CONTINUOUS
 10
37.093909367
 20
5.0996122356
 40
56.8194743415
100
AcDbArc
 50
179.6576049437
 51
180.0140583201
  0
ARC
  5
438
100
AcDbEntity
  8
RACCORDO
100
AcDbCircle
 62
253
  6
CONTINUOUS
 10
-31.3091807784
 20
5.1169946972
 40
50.7081457223
100
AcDbArc
 50
359.9646067181
 51
0.3640197822
  0
ARC
  5
439
100
AcDbEntity
  8
RACCORDO
100
AcDbCircle
 62
253
  6
CONTINUOUS
 10
-70.6091807776
 20
5.1169946971
 40
50.7081457215
100
AcDbArc
 50
359.9646067182
 51
0.3640197823
  0
CIRCLE
  5
43A
100
AcDbEntity
  8
0
100
AcDbCircle
 62
7
  6
CONTINUOUS
 10
-0.163296952
 20
4.8927775655
 40
1.1
  0
CIRCLE
  5
43B
100
AcDbEntity
  8
0
100
AcDbCircle
 62
7
  6
CONTINUOUS
 10
-0.163296952
 20
4.8927775655
 40
0.9
  0
ARC
  5
43C
100
AcDbEntity
  8
RACCORDO
100
AcDbCircle
 62
253
  6
CONTINUOUS
 10
-19.7222408698
 20
3.5017214834
 40
0.3000646364
100
AcDbArc
 50
270.0209582141
 51
359.9790417859
  0
ARC
  5
43D
100
AcDbEntity
  8
RACCORDO
100
AcDbCircle
 62
253
  6
CONTINUOUS
 10
19.5777591302
 20
3.5017214834
 40
0.3000646364
100
AcDbArc
 50
270.0209582141
 51
359.9790417859
  0
ARC
  5
43E
100
AcDbEntity
  8
RACCORDO
100
AcDbCircle
 62
253
  6
CONTINUOUS
 10
-19.9043530404
 20
3.5017214773
 40
0.3000646302
100
AcDbArc
 50
180.0209570569
 51
269.9790429984
  0
ARC
  5
43F
100
AcDbEntity
  8
RACCORDO
100
AcDbCircle
 62
253
  6
CONTINUOUS
 10
19.3956469596
 20
3.5017214773
 40
0.3000646302
100
AcDbArc
 50
180.0209570569
 51
269.9790429984
  0
ARC
  5
440
100
AcDbEntity
  8
RACCORDO
100
AcDbCircle
 62
253
  6
CONTINUOUS
 10
-18.1582150932
 20
-6.5021405753
 40
0.3000637852
100
AcDbArc
 50
0.0208058113
 51
89.9791941349
  0
ARC
  5
441
100
AcDbEntity
  8
RACCORDO
100
AcDbCircle
 62
253
  6
CONTINUOUS
 10
-18.3683788108
 20
-6.5021405753
 40
0.3000637852
100
AcDbArc
 50
90.0208058651
 51
179.9791941887
  0
ARC
  5
442
100
AcDbEntity
  8
RACCORDO
100
AcDbCircle
 62
253
  6
CONTINUOUS
 10
-6.9582150932
 20
-6.5021405753
 40
0.3000637852
100
AcDbArc
 50
0.0208058113
 51
89.9791941349
  0
ARC
  5
443
100
AcDbEntity
  8
RACCORDO
100
AcDbCircle
 62
253
  6
CONTINUOUS
 10
-7.1683788108
 20
-6.5021405753
 40
0.3000637852
100
AcDbArc
 50
90.0208058651
 51
179.9791941887
  0
ARC
  5
444
100
AcDbEntity
  8
RACCORDO
100
AcDbCircle
 62
253
  6
CONTINUOUS
 10
6.6316211892
 20
-6.5021405753
 40
0.3000637852
100
AcDbArc
 50
90.0208058651
 51
179.9791941887
  0
ARC
  5
445
100
AcDbEntity
  8
RACCORDO
100
AcDbCircle
 62
253
  6
CONTINUOUS
 10
6.8417849068
 20
-6.5021405753
 40
0.3000637852
100
AcDbArc
 50
0.0208058113
 51
89.9791941349
  0
ARC
  5
446
100
AcDbEntity
  8
RACCORDO
100
AcDbCircle
 62
253
  6
CONTINUOUS
 10
18.0417849068
 20
-6.5021405753
 40
0.3000637852
100
AcDbArc
 50
0.0208058113
 51
89.9791941349
  0
ARC
  5
447
100
AcDbEntity
  8
RACCORDO
100
AcDbCircle
 62
253
  6
CONTINUOUS
 10
17.8316211892
 20
-6.5021405753
 40
0.3000637852
100
AcDbArc
 50
90.0208058651
 51
179.9791941887
  0
ARC
  5
448
100
AcDbEntity
  8
RACCORDO
100
AcDbCircle
 62
7
  6
CONTINUOUS
 10
-19.6913364682
 20
3.4709001654
 40
0.2999882567
100
AcDbArc
 50
269.9912778693
 51
359.9782891326
  0
ARC
  5
449
100
AcDbEntity
  8
RACCORDO
100
AcDbCircle
 62
7
  6
CONTINUOUS
 10
-19.9352574305
 20
3.4709001601
 40
0.2999882567
100
AcDbArc
 50
180.0217098438
 51
270.0087211098
  0
ARC
  5
44A
100
AcDbEntity
  8
RACCORDO
100
AcDbCircle
 62
7
  6
CONTINUOUS
 10
19.3647425695
 20
3.4709001601
 40
0.2999882567
100
AcDbArc
 50
180.0217098416
 51
270.0087211121
  0
ARC
  5
44B
100
AcDbEntity
  8
RACCORDO
100
AcDbCircle
 62
7
  6
CONTINUOUS
 10
19.6086635318
 20
3.4709001654
 40
0.2999882567
100
AcDbArc
 50
269.9912778686
 51
359.9782891333
  0
ARC
  5
44C
100
AcDbEntity
  8
RACCORDO
100
AcDbCircle
 62
7
  6
CONTINUOUS
 10
-18.1282107809
 20
-6.4719240242
 40
0.2997999466
100
AcDbArc
 50
359.9317190115
 51
89.9903218328
  0
ARC
  5
44D
100
AcDbEntity
  8
RACCORDO
100
AcDbCircle
 62
7
  6
CONTINUOUS
 10
-18.3983831239
 20
-6.4719240243
 40
0.2997999466
100
AcDbArc
 50
90.0096780219
 51
180.0682809743
  0
ARC
  5
44E
100
AcDbEntity
  8
RACCORDO
100
AcDbCircle
 62
7
  6
CONTINUOUS
 10
-6.9282107808
 20
-6.4719240242
 40
0.2997999466
100
AcDbArc
 50
359.9317190043
 51
89.99032184
  0
ARC
  5
44F
100
AcDbEntity
  8
RACCORDO
100
AcDbCircle
 62
7
  6
CONTINUOUS
 10
-7.1983831239
 20
-6.4719240243
 40
0.2997999466
100
AcDbArc
 50
90.009678022
 51
180.0682809743
  0
ARC
  5
450
100
AcDbEntity
  8
RACCORDO
100
AcDbCircle
 62
7
  6
CONTINUOUS
 10
6.6016168761
 20
-6.4719240243
 40
0.2997999466
100
AcDbArc
 50
90.0096780222
 51
180.068280974
  0
ARC
  5
451
100
AcDbEntity
  8
RACCORDO
100
AcDbCircle
 62
7
  6
CONTINUOUS
 10
6.8717892192
 20
-6.4719240242
 40
0.2997999466
100
AcDbArc
 50
359.9317190079
 51
89.9903218364
  0
ARC
  5
452
100
AcDbEntity
  8
RACCORDO
100
AcDbCircle
 62
7
  6
CONTINUOUS
 10
18.0717892192
 20
-6.4719240242
 40
0.2997999466
100
AcDbArc
 50
359.9317190043
 51
89.99032184
  0
ARC
  5
453
100
AcDbEntity
  8
RACCORDO
100
AcDbCircle
 62
7
  6
CONTINUOUS
 10
17.8016168761
 20
-6.4719240243
 40
0.2997999466
100
AcDbArc
 50
90.0096780219
 51
180.0682809744
  0
SPLINE
  5
454
100
AcDbEntity
  8
0
100
AcDbSpline
 62
7
  6
CONTINUOUS
 70
0
 71
3
 72
9
 73
5
 74
3
 42
0.0000001
 43
0.0000001
 44
0.0000000001
 12
-0.0046820729
 22
0.3133621937
 32
0.0
 13
-0.3113313703
 23
0.0361338596
 33
0.0
 40
0.0
 40
0.0
 40
0.0
 40
0.0
 40
0.4988583766
 40
1.0
 40
1.0
 40
1.0
 40
1.0
 10
13.1729576659
 20
-2.2318762291
 30
0.0
 10
13.1721791022
 20
-2.179768444
 30
0.0
 10
13.129754556
 20
-2.0710944782
 30
0.0
 10
13.0245183054
 20
-2.0252773321
 30
0.0
 10
12.9725112692
 20
-2.0192412718
 30
0.0
 11
13.1729576659
 21
-2.2318762291
 31
0.0
 11
13.114220121
 21
-2.0869851357
 31
0.0
 11
12.9725112692
 21
-2.0192412718
 31
0.0
  0
SPLINE
  5
455
100
AcDbEntity
  8
0
100
AcDbSpline
 62
7
  6
CONTINUOUS
 70
0
 71
3
 72
9
 73
5
 74
3
 42
0.0000001
 43
0.0000001
 44
0.0000000001
 12
-0.2768734096
 22
0.0321345862
 32
0.0
 13
-0.2747605685
 23
-0.046883616
 33
0.0
 40
0.0
 40
0.0
 40
0.0
 40
0.0
 40
0.7295958319
 40
1.0
 40
1.0
 40
1.0
 40
1.0
 10
12.9725112692
 20
-2.0192412719
 30
0.0
 10
12.9051760407
 20
-2.0114261852
 30
0.0
 10
12.8111833522
 20
-2.0111249373
 30
0.0
 10
12.7193099473
 20
-2.0250229417
 30
0.0
 10
12.6945444796
 20
-2.0292487835
 30
0.0
 11
12.9725112692
 21
-2.0192412719
 31
0.0
 11
12.7691508092
 21
-2.0185450119
 31
0.0
 11
12.6945444796
 21
-2.0292487835
 31
0.0
  0
SPLINE
  5
456
100
AcDbEntity
  8
0
100
AcDbSpline
 62
7
  6
CONTINUOUS
 70
0
 71
3
 72
9
 73
5
 74
3
 42
0.0000001
 43
0.0000001
 44
0.0000000001
 12
0.4232572624
 22
0.0094537593
 32
0.0
 13
-0.0063259437
 23
0.4233860928
 33
0.0
 40
0.0
 40
0.0
 40
0.0
 40
0.0
 40
0.4795375616
 40
1.0
 40
1.0
 40
1.0
 40
1.0
 10
12.8973251925
 20
-2.495894266
 30
0.0
 10
12.964981111
 20
-2.4943831217
 30
0.0
 10
13.1221231816
 20
-2.4657613512
 30
0.0
 10
13.1740551232
 20
-2.3053284154
 30
0.0
 10
13.1729576512
 20
-2.2318762293
 30
0.0
 11
12.8973251925
 21
-2.495894266
 31
0.0
 11
13.0914984325
 21
-2.4366218893
 31
0.0
 11
13.1729576512
 21
-2.2318762293
 31
0.0
  0
SPLINE
  5
457
100
AcDbEntity
  8
0
100
AcDbSpline
 62
7
  6
CONTINUOUS
 70
0
 71
3
 72
17
 73
13
 74
11
 42
0.0000001
 43
0.0000001
 44
0.0000000001
 12
0.9958819045
 22
-0.3598342768
 32
0.0
 13
-1.050193894
 23
-0.1355088895
 33
0.0
 40
0.0
 40
0.0
 40
0.0
 40
0.0
 40
0.0798430187
 40
0.1895551228
 40
0.3223119562
 40
0.398530744
 40
0.483321362
 40
0.5876727129
 40
0.6789531193
 40
0.8312245932
 40
0.9440148167
 40
1.0
 40
1.0
 40
1.0
 40
1.0
 10
13.2286971946
 20
-1.7774627987
 30
0.0
 10
13.2552019338
 20
-1.7870395503
 30
0.0
 10
13.3144485233
 20
-1.8197272602
 30
0.0
 10
13.4006495912
 20
-1.8955200998
 30
0.0
 10
13.4617258554
 20
-1.9924767089
 30
0.0
 10
13.4942442844
 20
-2.0914098237
 30
0.0
 10
13.5076613783
 20
-2.1845165074
 30
0.0
 10
13.505115494
 20
-2.2842033301
 30
0.0
 10
13.478016626
 20
-2.4043109564
 30
0.0
 10
13.4171855105
 20
-2.5194418927
 30
0.0
 10
13.3345703447
 20
-2.5942340644
 30
0.0
 10
13.2847536633
 20
-2.6334687057
 30
0.0
 10
13.2651552308
 20
-2.6359975357
 30
0.0
 11
13.2286971946
 21
-1.7774627987
 31
0.0
 11
13.303595675
 21
-1.8166854755
 31
0.0
 11
13.3907236307
 21
-1.8935305128
 31
0.0
 11
13.4657338837
 21
-2.0124218276
 31
0.0
 11
13.4911257889
 21
-2.0890315416
 31
0.0
 11
13.504405369
 21
-2.1778288683
 31
0.0
 11
13.5011665624
 21
-2.2882790697
 31
0.0
 11
13.4795919627
 21
-2.3824973455
 31
0.0
 11
13.4028684211
 21
-2.5243139038
 31
0.0
 11
13.3171008189
 21
-2.6074301112
 31
0.0
 11
13.2651552308
 21
-2.6359975357
 31
0.0
  0
SPLINE
  5
458
100
AcDbEntity
  8
0
100
AcDbSpline
 62
7
  6
CONTINUOUS
 70
0
 71
3
 72
8
 73
4
 74
2
 42
0.0000001
 43
0.0000001
 44
0.0000000001
 12
0.0689677806
 22
-0.0275009025
 32
0.0
 13
0.0553934089
 23
-0.0495283964
 33
0.0
 40
0.0
 40
0.0
 40
0.0
 40
0.0
 40
1.0
 40
1.0
 40
1.0
 40
1.0
 10
13.2651552308
 20
-2.6460422428
 30
0.0
 10
13.288144491
 20
-2.6552092103
 30
0.0
 10
13.3087455979
 20
-2.6686460761
 30
0.0
 10
13.3272100676
 20
-2.6851555415
 30
0.0
 11
13.2651552308
 21
-2.6460422428
 31
0.0
 11
13.3272100676
 21
-2.6851555415
 31
0.0
  0
SPLINE
  5
459
100
AcDbEntity
  8
0
100
AcDbSpline
 62
7
  6
CONTINUOUS
 70
0
 71
3
 72
9
 73
5
 74
3
 42
0.0000001
 43
0.0000001
 44
0.0000000001
 12
0.2399260035
 22
-0.2145228187
 32
0.0
 13
0.0845359266
 23
-0.3102902278
 33
0.0
 40
0.0
 40
0.0
 40
0.0
 40
0.0
 40
0.7012282199
 40
1.0
 40
1.0
 40
1.0
 40
1.0
 10
13.3272100676
 20
-2.6851555415
 30
0.0
 10
13.383291029
 20
-2.735298693
 30
0.0
 10
13.4351584473
 20
-2.8472269996
 30
0.0
 10
13.4612732293
 20
-2.948576805
 30
0.0
 10
13.4696922124
 20
-2.9794787929
 30
0.0
 11
13.3272100676
 21
-2.6851555415
 31
0.0
 11
13.4433697113
 21
-2.8870715961
 31
0.0
 11
13.4696922124
 21
-2.9794787929
 31
0.0
  0
SPLINE
  5
45A
100
AcDbEntity
  8
0
100
AcDbSpline
 62
7
  6
CONTINUOUS
 70
0
 71
3
 72
9
 73
5
 74
3
 42
0.0000001
 43
0.0000001
 44
0.0000000001
 12
0.1250599769
 22
-0.4590343077
 32
0.0
 13
0.1246990825
 23
-0.4591324849
 33
0.0
 40
0.0
 40
0.0
 40
0.0
 40
0.0
 40
0.8019701246
 40
1.0
 40
1.0
 40
1.0
 40
1.0
 10
13.4696922126
 20
-2.9794787928
 30
0.0
 10
13.5031236677
 20
-3.1021893932
 30
0.0
 10
13.5424664971
 20
-3.2558276403
 30
0.0
 10
13.5827522252
 20
-3.4092158049
 30
0.0
 10
13.5909836065
 20
-3.4395231212
 30
0.0
 11
13.4696922126
 21
-2.9794787928
 31
0.0
 11
13.5668336463
 21
-3.3484551195
 31
0.0
 11
13.5909836065
 21
-3.4395231212
 31
0.0
  0
SPLINE
  5
45B
100
AcDbEntity
  8
0
100
AcDbSpline
 62
7
  6
CONTINUOUS
 70
0
 71
3
 72
9
 73
5
 74
3
 42
0.0000001
 43
0.0000001
 44
0.0000000001
 12
-0.1487666252
 22
0.5174419044
 32
0.0
 13
-0.1893777802
 23
0.5039985871
 33
0.0
 40
0.0
 40
0.0
 40
0.0
 40
0.0
 40
0.4413080349
 40
1.0
 40
1.0
 40
1.0
 40
1.0
 10
13.2496802631
 20
-3.4395231212
 30
0.0
 10
13.2277962941
 20
-3.3634060312
 30
0.0
 10
13.1761271004
 20
-3.1916324588
 30
0.0
 10
13.1297603608
 20
-3.0178484593
 30
0.0
 10
13.0944924128
 20
-2.9239884723
 30
0.0
 11
13.2496802631
 21
-3.4395231212
 31
0.0
 11
13.1832249011
 21
-3.2114043795
 31
0.0
 11
13.0944924128
 21
-2.9239884723
 31
0.0
  0
SPLINE
  5
45C
100
AcDbEntity
  8
0
100
AcDbSpline
 62
7
  6
CONTINUOUS
 70
0
 71
3
 72
9
 73
5
 74
3
 42
0.0000001
 43
0.0000001
 44
0.0000000001
 12
-0.0895737501
 22
0.2383859055
 32
0.0
 13
-0.2546300208
 23
0.0
 33
0.0
 40
0.0
 40
0.0
 40
0.0
 40
0.0
 40
0.8563651185
 40
1.0
 40
1.0
 40
1.0
 40
1.0
 10
13.0944924268
 20
-2.923988467
 30
0.0
 10
13.0689231484
 20
-2.8559400089
 30
0.0
 10
12.993874183
 20
-2.780308246
 30
0.0
 10
12.908751618
 20
-2.7742907186
 30
0.0
 10
12.896560367
 20
-2.7742907186
 30
0.0
 11
13.0944924268
 21
-2.923988467
 31
0.0
 11
12.9329969289
 21
-2.7774555821
 31
0.0
 11
12.896560367
 21
-2.7742907186
 31
0.0
  0
SPLINE
  5
45D
100
AcDbEntity
  8
0
100
AcDbSpline
 62
7
  6
CONTINUOUS
 70
0
 71
3
 72
9
 73
5
 74
3
 42
0.0000001
 43
0.0000001
 44
0.0000000001
 12
0.870352019
 22
0.1280436023
 32
0.0
 13
0.8273203445
 23
-0.2990739652
 33
0.0
 40
0.0
 40
0.0
 40
0.0
 40
0.0
 40
0.8916594654
 40
1.0
 40
1.0
 40
1.0
 40
1.0
 10
12.3529097119
 20
-1.7595203523
 30
0.0
 10
12.6115955839
 20
-1.7214632556
 30
0.0
 10
12.9159200381
 20
-1.6859696177
 30
0.0
 10
13.1988197362
 20
-1.766662226
 30
0.0
 10
13.228697179
 20
-1.7774628371
 30
0.0
 11
12.3529097119
 21
-1.7595203523
 31
0.0
 11
13.1372692504
 21
-1.7505414214
 31
0.0
 11
13.228697179
 21
-1.7774628371
 31
0.0
  0
SPLINE
  5
45E
100
AcDbEntity
  8
RACCORDO
100
AcDbSpline
 62
7
  6
CONTINUOUS
 70
0
 71
3
 72
10
 73
6
 74
4
 42
0.0000001
 43
0.0000001
 44
0.0000000001
 12
-0.1883406519
 22
0.1821745431
 32
0.0
 13
-0.1853866352
 23
0.1851798068
 33
0.0
 40
0.0
 40
0.0
 40
0.0
 40
0.0
 40
0.2866167254
 40
0.6201205121
 40
1.0
 40
1.0
 40
1.0
 40
1.0
 10
23.3522982329
 20
-7.4307676738
 30
0.0
 10
23.3343043726
 20
-7.4133629168
 30
0.0
 10
23.2955133661
 20
-7.3755611007
 30
0.0
 10
23.2332838874
 20
-7.3142715847
 30
0.0
 10
23.189099272
 20
-7.2703374938
 30
0.0
 10
23.165624412
 20
-7.2468888238
 30
0.0
 11
23.3522982329
 21
-7.4307676738
 31
0.0
 11
23.2984893261
 21
-7.3783754728
 31
0.0
 11
23.2362154686
 21
-7.3170677761
 31
0.0
 11
23.165624412
 21
-7.2468888238
 31
0.0
  0
SPLINE
  5
45F
100
AcDbEntity
  8
RACCORDO
100
AcDbSpline
 62
7
  6
CONTINUOUS
 70
0
 71
3
 72
10
 73
6
 74
4
 42
0.0000001
 43
0.0000001
 44
0.0000000001
 12
0.1932247375
 22
0.1319117349
 32
0.0
 13
0.0047953966
 23
0.23390919
 33
0.0
 40
0.0
 40
0.0
 40
0.0
 40
0.0
 40
0.3373558539
 40
0.6687258877
 40
1.0
 40
1.0
 40
1.0
 40
1.0
 10
23.3522982329
 20
-7.4307676738
 30
0.0
 10
23.3740267317
 20
-7.4159339418
 30
0.0
 10
23.4134090138
 20
-7.380527554
 30
0.0
 10
23.4543887541
 20
-7.3127727535
 30
0.0
 10
23.4650491903
 20
-7.2608656933
 30
0.0
 10
23.4655787206
 20
-7.2350363402
 30
0.0
 11
23.3522982329
 21
-7.4307676738
 31
0.0
 11
23.4107131623
 21
-7.3776903586
 31
0.0
 11
23.4502678538
 21
-7.3110133124
 31
0.0
 11
23.4655787206
 21
-7.2350363402
 31
0.0
  0
SPLINE
  5
460
100
AcDbEntity
  8
RACCORDO
100
AcDbSpline
 62
7
  6
CONTINUOUS
 70
0
 71
3
 72
10
 73
6
 74
4
 42
0.0000001
 43
0.0000001
 44
0.0000000001
 12
0.2111537282
 22
0.0378702165
 32
0.0
 13
0.151821365
 23
0.1515596362
 33
0.0
 40
0.0
 40
0.0
 40
0.0
 40
0.0
 40
0.3429101549
 40
0.6755847515
 40
1.0
 40
1.0
 40
1.0
 40
1.0
 10
23.165624412
 20
-7.5304786655
 30
0.0
 10
23.1897599978
 20
-7.5261499715
 30
0.0
 10
23.236491548
 20
-7.5121045613
 30
0.0
 10
23.299457692
 20
-7.4773367029
 30
0.0
 10
23.335880511
 20
-7.4471570928
 30
0.0
 10
23.3522982329
 20
-7.4307676738
 30
0.0
 11
23.165624412
 21
-7.5304786655
 31
0.0
 11
23.2361194154
 21
-7.5094588804
 31
0.0
 11
23.2987085372
 21
-7.4751696599
 31
0.0
 11
23.3522982329
 21
-7.4307676738
 31
0.0
  0
SPLINE
  5
461
100
AcDbEntity
  8
RACCORDO
100
AcDbSpline
 62
7
  6
CONTINUOUS
 70
0
 71
3
 72
13
 73
9
 74
7
 42
0.0000001
 43
0.0000001
 44
0.0000000001
 12
-0.4360540282
 22
-0.0003592369
 32
0.0
 13
-0.0089035972
 23
0.4359632674
 33
0.0
 40
0.0
 40
0.0
 40
0.0
 40
0.0
 40
0.1762313956
 40
0.3431225387
 40
0.5099732983
 40
0.6748732839
 40
0.8372164229
 40
1.0
 40
1.0
 40
1.0
 40
1.0
 10
-23.4880560607
 20
-7.4884325373
 30
0.0
 10
-23.5136715307
 20
-7.4884536402
 30
0.0
 10
-23.5637177641
 20
-7.4828961295
 30
0.0
 10
-23.6344793709
 20
-7.4591214447
 30
0.0
 10
-23.6969956782
 20
-7.4211521999
 30
0.0
 10
-23.7480125506
 20
-7.3694354452
 30
0.0
 10
-23.7827235137
 20
-7.3061110459
 30
0.0
 10
-23.7916895048
 20
-7.2586922269
 30
0.0
 10
-23.7921726246
 20
-7.2350363402
 30
0.0
 11
-23.4880560607
 21
-7.4884325373
 31
0.0
 11
-23.5644374588
 21
-7.4799911655
 31
0.0
 11
-23.6333681407
 21
-7.4566554627
 31
0.0
 11
-23.6953840526
 21
-7.4186099908
 31
0.0
 11
-23.7455827596
 21
-7.367127315
 31
0.0
 11
-23.7791857581
 21
-7.304820656
 31
0.0
 11
-23.7921726246
 21
-7.2350363402
 31
0.0
  0
SPLINE
  5
462
100
AcDbEntity
  8
RACCORDO
100
AcDbSpline
 62
253
  6
CONTINUOUS
 70
0
 71
3
 72
11
 73
7
 74
5
 42
0.0000001
 43
0.0000001
 44
0.0000000001
 12
-0.0069988224
 22
0.4010844298
 32
0.0
 13
-0.4011302123
 23
0.0035008769
 33
0.0
 40
0.0
 40
0.0
 40
0.0
 40
0.0
 40
0.2095153874
 40
0.4453794694
 40
0.7128570698
 40
1.0
 40
1.0
 40
1.0
 40
1.0
 10
-19.4122417985
 20
5.9341989218
 30
0.0
 10
-19.4127305855
 20
5.9622100417
 30
0.0
 10
-19.4318260778
 20
6.0220772738
 30
0.0
 10
-19.5016729675
 20
6.0907316933
 30
0.0
 10
-19.5992783538
 20
6.1353560676
 30
0.0
 10
-19.6738022055
 20
6.1459958721
 30
0.0
 10
-19.712196107
 20
6.1463309561
 30
0.0
 11
-19.4122417985
 21
5.9341989218
 31
0.0
 11
-19.4361277406
 21
6.0147794252
 31
0.0
 11
-19.5013931228
 21
6.0832818475
 31
0.0
 11
-19.5982554226
 21
6.1294384717
 31
0.0
 11
-19.712196107
 21
6.1463309561
 31
0.0
  0
SPLINE
  5
463
100
AcDbEntity
  8
RACCORDO
100
AcDbSpline
 62
253
  6
CONTINUOUS
 70
0
 71
3
 72
11
 73
7
 74
5
 42
0.0000001
 43
0.0000001
 44
0.0000000001
 12
-0.0069988137
 22
0.401084489
 32
0.0
 13
-0.401130273
 23
0.0035006841
 33
0.0
 40
0.0
 40
0.0
 40
0.0
 40
0.0
 40
0.2095120489
 40
0.4453745127
 40
0.7128531963
 40
1.0
 40
1.0
 40
1.0
 40
1.0
 10
-19.4245843933
 20
5.2270921406
 30
0.0
 10
-19.4250731719
 20
5.2551028183
 30
0.0
 10
-19.4441681099
 20
5.3149694015
 30
0.0
 10
-19.5140140982
 20
5.3836240293
 30
0.0
 10
-19.6116197293
 20
5.4282490922
 30
0.0
 10
-19.6861442766
 20
5.438889102
 30
0.0
 10
-19.7245387019
 20
5.4392241721
 30
0.0
 11
-19.4245843933
 21
5.2270921406
 31
0.0
 11
-19.44846961
 21
5.3076714751
 31
0.0
 11
-19.5137340338
 21
5.3761739331
 31
0.0
 11
-19.6105964908
 21
5.4223312744
 31
0.0
 11
-19.7245387019
 21
5.4392241721
 31
0.0
  0
SPLINE
  5
464
100
AcDbEntity
  8
RACCORDO
100
AcDbSpline
 62
253
  6
CONTINUOUS
 70
0
 71
3
 72
11
 73
7
 74
5
 42
0.0000001
 43
0.0000001
 44
0.0000000001
 12
0.0069988224
 22
0.4010844293
 32
0.0
 13
0.4011302117
 23
0.0035008838
 33
0.0
 40
0.0
 40
0.0
 40
0.0
 40
0.0
 40
0.2095153873
 40
0.4453794686
 40
0.7128570688
 40
1.0
 40
1.0
 40
1.0
 40
1.0
 10
-20.2020095107
 20
5.2270921406
 30
0.0
 10
-20.2015207237
 20
5.2551032604
 30
0.0
 10
-20.1824252315
 20
5.3149704924
 30
0.0
 10
-20.1125783418
 20
5.3836249116
 30
0.0
 10
-20.0149729552
 20
5.4282492849
 30
0.0
 10
-19.9404491038
 20
5.4388890903
 30
0.0
 10
-19.9020552022
 20
5.4392241749
 30
0.0
 11
-20.2020095107
 21
5.2270921406
 31
0.0
 11
-20.1781235686
 21
5.3076726438
 31
0.0
 11
-20.1128581865
 21
5.3761750657
 31
0.0
 11
-20.0159958866
 21
5.4223316893
 31
0.0
 11
-19.9020552022
 21
5.4392241749
 31
0.0
  0
SPLINE
  5
465
100
AcDbEntity
  8
RACCORDO
100
AcDbSpline
 62
253
  6
CONTINUOUS
 70
0
 71
3
 72
11
 73
7
 74
5
 42
0.0000001
 43
0.0000001
 44
0.0000000001
 12
0.0069988223
 22
0.4010844284
 32
0.0
 13
0.4011302109
 23
0.003500877
 33
0.0
 40
0.0
 40
0.0
 40
0.0
 40
0.0
 40
0.209515632
 40
0.4453798145
 40
0.7128573246
 40
1.0
 40
1.0
 40
1.0
 40
1.0
 10
-20.2143521055
 20
5.9341989218
 30
0.0
 10
-20.2138633179
 20
5.9622100743
 30
0.0
 10
-20.1947677874
 20
6.0220773522
 30
0.0
 10
-20.1249208369
 20
6.090731757
 30
0.0
 10
-20.0273154685
 20
6.1353560835
 30
0.0
 10
-19.9527916643
 20
6.1459958724
 30
0.0
 10
-19.9143977969
 20
6.1463309562
 30
0.0
 11
-20.2143521055
 21
5.9341989218
 31
0.0
 11
-20.1904661116
 21
6.0147795118
 31
0.0
 11
-20.125200666
 21
6.083281929
 31
0.0
 11
-20.028338382
 21
6.1294385014
 31
0.0
 11
-19.9143977969
 21
6.1463309562
 31
0.0
  0
SPLINE
  5
466
100
AcDbEntity
  8
RACCORDO
100
AcDbSpline
 62
253
  6
CONTINUOUS
 70
0
 71
3
 72
11
 73
7
 74
5
 42
0.0000001
 43
0.0000001
 44
0.0000000001
 12
0.0069988224
 22
0.4010844293
 32
0.0
 13
0.4011302117
 23
0.0035008838
 33
0.0
 40
0.0
 40
0.0
 40
0.0
 40
0.0
 40
0.2095153873
 40
0.4453794686
 40
0.7128570688
 40
1.0
 40
1.0
 40
1.0
 40
1.0
 10
19.0979904893
 20
5.2270921406
 30
0.0
 10
19.0984792763
 20
5.2551032604
 30
0.0
 10
19.1175747685
 20
5.3149704924
 30
0.0
 10
19.1874216582
 20
5.3836249116
 30
0.0
 10
19.2850270448
 20
5.4282492849
 30
0.0
 10
19.3595508962
 20
5.4388890903
 30
0.0
 10
19.3979447978
 20
5.4392241749
 30
0.0
 11
19.0979904893
 21
5.2270921406
 31
0.0
 11
19.1218764314
 21
5.3076726438
 31
0.0
 11
19.1871418135
 21
5.3761750657
 31
0.0
 11
19.2840041134
 21
5.4223316893
 31
0.0
 11
19.3979447978
 21
5.4392241749
 31
0.0
  0
SPLINE
  5
467
100
AcDbEntity
  8
RACCORDO
100
AcDbSpline
 62
253
  6
CONTINUOUS
 70
0
 71
3
 72
11
 73
7
 74
5
 42
0.0000001
 43
0.0000001
 44
0.0000000001
 12
0.0069988223
 22
0.4010844284
 32
0.0
 13
0.4011302109
 23
0.003500877
 33
0.0
 40
0.0
 40
0.0
 40
0.0
 40
0.0
 40
0.209515632
 40
0.4453798145
 40
0.7128573246
 40
1.0
 40
1.0
 40
1.0
 40
1.0
 10
19.0856478945
 20
5.9341989218
 30
0.0
 10
19.0861366821
 20
5.9622100743
 30
0.0
 10
19.1052322126
 20
6.0220773522
 30
0.0
 10
19.1750791631
 20
6.090731757
 30
0.0
 10
19.2726845315
 20
6.1353560835
 30
0.0
 10
19.3472083357
 20
6.1459958724
 30
0.0
 10
19.3856022031
 20
6.1463309562
 30
0.0
 11
19.0856478945
 21
5.9341989218
 31
0.0
 11
19.1095338884
 21
6.0147795118
 31
0.0
 11
19.174799334
 21
6.083281929
 31
0.0
 11
19.271661618
 21
6.1294385014
 31
0.0
 11
19.3856022031
 21
6.1463309562
 31
0.0
  0
SPLINE
  5
468
100
AcDbEntity
  8
RACCORDO
100
AcDbSpline
 62
7
  6
CONTINUOUS
 70
0
 71
3
 72
12
 73
8
 74
6
 42
0.0000001
 43
0.0000001
 44
0.0000000001
 12
0.3000739778
 22
-0.0
 32
0.0
 13
0.212185585
 23
0.2121831041
 33
0.0
 40
0.0
 40
0.0
 40
0.0
 40
0.0
 40
0.3053475036
 40
0.5820489604
 40
0.8022991747
 40
0.9467217969
 40
1.0
 40
1.0
 40
1.0
 40
1.0
 10
23.1640167682
 20
-4.7257493652
 30
0.0
 10
23.1945590482
 20
-4.7257493652
 30
0.0
 10
23.252933366
 20
-4.7258808809
 30
0.0
 10
23.3325802189
 20
-4.7241178733
 30
0.0
 10
23.3982774761
 20
-4.7259416581
 30
0.0
 10
23.437029594
 20
-4.7192135818
 30
0.0
 10
23.4602056733
 20
-4.7243725444
 30
0.0
 10
23.4639739622
 20
-4.7206042995
 30
0.0
 11
23.1640167682
 21
-4.7257493652
 31
0.0
 11
23.2556432666
 21
-4.7254991551
 31
0.0
 11
23.3386709759
 21
-4.7247704753
 31
0.0
 11
23.4047526243
 21
-4.7236376324
 31
0.0
 11
23.4480661693
 21
-4.7221977729
 31
0.0
 11
23.4639739622
 21
-4.7206042995
 31
0.0
  0
SPLINE
  5
469
100
AcDbEntity
  8
RACCORDO
100
AcDbSpline
 62
7
  6
CONTINUOUS
 70
0
 71
3
 72
12
 73
8
 74
6
 42
0.0000001
 43
0.0000001
 44
0.0000000001
 12
0.212185585
 22
-0.2121831041
 32
0.0
 13
0.3000739778
 23
0.0
 33
0.0
 40
0.0
 40
0.0
 40
0.0
 40
0.0
 40
0.0532782031
 40
0.1977008253
 40
0.4179510396
 40
0.6946524964
 40
1.0
 40
1.0
 40
1.0
 40
1.0
 10
-23.7905678662
 20
-4.7206042995
 30
0.0
 10
-23.7867995773
 20
-4.7243725444
 30
0.0
 10
-23.763623498
 20
-4.7192135818
 30
0.0
 10
-23.7248713801
 20
-4.7259416581
 30
0.0
 10
-23.6591741229
 20
-4.7241178733
 30
0.0
 10
-23.57952727
 20
-4.7258808809
 30
0.0
 10
-23.5211529522
 20
-4.7257493652
 30
0.0
 10
-23.4906106722
 20
-4.7257493652
 30
0.0
 11
-23.7905678662
 21
-4.7206042995
 31
0.0
 11
-23.7746600732
 21
-4.7221977729
 31
0.0
 11
-23.7313465283
 21
-4.7236376324
 31
0.0
 11
-23.6652648799
 21
-4.7247704753
 31
0.0
 11
-23.5822371706
 21
-4.7254991551
 31
0.0
 11
-23.4906106722
 21
-4.7257493652
 31
0.0
  0
SPLINE
  5
46A
100
AcDbEntity
  8
RACCORDO
100
AcDbSpline
 62
7
  6
CONTINUOUS
 70
0
 71
3
 72
12
 73
8
 74
6
 42
0.0000001
 43
0.0000001
 44
0.0000000001
 12
-0.2121858917
 22
0.2121865075
 32
0.0
 13
-0.3000766013
 23
0.0
 33
0.0
 40
0.0
 40
0.0
 40
0.0
 40
0.0
 40
0.0533078243
 40
0.1977742039
 40
0.4180472247
 40
0.6947316031
 40
1.0
 40
1.0
 40
1.0
 40
1.0
 10
23.4620318192
 20
-0.8918984264
 30
0.0
 10
23.4582614298
 20
-0.8881280261
 30
0.0
 10
23.435076506
 20
-0.8932877325
 30
0.0
 10
23.3963150026
 20
-0.8865584028
 30
0.0
 10
23.330612309
 20
-0.8883810813
 30
0.0
 10
23.250971927
 20
-0.8866182286
 30
0.0
 10
23.1926067959
 20
-0.8867495193
 30
0.0
 10
23.1620721616
 20
-0.8867495193
 30
0.0
 11
23.4620318192
 21
-0.8918984264
 31
0.0
 11
23.4461151124
 21
-0.8903033587
 31
0.0
 11
23.402788089
 21
-0.8888623449
 31
0.0
 11
23.33669903
 21
-0.8877287952
 31
0.0
 11
23.2536757227
 21
-0.8869997868
 31
0.0
 11
23.1620721616
 21
-0.8867495193
 31
0.0
  0
SPLINE
  5
46B
100
AcDbEntity
  8
RACCORDO
100
AcDbSpline
 62
7
  6
CONTINUOUS
 70
0
 71
3
 72
12
 73
8
 74
6
 42
0.0000001
 43
0.0000001
 44
0.0000000001
 12
-0.3000766013
 22
-0.0
 32
0.0
 13
-0.2121858917
 23
-0.2121865075
 33
0.0
 40
0.0
 40
0.0
 40
0.0
 40
0.0
 40
0.3052683969
 40
0.5819527753
 40
0.8022257961
 40
0.9466921757
 40
1.0
 40
1.0
 40
1.0
 40
1.0
 10
-23.4886660656
 20
-0.8867495193
 30
0.0
 10
-23.5192006999
 20
-0.8867495193
 30
0.0
 10
-23.577565831
 20
-0.8866182286
 30
0.0
 10
-23.657206213
 20
-0.8883810813
 30
0.0
 10
-23.7229089066
 20
-0.8865584028
 30
0.0
 10
-23.76167041
 20
-0.8932877325
 30
0.0
 10
-23.7848553338
 20
-0.8881280261
 30
0.0
 10
-23.7886257232
 20
-0.8918984264
 30
0.0
 11
-23.4886660656
 21
-0.8867495193
 31
0.0
 11
-23.5802696267
 21
-0.8869997868
 31
0.0
 11
-23.663292934
 21
-0.8877287952
 31
0.0
 11
-23.7293819929
 21
-0.8888623449
 31
0.0
 11
-23.7727090164
 21
-0.8903033587
 31
0.0
 11
-23.7886257232
 21
-0.8918984264
 31
0.0
  0
SPLINE
  5
46C
100
AcDbEntity
  8
RACCORDO
100
AcDbSpline
 62
7
  6
CONTINUOUS
 70
0
 71
3
 72
12
 73
8
 74
6
 42
0.0000001
 43
0.0000001
 44
0.0000000001
 12
0.2121856603
 22
-0.2121849679
 32
0.0
 13
0.300075349
 23
0.0
 33
0.0
 40
0.0
 40
0.0
 40
0.0
 40
0.0
 40
0.0532816106
 40
0.1977093993
 40
0.417962435
 40
0.694661992
 40
1.0
 40
1.0
 40
1.0
 40
1.0
 10
-23.7918222133
 20
-6.7193499524
 30
0.0
 10
-23.788053682
 20
-6.7231184714
 30
0.0
 10
-23.7648764584
 20
-6.7179593729
 30
0.0
 10
-23.7261231186
 20
-6.7246876502
 30
0.0
 10
-23.6604249478
 20
-6.7228639719
 30
0.0
 10
-23.5807785738
 20
-6.7246269743
 30
0.0
 10
-23.5224051368
 20
-6.7244954826
 30
0.0
 10
-23.491863667
 20
-6.7244954826
 30
0.0
 11
-23.7918222133
 21
-6.7193499524
 31
0.0
 11
-23.7759133382
 21
-6.7209436149
 31
0.0
 11
-23.7325980486
 21
-6.722383614
 31
0.0
 11
-23.6665152529
 21
-6.7235165441
 31
0.0
 11
-23.5834877347
 21
-6.7242452654
 31
0.0
 11
-23.491863667
 21
-6.7244954826
 31
0.0
  0
SPLINE
  5
46D
100
AcDbEntity
  8
RACCORDO
100
AcDbSpline
 62
7
  6
CONTINUOUS
 70
0
 71
3
 72
12
 73
8
 74
6
 42
0.0000001
 43
0.0000001
 44
0.0000000001
 12
-0.3000816659
 22
0.0
 32
0.0
 13
-0.2121905985
 23
-0.2121889631
 33
0.0
 40
0.0
 40
0.0
 40
0.0
 40
0.0
 40
0.305206335
 40
0.5818776397
 40
0.8021687507
 40
0.9466692379
 40
1.0
 40
1.0
 40
1.0
 40
1.0
 10
-23.4913837291
 20
-5.9894691081
 30
0.0
 10
-23.5219126709
 20
-5.9894691081
 30
0.0
 10
-23.5802712079
 20
-5.989337998
 30
0.0
 10
-23.6599073776
 20
-5.9911007344
 30
0.0
 10
-23.7256149869
 20
-5.9892789228
 30
0.0
 10
-23.7643842919
 20
-5.9960092319
 30
0.0
 10
-23.7875762321
 20
-5.9908489644
 30
0.0
 10
-23.7913483275
 20
-5.9946210307
 30
0.0
 11
-23.4913837291
 21
-5.9894691081
 31
0.0
 11
-23.5829702124
 21
-5.9897194244
 31
0.0
 11
-23.6659909955
 21
-5.9904486948
 31
0.0
 11
-23.7320865899
 21
-5.9915828031
 31
0.0
 11
-23.775424556
 21
-5.9930247224
 31
0.0
 11
-23.7913483275
 21
-5.9946210307
 31
0.0
  0
SPLINE
  5
46E
100
AcDbEntity
  8
RACCORDO
100
AcDbSpline
 62
7
  6
CONTINUOUS
 70
0
 71
3
 72
12
 73
8
 74
6
 42
0.0000001
 43
0.0000001
 44
0.0000000001
 12
0.2121821519
 22
-0.2121827803
 32
0.0
 13
0.3000713213
 23
-0.0
 33
0.0
 40
0.0
 40
0.0
 40
0.0
 40
0.0
 40
0.0532731
 40
0.1976880308
 40
0.4179339921
 40
0.6946382695
 40
1.0
 40
1.0
 40
1.0
 40
1.0
 10
-23.787828142
 20
1.1766559763
 30
0.0
 10
-23.784060275
 20
1.1728880981
 30
0.0
 10
-23.7608858347
 20
1.1780469475
 30
0.0
 10
-23.7221357263
 20
1.1713190889
 30
0.0
 10
-23.6564399178
 20
1.1731430736
 30
0.0
 10
-23.5767925326
 20
1.1713800409
 30
0.0
 10
-23.5184170098
 20
1.1715116003
 30
0.0
 10
-23.4878735771
 20
1.1715116003
 30
0.0
 11
-23.787828142
 21
1.1766559763
 31
0.0
 11
-23.7719220024
 21
1.1750627811
 31
0.0
 11
-23.7286111437
 21
1.1736231282
 31
0.0
 11
-23.6625313546
 21
1.1724904152
 31
0.0
 11
-23.5795035335
 21
1.1717617974
 31
0.0
 11
-23.4878735771
 21
1.1715116003
 31
0.0
  0
SPLINE
  5
46F
100
AcDbEntity
  8
RACCORDO
100
AcDbSpline
 62
7
  6
CONTINUOUS
 70
0
 71
3
 72
12
 73
8
 74
6
 42
0.0000001
 43
0.0000001
 44
0.0000000001
 12
-0.3000744827
 22
-0.0
 32
0.0
 13
-0.2121844225
 23
-0.2121849807
 33
0.0
 40
0.0
 40
0.0
 40
0.0
 40
0.0
 40
0.3052957572
 40
0.5819859076
 40
0.8022509535
 40
0.9467022877
 40
1.0
 40
1.0
 40
1.0
 40
1.0
 10
-23.4876304407
 20
1.9142868394
 30
0.0
 10
-23.5181675962
 20
1.9142868394
 30
0.0
 10
-23.5765356563
 20
1.9144182082
 30
0.0
 10
-23.6561779301
 20
1.9126553073
 30
0.0
 10
-23.7218784721
 20
1.9144783606
 30
0.0
 10
-23.760636569
 20
1.9077494777
 30
0.0
 10
-23.7838183864
 20
1.9129089203
 30
0.0
 10
-23.7875880345
 20
1.9091392623
 30
0.0
 11
-23.4876304407
 21
1.9142868394
 31
0.0
 11
-23.5792415654
 21
1.9140365929
 31
0.0
 11
-23.6622660196
 21
1.9133076999
 31
0.0
 11
-23.7283522226
 21
1.9121743967
 31
0.0
 11
-23.7716744359
 21
1.9107337824
 31
0.0
 11
-23.7875880345
 21
1.9091392623
 31
0.0
  0
SPLINE
  5
470
100
AcDbEntity
  8
RACCORDO
100
AcDbSpline
 62
7
  6
CONTINUOUS
 70
0
 71
3
 72
12
 73
8
 74
6
 42
0.0000001
 43
0.0000001
 44
0.0000000001
 12
-0.2121905985
 22
0.2121889632
 32
0.0
 13
-0.3000816659
 23
-0.0
 33
0.0
 40
0.0
 40
0.0
 40
0.0
 40
0.0
 40
0.0533307621
 40
0.1978312493
 40
0.4181223603
 40
0.694793665
 40
1.0
 40
1.0
 40
1.0
 40
1.0
 10
23.4647544235
 20
-5.9946210307
 30
0.0
 10
23.4609823281
 20
-5.9908489644
 30
0.0
 10
23.4377903879
 20
-5.9960092319
 30
0.0
 10
23.399021083
 20
-5.9892789228
 30
0.0
 10
23.3333134736
 20
-5.9911007344
 30
0.0
 10
23.2536773039
 20
-5.989337998
 30
0.0
 10
23.1953187669
 20
-5.9894691081
 30
0.0
 10
23.1647898251
 20
-5.9894691081
 30
0.0
 11
23.4647544235
 21
-5.9946210307
 31
0.0
 11
23.448830652
 21
-5.9930247224
 31
0.0
 11
23.4054926859
 21
-5.9915828031
 31
0.0
 11
23.3393970915
 21
-5.9904486948
 31
0.0
 11
23.2563763084
 21
-5.9897194244
 31
0.0
 11
23.1647898251
 21
-5.9894691081
 31
0.0
  0
SPLINE
  5
471
100
AcDbEntity
  8
RACCORDO
100
AcDbSpline
 62
7
  6
CONTINUOUS
 70
0
 71
3
 72
12
 73
8
 74
6
 42
0.0000001
 43
0.0000001
 44
0.0000000001
 12
0.300075349
 22
-0.0
 32
0.0
 13
0.2121856603
 23
0.2121849679
 33
0.0
 40
0.0
 40
0.0
 40
0.0
 40
0.0
 40
0.305338008
 40
0.582037565
 40
0.8022906007
 40
0.9467183894
 40
1.0
 40
1.0
 40
1.0
 40
1.0
 10
23.165269763
 20
-6.7244954826
 30
0.0
 10
23.1958112328
 20
-6.7244954826
 30
0.0
 10
23.2541846698
 20
-6.7246269743
 30
0.0
 10
23.3338310438
 20
-6.7228639719
 30
0.0
 10
23.3995292146
 20
-6.7246876502
 30
0.0
 10
23.4382825544
 20
-6.7179593729
 30
0.0
 10
23.461459778
 20
-6.7231184714
 30
0.0
 10
23.4652283093
 20
-6.7193499524
 30
0.0
 11
23.165269763
 21
-6.7244954826
 31
0.0
 11
23.2568938307
 21
-6.7242452654
 31
0.0
 11
23.3399213489
 21
-6.7235165441
 31
0.0
 11
23.4060041446
 21
-6.722383614
 31
0.0
 11
23.4493194342
 21
-6.7209436149
 31
0.0
 11
23.4652283093
 21
-6.7193499524
 31
0.0
  0
SPLINE
  5
472
100
AcDbEntity
  8
RACCORDO
100
AcDbSpline
 62
7
  6
CONTINUOUS
 70
0
 71
3
 72
12
 73
8
 74
6
 42
0.0000001
 43
0.0000001
 44
0.0000000001
 12
-0.2121844225
 22
0.2121849807
 32
0.0
 13
-0.3000744827
 23
0.0
 33
0.0
 40
0.0
 40
0.0
 40
0.0
 40
0.0
 40
0.0532977123
 40
0.1977490465
 40
0.4180140924
 40
0.6947042428
 40
1.0
 40
1.0
 40
1.0
 40
1.0
 10
23.4609941305
 20
1.9091392623
 30
0.0
 10
23.4572244824
 20
1.9129089203
 30
0.0
 10
23.434042665
 20
1.9077494777
 30
0.0
 10
23.3952845681
 20
1.9144783606
 30
0.0
 10
23.3295840261
 20
1.9126553073
 30
0.0
 10
23.2499417523
 20
1.9144182082
 30
0.0
 10
23.1915736922
 20
1.9142868394
 30
0.0
 10
23.1610365367
 20
1.9142868394
 30
0.0
 11
23.4609941305
 21
1.9091392623
 31
0.0
 11
23.4450805319
 21
1.9107337824
 31
0.0
 11
23.4017583186
 21
1.9121743967
 31
0.0
 11
23.3356721156
 21
1.9133076999
 31
0.0
 11
23.2526476614
 21
1.9140365929
 31
0.0
 11
23.1610365367
 21
1.9142868394
 31
0.0
  0
SPLINE
  5
473
100
AcDbEntity
  8
RACCORDO
100
AcDbSpline
 62
7
  6
CONTINUOUS
 70
0
 71
3
 72
12
 73
8
 74
6
 42
0.0000001
 43
0.0000001
 44
0.0000000001
 12
0.3000713213
 22
0.0
 32
0.0
 13
0.2121821519
 23
0.2121827803
 33
0.0
 40
0.0
 40
0.0
 40
0.0
 40
0.0
 40
0.3053617305
 40
0.5820660079
 40
0.8023119692
 40
0.9467269
 40
1.0
 40
1.0
 40
1.0
 40
1.0
 10
23.1612796731
 20
1.1715116003
 30
0.0
 10
23.1918231058
 20
1.1715116003
 30
0.0
 10
23.2501986286
 20
1.1713800409
 30
0.0
 10
23.3298460138
 20
1.1731430736
 30
0.0
 10
23.3955418224
 20
1.1713190889
 30
0.0
 10
23.4342919307
 20
1.1780469475
 30
0.0
 10
23.457466371
 20
1.1728880981
 30
0.0
 10
23.461234238
 20
1.1766559763
 30
0.0
 11
23.1612796731
 21
1.1715116003
 31
0.0
 11
23.2529096295
 21
1.1717617974
 31
0.0
 11
23.3359374506
 21
1.1724904152
 31
0.0
 11
23.4020172397
 21
1.1736231282
 31
0.0
 11
23.4453280984
 21
1.1750627811
 31
0.0
 11
23.461234238
 21
1.1766559763
 31
0.0
  0
SPLINE
  5
474
100
AcDbEntity
  8
RACCORDO
100
AcDbSpline
 62
253
  6
CONTINUOUS
 70
0
 71
3
 72
11
 73
7
 74
5
 42
0.0000001
 43
0.0000001
 44
0.0000000001
 12
-0.0069988224
 22
0.4010844298
 32
0.0
 13
-0.4011302123
 23
0.0035008769
 33
0.0
 40
0.0
 40
0.0
 40
0.0
 40
0.0
 40
0.2095153874
 40
0.4453794694
 40
0.7128570698
 40
1.0
 40
1.0
 40
1.0
 40
1.0
 10
19.8877582015
 20
5.9341989218
 30
0.0
 10
19.8872694145
 20
5.9622100417
 30
0.0
 10
19.8681739222
 20
6.0220772738
 30
0.0
 10
19.7983270325
 20
6.0907316933
 30
0.0
 10
19.7007216462
 20
6.1353560676
 30
0.0
 10
19.6261977945
 20
6.1459958721
 30
0.0
 10
19.587803893
 20
6.1463309561
 30
0.0
 11
19.8877582015
 21
5.9341989218
 31
0.0
 11
19.8638722594
 21
6.0147794252
 31
0.0
 11
19.7986068772
 21
6.0832818475
 31
0.0
 11
19.7017445774
 21
6.1294384717
 31
0.0
 11
19.587803893
 21
6.1463309561
 31
0.0
  0
SPLINE
  5
475
100
AcDbEntity
  8
RACCORDO
100
AcDbSpline
 62
253
  6
CONTINUOUS
 70
0
 71
3
 72
11
 73
7
 74
5
 42
0.0000001
 43
0.0000001
 44
0.0000000001
 12
-0.0069988137
 22
0.401084489
 32
0.0
 13
-0.401130273
 23
0.0035006841
 33
0.0
 40
0.0
 40
0.0
 40
0.0
 40
0.0
 40
0.2095120489
 40
0.4453745127
 40
0.7128531963
 40
1.0
 40
1.0
 40
1.0
 40
1.0
 10
19.8754156067
 20
5.2270921406
 30
0.0
 10
19.8749268281
 20
5.2551028183
 30
0.0
 10
19.8558318901
 20
5.3149694015
 30
0.0
 10
19.7859859018
 20
5.3836240293
 30
0.0
 10
19.6883802707
 20
5.4282490922
 30
0.0
 10
19.6138557234
 20
5.438889102
 30
0.0
 10
19.5754612981
 20
5.4392241721
 30
0.0
 11
19.8754156067
 21
5.2270921406
 31
0.0
 11
19.85153039
 21
5.3076714751
 31
0.0
 11
19.7862659662
 21
5.3761739331
 31
0.0
 11
19.6894035092
 21
5.4223312744
 31
0.0
 11
19.5754612981
 21
5.4392241721
 31
0.0
  0
SPLINE
  5
476
100
AcDbEntity
  8
RACCORDO
100
AcDbSpline
 62
253
  6
CONTINUOUS
 70
0
 71
3
 72
12
 73
8
 74
6
 42
0.0000001
 43
0.0000001
 44
0.0000000001
 12
0.188162755
 22
0.4631952088
 32
0.0
 13
0.000001281
 23
0.4999550218
 33
0.0
 40
0.0
 40
0.0
 40
0.0
 40
0.0
 40
0.0533471248
 40
0.1972618061
 40
0.417998053
 40
0.6944311848
 40
1.0
 40
1.0
 40
1.0
 40
1.0
 10
19.3955372055
 20
3.2016574144
 30
0.0
 10
19.3988831861
 20
3.2098941253
 30
0.0
 10
19.3935528708
 20
3.2442155643
 30
0.0
 10
19.3997117072
 20
3.3125826101
 30
0.0
 10
19.3976323582
 20
3.420078395
 30
0.0
 10
19.3991410724
 20
3.5536001932
 30
0.0
 10
19.3989671614
 20
3.6506577075
 30
0.0
 10
19.3989672919
 20
3.701581262
 30
0.0
 11
19.3955372055
 21
3.2016574144
 31
0.0
 11
19.3966025575
 21
3.2283072917
 31
0.0
 11
19.3975587163
 21
3.3002518058
 31
0.0
 11
19.3983150789
 21
3.410607409
 31
0.0
 11
19.3988003115
 21
3.5488106896
 31
0.0
 11
19.3989672919
 21
3.701581262
 31
0.0
  0
SPLINE
  5
477
100
AcDbEntity
  8
RACCORDO
100
AcDbSpline
 62
253
  6
CONTINUOUS
 70
0
 71
3
 72
12
 73
8
 74
6
 42
0.0000001
 43
0.0000001
 44
0.0000000001
 12
0.000001281
 22
-0.4999550218
 32
0.0
 13
0.1881627568
 23
-0.4631952081
 33
0.0
 40
0.0
 40
0.0
 40
0.0
 40
0.0
 40
0.305568815
 40
0.5820019468
 40
0.8027381938
 40
0.9466528751
 40
1.0
 40
1.0
 40
1.0
 40
1.0
 10
19.5744388041
 20
3.701581262
 30
0.0
 10
19.5744389346
 20
3.6506577075
 30
0.0
 10
19.5742650236
 20
3.5536001932
 30
0.0
 10
19.5757737378
 20
3.4200783951
 30
0.0
 10
19.5736943887
 20
3.3125826102
 30
0.0
 10
19.5798532253
 20
3.2442155643
 30
0.0
 10
19.5745229099
 20
3.2098941253
 30
0.0
 10
19.5778688906
 20
3.2016574144
 30
0.0
 11
19.5744388041
 21
3.701581262
 31
0.0
 11
19.5746057846
 21
3.5488106897
 31
0.0
 11
19.5750910171
 21
3.4106074091
 31
0.0
 11
19.5758473797
 21
3.3002518059
 31
0.0
 11
19.5768035385
 21
3.2283072917
 31
0.0
 11
19.5778688906
 21
3.2016574144
 31
0.0
  0
SPLINE
  5
478
100
AcDbEntity
  8
RACCORDO
100
AcDbSpline
 62
253
  6
CONTINUOUS
 70
0
 71
3
 72
12
 73
8
 74
6
 42
0.0000001
 43
0.0000001
 44
0.0000000001
 12
0.000001281
 22
-0.4999550218
 32
0.0
 13
0.1881627568
 23
-0.4631952081
 33
0.0
 40
0.0
 40
0.0
 40
0.0
 40
0.0
 40
0.305568815
 40
0.5820019468
 40
0.8027381938
 40
0.9466528751
 40
1.0
 40
1.0
 40
1.0
 40
1.0
 10
-19.7255611959
 20
3.701581262
 30
0.0
 10
-19.7255610654
 20
3.6506577075
 30
0.0
 10
-19.7257349764
 20
3.5536001932
 30
0.0
 10
-19.7242262622
 20
3.4200783951
 30
0.0
 10
-19.7263056113
 20
3.3125826102
 30
0.0
 10
-19.7201467747
 20
3.2442155643
 30
0.0
 10
-19.7254770901
 20
3.2098941253
 30
0.0
 10
-19.7221311094
 20
3.2016574144
 30
0.0
 11
-19.7255611959
 21
3.701581262
 31
0.0
 11
-19.7253942154
 21
3.5488106897
 31
0.0
 11
-19.7249089829
 21
3.4106074091
 31
0.0
 11
-19.7241526203
 21
3.3002518059
 31
0.0
 11
-19.7231964615
 21
3.2283072917
 31
0.0
 11
-19.7221311094
 21
3.2016574144
 31
0.0
  0
SPLINE
  5
479
100
AcDbEntity
  8
RACCORDO
100
AcDbSpline
 62
253
  6
CONTINUOUS
 70
0
 71
3
 72
12
 73
8
 74
6
 42
0.0000001
 43
0.0000001
 44
0.0000000001
 12
0.188162755
 22
0.4631952088
 32
0.0
 13
0.000001281
 23
0.4999550218
 33
0.0
 40
0.0
 40
0.0
 40
0.0
 40
0.0
 40
0.0533471248
 40
0.1972618061
 40
0.417998053
 40
0.6944311848
 40
1.0
 40
1.0
 40
1.0
 40
1.0
 10
-19.9044627945
 20
3.2016574144
 30
0.0
 10
-19.9011168139
 20
3.2098941253
 30
0.0
 10
-19.9064471292
 20
3.2442155643
 30
0.0
 10
-19.9002882928
 20
3.3125826101
 30
0.0
 10
-19.9023676418
 20
3.420078395
 30
0.0
 10
-19.9008589276
 20
3.5536001932
 30
0.0
 10
-19.9010328386
 20
3.6506577075
 30
0.0
 10
-19.9010327081
 20
3.701581262
 30
0.0
 11
-19.9044627945
 21
3.2016574144
 31
0.0
 11
-19.9033974425
 21
3.2283072917
 31
0.0
 11
-19.9024412837
 21
3.3002518058
 31
0.0
 11
-19.9016849211
 21
3.410607409
 31
0.0
 11
-19.9011996885
 21
3.5488106896
 31
0.0
 11
-19.9010327081
 21
3.701581262
 31
0.0
  0
SPLINE
  5
47A
100
AcDbEntity
  8
RACCORDO
100
AcDbSpline
 62
253
  6
CONTINUOUS
 70
0
 71
3
 72
11
 73
7
 74
5
 42
0.0000001
 43
0.0000001
 44
0.0000000001
 12
-0.0098689072
 22
0.3534493123
 32
0.0
 13
-0.0000004971
 23
0.3535870638
 33
0.0
 40
0.0
 40
0.0
 40
0.0
 40
0.0
 40
0.2035823994
 40
0.4531925193
 40
0.7278954329
 40
1.0
 40
1.0
 40
1.0
 40
1.0
 10
19.3856019237
 20
6.1463420588
 30
0.0
 10
19.3849322118
 20
6.1703274118
 30
0.0
 10
19.3837324492
 20
6.2237291045
 30
0.0
 10
19.3824637372
 20
6.3095118211
 30
0.0
 10
19.3816838162
 20
6.4033768207
 30
0.0
 10
19.381512241
 20
6.4678249682
 30
0.0
 10
19.3815121959
 20
6.4998958532
 30
0.0
 11
19.3856019237
 21
6.1463420588
 31
0.0
 11
19.3839370084
 21
6.2183069052
 31
0.0
 11
19.3825982257
 21
6.3065556601
 31
0.0
 11
19.3817731148
 21
6.4036835521
 31
0.0
 11
19.3815121959
 21
6.4998958532
 31
0.0
  0
SPLINE
  5
47B
100
AcDbEntity
  8
RACCORDO
100
AcDbSpline
 62
253
  6
CONTINUOUS
 70
0
 71
3
 72
11
 73
7
 74
5
 42
0.0000001
 43
0.0000001
 44
0.0000000001
 12
-0.0000004828
 22
-0.3535861826
 32
0.0
 13
-0.0098690566
 23
-0.3534484266
 33
0.0
 40
0.0
 40
0.0
 40
0.0
 40
0.0
 40
0.2713497641
 40
0.5458509931
 40
0.7957709277
 40
1.0
 40
1.0
 40
1.0
 40
1.0
 10
19.5918938991
 20
6.4998955228
 30
0.0
 10
19.5918938554
 20
6.4679136804
 30
0.0
 10
19.5917230394
 20
6.4035784283
 30
0.0
 10
19.5909455051
 20
6.3097898653
 30
0.0
 10
19.5896774459
 20
6.223918381
 30
0.0
 10
19.5884760354
 20
6.1704040901
 30
0.0
 10
19.587804186
 20
6.1463426087
 30
0.0
 11
19.5918938991
 21
6.4998955228
 31
0.0
 11
19.5916344377
 21
6.4039503464
 31
0.0
 11
19.5908118272
 21
6.3068939907
 31
0.0
 11
19.5894734472
 21
6.2185358909
 31
0.0
 11
19.587804186
 21
6.1463426087
 31
0.0
  0
SPLINE
  5
47C
100
AcDbEntity
  8
RACCORDO
100
AcDbSpline
 62
253
  6
CONTINUOUS
 70
0
 71
3
 72
9
 73
5
 74
3
 42
0.0000001
 43
0.0000001
 44
0.0000000001
 12
0.0053452793
 22
-1.6468770511
 32
0.0
 13
0.0076765735
 23
-1.6468678343
 33
0.0
 40
0.0
 40
0.0
 40
0.0
 40
0.0
 40
0.5000137269
 40
1.0
 40
1.0
 40
1.0
 40
1.0
 10
-4.405243991
 20
5.7163700649
 30
0.0
 10
-4.4043530867
 20
5.4418830209
 30
0.0
 10
-4.4023770058
 20
4.8929246174
 30
0.0
 10
-4.4000124698
 20
4.3439677497
 30
0.0
 10
-4.398733076
 20
4.0694973127
 30
0.0
 11
-4.405243991
 21
5.7163700649
 31
0.0
 11
-4.4022798325
 21
4.8929099304
 31
0.0
 11
-4.398733076
 21
4.0694973127
 31
0.0
  0
SPLINE
  5
47D
100
AcDbEntity
  8
RACCORDO
100
AcDbSpline
 62
253
  6
CONTINUOUS
 70
0
 71
3
 72
9
 73
5
 74
3
 42
0.0000001
 43
0.0000001
 44
0.0000000001
 12
0.0076765735
 22
1.6468678343
 32
0.0
 13
0.0053452793
 23
1.6468770511
 33
0.0
 40
0.0
 40
0.0
 40
0.0
 40
0.0
 40
0.499986712
 40
1.0
 40
1.0
 40
1.0
 40
1.0
 10
4.072139172
 20
4.0694973127
 30
0.0
 10
4.0734185669
 20
4.3439679906
 30
0.0
 10
4.0757831028
 20
4.8929248583
 30
0.0
 10
4.0777591835
 20
5.4418832618
 30
0.0
 10
4.078650087
 20
5.7163700649
 30
0.0
 11
4.072139172
 21
4.0694973127
 31
0.0
 11
4.0756859313
 21
4.8929106532
 31
0.0
 11
4.078650087
 21
5.7163700649
 31
0.0
  0
SPLINE
  5
47E
100
AcDbEntity
  8
RACCORDO
100
AcDbSpline
 62
253
  6
CONTINUOUS
 70
0
 71
3
 72
11
 73
7
 74
5
 42
0.0000001
 43
0.0000001
 44
0.0000000001
 12
-0.0000004828
 22
-0.3535861826
 32
0.0
 13
-0.0098690566
 23
-0.3534484266
 33
0.0
 40
0.0
 40
0.0
 40
0.0
 40
0.0
 40
0.2713497641
 40
0.5458509931
 40
0.7957709277
 40
1.0
 40
1.0
 40
1.0
 40
1.0
 10
-19.7081061009
 20
6.4998955228
 30
0.0
 10
-19.7081061446
 20
6.4679136804
 30
0.0
 10
-19.7082769606
 20
6.4035784283
 30
0.0
 10
-19.7090544949
 20
6.3097898653
 30
0.0
 10
-19.7103225541
 20
6.223918381
 30
0.0
 10
-19.7115239646
 20
6.1704040901
 30
0.0
 10
-19.712195814
 20
6.1463426087
 30
0.0
 11
-19.7081061009
 21
6.4998955228
 31
0.0
 11
-19.7083655623
 21
6.4039503464
 31
0.0
 11
-19.7091881728
 21
6.3068939907
 31
0.0
 11
-19.7105265528
 21
6.2185358909
 31
0.0
 11
-19.712195814
 21
6.1463426087
 31
0.0
  0
SPLINE
  5
47F
100
AcDbEntity
  8
RACCORDO
100
AcDbSpline
 62
253
  6
CONTINUOUS
 70
0
 71
3
 72
11
 73
7
 74
5
 42
0.0000001
 43
0.0000001
 44
0.0000000001
 12
-0.0098905691
 22
0.5656197527
 32
0.0
 13
-0.0000105791
 23
0.5657062205
 33
0.0
 40
0.0
 40
0.0
 40
0.0
 40
0.0
 40
0.203753628
 40
0.4534050995
 40
0.7280845227
 40
1.0
 40
1.0
 40
1.0
 40
1.0
 10
19.0856478945
 20
5.9341989218
 30
0.0
 10
19.0849761481
 20
5.972614614
 30
0.0
 10
19.0837781005
 20
6.0581047766
 30
0.0
 10
19.0825086734
 20
6.1953932719
 30
0.0
 10
19.0817290634
 20
6.345538796
 30
0.0
 10
19.0815588773
 20
6.4486095877
 30
0.0
 10
19.0815579184
 20
6.4998843467
 30
0.0
 11
19.0856478945
 21
5.9341989218
 31
0.0
 11
19.0839816771
 21
6.0494515729
 31
0.0
 11
19.0826431734
 21
6.1906746203
 31
0.0
 11
19.0818185295
 21
6.3460602905
 31
0.0
 11
19.0815579184
 21
6.4998843467
 31
0.0
  0
SPLINE
  5
480
100
AcDbEntity
  8
RACCORDO
100
AcDbSpline
 62
253
  6
CONTINUOUS
 70
0
 71
3
 72
10
 73
6
 74
4
 42
0.0000001
 43
0.0000001
 44
0.0000000001
 12
0.000000142
 22
0.1414264683
 32
0.0
 13
-0.0024701873
 23
0.1414048942
 33
0.0
 40
0.0
 40
0.0
 40
0.0
 40
0.0
 40
0.3658056966
 40
0.7062804612
 40
1.0
 40
1.0
 40
1.0
 40
1.0
 10
19.0990129833
 20
5.0856707844
 30
0.0
 10
19.0990130006
 20
5.1029156536
 30
0.0
 10
19.0989392169
 20
5.1362113069
 30
0.0
 10
19.0986107987
 20
5.1833524607
 30
0.0
 10
19.0982323367
 20
5.2132476805
 30
0.0
 10
19.0979904893
 20
5.2270921406
 30
0.0
 11
19.0990129833
 21
5.0856707844
 31
0.0
 11
19.0988941404
 21
5.1374052556
 31
0.0
 11
19.0985463937
 21
5.1855561434
 31
0.0
 11
19.0979904893
 21
5.2270921406
 31
0.0
  0
SPLINE
  5
481
100
AcDbEntity
  8
RACCORDO
100
AcDbSpline
 62
253
  6
CONTINUOUS
 70
0
 71
3
 72
12
 73
8
 74
6
 42
0.0000001
 43
0.0000001
 44
0.0000000001
 12
0.1431629629
 22
0.1397257719
 32
0.0
 13
0.0000002731
 23
0.2000473076
 33
0.0
 40
0.0
 40
0.0
 40
0.0
 40
0.0
 40
0.053680495
 40
0.1976944885
 40
0.4183849018
 40
0.6946711573
 40
1.0
 40
1.0
 40
1.0
 40
1.0
 10
19.0955828969
 20
3.501611723
 30
0.0
 10
19.0981445832
 20
3.5041119059
 30
0.0
 10
19.0946211765
 20
3.5196367913
 30
0.0
 10
19.0991667379
 20
3.5454414143
 30
0.0
 10
19.0979168276
 20
3.5892450428
 30
0.0
 10
19.099103824
 20
3.6423313101
 30
0.0
 10
19.0990129555
 20
3.6812211911
 30
0.0
 10
19.0990129833
 20
3.701581262
 30
0.0
 11
19.0955828969
 21
3.501611723
 31
0.0
 11
19.0966492859
 21
3.512297282
 31
0.0
 11
19.0976049472
 21
3.5410910389
 31
0.0
 11
19.0983613273
 21
3.585233082
 31
0.0
 11
19.0988461763
 21
3.6405012769
 31
0.0
 11
19.0990129833
 21
3.701581262
 31
0.0
  0
SPLINE
  5
482
100
AcDbEntity
  8
RACCORDO
100
AcDbSpline
 62
253
  6
CONTINUOUS
 70
0
 71
3
 72
12
 73
8
 74
6
 42
0.0000001
 43
0.0000001
 44
0.0000000001
 12
0.0000002731
 22
-0.2000473076
 32
0.0
 13
0.1431629629
 23
-0.1397257719
 33
0.0
 40
0.0
 40
0.0
 40
0.0
 40
0.0
 40
0.3053288425
 40
0.581615098
 40
0.8023055113
 40
0.9463195049
 40
1.0
 40
1.0
 40
1.0
 40
1.0
 10
19.8743931127
 20
3.701581262
 30
0.0
 10
19.8743931405
 20
3.6812211911
 30
0.0
 10
19.874302272
 20
3.6423313101
 30
0.0
 10
19.8754892684
 20
3.5892450428
 30
0.0
 10
19.8742393581
 20
3.5454414143
 30
0.0
 10
19.8787849195
 20
3.5196367913
 30
0.0
 10
19.8752615129
 20
3.5041119059
 30
0.0
 10
19.8778231991
 20
3.501611723
 30
0.0
 11
19.8743931127
 21
3.701581262
 31
0.0
 11
19.8745599197
 21
3.6405012769
 31
0.0
 11
19.8750447687
 21
3.5852330821
 31
0.0
 11
19.8758011488
 21
3.5410910389
 31
0.0
 11
19.8767568101
 21
3.512297282
 31
0.0
 11
19.8778231991
 21
3.501611723
 31
0.0
  0
SPLINE
  5
483
100
AcDbEntity
  8
RACCORDO
100
AcDbSpline
 62
253
  6
CONTINUOUS
 70
0
 71
3
 72
10
 73
6
 74
4
 42
0.0000001
 43
0.0000001
 44
0.0000000001
 12
-0.0024701868
 22
-0.1414048942
 32
0.0
 13
0.0000001414
 23
-0.1414264683
 33
0.0
 40
0.0
 40
0.0
 40
0.0
 40
0.0
 40
0.2937195618
 40
0.6341943926
 40
1.0
 40
1.0
 40
1.0
 40
1.0
 10
19.8754156067
 20
5.2270921406
 30
0.0
 10
19.8751737593
 20
5.2132476794
 30
0.0
 10
19.8747952973
 20
5.1833524554
 30
0.0
 10
19.874466879
 20
5.1362113017
 30
0.0
 10
19.8743930955
 20
5.1029156494
 30
0.0
 10
19.8743931127
 20
5.0856707844
 30
0.0
 11
19.8754156067
 21
5.2270921406
 31
0.0
 11
19.8748597023
 21
5.1855561402
 31
0.0
 11
19.8745119555
 21
5.137405243
 31
0.0
 11
19.8743931127
 21
5.0856707844
 31
0.0
  0
SPLINE
  5
484
100
AcDbEntity
  8
RACCORDO
100
AcDbSpline
 62
253
  6
CONTINUOUS
 70
0
 71
3
 72
11
 73
7
 74
5
 42
0.0000001
 43
0.0000001
 44
0.0000000001
 12
-0.0000102035
 22
-0.56570622
 32
0.0
 13
-0.0098911393
 23
-0.5656197423
 33
0.0
 40
0.0
 40
0.0
 40
0.0
 40
0.0
 40
0.27116473
 40
0.5456360084
 40
0.7955929365
 40
1.0
 40
1.0
 40
1.0
 40
1.0
 10
19.8918481776
 20
6.4998843467
 30
0.0
 10
19.8918472553
 20
6.4487511552
 30
0.0
 10
19.891677774
 20
6.3458611815
 30
0.0
 10
19.8909005785
 20
6.1958388652
 30
0.0
 10
19.8896317815
 20
6.0584087912
 30
0.0
 10
19.8884321411
 20
5.972737812
 30
0.0
 10
19.8877582015
 20
5.9341989218
 30
0.0
 11
19.8918481776
 21
6.4998843467
 31
0.0
 11
19.8915890149
 21
6.3464849912
 31
0.0
 11
19.8907668848
 21
6.1912170583
 31
0.0
 11
19.8894288105
 21
6.0498212005
 31
0.0
 11
19.8877582015
 21
5.9341989218
 31
0.0
  0
SPLINE
  5
485
100
AcDbEntity
  8
RACCORDO
100
AcDbSpline
 62
253
  6
CONTINUOUS
 70
0
 71
3
 72
12
 73
8
 74
6
 42
0.0000001
 43
0.0000001
 44
0.0000000001
 12
0.0000002731
 22
-0.2000473076
 32
0.0
 13
0.1431629629
 23
-0.1397257719
 33
0.0
 40
0.0
 40
0.0
 40
0.0
 40
0.0
 40
0.3053288425
 40
0.581615098
 40
0.8023055113
 40
0.9463195049
 40
1.0
 40
1.0
 40
1.0
 40
1.0
 10
-19.4256068873
 20
3.701581262
 30
0.0
 10
-19.4256068595
 20
3.6812211911
 30
0.0
 10
-19.425697728
 20
3.6423313101
 30
0.0
 10
-19.4245107316
 20
3.5892450428
 30
0.0
 10
-19.4257606419
 20
3.5454414143
 30
0.0
 10
-19.4212150805
 20
3.5196367913
 30
0.0
 10
-19.4247384871
 20
3.5041119059
 30
0.0
 10
-19.4221768009
 20
3.501611723
 30
0.0
 11
-19.4256068873
 21
3.701581262
 31
0.0
 11
-19.4254400803
 21
3.6405012769
 31
0.0
 11
-19.4249552313
 21
3.5852330821
 31
0.0
 11
-19.4241988512
 21
3.5410910389
 31
0.0
 11
-19.4232431899
 21
3.512297282
 31
0.0
 11
-19.4221768009
 21
3.501611723
 31
0.0
  0
SPLINE
  5
486
100
AcDbEntity
  8
RACCORDO
100
AcDbSpline
 62
253
  6
CONTINUOUS
 70
0
 71
3
 72
10
 73
6
 74
4
 42
0.0000001
 43
0.0000001
 44
0.0000000001
 12
-0.0024701868
 22
-0.1414048942
 32
0.0
 13
0.0000001414
 23
-0.1414264683
 33
0.0
 40
0.0
 40
0.0
 40
0.0
 40
0.0
 40
0.2937195618
 40
0.6341943926
 40
1.0
 40
1.0
 40
1.0
 40
1.0
 10
-19.4245843933
 20
5.2270921406
 30
0.0
 10
-19.4248262407
 20
5.2132476794
 30
0.0
 10
-19.4252047027
 20
5.1833524554
 30
0.0
 10
-19.425533121
 20
5.1362113017
 30
0.0
 10
-19.4256069045
 20
5.1029156494
 30
0.0
 10
-19.4256068873
 20
5.0856707844
 30
0.0
 11
-19.4245843933
 21
5.2270921406
 31
0.0
 11
-19.4251402977
 21
5.1855561402
 31
0.0
 11
-19.4254880445
 21
5.137405243
 31
0.0
 11
-19.4256068873
 21
5.0856707844
 31
0.0
  0
SPLINE
  5
487
100
AcDbEntity
  8
RACCORDO
100
AcDbSpline
 62
253
  6
CONTINUOUS
 70
0
 71
3
 72
11
 73
7
 74
5
 42
0.0000001
 43
0.0000001
 44
0.0000000001
 12
-0.0000102035
 22
-0.56570622
 32
0.0
 13
-0.0098911393
 23
-0.5656197423
 33
0.0
 40
0.0
 40
0.0
 40
0.0
 40
0.0
 40
0.27116473
 40
0.5456360084
 40
0.7955929365
 40
1.0
 40
1.0
 40
1.0
 40
1.0
 10
-19.4081518224
 20
6.4998843467
 30
0.0
 10
-19.4081527447
 20
6.4487511552
 30
0.0
 10
-19.408322226
 20
6.3458611815
 30
0.0
 10
-19.4090994215
 20
6.1958388652
 30
0.0
 10
-19.4103682185
 20
6.0584087912
 30
0.0
 10
-19.4115678589
 20
5.972737812
 30
0.0
 10
-19.4122417985
 20
5.9341989218
 30
0.0
 11
-19.4081518224
 21
6.4998843467
 31
0.0
 11
-19.4084109851
 21
6.3464849912
 31
0.0
 11
-19.4092331152
 21
6.1912170583
 31
0.0
 11
-19.4105711895
 21
6.0498212005
 31
0.0
 11
-19.4122417985
 21
5.9341989218
 31
0.0
  0
SPLINE
  5
488
100
AcDbEntity
  8
RACCORDO
100
AcDbSpline
 62
253
  6
CONTINUOUS
 70
0
 71
3
 72
11
 73
7
 74
5
 42
0.0000001
 43
0.0000001
 44
0.0000000001
 12
-0.0098905691
 22
0.5656197527
 32
0.0
 13
-0.0000105791
 23
0.5657062205
 33
0.0
 40
0.0
 40
0.0
 40
0.0
 40
0.0
 40
0.203753628
 40
0.4534050995
 40
0.7280845227
 40
1.0
 40
1.0
 40
1.0
 40
1.0
 10
-20.2143521055
 20
5.9341989218
 30
0.0
 10
-20.2150238519
 20
5.972614614
 30
0.0
 10
-20.2162218995
 20
6.0581047766
 30
0.0
 10
-20.2174913266
 20
6.1953932719
 30
0.0
 10
-20.2182709366
 20
6.345538796
 30
0.0
 10
-20.2184411227
 20
6.4486095877
 30
0.0
 10
-20.2184420816
 20
6.4998843467
 30
0.0
 11
-20.2143521055
 21
5.9341989218
 31
0.0
 11
-20.2160183229
 21
6.0494515729
 31
0.0
 11
-20.2173568266
 21
6.1906746203
 31
0.0
 11
-20.2181814705
 21
6.3460602905
 31
0.0
 11
-20.2184420816
 21
6.4998843467
 31
0.0
  0
SPLINE
  5
489
100
AcDbEntity
  8
RACCORDO
100
AcDbSpline
 62
253
  6
CONTINUOUS
 70
0
 71
3
 72
10
 73
6
 74
4
 42
0.0000001
 43
0.0000001
 44
0.0000000001
 12
0.000000142
 22
0.1414264683
 32
0.0
 13
-0.0024701873
 23
0.1414048942
 33
0.0
 40
0.0
 40
0.0
 40
0.0
 40
0.0
 40
0.3658056966
 40
0.7062804612
 40
1.0
 40
1.0
 40
1.0
 40
1.0
 10
-20.2009870167
 20
5.0856707844
 30
0.0
 10
-20.2009869994
 20
5.1029156536
 30
0.0
 10
-20.2010607831
 20
5.1362113069
 30
0.0
 10
-20.2013892013
 20
5.1833524607
 30
0.0
 10
-20.2017676633
 20
5.2132476805
 30
0.0
 10
-20.2020095107
 20
5.2270921406
 30
0.0
 11
-20.2009870167
 21
5.0856707844
 31
0.0
 11
-20.2011058596
 21
5.1374052556
 31
0.0
 11
-20.2014536063
 21
5.1855561434
 31
0.0
 11
-20.2020095107
 21
5.2270921406
 31
0.0
  0
SPLINE
  5
48A
100
AcDbEntity
  8
RACCORDO
100
AcDbSpline
 62
253
  6
CONTINUOUS
 70
0
 71
3
 72
12
 73
8
 74
6
 42
0.0000001
 43
0.0000001
 44
0.0000000001
 12
0.1431629629
 22
0.1397257719
 32
0.0
 13
0.0000002731
 23
0.2000473076
 33
0.0
 40
0.0
 40
0.0
 40
0.0
 40
0.0
 40
0.053680495
 40
0.1976944885
 40
0.4183849018
 40
0.6946711573
 40
1.0
 40
1.0
 40
1.0
 40
1.0
 10
-20.2044171031
 20
3.501611723
 30
0.0
 10
-20.2018554168
 20
3.5041119059
 30
0.0
 10
-20.2053788235
 20
3.5196367913
 30
0.0
 10
-20.2008332621
 20
3.5454414143
 30
0.0
 10
-20.2020831724
 20
3.5892450428
 30
0.0
 10
-20.200896176
 20
3.6423313101
 30
0.0
 10
-20.2009870445
 20
3.6812211911
 30
0.0
 10
-20.2009870167
 20
3.701581262
 30
0.0
 11
-20.2044171031
 21
3.501611723
 31
0.0
 11
-20.2033507141
 21
3.512297282
 31
0.0
 11
-20.2023950528
 21
3.5410910389
 31
0.0
 11
-20.2016386727
 21
3.585233082
 31
0.0
 11
-20.2011538237
 21
3.6405012769
 31
0.0
 11
-20.2009870167
 21
3.701581262
 31
0.0
  0
SPLINE
  5
48B
100
AcDbEntity
  8
RACCORDO
100
AcDbSpline
 62
253
  6
CONTINUOUS
 70
0
 71
3
 72
9
 73
5
 74
3
 42
0.0000001
 43
0.0000001
 44
0.0000000001
 12
0.0003603394
 22
-6.1661325534
 32
0.0
 13
0.0019281047
 23
-6.1661322625
 33
0.0
 40
0.0
 40
0.0
 40
0.0
 40
0.0
 40
0.500035562
 40
1.0
 40
1.0
 40
1.0
 40
1.0
 10
23.4598499693
 20
8.0752717076
 30
0.0
 10
23.4599100301
 20
7.0475098554
 30
0.0
 10
23.4601607762
 20
4.9921323432
 30
0.0
 10
23.4606728026
 20
2.9367548794
 30
0.0
 10
23.4609941305
 20
1.9091392623
 30
0.0
 11
23.4598499693
 21
8.0752717076
 31
0.0
 11
23.4602261234
 21
4.9919861688
 31
0.0
 11
23.4609941305
 21
1.9091392623
 31
0.0
  0
LINE
  5
48C
100
AcDbEntity
  8
RACCORDO
100
AcDbLine
 62
253
  6
CONTINUOUS
 10
23.461234238
 20
1.1766559763
 11
23.4620318192
 21
-0.8918984264
  0
LINE
  5
48D
100
AcDbEntity
  8
RACCORDO
100
AcDbLine
 62
253
  6
CONTINUOUS
 10
23.4639739622
 20
-4.7206042995
 11
23.4647544235
 21
-5.9946210307
  0
LINE
  5
48E
100
AcDbEntity
  8
RACCORDO
100
AcDbLine
 62
253
  6
CONTINUOUS
 10
23.4652283093
 20
-6.7193499524
 11
23.4655787206
 21
-7.2350363407
  0
LINE
  5
48F
100
AcDbEntity
  8
RACCORDO
100
AcDbLine
 62
253
  6
CONTINUOUS
 10
-23.7913483275
 20
-5.9946210307
 11
-23.7905678662
 21
-4.7206042995
  0
LINE
  5
490
100
AcDbEntity
  8
RACCORDO
100
AcDbLine
 62
253
  6
CONTINUOUS
 10
-23.7921726246
 20
-7.2350363407
 11
-23.7918222133
 21
-6.7193499524
  0
LINE
  5
491
100
AcDbEntity
  8
RACCORDO
100
AcDbLine
 62
253
  6
CONTINUOUS
 10
-23.7886257232
 20
-0.8918984264
 11
-23.787828142
 21
1.1766559763
  0
SPLINE
  5
492
100
AcDbEntity
  8
RACCORDO
100
AcDbSpline
 62
253
  6
CONTINUOUS
 70
0
 71
3
 72
9
 73
5
 74
3
 42
0.0000001
 43
0.0000001
 44
0.0000000001
 12
0.0019281047
 22
6.1661322625
 32
0.0
 13
0.0003603394
 23
6.1661325534
 33
0.0
 40
0.0
 40
0.0
 40
0.0
 40
0.0
 40
0.4999644739
 40
1.0
 40
1.0
 40
1.0
 40
1.0
 10
-23.7875880345
 20
1.9091392623
 30
0.0
 10
-23.7872667066
 20
2.9367549532
 30
0.0
 10
-23.7867546801
 20
4.992132417
 30
0.0
 10
-23.7865039341
 20
7.0475099292
 30
0.0
 10
-23.7864438733
 20
8.0752717076
 30
0.0
 11
-23.7875880345
 21
1.9091392623
 31
0.0
 11
-23.7868200273
 21
4.9919863901
 31
0.0
 11
-23.7864438733
 21
8.0752717076
 31
0.0
  0
SPLINE
  5
493
100
AcDbEntity
  8
RACCORDO
100
AcDbSpline
 62
7
  6
CONTINUOUS
 70
0
 71
3
 72
12
 73
8
 74
6
 42
0.0000001
 43
0.0000001
 44
0.0000000001
 12
0.3000708432
 22
-0.0
 32
0.0
 13
0.2121821359
 23
0.2121821203
 33
0.0
 40
0.0
 40
0.0
 40
0.0
 40
0.0
 40
0.3053517528
 40
0.5820537449
 40
0.8023025256
 40
0.9467230498
 40
1.0
 40
1.0
 40
1.0
 40
1.0
 10
23.1598959029
 20
8.0701268496
 30
0.0
 10
23.1904382889
 20
8.0701268496
 30
0.0
 10
23.2488124814
 20
8.0699953208
 30
0.0
 10
23.3284588213
 20
8.0717583238
 30
0.0
 10
23.394155116
 20
8.0699344984
 30
0.0
 10
23.4329063357
 20
8.0766624775
 30
0.0
 10
23.4560818302
 20
8.0715035688
 30
0.0
 10
23.4598499693
 20
8.0752717076
 30
0.0
 11
23.1598959029
 21
8.0701268496
 31
0.0
 11
23.2515227192
 21
8.0703770537
 31
0.0
 11
23.3345497219
 21
8.0711057114
 31
0.0
 11
23.4006302503
 21
8.0722385118
 31
0.0
 11
23.4439427145
 21
8.0736783095
 31
0.0
 11
23.4598499693
 21
8.0752717076
 31
0.0
  0
SPLINE
  5
494
100
AcDbEntity
  8
RACCORDO
100
AcDbSpline
 62
7
  6
CONTINUOUS
 70
0
 71
3
 72
12
 73
8
 74
6
 42
0.0000001
 43
0.0000001
 44
0.0000000001
 12
0.2121821359
 22
-0.2121821203
 32
0.0
 13
0.3000708432
 23
0.0
 33
0.0
 40
0.0
 40
0.0
 40
0.0
 40
0.0
 40
0.0532769502
 40
0.1976974744
 40
0.4179462551
 40
0.6946482472
 40
1.0
 40
1.0
 40
1.0
 40
1.0
 10
-23.7864438733
 20
8.0752717076
 30
0.0
 10
-23.7826757342
 20
8.0715035688
 30
0.0
 10
-23.7595002397
 20
8.0766624775
 30
0.0
 10
-23.7207490199
 20
8.0699344984
 30
0.0
 10
-23.6550527253
 20
8.0717583238
 30
0.0
 10
-23.5754063854
 20
8.0699953208
 30
0.0
 10
-23.5170321928
 20
8.0701268496
 30
0.0
 10
-23.4864898069
 20
8.0701268496
 30
0.0
 11
-23.7864438733
 21
8.0752717076
 31
0.0
 11
-23.7705366185
 21
8.0736783095
 31
0.0
 11
-23.7272241543
 21
8.0722385118
 31
0.0
 11
-23.6611436259
 21
8.0711057114
 31
0.0
 11
-23.5781166232
 21
8.0703770537
 31
0.0
 11
-23.4864898069
 21
8.0701268496
 31
0.0
  0
SPLINE
  5
495
100
AcDbEntity
  8
RACCORDO
100
AcDbSpline
 62
253
  6
CONTINUOUS
 70
0
 71
3
 72
11
 73
7
 74
5
 42
0.0000001
 43
0.0000001
 44
0.0000000001
 12
-0.0098689072
 22
0.3534493123
 32
0.0
 13
-0.0000004971
 23
0.3535870638
 33
0.0
 40
0.0
 40
0.0
 40
0.0
 40
0.0
 40
0.2035823994
 40
0.4531925193
 40
0.7278954329
 40
1.0
 40
1.0
 40
1.0
 40
1.0
 10
-19.9143980763
 20
6.1463420588
 30
0.0
 10
-19.9150677882
 20
6.1703274118
 30
0.0
 10
-19.9162675508
 20
6.2237291045
 30
0.0
 10
-19.9175362628
 20
6.3095118211
 30
0.0
 10
-19.9183161838
 20
6.4033768207
 30
0.0
 10
-19.918487759
 20
6.4678249682
 30
0.0
 10
-19.9184878041
 20
6.4998958532
 30
0.0
 11
-19.9143980763
 21
6.1463420588
 31
0.0
 11
-19.9160629916
 21
6.2183069052
 31
0.0
 11
-19.9174017743
 21
6.3065556601
 31
0.0
 11
-19.9182268852
 21
6.4036835521
 31
0.0
 11
-19.9184878041
 21
6.4998958532
 31
0.0
  0
SPLINE
  5
496
100
AcDbEntity
  8
RACCORDO
100
AcDbSpline
 62
7
  6
CONTINUOUS
 70
0
 71
3
 72
11
 73
7
 74
5
 42
0.0000001
 43
0.0000001
 44
0.0000000001
 12
0.1877591259
 22
0.0090044273
 32
0.0
 13
0.1879749161
 23
0.0
 33
0.0
 40
0.0
 40
0.0
 40
0.0
 40
0.0
 40
0.1566793638
 40
0.3898272684
 40
0.6785348125
 40
1.0
 40
1.0
 40
1.0
 40
1.0
 10
4.078650087
 20
5.7163700649
 30
0.0
 10
4.0884560805
 20
5.7168403342
 30
0.0
 10
4.1128773601
 20
5.7174662194
 30
0.0
 10
4.1553867173
 20
5.7181435626
 30
0.0
 10
4.2082270664
 20
5.7185668574
 30
0.0
 10
4.2464593511
 20
5.7186675772
 30
0.0
 10
4.266601815
 20
5.7186675772
 30
0.0
 11
4.078650087
 21
5.7163700649
 31
0.0
 11
4.1080870276
 21
5.7173052024
 31
0.0
 11
4.1519068852
 21
5.718036404
 31
0.0
 11
4.2061746436
 21
5.7185043972
 31
0.0
 11
4.266601815
 21
5.7186675772
 31
0.0
  0
SPLINE
  5
497
100
AcDbEntity
  8
RACCORDO
100
AcDbSpline
 62
7
  6
CONTINUOUS
 70
0
 71
3
 72
11
 73
7
 74
5
 42
0.0000001
 43
0.0000001
 44
0.0000000001
 12
-0.1879629154
 22
0.0
 32
0.0
 13
-0.1877471389
 23
0.0090038568
 33
0.0
 40
0.0
 40
0.0
 40
0.0
 40
0.0
 40
0.3215242523
 40
0.6102453572
 40
0.8433660718
 40
1.0
 40
1.0
 40
1.0
 40
1.0
 10
4.2600789102
 20
4.0672005237
 30
0.0
 10
4.2399340315
 20
4.0672005237
 30
0.0
 10
4.2016996374
 20
4.0673012265
 30
0.0
 10
4.1488598141
 20
4.06772443
 30
0.0
 10
4.1063568702
 20
4.0684015782
 30
0.0
 10
4.0819416959
 20
4.0690272096
 30
0.0
 10
4.072139172
 20
4.0694973127
 30
0.0
 11
4.2600789102
 21
4.0672005237
 31
0.0
 11
4.1996444946
 21
4.0673636919
 31
0.0
 11
4.1453776511
 21
4.0678316007
 31
0.0
 11
4.1015656994
 21
4.068562573
 31
0.0
 11
4.072139172
 21
4.0694973127
 31
0.0
  0
SPLINE
  5
498
100
AcDbEntity
  8
RACCORDO
100
AcDbSpline
 62
7
  6
CONTINUOUS
 70
0
 71
3
 72
11
 73
7
 74
5
 42
0.0000001
 43
0.0000001
 44
0.0000000001
 12
-0.1877471389
 22
-0.0090038568
 32
0.0
 13
-0.1879629155
 23
0.0
 33
0.0
 40
0.0
 40
0.0
 40
0.0
 40
0.0
 40
0.1566339282
 40
0.3897546428
 40
0.6784757477
 40
1.0
 40
1.0
 40
1.0
 40
1.0
 10
-4.398733076
 20
4.0694973127
 30
0.0
 10
-4.4085355999
 20
4.0690272096
 30
0.0
 10
-4.4329507742
 20
4.0684015782
 30
0.0
 10
-4.4754537181
 20
4.06772443
 30
0.0
 10
-4.5282935414
 20
4.0673012265
 30
0.0
 10
-4.5665279355
 20
4.0672005237
 30
0.0
 10
-4.5866728141
 20
4.0672005237
 30
0.0
 11
-4.398733076
 21
4.0694973127
 31
0.0
 11
-4.4281596034
 21
4.068562573
 31
0.0
 11
-4.4719715551
 21
4.0678316007
 31
0.0
 11
-4.5262383986
 21
4.0673636919
 31
0.0
 11
-4.5866728141
 21
4.0672005237
 31
0.0
  0
SPLINE
  5
499
100
AcDbEntity
  8
RACCORDO
100
AcDbSpline
 62
7
  6
CONTINUOUS
 70
0
 71
3
 72
11
 73
7
 74
5
 42
0.0000001
 43
0.0000001
 44
0.0000000001
 12
0.1879749161
 22
0.0
 32
0.0
 13
0.1877591259
 23
-0.0090044273
 33
0.0
 40
0.0
 40
0.0
 40
0.0
 40
0.0
 40
0.3214651875
 40
0.6101727316
 40
0.8433206362
 40
1.0
 40
1.0
 40
1.0
 40
1.0
 10
-4.5931957189
 20
5.7186675772
 30
0.0
 10
-4.5730532551
 20
5.7186675772
 30
0.0
 10
-4.5348209703
 20
5.7185668574
 30
0.0
 10
-4.4819806212
 20
5.7181435626
 30
0.0
 10
-4.4394712641
 20
5.7174662194
 30
0.0
 10
-4.4150499845
 20
5.7168403342
 30
0.0
 10
-4.405243991
 20
5.7163700649
 30
0.0
 11
-4.5931957189
 21
5.7186675772
 31
0.0
 11
-4.5327685476
 21
5.7185043972
 31
0.0
 11
-4.4785007892
 21
5.718036404
 31
0.0
 11
-4.4346809316
 21
5.7173052024
 31
0.0
 11
-4.405243991
 21
5.7163700649
 31
0.0
  0
ELLIPSE
  5
49A
100
AcDbEntity
  8
RACCORDO
100
AcDbEllipse
 62
7
  6
CONTINUOUS
 10
24.373171958
 20
-8.9504669247
 30
0.0
 11
0.2183310446
 21
0.1221043275
 31
0.0
 40
0.9980297029
 41
-2.0815635429
 42
-0.5109195152
  0
ELLIPSE
  5
49B
100
AcDbEntity
  8
RACCORDO
100
AcDbEllipse
 62
7
  6
CONTINUOUS
 10
-24.699765862
 20
-8.9504669247
 30
0.0
 11
0.2183310446
 21
-0.1221043275
 31
0.0
 40
0.9980297029
 41
-2.6306731384
 42
-1.0600291107
  0
ELLIPSE
  5
49C
100
AcDbEntity
  8
RACCORDO
100
AcDbEllipse
 62
7
  6
CONTINUOUS
 10
-24.706276844
 20
9.0357574576
 30
0.0
 11
-0.1768305473
 21
0.1768305473
 31
0.0
 40
0.9996954599
 41
-0.7852458701
 42
0.7852458701
  0
ELLIPSE
  5
49D
100
AcDbEntity
  8
RACCORDO
100
AcDbEllipse
 62
7
  6
CONTINUOUS
 10
24.37968294
 20
9.0357574576
 30
0.0
 11
-0.1768305473
 21
-0.1768305473
 31
0.0
 40
0.9996954599
 41
2.3563467834
 42
3.9268385237
  0
ELLIPSE
  5
49E
100
AcDbEntity
  8
RACCORDO
100
AcDbEllipse
 62
7
  6
CONTINUOUS
 10
-24.9615514455
 20
8.3352215497
 30
0.0
 11
0.0
 21
0.3
 31
0.0
 40
0.0174550649
 41
-3.1241393611
 42
-1.5707963268
  0
ELLIPSE
  5
49F
100
AcDbEntity
  8
RACCORDO
100
AcDbEllipse
 62
7
  6
CONTINUOUS
 10
24.6349575415
 20
8.3352215497
 30
0.0
 11
-0.0
 21
0.3
 31
0.0
 40
0.0174550649
 41
-4.7123889804
 42
-3.1590459461
  0
ELLIPSE
  5
4A0
100
AcDbEntity
  8
DRAFT
100
AcDbEllipse
 62
7
  6
CONTINUOUS
 10
29.5597216523
 20
9.4927775655
 30
0.0
 11
0.0
 21
423.7
 31
0.0
 40
0.0174550649
 41
-4.6945015721
 42
-4.6927481945
  0
ELLIPSE
  5
4A1
100
AcDbEntity
  8
DRAFT
100
AcDbEllipse
 62
7
  6
CONTINUOUS
 10
29.5597216523
 20
9.4927775655
 30
0.0
 11
0.0
 21
423.7
 31
0.0
 40
0.0174550649
 41
-4.675840257
 42
-4.6741042615
  0
ELLIPSE
  5
4A2
100
AcDbEntity
  8
RACCORDO
100
AcDbEllipse
 62
7
  6
CONTINUOUS
 10
10.9811395087
 20
9.4927775655
 30
0.0
 11
0.0
 21
423.7
 31
0.0
 40
0.0174550649
 41
-1.6103149114
 42
-1.60848535
  0
ELLIPSE
  5
4A3
100
AcDbEntity
  8
RACCORDO
100
AcDbEllipse
 62
7
  6
CONTINUOUS
 10
24.8922665873
 20
9.4927775655
 30
0.0
 11
0.0
 21
423.7
 31
0.0
 40
0.0174550649
 41
-4.6746999572
 42
-4.6722996927
  0
ELLIPSE
  5
4A4
100
AcDbEntity
  8
RACCORDO
100
AcDbEllipse
 62
7
  6
CONTINUOUS
 10
-0.2188604913
 20
9.4927775655
 30
0.0
 11
0.0
 21
423.7
 31
0.0
 40
0.0174550649
 41
-1.6108856145
 42
-1.60848535
  0
ELLIPSE
  5
4A5
100
AcDbEntity
  8
RACCORDO
100
AcDbEllipse
 62
7
  6
CONTINUOUS
 10
13.6922665873
 20
9.4927775655
 30
0.0
 11
0.0
 21
423.7
 31
0.0
 40
0.0174550649
 41
-4.6746999572
 42
-4.6728703958
  0
ELLIPSE
  5
4A6
100
AcDbEntity
  8
RACCORDO
100
AcDbEllipse
 62
7
  6
CONTINUOUS
 10
-14.0188604913
 20
9.4927775655
 30
0.0
 11
0.0
 21
423.7
 31
0.0
 40
0.0174550649
 41
-1.6103149114
 42
-1.60848535
  0
ELLIPSE
  5
4A7
100
AcDbEntity
  8
RACCORDO
100
AcDbEllipse
 62
7
  6
CONTINUOUS
 10
23.2226932977
 20
-7.8115328663
 30
0.0
 11
-0.0300136675
 21
0.3031910442
 31
0.0
 40
0.9846622838
 41
-3.2387599651
 42
-1.6709942215
  0
ELLIPSE
  5
4A8
100
AcDbEntity
  8
RACCORDO
100
AcDbEllipse
 62
7
  6
CONTINUOUS
 10
-23.5492872016
 20
-7.8115328663
 30
0.0
 11
0.0300136675
 21
0.3031910442
 31
0.0
 40
0.9846622838
 41
-4.6121910857
 42
-3.0444253421
  0
ELLIPSE
  5
4A9
100
AcDbEntity
  8
RACCORDO
100
AcDbEllipse
 62
7
  6
CONTINUOUS
 10
-19.7081061309
 20
8.0875410461
 30
0.0
 11
0.3
 21
-0.0
 31
0.0
 40
0.0174550649
 41
0.0174532925
 42
1.5707963268
  0
ELLIPSE
  5
4AA
100
AcDbEntity
  8
RACCORDO
100
AcDbEllipse
 62
7
  6
CONTINUOUS
 10
-0.1077334127
 20
9.4927775655
 30
0.0
 11
0.0
 21
423.7
 31
0.0
 40
0.0174550649
 41
-4.6746999572
 42
-4.6728703958
  0
ELLIPSE
  5
4AB
100
AcDbEntity
  8
RACCORDO
100
AcDbEllipse
 62
7
  6
CONTINUOUS
 10
-25.2188604913
 20
9.4927775655
 30
0.0
 11
0.0
 21
423.7
 31
0.0
 40
0.0174550649
 41
-1.6103149114
 42
-1.60848535
  0
ELLIPSE
  5
4AC
100
AcDbEntity
  8
RACCORDO
100
AcDbEllipse
 62
7
  6
CONTINUOUS
 10
-11.3077334127
 20
9.4927775655
 30
0.0
 11
0.0
 21
423.7
 31
0.0
 40
0.0174550649
 41
-4.6746999572
 42
-4.6722996927
  0
ELLIPSE
  5
4AD
100
AcDbEntity
  8
DRAFT
100
AcDbEllipse
 62
7
  6
CONTINUOUS
 10
-29.8863155563
 20
9.4927775655
 30
0.0
 11
0.0
 21
423.7
 31
0.0
 40
0.0174550649
 41
-1.6090810457
 42
-1.6073450502
  0
ELLIPSE
  5
4AE
100
AcDbEntity
  8
DRAFT
100
AcDbEllipse
 62
7
  6
CONTINUOUS
 10
31.1503744315
 20
9.4927775655
 30
0.0
 11
0.0
 21
423.7
 31
0.0
 40
0.0174550649
 41
-4.6861185815
 42
-4.6805882475
  0
ELLIPSE
  5
4AF
100
AcDbEntity
  8
DRAFT
100
AcDbEllipse
 62
7
  6
CONTINUOUS
 10
15.4230316645
 20
9.4927775655
 30
0.0
 11
0.0
 21
423.7
 31
0.0
 40
0.0174550649
 41
-1.6025970597
 42
-1.5970667257
  0
ELLIPSE
  5
4B0
100
AcDbEntity
  8
DRAFT
100
AcDbEllipse
 62
7
  6
CONTINUOUS
 10
-31.4769683355
 20
9.4927775655
 30
0.0
 11
0.0
 21
423.7
 31
0.0
 40
0.0174550649
 41
-1.6025970597
 42
-1.5970667257
  0
ELLIPSE
  5
4B1
100
AcDbEntity
  8
DRAFT
100
AcDbEllipse
 62
7
  6
CONTINUOUS
 10
-15.7496255685
 20
9.4927775655
 30
0.0
 11
0.0
 21
423.7
 31
0.0
 40
0.0174550649
 41
-4.6861185815
 42
-4.6805882475
  0
ELLIPSE
  5
4B2
100
AcDbEntity
  8
RACCORDO
100
AcDbEllipse
 62
7
  6
CONTINUOUS
 10
-19.9184877731
 20
8.0875410461
 30
0.0
 11
0.3
 21
-0.0
 31
0.0
 40
0.0174550649
 41
1.5707963268
 42
3.1241393611
  0
ELLIPSE
  5
4B3
100
AcDbEntity
  8
RACCORDO
100
AcDbEllipse
 62
7
  6
CONTINUOUS
 10
19.3815122269
 20
8.0875410461
 30
0.0
 11
0.3
 21
-0.0
 31
0.0
 40
0.0174550649
 41
1.5707963268
 42
3.1241393611
  0
ELLIPSE
  5
4B4
100
AcDbEntity
  8
RACCORDO
100
AcDbEllipse
 62
7
  6
CONTINUOUS
 10
-7.4924377338
 20
-7.2350363396
 30
0.0
 11
0.0
 21
0.3
 31
0.0
 40
0.0174550649
 41
-4.6728703958
 42
-3.3161255788
  0
ELLIPSE
  5
4B5
100
AcDbEntity
  8
RACCORDO
100
AcDbEllipse
 62
7
  6
CONTINUOUS
 10
-6.6341561702
 20
-7.2350363396
 30
0.0
 11
-0.0
 21
0.3
 31
0.0
 40
0.0174550649
 41
-2.9670597284
 42
-1.6103149114
  0
ELLIPSE
  5
4B6
100
AcDbEntity
  8
RACCORDO
100
AcDbEllipse
 62
7
  6
CONTINUOUS
 10
6.3075622662
 20
-7.2350363396
 30
0.0
 11
-0.0
 21
0.3
 31
0.0
 40
0.0174550649
 41
-4.6728703958
 42
-3.3161255788
  0
ELLIPSE
  5
4B7
100
AcDbEntity
  8
RACCORDO
100
AcDbEllipse
 62
7
  6
CONTINUOUS
 10
18.3658438298
 20
-7.2350363396
 30
0.0
 11
-0.0
 21
0.3
 31
0.0
 40
0.0174550649
 41
-2.9670597284
 42
-1.6103149114
  0
ELLIPSE
  5
4B8
100
AcDbEntity
  8
RACCORDO
100
AcDbEllipse
 62
7
  6
CONTINUOUS
 10
-17.8341561702
 20
-7.2350363396
 30
0.0
 11
0.0
 21
0.3
 31
0.0
 40
0.0174550649
 41
-2.9670597284
 42
-1.6103149114
  0
ELLIPSE
  5
4B9
100
AcDbEntity
  8
DRAFT
100
AcDbEllipse
 62
7
  6
CONTINUOUS
 10
-29.8863155563
 20
9.4927775655
 30
0.0
 11
0.0
 21
423.7
 31
0.0
 40
0.0174550649
 41
-1.5904371127
 42
-1.588683735
  0
ELLIPSE
  5
4BA
100
AcDbEntity
  8
RACCORDO
100
AcDbEllipse
 62
7
  6
CONTINUOUS
 10
-22.8430162608
 20
-6.6775488241
 30
0.0
 11
0.3
 21
0.0
 31
0.0
 40
0.0174550649
 41
0.0174532925
 42
1.5707963268
  0
ELLIPSE
  5
4BB
100
AcDbEntity
  8
RACCORDO
100
AcDbEllipse
 62
7
  6
CONTINUOUS
 10
-22.8430162608
 20
-6.0368960448
 30
0.0
 11
0.3
 21
0.0
 31
0.0
 40
0.0174550649
 41
-1.5707963268
 42
-0.0174532925
  0
ELLIPSE
  5
4BC
100
AcDbEntity
  8
RACCORDO
100
AcDbEllipse
 62
7
  6
CONTINUOUS
 10
-22.8430162608
 20
1.2224511759
 30
0.0
 11
0.3
 21
-0.0
 31
0.0
 40
0.0174550649
 41
0.0174532925
 42
1.5707963268
  0
ELLIPSE
  5
4BD
100
AcDbEntity
  8
RACCORDO
100
AcDbEllipse
 62
7
  6
CONTINUOUS
 10
-22.8430162608
 20
1.8631039552
 30
0.0
 11
0.3
 21
0.0
 31
0.0
 40
0.0174550649
 41
-1.5707963268
 42
-0.0174532925
  0
ELLIPSE
  5
4BE
100
AcDbEntity
  8
RACCORDO
100
AcDbEllipse
 62
7
  6
CONTINUOUS
 10
22.5164223568
 20
-6.0368960448
 30
0.0
 11
0.3
 21
0.0
 31
0.0
 40
0.0174550649
 41
-3.1241393611
 42
-1.5707963268
  0
ELLIPSE
  5
4BF
100
AcDbEntity
  8
RACCORDO
100
AcDbEllipse
 62
7
  6
CONTINUOUS
 10
22.5164223568
 20
-6.6775488241
 30
0.0
 11
0.3
 21
-0.0
 31
0.0
 40
0.0174550649
 41
1.5707963268
 42
3.1241393611
  0
ELLIPSE
  5
4C0
100
AcDbEntity
  8
RACCORDO
100
AcDbEllipse
 62
7
  6
CONTINUOUS
 10
22.5164223568
 20
1.8631039552
 30
0.0
 11
0.3
 21
0.0
 31
0.0
 40
0.0174550649
 41
-3.1241393611
 42
-1.5707963268
  0
ELLIPSE
  5
4C1
100
AcDbEntity
  8
RACCORDO
100
AcDbEllipse
 62
7
  6
CONTINUOUS
 10
22.5164223568
 20
1.2224511759
 30
0.0
 11
0.3
 21
0.0
 31
0.0
 40
0.0174550649
 41
1.5707963268
 42
3.1241393611
  0
ELLIPSE
  5
4C2
100
AcDbEntity
  8
RACCORDO
100
AcDbEllipse
 62
7
  6
CONTINUOUS
 10
-12.8402783477
 20
9.4927775655
 30
0.0
 11
0.0
 21
423.7
 31
0.0
 40
0.0174550649
 41
-4.7090312901
 42
-4.6981756364
  0
ELLIPSE
  5
4C3
100
AcDbEntity
  8
RACCORDO
100
AcDbEllipse
 62
7
  6
CONTINUOUS
 10
19.5918938691
 20
8.0875410461
 30
0.0
 11
0.3
 21
0.0
 31
0.0
 40
0.0174550649
 41
0.0174532925
 42
1.5707963268
  0
ELLIPSE
  5
4C4
100
AcDbEntity
  8
RACCORDO
100
AcDbEllipse
 62
7
  6
CONTINUOUS
 10
-26.7863155563
 20
9.4927775655
 30
0.0
 11
0.0
 21
423.7
 31
0.0
 40
0.0174550649
 41
-1.5850096708
 42
-1.5741540171
  0
ELLIPSE
  5
4C5
100
AcDbEntity
  8
RACCORDO
100
AcDbEllipse
 62
7
  6
CONTINUOUS
 10
26.4597216523
 20
9.4927775655
 30
0.0
 11
0.0
 21
423.7
 31
0.0
 40
0.0174550649
 41
-4.7090312901
 42
-4.6981756364
  0
ELLIPSE
  5
4C6
100
AcDbEntity
  8
RACCORDO
100
AcDbEllipse
 62
7
  6
CONTINUOUS
 10
12.5136844437
 20
9.4927775655
 30
0.0
 11
0.0
 21
423.7
 31
0.0
 40
0.0174550649
 41
-1.5850096708
 42
-1.5741540171
  0
ELLIPSE
  5
4C7
100
AcDbEntity
  8
RACCORDO
100
AcDbEllipse
 62
7
  6
CONTINUOUS
 10
-3.7032346905
 20
5.698014085
 30
0.0
 11
0.3
 21
-0.0
 31
0.0
 40
0.0174550649
 41
-2.7925268032
 42
-1.5707963268
  0
ELLIPSE
  5
4C8
100
AcDbEntity
  8
RACCORDO
100
AcDbEllipse
 62
7
  6
CONTINUOUS
 10
3.3766407865
 20
5.698014085
 30
0.0
 11
0.3
 21
0.0
 31
0.0
 40
0.0174550649
 41
-1.5707963268
 42
-0.3490658504
  0
ELLIPSE
  5
4C9
100
AcDbEntity
  8
RACCORDO
100
AcDbEllipse
 62
7
  6
CONTINUOUS
 10
-3.7032346905
 20
4.0875410461
 30
0.0
 11
0.3
 21
-0.0
 31
0.0
 40
0.0174550649
 41
1.5707963268
 42
2.7925268032
  0
ELLIPSE
  5
4CA
100
AcDbEntity
  8
RACCORDO
100
AcDbEllipse
 62
7
  6
CONTINUOUS
 10
3.3766407865
 20
4.0875410461
 30
0.0
 11
0.3
 21
0.0
 31
0.0
 40
0.0174550649
 41
0.3490658504
 42
1.5707963268
  0
ELLIPSE
  5
4CB
100
AcDbEntity
  8
RACCORDO
100
AcDbEllipse
 62
7
  6
CONTINUOUS
 10
-18.1581061309
 20
-7.7811395865
 30
0.0
 11
0.3
 21
0.0
 31
0.0
 40
0.1763269807
 41
-1.5707963268
 42
-0.0174532925
  0
ELLIPSE
  5
4CC
100
AcDbEntity
  8
RACCORDO
100
AcDbEllipse
 62
7
  6
CONTINUOUS
 10
-18.3684877731
 20
-7.7811395865
 30
0.0
 11
0.3
 21
0.0
 31
0.0
 40
0.1763269807
 41
-3.1241393611
 42
-1.5707963268
  0
ELLIPSE
  5
4CD
100
AcDbEntity
  8
RACCORDO
100
AcDbEllipse
 62
7
  6
CONTINUOUS
 10
17.8315122269
 20
-7.7811395865
 30
0.0
 11
0.3
 21
0.0
 31
0.0
 40
0.1763269807
 41
-3.1241393611
 42
-1.5707963268
  0
ELLIPSE
  5
4CE
100
AcDbEntity
  8
RACCORDO
100
AcDbEllipse
 62
7
  6
CONTINUOUS
 10
-23.8615514455
 20
8.3352215497
 30
0.0
 11
0.0
 21
0.3
 31
0.0
 40
0.0174550649
 41
-3.1241393611
 42
-1.5707963268
  0
ELLIPSE
  5
4CF
100
AcDbEntity
  8
RACCORDO
100
AcDbEllipse
 62
7
  6
CONTINUOUS
 10
23.5349575415
 20
8.3352215497
 30
0.0
 11
0.0
 21
0.3
 31
0.0
 40
0.0174550649
 41
-4.7123889804
 42
-3.1590459461
  0
ELLIPSE
  5
4D0
100
AcDbEntity
  8
RACCORDO
100
AcDbEllipse
 62
7
  6
CONTINUOUS
 10
-6.9581061309
 20
-7.7811395865
 30
0.0
 11
0.3
 21
0.0
 31
0.0
 40
0.1763269807
 41
-1.5707963268
 42
-0.0174532925
  0
ELLIPSE
  5
4D1
100
AcDbEntity
  8
RACCORDO
100
AcDbEllipse
 62
7
  6
CONTINUOUS
 10
-7.1684877731
 20
-7.7811395865
 30
0.0
 11
0.3
 21
-0.0
 31
0.0
 40
0.1763269807
 41
-3.1241393611
 42
-1.5707963268
  0
ELLIPSE
  5
4D2
100
AcDbEntity
  8
RACCORDO
100
AcDbEllipse
 62
7
  6
CONTINUOUS
 10
6.6315122269
 20
-7.7811395865
 30
0.0
 11
0.3
 21
-0.0
 31
0.0
 40
0.1763269807
 41
-3.1241393611
 42
-1.5707963268
  0
ELLIPSE
  5
4D3
100
AcDbEntity
  8
RACCORDO
100
AcDbEllipse
 62
7
  6
CONTINUOUS
 10
6.8418938691
 20
-7.7811395865
 30
0.0
 11
0.3
 21
0.0
 31
0.0
 40
0.1763269807
 41
-1.5707963268
 42
-0.0174532925
  0
ELLIPSE
  5
4D4
100
AcDbEntity
  8
RACCORDO
100
AcDbEllipse
 62
7
  6
CONTINUOUS
 10
18.0418938691
 20
-7.7811395865
 30
0.0
 11
0.3
 21
-0.0
 31
0.0
 40
0.1763269807
 41
-1.5707963268
 42
-0.0174532925
  0
ENDSEC
  0
SECTION
  2
OBJECTS
  0
DICTIONARY
  5
C
100
AcDbDictionary
280
0
281
1
  3
ACAD_GROUP
350
D
  3
ACAD_MLINESTYLE
350
17
  3
ACAD_LAYOUT
350
1A
  3
ACAD_PLOTSETTINGS
350
19
  3
ACAD_PLOTSTYLENAME
350
E
  0
DICTIONARY
  5
D
102
{ACAD_REACTORS
330
C
102
}
100
AcDbDictionary
280
0
281
1
  0
ACDBDICTIONARYWDFLT
  5
E
102
{ACAD_REACTORS
330
C
102
}
100
AcDbDictionary
281
1
  3
Normal
350
F
100
AcDbDictionaryWithDefault
340
F
  0
DICTIONARY
  5
17
102
{ACAD_REACTORS
330
C
102
}
100
AcDbDictionary
280
0
281
1
  3
Standard
350
18
  0
DICTIONARY
  5
19
102
{ACAD_REACTORS
330
C
102
}
100
AcDbDictionary
281
1
  0
DICTIONARY
  5
1A
102
{ACAD_REACTORS
330
C
102
}
100
AcDbDictionary
281
1
  3
Model
350
4D5
  3
Layout1
350
4D6
  0
ACDBPLACEHOLDER
  5
F
102
{ACAD_REACTORS
330
E
102
}
  0
MLINESTYLE
  5
18
102
{ACAD_REACTORS
330
17
102
}
100
AcDbMlineStyle
  2
STANDARD
 70
0
  3

 62
256
 51
90.0
 52
90.0
 71
2
 49
0.5
 62
256
  6
BYLAYER
 49
-0.5
 62
256
  6
BYLAYER
  0
LAYOUT
  5
4D5
102
{ACAD_REACTORS
330
1A
102
}
100
AcDbPlotSettings
  1

  2
none_device
  4
ISO_A4_(297.00_x_210.00_MM)
  6

 40
0.0
 41
0.0
 42
0.0
 43
0.0
 44
297.0
 45
210.0
 46
0.0
 47
0.0
 48
0.0
 49
0.0
140
0.0
141
0.0
142
1.0
143
1.0
 70
1024
 72
1
 73
0
 74
0
  7

 75
0
147
1.0
148
0.0
149
0.0
100
AcDbLayout
  1
Model
 70
0
 71
0
 10
0.0
 20
0.0
 11
297.0
 21
210.0
 12
0.0
 22
0.0
 32
0.0
 14
0.0
 24
0.0
 34
0.0
 15
0.0
 25
0.0
 35
0.0
146
0.0
 13
0.0
 23
0.0
 33
0.0
 16
1.0
 26
0.0
 36
0.0
 17
0.0
 27
1.0
 37
0.0
 76
0
330
210
345
0
346
0
  0
LAYOUT
  5
4D6
102
{ACAD_REACTORS
330
1A
102
}
100
AcDbPlotSettings
  1

  2
none_device
  4
ISO_A4_(297.00_x_210.00_MM)
  6

 40
0.0
 41
0.0
 42
0.0
 43
0.0
 44
297.0
 45
210.0
 46
0.0
 47
0.0
 48
0.0
 49
0.0
140
0.0
141
0.0
142
1.0
143
1.0
 70
0
 72
1
 73
0
 74
0
  7

 75
0
147
1.0
148
0.0
149
0.0
100
AcDbLayout
  1
Layout1
 70
0
 71
1
 10
0.0
 20
0.0
 11
297.0
 21
210.0
 12
0.0
 22
0.0
 32
0.0
 14
0.0
 24
0.0
 34
0.0
 15
0.0
 25
0.0
 35
0.0
146
0.0
 13
0.0
 23
0.0
 33
0.0
 16
1.0
 26
0.0
 36
0.0
 17
0.0
 27
1.0
 37
0.0
 76
0
330
211
345
0
346
0
  0
ENDSEC
  0
EOF
