  0
SECTION
  2
HEADER
  9
$ACADVER
  1
AC1015
  9
$DWGCODEPAGE
  3
ANSI_1252
  9
$EXTMAX
 10
297.0
 20
210.0
 30
0.0
  9
$EXTMIN
 10
0.0
 20
0.0
 30
0.0
  9
$LIMMIN
 10
0.0
 20
0.0
  9
$LIMMAX
 10
297.0
 20
210.0
  9
$VIEWCTR
 10
148.5
 20
105.0
  9
$VIEWSIZE
 40
210.0
  9
$CLAYER
  8
0
  9
$LTSCALE
 40
16.335
  9
$CELTYPE
  6
BYLAYER
  9
$DIMSCALE
 40
1.0
  9
$DIMASZ
 40
3.0
  9
$DIMEXO
 40
1.85625
  9
$DIMDLI
 40
11.286
  9
$DIMEXE
 40
5.346
  9
$DIMCEN
 40
2.673
  9
$DIMLFAC
 40
1.0
  9
$DIMBLK
  1
_FILLED
  9
$DIMTXT
 40
3.0
  9
$DIMTOL
 70
1
  9
$DIMLIM
 70
0
  9
$DIMTFAC
 40
1.0
  9
$DIMTP
 40
0.01
  9
$DIMTM
 40
0.01
  9
$PDMODE
 70
3
  9
$PDSIZE
 40
3.0
  9
$HANDSEED
  5
788
  9
$TILEMODE
 70
1
  9
$MEASUREMENT
 70
1
  9
$INSUNITS
 70
4
  0
ENDSEC
  0
SECTION
  2
CLASSES
  0
CLASS
  1
ACDBDICTIONARYWDFLT
  2
AcDbDictionaryWithDefault
  3
AutoCAD 2000
 90
0
280
0
281
0
  0
CLASS
  1
ACDBPLACEHOLDER
  2
AcDbPlaceHolder
  3
AutoCAD 2000
 90
0
280
0
281
0
  0
CLASS
  1
LAYOUT
  2
AcDbLayout
  3
AutoCAD 2000
 90
0
280
0
281
0
  0
ENDSEC
  0
SECTION
  2
TABLES
  0
TABLE
  2
VPORT
  5
8
100
AcDbSymbolTable
 70
2
  0
VPORT
  5
1F4
100
AcDbSymbolTableRecord
100
AcDbViewportTableRecord
  2
*ACTIVE
 70
0
 10
0.0
 20
0.0
 11
1.0
 21
1.0
 12
148.5
 22
105.0
 13
0.0
 23
0.0
 14
1.0
 24
1.0
 15
0.0
 25
0.0
 16
0.0
 26
0.0
 36
1.0
 17
0.0
 27
0.0
 37
0.0
 40
210.0
 41
1.4142857143
 42
50.0
 43
0.0
 44
0.0
 50
0.0
 51
0.0
 71
0
 72
100
 73
1
 74
1
 75
0
 76
0
 77
0
 78
0
  0
ENDTAB
  0
TABLE
  2
LTYPE
  5
5
100
AcDbSymbolTable
 70
6
  0
LTYPE
  5
14
100
AcDbSymbolTableRecord
100
AcDbLinetypeTableRecord
  2
BYBLOCK
 70
0
  3

 72
65
 73
0
 40
0.0
  0
LTYPE
  5
15
100
AcDbSymbolTableRecord
100
AcDbLinetypeTableRecord
  2
BYLAYER
 70
0
  3

 72
65
 73
0
 40
0.0
  0
LTYPE
  5
16
100
AcDbSymbolTableRecord
100
AcDbLinetypeTableRecord
  2
CONTINUOUS
 70
64
  3
Solid line
 72
65
 73
0
 40
0.0
  0
LTYPE
  5
1F5
100
AcDbSymbolTableRecord
100
AcDbLinetypeTableRecord
  2
CENTER
 70
64
  3
____ _ ____ _ ____ _ ____ _ ____ _ ____ _ ____
 72
65
 73
4
 40
0.6
 49
0.375
 74
0
 49
-0.075
 74
0
 49
0.075
 74
0
 49
-0.075
 74
0
  0
LTYPE
  5
1F6
100
AcDbSymbolTableRecord
100
AcDbLinetypeTableRecord
  2
HIDDEN
 70
64
  3
- - - - - - - - - - - - - - - - - - - -
 72
65
 73
2
 40
0.2
 49
0.1
 74
0
 49
-0.1
 74
0
  0
LTYPE
  5
1F7
100
AcDbSymbolTableRecord
100
AcDbLinetypeTableRecord
  2
PHANTOM
 70
64
  3
_____ _ _ _____ _ _ _____ _ _ _____
 72
65
 73
6
 40
0.8
 49
0.45
 74
0
 49
-0.05
 74
0
 49
0.1
 74
0
 49
-0.05
 74
0
 49
0.1
 74
0
 49
-0.05
 74
0
  0
LTYPE
  5
1F8
100
AcDbSymbolTableRecord
100
AcDbLinetypeTableRecord
  2
DOT
 70
64
  3
. . . . . . . . . . . . . . . . . . . .
 72
65
 73
2
 40
0.2
 49
0.1
 74
0
 49
-0.1
 74
0
  0
LTYPE
  5
1F9
100
AcDbSymbolTableRecord
100
AcDbLinetypeTableRecord
  2
DASHED
 70
64
  3
- - - - - - - - - - - - - - - - - - - -
 72
65
 73
2
 40
0.2
 49
0.1
 74
0
 49
-0.1
 74
0
  0
ENDTAB
  0
TABLE
  2
LAYER
  5
2
100
AcDbSymbolTable
 70
36
  0
LAYER
  5
10
100
AcDbSymbolTableRecord
100
AcDbLayerTableRecord
  2
0
 70
0
 62
7
  6
CONTINUOUS
370
-3
390
F
  0
LAYER
  5
1FA
100
AcDbSymbolTableRecord
100
AcDbLayerTableRecord
  2
DEFAULT_1
 70
0
 62
7
  6
CENTER
370
-3
390
F
  0
LAYER
  5
1FB
100
AcDbSymbolTableRecord
100
AcDbLayerTableRecord
  2
DEFAULT_2
 70
0
 62
7
  6
HIDDEN
370
-3
390
F
  0
LAYER
  5
1FC
100
AcDbSymbolTableRecord
100
AcDbLayerTableRecord
  2
DEFAULT_3
 70
0
 62
7
  6
PHANTOM
370
-3
390
F
  0
LAYER
  5
1FD
100
AcDbSymbolTableRecord
100
AcDbLayerTableRecord
  2
ASSI
 70
0
 62
7
  6
CONTINUOUS
370
-3
390
F
  0
LAYER
  5
1FE
100
AcDbSymbolTableRecord
100
AcDbLayerTableRecord
  2
COORDINATE
 70
0
 62
7
  6
CONTINUOUS
370
-3
390
F
  0
LAYER
  5
1FF
100
AcDbSymbolTableRecord
100
AcDbLayerTableRecord
  2
COORD_ORIGINE
 70
0
 62
7
  6
CONTINUOUS
370
-3
390
F
  0
LAYER
  5
200
100
AcDbSymbolTableRecord
100
AcDbLayerTableRecord
  2
COPY_PUBLISH
 70
0
 62
7
  6
CONTINUOUS
370
-3
390
F
  0
LAYER
  5
201
100
AcDbSymbolTableRecord
100
AcDbLayerTableRecord
  2
COSMETIC
 70
0
 62
7
  6
CONTINUOUS
370
-3
390
F
  0
LAYER
  5
202
100
AcDbSymbolTableRecord
100
AcDbLayerTableRecord
  2
CURVE
 70
0
 62
7
  6
CONTINUOUS
370
-3
390
F
  0
LAYER
  5
203
100
AcDbSymbolTableRecord
100
AcDbLayerTableRecord
  2
DRAFT
 70
0
 62
7
  6
CONTINUOUS
370
-3
390
F
  0
LAYER
  5
204
100
AcDbSymbolTableRecord
100
AcDbLayerTableRecord
  2
IGES
 70
0
 62
7
  6
CONTINUOUS
370
-3
390
F
  0
LAYER
  5
205
100
AcDbSymbolTableRecord
100
AcDbLayerTableRecord
  2
IMPORT_IGES
 70
0
 62
7
  6
CONTINUOUS
370
-3
390
F
  0
LAYER
  5
206
100
AcDbSymbolTableRecord
100
AcDbLayerTableRecord
  2
INTF_12
 70
0
 62
7
  6
CONTINUOUS
370
-3
390
F
  0
LAYER
  5
207
100
AcDbSymbolTableRecord
100
AcDbLayerTableRecord
  2
NOTE
 70
0
 62
7
  6
CONTINUOUS
370
-3
390
F
  0
LAYER
  5
208
100
AcDbSymbolTableRecord
100
AcDbLayerTableRecord
  2
PIANI
 70
0
 62
7
  6
CONTINUOUS
370
-3
390
F
  0
LAYER
  5
209
100
AcDbSymbolTableRecord
100
AcDbLayerTableRecord
  2
PIANI_ORIGINE
 70
0
 62
7
  6
CONTINUOUS
370
-3
390
F
  0
LAYER
  5
20A
100
AcDbSymbolTableRecord
100
AcDbLayerTableRecord
  2
RACCORDO
 70
0
 62
7
  6
CONTINUOUS
370
-3
390
F
  0
LAYER
  5
20B
100
AcDbSymbolTableRecord
100
AcDbLayerTableRecord
  2
SMUSSO
 70
0
 62
7
  6
CONTINUOUS
370
-3
390
F
  0
LAYER
  5
20C
100
AcDbSymbolTableRecord
100
AcDbLayerTableRecord
  2
SNAPLINE
 70
0
 62
7
  6
CONTINUOUS
370
-3
390
F
  0
LAYER
  5
20D
100
AcDbSymbolTableRecord
100
AcDbLayerTableRecord
  2
SUPERFICI
 70
0
 62
7
  6
CONTINUOUS
370
-3
390
F
  0
LAYER
  5
20E
100
AcDbSymbolTableRecord
100
AcDbLayerTableRecord
  2
TRASH
 70
0
 62
7
  6
CONTINUOUS
370
-3
390
F
  0
ENDTAB
  0
TABLE
  2
STYLE
  5
3
100
AcDbSymbolTable
 70
1
  0
STYLE
  5
11
100
AcDbSymbolTableRecord
100
AcDbTextStyleTableRecord
  2
STANDARD
 70
0
 40
0.0
 41
0.8
 50
0.0
 71
0
 42
0.2
  3
txt
  4

  0
STYLE
  5
20F
100
AcDbSymbolTableRecord
100
AcDbTextStyleTableRecord
  2
TEXTSTYLE_1
 70
0
 40
0.0
 41
0.8
 50
0.0
 71
0
 42
0.2
  3
gdt
  4

  0
ENDTAB
  0
TABLE
  2
VIEW
  5
6
100
AcDbSymbolTable
 70
0
  0
ENDTAB
  0
TABLE
  2
UCS
  5
7
100
AcDbSymbolTable
 70
0
  0
ENDTAB
  0
TABLE
  2
APPID
  5
9
100
AcDbSymbolTable
 70
1
  0
APPID
  5
210
100
AcDbSymbolTableRecord
100
AcDbRegAppTableRecord
  2
ACAD
 70
0
  0
ENDTAB
  0
TABLE
  2
BLOCK_RECORD
  5
1
100
AcDbSymbolTable
 70
0
  0
BLOCK_RECORD
  5
211
100
AcDbSymbolTableRecord
100
AcDbBlockTableRecord
  2
*Model_Space
  0
BLOCK_RECORD
  5
212
100
AcDbSymbolTableRecord
100
AcDbBlockTableRecord
  2
*Paper_Space
  0
ENDTAB
  0
TABLE
  2
DIMSTYLE
  5
A
100
AcDbSymbolTable
 70
1
100
AcDbDimStyleTable
 71
0
  0
DIMSTYLE
105
213
100
AcDbSymbolTableRecord
100
AcDbDimStyleTableRecord
  2
STANDARD
 70
0
  3

  4

 40
1.0
 41
3.0
 42
0.0625
 43
0.38
 44
0.18
 45
0.0
 46
0.0
 47
0.01
 48
0.01
140
3.0
141
0.09
142
0.0
143
25.4
144
1.0
145
0.0
146
1.0
147
0.09
 71
1.0
 72
0.0
 73
0
 74
0
 75
0
 76
0
 77
1
 78
8
170
0
171
2
172
0
173
0
174
0
175
0
176
0
177
0
178
0
270
2
271
2
272
2
273
2
274
2
275
0
280
0
281
0
282
0
283
1
284
8
285
0
286
0
287
3
288
0
340
11
  0
ENDTAB
  0
ENDSEC
  0
SECTION
  2
BLOCKS
  0
BLOCK
  5
20
100
AcDbEntity
  8
0
100
AcDbBlockBegin
  2
*Model_Space
 70
0
 10
0.0
 20
0.0
 30
0.0
  3
*Model_Space
  1

  0
ENDBLK
  5
21
100
AcDbEntity
  8
0
100
AcDbBlockEnd
  0
BLOCK
  5
1C
100
AcDbEntity
  8
0
100
AcDbBlockBegin
  2
*Paper_Space
 70
0
 10
0.0
 20
0.0
 30
0.0
  3
*Paper_Space
  1

  0
ENDBLK
  5
1D
100
AcDbEntity
  8
0
100
AcDbBlockEnd
  0
ENDSEC
  0
SECTION
  2
ENTITIES
  0
LINE
  5
214
100
AcDbEntity
  8
RACCORDO
100
AcDbLine
 62
7
  6
CONTINUOUS
 10
-24.7791872978
 20
-8.9922574629
 11
-24.7926803756
 21
-1.637483368
  0
LINE
  5
215
100
AcDbEntity
  8
ASSI
100
AcDbLine
 62
7
  6
CONTINUOUS
 10
-24.7791872978
 20
-8.9922574629
 11
-24.7926803756
 21
-1.637483368
  0
LINE
  5
216
100
AcDbEntity
  8
DRAFT
100
AcDbLine
 62
7
  6
CONTINUOUS
 10
-24.7926803756
 20
7.9916778478
 11
-24.7926803756
 21
-1.637483368
  0
LINE
  5
217
100
AcDbEntity
  8
ASSI
100
AcDbLine
 62
7
  6
CONTINUOUS
 10
-24.7926803756
 20
7.9916778478
 11
-24.7926803756
 21
-1.637483368
  0
LINE
  5
218
100
AcDbEntity
  8
RACCORDO
100
AcDbLine
 62
7
  6
CONTINUOUS
 10
-24.7856983496
 20
8.2934690528
 11
-24.7856983496
 21
8.9940811188
  0
LINE
  5
219
100
AcDbEntity
  8
ASSI
100
AcDbLine
 62
7
  6
CONTINUOUS
 10
-24.7856983496
 20
8.2934690528
 11
-24.7856983496
 21
8.9940811188
  0
LINE
  5
21A
100
AcDbEntity
  8
DRAFT
100
AcDbLine
 62
7
  6
CONTINUOUS
 10
-23.6787181561
 20
-9.2469763092
 11
-23.6881727905
 21
-4.0944673463
  0
LINE
  5
21B
100
AcDbEntity
  8
ASSI
100
AcDbLine
 62
7
  6
CONTINUOUS
 10
-23.6787181561
 20
-9.2469763092
 11
-23.6881727905
 21
-4.0944673463
  0
LINE
  5
21C
100
AcDbEntity
  8
DRAFT
100
AcDbLine
 62
7
  6
CONTINUOUS
 10
-23.9881727897
 20
-4.0944673455
 11
-23.9926803756
 21
-1.5989749314
  0
LINE
  5
21D
100
AcDbEntity
  8
ASSI
100
AcDbLine
 62
7
  6
CONTINUOUS
 10
-23.9881727897
 20
-4.0944673455
 11
-23.9926803756
 21
-1.5989749314
  0
LINE
  5
21E
100
AcDbEntity
  8
DRAFT
100
AcDbLine
 62
7
  6
CONTINUOUS
 10
-23.6926803756
 20
7.9916778478
 11
-23.6926803756
 21
-1.5989749314
  0
LINE
  5
21F
100
AcDbEntity
  8
ASSI
100
AcDbLine
 62
7
  6
CONTINUOUS
 10
-23.6926803756
 20
7.9916778478
 11
-23.6926803756
 21
-1.5989749314
  0
LINE
  5
220
100
AcDbEntity
  8
RACCORDO
100
AcDbLine
 62
7
  6
CONTINUOUS
 10
-23.6856983496
 20
8.2934690528
 11
-23.6856983496
 21
8.1033902634
  0
LINE
  5
221
100
AcDbEntity
  8
ASSI
100
AcDbLine
 62
7
  6
CONTINUOUS
 10
-23.6856983496
 20
8.2934690528
 11
-23.6856983496
 21
8.1033902634
  0
LINE
  5
222
100
AcDbEntity
  8
RACCORDO
100
AcDbLine
 62
7
  6
CONTINUOUS
 10
-23.6787163236
 20
-9.241996636
 11
-23.6787163236
 21
-7.8542085623
  0
LINE
  5
223
100
AcDbEntity
  8
ASSI
100
AcDbLine
 62
7
  6
CONTINUOUS
 10
-23.6787163236
 20
-9.241996636
 11
-23.6787163236
 21
-7.8542085623
  0
LINE
  5
224
100
AcDbEntity
  8
DRAFT
100
AcDbLine
 62
7
  6
CONTINUOUS
 10
-23.6752253107
 20
-4.7070827756
 11
-23.6752253107
 21
-4.0815198665
  0
LINE
  5
225
100
AcDbEntity
  8
ASSI
100
AcDbLine
 62
7
  6
CONTINUOUS
 10
-23.6752253107
 20
-4.7070827756
 11
-23.6752253107
 21
-4.0815198665
  0
LINE
  5
226
100
AcDbEntity
  8
DRAFT
100
AcDbLine
 62
7
  6
CONTINUOUS
 10
-23.6752253107
 20
-1.6164299963
 11
-23.6752253107
 21
-0.9908670872
  0
LINE
  5
227
100
AcDbEntity
  8
ASSI
100
AcDbLine
 62
7
  6
CONTINUOUS
 10
-23.6752253107
 20
-1.6164299963
 11
-23.6752253107
 21
-0.9908670872
  0
LINE
  5
228
100
AcDbEntity
  8
DRAFT
100
AcDbLine
 62
7
  6
CONTINUOUS
 10
-23.6682432847
 20
1.8161149387
 11
-23.6682432847
 21
1.1859351985
  0
LINE
  5
229
100
AcDbEntity
  8
ASSI
100
AcDbLine
 62
7
  6
CONTINUOUS
 10
-23.6682432847
 20
1.8161149387
 11
-23.6682432847
 21
1.1859351985
  0
LINE
  5
22A
100
AcDbEntity
  8
DRAFT
100
AcDbLine
 62
7
  6
CONTINUOUS
 10
-23.6682432847
 20
-6.0838850613
 11
-23.6682432847
 21
-6.7140648015
  0
LINE
  5
22B
100
AcDbEntity
  8
ASSI
100
AcDbLine
 62
7
  6
CONTINUOUS
 10
-23.6682432847
 20
-6.0838850613
 11
-23.6682432847
 21
-6.7140648015
  0
LINE
  5
22C
100
AcDbEntity
  8
DRAFT
100
AcDbLine
 62
7
  6
CONTINUOUS
 10
-22.9101354405
 20
-4.0815198665
 11
-22.9101354405
 21
-1.6164299963
  0
LINE
  5
22D
100
AcDbEntity
  8
ASSI
100
AcDbLine
 62
7
  6
CONTINUOUS
 10
-22.9101354405
 20
-4.0815198665
 11
-22.9101354405
 21
-1.6164299963
  0
LINE
  5
22E
100
AcDbEntity
  8
RACCORDO
100
AcDbLine
 62
253
  6
CONTINUOUS
 10
-23.3170138643
 20
1.8725343426
 11
-23.3158732304
 21
8.0283743527
  0
LINE
  5
22F
100
AcDbEntity
  8
ASSI
100
AcDbLine
 62
253
  6
CONTINUOUS
 10
-23.3170138643
 20
1.8725343426
 11
-23.3158732304
 21
8.0283743527
  0
LINE
  5
230
100
AcDbEntity
  8
RACCORDO
100
AcDbLine
 62
253
  6
CONTINUOUS
 10
-23.3180494892
 20
-0.928502016
 11
-23.3172570007
 21
1.1297591034
  0
LINE
  5
231
100
AcDbEntity
  8
ASSI
100
AcDbLine
 62
253
  6
CONTINUOUS
 10
-23.3180494892
 20
-0.928502016
 11
-23.3172570007
 21
1.1297591034
  0
LINE
  5
232
100
AcDbEntity
  8
RACCORDO
100
AcDbLine
 62
253
  6
CONTINUOUS
 10
-23.3207671525
 20
-6.0312216056
 11
-23.3199940958
 21
-4.7675018624
  0
LINE
  5
233
100
AcDbEntity
  8
ASSI
100
AcDbLine
 62
253
  6
CONTINUOUS
 10
-23.3207671525
 20
-6.0312216056
 11
-23.3199940958
 21
-4.7675018624
  0
LINE
  5
234
100
AcDbEntity
  8
RACCORDO
100
AcDbLine
 62
253
  6
CONTINUOUS
 10
-23.3217695787
 20
-7.530256702
 11
-23.3212470906
 21
-6.7662479796
  0
LINE
  5
235
100
AcDbEntity
  8
ASSI
100
AcDbLine
 62
253
  6
CONTINUOUS
 10
-23.3217695787
 20
-7.530256702
 11
-23.3212470906
 21
-6.7662479796
  0
LINE
  5
236
100
AcDbEntity
  8
RACCORDO
100
AcDbLine
 62
253
  6
CONTINUOUS
 10
-23.6787163236
 20
-7.8542085623
 11
-23.6215560482
 21
-7.2767888376
  0
LINE
  5
237
100
AcDbEntity
  8
ASSI
100
AcDbLine
 62
253
  6
CONTINUOUS
 10
-23.6787163236
 20
-7.8542085623
 11
-23.6215560482
 21
-7.2767888376
  0
LINE
  5
238
100
AcDbEntity
  8
RACCORDO
100
AcDbLine
 62
253
  6
CONTINUOUS
 10
-22.6723996844
 20
-6.7140648015
 11
-22.6723996844
 21
-6.0838850613
  0
LINE
  5
239
100
AcDbEntity
  8
ASSI
100
AcDbLine
 62
253
  6
CONTINUOUS
 10
-22.6723996844
 20
-6.7140648015
 11
-22.6723996844
 21
-6.0838850613
  0
LINE
  5
23A
100
AcDbEntity
  8
RACCORDO
100
AcDbLine
 62
253
  6
CONTINUOUS
 10
-22.6723996844
 20
1.1859351985
 11
-22.6723996844
 21
1.8161149387
  0
LINE
  5
23B
100
AcDbEntity
  8
ASSI
100
AcDbLine
 62
253
  6
CONTINUOUS
 10
-22.6723996844
 20
1.1859351985
 11
-22.6723996844
 21
1.8161149387
  0
LINE
  5
23C
100
AcDbEntity
  8
DRAFT
100
AcDbLine
 62
7
  6
CONTINUOUS
 10
-22.6426803756
 20
-4.7070827756
 11
-22.6426803756
 21
-0.9908670872
  0
LINE
  5
23D
100
AcDbEntity
  8
ASSI
100
AcDbLine
 62
7
  6
CONTINUOUS
 10
-22.6426803756
 20
-4.7070827756
 11
-22.6426803756
 21
-0.9908670872
  0
LINE
  5
23E
100
AcDbEntity
  8
DRAFT
100
AcDbLine
 62
7
  6
CONTINUOUS
 10
-22.3926803756
 20
-4.7675018621
 11
-22.3926803756
 21
-4.7328733784
  0
LINE
  5
23F
100
AcDbEntity
  8
ASSI
100
AcDbLine
 62
7
  6
CONTINUOUS
 10
-22.3926803756
 20
-4.7675018621
 11
-22.3926803756
 21
-4.7328733784
  0
LINE
  5
240
100
AcDbEntity
  8
DRAFT
100
AcDbLine
 62
7
  6
CONTINUOUS
 10
-22.3926803756
 20
-0.9650764844
 11
-22.3926803756
 21
-0.9285020162
  0
LINE
  5
241
100
AcDbEntity
  8
ASSI
100
AcDbLine
 62
7
  6
CONTINUOUS
 10
-22.3926803756
 20
-0.9650764844
 11
-22.3926803756
 21
-0.9285020162
  0
LINE
  5
242
100
AcDbEntity
  8
RACCORDO
100
AcDbLine
 62
253
  6
CONTINUOUS
 10
-22.3724453758
 20
-6.7192099312
 11
-22.3724453758
 21
-6.0787399316
  0
LINE
  5
243
100
AcDbEntity
  8
ASSI
100
AcDbLine
 62
253
  6
CONTINUOUS
 10
-22.3724453758
 20
-6.7192099312
 11
-22.3724453758
 21
-6.0787399316
  0
LINE
  5
244
100
AcDbEntity
  8
RACCORDO
100
AcDbLine
 62
253
  6
CONTINUOUS
 10
-22.3724453758
 20
1.1807900688
 11
-22.3724453758
 21
1.8212600684
  0
LINE
  5
245
100
AcDbEntity
  8
ASSI
100
AcDbLine
 62
253
  6
CONTINUOUS
 10
-22.3724453758
 20
1.1807900688
 11
-22.3724453758
 21
1.8212600684
  0
LINE
  5
246
100
AcDbEntity
  8
DRAFT
100
AcDbLine
 62
7
  6
CONTINUOUS
 10
-21.8426803756
 20
-4.7210468275
 11
-21.8426803756
 21
-0.9769030353
  0
LINE
  5
247
100
AcDbEntity
  8
ASSI
100
AcDbLine
 62
7
  6
CONTINUOUS
 10
-21.8426803756
 20
-4.7210468275
 11
-21.8426803756
 21
-0.9769030353
  0
LINE
  5
248
100
AcDbEntity
  8
DRAFT
100
AcDbLine
 62
7
  6
CONTINUOUS
 10
-21.3051463662
 20
9.2440430426
 11
-21.3051463662
 21
8.1033902634
  0
LINE
  5
249
100
AcDbEntity
  8
ASSI
100
AcDbLine
 62
7
  6
CONTINUOUS
 10
-21.3051463662
 20
9.2440430426
 11
-21.3051463662
 21
8.1033902634
  0
LINE
  5
24A
100
AcDbEntity
  8
DRAFT
100
AcDbLine
 62
7
  6
CONTINUOUS
 10
-21.0426803756
 20
9.1916778478
 11
-21.0426803756
 21
8.0510250686
  0
LINE
  5
24B
100
AcDbEntity
  8
ASSI
100
AcDbLine
 62
7
  6
CONTINUOUS
 10
-21.0426803756
 20
9.1916778478
 11
-21.0426803756
 21
8.0510250686
  0
LINE
  5
24C
100
AcDbEntity
  8
RACCORDO
100
AcDbLine
 62
253
  6
CONTINUOUS
 10
-23.3795799373
 20
-8.1579133468
 11
-23.3174465789
 21
-7.530256702
  0
LINE
  5
24D
100
AcDbEntity
  8
ASSI
100
AcDbLine
 62
253
  6
CONTINUOUS
 10
-23.3795799373
 20
-8.1579133468
 11
-23.3174465789
 21
-7.530256702
  0
LINE
  5
24E
100
AcDbEntity
  8
RACCORDO
100
AcDbLine
 62
7
  6
CONTINUOUS
 10
-23.6926803756
 20
7.9916778478
 11
-23.6908434792
 21
7.9935147442
  0
LINE
  5
24F
100
AcDbEntity
  8
ASSI
100
AcDbLine
 62
7
  6
CONTINUOUS
 10
-23.6926803756
 20
7.9916778478
 11
-23.6908434792
 21
7.9935147442
  0
LINE
  5
250
100
AcDbEntity
  8
RACCORDO
100
AcDbLine
 62
7
  6
CONTINUOUS
 10
-23.6212056369
 20
-6.7611024494
 11
-23.6682432847
 21
-6.7140648015
  0
LINE
  5
251
100
AcDbEntity
  8
ASSI
100
AcDbLine
 62
7
  6
CONTINUOUS
 10
-23.6212056369
 20
-6.7611024494
 11
-23.6682432847
 21
-6.7140648015
  0
LINE
  5
252
100
AcDbEntity
  8
RACCORDO
100
AcDbLine
 62
7
  6
CONTINUOUS
 10
-18.5268856301
 20
-7.530256702
 11
-18.4978255052
 21
-7.8238152825
  0
LINE
  5
253
100
AcDbEntity
  8
ASSI
100
AcDbLine
 62
7
  6
CONTINUOUS
 10
-18.5268856301
 20
-7.530256702
 11
-18.4978255052
 21
-7.8238152825
  0
LINE
  5
254
100
AcDbEntity
  8
RACCORDO
100
AcDbLine
 62
253
  6
CONTINUOUS
 10
-20.0313929343
 20
5.1853396437
 11
-20.0437355291
 21
5.8924464248
  0
LINE
  5
255
100
AcDbEntity
  8
ASSI
100
AcDbLine
 62
253
  6
CONTINUOUS
 10
-20.0313929343
 20
5.1853396437
 11
-20.0437355291
 21
5.8924464248
  0
LINE
  5
256
100
AcDbEntity
  8
RACCORDO
100
AcDbLine
 62
253
  6
CONTINUOUS
 10
-19.7314374853
 20
5.3974063425
 11
-19.7437814143
 21
6.1045895616
  0
LINE
  5
257
100
AcDbEntity
  8
ASSI
100
AcDbLine
 62
253
  6
CONTINUOUS
 10
-19.7314374853
 20
5.3974063425
 11
-19.7437814143
 21
6.1045895616
  0
LINE
  5
258
100
AcDbEntity
  8
RACCORDO
100
AcDbLine
 62
253
  6
CONTINUOUS
 10
-20.0478255052
 20
6.4581318498
 11
-20.0478255052
 21
8.045879939
  0
LINE
  5
259
100
AcDbEntity
  8
ASSI
100
AcDbLine
 62
253
  6
CONTINUOUS
 10
-20.0478255052
 20
6.4581318498
 11
-20.0478255052
 21
8.045879939
  0
LINE
  5
25A
100
AcDbEntity
  8
RACCORDO
100
AcDbLine
 62
253
  6
CONTINUOUS
 10
-20.0303704403
 20
3.6598287651
 11
-20.0303704403
 21
5.0439182874
  0
LINE
  5
25B
100
AcDbEntity
  8
ASSI
100
AcDbLine
 62
253
  6
CONTINUOUS
 10
-20.0303704403
 20
3.6598287651
 11
-20.0303704403
 21
5.0439182874
  0
LINE
  5
25C
100
AcDbEntity
  8
RACCORDO
100
AcDbLine
 62
253
  6
CONTINUOUS
 10
-19.7478711966
 20
6.4581433563
 11
-19.7478711966
 21
8.0510250686
  0
LINE
  5
25D
100
AcDbEntity
  8
ASSI
100
AcDbLine
 62
253
  6
CONTINUOUS
 10
-19.7478711966
 20
6.4581433563
 11
-19.7478711966
 21
8.0510250686
  0
LINE
  5
25E
100
AcDbEntity
  8
RACCORDO
100
AcDbLine
 62
253
  6
CONTINUOUS
 10
-19.7304161317
 20
3.6598287651
 11
-19.7304161317
 21
5.0439182874
  0
LINE
  5
25F
100
AcDbEntity
  8
ASSI
100
AcDbLine
 62
253
  6
CONTINUOUS
 10
-19.7304161317
 20
3.6598287651
 11
-19.7304161317
 21
5.0439182874
  0
LINE
  5
260
100
AcDbEntity
  8
RACCORDO
100
AcDbLine
 62
253
  6
CONTINUOUS
 10
-19.5549446194
 20
5.0439182874
 11
-19.5549446194
 21
3.6598287651
  0
LINE
  5
261
100
AcDbEntity
  8
ASSI
100
AcDbLine
 62
253
  6
CONTINUOUS
 10
-19.5549446194
 20
5.0439182874
 11
-19.5549446194
 21
3.6598287651
  0
LINE
  5
262
100
AcDbEntity
  8
RACCORDO
100
AcDbLine
 62
253
  6
CONTINUOUS
 10
-19.5374895545
 20
8.0510250686
 11
-19.5374895545
 21
6.4581430258
  0
LINE
  5
263
100
AcDbEntity
  8
ASSI
100
AcDbLine
 62
253
  6
CONTINUOUS
 10
-19.5374895545
 20
8.0510250686
 11
-19.5374895545
 21
6.4581430258
  0
LINE
  5
264
100
AcDbEntity
  8
RACCORDO
100
AcDbLine
 62
253
  6
CONTINUOUS
 10
-19.2549903109
 20
5.0439182874
 11
-19.2549903109
 21
3.6598287651
  0
LINE
  5
265
100
AcDbEntity
  8
ASSI
100
AcDbLine
 62
253
  6
CONTINUOUS
 10
-19.2549903109
 20
5.0439182874
 11
-19.2549903109
 21
3.6598287651
  0
LINE
  5
266
100
AcDbEntity
  8
RACCORDO
100
AcDbLine
 62
253
  6
CONTINUOUS
 10
-19.237535246
 20
8.045879939
 11
-19.237535246
 21
6.4581318498
  0
LINE
  5
267
100
AcDbEntity
  8
ASSI
100
AcDbLine
 62
253
  6
CONTINUOUS
 10
-19.237535246
 20
8.045879939
 11
-19.237535246
 21
6.4581318498
  0
LINE
  5
268
100
AcDbEntity
  8
RACCORDO
100
AcDbLine
 62
253
  6
CONTINUOUS
 10
-19.5415793272
 20
6.1045901115
 11
-19.5539232657
 21
5.3974063503
  0
LINE
  5
269
100
AcDbEntity
  8
ASSI
100
AcDbLine
 62
253
  6
CONTINUOUS
 10
-19.5415793272
 20
6.1045901115
 11
-19.5539232657
 21
5.3974063503
  0
LINE
  5
26A
100
AcDbEntity
  8
RACCORDO
100
AcDbLine
 62
253
  6
CONTINUOUS
 10
-19.2416252221
 20
5.8924464248
 11
-19.2539678169
 21
5.1853396437
  0
LINE
  5
26B
100
AcDbEntity
  8
ASSI
100
AcDbLine
 62
253
  6
CONTINUOUS
 10
-19.2416252221
 20
5.8924464248
 11
-19.2539678169
 21
5.1853396437
  0
LINE
  5
26C
100
AcDbEntity
  8
RACCORDO
100
AcDbLine
 62
7
  6
CONTINUOUS
 10
-20.0478255052
 20
8.045879939
 11
-20.0653310915
 21
8.0283743527
  0
LINE
  5
26D
100
AcDbEntity
  8
ASSI
100
AcDbLine
 62
7
  6
CONTINUOUS
 10
-20.0478255052
 20
8.045879939
 11
-20.0653310915
 21
8.0283743527
  0
LINE
  5
26E
100
AcDbEntity
  8
RACCORDO
100
AcDbLine
 62
7
  6
CONTINUOUS
 10
-22.3724453758
 20
-6.7192099312
 11
-22.3254073274
 21
-6.7662479795
  0
LINE
  5
26F
100
AcDbEntity
  8
ASSI
100
AcDbLine
 62
7
  6
CONTINUOUS
 10
-22.3724453758
 20
-6.7192099312
 11
-22.3254073274
 21
-6.7662479795
  0
LINE
  5
270
100
AcDbEntity
  8
RACCORDO
100
AcDbLine
 62
7
  6
CONTINUOUS
 10
-23.6199512897
 20
-4.7623567965
 11
-23.6752253107
 21
-4.7070827756
  0
LINE
  5
271
100
AcDbEntity
  8
ASSI
100
AcDbLine
 62
7
  6
CONTINUOUS
 10
-23.6199512897
 20
-4.7623567965
 11
-23.6752253107
 21
-4.7070827756
  0
LINE
  5
272
100
AcDbEntity
  8
RACCORDO
100
AcDbLine
 62
253
  6
CONTINUOUS
 10
-18.4978255052
 20
-7.8238152825
 11
-18.4978255052
 21
-6.5437841103
  0
LINE
  5
273
100
AcDbEntity
  8
ASSI
100
AcDbLine
 62
253
  6
CONTINUOUS
 10
-18.4978255052
 20
-7.8238152825
 11
-18.4978255052
 21
-6.5437841103
  0
LINE
  5
274
100
AcDbEntity
  8
RACCORDO
100
AcDbLine
 62
253
  6
CONTINUOUS
 10
-18.1978711966
 20
-7.8757901777
 11
-18.1978711966
 21
-6.2438298018
  0
LINE
  5
275
100
AcDbEntity
  8
ASSI
100
AcDbLine
 62
253
  6
CONTINUOUS
 10
-18.1978711966
 20
-7.8757901777
 11
-18.1978711966
 21
-6.2438298018
  0
LINE
  5
276
100
AcDbEntity
  8
RACCORDO
100
AcDbLine
 62
253
  6
CONTINUOUS
 10
-17.9874895545
 20
-6.2438298018
 11
-17.9874895545
 21
-7.8757901777
  0
LINE
  5
277
100
AcDbEntity
  8
ASSI
100
AcDbLine
 62
253
  6
CONTINUOUS
 10
-17.9874895545
 20
-6.2438298018
 11
-17.9874895545
 21
-7.8757901777
  0
LINE
  5
278
100
AcDbEntity
  8
RACCORDO
100
AcDbLine
 62
253
  6
CONTINUOUS
 10
-17.687535246
 20
-6.5437841103
 11
-17.687535246
 21
-7.8238152825
  0
LINE
  5
279
100
AcDbEntity
  8
ASSI
100
AcDbLine
 62
253
  6
CONTINUOUS
 10
-17.687535246
 20
-6.5437841103
 11
-17.687535246
 21
-7.8238152825
  0
LINE
  5
27A
100
AcDbEntity
  8
RACCORDO
100
AcDbLine
 62
7
  6
CONTINUOUS
 10
-23.6169714581
 20
1.8673867653
 11
-23.6682432847
 21
1.8161149387
  0
LINE
  5
27B
100
AcDbEntity
  8
ASSI
100
AcDbLine
 62
7
  6
CONTINUOUS
 10
-23.6169714581
 20
1.8673867653
 11
-23.6682432847
 21
1.8161149387
  0
LINE
  5
27C
100
AcDbEntity
  8
DRAFT
100
AcDbLine
 62
7
  6
CONTINUOUS
 10
-22.9101354405
 20
-4.0815198665
 11
-22.9709807255
 21
-4.0206745815
  0
LINE
  5
27D
100
AcDbEntity
  8
ASSI
100
AcDbLine
 62
7
  6
CONTINUOUS
 10
-22.9101354405
 20
-4.0815198665
 11
-22.9709807255
 21
-4.0206745815
  0
LINE
  5
27E
100
AcDbEntity
  8
DRAFT
100
AcDbLine
 62
7
  6
CONTINUOUS
 10
-23.9926803756
 20
-1.5989749314
 11
-23.9131926175
 21
-1.6784626895
  0
LINE
  5
27F
100
AcDbEntity
  8
ASSI
100
AcDbLine
 62
7
  6
CONTINUOUS
 10
-23.9926803756
 20
-1.5989749314
 11
-23.9131926175
 21
-1.6784626895
  0
LINE
  5
280
100
AcDbEntity
  8
DRAFT
100
AcDbLine
 62
7
  6
CONTINUOUS
 10
-23.6926803756
 20
-1.5989749314
 11
-23.6752253107
 21
-1.6164299963
  0
LINE
  5
281
100
AcDbEntity
  8
ASSI
100
AcDbLine
 62
7
  6
CONTINUOUS
 10
-23.6926803756
 20
-1.5989749314
 11
-23.6752253107
 21
-1.6164299963
  0
LINE
  5
282
100
AcDbEntity
  8
RACCORDO
100
AcDbLine
 62
253
  6
CONTINUOUS
 10
-18.4978255052
 20
-6.5437841103
 11
-18.5275758031
 21
-6.5140338124
  0
LINE
  5
283
100
AcDbEntity
  8
ASSI
100
AcDbLine
 62
253
  6
CONTINUOUS
 10
-18.4978255052
 20
-6.5437841103
 11
-18.5275758031
 21
-6.5140338124
  0
LINE
  5
284
100
AcDbEntity
  8
RACCORDO
100
AcDbLine
 62
7
  6
CONTINUOUS
 10
-17.6626302817
 20
-7.5722311624
 11
-17.687535246
 21
-7.8238152825
  0
LINE
  5
285
100
AcDbEntity
  8
ASSI
100
AcDbLine
 62
7
  6
CONTINUOUS
 10
-17.6626302817
 20
-7.5722311624
 11
-17.687535246
 21
-7.8238152825
  0
LINE
  5
286
100
AcDbEntity
  8
RACCORDO
100
AcDbLine
 62
7
  6
CONTINUOUS
 10
-22.3724453758
 20
1.8212600684
 11
-22.3211711017
 21
1.8725343424
  0
LINE
  5
287
100
AcDbEntity
  8
ASSI
100
AcDbLine
 62
7
  6
CONTINUOUS
 10
-22.3724453758
 20
1.8212600684
 11
-22.3211711017
 21
1.8725343424
  0
LINE
  5
288
100
AcDbEntity
  8
RACCORDO
100
AcDbLine
 62
253
  6
CONTINUOUS
 10
-20.0646257564
 20
3.4290339964
 11
-20.0338005267
 21
3.4598592261
  0
LINE
  5
289
100
AcDbEntity
  8
ASSI
100
AcDbLine
 62
253
  6
CONTINUOUS
 10
-20.0646257564
 20
3.4290339964
 11
-20.0338005267
 21
3.4598592261
  0
LINE
  5
28A
100
AcDbEntity
  8
RACCORDO
100
AcDbLine
 62
253
  6
CONTINUOUS
 10
-19.7645951917
 20
3.129155944
 11
-19.7338462181
 21
3.1599049175
  0
LINE
  5
28B
100
AcDbEntity
  8
ASSI
100
AcDbLine
 62
253
  6
CONTINUOUS
 10
-19.7645951917
 20
3.129155944
 11
-19.7338462181
 21
3.1599049175
  0
LINE
  5
28C
100
AcDbEntity
  8
RACCORDO
100
AcDbLine
 62
7
  6
CONTINUOUS
 10
-23.6180091468
 20
-0.9336509234
 11
-23.6752253107
 21
-0.9908670872
  0
LINE
  5
28D
100
AcDbEntity
  8
ASSI
100
AcDbLine
 62
7
  6
CONTINUOUS
 10
-23.6180091468
 20
-0.9336509234
 11
-23.6752253107
 21
-0.9908670872
  0
LINE
  5
28E
100
AcDbEntity
  8
RACCORDO
100
AcDbLine
 62
253
  6
CONTINUOUS
 10
-18.1978711966
 20
-6.2438298018
 11
-18.2278171865
 21
-6.213883812
  0
LINE
  5
28F
100
AcDbEntity
  8
ASSI
100
AcDbLine
 62
253
  6
CONTINUOUS
 10
-18.1978711966
 20
-6.2438298018
 11
-18.2278171865
 21
-6.213883812
  0
LINE
  5
290
100
AcDbEntity
  8
RACCORDO
100
AcDbLine
 62
7
  6
CONTINUOUS
 10
-23.6172115656
 20
1.1349034793
 11
-23.6682432847
 21
1.1859351985
  0
LINE
  5
291
100
AcDbEntity
  8
ASSI
100
AcDbLine
 62
7
  6
CONTINUOUS
 10
-23.6172115656
 20
1.1349034793
 11
-23.6682432847
 21
1.1859351985
  0
LINE
  5
292
100
AcDbEntity
  8
0
100
AcDbLine
 62
7
  6
CONTINUOUS
 10
-13.8926803756
 20
-2.3238291595
 11
-13.8926803756
 21
-2.0344673906
  0
LINE
  5
293
100
AcDbEntity
  8
ASSI
100
AcDbLine
 62
7
  6
CONTINUOUS
 10
-13.8926803756
 20
-2.3238291595
 11
-13.8926803756
 21
-2.0344673906
  0
LINE
  5
294
100
AcDbEntity
  8
DRAFT
100
AcDbLine
 62
7
  6
CONTINUOUS
 10
-22.9101354405
 20
-1.6164299963
 11
-22.9721681336
 21
-1.6784626895
  0
LINE
  5
295
100
AcDbEntity
  8
ASSI
100
AcDbLine
 62
7
  6
CONTINUOUS
 10
-22.9101354405
 20
-1.6164299963
 11
-22.9721681336
 21
-1.6784626895
  0
LINE
  5
296
100
AcDbEntity
  8
DRAFT
100
AcDbLine
 62
7
  6
CONTINUOUS
 10
-23.9881727897
 20
-4.0944673455
 11
-23.9143800256
 21
-4.0206745815
  0
LINE
  5
297
100
AcDbEntity
  8
ASSI
100
AcDbLine
 62
7
  6
CONTINUOUS
 10
-23.9881727897
 20
-4.0944673455
 11
-23.9143800256
 21
-4.0206745815
  0
LINE
  5
298
100
AcDbEntity
  8
RACCORDO
100
AcDbLine
 62
7
  6
CONTINUOUS
 10
-22.3724453758
 20
1.1807900688
 11
-22.3214144104
 21
1.1297591034
  0
LINE
  5
299
100
AcDbEntity
  8
ASSI
100
AcDbLine
 62
7
  6
CONTINUOUS
 10
-22.3724453758
 20
1.1807900688
 11
-22.3214144104
 21
1.1297591034
  0
LINE
  5
29A
100
AcDbEntity
  8
0
100
AcDbLine
 62
7
  6
CONTINUOUS
 10
-13.6801803756
 20
-3.4812759314
 11
-13.6801803756
 21
-2.070637599
  0
LINE
  5
29B
100
AcDbEntity
  8
ASSI
100
AcDbLine
 62
7
  6
CONTINUOUS
 10
-13.6801803756
 20
-3.4812759314
 11
-13.6801803756
 21
-2.070637599
  0
LINE
  5
29C
100
AcDbEntity
  8
0
100
AcDbLine
 62
7
  6
CONTINUOUS
 10
-13.4676803756
 20
-3.4812759314
 11
-13.4676803756
 21
-1.7812759314
  0
LINE
  5
29D
100
AcDbEntity
  8
ASSI
100
AcDbLine
 62
7
  6
CONTINUOUS
 10
-13.4676803756
 20
-3.4812759314
 11
-13.4676803756
 21
-1.7812759314
  0
LINE
  5
29E
100
AcDbEntity
  8
0
100
AcDbLine
 62
7
  6
CONTINUOUS
 10
-13.1843470591
 20
-2.757871661
 11
-13.1843470591
 21
-2.5046802018
  0
LINE
  5
29F
100
AcDbEntity
  8
ASSI
100
AcDbLine
 62
7
  6
CONTINUOUS
 10
-13.1843470591
 20
-2.757871661
 11
-13.1843470591
 21
-2.5046802018
  0
LINE
  5
2A0
100
AcDbEntity
  8
0
100
AcDbLine
 62
7
  6
CONTINUOUS
 10
-13.0072637427
 20
-2.5770206187
 11
-13.0072637427
 21
-2.5046802018
  0
LINE
  5
2A1
100
AcDbEntity
  8
ASSI
100
AcDbLine
 62
7
  6
CONTINUOUS
 10
-13.0072637427
 20
-2.5770206187
 11
-13.0072637427
 21
-2.5046802018
  0
LINE
  5
2A2
100
AcDbEntity
  8
0
100
AcDbLine
 62
7
  6
CONTINUOUS
 10
-12.9718470085
 20
-2.9748929624
 11
-12.9718470085
 21
-2.866382337
  0
LINE
  5
2A3
100
AcDbEntity
  8
ASSI
100
AcDbLine
 62
7
  6
CONTINUOUS
 10
-12.9718470085
 20
-2.9748929624
 11
-12.9718470085
 21
-2.866382337
  0
LINE
  5
2A4
100
AcDbEntity
  8
0
100
AcDbLine
 62
7
  6
CONTINUOUS
 10
-13.1843470591
 20
-2.5046802018
 11
-13.1489303756
 21
-2.2514887426
  0
LINE
  5
2A5
100
AcDbEntity
  8
ASSI
100
AcDbLine
 62
7
  6
CONTINUOUS
 10
-13.1843470591
 20
-2.5046802018
 11
-13.1489303756
 21
-2.2514887426
  0
LINE
  5
2A6
100
AcDbEntity
  8
0
100
AcDbLine
 62
7
  6
CONTINUOUS
 10
-13.0072637427
 20
-2.5046802018
 11
-12.9718470085
 21
-2.2876589511
  0
LINE
  5
2A7
100
AcDbEntity
  8
ASSI
100
AcDbLine
 62
7
  6
CONTINUOUS
 10
-13.0072637427
 20
-2.5046802018
 11
-12.9718470085
 21
-2.2876589511
  0
LINE
  5
2A8
100
AcDbEntity
  8
DRAFT
100
AcDbLine
 62
7
  6
CONTINUOUS
 10
-23.6881727905
 20
-4.0944673463
 11
-23.6752253107
 21
-4.0815198665
  0
LINE
  5
2A9
100
AcDbEntity
  8
ASSI
100
AcDbLine
 62
7
  6
CONTINUOUS
 10
-23.6881727905
 20
-4.0944673463
 11
-23.6752253107
 21
-4.0815198665
  0
LINE
  5
2AA
100
AcDbEntity
  8
RACCORDO
100
AcDbLine
 62
7
  6
CONTINUOUS
 10
-23.6207317511
 20
-6.0363735277
 11
-23.6682432847
 21
-6.0838850613
  0
LINE
  5
2AB
100
AcDbEntity
  8
ASSI
100
AcDbLine
 62
7
  6
CONTINUOUS
 10
-23.6207317511
 20
-6.0363735277
 11
-23.6682432847
 21
-6.0838850613
  0
LINE
  5
2AC
100
AcDbEntity
  8
0
100
AcDbLine
 62
7
  6
CONTINUOUS
 10
-12.9718470085
 20
-3.3365950849
 11
-13.0780970591
 21
-3.1919142384
  0
LINE
  5
2AD
100
AcDbEntity
  8
ASSI
100
AcDbLine
 62
7
  6
CONTINUOUS
 10
-12.9718470085
 20
-3.3365950849
 11
-13.0780970591
 21
-3.1919142384
  0
LINE
  5
2AE
100
AcDbEntity
  8
0
100
AcDbLine
 62
7
  6
CONTINUOUS
 10
-12.8655970085
 20
-3.1919142384
 11
-12.9364303756
 21
-3.0834035877
  0
LINE
  5
2AF
100
AcDbEntity
  8
ASSI
100
AcDbLine
 62
7
  6
CONTINUOUS
 10
-12.8655970085
 20
-3.1919142384
 11
-12.9364303756
 21
-3.0834035877
  0
LINE
  5
2B0
100
AcDbEntity
  8
0
100
AcDbLine
 62
7
  6
CONTINUOUS
 10
-13.0780970591
 20
-3.1919142384
 11
-13.1489303756
 21
-3.0110631708
  0
LINE
  5
2B1
100
AcDbEntity
  8
ASSI
100
AcDbLine
 62
7
  6
CONTINUOUS
 10
-13.0780970591
 20
-3.1919142384
 11
-13.1489303756
 21
-3.0110631708
  0
LINE
  5
2B2
100
AcDbEntity
  8
0
100
AcDbLine
 62
7
  6
CONTINUOUS
 10
-11.9093471098
 20
-2.8302120779
 11
-11.9801803756
 21
-2.6493610356
  0
LINE
  5
2B3
100
AcDbEntity
  8
ASSI
100
AcDbLine
 62
7
  6
CONTINUOUS
 10
-11.9093471098
 20
-2.8302120779
 11
-11.9801803756
 21
-2.6493610356
  0
LINE
  5
2B4
100
AcDbEntity
  8
0
100
AcDbLine
 62
7
  6
CONTINUOUS
 10
-12.9364303756
 20
-3.0834035877
 11
-12.9718470085
 21
-2.9748929624
  0
LINE
  5
2B5
100
AcDbEntity
  8
ASSI
100
AcDbLine
 62
7
  6
CONTINUOUS
 10
-12.9364303756
 20
-3.0834035877
 11
-12.9718470085
 21
-2.9748929624
  0
LINE
  5
2B6
100
AcDbEntity
  8
0
100
AcDbLine
 62
7
  6
CONTINUOUS
 10
-12.0864303756
 20
-2.866382337
 11
-12.1218471098
 21
-2.757871661
  0
LINE
  5
2B7
100
AcDbEntity
  8
ASSI
100
AcDbLine
 62
7
  6
CONTINUOUS
 10
-12.0864303756
 20
-2.866382337
 11
-12.1218471098
 21
-2.757871661
  0
LINE
  5
2B8
100
AcDbEntity
  8
0
100
AcDbLine
 62
7
  6
CONTINUOUS
 10
-13.1489303756
 20
-3.0110631708
 11
-13.1843470591
 21
-2.757871661
  0
LINE
  5
2B9
100
AcDbEntity
  8
ASSI
100
AcDbLine
 62
7
  6
CONTINUOUS
 10
-13.1489303756
 20
-3.0110631708
 11
-13.1843470591
 21
-2.757871661
  0
LINE
  5
2BA
100
AcDbEntity
  8
0
100
AcDbLine
 62
7
  6
CONTINUOUS
 10
-12.0864303756
 20
-2.9748929624
 11
-12.0864303756
 21
-2.866382337
  0
LINE
  5
2BB
100
AcDbEntity
  8
ASSI
100
AcDbLine
 62
7
  6
CONTINUOUS
 10
-12.0864303756
 20
-2.9748929624
 11
-12.0864303756
 21
-2.866382337
  0
LINE
  5
2BC
100
AcDbEntity
  8
0
100
AcDbLine
 62
7
  6
CONTINUOUS
 10
-11.9093471098
 20
-3.0110631708
 11
-11.9093471098
 21
-2.8302120779
  0
LINE
  5
2BD
100
AcDbEntity
  8
ASSI
100
AcDbLine
 62
7
  6
CONTINUOUS
 10
-11.9093471098
 20
-3.0110631708
 11
-11.9093471098
 21
-2.8302120779
  0
LINE
  5
2BE
100
AcDbEntity
  8
0
100
AcDbLine
 62
7
  6
CONTINUOUS
 10
-11.6260136414
 20
-3.0472333793
 11
-11.6260136414
 21
-2.9387227539
  0
LINE
  5
2BF
100
AcDbEntity
  8
ASSI
100
AcDbLine
 62
7
  6
CONTINUOUS
 10
-11.6260136414
 20
-3.0472333793
 11
-11.6260136414
 21
-2.9387227539
  0
LINE
  5
2C0
100
AcDbEntity
  8
0
100
AcDbLine
 62
7
  6
CONTINUOUS
 10
-11.5905971098
 20
-2.3238291595
 11
-11.5905971098
 21
-2.2153185342
  0
LINE
  5
2C1
100
AcDbEntity
  8
ASSI
100
AcDbLine
 62
7
  6
CONTINUOUS
 10
-11.5905971098
 20
-2.3238291595
 11
-11.5905971098
 21
-2.2153185342
  0
LINE
  5
2C2
100
AcDbEntity
  8
0
100
AcDbLine
 62
7
  6
CONTINUOUS
 10
-11.4489303756
 20
-3.0472333793
 11
-11.4489303756
 21
-2.9387227539
  0
LINE
  5
2C3
100
AcDbEntity
  8
ASSI
100
AcDbLine
 62
7
  6
CONTINUOUS
 10
-11.4489303756
 20
-3.0472333793
 11
-11.4489303756
 21
-2.9387227539
  0
LINE
  5
2C4
100
AcDbEntity
  8
0
100
AcDbLine
 62
7
  6
CONTINUOUS
 10
-11.4135136414
 20
-2.2876589511
 11
-11.4135136414
 21
-2.2153185342
  0
LINE
  5
2C5
100
AcDbEntity
  8
ASSI
100
AcDbLine
 62
7
  6
CONTINUOUS
 10
-11.4135136414
 20
-2.2876589511
 11
-11.4135136414
 21
-2.2153185342
  0
LINE
  5
2C6
100
AcDbEntity
  8
0
100
AcDbLine
 62
7
  6
CONTINUOUS
 10
-10.5635136414
 20
-2.2876589511
 11
-10.5635136414
 21
-2.2153185342
  0
LINE
  5
2C7
100
AcDbEntity
  8
ASSI
100
AcDbLine
 62
7
  6
CONTINUOUS
 10
-10.5635136414
 20
-2.2876589511
 11
-10.5635136414
 21
-2.2153185342
  0
LINE
  5
2C8
100
AcDbEntity
  8
0
100
AcDbLine
 62
7
  6
CONTINUOUS
 10
-10.5280971098
 20
-3.0472333793
 11
-10.5280971098
 21
-2.9387227539
  0
LINE
  5
2C9
100
AcDbEntity
  8
ASSI
100
AcDbLine
 62
7
  6
CONTINUOUS
 10
-10.5280971098
 20
-3.0472333793
 11
-10.5280971098
 21
-2.9387227539
  0
LINE
  5
2CA
100
AcDbEntity
  8
0
100
AcDbLine
 62
7
  6
CONTINUOUS
 10
-10.3864303756
 20
-2.3238291595
 11
-10.3864303756
 21
-2.2153185342
  0
LINE
  5
2CB
100
AcDbEntity
  8
ASSI
100
AcDbLine
 62
7
  6
CONTINUOUS
 10
-10.3864303756
 20
-2.3238291595
 11
-10.3864303756
 21
-2.2153185342
  0
LINE
  5
2CC
100
AcDbEntity
  8
0
100
AcDbLine
 62
7
  6
CONTINUOUS
 10
-10.351013844
 20
-3.0472333793
 11
-10.351013844
 21
-2.9387227539
  0
LINE
  5
2CD
100
AcDbEntity
  8
ASSI
100
AcDbLine
 62
7
  6
CONTINUOUS
 10
-10.351013844
 20
-3.0472333793
 11
-10.351013844
 21
-2.9387227539
  0
LINE
  5
2CE
100
AcDbEntity
  8
0
100
AcDbLine
 62
7
  6
CONTINUOUS
 10
-12.9718470085
 20
-2.2876589511
 11
-12.9364303756
 21
-2.1791482244
  0
LINE
  5
2CF
100
AcDbEntity
  8
ASSI
100
AcDbLine
 62
7
  6
CONTINUOUS
 10
-12.9718470085
 20
-2.2876589511
 11
-12.9364303756
 21
-2.1791482244
  0
LINE
  5
2D0
100
AcDbEntity
  8
0
100
AcDbLine
 62
7
  6
CONTINUOUS
 10
-12.9718470085
 20
-2.866382337
 11
-12.9364303756
 21
-2.757871661
  0
LINE
  5
2D1
100
AcDbEntity
  8
ASSI
100
AcDbLine
 62
7
  6
CONTINUOUS
 10
-12.9718470085
 20
-2.866382337
 11
-12.9364303756
 21
-2.757871661
  0
LINE
  5
2D2
100
AcDbEntity
  8
0
100
AcDbLine
 62
7
  6
CONTINUOUS
 10
-12.1218471098
 20
-3.0834035877
 11
-12.0864303756
 21
-2.9748929624
  0
LINE
  5
2D3
100
AcDbEntity
  8
ASSI
100
AcDbLine
 62
7
  6
CONTINUOUS
 10
-12.1218471098
 20
-3.0834035877
 11
-12.0864303756
 21
-2.9748929624
  0
LINE
  5
2D4
100
AcDbEntity
  8
0
100
AcDbLine
 62
7
  6
CONTINUOUS
 10
-13.1489303756
 20
-2.2514887426
 11
-13.0780970591
 21
-2.070637599
  0
LINE
  5
2D5
100
AcDbEntity
  8
ASSI
100
AcDbLine
 62
7
  6
CONTINUOUS
 10
-13.1489303756
 20
-2.2514887426
 11
-13.0780970591
 21
-2.070637599
  0
LINE
  5
2D6
100
AcDbEntity
  8
RACCORDO
100
AcDbLine
 62
7
  6
CONTINUOUS
 10
-22.3724453758
 20
-6.0787399316
 11
-22.3249270493
 21
-6.0312216051
  0
LINE
  5
2D7
100
AcDbEntity
  8
ASSI
100
AcDbLine
 62
7
  6
CONTINUOUS
 10
-22.3724453758
 20
-6.0787399316
 11
-22.3249270493
 21
-6.0312216051
  0
LINE
  5
2D8
100
AcDbEntity
  8
RACCORDO
100
AcDbLine
 62
253
  6
CONTINUOUS
 10
-19.551514533
 20
3.1599049175
 11
-19.5207655595
 21
3.129155944
  0
LINE
  5
2D9
100
AcDbEntity
  8
ASSI
100
AcDbLine
 62
253
  6
CONTINUOUS
 10
-19.551514533
 20
3.1599049175
 11
-19.5207655595
 21
3.129155944
  0
LINE
  5
2DA
100
AcDbEntity
  8
RACCORDO
100
AcDbLine
 62
253
  6
CONTINUOUS
 10
-19.2515602245
 20
3.4598592261
 11
-19.2207349948
 21
3.4290339964
  0
LINE
  5
2DB
100
AcDbEntity
  8
ASSI
100
AcDbLine
 62
253
  6
CONTINUOUS
 10
-19.2515602245
 20
3.4598592261
 11
-19.2207349948
 21
3.4290339964
  0
LINE
  5
2DC
100
AcDbEntity
  8
RACCORDO
100
AcDbLine
 62
7
  6
CONTINUOUS
 10
-23.6856983496
 20
8.1033902634
 11
-23.6158272968
 21
8.0335192106
  0
LINE
  5
2DD
100
AcDbEntity
  8
ASSI
100
AcDbLine
 62
7
  6
CONTINUOUS
 10
-23.6856983496
 20
8.1033902634
 11
-23.6158272968
 21
8.0335192106
  0
LINE
  5
2DE
100
AcDbEntity
  8
0
100
AcDbLine
 62
7
  6
CONTINUOUS
 10
-12.1218471098
 20
-2.757871661
 11
-12.1926803756
 21
-2.6855312441
  0
LINE
  5
2DF
100
AcDbEntity
  8
ASSI
100
AcDbLine
 62
7
  6
CONTINUOUS
 10
-12.1218471098
 20
-2.757871661
 11
-12.1926803756
 21
-2.6855312441
  0
LINE
  5
2E0
100
AcDbEntity
  8
0
100
AcDbLine
 62
7
  6
CONTINUOUS
 10
-11.4489303756
 20
-3.3365950849
 11
-11.5551803756
 21
-3.2280844469
  0
LINE
  5
2E1
100
AcDbEntity
  8
ASSI
100
AcDbLine
 62
7
  6
CONTINUOUS
 10
-11.4489303756
 20
-3.3365950849
 11
-11.5551803756
 21
-3.2280844469
  0
LINE
  5
2E2
100
AcDbEntity
  8
0
100
AcDbLine
 62
7
  6
CONTINUOUS
 10
-11.9801803756
 20
-2.6493610356
 11
-12.0864303756
 21
-2.5408504103
  0
LINE
  5
2E3
100
AcDbEntity
  8
ASSI
100
AcDbLine
 62
7
  6
CONTINUOUS
 10
-11.9801803756
 20
-2.6493610356
 11
-12.0864303756
 21
-2.5408504103
  0
LINE
  5
2E4
100
AcDbEntity
  8
0
100
AcDbLine
 62
7
  6
CONTINUOUS
 10
-11.3426803756
 20
-3.1919142384
 11
-11.4489303756
 21
-3.0472333793
  0
LINE
  5
2E5
100
AcDbEntity
  8
ASSI
100
AcDbLine
 62
7
  6
CONTINUOUS
 10
-11.3426803756
 20
-3.1919142384
 11
-11.4489303756
 21
-3.0472333793
  0
LINE
  5
2E6
100
AcDbEntity
  8
0
100
AcDbLine
 62
7
  6
CONTINUOUS
 10
-12.0155971098
 20
-2.070637599
 11
-12.1218471098
 21
-1.9259567652
  0
LINE
  5
2E7
100
AcDbEntity
  8
ASSI
100
AcDbLine
 62
7
  6
CONTINUOUS
 10
-12.0155971098
 20
-2.070637599
 11
-12.1218471098
 21
-1.9259567652
  0
LINE
  5
2E8
100
AcDbEntity
  8
0
100
AcDbLine
 62
7
  6
CONTINUOUS
 10
-12.1572636414
 20
-2.1791482244
 11
-12.2280970085
 21
-2.070637599
  0
LINE
  5
2E9
100
AcDbEntity
  8
ASSI
100
AcDbLine
 62
7
  6
CONTINUOUS
 10
-12.1572636414
 20
-2.1791482244
 11
-12.2280970085
 21
-2.070637599
  0
LINE
  5
2EA
100
AcDbEntity
  8
0
100
AcDbLine
 62
7
  6
CONTINUOUS
 10
-11.3426803756
 20
-2.3961695764
 11
-11.4135136414
 21
-2.2876589511
  0
LINE
  5
2EB
100
AcDbEntity
  8
ASSI
100
AcDbLine
 62
7
  6
CONTINUOUS
 10
-11.3426803756
 20
-2.3961695764
 11
-11.4135136414
 21
-2.2876589511
  0
LINE
  5
2EC
100
AcDbEntity
  8
0
100
AcDbLine
 62
7
  6
CONTINUOUS
 10
-11.5197636414
 20
-2.4685099934
 11
-11.5905971098
 21
-2.3238291595
  0
LINE
  5
2ED
100
AcDbEntity
  8
ASSI
100
AcDbLine
 62
7
  6
CONTINUOUS
 10
-11.5197636414
 20
-2.4685099934
 11
-11.5905971098
 21
-2.3238291595
  0
LINE
  5
2EE
100
AcDbEntity
  8
0
100
AcDbLine
 62
7
  6
CONTINUOUS
 10
-11.5551803756
 20
-3.2280844469
 11
-11.6260136414
 21
-3.0472333793
  0
LINE
  5
2EF
100
AcDbEntity
  8
ASSI
100
AcDbLine
 62
7
  6
CONTINUOUS
 10
-11.5551803756
 20
-3.2280844469
 11
-11.6260136414
 21
-3.0472333793
  0
LINE
  5
2F0
100
AcDbEntity
  8
0
100
AcDbLine
 62
7
  6
CONTINUOUS
 10
-10.351013844
 20
-2.9387227539
 11
-10.4218469071
 21
-2.757871661
  0
LINE
  5
2F1
100
AcDbEntity
  8
ASSI
100
AcDbLine
 62
7
  6
CONTINUOUS
 10
-10.351013844
 20
-2.9387227539
 11
-10.4218469071
 21
-2.757871661
  0
LINE
  5
2F2
100
AcDbEntity
  8
0
100
AcDbLine
 62
7
  6
CONTINUOUS
 10
-10.3864303756
 20
-2.2153185342
 11
-10.457263844
 21
-2.0344673906
  0
LINE
  5
2F3
100
AcDbEntity
  8
ASSI
100
AcDbLine
 62
7
  6
CONTINUOUS
 10
-10.3864303756
 20
-2.2153185342
 11
-10.457263844
 21
-2.0344673906
  0
LINE
  5
2F4
100
AcDbEntity
  8
0
100
AcDbLine
 62
7
  6
CONTINUOUS
 10
-11.9801803756
 20
-2.1791482244
 11
-12.0155971098
 21
-2.070637599
  0
LINE
  5
2F5
100
AcDbEntity
  8
ASSI
100
AcDbLine
 62
7
  6
CONTINUOUS
 10
-11.9801803756
 20
-2.1791482244
 11
-12.0155971098
 21
-2.070637599
  0
LINE
  5
2F6
100
AcDbEntity
  8
0
100
AcDbLine
 62
7
  6
CONTINUOUS
 10
-10.0676803756
 20
-2.9748929624
 11
-10.0676803756
 21
-2.757871661
  0
LINE
  5
2F7
100
AcDbEntity
  8
ASSI
100
AcDbLine
 62
7
  6
CONTINUOUS
 10
-10.0676803756
 20
-2.9748929624
 11
-10.0676803756
 21
-2.757871661
  0
LINE
  5
2F8
100
AcDbEntity
  8
0
100
AcDbLine
 62
7
  6
CONTINUOUS
 10
-9.2176803756
 20
-3.4812759314
 11
-9.2176803756
 21
-2.9748929624
  0
LINE
  5
2F9
100
AcDbEntity
  8
ASSI
100
AcDbLine
 62
7
  6
CONTINUOUS
 10
-9.2176803756
 20
-3.4812759314
 11
-9.2176803756
 21
-2.9748929624
  0
LINE
  5
2FA
100
AcDbEntity
  8
0
100
AcDbLine
 62
7
  6
CONTINUOUS
 10
-9.2176803756
 20
-2.757871661
 11
-9.2176803756
 21
-2.070637599
  0
LINE
  5
2FB
100
AcDbEntity
  8
ASSI
100
AcDbLine
 62
7
  6
CONTINUOUS
 10
-9.2176803756
 20
-2.757871661
 11
-9.2176803756
 21
-2.070637599
  0
LINE
  5
2FC
100
AcDbEntity
  8
0
100
AcDbLine
 62
7
  6
CONTINUOUS
 10
-9.0051803756
 20
-3.4812759314
 11
-9.0051803756
 21
-2.9748929624
  0
LINE
  5
2FD
100
AcDbEntity
  8
ASSI
100
AcDbLine
 62
7
  6
CONTINUOUS
 10
-9.0051803756
 20
-3.4812759314
 11
-9.0051803756
 21
-2.9748929624
  0
LINE
  5
2FE
100
AcDbEntity
  8
0
100
AcDbLine
 62
7
  6
CONTINUOUS
 10
-9.0051803756
 20
-2.757871661
 11
-9.0051803756
 21
-1.7812759314
  0
LINE
  5
2FF
100
AcDbEntity
  8
ASSI
100
AcDbLine
 62
7
  6
CONTINUOUS
 10
-9.0051803756
 20
-2.757871661
 11
-9.0051803756
 21
-1.7812759314
  0
LINE
  5
300
100
AcDbEntity
  8
0
100
AcDbLine
 62
7
  6
CONTINUOUS
 10
-8.651013844
 20
-2.9748929624
 11
-8.651013844
 21
-2.757871661
  0
LINE
  5
301
100
AcDbEntity
  8
ASSI
100
AcDbLine
 62
7
  6
CONTINUOUS
 10
-8.651013844
 20
-2.9748929624
 11
-8.651013844
 21
-2.757871661
  0
LINE
  5
302
100
AcDbEntity
  8
0
100
AcDbLine
 62
7
  6
CONTINUOUS
 10
-11.9801803756
 20
-3.1919142384
 11
-11.9093471098
 21
-3.0110631708
  0
LINE
  5
303
100
AcDbEntity
  8
ASSI
100
AcDbLine
 62
7
  6
CONTINUOUS
 10
-11.9801803756
 20
-3.1919142384
 11
-11.9093471098
 21
-3.0110631708
  0
LINE
  5
304
100
AcDbEntity
  8
0
100
AcDbLine
 62
7
  6
CONTINUOUS
 10
-11.5905971098
 20
-2.2153185342
 11
-11.5197636414
 21
-2.0344673906
  0
LINE
  5
305
100
AcDbEntity
  8
ASSI
100
AcDbLine
 62
7
  6
CONTINUOUS
 10
-11.5905971098
 20
-2.2153185342
 11
-11.5197636414
 21
-2.0344673906
  0
LINE
  5
306
100
AcDbEntity
  8
0
100
AcDbLine
 62
7
  6
CONTINUOUS
 10
-11.6260136414
 20
-2.9387227539
 11
-11.5551803756
 21
-2.757871661
  0
LINE
  5
307
100
AcDbEntity
  8
ASSI
100
AcDbLine
 62
7
  6
CONTINUOUS
 10
-11.6260136414
 20
-2.9387227539
 11
-11.5551803756
 21
-2.757871661
  0
LINE
  5
308
100
AcDbEntity
  8
0
100
AcDbLine
 62
7
  6
CONTINUOUS
 10
-12.9364303756
 20
-2.1791482244
 11
-12.8655970085
 21
-2.070637599
  0
LINE
  5
309
100
AcDbEntity
  8
ASSI
100
AcDbLine
 62
7
  6
CONTINUOUS
 10
-12.9364303756
 20
-2.1791482244
 11
-12.8655970085
 21
-2.070637599
  0
LINE
  5
30A
100
AcDbEntity
  8
0
100
AcDbLine
 62
7
  6
CONTINUOUS
 10
-13.0780970591
 20
-2.070637599
 11
-12.9718470085
 21
-1.9259567652
  0
LINE
  5
30B
100
AcDbEntity
  8
ASSI
100
AcDbLine
 62
7
  6
CONTINUOUS
 10
-13.0780970591
 20
-2.070637599
 11
-12.9718470085
 21
-1.9259567652
  0
LINE
  5
30C
100
AcDbEntity
  8
0
100
AcDbLine
 62
7
  6
CONTINUOUS
 10
-13.8926803756
 20
-2.0344673906
 11
-13.6801803756
 21
-1.7812759314
  0
LINE
  5
30D
100
AcDbEntity
  8
ASSI
100
AcDbLine
 62
7
  6
CONTINUOUS
 10
-13.8926803756
 20
-2.0344673906
 11
-13.6801803756
 21
-1.7812759314
  0
LINE
  5
30E
100
AcDbEntity
  8
0
100
AcDbLine
 62
7
  6
CONTINUOUS
 10
-13.8926803756
 20
-2.3238291595
 11
-13.6801803756
 21
-2.070637599
  0
LINE
  5
30F
100
AcDbEntity
  8
ASSI
100
AcDbLine
 62
7
  6
CONTINUOUS
 10
-13.8926803756
 20
-2.3238291595
 11
-13.6801803756
 21
-2.070637599
  0
LINE
  5
310
100
AcDbEntity
  8
RACCORDO
100
AcDbLine
 62
7
  6
CONTINUOUS
 10
24.5433683675
 20
-9.2419998349
 11
23.693368369
 21
-9.2419998349
  0
LINE
  5
311
100
AcDbEntity
  8
RACCORDO
100
AcDbLine
 62
7
  6
CONTINUOUS
 10
-23.6787291202
 20
-9.2419998349
 11
-24.5287291187
 21
-9.2419998349
  0
LINE
  5
312
100
AcDbEntity
  8
DRAFT
100
AcDbLine
 62
7
  6
CONTINUOUS
 10
-23.678725921
 20
-9.2419982355
 11
23.6933651699
 21
-9.2419982355
  0
LINE
  5
313
100
AcDbEntity
  8
ASSI
100
AcDbLine
 62
7
  6
CONTINUOUS
 10
-24.5287291187
 20
-9.2419998349
 11
24.5433683675
 21
-9.2419998349
  0
LINE
  5
314
100
AcDbEntity
  8
0
100
AcDbLine
 62
7
  6
CONTINUOUS
 10
-12.7947637427
 20
-3.4451057198
 11
-12.9718470085
 21
-3.3365950849
  0
LINE
  5
315
100
AcDbEntity
  8
ASSI
100
AcDbLine
 62
7
  6
CONTINUOUS
 10
-12.7947637427
 20
-3.4451057198
 11
-12.9718470085
 21
-3.3365950849
  0
LINE
  5
316
100
AcDbEntity
  8
0
100
AcDbLine
 62
7
  6
CONTINUOUS
 10
-11.2718471098
 20
-3.4451057198
 11
-11.4489303756
 21
-3.3365950849
  0
LINE
  5
317
100
AcDbEntity
  8
ASSI
100
AcDbLine
 62
7
  6
CONTINUOUS
 10
-11.2718471098
 20
-3.4451057198
 11
-11.4489303756
 21
-3.3365950849
  0
LINE
  5
318
100
AcDbEntity
  8
0
100
AcDbLine
 62
7
  6
CONTINUOUS
 10
-12.7593470085
 20
-3.2642546553
 11
-12.8655970085
 21
-3.1919142384
  0
LINE
  5
319
100
AcDbEntity
  8
ASSI
100
AcDbLine
 62
7
  6
CONTINUOUS
 10
-12.7593470085
 20
-3.2642546553
 11
-12.8655970085
 21
-3.1919142384
  0
LINE
  5
31A
100
AcDbEntity
  8
0
100
AcDbLine
 62
7
  6
CONTINUOUS
 10
-12.1926803756
 20
-2.6855312441
 11
-12.2989303756
 21
-2.6131908272
  0
LINE
  5
31B
100
AcDbEntity
  8
ASSI
100
AcDbLine
 62
7
  6
CONTINUOUS
 10
-12.1926803756
 20
-2.6855312441
 11
-12.2989303756
 21
-2.6131908272
  0
LINE
  5
31C
100
AcDbEntity
  8
0
100
AcDbLine
 62
7
  6
CONTINUOUS
 10
-12.2280970085
 20
-2.070637599
 11
-12.3343470085
 21
-1.9982971821
  0
LINE
  5
31D
100
AcDbEntity
  8
ASSI
100
AcDbLine
 62
7
  6
CONTINUOUS
 10
-12.2280970085
 20
-2.070637599
 11
-12.3343470085
 21
-1.9982971821
  0
LINE
  5
31E
100
AcDbEntity
  8
0
100
AcDbLine
 62
7
  6
CONTINUOUS
 10
-11.2010136414
 20
-2.5046802018
 11
-11.3426803756
 21
-2.3961695764
  0
LINE
  5
31F
100
AcDbEntity
  8
ASSI
100
AcDbLine
 62
7
  6
CONTINUOUS
 10
-11.2010136414
 20
-2.5046802018
 11
-11.3426803756
 21
-2.3961695764
  0
LINE
  5
320
100
AcDbEntity
  8
RACCORDO
100
AcDbLine
 62
253
  6
CONTINUOUS
 10
-7.2978255052
 20
-6.5437841103
 11
-7.3275758031
 21
-6.5140338124
  0
LINE
  5
321
100
AcDbEntity
  8
ASSI
100
AcDbLine
 62
253
  6
CONTINUOUS
 10
-7.2978255052
 20
-6.5437841103
 11
-7.3275758031
 21
-6.5140338124
  0
LINE
  5
322
100
AcDbEntity
  8
RACCORDO
100
AcDbLine
 62
253
  6
CONTINUOUS
 10
-6.9978711966
 20
-6.2438298018
 11
-7.0278171865
 21
-6.213883812
  0
LINE
  5
323
100
AcDbEntity
  8
ASSI
100
AcDbLine
 62
253
  6
CONTINUOUS
 10
-6.9978711966
 20
-6.2438298018
 11
-7.0278171865
 21
-6.213883812
  0
LINE
  5
324
100
AcDbEntity
  8
0
100
AcDbLine
 62
7
  6
CONTINUOUS
 10
-11.4135136414
 20
-2.5770206187
 11
-11.5197636414
 21
-2.4685099934
  0
LINE
  5
325
100
AcDbEntity
  8
ASSI
100
AcDbLine
 62
7
  6
CONTINUOUS
 10
-11.4135136414
 20
-2.5770206187
 11
-11.5197636414
 21
-2.4685099934
  0
LINE
  5
326
100
AcDbEntity
  8
0
100
AcDbLine
 62
7
  6
CONTINUOUS
 10
-10.457263844
 20
-2.0344673906
 11
-10.5635136414
 21
-1.9259567652
  0
LINE
  5
327
100
AcDbEntity
  8
ASSI
100
AcDbLine
 62
7
  6
CONTINUOUS
 10
-10.457263844
 20
-2.0344673906
 11
-10.5635136414
 21
-1.9259567652
  0
LINE
  5
328
100
AcDbEntity
  8
0
100
AcDbLine
 62
7
  6
CONTINUOUS
 10
-10.5280971098
 20
-2.9387227539
 11
-10.6343471098
 21
-2.7940418694
  0
LINE
  5
329
100
AcDbEntity
  8
ASSI
100
AcDbLine
 62
7
  6
CONTINUOUS
 10
-10.5280971098
 20
-2.9387227539
 11
-10.6343471098
 21
-2.7940418694
  0
LINE
  5
32A
100
AcDbEntity
  8
0
100
AcDbLine
 62
7
  6
CONTINUOUS
 10
-10.5635136414
 20
-2.2153185342
 11
-10.6343471098
 21
-2.1068078075
  0
LINE
  5
32B
100
AcDbEntity
  8
ASSI
100
AcDbLine
 62
7
  6
CONTINUOUS
 10
-10.5635136414
 20
-2.2153185342
 11
-10.6343471098
 21
-2.1068078075
  0
LINE
  5
32C
100
AcDbEntity
  8
RACCORDO
100
AcDbLine
 62
7
  6
CONTINUOUS
 10
-7.3227304694
 20
-7.5722311624
 11
-7.2978255052
 21
-7.8238152825
  0
LINE
  5
32D
100
AcDbEntity
  8
ASSI
100
AcDbLine
 62
7
  6
CONTINUOUS
 10
-7.3227304694
 20
-7.5722311624
 11
-7.2978255052
 21
-7.8238152825
  0
LINE
  5
32E
100
AcDbEntity
  8
0
100
AcDbLine
 62
7
  6
CONTINUOUS
 10
-8.3676803756
 20
-3.4812759314
 11
-8.3676803756
 21
-3.3004248638
  0
LINE
  5
32F
100
AcDbEntity
  8
ASSI
100
AcDbLine
 62
7
  6
CONTINUOUS
 10
-8.3676803756
 20
-3.4812759314
 11
-8.3676803756
 21
-3.3004248638
  0
LINE
  5
330
100
AcDbEntity
  8
0
100
AcDbLine
 62
7
  6
CONTINUOUS
 10
-7.3051803756
 20
-2.2514887426
 11
-7.3051803756
 21
-2.1791482244
  0
LINE
  5
331
100
AcDbEntity
  8
ASSI
100
AcDbLine
 62
7
  6
CONTINUOUS
 10
-7.3051803756
 20
-2.2514887426
 11
-7.3051803756
 21
-2.1791482244
  0
LINE
  5
332
100
AcDbEntity
  8
RACCORDO
100
AcDbLine
 62
253
  6
CONTINUOUS
 10
-7.2978255052
 20
-7.8238152825
 11
-7.2978255052
 21
-6.5437841103
  0
LINE
  5
333
100
AcDbEntity
  8
ASSI
100
AcDbLine
 62
253
  6
CONTINUOUS
 10
-7.2978255052
 20
-7.8238152825
 11
-7.2978255052
 21
-6.5437841103
  0
LINE
  5
334
100
AcDbEntity
  8
0
100
AcDbLine
 62
7
  6
CONTINUOUS
 10
-7.0926803756
 20
-3.4812759314
 11
-7.0926803756
 21
-3.3004248638
  0
LINE
  5
335
100
AcDbEntity
  8
ASSI
100
AcDbLine
 62
7
  6
CONTINUOUS
 10
-7.0926803756
 20
-3.4812759314
 11
-7.0926803756
 21
-3.3004248638
  0
LINE
  5
336
100
AcDbEntity
  8
0
100
AcDbLine
 62
7
  6
CONTINUOUS
 10
-7.0926803756
 20
-2.2514887426
 11
-7.0926803756
 21
-2.1791482244
  0
LINE
  5
337
100
AcDbEntity
  8
ASSI
100
AcDbLine
 62
7
  6
CONTINUOUS
 10
-7.0926803756
 20
-2.2514887426
 11
-7.0926803756
 21
-2.1791482244
  0
LINE
  5
338
100
AcDbEntity
  8
RACCORDO
100
AcDbLine
 62
253
  6
CONTINUOUS
 10
-6.9978711966
 20
-7.8757901777
 11
-6.9978711966
 21
-6.2438298018
  0
LINE
  5
339
100
AcDbEntity
  8
ASSI
100
AcDbLine
 62
253
  6
CONTINUOUS
 10
-6.9978711966
 20
-7.8757901777
 11
-6.9978711966
 21
-6.2438298018
  0
LINE
  5
33A
100
AcDbEntity
  8
0
100
AcDbLine
 62
7
  6
CONTINUOUS
 10
-8.332263844
 20
-2.1791482244
 11
-8.2968469071
 21
-2.0344673906
  0
LINE
  5
33B
100
AcDbEntity
  8
ASSI
100
AcDbLine
 62
7
  6
CONTINUOUS
 10
-8.332263844
 20
-2.1791482244
 11
-8.2968469071
 21
-2.0344673906
  0
LINE
  5
33C
100
AcDbEntity
  8
0
100
AcDbLine
 62
7
  6
CONTINUOUS
 10
-10.4218469071
 20
-3.2280844469
 11
-10.351013844
 21
-3.0472333793
  0
LINE
  5
33D
100
AcDbEntity
  8
ASSI
100
AcDbLine
 62
7
  6
CONTINUOUS
 10
-10.4218469071
 20
-3.2280844469
 11
-10.351013844
 21
-3.0472333793
  0
LINE
  5
33E
100
AcDbEntity
  8
0
100
AcDbLine
 62
7
  6
CONTINUOUS
 10
-10.457263844
 20
-2.4685099934
 11
-10.3864303756
 21
-2.3238291595
  0
LINE
  5
33F
100
AcDbEntity
  8
ASSI
100
AcDbLine
 62
7
  6
CONTINUOUS
 10
-10.457263844
 20
-2.4685099934
 11
-10.3864303756
 21
-2.3238291595
  0
LINE
  5
340
100
AcDbEntity
  8
0
100
AcDbLine
 62
7
  6
CONTINUOUS
 10
-12.1926803756
 20
-3.1919142384
 11
-12.1218471098
 21
-3.0834035877
  0
LINE
  5
341
100
AcDbEntity
  8
ASSI
100
AcDbLine
 62
7
  6
CONTINUOUS
 10
-12.1926803756
 20
-3.1919142384
 11
-12.1218471098
 21
-3.0834035877
  0
LINE
  5
342
100
AcDbEntity
  8
0
100
AcDbLine
 62
7
  6
CONTINUOUS
 10
-11.4135136414
 20
-2.2153185342
 11
-11.3426803756
 21
-2.1068078075
  0
LINE
  5
343
100
AcDbEntity
  8
ASSI
100
AcDbLine
 62
7
  6
CONTINUOUS
 10
-11.4135136414
 20
-2.2153185342
 11
-11.3426803756
 21
-2.1068078075
  0
LINE
  5
344
100
AcDbEntity
  8
0
100
AcDbLine
 62
7
  6
CONTINUOUS
 10
-10.6343471098
 20
-2.3961695764
 11
-10.5635136414
 21
-2.2876589511
  0
LINE
  5
345
100
AcDbEntity
  8
ASSI
100
AcDbLine
 62
7
  6
CONTINUOUS
 10
-10.6343471098
 20
-2.3961695764
 11
-10.5635136414
 21
-2.2876589511
  0
LINE
  5
346
100
AcDbEntity
  8
0
100
AcDbLine
 62
7
  6
CONTINUOUS
 10
-12.0864303756
 20
-3.3365950849
 11
-11.9801803756
 21
-3.1919142384
  0
LINE
  5
347
100
AcDbEntity
  8
ASSI
100
AcDbLine
 62
7
  6
CONTINUOUS
 10
-12.0864303756
 20
-3.3365950849
 11
-11.9801803756
 21
-3.1919142384
  0
LINE
  5
348
100
AcDbEntity
  8
0
100
AcDbLine
 62
7
  6
CONTINUOUS
 10
-11.4489303756
 20
-2.9387227539
 11
-11.3426803756
 21
-2.7940418694
  0
LINE
  5
349
100
AcDbEntity
  8
ASSI
100
AcDbLine
 62
7
  6
CONTINUOUS
 10
-11.4489303756
 20
-2.9387227539
 11
-11.3426803756
 21
-2.7940418694
  0
LINE
  5
34A
100
AcDbEntity
  8
0
100
AcDbLine
 62
7
  6
CONTINUOUS
 10
-12.9364303756
 20
-2.757871661
 11
-12.8655970085
 21
-2.6855312441
  0
LINE
  5
34B
100
AcDbEntity
  8
ASSI
100
AcDbLine
 62
7
  6
CONTINUOUS
 10
-12.9364303756
 20
-2.757871661
 11
-12.8655970085
 21
-2.6855312441
  0
LINE
  5
34C
100
AcDbEntity
  8
RACCORDO
100
AcDbLine
 62
253
  6
CONTINUOUS
 10
-17.9575435647
 20
-6.213883812
 11
-17.9874895545
 21
-6.2438298018
  0
LINE
  5
34D
100
AcDbEntity
  8
ASSI
100
AcDbLine
 62
253
  6
CONTINUOUS
 10
-17.9575435647
 20
-6.213883812
 11
-17.9874895545
 21
-6.2438298018
  0
LINE
  5
34E
100
AcDbEntity
  8
RACCORDO
100
AcDbLine
 62
253
  6
CONTINUOUS
 10
-17.6577849481
 20
-6.5140338124
 11
-17.687535246
 21
-6.5437841103
  0
LINE
  5
34F
100
AcDbEntity
  8
ASSI
100
AcDbLine
 62
253
  6
CONTINUOUS
 10
-17.6577849481
 20
-6.5140338124
 11
-17.687535246
 21
-6.5437841103
  0
LINE
  5
350
100
AcDbEntity
  8
RACCORDO
100
AcDbLine
 62
7
  6
CONTINUOUS
 10
-23.3795799373
 20
-8.1579133468
 11
23.3942191861
 21
-8.1579133468
  0
LINE
  5
351
100
AcDbEntity
  8
ASSI
100
AcDbLine
 62
7
  6
CONTINUOUS
 10
-23.3795799373
 20
-8.1579133468
 11
23.3942191861
 21
-8.1579133468
  0
LINE
  5
352
100
AcDbEntity
  8
RACCORDO
100
AcDbLine
 62
7
  6
CONTINUOUS
 10
-6.9978711966
 20
-7.8757901777
 11
-6.7874895545
 21
-7.8757901777
  0
LINE
  5
353
100
AcDbEntity
  8
ASSI
100
AcDbLine
 62
7
  6
CONTINUOUS
 10
-6.9978711966
 20
-7.8757901777
 11
-6.7874895545
 21
-7.8757901777
  0
LINE
  5
354
100
AcDbEntity
  8
RACCORDO
100
AcDbLine
 62
7
  6
CONTINUOUS
 10
7.0125104455
 20
-7.8757901777
 11
6.8021288034
 21
-7.8757901777
  0
LINE
  5
355
100
AcDbEntity
  8
ASSI
100
AcDbLine
 62
7
  6
CONTINUOUS
 10
7.0125104455
 20
-7.8757901777
 11
6.8021288034
 21
-7.8757901777
  0
LINE
  5
356
100
AcDbEntity
  8
RACCORDO
100
AcDbLine
 62
7
  6
CONTINUOUS
 10
18.0021288034
 20
-7.8757901777
 11
18.2125104455
 21
-7.8757901777
  0
LINE
  5
357
100
AcDbEntity
  8
ASSI
100
AcDbLine
 62
7
  6
CONTINUOUS
 10
18.0021288034
 20
-7.8757901777
 11
18.2125104455
 21
-7.8757901777
  0
LINE
  5
358
100
AcDbEntity
  8
RACCORDO
100
AcDbLine
 62
7
  6
CONTINUOUS
 10
-17.9874895545
 20
-7.8757901777
 11
-18.1978711966
 21
-7.8757901777
  0
LINE
  5
359
100
AcDbEntity
  8
ASSI
100
AcDbLine
 62
7
  6
CONTINUOUS
 10
-17.9874895545
 20
-7.8757901777
 11
-18.1978711966
 21
-7.8757901777
  0
LINE
  5
35A
100
AcDbEntity
  8
RACCORDO
100
AcDbLine
 62
253
  6
CONTINUOUS
 10
23.3362409884
 20
-7.5722311624
 11
18.5373697183
 21
-7.5722311624
  0
LINE
  5
35B
100
AcDbEntity
  8
ASSI
100
AcDbLine
 62
253
  6
CONTINUOUS
 10
23.3362409884
 20
-7.5722311624
 11
18.5373697183
 21
-7.5722311624
  0
LINE
  5
35C
100
AcDbEntity
  8
RACCORDO
100
AcDbLine
 62
253
  6
CONTINUOUS
 10
6.4772695306
 20
-7.5722311624
 11
-6.4626302817
 21
-7.5722311624
  0
LINE
  5
35D
100
AcDbEntity
  8
ASSI
100
AcDbLine
 62
253
  6
CONTINUOUS
 10
6.4772695306
 20
-7.5722311624
 11
-6.4626302817
 21
-7.5722311624
  0
LINE
  5
35E
100
AcDbEntity
  8
RACCORDO
100
AcDbLine
 62
253
  6
CONTINUOUS
 10
-7.3227304694
 20
-7.5722311624
 11
-17.6626302817
 21
-7.5722311624
  0
LINE
  5
35F
100
AcDbEntity
  8
ASSI
100
AcDbLine
 62
253
  6
CONTINUOUS
 10
-7.3227304694
 20
-7.5722311624
 11
-17.6626302817
 21
-7.5722311624
  0
LINE
  5
360
100
AcDbEntity
  8
DRAFT
100
AcDbLine
 62
7
  6
CONTINUOUS
 10
17.6731143699
 20
-7.530256702
 11
7.3415248789
 21
-7.530256702
  0
LINE
  5
361
100
AcDbEntity
  8
ASSI
100
AcDbLine
 62
7
  6
CONTINUOUS
 10
17.6731143699
 20
-7.530256702
 11
7.3415248789
 21
-7.530256702
  0
LINE
  5
362
100
AcDbEntity
  8
RACCORDO
100
AcDbLine
 62
7
  6
CONTINUOUS
 10
-18.5268856301
 20
-7.530256702
 11
-23.3174465789
 21
-7.530256702
  0
LINE
  5
363
100
AcDbEntity
  8
ASSI
100
AcDbLine
 62
7
  6
CONTINUOUS
 10
-18.5268856301
 20
-7.530256702
 11
-23.3174465789
 21
-7.530256702
  0
LINE
  5
364
100
AcDbEntity
  8
RACCORDO
100
AcDbLine
 62
253
  6
CONTINUOUS
 10
23.3362409885
 20
-7.2886413263
 11
18.5416928372
 21
-7.2886413263
  0
LINE
  5
365
100
AcDbEntity
  8
ASSI
100
AcDbLine
 62
253
  6
CONTINUOUS
 10
23.3362409885
 20
-7.2886413263
 11
18.5416928372
 21
-7.2886413263
  0
LINE
  5
366
100
AcDbEntity
  8
RACCORDO
100
AcDbLine
 62
253
  6
CONTINUOUS
 10
6.4729464116
 20
-7.2886413263
 11
-6.4583071628
 21
-7.2886413263
  0
LINE
  5
367
100
AcDbEntity
  8
ASSI
100
AcDbLine
 62
253
  6
CONTINUOUS
 10
6.4729464116
 20
-7.2886413263
 11
-6.4583071628
 21
-7.2886413263
  0
LINE
  5
368
100
AcDbEntity
  8
RACCORDO
100
AcDbLine
 62
253
  6
CONTINUOUS
 10
-7.3270535884
 20
-7.2886413263
 11
-17.6583071628
 21
-7.2886413263
  0
LINE
  5
369
100
AcDbEntity
  8
ASSI
100
AcDbLine
 62
253
  6
CONTINUOUS
 10
-7.3270535884
 20
-7.2886413263
 11
-17.6583071628
 21
-7.2886413263
  0
LINE
  5
36A
100
AcDbEntity
  8
0
100
AcDbLine
 62
7
  6
CONTINUOUS
 10
-12.6530970085
 20
-3.3004248638
 11
-12.7593470085
 21
-3.2642546553
  0
LINE
  5
36B
100
AcDbEntity
  8
ASSI
100
AcDbLine
 62
7
  6
CONTINUOUS
 10
-12.6530970085
 20
-3.3004248638
 11
-12.7593470085
 21
-3.2642546553
  0
LINE
  5
36C
100
AcDbEntity
  8
0
100
AcDbLine
 62
7
  6
CONTINUOUS
 10
-11.2010136414
 20
-3.2642546553
 11
-11.3426803756
 21
-3.1919142384
  0
LINE
  5
36D
100
AcDbEntity
  8
ASSI
100
AcDbLine
 62
7
  6
CONTINUOUS
 10
-11.2010136414
 20
-3.2642546553
 11
-11.3426803756
 21
-3.1919142384
  0
LINE
  5
36E
100
AcDbEntity
  8
0
100
AcDbLine
 62
7
  6
CONTINUOUS
 10
-11.3426803756
 20
-2.6131908272
 11
-11.4135136414
 21
-2.5770206187
  0
LINE
  5
36F
100
AcDbEntity
  8
ASSI
100
AcDbLine
 62
7
  6
CONTINUOUS
 10
-11.3426803756
 20
-2.6131908272
 11
-11.4135136414
 21
-2.5770206187
  0
LINE
  5
370
100
AcDbEntity
  8
0
100
AcDbLine
 62
7
  6
CONTINUOUS
 10
-10.6343471098
 20
-2.7940418694
 11
-10.7760136414
 21
-2.7217014525
  0
LINE
  5
371
100
AcDbEntity
  8
ASSI
100
AcDbLine
 62
7
  6
CONTINUOUS
 10
-10.6343471098
 20
-2.7940418694
 11
-10.7760136414
 21
-2.7217014525
  0
LINE
  5
372
100
AcDbEntity
  8
0
100
AcDbLine
 62
7
  6
CONTINUOUS
 10
-10.5635136414
 20
-2.6493610356
 11
-10.6343471098
 21
-2.6131908272
  0
LINE
  5
373
100
AcDbEntity
  8
ASSI
100
AcDbLine
 62
7
  6
CONTINUOUS
 10
-10.5635136414
 20
-2.6493610356
 11
-10.6343471098
 21
-2.6131908272
  0
LINE
  5
374
100
AcDbEntity
  8
0
100
AcDbLine
 62
7
  6
CONTINUOUS
 10
-12.0864303756
 20
-2.5408504103
 11
-12.2635137427
 21
-2.4323397849
  0
LINE
  5
375
100
AcDbEntity
  8
ASSI
100
AcDbLine
 62
7
  6
CONTINUOUS
 10
-12.0864303756
 20
-2.5408504103
 11
-12.2635137427
 21
-2.4323397849
  0
LINE
  5
376
100
AcDbEntity
  8
0
100
AcDbLine
 62
7
  6
CONTINUOUS
 10
-12.1218471098
 20
-1.9259567652
 11
-12.2989303756
 21
-1.8174461398
  0
LINE
  5
377
100
AcDbEntity
  8
ASSI
100
AcDbLine
 62
7
  6
CONTINUOUS
 10
-12.1218471098
 20
-1.9259567652
 11
-12.2989303756
 21
-1.8174461398
  0
LINE
  5
378
100
AcDbEntity
  8
0
100
AcDbLine
 62
7
  6
CONTINUOUS
 10
-10.5635136414
 20
-1.9259567652
 11
-10.7405971098
 21
-1.8174461398
  0
LINE
  5
379
100
AcDbEntity
  8
ASSI
100
AcDbLine
 62
7
  6
CONTINUOUS
 10
-10.5635136414
 20
-1.9259567652
 11
-10.7405971098
 21
-1.8174461398
  0
LINE
  5
37A
100
AcDbEntity
  8
0
100
AcDbLine
 62
7
  6
CONTINUOUS
 10
-10.4218469071
 20
-2.757871661
 11
-10.5635136414
 21
-2.6493610356
  0
LINE
  5
37B
100
AcDbEntity
  8
ASSI
100
AcDbLine
 62
7
  6
CONTINUOUS
 10
-10.4218469071
 20
-2.757871661
 11
-10.5635136414
 21
-2.6493610356
  0
LINE
  5
37C
100
AcDbEntity
  8
0
100
AcDbLine
 62
7
  6
CONTINUOUS
 10
-10.6343471098
 20
-2.1068078075
 11
-10.7760136414
 21
-1.9982971821
  0
LINE
  5
37D
100
AcDbEntity
  8
ASSI
100
AcDbLine
 62
7
  6
CONTINUOUS
 10
-10.6343471098
 20
-2.1068078075
 11
-10.7760136414
 21
-1.9982971821
  0
LINE
  5
37E
100
AcDbEntity
  8
RACCORDO
100
AcDbLine
 62
7
  6
CONTINUOUS
 10
-19.237535246
 20
8.045879939
 11
-19.2200296597
 21
8.0283743527
  0
LINE
  5
37F
100
AcDbEntity
  8
ASSI
100
AcDbLine
 62
7
  6
CONTINUOUS
 10
-19.237535246
 20
8.045879939
 11
-19.2200296597
 21
8.0283743527
  0
LINE
  5
380
100
AcDbEntity
  8
0
100
AcDbLine
 62
7
  6
CONTINUOUS
 10
-7.3051803756
 20
-2.1791482244
 11
-7.376013844
 21
-2.070637599
  0
LINE
  5
381
100
AcDbEntity
  8
ASSI
100
AcDbLine
 62
7
  6
CONTINUOUS
 10
-7.3051803756
 20
-2.1791482244
 11
-7.376013844
 21
-2.070637599
  0
LINE
  5
382
100
AcDbEntity
  8
0
100
AcDbLine
 62
7
  6
CONTINUOUS
 10
-7.0926803756
 20
-2.1791482244
 11
-7.1280969071
 21
-2.0344673906
  0
LINE
  5
383
100
AcDbEntity
  8
ASSI
100
AcDbLine
 62
7
  6
CONTINUOUS
 10
-7.0926803756
 20
-2.1791482244
 11
-7.1280969071
 21
-2.0344673906
  0
LINE
  5
384
100
AcDbEntity
  8
RACCORDO
100
AcDbLine
 62
253
  6
CONTINUOUS
 10
-6.7874895545
 20
-6.2438298018
 11
-6.7874895545
 21
-7.8757901777
  0
LINE
  5
385
100
AcDbEntity
  8
ASSI
100
AcDbLine
 62
253
  6
CONTINUOUS
 10
-6.7874895545
 20
-6.2438298018
 11
-6.7874895545
 21
-7.8757901777
  0
LINE
  5
386
100
AcDbEntity
  8
RACCORDO
100
AcDbLine
 62
253
  6
CONTINUOUS
 10
-6.487535246
 20
-6.5437841103
 11
-6.487535246
 21
-7.8238152825
  0
LINE
  5
387
100
AcDbEntity
  8
ASSI
100
AcDbLine
 62
253
  6
CONTINUOUS
 10
-6.487535246
 20
-6.5437841103
 11
-6.487535246
 21
-7.8238152825
  0
LINE
  5
388
100
AcDbEntity
  8
RACCORDO
100
AcDbLine
 62
7
  6
CONTINUOUS
 10
-6.4626302817
 20
-7.5722311624
 11
-6.487535246
 21
-7.8238152825
  0
LINE
  5
389
100
AcDbEntity
  8
ASSI
100
AcDbLine
 62
7
  6
CONTINUOUS
 10
-6.4626302817
 20
-7.5722311624
 11
-6.487535246
 21
-7.8238152825
  0
LINE
  5
38A
100
AcDbEntity
  8
0
100
AcDbLine
 62
7
  6
CONTINUOUS
 10
-7.1280969071
 20
-2.3961695764
 11
-7.0926803756
 21
-2.2514887426
  0
LINE
  5
38B
100
AcDbEntity
  8
ASSI
100
AcDbLine
 62
7
  6
CONTINUOUS
 10
-7.1280969071
 20
-2.3961695764
 11
-7.0926803756
 21
-2.2514887426
  0
LINE
  5
38C
100
AcDbEntity
  8
0
100
AcDbLine
 62
7
  6
CONTINUOUS
 10
-7.376013844
 20
-2.3961695764
 11
-7.3051803756
 21
-2.2514887426
  0
LINE
  5
38D
100
AcDbEntity
  8
ASSI
100
AcDbLine
 62
7
  6
CONTINUOUS
 10
-7.376013844
 20
-2.3961695764
 11
-7.3051803756
 21
-2.2514887426
  0
LINE
  5
38E
100
AcDbEntity
  8
0
100
AcDbLine
 62
7
  6
CONTINUOUS
 10
-8.1551803756
 20
-2.1791482244
 11
-8.0843469071
 21
-2.070637599
  0
LINE
  5
38F
100
AcDbEntity
  8
ASSI
100
AcDbLine
 62
7
  6
CONTINUOUS
 10
-8.1551803756
 20
-2.1791482244
 11
-8.0843469071
 21
-2.070637599
  0
LINE
  5
390
100
AcDbEntity
  8
0
100
AcDbLine
 62
7
  6
CONTINUOUS
 10
-10.6343471098
 20
-3.1919142384
 11
-10.5280971098
 21
-3.0472333793
  0
LINE
  5
391
100
AcDbEntity
  8
ASSI
100
AcDbLine
 62
7
  6
CONTINUOUS
 10
-10.6343471098
 20
-3.1919142384
 11
-10.5280971098
 21
-3.0472333793
  0
LINE
  5
392
100
AcDbEntity
  8
0
100
AcDbLine
 62
7
  6
CONTINUOUS
 10
-10.0676803756
 20
-2.757871661
 11
-9.2176803756
 21
-1.7812759314
  0
LINE
  5
393
100
AcDbEntity
  8
ASSI
100
AcDbLine
 62
7
  6
CONTINUOUS
 10
-10.0676803756
 20
-2.757871661
 11
-9.2176803756
 21
-1.7812759314
  0
LINE
  5
394
100
AcDbEntity
  8
0
100
AcDbLine
 62
7
  6
CONTINUOUS
 10
-9.819763844
 20
-2.757871661
 11
-9.2176803756
 21
-2.070637599
  0
LINE
  5
395
100
AcDbEntity
  8
ASSI
100
AcDbLine
 62
7
  6
CONTINUOUS
 10
-9.819763844
 20
-2.757871661
 11
-9.2176803756
 21
-2.070637599
  0
LINE
  5
396
100
AcDbEntity
  8
0
100
AcDbLine
 62
7
  6
CONTINUOUS
 10
-11.5197636414
 20
-2.0344673906
 11
-11.4135136414
 21
-1.9259567652
  0
LINE
  5
397
100
AcDbEntity
  8
ASSI
100
AcDbLine
 62
7
  6
CONTINUOUS
 10
-11.5197636414
 20
-2.0344673906
 11
-11.4135136414
 21
-1.9259567652
  0
LINE
  5
398
100
AcDbEntity
  8
0
100
AcDbLine
 62
7
  6
CONTINUOUS
 10
-10.5635136414
 20
-2.5770206187
 11
-10.457263844
 21
-2.4685099934
  0
LINE
  5
399
100
AcDbEntity
  8
ASSI
100
AcDbLine
 62
7
  6
CONTINUOUS
 10
-10.5635136414
 20
-2.5770206187
 11
-10.457263844
 21
-2.4685099934
  0
LINE
  5
39A
100
AcDbEntity
  8
0
100
AcDbLine
 62
7
  6
CONTINUOUS
 10
-10.5280971098
 20
-3.3365950849
 11
-10.4218469071
 21
-3.2280844469
  0
LINE
  5
39B
100
AcDbEntity
  8
ASSI
100
AcDbLine
 62
7
  6
CONTINUOUS
 10
-10.5280971098
 20
-3.3365950849
 11
-10.4218469071
 21
-3.2280844469
  0
LINE
  5
39C
100
AcDbEntity
  8
0
100
AcDbLine
 62
7
  6
CONTINUOUS
 10
-11.3426803756
 20
-2.1068078075
 11
-11.2010136414
 21
-1.9982971821
  0
LINE
  5
39D
100
AcDbEntity
  8
ASSI
100
AcDbLine
 62
7
  6
CONTINUOUS
 10
-11.3426803756
 20
-2.1068078075
 11
-11.2010136414
 21
-1.9982971821
  0
LINE
  5
39E
100
AcDbEntity
  8
0
100
AcDbLine
 62
7
  6
CONTINUOUS
 10
-12.8655970085
 20
-2.070637599
 11
-12.7593470085
 21
-1.9982971821
  0
LINE
  5
39F
100
AcDbEntity
  8
ASSI
100
AcDbLine
 62
7
  6
CONTINUOUS
 10
-12.8655970085
 20
-2.070637599
 11
-12.7593470085
 21
-1.9982971821
  0
LINE
  5
3A0
100
AcDbEntity
  8
0
100
AcDbLine
 62
7
  6
CONTINUOUS
 10
-13.0072637427
 20
-2.5770206187
 11
-12.7947637427
 21
-2.4323397849
  0
LINE
  5
3A1
100
AcDbEntity
  8
ASSI
100
AcDbLine
 62
7
  6
CONTINUOUS
 10
-13.0072637427
 20
-2.5770206187
 11
-12.7947637427
 21
-2.4323397849
  0
LINE
  5
3A2
100
AcDbEntity
  8
0
100
AcDbLine
 62
7
  6
CONTINUOUS
 10
-12.9718470085
 20
-1.9259567652
 11
-12.7947637427
 21
-1.8174461398
  0
LINE
  5
3A3
100
AcDbEntity
  8
ASSI
100
AcDbLine
 62
7
  6
CONTINUOUS
 10
-12.9718470085
 20
-1.9259567652
 11
-12.7947637427
 21
-1.8174461398
  0
LINE
  5
3A4
100
AcDbEntity
  8
DRAFT
100
AcDbLine
 62
7
  6
CONTINUOUS
 10
21.8573196244
 20
-4.7210468275
 11
22.6573196244
 21
-4.7070827756
  0
LINE
  5
3A5
100
AcDbEntity
  8
ASSI
100
AcDbLine
 62
7
  6
CONTINUOUS
 10
21.8573196244
 20
-4.7210468275
 11
22.6573196244
 21
-4.7070827756
  0
LINE
  5
3A6
100
AcDbEntity
  8
RACCORDO
100
AcDbLine
 62
7
  6
CONTINUOUS
 10
23.3358863394
 20
-6.7662479795
 11
22.3400465763
 21
-6.7662479795
  0
LINE
  5
3A7
100
AcDbEntity
  8
ASSI
100
AcDbLine
 62
7
  6
CONTINUOUS
 10
23.3358863394
 20
-6.7662479795
 11
22.3400465763
 21
-6.7662479795
  0
LINE
  5
3A8
100
AcDbEntity
  8
RACCORDO
100
AcDbLine
 62
7
  6
CONTINUOUS
 10
-22.3254073274
 20
-6.7662479795
 11
-23.3212470906
 21
-6.7662479795
  0
LINE
  5
3A9
100
AcDbEntity
  8
ASSI
100
AcDbLine
 62
7
  6
CONTINUOUS
 10
-22.3254073274
 20
-6.7662479795
 11
-23.3212470906
 21
-6.7662479795
  0
LINE
  5
3AA
100
AcDbEntity
  8
RACCORDO
100
AcDbLine
 62
7
  6
CONTINUOUS
 10
-23.6682432847
 20
-6.7140648015
 11
-22.6723996844
 21
-6.7140648015
  0
LINE
  5
3AB
100
AcDbEntity
  8
ASSI
100
AcDbLine
 62
7
  6
CONTINUOUS
 10
-23.6682432847
 20
-6.7140648015
 11
-22.6723996844
 21
-6.7140648015
  0
LINE
  5
3AC
100
AcDbEntity
  8
RACCORDO
100
AcDbLine
 62
7
  6
CONTINUOUS
 10
22.6870389332
 20
-6.7140648015
 11
23.6828825335
 21
-6.7140648015
  0
LINE
  5
3AD
100
AcDbEntity
  8
ASSI
100
AcDbLine
 62
7
  6
CONTINUOUS
 10
22.6870389332
 20
-6.7140648015
 11
23.6828825335
 21
-6.7140648015
  0
LINE
  5
3AE
100
AcDbEntity
  8
RACCORDO
100
AcDbLine
 62
253
  6
CONTINUOUS
 10
6.5021744948
 20
-6.5437841103
 11
7.312464754
 21
-6.5437841103
  0
LINE
  5
3AF
100
AcDbEntity
  8
ASSI
100
AcDbLine
 62
253
  6
CONTINUOUS
 10
6.5021744948
 20
-6.5437841103
 11
7.312464754
 21
-6.5437841103
  0
LINE
  5
3B0
100
AcDbEntity
  8
RACCORDO
100
AcDbLine
 62
253
  6
CONTINUOUS
 10
-6.487535246
 20
-6.5437841103
 11
-7.2978255052
 21
-6.5437841103
  0
LINE
  5
3B1
100
AcDbEntity
  8
ASSI
100
AcDbLine
 62
253
  6
CONTINUOUS
 10
-6.487535246
 20
-6.5437841103
 11
-7.2978255052
 21
-6.5437841103
  0
LINE
  5
3B2
100
AcDbEntity
  8
RACCORDO
100
AcDbLine
 62
253
  6
CONTINUOUS
 10
17.7021744948
 20
-6.5437841103
 11
18.512464754
 21
-6.5437841103
  0
LINE
  5
3B3
100
AcDbEntity
  8
ASSI
100
AcDbLine
 62
253
  6
CONTINUOUS
 10
17.7021744948
 20
-6.5437841103
 11
18.512464754
 21
-6.5437841103
  0
LINE
  5
3B4
100
AcDbEntity
  8
RACCORDO
100
AcDbLine
 62
253
  6
CONTINUOUS
 10
-17.687535246
 20
-6.5437841103
 11
-18.4978255052
 21
-6.5437841103
  0
LINE
  5
3B5
100
AcDbEntity
  8
ASSI
100
AcDbLine
 62
253
  6
CONTINUOUS
 10
-17.687535246
 20
-6.5437841103
 11
-18.4978255052
 21
-6.5437841103
  0
LINE
  5
3B6
100
AcDbEntity
  8
RACCORDO
100
AcDbLine
 62
253
  6
CONTINUOUS
 10
18.2125104455
 20
-6.2438298018
 11
18.0021288034
 21
-6.2438298018
  0
LINE
  5
3B7
100
AcDbEntity
  8
ASSI
100
AcDbLine
 62
253
  6
CONTINUOUS
 10
18.2125104455
 20
-6.2438298018
 11
18.0021288034
 21
-6.2438298018
  0
LINE
  5
3B8
100
AcDbEntity
  8
RACCORDO
100
AcDbLine
 62
253
  6
CONTINUOUS
 10
7.0125104455
 20
-6.2438298018
 11
6.8021288034
 21
-6.2438298018
  0
LINE
  5
3B9
100
AcDbEntity
  8
ASSI
100
AcDbLine
 62
253
  6
CONTINUOUS
 10
7.0125104455
 20
-6.2438298018
 11
6.8021288034
 21
-6.2438298018
  0
LINE
  5
3BA
100
AcDbEntity
  8
RACCORDO
100
AcDbLine
 62
253
  6
CONTINUOUS
 10
-6.7874895545
 20
-6.2438298018
 11
-6.9978711966
 21
-6.2438298018
  0
LINE
  5
3BB
100
AcDbEntity
  8
ASSI
100
AcDbLine
 62
253
  6
CONTINUOUS
 10
-6.7874895545
 20
-6.2438298018
 11
-6.9978711966
 21
-6.2438298018
  0
LINE
  5
3BC
100
AcDbEntity
  8
RACCORDO
100
AcDbLine
 62
253
  6
CONTINUOUS
 10
-17.9874895545
 20
-6.2438298018
 11
-18.1978711966
 21
-6.2438298018
  0
LINE
  5
3BD
100
AcDbEntity
  8
ASSI
100
AcDbLine
 62
253
  6
CONTINUOUS
 10
-17.9874895545
 20
-6.2438298018
 11
-18.1978711966
 21
-6.2438298018
  0
LINE
  5
3BE
100
AcDbEntity
  8
RACCORDO
100
AcDbLine
 62
7
  6
CONTINUOUS
 10
-18.2278171865
 20
-6.213883812
 11
-17.9575435647
 21
-6.213883812
  0
LINE
  5
3BF
100
AcDbEntity
  8
ASSI
100
AcDbLine
 62
7
  6
CONTINUOUS
 10
-18.2278171865
 20
-6.213883812
 11
-17.9575435647
 21
-6.213883812
  0
LINE
  5
3C0
100
AcDbEntity
  8
RACCORDO
100
AcDbLine
 62
7
  6
CONTINUOUS
 10
-7.0278171865
 20
-6.213883812
 11
-6.7575435647
 21
-6.213883812
  0
LINE
  5
3C1
100
AcDbEntity
  8
ASSI
100
AcDbLine
 62
7
  6
CONTINUOUS
 10
-7.0278171865
 20
-6.213883812
 11
-6.7575435647
 21
-6.213883812
  0
LINE
  5
3C2
100
AcDbEntity
  8
RACCORDO
100
AcDbLine
 62
7
  6
CONTINUOUS
 10
6.7721828135
 20
-6.213883812
 11
7.0424564353
 21
-6.213883812
  0
LINE
  5
3C3
100
AcDbEntity
  8
ASSI
100
AcDbLine
 62
7
  6
CONTINUOUS
 10
6.7721828135
 20
-6.213883812
 11
7.0424564353
 21
-6.213883812
  0
LINE
  5
3C4
100
AcDbEntity
  8
RACCORDO
100
AcDbLine
 62
7
  6
CONTINUOUS
 10
17.9721828135
 20
-6.213883812
 11
18.2424564353
 21
-6.213883812
  0
LINE
  5
3C5
100
AcDbEntity
  8
ASSI
100
AcDbLine
 62
7
  6
CONTINUOUS
 10
17.9721828135
 20
-6.213883812
 11
18.2424564353
 21
-6.213883812
  0
LINE
  5
3C6
100
AcDbEntity
  8
RACCORDO
100
AcDbLine
 62
7
  6
CONTINUOUS
 10
23.6828825335
 20
-6.0838850613
 11
22.6870389332
 21
-6.0838850613
  0
LINE
  5
3C7
100
AcDbEntity
  8
ASSI
100
AcDbLine
 62
7
  6
CONTINUOUS
 10
23.6828825335
 20
-6.0838850613
 11
22.6870389332
 21
-6.0838850613
  0
LINE
  5
3C8
100
AcDbEntity
  8
RACCORDO
100
AcDbLine
 62
7
  6
CONTINUOUS
 10
-22.6723996844
 20
-6.0838850613
 11
-23.6682432847
 21
-6.0838850613
  0
LINE
  5
3C9
100
AcDbEntity
  8
ASSI
100
AcDbLine
 62
7
  6
CONTINUOUS
 10
-22.6723996844
 20
-6.0838850613
 11
-23.6682432847
 21
-6.0838850613
  0
LINE
  5
3CA
100
AcDbEntity
  8
RACCORDO
100
AcDbLine
 62
7
  6
CONTINUOUS
 10
-23.3207671526
 20
-6.0312216051
 11
-22.3249270493
 21
-6.0312216051
  0
LINE
  5
3CB
100
AcDbEntity
  8
ASSI
100
AcDbLine
 62
7
  6
CONTINUOUS
 10
-23.3207671526
 20
-6.0312216051
 11
-22.3249270493
 21
-6.0312216051
  0
LINE
  5
3CC
100
AcDbEntity
  8
RACCORDO
100
AcDbLine
 62
7
  6
CONTINUOUS
 10
22.3395662981
 20
-6.0312216051
 11
23.3354064015
 21
-6.0312216051
  0
LINE
  5
3CD
100
AcDbEntity
  8
ASSI
100
AcDbLine
 62
7
  6
CONTINUOUS
 10
22.3395662981
 20
-6.0312216051
 11
23.3354064015
 21
-6.0312216051
  0
LINE
  5
3CE
100
AcDbEntity
  8
DRAFT
100
AcDbLine
 62
7
  6
CONTINUOUS
 10
-22.6426803756
 20
-4.7070827756
 11
-21.8426803756
 21
-4.7210468275
  0
LINE
  5
3CF
100
AcDbEntity
  8
ASSI
100
AcDbLine
 62
7
  6
CONTINUOUS
 10
-22.6426803756
 20
-4.7070827756
 11
-21.8426803756
 21
-4.7210468275
  0
LINE
  5
3D0
100
AcDbEntity
  8
0
100
AcDbLine
 62
7
  6
CONTINUOUS
 10
-12.6176803756
 20
-3.4812759314
 11
-12.7947637427
 21
-3.4451057198
  0
LINE
  5
3D1
100
AcDbEntity
  8
ASSI
100
AcDbLine
 62
7
  6
CONTINUOUS
 10
-12.6176803756
 20
-3.4812759314
 11
-12.7947637427
 21
-3.4451057198
  0
LINE
  5
3D2
100
AcDbEntity
  8
0
100
AcDbLine
 62
7
  6
CONTINUOUS
 10
-11.0947636414
 20
-3.4812759314
 11
-11.2718471098
 21
-3.4451057198
  0
LINE
  5
3D3
100
AcDbEntity
  8
ASSI
100
AcDbLine
 62
7
  6
CONTINUOUS
 10
-11.0947636414
 20
-3.4812759314
 11
-11.2718471098
 21
-3.4451057198
  0
LINE
  5
3D4
100
AcDbEntity
  8
0
100
AcDbLine
 62
7
  6
CONTINUOUS
 10
-11.0593471098
 20
-3.3004248638
 11
-11.2010136414
 21
-3.2642546553
  0
LINE
  5
3D5
100
AcDbEntity
  8
ASSI
100
AcDbLine
 62
7
  6
CONTINUOUS
 10
-11.0593471098
 20
-3.3004248638
 11
-11.2010136414
 21
-3.2642546553
  0
LINE
  5
3D6
100
AcDbEntity
  8
0
100
AcDbLine
 62
7
  6
CONTINUOUS
 10
-10.7760136414
 20
-2.7217014525
 11
-10.9176803756
 21
-2.6855312441
  0
LINE
  5
3D7
100
AcDbEntity
  8
ASSI
100
AcDbLine
 62
7
  6
CONTINUOUS
 10
-10.7760136414
 20
-2.7217014525
 11
-10.9176803756
 21
-2.6855312441
  0
LINE
  5
3D8
100
AcDbEntity
  8
0
100
AcDbLine
 62
7
  6
CONTINUOUS
 10
-11.0593471098
 20
-2.5408504103
 11
-11.2010136414
 21
-2.5046802018
  0
LINE
  5
3D9
100
AcDbEntity
  8
ASSI
100
AcDbLine
 62
7
  6
CONTINUOUS
 10
-11.0593471098
 20
-2.5408504103
 11
-11.2010136414
 21
-2.5046802018
  0
LINE
  5
3DA
100
AcDbEntity
  8
0
100
AcDbLine
 62
7
  6
CONTINUOUS
 10
-12.2989303756
 20
-2.6131908272
 11
-12.4051803756
 21
-2.5770206187
  0
LINE
  5
3DB
100
AcDbEntity
  8
ASSI
100
AcDbLine
 62
7
  6
CONTINUOUS
 10
-12.2989303756
 20
-2.6131908272
 11
-12.4051803756
 21
-2.5770206187
  0
LINE
  5
3DC
100
AcDbEntity
  8
0
100
AcDbLine
 62
7
  6
CONTINUOUS
 10
-12.3343470085
 20
-1.9982971821
 11
-12.4405970085
 21
-1.9621269737
  0
LINE
  5
3DD
100
AcDbEntity
  8
ASSI
100
AcDbLine
 62
7
  6
CONTINUOUS
 10
-12.3343470085
 20
-1.9982971821
 11
-12.4405970085
 21
-1.9621269737
  0
LINE
  5
3DE
100
AcDbEntity
  8
0
100
AcDbLine
 62
7
  6
CONTINUOUS
 10
-7.376013844
 20
-2.070637599
 11
-7.482263844
 21
-1.9982971821
  0
LINE
  5
3DF
100
AcDbEntity
  8
ASSI
100
AcDbLine
 62
7
  6
CONTINUOUS
 10
-7.376013844
 20
-2.070637599
 11
-7.482263844
 21
-1.9982971821
  0
LINE
  5
3E0
100
AcDbEntity
  8
0
100
AcDbLine
 62
7
  6
CONTINUOUS
 10
-7.1280969071
 20
-2.0344673906
 11
-7.269763844
 21
-1.8897865568
  0
LINE
  5
3E1
100
AcDbEntity
  8
ASSI
100
AcDbLine
 62
7
  6
CONTINUOUS
 10
-7.1280969071
 20
-2.0344673906
 11
-7.269763844
 21
-1.8897865568
  0
LINE
  5
3E2
100
AcDbEntity
  8
RACCORDO
100
AcDbLine
 62
253
  6
CONTINUOUS
 10
-4.4225791425
 20
5.6769150802
 11
-4.4160562377
 21
4.0254480267
  0
LINE
  5
3E3
100
AcDbEntity
  8
ASSI
100
AcDbLine
 62
253
  6
CONTINUOUS
 10
-4.4225791425
 20
5.6769150802
 11
-4.4160562377
 21
4.0254480267
  0
LINE
  5
3E4
100
AcDbEntity
  8
RACCORDO
100
AcDbLine
 62
253
  6
CONTINUOUS
 10
-3.8145259004
 20
4.0475795443
 11
-3.8145259004
 21
5.6544705929
  0
LINE
  5
3E5
100
AcDbEntity
  8
ASSI
100
AcDbLine
 62
253
  6
CONTINUOUS
 10
-3.8145259004
 20
4.0475795443
 11
-3.8145259004
 21
5.6544705929
  0
LINE
  5
3E6
100
AcDbEntity
  8
RACCORDO
100
AcDbLine
 62
253
  6
CONTINUOUS
 10
-3.5326181141
 20
4.0510250686
 11
-3.5326181141
 21
5.6510250686
  0
LINE
  5
3E7
100
AcDbEntity
  8
ASSI
100
AcDbLine
 62
253
  6
CONTINUOUS
 10
-3.5326181141
 20
4.0510250686
 11
-3.5326181141
 21
5.6510250686
  0
LINE
  5
3E8
100
AcDbEntity
  8
0
100
AcDbLine
 62
7
  6
CONTINUOUS
 10
-7.1989303756
 20
-2.5046802018
 11
-7.1280969071
 21
-2.3961695764
  0
LINE
  5
3E9
100
AcDbEntity
  8
ASSI
100
AcDbLine
 62
7
  6
CONTINUOUS
 10
-7.1989303756
 20
-2.5046802018
 11
-7.1280969071
 21
-2.3961695764
  0
LINE
  5
3EA
100
AcDbEntity
  8
0
100
AcDbLine
 62
7
  6
CONTINUOUS
 10
-8.2968469071
 20
-2.0344673906
 11
-8.1551803756
 21
-1.8897865568
  0
LINE
  5
3EB
100
AcDbEntity
  8
ASSI
100
AcDbLine
 62
7
  6
CONTINUOUS
 10
-8.2968469071
 20
-2.0344673906
 11
-8.1551803756
 21
-1.8897865568
  0
LINE
  5
3EC
100
AcDbEntity
  8
0
100
AcDbLine
 62
7
  6
CONTINUOUS
 10
-11.5551803756
 20
-2.757871661
 11
-11.4135136414
 21
-2.6493610356
  0
LINE
  5
3ED
100
AcDbEntity
  8
ASSI
100
AcDbLine
 62
7
  6
CONTINUOUS
 10
-11.5551803756
 20
-2.757871661
 11
-11.4135136414
 21
-2.6493610356
  0
LINE
  5
3EE
100
AcDbEntity
  8
0
100
AcDbLine
 62
7
  6
CONTINUOUS
 10
-10.7760136414
 20
-2.5046802018
 11
-10.6343471098
 21
-2.3961695764
  0
LINE
  5
3EF
100
AcDbEntity
  8
ASSI
100
AcDbLine
 62
7
  6
CONTINUOUS
 10
-10.7760136414
 20
-2.5046802018
 11
-10.6343471098
 21
-2.3961695764
  0
LINE
  5
3F0
100
AcDbEntity
  8
0
100
AcDbLine
 62
7
  6
CONTINUOUS
 10
-12.8655970085
 20
-2.6855312441
 11
-12.7593470085
 21
-2.6131908272
  0
LINE
  5
3F1
100
AcDbEntity
  8
ASSI
100
AcDbLine
 62
7
  6
CONTINUOUS
 10
-12.8655970085
 20
-2.6855312441
 11
-12.7593470085
 21
-2.6131908272
  0
LINE
  5
3F2
100
AcDbEntity
  8
0
100
AcDbLine
 62
7
  6
CONTINUOUS
 10
-12.2989303756
 20
-3.2642546553
 11
-12.1926803756
 21
-3.1919142384
  0
LINE
  5
3F3
100
AcDbEntity
  8
ASSI
100
AcDbLine
 62
7
  6
CONTINUOUS
 10
-12.2989303756
 20
-3.2642546553
 11
-12.1926803756
 21
-3.1919142384
  0
LINE
  5
3F4
100
AcDbEntity
  8
0
100
AcDbLine
 62
7
  6
CONTINUOUS
 10
-11.4135136414
 20
-1.9259567652
 11
-11.2364303756
 21
-1.8174461398
  0
LINE
  5
3F5
100
AcDbEntity
  8
ASSI
100
AcDbLine
 62
7
  6
CONTINUOUS
 10
-11.4135136414
 20
-1.9259567652
 11
-11.2364303756
 21
-1.8174461398
  0
LINE
  5
3F6
100
AcDbEntity
  8
0
100
AcDbLine
 62
7
  6
CONTINUOUS
 10
-12.2635137427
 20
-3.4451057198
 11
-12.0864303756
 21
-3.3365950849
  0
LINE
  5
3F7
100
AcDbEntity
  8
ASSI
100
AcDbLine
 62
7
  6
CONTINUOUS
 10
-12.2635137427
 20
-3.4451057198
 11
-12.0864303756
 21
-3.3365950849
  0
LINE
  5
3F8
100
AcDbEntity
  8
DRAFT
100
AcDbLine
 62
7
  6
CONTINUOUS
 10
-21.8426803756
 20
-4.7273306509
 11
-22.3926803756
 21
-4.7328733784
  0
LINE
  5
3F9
100
AcDbEntity
  8
ASSI
100
AcDbLine
 62
7
  6
CONTINUOUS
 10
-21.8426803756
 20
-4.7273306509
 11
-22.3926803756
 21
-4.7328733784
  0
LINE
  5
3FA
100
AcDbEntity
  8
RACCORDO
100
AcDbLine
 62
7
  6
CONTINUOUS
 10
23.3346333446
 20
-4.7675018621
 11
22.4073196244
 21
-4.7675018621
  0
LINE
  5
3FB
100
AcDbEntity
  8
ASSI
100
AcDbLine
 62
7
  6
CONTINUOUS
 10
23.3346333446
 20
-4.7675018621
 11
22.4073196244
 21
-4.7675018621
  0
LINE
  5
3FC
100
AcDbEntity
  8
RACCORDO
100
AcDbLine
 62
7
  6
CONTINUOUS
 10
-22.3926803756
 20
-4.7675018621
 11
-23.3199940958
 21
-4.7675018621
  0
LINE
  5
3FD
100
AcDbEntity
  8
ASSI
100
AcDbLine
 62
7
  6
CONTINUOUS
 10
-22.3926803756
 20
-4.7675018621
 11
-23.3199940958
 21
-4.7675018621
  0
LINE
  5
3FE
100
AcDbEntity
  8
DRAFT
100
AcDbLine
 62
7
  6
CONTINUOUS
 10
-23.6752253107
 20
-4.7070827756
 11
-22.6426803756
 21
-4.7070827756
  0
LINE
  5
3FF
100
AcDbEntity
  8
ASSI
100
AcDbLine
 62
7
  6
CONTINUOUS
 10
-23.6752253107
 20
-4.7070827756
 11
-22.6426803756
 21
-4.7070827756
  0
LINE
  5
400
100
AcDbEntity
  8
DRAFT
100
AcDbLine
 62
7
  6
CONTINUOUS
 10
22.6573196244
 20
-4.7070827756
 11
23.6898645595
 21
-4.7070827756
  0
LINE
  5
401
100
AcDbEntity
  8
ASSI
100
AcDbLine
 62
7
  6
CONTINUOUS
 10
22.6573196244
 20
-4.7070827756
 11
23.6898645595
 21
-4.7070827756
  0
LINE
  5
402
100
AcDbEntity
  8
DRAFT
100
AcDbLine
 62
7
  6
CONTINUOUS
 10
24.0028120385
 20
-4.0944673455
 11
23.7028120385
 21
-4.0944673455
  0
LINE
  5
403
100
AcDbEntity
  8
ASSI
100
AcDbLine
 62
7
  6
CONTINUOUS
 10
24.0028120385
 20
-4.0944673455
 11
23.7028120385
 21
-4.0944673455
  0
LINE
  5
404
100
AcDbEntity
  8
DRAFT
100
AcDbLine
 62
7
  6
CONTINUOUS
 10
-23.6881727897
 20
-4.0944673455
 11
-23.9881727897
 21
-4.0944673455
  0
LINE
  5
405
100
AcDbEntity
  8
ASSI
100
AcDbLine
 62
7
  6
CONTINUOUS
 10
-23.6881727897
 20
-4.0944673455
 11
-23.9881727897
 21
-4.0944673455
  0
LINE
  5
406
100
AcDbEntity
  8
DRAFT
100
AcDbLine
 62
7
  6
CONTINUOUS
 10
-23.6752253107
 20
-4.0815198665
 11
-22.9101354405
 21
-4.0815198665
  0
LINE
  5
407
100
AcDbEntity
  8
ASSI
100
AcDbLine
 62
7
  6
CONTINUOUS
 10
-23.6752253107
 20
-4.0815198665
 11
-22.9101354405
 21
-4.0815198665
  0
LINE
  5
408
100
AcDbEntity
  8
DRAFT
100
AcDbLine
 62
7
  6
CONTINUOUS
 10
23.6898645595
 20
-4.0815198665
 11
22.9247746893
 21
-4.0815198665
  0
LINE
  5
409
100
AcDbEntity
  8
ASSI
100
AcDbLine
 62
7
  6
CONTINUOUS
 10
23.6898645595
 20
-4.0815198665
 11
22.9247746893
 21
-4.0815198665
  0
LINE
  5
40A
100
AcDbEntity
  8
DRAFT
100
AcDbLine
 62
7
  6
CONTINUOUS
 10
-23.9143800256
 20
-4.0206745815
 11
-22.9709807255
 21
-4.0206745815
  0
LINE
  5
40B
100
AcDbEntity
  8
ASSI
100
AcDbLine
 62
7
  6
CONTINUOUS
 10
-23.9143800256
 20
-4.0206745815
 11
-22.9709807255
 21
-4.0206745815
  0
LINE
  5
40C
100
AcDbEntity
  8
DRAFT
100
AcDbLine
 62
7
  6
CONTINUOUS
 10
22.9856199744
 20
-4.0206745815
 11
23.9290192745
 21
-4.0206745815
  0
LINE
  5
40D
100
AcDbEntity
  8
ASSI
100
AcDbLine
 62
7
  6
CONTINUOUS
 10
22.9856199744
 20
-4.0206745815
 11
23.9290192745
 21
-4.0206745815
  0
LINE
  5
40E
100
AcDbEntity
  8
0
100
AcDbLine
 62
7
  6
CONTINUOUS
 10
-13.6801803756
 20
-3.4812759314
 11
-13.4676803756
 21
-3.4812759314
  0
LINE
  5
40F
100
AcDbEntity
  8
ASSI
100
AcDbLine
 62
7
  6
CONTINUOUS
 10
-13.6801803756
 20
-3.4812759314
 11
-13.4676803756
 21
-3.4812759314
  0
LINE
  5
410
100
AcDbEntity
  8
0
100
AcDbLine
 62
7
  6
CONTINUOUS
 10
-12.6176803756
 20
-3.4812759314
 11
-12.4405970085
 21
-3.4812759314
  0
LINE
  5
411
100
AcDbEntity
  8
ASSI
100
AcDbLine
 62
7
  6
CONTINUOUS
 10
-12.6176803756
 20
-3.4812759314
 11
-12.4405970085
 21
-3.4812759314
  0
LINE
  5
412
100
AcDbEntity
  8
0
100
AcDbLine
 62
7
  6
CONTINUOUS
 10
-11.0947636414
 20
-3.4812759314
 11
-10.8822636414
 21
-3.4812759314
  0
LINE
  5
413
100
AcDbEntity
  8
ASSI
100
AcDbLine
 62
7
  6
CONTINUOUS
 10
-11.0947636414
 20
-3.4812759314
 11
-10.8822636414
 21
-3.4812759314
  0
LINE
  5
414
100
AcDbEntity
  8
0
100
AcDbLine
 62
7
  6
CONTINUOUS
 10
-9.2176803756
 20
-3.4812759314
 11
-9.0051803756
 21
-3.4812759314
  0
LINE
  5
415
100
AcDbEntity
  8
ASSI
100
AcDbLine
 62
7
  6
CONTINUOUS
 10
-9.2176803756
 20
-3.4812759314
 11
-9.0051803756
 21
-3.4812759314
  0
LINE
  5
416
100
AcDbEntity
  8
0
100
AcDbLine
 62
7
  6
CONTINUOUS
 10
-8.3676803756
 20
-3.4812759314
 11
-7.0926803756
 21
-3.4812759314
  0
LINE
  5
417
100
AcDbEntity
  8
ASSI
100
AcDbLine
 62
7
  6
CONTINUOUS
 10
-8.3676803756
 20
-3.4812759314
 11
-7.0926803756
 21
-3.4812759314
  0
LINE
  5
418
100
AcDbEntity
  8
0
100
AcDbLine
 62
7
  6
CONTINUOUS
 10
7.7050436244
 20
-3.4812759314
 11
8.0177356244
 21
-3.4812759314
  0
LINE
  5
419
100
AcDbEntity
  8
ASSI
100
AcDbLine
 62
7
  6
CONTINUOUS
 10
7.7050436244
 20
-3.4812759314
 11
8.0177356244
 21
-3.4812759314
  0
LINE
  5
41A
100
AcDbEntity
  8
0
100
AcDbLine
 62
7
  6
CONTINUOUS
 10
8.6958176244
 20
-3.4812759314
 11
9.0506456244
 21
-3.4812759314
  0
LINE
  5
41B
100
AcDbEntity
  8
ASSI
100
AcDbLine
 62
7
  6
CONTINUOUS
 10
8.6958176244
 20
-3.4812759314
 11
9.0506456244
 21
-3.4812759314
  0
LINE
  5
41C
100
AcDbEntity
  8
0
100
AcDbLine
 62
7
  6
CONTINUOUS
 10
9.2416606244
 20
-3.4812759314
 11
9.5811156244
 21
-3.4812759314
  0
LINE
  5
41D
100
AcDbEntity
  8
ASSI
100
AcDbLine
 62
7
  6
CONTINUOUS
 10
9.2416606244
 20
-3.4812759314
 11
9.5811156244
 21
-3.4812759314
  0
LINE
  5
41E
100
AcDbEntity
  8
0
100
AcDbLine
 62
7
  6
CONTINUOUS
 10
10.0739436244
 20
-3.4812759314
 11
10.1237076244
 21
-3.4812759314
  0
LINE
  5
41F
100
AcDbEntity
  8
ASSI
100
AcDbLine
 62
7
  6
CONTINUOUS
 10
10.0739436244
 20
-3.4812759314
 11
10.1237076244
 21
-3.4812759314
  0
LINE
  5
420
100
AcDbEntity
  8
0
100
AcDbLine
 62
7
  6
CONTINUOUS
 10
10.6184996244
 20
-3.4812759314
 11
10.9656156244
 21
-3.4812759314
  0
LINE
  5
421
100
AcDbEntity
  8
ASSI
100
AcDbLine
 62
7
  6
CONTINUOUS
 10
10.6184996244
 20
-3.4812759314
 11
10.9656156244
 21
-3.4812759314
  0
LINE
  5
422
100
AcDbEntity
  8
0
100
AcDbLine
 62
7
  6
CONTINUOUS
 10
11.0213326244
 20
-3.4812759314
 11
11.3723106244
 21
-3.4812759314
  0
LINE
  5
423
100
AcDbEntity
  8
ASSI
100
AcDbLine
 62
7
  6
CONTINUOUS
 10
11.0213326244
 20
-3.4812759314
 11
11.3723106244
 21
-3.4812759314
  0
LINE
  5
424
100
AcDbEntity
  8
0
100
AcDbLine
 62
7
  6
CONTINUOUS
 10
12.0453576244
 20
-3.4812759314
 11
12.4193316244
 21
-3.4812759314
  0
LINE
  5
425
100
AcDbEntity
  8
ASSI
100
AcDbLine
 62
7
  6
CONTINUOUS
 10
12.0453576244
 20
-3.4812759314
 11
12.4193316244
 21
-3.4812759314
  0
LINE
  5
426
100
AcDbEntity
  8
0
100
AcDbLine
 62
7
  6
CONTINUOUS
 10
12.5235262883
 20
-3.4812756181
 11
12.8769266204
 21
-3.4812756181
  0
LINE
  5
427
100
AcDbEntity
  8
ASSI
100
AcDbLine
 62
7
  6
CONTINUOUS
 10
12.5235262883
 20
-3.4812756181
 11
12.8769266204
 21
-3.4812756181
  0
LINE
  5
428
100
AcDbEntity
  8
0
100
AcDbLine
 62
7
  6
CONTINUOUS
 10
13.4202968395
 20
-3.4812756181
 11
13.7616001829
 21
-3.4812756181
  0
LINE
  5
429
100
AcDbEntity
  8
ASSI
100
AcDbLine
 62
7
  6
CONTINUOUS
 10
13.4202968395
 20
-3.4812756181
 11
13.7616001829
 21
-3.4812756181
  0
LINE
  5
42A
100
AcDbEntity
  8
0
100
AcDbLine
 62
7
  6
CONTINUOUS
 10
-12.6530970085
 20
-3.3004248638
 11
-12.4051803756
 21
-3.3004248638
  0
LINE
  5
42B
100
AcDbEntity
  8
ASSI
100
AcDbLine
 62
7
  6
CONTINUOUS
 10
-12.6530970085
 20
-3.3004248638
 11
-12.4051803756
 21
-3.3004248638
  0
LINE
  5
42C
100
AcDbEntity
  8
0
100
AcDbLine
 62
7
  6
CONTINUOUS
 10
-11.0593471098
 20
-3.3004248638
 11
-10.9176803756
 21
-3.3004248638
  0
LINE
  5
42D
100
AcDbEntity
  8
ASSI
100
AcDbLine
 62
7
  6
CONTINUOUS
 10
-11.0593471098
 20
-3.3004248638
 11
-10.9176803756
 21
-3.3004248638
  0
LINE
  5
42E
100
AcDbEntity
  8
0
100
AcDbLine
 62
7
  6
CONTINUOUS
 10
-8.0843469071
 20
-3.3004248638
 11
-7.0926803756
 21
-3.3004248638
  0
LINE
  5
42F
100
AcDbEntity
  8
ASSI
100
AcDbLine
 62
7
  6
CONTINUOUS
 10
-8.0843469071
 20
-3.3004248638
 11
-7.0926803756
 21
-3.3004248638
  0
LINE
  5
430
100
AcDbEntity
  8
DRAFT
100
AcDbLine
 62
7
  6
CONTINUOUS
 10
22.4073196244
 20
-4.7328733784
 11
21.8573196244
 21
-4.7273306509
  0
LINE
  5
431
100
AcDbEntity
  8
ASSI
100
AcDbLine
 62
7
  6
CONTINUOUS
 10
22.4073196244
 20
-4.7328733784
 11
21.8573196244
 21
-4.7273306509
  0
LINE
  5
432
100
AcDbEntity
  8
0
100
AcDbLine
 62
7
  6
CONTINUOUS
 10
-12.2635137427
 20
-2.4323397849
 11
-12.4405970085
 21
-2.3961695764
  0
LINE
  5
433
100
AcDbEntity
  8
ASSI
100
AcDbLine
 62
7
  6
CONTINUOUS
 10
-12.2635137427
 20
-2.4323397849
 11
-12.4405970085
 21
-2.3961695764
  0
LINE
  5
434
100
AcDbEntity
  8
0
100
AcDbLine
 62
7
  6
CONTINUOUS
 10
-12.2989303756
 20
-1.8174461398
 11
-12.4760137427
 21
-1.7812759314
  0
LINE
  5
435
100
AcDbEntity
  8
ASSI
100
AcDbLine
 62
7
  6
CONTINUOUS
 10
-12.2989303756
 20
-1.8174461398
 11
-12.4760137427
 21
-1.7812759314
  0
LINE
  5
436
100
AcDbEntity
  8
0
100
AcDbLine
 62
7
  6
CONTINUOUS
 10
-10.7405971098
 20
-1.8174461398
 11
-10.9176803756
 21
-1.7812759314
  0
LINE
  5
437
100
AcDbEntity
  8
ASSI
100
AcDbLine
 62
7
  6
CONTINUOUS
 10
-10.7405971098
 20
-1.8174461398
 11
-10.9176803756
 21
-1.7812759314
  0
LINE
  5
438
100
AcDbEntity
  8
0
100
AcDbLine
 62
7
  6
CONTINUOUS
 10
-7.482263844
 20
-1.9982971821
 11
-7.6593469071
 21
-1.9621269737
  0
LINE
  5
439
100
AcDbEntity
  8
ASSI
100
AcDbLine
 62
7
  6
CONTINUOUS
 10
-7.482263844
 20
-1.9982971821
 11
-7.6593469071
 21
-1.9621269737
  0
LINE
  5
43A
100
AcDbEntity
  8
0
100
AcDbLine
 62
7
  6
CONTINUOUS
 10
-10.7760136414
 20
-1.9982971821
 11
-10.9176803756
 21
-1.9621269737
  0
LINE
  5
43B
100
AcDbEntity
  8
ASSI
100
AcDbLine
 62
7
  6
CONTINUOUS
 10
-10.7760136414
 20
-1.9982971821
 11
-10.9176803756
 21
-1.9621269737
  0
LINE
  5
43C
100
AcDbEntity
  8
0
100
AcDbLine
 62
7
  6
CONTINUOUS
 10
-7.269763844
 20
-1.8897865568
 11
-7.4114303756
 21
-1.8174461398
  0
LINE
  5
43D
100
AcDbEntity
  8
ASSI
100
AcDbLine
 62
7
  6
CONTINUOUS
 10
-7.269763844
 20
-1.8897865568
 11
-7.4114303756
 21
-1.8174461398
  0
LINE
  5
43E
100
AcDbEntity
  8
DRAFT
100
AcDbLine
 62
7
  6
CONTINUOUS
 10
-3.1349453487
 20
5.6510250686
 11
-3.1349453487
 21
4.0510250686
  0
LINE
  5
43F
100
AcDbEntity
  8
ASSI
100
AcDbLine
 62
7
  6
CONTINUOUS
 10
-3.1349453487
 20
5.6510250686
 11
-3.1349453487
 21
4.0510250686
  0
LINE
  5
440
100
AcDbEntity
  8
DRAFT
100
AcDbLine
 62
7
  6
CONTINUOUS
 10
-2.9926803756
 20
0.8510250686
 11
-2.9926803756
 21
4.0422975361
  0
LINE
  5
441
100
AcDbEntity
  8
ASSI
100
AcDbLine
 62
7
  6
CONTINUOUS
 10
-2.9926803756
 20
0.8510250686
 11
-2.9926803756
 21
4.0422975361
  0
LINE
  5
442
100
AcDbEntity
  8
DRAFT
100
AcDbLine
 62
7
  6
CONTINUOUS
 10
-2.9926803756
 20
5.6597526011
 11
-2.9926803756
 21
7.3510250686
  0
LINE
  5
443
100
AcDbEntity
  8
ASSI
100
AcDbLine
 62
7
  6
CONTINUOUS
 10
-2.9926803756
 20
5.6597526011
 11
-2.9926803756
 21
7.3510250686
  0
LINE
  5
444
100
AcDbEntity
  8
DRAFT
100
AcDbLine
 62
7
  6
CONTINUOUS
 10
-2.9601354405
 20
2.4335700037
 11
-2.9601354405
 21
4.0422975361
  0
LINE
  5
445
100
AcDbEntity
  8
DRAFT
100
AcDbLine
 62
7
  6
CONTINUOUS
 10
-2.9601354405
 20
5.6597526011
 11
-2.9601354405
 21
7.2684801335
  0
LINE
  5
446
100
AcDbEntity
  8
DRAFT
100
AcDbLine
 62
7
  6
CONTINUOUS
 10
-2.8926803756
 20
5.6552538194
 11
-2.8926803756
 21
4.0467963178
  0
LINE
  5
447
100
AcDbEntity
  8
ASSI
100
AcDbLine
 62
7
  6
CONTINUOUS
 10
-2.8926803756
 20
5.6552538194
 11
-2.8926803756
 21
4.0467963178
  0
LINE
  5
448
100
AcDbEntity
  8
DRAFT
100
AcDbLine
 62
7
  6
CONTINUOUS
 10
-2.4891893626
 20
7.2719711465
 11
-2.4891893626
 21
2.4300789907
  0
LINE
  5
449
100
AcDbEntity
  8
0
100
AcDbLine
 62
7
  6
CONTINUOUS
 10
-8.3676803756
 20
-3.3004248638
 11
-7.376013844
 21
-2.3961695764
  0
LINE
  5
44A
100
AcDbEntity
  8
ASSI
100
AcDbLine
 62
7
  6
CONTINUOUS
 10
-8.3676803756
 20
-3.3004248638
 11
-7.376013844
 21
-2.3961695764
  0
LINE
  5
44B
100
AcDbEntity
  8
0
100
AcDbLine
 62
7
  6
CONTINUOUS
 10
-8.0843469071
 20
-3.3004248638
 11
-7.1989303756
 21
-2.5046802018
  0
LINE
  5
44C
100
AcDbEntity
  8
ASSI
100
AcDbLine
 62
7
  6
CONTINUOUS
 10
-8.0843469071
 20
-3.3004248638
 11
-7.1989303756
 21
-2.5046802018
  0
LINE
  5
44D
100
AcDbEntity
  8
0
100
AcDbLine
 62
7
  6
CONTINUOUS
 10
-8.0843469071
 20
-2.070637599
 11
-7.9780969071
 21
-1.9982971821
  0
LINE
  5
44E
100
AcDbEntity
  8
ASSI
100
AcDbLine
 62
7
  6
CONTINUOUS
 10
-8.0843469071
 20
-2.070637599
 11
-7.9780969071
 21
-1.9982971821
  0
LINE
  5
44F
100
AcDbEntity
  8
0
100
AcDbLine
 62
7
  6
CONTINUOUS
 10
-10.7051803756
 20
-3.4451057198
 11
-10.5280971098
 21
-3.3365950849
  0
LINE
  5
450
100
AcDbEntity
  8
ASSI
100
AcDbLine
 62
7
  6
CONTINUOUS
 10
-10.7051803756
 20
-3.4451057198
 11
-10.5280971098
 21
-3.3365950849
  0
LINE
  5
451
100
AcDbEntity
  8
0
100
AcDbLine
 62
7
  6
CONTINUOUS
 10
-11.4135136414
 20
-2.6493610356
 11
-11.3426803756
 21
-2.6131908272
  0
LINE
  5
452
100
AcDbEntity
  8
ASSI
100
AcDbLine
 62
7
  6
CONTINUOUS
 10
-11.4135136414
 20
-2.6493610356
 11
-11.3426803756
 21
-2.6131908272
  0
LINE
  5
453
100
AcDbEntity
  8
0
100
AcDbLine
 62
7
  6
CONTINUOUS
 10
-11.3426803756
 20
-2.7940418694
 11
-11.2010136414
 21
-2.7217014525
  0
LINE
  5
454
100
AcDbEntity
  8
ASSI
100
AcDbLine
 62
7
  6
CONTINUOUS
 10
-11.3426803756
 20
-2.7940418694
 11
-11.2010136414
 21
-2.7217014525
  0
LINE
  5
455
100
AcDbEntity
  8
0
100
AcDbLine
 62
7
  6
CONTINUOUS
 10
-10.6343471098
 20
-2.6131908272
 11
-10.5635136414
 21
-2.5770206187
  0
LINE
  5
456
100
AcDbEntity
  8
ASSI
100
AcDbLine
 62
7
  6
CONTINUOUS
 10
-10.6343471098
 20
-2.6131908272
 11
-10.5635136414
 21
-2.5770206187
  0
LINE
  5
457
100
AcDbEntity
  8
0
100
AcDbLine
 62
7
  6
CONTINUOUS
 10
-8.1551803756
 20
-1.8897865568
 11
-8.013513844
 21
-1.8174461398
  0
LINE
  5
458
100
AcDbEntity
  8
ASSI
100
AcDbLine
 62
7
  6
CONTINUOUS
 10
-8.1551803756
 20
-1.8897865568
 11
-8.013513844
 21
-1.8174461398
  0
LINE
  5
459
100
AcDbEntity
  8
0
100
AcDbLine
 62
7
  6
CONTINUOUS
 10
-10.7760136414
 20
-3.2642546553
 11
-10.6343471098
 21
-3.1919142384
  0
LINE
  5
45A
100
AcDbEntity
  8
ASSI
100
AcDbLine
 62
7
  6
CONTINUOUS
 10
-10.7760136414
 20
-3.2642546553
 11
-10.6343471098
 21
-3.1919142384
  0
LINE
  5
45B
100
AcDbEntity
  8
0
100
AcDbLine
 62
7
  6
CONTINUOUS
 10
-12.7593470085
 20
-1.9982971821
 11
-12.6530970085
 21
-1.9621269737
  0
LINE
  5
45C
100
AcDbEntity
  8
ASSI
100
AcDbLine
 62
7
  6
CONTINUOUS
 10
-12.7593470085
 20
-1.9982971821
 11
-12.6530970085
 21
-1.9621269737
  0
LINE
  5
45D
100
AcDbEntity
  8
0
100
AcDbLine
 62
7
  6
CONTINUOUS
 10
-12.7593470085
 20
-2.6131908272
 11
-12.6530970085
 21
-2.5770206187
  0
LINE
  5
45E
100
AcDbEntity
  8
ASSI
100
AcDbLine
 62
7
  6
CONTINUOUS
 10
-12.7593470085
 20
-2.6131908272
 11
-12.6530970085
 21
-2.5770206187
  0
LINE
  5
45F
100
AcDbEntity
  8
0
100
AcDbLine
 62
7
  6
CONTINUOUS
 10
11.4702216244
 20
-3.1419229314
 11
11.9534386244
 21
-3.1419229314
  0
LINE
  5
460
100
AcDbEntity
  8
ASSI
100
AcDbLine
 62
7
  6
CONTINUOUS
 10
11.4702216244
 20
-3.1419229314
 11
11.9534386244
 21
-3.1419229314
  0
LINE
  5
461
100
AcDbEntity
  8
0
100
AcDbLine
 62
7
  6
CONTINUOUS
 10
-10.0676803756
 20
-2.9748929624
 11
-9.2176803756
 21
-2.9748929624
  0
LINE
  5
462
100
AcDbEntity
  8
ASSI
100
AcDbLine
 62
7
  6
CONTINUOUS
 10
-10.0676803756
 20
-2.9748929624
 11
-9.2176803756
 21
-2.9748929624
  0
LINE
  5
463
100
AcDbEntity
  8
0
100
AcDbLine
 62
7
  6
CONTINUOUS
 10
-9.0051803756
 20
-2.9748929624
 11
-8.651013844
 21
-2.9748929624
  0
LINE
  5
464
100
AcDbEntity
  8
ASSI
100
AcDbLine
 62
7
  6
CONTINUOUS
 10
-9.0051803756
 20
-2.9748929624
 11
-8.651013844
 21
-2.9748929624
  0
LINE
  5
465
100
AcDbEntity
  8
0
100
AcDbLine
 62
7
  6
CONTINUOUS
 10
11.5428036244
 20
-2.8793329314
 11
11.8825256244
 21
-2.8793329314
  0
LINE
  5
466
100
AcDbEntity
  8
ASSI
100
AcDbLine
 62
7
  6
CONTINUOUS
 10
11.5428036244
 20
-2.8793329314
 11
11.8825256244
 21
-2.8793329314
  0
LINE
  5
467
100
AcDbEntity
  8
0
100
AcDbLine
 62
7
  6
CONTINUOUS
 10
12.8769266204
 20
-2.8160432155
 11
13.0671769435
 21
-2.8160432155
  0
LINE
  5
468
100
AcDbEntity
  8
ASSI
100
AcDbLine
 62
7
  6
CONTINUOUS
 10
12.8769266204
 20
-2.8160432155
 11
13.0671769435
 21
-2.8160432155
  0
LINE
  5
469
100
AcDbEntity
  8
0
100
AcDbLine
 62
7
  6
CONTINUOUS
 10
-9.819763844
 20
-2.757871661
 11
-9.2176803756
 21
-2.757871661
  0
LINE
  5
46A
100
AcDbEntity
  8
ASSI
100
AcDbLine
 62
7
  6
CONTINUOUS
 10
-9.819763844
 20
-2.757871661
 11
-9.2176803756
 21
-2.757871661
  0
LINE
  5
46B
100
AcDbEntity
  8
0
100
AcDbLine
 62
7
  6
CONTINUOUS
 10
-9.0051803756
 20
-2.757871661
 11
-8.651013844
 21
-2.757871661
  0
LINE
  5
46C
100
AcDbEntity
  8
ASSI
100
AcDbLine
 62
7
  6
CONTINUOUS
 10
-9.0051803756
 20
-2.757871661
 11
-8.651013844
 21
-2.757871661
  0
LINE
  5
46D
100
AcDbEntity
  8
0
100
AcDbLine
 62
7
  6
CONTINUOUS
 10
-11.0593471098
 20
-2.6855312441
 11
-10.9176803756
 21
-2.6855312441
  0
LINE
  5
46E
100
AcDbEntity
  8
ASSI
100
AcDbLine
 62
7
  6
CONTINUOUS
 10
-11.0593471098
 20
-2.6855312441
 11
-10.9176803756
 21
-2.6855312441
  0
LINE
  5
46F
100
AcDbEntity
  8
0
100
AcDbLine
 62
7
  6
CONTINUOUS
 10
-12.6530970085
 20
-2.5770206187
 11
-12.4051803756
 21
-2.5770206187
  0
LINE
  5
470
100
AcDbEntity
  8
ASSI
100
AcDbLine
 62
7
  6
CONTINUOUS
 10
-12.6530970085
 20
-2.5770206187
 11
-12.4051803756
 21
-2.5770206187
  0
LINE
  5
471
100
AcDbEntity
  8
0
100
AcDbLine
 62
7
  6
CONTINUOUS
 10
-11.0593471098
 20
-2.5408504103
 11
-10.9176803756
 21
-2.5408504103
  0
LINE
  5
472
100
AcDbEntity
  8
ASSI
100
AcDbLine
 62
7
  6
CONTINUOUS
 10
-11.0593471098
 20
-2.5408504103
 11
-10.9176803756
 21
-2.5408504103
  0
LINE
  5
473
100
AcDbEntity
  8
0
100
AcDbLine
 62
7
  6
CONTINUOUS
 10
12.865161056
 20
-2.5376467629
 11
13.0679417689
 21
-2.5376467629
  0
LINE
  5
474
100
AcDbEntity
  8
ASSI
100
AcDbLine
 62
7
  6
CONTINUOUS
 10
12.865161056
 20
-2.5376467629
 11
13.0679417689
 21
-2.5376467629
  0
LINE
  5
475
100
AcDbEntity
  8
0
100
AcDbLine
 62
7
  6
CONTINUOUS
 10
-12.6176803756
 20
-2.3961695764
 11
-12.4405970085
 21
-2.3961695764
  0
LINE
  5
476
100
AcDbEntity
  8
ASSI
100
AcDbLine
 62
7
  6
CONTINUOUS
 10
-12.6176803756
 20
-2.3961695764
 11
-12.4405970085
 21
-2.3961695764
  0
LINE
  5
477
100
AcDbEntity
  8
0
100
AcDbLine
 62
7
  6
CONTINUOUS
 10
-12.1572636414
 20
-2.1791482244
 11
-11.9801803756
 21
-2.1791482244
  0
LINE
  5
478
100
AcDbEntity
  8
ASSI
100
AcDbLine
 62
7
  6
CONTINUOUS
 10
-12.1572636414
 20
-2.1791482244
 11
-11.9801803756
 21
-2.1791482244
  0
LINE
  5
479
100
AcDbEntity
  8
0
100
AcDbLine
 62
7
  6
CONTINUOUS
 10
-8.332263844
 20
-2.1791482244
 11
-8.1551803756
 21
-2.1791482244
  0
LINE
  5
47A
100
AcDbEntity
  8
ASSI
100
AcDbLine
 62
7
  6
CONTINUOUS
 10
-8.332263844
 20
-2.1791482244
 11
-8.1551803756
 21
-2.1791482244
  0
LINE
  5
47B
100
AcDbEntity
  8
0
100
AcDbLine
 62
7
  6
CONTINUOUS
 10
-12.6530970085
 20
-1.9621269737
 11
-12.4405970085
 21
-1.9621269737
  0
LINE
  5
47C
100
AcDbEntity
  8
ASSI
100
AcDbLine
 62
7
  6
CONTINUOUS
 10
-12.6530970085
 20
-1.9621269737
 11
-12.4405970085
 21
-1.9621269737
  0
LINE
  5
47D
100
AcDbEntity
  8
0
100
AcDbLine
 62
7
  6
CONTINUOUS
 10
-11.0593471098
 20
-1.9621269737
 11
-10.9176803756
 21
-1.9621269737
  0
LINE
  5
47E
100
AcDbEntity
  8
ASSI
100
AcDbLine
 62
7
  6
CONTINUOUS
 10
-11.0593471098
 20
-1.9621269737
 11
-10.9176803756
 21
-1.9621269737
  0
LINE
  5
47F
100
AcDbEntity
  8
0
100
AcDbLine
 62
7
  6
CONTINUOUS
 10
-7.801013844
 20
-1.9621269737
 11
-7.6593469071
 21
-1.9621269737
  0
LINE
  5
480
100
AcDbEntity
  8
ASSI
100
AcDbLine
 62
7
  6
CONTINUOUS
 10
-7.801013844
 20
-1.9621269737
 11
-7.6593469071
 21
-1.9621269737
  0
LINE
  5
481
100
AcDbEntity
  8
0
100
AcDbLine
 62
7
  6
CONTINUOUS
 10
7.1661536244
 20
-1.7814129314
 11
7.5516066244
 21
-1.7814129314
  0
LINE
  5
482
100
AcDbEntity
  8
ASSI
100
AcDbLine
 62
7
  6
CONTINUOUS
 10
7.1661536244
 20
-1.7814129314
 11
7.5516066244
 21
-1.7814129314
  0
LINE
  5
483
100
AcDbEntity
  8
0
100
AcDbLine
 62
7
  6
CONTINUOUS
 10
8.2095536244
 20
-1.7814129314
 11
8.5641396244
 21
-1.7814129314
  0
LINE
  5
484
100
AcDbEntity
  8
ASSI
100
AcDbLine
 62
7
  6
CONTINUOUS
 10
8.2095536244
 20
-1.7814129314
 11
8.5641396244
 21
-1.7814129314
  0
LINE
  5
485
100
AcDbEntity
  8
0
100
AcDbLine
 62
7
  6
CONTINUOUS
 10
9.3951476244
 20
-1.7814129314
 11
9.7496826244
 21
-1.7814129314
  0
LINE
  5
486
100
AcDbEntity
  8
ASSI
100
AcDbLine
 62
7
  6
CONTINUOUS
 10
9.3951476244
 20
-1.7814129314
 11
9.7496826244
 21
-1.7814129314
  0
LINE
  5
487
100
AcDbEntity
  8
0
100
AcDbLine
 62
7
  6
CONTINUOUS
 10
10.4555916244
 20
-1.7814129314
 11
10.8066586244
 21
-1.7814129314
  0
LINE
  5
488
100
AcDbEntity
  8
ASSI
100
AcDbLine
 62
7
  6
CONTINUOUS
 10
10.4555916244
 20
-1.7814129314
 11
10.8066586244
 21
-1.7814129314
  0
LINE
  5
489
100
AcDbEntity
  8
0
100
AcDbLine
 62
7
  6
CONTINUOUS
 10
11.5545176244
 20
-1.7814129314
 11
11.8977716244
 21
-1.7814129314
  0
LINE
  5
48A
100
AcDbEntity
  8
ASSI
100
AcDbLine
 62
7
  6
CONTINUOUS
 10
11.5545176244
 20
-1.7814129314
 11
11.8977716244
 21
-1.7814129314
  0
LINE
  5
48B
100
AcDbEntity
  8
0
100
AcDbLine
 62
7
  6
CONTINUOUS
 10
8.6958176244
 20
-1.7813109314
 11
9.0506456244
 21
-1.7813109314
  0
LINE
  5
48C
100
AcDbEntity
  8
ASSI
100
AcDbLine
 62
7
  6
CONTINUOUS
 10
8.6958176244
 20
-1.7813109314
 11
9.0506456244
 21
-1.7813109314
  0
LINE
  5
48D
100
AcDbEntity
  8
0
100
AcDbLine
 62
7
  6
CONTINUOUS
 10
-13.6801803756
 20
-1.7812759314
 11
-13.4676803756
 21
-1.7812759314
  0
LINE
  5
48E
100
AcDbEntity
  8
ASSI
100
AcDbLine
 62
7
  6
CONTINUOUS
 10
-13.6801803756
 20
-1.7812759314
 11
-13.4676803756
 21
-1.7812759314
  0
LINE
  5
48F
100
AcDbEntity
  8
0
100
AcDbLine
 62
7
  6
CONTINUOUS
 10
-12.6176803756
 20
-1.7812759314
 11
-12.4760137427
 21
-1.7812759314
  0
LINE
  5
490
100
AcDbEntity
  8
ASSI
100
AcDbLine
 62
7
  6
CONTINUOUS
 10
-12.6176803756
 20
-1.7812759314
 11
-12.4760137427
 21
-1.7812759314
  0
LINE
  5
491
100
AcDbEntity
  8
0
100
AcDbLine
 62
7
  6
CONTINUOUS
 10
-11.0593471098
 20
-1.7812759314
 11
-10.9176803756
 21
-1.7812759314
  0
LINE
  5
492
100
AcDbEntity
  8
ASSI
100
AcDbLine
 62
7
  6
CONTINUOUS
 10
-11.0593471098
 20
-1.7812759314
 11
-10.9176803756
 21
-1.7812759314
  0
LINE
  5
493
100
AcDbEntity
  8
0
100
AcDbLine
 62
7
  6
CONTINUOUS
 10
-9.2176803756
 20
-1.7812759314
 11
-9.0051803756
 21
-1.7812759314
  0
LINE
  5
494
100
AcDbEntity
  8
ASSI
100
AcDbLine
 62
7
  6
CONTINUOUS
 10
-9.2176803756
 20
-1.7812759314
 11
-9.0051803756
 21
-1.7812759314
  0
LINE
  5
495
100
AcDbEntity
  8
0
100
AcDbLine
 62
7
  6
CONTINUOUS
 10
-7.7655969071
 20
-1.7812759314
 11
-7.6239303756
 21
-1.7812759314
  0
LINE
  5
496
100
AcDbEntity
  8
ASSI
100
AcDbLine
 62
7
  6
CONTINUOUS
 10
-7.7655969071
 20
-1.7812759314
 11
-7.6239303756
 21
-1.7812759314
  0
LINE
  5
497
100
AcDbEntity
  8
DRAFT
100
AcDbLine
 62
7
  6
CONTINUOUS
 10
-23.9131926175
 20
-1.6784626895
 11
-22.9721681336
 21
-1.6784626895
  0
LINE
  5
498
100
AcDbEntity
  8
ASSI
100
AcDbLine
 62
7
  6
CONTINUOUS
 10
-23.9131926175
 20
-1.6784626895
 11
-22.9721681336
 21
-1.6784626895
  0
LINE
  5
499
100
AcDbEntity
  8
DRAFT
100
AcDbLine
 62
7
  6
CONTINUOUS
 10
22.9868073825
 20
-1.6784626895
 11
23.9278318664
 21
-1.6784626895
  0
LINE
  5
49A
100
AcDbEntity
  8
ASSI
100
AcDbLine
 62
7
  6
CONTINUOUS
 10
22.9868073825
 20
-1.6784626895
 11
23.9278318664
 21
-1.6784626895
  0
LINE
  5
49B
100
AcDbEntity
  8
DRAFT
100
AcDbLine
 62
7
  6
CONTINUOUS
 10
-24.7926803756
 20
-1.637483368
 11
-23.9926803756
 21
-1.637483368
  0
LINE
  5
49C
100
AcDbEntity
  8
ASSI
100
AcDbLine
 62
7
  6
CONTINUOUS
 10
-24.7926803756
 20
-1.637483368
 11
-23.9926803756
 21
-1.637483368
  0
LINE
  5
49D
100
AcDbEntity
  8
DRAFT
100
AcDbLine
 62
7
  6
CONTINUOUS
 10
24.0073196244
 20
-1.637483368
 11
24.8073196244
 21
-1.637483368
  0
LINE
  5
49E
100
AcDbEntity
  8
ASSI
100
AcDbLine
 62
7
  6
CONTINUOUS
 10
24.0073196244
 20
-1.637483368
 11
24.8073196244
 21
-1.637483368
  0
LINE
  5
49F
100
AcDbEntity
  8
DRAFT
100
AcDbLine
 62
7
  6
CONTINUOUS
 10
-23.6752253107
 20
-1.6164299963
 11
-22.9101354405
 21
-1.6164299963
  0
LINE
  5
4A0
100
AcDbEntity
  8
ASSI
100
AcDbLine
 62
7
  6
CONTINUOUS
 10
-23.6752253107
 20
-1.6164299963
 11
-22.9101354405
 21
-1.6164299963
  0
LINE
  5
4A1
100
AcDbEntity
  8
DRAFT
100
AcDbLine
 62
7
  6
CONTINUOUS
 10
23.6898645595
 20
-1.6164299963
 11
22.9247746893
 21
-1.6164299963
  0
LINE
  5
4A2
100
AcDbEntity
  8
ASSI
100
AcDbLine
 62
7
  6
CONTINUOUS
 10
23.6898645595
 20
-1.6164299963
 11
22.9247746893
 21
-1.6164299963
  0
LINE
  5
4A3
100
AcDbEntity
  8
DRAFT
100
AcDbLine
 62
7
  6
CONTINUOUS
 10
-23.9926803756
 20
-1.5989749314
 11
-23.6926803756
 21
-1.5989749314
  0
LINE
  5
4A4
100
AcDbEntity
  8
ASSI
100
AcDbLine
 62
7
  6
CONTINUOUS
 10
-23.9926803756
 20
-1.5989749314
 11
-23.6926803756
 21
-1.5989749314
  0
LINE
  5
4A5
100
AcDbEntity
  8
DRAFT
100
AcDbLine
 62
7
  6
CONTINUOUS
 10
23.7073196244
 20
-1.5989749314
 11
24.0073196244
 21
-1.5989749314
  0
LINE
  5
4A6
100
AcDbEntity
  8
ASSI
100
AcDbLine
 62
7
  6
CONTINUOUS
 10
23.7073196244
 20
-1.5989749314
 11
24.0073196244
 21
-1.5989749314
  0
LINE
  5
4A7
100
AcDbEntity
  8
0
100
AcDbLine
 62
7
  6
CONTINUOUS
 10
-7.4114303756
 20
-1.8174461398
 11
-7.6239303756
 21
-1.7812759314
  0
LINE
  5
4A8
100
AcDbEntity
  8
ASSI
100
AcDbLine
 62
7
  6
CONTINUOUS
 10
-7.4114303756
 20
-1.8174461398
 11
-7.6239303756
 21
-1.7812759314
  0
LINE
  5
4A9
100
AcDbEntity
  8
RACCORDO
100
AcDbLine
 62
253
  6
CONTINUOUS
 10
-6.7575435647
 20
-6.213883812
 11
-6.7874895545
 21
-6.2438298018
  0
LINE
  5
4AA
100
AcDbEntity
  8
ASSI
100
AcDbLine
 62
253
  6
CONTINUOUS
 10
-6.7575435647
 20
-6.213883812
 11
-6.7874895545
 21
-6.2438298018
  0
LINE
  5
4AB
100
AcDbEntity
  8
RACCORDO
100
AcDbLine
 62
253
  6
CONTINUOUS
 10
-6.4577849481
 20
-6.5140338124
 11
-6.487535246
 21
-6.5437841103
  0
LINE
  5
4AC
100
AcDbEntity
  8
ASSI
100
AcDbLine
 62
253
  6
CONTINUOUS
 10
-6.4577849481
 20
-6.5140338124
 11
-6.487535246
 21
-6.5437841103
  0
LINE
  5
4AD
100
AcDbEntity
  8
0
100
AcDbLine
 62
7
  6
CONTINUOUS
 10
-12.4051803756
 20
-3.3004248638
 11
-12.2989303756
 21
-3.2642546553
  0
LINE
  5
4AE
100
AcDbEntity
  8
ASSI
100
AcDbLine
 62
7
  6
CONTINUOUS
 10
-12.4051803756
 20
-3.3004248638
 11
-12.2989303756
 21
-3.2642546553
  0
LINE
  5
4AF
100
AcDbEntity
  8
0
100
AcDbLine
 62
7
  6
CONTINUOUS
 10
-10.9176803756
 20
-3.3004248638
 11
-10.7760136414
 21
-3.2642546553
  0
LINE
  5
4B0
100
AcDbEntity
  8
ASSI
100
AcDbLine
 62
7
  6
CONTINUOUS
 10
-10.9176803756
 20
-3.3004248638
 11
-10.7760136414
 21
-3.2642546553
  0
LINE
  5
4B1
100
AcDbEntity
  8
0
100
AcDbLine
 62
7
  6
CONTINUOUS
 10
-11.2010136414
 20
-2.7217014525
 11
-11.0593471098
 21
-2.6855312441
  0
LINE
  5
4B2
100
AcDbEntity
  8
ASSI
100
AcDbLine
 62
7
  6
CONTINUOUS
 10
-11.2010136414
 20
-2.7217014525
 11
-11.0593471098
 21
-2.6855312441
  0
LINE
  5
4B3
100
AcDbEntity
  8
0
100
AcDbLine
 62
7
  6
CONTINUOUS
 10
-10.8822636414
 20
-3.4812759314
 11
-10.7051803756
 21
-3.4451057198
  0
LINE
  5
4B4
100
AcDbEntity
  8
ASSI
100
AcDbLine
 62
7
  6
CONTINUOUS
 10
-10.8822636414
 20
-3.4812759314
 11
-10.7051803756
 21
-3.4451057198
  0
LINE
  5
4B5
100
AcDbEntity
  8
0
100
AcDbLine
 62
7
  6
CONTINUOUS
 10
-12.4405970085
 20
-3.4812759314
 11
-12.2635137427
 21
-3.4451057198
  0
LINE
  5
4B6
100
AcDbEntity
  8
ASSI
100
AcDbLine
 62
7
  6
CONTINUOUS
 10
-12.4405970085
 20
-3.4812759314
 11
-12.2635137427
 21
-3.4451057198
  0
LINE
  5
4B7
100
AcDbEntity
  8
0
100
AcDbLine
 62
7
  6
CONTINUOUS
 10
-7.9780969071
 20
-1.9982971821
 11
-7.801013844
 21
-1.9621269737
  0
LINE
  5
4B8
100
AcDbEntity
  8
ASSI
100
AcDbLine
 62
7
  6
CONTINUOUS
 10
-7.9780969071
 20
-1.9982971821
 11
-7.801013844
 21
-1.9621269737
  0
LINE
  5
4B9
100
AcDbEntity
  8
0
100
AcDbLine
 62
7
  6
CONTINUOUS
 10
-12.7947637427
 20
-2.4323397849
 11
-12.6176803756
 21
-2.3961695764
  0
LINE
  5
4BA
100
AcDbEntity
  8
ASSI
100
AcDbLine
 62
7
  6
CONTINUOUS
 10
-12.7947637427
 20
-2.4323397849
 11
-12.6176803756
 21
-2.3961695764
  0
LINE
  5
4BB
100
AcDbEntity
  8
0
100
AcDbLine
 62
7
  6
CONTINUOUS
 10
-8.013513844
 20
-1.8174461398
 11
-7.7655969071
 21
-1.7812759314
  0
LINE
  5
4BC
100
AcDbEntity
  8
ASSI
100
AcDbLine
 62
7
  6
CONTINUOUS
 10
-8.013513844
 20
-1.8174461398
 11
-7.7655969071
 21
-1.7812759314
  0
LINE
  5
4BD
100
AcDbEntity
  8
DRAFT
100
AcDbLine
 62
7
  6
CONTINUOUS
 10
-21.8426803756
 20
-0.9769030353
 11
-22.6426803756
 21
-0.9908670872
  0
LINE
  5
4BE
100
AcDbEntity
  8
ASSI
100
AcDbLine
 62
7
  6
CONTINUOUS
 10
-21.8426803756
 20
-0.9769030353
 11
-22.6426803756
 21
-0.9908670872
  0
LINE
  5
4BF
100
AcDbEntity
  8
DRAFT
100
AcDbLine
 62
7
  6
CONTINUOUS
 10
21.8573196244
 20
-0.9706192119
 11
22.4073196244
 21
-0.9650764844
  0
LINE
  5
4C0
100
AcDbEntity
  8
ASSI
100
AcDbLine
 62
7
  6
CONTINUOUS
 10
21.8573196244
 20
-0.9706192119
 11
22.4073196244
 21
-0.9650764844
  0
LINE
  5
4C1
100
AcDbEntity
  8
DRAFT
100
AcDbLine
 62
7
  6
CONTINUOUS
 10
23.6898645595
 20
-0.9908670872
 11
22.6573196244
 21
-0.9908670872
  0
LINE
  5
4C2
100
AcDbEntity
  8
ASSI
100
AcDbLine
 62
7
  6
CONTINUOUS
 10
23.6898645595
 20
-0.9908670872
 11
22.6573196244
 21
-0.9908670872
  0
LINE
  5
4C3
100
AcDbEntity
  8
DRAFT
100
AcDbLine
 62
7
  6
CONTINUOUS
 10
-22.6426803756
 20
-0.9908670872
 11
-23.6752253107
 21
-0.9908670872
  0
LINE
  5
4C4
100
AcDbEntity
  8
ASSI
100
AcDbLine
 62
7
  6
CONTINUOUS
 10
-22.6426803756
 20
-0.9908670872
 11
-23.6752253107
 21
-0.9908670872
  0
LINE
  5
4C5
100
AcDbEntity
  8
RACCORDO
100
AcDbLine
 62
7
  6
CONTINUOUS
 10
-23.3180494891
 20
-0.9285020162
 11
-22.3926803756
 21
-0.9285020162
  0
LINE
  5
4C6
100
AcDbEntity
  8
ASSI
100
AcDbLine
 62
7
  6
CONTINUOUS
 10
-23.3180494891
 20
-0.9285020162
 11
-22.3926803756
 21
-0.9285020162
  0
LINE
  5
4C7
100
AcDbEntity
  8
RACCORDO
100
AcDbLine
 62
7
  6
CONTINUOUS
 10
22.4073196244
 20
-0.9285020162
 11
23.332688738
 21
-0.9285020162
  0
LINE
  5
4C8
100
AcDbEntity
  8
ASSI
100
AcDbLine
 62
7
  6
CONTINUOUS
 10
22.4073196244
 20
-0.9285020162
 11
23.332688738
 21
-0.9285020162
  0
LINE
  5
4C9
100
AcDbEntity
  8
DRAFT
100
AcDbLine
 62
7
  6
CONTINUOUS
 10
-22.3926803756
 20
-0.9650764844
 11
-21.8426803756
 21
-0.9706192119
  0
LINE
  5
4CA
100
AcDbEntity
  8
ASSI
100
AcDbLine
 62
7
  6
CONTINUOUS
 10
-22.3926803756
 20
-0.9650764844
 11
-21.8426803756
 21
-0.9706192119
  0
LINE
  5
4CB
100
AcDbEntity
  8
DRAFT
100
AcDbLine
 62
7
  6
CONTINUOUS
 10
22.6573196244
 20
-0.9908670872
 11
21.8573196244
 21
-0.9769030353
  0
LINE
  5
4CC
100
AcDbEntity
  8
ASSI
100
AcDbLine
 62
7
  6
CONTINUOUS
 10
22.6573196244
 20
-0.9908670872
 11
21.8573196244
 21
-0.9769030353
  0
LINE
  5
4CD
100
AcDbEntity
  8
RACCORDO
100
AcDbLine
 62
253
  6
CONTINUOUS
 10
6.5021744948
 20
-6.5437841103
 11
6.4724241969
 21
-6.5140338124
  0
LINE
  5
4CE
100
AcDbEntity
  8
ASSI
100
AcDbLine
 62
253
  6
CONTINUOUS
 10
6.5021744948
 20
-6.5437841103
 11
6.4724241969
 21
-6.5140338124
  0
LINE
  5
4CF
100
AcDbEntity
  8
0
100
AcDbLine
 62
7
  6
CONTINUOUS
 10
-10.9176803756
 20
-2.5408504103
 11
-10.7760136414
 21
-2.5046802018
  0
LINE
  5
4D0
100
AcDbEntity
  8
ASSI
100
AcDbLine
 62
7
  6
CONTINUOUS
 10
-10.9176803756
 20
-2.5408504103
 11
-10.7760136414
 21
-2.5046802018
  0
LINE
  5
4D1
100
AcDbEntity
  8
0
100
AcDbLine
 62
7
  6
CONTINUOUS
 10
-11.2010136414
 20
-1.9982971821
 11
-11.0593471098
 21
-1.9621269737
  0
LINE
  5
4D2
100
AcDbEntity
  8
ASSI
100
AcDbLine
 62
7
  6
CONTINUOUS
 10
-11.2010136414
 20
-1.9982971821
 11
-11.0593471098
 21
-1.9621269737
  0
LINE
  5
4D3
100
AcDbEntity
  8
0
100
AcDbLine
 62
7
  6
CONTINUOUS
 10
-11.2364303756
 20
-1.8174461398
 11
-11.0593471098
 21
-1.7812759314
  0
LINE
  5
4D4
100
AcDbEntity
  8
ASSI
100
AcDbLine
 62
7
  6
CONTINUOUS
 10
-11.2364303756
 20
-1.8174461398
 11
-11.0593471098
 21
-1.7812759314
  0
LINE
  5
4D5
100
AcDbEntity
  8
0
100
AcDbLine
 62
7
  6
CONTINUOUS
 10
-12.7947637427
 20
-1.8174461398
 11
-12.6176803756
 21
-1.7812759314
  0
LINE
  5
4D6
100
AcDbEntity
  8
ASSI
100
AcDbLine
 62
7
  6
CONTINUOUS
 10
-12.7947637427
 20
-1.8174461398
 11
-12.6176803756
 21
-1.7812759314
  0
LINE
  5
4D7
100
AcDbEntity
  8
0
100
AcDbLine
 62
7
  6
CONTINUOUS
 10
-2.9926803756
 20
0.8510250686
 11
3.0073196244
 21
0.8510250686
  0
LINE
  5
4D8
100
AcDbEntity
  8
ASSI
100
AcDbLine
 62
7
  6
CONTINUOUS
 10
-2.9926803756
 20
0.8510250686
 11
3.0073196244
 21
0.8510250686
  0
LINE
  5
4D9
100
AcDbEntity
  8
RACCORDO
100
AcDbLine
 62
7
  6
CONTINUOUS
 10
23.3318962495
 20
1.1297591034
 11
22.3360536592
 21
1.1297591034
  0
LINE
  5
4DA
100
AcDbEntity
  8
ASSI
100
AcDbLine
 62
7
  6
CONTINUOUS
 10
23.3318962495
 20
1.1297591034
 11
22.3360536592
 21
1.1297591034
  0
LINE
  5
4DB
100
AcDbEntity
  8
RACCORDO
100
AcDbLine
 62
7
  6
CONTINUOUS
 10
-22.3214144104
 20
1.1297591034
 11
-23.3172570007
 21
1.1297591034
  0
LINE
  5
4DC
100
AcDbEntity
  8
ASSI
100
AcDbLine
 62
7
  6
CONTINUOUS
 10
-22.3214144104
 20
1.1297591034
 11
-23.3172570007
 21
1.1297591034
  0
LINE
  5
4DD
100
AcDbEntity
  8
RACCORDO
100
AcDbLine
 62
7
  6
CONTINUOUS
 10
-23.6682432847
 20
1.1859351985
 11
-22.6723996844
 21
1.1859351985
  0
LINE
  5
4DE
100
AcDbEntity
  8
ASSI
100
AcDbLine
 62
7
  6
CONTINUOUS
 10
-23.6682432847
 20
1.1859351985
 11
-22.6723996844
 21
1.1859351985
  0
LINE
  5
4DF
100
AcDbEntity
  8
RACCORDO
100
AcDbLine
 62
7
  6
CONTINUOUS
 10
22.6870389332
 20
1.1859351985
 11
23.6828825335
 21
1.1859351985
  0
LINE
  5
4E0
100
AcDbEntity
  8
ASSI
100
AcDbLine
 62
7
  6
CONTINUOUS
 10
22.6870389332
 20
1.1859351985
 11
23.6828825335
 21
1.1859351985
  0
LINE
  5
4E1
100
AcDbEntity
  8
RACCORDO
100
AcDbLine
 62
7
  6
CONTINUOUS
 10
23.6828825335
 20
1.8161149387
 11
22.6870389332
 21
1.8161149387
  0
LINE
  5
4E2
100
AcDbEntity
  8
ASSI
100
AcDbLine
 62
7
  6
CONTINUOUS
 10
23.6828825335
 20
1.8161149387
 11
22.6870389332
 21
1.8161149387
  0
LINE
  5
4E3
100
AcDbEntity
  8
RACCORDO
100
AcDbLine
 62
7
  6
CONTINUOUS
 10
-22.6723996844
 20
1.8161149387
 11
-23.6682432847
 21
1.8161149387
  0
LINE
  5
4E4
100
AcDbEntity
  8
ASSI
100
AcDbLine
 62
7
  6
CONTINUOUS
 10
-22.6723996844
 20
1.8161149387
 11
-23.6682432847
 21
1.8161149387
  0
LINE
  5
4E5
100
AcDbEntity
  8
RACCORDO
100
AcDbLine
 62
7
  6
CONTINUOUS
 10
-23.3170138643
 20
1.8725343424
 11
-22.3211711017
 21
1.8725343424
  0
LINE
  5
4E6
100
AcDbEntity
  8
ASSI
100
AcDbLine
 62
7
  6
CONTINUOUS
 10
-23.3170138643
 20
1.8725343424
 11
-22.3211711017
 21
1.8725343424
  0
LINE
  5
4E7
100
AcDbEntity
  8
RACCORDO
100
AcDbLine
 62
7
  6
CONTINUOUS
 10
22.3358103506
 20
1.8725343424
 11
23.3316531132
 21
1.8725343424
  0
LINE
  5
4E8
100
AcDbEntity
  8
ASSI
100
AcDbLine
 62
7
  6
CONTINUOUS
 10
22.3358103506
 20
1.8725343424
 11
23.3316531132
 21
1.8725343424
  0
LINE
  5
4E9
100
AcDbEntity
  8
RACCORDO
100
AcDbLine
 62
253
  6
CONTINUOUS
 10
6.8021288034
 20
-6.2438298018
 11
6.7721828135
 21
-6.213883812
  0
LINE
  5
4EA
100
AcDbEntity
  8
ASSI
100
AcDbLine
 62
253
  6
CONTINUOUS
 10
6.8021288034
 20
-6.2438298018
 11
6.7721828135
 21
-6.213883812
  0
LINE
  5
4EB
100
AcDbEntity
  8
DRAFT
100
AcDbLine
 62
7
  6
CONTINUOUS
 10
2.5038286114
 20
7.2719711465
 11
2.5038286114
 21
2.4300789907
  0
LINE
  5
4EC
100
AcDbEntity
  8
DRAFT
100
AcDbLine
 62
7
  6
CONTINUOUS
 10
2.9073196244
 20
5.6552538194
 11
2.9073196244
 21
4.0467963178
  0
LINE
  5
4ED
100
AcDbEntity
  8
ASSI
100
AcDbLine
 62
7
  6
CONTINUOUS
 10
2.9073196244
 20
5.6552538194
 11
2.9073196244
 21
4.0467963178
  0
LINE
  5
4EE
100
AcDbEntity
  8
DRAFT
100
AcDbLine
 62
7
  6
CONTINUOUS
 10
2.9747746893
 20
7.2684801335
 11
2.9747746893
 21
5.6597526011
  0
LINE
  5
4EF
100
AcDbEntity
  8
DRAFT
100
AcDbLine
 62
7
  6
CONTINUOUS
 10
2.9747746893
 20
4.0422975361
 11
2.9747746893
 21
2.4335700037
  0
LINE
  5
4F0
100
AcDbEntity
  8
DRAFT
100
AcDbLine
 62
7
  6
CONTINUOUS
 10
3.0073196244
 20
0.8510250686
 11
3.0073196244
 21
4.0422975361
  0
LINE
  5
4F1
100
AcDbEntity
  8
ASSI
100
AcDbLine
 62
7
  6
CONTINUOUS
 10
3.0073196244
 20
0.8510250686
 11
3.0073196244
 21
4.0422975361
  0
LINE
  5
4F2
100
AcDbEntity
  8
DRAFT
100
AcDbLine
 62
7
  6
CONTINUOUS
 10
3.0073196244
 20
5.6597526011
 11
3.0073196244
 21
7.3510250686
  0
LINE
  5
4F3
100
AcDbEntity
  8
ASSI
100
AcDbLine
 62
7
  6
CONTINUOUS
 10
3.0073196244
 20
5.6597526011
 11
3.0073196244
 21
7.3510250686
  0
LINE
  5
4F4
100
AcDbEntity
  8
DRAFT
100
AcDbLine
 62
7
  6
CONTINUOUS
 10
3.1495845975
 20
5.6510250686
 11
3.1495845975
 21
4.0510250686
  0
LINE
  5
4F5
100
AcDbEntity
  8
ASSI
100
AcDbLine
 62
7
  6
CONTINUOUS
 10
3.1495845975
 20
5.6510250686
 11
3.1495845975
 21
4.0510250686
  0
LINE
  5
4F6
100
AcDbEntity
  8
RACCORDO
100
AcDbLine
 62
253
  6
CONTINUOUS
 10
3.547257363
 20
4.0510250686
 11
3.547257363
 21
5.6510250686
  0
LINE
  5
4F7
100
AcDbEntity
  8
ASSI
100
AcDbLine
 62
253
  6
CONTINUOUS
 10
3.547257363
 20
4.0510250686
 11
3.547257363
 21
5.6510250686
  0
LINE
  5
4F8
100
AcDbEntity
  8
DRAFT
100
AcDbLine
 62
7
  6
CONTINUOUS
 10
2.5038286114
 20
2.4300789907
 11
-2.4891893626
 21
2.4300789907
  0
LINE
  5
4F9
100
AcDbEntity
  8
DRAFT
100
AcDbLine
 62
7
  6
CONTINUOUS
 10
-2.9601354405
 20
2.4335700037
 11
-2.4926803756
 21
2.4335700037
  0
LINE
  5
4FA
100
AcDbEntity
  8
DRAFT
100
AcDbLine
 62
7
  6
CONTINUOUS
 10
2.9747746893
 20
2.4335700037
 11
2.5073196244
 21
2.4335700037
  0
LINE
  5
4FB
100
AcDbEntity
  8
RACCORDO
100
AcDbLine
 62
7
  6
CONTINUOUS
 10
-19.7645951917
 20
3.129155944
 11
-19.5207655595
 21
3.129155944
  0
LINE
  5
4FC
100
AcDbEntity
  8
ASSI
100
AcDbLine
 62
7
  6
CONTINUOUS
 10
-19.7645951917
 20
3.129155944
 11
-19.5207655595
 21
3.129155944
  0
LINE
  5
4FD
100
AcDbEntity
  8
RACCORDO
100
AcDbLine
 62
7
  6
CONTINUOUS
 10
19.5354048083
 20
3.129155944
 11
19.7792344405
 21
3.129155944
  0
LINE
  5
4FE
100
AcDbEntity
  8
ASSI
100
AcDbLine
 62
7
  6
CONTINUOUS
 10
19.5354048083
 20
3.129155944
 11
19.7792344405
 21
3.129155944
  0
LINE
  5
4FF
100
AcDbEntity
  8
RACCORDO
100
AcDbLine
 62
253
  6
CONTINUOUS
 10
-19.7338462181
 20
3.1599049175
 11
-19.551514533
 21
3.1599049175
  0
LINE
  5
500
100
AcDbEntity
  8
ASSI
100
AcDbLine
 62
253
  6
CONTINUOUS
 10
-19.7338462181
 20
3.1599049175
 11
-19.551514533
 21
3.1599049175
  0
LINE
  5
501
100
AcDbEntity
  8
RACCORDO
100
AcDbLine
 62
253
  6
CONTINUOUS
 10
19.5661537819
 20
3.1599049175
 11
19.748485467
 21
3.1599049175
  0
LINE
  5
502
100
AcDbEntity
  8
ASSI
100
AcDbLine
 62
253
  6
CONTINUOUS
 10
19.5661537819
 20
3.1599049175
 11
19.748485467
 21
3.1599049175
  0
LINE
  5
503
100
AcDbEntity
  8
RACCORDO
100
AcDbLine
 62
253
  6
CONTINUOUS
 10
-20.0303704403
 20
3.6598287651
 11
-19.2549903109
 21
3.6598287651
  0
LINE
  5
504
100
AcDbEntity
  8
ASSI
100
AcDbLine
 62
253
  6
CONTINUOUS
 10
-20.0303704403
 20
3.6598287651
 11
-19.2549903109
 21
3.6598287651
  0
LINE
  5
505
100
AcDbEntity
  8
RACCORDO
100
AcDbLine
 62
253
  6
CONTINUOUS
 10
20.0450096891
 20
3.6598287651
 11
19.2696295597
 21
3.6598287651
  0
LINE
  5
506
100
AcDbEntity
  8
ASSI
100
AcDbLine
 62
253
  6
CONTINUOUS
 10
20.0450096891
 20
3.6598287651
 11
19.2696295597
 21
3.6598287651
  0
LINE
  5
507
100
AcDbEntity
  8
RACCORDO
100
AcDbLine
 62
253
  6
CONTINUOUS
 10
3.8291651492
 20
4.0475795443
 11
3.8291651492
 21
5.6544705929
  0
LINE
  5
508
100
AcDbEntity
  8
ASSI
100
AcDbLine
 62
253
  6
CONTINUOUS
 10
3.8291651492
 20
4.0475795443
 11
3.8291651492
 21
5.6544705929
  0
LINE
  5
509
100
AcDbEntity
  8
RACCORDO
100
AcDbLine
 62
253
  6
CONTINUOUS
 10
4.4306954866
 20
4.0254480267
 11
4.4372183914
 21
5.6769150802
  0
LINE
  5
50A
100
AcDbEntity
  8
ASSI
100
AcDbLine
 62
253
  6
CONTINUOUS
 10
4.4306954866
 20
4.0254480267
 11
4.4372183914
 21
5.6769150802
  0
LINE
  5
50B
100
AcDbEntity
  8
DRAFT
100
AcDbLine
 62
7
  6
CONTINUOUS
 10
21.319785615
 20
8.1033902634
 11
21.0573196244
 21
8.0510250686
  0
LINE
  5
50C
100
AcDbEntity
  8
ASSI
100
AcDbLine
 62
7
  6
CONTINUOUS
 10
21.319785615
 20
8.1033902634
 11
21.0573196244
 21
8.0510250686
  0
LINE
  5
50D
100
AcDbEntity
  8
DRAFT
100
AcDbLine
 62
7
  6
CONTINUOUS
 10
21.319785615
 20
9.2440430426
 11
21.0573196244
 21
9.1916778478
  0
LINE
  5
50E
100
AcDbEntity
  8
ASSI
100
AcDbLine
 62
7
  6
CONTINUOUS
 10
21.319785615
 20
9.2440430426
 11
21.0573196244
 21
9.1916778478
  0
LINE
  5
50F
100
AcDbEntity
  8
RACCORDO
100
AcDbLine
 62
7
  6
CONTINUOUS
 10
-3.8145259004
 20
4.0475795443
 11
-4.2281164996
 21
4.0277448158
  0
LINE
  5
510
100
AcDbEntity
  8
ASSI
100
AcDbLine
 62
7
  6
CONTINUOUS
 10
-3.8145259004
 20
4.0475795443
 11
-4.2281164996
 21
4.0277448158
  0
LINE
  5
511
100
AcDbEntity
  8
RACCORDO
100
AcDbLine
 62
7
  6
CONTINUOUS
 10
4.2492666635
 20
5.6746175679
 11
3.8291651492
 21
5.6544705929
  0
LINE
  5
512
100
AcDbEntity
  8
ASSI
100
AcDbLine
 62
7
  6
CONTINUOUS
 10
4.2492666635
 20
5.6746175679
 11
3.8291651492
 21
5.6544705929
  0
LINE
  5
513
100
AcDbEntity
  8
DRAFT
100
AcDbLine
 62
7
  6
CONTINUOUS
 10
3.1495845975
 20
4.0510250686
 11
2.9073196244
 21
4.0467963178
  0
LINE
  5
514
100
AcDbEntity
  8
ASSI
100
AcDbLine
 62
7
  6
CONTINUOUS
 10
3.1495845975
 20
4.0510250686
 11
2.9073196244
 21
4.0467963178
  0
LINE
  5
515
100
AcDbEntity
  8
DRAFT
100
AcDbLine
 62
7
  6
CONTINUOUS
 10
-2.9926803756
 20
4.0422975361
 11
-2.8926803756
 21
4.0433053048
  0
LINE
  5
516
100
AcDbEntity
  8
ASSI
100
AcDbLine
 62
7
  6
CONTINUOUS
 10
-2.9926803756
 20
4.0422975361
 11
-2.9601354405
 21
4.0426255138
  0
LINE
  5
517
100
AcDbEntity
  8
RACCORDO
100
AcDbLine
 62
7
  6
CONTINUOUS
 10
4.4306954866
 20
4.0254480267
 11
3.0073196244
 21
4.0254480267
  0
LINE
  5
518
100
AcDbEntity
  8
ASSI
100
AcDbLine
 62
7
  6
CONTINUOUS
 10
4.4306954866
 20
4.0254480267
 11
3.0073196244
 21
4.0254480267
  0
LINE
  5
519
100
AcDbEntity
  8
RACCORDO
100
AcDbLine
 62
7
  6
CONTINUOUS
 10
-2.9926803756
 20
4.0254480267
 11
-4.4160562377
 21
4.0254480267
  0
LINE
  5
51A
100
AcDbEntity
  8
ASSI
100
AcDbLine
 62
7
  6
CONTINUOUS
 10
-2.9926803756
 20
4.0254480267
 11
-4.4160562377
 21
4.0254480267
  0
LINE
  5
51B
100
AcDbEntity
  8
RACCORDO
100
AcDbLine
 62
7
  6
CONTINUOUS
 10
3.547257363
 20
4.0510250686
 11
3.1495845975
 21
4.0510250686
  0
LINE
  5
51C
100
AcDbEntity
  8
ASSI
100
AcDbLine
 62
7
  6
CONTINUOUS
 10
3.547257363
 20
4.0510250686
 11
3.1495845975
 21
4.0510250686
  0
LINE
  5
51D
100
AcDbEntity
  8
RACCORDO
100
AcDbLine
 62
7
  6
CONTINUOUS
 10
-3.1349453487
 20
4.0510250686
 11
-3.5326181141
 21
4.0510250686
  0
LINE
  5
51E
100
AcDbEntity
  8
ASSI
100
AcDbLine
 62
7
  6
CONTINUOUS
 10
-3.1349453487
 20
4.0510250686
 11
-3.5326181141
 21
4.0510250686
  0
LINE
  5
51F
100
AcDbEntity
  8
RACCORDO
100
AcDbLine
 62
253
  6
CONTINUOUS
 10
19.2696295597
 20
5.0439182874
 11
20.0450096891
 21
5.0439182874
  0
LINE
  5
520
100
AcDbEntity
  8
ASSI
100
AcDbLine
 62
253
  6
CONTINUOUS
 10
19.2696295597
 20
5.0439182874
 11
20.0450096891
 21
5.0439182874
  0
LINE
  5
521
100
AcDbEntity
  8
RACCORDO
100
AcDbLine
 62
253
  6
CONTINUOUS
 10
-19.2549903109
 20
5.0439182874
 11
-20.0303704403
 21
5.0439182874
  0
LINE
  5
522
100
AcDbEntity
  8
ASSI
100
AcDbLine
 62
253
  6
CONTINUOUS
 10
-19.2549903109
 20
5.0439182874
 11
-20.0303704403
 21
5.0439182874
  0
LINE
  5
523
100
AcDbEntity
  8
RACCORDO
100
AcDbLine
 62
253
  6
CONTINUOUS
 10
19.7460767343
 20
5.3974063503
 11
19.5685625147
 21
5.3974063425
  0
LINE
  5
524
100
AcDbEntity
  8
ASSI
100
AcDbLine
 62
253
  6
CONTINUOUS
 10
19.7460767343
 20
5.3974063503
 11
19.5685625147
 21
5.3974063425
  0
LINE
  5
525
100
AcDbEntity
  8
RACCORDO
100
AcDbLine
 62
253
  6
CONTINUOUS
 10
-19.5539232657
 20
5.3974063503
 11
-19.7314374853
 21
5.3974063425
  0
LINE
  5
526
100
AcDbEntity
  8
ASSI
100
AcDbLine
 62
253
  6
CONTINUOUS
 10
-19.5539232657
 20
5.3974063503
 11
-19.7314374853
 21
5.3974063425
  0
LINE
  5
527
100
AcDbEntity
  8
DRAFT
100
AcDbLine
 62
7
  6
CONTINUOUS
 10
2.9073196244
 20
4.0433053048
 11
3.0073196244
 21
4.0422975361
  0
LINE
  5
528
100
AcDbEntity
  8
ASSI
100
AcDbLine
 62
7
  6
CONTINUOUS
 10
2.9747746893
 20
4.0426255138
 11
3.0073196244
 21
4.0422975361
  0
LINE
  5
529
100
AcDbEntity
  8
DRAFT
100
AcDbLine
 62
7
  6
CONTINUOUS
 10
-2.8926803756
 20
4.0467963178
 11
-3.1349453487
 21
4.0510250686
  0
LINE
  5
52A
100
AcDbEntity
  8
ASSI
100
AcDbLine
 62
7
  6
CONTINUOUS
 10
-2.8926803756
 20
4.0467963178
 11
-3.1349453487
 21
4.0510250686
  0
LINE
  5
52B
100
AcDbEntity
  8
RACCORDO
100
AcDbLine
 62
7
  6
CONTINUOUS
 10
4.2427557484
 20
4.0277448158
 11
3.8291651492
 21
4.0475795443
  0
LINE
  5
52C
100
AcDbEntity
  8
ASSI
100
AcDbLine
 62
7
  6
CONTINUOUS
 10
4.2427557484
 20
4.0277448158
 11
3.8291651492
 21
4.0475795443
  0
LINE
  5
52D
100
AcDbEntity
  8
RACCORDO
100
AcDbLine
 62
7
  6
CONTINUOUS
 10
-3.8145259004
 20
5.6544705929
 11
-4.2346274146
 21
5.6746175679
  0
LINE
  5
52E
100
AcDbEntity
  8
ASSI
100
AcDbLine
 62
7
  6
CONTINUOUS
 10
-3.8145259004
 20
5.6544705929
 11
-4.2346274146
 21
5.6746175679
  0
LINE
  5
52F
100
AcDbEntity
  8
DRAFT
100
AcDbLine
 62
7
  6
CONTINUOUS
 10
-21.3051463662
 20
8.1033902634
 11
-21.0426803756
 21
8.0510250686
  0
LINE
  5
530
100
AcDbEntity
  8
ASSI
100
AcDbLine
 62
7
  6
CONTINUOUS
 10
-21.3051463662
 20
8.1033902634
 11
-21.0426803756
 21
8.0510250686
  0
LINE
  5
531
100
AcDbEntity
  8
DRAFT
100
AcDbLine
 62
7
  6
CONTINUOUS
 10
-21.3051463662
 20
9.2440430426
 11
-21.0426803756
 21
9.1916778478
  0
LINE
  5
532
100
AcDbEntity
  8
ASSI
100
AcDbLine
 62
7
  6
CONTINUOUS
 10
-21.3051463662
 20
9.2440430426
 11
-21.0426803756
 21
9.1916778478
  0
LINE
  5
533
100
AcDbEntity
  8
RACCORDO
100
AcDbLine
 62
7
  6
CONTINUOUS
 10
6.4772695306
 20
-7.5722311624
 11
6.5021744948
 21
-7.8238152825
  0
LINE
  5
534
100
AcDbEntity
  8
ASSI
100
AcDbLine
 62
7
  6
CONTINUOUS
 10
6.4772695306
 20
-7.5722311624
 11
6.5021744948
 21
-7.8238152825
  0
LINE
  5
535
100
AcDbEntity
  8
RACCORDO
100
AcDbLine
 62
253
  6
CONTINUOUS
 10
6.5021744948
 20
-7.8238152825
 11
6.5021744948
 21
-6.5437841103
  0
LINE
  5
536
100
AcDbEntity
  8
ASSI
100
AcDbLine
 62
253
  6
CONTINUOUS
 10
6.5021744948
 20
-7.8238152825
 11
6.5021744948
 21
-6.5437841103
  0
LINE
  5
537
100
AcDbEntity
  8
RACCORDO
100
AcDbLine
 62
253
  6
CONTINUOUS
 10
6.8021288034
 20
-7.8757901777
 11
6.8021288034
 21
-6.2438298018
  0
LINE
  5
538
100
AcDbEntity
  8
ASSI
100
AcDbLine
 62
253
  6
CONTINUOUS
 10
6.8021288034
 20
-7.8757901777
 11
6.8021288034
 21
-6.2438298018
  0
LINE
  5
539
100
AcDbEntity
  8
RACCORDO
100
AcDbLine
 62
253
  6
CONTINUOUS
 10
7.0125104455
 20
-6.2438298018
 11
7.0125104455
 21
-7.8757901777
  0
LINE
  5
53A
100
AcDbEntity
  8
ASSI
100
AcDbLine
 62
253
  6
CONTINUOUS
 10
7.0125104455
 20
-6.2438298018
 11
7.0125104455
 21
-7.8757901777
  0
LINE
  5
53B
100
AcDbEntity
  8
DRAFT
100
AcDbLine
 62
7
  6
CONTINUOUS
 10
-2.8926803756
 20
5.6552538194
 11
-3.1349453487
 21
5.6510250686
  0
LINE
  5
53C
100
AcDbEntity
  8
ASSI
100
AcDbLine
 62
7
  6
CONTINUOUS
 10
-2.8926803756
 20
5.6552538194
 11
-3.1349453487
 21
5.6510250686
  0
LINE
  5
53D
100
AcDbEntity
  8
DRAFT
100
AcDbLine
 62
7
  6
CONTINUOUS
 10
2.9073196244
 20
5.6587448324
 11
3.0073196244
 21
5.6597526011
  0
LINE
  5
53E
100
AcDbEntity
  8
ASSI
100
AcDbLine
 62
7
  6
CONTINUOUS
 10
2.9747746893
 20
5.6594246234
 11
3.0073196244
 21
5.6597526011
  0
LINE
  5
53F
100
AcDbEntity
  8
RACCORDO
100
AcDbLine
 62
7
  6
CONTINUOUS
 10
3.547257363
 20
5.6510250686
 11
3.1495845975
 21
5.6510250686
  0
LINE
  5
540
100
AcDbEntity
  8
ASSI
100
AcDbLine
 62
7
  6
CONTINUOUS
 10
3.547257363
 20
5.6510250686
 11
3.1495845975
 21
5.6510250686
  0
LINE
  5
541
100
AcDbEntity
  8
RACCORDO
100
AcDbLine
 62
7
  6
CONTINUOUS
 10
-3.1349453487
 20
5.6510250686
 11
-3.5326181141
 21
5.6510250686
  0
LINE
  5
542
100
AcDbEntity
  8
ASSI
100
AcDbLine
 62
7
  6
CONTINUOUS
 10
-3.1349453487
 20
5.6510250686
 11
-3.5326181141
 21
5.6510250686
  0
LINE
  5
543
100
AcDbEntity
  8
RACCORDO
100
AcDbLine
 62
7
  6
CONTINUOUS
 10
-4.4225791425
 20
5.6769150802
 11
-2.9926803756
 21
5.6769150802
  0
LINE
  5
544
100
AcDbEntity
  8
ASSI
100
AcDbLine
 62
7
  6
CONTINUOUS
 10
-4.4225791425
 20
5.6769150802
 11
-2.9926803756
 21
5.6769150802
  0
LINE
  5
545
100
AcDbEntity
  8
RACCORDO
100
AcDbLine
 62
7
  6
CONTINUOUS
 10
3.0073196244
 20
5.6769150802
 11
4.4372183914
 21
5.6769150802
  0
LINE
  5
546
100
AcDbEntity
  8
ASSI
100
AcDbLine
 62
7
  6
CONTINUOUS
 10
3.0073196244
 20
5.6769150802
 11
4.4372183914
 21
5.6769150802
  0
LINE
  5
547
100
AcDbEntity
  8
RACCORDO
100
AcDbLine
 62
253
  6
CONTINUOUS
 10
19.5562185857
 20
6.1045895616
 11
19.7584206728
 21
6.1045901115
  0
LINE
  5
548
100
AcDbEntity
  8
ASSI
100
AcDbLine
 62
253
  6
CONTINUOUS
 10
19.5562185857
 20
6.1045895616
 11
19.7584206728
 21
6.1045901115
  0
LINE
  5
549
100
AcDbEntity
  8
RACCORDO
100
AcDbLine
 62
253
  6
CONTINUOUS
 10
-19.7437814143
 20
6.1045895616
 11
-19.5415793272
 21
6.1045901115
  0
LINE
  5
54A
100
AcDbEntity
  8
ASSI
100
AcDbLine
 62
253
  6
CONTINUOUS
 10
-19.7437814143
 20
6.1045895616
 11
-19.5415793272
 21
6.1045901115
  0
LINE
  5
54B
100
AcDbEntity
  8
RACCORDO
100
AcDbLine
 62
253
  6
CONTINUOUS
 10
-19.237535246
 20
6.4581318498
 11
-20.0478255052
 21
6.4581318498
  0
LINE
  5
54C
100
AcDbEntity
  8
ASSI
100
AcDbLine
 62
253
  6
CONTINUOUS
 10
-19.237535246
 20
6.4581318498
 11
-20.0478255052
 21
6.4581318498
  0
LINE
  5
54D
100
AcDbEntity
  8
RACCORDO
100
AcDbLine
 62
253
  6
CONTINUOUS
 10
19.2521744948
 20
6.4581318498
 11
20.062464754
 21
6.4581318498
  0
LINE
  5
54E
100
AcDbEntity
  8
ASSI
100
AcDbLine
 62
253
  6
CONTINUOUS
 10
19.2521744948
 20
6.4581318498
 11
20.062464754
 21
6.4581318498
  0
LINE
  5
54F
100
AcDbEntity
  8
DRAFT
100
AcDbLine
 62
7
  6
CONTINUOUS
 10
-2.9601354405
 20
7.2684801335
 11
-2.4926803756
 21
7.2684801335
  0
LINE
  5
550
100
AcDbEntity
  8
DRAFT
100
AcDbLine
 62
7
  6
CONTINUOUS
 10
2.9747746893
 20
7.2684801335
 11
2.5073196244
 21
7.2684801335
  0
LINE
  5
551
100
AcDbEntity
  8
DRAFT
100
AcDbLine
 62
7
  6
CONTINUOUS
 10
-2.4891893626
 20
7.2719711465
 11
2.5038286114
 21
7.2719711465
  0
LINE
  5
552
100
AcDbEntity
  8
DRAFT
100
AcDbLine
 62
7
  6
CONTINUOUS
 10
-2.9926803756
 20
5.6597526011
 11
-2.8926803756
 21
5.6587448324
  0
LINE
  5
553
100
AcDbEntity
  8
ASSI
100
AcDbLine
 62
7
  6
CONTINUOUS
 10
-2.9926803756
 20
5.6597526011
 11
-2.9601354405
 21
5.6594246234
  0
LINE
  5
554
100
AcDbEntity
  8
DRAFT
100
AcDbLine
 62
7
  6
CONTINUOUS
 10
3.1495845975
 20
5.6510250686
 11
2.9073196244
 21
5.6552538194
  0
LINE
  5
555
100
AcDbEntity
  8
ASSI
100
AcDbLine
 62
7
  6
CONTINUOUS
 10
3.1495845975
 20
5.6510250686
 11
2.9073196244
 21
5.6552538194
  0
LINE
  5
556
100
AcDbEntity
  8
0
100
AcDbLine
 62
7
  6
CONTINUOUS
 10
7.7050436244
 20
-3.4812759314
 11
7.1661536244
 21
-1.7814129314
  0
LINE
  5
557
100
AcDbEntity
  8
ASSI
100
AcDbLine
 62
7
  6
CONTINUOUS
 10
7.7050436244
 20
-3.4812759314
 11
7.1661536244
 21
-1.7814129314
  0
LINE
  5
558
100
AcDbEntity
  8
0
100
AcDbLine
 62
7
  6
CONTINUOUS
 10
7.8756316244
 20
-2.9514809314
 11
7.5516066244
 21
-1.7814129314
  0
LINE
  5
559
100
AcDbEntity
  8
ASSI
100
AcDbLine
 62
7
  6
CONTINUOUS
 10
7.8756316244
 20
-2.9514809314
 11
7.5516066244
 21
-1.7814129314
  0
LINE
  5
55A
100
AcDbEntity
  8
RACCORDO
100
AcDbLine
 62
253
  6
CONTINUOUS
 10
7.312464754
 20
-6.5437841103
 11
7.312464754
 21
-7.8238152825
  0
LINE
  5
55B
100
AcDbEntity
  8
ASSI
100
AcDbLine
 62
253
  6
CONTINUOUS
 10
7.312464754
 20
-6.5437841103
 11
7.312464754
 21
-7.8238152825
  0
LINE
  5
55C
100
AcDbEntity
  8
0
100
AcDbLine
 62
7
  6
CONTINUOUS
 10
8.6958176244
 20
-3.4812759314
 11
8.6958176244
 21
-1.7813109314
  0
LINE
  5
55D
100
AcDbEntity
  8
ASSI
100
AcDbLine
 62
7
  6
CONTINUOUS
 10
8.6958176244
 20
-3.4812759314
 11
8.6958176244
 21
-1.7813109314
  0
LINE
  5
55E
100
AcDbEntity
  8
0
100
AcDbLine
 62
7
  6
CONTINUOUS
 10
9.0506456244
 20
-3.4812759314
 11
9.0506456244
 21
-1.7813109314
  0
LINE
  5
55F
100
AcDbEntity
  8
ASSI
100
AcDbLine
 62
7
  6
CONTINUOUS
 10
9.0506456244
 20
-3.4812759314
 11
9.0506456244
 21
-1.7813109314
  0
LINE
  5
560
100
AcDbEntity
  8
RACCORDO
100
AcDbLine
 62
7
  6
CONTINUOUS
 10
7.3415248789
 20
-7.530256702
 11
7.312464754
 21
-7.8238152825
  0
LINE
  5
561
100
AcDbEntity
  8
ASSI
100
AcDbLine
 62
7
  6
CONTINUOUS
 10
7.3415248789
 20
-7.530256702
 11
7.312464754
 21
-7.8238152825
  0
LINE
  5
562
100
AcDbEntity
  8
0
100
AcDbLine
 62
7
  6
CONTINUOUS
 10
7.8756316244
 20
-2.9514809314
 11
8.2095536244
 21
-1.7814129314
  0
LINE
  5
563
100
AcDbEntity
  8
ASSI
100
AcDbLine
 62
7
  6
CONTINUOUS
 10
7.8756316244
 20
-2.9514809314
 11
8.2095536244
 21
-1.7814129314
  0
LINE
  5
564
100
AcDbEntity
  8
0
100
AcDbLine
 62
7
  6
CONTINUOUS
 10
8.0177356244
 20
-3.4812759314
 11
8.5641396244
 21
-1.7814129314
  0
LINE
  5
565
100
AcDbEntity
  8
ASSI
100
AcDbLine
 62
7
  6
CONTINUOUS
 10
8.0177356244
 20
-3.4812759314
 11
8.5641396244
 21
-1.7814129314
  0
LINE
  5
566
100
AcDbEntity
  8
RACCORDO
100
AcDbLine
 62
7
  6
CONTINUOUS
 10
19.2521744948
 20
8.045879939
 11
19.2346689085
 21
8.0283743527
  0
LINE
  5
567
100
AcDbEntity
  8
ASSI
100
AcDbLine
 62
7
  6
CONTINUOUS
 10
19.2521744948
 20
8.045879939
 11
19.2346689085
 21
8.0283743527
  0
LINE
  5
568
100
AcDbEntity
  8
0
100
AcDbLine
 62
7
  6
CONTINUOUS
 10
-2.9926803756
 20
7.3510250686
 11
3.0073196244
 21
7.3510250686
  0
LINE
  5
569
100
AcDbEntity
  8
ASSI
100
AcDbLine
 62
7
  6
CONTINUOUS
 10
-2.9926803756
 20
7.3510250686
 11
3.0073196244
 21
7.3510250686
  0
LINE
  5
56A
100
AcDbEntity
  8
DRAFT
100
AcDbLine
 62
7
  6
CONTINUOUS
 10
-24.7926803756
 20
7.9916778478
 11
-23.6926803756
 21
7.9916778478
  0
LINE
  5
56B
100
AcDbEntity
  8
ASSI
100
AcDbLine
 62
7
  6
CONTINUOUS
 10
-24.7926803756
 20
7.9916778478
 11
-23.6926803756
 21
7.9916778478
  0
LINE
  5
56C
100
AcDbEntity
  8
DRAFT
100
AcDbLine
 62
7
  6
CONTINUOUS
 10
23.7073196244
 20
7.9916778478
 11
24.8073196244
 21
7.9916778478
  0
LINE
  5
56D
100
AcDbEntity
  8
ASSI
100
AcDbLine
 62
7
  6
CONTINUOUS
 10
23.7073196244
 20
7.9916778478
 11
24.8073196244
 21
7.9916778478
  0
LINE
  5
56E
100
AcDbEntity
  8
RACCORDO
100
AcDbLine
 62
253
  6
CONTINUOUS
 10
-24.7908434792
 20
7.9935147442
 11
-23.6908434792
 21
7.9935147442
  0
LINE
  5
56F
100
AcDbEntity
  8
ASSI
100
AcDbLine
 62
253
  6
CONTINUOUS
 10
-24.7908434792
 20
7.9935147442
 11
-23.6908434792
 21
7.9935147442
  0
LINE
  5
570
100
AcDbEntity
  8
RACCORDO
100
AcDbLine
 62
253
  6
CONTINUOUS
 10
23.7054827281
 20
7.9935147442
 11
24.8054827281
 21
7.9935147442
  0
LINE
  5
571
100
AcDbEntity
  8
ASSI
100
AcDbLine
 62
253
  6
CONTINUOUS
 10
23.7054827281
 20
7.9935147442
 11
24.8054827281
 21
7.9935147442
  0
LINE
  5
572
100
AcDbEntity
  8
RACCORDO
100
AcDbLine
 62
7
  6
CONTINUOUS
 10
-23.3158732304
 20
8.0283743527
 11
-20.0653310915
 21
8.0283743527
  0
LINE
  5
573
100
AcDbEntity
  8
ASSI
100
AcDbLine
 62
7
  6
CONTINUOUS
 10
-23.3158732304
 20
8.0283743527
 11
-20.0653310915
 21
8.0283743527
  0
LINE
  5
574
100
AcDbEntity
  8
DRAFT
100
AcDbLine
 62
7
  6
CONTINUOUS
 10
-19.2200296597
 20
8.0283743527
 11
19.2346689085
 21
8.0283743527
  0
LINE
  5
575
100
AcDbEntity
  8
ASSI
100
AcDbLine
 62
7
  6
CONTINUOUS
 10
-19.2200296597
 20
8.0283743527
 11
19.2346689085
 21
8.0283743527
  0
LINE
  5
576
100
AcDbEntity
  8
RACCORDO
100
AcDbLine
 62
7
  6
CONTINUOUS
 10
20.0799703403
 20
8.0283743527
 11
23.3305124793
 21
8.0283743527
  0
LINE
  5
577
100
AcDbEntity
  8
ASSI
100
AcDbLine
 62
7
  6
CONTINUOUS
 10
20.0799703403
 20
8.0283743527
 11
23.3305124793
 21
8.0283743527
  0
LINE
  5
578
100
AcDbEntity
  8
RACCORDO
100
AcDbLine
 62
7
  6
CONTINUOUS
 10
-21.0426803756
 20
8.0510250686
 11
-19.7478711966
 21
8.0510250686
  0
LINE
  5
579
100
AcDbEntity
  8
ASSI
100
AcDbLine
 62
7
  6
CONTINUOUS
 10
-21.0426803756
 20
8.0510250686
 11
-19.7478711966
 21
8.0510250686
  0
LINE
  5
57A
100
AcDbEntity
  8
RACCORDO
100
AcDbLine
 62
7
  6
CONTINUOUS
 10
-19.5374895545
 20
8.0510250686
 11
19.5521288034
 21
8.0510250686
  0
LINE
  5
57B
100
AcDbEntity
  8
ASSI
100
AcDbLine
 62
7
  6
CONTINUOUS
 10
-19.5374895545
 20
8.0510250686
 11
19.5521288034
 21
8.0510250686
  0
LINE
  5
57C
100
AcDbEntity
  8
RACCORDO
100
AcDbLine
 62
7
  6
CONTINUOUS
 10
19.7625104455
 20
8.0510250686
 11
21.0573196244
 21
8.0510250686
  0
LINE
  5
57D
100
AcDbEntity
  8
ASSI
100
AcDbLine
 62
7
  6
CONTINUOUS
 10
19.7625104455
 20
8.0510250686
 11
21.0573196244
 21
8.0510250686
  0
LINE
  5
57E
100
AcDbEntity
  8
DRAFT
100
AcDbLine
 62
7
  6
CONTINUOUS
 10
-23.6856983496
 20
8.1033902634
 11
-21.3051463662
 21
8.1033902634
  0
LINE
  5
57F
100
AcDbEntity
  8
ASSI
100
AcDbLine
 62
7
  6
CONTINUOUS
 10
-23.6856983496
 20
8.1033902634
 11
-21.3051463662
 21
8.1033902634
  0
LINE
  5
580
100
AcDbEntity
  8
DRAFT
100
AcDbLine
 62
7
  6
CONTINUOUS
 10
21.319785615
 20
8.1033902634
 11
23.7003375984
 21
8.1033902634
  0
LINE
  5
581
100
AcDbEntity
  8
ASSI
100
AcDbLine
 62
7
  6
CONTINUOUS
 10
21.319785615
 20
8.1033902634
 11
23.7003375984
 21
8.1033902634
  0
LINE
  5
582
100
AcDbEntity
  8
RACCORDO
100
AcDbLine
 62
253
  6
CONTINUOUS
 10
-24.7856983496
 20
8.2934690528
 11
-23.6856983496
 21
8.2934690528
  0
LINE
  5
583
100
AcDbEntity
  8
ASSI
100
AcDbLine
 62
253
  6
CONTINUOUS
 10
-24.7856983496
 20
8.2934690528
 11
-23.6856983496
 21
8.2934690528
  0
LINE
  5
584
100
AcDbEntity
  8
RACCORDO
100
AcDbLine
 62
253
  6
CONTINUOUS
 10
23.7003375984
 20
8.2934690528
 11
24.8003375984
 21
8.2934690528
  0
LINE
  5
585
100
AcDbEntity
  8
ASSI
100
AcDbLine
 62
253
  6
CONTINUOUS
 10
23.7003375984
 20
8.2934690528
 11
24.8003375984
 21
8.2934690528
  0
LINE
  5
586
100
AcDbEntity
  8
RACCORDO
100
AcDbLine
 62
253
  6
CONTINUOUS
 10
17.7021744948
 20
-6.5437841103
 11
17.6724241969
 21
-6.5140338124
  0
LINE
  5
587
100
AcDbEntity
  8
ASSI
100
AcDbLine
 62
253
  6
CONTINUOUS
 10
17.7021744948
 20
-6.5437841103
 11
17.6724241969
 21
-6.5140338124
  0
LINE
  5
588
100
AcDbEntity
  8
RACCORDO
100
AcDbLine
 62
253
  6
CONTINUOUS
 10
18.0021288034
 20
-6.2438298018
 11
17.9721828135
 21
-6.213883812
  0
LINE
  5
589
100
AcDbEntity
  8
ASSI
100
AcDbLine
 62
253
  6
CONTINUOUS
 10
18.0021288034
 20
-6.2438298018
 11
17.9721828135
 21
-6.213883812
  0
LINE
  5
58A
100
AcDbEntity
  8
0
100
AcDbLine
 62
7
  6
CONTINUOUS
 10
10.0739436244
 20
-3.4812759314
 11
9.6576876244
 21
-2.3712969314
  0
LINE
  5
58B
100
AcDbEntity
  8
ASSI
100
AcDbLine
 62
7
  6
CONTINUOUS
 10
10.0739436244
 20
-3.4812759314
 11
9.6576876244
 21
-2.3712969314
  0
LINE
  5
58C
100
AcDbEntity
  8
0
100
AcDbLine
 62
7
  6
CONTINUOUS
 10
10.1007636244
 20
-2.7251819314
 11
9.7496826244
 21
-1.7814129314
  0
LINE
  5
58D
100
AcDbEntity
  8
ASSI
100
AcDbLine
 62
7
  6
CONTINUOUS
 10
10.1007636244
 20
-2.7251819314
 11
9.7496826244
 21
-1.7814129314
  0
LINE
  5
58E
100
AcDbEntity
  8
0
100
AcDbLine
 62
7
  6
CONTINUOUS
 10
10.9656156244
 20
-3.4812759314
 11
10.8066586244
 21
-1.7814129314
  0
LINE
  5
58F
100
AcDbEntity
  8
ASSI
100
AcDbLine
 62
7
  6
CONTINUOUS
 10
10.9656156244
 20
-3.4812759314
 11
10.8066586244
 21
-1.7814129314
  0
LINE
  5
590
100
AcDbEntity
  8
0
100
AcDbLine
 62
7
  6
CONTINUOUS
 10
10.6184996244
 20
-3.4812759314
 11
10.5455986244
 21
-2.3759239314
  0
LINE
  5
591
100
AcDbEntity
  8
ASSI
100
AcDbLine
 62
7
  6
CONTINUOUS
 10
10.6184996244
 20
-3.4812759314
 11
10.5455986244
 21
-2.3759239314
  0
LINE
  5
592
100
AcDbEntity
  8
0
100
AcDbLine
 62
7
  6
CONTINUOUS
 10
9.5811156244
 20
-3.4812759314
 11
9.6576876244
 21
-2.3712969314
  0
LINE
  5
593
100
AcDbEntity
  8
ASSI
100
AcDbLine
 62
7
  6
CONTINUOUS
 10
9.5811156244
 20
-3.4812759314
 11
9.6576876244
 21
-2.3712969314
  0
LINE
  5
594
100
AcDbEntity
  8
0
100
AcDbLine
 62
7
  6
CONTINUOUS
 10
9.2416606244
 20
-3.4812759314
 11
9.3951476244
 21
-1.7814129314
  0
LINE
  5
595
100
AcDbEntity
  8
ASSI
100
AcDbLine
 62
7
  6
CONTINUOUS
 10
9.2416606244
 20
-3.4812759314
 11
9.3951476244
 21
-1.7814129314
  0
LINE
  5
596
100
AcDbEntity
  8
0
100
AcDbLine
 62
7
  6
CONTINUOUS
 10
10.1007636244
 20
-2.7251819314
 11
10.4555916244
 21
-1.7814129314
  0
LINE
  5
597
100
AcDbEntity
  8
ASSI
100
AcDbLine
 62
7
  6
CONTINUOUS
 10
10.1007636244
 20
-2.7251819314
 11
10.4555916244
 21
-1.7814129314
  0
LINE
  5
598
100
AcDbEntity
  8
0
100
AcDbLine
 62
7
  6
CONTINUOUS
 10
10.1237076244
 20
-3.4812759314
 11
10.5455986244
 21
-2.3759239314
  0
LINE
  5
599
100
AcDbEntity
  8
ASSI
100
AcDbLine
 62
7
  6
CONTINUOUS
 10
10.1237076244
 20
-3.4812759314
 11
10.5455986244
 21
-2.3759239314
  0
LINE
  5
59A
100
AcDbEntity
  8
RACCORDO
100
AcDbLine
 62
253
  6
CONTINUOUS
 10
7.0424564353
 20
-6.213883812
 11
7.0125104455
 21
-6.2438298018
  0
LINE
  5
59B
100
AcDbEntity
  8
ASSI
100
AcDbLine
 62
253
  6
CONTINUOUS
 10
7.0424564353
 20
-6.213883812
 11
7.0125104455
 21
-6.2438298018
  0
LINE
  5
59C
100
AcDbEntity
  8
RACCORDO
100
AcDbLine
 62
253
  6
CONTINUOUS
 10
7.3422150519
 20
-6.5140338124
 11
7.312464754
 21
-6.5437841103
  0
LINE
  5
59D
100
AcDbEntity
  8
ASSI
100
AcDbLine
 62
253
  6
CONTINUOUS
 10
7.3422150519
 20
-6.5140338124
 11
7.312464754
 21
-6.5437841103
  0
LINE
  5
59E
100
AcDbEntity
  8
DRAFT
100
AcDbLine
 62
7
  6
CONTINUOUS
 10
-21.0426803756
 20
9.1916778478
 11
21.0573196244
 21
9.1916778478
  0
LINE
  5
59F
100
AcDbEntity
  8
ASSI
100
AcDbLine
 62
7
  6
CONTINUOUS
 10
-21.0426803756
 20
9.1916778478
 11
21.0573196244
 21
9.1916778478
  0
LINE
  5
5A0
100
AcDbEntity
  8
RACCORDO
100
AcDbLine
 62
7
  6
CONTINUOUS
 10
-24.5357364258
 20
9.2440430426
 11
-21.3051463662
 21
9.2440430426
  0
LINE
  5
5A1
100
AcDbEntity
  8
ASSI
100
AcDbLine
 62
7
  6
CONTINUOUS
 10
-24.5357364258
 20
9.2440430426
 11
-21.3051463662
 21
9.2440430426
  0
LINE
  5
5A2
100
AcDbEntity
  8
RACCORDO
100
AcDbLine
 62
7
  6
CONTINUOUS
 10
21.319785615
 20
9.2440430426
 11
24.5503756747
 21
9.2440430426
  0
LINE
  5
5A3
100
AcDbEntity
  8
ASSI
100
AcDbLine
 62
7
  6
CONTINUOUS
 10
21.319785615
 20
9.2440430426
 11
24.5503756747
 21
9.2440430426
  0
LINE
  5
5A4
100
AcDbEntity
  8
0
100
AcDbLine
 62
7
  6
CONTINUOUS
 10
12.0453576244
 20
-3.4812759314
 11
11.9534386244
 21
-3.1419229314
  0
LINE
  5
5A5
100
AcDbEntity
  8
ASSI
100
AcDbLine
 62
7
  6
CONTINUOUS
 10
12.0453576244
 20
-3.4812759314
 11
11.9534386244
 21
-3.1419229314
  0
LINE
  5
5A6
100
AcDbEntity
  8
0
100
AcDbLine
 62
7
  6
CONTINUOUS
 10
11.8825256244
 20
-2.8793329314
 11
11.7194776244
 21
-2.2484919314
  0
LINE
  5
5A7
100
AcDbEntity
  8
ASSI
100
AcDbLine
 62
7
  6
CONTINUOUS
 10
11.8825256244
 20
-2.8793329314
 11
11.7194776244
 21
-2.2484919314
  0
LINE
  5
5A8
100
AcDbEntity
  8
0
100
AcDbLine
 62
7
  6
CONTINUOUS
 10
12.5235262883
 20
-3.4812756181
 11
12.5235262883
 21
-1.8012728492
  0
LINE
  5
5A9
100
AcDbEntity
  8
ASSI
100
AcDbLine
 62
7
  6
CONTINUOUS
 10
12.5235262883
 20
-3.4812756181
 11
12.5235262883
 21
-1.8012728492
  0
LINE
  5
5AA
100
AcDbEntity
  8
0
100
AcDbLine
 62
7
  6
CONTINUOUS
 10
11.5428036244
 20
-2.8793329314
 11
11.7194776244
 21
-2.2484919314
  0
LINE
  5
5AB
100
AcDbEntity
  8
ASSI
100
AcDbLine
 62
7
  6
CONTINUOUS
 10
11.5428036244
 20
-2.8793329314
 11
11.7194776244
 21
-2.2484919314
  0
LINE
  5
5AC
100
AcDbEntity
  8
0
100
AcDbLine
 62
7
  6
CONTINUOUS
 10
11.3723106244
 20
-3.4812759314
 11
11.4702216244
 21
-3.1419229314
  0
LINE
  5
5AD
100
AcDbEntity
  8
ASSI
100
AcDbLine
 62
7
  6
CONTINUOUS
 10
11.3723106244
 20
-3.4812759314
 11
11.4702216244
 21
-3.1419229314
  0
LINE
  5
5AE
100
AcDbEntity
  8
0
100
AcDbLine
 62
7
  6
CONTINUOUS
 10
11.0213326244
 20
-3.4812759314
 11
11.5545176244
 21
-1.7814129314
  0
LINE
  5
5AF
100
AcDbEntity
  8
ASSI
100
AcDbLine
 62
7
  6
CONTINUOUS
 10
11.0213326244
 20
-3.4812759314
 11
11.5545176244
 21
-1.7814129314
  0
LINE
  5
5B0
100
AcDbEntity
  8
RACCORDO
100
AcDbLine
 62
7
  6
CONTINUOUS
 10
23.6304665457
 20
8.0335192106
 11
23.7003375984
 21
8.1033902634
  0
LINE
  5
5B1
100
AcDbEntity
  8
ASSI
100
AcDbLine
 62
7
  6
CONTINUOUS
 10
23.6304665457
 20
8.0335192106
 11
23.7003375984
 21
8.1033902634
  0
LINE
  5
5B2
100
AcDbEntity
  8
RACCORDO
100
AcDbLine
 62
253
  6
CONTINUOUS
 10
19.2353742436
 20
3.4290339964
 11
19.2661994733
 21
3.4598592261
  0
LINE
  5
5B3
100
AcDbEntity
  8
ASSI
100
AcDbLine
 62
253
  6
CONTINUOUS
 10
19.2353742436
 20
3.4290339964
 11
19.2661994733
 21
3.4598592261
  0
LINE
  5
5B4
100
AcDbEntity
  8
RACCORDO
100
AcDbLine
 62
253
  6
CONTINUOUS
 10
19.5354048083
 20
3.129155944
 11
19.5661537819
 21
3.1599049175
  0
LINE
  5
5B5
100
AcDbEntity
  8
ASSI
100
AcDbLine
 62
253
  6
CONTINUOUS
 10
19.5354048083
 20
3.129155944
 11
19.5661537819
 21
3.1599049175
  0
LINE
  5
5B6
100
AcDbEntity
  8
RACCORDO
100
AcDbLine
 62
7
  6
CONTINUOUS
 10
22.3870846247
 20
-6.0787399316
 11
22.3395662981
 21
-6.0312216051
  0
LINE
  5
5B7
100
AcDbEntity
  8
ASSI
100
AcDbLine
 62
7
  6
CONTINUOUS
 10
22.3870846247
 20
-6.0787399316
 11
22.3395662981
 21
-6.0312216051
  0
LINE
  5
5B8
100
AcDbEntity
  8
RACCORDO
100
AcDbLine
 62
7
  6
CONTINUOUS
 10
23.6353709999
 20
-6.0363735277
 11
23.6828825335
 21
-6.0838850613
  0
LINE
  5
5B9
100
AcDbEntity
  8
ASSI
100
AcDbLine
 62
7
  6
CONTINUOUS
 10
23.6353709999
 20
-6.0363735277
 11
23.6828825335
 21
-6.0838850613
  0
LINE
  5
5BA
100
AcDbEntity
  8
0
100
AcDbLine
 62
7
  6
CONTINUOUS
 10
12.4193316244
 20
-3.4812759314
 11
11.8977716244
 21
-1.7814129314
  0
LINE
  5
5BB
100
AcDbEntity
  8
ASSI
100
AcDbLine
 62
7
  6
CONTINUOUS
 10
12.4193316244
 20
-3.4812759314
 11
11.8977716244
 21
-1.7814129314
  0
LINE
  5
5BC
100
AcDbEntity
  8
0
100
AcDbLine
 62
7
  6
CONTINUOUS
 10
12.865161056
 20
-2.5376467629
 11
12.865161056
 21
-2.0710012804
  0
LINE
  5
5BD
100
AcDbEntity
  8
ASSI
100
AcDbLine
 62
7
  6
CONTINUOUS
 10
12.865161056
 20
-2.5376467629
 11
12.865161056
 21
-2.0710012804
  0
LINE
  5
5BE
100
AcDbEntity
  8
0
100
AcDbLine
 62
7
  6
CONTINUOUS
 10
12.8769266204
 20
-3.4812756181
 11
12.8769266204
 21
-2.8160432155
  0
LINE
  5
5BF
100
AcDbEntity
  8
ASSI
100
AcDbLine
 62
7
  6
CONTINUOUS
 10
12.8769266204
 20
-3.4812756181
 11
12.8769266204
 21
-2.8160432155
  0
LINE
  5
5C0
100
AcDbEntity
  8
0
100
AcDbLine
 62
7
  6
CONTINUOUS
 10
13.4357718072
 20
-2.6877947398
 11
13.4357718072
 21
-2.6777500326
  0
LINE
  5
5C1
100
AcDbEntity
  8
ASSI
100
AcDbLine
 62
7
  6
CONTINUOUS
 10
13.4357718072
 20
-2.6877947398
 11
13.4357718072
 21
-2.6777500326
  0
LINE
  5
5C2
100
AcDbEntity
  8
DRAFT
100
AcDbLine
 62
7
  6
CONTINUOUS
 10
23.7028120393
 20
-4.0944673463
 11
23.6898645595
 21
-4.0815198665
  0
LINE
  5
5C3
100
AcDbEntity
  8
ASSI
100
AcDbLine
 62
7
  6
CONTINUOUS
 10
23.7028120393
 20
-4.0944673463
 11
23.6898645595
 21
-4.0815198665
  0
LINE
  5
5C4
100
AcDbEntity
  8
DRAFT
100
AcDbLine
 62
7
  6
CONTINUOUS
 10
24.0028120385
 20
-4.0944673455
 11
23.9290192745
 21
-4.0206745815
  0
LINE
  5
5C5
100
AcDbEntity
  8
ASSI
100
AcDbLine
 62
7
  6
CONTINUOUS
 10
24.0028120385
 20
-4.0944673455
 11
23.9290192745
 21
-4.0206745815
  0
LINE
  5
5C6
100
AcDbEntity
  8
RACCORDO
100
AcDbLine
 62
7
  6
CONTINUOUS
 10
22.3870846247
 20
1.1807900688
 11
22.3360536592
 21
1.1297591034
  0
LINE
  5
5C7
100
AcDbEntity
  8
ASSI
100
AcDbLine
 62
7
  6
CONTINUOUS
 10
22.3870846247
 20
1.1807900688
 11
22.3360536592
 21
1.1297591034
  0
LINE
  5
5C8
100
AcDbEntity
  8
RACCORDO
100
AcDbLine
 62
7
  6
CONTINUOUS
 10
23.6318508144
 20
1.1349034793
 11
23.6828825335
 21
1.1859351985
  0
LINE
  5
5C9
100
AcDbEntity
  8
ASSI
100
AcDbLine
 62
7
  6
CONTINUOUS
 10
23.6318508144
 20
1.1349034793
 11
23.6828825335
 21
1.1859351985
  0
LINE
  5
5CA
100
AcDbEntity
  8
DRAFT
100
AcDbLine
 62
7
  6
CONTINUOUS
 10
22.9247746893
 20
-1.6164299963
 11
22.9868073825
 21
-1.6784626895
  0
LINE
  5
5CB
100
AcDbEntity
  8
ASSI
100
AcDbLine
 62
7
  6
CONTINUOUS
 10
22.9247746893
 20
-1.6164299963
 11
22.9868073825
 21
-1.6784626895
  0
LINE
  5
5CC
100
AcDbEntity
  8
RACCORDO
100
AcDbLine
 62
7
  6
CONTINUOUS
 10
23.6326483956
 20
-0.9336509234
 11
23.6898645595
 21
-0.9908670872
  0
LINE
  5
5CD
100
AcDbEntity
  8
ASSI
100
AcDbLine
 62
7
  6
CONTINUOUS
 10
23.6326483956
 20
-0.9336509234
 11
23.6898645595
 21
-0.9908670872
  0
LINE
  5
5CE
100
AcDbEntity
  8
RACCORDO
100
AcDbLine
 62
7
  6
CONTINUOUS
 10
17.6731143699
 20
-7.530256702
 11
17.7021744948
 21
-7.8238152825
  0
LINE
  5
5CF
100
AcDbEntity
  8
ASSI
100
AcDbLine
 62
7
  6
CONTINUOUS
 10
17.6731143699
 20
-7.530256702
 11
17.7021744948
 21
-7.8238152825
  0
LINE
  5
5D0
100
AcDbEntity
  8
RACCORDO
100
AcDbLine
 62
253
  6
CONTINUOUS
 10
17.7021744948
 20
-7.8238152825
 11
17.7021744948
 21
-6.5437841103
  0
LINE
  5
5D1
100
AcDbEntity
  8
ASSI
100
AcDbLine
 62
253
  6
CONTINUOUS
 10
17.7021744948
 20
-7.8238152825
 11
17.7021744948
 21
-6.5437841103
  0
LINE
  5
5D2
100
AcDbEntity
  8
RACCORDO
100
AcDbLine
 62
253
  6
CONTINUOUS
 10
18.2424564353
 20
-6.213883812
 11
18.2125104455
 21
-6.2438298018
  0
LINE
  5
5D3
100
AcDbEntity
  8
ASSI
100
AcDbLine
 62
253
  6
CONTINUOUS
 10
18.2424564353
 20
-6.213883812
 11
18.2125104455
 21
-6.2438298018
  0
LINE
  5
5D4
100
AcDbEntity
  8
RACCORDO
100
AcDbLine
 62
253
  6
CONTINUOUS
 10
18.5422150519
 20
-6.5140338124
 11
18.512464754
 21
-6.5437841103
  0
LINE
  5
5D5
100
AcDbEntity
  8
ASSI
100
AcDbLine
 62
253
  6
CONTINUOUS
 10
18.5422150519
 20
-6.5140338124
 11
18.512464754
 21
-6.5437841103
  0
LINE
  5
5D6
100
AcDbEntity
  8
RACCORDO
100
AcDbLine
 62
253
  6
CONTINUOUS
 10
19.748485467
 20
3.1599049175
 11
19.7792344405
 21
3.129155944
  0
LINE
  5
5D7
100
AcDbEntity
  8
ASSI
100
AcDbLine
 62
253
  6
CONTINUOUS
 10
19.748485467
 20
3.1599049175
 11
19.7792344405
 21
3.129155944
  0
LINE
  5
5D8
100
AcDbEntity
  8
RACCORDO
100
AcDbLine
 62
253
  6
CONTINUOUS
 10
20.0484397755
 20
3.4598592261
 11
20.0792650052
 21
3.4290339964
  0
LINE
  5
5D9
100
AcDbEntity
  8
ASSI
100
AcDbLine
 62
253
  6
CONTINUOUS
 10
20.0484397755
 20
3.4598592261
 11
20.0792650052
 21
3.4290339964
  0
LINE
  5
5DA
100
AcDbEntity
  8
RACCORDO
100
AcDbLine
 62
7
  6
CONTINUOUS
 10
22.3870846247
 20
1.8212600684
 11
22.3358103506
 21
1.8725343424
  0
LINE
  5
5DB
100
AcDbEntity
  8
ASSI
100
AcDbLine
 62
7
  6
CONTINUOUS
 10
22.3870846247
 20
1.8212600684
 11
22.3358103506
 21
1.8725343424
  0
LINE
  5
5DC
100
AcDbEntity
  8
RACCORDO
100
AcDbLine
 62
253
  6
CONTINUOUS
 10
19.2686070657
 20
5.1853396437
 11
19.2562644709
 21
5.8924464248
  0
LINE
  5
5DD
100
AcDbEntity
  8
ASSI
100
AcDbLine
 62
253
  6
CONTINUOUS
 10
19.2686070657
 20
5.1853396437
 11
19.2562644709
 21
5.8924464248
  0
LINE
  5
5DE
100
AcDbEntity
  8
RACCORDO
100
AcDbLine
 62
253
  6
CONTINUOUS
 10
18.0021288034
 20
-7.8757901777
 11
18.0021288034
 21
-6.2438298018
  0
LINE
  5
5DF
100
AcDbEntity
  8
ASSI
100
AcDbLine
 62
253
  6
CONTINUOUS
 10
18.0021288034
 20
-7.8757901777
 11
18.0021288034
 21
-6.2438298018
  0
LINE
  5
5E0
100
AcDbEntity
  8
RACCORDO
100
AcDbLine
 62
253
  6
CONTINUOUS
 10
18.2125104455
 20
-6.2438298018
 11
18.2125104455
 21
-7.8757901777
  0
LINE
  5
5E1
100
AcDbEntity
  8
ASSI
100
AcDbLine
 62
253
  6
CONTINUOUS
 10
18.2125104455
 20
-6.2438298018
 11
18.2125104455
 21
-7.8757901777
  0
LINE
  5
5E2
100
AcDbEntity
  8
RACCORDO
100
AcDbLine
 62
253
  6
CONTINUOUS
 10
18.512464754
 20
-6.5437841103
 11
18.512464754
 21
-7.8238152825
  0
LINE
  5
5E3
100
AcDbEntity
  8
ASSI
100
AcDbLine
 62
253
  6
CONTINUOUS
 10
18.512464754
 20
-6.5437841103
 11
18.512464754
 21
-7.8238152825
  0
LINE
  5
5E4
100
AcDbEntity
  8
RACCORDO
100
AcDbLine
 62
253
  6
CONTINUOUS
 10
19.2521744948
 20
6.4581318498
 11
19.2521744948
 21
8.045879939
  0
LINE
  5
5E5
100
AcDbEntity
  8
ASSI
100
AcDbLine
 62
253
  6
CONTINUOUS
 10
19.2521744948
 20
6.4581318498
 11
19.2521744948
 21
8.045879939
  0
LINE
  5
5E6
100
AcDbEntity
  8
RACCORDO
100
AcDbLine
 62
253
  6
CONTINUOUS
 10
19.2696295597
 20
3.6598287651
 11
19.2696295597
 21
5.0439182874
  0
LINE
  5
5E7
100
AcDbEntity
  8
ASSI
100
AcDbLine
 62
253
  6
CONTINUOUS
 10
19.2696295597
 20
3.6598287651
 11
19.2696295597
 21
5.0439182874
  0
LINE
  5
5E8
100
AcDbEntity
  8
RACCORDO
100
AcDbLine
 62
253
  6
CONTINUOUS
 10
19.5521288034
 20
6.4581433563
 11
19.5521288034
 21
8.0510250686
  0
LINE
  5
5E9
100
AcDbEntity
  8
ASSI
100
AcDbLine
 62
253
  6
CONTINUOUS
 10
19.5521288034
 20
6.4581433563
 11
19.5521288034
 21
8.0510250686
  0
LINE
  5
5EA
100
AcDbEntity
  8
RACCORDO
100
AcDbLine
 62
253
  6
CONTINUOUS
 10
19.5695838683
 20
3.6598287651
 11
19.5695838683
 21
5.0439182874
  0
LINE
  5
5EB
100
AcDbEntity
  8
ASSI
100
AcDbLine
 62
253
  6
CONTINUOUS
 10
19.5695838683
 20
3.6598287651
 11
19.5695838683
 21
5.0439182874
  0
LINE
  5
5EC
100
AcDbEntity
  8
RACCORDO
100
AcDbLine
 62
253
  6
CONTINUOUS
 10
19.7584206728
 20
6.1045901115
 11
19.7460767343
 21
5.3974063503
  0
LINE
  5
5ED
100
AcDbEntity
  8
ASSI
100
AcDbLine
 62
253
  6
CONTINUOUS
 10
19.7584206728
 20
6.1045901115
 11
19.7460767343
 21
5.3974063503
  0
LINE
  5
5EE
100
AcDbEntity
  8
RACCORDO
100
AcDbLine
 62
7
  6
CONTINUOUS
 10
18.5373697183
 20
-7.5722311624
 11
18.512464754
 21
-7.8238152825
  0
LINE
  5
5EF
100
AcDbEntity
  8
ASSI
100
AcDbLine
 62
7
  6
CONTINUOUS
 10
18.5373697183
 20
-7.5722311624
 11
18.512464754
 21
-7.8238152825
  0
LINE
  5
5F0
100
AcDbEntity
  8
DRAFT
100
AcDbLine
 62
7
  6
CONTINUOUS
 10
23.7073196244
 20
-1.5989749314
 11
23.6898645595
 21
-1.6164299963
  0
LINE
  5
5F1
100
AcDbEntity
  8
ASSI
100
AcDbLine
 62
7
  6
CONTINUOUS
 10
23.7073196244
 20
-1.5989749314
 11
23.6898645595
 21
-1.6164299963
  0
LINE
  5
5F2
100
AcDbEntity
  8
DRAFT
100
AcDbLine
 62
7
  6
CONTINUOUS
 10
24.0073196244
 20
-1.5989749314
 11
23.9278318664
 21
-1.6784626895
  0
LINE
  5
5F3
100
AcDbEntity
  8
ASSI
100
AcDbLine
 62
7
  6
CONTINUOUS
 10
24.0073196244
 20
-1.5989749314
 11
23.9278318664
 21
-1.6784626895
  0
LINE
  5
5F4
100
AcDbEntity
  8
DRAFT
100
AcDbLine
 62
7
  6
CONTINUOUS
 10
22.9247746893
 20
-4.0815198665
 11
22.9856199744
 21
-4.0206745815
  0
LINE
  5
5F5
100
AcDbEntity
  8
ASSI
100
AcDbLine
 62
7
  6
CONTINUOUS
 10
22.9247746893
 20
-4.0815198665
 11
22.9856199744
 21
-4.0206745815
  0
LINE
  5
5F6
100
AcDbEntity
  8
RACCORDO
100
AcDbLine
 62
7
  6
CONTINUOUS
 10
23.6316107069
 20
1.8673867653
 11
23.6828825335
 21
1.8161149387
  0
LINE
  5
5F7
100
AcDbEntity
  8
ASSI
100
AcDbLine
 62
7
  6
CONTINUOUS
 10
23.6316107069
 20
1.8673867653
 11
23.6828825335
 21
1.8161149387
  0
LINE
  5
5F8
100
AcDbEntity
  8
RACCORDO
100
AcDbLine
 62
253
  6
CONTINUOUS
 10
19.5685625147
 20
5.3974063425
 11
19.5562185857
 21
6.1045895616
  0
LINE
  5
5F9
100
AcDbEntity
  8
ASSI
100
AcDbLine
 62
253
  6
CONTINUOUS
 10
19.5685625147
 20
5.3974063425
 11
19.5562185857
 21
6.1045895616
  0
LINE
  5
5FA
100
AcDbEntity
  8
RACCORDO
100
AcDbLine
 62
253
  6
CONTINUOUS
 10
19.7450553806
 20
5.0439182874
 11
19.7450553806
 21
3.6598287651
  0
LINE
  5
5FB
100
AcDbEntity
  8
ASSI
100
AcDbLine
 62
253
  6
CONTINUOUS
 10
19.7450553806
 20
5.0439182874
 11
19.7450553806
 21
3.6598287651
  0
LINE
  5
5FC
100
AcDbEntity
  8
RACCORDO
100
AcDbLine
 62
253
  6
CONTINUOUS
 10
19.7625104455
 20
8.0510250686
 11
19.7625104455
 21
6.4581430258
  0
LINE
  5
5FD
100
AcDbEntity
  8
ASSI
100
AcDbLine
 62
253
  6
CONTINUOUS
 10
19.7625104455
 20
8.0510250686
 11
19.7625104455
 21
6.4581430258
  0
LINE
  5
5FE
100
AcDbEntity
  8
RACCORDO
100
AcDbLine
 62
253
  6
CONTINUOUS
 10
20.0450096891
 20
5.0439182874
 11
20.0450096891
 21
3.6598287651
  0
LINE
  5
5FF
100
AcDbEntity
  8
ASSI
100
AcDbLine
 62
253
  6
CONTINUOUS
 10
20.0450096891
 20
5.0439182874
 11
20.0450096891
 21
3.6598287651
  0
LINE
  5
600
100
AcDbEntity
  8
RACCORDO
100
AcDbLine
 62
253
  6
CONTINUOUS
 10
20.062464754
 20
8.045879939
 11
20.062464754
 21
6.4581318498
  0
LINE
  5
601
100
AcDbEntity
  8
ASSI
100
AcDbLine
 62
253
  6
CONTINUOUS
 10
20.062464754
 20
8.045879939
 11
20.062464754
 21
6.4581318498
  0
LINE
  5
602
100
AcDbEntity
  8
DRAFT
100
AcDbLine
 62
7
  6
CONTINUOUS
 10
21.0573196244
 20
9.1916778478
 11
21.0573196244
 21
8.0510250686
  0
LINE
  5
603
100
AcDbEntity
  8
ASSI
100
AcDbLine
 62
7
  6
CONTINUOUS
 10
21.0573196244
 20
9.1916778478
 11
21.0573196244
 21
8.0510250686
  0
LINE
  5
604
100
AcDbEntity
  8
DRAFT
100
AcDbLine
 62
7
  6
CONTINUOUS
 10
21.319785615
 20
9.2440430426
 11
21.319785615
 21
8.1033902634
  0
LINE
  5
605
100
AcDbEntity
  8
ASSI
100
AcDbLine
 62
7
  6
CONTINUOUS
 10
21.319785615
 20
9.2440430426
 11
21.319785615
 21
8.1033902634
  0
LINE
  5
606
100
AcDbEntity
  8
RACCORDO
100
AcDbLine
 62
253
  6
CONTINUOUS
 10
20.0583747779
 20
5.8924464248
 11
20.0460321831
 21
5.1853396437
  0
LINE
  5
607
100
AcDbEntity
  8
ASSI
100
AcDbLine
 62
253
  6
CONTINUOUS
 10
20.0583747779
 20
5.8924464248
 11
20.0460321831
 21
5.1853396437
  0
LINE
  5
608
100
AcDbEntity
  8
RACCORDO
100
AcDbLine
 62
7
  6
CONTINUOUS
 10
23.6345905386
 20
-4.7623567965
 11
23.6898645595
 21
-4.7070827756
  0
LINE
  5
609
100
AcDbEntity
  8
ASSI
100
AcDbLine
 62
7
  6
CONTINUOUS
 10
23.6345905386
 20
-4.7623567965
 11
23.6898645595
 21
-4.7070827756
  0
LINE
  5
60A
100
AcDbEntity
  8
RACCORDO
100
AcDbLine
 62
7
  6
CONTINUOUS
 10
22.3870846247
 20
-6.7192099312
 11
22.3400465763
 21
-6.7662479795
  0
LINE
  5
60B
100
AcDbEntity
  8
ASSI
100
AcDbLine
 62
7
  6
CONTINUOUS
 10
22.3870846247
 20
-6.7192099312
 11
22.3400465763
 21
-6.7662479795
  0
LINE
  5
60C
100
AcDbEntity
  8
RACCORDO
100
AcDbLine
 62
7
  6
CONTINUOUS
 10
20.062464754
 20
8.045879939
 11
20.0799703403
 21
8.0283743527
  0
LINE
  5
60D
100
AcDbEntity
  8
ASSI
100
AcDbLine
 62
7
  6
CONTINUOUS
 10
20.062464754
 20
8.045879939
 11
20.0799703403
 21
8.0283743527
  0
LINE
  5
60E
100
AcDbEntity
  8
RACCORDO
100
AcDbLine
 62
253
  6
CONTINUOUS
 10
23.3362409884
 20
-7.5722311624
 11
23.3942191861
 21
-8.1579133468
  0
LINE
  5
60F
100
AcDbEntity
  8
ASSI
100
AcDbLine
 62
253
  6
CONTINUOUS
 10
23.3362409884
 20
-7.5722311624
 11
23.3942191861
 21
-8.1579133468
  0
LINE
  5
610
100
AcDbEntity
  8
RACCORDO
100
AcDbLine
 62
253
  6
CONTINUOUS
 10
23.636195297
 20
-7.2767888376
 11
23.6933555725
 21
-7.8542085623
  0
LINE
  5
611
100
AcDbEntity
  8
ASSI
100
AcDbLine
 62
253
  6
CONTINUOUS
 10
23.636195297
 20
-7.2767888376
 11
23.6933555725
 21
-7.8542085623
  0
LINE
  5
612
100
AcDbEntity
  8
DRAFT
100
AcDbLine
 62
7
  6
CONTINUOUS
 10
21.8573196244
 20
-4.7210468275
 11
21.8573196244
 21
-0.9769030353
  0
LINE
  5
613
100
AcDbEntity
  8
ASSI
100
AcDbLine
 62
7
  6
CONTINUOUS
 10
21.8573196244
 20
-4.7210468275
 11
21.8573196244
 21
-0.9769030353
  0
LINE
  5
614
100
AcDbEntity
  8
RACCORDO
100
AcDbLine
 62
253
  6
CONTINUOUS
 10
22.3870846247
 20
1.8212600684
 11
22.3870846247
 21
1.1807900688
  0
LINE
  5
615
100
AcDbEntity
  8
ASSI
100
AcDbLine
 62
253
  6
CONTINUOUS
 10
22.3870846247
 20
1.8212600684
 11
22.3870846247
 21
1.1807900688
  0
LINE
  5
616
100
AcDbEntity
  8
RACCORDO
100
AcDbLine
 62
253
  6
CONTINUOUS
 10
22.3870846247
 20
-6.0787399316
 11
22.3870846247
 21
-6.7192099312
  0
LINE
  5
617
100
AcDbEntity
  8
ASSI
100
AcDbLine
 62
253
  6
CONTINUOUS
 10
22.3870846247
 20
-6.0787399316
 11
22.3870846247
 21
-6.7192099312
  0
LINE
  5
618
100
AcDbEntity
  8
DRAFT
100
AcDbLine
 62
7
  6
CONTINUOUS
 10
22.4073196244
 20
-0.9285020162
 11
22.4073196244
 21
-0.9650764844
  0
LINE
  5
619
100
AcDbEntity
  8
ASSI
100
AcDbLine
 62
7
  6
CONTINUOUS
 10
22.4073196244
 20
-0.9285020162
 11
22.4073196244
 21
-0.9650764844
  0
LINE
  5
61A
100
AcDbEntity
  8
DRAFT
100
AcDbLine
 62
7
  6
CONTINUOUS
 10
22.4073196244
 20
-4.7328733784
 11
22.4073196244
 21
-4.7675018621
  0
LINE
  5
61B
100
AcDbEntity
  8
ASSI
100
AcDbLine
 62
7
  6
CONTINUOUS
 10
22.4073196244
 20
-4.7328733784
 11
22.4073196244
 21
-4.7675018621
  0
LINE
  5
61C
100
AcDbEntity
  8
DRAFT
100
AcDbLine
 62
7
  6
CONTINUOUS
 10
22.6573196244
 20
-4.7070827756
 11
22.6573196244
 21
-0.9908670872
  0
LINE
  5
61D
100
AcDbEntity
  8
ASSI
100
AcDbLine
 62
7
  6
CONTINUOUS
 10
22.6573196244
 20
-4.7070827756
 11
22.6573196244
 21
-0.9908670872
  0
LINE
  5
61E
100
AcDbEntity
  8
RACCORDO
100
AcDbLine
 62
253
  6
CONTINUOUS
 10
22.6870389332
 20
1.8161149387
 11
22.6870389332
 21
1.1859351985
  0
LINE
  5
61F
100
AcDbEntity
  8
ASSI
100
AcDbLine
 62
253
  6
CONTINUOUS
 10
22.6870389332
 20
1.8161149387
 11
22.6870389332
 21
1.1859351985
  0
LINE
  5
620
100
AcDbEntity
  8
RACCORDO
100
AcDbLine
 62
253
  6
CONTINUOUS
 10
22.6870389332
 20
-6.0838850613
 11
22.6870389332
 21
-6.7140648015
  0
LINE
  5
621
100
AcDbEntity
  8
ASSI
100
AcDbLine
 62
253
  6
CONTINUOUS
 10
22.6870389332
 20
-6.0838850613
 11
22.6870389332
 21
-6.7140648015
  0
LINE
  5
622
100
AcDbEntity
  8
DRAFT
100
AcDbLine
 62
7
  6
CONTINUOUS
 10
22.9247746893
 20
-1.6164299963
 11
22.9247746893
 21
-4.0815198665
  0
LINE
  5
623
100
AcDbEntity
  8
ASSI
100
AcDbLine
 62
7
  6
CONTINUOUS
 10
22.9247746893
 20
-1.6164299963
 11
22.9247746893
 21
-4.0815198665
  0
LINE
  5
624
100
AcDbEntity
  8
RACCORDO
100
AcDbLine
 62
7
  6
CONTINUOUS
 10
23.6358448857
 20
-6.7611024494
 11
23.6828825335
 21
-6.7140648015
  0
LINE
  5
625
100
AcDbEntity
  8
ASSI
100
AcDbLine
 62
7
  6
CONTINUOUS
 10
23.6358448857
 20
-6.7611024494
 11
23.6828825335
 21
-6.7140648015
  0
LINE
  5
626
100
AcDbEntity
  8
RACCORDO
100
AcDbLine
 62
7
  6
CONTINUOUS
 10
23.7073196244
 20
7.9916778478
 11
23.7054827281
 21
7.9935147442
  0
LINE
  5
627
100
AcDbEntity
  8
ASSI
100
AcDbLine
 62
7
  6
CONTINUOUS
 10
23.7073196244
 20
7.9916778478
 11
23.7054827281
 21
7.9935147442
  0
LINE
  5
628
100
AcDbEntity
  8
RACCORDO
100
AcDbLine
 62
253
  6
CONTINUOUS
 10
23.3358863394
 20
-6.7662479796
 11
23.3362409885
 21
-7.2886413263
  0
LINE
  5
629
100
AcDbEntity
  8
ASSI
100
AcDbLine
 62
253
  6
CONTINUOUS
 10
23.3358863394
 20
-6.7662479796
 11
23.3362409885
 21
-7.2886413263
  0
LINE
  5
62A
100
AcDbEntity
  8
RACCORDO
100
AcDbLine
 62
253
  6
CONTINUOUS
 10
23.3346333446
 20
-4.7675018624
 11
23.3354064013
 21
-6.0312216056
  0
LINE
  5
62B
100
AcDbEntity
  8
ASSI
100
AcDbLine
 62
253
  6
CONTINUOUS
 10
23.3346333446
 20
-4.7675018624
 11
23.3354064013
 21
-6.0312216056
  0
LINE
  5
62C
100
AcDbEntity
  8
RACCORDO
100
AcDbLine
 62
253
  6
CONTINUOUS
 10
23.3318962495
 20
1.1297591034
 11
23.332688738
 21
-0.928502016
  0
LINE
  5
62D
100
AcDbEntity
  8
ASSI
100
AcDbLine
 62
253
  6
CONTINUOUS
 10
23.3318962495
 20
1.1297591034
 11
23.332688738
 21
-0.928502016
  0
LINE
  5
62E
100
AcDbEntity
  8
RACCORDO
100
AcDbLine
 62
253
  6
CONTINUOUS
 10
23.3305124793
 20
8.0283743527
 11
23.3316531132
 21
1.8725343426
  0
LINE
  5
62F
100
AcDbEntity
  8
ASSI
100
AcDbLine
 62
253
  6
CONTINUOUS
 10
23.3305124793
 20
8.0283743527
 11
23.3316531132
 21
1.8725343426
  0
LINE
  5
630
100
AcDbEntity
  8
DRAFT
100
AcDbLine
 62
7
  6
CONTINUOUS
 10
23.6828825335
 20
1.8161149387
 11
23.6828825335
 21
1.1859351985
  0
LINE
  5
631
100
AcDbEntity
  8
ASSI
100
AcDbLine
 62
7
  6
CONTINUOUS
 10
23.6828825335
 20
1.8161149387
 11
23.6828825335
 21
1.1859351985
  0
LINE
  5
632
100
AcDbEntity
  8
DRAFT
100
AcDbLine
 62
7
  6
CONTINUOUS
 10
23.6828825335
 20
-6.0838850613
 11
23.6828825335
 21
-6.7140648015
  0
LINE
  5
633
100
AcDbEntity
  8
ASSI
100
AcDbLine
 62
7
  6
CONTINUOUS
 10
23.6828825335
 20
-6.0838850613
 11
23.6828825335
 21
-6.7140648015
  0
LINE
  5
634
100
AcDbEntity
  8
DRAFT
100
AcDbLine
 62
7
  6
CONTINUOUS
 10
23.6898645595
 20
-0.9908670872
 11
23.6898645595
 21
-1.6164299963
  0
LINE
  5
635
100
AcDbEntity
  8
ASSI
100
AcDbLine
 62
7
  6
CONTINUOUS
 10
23.6898645595
 20
-0.9908670872
 11
23.6898645595
 21
-1.6164299963
  0
LINE
  5
636
100
AcDbEntity
  8
DRAFT
100
AcDbLine
 62
7
  6
CONTINUOUS
 10
23.6898645595
 20
-4.0815198665
 11
23.6898645595
 21
-4.7070827756
  0
LINE
  5
637
100
AcDbEntity
  8
ASSI
100
AcDbLine
 62
7
  6
CONTINUOUS
 10
23.6898645595
 20
-4.0815198665
 11
23.6898645595
 21
-4.7070827756
  0
LINE
  5
638
100
AcDbEntity
  8
RACCORDO
100
AcDbLine
 62
7
  6
CONTINUOUS
 10
23.6933555725
 20
-7.8542085623
 11
23.6933555725
 21
-9.241996636
  0
LINE
  5
639
100
AcDbEntity
  8
ASSI
100
AcDbLine
 62
7
  6
CONTINUOUS
 10
23.6933555725
 20
-7.8542085623
 11
23.6933555725
 21
-9.241996636
  0
LINE
  5
63A
100
AcDbEntity
  8
RACCORDO
100
AcDbLine
 62
7
  6
CONTINUOUS
 10
23.7003375984
 20
8.2934690528
 11
23.7003375984
 21
8.1033902634
  0
LINE
  5
63B
100
AcDbEntity
  8
ASSI
100
AcDbLine
 62
7
  6
CONTINUOUS
 10
23.7003375984
 20
8.2934690528
 11
23.7003375984
 21
8.1033902634
  0
LINE
  5
63C
100
AcDbEntity
  8
DRAFT
100
AcDbLine
 62
7
  6
CONTINUOUS
 10
23.7073196244
 20
7.9916778478
 11
23.7073196244
 21
-1.5989749314
  0
LINE
  5
63D
100
AcDbEntity
  8
ASSI
100
AcDbLine
 62
7
  6
CONTINUOUS
 10
23.7073196244
 20
7.9916778478
 11
23.7073196244
 21
-1.5989749314
  0
LINE
  5
63E
100
AcDbEntity
  8
RACCORDO
100
AcDbLine
 62
7
  6
CONTINUOUS
 10
24.8003375984
 20
8.9940811188
 11
24.8003375984
 21
8.2934690528
  0
LINE
  5
63F
100
AcDbEntity
  8
ASSI
100
AcDbLine
 62
7
  6
CONTINUOUS
 10
24.8003375984
 20
8.9940811188
 11
24.8003375984
 21
8.2934690528
  0
LINE
  5
640
100
AcDbEntity
  8
DRAFT
100
AcDbLine
 62
7
  6
CONTINUOUS
 10
24.8073196244
 20
7.9916778478
 11
24.8073196244
 21
-1.637483368
  0
LINE
  5
641
100
AcDbEntity
  8
ASSI
100
AcDbLine
 62
7
  6
CONTINUOUS
 10
24.8073196244
 20
7.9916778478
 11
24.8073196244
 21
-1.637483368
  0
LINE
  5
642
100
AcDbEntity
  8
DRAFT
100
AcDbLine
 62
7
  6
CONTINUOUS
 10
23.7028120393
 20
-4.0944673463
 11
23.693357405
 21
-9.2469763092
  0
LINE
  5
643
100
AcDbEntity
  8
ASSI
100
AcDbLine
 62
7
  6
CONTINUOUS
 10
23.7028120393
 20
-4.0944673463
 11
23.693357405
 21
-9.2469763092
  0
LINE
  5
644
100
AcDbEntity
  8
DRAFT
100
AcDbLine
 62
7
  6
CONTINUOUS
 10
24.0073196244
 20
-1.5989749314
 11
24.0028120385
 21
-4.0944673455
  0
LINE
  5
645
100
AcDbEntity
  8
ASSI
100
AcDbLine
 62
7
  6
CONTINUOUS
 10
24.0073196244
 20
-1.5989749314
 11
24.0028120385
 21
-4.0944673455
  0
LINE
  5
646
100
AcDbEntity
  8
RACCORDO
100
AcDbLine
 62
7
  6
CONTINUOUS
 10
24.7938265467
 20
-8.9922574629
 11
24.8073196244
 21
-1.637483368
  0
LINE
  5
647
100
AcDbEntity
  8
ASSI
100
AcDbLine
 62
7
  6
CONTINUOUS
 10
24.7938265467
 20
-8.9922574629
 11
24.8073196244
 21
-1.637483368
  0
ARC
  5
648
100
AcDbEntity
  8
RACCORDO
100
AcDbCircle
 62
253
  6
CONTINUOUS
 10
-17.9875985168
 20
-6.5438930723
 40
0.3000637852
100
AcDbArc
 50
0.0208058113
 51
89.9791941349
  0
ARC
  5
649
100
AcDbEntity
  8
RACCORDO
100
AcDbCircle
 62
253
  6
CONTINUOUS
 10
-18.1977622344
 20
-6.5438930723
 40
0.3000637852
100
AcDbArc
 50
90.0208058651
 51
179.9791941887
  0
ARC
  5
64A
100
AcDbEntity
  8
RACCORDO
100
AcDbCircle
 62
253
  6
CONTINUOUS
 10
-6.7875985168
 20
-6.5438930723
 40
0.3000637852
100
AcDbArc
 50
0.0208058113
 51
89.9791941349
  0
ARC
  5
64B
100
AcDbEntity
  8
RACCORDO
100
AcDbCircle
 62
253
  6
CONTINUOUS
 10
-6.9977622344
 20
-6.5438930723
 40
0.3000637852
100
AcDbArc
 50
90.0208058651
 51
179.9791941887
  0
ARC
  5
64C
100
AcDbEntity
  8
ASSI
100
AcDbCircle
 62
253
  6
CONTINUOUS
 10
-17.9875985168
 20
-6.5438930723
 40
0.3000637852
100
AcDbArc
 50
0.0208058113
 51
89.9791941349
  0
ARC
  5
64D
100
AcDbEntity
  8
ASSI
100
AcDbCircle
 62
253
  6
CONTINUOUS
 10
-18.1977622344
 20
-6.5438930723
 40
0.3000637852
100
AcDbArc
 50
90.0208058651
 51
179.9791941887
  0
ARC
  5
64E
100
AcDbEntity
  8
ASSI
100
AcDbCircle
 62
253
  6
CONTINUOUS
 10
-6.7875985168
 20
-6.5438930723
 40
0.3000637852
100
AcDbArc
 50
0.0208058113
 51
89.9791941349
  0
ARC
  5
64F
100
AcDbEntity
  8
ASSI
100
AcDbCircle
 62
253
  6
CONTINUOUS
 10
-6.9977622344
 20
-6.5438930723
 40
0.3000637852
100
AcDbArc
 50
90.0208058651
 51
179.9791941887
  0
ARC
  5
650
100
AcDbEntity
  8
RACCORDO
100
AcDbCircle
 62
7
  6
CONTINUOUS
 10
-17.9575942044
 20
-6.5136765211
 40
0.2997999465
100
AcDbArc
 50
359.9317190043
 51
89.99032184
  0
ARC
  5
651
100
AcDbEntity
  8
RACCORDO
100
AcDbCircle
 62
7
  6
CONTINUOUS
 10
-18.2277665475
 20
-6.5136765212
 40
0.2997999466
100
AcDbArc
 50
90.0096780223
 51
180.0682809739
  0
ARC
  5
652
100
AcDbEntity
  8
RACCORDO
100
AcDbCircle
 62
7
  6
CONTINUOUS
 10
-6.7575942044
 20
-6.5136765211
 40
0.2997999466
100
AcDbArc
 50
359.9317190079
 51
89.9903218364
  0
ARC
  5
653
100
AcDbEntity
  8
RACCORDO
100
AcDbCircle
 62
7
  6
CONTINUOUS
 10
-7.0277665475
 20
-6.5136765212
 40
0.2997999466
100
AcDbArc
 50
90.009678022
 51
180.0682809743
  0
ARC
  5
654
100
AcDbEntity
  8
ASSI
100
AcDbCircle
 62
7
  6
CONTINUOUS
 10
-17.9575942044
 20
-6.5136765211
 40
0.2997999465
100
AcDbArc
 50
359.9317190043
 51
89.99032184
  0
ARC
  5
655
100
AcDbEntity
  8
ASSI
100
AcDbCircle
 62
7
  6
CONTINUOUS
 10
-18.2277665475
 20
-6.5136765212
 40
0.2997999466
100
AcDbArc
 50
90.0096780223
 51
180.0682809739
  0
ARC
  5
656
100
AcDbEntity
  8
ASSI
100
AcDbCircle
 62
7
  6
CONTINUOUS
 10
-6.7575942044
 20
-6.5136765211
 40
0.2997999466
100
AcDbArc
 50
359.9317190079
 51
89.9903218364
  0
ARC
  5
657
100
AcDbEntity
  8
ASSI
100
AcDbCircle
 62
7
  6
CONTINUOUS
 10
-7.0277665475
 20
-6.5136765212
 40
0.2997999466
100
AcDbArc
 50
90.009678022
 51
180.0682809743
  0
ARC
  5
658
100
AcDbEntity
  8
RACCORDO
100
AcDbCircle
 62
253
  6
CONTINUOUS
 10
-31.138564202
 20
5.0752421999
 40
50.7081457223
100
AcDbArc
 50
359.9646067185
 51
0.3640197826
  0
ARC
  5
659
100
AcDbEntity
  8
ASSI
100
AcDbCircle
 62
253
  6
CONTINUOUS
 10
-31.138564202
 20
5.0752421999
 40
50.7081457223
100
AcDbArc
 50
359.9646067185
 51
0.3640197826
  0
ARC
  5
65A
100
AcDbEntity
  8
RACCORDO
100
AcDbCircle
 62
253
  6
CONTINUOUS
 10
-70.4385642012
 20
5.0752422009
 40
50.7081457215
100
AcDbArc
 50
359.9646067175
 51
0.3640197816
  0
ARC
  5
65B
100
AcDbEntity
  8
ASSI
100
AcDbCircle
 62
253
  6
CONTINUOUS
 10
-70.4385642012
 20
5.0752422009
 40
50.7081457215
100
AcDbArc
 50
359.9646067175
 51
0.3640197816
  0
CIRCLE
  5
65C
100
AcDbEntity
  8
0
100
AcDbCircle
 62
7
  6
CONTINUOUS
 10
0.0073196244
 20
4.8510250686
 40
1.1
  0
CIRCLE
  5
65D
100
AcDbEntity
  8
0
100
AcDbCircle
 62
7
  6
CONTINUOUS
 10
0.0073196244
 20
4.8510250686
 40
0.9
  0
ARC
  5
65E
100
AcDbEntity
  8
RACCORDO
100
AcDbCircle
 62
253
  6
CONTINUOUS
 10
-19.5516242934
 20
3.4599689865
 40
0.3000646364
100
AcDbArc
 50
270.0209582141
 51
359.9790417859
  0
ARC
  5
65F
100
AcDbEntity
  8
ASSI
100
AcDbCircle
 62
253
  6
CONTINUOUS
 10
-19.5516242934
 20
3.4599689865
 40
0.3000646364
100
AcDbArc
 50
270.0209582141
 51
359.9790417859
  0
ARC
  5
660
100
AcDbEntity
  8
RACCORDO
100
AcDbCircle
 62
253
  6
CONTINUOUS
 10
-19.7337364639
 20
3.4599689804
 40
0.3000646302
100
AcDbArc
 50
180.0209570569
 51
269.9790429984
  0
ARC
  5
661
100
AcDbEntity
  8
ASSI
100
AcDbCircle
 62
253
  6
CONTINUOUS
 10
-19.7337364639
 20
3.4599689804
 40
0.3000646302
100
AcDbArc
 50
180.0209570569
 51
269.9790429984
  0
ARC
  5
662
100
AcDbEntity
  8
RACCORDO
100
AcDbCircle
 62
7
  6
CONTINUOUS
 10
-19.5207198918
 20
3.4291476685
 40
0.2999882567
100
AcDbArc
 50
269.9912778681
 51
359.9782891338
  0
ARC
  5
663
100
AcDbEntity
  8
RACCORDO
100
AcDbCircle
 62
7
  6
CONTINUOUS
 10
-19.764640854
 20
3.4291476631
 40
0.2999882567
100
AcDbArc
 50
180.0217098432
 51
270.0087211104
  0
ARC
  5
664
100
AcDbEntity
  8
ASSI
100
AcDbCircle
 62
7
  6
CONTINUOUS
 10
-19.5207198918
 20
3.4291476685
 40
0.2999882567
100
AcDbArc
 50
269.9912778681
 51
359.9782891338
  0
ARC
  5
665
100
AcDbEntity
  8
ASSI
100
AcDbCircle
 62
7
  6
CONTINUOUS
 10
-19.764640854
 20
3.4291476631
 40
0.2999882567
100
AcDbArc
 50
180.0217098432
 51
270.0087211104
  0
ARC
  5
666
100
AcDbEntity
  8
RACCORDO
100
AcDbCircle
 62
253
  6
CONTINUOUS
 10
6.8022377656
 20
-6.5438930723
 40
0.3000637852
100
AcDbArc
 50
90.0208058651
 51
179.9791941887
  0
ARC
  5
667
100
AcDbEntity
  8
RACCORDO
100
AcDbCircle
 62
253
  6
CONTINUOUS
 10
7.0124014832
 20
-6.5438930723
 40
0.3000637852
100
AcDbArc
 50
0.0208058113
 51
89.9791941349
  0
ARC
  5
668
100
AcDbEntity
  8
RACCORDO
100
AcDbCircle
 62
253
  6
CONTINUOUS
 10
18.2124014832
 20
-6.5438930723
 40
0.3000637852
100
AcDbArc
 50
0.0208058113
 51
89.9791941349
  0
ARC
  5
669
100
AcDbEntity
  8
RACCORDO
100
AcDbCircle
 62
253
  6
CONTINUOUS
 10
18.0022377656
 20
-6.5438930723
 40
0.3000637852
100
AcDbArc
 50
90.0208058651
 51
179.9791941887
  0
ARC
  5
66A
100
AcDbEntity
  8
ASSI
100
AcDbCircle
 62
253
  6
CONTINUOUS
 10
6.8022377656
 20
-6.5438930723
 40
0.3000637852
100
AcDbArc
 50
90.0208058651
 51
179.9791941887
  0
ARC
  5
66B
100
AcDbEntity
  8
ASSI
100
AcDbCircle
 62
253
  6
CONTINUOUS
 10
7.0124014832
 20
-6.5438930723
 40
0.3000637852
100
AcDbArc
 50
0.0208058113
 51
89.9791941349
  0
ARC
  5
66C
100
AcDbEntity
  8
ASSI
100
AcDbCircle
 62
253
  6
CONTINUOUS
 10
18.2124014832
 20
-6.5438930723
 40
0.3000637852
100
AcDbArc
 50
0.0208058113
 51
89.9791941349
  0
ARC
  5
66D
100
AcDbEntity
  8
ASSI
100
AcDbCircle
 62
253
  6
CONTINUOUS
 10
18.0022377656
 20
-6.5438930723
 40
0.3000637852
100
AcDbArc
 50
90.0208058651
 51
179.9791941887
  0
ARC
  5
66E
100
AcDbEntity
  8
RACCORDO
100
AcDbCircle
 62
7
  6
CONTINUOUS
 10
6.7722334525
 20
-6.5136765212
 40
0.2997999466
100
AcDbArc
 50
90.0096780229
 51
180.0682809733
  0
ARC
  5
66F
100
AcDbEntity
  8
RACCORDO
100
AcDbCircle
 62
7
  6
CONTINUOUS
 10
7.0424057956
 20
-6.5136765211
 40
0.2997999466
100
AcDbArc
 50
359.9317190043
 51
89.99032184
  0
ARC
  5
670
100
AcDbEntity
  8
RACCORDO
100
AcDbCircle
 62
7
  6
CONTINUOUS
 10
18.2424057956
 20
-6.5136765211
 40
0.2997999466
100
AcDbArc
 50
359.9317190079
 51
89.9903218364
  0
ARC
  5
671
100
AcDbEntity
  8
RACCORDO
100
AcDbCircle
 62
7
  6
CONTINUOUS
 10
17.9722334525
 20
-6.5136765212
 40
0.2997999466
100
AcDbArc
 50
90.0096780219
 51
180.0682809743
  0
ARC
  5
672
100
AcDbEntity
  8
ASSI
100
AcDbCircle
 62
7
  6
CONTINUOUS
 10
6.7722334525
 20
-6.5136765212
 40
0.2997999466
100
AcDbArc
 50
90.0096780229
 51
180.0682809733
  0
ARC
  5
673
100
AcDbEntity
  8
ASSI
100
AcDbCircle
 62
7
  6
CONTINUOUS
 10
7.0424057956
 20
-6.5136765211
 40
0.2997999466
100
AcDbArc
 50
359.9317190043
 51
89.99032184
  0
ARC
  5
674
100
AcDbEntity
  8
ASSI
100
AcDbCircle
 62
7
  6
CONTINUOUS
 10
18.2424057956
 20
-6.5136765211
 40
0.2997999466
100
AcDbArc
 50
359.9317190079
 51
89.9903218364
  0
ARC
  5
675
100
AcDbEntity
  8
ASSI
100
AcDbCircle
 62
7
  6
CONTINUOUS
 10
17.9722334525
 20
-6.5136765212
 40
0.2997999466
100
AcDbArc
 50
90.0096780219
 51
180.0682809743
  0
ARC
  5
676
100
AcDbEntity
  8
0
100
AcDbCircle
 62
7
  6
CONTINUOUS
 10
13.3423108295
 20
-2.9004880005
 40
0.2330561558
100
AcDbArc
 50
48.1418264783
 51
53.9796874654
  0
ARC
  5
677
100
AcDbEntity
  8
ASSI
100
AcDbCircle
 62
7
  6
CONTINUOUS
 10
13.3423108295
 20
-2.9004880005
 40
0.2330561558
100
AcDbArc
 50
48.1418264783
 51
53.9796874654
  0
ARC
  5
678
100
AcDbEntity
  8
RACCORDO
100
AcDbCircle
 62
253
  6
CONTINUOUS
 10
76.5645259434
 20
5.057859737
 40
56.8194743415
100
AcDbArc
 50
179.6576049419
 51
180.0140583183
  0
ARC
  5
679
100
AcDbEntity
  8
RACCORDO
100
AcDbCircle
 62
253
  6
CONTINUOUS
 10
37.2645259435
 20
5.0578597387
 40
56.8194743415
100
AcDbArc
 50
179.6576049437
 51
180.0140583201
  0
ARC
  5
67A
100
AcDbEntity
  8
ASSI
100
AcDbCircle
 62
253
  6
CONTINUOUS
 10
76.5645259434
 20
5.057859737
 40
56.8194743415
100
AcDbArc
 50
179.6576049419
 51
180.0140583183
  0
ARC
  5
67B
100
AcDbEntity
  8
ASSI
100
AcDbCircle
 62
253
  6
CONTINUOUS
 10
37.2645259435
 20
5.0578597387
 40
56.8194743415
100
AcDbArc
 50
179.6576049437
 51
180.0140583201
  0
ARC
  5
67C
100
AcDbEntity
  8
RACCORDO
100
AcDbCircle
 62
253
  6
CONTINUOUS
 10
19.7483757066
 20
3.4599689865
 40
0.3000646364
100
AcDbArc
 50
270.0209582141
 51
359.9790417859
  0
ARC
  5
67D
100
AcDbEntity
  8
ASSI
100
AcDbCircle
 62
253
  6
CONTINUOUS
 10
19.7483757066
 20
3.4599689865
 40
0.3000646364
100
AcDbArc
 50
270.0209582141
 51
359.9790417859
  0
ARC
  5
67E
100
AcDbEntity
  8
RACCORDO
100
AcDbCircle
 62
253
  6
CONTINUOUS
 10
19.5662635361
 20
3.4599689804
 40
0.3000646302
100
AcDbArc
 50
180.0209570569
 51
269.9790429984
  0
ARC
  5
67F
100
AcDbEntity
  8
ASSI
100
AcDbCircle
 62
253
  6
CONTINUOUS
 10
19.5662635361
 20
3.4599689804
 40
0.3000646302
100
AcDbArc
 50
180.0209570569
 51
269.9790429984
  0
ARC
  5
680
100
AcDbEntity
  8
RACCORDO
100
AcDbCircle
 62
7
  6
CONTINUOUS
 10
19.535359146
 20
3.4291476631
 40
0.2999882567
100
AcDbArc
 50
180.0217098444
 51
270.0087211092
  0
ARC
  5
681
100
AcDbEntity
  8
RACCORDO
100
AcDbCircle
 62
7
  6
CONTINUOUS
 10
19.7792801082
 20
3.4291476685
 40
0.2999882567
100
AcDbArc
 50
269.9912778701
 51
359.9782891318
  0
ARC
  5
682
100
AcDbEntity
  8
ASSI
100
AcDbCircle
 62
7
  6
CONTINUOUS
 10
19.535359146
 20
3.4291476631
 40
0.2999882567
100
AcDbArc
 50
180.0217098444
 51
270.0087211092
  0
ARC
  5
683
100
AcDbEntity
  8
ASSI
100
AcDbCircle
 62
7
  6
CONTINUOUS
 10
19.7792801082
 20
3.4291476685
 40
0.2999882567
100
AcDbArc
 50
269.9912778701
 51
359.9782891318
  0
SPLINE
  5
684
100
AcDbEntity
  8
0
100
AcDbSpline
 62
7
  6
CONTINUOUS
 70
0
 71
3
 72
9
 73
5
 74
3
 42
0.0000001
 43
0.0000001
 44
0.0000000001
 12
-0.0046820729
 22
0.3133621937
 32
0.0
 13
-0.3113313703
 23
0.0361338596
 33
0.0
 40
0.0
 40
0.0
 40
0.0
 40
0.0
 40
0.4988583766
 40
1.0
 40
1.0
 40
1.0
 40
1.0
 10
13.3435742423
 20
-2.273628726
 30
0.0
 10
13.3427956786
 20
-2.2215209409
 30
0.0
 10
13.3003711324
 20
-2.1128469751
 30
0.0
 10
13.1951348818
 20
-2.0670298291
 30
0.0
 10
13.1431278457
 20
-2.0609937687
 30
0.0
 11
13.3435742423
 21
-2.273628726
 31
0.0
 11
13.2848366975
 21
-2.1287376326
 31
0.0
 11
13.1431278457
 21
-2.0609937687
 31
0.0
  0
SPLINE
  5
685
100
AcDbEntity
  8
0
100
AcDbSpline
 62
7
  6
CONTINUOUS
 70
0
 71
3
 72
9
 73
5
 74
3
 42
0.0000001
 43
0.0000001
 44
0.0000000001
 12
-0.2768734096
 22
0.0321345862
 32
0.0
 13
-0.2747605685
 23
-0.046883616
 33
0.0
 40
0.0
 40
0.0
 40
0.0
 40
0.0
 40
0.7295958319
 40
1.0
 40
1.0
 40
1.0
 40
1.0
 10
13.1431278456
 20
-2.0609937689
 30
0.0
 10
13.0757926171
 20
-2.0531786821
 30
0.0
 10
12.9817999286
 20
-2.0528774342
 30
0.0
 10
12.8899265237
 20
-2.0667754387
 30
0.0
 10
12.865161056
 20
-2.0710012804
 30
0.0
 11
13.1431278456
 21
-2.0609937689
 31
0.0
 11
12.9397673856
 21
-2.0602975088
 31
0.0
 11
12.865161056
 21
-2.0710012804
 31
0.0
  0
SPLINE
  5
686
100
AcDbEntity
  8
0
100
AcDbSpline
 62
7
  6
CONTINUOUS
 70
0
 71
3
 72
9
 73
5
 74
3
 42
0.0000001
 43
0.0000001
 44
0.0000000001
 12
0.4232572624
 22
0.0094537593
 32
0.0
 13
-0.0063259437
 23
0.4233860928
 33
0.0
 40
0.0
 40
0.0
 40
0.0
 40
0.0
 40
0.4795375616
 40
1.0
 40
1.0
 40
1.0
 40
1.0
 10
13.0679417689
 20
-2.5376467629
 30
0.0
 10
13.1355976874
 20
-2.5361356187
 30
0.0
 10
13.292739758
 20
-2.5075138482
 30
0.0
 10
13.3446716997
 20
-2.3470809123
 30
0.0
 10
13.3435742276
 20
-2.2736287262
 30
0.0
 11
13.0679417689
 21
-2.5376467629
 31
0.0
 11
13.262115009
 21
-2.4783743863
 31
0.0
 11
13.3435742276
 21
-2.2736287262
 31
0.0
  0
SPLINE
  5
687
100
AcDbEntity
  8
0
100
AcDbSpline
 62
7
  6
CONTINUOUS
 70
0
 71
3
 72
17
 73
13
 74
11
 42
0.0000001
 43
0.0000001
 44
0.0000000001
 12
0.9958819045
 22
-0.3598342768
 32
0.0
 13
-1.050193894
 23
-0.1355088895
 33
0.0
 40
0.0
 40
0.0
 40
0.0
 40
0.0
 40
0.0798430187
 40
0.1895551228
 40
0.3223119562
 40
0.398530744
 40
0.483321362
 40
0.5876727129
 40
0.6789531193
 40
0.8312245932
 40
0.9440148167
 40
1.0
 40
1.0
 40
1.0
 40
1.0
 10
13.399313771
 20
-1.8192152956
 30
0.0
 10
13.4258185102
 20
-1.8287920473
 30
0.0
 10
13.4850650997
 20
-1.8614797571
 30
0.0
 10
13.5712661676
 20
-1.9372725967
 30
0.0
 10
13.6323424319
 20
-2.0342292059
 30
0.0
 10
13.6648608608
 20
-2.1331623206
 30
0.0
 10
13.6782779547
 20
-2.2262690043
 30
0.0
 10
13.6757320704
 20
-2.325955827
 30
0.0
 10
13.6486332025
 20
-2.4460634533
 30
0.0
 10
13.587802087
 20
-2.5611943896
 30
0.0
 10
13.5051869211
 20
-2.6359865613
 30
0.0
 10
13.4553702397
 20
-2.6752212026
 30
0.0
 10
13.4357718072
 20
-2.6777500326
 30
0.0
 11
13.399313771
 21
-1.8192152956
 31
0.0
 11
13.4742122514
 21
-1.8584379725
 31
0.0
 11
13.5613402072
 21
-1.9352830098
 31
0.0
 11
13.6363504602
 21
-2.0541743245
 31
0.0
 11
13.6617423653
 21
-2.1307840386
 31
0.0
 11
13.6750219454
 21
-2.2195813652
 31
0.0
 11
13.6717831388
 21
-2.3300315667
 31
0.0
 11
13.6502085391
 21
-2.4242498424
 31
0.0
 11
13.5734849975
 21
-2.5660664008
 31
0.0
 11
13.4877173953
 21
-2.6491826082
 31
0.0
 11
13.4357718072
 21
-2.6777500326
 31
0.0
  0
SPLINE
  5
688
100
AcDbEntity
  8
0
100
AcDbSpline
 62
7
  6
CONTINUOUS
 70
0
 71
3
 72
8
 73
4
 74
2
 42
0.0000001
 43
0.0000001
 44
0.0000000001
 12
0.0468153254
 22
-0.018667611
 32
0.0
 13
0.0404489985
 23
-0.0293488028
 33
0.0
 40
0.0
 40
0.0
 40
0.0
 40
0.0
 40
1.0
 40
1.0
 40
1.0
 40
1.0
 10
13.4357718072
 20
-2.6877947398
 30
0.0
 10
13.4513769157
 20
-2.6940172768
 30
0.0
 10
13.4658816363
 20
-2.7022072521
 30
0.0
 10
13.4793646358
 20
-2.7119901863
 30
0.0
 11
13.4357718072
 21
-2.6877947398
 31
0.0
 11
13.4793646358
 21
-2.7119901863
 31
0.0
  0
SPLINE
  5
689
100
AcDbEntity
  8
0
100
AcDbSpline
 62
7
  6
CONTINUOUS
 70
0
 71
3
 72
9
 73
5
 74
3
 42
0.0000001
 43
0.0000001
 44
0.0000000001
 12
0.2399260035
 22
-0.2145228187
 32
0.0
 13
0.0845359266
 23
-0.3102902278
 33
0.0
 40
0.0
 40
0.0
 40
0.0
 40
0.0
 40
0.7012282199
 40
1.0
 40
1.0
 40
1.0
 40
1.0
 10
13.497826644
 20
-2.7269080385
 30
0.0
 10
13.5539076054
 20
-2.7770511899
 30
0.0
 10
13.6057750237
 20
-2.8889794966
 30
0.0
 10
13.6318898057
 20
-2.9903293019
 30
0.0
 10
13.6403087888
 20
-3.0212312898
 30
0.0
 11
13.497826644
 21
-2.7269080385
 31
0.0
 11
13.6139862877
 21
-2.928824093
 31
0.0
 11
13.6403087888
 21
-3.0212312898
 31
0.0
  0
SPLINE
  5
68A
100
AcDbEntity
  8
0
100
AcDbSpline
 62
7
  6
CONTINUOUS
 70
0
 71
3
 72
9
 73
5
 74
3
 42
0.0000001
 43
0.0000001
 44
0.0000000001
 12
0.1250599769
 22
-0.4590343077
 32
0.0
 13
0.1246990825
 23
-0.4591324849
 33
0.0
 40
0.0
 40
0.0
 40
0.0
 40
0.0
 40
0.8019701246
 40
1.0
 40
1.0
 40
1.0
 40
1.0
 10
13.640308789
 20
-3.0212312898
 30
0.0
 10
13.6737402441
 20
-3.1439418901
 30
0.0
 10
13.7130830735
 20
-3.2975801373
 30
0.0
 10
13.7533688016
 20
-3.4509683018
 30
0.0
 10
13.7616001829
 20
-3.4812756181
 30
0.0
 11
13.640308789
 21
-3.0212312898
 31
0.0
 11
13.7374502227
 21
-3.3902076164
 31
0.0
 11
13.7616001829
 21
-3.4812756181
 31
0.0
  0
SPLINE
  5
68B
100
AcDbEntity
  8
0
100
AcDbSpline
 62
7
  6
CONTINUOUS
 70
0
 71
3
 72
9
 73
5
 74
3
 42
0.0000001
 43
0.0000001
 44
0.0000000001
 12
-0.1487666252
 22
0.5174419044
 32
0.0
 13
-0.1893777802
 23
0.5039985871
 33
0.0
 40
0.0
 40
0.0
 40
0.0
 40
0.0
 40
0.4413080349
 40
1.0
 40
1.0
 40
1.0
 40
1.0
 10
13.4202968395
 20
-3.4812756181
 30
0.0
 10
13.3984128705
 20
-3.4051585281
 30
0.0
 10
13.3467436768
 20
-3.2333849558
 30
0.0
 10
13.3003769372
 20
-3.0596009562
 30
0.0
 10
13.2651089892
 20
-2.9657409692
 30
0.0
 11
13.4202968395
 21
-3.4812756181
 31
0.0
 11
13.3538414775
 21
-3.2531568765
 31
0.0
 11
13.2651089892
 21
-2.9657409692
 31
0.0
  0
SPLINE
  5
68C
100
AcDbEntity
  8
0
100
AcDbSpline
 62
7
  6
CONTINUOUS
 70
0
 71
3
 72
9
 73
5
 74
3
 42
0.0000001
 43
0.0000001
 44
0.0000000001
 12
-0.0895737501
 22
0.2383859055
 32
0.0
 13
-0.2546300208
 23
0.0
 33
0.0
 40
0.0
 40
0.0
 40
0.0
 40
0.0
 40
0.8563651185
 40
1.0
 40
1.0
 40
1.0
 40
1.0
 10
13.2651090032
 20
-2.9657409639
 30
0.0
 10
13.2395397249
 20
-2.8976925059
 30
0.0
 10
13.1644907595
 20
-2.8220607429
 30
0.0
 10
13.0793681944
 20
-2.8160432155
 30
0.0
 10
13.0671769435
 20
-2.8160432155
 30
0.0
 11
13.2651090032
 21
-2.9657409639
 31
0.0
 11
13.1036135053
 21
-2.819208079
 31
0.0
 11
13.0671769435
 21
-2.8160432155
 31
0.0
  0
SPLINE
  5
68D
100
AcDbEntity
  8
0
100
AcDbSpline
 62
7
  6
CONTINUOUS
 70
0
 71
3
 72
9
 73
5
 74
3
 42
0.0000001
 43
0.0000001
 44
0.0000000001
 12
0.870352019
 22
0.1280436023
 32
0.0
 13
0.8273203445
 23
-0.2990739652
 33
0.0
 40
0.0
 40
0.0
 40
0.0
 40
0.0
 40
0.8916594654
 40
1.0
 40
1.0
 40
1.0
 40
1.0
 10
12.5235262883
 20
-1.8012728492
 30
0.0
 10
12.7822121603
 20
-1.7632157525
 30
0.0
 10
13.0865366145
 20
-1.7277221147
 30
0.0
 10
13.3694363126
 20
-1.8084147229
 30
0.0
 10
13.3993137554
 20
-1.819215334
 30
0.0
 11
12.5235262883
 21
-1.8012728492
 31
0.0
 11
13.3078858268
 21
-1.7922939183
 31
0.0
 11
13.3993137554
 21
-1.819215334
 31
0.0
  0
SPLINE
  5
68E
100
AcDbEntity
  8
RACCORDO
100
AcDbSpline
 62
7
  6
CONTINUOUS
 70
0
 71
3
 72
10
 73
6
 74
4
 42
0.0000001
 43
0.0000001
 44
0.0000000001
 12
-0.1883406519
 22
0.1821745431
 32
0.0
 13
-0.1853866352
 23
0.1851798068
 33
0.0
 40
0.0
 40
0.0
 40
0.0
 40
0.0
 40
0.2866167254
 40
0.6201205121
 40
1.0
 40
1.0
 40
1.0
 40
1.0
 10
23.5229148093
 20
-7.4725201707
 30
0.0
 10
23.504920949
 20
-7.4551154137
 30
0.0
 10
23.4661299425
 20
-7.4173135977
 30
0.0
 10
23.4039004638
 20
-7.3560240816
 30
0.0
 10
23.3597158485
 20
-7.3120899908
 30
0.0
 10
23.3362409884
 20
-7.2886413207
 30
0.0
 11
23.5229148093
 21
-7.4725201707
 31
0.0
 11
23.4691059025
 21
-7.4201279697
 31
0.0
 11
23.406832045
 21
-7.358820273
 31
0.0
 11
23.3362409884
 21
-7.2886413207
 31
0.0
  0
SPLINE
  5
68F
100
AcDbEntity
  8
RACCORDO
100
AcDbSpline
 62
7
  6
CONTINUOUS
 70
0
 71
3
 72
10
 73
6
 74
4
 42
0.0000001
 43
0.0000001
 44
0.0000000001
 12
0.1932247375
 22
0.1319117349
 32
0.0
 13
0.0047953966
 23
0.23390919
 33
0.0
 40
0.0
 40
0.0
 40
0.0
 40
0.0
 40
0.3373558539
 40
0.6687258877
 40
1.0
 40
1.0
 40
1.0
 40
1.0
 10
23.5229148093
 20
-7.4725201707
 30
0.0
 10
23.5446433081
 20
-7.4576864387
 30
0.0
 10
23.5840255902
 20
-7.422280051
 30
0.0
 10
23.6250053305
 20
-7.3545252505
 30
0.0
 10
23.6356657667
 20
-7.3026181902
 30
0.0
 10
23.636195297
 20
-7.2767888371
 30
0.0
 11
23.5229148093
 21
-7.4725201707
 31
0.0
 11
23.5813297387
 21
-7.4194428555
 31
0.0
 11
23.6208844302
 21
-7.3527658094
 31
0.0
 11
23.636195297
 21
-7.2767888371
 31
0.0
  0
SPLINE
  5
690
100
AcDbEntity
  8
RACCORDO
100
AcDbSpline
 62
7
  6
CONTINUOUS
 70
0
 71
3
 72
10
 73
6
 74
4
 42
0.0000001
 43
0.0000001
 44
0.0000000001
 12
0.2111537282
 22
0.0378702165
 32
0.0
 13
0.151821365
 23
0.1515596362
 33
0.0
 40
0.0
 40
0.0
 40
0.0
 40
0.0
 40
0.3429101549
 40
0.6755847515
 40
1.0
 40
1.0
 40
1.0
 40
1.0
 10
23.3362409884
 20
-7.5722311624
 30
0.0
 10
23.3603765743
 20
-7.5679024685
 30
0.0
 10
23.4071081244
 20
-7.5538570583
 30
0.0
 10
23.4700742684
 20
-7.5190891999
 30
0.0
 10
23.5064970874
 20
-7.4889095898
 30
0.0
 10
23.5229148093
 20
-7.4725201707
 30
0.0
 11
23.3362409884
 21
-7.5722311624
 31
0.0
 11
23.4067359918
 21
-7.5512113773
 31
0.0
 11
23.4693251136
 21
-7.5169221568
 31
0.0
 11
23.5229148093
 21
-7.4725201707
 31
0.0
  0
SPLINE
  5
691
100
AcDbEntity
  8
RACCORDO
100
AcDbSpline
 62
7
  6
CONTINUOUS
 70
0
 71
3
 72
13
 73
9
 74
7
 42
0.0000001
 43
0.0000001
 44
0.0000000001
 12
-0.4360540282
 22
-0.0003592369
 32
0.0
 13
-0.0089035972
 23
0.4359632674
 33
0.0
 40
0.0
 40
0.0
 40
0.0
 40
0.0
 40
0.1762313956
 40
0.3431225387
 40
0.5099732983
 40
0.6748732839
 40
0.8372164229
 40
1.0
 40
1.0
 40
1.0
 40
1.0
 10
-23.3174394843
 20
-7.5301850342
 30
0.0
 10
-23.3430549543
 20
-7.5302061372
 30
0.0
 10
-23.3931011877
 20
-7.5246486264
 30
0.0
 10
-23.4638627944
 20
-7.5008739417
 30
0.0
 10
-23.5263791018
 20
-7.4629046968
 30
0.0
 10
-23.5773959742
 20
-7.4111879421
 30
0.0
 10
-23.6121069372
 20
-7.3478635428
 30
0.0
 10
-23.6210729284
 20
-7.3004447239
 30
0.0
 10
-23.6215560481
 20
-7.2767888371
 30
0.0
 11
-23.3174394843
 21
-7.5301850342
 31
0.0
 11
-23.3938208824
 21
-7.5217436624
 31
0.0
 11
-23.4627515643
 21
-7.4984079596
 31
0.0
 11
-23.5247674761
 21
-7.4603624878
 31
0.0
 11
-23.5749661832
 21
-7.4088798119
 31
0.0
 11
-23.6085691817
 21
-7.3465731529
 31
0.0
 11
-23.6215560481
 21
-7.2767888371
 31
0.0
  0
SPLINE
  5
692
100
AcDbEntity
  8
RACCORDO
100
AcDbSpline
 62
253
  6
CONTINUOUS
 70
0
 71
3
 72
11
 73
7
 74
5
 42
0.0000001
 43
0.0000001
 44
0.0000000001
 12
-0.0069988224
 22
0.4010844298
 32
0.0
 13
-0.4011302123
 23
0.0035008769
 33
0.0
 40
0.0
 40
0.0
 40
0.0
 40
0.0
 40
0.2095153874
 40
0.4453794694
 40
0.7128570698
 40
1.0
 40
1.0
 40
1.0
 40
1.0
 10
-19.2416252221
 20
5.8924464248
 30
0.0
 10
-19.2421140091
 20
5.9204575447
 30
0.0
 10
-19.2612095014
 20
5.9803247768
 30
0.0
 10
-19.3310563911
 20
6.0489791964
 30
0.0
 10
-19.4286617774
 20
6.0936035707
 30
0.0
 10
-19.5031856291
 20
6.1042433752
 30
0.0
 10
-19.5415795306
 20
6.1045784592
 30
0.0
 11
-19.2416252221
 21
5.8924464248
 31
0.0
 11
-19.2655111642
 21
5.9730269282
 31
0.0
 11
-19.3307765464
 21
6.0415293506
 31
0.0
 11
-19.4276388462
 21
6.0876859748
 31
0.0
 11
-19.5415795306
 21
6.1045784592
 31
0.0
  0
SPLINE
  5
693
100
AcDbEntity
  8
RACCORDO
100
AcDbSpline
 62
253
  6
CONTINUOUS
 70
0
 71
3
 72
11
 73
7
 74
5
 42
0.0000001
 43
0.0000001
 44
0.0000000001
 12
-0.0069988137
 22
0.401084489
 32
0.0
 13
-0.401130273
 23
0.0035006841
 33
0.0
 40
0.0
 40
0.0
 40
0.0
 40
0.0
 40
0.2095120489
 40
0.4453745127
 40
0.7128531963
 40
1.0
 40
1.0
 40
1.0
 40
1.0
 10
-19.2539678169
 20
5.1853396437
 30
0.0
 10
-19.2544565955
 20
5.2133503213
 30
0.0
 10
-19.2735515335
 20
5.2732169046
 30
0.0
 10
-19.3433975218
 20
5.3418715324
 30
0.0
 10
-19.4410031529
 20
5.3864965953
 30
0.0
 10
-19.5155277002
 20
5.3971366051
 30
0.0
 10
-19.5539221255
 20
5.3974716752
 30
0.0
 11
-19.2539678169
 21
5.1853396437
 31
0.0
 11
-19.2778530336
 21
5.2659189781
 31
0.0
 11
-19.3431174574
 21
5.3344214362
 31
0.0
 11
-19.4399799144
 21
5.3805787774
 31
0.0
 11
-19.5539221255
 21
5.3974716752
 31
0.0
  0
SPLINE
  5
694
100
AcDbEntity
  8
RACCORDO
100
AcDbSpline
 62
253
  6
CONTINUOUS
 70
0
 71
3
 72
11
 73
7
 74
5
 42
0.0000001
 43
0.0000001
 44
0.0000000001
 12
0.0069988224
 22
0.4010844293
 32
0.0
 13
0.4011302117
 23
0.0035008838
 33
0.0
 40
0.0
 40
0.0
 40
0.0
 40
0.0
 40
0.2095153873
 40
0.4453794686
 40
0.7128570688
 40
1.0
 40
1.0
 40
1.0
 40
1.0
 10
-20.0313929343
 20
5.1853396437
 30
0.0
 10
-20.0309041473
 20
5.2133507635
 30
0.0
 10
-20.0118086551
 20
5.2732179954
 30
0.0
 10
-19.9419617653
 20
5.3418724146
 30
0.0
 10
-19.8443563788
 20
5.386496788
 30
0.0
 10
-19.7698325273
 20
5.3971365933
 30
0.0
 10
-19.7314386257
 20
5.397471678
 30
0.0
 11
-20.0313929343
 21
5.1853396437
 31
0.0
 11
-20.0075069922
 21
5.2659201469
 31
0.0
 11
-19.9422416101
 21
5.3344225687
 31
0.0
 11
-19.8453793102
 21
5.3805791924
 31
0.0
 11
-19.7314386257
 21
5.397471678
 31
0.0
  0
SPLINE
  5
695
100
AcDbEntity
  8
RACCORDO
100
AcDbSpline
 62
253
  6
CONTINUOUS
 70
0
 71
3
 72
11
 73
7
 74
5
 42
0.0000001
 43
0.0000001
 44
0.0000000001
 12
0.0069988223
 22
0.4010844284
 32
0.0
 13
0.4011302109
 23
0.003500877
 33
0.0
 40
0.0
 40
0.0
 40
0.0
 40
0.0
 40
0.209515632
 40
0.4453798145
 40
0.7128573246
 40
1.0
 40
1.0
 40
1.0
 40
1.0
 10
-20.0437355291
 20
5.8924464248
 30
0.0
 10
-20.0432467415
 20
5.9204575773
 30
0.0
 10
-20.024151211
 20
5.9803248552
 30
0.0
 10
-19.9543042605
 20
6.0489792601
 30
0.0
 10
-19.8566988921
 20
6.0936035865
 30
0.0
 10
-19.7821750878
 20
6.1042433755
 30
0.0
 10
-19.7437812205
 20
6.1045784592
 30
0.0
 11
-20.0437355291
 21
5.8924464248
 31
0.0
 11
-20.0198495351
 21
5.9730270149
 31
0.0
 11
-19.9545840896
 21
6.041529432
 31
0.0
 11
-19.8577218056
 21
6.0876860045
 31
0.0
 11
-19.7437812205
 21
6.1045784592
 31
0.0
  0
SPLINE
  5
696
100
AcDbEntity
  8
RACCORDO
100
AcDbSpline
 62
253
  6
CONTINUOUS
 70
0
 71
3
 72
11
 73
7
 74
5
 42
0.0000001
 43
0.0000001
 44
0.0000000001
 12
0.0069988224
 22
0.4010844293
 32
0.0
 13
0.4011302117
 23
0.0035008838
 33
0.0
 40
0.0
 40
0.0
 40
0.0
 40
0.0
 40
0.2095153873
 40
0.4453794686
 40
0.7128570688
 40
1.0
 40
1.0
 40
1.0
 40
1.0
 10
19.2686070657
 20
5.1853396437
 30
0.0
 10
19.2690958527
 20
5.2133507635
 30
0.0
 10
19.2881913449
 20
5.2732179954
 30
0.0
 10
19.3580382347
 20
5.3418724146
 30
0.0
 10
19.4556436212
 20
5.386496788
 30
0.0
 10
19.5301674727
 20
5.3971365933
 30
0.0
 10
19.5685613743
 20
5.397471678
 30
0.0
 11
19.2686070657
 21
5.1853396437
 31
0.0
 11
19.2924930078
 21
5.2659201469
 31
0.0
 11
19.3577583899
 21
5.3344225687
 31
0.0
 11
19.4546206898
 21
5.3805791924
 31
0.0
 11
19.5685613743
 21
5.397471678
 31
0.0
  0
SPLINE
  5
697
100
AcDbEntity
  8
RACCORDO
100
AcDbSpline
 62
253
  6
CONTINUOUS
 70
0
 71
3
 72
11
 73
7
 74
5
 42
0.0000001
 43
0.0000001
 44
0.0000000001
 12
0.0069988223
 22
0.4010844284
 32
0.0
 13
0.4011302109
 23
0.003500877
 33
0.0
 40
0.0
 40
0.0
 40
0.0
 40
0.0
 40
0.209515632
 40
0.4453798145
 40
0.7128573246
 40
1.0
 40
1.0
 40
1.0
 40
1.0
 10
19.2562644709
 20
5.8924464248
 30
0.0
 10
19.2567532585
 20
5.9204575773
 30
0.0
 10
19.275848789
 20
5.9803248552
 30
0.0
 10
19.3456957395
 20
6.0489792601
 30
0.0
 10
19.4433011079
 20
6.0936035865
 30
0.0
 10
19.5178249122
 20
6.1042433755
 30
0.0
 10
19.5562187795
 20
6.1045784592
 30
0.0
 11
19.2562644709
 21
5.8924464248
 31
0.0
 11
19.2801504649
 21
5.9730270149
 31
0.0
 11
19.3454159104
 21
6.041529432
 31
0.0
 11
19.4422781944
 21
6.0876860045
 31
0.0
 11
19.5562187795
 21
6.1045784592
 31
0.0
  0
SPLINE
  5
698
100
AcDbEntity
  8
RACCORDO
100
AcDbSpline
 62
7
  6
CONTINUOUS
 70
0
 71
3
 72
12
 73
8
 74
6
 42
0.0000001
 43
0.0000001
 44
0.0000000001
 12
0.3000739778
 22
-0.0
 32
0.0
 13
0.212185585
 23
0.2121831041
 33
0.0
 40
0.0
 40
0.0
 40
0.0
 40
0.0
 40
0.3053475036
 40
0.5820489604
 40
0.8022991747
 40
0.9467217969
 40
1.0
 40
1.0
 40
1.0
 40
1.0
 10
23.3346333446
 20
-4.7675018621
 30
0.0
 10
23.3651756246
 20
-4.7675018621
 30
0.0
 10
23.4235499424
 20
-4.7676333779
 30
0.0
 10
23.5031967953
 20
-4.7658703702
 30
0.0
 10
23.5688940525
 20
-4.767694155
 30
0.0
 10
23.6076461704
 20
-4.7609660787
 30
0.0
 10
23.6308222497
 20
-4.7661250413
 30
0.0
 10
23.6345905386
 20
-4.7623567965
 30
0.0
 11
23.3346333446
 21
-4.7675018621
 31
0.0
 11
23.426259843
 21
-4.767251652
 31
0.0
 11
23.5092875523
 21
-4.7665229722
 31
0.0
 11
23.5753692007
 21
-4.7653901294
 31
0.0
 11
23.6186827457
 21
-4.7639502698
 31
0.0
 11
23.6345905386
 21
-4.7623567965
 31
0.0
  0
SPLINE
  5
699
100
AcDbEntity
  8
RACCORDO
100
AcDbSpline
 62
7
  6
CONTINUOUS
 70
0
 71
3
 72
12
 73
8
 74
6
 42
0.0000001
 43
0.0000001
 44
0.0000000001
 12
0.212185585
 22
-0.2121831041
 32
0.0
 13
0.3000739778
 23
0.0
 33
0.0
 40
0.0
 40
0.0
 40
0.0
 40
0.0
 40
0.0532782031
 40
0.1977008253
 40
0.4179510396
 40
0.6946524964
 40
1.0
 40
1.0
 40
1.0
 40
1.0
 10
-23.6199512897
 20
-4.7623567965
 30
0.0
 10
-23.6161830009
 20
-4.7661250413
 30
0.0
 10
-23.5930069216
 20
-4.7609660787
 30
0.0
 10
-23.5542548036
 20
-4.767694155
 30
0.0
 10
-23.4885575465
 20
-4.7658703702
 30
0.0
 10
-23.4089106936
 20
-4.7676333779
 30
0.0
 10
-23.3505363758
 20
-4.7675018621
 30
0.0
 10
-23.3199940958
 20
-4.7675018621
 30
0.0
 11
-23.6199512897
 21
-4.7623567965
 31
0.0
 11
-23.6040434968
 21
-4.7639502698
 31
0.0
 11
-23.5607299519
 21
-4.7653901294
 31
0.0
 11
-23.4946483035
 21
-4.7665229722
 31
0.0
 11
-23.4116205942
 21
-4.767251652
 31
0.0
 11
-23.3199940958
 21
-4.7675018621
 31
0.0
  0
SPLINE
  5
69A
100
AcDbEntity
  8
RACCORDO
100
AcDbSpline
 62
7
  6
CONTINUOUS
 70
0
 71
3
 72
12
 73
8
 74
6
 42
0.0000001
 43
0.0000001
 44
0.0000000001
 12
-0.2121858917
 22
0.2121865075
 32
0.0
 13
-0.3000766013
 23
0.0
 33
0.0
 40
0.0
 40
0.0
 40
0.0
 40
0.0
 40
0.0533078243
 40
0.1977742039
 40
0.4180472247
 40
0.6947316031
 40
1.0
 40
1.0
 40
1.0
 40
1.0
 10
23.6326483956
 20
-0.9336509234
 30
0.0
 10
23.6288780062
 20
-0.929880523
 30
0.0
 10
23.6056930824
 20
-0.9350402295
 30
0.0
 10
23.566931579
 20
-0.9283108997
 30
0.0
 10
23.5012288854
 20
-0.9301335783
 30
0.0
 10
23.4215885034
 20
-0.9283707256
 30
0.0
 10
23.3632233723
 20
-0.9285020162
 30
0.0
 10
23.332688738
 20
-0.9285020162
 30
0.0
 11
23.6326483956
 21
-0.9336509234
 31
0.0
 11
23.6167316888
 21
-0.9320558556
 31
0.0
 11
23.5734046654
 21
-0.9306148418
 31
0.0
 11
23.5073156064
 21
-0.9294812922
 31
0.0
 11
23.4242922991
 21
-0.9287522837
 31
0.0
 11
23.332688738
 21
-0.9285020162
 31
0.0
  0
SPLINE
  5
69B
100
AcDbEntity
  8
RACCORDO
100
AcDbSpline
 62
7
  6
CONTINUOUS
 70
0
 71
3
 72
12
 73
8
 74
6
 42
0.0000001
 43
0.0000001
 44
0.0000000001
 12
-0.3000766013
 22
-0.0
 32
0.0
 13
-0.2121858917
 23
-0.2121865075
 33
0.0
 40
0.0
 40
0.0
 40
0.0
 40
0.0
 40
0.3052683969
 40
0.5819527753
 40
0.8022257961
 40
0.9466921757
 40
1.0
 40
1.0
 40
1.0
 40
1.0
 10
-23.3180494891
 20
-0.9285020162
 30
0.0
 10
-23.3485841235
 20
-0.9285020162
 30
0.0
 10
-23.4069492546
 20
-0.9283707256
 30
0.0
 10
-23.4865896365
 20
-0.9301335783
 30
0.0
 10
-23.5522923301
 20
-0.9283108997
 30
0.0
 10
-23.5910538336
 20
-0.9350402295
 30
0.0
 10
-23.6142387574
 20
-0.929880523
 30
0.0
 10
-23.6180091468
 20
-0.9336509234
 30
0.0
 11
-23.3180494891
 21
-0.9285020162
 31
0.0
 11
-23.4096530503
 21
-0.9287522837
 31
0.0
 11
-23.4926763576
 21
-0.9294812922
 31
0.0
 11
-23.5587654165
 21
-0.9306148418
 31
0.0
 11
-23.60209244
 21
-0.9320558556
 31
0.0
 11
-23.6180091468
 21
-0.9336509234
 31
0.0
  0
SPLINE
  5
69C
100
AcDbEntity
  8
RACCORDO
100
AcDbSpline
 62
7
  6
CONTINUOUS
 70
0
 71
3
 72
12
 73
8
 74
6
 42
0.0000001
 43
0.0000001
 44
0.0000000001
 12
0.2121856603
 22
-0.2121849679
 32
0.0
 13
0.300075349
 23
0.0
 33
0.0
 40
0.0
 40
0.0
 40
0.0
 40
0.0
 40
0.0532816106
 40
0.1977093993
 40
0.417962435
 40
0.694661992
 40
1.0
 40
1.0
 40
1.0
 40
1.0
 10
-23.6212056369
 20
-6.7611024494
 30
0.0
 10
-23.6174371056
 20
-6.7648709683
 30
0.0
 10
-23.594259882
 20
-6.7597118699
 30
0.0
 10
-23.5555065422
 20
-6.7664401472
 30
0.0
 10
-23.4898083714
 20
-6.7646164688
 30
0.0
 10
-23.4101619974
 20
-6.7663794712
 30
0.0
 10
-23.3517885604
 20
-6.7662479795
 30
0.0
 10
-23.3212470906
 20
-6.7662479795
 30
0.0
 11
-23.6212056369
 21
-6.7611024494
 31
0.0
 11
-23.6052967618
 21
-6.7626961118
 31
0.0
 11
-23.5619814722
 21
-6.7641361109
 31
0.0
 11
-23.4958986765
 21
-6.765269041
 31
0.0
 11
-23.4128711582
 21
-6.7659977624
 31
0.0
 11
-23.3212470906
 21
-6.7662479795
 31
0.0
  0
SPLINE
  5
69D
100
AcDbEntity
  8
RACCORDO
100
AcDbSpline
 62
7
  6
CONTINUOUS
 70
0
 71
3
 72
12
 73
8
 74
6
 42
0.0000001
 43
0.0000001
 44
0.0000000001
 12
-0.3000816659
 22
0.0
 32
0.0
 13
-0.2121905985
 23
-0.2121889631
 33
0.0
 40
0.0
 40
0.0
 40
0.0
 40
0.0
 40
0.305206335
 40
0.5818776397
 40
0.8021687507
 40
0.9466692379
 40
1.0
 40
1.0
 40
1.0
 40
1.0
 10
-23.3207671526
 20
-6.0312216051
 30
0.0
 10
-23.3512960945
 20
-6.0312216051
 30
0.0
 10
-23.4096546315
 20
-6.0310904949
 30
0.0
 10
-23.4892908012
 20
-6.0328532314
 30
0.0
 10
-23.5549984105
 20
-6.0310314197
 30
0.0
 10
-23.5937677154
 20
-6.0377617288
 30
0.0
 10
-23.6169596557
 20
-6.0326014613
 30
0.0
 10
-23.6207317511
 20
-6.0363735277
 30
0.0
 11
-23.3207671526
 21
-6.0312216051
 31
0.0
 11
-23.412353636
 21
-6.0314719213
 31
0.0
 11
-23.4953744191
 21
-6.0322011917
 31
0.0
 11
-23.5614700135
 21
-6.0333353001
 31
0.0
 11
-23.6048079796
 21
-6.0347772193
 31
0.0
 11
-23.6207317511
 21
-6.0363735277
 31
0.0
  0
SPLINE
  5
69E
100
AcDbEntity
  8
RACCORDO
100
AcDbSpline
 62
7
  6
CONTINUOUS
 70
0
 71
3
 72
12
 73
8
 74
6
 42
0.0000001
 43
0.0000001
 44
0.0000000001
 12
0.2121821519
 22
-0.2121827803
 32
0.0
 13
0.3000713213
 23
-0.0
 33
0.0
 40
0.0
 40
0.0
 40
0.0
 40
0.0
 40
0.0532731
 40
0.1976880308
 40
0.4179339921
 40
0.6946382695
 40
1.0
 40
1.0
 40
1.0
 40
1.0
 10
-23.6172115656
 20
1.1349034793
 30
0.0
 10
-23.6134436986
 20
1.1311356012
 30
0.0
 10
-23.5902692583
 20
1.1362944505
 30
0.0
 10
-23.5515191499
 20
1.1295665919
 30
0.0
 10
-23.4858233414
 20
1.1313905767
 30
0.0
 10
-23.4061759562
 20
1.129627544
 30
0.0
 10
-23.3478004334
 20
1.1297591034
 30
0.0
 10
-23.3172570007
 20
1.1297591034
 30
0.0
 11
-23.6172115656
 21
1.1349034793
 31
0.0
 11
-23.601305426
 21
1.1333102841
 31
0.0
 11
-23.5579945673
 21
1.1318706313
 31
0.0
 11
-23.4919147782
 21
1.1307379183
 31
0.0
 11
-23.4088869571
 21
1.1300093004
 31
0.0
 11
-23.3172570007
 21
1.1297591034
 31
0.0
  0
SPLINE
  5
69F
100
AcDbEntity
  8
RACCORDO
100
AcDbSpline
 62
7
  6
CONTINUOUS
 70
0
 71
3
 72
12
 73
8
 74
6
 42
0.0000001
 43
0.0000001
 44
0.0000000001
 12
-0.3000744827
 22
-0.0
 32
0.0
 13
-0.2121844225
 23
-0.2121849807
 33
0.0
 40
0.0
 40
0.0
 40
0.0
 40
0.0
 40
0.3052957572
 40
0.5819859076
 40
0.8022509535
 40
0.9467022877
 40
1.0
 40
1.0
 40
1.0
 40
1.0
 10
-23.3170138643
 20
1.8725343424
 30
0.0
 10
-23.3475510198
 20
1.8725343424
 30
0.0
 10
-23.4059190799
 20
1.8726657113
 30
0.0
 10
-23.4855613537
 20
1.8709028103
 30
0.0
 10
-23.5512618957
 20
1.8727258637
 30
0.0
 10
-23.5900199926
 20
1.8659969807
 30
0.0
 10
-23.61320181
 20
1.8711564233
 30
0.0
 10
-23.6169714581
 20
1.8673867653
 30
0.0
 11
-23.3170138643
 21
1.8725343424
 31
0.0
 11
-23.408624989
 21
1.872284096
 31
0.0
 11
-23.4916494432
 21
1.871555203
 31
0.0
 11
-23.5577356462
 21
1.8704218998
 31
0.0
 11
-23.6010578595
 21
1.8689812854
 31
0.0
 11
-23.6169714581
 21
1.8673867653
 31
0.0
  0
SPLINE
  5
6A0
100
AcDbEntity
  8
RACCORDO
100
AcDbSpline
 62
7
  6
CONTINUOUS
 70
0
 71
3
 72
12
 73
8
 74
6
 42
0.0000001
 43
0.0000001
 44
0.0000000001
 12
-0.2121905985
 22
0.2121889632
 32
0.0
 13
-0.3000816659
 23
-0.0
 33
0.0
 40
0.0
 40
0.0
 40
0.0
 40
0.0
 40
0.0533307621
 40
0.1978312493
 40
0.4181223603
 40
0.694793665
 40
1.0
 40
1.0
 40
1.0
 40
1.0
 10
23.6353709999
 20
-6.0363735277
 30
0.0
 10
23.6315989045
 20
-6.0326014613
 30
0.0
 10
23.6084069643
 20
-6.0377617288
 30
0.0
 10
23.5696376594
 20
-6.0310314197
 30
0.0
 10
23.50393005
 20
-6.0328532314
 30
0.0
 10
23.4242938803
 20
-6.0310904949
 30
0.0
 10
23.3659353433
 20
-6.0312216051
 30
0.0
 10
23.3354064015
 20
-6.0312216051
 30
0.0
 11
23.6353709999
 21
-6.0363735277
 31
0.0
 11
23.6194472285
 21
-6.0347772193
 31
0.0
 11
23.5761092623
 21
-6.0333353001
 31
0.0
 11
23.5100136679
 21
-6.0322011917
 31
0.0
 11
23.4269928849
 21
-6.0314719213
 31
0.0
 11
23.3354064015
 21
-6.0312216051
 31
0.0
  0
SPLINE
  5
6A1
100
AcDbEntity
  8
RACCORDO
100
AcDbSpline
 62
7
  6
CONTINUOUS
 70
0
 71
3
 72
12
 73
8
 74
6
 42
0.0000001
 43
0.0000001
 44
0.0000000001
 12
0.300075349
 22
-0.0
 32
0.0
 13
0.2121856603
 23
0.2121849679
 33
0.0
 40
0.0
 40
0.0
 40
0.0
 40
0.0
 40
0.305338008
 40
0.582037565
 40
0.8022906007
 40
0.9467183894
 40
1.0
 40
1.0
 40
1.0
 40
1.0
 10
23.3358863394
 20
-6.7662479795
 30
0.0
 10
23.3664278092
 20
-6.7662479795
 30
0.0
 10
23.4248012462
 20
-6.7663794712
 30
0.0
 10
23.5044476202
 20
-6.7646164688
 30
0.0
 10
23.5701457911
 20
-6.7664401472
 30
0.0
 10
23.6088991308
 20
-6.7597118699
 30
0.0
 10
23.6320763544
 20
-6.7648709683
 30
0.0
 10
23.6358448857
 20
-6.7611024494
 30
0.0
 11
23.3358863394
 21
-6.7662479795
 31
0.0
 11
23.4275104071
 21
-6.7659977624
 31
0.0
 11
23.5105379253
 21
-6.765269041
 31
0.0
 11
23.576620721
 21
-6.7641361109
 31
0.0
 11
23.6199360106
 21
-6.7626961118
 31
0.0
 11
23.6358448857
 21
-6.7611024494
 31
0.0
  0
SPLINE
  5
6A2
100
AcDbEntity
  8
RACCORDO
100
AcDbSpline
 62
7
  6
CONTINUOUS
 70
0
 71
3
 72
12
 73
8
 74
6
 42
0.0000001
 43
0.0000001
 44
0.0000000001
 12
-0.2121844225
 22
0.2121849807
 32
0.0
 13
-0.3000744827
 23
0.0
 33
0.0
 40
0.0
 40
0.0
 40
0.0
 40
0.0
 40
0.0532977123
 40
0.1977490465
 40
0.4180140924
 40
0.6947042428
 40
1.0
 40
1.0
 40
1.0
 40
1.0
 10
23.6316107069
 20
1.8673867653
 30
0.0
 10
23.6278410588
 20
1.8711564233
 30
0.0
 10
23.6046592414
 20
1.8659969807
 30
0.0
 10
23.5659011445
 20
1.8727258637
 30
0.0
 10
23.5002006025
 20
1.8709028103
 30
0.0
 10
23.4205583288
 20
1.8726657113
 30
0.0
 10
23.3621902686
 20
1.8725343424
 30
0.0
 10
23.3316531132
 20
1.8725343424
 30
0.0
 11
23.6316107069
 21
1.8673867653
 31
0.0
 11
23.6156971083
 21
1.8689812854
 31
0.0
 11
23.572374895
 21
1.8704218998
 31
0.0
 11
23.506288692
 21
1.871555203
 31
0.0
 11
23.4232642378
 21
1.872284096
 31
0.0
 11
23.3316531132
 21
1.8725343424
 31
0.0
  0
SPLINE
  5
6A3
100
AcDbEntity
  8
RACCORDO
100
AcDbSpline
 62
7
  6
CONTINUOUS
 70
0
 71
3
 72
12
 73
8
 74
6
 42
0.0000001
 43
0.0000001
 44
0.0000000001
 12
0.3000713213
 22
0.0
 32
0.0
 13
0.2121821519
 23
0.2121827803
 33
0.0
 40
0.0
 40
0.0
 40
0.0
 40
0.0
 40
0.3053617305
 40
0.5820660079
 40
0.8023119692
 40
0.9467269
 40
1.0
 40
1.0
 40
1.0
 40
1.0
 10
23.3318962495
 20
1.1297591034
 30
0.0
 10
23.3624396822
 20
1.1297591034
 30
0.0
 10
23.420815205
 20
1.129627544
 30
0.0
 10
23.5004625902
 20
1.1313905767
 30
0.0
 10
23.5661583988
 20
1.1295665919
 30
0.0
 10
23.6049085071
 20
1.1362944505
 30
0.0
 10
23.6280829474
 20
1.1311356012
 30
0.0
 10
23.6318508144
 20
1.1349034793
 30
0.0
 11
23.3318962495
 21
1.1297591034
 31
0.0
 11
23.4235262059
 21
1.1300093004
 31
0.0
 11
23.506554027
 21
1.1307379183
 31
0.0
 11
23.5726338161
 21
1.1318706313
 31
0.0
 11
23.6159446748
 21
1.1333102841
 31
0.0
 11
23.6318508144
 21
1.1349034793
 31
0.0
  0
SPLINE
  5
6A4
100
AcDbEntity
  8
RACCORDO
100
AcDbSpline
 62
253
  6
CONTINUOUS
 70
0
 71
3
 72
11
 73
7
 74
5
 42
0.0000001
 43
0.0000001
 44
0.0000000001
 12
-0.0069988224
 22
0.4010844298
 32
0.0
 13
-0.4011302123
 23
0.0035008769
 33
0.0
 40
0.0
 40
0.0
 40
0.0
 40
0.0
 40
0.2095153874
 40
0.4453794694
 40
0.7128570698
 40
1.0
 40
1.0
 40
1.0
 40
1.0
 10
20.0583747779
 20
5.8924464248
 30
0.0
 10
20.0578859909
 20
5.9204575447
 30
0.0
 10
20.0387904986
 20
5.9803247768
 30
0.0
 10
19.9689436089
 20
6.0489791964
 30
0.0
 10
19.8713382226
 20
6.0936035707
 30
0.0
 10
19.7968143709
 20
6.1042433752
 30
0.0
 10
19.7584204694
 20
6.1045784592
 30
0.0
 11
20.0583747779
 21
5.8924464248
 31
0.0
 11
20.0344888358
 21
5.9730269282
 31
0.0
 11
19.9692234536
 21
6.0415293506
 31
0.0
 11
19.8723611538
 21
6.0876859748
 31
0.0
 11
19.7584204694
 21
6.1045784592
 31
0.0
  0
SPLINE
  5
6A5
100
AcDbEntity
  8
RACCORDO
100
AcDbSpline
 62
253
  6
CONTINUOUS
 70
0
 71
3
 72
11
 73
7
 74
5
 42
0.0000001
 43
0.0000001
 44
0.0000000001
 12
-0.0069988137
 22
0.401084489
 32
0.0
 13
-0.401130273
 23
0.0035006841
 33
0.0
 40
0.0
 40
0.0
 40
0.0
 40
0.0
 40
0.2095120489
 40
0.4453745127
 40
0.7128531963
 40
1.0
 40
1.0
 40
1.0
 40
1.0
 10
20.0460321831
 20
5.1853396437
 30
0.0
 10
20.0455434045
 20
5.2133503213
 30
0.0
 10
20.0264484665
 20
5.2732169046
 30
0.0
 10
19.9566024782
 20
5.3418715324
 30
0.0
 10
19.8589968471
 20
5.3864965953
 30
0.0
 10
19.7844722998
 20
5.3971366051
 30
0.0
 10
19.7460778745
 20
5.3974716752
 30
0.0
 11
20.0460321831
 21
5.1853396437
 31
0.0
 11
20.0221469664
 21
5.2659189781
 31
0.0
 11
19.9568825426
 21
5.3344214362
 31
0.0
 11
19.8600200856
 21
5.3805787774
 31
0.0
 11
19.7460778745
 21
5.3974716752
 31
0.0
  0
SPLINE
  5
6A6
100
AcDbEntity
  8
RACCORDO
100
AcDbSpline
 62
253
  6
CONTINUOUS
 70
0
 71
3
 72
12
 73
8
 74
6
 42
0.0000001
 43
0.0000001
 44
0.0000000001
 12
0.188162755
 22
0.4631952088
 32
0.0
 13
0.000001281
 23
0.4999550218
 33
0.0
 40
0.0
 40
0.0
 40
0.0
 40
0.0
 40
0.0533471248
 40
0.1972618061
 40
0.417998053
 40
0.6944311848
 40
1.0
 40
1.0
 40
1.0
 40
1.0
 10
19.5661537819
 20
3.1599049175
 30
0.0
 10
19.5694997625
 20
3.1681416284
 30
0.0
 10
19.5641694472
 20
3.2024630673
 30
0.0
 10
19.5703282837
 20
3.2708301132
 30
0.0
 10
19.5682489346
 20
3.378325898
 30
0.0
 10
19.5697576488
 20
3.5118476962
 30
0.0
 10
19.5695837378
 20
3.6089052105
 30
0.0
 10
19.5695838683
 20
3.6598287651
 30
0.0
 11
19.5661537819
 21
3.1599049175
 31
0.0
 11
19.5672191339
 21
3.1865547948
 31
0.0
 11
19.5681752927
 21
3.2584993089
 31
0.0
 11
19.5689316553
 21
3.3688549121
 31
0.0
 11
19.5694168879
 21
3.5070581927
 31
0.0
 11
19.5695838683
 21
3.6598287651
 31
0.0
  0
SPLINE
  5
6A7
100
AcDbEntity
  8
RACCORDO
100
AcDbSpline
 62
253
  6
CONTINUOUS
 70
0
 71
3
 72
12
 73
8
 74
6
 42
0.0000001
 43
0.0000001
 44
0.0000000001
 12
0.000001281
 22
-0.4999550218
 32
0.0
 13
0.1881627568
 23
-0.4631952081
 33
0.0
 40
0.0
 40
0.0
 40
0.0
 40
0.0
 40
0.305568815
 40
0.5820019468
 40
0.8027381938
 40
0.9466528751
 40
1.0
 40
1.0
 40
1.0
 40
1.0
 10
19.7450553806
 20
3.6598287651
 30
0.0
 10
19.745055511
 20
3.6089052106
 30
0.0
 10
19.7448816
 20
3.5118476963
 30
0.0
 10
19.7463903142
 20
3.3783258981
 30
0.0
 10
19.7443109652
 20
3.2708301132
 30
0.0
 10
19.7504698017
 20
3.2024630674
 30
0.0
 10
19.7451394863
 20
3.1681416284
 30
0.0
 10
19.748485467
 20
3.1599049175
 30
0.0
 11
19.7450553806
 21
3.6598287651
 31
0.0
 11
19.745222361
 21
3.5070581928
 31
0.0
 11
19.7457075935
 21
3.3688549122
 31
0.0
 11
19.7464639561
 21
3.258499309
 31
0.0
 11
19.7474201149
 21
3.1865547948
 31
0.0
 11
19.748485467
 21
3.1599049175
 31
0.0
  0
SPLINE
  5
6A8
100
AcDbEntity
  8
RACCORDO
100
AcDbSpline
 62
253
  6
CONTINUOUS
 70
0
 71
3
 72
12
 73
8
 74
6
 42
0.0000001
 43
0.0000001
 44
0.0000000001
 12
0.000001281
 22
-0.4999550218
 32
0.0
 13
0.1881627568
 23
-0.4631952081
 33
0.0
 40
0.0
 40
0.0
 40
0.0
 40
0.0
 40
0.305568815
 40
0.5820019468
 40
0.8027381938
 40
0.9466528751
 40
1.0
 40
1.0
 40
1.0
 40
1.0
 10
-19.5549446194
 20
3.6598287651
 30
0.0
 10
-19.554944489
 20
3.6089052106
 30
0.0
 10
-19.5551184
 20
3.5118476963
 30
0.0
 10
-19.5536096858
 20
3.3783258981
 30
0.0
 10
-19.5556890348
 20
3.2708301132
 30
0.0
 10
-19.5495301983
 20
3.2024630674
 30
0.0
 10
-19.5548605137
 20
3.1681416284
 30
0.0
 10
-19.551514533
 20
3.1599049175
 30
0.0
 11
-19.5549446194
 21
3.6598287651
 31
0.0
 11
-19.554777639
 21
3.5070581928
 31
0.0
 11
-19.5542924065
 21
3.3688549122
 31
0.0
 11
-19.5535360439
 21
3.258499309
 31
0.0
 11
-19.5525798851
 21
3.1865547948
 31
0.0
 11
-19.551514533
 21
3.1599049175
 31
0.0
  0
SPLINE
  5
6A9
100
AcDbEntity
  8
RACCORDO
100
AcDbSpline
 62
253
  6
CONTINUOUS
 70
0
 71
3
 72
12
 73
8
 74
6
 42
0.0000001
 43
0.0000001
 44
0.0000000001
 12
0.188162755
 22
0.4631952088
 32
0.0
 13
0.000001281
 23
0.4999550218
 33
0.0
 40
0.0
 40
0.0
 40
0.0
 40
0.0
 40
0.0533471248
 40
0.1972618061
 40
0.417998053
 40
0.6944311848
 40
1.0
 40
1.0
 40
1.0
 40
1.0
 10
-19.7338462181
 20
3.1599049175
 30
0.0
 10
-19.7305002375
 20
3.1681416284
 30
0.0
 10
-19.7358305528
 20
3.2024630673
 30
0.0
 10
-19.7296717163
 20
3.2708301132
 30
0.0
 10
-19.7317510654
 20
3.378325898
 30
0.0
 10
-19.7302423512
 20
3.5118476962
 30
0.0
 10
-19.7304162622
 20
3.6089052105
 30
0.0
 10
-19.7304161317
 20
3.6598287651
 30
0.0
 11
-19.7338462181
 21
3.1599049175
 31
0.0
 11
-19.7327808661
 21
3.1865547948
 31
0.0
 11
-19.7318247073
 21
3.2584993089
 31
0.0
 11
-19.7310683447
 21
3.3688549121
 31
0.0
 11
-19.7305831121
 21
3.5070581927
 31
0.0
 11
-19.7304161317
 21
3.6598287651
 31
0.0
  0
SPLINE
  5
6AA
100
AcDbEntity
  8
RACCORDO
100
AcDbSpline
 62
253
  6
CONTINUOUS
 70
0
 71
3
 72
11
 73
7
 74
5
 42
0.0000001
 43
0.0000001
 44
0.0000000001
 12
-0.0098689072
 22
0.3534493123
 32
0.0
 13
-0.0000004971
 23
0.3535870638
 33
0.0
 40
0.0
 40
0.0
 40
0.0
 40
0.0
 40
0.2035823994
 40
0.4531925193
 40
0.7278954329
 40
1.0
 40
1.0
 40
1.0
 40
1.0
 10
19.5562185001
 20
6.1045895618
 30
0.0
 10
19.5555487882
 20
6.1285749148
 30
0.0
 10
19.5543490256
 20
6.1819766076
 30
0.0
 10
19.5530803136
 20
6.2677593242
 30
0.0
 10
19.5523003926
 20
6.3616243238
 30
0.0
 10
19.5521288174
 20
6.4260724713
 30
0.0
 10
19.5521287723
 20
6.4581433563
 30
0.0
 11
19.5562185001
 21
6.1045895618
 31
0.0
 11
19.5545535848
 21
6.1765544082
 31
0.0
 11
19.5532148021
 21
6.2648031632
 31
0.0
 11
19.5523896913
 21
6.3619310551
 31
0.0
 11
19.5521287723
 21
6.4581433563
 31
0.0
  0
SPLINE
  5
6AB
100
AcDbEntity
  8
RACCORDO
100
AcDbSpline
 62
253
  6
CONTINUOUS
 70
0
 71
3
 72
11
 73
7
 74
5
 42
0.0000001
 43
0.0000001
 44
0.0000000001
 12
-0.0000004828
 22
-0.3535861826
 32
0.0
 13
-0.0098690566
 23
-0.3534484266
 33
0.0
 40
0.0
 40
0.0
 40
0.0
 40
0.0
 40
0.2713497641
 40
0.5458509931
 40
0.7957709277
 40
1.0
 40
1.0
 40
1.0
 40
1.0
 10
19.7625104755
 20
6.4581430258
 30
0.0
 10
19.7625104318
 20
6.4261611834
 30
0.0
 10
19.7623396158
 20
6.3618259314
 30
0.0
 10
19.7615620815
 20
6.2680373684
 30
0.0
 10
19.7602940223
 20
6.182165884
 30
0.0
 10
19.7590926119
 20
6.1286515931
 30
0.0
 10
19.7584207624
 20
6.1045901117
 30
0.0
 11
19.7625104755
 21
6.4581430258
 31
0.0
 11
19.7622510141
 21
6.3621978494
 31
0.0
 11
19.7614284036
 21
6.2651414937
 31
0.0
 11
19.7600900236
 21
6.1767833939
 31
0.0
 11
19.7584207624
 21
6.1045901117
 31
0.0
  0
SPLINE
  5
6AC
100
AcDbEntity
  8
RACCORDO
100
AcDbSpline
 62
253
  6
CONTINUOUS
 70
0
 71
3
 72
9
 73
5
 74
3
 42
0.0000001
 43
0.0000001
 44
0.0000000001
 12
0.0053452793
 22
-1.6468770511
 32
0.0
 13
0.0076765735
 23
-1.6468678343
 33
0.0
 40
0.0
 40
0.0
 40
0.0
 40
0.0
 40
0.5000137269
 40
1.0
 40
1.0
 40
1.0
 40
1.0
 10
-4.2346274146
 20
5.6746175679
 30
0.0
 10
-4.2337365103
 20
5.4001305239
 30
0.0
 10
-4.2317604294
 20
4.8511721204
 30
0.0
 10
-4.2293958934
 20
4.3022152527
 30
0.0
 10
-4.2281164996
 20
4.0277448158
 30
0.0
 11
-4.2346274146
 21
5.6746175679
 31
0.0
 11
-4.231663256
 21
4.8511574334
 31
0.0
 11
-4.2281164996
 21
4.0277448158
 31
0.0
  0
SPLINE
  5
6AD
100
AcDbEntity
  8
RACCORDO
100
AcDbSpline
 62
253
  6
CONTINUOUS
 70
0
 71
3
 72
9
 73
5
 74
3
 42
0.0000001
 43
0.0000001
 44
0.0000000001
 12
0.0076765735
 22
1.6468678343
 32
0.0
 13
0.0053452793
 23
1.6468770511
 33
0.0
 40
0.0
 40
0.0
 40
0.0
 40
0.0
 40
0.499986712
 40
1.0
 40
1.0
 40
1.0
 40
1.0
 10
4.2427557484
 20
4.0277448158
 30
0.0
 10
4.2440351433
 20
4.3022154937
 30
0.0
 10
4.2463996792
 20
4.8511723614
 30
0.0
 10
4.2483757599
 20
5.4001307649
 30
0.0
 10
4.2492666635
 20
5.6746175679
 30
0.0
 11
4.2427557484
 21
4.0277448158
 31
0.0
 11
4.2463025077
 21
4.8511581563
 31
0.0
 11
4.2492666635
 21
5.6746175679
 31
0.0
  0
SPLINE
  5
6AE
100
AcDbEntity
  8
RACCORDO
100
AcDbSpline
 62
253
  6
CONTINUOUS
 70
0
 71
3
 72
11
 73
7
 74
5
 42
0.0000001
 43
0.0000001
 44
0.0000000001
 12
-0.0000004828
 22
-0.3535861826
 32
0.0
 13
-0.0098690566
 23
-0.3534484266
 33
0.0
 40
0.0
 40
0.0
 40
0.0
 40
0.0
 40
0.2713497641
 40
0.5458509931
 40
0.7957709277
 40
1.0
 40
1.0
 40
1.0
 40
1.0
 10
-19.5374895245
 20
6.4581430258
 30
0.0
 10
-19.5374895682
 20
6.4261611834
 30
0.0
 10
-19.5376603842
 20
6.3618259314
 30
0.0
 10
-19.5384379185
 20
6.2680373684
 30
0.0
 10
-19.5397059777
 20
6.182165884
 30
0.0
 10
-19.5409073881
 20
6.1286515931
 30
0.0
 10
-19.5415792376
 20
6.1045901117
 30
0.0
 11
-19.5374895245
 21
6.4581430258
 31
0.0
 11
-19.5377489859
 21
6.3621978494
 31
0.0
 11
-19.5385715964
 21
6.2651414937
 31
0.0
 11
-19.5399099764
 21
6.1767833939
 31
0.0
 11
-19.5415792376
 21
6.1045901117
 31
0.0
  0
SPLINE
  5
6AF
100
AcDbEntity
  8
RACCORDO
100
AcDbSpline
 62
253
  6
CONTINUOUS
 70
0
 71
3
 72
11
 73
7
 74
5
 42
0.0000001
 43
0.0000001
 44
0.0000000001
 12
-0.0098905691
 22
0.5656197527
 32
0.0
 13
-0.0000105791
 23
0.5657062205
 33
0.0
 40
0.0
 40
0.0
 40
0.0
 40
0.0
 40
0.203753628
 40
0.4534050995
 40
0.7280845227
 40
1.0
 40
1.0
 40
1.0
 40
1.0
 10
19.2562644709
 20
5.8924464248
 30
0.0
 10
19.2555927245
 20
5.9308621171
 30
0.0
 10
19.2543946769
 20
6.0163522797
 30
0.0
 10
19.2531252498
 20
6.153640775
 30
0.0
 10
19.2523456398
 20
6.3037862991
 30
0.0
 10
19.2521754537
 20
6.4068570908
 30
0.0
 10
19.2521744948
 20
6.4581318498
 30
0.0
 11
19.2562644709
 21
5.8924464248
 31
0.0
 11
19.2545982536
 21
6.007699076
 31
0.0
 11
19.2532597498
 21
6.1489221234
 31
0.0
 11
19.2524351059
 21
6.3043077935
 31
0.0
 11
19.2521744948
 21
6.4581318498
 31
0.0
  0
SPLINE
  5
6B0
100
AcDbEntity
  8
RACCORDO
100
AcDbSpline
 62
253
  6
CONTINUOUS
 70
0
 71
3
 72
10
 73
6
 74
4
 42
0.0000001
 43
0.0000001
 44
0.0000000001
 12
0.000000142
 22
0.1414264683
 32
0.0
 13
-0.0024701873
 23
0.1414048942
 33
0.0
 40
0.0
 40
0.0
 40
0.0
 40
0.0
 40
0.3658056966
 40
0.7062804612
 40
1.0
 40
1.0
 40
1.0
 40
1.0
 10
19.2696295597
 20
5.0439182874
 30
0.0
 10
19.269629577
 20
5.0611631567
 30
0.0
 10
19.2695557933
 20
5.09445881
 30
0.0
 10
19.2692273751
 20
5.1415999637
 30
0.0
 10
19.2688489131
 20
5.1714951836
 30
0.0
 10
19.2686070657
 20
5.1853396437
 30
0.0
 11
19.2696295597
 21
5.0439182874
 31
0.0
 11
19.2695107168
 21
5.0956527587
 31
0.0
 11
19.2691629701
 21
5.1438036465
 31
0.0
 11
19.2686070657
 21
5.1853396437
 31
0.0
  0
SPLINE
  5
6B1
100
AcDbEntity
  8
RACCORDO
100
AcDbSpline
 62
253
  6
CONTINUOUS
 70
0
 71
3
 72
12
 73
8
 74
6
 42
0.0000001
 43
0.0000001
 44
0.0000000001
 12
0.1431629629
 22
0.1397257719
 32
0.0
 13
0.0000002731
 23
0.2000473076
 33
0.0
 40
0.0
 40
0.0
 40
0.0
 40
0.0
 40
0.053680495
 40
0.1976944885
 40
0.4183849018
 40
0.6946711573
 40
1.0
 40
1.0
 40
1.0
 40
1.0
 10
19.2661994733
 20
3.4598592261
 30
0.0
 10
19.2687611596
 20
3.4623594089
 30
0.0
 10
19.2652377529
 20
3.4778842944
 30
0.0
 10
19.2697833143
 20
3.5036889173
 30
0.0
 10
19.268533404
 20
3.5474925459
 30
0.0
 10
19.2697204004
 20
3.6005788132
 30
0.0
 10
19.2696295319
 20
3.6394686941
 30
0.0
 10
19.2696295597
 20
3.6598287651
 30
0.0
 11
19.2661994733
 21
3.4598592261
 31
0.0
 11
19.2672658624
 21
3.4705447851
 31
0.0
 11
19.2682215236
 21
3.4993385419
 31
0.0
 11
19.2689779037
 21
3.5434805851
 31
0.0
 11
19.2694627527
 21
3.59874878
 31
0.0
 11
19.2696295597
 21
3.6598287651
 31
0.0
  0
SPLINE
  5
6B2
100
AcDbEntity
  8
RACCORDO
100
AcDbSpline
 62
253
  6
CONTINUOUS
 70
0
 71
3
 72
12
 73
8
 74
6
 42
0.0000001
 43
0.0000001
 44
0.0000000001
 12
0.0000002731
 22
-0.2000473076
 32
0.0
 13
0.1431629629
 23
-0.1397257719
 33
0.0
 40
0.0
 40
0.0
 40
0.0
 40
0.0
 40
0.3053288425
 40
0.581615098
 40
0.8023055113
 40
0.9463195049
 40
1.0
 40
1.0
 40
1.0
 40
1.0
 10
20.0450096891
 20
3.6598287651
 30
0.0
 10
20.0450097169
 20
3.6394686941
 30
0.0
 10
20.0449188485
 20
3.6005788132
 30
0.0
 10
20.0461058448
 20
3.5474925459
 30
0.0
 10
20.0448559346
 20
3.5036889174
 30
0.0
 10
20.0494014959
 20
3.4778842944
 30
0.0
 10
20.0458780893
 20
3.4623594089
 30
0.0
 10
20.0484397755
 20
3.4598592261
 30
0.0
 11
20.0450096891
 21
3.6598287651
 31
0.0
 11
20.0451764961
 21
3.59874878
 31
0.0
 11
20.0456613451
 21
3.5434805851
 31
0.0
 11
20.0464177252
 21
3.499338542
 31
0.0
 11
20.0473733865
 21
3.4705447851
 31
0.0
 11
20.0484397755
 21
3.4598592261
 31
0.0
  0
SPLINE
  5
6B3
100
AcDbEntity
  8
RACCORDO
100
AcDbSpline
 62
253
  6
CONTINUOUS
 70
0
 71
3
 72
10
 73
6
 74
4
 42
0.0000001
 43
0.0000001
 44
0.0000000001
 12
-0.0024701868
 22
-0.1414048942
 32
0.0
 13
0.0000001414
 23
-0.1414264683
 33
0.0
 40
0.0
 40
0.0
 40
0.0
 40
0.0
 40
0.2937195618
 40
0.6341943926
 40
1.0
 40
1.0
 40
1.0
 40
1.0
 10
20.0460321831
 20
5.1853396437
 30
0.0
 10
20.0457903357
 20
5.1714951825
 30
0.0
 10
20.0454118737
 20
5.1415999584
 30
0.0
 10
20.0450834555
 20
5.0944588047
 30
0.0
 10
20.0450096719
 20
5.0611631525
 30
0.0
 10
20.0450096891
 20
5.0439182874
 30
0.0
 11
20.0460321831
 21
5.1853396437
 31
0.0
 11
20.0454762787
 21
5.1438036432
 31
0.0
 11
20.0451285319
 21
5.0956527461
 31
0.0
 11
20.0450096891
 21
5.0439182874
 31
0.0
  0
SPLINE
  5
6B4
100
AcDbEntity
  8
RACCORDO
100
AcDbSpline
 62
253
  6
CONTINUOUS
 70
0
 71
3
 72
11
 73
7
 74
5
 42
0.0000001
 43
0.0000001
 44
0.0000000001
 12
-0.0000102035
 22
-0.56570622
 32
0.0
 13
-0.0098911393
 23
-0.5656197423
 33
0.0
 40
0.0
 40
0.0
 40
0.0
 40
0.0
 40
0.27116473
 40
0.5456360084
 40
0.7955929365
 40
1.0
 40
1.0
 40
1.0
 40
1.0
 10
20.062464754
 20
6.4581318498
 30
0.0
 10
20.0624638318
 20
6.4069986583
 30
0.0
 10
20.0622943504
 20
6.3041086845
 30
0.0
 10
20.0615171549
 20
6.1540863683
 30
0.0
 10
20.0602483579
 20
6.0166562942
 30
0.0
 10
20.0590487175
 20
5.930985315
 30
0.0
 10
20.0583747779
 20
5.8924464248
 30
0.0
 11
20.062464754
 21
6.4581318498
 31
0.0
 11
20.0622055913
 21
6.3047324943
 31
0.0
 11
20.0613834612
 21
6.1494645614
 31
0.0
 11
20.0600453869
 21
6.0080687035
 31
0.0
 11
20.0583747779
 21
5.8924464248
 31
0.0
  0
SPLINE
  5
6B5
100
AcDbEntity
  8
RACCORDO
100
AcDbSpline
 62
253
  6
CONTINUOUS
 70
0
 71
3
 72
12
 73
8
 74
6
 42
0.0000001
 43
0.0000001
 44
0.0000000001
 12
0.0000002731
 22
-0.2000473076
 32
0.0
 13
0.1431629629
 23
-0.1397257719
 33
0.0
 40
0.0
 40
0.0
 40
0.0
 40
0.0
 40
0.3053288425
 40
0.581615098
 40
0.8023055113
 40
0.9463195049
 40
1.0
 40
1.0
 40
1.0
 40
1.0
 10
-19.2549903109
 20
3.6598287651
 30
0.0
 10
-19.2549902831
 20
3.6394686941
 30
0.0
 10
-19.2550811515
 20
3.6005788132
 30
0.0
 10
-19.2538941552
 20
3.5474925459
 30
0.0
 10
-19.2551440654
 20
3.5036889174
 30
0.0
 10
-19.2505985041
 20
3.4778842944
 30
0.0
 10
-19.2541219107
 20
3.4623594089
 30
0.0
 10
-19.2515602245
 20
3.4598592261
 30
0.0
 11
-19.2549903109
 21
3.6598287651
 31
0.0
 11
-19.2548235039
 21
3.59874878
 31
0.0
 11
-19.2543386549
 21
3.5434805851
 31
0.0
 11
-19.2535822748
 21
3.499338542
 31
0.0
 11
-19.2526266135
 21
3.4705447851
 31
0.0
 11
-19.2515602245
 21
3.4598592261
 31
0.0
  0
SPLINE
  5
6B6
100
AcDbEntity
  8
RACCORDO
100
AcDbSpline
 62
253
  6
CONTINUOUS
 70
0
 71
3
 72
10
 73
6
 74
4
 42
0.0000001
 43
0.0000001
 44
0.0000000001
 12
-0.0024701868
 22
-0.1414048942
 32
0.0
 13
0.0000001414
 23
-0.1414264683
 33
0.0
 40
0.0
 40
0.0
 40
0.0
 40
0.0
 40
0.2937195618
 40
0.6341943926
 40
1.0
 40
1.0
 40
1.0
 40
1.0
 10
-19.2539678169
 20
5.1853396437
 30
0.0
 10
-19.2542096643
 20
5.1714951825
 30
0.0
 10
-19.2545881263
 20
5.1415999584
 30
0.0
 10
-19.2549165445
 20
5.0944588047
 30
0.0
 10
-19.2549903281
 20
5.0611631525
 30
0.0
 10
-19.2549903109
 20
5.0439182874
 30
0.0
 11
-19.2539678169
 21
5.1853396437
 31
0.0
 11
-19.2545237213
 21
5.1438036432
 31
0.0
 11
-19.2548714681
 21
5.0956527461
 31
0.0
 11
-19.2549903109
 21
5.0439182874
 31
0.0
  0
SPLINE
  5
6B7
100
AcDbEntity
  8
RACCORDO
100
AcDbSpline
 62
253
  6
CONTINUOUS
 70
0
 71
3
 72
11
 73
7
 74
5
 42
0.0000001
 43
0.0000001
 44
0.0000000001
 12
-0.0000102035
 22
-0.56570622
 32
0.0
 13
-0.0098911393
 23
-0.5656197423
 33
0.0
 40
0.0
 40
0.0
 40
0.0
 40
0.0
 40
0.27116473
 40
0.5456360084
 40
0.7955929365
 40
1.0
 40
1.0
 40
1.0
 40
1.0
 10
-19.237535246
 20
6.4581318498
 30
0.0
 10
-19.2375361682
 20
6.4069986583
 30
0.0
 10
-19.2377056496
 20
6.3041086845
 30
0.0
 10
-19.2384828451
 20
6.1540863683
 30
0.0
 10
-19.2397516421
 20
6.0166562942
 30
0.0
 10
-19.2409512825
 20
5.930985315
 30
0.0
 10
-19.2416252221
 20
5.8924464248
 30
0.0
 11
-19.237535246
 21
6.4581318498
 31
0.0
 11
-19.2377944087
 21
6.3047324943
 31
0.0
 11
-19.2386165388
 21
6.1494645614
 31
0.0
 11
-19.2399546131
 21
6.0080687035
 31
0.0
 11
-19.2416252221
 21
5.8924464248
 31
0.0
  0
SPLINE
  5
6B8
100
AcDbEntity
  8
RACCORDO
100
AcDbSpline
 62
253
  6
CONTINUOUS
 70
0
 71
3
 72
11
 73
7
 74
5
 42
0.0000001
 43
0.0000001
 44
0.0000000001
 12
-0.0098905691
 22
0.5656197527
 32
0.0
 13
-0.0000105791
 23
0.5657062205
 33
0.0
 40
0.0
 40
0.0
 40
0.0
 40
0.0
 40
0.203753628
 40
0.4534050995
 40
0.7280845227
 40
1.0
 40
1.0
 40
1.0
 40
1.0
 10
-20.0437355291
 20
5.8924464248
 30
0.0
 10
-20.0444072755
 20
5.9308621171
 30
0.0
 10
-20.0456053231
 20
6.0163522797
 30
0.0
 10
-20.0468747502
 20
6.153640775
 30
0.0
 10
-20.0476543602
 20
6.3037862991
 30
0.0
 10
-20.0478245463
 20
6.4068570908
 30
0.0
 10
-20.0478255052
 20
6.4581318498
 30
0.0
 11
-20.0437355291
 21
5.8924464248
 31
0.0
 11
-20.0454017464
 21
6.007699076
 31
0.0
 11
-20.0467402502
 21
6.1489221234
 31
0.0
 11
-20.0475648941
 21
6.3043077935
 31
0.0
 11
-20.0478255052
 21
6.4581318498
 31
0.0
  0
SPLINE
  5
6B9
100
AcDbEntity
  8
RACCORDO
100
AcDbSpline
 62
253
  6
CONTINUOUS
 70
0
 71
3
 72
10
 73
6
 74
4
 42
0.0000001
 43
0.0000001
 44
0.0000000001
 12
0.000000142
 22
0.1414264683
 32
0.0
 13
-0.0024701873
 23
0.1414048942
 33
0.0
 40
0.0
 40
0.0
 40
0.0
 40
0.0
 40
0.3658056966
 40
0.7062804612
 40
1.0
 40
1.0
 40
1.0
 40
1.0
 10
-20.0303704403
 20
5.0439182874
 30
0.0
 10
-20.030370423
 20
5.0611631567
 30
0.0
 10
-20.0304442067
 20
5.09445881
 30
0.0
 10
-20.0307726249
 20
5.1415999637
 30
0.0
 10
-20.0311510869
 20
5.1714951836
 30
0.0
 10
-20.0313929343
 20
5.1853396437
 30
0.0
 11
-20.0303704403
 21
5.0439182874
 31
0.0
 11
-20.0304892832
 21
5.0956527587
 31
0.0
 11
-20.0308370299
 21
5.1438036465
 31
0.0
 11
-20.0313929343
 21
5.1853396437
 31
0.0
  0
SPLINE
  5
6BA
100
AcDbEntity
  8
RACCORDO
100
AcDbSpline
 62
253
  6
CONTINUOUS
 70
0
 71
3
 72
12
 73
8
 74
6
 42
0.0000001
 43
0.0000001
 44
0.0000000001
 12
0.1431629629
 22
0.1397257719
 32
0.0
 13
0.0000002731
 23
0.2000473076
 33
0.0
 40
0.0
 40
0.0
 40
0.0
 40
0.0
 40
0.053680495
 40
0.1976944885
 40
0.4183849018
 40
0.6946711573
 40
1.0
 40
1.0
 40
1.0
 40
1.0
 10
-20.0338005267
 20
3.4598592261
 30
0.0
 10
-20.0312388404
 20
3.4623594089
 30
0.0
 10
-20.0347622471
 20
3.4778842944
 30
0.0
 10
-20.0302166857
 20
3.5036889173
 30
0.0
 10
-20.031466596
 20
3.5474925459
 30
0.0
 10
-20.0302795996
 20
3.6005788132
 30
0.0
 10
-20.0303704681
 20
3.6394686941
 30
0.0
 10
-20.0303704403
 20
3.6598287651
 30
0.0
 11
-20.0338005267
 21
3.4598592261
 31
0.0
 11
-20.0327341376
 21
3.4705447851
 31
0.0
 11
-20.0317784764
 21
3.4993385419
 31
0.0
 11
-20.0310220963
 21
3.5434805851
 31
0.0
 11
-20.0305372473
 21
3.59874878
 31
0.0
 11
-20.0303704403
 21
3.6598287651
 31
0.0
  0
SPLINE
  5
6BB
100
AcDbEntity
  8
RACCORDO
100
AcDbSpline
 62
253
  6
CONTINUOUS
 70
0
 71
3
 72
9
 73
5
 74
3
 42
0.0000001
 43
0.0000001
 44
0.0000000001
 12
0.0003603394
 22
-6.1661325534
 32
0.0
 13
0.0019281047
 23
-6.1661322625
 33
0.0
 40
0.0
 40
0.0
 40
0.0
 40
0.0
 40
0.500035562
 40
1.0
 40
1.0
 40
1.0
 40
1.0
 10
23.6304665457
 20
8.0335192106
 30
0.0
 10
23.6305266065
 20
7.0057573585
 30
0.0
 10
23.6307773526
 20
4.9503798463
 30
0.0
 10
23.631289379
 20
2.8950023825
 30
0.0
 10
23.6316107069
 20
1.8673867653
 30
0.0
 11
23.6304665457
 21
8.0335192106
 31
0.0
 11
23.6308426998
 21
4.9502336719
 31
0.0
 11
23.6316107069
 21
1.8673867653
 31
0.0
  0
LINE
  5
6BC
100
AcDbEntity
  8
RACCORDO
100
AcDbLine
 62
253
  6
CONTINUOUS
 10
23.6318508144
 20
1.1349034793
 11
23.6326483956
 21
-0.9336509234
  0
LINE
  5
6BD
100
AcDbEntity
  8
RACCORDO
100
AcDbLine
 62
253
  6
CONTINUOUS
 10
23.6345905386
 20
-4.7623567965
 11
23.6353709999
 21
-6.0363735277
  0
LINE
  5
6BE
100
AcDbEntity
  8
RACCORDO
100
AcDbLine
 62
253
  6
CONTINUOUS
 10
23.6358448857
 20
-6.7611024494
 11
23.636195297
 21
-7.2767888376
  0
LINE
  5
6BF
100
AcDbEntity
  8
RACCORDO
100
AcDbLine
 62
253
  6
CONTINUOUS
 10
-23.6207317511
 20
-6.0363735277
 11
-23.6199512897
 21
-4.7623567965
  0
LINE
  5
6C0
100
AcDbEntity
  8
RACCORDO
100
AcDbLine
 62
253
  6
CONTINUOUS
 10
-23.6215560482
 20
-7.2767888376
 11
-23.6212056369
 21
-6.7611024494
  0
LINE
  5
6C1
100
AcDbEntity
  8
RACCORDO
100
AcDbLine
 62
253
  6
CONTINUOUS
 10
-23.6180091468
 20
-0.9336509234
 11
-23.6172115656
 21
1.1349034793
  0
SPLINE
  5
6C2
100
AcDbEntity
  8
RACCORDO
100
AcDbSpline
 62
253
  6
CONTINUOUS
 70
0
 71
3
 72
9
 73
5
 74
3
 42
0.0000001
 43
0.0000001
 44
0.0000000001
 12
0.0019281047
 22
6.1661322625
 32
0.0
 13
0.0003603394
 23
6.1661325534
 33
0.0
 40
0.0
 40
0.0
 40
0.0
 40
0.0
 40
0.4999644739
 40
1.0
 40
1.0
 40
1.0
 40
1.0
 10
-23.6169714581
 20
1.8673867653
 30
0.0
 10
-23.6166501302
 20
2.8950024563
 30
0.0
 10
-23.6161381037
 20
4.95037992
 30
0.0
 10
-23.6158873577
 20
7.0057574323
 30
0.0
 10
-23.6158272968
 20
8.0335192106
 30
0.0
 11
-23.6169714581
 21
1.8673867653
 31
0.0
 11
-23.6162034509
 21
4.9502338932
 31
0.0
 11
-23.6158272968
 21
8.0335192106
 31
0.0
  0
SPLINE
  5
6C3
100
AcDbEntity
  8
RACCORDO
100
AcDbSpline
 62
7
  6
CONTINUOUS
 70
0
 71
3
 72
12
 73
8
 74
6
 42
0.0000001
 43
0.0000001
 44
0.0000000001
 12
0.3000708432
 22
-0.0
 32
0.0
 13
0.2121821359
 23
0.2121821203
 33
0.0
 40
0.0
 40
0.0
 40
0.0
 40
0.0
 40
0.3053517528
 40
0.5820537449
 40
0.8023025256
 40
0.9467230498
 40
1.0
 40
1.0
 40
1.0
 40
1.0
 10
23.3305124793
 20
8.0283743527
 30
0.0
 10
23.3610548653
 20
8.0283743527
 30
0.0
 10
23.4194290578
 20
8.0282428239
 30
0.0
 10
23.4990753977
 20
8.0300058269
 30
0.0
 10
23.5647716924
 20
8.0281820015
 30
0.0
 10
23.6035229121
 20
8.0349099806
 30
0.0
 10
23.6266984067
 20
8.0297510719
 30
0.0
 10
23.6304665457
 20
8.0335192106
 30
0.0
 11
23.3305124793
 21
8.0283743527
 31
0.0
 11
23.4221392956
 21
8.0286245568
 31
0.0
 11
23.5051662983
 21
8.0293532145
 31
0.0
 11
23.5712468268
 21
8.0304860148
 31
0.0
 11
23.6145592909
 21
8.0319258125
 31
0.0
 11
23.6304665457
 21
8.0335192106
 31
0.0
  0
SPLINE
  5
6C4
100
AcDbEntity
  8
RACCORDO
100
AcDbSpline
 62
7
  6
CONTINUOUS
 70
0
 71
3
 72
12
 73
8
 74
6
 42
0.0000001
 43
0.0000001
 44
0.0000000001
 12
0.2121821359
 22
-0.2121821203
 32
0.0
 13
0.3000708432
 23
0.0
 33
0.0
 40
0.0
 40
0.0
 40
0.0
 40
0.0
 40
0.0532769502
 40
0.1976974744
 40
0.4179462551
 40
0.6946482472
 40
1.0
 40
1.0
 40
1.0
 40
1.0
 10
-23.6158272968
 20
8.0335192106
 30
0.0
 10
-23.6120591578
 20
8.0297510719
 30
0.0
 10
-23.5888836632
 20
8.0349099806
 30
0.0
 10
-23.5501324435
 20
8.0281820015
 30
0.0
 10
-23.4844361489
 20
8.0300058269
 30
0.0
 10
-23.404789809
 20
8.0282428239
 30
0.0
 10
-23.3464156164
 20
8.0283743527
 30
0.0
 10
-23.3158732304
 20
8.0283743527
 30
0.0
 11
-23.6158272968
 21
8.0335192106
 31
0.0
 11
-23.5999200421
 21
8.0319258125
 31
0.0
 11
-23.5566075779
 21
8.0304860148
 31
0.0
 11
-23.4905270495
 21
8.0293532145
 31
0.0
 11
-23.4075000468
 21
8.0286245568
 31
0.0
 11
-23.3158732304
 21
8.0283743527
 31
0.0
  0
SPLINE
  5
6C5
100
AcDbEntity
  8
RACCORDO
100
AcDbSpline
 62
253
  6
CONTINUOUS
 70
0
 71
3
 72
11
 73
7
 74
5
 42
0.0000001
 43
0.0000001
 44
0.0000000001
 12
-0.0098689072
 22
0.3534493123
 32
0.0
 13
-0.0000004971
 23
0.3535870638
 33
0.0
 40
0.0
 40
0.0
 40
0.0
 40
0.0
 40
0.2035823994
 40
0.4531925193
 40
0.7278954329
 40
1.0
 40
1.0
 40
1.0
 40
1.0
 10
-19.7437814999
 20
6.1045895618
 30
0.0
 10
-19.7444512118
 20
6.1285749148
 30
0.0
 10
-19.7456509744
 20
6.1819766076
 30
0.0
 10
-19.7469196864
 20
6.2677593242
 30
0.0
 10
-19.7476996074
 20
6.3616243238
 30
0.0
 10
-19.7478711826
 20
6.4260724713
 30
0.0
 10
-19.7478712277
 20
6.4581433563
 30
0.0
 11
-19.7437814999
 21
6.1045895618
 31
0.0
 11
-19.7454464152
 21
6.1765544082
 31
0.0
 11
-19.7467851979
 21
6.2648031632
 31
0.0
 11
-19.7476103087
 21
6.3619310551
 31
0.0
 11
-19.7478712277
 21
6.4581433563
 31
0.0
  0
SPLINE
  5
6C6
100
AcDbEntity
  8
RACCORDO
100
AcDbSpline
 62
7
  6
CONTINUOUS
 70
0
 71
3
 72
11
 73
7
 74
5
 42
0.0000001
 43
0.0000001
 44
0.0000000001
 12
0.1877591259
 22
0.0090044273
 32
0.0
 13
0.1879749161
 23
0.0
 33
0.0
 40
0.0
 40
0.0
 40
0.0
 40
0.0
 40
0.1566793638
 40
0.3898272684
 40
0.6785348125
 40
1.0
 40
1.0
 40
1.0
 40
1.0
 10
4.2492666635
 20
5.6746175679
 30
0.0
 10
4.2590726569
 20
5.6750878372
 30
0.0
 10
4.2834939365
 20
5.6757137225
 30
0.0
 10
4.3260032937
 20
5.6763910657
 30
0.0
 10
4.3788436428
 20
5.6768143604
 30
0.0
 10
4.4170759275
 20
5.6769150802
 30
0.0
 10
4.4372183914
 20
5.6769150802
 30
0.0
 11
4.2492666635
 21
5.6746175679
 31
0.0
 11
4.278703604
 21
5.6755527055
 31
0.0
 11
4.3225234616
 21
5.676283907
 31
0.0
 11
4.3767912201
 21
5.6767519003
 31
0.0
 11
4.4372183914
 21
5.6769150802
 31
0.0
  0
SPLINE
  5
6C7
100
AcDbEntity
  8
RACCORDO
100
AcDbSpline
 62
7
  6
CONTINUOUS
 70
0
 71
3
 72
11
 73
7
 74
5
 42
0.0000001
 43
0.0000001
 44
0.0000000001
 12
-0.1879629154
 22
0.0
 32
0.0
 13
-0.1877471389
 23
0.0090038568
 33
0.0
 40
0.0
 40
0.0
 40
0.0
 40
0.0
 40
0.3215242523
 40
0.6102453572
 40
0.8433660718
 40
1.0
 40
1.0
 40
1.0
 40
1.0
 10
4.4306954866
 20
4.0254480267
 30
0.0
 10
4.4105506079
 20
4.0254480267
 30
0.0
 10
4.3723162139
 20
4.0255487296
 30
0.0
 10
4.3194763905
 20
4.025971933
 30
0.0
 10
4.2769734466
 20
4.0266490813
 30
0.0
 10
4.2525582724
 20
4.0272747127
 30
0.0
 10
4.2427557484
 20
4.0277448158
 30
0.0
 11
4.4306954866
 21
4.0254480267
 31
0.0
 11
4.370261071
 21
4.025611195
 31
0.0
 11
4.3159942276
 21
4.0260791038
 31
0.0
 11
4.2721822759
 21
4.026810076
 31
0.0
 11
4.2427557484
 21
4.0277448158
 31
0.0
  0
SPLINE
  5
6C8
100
AcDbEntity
  8
RACCORDO
100
AcDbSpline
 62
7
  6
CONTINUOUS
 70
0
 71
3
 72
11
 73
7
 74
5
 42
0.0000001
 43
0.0000001
 44
0.0000000001
 12
-0.1877471389
 22
-0.0090038568
 32
0.0
 13
-0.1879629155
 23
-0.0
 33
0.0
 40
0.0
 40
0.0
 40
0.0
 40
0.0
 40
0.1566339282
 40
0.3897546428
 40
0.6784757477
 40
1.0
 40
1.0
 40
1.0
 40
1.0
 10
-4.2281164996
 20
4.0277448158
 30
0.0
 10
-4.2379190235
 20
4.0272747127
 30
0.0
 10
-4.2623341978
 20
4.0266490813
 30
0.0
 10
-4.3048371417
 20
4.025971933
 30
0.0
 10
-4.357676965
 20
4.0255487296
 30
0.0
 10
-4.3959113591
 20
4.0254480267
 30
0.0
 10
-4.4160562377
 20
4.0254480267
 30
0.0
 11
-4.2281164996
 21
4.0277448158
 31
0.0
 11
-4.257543027
 21
4.026810076
 31
0.0
 11
-4.3013549787
 21
4.0260791038
 31
0.0
 11
-4.3556218221
 21
4.025611195
 31
0.0
 11
-4.4160562377
 21
4.0254480267
 31
0.0
  0
SPLINE
  5
6C9
100
AcDbEntity
  8
RACCORDO
100
AcDbSpline
 62
7
  6
CONTINUOUS
 70
0
 71
3
 72
11
 73
7
 74
5
 42
0.0000001
 43
0.0000001
 44
0.0000000001
 12
0.1879749161
 22
0.0
 32
0.0
 13
0.1877591259
 23
-0.0090044273
 33
0.0
 40
0.0
 40
0.0
 40
0.0
 40
0.0
 40
0.3214651875
 40
0.6101727316
 40
0.8433206362
 40
1.0
 40
1.0
 40
1.0
 40
1.0
 10
-4.4225791425
 20
5.6769150802
 30
0.0
 10
-4.4024366787
 20
5.6769150802
 30
0.0
 10
-4.3642043939
 20
5.6768143604
 30
0.0
 10
-4.3113640448
 20
5.6763910657
 30
0.0
 10
-4.2688546876
 20
5.6757137225
 30
0.0
 10
-4.2444334081
 20
5.6750878372
 30
0.0
 10
-4.2346274146
 20
5.6746175679
 30
0.0
 11
-4.4225791425
 21
5.6769150802
 31
0.0
 11
-4.3621519712
 21
5.6767519003
 31
0.0
 11
-4.3078842128
 21
5.676283907
 31
0.0
 11
-4.2640643551
 21
5.6755527055
 31
0.0
 11
-4.2346274146
 21
5.6746175679
 31
0.0
  0
SPLINE
  5
6CA
100
AcDbEntity
  8
ASSI
100
AcDbSpline
 62
7
  6
CONTINUOUS
 70
0
 71
3
 72
9
 73
5
 74
3
 42
0.0000001
 43
0.0000001
 44
0.0000000001
 12
-0.0046820729
 22
0.3133621937
 32
0.0
 13
-0.3113313703
 23
0.0361338596
 33
0.0
 40
0.0
 40
0.0
 40
0.0
 40
0.0
 40
0.4988583766
 40
1.0
 40
1.0
 40
1.0
 40
1.0
 10
13.3435742423
 20
-2.273628726
 30
0.0
 10
13.3427956786
 20
-2.2215209409
 30
0.0
 10
13.3003711324
 20
-2.1128469751
 30
0.0
 10
13.1951348818
 20
-2.0670298291
 30
0.0
 10
13.1431278457
 20
-2.0609937687
 30
0.0
 11
13.3435742423
 21
-2.273628726
 31
0.0
 11
13.2848366975
 21
-2.1287376326
 31
0.0
 11
13.1431278457
 21
-2.0609937687
 31
0.0
  0
SPLINE
  5
6CB
100
AcDbEntity
  8
ASSI
100
AcDbSpline
 62
7
  6
CONTINUOUS
 70
0
 71
3
 72
9
 73
5
 74
3
 42
0.0000001
 43
0.0000001
 44
0.0000000001
 12
-0.2768734096
 22
0.0321345862
 32
0.0
 13
-0.2747605685
 23
-0.046883616
 33
0.0
 40
0.0
 40
0.0
 40
0.0
 40
0.0
 40
0.7295958319
 40
1.0
 40
1.0
 40
1.0
 40
1.0
 10
13.1431278456
 20
-2.0609937689
 30
0.0
 10
13.0757926171
 20
-2.0531786821
 30
0.0
 10
12.9817999286
 20
-2.0528774342
 30
0.0
 10
12.8899265237
 20
-2.0667754387
 30
0.0
 10
12.865161056
 20
-2.0710012804
 30
0.0
 11
13.1431278456
 21
-2.0609937689
 31
0.0
 11
12.9397673856
 21
-2.0602975088
 31
0.0
 11
12.865161056
 21
-2.0710012804
 31
0.0
  0
SPLINE
  5
6CC
100
AcDbEntity
  8
ASSI
100
AcDbSpline
 62
7
  6
CONTINUOUS
 70
0
 71
3
 72
9
 73
5
 74
3
 42
0.0000001
 43
0.0000001
 44
0.0000000001
 12
0.4232572624
 22
0.0094537593
 32
0.0
 13
-0.0063259437
 23
0.4233860928
 33
0.0
 40
0.0
 40
0.0
 40
0.0
 40
0.0
 40
0.4795375616
 40
1.0
 40
1.0
 40
1.0
 40
1.0
 10
13.0679417689
 20
-2.5376467629
 30
0.0
 10
13.1355976874
 20
-2.5361356187
 30
0.0
 10
13.292739758
 20
-2.5075138482
 30
0.0
 10
13.3446716997
 20
-2.3470809123
 30
0.0
 10
13.3435742276
 20
-2.2736287262
 30
0.0
 11
13.0679417689
 21
-2.5376467629
 31
0.0
 11
13.262115009
 21
-2.4783743863
 31
0.0
 11
13.3435742276
 21
-2.2736287262
 31
0.0
  0
SPLINE
  5
6CD
100
AcDbEntity
  8
ASSI
100
AcDbSpline
 62
7
  6
CONTINUOUS
 70
0
 71
3
 72
17
 73
13
 74
11
 42
0.0000001
 43
0.0000001
 44
0.0000000001
 12
0.9958819045
 22
-0.3598342768
 32
0.0
 13
-1.050193894
 23
-0.1355088895
 33
0.0
 40
0.0
 40
0.0
 40
0.0
 40
0.0
 40
0.0798430187
 40
0.1895551228
 40
0.3223119562
 40
0.398530744
 40
0.483321362
 40
0.5876727129
 40
0.6789531193
 40
0.8312245932
 40
0.9440148167
 40
1.0
 40
1.0
 40
1.0
 40
1.0
 10
13.399313771
 20
-1.8192152956
 30
0.0
 10
13.4258185102
 20
-1.8287920473
 30
0.0
 10
13.4850650997
 20
-1.8614797571
 30
0.0
 10
13.5712661676
 20
-1.9372725967
 30
0.0
 10
13.6323424319
 20
-2.0342292059
 30
0.0
 10
13.6648608608
 20
-2.1331623206
 30
0.0
 10
13.6782779547
 20
-2.2262690043
 30
0.0
 10
13.6757320704
 20
-2.325955827
 30
0.0
 10
13.6486332025
 20
-2.4460634533
 30
0.0
 10
13.587802087
 20
-2.5611943896
 30
0.0
 10
13.5051869211
 20
-2.6359865613
 30
0.0
 10
13.4553702397
 20
-2.6752212026
 30
0.0
 10
13.4357718072
 20
-2.6777500326
 30
0.0
 11
13.399313771
 21
-1.8192152956
 31
0.0
 11
13.4742122514
 21
-1.8584379725
 31
0.0
 11
13.5613402072
 21
-1.9352830098
 31
0.0
 11
13.6363504602
 21
-2.0541743245
 31
0.0
 11
13.6617423653
 21
-2.1307840386
 31
0.0
 11
13.6750219454
 21
-2.2195813652
 31
0.0
 11
13.6717831388
 21
-2.3300315667
 31
0.0
 11
13.6502085391
 21
-2.4242498424
 31
0.0
 11
13.5734849975
 21
-2.5660664008
 31
0.0
 11
13.4877173953
 21
-2.6491826082
 31
0.0
 11
13.4357718072
 21
-2.6777500326
 31
0.0
  0
SPLINE
  5
6CE
100
AcDbEntity
  8
ASSI
100
AcDbSpline
 62
7
  6
CONTINUOUS
 70
0
 71
3
 72
8
 73
4
 74
2
 42
0.0000001
 43
0.0000001
 44
0.0000000001
 12
0.0468153254
 22
-0.018667611
 32
0.0
 13
0.0404489985
 23
-0.0293488028
 33
0.0
 40
0.0
 40
0.0
 40
0.0
 40
0.0
 40
1.0
 40
1.0
 40
1.0
 40
1.0
 10
13.4357718072
 20
-2.6877947398
 30
0.0
 10
13.4513769157
 20
-2.6940172768
 30
0.0
 10
13.4658816363
 20
-2.7022072521
 30
0.0
 10
13.4793646358
 20
-2.7119901863
 30
0.0
 11
13.4357718072
 21
-2.6877947398
 31
0.0
 11
13.4793646358
 21
-2.7119901863
 31
0.0
  0
SPLINE
  5
6CF
100
AcDbEntity
  8
ASSI
100
AcDbSpline
 62
7
  6
CONTINUOUS
 70
0
 71
3
 72
9
 73
5
 74
3
 42
0.0000001
 43
0.0000001
 44
0.0000000001
 12
0.2399260035
 22
-0.2145228187
 32
0.0
 13
0.0845359266
 23
-0.3102902278
 33
0.0
 40
0.0
 40
0.0
 40
0.0
 40
0.0
 40
0.7012282199
 40
1.0
 40
1.0
 40
1.0
 40
1.0
 10
13.497826644
 20
-2.7269080385
 30
0.0
 10
13.5539076054
 20
-2.7770511899
 30
0.0
 10
13.6057750237
 20
-2.8889794966
 30
0.0
 10
13.6318898057
 20
-2.9903293019
 30
0.0
 10
13.6403087888
 20
-3.0212312898
 30
0.0
 11
13.497826644
 21
-2.7269080385
 31
0.0
 11
13.6139862877
 21
-2.928824093
 31
0.0
 11
13.6403087888
 21
-3.0212312898
 31
0.0
  0
SPLINE
  5
6D0
100
AcDbEntity
  8
ASSI
100
AcDbSpline
 62
7
  6
CONTINUOUS
 70
0
 71
3
 72
9
 73
5
 74
3
 42
0.0000001
 43
0.0000001
 44
0.0000000001
 12
0.1250599769
 22
-0.4590343077
 32
0.0
 13
0.1246990825
 23
-0.4591324849
 33
0.0
 40
0.0
 40
0.0
 40
0.0
 40
0.0
 40
0.8019701246
 40
1.0
 40
1.0
 40
1.0
 40
1.0
 10
13.640308789
 20
-3.0212312898
 30
0.0
 10
13.6737402441
 20
-3.1439418901
 30
0.0
 10
13.7130830735
 20
-3.2975801373
 30
0.0
 10
13.7533688016
 20
-3.4509683018
 30
0.0
 10
13.7616001829
 20
-3.4812756181
 30
0.0
 11
13.640308789
 21
-3.0212312898
 31
0.0
 11
13.7374502227
 21
-3.3902076164
 31
0.0
 11
13.7616001829
 21
-3.4812756181
 31
0.0
  0
SPLINE
  5
6D1
100
AcDbEntity
  8
ASSI
100
AcDbSpline
 62
7
  6
CONTINUOUS
 70
0
 71
3
 72
9
 73
5
 74
3
 42
0.0000001
 43
0.0000001
 44
0.0000000001
 12
-0.1487666252
 22
0.5174419044
 32
0.0
 13
-0.1893777802
 23
0.5039985871
 33
0.0
 40
0.0
 40
0.0
 40
0.0
 40
0.0
 40
0.4413080349
 40
1.0
 40
1.0
 40
1.0
 40
1.0
 10
13.4202968395
 20
-3.4812756181
 30
0.0
 10
13.3984128705
 20
-3.4051585281
 30
0.0
 10
13.3467436768
 20
-3.2333849558
 30
0.0
 10
13.3003769372
 20
-3.0596009562
 30
0.0
 10
13.2651089892
 20
-2.9657409692
 30
0.0
 11
13.4202968395
 21
-3.4812756181
 31
0.0
 11
13.3538414775
 21
-3.2531568765
 31
0.0
 11
13.2651089892
 21
-2.9657409692
 31
0.0
  0
SPLINE
  5
6D2
100
AcDbEntity
  8
ASSI
100
AcDbSpline
 62
7
  6
CONTINUOUS
 70
0
 71
3
 72
9
 73
5
 74
3
 42
0.0000001
 43
0.0000001
 44
0.0000000001
 12
-0.0895737501
 22
0.2383859055
 32
0.0
 13
-0.2546300208
 23
0.0
 33
0.0
 40
0.0
 40
0.0
 40
0.0
 40
0.0
 40
0.8563651185
 40
1.0
 40
1.0
 40
1.0
 40
1.0
 10
13.2651090032
 20
-2.9657409639
 30
0.0
 10
13.2395397249
 20
-2.8976925059
 30
0.0
 10
13.1644907595
 20
-2.8220607429
 30
0.0
 10
13.0793681944
 20
-2.8160432155
 30
0.0
 10
13.0671769435
 20
-2.8160432155
 30
0.0
 11
13.2651090032
 21
-2.9657409639
 31
0.0
 11
13.1036135053
 21
-2.819208079
 31
0.0
 11
13.0671769435
 21
-2.8160432155
 31
0.0
  0
SPLINE
  5
6D3
100
AcDbEntity
  8
ASSI
100
AcDbSpline
 62
7
  6
CONTINUOUS
 70
0
 71
3
 72
9
 73
5
 74
3
 42
0.0000001
 43
0.0000001
 44
0.0000000001
 12
0.870352019
 22
0.1280436023
 32
0.0
 13
0.8273203445
 23
-0.2990739652
 33
0.0
 40
0.0
 40
0.0
 40
0.0
 40
0.0
 40
0.8916594654
 40
1.0
 40
1.0
 40
1.0
 40
1.0
 10
12.5235262883
 20
-1.8012728492
 30
0.0
 10
12.7822121603
 20
-1.7632157525
 30
0.0
 10
13.0865366145
 20
-1.7277221147
 30
0.0
 10
13.3694363126
 20
-1.8084147229
 30
0.0
 10
13.3993137554
 20
-1.819215334
 30
0.0
 11
12.5235262883
 21
-1.8012728492
 31
0.0
 11
13.3078858268
 21
-1.7922939183
 31
0.0
 11
13.3993137554
 21
-1.819215334
 31
0.0
  0
SPLINE
  5
6D4
100
AcDbEntity
  8
ASSI
100
AcDbSpline
 62
7
  6
CONTINUOUS
 70
0
 71
3
 72
10
 73
6
 74
4
 42
0.0000001
 43
0.0000001
 44
0.0000000001
 12
-0.1883406519
 22
0.1821745431
 32
0.0
 13
-0.1853866352
 23
0.1851798068
 33
0.0
 40
0.0
 40
0.0
 40
0.0
 40
0.0
 40
0.2866167254
 40
0.6201205121
 40
1.0
 40
1.0
 40
1.0
 40
1.0
 10
23.5229148093
 20
-7.4725201707
 30
0.0
 10
23.504920949
 20
-7.4551154137
 30
0.0
 10
23.4661299425
 20
-7.4173135977
 30
0.0
 10
23.4039004638
 20
-7.3560240816
 30
0.0
 10
23.3597158485
 20
-7.3120899908
 30
0.0
 10
23.3362409884
 20
-7.2886413207
 30
0.0
 11
23.5229148093
 21
-7.4725201707
 31
0.0
 11
23.4691059025
 21
-7.4201279697
 31
0.0
 11
23.406832045
 21
-7.358820273
 31
0.0
 11
23.3362409884
 21
-7.2886413207
 31
0.0
  0
SPLINE
  5
6D5
100
AcDbEntity
  8
ASSI
100
AcDbSpline
 62
7
  6
CONTINUOUS
 70
0
 71
3
 72
10
 73
6
 74
4
 42
0.0000001
 43
0.0000001
 44
0.0000000001
 12
0.1932247375
 22
0.1319117349
 32
0.0
 13
0.0047953966
 23
0.23390919
 33
0.0
 40
0.0
 40
0.0
 40
0.0
 40
0.0
 40
0.3373558539
 40
0.6687258877
 40
1.0
 40
1.0
 40
1.0
 40
1.0
 10
23.5229148093
 20
-7.4725201707
 30
0.0
 10
23.5446433081
 20
-7.4576864387
 30
0.0
 10
23.5840255902
 20
-7.422280051
 30
0.0
 10
23.6250053305
 20
-7.3545252505
 30
0.0
 10
23.6356657667
 20
-7.3026181902
 30
0.0
 10
23.636195297
 20
-7.2767888371
 30
0.0
 11
23.5229148093
 21
-7.4725201707
 31
0.0
 11
23.5813297387
 21
-7.4194428555
 31
0.0
 11
23.6208844302
 21
-7.3527658094
 31
0.0
 11
23.636195297
 21
-7.2767888371
 31
0.0
  0
SPLINE
  5
6D6
100
AcDbEntity
  8
ASSI
100
AcDbSpline
 62
7
  6
CONTINUOUS
 70
0
 71
3
 72
10
 73
6
 74
4
 42
0.0000001
 43
0.0000001
 44
0.0000000001
 12
0.2111537282
 22
0.0378702165
 32
0.0
 13
0.151821365
 23
0.1515596362
 33
0.0
 40
0.0
 40
0.0
 40
0.0
 40
0.0
 40
0.3429101549
 40
0.6755847515
 40
1.0
 40
1.0
 40
1.0
 40
1.0
 10
23.3362409884
 20
-7.5722311624
 30
0.0
 10
23.3603765743
 20
-7.5679024685
 30
0.0
 10
23.4071081244
 20
-7.5538570583
 30
0.0
 10
23.4700742684
 20
-7.5190891999
 30
0.0
 10
23.5064970874
 20
-7.4889095898
 30
0.0
 10
23.5229148093
 20
-7.4725201707
 30
0.0
 11
23.3362409884
 21
-7.5722311624
 31
0.0
 11
23.4067359918
 21
-7.5512113773
 31
0.0
 11
23.4693251136
 21
-7.5169221568
 31
0.0
 11
23.5229148093
 21
-7.4725201707
 31
0.0
  0
SPLINE
  5
6D7
100
AcDbEntity
  8
ASSI
100
AcDbSpline
 62
7
  6
CONTINUOUS
 70
0
 71
3
 72
13
 73
9
 74
7
 42
0.0000001
 43
0.0000001
 44
0.0000000001
 12
-0.4360540282
 22
-0.0003592369
 32
0.0
 13
-0.0089035972
 23
0.4359632674
 33
0.0
 40
0.0
 40
0.0
 40
0.0
 40
0.0
 40
0.1762313956
 40
0.3431225387
 40
0.5099732983
 40
0.6748732839
 40
0.8372164229
 40
1.0
 40
1.0
 40
1.0
 40
1.0
 10
-23.3174394843
 20
-7.5301850342
 30
0.0
 10
-23.3430549543
 20
-7.5302061372
 30
0.0
 10
-23.3931011877
 20
-7.5246486264
 30
0.0
 10
-23.4638627944
 20
-7.5008739417
 30
0.0
 10
-23.5263791018
 20
-7.4629046968
 30
0.0
 10
-23.5773959742
 20
-7.4111879421
 30
0.0
 10
-23.6121069372
 20
-7.3478635428
 30
0.0
 10
-23.6210729284
 20
-7.3004447239
 30
0.0
 10
-23.6215560481
 20
-7.2767888371
 30
0.0
 11
-23.3174394843
 21
-7.5301850342
 31
0.0
 11
-23.3938208824
 21
-7.5217436624
 31
0.0
 11
-23.4627515643
 21
-7.4984079596
 31
0.0
 11
-23.5247674761
 21
-7.4603624878
 31
0.0
 11
-23.5749661832
 21
-7.4088798119
 31
0.0
 11
-23.6085691817
 21
-7.3465731529
 31
0.0
 11
-23.6215560481
 21
-7.2767888371
 31
0.0
  0
SPLINE
  5
6D8
100
AcDbEntity
  8
ASSI
100
AcDbSpline
 62
253
  6
CONTINUOUS
 70
0
 71
3
 72
11
 73
7
 74
5
 42
0.0000001
 43
0.0000001
 44
0.0000000001
 12
-0.0069988224
 22
0.4010844298
 32
0.0
 13
-0.4011302123
 23
0.0035008769
 33
0.0
 40
0.0
 40
0.0
 40
0.0
 40
0.0
 40
0.2095153874
 40
0.4453794694
 40
0.7128570698
 40
1.0
 40
1.0
 40
1.0
 40
1.0
 10
-19.2416252221
 20
5.8924464248
 30
0.0
 10
-19.2421140091
 20
5.9204575447
 30
0.0
 10
-19.2612095014
 20
5.9803247768
 30
0.0
 10
-19.3310563911
 20
6.0489791964
 30
0.0
 10
-19.4286617774
 20
6.0936035707
 30
0.0
 10
-19.5031856291
 20
6.1042433752
 30
0.0
 10
-19.5415795306
 20
6.1045784592
 30
0.0
 11
-19.2416252221
 21
5.8924464248
 31
0.0
 11
-19.2655111642
 21
5.9730269282
 31
0.0
 11
-19.3307765464
 21
6.0415293506
 31
0.0
 11
-19.4276388462
 21
6.0876859748
 31
0.0
 11
-19.5415795306
 21
6.1045784592
 31
0.0
  0
SPLINE
  5
6D9
100
AcDbEntity
  8
ASSI
100
AcDbSpline
 62
253
  6
CONTINUOUS
 70
0
 71
3
 72
11
 73
7
 74
5
 42
0.0000001
 43
0.0000001
 44
0.0000000001
 12
-0.0069988137
 22
0.401084489
 32
0.0
 13
-0.401130273
 23
0.0035006841
 33
0.0
 40
0.0
 40
0.0
 40
0.0
 40
0.0
 40
0.2095120489
 40
0.4453745127
 40
0.7128531963
 40
1.0
 40
1.0
 40
1.0
 40
1.0
 10
-19.2539678169
 20
5.1853396437
 30
0.0
 10
-19.2544565955
 20
5.2133503213
 30
0.0
 10
-19.2735515335
 20
5.2732169046
 30
0.0
 10
-19.3433975218
 20
5.3418715324
 30
0.0
 10
-19.4410031529
 20
5.3864965953
 30
0.0
 10
-19.5155277002
 20
5.3971366051
 30
0.0
 10
-19.5539221255
 20
5.3974716752
 30
0.0
 11
-19.2539678169
 21
5.1853396437
 31
0.0
 11
-19.2778530336
 21
5.2659189781
 31
0.0
 11
-19.3431174574
 21
5.3344214362
 31
0.0
 11
-19.4399799144
 21
5.3805787774
 31
0.0
 11
-19.5539221255
 21
5.3974716752
 31
0.0
  0
SPLINE
  5
6DA
100
AcDbEntity
  8
ASSI
100
AcDbSpline
 62
253
  6
CONTINUOUS
 70
0
 71
3
 72
11
 73
7
 74
5
 42
0.0000001
 43
0.0000001
 44
0.0000000001
 12
0.0069988224
 22
0.4010844293
 32
0.0
 13
0.4011302117
 23
0.0035008838
 33
0.0
 40
0.0
 40
0.0
 40
0.0
 40
0.0
 40
0.2095153873
 40
0.4453794686
 40
0.7128570688
 40
1.0
 40
1.0
 40
1.0
 40
1.0
 10
-20.0313929343
 20
5.1853396437
 30
0.0
 10
-20.0309041473
 20
5.2133507635
 30
0.0
 10
-20.0118086551
 20
5.2732179954
 30
0.0
 10
-19.9419617653
 20
5.3418724146
 30
0.0
 10
-19.8443563788
 20
5.386496788
 30
0.0
 10
-19.7698325273
 20
5.3971365933
 30
0.0
 10
-19.7314386257
 20
5.397471678
 30
0.0
 11
-20.0313929343
 21
5.1853396437
 31
0.0
 11
-20.0075069922
 21
5.2659201469
 31
0.0
 11
-19.9422416101
 21
5.3344225687
 31
0.0
 11
-19.8453793102
 21
5.3805791924
 31
0.0
 11
-19.7314386257
 21
5.397471678
 31
0.0
  0
SPLINE
  5
6DB
100
AcDbEntity
  8
ASSI
100
AcDbSpline
 62
253
  6
CONTINUOUS
 70
0
 71
3
 72
11
 73
7
 74
5
 42
0.0000001
 43
0.0000001
 44
0.0000000001
 12
0.0069988223
 22
0.4010844284
 32
0.0
 13
0.4011302109
 23
0.003500877
 33
0.0
 40
0.0
 40
0.0
 40
0.0
 40
0.0
 40
0.209515632
 40
0.4453798145
 40
0.7128573246
 40
1.0
 40
1.0
 40
1.0
 40
1.0
 10
-20.0437355291
 20
5.8924464248
 30
0.0
 10
-20.0432467415
 20
5.9204575773
 30
0.0
 10
-20.024151211
 20
5.9803248552
 30
0.0
 10
-19.9543042605
 20
6.0489792601
 30
0.0
 10
-19.8566988921
 20
6.0936035865
 30
0.0
 10
-19.7821750878
 20
6.1042433755
 30
0.0
 10
-19.7437812205
 20
6.1045784592
 30
0.0
 11
-20.0437355291
 21
5.8924464248
 31
0.0
 11
-20.0198495351
 21
5.9730270149
 31
0.0
 11
-19.9545840896
 21
6.041529432
 31
0.0
 11
-19.8577218056
 21
6.0876860045
 31
0.0
 11
-19.7437812205
 21
6.1045784592
 31
0.0
  0
SPLINE
  5
6DC
100
AcDbEntity
  8
ASSI
100
AcDbSpline
 62
253
  6
CONTINUOUS
 70
0
 71
3
 72
11
 73
7
 74
5
 42
0.0000001
 43
0.0000001
 44
0.0000000001
 12
0.0069988224
 22
0.4010844293
 32
0.0
 13
0.4011302117
 23
0.0035008838
 33
0.0
 40
0.0
 40
0.0
 40
0.0
 40
0.0
 40
0.2095153873
 40
0.4453794686
 40
0.7128570688
 40
1.0
 40
1.0
 40
1.0
 40
1.0
 10
19.2686070657
 20
5.1853396437
 30
0.0
 10
19.2690958527
 20
5.2133507635
 30
0.0
 10
19.2881913449
 20
5.2732179954
 30
0.0
 10
19.3580382347
 20
5.3418724146
 30
0.0
 10
19.4556436212
 20
5.386496788
 30
0.0
 10
19.5301674727
 20
5.3971365933
 30
0.0
 10
19.5685613743
 20
5.397471678
 30
0.0
 11
19.2686070657
 21
5.1853396437
 31
0.0
 11
19.2924930078
 21
5.2659201469
 31
0.0
 11
19.3577583899
 21
5.3344225687
 31
0.0
 11
19.4546206898
 21
5.3805791924
 31
0.0
 11
19.5685613743
 21
5.397471678
 31
0.0
  0
SPLINE
  5
6DD
100
AcDbEntity
  8
ASSI
100
AcDbSpline
 62
253
  6
CONTINUOUS
 70
0
 71
3
 72
11
 73
7
 74
5
 42
0.0000001
 43
0.0000001
 44
0.0000000001
 12
0.0069988223
 22
0.4010844284
 32
0.0
 13
0.4011302109
 23
0.003500877
 33
0.0
 40
0.0
 40
0.0
 40
0.0
 40
0.0
 40
0.209515632
 40
0.4453798145
 40
0.7128573246
 40
1.0
 40
1.0
 40
1.0
 40
1.0
 10
19.2562644709
 20
5.8924464248
 30
0.0
 10
19.2567532585
 20
5.9204575773
 30
0.0
 10
19.275848789
 20
5.9803248552
 30
0.0
 10
19.3456957395
 20
6.0489792601
 30
0.0
 10
19.4433011079
 20
6.0936035865
 30
0.0
 10
19.5178249122
 20
6.1042433755
 30
0.0
 10
19.5562187795
 20
6.1045784592
 30
0.0
 11
19.2562644709
 21
5.8924464248
 31
0.0
 11
19.2801504649
 21
5.9730270149
 31
0.0
 11
19.3454159104
 21
6.041529432
 31
0.0
 11
19.4422781944
 21
6.0876860045
 31
0.0
 11
19.5562187795
 21
6.1045784592
 31
0.0
  0
SPLINE
  5
6DE
100
AcDbEntity
  8
ASSI
100
AcDbSpline
 62
7
  6
CONTINUOUS
 70
0
 71
3
 72
12
 73
8
 74
6
 42
0.0000001
 43
0.0000001
 44
0.0000000001
 12
0.3000739778
 22
-0.0
 32
0.0
 13
0.212185585
 23
0.2121831041
 33
0.0
 40
0.0
 40
0.0
 40
0.0
 40
0.0
 40
0.3053475036
 40
0.5820489604
 40
0.8022991747
 40
0.9467217969
 40
1.0
 40
1.0
 40
1.0
 40
1.0
 10
23.3346333446
 20
-4.7675018621
 30
0.0
 10
23.3651756246
 20
-4.7675018621
 30
0.0
 10
23.4235499424
 20
-4.7676333779
 30
0.0
 10
23.5031967953
 20
-4.7658703702
 30
0.0
 10
23.5688940525
 20
-4.767694155
 30
0.0
 10
23.6076461704
 20
-4.7609660787
 30
0.0
 10
23.6308222497
 20
-4.7661250413
 30
0.0
 10
23.6345905386
 20
-4.7623567965
 30
0.0
 11
23.3346333446
 21
-4.7675018621
 31
0.0
 11
23.426259843
 21
-4.767251652
 31
0.0
 11
23.5092875523
 21
-4.7665229722
 31
0.0
 11
23.5753692007
 21
-4.7653901294
 31
0.0
 11
23.6186827457
 21
-4.7639502698
 31
0.0
 11
23.6345905386
 21
-4.7623567965
 31
0.0
  0
SPLINE
  5
6DF
100
AcDbEntity
  8
ASSI
100
AcDbSpline
 62
7
  6
CONTINUOUS
 70
0
 71
3
 72
12
 73
8
 74
6
 42
0.0000001
 43
0.0000001
 44
0.0000000001
 12
0.212185585
 22
-0.2121831041
 32
0.0
 13
0.3000739778
 23
0.0
 33
0.0
 40
0.0
 40
0.0
 40
0.0
 40
0.0
 40
0.0532782031
 40
0.1977008253
 40
0.4179510396
 40
0.6946524964
 40
1.0
 40
1.0
 40
1.0
 40
1.0
 10
-23.6199512897
 20
-4.7623567965
 30
0.0
 10
-23.6161830009
 20
-4.7661250413
 30
0.0
 10
-23.5930069216
 20
-4.7609660787
 30
0.0
 10
-23.5542548036
 20
-4.767694155
 30
0.0
 10
-23.4885575465
 20
-4.7658703702
 30
0.0
 10
-23.4089106936
 20
-4.7676333779
 30
0.0
 10
-23.3505363758
 20
-4.7675018621
 30
0.0
 10
-23.3199940958
 20
-4.7675018621
 30
0.0
 11
-23.6199512897
 21
-4.7623567965
 31
0.0
 11
-23.6040434968
 21
-4.7639502698
 31
0.0
 11
-23.5607299519
 21
-4.7653901294
 31
0.0
 11
-23.4946483035
 21
-4.7665229722
 31
0.0
 11
-23.4116205942
 21
-4.767251652
 31
0.0
 11
-23.3199940958
 21
-4.7675018621
 31
0.0
  0
SPLINE
  5
6E0
100
AcDbEntity
  8
ASSI
100
AcDbSpline
 62
7
  6
CONTINUOUS
 70
0
 71
3
 72
12
 73
8
 74
6
 42
0.0000001
 43
0.0000001
 44
0.0000000001
 12
-0.2121858917
 22
0.2121865075
 32
0.0
 13
-0.3000766013
 23
0.0
 33
0.0
 40
0.0
 40
0.0
 40
0.0
 40
0.0
 40
0.0533078243
 40
0.1977742039
 40
0.4180472247
 40
0.6947316031
 40
1.0
 40
1.0
 40
1.0
 40
1.0
 10
23.6326483956
 20
-0.9336509234
 30
0.0
 10
23.6288780062
 20
-0.929880523
 30
0.0
 10
23.6056930824
 20
-0.9350402295
 30
0.0
 10
23.566931579
 20
-0.9283108997
 30
0.0
 10
23.5012288854
 20
-0.9301335783
 30
0.0
 10
23.4215885034
 20
-0.9283707256
 30
0.0
 10
23.3632233723
 20
-0.9285020162
 30
0.0
 10
23.332688738
 20
-0.9285020162
 30
0.0
 11
23.6326483956
 21
-0.9336509234
 31
0.0
 11
23.6167316888
 21
-0.9320558556
 31
0.0
 11
23.5734046654
 21
-0.9306148418
 31
0.0
 11
23.5073156064
 21
-0.9294812922
 31
0.0
 11
23.4242922991
 21
-0.9287522837
 31
0.0
 11
23.332688738
 21
-0.9285020162
 31
0.0
  0
SPLINE
  5
6E1
100
AcDbEntity
  8
ASSI
100
AcDbSpline
 62
7
  6
CONTINUOUS
 70
0
 71
3
 72
12
 73
8
 74
6
 42
0.0000001
 43
0.0000001
 44
0.0000000001
 12
-0.3000766013
 22
-0.0
 32
0.0
 13
-0.2121858917
 23
-0.2121865075
 33
0.0
 40
0.0
 40
0.0
 40
0.0
 40
0.0
 40
0.3052683969
 40
0.5819527753
 40
0.8022257961
 40
0.9466921757
 40
1.0
 40
1.0
 40
1.0
 40
1.0
 10
-23.3180494891
 20
-0.9285020162
 30
0.0
 10
-23.3485841235
 20
-0.9285020162
 30
0.0
 10
-23.4069492546
 20
-0.9283707256
 30
0.0
 10
-23.4865896365
 20
-0.9301335783
 30
0.0
 10
-23.5522923301
 20
-0.9283108997
 30
0.0
 10
-23.5910538336
 20
-0.9350402295
 30
0.0
 10
-23.6142387574
 20
-0.929880523
 30
0.0
 10
-23.6180091468
 20
-0.9336509234
 30
0.0
 11
-23.3180494891
 21
-0.9285020162
 31
0.0
 11
-23.4096530503
 21
-0.9287522837
 31
0.0
 11
-23.4926763576
 21
-0.9294812922
 31
0.0
 11
-23.5587654165
 21
-0.9306148418
 31
0.0
 11
-23.60209244
 21
-0.9320558556
 31
0.0
 11
-23.6180091468
 21
-0.9336509234
 31
0.0
  0
SPLINE
  5
6E2
100
AcDbEntity
  8
ASSI
100
AcDbSpline
 62
7
  6
CONTINUOUS
 70
0
 71
3
 72
12
 73
8
 74
6
 42
0.0000001
 43
0.0000001
 44
0.0000000001
 12
0.2121856603
 22
-0.2121849679
 32
0.0
 13
0.300075349
 23
0.0
 33
0.0
 40
0.0
 40
0.0
 40
0.0
 40
0.0
 40
0.0532816106
 40
0.1977093993
 40
0.417962435
 40
0.694661992
 40
1.0
 40
1.0
 40
1.0
 40
1.0
 10
-23.6212056369
 20
-6.7611024494
 30
0.0
 10
-23.6174371056
 20
-6.7648709683
 30
0.0
 10
-23.594259882
 20
-6.7597118699
 30
0.0
 10
-23.5555065422
 20
-6.7664401472
 30
0.0
 10
-23.4898083714
 20
-6.7646164688
 30
0.0
 10
-23.4101619974
 20
-6.7663794712
 30
0.0
 10
-23.3517885604
 20
-6.7662479795
 30
0.0
 10
-23.3212470906
 20
-6.7662479795
 30
0.0
 11
-23.6212056369
 21
-6.7611024494
 31
0.0
 11
-23.6052967618
 21
-6.7626961118
 31
0.0
 11
-23.5619814722
 21
-6.7641361109
 31
0.0
 11
-23.4958986765
 21
-6.765269041
 31
0.0
 11
-23.4128711582
 21
-6.7659977624
 31
0.0
 11
-23.3212470906
 21
-6.7662479795
 31
0.0
  0
SPLINE
  5
6E3
100
AcDbEntity
  8
ASSI
100
AcDbSpline
 62
7
  6
CONTINUOUS
 70
0
 71
3
 72
12
 73
8
 74
6
 42
0.0000001
 43
0.0000001
 44
0.0000000001
 12
-0.3000816659
 22
0.0
 32
0.0
 13
-0.2121905985
 23
-0.2121889631
 33
0.0
 40
0.0
 40
0.0
 40
0.0
 40
0.0
 40
0.305206335
 40
0.5818776397
 40
0.8021687507
 40
0.9466692379
 40
1.0
 40
1.0
 40
1.0
 40
1.0
 10
-23.3207671526
 20
-6.0312216051
 30
0.0
 10
-23.3512960945
 20
-6.0312216051
 30
0.0
 10
-23.4096546315
 20
-6.0310904949
 30
0.0
 10
-23.4892908012
 20
-6.0328532314
 30
0.0
 10
-23.5549984105
 20
-6.0310314197
 30
0.0
 10
-23.5937677154
 20
-6.0377617288
 30
0.0
 10
-23.6169596557
 20
-6.0326014613
 30
0.0
 10
-23.6207317511
 20
-6.0363735277
 30
0.0
 11
-23.3207671526
 21
-6.0312216051
 31
0.0
 11
-23.412353636
 21
-6.0314719213
 31
0.0
 11
-23.4953744191
 21
-6.0322011917
 31
0.0
 11
-23.5614700135
 21
-6.0333353001
 31
0.0
 11
-23.6048079796
 21
-6.0347772193
 31
0.0
 11
-23.6207317511
 21
-6.0363735277
 31
0.0
  0
SPLINE
  5
6E4
100
AcDbEntity
  8
ASSI
100
AcDbSpline
 62
7
  6
CONTINUOUS
 70
0
 71
3
 72
12
 73
8
 74
6
 42
0.0000001
 43
0.0000001
 44
0.0000000001
 12
0.2121821519
 22
-0.2121827803
 32
0.0
 13
0.3000713213
 23
-0.0
 33
0.0
 40
0.0
 40
0.0
 40
0.0
 40
0.0
 40
0.0532731
 40
0.1976880308
 40
0.4179339921
 40
0.6946382695
 40
1.0
 40
1.0
 40
1.0
 40
1.0
 10
-23.6172115656
 20
1.1349034793
 30
0.0
 10
-23.6134436986
 20
1.1311356012
 30
0.0
 10
-23.5902692583
 20
1.1362944505
 30
0.0
 10
-23.5515191499
 20
1.1295665919
 30
0.0
 10
-23.4858233414
 20
1.1313905767
 30
0.0
 10
-23.4061759562
 20
1.129627544
 30
0.0
 10
-23.3478004334
 20
1.1297591034
 30
0.0
 10
-23.3172570007
 20
1.1297591034
 30
0.0
 11
-23.6172115656
 21
1.1349034793
 31
0.0
 11
-23.601305426
 21
1.1333102841
 31
0.0
 11
-23.5579945673
 21
1.1318706313
 31
0.0
 11
-23.4919147782
 21
1.1307379183
 31
0.0
 11
-23.4088869571
 21
1.1300093004
 31
0.0
 11
-23.3172570007
 21
1.1297591034
 31
0.0
  0
SPLINE
  5
6E5
100
AcDbEntity
  8
ASSI
100
AcDbSpline
 62
7
  6
CONTINUOUS
 70
0
 71
3
 72
12
 73
8
 74
6
 42
0.0000001
 43
0.0000001
 44
0.0000000001
 12
-0.3000744827
 22
-0.0
 32
0.0
 13
-0.2121844225
 23
-0.2121849807
 33
0.0
 40
0.0
 40
0.0
 40
0.0
 40
0.0
 40
0.3052957572
 40
0.5819859076
 40
0.8022509535
 40
0.9467022877
 40
1.0
 40
1.0
 40
1.0
 40
1.0
 10
-23.3170138643
 20
1.8725343424
 30
0.0
 10
-23.3475510198
 20
1.8725343424
 30
0.0
 10
-23.4059190799
 20
1.8726657113
 30
0.0
 10
-23.4855613537
 20
1.8709028103
 30
0.0
 10
-23.5512618957
 20
1.8727258637
 30
0.0
 10
-23.5900199926
 20
1.8659969807
 30
0.0
 10
-23.61320181
 20
1.8711564233
 30
0.0
 10
-23.6169714581
 20
1.8673867653
 30
0.0
 11
-23.3170138643
 21
1.8725343424
 31
0.0
 11
-23.408624989
 21
1.872284096
 31
0.0
 11
-23.4916494432
 21
1.871555203
 31
0.0
 11
-23.5577356462
 21
1.8704218998
 31
0.0
 11
-23.6010578595
 21
1.8689812854
 31
0.0
 11
-23.6169714581
 21
1.8673867653
 31
0.0
  0
SPLINE
  5
6E6
100
AcDbEntity
  8
ASSI
100
AcDbSpline
 62
7
  6
CONTINUOUS
 70
0
 71
3
 72
12
 73
8
 74
6
 42
0.0000001
 43
0.0000001
 44
0.0000000001
 12
-0.2121905985
 22
0.2121889632
 32
0.0
 13
-0.3000816659
 23
-0.0
 33
0.0
 40
0.0
 40
0.0
 40
0.0
 40
0.0
 40
0.0533307621
 40
0.1978312493
 40
0.4181223603
 40
0.694793665
 40
1.0
 40
1.0
 40
1.0
 40
1.0
 10
23.6353709999
 20
-6.0363735277
 30
0.0
 10
23.6315989045
 20
-6.0326014613
 30
0.0
 10
23.6084069643
 20
-6.0377617288
 30
0.0
 10
23.5696376594
 20
-6.0310314197
 30
0.0
 10
23.50393005
 20
-6.0328532314
 30
0.0
 10
23.4242938803
 20
-6.0310904949
 30
0.0
 10
23.3659353433
 20
-6.0312216051
 30
0.0
 10
23.3354064015
 20
-6.0312216051
 30
0.0
 11
23.6353709999
 21
-6.0363735277
 31
0.0
 11
23.6194472285
 21
-6.0347772193
 31
0.0
 11
23.5761092623
 21
-6.0333353001
 31
0.0
 11
23.5100136679
 21
-6.0322011917
 31
0.0
 11
23.4269928849
 21
-6.0314719213
 31
0.0
 11
23.3354064015
 21
-6.0312216051
 31
0.0
  0
SPLINE
  5
6E7
100
AcDbEntity
  8
ASSI
100
AcDbSpline
 62
7
  6
CONTINUOUS
 70
0
 71
3
 72
12
 73
8
 74
6
 42
0.0000001
 43
0.0000001
 44
0.0000000001
 12
0.300075349
 22
-0.0
 32
0.0
 13
0.2121856603
 23
0.2121849679
 33
0.0
 40
0.0
 40
0.0
 40
0.0
 40
0.0
 40
0.305338008
 40
0.582037565
 40
0.8022906007
 40
0.9467183894
 40
1.0
 40
1.0
 40
1.0
 40
1.0
 10
23.3358863394
 20
-6.7662479795
 30
0.0
 10
23.3664278092
 20
-6.7662479795
 30
0.0
 10
23.4248012462
 20
-6.7663794712
 30
0.0
 10
23.5044476202
 20
-6.7646164688
 30
0.0
 10
23.5701457911
 20
-6.7664401472
 30
0.0
 10
23.6088991308
 20
-6.7597118699
 30
0.0
 10
23.6320763544
 20
-6.7648709683
 30
0.0
 10
23.6358448857
 20
-6.7611024494
 30
0.0
 11
23.3358863394
 21
-6.7662479795
 31
0.0
 11
23.4275104071
 21
-6.7659977624
 31
0.0
 11
23.5105379253
 21
-6.765269041
 31
0.0
 11
23.576620721
 21
-6.7641361109
 31
0.0
 11
23.6199360106
 21
-6.7626961118
 31
0.0
 11
23.6358448857
 21
-6.7611024494
 31
0.0
  0
SPLINE
  5
6E8
100
AcDbEntity
  8
ASSI
100
AcDbSpline
 62
7
  6
CONTINUOUS
 70
0
 71
3
 72
12
 73
8
 74
6
 42
0.0000001
 43
0.0000001
 44
0.0000000001
 12
-0.2121844225
 22
0.2121849807
 32
0.0
 13
-0.3000744827
 23
0.0
 33
0.0
 40
0.0
 40
0.0
 40
0.0
 40
0.0
 40
0.0532977123
 40
0.1977490465
 40
0.4180140924
 40
0.6947042428
 40
1.0
 40
1.0
 40
1.0
 40
1.0
 10
23.6316107069
 20
1.8673867653
 30
0.0
 10
23.6278410588
 20
1.8711564233
 30
0.0
 10
23.6046592414
 20
1.8659969807
 30
0.0
 10
23.5659011445
 20
1.8727258637
 30
0.0
 10
23.5002006025
 20
1.8709028103
 30
0.0
 10
23.4205583288
 20
1.8726657113
 30
0.0
 10
23.3621902686
 20
1.8725343424
 30
0.0
 10
23.3316531132
 20
1.8725343424
 30
0.0
 11
23.6316107069
 21
1.8673867653
 31
0.0
 11
23.6156971083
 21
1.8689812854
 31
0.0
 11
23.572374895
 21
1.8704218998
 31
0.0
 11
23.506288692
 21
1.871555203
 31
0.0
 11
23.4232642378
 21
1.872284096
 31
0.0
 11
23.3316531132
 21
1.8725343424
 31
0.0
  0
SPLINE
  5
6E9
100
AcDbEntity
  8
ASSI
100
AcDbSpline
 62
7
  6
CONTINUOUS
 70
0
 71
3
 72
12
 73
8
 74
6
 42
0.0000001
 43
0.0000001
 44
0.0000000001
 12
0.3000713213
 22
0.0
 32
0.0
 13
0.2121821519
 23
0.2121827803
 33
0.0
 40
0.0
 40
0.0
 40
0.0
 40
0.0
 40
0.3053617305
 40
0.5820660079
 40
0.8023119692
 40
0.9467269
 40
1.0
 40
1.0
 40
1.0
 40
1.0
 10
23.3318962495
 20
1.1297591034
 30
0.0
 10
23.3624396822
 20
1.1297591034
 30
0.0
 10
23.420815205
 20
1.129627544
 30
0.0
 10
23.5004625902
 20
1.1313905767
 30
0.0
 10
23.5661583988
 20
1.1295665919
 30
0.0
 10
23.6049085071
 20
1.1362944505
 30
0.0
 10
23.6280829474
 20
1.1311356012
 30
0.0
 10
23.6318508144
 20
1.1349034793
 30
0.0
 11
23.3318962495
 21
1.1297591034
 31
0.0
 11
23.4235262059
 21
1.1300093004
 31
0.0
 11
23.506554027
 21
1.1307379183
 31
0.0
 11
23.5726338161
 21
1.1318706313
 31
0.0
 11
23.6159446748
 21
1.1333102841
 31
0.0
 11
23.6318508144
 21
1.1349034793
 31
0.0
  0
SPLINE
  5
6EA
100
AcDbEntity
  8
ASSI
100
AcDbSpline
 62
253
  6
CONTINUOUS
 70
0
 71
3
 72
11
 73
7
 74
5
 42
0.0000001
 43
0.0000001
 44
0.0000000001
 12
-0.0069988224
 22
0.4010844298
 32
0.0
 13
-0.4011302123
 23
0.0035008769
 33
0.0
 40
0.0
 40
0.0
 40
0.0
 40
0.0
 40
0.2095153874
 40
0.4453794694
 40
0.7128570698
 40
1.0
 40
1.0
 40
1.0
 40
1.0
 10
20.0583747779
 20
5.8924464248
 30
0.0
 10
20.0578859909
 20
5.9204575447
 30
0.0
 10
20.0387904986
 20
5.9803247768
 30
0.0
 10
19.9689436089
 20
6.0489791964
 30
0.0
 10
19.8713382226
 20
6.0936035707
 30
0.0
 10
19.7968143709
 20
6.1042433752
 30
0.0
 10
19.7584204694
 20
6.1045784592
 30
0.0
 11
20.0583747779
 21
5.8924464248
 31
0.0
 11
20.0344888358
 21
5.9730269282
 31
0.0
 11
19.9692234536
 21
6.0415293506
 31
0.0
 11
19.8723611538
 21
6.0876859748
 31
0.0
 11
19.7584204694
 21
6.1045784592
 31
0.0
  0
SPLINE
  5
6EB
100
AcDbEntity
  8
ASSI
100
AcDbSpline
 62
253
  6
CONTINUOUS
 70
0
 71
3
 72
11
 73
7
 74
5
 42
0.0000001
 43
0.0000001
 44
0.0000000001
 12
-0.0069988137
 22
0.401084489
 32
0.0
 13
-0.401130273
 23
0.0035006841
 33
0.0
 40
0.0
 40
0.0
 40
0.0
 40
0.0
 40
0.2095120489
 40
0.4453745127
 40
0.7128531963
 40
1.0
 40
1.0
 40
1.0
 40
1.0
 10
20.0460321831
 20
5.1853396437
 30
0.0
 10
20.0455434045
 20
5.2133503213
 30
0.0
 10
20.0264484665
 20
5.2732169046
 30
0.0
 10
19.9566024782
 20
5.3418715324
 30
0.0
 10
19.8589968471
 20
5.3864965953
 30
0.0
 10
19.7844722998
 20
5.3971366051
 30
0.0
 10
19.7460778745
 20
5.3974716752
 30
0.0
 11
20.0460321831
 21
5.1853396437
 31
0.0
 11
20.0221469664
 21
5.2659189781
 31
0.0
 11
19.9568825426
 21
5.3344214362
 31
0.0
 11
19.8600200856
 21
5.3805787774
 31
0.0
 11
19.7460778745
 21
5.3974716752
 31
0.0
  0
SPLINE
  5
6EC
100
AcDbEntity
  8
ASSI
100
AcDbSpline
 62
253
  6
CONTINUOUS
 70
0
 71
3
 72
12
 73
8
 74
6
 42
0.0000001
 43
0.0000001
 44
0.0000000001
 12
0.188162755
 22
0.4631952088
 32
0.0
 13
0.000001281
 23
0.4999550218
 33
0.0
 40
0.0
 40
0.0
 40
0.0
 40
0.0
 40
0.0533471248
 40
0.1972618061
 40
0.417998053
 40
0.6944311848
 40
1.0
 40
1.0
 40
1.0
 40
1.0
 10
19.5661537819
 20
3.1599049175
 30
0.0
 10
19.5694997625
 20
3.1681416284
 30
0.0
 10
19.5641694472
 20
3.2024630673
 30
0.0
 10
19.5703282837
 20
3.2708301132
 30
0.0
 10
19.5682489346
 20
3.378325898
 30
0.0
 10
19.5697576488
 20
3.5118476962
 30
0.0
 10
19.5695837378
 20
3.6089052105
 30
0.0
 10
19.5695838683
 20
3.6598287651
 30
0.0
 11
19.5661537819
 21
3.1599049175
 31
0.0
 11
19.5672191339
 21
3.1865547948
 31
0.0
 11
19.5681752927
 21
3.2584993089
 31
0.0
 11
19.5689316553
 21
3.3688549121
 31
0.0
 11
19.5694168879
 21
3.5070581927
 31
0.0
 11
19.5695838683
 21
3.6598287651
 31
0.0
  0
SPLINE
  5
6ED
100
AcDbEntity
  8
ASSI
100
AcDbSpline
 62
253
  6
CONTINUOUS
 70
0
 71
3
 72
12
 73
8
 74
6
 42
0.0000001
 43
0.0000001
 44
0.0000000001
 12
0.000001281
 22
-0.4999550218
 32
0.0
 13
0.1881627568
 23
-0.4631952081
 33
0.0
 40
0.0
 40
0.0
 40
0.0
 40
0.0
 40
0.305568815
 40
0.5820019468
 40
0.8027381938
 40
0.9466528751
 40
1.0
 40
1.0
 40
1.0
 40
1.0
 10
19.7450553806
 20
3.6598287651
 30
0.0
 10
19.745055511
 20
3.6089052106
 30
0.0
 10
19.7448816
 20
3.5118476963
 30
0.0
 10
19.7463903142
 20
3.3783258981
 30
0.0
 10
19.7443109652
 20
3.2708301132
 30
0.0
 10
19.7504698017
 20
3.2024630674
 30
0.0
 10
19.7451394863
 20
3.1681416284
 30
0.0
 10
19.748485467
 20
3.1599049175
 30
0.0
 11
19.7450553806
 21
3.6598287651
 31
0.0
 11
19.745222361
 21
3.5070581928
 31
0.0
 11
19.7457075935
 21
3.3688549122
 31
0.0
 11
19.7464639561
 21
3.258499309
 31
0.0
 11
19.7474201149
 21
3.1865547948
 31
0.0
 11
19.748485467
 21
3.1599049175
 31
0.0
  0
SPLINE
  5
6EE
100
AcDbEntity
  8
ASSI
100
AcDbSpline
 62
253
  6
CONTINUOUS
 70
0
 71
3
 72
12
 73
8
 74
6
 42
0.0000001
 43
0.0000001
 44
0.0000000001
 12
0.000001281
 22
-0.4999550218
 32
0.0
 13
0.1881627568
 23
-0.4631952081
 33
0.0
 40
0.0
 40
0.0
 40
0.0
 40
0.0
 40
0.305568815
 40
0.5820019468
 40
0.8027381938
 40
0.9466528751
 40
1.0
 40
1.0
 40
1.0
 40
1.0
 10
-19.5549446194
 20
3.6598287651
 30
0.0
 10
-19.554944489
 20
3.6089052106
 30
0.0
 10
-19.5551184
 20
3.5118476963
 30
0.0
 10
-19.5536096858
 20
3.3783258981
 30
0.0
 10
-19.5556890348
 20
3.2708301132
 30
0.0
 10
-19.5495301983
 20
3.2024630674
 30
0.0
 10
-19.5548605137
 20
3.1681416284
 30
0.0
 10
-19.551514533
 20
3.1599049175
 30
0.0
 11
-19.5549446194
 21
3.6598287651
 31
0.0
 11
-19.554777639
 21
3.5070581928
 31
0.0
 11
-19.5542924065
 21
3.3688549122
 31
0.0
 11
-19.5535360439
 21
3.258499309
 31
0.0
 11
-19.5525798851
 21
3.1865547948
 31
0.0
 11
-19.551514533
 21
3.1599049175
 31
0.0
  0
SPLINE
  5
6EF
100
AcDbEntity
  8
ASSI
100
AcDbSpline
 62
253
  6
CONTINUOUS
 70
0
 71
3
 72
12
 73
8
 74
6
 42
0.0000001
 43
0.0000001
 44
0.0000000001
 12
0.188162755
 22
0.4631952088
 32
0.0
 13
0.000001281
 23
0.4999550218
 33
0.0
 40
0.0
 40
0.0
 40
0.0
 40
0.0
 40
0.0533471248
 40
0.1972618061
 40
0.417998053
 40
0.6944311848
 40
1.0
 40
1.0
 40
1.0
 40
1.0
 10
-19.7338462181
 20
3.1599049175
 30
0.0
 10
-19.7305002375
 20
3.1681416284
 30
0.0
 10
-19.7358305528
 20
3.2024630673
 30
0.0
 10
-19.7296717163
 20
3.2708301132
 30
0.0
 10
-19.7317510654
 20
3.378325898
 30
0.0
 10
-19.7302423512
 20
3.5118476962
 30
0.0
 10
-19.7304162622
 20
3.6089052105
 30
0.0
 10
-19.7304161317
 20
3.6598287651
 30
0.0
 11
-19.7338462181
 21
3.1599049175
 31
0.0
 11
-19.7327808661
 21
3.1865547948
 31
0.0
 11
-19.7318247073
 21
3.2584993089
 31
0.0
 11
-19.7310683447
 21
3.3688549121
 31
0.0
 11
-19.7305831121
 21
3.5070581927
 31
0.0
 11
-19.7304161317
 21
3.6598287651
 31
0.0
  0
SPLINE
  5
6F0
100
AcDbEntity
  8
ASSI
100
AcDbSpline
 62
253
  6
CONTINUOUS
 70
0
 71
3
 72
11
 73
7
 74
5
 42
0.0000001
 43
0.0000001
 44
0.0000000001
 12
-0.0098689072
 22
0.3534493123
 32
0.0
 13
-0.0000004971
 23
0.3535870638
 33
0.0
 40
0.0
 40
0.0
 40
0.0
 40
0.0
 40
0.2035823994
 40
0.4531925193
 40
0.7278954329
 40
1.0
 40
1.0
 40
1.0
 40
1.0
 10
19.5562185001
 20
6.1045895618
 30
0.0
 10
19.5555487882
 20
6.1285749148
 30
0.0
 10
19.5543490256
 20
6.1819766076
 30
0.0
 10
19.5530803136
 20
6.2677593242
 30
0.0
 10
19.5523003926
 20
6.3616243238
 30
0.0
 10
19.5521288174
 20
6.4260724713
 30
0.0
 10
19.5521287723
 20
6.4581433563
 30
0.0
 11
19.5562185001
 21
6.1045895618
 31
0.0
 11
19.5545535848
 21
6.1765544082
 31
0.0
 11
19.5532148021
 21
6.2648031632
 31
0.0
 11
19.5523896913
 21
6.3619310551
 31
0.0
 11
19.5521287723
 21
6.4581433563
 31
0.0
  0
SPLINE
  5
6F1
100
AcDbEntity
  8
ASSI
100
AcDbSpline
 62
253
  6
CONTINUOUS
 70
0
 71
3
 72
9
 73
5
 74
3
 42
0.0000001
 43
0.0000001
 44
0.0000000001
 12
0.0053452793
 22
-1.6468770511
 32
0.0
 13
0.0076765735
 23
-1.6468678343
 33
0.0
 40
0.0
 40
0.0
 40
0.0
 40
0.0
 40
0.5000137269
 40
1.0
 40
1.0
 40
1.0
 40
1.0
 10
-4.2346274146
 20
5.6746175679
 30
0.0
 10
-4.2337365103
 20
5.4001305239
 30
0.0
 10
-4.2317604294
 20
4.8511721204
 30
0.0
 10
-4.2293958934
 20
4.3022152527
 30
0.0
 10
-4.2281164996
 20
4.0277448158
 30
0.0
 11
-4.2346274146
 21
5.6746175679
 31
0.0
 11
-4.231663256
 21
4.8511574334
 31
0.0
 11
-4.2281164996
 21
4.0277448158
 31
0.0
  0
SPLINE
  5
6F2
100
AcDbEntity
  8
ASSI
100
AcDbSpline
 62
253
  6
CONTINUOUS
 70
0
 71
3
 72
9
 73
5
 74
3
 42
0.0000001
 43
0.0000001
 44
0.0000000001
 12
0.0076765735
 22
1.6468678343
 32
0.0
 13
0.0053452793
 23
1.6468770511
 33
0.0
 40
0.0
 40
0.0
 40
0.0
 40
0.0
 40
0.499986712
 40
1.0
 40
1.0
 40
1.0
 40
1.0
 10
4.2427557484
 20
4.0277448158
 30
0.0
 10
4.2440351433
 20
4.3022154937
 30
0.0
 10
4.2463996792
 20
4.8511723614
 30
0.0
 10
4.2483757599
 20
5.4001307649
 30
0.0
 10
4.2492666635
 20
5.6746175679
 30
0.0
 11
4.2427557484
 21
4.0277448158
 31
0.0
 11
4.2463025077
 21
4.8511581563
 31
0.0
 11
4.2492666635
 21
5.6746175679
 31
0.0
  0
SPLINE
  5
6F3
100
AcDbEntity
  8
ASSI
100
AcDbSpline
 62
253
  6
CONTINUOUS
 70
0
 71
3
 72
11
 73
7
 74
5
 42
0.0000001
 43
0.0000001
 44
0.0000000001
 12
-0.0000004828
 22
-0.3535861826
 32
0.0
 13
-0.0098690566
 23
-0.3534484266
 33
0.0
 40
0.0
 40
0.0
 40
0.0
 40
0.0
 40
0.2713497641
 40
0.5458509931
 40
0.7957709277
 40
1.0
 40
1.0
 40
1.0
 40
1.0
 10
19.7625104755
 20
6.4581430258
 30
0.0
 10
19.7625104318
 20
6.4261611834
 30
0.0
 10
19.7623396158
 20
6.3618259314
 30
0.0
 10
19.7615620815
 20
6.2680373684
 30
0.0
 10
19.7602940223
 20
6.182165884
 30
0.0
 10
19.7590926119
 20
6.1286515931
 30
0.0
 10
19.7584207624
 20
6.1045901117
 30
0.0
 11
19.7625104755
 21
6.4581430258
 31
0.0
 11
19.7622510141
 21
6.3621978494
 31
0.0
 11
19.7614284036
 21
6.2651414937
 31
0.0
 11
19.7600900236
 21
6.1767833939
 31
0.0
 11
19.7584207624
 21
6.1045901117
 31
0.0
  0
SPLINE
  5
6F4
100
AcDbEntity
  8
ASSI
100
AcDbSpline
 62
253
  6
CONTINUOUS
 70
0
 71
3
 72
11
 73
7
 74
5
 42
0.0000001
 43
0.0000001
 44
0.0000000001
 12
-0.0098905691
 22
0.5656197527
 32
0.0
 13
-0.0000105791
 23
0.5657062205
 33
0.0
 40
0.0
 40
0.0
 40
0.0
 40
0.0
 40
0.203753628
 40
0.4534050995
 40
0.7280845227
 40
1.0
 40
1.0
 40
1.0
 40
1.0
 10
19.2562644709
 20
5.8924464248
 30
0.0
 10
19.2555927245
 20
5.9308621171
 30
0.0
 10
19.2543946769
 20
6.0163522797
 30
0.0
 10
19.2531252498
 20
6.153640775
 30
0.0
 10
19.2523456398
 20
6.3037862991
 30
0.0
 10
19.2521754537
 20
6.4068570908
 30
0.0
 10
19.2521744948
 20
6.4581318498
 30
0.0
 11
19.2562644709
 21
5.8924464248
 31
0.0
 11
19.2545982536
 21
6.007699076
 31
0.0
 11
19.2532597498
 21
6.1489221234
 31
0.0
 11
19.2524351059
 21
6.3043077935
 31
0.0
 11
19.2521744948
 21
6.4581318498
 31
0.0
  0
SPLINE
  5
6F5
100
AcDbEntity
  8
ASSI
100
AcDbSpline
 62
253
  6
CONTINUOUS
 70
0
 71
3
 72
10
 73
6
 74
4
 42
0.0000001
 43
0.0000001
 44
0.0000000001
 12
0.000000142
 22
0.1414264683
 32
0.0
 13
-0.0024701873
 23
0.1414048942
 33
0.0
 40
0.0
 40
0.0
 40
0.0
 40
0.0
 40
0.3658056966
 40
0.7062804612
 40
1.0
 40
1.0
 40
1.0
 40
1.0
 10
19.2696295597
 20
5.0439182874
 30
0.0
 10
19.269629577
 20
5.0611631567
 30
0.0
 10
19.2695557933
 20
5.09445881
 30
0.0
 10
19.2692273751
 20
5.1415999637
 30
0.0
 10
19.2688489131
 20
5.1714951836
 30
0.0
 10
19.2686070657
 20
5.1853396437
 30
0.0
 11
19.2696295597
 21
5.0439182874
 31
0.0
 11
19.2695107168
 21
5.0956527587
 31
0.0
 11
19.2691629701
 21
5.1438036465
 31
0.0
 11
19.2686070657
 21
5.1853396437
 31
0.0
  0
SPLINE
  5
6F6
100
AcDbEntity
  8
ASSI
100
AcDbSpline
 62
253
  6
CONTINUOUS
 70
0
 71
3
 72
12
 73
8
 74
6
 42
0.0000001
 43
0.0000001
 44
0.0000000001
 12
0.1431629629
 22
0.1397257719
 32
0.0
 13
0.0000002731
 23
0.2000473076
 33
0.0
 40
0.0
 40
0.0
 40
0.0
 40
0.0
 40
0.053680495
 40
0.1976944885
 40
0.4183849018
 40
0.6946711573
 40
1.0
 40
1.0
 40
1.0
 40
1.0
 10
19.2661994733
 20
3.4598592261
 30
0.0
 10
19.2687611596
 20
3.4623594089
 30
0.0
 10
19.2652377529
 20
3.4778842944
 30
0.0
 10
19.2697833143
 20
3.5036889173
 30
0.0
 10
19.268533404
 20
3.5474925459
 30
0.0
 10
19.2697204004
 20
3.6005788132
 30
0.0
 10
19.2696295319
 20
3.6394686941
 30
0.0
 10
19.2696295597
 20
3.6598287651
 30
0.0
 11
19.2661994733
 21
3.4598592261
 31
0.0
 11
19.2672658624
 21
3.4705447851
 31
0.0
 11
19.2682215236
 21
3.4993385419
 31
0.0
 11
19.2689779037
 21
3.5434805851
 31
0.0
 11
19.2694627527
 21
3.59874878
 31
0.0
 11
19.2696295597
 21
3.6598287651
 31
0.0
  0
SPLINE
  5
6F7
100
AcDbEntity
  8
ASSI
100
AcDbSpline
 62
253
  6
CONTINUOUS
 70
0
 71
3
 72
12
 73
8
 74
6
 42
0.0000001
 43
0.0000001
 44
0.0000000001
 12
0.0000002731
 22
-0.2000473076
 32
0.0
 13
0.1431629629
 23
-0.1397257719
 33
0.0
 40
0.0
 40
0.0
 40
0.0
 40
0.0
 40
0.3053288425
 40
0.581615098
 40
0.8023055113
 40
0.9463195049
 40
1.0
 40
1.0
 40
1.0
 40
1.0
 10
20.0450096891
 20
3.6598287651
 30
0.0
 10
20.0450097169
 20
3.6394686941
 30
0.0
 10
20.0449188485
 20
3.6005788132
 30
0.0
 10
20.0461058448
 20
3.5474925459
 30
0.0
 10
20.0448559346
 20
3.5036889174
 30
0.0
 10
20.0494014959
 20
3.4778842944
 30
0.0
 10
20.0458780893
 20
3.4623594089
 30
0.0
 10
20.0484397755
 20
3.4598592261
 30
0.0
 11
20.0450096891
 21
3.6598287651
 31
0.0
 11
20.0451764961
 21
3.59874878
 31
0.0
 11
20.0456613451
 21
3.5434805851
 31
0.0
 11
20.0464177252
 21
3.499338542
 31
0.0
 11
20.0473733865
 21
3.4705447851
 31
0.0
 11
20.0484397755
 21
3.4598592261
 31
0.0
  0
SPLINE
  5
6F8
100
AcDbEntity
  8
ASSI
100
AcDbSpline
 62
253
  6
CONTINUOUS
 70
0
 71
3
 72
10
 73
6
 74
4
 42
0.0000001
 43
0.0000001
 44
0.0000000001
 12
-0.0024701868
 22
-0.1414048942
 32
0.0
 13
0.0000001414
 23
-0.1414264683
 33
0.0
 40
0.0
 40
0.0
 40
0.0
 40
0.0
 40
0.2937195618
 40
0.6341943926
 40
1.0
 40
1.0
 40
1.0
 40
1.0
 10
20.0460321831
 20
5.1853396437
 30
0.0
 10
20.0457903357
 20
5.1714951825
 30
0.0
 10
20.0454118737
 20
5.1415999584
 30
0.0
 10
20.0450834555
 20
5.0944588047
 30
0.0
 10
20.0450096719
 20
5.0611631525
 30
0.0
 10
20.0450096891
 20
5.0439182874
 30
0.0
 11
20.0460321831
 21
5.1853396437
 31
0.0
 11
20.0454762787
 21
5.1438036432
 31
0.0
 11
20.0451285319
 21
5.0956527461
 31
0.0
 11
20.0450096891
 21
5.0439182874
 31
0.0
  0
SPLINE
  5
6F9
100
AcDbEntity
  8
ASSI
100
AcDbSpline
 62
253
  6
CONTINUOUS
 70
0
 71
3
 72
11
 73
7
 74
5
 42
0.0000001
 43
0.0000001
 44
0.0000000001
 12
-0.0000102035
 22
-0.56570622
 32
0.0
 13
-0.0098911393
 23
-0.5656197423
 33
0.0
 40
0.0
 40
0.0
 40
0.0
 40
0.0
 40
0.27116473
 40
0.5456360084
 40
0.7955929365
 40
1.0
 40
1.0
 40
1.0
 40
1.0
 10
20.062464754
 20
6.4581318498
 30
0.0
 10
20.0624638318
 20
6.4069986583
 30
0.0
 10
20.0622943504
 20
6.3041086845
 30
0.0
 10
20.0615171549
 20
6.1540863683
 30
0.0
 10
20.0602483579
 20
6.0166562942
 30
0.0
 10
20.0590487175
 20
5.930985315
 30
0.0
 10
20.0583747779
 20
5.8924464248
 30
0.0
 11
20.062464754
 21
6.4581318498
 31
0.0
 11
20.0622055913
 21
6.3047324943
 31
0.0
 11
20.0613834612
 21
6.1494645614
 31
0.0
 11
20.0600453869
 21
6.0080687035
 31
0.0
 11
20.0583747779
 21
5.8924464248
 31
0.0
  0
SPLINE
  5
6FA
100
AcDbEntity
  8
ASSI
100
AcDbSpline
 62
253
  6
CONTINUOUS
 70
0
 71
3
 72
12
 73
8
 74
6
 42
0.0000001
 43
0.0000001
 44
0.0000000001
 12
0.0000002731
 22
-0.2000473076
 32
0.0
 13
0.1431629629
 23
-0.1397257719
 33
0.0
 40
0.0
 40
0.0
 40
0.0
 40
0.0
 40
0.3053288425
 40
0.581615098
 40
0.8023055113
 40
0.9463195049
 40
1.0
 40
1.0
 40
1.0
 40
1.0
 10
-19.2549903109
 20
3.6598287651
 30
0.0
 10
-19.2549902831
 20
3.6394686941
 30
0.0
 10
-19.2550811515
 20
3.6005788132
 30
0.0
 10
-19.2538941552
 20
3.5474925459
 30
0.0
 10
-19.2551440654
 20
3.5036889174
 30
0.0
 10
-19.2505985041
 20
3.4778842944
 30
0.0
 10
-19.2541219107
 20
3.4623594089
 30
0.0
 10
-19.2515602245
 20
3.4598592261
 30
0.0
 11
-19.2549903109
 21
3.6598287651
 31
0.0
 11
-19.2548235039
 21
3.59874878
 31
0.0
 11
-19.2543386549
 21
3.5434805851
 31
0.0
 11
-19.2535822748
 21
3.499338542
 31
0.0
 11
-19.2526266135
 21
3.4705447851
 31
0.0
 11
-19.2515602245
 21
3.4598592261
 31
0.0
  0
SPLINE
  5
6FB
100
AcDbEntity
  8
ASSI
100
AcDbSpline
 62
253
  6
CONTINUOUS
 70
0
 71
3
 72
10
 73
6
 74
4
 42
0.0000001
 43
0.0000001
 44
0.0000000001
 12
-0.0024701868
 22
-0.1414048942
 32
0.0
 13
0.0000001414
 23
-0.1414264683
 33
0.0
 40
0.0
 40
0.0
 40
0.0
 40
0.0
 40
0.2937195618
 40
0.6341943926
 40
1.0
 40
1.0
 40
1.0
 40
1.0
 10
-19.2539678169
 20
5.1853396437
 30
0.0
 10
-19.2542096643
 20
5.1714951825
 30
0.0
 10
-19.2545881263
 20
5.1415999584
 30
0.0
 10
-19.2549165445
 20
5.0944588047
 30
0.0
 10
-19.2549903281
 20
5.0611631525
 30
0.0
 10
-19.2549903109
 20
5.0439182874
 30
0.0
 11
-19.2539678169
 21
5.1853396437
 31
0.0
 11
-19.2545237213
 21
5.1438036432
 31
0.0
 11
-19.2548714681
 21
5.0956527461
 31
0.0
 11
-19.2549903109
 21
5.0439182874
 31
0.0
  0
SPLINE
  5
6FC
100
AcDbEntity
  8
ASSI
100
AcDbSpline
 62
253
  6
CONTINUOUS
 70
0
 71
3
 72
11
 73
7
 74
5
 42
0.0000001
 43
0.0000001
 44
0.0000000001
 12
-0.0000102035
 22
-0.56570622
 32
0.0
 13
-0.0098911393
 23
-0.5656197423
 33
0.0
 40
0.0
 40
0.0
 40
0.0
 40
0.0
 40
0.27116473
 40
0.5456360084
 40
0.7955929365
 40
1.0
 40
1.0
 40
1.0
 40
1.0
 10
-19.237535246
 20
6.4581318498
 30
0.0
 10
-19.2375361682
 20
6.4069986583
 30
0.0
 10
-19.2377056496
 20
6.3041086845
 30
0.0
 10
-19.2384828451
 20
6.1540863683
 30
0.0
 10
-19.2397516421
 20
6.0166562942
 30
0.0
 10
-19.2409512825
 20
5.930985315
 30
0.0
 10
-19.2416252221
 20
5.8924464248
 30
0.0
 11
-19.237535246
 21
6.4581318498
 31
0.0
 11
-19.2377944087
 21
6.3047324943
 31
0.0
 11
-19.2386165388
 21
6.1494645614
 31
0.0
 11
-19.2399546131
 21
6.0080687035
 31
0.0
 11
-19.2416252221
 21
5.8924464248
 31
0.0
  0
SPLINE
  5
6FD
100
AcDbEntity
  8
ASSI
100
AcDbSpline
 62
253
  6
CONTINUOUS
 70
0
 71
3
 72
11
 73
7
 74
5
 42
0.0000001
 43
0.0000001
 44
0.0000000001
 12
-0.0098905691
 22
0.5656197527
 32
0.0
 13
-0.0000105791
 23
0.5657062205
 33
0.0
 40
0.0
 40
0.0
 40
0.0
 40
0.0
 40
0.203753628
 40
0.4534050995
 40
0.7280845227
 40
1.0
 40
1.0
 40
1.0
 40
1.0
 10
-20.0437355291
 20
5.8924464248
 30
0.0
 10
-20.0444072755
 20
5.9308621171
 30
0.0
 10
-20.0456053231
 20
6.0163522797
 30
0.0
 10
-20.0468747502
 20
6.153640775
 30
0.0
 10
-20.0476543602
 20
6.3037862991
 30
0.0
 10
-20.0478245463
 20
6.4068570908
 30
0.0
 10
-20.0478255052
 20
6.4581318498
 30
0.0
 11
-20.0437355291
 21
5.8924464248
 31
0.0
 11
-20.0454017464
 21
6.007699076
 31
0.0
 11
-20.0467402502
 21
6.1489221234
 31
0.0
 11
-20.0475648941
 21
6.3043077935
 31
0.0
 11
-20.0478255052
 21
6.4581318498
 31
0.0
  0
SPLINE
  5
6FE
100
AcDbEntity
  8
ASSI
100
AcDbSpline
 62
253
  6
CONTINUOUS
 70
0
 71
3
 72
10
 73
6
 74
4
 42
0.0000001
 43
0.0000001
 44
0.0000000001
 12
0.000000142
 22
0.1414264683
 32
0.0
 13
-0.0024701873
 23
0.1414048942
 33
0.0
 40
0.0
 40
0.0
 40
0.0
 40
0.0
 40
0.3658056966
 40
0.7062804612
 40
1.0
 40
1.0
 40
1.0
 40
1.0
 10
-20.0303704403
 20
5.0439182874
 30
0.0
 10
-20.030370423
 20
5.0611631567
 30
0.0
 10
-20.0304442067
 20
5.09445881
 30
0.0
 10
-20.0307726249
 20
5.1415999637
 30
0.0
 10
-20.0311510869
 20
5.1714951836
 30
0.0
 10
-20.0313929343
 20
5.1853396437
 30
0.0
 11
-20.0303704403
 21
5.0439182874
 31
0.0
 11
-20.0304892832
 21
5.0956527587
 31
0.0
 11
-20.0308370299
 21
5.1438036465
 31
0.0
 11
-20.0313929343
 21
5.1853396437
 31
0.0
  0
SPLINE
  5
6FF
100
AcDbEntity
  8
ASSI
100
AcDbSpline
 62
253
  6
CONTINUOUS
 70
0
 71
3
 72
12
 73
8
 74
6
 42
0.0000001
 43
0.0000001
 44
0.0000000001
 12
0.1431629629
 22
0.1397257719
 32
0.0
 13
0.0000002731
 23
0.2000473076
 33
0.0
 40
0.0
 40
0.0
 40
0.0
 40
0.0
 40
0.053680495
 40
0.1976944885
 40
0.4183849018
 40
0.6946711573
 40
1.0
 40
1.0
 40
1.0
 40
1.0
 10
-20.0338005267
 20
3.4598592261
 30
0.0
 10
-20.0312388404
 20
3.4623594089
 30
0.0
 10
-20.0347622471
 20
3.4778842944
 30
0.0
 10
-20.0302166857
 20
3.5036889173
 30
0.0
 10
-20.031466596
 20
3.5474925459
 30
0.0
 10
-20.0302795996
 20
3.6005788132
 30
0.0
 10
-20.0303704681
 20
3.6394686941
 30
0.0
 10
-20.0303704403
 20
3.6598287651
 30
0.0
 11
-20.0338005267
 21
3.4598592261
 31
0.0
 11
-20.0327341376
 21
3.4705447851
 31
0.0
 11
-20.0317784764
 21
3.4993385419
 31
0.0
 11
-20.0310220963
 21
3.5434805851
 31
0.0
 11
-20.0305372473
 21
3.59874878
 31
0.0
 11
-20.0303704403
 21
3.6598287651
 31
0.0
  0
SPLINE
  5
700
100
AcDbEntity
  8
ASSI
100
AcDbSpline
 62
253
  6
CONTINUOUS
 70
0
 71
3
 72
9
 73
5
 74
3
 42
0.0000001
 43
0.0000001
 44
0.0000000001
 12
0.0003603394
 22
-6.1661325534
 32
0.0
 13
0.0019281047
 23
-6.1661322625
 33
0.0
 40
0.0
 40
0.0
 40
0.0
 40
0.0
 40
0.500035562
 40
1.0
 40
1.0
 40
1.0
 40
1.0
 10
23.6304665457
 20
8.0335192106
 30
0.0
 10
23.6305266065
 20
7.0057573585
 30
0.0
 10
23.6307773526
 20
4.9503798463
 30
0.0
 10
23.631289379
 20
2.8950023825
 30
0.0
 10
23.6316107069
 20
1.8673867653
 30
0.0
 11
23.6304665457
 21
8.0335192106
 31
0.0
 11
23.6308426998
 21
4.9502336719
 31
0.0
 11
23.6316107069
 21
1.8673867653
 31
0.0
  0
LINE
  5
701
100
AcDbEntity
  8
ASSI
100
AcDbLine
 62
253
  6
CONTINUOUS
 10
23.6318508144
 20
1.1349034793
 11
23.6326483956
 21
-0.9336509234
  0
LINE
  5
702
100
AcDbEntity
  8
ASSI
100
AcDbLine
 62
253
  6
CONTINUOUS
 10
23.6345905386
 20
-4.7623567965
 11
23.6353709999
 21
-6.0363735277
  0
LINE
  5
703
100
AcDbEntity
  8
ASSI
100
AcDbLine
 62
253
  6
CONTINUOUS
 10
23.6358448857
 20
-6.7611024494
 11
23.636195297
 21
-7.2767888376
  0
LINE
  5
704
100
AcDbEntity
  8
ASSI
100
AcDbLine
 62
253
  6
CONTINUOUS
 10
-23.6207317511
 20
-6.0363735277
 11
-23.6199512897
 21
-4.7623567965
  0
LINE
  5
705
100
AcDbEntity
  8
ASSI
100
AcDbLine
 62
253
  6
CONTINUOUS
 10
-23.6215560482
 20
-7.2767888376
 11
-23.6212056369
 21
-6.7611024494
  0
LINE
  5
706
100
AcDbEntity
  8
ASSI
100
AcDbLine
 62
253
  6
CONTINUOUS
 10
-23.6180091468
 20
-0.9336509234
 11
-23.6172115656
 21
1.1349034793
  0
SPLINE
  5
707
100
AcDbEntity
  8
ASSI
100
AcDbSpline
 62
253
  6
CONTINUOUS
 70
0
 71
3
 72
9
 73
5
 74
3
 42
0.0000001
 43
0.0000001
 44
0.0000000001
 12
0.0019281047
 22
6.1661322625
 32
0.0
 13
0.0003603394
 23
6.1661325534
 33
0.0
 40
0.0
 40
0.0
 40
0.0
 40
0.0
 40
0.4999644739
 40
1.0
 40
1.0
 40
1.0
 40
1.0
 10
-23.6169714581
 20
1.8673867653
 30
0.0
 10
-23.6166501302
 20
2.8950024563
 30
0.0
 10
-23.6161381037
 20
4.95037992
 30
0.0
 10
-23.6158873577
 20
7.0057574323
 30
0.0
 10
-23.6158272968
 20
8.0335192106
 30
0.0
 11
-23.6169714581
 21
1.8673867653
 31
0.0
 11
-23.6162034509
 21
4.9502338932
 31
0.0
 11
-23.6158272968
 21
8.0335192106
 31
0.0
  0
SPLINE
  5
708
100
AcDbEntity
  8
ASSI
100
AcDbSpline
 62
7
  6
CONTINUOUS
 70
0
 71
3
 72
12
 73
8
 74
6
 42
0.0000001
 43
0.0000001
 44
0.0000000001
 12
0.3000708432
 22
-0.0
 32
0.0
 13
0.2121821359
 23
0.2121821203
 33
0.0
 40
0.0
 40
0.0
 40
0.0
 40
0.0
 40
0.3053517528
 40
0.5820537449
 40
0.8023025256
 40
0.9467230498
 40
1.0
 40
1.0
 40
1.0
 40
1.0
 10
23.3305124793
 20
8.0283743527
 30
0.0
 10
23.3610548653
 20
8.0283743527
 30
0.0
 10
23.4194290578
 20
8.0282428239
 30
0.0
 10
23.4990753977
 20
8.0300058269
 30
0.0
 10
23.5647716924
 20
8.0281820015
 30
0.0
 10
23.6035229121
 20
8.0349099806
 30
0.0
 10
23.6266984067
 20
8.0297510719
 30
0.0
 10
23.6304665457
 20
8.0335192106
 30
0.0
 11
23.3305124793
 21
8.0283743527
 31
0.0
 11
23.4221392956
 21
8.0286245568
 31
0.0
 11
23.5051662983
 21
8.0293532145
 31
0.0
 11
23.5712468268
 21
8.0304860148
 31
0.0
 11
23.6145592909
 21
8.0319258125
 31
0.0
 11
23.6304665457
 21
8.0335192106
 31
0.0
  0
SPLINE
  5
709
100
AcDbEntity
  8
ASSI
100
AcDbSpline
 62
7
  6
CONTINUOUS
 70
0
 71
3
 72
12
 73
8
 74
6
 42
0.0000001
 43
0.0000001
 44
0.0000000001
 12
0.2121821359
 22
-0.2121821203
 32
0.0
 13
0.3000708432
 23
0.0
 33
0.0
 40
0.0
 40
0.0
 40
0.0
 40
0.0
 40
0.0532769502
 40
0.1976974744
 40
0.4179462551
 40
0.6946482472
 40
1.0
 40
1.0
 40
1.0
 40
1.0
 10
-23.6158272968
 20
8.0335192106
 30
0.0
 10
-23.6120591578
 20
8.0297510719
 30
0.0
 10
-23.5888836632
 20
8.0349099806
 30
0.0
 10
-23.5501324435
 20
8.0281820015
 30
0.0
 10
-23.4844361489
 20
8.0300058269
 30
0.0
 10
-23.404789809
 20
8.0282428239
 30
0.0
 10
-23.3464156164
 20
8.0283743527
 30
0.0
 10
-23.3158732304
 20
8.0283743527
 30
0.0
 11
-23.6158272968
 21
8.0335192106
 31
0.0
 11
-23.5999200421
 21
8.0319258125
 31
0.0
 11
-23.5566075779
 21
8.0304860148
 31
0.0
 11
-23.4905270495
 21
8.0293532145
 31
0.0
 11
-23.4075000468
 21
8.0286245568
 31
0.0
 11
-23.3158732304
 21
8.0283743527
 31
0.0
  0
SPLINE
  5
70A
100
AcDbEntity
  8
ASSI
100
AcDbSpline
 62
253
  6
CONTINUOUS
 70
0
 71
3
 72
11
 73
7
 74
5
 42
0.0000001
 43
0.0000001
 44
0.0000000001
 12
-0.0000004828
 22
-0.3535861826
 32
0.0
 13
-0.0098690566
 23
-0.3534484266
 33
0.0
 40
0.0
 40
0.0
 40
0.0
 40
0.0
 40
0.2713497641
 40
0.5458509931
 40
0.7957709277
 40
1.0
 40
1.0
 40
1.0
 40
1.0
 10
-19.5374895245
 20
6.4581430258
 30
0.0
 10
-19.5374895682
 20
6.4261611834
 30
0.0
 10
-19.5376603842
 20
6.3618259314
 30
0.0
 10
-19.5384379185
 20
6.2680373684
 30
0.0
 10
-19.5397059777
 20
6.182165884
 30
0.0
 10
-19.5409073881
 20
6.1286515931
 30
0.0
 10
-19.5415792376
 20
6.1045901117
 30
0.0
 11
-19.5374895245
 21
6.4581430258
 31
0.0
 11
-19.5377489859
 21
6.3621978494
 31
0.0
 11
-19.5385715964
 21
6.2651414937
 31
0.0
 11
-19.5399099764
 21
6.1767833939
 31
0.0
 11
-19.5415792376
 21
6.1045901117
 31
0.0
  0
SPLINE
  5
70B
100
AcDbEntity
  8
ASSI
100
AcDbSpline
 62
253
  6
CONTINUOUS
 70
0
 71
3
 72
11
 73
7
 74
5
 42
0.0000001
 43
0.0000001
 44
0.0000000001
 12
-0.0098689072
 22
0.3534493123
 32
0.0
 13
-0.0000004971
 23
0.3535870638
 33
0.0
 40
0.0
 40
0.0
 40
0.0
 40
0.0
 40
0.2035823994
 40
0.4531925193
 40
0.7278954329
 40
1.0
 40
1.0
 40
1.0
 40
1.0
 10
-19.7437814999
 20
6.1045895618
 30
0.0
 10
-19.7444512118
 20
6.1285749148
 30
0.0
 10
-19.7456509744
 20
6.1819766076
 30
0.0
 10
-19.7469196864
 20
6.2677593242
 30
0.0
 10
-19.7476996074
 20
6.3616243238
 30
0.0
 10
-19.7478711826
 20
6.4260724713
 30
0.0
 10
-19.7478712277
 20
6.4581433563
 30
0.0
 11
-19.7437814999
 21
6.1045895618
 31
0.0
 11
-19.7454464152
 21
6.1765544082
 31
0.0
 11
-19.7467851979
 21
6.2648031632
 31
0.0
 11
-19.7476103087
 21
6.3619310551
 31
0.0
 11
-19.7478712277
 21
6.4581433563
 31
0.0
  0
SPLINE
  5
70C
100
AcDbEntity
  8
ASSI
100
AcDbSpline
 62
7
  6
CONTINUOUS
 70
0
 71
3
 72
11
 73
7
 74
5
 42
0.0000001
 43
0.0000001
 44
0.0000000001
 12
0.1877591259
 22
0.0090044273
 32
0.0
 13
0.1879749161
 23
0.0
 33
0.0
 40
0.0
 40
0.0
 40
0.0
 40
0.0
 40
0.1566793638
 40
0.3898272684
 40
0.6785348125
 40
1.0
 40
1.0
 40
1.0
 40
1.0
 10
4.2492666635
 20
5.6746175679
 30
0.0
 10
4.2590726569
 20
5.6750878372
 30
0.0
 10
4.2834939365
 20
5.6757137225
 30
0.0
 10
4.3260032937
 20
5.6763910657
 30
0.0
 10
4.3788436428
 20
5.6768143604
 30
0.0
 10
4.4170759275
 20
5.6769150802
 30
0.0
 10
4.4372183914
 20
5.6769150802
 30
0.0
 11
4.2492666635
 21
5.6746175679
 31
0.0
 11
4.278703604
 21
5.6755527055
 31
0.0
 11
4.3225234616
 21
5.676283907
 31
0.0
 11
4.3767912201
 21
5.6767519003
 31
0.0
 11
4.4372183914
 21
5.6769150802
 31
0.0
  0
SPLINE
  5
70D
100
AcDbEntity
  8
ASSI
100
AcDbSpline
 62
7
  6
CONTINUOUS
 70
0
 71
3
 72
11
 73
7
 74
5
 42
0.0000001
 43
0.0000001
 44
0.0000000001
 12
-0.1879629154
 22
0.0
 32
0.0
 13
-0.1877471389
 23
0.0090038568
 33
0.0
 40
0.0
 40
0.0
 40
0.0
 40
0.0
 40
0.3215242523
 40
0.6102453572
 40
0.8433660718
 40
1.0
 40
1.0
 40
1.0
 40
1.0
 10
4.4306954866
 20
4.0254480267
 30
0.0
 10
4.4105506079
 20
4.0254480267
 30
0.0
 10
4.3723162139
 20
4.0255487296
 30
0.0
 10
4.3194763905
 20
4.025971933
 30
0.0
 10
4.2769734466
 20
4.0266490813
 30
0.0
 10
4.2525582724
 20
4.0272747127
 30
0.0
 10
4.2427557484
 20
4.0277448158
 30
0.0
 11
4.4306954866
 21
4.0254480267
 31
0.0
 11
4.370261071
 21
4.025611195
 31
0.0
 11
4.3159942276
 21
4.0260791038
 31
0.0
 11
4.2721822759
 21
4.026810076
 31
0.0
 11
4.2427557484
 21
4.0277448158
 31
0.0
  0
SPLINE
  5
70E
100
AcDbEntity
  8
ASSI
100
AcDbSpline
 62
7
  6
CONTINUOUS
 70
0
 71
3
 72
11
 73
7
 74
5
 42
0.0000001
 43
0.0000001
 44
0.0000000001
 12
-0.1877471389
 22
-0.0090038568
 32
0.0
 13
-0.1879629155
 23
-0.0
 33
0.0
 40
0.0
 40
0.0
 40
0.0
 40
0.0
 40
0.1566339282
 40
0.3897546428
 40
0.6784757477
 40
1.0
 40
1.0
 40
1.0
 40
1.0
 10
-4.2281164996
 20
4.0277448158
 30
0.0
 10
-4.2379190235
 20
4.0272747127
 30
0.0
 10
-4.2623341978
 20
4.0266490813
 30
0.0
 10
-4.3048371417
 20
4.025971933
 30
0.0
 10
-4.357676965
 20
4.0255487296
 30
0.0
 10
-4.3959113591
 20
4.0254480267
 30
0.0
 10
-4.4160562377
 20
4.0254480267
 30
0.0
 11
-4.2281164996
 21
4.0277448158
 31
0.0
 11
-4.257543027
 21
4.026810076
 31
0.0
 11
-4.3013549787
 21
4.0260791038
 31
0.0
 11
-4.3556218221
 21
4.025611195
 31
0.0
 11
-4.4160562377
 21
4.0254480267
 31
0.0
  0
SPLINE
  5
70F
100
AcDbEntity
  8
ASSI
100
AcDbSpline
 62
7
  6
CONTINUOUS
 70
0
 71
3
 72
11
 73
7
 74
5
 42
0.0000001
 43
0.0000001
 44
0.0000000001
 12
0.1879749161
 22
0.0
 32
0.0
 13
0.1877591259
 23
-0.0090044273
 33
0.0
 40
0.0
 40
0.0
 40
0.0
 40
0.0
 40
0.3214651875
 40
0.6101727316
 40
0.8433206362
 40
1.0
 40
1.0
 40
1.0
 40
1.0
 10
-4.4225791425
 20
5.6769150802
 30
0.0
 10
-4.4024366787
 20
5.6769150802
 30
0.0
 10
-4.3642043939
 20
5.6768143604
 30
0.0
 10
-4.3113640448
 20
5.6763910657
 30
0.0
 10
-4.2688546876
 20
5.6757137225
 30
0.0
 10
-4.2444334081
 20
5.6750878372
 30
0.0
 10
-4.2346274146
 20
5.6746175679
 30
0.0
 11
-4.4225791425
 21
5.6769150802
 31
0.0
 11
-4.3621519712
 21
5.6767519003
 31
0.0
 11
-4.3078842128
 21
5.676283907
 31
0.0
 11
-4.2640643551
 21
5.6755527055
 31
0.0
 11
-4.2346274146
 21
5.6746175679
 31
0.0
  0
ELLIPSE
  5
710
100
AcDbEntity
  8
RACCORDO
100
AcDbEllipse
 62
7
  6
CONTINUOUS
 10
24.5437885344
 20
-8.9922194216
 30
0.0
 11
0.2183310446
 21
0.1221043275
 31
0.0
 40
0.9980297029
 41
-2.0815635429
 42
-0.5109195152
  0
ELLIPSE
  5
711
100
AcDbEntity
  8
RACCORDO
100
AcDbEllipse
 62
7
  6
CONTINUOUS
 10
-24.5291492856
 20
-8.9922194216
 30
0.0
 11
0.2183310446
 21
-0.1221043275
 31
0.0
 40
0.9980297029
 41
-2.6306731384
 42
-1.0600291107
  0
ELLIPSE
  5
712
100
AcDbEntity
  8
RACCORDO
100
AcDbEllipse
 62
7
  6
CONTINUOUS
 10
-24.5356602676
 20
8.9940049606
 30
0.0
 11
-0.1768305473
 21
0.1768305473
 31
0.0
 40
0.9996954599
 41
-0.7852458701
 42
0.7852458701
  0
ELLIPSE
  5
713
100
AcDbEntity
  8
RACCORDO
100
AcDbEllipse
 62
7
  6
CONTINUOUS
 10
24.5502995164
 20
8.9940049606
 30
0.0
 11
-0.1768305473
 21
-0.1768305473
 31
0.0
 40
0.9996954599
 41
2.3563467834
 42
3.9268385237
  0
ELLIPSE
  5
714
100
AcDbEntity
  8
RACCORDO
100
AcDbEllipse
 62
7
  6
CONTINUOUS
 10
-24.7909348691
 20
8.2934690528
 30
0.0
 11
0.0
 21
0.3
 31
0.0
 40
0.0174550649
 41
-3.1241393611
 42
-1.5707963268
  0
ELLIPSE
  5
715
100
AcDbEntity
  8
RACCORDO
100
AcDbEllipse
 62
7
  6
CONTINUOUS
 10
24.8055741179
 20
8.2934690528
 30
0.0
 11
-0.0
 21
0.3
 31
0.0
 40
0.0174550649
 41
-4.7123889804
 42
-3.1590459461
  0
ELLIPSE
  5
716
100
AcDbEntity
  8
DRAFT
100
AcDbEllipse
 62
7
  6
CONTINUOUS
 10
29.7303382287
 20
9.4510250686
 30
0.0
 11
0.0
 21
423.7
 31
0.0
 40
0.0174550649
 41
-4.6945015721
 42
-4.6927481945
  0
ELLIPSE
  5
717
100
AcDbEntity
  8
DRAFT
100
AcDbEllipse
 62
7
  6
CONTINUOUS
 10
29.7303382287
 20
9.4510250686
 30
0.0
 11
0.0
 21
423.7
 31
0.0
 40
0.0174550649
 41
-4.675840257
 42
-4.6741042615
  0
ELLIPSE
  5
718
100
AcDbEntity
  8
RACCORDO
100
AcDbEllipse
 62
7
  6
CONTINUOUS
 10
11.1517560851
 20
9.4510250686
 30
0.0
 11
0.0
 21
423.7
 31
0.0
 40
0.0174550649
 41
-1.6103149114
 42
-1.60848535
  0
ELLIPSE
  5
719
100
AcDbEntity
  8
RACCORDO
100
AcDbEllipse
 62
7
  6
CONTINUOUS
 10
25.0628831638
 20
9.4510250686
 30
0.0
 11
0.0
 21
423.7
 31
0.0
 40
0.0174550649
 41
-4.6746999572
 42
-4.6722996927
  0
ELLIPSE
  5
71A
100
AcDbEntity
  8
RACCORDO
100
AcDbEllipse
 62
7
  6
CONTINUOUS
 10
-0.0482439149
 20
9.4510250686
 30
0.0
 11
0.0
 21
423.7
 31
0.0
 40
0.0174550649
 41
-1.6108856145
 42
-1.60848535
  0
ELLIPSE
  5
71B
100
AcDbEntity
  8
RACCORDO
100
AcDbEllipse
 62
7
  6
CONTINUOUS
 10
13.8628831638
 20
9.4510250686
 30
0.0
 11
0.0
 21
423.7
 31
0.0
 40
0.0174550649
 41
-4.6746999572
 42
-4.6728703958
  0
ELLIPSE
  5
71C
100
AcDbEntity
  8
RACCORDO
100
AcDbEllipse
 62
7
  6
CONTINUOUS
 10
-13.8482439149
 20
9.4510250686
 30
0.0
 11
0.0
 21
423.7
 31
0.0
 40
0.0174550649
 41
-1.6103149114
 42
-1.60848535
  0
ELLIPSE
  5
71D
100
AcDbEntity
  8
RACCORDO
100
AcDbEllipse
 62
7
  6
CONTINUOUS
 10
23.3933098741
 20
-7.8532853633
 30
0.0
 11
-0.0300136675
 21
0.3031910442
 31
0.0
 40
0.9846622838
 41
-3.2387599651
 42
-1.6709942215
  0
ELLIPSE
  5
71E
100
AcDbEntity
  8
RACCORDO
100
AcDbEllipse
 62
7
  6
CONTINUOUS
 10
-23.3786706252
 20
-7.8532853633
 30
0.0
 11
0.0300136675
 21
0.3031910442
 31
0.0
 40
0.9846622838
 41
-4.6121910857
 42
-3.0444253421
  0
ELLIPSE
  5
71F
100
AcDbEntity
  8
RACCORDO
100
AcDbEllipse
 62
7
  6
CONTINUOUS
 10
-19.5374895545
 20
8.0457885491
 30
0.0
 11
0.3
 21
-0.0
 31
0.0
 40
0.0174550649
 41
0.0174532925
 42
1.5707963268
  0
ELLIPSE
  5
720
100
AcDbEntity
  8
RACCORDO
100
AcDbEllipse
 62
7
  6
CONTINUOUS
 10
0.0628831638
 20
9.4510250686
 30
0.0
 11
0.0
 21
423.7
 31
0.0
 40
0.0174550649
 41
-4.6746999572
 42
-4.6728703958
  0
ELLIPSE
  5
721
100
AcDbEntity
  8
RACCORDO
100
AcDbEllipse
 62
7
  6
CONTINUOUS
 10
-25.0482439149
 20
9.4510250686
 30
0.0
 11
0.0
 21
423.7
 31
0.0
 40
0.0174550649
 41
-1.6103149114
 42
-1.60848535
  0
ELLIPSE
  5
722
100
AcDbEntity
  8
RACCORDO
100
AcDbEllipse
 62
7
  6
CONTINUOUS
 10
-11.1371168362
 20
9.4510250686
 30
0.0
 11
0.0
 21
423.7
 31
0.0
 40
0.0174550649
 41
-4.6746999572
 42
-4.6722996927
  0
ELLIPSE
  5
723
100
AcDbEntity
  8
DRAFT
100
AcDbEllipse
 62
7
  6
CONTINUOUS
 10
-29.7156989798
 20
9.4510250686
 30
0.0
 11
0.0
 21
423.7
 31
0.0
 40
0.0174550649
 41
-1.6090810457
 42
-1.6073450502
  0
ELLIPSE
  5
724
100
AcDbEntity
  8
DRAFT
100
AcDbEllipse
 62
7
  6
CONTINUOUS
 10
31.3209910079
 20
9.4510250686
 30
0.0
 11
0.0
 21
423.7
 31
0.0
 40
0.0174550649
 41
-4.6861185815
 42
-4.6805882475
  0
ELLIPSE
  5
725
100
AcDbEntity
  8
DRAFT
100
AcDbEllipse
 62
7
  6
CONTINUOUS
 10
15.5936482409
 20
9.4510250686
 30
0.0
 11
0.0
 21
423.7
 31
0.0
 40
0.0174550649
 41
-1.6025970597
 42
-1.5970667257
  0
ELLIPSE
  5
726
100
AcDbEntity
  8
DRAFT
100
AcDbEllipse
 62
7
  6
CONTINUOUS
 10
-31.3063517591
 20
9.4510250686
 30
0.0
 11
0.0
 21
423.7
 31
0.0
 40
0.0174550649
 41
-1.6025970597
 42
-1.5970667257
  0
ELLIPSE
  5
727
100
AcDbEntity
  8
DRAFT
100
AcDbEllipse
 62
7
  6
CONTINUOUS
 10
-15.5790089921
 20
9.4510250686
 30
0.0
 11
0.0
 21
423.7
 31
0.0
 40
0.0174550649
 41
-4.6861185815
 42
-4.6805882475
  0
ELLIPSE
  5
728
100
AcDbEntity
  8
RACCORDO
100
AcDbEllipse
 62
7
  6
CONTINUOUS
 10
-19.7478711966
 20
8.0457885491
 30
0.0
 11
0.3
 21
-0.0
 31
0.0
 40
0.0174550649
 41
1.5707963268
 42
3.1241393611
  0
ELLIPSE
  5
729
100
AcDbEntity
  8
RACCORDO
100
AcDbEllipse
 62
7
  6
CONTINUOUS
 10
19.5521288034
 20
8.0457885491
 30
0.0
 11
0.3
 21
-0.0
 31
0.0
 40
0.0174550649
 41
1.5707963268
 42
3.1241393611
  0
ELLIPSE
  5
72A
100
AcDbEntity
  8
RACCORDO
100
AcDbEllipse
 62
7
  6
CONTINUOUS
 10
-7.3218211574
 20
-7.2767888365
 30
0.0
 11
-0.0
 21
0.3
 31
0.0
 40
0.0174550649
 41
-4.6728703958
 42
-3.3161255788
  0
ELLIPSE
  5
72B
100
AcDbEntity
  8
RACCORDO
100
AcDbEllipse
 62
7
  6
CONTINUOUS
 10
-6.4635395938
 20
-7.2767888365
 30
0.0
 11
0.0
 21
0.3
 31
0.0
 40
0.0174550649
 41
-2.9670597284
 42
-1.6103149114
  0
ELLIPSE
  5
72C
100
AcDbEntity
  8
RACCORDO
100
AcDbEllipse
 62
7
  6
CONTINUOUS
 10
6.4781788426
 20
-7.2767888365
 30
0.0
 11
-0.0
 21
0.3
 31
0.0
 40
0.0174550649
 41
-4.6728703958
 42
-3.3161255788
  0
ELLIPSE
  5
72D
100
AcDbEntity
  8
RACCORDO
100
AcDbEllipse
 62
7
  6
CONTINUOUS
 10
18.5364604062
 20
-7.2767888365
 30
0.0
 11
-0.0
 21
0.3
 31
0.0
 40
0.0174550649
 41
-2.9670597284
 42
-1.6103149114
  0
ELLIPSE
  5
72E
100
AcDbEntity
  8
RACCORDO
100
AcDbEllipse
 62
7
  6
CONTINUOUS
 10
-17.6635395938
 20
-7.2767888365
 30
0.0
 11
-0.0
 21
0.3
 31
0.0
 40
0.0174550649
 41
-2.9670597284
 42
-1.6103149114
  0
ELLIPSE
  5
72F
100
AcDbEntity
  8
DRAFT
100
AcDbEllipse
 62
7
  6
CONTINUOUS
 10
-29.7156989798
 20
9.4510250686
 30
0.0
 11
0.0
 21
423.7
 31
0.0
 40
0.0174550649
 41
-1.5904371127
 42
-1.588683735
  0
ELLIPSE
  5
730
100
AcDbEntity
  8
RACCORDO
100
AcDbEllipse
 62
7
  6
CONTINUOUS
 10
-22.6723996844
 20
-6.719301321
 30
0.0
 11
0.3
 21
-0.0
 31
0.0
 40
0.0174550649
 41
0.0174532925
 42
1.5707963268
  0
ELLIPSE
  5
731
100
AcDbEntity
  8
RACCORDO
100
AcDbEllipse
 62
7
  6
CONTINUOUS
 10
-22.6723996844
 20
-6.0786485418
 30
0.0
 11
0.3
 21
0.0
 31
0.0
 40
0.0174550649
 41
-1.5707963268
 42
-0.0174532925
  0
ELLIPSE
  5
732
100
AcDbEntity
  8
RACCORDO
100
AcDbEllipse
 62
7
  6
CONTINUOUS
 10
-22.6723996844
 20
1.180698679
 30
0.0
 11
0.3
 21
0.0
 31
0.0
 40
0.0174550649
 41
0.0174532925
 42
1.5707963268
  0
ELLIPSE
  5
733
100
AcDbEntity
  8
RACCORDO
100
AcDbEllipse
 62
7
  6
CONTINUOUS
 10
-22.6723996844
 20
1.8213514582
 30
0.0
 11
0.3
 21
-0.0
 31
0.0
 40
0.0174550649
 41
-1.5707963268
 42
-0.0174532925
  0
ELLIPSE
  5
734
100
AcDbEntity
  8
RACCORDO
100
AcDbEllipse
 62
7
  6
CONTINUOUS
 10
22.6870389332
 20
-6.0786485418
 30
0.0
 11
0.3
 21
-0.0
 31
0.0
 40
0.0174550649
 41
-3.1241393611
 42
-1.5707963268
  0
ELLIPSE
  5
735
100
AcDbEntity
  8
RACCORDO
100
AcDbEllipse
 62
7
  6
CONTINUOUS
 10
22.6870389332
 20
-6.719301321
 30
0.0
 11
0.3
 21
0.0
 31
0.0
 40
0.0174550649
 41
1.5707963268
 42
3.1241393611
  0
ELLIPSE
  5
736
100
AcDbEntity
  8
RACCORDO
100
AcDbEllipse
 62
7
  6
CONTINUOUS
 10
22.6870389332
 20
1.8213514582
 30
0.0
 11
0.3
 21
0.0
 31
0.0
 40
0.0174550649
 41
-3.1241393611
 42
-1.5707963268
  0
ELLIPSE
  5
737
100
AcDbEntity
  8
RACCORDO
100
AcDbEllipse
 62
7
  6
CONTINUOUS
 10
22.6870389332
 20
1.180698679
 30
0.0
 11
0.3
 21
0.0
 31
0.0
 40
0.0174550649
 41
1.5707963268
 42
3.1241393611
  0
ELLIPSE
  5
738
100
AcDbEntity
  8
RACCORDO
100
AcDbEllipse
 62
7
  6
CONTINUOUS
 10
-12.6696617713
 20
9.4510250686
 30
0.0
 11
0.0
 21
423.7
 31
0.0
 40
0.0174550649
 41
-4.7090312901
 42
-4.6981756364
  0
ELLIPSE
  5
739
100
AcDbEntity
  8
RACCORDO
100
AcDbEllipse
 62
7
  6
CONTINUOUS
 10
19.7625104455
 20
8.0457885491
 30
0.0
 11
0.3
 21
0.0
 31
0.0
 40
0.0174550649
 41
0.0174532925
 42
1.5707963268
  0
ELLIPSE
  5
73A
100
AcDbEntity
  8
RACCORDO
100
AcDbEllipse
 62
7
  6
CONTINUOUS
 10
-26.6156989798
 20
9.4510250686
 30
0.0
 11
0.0
 21
423.7
 31
0.0
 40
0.0174550649
 41
-1.5850096708
 42
-1.5741540171
  0
ELLIPSE
  5
73B
100
AcDbEntity
  8
RACCORDO
100
AcDbEllipse
 62
7
  6
CONTINUOUS
 10
26.6303382287
 20
9.4510250686
 30
0.0
 11
0.0
 21
423.7
 31
0.0
 40
0.0174550649
 41
-4.7090312901
 42
-4.6981756364
  0
ELLIPSE
  5
73C
100
AcDbEntity
  8
RACCORDO
100
AcDbEllipse
 62
7
  6
CONTINUOUS
 10
12.6843010202
 20
9.4510250686
 30
0.0
 11
0.0
 21
423.7
 31
0.0
 40
0.0174550649
 41
-1.5850096708
 42
-1.5741540171
  0
ELLIPSE
  5
73D
100
AcDbEntity
  8
RACCORDO
100
AcDbEllipse
 62
7
  6
CONTINUOUS
 10
-3.5326181141
 20
5.6562615881
 30
0.0
 11
0.3
 21
0.0
 31
0.0
 40
0.0174550649
 41
-2.7925268032
 42
-1.5707963268
  0
ELLIPSE
  5
73E
100
AcDbEntity
  8
RACCORDO
100
AcDbEllipse
 62
7
  6
CONTINUOUS
 10
3.547257363
 20
5.6562615881
 30
0.0
 11
0.3
 21
0.0
 31
0.0
 40
0.0174550649
 41
-1.5707963268
 42
-0.3490658504
  0
ELLIPSE
  5
73F
100
AcDbEntity
  8
RACCORDO
100
AcDbEllipse
 62
7
  6
CONTINUOUS
 10
-3.5326181141
 20
4.0457885491
 30
0.0
 11
0.3
 21
-0.0
 31
0.0
 40
0.0174550649
 41
1.5707963268
 42
2.7925268032
  0
ELLIPSE
  5
740
100
AcDbEntity
  8
RACCORDO
100
AcDbEllipse
 62
7
  6
CONTINUOUS
 10
3.547257363
 20
4.0457885491
 30
0.0
 11
0.3
 21
0.0
 31
0.0
 40
0.0174550649
 41
0.3490658504
 42
1.5707963268
  0
ELLIPSE
  5
741
100
AcDbEntity
  8
RACCORDO
100
AcDbEllipse
 62
7
  6
CONTINUOUS
 10
-17.9874895545
 20
-7.8228920835
 30
0.0
 11
0.3
 21
-0.0
 31
0.0
 40
0.1763269807
 41
-1.5707963268
 42
-0.0174532925
  0
ELLIPSE
  5
742
100
AcDbEntity
  8
RACCORDO
100
AcDbEllipse
 62
7
  6
CONTINUOUS
 10
-18.1978711966
 20
-7.8228920835
 30
0.0
 11
0.3
 21
0.0
 31
0.0
 40
0.1763269807
 41
-3.1241393611
 42
-1.5707963268
  0
ELLIPSE
  5
743
100
AcDbEntity
  8
RACCORDO
100
AcDbEllipse
 62
7
  6
CONTINUOUS
 10
18.0021288034
 20
-7.8228920835
 30
0.0
 11
0.3
 21
0.0
 31
0.0
 40
0.1763269807
 41
-3.1241393611
 42
-1.5707963268
  0
ELLIPSE
  5
744
100
AcDbEntity
  8
RACCORDO
100
AcDbEllipse
 62
7
  6
CONTINUOUS
 10
-23.6909348691
 20
8.2934690528
 30
0.0
 11
0.0
 21
0.3
 31
0.0
 40
0.0174550649
 41
-3.1241393611
 42
-1.5707963268
  0
ELLIPSE
  5
745
100
AcDbEntity
  8
RACCORDO
100
AcDbEllipse
 62
7
  6
CONTINUOUS
 10
23.7055741179
 20
8.2934690528
 30
0.0
 11
-0.0
 21
0.3
 31
0.0
 40
0.0174550649
 41
-4.7123889804
 42
-3.1590459461
  0
ELLIPSE
  5
746
100
AcDbEntity
  8
RACCORDO
100
AcDbEllipse
 62
7
  6
CONTINUOUS
 10
-6.7874895545
 20
-7.8228920835
 30
0.0
 11
0.3
 21
0.0
 31
0.0
 40
0.1763269807
 41
-1.5707963268
 42
-0.0174532925
  0
ELLIPSE
  5
747
100
AcDbEntity
  8
RACCORDO
100
AcDbEllipse
 62
7
  6
CONTINUOUS
 10
-6.9978711966
 20
-7.8228920835
 30
0.0
 11
0.3
 21
0.0
 31
0.0
 40
0.1763269807
 41
-3.1241393611
 42
-1.5707963268
  0
ELLIPSE
  5
748
100
AcDbEntity
  8
RACCORDO
100
AcDbEllipse
 62
7
  6
CONTINUOUS
 10
6.8021288034
 20
-7.8228920835
 30
0.0
 11
0.3
 21
0.0
 31
0.0
 40
0.1763269807
 41
-3.1241393611
 42
-1.5707963268
  0
ELLIPSE
  5
749
100
AcDbEntity
  8
RACCORDO
100
AcDbEllipse
 62
7
  6
CONTINUOUS
 10
7.0125104455
 20
-7.8228920835
 30
0.0
 11
0.3
 21
-0.0
 31
0.0
 40
0.1763269807
 41
-1.5707963268
 42
-0.0174532925
  0
ELLIPSE
  5
74A
100
AcDbEntity
  8
RACCORDO
100
AcDbEllipse
 62
7
  6
CONTINUOUS
 10
18.2125104455
 20
-7.8228920835
 30
0.0
 11
0.3
 21
0.0
 31
0.0
 40
0.1763269807
 41
-1.5707963268
 42
-0.0174532925
  0
ELLIPSE
  5
74B
100
AcDbEntity
  8
ASSI
100
AcDbEllipse
 62
7
  6
CONTINUOUS
 10
24.5437885344
 20
-8.9922194216
 30
0.0
 11
0.2183310446
 21
0.1221043275
 31
0.0
 40
0.9980297029
 41
-2.0815635429
 42
-0.5109195152
  0
ELLIPSE
  5
74C
100
AcDbEntity
  8
ASSI
100
AcDbEllipse
 62
7
  6
CONTINUOUS
 10
-24.5291492856
 20
-8.9922194216
 30
0.0
 11
0.2183310446
 21
-0.1221043275
 31
0.0
 40
0.9980297029
 41
-2.6306731384
 42
-1.0600291107
  0
ELLIPSE
  5
74D
100
AcDbEntity
  8
ASSI
100
AcDbEllipse
 62
7
  6
CONTINUOUS
 10
-24.5356602676
 20
8.9940049606
 30
0.0
 11
-0.1768305473
 21
0.1768305473
 31
0.0
 40
0.9996954599
 41
-0.7852458701
 42
0.7852458701
  0
ELLIPSE
  5
74E
100
AcDbEntity
  8
ASSI
100
AcDbEllipse
 62
7
  6
CONTINUOUS
 10
24.5502995164
 20
8.9940049606
 30
0.0
 11
-0.1768305473
 21
-0.1768305473
 31
0.0
 40
0.9996954599
 41
2.3563467834
 42
3.9268385237
  0
ELLIPSE
  5
74F
100
AcDbEntity
  8
ASSI
100
AcDbEllipse
 62
7
  6
CONTINUOUS
 10
-24.7909348691
 20
8.2934690528
 30
0.0
 11
0.0
 21
0.3
 31
0.0
 40
0.0174550649
 41
-3.1241393611
 42
-1.5707963268
  0
ELLIPSE
  5
750
100
AcDbEntity
  8
ASSI
100
AcDbEllipse
 62
7
  6
CONTINUOUS
 10
24.8055741179
 20
8.2934690528
 30
0.0
 11
-0.0
 21
0.3
 31
0.0
 40
0.0174550649
 41
-4.7123889804
 42
-3.1590459461
  0
ELLIPSE
  5
751
100
AcDbEntity
  8
ASSI
100
AcDbEllipse
 62
7
  6
CONTINUOUS
 10
29.7303382287
 20
9.4510250686
 30
0.0
 11
0.0
 21
423.7
 31
0.0
 40
0.0174550649
 41
-4.6945015721
 42
-4.6927481945
  0
ELLIPSE
  5
752
100
AcDbEntity
  8
ASSI
100
AcDbEllipse
 62
7
  6
CONTINUOUS
 10
29.7303382287
 20
9.4510250686
 30
0.0
 11
0.0
 21
423.7
 31
0.0
 40
0.0174550649
 41
-4.675840257
 42
-4.6741042615
  0
ELLIPSE
  5
753
100
AcDbEntity
  8
ASSI
100
AcDbEllipse
 62
7
  6
CONTINUOUS
 10
11.1517560851
 20
9.4510250686
 30
0.0
 11
0.0
 21
423.7
 31
0.0
 40
0.0174550649
 41
-1.6103149114
 42
-1.60848535
  0
ELLIPSE
  5
754
100
AcDbEntity
  8
ASSI
100
AcDbEllipse
 62
7
  6
CONTINUOUS
 10
25.0628831638
 20
9.4510250686
 30
0.0
 11
0.0
 21
423.7
 31
0.0
 40
0.0174550649
 41
-4.6746999572
 42
-4.6722996927
  0
ELLIPSE
  5
755
100
AcDbEntity
  8
ASSI
100
AcDbEllipse
 62
7
  6
CONTINUOUS
 10
-0.0482439149
 20
9.4510250686
 30
0.0
 11
0.0
 21
423.7
 31
0.0
 40
0.0174550649
 41
-1.6108856145
 42
-1.60848535
  0
ELLIPSE
  5
756
100
AcDbEntity
  8
ASSI
100
AcDbEllipse
 62
7
  6
CONTINUOUS
 10
13.8628831638
 20
9.4510250686
 30
0.0
 11
0.0
 21
423.7
 31
0.0
 40
0.0174550649
 41
-4.6746999572
 42
-4.6728703958
  0
ELLIPSE
  5
757
100
AcDbEntity
  8
ASSI
100
AcDbEllipse
 62
7
  6
CONTINUOUS
 10
23.3933098741
 20
-7.8532853633
 30
0.0
 11
-0.0300136675
 21
0.3031910442
 31
0.0
 40
0.9846622838
 41
-3.2387599651
 42
-1.6709942215
  0
ELLIPSE
  5
758
100
AcDbEntity
  8
ASSI
100
AcDbEllipse
 62
7
  6
CONTINUOUS
 10
-23.3786706252
 20
-7.8532853633
 30
0.0
 11
0.0300136675
 21
0.3031910442
 31
0.0
 40
0.9846622838
 41
-4.6121910857
 42
-3.0444253421
  0
ELLIPSE
  5
759
100
AcDbEntity
  8
ASSI
100
AcDbEllipse
 62
7
  6
CONTINUOUS
 10
-19.5374895545
 20
8.0457885491
 30
0.0
 11
0.3
 21
-0.0
 31
0.0
 40
0.0174550649
 41
0.0174532925
 42
1.5707963268
  0
ELLIPSE
  5
75A
100
AcDbEntity
  8
ASSI
100
AcDbEllipse
 62
7
  6
CONTINUOUS
 10
-13.8482439149
 20
9.4510250686
 30
0.0
 11
0.0
 21
423.7
 31
0.0
 40
0.0174550649
 41
-1.6103149114
 42
-1.60848535
  0
ELLIPSE
  5
75B
100
AcDbEntity
  8
ASSI
100
AcDbEllipse
 62
7
  6
CONTINUOUS
 10
0.0628831638
 20
9.4510250686
 30
0.0
 11
0.0
 21
423.7
 31
0.0
 40
0.0174550649
 41
-4.6746999572
 42
-4.6728703958
  0
ELLIPSE
  5
75C
100
AcDbEntity
  8
ASSI
100
AcDbEllipse
 62
7
  6
CONTINUOUS
 10
-25.0482439149
 20
9.4510250686
 30
0.0
 11
0.0
 21
423.7
 31
0.0
 40
0.0174550649
 41
-1.6103149114
 42
-1.60848535
  0
ELLIPSE
  5
75D
100
AcDbEntity
  8
ASSI
100
AcDbEllipse
 62
7
  6
CONTINUOUS
 10
-11.1371168362
 20
9.4510250686
 30
0.0
 11
0.0
 21
423.7
 31
0.0
 40
0.0174550649
 41
-4.6746999572
 42
-4.6722996927
  0
ELLIPSE
  5
75E
100
AcDbEntity
  8
ASSI
100
AcDbEllipse
 62
7
  6
CONTINUOUS
 10
31.3209910079
 20
9.4510250686
 30
0.0
 11
0.0
 21
423.7
 31
0.0
 40
0.0174550649
 41
-4.6861185815
 42
-4.6805882475
  0
ELLIPSE
  5
75F
100
AcDbEntity
  8
ASSI
100
AcDbEllipse
 62
7
  6
CONTINUOUS
 10
15.5936482409
 20
9.4510250686
 30
0.0
 11
0.0
 21
423.7
 31
0.0
 40
0.0174550649
 41
-1.6025970597
 42
-1.5970667257
  0
ELLIPSE
  5
760
100
AcDbEntity
  8
ASSI
100
AcDbEllipse
 62
7
  6
CONTINUOUS
 10
-31.3063517591
 20
9.4510250686
 30
0.0
 11
0.0
 21
423.7
 31
0.0
 40
0.0174550649
 41
-1.6025970597
 42
-1.5970667257
  0
ELLIPSE
  5
761
100
AcDbEntity
  8
ASSI
100
AcDbEllipse
 62
7
  6
CONTINUOUS
 10
-15.5790089921
 20
9.4510250686
 30
0.0
 11
0.0
 21
423.7
 31
0.0
 40
0.0174550649
 41
-4.6861185815
 42
-4.6805882475
  0
ELLIPSE
  5
762
100
AcDbEntity
  8
ASSI
100
AcDbEllipse
 62
7
  6
CONTINUOUS
 10
-29.7156989798
 20
9.4510250686
 30
0.0
 11
0.0
 21
423.7
 31
0.0
 40
0.0174550649
 41
-1.6090810457
 42
-1.6073450502
  0
ELLIPSE
  5
763
100
AcDbEntity
  8
ASSI
100
AcDbEllipse
 62
7
  6
CONTINUOUS
 10
-19.7478711966
 20
8.0457885491
 30
0.0
 11
0.3
 21
-0.0
 31
0.0
 40
0.0174550649
 41
1.5707963268
 42
3.1241393611
  0
ELLIPSE
  5
764
100
AcDbEntity
  8
ASSI
100
AcDbEllipse
 62
7
  6
CONTINUOUS
 10
-7.3218211574
 20
-7.2767888365
 30
0.0
 11
-0.0
 21
0.3
 31
0.0
 40
0.0174550649
 41
-4.6728703958
 42
-3.3161255788
  0
ELLIPSE
  5
765
100
AcDbEntity
  8
ASSI
100
AcDbEllipse
 62
7
  6
CONTINUOUS
 10
-6.4635395938
 20
-7.2767888365
 30
0.0
 11
0.0
 21
0.3
 31
0.0
 40
0.0174550649
 41
-2.9670597284
 42
-1.6103149114
  0
ELLIPSE
  5
766
100
AcDbEntity
  8
ASSI
100
AcDbEllipse
 62
7
  6
CONTINUOUS
 10
6.4781788426
 20
-7.2767888365
 30
0.0
 11
-0.0
 21
0.3
 31
0.0
 40
0.0174550649
 41
-4.6728703958
 42
-3.3161255788
  0
ELLIPSE
  5
767
100
AcDbEntity
  8
ASSI
100
AcDbEllipse
 62
7
  6
CONTINUOUS
 10
18.5364604062
 20
-7.2767888365
 30
0.0
 11
-0.0
 21
0.3
 31
0.0
 40
0.0174550649
 41
-2.9670597284
 42
-1.6103149114
  0
ELLIPSE
  5
768
100
AcDbEntity
  8
ASSI
100
AcDbEllipse
 62
7
  6
CONTINUOUS
 10
-17.6635395938
 20
-7.2767888365
 30
0.0
 11
-0.0
 21
0.3
 31
0.0
 40
0.0174550649
 41
-2.9670597284
 42
-1.6103149114
  0
ELLIPSE
  5
769
100
AcDbEntity
  8
ASSI
100
AcDbEllipse
 62
7
  6
CONTINUOUS
 10
-29.7156989798
 20
9.4510250686
 30
0.0
 11
0.0
 21
423.7
 31
0.0
 40
0.0174550649
 41
-1.5904371127
 42
-1.588683735
  0
ELLIPSE
  5
76A
100
AcDbEntity
  8
ASSI
100
AcDbEllipse
 62
7
  6
CONTINUOUS
 10
-22.6723996844
 20
-6.719301321
 30
0.0
 11
0.3
 21
-0.0
 31
0.0
 40
0.0174550649
 41
0.0174532925
 42
1.5707963268
  0
ELLIPSE
  5
76B
100
AcDbEntity
  8
ASSI
100
AcDbEllipse
 62
7
  6
CONTINUOUS
 10
-22.6723996844
 20
-6.0786485418
 30
0.0
 11
0.3
 21
0.0
 31
0.0
 40
0.0174550649
 41
-1.5707963268
 42
-0.0174532925
  0
ELLIPSE
  5
76C
100
AcDbEntity
  8
ASSI
100
AcDbEllipse
 62
7
  6
CONTINUOUS
 10
-22.6723996844
 20
1.180698679
 30
0.0
 11
0.3
 21
0.0
 31
0.0
 40
0.0174550649
 41
0.0174532925
 42
1.5707963268
  0
ELLIPSE
  5
76D
100
AcDbEntity
  8
ASSI
100
AcDbEllipse
 62
7
  6
CONTINUOUS
 10
-22.6723996844
 20
1.8213514582
 30
0.0
 11
0.3
 21
-0.0
 31
0.0
 40
0.0174550649
 41
-1.5707963268
 42
-0.0174532925
  0
ELLIPSE
  5
76E
100
AcDbEntity
  8
ASSI
100
AcDbEllipse
 62
7
  6
CONTINUOUS
 10
22.6870389332
 20
-6.0786485418
 30
0.0
 11
0.3
 21
-0.0
 31
0.0
 40
0.0174550649
 41
-3.1241393611
 42
-1.5707963268
  0
ELLIPSE
  5
76F
100
AcDbEntity
  8
ASSI
100
AcDbEllipse
 62
7
  6
CONTINUOUS
 10
22.6870389332
 20
-6.719301321
 30
0.0
 11
0.3
 21
0.0
 31
0.0
 40
0.0174550649
 41
1.5707963268
 42
3.1241393611
  0
ELLIPSE
  5
770
100
AcDbEntity
  8
ASSI
100
AcDbEllipse
 62
7
  6
CONTINUOUS
 10
22.6870389332
 20
1.8213514582
 30
0.0
 11
0.3
 21
0.0
 31
0.0
 40
0.0174550649
 41
-3.1241393611
 42
-1.5707963268
  0
ELLIPSE
  5
771
100
AcDbEntity
  8
ASSI
100
AcDbEllipse
 62
7
  6
CONTINUOUS
 10
22.6870389332
 20
1.180698679
 30
0.0
 11
0.3
 21
0.0
 31
0.0
 40
0.0174550649
 41
1.5707963268
 42
3.1241393611
  0
ELLIPSE
  5
772
100
AcDbEntity
  8
ASSI
100
AcDbEllipse
 62
7
  6
CONTINUOUS
 10
19.5521288034
 20
8.0457885491
 30
0.0
 11
0.3
 21
-0.0
 31
0.0
 40
0.0174550649
 41
1.5707963268
 42
3.1241393611
  0
ELLIPSE
  5
773
100
AcDbEntity
  8
ASSI
100
AcDbEllipse
 62
7
  6
CONTINUOUS
 10
19.7625104455
 20
8.0457885491
 30
0.0
 11
0.3
 21
0.0
 31
0.0
 40
0.0174550649
 41
0.0174532925
 42
1.5707963268
  0
ELLIPSE
  5
774
100
AcDbEntity
  8
ASSI
100
AcDbEllipse
 62
7
  6
CONTINUOUS
 10
-12.6696617713
 20
9.4510250686
 30
0.0
 11
0.0
 21
423.7
 31
0.0
 40
0.0174550649
 41
-4.7090312901
 42
-4.6981756364
  0
ELLIPSE
  5
775
100
AcDbEntity
  8
ASSI
100
AcDbEllipse
 62
7
  6
CONTINUOUS
 10
-26.6156989798
 20
9.4510250686
 30
0.0
 11
0.0
 21
423.7
 31
0.0
 40
0.0174550649
 41
-1.5850096708
 42
-1.5741540171
  0
ELLIPSE
  5
776
100
AcDbEntity
  8
ASSI
100
AcDbEllipse
 62
7
  6
CONTINUOUS
 10
26.6303382287
 20
9.4510250686
 30
0.0
 11
0.0
 21
423.7
 31
0.0
 40
0.0174550649
 41
-4.7090312901
 42
-4.6981756364
  0
ELLIPSE
  5
777
100
AcDbEntity
  8
ASSI
100
AcDbEllipse
 62
7
  6
CONTINUOUS
 10
12.6843010202
 20
9.4510250686
 30
0.0
 11
0.0
 21
423.7
 31
0.0
 40
0.0174550649
 41
-1.5850096708
 42
-1.5741540171
  0
ELLIPSE
  5
778
100
AcDbEntity
  8
ASSI
100
AcDbEllipse
 62
7
  6
CONTINUOUS
 10
-3.5326181141
 20
5.6562615881
 30
0.0
 11
0.3
 21
0.0
 31
0.0
 40
0.0174550649
 41
-2.7925268032
 42
-1.5707963268
  0
ELLIPSE
  5
779
100
AcDbEntity
  8
ASSI
100
AcDbEllipse
 62
7
  6
CONTINUOUS
 10
3.547257363
 20
5.6562615881
 30
0.0
 11
0.3
 21
0.0
 31
0.0
 40
0.0174550649
 41
-1.5707963268
 42
-0.3490658504
  0
ELLIPSE
  5
77A
100
AcDbEntity
  8
ASSI
100
AcDbEllipse
 62
7
  6
CONTINUOUS
 10
-3.5326181141
 20
4.0457885491
 30
0.0
 11
0.3
 21
-0.0
 31
0.0
 40
0.0174550649
 41
1.5707963268
 42
2.7925268032
  0
ELLIPSE
  5
77B
100
AcDbEntity
  8
ASSI
100
AcDbEllipse
 62
7
  6
CONTINUOUS
 10
3.547257363
 20
4.0457885491
 30
0.0
 11
0.3
 21
0.0
 31
0.0
 40
0.0174550649
 41
0.3490658504
 42
1.5707963268
  0
ELLIPSE
  5
77C
100
AcDbEntity
  8
ASSI
100
AcDbEllipse
 62
7
  6
CONTINUOUS
 10
-17.9874895545
 20
-7.8228920835
 30
0.0
 11
0.3
 21
-0.0
 31
0.0
 40
0.1763269807
 41
-1.5707963268
 42
-0.0174532925
  0
ELLIPSE
  5
77D
100
AcDbEntity
  8
ASSI
100
AcDbEllipse
 62
7
  6
CONTINUOUS
 10
-18.1978711966
 20
-7.8228920835
 30
0.0
 11
0.3
 21
0.0
 31
0.0
 40
0.1763269807
 41
-3.1241393611
 42
-1.5707963268
  0
ELLIPSE
  5
77E
100
AcDbEntity
  8
ASSI
100
AcDbEllipse
 62
7
  6
CONTINUOUS
 10
-23.6909348691
 20
8.2934690528
 30
0.0
 11
0.0
 21
0.3
 31
0.0
 40
0.0174550649
 41
-3.1241393611
 42
-1.5707963268
  0
ELLIPSE
  5
77F
100
AcDbEntity
  8
ASSI
100
AcDbEllipse
 62
7
  6
CONTINUOUS
 10
23.7055741179
 20
8.2934690528
 30
0.0
 11
-0.0
 21
0.3
 31
0.0
 40
0.0174550649
 41
-4.7123889804
 42
-3.1590459461
  0
ELLIPSE
  5
780
100
AcDbEntity
  8
ASSI
100
AcDbEllipse
 62
7
  6
CONTINUOUS
 10
-6.7874895545
 20
-7.8228920835
 30
0.0
 11
0.3
 21
0.0
 31
0.0
 40
0.1763269807
 41
-1.5707963268
 42
-0.0174532925
  0
ELLIPSE
  5
781
100
AcDbEntity
  8
ASSI
100
AcDbEllipse
 62
7
  6
CONTINUOUS
 10
-6.9978711966
 20
-7.8228920835
 30
0.0
 11
0.3
 21
0.0
 31
0.0
 40
0.1763269807
 41
-3.1241393611
 42
-1.5707963268
  0
ELLIPSE
  5
782
100
AcDbEntity
  8
ASSI
100
AcDbEllipse
 62
7
  6
CONTINUOUS
 10
6.8021288034
 20
-7.8228920835
 30
0.0
 11
0.3
 21
0.0
 31
0.0
 40
0.1763269807
 41
-3.1241393611
 42
-1.5707963268
  0
ELLIPSE
  5
783
100
AcDbEntity
  8
ASSI
100
AcDbEllipse
 62
7
  6
CONTINUOUS
 10
7.0125104455
 20
-7.8228920835
 30
0.0
 11
0.3
 21
-0.0
 31
0.0
 40
0.1763269807
 41
-1.5707963268
 42
-0.0174532925
  0
ELLIPSE
  5
784
100
AcDbEntity
  8
ASSI
100
AcDbEllipse
 62
7
  6
CONTINUOUS
 10
18.2125104455
 20
-7.8228920835
 30
0.0
 11
0.3
 21
0.0
 31
0.0
 40
0.1763269807
 41
-1.5707963268
 42
-0.0174532925
  0
ELLIPSE
  5
785
100
AcDbEntity
  8
ASSI
100
AcDbEllipse
 62
7
  6
CONTINUOUS
 10
18.0021288034
 20
-7.8228920835
 30
0.0
 11
0.3
 21
0.0
 31
0.0
 40
0.1763269807
 41
-3.1241393611
 42
-1.5707963268
  0
ENDSEC
  0
SECTION
  2
OBJECTS
  0
DICTIONARY
  5
C
100
AcDbDictionary
280
0
281
1
  3
ACAD_GROUP
350
D
  3
ACAD_MLINESTYLE
350
17
  3
ACAD_LAYOUT
350
1A
  3
ACAD_PLOTSETTINGS
350
19
  3
ACAD_PLOTSTYLENAME
350
E
  0
DICTIONARY
  5
D
102
{ACAD_REACTORS
330
C
102
}
100
AcDbDictionary
280
0
281
1
  0
ACDBDICTIONARYWDFLT
  5
E
102
{ACAD_REACTORS
330
C
102
}
100
AcDbDictionary
281
1
  3
Normal
350
F
100
AcDbDictionaryWithDefault
340
F
  0
DICTIONARY
  5
17
102
{ACAD_REACTORS
330
C
102
}
100
AcDbDictionary
280
0
281
1
  3
Standard
350
18
  0
DICTIONARY
  5
19
102
{ACAD_REACTORS
330
C
102
}
100
AcDbDictionary
281
1
  0
DICTIONARY
  5
1A
102
{ACAD_REACTORS
330
C
102
}
100
AcDbDictionary
281
1
  3
Model
350
786
  3
Layout1
350
787
  0
ACDBPLACEHOLDER
  5
F
102
{ACAD_REACTORS
330
E
102
}
  0
MLINESTYLE
  5
18
102
{ACAD_REACTORS
330
17
102
}
100
AcDbMlineStyle
  2
STANDARD
 70
0
  3

 62
256
 51
90.0
 52
90.0
 71
2
 49
0.5
 62
256
  6
BYLAYER
 49
-0.5
 62
256
  6
BYLAYER
  0
LAYOUT
  5
786
102
{ACAD_REACTORS
330
1A
102
}
100
AcDbPlotSettings
  1

  2
none_device
  4
ISO_A4_(297.00_x_210.00_MM)
  6

 40
0.0
 41
0.0
 42
0.0
 43
0.0
 44
297.0
 45
210.0
 46
0.0
 47
0.0
 48
0.0
 49
0.0
140
0.0
141
0.0
142
1.0
143
1.0
 70
1024
 72
1
 73
0
 74
0
  7

 75
0
147
1.0
148
0.0
149
0.0
100
AcDbLayout
  1
Model
 70
0
 71
0
 10
0.0
 20
0.0
 11
297.0
 21
210.0
 12
0.0
 22
0.0
 32
0.0
 14
0.0
 24
0.0
 34
0.0
 15
0.0
 25
0.0
 35
0.0
146
0.0
 13
0.0
 23
0.0
 33
0.0
 16
1.0
 26
0.0
 36
0.0
 17
0.0
 27
1.0
 37
0.0
 76
0
330
211
345
0
346
0
  0
LAYOUT
  5
787
102
{ACAD_REACTORS
330
1A
102
}
100
AcDbPlotSettings
  1

  2
none_device
  4
ISO_A4_(297.00_x_210.00_MM)
  6

 40
0.0
 41
0.0
 42
0.0
 43
0.0
 44
297.0
 45
210.0
 46
0.0
 47
0.0
 48
0.0
 49
0.0
140
0.0
141
0.0
142
1.0
143
1.0
 70
0
 72
1
 73
0
 74
0
  7

 75
0
147
1.0
148
0.0
149
0.0
100
AcDbLayout
  1
Layout1
 70
0
 71
1
 10
0.0
 20
0.0
 11
297.0
 21
210.0
 12
0.0
 22
0.0
 32
0.0
 14
0.0
 24
0.0
 34
0.0
 15
0.0
 25
0.0
 35
0.0
146
0.0
 13
0.0
 23
0.0
 33
0.0
 16
1.0
 26
0.0
 36
0.0
 17
0.0
 27
1.0
 37
0.0
 76
0
330
212
345
0
346
0
  0
ENDSEC
  0
EOF
