  0
SECTION
  2
HEADER
  9
$ACADVER
  1
AC1015
  9
$DWGCODEPAGE
  3
ANSI_1252
  9
$EXTMAX
 10
297.0
 20
210.0
 30
0.0
  9
$EXTMIN
 10
0.0
 20
0.0
 30
0.0
  9
$LIMMIN
 10
0.0
 20
0.0
  9
$LIMMAX
 10
297.0
 20
210.0
  9
$VIEWCTR
 10
148.5
 20
105.0
  9
$VIEWSIZE
 40
210.0
  9
$CLAYER
  8
0
  9
$LTSCALE
 40
16.335
  9
$CELTYPE
  6
BYLAYER
  9
$DIMSCALE
 40
1.0
  9
$DIMASZ
 40
3.0
  9
$DIMEXO
 40
1.85625
  9
$DIMDLI
 40
11.286
  9
$DIMEXE
 40
5.346
  9
$DIMCEN
 40
2.673
  9
$DIMLFAC
 40
1.0
  9
$DIMBLK
  1
_FILLED
  9
$DIMTXT
 40
3.0
  9
$DIMTOL
 70
1
  9
$DIMLIM
 70
0
  9
$DIMTFAC
 40
1.0
  9
$DIMTP
 40
0.01
  9
$DIMTM
 40
0.01
  9
$PDMODE
 70
3
  9
$PDSIZE
 40
3.0
  9
$HANDSEED
  5
788
  9
$TILEMODE
 70
1
  9
$MEASUREMENT
 70
1
  9
$INSUNITS
 70
4
  0
ENDSEC
  0
SECTION
  2
CLASSES
  0
CLASS
  1
ACDBDICTIONARYWDFLT
  2
AcDbDictionaryWithDefault
  3
AutoCAD 2000
 90
0
280
0
281
0
  0
CLASS
  1
ACDBPLACEHOLDER
  2
AcDbPlaceHolder
  3
AutoCAD 2000
 90
0
280
0
281
0
  0
CLASS
  1
LAYOUT
  2
AcDbLayout
  3
AutoCAD 2000
 90
0
280
0
281
0
  0
ENDSEC
  0
SECTION
  2
TABLES
  0
TABLE
  2
VPORT
  5
8
100
AcDbSymbolTable
 70
2
  0
VPORT
  5
1F4
100
AcDbSymbolTableRecord
100
AcDbViewportTableRecord
  2
*ACTIVE
 70
0
 10
0.0
 20
0.0
 11
1.0
 21
1.0
 12
148.5
 22
105.0
 13
0.0
 23
0.0
 14
1.0
 24
1.0
 15
0.0
 25
0.0
 16
0.0
 26
0.0
 36
1.0
 17
0.0
 27
0.0
 37
0.0
 40
210.0
 41
1.4142857143
 42
50.0
 43
0.0
 44
0.0
 50
0.0
 51
0.0
 71
0
 72
100
 73
1
 74
1
 75
0
 76
0
 77
0
 78
0
  0
ENDTAB
  0
TABLE
  2
LTYPE
  5
5
100
AcDbSymbolTable
 70
6
  0
LTYPE
  5
14
100
AcDbSymbolTableRecord
100
AcDbLinetypeTableRecord
  2
BYBLOCK
 70
0
  3

 72
65
 73
0
 40
0.0
  0
LTYPE
  5
15
100
AcDbSymbolTableRecord
100
AcDbLinetypeTableRecord
  2
BYLAYER
 70
0
  3

 72
65
 73
0
 40
0.0
  0
LTYPE
  5
16
100
AcDbSymbolTableRecord
100
AcDbLinetypeTableRecord
  2
CONTINUOUS
 70
64
  3
Solid line
 72
65
 73
0
 40
0.0
  0
LTYPE
  5
1F5
100
AcDbSymbolTableRecord
100
AcDbLinetypeTableRecord
  2
CENTER
 70
64
  3
____ _ ____ _ ____ _ ____ _ ____ _ ____ _ ____
 72
65
 73
4
 40
0.6
 49
0.375
 74
0
 49
-0.075
 74
0
 49
0.075
 74
0
 49
-0.075
 74
0
  0
LTYPE
  5
1F6
100
AcDbSymbolTableRecord
100
AcDbLinetypeTableRecord
  2
HIDDEN
 70
64
  3
- - - - - - - - - - - - - - - - - - - -
 72
65
 73
2
 40
0.2
 49
0.1
 74
0
 49
-0.1
 74
0
  0
LTYPE
  5
1F7
100
AcDbSymbolTableRecord
100
AcDbLinetypeTableRecord
  2
PHANTOM
 70
64
  3
_____ _ _ _____ _ _ _____ _ _ _____
 72
65
 73
6
 40
0.8
 49
0.45
 74
0
 49
-0.05
 74
0
 49
0.1
 74
0
 49
-0.05
 74
0
 49
0.1
 74
0
 49
-0.05
 74
0
  0
LTYPE
  5
1F8
100
AcDbSymbolTableRecord
100
AcDbLinetypeTableRecord
  2
DOT
 70
64
  3
. . . . . . . . . . . . . . . . . . . .
 72
65
 73
2
 40
0.2
 49
0.1
 74
0
 49
-0.1
 74
0
  0
LTYPE
  5
1F9
100
AcDbSymbolTableRecord
100
AcDbLinetypeTableRecord
  2
DASHED
 70
64
  3
- - - - - - - - - - - - - - - - - - - -
 72
65
 73
2
 40
0.2
 49
0.1
 74
0
 49
-0.1
 74
0
  0
ENDTAB
  0
TABLE
  2
LAYER
  5
2
100
AcDbSymbolTable
 70
36
  0
LAYER
  5
10
100
AcDbSymbolTableRecord
100
AcDbLayerTableRecord
  2
0
 70
0
 62
7
  6
CONTINUOUS
370
-3
390
F
  0
LAYER
  5
1FA
100
AcDbSymbolTableRecord
100
AcDbLayerTableRecord
  2
DEFAULT_1
 70
0
 62
7
  6
CENTER
370
-3
390
F
  0
LAYER
  5
1FB
100
AcDbSymbolTableRecord
100
AcDbLayerTableRecord
  2
DEFAULT_2
 70
0
 62
7
  6
HIDDEN
370
-3
390
F
  0
LAYER
  5
1FC
100
AcDbSymbolTableRecord
100
AcDbLayerTableRecord
  2
DEFAULT_3
 70
0
 62
7
  6
PHANTOM
370
-3
390
F
  0
LAYER
  5
1FD
100
AcDbSymbolTableRecord
100
AcDbLayerTableRecord
  2
ASSI
 70
0
 62
7
  6
CONTINUOUS
370
-3
390
F
  0
LAYER
  5
1FE
100
AcDbSymbolTableRecord
100
AcDbLayerTableRecord
  2
COORDINATE
 70
0
 62
7
  6
CONTINUOUS
370
-3
390
F
  0
LAYER
  5
1FF
100
AcDbSymbolTableRecord
100
AcDbLayerTableRecord
  2
COORD_ORIGINE
 70
0
 62
7
  6
CONTINUOUS
370
-3
390
F
  0
LAYER
  5
200
100
AcDbSymbolTableRecord
100
AcDbLayerTableRecord
  2
COPY_PUBLISH
 70
0
 62
7
  6
CONTINUOUS
370
-3
390
F
  0
LAYER
  5
201
100
AcDbSymbolTableRecord
100
AcDbLayerTableRecord
  2
COSMETIC
 70
0
 62
7
  6
CONTINUOUS
370
-3
390
F
  0
LAYER
  5
202
100
AcDbSymbolTableRecord
100
AcDbLayerTableRecord
  2
CURVE
 70
0
 62
7
  6
CONTINUOUS
370
-3
390
F
  0
LAYER
  5
203
100
AcDbSymbolTableRecord
100
AcDbLayerTableRecord
  2
DRAFT
 70
0
 62
7
  6
CONTINUOUS
370
-3
390
F
  0
LAYER
  5
204
100
AcDbSymbolTableRecord
100
AcDbLayerTableRecord
  2
IGES
 70
0
 62
7
  6
CONTINUOUS
370
-3
390
F
  0
LAYER
  5
205
100
AcDbSymbolTableRecord
100
AcDbLayerTableRecord
  2
IMPORT_IGES
 70
0
 62
7
  6
CONTINUOUS
370
-3
390
F
  0
LAYER
  5
206
100
AcDbSymbolTableRecord
100
AcDbLayerTableRecord
  2
INTF_12
 70
0
 62
7
  6
CONTINUOUS
370
-3
390
F
  0
LAYER
  5
207
100
AcDbSymbolTableRecord
100
AcDbLayerTableRecord
  2
NOTE
 70
0
 62
7
  6
CONTINUOUS
370
-3
390
F
  0
LAYER
  5
208
100
AcDbSymbolTableRecord
100
AcDbLayerTableRecord
  2
PIANI
 70
0
 62
7
  6
CONTINUOUS
370
-3
390
F
  0
LAYER
  5
209
100
AcDbSymbolTableRecord
100
AcDbLayerTableRecord
  2
PIANI_ORIGINE
 70
0
 62
7
  6
CONTINUOUS
370
-3
390
F
  0
LAYER
  5
20A
100
AcDbSymbolTableRecord
100
AcDbLayerTableRecord
  2
RACCORDO
 70
0
 62
7
  6
CONTINUOUS
370
-3
390
F
  0
LAYER
  5
20B
100
AcDbSymbolTableRecord
100
AcDbLayerTableRecord
  2
SMUSSO
 70
0
 62
7
  6
CONTINUOUS
370
-3
390
F
  0
LAYER
  5
20C
100
AcDbSymbolTableRecord
100
AcDbLayerTableRecord
  2
SNAPLINE
 70
0
 62
7
  6
CONTINUOUS
370
-3
390
F
  0
LAYER
  5
20D
100
AcDbSymbolTableRecord
100
AcDbLayerTableRecord
  2
SUPERFICI
 70
0
 62
7
  6
CONTINUOUS
370
-3
390
F
  0
LAYER
  5
20E
100
AcDbSymbolTableRecord
100
AcDbLayerTableRecord
  2
TRASH
 70
0
 62
7
  6
CONTINUOUS
370
-3
390
F
  0
ENDTAB
  0
TABLE
  2
STYLE
  5
3
100
AcDbSymbolTable
 70
1
  0
STYLE
  5
11
100
AcDbSymbolTableRecord
100
AcDbTextStyleTableRecord
  2
STANDARD
 70
0
 40
0.0
 41
0.8
 50
0.0
 71
0
 42
0.2
  3
txt
  4

  0
STYLE
  5
20F
100
AcDbSymbolTableRecord
100
AcDbTextStyleTableRecord
  2
TEXTSTYLE_1
 70
0
 40
0.0
 41
0.8
 50
0.0
 71
0
 42
0.2
  3
gdt
  4

  0
ENDTAB
  0
TABLE
  2
VIEW
  5
6
100
AcDbSymbolTable
 70
0
  0
ENDTAB
  0
TABLE
  2
UCS
  5
7
100
AcDbSymbolTable
 70
0
  0
ENDTAB
  0
TABLE
  2
APPID
  5
9
100
AcDbSymbolTable
 70
1
  0
APPID
  5
210
100
AcDbSymbolTableRecord
100
AcDbRegAppTableRecord
  2
ACAD
 70
0
  0
ENDTAB
  0
TABLE
  2
BLOCK_RECORD
  5
1
100
AcDbSymbolTable
 70
0
  0
BLOCK_RECORD
  5
211
100
AcDbSymbolTableRecord
100
AcDbBlockTableRecord
  2
*Model_Space
  0
BLOCK_RECORD
  5
212
100
AcDbSymbolTableRecord
100
AcDbBlockTableRecord
  2
*Paper_Space
  0
ENDTAB
  0
TABLE
  2
DIMSTYLE
  5
A
100
AcDbSymbolTable
 70
1
100
AcDbDimStyleTable
 71
0
  0
DIMSTYLE
105
213
100
AcDbSymbolTableRecord
100
AcDbDimStyleTableRecord
  2
STANDARD
 70
0
  3

  4

 40
1.0
 41
3.0
 42
0.0625
 43
0.38
 44
0.18
 45
0.0
 46
0.0
 47
0.01
 48
0.01
140
3.0
141
0.09
142
0.0
143
25.4
144
1.0
145
0.0
146
1.0
147
0.09
 71
1.0
 72
0.0
 73
0
 74
0
 75
0
 76
0
 77
1
 78
8
170
0
171
2
172
0
173
0
174
0
175
0
176
0
177
0
178
0
270
2
271
2
272
2
273
2
274
2
275
0
280
0
281
0
282
0
283
1
284
8
285
0
286
0
287
3
288
0
340
11
  0
ENDTAB
  0
ENDSEC
  0
SECTION
  2
BLOCKS
  0
BLOCK
  5
20
100
AcDbEntity
  8
0
100
AcDbBlockBegin
  2
*Model_Space
 70
0
 10
0.0
 20
0.0
 30
0.0
  3
*Model_Space
  1

  0
ENDBLK
  5
21
100
AcDbEntity
  8
0
100
AcDbBlockEnd
  0
BLOCK
  5
1C
100
AcDbEntity
  8
0
100
AcDbBlockBegin
  2
*Paper_Space
 70
0
 10
0.0
 20
0.0
 30
0.0
  3
*Paper_Space
  1

  0
ENDBLK
  5
1D
100
AcDbEntity
  8
0
100
AcDbBlockEnd
  0
ENDSEC
  0
SECTION
  2
ENTITIES
  0
LINE
  5
214
100
AcDbEntity
  8
RACCORDO
100
AcDbLine
 62
7
  6
CONTINUOUS
 10
-24.8483953587
 20
-9.2428015186
 11
-24.8618884364
 21
-1.8880274237
  0
LINE
  5
215
100
AcDbEntity
  8
ASSI
100
AcDbLine
 62
7
  6
CONTINUOUS
 10
-24.8483953587
 20
-9.2428015186
 11
-24.8618884364
 21
-1.8880274237
  0
LINE
  5
216
100
AcDbEntity
  8
DRAFT
100
AcDbLine
 62
7
  6
CONTINUOUS
 10
-24.8618884364
 20
7.7411337922
 11
-24.8618884364
 21
-1.8880274237
  0
LINE
  5
217
100
AcDbEntity
  8
ASSI
100
AcDbLine
 62
7
  6
CONTINUOUS
 10
-24.8618884364
 20
7.7411337922
 11
-24.8618884364
 21
-1.8880274237
  0
LINE
  5
218
100
AcDbEntity
  8
RACCORDO
100
AcDbLine
 62
7
  6
CONTINUOUS
 10
-24.8549064105
 20
8.0429249971
 11
-24.8549064105
 21
8.7435370631
  0
LINE
  5
219
100
AcDbEntity
  8
ASSI
100
AcDbLine
 62
7
  6
CONTINUOUS
 10
-24.8549064105
 20
8.0429249971
 11
-24.8549064105
 21
8.7435370631
  0
LINE
  5
21A
100
AcDbEntity
  8
DRAFT
100
AcDbLine
 62
7
  6
CONTINUOUS
 10
-23.747926217
 20
-9.4975203649
 11
-23.7573808514
 21
-4.345011402
  0
LINE
  5
21B
100
AcDbEntity
  8
ASSI
100
AcDbLine
 62
7
  6
CONTINUOUS
 10
-23.747926217
 20
-9.4975203649
 11
-23.7573808514
 21
-4.345011402
  0
LINE
  5
21C
100
AcDbEntity
  8
DRAFT
100
AcDbLine
 62
7
  6
CONTINUOUS
 10
-24.0573808506
 20
-4.3450114012
 11
-24.0618884364
 21
-1.8495189871
  0
LINE
  5
21D
100
AcDbEntity
  8
ASSI
100
AcDbLine
 62
7
  6
CONTINUOUS
 10
-24.0573808506
 20
-4.3450114012
 11
-24.0618884364
 21
-1.8495189871
  0
LINE
  5
21E
100
AcDbEntity
  8
DRAFT
100
AcDbLine
 62
7
  6
CONTINUOUS
 10
-23.7618884364
 20
7.7411337922
 11
-23.7618884364
 21
-1.8495189871
  0
LINE
  5
21F
100
AcDbEntity
  8
ASSI
100
AcDbLine
 62
7
  6
CONTINUOUS
 10
-23.7618884364
 20
7.7411337922
 11
-23.7618884364
 21
-1.8495189871
  0
LINE
  5
220
100
AcDbEntity
  8
RACCORDO
100
AcDbLine
 62
7
  6
CONTINUOUS
 10
-23.7549064105
 20
8.0429249971
 11
-23.7549064105
 21
7.8528462077
  0
LINE
  5
221
100
AcDbEntity
  8
ASSI
100
AcDbLine
 62
7
  6
CONTINUOUS
 10
-23.7549064105
 20
8.0429249971
 11
-23.7549064105
 21
7.8528462077
  0
LINE
  5
222
100
AcDbEntity
  8
RACCORDO
100
AcDbLine
 62
7
  6
CONTINUOUS
 10
-23.7479243845
 20
-9.4925406917
 11
-23.7479243845
 21
-8.104752618
  0
LINE
  5
223
100
AcDbEntity
  8
ASSI
100
AcDbLine
 62
7
  6
CONTINUOUS
 10
-23.7479243845
 20
-9.4925406917
 11
-23.7479243845
 21
-8.104752618
  0
LINE
  5
224
100
AcDbEntity
  8
DRAFT
100
AcDbLine
 62
7
  6
CONTINUOUS
 10
-23.7444333715
 20
-4.9576268313
 11
-23.7444333715
 21
-4.3320639222
  0
LINE
  5
225
100
AcDbEntity
  8
ASSI
100
AcDbLine
 62
7
  6
CONTINUOUS
 10
-23.7444333715
 20
-4.9576268313
 11
-23.7444333715
 21
-4.3320639222
  0
LINE
  5
226
100
AcDbEntity
  8
DRAFT
100
AcDbLine
 62
7
  6
CONTINUOUS
 10
-23.7444333715
 20
-1.866974052
 11
-23.7444333715
 21
-1.2414111429
  0
LINE
  5
227
100
AcDbEntity
  8
ASSI
100
AcDbLine
 62
7
  6
CONTINUOUS
 10
-23.7444333715
 20
-1.866974052
 11
-23.7444333715
 21
-1.2414111429
  0
LINE
  5
228
100
AcDbEntity
  8
DRAFT
100
AcDbLine
 62
7
  6
CONTINUOUS
 10
-23.7374513455
 20
1.5655708831
 11
-23.7374513455
 21
0.9353911428
  0
LINE
  5
229
100
AcDbEntity
  8
ASSI
100
AcDbLine
 62
7
  6
CONTINUOUS
 10
-23.7374513455
 20
1.5655708831
 11
-23.7374513455
 21
0.9353911428
  0
LINE
  5
22A
100
AcDbEntity
  8
DRAFT
100
AcDbLine
 62
7
  6
CONTINUOUS
 10
-23.7374513455
 20
-6.3344291169
 11
-23.7374513455
 21
-6.9646088572
  0
LINE
  5
22B
100
AcDbEntity
  8
ASSI
100
AcDbLine
 62
7
  6
CONTINUOUS
 10
-23.7374513455
 20
-6.3344291169
 11
-23.7374513455
 21
-6.9646088572
  0
LINE
  5
22C
100
AcDbEntity
  8
DRAFT
100
AcDbLine
 62
7
  6
CONTINUOUS
 10
-22.9793435014
 20
-4.3320639222
 11
-22.9793435014
 21
-1.866974052
  0
LINE
  5
22D
100
AcDbEntity
  8
ASSI
100
AcDbLine
 62
7
  6
CONTINUOUS
 10
-22.9793435014
 20
-4.3320639222
 11
-22.9793435014
 21
-1.866974052
  0
LINE
  5
22E
100
AcDbEntity
  8
RACCORDO
100
AcDbLine
 62
253
  6
CONTINUOUS
 10
-23.3862219252
 20
1.6219902869
 11
-23.3850812913
 21
7.777830297
  0
LINE
  5
22F
100
AcDbEntity
  8
ASSI
100
AcDbLine
 62
253
  6
CONTINUOUS
 10
-23.3862219252
 20
1.6219902869
 11
-23.3850812913
 21
7.777830297
  0
LINE
  5
230
100
AcDbEntity
  8
RACCORDO
100
AcDbLine
 62
253
  6
CONTINUOUS
 10
-23.38725755
 20
-1.1790460717
 11
-23.3864650616
 21
0.8792150477
  0
LINE
  5
231
100
AcDbEntity
  8
ASSI
100
AcDbLine
 62
253
  6
CONTINUOUS
 10
-23.38725755
 20
-1.1790460717
 11
-23.3864650616
 21
0.8792150477
  0
LINE
  5
232
100
AcDbEntity
  8
RACCORDO
100
AcDbLine
 62
253
  6
CONTINUOUS
 10
-23.3899752133
 20
-6.2817656613
 11
-23.3892021566
 21
-5.0180459181
  0
LINE
  5
233
100
AcDbEntity
  8
ASSI
100
AcDbLine
 62
253
  6
CONTINUOUS
 10
-23.3899752133
 20
-6.2817656613
 11
-23.3892021566
 21
-5.0180459181
  0
LINE
  5
234
100
AcDbEntity
  8
RACCORDO
100
AcDbLine
 62
253
  6
CONTINUOUS
 10
-23.3909776395
 20
-7.7808007577
 11
-23.3904551514
 21
-7.0167920353
  0
LINE
  5
235
100
AcDbEntity
  8
ASSI
100
AcDbLine
 62
253
  6
CONTINUOUS
 10
-23.3909776395
 20
-7.7808007577
 11
-23.3904551514
 21
-7.0167920353
  0
LINE
  5
236
100
AcDbEntity
  8
RACCORDO
100
AcDbLine
 62
253
  6
CONTINUOUS
 10
-23.7479243845
 20
-8.104752618
 11
-23.6907641091
 21
-7.5273328933
  0
LINE
  5
237
100
AcDbEntity
  8
ASSI
100
AcDbLine
 62
253
  6
CONTINUOUS
 10
-23.7479243845
 20
-8.104752618
 11
-23.6907641091
 21
-7.5273328933
  0
LINE
  5
238
100
AcDbEntity
  8
RACCORDO
100
AcDbLine
 62
253
  6
CONTINUOUS
 10
-22.7416077452
 20
-6.9646088572
 11
-22.7416077452
 21
-6.3344291169
  0
LINE
  5
239
100
AcDbEntity
  8
ASSI
100
AcDbLine
 62
253
  6
CONTINUOUS
 10
-22.7416077452
 20
-6.9646088572
 11
-22.7416077452
 21
-6.3344291169
  0
LINE
  5
23A
100
AcDbEntity
  8
RACCORDO
100
AcDbLine
 62
253
  6
CONTINUOUS
 10
-22.7416077452
 20
0.9353911428
 11
-22.7416077452
 21
1.5655708831
  0
LINE
  5
23B
100
AcDbEntity
  8
ASSI
100
AcDbLine
 62
253
  6
CONTINUOUS
 10
-22.7416077452
 20
0.9353911428
 11
-22.7416077452
 21
1.5655708831
  0
LINE
  5
23C
100
AcDbEntity
  8
DRAFT
100
AcDbLine
 62
7
  6
CONTINUOUS
 10
-22.7118884364
 20
-4.9576268313
 11
-22.7118884364
 21
-1.2414111429
  0
LINE
  5
23D
100
AcDbEntity
  8
ASSI
100
AcDbLine
 62
7
  6
CONTINUOUS
 10
-22.7118884364
 20
-4.9576268313
 11
-22.7118884364
 21
-1.2414111429
  0
LINE
  5
23E
100
AcDbEntity
  8
DRAFT
100
AcDbLine
 62
7
  6
CONTINUOUS
 10
-22.4618884364
 20
-5.0180459178
 11
-22.4618884364
 21
-4.9834174341
  0
LINE
  5
23F
100
AcDbEntity
  8
ASSI
100
AcDbLine
 62
7
  6
CONTINUOUS
 10
-22.4618884364
 20
-5.0180459178
 11
-22.4618884364
 21
-4.9834174341
  0
LINE
  5
240
100
AcDbEntity
  8
DRAFT
100
AcDbLine
 62
7
  6
CONTINUOUS
 10
-22.4618884364
 20
-1.2156205401
 11
-22.4618884364
 21
-1.1790460719
  0
LINE
  5
241
100
AcDbEntity
  8
ASSI
100
AcDbLine
 62
7
  6
CONTINUOUS
 10
-22.4618884364
 20
-1.2156205401
 11
-22.4618884364
 21
-1.1790460719
  0
LINE
  5
242
100
AcDbEntity
  8
RACCORDO
100
AcDbLine
 62
253
  6
CONTINUOUS
 10
-22.4416534367
 20
-6.9697539868
 11
-22.4416534367
 21
-6.3292839873
  0
LINE
  5
243
100
AcDbEntity
  8
ASSI
100
AcDbLine
 62
253
  6
CONTINUOUS
 10
-22.4416534367
 20
-6.9697539868
 11
-22.4416534367
 21
-6.3292839873
  0
LINE
  5
244
100
AcDbEntity
  8
RACCORDO
100
AcDbLine
 62
253
  6
CONTINUOUS
 10
-22.4416534367
 20
0.9302460132
 11
-22.4416534367
 21
1.5707160127
  0
LINE
  5
245
100
AcDbEntity
  8
ASSI
100
AcDbLine
 62
253
  6
CONTINUOUS
 10
-22.4416534367
 20
0.9302460132
 11
-22.4416534367
 21
1.5707160127
  0
LINE
  5
246
100
AcDbEntity
  8
DRAFT
100
AcDbLine
 62
7
  6
CONTINUOUS
 10
-21.9118884364
 20
-4.9715908832
 11
-21.9118884364
 21
-1.227447091
  0
LINE
  5
247
100
AcDbEntity
  8
ASSI
100
AcDbLine
 62
7
  6
CONTINUOUS
 10
-21.9118884364
 20
-4.9715908832
 11
-21.9118884364
 21
-1.227447091
  0
LINE
  5
248
100
AcDbEntity
  8
DRAFT
100
AcDbLine
 62
7
  6
CONTINUOUS
 10
-21.374354427
 20
8.9934989869
 11
-21.374354427
 21
7.8528462077
  0
LINE
  5
249
100
AcDbEntity
  8
ASSI
100
AcDbLine
 62
7
  6
CONTINUOUS
 10
-21.374354427
 20
8.9934989869
 11
-21.374354427
 21
7.8528462077
  0
LINE
  5
24A
100
AcDbEntity
  8
DRAFT
100
AcDbLine
 62
7
  6
CONTINUOUS
 10
-21.1118884364
 20
8.9411337922
 11
-21.1118884364
 21
7.8004810129
  0
LINE
  5
24B
100
AcDbEntity
  8
ASSI
100
AcDbLine
 62
7
  6
CONTINUOUS
 10
-21.1118884364
 20
8.9411337922
 11
-21.1118884364
 21
7.8004810129
  0
LINE
  5
24C
100
AcDbEntity
  8
RACCORDO
100
AcDbLine
 62
253
  6
CONTINUOUS
 10
-23.4487879982
 20
-8.4084574025
 11
-23.3866546398
 21
-7.7808007577
  0
LINE
  5
24D
100
AcDbEntity
  8
ASSI
100
AcDbLine
 62
253
  6
CONTINUOUS
 10
-23.4487879982
 20
-8.4084574025
 11
-23.3866546398
 21
-7.7808007577
  0
LINE
  5
24E
100
AcDbEntity
  8
RACCORDO
100
AcDbLine
 62
7
  6
CONTINUOUS
 10
-23.7618884364
 20
7.7411337922
 11
-23.7600515401
 21
7.7429706885
  0
LINE
  5
24F
100
AcDbEntity
  8
ASSI
100
AcDbLine
 62
7
  6
CONTINUOUS
 10
-23.7618884364
 20
7.7411337922
 11
-23.7600515401
 21
7.7429706885
  0
LINE
  5
250
100
AcDbEntity
  8
RACCORDO
100
AcDbLine
 62
7
  6
CONTINUOUS
 10
-23.6904136977
 20
-7.0116465051
 11
-23.7374513455
 21
-6.9646088572
  0
LINE
  5
251
100
AcDbEntity
  8
ASSI
100
AcDbLine
 62
7
  6
CONTINUOUS
 10
-23.6904136977
 20
-7.0116465051
 11
-23.7374513455
 21
-6.9646088572
  0
LINE
  5
252
100
AcDbEntity
  8
RACCORDO
100
AcDbLine
 62
7
  6
CONTINUOUS
 10
-18.596093691
 20
-7.7808007577
 11
-18.5670335661
 21
-8.0743593382
  0
LINE
  5
253
100
AcDbEntity
  8
ASSI
100
AcDbLine
 62
7
  6
CONTINUOUS
 10
-18.596093691
 20
-7.7808007577
 11
-18.5670335661
 21
-8.0743593382
  0
LINE
  5
254
100
AcDbEntity
  8
RACCORDO
100
AcDbLine
 62
253
  6
CONTINUOUS
 10
-20.1006009952
 20
4.934795588
 11
-20.1129435899
 21
5.6419023691
  0
LINE
  5
255
100
AcDbEntity
  8
ASSI
100
AcDbLine
 62
253
  6
CONTINUOUS
 10
-20.1006009952
 20
4.934795588
 11
-20.1129435899
 21
5.6419023691
  0
LINE
  5
256
100
AcDbEntity
  8
RACCORDO
100
AcDbLine
 62
253
  6
CONTINUOUS
 10
-19.8006455462
 20
5.1468622868
 11
-19.8129894752
 21
5.8540455059
  0
LINE
  5
257
100
AcDbEntity
  8
ASSI
100
AcDbLine
 62
253
  6
CONTINUOUS
 10
-19.8006455462
 20
5.1468622868
 11
-19.8129894752
 21
5.8540455059
  0
LINE
  5
258
100
AcDbEntity
  8
RACCORDO
100
AcDbLine
 62
253
  6
CONTINUOUS
 10
-20.1170335661
 20
6.2075877941
 11
-20.1170335661
 21
7.7953358833
  0
LINE
  5
259
100
AcDbEntity
  8
ASSI
100
AcDbLine
 62
253
  6
CONTINUOUS
 10
-20.1170335661
 20
6.2075877941
 11
-20.1170335661
 21
7.7953358833
  0
LINE
  5
25A
100
AcDbEntity
  8
RACCORDO
100
AcDbLine
 62
253
  6
CONTINUOUS
 10
-20.0995785011
 20
3.4092847094
 11
-20.0995785011
 21
4.7933742317
  0
LINE
  5
25B
100
AcDbEntity
  8
ASSI
100
AcDbLine
 62
253
  6
CONTINUOUS
 10
-20.0995785011
 20
3.4092847094
 11
-20.0995785011
 21
4.7933742317
  0
LINE
  5
25C
100
AcDbEntity
  8
RACCORDO
100
AcDbLine
 62
253
  6
CONTINUOUS
 10
-19.8170792575
 20
6.2075993006
 11
-19.8170792575
 21
7.8004810129
  0
LINE
  5
25D
100
AcDbEntity
  8
ASSI
100
AcDbLine
 62
253
  6
CONTINUOUS
 10
-19.8170792575
 20
6.2075993006
 11
-19.8170792575
 21
7.8004810129
  0
LINE
  5
25E
100
AcDbEntity
  8
RACCORDO
100
AcDbLine
 62
253
  6
CONTINUOUS
 10
-19.7996241926
 20
3.4092847094
 11
-19.7996241926
 21
4.7933742317
  0
LINE
  5
25F
100
AcDbEntity
  8
ASSI
100
AcDbLine
 62
253
  6
CONTINUOUS
 10
-19.7996241926
 20
3.4092847094
 11
-19.7996241926
 21
4.7933742317
  0
LINE
  5
260
100
AcDbEntity
  8
RACCORDO
100
AcDbLine
 62
253
  6
CONTINUOUS
 10
-19.6241526803
 20
4.7933742317
 11
-19.6241526803
 21
3.4092847094
  0
LINE
  5
261
100
AcDbEntity
  8
ASSI
100
AcDbLine
 62
253
  6
CONTINUOUS
 10
-19.6241526803
 20
4.7933742317
 11
-19.6241526803
 21
3.4092847094
  0
LINE
  5
262
100
AcDbEntity
  8
RACCORDO
100
AcDbLine
 62
253
  6
CONTINUOUS
 10
-19.6066976154
 20
7.8004810129
 11
-19.6066976154
 21
6.2075989701
  0
LINE
  5
263
100
AcDbEntity
  8
ASSI
100
AcDbLine
 62
253
  6
CONTINUOUS
 10
-19.6066976154
 20
7.8004810129
 11
-19.6066976154
 21
6.2075989701
  0
LINE
  5
264
100
AcDbEntity
  8
RACCORDO
100
AcDbLine
 62
253
  6
CONTINUOUS
 10
-19.3241983718
 20
4.7933742317
 11
-19.3241983718
 21
3.4092847094
  0
LINE
  5
265
100
AcDbEntity
  8
ASSI
100
AcDbLine
 62
253
  6
CONTINUOUS
 10
-19.3241983718
 20
4.7933742317
 11
-19.3241983718
 21
3.4092847094
  0
LINE
  5
266
100
AcDbEntity
  8
RACCORDO
100
AcDbLine
 62
253
  6
CONTINUOUS
 10
-19.3067433068
 20
7.7953358833
 11
-19.3067433068
 21
6.2075877941
  0
LINE
  5
267
100
AcDbEntity
  8
ASSI
100
AcDbLine
 62
253
  6
CONTINUOUS
 10
-19.3067433068
 20
7.7953358833
 11
-19.3067433068
 21
6.2075877941
  0
LINE
  5
268
100
AcDbEntity
  8
RACCORDO
100
AcDbLine
 62
253
  6
CONTINUOUS
 10
-19.6107873881
 20
5.8540460558
 11
-19.6231313266
 21
5.1468622946
  0
LINE
  5
269
100
AcDbEntity
  8
ASSI
100
AcDbLine
 62
253
  6
CONTINUOUS
 10
-19.6107873881
 20
5.8540460558
 11
-19.6231313266
 21
5.1468622946
  0
LINE
  5
26A
100
AcDbEntity
  8
RACCORDO
100
AcDbLine
 62
253
  6
CONTINUOUS
 10
-19.310833283
 20
5.6419023691
 11
-19.3231758777
 21
4.934795588
  0
LINE
  5
26B
100
AcDbEntity
  8
ASSI
100
AcDbLine
 62
253
  6
CONTINUOUS
 10
-19.310833283
 20
5.6419023691
 11
-19.3231758777
 21
4.934795588
  0
LINE
  5
26C
100
AcDbEntity
  8
RACCORDO
100
AcDbLine
 62
7
  6
CONTINUOUS
 10
-20.1170335661
 20
7.7953358833
 11
-20.1345391524
 21
7.777830297
  0
LINE
  5
26D
100
AcDbEntity
  8
ASSI
100
AcDbLine
 62
7
  6
CONTINUOUS
 10
-20.1170335661
 20
7.7953358833
 11
-20.1345391524
 21
7.777830297
  0
LINE
  5
26E
100
AcDbEntity
  8
RACCORDO
100
AcDbLine
 62
7
  6
CONTINUOUS
 10
-22.4416534367
 20
-6.9697539868
 11
-22.3946153883
 21
-7.0167920352
  0
LINE
  5
26F
100
AcDbEntity
  8
ASSI
100
AcDbLine
 62
7
  6
CONTINUOUS
 10
-22.4416534367
 20
-6.9697539868
 11
-22.3946153883
 21
-7.0167920352
  0
LINE
  5
270
100
AcDbEntity
  8
RACCORDO
100
AcDbLine
 62
7
  6
CONTINUOUS
 10
-23.6891593506
 20
-5.0129008522
 11
-23.7444333715
 21
-4.9576268313
  0
LINE
  5
271
100
AcDbEntity
  8
ASSI
100
AcDbLine
 62
7
  6
CONTINUOUS
 10
-23.6891593506
 20
-5.0129008522
 11
-23.7444333715
 21
-4.9576268313
  0
LINE
  5
272
100
AcDbEntity
  8
RACCORDO
100
AcDbLine
 62
253
  6
CONTINUOUS
 10
-18.5670335661
 20
-8.0743593382
 11
-18.5670335661
 21
-6.794328166
  0
LINE
  5
273
100
AcDbEntity
  8
ASSI
100
AcDbLine
 62
253
  6
CONTINUOUS
 10
-18.5670335661
 20
-8.0743593382
 11
-18.5670335661
 21
-6.794328166
  0
LINE
  5
274
100
AcDbEntity
  8
RACCORDO
100
AcDbLine
 62
253
  6
CONTINUOUS
 10
-18.2670792575
 20
-8.1263342334
 11
-18.2670792575
 21
-6.4943738575
  0
LINE
  5
275
100
AcDbEntity
  8
ASSI
100
AcDbLine
 62
253
  6
CONTINUOUS
 10
-18.2670792575
 20
-8.1263342334
 11
-18.2670792575
 21
-6.4943738575
  0
LINE
  5
276
100
AcDbEntity
  8
RACCORDO
100
AcDbLine
 62
253
  6
CONTINUOUS
 10
-18.0566976154
 20
-6.4943738575
 11
-18.0566976154
 21
-8.1263342334
  0
LINE
  5
277
100
AcDbEntity
  8
ASSI
100
AcDbLine
 62
253
  6
CONTINUOUS
 10
-18.0566976154
 20
-6.4943738575
 11
-18.0566976154
 21
-8.1263342334
  0
LINE
  5
278
100
AcDbEntity
  8
RACCORDO
100
AcDbLine
 62
253
  6
CONTINUOUS
 10
-17.7567433068
 20
-6.794328166
 11
-17.7567433068
 21
-8.0743593382
  0
LINE
  5
279
100
AcDbEntity
  8
ASSI
100
AcDbLine
 62
253
  6
CONTINUOUS
 10
-17.7567433068
 20
-6.794328166
 11
-17.7567433068
 21
-8.0743593382
  0
LINE
  5
27A
100
AcDbEntity
  8
RACCORDO
100
AcDbLine
 62
7
  6
CONTINUOUS
 10
-23.686179519
 20
1.6168427096
 11
-23.7374513455
 21
1.5655708831
  0
LINE
  5
27B
100
AcDbEntity
  8
ASSI
100
AcDbLine
 62
7
  6
CONTINUOUS
 10
-23.686179519
 20
1.6168427096
 11
-23.7374513455
 21
1.5655708831
  0
LINE
  5
27C
100
AcDbEntity
  8
DRAFT
100
AcDbLine
 62
7
  6
CONTINUOUS
 10
-22.9793435014
 20
-4.3320639222
 11
-23.0401887864
 21
-4.2712186372
  0
LINE
  5
27D
100
AcDbEntity
  8
ASSI
100
AcDbLine
 62
7
  6
CONTINUOUS
 10
-22.9793435014
 20
-4.3320639222
 11
-23.0401887864
 21
-4.2712186372
  0
LINE
  5
27E
100
AcDbEntity
  8
DRAFT
100
AcDbLine
 62
7
  6
CONTINUOUS
 10
-24.0618884364
 20
-1.8495189871
 11
-23.9824006784
 21
-1.9290067452
  0
LINE
  5
27F
100
AcDbEntity
  8
ASSI
100
AcDbLine
 62
7
  6
CONTINUOUS
 10
-24.0618884364
 20
-1.8495189871
 11
-23.9824006784
 21
-1.9290067452
  0
LINE
  5
280
100
AcDbEntity
  8
DRAFT
100
AcDbLine
 62
7
  6
CONTINUOUS
 10
-23.7618884364
 20
-1.8495189871
 11
-23.7444333715
 21
-1.866974052
  0
LINE
  5
281
100
AcDbEntity
  8
ASSI
100
AcDbLine
 62
7
  6
CONTINUOUS
 10
-23.7618884364
 20
-1.8495189871
 11
-23.7444333715
 21
-1.866974052
  0
LINE
  5
282
100
AcDbEntity
  8
RACCORDO
100
AcDbLine
 62
253
  6
CONTINUOUS
 10
-18.5670335661
 20
-6.794328166
 11
-18.596783864
 21
-6.7645778681
  0
LINE
  5
283
100
AcDbEntity
  8
ASSI
100
AcDbLine
 62
253
  6
CONTINUOUS
 10
-18.5670335661
 20
-6.794328166
 11
-18.596783864
 21
-6.7645778681
  0
LINE
  5
284
100
AcDbEntity
  8
RACCORDO
100
AcDbLine
 62
7
  6
CONTINUOUS
 10
-17.7318383426
 20
-7.8227752181
 11
-17.7567433068
 21
-8.0743593382
  0
LINE
  5
285
100
AcDbEntity
  8
ASSI
100
AcDbLine
 62
7
  6
CONTINUOUS
 10
-17.7318383426
 20
-7.8227752181
 11
-17.7567433068
 21
-8.0743593382
  0
LINE
  5
286
100
AcDbEntity
  8
RACCORDO
100
AcDbLine
 62
7
  6
CONTINUOUS
 10
-22.4416534367
 20
1.5707160127
 11
-22.3903791626
 21
1.6219902867
  0
LINE
  5
287
100
AcDbEntity
  8
ASSI
100
AcDbLine
 62
7
  6
CONTINUOUS
 10
-22.4416534367
 20
1.5707160127
 11
-22.3903791626
 21
1.6219902867
  0
LINE
  5
288
100
AcDbEntity
  8
RACCORDO
100
AcDbLine
 62
253
  6
CONTINUOUS
 10
-20.1338338172
 20
3.1784899407
 11
-20.1030085875
 21
3.2093151704
  0
LINE
  5
289
100
AcDbEntity
  8
ASSI
100
AcDbLine
 62
253
  6
CONTINUOUS
 10
-20.1338338172
 20
3.1784899407
 11
-20.1030085875
 21
3.2093151704
  0
LINE
  5
28A
100
AcDbEntity
  8
RACCORDO
100
AcDbLine
 62
253
  6
CONTINUOUS
 10
-19.8338032525
 20
2.8786118883
 11
-19.803054279
 21
2.9093608618
  0
LINE
  5
28B
100
AcDbEntity
  8
ASSI
100
AcDbLine
 62
253
  6
CONTINUOUS
 10
-19.8338032525
 20
2.8786118883
 11
-19.803054279
 21
2.9093608618
  0
LINE
  5
28C
100
AcDbEntity
  8
RACCORDO
100
AcDbLine
 62
7
  6
CONTINUOUS
 10
-23.6872172077
 20
-1.1841949791
 11
-23.7444333715
 21
-1.2414111429
  0
LINE
  5
28D
100
AcDbEntity
  8
ASSI
100
AcDbLine
 62
7
  6
CONTINUOUS
 10
-23.6872172077
 20
-1.1841949791
 11
-23.7444333715
 21
-1.2414111429
  0
LINE
  5
28E
100
AcDbEntity
  8
RACCORDO
100
AcDbLine
 62
253
  6
CONTINUOUS
 10
-18.2670792575
 20
-6.4943738575
 11
-18.2970252473
 21
-6.4644278677
  0
LINE
  5
28F
100
AcDbEntity
  8
ASSI
100
AcDbLine
 62
253
  6
CONTINUOUS
 10
-18.2670792575
 20
-6.4943738575
 11
-18.2970252473
 21
-6.4644278677
  0
LINE
  5
290
100
AcDbEntity
  8
RACCORDO
100
AcDbLine
 62
7
  6
CONTINUOUS
 10
-23.6864196264
 20
0.8843594236
 11
-23.7374513455
 21
0.9353911428
  0
LINE
  5
291
100
AcDbEntity
  8
ASSI
100
AcDbLine
 62
7
  6
CONTINUOUS
 10
-23.6864196264
 20
0.8843594236
 11
-23.7374513455
 21
0.9353911428
  0
LINE
  5
292
100
AcDbEntity
  8
0
100
AcDbLine
 62
7
  6
CONTINUOUS
 10
-13.9618884364
 20
-2.5743732152
 11
-13.9618884364
 21
-2.2850114463
  0
LINE
  5
293
100
AcDbEntity
  8
ASSI
100
AcDbLine
 62
7
  6
CONTINUOUS
 10
-13.9618884364
 20
-2.5743732152
 11
-13.9618884364
 21
-2.2850114463
  0
LINE
  5
294
100
AcDbEntity
  8
DRAFT
100
AcDbLine
 62
7
  6
CONTINUOUS
 10
-22.9793435014
 20
-1.866974052
 11
-23.0413761945
 21
-1.9290067452
  0
LINE
  5
295
100
AcDbEntity
  8
ASSI
100
AcDbLine
 62
7
  6
CONTINUOUS
 10
-22.9793435014
 20
-1.866974052
 11
-23.0413761945
 21
-1.9290067452
  0
LINE
  5
296
100
AcDbEntity
  8
DRAFT
100
AcDbLine
 62
7
  6
CONTINUOUS
 10
-24.0573808506
 20
-4.3450114012
 11
-23.9835880865
 21
-4.2712186372
  0
LINE
  5
297
100
AcDbEntity
  8
ASSI
100
AcDbLine
 62
7
  6
CONTINUOUS
 10
-24.0573808506
 20
-4.3450114012
 11
-23.9835880865
 21
-4.2712186372
  0
LINE
  5
298
100
AcDbEntity
  8
RACCORDO
100
AcDbLine
 62
7
  6
CONTINUOUS
 10
-22.4416534367
 20
0.9302460132
 11
-22.3906224713
 21
0.8792150477
  0
LINE
  5
299
100
AcDbEntity
  8
ASSI
100
AcDbLine
 62
7
  6
CONTINUOUS
 10
-22.4416534367
 20
0.9302460132
 11
-22.3906224713
 21
0.8792150477
  0
LINE
  5
29A
100
AcDbEntity
  8
0
100
AcDbLine
 62
7
  6
CONTINUOUS
 10
-13.7493884364
 20
-3.7318199871
 11
-13.7493884364
 21
-2.3211816547
  0
LINE
  5
29B
100
AcDbEntity
  8
ASSI
100
AcDbLine
 62
7
  6
CONTINUOUS
 10
-13.7493884364
 20
-3.7318199871
 11
-13.7493884364
 21
-2.3211816547
  0
LINE
  5
29C
100
AcDbEntity
  8
0
100
AcDbLine
 62
7
  6
CONTINUOUS
 10
-13.5368884364
 20
-3.7318199871
 11
-13.5368884364
 21
-2.0318199871
  0
LINE
  5
29D
100
AcDbEntity
  8
ASSI
100
AcDbLine
 62
7
  6
CONTINUOUS
 10
-13.5368884364
 20
-3.7318199871
 11
-13.5368884364
 21
-2.0318199871
  0
LINE
  5
29E
100
AcDbEntity
  8
0
100
AcDbLine
 62
7
  6
CONTINUOUS
 10
-13.25355512
 20
-3.0084157167
 11
-13.25355512
 21
-2.7552242575
  0
LINE
  5
29F
100
AcDbEntity
  8
ASSI
100
AcDbLine
 62
7
  6
CONTINUOUS
 10
-13.25355512
 20
-3.0084157167
 11
-13.25355512
 21
-2.7552242575
  0
LINE
  5
2A0
100
AcDbEntity
  8
0
100
AcDbLine
 62
7
  6
CONTINUOUS
 10
-13.0764718036
 20
-2.8275646744
 11
-13.0764718036
 21
-2.7552242575
  0
LINE
  5
2A1
100
AcDbEntity
  8
ASSI
100
AcDbLine
 62
7
  6
CONTINUOUS
 10
-13.0764718036
 20
-2.8275646744
 11
-13.0764718036
 21
-2.7552242575
  0
LINE
  5
2A2
100
AcDbEntity
  8
0
100
AcDbLine
 62
7
  6
CONTINUOUS
 10
-13.0410550693
 20
-3.2254370181
 11
-13.0410550693
 21
-3.1169263927
  0
LINE
  5
2A3
100
AcDbEntity
  8
ASSI
100
AcDbLine
 62
7
  6
CONTINUOUS
 10
-13.0410550693
 20
-3.2254370181
 11
-13.0410550693
 21
-3.1169263927
  0
LINE
  5
2A4
100
AcDbEntity
  8
0
100
AcDbLine
 62
7
  6
CONTINUOUS
 10
-13.25355512
 20
-2.7552242575
 11
-13.2181384364
 21
-2.5020327983
  0
LINE
  5
2A5
100
AcDbEntity
  8
ASSI
100
AcDbLine
 62
7
  6
CONTINUOUS
 10
-13.25355512
 20
-2.7552242575
 11
-13.2181384364
 21
-2.5020327983
  0
LINE
  5
2A6
100
AcDbEntity
  8
0
100
AcDbLine
 62
7
  6
CONTINUOUS
 10
-13.0764718036
 20
-2.7552242575
 11
-13.0410550693
 21
-2.5382030068
  0
LINE
  5
2A7
100
AcDbEntity
  8
ASSI
100
AcDbLine
 62
7
  6
CONTINUOUS
 10
-13.0764718036
 20
-2.7552242575
 11
-13.0410550693
 21
-2.5382030068
  0
LINE
  5
2A8
100
AcDbEntity
  8
DRAFT
100
AcDbLine
 62
7
  6
CONTINUOUS
 10
-23.7573808514
 20
-4.345011402
 11
-23.7444333715
 21
-4.3320639222
  0
LINE
  5
2A9
100
AcDbEntity
  8
ASSI
100
AcDbLine
 62
7
  6
CONTINUOUS
 10
-23.7573808514
 20
-4.345011402
 11
-23.7444333715
 21
-4.3320639222
  0
LINE
  5
2AA
100
AcDbEntity
  8
RACCORDO
100
AcDbLine
 62
7
  6
CONTINUOUS
 10
-23.689939812
 20
-6.2869175834
 11
-23.7374513455
 21
-6.3344291169
  0
LINE
  5
2AB
100
AcDbEntity
  8
ASSI
100
AcDbLine
 62
7
  6
CONTINUOUS
 10
-23.689939812
 20
-6.2869175834
 11
-23.7374513455
 21
-6.3344291169
  0
LINE
  5
2AC
100
AcDbEntity
  8
0
100
AcDbLine
 62
7
  6
CONTINUOUS
 10
-13.0410550693
 20
-3.5871391406
 11
-13.14730512
 21
-3.4424582941
  0
LINE
  5
2AD
100
AcDbEntity
  8
ASSI
100
AcDbLine
 62
7
  6
CONTINUOUS
 10
-13.0410550693
 20
-3.5871391406
 11
-13.14730512
 21
-3.4424582941
  0
LINE
  5
2AE
100
AcDbEntity
  8
0
100
AcDbLine
 62
7
  6
CONTINUOUS
 10
-12.9348050693
 20
-3.4424582941
 11
-13.0056384364
 21
-3.3339476434
  0
LINE
  5
2AF
100
AcDbEntity
  8
ASSI
100
AcDbLine
 62
7
  6
CONTINUOUS
 10
-12.9348050693
 20
-3.4424582941
 11
-13.0056384364
 21
-3.3339476434
  0
LINE
  5
2B0
100
AcDbEntity
  8
0
100
AcDbLine
 62
7
  6
CONTINUOUS
 10
-13.14730512
 20
-3.4424582941
 11
-13.2181384364
 21
-3.2616072265
  0
LINE
  5
2B1
100
AcDbEntity
  8
ASSI
100
AcDbLine
 62
7
  6
CONTINUOUS
 10
-13.14730512
 20
-3.4424582941
 11
-13.2181384364
 21
-3.2616072265
  0
LINE
  5
2B2
100
AcDbEntity
  8
0
100
AcDbLine
 62
7
  6
CONTINUOUS
 10
-11.9785551707
 20
-3.0807561336
 11
-12.0493884364
 21
-2.8999050913
  0
LINE
  5
2B3
100
AcDbEntity
  8
ASSI
100
AcDbLine
 62
7
  6
CONTINUOUS
 10
-11.9785551707
 20
-3.0807561336
 11
-12.0493884364
 21
-2.8999050913
  0
LINE
  5
2B4
100
AcDbEntity
  8
0
100
AcDbLine
 62
7
  6
CONTINUOUS
 10
-13.0056384364
 20
-3.3339476434
 11
-13.0410550693
 21
-3.2254370181
  0
LINE
  5
2B5
100
AcDbEntity
  8
ASSI
100
AcDbLine
 62
7
  6
CONTINUOUS
 10
-13.0056384364
 20
-3.3339476434
 11
-13.0410550693
 21
-3.2254370181
  0
LINE
  5
2B6
100
AcDbEntity
  8
0
100
AcDbLine
 62
7
  6
CONTINUOUS
 10
-12.1556384364
 20
-3.1169263927
 11
-12.1910551707
 21
-3.0084157167
  0
LINE
  5
2B7
100
AcDbEntity
  8
ASSI
100
AcDbLine
 62
7
  6
CONTINUOUS
 10
-12.1556384364
 20
-3.1169263927
 11
-12.1910551707
 21
-3.0084157167
  0
LINE
  5
2B8
100
AcDbEntity
  8
0
100
AcDbLine
 62
7
  6
CONTINUOUS
 10
-13.2181384364
 20
-3.2616072265
 11
-13.25355512
 21
-3.0084157167
  0
LINE
  5
2B9
100
AcDbEntity
  8
ASSI
100
AcDbLine
 62
7
  6
CONTINUOUS
 10
-13.2181384364
 20
-3.2616072265
 11
-13.25355512
 21
-3.0084157167
  0
LINE
  5
2BA
100
AcDbEntity
  8
0
100
AcDbLine
 62
7
  6
CONTINUOUS
 10
-12.1556384364
 20
-3.2254370181
 11
-12.1556384364
 21
-3.1169263927
  0
LINE
  5
2BB
100
AcDbEntity
  8
ASSI
100
AcDbLine
 62
7
  6
CONTINUOUS
 10
-12.1556384364
 20
-3.2254370181
 11
-12.1556384364
 21
-3.1169263927
  0
LINE
  5
2BC
100
AcDbEntity
  8
0
100
AcDbLine
 62
7
  6
CONTINUOUS
 10
-11.9785551707
 20
-3.2616072265
 11
-11.9785551707
 21
-3.0807561336
  0
LINE
  5
2BD
100
AcDbEntity
  8
ASSI
100
AcDbLine
 62
7
  6
CONTINUOUS
 10
-11.9785551707
 20
-3.2616072265
 11
-11.9785551707
 21
-3.0807561336
  0
LINE
  5
2BE
100
AcDbEntity
  8
0
100
AcDbLine
 62
7
  6
CONTINUOUS
 10
-11.6952217022
 20
-3.297777435
 11
-11.6952217022
 21
-3.1892668096
  0
LINE
  5
2BF
100
AcDbEntity
  8
ASSI
100
AcDbLine
 62
7
  6
CONTINUOUS
 10
-11.6952217022
 20
-3.297777435
 11
-11.6952217022
 21
-3.1892668096
  0
LINE
  5
2C0
100
AcDbEntity
  8
0
100
AcDbLine
 62
7
  6
CONTINUOUS
 10
-11.6598051707
 20
-2.5743732152
 11
-11.6598051707
 21
-2.4658625899
  0
LINE
  5
2C1
100
AcDbEntity
  8
ASSI
100
AcDbLine
 62
7
  6
CONTINUOUS
 10
-11.6598051707
 20
-2.5743732152
 11
-11.6598051707
 21
-2.4658625899
  0
LINE
  5
2C2
100
AcDbEntity
  8
0
100
AcDbLine
 62
7
  6
CONTINUOUS
 10
-11.5181384364
 20
-3.297777435
 11
-11.5181384364
 21
-3.1892668096
  0
LINE
  5
2C3
100
AcDbEntity
  8
ASSI
100
AcDbLine
 62
7
  6
CONTINUOUS
 10
-11.5181384364
 20
-3.297777435
 11
-11.5181384364
 21
-3.1892668096
  0
LINE
  5
2C4
100
AcDbEntity
  8
0
100
AcDbLine
 62
7
  6
CONTINUOUS
 10
-11.4827217022
 20
-2.5382030068
 11
-11.4827217022
 21
-2.4658625899
  0
LINE
  5
2C5
100
AcDbEntity
  8
ASSI
100
AcDbLine
 62
7
  6
CONTINUOUS
 10
-11.4827217022
 20
-2.5382030068
 11
-11.4827217022
 21
-2.4658625899
  0
LINE
  5
2C6
100
AcDbEntity
  8
0
100
AcDbLine
 62
7
  6
CONTINUOUS
 10
-10.6327217022
 20
-2.5382030068
 11
-10.6327217022
 21
-2.4658625899
  0
LINE
  5
2C7
100
AcDbEntity
  8
ASSI
100
AcDbLine
 62
7
  6
CONTINUOUS
 10
-10.6327217022
 20
-2.5382030068
 11
-10.6327217022
 21
-2.4658625899
  0
LINE
  5
2C8
100
AcDbEntity
  8
0
100
AcDbLine
 62
7
  6
CONTINUOUS
 10
-10.5973051707
 20
-3.297777435
 11
-10.5973051707
 21
-3.1892668096
  0
LINE
  5
2C9
100
AcDbEntity
  8
ASSI
100
AcDbLine
 62
7
  6
CONTINUOUS
 10
-10.5973051707
 20
-3.297777435
 11
-10.5973051707
 21
-3.1892668096
  0
LINE
  5
2CA
100
AcDbEntity
  8
0
100
AcDbLine
 62
7
  6
CONTINUOUS
 10
-10.4556384364
 20
-2.5743732152
 11
-10.4556384364
 21
-2.4658625899
  0
LINE
  5
2CB
100
AcDbEntity
  8
ASSI
100
AcDbLine
 62
7
  6
CONTINUOUS
 10
-10.4556384364
 20
-2.5743732152
 11
-10.4556384364
 21
-2.4658625899
  0
LINE
  5
2CC
100
AcDbEntity
  8
0
100
AcDbLine
 62
7
  6
CONTINUOUS
 10
-10.4202219049
 20
-3.297777435
 11
-10.4202219049
 21
-3.1892668096
  0
LINE
  5
2CD
100
AcDbEntity
  8
ASSI
100
AcDbLine
 62
7
  6
CONTINUOUS
 10
-10.4202219049
 20
-3.297777435
 11
-10.4202219049
 21
-3.1892668096
  0
LINE
  5
2CE
100
AcDbEntity
  8
0
100
AcDbLine
 62
7
  6
CONTINUOUS
 10
-13.0410550693
 20
-2.5382030068
 11
-13.0056384364
 21
-2.4296922801
  0
LINE
  5
2CF
100
AcDbEntity
  8
ASSI
100
AcDbLine
 62
7
  6
CONTINUOUS
 10
-13.0410550693
 20
-2.5382030068
 11
-13.0056384364
 21
-2.4296922801
  0
LINE
  5
2D0
100
AcDbEntity
  8
0
100
AcDbLine
 62
7
  6
CONTINUOUS
 10
-13.0410550693
 20
-3.1169263927
 11
-13.0056384364
 21
-3.0084157167
  0
LINE
  5
2D1
100
AcDbEntity
  8
ASSI
100
AcDbLine
 62
7
  6
CONTINUOUS
 10
-13.0410550693
 20
-3.1169263927
 11
-13.0056384364
 21
-3.0084157167
  0
LINE
  5
2D2
100
AcDbEntity
  8
0
100
AcDbLine
 62
7
  6
CONTINUOUS
 10
-12.1910551707
 20
-3.3339476434
 11
-12.1556384364
 21
-3.2254370181
  0
LINE
  5
2D3
100
AcDbEntity
  8
ASSI
100
AcDbLine
 62
7
  6
CONTINUOUS
 10
-12.1910551707
 20
-3.3339476434
 11
-12.1556384364
 21
-3.2254370181
  0
LINE
  5
2D4
100
AcDbEntity
  8
0
100
AcDbLine
 62
7
  6
CONTINUOUS
 10
-13.2181384364
 20
-2.5020327983
 11
-13.14730512
 21
-2.3211816547
  0
LINE
  5
2D5
100
AcDbEntity
  8
ASSI
100
AcDbLine
 62
7
  6
CONTINUOUS
 10
-13.2181384364
 20
-2.5020327983
 11
-13.14730512
 21
-2.3211816547
  0
LINE
  5
2D6
100
AcDbEntity
  8
RACCORDO
100
AcDbLine
 62
7
  6
CONTINUOUS
 10
-22.4416534367
 20
-6.3292839873
 11
-22.3941351101
 21
-6.2817656608
  0
LINE
  5
2D7
100
AcDbEntity
  8
ASSI
100
AcDbLine
 62
7
  6
CONTINUOUS
 10
-22.4416534367
 20
-6.3292839873
 11
-22.3941351101
 21
-6.2817656608
  0
LINE
  5
2D8
100
AcDbEntity
  8
RACCORDO
100
AcDbLine
 62
253
  6
CONTINUOUS
 10
-19.6207225939
 20
2.9093608618
 11
-19.5899736203
 21
2.8786118883
  0
LINE
  5
2D9
100
AcDbEntity
  8
ASSI
100
AcDbLine
 62
253
  6
CONTINUOUS
 10
-19.6207225939
 20
2.9093608618
 11
-19.5899736203
 21
2.8786118883
  0
LINE
  5
2DA
100
AcDbEntity
  8
RACCORDO
100
AcDbLine
 62
253
  6
CONTINUOUS
 10
-19.3207682854
 20
3.2093151704
 11
-19.2899430557
 21
3.1784899407
  0
LINE
  5
2DB
100
AcDbEntity
  8
ASSI
100
AcDbLine
 62
253
  6
CONTINUOUS
 10
-19.3207682854
 20
3.2093151704
 11
-19.2899430557
 21
3.1784899407
  0
LINE
  5
2DC
100
AcDbEntity
  8
RACCORDO
100
AcDbLine
 62
7
  6
CONTINUOUS
 10
-23.7549064105
 20
7.8528462077
 11
-23.6850353577
 21
7.7829751549
  0
LINE
  5
2DD
100
AcDbEntity
  8
ASSI
100
AcDbLine
 62
7
  6
CONTINUOUS
 10
-23.7549064105
 20
7.8528462077
 11
-23.6850353577
 21
7.7829751549
  0
LINE
  5
2DE
100
AcDbEntity
  8
0
100
AcDbLine
 62
7
  6
CONTINUOUS
 10
-12.1910551707
 20
-3.0084157167
 11
-12.2618884364
 21
-2.9360752998
  0
LINE
  5
2DF
100
AcDbEntity
  8
ASSI
100
AcDbLine
 62
7
  6
CONTINUOUS
 10
-12.1910551707
 20
-3.0084157167
 11
-12.2618884364
 21
-2.9360752998
  0
LINE
  5
2E0
100
AcDbEntity
  8
0
100
AcDbLine
 62
7
  6
CONTINUOUS
 10
-11.5181384364
 20
-3.5871391406
 11
-11.6243884364
 21
-3.4786285026
  0
LINE
  5
2E1
100
AcDbEntity
  8
ASSI
100
AcDbLine
 62
7
  6
CONTINUOUS
 10
-11.5181384364
 20
-3.5871391406
 11
-11.6243884364
 21
-3.4786285026
  0
LINE
  5
2E2
100
AcDbEntity
  8
0
100
AcDbLine
 62
7
  6
CONTINUOUS
 10
-12.0493884364
 20
-2.8999050913
 11
-12.1556384364
 21
-2.791394466
  0
LINE
  5
2E3
100
AcDbEntity
  8
ASSI
100
AcDbLine
 62
7
  6
CONTINUOUS
 10
-12.0493884364
 20
-2.8999050913
 11
-12.1556384364
 21
-2.791394466
  0
LINE
  5
2E4
100
AcDbEntity
  8
0
100
AcDbLine
 62
7
  6
CONTINUOUS
 10
-11.4118884364
 20
-3.4424582941
 11
-11.5181384364
 21
-3.297777435
  0
LINE
  5
2E5
100
AcDbEntity
  8
ASSI
100
AcDbLine
 62
7
  6
CONTINUOUS
 10
-11.4118884364
 20
-3.4424582941
 11
-11.5181384364
 21
-3.297777435
  0
LINE
  5
2E6
100
AcDbEntity
  8
0
100
AcDbLine
 62
7
  6
CONTINUOUS
 10
-12.0848051707
 20
-2.3211816547
 11
-12.1910551707
 21
-2.1765008209
  0
LINE
  5
2E7
100
AcDbEntity
  8
ASSI
100
AcDbLine
 62
7
  6
CONTINUOUS
 10
-12.0848051707
 20
-2.3211816547
 11
-12.1910551707
 21
-2.1765008209
  0
LINE
  5
2E8
100
AcDbEntity
  8
0
100
AcDbLine
 62
7
  6
CONTINUOUS
 10
-12.2264717022
 20
-2.4296922801
 11
-12.2973050693
 21
-2.3211816547
  0
LINE
  5
2E9
100
AcDbEntity
  8
ASSI
100
AcDbLine
 62
7
  6
CONTINUOUS
 10
-12.2264717022
 20
-2.4296922801
 11
-12.2973050693
 21
-2.3211816547
  0
LINE
  5
2EA
100
AcDbEntity
  8
0
100
AcDbLine
 62
7
  6
CONTINUOUS
 10
-11.4118884364
 20
-2.6467136321
 11
-11.4827217022
 21
-2.5382030068
  0
LINE
  5
2EB
100
AcDbEntity
  8
ASSI
100
AcDbLine
 62
7
  6
CONTINUOUS
 10
-11.4118884364
 20
-2.6467136321
 11
-11.4827217022
 21
-2.5382030068
  0
LINE
  5
2EC
100
AcDbEntity
  8
0
100
AcDbLine
 62
7
  6
CONTINUOUS
 10
-11.5889717022
 20
-2.719054049
 11
-11.6598051707
 21
-2.5743732152
  0
LINE
  5
2ED
100
AcDbEntity
  8
ASSI
100
AcDbLine
 62
7
  6
CONTINUOUS
 10
-11.5889717022
 20
-2.719054049
 11
-11.6598051707
 21
-2.5743732152
  0
LINE
  5
2EE
100
AcDbEntity
  8
0
100
AcDbLine
 62
7
  6
CONTINUOUS
 10
-11.6243884364
 20
-3.4786285026
 11
-11.6952217022
 21
-3.297777435
  0
LINE
  5
2EF
100
AcDbEntity
  8
ASSI
100
AcDbLine
 62
7
  6
CONTINUOUS
 10
-11.6243884364
 20
-3.4786285026
 11
-11.6952217022
 21
-3.297777435
  0
LINE
  5
2F0
100
AcDbEntity
  8
0
100
AcDbLine
 62
7
  6
CONTINUOUS
 10
-10.4202219049
 20
-3.1892668096
 11
-10.491054968
 21
-3.0084157167
  0
LINE
  5
2F1
100
AcDbEntity
  8
ASSI
100
AcDbLine
 62
7
  6
CONTINUOUS
 10
-10.4202219049
 20
-3.1892668096
 11
-10.491054968
 21
-3.0084157167
  0
LINE
  5
2F2
100
AcDbEntity
  8
0
100
AcDbLine
 62
7
  6
CONTINUOUS
 10
-10.4556384364
 20
-2.4658625899
 11
-10.5264719049
 21
-2.2850114463
  0
LINE
  5
2F3
100
AcDbEntity
  8
ASSI
100
AcDbLine
 62
7
  6
CONTINUOUS
 10
-10.4556384364
 20
-2.4658625899
 11
-10.5264719049
 21
-2.2850114463
  0
LINE
  5
2F4
100
AcDbEntity
  8
0
100
AcDbLine
 62
7
  6
CONTINUOUS
 10
-12.0493884364
 20
-2.4296922801
 11
-12.0848051707
 21
-2.3211816547
  0
LINE
  5
2F5
100
AcDbEntity
  8
ASSI
100
AcDbLine
 62
7
  6
CONTINUOUS
 10
-12.0493884364
 20
-2.4296922801
 11
-12.0848051707
 21
-2.3211816547
  0
LINE
  5
2F6
100
AcDbEntity
  8
0
100
AcDbLine
 62
7
  6
CONTINUOUS
 10
-10.1368884364
 20
-3.2254370181
 11
-10.1368884364
 21
-3.0084157167
  0
LINE
  5
2F7
100
AcDbEntity
  8
ASSI
100
AcDbLine
 62
7
  6
CONTINUOUS
 10
-10.1368884364
 20
-3.2254370181
 11
-10.1368884364
 21
-3.0084157167
  0
LINE
  5
2F8
100
AcDbEntity
  8
0
100
AcDbLine
 62
7
  6
CONTINUOUS
 10
-9.2868884364
 20
-3.7318199871
 11
-9.2868884364
 21
-3.2254370181
  0
LINE
  5
2F9
100
AcDbEntity
  8
ASSI
100
AcDbLine
 62
7
  6
CONTINUOUS
 10
-9.2868884364
 20
-3.7318199871
 11
-9.2868884364
 21
-3.2254370181
  0
LINE
  5
2FA
100
AcDbEntity
  8
0
100
AcDbLine
 62
7
  6
CONTINUOUS
 10
-9.2868884364
 20
-3.0084157167
 11
-9.2868884364
 21
-2.3211816547
  0
LINE
  5
2FB
100
AcDbEntity
  8
ASSI
100
AcDbLine
 62
7
  6
CONTINUOUS
 10
-9.2868884364
 20
-3.0084157167
 11
-9.2868884364
 21
-2.3211816547
  0
LINE
  5
2FC
100
AcDbEntity
  8
0
100
AcDbLine
 62
7
  6
CONTINUOUS
 10
-9.0743884364
 20
-3.7318199871
 11
-9.0743884364
 21
-3.2254370181
  0
LINE
  5
2FD
100
AcDbEntity
  8
ASSI
100
AcDbLine
 62
7
  6
CONTINUOUS
 10
-9.0743884364
 20
-3.7318199871
 11
-9.0743884364
 21
-3.2254370181
  0
LINE
  5
2FE
100
AcDbEntity
  8
0
100
AcDbLine
 62
7
  6
CONTINUOUS
 10
-9.0743884364
 20
-3.0084157167
 11
-9.0743884364
 21
-2.0318199871
  0
LINE
  5
2FF
100
AcDbEntity
  8
ASSI
100
AcDbLine
 62
7
  6
CONTINUOUS
 10
-9.0743884364
 20
-3.0084157167
 11
-9.0743884364
 21
-2.0318199871
  0
LINE
  5
300
100
AcDbEntity
  8
0
100
AcDbLine
 62
7
  6
CONTINUOUS
 10
-8.7202219049
 20
-3.2254370181
 11
-8.7202219049
 21
-3.0084157167
  0
LINE
  5
301
100
AcDbEntity
  8
ASSI
100
AcDbLine
 62
7
  6
CONTINUOUS
 10
-8.7202219049
 20
-3.2254370181
 11
-8.7202219049
 21
-3.0084157167
  0
LINE
  5
302
100
AcDbEntity
  8
0
100
AcDbLine
 62
7
  6
CONTINUOUS
 10
-12.0493884364
 20
-3.4424582941
 11
-11.9785551707
 21
-3.2616072265
  0
LINE
  5
303
100
AcDbEntity
  8
ASSI
100
AcDbLine
 62
7
  6
CONTINUOUS
 10
-12.0493884364
 20
-3.4424582941
 11
-11.9785551707
 21
-3.2616072265
  0
LINE
  5
304
100
AcDbEntity
  8
0
100
AcDbLine
 62
7
  6
CONTINUOUS
 10
-11.6598051707
 20
-2.4658625899
 11
-11.5889717022
 21
-2.2850114463
  0
LINE
  5
305
100
AcDbEntity
  8
ASSI
100
AcDbLine
 62
7
  6
CONTINUOUS
 10
-11.6598051707
 20
-2.4658625899
 11
-11.5889717022
 21
-2.2850114463
  0
LINE
  5
306
100
AcDbEntity
  8
0
100
AcDbLine
 62
7
  6
CONTINUOUS
 10
-11.6952217022
 20
-3.1892668096
 11
-11.6243884364
 21
-3.0084157167
  0
LINE
  5
307
100
AcDbEntity
  8
ASSI
100
AcDbLine
 62
7
  6
CONTINUOUS
 10
-11.6952217022
 20
-3.1892668096
 11
-11.6243884364
 21
-3.0084157167
  0
LINE
  5
308
100
AcDbEntity
  8
0
100
AcDbLine
 62
7
  6
CONTINUOUS
 10
-13.0056384364
 20
-2.4296922801
 11
-12.9348050693
 21
-2.3211816547
  0
LINE
  5
309
100
AcDbEntity
  8
ASSI
100
AcDbLine
 62
7
  6
CONTINUOUS
 10
-13.0056384364
 20
-2.4296922801
 11
-12.9348050693
 21
-2.3211816547
  0
LINE
  5
30A
100
AcDbEntity
  8
0
100
AcDbLine
 62
7
  6
CONTINUOUS
 10
-13.14730512
 20
-2.3211816547
 11
-13.0410550693
 21
-2.1765008209
  0
LINE
  5
30B
100
AcDbEntity
  8
ASSI
100
AcDbLine
 62
7
  6
CONTINUOUS
 10
-13.14730512
 20
-2.3211816547
 11
-13.0410550693
 21
-2.1765008209
  0
LINE
  5
30C
100
AcDbEntity
  8
0
100
AcDbLine
 62
7
  6
CONTINUOUS
 10
-13.9618884364
 20
-2.2850114463
 11
-13.7493884364
 21
-2.0318199871
  0
LINE
  5
30D
100
AcDbEntity
  8
ASSI
100
AcDbLine
 62
7
  6
CONTINUOUS
 10
-13.9618884364
 20
-2.2850114463
 11
-13.7493884364
 21
-2.0318199871
  0
LINE
  5
30E
100
AcDbEntity
  8
0
100
AcDbLine
 62
7
  6
CONTINUOUS
 10
-13.9618884364
 20
-2.5743732152
 11
-13.7493884364
 21
-2.3211816547
  0
LINE
  5
30F
100
AcDbEntity
  8
ASSI
100
AcDbLine
 62
7
  6
CONTINUOUS
 10
-13.9618884364
 20
-2.5743732152
 11
-13.7493884364
 21
-2.3211816547
  0
LINE
  5
310
100
AcDbEntity
  8
RACCORDO
100
AcDbLine
 62
7
  6
CONTINUOUS
 10
24.4741603067
 20
-9.4925438906
 11
23.6241603081
 21
-9.4925438906
  0
LINE
  5
311
100
AcDbEntity
  8
RACCORDO
100
AcDbLine
 62
7
  6
CONTINUOUS
 10
-23.747937181
 20
-9.4925438906
 11
-24.5979371796
 21
-9.4925438906
  0
LINE
  5
312
100
AcDbEntity
  8
DRAFT
100
AcDbLine
 62
7
  6
CONTINUOUS
 10
-23.7479339819
 20
-9.4925422912
 11
23.624157109
 21
-9.4925422912
  0
LINE
  5
313
100
AcDbEntity
  8
ASSI
100
AcDbLine
 62
7
  6
CONTINUOUS
 10
-24.5979371796
 20
-9.4925438906
 11
24.4741603067
 21
-9.4925438906
  0
LINE
  5
314
100
AcDbEntity
  8
0
100
AcDbLine
 62
7
  6
CONTINUOUS
 10
-12.8639718036
 20
-3.6956497755
 11
-13.0410550693
 21
-3.5871391406
  0
LINE
  5
315
100
AcDbEntity
  8
ASSI
100
AcDbLine
 62
7
  6
CONTINUOUS
 10
-12.8639718036
 20
-3.6956497755
 11
-13.0410550693
 21
-3.5871391406
  0
LINE
  5
316
100
AcDbEntity
  8
0
100
AcDbLine
 62
7
  6
CONTINUOUS
 10
-11.3410551707
 20
-3.6956497755
 11
-11.5181384364
 21
-3.5871391406
  0
LINE
  5
317
100
AcDbEntity
  8
ASSI
100
AcDbLine
 62
7
  6
CONTINUOUS
 10
-11.3410551707
 20
-3.6956497755
 11
-11.5181384364
 21
-3.5871391406
  0
LINE
  5
318
100
AcDbEntity
  8
0
100
AcDbLine
 62
7
  6
CONTINUOUS
 10
-12.8285550693
 20
-3.514798711
 11
-12.9348050693
 21
-3.4424582941
  0
LINE
  5
319
100
AcDbEntity
  8
ASSI
100
AcDbLine
 62
7
  6
CONTINUOUS
 10
-12.8285550693
 20
-3.514798711
 11
-12.9348050693
 21
-3.4424582941
  0
LINE
  5
31A
100
AcDbEntity
  8
0
100
AcDbLine
 62
7
  6
CONTINUOUS
 10
-12.2618884364
 20
-2.9360752998
 11
-12.3681384364
 21
-2.8637348829
  0
LINE
  5
31B
100
AcDbEntity
  8
ASSI
100
AcDbLine
 62
7
  6
CONTINUOUS
 10
-12.2618884364
 20
-2.9360752998
 11
-12.3681384364
 21
-2.8637348829
  0
LINE
  5
31C
100
AcDbEntity
  8
0
100
AcDbLine
 62
7
  6
CONTINUOUS
 10
-12.2973050693
 20
-2.3211816547
 11
-12.4035550693
 21
-2.2488412378
  0
LINE
  5
31D
100
AcDbEntity
  8
ASSI
100
AcDbLine
 62
7
  6
CONTINUOUS
 10
-12.2973050693
 20
-2.3211816547
 11
-12.4035550693
 21
-2.2488412378
  0
LINE
  5
31E
100
AcDbEntity
  8
0
100
AcDbLine
 62
7
  6
CONTINUOUS
 10
-11.2702217022
 20
-2.7552242575
 11
-11.4118884364
 21
-2.6467136321
  0
LINE
  5
31F
100
AcDbEntity
  8
ASSI
100
AcDbLine
 62
7
  6
CONTINUOUS
 10
-11.2702217022
 20
-2.7552242575
 11
-11.4118884364
 21
-2.6467136321
  0
LINE
  5
320
100
AcDbEntity
  8
RACCORDO
100
AcDbLine
 62
253
  6
CONTINUOUS
 10
-7.3670335661
 20
-6.794328166
 11
-7.396783864
 21
-6.7645778681
  0
LINE
  5
321
100
AcDbEntity
  8
ASSI
100
AcDbLine
 62
253
  6
CONTINUOUS
 10
-7.3670335661
 20
-6.794328166
 11
-7.396783864
 21
-6.7645778681
  0
LINE
  5
322
100
AcDbEntity
  8
RACCORDO
100
AcDbLine
 62
253
  6
CONTINUOUS
 10
-7.0670792575
 20
-6.4943738575
 11
-7.0970252473
 21
-6.4644278677
  0
LINE
  5
323
100
AcDbEntity
  8
ASSI
100
AcDbLine
 62
253
  6
CONTINUOUS
 10
-7.0670792575
 20
-6.4943738575
 11
-7.0970252473
 21
-6.4644278677
  0
LINE
  5
324
100
AcDbEntity
  8
0
100
AcDbLine
 62
7
  6
CONTINUOUS
 10
-11.4827217022
 20
-2.8275646744
 11
-11.5889717022
 21
-2.719054049
  0
LINE
  5
325
100
AcDbEntity
  8
ASSI
100
AcDbLine
 62
7
  6
CONTINUOUS
 10
-11.4827217022
 20
-2.8275646744
 11
-11.5889717022
 21
-2.719054049
  0
LINE
  5
326
100
AcDbEntity
  8
0
100
AcDbLine
 62
7
  6
CONTINUOUS
 10
-10.5264719049
 20
-2.2850114463
 11
-10.6327217022
 21
-2.1765008209
  0
LINE
  5
327
100
AcDbEntity
  8
ASSI
100
AcDbLine
 62
7
  6
CONTINUOUS
 10
-10.5264719049
 20
-2.2850114463
 11
-10.6327217022
 21
-2.1765008209
  0
LINE
  5
328
100
AcDbEntity
  8
0
100
AcDbLine
 62
7
  6
CONTINUOUS
 10
-10.5973051707
 20
-3.1892668096
 11
-10.7035551707
 21
-3.0445859251
  0
LINE
  5
329
100
AcDbEntity
  8
ASSI
100
AcDbLine
 62
7
  6
CONTINUOUS
 10
-10.5973051707
 20
-3.1892668096
 11
-10.7035551707
 21
-3.0445859251
  0
LINE
  5
32A
100
AcDbEntity
  8
0
100
AcDbLine
 62
7
  6
CONTINUOUS
 10
-10.6327217022
 20
-2.4658625899
 11
-10.7035551707
 21
-2.3573518632
  0
LINE
  5
32B
100
AcDbEntity
  8
ASSI
100
AcDbLine
 62
7
  6
CONTINUOUS
 10
-10.6327217022
 20
-2.4658625899
 11
-10.7035551707
 21
-2.3573518632
  0
LINE
  5
32C
100
AcDbEntity
  8
RACCORDO
100
AcDbLine
 62
7
  6
CONTINUOUS
 10
-7.3919385303
 20
-7.8227752181
 11
-7.3670335661
 21
-8.0743593382
  0
LINE
  5
32D
100
AcDbEntity
  8
ASSI
100
AcDbLine
 62
7
  6
CONTINUOUS
 10
-7.3919385303
 20
-7.8227752181
 11
-7.3670335661
 21
-8.0743593382
  0
LINE
  5
32E
100
AcDbEntity
  8
0
100
AcDbLine
 62
7
  6
CONTINUOUS
 10
-8.4368884364
 20
-3.7318199871
 11
-8.4368884364
 21
-3.5509689195
  0
LINE
  5
32F
100
AcDbEntity
  8
ASSI
100
AcDbLine
 62
7
  6
CONTINUOUS
 10
-8.4368884364
 20
-3.7318199871
 11
-8.4368884364
 21
-3.5509689195
  0
LINE
  5
330
100
AcDbEntity
  8
0
100
AcDbLine
 62
7
  6
CONTINUOUS
 10
-7.3743884364
 20
-2.5020327983
 11
-7.3743884364
 21
-2.4296922801
  0
LINE
  5
331
100
AcDbEntity
  8
ASSI
100
AcDbLine
 62
7
  6
CONTINUOUS
 10
-7.3743884364
 20
-2.5020327983
 11
-7.3743884364
 21
-2.4296922801
  0
LINE
  5
332
100
AcDbEntity
  8
RACCORDO
100
AcDbLine
 62
253
  6
CONTINUOUS
 10
-7.3670335661
 20
-8.0743593382
 11
-7.3670335661
 21
-6.794328166
  0
LINE
  5
333
100
AcDbEntity
  8
ASSI
100
AcDbLine
 62
253
  6
CONTINUOUS
 10
-7.3670335661
 20
-8.0743593382
 11
-7.3670335661
 21
-6.794328166
  0
LINE
  5
334
100
AcDbEntity
  8
0
100
AcDbLine
 62
7
  6
CONTINUOUS
 10
-7.1618884364
 20
-3.7318199871
 11
-7.1618884364
 21
-3.5509689195
  0
LINE
  5
335
100
AcDbEntity
  8
ASSI
100
AcDbLine
 62
7
  6
CONTINUOUS
 10
-7.1618884364
 20
-3.7318199871
 11
-7.1618884364
 21
-3.5509689195
  0
LINE
  5
336
100
AcDbEntity
  8
0
100
AcDbLine
 62
7
  6
CONTINUOUS
 10
-7.1618884364
 20
-2.5020327983
 11
-7.1618884364
 21
-2.4296922801
  0
LINE
  5
337
100
AcDbEntity
  8
ASSI
100
AcDbLine
 62
7
  6
CONTINUOUS
 10
-7.1618884364
 20
-2.5020327983
 11
-7.1618884364
 21
-2.4296922801
  0
LINE
  5
338
100
AcDbEntity
  8
RACCORDO
100
AcDbLine
 62
253
  6
CONTINUOUS
 10
-7.0670792575
 20
-8.1263342334
 11
-7.0670792575
 21
-6.4943738575
  0
LINE
  5
339
100
AcDbEntity
  8
ASSI
100
AcDbLine
 62
253
  6
CONTINUOUS
 10
-7.0670792575
 20
-8.1263342334
 11
-7.0670792575
 21
-6.4943738575
  0
LINE
  5
33A
100
AcDbEntity
  8
0
100
AcDbLine
 62
7
  6
CONTINUOUS
 10
-8.4014719049
 20
-2.4296922801
 11
-8.366054968
 21
-2.2850114463
  0
LINE
  5
33B
100
AcDbEntity
  8
ASSI
100
AcDbLine
 62
7
  6
CONTINUOUS
 10
-8.4014719049
 20
-2.4296922801
 11
-8.366054968
 21
-2.2850114463
  0
LINE
  5
33C
100
AcDbEntity
  8
0
100
AcDbLine
 62
7
  6
CONTINUOUS
 10
-10.491054968
 20
-3.4786285026
 11
-10.4202219049
 21
-3.297777435
  0
LINE
  5
33D
100
AcDbEntity
  8
ASSI
100
AcDbLine
 62
7
  6
CONTINUOUS
 10
-10.491054968
 20
-3.4786285026
 11
-10.4202219049
 21
-3.297777435
  0
LINE
  5
33E
100
AcDbEntity
  8
0
100
AcDbLine
 62
7
  6
CONTINUOUS
 10
-10.5264719049
 20
-2.719054049
 11
-10.4556384364
 21
-2.5743732152
  0
LINE
  5
33F
100
AcDbEntity
  8
ASSI
100
AcDbLine
 62
7
  6
CONTINUOUS
 10
-10.5264719049
 20
-2.719054049
 11
-10.4556384364
 21
-2.5743732152
  0
LINE
  5
340
100
AcDbEntity
  8
0
100
AcDbLine
 62
7
  6
CONTINUOUS
 10
-12.2618884364
 20
-3.4424582941
 11
-12.1910551707
 21
-3.3339476434
  0
LINE
  5
341
100
AcDbEntity
  8
ASSI
100
AcDbLine
 62
7
  6
CONTINUOUS
 10
-12.2618884364
 20
-3.4424582941
 11
-12.1910551707
 21
-3.3339476434
  0
LINE
  5
342
100
AcDbEntity
  8
0
100
AcDbLine
 62
7
  6
CONTINUOUS
 10
-11.4827217022
 20
-2.4658625899
 11
-11.4118884364
 21
-2.3573518632
  0
LINE
  5
343
100
AcDbEntity
  8
ASSI
100
AcDbLine
 62
7
  6
CONTINUOUS
 10
-11.4827217022
 20
-2.4658625899
 11
-11.4118884364
 21
-2.3573518632
  0
LINE
  5
344
100
AcDbEntity
  8
0
100
AcDbLine
 62
7
  6
CONTINUOUS
 10
-10.7035551707
 20
-2.6467136321
 11
-10.6327217022
 21
-2.5382030068
  0
LINE
  5
345
100
AcDbEntity
  8
ASSI
100
AcDbLine
 62
7
  6
CONTINUOUS
 10
-10.7035551707
 20
-2.6467136321
 11
-10.6327217022
 21
-2.5382030068
  0
LINE
  5
346
100
AcDbEntity
  8
0
100
AcDbLine
 62
7
  6
CONTINUOUS
 10
-12.1556384364
 20
-3.5871391406
 11
-12.0493884364
 21
-3.4424582941
  0
LINE
  5
347
100
AcDbEntity
  8
ASSI
100
AcDbLine
 62
7
  6
CONTINUOUS
 10
-12.1556384364
 20
-3.5871391406
 11
-12.0493884364
 21
-3.4424582941
  0
LINE
  5
348
100
AcDbEntity
  8
0
100
AcDbLine
 62
7
  6
CONTINUOUS
 10
-11.5181384364
 20
-3.1892668096
 11
-11.4118884364
 21
-3.0445859251
  0
LINE
  5
349
100
AcDbEntity
  8
ASSI
100
AcDbLine
 62
7
  6
CONTINUOUS
 10
-11.5181384364
 20
-3.1892668096
 11
-11.4118884364
 21
-3.0445859251
  0
LINE
  5
34A
100
AcDbEntity
  8
0
100
AcDbLine
 62
7
  6
CONTINUOUS
 10
-13.0056384364
 20
-3.0084157167
 11
-12.9348050693
 21
-2.9360752998
  0
LINE
  5
34B
100
AcDbEntity
  8
ASSI
100
AcDbLine
 62
7
  6
CONTINUOUS
 10
-13.0056384364
 20
-3.0084157167
 11
-12.9348050693
 21
-2.9360752998
  0
LINE
  5
34C
100
AcDbEntity
  8
RACCORDO
100
AcDbLine
 62
253
  6
CONTINUOUS
 10
-18.0267516256
 20
-6.4644278677
 11
-18.0566976154
 21
-6.4943738575
  0
LINE
  5
34D
100
AcDbEntity
  8
ASSI
100
AcDbLine
 62
253
  6
CONTINUOUS
 10
-18.0267516256
 20
-6.4644278677
 11
-18.0566976154
 21
-6.4943738575
  0
LINE
  5
34E
100
AcDbEntity
  8
RACCORDO
100
AcDbLine
 62
253
  6
CONTINUOUS
 10
-17.7269930089
 20
-6.7645778681
 11
-17.7567433068
 21
-6.794328166
  0
LINE
  5
34F
100
AcDbEntity
  8
ASSI
100
AcDbLine
 62
253
  6
CONTINUOUS
 10
-17.7269930089
 20
-6.7645778681
 11
-17.7567433068
 21
-6.794328166
  0
LINE
  5
350
100
AcDbEntity
  8
RACCORDO
100
AcDbLine
 62
7
  6
CONTINUOUS
 10
-23.4487879982
 20
-8.4084574025
 11
23.3250111253
 21
-8.4084574025
  0
LINE
  5
351
100
AcDbEntity
  8
ASSI
100
AcDbLine
 62
7
  6
CONTINUOUS
 10
-23.4487879982
 20
-8.4084574025
 11
23.3250111253
 21
-8.4084574025
  0
LINE
  5
352
100
AcDbEntity
  8
RACCORDO
100
AcDbLine
 62
7
  6
CONTINUOUS
 10
-7.0670792575
 20
-8.1263342334
 11
-6.8566976154
 21
-8.1263342334
  0
LINE
  5
353
100
AcDbEntity
  8
ASSI
100
AcDbLine
 62
7
  6
CONTINUOUS
 10
-7.0670792575
 20
-8.1263342334
 11
-6.8566976154
 21
-8.1263342334
  0
LINE
  5
354
100
AcDbEntity
  8
RACCORDO
100
AcDbLine
 62
7
  6
CONTINUOUS
 10
6.9433023846
 20
-8.1263342334
 11
6.7329207425
 21
-8.1263342334
  0
LINE
  5
355
100
AcDbEntity
  8
ASSI
100
AcDbLine
 62
7
  6
CONTINUOUS
 10
6.9433023846
 20
-8.1263342334
 11
6.7329207425
 21
-8.1263342334
  0
LINE
  5
356
100
AcDbEntity
  8
RACCORDO
100
AcDbLine
 62
7
  6
CONTINUOUS
 10
17.9329207425
 20
-8.1263342334
 11
18.1433023846
 21
-8.1263342334
  0
LINE
  5
357
100
AcDbEntity
  8
ASSI
100
AcDbLine
 62
7
  6
CONTINUOUS
 10
17.9329207425
 20
-8.1263342334
 11
18.1433023846
 21
-8.1263342334
  0
LINE
  5
358
100
AcDbEntity
  8
RACCORDO
100
AcDbLine
 62
7
  6
CONTINUOUS
 10
-18.0566976154
 20
-8.1263342334
 11
-18.2670792575
 21
-8.1263342334
  0
LINE
  5
359
100
AcDbEntity
  8
ASSI
100
AcDbLine
 62
7
  6
CONTINUOUS
 10
-18.0566976154
 20
-8.1263342334
 11
-18.2670792575
 21
-8.1263342334
  0
LINE
  5
35A
100
AcDbEntity
  8
RACCORDO
100
AcDbLine
 62
253
  6
CONTINUOUS
 10
23.2670329275
 20
-7.8227752181
 11
18.4681616574
 21
-7.8227752181
  0
LINE
  5
35B
100
AcDbEntity
  8
ASSI
100
AcDbLine
 62
253
  6
CONTINUOUS
 10
23.2670329275
 20
-7.8227752181
 11
18.4681616574
 21
-7.8227752181
  0
LINE
  5
35C
100
AcDbEntity
  8
RACCORDO
100
AcDbLine
 62
253
  6
CONTINUOUS
 10
6.4080614697
 20
-7.8227752181
 11
-6.5318383426
 21
-7.8227752181
  0
LINE
  5
35D
100
AcDbEntity
  8
ASSI
100
AcDbLine
 62
253
  6
CONTINUOUS
 10
6.4080614697
 20
-7.8227752181
 11
-6.5318383426
 21
-7.8227752181
  0
LINE
  5
35E
100
AcDbEntity
  8
RACCORDO
100
AcDbLine
 62
253
  6
CONTINUOUS
 10
-7.3919385303
 20
-7.8227752181
 11
-17.7318383426
 21
-7.8227752181
  0
LINE
  5
35F
100
AcDbEntity
  8
ASSI
100
AcDbLine
 62
253
  6
CONTINUOUS
 10
-7.3919385303
 20
-7.8227752181
 11
-17.7318383426
 21
-7.8227752181
  0
LINE
  5
360
100
AcDbEntity
  8
DRAFT
100
AcDbLine
 62
7
  6
CONTINUOUS
 10
17.603906309
 20
-7.7808007577
 11
7.2723168181
 21
-7.7808007577
  0
LINE
  5
361
100
AcDbEntity
  8
ASSI
100
AcDbLine
 62
7
  6
CONTINUOUS
 10
17.603906309
 20
-7.7808007577
 11
7.2723168181
 21
-7.7808007577
  0
LINE
  5
362
100
AcDbEntity
  8
RACCORDO
100
AcDbLine
 62
7
  6
CONTINUOUS
 10
-18.596093691
 20
-7.7808007577
 11
-23.3866546398
 21
-7.7808007577
  0
LINE
  5
363
100
AcDbEntity
  8
ASSI
100
AcDbLine
 62
7
  6
CONTINUOUS
 10
-18.596093691
 20
-7.7808007577
 11
-23.3866546398
 21
-7.7808007577
  0
LINE
  5
364
100
AcDbEntity
  8
RACCORDO
100
AcDbLine
 62
253
  6
CONTINUOUS
 10
23.2670329276
 20
-7.539185382
 11
18.4724847764
 21
-7.539185382
  0
LINE
  5
365
100
AcDbEntity
  8
ASSI
100
AcDbLine
 62
253
  6
CONTINUOUS
 10
23.2670329276
 20
-7.539185382
 11
18.4724847764
 21
-7.539185382
  0
LINE
  5
366
100
AcDbEntity
  8
RACCORDO
100
AcDbLine
 62
253
  6
CONTINUOUS
 10
6.4037383507
 20
-7.539185382
 11
-6.5275152236
 21
-7.539185382
  0
LINE
  5
367
100
AcDbEntity
  8
ASSI
100
AcDbLine
 62
253
  6
CONTINUOUS
 10
6.4037383507
 20
-7.539185382
 11
-6.5275152236
 21
-7.539185382
  0
LINE
  5
368
100
AcDbEntity
  8
RACCORDO
100
AcDbLine
 62
253
  6
CONTINUOUS
 10
-7.3962616493
 20
-7.539185382
 11
-17.7275152236
 21
-7.539185382
  0
LINE
  5
369
100
AcDbEntity
  8
ASSI
100
AcDbLine
 62
253
  6
CONTINUOUS
 10
-7.3962616493
 20
-7.539185382
 11
-17.7275152236
 21
-7.539185382
  0
LINE
  5
36A
100
AcDbEntity
  8
0
100
AcDbLine
 62
7
  6
CONTINUOUS
 10
-12.7223050693
 20
-3.5509689195
 11
-12.8285550693
 21
-3.514798711
  0
LINE
  5
36B
100
AcDbEntity
  8
ASSI
100
AcDbLine
 62
7
  6
CONTINUOUS
 10
-12.7223050693
 20
-3.5509689195
 11
-12.8285550693
 21
-3.514798711
  0
LINE
  5
36C
100
AcDbEntity
  8
0
100
AcDbLine
 62
7
  6
CONTINUOUS
 10
-11.2702217022
 20
-3.514798711
 11
-11.4118884364
 21
-3.4424582941
  0
LINE
  5
36D
100
AcDbEntity
  8
ASSI
100
AcDbLine
 62
7
  6
CONTINUOUS
 10
-11.2702217022
 20
-3.514798711
 11
-11.4118884364
 21
-3.4424582941
  0
LINE
  5
36E
100
AcDbEntity
  8
0
100
AcDbLine
 62
7
  6
CONTINUOUS
 10
-11.4118884364
 20
-2.8637348829
 11
-11.4827217022
 21
-2.8275646744
  0
LINE
  5
36F
100
AcDbEntity
  8
ASSI
100
AcDbLine
 62
7
  6
CONTINUOUS
 10
-11.4118884364
 20
-2.8637348829
 11
-11.4827217022
 21
-2.8275646744
  0
LINE
  5
370
100
AcDbEntity
  8
0
100
AcDbLine
 62
7
  6
CONTINUOUS
 10
-10.7035551707
 20
-3.0445859251
 11
-10.8452217022
 21
-2.9722455082
  0
LINE
  5
371
100
AcDbEntity
  8
ASSI
100
AcDbLine
 62
7
  6
CONTINUOUS
 10
-10.7035551707
 20
-3.0445859251
 11
-10.8452217022
 21
-2.9722455082
  0
LINE
  5
372
100
AcDbEntity
  8
0
100
AcDbLine
 62
7
  6
CONTINUOUS
 10
-10.6327217022
 20
-2.8999050913
 11
-10.7035551707
 21
-2.8637348829
  0
LINE
  5
373
100
AcDbEntity
  8
ASSI
100
AcDbLine
 62
7
  6
CONTINUOUS
 10
-10.6327217022
 20
-2.8999050913
 11
-10.7035551707
 21
-2.8637348829
  0
LINE
  5
374
100
AcDbEntity
  8
0
100
AcDbLine
 62
7
  6
CONTINUOUS
 10
-12.1556384364
 20
-2.791394466
 11
-12.3327218036
 21
-2.6828838406
  0
LINE
  5
375
100
AcDbEntity
  8
ASSI
100
AcDbLine
 62
7
  6
CONTINUOUS
 10
-12.1556384364
 20
-2.791394466
 11
-12.3327218036
 21
-2.6828838406
  0
LINE
  5
376
100
AcDbEntity
  8
0
100
AcDbLine
 62
7
  6
CONTINUOUS
 10
-12.1910551707
 20
-2.1765008209
 11
-12.3681384364
 21
-2.0679901955
  0
LINE
  5
377
100
AcDbEntity
  8
ASSI
100
AcDbLine
 62
7
  6
CONTINUOUS
 10
-12.1910551707
 20
-2.1765008209
 11
-12.3681384364
 21
-2.0679901955
  0
LINE
  5
378
100
AcDbEntity
  8
0
100
AcDbLine
 62
7
  6
CONTINUOUS
 10
-10.6327217022
 20
-2.1765008209
 11
-10.8098051707
 21
-2.0679901955
  0
LINE
  5
379
100
AcDbEntity
  8
ASSI
100
AcDbLine
 62
7
  6
CONTINUOUS
 10
-10.6327217022
 20
-2.1765008209
 11
-10.8098051707
 21
-2.0679901955
  0
LINE
  5
37A
100
AcDbEntity
  8
0
100
AcDbLine
 62
7
  6
CONTINUOUS
 10
-10.491054968
 20
-3.0084157167
 11
-10.6327217022
 21
-2.8999050913
  0
LINE
  5
37B
100
AcDbEntity
  8
ASSI
100
AcDbLine
 62
7
  6
CONTINUOUS
 10
-10.491054968
 20
-3.0084157167
 11
-10.6327217022
 21
-2.8999050913
  0
LINE
  5
37C
100
AcDbEntity
  8
0
100
AcDbLine
 62
7
  6
CONTINUOUS
 10
-10.7035551707
 20
-2.3573518632
 11
-10.8452217022
 21
-2.2488412378
  0
LINE
  5
37D
100
AcDbEntity
  8
ASSI
100
AcDbLine
 62
7
  6
CONTINUOUS
 10
-10.7035551707
 20
-2.3573518632
 11
-10.8452217022
 21
-2.2488412378
  0
LINE
  5
37E
100
AcDbEntity
  8
RACCORDO
100
AcDbLine
 62
7
  6
CONTINUOUS
 10
-19.3067433068
 20
7.7953358833
 11
-19.2892377205
 21
7.777830297
  0
LINE
  5
37F
100
AcDbEntity
  8
ASSI
100
AcDbLine
 62
7
  6
CONTINUOUS
 10
-19.3067433068
 20
7.7953358833
 11
-19.2892377205
 21
7.777830297
  0
LINE
  5
380
100
AcDbEntity
  8
0
100
AcDbLine
 62
7
  6
CONTINUOUS
 10
-7.3743884364
 20
-2.4296922801
 11
-7.4452219049
 21
-2.3211816547
  0
LINE
  5
381
100
AcDbEntity
  8
ASSI
100
AcDbLine
 62
7
  6
CONTINUOUS
 10
-7.3743884364
 20
-2.4296922801
 11
-7.4452219049
 21
-2.3211816547
  0
LINE
  5
382
100
AcDbEntity
  8
0
100
AcDbLine
 62
7
  6
CONTINUOUS
 10
-7.1618884364
 20
-2.4296922801
 11
-7.197304968
 21
-2.2850114463
  0
LINE
  5
383
100
AcDbEntity
  8
ASSI
100
AcDbLine
 62
7
  6
CONTINUOUS
 10
-7.1618884364
 20
-2.4296922801
 11
-7.197304968
 21
-2.2850114463
  0
LINE
  5
384
100
AcDbEntity
  8
RACCORDO
100
AcDbLine
 62
253
  6
CONTINUOUS
 10
-6.8566976154
 20
-6.4943738575
 11
-6.8566976154
 21
-8.1263342334
  0
LINE
  5
385
100
AcDbEntity
  8
ASSI
100
AcDbLine
 62
253
  6
CONTINUOUS
 10
-6.8566976154
 20
-6.4943738575
 11
-6.8566976154
 21
-8.1263342334
  0
LINE
  5
386
100
AcDbEntity
  8
RACCORDO
100
AcDbLine
 62
253
  6
CONTINUOUS
 10
-6.5567433068
 20
-6.794328166
 11
-6.5567433068
 21
-8.0743593382
  0
LINE
  5
387
100
AcDbEntity
  8
ASSI
100
AcDbLine
 62
253
  6
CONTINUOUS
 10
-6.5567433068
 20
-6.794328166
 11
-6.5567433068
 21
-8.0743593382
  0
LINE
  5
388
100
AcDbEntity
  8
RACCORDO
100
AcDbLine
 62
7
  6
CONTINUOUS
 10
-6.5318383426
 20
-7.8227752181
 11
-6.5567433068
 21
-8.0743593382
  0
LINE
  5
389
100
AcDbEntity
  8
ASSI
100
AcDbLine
 62
7
  6
CONTINUOUS
 10
-6.5318383426
 20
-7.8227752181
 11
-6.5567433068
 21
-8.0743593382
  0
LINE
  5
38A
100
AcDbEntity
  8
0
100
AcDbLine
 62
7
  6
CONTINUOUS
 10
-7.197304968
 20
-2.6467136321
 11
-7.1618884364
 21
-2.5020327983
  0
LINE
  5
38B
100
AcDbEntity
  8
ASSI
100
AcDbLine
 62
7
  6
CONTINUOUS
 10
-7.197304968
 20
-2.6467136321
 11
-7.1618884364
 21
-2.5020327983
  0
LINE
  5
38C
100
AcDbEntity
  8
0
100
AcDbLine
 62
7
  6
CONTINUOUS
 10
-7.4452219049
 20
-2.6467136321
 11
-7.3743884364
 21
-2.5020327983
  0
LINE
  5
38D
100
AcDbEntity
  8
ASSI
100
AcDbLine
 62
7
  6
CONTINUOUS
 10
-7.4452219049
 20
-2.6467136321
 11
-7.3743884364
 21
-2.5020327983
  0
LINE
  5
38E
100
AcDbEntity
  8
0
100
AcDbLine
 62
7
  6
CONTINUOUS
 10
-8.2243884364
 20
-2.4296922801
 11
-8.153554968
 21
-2.3211816547
  0
LINE
  5
38F
100
AcDbEntity
  8
ASSI
100
AcDbLine
 62
7
  6
CONTINUOUS
 10
-8.2243884364
 20
-2.4296922801
 11
-8.153554968
 21
-2.3211816547
  0
LINE
  5
390
100
AcDbEntity
  8
0
100
AcDbLine
 62
7
  6
CONTINUOUS
 10
-10.7035551707
 20
-3.4424582941
 11
-10.5973051707
 21
-3.297777435
  0
LINE
  5
391
100
AcDbEntity
  8
ASSI
100
AcDbLine
 62
7
  6
CONTINUOUS
 10
-10.7035551707
 20
-3.4424582941
 11
-10.5973051707
 21
-3.297777435
  0
LINE
  5
392
100
AcDbEntity
  8
0
100
AcDbLine
 62
7
  6
CONTINUOUS
 10
-10.1368884364
 20
-3.0084157167
 11
-9.2868884364
 21
-2.0318199871
  0
LINE
  5
393
100
AcDbEntity
  8
ASSI
100
AcDbLine
 62
7
  6
CONTINUOUS
 10
-10.1368884364
 20
-3.0084157167
 11
-9.2868884364
 21
-2.0318199871
  0
LINE
  5
394
100
AcDbEntity
  8
0
100
AcDbLine
 62
7
  6
CONTINUOUS
 10
-9.8889719049
 20
-3.0084157167
 11
-9.2868884364
 21
-2.3211816547
  0
LINE
  5
395
100
AcDbEntity
  8
ASSI
100
AcDbLine
 62
7
  6
CONTINUOUS
 10
-9.8889719049
 20
-3.0084157167
 11
-9.2868884364
 21
-2.3211816547
  0
LINE
  5
396
100
AcDbEntity
  8
0
100
AcDbLine
 62
7
  6
CONTINUOUS
 10
-11.5889717022
 20
-2.2850114463
 11
-11.4827217022
 21
-2.1765008209
  0
LINE
  5
397
100
AcDbEntity
  8
ASSI
100
AcDbLine
 62
7
  6
CONTINUOUS
 10
-11.5889717022
 20
-2.2850114463
 11
-11.4827217022
 21
-2.1765008209
  0
LINE
  5
398
100
AcDbEntity
  8
0
100
AcDbLine
 62
7
  6
CONTINUOUS
 10
-10.6327217022
 20
-2.8275646744
 11
-10.5264719049
 21
-2.719054049
  0
LINE
  5
399
100
AcDbEntity
  8
ASSI
100
AcDbLine
 62
7
  6
CONTINUOUS
 10
-10.6327217022
 20
-2.8275646744
 11
-10.5264719049
 21
-2.719054049
  0
LINE
  5
39A
100
AcDbEntity
  8
0
100
AcDbLine
 62
7
  6
CONTINUOUS
 10
-10.5973051707
 20
-3.5871391406
 11
-10.491054968
 21
-3.4786285026
  0
LINE
  5
39B
100
AcDbEntity
  8
ASSI
100
AcDbLine
 62
7
  6
CONTINUOUS
 10
-10.5973051707
 20
-3.5871391406
 11
-10.491054968
 21
-3.4786285026
  0
LINE
  5
39C
100
AcDbEntity
  8
0
100
AcDbLine
 62
7
  6
CONTINUOUS
 10
-11.4118884364
 20
-2.3573518632
 11
-11.2702217022
 21
-2.2488412378
  0
LINE
  5
39D
100
AcDbEntity
  8
ASSI
100
AcDbLine
 62
7
  6
CONTINUOUS
 10
-11.4118884364
 20
-2.3573518632
 11
-11.2702217022
 21
-2.2488412378
  0
LINE
  5
39E
100
AcDbEntity
  8
0
100
AcDbLine
 62
7
  6
CONTINUOUS
 10
-12.9348050693
 20
-2.3211816547
 11
-12.8285550693
 21
-2.2488412378
  0
LINE
  5
39F
100
AcDbEntity
  8
ASSI
100
AcDbLine
 62
7
  6
CONTINUOUS
 10
-12.9348050693
 20
-2.3211816547
 11
-12.8285550693
 21
-2.2488412378
  0
LINE
  5
3A0
100
AcDbEntity
  8
0
100
AcDbLine
 62
7
  6
CONTINUOUS
 10
-13.0764718036
 20
-2.8275646744
 11
-12.8639718036
 21
-2.6828838406
  0
LINE
  5
3A1
100
AcDbEntity
  8
ASSI
100
AcDbLine
 62
7
  6
CONTINUOUS
 10
-13.0764718036
 20
-2.8275646744
 11
-12.8639718036
 21
-2.6828838406
  0
LINE
  5
3A2
100
AcDbEntity
  8
0
100
AcDbLine
 62
7
  6
CONTINUOUS
 10
-13.0410550693
 20
-2.1765008209
 11
-12.8639718036
 21
-2.0679901955
  0
LINE
  5
3A3
100
AcDbEntity
  8
ASSI
100
AcDbLine
 62
7
  6
CONTINUOUS
 10
-13.0410550693
 20
-2.1765008209
 11
-12.8639718036
 21
-2.0679901955
  0
LINE
  5
3A4
100
AcDbEntity
  8
DRAFT
100
AcDbLine
 62
7
  6
CONTINUOUS
 10
21.7881115636
 20
-4.9715908832
 11
22.5881115636
 21
-4.9576268313
  0
LINE
  5
3A5
100
AcDbEntity
  8
ASSI
100
AcDbLine
 62
7
  6
CONTINUOUS
 10
21.7881115636
 20
-4.9715908832
 11
22.5881115636
 21
-4.9576268313
  0
LINE
  5
3A6
100
AcDbEntity
  8
RACCORDO
100
AcDbLine
 62
7
  6
CONTINUOUS
 10
23.2666782786
 20
-7.0167920352
 11
22.2708385154
 21
-7.0167920352
  0
LINE
  5
3A7
100
AcDbEntity
  8
ASSI
100
AcDbLine
 62
7
  6
CONTINUOUS
 10
23.2666782786
 20
-7.0167920352
 11
22.2708385154
 21
-7.0167920352
  0
LINE
  5
3A8
100
AcDbEntity
  8
RACCORDO
100
AcDbLine
 62
7
  6
CONTINUOUS
 10
-22.3946153883
 20
-7.0167920352
 11
-23.3904551515
 21
-7.0167920352
  0
LINE
  5
3A9
100
AcDbEntity
  8
ASSI
100
AcDbLine
 62
7
  6
CONTINUOUS
 10
-22.3946153883
 20
-7.0167920352
 11
-23.3904551515
 21
-7.0167920352
  0
LINE
  5
3AA
100
AcDbEntity
  8
RACCORDO
100
AcDbLine
 62
7
  6
CONTINUOUS
 10
-23.7374513455
 20
-6.9646088572
 11
-22.7416077452
 21
-6.9646088572
  0
LINE
  5
3AB
100
AcDbEntity
  8
ASSI
100
AcDbLine
 62
7
  6
CONTINUOUS
 10
-23.7374513455
 20
-6.9646088572
 11
-22.7416077452
 21
-6.9646088572
  0
LINE
  5
3AC
100
AcDbEntity
  8
RACCORDO
100
AcDbLine
 62
7
  6
CONTINUOUS
 10
22.6178308723
 20
-6.9646088572
 11
23.6136744727
 21
-6.9646088572
  0
LINE
  5
3AD
100
AcDbEntity
  8
ASSI
100
AcDbLine
 62
7
  6
CONTINUOUS
 10
22.6178308723
 20
-6.9646088572
 11
23.6136744727
 21
-6.9646088572
  0
LINE
  5
3AE
100
AcDbEntity
  8
RACCORDO
100
AcDbLine
 62
253
  6
CONTINUOUS
 10
6.4329664339
 20
-6.794328166
 11
7.2432566932
 21
-6.794328166
  0
LINE
  5
3AF
100
AcDbEntity
  8
ASSI
100
AcDbLine
 62
253
  6
CONTINUOUS
 10
6.4329664339
 20
-6.794328166
 11
7.2432566932
 21
-6.794328166
  0
LINE
  5
3B0
100
AcDbEntity
  8
RACCORDO
100
AcDbLine
 62
253
  6
CONTINUOUS
 10
-6.5567433068
 20
-6.794328166
 11
-7.3670335661
 21
-6.794328166
  0
LINE
  5
3B1
100
AcDbEntity
  8
ASSI
100
AcDbLine
 62
253
  6
CONTINUOUS
 10
-6.5567433068
 20
-6.794328166
 11
-7.3670335661
 21
-6.794328166
  0
LINE
  5
3B2
100
AcDbEntity
  8
RACCORDO
100
AcDbLine
 62
253
  6
CONTINUOUS
 10
17.6329664339
 20
-6.794328166
 11
18.4432566932
 21
-6.794328166
  0
LINE
  5
3B3
100
AcDbEntity
  8
ASSI
100
AcDbLine
 62
253
  6
CONTINUOUS
 10
17.6329664339
 20
-6.794328166
 11
18.4432566932
 21
-6.794328166
  0
LINE
  5
3B4
100
AcDbEntity
  8
RACCORDO
100
AcDbLine
 62
253
  6
CONTINUOUS
 10
-17.7567433068
 20
-6.794328166
 11
-18.5670335661
 21
-6.794328166
  0
LINE
  5
3B5
100
AcDbEntity
  8
ASSI
100
AcDbLine
 62
253
  6
CONTINUOUS
 10
-17.7567433068
 20
-6.794328166
 11
-18.5670335661
 21
-6.794328166
  0
LINE
  5
3B6
100
AcDbEntity
  8
RACCORDO
100
AcDbLine
 62
253
  6
CONTINUOUS
 10
18.1433023846
 20
-6.4943738575
 11
17.9329207425
 21
-6.4943738575
  0
LINE
  5
3B7
100
AcDbEntity
  8
ASSI
100
AcDbLine
 62
253
  6
CONTINUOUS
 10
18.1433023846
 20
-6.4943738575
 11
17.9329207425
 21
-6.4943738575
  0
LINE
  5
3B8
100
AcDbEntity
  8
RACCORDO
100
AcDbLine
 62
253
  6
CONTINUOUS
 10
6.9433023846
 20
-6.4943738575
 11
6.7329207425
 21
-6.4943738575
  0
LINE
  5
3B9
100
AcDbEntity
  8
ASSI
100
AcDbLine
 62
253
  6
CONTINUOUS
 10
6.9433023846
 20
-6.4943738575
 11
6.7329207425
 21
-6.4943738575
  0
LINE
  5
3BA
100
AcDbEntity
  8
RACCORDO
100
AcDbLine
 62
253
  6
CONTINUOUS
 10
-6.8566976154
 20
-6.4943738575
 11
-7.0670792575
 21
-6.4943738575
  0
LINE
  5
3BB
100
AcDbEntity
  8
ASSI
100
AcDbLine
 62
253
  6
CONTINUOUS
 10
-6.8566976154
 20
-6.4943738575
 11
-7.0670792575
 21
-6.4943738575
  0
LINE
  5
3BC
100
AcDbEntity
  8
RACCORDO
100
AcDbLine
 62
253
  6
CONTINUOUS
 10
-18.0566976154
 20
-6.4943738575
 11
-18.2670792575
 21
-6.4943738575
  0
LINE
  5
3BD
100
AcDbEntity
  8
ASSI
100
AcDbLine
 62
253
  6
CONTINUOUS
 10
-18.0566976154
 20
-6.4943738575
 11
-18.2670792575
 21
-6.4943738575
  0
LINE
  5
3BE
100
AcDbEntity
  8
RACCORDO
100
AcDbLine
 62
7
  6
CONTINUOUS
 10
-18.2970252473
 20
-6.4644278677
 11
-18.0267516256
 21
-6.4644278677
  0
LINE
  5
3BF
100
AcDbEntity
  8
ASSI
100
AcDbLine
 62
7
  6
CONTINUOUS
 10
-18.2970252473
 20
-6.4644278677
 11
-18.0267516256
 21
-6.4644278677
  0
LINE
  5
3C0
100
AcDbEntity
  8
RACCORDO
100
AcDbLine
 62
7
  6
CONTINUOUS
 10
-7.0970252473
 20
-6.4644278677
 11
-6.8267516256
 21
-6.4644278677
  0
LINE
  5
3C1
100
AcDbEntity
  8
ASSI
100
AcDbLine
 62
7
  6
CONTINUOUS
 10
-7.0970252473
 20
-6.4644278677
 11
-6.8267516256
 21
-6.4644278677
  0
LINE
  5
3C2
100
AcDbEntity
  8
RACCORDO
100
AcDbLine
 62
7
  6
CONTINUOUS
 10
6.7029747527
 20
-6.4644278677
 11
6.9732483744
 21
-6.4644278677
  0
LINE
  5
3C3
100
AcDbEntity
  8
ASSI
100
AcDbLine
 62
7
  6
CONTINUOUS
 10
6.7029747527
 20
-6.4644278677
 11
6.9732483744
 21
-6.4644278677
  0
LINE
  5
3C4
100
AcDbEntity
  8
RACCORDO
100
AcDbLine
 62
7
  6
CONTINUOUS
 10
17.9029747527
 20
-6.4644278677
 11
18.1732483744
 21
-6.4644278677
  0
LINE
  5
3C5
100
AcDbEntity
  8
ASSI
100
AcDbLine
 62
7
  6
CONTINUOUS
 10
17.9029747527
 20
-6.4644278677
 11
18.1732483744
 21
-6.4644278677
  0
LINE
  5
3C6
100
AcDbEntity
  8
RACCORDO
100
AcDbLine
 62
7
  6
CONTINUOUS
 10
23.6136744727
 20
-6.3344291169
 11
22.6178308723
 21
-6.3344291169
  0
LINE
  5
3C7
100
AcDbEntity
  8
ASSI
100
AcDbLine
 62
7
  6
CONTINUOUS
 10
23.6136744727
 20
-6.3344291169
 11
22.6178308723
 21
-6.3344291169
  0
LINE
  5
3C8
100
AcDbEntity
  8
RACCORDO
100
AcDbLine
 62
7
  6
CONTINUOUS
 10
-22.7416077452
 20
-6.3344291169
 11
-23.7374513455
 21
-6.3344291169
  0
LINE
  5
3C9
100
AcDbEntity
  8
ASSI
100
AcDbLine
 62
7
  6
CONTINUOUS
 10
-22.7416077452
 20
-6.3344291169
 11
-23.7374513455
 21
-6.3344291169
  0
LINE
  5
3CA
100
AcDbEntity
  8
RACCORDO
100
AcDbLine
 62
7
  6
CONTINUOUS
 10
-23.3899752135
 20
-6.2817656608
 11
-22.3941351101
 21
-6.2817656608
  0
LINE
  5
3CB
100
AcDbEntity
  8
ASSI
100
AcDbLine
 62
7
  6
CONTINUOUS
 10
-23.3899752135
 20
-6.2817656608
 11
-22.3941351101
 21
-6.2817656608
  0
LINE
  5
3CC
100
AcDbEntity
  8
RACCORDO
100
AcDbLine
 62
7
  6
CONTINUOUS
 10
22.2703582372
 20
-6.2817656608
 11
23.2661983406
 21
-6.2817656608
  0
LINE
  5
3CD
100
AcDbEntity
  8
ASSI
100
AcDbLine
 62
7
  6
CONTINUOUS
 10
22.2703582372
 20
-6.2817656608
 11
23.2661983406
 21
-6.2817656608
  0
LINE
  5
3CE
100
AcDbEntity
  8
DRAFT
100
AcDbLine
 62
7
  6
CONTINUOUS
 10
-22.7118884364
 20
-4.9576268313
 11
-21.9118884364
 21
-4.9715908832
  0
LINE
  5
3CF
100
AcDbEntity
  8
ASSI
100
AcDbLine
 62
7
  6
CONTINUOUS
 10
-22.7118884364
 20
-4.9576268313
 11
-21.9118884364
 21
-4.9715908832
  0
LINE
  5
3D0
100
AcDbEntity
  8
0
100
AcDbLine
 62
7
  6
CONTINUOUS
 10
-12.6868884364
 20
-3.7318199871
 11
-12.8639718036
 21
-3.6956497755
  0
LINE
  5
3D1
100
AcDbEntity
  8
ASSI
100
AcDbLine
 62
7
  6
CONTINUOUS
 10
-12.6868884364
 20
-3.7318199871
 11
-12.8639718036
 21
-3.6956497755
  0
LINE
  5
3D2
100
AcDbEntity
  8
0
100
AcDbLine
 62
7
  6
CONTINUOUS
 10
-11.1639717022
 20
-3.7318199871
 11
-11.3410551707
 21
-3.6956497755
  0
LINE
  5
3D3
100
AcDbEntity
  8
ASSI
100
AcDbLine
 62
7
  6
CONTINUOUS
 10
-11.1639717022
 20
-3.7318199871
 11
-11.3410551707
 21
-3.6956497755
  0
LINE
  5
3D4
100
AcDbEntity
  8
0
100
AcDbLine
 62
7
  6
CONTINUOUS
 10
-11.1285551707
 20
-3.5509689195
 11
-11.2702217022
 21
-3.514798711
  0
LINE
  5
3D5
100
AcDbEntity
  8
ASSI
100
AcDbLine
 62
7
  6
CONTINUOUS
 10
-11.1285551707
 20
-3.5509689195
 11
-11.2702217022
 21
-3.514798711
  0
LINE
  5
3D6
100
AcDbEntity
  8
0
100
AcDbLine
 62
7
  6
CONTINUOUS
 10
-10.8452217022
 20
-2.9722455082
 11
-10.9868884364
 21
-2.9360752998
  0
LINE
  5
3D7
100
AcDbEntity
  8
ASSI
100
AcDbLine
 62
7
  6
CONTINUOUS
 10
-10.8452217022
 20
-2.9722455082
 11
-10.9868884364
 21
-2.9360752998
  0
LINE
  5
3D8
100
AcDbEntity
  8
0
100
AcDbLine
 62
7
  6
CONTINUOUS
 10
-11.1285551707
 20
-2.791394466
 11
-11.2702217022
 21
-2.7552242575
  0
LINE
  5
3D9
100
AcDbEntity
  8
ASSI
100
AcDbLine
 62
7
  6
CONTINUOUS
 10
-11.1285551707
 20
-2.791394466
 11
-11.2702217022
 21
-2.7552242575
  0
LINE
  5
3DA
100
AcDbEntity
  8
0
100
AcDbLine
 62
7
  6
CONTINUOUS
 10
-12.3681384364
 20
-2.8637348829
 11
-12.4743884364
 21
-2.8275646744
  0
LINE
  5
3DB
100
AcDbEntity
  8
ASSI
100
AcDbLine
 62
7
  6
CONTINUOUS
 10
-12.3681384364
 20
-2.8637348829
 11
-12.4743884364
 21
-2.8275646744
  0
LINE
  5
3DC
100
AcDbEntity
  8
0
100
AcDbLine
 62
7
  6
CONTINUOUS
 10
-12.4035550693
 20
-2.2488412378
 11
-12.5098050693
 21
-2.2126710294
  0
LINE
  5
3DD
100
AcDbEntity
  8
ASSI
100
AcDbLine
 62
7
  6
CONTINUOUS
 10
-12.4035550693
 20
-2.2488412378
 11
-12.5098050693
 21
-2.2126710294
  0
LINE
  5
3DE
100
AcDbEntity
  8
0
100
AcDbLine
 62
7
  6
CONTINUOUS
 10
-7.4452219049
 20
-2.3211816547
 11
-7.5514719049
 21
-2.2488412378
  0
LINE
  5
3DF
100
AcDbEntity
  8
ASSI
100
AcDbLine
 62
7
  6
CONTINUOUS
 10
-7.4452219049
 20
-2.3211816547
 11
-7.5514719049
 21
-2.2488412378
  0
LINE
  5
3E0
100
AcDbEntity
  8
0
100
AcDbLine
 62
7
  6
CONTINUOUS
 10
-7.197304968
 20
-2.2850114463
 11
-7.3389719049
 21
-2.1403306125
  0
LINE
  5
3E1
100
AcDbEntity
  8
ASSI
100
AcDbLine
 62
7
  6
CONTINUOUS
 10
-7.197304968
 20
-2.2850114463
 11
-7.3389719049
 21
-2.1403306125
  0
LINE
  5
3E2
100
AcDbEntity
  8
RACCORDO
100
AcDbLine
 62
253
  6
CONTINUOUS
 10
-4.4917872034
 20
5.4263710245
 11
-4.4852642986
 21
3.774903971
  0
LINE
  5
3E3
100
AcDbEntity
  8
ASSI
100
AcDbLine
 62
253
  6
CONTINUOUS
 10
-4.4917872034
 20
5.4263710245
 11
-4.4852642986
 21
3.774903971
  0
LINE
  5
3E4
100
AcDbEntity
  8
RACCORDO
100
AcDbLine
 62
253
  6
CONTINUOUS
 10
-3.8837339612
 20
3.7970354886
 11
-3.8837339612
 21
5.4039265372
  0
LINE
  5
3E5
100
AcDbEntity
  8
ASSI
100
AcDbLine
 62
253
  6
CONTINUOUS
 10
-3.8837339612
 20
3.7970354886
 11
-3.8837339612
 21
5.4039265372
  0
LINE
  5
3E6
100
AcDbEntity
  8
RACCORDO
100
AcDbLine
 62
253
  6
CONTINUOUS
 10
-3.601826175
 20
3.8004810129
 11
-3.601826175
 21
5.4004810129
  0
LINE
  5
3E7
100
AcDbEntity
  8
ASSI
100
AcDbLine
 62
253
  6
CONTINUOUS
 10
-3.601826175
 20
3.8004810129
 11
-3.601826175
 21
5.4004810129
  0
LINE
  5
3E8
100
AcDbEntity
  8
0
100
AcDbLine
 62
7
  6
CONTINUOUS
 10
-7.2681384364
 20
-2.7552242575
 11
-7.197304968
 21
-2.6467136321
  0
LINE
  5
3E9
100
AcDbEntity
  8
ASSI
100
AcDbLine
 62
7
  6
CONTINUOUS
 10
-7.2681384364
 20
-2.7552242575
 11
-7.197304968
 21
-2.6467136321
  0
LINE
  5
3EA
100
AcDbEntity
  8
0
100
AcDbLine
 62
7
  6
CONTINUOUS
 10
-8.366054968
 20
-2.2850114463
 11
-8.2243884364
 21
-2.1403306125
  0
LINE
  5
3EB
100
AcDbEntity
  8
ASSI
100
AcDbLine
 62
7
  6
CONTINUOUS
 10
-8.366054968
 20
-2.2850114463
 11
-8.2243884364
 21
-2.1403306125
  0
LINE
  5
3EC
100
AcDbEntity
  8
0
100
AcDbLine
 62
7
  6
CONTINUOUS
 10
-11.6243884364
 20
-3.0084157167
 11
-11.4827217022
 21
-2.8999050913
  0
LINE
  5
3ED
100
AcDbEntity
  8
ASSI
100
AcDbLine
 62
7
  6
CONTINUOUS
 10
-11.6243884364
 20
-3.0084157167
 11
-11.4827217022
 21
-2.8999050913
  0
LINE
  5
3EE
100
AcDbEntity
  8
0
100
AcDbLine
 62
7
  6
CONTINUOUS
 10
-10.8452217022
 20
-2.7552242575
 11
-10.7035551707
 21
-2.6467136321
  0
LINE
  5
3EF
100
AcDbEntity
  8
ASSI
100
AcDbLine
 62
7
  6
CONTINUOUS
 10
-10.8452217022
 20
-2.7552242575
 11
-10.7035551707
 21
-2.6467136321
  0
LINE
  5
3F0
100
AcDbEntity
  8
0
100
AcDbLine
 62
7
  6
CONTINUOUS
 10
-12.9348050693
 20
-2.9360752998
 11
-12.8285550693
 21
-2.8637348829
  0
LINE
  5
3F1
100
AcDbEntity
  8
ASSI
100
AcDbLine
 62
7
  6
CONTINUOUS
 10
-12.9348050693
 20
-2.9360752998
 11
-12.8285550693
 21
-2.8637348829
  0
LINE
  5
3F2
100
AcDbEntity
  8
0
100
AcDbLine
 62
7
  6
CONTINUOUS
 10
-12.3681384364
 20
-3.514798711
 11
-12.2618884364
 21
-3.4424582941
  0
LINE
  5
3F3
100
AcDbEntity
  8
ASSI
100
AcDbLine
 62
7
  6
CONTINUOUS
 10
-12.3681384364
 20
-3.514798711
 11
-12.2618884364
 21
-3.4424582941
  0
LINE
  5
3F4
100
AcDbEntity
  8
0
100
AcDbLine
 62
7
  6
CONTINUOUS
 10
-11.4827217022
 20
-2.1765008209
 11
-11.3056384364
 21
-2.0679901955
  0
LINE
  5
3F5
100
AcDbEntity
  8
ASSI
100
AcDbLine
 62
7
  6
CONTINUOUS
 10
-11.4827217022
 20
-2.1765008209
 11
-11.3056384364
 21
-2.0679901955
  0
LINE
  5
3F6
100
AcDbEntity
  8
0
100
AcDbLine
 62
7
  6
CONTINUOUS
 10
-12.3327218036
 20
-3.6956497755
 11
-12.1556384364
 21
-3.5871391406
  0
LINE
  5
3F7
100
AcDbEntity
  8
ASSI
100
AcDbLine
 62
7
  6
CONTINUOUS
 10
-12.3327218036
 20
-3.6956497755
 11
-12.1556384364
 21
-3.5871391406
  0
LINE
  5
3F8
100
AcDbEntity
  8
DRAFT
100
AcDbLine
 62
7
  6
CONTINUOUS
 10
-21.9118884364
 20
-4.9778747066
 11
-22.4618884364
 21
-4.9834174341
  0
LINE
  5
3F9
100
AcDbEntity
  8
ASSI
100
AcDbLine
 62
7
  6
CONTINUOUS
 10
-21.9118884364
 20
-4.9778747066
 11
-22.4618884364
 21
-4.9834174341
  0
LINE
  5
3FA
100
AcDbEntity
  8
RACCORDO
100
AcDbLine
 62
7
  6
CONTINUOUS
 10
23.2654252838
 20
-5.0180459178
 11
22.3381115636
 21
-5.0180459178
  0
LINE
  5
3FB
100
AcDbEntity
  8
ASSI
100
AcDbLine
 62
7
  6
CONTINUOUS
 10
23.2654252838
 20
-5.0180459178
 11
22.3381115636
 21
-5.0180459178
  0
LINE
  5
3FC
100
AcDbEntity
  8
RACCORDO
100
AcDbLine
 62
7
  6
CONTINUOUS
 10
-22.4618884364
 20
-5.0180459178
 11
-23.3892021567
 21
-5.0180459178
  0
LINE
  5
3FD
100
AcDbEntity
  8
ASSI
100
AcDbLine
 62
7
  6
CONTINUOUS
 10
-22.4618884364
 20
-5.0180459178
 11
-23.3892021567
 21
-5.0180459178
  0
LINE
  5
3FE
100
AcDbEntity
  8
DRAFT
100
AcDbLine
 62
7
  6
CONTINUOUS
 10
-23.7444333715
 20
-4.9576268313
 11
-22.7118884364
 21
-4.9576268313
  0
LINE
  5
3FF
100
AcDbEntity
  8
ASSI
100
AcDbLine
 62
7
  6
CONTINUOUS
 10
-23.7444333715
 20
-4.9576268313
 11
-22.7118884364
 21
-4.9576268313
  0
LINE
  5
400
100
AcDbEntity
  8
DRAFT
100
AcDbLine
 62
7
  6
CONTINUOUS
 10
22.5881115636
 20
-4.9576268313
 11
23.6206564986
 21
-4.9576268313
  0
LINE
  5
401
100
AcDbEntity
  8
ASSI
100
AcDbLine
 62
7
  6
CONTINUOUS
 10
22.5881115636
 20
-4.9576268313
 11
23.6206564986
 21
-4.9576268313
  0
LINE
  5
402
100
AcDbEntity
  8
DRAFT
100
AcDbLine
 62
7
  6
CONTINUOUS
 10
23.9336039777
 20
-4.3450114012
 11
23.6336039777
 21
-4.3450114012
  0
LINE
  5
403
100
AcDbEntity
  8
ASSI
100
AcDbLine
 62
7
  6
CONTINUOUS
 10
23.9336039777
 20
-4.3450114012
 11
23.6336039777
 21
-4.3450114012
  0
LINE
  5
404
100
AcDbEntity
  8
DRAFT
100
AcDbLine
 62
7
  6
CONTINUOUS
 10
-23.7573808506
 20
-4.3450114012
 11
-24.0573808506
 21
-4.3450114012
  0
LINE
  5
405
100
AcDbEntity
  8
ASSI
100
AcDbLine
 62
7
  6
CONTINUOUS
 10
-23.7573808506
 20
-4.3450114012
 11
-24.0573808506
 21
-4.3450114012
  0
LINE
  5
406
100
AcDbEntity
  8
DRAFT
100
AcDbLine
 62
7
  6
CONTINUOUS
 10
-23.7444333715
 20
-4.3320639222
 11
-22.9793435014
 21
-4.3320639222
  0
LINE
  5
407
100
AcDbEntity
  8
ASSI
100
AcDbLine
 62
7
  6
CONTINUOUS
 10
-23.7444333715
 20
-4.3320639222
 11
-22.9793435014
 21
-4.3320639222
  0
LINE
  5
408
100
AcDbEntity
  8
DRAFT
100
AcDbLine
 62
7
  6
CONTINUOUS
 10
23.6206564986
 20
-4.3320639222
 11
22.8555666285
 21
-4.3320639222
  0
LINE
  5
409
100
AcDbEntity
  8
ASSI
100
AcDbLine
 62
7
  6
CONTINUOUS
 10
23.6206564986
 20
-4.3320639222
 11
22.8555666285
 21
-4.3320639222
  0
LINE
  5
40A
100
AcDbEntity
  8
DRAFT
100
AcDbLine
 62
7
  6
CONTINUOUS
 10
-23.9835880865
 20
-4.2712186372
 11
-23.0401887864
 21
-4.2712186372
  0
LINE
  5
40B
100
AcDbEntity
  8
ASSI
100
AcDbLine
 62
7
  6
CONTINUOUS
 10
-23.9835880865
 20
-4.2712186372
 11
-23.0401887864
 21
-4.2712186372
  0
LINE
  5
40C
100
AcDbEntity
  8
DRAFT
100
AcDbLine
 62
7
  6
CONTINUOUS
 10
22.9164119135
 20
-4.2712186372
 11
23.8598112136
 21
-4.2712186372
  0
LINE
  5
40D
100
AcDbEntity
  8
ASSI
100
AcDbLine
 62
7
  6
CONTINUOUS
 10
22.9164119135
 20
-4.2712186372
 11
23.8598112136
 21
-4.2712186372
  0
LINE
  5
40E
100
AcDbEntity
  8
0
100
AcDbLine
 62
7
  6
CONTINUOUS
 10
-13.7493884364
 20
-3.7318199871
 11
-13.5368884364
 21
-3.7318199871
  0
LINE
  5
40F
100
AcDbEntity
  8
ASSI
100
AcDbLine
 62
7
  6
CONTINUOUS
 10
-13.7493884364
 20
-3.7318199871
 11
-13.5368884364
 21
-3.7318199871
  0
LINE
  5
410
100
AcDbEntity
  8
0
100
AcDbLine
 62
7
  6
CONTINUOUS
 10
-12.6868884364
 20
-3.7318199871
 11
-12.5098050693
 21
-3.7318199871
  0
LINE
  5
411
100
AcDbEntity
  8
ASSI
100
AcDbLine
 62
7
  6
CONTINUOUS
 10
-12.6868884364
 20
-3.7318199871
 11
-12.5098050693
 21
-3.7318199871
  0
LINE
  5
412
100
AcDbEntity
  8
0
100
AcDbLine
 62
7
  6
CONTINUOUS
 10
-11.1639717022
 20
-3.7318199871
 11
-10.9514717022
 21
-3.7318199871
  0
LINE
  5
413
100
AcDbEntity
  8
ASSI
100
AcDbLine
 62
7
  6
CONTINUOUS
 10
-11.1639717022
 20
-3.7318199871
 11
-10.9514717022
 21
-3.7318199871
  0
LINE
  5
414
100
AcDbEntity
  8
0
100
AcDbLine
 62
7
  6
CONTINUOUS
 10
-9.2868884364
 20
-3.7318199871
 11
-9.0743884364
 21
-3.7318199871
  0
LINE
  5
415
100
AcDbEntity
  8
ASSI
100
AcDbLine
 62
7
  6
CONTINUOUS
 10
-9.2868884364
 20
-3.7318199871
 11
-9.0743884364
 21
-3.7318199871
  0
LINE
  5
416
100
AcDbEntity
  8
0
100
AcDbLine
 62
7
  6
CONTINUOUS
 10
-8.4368884364
 20
-3.7318199871
 11
-7.1618884364
 21
-3.7318199871
  0
LINE
  5
417
100
AcDbEntity
  8
ASSI
100
AcDbLine
 62
7
  6
CONTINUOUS
 10
-8.4368884364
 20
-3.7318199871
 11
-7.1618884364
 21
-3.7318199871
  0
LINE
  5
418
100
AcDbEntity
  8
0
100
AcDbLine
 62
7
  6
CONTINUOUS
 10
7.6358355636
 20
-3.7318199871
 11
7.9485275636
 21
-3.7318199871
  0
LINE
  5
419
100
AcDbEntity
  8
ASSI
100
AcDbLine
 62
7
  6
CONTINUOUS
 10
7.6358355636
 20
-3.7318199871
 11
7.9485275636
 21
-3.7318199871
  0
LINE
  5
41A
100
AcDbEntity
  8
0
100
AcDbLine
 62
7
  6
CONTINUOUS
 10
8.6266095636
 20
-3.7318199871
 11
8.9814375636
 21
-3.7318199871
  0
LINE
  5
41B
100
AcDbEntity
  8
ASSI
100
AcDbLine
 62
7
  6
CONTINUOUS
 10
8.6266095636
 20
-3.7318199871
 11
8.9814375636
 21
-3.7318199871
  0
LINE
  5
41C
100
AcDbEntity
  8
0
100
AcDbLine
 62
7
  6
CONTINUOUS
 10
9.1724525636
 20
-3.7318199871
 11
9.5119075636
 21
-3.7318199871
  0
LINE
  5
41D
100
AcDbEntity
  8
ASSI
100
AcDbLine
 62
7
  6
CONTINUOUS
 10
9.1724525636
 20
-3.7318199871
 11
9.5119075636
 21
-3.7318199871
  0
LINE
  5
41E
100
AcDbEntity
  8
0
100
AcDbLine
 62
7
  6
CONTINUOUS
 10
10.0047355636
 20
-3.7318199871
 11
10.0544995636
 21
-3.7318199871
  0
LINE
  5
41F
100
AcDbEntity
  8
ASSI
100
AcDbLine
 62
7
  6
CONTINUOUS
 10
10.0047355636
 20
-3.7318199871
 11
10.0544995636
 21
-3.7318199871
  0
LINE
  5
420
100
AcDbEntity
  8
0
100
AcDbLine
 62
7
  6
CONTINUOUS
 10
10.5492915636
 20
-3.7318199871
 11
10.8964075636
 21
-3.7318199871
  0
LINE
  5
421
100
AcDbEntity
  8
ASSI
100
AcDbLine
 62
7
  6
CONTINUOUS
 10
10.5492915636
 20
-3.7318199871
 11
10.8964075636
 21
-3.7318199871
  0
LINE
  5
422
100
AcDbEntity
  8
0
100
AcDbLine
 62
7
  6
CONTINUOUS
 10
10.9521245636
 20
-3.7318199871
 11
11.3031025636
 21
-3.7318199871
  0
LINE
  5
423
100
AcDbEntity
  8
ASSI
100
AcDbLine
 62
7
  6
CONTINUOUS
 10
10.9521245636
 20
-3.7318199871
 11
11.3031025636
 21
-3.7318199871
  0
LINE
  5
424
100
AcDbEntity
  8
0
100
AcDbLine
 62
7
  6
CONTINUOUS
 10
11.9761495636
 20
-3.7318199871
 11
12.3501235636
 21
-3.7318199871
  0
LINE
  5
425
100
AcDbEntity
  8
ASSI
100
AcDbLine
 62
7
  6
CONTINUOUS
 10
11.9761495636
 20
-3.7318199871
 11
12.3501235636
 21
-3.7318199871
  0
LINE
  5
426
100
AcDbEntity
  8
0
100
AcDbLine
 62
7
  6
CONTINUOUS
 10
12.4543182275
 20
-3.7318196738
 11
12.8077185595
 21
-3.7318196738
  0
LINE
  5
427
100
AcDbEntity
  8
ASSI
100
AcDbLine
 62
7
  6
CONTINUOUS
 10
12.4543182275
 20
-3.7318196738
 11
12.8077185595
 21
-3.7318196738
  0
LINE
  5
428
100
AcDbEntity
  8
0
100
AcDbLine
 62
7
  6
CONTINUOUS
 10
13.3510887787
 20
-3.7318196738
 11
13.692392122
 21
-3.7318196738
  0
LINE
  5
429
100
AcDbEntity
  8
ASSI
100
AcDbLine
 62
7
  6
CONTINUOUS
 10
13.3510887787
 20
-3.7318196738
 11
13.692392122
 21
-3.7318196738
  0
LINE
  5
42A
100
AcDbEntity
  8
0
100
AcDbLine
 62
7
  6
CONTINUOUS
 10
-12.7223050693
 20
-3.5509689195
 11
-12.4743884364
 21
-3.5509689195
  0
LINE
  5
42B
100
AcDbEntity
  8
ASSI
100
AcDbLine
 62
7
  6
CONTINUOUS
 10
-12.7223050693
 20
-3.5509689195
 11
-12.4743884364
 21
-3.5509689195
  0
LINE
  5
42C
100
AcDbEntity
  8
0
100
AcDbLine
 62
7
  6
CONTINUOUS
 10
-11.1285551707
 20
-3.5509689195
 11
-10.9868884364
 21
-3.5509689195
  0
LINE
  5
42D
100
AcDbEntity
  8
ASSI
100
AcDbLine
 62
7
  6
CONTINUOUS
 10
-11.1285551707
 20
-3.5509689195
 11
-10.9868884364
 21
-3.5509689195
  0
LINE
  5
42E
100
AcDbEntity
  8
0
100
AcDbLine
 62
7
  6
CONTINUOUS
 10
-8.153554968
 20
-3.5509689195
 11
-7.1618884364
 21
-3.5509689195
  0
LINE
  5
42F
100
AcDbEntity
  8
ASSI
100
AcDbLine
 62
7
  6
CONTINUOUS
 10
-8.153554968
 20
-3.5509689195
 11
-7.1618884364
 21
-3.5509689195
  0
LINE
  5
430
100
AcDbEntity
  8
DRAFT
100
AcDbLine
 62
7
  6
CONTINUOUS
 10
22.3381115636
 20
-4.9834174341
 11
21.7881115636
 21
-4.9778747066
  0
LINE
  5
431
100
AcDbEntity
  8
ASSI
100
AcDbLine
 62
7
  6
CONTINUOUS
 10
22.3381115636
 20
-4.9834174341
 11
21.7881115636
 21
-4.9778747066
  0
LINE
  5
432
100
AcDbEntity
  8
0
100
AcDbLine
 62
7
  6
CONTINUOUS
 10
-12.3327218036
 20
-2.6828838406
 11
-12.5098050693
 21
-2.6467136321
  0
LINE
  5
433
100
AcDbEntity
  8
ASSI
100
AcDbLine
 62
7
  6
CONTINUOUS
 10
-12.3327218036
 20
-2.6828838406
 11
-12.5098050693
 21
-2.6467136321
  0
LINE
  5
434
100
AcDbEntity
  8
0
100
AcDbLine
 62
7
  6
CONTINUOUS
 10
-12.3681384364
 20
-2.0679901955
 11
-12.5452218036
 21
-2.0318199871
  0
LINE
  5
435
100
AcDbEntity
  8
ASSI
100
AcDbLine
 62
7
  6
CONTINUOUS
 10
-12.3681384364
 20
-2.0679901955
 11
-12.5452218036
 21
-2.0318199871
  0
LINE
  5
436
100
AcDbEntity
  8
0
100
AcDbLine
 62
7
  6
CONTINUOUS
 10
-10.8098051707
 20
-2.0679901955
 11
-10.9868884364
 21
-2.0318199871
  0
LINE
  5
437
100
AcDbEntity
  8
ASSI
100
AcDbLine
 62
7
  6
CONTINUOUS
 10
-10.8098051707
 20
-2.0679901955
 11
-10.9868884364
 21
-2.0318199871
  0
LINE
  5
438
100
AcDbEntity
  8
0
100
AcDbLine
 62
7
  6
CONTINUOUS
 10
-7.5514719049
 20
-2.2488412378
 11
-7.728554968
 21
-2.2126710294
  0
LINE
  5
439
100
AcDbEntity
  8
ASSI
100
AcDbLine
 62
7
  6
CONTINUOUS
 10
-7.5514719049
 20
-2.2488412378
 11
-7.728554968
 21
-2.2126710294
  0
LINE
  5
43A
100
AcDbEntity
  8
0
100
AcDbLine
 62
7
  6
CONTINUOUS
 10
-10.8452217022
 20
-2.2488412378
 11
-10.9868884364
 21
-2.2126710294
  0
LINE
  5
43B
100
AcDbEntity
  8
ASSI
100
AcDbLine
 62
7
  6
CONTINUOUS
 10
-10.8452217022
 20
-2.2488412378
 11
-10.9868884364
 21
-2.2126710294
  0
LINE
  5
43C
100
AcDbEntity
  8
0
100
AcDbLine
 62
7
  6
CONTINUOUS
 10
-7.3389719049
 20
-2.1403306125
 11
-7.4806384364
 21
-2.0679901955
  0
LINE
  5
43D
100
AcDbEntity
  8
ASSI
100
AcDbLine
 62
7
  6
CONTINUOUS
 10
-7.3389719049
 20
-2.1403306125
 11
-7.4806384364
 21
-2.0679901955
  0
LINE
  5
43E
100
AcDbEntity
  8
DRAFT
100
AcDbLine
 62
7
  6
CONTINUOUS
 10
-3.2041534095
 20
5.4004810129
 11
-3.2041534095
 21
3.8004810129
  0
LINE
  5
43F
100
AcDbEntity
  8
ASSI
100
AcDbLine
 62
7
  6
CONTINUOUS
 10
-3.2041534095
 20
5.4004810129
 11
-3.2041534095
 21
3.8004810129
  0
LINE
  5
440
100
AcDbEntity
  8
DRAFT
100
AcDbLine
 62
7
  6
CONTINUOUS
 10
-3.0618884364
 20
0.6004810129
 11
-3.0618884364
 21
3.7917534804
  0
LINE
  5
441
100
AcDbEntity
  8
ASSI
100
AcDbLine
 62
7
  6
CONTINUOUS
 10
-3.0618884364
 20
0.6004810129
 11
-3.0618884364
 21
3.7917534804
  0
LINE
  5
442
100
AcDbEntity
  8
DRAFT
100
AcDbLine
 62
7
  6
CONTINUOUS
 10
-3.0618884364
 20
5.4092085454
 11
-3.0618884364
 21
7.1004810129
  0
LINE
  5
443
100
AcDbEntity
  8
ASSI
100
AcDbLine
 62
7
  6
CONTINUOUS
 10
-3.0618884364
 20
5.4092085454
 11
-3.0618884364
 21
7.1004810129
  0
LINE
  5
444
100
AcDbEntity
  8
DRAFT
100
AcDbLine
 62
7
  6
CONTINUOUS
 10
-3.0293435014
 20
2.183025948
 11
-3.0293435014
 21
3.7917534804
  0
LINE
  5
445
100
AcDbEntity
  8
DRAFT
100
AcDbLine
 62
7
  6
CONTINUOUS
 10
-3.0293435014
 20
5.4092085454
 11
-3.0293435014
 21
7.0179360778
  0
LINE
  5
446
100
AcDbEntity
  8
DRAFT
100
AcDbLine
 62
7
  6
CONTINUOUS
 10
-2.9618884364
 20
5.4047097637
 11
-2.9618884364
 21
3.7962522621
  0
LINE
  5
447
100
AcDbEntity
  8
ASSI
100
AcDbLine
 62
7
  6
CONTINUOUS
 10
-2.9618884364
 20
5.4047097637
 11
-2.9618884364
 21
3.7962522621
  0
LINE
  5
448
100
AcDbEntity
  8
DRAFT
100
AcDbLine
 62
7
  6
CONTINUOUS
 10
-2.5583974235
 20
7.0214270908
 11
-2.5583974235
 21
2.179534935
  0
LINE
  5
449
100
AcDbEntity
  8
0
100
AcDbLine
 62
7
  6
CONTINUOUS
 10
-8.4368884364
 20
-3.5509689195
 11
-7.4452219049
 21
-2.6467136321
  0
LINE
  5
44A
100
AcDbEntity
  8
ASSI
100
AcDbLine
 62
7
  6
CONTINUOUS
 10
-8.4368884364
 20
-3.5509689195
 11
-7.4452219049
 21
-2.6467136321
  0
LINE
  5
44B
100
AcDbEntity
  8
0
100
AcDbLine
 62
7
  6
CONTINUOUS
 10
-8.153554968
 20
-3.5509689195
 11
-7.2681384364
 21
-2.7552242575
  0
LINE
  5
44C
100
AcDbEntity
  8
ASSI
100
AcDbLine
 62
7
  6
CONTINUOUS
 10
-8.153554968
 20
-3.5509689195
 11
-7.2681384364
 21
-2.7552242575
  0
LINE
  5
44D
100
AcDbEntity
  8
0
100
AcDbLine
 62
7
  6
CONTINUOUS
 10
-8.153554968
 20
-2.3211816547
 11
-8.047304968
 21
-2.2488412378
  0
LINE
  5
44E
100
AcDbEntity
  8
ASSI
100
AcDbLine
 62
7
  6
CONTINUOUS
 10
-8.153554968
 20
-2.3211816547
 11
-8.047304968
 21
-2.2488412378
  0
LINE
  5
44F
100
AcDbEntity
  8
0
100
AcDbLine
 62
7
  6
CONTINUOUS
 10
-10.7743884364
 20
-3.6956497755
 11
-10.5973051707
 21
-3.5871391406
  0
LINE
  5
450
100
AcDbEntity
  8
ASSI
100
AcDbLine
 62
7
  6
CONTINUOUS
 10
-10.7743884364
 20
-3.6956497755
 11
-10.5973051707
 21
-3.5871391406
  0
LINE
  5
451
100
AcDbEntity
  8
0
100
AcDbLine
 62
7
  6
CONTINUOUS
 10
-11.4827217022
 20
-2.8999050913
 11
-11.4118884364
 21
-2.8637348829
  0
LINE
  5
452
100
AcDbEntity
  8
ASSI
100
AcDbLine
 62
7
  6
CONTINUOUS
 10
-11.4827217022
 20
-2.8999050913
 11
-11.4118884364
 21
-2.8637348829
  0
LINE
  5
453
100
AcDbEntity
  8
0
100
AcDbLine
 62
7
  6
CONTINUOUS
 10
-11.4118884364
 20
-3.0445859251
 11
-11.2702217022
 21
-2.9722455082
  0
LINE
  5
454
100
AcDbEntity
  8
ASSI
100
AcDbLine
 62
7
  6
CONTINUOUS
 10
-11.4118884364
 20
-3.0445859251
 11
-11.2702217022
 21
-2.9722455082
  0
LINE
  5
455
100
AcDbEntity
  8
0
100
AcDbLine
 62
7
  6
CONTINUOUS
 10
-10.7035551707
 20
-2.8637348829
 11
-10.6327217022
 21
-2.8275646744
  0
LINE
  5
456
100
AcDbEntity
  8
ASSI
100
AcDbLine
 62
7
  6
CONTINUOUS
 10
-10.7035551707
 20
-2.8637348829
 11
-10.6327217022
 21
-2.8275646744
  0
LINE
  5
457
100
AcDbEntity
  8
0
100
AcDbLine
 62
7
  6
CONTINUOUS
 10
-8.2243884364
 20
-2.1403306125
 11
-8.0827219049
 21
-2.0679901955
  0
LINE
  5
458
100
AcDbEntity
  8
ASSI
100
AcDbLine
 62
7
  6
CONTINUOUS
 10
-8.2243884364
 20
-2.1403306125
 11
-8.0827219049
 21
-2.0679901955
  0
LINE
  5
459
100
AcDbEntity
  8
0
100
AcDbLine
 62
7
  6
CONTINUOUS
 10
-10.8452217022
 20
-3.514798711
 11
-10.7035551707
 21
-3.4424582941
  0
LINE
  5
45A
100
AcDbEntity
  8
ASSI
100
AcDbLine
 62
7
  6
CONTINUOUS
 10
-10.8452217022
 20
-3.514798711
 11
-10.7035551707
 21
-3.4424582941
  0
LINE
  5
45B
100
AcDbEntity
  8
0
100
AcDbLine
 62
7
  6
CONTINUOUS
 10
-12.8285550693
 20
-2.2488412378
 11
-12.7223050693
 21
-2.2126710294
  0
LINE
  5
45C
100
AcDbEntity
  8
ASSI
100
AcDbLine
 62
7
  6
CONTINUOUS
 10
-12.8285550693
 20
-2.2488412378
 11
-12.7223050693
 21
-2.2126710294
  0
LINE
  5
45D
100
AcDbEntity
  8
0
100
AcDbLine
 62
7
  6
CONTINUOUS
 10
-12.8285550693
 20
-2.8637348829
 11
-12.7223050693
 21
-2.8275646744
  0
LINE
  5
45E
100
AcDbEntity
  8
ASSI
100
AcDbLine
 62
7
  6
CONTINUOUS
 10
-12.8285550693
 20
-2.8637348829
 11
-12.7223050693
 21
-2.8275646744
  0
LINE
  5
45F
100
AcDbEntity
  8
0
100
AcDbLine
 62
7
  6
CONTINUOUS
 10
11.4010135636
 20
-3.3924669871
 11
11.8842305636
 21
-3.3924669871
  0
LINE
  5
460
100
AcDbEntity
  8
ASSI
100
AcDbLine
 62
7
  6
CONTINUOUS
 10
11.4010135636
 20
-3.3924669871
 11
11.8842305636
 21
-3.3924669871
  0
LINE
  5
461
100
AcDbEntity
  8
0
100
AcDbLine
 62
7
  6
CONTINUOUS
 10
-10.1368884364
 20
-3.2254370181
 11
-9.2868884364
 21
-3.2254370181
  0
LINE
  5
462
100
AcDbEntity
  8
ASSI
100
AcDbLine
 62
7
  6
CONTINUOUS
 10
-10.1368884364
 20
-3.2254370181
 11
-9.2868884364
 21
-3.2254370181
  0
LINE
  5
463
100
AcDbEntity
  8
0
100
AcDbLine
 62
7
  6
CONTINUOUS
 10
-9.0743884364
 20
-3.2254370181
 11
-8.7202219049
 21
-3.2254370181
  0
LINE
  5
464
100
AcDbEntity
  8
ASSI
100
AcDbLine
 62
7
  6
CONTINUOUS
 10
-9.0743884364
 20
-3.2254370181
 11
-8.7202219049
 21
-3.2254370181
  0
LINE
  5
465
100
AcDbEntity
  8
0
100
AcDbLine
 62
7
  6
CONTINUOUS
 10
11.4735955636
 20
-3.1298769871
 11
11.8133175636
 21
-3.1298769871
  0
LINE
  5
466
100
AcDbEntity
  8
ASSI
100
AcDbLine
 62
7
  6
CONTINUOUS
 10
11.4735955636
 20
-3.1298769871
 11
11.8133175636
 21
-3.1298769871
  0
LINE
  5
467
100
AcDbEntity
  8
0
100
AcDbLine
 62
7
  6
CONTINUOUS
 10
12.8077185595
 20
-3.0665872712
 11
12.9979688826
 21
-3.0665872712
  0
LINE
  5
468
100
AcDbEntity
  8
ASSI
100
AcDbLine
 62
7
  6
CONTINUOUS
 10
12.8077185595
 20
-3.0665872712
 11
12.9979688826
 21
-3.0665872712
  0
LINE
  5
469
100
AcDbEntity
  8
0
100
AcDbLine
 62
7
  6
CONTINUOUS
 10
-9.8889719049
 20
-3.0084157167
 11
-9.2868884364
 21
-3.0084157167
  0
LINE
  5
46A
100
AcDbEntity
  8
ASSI
100
AcDbLine
 62
7
  6
CONTINUOUS
 10
-9.8889719049
 20
-3.0084157167
 11
-9.2868884364
 21
-3.0084157167
  0
LINE
  5
46B
100
AcDbEntity
  8
0
100
AcDbLine
 62
7
  6
CONTINUOUS
 10
-9.0743884364
 20
-3.0084157167
 11
-8.7202219049
 21
-3.0084157167
  0
LINE
  5
46C
100
AcDbEntity
  8
ASSI
100
AcDbLine
 62
7
  6
CONTINUOUS
 10
-9.0743884364
 20
-3.0084157167
 11
-8.7202219049
 21
-3.0084157167
  0
LINE
  5
46D
100
AcDbEntity
  8
0
100
AcDbLine
 62
7
  6
CONTINUOUS
 10
-11.1285551707
 20
-2.9360752998
 11
-10.9868884364
 21
-2.9360752998
  0
LINE
  5
46E
100
AcDbEntity
  8
ASSI
100
AcDbLine
 62
7
  6
CONTINUOUS
 10
-11.1285551707
 20
-2.9360752998
 11
-10.9868884364
 21
-2.9360752998
  0
LINE
  5
46F
100
AcDbEntity
  8
0
100
AcDbLine
 62
7
  6
CONTINUOUS
 10
-12.7223050693
 20
-2.8275646744
 11
-12.4743884364
 21
-2.8275646744
  0
LINE
  5
470
100
AcDbEntity
  8
ASSI
100
AcDbLine
 62
7
  6
CONTINUOUS
 10
-12.7223050693
 20
-2.8275646744
 11
-12.4743884364
 21
-2.8275646744
  0
LINE
  5
471
100
AcDbEntity
  8
0
100
AcDbLine
 62
7
  6
CONTINUOUS
 10
-11.1285551707
 20
-2.791394466
 11
-10.9868884364
 21
-2.791394466
  0
LINE
  5
472
100
AcDbEntity
  8
ASSI
100
AcDbLine
 62
7
  6
CONTINUOUS
 10
-11.1285551707
 20
-2.791394466
 11
-10.9868884364
 21
-2.791394466
  0
LINE
  5
473
100
AcDbEntity
  8
0
100
AcDbLine
 62
7
  6
CONTINUOUS
 10
12.7959529952
 20
-2.7881908186
 11
12.998733708
 21
-2.7881908186
  0
LINE
  5
474
100
AcDbEntity
  8
ASSI
100
AcDbLine
 62
7
  6
CONTINUOUS
 10
12.7959529952
 20
-2.7881908186
 11
12.998733708
 21
-2.7881908186
  0
LINE
  5
475
100
AcDbEntity
  8
0
100
AcDbLine
 62
7
  6
CONTINUOUS
 10
-12.6868884364
 20
-2.6467136321
 11
-12.5098050693
 21
-2.6467136321
  0
LINE
  5
476
100
AcDbEntity
  8
ASSI
100
AcDbLine
 62
7
  6
CONTINUOUS
 10
-12.6868884364
 20
-2.6467136321
 11
-12.5098050693
 21
-2.6467136321
  0
LINE
  5
477
100
AcDbEntity
  8
0
100
AcDbLine
 62
7
  6
CONTINUOUS
 10
-12.2264717022
 20
-2.4296922801
 11
-12.0493884364
 21
-2.4296922801
  0
LINE
  5
478
100
AcDbEntity
  8
ASSI
100
AcDbLine
 62
7
  6
CONTINUOUS
 10
-12.2264717022
 20
-2.4296922801
 11
-12.0493884364
 21
-2.4296922801
  0
LINE
  5
479
100
AcDbEntity
  8
0
100
AcDbLine
 62
7
  6
CONTINUOUS
 10
-8.4014719049
 20
-2.4296922801
 11
-8.2243884364
 21
-2.4296922801
  0
LINE
  5
47A
100
AcDbEntity
  8
ASSI
100
AcDbLine
 62
7
  6
CONTINUOUS
 10
-8.4014719049
 20
-2.4296922801
 11
-8.2243884364
 21
-2.4296922801
  0
LINE
  5
47B
100
AcDbEntity
  8
0
100
AcDbLine
 62
7
  6
CONTINUOUS
 10
-12.7223050693
 20
-2.2126710294
 11
-12.5098050693
 21
-2.2126710294
  0
LINE
  5
47C
100
AcDbEntity
  8
ASSI
100
AcDbLine
 62
7
  6
CONTINUOUS
 10
-12.7223050693
 20
-2.2126710294
 11
-12.5098050693
 21
-2.2126710294
  0
LINE
  5
47D
100
AcDbEntity
  8
0
100
AcDbLine
 62
7
  6
CONTINUOUS
 10
-11.1285551707
 20
-2.2126710294
 11
-10.9868884364
 21
-2.2126710294
  0
LINE
  5
47E
100
AcDbEntity
  8
ASSI
100
AcDbLine
 62
7
  6
CONTINUOUS
 10
-11.1285551707
 20
-2.2126710294
 11
-10.9868884364
 21
-2.2126710294
  0
LINE
  5
47F
100
AcDbEntity
  8
0
100
AcDbLine
 62
7
  6
CONTINUOUS
 10
-7.8702219049
 20
-2.2126710294
 11
-7.728554968
 21
-2.2126710294
  0
LINE
  5
480
100
AcDbEntity
  8
ASSI
100
AcDbLine
 62
7
  6
CONTINUOUS
 10
-7.8702219049
 20
-2.2126710294
 11
-7.728554968
 21
-2.2126710294
  0
LINE
  5
481
100
AcDbEntity
  8
0
100
AcDbLine
 62
7
  6
CONTINUOUS
 10
7.0969455636
 20
-2.0319569871
 11
7.4823985636
 21
-2.0319569871
  0
LINE
  5
482
100
AcDbEntity
  8
ASSI
100
AcDbLine
 62
7
  6
CONTINUOUS
 10
7.0969455636
 20
-2.0319569871
 11
7.4823985636
 21
-2.0319569871
  0
LINE
  5
483
100
AcDbEntity
  8
0
100
AcDbLine
 62
7
  6
CONTINUOUS
 10
8.1403455636
 20
-2.0319569871
 11
8.4949315636
 21
-2.0319569871
  0
LINE
  5
484
100
AcDbEntity
  8
ASSI
100
AcDbLine
 62
7
  6
CONTINUOUS
 10
8.1403455636
 20
-2.0319569871
 11
8.4949315636
 21
-2.0319569871
  0
LINE
  5
485
100
AcDbEntity
  8
0
100
AcDbLine
 62
7
  6
CONTINUOUS
 10
9.3259395636
 20
-2.0319569871
 11
9.6804745636
 21
-2.0319569871
  0
LINE
  5
486
100
AcDbEntity
  8
ASSI
100
AcDbLine
 62
7
  6
CONTINUOUS
 10
9.3259395636
 20
-2.0319569871
 11
9.6804745636
 21
-2.0319569871
  0
LINE
  5
487
100
AcDbEntity
  8
0
100
AcDbLine
 62
7
  6
CONTINUOUS
 10
10.3863835636
 20
-2.0319569871
 11
10.7374505636
 21
-2.0319569871
  0
LINE
  5
488
100
AcDbEntity
  8
ASSI
100
AcDbLine
 62
7
  6
CONTINUOUS
 10
10.3863835636
 20
-2.0319569871
 11
10.7374505636
 21
-2.0319569871
  0
LINE
  5
489
100
AcDbEntity
  8
0
100
AcDbLine
 62
7
  6
CONTINUOUS
 10
11.4853095636
 20
-2.0319569871
 11
11.8285635636
 21
-2.0319569871
  0
LINE
  5
48A
100
AcDbEntity
  8
ASSI
100
AcDbLine
 62
7
  6
CONTINUOUS
 10
11.4853095636
 20
-2.0319569871
 11
11.8285635636
 21
-2.0319569871
  0
LINE
  5
48B
100
AcDbEntity
  8
0
100
AcDbLine
 62
7
  6
CONTINUOUS
 10
8.6266095636
 20
-2.0318549871
 11
8.9814375636
 21
-2.0318549871
  0
LINE
  5
48C
100
AcDbEntity
  8
ASSI
100
AcDbLine
 62
7
  6
CONTINUOUS
 10
8.6266095636
 20
-2.0318549871
 11
8.9814375636
 21
-2.0318549871
  0
LINE
  5
48D
100
AcDbEntity
  8
0
100
AcDbLine
 62
7
  6
CONTINUOUS
 10
-13.7493884364
 20
-2.0318199871
 11
-13.5368884364
 21
-2.0318199871
  0
LINE
  5
48E
100
AcDbEntity
  8
ASSI
100
AcDbLine
 62
7
  6
CONTINUOUS
 10
-13.7493884364
 20
-2.0318199871
 11
-13.5368884364
 21
-2.0318199871
  0
LINE
  5
48F
100
AcDbEntity
  8
0
100
AcDbLine
 62
7
  6
CONTINUOUS
 10
-12.6868884364
 20
-2.0318199871
 11
-12.5452218036
 21
-2.0318199871
  0
LINE
  5
490
100
AcDbEntity
  8
ASSI
100
AcDbLine
 62
7
  6
CONTINUOUS
 10
-12.6868884364
 20
-2.0318199871
 11
-12.5452218036
 21
-2.0318199871
  0
LINE
  5
491
100
AcDbEntity
  8
0
100
AcDbLine
 62
7
  6
CONTINUOUS
 10
-11.1285551707
 20
-2.0318199871
 11
-10.9868884364
 21
-2.0318199871
  0
LINE
  5
492
100
AcDbEntity
  8
ASSI
100
AcDbLine
 62
7
  6
CONTINUOUS
 10
-11.1285551707
 20
-2.0318199871
 11
-10.9868884364
 21
-2.0318199871
  0
LINE
  5
493
100
AcDbEntity
  8
0
100
AcDbLine
 62
7
  6
CONTINUOUS
 10
-9.2868884364
 20
-2.0318199871
 11
-9.0743884364
 21
-2.0318199871
  0
LINE
  5
494
100
AcDbEntity
  8
ASSI
100
AcDbLine
 62
7
  6
CONTINUOUS
 10
-9.2868884364
 20
-2.0318199871
 11
-9.0743884364
 21
-2.0318199871
  0
LINE
  5
495
100
AcDbEntity
  8
0
100
AcDbLine
 62
7
  6
CONTINUOUS
 10
-7.834804968
 20
-2.0318199871
 11
-7.6931384364
 21
-2.0318199871
  0
LINE
  5
496
100
AcDbEntity
  8
ASSI
100
AcDbLine
 62
7
  6
CONTINUOUS
 10
-7.834804968
 20
-2.0318199871
 11
-7.6931384364
 21
-2.0318199871
  0
LINE
  5
497
100
AcDbEntity
  8
DRAFT
100
AcDbLine
 62
7
  6
CONTINUOUS
 10
-23.9824006784
 20
-1.9290067452
 11
-23.0413761945
 21
-1.9290067452
  0
LINE
  5
498
100
AcDbEntity
  8
ASSI
100
AcDbLine
 62
7
  6
CONTINUOUS
 10
-23.9824006784
 20
-1.9290067452
 11
-23.0413761945
 21
-1.9290067452
  0
LINE
  5
499
100
AcDbEntity
  8
DRAFT
100
AcDbLine
 62
7
  6
CONTINUOUS
 10
22.9175993216
 20
-1.9290067452
 11
23.8586238055
 21
-1.9290067452
  0
LINE
  5
49A
100
AcDbEntity
  8
ASSI
100
AcDbLine
 62
7
  6
CONTINUOUS
 10
22.9175993216
 20
-1.9290067452
 11
23.8586238055
 21
-1.9290067452
  0
LINE
  5
49B
100
AcDbEntity
  8
DRAFT
100
AcDbLine
 62
7
  6
CONTINUOUS
 10
-24.8618884364
 20
-1.8880274237
 11
-24.0618884364
 21
-1.8880274237
  0
LINE
  5
49C
100
AcDbEntity
  8
ASSI
100
AcDbLine
 62
7
  6
CONTINUOUS
 10
-24.8618884364
 20
-1.8880274237
 11
-24.0618884364
 21
-1.8880274237
  0
LINE
  5
49D
100
AcDbEntity
  8
DRAFT
100
AcDbLine
 62
7
  6
CONTINUOUS
 10
23.9381115636
 20
-1.8880274237
 11
24.7381115636
 21
-1.8880274237
  0
LINE
  5
49E
100
AcDbEntity
  8
ASSI
100
AcDbLine
 62
7
  6
CONTINUOUS
 10
23.9381115636
 20
-1.8880274237
 11
24.7381115636
 21
-1.8880274237
  0
LINE
  5
49F
100
AcDbEntity
  8
DRAFT
100
AcDbLine
 62
7
  6
CONTINUOUS
 10
-23.7444333715
 20
-1.866974052
 11
-22.9793435014
 21
-1.866974052
  0
LINE
  5
4A0
100
AcDbEntity
  8
ASSI
100
AcDbLine
 62
7
  6
CONTINUOUS
 10
-23.7444333715
 20
-1.866974052
 11
-22.9793435014
 21
-1.866974052
  0
LINE
  5
4A1
100
AcDbEntity
  8
DRAFT
100
AcDbLine
 62
7
  6
CONTINUOUS
 10
23.6206564986
 20
-1.866974052
 11
22.8555666285
 21
-1.866974052
  0
LINE
  5
4A2
100
AcDbEntity
  8
ASSI
100
AcDbLine
 62
7
  6
CONTINUOUS
 10
23.6206564986
 20
-1.866974052
 11
22.8555666285
 21
-1.866974052
  0
LINE
  5
4A3
100
AcDbEntity
  8
DRAFT
100
AcDbLine
 62
7
  6
CONTINUOUS
 10
-24.0618884364
 20
-1.8495189871
 11
-23.7618884364
 21
-1.8495189871
  0
LINE
  5
4A4
100
AcDbEntity
  8
ASSI
100
AcDbLine
 62
7
  6
CONTINUOUS
 10
-24.0618884364
 20
-1.8495189871
 11
-23.7618884364
 21
-1.8495189871
  0
LINE
  5
4A5
100
AcDbEntity
  8
DRAFT
100
AcDbLine
 62
7
  6
CONTINUOUS
 10
23.6381115636
 20
-1.8495189871
 11
23.9381115636
 21
-1.8495189871
  0
LINE
  5
4A6
100
AcDbEntity
  8
ASSI
100
AcDbLine
 62
7
  6
CONTINUOUS
 10
23.6381115636
 20
-1.8495189871
 11
23.9381115636
 21
-1.8495189871
  0
LINE
  5
4A7
100
AcDbEntity
  8
0
100
AcDbLine
 62
7
  6
CONTINUOUS
 10
-7.4806384364
 20
-2.0679901955
 11
-7.6931384364
 21
-2.0318199871
  0
LINE
  5
4A8
100
AcDbEntity
  8
ASSI
100
AcDbLine
 62
7
  6
CONTINUOUS
 10
-7.4806384364
 20
-2.0679901955
 11
-7.6931384364
 21
-2.0318199871
  0
LINE
  5
4A9
100
AcDbEntity
  8
RACCORDO
100
AcDbLine
 62
253
  6
CONTINUOUS
 10
-6.8267516256
 20
-6.4644278677
 11
-6.8566976154
 21
-6.4943738575
  0
LINE
  5
4AA
100
AcDbEntity
  8
ASSI
100
AcDbLine
 62
253
  6
CONTINUOUS
 10
-6.8267516256
 20
-6.4644278677
 11
-6.8566976154
 21
-6.4943738575
  0
LINE
  5
4AB
100
AcDbEntity
  8
RACCORDO
100
AcDbLine
 62
253
  6
CONTINUOUS
 10
-6.5269930089
 20
-6.7645778681
 11
-6.5567433068
 21
-6.794328166
  0
LINE
  5
4AC
100
AcDbEntity
  8
ASSI
100
AcDbLine
 62
253
  6
CONTINUOUS
 10
-6.5269930089
 20
-6.7645778681
 11
-6.5567433068
 21
-6.794328166
  0
LINE
  5
4AD
100
AcDbEntity
  8
0
100
AcDbLine
 62
7
  6
CONTINUOUS
 10
-12.4743884364
 20
-3.5509689195
 11
-12.3681384364
 21
-3.514798711
  0
LINE
  5
4AE
100
AcDbEntity
  8
ASSI
100
AcDbLine
 62
7
  6
CONTINUOUS
 10
-12.4743884364
 20
-3.5509689195
 11
-12.3681384364
 21
-3.514798711
  0
LINE
  5
4AF
100
AcDbEntity
  8
0
100
AcDbLine
 62
7
  6
CONTINUOUS
 10
-10.9868884364
 20
-3.5509689195
 11
-10.8452217022
 21
-3.514798711
  0
LINE
  5
4B0
100
AcDbEntity
  8
ASSI
100
AcDbLine
 62
7
  6
CONTINUOUS
 10
-10.9868884364
 20
-3.5509689195
 11
-10.8452217022
 21
-3.514798711
  0
LINE
  5
4B1
100
AcDbEntity
  8
0
100
AcDbLine
 62
7
  6
CONTINUOUS
 10
-11.2702217022
 20
-2.9722455082
 11
-11.1285551707
 21
-2.9360752998
  0
LINE
  5
4B2
100
AcDbEntity
  8
ASSI
100
AcDbLine
 62
7
  6
CONTINUOUS
 10
-11.2702217022
 20
-2.9722455082
 11
-11.1285551707
 21
-2.9360752998
  0
LINE
  5
4B3
100
AcDbEntity
  8
0
100
AcDbLine
 62
7
  6
CONTINUOUS
 10
-10.9514717022
 20
-3.7318199871
 11
-10.7743884364
 21
-3.6956497755
  0
LINE
  5
4B4
100
AcDbEntity
  8
ASSI
100
AcDbLine
 62
7
  6
CONTINUOUS
 10
-10.9514717022
 20
-3.7318199871
 11
-10.7743884364
 21
-3.6956497755
  0
LINE
  5
4B5
100
AcDbEntity
  8
0
100
AcDbLine
 62
7
  6
CONTINUOUS
 10
-12.5098050693
 20
-3.7318199871
 11
-12.3327218036
 21
-3.6956497755
  0
LINE
  5
4B6
100
AcDbEntity
  8
ASSI
100
AcDbLine
 62
7
  6
CONTINUOUS
 10
-12.5098050693
 20
-3.7318199871
 11
-12.3327218036
 21
-3.6956497755
  0
LINE
  5
4B7
100
AcDbEntity
  8
0
100
AcDbLine
 62
7
  6
CONTINUOUS
 10
-8.047304968
 20
-2.2488412378
 11
-7.8702219049
 21
-2.2126710294
  0
LINE
  5
4B8
100
AcDbEntity
  8
ASSI
100
AcDbLine
 62
7
  6
CONTINUOUS
 10
-8.047304968
 20
-2.2488412378
 11
-7.8702219049
 21
-2.2126710294
  0
LINE
  5
4B9
100
AcDbEntity
  8
0
100
AcDbLine
 62
7
  6
CONTINUOUS
 10
-12.8639718036
 20
-2.6828838406
 11
-12.6868884364
 21
-2.6467136321
  0
LINE
  5
4BA
100
AcDbEntity
  8
ASSI
100
AcDbLine
 62
7
  6
CONTINUOUS
 10
-12.8639718036
 20
-2.6828838406
 11
-12.6868884364
 21
-2.6467136321
  0
LINE
  5
4BB
100
AcDbEntity
  8
0
100
AcDbLine
 62
7
  6
CONTINUOUS
 10
-8.0827219049
 20
-2.0679901955
 11
-7.834804968
 21
-2.0318199871
  0
LINE
  5
4BC
100
AcDbEntity
  8
ASSI
100
AcDbLine
 62
7
  6
CONTINUOUS
 10
-8.0827219049
 20
-2.0679901955
 11
-7.834804968
 21
-2.0318199871
  0
LINE
  5
4BD
100
AcDbEntity
  8
DRAFT
100
AcDbLine
 62
7
  6
CONTINUOUS
 10
-21.9118884364
 20
-1.227447091
 11
-22.7118884364
 21
-1.2414111429
  0
LINE
  5
4BE
100
AcDbEntity
  8
ASSI
100
AcDbLine
 62
7
  6
CONTINUOUS
 10
-21.9118884364
 20
-1.227447091
 11
-22.7118884364
 21
-1.2414111429
  0
LINE
  5
4BF
100
AcDbEntity
  8
DRAFT
100
AcDbLine
 62
7
  6
CONTINUOUS
 10
21.7881115636
 20
-1.2211632676
 11
22.3381115636
 21
-1.2156205401
  0
LINE
  5
4C0
100
AcDbEntity
  8
ASSI
100
AcDbLine
 62
7
  6
CONTINUOUS
 10
21.7881115636
 20
-1.2211632676
 11
22.3381115636
 21
-1.2156205401
  0
LINE
  5
4C1
100
AcDbEntity
  8
DRAFT
100
AcDbLine
 62
7
  6
CONTINUOUS
 10
23.6206564986
 20
-1.2414111429
 11
22.5881115636
 21
-1.2414111429
  0
LINE
  5
4C2
100
AcDbEntity
  8
ASSI
100
AcDbLine
 62
7
  6
CONTINUOUS
 10
23.6206564986
 20
-1.2414111429
 11
22.5881115636
 21
-1.2414111429
  0
LINE
  5
4C3
100
AcDbEntity
  8
DRAFT
100
AcDbLine
 62
7
  6
CONTINUOUS
 10
-22.7118884364
 20
-1.2414111429
 11
-23.7444333715
 21
-1.2414111429
  0
LINE
  5
4C4
100
AcDbEntity
  8
ASSI
100
AcDbLine
 62
7
  6
CONTINUOUS
 10
-22.7118884364
 20
-1.2414111429
 11
-23.7444333715
 21
-1.2414111429
  0
LINE
  5
4C5
100
AcDbEntity
  8
RACCORDO
100
AcDbLine
 62
7
  6
CONTINUOUS
 10
-23.38725755
 20
-1.1790460719
 11
-22.4618884364
 21
-1.1790460719
  0
LINE
  5
4C6
100
AcDbEntity
  8
ASSI
100
AcDbLine
 62
7
  6
CONTINUOUS
 10
-23.38725755
 20
-1.1790460719
 11
-22.4618884364
 21
-1.1790460719
  0
LINE
  5
4C7
100
AcDbEntity
  8
RACCORDO
100
AcDbLine
 62
7
  6
CONTINUOUS
 10
22.3381115636
 20
-1.1790460719
 11
23.2634806771
 21
-1.1790460719
  0
LINE
  5
4C8
100
AcDbEntity
  8
ASSI
100
AcDbLine
 62
7
  6
CONTINUOUS
 10
22.3381115636
 20
-1.1790460719
 11
23.2634806771
 21
-1.1790460719
  0
LINE
  5
4C9
100
AcDbEntity
  8
DRAFT
100
AcDbLine
 62
7
  6
CONTINUOUS
 10
-22.4618884364
 20
-1.2156205401
 11
-21.9118884364
 21
-1.2211632676
  0
LINE
  5
4CA
100
AcDbEntity
  8
ASSI
100
AcDbLine
 62
7
  6
CONTINUOUS
 10
-22.4618884364
 20
-1.2156205401
 11
-21.9118884364
 21
-1.2211632676
  0
LINE
  5
4CB
100
AcDbEntity
  8
DRAFT
100
AcDbLine
 62
7
  6
CONTINUOUS
 10
22.5881115636
 20
-1.2414111429
 11
21.7881115636
 21
-1.227447091
  0
LINE
  5
4CC
100
AcDbEntity
  8
ASSI
100
AcDbLine
 62
7
  6
CONTINUOUS
 10
22.5881115636
 20
-1.2414111429
 11
21.7881115636
 21
-1.227447091
  0
LINE
  5
4CD
100
AcDbEntity
  8
RACCORDO
100
AcDbLine
 62
253
  6
CONTINUOUS
 10
6.4329664339
 20
-6.794328166
 11
6.403216136
 21
-6.7645778681
  0
LINE
  5
4CE
100
AcDbEntity
  8
ASSI
100
AcDbLine
 62
253
  6
CONTINUOUS
 10
6.4329664339
 20
-6.794328166
 11
6.403216136
 21
-6.7645778681
  0
LINE
  5
4CF
100
AcDbEntity
  8
0
100
AcDbLine
 62
7
  6
CONTINUOUS
 10
-10.9868884364
 20
-2.791394466
 11
-10.8452217022
 21
-2.7552242575
  0
LINE
  5
4D0
100
AcDbEntity
  8
ASSI
100
AcDbLine
 62
7
  6
CONTINUOUS
 10
-10.9868884364
 20
-2.791394466
 11
-10.8452217022
 21
-2.7552242575
  0
LINE
  5
4D1
100
AcDbEntity
  8
0
100
AcDbLine
 62
7
  6
CONTINUOUS
 10
-11.2702217022
 20
-2.2488412378
 11
-11.1285551707
 21
-2.2126710294
  0
LINE
  5
4D2
100
AcDbEntity
  8
ASSI
100
AcDbLine
 62
7
  6
CONTINUOUS
 10
-11.2702217022
 20
-2.2488412378
 11
-11.1285551707
 21
-2.2126710294
  0
LINE
  5
4D3
100
AcDbEntity
  8
0
100
AcDbLine
 62
7
  6
CONTINUOUS
 10
-11.3056384364
 20
-2.0679901955
 11
-11.1285551707
 21
-2.0318199871
  0
LINE
  5
4D4
100
AcDbEntity
  8
ASSI
100
AcDbLine
 62
7
  6
CONTINUOUS
 10
-11.3056384364
 20
-2.0679901955
 11
-11.1285551707
 21
-2.0318199871
  0
LINE
  5
4D5
100
AcDbEntity
  8
0
100
AcDbLine
 62
7
  6
CONTINUOUS
 10
-12.8639718036
 20
-2.0679901955
 11
-12.6868884364
 21
-2.0318199871
  0
LINE
  5
4D6
100
AcDbEntity
  8
ASSI
100
AcDbLine
 62
7
  6
CONTINUOUS
 10
-12.8639718036
 20
-2.0679901955
 11
-12.6868884364
 21
-2.0318199871
  0
LINE
  5
4D7
100
AcDbEntity
  8
0
100
AcDbLine
 62
7
  6
CONTINUOUS
 10
-3.0618884364
 20
0.6004810129
 11
2.9381115636
 21
0.6004810129
  0
LINE
  5
4D8
100
AcDbEntity
  8
ASSI
100
AcDbLine
 62
7
  6
CONTINUOUS
 10
-3.0618884364
 20
0.6004810129
 11
2.9381115636
 21
0.6004810129
  0
LINE
  5
4D9
100
AcDbEntity
  8
RACCORDO
100
AcDbLine
 62
7
  6
CONTINUOUS
 10
23.2626881887
 20
0.8792150477
 11
22.2668455984
 21
0.8792150477
  0
LINE
  5
4DA
100
AcDbEntity
  8
ASSI
100
AcDbLine
 62
7
  6
CONTINUOUS
 10
23.2626881887
 20
0.8792150477
 11
22.2668455984
 21
0.8792150477
  0
LINE
  5
4DB
100
AcDbEntity
  8
RACCORDO
100
AcDbLine
 62
7
  6
CONTINUOUS
 10
-22.3906224713
 20
0.8792150477
 11
-23.3864650616
 21
0.8792150477
  0
LINE
  5
4DC
100
AcDbEntity
  8
ASSI
100
AcDbLine
 62
7
  6
CONTINUOUS
 10
-22.3906224713
 20
0.8792150477
 11
-23.3864650616
 21
0.8792150477
  0
LINE
  5
4DD
100
AcDbEntity
  8
RACCORDO
100
AcDbLine
 62
7
  6
CONTINUOUS
 10
-23.7374513455
 20
0.9353911428
 11
-22.7416077452
 21
0.9353911428
  0
LINE
  5
4DE
100
AcDbEntity
  8
ASSI
100
AcDbLine
 62
7
  6
CONTINUOUS
 10
-23.7374513455
 20
0.9353911428
 11
-22.7416077452
 21
0.9353911428
  0
LINE
  5
4DF
100
AcDbEntity
  8
RACCORDO
100
AcDbLine
 62
7
  6
CONTINUOUS
 10
22.6178308723
 20
0.9353911428
 11
23.6136744727
 21
0.9353911428
  0
LINE
  5
4E0
100
AcDbEntity
  8
ASSI
100
AcDbLine
 62
7
  6
CONTINUOUS
 10
22.6178308723
 20
0.9353911428
 11
23.6136744727
 21
0.9353911428
  0
LINE
  5
4E1
100
AcDbEntity
  8
RACCORDO
100
AcDbLine
 62
7
  6
CONTINUOUS
 10
23.6136744727
 20
1.5655708831
 11
22.6178308723
 21
1.5655708831
  0
LINE
  5
4E2
100
AcDbEntity
  8
ASSI
100
AcDbLine
 62
7
  6
CONTINUOUS
 10
23.6136744727
 20
1.5655708831
 11
22.6178308723
 21
1.5655708831
  0
LINE
  5
4E3
100
AcDbEntity
  8
RACCORDO
100
AcDbLine
 62
7
  6
CONTINUOUS
 10
-22.7416077452
 20
1.5655708831
 11
-23.7374513455
 21
1.5655708831
  0
LINE
  5
4E4
100
AcDbEntity
  8
ASSI
100
AcDbLine
 62
7
  6
CONTINUOUS
 10
-22.7416077452
 20
1.5655708831
 11
-23.7374513455
 21
1.5655708831
  0
LINE
  5
4E5
100
AcDbEntity
  8
RACCORDO
100
AcDbLine
 62
7
  6
CONTINUOUS
 10
-23.3862219252
 20
1.6219902867
 11
-22.3903791626
 21
1.6219902867
  0
LINE
  5
4E6
100
AcDbEntity
  8
ASSI
100
AcDbLine
 62
7
  6
CONTINUOUS
 10
-23.3862219252
 20
1.6219902867
 11
-22.3903791626
 21
1.6219902867
  0
LINE
  5
4E7
100
AcDbEntity
  8
RACCORDO
100
AcDbLine
 62
7
  6
CONTINUOUS
 10
22.2666022897
 20
1.6219902867
 11
23.2624450523
 21
1.6219902867
  0
LINE
  5
4E8
100
AcDbEntity
  8
ASSI
100
AcDbLine
 62
7
  6
CONTINUOUS
 10
22.2666022897
 20
1.6219902867
 11
23.2624450523
 21
1.6219902867
  0
LINE
  5
4E9
100
AcDbEntity
  8
RACCORDO
100
AcDbLine
 62
253
  6
CONTINUOUS
 10
6.7329207425
 20
-6.4943738575
 11
6.7029747527
 21
-6.4644278677
  0
LINE
  5
4EA
100
AcDbEntity
  8
ASSI
100
AcDbLine
 62
253
  6
CONTINUOUS
 10
6.7329207425
 20
-6.4943738575
 11
6.7029747527
 21
-6.4644278677
  0
LINE
  5
4EB
100
AcDbEntity
  8
DRAFT
100
AcDbLine
 62
7
  6
CONTINUOUS
 10
2.4346205506
 20
7.0214270908
 11
2.4346205506
 21
2.179534935
  0
LINE
  5
4EC
100
AcDbEntity
  8
DRAFT
100
AcDbLine
 62
7
  6
CONTINUOUS
 10
2.8381115636
 20
5.4047097637
 11
2.8381115636
 21
3.7962522621
  0
LINE
  5
4ED
100
AcDbEntity
  8
ASSI
100
AcDbLine
 62
7
  6
CONTINUOUS
 10
2.8381115636
 20
5.4047097637
 11
2.8381115636
 21
3.7962522621
  0
LINE
  5
4EE
100
AcDbEntity
  8
DRAFT
100
AcDbLine
 62
7
  6
CONTINUOUS
 10
2.9055666285
 20
7.0179360778
 11
2.9055666285
 21
5.4092085454
  0
LINE
  5
4EF
100
AcDbEntity
  8
DRAFT
100
AcDbLine
 62
7
  6
CONTINUOUS
 10
2.9055666285
 20
3.7917534804
 11
2.9055666285
 21
2.183025948
  0
LINE
  5
4F0
100
AcDbEntity
  8
DRAFT
100
AcDbLine
 62
7
  6
CONTINUOUS
 10
2.9381115636
 20
0.6004810129
 11
2.9381115636
 21
3.7917534804
  0
LINE
  5
4F1
100
AcDbEntity
  8
ASSI
100
AcDbLine
 62
7
  6
CONTINUOUS
 10
2.9381115636
 20
0.6004810129
 11
2.9381115636
 21
3.7917534804
  0
LINE
  5
4F2
100
AcDbEntity
  8
DRAFT
100
AcDbLine
 62
7
  6
CONTINUOUS
 10
2.9381115636
 20
5.4092085454
 11
2.9381115636
 21
7.1004810129
  0
LINE
  5
4F3
100
AcDbEntity
  8
ASSI
100
AcDbLine
 62
7
  6
CONTINUOUS
 10
2.9381115636
 20
5.4092085454
 11
2.9381115636
 21
7.1004810129
  0
LINE
  5
4F4
100
AcDbEntity
  8
DRAFT
100
AcDbLine
 62
7
  6
CONTINUOUS
 10
3.0803765366
 20
5.4004810129
 11
3.0803765366
 21
3.8004810129
  0
LINE
  5
4F5
100
AcDbEntity
  8
ASSI
100
AcDbLine
 62
7
  6
CONTINUOUS
 10
3.0803765366
 20
5.4004810129
 11
3.0803765366
 21
3.8004810129
  0
LINE
  5
4F6
100
AcDbEntity
  8
RACCORDO
100
AcDbLine
 62
253
  6
CONTINUOUS
 10
3.4780493021
 20
3.8004810129
 11
3.4780493021
 21
5.4004810129
  0
LINE
  5
4F7
100
AcDbEntity
  8
ASSI
100
AcDbLine
 62
253
  6
CONTINUOUS
 10
3.4780493021
 20
3.8004810129
 11
3.4780493021
 21
5.4004810129
  0
LINE
  5
4F8
100
AcDbEntity
  8
DRAFT
100
AcDbLine
 62
7
  6
CONTINUOUS
 10
2.4346205506
 20
2.179534935
 11
-2.5583974235
 21
2.179534935
  0
LINE
  5
4F9
100
AcDbEntity
  8
DRAFT
100
AcDbLine
 62
7
  6
CONTINUOUS
 10
-3.0293435014
 20
2.183025948
 11
-2.5618884364
 21
2.183025948
  0
LINE
  5
4FA
100
AcDbEntity
  8
DRAFT
100
AcDbLine
 62
7
  6
CONTINUOUS
 10
2.9055666285
 20
2.183025948
 11
2.4381115636
 21
2.183025948
  0
LINE
  5
4FB
100
AcDbEntity
  8
RACCORDO
100
AcDbLine
 62
7
  6
CONTINUOUS
 10
-19.8338032525
 20
2.8786118883
 11
-19.5899736203
 21
2.8786118883
  0
LINE
  5
4FC
100
AcDbEntity
  8
ASSI
100
AcDbLine
 62
7
  6
CONTINUOUS
 10
-19.8338032525
 20
2.8786118883
 11
-19.5899736203
 21
2.8786118883
  0
LINE
  5
4FD
100
AcDbEntity
  8
RACCORDO
100
AcDbLine
 62
7
  6
CONTINUOUS
 10
19.4661967475
 20
2.8786118883
 11
19.7100263797
 21
2.8786118883
  0
LINE
  5
4FE
100
AcDbEntity
  8
ASSI
100
AcDbLine
 62
7
  6
CONTINUOUS
 10
19.4661967475
 20
2.8786118883
 11
19.7100263797
 21
2.8786118883
  0
LINE
  5
4FF
100
AcDbEntity
  8
RACCORDO
100
AcDbLine
 62
253
  6
CONTINUOUS
 10
-19.803054279
 20
2.9093608618
 11
-19.6207225939
 21
2.9093608618
  0
LINE
  5
500
100
AcDbEntity
  8
ASSI
100
AcDbLine
 62
253
  6
CONTINUOUS
 10
-19.803054279
 20
2.9093608618
 11
-19.6207225939
 21
2.9093608618
  0
LINE
  5
501
100
AcDbEntity
  8
RACCORDO
100
AcDbLine
 62
253
  6
CONTINUOUS
 10
19.496945721
 20
2.9093608618
 11
19.6792774061
 21
2.9093608618
  0
LINE
  5
502
100
AcDbEntity
  8
ASSI
100
AcDbLine
 62
253
  6
CONTINUOUS
 10
19.496945721
 20
2.9093608618
 11
19.6792774061
 21
2.9093608618
  0
LINE
  5
503
100
AcDbEntity
  8
RACCORDO
100
AcDbLine
 62
253
  6
CONTINUOUS
 10
-20.0995785011
 20
3.4092847094
 11
-19.3241983718
 21
3.4092847094
  0
LINE
  5
504
100
AcDbEntity
  8
ASSI
100
AcDbLine
 62
253
  6
CONTINUOUS
 10
-20.0995785011
 20
3.4092847094
 11
-19.3241983718
 21
3.4092847094
  0
LINE
  5
505
100
AcDbEntity
  8
RACCORDO
100
AcDbLine
 62
253
  6
CONTINUOUS
 10
19.9758016282
 20
3.4092847094
 11
19.2004214989
 21
3.4092847094
  0
LINE
  5
506
100
AcDbEntity
  8
ASSI
100
AcDbLine
 62
253
  6
CONTINUOUS
 10
19.9758016282
 20
3.4092847094
 11
19.2004214989
 21
3.4092847094
  0
LINE
  5
507
100
AcDbEntity
  8
RACCORDO
100
AcDbLine
 62
253
  6
CONTINUOUS
 10
3.7599570883
 20
3.7970354886
 11
3.7599570883
 21
5.4039265372
  0
LINE
  5
508
100
AcDbEntity
  8
ASSI
100
AcDbLine
 62
253
  6
CONTINUOUS
 10
3.7599570883
 20
3.7970354886
 11
3.7599570883
 21
5.4039265372
  0
LINE
  5
509
100
AcDbEntity
  8
RACCORDO
100
AcDbLine
 62
253
  6
CONTINUOUS
 10
4.3614874257
 20
3.774903971
 11
4.3680103305
 21
5.4263710245
  0
LINE
  5
50A
100
AcDbEntity
  8
ASSI
100
AcDbLine
 62
253
  6
CONTINUOUS
 10
4.3614874257
 20
3.774903971
 11
4.3680103305
 21
5.4263710245
  0
LINE
  5
50B
100
AcDbEntity
  8
DRAFT
100
AcDbLine
 62
7
  6
CONTINUOUS
 10
21.2505775541
 20
7.8528462077
 11
20.9881115636
 21
7.8004810129
  0
LINE
  5
50C
100
AcDbEntity
  8
ASSI
100
AcDbLine
 62
7
  6
CONTINUOUS
 10
21.2505775541
 20
7.8528462077
 11
20.9881115636
 21
7.8004810129
  0
LINE
  5
50D
100
AcDbEntity
  8
DRAFT
100
AcDbLine
 62
7
  6
CONTINUOUS
 10
21.2505775541
 20
8.9934989869
 11
20.9881115636
 21
8.9411337922
  0
LINE
  5
50E
100
AcDbEntity
  8
ASSI
100
AcDbLine
 62
7
  6
CONTINUOUS
 10
21.2505775541
 20
8.9934989869
 11
20.9881115636
 21
8.9411337922
  0
LINE
  5
50F
100
AcDbEntity
  8
RACCORDO
100
AcDbLine
 62
7
  6
CONTINUOUS
 10
-3.8837339612
 20
3.7970354886
 11
-4.2973245604
 21
3.7772007601
  0
LINE
  5
510
100
AcDbEntity
  8
ASSI
100
AcDbLine
 62
7
  6
CONTINUOUS
 10
-3.8837339612
 20
3.7970354886
 11
-4.2973245604
 21
3.7772007601
  0
LINE
  5
511
100
AcDbEntity
  8
RACCORDO
100
AcDbLine
 62
7
  6
CONTINUOUS
 10
4.1800586026
 20
5.4240735122
 11
3.7599570883
 21
5.4039265372
  0
LINE
  5
512
100
AcDbEntity
  8
ASSI
100
AcDbLine
 62
7
  6
CONTINUOUS
 10
4.1800586026
 20
5.4240735122
 11
3.7599570883
 21
5.4039265372
  0
LINE
  5
513
100
AcDbEntity
  8
DRAFT
100
AcDbLine
 62
7
  6
CONTINUOUS
 10
3.0803765366
 20
3.8004810129
 11
2.8381115636
 21
3.7962522621
  0
LINE
  5
514
100
AcDbEntity
  8
ASSI
100
AcDbLine
 62
7
  6
CONTINUOUS
 10
3.0803765366
 20
3.8004810129
 11
2.8381115636
 21
3.7962522621
  0
LINE
  5
515
100
AcDbEntity
  8
DRAFT
100
AcDbLine
 62
7
  6
CONTINUOUS
 10
-3.0618884364
 20
3.7917534804
 11
-2.9618884364
 21
3.7927612491
  0
LINE
  5
516
100
AcDbEntity
  8
ASSI
100
AcDbLine
 62
7
  6
CONTINUOUS
 10
-3.0618884364
 20
3.7917534804
 11
-3.0293435014
 21
3.7920814581
  0
LINE
  5
517
100
AcDbEntity
  8
RACCORDO
100
AcDbLine
 62
7
  6
CONTINUOUS
 10
4.3614874257
 20
3.774903971
 11
2.9381115636
 21
3.774903971
  0
LINE
  5
518
100
AcDbEntity
  8
ASSI
100
AcDbLine
 62
7
  6
CONTINUOUS
 10
4.3614874257
 20
3.774903971
 11
2.9381115636
 21
3.774903971
  0
LINE
  5
519
100
AcDbEntity
  8
RACCORDO
100
AcDbLine
 62
7
  6
CONTINUOUS
 10
-3.0618884364
 20
3.774903971
 11
-4.4852642986
 21
3.774903971
  0
LINE
  5
51A
100
AcDbEntity
  8
ASSI
100
AcDbLine
 62
7
  6
CONTINUOUS
 10
-3.0618884364
 20
3.774903971
 11
-4.4852642986
 21
3.774903971
  0
LINE
  5
51B
100
AcDbEntity
  8
RACCORDO
100
AcDbLine
 62
7
  6
CONTINUOUS
 10
3.4780493021
 20
3.8004810129
 11
3.0803765366
 21
3.8004810129
  0
LINE
  5
51C
100
AcDbEntity
  8
ASSI
100
AcDbLine
 62
7
  6
CONTINUOUS
 10
3.4780493021
 20
3.8004810129
 11
3.0803765366
 21
3.8004810129
  0
LINE
  5
51D
100
AcDbEntity
  8
RACCORDO
100
AcDbLine
 62
7
  6
CONTINUOUS
 10
-3.2041534095
 20
3.8004810129
 11
-3.601826175
 21
3.8004810129
  0
LINE
  5
51E
100
AcDbEntity
  8
ASSI
100
AcDbLine
 62
7
  6
CONTINUOUS
 10
-3.2041534095
 20
3.8004810129
 11
-3.601826175
 21
3.8004810129
  0
LINE
  5
51F
100
AcDbEntity
  8
RACCORDO
100
AcDbLine
 62
253
  6
CONTINUOUS
 10
19.2004214989
 20
4.7933742317
 11
19.9758016282
 21
4.7933742317
  0
LINE
  5
520
100
AcDbEntity
  8
ASSI
100
AcDbLine
 62
253
  6
CONTINUOUS
 10
19.2004214989
 20
4.7933742317
 11
19.9758016282
 21
4.7933742317
  0
LINE
  5
521
100
AcDbEntity
  8
RACCORDO
100
AcDbLine
 62
253
  6
CONTINUOUS
 10
-19.3241983718
 20
4.7933742317
 11
-20.0995785011
 21
4.7933742317
  0
LINE
  5
522
100
AcDbEntity
  8
ASSI
100
AcDbLine
 62
253
  6
CONTINUOUS
 10
-19.3241983718
 20
4.7933742317
 11
-20.0995785011
 21
4.7933742317
  0
LINE
  5
523
100
AcDbEntity
  8
RACCORDO
100
AcDbLine
 62
253
  6
CONTINUOUS
 10
19.6768686734
 20
5.1468622946
 11
19.4993544538
 21
5.1468622868
  0
LINE
  5
524
100
AcDbEntity
  8
ASSI
100
AcDbLine
 62
253
  6
CONTINUOUS
 10
19.6768686734
 20
5.1468622946
 11
19.4993544538
 21
5.1468622868
  0
LINE
  5
525
100
AcDbEntity
  8
RACCORDO
100
AcDbLine
 62
253
  6
CONTINUOUS
 10
-19.6231313266
 20
5.1468622946
 11
-19.8006455462
 21
5.1468622868
  0
LINE
  5
526
100
AcDbEntity
  8
ASSI
100
AcDbLine
 62
253
  6
CONTINUOUS
 10
-19.6231313266
 20
5.1468622946
 11
-19.8006455462
 21
5.1468622868
  0
LINE
  5
527
100
AcDbEntity
  8
DRAFT
100
AcDbLine
 62
7
  6
CONTINUOUS
 10
2.8381115636
 20
3.7927612491
 11
2.9381115636
 21
3.7917534804
  0
LINE
  5
528
100
AcDbEntity
  8
ASSI
100
AcDbLine
 62
7
  6
CONTINUOUS
 10
2.9055666285
 20
3.7920814581
 11
2.9381115636
 21
3.7917534804
  0
LINE
  5
529
100
AcDbEntity
  8
DRAFT
100
AcDbLine
 62
7
  6
CONTINUOUS
 10
-2.9618884364
 20
3.7962522621
 11
-3.2041534095
 21
3.8004810129
  0
LINE
  5
52A
100
AcDbEntity
  8
ASSI
100
AcDbLine
 62
7
  6
CONTINUOUS
 10
-2.9618884364
 20
3.7962522621
 11
-3.2041534095
 21
3.8004810129
  0
LINE
  5
52B
100
AcDbEntity
  8
RACCORDO
100
AcDbLine
 62
7
  6
CONTINUOUS
 10
4.1735476875
 20
3.7772007601
 11
3.7599570883
 21
3.7970354886
  0
LINE
  5
52C
100
AcDbEntity
  8
ASSI
100
AcDbLine
 62
7
  6
CONTINUOUS
 10
4.1735476875
 20
3.7772007601
 11
3.7599570883
 21
3.7970354886
  0
LINE
  5
52D
100
AcDbEntity
  8
RACCORDO
100
AcDbLine
 62
7
  6
CONTINUOUS
 10
-3.8837339612
 20
5.4039265372
 11
-4.3038354755
 21
5.4240735122
  0
LINE
  5
52E
100
AcDbEntity
  8
ASSI
100
AcDbLine
 62
7
  6
CONTINUOUS
 10
-3.8837339612
 20
5.4039265372
 11
-4.3038354755
 21
5.4240735122
  0
LINE
  5
52F
100
AcDbEntity
  8
DRAFT
100
AcDbLine
 62
7
  6
CONTINUOUS
 10
-21.374354427
 20
7.8528462077
 11
-21.1118884364
 21
7.8004810129
  0
LINE
  5
530
100
AcDbEntity
  8
ASSI
100
AcDbLine
 62
7
  6
CONTINUOUS
 10
-21.374354427
 20
7.8528462077
 11
-21.1118884364
 21
7.8004810129
  0
LINE
  5
531
100
AcDbEntity
  8
DRAFT
100
AcDbLine
 62
7
  6
CONTINUOUS
 10
-21.374354427
 20
8.9934989869
 11
-21.1118884364
 21
8.9411337922
  0
LINE
  5
532
100
AcDbEntity
  8
ASSI
100
AcDbLine
 62
7
  6
CONTINUOUS
 10
-21.374354427
 20
8.9934989869
 11
-21.1118884364
 21
8.9411337922
  0
LINE
  5
533
100
AcDbEntity
  8
RACCORDO
100
AcDbLine
 62
7
  6
CONTINUOUS
 10
6.4080614697
 20
-7.8227752181
 11
6.4329664339
 21
-8.0743593382
  0
LINE
  5
534
100
AcDbEntity
  8
ASSI
100
AcDbLine
 62
7
  6
CONTINUOUS
 10
6.4080614697
 20
-7.8227752181
 11
6.4329664339
 21
-8.0743593382
  0
LINE
  5
535
100
AcDbEntity
  8
RACCORDO
100
AcDbLine
 62
253
  6
CONTINUOUS
 10
6.4329664339
 20
-8.0743593382
 11
6.4329664339
 21
-6.794328166
  0
LINE
  5
536
100
AcDbEntity
  8
ASSI
100
AcDbLine
 62
253
  6
CONTINUOUS
 10
6.4329664339
 20
-8.0743593382
 11
6.4329664339
 21
-6.794328166
  0
LINE
  5
537
100
AcDbEntity
  8
RACCORDO
100
AcDbLine
 62
253
  6
CONTINUOUS
 10
6.7329207425
 20
-8.1263342334
 11
6.7329207425
 21
-6.4943738575
  0
LINE
  5
538
100
AcDbEntity
  8
ASSI
100
AcDbLine
 62
253
  6
CONTINUOUS
 10
6.7329207425
 20
-8.1263342334
 11
6.7329207425
 21
-6.4943738575
  0
LINE
  5
539
100
AcDbEntity
  8
RACCORDO
100
AcDbLine
 62
253
  6
CONTINUOUS
 10
6.9433023846
 20
-6.4943738575
 11
6.9433023846
 21
-8.1263342334
  0
LINE
  5
53A
100
AcDbEntity
  8
ASSI
100
AcDbLine
 62
253
  6
CONTINUOUS
 10
6.9433023846
 20
-6.4943738575
 11
6.9433023846
 21
-8.1263342334
  0
LINE
  5
53B
100
AcDbEntity
  8
DRAFT
100
AcDbLine
 62
7
  6
CONTINUOUS
 10
-2.9618884364
 20
5.4047097637
 11
-3.2041534095
 21
5.4004810129
  0
LINE
  5
53C
100
AcDbEntity
  8
ASSI
100
AcDbLine
 62
7
  6
CONTINUOUS
 10
-2.9618884364
 20
5.4047097637
 11
-3.2041534095
 21
5.4004810129
  0
LINE
  5
53D
100
AcDbEntity
  8
DRAFT
100
AcDbLine
 62
7
  6
CONTINUOUS
 10
2.8381115636
 20
5.4082007767
 11
2.9381115636
 21
5.4092085454
  0
LINE
  5
53E
100
AcDbEntity
  8
ASSI
100
AcDbLine
 62
7
  6
CONTINUOUS
 10
2.9055666285
 20
5.4088805677
 11
2.9381115636
 21
5.4092085454
  0
LINE
  5
53F
100
AcDbEntity
  8
RACCORDO
100
AcDbLine
 62
7
  6
CONTINUOUS
 10
3.4780493021
 20
5.4004810129
 11
3.0803765366
 21
5.4004810129
  0
LINE
  5
540
100
AcDbEntity
  8
ASSI
100
AcDbLine
 62
7
  6
CONTINUOUS
 10
3.4780493021
 20
5.4004810129
 11
3.0803765366
 21
5.4004810129
  0
LINE
  5
541
100
AcDbEntity
  8
RACCORDO
100
AcDbLine
 62
7
  6
CONTINUOUS
 10
-3.2041534095
 20
5.4004810129
 11
-3.601826175
 21
5.4004810129
  0
LINE
  5
542
100
AcDbEntity
  8
ASSI
100
AcDbLine
 62
7
  6
CONTINUOUS
 10
-3.2041534095
 20
5.4004810129
 11
-3.601826175
 21
5.4004810129
  0
LINE
  5
543
100
AcDbEntity
  8
RACCORDO
100
AcDbLine
 62
7
  6
CONTINUOUS
 10
-4.4917872034
 20
5.4263710245
 11
-3.0618884364
 21
5.4263710245
  0
LINE
  5
544
100
AcDbEntity
  8
ASSI
100
AcDbLine
 62
7
  6
CONTINUOUS
 10
-4.4917872034
 20
5.4263710245
 11
-3.0618884364
 21
5.4263710245
  0
LINE
  5
545
100
AcDbEntity
  8
RACCORDO
100
AcDbLine
 62
7
  6
CONTINUOUS
 10
2.9381115636
 20
5.4263710245
 11
4.3680103305
 21
5.4263710245
  0
LINE
  5
546
100
AcDbEntity
  8
ASSI
100
AcDbLine
 62
7
  6
CONTINUOUS
 10
2.9381115636
 20
5.4263710245
 11
4.3680103305
 21
5.4263710245
  0
LINE
  5
547
100
AcDbEntity
  8
RACCORDO
100
AcDbLine
 62
253
  6
CONTINUOUS
 10
19.4870105248
 20
5.8540455059
 11
19.6892126119
 21
5.8540460558
  0
LINE
  5
548
100
AcDbEntity
  8
ASSI
100
AcDbLine
 62
253
  6
CONTINUOUS
 10
19.4870105248
 20
5.8540455059
 11
19.6892126119
 21
5.8540460558
  0
LINE
  5
549
100
AcDbEntity
  8
RACCORDO
100
AcDbLine
 62
253
  6
CONTINUOUS
 10
-19.8129894752
 20
5.8540455059
 11
-19.6107873881
 21
5.8540460558
  0
LINE
  5
54A
100
AcDbEntity
  8
ASSI
100
AcDbLine
 62
253
  6
CONTINUOUS
 10
-19.8129894752
 20
5.8540455059
 11
-19.6107873881
 21
5.8540460558
  0
LINE
  5
54B
100
AcDbEntity
  8
RACCORDO
100
AcDbLine
 62
253
  6
CONTINUOUS
 10
-19.3067433068
 20
6.2075877941
 11
-20.1170335661
 21
6.2075877941
  0
LINE
  5
54C
100
AcDbEntity
  8
ASSI
100
AcDbLine
 62
253
  6
CONTINUOUS
 10
-19.3067433068
 20
6.2075877941
 11
-20.1170335661
 21
6.2075877941
  0
LINE
  5
54D
100
AcDbEntity
  8
RACCORDO
100
AcDbLine
 62
253
  6
CONTINUOUS
 10
19.1829664339
 20
6.2075877941
 11
19.9932566932
 21
6.2075877941
  0
LINE
  5
54E
100
AcDbEntity
  8
ASSI
100
AcDbLine
 62
253
  6
CONTINUOUS
 10
19.1829664339
 20
6.2075877941
 11
19.9932566932
 21
6.2075877941
  0
LINE
  5
54F
100
AcDbEntity
  8
DRAFT
100
AcDbLine
 62
7
  6
CONTINUOUS
 10
-3.0293435014
 20
7.0179360778
 11
-2.5618884364
 21
7.0179360778
  0
LINE
  5
550
100
AcDbEntity
  8
DRAFT
100
AcDbLine
 62
7
  6
CONTINUOUS
 10
2.9055666285
 20
7.0179360778
 11
2.4381115636
 21
7.0179360778
  0
LINE
  5
551
100
AcDbEntity
  8
DRAFT
100
AcDbLine
 62
7
  6
CONTINUOUS
 10
-2.5583974235
 20
7.0214270908
 11
2.4346205506
 21
7.0214270908
  0
LINE
  5
552
100
AcDbEntity
  8
DRAFT
100
AcDbLine
 62
7
  6
CONTINUOUS
 10
-3.0618884364
 20
5.4092085454
 11
-2.9618884364
 21
5.4082007767
  0
LINE
  5
553
100
AcDbEntity
  8
ASSI
100
AcDbLine
 62
7
  6
CONTINUOUS
 10
-3.0618884364
 20
5.4092085454
 11
-3.0293435014
 21
5.4088805677
  0
LINE
  5
554
100
AcDbEntity
  8
DRAFT
100
AcDbLine
 62
7
  6
CONTINUOUS
 10
3.0803765366
 20
5.4004810129
 11
2.8381115636
 21
5.4047097637
  0
LINE
  5
555
100
AcDbEntity
  8
ASSI
100
AcDbLine
 62
7
  6
CONTINUOUS
 10
3.0803765366
 20
5.4004810129
 11
2.8381115636
 21
5.4047097637
  0
LINE
  5
556
100
AcDbEntity
  8
0
100
AcDbLine
 62
7
  6
CONTINUOUS
 10
7.6358355636
 20
-3.7318199871
 11
7.0969455636
 21
-2.0319569871
  0
LINE
  5
557
100
AcDbEntity
  8
ASSI
100
AcDbLine
 62
7
  6
CONTINUOUS
 10
7.6358355636
 20
-3.7318199871
 11
7.0969455636
 21
-2.0319569871
  0
LINE
  5
558
100
AcDbEntity
  8
0
100
AcDbLine
 62
7
  6
CONTINUOUS
 10
7.8064235636
 20
-3.2020249871
 11
7.4823985636
 21
-2.0319569871
  0
LINE
  5
559
100
AcDbEntity
  8
ASSI
100
AcDbLine
 62
7
  6
CONTINUOUS
 10
7.8064235636
 20
-3.2020249871
 11
7.4823985636
 21
-2.0319569871
  0
LINE
  5
55A
100
AcDbEntity
  8
RACCORDO
100
AcDbLine
 62
253
  6
CONTINUOUS
 10
7.2432566932
 20
-6.794328166
 11
7.2432566932
 21
-8.0743593382
  0
LINE
  5
55B
100
AcDbEntity
  8
ASSI
100
AcDbLine
 62
253
  6
CONTINUOUS
 10
7.2432566932
 20
-6.794328166
 11
7.2432566932
 21
-8.0743593382
  0
LINE
  5
55C
100
AcDbEntity
  8
0
100
AcDbLine
 62
7
  6
CONTINUOUS
 10
8.6266095636
 20
-3.7318199871
 11
8.6266095636
 21
-2.0318549871
  0
LINE
  5
55D
100
AcDbEntity
  8
ASSI
100
AcDbLine
 62
7
  6
CONTINUOUS
 10
8.6266095636
 20
-3.7318199871
 11
8.6266095636
 21
-2.0318549871
  0
LINE
  5
55E
100
AcDbEntity
  8
0
100
AcDbLine
 62
7
  6
CONTINUOUS
 10
8.9814375636
 20
-3.7318199871
 11
8.9814375636
 21
-2.0318549871
  0
LINE
  5
55F
100
AcDbEntity
  8
ASSI
100
AcDbLine
 62
7
  6
CONTINUOUS
 10
8.9814375636
 20
-3.7318199871
 11
8.9814375636
 21
-2.0318549871
  0
LINE
  5
560
100
AcDbEntity
  8
RACCORDO
100
AcDbLine
 62
7
  6
CONTINUOUS
 10
7.2723168181
 20
-7.7808007577
 11
7.2432566932
 21
-8.0743593382
  0
LINE
  5
561
100
AcDbEntity
  8
ASSI
100
AcDbLine
 62
7
  6
CONTINUOUS
 10
7.2723168181
 20
-7.7808007577
 11
7.2432566932
 21
-8.0743593382
  0
LINE
  5
562
100
AcDbEntity
  8
0
100
AcDbLine
 62
7
  6
CONTINUOUS
 10
7.8064235636
 20
-3.2020249871
 11
8.1403455636
 21
-2.0319569871
  0
LINE
  5
563
100
AcDbEntity
  8
ASSI
100
AcDbLine
 62
7
  6
CONTINUOUS
 10
7.8064235636
 20
-3.2020249871
 11
8.1403455636
 21
-2.0319569871
  0
LINE
  5
564
100
AcDbEntity
  8
0
100
AcDbLine
 62
7
  6
CONTINUOUS
 10
7.9485275636
 20
-3.7318199871
 11
8.4949315636
 21
-2.0319569871
  0
LINE
  5
565
100
AcDbEntity
  8
ASSI
100
AcDbLine
 62
7
  6
CONTINUOUS
 10
7.9485275636
 20
-3.7318199871
 11
8.4949315636
 21
-2.0319569871
  0
LINE
  5
566
100
AcDbEntity
  8
RACCORDO
100
AcDbLine
 62
7
  6
CONTINUOUS
 10
19.1829664339
 20
7.7953358833
 11
19.1654608476
 21
7.777830297
  0
LINE
  5
567
100
AcDbEntity
  8
ASSI
100
AcDbLine
 62
7
  6
CONTINUOUS
 10
19.1829664339
 20
7.7953358833
 11
19.1654608476
 21
7.777830297
  0
LINE
  5
568
100
AcDbEntity
  8
0
100
AcDbLine
 62
7
  6
CONTINUOUS
 10
-3.0618884364
 20
7.1004810129
 11
2.9381115636
 21
7.1004810129
  0
LINE
  5
569
100
AcDbEntity
  8
ASSI
100
AcDbLine
 62
7
  6
CONTINUOUS
 10
-3.0618884364
 20
7.1004810129
 11
2.9381115636
 21
7.1004810129
  0
LINE
  5
56A
100
AcDbEntity
  8
DRAFT
100
AcDbLine
 62
7
  6
CONTINUOUS
 10
-24.8618884364
 20
7.7411337922
 11
-23.7618884364
 21
7.7411337922
  0
LINE
  5
56B
100
AcDbEntity
  8
ASSI
100
AcDbLine
 62
7
  6
CONTINUOUS
 10
-24.8618884364
 20
7.7411337922
 11
-23.7618884364
 21
7.7411337922
  0
LINE
  5
56C
100
AcDbEntity
  8
DRAFT
100
AcDbLine
 62
7
  6
CONTINUOUS
 10
23.6381115636
 20
7.7411337922
 11
24.7381115636
 21
7.7411337922
  0
LINE
  5
56D
100
AcDbEntity
  8
ASSI
100
AcDbLine
 62
7
  6
CONTINUOUS
 10
23.6381115636
 20
7.7411337922
 11
24.7381115636
 21
7.7411337922
  0
LINE
  5
56E
100
AcDbEntity
  8
RACCORDO
100
AcDbLine
 62
253
  6
CONTINUOUS
 10
-24.8600515401
 20
7.7429706885
 11
-23.7600515401
 21
7.7429706885
  0
LINE
  5
56F
100
AcDbEntity
  8
ASSI
100
AcDbLine
 62
253
  6
CONTINUOUS
 10
-24.8600515401
 20
7.7429706885
 11
-23.7600515401
 21
7.7429706885
  0
LINE
  5
570
100
AcDbEntity
  8
RACCORDO
100
AcDbLine
 62
253
  6
CONTINUOUS
 10
23.6362746672
 20
7.7429706885
 11
24.7362746672
 21
7.7429706885
  0
LINE
  5
571
100
AcDbEntity
  8
ASSI
100
AcDbLine
 62
253
  6
CONTINUOUS
 10
23.6362746672
 20
7.7429706885
 11
24.7362746672
 21
7.7429706885
  0
LINE
  5
572
100
AcDbEntity
  8
RACCORDO
100
AcDbLine
 62
7
  6
CONTINUOUS
 10
-23.3850812913
 20
7.777830297
 11
-20.1345391524
 21
7.777830297
  0
LINE
  5
573
100
AcDbEntity
  8
ASSI
100
AcDbLine
 62
7
  6
CONTINUOUS
 10
-23.3850812913
 20
7.777830297
 11
-20.1345391524
 21
7.777830297
  0
LINE
  5
574
100
AcDbEntity
  8
DRAFT
100
AcDbLine
 62
7
  6
CONTINUOUS
 10
-19.2892377205
 20
7.777830297
 11
19.1654608476
 21
7.777830297
  0
LINE
  5
575
100
AcDbEntity
  8
ASSI
100
AcDbLine
 62
7
  6
CONTINUOUS
 10
-19.2892377205
 20
7.777830297
 11
19.1654608476
 21
7.777830297
  0
LINE
  5
576
100
AcDbEntity
  8
RACCORDO
100
AcDbLine
 62
7
  6
CONTINUOUS
 10
20.0107622795
 20
7.777830297
 11
23.2613044184
 21
7.777830297
  0
LINE
  5
577
100
AcDbEntity
  8
ASSI
100
AcDbLine
 62
7
  6
CONTINUOUS
 10
20.0107622795
 20
7.777830297
 11
23.2613044184
 21
7.777830297
  0
LINE
  5
578
100
AcDbEntity
  8
RACCORDO
100
AcDbLine
 62
7
  6
CONTINUOUS
 10
-21.1118884364
 20
7.8004810129
 11
-19.8170792575
 21
7.8004810129
  0
LINE
  5
579
100
AcDbEntity
  8
ASSI
100
AcDbLine
 62
7
  6
CONTINUOUS
 10
-21.1118884364
 20
7.8004810129
 11
-19.8170792575
 21
7.8004810129
  0
LINE
  5
57A
100
AcDbEntity
  8
RACCORDO
100
AcDbLine
 62
7
  6
CONTINUOUS
 10
-19.6066976154
 20
7.8004810129
 11
19.4829207425
 21
7.8004810129
  0
LINE
  5
57B
100
AcDbEntity
  8
ASSI
100
AcDbLine
 62
7
  6
CONTINUOUS
 10
-19.6066976154
 20
7.8004810129
 11
19.4829207425
 21
7.8004810129
  0
LINE
  5
57C
100
AcDbEntity
  8
RACCORDO
100
AcDbLine
 62
7
  6
CONTINUOUS
 10
19.6933023846
 20
7.8004810129
 11
20.9881115636
 21
7.8004810129
  0
LINE
  5
57D
100
AcDbEntity
  8
ASSI
100
AcDbLine
 62
7
  6
CONTINUOUS
 10
19.6933023846
 20
7.8004810129
 11
20.9881115636
 21
7.8004810129
  0
LINE
  5
57E
100
AcDbEntity
  8
DRAFT
100
AcDbLine
 62
7
  6
CONTINUOUS
 10
-23.7549064105
 20
7.8528462077
 11
-21.374354427
 21
7.8528462077
  0
LINE
  5
57F
100
AcDbEntity
  8
ASSI
100
AcDbLine
 62
7
  6
CONTINUOUS
 10
-23.7549064105
 20
7.8528462077
 11
-21.374354427
 21
7.8528462077
  0
LINE
  5
580
100
AcDbEntity
  8
DRAFT
100
AcDbLine
 62
7
  6
CONTINUOUS
 10
21.2505775541
 20
7.8528462077
 11
23.6311295376
 21
7.8528462077
  0
LINE
  5
581
100
AcDbEntity
  8
ASSI
100
AcDbLine
 62
7
  6
CONTINUOUS
 10
21.2505775541
 20
7.8528462077
 11
23.6311295376
 21
7.8528462077
  0
LINE
  5
582
100
AcDbEntity
  8
RACCORDO
100
AcDbLine
 62
253
  6
CONTINUOUS
 10
-24.8549064105
 20
8.0429249971
 11
-23.7549064105
 21
8.0429249971
  0
LINE
  5
583
100
AcDbEntity
  8
ASSI
100
AcDbLine
 62
253
  6
CONTINUOUS
 10
-24.8549064105
 20
8.0429249971
 11
-23.7549064105
 21
8.0429249971
  0
LINE
  5
584
100
AcDbEntity
  8
RACCORDO
100
AcDbLine
 62
253
  6
CONTINUOUS
 10
23.6311295376
 20
8.0429249971
 11
24.7311295376
 21
8.0429249971
  0
LINE
  5
585
100
AcDbEntity
  8
ASSI
100
AcDbLine
 62
253
  6
CONTINUOUS
 10
23.6311295376
 20
8.0429249971
 11
24.7311295376
 21
8.0429249971
  0
LINE
  5
586
100
AcDbEntity
  8
RACCORDO
100
AcDbLine
 62
253
  6
CONTINUOUS
 10
17.6329664339
 20
-6.794328166
 11
17.603216136
 21
-6.7645778681
  0
LINE
  5
587
100
AcDbEntity
  8
ASSI
100
AcDbLine
 62
253
  6
CONTINUOUS
 10
17.6329664339
 20
-6.794328166
 11
17.603216136
 21
-6.7645778681
  0
LINE
  5
588
100
AcDbEntity
  8
RACCORDO
100
AcDbLine
 62
253
  6
CONTINUOUS
 10
17.9329207425
 20
-6.4943738575
 11
17.9029747527
 21
-6.4644278677
  0
LINE
  5
589
100
AcDbEntity
  8
ASSI
100
AcDbLine
 62
253
  6
CONTINUOUS
 10
17.9329207425
 20
-6.4943738575
 11
17.9029747527
 21
-6.4644278677
  0
LINE
  5
58A
100
AcDbEntity
  8
0
100
AcDbLine
 62
7
  6
CONTINUOUS
 10
10.0047355636
 20
-3.7318199871
 11
9.5884795636
 21
-2.6218409871
  0
LINE
  5
58B
100
AcDbEntity
  8
ASSI
100
AcDbLine
 62
7
  6
CONTINUOUS
 10
10.0047355636
 20
-3.7318199871
 11
9.5884795636
 21
-2.6218409871
  0
LINE
  5
58C
100
AcDbEntity
  8
0
100
AcDbLine
 62
7
  6
CONTINUOUS
 10
10.0315555636
 20
-2.9757259871
 11
9.6804745636
 21
-2.0319569871
  0
LINE
  5
58D
100
AcDbEntity
  8
ASSI
100
AcDbLine
 62
7
  6
CONTINUOUS
 10
10.0315555636
 20
-2.9757259871
 11
9.6804745636
 21
-2.0319569871
  0
LINE
  5
58E
100
AcDbEntity
  8
0
100
AcDbLine
 62
7
  6
CONTINUOUS
 10
10.8964075636
 20
-3.7318199871
 11
10.7374505636
 21
-2.0319569871
  0
LINE
  5
58F
100
AcDbEntity
  8
ASSI
100
AcDbLine
 62
7
  6
CONTINUOUS
 10
10.8964075636
 20
-3.7318199871
 11
10.7374505636
 21
-2.0319569871
  0
LINE
  5
590
100
AcDbEntity
  8
0
100
AcDbLine
 62
7
  6
CONTINUOUS
 10
10.5492915636
 20
-3.7318199871
 11
10.4763905636
 21
-2.6264679871
  0
LINE
  5
591
100
AcDbEntity
  8
ASSI
100
AcDbLine
 62
7
  6
CONTINUOUS
 10
10.5492915636
 20
-3.7318199871
 11
10.4763905636
 21
-2.6264679871
  0
LINE
  5
592
100
AcDbEntity
  8
0
100
AcDbLine
 62
7
  6
CONTINUOUS
 10
9.5119075636
 20
-3.7318199871
 11
9.5884795636
 21
-2.6218409871
  0
LINE
  5
593
100
AcDbEntity
  8
ASSI
100
AcDbLine
 62
7
  6
CONTINUOUS
 10
9.5119075636
 20
-3.7318199871
 11
9.5884795636
 21
-2.6218409871
  0
LINE
  5
594
100
AcDbEntity
  8
0
100
AcDbLine
 62
7
  6
CONTINUOUS
 10
9.1724525636
 20
-3.7318199871
 11
9.3259395636
 21
-2.0319569871
  0
LINE
  5
595
100
AcDbEntity
  8
ASSI
100
AcDbLine
 62
7
  6
CONTINUOUS
 10
9.1724525636
 20
-3.7318199871
 11
9.3259395636
 21
-2.0319569871
  0
LINE
  5
596
100
AcDbEntity
  8
0
100
AcDbLine
 62
7
  6
CONTINUOUS
 10
10.0315555636
 20
-2.9757259871
 11
10.3863835636
 21
-2.0319569871
  0
LINE
  5
597
100
AcDbEntity
  8
ASSI
100
AcDbLine
 62
7
  6
CONTINUOUS
 10
10.0315555636
 20
-2.9757259871
 11
10.3863835636
 21
-2.0319569871
  0
LINE
  5
598
100
AcDbEntity
  8
0
100
AcDbLine
 62
7
  6
CONTINUOUS
 10
10.0544995636
 20
-3.7318199871
 11
10.4763905636
 21
-2.6264679871
  0
LINE
  5
599
100
AcDbEntity
  8
ASSI
100
AcDbLine
 62
7
  6
CONTINUOUS
 10
10.0544995636
 20
-3.7318199871
 11
10.4763905636
 21
-2.6264679871
  0
LINE
  5
59A
100
AcDbEntity
  8
RACCORDO
100
AcDbLine
 62
253
  6
CONTINUOUS
 10
6.9732483744
 20
-6.4644278677
 11
6.9433023846
 21
-6.4943738575
  0
LINE
  5
59B
100
AcDbEntity
  8
ASSI
100
AcDbLine
 62
253
  6
CONTINUOUS
 10
6.9732483744
 20
-6.4644278677
 11
6.9433023846
 21
-6.4943738575
  0
LINE
  5
59C
100
AcDbEntity
  8
RACCORDO
100
AcDbLine
 62
253
  6
CONTINUOUS
 10
7.2730069911
 20
-6.7645778681
 11
7.2432566932
 21
-6.794328166
  0
LINE
  5
59D
100
AcDbEntity
  8
ASSI
100
AcDbLine
 62
253
  6
CONTINUOUS
 10
7.2730069911
 20
-6.7645778681
 11
7.2432566932
 21
-6.794328166
  0
LINE
  5
59E
100
AcDbEntity
  8
DRAFT
100
AcDbLine
 62
7
  6
CONTINUOUS
 10
-21.1118884364
 20
8.9411337922
 11
20.9881115636
 21
8.9411337922
  0
LINE
  5
59F
100
AcDbEntity
  8
ASSI
100
AcDbLine
 62
7
  6
CONTINUOUS
 10
-21.1118884364
 20
8.9411337922
 11
20.9881115636
 21
8.9411337922
  0
LINE
  5
5A0
100
AcDbEntity
  8
RACCORDO
100
AcDbLine
 62
7
  6
CONTINUOUS
 10
-24.6049444867
 20
8.9934989869
 11
-21.374354427
 21
8.9934989869
  0
LINE
  5
5A1
100
AcDbEntity
  8
ASSI
100
AcDbLine
 62
7
  6
CONTINUOUS
 10
-24.6049444867
 20
8.9934989869
 11
-21.374354427
 21
8.9934989869
  0
LINE
  5
5A2
100
AcDbEntity
  8
RACCORDO
100
AcDbLine
 62
7
  6
CONTINUOUS
 10
21.2505775541
 20
8.9934989869
 11
24.4811676138
 21
8.9934989869
  0
LINE
  5
5A3
100
AcDbEntity
  8
ASSI
100
AcDbLine
 62
7
  6
CONTINUOUS
 10
21.2505775541
 20
8.9934989869
 11
24.4811676138
 21
8.9934989869
  0
LINE
  5
5A4
100
AcDbEntity
  8
0
100
AcDbLine
 62
7
  6
CONTINUOUS
 10
11.9761495636
 20
-3.7318199871
 11
11.8842305636
 21
-3.3924669871
  0
LINE
  5
5A5
100
AcDbEntity
  8
ASSI
100
AcDbLine
 62
7
  6
CONTINUOUS
 10
11.9761495636
 20
-3.7318199871
 11
11.8842305636
 21
-3.3924669871
  0
LINE
  5
5A6
100
AcDbEntity
  8
0
100
AcDbLine
 62
7
  6
CONTINUOUS
 10
11.8133175636
 20
-3.1298769871
 11
11.6502695636
 21
-2.4990359871
  0
LINE
  5
5A7
100
AcDbEntity
  8
ASSI
100
AcDbLine
 62
7
  6
CONTINUOUS
 10
11.8133175636
 20
-3.1298769871
 11
11.6502695636
 21
-2.4990359871
  0
LINE
  5
5A8
100
AcDbEntity
  8
0
100
AcDbLine
 62
7
  6
CONTINUOUS
 10
12.4543182275
 20
-3.7318196738
 11
12.4543182275
 21
-2.0518169049
  0
LINE
  5
5A9
100
AcDbEntity
  8
ASSI
100
AcDbLine
 62
7
  6
CONTINUOUS
 10
12.4543182275
 20
-3.7318196738
 11
12.4543182275
 21
-2.0518169049
  0
LINE
  5
5AA
100
AcDbEntity
  8
0
100
AcDbLine
 62
7
  6
CONTINUOUS
 10
11.4735955636
 20
-3.1298769871
 11
11.6502695636
 21
-2.4990359871
  0
LINE
  5
5AB
100
AcDbEntity
  8
ASSI
100
AcDbLine
 62
7
  6
CONTINUOUS
 10
11.4735955636
 20
-3.1298769871
 11
11.6502695636
 21
-2.4990359871
  0
LINE
  5
5AC
100
AcDbEntity
  8
0
100
AcDbLine
 62
7
  6
CONTINUOUS
 10
11.3031025636
 20
-3.7318199871
 11
11.4010135636
 21
-3.3924669871
  0
LINE
  5
5AD
100
AcDbEntity
  8
ASSI
100
AcDbLine
 62
7
  6
CONTINUOUS
 10
11.3031025636
 20
-3.7318199871
 11
11.4010135636
 21
-3.3924669871
  0
LINE
  5
5AE
100
AcDbEntity
  8
0
100
AcDbLine
 62
7
  6
CONTINUOUS
 10
10.9521245636
 20
-3.7318199871
 11
11.4853095636
 21
-2.0319569871
  0
LINE
  5
5AF
100
AcDbEntity
  8
ASSI
100
AcDbLine
 62
7
  6
CONTINUOUS
 10
10.9521245636
 20
-3.7318199871
 11
11.4853095636
 21
-2.0319569871
  0
LINE
  5
5B0
100
AcDbEntity
  8
RACCORDO
100
AcDbLine
 62
7
  6
CONTINUOUS
 10
23.5612584848
 20
7.7829751549
 11
23.6311295376
 21
7.8528462077
  0
LINE
  5
5B1
100
AcDbEntity
  8
ASSI
100
AcDbLine
 62
7
  6
CONTINUOUS
 10
23.5612584848
 20
7.7829751549
 11
23.6311295376
 21
7.8528462077
  0
LINE
  5
5B2
100
AcDbEntity
  8
RACCORDO
100
AcDbLine
 62
253
  6
CONTINUOUS
 10
19.1661661828
 20
3.1784899407
 11
19.1969914125
 21
3.2093151704
  0
LINE
  5
5B3
100
AcDbEntity
  8
ASSI
100
AcDbLine
 62
253
  6
CONTINUOUS
 10
19.1661661828
 20
3.1784899407
 11
19.1969914125
 21
3.2093151704
  0
LINE
  5
5B4
100
AcDbEntity
  8
RACCORDO
100
AcDbLine
 62
253
  6
CONTINUOUS
 10
19.4661967475
 20
2.8786118883
 11
19.496945721
 21
2.9093608618
  0
LINE
  5
5B5
100
AcDbEntity
  8
ASSI
100
AcDbLine
 62
253
  6
CONTINUOUS
 10
19.4661967475
 20
2.8786118883
 11
19.496945721
 21
2.9093608618
  0
LINE
  5
5B6
100
AcDbEntity
  8
RACCORDO
100
AcDbLine
 62
7
  6
CONTINUOUS
 10
22.3178765638
 20
-6.3292839873
 11
22.2703582372
 21
-6.2817656608
  0
LINE
  5
5B7
100
AcDbEntity
  8
ASSI
100
AcDbLine
 62
7
  6
CONTINUOUS
 10
22.3178765638
 20
-6.3292839873
 11
22.2703582372
 21
-6.2817656608
  0
LINE
  5
5B8
100
AcDbEntity
  8
RACCORDO
100
AcDbLine
 62
7
  6
CONTINUOUS
 10
23.5661629391
 20
-6.2869175834
 11
23.6136744727
 21
-6.3344291169
  0
LINE
  5
5B9
100
AcDbEntity
  8
ASSI
100
AcDbLine
 62
7
  6
CONTINUOUS
 10
23.5661629391
 20
-6.2869175834
 11
23.6136744727
 21
-6.3344291169
  0
LINE
  5
5BA
100
AcDbEntity
  8
0
100
AcDbLine
 62
7
  6
CONTINUOUS
 10
12.3501235636
 20
-3.7318199871
 11
11.8285635636
 21
-2.0319569871
  0
LINE
  5
5BB
100
AcDbEntity
  8
ASSI
100
AcDbLine
 62
7
  6
CONTINUOUS
 10
12.3501235636
 20
-3.7318199871
 11
11.8285635636
 21
-2.0319569871
  0
LINE
  5
5BC
100
AcDbEntity
  8
0
100
AcDbLine
 62
7
  6
CONTINUOUS
 10
12.7959529952
 20
-2.7881908186
 11
12.7959529952
 21
-2.3215453361
  0
LINE
  5
5BD
100
AcDbEntity
  8
ASSI
100
AcDbLine
 62
7
  6
CONTINUOUS
 10
12.7959529952
 20
-2.7881908186
 11
12.7959529952
 21
-2.3215453361
  0
LINE
  5
5BE
100
AcDbEntity
  8
0
100
AcDbLine
 62
7
  6
CONTINUOUS
 10
12.8077185595
 20
-3.7318196738
 11
12.8077185595
 21
-3.0665872712
  0
LINE
  5
5BF
100
AcDbEntity
  8
ASSI
100
AcDbLine
 62
7
  6
CONTINUOUS
 10
12.8077185595
 20
-3.7318196738
 11
12.8077185595
 21
-3.0665872712
  0
LINE
  5
5C0
100
AcDbEntity
  8
0
100
AcDbLine
 62
7
  6
CONTINUOUS
 10
13.3665637463
 20
-2.9383387955
 11
13.3665637463
 21
-2.9282940883
  0
LINE
  5
5C1
100
AcDbEntity
  8
ASSI
100
AcDbLine
 62
7
  6
CONTINUOUS
 10
13.3665637463
 20
-2.9383387955
 11
13.3665637463
 21
-2.9282940883
  0
LINE
  5
5C2
100
AcDbEntity
  8
DRAFT
100
AcDbLine
 62
7
  6
CONTINUOUS
 10
23.6336039785
 20
-4.345011402
 11
23.6206564986
 21
-4.3320639222
  0
LINE
  5
5C3
100
AcDbEntity
  8
ASSI
100
AcDbLine
 62
7
  6
CONTINUOUS
 10
23.6336039785
 20
-4.345011402
 11
23.6206564986
 21
-4.3320639222
  0
LINE
  5
5C4
100
AcDbEntity
  8
DRAFT
100
AcDbLine
 62
7
  6
CONTINUOUS
 10
23.9336039777
 20
-4.3450114012
 11
23.8598112136
 21
-4.2712186372
  0
LINE
  5
5C5
100
AcDbEntity
  8
ASSI
100
AcDbLine
 62
7
  6
CONTINUOUS
 10
23.9336039777
 20
-4.3450114012
 11
23.8598112136
 21
-4.2712186372
  0
LINE
  5
5C6
100
AcDbEntity
  8
RACCORDO
100
AcDbLine
 62
7
  6
CONTINUOUS
 10
22.3178765638
 20
0.9302460132
 11
22.2668455984
 21
0.8792150477
  0
LINE
  5
5C7
100
AcDbEntity
  8
ASSI
100
AcDbLine
 62
7
  6
CONTINUOUS
 10
22.3178765638
 20
0.9302460132
 11
22.2668455984
 21
0.8792150477
  0
LINE
  5
5C8
100
AcDbEntity
  8
RACCORDO
100
AcDbLine
 62
7
  6
CONTINUOUS
 10
23.5626427535
 20
0.8843594236
 11
23.6136744727
 21
0.9353911428
  0
LINE
  5
5C9
100
AcDbEntity
  8
ASSI
100
AcDbLine
 62
7
  6
CONTINUOUS
 10
23.5626427535
 20
0.8843594236
 11
23.6136744727
 21
0.9353911428
  0
LINE
  5
5CA
100
AcDbEntity
  8
DRAFT
100
AcDbLine
 62
7
  6
CONTINUOUS
 10
22.8555666285
 20
-1.866974052
 11
22.9175993216
 21
-1.9290067452
  0
LINE
  5
5CB
100
AcDbEntity
  8
ASSI
100
AcDbLine
 62
7
  6
CONTINUOUS
 10
22.8555666285
 20
-1.866974052
 11
22.9175993216
 21
-1.9290067452
  0
LINE
  5
5CC
100
AcDbEntity
  8
RACCORDO
100
AcDbLine
 62
7
  6
CONTINUOUS
 10
23.5634403348
 20
-1.1841949791
 11
23.6206564986
 21
-1.2414111429
  0
LINE
  5
5CD
100
AcDbEntity
  8
ASSI
100
AcDbLine
 62
7
  6
CONTINUOUS
 10
23.5634403348
 20
-1.1841949791
 11
23.6206564986
 21
-1.2414111429
  0
LINE
  5
5CE
100
AcDbEntity
  8
RACCORDO
100
AcDbLine
 62
7
  6
CONTINUOUS
 10
17.603906309
 20
-7.7808007577
 11
17.6329664339
 21
-8.0743593382
  0
LINE
  5
5CF
100
AcDbEntity
  8
ASSI
100
AcDbLine
 62
7
  6
CONTINUOUS
 10
17.603906309
 20
-7.7808007577
 11
17.6329664339
 21
-8.0743593382
  0
LINE
  5
5D0
100
AcDbEntity
  8
RACCORDO
100
AcDbLine
 62
253
  6
CONTINUOUS
 10
17.6329664339
 20
-8.0743593382
 11
17.6329664339
 21
-6.794328166
  0
LINE
  5
5D1
100
AcDbEntity
  8
ASSI
100
AcDbLine
 62
253
  6
CONTINUOUS
 10
17.6329664339
 20
-8.0743593382
 11
17.6329664339
 21
-6.794328166
  0
LINE
  5
5D2
100
AcDbEntity
  8
RACCORDO
100
AcDbLine
 62
253
  6
CONTINUOUS
 10
18.1732483744
 20
-6.4644278677
 11
18.1433023846
 21
-6.4943738575
  0
LINE
  5
5D3
100
AcDbEntity
  8
ASSI
100
AcDbLine
 62
253
  6
CONTINUOUS
 10
18.1732483744
 20
-6.4644278677
 11
18.1433023846
 21
-6.4943738575
  0
LINE
  5
5D4
100
AcDbEntity
  8
RACCORDO
100
AcDbLine
 62
253
  6
CONTINUOUS
 10
18.4730069911
 20
-6.7645778681
 11
18.4432566932
 21
-6.794328166
  0
LINE
  5
5D5
100
AcDbEntity
  8
ASSI
100
AcDbLine
 62
253
  6
CONTINUOUS
 10
18.4730069911
 20
-6.7645778681
 11
18.4432566932
 21
-6.794328166
  0
LINE
  5
5D6
100
AcDbEntity
  8
RACCORDO
100
AcDbLine
 62
253
  6
CONTINUOUS
 10
19.6792774061
 20
2.9093608618
 11
19.7100263797
 21
2.8786118883
  0
LINE
  5
5D7
100
AcDbEntity
  8
ASSI
100
AcDbLine
 62
253
  6
CONTINUOUS
 10
19.6792774061
 20
2.9093608618
 11
19.7100263797
 21
2.8786118883
  0
LINE
  5
5D8
100
AcDbEntity
  8
RACCORDO
100
AcDbLine
 62
253
  6
CONTINUOUS
 10
19.9792317146
 20
3.2093151704
 11
20.0100569443
 21
3.1784899407
  0
LINE
  5
5D9
100
AcDbEntity
  8
ASSI
100
AcDbLine
 62
253
  6
CONTINUOUS
 10
19.9792317146
 20
3.2093151704
 11
20.0100569443
 21
3.1784899407
  0
LINE
  5
5DA
100
AcDbEntity
  8
RACCORDO
100
AcDbLine
 62
7
  6
CONTINUOUS
 10
22.3178765638
 20
1.5707160127
 11
22.2666022897
 21
1.6219902867
  0
LINE
  5
5DB
100
AcDbEntity
  8
ASSI
100
AcDbLine
 62
7
  6
CONTINUOUS
 10
22.3178765638
 20
1.5707160127
 11
22.2666022897
 21
1.6219902867
  0
LINE
  5
5DC
100
AcDbEntity
  8
RACCORDO
100
AcDbLine
 62
253
  6
CONTINUOUS
 10
19.1993990048
 20
4.934795588
 11
19.1870564101
 21
5.6419023691
  0
LINE
  5
5DD
100
AcDbEntity
  8
ASSI
100
AcDbLine
 62
253
  6
CONTINUOUS
 10
19.1993990048
 20
4.934795588
 11
19.1870564101
 21
5.6419023691
  0
LINE
  5
5DE
100
AcDbEntity
  8
RACCORDO
100
AcDbLine
 62
253
  6
CONTINUOUS
 10
17.9329207425
 20
-8.1263342334
 11
17.9329207425
 21
-6.4943738575
  0
LINE
  5
5DF
100
AcDbEntity
  8
ASSI
100
AcDbLine
 62
253
  6
CONTINUOUS
 10
17.9329207425
 20
-8.1263342334
 11
17.9329207425
 21
-6.4943738575
  0
LINE
  5
5E0
100
AcDbEntity
  8
RACCORDO
100
AcDbLine
 62
253
  6
CONTINUOUS
 10
18.1433023846
 20
-6.4943738575
 11
18.1433023846
 21
-8.1263342334
  0
LINE
  5
5E1
100
AcDbEntity
  8
ASSI
100
AcDbLine
 62
253
  6
CONTINUOUS
 10
18.1433023846
 20
-6.4943738575
 11
18.1433023846
 21
-8.1263342334
  0
LINE
  5
5E2
100
AcDbEntity
  8
RACCORDO
100
AcDbLine
 62
253
  6
CONTINUOUS
 10
18.4432566932
 20
-6.794328166
 11
18.4432566932
 21
-8.0743593382
  0
LINE
  5
5E3
100
AcDbEntity
  8
ASSI
100
AcDbLine
 62
253
  6
CONTINUOUS
 10
18.4432566932
 20
-6.794328166
 11
18.4432566932
 21
-8.0743593382
  0
LINE
  5
5E4
100
AcDbEntity
  8
RACCORDO
100
AcDbLine
 62
253
  6
CONTINUOUS
 10
19.1829664339
 20
6.2075877941
 11
19.1829664339
 21
7.7953358833
  0
LINE
  5
5E5
100
AcDbEntity
  8
ASSI
100
AcDbLine
 62
253
  6
CONTINUOUS
 10
19.1829664339
 20
6.2075877941
 11
19.1829664339
 21
7.7953358833
  0
LINE
  5
5E6
100
AcDbEntity
  8
RACCORDO
100
AcDbLine
 62
253
  6
CONTINUOUS
 10
19.2004214989
 20
3.4092847094
 11
19.2004214989
 21
4.7933742317
  0
LINE
  5
5E7
100
AcDbEntity
  8
ASSI
100
AcDbLine
 62
253
  6
CONTINUOUS
 10
19.2004214989
 20
3.4092847094
 11
19.2004214989
 21
4.7933742317
  0
LINE
  5
5E8
100
AcDbEntity
  8
RACCORDO
100
AcDbLine
 62
253
  6
CONTINUOUS
 10
19.4829207425
 20
6.2075993006
 11
19.4829207425
 21
7.8004810129
  0
LINE
  5
5E9
100
AcDbEntity
  8
ASSI
100
AcDbLine
 62
253
  6
CONTINUOUS
 10
19.4829207425
 20
6.2075993006
 11
19.4829207425
 21
7.8004810129
  0
LINE
  5
5EA
100
AcDbEntity
  8
RACCORDO
100
AcDbLine
 62
253
  6
CONTINUOUS
 10
19.5003758074
 20
3.4092847094
 11
19.5003758074
 21
4.7933742317
  0
LINE
  5
5EB
100
AcDbEntity
  8
ASSI
100
AcDbLine
 62
253
  6
CONTINUOUS
 10
19.5003758074
 20
3.4092847094
 11
19.5003758074
 21
4.7933742317
  0
LINE
  5
5EC
100
AcDbEntity
  8
RACCORDO
100
AcDbLine
 62
253
  6
CONTINUOUS
 10
19.6892126119
 20
5.8540460558
 11
19.6768686734
 21
5.1468622946
  0
LINE
  5
5ED
100
AcDbEntity
  8
ASSI
100
AcDbLine
 62
253
  6
CONTINUOUS
 10
19.6892126119
 20
5.8540460558
 11
19.6768686734
 21
5.1468622946
  0
LINE
  5
5EE
100
AcDbEntity
  8
RACCORDO
100
AcDbLine
 62
7
  6
CONTINUOUS
 10
18.4681616574
 20
-7.8227752181
 11
18.4432566932
 21
-8.0743593382
  0
LINE
  5
5EF
100
AcDbEntity
  8
ASSI
100
AcDbLine
 62
7
  6
CONTINUOUS
 10
18.4681616574
 20
-7.8227752181
 11
18.4432566932
 21
-8.0743593382
  0
LINE
  5
5F0
100
AcDbEntity
  8
DRAFT
100
AcDbLine
 62
7
  6
CONTINUOUS
 10
23.6381115636
 20
-1.8495189871
 11
23.6206564986
 21
-1.866974052
  0
LINE
  5
5F1
100
AcDbEntity
  8
ASSI
100
AcDbLine
 62
7
  6
CONTINUOUS
 10
23.6381115636
 20
-1.8495189871
 11
23.6206564986
 21
-1.866974052
  0
LINE
  5
5F2
100
AcDbEntity
  8
DRAFT
100
AcDbLine
 62
7
  6
CONTINUOUS
 10
23.9381115636
 20
-1.8495189871
 11
23.8586238055
 21
-1.9290067452
  0
LINE
  5
5F3
100
AcDbEntity
  8
ASSI
100
AcDbLine
 62
7
  6
CONTINUOUS
 10
23.9381115636
 20
-1.8495189871
 11
23.8586238055
 21
-1.9290067452
  0
LINE
  5
5F4
100
AcDbEntity
  8
DRAFT
100
AcDbLine
 62
7
  6
CONTINUOUS
 10
22.8555666285
 20
-4.3320639222
 11
22.9164119135
 21
-4.2712186372
  0
LINE
  5
5F5
100
AcDbEntity
  8
ASSI
100
AcDbLine
 62
7
  6
CONTINUOUS
 10
22.8555666285
 20
-4.3320639222
 11
22.9164119135
 21
-4.2712186372
  0
LINE
  5
5F6
100
AcDbEntity
  8
RACCORDO
100
AcDbLine
 62
7
  6
CONTINUOUS
 10
23.5624026461
 20
1.6168427096
 11
23.6136744727
 21
1.5655708831
  0
LINE
  5
5F7
100
AcDbEntity
  8
ASSI
100
AcDbLine
 62
7
  6
CONTINUOUS
 10
23.5624026461
 20
1.6168427096
 11
23.6136744727
 21
1.5655708831
  0
LINE
  5
5F8
100
AcDbEntity
  8
RACCORDO
100
AcDbLine
 62
253
  6
CONTINUOUS
 10
19.4993544538
 20
5.1468622868
 11
19.4870105248
 21
5.8540455059
  0
LINE
  5
5F9
100
AcDbEntity
  8
ASSI
100
AcDbLine
 62
253
  6
CONTINUOUS
 10
19.4993544538
 20
5.1468622868
 11
19.4870105248
 21
5.8540455059
  0
LINE
  5
5FA
100
AcDbEntity
  8
RACCORDO
100
AcDbLine
 62
253
  6
CONTINUOUS
 10
19.6758473197
 20
4.7933742317
 11
19.6758473197
 21
3.4092847094
  0
LINE
  5
5FB
100
AcDbEntity
  8
ASSI
100
AcDbLine
 62
253
  6
CONTINUOUS
 10
19.6758473197
 20
4.7933742317
 11
19.6758473197
 21
3.4092847094
  0
LINE
  5
5FC
100
AcDbEntity
  8
RACCORDO
100
AcDbLine
 62
253
  6
CONTINUOUS
 10
19.6933023846
 20
7.8004810129
 11
19.6933023846
 21
6.2075989701
  0
LINE
  5
5FD
100
AcDbEntity
  8
ASSI
100
AcDbLine
 62
253
  6
CONTINUOUS
 10
19.6933023846
 20
7.8004810129
 11
19.6933023846
 21
6.2075989701
  0
LINE
  5
5FE
100
AcDbEntity
  8
RACCORDO
100
AcDbLine
 62
253
  6
CONTINUOUS
 10
19.9758016282
 20
4.7933742317
 11
19.9758016282
 21
3.4092847094
  0
LINE
  5
5FF
100
AcDbEntity
  8
ASSI
100
AcDbLine
 62
253
  6
CONTINUOUS
 10
19.9758016282
 20
4.7933742317
 11
19.9758016282
 21
3.4092847094
  0
LINE
  5
600
100
AcDbEntity
  8
RACCORDO
100
AcDbLine
 62
253
  6
CONTINUOUS
 10
19.9932566932
 20
7.7953358833
 11
19.9932566932
 21
6.2075877941
  0
LINE
  5
601
100
AcDbEntity
  8
ASSI
100
AcDbLine
 62
253
  6
CONTINUOUS
 10
19.9932566932
 20
7.7953358833
 11
19.9932566932
 21
6.2075877941
  0
LINE
  5
602
100
AcDbEntity
  8
DRAFT
100
AcDbLine
 62
7
  6
CONTINUOUS
 10
20.9881115636
 20
8.9411337922
 11
20.9881115636
 21
7.8004810129
  0
LINE
  5
603
100
AcDbEntity
  8
ASSI
100
AcDbLine
 62
7
  6
CONTINUOUS
 10
20.9881115636
 20
8.9411337922
 11
20.9881115636
 21
7.8004810129
  0
LINE
  5
604
100
AcDbEntity
  8
DRAFT
100
AcDbLine
 62
7
  6
CONTINUOUS
 10
21.2505775541
 20
8.9934989869
 11
21.2505775541
 21
7.8528462077
  0
LINE
  5
605
100
AcDbEntity
  8
ASSI
100
AcDbLine
 62
7
  6
CONTINUOUS
 10
21.2505775541
 20
8.9934989869
 11
21.2505775541
 21
7.8528462077
  0
LINE
  5
606
100
AcDbEntity
  8
RACCORDO
100
AcDbLine
 62
253
  6
CONTINUOUS
 10
19.989166717
 20
5.6419023691
 11
19.9768241223
 21
4.934795588
  0
LINE
  5
607
100
AcDbEntity
  8
ASSI
100
AcDbLine
 62
253
  6
CONTINUOUS
 10
19.989166717
 20
5.6419023691
 11
19.9768241223
 21
4.934795588
  0
LINE
  5
608
100
AcDbEntity
  8
RACCORDO
100
AcDbLine
 62
7
  6
CONTINUOUS
 10
23.5653824777
 20
-5.0129008522
 11
23.6206564986
 21
-4.9576268313
  0
LINE
  5
609
100
AcDbEntity
  8
ASSI
100
AcDbLine
 62
7
  6
CONTINUOUS
 10
23.5653824777
 20
-5.0129008522
 11
23.6206564986
 21
-4.9576268313
  0
LINE
  5
60A
100
AcDbEntity
  8
RACCORDO
100
AcDbLine
 62
7
  6
CONTINUOUS
 10
22.3178765638
 20
-6.9697539868
 11
22.2708385154
 21
-7.0167920352
  0
LINE
  5
60B
100
AcDbEntity
  8
ASSI
100
AcDbLine
 62
7
  6
CONTINUOUS
 10
22.3178765638
 20
-6.9697539868
 11
22.2708385154
 21
-7.0167920352
  0
LINE
  5
60C
100
AcDbEntity
  8
RACCORDO
100
AcDbLine
 62
7
  6
CONTINUOUS
 10
19.9932566932
 20
7.7953358833
 11
20.0107622795
 21
7.777830297
  0
LINE
  5
60D
100
AcDbEntity
  8
ASSI
100
AcDbLine
 62
7
  6
CONTINUOUS
 10
19.9932566932
 20
7.7953358833
 11
20.0107622795
 21
7.777830297
  0
LINE
  5
60E
100
AcDbEntity
  8
RACCORDO
100
AcDbLine
 62
253
  6
CONTINUOUS
 10
23.2670329275
 20
-7.8227752181
 11
23.3250111253
 21
-8.4084574025
  0
LINE
  5
60F
100
AcDbEntity
  8
ASSI
100
AcDbLine
 62
253
  6
CONTINUOUS
 10
23.2670329275
 20
-7.8227752181
 11
23.3250111253
 21
-8.4084574025
  0
LINE
  5
610
100
AcDbEntity
  8
RACCORDO
100
AcDbLine
 62
253
  6
CONTINUOUS
 10
23.5669872362
 20
-7.5273328933
 11
23.6241475116
 21
-8.104752618
  0
LINE
  5
611
100
AcDbEntity
  8
ASSI
100
AcDbLine
 62
253
  6
CONTINUOUS
 10
23.5669872362
 20
-7.5273328933
 11
23.6241475116
 21
-8.104752618
  0
LINE
  5
612
100
AcDbEntity
  8
DRAFT
100
AcDbLine
 62
7
  6
CONTINUOUS
 10
21.7881115636
 20
-4.9715908832
 11
21.7881115636
 21
-1.227447091
  0
LINE
  5
613
100
AcDbEntity
  8
ASSI
100
AcDbLine
 62
7
  6
CONTINUOUS
 10
21.7881115636
 20
-4.9715908832
 11
21.7881115636
 21
-1.227447091
  0
LINE
  5
614
100
AcDbEntity
  8
RACCORDO
100
AcDbLine
 62
253
  6
CONTINUOUS
 10
22.3178765638
 20
1.5707160127
 11
22.3178765638
 21
0.9302460132
  0
LINE
  5
615
100
AcDbEntity
  8
ASSI
100
AcDbLine
 62
253
  6
CONTINUOUS
 10
22.3178765638
 20
1.5707160127
 11
22.3178765638
 21
0.9302460132
  0
LINE
  5
616
100
AcDbEntity
  8
RACCORDO
100
AcDbLine
 62
253
  6
CONTINUOUS
 10
22.3178765638
 20
-6.3292839873
 11
22.3178765638
 21
-6.9697539868
  0
LINE
  5
617
100
AcDbEntity
  8
ASSI
100
AcDbLine
 62
253
  6
CONTINUOUS
 10
22.3178765638
 20
-6.3292839873
 11
22.3178765638
 21
-6.9697539868
  0
LINE
  5
618
100
AcDbEntity
  8
DRAFT
100
AcDbLine
 62
7
  6
CONTINUOUS
 10
22.3381115636
 20
-1.1790460719
 11
22.3381115636
 21
-1.2156205401
  0
LINE
  5
619
100
AcDbEntity
  8
ASSI
100
AcDbLine
 62
7
  6
CONTINUOUS
 10
22.3381115636
 20
-1.1790460719
 11
22.3381115636
 21
-1.2156205401
  0
LINE
  5
61A
100
AcDbEntity
  8
DRAFT
100
AcDbLine
 62
7
  6
CONTINUOUS
 10
22.3381115636
 20
-4.9834174341
 11
22.3381115636
 21
-5.0180459178
  0
LINE
  5
61B
100
AcDbEntity
  8
ASSI
100
AcDbLine
 62
7
  6
CONTINUOUS
 10
22.3381115636
 20
-4.9834174341
 11
22.3381115636
 21
-5.0180459178
  0
LINE
  5
61C
100
AcDbEntity
  8
DRAFT
100
AcDbLine
 62
7
  6
CONTINUOUS
 10
22.5881115636
 20
-4.9576268313
 11
22.5881115636
 21
-1.2414111429
  0
LINE
  5
61D
100
AcDbEntity
  8
ASSI
100
AcDbLine
 62
7
  6
CONTINUOUS
 10
22.5881115636
 20
-4.9576268313
 11
22.5881115636
 21
-1.2414111429
  0
LINE
  5
61E
100
AcDbEntity
  8
RACCORDO
100
AcDbLine
 62
253
  6
CONTINUOUS
 10
22.6178308723
 20
1.5655708831
 11
22.6178308723
 21
0.9353911428
  0
LINE
  5
61F
100
AcDbEntity
  8
ASSI
100
AcDbLine
 62
253
  6
CONTINUOUS
 10
22.6178308723
 20
1.5655708831
 11
22.6178308723
 21
0.9353911428
  0
LINE
  5
620
100
AcDbEntity
  8
RACCORDO
100
AcDbLine
 62
253
  6
CONTINUOUS
 10
22.6178308723
 20
-6.3344291169
 11
22.6178308723
 21
-6.9646088572
  0
LINE
  5
621
100
AcDbEntity
  8
ASSI
100
AcDbLine
 62
253
  6
CONTINUOUS
 10
22.6178308723
 20
-6.3344291169
 11
22.6178308723
 21
-6.9646088572
  0
LINE
  5
622
100
AcDbEntity
  8
DRAFT
100
AcDbLine
 62
7
  6
CONTINUOUS
 10
22.8555666285
 20
-1.866974052
 11
22.8555666285
 21
-4.3320639222
  0
LINE
  5
623
100
AcDbEntity
  8
ASSI
100
AcDbLine
 62
7
  6
CONTINUOUS
 10
22.8555666285
 20
-1.866974052
 11
22.8555666285
 21
-4.3320639222
  0
LINE
  5
624
100
AcDbEntity
  8
RACCORDO
100
AcDbLine
 62
7
  6
CONTINUOUS
 10
23.5666368248
 20
-7.0116465051
 11
23.6136744727
 21
-6.9646088572
  0
LINE
  5
625
100
AcDbEntity
  8
ASSI
100
AcDbLine
 62
7
  6
CONTINUOUS
 10
23.5666368248
 20
-7.0116465051
 11
23.6136744727
 21
-6.9646088572
  0
LINE
  5
626
100
AcDbEntity
  8
RACCORDO
100
AcDbLine
 62
7
  6
CONTINUOUS
 10
23.6381115636
 20
7.7411337922
 11
23.6362746672
 21
7.7429706885
  0
LINE
  5
627
100
AcDbEntity
  8
ASSI
100
AcDbLine
 62
7
  6
CONTINUOUS
 10
23.6381115636
 20
7.7411337922
 11
23.6362746672
 21
7.7429706885
  0
LINE
  5
628
100
AcDbEntity
  8
RACCORDO
100
AcDbLine
 62
253
  6
CONTINUOUS
 10
23.2666782785
 20
-7.0167920353
 11
23.2670329276
 21
-7.539185382
  0
LINE
  5
629
100
AcDbEntity
  8
ASSI
100
AcDbLine
 62
253
  6
CONTINUOUS
 10
23.2666782785
 20
-7.0167920353
 11
23.2670329276
 21
-7.539185382
  0
LINE
  5
62A
100
AcDbEntity
  8
RACCORDO
100
AcDbLine
 62
253
  6
CONTINUOUS
 10
23.2654252838
 20
-5.0180459181
 11
23.2661983404
 21
-6.2817656613
  0
LINE
  5
62B
100
AcDbEntity
  8
ASSI
100
AcDbLine
 62
253
  6
CONTINUOUS
 10
23.2654252838
 20
-5.0180459181
 11
23.2661983404
 21
-6.2817656613
  0
LINE
  5
62C
100
AcDbEntity
  8
RACCORDO
100
AcDbLine
 62
253
  6
CONTINUOUS
 10
23.2626881887
 20
0.8792150477
 11
23.2634806772
 21
-1.1790460717
  0
LINE
  5
62D
100
AcDbEntity
  8
ASSI
100
AcDbLine
 62
253
  6
CONTINUOUS
 10
23.2626881887
 20
0.8792150477
 11
23.2634806772
 21
-1.1790460717
  0
LINE
  5
62E
100
AcDbEntity
  8
RACCORDO
100
AcDbLine
 62
253
  6
CONTINUOUS
 10
23.2613044184
 20
7.777830297
 11
23.2624450523
 21
1.6219902869
  0
LINE
  5
62F
100
AcDbEntity
  8
ASSI
100
AcDbLine
 62
253
  6
CONTINUOUS
 10
23.2613044184
 20
7.777830297
 11
23.2624450523
 21
1.6219902869
  0
LINE
  5
630
100
AcDbEntity
  8
DRAFT
100
AcDbLine
 62
7
  6
CONTINUOUS
 10
23.6136744727
 20
1.5655708831
 11
23.6136744727
 21
0.9353911428
  0
LINE
  5
631
100
AcDbEntity
  8
ASSI
100
AcDbLine
 62
7
  6
CONTINUOUS
 10
23.6136744727
 20
1.5655708831
 11
23.6136744727
 21
0.9353911428
  0
LINE
  5
632
100
AcDbEntity
  8
DRAFT
100
AcDbLine
 62
7
  6
CONTINUOUS
 10
23.6136744727
 20
-6.3344291169
 11
23.6136744727
 21
-6.9646088572
  0
LINE
  5
633
100
AcDbEntity
  8
ASSI
100
AcDbLine
 62
7
  6
CONTINUOUS
 10
23.6136744727
 20
-6.3344291169
 11
23.6136744727
 21
-6.9646088572
  0
LINE
  5
634
100
AcDbEntity
  8
DRAFT
100
AcDbLine
 62
7
  6
CONTINUOUS
 10
23.6206564986
 20
-1.2414111429
 11
23.6206564986
 21
-1.866974052
  0
LINE
  5
635
100
AcDbEntity
  8
ASSI
100
AcDbLine
 62
7
  6
CONTINUOUS
 10
23.6206564986
 20
-1.2414111429
 11
23.6206564986
 21
-1.866974052
  0
LINE
  5
636
100
AcDbEntity
  8
DRAFT
100
AcDbLine
 62
7
  6
CONTINUOUS
 10
23.6206564986
 20
-4.3320639222
 11
23.6206564986
 21
-4.9576268313
  0
LINE
  5
637
100
AcDbEntity
  8
ASSI
100
AcDbLine
 62
7
  6
CONTINUOUS
 10
23.6206564986
 20
-4.3320639222
 11
23.6206564986
 21
-4.9576268313
  0
LINE
  5
638
100
AcDbEntity
  8
RACCORDO
100
AcDbLine
 62
7
  6
CONTINUOUS
 10
23.6241475116
 20
-8.104752618
 11
23.6241475116
 21
-9.4925406917
  0
LINE
  5
639
100
AcDbEntity
  8
ASSI
100
AcDbLine
 62
7
  6
CONTINUOUS
 10
23.6241475116
 20
-8.104752618
 11
23.6241475116
 21
-9.4925406917
  0
LINE
  5
63A
100
AcDbEntity
  8
RACCORDO
100
AcDbLine
 62
7
  6
CONTINUOUS
 10
23.6311295376
 20
8.0429249971
 11
23.6311295376
 21
7.8528462077
  0
LINE
  5
63B
100
AcDbEntity
  8
ASSI
100
AcDbLine
 62
7
  6
CONTINUOUS
 10
23.6311295376
 20
8.0429249971
 11
23.6311295376
 21
7.8528462077
  0
LINE
  5
63C
100
AcDbEntity
  8
DRAFT
100
AcDbLine
 62
7
  6
CONTINUOUS
 10
23.6381115636
 20
7.7411337922
 11
23.6381115636
 21
-1.8495189871
  0
LINE
  5
63D
100
AcDbEntity
  8
ASSI
100
AcDbLine
 62
7
  6
CONTINUOUS
 10
23.6381115636
 20
7.7411337922
 11
23.6381115636
 21
-1.8495189871
  0
LINE
  5
63E
100
AcDbEntity
  8
RACCORDO
100
AcDbLine
 62
7
  6
CONTINUOUS
 10
24.7311295376
 20
8.7435370631
 11
24.7311295376
 21
8.0429249971
  0
LINE
  5
63F
100
AcDbEntity
  8
ASSI
100
AcDbLine
 62
7
  6
CONTINUOUS
 10
24.7311295376
 20
8.7435370631
 11
24.7311295376
 21
8.0429249971
  0
LINE
  5
640
100
AcDbEntity
  8
DRAFT
100
AcDbLine
 62
7
  6
CONTINUOUS
 10
24.7381115636
 20
7.7411337922
 11
24.7381115636
 21
-1.8880274237
  0
LINE
  5
641
100
AcDbEntity
  8
ASSI
100
AcDbLine
 62
7
  6
CONTINUOUS
 10
24.7381115636
 20
7.7411337922
 11
24.7381115636
 21
-1.8880274237
  0
LINE
  5
642
100
AcDbEntity
  8
DRAFT
100
AcDbLine
 62
7
  6
CONTINUOUS
 10
23.6336039785
 20
-4.345011402
 11
23.6241493441
 21
-9.4975203649
  0
LINE
  5
643
100
AcDbEntity
  8
ASSI
100
AcDbLine
 62
7
  6
CONTINUOUS
 10
23.6336039785
 20
-4.345011402
 11
23.6241493441
 21
-9.4975203649
  0
LINE
  5
644
100
AcDbEntity
  8
DRAFT
100
AcDbLine
 62
7
  6
CONTINUOUS
 10
23.9381115636
 20
-1.8495189871
 11
23.9336039777
 21
-4.3450114012
  0
LINE
  5
645
100
AcDbEntity
  8
ASSI
100
AcDbLine
 62
7
  6
CONTINUOUS
 10
23.9381115636
 20
-1.8495189871
 11
23.9336039777
 21
-4.3450114012
  0
LINE
  5
646
100
AcDbEntity
  8
RACCORDO
100
AcDbLine
 62
7
  6
CONTINUOUS
 10
24.7246184858
 20
-9.2428015186
 11
24.7381115636
 21
-1.8880274237
  0
LINE
  5
647
100
AcDbEntity
  8
ASSI
100
AcDbLine
 62
7
  6
CONTINUOUS
 10
24.7246184858
 20
-9.2428015186
 11
24.7381115636
 21
-1.8880274237
  0
ARC
  5
648
100
AcDbEntity
  8
RACCORDO
100
AcDbCircle
 62
253
  6
CONTINUOUS
 10
-18.0568065776
 20
-6.794437128
 40
0.3000637852
100
AcDbArc
 50
0.0208058113
 51
89.9791941349
  0
ARC
  5
649
100
AcDbEntity
  8
RACCORDO
100
AcDbCircle
 62
253
  6
CONTINUOUS
 10
-18.2669702953
 20
-6.794437128
 40
0.3000637852
100
AcDbArc
 50
90.0208058651
 51
179.9791941887
  0
ARC
  5
64A
100
AcDbEntity
  8
RACCORDO
100
AcDbCircle
 62
253
  6
CONTINUOUS
 10
-6.8568065776
 20
-6.794437128
 40
0.3000637852
100
AcDbArc
 50
0.0208058113
 51
89.9791941349
  0
ARC
  5
64B
100
AcDbEntity
  8
RACCORDO
100
AcDbCircle
 62
253
  6
CONTINUOUS
 10
-7.0669702953
 20
-6.794437128
 40
0.3000637852
100
AcDbArc
 50
90.0208058651
 51
179.9791941887
  0
ARC
  5
64C
100
AcDbEntity
  8
ASSI
100
AcDbCircle
 62
253
  6
CONTINUOUS
 10
-18.0568065776
 20
-6.794437128
 40
0.3000637852
100
AcDbArc
 50
0.0208058113
 51
89.9791941349
  0
ARC
  5
64D
100
AcDbEntity
  8
ASSI
100
AcDbCircle
 62
253
  6
CONTINUOUS
 10
-6.8568065776
 20
-6.794437128
 40
0.3000637852
100
AcDbArc
 50
0.0208058113
 51
89.9791941349
  0
ARC
  5
64E
100
AcDbEntity
  8
ASSI
100
AcDbCircle
 62
253
  6
CONTINUOUS
 10
-7.0669702953
 20
-6.794437128
 40
0.3000637852
100
AcDbArc
 50
90.0208058651
 51
179.9791941887
  0
ARC
  5
64F
100
AcDbEntity
  8
ASSI
100
AcDbCircle
 62
253
  6
CONTINUOUS
 10
-18.2669702953
 20
-6.794437128
 40
0.3000637852
100
AcDbArc
 50
90.0208058651
 51
179.9791941887
  0
ARC
  5
650
100
AcDbEntity
  8
RACCORDO
100
AcDbCircle
 62
7
  6
CONTINUOUS
 10
-18.0268022653
 20
-6.7642205768
 40
0.2997999465
100
AcDbArc
 50
359.9317190043
 51
89.99032184
  0
ARC
  5
651
100
AcDbEntity
  8
RACCORDO
100
AcDbCircle
 62
7
  6
CONTINUOUS
 10
-18.2969746083
 20
-6.7642205769
 40
0.2997999466
100
AcDbArc
 50
90.0096780216
 51
180.0682809747
  0
ARC
  5
652
100
AcDbEntity
  8
RACCORDO
100
AcDbCircle
 62
7
  6
CONTINUOUS
 10
-6.8268022653
 20
-6.7642205768
 40
0.2997999466
100
AcDbArc
 50
359.9317190079
 51
89.9903218364
  0
ARC
  5
653
100
AcDbEntity
  8
RACCORDO
100
AcDbCircle
 62
7
  6
CONTINUOUS
 10
-7.0969746083
 20
-6.7642205769
 40
0.2997999466
100
AcDbArc
 50
90.009678022
 51
180.0682809743
  0
ARC
  5
654
100
AcDbEntity
  8
ASSI
100
AcDbCircle
 62
7
  6
CONTINUOUS
 10
-18.0268022653
 20
-6.7642205768
 40
0.2997999465
100
AcDbArc
 50
359.9317190043
 51
89.99032184
  0
ARC
  5
655
100
AcDbEntity
  8
ASSI
100
AcDbCircle
 62
7
  6
CONTINUOUS
 10
-6.8268022653
 20
-6.7642205768
 40
0.2997999466
100
AcDbArc
 50
359.9317190079
 51
89.9903218364
  0
ARC
  5
656
100
AcDbEntity
  8
ASSI
100
AcDbCircle
 62
7
  6
CONTINUOUS
 10
-7.0969746083
 20
-6.7642205769
 40
0.2997999466
100
AcDbArc
 50
90.009678022
 51
180.0682809743
  0
ARC
  5
657
100
AcDbEntity
  8
ASSI
100
AcDbCircle
 62
7
  6
CONTINUOUS
 10
-18.2969746083
 20
-6.7642205769
 40
0.2997999466
100
AcDbArc
 50
90.0096780216
 51
180.0682809747
  0
ARC
  5
658
100
AcDbEntity
  8
RACCORDO
100
AcDbCircle
 62
253
  6
CONTINUOUS
 10
-31.2077722628
 20
4.824698143
 40
50.7081457223
100
AcDbArc
 50
359.96460672
 51
0.364019784
  0
ARC
  5
659
100
AcDbEntity
  8
ASSI
100
AcDbCircle
 62
253
  6
CONTINUOUS
 10
-31.2077722628
 20
4.824698143
 40
50.7081457223
100
AcDbArc
 50
359.96460672
 51
0.364019784
  0
ARC
  5
65A
100
AcDbEntity
  8
RACCORDO
100
AcDbCircle
 62
253
  6
CONTINUOUS
 10
-70.5077722621
 20
4.8246981452
 40
50.7081457215
100
AcDbArc
 50
359.9646067175
 51
0.3640197816
  0
ARC
  5
65B
100
AcDbEntity
  8
ASSI
100
AcDbCircle
 62
253
  6
CONTINUOUS
 10
-70.5077722621
 20
4.8246981452
 40
50.7081457215
100
AcDbArc
 50
359.9646067175
 51
0.3640197816
  0
CIRCLE
  5
65C
100
AcDbEntity
  8
0
100
AcDbCircle
 62
7
  6
CONTINUOUS
 10
-0.0618884364
 20
4.6004810129
 40
1.1
  0
CIRCLE
  5
65D
100
AcDbEntity
  8
0
100
AcDbCircle
 62
7
  6
CONTINUOUS
 10
-0.0618884364
 20
4.6004810129
 40
0.9
  0
ARC
  5
65E
100
AcDbEntity
  8
RACCORDO
100
AcDbCircle
 62
253
  6
CONTINUOUS
 10
-19.6208323543
 20
3.2094249308
 40
0.3000646364
100
AcDbArc
 50
270.0209582141
 51
359.9790417859
  0
ARC
  5
65F
100
AcDbEntity
  8
ASSI
100
AcDbCircle
 62
253
  6
CONTINUOUS
 10
-19.6208323543
 20
3.2094249308
 40
0.3000646364
100
AcDbArc
 50
270.0209582141
 51
359.9790417859
  0
ARC
  5
660
100
AcDbEntity
  8
RACCORDO
100
AcDbCircle
 62
253
  6
CONTINUOUS
 10
-19.8029445248
 20
3.2094249247
 40
0.3000646302
100
AcDbArc
 50
180.0209570569
 51
269.9790429984
  0
ARC
  5
661
100
AcDbEntity
  8
ASSI
100
AcDbCircle
 62
253
  6
CONTINUOUS
 10
-19.8029445248
 20
3.2094249247
 40
0.3000646302
100
AcDbArc
 50
180.0209570569
 51
269.9790429984
  0
ARC
  5
662
100
AcDbEntity
  8
RACCORDO
100
AcDbCircle
 62
7
  6
CONTINUOUS
 10
-19.5899279526
 20
3.1786036128
 40
0.2999882567
100
AcDbArc
 50
269.9912778681
 51
359.9782891338
  0
ARC
  5
663
100
AcDbEntity
  8
RACCORDO
100
AcDbCircle
 62
7
  6
CONTINUOUS
 10
-19.8338489149
 20
3.1786036074
 40
0.2999882567
100
AcDbArc
 50
180.021709844
 51
270.0087211096
  0
ARC
  5
664
100
AcDbEntity
  8
ASSI
100
AcDbCircle
 62
7
  6
CONTINUOUS
 10
-19.5899279526
 20
3.1786036128
 40
0.2999882567
100
AcDbArc
 50
269.9912778681
 51
359.9782891338
  0
ARC
  5
665
100
AcDbEntity
  8
ASSI
100
AcDbCircle
 62
7
  6
CONTINUOUS
 10
-19.8338489149
 20
3.1786036074
 40
0.2999882567
100
AcDbArc
 50
180.021709844
 51
270.0087211096
  0
ARC
  5
666
100
AcDbEntity
  8
RACCORDO
100
AcDbCircle
 62
253
  6
CONTINUOUS
 10
6.7330297047
 20
-6.794437128
 40
0.3000637852
100
AcDbArc
 50
90.0208058651
 51
179.9791941887
  0
ARC
  5
667
100
AcDbEntity
  8
RACCORDO
100
AcDbCircle
 62
253
  6
CONTINUOUS
 10
6.9431934224
 20
-6.794437128
 40
0.3000637852
100
AcDbArc
 50
0.0208058113
 51
89.9791941349
  0
ARC
  5
668
100
AcDbEntity
  8
RACCORDO
100
AcDbCircle
 62
253
  6
CONTINUOUS
 10
18.1431934224
 20
-6.794437128
 40
0.3000637852
100
AcDbArc
 50
0.0208058113
 51
89.9791941349
  0
ARC
  5
669
100
AcDbEntity
  8
RACCORDO
100
AcDbCircle
 62
253
  6
CONTINUOUS
 10
17.9330297047
 20
-6.794437128
 40
0.3000637852
100
AcDbArc
 50
90.0208058651
 51
179.9791941887
  0
ARC
  5
66A
100
AcDbEntity
  8
ASSI
100
AcDbCircle
 62
253
  6
CONTINUOUS
 10
6.7330297047
 20
-6.794437128
 40
0.3000637852
100
AcDbArc
 50
90.0208058651
 51
179.9791941887
  0
ARC
  5
66B
100
AcDbEntity
  8
ASSI
100
AcDbCircle
 62
253
  6
CONTINUOUS
 10
6.9431934224
 20
-6.794437128
 40
0.3000637852
100
AcDbArc
 50
0.0208058113
 51
89.9791941349
  0
ARC
  5
66C
100
AcDbEntity
  8
ASSI
100
AcDbCircle
 62
253
  6
CONTINUOUS
 10
18.1431934224
 20
-6.794437128
 40
0.3000637852
100
AcDbArc
 50
0.0208058113
 51
89.9791941349
  0
ARC
  5
66D
100
AcDbEntity
  8
ASSI
100
AcDbCircle
 62
253
  6
CONTINUOUS
 10
17.9330297047
 20
-6.794437128
 40
0.3000637852
100
AcDbArc
 50
90.0208058651
 51
179.9791941887
  0
ARC
  5
66E
100
AcDbEntity
  8
RACCORDO
100
AcDbCircle
 62
7
  6
CONTINUOUS
 10
6.7030253917
 20
-6.764220577
 40
0.2997999466
100
AcDbArc
 50
90.0096780292
 51
180.068280967
  0
ARC
  5
66F
100
AcDbEntity
  8
RACCORDO
100
AcDbCircle
 62
7
  6
CONTINUOUS
 10
6.9731977347
 20
-6.7642205768
 40
0.2997999466
100
AcDbArc
 50
359.9317190043
 51
89.99032184
  0
ARC
  5
670
100
AcDbEntity
  8
RACCORDO
100
AcDbCircle
 62
7
  6
CONTINUOUS
 10
18.1731977347
 20
-6.7642205768
 40
0.2997999466
100
AcDbArc
 50
359.9317190079
 51
89.9903218364
  0
ARC
  5
671
100
AcDbEntity
  8
RACCORDO
100
AcDbCircle
 62
7
  6
CONTINUOUS
 10
17.9030253917
 20
-6.7642205769
 40
0.2997999466
100
AcDbArc
 50
90.0096780219
 51
180.0682809744
  0
ARC
  5
672
100
AcDbEntity
  8
ASSI
100
AcDbCircle
 62
7
  6
CONTINUOUS
 10
6.7030253917
 20
-6.764220577
 40
0.2997999466
100
AcDbArc
 50
90.0096780292
 51
180.068280967
  0
ARC
  5
673
100
AcDbEntity
  8
ASSI
100
AcDbCircle
 62
7
  6
CONTINUOUS
 10
6.9731977347
 20
-6.7642205768
 40
0.2997999466
100
AcDbArc
 50
359.9317190043
 51
89.99032184
  0
ARC
  5
674
100
AcDbEntity
  8
ASSI
100
AcDbCircle
 62
7
  6
CONTINUOUS
 10
18.1731977347
 20
-6.7642205768
 40
0.2997999466
100
AcDbArc
 50
359.9317190079
 51
89.9903218364
  0
ARC
  5
675
100
AcDbEntity
  8
ASSI
100
AcDbCircle
 62
7
  6
CONTINUOUS
 10
17.9030253917
 20
-6.7642205769
 40
0.2997999466
100
AcDbArc
 50
90.0096780219
 51
180.0682809744
  0
ARC
  5
676
100
AcDbEntity
  8
0
100
AcDbCircle
 62
7
  6
CONTINUOUS
 10
13.2731027686
 20
-3.1510320562
 40
0.2330561558
100
AcDbArc
 50
48.1418264782
 51
53.9796874655
  0
ARC
  5
677
100
AcDbEntity
  8
ASSI
100
AcDbCircle
 62
7
  6
CONTINUOUS
 10
13.2731027686
 20
-3.1510320562
 40
0.2330561558
100
AcDbArc
 50
48.1418264782
 51
53.9796874655
  0
ARC
  5
678
100
AcDbEntity
  8
RACCORDO
100
AcDbCircle
 62
253
  6
CONTINUOUS
 10
76.4953178825
 20
4.8073156813
 40
56.8194743415
100
AcDbArc
 50
179.6576049419
 51
180.0140583183
  0
ARC
  5
679
100
AcDbEntity
  8
RACCORDO
100
AcDbCircle
 62
253
  6
CONTINUOUS
 10
37.1953178826
 20
4.807315683
 40
56.8194743415
100
AcDbArc
 50
179.6576049437
 51
180.0140583201
  0
ARC
  5
67A
100
AcDbEntity
  8
ASSI
100
AcDbCircle
 62
253
  6
CONTINUOUS
 10
76.4953178825
 20
4.8073156813
 40
56.8194743415
100
AcDbArc
 50
179.6576049419
 51
180.0140583183
  0
ARC
  5
67B
100
AcDbEntity
  8
ASSI
100
AcDbCircle
 62
253
  6
CONTINUOUS
 10
37.1953178826
 20
4.807315683
 40
56.8194743415
100
AcDbArc
 50
179.6576049437
 51
180.0140583201
  0
ARC
  5
67C
100
AcDbEntity
  8
RACCORDO
100
AcDbCircle
 62
253
  6
CONTINUOUS
 10
19.6791676457
 20
3.2094249308
 40
0.3000646364
100
AcDbArc
 50
270.0209582141
 51
359.9790417859
  0
ARC
  5
67D
100
AcDbEntity
  8
ASSI
100
AcDbCircle
 62
253
  6
CONTINUOUS
 10
19.6791676457
 20
3.2094249308
 40
0.3000646364
100
AcDbArc
 50
270.0209582141
 51
359.9790417859
  0
ARC
  5
67E
100
AcDbEntity
  8
RACCORDO
100
AcDbCircle
 62
253
  6
CONTINUOUS
 10
19.4970554752
 20
3.2094249247
 40
0.3000646302
100
AcDbArc
 50
180.0209570569
 51
269.9790429984
  0
ARC
  5
67F
100
AcDbEntity
  8
ASSI
100
AcDbCircle
 62
253
  6
CONTINUOUS
 10
19.4970554752
 20
3.2094249247
 40
0.3000646302
100
AcDbArc
 50
180.0209570569
 51
269.9790429984
  0
ARC
  5
680
100
AcDbEntity
  8
RACCORDO
100
AcDbCircle
 62
7
  6
CONTINUOUS
 10
19.4661510851
 20
3.1786036074
 40
0.2999882567
100
AcDbArc
 50
180.0217098447
 51
270.0087211089
  0
ARC
  5
681
100
AcDbEntity
  8
RACCORDO
100
AcDbCircle
 62
7
  6
CONTINUOUS
 10
19.7100720474
 20
3.1786036128
 40
0.2999882567
100
AcDbArc
 50
269.9912778673
 51
359.9782891346
  0
ARC
  5
682
100
AcDbEntity
  8
ASSI
100
AcDbCircle
 62
7
  6
CONTINUOUS
 10
19.4661510851
 20
3.1786036074
 40
0.2999882567
100
AcDbArc
 50
180.0217098447
 51
270.0087211089
  0
ARC
  5
683
100
AcDbEntity
  8
ASSI
100
AcDbCircle
 62
7
  6
CONTINUOUS
 10
19.7100720474
 20
3.1786036128
 40
0.2999882567
100
AcDbArc
 50
269.9912778673
 51
359.9782891346
  0
SPLINE
  5
684
100
AcDbEntity
  8
0
100
AcDbSpline
 62
7
  6
CONTINUOUS
 70
0
 71
3
 72
9
 73
5
 74
3
 42
0.0000001
 43
0.0000001
 44
0.0000000001
 12
-0.0046820729
 22
0.3133621937
 32
0.0
 13
-0.3113313703
 23
0.0361338596
 33
0.0
 40
0.0
 40
0.0
 40
0.0
 40
0.0
 40
0.4988583766
 40
1.0
 40
1.0
 40
1.0
 40
1.0
 10
13.2743661815
 20
-2.5241727817
 30
0.0
 10
13.2735876177
 20
-2.4720649966
 30
0.0
 10
13.2311630716
 20
-2.3633910308
 30
0.0
 10
13.1259268209
 20
-2.3175738848
 30
0.0
 10
13.0739197848
 20
-2.3115378244
 30
0.0
 11
13.2743661815
 21
-2.5241727817
 31
0.0
 11
13.2156286366
 21
-2.3792816883
 31
0.0
 11
13.0739197848
 21
-2.3115378244
 31
0.0
  0
SPLINE
  5
685
100
AcDbEntity
  8
0
100
AcDbSpline
 62
7
  6
CONTINUOUS
 70
0
 71
3
 72
9
 73
5
 74
3
 42
0.0000001
 43
0.0000001
 44
0.0000000001
 12
-0.2768734096
 22
0.0321345862
 32
0.0
 13
-0.2747605685
 23
-0.046883616
 33
0.0
 40
0.0
 40
0.0
 40
0.0
 40
0.0
 40
0.7295958319
 40
1.0
 40
1.0
 40
1.0
 40
1.0
 10
13.0739197848
 20
-2.3115378246
 30
0.0
 10
13.0065845562
 20
-2.3037227378
 30
0.0
 10
12.9125918678
 20
-2.3034214899
 30
0.0
 10
12.8207184628
 20
-2.3173194944
 30
0.0
 10
12.7959529952
 20
-2.3215453361
 30
0.0
 11
13.0739197848
 21
-2.3115378246
 31
0.0
 11
12.8705593247
 21
-2.3108415645
 31
0.0
 11
12.7959529952
 21
-2.3215453361
 31
0.0
  0
SPLINE
  5
686
100
AcDbEntity
  8
0
100
AcDbSpline
 62
7
  6
CONTINUOUS
 70
0
 71
3
 72
9
 73
5
 74
3
 42
0.0000001
 43
0.0000001
 44
0.0000000001
 12
0.4232572624
 22
0.0094537593
 32
0.0
 13
-0.0063259437
 23
0.4233860928
 33
0.0
 40
0.0
 40
0.0
 40
0.0
 40
0.0
 40
0.4795375616
 40
1.0
 40
1.0
 40
1.0
 40
1.0
 10
12.998733708
 20
-2.7881908186
 30
0.0
 10
13.0663896265
 20
-2.7866796744
 30
0.0
 10
13.2235316971
 20
-2.7580579039
 30
0.0
 10
13.2754636388
 20
-2.597624968
 30
0.0
 10
13.2743661668
 20
-2.5241727819
 30
0.0
 11
12.998733708
 21
-2.7881908186
 31
0.0
 11
13.1929069481
 21
-2.728918442
 31
0.0
 11
13.2743661668
 21
-2.5241727819
 31
0.0
  0
SPLINE
  5
687
100
AcDbEntity
  8
0
100
AcDbSpline
 62
7
  6
CONTINUOUS
 70
0
 71
3
 72
17
 73
13
 74
11
 42
0.0000001
 43
0.0000001
 44
0.0000000001
 12
0.9958819045
 22
-0.3598342768
 32
0.0
 13
-1.050193894
 23
-0.1355088895
 33
0.0
 40
0.0
 40
0.0
 40
0.0
 40
0.0
 40
0.0798430187
 40
0.1895551228
 40
0.3223119562
 40
0.398530744
 40
0.483321362
 40
0.5876727129
 40
0.6789531193
 40
0.8312245932
 40
0.9440148167
 40
1.0
 40
1.0
 40
1.0
 40
1.0
 10
13.3301057102
 20
-2.0697593513
 30
0.0
 10
13.3566104493
 20
-2.0793361029
 30
0.0
 10
13.4158570389
 20
-2.1120238128
 30
0.0
 10
13.5020581068
 20
-2.1878166524
 30
0.0
 10
13.563134371
 20
-2.2847732616
 30
0.0
 10
13.5956527999
 20
-2.3837063763
 30
0.0
 10
13.6090698938
 20
-2.47681306
 30
0.0
 10
13.6065240095
 20
-2.5764998827
 30
0.0
 10
13.5794251416
 20
-2.696607509
 30
0.0
 10
13.5185940261
 20
-2.8117384453
 30
0.0
 10
13.4359788602
 20
-2.886530617
 30
0.0
 10
13.3861621789
 20
-2.9257652583
 30
0.0
 10
13.3665637463
 20
-2.9282940883
 30
0.0
 11
13.3301057102
 21
-2.0697593513
 31
0.0
 11
13.4050041906
 21
-2.1089820282
 31
0.0
 11
13.4921321463
 21
-2.1858270655
 31
0.0
 11
13.5671423993
 21
-2.3047183802
 31
0.0
 11
13.5925343044
 21
-2.3813280943
 31
0.0
 11
13.6058138845
 21
-2.4701254209
 31
0.0
 11
13.6025750779
 21
-2.5805756224
 31
0.0
 11
13.5810004782
 21
-2.6747938981
 31
0.0
 11
13.5042769366
 21
-2.8166104565
 31
0.0
 11
13.4185093344
 21
-2.8997266639
 31
0.0
 11
13.3665637463
 21
-2.9282940883
 31
0.0
  0
SPLINE
  5
688
100
AcDbEntity
  8
0
100
AcDbSpline
 62
7
  6
CONTINUOUS
 70
0
 71
3
 72
8
 73
4
 74
2
 42
0.0000001
 43
0.0000001
 44
0.0000000001
 12
0.0468153254
 22
-0.018667611
 32
0.0
 13
0.0404489985
 23
-0.0293488028
 33
0.0
 40
0.0
 40
0.0
 40
0.0
 40
0.0
 40
1.0
 40
1.0
 40
1.0
 40
1.0
 10
13.3665637463
 20
-2.9383387955
 30
0.0
 10
13.3821688548
 20
-2.9445613325
 30
0.0
 10
13.3966735754
 20
-2.9527513078
 30
0.0
 10
13.4101565749
 20
-2.962534242
 30
0.0
 11
13.3665637463
 21
-2.9383387955
 31
0.0
 11
13.4101565749
 21
-2.962534242
 31
0.0
  0
SPLINE
  5
689
100
AcDbEntity
  8
0
100
AcDbSpline
 62
7
  6
CONTINUOUS
 70
0
 71
3
 72
9
 73
5
 74
3
 42
0.0000001
 43
0.0000001
 44
0.0000000001
 12
0.2399260035
 22
-0.2145228187
 32
0.0
 13
0.0845359266
 23
-0.3102902278
 33
0.0
 40
0.0
 40
0.0
 40
0.0
 40
0.0
 40
0.7012282199
 40
1.0
 40
1.0
 40
1.0
 40
1.0
 10
13.4286185831
 20
-2.9774520942
 30
0.0
 10
13.4846995446
 20
-3.0275952456
 30
0.0
 10
13.5365669628
 20
-3.1395235523
 30
0.0
 10
13.5626817448
 20
-3.2408733576
 30
0.0
 10
13.5711007279
 20
-3.2717753455
 30
0.0
 11
13.4286185831
 21
-2.9774520942
 31
0.0
 11
13.5447782268
 21
-3.1793681487
 31
0.0
 11
13.5711007279
 21
-3.2717753455
 31
0.0
  0
SPLINE
  5
68A
100
AcDbEntity
  8
0
100
AcDbSpline
 62
7
  6
CONTINUOUS
 70
0
 71
3
 72
9
 73
5
 74
3
 42
0.0000001
 43
0.0000001
 44
0.0000000001
 12
0.1250599769
 22
-0.4590343077
 32
0.0
 13
0.1246990825
 23
-0.4591324849
 33
0.0
 40
0.0
 40
0.0
 40
0.0
 40
0.0
 40
0.8019701246
 40
1.0
 40
1.0
 40
1.0
 40
1.0
 10
13.5711007282
 20
-3.2717753455
 30
0.0
 10
13.6045321832
 20
-3.3944859458
 30
0.0
 10
13.6438750126
 20
-3.548124193
 30
0.0
 10
13.6841607408
 20
-3.7015123575
 30
0.0
 10
13.692392122
 20
-3.7318196738
 30
0.0
 11
13.5711007282
 21
-3.2717753455
 31
0.0
 11
13.6682421619
 21
-3.6407516721
 31
0.0
 11
13.692392122
 21
-3.7318196738
 31
0.0
  0
SPLINE
  5
68B
100
AcDbEntity
  8
0
100
AcDbSpline
 62
7
  6
CONTINUOUS
 70
0
 71
3
 72
9
 73
5
 74
3
 42
0.0000001
 43
0.0000001
 44
0.0000000001
 12
-0.1487666252
 22
0.5174419044
 32
0.0
 13
-0.1893777802
 23
0.5039985871
 33
0.0
 40
0.0
 40
0.0
 40
0.0
 40
0.0
 40
0.4413080349
 40
1.0
 40
1.0
 40
1.0
 40
1.0
 10
13.3510887787
 20
-3.7318196738
 30
0.0
 10
13.3292048096
 20
-3.6557025838
 30
0.0
 10
13.2775356159
 20
-3.4839290115
 30
0.0
 10
13.2311688764
 20
-3.3101450119
 30
0.0
 10
13.1959009283
 20
-3.2162850249
 30
0.0
 11
13.3510887787
 21
-3.7318196738
 31
0.0
 11
13.2846334167
 21
-3.5037009322
 31
0.0
 11
13.1959009283
 21
-3.2162850249
 31
0.0
  0
SPLINE
  5
68C
100
AcDbEntity
  8
0
100
AcDbSpline
 62
7
  6
CONTINUOUS
 70
0
 71
3
 72
9
 73
5
 74
3
 42
0.0000001
 43
0.0000001
 44
0.0000000001
 12
-0.0895737501
 22
0.2383859055
 32
0.0
 13
-0.2546300208
 23
0.0
 33
0.0
 40
0.0
 40
0.0
 40
0.0
 40
0.0
 40
0.8563651185
 40
1.0
 40
1.0
 40
1.0
 40
1.0
 10
13.1959009424
 20
-3.2162850196
 30
0.0
 10
13.170331664
 20
-3.1482365616
 30
0.0
 10
13.0952826986
 20
-3.0726047986
 30
0.0
 10
13.0101601335
 20
-3.0665872712
 30
0.0
 10
12.9979688826
 20
-3.0665872712
 30
0.0
 11
13.1959009424
 21
-3.2162850196
 31
0.0
 11
13.0344054444
 21
-3.0697521347
 31
0.0
 11
12.9979688826
 21
-3.0665872712
 31
0.0
  0
SPLINE
  5
68D
100
AcDbEntity
  8
0
100
AcDbSpline
 62
7
  6
CONTINUOUS
 70
0
 71
3
 72
9
 73
5
 74
3
 42
0.0000001
 43
0.0000001
 44
0.0000000001
 12
0.870352019
 22
0.1280436023
 32
0.0
 13
0.8273203445
 23
-0.2990739652
 33
0.0
 40
0.0
 40
0.0
 40
0.0
 40
0.0
 40
0.8916594654
 40
1.0
 40
1.0
 40
1.0
 40
1.0
 10
12.4543182275
 20
-2.0518169049
 30
0.0
 10
12.7130040995
 20
-2.0137598082
 30
0.0
 10
13.0173285536
 20
-1.9782661704
 30
0.0
 10
13.3002282518
 20
-2.0589587786
 30
0.0
 10
13.3301056946
 20
-2.0697593897
 30
0.0
 11
12.4543182275
 21
-2.0518169049
 31
0.0
 11
13.238677766
 21
-2.042837974
 31
0.0
 11
13.3301056946
 21
-2.0697593897
 31
0.0
  0
SPLINE
  5
68E
100
AcDbEntity
  8
RACCORDO
100
AcDbSpline
 62
7
  6
CONTINUOUS
 70
0
 71
3
 72
10
 73
6
 74
4
 42
0.0000001
 43
0.0000001
 44
0.0000000001
 12
-0.1883406519
 22
0.1821745431
 32
0.0
 13
-0.1853866352
 23
0.1851798068
 33
0.0
 40
0.0
 40
0.0
 40
0.0
 40
0.0
 40
0.2866167254
 40
0.6201205121
 40
1.0
 40
1.0
 40
1.0
 40
1.0
 10
23.4537067485
 20
-7.7230642264
 30
0.0
 10
23.4357128882
 20
-7.7056594694
 30
0.0
 10
23.3969218816
 20
-7.6678576534
 30
0.0
 10
23.3346924029
 20
-7.6065681373
 30
0.0
 10
23.2905077876
 20
-7.5626340465
 30
0.0
 10
23.2670329276
 20
-7.5391853764
 30
0.0
 11
23.4537067485
 21
-7.7230642264
 31
0.0
 11
23.3998978417
 21
-7.6706720254
 31
0.0
 11
23.3376239842
 21
-7.6093643287
 31
0.0
 11
23.2670329276
 21
-7.5391853764
 31
0.0
  0
SPLINE
  5
68F
100
AcDbEntity
  8
RACCORDO
100
AcDbSpline
 62
7
  6
CONTINUOUS
 70
0
 71
3
 72
10
 73
6
 74
4
 42
0.0000001
 43
0.0000001
 44
0.0000000001
 12
0.1932247375
 22
0.1319117349
 32
0.0
 13
0.0047953966
 23
0.23390919
 33
0.0
 40
0.0
 40
0.0
 40
0.0
 40
0.0
 40
0.3373558539
 40
0.6687258877
 40
1.0
 40
1.0
 40
1.0
 40
1.0
 10
23.4537067485
 20
-7.7230642264
 30
0.0
 10
23.4754352472
 20
-7.7082304944
 30
0.0
 10
23.5148175293
 20
-7.6728241067
 30
0.0
 10
23.5557972697
 20
-7.6050693062
 30
0.0
 10
23.5664577059
 20
-7.5531622459
 30
0.0
 10
23.5669872361
 20
-7.5273328928
 30
0.0
 11
23.4537067485
 21
-7.7230642264
 31
0.0
 11
23.5121216779
 21
-7.6699869112
 31
0.0
 11
23.5516763694
 21
-7.6033098651
 31
0.0
 11
23.5669872361
 21
-7.5273328928
 31
0.0
  0
SPLINE
  5
690
100
AcDbEntity
  8
RACCORDO
100
AcDbSpline
 62
7
  6
CONTINUOUS
 70
0
 71
3
 72
10
 73
6
 74
4
 42
0.0000001
 43
0.0000001
 44
0.0000000001
 12
0.2111537282
 22
0.0378702165
 32
0.0
 13
0.151821365
 23
0.1515596362
 33
0.0
 40
0.0
 40
0.0
 40
0.0
 40
0.0
 40
0.3429101549
 40
0.6755847515
 40
1.0
 40
1.0
 40
1.0
 40
1.0
 10
23.2670329275
 20
-7.8227752181
 30
0.0
 10
23.2911685134
 20
-7.8184465241
 30
0.0
 10
23.3379000635
 20
-7.804401114
 30
0.0
 10
23.4008662075
 20
-7.7696332556
 30
0.0
 10
23.4372890265
 20
-7.7394536455
 30
0.0
 10
23.4537067485
 20
-7.7230642264
 30
0.0
 11
23.2670329275
 21
-7.8227752181
 31
0.0
 11
23.3375279309
 21
-7.801755433
 31
0.0
 11
23.4001170528
 21
-7.7674662125
 31
0.0
 11
23.4537067485
 21
-7.7230642264
 31
0.0
  0
SPLINE
  5
691
100
AcDbEntity
  8
RACCORDO
100
AcDbSpline
 62
7
  6
CONTINUOUS
 70
0
 71
3
 72
13
 73
9
 74
7
 42
0.0000001
 43
0.0000001
 44
0.0000000001
 12
-0.4360540282
 22
-0.0003592369
 32
0.0
 13
-0.0089035972
 23
0.4359632674
 33
0.0
 40
0.0
 40
0.0
 40
0.0
 40
0.0
 40
0.1762313956
 40
0.3431225387
 40
0.5099732983
 40
0.6748732839
 40
0.8372164229
 40
1.0
 40
1.0
 40
1.0
 40
1.0
 10
-23.3866475452
 20
-7.7807290899
 30
0.0
 10
-23.4122630152
 20
-7.7807501929
 30
0.0
 10
-23.4623092486
 20
-7.7751926821
 30
0.0
 10
-23.5330708553
 20
-7.7514179974
 30
0.0
 10
-23.5955871626
 20
-7.7134487525
 30
0.0
 10
-23.6466040351
 20
-7.6617319978
 30
0.0
 10
-23.6813149981
 20
-7.5984075985
 30
0.0
 10
-23.6902809892
 20
-7.5509887796
 30
0.0
 10
-23.690764109
 20
-7.5273328928
 30
0.0
 11
-23.3866475452
 21
-7.7807290899
 31
0.0
 11
-23.4630289432
 21
-7.7722877181
 31
0.0
 11
-23.5319596252
 21
-7.7489520153
 31
0.0
 11
-23.593975537
 21
-7.7109065435
 31
0.0
 11
-23.6441742441
 21
-7.6594238676
 31
0.0
 11
-23.6777772426
 21
-7.5971172086
 31
0.0
 11
-23.690764109
 21
-7.5273328928
 31
0.0
  0
SPLINE
  5
692
100
AcDbEntity
  8
RACCORDO
100
AcDbSpline
 62
253
  6
CONTINUOUS
 70
0
 71
3
 72
11
 73
7
 74
5
 42
0.0000001
 43
0.0000001
 44
0.0000000001
 12
-0.0069988224
 22
0.4010844298
 32
0.0
 13
-0.4011302123
 23
0.0035008769
 33
0.0
 40
0.0
 40
0.0
 40
0.0
 40
0.0
 40
0.2095153874
 40
0.4453794694
 40
0.7128570698
 40
1.0
 40
1.0
 40
1.0
 40
1.0
 10
-19.310833283
 20
5.6419023691
 30
0.0
 10
-19.31132207
 20
5.669913489
 30
0.0
 10
-19.3304175622
 20
5.7297807211
 30
0.0
 10
-19.4002644519
 20
5.7984351407
 30
0.0
 10
-19.4978698383
 20
5.843059515
 30
0.0
 10
-19.57239369
 20
5.8536993195
 30
0.0
 10
-19.6107875915
 20
5.8540344035
 30
0.0
 11
-19.310833283
 21
5.6419023691
 31
0.0
 11
-19.3347192251
 21
5.7224828725
 31
0.0
 11
-19.3999846072
 21
5.7909852949
 31
0.0
 11
-19.4968469071
 21
5.8371419191
 31
0.0
 11
-19.6107875915
 21
5.8540344035
 31
0.0
  0
SPLINE
  5
693
100
AcDbEntity
  8
RACCORDO
100
AcDbSpline
 62
253
  6
CONTINUOUS
 70
0
 71
3
 72
11
 73
7
 74
5
 42
0.0000001
 43
0.0000001
 44
0.0000000001
 12
-0.0069988137
 22
0.401084489
 32
0.0
 13
-0.401130273
 23
0.0035006841
 33
0.0
 40
0.0
 40
0.0
 40
0.0
 40
0.0
 40
0.2095120489
 40
0.4453745127
 40
0.7128531963
 40
1.0
 40
1.0
 40
1.0
 40
1.0
 10
-19.3231758777
 20
4.934795588
 30
0.0
 10
-19.3236646563
 20
4.9628062656
 30
0.0
 10
-19.3427595944
 20
5.0226728489
 30
0.0
 10
-19.4126055827
 20
5.0913274767
 30
0.0
 10
-19.5102112137
 20
5.1359525396
 30
0.0
 10
-19.5847357611
 20
5.1465925494
 30
0.0
 10
-19.6231301863
 20
5.1469276195
 30
0.0
 11
-19.3231758777
 21
4.934795588
 31
0.0
 11
-19.3470610945
 21
5.0153749224
 31
0.0
 11
-19.4123255183
 21
5.0838773805
 31
0.0
 11
-19.5091879752
 21
5.1300347217
 31
0.0
 11
-19.6231301863
 21
5.1469276195
 31
0.0
  0
SPLINE
  5
694
100
AcDbEntity
  8
RACCORDO
100
AcDbSpline
 62
253
  6
CONTINUOUS
 70
0
 71
3
 72
11
 73
7
 74
5
 42
0.0000001
 43
0.0000001
 44
0.0000000001
 12
0.0069988224
 22
0.4010844293
 32
0.0
 13
0.4011302117
 23
0.0035008838
 33
0.0
 40
0.0
 40
0.0
 40
0.0
 40
0.0
 40
0.2095153873
 40
0.4453794686
 40
0.7128570688
 40
1.0
 40
1.0
 40
1.0
 40
1.0
 10
-20.1006009952
 20
4.934795588
 30
0.0
 10
-20.1001122082
 20
4.9628067078
 30
0.0
 10
-20.081016716
 20
5.0226739397
 30
0.0
 10
-20.0111698262
 20
5.0913283589
 30
0.0
 10
-19.9135644396
 20
5.1359527323
 30
0.0
 10
-19.8390405882
 20
5.1465925376
 30
0.0
 10
-19.8006466866
 20
5.1469276223
 30
0.0
 11
-20.1006009952
 21
4.934795588
 31
0.0
 11
-20.0767150531
 21
5.0153760912
 31
0.0
 11
-20.0114496709
 21
5.083878513
 31
0.0
 11
-19.9145873711
 21
5.1300351367
 31
0.0
 11
-19.8006466866
 21
5.1469276223
 31
0.0
  0
SPLINE
  5
695
100
AcDbEntity
  8
RACCORDO
100
AcDbSpline
 62
253
  6
CONTINUOUS
 70
0
 71
3
 72
11
 73
7
 74
5
 42
0.0000001
 43
0.0000001
 44
0.0000000001
 12
0.0069988223
 22
0.4010844284
 32
0.0
 13
0.4011302109
 23
0.003500877
 33
0.0
 40
0.0
 40
0.0
 40
0.0
 40
0.0
 40
0.209515632
 40
0.4453798145
 40
0.7128573246
 40
1.0
 40
1.0
 40
1.0
 40
1.0
 10
-20.1129435899
 20
5.6419023691
 30
0.0
 10
-20.1124548024
 20
5.6699135216
 30
0.0
 10
-20.0933592719
 20
5.7297807996
 30
0.0
 10
-20.0235123213
 20
5.7984352044
 30
0.0
 10
-19.925906953
 20
5.8430595308
 30
0.0
 10
-19.8513831487
 20
5.8536993198
 30
0.0
 10
-19.8129892814
 20
5.8540344035
 30
0.0
 11
-20.1129435899
 21
5.6419023691
 31
0.0
 11
-20.089057596
 21
5.7224829592
 31
0.0
 11
-20.0237921504
 21
5.7909853763
 31
0.0
 11
-19.9269298665
 21
5.8371419488
 31
0.0
 11
-19.8129892814
 21
5.8540344035
 31
0.0
  0
SPLINE
  5
696
100
AcDbEntity
  8
RACCORDO
100
AcDbSpline
 62
253
  6
CONTINUOUS
 70
0
 71
3
 72
11
 73
7
 74
5
 42
0.0000001
 43
0.0000001
 44
0.0000000001
 12
0.0069988224
 22
0.4010844293
 32
0.0
 13
0.4011302117
 23
0.0035008838
 33
0.0
 40
0.0
 40
0.0
 40
0.0
 40
0.0
 40
0.2095153873
 40
0.4453794686
 40
0.7128570688
 40
1.0
 40
1.0
 40
1.0
 40
1.0
 10
19.1993990048
 20
4.934795588
 30
0.0
 10
19.1998877918
 20
4.9628067078
 30
0.0
 10
19.218983284
 20
5.0226739397
 30
0.0
 10
19.2888301738
 20
5.0913283589
 30
0.0
 10
19.3864355604
 20
5.1359527323
 30
0.0
 10
19.4609594118
 20
5.1465925376
 30
0.0
 10
19.4993533134
 20
5.1469276223
 30
0.0
 11
19.1993990048
 21
4.934795588
 31
0.0
 11
19.2232849469
 21
5.0153760912
 31
0.0
 11
19.2885503291
 21
5.083878513
 31
0.0
 11
19.3854126289
 21
5.1300351367
 31
0.0
 11
19.4993533134
 21
5.1469276223
 31
0.0
  0
SPLINE
  5
697
100
AcDbEntity
  8
RACCORDO
100
AcDbSpline
 62
253
  6
CONTINUOUS
 70
0
 71
3
 72
11
 73
7
 74
5
 42
0.0000001
 43
0.0000001
 44
0.0000000001
 12
0.0069988223
 22
0.4010844284
 32
0.0
 13
0.4011302109
 23
0.003500877
 33
0.0
 40
0.0
 40
0.0
 40
0.0
 40
0.0
 40
0.209515632
 40
0.4453798145
 40
0.7128573246
 40
1.0
 40
1.0
 40
1.0
 40
1.0
 10
19.1870564101
 20
5.6419023691
 30
0.0
 10
19.1875451976
 20
5.6699135216
 30
0.0
 10
19.2066407281
 20
5.7297807996
 30
0.0
 10
19.2764876787
 20
5.7984352044
 30
0.0
 10
19.374093047
 20
5.8430595308
 30
0.0
 10
19.4486168513
 20
5.8536993198
 30
0.0
 10
19.4870107186
 20
5.8540344035
 30
0.0
 11
19.1870564101
 21
5.6419023691
 31
0.0
 11
19.210942404
 21
5.7224829592
 31
0.0
 11
19.2762078496
 21
5.7909853763
 31
0.0
 11
19.3730701335
 21
5.8371419488
 31
0.0
 11
19.4870107186
 21
5.8540344035
 31
0.0
  0
SPLINE
  5
698
100
AcDbEntity
  8
RACCORDO
100
AcDbSpline
 62
7
  6
CONTINUOUS
 70
0
 71
3
 72
12
 73
8
 74
6
 42
0.0000001
 43
0.0000001
 44
0.0000000001
 12
0.3000739778
 22
-0.0
 32
0.0
 13
0.212185585
 23
0.2121831041
 33
0.0
 40
0.0
 40
0.0
 40
0.0
 40
0.0
 40
0.3053475036
 40
0.5820489604
 40
0.8022991747
 40
0.9467217969
 40
1.0
 40
1.0
 40
1.0
 40
1.0
 10
23.2654252838
 20
-5.0180459178
 30
0.0
 10
23.2959675638
 20
-5.0180459178
 30
0.0
 10
23.3543418815
 20
-5.0181774336
 30
0.0
 10
23.4339887344
 20
-5.0164144259
 30
0.0
 10
23.4996859916
 20
-5.0182382107
 30
0.0
 10
23.5384381095
 20
-5.0115101344
 30
0.0
 10
23.5616141888
 20
-5.016669097
 30
0.0
 10
23.5653824777
 20
-5.0129008522
 30
0.0
 11
23.2654252838
 21
-5.0180459178
 31
0.0
 11
23.3570517821
 21
-5.0177957077
 31
0.0
 11
23.4400794914
 21
-5.0170670279
 31
0.0
 11
23.5061611399
 21
-5.0159341851
 31
0.0
 11
23.5494746848
 21
-5.0144943255
 31
0.0
 11
23.5653824777
 21
-5.0129008522
 31
0.0
  0
SPLINE
  5
699
100
AcDbEntity
  8
RACCORDO
100
AcDbSpline
 62
7
  6
CONTINUOUS
 70
0
 71
3
 72
12
 73
8
 74
6
 42
0.0000001
 43
0.0000001
 44
0.0000000001
 12
0.212185585
 22
-0.2121831041
 32
0.0
 13
0.3000739778
 23
0.0
 33
0.0
 40
0.0
 40
0.0
 40
0.0
 40
0.0
 40
0.0532782031
 40
0.1977008253
 40
0.4179510396
 40
0.6946524964
 40
1.0
 40
1.0
 40
1.0
 40
1.0
 10
-23.6891593506
 20
-5.0129008522
 30
0.0
 10
-23.6853910617
 20
-5.016669097
 30
0.0
 10
-23.6622149824
 20
-5.0115101344
 30
0.0
 10
-23.6234628645
 20
-5.0182382107
 30
0.0
 10
-23.5577656073
 20
-5.0164144259
 30
0.0
 10
-23.4781187544
 20
-5.0181774336
 30
0.0
 10
-23.4197444367
 20
-5.0180459178
 30
0.0
 10
-23.3892021567
 20
-5.0180459178
 30
0.0
 11
-23.6891593506
 21
-5.0129008522
 31
0.0
 11
-23.6732515577
 21
-5.0144943255
 31
0.0
 11
-23.6299380128
 21
-5.0159341851
 31
0.0
 11
-23.5638563643
 21
-5.0170670279
 31
0.0
 11
-23.480828655
 21
-5.0177957077
 31
0.0
 11
-23.3892021567
 21
-5.0180459178
 31
0.0
  0
SPLINE
  5
69A
100
AcDbEntity
  8
RACCORDO
100
AcDbSpline
 62
7
  6
CONTINUOUS
 70
0
 71
3
 72
12
 73
8
 74
6
 42
0.0000001
 43
0.0000001
 44
0.0000000001
 12
-0.2121858917
 22
0.2121865075
 32
0.0
 13
-0.3000766013
 23
0.0
 33
0.0
 40
0.0
 40
0.0
 40
0.0
 40
0.0
 40
0.0533078243
 40
0.1977742039
 40
0.4180472247
 40
0.6947316031
 40
1.0
 40
1.0
 40
1.0
 40
1.0
 10
23.5634403348
 20
-1.1841949791
 30
0.0
 10
23.5596699453
 20
-1.1804245787
 30
0.0
 10
23.5364850215
 20
-1.1855842852
 30
0.0
 10
23.4977235181
 20
-1.1788549554
 30
0.0
 10
23.4320208245
 20
-1.180677634
 30
0.0
 10
23.3523804425
 20
-1.1789147813
 30
0.0
 10
23.2940153115
 20
-1.1790460719
 30
0.0
 10
23.2634806771
 20
-1.1790460719
 30
0.0
 11
23.5634403348
 21
-1.1841949791
 31
0.0
 11
23.5475236279
 21
-1.1825999113
 31
0.0
 11
23.5041966045
 21
-1.1811588975
 31
0.0
 11
23.4381075456
 21
-1.1800253479
 31
0.0
 11
23.3550842383
 21
-1.1792963394
 31
0.0
 11
23.2634806771
 21
-1.1790460719
 31
0.0
  0
SPLINE
  5
69B
100
AcDbEntity
  8
RACCORDO
100
AcDbSpline
 62
7
  6
CONTINUOUS
 70
0
 71
3
 72
12
 73
8
 74
6
 42
0.0000001
 43
0.0000001
 44
0.0000000001
 12
-0.3000766013
 22
-0.0
 32
0.0
 13
-0.2121858917
 23
-0.2121865075
 33
0.0
 40
0.0
 40
0.0
 40
0.0
 40
0.0
 40
0.3052683969
 40
0.5819527753
 40
0.8022257961
 40
0.9466921757
 40
1.0
 40
1.0
 40
1.0
 40
1.0
 10
-23.38725755
 20
-1.1790460719
 30
0.0
 10
-23.4177921843
 20
-1.1790460719
 30
0.0
 10
-23.4761573154
 20
-1.1789147813
 30
0.0
 10
-23.5557976974
 20
-1.180677634
 30
0.0
 10
-23.621500391
 20
-1.1788549554
 30
0.0
 10
-23.6602618944
 20
-1.1855842852
 30
0.0
 10
-23.6834468182
 20
-1.1804245787
 30
0.0
 10
-23.6872172077
 20
-1.1841949791
 30
0.0
 11
-23.38725755
 21
-1.1790460719
 31
0.0
 11
-23.4788611112
 21
-1.1792963394
 31
0.0
 11
-23.5618844185
 21
-1.1800253479
 31
0.0
 11
-23.6279734774
 21
-1.1811588975
 31
0.0
 11
-23.6713005008
 21
-1.1825999113
 31
0.0
 11
-23.6872172077
 21
-1.1841949791
 31
0.0
  0
SPLINE
  5
69C
100
AcDbEntity
  8
RACCORDO
100
AcDbSpline
 62
7
  6
CONTINUOUS
 70
0
 71
3
 72
12
 73
8
 74
6
 42
0.0000001
 43
0.0000001
 44
0.0000000001
 12
0.2121856603
 22
-0.2121849679
 32
0.0
 13
0.300075349
 23
0.0
 33
0.0
 40
0.0
 40
0.0
 40
0.0
 40
0.0
 40
0.0532816106
 40
0.1977093993
 40
0.417962435
 40
0.694661992
 40
1.0
 40
1.0
 40
1.0
 40
1.0
 10
-23.6904136977
 20
-7.0116465051
 30
0.0
 10
-23.6866451665
 20
-7.015415024
 30
0.0
 10
-23.6634679429
 20
-7.0102559256
 30
0.0
 10
-23.6247146031
 20
-7.0169842029
 30
0.0
 10
-23.5590164322
 20
-7.0151605245
 30
0.0
 10
-23.4793700582
 20
-7.0169235269
 30
0.0
 10
-23.4209966212
 20
-7.0167920352
 30
0.0
 10
-23.3904551515
 20
-7.0167920352
 30
0.0
 11
-23.6904136977
 21
-7.0116465051
 31
0.0
 11
-23.6745048227
 21
-7.0132401675
 31
0.0
 11
-23.6311895331
 21
-7.0146801666
 31
0.0
 11
-23.5651067373
 21
-7.0158130967
 31
0.0
 11
-23.4820792191
 21
-7.0165418181
 31
0.0
 11
-23.3904551515
 21
-7.0167920352
 31
0.0
  0
SPLINE
  5
69D
100
AcDbEntity
  8
RACCORDO
100
AcDbSpline
 62
7
  6
CONTINUOUS
 70
0
 71
3
 72
12
 73
8
 74
6
 42
0.0000001
 43
0.0000001
 44
0.0000000001
 12
-0.3000816659
 22
0.0
 32
0.0
 13
-0.2121905985
 23
-0.2121889631
 33
0.0
 40
0.0
 40
0.0
 40
0.0
 40
0.0
 40
0.305206335
 40
0.5818776397
 40
0.8021687507
 40
0.9466692379
 40
1.0
 40
1.0
 40
1.0
 40
1.0
 10
-23.3899752135
 20
-6.2817656608
 30
0.0
 10
-23.4205041553
 20
-6.2817656608
 30
0.0
 10
-23.4788626923
 20
-6.2816345506
 30
0.0
 10
-23.5584988621
 20
-6.2833972871
 30
0.0
 10
-23.6242064714
 20
-6.2815754754
 30
0.0
 10
-23.6629757763
 20
-6.2883057845
 30
0.0
 10
-23.6861677165
 20
-6.283145517
 30
0.0
 10
-23.689939812
 20
-6.2869175834
 30
0.0
 11
-23.3899752135
 21
-6.2817656608
 31
0.0
 11
-23.4815616969
 21
-6.282015977
 31
0.0
 11
-23.5645824799
 21
-6.2827452474
 31
0.0
 11
-23.6306780743
 21
-6.2838793558
 31
0.0
 11
-23.6740160405
 21
-6.285321275
 31
0.0
 11
-23.689939812
 21
-6.2869175834
 31
0.0
  0
SPLINE
  5
69E
100
AcDbEntity
  8
RACCORDO
100
AcDbSpline
 62
7
  6
CONTINUOUS
 70
0
 71
3
 72
12
 73
8
 74
6
 42
0.0000001
 43
0.0000001
 44
0.0000000001
 12
0.2121821519
 22
-0.2121827803
 32
0.0
 13
0.3000713213
 23
-0.0
 33
0.0
 40
0.0
 40
0.0
 40
0.0
 40
0.0
 40
0.0532731
 40
0.1976880308
 40
0.4179339921
 40
0.6946382695
 40
1.0
 40
1.0
 40
1.0
 40
1.0
 10
-23.6864196264
 20
0.8843594236
 30
0.0
 10
-23.6826517594
 20
0.8805915455
 30
0.0
 10
-23.6594773192
 20
0.8857503948
 30
0.0
 10
-23.6207272108
 20
0.8790225362
 30
0.0
 10
-23.5550314022
 20
0.880846521
 30
0.0
 10
-23.4753840171
 20
0.8790834883
 30
0.0
 10
-23.4170084942
 20
0.8792150477
 30
0.0
 10
-23.3864650616
 20
0.8792150477
 30
0.0
 11
-23.6864196264
 21
0.8843594236
 31
0.0
 11
-23.6705134868
 21
0.8827662284
 31
0.0
 11
-23.6272026281
 21
0.8813265756
 31
0.0
 11
-23.5611228391
 21
0.8801938626
 31
0.0
 11
-23.4780950179
 21
0.8794652447
 31
0.0
 11
-23.3864650616
 21
0.8792150477
 31
0.0
  0
SPLINE
  5
69F
100
AcDbEntity
  8
RACCORDO
100
AcDbSpline
 62
7
  6
CONTINUOUS
 70
0
 71
3
 72
12
 73
8
 74
6
 42
0.0000001
 43
0.0000001
 44
0.0000000001
 12
-0.3000744827
 22
-0.0
 32
0.0
 13
-0.2121844225
 23
-0.2121849807
 33
0.0
 40
0.0
 40
0.0
 40
0.0
 40
0.0
 40
0.3052957572
 40
0.5819859076
 40
0.8022509535
 40
0.9467022877
 40
1.0
 40
1.0
 40
1.0
 40
1.0
 10
-23.3862219252
 20
1.6219902867
 30
0.0
 10
-23.4167590807
 20
1.6219902867
 30
0.0
 10
-23.4751271408
 20
1.6221216556
 30
0.0
 10
-23.5547694145
 20
1.6203587546
 30
0.0
 10
-23.6204699565
 20
1.622181808
 30
0.0
 10
-23.6592280535
 20
1.615452925
 30
0.0
 10
-23.6824098709
 20
1.6206123676
 30
0.0
 10
-23.686179519
 20
1.6168427096
 30
0.0
 11
-23.3862219252
 21
1.6219902867
 31
0.0
 11
-23.4778330498
 21
1.6217400403
 31
0.0
 11
-23.5608575041
 21
1.6210111473
 31
0.0
 11
-23.6269437071
 21
1.6198778441
 31
0.0
 11
-23.6702659203
 21
1.6184372297
 31
0.0
 11
-23.686179519
 21
1.6168427096
 31
0.0
  0
SPLINE
  5
6A0
100
AcDbEntity
  8
RACCORDO
100
AcDbSpline
 62
7
  6
CONTINUOUS
 70
0
 71
3
 72
12
 73
8
 74
6
 42
0.0000001
 43
0.0000001
 44
0.0000000001
 12
-0.2121905985
 22
0.2121889632
 32
0.0
 13
-0.3000816659
 23
-0.0
 33
0.0
 40
0.0
 40
0.0
 40
0.0
 40
0.0
 40
0.0533307621
 40
0.1978312493
 40
0.4181223603
 40
0.694793665
 40
1.0
 40
1.0
 40
1.0
 40
1.0
 10
23.5661629391
 20
-6.2869175834
 30
0.0
 10
23.5623908436
 20
-6.283145517
 30
0.0
 10
23.5391989034
 20
-6.2883057845
 30
0.0
 10
23.5004295985
 20
-6.2815754754
 30
0.0
 10
23.4347219892
 20
-6.2833972871
 30
0.0
 10
23.3550858194
 20
-6.2816345506
 30
0.0
 10
23.2967272824
 20
-6.2817656608
 30
0.0
 10
23.2661983406
 20
-6.2817656608
 30
0.0
 11
23.5661629391
 21
-6.2869175834
 31
0.0
 11
23.5502391676
 21
-6.285321275
 31
0.0
 11
23.5069012015
 21
-6.2838793558
 31
0.0
 11
23.440805607
 21
-6.2827452474
 31
0.0
 11
23.357784824
 21
-6.282015977
 31
0.0
 11
23.2661983406
 21
-6.2817656608
 31
0.0
  0
SPLINE
  5
6A1
100
AcDbEntity
  8
RACCORDO
100
AcDbSpline
 62
7
  6
CONTINUOUS
 70
0
 71
3
 72
12
 73
8
 74
6
 42
0.0000001
 43
0.0000001
 44
0.0000000001
 12
0.300075349
 22
-0.0
 32
0.0
 13
0.2121856603
 23
0.2121849679
 33
0.0
 40
0.0
 40
0.0
 40
0.0
 40
0.0
 40
0.305338008
 40
0.582037565
 40
0.8022906007
 40
0.9467183894
 40
1.0
 40
1.0
 40
1.0
 40
1.0
 10
23.2666782786
 20
-7.0167920352
 30
0.0
 10
23.2972197483
 20
-7.0167920352
 30
0.0
 10
23.3555931854
 20
-7.0169235269
 30
0.0
 10
23.4352395593
 20
-7.0151605245
 30
0.0
 10
23.5009377302
 20
-7.0169842029
 30
0.0
 10
23.53969107
 20
-7.0102559256
 30
0.0
 10
23.5628682936
 20
-7.015415024
 30
0.0
 10
23.5666368248
 20
-7.0116465051
 30
0.0
 11
23.2666782786
 21
-7.0167920352
 31
0.0
 11
23.3583023462
 21
-7.0165418181
 31
0.0
 11
23.4413298644
 21
-7.0158130967
 31
0.0
 11
23.5074126602
 21
-7.0146801666
 31
0.0
 11
23.5507279498
 21
-7.0132401675
 31
0.0
 11
23.5666368248
 21
-7.0116465051
 31
0.0
  0
SPLINE
  5
6A2
100
AcDbEntity
  8
RACCORDO
100
AcDbSpline
 62
7
  6
CONTINUOUS
 70
0
 71
3
 72
12
 73
8
 74
6
 42
0.0000001
 43
0.0000001
 44
0.0000000001
 12
-0.2121844225
 22
0.2121849807
 32
0.0
 13
-0.3000744827
 23
0.0
 33
0.0
 40
0.0
 40
0.0
 40
0.0
 40
0.0
 40
0.0532977123
 40
0.1977490465
 40
0.4180140924
 40
0.6947042428
 40
1.0
 40
1.0
 40
1.0
 40
1.0
 10
23.5624026461
 20
1.6168427096
 30
0.0
 10
23.558632998
 20
1.6206123676
 30
0.0
 10
23.5354511806
 20
1.615452925
 30
0.0
 10
23.4966930836
 20
1.622181808
 30
0.0
 10
23.4309925416
 20
1.6203587546
 30
0.0
 10
23.3513502679
 20
1.6221216556
 30
0.0
 10
23.2929822078
 20
1.6219902867
 30
0.0
 10
23.2624450523
 20
1.6219902867
 30
0.0
 11
23.5624026461
 21
1.6168427096
 31
0.0
 11
23.5464890475
 21
1.6184372297
 31
0.0
 11
23.5031668342
 21
1.6198778441
 31
0.0
 11
23.4370806312
 21
1.6210111473
 31
0.0
 11
23.3540561769
 21
1.6217400403
 31
0.0
 11
23.2624450523
 21
1.6219902867
 31
0.0
  0
SPLINE
  5
6A3
100
AcDbEntity
  8
RACCORDO
100
AcDbSpline
 62
7
  6
CONTINUOUS
 70
0
 71
3
 72
12
 73
8
 74
6
 42
0.0000001
 43
0.0000001
 44
0.0000000001
 12
0.3000713213
 22
0.0
 32
0.0
 13
0.2121821519
 23
0.2121827803
 33
0.0
 40
0.0
 40
0.0
 40
0.0
 40
0.0
 40
0.3053617305
 40
0.5820660079
 40
0.8023119692
 40
0.9467269
 40
1.0
 40
1.0
 40
1.0
 40
1.0
 10
23.2626881887
 20
0.8792150477
 30
0.0
 10
23.2932316213
 20
0.8792150477
 30
0.0
 10
23.3516071442
 20
0.8790834883
 30
0.0
 10
23.4312545293
 20
0.880846521
 30
0.0
 10
23.4969503379
 20
0.8790225362
 30
0.0
 10
23.5357004463
 20
0.8857503948
 30
0.0
 10
23.5588748865
 20
0.8805915455
 30
0.0
 10
23.5626427535
 20
0.8843594236
 30
0.0
 11
23.2626881887
 21
0.8792150477
 31
0.0
 11
23.354318145
 21
0.8794652447
 31
0.0
 11
23.4373459662
 21
0.8801938626
 31
0.0
 11
23.5034257552
 21
0.8813265756
 31
0.0
 11
23.5467366139
 21
0.8827662284
 31
0.0
 11
23.5626427535
 21
0.8843594236
 31
0.0
  0
SPLINE
  5
6A4
100
AcDbEntity
  8
RACCORDO
100
AcDbSpline
 62
253
  6
CONTINUOUS
 70
0
 71
3
 72
11
 73
7
 74
5
 42
0.0000001
 43
0.0000001
 44
0.0000000001
 12
-0.0069988224
 22
0.4010844298
 32
0.0
 13
-0.4011302123
 23
0.0035008769
 33
0.0
 40
0.0
 40
0.0
 40
0.0
 40
0.0
 40
0.2095153874
 40
0.4453794694
 40
0.7128570698
 40
1.0
 40
1.0
 40
1.0
 40
1.0
 10
19.989166717
 20
5.6419023691
 30
0.0
 10
19.98867793
 20
5.669913489
 30
0.0
 10
19.9695824378
 20
5.7297807211
 30
0.0
 10
19.8997355481
 20
5.7984351407
 30
0.0
 10
19.8021301617
 20
5.843059515
 30
0.0
 10
19.72760631
 20
5.8536993195
 30
0.0
 10
19.6892124085
 20
5.8540344035
 30
0.0
 11
19.989166717
 21
5.6419023691
 31
0.0
 11
19.9652807749
 21
5.7224828725
 31
0.0
 11
19.9000153928
 21
5.7909852949
 31
0.0
 11
19.8031530929
 21
5.8371419191
 31
0.0
 11
19.6892124085
 21
5.8540344035
 31
0.0
  0
SPLINE
  5
6A5
100
AcDbEntity
  8
RACCORDO
100
AcDbSpline
 62
253
  6
CONTINUOUS
 70
0
 71
3
 72
11
 73
7
 74
5
 42
0.0000001
 43
0.0000001
 44
0.0000000001
 12
-0.0069988137
 22
0.401084489
 32
0.0
 13
-0.401130273
 23
0.0035006841
 33
0.0
 40
0.0
 40
0.0
 40
0.0
 40
0.0
 40
0.2095120489
 40
0.4453745127
 40
0.7128531963
 40
1.0
 40
1.0
 40
1.0
 40
1.0
 10
19.9768241223
 20
4.934795588
 30
0.0
 10
19.9763353437
 20
4.9628062656
 30
0.0
 10
19.9572404056
 20
5.0226728489
 30
0.0
 10
19.8873944173
 20
5.0913274767
 30
0.0
 10
19.7897887863
 20
5.1359525396
 30
0.0
 10
19.7152642389
 20
5.1465925494
 30
0.0
 10
19.6768698137
 20
5.1469276195
 30
0.0
 11
19.9768241223
 21
4.934795588
 31
0.0
 11
19.9529389055
 21
5.0153749224
 31
0.0
 11
19.8876744817
 21
5.0838773805
 31
0.0
 11
19.7908120248
 21
5.1300347217
 31
0.0
 11
19.6768698137
 21
5.1469276195
 31
0.0
  0
SPLINE
  5
6A6
100
AcDbEntity
  8
RACCORDO
100
AcDbSpline
 62
253
  6
CONTINUOUS
 70
0
 71
3
 72
12
 73
8
 74
6
 42
0.0000001
 43
0.0000001
 44
0.0000000001
 12
0.188162755
 22
0.4631952088
 32
0.0
 13
0.000001281
 23
0.4999550218
 33
0.0
 40
0.0
 40
0.0
 40
0.0
 40
0.0
 40
0.0533471248
 40
0.1972618061
 40
0.417998053
 40
0.6944311848
 40
1.0
 40
1.0
 40
1.0
 40
1.0
 10
19.496945721
 20
2.9093608618
 30
0.0
 10
19.5002917017
 20
2.9175975727
 30
0.0
 10
19.4949613863
 20
2.9519190116
 30
0.0
 10
19.5011202228
 20
3.0202860575
 30
0.0
 10
19.4990408738
 20
3.1277818423
 30
0.0
 10
19.5005495879
 20
3.2613036405
 30
0.0
 10
19.5003756769
 20
3.3583611548
 30
0.0
 10
19.5003758074
 20
3.4092847094
 30
0.0
 11
19.496945721
 21
2.9093608618
 31
0.0
 11
19.498011073
 21
2.9360107391
 31
0.0
 11
19.4989672318
 21
3.0079552532
 31
0.0
 11
19.4997235945
 21
3.1183108564
 31
0.0
 11
19.500208827
 21
3.256514137
 31
0.0
 11
19.5003758074
 21
3.4092847094
 31
0.0
  0
SPLINE
  5
6A7
100
AcDbEntity
  8
RACCORDO
100
AcDbSpline
 62
253
  6
CONTINUOUS
 70
0
 71
3
 72
12
 73
8
 74
6
 42
0.0000001
 43
0.0000001
 44
0.0000000001
 12
0.000001281
 22
-0.4999550218
 32
0.0
 13
0.1881627568
 23
-0.4631952081
 33
0.0
 40
0.0
 40
0.0
 40
0.0
 40
0.0
 40
0.305568815
 40
0.5820019468
 40
0.8027381938
 40
0.9466528751
 40
1.0
 40
1.0
 40
1.0
 40
1.0
 10
19.6758473197
 20
3.4092847094
 30
0.0
 10
19.6758474502
 20
3.3583611549
 30
0.0
 10
19.6756735392
 20
3.2613036406
 30
0.0
 10
19.6771822533
 20
3.1277818424
 30
0.0
 10
19.6751029043
 20
3.0202860575
 30
0.0
 10
19.6812617408
 20
2.9519190117
 30
0.0
 10
19.6759314254
 20
2.9175975727
 30
0.0
 10
19.6792774061
 20
2.9093608618
 30
0.0
 11
19.6758473197
 21
3.4092847094
 31
0.0
 11
19.6760143001
 21
3.2565141371
 31
0.0
 11
19.6764995326
 21
3.1183108565
 31
0.0
 11
19.6772558953
 21
3.0079552533
 31
0.0
 11
19.6782120541
 21
2.9360107391
 31
0.0
 11
19.6792774061
 21
2.9093608618
 31
0.0
  0
SPLINE
  5
6A8
100
AcDbEntity
  8
RACCORDO
100
AcDbSpline
 62
253
  6
CONTINUOUS
 70
0
 71
3
 72
12
 73
8
 74
6
 42
0.0000001
 43
0.0000001
 44
0.0000000001
 12
0.000001281
 22
-0.4999550218
 32
0.0
 13
0.1881627568
 23
-0.4631952081
 33
0.0
 40
0.0
 40
0.0
 40
0.0
 40
0.0
 40
0.305568815
 40
0.5820019468
 40
0.8027381938
 40
0.9466528751
 40
1.0
 40
1.0
 40
1.0
 40
1.0
 10
-19.6241526803
 20
3.4092847094
 30
0.0
 10
-19.6241525498
 20
3.3583611549
 30
0.0
 10
-19.6243264608
 20
3.2613036406
 30
0.0
 10
-19.6228177467
 20
3.1277818424
 30
0.0
 10
-19.6248970957
 20
3.0202860575
 30
0.0
 10
-19.6187382592
 20
2.9519190117
 30
0.0
 10
-19.6240685746
 20
2.9175975727
 30
0.0
 10
-19.6207225939
 20
2.9093608618
 30
0.0
 11
-19.6241526803
 21
3.4092847094
 31
0.0
 11
-19.6239856999
 21
3.2565141371
 31
0.0
 11
-19.6235004674
 21
3.1183108565
 31
0.0
 11
-19.6227441047
 21
3.0079552533
 31
0.0
 11
-19.6217879459
 21
2.9360107391
 31
0.0
 11
-19.6207225939
 21
2.9093608618
 31
0.0
  0
SPLINE
  5
6A9
100
AcDbEntity
  8
RACCORDO
100
AcDbSpline
 62
253
  6
CONTINUOUS
 70
0
 71
3
 72
12
 73
8
 74
6
 42
0.0000001
 43
0.0000001
 44
0.0000000001
 12
0.188162755
 22
0.4631952088
 32
0.0
 13
0.000001281
 23
0.4999550218
 33
0.0
 40
0.0
 40
0.0
 40
0.0
 40
0.0
 40
0.0533471248
 40
0.1972618061
 40
0.417998053
 40
0.6944311848
 40
1.0
 40
1.0
 40
1.0
 40
1.0
 10
-19.803054279
 20
2.9093608618
 30
0.0
 10
-19.7997082983
 20
2.9175975727
 30
0.0
 10
-19.8050386137
 20
2.9519190116
 30
0.0
 10
-19.7988797772
 20
3.0202860575
 30
0.0
 10
-19.8009591262
 20
3.1277818423
 30
0.0
 10
-19.7994504121
 20
3.2613036405
 30
0.0
 10
-19.7996243231
 20
3.3583611548
 30
0.0
 10
-19.7996241926
 20
3.4092847094
 30
0.0
 11
-19.803054279
 21
2.9093608618
 31
0.0
 11
-19.801988927
 21
2.9360107391
 31
0.0
 11
-19.8010327682
 21
3.0079552532
 31
0.0
 11
-19.8002764055
 21
3.1183108564
 31
0.0
 11
-19.799791173
 21
3.256514137
 31
0.0
 11
-19.7996241926
 21
3.4092847094
 31
0.0
  0
SPLINE
  5
6AA
100
AcDbEntity
  8
RACCORDO
100
AcDbSpline
 62
253
  6
CONTINUOUS
 70
0
 71
3
 72
11
 73
7
 74
5
 42
0.0000001
 43
0.0000001
 44
0.0000000001
 12
-0.0098689072
 22
0.3534493123
 32
0.0
 13
-0.0000004971
 23
0.3535870638
 33
0.0
 40
0.0
 40
0.0
 40
0.0
 40
0.0
 40
0.2035823994
 40
0.4531925193
 40
0.7278954329
 40
1.0
 40
1.0
 40
1.0
 40
1.0
 10
19.4870104393
 20
5.8540455061
 30
0.0
 10
19.4863407273
 20
5.8780308591
 30
0.0
 10
19.4851409648
 20
5.9314325519
 30
0.0
 10
19.4838722527
 20
6.0172152685
 30
0.0
 10
19.4830923318
 20
6.1110802681
 30
0.0
 10
19.4829207566
 20
6.1755284156
 30
0.0
 10
19.4829207115
 20
6.2075993006
 30
0.0
 11
19.4870104393
 21
5.8540455061
 31
0.0
 11
19.485345524
 21
5.9260103525
 31
0.0
 11
19.4840067412
 21
6.0142591075
 31
0.0
 11
19.4831816304
 21
6.1113869994
 31
0.0
 11
19.4829207115
 21
6.2075993006
 31
0.0
  0
SPLINE
  5
6AB
100
AcDbEntity
  8
RACCORDO
100
AcDbSpline
 62
253
  6
CONTINUOUS
 70
0
 71
3
 72
11
 73
7
 74
5
 42
0.0000001
 43
0.0000001
 44
0.0000000001
 12
-0.0000004828
 22
-0.3535861826
 32
0.0
 13
-0.0098690566
 23
-0.3534484266
 33
0.0
 40
0.0
 40
0.0
 40
0.0
 40
0.0
 40
0.2713497641
 40
0.5458509931
 40
0.7957709277
 40
1.0
 40
1.0
 40
1.0
 40
1.0
 10
19.6933024147
 20
6.2075989701
 30
0.0
 10
19.693302371
 20
6.1756171277
 30
0.0
 10
19.6931315549
 20
6.1112818757
 30
0.0
 10
19.6923540206
 20
6.0174933127
 30
0.0
 10
19.6910859614
 20
5.9316218284
 30
0.0
 10
19.689884551
 20
5.8781075374
 30
0.0
 10
19.6892127016
 20
5.854046056
 30
0.0
 11
19.6933024147
 21
6.2075989701
 31
0.0
 11
19.6930429532
 21
6.1116537937
 31
0.0
 11
19.6922203427
 21
6.0145974381
 31
0.0
 11
19.6908819627
 21
5.9262393382
 31
0.0
 11
19.6892127016
 21
5.854046056
 31
0.0
  0
SPLINE
  5
6AC
100
AcDbEntity
  8
RACCORDO
100
AcDbSpline
 62
253
  6
CONTINUOUS
 70
0
 71
3
 72
9
 73
5
 74
3
 42
0.0000001
 43
0.0000001
 44
0.0000000001
 12
0.0053452793
 22
-1.6468770511
 32
0.0
 13
0.0076765735
 23
-1.6468678343
 33
0.0
 40
0.0
 40
0.0
 40
0.0
 40
0.0
 40
0.5000137269
 40
1.0
 40
1.0
 40
1.0
 40
1.0
 10
-4.3038354755
 20
5.4240735122
 30
0.0
 10
-4.3029445712
 20
5.1495864682
 30
0.0
 10
-4.3009684903
 20
4.6006280647
 30
0.0
 10
-4.2986039542
 20
4.051671197
 30
0.0
 10
-4.2973245604
 20
3.7772007601
 30
0.0
 11
-4.3038354755
 21
5.4240735122
 31
0.0
 11
-4.3008713169
 21
4.6006133777
 31
0.0
 11
-4.2973245604
 21
3.7772007601
 31
0.0
  0
SPLINE
  5
6AD
100
AcDbEntity
  8
RACCORDO
100
AcDbSpline
 62
253
  6
CONTINUOUS
 70
0
 71
3
 72
9
 73
5
 74
3
 42
0.0000001
 43
0.0000001
 44
0.0000000001
 12
0.0076765735
 22
1.6468678343
 32
0.0
 13
0.0053452793
 23
1.6468770511
 33
0.0
 40
0.0
 40
0.0
 40
0.0
 40
0.0
 40
0.499986712
 40
1.0
 40
1.0
 40
1.0
 40
1.0
 10
4.1735476875
 20
3.7772007601
 30
0.0
 10
4.1748270824
 20
4.051671438
 30
0.0
 10
4.1771916184
 20
4.6006283057
 30
0.0
 10
4.179167699
 20
5.1495867092
 30
0.0
 10
4.1800586026
 20
5.4240735122
 30
0.0
 11
4.1735476875
 21
3.7772007601
 31
0.0
 11
4.1770944469
 21
4.6006141006
 31
0.0
 11
4.1800586026
 21
5.4240735122
 31
0.0
  0
SPLINE
  5
6AE
100
AcDbEntity
  8
RACCORDO
100
AcDbSpline
 62
253
  6
CONTINUOUS
 70
0
 71
3
 72
11
 73
7
 74
5
 42
0.0000001
 43
0.0000001
 44
0.0000000001
 12
-0.0000004828
 22
-0.3535861826
 32
0.0
 13
-0.0098690566
 23
-0.3534484266
 33
0.0
 40
0.0
 40
0.0
 40
0.0
 40
0.0
 40
0.2713497641
 40
0.5458509931
 40
0.7957709277
 40
1.0
 40
1.0
 40
1.0
 40
1.0
 10
-19.6066975853
 20
6.2075989701
 30
0.0
 10
-19.606697629
 20
6.1756171277
 30
0.0
 10
-19.6068684451
 20
6.1112818757
 30
0.0
 10
-19.6076459794
 20
6.0174933127
 30
0.0
 10
-19.6089140386
 20
5.9316218284
 30
0.0
 10
-19.610115449
 20
5.8781075374
 30
0.0
 10
-19.6107872984
 20
5.854046056
 30
0.0
 11
-19.6066975853
 21
6.2075989701
 31
0.0
 11
-19.6069570468
 21
6.1116537937
 31
0.0
 11
-19.6077796573
 21
6.0145974381
 31
0.0
 11
-19.6091180373
 21
5.9262393382
 31
0.0
 11
-19.6107872984
 21
5.854046056
 31
0.0
  0
SPLINE
  5
6AF
100
AcDbEntity
  8
RACCORDO
100
AcDbSpline
 62
253
  6
CONTINUOUS
 70
0
 71
3
 72
11
 73
7
 74
5
 42
0.0000001
 43
0.0000001
 44
0.0000000001
 12
-0.0098905691
 22
0.5656197527
 32
0.0
 13
-0.0000105791
 23
0.5657062205
 33
0.0
 40
0.0
 40
0.0
 40
0.0
 40
0.0
 40
0.203753628
 40
0.4534050995
 40
0.7280845227
 40
1.0
 40
1.0
 40
1.0
 40
1.0
 10
19.1870564101
 20
5.6419023691
 30
0.0
 10
19.1863846636
 20
5.6803180614
 30
0.0
 10
19.185186616
 20
5.765808224
 30
0.0
 10
19.183917189
 20
5.9030967193
 30
0.0
 10
19.183137579
 20
6.0532422434
 30
0.0
 10
19.1829673928
 20
6.1563130351
 30
0.0
 10
19.1829664339
 20
6.2075877941
 30
0.0
 11
19.1870564101
 21
5.6419023691
 31
0.0
 11
19.1853901927
 21
5.7571550203
 31
0.0
 11
19.184051689
 21
5.8983780677
 31
0.0
 11
19.183227045
 21
6.0537637379
 31
0.0
 11
19.1829664339
 21
6.2075877941
 31
0.0
  0
SPLINE
  5
6B0
100
AcDbEntity
  8
RACCORDO
100
AcDbSpline
 62
253
  6
CONTINUOUS
 70
0
 71
3
 72
10
 73
6
 74
4
 42
0.0000001
 43
0.0000001
 44
0.0000000001
 12
0.000000142
 22
0.1414264683
 32
0.0
 13
-0.0024701873
 23
0.1414048942
 33
0.0
 40
0.0
 40
0.0
 40
0.0
 40
0.0
 40
0.3658056966
 40
0.7062804612
 40
1.0
 40
1.0
 40
1.0
 40
1.0
 10
19.2004214989
 20
4.7933742317
 30
0.0
 10
19.2004215162
 20
4.810619101
 30
0.0
 10
19.2003477324
 20
4.8439147543
 30
0.0
 10
19.2000193142
 20
4.891055908
 30
0.0
 10
19.1996408523
 20
4.9209511279
 30
0.0
 10
19.1993990048
 20
4.934795588
 30
0.0
 11
19.2004214989
 21
4.7933742317
 31
0.0
 11
19.2003026559
 21
4.845108703
 31
0.0
 11
19.1999549093
 21
4.8932595908
 31
0.0
 11
19.1993990048
 21
4.934795588
 31
0.0
  0
SPLINE
  5
6B1
100
AcDbEntity
  8
RACCORDO
100
AcDbSpline
 62
253
  6
CONTINUOUS
 70
0
 71
3
 72
12
 73
8
 74
6
 42
0.0000001
 43
0.0000001
 44
0.0000000001
 12
0.1431629629
 22
0.1397257719
 32
0.0
 13
0.0000002731
 23
0.2000473076
 33
0.0
 40
0.0
 40
0.0
 40
0.0
 40
0.0
 40
0.053680495
 40
0.1976944885
 40
0.4183849018
 40
0.6946711573
 40
1.0
 40
1.0
 40
1.0
 40
1.0
 10
19.1969914125
 20
3.2093151704
 30
0.0
 10
19.1995530987
 20
3.2118153532
 30
0.0
 10
19.196029692
 20
3.2273402387
 30
0.0
 10
19.2005752534
 20
3.2531448617
 30
0.0
 10
19.1993253431
 20
3.2969484902
 30
0.0
 10
19.2005123395
 20
3.3500347575
 30
0.0
 10
19.2004214711
 20
3.3889246384
 30
0.0
 10
19.2004214989
 20
3.4092847094
 30
0.0
 11
19.1969914125
 21
3.2093151704
 31
0.0
 11
19.1980578015
 21
3.2200007294
 31
0.0
 11
19.1990134627
 21
3.2487944863
 31
0.0
 11
19.1997698429
 21
3.2929365294
 31
0.0
 11
19.2002546919
 21
3.3482047243
 31
0.0
 11
19.2004214989
 21
3.4092847094
 31
0.0
  0
SPLINE
  5
6B2
100
AcDbEntity
  8
RACCORDO
100
AcDbSpline
 62
253
  6
CONTINUOUS
 70
0
 71
3
 72
12
 73
8
 74
6
 42
0.0000001
 43
0.0000001
 44
0.0000000001
 12
0.0000002731
 22
-0.2000473076
 32
0.0
 13
0.1431629629
 23
-0.1397257719
 33
0.0
 40
0.0
 40
0.0
 40
0.0
 40
0.0
 40
0.3053288425
 40
0.581615098
 40
0.8023055113
 40
0.9463195049
 40
1.0
 40
1.0
 40
1.0
 40
1.0
 10
19.9758016282
 20
3.4092847094
 30
0.0
 10
19.975801656
 20
3.3889246384
 30
0.0
 10
19.9757107876
 20
3.3500347575
 30
0.0
 10
19.976897784
 20
3.2969484902
 30
0.0
 10
19.9756478737
 20
3.2531448617
 30
0.0
 10
19.9801934351
 20
3.2273402387
 30
0.0
 10
19.9766700284
 20
3.2118153532
 30
0.0
 10
19.9792317146
 20
3.2093151704
 30
0.0
 11
19.9758016282
 21
3.4092847094
 31
0.0
 11
19.9759684352
 21
3.3482047243
 31
0.0
 11
19.9764532843
 21
3.2929365294
 31
0.0
 11
19.9772096644
 21
3.2487944863
 31
0.0
 11
19.9781653256
 21
3.2200007294
 31
0.0
 11
19.9792317146
 21
3.2093151704
 31
0.0
  0
SPLINE
  5
6B3
100
AcDbEntity
  8
RACCORDO
100
AcDbSpline
 62
253
  6
CONTINUOUS
 70
0
 71
3
 72
10
 73
6
 74
4
 42
0.0000001
 43
0.0000001
 44
0.0000000001
 12
-0.0024701868
 22
-0.1414048942
 32
0.0
 13
0.0000001414
 23
-0.1414264683
 33
0.0
 40
0.0
 40
0.0
 40
0.0
 40
0.0
 40
0.2937195618
 40
0.6341943926
 40
1.0
 40
1.0
 40
1.0
 40
1.0
 10
19.9768241223
 20
4.934795588
 30
0.0
 10
19.9765822749
 20
4.9209511268
 30
0.0
 10
19.9762038129
 20
4.8910559027
 30
0.0
 10
19.9758753946
 20
4.843914749
 30
0.0
 10
19.975801611
 20
4.8106190968
 30
0.0
 10
19.9758016282
 20
4.7933742317
 30
0.0
 11
19.9768241223
 21
4.934795588
 31
0.0
 11
19.9762682178
 21
4.8932595875
 31
0.0
 11
19.9759204711
 21
4.8451086904
 31
0.0
 11
19.9758016282
 21
4.7933742317
 31
0.0
  0
SPLINE
  5
6B4
100
AcDbEntity
  8
RACCORDO
100
AcDbSpline
 62
253
  6
CONTINUOUS
 70
0
 71
3
 72
11
 73
7
 74
5
 42
0.0000001
 43
0.0000001
 44
0.0000000001
 12
-0.0000102035
 22
-0.56570622
 32
0.0
 13
-0.0098911393
 23
-0.5656197423
 33
0.0
 40
0.0
 40
0.0
 40
0.0
 40
0.0
 40
0.27116473
 40
0.5456360084
 40
0.7955929365
 40
1.0
 40
1.0
 40
1.0
 40
1.0
 10
19.9932566932
 20
6.2075877941
 30
0.0
 10
19.9932557709
 20
6.1564546026
 30
0.0
 10
19.9930862895
 20
6.0535646289
 30
0.0
 10
19.992309094
 20
5.9035423126
 30
0.0
 10
19.991040297
 20
5.7661122385
 30
0.0
 10
19.9898406566
 20
5.6804412593
 30
0.0
 10
19.989166717
 20
5.6419023691
 30
0.0
 11
19.9932566932
 21
6.2075877941
 31
0.0
 11
19.9929975304
 21
6.0541884386
 31
0.0
 11
19.9921754003
 21
5.8989205057
 31
0.0
 11
19.990837326
 21
5.7575246479
 31
0.0
 11
19.989166717
 21
5.6419023691
 31
0.0
  0
SPLINE
  5
6B5
100
AcDbEntity
  8
RACCORDO
100
AcDbSpline
 62
253
  6
CONTINUOUS
 70
0
 71
3
 72
12
 73
8
 74
6
 42
0.0000001
 43
0.0000001
 44
0.0000000001
 12
0.0000002731
 22
-0.2000473076
 32
0.0
 13
0.1431629629
 23
-0.1397257719
 33
0.0
 40
0.0
 40
0.0
 40
0.0
 40
0.0
 40
0.3053288425
 40
0.581615098
 40
0.8023055113
 40
0.9463195049
 40
1.0
 40
1.0
 40
1.0
 40
1.0
 10
-19.3241983718
 20
3.4092847094
 30
0.0
 10
-19.324198344
 20
3.3889246384
 30
0.0
 10
-19.3242892124
 20
3.3500347575
 30
0.0
 10
-19.323102216
 20
3.2969484902
 30
0.0
 10
-19.3243521263
 20
3.2531448617
 30
0.0
 10
-19.3198065649
 20
3.2273402387
 30
0.0
 10
-19.3233299716
 20
3.2118153532
 30
0.0
 10
-19.3207682854
 20
3.2093151704
 30
0.0
 11
-19.3241983718
 21
3.4092847094
 31
0.0
 11
-19.3240315648
 21
3.3482047243
 31
0.0
 11
-19.3235467157
 21
3.2929365294
 31
0.0
 11
-19.3227903356
 21
3.2487944863
 31
0.0
 11
-19.3218346744
 21
3.2200007294
 31
0.0
 11
-19.3207682854
 21
3.2093151704
 31
0.0
  0
SPLINE
  5
6B6
100
AcDbEntity
  8
RACCORDO
100
AcDbSpline
 62
253
  6
CONTINUOUS
 70
0
 71
3
 72
10
 73
6
 74
4
 42
0.0000001
 43
0.0000001
 44
0.0000000001
 12
-0.0024701868
 22
-0.1414048942
 32
0.0
 13
0.0000001414
 23
-0.1414264683
 33
0.0
 40
0.0
 40
0.0
 40
0.0
 40
0.0
 40
0.2937195618
 40
0.6341943926
 40
1.0
 40
1.0
 40
1.0
 40
1.0
 10
-19.3231758777
 20
4.934795588
 30
0.0
 10
-19.3234177251
 20
4.9209511268
 30
0.0
 10
-19.3237961871
 20
4.8910559027
 30
0.0
 10
-19.3241246054
 20
4.843914749
 30
0.0
 10
-19.324198389
 20
4.8106190968
 30
0.0
 10
-19.3241983718
 20
4.7933742317
 30
0.0
 11
-19.3231758777
 21
4.934795588
 31
0.0
 11
-19.3237317822
 21
4.8932595875
 31
0.0
 11
-19.3240795289
 21
4.8451086904
 31
0.0
 11
-19.3241983718
 21
4.7933742317
 31
0.0
  0
SPLINE
  5
6B7
100
AcDbEntity
  8
RACCORDO
100
AcDbSpline
 62
253
  6
CONTINUOUS
 70
0
 71
3
 72
11
 73
7
 74
5
 42
0.0000001
 43
0.0000001
 44
0.0000000001
 12
-0.0000102035
 22
-0.56570622
 32
0.0
 13
-0.0098911393
 23
-0.5656197423
 33
0.0
 40
0.0
 40
0.0
 40
0.0
 40
0.0
 40
0.27116473
 40
0.5456360084
 40
0.7955929365
 40
1.0
 40
1.0
 40
1.0
 40
1.0
 10
-19.3067433068
 20
6.2075877941
 30
0.0
 10
-19.3067442291
 20
6.1564546026
 30
0.0
 10
-19.3069137105
 20
6.0535646289
 30
0.0
 10
-19.307690906
 20
5.9035423126
 30
0.0
 10
-19.308959703
 20
5.7661122385
 30
0.0
 10
-19.3101593434
 20
5.6804412593
 30
0.0
 10
-19.310833283
 20
5.6419023691
 30
0.0
 11
-19.3067433068
 21
6.2075877941
 31
0.0
 11
-19.3070024696
 21
6.0541884386
 31
0.0
 11
-19.3078245997
 21
5.8989205057
 31
0.0
 11
-19.309162674
 21
5.7575246479
 31
0.0
 11
-19.310833283
 21
5.6419023691
 31
0.0
  0
SPLINE
  5
6B8
100
AcDbEntity
  8
RACCORDO
100
AcDbSpline
 62
253
  6
CONTINUOUS
 70
0
 71
3
 72
11
 73
7
 74
5
 42
0.0000001
 43
0.0000001
 44
0.0000000001
 12
-0.0098905691
 22
0.5656197527
 32
0.0
 13
-0.0000105791
 23
0.5657062205
 33
0.0
 40
0.0
 40
0.0
 40
0.0
 40
0.0
 40
0.203753628
 40
0.4534050995
 40
0.7280845227
 40
1.0
 40
1.0
 40
1.0
 40
1.0
 10
-20.1129435899
 20
5.6419023691
 30
0.0
 10
-20.1136153364
 20
5.6803180614
 30
0.0
 10
-20.114813384
 20
5.765808224
 30
0.0
 10
-20.116082811
 20
5.9030967193
 30
0.0
 10
-20.116862421
 20
6.0532422434
 30
0.0
 10
-20.1170326072
 20
6.1563130351
 30
0.0
 10
-20.1170335661
 20
6.2075877941
 30
0.0
 11
-20.1129435899
 21
5.6419023691
 31
0.0
 11
-20.1146098073
 21
5.7571550203
 31
0.0
 11
-20.115948311
 21
5.8983780677
 31
0.0
 11
-20.116772955
 21
6.0537637379
 31
0.0
 11
-20.1170335661
 21
6.2075877941
 31
0.0
  0
SPLINE
  5
6B9
100
AcDbEntity
  8
RACCORDO
100
AcDbSpline
 62
253
  6
CONTINUOUS
 70
0
 71
3
 72
10
 73
6
 74
4
 42
0.0000001
 43
0.0000001
 44
0.0000000001
 12
0.000000142
 22
0.1414264683
 32
0.0
 13
-0.0024701873
 23
0.1414048942
 33
0.0
 40
0.0
 40
0.0
 40
0.0
 40
0.0
 40
0.3658056966
 40
0.7062804612
 40
1.0
 40
1.0
 40
1.0
 40
1.0
 10
-20.0995785011
 20
4.7933742317
 30
0.0
 10
-20.0995784838
 20
4.810619101
 30
0.0
 10
-20.0996522676
 20
4.8439147543
 30
0.0
 10
-20.0999806858
 20
4.891055908
 30
0.0
 10
-20.1003591477
 20
4.9209511279
 30
0.0
 10
-20.1006009952
 20
4.934795588
 30
0.0
 11
-20.0995785011
 21
4.7933742317
 31
0.0
 11
-20.0996973441
 21
4.845108703
 31
0.0
 11
-20.1000450907
 21
4.8932595908
 31
0.0
 11
-20.1006009952
 21
4.934795588
 31
0.0
  0
SPLINE
  5
6BA
100
AcDbEntity
  8
RACCORDO
100
AcDbSpline
 62
253
  6
CONTINUOUS
 70
0
 71
3
 72
12
 73
8
 74
6
 42
0.0000001
 43
0.0000001
 44
0.0000000001
 12
0.1431629629
 22
0.1397257719
 32
0.0
 13
0.0000002731
 23
0.2000473076
 33
0.0
 40
0.0
 40
0.0
 40
0.0
 40
0.0
 40
0.053680495
 40
0.1976944885
 40
0.4183849018
 40
0.6946711573
 40
1.0
 40
1.0
 40
1.0
 40
1.0
 10
-20.1030085875
 20
3.2093151704
 30
0.0
 10
-20.1004469013
 20
3.2118153532
 30
0.0
 10
-20.103970308
 20
3.2273402387
 30
0.0
 10
-20.0994247466
 20
3.2531448617
 30
0.0
 10
-20.1006746569
 20
3.2969484902
 30
0.0
 10
-20.0994876605
 20
3.3500347575
 30
0.0
 10
-20.0995785289
 20
3.3889246384
 30
0.0
 10
-20.0995785011
 20
3.4092847094
 30
0.0
 11
-20.1030085875
 21
3.2093151704
 31
0.0
 11
-20.1019421985
 21
3.2200007294
 31
0.0
 11
-20.1009865373
 21
3.2487944863
 31
0.0
 11
-20.1002301571
 21
3.2929365294
 31
0.0
 11
-20.0997453081
 21
3.3482047243
 31
0.0
 11
-20.0995785011
 21
3.4092847094
 31
0.0
  0
SPLINE
  5
6BB
100
AcDbEntity
  8
RACCORDO
100
AcDbSpline
 62
253
  6
CONTINUOUS
 70
0
 71
3
 72
9
 73
5
 74
3
 42
0.0000001
 43
0.0000001
 44
0.0000000001
 12
0.0003603394
 22
-6.1661325534
 32
0.0
 13
0.0019281047
 23
-6.1661322625
 33
0.0
 40
0.0
 40
0.0
 40
0.0
 40
0.0
 40
0.500035562
 40
1.0
 40
1.0
 40
1.0
 40
1.0
 10
23.5612584848
 20
7.7829751549
 30
0.0
 10
23.5613185457
 20
6.7552133028
 30
0.0
 10
23.5615692917
 20
4.6998357906
 30
0.0
 10
23.5620813182
 20
2.6444583268
 30
0.0
 10
23.5624026461
 20
1.6168427096
 30
0.0
 11
23.5612584848
 21
7.7829751549
 31
0.0
 11
23.5616346389
 21
4.6996896162
 31
0.0
 11
23.5624026461
 21
1.6168427096
 31
0.0
  0
LINE
  5
6BC
100
AcDbEntity
  8
RACCORDO
100
AcDbLine
 62
253
  6
CONTINUOUS
 10
23.5626427535
 20
0.8843594236
 11
23.5634403348
 21
-1.1841949791
  0
LINE
  5
6BD
100
AcDbEntity
  8
RACCORDO
100
AcDbLine
 62
253
  6
CONTINUOUS
 10
23.5653824777
 20
-5.0129008522
 11
23.5661629391
 21
-6.2869175834
  0
LINE
  5
6BE
100
AcDbEntity
  8
RACCORDO
100
AcDbLine
 62
253
  6
CONTINUOUS
 10
23.5666368248
 20
-7.0116465051
 11
23.5669872362
 21
-7.5273328933
  0
LINE
  5
6BF
100
AcDbEntity
  8
RACCORDO
100
AcDbLine
 62
253
  6
CONTINUOUS
 10
-23.689939812
 20
-6.2869175834
 11
-23.6891593506
 21
-5.0129008522
  0
LINE
  5
6C0
100
AcDbEntity
  8
RACCORDO
100
AcDbLine
 62
253
  6
CONTINUOUS
 10
-23.6907641091
 20
-7.5273328933
 11
-23.6904136977
 21
-7.0116465051
  0
LINE
  5
6C1
100
AcDbEntity
  8
RACCORDO
100
AcDbLine
 62
253
  6
CONTINUOUS
 10
-23.6872172077
 20
-1.1841949791
 11
-23.6864196264
 21
0.8843594236
  0
SPLINE
  5
6C2
100
AcDbEntity
  8
RACCORDO
100
AcDbSpline
 62
253
  6
CONTINUOUS
 70
0
 71
3
 72
9
 73
5
 74
3
 42
0.0000001
 43
0.0000001
 44
0.0000000001
 12
0.0019281047
 22
6.1661322625
 32
0.0
 13
0.0003603394
 23
6.1661325534
 33
0.0
 40
0.0
 40
0.0
 40
0.0
 40
0.0
 40
0.4999644739
 40
1.0
 40
1.0
 40
1.0
 40
1.0
 10
-23.686179519
 20
1.6168427096
 30
0.0
 10
-23.685858191
 20
2.6444584006
 30
0.0
 10
-23.6853461646
 20
4.6998358643
 30
0.0
 10
-23.6850954185
 20
6.7552133766
 30
0.0
 10
-23.6850353577
 20
7.7829751549
 30
0.0
 11
-23.686179519
 21
1.6168427096
 31
0.0
 11
-23.6854115118
 21
4.6996898375
 31
0.0
 11
-23.6850353577
 21
7.7829751549
 31
0.0
  0
SPLINE
  5
6C3
100
AcDbEntity
  8
RACCORDO
100
AcDbSpline
 62
7
  6
CONTINUOUS
 70
0
 71
3
 72
12
 73
8
 74
6
 42
0.0000001
 43
0.0000001
 44
0.0000000001
 12
0.3000708432
 22
-0.0
 32
0.0
 13
0.2121821359
 23
0.2121821203
 33
0.0
 40
0.0
 40
0.0
 40
0.0
 40
0.0
 40
0.3053517528
 40
0.5820537449
 40
0.8023025256
 40
0.9467230498
 40
1.0
 40
1.0
 40
1.0
 40
1.0
 10
23.2613044184
 20
7.777830297
 30
0.0
 10
23.2918468044
 20
7.777830297
 30
0.0
 10
23.350220997
 20
7.7776987682
 30
0.0
 10
23.4298673368
 20
7.7794617712
 30
0.0
 10
23.4955636315
 20
7.7776379458
 30
0.0
 10
23.5343148512
 20
7.7843659249
 30
0.0
 10
23.5574903458
 20
7.7792070162
 30
0.0
 10
23.5612584848
 20
7.7829751549
 30
0.0
 11
23.2613044184
 21
7.777830297
 31
0.0
 11
23.3529312347
 21
7.7780805011
 31
0.0
 11
23.4359582375
 21
7.7788091588
 31
0.0
 11
23.5020387659
 21
7.7799419591
 31
0.0
 11
23.54535123
 21
7.7813817568
 31
0.0
 11
23.5612584848
 21
7.7829751549
 31
0.0
  0
SPLINE
  5
6C4
100
AcDbEntity
  8
RACCORDO
100
AcDbSpline
 62
7
  6
CONTINUOUS
 70
0
 71
3
 72
12
 73
8
 74
6
 42
0.0000001
 43
0.0000001
 44
0.0000000001
 12
0.2121821359
 22
-0.2121821203
 32
0.0
 13
0.3000708432
 23
0.0
 33
0.0
 40
0.0
 40
0.0
 40
0.0
 40
0.0
 40
0.0532769502
 40
0.1976974744
 40
0.4179462551
 40
0.6946482472
 40
1.0
 40
1.0
 40
1.0
 40
1.0
 10
-23.6850353577
 20
7.7829751549
 30
0.0
 10
-23.6812672187
 20
7.7792070162
 30
0.0
 10
-23.6580917241
 20
7.7843659249
 30
0.0
 10
-23.6193405044
 20
7.7776379458
 30
0.0
 10
-23.5536442097
 20
7.7794617712
 30
0.0
 10
-23.4739978699
 20
7.7776987682
 30
0.0
 10
-23.4156236773
 20
7.777830297
 30
0.0
 10
-23.3850812913
 20
7.777830297
 30
0.0
 11
-23.6850353577
 21
7.7829751549
 31
0.0
 11
-23.6691281029
 21
7.7813817568
 31
0.0
 11
-23.6258156388
 21
7.7799419591
 31
0.0
 11
-23.5597351104
 21
7.7788091588
 31
0.0
 11
-23.4767081076
 21
7.7780805011
 31
0.0
 11
-23.3850812913
 21
7.777830297
 31
0.0
  0
SPLINE
  5
6C5
100
AcDbEntity
  8
RACCORDO
100
AcDbSpline
 62
253
  6
CONTINUOUS
 70
0
 71
3
 72
11
 73
7
 74
5
 42
0.0000001
 43
0.0000001
 44
0.0000000001
 12
-0.0098689072
 22
0.3534493123
 32
0.0
 13
-0.0000004971
 23
0.3535870638
 33
0.0
 40
0.0
 40
0.0
 40
0.0
 40
0.0
 40
0.2035823994
 40
0.4531925193
 40
0.7278954329
 40
1.0
 40
1.0
 40
1.0
 40
1.0
 10
-19.8129895607
 20
5.8540455061
 30
0.0
 10
-19.8136592727
 20
5.8780308591
 30
0.0
 10
-19.8148590352
 20
5.9314325519
 30
0.0
 10
-19.8161277473
 20
6.0172152685
 30
0.0
 10
-19.8169076682
 20
6.1110802681
 30
0.0
 10
-19.8170792434
 20
6.1755284156
 30
0.0
 10
-19.8170792885
 20
6.2075993006
 30
0.0
 11
-19.8129895607
 21
5.8540455061
 31
0.0
 11
-19.814654476
 21
5.9260103525
 31
0.0
 11
-19.8159932588
 21
6.0142591075
 31
0.0
 11
-19.8168183696
 21
6.1113869994
 31
0.0
 11
-19.8170792885
 21
6.2075993006
 31
0.0
  0
SPLINE
  5
6C6
100
AcDbEntity
  8
RACCORDO
100
AcDbSpline
 62
7
  6
CONTINUOUS
 70
0
 71
3
 72
11
 73
7
 74
5
 42
0.0000001
 43
0.0000001
 44
0.0000000001
 12
0.1877591259
 22
0.0090044273
 32
0.0
 13
0.1879749161
 23
0.0
 33
0.0
 40
0.0
 40
0.0
 40
0.0
 40
0.0
 40
0.1566793638
 40
0.3898272684
 40
0.6785348125
 40
1.0
 40
1.0
 40
1.0
 40
1.0
 10
4.1800586026
 20
5.4240735122
 30
0.0
 10
4.1898645961
 20
5.4245437815
 30
0.0
 10
4.2142858756
 20
5.4251696668
 30
0.0
 10
4.2567952328
 20
5.42584701
 30
0.0
 10
4.3096355819
 20
5.4262703047
 30
0.0
 10
4.3478678666
 20
5.4263710245
 30
0.0
 10
4.3680103305
 20
5.4263710245
 30
0.0
 11
4.1800586026
 21
5.4240735122
 31
0.0
 11
4.2094955431
 21
5.4250086498
 31
0.0
 11
4.2533154007
 21
5.4257398513
 31
0.0
 11
4.3075831592
 21
5.4262078446
 31
0.0
 11
4.3680103305
 21
5.4263710245
 31
0.0
  0
SPLINE
  5
6C7
100
AcDbEntity
  8
RACCORDO
100
AcDbSpline
 62
7
  6
CONTINUOUS
 70
0
 71
3
 72
11
 73
7
 74
5
 42
0.0000001
 43
0.0000001
 44
0.0000000001
 12
-0.1879629154
 22
0.0
 32
0.0
 13
-0.1877471389
 23
0.0090038568
 33
0.0
 40
0.0
 40
0.0
 40
0.0
 40
0.0
 40
0.3215242523
 40
0.6102453572
 40
0.8433660718
 40
1.0
 40
1.0
 40
1.0
 40
1.0
 10
4.3614874257
 20
3.774903971
 30
0.0
 10
4.3413425471
 20
3.774903971
 30
0.0
 10
4.303108153
 20
3.7750046739
 30
0.0
 10
4.2502683297
 20
3.7754278773
 30
0.0
 10
4.2077653858
 20
3.7761050256
 30
0.0
 10
4.1833502115
 20
3.776730657
 30
0.0
 10
4.1735476875
 20
3.7772007601
 30
0.0
 11
4.3614874257
 21
3.774903971
 31
0.0
 11
4.3010530101
 21
3.7750671393
 31
0.0
 11
4.2467861667
 21
3.7755350481
 31
0.0
 11
4.202974215
 21
3.7762660203
 31
0.0
 11
4.1735476875
 21
3.7772007601
 31
0.0
  0
SPLINE
  5
6C8
100
AcDbEntity
  8
RACCORDO
100
AcDbSpline
 62
7
  6
CONTINUOUS
 70
0
 71
3
 72
11
 73
7
 74
5
 42
0.0000001
 43
0.0000001
 44
0.0000000001
 12
-0.1877471389
 22
-0.0090038568
 32
0.0
 13
-0.1879629155
 23
0.0
 33
0.0
 40
0.0
 40
0.0
 40
0.0
 40
0.0
 40
0.1566339282
 40
0.3897546428
 40
0.6784757477
 40
1.0
 40
1.0
 40
1.0
 40
1.0
 10
-4.2973245604
 20
3.7772007601
 30
0.0
 10
-4.3071270844
 20
3.776730657
 30
0.0
 10
-4.3315422587
 20
3.7761050256
 30
0.0
 10
-4.3740452026
 20
3.7754278773
 30
0.0
 10
-4.4268850259
 20
3.7750046739
 30
0.0
 10
-4.46511942
 20
3.774903971
 30
0.0
 10
-4.4852642986
 20
3.774903971
 30
0.0
 11
-4.2973245604
 21
3.7772007601
 31
0.0
 11
-4.3267510879
 21
3.7762660203
 31
0.0
 11
-4.3705630396
 21
3.7755350481
 31
0.0
 11
-4.424829883
 21
3.7750671393
 31
0.0
 11
-4.4852642986
 21
3.774903971
 31
0.0
  0
SPLINE
  5
6C9
100
AcDbEntity
  8
RACCORDO
100
AcDbSpline
 62
7
  6
CONTINUOUS
 70
0
 71
3
 72
11
 73
7
 74
5
 42
0.0000001
 43
0.0000001
 44
0.0000000001
 12
0.1879749161
 22
0.0
 32
0.0
 13
0.1877591259
 23
-0.0090044273
 33
0.0
 40
0.0
 40
0.0
 40
0.0
 40
0.0
 40
0.3214651875
 40
0.6101727316
 40
0.8433206362
 40
1.0
 40
1.0
 40
1.0
 40
1.0
 10
-4.4917872034
 20
5.4263710245
 30
0.0
 10
-4.4716447395
 20
5.4263710245
 30
0.0
 10
-4.4334124548
 20
5.4262703047
 30
0.0
 10
-4.3805721057
 20
5.42584701
 30
0.0
 10
-4.3380627485
 20
5.4251696668
 30
0.0
 10
-4.313641469
 20
5.4245437815
 30
0.0
 10
-4.3038354755
 20
5.4240735122
 30
0.0
 11
-4.4917872034
 21
5.4263710245
 31
0.0
 11
-4.4313600321
 21
5.4262078446
 31
0.0
 11
-4.3770922736
 21
5.4257398513
 31
0.0
 11
-4.333272416
 21
5.4250086498
 31
0.0
 11
-4.3038354755
 21
5.4240735122
 31
0.0
  0
SPLINE
  5
6CA
100
AcDbEntity
  8
ASSI
100
AcDbSpline
 62
7
  6
CONTINUOUS
 70
0
 71
3
 72
9
 73
5
 74
3
 42
0.0000001
 43
0.0000001
 44
0.0000000001
 12
-0.0046820729
 22
0.3133621937
 32
0.0
 13
-0.3113313703
 23
0.0361338596
 33
0.0
 40
0.0
 40
0.0
 40
0.0
 40
0.0
 40
0.4988583766
 40
1.0
 40
1.0
 40
1.0
 40
1.0
 10
13.2743661815
 20
-2.5241727817
 30
0.0
 10
13.2735876177
 20
-2.4720649966
 30
0.0
 10
13.2311630716
 20
-2.3633910308
 30
0.0
 10
13.1259268209
 20
-2.3175738848
 30
0.0
 10
13.0739197848
 20
-2.3115378244
 30
0.0
 11
13.2743661815
 21
-2.5241727817
 31
0.0
 11
13.2156286366
 21
-2.3792816883
 31
0.0
 11
13.0739197848
 21
-2.3115378244
 31
0.0
  0
SPLINE
  5
6CB
100
AcDbEntity
  8
ASSI
100
AcDbSpline
 62
7
  6
CONTINUOUS
 70
0
 71
3
 72
9
 73
5
 74
3
 42
0.0000001
 43
0.0000001
 44
0.0000000001
 12
-0.2768734096
 22
0.0321345862
 32
0.0
 13
-0.2747605685
 23
-0.046883616
 33
0.0
 40
0.0
 40
0.0
 40
0.0
 40
0.0
 40
0.7295958319
 40
1.0
 40
1.0
 40
1.0
 40
1.0
 10
13.0739197848
 20
-2.3115378246
 30
0.0
 10
13.0065845562
 20
-2.3037227378
 30
0.0
 10
12.9125918678
 20
-2.3034214899
 30
0.0
 10
12.8207184628
 20
-2.3173194944
 30
0.0
 10
12.7959529952
 20
-2.3215453361
 30
0.0
 11
13.0739197848
 21
-2.3115378246
 31
0.0
 11
12.8705593247
 21
-2.3108415645
 31
0.0
 11
12.7959529952
 21
-2.3215453361
 31
0.0
  0
SPLINE
  5
6CC
100
AcDbEntity
  8
ASSI
100
AcDbSpline
 62
7
  6
CONTINUOUS
 70
0
 71
3
 72
9
 73
5
 74
3
 42
0.0000001
 43
0.0000001
 44
0.0000000001
 12
0.4232572624
 22
0.0094537593
 32
0.0
 13
-0.0063259437
 23
0.4233860928
 33
0.0
 40
0.0
 40
0.0
 40
0.0
 40
0.0
 40
0.4795375616
 40
1.0
 40
1.0
 40
1.0
 40
1.0
 10
12.998733708
 20
-2.7881908186
 30
0.0
 10
13.0663896265
 20
-2.7866796744
 30
0.0
 10
13.2235316971
 20
-2.7580579039
 30
0.0
 10
13.2754636388
 20
-2.597624968
 30
0.0
 10
13.2743661668
 20
-2.5241727819
 30
0.0
 11
12.998733708
 21
-2.7881908186
 31
0.0
 11
13.1929069481
 21
-2.728918442
 31
0.0
 11
13.2743661668
 21
-2.5241727819
 31
0.0
  0
SPLINE
  5
6CD
100
AcDbEntity
  8
ASSI
100
AcDbSpline
 62
7
  6
CONTINUOUS
 70
0
 71
3
 72
17
 73
13
 74
11
 42
0.0000001
 43
0.0000001
 44
0.0000000001
 12
0.9958819045
 22
-0.3598342768
 32
0.0
 13
-1.050193894
 23
-0.1355088895
 33
0.0
 40
0.0
 40
0.0
 40
0.0
 40
0.0
 40
0.0798430187
 40
0.1895551228
 40
0.3223119562
 40
0.398530744
 40
0.483321362
 40
0.5876727129
 40
0.6789531193
 40
0.8312245932
 40
0.9440148167
 40
1.0
 40
1.0
 40
1.0
 40
1.0
 10
13.3301057102
 20
-2.0697593513
 30
0.0
 10
13.3566104493
 20
-2.0793361029
 30
0.0
 10
13.4158570389
 20
-2.1120238128
 30
0.0
 10
13.5020581068
 20
-2.1878166524
 30
0.0
 10
13.563134371
 20
-2.2847732616
 30
0.0
 10
13.5956527999
 20
-2.3837063763
 30
0.0
 10
13.6090698938
 20
-2.47681306
 30
0.0
 10
13.6065240095
 20
-2.5764998827
 30
0.0
 10
13.5794251416
 20
-2.696607509
 30
0.0
 10
13.5185940261
 20
-2.8117384453
 30
0.0
 10
13.4359788602
 20
-2.886530617
 30
0.0
 10
13.3861621789
 20
-2.9257652583
 30
0.0
 10
13.3665637463
 20
-2.9282940883
 30
0.0
 11
13.3301057102
 21
-2.0697593513
 31
0.0
 11
13.4050041906
 21
-2.1089820282
 31
0.0
 11
13.4921321463
 21
-2.1858270655
 31
0.0
 11
13.5671423993
 21
-2.3047183802
 31
0.0
 11
13.5925343044
 21
-2.3813280943
 31
0.0
 11
13.6058138845
 21
-2.4701254209
 31
0.0
 11
13.6025750779
 21
-2.5805756224
 31
0.0
 11
13.5810004782
 21
-2.6747938981
 31
0.0
 11
13.5042769366
 21
-2.8166104565
 31
0.0
 11
13.4185093344
 21
-2.8997266639
 31
0.0
 11
13.3665637463
 21
-2.9282940883
 31
0.0
  0
SPLINE
  5
6CE
100
AcDbEntity
  8
ASSI
100
AcDbSpline
 62
7
  6
CONTINUOUS
 70
0
 71
3
 72
8
 73
4
 74
2
 42
0.0000001
 43
0.0000001
 44
0.0000000001
 12
0.0468153254
 22
-0.018667611
 32
0.0
 13
0.0404489985
 23
-0.0293488028
 33
0.0
 40
0.0
 40
0.0
 40
0.0
 40
0.0
 40
1.0
 40
1.0
 40
1.0
 40
1.0
 10
13.3665637463
 20
-2.9383387955
 30
0.0
 10
13.3821688548
 20
-2.9445613325
 30
0.0
 10
13.3966735754
 20
-2.9527513078
 30
0.0
 10
13.4101565749
 20
-2.962534242
 30
0.0
 11
13.3665637463
 21
-2.9383387955
 31
0.0
 11
13.4101565749
 21
-2.962534242
 31
0.0
  0
SPLINE
  5
6CF
100
AcDbEntity
  8
ASSI
100
AcDbSpline
 62
7
  6
CONTINUOUS
 70
0
 71
3
 72
9
 73
5
 74
3
 42
0.0000001
 43
0.0000001
 44
0.0000000001
 12
0.2399260035
 22
-0.2145228187
 32
0.0
 13
0.0845359266
 23
-0.3102902278
 33
0.0
 40
0.0
 40
0.0
 40
0.0
 40
0.0
 40
0.7012282199
 40
1.0
 40
1.0
 40
1.0
 40
1.0
 10
13.4286185831
 20
-2.9774520942
 30
0.0
 10
13.4846995446
 20
-3.0275952456
 30
0.0
 10
13.5365669628
 20
-3.1395235523
 30
0.0
 10
13.5626817448
 20
-3.2408733576
 30
0.0
 10
13.5711007279
 20
-3.2717753455
 30
0.0
 11
13.4286185831
 21
-2.9774520942
 31
0.0
 11
13.5447782268
 21
-3.1793681487
 31
0.0
 11
13.5711007279
 21
-3.2717753455
 31
0.0
  0
SPLINE
  5
6D0
100
AcDbEntity
  8
ASSI
100
AcDbSpline
 62
7
  6
CONTINUOUS
 70
0
 71
3
 72
9
 73
5
 74
3
 42
0.0000001
 43
0.0000001
 44
0.0000000001
 12
0.1250599769
 22
-0.4590343077
 32
0.0
 13
0.1246990825
 23
-0.4591324849
 33
0.0
 40
0.0
 40
0.0
 40
0.0
 40
0.0
 40
0.8019701246
 40
1.0
 40
1.0
 40
1.0
 40
1.0
 10
13.5711007282
 20
-3.2717753455
 30
0.0
 10
13.6045321832
 20
-3.3944859458
 30
0.0
 10
13.6438750126
 20
-3.548124193
 30
0.0
 10
13.6841607408
 20
-3.7015123575
 30
0.0
 10
13.692392122
 20
-3.7318196738
 30
0.0
 11
13.5711007282
 21
-3.2717753455
 31
0.0
 11
13.6682421619
 21
-3.6407516721
 31
0.0
 11
13.692392122
 21
-3.7318196738
 31
0.0
  0
SPLINE
  5
6D1
100
AcDbEntity
  8
ASSI
100
AcDbSpline
 62
7
  6
CONTINUOUS
 70
0
 71
3
 72
9
 73
5
 74
3
 42
0.0000001
 43
0.0000001
 44
0.0000000001
 12
-0.1487666252
 22
0.5174419044
 32
0.0
 13
-0.1893777802
 23
0.5039985871
 33
0.0
 40
0.0
 40
0.0
 40
0.0
 40
0.0
 40
0.4413080349
 40
1.0
 40
1.0
 40
1.0
 40
1.0
 10
13.3510887787
 20
-3.7318196738
 30
0.0
 10
13.3292048096
 20
-3.6557025838
 30
0.0
 10
13.2775356159
 20
-3.4839290115
 30
0.0
 10
13.2311688764
 20
-3.3101450119
 30
0.0
 10
13.1959009283
 20
-3.2162850249
 30
0.0
 11
13.3510887787
 21
-3.7318196738
 31
0.0
 11
13.2846334167
 21
-3.5037009322
 31
0.0
 11
13.1959009283
 21
-3.2162850249
 31
0.0
  0
SPLINE
  5
6D2
100
AcDbEntity
  8
ASSI
100
AcDbSpline
 62
7
  6
CONTINUOUS
 70
0
 71
3
 72
9
 73
5
 74
3
 42
0.0000001
 43
0.0000001
 44
0.0000000001
 12
-0.0895737501
 22
0.2383859055
 32
0.0
 13
-0.2546300208
 23
0.0
 33
0.0
 40
0.0
 40
0.0
 40
0.0
 40
0.0
 40
0.8563651185
 40
1.0
 40
1.0
 40
1.0
 40
1.0
 10
13.1959009424
 20
-3.2162850196
 30
0.0
 10
13.170331664
 20
-3.1482365616
 30
0.0
 10
13.0952826986
 20
-3.0726047986
 30
0.0
 10
13.0101601335
 20
-3.0665872712
 30
0.0
 10
12.9979688826
 20
-3.0665872712
 30
0.0
 11
13.1959009424
 21
-3.2162850196
 31
0.0
 11
13.0344054444
 21
-3.0697521347
 31
0.0
 11
12.9979688826
 21
-3.0665872712
 31
0.0
  0
SPLINE
  5
6D3
100
AcDbEntity
  8
ASSI
100
AcDbSpline
 62
7
  6
CONTINUOUS
 70
0
 71
3
 72
9
 73
5
 74
3
 42
0.0000001
 43
0.0000001
 44
0.0000000001
 12
0.870352019
 22
0.1280436023
 32
0.0
 13
0.8273203445
 23
-0.2990739652
 33
0.0
 40
0.0
 40
0.0
 40
0.0
 40
0.0
 40
0.8916594654
 40
1.0
 40
1.0
 40
1.0
 40
1.0
 10
12.4543182275
 20
-2.0518169049
 30
0.0
 10
12.7130040995
 20
-2.0137598082
 30
0.0
 10
13.0173285536
 20
-1.9782661704
 30
0.0
 10
13.3002282518
 20
-2.0589587786
 30
0.0
 10
13.3301056946
 20
-2.0697593897
 30
0.0
 11
12.4543182275
 21
-2.0518169049
 31
0.0
 11
13.238677766
 21
-2.042837974
 31
0.0
 11
13.3301056946
 21
-2.0697593897
 31
0.0
  0
SPLINE
  5
6D4
100
AcDbEntity
  8
ASSI
100
AcDbSpline
 62
7
  6
CONTINUOUS
 70
0
 71
3
 72
10
 73
6
 74
4
 42
0.0000001
 43
0.0000001
 44
0.0000000001
 12
-0.1883406519
 22
0.1821745431
 32
0.0
 13
-0.1853866352
 23
0.1851798068
 33
0.0
 40
0.0
 40
0.0
 40
0.0
 40
0.0
 40
0.2866167254
 40
0.6201205121
 40
1.0
 40
1.0
 40
1.0
 40
1.0
 10
23.4537067485
 20
-7.7230642264
 30
0.0
 10
23.4357128882
 20
-7.7056594694
 30
0.0
 10
23.3969218816
 20
-7.6678576534
 30
0.0
 10
23.3346924029
 20
-7.6065681373
 30
0.0
 10
23.2905077876
 20
-7.5626340465
 30
0.0
 10
23.2670329276
 20
-7.5391853764
 30
0.0
 11
23.4537067485
 21
-7.7230642264
 31
0.0
 11
23.3998978417
 21
-7.6706720254
 31
0.0
 11
23.3376239842
 21
-7.6093643287
 31
0.0
 11
23.2670329276
 21
-7.5391853764
 31
0.0
  0
SPLINE
  5
6D5
100
AcDbEntity
  8
ASSI
100
AcDbSpline
 62
7
  6
CONTINUOUS
 70
0
 71
3
 72
10
 73
6
 74
4
 42
0.0000001
 43
0.0000001
 44
0.0000000001
 12
0.1932247375
 22
0.1319117349
 32
0.0
 13
0.0047953966
 23
0.23390919
 33
0.0
 40
0.0
 40
0.0
 40
0.0
 40
0.0
 40
0.3373558539
 40
0.6687258877
 40
1.0
 40
1.0
 40
1.0
 40
1.0
 10
23.4537067485
 20
-7.7230642264
 30
0.0
 10
23.4754352472
 20
-7.7082304944
 30
0.0
 10
23.5148175293
 20
-7.6728241067
 30
0.0
 10
23.5557972697
 20
-7.6050693062
 30
0.0
 10
23.5664577059
 20
-7.5531622459
 30
0.0
 10
23.5669872361
 20
-7.5273328928
 30
0.0
 11
23.4537067485
 21
-7.7230642264
 31
0.0
 11
23.5121216779
 21
-7.6699869112
 31
0.0
 11
23.5516763694
 21
-7.6033098651
 31
0.0
 11
23.5669872361
 21
-7.5273328928
 31
0.0
  0
SPLINE
  5
6D6
100
AcDbEntity
  8
ASSI
100
AcDbSpline
 62
7
  6
CONTINUOUS
 70
0
 71
3
 72
10
 73
6
 74
4
 42
0.0000001
 43
0.0000001
 44
0.0000000001
 12
0.2111537282
 22
0.0378702165
 32
0.0
 13
0.151821365
 23
0.1515596362
 33
0.0
 40
0.0
 40
0.0
 40
0.0
 40
0.0
 40
0.3429101549
 40
0.6755847515
 40
1.0
 40
1.0
 40
1.0
 40
1.0
 10
23.2670329275
 20
-7.8227752181
 30
0.0
 10
23.2911685134
 20
-7.8184465241
 30
0.0
 10
23.3379000635
 20
-7.804401114
 30
0.0
 10
23.4008662075
 20
-7.7696332556
 30
0.0
 10
23.4372890265
 20
-7.7394536455
 30
0.0
 10
23.4537067485
 20
-7.7230642264
 30
0.0
 11
23.2670329275
 21
-7.8227752181
 31
0.0
 11
23.3375279309
 21
-7.801755433
 31
0.0
 11
23.4001170528
 21
-7.7674662125
 31
0.0
 11
23.4537067485
 21
-7.7230642264
 31
0.0
  0
SPLINE
  5
6D7
100
AcDbEntity
  8
ASSI
100
AcDbSpline
 62
7
  6
CONTINUOUS
 70
0
 71
3
 72
13
 73
9
 74
7
 42
0.0000001
 43
0.0000001
 44
0.0000000001
 12
-0.4360540282
 22
-0.0003592369
 32
0.0
 13
-0.0089035972
 23
0.4359632674
 33
0.0
 40
0.0
 40
0.0
 40
0.0
 40
0.0
 40
0.1762313956
 40
0.3431225387
 40
0.5099732983
 40
0.6748732839
 40
0.8372164229
 40
1.0
 40
1.0
 40
1.0
 40
1.0
 10
-23.3866475452
 20
-7.7807290899
 30
0.0
 10
-23.4122630152
 20
-7.7807501929
 30
0.0
 10
-23.4623092486
 20
-7.7751926821
 30
0.0
 10
-23.5330708553
 20
-7.7514179974
 30
0.0
 10
-23.5955871626
 20
-7.7134487525
 30
0.0
 10
-23.6466040351
 20
-7.6617319978
 30
0.0
 10
-23.6813149981
 20
-7.5984075985
 30
0.0
 10
-23.6902809892
 20
-7.5509887796
 30
0.0
 10
-23.690764109
 20
-7.5273328928
 30
0.0
 11
-23.3866475452
 21
-7.7807290899
 31
0.0
 11
-23.4630289432
 21
-7.7722877181
 31
0.0
 11
-23.5319596252
 21
-7.7489520153
 31
0.0
 11
-23.593975537
 21
-7.7109065435
 31
0.0
 11
-23.6441742441
 21
-7.6594238676
 31
0.0
 11
-23.6777772426
 21
-7.5971172086
 31
0.0
 11
-23.690764109
 21
-7.5273328928
 31
0.0
  0
SPLINE
  5
6D8
100
AcDbEntity
  8
ASSI
100
AcDbSpline
 62
253
  6
CONTINUOUS
 70
0
 71
3
 72
11
 73
7
 74
5
 42
0.0000001
 43
0.0000001
 44
0.0000000001
 12
-0.0069988224
 22
0.4010844298
 32
0.0
 13
-0.4011302123
 23
0.0035008769
 33
0.0
 40
0.0
 40
0.0
 40
0.0
 40
0.0
 40
0.2095153874
 40
0.4453794694
 40
0.7128570698
 40
1.0
 40
1.0
 40
1.0
 40
1.0
 10
-19.310833283
 20
5.6419023691
 30
0.0
 10
-19.31132207
 20
5.669913489
 30
0.0
 10
-19.3304175622
 20
5.7297807211
 30
0.0
 10
-19.4002644519
 20
5.7984351407
 30
0.0
 10
-19.4978698383
 20
5.843059515
 30
0.0
 10
-19.57239369
 20
5.8536993195
 30
0.0
 10
-19.6107875915
 20
5.8540344035
 30
0.0
 11
-19.310833283
 21
5.6419023691
 31
0.0
 11
-19.3347192251
 21
5.7224828725
 31
0.0
 11
-19.3999846072
 21
5.7909852949
 31
0.0
 11
-19.4968469071
 21
5.8371419191
 31
0.0
 11
-19.6107875915
 21
5.8540344035
 31
0.0
  0
SPLINE
  5
6D9
100
AcDbEntity
  8
ASSI
100
AcDbSpline
 62
253
  6
CONTINUOUS
 70
0
 71
3
 72
11
 73
7
 74
5
 42
0.0000001
 43
0.0000001
 44
0.0000000001
 12
-0.0069988137
 22
0.401084489
 32
0.0
 13
-0.401130273
 23
0.0035006841
 33
0.0
 40
0.0
 40
0.0
 40
0.0
 40
0.0
 40
0.2095120489
 40
0.4453745127
 40
0.7128531963
 40
1.0
 40
1.0
 40
1.0
 40
1.0
 10
-19.3231758777
 20
4.934795588
 30
0.0
 10
-19.3236646563
 20
4.9628062656
 30
0.0
 10
-19.3427595944
 20
5.0226728489
 30
0.0
 10
-19.4126055827
 20
5.0913274767
 30
0.0
 10
-19.5102112137
 20
5.1359525396
 30
0.0
 10
-19.5847357611
 20
5.1465925494
 30
0.0
 10
-19.6231301863
 20
5.1469276195
 30
0.0
 11
-19.3231758777
 21
4.934795588
 31
0.0
 11
-19.3470610945
 21
5.0153749224
 31
0.0
 11
-19.4123255183
 21
5.0838773805
 31
0.0
 11
-19.5091879752
 21
5.1300347217
 31
0.0
 11
-19.6231301863
 21
5.1469276195
 31
0.0
  0
SPLINE
  5
6DA
100
AcDbEntity
  8
ASSI
100
AcDbSpline
 62
253
  6
CONTINUOUS
 70
0
 71
3
 72
11
 73
7
 74
5
 42
0.0000001
 43
0.0000001
 44
0.0000000001
 12
0.0069988224
 22
0.4010844293
 32
0.0
 13
0.4011302117
 23
0.0035008838
 33
0.0
 40
0.0
 40
0.0
 40
0.0
 40
0.0
 40
0.2095153873
 40
0.4453794686
 40
0.7128570688
 40
1.0
 40
1.0
 40
1.0
 40
1.0
 10
-20.1006009952
 20
4.934795588
 30
0.0
 10
-20.1001122082
 20
4.9628067078
 30
0.0
 10
-20.081016716
 20
5.0226739397
 30
0.0
 10
-20.0111698262
 20
5.0913283589
 30
0.0
 10
-19.9135644396
 20
5.1359527323
 30
0.0
 10
-19.8390405882
 20
5.1465925376
 30
0.0
 10
-19.8006466866
 20
5.1469276223
 30
0.0
 11
-20.1006009952
 21
4.934795588
 31
0.0
 11
-20.0767150531
 21
5.0153760912
 31
0.0
 11
-20.0114496709
 21
5.083878513
 31
0.0
 11
-19.9145873711
 21
5.1300351367
 31
0.0
 11
-19.8006466866
 21
5.1469276223
 31
0.0
  0
SPLINE
  5
6DB
100
AcDbEntity
  8
ASSI
100
AcDbSpline
 62
253
  6
CONTINUOUS
 70
0
 71
3
 72
11
 73
7
 74
5
 42
0.0000001
 43
0.0000001
 44
0.0000000001
 12
0.0069988223
 22
0.4010844284
 32
0.0
 13
0.4011302109
 23
0.003500877
 33
0.0
 40
0.0
 40
0.0
 40
0.0
 40
0.0
 40
0.209515632
 40
0.4453798145
 40
0.7128573246
 40
1.0
 40
1.0
 40
1.0
 40
1.0
 10
-20.1129435899
 20
5.6419023691
 30
0.0
 10
-20.1124548024
 20
5.6699135216
 30
0.0
 10
-20.0933592719
 20
5.7297807996
 30
0.0
 10
-20.0235123213
 20
5.7984352044
 30
0.0
 10
-19.925906953
 20
5.8430595308
 30
0.0
 10
-19.8513831487
 20
5.8536993198
 30
0.0
 10
-19.8129892814
 20
5.8540344035
 30
0.0
 11
-20.1129435899
 21
5.6419023691
 31
0.0
 11
-20.089057596
 21
5.7224829592
 31
0.0
 11
-20.0237921504
 21
5.7909853763
 31
0.0
 11
-19.9269298665
 21
5.8371419488
 31
0.0
 11
-19.8129892814
 21
5.8540344035
 31
0.0
  0
SPLINE
  5
6DC
100
AcDbEntity
  8
ASSI
100
AcDbSpline
 62
7
  6
CONTINUOUS
 70
0
 71
3
 72
12
 73
8
 74
6
 42
0.0000001
 43
0.0000001
 44
0.0000000001
 12
0.3000739778
 22
-0.0
 32
0.0
 13
0.212185585
 23
0.2121831041
 33
0.0
 40
0.0
 40
0.0
 40
0.0
 40
0.0
 40
0.3053475036
 40
0.5820489604
 40
0.8022991747
 40
0.9467217969
 40
1.0
 40
1.0
 40
1.0
 40
1.0
 10
23.2654252838
 20
-5.0180459178
 30
0.0
 10
23.2959675638
 20
-5.0180459178
 30
0.0
 10
23.3543418815
 20
-5.0181774336
 30
0.0
 10
23.4339887344
 20
-5.0164144259
 30
0.0
 10
23.4996859916
 20
-5.0182382107
 30
0.0
 10
23.5384381095
 20
-5.0115101344
 30
0.0
 10
23.5616141888
 20
-5.016669097
 30
0.0
 10
23.5653824777
 20
-5.0129008522
 30
0.0
 11
23.2654252838
 21
-5.0180459178
 31
0.0
 11
23.3570517821
 21
-5.0177957077
 31
0.0
 11
23.4400794914
 21
-5.0170670279
 31
0.0
 11
23.5061611399
 21
-5.0159341851
 31
0.0
 11
23.5494746848
 21
-5.0144943255
 31
0.0
 11
23.5653824777
 21
-5.0129008522
 31
0.0
  0
SPLINE
  5
6DD
100
AcDbEntity
  8
ASSI
100
AcDbSpline
 62
7
  6
CONTINUOUS
 70
0
 71
3
 72
12
 73
8
 74
6
 42
0.0000001
 43
0.0000001
 44
0.0000000001
 12
0.212185585
 22
-0.2121831041
 32
0.0
 13
0.3000739778
 23
0.0
 33
0.0
 40
0.0
 40
0.0
 40
0.0
 40
0.0
 40
0.0532782031
 40
0.1977008253
 40
0.4179510396
 40
0.6946524964
 40
1.0
 40
1.0
 40
1.0
 40
1.0
 10
-23.6891593506
 20
-5.0129008522
 30
0.0
 10
-23.6853910617
 20
-5.016669097
 30
0.0
 10
-23.6622149824
 20
-5.0115101344
 30
0.0
 10
-23.6234628645
 20
-5.0182382107
 30
0.0
 10
-23.5577656073
 20
-5.0164144259
 30
0.0
 10
-23.4781187544
 20
-5.0181774336
 30
0.0
 10
-23.4197444367
 20
-5.0180459178
 30
0.0
 10
-23.3892021567
 20
-5.0180459178
 30
0.0
 11
-23.6891593506
 21
-5.0129008522
 31
0.0
 11
-23.6732515577
 21
-5.0144943255
 31
0.0
 11
-23.6299380128
 21
-5.0159341851
 31
0.0
 11
-23.5638563643
 21
-5.0170670279
 31
0.0
 11
-23.480828655
 21
-5.0177957077
 31
0.0
 11
-23.3892021567
 21
-5.0180459178
 31
0.0
  0
SPLINE
  5
6DE
100
AcDbEntity
  8
ASSI
100
AcDbSpline
 62
7
  6
CONTINUOUS
 70
0
 71
3
 72
12
 73
8
 74
6
 42
0.0000001
 43
0.0000001
 44
0.0000000001
 12
-0.2121858917
 22
0.2121865075
 32
0.0
 13
-0.3000766013
 23
0.0
 33
0.0
 40
0.0
 40
0.0
 40
0.0
 40
0.0
 40
0.0533078243
 40
0.1977742039
 40
0.4180472247
 40
0.6947316031
 40
1.0
 40
1.0
 40
1.0
 40
1.0
 10
23.5634403348
 20
-1.1841949791
 30
0.0
 10
23.5596699453
 20
-1.1804245787
 30
0.0
 10
23.5364850215
 20
-1.1855842852
 30
0.0
 10
23.4977235181
 20
-1.1788549554
 30
0.0
 10
23.4320208245
 20
-1.180677634
 30
0.0
 10
23.3523804425
 20
-1.1789147813
 30
0.0
 10
23.2940153115
 20
-1.1790460719
 30
0.0
 10
23.2634806771
 20
-1.1790460719
 30
0.0
 11
23.5634403348
 21
-1.1841949791
 31
0.0
 11
23.5475236279
 21
-1.1825999113
 31
0.0
 11
23.5041966045
 21
-1.1811588975
 31
0.0
 11
23.4381075456
 21
-1.1800253479
 31
0.0
 11
23.3550842383
 21
-1.1792963394
 31
0.0
 11
23.2634806771
 21
-1.1790460719
 31
0.0
  0
SPLINE
  5
6DF
100
AcDbEntity
  8
ASSI
100
AcDbSpline
 62
7
  6
CONTINUOUS
 70
0
 71
3
 72
12
 73
8
 74
6
 42
0.0000001
 43
0.0000001
 44
0.0000000001
 12
-0.3000766013
 22
-0.0
 32
0.0
 13
-0.2121858917
 23
-0.2121865075
 33
0.0
 40
0.0
 40
0.0
 40
0.0
 40
0.0
 40
0.3052683969
 40
0.5819527753
 40
0.8022257961
 40
0.9466921757
 40
1.0
 40
1.0
 40
1.0
 40
1.0
 10
-23.38725755
 20
-1.1790460719
 30
0.0
 10
-23.4177921843
 20
-1.1790460719
 30
0.0
 10
-23.4761573154
 20
-1.1789147813
 30
0.0
 10
-23.5557976974
 20
-1.180677634
 30
0.0
 10
-23.621500391
 20
-1.1788549554
 30
0.0
 10
-23.6602618944
 20
-1.1855842852
 30
0.0
 10
-23.6834468182
 20
-1.1804245787
 30
0.0
 10
-23.6872172077
 20
-1.1841949791
 30
0.0
 11
-23.38725755
 21
-1.1790460719
 31
0.0
 11
-23.4788611112
 21
-1.1792963394
 31
0.0
 11
-23.5618844185
 21
-1.1800253479
 31
0.0
 11
-23.6279734774
 21
-1.1811588975
 31
0.0
 11
-23.6713005008
 21
-1.1825999113
 31
0.0
 11
-23.6872172077
 21
-1.1841949791
 31
0.0
  0
SPLINE
  5
6E0
100
AcDbEntity
  8
ASSI
100
AcDbSpline
 62
7
  6
CONTINUOUS
 70
0
 71
3
 72
12
 73
8
 74
6
 42
0.0000001
 43
0.0000001
 44
0.0000000001
 12
0.2121856603
 22
-0.2121849679
 32
0.0
 13
0.300075349
 23
0.0
 33
0.0
 40
0.0
 40
0.0
 40
0.0
 40
0.0
 40
0.0532816106
 40
0.1977093993
 40
0.417962435
 40
0.694661992
 40
1.0
 40
1.0
 40
1.0
 40
1.0
 10
-23.6904136977
 20
-7.0116465051
 30
0.0
 10
-23.6866451665
 20
-7.015415024
 30
0.0
 10
-23.6634679429
 20
-7.0102559256
 30
0.0
 10
-23.6247146031
 20
-7.0169842029
 30
0.0
 10
-23.5590164322
 20
-7.0151605245
 30
0.0
 10
-23.4793700582
 20
-7.0169235269
 30
0.0
 10
-23.4209966212
 20
-7.0167920352
 30
0.0
 10
-23.3904551515
 20
-7.0167920352
 30
0.0
 11
-23.6904136977
 21
-7.0116465051
 31
0.0
 11
-23.6745048227
 21
-7.0132401675
 31
0.0
 11
-23.6311895331
 21
-7.0146801666
 31
0.0
 11
-23.5651067373
 21
-7.0158130967
 31
0.0
 11
-23.4820792191
 21
-7.0165418181
 31
0.0
 11
-23.3904551515
 21
-7.0167920352
 31
0.0
  0
SPLINE
  5
6E1
100
AcDbEntity
  8
ASSI
100
AcDbSpline
 62
7
  6
CONTINUOUS
 70
0
 71
3
 72
12
 73
8
 74
6
 42
0.0000001
 43
0.0000001
 44
0.0000000001
 12
-0.3000816659
 22
0.0
 32
0.0
 13
-0.2121905985
 23
-0.2121889631
 33
0.0
 40
0.0
 40
0.0
 40
0.0
 40
0.0
 40
0.305206335
 40
0.5818776397
 40
0.8021687507
 40
0.9466692379
 40
1.0
 40
1.0
 40
1.0
 40
1.0
 10
-23.3899752135
 20
-6.2817656608
 30
0.0
 10
-23.4205041553
 20
-6.2817656608
 30
0.0
 10
-23.4788626923
 20
-6.2816345506
 30
0.0
 10
-23.5584988621
 20
-6.2833972871
 30
0.0
 10
-23.6242064714
 20
-6.2815754754
 30
0.0
 10
-23.6629757763
 20
-6.2883057845
 30
0.0
 10
-23.6861677165
 20
-6.283145517
 30
0.0
 10
-23.689939812
 20
-6.2869175834
 30
0.0
 11
-23.3899752135
 21
-6.2817656608
 31
0.0
 11
-23.4815616969
 21
-6.282015977
 31
0.0
 11
-23.5645824799
 21
-6.2827452474
 31
0.0
 11
-23.6306780743
 21
-6.2838793558
 31
0.0
 11
-23.6740160405
 21
-6.285321275
 31
0.0
 11
-23.689939812
 21
-6.2869175834
 31
0.0
  0
SPLINE
  5
6E2
100
AcDbEntity
  8
ASSI
100
AcDbSpline
 62
7
  6
CONTINUOUS
 70
0
 71
3
 72
12
 73
8
 74
6
 42
0.0000001
 43
0.0000001
 44
0.0000000001
 12
0.2121821519
 22
-0.2121827803
 32
0.0
 13
0.3000713213
 23
-0.0
 33
0.0
 40
0.0
 40
0.0
 40
0.0
 40
0.0
 40
0.0532731
 40
0.1976880308
 40
0.4179339921
 40
0.6946382695
 40
1.0
 40
1.0
 40
1.0
 40
1.0
 10
-23.6864196264
 20
0.8843594236
 30
0.0
 10
-23.6826517594
 20
0.8805915455
 30
0.0
 10
-23.6594773192
 20
0.8857503948
 30
0.0
 10
-23.6207272108
 20
0.8790225362
 30
0.0
 10
-23.5550314022
 20
0.880846521
 30
0.0
 10
-23.4753840171
 20
0.8790834883
 30
0.0
 10
-23.4170084942
 20
0.8792150477
 30
0.0
 10
-23.3864650616
 20
0.8792150477
 30
0.0
 11
-23.6864196264
 21
0.8843594236
 31
0.0
 11
-23.6705134868
 21
0.8827662284
 31
0.0
 11
-23.6272026281
 21
0.8813265756
 31
0.0
 11
-23.5611228391
 21
0.8801938626
 31
0.0
 11
-23.4780950179
 21
0.8794652447
 31
0.0
 11
-23.3864650616
 21
0.8792150477
 31
0.0
  0
SPLINE
  5
6E3
100
AcDbEntity
  8
ASSI
100
AcDbSpline
 62
7
  6
CONTINUOUS
 70
0
 71
3
 72
12
 73
8
 74
6
 42
0.0000001
 43
0.0000001
 44
0.0000000001
 12
-0.3000744827
 22
-0.0
 32
0.0
 13
-0.2121844225
 23
-0.2121849807
 33
0.0
 40
0.0
 40
0.0
 40
0.0
 40
0.0
 40
0.3052957572
 40
0.5819859076
 40
0.8022509535
 40
0.9467022877
 40
1.0
 40
1.0
 40
1.0
 40
1.0
 10
-23.3862219252
 20
1.6219902867
 30
0.0
 10
-23.4167590807
 20
1.6219902867
 30
0.0
 10
-23.4751271408
 20
1.6221216556
 30
0.0
 10
-23.5547694145
 20
1.6203587546
 30
0.0
 10
-23.6204699565
 20
1.622181808
 30
0.0
 10
-23.6592280535
 20
1.615452925
 30
0.0
 10
-23.6824098709
 20
1.6206123676
 30
0.0
 10
-23.686179519
 20
1.6168427096
 30
0.0
 11
-23.3862219252
 21
1.6219902867
 31
0.0
 11
-23.4778330498
 21
1.6217400403
 31
0.0
 11
-23.5608575041
 21
1.6210111473
 31
0.0
 11
-23.6269437071
 21
1.6198778441
 31
0.0
 11
-23.6702659203
 21
1.6184372297
 31
0.0
 11
-23.686179519
 21
1.6168427096
 31
0.0
  0
SPLINE
  5
6E4
100
AcDbEntity
  8
ASSI
100
AcDbSpline
 62
7
  6
CONTINUOUS
 70
0
 71
3
 72
12
 73
8
 74
6
 42
0.0000001
 43
0.0000001
 44
0.0000000001
 12
-0.2121905985
 22
0.2121889632
 32
0.0
 13
-0.3000816659
 23
-0.0
 33
0.0
 40
0.0
 40
0.0
 40
0.0
 40
0.0
 40
0.0533307621
 40
0.1978312493
 40
0.4181223603
 40
0.694793665
 40
1.0
 40
1.0
 40
1.0
 40
1.0
 10
23.5661629391
 20
-6.2869175834
 30
0.0
 10
23.5623908436
 20
-6.283145517
 30
0.0
 10
23.5391989034
 20
-6.2883057845
 30
0.0
 10
23.5004295985
 20
-6.2815754754
 30
0.0
 10
23.4347219892
 20
-6.2833972871
 30
0.0
 10
23.3550858194
 20
-6.2816345506
 30
0.0
 10
23.2967272824
 20
-6.2817656608
 30
0.0
 10
23.2661983406
 20
-6.2817656608
 30
0.0
 11
23.5661629391
 21
-6.2869175834
 31
0.0
 11
23.5502391676
 21
-6.285321275
 31
0.0
 11
23.5069012015
 21
-6.2838793558
 31
0.0
 11
23.440805607
 21
-6.2827452474
 31
0.0
 11
23.357784824
 21
-6.282015977
 31
0.0
 11
23.2661983406
 21
-6.2817656608
 31
0.0
  0
SPLINE
  5
6E5
100
AcDbEntity
  8
ASSI
100
AcDbSpline
 62
7
  6
CONTINUOUS
 70
0
 71
3
 72
12
 73
8
 74
6
 42
0.0000001
 43
0.0000001
 44
0.0000000001
 12
0.300075349
 22
-0.0
 32
0.0
 13
0.2121856603
 23
0.2121849679
 33
0.0
 40
0.0
 40
0.0
 40
0.0
 40
0.0
 40
0.305338008
 40
0.582037565
 40
0.8022906007
 40
0.9467183894
 40
1.0
 40
1.0
 40
1.0
 40
1.0
 10
23.2666782786
 20
-7.0167920352
 30
0.0
 10
23.2972197483
 20
-7.0167920352
 30
0.0
 10
23.3555931854
 20
-7.0169235269
 30
0.0
 10
23.4352395593
 20
-7.0151605245
 30
0.0
 10
23.5009377302
 20
-7.0169842029
 30
0.0
 10
23.53969107
 20
-7.0102559256
 30
0.0
 10
23.5628682936
 20
-7.015415024
 30
0.0
 10
23.5666368248
 20
-7.0116465051
 30
0.0
 11
23.2666782786
 21
-7.0167920352
 31
0.0
 11
23.3583023462
 21
-7.0165418181
 31
0.0
 11
23.4413298644
 21
-7.0158130967
 31
0.0
 11
23.5074126602
 21
-7.0146801666
 31
0.0
 11
23.5507279498
 21
-7.0132401675
 31
0.0
 11
23.5666368248
 21
-7.0116465051
 31
0.0
  0
SPLINE
  5
6E6
100
AcDbEntity
  8
ASSI
100
AcDbSpline
 62
7
  6
CONTINUOUS
 70
0
 71
3
 72
12
 73
8
 74
6
 42
0.0000001
 43
0.0000001
 44
0.0000000001
 12
-0.2121844225
 22
0.2121849807
 32
0.0
 13
-0.3000744827
 23
0.0
 33
0.0
 40
0.0
 40
0.0
 40
0.0
 40
0.0
 40
0.0532977123
 40
0.1977490465
 40
0.4180140924
 40
0.6947042428
 40
1.0
 40
1.0
 40
1.0
 40
1.0
 10
23.5624026461
 20
1.6168427096
 30
0.0
 10
23.558632998
 20
1.6206123676
 30
0.0
 10
23.5354511806
 20
1.615452925
 30
0.0
 10
23.4966930836
 20
1.622181808
 30
0.0
 10
23.4309925416
 20
1.6203587546
 30
0.0
 10
23.3513502679
 20
1.6221216556
 30
0.0
 10
23.2929822078
 20
1.6219902867
 30
0.0
 10
23.2624450523
 20
1.6219902867
 30
0.0
 11
23.5624026461
 21
1.6168427096
 31
0.0
 11
23.5464890475
 21
1.6184372297
 31
0.0
 11
23.5031668342
 21
1.6198778441
 31
0.0
 11
23.4370806312
 21
1.6210111473
 31
0.0
 11
23.3540561769
 21
1.6217400403
 31
0.0
 11
23.2624450523
 21
1.6219902867
 31
0.0
  0
SPLINE
  5
6E7
100
AcDbEntity
  8
ASSI
100
AcDbSpline
 62
7
  6
CONTINUOUS
 70
0
 71
3
 72
12
 73
8
 74
6
 42
0.0000001
 43
0.0000001
 44
0.0000000001
 12
0.3000713213
 22
0.0
 32
0.0
 13
0.2121821519
 23
0.2121827803
 33
0.0
 40
0.0
 40
0.0
 40
0.0
 40
0.0
 40
0.3053617305
 40
0.5820660079
 40
0.8023119692
 40
0.9467269
 40
1.0
 40
1.0
 40
1.0
 40
1.0
 10
23.2626881887
 20
0.8792150477
 30
0.0
 10
23.2932316213
 20
0.8792150477
 30
0.0
 10
23.3516071442
 20
0.8790834883
 30
0.0
 10
23.4312545293
 20
0.880846521
 30
0.0
 10
23.4969503379
 20
0.8790225362
 30
0.0
 10
23.5357004463
 20
0.8857503948
 30
0.0
 10
23.5588748865
 20
0.8805915455
 30
0.0
 10
23.5626427535
 20
0.8843594236
 30
0.0
 11
23.2626881887
 21
0.8792150477
 31
0.0
 11
23.354318145
 21
0.8794652447
 31
0.0
 11
23.4373459662
 21
0.8801938626
 31
0.0
 11
23.5034257552
 21
0.8813265756
 31
0.0
 11
23.5467366139
 21
0.8827662284
 31
0.0
 11
23.5626427535
 21
0.8843594236
 31
0.0
  0
SPLINE
  5
6E8
100
AcDbEntity
  8
ASSI
100
AcDbSpline
 62
253
  6
CONTINUOUS
 70
0
 71
3
 72
11
 73
7
 74
5
 42
0.0000001
 43
0.0000001
 44
0.0000000001
 12
0.0069988224
 22
0.4010844293
 32
0.0
 13
0.4011302117
 23
0.0035008838
 33
0.0
 40
0.0
 40
0.0
 40
0.0
 40
0.0
 40
0.2095153873
 40
0.4453794686
 40
0.7128570688
 40
1.0
 40
1.0
 40
1.0
 40
1.0
 10
19.1993990048
 20
4.934795588
 30
0.0
 10
19.1998877918
 20
4.9628067078
 30
0.0
 10
19.218983284
 20
5.0226739397
 30
0.0
 10
19.2888301738
 20
5.0913283589
 30
0.0
 10
19.3864355604
 20
5.1359527323
 30
0.0
 10
19.4609594118
 20
5.1465925376
 30
0.0
 10
19.4993533134
 20
5.1469276223
 30
0.0
 11
19.1993990048
 21
4.934795588
 31
0.0
 11
19.2232849469
 21
5.0153760912
 31
0.0
 11
19.2885503291
 21
5.083878513
 31
0.0
 11
19.3854126289
 21
5.1300351367
 31
0.0
 11
19.4993533134
 21
5.1469276223
 31
0.0
  0
SPLINE
  5
6E9
100
AcDbEntity
  8
ASSI
100
AcDbSpline
 62
253
  6
CONTINUOUS
 70
0
 71
3
 72
11
 73
7
 74
5
 42
0.0000001
 43
0.0000001
 44
0.0000000001
 12
0.0069988223
 22
0.4010844284
 32
0.0
 13
0.4011302109
 23
0.003500877
 33
0.0
 40
0.0
 40
0.0
 40
0.0
 40
0.0
 40
0.209515632
 40
0.4453798145
 40
0.7128573246
 40
1.0
 40
1.0
 40
1.0
 40
1.0
 10
19.1870564101
 20
5.6419023691
 30
0.0
 10
19.1875451976
 20
5.6699135216
 30
0.0
 10
19.2066407281
 20
5.7297807996
 30
0.0
 10
19.2764876787
 20
5.7984352044
 30
0.0
 10
19.374093047
 20
5.8430595308
 30
0.0
 10
19.4486168513
 20
5.8536993198
 30
0.0
 10
19.4870107186
 20
5.8540344035
 30
0.0
 11
19.1870564101
 21
5.6419023691
 31
0.0
 11
19.210942404
 21
5.7224829592
 31
0.0
 11
19.2762078496
 21
5.7909853763
 31
0.0
 11
19.3730701335
 21
5.8371419488
 31
0.0
 11
19.4870107186
 21
5.8540344035
 31
0.0
  0
SPLINE
  5
6EA
100
AcDbEntity
  8
ASSI
100
AcDbSpline
 62
253
  6
CONTINUOUS
 70
0
 71
3
 72
11
 73
7
 74
5
 42
0.0000001
 43
0.0000001
 44
0.0000000001
 12
-0.0069988224
 22
0.4010844298
 32
0.0
 13
-0.4011302123
 23
0.0035008769
 33
0.0
 40
0.0
 40
0.0
 40
0.0
 40
0.0
 40
0.2095153874
 40
0.4453794694
 40
0.7128570698
 40
1.0
 40
1.0
 40
1.0
 40
1.0
 10
19.989166717
 20
5.6419023691
 30
0.0
 10
19.98867793
 20
5.669913489
 30
0.0
 10
19.9695824378
 20
5.7297807211
 30
0.0
 10
19.8997355481
 20
5.7984351407
 30
0.0
 10
19.8021301617
 20
5.843059515
 30
0.0
 10
19.72760631
 20
5.8536993195
 30
0.0
 10
19.6892124085
 20
5.8540344035
 30
0.0
 11
19.989166717
 21
5.6419023691
 31
0.0
 11
19.9652807749
 21
5.7224828725
 31
0.0
 11
19.9000153928
 21
5.7909852949
 31
0.0
 11
19.8031530929
 21
5.8371419191
 31
0.0
 11
19.6892124085
 21
5.8540344035
 31
0.0
  0
SPLINE
  5
6EB
100
AcDbEntity
  8
ASSI
100
AcDbSpline
 62
253
  6
CONTINUOUS
 70
0
 71
3
 72
11
 73
7
 74
5
 42
0.0000001
 43
0.0000001
 44
0.0000000001
 12
-0.0069988137
 22
0.401084489
 32
0.0
 13
-0.401130273
 23
0.0035006841
 33
0.0
 40
0.0
 40
0.0
 40
0.0
 40
0.0
 40
0.2095120489
 40
0.4453745127
 40
0.7128531963
 40
1.0
 40
1.0
 40
1.0
 40
1.0
 10
19.9768241223
 20
4.934795588
 30
0.0
 10
19.9763353437
 20
4.9628062656
 30
0.0
 10
19.9572404056
 20
5.0226728489
 30
0.0
 10
19.8873944173
 20
5.0913274767
 30
0.0
 10
19.7897887863
 20
5.1359525396
 30
0.0
 10
19.7152642389
 20
5.1465925494
 30
0.0
 10
19.6768698137
 20
5.1469276195
 30
0.0
 11
19.9768241223
 21
4.934795588
 31
0.0
 11
19.9529389055
 21
5.0153749224
 31
0.0
 11
19.8876744817
 21
5.0838773805
 31
0.0
 11
19.7908120248
 21
5.1300347217
 31
0.0
 11
19.6768698137
 21
5.1469276195
 31
0.0
  0
SPLINE
  5
6EC
100
AcDbEntity
  8
ASSI
100
AcDbSpline
 62
253
  6
CONTINUOUS
 70
0
 71
3
 72
12
 73
8
 74
6
 42
0.0000001
 43
0.0000001
 44
0.0000000001
 12
0.188162755
 22
0.4631952088
 32
0.0
 13
0.000001281
 23
0.4999550218
 33
0.0
 40
0.0
 40
0.0
 40
0.0
 40
0.0
 40
0.0533471248
 40
0.1972618061
 40
0.417998053
 40
0.6944311848
 40
1.0
 40
1.0
 40
1.0
 40
1.0
 10
19.496945721
 20
2.9093608618
 30
0.0
 10
19.5002917017
 20
2.9175975727
 30
0.0
 10
19.4949613863
 20
2.9519190116
 30
0.0
 10
19.5011202228
 20
3.0202860575
 30
0.0
 10
19.4990408738
 20
3.1277818423
 30
0.0
 10
19.5005495879
 20
3.2613036405
 30
0.0
 10
19.5003756769
 20
3.3583611548
 30
0.0
 10
19.5003758074
 20
3.4092847094
 30
0.0
 11
19.496945721
 21
2.9093608618
 31
0.0
 11
19.498011073
 21
2.9360107391
 31
0.0
 11
19.4989672318
 21
3.0079552532
 31
0.0
 11
19.4997235945
 21
3.1183108564
 31
0.0
 11
19.500208827
 21
3.256514137
 31
0.0
 11
19.5003758074
 21
3.4092847094
 31
0.0
  0
SPLINE
  5
6ED
100
AcDbEntity
  8
ASSI
100
AcDbSpline
 62
253
  6
CONTINUOUS
 70
0
 71
3
 72
12
 73
8
 74
6
 42
0.0000001
 43
0.0000001
 44
0.0000000001
 12
0.000001281
 22
-0.4999550218
 32
0.0
 13
0.1881627568
 23
-0.4631952081
 33
0.0
 40
0.0
 40
0.0
 40
0.0
 40
0.0
 40
0.305568815
 40
0.5820019468
 40
0.8027381938
 40
0.9466528751
 40
1.0
 40
1.0
 40
1.0
 40
1.0
 10
19.6758473197
 20
3.4092847094
 30
0.0
 10
19.6758474502
 20
3.3583611549
 30
0.0
 10
19.6756735392
 20
3.2613036406
 30
0.0
 10
19.6771822533
 20
3.1277818424
 30
0.0
 10
19.6751029043
 20
3.0202860575
 30
0.0
 10
19.6812617408
 20
2.9519190117
 30
0.0
 10
19.6759314254
 20
2.9175975727
 30
0.0
 10
19.6792774061
 20
2.9093608618
 30
0.0
 11
19.6758473197
 21
3.4092847094
 31
0.0
 11
19.6760143001
 21
3.2565141371
 31
0.0
 11
19.6764995326
 21
3.1183108565
 31
0.0
 11
19.6772558953
 21
3.0079552533
 31
0.0
 11
19.6782120541
 21
2.9360107391
 31
0.0
 11
19.6792774061
 21
2.9093608618
 31
0.0
  0
SPLINE
  5
6EE
100
AcDbEntity
  8
ASSI
100
AcDbSpline
 62
253
  6
CONTINUOUS
 70
0
 71
3
 72
12
 73
8
 74
6
 42
0.0000001
 43
0.0000001
 44
0.0000000001
 12
0.000001281
 22
-0.4999550218
 32
0.0
 13
0.1881627568
 23
-0.4631952081
 33
0.0
 40
0.0
 40
0.0
 40
0.0
 40
0.0
 40
0.305568815
 40
0.5820019468
 40
0.8027381938
 40
0.9466528751
 40
1.0
 40
1.0
 40
1.0
 40
1.0
 10
-19.6241526803
 20
3.4092847094
 30
0.0
 10
-19.6241525498
 20
3.3583611549
 30
0.0
 10
-19.6243264608
 20
3.2613036406
 30
0.0
 10
-19.6228177467
 20
3.1277818424
 30
0.0
 10
-19.6248970957
 20
3.0202860575
 30
0.0
 10
-19.6187382592
 20
2.9519190117
 30
0.0
 10
-19.6240685746
 20
2.9175975727
 30
0.0
 10
-19.6207225939
 20
2.9093608618
 30
0.0
 11
-19.6241526803
 21
3.4092847094
 31
0.0
 11
-19.6239856999
 21
3.2565141371
 31
0.0
 11
-19.6235004674
 21
3.1183108565
 31
0.0
 11
-19.6227441047
 21
3.0079552533
 31
0.0
 11
-19.6217879459
 21
2.9360107391
 31
0.0
 11
-19.6207225939
 21
2.9093608618
 31
0.0
  0
SPLINE
  5
6EF
100
AcDbEntity
  8
ASSI
100
AcDbSpline
 62
253
  6
CONTINUOUS
 70
0
 71
3
 72
9
 73
5
 74
3
 42
0.0000001
 43
0.0000001
 44
0.0000000001
 12
0.0053452793
 22
-1.6468770511
 32
0.0
 13
0.0076765735
 23
-1.6468678343
 33
0.0
 40
0.0
 40
0.0
 40
0.0
 40
0.0
 40
0.5000137269
 40
1.0
 40
1.0
 40
1.0
 40
1.0
 10
-4.3038354755
 20
5.4240735122
 30
0.0
 10
-4.3029445712
 20
5.1495864682
 30
0.0
 10
-4.3009684903
 20
4.6006280647
 30
0.0
 10
-4.2986039542
 20
4.051671197
 30
0.0
 10
-4.2973245604
 20
3.7772007601
 30
0.0
 11
-4.3038354755
 21
5.4240735122
 31
0.0
 11
-4.3008713169
 21
4.6006133777
 31
0.0
 11
-4.2973245604
 21
3.7772007601
 31
0.0
  0
SPLINE
  5
6F0
100
AcDbEntity
  8
ASSI
100
AcDbSpline
 62
253
  6
CONTINUOUS
 70
0
 71
3
 72
9
 73
5
 74
3
 42
0.0000001
 43
0.0000001
 44
0.0000000001
 12
0.0076765735
 22
1.6468678343
 32
0.0
 13
0.0053452793
 23
1.6468770511
 33
0.0
 40
0.0
 40
0.0
 40
0.0
 40
0.0
 40
0.499986712
 40
1.0
 40
1.0
 40
1.0
 40
1.0
 10
4.1735476875
 20
3.7772007601
 30
0.0
 10
4.1748270824
 20
4.051671438
 30
0.0
 10
4.1771916184
 20
4.6006283057
 30
0.0
 10
4.179167699
 20
5.1495867092
 30
0.0
 10
4.1800586026
 20
5.4240735122
 30
0.0
 11
4.1735476875
 21
3.7772007601
 31
0.0
 11
4.1770944469
 21
4.6006141006
 31
0.0
 11
4.1800586026
 21
5.4240735122
 31
0.0
  0
SPLINE
  5
6F1
100
AcDbEntity
  8
ASSI
100
AcDbSpline
 62
253
  6
CONTINUOUS
 70
0
 71
3
 72
12
 73
8
 74
6
 42
0.0000001
 43
0.0000001
 44
0.0000000001
 12
0.188162755
 22
0.4631952088
 32
0.0
 13
0.000001281
 23
0.4999550218
 33
0.0
 40
0.0
 40
0.0
 40
0.0
 40
0.0
 40
0.0533471248
 40
0.1972618061
 40
0.417998053
 40
0.6944311848
 40
1.0
 40
1.0
 40
1.0
 40
1.0
 10
-19.803054279
 20
2.9093608618
 30
0.0
 10
-19.7997082983
 20
2.9175975727
 30
0.0
 10
-19.8050386137
 20
2.9519190116
 30
0.0
 10
-19.7988797772
 20
3.0202860575
 30
0.0
 10
-19.8009591262
 20
3.1277818423
 30
0.0
 10
-19.7994504121
 20
3.2613036405
 30
0.0
 10
-19.7996243231
 20
3.3583611548
 30
0.0
 10
-19.7996241926
 20
3.4092847094
 30
0.0
 11
-19.803054279
 21
2.9093608618
 31
0.0
 11
-19.801988927
 21
2.9360107391
 31
0.0
 11
-19.8010327682
 21
3.0079552532
 31
0.0
 11
-19.8002764055
 21
3.1183108564
 31
0.0
 11
-19.799791173
 21
3.256514137
 31
0.0
 11
-19.7996241926
 21
3.4092847094
 31
0.0
  0
SPLINE
  5
6F2
100
AcDbEntity
  8
ASSI
100
AcDbSpline
 62
253
  6
CONTINUOUS
 70
0
 71
3
 72
11
 73
7
 74
5
 42
0.0000001
 43
0.0000001
 44
0.0000000001
 12
-0.0098905691
 22
0.5656197527
 32
0.0
 13
-0.0000105791
 23
0.5657062205
 33
0.0
 40
0.0
 40
0.0
 40
0.0
 40
0.0
 40
0.203753628
 40
0.4534050995
 40
0.7280845227
 40
1.0
 40
1.0
 40
1.0
 40
1.0
 10
19.1870564101
 20
5.6419023691
 30
0.0
 10
19.1863846636
 20
5.6803180614
 30
0.0
 10
19.185186616
 20
5.765808224
 30
0.0
 10
19.183917189
 20
5.9030967193
 30
0.0
 10
19.183137579
 20
6.0532422434
 30
0.0
 10
19.1829673928
 20
6.1563130351
 30
0.0
 10
19.1829664339
 20
6.2075877941
 30
0.0
 11
19.1870564101
 21
5.6419023691
 31
0.0
 11
19.1853901927
 21
5.7571550203
 31
0.0
 11
19.184051689
 21
5.8983780677
 31
0.0
 11
19.183227045
 21
6.0537637379
 31
0.0
 11
19.1829664339
 21
6.2075877941
 31
0.0
  0
SPLINE
  5
6F3
100
AcDbEntity
  8
ASSI
100
AcDbSpline
 62
253
  6
CONTINUOUS
 70
0
 71
3
 72
10
 73
6
 74
4
 42
0.0000001
 43
0.0000001
 44
0.0000000001
 12
0.000000142
 22
0.1414264683
 32
0.0
 13
-0.0024701873
 23
0.1414048942
 33
0.0
 40
0.0
 40
0.0
 40
0.0
 40
0.0
 40
0.3658056966
 40
0.7062804612
 40
1.0
 40
1.0
 40
1.0
 40
1.0
 10
19.2004214989
 20
4.7933742317
 30
0.0
 10
19.2004215162
 20
4.810619101
 30
0.0
 10
19.2003477324
 20
4.8439147543
 30
0.0
 10
19.2000193142
 20
4.891055908
 30
0.0
 10
19.1996408523
 20
4.9209511279
 30
0.0
 10
19.1993990048
 20
4.934795588
 30
0.0
 11
19.2004214989
 21
4.7933742317
 31
0.0
 11
19.2003026559
 21
4.845108703
 31
0.0
 11
19.1999549093
 21
4.8932595908
 31
0.0
 11
19.1993990048
 21
4.934795588
 31
0.0
  0
SPLINE
  5
6F4
100
AcDbEntity
  8
ASSI
100
AcDbSpline
 62
253
  6
CONTINUOUS
 70
0
 71
3
 72
12
 73
8
 74
6
 42
0.0000001
 43
0.0000001
 44
0.0000000001
 12
0.1431629629
 22
0.1397257719
 32
0.0
 13
0.0000002731
 23
0.2000473076
 33
0.0
 40
0.0
 40
0.0
 40
0.0
 40
0.0
 40
0.053680495
 40
0.1976944885
 40
0.4183849018
 40
0.6946711573
 40
1.0
 40
1.0
 40
1.0
 40
1.0
 10
19.1969914125
 20
3.2093151704
 30
0.0
 10
19.1995530987
 20
3.2118153532
 30
0.0
 10
19.196029692
 20
3.2273402387
 30
0.0
 10
19.2005752534
 20
3.2531448617
 30
0.0
 10
19.1993253431
 20
3.2969484902
 30
0.0
 10
19.2005123395
 20
3.3500347575
 30
0.0
 10
19.2004214711
 20
3.3889246384
 30
0.0
 10
19.2004214989
 20
3.4092847094
 30
0.0
 11
19.1969914125
 21
3.2093151704
 31
0.0
 11
19.1980578015
 21
3.2200007294
 31
0.0
 11
19.1990134627
 21
3.2487944863
 31
0.0
 11
19.1997698429
 21
3.2929365294
 31
0.0
 11
19.2002546919
 21
3.3482047243
 31
0.0
 11
19.2004214989
 21
3.4092847094
 31
0.0
  0
SPLINE
  5
6F5
100
AcDbEntity
  8
ASSI
100
AcDbSpline
 62
253
  6
CONTINUOUS
 70
0
 71
3
 72
12
 73
8
 74
6
 42
0.0000001
 43
0.0000001
 44
0.0000000001
 12
0.0000002731
 22
-0.2000473076
 32
0.0
 13
0.1431629629
 23
-0.1397257719
 33
0.0
 40
0.0
 40
0.0
 40
0.0
 40
0.0
 40
0.3053288425
 40
0.581615098
 40
0.8023055113
 40
0.9463195049
 40
1.0
 40
1.0
 40
1.0
 40
1.0
 10
19.9758016282
 20
3.4092847094
 30
0.0
 10
19.975801656
 20
3.3889246384
 30
0.0
 10
19.9757107876
 20
3.3500347575
 30
0.0
 10
19.976897784
 20
3.2969484902
 30
0.0
 10
19.9756478737
 20
3.2531448617
 30
0.0
 10
19.9801934351
 20
3.2273402387
 30
0.0
 10
19.9766700284
 20
3.2118153532
 30
0.0
 10
19.9792317146
 20
3.2093151704
 30
0.0
 11
19.9758016282
 21
3.4092847094
 31
0.0
 11
19.9759684352
 21
3.3482047243
 31
0.0
 11
19.9764532843
 21
3.2929365294
 31
0.0
 11
19.9772096644
 21
3.2487944863
 31
0.0
 11
19.9781653256
 21
3.2200007294
 31
0.0
 11
19.9792317146
 21
3.2093151704
 31
0.0
  0
SPLINE
  5
6F6
100
AcDbEntity
  8
ASSI
100
AcDbSpline
 62
253
  6
CONTINUOUS
 70
0
 71
3
 72
10
 73
6
 74
4
 42
0.0000001
 43
0.0000001
 44
0.0000000001
 12
-0.0024701868
 22
-0.1414048942
 32
0.0
 13
0.0000001414
 23
-0.1414264683
 33
0.0
 40
0.0
 40
0.0
 40
0.0
 40
0.0
 40
0.2937195618
 40
0.6341943926
 40
1.0
 40
1.0
 40
1.0
 40
1.0
 10
19.9768241223
 20
4.934795588
 30
0.0
 10
19.9765822749
 20
4.9209511268
 30
0.0
 10
19.9762038129
 20
4.8910559027
 30
0.0
 10
19.9758753946
 20
4.843914749
 30
0.0
 10
19.975801611
 20
4.8106190968
 30
0.0
 10
19.9758016282
 20
4.7933742317
 30
0.0
 11
19.9768241223
 21
4.934795588
 31
0.0
 11
19.9762682178
 21
4.8932595875
 31
0.0
 11
19.9759204711
 21
4.8451086904
 31
0.0
 11
19.9758016282
 21
4.7933742317
 31
0.0
  0
SPLINE
  5
6F7
100
AcDbEntity
  8
ASSI
100
AcDbSpline
 62
253
  6
CONTINUOUS
 70
0
 71
3
 72
11
 73
7
 74
5
 42
0.0000001
 43
0.0000001
 44
0.0000000001
 12
-0.0000102035
 22
-0.56570622
 32
0.0
 13
-0.0098911393
 23
-0.5656197423
 33
0.0
 40
0.0
 40
0.0
 40
0.0
 40
0.0
 40
0.27116473
 40
0.5456360084
 40
0.7955929365
 40
1.0
 40
1.0
 40
1.0
 40
1.0
 10
19.9932566932
 20
6.2075877941
 30
0.0
 10
19.9932557709
 20
6.1564546026
 30
0.0
 10
19.9930862895
 20
6.0535646289
 30
0.0
 10
19.992309094
 20
5.9035423126
 30
0.0
 10
19.991040297
 20
5.7661122385
 30
0.0
 10
19.9898406566
 20
5.6804412593
 30
0.0
 10
19.989166717
 20
5.6419023691
 30
0.0
 11
19.9932566932
 21
6.2075877941
 31
0.0
 11
19.9929975304
 21
6.0541884386
 31
0.0
 11
19.9921754003
 21
5.8989205057
 31
0.0
 11
19.990837326
 21
5.7575246479
 31
0.0
 11
19.989166717
 21
5.6419023691
 31
0.0
  0
SPLINE
  5
6F8
100
AcDbEntity
  8
ASSI
100
AcDbSpline
 62
253
  6
CONTINUOUS
 70
0
 71
3
 72
12
 73
8
 74
6
 42
0.0000001
 43
0.0000001
 44
0.0000000001
 12
0.0000002731
 22
-0.2000473076
 32
0.0
 13
0.1431629629
 23
-0.1397257719
 33
0.0
 40
0.0
 40
0.0
 40
0.0
 40
0.0
 40
0.3053288425
 40
0.581615098
 40
0.8023055113
 40
0.9463195049
 40
1.0
 40
1.0
 40
1.0
 40
1.0
 10
-19.3241983718
 20
3.4092847094
 30
0.0
 10
-19.324198344
 20
3.3889246384
 30
0.0
 10
-19.3242892124
 20
3.3500347575
 30
0.0
 10
-19.323102216
 20
3.2969484902
 30
0.0
 10
-19.3243521263
 20
3.2531448617
 30
0.0
 10
-19.3198065649
 20
3.2273402387
 30
0.0
 10
-19.3233299716
 20
3.2118153532
 30
0.0
 10
-19.3207682854
 20
3.2093151704
 30
0.0
 11
-19.3241983718
 21
3.4092847094
 31
0.0
 11
-19.3240315648
 21
3.3482047243
 31
0.0
 11
-19.3235467157
 21
3.2929365294
 31
0.0
 11
-19.3227903356
 21
3.2487944863
 31
0.0
 11
-19.3218346744
 21
3.2200007294
 31
0.0
 11
-19.3207682854
 21
3.2093151704
 31
0.0
  0
SPLINE
  5
6F9
100
AcDbEntity
  8
ASSI
100
AcDbSpline
 62
253
  6
CONTINUOUS
 70
0
 71
3
 72
10
 73
6
 74
4
 42
0.0000001
 43
0.0000001
 44
0.0000000001
 12
-0.0024701868
 22
-0.1414048942
 32
0.0
 13
0.0000001414
 23
-0.1414264683
 33
0.0
 40
0.0
 40
0.0
 40
0.0
 40
0.0
 40
0.2937195618
 40
0.6341943926
 40
1.0
 40
1.0
 40
1.0
 40
1.0
 10
-19.3231758777
 20
4.934795588
 30
0.0
 10
-19.3234177251
 20
4.9209511268
 30
0.0
 10
-19.3237961871
 20
4.8910559027
 30
0.0
 10
-19.3241246054
 20
4.843914749
 30
0.0
 10
-19.324198389
 20
4.8106190968
 30
0.0
 10
-19.3241983718
 20
4.7933742317
 30
0.0
 11
-19.3231758777
 21
4.934795588
 31
0.0
 11
-19.3237317822
 21
4.8932595875
 31
0.0
 11
-19.3240795289
 21
4.8451086904
 31
0.0
 11
-19.3241983718
 21
4.7933742317
 31
0.0
  0
SPLINE
  5
6FA
100
AcDbEntity
  8
ASSI
100
AcDbSpline
 62
253
  6
CONTINUOUS
 70
0
 71
3
 72
11
 73
7
 74
5
 42
0.0000001
 43
0.0000001
 44
0.0000000001
 12
-0.0000102035
 22
-0.56570622
 32
0.0
 13
-0.0098911393
 23
-0.5656197423
 33
0.0
 40
0.0
 40
0.0
 40
0.0
 40
0.0
 40
0.27116473
 40
0.5456360084
 40
0.7955929365
 40
1.0
 40
1.0
 40
1.0
 40
1.0
 10
-19.3067433068
 20
6.2075877941
 30
0.0
 10
-19.3067442291
 20
6.1564546026
 30
0.0
 10
-19.3069137105
 20
6.0535646289
 30
0.0
 10
-19.307690906
 20
5.9035423126
 30
0.0
 10
-19.308959703
 20
5.7661122385
 30
0.0
 10
-19.3101593434
 20
5.6804412593
 30
0.0
 10
-19.310833283
 20
5.6419023691
 30
0.0
 11
-19.3067433068
 21
6.2075877941
 31
0.0
 11
-19.3070024696
 21
6.0541884386
 31
0.0
 11
-19.3078245997
 21
5.8989205057
 31
0.0
 11
-19.309162674
 21
5.7575246479
 31
0.0
 11
-19.310833283
 21
5.6419023691
 31
0.0
  0
SPLINE
  5
6FB
100
AcDbEntity
  8
ASSI
100
AcDbSpline
 62
253
  6
CONTINUOUS
 70
0
 71
3
 72
11
 73
7
 74
5
 42
0.0000001
 43
0.0000001
 44
0.0000000001
 12
-0.0098905691
 22
0.5656197527
 32
0.0
 13
-0.0000105791
 23
0.5657062205
 33
0.0
 40
0.0
 40
0.0
 40
0.0
 40
0.0
 40
0.203753628
 40
0.4534050995
 40
0.7280845227
 40
1.0
 40
1.0
 40
1.0
 40
1.0
 10
-20.1129435899
 20
5.6419023691
 30
0.0
 10
-20.1136153364
 20
5.6803180614
 30
0.0
 10
-20.114813384
 20
5.765808224
 30
0.0
 10
-20.116082811
 20
5.9030967193
 30
0.0
 10
-20.116862421
 20
6.0532422434
 30
0.0
 10
-20.1170326072
 20
6.1563130351
 30
0.0
 10
-20.1170335661
 20
6.2075877941
 30
0.0
 11
-20.1129435899
 21
5.6419023691
 31
0.0
 11
-20.1146098073
 21
5.7571550203
 31
0.0
 11
-20.115948311
 21
5.8983780677
 31
0.0
 11
-20.116772955
 21
6.0537637379
 31
0.0
 11
-20.1170335661
 21
6.2075877941
 31
0.0
  0
SPLINE
  5
6FC
100
AcDbEntity
  8
ASSI
100
AcDbSpline
 62
253
  6
CONTINUOUS
 70
0
 71
3
 72
10
 73
6
 74
4
 42
0.0000001
 43
0.0000001
 44
0.0000000001
 12
0.000000142
 22
0.1414264683
 32
0.0
 13
-0.0024701873
 23
0.1414048942
 33
0.0
 40
0.0
 40
0.0
 40
0.0
 40
0.0
 40
0.3658056966
 40
0.7062804612
 40
1.0
 40
1.0
 40
1.0
 40
1.0
 10
-20.0995785011
 20
4.7933742317
 30
0.0
 10
-20.0995784838
 20
4.810619101
 30
0.0
 10
-20.0996522676
 20
4.8439147543
 30
0.0
 10
-20.0999806858
 20
4.891055908
 30
0.0
 10
-20.1003591477
 20
4.9209511279
 30
0.0
 10
-20.1006009952
 20
4.934795588
 30
0.0
 11
-20.0995785011
 21
4.7933742317
 31
0.0
 11
-20.0996973441
 21
4.845108703
 31
0.0
 11
-20.1000450907
 21
4.8932595908
 31
0.0
 11
-20.1006009952
 21
4.934795588
 31
0.0
  0
SPLINE
  5
6FD
100
AcDbEntity
  8
ASSI
100
AcDbSpline
 62
253
  6
CONTINUOUS
 70
0
 71
3
 72
12
 73
8
 74
6
 42
0.0000001
 43
0.0000001
 44
0.0000000001
 12
0.1431629629
 22
0.1397257719
 32
0.0
 13
0.0000002731
 23
0.2000473076
 33
0.0
 40
0.0
 40
0.0
 40
0.0
 40
0.0
 40
0.053680495
 40
0.1976944885
 40
0.4183849018
 40
0.6946711573
 40
1.0
 40
1.0
 40
1.0
 40
1.0
 10
-20.1030085875
 20
3.2093151704
 30
0.0
 10
-20.1004469013
 20
3.2118153532
 30
0.0
 10
-20.103970308
 20
3.2273402387
 30
0.0
 10
-20.0994247466
 20
3.2531448617
 30
0.0
 10
-20.1006746569
 20
3.2969484902
 30
0.0
 10
-20.0994876605
 20
3.3500347575
 30
0.0
 10
-20.0995785289
 20
3.3889246384
 30
0.0
 10
-20.0995785011
 20
3.4092847094
 30
0.0
 11
-20.1030085875
 21
3.2093151704
 31
0.0
 11
-20.1019421985
 21
3.2200007294
 31
0.0
 11
-20.1009865373
 21
3.2487944863
 31
0.0
 11
-20.1002301571
 21
3.2929365294
 31
0.0
 11
-20.0997453081
 21
3.3482047243
 31
0.0
 11
-20.0995785011
 21
3.4092847094
 31
0.0
  0
SPLINE
  5
6FE
100
AcDbEntity
  8
ASSI
100
AcDbSpline
 62
253
  6
CONTINUOUS
 70
0
 71
3
 72
9
 73
5
 74
3
 42
0.0000001
 43
0.0000001
 44
0.0000000001
 12
0.0003603394
 22
-6.1661325534
 32
0.0
 13
0.0019281047
 23
-6.1661322625
 33
0.0
 40
0.0
 40
0.0
 40
0.0
 40
0.0
 40
0.500035562
 40
1.0
 40
1.0
 40
1.0
 40
1.0
 10
23.5612584848
 20
7.7829751549
 30
0.0
 10
23.5613185457
 20
6.7552133028
 30
0.0
 10
23.5615692917
 20
4.6998357906
 30
0.0
 10
23.5620813182
 20
2.6444583268
 30
0.0
 10
23.5624026461
 20
1.6168427096
 30
0.0
 11
23.5612584848
 21
7.7829751549
 31
0.0
 11
23.5616346389
 21
4.6996896162
 31
0.0
 11
23.5624026461
 21
1.6168427096
 31
0.0
  0
LINE
  5
6FF
100
AcDbEntity
  8
ASSI
100
AcDbLine
 62
253
  6
CONTINUOUS
 10
23.5626427535
 20
0.8843594236
 11
23.5634403348
 21
-1.1841949791
  0
LINE
  5
700
100
AcDbEntity
  8
ASSI
100
AcDbLine
 62
253
  6
CONTINUOUS
 10
23.5653824777
 20
-5.0129008522
 11
23.5661629391
 21
-6.2869175834
  0
LINE
  5
701
100
AcDbEntity
  8
ASSI
100
AcDbLine
 62
253
  6
CONTINUOUS
 10
23.5666368248
 20
-7.0116465051
 11
23.5669872362
 21
-7.5273328933
  0
LINE
  5
702
100
AcDbEntity
  8
ASSI
100
AcDbLine
 62
253
  6
CONTINUOUS
 10
-23.689939812
 20
-6.2869175834
 11
-23.6891593506
 21
-5.0129008522
  0
LINE
  5
703
100
AcDbEntity
  8
ASSI
100
AcDbLine
 62
253
  6
CONTINUOUS
 10
-23.6907641091
 20
-7.5273328933
 11
-23.6904136977
 21
-7.0116465051
  0
LINE
  5
704
100
AcDbEntity
  8
ASSI
100
AcDbLine
 62
253
  6
CONTINUOUS
 10
-23.6872172077
 20
-1.1841949791
 11
-23.6864196264
 21
0.8843594236
  0
SPLINE
  5
705
100
AcDbEntity
  8
ASSI
100
AcDbSpline
 62
253
  6
CONTINUOUS
 70
0
 71
3
 72
9
 73
5
 74
3
 42
0.0000001
 43
0.0000001
 44
0.0000000001
 12
0.0019281047
 22
6.1661322625
 32
0.0
 13
0.0003603394
 23
6.1661325534
 33
0.0
 40
0.0
 40
0.0
 40
0.0
 40
0.0
 40
0.4999644739
 40
1.0
 40
1.0
 40
1.0
 40
1.0
 10
-23.686179519
 20
1.6168427096
 30
0.0
 10
-23.685858191
 20
2.6444584006
 30
0.0
 10
-23.6853461646
 20
4.6998358643
 30
0.0
 10
-23.6850954185
 20
6.7552133766
 30
0.0
 10
-23.6850353577
 20
7.7829751549
 30
0.0
 11
-23.686179519
 21
1.6168427096
 31
0.0
 11
-23.6854115118
 21
4.6996898375
 31
0.0
 11
-23.6850353577
 21
7.7829751549
 31
0.0
  0
SPLINE
  5
706
100
AcDbEntity
  8
ASSI
100
AcDbSpline
 62
7
  6
CONTINUOUS
 70
0
 71
3
 72
12
 73
8
 74
6
 42
0.0000001
 43
0.0000001
 44
0.0000000001
 12
0.3000708432
 22
-0.0
 32
0.0
 13
0.2121821359
 23
0.2121821203
 33
0.0
 40
0.0
 40
0.0
 40
0.0
 40
0.0
 40
0.3053517528
 40
0.5820537449
 40
0.8023025256
 40
0.9467230498
 40
1.0
 40
1.0
 40
1.0
 40
1.0
 10
23.2613044184
 20
7.777830297
 30
0.0
 10
23.2918468044
 20
7.777830297
 30
0.0
 10
23.350220997
 20
7.7776987682
 30
0.0
 10
23.4298673368
 20
7.7794617712
 30
0.0
 10
23.4955636315
 20
7.7776379458
 30
0.0
 10
23.5343148512
 20
7.7843659249
 30
0.0
 10
23.5574903458
 20
7.7792070162
 30
0.0
 10
23.5612584848
 20
7.7829751549
 30
0.0
 11
23.2613044184
 21
7.777830297
 31
0.0
 11
23.3529312347
 21
7.7780805011
 31
0.0
 11
23.4359582375
 21
7.7788091588
 31
0.0
 11
23.5020387659
 21
7.7799419591
 31
0.0
 11
23.54535123
 21
7.7813817568
 31
0.0
 11
23.5612584848
 21
7.7829751549
 31
0.0
  0
SPLINE
  5
707
100
AcDbEntity
  8
ASSI
100
AcDbSpline
 62
7
  6
CONTINUOUS
 70
0
 71
3
 72
12
 73
8
 74
6
 42
0.0000001
 43
0.0000001
 44
0.0000000001
 12
0.2121821359
 22
-0.2121821203
 32
0.0
 13
0.3000708432
 23
0.0
 33
0.0
 40
0.0
 40
0.0
 40
0.0
 40
0.0
 40
0.0532769502
 40
0.1976974744
 40
0.4179462551
 40
0.6946482472
 40
1.0
 40
1.0
 40
1.0
 40
1.0
 10
-23.6850353577
 20
7.7829751549
 30
0.0
 10
-23.6812672187
 20
7.7792070162
 30
0.0
 10
-23.6580917241
 20
7.7843659249
 30
0.0
 10
-23.6193405044
 20
7.7776379458
 30
0.0
 10
-23.5536442097
 20
7.7794617712
 30
0.0
 10
-23.4739978699
 20
7.7776987682
 30
0.0
 10
-23.4156236773
 20
7.777830297
 30
0.0
 10
-23.3850812913
 20
7.777830297
 30
0.0
 11
-23.6850353577
 21
7.7829751549
 31
0.0
 11
-23.6691281029
 21
7.7813817568
 31
0.0
 11
-23.6258156388
 21
7.7799419591
 31
0.0
 11
-23.5597351104
 21
7.7788091588
 31
0.0
 11
-23.4767081076
 21
7.7780805011
 31
0.0
 11
-23.3850812913
 21
7.777830297
 31
0.0
  0
SPLINE
  5
708
100
AcDbEntity
  8
ASSI
100
AcDbSpline
 62
253
  6
CONTINUOUS
 70
0
 71
3
 72
11
 73
7
 74
5
 42
0.0000001
 43
0.0000001
 44
0.0000000001
 12
-0.0098689072
 22
0.3534493123
 32
0.0
 13
-0.0000004971
 23
0.3535870638
 33
0.0
 40
0.0
 40
0.0
 40
0.0
 40
0.0
 40
0.2035823994
 40
0.4531925193
 40
0.7278954329
 40
1.0
 40
1.0
 40
1.0
 40
1.0
 10
19.4870104393
 20
5.8540455061
 30
0.0
 10
19.4863407273
 20
5.8780308591
 30
0.0
 10
19.4851409648
 20
5.9314325519
 30
0.0
 10
19.4838722527
 20
6.0172152685
 30
0.0
 10
19.4830923318
 20
6.1110802681
 30
0.0
 10
19.4829207566
 20
6.1755284156
 30
0.0
 10
19.4829207115
 20
6.2075993006
 30
0.0
 11
19.4870104393
 21
5.8540455061
 31
0.0
 11
19.485345524
 21
5.9260103525
 31
0.0
 11
19.4840067412
 21
6.0142591075
 31
0.0
 11
19.4831816304
 21
6.1113869994
 31
0.0
 11
19.4829207115
 21
6.2075993006
 31
0.0
  0
SPLINE
  5
709
100
AcDbEntity
  8
ASSI
100
AcDbSpline
 62
253
  6
CONTINUOUS
 70
0
 71
3
 72
11
 73
7
 74
5
 42
0.0000001
 43
0.0000001
 44
0.0000000001
 12
-0.0000004828
 22
-0.3535861826
 32
0.0
 13
-0.0098690566
 23
-0.3534484266
 33
0.0
 40
0.0
 40
0.0
 40
0.0
 40
0.0
 40
0.2713497641
 40
0.5458509931
 40
0.7957709277
 40
1.0
 40
1.0
 40
1.0
 40
1.0
 10
19.6933024147
 20
6.2075989701
 30
0.0
 10
19.693302371
 20
6.1756171277
 30
0.0
 10
19.6931315549
 20
6.1112818757
 30
0.0
 10
19.6923540206
 20
6.0174933127
 30
0.0
 10
19.6910859614
 20
5.9316218284
 30
0.0
 10
19.689884551
 20
5.8781075374
 30
0.0
 10
19.6892127016
 20
5.854046056
 30
0.0
 11
19.6933024147
 21
6.2075989701
 31
0.0
 11
19.6930429532
 21
6.1116537937
 31
0.0
 11
19.6922203427
 21
6.0145974381
 31
0.0
 11
19.6908819627
 21
5.9262393382
 31
0.0
 11
19.6892127016
 21
5.854046056
 31
0.0
  0
SPLINE
  5
70A
100
AcDbEntity
  8
ASSI
100
AcDbSpline
 62
253
  6
CONTINUOUS
 70
0
 71
3
 72
11
 73
7
 74
5
 42
0.0000001
 43
0.0000001
 44
0.0000000001
 12
-0.0000004828
 22
-0.3535861826
 32
0.0
 13
-0.0098690566
 23
-0.3534484266
 33
0.0
 40
0.0
 40
0.0
 40
0.0
 40
0.0
 40
0.2713497641
 40
0.5458509931
 40
0.7957709277
 40
1.0
 40
1.0
 40
1.0
 40
1.0
 10
-19.6066975853
 20
6.2075989701
 30
0.0
 10
-19.606697629
 20
6.1756171277
 30
0.0
 10
-19.6068684451
 20
6.1112818757
 30
0.0
 10
-19.6076459794
 20
6.0174933127
 30
0.0
 10
-19.6089140386
 20
5.9316218284
 30
0.0
 10
-19.610115449
 20
5.8781075374
 30
0.0
 10
-19.6107872984
 20
5.854046056
 30
0.0
 11
-19.6066975853
 21
6.2075989701
 31
0.0
 11
-19.6069570468
 21
6.1116537937
 31
0.0
 11
-19.6077796573
 21
6.0145974381
 31
0.0
 11
-19.6091180373
 21
5.9262393382
 31
0.0
 11
-19.6107872984
 21
5.854046056
 31
0.0
  0
SPLINE
  5
70B
100
AcDbEntity
  8
ASSI
100
AcDbSpline
 62
253
  6
CONTINUOUS
 70
0
 71
3
 72
11
 73
7
 74
5
 42
0.0000001
 43
0.0000001
 44
0.0000000001
 12
-0.0098689072
 22
0.3534493123
 32
0.0
 13
-0.0000004971
 23
0.3535870638
 33
0.0
 40
0.0
 40
0.0
 40
0.0
 40
0.0
 40
0.2035823994
 40
0.4531925193
 40
0.7278954329
 40
1.0
 40
1.0
 40
1.0
 40
1.0
 10
-19.8129895607
 20
5.8540455061
 30
0.0
 10
-19.8136592727
 20
5.8780308591
 30
0.0
 10
-19.8148590352
 20
5.9314325519
 30
0.0
 10
-19.8161277473
 20
6.0172152685
 30
0.0
 10
-19.8169076682
 20
6.1110802681
 30
0.0
 10
-19.8170792434
 20
6.1755284156
 30
0.0
 10
-19.8170792885
 20
6.2075993006
 30
0.0
 11
-19.8129895607
 21
5.8540455061
 31
0.0
 11
-19.814654476
 21
5.9260103525
 31
0.0
 11
-19.8159932588
 21
6.0142591075
 31
0.0
 11
-19.8168183696
 21
6.1113869994
 31
0.0
 11
-19.8170792885
 21
6.2075993006
 31
0.0
  0
SPLINE
  5
70C
100
AcDbEntity
  8
ASSI
100
AcDbSpline
 62
7
  6
CONTINUOUS
 70
0
 71
3
 72
11
 73
7
 74
5
 42
0.0000001
 43
0.0000001
 44
0.0000000001
 12
0.1877591259
 22
0.0090044273
 32
0.0
 13
0.1879749161
 23
0.0
 33
0.0
 40
0.0
 40
0.0
 40
0.0
 40
0.0
 40
0.1566793638
 40
0.3898272684
 40
0.6785348125
 40
1.0
 40
1.0
 40
1.0
 40
1.0
 10
4.1800586026
 20
5.4240735122
 30
0.0
 10
4.1898645961
 20
5.4245437815
 30
0.0
 10
4.2142858756
 20
5.4251696668
 30
0.0
 10
4.2567952328
 20
5.42584701
 30
0.0
 10
4.3096355819
 20
5.4262703047
 30
0.0
 10
4.3478678666
 20
5.4263710245
 30
0.0
 10
4.3680103305
 20
5.4263710245
 30
0.0
 11
4.1800586026
 21
5.4240735122
 31
0.0
 11
4.2094955431
 21
5.4250086498
 31
0.0
 11
4.2533154007
 21
5.4257398513
 31
0.0
 11
4.3075831592
 21
5.4262078446
 31
0.0
 11
4.3680103305
 21
5.4263710245
 31
0.0
  0
SPLINE
  5
70D
100
AcDbEntity
  8
ASSI
100
AcDbSpline
 62
7
  6
CONTINUOUS
 70
0
 71
3
 72
11
 73
7
 74
5
 42
0.0000001
 43
0.0000001
 44
0.0000000001
 12
-0.1879629154
 22
0.0
 32
0.0
 13
-0.1877471389
 23
0.0090038568
 33
0.0
 40
0.0
 40
0.0
 40
0.0
 40
0.0
 40
0.3215242523
 40
0.6102453572
 40
0.8433660718
 40
1.0
 40
1.0
 40
1.0
 40
1.0
 10
4.3614874257
 20
3.774903971
 30
0.0
 10
4.3413425471
 20
3.774903971
 30
0.0
 10
4.303108153
 20
3.7750046739
 30
0.0
 10
4.2502683297
 20
3.7754278773
 30
0.0
 10
4.2077653858
 20
3.7761050256
 30
0.0
 10
4.1833502115
 20
3.776730657
 30
0.0
 10
4.1735476875
 20
3.7772007601
 30
0.0
 11
4.3614874257
 21
3.774903971
 31
0.0
 11
4.3010530101
 21
3.7750671393
 31
0.0
 11
4.2467861667
 21
3.7755350481
 31
0.0
 11
4.202974215
 21
3.7762660203
 31
0.0
 11
4.1735476875
 21
3.7772007601
 31
0.0
  0
SPLINE
  5
70E
100
AcDbEntity
  8
ASSI
100
AcDbSpline
 62
7
  6
CONTINUOUS
 70
0
 71
3
 72
11
 73
7
 74
5
 42
0.0000001
 43
0.0000001
 44
0.0000000001
 12
-0.1877471389
 22
-0.0090038568
 32
0.0
 13
-0.1879629155
 23
0.0
 33
0.0
 40
0.0
 40
0.0
 40
0.0
 40
0.0
 40
0.1566339282
 40
0.3897546428
 40
0.6784757477
 40
1.0
 40
1.0
 40
1.0
 40
1.0
 10
-4.2973245604
 20
3.7772007601
 30
0.0
 10
-4.3071270844
 20
3.776730657
 30
0.0
 10
-4.3315422587
 20
3.7761050256
 30
0.0
 10
-4.3740452026
 20
3.7754278773
 30
0.0
 10
-4.4268850259
 20
3.7750046739
 30
0.0
 10
-4.46511942
 20
3.774903971
 30
0.0
 10
-4.4852642986
 20
3.774903971
 30
0.0
 11
-4.2973245604
 21
3.7772007601
 31
0.0
 11
-4.3267510879
 21
3.7762660203
 31
0.0
 11
-4.3705630396
 21
3.7755350481
 31
0.0
 11
-4.424829883
 21
3.7750671393
 31
0.0
 11
-4.4852642986
 21
3.774903971
 31
0.0
  0
SPLINE
  5
70F
100
AcDbEntity
  8
ASSI
100
AcDbSpline
 62
7
  6
CONTINUOUS
 70
0
 71
3
 72
11
 73
7
 74
5
 42
0.0000001
 43
0.0000001
 44
0.0000000001
 12
0.1879749161
 22
0.0
 32
0.0
 13
0.1877591259
 23
-0.0090044273
 33
0.0
 40
0.0
 40
0.0
 40
0.0
 40
0.0
 40
0.3214651875
 40
0.6101727316
 40
0.8433206362
 40
1.0
 40
1.0
 40
1.0
 40
1.0
 10
-4.4917872034
 20
5.4263710245
 30
0.0
 10
-4.4716447395
 20
5.4263710245
 30
0.0
 10
-4.4334124548
 20
5.4262703047
 30
0.0
 10
-4.3805721057
 20
5.42584701
 30
0.0
 10
-4.3380627485
 20
5.4251696668
 30
0.0
 10
-4.313641469
 20
5.4245437815
 30
0.0
 10
-4.3038354755
 20
5.4240735122
 30
0.0
 11
-4.4917872034
 21
5.4263710245
 31
0.0
 11
-4.4313600321
 21
5.4262078446
 31
0.0
 11
-4.3770922736
 21
5.4257398513
 31
0.0
 11
-4.333272416
 21
5.4250086498
 31
0.0
 11
-4.3038354755
 21
5.4240735122
 31
0.0
  0
ELLIPSE
  5
710
100
AcDbEntity
  8
RACCORDO
100
AcDbEllipse
 62
7
  6
CONTINUOUS
 10
24.4745804736
 20
-9.2427634773
 30
0.0
 11
0.2183310446
 21
0.1221043275
 31
0.0
 40
0.9980297029
 41
-2.0815635429
 42
-0.5109195152
  0
ELLIPSE
  5
711
100
AcDbEntity
  8
RACCORDO
100
AcDbEllipse
 62
7
  6
CONTINUOUS
 10
-24.5983573465
 20
-9.2427634773
 30
0.0
 11
0.2183310446
 21
-0.1221043275
 31
0.0
 40
0.9980297029
 41
-2.6306731384
 42
-1.0600291107
  0
ELLIPSE
  5
712
100
AcDbEntity
  8
RACCORDO
100
AcDbEllipse
 62
7
  6
CONTINUOUS
 10
-24.6048683285
 20
8.7434609049
 30
0.0
 11
-0.1768305473
 21
0.1768305473
 31
0.0
 40
0.9996954599
 41
-0.7852458701
 42
0.7852458701
  0
ELLIPSE
  5
713
100
AcDbEntity
  8
RACCORDO
100
AcDbEllipse
 62
7
  6
CONTINUOUS
 10
24.4810914556
 20
8.7434609049
 30
0.0
 11
-0.1768305473
 21
-0.1768305473
 31
0.0
 40
0.9996954599
 41
2.3563467834
 42
3.9268385237
  0
ELLIPSE
  5
714
100
AcDbEntity
  8
RACCORDO
100
AcDbEllipse
 62
7
  6
CONTINUOUS
 10
-24.86014293
 20
8.0429249971
 30
0.0
 11
0.0
 21
0.3
 31
0.0
 40
0.0174550649
 41
-3.1241393611
 42
-1.5707963268
  0
ELLIPSE
  5
715
100
AcDbEntity
  8
RACCORDO
100
AcDbEllipse
 62
7
  6
CONTINUOUS
 10
24.7363660571
 20
8.0429249971
 30
0.0
 11
-0.0
 21
0.3
 31
0.0
 40
0.0174550649
 41
-4.7123889804
 42
-3.1590459461
  0
ELLIPSE
  5
716
100
AcDbEntity
  8
DRAFT
100
AcDbEllipse
 62
7
  6
CONTINUOUS
 10
29.6611301678
 20
9.2004810129
 30
0.0
 11
0.0
 21
423.7
 31
0.0
 40
0.0174550649
 41
-4.6945015721
 42
-4.6927481945
  0
ELLIPSE
  5
717
100
AcDbEntity
  8
DRAFT
100
AcDbEllipse
 62
7
  6
CONTINUOUS
 10
29.6611301678
 20
9.2004810129
 30
0.0
 11
0.0
 21
423.7
 31
0.0
 40
0.0174550649
 41
-4.675840257
 42
-4.6741042615
  0
ELLIPSE
  5
718
100
AcDbEntity
  8
RACCORDO
100
AcDbEllipse
 62
7
  6
CONTINUOUS
 10
11.0825480242
 20
9.2004810129
 30
0.0
 11
0.0
 21
423.7
 31
0.0
 40
0.0174550649
 41
-1.6103149114
 42
-1.60848535
  0
ELLIPSE
  5
719
100
AcDbEntity
  8
RACCORDO
100
AcDbEllipse
 62
7
  6
CONTINUOUS
 10
24.9936751029
 20
9.2004810129
 30
0.0
 11
0.0
 21
423.7
 31
0.0
 40
0.0174550649
 41
-4.6746999572
 42
-4.6722996927
  0
ELLIPSE
  5
71A
100
AcDbEntity
  8
RACCORDO
100
AcDbEllipse
 62
7
  6
CONTINUOUS
 10
-0.1174519758
 20
9.2004810129
 30
0.0
 11
0.0
 21
423.7
 31
0.0
 40
0.0174550649
 41
-1.6108856145
 42
-1.60848535
  0
ELLIPSE
  5
71B
100
AcDbEntity
  8
RACCORDO
100
AcDbEllipse
 62
7
  6
CONTINUOUS
 10
13.7936751029
 20
9.2004810129
 30
0.0
 11
0.0
 21
423.7
 31
0.0
 40
0.0174550649
 41
-4.6746999572
 42
-4.6728703958
  0
ELLIPSE
  5
71C
100
AcDbEntity
  8
RACCORDO
100
AcDbEllipse
 62
7
  6
CONTINUOUS
 10
-13.9174519758
 20
9.2004810129
 30
0.0
 11
0.0
 21
423.7
 31
0.0
 40
0.0174550649
 41
-1.6103149114
 42
-1.60848535
  0
ELLIPSE
  5
71D
100
AcDbEntity
  8
RACCORDO
100
AcDbEllipse
 62
7
  6
CONTINUOUS
 10
23.3241018132
 20
-8.103829419
 30
0.0
 11
-0.0300136675
 21
0.3031910442
 31
0.0
 40
0.9846622838
 41
-3.2387599651
 42
-1.6709942215
  0
ELLIPSE
  5
71E
100
AcDbEntity
  8
RACCORDO
100
AcDbEllipse
 62
7
  6
CONTINUOUS
 10
-23.4478786861
 20
-8.103829419
 30
0.0
 11
0.0300136675
 21
0.3031910442
 31
0.0
 40
0.9846622838
 41
-4.6121910857
 42
-3.0444253421
  0
ELLIPSE
  5
71F
100
AcDbEntity
  8
RACCORDO
100
AcDbEllipse
 62
7
  6
CONTINUOUS
 10
-19.6066976154
 20
7.7952444934
 30
0.0
 11
0.3
 21
0.0
 31
0.0
 40
0.0174550649
 41
0.0174532925
 42
1.5707963268
  0
ELLIPSE
  5
720
100
AcDbEntity
  8
RACCORDO
100
AcDbEllipse
 62
7
  6
CONTINUOUS
 10
-0.0063248971
 20
9.2004810129
 30
0.0
 11
0.0
 21
423.7
 31
0.0
 40
0.0174550649
 41
-4.6746999572
 42
-4.6728703958
  0
ELLIPSE
  5
721
100
AcDbEntity
  8
RACCORDO
100
AcDbEllipse
 62
7
  6
CONTINUOUS
 10
-25.1174519758
 20
9.2004810129
 30
0.0
 11
0.0
 21
423.7
 31
0.0
 40
0.0174550649
 41
-1.6103149114
 42
-1.60848535
  0
ELLIPSE
  5
722
100
AcDbEntity
  8
RACCORDO
100
AcDbEllipse
 62
7
  6
CONTINUOUS
 10
-11.2063248971
 20
9.2004810129
 30
0.0
 11
0.0
 21
423.7
 31
0.0
 40
0.0174550649
 41
-4.6746999572
 42
-4.6722996927
  0
ELLIPSE
  5
723
100
AcDbEntity
  8
DRAFT
100
AcDbEllipse
 62
7
  6
CONTINUOUS
 10
-29.7849070407
 20
9.2004810129
 30
0.0
 11
0.0
 21
423.7
 31
0.0
 40
0.0174550649
 41
-1.6090810457
 42
-1.6073450502
  0
ELLIPSE
  5
724
100
AcDbEntity
  8
DRAFT
100
AcDbEllipse
 62
7
  6
CONTINUOUS
 10
31.2517829471
 20
9.2004810129
 30
0.0
 11
0.0
 21
423.7
 31
0.0
 40
0.0174550649
 41
-4.6861185815
 42
-4.6805882475
  0
ELLIPSE
  5
725
100
AcDbEntity
  8
DRAFT
100
AcDbEllipse
 62
7
  6
CONTINUOUS
 10
15.52444018
 20
9.2004810129
 30
0.0
 11
0.0
 21
423.7
 31
0.0
 40
0.0174550649
 41
-1.6025970597
 42
-1.5970667257
  0
ELLIPSE
  5
726
100
AcDbEntity
  8
DRAFT
100
AcDbEllipse
 62
7
  6
CONTINUOUS
 10
-31.37555982
 20
9.2004810129
 30
0.0
 11
0.0
 21
423.7
 31
0.0
 40
0.0174550649
 41
-1.6025970597
 42
-1.5970667257
  0
ELLIPSE
  5
727
100
AcDbEntity
  8
DRAFT
100
AcDbEllipse
 62
7
  6
CONTINUOUS
 10
-15.6482170529
 20
9.2004810129
 30
0.0
 11
0.0
 21
423.7
 31
0.0
 40
0.0174550649
 41
-4.6861185815
 42
-4.6805882475
  0
ELLIPSE
  5
728
100
AcDbEntity
  8
RACCORDO
100
AcDbEllipse
 62
7
  6
CONTINUOUS
 10
-19.8170792575
 20
7.7952444934
 30
0.0
 11
0.3
 21
-0.0
 31
0.0
 40
0.0174550649
 41
1.5707963268
 42
3.1241393611
  0
ELLIPSE
  5
729
100
AcDbEntity
  8
RACCORDO
100
AcDbEllipse
 62
7
  6
CONTINUOUS
 10
19.4829207425
 20
7.7952444934
 30
0.0
 11
0.3
 21
0.0
 31
0.0
 40
0.0174550649
 41
1.5707963268
 42
3.1241393611
  0
ELLIPSE
  5
72A
100
AcDbEntity
  8
RACCORDO
100
AcDbEllipse
 62
7
  6
CONTINUOUS
 10
-7.3910292183
 20
-7.5273328922
 30
0.0
 11
-0.0
 21
0.3
 31
0.0
 40
0.0174550649
 41
-4.6728703958
 42
-3.3161255788
  0
ELLIPSE
  5
72B
100
AcDbEntity
  8
RACCORDO
100
AcDbEllipse
 62
7
  6
CONTINUOUS
 10
-6.5327476546
 20
-7.5273328922
 30
0.0
 11
-0.0
 21
0.3
 31
0.0
 40
0.0174550649
 41
-2.9670597284
 42
-1.6103149114
  0
ELLIPSE
  5
72C
100
AcDbEntity
  8
RACCORDO
100
AcDbEllipse
 62
7
  6
CONTINUOUS
 10
6.4089707817
 20
-7.5273328922
 30
0.0
 11
-0.0
 21
0.3
 31
0.0
 40
0.0174550649
 41
-4.6728703958
 42
-3.3161255788
  0
ELLIPSE
  5
72D
100
AcDbEntity
  8
RACCORDO
100
AcDbEllipse
 62
7
  6
CONTINUOUS
 10
18.4672523454
 20
-7.5273328922
 30
0.0
 11
-0.0
 21
0.3
 31
0.0
 40
0.0174550649
 41
-2.9670597284
 42
-1.6103149114
  0
ELLIPSE
  5
72E
100
AcDbEntity
  8
RACCORDO
100
AcDbEllipse
 62
7
  6
CONTINUOUS
 10
-17.7327476546
 20
-7.5273328922
 30
0.0
 11
0.0
 21
0.3
 31
0.0
 40
0.0174550649
 41
-2.9670597284
 42
-1.6103149114
  0
ELLIPSE
  5
72F
100
AcDbEntity
  8
DRAFT
100
AcDbEllipse
 62
7
  6
CONTINUOUS
 10
-29.7849070407
 20
9.2004810129
 30
0.0
 11
0.0
 21
423.7
 31
0.0
 40
0.0174550649
 41
-1.5904371127
 42
-1.588683735
  0
ELLIPSE
  5
730
100
AcDbEntity
  8
RACCORDO
100
AcDbEllipse
 62
7
  6
CONTINUOUS
 10
-22.7416077452
 20
-6.9698453767
 30
0.0
 11
0.3
 21
-0.0
 31
0.0
 40
0.0174550649
 41
0.0174532925
 42
1.5707963268
  0
ELLIPSE
  5
731
100
AcDbEntity
  8
RACCORDO
100
AcDbEllipse
 62
7
  6
CONTINUOUS
 10
-22.7416077452
 20
-6.3291925975
 30
0.0
 11
0.3
 21
-0.0
 31
0.0
 40
0.0174550649
 41
-1.5707963268
 42
-0.0174532925
  0
ELLIPSE
  5
732
100
AcDbEntity
  8
RACCORDO
100
AcDbEllipse
 62
7
  6
CONTINUOUS
 10
-22.7416077452
 20
0.9301546233
 30
0.0
 11
0.3
 21
-0.0
 31
0.0
 40
0.0174550649
 41
0.0174532925
 42
1.5707963268
  0
ELLIPSE
  5
733
100
AcDbEntity
  8
RACCORDO
100
AcDbEllipse
 62
7
  6
CONTINUOUS
 10
-22.7416077452
 20
1.5708074025
 30
0.0
 11
0.3
 21
0.0
 31
0.0
 40
0.0174550649
 41
-1.5707963268
 42
-0.0174532925
  0
ELLIPSE
  5
734
100
AcDbEntity
  8
RACCORDO
100
AcDbEllipse
 62
7
  6
CONTINUOUS
 10
22.6178308723
 20
-6.3291925975
 30
0.0
 11
0.3
 21
-0.0
 31
0.0
 40
0.0174550649
 41
-3.1241393611
 42
-1.5707963268
  0
ELLIPSE
  5
735
100
AcDbEntity
  8
RACCORDO
100
AcDbEllipse
 62
7
  6
CONTINUOUS
 10
22.6178308723
 20
-6.9698453767
 30
0.0
 11
0.3
 21
-0.0
 31
0.0
 40
0.0174550649
 41
1.5707963268
 42
3.1241393611
  0
ELLIPSE
  5
736
100
AcDbEntity
  8
RACCORDO
100
AcDbEllipse
 62
7
  6
CONTINUOUS
 10
22.6178308723
 20
1.5708074025
 30
0.0
 11
0.3
 21
0.0
 31
0.0
 40
0.0174550649
 41
-3.1241393611
 42
-1.5707963268
  0
ELLIPSE
  5
737
100
AcDbEntity
  8
RACCORDO
100
AcDbEllipse
 62
7
  6
CONTINUOUS
 10
22.6178308723
 20
0.9301546233
 30
0.0
 11
0.3
 21
-0.0
 31
0.0
 40
0.0174550649
 41
1.5707963268
 42
3.1241393611
  0
ELLIPSE
  5
738
100
AcDbEntity
  8
RACCORDO
100
AcDbEllipse
 62
7
  6
CONTINUOUS
 10
-12.7388698322
 20
9.2004810129
 30
0.0
 11
0.0
 21
423.7
 31
0.0
 40
0.0174550649
 41
-4.7090312901
 42
-4.6981756364
  0
ELLIPSE
  5
739
100
AcDbEntity
  8
RACCORDO
100
AcDbEllipse
 62
7
  6
CONTINUOUS
 10
19.6933023846
 20
7.7952444934
 30
0.0
 11
0.3
 21
0.0
 31
0.0
 40
0.0174550649
 41
0.0174532925
 42
1.5707963268
  0
ELLIPSE
  5
73A
100
AcDbEntity
  8
RACCORDO
100
AcDbEllipse
 62
7
  6
CONTINUOUS
 10
-26.6849070407
 20
9.2004810129
 30
0.0
 11
0.0
 21
423.7
 31
0.0
 40
0.0174550649
 41
-1.5850096708
 42
-1.5741540171
  0
ELLIPSE
  5
73B
100
AcDbEntity
  8
RACCORDO
100
AcDbEllipse
 62
7
  6
CONTINUOUS
 10
26.5611301678
 20
9.2004810129
 30
0.0
 11
0.0
 21
423.7
 31
0.0
 40
0.0174550649
 41
-4.7090312901
 42
-4.6981756364
  0
ELLIPSE
  5
73C
100
AcDbEntity
  8
RACCORDO
100
AcDbEllipse
 62
7
  6
CONTINUOUS
 10
12.6150929593
 20
9.2004810129
 30
0.0
 11
0.0
 21
423.7
 31
0.0
 40
0.0174550649
 41
-1.5850096708
 42
-1.5741540171
  0
ELLIPSE
  5
73D
100
AcDbEntity
  8
RACCORDO
100
AcDbEllipse
 62
7
  6
CONTINUOUS
 10
-3.601826175
 20
5.4057175324
 30
0.0
 11
0.3
 21
0.0
 31
0.0
 40
0.0174550649
 41
-2.7925268032
 42
-1.5707963268
  0
ELLIPSE
  5
73E
100
AcDbEntity
  8
RACCORDO
100
AcDbEllipse
 62
7
  6
CONTINUOUS
 10
3.4780493021
 20
5.4057175324
 30
0.0
 11
0.3
 21
0.0
 31
0.0
 40
0.0174550649
 41
-1.5707963268
 42
-0.3490658504
  0
ELLIPSE
  5
73F
100
AcDbEntity
  8
RACCORDO
100
AcDbEllipse
 62
7
  6
CONTINUOUS
 10
-3.601826175
 20
3.7952444934
 30
0.0
 11
0.3
 21
-0.0
 31
0.0
 40
0.0174550649
 41
1.5707963268
 42
2.7925268032
  0
ELLIPSE
  5
740
100
AcDbEntity
  8
RACCORDO
100
AcDbEllipse
 62
7
  6
CONTINUOUS
 10
3.4780493021
 20
3.7952444934
 30
0.0
 11
0.3
 21
0.0
 31
0.0
 40
0.0174550649
 41
0.3490658504
 42
1.5707963268
  0
ELLIPSE
  5
741
100
AcDbEntity
  8
RACCORDO
100
AcDbEllipse
 62
7
  6
CONTINUOUS
 10
-18.0566976154
 20
-8.0734361392
 30
0.0
 11
0.3
 21
-0.0
 31
0.0
 40
0.1763269807
 41
-1.5707963268
 42
-0.0174532925
  0
ELLIPSE
  5
742
100
AcDbEntity
  8
RACCORDO
100
AcDbEllipse
 62
7
  6
CONTINUOUS
 10
-18.2670792575
 20
-8.0734361392
 30
0.0
 11
0.3
 21
0.0
 31
0.0
 40
0.1763269807
 41
-3.1241393611
 42
-1.5707963268
  0
ELLIPSE
  5
743
100
AcDbEntity
  8
RACCORDO
100
AcDbEllipse
 62
7
  6
CONTINUOUS
 10
17.9329207425
 20
-8.0734361392
 30
0.0
 11
0.3
 21
0.0
 31
0.0
 40
0.1763269807
 41
-3.1241393611
 42
-1.5707963268
  0
ELLIPSE
  5
744
100
AcDbEntity
  8
RACCORDO
100
AcDbEllipse
 62
7
  6
CONTINUOUS
 10
-23.76014293
 20
8.0429249971
 30
0.0
 11
-0.0
 21
0.3
 31
0.0
 40
0.0174550649
 41
-3.1241393611
 42
-1.5707963268
  0
ELLIPSE
  5
745
100
AcDbEntity
  8
RACCORDO
100
AcDbEllipse
 62
7
  6
CONTINUOUS
 10
23.6363660571
 20
8.0429249971
 30
0.0
 11
-0.0
 21
0.3
 31
0.0
 40
0.0174550649
 41
-4.7123889804
 42
-3.1590459461
  0
ELLIPSE
  5
746
100
AcDbEntity
  8
RACCORDO
100
AcDbEllipse
 62
7
  6
CONTINUOUS
 10
-6.8566976154
 20
-8.0734361392
 30
0.0
 11
0.3
 21
0.0
 31
0.0
 40
0.1763269807
 41
-1.5707963268
 42
-0.0174532925
  0
ELLIPSE
  5
747
100
AcDbEntity
  8
RACCORDO
100
AcDbEllipse
 62
7
  6
CONTINUOUS
 10
-7.0670792575
 20
-8.0734361392
 30
0.0
 11
0.3
 21
-0.0
 31
0.0
 40
0.1763269807
 41
-3.1241393611
 42
-1.5707963268
  0
ELLIPSE
  5
748
100
AcDbEntity
  8
RACCORDO
100
AcDbEllipse
 62
7
  6
CONTINUOUS
 10
6.7329207425
 20
-8.0734361392
 30
0.0
 11
0.3
 21
-0.0
 31
0.0
 40
0.1763269807
 41
-3.1241393611
 42
-1.5707963268
  0
ELLIPSE
  5
749
100
AcDbEntity
  8
RACCORDO
100
AcDbEllipse
 62
7
  6
CONTINUOUS
 10
6.9433023846
 20
-8.0734361392
 30
0.0
 11
0.3
 21
-0.0
 31
0.0
 40
0.1763269807
 41
-1.5707963268
 42
-0.0174532925
  0
ELLIPSE
  5
74A
100
AcDbEntity
  8
RACCORDO
100
AcDbEllipse
 62
7
  6
CONTINUOUS
 10
18.1433023846
 20
-8.0734361392
 30
0.0
 11
0.3
 21
0.0
 31
0.0
 40
0.1763269807
 41
-1.5707963268
 42
-0.0174532925
  0
ELLIPSE
  5
74B
100
AcDbEntity
  8
ASSI
100
AcDbEllipse
 62
7
  6
CONTINUOUS
 10
24.4745804736
 20
-9.2427634773
 30
0.0
 11
0.2183310446
 21
0.1221043275
 31
0.0
 40
0.9980297029
 41
-2.0815635429
 42
-0.5109195152
  0
ELLIPSE
  5
74C
100
AcDbEntity
  8
ASSI
100
AcDbEllipse
 62
7
  6
CONTINUOUS
 10
-24.5983573465
 20
-9.2427634773
 30
0.0
 11
0.2183310446
 21
-0.1221043275
 31
0.0
 40
0.9980297029
 41
-2.6306731384
 42
-1.0600291107
  0
ELLIPSE
  5
74D
100
AcDbEntity
  8
ASSI
100
AcDbEllipse
 62
7
  6
CONTINUOUS
 10
-24.6048683285
 20
8.7434609049
 30
0.0
 11
-0.1768305473
 21
0.1768305473
 31
0.0
 40
0.9996954599
 41
-0.7852458701
 42
0.7852458701
  0
ELLIPSE
  5
74E
100
AcDbEntity
  8
ASSI
100
AcDbEllipse
 62
7
  6
CONTINUOUS
 10
24.4810914556
 20
8.7434609049
 30
0.0
 11
-0.1768305473
 21
-0.1768305473
 31
0.0
 40
0.9996954599
 41
2.3563467834
 42
3.9268385237
  0
ELLIPSE
  5
74F
100
AcDbEntity
  8
ASSI
100
AcDbEllipse
 62
7
  6
CONTINUOUS
 10
-24.86014293
 20
8.0429249971
 30
0.0
 11
0.0
 21
0.3
 31
0.0
 40
0.0174550649
 41
-3.1241393611
 42
-1.5707963268
  0
ELLIPSE
  5
750
100
AcDbEntity
  8
ASSI
100
AcDbEllipse
 62
7
  6
CONTINUOUS
 10
24.7363660571
 20
8.0429249971
 30
0.0
 11
-0.0
 21
0.3
 31
0.0
 40
0.0174550649
 41
-4.7123889804
 42
-3.1590459461
  0
ELLIPSE
  5
751
100
AcDbEntity
  8
ASSI
100
AcDbEllipse
 62
7
  6
CONTINUOUS
 10
29.6611301678
 20
9.2004810129
 30
0.0
 11
0.0
 21
423.7
 31
0.0
 40
0.0174550649
 41
-4.6945015721
 42
-4.6927481945
  0
ELLIPSE
  5
752
100
AcDbEntity
  8
ASSI
100
AcDbEllipse
 62
7
  6
CONTINUOUS
 10
29.6611301678
 20
9.2004810129
 30
0.0
 11
0.0
 21
423.7
 31
0.0
 40
0.0174550649
 41
-4.675840257
 42
-4.6741042615
  0
ELLIPSE
  5
753
100
AcDbEntity
  8
ASSI
100
AcDbEllipse
 62
7
  6
CONTINUOUS
 10
11.0825480242
 20
9.2004810129
 30
0.0
 11
0.0
 21
423.7
 31
0.0
 40
0.0174550649
 41
-1.6103149114
 42
-1.60848535
  0
ELLIPSE
  5
754
100
AcDbEntity
  8
ASSI
100
AcDbEllipse
 62
7
  6
CONTINUOUS
 10
24.9936751029
 20
9.2004810129
 30
0.0
 11
0.0
 21
423.7
 31
0.0
 40
0.0174550649
 41
-4.6746999572
 42
-4.6722996927
  0
ELLIPSE
  5
755
100
AcDbEntity
  8
ASSI
100
AcDbEllipse
 62
7
  6
CONTINUOUS
 10
23.3241018132
 20
-8.103829419
 30
0.0
 11
-0.0300136675
 21
0.3031910442
 31
0.0
 40
0.9846622838
 41
-3.2387599651
 42
-1.6709942215
  0
ELLIPSE
  5
756
100
AcDbEntity
  8
ASSI
100
AcDbEllipse
 62
7
  6
CONTINUOUS
 10
-23.4478786861
 20
-8.103829419
 30
0.0
 11
0.0300136675
 21
0.3031910442
 31
0.0
 40
0.9846622838
 41
-4.6121910857
 42
-3.0444253421
  0
ELLIPSE
  5
757
100
AcDbEntity
  8
ASSI
100
AcDbEllipse
 62
7
  6
CONTINUOUS
 10
-19.6066976154
 20
7.7952444934
 30
0.0
 11
0.3
 21
0.0
 31
0.0
 40
0.0174550649
 41
0.0174532925
 42
1.5707963268
  0
ELLIPSE
  5
758
100
AcDbEntity
  8
ASSI
100
AcDbEllipse
 62
7
  6
CONTINUOUS
 10
-0.1174519758
 20
9.2004810129
 30
0.0
 11
0.0
 21
423.7
 31
0.0
 40
0.0174550649
 41
-1.6108856145
 42
-1.60848535
  0
ELLIPSE
  5
759
100
AcDbEntity
  8
ASSI
100
AcDbEllipse
 62
7
  6
CONTINUOUS
 10
13.7936751029
 20
9.2004810129
 30
0.0
 11
0.0
 21
423.7
 31
0.0
 40
0.0174550649
 41
-4.6746999572
 42
-4.6728703958
  0
ELLIPSE
  5
75A
100
AcDbEntity
  8
ASSI
100
AcDbEllipse
 62
7
  6
CONTINUOUS
 10
-13.9174519758
 20
9.2004810129
 30
0.0
 11
0.0
 21
423.7
 31
0.0
 40
0.0174550649
 41
-1.6103149114
 42
-1.60848535
  0
ELLIPSE
  5
75B
100
AcDbEntity
  8
ASSI
100
AcDbEllipse
 62
7
  6
CONTINUOUS
 10
-0.0063248971
 20
9.2004810129
 30
0.0
 11
0.0
 21
423.7
 31
0.0
 40
0.0174550649
 41
-4.6746999572
 42
-4.6728703958
  0
ELLIPSE
  5
75C
100
AcDbEntity
  8
ASSI
100
AcDbEllipse
 62
7
  6
CONTINUOUS
 10
-25.1174519758
 20
9.2004810129
 30
0.0
 11
0.0
 21
423.7
 31
0.0
 40
0.0174550649
 41
-1.6103149114
 42
-1.60848535
  0
ELLIPSE
  5
75D
100
AcDbEntity
  8
ASSI
100
AcDbEllipse
 62
7
  6
CONTINUOUS
 10
31.2517829471
 20
9.2004810129
 30
0.0
 11
0.0
 21
423.7
 31
0.0
 40
0.0174550649
 41
-4.6861185815
 42
-4.6805882475
  0
ELLIPSE
  5
75E
100
AcDbEntity
  8
ASSI
100
AcDbEllipse
 62
7
  6
CONTINUOUS
 10
15.52444018
 20
9.2004810129
 30
0.0
 11
0.0
 21
423.7
 31
0.0
 40
0.0174550649
 41
-1.6025970597
 42
-1.5970667257
  0
ELLIPSE
  5
75F
100
AcDbEntity
  8
ASSI
100
AcDbEllipse
 62
7
  6
CONTINUOUS
 10
-31.37555982
 20
9.2004810129
 30
0.0
 11
0.0
 21
423.7
 31
0.0
 40
0.0174550649
 41
-1.6025970597
 42
-1.5970667257
  0
ELLIPSE
  5
760
100
AcDbEntity
  8
ASSI
100
AcDbEllipse
 62
7
  6
CONTINUOUS
 10
-15.6482170529
 20
9.2004810129
 30
0.0
 11
0.0
 21
423.7
 31
0.0
 40
0.0174550649
 41
-4.6861185815
 42
-4.6805882475
  0
ELLIPSE
  5
761
100
AcDbEntity
  8
ASSI
100
AcDbEllipse
 62
7
  6
CONTINUOUS
 10
-11.2063248971
 20
9.2004810129
 30
0.0
 11
0.0
 21
423.7
 31
0.0
 40
0.0174550649
 41
-4.6746999572
 42
-4.6722996927
  0
ELLIPSE
  5
762
100
AcDbEntity
  8
ASSI
100
AcDbEllipse
 62
7
  6
CONTINUOUS
 10
-19.8170792575
 20
7.7952444934
 30
0.0
 11
0.3
 21
-0.0
 31
0.0
 40
0.0174550649
 41
1.5707963268
 42
3.1241393611
  0
ELLIPSE
  5
763
100
AcDbEntity
  8
ASSI
100
AcDbEllipse
 62
7
  6
CONTINUOUS
 10
-7.3910292183
 20
-7.5273328922
 30
0.0
 11
-0.0
 21
0.3
 31
0.0
 40
0.0174550649
 41
-4.6728703958
 42
-3.3161255788
  0
ELLIPSE
  5
764
100
AcDbEntity
  8
ASSI
100
AcDbEllipse
 62
7
  6
CONTINUOUS
 10
-6.5327476546
 20
-7.5273328922
 30
0.0
 11
-0.0
 21
0.3
 31
0.0
 40
0.0174550649
 41
-2.9670597284
 42
-1.6103149114
  0
ELLIPSE
  5
765
100
AcDbEntity
  8
ASSI
100
AcDbEllipse
 62
7
  6
CONTINUOUS
 10
6.4089707817
 20
-7.5273328922
 30
0.0
 11
-0.0
 21
0.3
 31
0.0
 40
0.0174550649
 41
-4.6728703958
 42
-3.3161255788
  0
ELLIPSE
  5
766
100
AcDbEntity
  8
ASSI
100
AcDbEllipse
 62
7
  6
CONTINUOUS
 10
18.4672523454
 20
-7.5273328922
 30
0.0
 11
-0.0
 21
0.3
 31
0.0
 40
0.0174550649
 41
-2.9670597284
 42
-1.6103149114
  0
ELLIPSE
  5
767
100
AcDbEntity
  8
ASSI
100
AcDbEllipse
 62
7
  6
CONTINUOUS
 10
-17.7327476546
 20
-7.5273328922
 30
0.0
 11
0.0
 21
0.3
 31
0.0
 40
0.0174550649
 41
-2.9670597284
 42
-1.6103149114
  0
ELLIPSE
  5
768
100
AcDbEntity
  8
ASSI
100
AcDbEllipse
 62
7
  6
CONTINUOUS
 10
-29.7849070407
 20
9.2004810129
 30
0.0
 11
0.0
 21
423.7
 31
0.0
 40
0.0174550649
 41
-1.6090810457
 42
-1.6073450502
  0
ELLIPSE
  5
769
100
AcDbEntity
  8
ASSI
100
AcDbEllipse
 62
7
  6
CONTINUOUS
 10
-22.7416077452
 20
-6.9698453767
 30
0.0
 11
0.3
 21
-0.0
 31
0.0
 40
0.0174550649
 41
0.0174532925
 42
1.5707963268
  0
ELLIPSE
  5
76A
100
AcDbEntity
  8
ASSI
100
AcDbEllipse
 62
7
  6
CONTINUOUS
 10
-22.7416077452
 20
-6.3291925975
 30
0.0
 11
0.3
 21
-0.0
 31
0.0
 40
0.0174550649
 41
-1.5707963268
 42
-0.0174532925
  0
ELLIPSE
  5
76B
100
AcDbEntity
  8
ASSI
100
AcDbEllipse
 62
7
  6
CONTINUOUS
 10
-22.7416077452
 20
0.9301546233
 30
0.0
 11
0.3
 21
-0.0
 31
0.0
 40
0.0174550649
 41
0.0174532925
 42
1.5707963268
  0
ELLIPSE
  5
76C
100
AcDbEntity
  8
ASSI
100
AcDbEllipse
 62
7
  6
CONTINUOUS
 10
-22.7416077452
 20
1.5708074025
 30
0.0
 11
0.3
 21
0.0
 31
0.0
 40
0.0174550649
 41
-1.5707963268
 42
-0.0174532925
  0
ELLIPSE
  5
76D
100
AcDbEntity
  8
ASSI
100
AcDbEllipse
 62
7
  6
CONTINUOUS
 10
22.6178308723
 20
-6.3291925975
 30
0.0
 11
0.3
 21
-0.0
 31
0.0
 40
0.0174550649
 41
-3.1241393611
 42
-1.5707963268
  0
ELLIPSE
  5
76E
100
AcDbEntity
  8
ASSI
100
AcDbEllipse
 62
7
  6
CONTINUOUS
 10
22.6178308723
 20
-6.9698453767
 30
0.0
 11
0.3
 21
-0.0
 31
0.0
 40
0.0174550649
 41
1.5707963268
 42
3.1241393611
  0
ELLIPSE
  5
76F
100
AcDbEntity
  8
ASSI
100
AcDbEllipse
 62
7
  6
CONTINUOUS
 10
22.6178308723
 20
1.5708074025
 30
0.0
 11
0.3
 21
0.0
 31
0.0
 40
0.0174550649
 41
-3.1241393611
 42
-1.5707963268
  0
ELLIPSE
  5
770
100
AcDbEntity
  8
ASSI
100
AcDbEllipse
 62
7
  6
CONTINUOUS
 10
22.6178308723
 20
0.9301546233
 30
0.0
 11
0.3
 21
-0.0
 31
0.0
 40
0.0174550649
 41
1.5707963268
 42
3.1241393611
  0
ELLIPSE
  5
771
100
AcDbEntity
  8
ASSI
100
AcDbEllipse
 62
7
  6
CONTINUOUS
 10
19.4829207425
 20
7.7952444934
 30
0.0
 11
0.3
 21
0.0
 31
0.0
 40
0.0174550649
 41
1.5707963268
 42
3.1241393611
  0
ELLIPSE
  5
772
100
AcDbEntity
  8
ASSI
100
AcDbEllipse
 62
7
  6
CONTINUOUS
 10
-29.7849070407
 20
9.2004810129
 30
0.0
 11
0.0
 21
423.7
 31
0.0
 40
0.0174550649
 41
-1.5904371127
 42
-1.588683735
  0
ELLIPSE
  5
773
100
AcDbEntity
  8
ASSI
100
AcDbEllipse
 62
7
  6
CONTINUOUS
 10
19.6933023846
 20
7.7952444934
 30
0.0
 11
0.3
 21
0.0
 31
0.0
 40
0.0174550649
 41
0.0174532925
 42
1.5707963268
  0
ELLIPSE
  5
774
100
AcDbEntity
  8
ASSI
100
AcDbEllipse
 62
7
  6
CONTINUOUS
 10
-12.7388698322
 20
9.2004810129
 30
0.0
 11
0.0
 21
423.7
 31
0.0
 40
0.0174550649
 41
-4.7090312901
 42
-4.6981756364
  0
ELLIPSE
  5
775
100
AcDbEntity
  8
ASSI
100
AcDbEllipse
 62
7
  6
CONTINUOUS
 10
-26.6849070407
 20
9.2004810129
 30
0.0
 11
0.0
 21
423.7
 31
0.0
 40
0.0174550649
 41
-1.5850096708
 42
-1.5741540171
  0
ELLIPSE
  5
776
100
AcDbEntity
  8
ASSI
100
AcDbEllipse
 62
7
  6
CONTINUOUS
 10
26.5611301678
 20
9.2004810129
 30
0.0
 11
0.0
 21
423.7
 31
0.0
 40
0.0174550649
 41
-4.7090312901
 42
-4.6981756364
  0
ELLIPSE
  5
777
100
AcDbEntity
  8
ASSI
100
AcDbEllipse
 62
7
  6
CONTINUOUS
 10
12.6150929593
 20
9.2004810129
 30
0.0
 11
0.0
 21
423.7
 31
0.0
 40
0.0174550649
 41
-1.5850096708
 42
-1.5741540171
  0
ELLIPSE
  5
778
100
AcDbEntity
  8
ASSI
100
AcDbEllipse
 62
7
  6
CONTINUOUS
 10
-3.601826175
 20
5.4057175324
 30
0.0
 11
0.3
 21
0.0
 31
0.0
 40
0.0174550649
 41
-2.7925268032
 42
-1.5707963268
  0
ELLIPSE
  5
779
100
AcDbEntity
  8
ASSI
100
AcDbEllipse
 62
7
  6
CONTINUOUS
 10
3.4780493021
 20
5.4057175324
 30
0.0
 11
0.3
 21
0.0
 31
0.0
 40
0.0174550649
 41
-1.5707963268
 42
-0.3490658504
  0
ELLIPSE
  5
77A
100
AcDbEntity
  8
ASSI
100
AcDbEllipse
 62
7
  6
CONTINUOUS
 10
-3.601826175
 20
3.7952444934
 30
0.0
 11
0.3
 21
-0.0
 31
0.0
 40
0.0174550649
 41
1.5707963268
 42
2.7925268032
  0
ELLIPSE
  5
77B
100
AcDbEntity
  8
ASSI
100
AcDbEllipse
 62
7
  6
CONTINUOUS
 10
3.4780493021
 20
3.7952444934
 30
0.0
 11
0.3
 21
0.0
 31
0.0
 40
0.0174550649
 41
0.3490658504
 42
1.5707963268
  0
ELLIPSE
  5
77C
100
AcDbEntity
  8
ASSI
100
AcDbEllipse
 62
7
  6
CONTINUOUS
 10
-18.0566976154
 20
-8.0734361392
 30
0.0
 11
0.3
 21
-0.0
 31
0.0
 40
0.1763269807
 41
-1.5707963268
 42
-0.0174532925
  0
ELLIPSE
  5
77D
100
AcDbEntity
  8
ASSI
100
AcDbEllipse
 62
7
  6
CONTINUOUS
 10
-18.2670792575
 20
-8.0734361392
 30
0.0
 11
0.3
 21
0.0
 31
0.0
 40
0.1763269807
 41
-3.1241393611
 42
-1.5707963268
  0
ELLIPSE
  5
77E
100
AcDbEntity
  8
ASSI
100
AcDbEllipse
 62
7
  6
CONTINUOUS
 10
-23.76014293
 20
8.0429249971
 30
0.0
 11
-0.0
 21
0.3
 31
0.0
 40
0.0174550649
 41
-3.1241393611
 42
-1.5707963268
  0
ELLIPSE
  5
77F
100
AcDbEntity
  8
ASSI
100
AcDbEllipse
 62
7
  6
CONTINUOUS
 10
23.6363660571
 20
8.0429249971
 30
0.0
 11
-0.0
 21
0.3
 31
0.0
 40
0.0174550649
 41
-4.7123889804
 42
-3.1590459461
  0
ELLIPSE
  5
780
100
AcDbEntity
  8
ASSI
100
AcDbEllipse
 62
7
  6
CONTINUOUS
 10
-6.8566976154
 20
-8.0734361392
 30
0.0
 11
0.3
 21
0.0
 31
0.0
 40
0.1763269807
 41
-1.5707963268
 42
-0.0174532925
  0
ELLIPSE
  5
781
100
AcDbEntity
  8
ASSI
100
AcDbEllipse
 62
7
  6
CONTINUOUS
 10
-7.0670792575
 20
-8.0734361392
 30
0.0
 11
0.3
 21
-0.0
 31
0.0
 40
0.1763269807
 41
-3.1241393611
 42
-1.5707963268
  0
ELLIPSE
  5
782
100
AcDbEntity
  8
ASSI
100
AcDbEllipse
 62
7
  6
CONTINUOUS
 10
6.7329207425
 20
-8.0734361392
 30
0.0
 11
0.3
 21
-0.0
 31
0.0
 40
0.1763269807
 41
-3.1241393611
 42
-1.5707963268
  0
ELLIPSE
  5
783
100
AcDbEntity
  8
ASSI
100
AcDbEllipse
 62
7
  6
CONTINUOUS
 10
6.9433023846
 20
-8.0734361392
 30
0.0
 11
0.3
 21
-0.0
 31
0.0
 40
0.1763269807
 41
-1.5707963268
 42
-0.0174532925
  0
ELLIPSE
  5
784
100
AcDbEntity
  8
ASSI
100
AcDbEllipse
 62
7
  6
CONTINUOUS
 10
18.1433023846
 20
-8.0734361392
 30
0.0
 11
0.3
 21
0.0
 31
0.0
 40
0.1763269807
 41
-1.5707963268
 42
-0.0174532925
  0
ELLIPSE
  5
785
100
AcDbEntity
  8
ASSI
100
AcDbEllipse
 62
7
  6
CONTINUOUS
 10
17.9329207425
 20
-8.0734361392
 30
0.0
 11
0.3
 21
0.0
 31
0.0
 40
0.1763269807
 41
-3.1241393611
 42
-1.5707963268
  0
ENDSEC
  0
SECTION
  2
OBJECTS
  0
DICTIONARY
  5
C
100
AcDbDictionary
280
0
281
1
  3
ACAD_GROUP
350
D
  3
ACAD_MLINESTYLE
350
17
  3
ACAD_LAYOUT
350
1A
  3
ACAD_PLOTSETTINGS
350
19
  3
ACAD_PLOTSTYLENAME
350
E
  0
DICTIONARY
  5
D
102
{ACAD_REACTORS
330
C
102
}
100
AcDbDictionary
280
0
281
1
  0
ACDBDICTIONARYWDFLT
  5
E
102
{ACAD_REACTORS
330
C
102
}
100
AcDbDictionary
281
1
  3
Normal
350
F
100
AcDbDictionaryWithDefault
340
F
  0
DICTIONARY
  5
17
102
{ACAD_REACTORS
330
C
102
}
100
AcDbDictionary
280
0
281
1
  3
Standard
350
18
  0
DICTIONARY
  5
19
102
{ACAD_REACTORS
330
C
102
}
100
AcDbDictionary
281
1
  0
DICTIONARY
  5
1A
102
{ACAD_REACTORS
330
C
102
}
100
AcDbDictionary
281
1
  3
Model
350
786
  3
Layout1
350
787
  0
ACDBPLACEHOLDER
  5
F
102
{ACAD_REACTORS
330
E
102
}
  0
MLINESTYLE
  5
18
102
{ACAD_REACTORS
330
17
102
}
100
AcDbMlineStyle
  2
STANDARD
 70
0
  3

 62
256
 51
90.0
 52
90.0
 71
2
 49
0.5
 62
256
  6
BYLAYER
 49
-0.5
 62
256
  6
BYLAYER
  0
LAYOUT
  5
786
102
{ACAD_REACTORS
330
1A
102
}
100
AcDbPlotSettings
  1

  2
none_device
  4
ISO_A4_(297.00_x_210.00_MM)
  6

 40
0.0
 41
0.0
 42
0.0
 43
0.0
 44
297.0
 45
210.0
 46
0.0
 47
0.0
 48
0.0
 49
0.0
140
0.0
141
0.0
142
1.0
143
1.0
 70
1024
 72
1
 73
0
 74
0
  7

 75
0
147
1.0
148
0.0
149
0.0
100
AcDbLayout
  1
Model
 70
0
 71
0
 10
0.0
 20
0.0
 11
297.0
 21
210.0
 12
0.0
 22
0.0
 32
0.0
 14
0.0
 24
0.0
 34
0.0
 15
0.0
 25
0.0
 35
0.0
146
0.0
 13
0.0
 23
0.0
 33
0.0
 16
1.0
 26
0.0
 36
0.0
 17
0.0
 27
1.0
 37
0.0
 76
0
330
211
345
0
346
0
  0
LAYOUT
  5
787
102
{ACAD_REACTORS
330
1A
102
}
100
AcDbPlotSettings
  1

  2
none_device
  4
ISO_A4_(297.00_x_210.00_MM)
  6

 40
0.0
 41
0.0
 42
0.0
 43
0.0
 44
297.0
 45
210.0
 46
0.0
 47
0.0
 48
0.0
 49
0.0
140
0.0
141
0.0
142
1.0
143
1.0
 70
0
 72
1
 73
0
 74
0
  7

 75
0
147
1.0
148
0.0
149
0.0
100
AcDbLayout
  1
Layout1
 70
0
 71
1
 10
0.0
 20
0.0
 11
297.0
 21
210.0
 12
0.0
 22
0.0
 32
0.0
 14
0.0
 24
0.0
 34
0.0
 15
0.0
 25
0.0
 35
0.0
146
0.0
 13
0.0
 23
0.0
 33
0.0
 16
1.0
 26
0.0
 36
0.0
 17
0.0
 27
1.0
 37
0.0
 76
0
330
212
345
0
346
0
  0
ENDSEC
  0
EOF
