  0
SECTION
  2
HEADER
  9
$ACADVER
  1
AC1015
  9
$DWGCODEPAGE
  3
ANSI_1252
  9
$EXTMAX
 10
297.0
 20
210.0
 30
0.0
  9
$EXTMIN
 10
0.0
 20
0.0
 30
0.0
  9
$LIMMIN
 10
0.0
 20
0.0
  9
$LIMMAX
 10
297.0
 20
210.0
  9
$VIEWCTR
 10
148.5
 20
105.0
  9
$VIEWSIZE
 40
210.0
  9
$CLAYER
  8
0
  9
$LTSCALE
 40
16.335
  9
$CELTYPE
  6
BYLAYER
  9
$DIMSCALE
 40
1.0
  9
$DIMASZ
 40
3.0
  9
$DIMEXO
 40
1.85625
  9
$DIMDLI
 40
11.286
  9
$DIMEXE
 40
5.346
  9
$DIMCEN
 40
2.673
  9
$DIMLFAC
 40
1.0
  9
$DIMBLK
  1
_FILLED
  9
$DIMTXT
 40
3.0
  9
$DIMTOL
 70
1
  9
$DIMLIM
 70
0
  9
$DIMTFAC
 40
1.0
  9
$DIMTP
 40
0.01
  9
$DIMTM
 40
0.01
  9
$PDMODE
 70
3
  9
$PDSIZE
 40
3.0
  9
$HANDSEED
  5
398
  9
$TILEMODE
 70
1
  9
$MEASUREMENT
 70
1
  9
$INSUNITS
 70
4
  0
ENDSEC
  0
SECTION
  2
CLASSES
  0
CLASS
  1
ACDBDICTIONARYWDFLT
  2
AcDbDictionaryWithDefault
  3
AutoCAD 2000
 90
0
280
0
281
0
  0
CLASS
  1
ACDBPLACEHOLDER
  2
AcDbPlaceHolder
  3
AutoCAD 2000
 90
0
280
0
281
0
  0
CLASS
  1
LAYOUT
  2
AcDbLayout
  3
AutoCAD 2000
 90
0
280
0
281
0
  0
ENDSEC
  0
SECTION
  2
TABLES
  0
TABLE
  2
VPORT
  5
8
100
AcDbSymbolTable
 70
2
  0
VPORT
  5
1F4
100
AcDbSymbolTableRecord
100
AcDbViewportTableRecord
  2
*ACTIVE
 70
0
 10
0.0
 20
0.0
 11
1.0
 21
1.0
 12
148.5
 22
105.0
 13
0.0
 23
0.0
 14
1.0
 24
1.0
 15
0.0
 25
0.0
 16
0.0
 26
0.0
 36
1.0
 17
0.0
 27
0.0
 37
0.0
 40
210.0
 41
1.4142857143
 42
50.0
 43
0.0
 44
0.0
 50
0.0
 51
0.0
 71
0
 72
100
 73
1
 74
1
 75
0
 76
0
 77
0
 78
0
  0
ENDTAB
  0
TABLE
  2
LTYPE
  5
5
100
AcDbSymbolTable
 70
6
  0
LTYPE
  5
14
100
AcDbSymbolTableRecord
100
AcDbLinetypeTableRecord
  2
BYBLOCK
 70
0
  3

 72
65
 73
0
 40
0.0
  0
LTYPE
  5
15
100
AcDbSymbolTableRecord
100
AcDbLinetypeTableRecord
  2
BYLAYER
 70
0
  3

 72
65
 73
0
 40
0.0
  0
LTYPE
  5
16
100
AcDbSymbolTableRecord
100
AcDbLinetypeTableRecord
  2
CONTINUOUS
 70
64
  3
Solid line
 72
65
 73
0
 40
0.0
  0
LTYPE
  5
1F5
100
AcDbSymbolTableRecord
100
AcDbLinetypeTableRecord
  2
CENTER
 70
64
  3
____ _ ____ _ ____ _ ____ _ ____ _ ____ _ ____
 72
65
 73
4
 40
0.6
 49
0.375
 74
0
 49
-0.075
 74
0
 49
0.075
 74
0
 49
-0.075
 74
0
  0
LTYPE
  5
1F6
100
AcDbSymbolTableRecord
100
AcDbLinetypeTableRecord
  2
HIDDEN
 70
64
  3
- - - - - - - - - - - - - - - - - - - -
 72
65
 73
2
 40
0.2
 49
0.1
 74
0
 49
-0.1
 74
0
  0
LTYPE
  5
1F7
100
AcDbSymbolTableRecord
100
AcDbLinetypeTableRecord
  2
PHANTOM
 70
64
  3
_____ _ _ _____ _ _ _____ _ _ _____
 72
65
 73
6
 40
0.8
 49
0.45
 74
0
 49
-0.05
 74
0
 49
0.1
 74
0
 49
-0.05
 74
0
 49
0.1
 74
0
 49
-0.05
 74
0
  0
LTYPE
  5
1F8
100
AcDbSymbolTableRecord
100
AcDbLinetypeTableRecord
  2
DOT
 70
64
  3
. . . . . . . . . . . . . . . . . . . .
 72
65
 73
2
 40
0.2
 49
0.1
 74
0
 49
-0.1
 74
0
  0
LTYPE
  5
1F9
100
AcDbSymbolTableRecord
100
AcDbLinetypeTableRecord
  2
DASHED
 70
64
  3
- - - - - - - - - - - - - - - - - - - -
 72
65
 73
2
 40
0.2
 49
0.1
 74
0
 49
-0.1
 74
0
  0
ENDTAB
  0
TABLE
  2
LAYER
  5
2
100
AcDbSymbolTable
 70
36
  0
LAYER
  5
10
100
AcDbSymbolTableRecord
100
AcDbLayerTableRecord
  2
0
 70
0
 62
7
  6
CONTINUOUS
370
-3
390
F
  0
LAYER
  5
1FA
100
AcDbSymbolTableRecord
100
AcDbLayerTableRecord
  2
DEFAULT_1
 70
0
 62
7
  6
CENTER
370
-3
390
F
  0
LAYER
  5
1FB
100
AcDbSymbolTableRecord
100
AcDbLayerTableRecord
  2
DEFAULT_2
 70
0
 62
7
  6
HIDDEN
370
-3
390
F
  0
LAYER
  5
1FC
100
AcDbSymbolTableRecord
100
AcDbLayerTableRecord
  2
DEFAULT_3
 70
0
 62
7
  6
PHANTOM
370
-3
390
F
  0
LAYER
  5
1FD
100
AcDbSymbolTableRecord
100
AcDbLayerTableRecord
  2
ASSI
 70
0
 62
7
  6
CONTINUOUS
370
-3
390
F
  0
LAYER
  5
1FE
100
AcDbSymbolTableRecord
100
AcDbLayerTableRecord
  2
COORDINATE
 70
0
 62
7
  6
CONTINUOUS
370
-3
390
F
  0
LAYER
  5
1FF
100
AcDbSymbolTableRecord
100
AcDbLayerTableRecord
  2
COORD_ORIGINE
 70
0
 62
7
  6
CONTINUOUS
370
-3
390
F
  0
LAYER
  5
200
100
AcDbSymbolTableRecord
100
AcDbLayerTableRecord
  2
CURVE
 70
0
 62
7
  6
CONTINUOUS
370
-3
390
F
  0
LAYER
  5
201
100
AcDbSymbolTableRecord
100
AcDbLayerTableRecord
  2
DRAFT
 70
0
 62
7
  6
CONTINUOUS
370
-3
390
F
  0
LAYER
  5
202
100
AcDbSymbolTableRecord
100
AcDbLayerTableRecord
  2
IGES
 70
0
 62
7
  6
CONTINUOUS
370
-3
390
F
  0
LAYER
  5
203
100
AcDbSymbolTableRecord
100
AcDbLayerTableRecord
  2
NOTE
 70
0
 62
7
  6
CONTINUOUS
370
-3
390
F
  0
LAYER
  5
204
100
AcDbSymbolTableRecord
100
AcDbLayerTableRecord
  2
PIANI
 70
0
 62
7
  6
CONTINUOUS
370
-3
390
F
  0
LAYER
  5
205
100
AcDbSymbolTableRecord
100
AcDbLayerTableRecord
  2
PIANI_ORIGINE
 70
0
 62
7
  6
CONTINUOUS
370
-3
390
F
  0
LAYER
  5
206
100
AcDbSymbolTableRecord
100
AcDbLayerTableRecord
  2
RACCORDO
 70
0
 62
7
  6
CONTINUOUS
370
-3
390
F
  0
LAYER
  5
207
100
AcDbSymbolTableRecord
100
AcDbLayerTableRecord
  2
SNAPLINE
 70
0
 62
7
  6
CONTINUOUS
370
-3
390
F
  0
LAYER
  5
208
100
AcDbSymbolTableRecord
100
AcDbLayerTableRecord
  2
SUPERFICI
 70
0
 62
7
  6
CONTINUOUS
370
-3
390
F
  0
LAYER
  5
209
100
AcDbSymbolTableRecord
100
AcDbLayerTableRecord
  2
TRASH
 70
0
 62
7
  6
CONTINUOUS
370
-3
390
F
  0
ENDTAB
  0
TABLE
  2
STYLE
  5
3
100
AcDbSymbolTable
 70
1
  0
STYLE
  5
11
100
AcDbSymbolTableRecord
100
AcDbTextStyleTableRecord
  2
STANDARD
 70
0
 40
0.0
 41
0.8
 50
0.0
 71
0
 42
0.2
  3
txt
  4

  0
STYLE
  5
20A
100
AcDbSymbolTableRecord
100
AcDbTextStyleTableRecord
  2
TEXTSTYLE_1
 70
0
 40
0.0
 41
0.8
 50
0.0
 71
0
 42
0.2
  3
gdt
  4

  0
ENDTAB
  0
TABLE
  2
VIEW
  5
6
100
AcDbSymbolTable
 70
0
  0
ENDTAB
  0
TABLE
  2
UCS
  5
7
100
AcDbSymbolTable
 70
0
  0
ENDTAB
  0
TABLE
  2
APPID
  5
9
100
AcDbSymbolTable
 70
1
  0
APPID
  5
20B
100
AcDbSymbolTableRecord
100
AcDbRegAppTableRecord
  2
ACAD
 70
0
  0
ENDTAB
  0
TABLE
  2
BLOCK_RECORD
  5
1
100
AcDbSymbolTable
 70
0
  0
BLOCK_RECORD
  5
20C
100
AcDbSymbolTableRecord
100
AcDbBlockTableRecord
  2
*Model_Space
  0
BLOCK_RECORD
  5
20D
100
AcDbSymbolTableRecord
100
AcDbBlockTableRecord
  2
*Paper_Space
  0
ENDTAB
  0
TABLE
  2
DIMSTYLE
  5
A
100
AcDbSymbolTable
 70
1
100
AcDbDimStyleTable
 71
0
  0
DIMSTYLE
105
20E
100
AcDbSymbolTableRecord
100
AcDbDimStyleTableRecord
  2
STANDARD
 70
0
  3

  4

 40
1.0
 41
3.0
 42
0.0625
 43
0.38
 44
0.18
 45
0.0
 46
0.0
 47
0.01
 48
0.01
140
3.0
141
0.09
142
0.0
143
25.4
144
1.0
145
0.0
146
1.0
147
0.09
 71
1.0
 72
0.0
 73
0
 74
0
 75
0
 76
0
 77
1
 78
8
170
0
171
2
172
0
173
0
174
0
175
0
176
0
177
0
178
0
270
2
271
2
272
2
273
2
274
2
275
0
280
0
281
0
282
0
283
1
284
8
285
0
286
0
287
3
288
0
340
11
  0
ENDTAB
  0
ENDSEC
  0
SECTION
  2
BLOCKS
  0
BLOCK
  5
20
100
AcDbEntity
  8
0
100
AcDbBlockBegin
  2
*Model_Space
 70
0
 10
0.0
 20
0.0
 30
0.0
  3
*Model_Space
  1

  0
ENDBLK
  5
21
100
AcDbEntity
  8
0
100
AcDbBlockEnd
  0
BLOCK
  5
1C
100
AcDbEntity
  8
0
100
AcDbBlockBegin
  2
*Paper_Space
 70
0
 10
0.0
 20
0.0
 30
0.0
  3
*Paper_Space
  1

  0
ENDBLK
  5
1D
100
AcDbEntity
  8
0
100
AcDbBlockEnd
  0
ENDSEC
  0
SECTION
  2
ENTITIES
  0
LINE
  5
20F
100
AcDbEntity
  8
RACCORDO
100
AcDbLine
 62
7
  6
CONTINUOUS
 10
-12.3542006194
 20
-8.9394961924
 11
-12.3542006194
 21
-3.7894676358
  0
LINE
  5
210
100
AcDbEntity
  8
DRAFT
100
AcDbLine
 62
7
  6
CONTINUOUS
 10
-12.3542006194
 20
-3.7894676358
 11
-12.3542006194
 21
5.2703857148
  0
LINE
  5
211
100
AcDbEntity
  8
RACCORDO
100
AcDbLine
 62
7
  6
CONTINUOUS
 10
-12.31405397
 20
5.3105323642
 11
-12.31405397
 21
9.037878856
  0
LINE
  5
212
100
AcDbEntity
  8
DRAFT
100
AcDbLine
 62
7
  6
CONTINUOUS
 10
-12.3542006194
 20
5.2703857148
 11
-12.31405397
 21
5.3105323642
  0
LINE
  5
213
100
AcDbEntity
  8
RACCORDO
100
AcDbLine
 62
253
  6
CONTINUOUS
 10
-12.1257912564
 20
0.3346435982
 11
-12.1257912564
 21
-3.7135788698
  0
LINE
  5
214
100
AcDbEntity
  8
RACCORDO
100
AcDbLine
 62
253
  6
CONTINUOUS
 10
-11.4296259296
 20
0.3127542096
 11
-11.4296259296
 21
-3.6916894812
  0
LINE
  5
215
100
AcDbEntity
  8
DRAFT
100
AcDbLine
 62
7
  6
CONTINUOUS
 10
-11.2542006194
 20
-3.742324597
 11
-11.2542006194
 21
-3.7894676358
  0
LINE
  5
216
100
AcDbEntity
  8
RACCORDO
100
AcDbLine
 62
7
  6
CONTINUOUS
 10
-11.2542006194
 20
-8.1126963524
 11
-11.2542006194
 21
-3.7894676358
  0
LINE
  5
217
100
AcDbEntity
  8
DRAFT
100
AcDbLine
 62
7
  6
CONTINUOUS
 10
-11.2542006194
 20
-3.6916894812
 11
-11.2542006194
 21
0.3127542096
  0
LINE
  5
218
100
AcDbEntity
  8
DRAFT
100
AcDbLine
 62
7
  6
CONTINUOUS
 10
-11.2542006194
 20
0.3633893254
 11
-11.2542006194
 21
5.2703857148
  0
LINE
  5
219
100
AcDbEntity
  8
RACCORDO
100
AcDbLine
 62
7
  6
CONTINUOUS
 10
-11.21405397
 20
5.3105323642
 11
-11.21405397
 21
7.847233692
  0
LINE
  5
21A
100
AcDbEntity
  8
DRAFT
100
AcDbLine
 62
7
  6
CONTINUOUS
 10
-11.2542006194
 20
5.2703857148
 11
-11.21405397
 21
5.3105323642
  0
LINE
  5
21B
100
AcDbEntity
  8
DRAFT
100
AcDbLine
 62
7
  6
CONTINUOUS
 10
-10.7042006194
 20
-3.7312357634
 11
-10.7042006194
 21
0.3523004918
  0
LINE
  5
21C
100
AcDbEntity
  8
DRAFT
100
AcDbLine
 62
7
  6
CONTINUOUS
 10
-10.1865091658
 20
-9.1894676358
 11
-10.1865091658
 21
-8.4164011369
  0
LINE
  5
21D
100
AcDbEntity
  8
RACCORDO
100
AcDbLine
 62
253
  6
CONTINUOUS
 10
-10.8599575493
 20
8.0930458883
 11
-10.8616014892
 21
0.4105323642
  0
LINE
  5
21E
100
AcDbEntity
  8
RACCORDO
100
AcDbLine
 62
253
  6
CONTINUOUS
 10
-10.863538714
 20
-3.7894676358
 11
-10.8656673399
 21
-7.5133346455
  0
LINE
  5
21F
100
AcDbEntity
  8
RACCORDO
100
AcDbLine
 62
253
  6
CONTINUOUS
 10
-11.1656216522
 20
-7.2178923571
 11
-11.2542006194
 21
-8.1126963524
  0
LINE
  5
220
100
AcDbEntity
  8
DRAFT
100
AcDbLine
 62
7
  6
CONTINUOUS
 10
-9.7042006194
 20
-9.1737592738
 11
-9.7042006194
 21
-8.0990125716
  0
LINE
  5
221
100
AcDbEntity
  8
RACCORDO
100
AcDbLine
 62
253
  6
CONTINUOUS
 10
-10.8656673399
 20
-7.5133346455
 11
-10.955064233
 21
-8.4164011369
  0
LINE
  5
222
100
AcDbEntity
  8
DRAFT
100
AcDbLine
 62
7
  6
CONTINUOUS
 10
3.6134908342
 20
-9.1894676358
 11
4.0957993806
 21
-9.1737592738
  0
LINE
  5
223
100
AcDbEntity
  8
RACCORDO
100
AcDbLine
 62
7
  6
CONTINUOUS
 10
-12.1042006179
 20
-9.1894676358
 11
-10.1865091658
 21
-9.1894676358
  0
LINE
  5
224
100
AcDbEntity
  8
DRAFT
100
AcDbLine
 62
7
  6
CONTINUOUS
 10
-3.721892073
 20
-9.1894676358
 11
3.6134908342
 21
-9.1894676358
  0
LINE
  5
225
100
AcDbEntity
  8
RACCORDO
100
AcDbLine
 62
7
  6
CONTINUOUS
 10
10.078107927
 20
-9.1894676358
 11
11.9957993792
 21
-9.1894676358
  0
LINE
  5
226
100
AcDbEntity
  8
DRAFT
100
AcDbLine
 62
7
  6
CONTINUOUS
 10
9.5957993806
 20
-9.1737592738
 11
4.0957993806
 21
-9.1737592738
  0
LINE
  5
227
100
AcDbEntity
  8
DRAFT
100
AcDbLine
 62
7
  6
CONTINUOUS
 10
-4.2042006194
 20
-9.1737592738
 11
-9.7042006194
 21
-9.1737592738
  0
LINE
  5
228
100
AcDbEntity
  8
DRAFT
100
AcDbLine
 62
7
  6
CONTINUOUS
 10
-3.721892073
 20
-9.1894676358
 11
-4.2042006194
 21
-9.1737592738
  0
LINE
  5
229
100
AcDbEntity
  8
DRAFT
100
AcDbLine
 62
7
  6
CONTINUOUS
 10
-8.4879268128
 20
9.2878407798
 11
-8.4879268128
 21
8.1471880005
  0
LINE
  5
22A
100
AcDbEntity
  8
DRAFT
100
AcDbLine
 62
7
  6
CONTINUOUS
 10
-8.3042006194
 20
9.2511851434
 11
-8.3042006194
 21
8.1105323642
  0
LINE
  5
22B
100
AcDbEntity
  8
DRAFT
100
AcDbLine
 62
7
  6
CONTINUOUS
 10
-10.1865091658
 20
-9.1894676358
 11
-9.7042006194
 21
-9.1737592738
  0
LINE
  5
22C
100
AcDbEntity
  8
RACCORDO
100
AcDbLine
 62
7
  6
CONTINUOUS
 10
-10.955064233
 20
-8.4164011369
 11
-10.1865091658
 21
-8.4164011369
  0
LINE
  5
22D
100
AcDbEntity
  8
DRAFT
100
AcDbLine
 62
7
  6
CONTINUOUS
 10
-3.721892073
 20
-8.4164011369
 11
3.6134908342
 21
-8.4164011369
  0
LINE
  5
22E
100
AcDbEntity
  8
RACCORDO
100
AcDbLine
 62
7
  6
CONTINUOUS
 10
10.078107927
 20
-8.4164011369
 11
10.8466629943
 21
-8.4164011369
  0
LINE
  5
22F
100
AcDbEntity
  8
DRAFT
100
AcDbLine
 62
7
  6
CONTINUOUS
 10
9.5957993806
 20
-8.0990125716
 11
4.0957993806
 21
-8.0990125716
  0
LINE
  5
230
100
AcDbEntity
  8
DRAFT
100
AcDbLine
 62
7
  6
CONTINUOUS
 10
-4.2042006194
 20
-8.0990125716
 11
-9.7042006194
 21
-8.0990125716
  0
LINE
  5
231
100
AcDbEntity
  8
DRAFT
100
AcDbLine
 62
7
  6
CONTINUOUS
 10
10.078107927
 20
-9.1894676358
 11
9.5957993806
 21
-9.1737592738
  0
LINE
  5
232
100
AcDbEntity
  8
DRAFT
100
AcDbLine
 62
7
  6
CONTINUOUS
 10
-3.721892073
 20
-8.4164011369
 11
-4.2042006194
 21
-8.0990125716
  0
LINE
  5
233
100
AcDbEntity
  8
RACCORDO
100
AcDbLine
 62
253
  6
CONTINUOUS
 10
10.7572661012
 20
-7.5133346455
 11
-10.8656673399
 21
-7.5133346455
  0
LINE
  5
234
100
AcDbEntity
  8
RACCORDO
100
AcDbLine
 62
253
  6
CONTINUOUS
 10
10.7572660851
 20
-7.2297452421
 11
-10.8656673238
 21
-7.2297452421
  0
LINE
  5
235
100
AcDbEntity
  8
0
100
AcDbLine
 62
7
  6
CONTINUOUS
 10
-0.5488815009
 20
7.160532245
 11
-0.4531368314
 21
7.2230323642
  0
LINE
  5
236
100
AcDbEntity
  8
0
100
AcDbLine
 62
7
  6
CONTINUOUS
 10
-0.0063282847
 20
7.3167823642
 11
0.0894163848
 21
7.3792824834
  0
LINE
  5
237
100
AcDbEntity
  8
0
100
AcDbLine
 62
7
  6
CONTINUOUS
 10
0.0894163848
 20
7.1917824834
 11
0.2170759887
 21
7.254282245
  0
LINE
  5
238
100
AcDbEntity
  8
0
100
AcDbLine
 62
7
  6
CONTINUOUS
 10
-0.9217626194
 20
-6.5451806358
 11
0.2483053806
 21
-6.2211556358
  0
LINE
  5
239
100
AcDbEntity
  8
0
100
AcDbLine
 62
7
  6
CONTINUOUS
 10
-0.7084559499
 20
7.2230323642
 11
-0.5807963907
 21
7.348032245
  0
LINE
  5
23A
100
AcDbEntity
  8
0
100
AcDbLine
 62
7
  6
CONTINUOUS
 10
0.344735548
 20
6.4417824834
 11
0.4085653276
 21
6.4730323642
  0
LINE
  5
23B
100
AcDbEntity
  8
0
100
AcDbLine
 62
7
  6
CONTINUOUS
 10
0.344735548
 20
6.2855323642
 11
0.4404802398
 21
6.316782245
  0
LINE
  5
23C
100
AcDbEntity
  8
0
100
AcDbLine
 62
7
  6
CONTINUOUS
 10
-0.9218646194
 20
-5.4009696358
 11
0.7781003806
 21
-5.4009696358
  0
LINE
  5
23D
100
AcDbEntity
  8
0
100
AcDbLine
 62
7
  6
CONTINUOUS
 10
-0.9218646194
 20
-5.0461416358
 11
0.7781003806
 21
-5.0461416358
  0
LINE
  5
23E
100
AcDbEntity
  8
0
100
AcDbLine
 62
7
  6
CONTINUOUS
 10
0.2483053806
 20
-6.2211556358
 11
-0.9217626194
 21
-5.8872336358
  0
LINE
  5
23F
100
AcDbEntity
  8
0
100
AcDbLine
 62
7
  6
CONTINUOUS
 10
0.7781003806
 20
-6.0790516358
 11
-0.9217626194
 21
-5.5326476358
  0
LINE
  5
240
100
AcDbEntity
  8
DRAFT
100
AcDbLine
 62
7
  6
CONTINUOUS
 10
-4.2042006194
 20
-9.1737592738
 11
-4.2042006194
 21
-8.0990125716
  0
LINE
  5
241
100
AcDbEntity
  8
0
100
AcDbLine
 62
7
  6
CONTINUOUS
 10
-0.6127112805
 20
7.066782245
 11
-0.5488815009
 21
7.160532245
  0
LINE
  5
242
100
AcDbEntity
  8
0
100
AcDbLine
 62
7
  6
CONTINUOUS
 10
0.4085653276
 20
6.4730323642
 11
0.4723951296
 21
6.5355324834
  0
LINE
  5
243
100
AcDbEntity
  8
0
100
AcDbLine
 62
7
  6
CONTINUOUS
 10
0.4404802398
 20
6.316782245
 11
0.5362249092
 21
6.3792823642
  0
LINE
  5
244
100
AcDbEntity
  8
0
100
AcDbLine
 62
7
  6
CONTINUOUS
 10
-0.5807963907
 20
4.441782245
 11
-0.4212218522
 21
4.5042823642
  0
LINE
  5
245
100
AcDbEntity
  8
0
100
AcDbLine
 62
7
  6
CONTINUOUS
 10
0.057501495
 20
4.4730324834
 11
0.2170759887
 21
4.535532245
  0
LINE
  5
246
100
AcDbEntity
  8
DRAFT
100
AcDbLine
 62
7
  6
CONTINUOUS
 10
10.5957993806
 20
-3.7085372632
 11
11.1457993806
 21
-3.6916894812
  0
LINE
  5
247
100
AcDbEntity
  8
DRAFT
100
AcDbLine
 62
7
  6
CONTINUOUS
 10
-11.2542006194
 20
-3.6916894812
 11
-10.7042006194
 21
-3.7085372632
  0
LINE
  5
248
100
AcDbEntity
  8
0
100
AcDbLine
 62
7
  6
CONTINUOUS
 10
0.7781003806
 20
-4.5156716358
 11
-0.3318786194
 21
-4.4390996358
  0
LINE
  5
249
100
AcDbEntity
  8
0
100
AcDbLine
 62
7
  6
CONTINUOUS
 10
0.7781003806
 20
-4.8551266358
 11
-0.9217626194
 21
-4.7016396358
  0
LINE
  5
24A
100
AcDbEntity
  8
DRAFT
100
AcDbLine
 62
7
  6
CONTINUOUS
 10
-3.721892073
 20
-9.1894676358
 11
-3.721892073
 21
-8.4164011369
  0
LINE
  5
24B
100
AcDbEntity
  8
0
100
AcDbLine
 62
7
  6
CONTINUOUS
 10
-0.7722857296
 20
7.0980324834
 11
-0.7084559499
 21
7.2230323642
  0
LINE
  5
24C
100
AcDbEntity
  8
0
100
AcDbLine
 62
7
  6
CONTINUOUS
 10
0.0255866052
 20
7.0980324834
 11
0.0894163848
 21
7.1917824834
  0
LINE
  5
24D
100
AcDbEntity
  8
0
100
AcDbLine
 62
7
  6
CONTINUOUS
 10
0.5362249092
 20
6.3792823642
 11
0.6000547
 21
6.4730323642
  0
LINE
  5
24E
100
AcDbEntity
  8
0
100
AcDbLine
 62
7
  6
CONTINUOUS
 10
-0.6127112805
 20
4.1605324238
 11
-0.5169666111
 21
4.2855323046
  0
LINE
  5
24F
100
AcDbEntity
  8
0
100
AcDbLine
 62
7
  6
CONTINUOUS
 10
-0.6765410601
 20
4.3480324238
 11
-0.5807963907
 21
4.441782245
  0
LINE
  5
250
100
AcDbEntity
  8
0
100
AcDbLine
 62
7
  6
CONTINUOUS
 10
0.0894163848
 20
4.2855323046
 11
0.2170759887
 21
4.3792823046
  0
LINE
  5
251
100
AcDbEntity
  8
0
100
AcDbLine
 62
7
  6
CONTINUOUS
 10
-0.5169666111
 20
4.2855323046
 11
-0.4212218522
 21
4.3480324238
  0
LINE
  5
252
100
AcDbEntity
  8
0
100
AcDbLine
 62
7
  6
CONTINUOUS
 10
-0.3573920726
 20
3.5980324238
 11
-0.2616474032
 21
3.6605323642
  0
LINE
  5
253
100
AcDbEntity
  8
0
100
AcDbLine
 62
7
  6
CONTINUOUS
 10
-0.3254771828
 20
3.4417823046
 11
-0.1978176235
 21
3.5042824238
  0
LINE
  5
254
100
AcDbEntity
  8
0
100
AcDbLine
 62
7
  6
CONTINUOUS
 10
0.3128206582
 20
3.4105324238
 11
0.4723951296
 21
3.4730323642
  0
LINE
  5
255
100
AcDbEntity
  8
0
100
AcDbLine
 62
7
  6
CONTINUOUS
 10
-0.5488815009
 20
3.0667823046
 11
-0.4531368314
 21
3.0980323642
  0
LINE
  5
256
100
AcDbEntity
  8
0
100
AcDbLine
 62
7
  6
CONTINUOUS
 10
-0.9217626194
 20
-3.2901286358
 11
0.7781003806
 21
-3.1311716358
  0
LINE
  5
257
100
AcDbEntity
  8
0
100
AcDbLine
 62
7
  6
CONTINUOUS
 10
-0.3272516194
 20
-3.5511886358
 11
0.7781003806
 21
-3.4782876358
  0
LINE
  5
258
100
AcDbEntity
  8
DRAFT
100
AcDbLine
 62
7
  6
CONTINUOUS
 10
-10.7042006194
 20
-3.7312357634
 11
-11.2542006194
 21
-3.742324597
  0
LINE
  5
259
100
AcDbEntity
  8
DRAFT
100
AcDbLine
 62
7
  6
CONTINUOUS
 10
-12.3542006194
 20
-3.7894676358
 11
-11.2542006194
 21
-3.7894676358
  0
LINE
  5
25A
100
AcDbEntity
  8
RACCORDO
100
AcDbLine
 62
7
  6
CONTINUOUS
 10
-11.2542006194
 20
-3.7894676358
 11
-10.863538714
 21
-3.7894676358
  0
LINE
  5
25B
100
AcDbEntity
  8
RACCORDO
100
AcDbLine
 62
7
  6
CONTINUOUS
 10
10.7551374752
 20
-3.7894676358
 11
11.1457993806
 21
-3.7894676358
  0
LINE
  5
25C
100
AcDbEntity
  8
DRAFT
100
AcDbLine
 62
7
  6
CONTINUOUS
 10
11.1457993806
 20
-3.7894676358
 11
12.2457993806
 21
-3.7894676358
  0
LINE
  5
25D
100
AcDbEntity
  8
RACCORDO
100
AcDbLine
 62
7
  6
CONTINUOUS
 10
-11.4296259296
 20
-3.6916894812
 11
-11.2542006194
 21
-3.6916894812
  0
LINE
  5
25E
100
AcDbEntity
  8
RACCORDO
100
AcDbLine
 62
7
  6
CONTINUOUS
 10
11.1457993806
 20
-3.6916894812
 11
11.3212246909
 21
-3.6916894812
  0
LINE
  5
25F
100
AcDbEntity
  8
DRAFT
100
AcDbLine
 62
7
  6
CONTINUOUS
 10
11.1457993806
 20
-3.742324597
 11
10.5957993806
 21
-3.7312357634
  0
LINE
  5
260
100
AcDbEntity
  8
RACCORDO
100
AcDbLine
 62
7
  6
CONTINUOUS
 10
-12.1257912564
 20
0.3346435982
 11
-12.3542006194
 21
0.4105323642
  0
LINE
  5
261
100
AcDbEntity
  8
0
100
AcDbLine
 62
7
  6
CONTINUOUS
 10
0.0220063806
 20
-3.9960236358
 11
-0.9217626194
 21
-3.6411956358
  0
LINE
  5
262
100
AcDbEntity
  8
0
100
AcDbLine
 62
7
  6
CONTINUOUS
 10
0.7781003806
 20
-3.9730796358
 11
-0.3272516194
 21
-3.5511886358
  0
LINE
  5
263
100
AcDbEntity
  8
0
100
AcDbLine
 62
7
  6
CONTINUOUS
 10
-0.6446261703
 20
6.9105324834
 11
-0.6127112805
 21
7.066782245
  0
LINE
  5
264
100
AcDbEntity
  8
0
100
AcDbLine
 62
7
  6
CONTINUOUS
 10
-0.0701580643
 20
7.160532245
 11
-0.0063282847
 21
7.3167823642
  0
LINE
  5
265
100
AcDbEntity
  8
0
100
AcDbLine
 62
7
  6
CONTINUOUS
 10
0.4723951296
 20
6.5355324834
 11
0.5043100194
 21
6.598032245
  0
LINE
  5
266
100
AcDbEntity
  8
0
100
AcDbLine
 62
7
  6
CONTINUOUS
 10
0.6000547
 20
6.4730323642
 11
0.663884488
 21
6.598032245
  0
LINE
  5
267
100
AcDbEntity
  8
0
100
AcDbLine
 62
7
  6
CONTINUOUS
 10
-0.0701580643
 20
4.2855323046
 11
-0.0382431745
 21
4.3480324238
  0
LINE
  5
268
100
AcDbEntity
  8
0
100
AcDbLine
 62
7
  6
CONTINUOUS
 10
-0.7722857296
 20
4.1917823046
 11
-0.6765410601
 21
4.3480324238
  0
LINE
  5
269
100
AcDbEntity
  8
0
100
AcDbLine
 62
7
  6
CONTINUOUS
 10
-0.7722857296
 20
2.8167823642
 11
-0.6765410601
 21
2.9730323046
  0
LINE
  5
26A
100
AcDbEntity
  8
0
100
AcDbLine
 62
7
  6
CONTINUOUS
 10
-0.6127112805
 20
2.785532394
 11
-0.5488815009
 21
2.879282394
  0
LINE
  5
26B
100
AcDbEntity
  8
0
100
AcDbLine
 62
7
  6
CONTINUOUS
 10
-0.0382431745
 20
4.3480324238
 11
0.057501495
 21
4.4730324834
  0
LINE
  5
26C
100
AcDbEntity
  8
0
100
AcDbLine
 62
7
  6
CONTINUOUS
 10
-0.2616474032
 20
3.6605323642
 11
-0.1659027337
 21
3.7855324238
  0
LINE
  5
26D
100
AcDbEntity
  8
0
100
AcDbLine
 62
7
  6
CONTINUOUS
 10
-0.1978176235
 20
3.5042824238
 11
-0.1020729541
 21
3.5980324238
  0
LINE
  5
26E
100
AcDbEntity
  8
0
100
AcDbLine
 62
7
  6
CONTINUOUS
 10
-0.1339878439
 20
3.0042823642
 11
-0.0382431745
 21
3.0980323642
  0
LINE
  5
26F
100
AcDbEntity
  8
0
100
AcDbLine
 62
7
  6
CONTINUOUS
 10
0.4723951296
 20
3.4730323642
 11
0.5681398102
 21
3.5667823642
  0
LINE
  5
270
100
AcDbEntity
  8
0
100
AcDbLine
 62
7
  6
CONTINUOUS
 10
-0.0063282847
 20
2.9105323642
 11
0.057501495
 21
2.9730323046
  0
LINE
  5
271
100
AcDbEntity
  8
0
100
AcDbLine
 62
7
  6
CONTINUOUS
 10
-0.6765410601
 20
2.9730323046
 11
-0.5488815009
 21
3.0667823046
  0
LINE
  5
272
100
AcDbEntity
  8
0
100
AcDbLine
 62
7
  6
CONTINUOUS
 10
0.3128206582
 20
3.5667823642
 11
0.4404802398
 21
3.6605323642
  0
LINE
  5
273
100
AcDbEntity
  8
0
100
AcDbLine
 62
7
  6
CONTINUOUS
 10
-0.5488815009
 20
2.879282394
 11
-0.4531368314
 21
2.9417824238
  0
LINE
  5
274
100
AcDbEntity
  8
0
100
AcDbLine
 62
7
  6
CONTINUOUS
 10
-0.0382431745
 20
3.0980323642
 11
0.1213312746
 21
3.1605323046
  0
LINE
  5
275
100
AcDbEntity
  8
0
100
AcDbLine
 62
7
  6
CONTINUOUS
 10
0.057501495
 20
2.9730323046
 11
0.1532462091
 21
3.0042823642
  0
LINE
  5
276
100
AcDbEntity
  8
0
100
AcDbLine
 62
7
  6
CONTINUOUS
 10
0.2489908785
 20
2.223032394
 11
0.344735548
 21
2.2542823642
  0
LINE
  5
277
100
AcDbEntity
  8
0
100
AcDbLine
 62
7
  6
CONTINUOUS
 10
0.4387473806
 20
-2.1433486358
 11
0.7781003806
 21
-2.0514296358
  0
LINE
  5
278
100
AcDbEntity
  8
0
100
AcDbLine
 62
7
  6
CONTINUOUS
 10
-0.4546836194
 20
-2.3773096358
 11
0.1761573806
 21
-2.2142616358
  0
LINE
  5
279
100
AcDbEntity
  8
0
100
AcDbLine
 62
7
  6
CONTINUOUS
 10
0.1761573806
 20
-2.5539836358
 11
-0.4546836194
 21
-2.3773096358
  0
LINE
  5
27A
100
AcDbEntity
  8
0
100
AcDbLine
 62
7
  6
CONTINUOUS
 10
0.7781003806
 20
-2.7244766358
 11
0.4387473806
 21
-2.6265656358
  0
LINE
  5
27B
100
AcDbEntity
  8
0
100
AcDbLine
 62
7
  6
CONTINUOUS
 10
0.7781003806
 20
-3.0754546358
 11
-0.9217626194
 21
-2.5422696358
  0
LINE
  5
27C
100
AcDbEntity
  8
RACCORDO
100
AcDbLine
 62
253
  6
CONTINUOUS
 10
-11.21405397
 20
7.847233692
 11
-11.1599118613
 21
7.7930915833
  0
LINE
  5
27D
100
AcDbEntity
  8
RACCORDO
100
AcDbLine
 62
253
  6
CONTINUOUS
 10
-10.9140996615
 20
8.1471880005
 11
-10.8599575493
 21
8.0930458883
  0
LINE
  5
27E
100
AcDbEntity
  8
0
100
AcDbLine
 62
7
  6
CONTINUOUS
 10
-0.8042006194
 20
6.879282245
 11
-0.7722857296
 21
7.0980324834
  0
LINE
  5
27F
100
AcDbEntity
  8
0
100
AcDbLine
 62
7
  6
CONTINUOUS
 10
-0.0063282847
 20
6.9105324834
 11
0.0255866052
 21
7.0980324834
  0
LINE
  5
280
100
AcDbEntity
  8
0
100
AcDbLine
 62
7
  6
CONTINUOUS
 10
-0.8042006194
 20
4.0355323642
 11
-0.7722857296
 21
4.1917823046
  0
LINE
  5
281
100
AcDbEntity
  8
0
100
AcDbLine
 62
7
  6
CONTINUOUS
 10
-0.8042006194
 20
2.6605323344
 11
-0.7722857296
 21
2.8167823642
  0
LINE
  5
282
100
AcDbEntity
  8
0
100
AcDbLine
 62
7
  6
CONTINUOUS
 10
-0.6446261703
 20
4.0355323642
 11
-0.6127112805
 21
4.1605324238
  0
LINE
  5
283
100
AcDbEntity
  8
0
100
AcDbLine
 62
7
  6
CONTINUOUS
 10
-0.1659027337
 20
3.7855324238
 11
-0.1339878439
 21
3.9105323046
  0
LINE
  5
284
100
AcDbEntity
  8
0
100
AcDbLine
 62
7
  6
CONTINUOUS
 10
-0.0063282847
 20
4.0355323642
 11
0.0255866052
 21
4.1605324238
  0
LINE
  5
285
100
AcDbEntity
  8
0
100
AcDbLine
 62
7
  6
CONTINUOUS
 10
0.663884488
 20
6.598032245
 11
0.6957993806
 21
6.7230324834
  0
LINE
  5
286
100
AcDbEntity
  8
0
100
AcDbLine
 62
7
  6
CONTINUOUS
 10
-0.6446261703
 20
2.691782394
 11
-0.6127112805
 21
2.785532394
  0
LINE
  5
287
100
AcDbEntity
  8
0
100
AcDbLine
 62
7
  6
CONTINUOUS
 10
-0.1020729541
 20
2.7230323642
 11
-0.0701580643
 21
2.8167823642
  0
LINE
  5
288
100
AcDbEntity
  8
0
100
AcDbLine
 62
7
  6
CONTINUOUS
 10
0.0255866052
 20
4.1605324238
 11
0.0894163848
 21
4.2855323046
  0
LINE
  5
289
100
AcDbEntity
  8
0
100
AcDbLine
 62
7
  6
CONTINUOUS
 10
-0.1020729541
 20
3.5980324238
 11
-0.0701580643
 21
3.6605323642
  0
LINE
  5
28A
100
AcDbEntity
  8
0
100
AcDbLine
 62
7
  6
CONTINUOUS
 10
0.4404802398
 20
3.6605323642
 11
0.5043100194
 21
3.7855324238
  0
LINE
  5
28B
100
AcDbEntity
  8
0
100
AcDbLine
 62
7
  6
CONTINUOUS
 10
-0.2297325133
 20
2.8480323344
 11
-0.1339878439
 21
3.0042823642
  0
LINE
  5
28C
100
AcDbEntity
  8
0
100
AcDbLine
 62
7
  6
CONTINUOUS
 10
0.5681398102
 20
3.5667823642
 11
0.663884488
 21
3.7230323046
  0
LINE
  5
28D
100
AcDbEntity
  8
0
100
AcDbLine
 62
7
  6
CONTINUOUS
 10
-0.0701580643
 20
2.8167823642
 11
-0.0063282847
 21
2.9105323642
  0
LINE
  5
28E
100
AcDbEntity
  8
0
100
AcDbLine
 62
7
  6
CONTINUOUS
 10
0.4404802398
 20
2.1292823493
 11
0.5681398102
 21
2.223032394
  0
LINE
  5
28F
100
AcDbEntity
  8
0
100
AcDbLine
 62
7
  6
CONTINUOUS
 10
0.344735548
 20
2.2542823642
 11
0.4404802398
 21
2.316782394
  0
LINE
  5
290
100
AcDbEntity
  8
0
100
AcDbLine
 62
7
  6
CONTINUOUS
 10
0.2809057684
 20
2.0667823642
 11
0.4404802398
 21
2.1292823493
  0
LINE
  5
291
100
AcDbEntity
  8
0
100
AcDbLine
 62
7
  6
CONTINUOUS
 10
-0.9019027016
 20
-1.5732609719
 11
0.7781000673
 21
-1.5732609719
  0
LINE
  5
292
100
AcDbEntity
  8
0
100
AcDbLine
 62
7
  6
CONTINUOUS
 10
-0.6321742704
 20
-1.2316262042
 11
-0.1655287879
 21
-1.2316262042
  0
LINE
  5
293
100
AcDbEntity
  8
0
100
AcDbLine
 62
7
  6
CONTINUOUS
 10
0.1128676647
 20
-1.2198606398
 11
0.7781000673
 21
-1.2198606398
  0
LINE
  5
294
100
AcDbEntity
  8
DRAFT
100
AcDbLine
 62
7
  6
CONTINUOUS
 10
10.078107927
 20
-8.4164011369
 11
9.5957993806
 21
-8.0990125716
  0
LINE
  5
295
100
AcDbEntity
  8
0
100
AcDbLine
 62
7
  6
CONTINUOUS
 10
-0.9218646194
 20
-5.4009696358
 11
-0.9218646194
 21
-5.0461416358
  0
LINE
  5
296
100
AcDbEntity
  8
0
100
AcDbLine
 62
7
  6
CONTINUOUS
 10
-0.9217626194
 20
-6.9306336358
 11
-0.9217626194
 21
-6.5451806358
  0
LINE
  5
297
100
AcDbEntity
  8
0
100
AcDbLine
 62
7
  6
CONTINUOUS
 10
-0.9217626194
 20
-5.8872336358
 11
-0.9217626194
 21
-5.5326476358
  0
LINE
  5
298
100
AcDbEntity
  8
0
100
AcDbLine
 62
7
  6
CONTINUOUS
 10
-0.9217626194
 20
-4.7016396358
 11
-0.9217626194
 21
-4.3471046358
  0
LINE
  5
299
100
AcDbEntity
  8
0
100
AcDbLine
 62
7
  6
CONTINUOUS
 10
-0.9217626194
 20
-3.6411956358
 11
-0.9217626194
 21
-3.2901286358
  0
LINE
  5
29A
100
AcDbEntity
  8
0
100
AcDbLine
 62
7
  6
CONTINUOUS
 10
-0.9217626194
 20
-2.5422696358
 11
-0.9217626194
 21
-2.1990156358
  0
LINE
  5
29B
100
AcDbEntity
  8
0
100
AcDbLine
 62
7
  6
CONTINUOUS
 10
-0.8042006194
 20
1.5980323642
 11
-0.8042006194
 21
1.7855323642
  0
LINE
  5
29C
100
AcDbEntity
  8
0
100
AcDbLine
 62
7
  6
CONTINUOUS
 10
-0.8042006194
 20
2.5355323642
 11
-0.8042006194
 21
2.6605323344
  0
LINE
  5
29D
100
AcDbEntity
  8
0
100
AcDbLine
 62
7
  6
CONTINUOUS
 10
-0.8042006194
 20
3.9105323046
 11
-0.8042006194
 21
4.0355323642
  0
LINE
  5
29E
100
AcDbEntity
  8
0
100
AcDbLine
 62
7
  6
CONTINUOUS
 10
-0.8042006194
 20
5.5355323642
 11
-0.8042006194
 21
5.7230323642
  0
LINE
  5
29F
100
AcDbEntity
  8
0
100
AcDbLine
 62
7
  6
CONTINUOUS
 10
-0.8042006194
 20
6.8167824834
 11
-0.8042006194
 21
6.879282245
  0
LINE
  5
2A0
100
AcDbEntity
  8
0
100
AcDbLine
 62
7
  6
CONTINUOUS
 10
-0.6446261703
 20
2.504282394
 11
-0.6446261703
 21
2.691782394
  0
LINE
  5
2A1
100
AcDbEntity
  8
0
100
AcDbLine
 62
7
  6
CONTINUOUS
 10
-0.6446261703
 20
3.9105323046
 11
-0.6446261703
 21
4.0355323642
  0
LINE
  5
2A2
100
AcDbEntity
  8
0
100
AcDbLine
 62
7
  6
CONTINUOUS
 10
-0.6446261703
 20
6.785532245
 11
-0.6446261703
 21
6.9105324834
  0
LINE
  5
2A3
100
AcDbEntity
  8
0
100
AcDbLine
 62
7
  6
CONTINUOUS
 10
-0.4531368314
 20
2.9417824238
 11
-0.4531368314
 21
3.0980323642
  0
LINE
  5
2A4
100
AcDbEntity
  8
0
100
AcDbLine
 62
7
  6
CONTINUOUS
 10
-0.4531368314
 20
6.316782245
 11
-0.4531368314
 21
6.4730323642
  0
LINE
  5
2A5
100
AcDbEntity
  8
0
100
AcDbLine
 62
7
  6
CONTINUOUS
 10
-0.2616474032
 20
2.5355323642
 11
-0.2616474032
 21
2.691782394
  0
LINE
  5
2A6
100
AcDbEntity
  8
0
100
AcDbLine
 62
7
  6
CONTINUOUS
 10
-0.1655287879
 20
-1.2316262042
 11
-0.1655287879
 21
-1.0288454914
  0
LINE
  5
2A7
100
AcDbEntity
  8
0
100
AcDbLine
 62
7
  6
CONTINUOUS
 10
-0.1339878439
 20
3.9105323046
 11
-0.1339878439
 21
4.0355323642
  0
LINE
  5
2A8
100
AcDbEntity
  8
0
100
AcDbLine
 62
7
  6
CONTINUOUS
 10
-0.1339878439
 20
6.785532245
 11
-0.1339878439
 21
6.9105324834
  0
LINE
  5
2A9
100
AcDbEntity
  8
0
100
AcDbLine
 62
7
  6
CONTINUOUS
 10
-0.1020729541
 20
2.504282394
 11
-0.1020729541
 21
2.7230323642
  0
LINE
  5
2AA
100
AcDbEntity
  8
0
100
AcDbLine
 62
7
  6
CONTINUOUS
 10
-0.0063282847
 20
3.9105323046
 11
-0.0063282847
 21
4.0355323642
  0
LINE
  5
2AB
100
AcDbEntity
  8
0
100
AcDbLine
 62
7
  6
CONTINUOUS
 10
-0.0063282847
 20
6.785532245
 11
-0.0063282847
 21
6.9105324834
  0
LINE
  5
2AC
100
AcDbEntity
  8
0
100
AcDbLine
 62
7
  6
CONTINUOUS
 10
0.057501495
 20
5.004282245
 11
0.057501495
 21
5.5355323642
  0
LINE
  5
2AD
100
AcDbEntity
  8
0
100
AcDbLine
 62
7
  6
CONTINUOUS
 10
0.057501495
 20
5.7230323642
 11
0.057501495
 21
6.035532245
  0
LINE
  5
2AE
100
AcDbEntity
  8
0
100
AcDbLine
 62
7
  6
CONTINUOUS
 10
0.5043100194
 20
6.598032245
 11
0.5362249092
 21
6.7542823642
  0
LINE
  5
2AF
100
AcDbEntity
  8
0
100
AcDbLine
 62
7
  6
CONTINUOUS
 10
-0.2616474032
 20
2.691782394
 11
-0.2297325133
 21
2.8480323344
  0
LINE
  5
2B0
100
AcDbEntity
  8
0
100
AcDbLine
 62
7
  6
CONTINUOUS
 10
0.663884488
 20
3.7230323046
 11
0.6957993806
 21
3.8792824238
  0
LINE
  5
2B1
100
AcDbEntity
  8
0
100
AcDbLine
 62
7
  6
CONTINUOUS
 10
0.5043100194
 20
3.7855324238
 11
0.5362249092
 21
3.9105323046
  0
LINE
  5
2B2
100
AcDbEntity
  8
0
100
AcDbLine
 62
7
  6
CONTINUOUS
 10
0.5043100194
 20
2.410532394
 11
0.5362249092
 21
2.504282394
  0
LINE
  5
2B3
100
AcDbEntity
  8
0
100
AcDbLine
 62
7
  6
CONTINUOUS
 10
0.5681398102
 20
2.223032394
 11
0.663884488
 21
2.3792823344
  0
LINE
  5
2B4
100
AcDbEntity
  8
0
100
AcDbLine
 62
7
  6
CONTINUOUS
 10
0.4404802398
 20
2.316782394
 11
0.5043100194
 21
2.410532394
  0
LINE
  5
2B5
100
AcDbEntity
  8
RACCORDO
100
AcDbLine
 62
7
  6
CONTINUOUS
 10
-12.1257912564
 20
-3.7135788698
 11
-12.3542006194
 21
-3.7894676358
  0
LINE
  5
2B6
100
AcDbEntity
  8
DRAFT
100
AcDbLine
 62
7
  6
CONTINUOUS
 10
11.1457993806
 20
0.3633893254
 11
10.5957993806
 21
0.3523004918
  0
LINE
  5
2B7
100
AcDbEntity
  8
0
100
AcDbLine
 62
7
  6
CONTINUOUS
 10
-0.0254255182
 20
-0.6610154531
 11
-0.015380811
 21
-0.6610154531
  0
LINE
  5
2B8
100
AcDbEntity
  8
DRAFT
100
AcDbLine
 62
7
  6
CONTINUOUS
 10
-10.7042006194
 20
0.3523004918
 11
-11.2542006194
 21
0.3633893254
  0
LINE
  5
2B9
100
AcDbEntity
  8
0
100
AcDbLine
 62
7
  6
CONTINUOUS
 10
-0.7722857296
 20
2.3792823344
 11
-0.8042006194
 21
2.5355323642
  0
LINE
  5
2BA
100
AcDbEntity
  8
0
100
AcDbLine
 62
7
  6
CONTINUOUS
 10
-0.7722857296
 20
3.7542823642
 11
-0.8042006194
 21
3.9105323046
  0
LINE
  5
2BB
100
AcDbEntity
  8
0
100
AcDbLine
 62
7
  6
CONTINUOUS
 10
0.1128676647
 20
-1.2198606398
 11
0.1128676647
 21
-1.0296103168
  0
LINE
  5
2BC
100
AcDbEntity
  8
0
100
AcDbLine
 62
7
  6
CONTINUOUS
 10
0.1761573806
 20
-2.5539836358
 11
0.1761573806
 21
-2.2142616358
  0
LINE
  5
2BD
100
AcDbEntity
  8
0
100
AcDbLine
 62
7
  6
CONTINUOUS
 10
0.2489908785
 20
4.7855323642
 11
0.2489908785
 21
5.5355323642
  0
LINE
  5
2BE
100
AcDbEntity
  8
0
100
AcDbLine
 62
7
  6
CONTINUOUS
 10
0.2489908785
 20
5.7230323642
 11
0.2489908785
 21
6.035532245
  0
LINE
  5
2BF
100
AcDbEntity
  8
0
100
AcDbLine
 62
7
  6
CONTINUOUS
 10
0.344735548
 20
6.2855323642
 11
0.344735548
 21
6.4417824834
  0
LINE
  5
2C0
100
AcDbEntity
  8
0
100
AcDbLine
 62
7
  6
CONTINUOUS
 10
0.4387473806
 20
-2.6265656358
 11
0.4387473806
 21
-2.1433486358
  0
LINE
  5
2C1
100
AcDbEntity
  8
0
100
AcDbLine
 62
7
  6
CONTINUOUS
 10
0.5362249092
 20
2.504282394
 11
0.5362249092
 21
2.7230323642
  0
LINE
  5
2C2
100
AcDbEntity
  8
0
100
AcDbLine
 62
7
  6
CONTINUOUS
 10
0.5362249092
 20
3.9105323046
 11
0.5362249092
 21
4.0355323642
  0
LINE
  5
2C3
100
AcDbEntity
  8
0
100
AcDbLine
 62
7
  6
CONTINUOUS
 10
0.5362249092
 20
6.7542823642
 11
0.5362249092
 21
6.9417823642
  0
LINE
  5
2C4
100
AcDbEntity
  8
0
100
AcDbLine
 62
7
  6
CONTINUOUS
 10
0.6957993806
 20
1.5980323642
 11
0.6957993806
 21
1.7855323642
  0
LINE
  5
2C5
100
AcDbEntity
  8
0
100
AcDbLine
 62
7
  6
CONTINUOUS
 10
0.6957993806
 20
2.5355323642
 11
0.6957993806
 21
2.691782394
  0
LINE
  5
2C6
100
AcDbEntity
  8
0
100
AcDbLine
 62
7
  6
CONTINUOUS
 10
0.6957993806
 20
3.8792824238
 11
0.6957993806
 21
4.0667824238
  0
LINE
  5
2C7
100
AcDbEntity
  8
0
100
AcDbLine
 62
7
  6
CONTINUOUS
 10
0.6957993806
 20
5.5355323642
 11
0.6957993806
 21
5.7230323642
  0
LINE
  5
2C8
100
AcDbEntity
  8
0
100
AcDbLine
 62
7
  6
CONTINUOUS
 10
0.6957993806
 20
6.7230324834
 11
0.6957993806
 21
6.973032245
  0
LINE
  5
2C9
100
AcDbEntity
  8
0
100
AcDbLine
 62
7
  6
CONTINUOUS
 10
0.7781000673
 20
-1.5732609719
 11
0.7781000673
 21
-1.2198606398
  0
LINE
  5
2CA
100
AcDbEntity
  8
0
100
AcDbLine
 62
7
  6
CONTINUOUS
 10
0.7781000673
 20
-0.6764904207
 11
0.7781000673
 21
-0.3351870774
  0
LINE
  5
2CB
100
AcDbEntity
  8
0
100
AcDbLine
 62
7
  6
CONTINUOUS
 10
0.7781003806
 20
-6.3917436358
 11
0.7781003806
 21
-6.0790516358
  0
LINE
  5
2CC
100
AcDbEntity
  8
0
100
AcDbLine
 62
7
  6
CONTINUOUS
 10
0.7781003806
 20
-5.4009696358
 11
0.7781003806
 21
-5.0461416358
  0
LINE
  5
2CD
100
AcDbEntity
  8
0
100
AcDbLine
 62
7
  6
CONTINUOUS
 10
0.7781003806
 20
-4.8551266358
 11
0.7781003806
 21
-4.5156716358
  0
LINE
  5
2CE
100
AcDbEntity
  8
0
100
AcDbLine
 62
7
  6
CONTINUOUS
 10
0.7781003806
 20
-4.0228436358
 11
0.7781003806
 21
-3.9730796358
  0
LINE
  5
2CF
100
AcDbEntity
  8
0
100
AcDbLine
 62
7
  6
CONTINUOUS
 10
0.7781003806
 20
-3.4782876358
 11
0.7781003806
 21
-3.1311716358
  0
LINE
  5
2D0
100
AcDbEntity
  8
0
100
AcDbLine
 62
7
  6
CONTINUOUS
 10
0.7781003806
 20
-3.0754546358
 11
0.7781003806
 21
-2.7244766358
  0
LINE
  5
2D1
100
AcDbEntity
  8
0
100
AcDbLine
 62
7
  6
CONTINUOUS
 10
0.7781003806
 20
-2.0514296358
 11
0.7781003806
 21
-1.6774556358
  0
LINE
  5
2D2
100
AcDbEntity
  8
0
100
AcDbLine
 62
7
  6
CONTINUOUS
 10
0.663884488
 20
2.3792823344
 11
0.6957993806
 21
2.5355323642
  0
LINE
  5
2D3
100
AcDbEntity
  8
DRAFT
100
AcDbLine
 62
7
  6
CONTINUOUS
 10
-11.2542006194
 20
0.3127542096
 11
-10.7042006194
 21
0.3296019916
  0
LINE
  5
2D4
100
AcDbEntity
  8
RACCORDO
100
AcDbLine
 62
7
  6
CONTINUOUS
 10
-11.4296259296
 20
0.3127542096
 11
-11.2542006194
 21
0.3127542096
  0
LINE
  5
2D5
100
AcDbEntity
  8
RACCORDO
100
AcDbLine
 62
7
  6
CONTINUOUS
 10
11.1457993806
 20
0.3127542096
 11
11.3212246909
 21
0.3127542096
  0
LINE
  5
2D6
100
AcDbEntity
  8
DRAFT
100
AcDbLine
 62
7
  6
CONTINUOUS
 10
-12.3542006194
 20
0.4105323642
 11
-11.2542006194
 21
0.4105323642
  0
LINE
  5
2D7
100
AcDbEntity
  8
RACCORDO
100
AcDbLine
 62
7
  6
CONTINUOUS
 10
10.7532002504
 20
0.4105323642
 11
11.1457993806
 21
0.4105323642
  0
LINE
  5
2D8
100
AcDbEntity
  8
RACCORDO
100
AcDbLine
 62
7
  6
CONTINUOUS
 10
-10.8616014892
 20
0.4105323642
 11
-11.2542006194
 21
0.4105323642
  0
LINE
  5
2D9
100
AcDbEntity
  8
DRAFT
100
AcDbLine
 62
7
  6
CONTINUOUS
 10
11.1457993806
 20
0.4105323642
 11
12.2457993806
 21
0.4105323642
  0
LINE
  5
2DA
100
AcDbEntity
  8
DRAFT
100
AcDbLine
 62
7
  6
CONTINUOUS
 10
10.5957993806
 20
0.3296019916
 11
11.1457993806
 21
0.3127542096
  0
LINE
  5
2DB
100
AcDbEntity
  8
RACCORDO
100
AcDbLine
 62
7
  6
CONTINUOUS
 10
12.2457993806
 20
-3.7894676358
 11
12.0173900176
 21
-3.7135788698
  0
LINE
  5
2DC
100
AcDbEntity
  8
0
100
AcDbLine
 62
7
  6
CONTINUOUS
 10
-0.5807963907
 20
1.4105323642
 11
-0.8042006194
 21
1.5980323642
  0
LINE
  5
2DD
100
AcDbEntity
  8
0
100
AcDbLine
 62
7
  6
CONTINUOUS
 10
-0.3254771828
 20
1.4105323642
 11
-0.5488815009
 21
1.5980323642
  0
LINE
  5
2DE
100
AcDbEntity
  8
0
100
AcDbLine
 62
7
  6
CONTINUOUS
 10
-0.5488815009
 20
2.316782394
 11
-0.6127112805
 21
2.410532394
  0
LINE
  5
2DF
100
AcDbEntity
  8
0
100
AcDbLine
 62
7
  6
CONTINUOUS
 10
-0.6765410601
 20
2.223032394
 11
-0.7722857296
 21
2.3792823344
  0
LINE
  5
2E0
100
AcDbEntity
  8
0
100
AcDbLine
 62
7
  6
CONTINUOUS
 10
-0.6127112805
 20
2.410532394
 11
-0.6446261703
 21
2.504282394
  0
LINE
  5
2E1
100
AcDbEntity
  8
0
100
AcDbLine
 62
7
  6
CONTINUOUS
 10
-0.0701580643
 20
2.410532394
 11
-0.1020729541
 21
2.504282394
  0
LINE
  5
2E2
100
AcDbEntity
  8
0
100
AcDbLine
 62
7
  6
CONTINUOUS
 10
-0.6127112805
 20
3.7855324238
 11
-0.6446261703
 21
3.9105323046
  0
LINE
  5
2E3
100
AcDbEntity
  8
0
100
AcDbLine
 62
7
  6
CONTINUOUS
 10
-0.1339878439
 20
4.0355323642
 11
-0.1659027337
 21
4.1605324238
  0
LINE
  5
2E4
100
AcDbEntity
  8
0
100
AcDbLine
 62
7
  6
CONTINUOUS
 10
0.0255866052
 20
3.7855324238
 11
-0.0063282847
 21
3.9105323046
  0
LINE
  5
2E5
100
AcDbEntity
  8
0
100
AcDbLine
 62
7
  6
CONTINUOUS
 10
-0.2297325133
 20
2.3792823344
 11
-0.2616474032
 21
2.5355323642
  0
LINE
  5
2E6
100
AcDbEntity
  8
0
100
AcDbLine
 62
7
  6
CONTINUOUS
 10
-0.6127112805
 20
6.6292824834
 11
-0.6446261703
 21
6.785532245
  0
LINE
  5
2E7
100
AcDbEntity
  8
0
100
AcDbLine
 62
7
  6
CONTINUOUS
 10
-0.7722857296
 20
6.598032245
 11
-0.8042006194
 21
6.8167824834
  0
LINE
  5
2E8
100
AcDbEntity
  8
RACCORDO
100
AcDbLine
 62
253
  6
CONTINUOUS
 10
10.7515563105
 20
8.0930458883
 11
10.8056984227
 21
8.1471880005
  0
LINE
  5
2E9
100
AcDbEntity
  8
DRAFT
100
AcDbLine
 62
7
  6
CONTINUOUS
 10
-10.1865091658
 20
-8.4164011369
 11
-9.7042006194
 21
-8.0990125716
  0
LINE
  5
2EA
100
AcDbEntity
  8
0
100
AcDbLine
 62
7
  6
CONTINUOUS
 10
-0.9217626194
 20
-2.1990156358
 11
0.7781003806
 21
-1.6774556358
  0
LINE
  5
2EB
100
AcDbEntity
  8
0
100
AcDbLine
 62
7
  6
CONTINUOUS
 10
0.057501495
 20
2.0355323493
 11
0.2809057684
 21
2.0667823642
  0
LINE
  5
2EC
100
AcDbEntity
  8
0
100
AcDbLine
 62
7
  6
CONTINUOUS
 10
-0.5807963907
 20
1.4105323642
 11
-0.3254771828
 21
1.4105323642
  0
LINE
  5
2ED
100
AcDbEntity
  8
0
100
AcDbLine
 62
7
  6
CONTINUOUS
 10
-0.5488815009
 20
1.5980323642
 11
0.6957993806
 21
1.5980323642
  0
LINE
  5
2EE
100
AcDbEntity
  8
0
100
AcDbLine
 62
7
  6
CONTINUOUS
 10
-0.8042006194
 20
1.7855323642
 11
0.6957993806
 21
1.7855323642
  0
LINE
  5
2EF
100
AcDbEntity
  8
0
100
AcDbLine
 62
7
  6
CONTINUOUS
 10
-0.1659027337
 20
2.0355323493
 11
0.057501495
 21
2.0355323493
  0
LINE
  5
2F0
100
AcDbEntity
  8
0
100
AcDbLine
 62
7
  6
CONTINUOUS
 10
-0.1659027337
 20
2.1917823344
 11
-0.1020729541
 21
2.1917823344
  0
LINE
  5
2F1
100
AcDbEntity
  8
0
100
AcDbLine
 62
7
  6
CONTINUOUS
 10
0.1532462091
 20
2.223032394
 11
0.2489908785
 21
2.223032394
  0
LINE
  5
2F2
100
AcDbEntity
  8
0
100
AcDbLine
 62
7
  6
CONTINUOUS
 10
-0.1659027337
 20
2.0355323493
 11
-0.3893069624
 21
2.0667823642
  0
LINE
  5
2F3
100
AcDbEntity
  8
0
100
AcDbLine
 62
7
  6
CONTINUOUS
 10
-0.1659027337
 20
2.1917823344
 11
-0.3573920726
 21
2.223032394
  0
LINE
  5
2F4
100
AcDbEntity
  8
0
100
AcDbLine
 62
7
  6
CONTINUOUS
 10
-0.3573920726
 20
2.223032394
 11
-0.4531368314
 21
2.2542823642
  0
LINE
  5
2F5
100
AcDbEntity
  8
0
100
AcDbLine
 62
7
  6
CONTINUOUS
 10
0.1532462091
 20
2.223032394
 11
0.057501495
 21
2.2542823642
  0
LINE
  5
2F6
100
AcDbEntity
  8
0
100
AcDbLine
 62
7
  6
CONTINUOUS
 10
-0.3893069624
 20
2.0667823642
 11
-0.5488815009
 21
2.1292823493
  0
LINE
  5
2F7
100
AcDbEntity
  8
0
100
AcDbLine
 62
7
  6
CONTINUOUS
 10
-0.4531368314
 20
2.2542823642
 11
-0.5488815009
 21
2.316782394
  0
LINE
  5
2F8
100
AcDbEntity
  8
0
100
AcDbLine
 62
7
  6
CONTINUOUS
 10
-0.5488815009
 20
2.1292823493
 11
-0.6765410601
 21
2.223032394
  0
LINE
  5
2F9
100
AcDbEntity
  8
0
100
AcDbLine
 62
7
  6
CONTINUOUS
 10
0.057501495
 20
2.2542823642
 11
-0.0063282847
 21
2.316782394
  0
LINE
  5
2FA
100
AcDbEntity
  8
0
100
AcDbLine
 62
7
  6
CONTINUOUS
 10
-0.5807963907
 20
3.5042824238
 11
-0.6765410601
 21
3.5980324238
  0
LINE
  5
2FB
100
AcDbEntity
  8
0
100
AcDbLine
 62
7
  6
CONTINUOUS
 10
-0.5169666111
 20
3.6605323642
 11
-0.6127112805
 21
3.7855324238
  0
LINE
  5
2FC
100
AcDbEntity
  8
0
100
AcDbLine
 62
7
  6
CONTINUOUS
 10
0.057501495
 20
3.4730323642
 11
-0.0382431745
 21
3.5980324238
  0
LINE
  5
2FD
100
AcDbEntity
  8
0
100
AcDbLine
 62
7
  6
CONTINUOUS
 10
-0.1020729541
 20
2.1917823344
 11
-0.2297325133
 21
2.3792823344
  0
LINE
  5
2FE
100
AcDbEntity
  8
0
100
AcDbLine
 62
7
  6
CONTINUOUS
 10
-0.0063282847
 20
2.316782394
 11
-0.0701580643
 21
2.410532394
  0
LINE
  5
2FF
100
AcDbEntity
  8
0
100
AcDbLine
 62
7
  6
CONTINUOUS
 10
0.5043100194
 20
2.8167823642
 11
0.4404802398
 21
2.9105323642
  0
LINE
  5
300
100
AcDbEntity
  8
0
100
AcDbLine
 62
7
  6
CONTINUOUS
 10
-0.6765410601
 20
3.5980324238
 11
-0.7722857296
 21
3.7542823642
  0
LINE
  5
301
100
AcDbEntity
  8
0
100
AcDbLine
 62
7
  6
CONTINUOUS
 10
0.663884488
 20
2.8480323344
 11
0.5681398102
 21
3.0042823642
  0
LINE
  5
302
100
AcDbEntity
  8
0
100
AcDbLine
 62
7
  6
CONTINUOUS
 10
-0.0382431745
 20
3.5980324238
 11
-0.0701580643
 21
3.6605323642
  0
LINE
  5
303
100
AcDbEntity
  8
0
100
AcDbLine
 62
7
  6
CONTINUOUS
 10
0.0894163848
 20
3.6605323642
 11
0.0255866052
 21
3.7855324238
  0
LINE
  5
304
100
AcDbEntity
  8
0
100
AcDbLine
 62
7
  6
CONTINUOUS
 10
-0.0701580643
 20
4.2855323046
 11
-0.1020729541
 21
4.3480324238
  0
LINE
  5
305
100
AcDbEntity
  8
0
100
AcDbLine
 62
7
  6
CONTINUOUS
 10
0.5362249092
 20
2.7230323642
 11
0.5043100194
 21
2.8167823642
  0
LINE
  5
306
100
AcDbEntity
  8
0
100
AcDbLine
 62
7
  6
CONTINUOUS
 10
-0.1339878439
 20
6.9105324834
 11
-0.1978176235
 21
7.0980324834
  0
LINE
  5
307
100
AcDbEntity
  8
0
100
AcDbLine
 62
7
  6
CONTINUOUS
 10
0.5362249092
 20
4.0355323642
 11
0.5043100194
 21
4.1605324238
  0
LINE
  5
308
100
AcDbEntity
  8
0
100
AcDbLine
 62
7
  6
CONTINUOUS
 10
0.6957993806
 20
2.691782394
 11
0.663884488
 21
2.8480323344
  0
LINE
  5
309
100
AcDbEntity
  8
0
100
AcDbLine
 62
7
  6
CONTINUOUS
 10
0.6957993806
 20
4.0667824238
 11
0.663884488
 21
4.2230323642
  0
LINE
  5
30A
100
AcDbEntity
  8
0
100
AcDbLine
 62
7
  6
CONTINUOUS
 10
0.5362249092
 20
6.9417823642
 11
0.5043100194
 21
7.0980324834
  0
LINE
  5
30B
100
AcDbEntity
  8
RACCORDO
100
AcDbLine
 62
253
  6
CONTINUOUS
 10
11.0515106226
 20
7.7930915833
 11
11.1056527313
 21
7.847233692
  0
LINE
  5
30C
100
AcDbEntity
  8
0
100
AcDbLine
 62
7
  6
CONTINUOUS
 10
0.1532462091
 20
3.0042823642
 11
0.2489908785
 21
3.0042823642
  0
LINE
  5
30D
100
AcDbEntity
  8
0
100
AcDbLine
 62
7
  6
CONTINUOUS
 10
0.1213312746
 20
3.1605323046
 11
0.2809057684
 21
3.1605323046
  0
LINE
  5
30E
100
AcDbEntity
  8
0
100
AcDbLine
 62
7
  6
CONTINUOUS
 10
0.344735548
 20
2.9730323046
 11
0.2489908785
 21
3.0042823642
  0
LINE
  5
30F
100
AcDbEntity
  8
0
100
AcDbLine
 62
7
  6
CONTINUOUS
 10
0.4404802398
 20
3.0980323642
 11
0.2809057684
 21
3.1605323046
  0
LINE
  5
310
100
AcDbEntity
  8
0
100
AcDbLine
 62
7
  6
CONTINUOUS
 10
-0.4212218522
 20
3.4417823046
 11
-0.5807963907
 21
3.5042824238
  0
LINE
  5
311
100
AcDbEntity
  8
0
100
AcDbLine
 62
7
  6
CONTINUOUS
 10
0.4404802398
 20
2.9105323642
 11
0.344735548
 21
2.9730323046
  0
LINE
  5
312
100
AcDbEntity
  8
0
100
AcDbLine
 62
7
  6
CONTINUOUS
 10
-0.4212218522
 20
3.5980324238
 11
-0.5169666111
 21
3.6605323642
  0
LINE
  5
313
100
AcDbEntity
  8
0
100
AcDbLine
 62
7
  6
CONTINUOUS
 10
0.5681398102
 20
3.0042823642
 11
0.4404802398
 21
3.0980323642
  0
LINE
  5
314
100
AcDbEntity
  8
0
100
AcDbLine
 62
7
  6
CONTINUOUS
 10
0.2170759887
 20
3.5667823642
 11
0.0894163848
 21
3.6605323642
  0
LINE
  5
315
100
AcDbEntity
  8
0
100
AcDbLine
 62
7
  6
CONTINUOUS
 10
-0.1020729541
 20
4.3480324238
 11
-0.1978176235
 21
4.441782245
  0
LINE
  5
316
100
AcDbEntity
  8
0
100
AcDbLine
 62
7
  6
CONTINUOUS
 10
-0.1659027337
 20
4.1605324238
 11
-0.2616474032
 21
4.2855323046
  0
LINE
  5
317
100
AcDbEntity
  8
0
100
AcDbLine
 62
7
  6
CONTINUOUS
 10
0.663884488
 20
4.2230323642
 11
0.5681398102
 21
4.3792823046
  0
LINE
  5
318
100
AcDbEntity
  8
0
100
AcDbLine
 62
7
  6
CONTINUOUS
 10
-0.7084559499
 20
6.4730323642
 11
-0.7722857296
 21
6.598032245
  0
LINE
  5
319
100
AcDbEntity
  8
0
100
AcDbLine
 62
7
  6
CONTINUOUS
 10
0.5043100194
 20
4.1605324238
 11
0.4404802398
 21
4.2855323046
  0
LINE
  5
31A
100
AcDbEntity
  8
0
100
AcDbLine
 62
7
  6
CONTINUOUS
 10
0.6957993806
 20
6.973032245
 11
0.663884488
 21
7.0980324834
  0
LINE
  5
31B
100
AcDbEntity
  8
DRAFT
100
AcDbLine
 62
7
  6
CONTINUOUS
 10
3.6134908342
 20
-9.1894676358
 11
3.6134908342
 21
-8.4164011369
  0
LINE
  5
31C
100
AcDbEntity
  8
DRAFT
100
AcDbLine
 62
7
  6
CONTINUOUS
 10
4.0957993806
 20
-9.1737592738
 11
4.0957993806
 21
-8.0990125716
  0
LINE
  5
31D
100
AcDbEntity
  8
0
100
AcDbLine
 62
7
  6
CONTINUOUS
 10
-0.3318786194
 20
-4.4390996358
 11
0.7781003806
 21
-4.0228436358
  0
LINE
  5
31E
100
AcDbEntity
  8
0
100
AcDbLine
 62
7
  6
CONTINUOUS
 10
-0.9217626194
 20
-4.3471046358
 11
0.0220063806
 21
-3.9960236358
  0
LINE
  5
31F
100
AcDbEntity
  8
RACCORDO
100
AcDbLine
 62
7
  6
CONTINUOUS
 10
12.2457993806
 20
0.4105323642
 11
12.0173900176
 21
0.3346435982
  0
LINE
  5
320
100
AcDbEntity
  8
0
100
AcDbLine
 62
7
  6
CONTINUOUS
 10
0.2170759887
 20
3.4105324238
 11
0.3128206582
 21
3.4105324238
  0
LINE
  5
321
100
AcDbEntity
  8
0
100
AcDbLine
 62
7
  6
CONTINUOUS
 10
-0.4212218522
 20
3.4417823046
 11
-0.3254771828
 21
3.4417823046
  0
LINE
  5
322
100
AcDbEntity
  8
0
100
AcDbLine
 62
7
  6
CONTINUOUS
 10
0.2170759887
 20
3.5667823642
 11
0.3128206582
 21
3.5667823642
  0
LINE
  5
323
100
AcDbEntity
  8
0
100
AcDbLine
 62
7
  6
CONTINUOUS
 10
-0.4212218522
 20
3.5980324238
 11
-0.3573920726
 21
3.5980324238
  0
LINE
  5
324
100
AcDbEntity
  8
0
100
AcDbLine
 62
7
  6
CONTINUOUS
 10
0.2170759887
 20
3.4105324238
 11
0.057501495
 21
3.4730323642
  0
LINE
  5
325
100
AcDbEntity
  8
0
100
AcDbLine
 62
7
  6
CONTINUOUS
 10
-0.1978176235
 20
4.441782245
 11
-0.3254771828
 21
4.5042823642
  0
LINE
  5
326
100
AcDbEntity
  8
0
100
AcDbLine
 62
7
  6
CONTINUOUS
 10
-0.2616474032
 20
4.2855323046
 11
-0.3573920726
 21
4.3480324238
  0
LINE
  5
327
100
AcDbEntity
  8
0
100
AcDbLine
 62
7
  6
CONTINUOUS
 10
0.4404802398
 20
4.2855323046
 11
0.3128206582
 21
4.3792823046
  0
LINE
  5
328
100
AcDbEntity
  8
0
100
AcDbLine
 62
7
  6
CONTINUOUS
 10
0.057501495
 20
4.7855323642
 11
-0.8042006194
 21
5.5355323642
  0
LINE
  5
329
100
AcDbEntity
  8
0
100
AcDbLine
 62
7
  6
CONTINUOUS
 10
0.057501495
 20
5.004282245
 11
-0.5488815009
 21
5.5355323642
  0
LINE
  5
32A
100
AcDbEntity
  8
0
100
AcDbLine
 62
7
  6
CONTINUOUS
 10
0.5681398102
 20
4.3792823046
 11
0.4723951296
 21
4.4730324834
  0
LINE
  5
32B
100
AcDbEntity
  8
0
100
AcDbLine
 62
7
  6
CONTINUOUS
 10
-0.5807963907
 20
6.3480324834
 11
-0.7084559499
 21
6.4730323642
  0
LINE
  5
32C
100
AcDbEntity
  8
0
100
AcDbLine
 62
7
  6
CONTINUOUS
 10
-0.5488815009
 20
6.5355324834
 11
-0.6127112805
 21
6.6292824834
  0
LINE
  5
32D
100
AcDbEntity
  8
0
100
AcDbLine
 62
7
  6
CONTINUOUS
 10
0.5043100194
 20
7.0980324834
 11
0.4723951296
 21
7.160532245
  0
LINE
  5
32E
100
AcDbEntity
  8
0
100
AcDbLine
 62
7
  6
CONTINUOUS
 10
0.663884488
 20
7.0980324834
 11
0.6000547
 21
7.2230323642
  0
LINE
  5
32F
100
AcDbEntity
  8
0
100
AcDbLine
 62
7
  6
CONTINUOUS
 10
-0.4212218522
 20
4.3480324238
 11
-0.3573920726
 21
4.3480324238
  0
LINE
  5
330
100
AcDbEntity
  8
0
100
AcDbLine
 62
7
  6
CONTINUOUS
 10
0.2170759887
 20
4.3792823046
 11
0.3128206582
 21
4.3792823046
  0
LINE
  5
331
100
AcDbEntity
  8
0
100
AcDbLine
 62
7
  6
CONTINUOUS
 10
-0.4212218522
 20
4.5042823642
 11
-0.3254771828
 21
4.5042823642
  0
LINE
  5
332
100
AcDbEntity
  8
0
100
AcDbLine
 62
7
  6
CONTINUOUS
 10
0.2170759887
 20
4.535532245
 11
0.3128206582
 21
4.535532245
  0
LINE
  5
333
100
AcDbEntity
  8
0
100
AcDbLine
 62
7
  6
CONTINUOUS
 10
0.057501495
 20
4.7855323642
 11
0.2489908785
 21
4.7855323642
  0
LINE
  5
334
100
AcDbEntity
  8
DRAFT
100
AcDbLine
 62
7
  6
CONTINUOUS
 10
-12.3542006194
 20
5.2703857148
 11
-11.2542006194
 21
5.2703857148
  0
LINE
  5
335
100
AcDbEntity
  8
DRAFT
100
AcDbLine
 62
7
  6
CONTINUOUS
 10
11.1457993806
 20
5.2703857148
 11
12.2457993806
 21
5.2703857148
  0
LINE
  5
336
100
AcDbEntity
  8
DRAFT
100
AcDbLine
 62
7
  6
CONTINUOUS
 10
-12.31405397
 20
5.3105323642
 11
-11.21405397
 21
5.3105323642
  0
LINE
  5
337
100
AcDbEntity
  8
DRAFT
100
AcDbLine
 62
7
  6
CONTINUOUS
 10
11.1056527313
 20
5.3105323642
 11
12.2056527313
 21
5.3105323642
  0
LINE
  5
338
100
AcDbEntity
  8
0
100
AcDbLine
 62
7
  6
CONTINUOUS
 10
0.4723951296
 20
4.4730324834
 11
0.3128206582
 21
4.535532245
  0
LINE
  5
339
100
AcDbEntity
  8
0
100
AcDbLine
 62
7
  6
CONTINUOUS
 10
-0.4531368314
 20
6.4730323642
 11
-0.5488815009
 21
6.5355324834
  0
LINE
  5
33A
100
AcDbEntity
  8
0
100
AcDbLine
 62
7
  6
CONTINUOUS
 10
-0.1978176235
 20
7.0980324834
 11
-0.2616474032
 21
7.160532245
  0
LINE
  5
33B
100
AcDbEntity
  8
0
100
AcDbLine
 62
7
  6
CONTINUOUS
 10
-0.0701580643
 20
7.160532245
 11
-0.1659027337
 21
7.2855324834
  0
LINE
  5
33C
100
AcDbEntity
  8
0
100
AcDbLine
 62
7
  6
CONTINUOUS
 10
0.6000547
 20
7.2230323642
 11
0.5362249092
 21
7.3167823642
  0
LINE
  5
33D
100
AcDbEntity
  8
0
100
AcDbLine
 62
7
  6
CONTINUOUS
 10
-0.5488815009
 20
5.5355323642
 11
0.057501495
 21
5.5355323642
  0
LINE
  5
33E
100
AcDbEntity
  8
0
100
AcDbLine
 62
7
  6
CONTINUOUS
 10
0.2489908785
 20
5.5355323642
 11
0.6957993806
 21
5.5355323642
  0
LINE
  5
33F
100
AcDbEntity
  8
0
100
AcDbLine
 62
7
  6
CONTINUOUS
 10
-0.8042006194
 20
5.7230323642
 11
0.057501495
 21
5.7230323642
  0
LINE
  5
340
100
AcDbEntity
  8
0
100
AcDbLine
 62
7
  6
CONTINUOUS
 10
0.2489908785
 20
5.7230323642
 11
0.6957993806
 21
5.7230323642
  0
LINE
  5
341
100
AcDbEntity
  8
0
100
AcDbLine
 62
7
  6
CONTINUOUS
 10
0.057501495
 20
6.035532245
 11
0.2489908785
 21
6.035532245
  0
LINE
  5
342
100
AcDbEntity
  8
0
100
AcDbLine
 62
7
  6
CONTINUOUS
 10
-0.4531368314
 20
6.316782245
 11
-0.5807963907
 21
6.3480324834
  0
LINE
  5
343
100
AcDbEntity
  8
0
100
AcDbLine
 62
7
  6
CONTINUOUS
 10
-0.1659027337
 20
7.2855324834
 11
-0.2616474032
 21
7.348032245
  0
LINE
  5
344
100
AcDbEntity
  8
0
100
AcDbLine
 62
7
  6
CONTINUOUS
 10
0.4723951296
 20
7.160532245
 11
0.4085653276
 21
7.2230323642
  0
LINE
  5
345
100
AcDbEntity
  8
0
100
AcDbLine
 62
7
  6
CONTINUOUS
 10
-0.9217626194
 20
-6.9306336358
 11
0.7781003806
 21
-6.3917436358
  0
LINE
  5
346
100
AcDbEntity
  8
0
100
AcDbLine
 62
7
  6
CONTINUOUS
 10
0.0894163848
 20
7.3792824834
 11
0.2170759887
 21
7.4105323642
  0
LINE
  5
347
100
AcDbEntity
  8
0
100
AcDbLine
 62
7
  6
CONTINUOUS
 10
-0.5807963907
 20
7.348032245
 11
-0.4531368314
 21
7.3792824834
  0
LINE
  5
348
100
AcDbEntity
  8
DRAFT
100
AcDbLine
 62
7
  6
CONTINUOUS
 10
8.379525574
 20
8.1471880005
 11
8.1957993806
 21
8.1105323642
  0
LINE
  5
349
100
AcDbEntity
  8
0
100
AcDbLine
 62
7
  6
CONTINUOUS
 10
-0.1339878439
 20
6.785532245
 11
-0.0063282847
 21
6.785532245
  0
LINE
  5
34A
100
AcDbEntity
  8
0
100
AcDbLine
 62
7
  6
CONTINUOUS
 10
-0.4531368314
 20
7.2230323642
 11
-0.3893069624
 21
7.2230323642
  0
LINE
  5
34B
100
AcDbEntity
  8
0
100
AcDbLine
 62
7
  6
CONTINUOUS
 10
0.2170759887
 20
7.254282245
 11
0.344735548
 21
7.254282245
  0
LINE
  5
34C
100
AcDbEntity
  8
DRAFT
100
AcDbLine
 62
7
  6
CONTINUOUS
 10
-8.4879268128
 20
8.1471880005
 11
-8.3042006194
 21
8.1105323642
  0
LINE
  5
34D
100
AcDbEntity
  8
0
100
AcDbLine
 62
7
  6
CONTINUOUS
 10
-0.2616474032
 20
7.348032245
 11
-0.3893069624
 21
7.3792824834
  0
LINE
  5
34E
100
AcDbEntity
  8
0
100
AcDbLine
 62
7
  6
CONTINUOUS
 10
0.4404802398
 20
7.3792824834
 11
0.344735548
 21
7.4105323642
  0
LINE
  5
34F
100
AcDbEntity
  8
0
100
AcDbLine
 62
7
  6
CONTINUOUS
 10
-0.2616474032
 20
7.160532245
 11
-0.3893069624
 21
7.2230323642
  0
LINE
  5
350
100
AcDbEntity
  8
0
100
AcDbLine
 62
7
  6
CONTINUOUS
 10
0.4085653276
 20
7.2230323642
 11
0.344735548
 21
7.254282245
  0
LINE
  5
351
100
AcDbEntity
  8
0
100
AcDbLine
 62
7
  6
CONTINUOUS
 10
0.5362249092
 20
7.3167823642
 11
0.4404802398
 21
7.3792824834
  0
LINE
  5
352
100
AcDbEntity
  8
DRAFT
100
AcDbLine
 62
7
  6
CONTINUOUS
 10
8.1957993806
 20
9.2511851434
 11
8.1957993806
 21
8.1105323642
  0
LINE
  5
353
100
AcDbEntity
  8
DRAFT
100
AcDbLine
 62
7
  6
CONTINUOUS
 10
8.379525574
 20
9.2878407798
 11
8.1957993806
 21
9.2511851434
  0
LINE
  5
354
100
AcDbEntity
  8
0
100
AcDbLine
 62
7
  6
CONTINUOUS
 10
-0.4531368314
 20
7.3792824834
 11
-0.3893069624
 21
7.3792824834
  0
LINE
  5
355
100
AcDbEntity
  8
0
100
AcDbLine
 62
7
  6
CONTINUOUS
 10
0.2170759887
 20
7.4105323642
 11
0.344735548
 21
7.4105323642
  0
LINE
  5
356
100
AcDbEntity
  8
RACCORDO
100
AcDbLine
 62
253
  6
CONTINUOUS
 10
-10.8599575564
 20
7.7918746874
 11
10.7515563177
 21
7.7918746874
  0
LINE
  5
357
100
AcDbEntity
  8
RACCORDO
100
AcDbLine
 62
253
  6
CONTINUOUS
 10
-10.8599575493
 20
8.0930458883
 11
10.7515563105
 21
8.0930458883
  0
LINE
  5
358
100
AcDbEntity
  8
DRAFT
100
AcDbLine
 62
7
  6
CONTINUOUS
 10
-8.3042006194
 20
8.1105323642
 11
8.1957993806
 21
8.1105323642
  0
LINE
  5
359
100
AcDbEntity
  8
RACCORDO
100
AcDbLine
 62
7
  6
CONTINUOUS
 10
-10.9140996615
 20
8.1471880005
 11
-8.4879268128
 21
8.1471880005
  0
LINE
  5
35A
100
AcDbEntity
  8
RACCORDO
100
AcDbLine
 62
7
  6
CONTINUOUS
 10
8.379525574
 20
8.1471880005
 11
10.8056984227
 21
8.1471880005
  0
LINE
  5
35B
100
AcDbEntity
  8
DRAFT
100
AcDbLine
 62
7
  6
CONTINUOUS
 10
-8.4879268128
 20
9.2878407798
 11
-8.3042006194
 21
9.2511851434
  0
LINE
  5
35C
100
AcDbEntity
  8
DRAFT
100
AcDbLine
 62
7
  6
CONTINUOUS
 10
8.379525574
 20
9.2878407798
 11
8.379525574
 21
8.1471880005
  0
LINE
  5
35D
100
AcDbEntity
  8
DRAFT
100
AcDbLine
 62
7
  6
CONTINUOUS
 10
3.6134908342
 20
-8.4164011369
 11
4.0957993806
 21
-8.0990125716
  0
LINE
  5
35E
100
AcDbEntity
  8
DRAFT
100
AcDbLine
 62
7
  6
CONTINUOUS
 10
8.1957993806
 20
9.2511851434
 11
-8.3042006194
 21
9.2511851434
  0
LINE
  5
35F
100
AcDbEntity
  8
RACCORDO
100
AcDbLine
 62
7
  6
CONTINUOUS
 10
-12.0640920463
 20
9.2878407798
 11
-8.4879268128
 21
9.2878407798
  0
LINE
  5
360
100
AcDbEntity
  8
RACCORDO
100
AcDbLine
 62
7
  6
CONTINUOUS
 10
8.379525574
 20
9.2878407798
 11
11.9556908075
 21
9.2878407798
  0
LINE
  5
361
100
AcDbEntity
  8
RACCORDO
100
AcDbLine
 62
253
  6
CONTINUOUS
 10
10.8466629943
 20
-8.4164011369
 11
10.7572661012
 21
-7.5133346455
  0
LINE
  5
362
100
AcDbEntity
  8
RACCORDO
100
AcDbLine
 62
253
  6
CONTINUOUS
 10
11.1457993806
 20
-8.1126963524
 11
11.0572204135
 21
-7.2178923571
  0
LINE
  5
363
100
AcDbEntity
  8
DRAFT
100
AcDbLine
 62
7
  6
CONTINUOUS
 10
9.5957993806
 20
-9.1737592738
 11
9.5957993806
 21
-8.0990125716
  0
LINE
  5
364
100
AcDbEntity
  8
DRAFT
100
AcDbLine
 62
7
  6
CONTINUOUS
 10
10.078107927
 20
-9.1894676358
 11
10.078107927
 21
-8.4164011369
  0
LINE
  5
365
100
AcDbEntity
  8
DRAFT
100
AcDbLine
 62
7
  6
CONTINUOUS
 10
10.5957993806
 20
-3.7312357634
 11
10.5957993806
 21
0.3523004918
  0
LINE
  5
366
100
AcDbEntity
  8
RACCORDO
100
AcDbLine
 62
253
  6
CONTINUOUS
 10
10.7532002504
 20
0.4105323642
 11
10.7515563105
 21
8.0930458883
  0
LINE
  5
367
100
AcDbEntity
  8
RACCORDO
100
AcDbLine
 62
253
  6
CONTINUOUS
 10
10.7572661012
 20
-7.5133346455
 11
10.7551374752
 21
-3.7894676358
  0
LINE
  5
368
100
AcDbEntity
  8
RACCORDO
100
AcDbLine
 62
7
  6
CONTINUOUS
 10
11.1056527313
 20
7.847233692
 11
11.1056527313
 21
5.3105323642
  0
LINE
  5
369
100
AcDbEntity
  8
DRAFT
100
AcDbLine
 62
7
  6
CONTINUOUS
 10
11.1457993806
 20
-3.742324597
 11
11.1457993806
 21
-3.7894676358
  0
LINE
  5
36A
100
AcDbEntity
  8
RACCORDO
100
AcDbLine
 62
7
  6
CONTINUOUS
 10
11.1457993806
 20
-8.1126963524
 11
11.1457993806
 21
-3.7894676358
  0
LINE
  5
36B
100
AcDbEntity
  8
DRAFT
100
AcDbLine
 62
7
  6
CONTINUOUS
 10
11.1457993806
 20
-3.6916894812
 11
11.1457993806
 21
0.3127542096
  0
LINE
  5
36C
100
AcDbEntity
  8
DRAFT
100
AcDbLine
 62
7
  6
CONTINUOUS
 10
11.1457993806
 20
0.3633893254
 11
11.1457993806
 21
5.2703857148
  0
LINE
  5
36D
100
AcDbEntity
  8
RACCORDO
100
AcDbLine
 62
253
  6
CONTINUOUS
 10
11.3212246909
 20
-3.6916894812
 11
11.3212246909
 21
0.3127542096
  0
LINE
  5
36E
100
AcDbEntity
  8
RACCORDO
100
AcDbLine
 62
253
  6
CONTINUOUS
 10
12.0173900176
 20
-3.7135788698
 11
12.0173900176
 21
0.3346435982
  0
LINE
  5
36F
100
AcDbEntity
  8
RACCORDO
100
AcDbLine
 62
7
  6
CONTINUOUS
 10
12.2056527313
 20
5.3105323642
 11
12.2056527313
 21
9.037878856
  0
LINE
  5
370
100
AcDbEntity
  8
RACCORDO
100
AcDbLine
 62
7
  6
CONTINUOUS
 10
12.2457993806
 20
-3.7894676358
 11
12.2457993806
 21
-8.9394961924
  0
LINE
  5
371
100
AcDbEntity
  8
DRAFT
100
AcDbLine
 62
7
  6
CONTINUOUS
 10
12.2457993806
 20
-3.7894676358
 11
12.2457993806
 21
5.2703857148
  0
LINE
  5
372
100
AcDbEntity
  8
DRAFT
100
AcDbLine
 62
7
  6
CONTINUOUS
 10
11.1457993806
 20
5.2703857148
 11
11.1056527313
 21
5.3105323642
  0
LINE
  5
373
100
AcDbEntity
  8
DRAFT
100
AcDbLine
 62
7
  6
CONTINUOUS
 10
12.2457993806
 20
5.2703857148
 11
12.2056527313
 21
5.3105323642
  0
ARC
  5
374
100
AcDbEntity
  8
RACCORDO
100
AcDbCircle
 62
253
  6
CONTINUOUS
 10
-10.8598485497
 20
7.79298258
 40
0.3000638607
100
AcDbArc
 50
90.020812984
 51
179.9791869709
  0
ARC
  5
375
100
AcDbEntity
  8
RACCORDO
100
AcDbCircle
 62
253
  6
CONTINUOUS
 10
10.7514472939
 20
7.7929825631
 40
0.3000638408
100
AcDbArc
 50
0.0208162493
 51
89.9791837507
  0
SPLINE
  5
376
100
AcDbEntity
  8
0
100
AcDbSpline
 62
7
  6
CONTINUOUS
 70
0
 71
3
 72
9
 73
5
 74
3
 42
0.0000001
 43
0.0000001
 44
0.0000000001
 12
-0.0094537596
 22
0.4232572779
 32
0.0
 13
-0.4233861002
 23
-0.0063259668
 33
0.0
 40
0.0
 40
0.0
 40
0.0
 40
0.0
 40
0.479537544
 40
1.0
 40
1.0
 40
1.0
 40
1.0
 10
-0.1655287879
 20
-1.0288454914
 30
0.0
 10
-0.1670399321
 20
-0.9611895729
 30
0.0
 10
-0.1956617036
 20
-0.8040474965
 30
0.0
 10
-0.3560946502
 20
-0.7521155568
 30
0.0
 10
-0.4295468401
 20
-0.7532130328
 30
0.0
 11
-0.1655287879
 21
-1.0288454914
 31
0.0
 11
-0.2248011645
 21
-0.8346722513
 31
0.0
 11
-0.4295468401
 21
-0.7532130328
 31
0.0
  0
SPLINE
  5
377
100
AcDbEntity
  8
0
100
AcDbSpline
 62
7
  6
CONTINUOUS
 70
0
 71
3
 72
9
 73
5
 74
3
 42
0.0000001
 43
0.0000001
 44
0.0000000001
 12
-0.3133621804
 22
-0.004682097
 32
0.0
 13
-0.0361338581
 23
-0.3113313547
 33
0.0
 40
0.0
 40
0.0
 40
0.0
 40
0.0
 40
0.4988583522
 40
1.0
 40
1.0
 40
1.0
 40
1.0
 10
-0.4295468403
 20
-0.7532130181
 30
0.0
 10
-0.4816546206
 20
-0.7539915859
 30
0.0
 10
-0.5903285778
 20
-0.796416133
 30
0.0
 10
-0.6361457216
 20
-0.9016523783
 30
0.0
 10
-0.642181782
 20
-0.9536594143
 30
0.0
 11
-0.4295468403
 21
-0.7532130181
 31
0.0
 11
-0.5744379181
 21
-0.8119505628
 31
0.0
 11
-0.642181782
 21
-0.9536594143
 31
0.0
  0
SPLINE
  5
378
100
AcDbEntity
  8
0
100
AcDbSpline
 62
7
  6
CONTINUOUS
 70
0
 71
3
 72
9
 73
5
 74
3
 42
0.0000001
 43
0.0000001
 44
0.0000000001
 12
-0.0321345863
 22
-0.2768734098
 32
0.0
 13
0.0468836161
 23
-0.2747605688
 33
0.0
 40
0.0
 40
0.0
 40
0.0
 40
0.0
 40
0.7295958321
 40
1.0
 40
1.0
 40
1.0
 40
1.0
 10
-0.6421817819
 20
-0.9536594143
 30
0.0
 10
-0.6499968686
 20
-1.0209946429
 30
0.0
 10
-0.6502981165
 20
-1.1149873315
 30
0.0
 10
-0.6364001121
 20
-1.2068607365
 30
0.0
 10
-0.6321742704
 20
-1.2316262042
 30
0.0
 11
-0.6421817819
 21
-0.9536594143
 31
0.0
 11
-0.6428780419
 21
-1.1570198746
 31
0.0
 11
-0.6321742704
 21
-1.2316262042
 31
0.0
  0
SPLINE
  5
379
100
AcDbEntity
  8
0
100
AcDbSpline
 62
7
  6
CONTINUOUS
 70
0
 71
3
 72
9
 73
5
 74
3
 42
0.0000001
 43
0.0000001
 44
0.0000000001
 12
-0.1283409936
 22
0.8723734796
 32
0.0
 13
0.2997648629
 23
0.8292492547
 33
0.0
 40
0.0
 40
0.0
 40
0.0
 40
0.0
 40
0.7041529016
 40
1.0
 40
1.0
 40
1.0
 40
1.0
 10
-0.9019027016
 20
-1.5732609719
 30
0.0
 10
-0.9320265959
 20
-1.3684995329
 30
0.0
 10
-0.9616787933
 20
-1.0731052472
 30
0.0
 10
-0.9135224932
 20
-0.7792525874
 30
0.0
 10
-0.8839609715
 20
-0.6974755921
 30
0.0
 11
-0.9019027016
 21
-1.5732609719
 31
0.0
 11
-0.9352060684
 21
-0.9532584325
 31
0.0
 11
-0.8839609715
 21
-0.6974755921
 31
0.0
  0
SPLINE
  5
37A
100
AcDbEntity
  8
0
100
AcDbSpline
 62
7
  6
CONTINUOUS
 70
0
 71
3
 72
19
 73
15
 74
13
 42
0.0000001
 43
0.0000001
 44
0.0000000001
 12
0.3600760576
 22
0.9965769864
 32
0.0
 13
0.1356030513
 23
-1.0509236475
 33
0.0
 40
0.0
 40
0.0
 40
0.0
 40
0.0
 40
0.0797896711
 40
0.1894255919
 40
0.32209024
 40
0.398256102
 40
0.4829878421
 40
0.5370586526
 40
0.587390067
 40
0.6786070889
 40
0.7595523824
 40
0.8313417896
 40
0.9440536923
 40
1.0
 40
1.0
 40
1.0
 40
1.0
 10
-0.8839610094
 20
-0.6974755768
 30
0.0
 10
-0.874384226
 20
-0.6709700602
 30
0.0
 10
-0.8416959447
 20
-0.6117225253
 30
0.0
 10
-0.7659047926
 20
-0.5255221454
 30
0.0
 10
-0.6689395373
 20
-0.4644409303
 30
0.0
 10
-0.570027508
 20
-0.431934575
 30
0.0
 10
-0.4944834721
 20
-0.4210200491
 30
0.0
 10
-0.4275996774
 20
-0.4198346619
 30
0.0
 10
-0.3586345048
 20
-0.4252212645
 30
0.0
 10
-0.2813800694
 20
-0.4426448081
 30
0.0
 10
-0.202288963
 20
-0.4775455466
 30
0.0
 10
-0.1230346927
 20
-0.5296011845
 30
0.0
 10
-0.0672228167
 20
-0.5916135718
 30
0.0
 10
-0.0279543482
 20
-0.6414170205
 30
0.0
 10
-0.0254255182
 20
-0.6610154531
 30
0.0
 11
-0.8839610094
 21
-0.6974755768
 31
0.0
 11
-0.8447375783
 21
-0.6225750088
 31
0.0
 11
-0.767892541
 21
-0.5354470531
 31
0.0
 11
-0.6490012263
 21
-0.4604368001
 31
0.0
 11
-0.5723915122
 21
-0.4350448949
 31
0.0
 11
-0.4835941856
 21
-0.4217653148
 31
0.0
 11
-0.42630766
 21
-0.4207578528
 31
0.0
 11
-0.3731439841
 21
-0.4250041214
 31
0.0
 11
-0.2789257083
 21
-0.4465787212
 31
0.0
 11
-0.2004204123
 21
-0.4811308547
 31
0.0
 11
-0.13710915
 21
-0.5233022628
 31
0.0
 11
-0.0539929426
 21
-0.609069865
 31
0.0
 11
-0.0254255182
 21
-0.6610154531
 31
0.0
  0
SPLINE
  5
37B
100
AcDbEntity
  8
0
100
AcDbSpline
 62
7
  6
CONTINUOUS
 70
0
 71
3
 72
8
 73
4
 74
2
 42
0.0000001
 43
0.0000001
 44
0.0000000001
 12
0.0158223653
 22
0.0396799131
 32
0.0
 13
0.0236187274
 23
0.0350805133
 33
0.0
 40
0.0
 40
0.0
 40
0.0
 40
0.0
 40
1.0
 40
1.0
 40
1.0
 40
1.0
 10
-0.015380811
 20
-0.6610154531
 30
0.0
 10
-0.0101066892
 20
-0.6477888154
 30
0.0
 10
-0.003419163
 20
-0.6353526945
 30
0.0
 10
0.0044537461
 20
-0.6236591901
 30
0.0
 11
-0.015380811
 21
-0.6610154531
 31
0.0
 11
0.0044537461
 21
-0.6236591901
 31
0.0
  0
SPLINE
  5
37C
100
AcDbEntity
  8
0
100
AcDbSpline
 62
7
  6
CONTINUOUS
 70
0
 71
3
 72
9
 73
5
 74
3
 42
0.0000001
 43
0.0000001
 44
0.0000000001
 12
0.1952410458
 22
0.2899883639
 32
0.0
 13
0.3407124213
 23
0.0928241947
 33
0.0
 40
0.0
 40
0.0
 40
0.0
 40
0.0
 40
0.7279055075
 40
1.0
 40
1.0
 40
1.0
 40
1.0
 10
0.0044537461
 20
-0.6236591901
 30
0.0
 10
0.0518260903
 20
-0.5532978143
 30
0.0
 10
0.1758671802
 20
-0.49357264
 30
0.0
 10
0.2871537572
 20
-0.464897453
 30
0.0
 10
0.3180557484
 20
-0.4564784689
 30
0.0
 11
0.0044537461
 21
-0.6236591901
 31
0.0
 11
0.2256485422
 21
-0.4828009725
 31
0.0
 11
0.3180557484
 21
-0.4564784689
 31
0.0
  0
SPLINE
  5
37D
100
AcDbEntity
  8
0
100
AcDbSpline
 62
7
  6
CONTINUOUS
 70
0
 71
3
 72
9
 73
5
 74
3
 42
0.0000001
 43
0.0000001
 44
0.0000000001
 12
0.4590342985
 22
0.125059974
 32
0.0
 13
0.4591324757
 23
0.1246990799
 33
0.0
 40
0.0
 40
0.0
 40
0.0
 40
0.0
 40
0.8019701206
 40
1.0
 40
1.0
 40
1.0
 40
1.0
 10
0.3180557483
 20
-0.4564784687
 30
0.0
 10
0.4407663456
 20
-0.4230470145
 30
0.0
 10
0.5944045896
 20
-0.3837041859
 30
0.0
 10
0.7477927511
 20
-0.3434184586
 30
0.0
 10
0.7781000673
 20
-0.3351870774
 30
0.0
 11
0.3180557483
 21
-0.4564784687
 31
0.0
 11
0.6870320656
 21
-0.3593370375
 31
0.0
 11
0.7781000673
 21
-0.3351870774
 31
0.0
  0
SPLINE
  5
37E
100
AcDbEntity
  8
0
100
AcDbSpline
 62
7
  6
CONTINUOUS
 70
0
 71
3
 72
9
 73
5
 74
3
 42
0.0000001
 43
0.0000001
 44
0.0000000001
 12
-0.5174692086
 22
-0.1487744753
 32
0.0
 13
-0.5040219036
 23
-0.1893972716
 33
0.0
 40
0.0
 40
0.0
 40
0.0
 40
0.0
 40
0.4412847493
 40
1.0
 40
1.0
 40
1.0
 40
1.0
 10
0.7781000673
 20
-0.6764904207
 30
0.0
 10
0.7019829773
 20
-0.6983743897
 30
0.0
 10
0.5302003409
 20
-0.7500463099
 30
0.0
 10
0.356407065
 20
-0.7964152163
 30
0.0
 10
0.2625388236
 20
-0.8316882644
 30
0.0
 11
0.7781000673
 21
-0.6764904207
 31
0.0
 11
0.5499813257
 21
-0.7429457827
 31
0.0
 11
0.2625388236
 21
-0.8316882644
 31
0.0
  0
SPLINE
  5
37F
100
AcDbEntity
  8
0
100
AcDbSpline
 62
7
  6
CONTINUOUS
 70
0
 71
3
 72
9
 73
5
 74
3
 42
0.0000001
 43
0.0000001
 44
0.0000000001
 12
-0.243894777
 22
-0.0916489686
 32
0.0
 13
-0.0
 23
-0.2605161169
 33
0.0
 40
0.0
 40
0.0
 40
0.0
 40
0.0
 40
0.6439294634
 40
1.0
 40
1.0
 40
1.0
 40
1.0
 10
0.2625388166
 20
-0.8316882457
 30
0.0
 10
0.2101884723
 20
-0.8513600694
 30
0.0
 10
0.1315829096
 20
-0.9097781013
 30
0.0
 10
0.1128676647
 20
-0.9986896123
 30
0.0
 10
0.1128676647
 20
-1.0296103168
 30
0.0
 11
0.2625388166
 21
-0.8316882457
 31
0.0
 11
0.1337888267
 21
-0.9392382266
 31
0.0
 11
0.1128676647
 21
-1.0296103168
 31
0.0
  0
LINE
  5
380
100
AcDbEntity
  8
RACCORDO
100
AcDbLine
 62
253
  6
CONTINUOUS
 10
11.0572204135
 20
-7.2178923571
 11
11.0550969473
 21
-3.7894676358
  0
LINE
  5
381
100
AcDbEntity
  8
RACCORDO
100
AcDbLine
 62
253
  6
CONTINUOUS
 10
-11.1634981861
 20
-3.7894676358
 11
-11.1656216522
 21
-7.2178923571
  0
SPLINE
  5
382
100
AcDbEntity
  8
RACCORDO
100
AcDbSpline
 62
253
  6
CONTINUOUS
 70
0
 71
3
 72
12
 73
8
 74
6
 42
0.0000001
 43
0.0000001
 44
0.0000000001
 12
-0.2999607392
 22
0.0000171733
 32
0.0
 13
-0.2921204917
 23
0.0681326915
 33
0.0
 40
0.0
 40
0.0
 40
0.0
 40
0.0
 40
0.3057354176
 40
0.5821998941
 40
0.8029251048
 40
0.9467800881
 40
1.0
 40
1.0
 40
1.0
 40
1.0
 10
-10.8599575493
 20
7.7918746874
 30
0.0
 10
-10.8905270899
 20
7.7918764375
 30
0.0
 10
-10.9487535485
 20
7.7918145533
 30
0.0
 10
-11.0289808733
 20
7.7923632567
 30
0.0
 10
-11.0932175259
 20
7.7915974652
 30
0.0
 10
-11.1347160367
 20
7.7938359633
 30
0.0
 10
-11.1547296489
 20
7.7918829078
 30
0.0
 10
-11.1599118578
 20
7.7930915798
 30
0.0
 11
-10.8599575493
 21
7.7918746874
 31
0.0
 11
-10.9516661493
 21
7.7919382268
 31
0.0
 11
-11.0345944547
 21
7.7921126474
 31
0.0
 11
-11.1008028073
 21
7.7923812498
 31
0.0
 11
-11.143952338
 21
7.7927183177
 31
0.0
 11
-11.1599118578
 21
7.7930915798
 31
0.0
  0
SPLINE
  5
383
100
AcDbEntity
  8
RACCORDO
100
AcDbSpline
 62
253
  6
CONTINUOUS
 70
0
 71
3
 72
12
 73
8
 74
6
 42
0.0000001
 43
0.0000001
 44
0.0000000001
 12
-0.2055771375
 22
0.2184364573
 32
0.0
 13
-0.2998569656
 23
0.0078895836
 33
0.0
 40
0.0
 40
0.0
 40
0.0
 40
0.0
 40
0.0532199119
 40
0.1970748952
 40
0.4178001059
 40
0.6942645824
 40
1.0
 40
1.0
 40
1.0
 40
1.0
 10
11.0515106191
 20
7.7930915798
 30
0.0
 10
11.0478636867
 20
7.7969666361
 30
0.0
 10
11.0243339796
 20
7.7872760998
 30
0.0
 10
10.9859559995
 20
7.795381714
 30
0.0
 10
10.9201199508
 20
7.790774974
 30
0.0
 10
10.8405164453
 20
7.7926835788
 30
0.0
 10
10.7821152754
 20
7.7910706457
 30
0.0
 10
10.7515563105
 20
7.7918746874
 30
0.0
 11
11.0515106191
 21
7.7930915798
 31
0.0
 11
11.0355510993
 21
7.7927183176
 31
0.0
 11
10.9924015686
 21
7.7923812498
 31
0.0
 11
10.926193216
 21
7.7921126474
 31
0.0
 11
10.8432649105
 21
7.7919382268
 31
0.0
 11
10.7515563105
 21
7.7918746874
 31
0.0
  0
SPLINE
  5
384
100
AcDbEntity
  8
RACCORDO
100
AcDbSpline
 62
253
  6
CONTINUOUS
 70
0
 71
3
 72
12
 73
8
 74
6
 42
0.0000001
 43
0.0000001
 44
0.0000000001
 12
-0.0014315862
 22
-0.4652748348
 32
0.0
 13
-0.4652749644
 23
-0.001388842
 33
0.0
 40
0.0
 40
0.0
 40
0.0
 40
0.0
 40
0.1970227648
 40
0.3964552407
 40
0.5968471332
 40
0.7982231614
 40
1.0
 40
1.0
 40
1.0
 40
1.0
 10
11.0572204097
 20
-7.2178923196
 30
0.0
 10
11.0571263914
 20
-7.2484488977
 30
0.0
 10
11.0470818018
 20
-7.3103367229
 30
0.0
 10
11.0038277843
 20
-7.3938556865
 30
0.0
 10
10.9363414883
 20
-7.4604386902
 30
0.0
 10
10.8514839479
 20
-7.5032676935
 30
0.0
 10
10.788560005
 20
-7.5132412334
 30
0.0
 10
10.7572661012
 20
-7.5133346455
 30
0.0
 11
11.0572204097
 21
-7.2178923196
 31
0.0
 11
11.0425277579
 21
-7.3083773777
 31
0.0
 11
10.9999399482
 21
-7.3908183467
 31
0.0
 11
10.9336187621
 21
-7.4563528991
 31
0.0
 11
10.8499830974
 21
-7.498589718
 31
0.0
 11
10.7572661012
 21
-7.5133346455
 31
0.0
  0
SPLINE
  5
385
100
AcDbEntity
  8
RACCORDO
100
AcDbSpline
 62
253
  6
CONTINUOUS
 70
0
 71
3
 72
12
 73
8
 74
6
 42
0.0000001
 43
0.0000001
 44
0.0000000001
 12
0.3005560865
 22
0.0002082075
 32
0.0
 13
0.1213571016
 23
0.2749662859
 33
0.0
 40
0.0
 40
0.0
 40
0.0
 40
0.0
 40
0.3051393874
 40
0.5811156422
 40
0.8015740745
 40
0.945551691
 40
1.0
 40
1.0
 40
1.0
 40
1.0
 10
10.7572661012
 20
-7.2297452421
 30
0.0
 10
10.7878366012
 20
-7.2297240647
 30
0.0
 10
10.8463500117
 20
-7.2296080784
 30
0.0
 10
10.9255056632
 20
-7.2270069767
 30
0.0
 10
10.9925710896
 20
-7.2273592679
 30
0.0
 10
11.0286870428
 20
-7.2193963394
 30
0.0
 10
11.0550178468
 20
-7.2228828027
 30
0.0
 10
11.0572204097
 20
-7.2178923196
 30
0.0
 11
10.7572661012
 21
-7.2297452421
 31
0.0
 11
10.848975453
 21
-7.2291143043
 31
0.0
 11
10.9319042857
 21
-7.2274090641
 31
0.0
 11
10.9981127533
 21
-7.224792786
 31
0.0
 11
11.0412618673
 21
-7.2215159602
 31
0.0
 11
11.0572204097
 21
-7.2178923196
 31
0.0
  0
SPLINE
  5
386
100
AcDbEntity
  8
RACCORDO
100
AcDbSpline
 62
253
  6
CONTINUOUS
 70
0
 71
3
 72
12
 73
8
 74
6
 42
0.0000001
 43
0.0000001
 44
0.0000000001
 12
0.0723643094
 22
-0.2917146058
 32
0.0
 13
0.3004579005
 23
-0.0076846942
 33
0.0
 40
0.0
 40
0.0
 40
0.0
 40
0.0
 40
0.054448309
 40
0.1984259255
 40
0.4188843578
 40
0.6948606126
 40
1.0
 40
1.0
 40
1.0
 40
1.0
 10
-11.1656216485
 20
-7.2178923196
 30
0.0
 10
-11.1643082771
 20
-7.2231867753
 30
0.0
 10
-11.1359668228
 20
-7.2190121358
 30
0.0
 10
-11.101613361
 20
-7.227588593
 30
0.0
 10
-11.0336483504
 20
-7.2268535779
 30
0.0
 10
-10.9548451187
 20
-7.2299599469
 30
0.0
 10
-10.8962278532
 20
-7.2289636078
 30
0.0
 10
-10.8656673399
 20
-7.2297452421
 30
0.0
 11
-11.1656216485
 21
-7.2178923196
 31
0.0
 11
-11.1496631061
 21
-7.2215159602
 31
0.0
 11
-11.106513992
 21
-7.224792786
 31
0.0
 11
-11.0403055244
 21
-7.227409064
 31
0.0
 11
-10.9573766917
 21
-7.2291143043
 31
0.0
 11
-10.8656673399
 21
-7.2297452421
 31
0.0
  0
SPLINE
  5
387
100
AcDbEntity
  8
RACCORDO
100
AcDbSpline
 62
253
  6
CONTINUOUS
 70
0
 71
3
 72
12
 73
8
 74
6
 42
0.0000001
 43
0.0000001
 44
0.0000000001
 12
-0.4652748654
 22
0.0013888417
 32
0.0
 13
-0.0014315859
 23
0.4652747358
 33
0.0
 40
0.0
 40
0.0
 40
0.0
 40
0.0
 40
0.2013338943
 40
0.4022709652
 40
0.6023801536
 40
0.8015424661
 40
1.0
 40
1.0
 40
1.0
 40
1.0
 10
-10.8656673399
 20
-7.5133346455
 30
0.0
 10
-10.8968925401
 20
-7.5132414385
 30
0.0
 10
-10.959677042
 20
-7.5033117077
 30
0.0
 10
-11.0444088411
 20
-7.4606559722
 30
0.0
 10
-11.1118874572
 20
-7.3942935437
 30
0.0
 10
-11.1553769658
 20
-7.3107489318
 30
0.0
 10
-11.1655269455
 20
-7.2486714118
 30
0.0
 10
-11.1656216485
 20
-7.2178923196
 30
0.0
 11
-10.8656673399
 21
-7.5133346455
 31
0.0
 11
-10.9581858177
 21
-7.4986537868
 31
0.0
 11
-11.0416825673
 21
-7.4565951148
 31
0.0
 11
-11.1080155941
 21
-7.3912598849
 31
0.0
 11
-11.1507165843
 21
-7.3090191128
 31
0.0
 11
-11.1656216485
 21
-7.2178923196
 31
0.0
  0
SPLINE
  5
388
100
AcDbEntity
  8
RACCORDO
100
AcDbSpline
 62
253
  6
CONTINUOUS
 70
0
 71
3
 72
9
 73
5
 74
3
 42
0.0000001
 43
0.0000001
 44
0.0000000001
 12
-0.0005227151
 22
-7.3825594055
 32
0.0
 13
-0.0027702519
 23
-7.3825589043
 33
0.0
 40
0.0
 40
0.0
 40
0.0
 40
0.0
 40
0.5000423151
 40
1.0
 40
1.0
 40
1.0
 40
1.0
 10
-11.1599118613
 20
7.7930915833
 30
0.0
 10
-11.1599989879
 20
6.5625608845
 30
0.0
 10
-11.1603604797
 20
4.101707759
 30
0.0
 10
-11.1610965453
 20
1.6408547171
 30
0.0
 10
-11.1615582149
 20
0.4105323642
 30
0.0
 11
-11.1599118613
 21
7.7930915833
 31
0.0
 11
-11.1604541696
 21
4.1014995176
 31
0.0
 11
-11.1615582149
 21
0.4105323642
 31
0.0
  0
SPLINE
  5
389
100
AcDbEntity
  8
RACCORDO
100
AcDbSpline
 62
253
  6
CONTINUOUS
 70
0
 71
3
 72
9
 73
5
 74
3
 42
0.0000001
 43
0.0000001
 44
0.0000000001
 12
-0.0027702519
 22
7.3825589043
 32
0.0
 13
-0.0005227151
 23
7.3825594055
 33
0.0
 40
0.0
 40
0.0
 40
0.0
 40
0.0
 40
0.4999576849
 40
1.0
 40
1.0
 40
1.0
 40
1.0
 10
11.0531569761
 20
0.4105323642
 30
0.0
 10
11.0526953066
 20
1.6408547171
 30
0.0
 10
11.051959241
 20
4.101707759
 30
0.0
 10
11.0515977491
 20
6.5625608845
 30
0.0
 10
11.0515106226
 20
7.7930915833
 30
0.0
 11
11.0531569761
 21
0.4105323642
 31
0.0
 11
11.0520529309
 21
4.1014995176
 31
0.0
 11
11.0515106226
 21
7.7930915833
 31
0.0
  0
ELLIPSE
  5
38A
100
AcDbEntity
  8
RACCORDO
100
AcDbEllipse
 62
7
  6
CONTINUOUS
 10
-12.1041625374
 20
-8.9394581162
 30
0.0
 11
0.2236527791
 21
0.1118178731
 31
0.0
 40
0.9998096356
 41
2.6780516535
 42
4.2486956813
  0
ELLIPSE
  5
38B
100
AcDbEntity
  8
RACCORDO
100
AcDbEllipse
 62
7
  6
CONTINUOUS
 10
11.9957612986
 20
-8.9394581162
 30
0.0
 11
0.2236527791
 21
-0.1118178731
 31
0.0
 40
0.9998096356
 41
-1.1071030277
 42
0.4635410001
  0
ELLIPSE
  5
38C
100
AcDbEntity
  8
RACCORDO
100
AcDbEllipse
 62
7
  6
CONTINUOUS
 10
11.9556146493
 20
9.0378026978
 30
0.0
 11
-0.1768305473
 21
-0.1768305473
 31
0.0
 40
0.9996954599
 41
2.3563467834
 42
3.9268385237
  0
ELLIPSE
  5
38D
100
AcDbEntity
  8
RACCORDO
100
AcDbEllipse
 62
7
  6
CONTINUOUS
 10
-12.064015888
 20
9.0378026978
 30
0.0
 11
-0.1768305473
 21
0.1768305473
 31
0.0
 40
0.9996954599
 41
-0.7852458701
 42
0.7852458701
  0
ELLIPSE
  5
38E
100
AcDbEntity
  8
RACCORDO
100
AcDbEllipse
 62
7
  6
CONTINUOUS
 10
10.8056070329
 20
7.8471423021
 30
0.0
 11
0.2121966567
 21
0.2121966568
 31
0.0
 40
0.9996954599
 41
-0.7852458702
 42
0.7852458701
  0
ELLIPSE
  5
38F
100
AcDbEntity
  8
RACCORDO
100
AcDbEllipse
 62
7
  6
CONTINUOUS
 10
-10.9140082716
 20
7.8471423021
 30
0.0
 11
0.2121966568
 21
-0.2121966568
 31
0.0
 40
0.9996954599
 41
2.3563467834
 42
3.9268385237
  0
ELLIPSE
  5
390
100
AcDbEntity
  8
RACCORDO
100
AcDbEllipse
 62
7
  6
CONTINUOUS
 10
-10.954154921
 20
-8.1117731533
 30
0.0
 11
0.0300136675
 21
0.3031910442
 31
0.0
 40
0.9846622838
 41
-4.6121910857
 42
-3.0444253421
  0
ELLIPSE
  5
391
100
AcDbEntity
  8
RACCORDO
100
AcDbEllipse
 62
7
  6
CONTINUOUS
 10
10.8457536822
 20
-8.1117731533
 30
0.0
 11
-0.0300136675
 21
0.3031910442
 31
0.0
 40
0.9846622838
 41
-3.2387599651
 42
-1.6709942215
  0
ELLIPSE
  5
392
100
AcDbEntity
  8
RACCORDO
100
AcDbEllipse
 62
7
  6
CONTINUOUS
 10
11.3212246909
 20
0.3371987482
 30
0.0
 11
0.7
 21
0.0
 31
0.0
 40
0.0349207695
 41
-1.5707963268
 42
-0.1047197551
  0
ELLIPSE
  5
393
100
AcDbEntity
  8
RACCORDO
100
AcDbEllipse
 62
7
  6
CONTINUOUS
 10
-11.4296259296
 20
0.3371987482
 30
0.0
 11
0.7
 21
-0.0
 31
0.0
 40
0.0349207695
 41
-3.0368728985
 42
-1.5707963268
  0
ELLIPSE
  5
394
100
AcDbEntity
  8
RACCORDO
100
AcDbEllipse
 62
7
  6
CONTINUOUS
 10
11.3212246909
 20
-3.7161340199
 30
0.0
 11
0.7
 21
-0.0
 31
0.0
 40
0.0349207695
 41
0.1047197551
 42
1.5707963268
  0
ELLIPSE
  5
395
100
AcDbEntity
  8
RACCORDO
100
AcDbEllipse
 62
7
  6
CONTINUOUS
 10
-11.4296259296
 20
-3.7161340199
 30
0.0
 11
0.7
 21
-0.0
 31
0.0
 40
0.0349207695
 41
1.5707963268
 42
3.0368728985
  0
ENDSEC
  0
SECTION
  2
OBJECTS
  0
DICTIONARY
  5
C
100
AcDbDictionary
280
0
281
1
  3
ACAD_GROUP
350
D
  3
ACAD_MLINESTYLE
350
17
  3
ACAD_LAYOUT
350
1A
  3
ACAD_PLOTSETTINGS
350
19
  3
ACAD_PLOTSTYLENAME
350
E
  0
DICTIONARY
  5
D
102
{ACAD_REACTORS
330
C
102
}
100
AcDbDictionary
280
0
281
1
  0
ACDBDICTIONARYWDFLT
  5
E
102
{ACAD_REACTORS
330
C
102
}
100
AcDbDictionary
281
1
  3
Normal
350
F
100
AcDbDictionaryWithDefault
340
F
  0
DICTIONARY
  5
17
102
{ACAD_REACTORS
330
C
102
}
100
AcDbDictionary
280
0
281
1
  3
Standard
350
18
  0
DICTIONARY
  5
19
102
{ACAD_REACTORS
330
C
102
}
100
AcDbDictionary
281
1
  0
DICTIONARY
  5
1A
102
{ACAD_REACTORS
330
C
102
}
100
AcDbDictionary
281
1
  3
Model
350
396
  3
Layout1
350
397
  0
ACDBPLACEHOLDER
  5
F
102
{ACAD_REACTORS
330
E
102
}
  0
MLINESTYLE
  5
18
102
{ACAD_REACTORS
330
17
102
}
100
AcDbMlineStyle
  2
STANDARD
 70
0
  3

 62
256
 51
90.0
 52
90.0
 71
2
 49
0.5
 62
256
  6
BYLAYER
 49
-0.5
 62
256
  6
BYLAYER
  0
LAYOUT
  5
396
102
{ACAD_REACTORS
330
1A
102
}
100
AcDbPlotSettings
  1

  2
none_device
  4
ISO_A4_(297.00_x_210.00_MM)
  6

 40
0.0
 41
0.0
 42
0.0
 43
0.0
 44
297.0
 45
210.0
 46
0.0
 47
0.0
 48
0.0
 49
0.0
140
0.0
141
0.0
142
1.0
143
1.0
 70
1024
 72
1
 73
0
 74
0
  7

 75
0
147
1.0
148
0.0
149
0.0
100
AcDbLayout
  1
Model
 70
0
 71
0
 10
0.0
 20
0.0
 11
297.0
 21
210.0
 12
0.0
 22
0.0
 32
0.0
 14
0.0
 24
0.0
 34
0.0
 15
0.0
 25
0.0
 35
0.0
146
0.0
 13
0.0
 23
0.0
 33
0.0
 16
1.0
 26
0.0
 36
0.0
 17
0.0
 27
1.0
 37
0.0
 76
0
330
20C
345
0
346
0
  0
LAYOUT
  5
397
102
{ACAD_REACTORS
330
1A
102
}
100
AcDbPlotSettings
  1

  2
none_device
  4
ISO_A4_(297.00_x_210.00_MM)
  6

 40
0.0
 41
0.0
 42
0.0
 43
0.0
 44
297.0
 45
210.0
 46
0.0
 47
0.0
 48
0.0
 49
0.0
140
0.0
141
0.0
142
1.0
143
1.0
 70
0
 72
1
 73
0
 74
0
  7

 75
0
147
1.0
148
0.0
149
0.0
100
AcDbLayout
  1
Layout1
 70
0
 71
1
 10
0.0
 20
0.0
 11
297.0
 21
210.0
 12
0.0
 22
0.0
 32
0.0
 14
0.0
 24
0.0
 34
0.0
 15
0.0
 25
0.0
 35
0.0
146
0.0
 13
0.0
 23
0.0
 33
0.0
 16
1.0
 26
0.0
 36
0.0
 17
0.0
 27
1.0
 37
0.0
 76
0
330
20D
345
0
346
0
  0
ENDSEC
  0
EOF
