  0
SECTION
  2
HEADER
  9
$ACADVER
  1
AC1015
  9
$DWGCODEPAGE
  3
ANSI_1252
  9
$EXTMAX
 10
297.0
 20
210.0
 30
0.0
  9
$EXTMIN
 10
0.0
 20
0.0
 30
0.0
  9
$LIMMIN
 10
0.0
 20
0.0
  9
$LIMMAX
 10
297.0
 20
210.0
  9
$VIEWCTR
 10
148.5
 20
105.0
  9
$VIEWSIZE
 40
210.0
  9
$CLAYER
  8
0
  9
$LTSCALE
 40
16.335
  9
$CELTYPE
  6
BYLAYER
  9
$DIMSCALE
 40
1.0
  9
$DIMASZ
 40
3.0
  9
$DIMEXO
 40
1.85625
  9
$DIMDLI
 40
11.286
  9
$DIMEXE
 40
5.346
  9
$DIMCEN
 40
2.673
  9
$DIMLFAC
 40
1.0
  9
$DIMBLK
  1
_FILLED
  9
$DIMTXT
 40
3.0
  9
$DIMTOL
 70
1
  9
$DIMLIM
 70
0
  9
$DIMTFAC
 40
1.0
  9
$DIMTP
 40
0.01
  9
$DIMTM
 40
0.01
  9
$PDMODE
 70
3
  9
$PDSIZE
 40
3.0
  9
$HANDSEED
  5
385
  9
$TILEMODE
 70
1
  9
$MEASUREMENT
 70
1
  9
$INSUNITS
 70
4
  0
ENDSEC
  0
SECTION
  2
CLASSES
  0
CLASS
  1
ACDBDICTIONARYWDFLT
  2
AcDbDictionaryWithDefault
  3
AutoCAD 2000
 90
0
280
0
281
0
  0
CLASS
  1
ACDBPLACEHOLDER
  2
AcDbPlaceHolder
  3
AutoCAD 2000
 90
0
280
0
281
0
  0
CLASS
  1
LAYOUT
  2
AcDbLayout
  3
AutoCAD 2000
 90
0
280
0
281
0
  0
ENDSEC
  0
SECTION
  2
TABLES
  0
TABLE
  2
VPORT
  5
8
100
AcDbSymbolTable
 70
2
  0
VPORT
  5
1F4
100
AcDbSymbolTableRecord
100
AcDbViewportTableRecord
  2
*ACTIVE
 70
0
 10
0.0
 20
0.0
 11
1.0
 21
1.0
 12
148.5
 22
105.0
 13
0.0
 23
0.0
 14
1.0
 24
1.0
 15
0.0
 25
0.0
 16
0.0
 26
0.0
 36
1.0
 17
0.0
 27
0.0
 37
0.0
 40
210.0
 41
1.4142857143
 42
50.0
 43
0.0
 44
0.0
 50
0.0
 51
0.0
 71
0
 72
100
 73
1
 74
1
 75
0
 76
0
 77
0
 78
0
  0
ENDTAB
  0
TABLE
  2
LTYPE
  5
5
100
AcDbSymbolTable
 70
6
  0
LTYPE
  5
14
100
AcDbSymbolTableRecord
100
AcDbLinetypeTableRecord
  2
BYBLOCK
 70
0
  3

 72
65
 73
0
 40
0.0
  0
LTYPE
  5
15
100
AcDbSymbolTableRecord
100
AcDbLinetypeTableRecord
  2
BYLAYER
 70
0
  3

 72
65
 73
0
 40
0.0
  0
LTYPE
  5
16
100
AcDbSymbolTableRecord
100
AcDbLinetypeTableRecord
  2
CONTINUOUS
 70
64
  3
Solid line
 72
65
 73
0
 40
0.0
  0
LTYPE
  5
1F5
100
AcDbSymbolTableRecord
100
AcDbLinetypeTableRecord
  2
CENTER
 70
64
  3
____ _ ____ _ ____ _ ____ _ ____ _ ____ _ ____
 72
65
 73
4
 40
0.6
 49
0.375
 74
0
 49
-0.075
 74
0
 49
0.075
 74
0
 49
-0.075
 74
0
  0
LTYPE
  5
1F6
100
AcDbSymbolTableRecord
100
AcDbLinetypeTableRecord
  2
HIDDEN
 70
64
  3
- - - - - - - - - - - - - - - - - - - -
 72
65
 73
2
 40
0.2
 49
0.1
 74
0
 49
-0.1
 74
0
  0
LTYPE
  5
1F7
100
AcDbSymbolTableRecord
100
AcDbLinetypeTableRecord
  2
PHANTOM
 70
64
  3
_____ _ _ _____ _ _ _____ _ _ _____
 72
65
 73
6
 40
0.8
 49
0.45
 74
0
 49
-0.05
 74
0
 49
0.1
 74
0
 49
-0.05
 74
0
 49
0.1
 74
0
 49
-0.05
 74
0
  0
LTYPE
  5
1F8
100
AcDbSymbolTableRecord
100
AcDbLinetypeTableRecord
  2
DOT
 70
64
  3
. . . . . . . . . . . . . . . . . . . .
 72
65
 73
2
 40
0.2
 49
0.1
 74
0
 49
-0.1
 74
0
  0
LTYPE
  5
1F9
100
AcDbSymbolTableRecord
100
AcDbLinetypeTableRecord
  2
DASHED
 70
64
  3
- - - - - - - - - - - - - - - - - - - -
 72
65
 73
2
 40
0.2
 49
0.1
 74
0
 49
-0.1
 74
0
  0
ENDTAB
  0
TABLE
  2
LAYER
  5
2
100
AcDbSymbolTable
 70
36
  0
LAYER
  5
10
100
AcDbSymbolTableRecord
100
AcDbLayerTableRecord
  2
0
 70
0
 62
7
  6
CONTINUOUS
370
-3
390
F
  0
LAYER
  5
1FA
100
AcDbSymbolTableRecord
100
AcDbLayerTableRecord
  2
DEFAULT_1
 70
0
 62
7
  6
CENTER
370
-3
390
F
  0
LAYER
  5
1FB
100
AcDbSymbolTableRecord
100
AcDbLayerTableRecord
  2
DEFAULT_2
 70
0
 62
7
  6
HIDDEN
370
-3
390
F
  0
LAYER
  5
1FC
100
AcDbSymbolTableRecord
100
AcDbLayerTableRecord
  2
DEFAULT_3
 70
0
 62
7
  6
PHANTOM
370
-3
390
F
  0
LAYER
  5
1FD
100
AcDbSymbolTableRecord
100
AcDbLayerTableRecord
  2
ASSI
 70
0
 62
7
  6
CONTINUOUS
370
-3
390
F
  0
LAYER
  5
1FE
100
AcDbSymbolTableRecord
100
AcDbLayerTableRecord
  2
COORDINATE
 70
0
 62
7
  6
CONTINUOUS
370
-3
390
F
  0
LAYER
  5
1FF
100
AcDbSymbolTableRecord
100
AcDbLayerTableRecord
  2
COORD_ORIGINE
 70
0
 62
7
  6
CONTINUOUS
370
-3
390
F
  0
LAYER
  5
200
100
AcDbSymbolTableRecord
100
AcDbLayerTableRecord
  2
CURVE
 70
0
 62
7
  6
CONTINUOUS
370
-3
390
F
  0
LAYER
  5
201
100
AcDbSymbolTableRecord
100
AcDbLayerTableRecord
  2
DRAFT
 70
0
 62
7
  6
CONTINUOUS
370
-3
390
F
  0
LAYER
  5
202
100
AcDbSymbolTableRecord
100
AcDbLayerTableRecord
  2
IGES
 70
0
 62
7
  6
CONTINUOUS
370
-3
390
F
  0
LAYER
  5
203
100
AcDbSymbolTableRecord
100
AcDbLayerTableRecord
  2
NOTE
 70
0
 62
7
  6
CONTINUOUS
370
-3
390
F
  0
LAYER
  5
204
100
AcDbSymbolTableRecord
100
AcDbLayerTableRecord
  2
PIANI
 70
0
 62
7
  6
CONTINUOUS
370
-3
390
F
  0
LAYER
  5
205
100
AcDbSymbolTableRecord
100
AcDbLayerTableRecord
  2
PIANI_ORIGINE
 70
0
 62
7
  6
CONTINUOUS
370
-3
390
F
  0
LAYER
  5
206
100
AcDbSymbolTableRecord
100
AcDbLayerTableRecord
  2
RACCORDO
 70
0
 62
7
  6
CONTINUOUS
370
-3
390
F
  0
LAYER
  5
207
100
AcDbSymbolTableRecord
100
AcDbLayerTableRecord
  2
SNAPLINE
 70
0
 62
7
  6
CONTINUOUS
370
-3
390
F
  0
LAYER
  5
208
100
AcDbSymbolTableRecord
100
AcDbLayerTableRecord
  2
SUPERFICI
 70
0
 62
7
  6
CONTINUOUS
370
-3
390
F
  0
LAYER
  5
209
100
AcDbSymbolTableRecord
100
AcDbLayerTableRecord
  2
TRASH
 70
0
 62
7
  6
CONTINUOUS
370
-3
390
F
  0
ENDTAB
  0
TABLE
  2
STYLE
  5
3
100
AcDbSymbolTable
 70
1
  0
STYLE
  5
11
100
AcDbSymbolTableRecord
100
AcDbTextStyleTableRecord
  2
STANDARD
 70
0
 40
0.0
 41
0.8
 50
0.0
 71
0
 42
0.2
  3
txt
  4

  0
STYLE
  5
20A
100
AcDbSymbolTableRecord
100
AcDbTextStyleTableRecord
  2
TEXTSTYLE_1
 70
0
 40
0.0
 41
0.8
 50
0.0
 71
0
 42
0.2
  3
gdt
  4

  0
ENDTAB
  0
TABLE
  2
VIEW
  5
6
100
AcDbSymbolTable
 70
0
  0
ENDTAB
  0
TABLE
  2
UCS
  5
7
100
AcDbSymbolTable
 70
0
  0
ENDTAB
  0
TABLE
  2
APPID
  5
9
100
AcDbSymbolTable
 70
1
  0
APPID
  5
20B
100
AcDbSymbolTableRecord
100
AcDbRegAppTableRecord
  2
ACAD
 70
0
  0
ENDTAB
  0
TABLE
  2
BLOCK_RECORD
  5
1
100
AcDbSymbolTable
 70
0
  0
BLOCK_RECORD
  5
20C
100
AcDbSymbolTableRecord
100
AcDbBlockTableRecord
  2
*Model_Space
  0
BLOCK_RECORD
  5
20D
100
AcDbSymbolTableRecord
100
AcDbBlockTableRecord
  2
*Paper_Space
  0
ENDTAB
  0
TABLE
  2
DIMSTYLE
  5
A
100
AcDbSymbolTable
 70
1
100
AcDbDimStyleTable
 71
0
  0
DIMSTYLE
105
20E
100
AcDbSymbolTableRecord
100
AcDbDimStyleTableRecord
  2
STANDARD
 70
0
  3

  4

 40
1.0
 41
3.0
 42
0.0625
 43
0.38
 44
0.18
 45
0.0
 46
0.0
 47
0.01
 48
0.01
140
3.0
141
0.09
142
0.0
143
25.4
144
1.0
145
0.0
146
1.0
147
0.09
 71
1.0
 72
0.0
 73
0
 74
0
 75
0
 76
0
 77
1
 78
8
170
0
171
2
172
0
173
0
174
0
175
0
176
0
177
0
178
0
270
2
271
2
272
2
273
2
274
2
275
0
280
0
281
0
282
0
283
1
284
8
285
0
286
0
287
3
288
0
340
11
  0
ENDTAB
  0
ENDSEC
  0
SECTION
  2
BLOCKS
  0
BLOCK
  5
20
100
AcDbEntity
  8
0
100
AcDbBlockBegin
  2
*Model_Space
 70
0
 10
0.0
 20
0.0
 30
0.0
  3
*Model_Space
  1

  0
ENDBLK
  5
21
100
AcDbEntity
  8
0
100
AcDbBlockEnd
  0
BLOCK
  5
1C
100
AcDbEntity
  8
0
100
AcDbBlockBegin
  2
*Paper_Space
 70
0
 10
0.0
 20
0.0
 30
0.0
  3
*Paper_Space
  1

  0
ENDBLK
  5
1D
100
AcDbEntity
  8
0
100
AcDbBlockEnd
  0
ENDSEC
  0
SECTION
  2
ENTITIES
  0
LINE
  5
20F
100
AcDbEntity
  8
RACCORDO
100
AcDbLine
 62
7
  6
CONTINUOUS
 10
-24.8819285438
 20
-9.0369703108
 11
-24.8819285438
 21
-3.8869417542
  0
LINE
  5
210
100
AcDbEntity
  8
DRAFT
100
AcDbLine
 62
7
  6
CONTINUOUS
 10
-24.8819285438
 20
-3.8869417542
 11
-24.8819285438
 21
5.1729115965
  0
LINE
  5
211
100
AcDbEntity
  8
RACCORDO
100
AcDbLine
 62
7
  6
CONTINUOUS
 10
-24.8417818945
 20
8.9404047376
 11
-24.8417818945
 21
5.2130582458
  0
LINE
  5
212
100
AcDbEntity
  8
RACCORDO
100
AcDbLine
 62
253
  6
CONTINUOUS
 10
-24.6535191808
 20
0.2371694798
 11
-24.6535191808
 21
-3.8110529882
  0
LINE
  5
213
100
AcDbEntity
  8
RACCORDO
100
AcDbLine
 62
253
  6
CONTINUOUS
 10
-23.9573538541
 20
0.2152800913
 11
-23.9573538541
 21
-3.7891635996
  0
LINE
  5
214
100
AcDbEntity
  8
DRAFT
100
AcDbLine
 62
7
  6
CONTINUOUS
 10
-23.7819285438
 20
-3.8397987154
 11
-23.7819285438
 21
-3.8869417542
  0
LINE
  5
215
100
AcDbEntity
  8
RACCORDO
100
AcDbLine
 62
7
  6
CONTINUOUS
 10
-23.7819285438
 20
-8.2101704707
 11
-23.7819285438
 21
-3.8869417542
  0
LINE
  5
216
100
AcDbEntity
  8
DRAFT
100
AcDbLine
 62
7
  6
CONTINUOUS
 10
-23.7819285438
 20
-3.7891635996
 11
-23.7819285438
 21
0.2152800913
  0
LINE
  5
217
100
AcDbEntity
  8
DRAFT
100
AcDbLine
 62
7
  6
CONTINUOUS
 10
-23.7819285438
 20
0.265915207
 11
-23.7819285438
 21
5.1729115965
  0
LINE
  5
218
100
AcDbEntity
  8
RACCORDO
100
AcDbLine
 62
7
  6
CONTINUOUS
 10
-23.7417818945
 20
7.7497595736
 11
-23.7417818945
 21
5.2130582458
  0
LINE
  5
219
100
AcDbEntity
  8
DRAFT
100
AcDbLine
 62
7
  6
CONTINUOUS
 10
-23.2319285438
 20
-3.8287098817
 11
-23.2319285438
 21
0.2548263734
  0
LINE
  5
21A
100
AcDbEntity
  8
RACCORDO
100
AcDbLine
 62
253
  6
CONTINUOUS
 10
-23.3876854737
 20
7.99557177
 11
-23.3893294136
 21
0.3130582458
  0
LINE
  5
21B
100
AcDbEntity
  8
RACCORDO
100
AcDbLine
 62
253
  6
CONTINUOUS
 10
-23.3912666387
 20
-3.8869417542
 11
-23.3933952644
 21
-7.6108087638
  0
LINE
  5
21C
100
AcDbEntity
  8
RACCORDO
100
AcDbLine
 62
253
  6
CONTINUOUS
 10
-23.6933495742
 20
-7.3153664509
 11
-23.7819285438
 21
-8.2101704707
  0
LINE
  5
21D
100
AcDbEntity
  8
DRAFT
100
AcDbLine
 62
7
  6
CONTINUOUS
 10
-22.7142370902
 20
-9.2869417542
 11
-22.7142370902
 21
-8.5138752552
  0
LINE
  5
21E
100
AcDbEntity
  8
DRAFT
100
AcDbLine
 62
7
  6
CONTINUOUS
 10
-22.2319285438
 20
-9.2712333921
 11
-22.2319285438
 21
-8.19648669
  0
LINE
  5
21F
100
AcDbEntity
  8
DRAFT
100
AcDbLine
 62
7
  6
CONTINUOUS
 10
-21.3156547372
 20
9.1903666614
 11
-21.3156547372
 21
8.0497138822
  0
LINE
  5
220
100
AcDbEntity
  8
DRAFT
100
AcDbLine
 62
7
  6
CONTINUOUS
 10
-21.1319285438
 20
9.1537110251
 11
-21.1319285438
 21
8.0130582458
  0
LINE
  5
221
100
AcDbEntity
  8
RACCORDO
100
AcDbLine
 62
253
  6
CONTINUOUS
 10
-23.3933952644
 20
-7.6108087638
 11
-23.4827921575
 21
-8.5138752552
  0
LINE
  5
222
100
AcDbEntity
  8
DRAFT
100
AcDbLine
 62
7
  6
CONTINUOUS
 10
-24.8417818945
 20
5.2130582458
 11
-24.8819285438
 21
5.1729115965
  0
LINE
  5
223
100
AcDbEntity
  8
DRAFT
100
AcDbLine
 62
7
  6
CONTINUOUS
 10
-23.7417818945
 20
5.2130582458
 11
-23.7819285438
 21
5.1729115965
  0
LINE
  5
224
100
AcDbEntity
  8
DRAFT
100
AcDbLine
 62
7
  6
CONTINUOUS
 10
-16.7319285438
 20
-9.2712333921
 11
-16.7319285438
 21
-8.19648669
  0
LINE
  5
225
100
AcDbEntity
  8
DRAFT
100
AcDbLine
 62
7
  6
CONTINUOUS
 10
-16.2496199974
 20
-9.2869417542
 11
-16.2496199974
 21
-8.5138752552
  0
LINE
  5
226
100
AcDbEntity
  8
DRAFT
100
AcDbLine
 62
7
  6
CONTINUOUS
 10
-16.2496199974
 20
-8.5138752552
 11
-16.7319285438
 21
-8.19648669
  0
LINE
  5
227
100
AcDbEntity
  8
RACCORDO
100
AcDbLine
 62
253
  6
CONTINUOUS
 10
-23.7417818945
 20
7.7497595736
 11
-23.6876397861
 21
7.6956174653
  0
LINE
  5
228
100
AcDbEntity
  8
RACCORDO
100
AcDbLine
 62
253
  6
CONTINUOUS
 10
-23.4418275859
 20
8.0497138822
 11
-23.3876854737
 21
7.99557177
  0
LINE
  5
229
100
AcDbEntity
  8
DRAFT
100
AcDbLine
 62
7
  6
CONTINUOUS
 10
-8.9142370902
 20
-9.2869417542
 11
-8.9142370902
 21
-8.5138752552
  0
LINE
  5
22A
100
AcDbEntity
  8
DRAFT
100
AcDbLine
 62
7
  6
CONTINUOUS
 10
16.0857629098
 20
-9.2869417542
 11
16.5680714562
 21
-9.2712333921
  0
LINE
  5
22B
100
AcDbEntity
  8
DRAFT
100
AcDbLine
 62
7
  6
CONTINUOUS
 10
2.2857629098
 20
-9.2869417542
 11
2.7680714562
 21
-9.2712333921
  0
LINE
  5
22C
100
AcDbEntity
  8
DRAFT
100
AcDbLine
 62
7
  6
CONTINUOUS
 10
-8.9142370902
 20
-9.2869417542
 11
-8.4319285438
 21
-9.2712333921
  0
LINE
  5
22D
100
AcDbEntity
  8
RACCORDO
100
AcDbLine
 62
7
  6
CONTINUOUS
 10
-24.6319285424
 20
-9.2869417542
 11
-22.7142370902
 21
-9.2869417542
  0
LINE
  5
22E
100
AcDbEntity
  8
DRAFT
100
AcDbLine
 62
7
  6
CONTINUOUS
 10
-16.2496199974
 20
-9.2869417542
 11
-8.9142370902
 21
-9.2869417542
  0
LINE
  5
22F
100
AcDbEntity
  8
DRAFT
100
AcDbLine
 62
7
  6
CONTINUOUS
 10
-2.4496199974
 20
-9.2869417542
 11
2.2857629098
 21
-9.2869417542
  0
LINE
  5
230
100
AcDbEntity
  8
DRAFT
100
AcDbLine
 62
7
  6
CONTINUOUS
 10
8.7503800026
 20
-9.2869417542
 11
16.0857629098
 21
-9.2869417542
  0
LINE
  5
231
100
AcDbEntity
  8
RACCORDO
100
AcDbLine
 62
7
  6
CONTINUOUS
 10
22.5503800026
 20
-9.2869417542
 11
24.4680714547
 21
-9.2869417542
  0
LINE
  5
232
100
AcDbEntity
  8
DRAFT
100
AcDbLine
 62
7
  6
CONTINUOUS
 10
22.0680714562
 20
-9.2712333921
 11
16.5680714562
 21
-9.2712333921
  0
LINE
  5
233
100
AcDbEntity
  8
DRAFT
100
AcDbLine
 62
7
  6
CONTINUOUS
 10
8.2680714562
 20
-9.2712333921
 11
2.7680714562
 21
-9.2712333921
  0
LINE
  5
234
100
AcDbEntity
  8
DRAFT
100
AcDbLine
 62
7
  6
CONTINUOUS
 10
-2.9319285438
 20
-9.2712333921
 11
-8.4319285438
 21
-9.2712333921
  0
LINE
  5
235
100
AcDbEntity
  8
DRAFT
100
AcDbLine
 62
7
  6
CONTINUOUS
 10
-16.7319285438
 20
-9.2712333921
 11
-22.2319285438
 21
-9.2712333921
  0
LINE
  5
236
100
AcDbEntity
  8
DRAFT
100
AcDbLine
 62
7
  6
CONTINUOUS
 10
-16.2496199974
 20
-9.2869417542
 11
-16.7319285438
 21
-9.2712333921
  0
LINE
  5
237
100
AcDbEntity
  8
DRAFT
100
AcDbLine
 62
7
  6
CONTINUOUS
 10
-2.4496199974
 20
-9.2869417542
 11
-2.9319285438
 21
-9.2712333921
  0
LINE
  5
238
100
AcDbEntity
  8
DRAFT
100
AcDbLine
 62
7
  6
CONTINUOUS
 10
8.7503800026
 20
-9.2869417542
 11
8.2680714562
 21
-9.2712333921
  0
LINE
  5
239
100
AcDbEntity
  8
DRAFT
100
AcDbLine
 62
7
  6
CONTINUOUS
 10
-8.4319285438
 20
-9.2712333921
 11
-8.4319285438
 21
-8.19648669
  0
LINE
  5
23A
100
AcDbEntity
  8
DRAFT
100
AcDbLine
 62
7
  6
CONTINUOUS
 10
-22.7142370902
 20
-9.2869417542
 11
-22.2319285438
 21
-9.2712333921
  0
LINE
  5
23B
100
AcDbEntity
  8
RACCORDO
100
AcDbLine
 62
7
  6
CONTINUOUS
 10
-23.4827921575
 20
-8.5138752552
 11
-22.7142370902
 21
-8.5138752552
  0
LINE
  5
23C
100
AcDbEntity
  8
DRAFT
100
AcDbLine
 62
7
  6
CONTINUOUS
 10
-16.2496199974
 20
-8.5138752552
 11
-8.9142370902
 21
-8.5138752552
  0
LINE
  5
23D
100
AcDbEntity
  8
DRAFT
100
AcDbLine
 62
7
  6
CONTINUOUS
 10
-2.4496199974
 20
-8.5138752552
 11
2.2857629098
 21
-8.5138752552
  0
LINE
  5
23E
100
AcDbEntity
  8
DRAFT
100
AcDbLine
 62
7
  6
CONTINUOUS
 10
8.7503800026
 20
-8.5138752552
 11
16.0857629098
 21
-8.5138752552
  0
LINE
  5
23F
100
AcDbEntity
  8
RACCORDO
100
AcDbLine
 62
7
  6
CONTINUOUS
 10
22.5503800026
 20
-8.5138752552
 11
23.3189350698
 21
-8.5138752552
  0
LINE
  5
240
100
AcDbEntity
  8
DRAFT
100
AcDbLine
 62
7
  6
CONTINUOUS
 10
22.0680714562
 20
-8.19648669
 11
16.5680714562
 21
-8.19648669
  0
LINE
  5
241
100
AcDbEntity
  8
DRAFT
100
AcDbLine
 62
7
  6
CONTINUOUS
 10
8.2680714562
 20
-8.19648669
 11
2.7680714562
 21
-8.19648669
  0
LINE
  5
242
100
AcDbEntity
  8
DRAFT
100
AcDbLine
 62
7
  6
CONTINUOUS
 10
-2.9319285438
 20
-8.19648669
 11
-8.4319285438
 21
-8.19648669
  0
LINE
  5
243
100
AcDbEntity
  8
DRAFT
100
AcDbLine
 62
7
  6
CONTINUOUS
 10
-16.7319285438
 20
-8.19648669
 11
-22.2319285438
 21
-8.19648669
  0
LINE
  5
244
100
AcDbEntity
  8
RACCORDO
100
AcDbLine
 62
253
  6
CONTINUOUS
 10
23.2295381768
 20
-7.6108087638
 11
-23.3933952644
 21
-7.6108087638
  0
LINE
  5
245
100
AcDbEntity
  8
RACCORDO
100
AcDbLine
 62
253
  6
CONTINUOUS
 10
23.229538172
 20
-7.3272193605
 11
-23.3933952596
 21
-7.3272193605
  0
LINE
  5
246
100
AcDbEntity
  8
DRAFT
100
AcDbLine
 62
7
  6
CONTINUOUS
 10
22.5503800026
 20
-9.2869417542
 11
22.0680714562
 21
-9.2712333921
  0
LINE
  5
247
100
AcDbEntity
  8
RACCORDO
100
AcDbLine
 62
7
  6
CONTINUOUS
 10
-24.6535191808
 20
0.2371694798
 11
-24.8819285438
 21
0.3130582458
  0
LINE
  5
248
100
AcDbEntity
  8
DRAFT
100
AcDbLine
 62
7
  6
CONTINUOUS
 10
-2.4496199974
 20
-8.5138752552
 11
-2.9319285438
 21
-8.19648669
  0
LINE
  5
249
100
AcDbEntity
  8
DRAFT
100
AcDbLine
 62
7
  6
CONTINUOUS
 10
-22.7142370902
 20
-8.5138752552
 11
-22.2319285438
 21
-8.19648669
  0
LINE
  5
24A
100
AcDbEntity
  8
0
100
AcDbLine
 62
7
  6
CONTINUOUS
 10
-3.5819285438
 20
2.9705050177
 11
-3.5819285438
 21
3.2598667867
  0
LINE
  5
24B
100
AcDbEntity
  8
0
100
AcDbLine
 62
7
  6
CONTINUOUS
 10
-2.7136165438
 20
5.0105522458
 11
-2.3796945438
 21
6.1806202458
  0
LINE
  5
24C
100
AcDbEntity
  8
0
100
AcDbLine
 62
7
  6
CONTINUOUS
 10
-2.5715125438
 20
4.4807572458
 11
-2.0251085438
 21
6.1806202458
  0
LINE
  5
24D
100
AcDbEntity
  8
0
100
AcDbLine
 62
7
  6
CONTINUOUS
 10
-2.6610951767
 20
3.0066752261
 11
-2.6256785438
 21
3.1151859528
  0
LINE
  5
24E
100
AcDbEntity
  8
0
100
AcDbLine
 62
7
  6
CONTINUOUS
 10
-2.8381785438
 20
3.0428454346
 11
-2.7673452274
 21
3.2236965782
  0
LINE
  5
24F
100
AcDbEntity
  8
0
100
AcDbLine
 62
7
  6
CONTINUOUS
 10
-2.6256785438
 20
3.1151859528
 11
-2.5548451767
 21
3.2236965782
  0
LINE
  5
250
100
AcDbEntity
  8
0
100
AcDbLine
 62
7
  6
CONTINUOUS
 10
-2.7673452274
 20
3.2236965782
 11
-2.6610951767
 21
3.368377412
  0
LINE
  5
251
100
AcDbEntity
  8
0
100
AcDbLine
 62
7
  6
CONTINUOUS
 10
-3.5819285438
 20
3.2598667867
 11
-3.3694285438
 21
3.5130582458
  0
LINE
  5
252
100
AcDbEntity
  8
0
100
AcDbLine
 62
7
  6
CONTINUOUS
 10
-3.5819285438
 20
2.9705050177
 11
-3.3694285438
 21
3.2236965782
  0
LINE
  5
253
100
AcDbEntity
  8
0
100
AcDbLine
 62
7
  6
CONTINUOUS
 10
-2.6256785438
 20
2.5364625162
 11
-2.5548451767
 21
2.6088029332
  0
LINE
  5
254
100
AcDbEntity
  8
0
100
AcDbLine
 62
7
  6
CONTINUOUS
 10
-2.5548451767
 20
3.2236965782
 11
-2.4485951767
 21
3.2960369951
  0
LINE
  5
255
100
AcDbEntity
  8
0
100
AcDbLine
 62
7
  6
CONTINUOUS
 10
-2.6965119109
 20
2.7173135585
 11
-2.4840119109
 21
2.8619943923
  0
LINE
  5
256
100
AcDbEntity
  8
0
100
AcDbLine
 62
7
  6
CONTINUOUS
 10
-2.5548451767
 20
2.6088029332
 11
-2.4485951767
 21
2.6811433501
  0
LINE
  5
257
100
AcDbEntity
  8
0
100
AcDbLine
 62
7
  6
CONTINUOUS
 10
-2.6610951767
 20
3.368377412
 11
-2.4840119109
 21
3.4768880374
  0
LINE
  5
258
100
AcDbEntity
  8
0
100
AcDbLine
 62
7
  6
CONTINUOUS
 10
-1.1027618096
 20
3.368377412
 11
-0.9256785438
 21
3.4768880374
  0
LINE
  5
259
100
AcDbEntity
  8
0
100
AcDbLine
 62
7
  6
CONTINUOUS
 10
-2.4485951767
 20
3.2960369951
 11
-2.3423451767
 21
3.3322072036
  0
LINE
  5
25A
100
AcDbEntity
  8
0
100
AcDbLine
 62
7
  6
CONTINUOUS
 10
-2.4485951767
 20
2.6811433501
 11
-2.3423451767
 21
2.7173135585
  0
LINE
  5
25B
100
AcDbEntity
  8
RACCORDO
100
AcDbLine
 62
7
  6
CONTINUOUS
 10
-24.6535191808
 20
-3.8110529882
 11
-24.8819285438
 21
-3.8869417542
  0
LINE
  5
25C
100
AcDbEntity
  8
DRAFT
100
AcDbLine
 62
7
  6
CONTINUOUS
 10
23.0680714562
 20
-3.8060113816
 11
23.6180714562
 21
-3.7891635996
  0
LINE
  5
25D
100
AcDbEntity
  8
DRAFT
100
AcDbLine
 62
7
  6
CONTINUOUS
 10
-23.2319285438
 20
-3.8287098817
 11
-23.7819285438
 21
-3.8397987154
  0
LINE
  5
25E
100
AcDbEntity
  8
DRAFT
100
AcDbLine
 62
7
  6
CONTINUOUS
 10
-24.8819285438
 20
-3.8869417542
 11
-23.7819285438
 21
-3.8869417542
  0
LINE
  5
25F
100
AcDbEntity
  8
RACCORDO
100
AcDbLine
 62
7
  6
CONTINUOUS
 10
-23.7819285438
 20
-3.8869417542
 11
-23.3912666387
 21
-3.8869417542
  0
LINE
  5
260
100
AcDbEntity
  8
RACCORDO
100
AcDbLine
 62
7
  6
CONTINUOUS
 10
23.227409551
 20
-3.8869417542
 11
23.6180714562
 21
-3.8869417542
  0
LINE
  5
261
100
AcDbEntity
  8
DRAFT
100
AcDbLine
 62
7
  6
CONTINUOUS
 10
23.6180714562
 20
-3.8869417542
 11
24.7180714562
 21
-3.8869417542
  0
LINE
  5
262
100
AcDbEntity
  8
RACCORDO
100
AcDbLine
 62
7
  6
CONTINUOUS
 10
-23.9573538541
 20
-3.7891635996
 11
-23.7819285438
 21
-3.7891635996
  0
LINE
  5
263
100
AcDbEntity
  8
RACCORDO
100
AcDbLine
 62
7
  6
CONTINUOUS
 10
23.6180714562
 20
-3.7891635996
 11
23.7934967664
 21
-3.7891635996
  0
LINE
  5
264
100
AcDbEntity
  8
DRAFT
100
AcDbLine
 62
7
  6
CONTINUOUS
 10
23.6180714562
 20
-3.8397987154
 11
23.0680714562
 21
-3.8287098817
  0
LINE
  5
265
100
AcDbEntity
  8
DRAFT
100
AcDbLine
 62
7
  6
CONTINUOUS
 10
-23.7819285438
 20
-3.7891635996
 11
-23.2319285438
 21
-3.8060113816
  0
LINE
  5
266
100
AcDbEntity
  8
0
100
AcDbLine
 62
7
  6
CONTINUOUS
 10
-3.3694285438
 20
1.8130582458
 11
-3.3694285438
 21
3.2236965782
  0
LINE
  5
267
100
AcDbEntity
  8
0
100
AcDbLine
 62
7
  6
CONTINUOUS
 10
-3.1569285438
 20
1.8130582458
 11
-3.1569285438
 21
3.5130582458
  0
LINE
  5
268
100
AcDbEntity
  8
DRAFT
100
AcDbLine
 62
7
  6
CONTINUOUS
 10
-2.9319285438
 20
-9.2712333921
 11
-2.9319285438
 21
-8.19648669
  0
LINE
  5
269
100
AcDbEntity
  8
0
100
AcDbLine
 62
7
  6
CONTINUOUS
 10
-2.8735952274
 20
2.5364625162
 11
-2.8735952274
 21
2.7896539754
  0
LINE
  5
26A
100
AcDbEntity
  8
0
100
AcDbLine
 62
7
  6
CONTINUOUS
 10
-2.6965119109
 20
2.7173135585
 11
-2.6965119109
 21
2.7896539754
  0
LINE
  5
26B
100
AcDbEntity
  8
0
100
AcDbLine
 62
7
  6
CONTINUOUS
 10
-2.6610951767
 20
2.3194412149
 11
-2.6610951767
 21
2.4279518402
  0
LINE
  5
26C
100
AcDbEntity
  8
DRAFT
100
AcDbLine
 62
7
  6
CONTINUOUS
 10
-2.4496199974
 20
-9.2869417542
 11
-2.4496199974
 21
-8.5138752552
  0
LINE
  5
26D
100
AcDbEntity
  8
0
100
AcDbLine
 62
7
  6
CONTINUOUS
 10
-1.8934305438
 20
4.4807572458
 11
-1.8934305438
 21
6.1807222458
  0
LINE
  5
26E
100
AcDbEntity
  8
0
100
AcDbLine
 62
7
  6
CONTINUOUS
 10
-1.7756785438
 20
2.3194412149
 11
-1.7756785438
 21
2.4279518402
  0
LINE
  5
26F
100
AcDbEntity
  8
0
100
AcDbLine
 62
7
  6
CONTINUOUS
 10
-1.3475875438
 20
4.4807572458
 11
-1.1941005438
 21
6.1806202458
  0
LINE
  5
270
100
AcDbEntity
  8
0
100
AcDbLine
 62
7
  6
CONTINUOUS
 10
-2.8735952274
 20
2.7896539754
 11
-2.8381785438
 21
3.0428454346
  0
LINE
  5
271
100
AcDbEntity
  8
0
100
AcDbLine
 62
7
  6
CONTINUOUS
 10
-2.6965119109
 20
2.7896539754
 11
-2.6610951767
 21
3.0066752261
  0
LINE
  5
272
100
AcDbEntity
  8
0
100
AcDbLine
 62
7
  6
CONTINUOUS
 10
-2.6610951767
 20
2.4279518402
 11
-2.6256785438
 21
2.5364625162
  0
LINE
  5
273
100
AcDbEntity
  8
0
100
AcDbLine
 62
7
  6
CONTINUOUS
 10
-1.811095278
 20
2.2109305895
 11
-1.7756785438
 21
2.3194412149
  0
LINE
  5
274
100
AcDbEntity
  8
0
100
AcDbLine
 62
7
  6
CONTINUOUS
 10
-0.4884845438
 20
5.2368512458
 11
-0.1336565438
 21
6.1806202458
  0
LINE
  5
275
100
AcDbEntity
  8
0
100
AcDbLine
 62
7
  6
CONTINUOUS
 10
-0.4655405438
 20
4.4807572458
 11
-0.0436495438
 21
5.5861092458
  0
LINE
  5
276
100
AcDbEntity
  8
0
100
AcDbLine
 62
7
  6
CONTINUOUS
 10
-1.6694285438
 20
2.1024199388
 11
-1.598595278
 21
2.2832710064
  0
LINE
  5
277
100
AcDbEntity
  8
0
100
AcDbLine
 62
7
  6
CONTINUOUS
 10
-1.279845278
 20
3.0790156431
 11
-1.2090118096
 21
3.2598667867
  0
LINE
  5
278
100
AcDbEntity
  8
0
100
AcDbLine
 62
7
  6
CONTINUOUS
 10
-1.3152618096
 20
2.3556114233
 11
-1.2444285438
 21
2.5364625162
  0
LINE
  5
279
100
AcDbEntity
  8
0
100
AcDbLine
 62
7
  6
CONTINUOUS
 10
-1.8819285438
 20
2.1024199388
 11
-1.811095278
 21
2.2109305895
  0
LINE
  5
27A
100
AcDbEntity
  8
0
100
AcDbLine
 62
7
  6
CONTINUOUS
 10
-1.1027618096
 20
3.0790156431
 11
-1.0319285438
 21
3.1875263697
  0
LINE
  5
27B
100
AcDbEntity
  8
0
100
AcDbLine
 62
7
  6
CONTINUOUS
 10
-0.323595278
 20
2.8981646008
 11
-0.2527618096
 21
3.0066752261
  0
LINE
  5
27C
100
AcDbEntity
  8
0
100
AcDbLine
 62
7
  6
CONTINUOUS
 10
-1.7756785438
 20
1.9577390923
 11
-1.6694285438
 21
2.1024199388
  0
LINE
  5
27D
100
AcDbEntity
  8
0
100
AcDbLine
 62
7
  6
CONTINUOUS
 10
-1.1381785438
 20
2.3556114233
 11
-1.0319285438
 21
2.5002923078
  0
LINE
  5
27E
100
AcDbEntity
  8
0
100
AcDbLine
 62
7
  6
CONTINUOUS
 10
-1.2090118096
 20
3.2598667867
 11
-1.1027618096
 21
3.368377412
  0
LINE
  5
27F
100
AcDbEntity
  8
0
100
AcDbLine
 62
7
  6
CONTINUOUS
 10
-0.2527618096
 20
2.7173135585
 11
-0.1465120122
 21
2.8258241839
  0
LINE
  5
280
100
AcDbEntity
  8
0
100
AcDbLine
 62
7
  6
CONTINUOUS
 10
-1.0319285438
 20
3.1875263697
 11
-0.8902618096
 21
3.2960369951
  0
LINE
  5
281
100
AcDbEntity
  8
0
100
AcDbLine
 62
7
  6
CONTINUOUS
 10
-1.2444285438
 20
2.5364625162
 11
-1.1027618096
 21
2.6449731416
  0
LINE
  5
282
100
AcDbEntity
  8
0
100
AcDbLine
 62
7
  6
CONTINUOUS
 10
-0.4652618096
 20
2.7896539754
 11
-0.323595278
 21
2.8981646008
  0
LINE
  5
283
100
AcDbEntity
  8
0
100
AcDbLine
 62
7
  6
CONTINUOUS
 10
-1.9881785438
 20
2.0300795219
 11
-1.8819285438
 21
2.1024199388
  0
LINE
  5
284
100
AcDbEntity
  8
0
100
AcDbLine
 62
7
  6
CONTINUOUS
 10
-1.9527619109
 20
1.8492284575
 11
-1.7756785438
 21
1.9577390923
  0
LINE
  5
285
100
AcDbEntity
  8
0
100
AcDbLine
 62
7
  6
CONTINUOUS
 10
-0.3944285438
 20
1.8492284575
 11
-0.217345278
 21
1.9577390923
  0
LINE
  5
286
100
AcDbEntity
  8
0
100
AcDbLine
 62
7
  6
CONTINUOUS
 10
-1.1027618096
 20
2.6449731416
 11
-1.0319285438
 21
2.6811433501
  0
LINE
  5
287
100
AcDbEntity
  8
0
100
AcDbLine
 62
7
  6
CONTINUOUS
 10
-1.0319285438
 20
2.5002923078
 11
-0.8902618096
 21
2.5726327247
  0
LINE
  5
288
100
AcDbEntity
  8
0
100
AcDbLine
 62
7
  6
CONTINUOUS
 10
-0.323595278
 20
2.6811433501
 11
-0.2527618096
 21
2.7173135585
  0
LINE
  5
289
100
AcDbEntity
  8
0
100
AcDbLine
 62
7
  6
CONTINUOUS
 10
-0.4652618096
 20
2.0300795219
 11
-0.323595278
 21
2.1024199388
  0
LINE
  5
28A
100
AcDbEntity
  8
0
100
AcDbLine
 62
7
  6
CONTINUOUS
 10
-2.0944285438
 20
1.9939093134
 11
-1.9881785438
 21
2.0300795219
  0
LINE
  5
28B
100
AcDbEntity
  8
DRAFT
100
AcDbLine
 62
7
  6
CONTINUOUS
 10
8.7503800026
 20
-8.5138752552
 11
8.2680714562
 21
-8.19648669
  0
LINE
  5
28C
100
AcDbEntity
  8
0
100
AcDbLine
 62
7
  6
CONTINUOUS
 10
-2.7673452274
 20
2.1024199388
 11
-2.8381785438
 21
2.2832710064
  0
LINE
  5
28D
100
AcDbEntity
  8
0
100
AcDbLine
 62
7
  6
CONTINUOUS
 10
-2.6256785438
 20
2.2109305895
 11
-2.6610951767
 21
2.3194412149
  0
LINE
  5
28E
100
AcDbEntity
  8
0
100
AcDbLine
 62
7
  6
CONTINUOUS
 10
-2.8381785438
 20
2.2832710064
 11
-2.8735952274
 21
2.5364625162
  0
LINE
  5
28F
100
AcDbEntity
  8
0
100
AcDbLine
 62
7
  6
CONTINUOUS
 10
-1.598595278
 20
2.2832710064
 11
-1.598595278
 21
2.4641220993
  0
LINE
  5
290
100
AcDbEntity
  8
0
100
AcDbLine
 62
7
  6
CONTINUOUS
 10
-1.5386025438
 20
4.4807572458
 11
-1.5386025438
 21
6.1807222458
  0
LINE
  5
291
100
AcDbEntity
  8
0
100
AcDbLine
 62
7
  6
CONTINUOUS
 10
-1.3152618096
 20
2.2471007979
 11
-1.3152618096
 21
2.3556114233
  0
LINE
  5
292
100
AcDbEntity
  8
0
100
AcDbLine
 62
7
  6
CONTINUOUS
 10
-1.279845278
 20
2.9705050177
 11
-1.279845278
 21
3.0790156431
  0
LINE
  5
293
100
AcDbEntity
  8
0
100
AcDbLine
 62
7
  6
CONTINUOUS
 10
-1.1381785438
 20
2.2471007979
 11
-1.1381785438
 21
2.3556114233
  0
LINE
  5
294
100
AcDbEntity
  8
0
100
AcDbLine
 62
7
  6
CONTINUOUS
 10
-1.1027618096
 20
3.0066752261
 11
-1.1027618096
 21
3.0790156431
  0
LINE
  5
295
100
AcDbEntity
  8
0
100
AcDbLine
 62
7
  6
CONTINUOUS
 10
-0.2527618096
 20
3.0066752261
 11
-0.2527618096
 21
3.0790156431
  0
LINE
  5
296
100
AcDbEntity
  8
0
100
AcDbLine
 62
7
  6
CONTINUOUS
 10
-0.217345278
 20
2.2471007979
 11
-0.217345278
 21
2.3556114233
  0
LINE
  5
297
100
AcDbEntity
  8
0
100
AcDbLine
 62
7
  6
CONTINUOUS
 10
-0.0756785438
 20
2.9705050177
 11
-0.0756785438
 21
3.0790156431
  0
LINE
  5
298
100
AcDbEntity
  8
0
100
AcDbLine
 62
7
  6
CONTINUOUS
 10
-0.0402620122
 20
2.2471007979
 11
-0.0402620122
 21
2.3556114233
  0
LINE
  5
299
100
AcDbEntity
  8
0
100
AcDbLine
 62
7
  6
CONTINUOUS
 10
-1.0081325438
 20
4.4807572458
 11
-0.9315605438
 21
5.5907362458
  0
LINE
  5
29A
100
AcDbEntity
  8
0
100
AcDbLine
 62
7
  6
CONTINUOUS
 10
0.9535554562
 20
5.0827002458
 11
1.1302294562
 21
5.7135412458
  0
LINE
  5
29B
100
AcDbEntity
  8
0
100
AcDbLine
 62
7
  6
CONTINUOUS
 10
0.7830624562
 20
4.4807572458
 11
0.8809734562
 21
4.8201102458
  0
LINE
  5
29C
100
AcDbEntity
  8
0
100
AcDbLine
 62
7
  6
CONTINUOUS
 10
0.4320844562
 20
4.4807572458
 11
0.9652694562
 21
6.1806202458
  0
LINE
  5
29D
100
AcDbEntity
  8
0
100
AcDbLine
 62
7
  6
CONTINUOUS
 10
-0.1110950754
 20
2.0662497303
 11
-0.0402620122
 21
2.2471007979
  0
LINE
  5
29E
100
AcDbEntity
  8
0
100
AcDbLine
 62
7
  6
CONTINUOUS
 10
-0.1465120122
 20
2.8258241839
 11
-0.0756785438
 21
2.9705050177
  0
LINE
  5
29F
100
AcDbEntity
  8
0
100
AcDbLine
 62
7
  6
CONTINUOUS
 10
-0.323595278
 20
2.1024199388
 11
-0.217345278
 21
2.2471007979
  0
LINE
  5
2A0
100
AcDbEntity
  8
0
100
AcDbLine
 62
7
  6
CONTINUOUS
 10
0.2430714562
 20
2.5364625162
 11
1.0930714562
 21
3.5130582458
  0
LINE
  5
2A1
100
AcDbEntity
  8
0
100
AcDbLine
 62
7
  6
CONTINUOUS
 10
1.9430714562
 20
2.5364625162
 11
2.7930714562
 21
3.5130582458
  0
LINE
  5
2A2
100
AcDbEntity
  8
0
100
AcDbLine
 62
7
  6
CONTINUOUS
 10
0.4909879878
 20
2.5364625162
 11
1.0930714562
 21
3.2236965782
  0
LINE
  5
2A3
100
AcDbEntity
  8
0
100
AcDbLine
 62
7
  6
CONTINUOUS
 10
2.1909879878
 20
2.5364625162
 11
2.7930714562
 21
3.2236965782
  0
LINE
  5
2A4
100
AcDbEntity
  8
0
100
AcDbLine
 62
7
  6
CONTINUOUS
 10
-0.217345278
 20
1.9577390923
 11
-0.1110950754
 21
2.0662497303
  0
LINE
  5
2A5
100
AcDbEntity
  8
DRAFT
100
AcDbLine
 62
7
  6
CONTINUOUS
 10
23.6180714562
 20
0.265915207
 11
23.0680714562
 21
0.2548263734
  0
LINE
  5
2A6
100
AcDbEntity
  8
DRAFT
100
AcDbLine
 62
7
  6
CONTINUOUS
 10
-23.2319285438
 20
0.2548263734
 11
-23.7819285438
 21
0.265915207
  0
LINE
  5
2A7
100
AcDbEntity
  8
0
100
AcDbLine
 62
7
  6
CONTINUOUS
 10
-2.6610951767
 20
1.9577390923
 11
-2.7673452274
 21
2.1024199388
  0
LINE
  5
2A8
100
AcDbEntity
  8
0
100
AcDbLine
 62
7
  6
CONTINUOUS
 10
-2.5548451767
 20
2.1024199388
 11
-2.6256785438
 21
2.2109305895
  0
LINE
  5
2A9
100
AcDbEntity
  8
0
100
AcDbLine
 62
7
  6
CONTINUOUS
 10
-1.598595278
 20
2.4641220993
 11
-1.6694285438
 21
2.6449731416
  0
LINE
  5
2AA
100
AcDbEntity
  8
0
100
AcDbLine
 62
7
  6
CONTINUOUS
 10
-1.2444285438
 20
2.0662497303
 11
-1.3152618096
 21
2.2471007979
  0
LINE
  5
2AB
100
AcDbEntity
  8
0
100
AcDbLine
 62
7
  6
CONTINUOUS
 10
-1.7756785438
 20
2.4279518402
 11
-1.811095278
 21
2.5364625162
  0
LINE
  5
2AC
100
AcDbEntity
  8
0
100
AcDbLine
 62
7
  6
CONTINUOUS
 10
-1.6694285438
 20
3.1151859528
 11
-1.704845278
 21
3.2236965782
  0
LINE
  5
2AD
100
AcDbEntity
  8
0
100
AcDbLine
 62
7
  6
CONTINUOUS
 10
-2.8842045438
 20
4.4807572458
 11
-3.4230945438
 21
6.1806202458
  0
LINE
  5
2AE
100
AcDbEntity
  8
0
100
AcDbLine
 62
7
  6
CONTINUOUS
 10
-2.7136165438
 20
5.0105522458
 11
-3.0376415438
 21
6.1806202458
  0
LINE
  5
2AF
100
AcDbEntity
  8
0
100
AcDbLine
 62
7
  6
CONTINUOUS
 10
0.3763674562
 20
4.4807572458
 11
0.2174104562
 21
6.1806202458
  0
LINE
  5
2B0
100
AcDbEntity
  8
0
100
AcDbLine
 62
7
  6
CONTINUOUS
 10
0.0292514562
 20
4.4807572458
 11
-0.0436495438
 21
5.5861092458
  0
LINE
  5
2B1
100
AcDbEntity
  8
0
100
AcDbLine
 62
7
  6
CONTINUOUS
 10
0.2430714562
 20
2.3194412149
 11
0.2430714562
 21
2.5364625162
  0
LINE
  5
2B2
100
AcDbEntity
  8
0
100
AcDbLine
 62
7
  6
CONTINUOUS
 10
1.0930714562
 20
1.8130582458
 11
1.0930714562
 21
2.3194412149
  0
LINE
  5
2B3
100
AcDbEntity
  8
0
100
AcDbLine
 62
7
  6
CONTINUOUS
 10
1.0930714562
 20
2.5364625162
 11
1.0930714562
 21
3.2236965782
  0
LINE
  5
2B4
100
AcDbEntity
  8
0
100
AcDbLine
 62
7
  6
CONTINUOUS
 10
1.3055714562
 20
1.8130582458
 11
1.3055714562
 21
2.3194412149
  0
LINE
  5
2B5
100
AcDbEntity
  8
0
100
AcDbLine
 62
7
  6
CONTINUOUS
 10
1.3055714562
 20
2.5364625162
 11
1.3055714562
 21
3.5130582458
  0
LINE
  5
2B6
100
AcDbEntity
  8
0
100
AcDbLine
 62
7
  6
CONTINUOUS
 10
1.6597379878
 20
2.3194412149
 11
1.6597379878
 21
2.5364625162
  0
LINE
  5
2B7
100
AcDbEntity
  8
0
100
AcDbLine
 62
7
  6
CONTINUOUS
 10
-0.5715118096
 20
1.8130582458
 11
-0.3944285438
 21
1.8492284575
  0
LINE
  5
2B8
100
AcDbEntity
  8
DRAFT
100
AcDbLine
 62
7
  6
CONTINUOUS
 10
-23.7819285438
 20
0.2152800913
 11
-23.2319285438
 21
0.2321278732
  0
LINE
  5
2B9
100
AcDbEntity
  8
RACCORDO
100
AcDbLine
 62
7
  6
CONTINUOUS
 10
-23.9573538541
 20
0.2152800913
 11
-23.7819285438
 21
0.2152800913
  0
LINE
  5
2BA
100
AcDbEntity
  8
RACCORDO
100
AcDbLine
 62
7
  6
CONTINUOUS
 10
23.6180714562
 20
0.2152800913
 11
23.7934967664
 21
0.2152800913
  0
LINE
  5
2BB
100
AcDbEntity
  8
DRAFT
100
AcDbLine
 62
7
  6
CONTINUOUS
 10
-24.8819285438
 20
0.3130582458
 11
-23.7819285438
 21
0.3130582458
  0
LINE
  5
2BC
100
AcDbEntity
  8
RACCORDO
100
AcDbLine
 62
7
  6
CONTINUOUS
 10
23.225472326
 20
0.3130582458
 11
23.6180714562
 21
0.3130582458
  0
LINE
  5
2BD
100
AcDbEntity
  8
DRAFT
100
AcDbLine
 62
7
  6
CONTINUOUS
 10
23.6180714562
 20
0.3130582458
 11
24.7180714562
 21
0.3130582458
  0
LINE
  5
2BE
100
AcDbEntity
  8
RACCORDO
100
AcDbLine
 62
7
  6
CONTINUOUS
 10
-23.3893294136
 20
0.3130582458
 11
-23.7819285438
 21
0.3130582458
  0
LINE
  5
2BF
100
AcDbEntity
  8
0
100
AcDbLine
 62
7
  6
CONTINUOUS
 10
-3.3694285438
 20
1.8130582458
 11
-3.1569285438
 21
1.8130582458
  0
LINE
  5
2C0
100
AcDbEntity
  8
0
100
AcDbLine
 62
7
  6
CONTINUOUS
 10
-2.3069285438
 20
1.8130582458
 11
-2.1298451767
 21
1.8130582458
  0
LINE
  5
2C1
100
AcDbEntity
  8
0
100
AcDbLine
 62
7
  6
CONTINUOUS
 10
-0.7840118096
 20
1.8130582458
 11
-0.5715118096
 21
1.8130582458
  0
LINE
  5
2C2
100
AcDbEntity
  8
0
100
AcDbLine
 62
7
  6
CONTINUOUS
 10
1.0930714562
 20
1.8130582458
 11
1.3055714562
 21
1.8130582458
  0
LINE
  5
2C3
100
AcDbEntity
  8
0
100
AcDbLine
 62
7
  6
CONTINUOUS
 10
2.7930714562
 20
1.8130582458
 11
3.0055714562
 21
1.8130582458
  0
LINE
  5
2C4
100
AcDbEntity
  8
DRAFT
100
AcDbLine
 62
7
  6
CONTINUOUS
 10
23.0680714562
 20
0.2321278732
 11
23.6180714562
 21
0.2152800913
  0
LINE
  5
2C5
100
AcDbEntity
  8
0
100
AcDbLine
 62
7
  6
CONTINUOUS
 10
-2.3069285438
 20
1.8130582458
 11
-2.4840119109
 21
1.8492284575
  0
LINE
  5
2C6
100
AcDbEntity
  8
0
100
AcDbLine
 62
7
  6
CONTINUOUS
 10
-0.7840118096
 20
1.8130582458
 11
-0.961095278
 21
1.8492284575
  0
LINE
  5
2C7
100
AcDbEntity
  8
0
100
AcDbLine
 62
7
  6
CONTINUOUS
 10
-0.748595278
 20
1.9939093134
 11
-0.8902618096
 21
2.0300795219
  0
LINE
  5
2C8
100
AcDbEntity
  8
0
100
AcDbLine
 62
7
  6
CONTINUOUS
 10
-2.3423451767
 20
1.9939093134
 11
-2.4485951767
 21
2.0300795219
  0
LINE
  5
2C9
100
AcDbEntity
  8
0
100
AcDbLine
 62
7
  6
CONTINUOUS
 10
-1.9881785438
 20
2.6811433501
 11
-2.0944285438
 21
2.7173135585
  0
LINE
  5
2CA
100
AcDbEntity
  8
0
100
AcDbLine
 62
7
  6
CONTINUOUS
 10
-0.8902618096
 20
2.0300795219
 11
-1.0319285438
 21
2.1024199388
  0
LINE
  5
2CB
100
AcDbEntity
  8
0
100
AcDbLine
 62
7
  6
CONTINUOUS
 10
-1.0319285438
 20
2.6811433501
 11
-1.1027618096
 21
2.7173135585
  0
LINE
  5
2CC
100
AcDbEntity
  8
0
100
AcDbLine
 62
7
  6
CONTINUOUS
 10
-2.4840119109
 20
1.8492284575
 11
-2.6610951767
 21
1.9577390923
  0
LINE
  5
2CD
100
AcDbEntity
  8
0
100
AcDbLine
 62
7
  6
CONTINUOUS
 10
-0.961095278
 20
1.8492284575
 11
-1.1381785438
 21
1.9577390923
  0
LINE
  5
2CE
100
AcDbEntity
  8
0
100
AcDbLine
 62
7
  6
CONTINUOUS
 10
-1.7756785438
 20
2.753483767
 11
-1.9527619109
 21
2.8619943923
  0
LINE
  5
2CF
100
AcDbEntity
  8
0
100
AcDbLine
 62
7
  6
CONTINUOUS
 10
-2.4485951767
 20
2.0300795219
 11
-2.5548451767
 21
2.1024199388
  0
LINE
  5
2D0
100
AcDbEntity
  8
0
100
AcDbLine
 62
7
  6
CONTINUOUS
 10
-1.8819285438
 20
2.6088029332
 11
-1.9881785438
 21
2.6811433501
  0
LINE
  5
2D1
100
AcDbEntity
  8
0
100
AcDbLine
 62
7
  6
CONTINUOUS
 10
-1.9173451767
 20
3.2236965782
 11
-2.0235951767
 21
3.2960369951
  0
LINE
  5
2D2
100
AcDbEntity
  8
0
100
AcDbLine
 62
7
  6
CONTINUOUS
 10
-0.8902618096
 20
2.7896539754
 11
-1.0319285438
 21
2.8981646008
  0
LINE
  5
2D3
100
AcDbEntity
  8
0
100
AcDbLine
 62
7
  6
CONTINUOUS
 10
-1.811095278
 20
2.5364625162
 11
-1.8819285438
 21
2.6088029332
  0
LINE
  5
2D4
100
AcDbEntity
  8
0
100
AcDbLine
 62
7
  6
CONTINUOUS
 10
-1.1381785438
 20
1.9577390923
 11
-1.2444285438
 21
2.0662497303
  0
LINE
  5
2D5
100
AcDbEntity
  8
0
100
AcDbLine
 62
7
  6
CONTINUOUS
 10
-1.6694285438
 20
2.6449731416
 11
-1.7756785438
 21
2.753483767
  0
LINE
  5
2D6
100
AcDbEntity
  8
0
100
AcDbLine
 62
7
  6
CONTINUOUS
 10
-1.1027618096
 20
2.7173135585
 11
-1.2090118096
 21
2.8258241839
  0
LINE
  5
2D7
100
AcDbEntity
  8
0
100
AcDbLine
 62
7
  6
CONTINUOUS
 10
-1.0319285438
 20
2.1024199388
 11
-1.1381785438
 21
2.2471007979
  0
LINE
  5
2D8
100
AcDbEntity
  8
0
100
AcDbLine
 62
7
  6
CONTINUOUS
 10
-1.704845278
 20
3.2236965782
 11
-1.811095278
 21
3.368377412
  0
LINE
  5
2D9
100
AcDbEntity
  8
0
100
AcDbLine
 62
7
  6
CONTINUOUS
 10
-0.217345278
 20
2.3556114233
 11
-0.323595278
 21
2.5002923078
  0
LINE
  5
2DA
100
AcDbEntity
  8
0
100
AcDbLine
 62
7
  6
CONTINUOUS
 10
-1.8465118096
 20
3.1151859528
 11
-1.9173451767
 21
3.2236965782
  0
LINE
  5
2DB
100
AcDbEntity
  8
0
100
AcDbLine
 62
7
  6
CONTINUOUS
 10
-1.0319285438
 20
2.8981646008
 11
-1.1027618096
 21
3.0066752261
  0
LINE
  5
2DC
100
AcDbEntity
  8
0
100
AcDbLine
 62
7
  6
CONTINUOUS
 10
-0.2527618096
 20
3.0790156431
 11
-0.323595278
 21
3.1875263697
  0
LINE
  5
2DD
100
AcDbEntity
  8
0
100
AcDbLine
 62
7
  6
CONTINUOUS
 10
-1.2090118096
 20
2.8258241839
 11
-1.279845278
 21
2.9705050177
  0
LINE
  5
2DE
100
AcDbEntity
  8
0
100
AcDbLine
 62
7
  6
CONTINUOUS
 10
-0.0402620122
 20
2.3556114233
 11
-0.1110950754
 21
2.5364625162
  0
LINE
  5
2DF
100
AcDbEntity
  8
0
100
AcDbLine
 62
7
  6
CONTINUOUS
 10
-0.0756785438
 20
3.0790156431
 11
-0.1465120122
 21
3.2598667867
  0
LINE
  5
2E0
100
AcDbEntity
  8
0
100
AcDbLine
 62
7
  6
CONTINUOUS
 10
-0.5153045438
 20
4.4807572458
 11
-0.9315605438
 21
5.5907362458
  0
LINE
  5
2E1
100
AcDbEntity
  8
0
100
AcDbLine
 62
7
  6
CONTINUOUS
 10
-0.4884845438
 20
5.2368512458
 11
-0.8395655438
 21
6.1806202458
  0
LINE
  5
2E2
100
AcDbEntity
  8
0
100
AcDbLine
 62
7
  6
CONTINUOUS
 10
1.9342781201
 20
4.4807575591
 11
1.9342781201
 21
6.160760328
  0
LINE
  5
2E3
100
AcDbEntity
  8
0
100
AcDbLine
 62
7
  6
CONTINUOUS
 10
1.9430714562
 20
2.3194412149
 11
1.9430714562
 21
2.5364625162
  0
LINE
  5
2E4
100
AcDbEntity
  8
0
100
AcDbLine
 62
7
  6
CONTINUOUS
 10
2.2759128878
 20
5.4243864143
 11
2.2759128878
 21
5.8910318968
  0
LINE
  5
2E5
100
AcDbEntity
  8
DRAFT
100
AcDbLine
 62
7
  6
CONTINUOUS
 10
2.2857629098
 20
-9.2869417542
 11
2.2857629098
 21
-8.5138752552
  0
LINE
  5
2E6
100
AcDbEntity
  8
0
100
AcDbLine
 62
7
  6
CONTINUOUS
 10
2.2876784522
 20
4.4807575591
 11
2.2876784522
 21
5.1459899617
  0
LINE
  5
2E7
100
AcDbEntity
  8
DRAFT
100
AcDbLine
 62
7
  6
CONTINUOUS
 10
2.7680714562
 20
-9.2712333921
 11
2.7680714562
 21
-8.19648669
  0
LINE
  5
2E8
100
AcDbEntity
  8
0
100
AcDbLine
 62
7
  6
CONTINUOUS
 10
2.7930714562
 20
1.8130582458
 11
2.7930714562
 21
2.3194412149
  0
LINE
  5
2E9
100
AcDbEntity
  8
0
100
AcDbLine
 62
7
  6
CONTINUOUS
 10
2.7930714562
 20
2.5364625162
 11
2.7930714562
 21
3.2236965782
  0
LINE
  5
2EA
100
AcDbEntity
  8
0
100
AcDbLine
 62
7
  6
CONTINUOUS
 10
2.8465236389
 20
5.2742384374
 11
2.8465236389
 21
5.2842831446
  0
LINE
  5
2EB
100
AcDbEntity
  8
0
100
AcDbLine
 62
7
  6
CONTINUOUS
 10
3.0055714562
 20
1.8130582458
 11
3.0055714562
 21
2.3194412149
  0
LINE
  5
2EC
100
AcDbEntity
  8
0
100
AcDbLine
 62
7
  6
CONTINUOUS
 10
3.0055714562
 20
2.5364625162
 11
3.0055714562
 21
3.5130582458
  0
LINE
  5
2ED
100
AcDbEntity
  8
0
100
AcDbLine
 62
7
  6
CONTINUOUS
 10
3.3597383931
 20
2.3194412149
 11
3.3597383931
 21
2.5364625162
  0
LINE
  5
2EE
100
AcDbEntity
  8
DRAFT
100
AcDbLine
 62
7
  6
CONTINUOUS
 10
-8.9142370902
 20
-8.5138752552
 11
-8.4319285438
 21
-8.19648669
  0
LINE
  5
2EF
100
AcDbEntity
  8
0
100
AcDbLine
 62
7
  6
CONTINUOUS
 10
-0.6069285438
 20
1.9939093134
 11
-0.4652618096
 21
2.0300795219
  0
LINE
  5
2F0
100
AcDbEntity
  8
0
100
AcDbLine
 62
7
  6
CONTINUOUS
 10
-0.8902618096
 20
2.5726327247
 11
-0.748595278
 21
2.6088029332
  0
LINE
  5
2F1
100
AcDbEntity
  8
0
100
AcDbLine
 62
7
  6
CONTINUOUS
 10
-0.6069285438
 20
2.753483767
 11
-0.4652618096
 21
2.7896539754
  0
LINE
  5
2F2
100
AcDbEntity
  8
0
100
AcDbLine
 62
7
  6
CONTINUOUS
 10
-0.8902618096
 20
3.2960369951
 11
-0.748595278
 21
3.3322072036
  0
LINE
  5
2F3
100
AcDbEntity
  8
0
100
AcDbLine
 62
7
  6
CONTINUOUS
 10
-2.1298451767
 20
1.8130582458
 11
-1.9527619109
 21
1.8492284575
  0
LINE
  5
2F4
100
AcDbEntity
  8
0
100
AcDbLine
 62
7
  6
CONTINUOUS
 10
-2.4840119109
 20
2.8619943923
 11
-2.3069285438
 21
2.8981646008
  0
LINE
  5
2F5
100
AcDbEntity
  8
0
100
AcDbLine
 62
7
  6
CONTINUOUS
 10
-0.9256785438
 20
3.4768880374
 11
-0.748595278
 21
3.5130582458
  0
LINE
  5
2F6
100
AcDbEntity
  8
0
100
AcDbLine
 62
7
  6
CONTINUOUS
 10
-2.3423451767
 20
1.9939093134
 11
-2.0944285438
 21
1.9939093134
  0
LINE
  5
2F7
100
AcDbEntity
  8
0
100
AcDbLine
 62
7
  6
CONTINUOUS
 10
-0.748595278
 20
1.9939093134
 11
-0.6069285438
 21
1.9939093134
  0
LINE
  5
2F8
100
AcDbEntity
  8
0
100
AcDbLine
 62
7
  6
CONTINUOUS
 10
0.2430714562
 20
2.3194412149
 11
1.0930714562
 21
2.3194412149
  0
LINE
  5
2F9
100
AcDbEntity
  8
0
100
AcDbLine
 62
7
  6
CONTINUOUS
 10
1.3055714562
 20
2.3194412149
 11
1.6597379878
 21
2.3194412149
  0
LINE
  5
2FA
100
AcDbEntity
  8
0
100
AcDbLine
 62
7
  6
CONTINUOUS
 10
1.9430714562
 20
2.3194412149
 11
2.7930714562
 21
2.3194412149
  0
LINE
  5
2FB
100
AcDbEntity
  8
0
100
AcDbLine
 62
7
  6
CONTINUOUS
 10
3.0055714562
 20
2.3194412149
 11
3.3597383931
 21
2.3194412149
  0
LINE
  5
2FC
100
AcDbEntity
  8
0
100
AcDbLine
 62
7
  6
CONTINUOUS
 10
0.4909879878
 20
2.5364625162
 11
1.0930714562
 21
2.5364625162
  0
LINE
  5
2FD
100
AcDbEntity
  8
0
100
AcDbLine
 62
7
  6
CONTINUOUS
 10
1.3055714562
 20
2.5364625162
 11
1.6597379878
 21
2.5364625162
  0
LINE
  5
2FE
100
AcDbEntity
  8
0
100
AcDbLine
 62
7
  6
CONTINUOUS
 10
2.1909879878
 20
2.5364625162
 11
2.7930714562
 21
2.5364625162
  0
LINE
  5
2FF
100
AcDbEntity
  8
0
100
AcDbLine
 62
7
  6
CONTINUOUS
 10
3.0055714562
 20
2.5364625162
 11
3.3597383931
 21
2.5364625162
  0
LINE
  5
300
100
AcDbEntity
  8
0
100
AcDbLine
 62
7
  6
CONTINUOUS
 10
-0.748595278
 20
2.6088029332
 11
-0.6069285438
 21
2.6088029332
  0
LINE
  5
301
100
AcDbEntity
  8
0
100
AcDbLine
 62
7
  6
CONTINUOUS
 10
-2.3423451767
 20
2.7173135585
 11
-2.0944285438
 21
2.7173135585
  0
LINE
  5
302
100
AcDbEntity
  8
0
100
AcDbLine
 62
7
  6
CONTINUOUS
 10
-0.748595278
 20
2.753483767
 11
-0.6069285438
 21
2.753483767
  0
LINE
  5
303
100
AcDbEntity
  8
0
100
AcDbLine
 62
7
  6
CONTINUOUS
 10
-2.3069285438
 20
2.8981646008
 11
-2.1298451767
 21
2.8981646008
  0
LINE
  5
304
100
AcDbEntity
  8
0
100
AcDbLine
 62
7
  6
CONTINUOUS
 10
-1.8465118096
 20
3.1151859528
 11
-1.6694285438
 21
3.1151859528
  0
LINE
  5
305
100
AcDbEntity
  8
0
100
AcDbLine
 62
7
  6
CONTINUOUS
 10
-2.3423451767
 20
3.3322072036
 11
-2.1298451767
 21
3.3322072036
  0
LINE
  5
306
100
AcDbEntity
  8
0
100
AcDbLine
 62
7
  6
CONTINUOUS
 10
-0.748595278
 20
3.3322072036
 11
-0.6069285438
 21
3.3322072036
  0
LINE
  5
307
100
AcDbEntity
  8
0
100
AcDbLine
 62
7
  6
CONTINUOUS
 10
-3.3694285438
 20
3.5130582458
 11
-3.1569285438
 21
3.5130582458
  0
LINE
  5
308
100
AcDbEntity
  8
0
100
AcDbLine
 62
7
  6
CONTINUOUS
 10
-2.3069285438
 20
3.5130582458
 11
-2.1652619109
 21
3.5130582458
  0
LINE
  5
309
100
AcDbEntity
  8
0
100
AcDbLine
 62
7
  6
CONTINUOUS
 10
-0.748595278
 20
3.5130582458
 11
-0.6069285438
 21
3.5130582458
  0
LINE
  5
30A
100
AcDbEntity
  8
0
100
AcDbLine
 62
7
  6
CONTINUOUS
 10
1.0930714562
 20
3.5130582458
 11
1.3055714562
 21
3.5130582458
  0
LINE
  5
30B
100
AcDbEntity
  8
0
100
AcDbLine
 62
7
  6
CONTINUOUS
 10
2.7930714562
 20
3.5130582458
 11
3.0055714562
 21
3.5130582458
  0
LINE
  5
30C
100
AcDbEntity
  8
0
100
AcDbLine
 62
7
  6
CONTINUOUS
 10
-1.9527619109
 20
2.8619943923
 11
-2.1298451767
 21
2.8981646008
  0
LINE
  5
30D
100
AcDbEntity
  8
0
100
AcDbLine
 62
7
  6
CONTINUOUS
 10
-1.9881785438
 20
3.4768880374
 11
-2.1652619109
 21
3.5130582458
  0
LINE
  5
30E
100
AcDbEntity
  8
0
100
AcDbLine
 62
7
  6
CONTINUOUS
 10
-0.429845278
 20
3.4768880374
 11
-0.6069285438
 21
3.5130582458
  0
LINE
  5
30F
100
AcDbEntity
  8
0
100
AcDbLine
 62
7
  6
CONTINUOUS
 10
-0.4652618096
 20
2.5726327247
 11
-0.6069285438
 21
2.6088029332
  0
LINE
  5
310
100
AcDbEntity
  8
0
100
AcDbLine
 62
7
  6
CONTINUOUS
 10
-0.748595278
 20
2.753483767
 11
-0.8902618096
 21
2.7896539754
  0
LINE
  5
311
100
AcDbEntity
  8
0
100
AcDbLine
 62
7
  6
CONTINUOUS
 10
-0.4652618096
 20
3.2960369951
 11
-0.6069285438
 21
3.3322072036
  0
LINE
  5
312
100
AcDbEntity
  8
0
100
AcDbLine
 62
7
  6
CONTINUOUS
 10
-2.0235951767
 20
3.2960369951
 11
-2.1298451767
 21
3.3322072036
  0
LINE
  5
313
100
AcDbEntity
  8
0
100
AcDbLine
 62
7
  6
CONTINUOUS
 10
-0.323595278
 20
2.5002923078
 11
-0.4652618096
 21
2.5726327247
  0
LINE
  5
314
100
AcDbEntity
  8
0
100
AcDbLine
 62
7
  6
CONTINUOUS
 10
-0.2527618096
 20
2.6449731416
 11
-0.323595278
 21
2.6811433501
  0
LINE
  5
315
100
AcDbEntity
  8
0
100
AcDbLine
 62
7
  6
CONTINUOUS
 10
-1.811095278
 20
3.368377412
 11
-1.9881785438
 21
3.4768880374
  0
LINE
  5
316
100
AcDbEntity
  8
0
100
AcDbLine
 62
7
  6
CONTINUOUS
 10
-0.2527618096
 20
3.368377412
 11
-0.429845278
 21
3.4768880374
  0
LINE
  5
317
100
AcDbEntity
  8
0
100
AcDbLine
 62
7
  6
CONTINUOUS
 10
-0.1110950754
 20
2.5364625162
 11
-0.2527618096
 21
2.6449731416
  0
LINE
  5
318
100
AcDbEntity
  8
0
100
AcDbLine
 62
7
  6
CONTINUOUS
 10
-0.323595278
 20
3.1875263697
 11
-0.4652618096
 21
3.2960369951
  0
LINE
  5
319
100
AcDbEntity
  8
0
100
AcDbLine
 62
7
  6
CONTINUOUS
 10
-0.1465120122
 20
3.2598667867
 11
-0.2527618096
 21
3.368377412
  0
LINE
  5
31A
100
AcDbEntity
  8
0
100
AcDbLine
 62
7
  6
CONTINUOUS
 10
1.8300834562
 20
4.4807572458
 11
1.3085234562
 21
6.1806202458
  0
LINE
  5
31B
100
AcDbEntity
  8
0
100
AcDbLine
 62
7
  6
CONTINUOUS
 10
1.4561094562
 20
4.4807572458
 11
1.3641904562
 21
4.8201102458
  0
LINE
  5
31C
100
AcDbEntity
  8
0
100
AcDbLine
 62
7
  6
CONTINUOUS
 10
1.2932774562
 20
5.0827002458
 11
1.1302294562
 21
5.7135412458
  0
LINE
  5
31D
100
AcDbEntity
  8
0
100
AcDbLine
 62
7
  6
CONTINUOUS
 10
-2.4840119109
 20
3.4768880374
 11
-2.3069285438
 21
3.5130582458
  0
LINE
  5
31E
100
AcDbEntity
  8
DRAFT
100
AcDbLine
 62
7
  6
CONTINUOUS
 10
21.1517976496
 20
8.0497138822
 11
20.9680714562
 21
8.0130582458
  0
LINE
  5
31F
100
AcDbEntity
  8
DRAFT
100
AcDbLine
 62
7
  6
CONTINUOUS
 10
21.1517976496
 20
9.1903666614
 11
20.9680714562
 21
9.1537110251
  0
LINE
  5
320
100
AcDbEntity
  8
0
100
AcDbLine
 62
7
  6
CONTINUOUS
 10
-2.8842045438
 20
4.4807572458
 11
-2.5715125438
 21
4.4807572458
  0
LINE
  5
321
100
AcDbEntity
  8
0
100
AcDbLine
 62
7
  6
CONTINUOUS
 10
-1.8934305438
 20
4.4807572458
 11
-1.5386025438
 21
4.4807572458
  0
LINE
  5
322
100
AcDbEntity
  8
0
100
AcDbLine
 62
7
  6
CONTINUOUS
 10
-1.3475875438
 20
4.4807572458
 11
-1.0081325438
 21
4.4807572458
  0
LINE
  5
323
100
AcDbEntity
  8
0
100
AcDbLine
 62
7
  6
CONTINUOUS
 10
-0.5153045438
 20
4.4807572458
 11
-0.4655405438
 21
4.4807572458
  0
LINE
  5
324
100
AcDbEntity
  8
0
100
AcDbLine
 62
7
  6
CONTINUOUS
 10
0.0292514562
 20
4.4807572458
 11
0.3763674562
 21
4.4807572458
  0
LINE
  5
325
100
AcDbEntity
  8
0
100
AcDbLine
 62
7
  6
CONTINUOUS
 10
0.4320844562
 20
4.4807572458
 11
0.7830624562
 21
4.4807572458
  0
LINE
  5
326
100
AcDbEntity
  8
0
100
AcDbLine
 62
7
  6
CONTINUOUS
 10
1.4561094562
 20
4.4807572458
 11
1.8300834562
 21
4.4807572458
  0
LINE
  5
327
100
AcDbEntity
  8
0
100
AcDbLine
 62
7
  6
CONTINUOUS
 10
1.9342781201
 20
4.4807575591
 11
2.2876784522
 21
4.4807575591
  0
LINE
  5
328
100
AcDbEntity
  8
0
100
AcDbLine
 62
7
  6
CONTINUOUS
 10
2.8310486713
 20
4.4807575591
 11
3.1723520146
 21
4.4807575591
  0
LINE
  5
329
100
AcDbEntity
  8
0
100
AcDbLine
 62
7
  6
CONTINUOUS
 10
0.8809734562
 20
4.8201102458
 11
1.3641904562
 21
4.8201102458
  0
LINE
  5
32A
100
AcDbEntity
  8
0
100
AcDbLine
 62
7
  6
CONTINUOUS
 10
0.9535554562
 20
5.0827002458
 11
1.2932774562
 21
5.0827002458
  0
LINE
  5
32B
100
AcDbEntity
  8
0
100
AcDbLine
 62
7
  6
CONTINUOUS
 10
2.2876784522
 20
5.1459899617
 11
2.4779287752
 21
5.1459899617
  0
LINE
  5
32C
100
AcDbEntity
  8
DRAFT
100
AcDbLine
 62
7
  6
CONTINUOUS
 10
-24.8819285438
 20
5.1729115965
 11
-23.7819285438
 21
5.1729115965
  0
LINE
  5
32D
100
AcDbEntity
  8
DRAFT
100
AcDbLine
 62
7
  6
CONTINUOUS
 10
23.6180714562
 20
5.1729115965
 11
24.7180714562
 21
5.1729115965
  0
LINE
  5
32E
100
AcDbEntity
  8
DRAFT
100
AcDbLine
 62
7
  6
CONTINUOUS
 10
24.6779248069
 20
5.2130582458
 11
23.5779248069
 21
5.2130582458
  0
LINE
  5
32F
100
AcDbEntity
  8
DRAFT
100
AcDbLine
 62
7
  6
CONTINUOUS
 10
-23.7417818945
 20
5.2130582458
 11
-24.8417818945
 21
5.2130582458
  0
LINE
  5
330
100
AcDbEntity
  8
0
100
AcDbLine
 62
7
  6
CONTINUOUS
 10
2.2759128878
 20
5.4243864143
 11
2.4786936006
 21
5.4243864143
  0
LINE
  5
331
100
AcDbEntity
  8
DRAFT
100
AcDbLine
 62
7
  6
CONTINUOUS
 10
-21.3156547372
 20
8.0497138822
 11
-21.1319285438
 21
8.0130582458
  0
LINE
  5
332
100
AcDbEntity
  8
DRAFT
100
AcDbLine
 62
7
  6
CONTINUOUS
 10
-21.3156547372
 20
9.1903666614
 11
-21.1319285438
 21
9.1537110251
  0
LINE
  5
333
100
AcDbEntity
  8
RACCORDO
100
AcDbLine
 62
7
  6
CONTINUOUS
 10
24.7180714562
 20
-3.8869417542
 11
24.4896620932
 21
-3.8110529882
  0
LINE
  5
334
100
AcDbEntity
  8
DRAFT
100
AcDbLine
 62
7
  6
CONTINUOUS
 10
22.5503800026
 20
-8.5138752552
 11
22.0680714562
 21
-8.19648669
  0
LINE
  5
335
100
AcDbEntity
  8
0
100
AcDbLine
 62
7
  6
CONTINUOUS
 10
-3.4230945438
 20
6.1806202458
 11
-3.0376415438
 21
6.1806202458
  0
LINE
  5
336
100
AcDbEntity
  8
0
100
AcDbLine
 62
7
  6
CONTINUOUS
 10
-2.3796945438
 20
6.1806202458
 11
-2.0251085438
 21
6.1806202458
  0
LINE
  5
337
100
AcDbEntity
  8
0
100
AcDbLine
 62
7
  6
CONTINUOUS
 10
-1.1941005438
 20
6.1806202458
 11
-0.8395655438
 21
6.1806202458
  0
LINE
  5
338
100
AcDbEntity
  8
0
100
AcDbLine
 62
7
  6
CONTINUOUS
 10
-0.1336565438
 20
6.1806202458
 11
0.2174104562
 21
6.1806202458
  0
LINE
  5
339
100
AcDbEntity
  8
0
100
AcDbLine
 62
7
  6
CONTINUOUS
 10
0.9652694562
 20
6.1806202458
 11
1.3085234562
 21
6.1806202458
  0
LINE
  5
33A
100
AcDbEntity
  8
0
100
AcDbLine
 62
7
  6
CONTINUOUS
 10
-1.8934305438
 20
6.1807222458
 11
-1.5386025438
 21
6.1807222458
  0
LINE
  5
33B
100
AcDbEntity
  8
DRAFT
100
AcDbLine
 62
7
  6
CONTINUOUS
 10
8.2680714562
 20
-9.2712333921
 11
8.2680714562
 21
-8.19648669
  0
LINE
  5
33C
100
AcDbEntity
  8
DRAFT
100
AcDbLine
 62
7
  6
CONTINUOUS
 10
8.7503800026
 20
-9.2869417542
 11
8.7503800026
 21
-8.5138752552
  0
LINE
  5
33D
100
AcDbEntity
  8
DRAFT
100
AcDbLine
 62
7
  6
CONTINUOUS
 10
2.2857629098
 20
-8.5138752552
 11
2.7680714562
 21
-8.19648669
  0
LINE
  5
33E
100
AcDbEntity
  8
RACCORDO
100
AcDbLine
 62
7
  6
CONTINUOUS
 10
24.7180714562
 20
0.3130582458
 11
24.4896620932
 21
0.2371694798
  0
LINE
  5
33F
100
AcDbEntity
  8
RACCORDO
100
AcDbLine
 62
253
  6
CONTINUOUS
 10
23.2238283939
 20
7.694400569
 11
-23.3876854816
 21
7.694400569
  0
LINE
  5
340
100
AcDbEntity
  8
RACCORDO
100
AcDbLine
 62
253
  6
CONTINUOUS
 10
23.2238283861
 20
7.99557177
 11
-23.3876854737
 21
7.99557177
  0
LINE
  5
341
100
AcDbEntity
  8
DRAFT
100
AcDbLine
 62
7
  6
CONTINUOUS
 10
20.9680714562
 20
8.0130582458
 11
-21.1319285438
 21
8.0130582458
  0
LINE
  5
342
100
AcDbEntity
  8
RACCORDO
100
AcDbLine
 62
7
  6
CONTINUOUS
 10
-23.4418275859
 20
8.0497138822
 11
-21.3156547372
 21
8.0497138822
  0
LINE
  5
343
100
AcDbEntity
  8
RACCORDO
100
AcDbLine
 62
7
  6
CONTINUOUS
 10
21.1517976496
 20
8.0497138822
 11
23.2779704983
 21
8.0497138822
  0
LINE
  5
344
100
AcDbEntity
  8
RACCORDO
100
AcDbLine
 62
253
  6
CONTINUOUS
 10
23.2238283861
 20
7.99557177
 11
23.2779704983
 21
8.0497138822
  0
LINE
  5
345
100
AcDbEntity
  8
DRAFT
100
AcDbLine
 62
7
  6
CONTINUOUS
 10
20.9680714562
 20
9.1537110251
 11
-21.1319285438
 21
9.1537110251
  0
LINE
  5
346
100
AcDbEntity
  8
RACCORDO
100
AcDbLine
 62
7
  6
CONTINUOUS
 10
24.4279628831
 20
9.1903666614
 11
21.1517976496
 21
9.1903666614
  0
LINE
  5
347
100
AcDbEntity
  8
RACCORDO
100
AcDbLine
 62
7
  6
CONTINUOUS
 10
-21.3156547372
 20
9.1903666614
 11
-24.5918199707
 21
9.1903666614
  0
LINE
  5
348
100
AcDbEntity
  8
RACCORDO
100
AcDbLine
 62
253
  6
CONTINUOUS
 10
23.5237826985
 20
7.6956174653
 11
23.5779248069
 21
7.7497595736
  0
LINE
  5
349
100
AcDbEntity
  8
DRAFT
100
AcDbLine
 62
7
  6
CONTINUOUS
 10
16.0857629098
 20
-8.5138752552
 11
16.5680714562
 21
-8.19648669
  0
LINE
  5
34A
100
AcDbEntity
  8
DRAFT
100
AcDbLine
 62
7
  6
CONTINUOUS
 10
16.0857629098
 20
-9.2869417542
 11
16.0857629098
 21
-8.5138752552
  0
LINE
  5
34B
100
AcDbEntity
  8
DRAFT
100
AcDbLine
 62
7
  6
CONTINUOUS
 10
16.5680714562
 20
-9.2712333921
 11
16.5680714562
 21
-8.19648669
  0
LINE
  5
34C
100
AcDbEntity
  8
DRAFT
100
AcDbLine
 62
7
  6
CONTINUOUS
 10
20.9680714562
 20
9.1537110251
 11
20.9680714562
 21
8.0130582458
  0
LINE
  5
34D
100
AcDbEntity
  8
DRAFT
100
AcDbLine
 62
7
  6
CONTINUOUS
 10
21.1517976496
 20
9.1903666614
 11
21.1517976496
 21
8.0497138822
  0
LINE
  5
34E
100
AcDbEntity
  8
DRAFT
100
AcDbLine
 62
7
  6
CONTINUOUS
 10
23.5779248069
 20
5.2130582458
 11
23.6180714562
 21
5.1729115965
  0
LINE
  5
34F
100
AcDbEntity
  8
DRAFT
100
AcDbLine
 62
7
  6
CONTINUOUS
 10
24.6779248069
 20
5.2130582458
 11
24.7180714562
 21
5.1729115965
  0
LINE
  5
350
100
AcDbEntity
  8
RACCORDO
100
AcDbLine
 62
253
  6
CONTINUOUS
 10
23.3189350698
 20
-8.5138752552
 11
23.2295381768
 21
-7.6108087638
  0
LINE
  5
351
100
AcDbEntity
  8
RACCORDO
100
AcDbLine
 62
253
  6
CONTINUOUS
 10
23.6180714562
 20
-8.2101704707
 11
23.5294924866
 21
-7.3153664509
  0
LINE
  5
352
100
AcDbEntity
  8
DRAFT
100
AcDbLine
 62
7
  6
CONTINUOUS
 10
22.0680714562
 20
-9.2712333921
 11
22.0680714562
 21
-8.19648669
  0
LINE
  5
353
100
AcDbEntity
  8
DRAFT
100
AcDbLine
 62
7
  6
CONTINUOUS
 10
22.5503800026
 20
-9.2869417542
 11
22.5503800026
 21
-8.5138752552
  0
LINE
  5
354
100
AcDbEntity
  8
DRAFT
100
AcDbLine
 62
7
  6
CONTINUOUS
 10
23.0680714562
 20
-3.8287098817
 11
23.0680714562
 21
0.2548263734
  0
LINE
  5
355
100
AcDbEntity
  8
RACCORDO
100
AcDbLine
 62
253
  6
CONTINUOUS
 10
23.225472326
 20
0.3130582458
 11
23.2238283861
 21
7.99557177
  0
LINE
  5
356
100
AcDbEntity
  8
RACCORDO
100
AcDbLine
 62
253
  6
CONTINUOUS
 10
23.2295381768
 20
-7.6108087638
 11
23.227409551
 21
-3.8869417542
  0
LINE
  5
357
100
AcDbEntity
  8
RACCORDO
100
AcDbLine
 62
7
  6
CONTINUOUS
 10
23.5779248069
 20
7.7497595736
 11
23.5779248069
 21
5.2130582458
  0
LINE
  5
358
100
AcDbEntity
  8
DRAFT
100
AcDbLine
 62
7
  6
CONTINUOUS
 10
23.6180714562
 20
-3.8397987154
 11
23.6180714562
 21
-3.8869417542
  0
LINE
  5
359
100
AcDbEntity
  8
RACCORDO
100
AcDbLine
 62
7
  6
CONTINUOUS
 10
23.6180714562
 20
-8.2101704707
 11
23.6180714562
 21
-3.8869417542
  0
LINE
  5
35A
100
AcDbEntity
  8
DRAFT
100
AcDbLine
 62
7
  6
CONTINUOUS
 10
23.6180714562
 20
-3.7891635996
 11
23.6180714562
 21
0.2152800913
  0
LINE
  5
35B
100
AcDbEntity
  8
DRAFT
100
AcDbLine
 62
7
  6
CONTINUOUS
 10
23.6180714562
 20
0.265915207
 11
23.6180714562
 21
5.1729115965
  0
LINE
  5
35C
100
AcDbEntity
  8
RACCORDO
100
AcDbLine
 62
253
  6
CONTINUOUS
 10
23.7934967664
 20
-3.7891635996
 11
23.7934967664
 21
0.2152800913
  0
LINE
  5
35D
100
AcDbEntity
  8
RACCORDO
100
AcDbLine
 62
253
  6
CONTINUOUS
 10
24.4896620932
 20
-3.8110529882
 11
24.4896620932
 21
0.2371694798
  0
LINE
  5
35E
100
AcDbEntity
  8
RACCORDO
100
AcDbLine
 62
7
  6
CONTINUOUS
 10
24.6779248069
 20
8.9404047376
 11
24.6779248069
 21
5.2130582458
  0
LINE
  5
35F
100
AcDbEntity
  8
RACCORDO
100
AcDbLine
 62
7
  6
CONTINUOUS
 10
24.7180714562
 20
-3.8869417542
 11
24.7180714562
 21
-9.0369703108
  0
LINE
  5
360
100
AcDbEntity
  8
DRAFT
100
AcDbLine
 62
7
  6
CONTINUOUS
 10
24.7180714562
 20
-3.8869417542
 11
24.7180714562
 21
5.1729115965
  0
ARC
  5
361
100
AcDbEntity
  8
RACCORDO
100
AcDbCircle
 62
253
  6
CONTINUOUS
 10
-23.3875764701
 20
7.6955084575
 40
0.3000638683
100
AcDbArc
 50
90.0208137589
 51
179.9791861826
  0
ARC
  5
362
100
AcDbEntity
  8
RACCORDO
100
AcDbCircle
 62
253
  6
CONTINUOUS
 10
23.2237193694
 20
7.6955084448
 40
0.3000638408
100
AcDbArc
 50
0.0208162493
 51
89.9791837507
  0
SPLINE
  5
363
100
AcDbEntity
  8
0
100
AcDbSpline
 62
7
  6
CONTINUOUS
 70
0
 71
3
 72
9
 73
5
 74
3
 42
0.0000001
 43
0.0000001
 44
0.0000000001
 12
0.4232572624
 22
0.0094537593
 32
0.0
 13
-0.0063259437
 23
0.4233860928
 33
0.0
 40
0.0
 40
0.0
 40
0.0
 40
0.0
 40
0.4795375616
 40
1.0
 40
1.0
 40
1.0
 40
1.0
 10
2.4786936006
 20
5.4243864143
 30
0.0
 10
2.5463495191
 20
5.4258975586
 30
0.0
 10
2.7034915897
 20
5.4545193291
 30
0.0
 10
2.7554235314
 20
5.6149522649
 30
0.0
 10
2.7543260594
 20
5.688404451
 30
0.0
 11
2.4786936006
 21
5.4243864143
 31
0.0
 11
2.6728668407
 21
5.4836587909
 31
0.0
 11
2.7543260594
 21
5.688404451
 31
0.0
  0
SPLINE
  5
364
100
AcDbEntity
  8
0
100
AcDbSpline
 62
7
  6
CONTINUOUS
 70
0
 71
3
 72
9
 73
5
 74
3
 42
0.0000001
 43
0.0000001
 44
0.0000000001
 12
-0.0046820729
 22
0.3133621937
 32
0.0
 13
-0.3113313703
 23
0.0361338596
 33
0.0
 40
0.0
 40
0.0
 40
0.0
 40
0.0
 40
0.4988583766
 40
1.0
 40
1.0
 40
1.0
 40
1.0
 10
2.7543260741
 20
5.6884044512
 30
0.0
 10
2.7535475103
 20
5.7405122363
 30
0.0
 10
2.7111229642
 20
5.8491862021
 30
0.0
 10
2.6058867135
 20
5.8950033481
 30
0.0
 10
2.5538796774
 20
5.9010394085
 30
0.0
 11
2.7543260741
 21
5.6884044512
 31
0.0
 11
2.6955885292
 21
5.8332955446
 31
0.0
 11
2.5538796774
 21
5.9010394085
 31
0.0
  0
SPLINE
  5
365
100
AcDbEntity
  8
0
100
AcDbSpline
 62
7
  6
CONTINUOUS
 70
0
 71
3
 72
9
 73
5
 74
3
 42
0.0000001
 43
0.0000001
 44
0.0000000001
 12
-0.2768734096
 22
0.0321345862
 32
0.0
 13
-0.2747605685
 23
-0.046883616
 33
0.0
 40
0.0
 40
0.0
 40
0.0
 40
0.0
 40
0.7295958319
 40
1.0
 40
1.0
 40
1.0
 40
1.0
 10
2.5538796774
 20
5.9010394084
 30
0.0
 10
2.4865444489
 20
5.9088544951
 30
0.0
 10
2.3925517604
 20
5.909155743
 30
0.0
 10
2.3006783555
 20
5.8952577385
 30
0.0
 10
2.2759128878
 20
5.8910318968
 30
0.0
 11
2.5538796774
 21
5.9010394084
 31
0.0
 11
2.3505192174
 21
5.9017356684
 31
0.0
 11
2.2759128878
 21
5.8910318968
 31
0.0
  0
SPLINE
  5
366
100
AcDbEntity
  8
0
100
AcDbSpline
 62
7
  6
CONTINUOUS
 70
0
 71
3
 72
9
 73
5
 74
3
 42
0.0000001
 43
0.0000001
 44
0.0000000001
 12
0.8703519528
 22
0.1280435926
 32
0.0
 13
0.8273203116
 23
-0.2990738623
 33
0.0
 40
0.0
 40
0.0
 40
0.0
 40
0.0
 40
0.8916595333
 40
1.0
 40
1.0
 40
1.0
 40
1.0
 10
1.9342781201
 20
6.160760328
 30
0.0
 10
2.1929639921
 20
6.1988174247
 30
0.0
 10
2.4972884231
 20
6.2343110598
 30
0.0
 10
2.7801881013
 20
6.1536184666
 30
0.0
 10
2.8100655242
 20
6.142817866
 30
0.0
 11
1.9342781201
 21
6.160760328
 31
0.0
 11
2.7186376586
 21
6.1697392589
 31
0.0
 11
2.8100655242
 21
6.142817866
 31
0.0
  0
SPLINE
  5
367
100
AcDbEntity
  8
0
100
AcDbSpline
 62
7
  6
CONTINUOUS
 70
0
 71
3
 72
17
 73
13
 74
11
 42
0.0000001
 43
0.0000001
 44
0.0000000001
 12
0.9958820597
 22
-0.3598340501
 32
0.0
 13
-1.0501939604
 23
-0.1355088981
 33
0.0
 40
0.0
 40
0.0
 40
0.0
 40
0.0
 40
0.0798430769
 40
0.189555174
 40
0.322311999
 40
0.3985307821
 40
0.4833213947
 40
0.5876727389
 40
0.6789531396
 40
0.8312246039
 40
0.9440148202
 40
1.0
 40
1.0
 40
1.0
 40
1.0
 10
2.8100655398
 20
6.1428179044
 30
0.0
 10
2.8365703024
 20
6.1332411518
 30
0.0
 10
2.8958169146
 20
6.100553435
 30
0.0
 10
2.9820179994
 20
6.0247605805
 30
0.0
 10
3.0430942636
 20
5.9278039714
 30
0.0
 10
3.0756126926
 20
5.8288708566
 30
0.0
 10
3.0890297865
 20
5.7357641729
 30
0.0
 10
3.0864839022
 20
5.6360773502
 30
0.0
 10
3.0593850342
 20
5.5159697239
 30
0.0
 10
2.9985539187
 20
5.4008387876
 30
0.0
 10
2.9159387529
 20
5.3260466159
 30
0.0
 10
2.8661220715
 20
5.2868119746
 30
0.0
 10
2.8465236389
 20
5.2842831446
 30
0.0
 11
2.8100655398
 21
6.1428179044
 31
0.0
 11
2.8849640832
 21
6.1035952048
 31
0.0
 11
2.9720920389
 21
6.0267501675
 31
0.0
 11
3.0471022919
 21
5.9078588527
 31
0.0
 11
3.0724941971
 21
5.8312491387
 31
0.0
 11
3.0857737772
 21
5.742451812
 31
0.0
 11
3.0825349706
 21
5.6320016106
 31
0.0
 11
3.0609603708
 21
5.5377833348
 31
0.0
 11
2.9842368292
 21
5.3959667765
 31
0.0
 11
2.898469227
 21
5.3128505691
 31
0.0
 11
2.8465236389
 21
5.2842831446
 31
0.0
  0
SPLINE
  5
368
100
AcDbEntity
  8
0
100
AcDbSpline
 62
7
  6
CONTINUOUS
 70
0
 71
3
 72
8
 73
4
 74
2
 42
0.0000001
 43
0.0000001
 44
0.0000000001
 12
0.0689289086
 22
-0.0274854023
 32
0.0
 13
0.0553694096
 23
-0.049490095
 33
0.0
 40
0.0
 40
0.0
 40
0.0
 40
0.0
 40
1.0
 40
1.0
 40
1.0
 40
1.0
 10
2.8465236389
 20
5.2742384374
 30
0.0
 10
2.8694999418
 20
5.2650766367
 30
0.0
 10
2.8900907828
 20
5.2516497496
 30
0.0
 10
2.9085472526
 20
5.2351530513
 30
0.0
 11
2.8465236389
 21
5.2742384374
 31
0.0
 11
2.9085472526
 21
5.2351530513
 31
0.0
  0
SPLINE
  5
369
100
AcDbEntity
  8
0
100
AcDbSpline
 62
7
  6
CONTINUOUS
 70
0
 71
3
 72
9
 73
5
 74
3
 42
0.0000001
 43
0.0000001
 44
0.0000000001
 12
0.2399885259
 22
-0.2145057177
 32
0.0
 13
0.0845469271
 23
-0.3103306053
 33
0.0
 40
0.0
 40
0.0
 40
0.0
 40
0.0
 40
0.7012670935
 40
1.0
 40
1.0
 40
1.0
 40
1.0
 10
2.9085472526
 20
5.2351530513
 30
0.0
 10
2.9646459379
 20
5.1850111175
 30
0.0
 10
3.0165234572
 20
5.0730668691
 30
0.0
 10
3.0426416375
 20
4.9717038753
 30
0.0
 10
3.0510606206
 20
4.9408018874
 30
0.0
 11
2.9085472526
 21
5.2351530513
 31
0.0
 11
3.0247381195
 21
5.0332090842
 31
0.0
 11
3.0510606206
 21
4.9408018874
 31
0.0
  0
SPLINE
  5
36A
100
AcDbEntity
  8
0
100
AcDbSpline
 62
7
  6
CONTINUOUS
 70
0
 71
3
 72
9
 73
5
 74
3
 42
0.0000001
 43
0.0000001
 44
0.0000000001
 12
0.1250599769
 22
-0.4590343077
 32
0.0
 13
0.1246990825
 23
-0.4591324849
 33
0.0
 40
0.0
 40
0.0
 40
0.0
 40
0.0
 40
0.8019701246
 40
1.0
 40
1.0
 40
1.0
 40
1.0
 10
3.0510606208
 20
4.9408018875
 30
0.0
 10
3.0844920759
 20
4.8180912871
 30
0.0
 10
3.1238349053
 20
4.66445304
 30
0.0
 10
3.1641206334
 20
4.5110648754
 30
0.0
 10
3.1723520146
 20
4.4807575591
 30
0.0
 11
3.0510606208
 21
4.9408018875
 31
0.0
 11
3.1482020545
 21
4.5718255608
 31
0.0
 11
3.1723520146
 21
4.4807575591
 31
0.0
  0
SPLINE
  5
36B
100
AcDbEntity
  8
0
100
AcDbSpline
 62
7
  6
CONTINUOUS
 70
0
 71
3
 72
9
 73
5
 74
3
 42
0.0000001
 43
0.0000001
 44
0.0000000001
 12
-0.1487666253
 22
0.5174419044
 32
0.0
 13
-0.1893777802
 23
0.5039985871
 33
0.0
 40
0.0
 40
0.0
 40
0.0
 40
0.0
 40
0.4413080349
 40
1.0
 40
1.0
 40
1.0
 40
1.0
 10
2.8310486713
 20
4.4807575591
 30
0.0
 10
2.8091647023
 20
4.5568746491
 30
0.0
 10
2.7574955086
 20
4.7286482215
 30
0.0
 10
2.711128769
 20
4.902432221
 30
0.0
 10
2.6758608209
 20
4.996292208
 30
0.0
 11
2.8310486713
 21
4.4807575591
 31
0.0
 11
2.7645933093
 21
4.7088763007
 31
0.0
 11
2.6758608209
 21
4.996292208
 31
0.0
  0
SPLINE
  5
36C
100
AcDbEntity
  8
0
100
AcDbSpline
 62
7
  6
CONTINUOUS
 70
0
 71
3
 72
9
 73
5
 74
3
 42
0.0000001
 43
0.0000001
 44
0.0000000001
 12
-0.0895737501
 22
0.2383859055
 32
0.0
 13
-0.2546300207
 23
0.0
 33
0.0
 40
0.0
 40
0.0
 40
0.0
 40
0.0
 40
0.8563651185
 40
1.0
 40
1.0
 40
1.0
 40
1.0
 10
2.675860835
 20
4.9962922133
 30
0.0
 10
2.6502915566
 20
5.0643406714
 30
0.0
 10
2.5752425912
 20
5.1399724343
 30
0.0
 10
2.4901200262
 20
5.1459899617
 30
0.0
 10
2.4779287752
 20
5.1459899617
 30
0.0
 11
2.675860835
 21
4.9962922133
 31
0.0
 11
2.514365337
 21
5.1428250982
 31
0.0
 11
2.4779287752
 21
5.1459899617
 31
0.0
  0
LINE
  5
36D
100
AcDbEntity
  8
RACCORDO
100
AcDbLine
 62
253
  6
CONTINUOUS
 10
23.5294924866
 20
-7.3153664509
 11
23.5273690229
 21
-3.8869417542
  0
LINE
  5
36E
100
AcDbEntity
  8
RACCORDO
100
AcDbLine
 62
253
  6
CONTINUOUS
 10
-23.6912261105
 20
-3.8869417542
 11
-23.6933495742
 21
-7.3153664509
  0
SPLINE
  5
36F
100
AcDbEntity
  8
RACCORDO
100
AcDbSpline
 62
253
  6
CONTINUOUS
 70
0
 71
3
 72
11
 73
7
 74
5
 42
0.0000001
 43
0.0000001
 44
0.0000000001
 12
-0.2999602851
 22
0.0000173609
 32
0.0
 13
-0.2921223648
 23
0.0681226609
 33
0.0
 40
0.0
 40
0.0
 40
0.0
 40
0.0
 40
0.3786989235
 40
0.7010034629
 40
0.9189181782
 40
1.0
 40
1.0
 40
1.0
 40
1.0
 10
-23.3876854737
 20
7.694400569
 30
0.0
 10
-23.4255503527
 20
7.6944027605
 30
0.0
 10
-23.4955830615
 20
7.6948895899
 30
0.0
 10
-23.58766924
 20
7.6935920454
 30
0.0
 10
-23.649374917
 20
7.6969727021
 30
0.0
 10
-23.6797445111
 20
7.6937762916
 30
0.0
 10
-23.6876397823
 20
7.6956174614
 30
0.0
 11
-23.3876854737
 21
7.694400569
 31
0.0
 11
-23.5012800693
 21
7.6944977999
 31
0.0
 11
-23.5979582688
 21
7.6947624807
 31
0.0
 11
-23.6633228493
 21
7.6951551954
 31
0.0
 11
-23.6876397823
 21
7.6956174614
 31
0.0
  0
SPLINE
  5
370
100
AcDbEntity
  8
RACCORDO
100
AcDbSpline
 62
253
  6
CONTINUOUS
 70
0
 71
3
 72
11
 73
7
 74
5
 42
0.0000001
 43
0.0000001
 44
0.0000000001
 12
-0.1353533674
 22
0.2676857092
 32
0.0
 13
-0.299683989
 23
0.0128716627
 33
0.0
 40
0.0
 40
0.0
 40
0.0
 40
0.0
 40
0.0810818218
 40
0.2989965371
 40
0.6213010765
 40
1.0
 40
1.0
 40
1.0
 40
1.0
 10
23.5237826946
 20
7.6956174614
 30
0.0
 10
23.5201244621
 20
7.7028522764
 30
0.0
 10
23.4800787605
 20
7.6853304115
 30
0.0
 10
23.426831014
 20
7.6999543589
 30
0.0
 10
23.3305514857
 20
7.6929945782
 30
0.0
 10
23.2616583874
 20
7.6927757408
 30
0.0
 10
23.2238283861
 20
7.694400569
 30
0.0
 11
23.5237826946
 21
7.6956174614
 31
0.0
 11
23.4994657617
 21
7.6951551954
 31
0.0
 11
23.4341011811
 21
7.6947624806
 31
0.0
 11
23.3374229817
 21
7.6944977998
 31
0.0
 11
23.2238283861
 21
7.694400569
 31
0.0
  0
SPLINE
  5
371
100
AcDbEntity
  8
RACCORDO
100
AcDbSpline
 62
253
  6
CONTINUOUS
 70
0
 71
3
 72
12
 73
8
 74
6
 42
0.0000001
 43
0.0000001
 44
0.0000000001
 12
-0.0014315862
 22
-0.4652748299
 32
0.0
 13
-0.4652749595
 23
-0.001388842
 33
0.0
 40
0.0
 40
0.0
 40
0.0
 40
0.0
 40
0.1963403474
 40
0.395417112
 40
0.5965776389
 40
0.7980032661
 40
1.0
 40
1.0
 40
1.0
 40
1.0
 10
23.5294924853
 20
-7.3153664379
 30
0.0
 10
23.5293987926
 20
-7.3458171785
 30
0.0
 10
23.5194156304
 20
-7.4075399539
 30
0.0
 10
23.4763004109
 20
-7.4910759106
 30
0.0
 10
23.4088202314
 20
-7.557789585
 30
0.0
 10
23.3238334452
 20
-7.6007236269
 30
0.0
 10
23.2608661841
 20
-7.61071525
 30
0.0
 10
23.2295381768
 20
-7.6108087638
 30
0.0
 11
23.5294924853
 21
-7.3153664379
 31
0.0
 11
23.514900333
 21
-7.4055461281
 31
0.0
 11
23.4725015683
 21
-7.4878983724
 31
0.0
 11
23.4059938758
 21
-7.5537529142
 31
0.0
 11
23.3223537026
 21
-7.5960319816
 31
0.0
 11
23.2295381768
 21
-7.6108087638
 31
0.0
  0
SPLINE
  5
372
100
AcDbEntity
  8
RACCORDO
100
AcDbSpline
 62
253
  6
CONTINUOUS
 70
0
 71
3
 72
11
 73
7
 74
5
 42
0.0000001
 43
0.0000001
 44
0.0000000001
 12
0.3005151248
 22
0.0002082351
 32
0.0
 13
0.1213410414
 23
0.2749286002
 33
0.0
 40
0.0
 40
0.0
 40
0.0
 40
0.0
 40
0.3780160632
 40
0.6998406674
 40
0.9177193645
 40
1.0
 40
1.0
 40
1.0
 40
1.0
 10
23.2295381768
 20
-7.3272193605
 30
0.0
 10
23.2674046916
 20
-7.3271931217
 30
0.0
 10
23.3362552644
 20
-7.3253728335
 30
0.0
 10
23.4326097596
 20
-7.3276215628
 30
0.0
 10
23.4858860641
 20
-7.3155288585
 30
0.0
 10
23.5261644793
 20
-7.3229068713
 30
0.0
 10
23.5294924853
 20
-7.3153664379
 30
0.0
 11
23.2295381768
 21
-7.3272193605
 31
0.0
 11
23.3431336812
 21
-7.3262580831
 31
0.0
 11
23.4398123643
 21
-7.3236750149
 31
0.0
 11
23.5051766847
 21
-7.3198548306
 31
0.0
 11
23.5294924853
 21
-7.3153664379
 31
0.0
  0
SPLINE
  5
373
100
AcDbEntity
  8
RACCORDO
100
AcDbSpline
 62
253
  6
CONTINUOUS
 70
0
 71
3
 72
11
 73
7
 74
5
 42
0.0000001
 43
0.0000001
 44
0.0000000001
 12
0.0580873144
 22
-0.2948478378
 32
0.0
 13
0.3002684698
 23
-0.0121749595
 33
0.0
 40
0.0
 40
0.0
 40
0.0
 40
0.0
 40
0.0822806355
 40
0.3001593326
 40
0.6219839368
 40
1.0
 40
1.0
 40
1.0
 40
1.0
 10
-23.6933495729
 20
-7.3153664379
 30
0.0
 10
-23.6917564192
 20
-7.3234531938
 30
0.0
 10
-23.6475501461
 20
-7.3148466235
 30
0.0
 10
-23.5976775427
 20
-7.3279020592
 30
0.0
 10
-23.4996480841
 20
-7.3258259
 30
0.0
 10
-23.4312306993
 20
-7.3256852504
 30
0.0
 10
-23.3933952644
 20
-7.3272193605
 30
0.0
 11
-23.6933495729
 21
-7.3153664379
 31
0.0
 11
-23.6690337723
 21
-7.3198548305
 31
0.0
 11
-23.603669452
 21
-7.3236750149
 31
0.0
 11
-23.5069907688
 21
-7.326258083
 31
0.0
 11
-23.3933952644
 21
-7.3272193605
 31
0.0
  0
SPLINE
  5
374
100
AcDbEntity
  8
RACCORDO
100
AcDbSpline
 62
253
  6
CONTINUOUS
 70
0
 71
3
 72
12
 73
8
 74
6
 42
0.0000001
 43
0.0000001
 44
0.0000000001
 12
-0.4652748653
 22
0.0013888417
 32
0.0
 13
-0.0014315859
 23
0.4652747358
 33
0.0
 40
0.0
 40
0.0
 40
0.0
 40
0.0
 40
0.2013338943
 40
0.4022709652
 40
0.6023801536
 40
0.8015424661
 40
1.0
 40
1.0
 40
1.0
 40
1.0
 10
-23.3933952644
 20
-7.6108087638
 30
0.0
 10
-23.4246204646
 20
-7.6107155569
 30
0.0
 10
-23.4874049664
 20
-7.6007858261
 30
0.0
 10
-23.5721367656
 20
-7.5581300905
 30
0.0
 10
-23.6396153816
 20
-7.491767662
 30
0.0
 10
-23.6831048902
 20
-7.4082230501
 30
0.0
 10
-23.6932548699
 20
-7.3461455302
 30
0.0
 10
-23.6933495729
 20
-7.3153664379
 30
0.0
 11
-23.3933952644
 21
-7.6108087638
 31
0.0
 11
-23.4859137421
 21
-7.5961279051
 31
0.0
 11
-23.5694104917
 21
-7.5540692331
 31
0.0
 11
-23.6357435185
 21
-7.4887340032
 31
0.0
 11
-23.6784445087
 21
-7.4064932311
 31
0.0
 11
-23.6933495729
 21
-7.3153664379
 31
0.0
  0
SPLINE
  5
375
100
AcDbEntity
  8
RACCORDO
100
AcDbSpline
 62
253
  6
CONTINUOUS
 70
0
 71
3
 72
9
 73
5
 74
3
 42
0.0000001
 43
0.0000001
 44
0.0000000001
 12
-0.0005227153
 22
-7.3825594059
 32
0.0
 13
-0.0027702519
 23
-7.3825589046
 33
0.0
 40
0.0
 40
0.0
 40
0.0
 40
0.0
 40
0.5000423126
 40
1.0
 40
1.0
 40
1.0
 40
1.0
 10
-23.6876397861
 20
7.6956174653
 30
0.0
 10
-23.6877269127
 20
6.4650867724
 30
0.0
 10
-23.688088404
 20
4.0042336468
 30
0.0
 10
-23.6888244697
 20
1.5433806047
 30
0.0
 10
-23.6892861393
 20
0.3130582458
 30
0.0
 11
-23.6876397861
 21
7.6956174653
 31
0.0
 11
-23.688182094
 21
4.0040254173
 31
0.0
 11
-23.6892861393
 21
0.3130582458
 31
0.0
  0
SPLINE
  5
376
100
AcDbEntity
  8
RACCORDO
100
AcDbSpline
 62
253
  6
CONTINUOUS
 70
0
 71
3
 72
9
 73
5
 74
3
 42
0.0000001
 43
0.0000001
 44
0.0000000001
 12
-0.0027702519
 22
7.3825589046
 32
0.0
 13
-0.0005227153
 23
7.3825594059
 33
0.0
 40
0.0
 40
0.0
 40
0.0
 40
0.0
 40
0.4999576874
 40
1.0
 40
1.0
 40
1.0
 40
1.0
 10
23.5254290517
 20
0.3130582458
 30
0.0
 10
23.5249673821
 20
1.5433806047
 30
0.0
 10
23.5242313163
 20
4.0042336468
 30
0.0
 10
23.5238698251
 20
6.4650867724
 30
0.0
 10
23.5237826985
 20
7.6956174653
 30
0.0
 11
23.5254290517
 21
0.3130582458
 31
0.0
 11
23.5243250064
 21
4.0040254173
 31
0.0
 11
23.5237826985
 21
7.6956174653
 31
0.0
  0
ELLIPSE
  5
377
100
AcDbEntity
  8
RACCORDO
100
AcDbEllipse
 62
7
  6
CONTINUOUS
 10
24.4680333742
 20
-9.0369322346
 30
0.0
 11
0.2236527791
 21
-0.1118178731
 31
0.0
 40
0.9998096356
 41
-1.1071030277
 42
0.4635410001
  0
ELLIPSE
  5
378
100
AcDbEntity
  8
RACCORDO
100
AcDbEllipse
 62
7
  6
CONTINUOUS
 10
-24.6318904618
 20
-9.0369322346
 30
0.0
 11
0.2236527791
 21
0.1118178731
 31
0.0
 40
0.9998096356
 41
2.6780516535
 42
4.2486956813
  0
ELLIPSE
  5
379
100
AcDbEntity
  8
RACCORDO
100
AcDbEllipse
 62
7
  6
CONTINUOUS
 10
24.4278867248
 20
8.9403285794
 30
0.0
 11
-0.1768305473
 21
-0.1768305473
 31
0.0
 40
0.9996954599
 41
2.3563467834
 42
3.9268385237
  0
ELLIPSE
  5
37A
100
AcDbEntity
  8
RACCORDO
100
AcDbEllipse
 62
7
  6
CONTINUOUS
 10
-24.5917438125
 20
8.9403285794
 30
0.0
 11
-0.1768305473
 21
0.1768305473
 31
0.0
 40
0.9996954599
 41
-0.7852458701
 42
0.7852458701
  0
ELLIPSE
  5
37B
100
AcDbEntity
  8
RACCORDO
100
AcDbEllipse
 62
7
  6
CONTINUOUS
 10
23.2778791084
 20
7.7496681838
 30
0.0
 11
0.2121966567
 21
0.2121966568
 31
0.0
 40
0.9996954599
 41
-0.7852458702
 42
0.7852458701
  0
ELLIPSE
  5
37C
100
AcDbEntity
  8
RACCORDO
100
AcDbEllipse
 62
7
  6
CONTINUOUS
 10
-23.4417361961
 20
7.7496681838
 30
0.0
 11
0.2121966567
 21
-0.2121966568
 31
0.0
 40
0.9996954599
 41
2.3563467835
 42
3.9268385238
  0
ELLIPSE
  5
37D
100
AcDbEntity
  8
RACCORDO
100
AcDbEllipse
 62
7
  6
CONTINUOUS
 10
-23.4818828454
 20
-8.2092472717
 30
0.0
 11
0.0300136675
 21
0.3031910442
 31
0.0
 40
0.9846622838
 41
-4.6121910857
 42
-3.0444253421
  0
ELLIPSE
  5
37E
100
AcDbEntity
  8
RACCORDO
100
AcDbEllipse
 62
7
  6
CONTINUOUS
 10
23.3180257578
 20
-8.2092472717
 30
0.0
 11
-0.0300136675
 21
0.3031910442
 31
0.0
 40
0.9846622838
 41
-3.2387599651
 42
-1.6709942215
  0
ELLIPSE
  5
37F
100
AcDbEntity
  8
RACCORDO
100
AcDbEllipse
 62
7
  6
CONTINUOUS
 10
-23.9573538541
 20
0.2397246299
 30
0.0
 11
0.7
 21
-0.0
 31
0.0
 40
0.0349207695
 41
-3.0368728985
 42
-1.5707963268
  0
ELLIPSE
  5
380
100
AcDbEntity
  8
RACCORDO
100
AcDbEllipse
 62
7
  6
CONTINUOUS
 10
23.7934967664
 20
0.2397246299
 30
0.0
 11
0.7
 21
0.0
 31
0.0
 40
0.0349207695
 41
-1.5707963268
 42
-0.1047197551
  0
ELLIPSE
  5
381
100
AcDbEntity
  8
RACCORDO
100
AcDbEllipse
 62
7
  6
CONTINUOUS
 10
-23.9573538541
 20
-3.8136081382
 30
0.0
 11
0.7
 21
-0.0
 31
0.0
 40
0.0349207695
 41
1.5707963268
 42
3.0368728985
  0
ELLIPSE
  5
382
100
AcDbEntity
  8
RACCORDO
100
AcDbEllipse
 62
7
  6
CONTINUOUS
 10
23.7934967664
 20
-3.8136081382
 30
0.0
 11
0.7
 21
0.0
 31
0.0
 40
0.0349207695
 41
0.1047197551
 42
1.5707963268
  0
ENDSEC
  0
SECTION
  2
OBJECTS
  0
DICTIONARY
  5
C
100
AcDbDictionary
280
0
281
1
  3
ACAD_GROUP
350
D
  3
ACAD_MLINESTYLE
350
17
  3
ACAD_LAYOUT
350
1A
  3
ACAD_PLOTSETTINGS
350
19
  3
ACAD_PLOTSTYLENAME
350
E
  0
DICTIONARY
  5
D
102
{ACAD_REACTORS
330
C
102
}
100
AcDbDictionary
280
0
281
1
  0
ACDBDICTIONARYWDFLT
  5
E
102
{ACAD_REACTORS
330
C
102
}
100
AcDbDictionary
281
1
  3
Normal
350
F
100
AcDbDictionaryWithDefault
340
F
  0
DICTIONARY
  5
17
102
{ACAD_REACTORS
330
C
102
}
100
AcDbDictionary
280
0
281
1
  3
Standard
350
18
  0
DICTIONARY
  5
19
102
{ACAD_REACTORS
330
C
102
}
100
AcDbDictionary
281
1
  0
DICTIONARY
  5
1A
102
{ACAD_REACTORS
330
C
102
}
100
AcDbDictionary
281
1
  3
Model
350
383
  3
Layout1
350
384
  0
ACDBPLACEHOLDER
  5
F
102
{ACAD_REACTORS
330
E
102
}
  0
MLINESTYLE
  5
18
102
{ACAD_REACTORS
330
17
102
}
100
AcDbMlineStyle
  2
STANDARD
 70
0
  3

 62
256
 51
90.0
 52
90.0
 71
2
 49
0.5
 62
256
  6
BYLAYER
 49
-0.5
 62
256
  6
BYLAYER
  0
LAYOUT
  5
383
102
{ACAD_REACTORS
330
1A
102
}
100
AcDbPlotSettings
  1

  2
none_device
  4
ISO_A4_(297.00_x_210.00_MM)
  6

 40
0.0
 41
0.0
 42
0.0
 43
0.0
 44
297.0
 45
210.0
 46
0.0
 47
0.0
 48
0.0
 49
0.0
140
0.0
141
0.0
142
1.0
143
1.0
 70
1024
 72
1
 73
0
 74
0
  7

 75
0
147
1.0
148
0.0
149
0.0
100
AcDbLayout
  1
Model
 70
0
 71
0
 10
0.0
 20
0.0
 11
297.0
 21
210.0
 12
0.0
 22
0.0
 32
0.0
 14
0.0
 24
0.0
 34
0.0
 15
0.0
 25
0.0
 35
0.0
146
0.0
 13
0.0
 23
0.0
 33
0.0
 16
1.0
 26
0.0
 36
0.0
 17
0.0
 27
1.0
 37
0.0
 76
0
330
20C
345
0
346
0
  0
LAYOUT
  5
384
102
{ACAD_REACTORS
330
1A
102
}
100
AcDbPlotSettings
  1

  2
none_device
  4
ISO_A4_(297.00_x_210.00_MM)
  6

 40
0.0
 41
0.0
 42
0.0
 43
0.0
 44
297.0
 45
210.0
 46
0.0
 47
0.0
 48
0.0
 49
0.0
140
0.0
141
0.0
142
1.0
143
1.0
 70
0
 72
1
 73
0
 74
0
  7

 75
0
147
1.0
148
0.0
149
0.0
100
AcDbLayout
  1
Layout1
 70
0
 71
1
 10
0.0
 20
0.0
 11
297.0
 21
210.0
 12
0.0
 22
0.0
 32
0.0
 14
0.0
 24
0.0
 34
0.0
 15
0.0
 25
0.0
 35
0.0
146
0.0
 13
0.0
 23
0.0
 33
0.0
 16
1.0
 26
0.0
 36
0.0
 17
0.0
 27
1.0
 37
0.0
 76
0
330
20D
345
0
346
0
  0
ENDSEC
  0
EOF
