0
SECTION
2
HEADER
9
$ACADVER
1
AC1015
9
$DWGCODEPAGE
3
ANSI_1252
9
$EXTMAX
10
297.0000000000
20
210.0000000000
30
0.0000000000
9
$EXTMIN
10
0.0000000000
20
0.0000000000
30
0.0000000000
9
$LIMMIN
10
0.0000000000
20
0.0000000000
9
$LIMMAX
10
297.0000000000
20
210.0000000000
9
$VIEWCTR
10
148.5000000000
20
105.0000000000
9
$VIEWSIZE
40
210.0000000000
9
$CLAYER
8
0
9
$LTSCALE
40
16.3350000000
9
$CELTYPE
6
BYLAYER
9
$DIMSCALE
40
1
9
$DIMASZ
40
3.0000000000
9
$DIMEXO
40
1.8562500000
9
$DIMDLI
40
11.2860000000
9
$DIMEXE
40
5.3460000000
9
$DIMCEN
40
2.6730000000
9
$DIMLFAC
40
1.0000000000
9
$DIMBLK
1
_FILLED
9
$DIMTXT
40
3.0000000000
9
$DIMTOL
70
1
9
$DIMLIM
70
0
9
$DIMTFAC
40
1.0000000000
9
$DIMTP
40
0.0100000000
9
$DIMTM
40
0.0100000000
9
$PDMODE
70
3
9
$PDSIZE
40
3.0000000000
9
$HANDSEED
5
395
9
$MEASUREMENT
70
1
9
$INSUNITS
70
4
0
ENDSEC
0
SECTION
2
CLASSES
0
CLASS
1
ACDBDICTIONARYWDFLT
2
AcDbDictionaryWithDefault
3
AutoCAD 2000
90
0
280
0
281
0
0
CLASS
1
ACDBPLACEHOLDER
2
AcDbPlaceHolder
3
AutoCAD 2000
90
0
280
0
281
0
0
CLASS
1
LAYOUT
2
AcDbLayout
3
AutoCAD 2000
90
0
280
0
281
0
0
ENDSEC
0
SECTION
2
TABLES
0
TABLE
2
VPORT
5
8
100
AcDbSymbolTable
70
2
0
VPORT
5
1F4
100
AcDbSymbolTableRecord
100
AcDbViewportTableRecord
2
*ACTIVE
70
0
10
0.0
20
0.0
11
1.0
21
1.0
12
148.5000000000
22
105.0000000000
13
0.0
23
0.0
14
1.0
24
1.0
15
0.0
25
0.0
16
0.0
26
0.0
36
1.0
17
0.0
27
0.0
37
0.0
40
210.0000000000
41
1.4142857143
42
50.0
43
0.0
44
0.0
50
0.0
51
0.0
71
0
72
100
73
1
74
1
75
0
76
0
77
0
78
0
0
ENDTAB
0
TABLE
2
LTYPE
5
5
100
AcDbSymbolTable
70
6
0
LTYPE
5
14
100
AcDbSymbolTableRecord
100
AcDbLinetypeTableRecord
2
BYBLOCK
70
0
3

72
65
73
0
40
0.0
0
LTYPE
5
15
100
AcDbSymbolTableRecord
100
AcDbLinetypeTableRecord
2
BYLAYER
70
0
3

72
65
73
0
40
0.0
0
LTYPE
5
16
100
AcDbSymbolTableRecord
100
AcDbLinetypeTableRecord
2
CONTINUOUS
70
64
3
Solid line
72
65
73
0
40
0
0
LTYPE
5
1F5
100
AcDbSymbolTableRecord
100
AcDbLinetypeTableRecord
2
CENTER
70
64
3
____ _ ____ _ ____ _ ____ _ ____ _ ____ _ ____
72
65
73
4
40
0.6
49
0.375
74
0
49
-0.075
74
0
49
0.075
74
0
49
-0.075
74
0
0
LTYPE
5
1F6
100
AcDbSymbolTableRecord
100
AcDbLinetypeTableRecord
2
HIDDEN
70
64
3
- - - - - - - - - - - - - - - - - - - -
72
65
73
2
40
0.2
49
0.1
74
0
49
-0.1
74
0
0
LTYPE
5
1F7
100
AcDbSymbolTableRecord
100
AcDbLinetypeTableRecord
2
PHANTOM
70
64
3
_____ _ _ _____ _ _ _____ _ _ _____
72
65
73
6
40
0.8
49
0.45
74
0
49
-0.05
74
0
49
0.1
74
0
49
-0.05
74
0
49
0.1
74
0
49
-0.05
74
0
0
LTYPE
5
1F8
100
AcDbSymbolTableRecord
100
AcDbLinetypeTableRecord
2
DOT
70
64
3
. . . . . . . . . . . . . . . . . . . .
72
65
73
2
40
0.2
49
0.1
74
0
49
-0.1
74
0
0
LTYPE
5
1F9
100
AcDbSymbolTableRecord
100
AcDbLinetypeTableRecord
2
DASHED
70
64
3
- - - - - - - - - - - - - - - - - - - -
72
65
73
2
40
0.2
49
0.1
74
0
49
-0.1
74
0
0
ENDTAB
0
TABLE
2
LAYER
5
2
100
AcDbSymbolTable
70
36
0
LAYER
5
10
100
AcDbSymbolTableRecord
100
AcDbLayerTableRecord
2
0
70
0
62
7
6
CONTINUOUS
370
-3
390
F
0
LAYER
5
1FA
100
AcDbSymbolTableRecord
100
AcDbLayerTableRecord
2
DEFAULT_1
70
0
62
7
6
CENTER
370
-3
390
F
0
LAYER
5
1FB
100
AcDbSymbolTableRecord
100
AcDbLayerTableRecord
2
DEFAULT_2
70
0
62
0
6
HIDDEN
370
-3
390
F
0
LAYER
5
1FC
100
AcDbSymbolTableRecord
100
AcDbLayerTableRecord
2
DEFAULT_3
70
0
62
7
6
PHANTOM
370
-3
390
F
0
LAYER
5
1FD
100
AcDbSymbolTableRecord
100
AcDbLayerTableRecord
2
_2D_DELETED_OBJS
70
0
62
7
6
CONTINUOUS
370
-3
390
F
0
LAYER
5
1FE
100
AcDbSymbolTableRecord
100
AcDbLayerTableRecord
2
_BLACK_HOLE
70
0
62
7
6
CONTINUOUS
370
-3
390
F
0
LAYER
5
1FF
100
AcDbSymbolTableRecord
100
AcDbLayerTableRecord
2
617_IDEA
70
0
62
7
6
CONTINUOUS
370
-3
390
F
0
LAYER
5
200
100
AcDbSymbolTableRecord
100
AcDbLayerTableRecord
2
ASSI
70
0
62
7
6
CONTINUOUS
370
-3
390
F
0
LAYER
5
201
100
AcDbSymbolTableRecord
100
AcDbLayerTableRecord
2
CIRCUITO_LETTORE_SA
70
0
62
7
6
CONTINUOUS
370
-3
390
F
0
LAYER
5
202
100
AcDbSymbolTableRecord
100
AcDbLayerTableRecord
2
COLOR5
70
0
62
7
6
CONTINUOUS
370
-3
390
F
0
LAYER
5
203
100
AcDbSymbolTableRecord
100
AcDbLayerTableRecord
2
CONNETTORE_L26
70
0
62
7
6
CONTINUOUS
370
-3
390
F
0
LAYER
5
204
100
AcDbSymbolTableRecord
100
AcDbLayerTableRecord
2
COORDINATE
70
0
62
7
6
CONTINUOUS
370
-3
390
F
0
LAYER
5
205
100
AcDbSymbolTableRecord
100
AcDbLayerTableRecord
2
COORD_ORIGINE
70
0
62
7
6
CONTINUOUS
370
-3
390
F
0
LAYER
5
206
100
AcDbSymbolTableRecord
100
AcDbLayerTableRecord
2
COPY_PUBLISH
70
0
62
7
6
CONTINUOUS
370
-3
390
F
0
LAYER
5
207
100
AcDbSymbolTableRecord
100
AcDbLayerTableRecord
2
CORPO
70
0
62
7
6
CONTINUOUS
370
-3
390
F
0
LAYER
5
208
100
AcDbSymbolTableRecord
100
AcDbLayerTableRecord
2
COSMETIC
70
0
62
7
6
CONTINUOUS
370
-3
390
F
0
LAYER
5
209
100
AcDbSymbolTableRecord
100
AcDbLayerTableRecord
2
COSMETICI
70
0
62
7
6
CONTINUOUS
370
-3
390
F
0
LAYER
5
20A
100
AcDbSymbolTableRecord
100
AcDbLayerTableRecord
2
CURVE
70
0
62
7
6
CONTINUOUS
370
-3
390
F
0
LAYER
5
20B
100
AcDbSymbolTableRecord
100
AcDbLayerTableRecord
2
DRAFT
70
0
62
7
6
CONTINUOUS
370
-3
390
F
0
LAYER
5
20C
100
AcDbSymbolTableRecord
100
AcDbLayerTableRecord
2
IGES_SCRITTE
70
0
62
7
6
CONTINUOUS
370
-3
390
F
0
LAYER
5
20D
100
AcDbSymbolTableRecord
100
AcDbLayerTableRecord
2
IMPORT_IGES
70
0
62
7
6
CONTINUOUS
370
-3
390
F
0
LAYER
5
20E
100
AcDbSymbolTableRecord
100
AcDbLayerTableRecord
2
NOTE
70
0
62
7
6
CONTINUOUS
370
-3
390
F
0
LAYER
5
20F
100
AcDbSymbolTableRecord
100
AcDbLayerTableRecord
2
PIANI
70
0
62
7
6
CONTINUOUS
370
-3
390
F
0
LAYER
5
210
100
AcDbSymbolTableRecord
100
AcDbLayerTableRecord
2
PIANI_DI_RIFERIMENTO
70
0
62
7
6
CONTINUOUS
370
-3
390
F
0
LAYER
5
211
100
AcDbSymbolTableRecord
100
AcDbLayerTableRecord
2
PIANI_ORIGINE
70
0
62
7
6
CONTINUOUS
370
-3
390
F
0
LAYER
5
212
100
AcDbSymbolTableRecord
100
AcDbLayerTableRecord
2
PIANI_RIF
70
0
62
7
6
CONTINUOUS
370
-3
390
F
0
LAYER
5
213
100
AcDbSymbolTableRecord
100
AcDbLayerTableRecord
2
PUNTI
70
0
62
7
6
CONTINUOUS
370
-3
390
F
0
LAYER
5
214
100
AcDbSymbolTableRecord
100
AcDbLayerTableRecord
2
RACCORDO
70
0
62
7
6
CONTINUOUS
370
-3
390
F
0
LAYER
5
215
100
AcDbSymbolTableRecord
100
AcDbLayerTableRecord
2
SCRITTE
70
0
62
7
6
CONTINUOUS
370
-3
390
F
0
LAYER
5
216
100
AcDbSymbolTableRecord
100
AcDbLayerTableRecord
2
SMUSSO
70
0
62
7
6
CONTINUOUS
370
-3
390
F
0
LAYER
5
217
100
AcDbSymbolTableRecord
100
AcDbLayerTableRecord
2
SUPERFICI
70
0
62
7
6
CONTINUOUS
370
-3
390
F
0
LAYER
5
218
100
AcDbSymbolTableRecord
100
AcDbLayerTableRecord
2
TRASH
70
0
62
7
6
CONTINUOUS
370
-3
390
F
0
LAYER
5
219
100
AcDbSymbolTableRecord
100
AcDbLayerTableRecord
2
XSEC_DATUMS
70
0
62
7
6
CONTINUOUS
370
-3
390
F
0
ENDTAB
0
TABLE
2
STYLE
5
3
100
AcDbSymbolTable
70
1
0
STYLE
5
11
100
AcDbSymbolTableRecord
100
AcDbTextStyleTableRecord
2
STANDARD
70
0
40
0.0
41
0.8000000000
50
0.0
71
0
42
0.2
3
txt
4

0
ENDTAB
0
TABLE
2
VIEW
5
6
100
AcDbSymbolTable
70
0
0
ENDTAB
0
TABLE
2
UCS
5
7
100
AcDbSymbolTable
70
0
0
ENDTAB
0
TABLE
2
APPID
5
9
100
AcDbSymbolTable
70
1
0
APPID
5
21A
100
AcDbSymbolTableRecord
100
AcDbRegAppTableRecord
2
ACAD
70
0
0
ENDTAB
0
TABLE
2
BLOCK_RECORD
5
1
100
AcDbSymbolTable
70
0
0
BLOCK_RECORD
5
1F
100
AcDbSymbolTableRecord
100
AcDbBlockTableRecord
2
*MODEL_SPACE
0
BLOCK_RECORD
5
1B
100
AcDbSymbolTableRecord
100
AcDbBlockTableRecord
2
*PAPER_SPACE
0
ENDTAB
0
TABLE
2
DIMSTYLE
5
A
100
AcDbSymbolTable
70
1
100
AcDbDimStyleTable
71
0
0
DIMSTYLE
105
21B
100
AcDbSymbolTableRecord
100
AcDbDimStyleTableRecord
2
STANDARD
70
0
3

4

40
1.0
41
3.0000000000
42
0.0625
43
0.38
44
0.18
45
0.0
46
0.0
47
0.0100000000
48
0.0100000000
140
3.0000000000
141
0.09
142
0.0
143
25.4
144
1.0000000000
145
0.0
146
1.0000000000
147
0.09
71
1
72
0
73
0
74
0
75
0
76
0
77
1
78
8
170
0
171
2
172
0
173
0
174
0
175
0
176
0
177
0
178
0
270
2
271
2
272
2
273
2
274
2
275
0
280
0
281
0
282
0
283
1
284
8
285
0
286
0
287
3
288
0
340
11
0
ENDTAB
0
ENDSEC
0
SECTION
2
BLOCKS
0
BLOCK
5
20
100
AcDbEntity
8
0
100
AcDbBlockBegin
2
*MODEL_SPACE
70
0
10
0.0
20
0.0
30
0.0
3
*MODEL_SPACE
1

0
ENDBLK
5
21
100
AcDbEntity
8
0
100
AcDbBlockEnd
0
BLOCK
5
1C
100
AcDbEntity
8
0
100
AcDbBlockBegin
2
*PAPER_SPACE
70
0
10
0.0
20
0.0
30
0.0
3
*PAPER_SPACE
1

0
ENDBLK
5
1D
100
AcDbEntity
8
0
100
AcDbBlockEnd
0
ENDSEC
0
SECTION
2
ENTITIES
0
LINE
5
21C
100
AcDbEntity
8
0
100
AcDbLine
62
0
6
CONTINUOUS
10
-61.3224946516
20
-52.1686330220
11
-61.4808065454
21
-45.2229701235
0
LINE
5
21D
100
AcDbEntity
8
0
100
AcDbLine
62
0
6
CONTINUOUS
10
-60.3009906821
20
-53.2743360117
11
-60.4805637857
21
-45.3958739876
0
LINE
5
21E
100
AcDbEntity
8
0
100
AcDbLine
62
0
6
CONTINUOUS
10
-60.8426031842
20
35.0254921929
11
-60.8426031842
21
-36.2310566647
0
LINE
5
21F
100
AcDbEntity
8
0
100
AcDbLine
62
0
6
CONTINUOUS
10
-56.4073103840
20
-42.2911535774
11
-55.9537543532
21
-45.2353271125
0
LINE
5
220
100
AcDbEntity
8
0
100
AcDbLine
62
0
6
CONTINUOUS
10
-58.8132370283
20
33.7004946909
11
-58.8132370283
21
-45.3958739876
0
LINE
5
221
100
AcDbEntity
8
0
100
AcDbLine
62
0
6
CONTINUOUS
10
-58.5632370283
20
33.5754946909
11
-58.5632370283
21
-45.4063248129
0
LINE
5
222
100
AcDbEntity
8
0
100
AcDbLine
62
0
6
CONTINUOUS
10
-58.5632370283
20
-45.6420759259
11
-58.5632370283
21
-51.3047205057
0
LINE
5
223
100
AcDbEntity
8
0
100
AcDbLine
62
0
6
CONTINUOUS
10
-58.5132370283
20
33.6570614505
11
-58.5132370283
21
-50.4834578723
0
LINE
5
224
100
AcDbEntity
8
0
100
AcDbLine
62
0
6
CONTINUOUS
10
-58.3132370281
20
33.8685429955
11
-58.3132370280
21
34.1335073926
0
LINE
5
225
100
AcDbEntity
8
0
100
AcDbLine
62
0
6
CONTINUOUS
10
-56.5632370283
20
-36.2310566647
11
-56.5632370283
21
28.7213761784
0
LINE
5
226
100
AcDbEntity
8
0
100
AcDbLine
62
0
6
CONTINUOUS
10
-56.5132370283
20
33.8736997716
11
-56.5132370283
21
29.5868740229
0
LINE
5
227
100
AcDbEntity
8
0
100
AcDbLine
62
0
6
CONTINUOUS
10
-56.4259351046
20
32.5480940879
11
-56.4259351046
21
30.5962381707
0
LINE
5
228
100
AcDbEntity
8
0
100
AcDbLine
62
0
6
CONTINUOUS
10
-54.3114025281
20
48.8262785701
11
-55.9537543532
21
-45.2353271125
0
LINE
5
229
100
AcDbEntity
8
0
100
AcDbLine
62
0
6
CONTINUOUS
10
-54.5414518197
20
55.9464980819
11
-54.5435909779
21
55.8898593130
0
LINE
5
22A
100
AcDbEntity
8
0
100
AcDbLine
62
0
6
CONTINUOUS
10
-56.5632370283
20
28.7213761784
11
-56.5610968538
21
28.7774331993
0
LINE
5
22B
100
AcDbEntity
8
0
100
AcDbLine
62
0
6
CONTINUOUS
10
-61.4804581574
20
-45.2175834014
11
-61.4807663347
21
-45.2229677017
0
LINE
5
22C
100
AcDbEntity
8
0
100
AcDbLine
62
0
6
CONTINUOUS
10
-56.5632370283
20
28.7213761784
11
-54.5435909779
21
55.8898593130
0
LINE
5
22D
100
AcDbEntity
8
0
100
AcDbLine
62
0
6
CONTINUOUS
10
-54.5334400086
20
56.0514667006
11
-56.5611646340
21
28.7771168509
0
LINE
5
22E
100
AcDbEntity
8
0
100
AcDbLine
62
0
6
CONTINUOUS
10
-54.5220280154
20
56.1915461046
11
-54.5334400086
21
56.0514667006
0
LINE
5
22F
100
AcDbEntity
8
0
100
AcDbLine
62
0
6
CONTINUOUS
10
-56.4259351046
20
32.5480940879
11
-56.5132370283
21
33.8736997716
0
LINE
5
230
100
AcDbEntity
8
0
100
AcDbLine
62
0
6
CONTINUOUS
10
-53.3120117011
20
48.8088288217
11
-54.9570445325
21
-45.4063248129
0
LINE
5
231
100
AcDbEntity
8
0
100
AcDbLine
62
0
6
CONTINUOUS
10
-60.9922927627
20
-42.0487497008
11
-61.4804581574
21
-45.2175834014
0
LINE
5
232
100
AcDbEntity
8
0
100
AcDbLine
62
0
6
CONTINUOUS
10
-60.3009906821
20
-53.2743360117
11
60.1745166255
21
-53.2743360117
0
LINE
5
233
100
AcDbEntity
8
0
100
AcDbLine
62
0
6
CONTINUOUS
10
-58.5632370283
20
-51.3047205057
11
58.4367629717
21
-51.3047205057
0
LINE
5
234
100
AcDbEntity
8
0
100
AcDbLine
62
0
6
CONTINUOUS
10
-58.0132370283
20
-50.9911711783
11
57.8867629717
21
-50.9911711783
0
LINE
5
235
100
AcDbEntity
8
0
100
AcDbLine
62
0
6
CONTINUOUS
10
-47.2844915177
20
26.3927046797
11
-47.3003543533
21
26.5571443750
0
LINE
5
236
100
AcDbEntity
8
0
100
AcDbLine
62
0
6
CONTINUOUS
10
-47.3001555561
20
26.5539355962
11
-47.3003731576
21
26.5570484749
0
LINE
5
237
100
AcDbEntity
8
0
100
AcDbLine
62
0
6
CONTINUOUS
10
-47.3003731576
20
26.5570484749
11
-47.3075120791
21
26.7179030300
0
LINE
5
238
100
AcDbEntity
8
0
100
AcDbLine
62
0
6
CONTINUOUS
10
-42.8256720915
20
26.5633150181
11
-42.8262996863
21
26.5542029747
0
LINE
5
239
100
AcDbEntity
8
0
100
AcDbLine
62
0
6
CONTINUOUS
10
-42.8257180002
20
26.5632512432
11
-42.8420245102
21
26.3925765277
0
LINE
5
23A
100
AcDbEntity
8
0
100
AcDbLine
62
0
6
CONTINUOUS
10
-42.8420245102
20
26.3925765277
11
-42.8840181996
21
26.1403107118
0
LWPOLYLINE
5
23B
100
AcDbEntity
8
0
100
AcDbPolyline
62
0
6
CONTINUOUS
90
29
70
0
10
-42.8840181996
20
26.1403107118
10
-42.9454858883
20
25.8982568708
10
-43.0247529492
20
25.6684417165
10
-43.1204694533
20
25.4515843180
10
-43.2319588380
20
25.2474446108
10
-43.3579727589
20
25.0573954616
10
-43.4971992193
20
24.8827576350
10
-43.6493066093
20
24.7236587820
10
-43.8129383848
20
24.5813874985
10
-43.9865575941
20
24.4572603825
10
-44.1696228667
20
24.3518495909
10
-44.3603316863
20
24.2662160406
10
-44.5568106055
20
24.2013071475
10
-44.7582139646
20
24.1576872809
10
-44.9625264377
20
24.1357750335
10
-45.1674826182
20
24.1359240264
10
-45.3716726862
20
24.1582462041
10
-45.5729014862
20
24.2022316543
10
-45.7691570105
20
24.2673516039
10
-45.9595034225
20
24.3532120412
10
-46.1422294256
20
24.4587863633
10
-46.3155472509
20
24.5829507317
10
-46.4787738833
20
24.7251846209
10
-46.6305096214
20
24.8841993729
10
-46.7694639851
20
25.0587028806
10
-46.8951912012
20
25.2485439409
10
-47.0064425822
20
25.4525011797
10
-47.1020148507
20
25.6692466242
10
-47.1811704328
20
25.8988736598
0
LINE
5
23C
100
AcDbEntity
8
0
100
AcDbLine
62
0
6
CONTINUOUS
10
-58.5632371430
20
-47.9575962189
11
-58.5132370283
21
-47.9575962189
0
LINE
5
23D
100
AcDbEntity
8
0
100
AcDbLine
62
0
6
CONTINUOUS
10
58.3867629717
20
-47.9575962189
11
58.4367630864
21
-47.9575962189
0
LINE
5
23E
100
AcDbEntity
8
0
100
AcDbLine
62
0
6
CONTINUOUS
10
58.3867629717
20
-45.4063248129
11
54.8305704758
21
-45.4063248129
0
LINE
5
23F
100
AcDbEntity
8
0
100
AcDbLine
62
0
6
CONTINUOUS
10
-54.9570445325
20
-45.4063248129
11
-58.5132370283
21
-45.4063248129
0
LINE
5
240
100
AcDbEntity
8
0
100
AcDbLine
62
0
6
CONTINUOUS
10
-60.4805637857
20
-45.3958739876
11
-58.8132370283
21
-45.3958739876
0
LINE
5
241
100
AcDbEntity
8
0
100
AcDbLine
62
0
6
CONTINUOUS
10
58.6867629717
20
-45.3958739876
11
60.3540897291
21
-45.3958739876
0
LINE
5
242
100
AcDbEntity
8
0
100
AcDbLine
62
0
6
CONTINUOUS
10
-42.8189619775
20
26.7179030300
11
-42.8256720915
21
26.5633150181
0
LINE
5
243
100
AcDbEntity
8
0
100
AcDbLine
62
0
6
CONTINUOUS
10
56.2808363274
20
-42.2911535774
11
58.3867629717
21
-42.2911535774
0
LINE
5
244
100
AcDbEntity
8
0
100
AcDbLine
62
0
6
CONTINUOUS
10
-56.4073103840
20
-42.2911535774
11
-58.5132370283
21
-42.2911535774
0
LINE
5
245
100
AcDbEntity
8
0
100
AcDbLine
62
0
6
CONTINUOUS
10
-60.9922927627
20
-42.0487497008
11
-58.8132370283
21
-42.0487497008
0
LINE
5
246
100
AcDbEntity
8
0
100
AcDbLine
62
0
6
CONTINUOUS
10
58.6867629717
20
-42.0487497008
11
60.8658187061
21
-42.0487497008
0
LINE
5
247
100
AcDbEntity
8
0
100
AcDbLine
62
0
6
CONTINUOUS
10
-58.5632370283
20
-39.2310566647
11
-58.5132370283
21
-39.2310566647
0
LINE
5
248
100
AcDbEntity
8
0
100
AcDbLine
62
0
6
CONTINUOUS
10
58.3867629717
20
-39.2310566647
11
58.4367629717
21
-39.2310566647
0
LINE
5
249
100
AcDbEntity
8
0
100
AcDbLine
62
0
6
CONTINUOUS
10
-47.1811704328
20
25.8988736598
11
-47.2425509003
21
26.1406766748
0
LINE
5
24A
100
AcDbEntity
8
0
100
AcDbLine
62
0
6
CONTINUOUS
10
-47.2425509003
20
26.1406766748
11
-47.2844915177
21
26.3927046797
0
LINE
5
24B
100
AcDbEntity
8
0
100
AcDbLine
62
0
6
CONTINUOUS
10
-8.3828260283
20
33.7506824909
11
-11.3302720283
21
32.6424618246
0
LINE
5
24C
100
AcDbEntity
8
0
100
AcDbLine
62
0
6
CONTINUOUS
10
17.0922709717
20
-37.0558449297
11
19.1197679717
21
-37.0558250111
0
LINE
5
24D
100
AcDbEntity
8
0
100
AcDbLine
62
0
6
CONTINUOUS
10
3.1373879717
20
-37.0558639823
11
4.9374549717
21
-37.0558449297
0
LINE
5
24E
100
AcDbEntity
8
0
100
AcDbLine
62
0
6
CONTINUOUS
10
-6.8665400283
20
-37.0558639823
11
-5.0664720283
21
-37.0558639823
0
LINE
5
24F
100
AcDbEntity
8
0
100
AcDbLine
62
0
6
CONTINUOUS
10
0.1372829717
20
-37.0558639823
11
1.9373509717
21
-37.0558639823
0
LINE
5
250
100
AcDbEntity
8
0
100
AcDbLine
62
0
6
CONTINUOUS
10
11.9170229717
20
-37.0558449297
11
13.7171139717
21
-37.0558449297
0
LINE
5
251
100
AcDbEntity
8
0
100
AcDbLine
62
0
6
CONTINUOUS
10
-3.3646170283
20
-37.0558639823
11
-1.5645940283
21
-37.0558449297
0
LINE
5
252
100
AcDbEntity
8
0
100
AcDbLine
62
0
6
CONTINUOUS
10
-10.4666290283
20
-37.0558839008
11
-8.6665620283
21
-37.0558639823
0
LINE
5
253
100
AcDbEntity
8
0
100
AcDbLine
62
0
6
CONTINUOUS
10
8.9168949717
20
-37.0558449297
11
10.7169859717
21
-37.0558639823
0
LINE
5
254
100
AcDbEntity
8
0
100
AcDbLine
62
0
6
CONTINUOUS
10
-16.3565220283
20
-37.0558839008
11
-14.5563880283
21
-37.0558639823
0
LINE
5
255
100
AcDbEntity
8
0
100
AcDbLine
62
0
6
CONTINUOUS
10
-60.8426031842
20
-36.2310566647
11
-58.8132370283
21
-36.2310566647
0
LINE
5
256
100
AcDbEntity
8
0
100
AcDbLine
62
0
6
CONTINUOUS
10
-58.5132370283
20
-36.2310566647
11
-56.5632370283
21
-36.2310566647
0
LINE
5
257
100
AcDbEntity
8
0
100
AcDbLine
62
0
6
CONTINUOUS
10
58.3867629717
20
-36.2310566647
11
56.4367629717
21
-36.2310566647
0
LINE
5
258
100
AcDbEntity
8
0
100
AcDbLine
62
0
6
CONTINUOUS
10
58.6867629717
20
-36.2310566647
11
60.7161291276
21
-36.2310566647
0
LINE
5
259
100
AcDbEntity
8
0
100
AcDbLine
62
0
6
CONTINUOUS
10
5.5057379717
20
-35.5229920894
11
8.3486349717
21
-35.5229920894
0
LINE
5
25A
100
AcDbEntity
8
0
100
AcDbLine
62
0
6
CONTINUOUS
10
7.7995459717
20
-34.0420314912
11
6.0548059717
21
-34.0420314912
0
LINE
5
25B
100
AcDbEntity
8
0
100
AcDbLine
62
0
6
CONTINUOUS
10
13.7173149717
20
-34.0420115726
11
15.2883779717
21
-34.0420314912
0
LINE
5
25C
100
AcDbEntity
8
0
100
AcDbLine
62
0
6
CONTINUOUS
10
15.8823634342
20
-32.6000203856
11
13.6922949717
21
-32.6000203856
0
LINE
5
25D
100
AcDbEntity
8
0
100
AcDbLine
62
0
6
CONTINUOUS
10
-11.9925850283
20
30.4634769568
11
-9.0349690283
21
31.5755211252
0
LINE
5
25E
100
AcDbEntity
8
0
100
AcDbLine
62
0
6
CONTINUOUS
10
-0.3273790283
20
33.7506824909
11
-3.2010500283
21
32.6701997523
0
LINE
5
25F
100
AcDbEntity
8
0
100
AcDbLine
62
0
6
CONTINUOUS
10
-9.4772280283
20
30.1004157248
11
-12.4813240283
21
28.9708942977
0
LINE
5
260
100
AcDbEntity
8
0
100
AcDbLine
62
0
6
CONTINUOUS
10
13.6922739717
20
-30.7032558763
11
15.8823162619
21
-30.7032558763
0
LINE
5
261
100
AcDbEntity
8
0
100
AcDbLine
62
0
6
CONTINUOUS
10
1.9373509717
20
-29.2612846079
11
-0.7838680283
21
-29.2612846079
0
LINE
5
262
100
AcDbEntity
8
0
100
AcDbLine
62
0
6
CONTINUOUS
10
-4.1453220283
20
-29.2612846079
11
-6.8665400283
21
-29.2612846079
0
LINE
5
263
100
AcDbEntity
8
0
100
AcDbLine
62
0
6
CONTINUOUS
10
-8.6665400283
20
-29.2612846079
11
-10.4666080283
21
-29.2612846079
0
LINE
5
264
100
AcDbEntity
8
0
100
AcDbLine
62
0
6
CONTINUOUS
10
-11.6666450283
20
-29.2612846079
11
-13.4667340283
21
-29.2612846079
0
LINE
5
265
100
AcDbEntity
8
0
100
AcDbLine
62
0
6
CONTINUOUS
10
-17.4461520283
20
-29.2612846079
11
-19.2462420283
21
-29.2612846079
0
LINE
5
266
100
AcDbEntity
8
0
100
AcDbLine
62
0
6
CONTINUOUS
10
16.1322130389
20
-29.2612646893
11
11.9170229717
21
-29.2612646893
0
LINE
5
267
100
AcDbEntity
8
0
100
AcDbLine
62
0
6
CONTINUOUS
10
7.8272429717
20
-29.2612646893
11
6.0270859717
21
-29.2612646893
0
LINE
5
268
100
AcDbEntity
8
0
100
AcDbLine
62
0
6
CONTINUOUS
10
-19.2462420283
20
-29.2612846079
11
-16.3565220283
21
-37.0558839008
0
LINE
5
269
100
AcDbEntity
8
0
100
AcDbLine
62
0
6
CONTINUOUS
10
2.7312939717
20
26.5211154105
11
1.2918279717
21
25.9798833081
0
LINE
5
26A
100
AcDbEntity
8
0
100
AcDbLine
62
0
6
CONTINUOUS
10
0.9332037103
20
24.8760654167
11
5.3984549717
21
26.5549726737
0
LINE
5
26B
100
AcDbEntity
8
0
100
AcDbLine
62
0
6
CONTINUOUS
10
6.8239919717
20
27.0909653223
11
9.5292064372
21
28.1081097360
0
LINE
5
26C
100
AcDbEntity
8
0
100
AcDbLine
62
0
6
CONTINUOUS
10
-15.4564320283
20
-34.6282735319
11
-17.4461520283
21
-29.2612846079
0
LINE
5
26D
100
AcDbEntity
8
0
100
AcDbLine
62
0
6
CONTINUOUS
10
-10.2411276634
20
42.2717204377
11
-10.2416425074
21
42.2688120692
0
LINE
5
26E
100
AcDbEntity
8
0
100
AcDbLine
62
0
6
CONTINUOUS
10
-11.6665210283
20
22.7982410746
11
-9.4772280283
21
30.1004157248
0
LINE
5
26F
100
AcDbEntity
8
0
100
AcDbLine
62
0
6
CONTINUOUS
10
-9.0349690283
20
31.5755211252
11
-8.3828260283
21
33.7506824909
0
LINE
5
270
100
AcDbEntity
8
0
100
AcDbLine
62
0
6
CONTINUOUS
10
-12.4813240283
20
28.9708942977
11
-14.3575310283
21
22.7982410746
0
LINE
5
271
100
AcDbEntity
8
0
100
AcDbLine
62
0
6
CONTINUOUS
10
-11.3302720283
20
32.6424618246
11
-11.9925850283
21
30.4634769568
0
LINE
5
272
100
AcDbEntity
8
0
100
AcDbLine
62
0
6
CONTINUOUS
10
4.9790369717
20
25.1560402697
11
2.0407472362
21
24.0512617778
0
LINE
5
273
100
AcDbEntity
8
0
100
AcDbLine
62
0
6
CONTINUOUS
10
10.7901739717
20
27.3409929186
11
6.4045719717
21
25.6920329184
0
LINE
5
274
100
AcDbEntity
8
0
100
AcDbLine
62
0
6
CONTINUOUS
10
9.0869519717
20
25.8345529870
11
10.4975359717
21
26.3649242648
0
LINE
5
275
100
AcDbEntity
8
0
100
AcDbLine
62
0
6
CONTINUOUS
10
-10.4666080283
20
-29.2612846079
11
-10.4666290283
21
-37.0558839008
0
LINE
5
276
100
AcDbEntity
8
0
100
AcDbLine
62
0
6
CONTINUOUS
10
-8.2116952135
20
29.3255527335
11
-9.7180130283
21
24.3013745211
0
LINE
5
277
100
AcDbEntity
8
0
100
AcDbLine
62
0
6
CONTINUOUS
10
-7.1325220283
20
24.3645822513
11
-5.7514872988
21
28.9708933956
0
LINE
5
278
100
AcDbEntity
8
0
100
AcDbLine
62
0
6
CONTINUOUS
10
-4.2845520283
20
29.3345756039
11
-6.0132801031
21
23.5685730200
0
LINE
5
279
100
AcDbEntity
8
0
100
AcDbLine
62
0
6
CONTINUOUS
10
-3.2010500283
20
32.6701997523
11
-4.0062850283
21
30.1004157248
0
LINE
5
27A
100
AcDbEntity
8
0
100
AcDbLine
62
0
6
CONTINUOUS
10
-5.0664720283
20
-31.9158629147
11
-3.3646170283
21
-37.0558639823
0
LINE
5
27B
100
AcDbEntity
8
0
100
AcDbLine
62
0
6
CONTINUOUS
10
-2.4645940283
20
-34.3373929193
11
-4.1453220283
21
-29.2612846079
0
LINE
5
27C
100
AcDbEntity
8
0
100
AcDbLine
62
0
6
CONTINUOUS
10
-10.6953329023
20
43.8600344104
11
-10.6954228975
21
43.8615432462
0
LINE
5
27D
100
AcDbEntity
8
0
100
AcDbLine
62
0
6
CONTINUOUS
10
-8.6665620283
20
-37.0558639823
11
-8.6665400283
21
-29.2612846079
0
LINE
5
27E
100
AcDbEntity
8
0
100
AcDbLine
62
0
6
CONTINUOUS
10
-6.8665400283
20
-29.2612846079
11
-6.8665400283
21
-37.0558639823
0
LINE
5
27F
100
AcDbEntity
8
0
100
AcDbLine
62
0
6
CONTINUOUS
10
-5.0664720283
20
-37.0558639823
11
-5.0664720283
21
-31.9158629147
0
LINE
5
280
100
AcDbEntity
8
0
100
AcDbLine
62
0
6
CONTINUOUS
10
-4.9310549260
20
43.8614799009
11
-4.9310922281
21
43.8608535155
0
LWPOLYLINE
5
281
100
AcDbEntity
8
0
100
AcDbPolyline
62
0
6
CONTINUOUS
90
18
70
0
10
-4.9310874892
20
43.8608294611
10
-4.9471734705
20
43.6697469625
10
-4.9936311383
20
43.3591351961
10
-5.0639159041
20
43.0574616774
10
-5.1569459297
20
42.7667818022
10
-5.2716748978
20
42.4887855913
10
-5.4070601872
20
42.2250420314
10
-5.5618802426
20
41.9774170936
10
-5.7348949381
20
41.7476262631
10
-5.9247651700
20
41.5372054874
10
-6.1299319973
20
41.3477835348
10
-6.3486178490
20
41.1810450206
10
-6.5784453477
20
41.0384751265
10
-6.8170540944
20
40.9211342692
10
-7.0621542953
20
40.8298490855
10
-7.3107990808
20
40.7649235065
10
-7.5603197420
20
40.7262618352
10
-7.8132368975
20
40.7133378786
0
LINE
5
282
100
AcDbEntity
8
0
100
AcDbLine
62
0
6
CONTINUOUS
10
-3.6110730283
20
22.7982410746
11
-0.3273790283
21
33.7506824909
0
LINE
5
283
100
AcDbEntity
8
0
100
AcDbLine
62
0
6
CONTINUOUS
10
-0.2499040771
20
29.4344931221
11
-1.8761320283
21
24.0103657368
0
LINE
5
284
100
AcDbEntity
8
0
100
AcDbLine
62
0
6
CONTINUOUS
10
1.2918279717
20
25.9798833081
11
2.1441856653
21
28.8228410368
0
LINE
5
285
100
AcDbEntity
8
0
100
AcDbLine
62
0
6
CONTINUOUS
10
15.2883779717
20
-34.0420314912
11
17.0922709717
21
-37.0558449297
0
LINE
5
286
100
AcDbEntity
8
0
100
AcDbLine
62
0
6
CONTINUOUS
10
6.9271539717
20
-31.6888750583
11
7.7995459717
21
-34.0420314912
0
LINE
5
287
100
AcDbEntity
8
0
100
AcDbLine
62
0
6
CONTINUOUS
10
8.3486349717
20
-35.5229920894
11
8.9168949717
21
-37.0558449297
0
LINE
5
288
100
AcDbEntity
8
0
100
AcDbLine
62
0
6
CONTINUOUS
10
-4.3132370283
20
56.5531866031
11
-4.3132370283
21
57.7492318273
0
LINE
5
289
100
AcDbEntity
8
0
100
AcDbLine
62
0
6
CONTINUOUS
10
0.1372599717
20
-31.9158629147
11
0.1372829717
21
-37.0558639823
0
LINE
5
28A
100
AcDbEntity
8
0
100
AcDbLine
62
0
6
CONTINUOUS
10
5.2588723366
20
42.2717204377
11
5.2583574926
21
42.2688120692
0
LINE
5
28B
100
AcDbEntity
8
0
100
AcDbLine
62
0
6
CONTINUOUS
10
3.5685329717
20
29.3136411718
11
2.7312939717
21
26.5211154105
0
LINE
5
28C
100
AcDbEntity
8
0
100
AcDbLine
62
0
6
CONTINUOUS
10
4.5332440694
20
23.6691432647
11
4.9790369717
21
25.1560402697
0
LINE
5
28D
100
AcDbEntity
8
0
100
AcDbLine
62
0
6
CONTINUOUS
10
5.3984549717
20
26.5549726737
11
5.9805339717
21
28.4964396822
0
LINE
5
28E
100
AcDbEntity
8
0
100
AcDbLine
62
0
6
CONTINUOUS
10
6.4045719717
20
25.6920329184
11
5.9753919717
21
24.2605457535
0
LINE
5
28F
100
AcDbEntity
8
0
100
AcDbLine
62
0
6
CONTINUOUS
10
7.4166355535
20
29.0676727808
11
6.8239919717
21
27.0909653223
0
LINE
5
290
100
AcDbEntity
8
0
100
AcDbLine
62
0
6
CONTINUOUS
10
-13.4667340283
20
-29.2612846079
11
-15.4564320283
21
-34.6282735319
0
LINE
5
291
100
AcDbEntity
8
0
100
AcDbLine
62
0
6
CONTINUOUS
10
-14.5563880283
20
-37.0558639823
11
-11.6666450283
21
-29.2612846079
0
LINE
5
292
100
AcDbEntity
8
0
100
AcDbLine
62
0
6
CONTINUOUS
10
19.1197679717
20
-37.0558250111
11
17.2036875899
21
-33.8545538579
0
LINE
5
293
100
AcDbEntity
8
0
100
AcDbLine
62
0
6
CONTINUOUS
10
10.7169859717
20
-37.0558639823
11
7.8272429717
21
-29.2612646893
0
LINE
5
294
100
AcDbEntity
8
0
100
AcDbLine
62
0
6
CONTINUOUS
10
1.9373509717
20
-37.0558639823
11
1.9373509717
21
-29.2612846079
0
LINE
5
295
100
AcDbEntity
8
0
100
AcDbLine
62
0
6
CONTINUOUS
10
4.1867629717
20
57.7492318273
11
4.1867629717
21
56.5531866031
0
LINE
5
296
100
AcDbEntity
8
0
100
AcDbLine
62
0
6
CONTINUOUS
10
8.6972809717
20
24.5348437117
11
9.0869519717
21
25.8345529870
0
LINE
5
297
100
AcDbEntity
8
0
100
AcDbLine
62
0
6
CONTINUOUS
10
11.3921041047
20
29.3486688788
11
10.7901739717
21
27.3409929186
0
LINE
5
298
100
AcDbEntity
8
0
100
AcDbLine
62
0
6
CONTINUOUS
10
10.4975359717
20
26.3649242648
11
9.6387763746
21
23.5006151304
0
LINE
5
299
100
AcDbEntity
8
0
100
AcDbLine
62
0
6
CONTINUOUS
10
12.1988069717
20
22.7982410746
11
13.9991659717
21
28.8031633635
0
LINE
5
29A
100
AcDbEntity
8
0
100
AcDbLine
62
0
6
CONTINUOUS
10
-5.3853463932
20
42.2717204377
11
-5.3847701425
21
42.2684651814
0
LINE
5
29B
100
AcDbEntity
8
0
100
AcDbLine
62
0
6
CONTINUOUS
10
4.8046670977
20
43.8600344104
11
4.8045771025
21
43.8615432462
0
LINE
5
29C
100
AcDbEntity
8
0
100
AcDbLine
62
0
6
CONTINUOUS
10
10.5689450740
20
43.8614799009
11
10.5689077719
21
43.8608535155
0
LWPOLYLINE
5
29D
100
AcDbEntity
8
0
100
AcDbPolyline
62
0
6
CONTINUOUS
90
18
70
0
10
10.5689125108
20
43.8608294611
10
10.5528265295
20
43.6697469625
10
10.5063688617
20
43.3591351961
10
10.4360840959
20
43.0574616774
10
10.3430540703
20
42.7667818022
10
10.2283251022
20
42.4887855913
10
10.0929398128
20
42.2250420314
10
9.9381197574
20
41.9774170936
10
9.7651050619
20
41.7476262631
10
9.5752348300
20
41.5372054874
10
9.3700680027
20
41.3477835348
10
9.1513821510
20
41.1810450206
10
8.9215546523
20
41.0384751265
10
8.6829459056
20
40.9211342692
10
8.4378457047
20
40.8298490855
10
8.1892009192
20
40.7649235065
10
7.9396802580
20
40.7262618352
10
7.6867631025
20
40.7133378786
0
LINE
5
29E
100
AcDbEntity
8
0
100
AcDbLine
62
0
6
CONTINUOUS
10
-0.7838680283
20
-29.2612846079
11
-2.4645940283
21
-34.3373929193
0
LINE
5
29F
100
AcDbEntity
8
0
100
AcDbLine
62
0
6
CONTINUOUS
10
-1.5645940283
20
-37.0558449297
11
0.1372599717
21
-31.9158629147
0
LINE
5
2A0
100
AcDbEntity
8
0
100
AcDbLine
62
0
6
CONTINUOUS
10
11.9170229717
20
-29.2612646893
11
11.9170229717
21
-37.0558449297
0
LINE
5
2A1
100
AcDbEntity
8
0
100
AcDbLine
62
0
6
CONTINUOUS
10
13.6922949717
20
-32.6000203856
11
13.6922739717
21
-30.7032558763
0
LINE
5
2A2
100
AcDbEntity
8
0
100
AcDbLine
62
0
6
CONTINUOUS
10
13.7171139717
20
-37.0558449297
11
13.7173149717
21
-34.0420115726
0
LINE
5
2A3
100
AcDbEntity
8
0
100
AcDbLine
62
0
6
CONTINUOUS
10
6.0270859717
20
-29.2612646893
11
3.1373879717
21
-37.0558639823
0
LINE
5
2A4
100
AcDbEntity
8
0
100
AcDbLine
62
0
6
CONTINUOUS
10
10.1146536068
20
42.2717204377
11
10.1152298575
21
42.2684651814
0
LINE
5
2A5
100
AcDbEntity
8
0
100
AcDbLine
62
0
6
CONTINUOUS
10
6.0548059717
20
-34.0420314912
11
6.9271539717
21
-31.6888750583
0
LINE
5
2A6
100
AcDbEntity
8
0
100
AcDbLine
62
0
6
CONTINUOUS
10
4.9374549717
20
-37.0558449297
11
5.5057379717
21
-35.5229920894
0
LINE
5
2A7
100
AcDbEntity
8
0
100
AcDbLine
62
0
6
CONTINUOUS
10
-14.3575310283
20
22.7982410746
11
-11.6665210283
21
22.7982410746
0
LINE
5
2A8
100
AcDbEntity
8
0
100
AcDbLine
62
0
6
CONTINUOUS
10
-8.5378909494
20
22.7982410746
11
-3.6110730283
21
22.7982410746
0
LINE
5
2A9
100
AcDbEntity
8
0
100
AcDbLine
62
0
6
CONTINUOUS
10
-0.7286408865
20
22.7982410746
11
3.4629069717
21
22.7982410746
0
LINE
5
2AA
100
AcDbEntity
8
0
100
AcDbLine
62
0
6
CONTINUOUS
10
7.2814748041
20
22.7982410746
11
12.1988069717
21
22.7982410746
0
LINE
5
2AB
100
AcDbEntity
8
0
100
AcDbLine
62
0
6
CONTINUOUS
10
56.3744949873
20
29.5868740229
11
56.4867629717
21
29.5868740229
0
LINE
5
2AC
100
AcDbEntity
8
0
100
AcDbLine
62
0
6
CONTINUOUS
10
12.8639798224
20
30.1004157248
11
8.9625489351
21
30.1004157248
0
LINE
5
2AD
100
AcDbEntity
8
0
100
AcDbLine
62
0
6
CONTINUOUS
10
4.5556222965
20
30.1004157248
11
1.2413960543
21
30.1004157248
0
LINE
5
2AE
100
AcDbEntity
8
0
100
AcDbLine
62
0
6
CONTINUOUS
10
-4.0062850283
20
30.1004157248
11
-6.1400214027
21
30.1004157248
0
LINE
5
2AF
100
AcDbEntity
8
0
100
AcDbLine
62
0
6
CONTINUOUS
10
56.3994610480
20
32.5480940879
11
56.1543643168
21
32.5480940879
0
LINE
5
2B0
100
AcDbEntity
8
0
100
AcDbLine
62
0
6
CONTINUOUS
10
-56.2808383734
20
32.5480940879
11
-56.4259351046
21
32.5480940879
0
LINE
5
2B1
100
AcDbEntity
8
0
100
AcDbLine
62
0
6
CONTINUOUS
10
56.4867629717
20
33.7920010418
11
56.0618949745
21
33.7920010418
0
LINE
5
2B2
100
AcDbEntity
8
0
100
AcDbLine
62
0
6
CONTINUOUS
10
-56.1883690311
20
33.7920010418
11
-56.5132370283
21
33.7920010418
0
LINE
5
2B3
100
AcDbEntity
8
0
100
AcDbLine
62
0
6
CONTINUOUS
10
-58.2632370283
20
33.8736997716
11
-56.5132370283
21
33.8736997716
0
LINE
5
2B4
100
AcDbEntity
8
0
100
AcDbLine
62
0
6
CONTINUOUS
10
56.4867629717
20
33.8736997716
11
58.1367629717
21
33.8736997716
0
LINE
5
2B5
100
AcDbEntity
8
0
100
AcDbLine
62
0
6
CONTINUOUS
10
58.1867629717
20
34.1335073928
11
56.0365081338
21
34.1335073928
0
LINE
5
2B6
100
AcDbEntity
8
0
100
AcDbLine
62
0
6
CONTINUOUS
10
-56.1629821904
20
34.1335073928
11
-58.3132370283
21
34.1335073928
0
LWPOLYLINE
5
2B7
100
AcDbEntity
8
0
100
AcDbPolyline
62
0
6
CONTINUOUS
90
29
70
0
10
47.1159818004
20
26.1403107118
10
47.0545141117
20
25.8982568708
10
46.9752470508
20
25.6684417165
10
46.8795305467
20
25.4515843180
10
46.7680411620
20
25.2474446108
10
46.6420272411
20
25.0573954616
10
46.5028007807
20
24.8827576350
10
46.3506933907
20
24.7236587820
10
46.1870616152
20
24.5813874985
10
46.0134424059
20
24.4572603825
10
45.8303771333
20
24.3518495909
10
45.6396683137
20
24.2662160406
10
45.4431893945
20
24.2013071475
10
45.2417860354
20
24.1576872809
10
45.0374735623
20
24.1357750335
10
44.8325173818
20
24.1359240264
10
44.6283273138
20
24.1582462041
10
44.4270985138
20
24.2022316543
10
44.2308429895
20
24.2673516039
10
44.0404965775
20
24.3532120412
10
43.8577705744
20
24.4587863633
10
43.6844527491
20
24.5829507317
10
43.5212261167
20
24.7251846209
10
43.3694903786
20
24.8841993729
10
43.2305360149
20
25.0587028806
10
43.1048087988
20
25.2485439409
10
42.9935574178
20
25.4525011797
10
42.8979851493
20
25.6692466242
10
42.8188295672
20
25.8988736598
0
LINE
5
2B8
100
AcDbEntity
8
0
100
AcDbLine
62
0
6
CONTINUOUS
10
-59.8432123572
20
35.8909900374
11
-56.0323347463
21
35.8909900374
0
LINE
5
2B9
100
AcDbEntity
8
0
100
AcDbLine
62
0
6
CONTINUOUS
10
55.9058606897
20
35.8909900374
11
59.7167383006
21
35.8909900374
0
LWPOLYLINE
5
2BA
100
AcDbEntity
8
0
100
AcDbPolyline
62
0
6
CONTINUOUS
90
18
70
0
10
-7.8132369013
20
40.7133306416
10
-8.0471445719
20
40.7244347822
10
-8.2981915014
20
40.7613377870
10
-8.5483417295
20
40.8248600501
10
-8.7950046684
20
40.9149866394
10
-9.0352320905
20
41.0313919811
10
-9.2666178149
20
41.1733557298
10
-9.4869382166
20
41.3397618128
10
-9.6936948175
20
41.5291020145
10
-9.8850415612
20
41.7397298839
10
-10.0595010201
20
41.9700316235
10
-10.2156010949
20
42.2183278398
10
-10.3520604987
20
42.4828698581
10
-10.4677179343
20
42.7618570098
10
-10.5615006494
20
43.0536321492
10
-10.6323362588
20
43.3564695964
10
-10.6791446939
20
43.6683397962
10
-10.6953340003
20
43.8600089812
0
LINE
5
2BB
100
AcDbEntity
8
0
100
AcDbLine
62
0
6
CONTINUOUS
10
42.7155084823
20
26.3927046797
11
42.6996456467
21
26.5571443750
0
LINE
5
2BC
100
AcDbEntity
8
0
100
AcDbLine
62
0
6
CONTINUOUS
10
42.6998444439
20
26.5539355962
11
42.6996268424
21
26.5570484749
0
LINE
5
2BD
100
AcDbEntity
8
0
100
AcDbLine
62
0
6
CONTINUOUS
10
42.6996268424
20
26.5570484749
11
42.6924879209
21
26.7179030300
0
LINE
5
2BE
100
AcDbEntity
8
0
100
AcDbLine
62
0
6
CONTINUOUS
10
47.1742819998
20
26.5632512432
11
47.1579754898
21
26.3925765277
0
LINE
5
2BF
100
AcDbEntity
8
0
100
AcDbLine
62
0
6
CONTINUOUS
10
47.1579754898
20
26.3925765277
11
47.1159818004
21
26.1403107118
0
LINE
5
2C0
100
AcDbEntity
8
0
100
AcDbLine
62
0
6
CONTINUOUS
10
9.9624713584
20
42.0163659472
11
5.4113692916
21
42.0163659472
0
LINE
5
2C1
100
AcDbEntity
8
0
100
AcDbLine
62
0
6
CONTINUOUS
10
-5.5375286416
20
42.0163659472
11
-10.0886307084
21
42.0163659472
0
LINE
5
2C2
100
AcDbEntity
8
0
100
AcDbLine
62
0
6
CONTINUOUS
10
10.0915897654
20
42.3823913510
11
5.2819361780
21
42.3823913510
0
LINE
5
2C3
100
AcDbEntity
8
0
100
AcDbLine
62
0
6
CONTINUOUS
10
-5.4084102346
20
42.3823913510
11
-10.2180638220
21
42.3823913510
0
LINE
5
2C4
100
AcDbEntity
8
0
100
AcDbLine
62
0
6
CONTINUOUS
10
10.0021586447
20
42.8823913510
11
5.3713672987
21
42.8823913510
0
LINE
5
2C5
100
AcDbEntity
8
0
100
AcDbLine
62
0
6
CONTINUOUS
10
-5.4978413553
20
42.8823913510
11
-10.1286327013
21
42.8823913510
0
LWPOLYLINE
5
2C6
100
AcDbEntity
8
0
100
AcDbPolyline
62
0
6
CONTINUOUS
90
18
70
0
10
7.6867630987
20
40.7133306416
10
7.4528554281
20
40.7244347822
10
7.2018084986
20
40.7613377870
10
6.9516582705
20
40.8248600501
10
6.7049953316
20
40.9149866394
10
6.4647679095
20
41.0313919811
10
6.2333821851
20
41.1733557298
10
6.0130617834
20
41.3397618128
10
5.8063051825
20
41.5291020145
10
5.6149584388
20
41.7397298839
10
5.4404989799
20
41.9700316235
10
5.2843989051
20
42.2183278398
10
5.1479395013
20
42.4828698581
10
5.0322820657
20
42.7618570098
10
4.9384993506
20
43.0536321492
10
4.8676637412
20
43.3564695964
10
4.8208553061
20
43.6683397962
10
4.8046659997
20
43.8600089812
0
LINE
5
2C7
100
AcDbEntity
8
0
100
AcDbLine
62
0
6
CONTINUOUS
10
47.1810380225
20
26.7179030300
11
47.1743279085
21
26.5633150181
0
LINE
5
2C8
100
AcDbEntity
8
0
100
AcDbLine
62
0
6
CONTINUOUS
10
47.1743279085
20
26.5633150181
11
47.1737003137
21
26.5542029747
0
LINE
5
2C9
100
AcDbEntity
8
0
100
AcDbLine
62
0
6
CONTINUOUS
10
53.1855376445
20
48.8088288217
11
54.1849284715
21
48.8262785701
0
LINE
5
2CA
100
AcDbEntity
8
0
100
AcDbLine
62
0
6
CONTINUOUS
10
-53.3120117011
20
48.8088288217
11
53.1855376445
21
48.8088288217
0
LINE
5
2CB
100
AcDbEntity
8
0
100
AcDbLine
62
0
6
CONTINUOUS
10
-53.3120117011
20
48.8088288217
11
-54.3114025281
21
48.8262785701
0
LINE
5
2CC
100
AcDbEntity
8
0
100
AcDbLine
62
0
6
CONTINUOUS
10
42.8188295672
20
25.8988736598
11
42.7574490997
21
26.1406766748
0
LINE
5
2CD
100
AcDbEntity
8
0
100
AcDbLine
62
0
6
CONTINUOUS
10
42.7574490997
20
26.1406766748
11
42.7155084823
21
26.3927046797
0
LINE
5
2CE
100
AcDbEntity
8
0
100
AcDbLine
62
0
6
CONTINUOUS
10
54.8305704758
20
-45.4063248129
11
53.1855376445
21
48.8088288217
0
LINE
5
2CF
100
AcDbEntity
8
0
100
AcDbLine
62
0
6
CONTINUOUS
10
55.8272802965
20
-45.2353271125
11
54.1849284715
21
48.8262785701
0
LINE
5
2D0
100
AcDbEntity
8
0
100
AcDbLine
62
0
6
CONTINUOUS
10
56.3994610480
20
32.5480940879
11
56.3994610480
21
29.5868740229
0
LINE
5
2D1
100
AcDbEntity
8
0
100
AcDbLine
62
0
6
CONTINUOUS
10
56.4867629717
20
33.8736997716
11
56.3994610480
21
32.5480940879
0
LINE
5
2D2
100
AcDbEntity
8
0
100
AcDbLine
62
0
6
CONTINUOUS
10
-3.6133134284
20
54.9894619718
11
3.4861364456
21
54.9894619718
0
LINE
5
2D3
100
AcDbEntity
8
0
100
AcDbLine
62
0
6
CONTINUOUS
10
60.8658187061
20
-42.0487497008
11
61.3539841008
21
-45.2175834014
0
LWPOLYLINE
5
2D4
100
AcDbEntity
8
0
100
AcDbPolyline
62
0
6
CONTINUOUS
90
30
70
0
10
54.3780701869
20
56.3846306793
10
54.3724668171
20
56.4410087181
10
54.3668690017
20
56.4946679602
10
54.3612649973
20
56.5457271368
10
54.3556165110
20
56.5945129436
10
54.3499098186
20
56.6410997919
10
54.3441310171
20
56.6855503858
10
54.3382224995
20
56.7282224038
10
54.3321745888
20
56.7690744107
10
54.3259313543
20
56.8083569402
10
54.3193151513
20
56.8469405359
10
54.3123199592
20
56.8845438207
10
54.3047813788
20
56.9216996442
10
54.2961176444
20
56.9605433257
10
54.2862051502
20
57.0005982629
10
54.2746092133
20
57.0424886466
10
54.2597215220
20
57.0899834453
10
54.2404277516
20
57.1435004109
10
54.2157858318
20
57.2022263177
10
54.1834108617
20
57.2677988821
10
54.1401222051
20
57.3412987507
10
54.0848406910
20
57.4190085073
10
54.0188347002
20
57.4952938798
10
53.9420802300
20
57.5677558129
10
53.8534081722
20
57.6351617413
10
53.7542212786
20
57.6943456070
10
53.6458117987
20
57.7430197001
10
53.5283577500
20
57.7796240593
10
53.4024732676
20
57.8022167737
10
53.2877624007
20
57.8087649586
0
LINE
5
2D5
100
AcDbEntity
8
0
100
AcDbLine
62
0
6
CONTINUOUS
10
54.3893033587
20
56.2635644223
11
54.3780701869
21
56.3846306793
0
LINE
5
2D6
100
AcDbEntity
8
0
100
AcDbLine
62
0
6
CONTINUOUS
10
54.4006140435
20
56.1308061516
11
54.3893033587
21
56.2635644223
0
LINE
5
2D7
100
AcDbEntity
8
0
100
AcDbLine
62
0
6
CONTINUOUS
10
54.4120095083
20
55.9860123973
11
54.4006140435
21
56.1308061516
0
LINE
5
2D8
100
AcDbEntity
8
0
100
AcDbLine
62
0
6
CONTINUOUS
10
54.4171169213
20
55.8898593130
11
56.4367629717
21
28.7213761784
0
LINE
5
2D9
100
AcDbEntity
8
0
100
AcDbLine
62
0
6
CONTINUOUS
10
54.4120095083
20
55.9860123973
11
56.4346905774
21
28.7771168507
0
LINE
5
2DA
100
AcDbEntity
8
0
100
AcDbLine
62
0
6
CONTINUOUS
10
61.3542922661
20
-45.2229677069
11
61.3539841008
21
-45.2175834014
0
LINE
5
2DB
100
AcDbEntity
8
0
100
AcDbLine
62
0
6
CONTINUOUS
10
56.4346227800
20
28.7774332343
11
56.4367629717
21
28.7213761784
0
LINE
5
2DC
100
AcDbEntity
8
0
100
AcDbLine
62
0
6
CONTINUOUS
10
54.4149778590
20
55.9464967916
11
54.4171169213
21
55.8898593130
0
LINE
5
2DD
100
AcDbEntity
8
0
100
AcDbLine
62
0
6
CONTINUOUS
10
56.4367629717
20
28.7213761784
11
56.4367629717
21
-36.2310566647
0
LINE
5
2DE
100
AcDbEntity
8
0
100
AcDbLine
62
0
6
CONTINUOUS
10
56.4867629717
20
33.8736997716
11
56.4867629717
21
29.5868740229
0
LINE
5
2DF
100
AcDbEntity
8
0
100
AcDbLine
62
0
6
CONTINUOUS
10
58.1867629717
20
33.8685429954
11
58.1867629717
21
34.1335073928
0
LINE
5
2E0
100
AcDbEntity
8
0
100
AcDbLine
62
0
6
CONTINUOUS
10
58.3867629717
20
-50.4834578723
11
58.3867629717
21
33.6570614505
0
LINE
5
2E1
100
AcDbEntity
8
0
100
AcDbLine
62
0
6
CONTINUOUS
10
58.4367629717
20
-51.3047205057
11
58.4367629717
21
33.5754946909
0
LINE
5
2E2
100
AcDbEntity
8
0
100
AcDbLine
62
0
6
CONTINUOUS
10
58.6867629717
20
-45.3958739876
11
58.6867629717
21
33.7004946909
0
LINE
5
2E3
100
AcDbEntity
8
0
100
AcDbLine
62
0
6
CONTINUOUS
10
60.7161291276
20
35.0254921929
11
60.7161291276
21
-36.2310566647
0
LINE
5
2E4
100
AcDbEntity
8
0
100
AcDbLine
62
0
6
CONTINUOUS
10
60.3540897291
20
-45.3958739876
11
60.1745166255
21
-53.2743360117
0
LWPOLYLINE
5
2E5
100
AcDbEntity
8
0
100
AcDbPolyline
62
0
6
CONTINUOUS
90
32
70
0
10
-53.4142367686
20
57.8087649616
10
-53.5277746622
20
57.8023504380
10
-53.6536923980
20
57.7799034842
10
-53.7713686417
20
57.7433677076
10
-53.8800792689
20
57.6946667437
10
-53.9796227477
20
57.6353373275
10
-54.0686784798
20
57.5676501543
10
-54.1457527089
20
57.4948287770
10
-54.2120253331
20
57.4180998918
10
-54.2675030638
20
57.3398896222
10
-54.3108522906
20
57.2659908685
10
-54.3431601984
20
57.2002339668
10
-54.3676892130
20
57.1414627715
10
-54.3868825300
20
57.0879245969
10
-54.4016922149
20
57.0404056757
10
-54.4132230727
20
56.9985096089
10
-54.4230873412
20
56.9584234159
10
-54.4317190370
20
56.9195090524
10
-54.4392366330
20
56.8822568090
10
-54.4462180971
20
56.8445307469
10
-54.4528259334
20
56.8058004868
10
-54.4590657981
20
56.7663464543
10
-54.4651151348
20
56.7252902570
10
-54.4710296364
20
56.6823768341
10
-54.4768181965
20
56.6376488027
10
-54.4825380076
20
56.5907459021
10
-54.4882031330
20
56.5415996293
10
-54.4938267422
20
56.4901364009
10
-54.4994459284
20
56.4360365539
10
-54.5050719513
20
56.3791836187
10
-54.5107044964
20
56.3195679419
10
-54.5220280154
20
56.1915461046
0
LINE
5
2E6
100
AcDbEntity
8
0
100
AcDbLine
62
0
6
CONTINUOUS
10
-53.4149823860
20
57.8088288217
11
-4.3132370283
21
57.8088288217
0
LINE
5
2E7
100
AcDbEntity
8
0
100
AcDbLine
62
0
6
CONTINUOUS
10
4.1867629717
20
57.8088288217
11
53.2885083294
21
57.8088288217
0
LINE
5
2E8
100
AcDbEntity
8
0
100
AcDbLine
62
0
6
CONTINUOUS
10
61.3543324888
20
-45.2229701234
11
61.1960205950
21
-52.1686330220
0
LINE
5
2E9
100
AcDbEntity
8
0
100
AcDbLine
62
0
6
CONTINUOUS
10
55.8272802965
20
-45.2353271125
11
56.2808363274
21
-42.2911535774
0
CIRCLE
5
2EA
100
AcDbEntity
8
0
100
AcDbCircle
62
0
6
CONTINUOUS
10
-45.0632370283
20
40.9089975924
40
6.0000000000
0
CIRCLE
5
2EB
100
AcDbEntity
8
0
100
AcDbCircle
62
0
6
CONTINUOUS
10
-45.0632370283
20
40.9089975924
40
4.0481345110
0
CIRCLE
5
2EC
100
AcDbEntity
8
0
100
AcDbCircle
62
0
6
CONTINUOUS
10
44.9367629717
20
40.9089975924
40
6.0000000000
0
CIRCLE
5
2ED
100
AcDbEntity
8
0
100
AcDbCircle
62
0
6
CONTINUOUS
10
44.9367629717
20
40.9089975924
40
4.0481345110
0
CIRCLE
5
2EE
100
AcDbEntity
8
0
100
AcDbCircle
62
0
6
CONTINUOUS
10
-46.8132370283
20
-38.0910024076
40
6.0000000000
0
CIRCLE
5
2EF
100
AcDbEntity
8
0
100
AcDbCircle
62
0
6
CONTINUOUS
10
-46.8132370283
20
-38.0910024076
40
4.0481345110
0
CIRCLE
5
2F0
100
AcDbEntity
8
0
100
AcDbCircle
62
0
6
CONTINUOUS
10
46.6867629717
20
-38.0910024076
40
6.0000000000
0
CIRCLE
5
2F1
100
AcDbEntity
8
0
100
AcDbCircle
62
0
6
CONTINUOUS
10
46.6867629717
20
-38.0910024076
40
4.0481345110
0
CIRCLE
5
2F2
100
AcDbEntity
8
0
100
AcDbCircle
62
0
6
CONTINUOUS
10
-46.8132370283
20
-38.0910024076
40
6.1000000000
0
CIRCLE
5
2F3
100
AcDbEntity
8
0
100
AcDbCircle
62
0
6
CONTINUOUS
10
46.6867629717
20
-38.0910024076
40
6.1000000000
0
CIRCLE
5
2F4
100
AcDbEntity
8
0
100
AcDbCircle
62
0
6
CONTINUOUS
10
-45.0632370283
20
40.9089975924
40
6.1000000000
0
CIRCLE
5
2F5
100
AcDbEntity
8
0
100
AcDbCircle
62
0
6
CONTINUOUS
10
44.9367629717
20
40.9089975924
40
6.1000000000
0
CIRCLE
5
2F6
100
AcDbEntity
8
0
100
AcDbCircle
62
0
6
CONTINUOUS
10
44.9367629717
20
40.9089975924
40
6.9660254038
0
CIRCLE
5
2F7
100
AcDbEntity
8
0
100
AcDbCircle
62
0
6
CONTINUOUS
10
-45.0632370283
20
40.9089975924
40
6.9660254038
0
CIRCLE
5
2F8
100
AcDbEntity
8
0
100
AcDbCircle
62
0
6
CONTINUOUS
10
46.6867629717
20
-38.0910024076
40
6.9660254038
0
CIRCLE
5
2F9
100
AcDbEntity
8
0
100
AcDbCircle
62
0
6
CONTINUOUS
10
-46.8132370283
20
-38.0910024076
40
6.9660254038
0
CIRCLE
5
2FA
100
AcDbEntity
8
0
100
AcDbCircle
62
0
6
CONTINUOUS
10
-0.0632370283
20
3.4089975924
40
13.0000000000
0
SPLINE
5
2FB
100
AcDbEntity
8
0
100
AcDbSpline
62
0
6
CONTINUOUS
70
0
71
3
72
21
73
17
74
15
42
0.0000001000
43
0.0000001000
44
0.0000000001
12
-3.0375611754
22
0.0000000000
32
0.0000000000
13
-0.7349212152
23
-2.9473155077
33
0.0000000000
40
0.0000000000
40
0.0000000000
40
0.0000000000
40
0.0000000000
40
0.0755982950
40
0.1510196073
40
0.2260927400
40
0.3006570757
40
0.3745680595
40
0.4477021497
40
0.5199614843
40
0.5912780638
40
0.6616172647
40
0.7309804559
40
0.7994064587
40
0.8669715757
40
0.9337879389
40
1.0000000000
40
1.0000000000
40
1.0000000000
40
1.0000000000
10
7.6867629717
20
44.5007910508
30
0.0000000000
10
7.6102181565
20
44.5007910508
30
0.0000000000
10
7.4572296022
20
44.4943685088
30
0.0000000000
10
7.2298671159
20
44.4655451857
30
0.0000000000
10
7.0067623243
20
44.4178034172
30
0.0000000000
10
6.7900242144
20
44.3515858212
30
0.0000000000
10
6.5816766746
20
44.2675063284
30
0.0000000000
10
6.3836738254
20
44.1663445207
30
0.0000000000
10
6.1978733864
20
44.0490386665
30
0.0000000000
10
6.0260223041
20
43.9166773964
30
0.0000000000
10
5.8697404394
20
43.7704906507
30
0.0000000000
10
5.7305057080
20
43.6118383299
30
0.0000000000
10
5.6096411296
20
43.4422029281
30
0.0000000000
10
5.5082983786
20
43.2631633868
30
0.0000000000
10
5.4274581580
20
43.0764332186
30
0.0000000000
10
5.3875875148
20
42.9474406291
30
0.0000000000
10
5.3713672987
20
42.8823913510
30
0.0000000000
11
7.6867629717
21
44.5007910508
31
0.0000000000
11
7.4573311729
21
44.4911459300
31
0.0000000000
11
7.2300574216
21
44.4623013680
31
0.0000000000
11
7.0070783689
21
44.4145286364
31
0.0000000000
11
6.7904908887
21
44.3482770421
31
0.0000000000
11
6.5823315847
21
44.2641696358
31
0.0000000000
11
6.3845577970
21
44.1629973652
31
0.0000000000
11
6.1990291974
21
44.0457116359
31
0.0000000000
11
6.0274903042
21
43.9134153642
31
0.0000000000
11
5.8715540793
21
43.7673526055
31
0.0000000000
11
5.7326867631
21
43.6088968552
31
0.0000000000
11
5.6121940883
21
43.4395381328
31
0.0000000000
11
5.5112090041
21
43.2608689710
31
0.0000000000
11
5.4306810238
21
43.0745694402
31
0.0000000000
11
5.3713672987
21
42.8823913510
31
0.0000000000
0
SPLINE
5
2FC
100
AcDbEntity
8
0
100
AcDbSpline
62
0
6
CONTINUOUS
70
0
71
3
72
21
73
17
74
15
42
0.0000001000
43
0.0000001000
44
0.0000000001
12
3.0375611754
22
0.0000000000
32
0.0000000000
13
0.7349212152
23
-2.9473155077
33
0.0000000000
40
0.0000000000
40
0.0000000000
40
0.0000000000
40
0.0000000000
40
0.0755982950
40
0.1510196073
40
0.2260927400
40
0.3006570757
40
0.3745680595
40
0.4477021497
40
0.5199614843
40
0.5912780638
40
0.6616172647
40
0.7309804559
40
0.7994064587
40
0.8669715757
40
0.9337879389
40
1.0000000000
40
1.0000000000
40
1.0000000000
40
1.0000000000
10
7.6867629717
20
44.5007910508
30
0.0000000000
10
7.7633077869
20
44.5007910508
30
0.0000000000
10
7.9162963412
20
44.4943685088
30
0.0000000000
10
8.1436588275
20
44.4655451857
30
0.0000000000
10
8.3667636191
20
44.4178034172
30
0.0000000000
10
8.5835017290
20
44.3515858212
30
0.0000000000
10
8.7918492688
20
44.2675063284
30
0.0000000000
10
8.9898521180
20
44.1663445207
30
0.0000000000
10
9.1756525570
20
44.0490386665
30
0.0000000000
10
9.3475036393
20
43.9166773964
30
0.0000000000
10
9.5037855040
20
43.7704906507
30
0.0000000000
10
9.6430202354
20
43.6118383299
30
0.0000000000
10
9.7638848138
20
43.4422029281
30
0.0000000000
10
9.8652275648
20
43.2631633868
30
0.0000000000
10
9.9460677854
20
43.0764332186
30
0.0000000000
10
9.9859384286
20
42.9474406291
30
0.0000000000
10
10.0021586447
20
42.8823913510
30
0.0000000000
11
7.6867629717
21
44.5007910508
31
0.0000000000
11
7.9161947705
21
44.4911459300
31
0.0000000000
11
8.1434685218
21
44.4623013680
31
0.0000000000
11
8.3664475744
21
44.4145286364
31
0.0000000000
11
8.5830350547
21
44.3482770421
31
0.0000000000
11
8.7911943587
21
44.2641696358
31
0.0000000000
11
8.9889681464
21
44.1629973652
31
0.0000000000
11
9.1744967460
21
44.0457116359
31
0.0000000000
11
9.3460356392
21
43.9134153642
31
0.0000000000
11
9.5019718641
21
43.7673526055
31
0.0000000000
11
9.6408391803
21
43.6088968552
31
0.0000000000
11
9.7613318551
21
43.4395381328
31
0.0000000000
11
9.8623169393
21
43.2608689710
31
0.0000000000
11
9.9428449196
21
43.0745694402
31
0.0000000000
11
10.0021586447
21
42.8823913510
31
0.0000000000
0
SPLINE
5
2FD
100
AcDbEntity
8
0
100
AcDbSpline
62
0
6
CONTINUOUS
70
0
71
3
72
8
73
4
74
2
42
0.0000001000
43
0.0000001000
44
0.0000000001
12
0.0264521767
22
-0.1101807804
32
0.0000000000
13
0.0197470067
23
-0.1117005886
33
0.0000000000
40
0.0000000000
40
0.0000000000
40
0.0000000000
40
0.0000000000
40
1.0000000000
40
1.0000000000
40
1.0000000000
40
1.0000000000
10
10.0915897654
20
42.3823913510
30
0.0000000000
10
10.1004071576
20
42.3456644242
30
0.0000000000
10
10.1081179931
20
42.3086432812
30
0.0000000000
10
10.1147003287
20
42.2714097517
30
0.0000000000
11
10.0915897654
21
42.3823913510
31
0.0000000000
11
10.1147003287
21
42.2714097517
31
0.0000000000
0
SPLINE
5
2FE
100
AcDbEntity
8
0
100
AcDbSpline
62
0
6
CONTINUOUS
70
0
71
3
72
10
73
6
74
4
42
0.0000001000
43
0.0000001000
44
0.0000000001
12
0.0895030294
22
-0.4999871344
32
0.0000000000
13
0.0893618815
23
-0.5000123809
33
0.0000000000
40
0.0000000000
40
0.0000000000
40
0.0000000000
40
0.0000000000
40
0.3318005299
40
0.6651349404
40
1.0000000000
40
1.0000000000
40
1.0000000000
40
1.0000000000
10
10.0021586447
20
42.8823913510
30
0.0000000000
10
10.0120576956
20
42.8270926856
30
0.0000000000
10
10.0318960666
20
42.7162387313
30
0.0000000000
10
10.0617062157
20
42.5495720238
30
0.0000000000
10
10.0816150415
20
42.4382035763
30
0.0000000000
10
10.0915897654
20
42.3823913510
30
0.0000000000
11
10.0021586447
21
42.8823913510
31
0.0000000000
11
10.0318476793
21
42.7164939019
31
0.0000000000
11
10.0616580236
21
42.5498266737
31
0.0000000000
11
10.0915897654
21
42.3823913510
31
0.0000000000
0
SPLINE
5
2FF
100
AcDbEntity
8
0
100
AcDbSpline
62
0
6
CONTINUOUS
70
0
71
3
72
10
73
6
74
4
42
0.0000001000
43
0.0000001000
44
0.0000000001
12
0.0893618815
22
0.5000123809
32
0.0000000000
13
0.0895030294
23
0.4999871344
33
0.0000000000
40
0.0000000000
40
0.0000000000
40
0.0000000000
40
0.0000000000
40
0.3348536097
40
0.6681880327
40
1.0000000000
40
1.0000000000
40
1.0000000000
40
1.0000000000
10
5.2819361780
20
42.3823913510
30
0.0000000000
10
5.2919105608
20
42.4382016679
30
0.0000000000
10
5.3118190457
20
42.5495682092
30
0.0000000000
10
5.3416291943
20
42.7162349168
30
0.0000000000
10
5.3614679066
20
42.8270907795
30
0.0000000000
10
5.3713672987
20
42.8823913510
30
0.0000000000
11
5.2819361780
21
42.3823913510
31
0.0000000000
11
5.3118668961
21
42.5498209487
31
0.0000000000
11
5.3416772409
21
42.7164881832
31
0.0000000000
11
5.3713672987
21
42.8823913510
31
0.0000000000
0
SPLINE
5
300
100
AcDbEntity
8
0
100
AcDbSpline
62
0
6
CONTINUOUS
70
0
71
3
72
8
73
4
74
2
42
0.0000001000
43
0.0000001000
44
0.0000000001
12
0.0197470067
22
0.1117005886
32
0.0000000000
13
0.0264521767
23
0.1101807804
33
0.0000000000
40
0.0000000000
40
0.0000000000
40
0.0000000000
40
0.0000000000
40
1.0000000000
40
1.0000000000
40
1.0000000000
40
1.0000000000
10
5.2588256147
20
42.2714097517
30
0.0000000000
10
5.2654079503
20
42.3086432812
30
0.0000000000
10
5.2731187858
20
42.3456644242
30
0.0000000000
10
5.2819361780
20
42.3823913510
30
0.0000000000
11
5.2588256147
21
42.2714097517
31
0.0000000000
11
5.2819361780
21
42.3823913510
31
0.0000000000
0
SPLINE
5
301
100
AcDbEntity
8
0
100
AcDbSpline
62
0
6
CONTINUOUS
70
0
71
3
72
8
73
4
74
2
42
0.0000001000
43
0.0000001000
44
0.0000000001
12
0.0004731266
22
0.0026993811
32
0.0000000000
13
0.0004770796
23
0.0026986407
33
0.0000000000
40
0.0000000000
40
0.0000000000
40
0.0000000000
40
0.0000000000
40
1.0000000000
40
1.0000000000
40
1.0000000000
40
1.0000000000
10
5.2583505114
20
42.2687107402
30
0.0000000000
10
5.2585082203
20
42.2696105339
30
0.0000000000
10
5.2586665881
20
42.2705102047
30
0.0000000000
10
5.2588256147
20
42.2714097517
30
0.0000000000
11
5.2583505114
21
42.2687107402
31
0.0000000000
11
5.2588256147
21
42.2714097517
31
0.0000000000
0
SPLINE
5
302
100
AcDbEntity
8
0
100
AcDbSpline
62
0
6
CONTINUOUS
70
0
71
3
72
8
73
4
74
2
42
0.0000001000
43
0.0000001000
44
0.0000000001
12
0.0005403070
22
-0.0030562916
32
0.0000000000
13
0.0005352366
23
-0.0030572406
33
0.0000000000
40
0.0000000000
40
0.0000000000
40
0.0000000000
40
0.0000000000
40
1.0000000000
40
1.0000000000
40
1.0000000000
40
1.0000000000
10
10.1147003287
20
42.2714097517
30
0.0000000000
10
10.1148804310
20
42.2703909878
30
0.0000000000
10
10.1150596885
20
42.2693720649
30
0.0000000000
10
10.1152381007
20
42.2683529847
30
0.0000000000
11
10.1147003287
21
42.2714097517
31
0.0000000000
11
10.1152381007
21
42.2683529847
31
0.0000000000
0
SPLINE
5
303
100
AcDbEntity
8
0
100
AcDbSpline
62
0
6
CONTINUOUS
70
0
71
3
72
21
73
17
74
15
42
0.0000001000
43
0.0000001000
44
0.0000000001
12
-3.0375611754
22
0.0000000000
32
0.0000000000
13
-0.7349212152
23
-2.9473155077
33
0.0000000000
40
0.0000000000
40
0.0000000000
40
0.0000000000
40
0.0000000000
40
0.0755982950
40
0.1510196073
40
0.2260927400
40
0.3006570757
40
0.3745680595
40
0.4477021497
40
0.5199614843
40
0.5912780638
40
0.6616172647
40
0.7309804559
40
0.7994064587
40
0.8669715757
40
0.9337879389
40
1.0000000000
40
1.0000000000
40
1.0000000000
40
1.0000000000
10
-7.8132370283
20
44.5007910508
30
0.0000000000
10
-7.8897818435
20
44.5007910508
30
0.0000000000
10
-8.0427703978
20
44.4943685088
30
0.0000000000
10
-8.2701328841
20
44.4655451857
30
0.0000000000
10
-8.4932376757
20
44.4178034172
30
0.0000000000
10
-8.7099757856
20
44.3515858212
30
0.0000000000
10
-8.9183233254
20
44.2675063284
30
0.0000000000
10
-9.1163261746
20
44.1663445207
30
0.0000000000
10
-9.3021266136
20
44.0490386665
30
0.0000000000
10
-9.4739776959
20
43.9166773964
30
0.0000000000
10
-9.6302595606
20
43.7704906507
30
0.0000000000
10
-9.7694942920
20
43.6118383299
30
0.0000000000
10
-9.8903588704
20
43.4422029281
30
0.0000000000
10
-9.9917016214
20
43.2631633868
30
0.0000000000
10
-10.0725418420
20
43.0764332186
30
0.0000000000
10
-10.1124124852
20
42.9474406291
30
0.0000000000
10
-10.1286327013
20
42.8823913510
30
0.0000000000
11
-7.8132370283
21
44.5007910508
31
0.0000000000
11
-8.0426688271
21
44.4911459300
31
0.0000000000
11
-8.2699425784
21
44.4623013680
31
0.0000000000
11
-8.4929216311
21
44.4145286364
31
0.0000000000
11
-8.7095091113
21
44.3482770421
31
0.0000000000
11
-8.9176684153
21
44.2641696358
31
0.0000000000
11
-9.1154422030
21
44.1629973652
31
0.0000000000
11
-9.3009708026
21
44.0457116359
31
0.0000000000
11
-9.4725096958
21
43.9134153642
31
0.0000000000
11
-9.6284459207
21
43.7673526055
31
0.0000000000
11
-9.7673132369
21
43.6088968552
31
0.0000000000
11
-9.8878059117
21
43.4395381328
31
0.0000000000
11
-9.9887909959
21
43.2608689710
31
0.0000000000
11
-10.0693189762
21
43.0745694402
31
0.0000000000
11
-10.1286327013
21
42.8823913510
31
0.0000000000
0
SPLINE
5
304
100
AcDbEntity
8
0
100
AcDbSpline
62
0
6
CONTINUOUS
70
0
71
3
72
21
73
17
74
15
42
0.0000001000
43
0.0000001000
44
0.0000000001
12
3.0375611754
22
0.0000000000
32
0.0000000000
13
0.7349212152
23
-2.9473155077
33
0.0000000000
40
0.0000000000
40
0.0000000000
40
0.0000000000
40
0.0000000000
40
0.0755982950
40
0.1510196073
40
0.2260927400
40
0.3006570757
40
0.3745680595
40
0.4477021497
40
0.5199614843
40
0.5912780638
40
0.6616172647
40
0.7309804559
40
0.7994064587
40
0.8669715757
40
0.9337879389
40
1.0000000000
40
1.0000000000
40
1.0000000000
40
1.0000000000
10
-7.8132370283
20
44.5007910508
30
0.0000000000
10
-7.7366922131
20
44.5007910508
30
0.0000000000
10
-7.5837036588
20
44.4943685088
30
0.0000000000
10
-7.3563411725
20
44.4655451857
30
0.0000000000
10
-7.1332363809
20
44.4178034172
30
0.0000000000
10
-6.9164982710
20
44.3515858212
30
0.0000000000
10
-6.7081507312
20
44.2675063284
30
0.0000000000
10
-6.5101478820
20
44.1663445207
30
0.0000000000
10
-6.3243474430
20
44.0490386665
30
0.0000000000
10
-6.1524963607
20
43.9166773964
30
0.0000000000
10
-5.9962144960
20
43.7704906507
30
0.0000000000
10
-5.8569797646
20
43.6118383299
30
0.0000000000
10
-5.7361151862
20
43.4422029281
30
0.0000000000
10
-5.6347724352
20
43.2631633868
30
0.0000000000
10
-5.5539322146
20
43.0764332186
30
0.0000000000
10
-5.5140615714
20
42.9474406291
30
0.0000000000
10
-5.4978413553
20
42.8823913510
30
0.0000000000
11
-7.8132370283
21
44.5007910508
31
0.0000000000
11
-7.5838052295
21
44.4911459300
31
0.0000000000
11
-7.3565314782
21
44.4623013680
31
0.0000000000
11
-7.1335524256
21
44.4145286364
31
0.0000000000
11
-6.9169649453
21
44.3482770421
31
0.0000000000
11
-6.7088056413
21
44.2641696358
31
0.0000000000
11
-6.5110318536
21
44.1629973652
31
0.0000000000
11
-6.3255032540
21
44.0457116359
31
0.0000000000
11
-6.1539643608
21
43.9134153642
31
0.0000000000
11
-5.9980281359
21
43.7673526055
31
0.0000000000
11
-5.8591608197
21
43.6088968552
31
0.0000000000
11
-5.7386681449
21
43.4395381328
31
0.0000000000
11
-5.6376830607
21
43.2608689710
31
0.0000000000
11
-5.5571550804
21
43.0745694402
31
0.0000000000
11
-5.4978413553
21
42.8823913510
31
0.0000000000
0
SPLINE
5
305
100
AcDbEntity
8
0
100
AcDbSpline
62
0
6
CONTINUOUS
70
0
71
3
72
8
73
4
74
2
42
0.0000001000
43
0.0000001000
44
0.0000000001
12
0.0264521767
22
-0.1101807804
32
0.0000000000
13
0.0197470067
23
-0.1117005886
33
0.0000000000
40
0.0000000000
40
0.0000000000
40
0.0000000000
40
0.0000000000
40
1.0000000000
40
1.0000000000
40
1.0000000000
40
1.0000000000
10
-5.4084102346
20
42.3823913510
30
0.0000000000
10
-5.3995928424
20
42.3456644242
30
0.0000000000
10
-5.3918820069
20
42.3086432812
30
0.0000000000
10
-5.3852996713
20
42.2714097517
30
0.0000000000
11
-5.4084102346
21
42.3823913510
31
0.0000000000
11
-5.3852996713
21
42.2714097517
31
0.0000000000
0
SPLINE
5
306
100
AcDbEntity
8
0
100
AcDbSpline
62
0
6
CONTINUOUS
70
0
71
3
72
10
73
6
74
4
42
0.0000001000
43
0.0000001000
44
0.0000000001
12
0.0895030294
22
-0.4999871344
32
0.0000000000
13
0.0893618815
23
-0.5000123809
33
0.0000000000
40
0.0000000000
40
0.0000000000
40
0.0000000000
40
0.0000000000
40
0.3318005299
40
0.6651349404
40
1.0000000000
40
1.0000000000
40
1.0000000000
40
1.0000000000
10
-5.4978413553
20
42.8823913510
30
0.0000000000
10
-5.4879423044
20
42.8270926856
30
0.0000000000
10
-5.4681039334
20
42.7162387313
30
0.0000000000
10
-5.4382937843
20
42.5495720238
30
0.0000000000
10
-5.4183849585
20
42.4382035763
30
0.0000000000
10
-5.4084102346
20
42.3823913510
30
0.0000000000
11
-5.4978413553
21
42.8823913510
31
0.0000000000
11
-5.4681523207
21
42.7164939019
31
0.0000000000
11
-5.4383419764
21
42.5498266737
31
0.0000000000
11
-5.4084102346
21
42.3823913510
31
0.0000000000
0
SPLINE
5
307
100
AcDbEntity
8
0
100
AcDbSpline
62
0
6
CONTINUOUS
70
0
71
3
72
10
73
6
74
4
42
0.0000001000
43
0.0000001000
44
0.0000000001
12
0.0893618815
22
0.5000123809
32
0.0000000000
13
0.0895030294
23
0.4999871344
33
0.0000000000
40
0.0000000000
40
0.0000000000
40
0.0000000000
40
0.0000000000
40
0.3348536097
40
0.6681880327
40
1.0000000000
40
1.0000000000
40
1.0000000000
40
1.0000000000
10
-10.2180638220
20
42.3823913510
30
0.0000000000
10
-10.2080894392
20
42.4382016679
30
0.0000000000
10
-10.1881809543
20
42.5495682092
30
0.0000000000
10
-10.1583708057
20
42.7162349168
30
0.0000000000
10
-10.1385320934
20
42.8270907795
30
0.0000000000
10
-10.1286327013
20
42.8823913510
30
0.0000000000
11
-10.2180638220
21
42.3823913510
31
0.0000000000
11
-10.1881331039
21
42.5498209487
31
0.0000000000
11
-10.1583227591
21
42.7164881832
31
0.0000000000
11
-10.1286327013
21
42.8823913510
31
0.0000000000
0
SPLINE
5
308
100
AcDbEntity
8
0
100
AcDbSpline
62
0
6
CONTINUOUS
70
0
71
3
72
8
73
4
74
2
42
0.0000001000
43
0.0000001000
44
0.0000000001
12
0.0197470067
22
0.1117005886
32
0.0000000000
13
0.0264521767
23
0.1101807804
33
0.0000000000
40
0.0000000000
40
0.0000000000
40
0.0000000000
40
0.0000000000
40
1.0000000000
40
1.0000000000
40
1.0000000000
40
1.0000000000
10
-10.2411743853
20
42.2714097517
30
0.0000000000
10
-10.2345920497
20
42.3086432812
30
0.0000000000
10
-10.2268812142
20
42.3456644242
30
0.0000000000
10
-10.2180638220
20
42.3823913510
30
0.0000000000
11
-10.2411743853
21
42.2714097517
31
0.0000000000
11
-10.2180638220
21
42.3823913510
31
0.0000000000
0
SPLINE
5
309
100
AcDbEntity
8
0
100
AcDbSpline
62
0
6
CONTINUOUS
70
0
71
3
72
8
73
4
74
2
42
0.0000001000
43
0.0000001000
44
0.0000000001
12
0.0004731266
22
0.0026993811
32
0.0000000000
13
0.0004770796
23
0.0026986407
33
0.0000000000
40
0.0000000000
40
0.0000000000
40
0.0000000000
40
0.0000000000
40
1.0000000000
40
1.0000000000
40
1.0000000000
40
1.0000000000
10
-10.2416494886
20
42.2687107402
30
0.0000000000
10
-10.2414917797
20
42.2696105339
30
0.0000000000
10
-10.2413334119
20
42.2705102047
30
0.0000000000
10
-10.2411743853
20
42.2714097517
30
0.0000000000
11
-10.2416494886
21
42.2687107402
31
0.0000000000
11
-10.2411743853
21
42.2714097517
31
0.0000000000
0
SPLINE
5
30A
100
AcDbEntity
8
0
100
AcDbSpline
62
0
6
CONTINUOUS
70
0
71
3
72
8
73
4
74
2
42
0.0000001000
43
0.0000001000
44
0.0000000001
12
0.0005403070
22
-0.0030562916
32
0.0000000000
13
0.0005352366
23
-0.0030572406
33
0.0000000000
40
0.0000000000
40
0.0000000000
40
0.0000000000
40
0.0000000000
40
1.0000000000
40
1.0000000000
40
1.0000000000
40
1.0000000000
10
-5.3852996713
20
42.2714097517
30
0.0000000000
10
-5.3851195690
20
42.2703909878
30
0.0000000000
10
-5.3849403115
20
42.2693720649
30
0.0000000000
10
-5.3847618993
20
42.2683529847
30
0.0000000000
11
-5.3852996713
21
42.2714097517
31
0.0000000000
11
-5.3847618993
21
42.2683529847
31
0.0000000000
0
SPLINE
5
30B
100
AcDbEntity
8
0
100
AcDbSpline
62
0
6
CONTINUOUS
70
0
71
3
72
15
73
11
74
9
42
0.0000001000
43
0.0000001000
44
0.0000000001
12
0.0000000000
22
-5.8217924872
32
0.0000000000
13
-0.8864027910
23
-5.7539167405
33
0.0000000000
40
0.0000000000
40
0.0000000000
40
0.0000000000
40
0.0000000000
40
0.1882327614
40
0.3619757856
40
0.5191661470
40
0.6579414841
40
0.7766637806
40
0.8739428268
40
0.9486583248
40
1.0000000000
40
1.0000000000
40
1.0000000000
40
1.0000000000
10
-60.8426031842
20
-36.2310566647
30
0.0000000000
10
-60.8426031842
20
-36.5963406900
30
0.0000000000
10
-60.8440840234
20
-37.2987912606
30
0.0000000000
10
-60.8512529958
20
-38.3062635912
30
0.0000000000
10
-60.8631827938
20
-39.2177060240
30
0.0000000000
10
-60.8796581736
20
-40.0222941895
30
0.0000000000
10
-60.9004759334
20
-40.7104580036
30
0.0000000000
10
-60.9250041842
20
-41.2741516181
30
0.0000000000
10
-60.9531768768
20
-41.7065979619
30
0.0000000000
10
-60.9771229613
20
-41.9502777927
30
0.0000000000
10
-60.9922927627
20
-42.0487497008
30
0.0000000000
11
-60.8426031842
21
-36.2310566647
31
0.0000000000
11
-60.8450945004
21
-37.3269059088
31
0.0000000000
11
-60.8525387355
21
-38.3383743480
31
0.0000000000
11
-60.8648469572
21
-39.2534212385
31
0.0000000000
11
-60.8818720869
21
-40.0611630501
31
0.0000000000
11
-60.9034107743
21
-40.7520039447
31
0.0000000000
11
-60.9292062829
21
-41.3177545947
31
0.0000000000
11
-60.9589514944
21
-41.7517144909
31
0.0000000000
11
-60.9922927627
21
-42.0487497008
31
0.0000000000
0
SPLINE
5
30C
100
AcDbEntity
8
0
100
AcDbSpline
62
0
6
CONTINUOUS
70
0
71
3
72
15
73
11
74
9
42
0.0000001000
43
0.0000001000
44
0.0000000001
12
0.0000000000
22
-5.8217924872
32
0.0000000000
13
0.8864027910
23
-5.7539167405
33
0.0000000000
40
0.0000000000
40
0.0000000000
40
0.0000000000
40
0.0000000000
40
0.1882327614
40
0.3619757856
40
0.5191661470
40
0.6579414841
40
0.7766637806
40
0.8739428268
40
0.9486583248
40
1.0000000000
40
1.0000000000
40
1.0000000000
40
1.0000000000
10
60.7161291276
20
-36.2310566647
30
0.0000000000
10
60.7161291276
20
-36.5963406900
30
0.0000000000
10
60.7176099668
20
-37.2987912606
30
0.0000000000
10
60.7247789392
20
-38.3062635912
30
0.0000000000
10
60.7367087371
20
-39.2177060240
30
0.0000000000
10
60.7531841170
20
-40.0222941895
30
0.0000000000
10
60.7740018768
20
-40.7104580036
30
0.0000000000
10
60.7985301276
20
-41.2741516181
30
0.0000000000
10
60.8267028202
20
-41.7065979619
30
0.0000000000
10
60.8506489047
20
-41.9502777927
30
0.0000000000
10
60.8658187061
20
-42.0487497008
30
0.0000000000
11
60.7161291276
21
-36.2310566647
31
0.0000000000
11
60.7186204438
21
-37.3269059088
31
0.0000000000
11
60.7260646789
21
-38.3383743480
31
0.0000000000
11
60.7383729006
21
-39.2534212385
31
0.0000000000
11
60.7553980303
21
-40.0611630501
31
0.0000000000
11
60.7769367177
21
-40.7520039447
31
0.0000000000
11
60.8027322263
21
-41.3177545947
31
0.0000000000
11
60.8324774378
21
-41.7517144909
31
0.0000000000
11
60.8658187061
21
-42.0487497008
31
0.0000000000
0
SPLINE
5
30D
100
AcDbEntity
8
0
100
AcDbSpline
62
0
6
CONTINUOUS
70
0
71
3
72
9
73
5
74
3
42
0.0000001000
43
0.0000001000
44
0.0000000001
12
0.0000000000
22
0.1938281476
32
0.0000000000
13
-0.0944488720
23
0.1709620767
33
0.0000000000
40
0.0000000000
40
0.0000000000
40
0.0000000000
40
0.0000000000
40
0.8771766747
40
1.0000000000
40
1.0000000000
40
1.0000000000
40
1.0000000000
10
58.4367629717
20
18.2256580907
30
0.0000000000
10
58.4367629717
20
18.2823319341
30
0.0000000000
10
58.4214042848
20
18.3477607838
30
0.0000000000
10
58.3915991361
20
18.4057135651
30
0.0000000000
10
58.3877322946
20
18.4127129421
30
0.0000000000
11
58.4367629717
21
18.2256580907
31
0.0000000000
11
58.3987027380
21
18.3913648778
31
0.0000000000
11
58.3877322946
21
18.4127129421
31
0.0000000000
0
SPLINE
5
30E
100
AcDbEntity
8
0
100
AcDbSpline
62
0
6
CONTINUOUS
70
0
71
3
72
9
73
5
74
3
42
0.0000001000
43
0.0000001000
44
0.0000000001
12
0.0000000000
22
0.1938281476
32
0.0000000000
13
-0.0944488720
23
0.1709620767
33
0.0000000000
40
0.0000000000
40
0.0000000000
40
0.0000000000
40
0.0000000000
40
0.8771766747
40
1.0000000000
40
1.0000000000
40
1.0000000000
40
1.0000000000
10
58.4367629717
20
-11.2192056379
30
0.0000000000
10
58.4367629717
20
-11.1625317946
30
0.0000000000
10
58.4214042848
20
-11.0971029448
30
0.0000000000
10
58.3915991361
20
-11.0391501635
30
0.0000000000
10
58.3877322946
20
-11.0321507866
30
0.0000000000
11
58.4367629717
21
-11.2192056379
31
0.0000000000
11
58.3987027380
21
-11.0534988509
31
0.0000000000
11
58.3877322946
21
-11.0321507866
31
0.0000000000
0
SPLINE
5
30F
100
AcDbEntity
8
0
100
AcDbSpline
62
0
6
CONTINUOUS
70
0
71
3
72
13
73
9
74
7
42
0.0000001000
43
0.0000001000
44
0.0000000001
12
0.0358276543
22
-1.6237586457
32
0.0000000000
13
1.6229136247
23
-0.0253017218
33
0.0000000000
40
0.0000000000
40
0.0000000000
40
0.0000000000
40
0.0000000000
40
0.1326185751
40
0.2921409971
40
0.4555471709
40
0.6242837820
40
0.8028780084
40
1.0000000000
40
1.0000000000
40
1.0000000000
40
1.0000000000
10
-61.3225158871
20
-52.1681430241
30
0.0000000000
10
-61.3209320829
20
-52.2399232100
30
0.0000000000
10
-61.3046331180
20
-52.3980463106
30
0.0000000000
10
-61.2350498592
20
-52.6361917618
30
0.0000000000
10
-61.1067333507
20
-52.8718477700
30
0.0000000000
10
-60.9177669337
20
-53.0777305637
30
0.0000000000
10
-60.6617403669
20
-53.2326976119
30
0.0000000000
10
-60.4567931689
20
-53.2724636096
30
0.0000000000
10
-60.3501558470
20
-53.2741261182
30
0.0000000000
11
-61.3225158871
21
-52.1681430241
31
0.0000000000
11
-61.3002971591
21
-52.3823713998
31
0.0000000000
11
-61.2271138058
21
-52.6307362435
31
0.0000000000
11
-61.0993614556
21
-52.8631676193
31
0.0000000000
11
-60.9131956026
21
-53.0640445874
31
0.0000000000
11
-60.6640657101
21
-53.2122460797
31
0.0000000000
11
-60.3501558470
21
-53.2741261182
31
0.0000000000
0
SPLINE
5
310
100
AcDbEntity
8
0
100
AcDbSpline
62
0
6
CONTINUOUS
70
0
71
3
72
9
73
5
74
3
42
0.0000001000
43
0.0000001000
44
0.0000000001
12
0.0000000000
22
-0.1938281476
32
0.0000000000
13
-0.0944488720
23
-0.1709620767
33
0.0000000000
40
0.0000000000
40
0.0000000000
40
0.0000000000
40
0.0000000000
40
0.8771766747
40
1.0000000000
40
1.0000000000
40
1.0000000000
40
1.0000000000
10
58.4367629717
20
3.6372008226
30
0.0000000000
10
58.4367629717
20
3.5805269793
30
0.0000000000
10
58.4214042848
20
3.5150981296
30
0.0000000000
10
58.3915991361
20
3.4571453482
30
0.0000000000
10
58.3877322946
20
3.4501459713
30
0.0000000000
11
58.4367629717
21
3.6372008226
31
0.0000000000
11
58.3987027380
21
3.4714940356
31
0.0000000000
11
58.3877322946
21
3.4501459713
31
0.0000000000
0
SPLINE
5
311
100
AcDbEntity
8
0
100
AcDbSpline
62
0
6
CONTINUOUS
70
0
71
3
72
9
73
5
74
3
42
0.0000001000
43
0.0000001000
44
0.0000000001
12
0.0000000000
22
-0.1938281476
32
0.0000000000
13
-0.0944488720
23
-0.1709620767
33
0.0000000000
40
0.0000000000
40
0.0000000000
40
0.0000000000
40
0.0000000000
40
0.8771766747
40
1.0000000000
40
1.0000000000
40
1.0000000000
40
1.0000000000
10
58.4367629717
20
-25.8076629060
30
0.0000000000
10
58.4367629717
20
-25.8643367494
30
0.0000000000
10
58.4214042848
20
-25.9297655991
30
0.0000000000
10
58.3915991361
20
-25.9877183804
30
0.0000000000
10
58.3877322946
20
-25.9947177574
30
0.0000000000
11
58.4367629717
21
-25.8076629060
31
0.0000000000
11
58.3987027380
21
-25.9733696931
31
0.0000000000
11
58.3877322946
21
-25.9947177574
31
0.0000000000
0
SPLINE
5
312
100
AcDbEntity
8
0
100
AcDbSpline
62
0
6
CONTINUOUS
70
0
71
3
72
9
73
5
74
3
42
0.0000001000
43
0.0000001000
44
0.0000000001
12
-0.0944488720
22
-0.1709620767
32
0.0000000000
13
0.0000000000
23
-0.1938281476
33
0.0000000000
40
0.0000000000
40
0.0000000000
40
0.0000000000
40
0.0000000000
40
0.1228233253
40
1.0000000000
40
1.0000000000
40
1.0000000000
40
1.0000000000
10
-58.5142063512
20
-11.0321507866
30
0.0000000000
10
-58.5180731927
20
-11.0391501635
30
0.0000000000
10
-58.5478783414
20
-11.0971029448
30
0.0000000000
10
-58.5632370283
20
-11.1625317946
30
0.0000000000
10
-58.5632370283
20
-11.2192056379
30
0.0000000000
11
-58.5142063512
21
-11.0321507866
31
0.0000000000
11
-58.5251767946
21
-11.0534988509
31
0.0000000000
11
-58.5632370283
21
-11.2192056379
31
0.0000000000
0
SPLINE
5
313
100
AcDbEntity
8
0
100
AcDbSpline
62
0
6
CONTINUOUS
70
0
71
3
72
9
73
5
74
3
42
0.0000001000
43
0.0000001000
44
0.0000000001
12
-0.0944488720
22
0.1709620767
32
0.0000000000
13
-0.0000000000
23
0.1938281476
33
0.0000000000
40
0.0000000000
40
0.0000000000
40
0.0000000000
40
0.0000000000
40
0.1228233253
40
1.0000000000
40
1.0000000000
40
1.0000000000
40
1.0000000000
10
-58.5142063512
20
-25.9947177574
30
0.0000000000
10
-58.5180731927
20
-25.9877183804
30
0.0000000000
10
-58.5478783414
20
-25.9297655991
30
0.0000000000
10
-58.5632370283
20
-25.8643367494
30
0.0000000000
10
-58.5632370283
20
-25.8076629060
30
0.0000000000
11
-58.5142063512
21
-25.9947177574
31
0.0000000000
11
-58.5251767946
21
-25.9733696931
31
0.0000000000
11
-58.5632370283
21
-25.8076629060
31
0.0000000000
0
SPLINE
5
314
100
AcDbEntity
8
0
100
AcDbSpline
62
0
6
CONTINUOUS
70
0
71
3
72
9
73
5
74
3
42
0.0000001000
43
0.0000001000
44
0.0000000001
12
-0.0944488720
22
0.1709620767
32
0.0000000000
13
0.0000000000
23
0.1938281476
33
0.0000000000
40
0.0000000000
40
0.0000000000
40
0.0000000000
40
0.0000000000
40
0.1228233253
40
1.0000000000
40
1.0000000000
40
1.0000000000
40
1.0000000000
10
-58.5142063512
20
3.4501459713
30
0.0000000000
10
-58.5180731927
20
3.4571453482
30
0.0000000000
10
-58.5478783414
20
3.5150981296
30
0.0000000000
10
-58.5632370283
20
3.5805269793
30
0.0000000000
10
-58.5632370283
20
3.6372008226
30
0.0000000000
11
-58.5142063512
21
3.4501459713
31
0.0000000000
11
-58.5251767946
21
3.4714940356
31
0.0000000000
11
-58.5632370283
21
3.6372008226
31
0.0000000000
0
SPLINE
5
315
100
AcDbEntity
8
0
100
AcDbSpline
62
0
6
CONTINUOUS
70
0
71
3
72
9
73
5
74
3
42
0.0000001000
43
0.0000001000
44
0.0000000001
12
-0.0944488720
22
-0.1709620767
32
0.0000000000
13
-0.0000000000
23
-0.1938281476
33
0.0000000000
40
0.0000000000
40
0.0000000000
40
0.0000000000
40
0.0000000000
40
0.1228233253
40
1.0000000000
40
1.0000000000
40
1.0000000000
40
1.0000000000
10
-58.5142063512
20
18.4127129421
30
0.0000000000
10
-58.5180731927
20
18.4057135651
30
0.0000000000
10
-58.5478783414
20
18.3477607838
30
0.0000000000
10
-58.5632370283
20
18.2823319341
30
0.0000000000
10
-58.5632370283
20
18.2256580907
30
0.0000000000
11
-58.5142063512
21
18.4127129421
31
0.0000000000
11
-58.5251767946
21
18.3913648778
31
0.0000000000
11
-58.5632370283
21
18.2256580907
31
0.0000000000
0
SPLINE
5
316
100
AcDbEntity
8
0
100
AcDbSpline
62
0
6
CONTINUOUS
70
0
71
3
72
8
73
4
74
2
42
0.0000001000
43
0.0000001000
44
0.0000000001
12
0.1106718921
22
0.0017254088
32
0.0000000000
13
0.1102337003
23
0.0154247607
33
0.0000000000
40
0.0000000000
40
0.0000000000
40
0.0000000000
40
0.0000000000
40
1.0000000000
40
1.0000000000
40
1.0000000000
40
1.0000000000
10
60.2236817904
20
-53.2741261182
30
0.0000000000
10
60.2605724211
20
-53.2735509820
30
0.0000000000
10
60.2975695145
20
-53.2706779136
30
0.0000000000
10
60.3343140812
20
-53.2655363267
30
0.0000000000
11
60.2236817904
21
-53.2741261182
31
0.0000000000
11
60.3343140812
21
-53.2655363267
31
0.0000000000
0
SPLINE
5
317
100
AcDbEntity
8
0
100
AcDbSpline
62
0
6
CONTINUOUS
70
0
71
3
72
8
73
4
74
2
42
0.0000001000
43
0.0000001000
44
0.0000000001
12
0.1059888712
22
0.0148307910
32
0.0000000000
13
0.1036308722
23
0.0273353897
33
0.0000000000
40
0.0000000000
40
0.0000000000
40
0.0000000000
40
0.0000000000
40
1.0000000000
40
1.0000000000
40
1.0000000000
40
1.0000000000
10
60.3343140812
20
-53.2655363267
30
0.0000000000
10
60.3696437050
20
-53.2605927297
30
0.0000000000
10
60.4047398760
20
-53.2535519605
30
0.0000000000
10
60.4392835001
20
-53.2444401639
30
0.0000000000
11
60.3343140812
21
-53.2655363267
31
0.0000000000
11
60.4392835001
21
-53.2444401639
31
0.0000000000
0
SPLINE
5
318
100
AcDbEntity
8
0
100
AcDbSpline
62
0
6
CONTINUOUS
70
0
71
3
72
13
73
9
74
7
42
0.0000001000
43
0.0000001000
44
0.0000000001
12
1.3691127698
22
0.3611397865
32
0.0000000000
13
0.0310353217
23
1.4065635337
33
0.0000000000
40
0.0000000000
40
0.0000000000
40
0.0000000000
40
0.0000000000
40
0.0731452392
40
0.2793171698
40
0.4741093172
40
0.6627479254
40
0.8469030707
40
1.0000000000
40
1.0000000000
40
1.0000000000
40
1.0000000000
10
60.4392835001
20
-53.2444401639
30
0.0000000000
10
60.4726648604
20
-53.2356349452
30
0.0000000000
10
60.5981667012
20
-53.1946254383
30
0.0000000000
10
60.7912928771
20
-53.0777305637
30
0.0000000000
10
60.9802592941
20
-52.8718477700
30
0.0000000000
10
61.1085758026
20
-52.6361917618
30
0.0000000000
10
61.1781590614
20
-52.3980463106
30
0.0000000000
10
61.1944580263
20
-52.2399232100
30
0.0000000000
10
61.1960418305
20
-52.1681430241
30
0.0000000000
11
60.4392835001
21
-53.2444401639
31
0.0000000000
11
60.5375916535
21
-53.2122460797
31
0.0000000000
11
60.7867215460
21
-53.0640445874
31
0.0000000000
11
60.9728873990
21
-52.8631676193
31
0.0000000000
11
61.1006397492
21
-52.6307362435
31
0.0000000000
11
61.1738231025
21
-52.3823713998
31
0.0000000000
11
61.1960418305
21
-52.1681430241
31
0.0000000000
0
SPLINE
5
319
100
AcDbEntity
8
0
100
AcDbSpline
62
0
6
CONTINUOUS
70
0
71
3
72
9
73
5
74
3
42
0.0000001000
43
0.0000001000
44
0.0000000001
12
-0.0491657250
22
0.0000000000
32
0.0000000000
13
-0.0491639308
23
0.0004200305
33
0.0000000000
40
0.0000000000
40
0.0000000000
40
0.0000000000
40
0.0000000000
40
0.5011830152
40
1.0000000000
40
1.0000000000
40
1.0000000000
40
1.0000000000
10
-60.3009906821
20
-53.2743360117
30
0.0000000000
10
-60.3092043576
20
-53.2743360117
30
0.0000000000
10
-60.3255929514
20
-53.2743009722
30
0.0000000000
10
-60.3419812458
20
-53.2741959577
30
0.0000000000
10
-60.3501558470
20
-53.2741261182
30
0.0000000000
11
-60.3009906821
21
-53.2743360117
31
0.0000000000
11
-60.3256316521
21
-53.2742833127
31
0.0000000000
11
-60.3501558470
21
-53.2741261182
31
0.0000000000
0
SPLINE
5
31A
100
AcDbEntity
8
0
100
AcDbSpline
62
0
6
CONTINUOUS
70
0
71
3
72
9
73
5
74
3
42
0.0000001000
43
0.0000001000
44
0.0000000001
12
-0.0491639307
22
-0.0004200305
32
0.0000000000
13
-0.0491657250
23
0.0000000000
33
0.0000000000
40
0.0000000000
40
0.0000000000
40
0.0000000000
40
0.0000000000
40
0.4988169204
40
1.0000000000
40
1.0000000000
40
1.0000000000
40
1.0000000000
10
60.2236817904
20
-53.2741261182
30
0.0000000000
10
60.2155071902
20
-53.2741959577
30
0.0000000000
10
60.1991188958
20
-53.2743009722
30
0.0000000000
10
60.1827303020
20
-53.2743360117
30
0.0000000000
10
60.1745166255
20
-53.2743360117
30
0.0000000000
11
60.2236817904
21
-53.2741261182
31
0.0000000000
11
60.1991575986
21
-53.2742833126
31
0.0000000000
11
60.1745166255
21
-53.2743360117
31
0.0000000000
0
SPLINE
5
31B
100
AcDbEntity
8
0
100
AcDbSpline
62
0
6
CONTINUOUS
70
0
71
3
72
15
73
11
74
9
42
0.0000001000
43
0.0000001000
44
0.0000000001
12
0.0000000000
22
1.4642931493
32
0.0000000000
13
-1.4642931493
23
-0.0000000000
33
0.0000000000
40
0.0000000000
40
0.0000000000
40
0.0000000000
40
0.0000000000
40
0.1160610672
40
0.2335506786
40
0.3536400635
40
0.4770435067
40
0.6039375375
40
0.7339728117
40
0.8663586319
40
1.0000000000
40
1.0000000000
40
1.0000000000
40
1.0000000000
10
60.7161291276
20
35.0254921929
30
0.0000000000
10
60.7161291276
20
35.0821413347
30
0.0000000000
10
60.7030673016
20
35.1965476642
30
0.0000000000
10
60.6452469573
20
35.3606153905
30
0.0000000000
10
60.5516299943
20
35.5114540687
30
0.0000000000
10
60.4260746488
20
35.6431960395
30
0.0000000000
10
60.2735770273
20
35.7509809296
30
0.0000000000
10
60.1000212131
20
35.8308660642
30
0.0000000000
10
59.9120897352
20
35.8799678815
30
0.0000000000
10
59.7819683472
20
35.8909900374
30
0.0000000000
10
59.7167383006
20
35.8909900374
30
0.0000000000
11
60.7161291276
21
35.0254921929
31
0.0000000000
11
60.6969428382
21
35.1943531231
31
0.0000000000
11
60.6401035962
21
35.3567316878
31
0.0000000000
11
60.5477722919
21
35.5063871868
31
0.0000000000
11
60.4234873227
21
35.6375561949
31
0.0000000000
11
60.2720263954
21
35.7451896742
31
0.0000000000
11
60.0992196715
21
35.8251503731
31
0.0000000000
11
59.9117217552
21
35.8743742840
31
0.0000000000
11
59.7167383006
21
35.8909900374
31
0.0000000000
0
SPLINE
5
31C
100
AcDbEntity
8
0
100
AcDbSpline
62
0
6
CONTINUOUS
70
0
71
3
72
15
73
11
74
9
42
0.0000001000
43
0.0000001000
44
0.0000000001
12
-1.4642931513
22
0.0000000000
32
0.0000000000
13
0.0000000000
23
-1.4642931513
33
0.0000000000
40
0.0000000000
40
0.0000000000
40
0.0000000000
40
0.0000000000
40
0.1336416113
40
0.2660279484
40
0.3960637299
40
0.5229579413
40
0.6463611354
40
0.7664500074
40
0.8839391455
40
1.0000000000
40
1.0000000000
40
1.0000000000
40
1.0000000000
10
-59.8432123572
20
35.8909900374
30
0.0000000000
10
-59.9084425226
20
35.8909900374
30
0.0000000000
10
-60.0385642832
20
35.8799678299
30
0.0000000000
10
-60.2264963385
20
35.8308657313
30
0.0000000000
10
-60.4000525873
20
35.7509801038
30
0.0000000000
10
-60.5525501717
20
35.6431947780
30
0.0000000000
10
-60.6781050339
20
35.5114527444
30
0.0000000000
10
-60.7717214174
20
35.3606144331
30
0.0000000000
10
-60.8295414209
20
35.1965472236
30
0.0000000000
10
-60.8426031842
20
35.0821412310
30
0.0000000000
10
-60.8426031842
20
35.0254921929
30
0.0000000000
11
-59.8432123572
21
35.8909900374
31
0.0000000000
11
-60.0381961643
21
35.8743742234
31
0.0000000000
11
-60.2256947804
21
35.8251499958
31
0.0000000000
11
-60.3985020656
21
35.7451887408
31
0.0000000000
11
-60.5499629898
21
35.6375548001
31
0.0000000000
11
-60.6742474264
21
35.5063857894
31
0.0000000000
11
-60.7665780884
21
35.3567307766
31
0.0000000000
11
-60.8234169649
21
35.1943528179
31
0.0000000000
11
-60.8426031842
21
35.0254921929
31
0.0000000000
0
SPLINE
5
31D
100
AcDbEntity
8
0
100
AcDbSpline
62
0
6
CONTINUOUS
70
0
71
3
72
9
73
5
74
3
42
0.0000001000
43
0.0000001000
44
0.0000000001
12
0.0000000000
22
0.1702685859
32
0.0000000000
13
0.1116492301
23
0.1310218833
33
0.0000000000
40
0.0000000000
40
0.0000000000
40
0.0000000000
40
0.0000000000
40
0.7492857375
40
1.0000000000
40
1.0000000000
40
1.0000000000
40
1.0000000000
10
58.4367629717
20
-42.2949516391
30
0.0000000000
10
58.4367629717
20
-42.2524250315
30
0.0000000000
10
58.4524938090
20
-42.1945697632
30
0.0000000000
10
58.4858970314
20
-42.1476198916
30
0.0000000000
10
58.4952277162
20
-42.1366702066
30
0.0000000000
11
58.4367629717
21
-42.2949516391
31
0.0000000000
11
58.4702585473
21
-42.1718473840
31
0.0000000000
11
58.4952277162
21
-42.1366702066
31
0.0000000000
0
SPLINE
5
31E
100
AcDbEntity
8
0
100
AcDbSpline
62
0
6
CONTINUOUS
70
0
71
3
72
8
73
4
74
2
42
0.0000001000
43
0.0000001000
44
0.0000000001
12
0.0280903085
22
0.0329643573
32
0.0000000000
13
0.0333973906
23
0.0275900010
33
0.0000000000
40
0.0000000000
40
0.0000000000
40
0.0000000000
40
0.0000000000
40
1.0000000000
40
1.0000000000
40
1.0000000000
40
1.0000000000
10
58.4952277162
20
-42.1366702066
30
0.0000000000
10
58.5045911524
20
-42.1256820875
30
0.0000000000
10
58.5149173322
20
-42.1155210618
30
0.0000000000
10
58.5260497957
20
-42.1063243948
30
0.0000000000
11
58.4952277162
21
-42.1366702066
31
0.0000000000
11
58.5260497957
21
-42.1063243948
31
0.0000000000
0
SPLINE
5
31F
100
AcDbEntity
8
0
100
AcDbSpline
62
0
6
CONTINUOUS
70
0
71
3
72
9
73
5
74
3
42
0.0000001000
43
0.0000001000
44
0.0000000001
12
0.1342316271
22
0.1108904215
32
0.0000000000
13
0.1721779859
23
-0.0000000001
33
0.0000000000
40
0.0000000000
40
0.0000000000
40
0.0000000000
40
0.0000000000
40
0.2491743288
40
1.0000000000
40
1.0000000000
40
1.0000000000
40
1.0000000000
10
58.5260497957
20
-42.1063243948
30
0.0000000000
10
58.5371988209
20
-42.0971140460
30
0.0000000000
10
58.5851881533
20
-42.0640323131
30
0.0000000000
10
58.6436710878
20
-42.0487497011
30
0.0000000000
10
58.6867629717
20
-42.0487497012
30
0.0000000000
11
58.5260497957
21
-42.1063243948
31
0.0000000000
11
58.5617657654
21
-42.0817329179
31
0.0000000000
11
58.6867629717
21
-42.0487497012
31
0.0000000000
0
SPLINE
5
320
100
AcDbEntity
8
0
100
AcDbSpline
62
0
6
CONTINUOUS
70
0
71
3
72
10
73
6
74
4
42
0.0000001000
43
0.0000001000
44
0.0000000001
12
-0.0000000007
22
0.3793819323
32
0.0000000000
13
-0.3038127842
23
0.2304107836
33
0.0000000000
40
0.0000000000
40
0.0000000000
40
0.0000000000
40
0.0000000000
40
0.3336443547
40
0.7196153111
40
1.0000000000
40
1.0000000000
40
1.0000000000
40
1.0000000000
10
58.6867629717
20
33.7004946909
30
0.0000000000
10
58.6867629716
20
33.7426875709
30
0.0000000000
10
58.6710044482
20
33.8343578524
30
0.0000000000
10
58.6063748490
20
33.9461625894
30
0.0000000000
10
58.5445034490
20
34.0047215929
30
0.0000000000
10
58.5161086314
20
34.0262561449
30
0.0000000000
11
58.6867629717
21
33.7004946909
31
0.0000000000
11
58.6655401815
21
33.8252814902
31
0.0000000000
11
58.5932416729
21
33.9526187975
31
0.0000000000
11
58.5161086314
21
34.0262561449
31
0.0000000000
0
SPLINE
5
321
100
AcDbEntity
8
0
100
AcDbSpline
62
0
6
CONTINUOUS
70
0
71
3
72
10
73
6
74
4
42
0.0000001000
43
0.0000001000
44
0.0000000001
12
-0.2813002223
22
0.2133373183
32
0.0000000000
13
-0.3512696879
23
-0.0000000002
33
0.0000000000
40
0.0000000000
40
0.0000000000
40
0.0000000000
40
0.0000000000
40
0.1518081730
40
0.5977773671
40
1.0000000000
40
1.0000000000
40
1.0000000000
40
1.0000000000
10
58.5161086314
20
34.0262561449
30
0.0000000000
10
58.5018740738
20
34.0370515944
30
0.0000000000
10
58.4434860404
20
34.0764878227
30
0.0000000000
10
58.3335851730
20
34.1212910963
30
0.0000000000
10
58.2338591779
20
34.1335073928
30
0.0000000000
10
58.1867629717
20
34.1335073928
30
0.0000000000
11
58.5161086314
21
34.0262561449
31
0.0000000000
11
58.4717469541
21
34.0562655170
31
0.0000000000
11
58.3269779606
21
34.1161226098
31
0.0000000000
11
58.1867629717
21
34.1335073928
31
0.0000000000
0
SPLINE
5
322
100
AcDbEntity
8
0
100
AcDbSpline
62
0
6
CONTINUOUS
70
0
71
3
72
10
73
6
74
4
42
0.0000001000
43
0.0000001000
44
0.0000000001
12
-0.3512696890
22
0.0000000002
32
0.0000000000
13
-0.2813002561
23
-0.2133372906
33
0.0000000000
40
0.0000000000
40
0.0000000000
40
0.0000000000
40
0.0000000000
40
0.4022226394
40
0.8481918293
40
1.0000000000
40
1.0000000000
40
1.0000000000
40
1.0000000000
10
-58.3132370283
20
34.1335073928
30
0.0000000000
10
-58.3603332355
20
34.1335073928
30
0.0000000000
10
-58.4600592378
20
34.1212911245
30
0.0000000000
10
-58.5699600889
20
34.0764878142
30
0.0000000000
10
-58.6283481277
20
34.0370515892
30
0.0000000000
10
-58.6425826868
20
34.0262561413
30
0.0000000000
11
-58.3132370283
21
34.1335073928
31
0.0000000000
11
-58.4534520215
21
34.1161226229
31
0.0000000000
11
-58.5982210064
21
34.0562655117
31
0.0000000000
11
-58.6425826868
21
34.0262561413
31
0.0000000000
0
SPLINE
5
323
100
AcDbEntity
8
0
100
AcDbSpline
62
0
6
CONTINUOUS
70
0
71
3
72
8
73
4
74
2
42
0.0000001000
43
0.0000001000
44
0.0000000001
12
-0.0851844649
22
-0.0646036488
32
0.0000000000
13
-0.0681131599
23
-0.0823881849
33
0.0000000000
40
0.0000000000
40
0.0000000000
40
0.0000000000
40
0.0000000000
40
1.0000000000
40
1.0000000000
40
1.0000000000
40
1.0000000000
10
-58.6425826868
20
34.0262561413
30
0.0000000000
10
-58.6709775084
20
34.0047215917
30
0.0000000000
10
-58.6970113484
20
33.9800815292
30
0.0000000000
10
-58.7197157350
20
33.9526188009
30
0.0000000000
11
-58.6425826868
21
34.0262561413
31
0.0000000000
11
-58.7197157350
21
33.9526188009
31
0.0000000000
0
SPLINE
5
324
100
AcDbEntity
8
0
100
AcDbSpline
62
0
6
CONTINUOUS
70
0
71
3
72
9
73
5
74
3
42
0.0000001000
43
0.0000001000
44
0.0000000001
12
-0.1748143633
22
-0.2114516210
32
0.0000000000
13
-0.0000000005
23
-0.2730090429
33
0.0000000000
40
0.0000000000
40
0.0000000000
40
0.0000000000
40
0.0000000000
40
0.5363573398
40
1.0000000000
40
1.0000000000
40
1.0000000000
40
1.0000000000
10
-58.7197157350
20
33.9526188009
30
0.0000000000
10
-58.7509700573
20
33.9148142579
30
0.0000000000
10
-58.7974784784
20
33.8343578427
30
0.0000000000
10
-58.8132370282
20
33.7426875705
30
0.0000000000
10
-58.8132370283
20
33.7004946909
30
0.0000000000
11
-58.7197157350
21
33.9526188009
31
0.0000000000
11
-58.7920142251
21
33.8252814869
31
0.0000000000
11
-58.8132370283
21
33.7004946909
31
0.0000000000
0
SPLINE
5
325
100
AcDbEntity
8
0
100
AcDbSpline
62
0
6
CONTINUOUS
70
0
71
3
72
10
73
6
74
4
42
0.0000001000
43
0.0000001000
44
0.0000000001
12
-0.0974903881
22
-0.0975680875
32
0.0000000000
13
-0.0148995642
23
-0.1370471965
33
0.0000000000
40
0.0000000000
40
0.0000000000
40
0.0000000000
40
0.0000000000
40
0.1529897025
40
0.6862436702
40
1.0000000000
40
1.0000000000
40
1.0000000000
40
1.0000000000
10
-58.5023277582
20
33.7171196798
30
0.0000000000
10
-58.5072994334
20
33.7121440422
30
0.0000000000
10
-58.5285686149
20
33.6887990110
30
0.0000000000
10
-58.5519447757
20
33.6483262788
30
0.0000000000
10
-58.5605799185
20
33.6099807426
30
0.0000000000
10
-58.5621381960
20
33.5956476008
30
0.0000000000
11
-58.5023277582
21
33.7171196798
31
0.0000000000
11
-58.5165230350
21
33.7015149259
31
0.0000000000
11
-58.5526505348
21
33.6378315154
31
0.0000000000
11
-58.5621381960
21
33.5956476008
31
0.0000000000
0
SPLINE
5
326
100
AcDbEntity
8
0
100
AcDbSpline
62
0
6
CONTINUOUS
70
0
71
3
72
8
73
4
74
2
42
0.0000001000
43
0.0000001000
44
0.0000000001
12
-0.0021865688
22
-0.0201122071
32
0.0000000000
13
-0.0000000000
23
-0.0201497281
33
0.0000000000
40
0.0000000000
40
0.0000000000
40
0.0000000000
40
0.0000000000
40
1.0000000000
40
1.0000000000
40
1.0000000000
40
1.0000000000
10
-58.5621381960
20
33.5956476008
30
0.0000000000
10
-58.5628670522
20
33.5889435318
30
0.0000000000
10
-58.5632370283
20
33.5822112669
30
0.0000000000
10
-58.5632370283
20
33.5754946909
30
0.0000000000
11
-58.5621381960
21
33.5956476008
31
0.0000000000
11
-58.5632370283
21
33.5754946909
31
0.0000000000
0
SPLINE
5
327
100
AcDbEntity
8
0
100
AcDbSpline
62
0
6
CONTINUOUS
70
0
71
3
72
9
73
5
74
3
42
0.0000001000
43
0.0000001000
44
0.0000000001
12
0.0000000000
22
0.1355164649
32
0.0000000000
13
0.1261233275
23
0.0506924031
33
0.0000000000
40
0.0000000000
40
0.0000000000
40
0.0000000000
40
0.0000000000
40
0.5232414925
40
1.0000000000
40
1.0000000000
40
1.0000000000
40
1.0000000000
10
58.4367629717
20
33.5754946909
30
0.0000000000
10
58.4367629717
20
33.5991306367
30
0.0000000000
10
58.4660323427
20
33.6415126959
30
0.0000000000
10
58.5057584996
20
33.6638466400
30
0.0000000000
10
58.5258019560
20
33.6719026514
30
0.0000000000
11
58.4367629717
21
33.5754946909
31
0.0000000000
11
58.4702557466
21
33.6379939343
31
0.0000000000
11
58.5258019560
21
33.6719026514
31
0.0000000000
0
SPLINE
5
328
100
AcDbEntity
8
0
100
AcDbSpline
62
0
6
CONTINUOUS
70
0
71
3
72
9
73
5
74
3
42
0.0000001000
43
0.0000001000
44
0.0000000001
12
0.1524618298
22
0.0612785651
32
0.0000000000
13
0.1638165487
23
0.0000000003
33
0.0000000000
40
0.0000000000
40
0.0000000000
40
0.0000000000
40
0.0000000000
40
0.2301230043
40
1.0000000000
40
1.0000000000
40
1.0000000000
40
1.0000000000
10
58.5258019560
20
33.6719026514
30
0.0000000000
10
58.5374969475
20
33.6766031873
30
0.0000000000
10
58.5899503651
20
33.6931948601
30
0.0000000000
10
58.6447234407
20
33.7004946915
30
0.0000000000
10
58.6867629715
20
33.7004946916
30
0.0000000000
11
58.5258019560
21
33.6719026514
31
0.0000000000
11
58.5617612648
21
33.6837473742
31
0.0000000000
11
58.6867629715
21
33.7004946916
31
0.0000000000
0
SPLINE
5
329
100
AcDbEntity
8
0
100
AcDbSpline
62
0
6
CONTINUOUS
70
0
71
3
72
15
73
11
74
9
42
0.0000001000
43
0.0000001000
44
0.0000000001
12
0.0556344249
22
-1.0225479694
32
0.0000000000
13
1.0375709053
23
0.0000000000
33
0.0000000000
40
0.0000000000
40
0.0000000000
40
0.0000000000
40
0.0000000000
40
0.0308701028
40
0.0918230927
40
0.1842138381
40
0.3067171269
40
0.4554061530
40
0.6248849675
40
0.8087615798
40
1.0000000000
40
1.0000000000
40
1.0000000000
40
1.0000000000
10
-61.4807145639
20
-45.2229648850
30
0.0000000000
10
-61.4801420838
20
-45.2334869386
30
0.0000000000
10
-61.4604859128
20
-45.2640878279
30
0.0000000000
10
-61.4026387645
20
-45.2908904644
30
0.0000000000
10
-61.3118860803
20
-45.3212258332
30
0.0000000000
10
-61.1884704676
20
-45.3462760202
30
0.0000000000
10
-61.0375574452
20
-45.3678617399
30
0.0000000000
10
-60.8645811847
20
-45.3837639774
30
0.0000000000
10
-60.6764546160
20
-45.3936663617
30
0.0000000000
10
-60.5467049260
20
-45.3958739876
30
0.0000000000
10
-60.4805637857
20
-45.3958739876
30
0.0000000000
11
-61.4807145639
21
-45.2229648850
31
0.0000000000
11
-61.4658882566
21
-45.2521137903
31
0.0000000000
11
-61.4121480907
21
-45.2854556229
31
0.0000000000
11
-61.3213780512
21
-45.3162827744
31
0.0000000000
11
-61.1971919561
21
-45.3433698642
31
0.0000000000
11
-61.0445324871
21
-45.3656406487
31
0.0000000000
11
-60.8694686904
21
-45.3822112171
31
0.0000000000
11
-60.6789572126
21
-45.3924240460
31
0.0000000000
11
-60.4805637857
21
-45.3958739876
31
0.0000000000
0
SPLINE
5
32A
100
AcDbEntity
8
0
100
AcDbSpline
62
0
6
CONTINUOUS
70
0
71
3
72
9
73
5
74
3
42
0.0000001000
43
0.0000001000
44
0.0000000001
12
0.0000000000
22
0.1355181300
32
0.0000000000
13
0.1261251308
23
0.0506922052
33
0.0000000000
40
0.0000000000
40
0.0000000000
40
0.0000000000
40
0.0000000000
40
0.5232430313
40
1.0000000000
40
1.0000000000
40
1.0000000000
40
1.0000000000
10
58.4367629717
20
-36.3560566647
30
0.0000000000
10
58.4367629717
20
-36.3324203590
30
0.0000000000
10
58.4660331114
20
-36.2900379113
30
0.0000000000
10
58.5057599010
20
-36.2677039732
30
0.0000000000
10
58.5258035793
20
-36.2596480192
30
0.0000000000
11
58.4367629717
21
-36.3560566647
31
0.0000000000
11
58.4702566208
21
-36.2935566647
31
0.0000000000
11
58.5258035793
21
-36.2596480192
31
0.0000000000
0
SPLINE
5
32B
100
AcDbEntity
8
0
100
AcDbSpline
62
0
6
CONTINUOUS
70
0
71
3
72
9
73
5
74
3
42
0.0000001000
43
0.0000001000
44
0.0000000001
12
0.1524605397
22
0.0612769311
32
0.0000000000
13
0.1638148329
23
0.0000000000
33
0.0000000000
40
0.0000000000
40
0.0000000000
40
0.0000000000
40
0.0000000000
40
0.2301256670
40
1.0000000000
40
1.0000000000
40
1.0000000000
40
1.0000000000
10
58.5258035793
20
-36.2596480192
30
0.0000000000
10
58.5374986071
20
-36.2549475543
30
0.0000000000
10
58.5899515223
20
-36.2383563507
30
0.0000000000
10
58.6447240266
20
-36.2310566647
30
0.0000000000
10
58.6867629717
20
-36.2310566647
30
0.0000000000
11
58.5258035793
21
-36.2596480192
31
0.0000000000
11
58.5617629717
21
-36.2478034892
31
0.0000000000
11
58.6867629717
21
-36.2310566647
31
0.0000000000
0
SPLINE
5
32C
100
AcDbEntity
8
0
100
AcDbSpline
62
0
6
CONTINUOUS
70
0
71
3
72
9
73
5
74
3
42
0.0000001000
43
0.0000001000
44
0.0000000001
12
0.0000000000
22
0.1355228876
32
0.0000000000
13
-0.1261301940
23
0.0506916126
33
0.0000000000
40
0.0000000000
40
0.0000000000
40
0.0000000000
40
0.0000000000
40
0.5232529279
40
1.0000000000
40
1.0000000000
40
1.0000000000
40
1.0000000000
10
-58.5632370283
20
-36.3560566647
30
0.0000000000
10
-58.5632370283
20
-36.3324190821
30
0.0000000000
10
-58.5925096418
20
-36.2900355983
30
0.0000000000
10
-58.6322382584
20
-36.2677017471
30
0.0000000000
10
-58.6522823253
20
-36.2596460544
30
0.0000000000
11
-58.5632370283
21
-36.3560566647
31
0.0000000000
11
-58.5967337768
21
-36.2935539797
31
0.0000000000
11
-58.6522823253
21
-36.2596460544
31
0.0000000000
0
SPLINE
5
32D
100
AcDbEntity
8
0
100
AcDbSpline
62
0
6
CONTINUOUS
70
0
71
3
72
9
73
5
74
3
42
0.0000001000
43
0.0000001000
44
0.0000000001
12
-0.1524567234
22
0.0612722213
32
0.0000000000
13
-0.1638099072
23
0.0000000010
33
0.0000000000
40
0.0000000000
40
0.0000000000
40
0.0000000000
40
0.0000000000
40
0.2301307738
40
1.0000000000
40
1.0000000000
40
1.0000000000
40
1.0000000000
10
-58.6522823253
20
-36.2596460544
30
0.0000000000
10
-58.6639773198
20
-36.2549458465
30
0.0000000000
10
-58.7164287220
20
-36.2383559557
30
0.0000000000
10
-58.7711996261
20
-36.2310566621
30
0.0000000000
10
-58.8132370283
20
-36.2310566619
30
0.0000000000
11
-58.6522823253
21
-36.2596460544
31
0.0000000000
11
-58.6882415246
21
-36.2478021893
31
0.0000000000
11
-58.8132370283
21
-36.2310566619
31
0.0000000000
0
SPLINE
5
32E
100
AcDbEntity
8
0
100
AcDbSpline
62
0
6
CONTINUOUS
70
0
71
3
72
9
73
5
74
3
42
0.0000001000
43
0.0000001000
44
0.0000000001
12
0.0000000000
22
0.1355181300
32
0.0000000000
13
-0.1261251308
23
0.0506922052
33
0.0000000000
40
0.0000000000
40
0.0000000000
40
0.0000000000
40
0.0000000000
40
0.5232430313
40
1.0000000000
40
1.0000000000
40
1.0000000000
40
1.0000000000
10
-58.5632370283
20
33.5754946909
30
0.0000000000
10
-58.5632370283
20
33.5991309966
30
0.0000000000
10
-58.5925071680
20
33.6415134443
30
0.0000000000
10
-58.6322339576
20
33.6638473824
30
0.0000000000
10
-58.6522776359
20
33.6719033364
30
0.0000000000
11
-58.5632370283
21
33.5754946909
31
0.0000000000
11
-58.5967306774
21
33.6379946909
31
0.0000000000
11
-58.6522776359
21
33.6719033364
31
0.0000000000
0
SPLINE
5
32F
100
AcDbEntity
8
0
100
AcDbSpline
62
0
6
CONTINUOUS
70
0
71
3
72
9
73
5
74
3
42
0.0000001000
43
0.0000001000
44
0.0000000001
12
-0.1524605397
22
0.0612769311
32
0.0000000000
13
-0.1638148329
23
0.0000000000
33
0.0000000000
40
0.0000000000
40
0.0000000000
40
0.0000000000
40
0.0000000000
40
0.2301256670
40
1.0000000000
40
1.0000000000
40
1.0000000000
40
1.0000000000
10
-58.6522776359
20
33.6719033364
30
0.0000000000
10
-58.6639726637
20
33.6766038013
30
0.0000000000
10
-58.7164255789
20
33.6931950049
30
0.0000000000
10
-58.7711980832
20
33.7004946909
30
0.0000000000
10
-58.8132370283
20
33.7004946909
30
0.0000000000
11
-58.6522776359
21
33.6719033364
31
0.0000000000
11
-58.6882370283
21
33.6837478664
31
0.0000000000
11
-58.8132370283
21
33.7004946909
31
0.0000000000
0
SPLINE
5
330
100
AcDbEntity
8
0
100
AcDbSpline
62
0
6
CONTINUOUS
70
0
71
3
72
10
73
6
74
4
42
0.0000001000
43
0.0000001000
44
0.0000000001
12
0.0000000000
22
0.3852851787
32
0.0000000000
13
-0.3852851787
23
0.0000000000
33
0.0000000000
40
0.0000000000
40
0.0000000000
40
0.0000000000
40
0.0000000000
40
0.3311099050
40
0.6644711046
40
1.0000000000
40
1.0000000000
40
1.0000000000
40
1.0000000000
10
-58.5632370283
20
-45.6420759259
30
0.0000000000
10
-58.5632370283
20
-45.5995520129
30
0.0000000000
10
-58.5868876606
20
-45.5125627967
30
0.0000000000
10
-58.6826092942
20
-45.4187483851
30
0.0000000000
10
-58.7701455915
20
-45.3958739876
30
0.0000000000
10
-58.8132370283
20
-45.3958739876
30
0.0000000000
11
-58.5632370283
21
-45.6420759259
31
0.0000000000
11
-58.5967283679
21
-45.5189788961
31
0.0000000000
11
-58.6882410284
21
-45.4288565186
31
0.0000000000
11
-58.8132370283
21
-45.3958739876
31
0.0000000000
0
SPLINE
5
331
100
AcDbEntity
8
0
100
AcDbSpline
62
0
6
CONTINUOUS
70
0
71
3
72
9
73
5
74
3
42
0.0000001000
43
0.0000001000
44
0.0000000001
12
0.0000000000
22
0.1702646917
32
0.0000000000
13
-0.1116445397
23
0.1310207131
33
0.0000000000
40
0.0000000000
40
0.0000000000
40
0.0000000000
40
0.0000000000
40
0.7492812815
40
1.0000000000
40
1.0000000000
40
1.0000000000
40
1.0000000000
10
-58.5632370283
20
-42.2949516391
30
0.0000000000
10
-58.5632370283
20
-42.2524262570
30
0.0000000000
10
-58.5789669924
20
-42.1945723844
30
0.0000000000
10
-58.6123687007
20
-42.1476230645
30
0.0000000000
10
-58.6216991594
20
-42.1366732827
30
0.0000000000
11
-58.5632370283
21
-42.2949516391
31
0.0000000000
11
-58.5967306774
21
-42.1718506700
31
0.0000000000
11
-58.6216991594
21
-42.1366732827
31
0.0000000000
0
SPLINE
5
332
100
AcDbEntity
8
0
100
AcDbSpline
62
0
6
CONTINUOUS
70
0
71
3
72
8
73
4
74
2
42
0.0000001000
43
0.0000001000
44
0.0000000001
12
-0.0280899390
22
0.0329650142
32
0.0000000000
13
-0.0333971778
23
0.0275906825
33
0.0000000000
40
0.0000000000
40
0.0000000000
40
0.0000000000
40
0.0000000000
40
1.0000000000
40
1.0000000000
40
1.0000000000
40
1.0000000000
10
-58.6216991594
20
-42.1366732827
30
0.0000000000
10
-58.6310624724
20
-42.1256849447
30
0.0000000000
10
-58.6413885550
20
-42.1155236922
30
0.0000000000
10
-58.6525209476
20
-42.1063267981
30
0.0000000000
11
-58.6216991594
21
-42.1366732827
31
0.0000000000
11
-58.6525209476
21
-42.1063267981
31
0.0000000000
0
SPLINE
5
333
100
AcDbEntity
8
0
100
AcDbSpline
62
0
6
CONTINUOUS
70
0
71
3
72
9
73
5
74
3
42
0.0000001000
43
0.0000001000
44
0.0000000001
12
-0.1342328068
22
0.1108948419
32
0.0000000000
13
-0.1721816271
23
0.0000000000
33
0.0000000000
40
0.0000000000
40
0.0000000000
40
0.0000000000
40
0.0000000000
40
0.2491721642
40
1.0000000000
40
1.0000000000
40
1.0000000000
40
1.0000000000
10
-58.6525209476
20
-42.1063267981
30
0.0000000000
10
-58.6636699739
20
-42.0971161621
30
0.0000000000
10
-58.7116598754
20
-42.0640330381
30
0.0000000000
10
-58.7701441088
20
-42.0487497008
30
0.0000000000
10
-58.8132370283
20
-42.0487497008
30
0.0000000000
11
-58.6525209476
21
-42.1063267981
31
0.0000000000
11
-58.6882370283
21
-42.0817345061
31
0.0000000000
11
-58.8132370283
21
-42.0487497008
31
0.0000000000
0
SPLINE
5
334
100
AcDbEntity
8
0
100
AcDbSpline
62
0
6
CONTINUOUS
70
0
71
3
72
9
73
5
74
3
42
0.0000001000
43
0.0000001000
44
0.0000000001
12
-0.0653798651
22
-0.0765609616
32
0.0000000000
13
-0.0215967247
23
-0.0986533412
33
0.0000000000
40
0.0000000000
40
0.0000000000
40
0.0000000000
40
0.0000000000
40
0.2586616719
40
1.0000000000
40
1.0000000000
40
1.0000000000
40
1.0000000000
10
-58.5140694483
20
30.8295744168
30
0.0000000000
10
-58.5197065367
20
30.8229732880
30
0.0000000000
10
-58.5399795189
20
30.7961148810
30
0.0000000000
10
-58.5535485294
20
30.7642583333
30
0.0000000000
10
-58.5588853560
20
30.7398798323
30
0.0000000000
11
-58.5140694483
21
30.8295744168
31
0.0000000000
11
-58.5297456887
21
30.8087444022
31
0.0000000000
11
-58.5588853560
21
30.7398798323
31
0.0000000000
0
SPLINE
5
335
100
AcDbEntity
8
0
100
AcDbSpline
62
0
6
CONTINUOUS
70
0
71
3
72
10
73
6
74
4
42
0.0000001000
43
0.0000001000
44
0.0000000001
12
-0.0000000002
22
0.1574525975
32
0.0000000000
13
-0.1117974802
23
0.1118865823
33
0.0000000000
40
0.0000000000
40
0.0000000000
40
0.0000000000
40
0.0000000000
40
0.4015771951
40
0.8665888942
40
1.0000000000
40
1.0000000000
40
1.0000000000
40
1.0000000000
10
58.4367629717
20
33.5754946909
30
0.0000000000
10
58.4367629717
20
33.5965711484
30
0.0000000000
10
58.4289012613
20
33.6423867485
30
0.0000000000
10
58.4020945583
20
33.6887990110
30
0.0000000000
10
58.3808253768
20
33.7121440422
30
0.0000000000
10
58.3758537016
20
33.7171196798
30
0.0000000000
11
58.4367629717
21
33.5754946909
31
0.0000000000
11
58.4261764782
21
33.6378315154
31
0.0000000000
11
58.3900489784
21
33.7015149259
31
0.0000000000
11
58.3758537016
21
33.7171196798
31
0.0000000000
0
SPLINE
5
336
100
AcDbEntity
8
0
100
AcDbSpline
62
0
6
CONTINUOUS
70
0
71
3
72
9
73
5
74
3
42
0.0000001000
43
0.0000001000
44
0.0000000001
12
0.0000000000
22
0.1390896883
32
0.0000000000
13
-0.0912497248
23
0.1068550181
33
0.0000000000
40
0.0000000000
40
0.0000000000
40
0.0000000000
40
0.0000000000
40
0.8146705071
40
1.0000000000
40
1.0000000000
40
1.0000000000
40
1.0000000000
10
58.4367629717
20
30.7004946909
30
0.0000000000
10
58.4367629717
20
30.7382654465
30
0.0000000000
10
58.4215271858
20
30.7854874008
30
0.0000000000
10
58.3932324801
20
30.8229732880
30
0.0000000000
10
58.3875953917
20
30.8295744168
30
0.0000000000
11
58.4367629717
21
30.7004946909
31
0.0000000000
11
58.4032716321
21
30.8087444022
31
0.0000000000
11
58.3875953917
21
30.8295744168
31
0.0000000000
0
SPLINE
5
337
100
AcDbEntity
8
0
100
AcDbSpline
62
0
6
CONTINUOUS
70
0
71
3
72
9
73
5
74
3
42
0.0000001000
43
0.0000001000
44
0.0000000001
12
0.0944488720
22
-0.1709620767
32
0.0000000000
13
0.0000000000
23
-0.1938281476
33
0.0000000000
40
0.0000000000
40
0.0000000000
40
0.0000000000
40
0.0000000000
40
0.1228233253
40
1.0000000000
40
1.0000000000
40
1.0000000000
40
1.0000000000
10
58.3877322946
20
19.4127129421
30
0.0000000000
10
58.3915991361
20
19.4057135651
30
0.0000000000
10
58.4214042848
20
19.3477607838
30
0.0000000000
10
58.4367629717
20
19.2823319341
30
0.0000000000
10
58.4367629717
20
19.2256580907
30
0.0000000000
11
58.3877322946
21
19.4127129421
31
0.0000000000
11
58.3987027380
21
19.3913648778
31
0.0000000000
11
58.4367629717
21
19.2256580907
31
0.0000000000
0
SPLINE
5
338
100
AcDbEntity
8
0
100
AcDbSpline
62
0
6
CONTINUOUS
70
0
71
3
72
9
73
5
74
3
42
0.0000001000
43
0.0000001000
44
0.0000000001
12
0.0944488720
22
-0.1709620767
32
0.0000000000
13
0.0000000000
23
-0.1938281476
33
0.0000000000
40
0.0000000000
40
0.0000000000
40
0.0000000000
40
0.0000000000
40
0.1228233253
40
1.0000000000
40
1.0000000000
40
1.0000000000
40
1.0000000000
10
58.3877322946
20
-10.0321507866
30
0.0000000000
10
58.3915991361
20
-10.0391501635
30
0.0000000000
10
58.4214042848
20
-10.0971029448
30
0.0000000000
10
58.4367629717
20
-10.1625317946
30
0.0000000000
10
58.4367629717
20
-10.2192056379
30
0.0000000000
11
58.3877322946
21
-10.0321507866
31
0.0000000000
11
58.3987027380
21
-10.0534988509
31
0.0000000000
11
58.4367629717
21
-10.2192056379
31
0.0000000000
0
SPLINE
5
339
100
AcDbEntity
8
0
100
AcDbSpline
62
0
6
CONTINUOUS
70
0
71
3
72
9
73
5
74
3
42
0.0000001000
43
0.0000001000
44
0.0000000001
12
0.0000000000
22
0.1938281476
32
0.0000000000
13
0.0944488720
23
0.1709620767
33
0.0000000000
40
0.0000000000
40
0.0000000000
40
0.0000000000
40
0.0000000000
40
0.8771766747
40
1.0000000000
40
1.0000000000
40
1.0000000000
40
1.0000000000
10
-58.5632370283
20
-10.2192056379
30
0.0000000000
10
-58.5632370283
20
-10.1625317946
30
0.0000000000
10
-58.5478783414
20
-10.0971029448
30
0.0000000000
10
-58.5180731927
20
-10.0391501635
30
0.0000000000
10
-58.5142063512
20
-10.0321507866
30
0.0000000000
11
-58.5632370283
21
-10.2192056379
31
0.0000000000
11
-58.5251767946
21
-10.0534988509
31
0.0000000000
11
-58.5142063512
21
-10.0321507866
31
0.0000000000
0
SPLINE
5
33A
100
AcDbEntity
8
0
100
AcDbSpline
62
0
6
CONTINUOUS
70
0
71
3
72
9
73
5
74
3
42
0.0000001000
43
0.0000001000
44
0.0000000001
12
0.0000000000
22
0.1938281476
32
0.0000000000
13
0.0944488720
23
0.1709620767
33
0.0000000000
40
0.0000000000
40
0.0000000000
40
0.0000000000
40
0.0000000000
40
0.8771766747
40
1.0000000000
40
1.0000000000
40
1.0000000000
40
1.0000000000
10
-58.5632370283
20
19.2256580907
30
0.0000000000
10
-58.5632370283
20
19.2823319341
30
0.0000000000
10
-58.5478783414
20
19.3477607838
30
0.0000000000
10
-58.5180731927
20
19.4057135651
30
0.0000000000
10
-58.5142063512
20
19.4127129421
30
0.0000000000
11
-58.5632370283
21
19.2256580907
31
0.0000000000
11
-58.5251767946
21
19.3913648778
31
0.0000000000
11
-58.5142063512
21
19.4127129421
31
0.0000000000
0
SPLINE
5
33B
100
AcDbEntity
8
0
100
AcDbSpline
62
0
6
CONTINUOUS
70
0
71
3
72
15
73
11
74
9
42
0.0000001000
43
0.0000001000
44
0.0000000001
12
1.0375709101
22
0.0000000000
32
0.0000000000
13
0.0556346446
23
1.0225481418
33
0.0000000000
40
0.0000000000
40
0.0000000000
40
0.0000000000
40
0.0000000000
40
0.1912388382
40
0.3751162808
40
0.5445957627
40
0.6932847875
40
0.8157874515
40
0.9081774421
40
0.9691299984
40
1.0000000000
40
1.0000000000
40
1.0000000000
40
1.0000000000
10
60.3540897291
20
-45.3958739876
30
0.0000000000
10
60.4202310143
20
-45.3958739876
30
0.0000000000
10
60.5499811367
20
-45.3936663495
30
0.0000000000
10
60.7381083668
20
-45.3837639001
30
0.0000000000
10
60.9110851383
20
-45.3678615478
30
0.0000000000
10
61.0619981613
20
-45.3462757219
30
0.0000000000
10
61.1854132806
20
-45.3212254967
30
0.0000000000
10
61.2761653291
20
-45.2908902115
30
0.0000000000
10
61.3340120240
20
-45.2640876412
30
0.0000000000
10
61.3536680264
20
-45.2334869117
30
0.0000000000
10
61.3542405070
20
-45.2229648908
30
0.0000000000
11
60.3540897291
21
-45.3958739876
31
0.0000000000
11
60.5524835904
21
-45.3924240307
31
0.0000000000
11
60.7429959275
21
-45.3822111223
31
0.0000000000
11
60.9180604073
21
-45.3656404144
31
0.0000000000
11
61.0707198590
21
-45.3433695149
31
0.0000000000
11
61.1949052912
21
-45.3162824251
31
0.0000000000
11
61.2856745455
21
-45.2854553958
31
0.0000000000
11
61.3394142763
21
-45.2521137144
31
0.0000000000
11
61.3542405070
21
-45.2229648908
31
0.0000000000
0
SPLINE
5
33C
100
AcDbEntity
8
0
100
AcDbSpline
62
0
6
CONTINUOUS
70
0
71
3
72
10
73
6
74
4
42
0.0000001000
43
0.0000001000
44
0.0000000001
12
-0.3852851787
22
0.0000000000
32
0.0000000000
13
0.0000000000
23
-0.3852851787
33
0.0000000000
40
0.0000000000
40
0.0000000000
40
0.0000000000
40
0.0000000000
40
0.3355288954
40
0.6688900950
40
1.0000000000
40
1.0000000000
40
1.0000000000
40
1.0000000000
10
58.6867629717
20
-45.3958739876
30
0.0000000000
10
58.6436715349
20
-45.3958739876
30
0.0000000000
10
58.5561352376
20
-45.4187483851
30
0.0000000000
10
58.4604136040
20
-45.5125627967
30
0.0000000000
10
58.4367629717
20
-45.5995520129
30
0.0000000000
10
58.4367629717
20
-45.6420759259
30
0.0000000000
11
58.6867629717
21
-45.3958739876
31
0.0000000000
11
58.5617669718
21
-45.4288565186
31
0.0000000000
11
58.4702543113
21
-45.5189788961
31
0.0000000000
11
58.4367629717
21
-45.6420759259
31
0.0000000000
0
SPLINE
5
33D
100
AcDbEntity
8
0
100
AcDbSpline
62
0
6
CONTINUOUS
70
0
71
3
72
14
73
10
74
8
42
0.0000001000
43
0.0000001000
44
0.0000000001
12
-0.2816574812
22
-4.7162818578
32
0.0000000000
13
-4.7148889389
23
0.0003623423
33
0.0000000000
40
0.0000000000
40
0.0000000000
40
0.0000000000
40
0.0000000000
40
0.0442487589
40
0.2319276068
40
0.4090948020
40
0.5729237581
40
0.7235634670
40
0.8647661410
40
1.0000000000
40
1.0000000000
40
1.0000000000
40
1.0000000000
10
-4.9310876348
20
43.8608532412
30
0.0000000000
10
-4.9352419661
20
43.7912900348
30
0.0000000000
10
-4.9664333218
20
43.4272333533
30
0.0000000000
10
-5.1084947082
20
42.7946521167
30
0.0000000000
10
-5.4703404163
20
42.0385778462
30
0.0000000000
10
-5.9605972217
20
41.4319011226
30
0.0000000000
10
-6.5377519331
20
40.9954270956
30
0.0000000000
10
-7.1642129327
20
40.7351911397
30
0.0000000000
10
-7.6006994864
20
40.6773589576
30
0.0000000000
10
-7.8132370283
20
40.6773752913
30
0.0000000000
11
-4.9310876348
21
43.8608532412
31
0.0000000000
11
-4.9489399988
21
43.6525730968
31
0.0000000000
11
-5.1446974432
21
42.7896128685
31
0.0000000000
11
-5.5082583850
21
42.0375563252
31
0.0000000000
11
-5.9967434758
21
41.4391930044
31
0.0000000000
11
-6.5652759591
21
41.0134875116
31
0.0000000000
11
-7.1810547839
21
40.7604142750
31
0.0000000000
11
-7.8132370283
21
40.6773752913
31
0.0000000000
0
SPLINE
5
33E
100
AcDbEntity
8
0
100
AcDbSpline
62
0
6
CONTINUOUS
70
0
71
3
72
14
73
10
74
8
42
0.0000001000
43
0.0000001000
44
0.0000000001
12
-0.2816574812
22
-4.7162818578
32
0.0000000000
13
-4.7148889389
23
0.0003623423
33
0.0000000000
40
0.0000000000
40
0.0000000000
40
0.0000000000
40
0.0000000000
40
0.0442487589
40
0.2319276068
40
0.4090948020
40
0.5729237581
40
0.7235634670
40
0.8647661410
40
1.0000000000
40
1.0000000000
40
1.0000000000
40
1.0000000000
10
10.5689123652
20
43.8608532412
30
0.0000000000
10
10.5647580339
20
43.7912900348
30
0.0000000000
10
10.5335666782
20
43.4272333533
30
0.0000000000
10
10.3915052918
20
42.7946521167
30
0.0000000000
10
10.0296595837
20
42.0385778462
30
0.0000000000
10
9.5394027783
20
41.4319011226
30
0.0000000000
10
8.9622480669
20
40.9954270956
30
0.0000000000
10
8.3357870673
20
40.7351911397
30
0.0000000000
10
7.8993005136
20
40.6773589576
30
0.0000000000
10
7.6867629717
20
40.6773752913
30
0.0000000000
11
10.5689123652
21
43.8608532412
31
0.0000000000
11
10.5510600012
21
43.6525730968
31
0.0000000000
11
10.3553025568
21
42.7896128685
31
0.0000000000
11
9.9917416150
21
42.0375563252
31
0.0000000000
11
9.5032565242
21
41.4391930044
31
0.0000000000
11
8.9347240409
21
41.0134875116
31
0.0000000000
11
8.3189452161
21
40.7604142750
31
0.0000000000
11
7.6867629717
21
40.6773752913
31
0.0000000000
0
SPLINE
5
33F
100
AcDbEntity
8
0
100
AcDbSpline
62
0
6
CONTINUOUS
70
0
71
3
72
11
73
7
74
5
42
0.0000001000
43
0.0000001000
44
0.0000000001
12
0.0000000000
22
-0.7863923371
32
0.0000000000
13
0.7863923371
23
-0.0000000000
33
0.0000000000
40
0.0000000000
40
0.0000000000
40
0.0000000000
40
0.0000000000
40
0.2531277344
40
0.5038481473
40
0.7531386493
40
1.0000000000
40
1.0000000000
40
1.0000000000
40
1.0000000000
10
-58.5132370283
20
-50.4834578723
30
0.0000000000
10
-58.5132370283
20
-50.5498104425
30
0.0000000000
10
-58.4871334591
20
-50.6833194083
30
0.0000000000
10
-58.3755921780
20
-50.8521171319
30
0.0000000000
10
-58.2094370057
20
-50.9648373948
30
0.0000000000
10
-58.0779469865
20
-50.9911711783
30
0.0000000000
10
-58.0132370283
20
-50.9911711783
30
0.0000000000
11
-58.5132370283
21
-50.4834578723
31
0.0000000000
11
-58.4747632306
21
-50.6787620941
31
0.0000000000
11
-58.3660311994
21
-50.8432346736
31
0.0000000000
11
-58.2035667601
21
-50.9529481307
31
0.0000000000
11
-58.0132370283
21
-50.9911711783
31
0.0000000000
0
SPLINE
5
340
100
AcDbEntity
8
0
100
AcDbSpline
62
0
6
CONTINUOUS
70
0
71
3
72
8
73
4
74
2
42
0.0000001000
43
0.0000001000
44
0.0000000001
12
0.0000000000
22
0.0767119289
32
0.0000000000
13
-0.0306150238
23
0.0719818295
33
0.0000000000
40
0.0000000000
40
0.0000000000
40
0.0000000000
40
0.0000000000
40
1.0000000000
40
1.0000000000
40
1.0000000000
40
1.0000000000
10
58.3867629717
20
33.6570614505
30
0.0000000000
10
58.3867629717
20
33.6826320934
30
0.0000000000
10
58.3810817671
20
33.7085234600
30
0.0000000000
10
58.3708767591
20
33.7325174032
30
0.0000000000
11
58.3867629717
21
33.6570614505
31
0.0000000000
11
58.3708767591
21
33.7325174032
31
0.0000000000
0
SPLINE
5
341
100
AcDbEntity
8
0
100
AcDbSpline
62
0
6
CONTINUOUS
70
0
71
3
72
10
73
6
74
4
42
0.0000001000
43
0.0000001000
44
0.0000000001
12
-0.1141701445
22
0.2684360435
32
0.0000000000
13
-0.2860756225
23
0.0000000000
33
0.0000000000
40
0.0000000000
40
0.0000000000
40
0.0000000000
40
0.0000000000
40
0.1282539665
40
0.5515463969
40
1.0000000000
40
1.0000000000
40
1.0000000000
40
1.0000000000
10
58.3708767591
20
33.7325174032
30
0.0000000000
10
58.3659958345
20
33.7439933990
30
0.0000000000
10
58.3405554580
20
33.7914784356
30
0.0000000000
10
58.2639766446
20
33.8548811928
30
0.0000000000
10
58.1795268529
20
33.8736997716
30
0.0000000000
10
58.1367629717
20
33.8736997716
30
0.0000000000
11
58.3708767591
21
33.7325174032
31
0.0000000000
11
58.3532560419
21
33.7654005419
31
0.0000000000
11
58.2617319730
21
33.8446912463
31
0.0000000000
11
58.1367629717
21
33.8736997716
31
0.0000000000
0
SPLINE
5
342
100
AcDbEntity
8
0
100
AcDbSpline
62
0
6
CONTINUOUS
70
0
71
3
72
8
73
4
74
2
42
0.0000001000
43
0.0000001000
44
0.0000000001
12
-0.0093966513
22
-0.1329228397
32
0.0000000000
13
-0.0149678242
23
-0.1325433642
33
0.0000000000
40
0.0000000000
40
0.0000000000
40
0.0000000000
40
0.0000000000
40
1.0000000000
40
1.0000000000
40
1.0000000000
40
1.0000000000
10
-42.8263131771
20
26.5542039284
30
0.0000000000
10
-42.8294453942
20
26.5098963152
30
0.0000000000
10
-42.8335054773
20
26.4656282878
30
0.0000000000
10
-42.8384947520
20
26.4214471664
30
0.0000000000
11
-42.8263131771
21
26.5542039284
31
0.0000000000
11
-42.8384947520
21
26.4214471664
31
0.0000000000
0
SPLINE
5
343
100
AcDbEntity
8
0
100
AcDbSpline
62
0
6
CONTINUOUS
70
0
71
3
72
8
73
4
74
2
42
0.0000001000
43
0.0000001000
44
0.0000000001
12
-0.0136991761
22
-0.1213092078
32
0.0000000000
13
-0.0183723454
23
-0.1207635814
33
0.0000000000
40
0.0000000000
40
0.0000000000
40
0.0000000000
40
0.0000000000
40
1.0000000000
40
1.0000000000
40
1.0000000000
40
1.0000000000
10
-42.8384947520
20
26.4214471664
30
0.0000000000
10
-42.8430611441
20
26.3810107637
30
0.0000000000
10
-42.8484058895
20
26.3406471595
30
0.0000000000
10
-42.8545300047
20
26.3003926323
30
0.0000000000
11
-42.8384947520
21
26.4214471664
31
0.0000000000
11
-42.8545300047
21
26.3003926323
31
0.0000000000
0
SPLINE
5
344
100
AcDbEntity
8
0
100
AcDbSpline
62
0
6
CONTINUOUS
70
0
71
3
72
8
73
4
74
2
42
0.0000001000
43
0.0000001000
44
0.0000000001
12
-0.0238250150
22
-0.1566046185
32
0.0000000000
13
-0.0316954539
23
-0.1552666916
33
0.0000000000
40
0.0000000000
40
0.0000000000
40
0.0000000000
40
0.0000000000
40
1.0000000000
40
1.0000000000
40
1.0000000000
40
1.0000000000
10
-42.8545300047
20
26.3003926323
30
0.0000000000
10
-42.8624716763
20
26.2481910928
30
0.0000000000
10
-42.8717239797
20
26.1961729836
30
0.0000000000
10
-42.8822891310
20
26.1444174197
30
0.0000000000
11
-42.8545300047
21
26.3003926323
31
0.0000000000
11
-42.8822891310
21
26.1444174197
31
0.0000000000
0
SPLINE
5
345
100
AcDbEntity
8
0
100
AcDbSpline
62
0
6
CONTINUOUS
70
0
71
3
72
18
73
14
74
12
42
0.0000001000
43
0.0000001000
44
0.0000000001
12
-1.2904052807
22
-6.3213153292
32
0.0000000000
13
-1.3402745339
23
6.3112149793
33
0.0000000000
40
0.0000000000
40
0.0000000000
40
0.0000000000
40
0.0000000000
40
0.0366853009
40
0.1568082637
40
0.2663783661
40
0.3655129341
40
0.4574041446
40
0.5468085957
40
0.6387454446
40
0.7377772452
40
0.8470123579
40
0.9668605633
40
1.0000000000
40
1.0000000000
40
1.0000000000
40
1.0000000000
10
-42.8822891310
20
26.1444174197
30
0.0000000000
10
-42.8980687663
20
26.0671176348
30
0.0000000000
10
-42.9780354696
20
25.7392095034
30
0.0000000000
10
-43.2050033829
20
25.2085332351
30
0.0000000000
10
-43.6506398148
20
24.6509743358
30
0.0000000000
10
-44.1859636358
20
24.2764653023
30
0.0000000000
10
-44.7671798297
20
24.0905322367
30
0.0000000000
10
-45.3620441043
20
24.0909519614
30
0.0000000000
10
-45.9428785290
20
24.2776820002
30
0.0000000000
10
-46.4770346501
20
24.6523168380
30
0.0000000000
10
-46.9214277936
20
25.2088090960
30
0.0000000000
10
-47.1449899767
20
25.7311116872
30
0.0000000000
10
-47.2243741412
20
26.0506474540
30
0.0000000000
10
-47.2391794556
20
26.1203641571
30
0.0000000000
11
-42.8822891310
21
26.1444174197
31
0.0000000000
11
-42.9384211571
21
25.9145386365
31
0.0000000000
11
-43.2456050035
21
25.2061422107
31
0.0000000000
11
-43.6892674469
21
24.6591490275
31
0.0000000000
11
-44.2138708026
21
24.2974272040
31
0.0000000000
11
-44.7772032774
21
24.1198360628
31
0.0000000000
11
-45.3518810517
21
24.1202365316
31
0.0000000000
11
-45.9152413094
21
24.2987132696
31
0.0000000000
11
-46.4388698002
21
24.6606844503
31
0.0000000000
11
-46.8809154273
21
25.2062164150
31
0.0000000000
11
-47.1875872458
21
25.9129098462
31
0.0000000000
11
-47.2391794556
21
26.1203641571
31
0.0000000000
0
SPLINE
5
346
100
AcDbEntity
8
0
100
AcDbSpline
62
0
6
CONTINUOUS
70
0
71
3
72
8
73
4
74
2
42
0.0000001000
43
0.0000001000
44
0.0000000001
12
-0.0374919093
22
0.1765455461
32
0.0000000000
13
-0.0272808668
23
0.1783339304
33
0.0000000000
40
0.0000000000
40
0.0000000000
40
0.0000000000
40
0.0000000000
40
1.0000000000
40
1.0000000000
40
1.0000000000
40
1.0000000000
10
-47.2391794556
20
26.1203641571
30
0.0000000000
10
-47.2516767587
20
26.1792126724
30
0.0000000000
10
-47.2624707844
20
26.2384177502
30
0.0000000000
10
-47.2715644067
20
26.2978623937
30
0.0000000000
11
-47.2391794556
21
26.1203641571
31
0.0000000000
11
-47.2715644067
21
26.2978623937
31
0.0000000000
0
SPLINE
5
347
100
AcDbEntity
8
0
100
AcDbSpline
62
0
6
CONTINUOUS
70
0
71
3
72
8
73
4
74
2
42
0.0000001000
43
0.0000001000
44
0.0000000001
12
-0.0219256578
22
0.1433271443
32
0.0000000000
13
-0.0153400314
23
0.1440733951
33
0.0000000000
40
0.0000000000
40
0.0000000000
40
0.0000000000
40
0.0000000000
40
1.0000000000
40
1.0000000000
40
1.0000000000
40
1.0000000000
10
-47.2715644067
20
26.2978623937
30
0.0000000000
10
-47.2788729593
20
26.3456381085
30
0.0000000000
10
-47.2850831615
20
26.3935685671
30
0.0000000000
10
-47.2901965053
20
26.4415930322
30
0.0000000000
11
-47.2715644067
21
26.2978623937
31
0.0000000000
11
-47.2901965053
21
26.4415930322
31
0.0000000000
0
SPLINE
5
348
100
AcDbEntity
8
0
100
AcDbSpline
62
0
6
CONTINUOUS
70
0
71
3
72
8
73
4
74
2
42
0.0000001000
43
0.0000001000
44
0.0000000001
12
-0.0119464319
22
0.1122007486
32
0.0000000000
13
-0.0079571414
23
0.1124567698
33
0.0000000000
40
0.0000000000
40
0.0000000000
40
0.0000000000
40
0.0000000000
40
1.0000000000
40
1.0000000000
40
1.0000000000
40
1.0000000000
10
-47.2901965053
20
26.4415930322
30
0.0000000000
10
-47.2941786492
20
26.4789932817
30
0.0000000000
10
-47.2974955591
20
26.5164505452
30
0.0000000000
10
-47.3001479396
20
26.5539361351
30
0.0000000000
11
-47.2901965053
21
26.4415930322
31
0.0000000000
11
-47.3001479396
21
26.5539361351
31
0.0000000000
0
SPLINE
5
349
100
AcDbEntity
8
0
100
AcDbSpline
62
0
6
CONTINUOUS
70
0
71
3
72
8
73
4
74
2
42
0.0000001000
43
0.0000001000
44
0.0000000001
12
-0.0093966513
22
-0.1329228397
32
0.0000000000
13
-0.0149678242
23
-0.1325433642
33
0.0000000000
40
0.0000000000
40
0.0000000000
40
0.0000000000
40
0.0000000000
40
1.0000000000
40
1.0000000000
40
1.0000000000
40
1.0000000000
10
47.1736868229
20
26.5542039284
30
0.0000000000
10
47.1705546058
20
26.5098963152
30
0.0000000000
10
47.1664945227
20
26.4656282878
30
0.0000000000
10
47.1615052480
20
26.4214471664
30
0.0000000000
11
47.1736868229
21
26.5542039284
31
0.0000000000
11
47.1615052480
21
26.4214471664
31
0.0000000000
0
SPLINE
5
34A
100
AcDbEntity
8
0
100
AcDbSpline
62
0
6
CONTINUOUS
70
0
71
3
72
8
73
4
74
2
42
0.0000001000
43
0.0000001000
44
0.0000000001
12
-0.0136991761
22
-0.1213092078
32
0.0000000000
13
-0.0183723454
23
-0.1207635814
33
0.0000000000
40
0.0000000000
40
0.0000000000
40
0.0000000000
40
0.0000000000
40
1.0000000000
40
1.0000000000
40
1.0000000000
40
1.0000000000
10
47.1615052480
20
26.4214471664
30
0.0000000000
10
47.1569388559
20
26.3810107637
30
0.0000000000
10
47.1515941105
20
26.3406471595
30
0.0000000000
10
47.1454699953
20
26.3003926323
30
0.0000000000
11
47.1615052480
21
26.4214471664
31
0.0000000000
11
47.1454699953
21
26.3003926323
31
0.0000000000
0
SPLINE
5
34B
100
AcDbEntity
8
0
100
AcDbSpline
62
0
6
CONTINUOUS
70
0
71
3
72
8
73
4
74
2
42
0.0000001000
43
0.0000001000
44
0.0000000001
12
-0.0238250150
22
-0.1566046185
32
0.0000000000
13
-0.0316954539
23
-0.1552666916
33
0.0000000000
40
0.0000000000
40
0.0000000000
40
0.0000000000
40
0.0000000000
40
1.0000000000
40
1.0000000000
40
1.0000000000
40
1.0000000000
10
47.1454699953
20
26.3003926323
30
0.0000000000
10
47.1375283237
20
26.2481910928
30
0.0000000000
10
47.1282760203
20
26.1961729836
30
0.0000000000
10
47.1177108690
20
26.1444174197
30
0.0000000000
11
47.1454699953
21
26.3003926323
31
0.0000000000
11
47.1177108690
21
26.1444174197
31
0.0000000000
0
SPLINE
5
34C
100
AcDbEntity
8
0
100
AcDbSpline
62
0
6
CONTINUOUS
70
0
71
3
72
18
73
14
74
12
42
0.0000001000
43
0.0000001000
44
0.0000000001
12
-1.2904052807
22
-6.3213153292
32
0.0000000000
13
-1.3402745339
23
6.3112149793
33
0.0000000000
40
0.0000000000
40
0.0000000000
40
0.0000000000
40
0.0000000000
40
0.0366853009
40
0.1568082637
40
0.2663783661
40
0.3655129341
40
0.4574041446
40
0.5468085957
40
0.6387454446
40
0.7377772452
40
0.8470123579
40
0.9668605633
40
1.0000000000
40
1.0000000000
40
1.0000000000
40
1.0000000000
10
47.1177108690
20
26.1444174197
30
0.0000000000
10
47.1019312337
20
26.0671176348
30
0.0000000000
10
47.0219645304
20
25.7392095034
30
0.0000000000
10
46.7949966171
20
25.2085332351
30
0.0000000000
10
46.3493601852
20
24.6509743358
30
0.0000000000
10
45.8140363642
20
24.2764653023
30
0.0000000000
10
45.2328201703
20
24.0905322367
30
0.0000000000
10
44.6379558957
20
24.0909519614
30
0.0000000000
10
44.0571214710
20
24.2776820002
30
0.0000000000
10
43.5229653499
20
24.6523168380
30
0.0000000000
10
43.0785722064
20
25.2088090960
30
0.0000000000
10
42.8550100233
20
25.7311116872
30
0.0000000000
10
42.7756258588
20
26.0506474540
30
0.0000000000
10
42.7608205444
20
26.1203641571
30
0.0000000000
11
47.1177108690
21
26.1444174197
31
0.0000000000
11
47.0615788429
21
25.9145386365
31
0.0000000000
11
46.7543949965
21
25.2061422107
31
0.0000000000
11
46.3107325531
21
24.6591490275
31
0.0000000000
11
45.7861291974
21
24.2974272040
31
0.0000000000
11
45.2227967226
21
24.1198360628
31
0.0000000000
11
44.6481189483
21
24.1202365316
31
0.0000000000
11
44.0847586906
21
24.2987132696
31
0.0000000000
11
43.5611301998
21
24.6606844503
31
0.0000000000
11
43.1190845727
21
25.2062164150
31
0.0000000000
11
42.8124127542
21
25.9129098462
31
0.0000000000
11
42.7608205444
21
26.1203641571
31
0.0000000000
0
SPLINE
5
34D
100
AcDbEntity
8
0
100
AcDbSpline
62
0
6
CONTINUOUS
70
0
71
3
72
8
73
4
74
2
42
0.0000001000
43
0.0000001000
44
0.0000000001
12
-0.0374919093
22
0.1765455461
32
0.0000000000
13
-0.0272808668
23
0.1783339304
33
0.0000000000
40
0.0000000000
40
0.0000000000
40
0.0000000000
40
0.0000000000
40
1.0000000000
40
1.0000000000
40
1.0000000000
40
1.0000000000
10
42.7608205444
20
26.1203641571
30
0.0000000000
10
42.7483232413
20
26.1792126724
30
0.0000000000
10
42.7375292156
20
26.2384177502
30
0.0000000000
10
42.7284355933
20
26.2978623937
30
0.0000000000
11
42.7608205444
21
26.1203641571
31
0.0000000000
11
42.7284355933
21
26.2978623937
31
0.0000000000
0
SPLINE
5
34E
100
AcDbEntity
8
0
100
AcDbSpline
62
0
6
CONTINUOUS
70
0
71
3
72
8
73
4
74
2
42
0.0000001000
43
0.0000001000
44
0.0000000001
12
-0.0219256578
22
0.1433271443
32
0.0000000000
13
-0.0153400314
23
0.1440733951
33
0.0000000000
40
0.0000000000
40
0.0000000000
40
0.0000000000
40
0.0000000000
40
1.0000000000
40
1.0000000000
40
1.0000000000
40
1.0000000000
10
42.7284355933
20
26.2978623937
30
0.0000000000
10
42.7211270407
20
26.3456381085
30
0.0000000000
10
42.7149168385
20
26.3935685671
30
0.0000000000
10
42.7098034947
20
26.4415930322
30
0.0000000000
11
42.7284355933
21
26.2978623937
31
0.0000000000
11
42.7098034947
21
26.4415930322
31
0.0000000000
0
SPLINE
5
34F
100
AcDbEntity
8
0
100
AcDbSpline
62
0
6
CONTINUOUS
70
0
71
3
72
8
73
4
74
2
42
0.0000001000
43
0.0000001000
44
0.0000000001
12
-0.0119464319
22
0.1122007486
32
0.0000000000
13
-0.0079571414
23
0.1124567698
33
0.0000000000
40
0.0000000000
40
0.0000000000
40
0.0000000000
40
0.0000000000
40
1.0000000000
40
1.0000000000
40
1.0000000000
40
1.0000000000
10
42.7098034947
20
26.4415930322
30
0.0000000000
10
42.7058213508
20
26.4789932817
30
0.0000000000
10
42.7025044409
20
26.5164505452
30
0.0000000000
10
42.6998520604
20
26.5539361351
30
0.0000000000
11
42.7098034947
21
26.4415930322
31
0.0000000000
11
42.6998520604
21
26.5539361351
31
0.0000000000
0
SPLINE
5
350
100
AcDbEntity
8
0
100
AcDbSpline
62
0
6
CONTINUOUS
70
0
71
3
72
9
73
5
74
3
42
0.0000001000
43
0.0000001000
44
0.0000000001
12
0.0000000000
22
-0.9370155756
32
0.0000000000
13
-0.4272699658
23
-0.8364095864
33
0.0000000000
40
0.0000000000
40
0.0000000000
40
0.0000000000
40
0.0000000000
40
0.5583470175
40
1.0000000000
40
1.0000000000
40
1.0000000000
40
1.0000000000
10
4.1867629717
20
56.5531866031
30
0.0000000000
10
4.1867629717
20
56.3787933191
30
0.0000000000
10
4.1304378154
20
56.0659164002
30
0.0000000000
10
4.0094866942
20
55.7762445718
30
0.0000000000
10
3.9465850093
20
55.6531103090
30
0.0000000000
11
4.1867629717
21
56.5531866031
31
0.0000000000
11
4.1037177711
21
56.0366397493
31
0.0000000000
11
3.9465850093
21
55.6531103090
31
0.0000000000
0
SPLINE
5
351
100
AcDbEntity
8
0
100
AcDbSpline
62
0
6
CONTINUOUS
70
0
71
3
72
20
73
16
74
14
42
0.0000001000
43
0.0000001000
44
0.0000000001
12
-4.7920862436
22
-9.3808299054
32
0.0000000000
13
-0.0000000000
23
10.5091857819
33
0.0000000000
40
0.0000000000
40
0.0000000000
40
0.0000000000
40
0.0000000000
40
0.0214301429
40
0.0924097661
40
0.1700216707
40
0.2530863372
40
0.3474933439
40
0.4485377782
40
0.5502972554
40
0.6475362711
40
0.7340878004
40
0.8140390367
40
0.8866923408
40
0.9489585250
40
1.0000000000
40
1.0000000000
40
1.0000000000
40
1.0000000000
10
3.9465850093
20
55.6531103090
30
0.0000000000
10
3.9123533117
20
55.5860994673
30
0.0000000000
10
3.7526303760
20
55.3032696608
30
0.0000000000
10
3.3798926606
20
54.8330467166
30
0.0000000000
10
2.7579153397
20
54.3044427517
30
0.0000000000
10
1.9784012792
20
53.8575821515
30
0.0000000000
10
1.0488899788
20
53.5399120874
30
0.0000000000
10
0.0074907388
20
53.4122776651
30
0.0000000000
10
-1.0471877707
20
53.5110787695
30
0.0000000000
10
-2.0083459768
20
53.8131488450
30
0.0000000000
10
-2.8231690289
20
54.2601924123
30
0.0000000000
10
-3.4727932710
20
54.7972566527
30
0.0000000000
10
-3.9502013753
20
55.3865826409
30
0.0000000000
10
-4.2398663834
20
55.9767998310
30
0.0000000000
10
-4.3132370283
20
56.3743851555
30
0.0000000000
10
-4.3132370283
20
56.5531866031
30
0.0000000000
11
3.9465850093
21
55.6531103090
31
0.0000000000
11
3.8359673848
21
55.4563868283
31
0.0000000000
11
3.3777299226
21
54.8677935906
31
0.0000000000
11
2.7586470899
21
54.3367552968
31
0.0000000000
11
2.0021201721
21
53.9012156563
31
0.0000000000
11
1.0634473877
21
53.5799109473
31
0.0000000000
11
0.0094330505
21
53.4507823252
31
0.0000000000
11
-1.0553189478
21
53.5504784991
31
0.0000000000
11
-2.0300940815
21
53.8572340022
31
0.0000000000
11
-2.8267718128
21
54.2961547999
31
0.0000000000
11
-3.4719043052
21
54.8344648793
31
0.0000000000
11
-3.9472952033
21
55.4319404697
31
0.0000000000
11
-4.2262085403
21
56.0238892751
31
0.0000000000
11
-4.3132370283
21
56.5531866031
31
0.0000000000
0
SPLINE
5
352
100
AcDbEntity
8
0
100
AcDbSpline
62
0
6
CONTINUOUS
70
0
71
3
72
14
73
10
74
8
42
0.0000001000
43
0.0000001000
44
0.0000000001
12
-0.3094016083
22
5.1957929952
32
0.0000000000
13
5.1942276365
23
-0.0005941942
33
0.0000000000
40
0.0000000000
40
0.0000000000
40
0.0000000000
40
0.0000000000
40
0.1322148289
40
0.3024959753
40
0.4632109659
40
0.6120853307
40
0.7488967655
40
0.8771446103
40
1.0000000000
40
1.0000000000
40
1.0000000000
40
1.0000000000
10
4.8045722899
20
43.8615429597
30
0.0000000000
10
4.7909364630
20
44.0905299203
30
0.0000000000
10
4.8042788510
20
44.6170511517
30
0.0000000000
10
4.9808399881
20
45.4062873649
30
0.0000000000
10
5.3422337290
20
46.1625599704
30
0.0000000000
10
5.8325706200
20
46.7695264986
30
0.0000000000
10
6.4103030143
20
47.2061681985
30
0.0000000000
10
7.0372588663
20
47.4663341468
30
0.0000000000
10
7.4740500181
20
47.5241545771
30
0.0000000000
10
7.6867629717
20
47.5241302438
30
0.0000000000
11
4.8045722899
21
43.8615429597
31
0.0000000000
11
4.8220780084
21
44.5486695072
31
0.0000000000
11
5.0170686077
21
45.4113872143
31
0.0000000000
11
5.3799610134
21
46.1631743287
31
0.0000000000
11
5.8688846210
21
46.7622795148
31
0.0000000000
11
6.4378267028
21
47.1880723465
31
0.0000000000
11
7.0540483959
21
47.4411032815
31
0.0000000000
11
7.6867629717
21
47.5241302438
31
0.0000000000
0
SPLINE
5
353
100
AcDbEntity
8
0
100
AcDbSpline
62
0
6
CONTINUOUS
70
0
71
3
72
14
73
10
74
8
42
0.0000001000
43
0.0000001000
44
0.0000000001
12
-0.3094016083
22
5.1957929952
32
0.0000000000
13
5.1942276365
23
-0.0005941942
33
0.0000000000
40
0.0000000000
40
0.0000000000
40
0.0000000000
40
0.0000000000
40
0.1322148289
40
0.3024959753
40
0.4632109659
40
0.6120853307
40
0.7488967655
40
0.8771446103
40
1.0000000000
40
1.0000000000
40
1.0000000000
40
1.0000000000
10
-10.6954277101
20
43.8615429597
30
0.0000000000
10
-10.7090635370
20
44.0905299203
30
0.0000000000
10
-10.6957211490
20
44.6170511517
30
0.0000000000
10
-10.5191600119
20
45.4062873649
30
0.0000000000
10
-10.1577662710
20
46.1625599704
30
0.0000000000
10
-9.6674293800
20
46.7695264986
30
0.0000000000
10
-9.0896969857
20
47.2061681985
30
0.0000000000
10
-8.4627411337
20
47.4663341468
30
0.0000000000
10
-8.0259499819
20
47.5241545771
30
0.0000000000
10
-7.8132370283
20
47.5241302438
30
0.0000000000
11
-10.6954277101
21
43.8615429597
31
0.0000000000
11
-10.6779219916
21
44.5486695072
31
0.0000000000
11
-10.4829313923
21
45.4113872143
31
0.0000000000
11
-10.1200389866
21
46.1631743287
31
0.0000000000
11
-9.6311153790
21
46.7622795148
31
0.0000000000
11
-9.0621732972
21
47.1880723465
31
0.0000000000
11
-8.4459516041
21
47.4411032815
31
0.0000000000
11
-7.8132370283
21
47.5241302438
31
0.0000000000
0
SPLINE
5
354
100
AcDbEntity
8
0
100
AcDbSpline
62
0
6
CONTINUOUS
70
0
71
3
72
9
73
5
74
3
42
0.0000001000
43
0.0000001000
44
0.0000000001
12
-0.2110362771
22
0.0799779086
32
0.0000000000
13
-0.2305818333
23
0.0024028152
33
0.0000000000
40
0.0000000000
40
0.0000000000
40
0.0000000000
40
0.0000000000
40
0.7525665300
40
1.0000000000
40
1.0000000000
40
1.0000000000
40
1.0000000000
10
4.0022559432
20
55.7765564317
30
0.0000000000
10
3.9493163302
20
55.7966193307
30
0.0000000000
10
3.8692186223
20
55.8067113421
30
0.0000000000
10
3.7917899848
20
55.8091829962
30
0.0000000000
10
3.7727720971
20
55.8093811752
30
0.0000000000
11
4.0022559432
21
55.7765564317
31
0.0000000000
11
3.8302702671
21
55.8074933127
31
0.0000000000
11
3.7727720971
21
55.8093811752
31
0.0000000000
0
SPLINE
5
355
100
AcDbEntity
8
0
100
AcDbSpline
62
0
6
CONTINUOUS
70
0
71
3
72
9
73
5
74
3
42
0.0000001000
43
0.0000001000
44
0.0000000001
12
-0.2305016085
22
-0.0025426250
32
0.0000000000
13
-0.2127531881
23
-0.0802982868
33
0.0000000000
40
0.0000000000
40
0.0000000000
40
0.0000000000
40
0.0000000000
40
0.2903376125
40
1.0000000000
40
1.0000000000
40
1.0000000000
40
1.0000000000
10
-3.8984864222
20
55.8096246476
30
0.0000000000
10
-3.9207941844
20
55.8093785744
30
0.0000000000
10
-3.9982652158
20
55.8064485145
30
0.0000000000
10
-4.0783894266
20
55.7951725033
30
0.0000000000
10
-4.1287170718
20
55.7761776120
30
0.0000000000
11
-3.8984864222
21
55.8096246476
31
0.0000000000
11
-3.9660033452
21
55.8069736315
31
0.0000000000
11
-4.1287170718
21
55.7761776120
31
0.0000000000
0
SPLINE
5
356
100
AcDbEntity
8
0
100
AcDbSpline
62
0
6
CONTINUOUS
70
0
71
3
72
8
73
4
74
2
42
0.0000001000
43
0.0000001000
44
0.0000000001
12
0.0359014054
22
-0.0022827738
32
0.0000000000
13
0.0358770770
23
-0.0053559539
33
0.0000000000
40
0.0000000000
40
0.0000000000
40
0.0000000000
40
0.0000000000
40
1.0000000000
40
1.0000000000
40
1.0000000000
40
1.0000000000
10
-4.2196281969
20
57.8114084639
30
0.0000000000
10
-4.2076610618
20
57.8106475393
30
0.0000000000
10
-4.1955074106
20
57.8088781889
30
0.0000000000
10
-4.1835483849
20
57.8070928710
30
0.0000000000
11
-4.2196281969
21
57.8114084639
31
0.0000000000
11
-4.1835483849
21
57.8070928710
31
0.0000000000
0
SPLINE
5
357
100
AcDbEntity
8
0
100
AcDbSpline
62
0
6
CONTINUOUS
70
0
71
3
72
23
73
19
74
17
42
0.0000001000
43
0.0000001000
44
0.0000000001
12
8.7400948083
22
-1.3047758777
32
0.0000000000
13
8.4303956872
23
-0.0999764309
33
0.0000000000
40
0.0000000000
40
0.0000000000
40
0.0000000000
40
0.0000000000
40
0.0206634995
40
0.0512229331
40
0.0929022183
40
0.1473805734
40
0.2129781071
40
0.2872482373
40
0.3764610011
40
0.4831593205
40
0.5975697392
40
0.7061730054
40
0.7965188005
40
0.8668061876
40
0.9207140036
40
0.9614876994
40
0.9901209926
40
1.0000000000
40
1.0000000000
40
1.0000000000
40
1.0000000000
10
-4.1835483849
20
57.8070928710
30
0.0000000000
10
-4.1233480700
20
57.7981057924
30
0.0000000000
10
-3.9863424632
20
57.7748246286
30
0.0000000000
10
-3.7324047984
20
57.7035828058
30
0.0000000000
10
-3.3912516669
20
57.6085300030
30
0.0000000000
10
-2.9524308617
20
57.4908788166
30
0.0000000000
10
-2.4214216474
20
57.3674806270
30
0.0000000000
10
-1.7892368358
20
57.2502670612
30
0.0000000000
10
-1.0367313479
20
57.1555431022
30
0.0000000000
10
-0.1664082627
20
57.1102071874
30
0.0000000000
10
0.7592125913
20
57.1401969814
30
0.0000000000
10
1.6332921766
20
57.2425785791
30
0.0000000000
10
2.3757259801
20
57.3829136096
30
0.0000000000
10
2.9609656242
20
57.5260655127
30
0.0000000000
10
3.4065559979
20
57.6461812837
30
0.0000000000
10
3.7410789848
20
57.7464265730
30
0.0000000000
10
3.9540066235
20
57.7865070903
30
0.0000000000
10
4.0651105184
20
57.8152495744
30
0.0000000000
10
4.0928718323
20
57.8149203517
30
0.0000000000
11
-4.1835483849
21
57.8070928710
31
0.0000000000
11
-4.0123217915
21
57.7767188105
31
0.0000000000
11
-3.7633315419
21
57.7123263024
31
0.0000000000
11
-3.4253372195
21
57.6185423091
31
0.0000000000
11
-2.9821158175
21
57.5012500950
31
0.0000000000
11
-2.4442754648
21
57.3767796421
31
0.0000000000
11
-1.8296122381
21
57.2633475907
31
0.0000000000
11
-1.0846438975
21
57.1699813119
31
0.0000000000
11
-0.1878945434
21
57.1235392424
31
0.0000000000
11
0.7744601084
21
57.1545633639
31
0.0000000000
11
1.6823322275
21
57.2600752589
31
0.0000000000
11
2.4295297248
21
57.4007882252
31
0.0000000000
11
3.0045804073
21
57.5394158369
31
0.0000000000
11
3.4423910871
21
57.6583474610
31
0.0000000000
11
3.7733616147
21
57.7489325840
31
0.0000000000
11
4.0086158697
21
57.8011140004
31
0.0000000000
11
4.0928718323
21
57.8149203517
31
0.0000000000
0
SPLINE
5
358
100
AcDbEntity
8
0
100
AcDbSpline
62
0
6
CONTINUOUS
70
0
71
3
72
14
73
10
74
8
42
0.0000001000
43
0.0000001000
44
0.0000000001
12
-4.7140976533
22
0.0007914087
32
0.0000000000
13
-0.2825630308
23
4.7154144737
33
0.0000000000
40
0.0000000000
40
0.0000000000
40
0.0000000000
40
0.0000000000
40
0.1347079033
40
0.2759011615
40
0.4263108158
40
0.5899721504
40
0.7670182415
40
0.9546545133
40
1.0000000000
40
1.0000000000
40
1.0000000000
40
1.0000000000
10
-7.8132370283
20
40.6773752913
30
0.0000000000
10
-8.0249124319
20
40.6774108276
30
0.0000000000
10
-8.4604621918
20
40.7347918964
30
0.0000000000
10
-9.0859766002
20
40.9939029240
30
0.0000000000
10
-9.6630135769
20
41.4292131276
30
0.0000000000
10
-10.1534987689
20
42.0344738879
30
0.0000000000
10
-10.5161446688
20
42.7894214368
30
0.0000000000
10
-10.6594317561
20
43.4231314455
30
0.0000000000
10
-10.6910665928
20
43.7887598755
30
0.0000000000
10
-10.6953375789
20
43.8600341302
30
0.0000000000
11
-7.8132370283
21
40.6773752913
31
0.0000000000
11
-8.4428991707
21
40.7597396412
31
0.0000000000
11
-9.0587944984
21
41.0121177898
31
0.0000000000
11
-9.6268578754
21
41.4364407306
31
0.0000000000
11
-10.1155770558
21
42.0334246223
31
0.0000000000
11
-10.4799161953
21
42.7843141885
31
0.0000000000
11
-10.6768665349
21
43.6466447549
31
0.0000000000
11
-10.6953375789
21
43.8600341302
31
0.0000000000
0
SPLINE
5
359
100
AcDbEntity
8
0
100
AcDbSpline
62
0
6
CONTINUOUS
70
0
71
3
72
14
73
10
74
8
42
0.0000001000
43
0.0000001000
44
0.0000000001
12
5.1943172425
22
-0.0006723327
32
0.0000000000
13
-0.3094919712
23
-5.1958992687
33
0.0000000000
40
0.0000000000
40
0.0000000000
40
0.0000000000
40
0.0000000000
40
0.1212061794
40
0.2496128641
40
0.3862780281
40
0.5351910591
40
0.6959643814
40
0.8664618387
40
1.0000000000
40
1.0000000000
40
1.0000000000
40
1.0000000000
10
-7.8132370283
20
47.5241302438
30
0.0000000000
10
-7.6033759125
20
47.5241030802
30
0.0000000000
10
-7.1692338578
20
47.4675121576
30
0.0000000000
10
-6.5440297973
20
47.2103725150
30
0.0000000000
10
-5.9649887368
20
46.7753193325
30
0.0000000000
10
-5.4731090383
20
46.1696558974
30
0.0000000000
10
-5.1097805603
20
45.4136680590
30
0.0000000000
10
-4.9311238386
20
44.6220021821
30
0.0000000000
10
-4.9172739462
20
44.0927632355
30
0.0000000000
10
-4.9310502758
20
43.8614796239
30
0.0000000000
11
-7.8132370283
21
47.5241302438
31
0.0000000000
11
-7.1888628354
21
47.4433090500
31
0.0000000000
11
-6.5710706986
21
47.1919090720
31
0.0000000000
11
-6.0015246119
21
46.7681756339
31
0.0000000000
11
-5.5109083146
21
46.1701787550
31
0.0000000000
11
-5.1461860560
21
45.4189248323
31
0.0000000000
11
-4.9493123981
21
44.5554667793
31
0.0000000000
11
-4.9310502758
21
43.8614796239
31
0.0000000000
0
SPLINE
5
35A
100
AcDbEntity
8
0
100
AcDbSpline
62
0
6
CONTINUOUS
70
0
71
3
72
14
73
10
74
8
42
0.0000001000
43
0.0000001000
44
0.0000000001
12
-4.7140976533
22
0.0007914087
32
0.0000000000
13
-0.2825630308
23
4.7154144737
33
0.0000000000
40
0.0000000000
40
0.0000000000
40
0.0000000000
40
0.0000000000
40
0.1347079033
40
0.2759011615
40
0.4263108158
40
0.5899721504
40
0.7670182415
40
0.9546545133
40
1.0000000000
40
1.0000000000
40
1.0000000000
40
1.0000000000
10
7.6867629717
20
40.6773752913
30
0.0000000000
10
7.4750875681
20
40.6774108276
30
0.0000000000
10
7.0395378082
20
40.7347918964
30
0.0000000000
10
6.4140233998
20
40.9939029240
30
0.0000000000
10
5.8369864231
20
41.4292131276
30
0.0000000000
10
5.3465012311
20
42.0344738879
30
0.0000000000
10
4.9838553312
20
42.7894214368
30
0.0000000000
10
4.8405682439
20
43.4231314455
30
0.0000000000
10
4.8089334072
20
43.7887598755
30
0.0000000000
10
4.8046624211
20
43.8600341302
30
0.0000000000
11
7.6867629717
21
40.6773752913
31
0.0000000000
11
7.0571008293
21
40.7597396412
31
0.0000000000
11
6.4412055016
21
41.0121177898
31
0.0000000000
11
5.8731421246
21
41.4364407306
31
0.0000000000
11
5.3844229442
21
42.0334246223
31
0.0000000000
11
5.0200838047
21
42.7843141885
31
0.0000000000
11
4.8231334651
21
43.6466447549
31
0.0000000000
11
4.8046624211
21
43.8600341302
31
0.0000000000
0
SPLINE
5
35B
100
AcDbEntity
8
0
100
AcDbSpline
62
0
6
CONTINUOUS
70
0
71
3
72
14
73
10
74
8
42
0.0000001000
43
0.0000001000
44
0.0000000001
12
5.1943172425
22
-0.0006723327
32
0.0000000000
13
-0.3094919712
23
-5.1958992687
33
0.0000000000
40
0.0000000000
40
0.0000000000
40
0.0000000000
40
0.0000000000
40
0.1212061794
40
0.2496128641
40
0.3862780281
40
0.5351910591
40
0.6959643814
40
0.8664618387
40
1.0000000000
40
1.0000000000
40
1.0000000000
40
1.0000000000
10
7.6867629717
20
47.5241302438
30
0.0000000000
10
7.8966240875
20
47.5241030802
30
0.0000000000
10
8.3307661422
20
47.4675121576
30
0.0000000000
10
8.9559702027
20
47.2103725150
30
0.0000000000
10
9.5350112632
20
46.7753193325
30
0.0000000000
10
10.0268909617
20
46.1696558974
30
0.0000000000
10
10.3902194397
20
45.4136680590
30
0.0000000000
10
10.5688761614
20
44.6220021821
30
0.0000000000
10
10.5827260538
20
44.0927632355
30
0.0000000000
10
10.5689497242
20
43.8614796239
30
0.0000000000
11
7.6867629717
21
47.5241302438
31
0.0000000000
11
8.3111371646
21
47.4433090500
31
0.0000000000
11
8.9289293014
21
47.1919090720
31
0.0000000000
11
9.4984753881
21
46.7681756339
31
0.0000000000
11
9.9890916854
21
46.1701787550
31
0.0000000000
11
10.3538139439
21
45.4189248323
31
0.0000000000
11
10.5506876019
21
44.5554667793
31
0.0000000000
11
10.5689497242
21
43.8614796239
31
0.0000000000
0
SPLINE
5
35C
100
AcDbEntity
8
0
100
AcDbSpline
62
0
6
CONTINUOUS
70
0
71
3
72
11
73
7
74
5
42
0.0000001000
43
0.0000001000
44
0.0000000001
12
0.7863923371
22
0.0000000000
32
0.0000000000
13
-0.0000000000
23
0.7863923371
33
0.0000000000
40
0.0000000000
40
0.0000000000
40
0.0000000000
40
0.0000000000
40
0.2468613507
40
0.4961518527
40
0.7468722656
40
1.0000000000
40
1.0000000000
40
1.0000000000
40
1.0000000000
10
57.8867629717
20
-50.9911711783
30
0.0000000000
10
57.9514729299
20
-50.9911711783
30
0.0000000000
10
58.0829629491
20
-50.9648373948
30
0.0000000000
10
58.2491181214
20
-50.8521171319
30
0.0000000000
10
58.3606594025
20
-50.6833194083
30
0.0000000000
10
58.3867629717
20
-50.5498104425
30
0.0000000000
10
58.3867629717
20
-50.4834578723
30
0.0000000000
11
57.8867629717
21
-50.9911711783
31
0.0000000000
11
58.0770927035
21
-50.9529481307
31
0.0000000000
11
58.2395571428
21
-50.8432346736
31
0.0000000000
11
58.3482891740
21
-50.6787620941
31
0.0000000000
11
58.3867629717
21
-50.4834578723
31
0.0000000000
0
SPLINE
5
35D
100
AcDbEntity
8
0
100
AcDbSpline
62
0
6
CONTINUOUS
70
0
71
3
72
10
73
6
74
4
42
0.0000001000
43
0.0000001000
44
0.0000000001
12
-0.3627875514
22
0.0000000000
32
0.0000000000
13
0.0000000000
23
-0.3627875514
33
0.0000000000
40
0.0000000000
40
0.0000000000
40
0.0000000000
40
0.0000000000
40
0.3536274693
40
0.6874141306
40
1.0000000000
40
1.0000000000
40
1.0000000000
40
1.0000000000
10
-58.2632370283
20
33.8736997716
30
0.0000000000
10
-58.3060009095
20
33.8736997716
30
0.0000000000
10
-58.3904507012
20
33.8548811928
30
0.0000000000
10
-58.4875643243
20
33.7744768199
30
0.0000000000
10
-58.5132370283
20
33.6948622045
30
0.0000000000
10
-58.5132370283
20
33.6570614505
30
0.0000000000
11
-58.2632370283
21
33.8736997716
31
0.0000000000
11
-58.3882060296
21
33.8446912463
31
0.0000000000
11
-58.4797300985
21
33.7654005419
31
0.0000000000
11
-58.5132370283
21
33.6570614505
31
0.0000000000
0
SPLINE
5
35E
100
AcDbEntity
8
0
100
AcDbSpline
62
0
6
CONTINUOUS
70
0
71
3
72
11
73
7
74
5
42
0.0000001000
43
0.0000001000
44
0.0000000001
12
3.4325066070
22
0.0001046375
32
0.0000000000
13
-3.4325066086
23
-0.0000307343
33
0.0000000000
40
0.0000000000
40
0.0000000000
40
0.0000000000
40
0.0000000000
40
0.2499912529
40
0.4999931286
40
0.7499950042
40
1.0000000000
40
1.0000000000
40
1.0000000000
40
1.0000000000
10
15.8823634344
20
-32.6000264472
30
0.0000000000
10
16.1683956435
20
-32.6000177277
30
0.0000000000
10
16.7404650966
20
-32.3947965583
30
0.0000000000
10
17.0959104265
20
-31.6516420281
30
0.0000000000
10
16.7404585834
20
-30.9084738803
30
0.0000000000
10
16.1683641953
20
-30.7032550472
30
0.0000000000
10
15.8823162619
20
-30.7032576084
30
0.0000000000
11
15.8823634344
21
-32.6000264472
31
0.0000000000
11
16.6566796078
21
-32.3222510824
31
0.0000000000
11
16.9774269717
21
-31.6516420281
31
0.0000000000
11
16.6566796078
21
-30.9810329738
31
0.0000000000
11
15.8823162619
21
-30.7032576084
31
0.0000000000
0
SPLINE
5
35F
100
AcDbEntity
8
0
100
AcDbSpline
62
0
6
CONTINUOUS
70
0
71
3
72
15
73
11
74
9
42
0.0000001000
43
0.0000001000
44
0.0000000001
12
6.9429849406
22
2.5328467368
32
0.0000000000
13
-7.5338480891
23
0.0000990420
33
0.0000000000
40
0.0000000000
40
0.0000000000
40
0.0000000000
40
0.0000000000
40
0.1250002420
40
0.2500010051
40
0.3750017682
40
0.5000025313
40
0.6250032944
40
0.7500040575
40
0.8750048207
40
1.0000000000
40
1.0000000000
40
1.0000000000
40
1.0000000000
10
17.2036875899
20
-33.8545538579
30
0.0000000000
10
17.4929791891
20
-33.7490183729
30
0.0000000000
10
18.0340107279
20
-33.4490088339
30
0.0000000000
10
18.6203468590
20
-32.7911598502
30
0.0000000000
10
18.9180685766
20
-32.0002868972
30
0.0000000000
10
18.8911925041
20
-31.1689287844
30
0.0000000000
10
18.5432962073
20
-30.3937357896
30
0.0000000000
10
17.9144071485
20
-29.7649809827
30
0.0000000000
10
17.0791793648
20
-29.3558537474
30
0.0000000000
10
16.4461112700
20
-29.2612633781
30
0.0000000000
10
16.1322130390
20
-29.2612592515
30
0.0000000000
11
17.2036875899
21
-33.8545538579
31
0.0000000000
11
17.9964744925
21
-33.4143705673
31
0.0000000000
11
18.5722443210
21
-32.7689893410
31
0.0000000000
11
18.8639689449
21
-31.9935393706
31
0.0000000000
11
18.8376891334
21
-31.1782896374
31
0.0000000000
11
18.4964640803
21
-30.4181421543
31
0.0000000000
11
17.8800152882
21
-29.8015845626
31
0.0000000000
11
17.0601026470
21
-29.4003894176
31
0.0000000000
11
16.1322130390
21
-29.2612592515
31
0.0000000000
0
SPLINE
5
360
100
AcDbEntity
8
0
100
AcDbSpline
62
0
6
CONTINUOUS
70
0
71
3
72
14
73
10
74
8
42
0.0000001000
43
0.0000001000
44
0.0000000001
12
2.1133709579
22
1.2615744282
32
0.0000000000
13
2.3971763421
23
-0.5580779463
33
0.0000000000
40
0.0000000000
40
0.0000000000
40
0.0000000000
40
0.0000000000
40
0.1241666377
40
0.2425642672
40
0.3598264877
40
0.4794634832
40
0.6060086971
40
0.7364971109
40
1.0000000000
40
1.0000000000
40
1.0000000000
40
1.0000000000
10
9.5292065061
20
28.1081096206
30
0.0000000000
10
9.6166765615
20
28.1603247722
30
0.0000000000
10
9.7790396297
20
28.2870781245
30
0.0000000000
10
9.9068664609
20
28.5595231434
30
0.0000000000
10
9.9991942355
20
28.8340807202
30
0.0000000000
10
10.1635046379
20
29.0939942037
30
0.0000000000
10
10.4402495365
20
29.2488075627
30
0.0000000000
10
10.8426340408
20
29.3888573867
30
0.0000000000
10
11.1815498074
20
29.3976872625
30
0.0000000000
10
11.3921041047
20
29.3486688788
30
0.0000000000
11
9.5292065061
21
28.1081096206
31
0.0000000000
11
9.7629360518
21
28.3050039564
31
0.0000000000
11
9.9015959371
21
28.5613107059
31
0.0000000000
11
10.0097348752
21
28.8289013779
31
0.0000000000
11
10.1768130460
21
29.0713714864
31
0.0000000000
11
10.4397389238
21
29.2383427809
31
0.0000000000
11
10.7435795746
21
29.3424109724
31
0.0000000000
11
11.3921041047
21
29.3486688788
31
0.0000000000
0
SPLINE
5
361
100
AcDbEntity
8
0
100
AcDbSpline
62
0
6
CONTINUOUS
70
0
71
3
72
11
73
7
74
5
42
0.0000001000
43
0.0000001000
44
0.0000000001
12
-2.0996279732
22
-0.0086832024
32
0.0000000000
13
-0.5430701072
23
-1.7567553118
33
0.0000000000
40
0.0000000000
40
0.0000000000
40
0.0000000000
40
0.0000000000
40
0.2975071150
40
0.5986304375
40
0.8997537600
40
1.0000000000
40
1.0000000000
40
1.0000000000
40
1.0000000000
10
8.9625442259
20
30.1015544342
30
0.0000000000
10
8.7543261389
20
30.1006933294
30
0.0000000000
10
8.3357374654
20
30.0277191860
30
0.0000000000
10
7.8018841113
20
29.7187997777
30
0.0000000000
10
7.5233792230
20
29.3578299791
30
0.0000000000
10
7.4330647075
20
29.1269065005
30
0.0000000000
10
7.4149177953
20
29.0682037956
30
0.0000000000
11
8.9625442259
21
30.1015544342
31
0.0000000000
11
8.3539255669
21
29.9954196109
31
0.0000000000
11
7.8315267626
21
29.6931284887
31
0.0000000000
11
7.4824710410
21
29.2407178532
31
0.0000000000
11
7.4149177953
21
29.0682037956
31
0.0000000000
0
SPLINE
5
362
100
AcDbEntity
8
0
100
AcDbSpline
62
0
6
CONTINUOUS
70
0
71
3
72
10
73
6
74
4
42
0.0000001000
43
0.0000001000
44
0.0000000001
12
-0.1661213966
22
1.7011553788
32
0.0000000000
13
-1.8462325144
23
0.5984948884
33
0.0000000000
40
0.0000000000
40
0.0000000000
40
0.0000000000
40
0.0000000000
40
0.3333334663
40
0.6666669326
40
1.0000000000
40
1.0000000000
40
1.0000000000
40
1.0000000000
10
13.9991659717
20
28.8031633635
30
0.0000000000
10
13.9807080314
20
28.9921807033
30
0.0000000000
10
13.8597149099
20
29.3679510770
30
0.0000000000
10
13.4541389915
20
29.8314293620
30
0.0000000000
10
13.0691166376
20
30.0339164472
30
0.0000000000
10
12.8639798553
20
30.1004158262
30
0.0000000000
11
13.9991659717
21
28.8031633635
31
0.0000000000
11
13.8223671769
21
29.3512548952
31
0.0000000000
11
13.4254791799
21
29.8048049209
31
0.0000000000
11
12.8639798553
21
30.1004158262
31
0.0000000000
0
SPLINE
5
363
100
AcDbEntity
8
0
100
AcDbSpline
62
0
6
CONTINUOUS
70
0
71
3
72
11
73
7
74
5
42
0.0000001000
43
0.0000001000
44
0.0000000001
12
-0.6134872555
22
-2.0462264695
32
0.0000000000
13
2.4411262347
23
-0.0000197231
33
0.0000000000
40
0.0000000000
40
0.0000000000
40
0.0000000000
40
0.0000000000
40
0.2500012461
40
0.5000024922
40
0.7500037383
40
1.0000000000
40
1.0000000000
40
1.0000000000
40
1.0000000000
10
5.9753919717
20
24.2605457535
30
0.0000000000
10
5.9242677789
20
24.0900260311
30
0.0000000000
10
5.9126496237
20
23.7232489993
30
0.0000000000
10
6.1767289882
20
23.2268002776
30
0.0000000000
10
6.6652106790
20
22.8806788775
30
0.0000000000
10
7.0780506598
20
22.7982409535
30
0.0000000000
10
7.2814748041
20
22.7982393099
30
0.0000000000
11
5.9753919717
21
24.2605457535
31
0.0000000000
11
5.9595673899
21
23.7322018036
31
0.0000000000
11
6.2141299170
21
23.2518544478
31
0.0000000000
11
6.6870110106
21
22.9177545438
31
0.0000000000
11
7.2814748041
21
22.7982393099
31
0.0000000000
0
SPLINE
5
364
100
AcDbEntity
8
0
100
AcDbSpline
62
0
6
CONTINUOUS
70
0
71
3
72
10
73
6
74
4
42
0.0000001000
43
0.0000001000
44
0.0000000001
12
-0.0931037608
22
-1.4233322960
32
0.0000000000
13
1.6198601510
23
-0.2538029143
33
0.0000000000
40
0.0000000000
40
0.0000000000
40
0.0000000000
40
0.0000000000
40
0.3333333694
40
0.6666667388
40
1.0000000000
40
1.0000000000
40
1.0000000000
40
1.0000000000
10
8.6972809717
20
24.5348437117
30
0.0000000000
10
8.6869361083
20
24.3766956617
30
0.0000000000
10
8.7569045589
20
24.0507214592
30
0.0000000000
10
9.1091160346
20
23.6638187558
30
0.0000000000
10
9.4587919524
20
23.5288154482
30
0.0000000000
10
9.6387763746
20
23.5006151304
30
0.0000000000
11
8.6972809717
21
24.5348437117
31
0.0000000000
11
8.7981143652
21
24.0677312189
31
0.0000000000
11
9.1378331520
21
23.6945516774
31
0.0000000000
11
9.6387763746
21
23.5006151304
31
0.0000000000
0
SPLINE
5
365
100
AcDbEntity
8
0
100
AcDbSpline
62
0
6
CONTINUOUS
70
0
71
3
72
10
73
6
74
4
42
0.0000001000
43
0.0000001000
44
0.0000000001
12
-1.5721034264
22
0.3981879299
32
0.0000000000
13
-0.8264890193
23
-1.2246926938
33
0.0000000000
40
0.0000000000
40
0.0000000000
40
0.0000000000
40
0.0000000000
40
0.3333330895
40
0.6666661789
40
1.0000000000
40
1.0000000000
40
1.0000000000
40
1.0000000000
10
3.5685329717
20
29.3136411718
30
0.0000000000
10
3.3938549410
20
29.3578842427
30
0.0000000000
10
3.0164268750
20
29.3789098009
30
0.0000000000
10
2.4935968929
20
29.1987537786
30
0.0000000000
10
2.2360180607
20
28.9589181021
30
0.0000000000
10
2.1441858131
20
28.8228409370
30
0.0000000000
11
3.5685329717
21
29.3136411718
31
0.0000000000
11
3.0236456249
21
29.3436274296
31
0.0000000000
11
2.5163408797
21
29.1688210716
31
0.0000000000
11
2.1441858131
21
28.8228409370
31
0.0000000000
0
SPLINE
5
366
100
AcDbEntity
8
0
100
AcDbSpline
62
0
6
CONTINUOUS
70
0
71
3
72
10
73
6
74
4
42
0.0000001000
43
0.0000001000
44
0.0000000001
12
0.2019379419
22
-1.6393882622
32
0.0000000000
13
1.8166675489
23
-0.4929173214
33
0.0000000000
40
0.0000000000
40
0.0000000000
40
0.0000000000
40
0.0000000000
40
0.3333334751
40
0.6666669502
40
1.0000000000
40
1.0000000000
40
1.0000000000
40
1.0000000000
10
-1.8761320283
20
24.0103657368
30
0.0000000000
10
-1.8536944697
20
23.8282114079
30
0.0000000000
10
-1.7252470595
20
23.4676426496
30
0.0000000000
10
-1.3135762156
20
23.0327842249
30
0.0000000000
10
-0.9304926942
20
22.8530095107
30
0.0000000000
10
-0.7286409160
20
22.7982409661
30
0.0000000000
11
-1.8761320283
21
24.0103657368
31
0.0000000000
11
-1.6887470755
21
23.4853084042
31
0.0000000000
11
-1.2864169183
21
23.0603167852
31
0.0000000000
11
-0.7286409160
21
22.7982409661
31
0.0000000000
0
SPLINE
5
367
100
AcDbEntity
8
0
100
AcDbSpline
62
0
6
CONTINUOUS
70
0
71
3
72
9
73
5
74
3
42
0.0000001000
43
0.0000001000
44
0.0000000001
12
-1.6325245770
22
-0.2527502480
32
0.0000000000
13
-0.7971801669
23
-1.4469016359
33
0.0000000000
40
0.0000000000
40
0.0000000000
40
0.0000000000
40
0.0000000000
40
0.2629381180
40
1.0000000000
40
1.0000000000
40
1.0000000000
40
1.0000000000
10
1.2413960542
20
30.1004157252
30
0.0000000000
10
1.0983117409
20
30.0782631670
30
0.0000000000
10
0.5678742425
20
30.0010106730
30
0.0000000000
10
-0.0540468451
20
29.7899783628
30
0.0000000000
10
-0.2499038831
20
29.4344930152
30
0.0000000000
11
1.2413960542
21
30.1004157252
31
0.0000000000
11
0.8130424149
21
30.0283888541
31
0.0000000000
11
-0.2499038831
21
29.4344930152
31
0.0000000000
0
SPLINE
5
368
100
AcDbEntity
8
0
100
AcDbSpline
62
0
6
CONTINUOUS
70
0
71
3
72
11
73
7
74
5
42
0.0000001000
43
0.0000001000
44
0.0000000001
12
0.6856390952
22
2.2386653972
32
0.0000000000
13
-2.6743705591
23
-0.0000173563
33
0.0000000000
40
0.0000000000
40
0.0000000000
40
0.0000000000
40
0.0000000000
40
0.2499990021
40
0.4999980042
40
0.7499970063
40
1.0000000000
40
1.0000000000
40
1.0000000000
40
1.0000000000
10
5.9805339717
20
28.4964396822
30
0.0000000000
10
6.0376703349
20
28.6829943873
30
0.0000000000
10
6.0525313075
20
29.0848507108
30
0.0000000000
10
5.7652146411
20
29.6296491683
30
0.0000000000
10
5.2308184905
20
30.0098305638
30
0.0000000000
10
4.7784891786
20
30.1004156184
30
0.0000000000
10
4.5556222965
20
30.1004141720
30
0.0000000000
11
5.9805339717
21
28.4964396822
31
0.0000000000
11
6.0009299533
21
29.0751863728
31
0.0000000000
11
5.7240352011
21
29.6022126540
31
0.0000000000
11
5.2068056523
21
29.9691117196
31
0.0000000000
11
4.5556222965
21
30.1004141720
31
0.0000000000
0
SPLINE
5
369
100
AcDbEntity
8
0
100
AcDbSpline
62
0
6
CONTINUOUS
70
0
71
3
72
19
73
15
74
13
42
0.0000001000
43
0.0000001000
44
0.0000000001
12
-1.0728498541
22
-1.9358604434
32
0.0000000000
13
0.4371571429
23
2.1959661111
33
0.0000000000
40
0.0000000000
40
0.0000000000
40
0.0000000000
40
0.0000000000
40
0.0661155085
40
0.1337949404
40
0.2017094664
40
0.2759201192
40
0.3516664775
40
0.4264994874
40
0.5008352496
40
0.5722230082
40
0.7115076178
40
0.8445511967
40
0.9760331928
40
1.0000000000
40
1.0000000000
40
1.0000000000
40
1.0000000000
10
2.0407472362
20
24.0512617778
30
0.0000000000
10
2.0171032316
20
24.0085983120
30
0.0000000000
10
1.9902424250
20
23.9117830928
30
0.0000000000
10
1.9642055891
20
23.7661931398
30
0.0000000000
10
1.8899906130
20
23.6226579493
30
0.0000000000
10
1.7394116333
20
23.5449186725
30
0.0000000000
10
1.5674746171
20
23.5395052988
30
0.0000000000
10
1.4155473612
20
23.6141163036
30
0.0000000000
10
1.2783152368
20
23.7005393055
30
0.0000000000
10
1.1062678675
20
23.8213854299
30
0.0000000000
10
0.9333934188
20
24.0188693581
30
0.0000000000
10
0.8536552809
20
24.3094840938
30
0.0000000000
10
0.8157610903
20
24.5220958973
30
0.0000000000
10
0.8328767345
20
24.6366041444
30
0.0000000000
10
0.8363691548
20
24.6541475766
30
0.0000000000
11
2.0407472362
21
24.0512617778
31
0.0000000000
11
1.9928982857
21
23.9129745015
31
0.0000000000
11
1.9566469261
21
23.7676344467
31
0.0000000000
11
1.8812680470
21
23.6375880307
31
0.0000000000
11
1.7377648236
21
23.5576862707
31
0.0000000000
11
1.5701820841
21
23.5530407543
31
0.0000000000
11
1.4172116229
21
23.6165378963
31
0.0000000000
11
1.2771844003
21
23.7029142872
31
0.0000000000
11
1.1496902950
21
23.7962382744
31
0.0000000000
11
0.9520172480
21
24.0327937042
31
0.0000000000
11
0.8577707695
21
24.3117651494
31
0.0000000000
11
0.8284912405
21
24.6012935310
31
0.0000000000
11
0.8363691548
21
24.6541475766
31
0.0000000000
0
SPLINE
5
36A
100
AcDbEntity
8
0
100
AcDbSpline
62
0
6
CONTINUOUS
70
0
71
3
72
10
73
6
74
4
42
0.0000001000
43
0.0000001000
44
0.0000000001
12
1.4664199486
22
0.3503679332
32
0.0000000000
13
0.4951083296
23
1.2456719602
33
0.0000000000
40
0.0000000000
40
0.0000000000
40
0.0000000000
40
0.0000000000
40
0.3333323644
40
0.6666647289
40
1.0000000000
40
1.0000000000
40
1.0000000000
40
1.0000000000
10
3.4629069717
20
22.7982410746
30
0.0000000000
10
3.6258420479
20
22.8371707318
30
0.0000000000
10
3.9394503143
20
22.9619196017
30
0.0000000000
10
4.3149314568
20
23.2674370972
30
0.0000000000
10
4.4782310974
20
23.5307347092
30
0.0000000000
10
4.5332434539
20
23.6691435093
30
0.0000000000
11
3.4629069717
21
22.7982410746
31
0.0000000000
11
3.9236282562
21
22.9816518188
31
0.0000000000
11
4.2931751839
21
23.2823408256
31
0.0000000000
11
4.5332434539
21
23.6691435093
31
0.0000000000
0
SPLINE
5
36B
100
AcDbEntity
8
0
100
AcDbSpline
62
0
6
CONTINUOUS
70
0
71
3
72
11
73
7
74
5
42
0.0000001000
43
0.0000001000
44
0.0000000001
12
-2.3205850143
22
-0.0815203707
32
0.0000000000
13
-1.0987838547
23
-2.0455888750
33
0.0000000000
40
0.0000000000
40
0.0000000000
40
0.0000000000
40
0.0000000000
40
0.2580928701
40
0.5148455690
40
0.7643843183
40
1.0000000000
40
1.0000000000
40
1.0000000000
40
1.0000000000
10
-6.1400214027
20
30.1004157253
30
0.0000000000
10
-6.3396635516
20
30.0934024498
30
0.0000000000
10
-6.7381166245
20
30.0877598850
30
0.0000000000
10
-7.3277927654
20
30.0117690500
30
0.0000000000
10
-7.8681506271
20
29.7808998100
30
0.0000000000
10
-8.1253981788
20
29.4862102682
30
0.0000000000
10
-8.2116950812
20
29.3255526625
30
0.0000000000
11
-6.1400214027
21
30.1004157253
31
0.0000000000
11
-6.7388319147
21
30.0763007186
31
0.0000000000
11
-7.3277456288
21
29.9834783781
31
0.0000000000
11
-7.8528654468
21
29.7385459976
31
0.0000000000
11
-8.2116950812
21
29.3255526625
31
0.0000000000
0
SPLINE
5
36C
100
AcDbEntity
8
0
100
AcDbSpline
62
0
6
CONTINUOUS
70
0
71
3
72
10
73
6
74
4
42
0.0000001000
43
0.0000001000
44
0.0000000001
12
-0.3383897750
22
-1.9554737104
32
0.0000000000
13
2.2242211755
23
-0.4465283478
33
0.0000000000
40
0.0000000000
40
0.0000000000
40
0.0000000000
40
0.0000000000
40
0.3333330404
40
0.6666660807
40
1.0000000000
40
1.0000000000
40
1.0000000000
40
1.0000000000
10
-9.7180130283
20
24.3013745211
30
0.0000000000
10
-9.7556118591
20
24.0840998554
30
0.0000000000
10
-9.7031185215
20
23.6252348658
30
0.0000000000
10
-9.2584552154
20
23.0588620524
30
0.0000000000
10
-8.7850270130
20
22.8478557064
30
0.0000000000
10
-8.5378908925
20
22.7982413583
30
0.0000000000
11
-9.7180130283
21
24.3013745211
31
0.0000000000
11
-9.6421313700
21
23.6455557273
31
0.0000000000
11
-9.2142092559
21
23.1005063643
31
0.0000000000
11
-8.5378908925
21
22.7982413583
31
0.0000000000
0
SPLINE
5
36D
100
AcDbEntity
8
0
100
AcDbSpline
62
0
6
CONTINUOUS
70
0
71
3
72
10
73
6
74
4
42
0.0000001000
43
0.0000001000
44
0.0000000001
12
-1.5178471229
22
0.4981740991
32
0.0000000000
13
-0.9835029728
23
-1.1183083575
33
0.0000000000
40
0.0000000000
40
0.0000000000
40
0.0000000000
40
0.0000000000
40
0.3333331250
40
0.6666662500
40
1.0000000000
40
1.0000000000
40
1.0000000000
40
1.0000000000
10
-4.2845520283
20
29.3345756039
30
0.0000000000
10
-4.4532016032
20
29.3899282469
30
0.0000000000
10
-4.8229183488
20
29.4380792949
30
0.0000000000
10
-5.3579224545
20
29.3054413716
30
0.0000000000
10
-5.6422089451
20
29.0951499393
30
0.0000000000
10
-5.7514871898
20
28.9708932998
30
0.0000000000
11
-4.2845520283
21
29.3345756039
31
0.0000000000
11
-4.8196564576
21
29.4039352262
31
0.0000000000
11
-5.3398263979
21
29.2749749810
31
0.0000000000
11
-5.7514871898
21
28.9708932998
31
0.0000000000
0
SPLINE
5
36E
100
AcDbEntity
8
0
100
AcDbSpline
62
0
6
CONTINUOUS
70
0
71
3
72
10
73
6
74
4
42
0.0000001000
43
0.0000001000
44
0.0000000001
12
0.1590654501
22
-1.3695530699
32
0.0000000000
13
1.5821688470
23
0.1311804360
33
0.0000000000
40
0.0000000000
40
0.0000000000
40
0.0000000000
40
0.0000000000
40
0.3333333547
40
0.6666667094
40
1.0000000000
40
1.0000000000
40
1.0000000000
40
1.0000000000
10
-7.1325220283
20
24.3645822513
30
0.0000000000
10
-7.1148480883
20
24.2124096782
30
0.0000000000
10
-6.9836700054
20
23.9105423390
30
0.0000000000
10
-6.5564970840
20
23.6067353186
30
0.0000000000
10
-6.1890766191
20
23.5539974179
30
0.0000000000
10
-6.0132801031
20
23.5685730200
30
0.0000000000
11
-7.1325220283
21
24.3645822513
31
0.0000000000
11
-6.9452690346
21
23.9353746671
31
0.0000000000
11
-6.5358374210
21
23.6441853329
31
0.0000000000
11
-6.0132801031
21
23.5685730200
31
0.0000000000
0
SPLINE
5
36F
100
AcDbEntity
8
0
100
AcDbSpline
62
0
6
CONTINUOUS
70
0
71
3
72
8
73
4
74
2
42
0.0000001000
43
0.0000001000
44
0.0000000001
12
0.0476020764
22
0.2391189264
32
0.0000000000
13
0.1424412763
23
0.1944041590
33
0.0000000000
40
0.0000000000
40
0.0000000000
40
0.0000000000
40
0.0000000000
40
1.0000000000
40
1.0000000000
40
1.0000000000
40
1.0000000000
10
0.8363691548
20
24.6541475766
30
0.0000000000
10
0.8522365136
20
24.7338538853
30
0.0000000000
10
0.8857232849
20
24.8112640304
30
0.0000000000
10
0.9332037103
20
24.8760654167
30
0.0000000000
11
0.8363691548
21
24.6541475766
31
0.0000000000
11
0.9332037103
21
24.8760654167
31
0.0000000000
0
SPLINE
5
370
100
AcDbEntity
8
0
100
AcDbSpline
62
0
6
CONTINUOUS
70
0
71
3
72
15
73
11
74
9
42
0.0000001000
43
0.0000001000
44
0.0000000001
12
5.9706684702
22
-3.7392379302
32
0.0000000000
13
-0.1395353962
23
-8.9933770520
33
0.0000000000
40
0.0000000000
40
0.0000000000
40
0.0000000000
40
0.0000000000
40
0.0073816370
40
0.0550388350
40
0.1423426120
40
0.2657597137
40
0.4204510756
40
0.5997149504
40
0.7955423165
40
1.0000000000
40
1.0000000000
40
1.0000000000
40
1.0000000000
10
-53.4315842834
20
57.7811642334
30
0.0000000000
10
-53.4168931811
20
57.7719636678
30
0.0000000000
10
-53.2833116589
20
57.6317399763
30
0.0000000000
10
-53.3942804958
20
57.1749901884
30
0.0000000000
10
-53.2737391029
20
56.4208871893
30
0.0000000000
10
-53.2952095552
20
55.3164098976
30
0.0000000000
10
-53.2695507213
20
53.9485744415
30
0.0000000000
10
-53.2759898204
20
52.3590417973
30
0.0000000000
10
-53.2867406071
20
50.6218606832
30
0.0000000000
10
-53.3025020065
20
49.4217505013
30
0.0000000000
10
-53.3120117011
20
48.8088288217
30
0.0000000000
11
-53.4315842834
21
57.7811642334
31
0.0000000000
11
-53.3842366780
21
57.7336964656
31
0.0000000000
11
-53.3424019233
21
57.3070920745
31
0.0000000000
11
-53.3095871879
21
56.5225277372
31
0.0000000000
11
-53.2870813344
21
55.4126857881
31
0.0000000000
11
-53.2758200181
21
54.0213661789
31
0.0000000000
11
-53.2763364775
21
52.4089846068
31
0.0000000000
11
-53.2885756186
21
50.6476658255
31
0.0000000000
11
-53.3120117011
21
48.8088288217
31
0.0000000000
0
SPLINE
5
371
100
AcDbEntity
8
0
100
AcDbSpline
62
0
6
CONTINUOUS
70
0
71
3
72
18
73
14
74
12
42
0.0000001000
43
0.0000001000
44
0.0000000001
12
-7.9286400700
22
0.0826216744
32
0.0000000000
13
-7.8948003302
23
-0.0870862315
33
0.0000000000
40
0.0000000000
40
0.0000000000
40
0.0000000000
40
0.0000000000
40
0.0493275743
40
0.1313859465
40
0.2288979774
40
0.3299715236
40
0.4423079764
40
0.5627834561
40
0.6796511327
40
0.7867794443
40
0.8798820543
40
0.9548289388
40
1.0000000000
40
1.0000000000
40
1.0000000000
40
1.0000000000
10
3.7727720971
20
55.8093811752
30
0.0000000000
10
3.6424052365
20
55.8107396841
30
0.0000000000
10
3.3127591619
20
55.7626176999
30
0.0000000000
10
2.7290707125
20
55.6503031466
30
0.0000000000
10
2.0185344998
20
55.5170999292
30
0.0000000000
10
1.2229770644
20
55.4069461224
30
0.0000000000
10
0.3632236696
20
55.3426991587
30
0.0000000000
10
-0.5401593141
20
55.3441917586
30
0.0000000000
10
-1.4269108248
20
55.4146357790
30
0.0000000000
10
-2.2374890785
20
55.5325995976
30
0.0000000000
10
-2.9336732018
20
55.6662425951
30
0.0000000000
10
-3.4774803292
20
55.7687678082
30
0.0000000000
10
-3.7796142525
20
55.8109359068
30
0.0000000000
10
-3.8984864222
20
55.8096246476
30
0.0000000000
11
3.7727720971
21
55.8093811752
31
0.0000000000
11
3.3941210513
21
55.7723017895
31
0.0000000000
11
2.7691594393
21
55.6584873813
31
0.0000000000
11
2.0262636800
21
55.5245530448
31
0.0000000000
11
1.2510156691
21
55.4186844897
31
0.0000000000
11
0.3837228195
21
55.3549268258
31
0.0000000000
11
-0.5489160161
21
55.3564519269
31
0.0000000000
11
-1.4508844943
21
55.4268413783
31
0.0000000000
11
-2.2718351400
21
55.5443313190
31
0.0000000000
11
-2.9806636215
21
55.6748115270
31
0.0000000000
11
-3.5517789568
21
55.7770161394
31
0.0000000000
11
-3.8984864222
21
55.8096246476
31
0.0000000000
0
SPLINE
5
372
100
AcDbEntity
8
0
100
AcDbSpline
62
0
6
CONTINUOUS
70
0
71
3
72
9
73
5
74
3
42
0.0000001000
43
0.0000001000
44
0.0000000001
12
0.1212497455
22
-0.0014379060
32
0.0000000000
13
0.0000000000
23
-0.1210397476
33
0.0000000000
40
0.0000000000
40
0.0000000000
40
0.0000000000
40
0.0000000000
40
0.4371979641
40
1.0000000000
40
1.0000000000
40
1.0000000000
40
1.0000000000
10
4.0928718323
20
57.8149203517
30
0.0000000000
10
4.1105418796
20
57.8147108019
30
0.0000000000
10
4.1502740605
20
57.8070943058
30
0.0000000000
10
4.1867629717
20
57.7719389661
30
0.0000000000
10
4.1867629717
20
57.7492318273
30
0.0000000000
11
4.0928718323
21
57.8149203517
31
0.0000000000
11
4.1446636116
21
57.8027871374
31
0.0000000000
11
4.1867629717
21
57.7492318273
31
0.0000000000
0
SPLINE
5
373
100
AcDbEntity
8
0
100
AcDbSpline
62
0
6
CONTINUOUS
70
0
71
3
72
9
73
5
74
3
42
0.0000001000
43
0.0000001000
44
0.0000000001
12
0.0000000000
22
0.1228489540
32
0.0000000000
13
0.1276694159
23
-0.0081177992
33
0.0000000000
40
0.0000000000
40
0.0000000000
40
0.0000000000
40
0.0000000000
40
0.4756015567
40
1.0000000000
40
1.0000000000
40
1.0000000000
40
1.0000000000
10
-4.3132370283
20
57.7492318273
30
0.0000000000
10
-4.3132370283
20
57.7687075452
30
0.0000000000
10
-4.2832643340
20
57.8088460018
30
0.0000000000
10
-4.2419447445
20
57.8128274510
30
0.0000000000
10
-4.2196281969
20
57.8114084639
30
0.0000000000
11
-4.3132370283
21
57.7492318273
31
0.0000000000
11
-4.2821602763
21
57.7987087693
31
0.0000000000
11
-4.2196281969
21
57.8114084639
31
0.0000000000
0
SPLINE
5
374
100
AcDbEntity
8
0
100
AcDbSpline
62
0
6
CONTINUOUS
70
0
71
3
72
8
73
4
74
2
42
0.0000001000
43
0.0000001000
44
0.0000000001
12
-0.1730191812
22
0.3970491743
32
0.0000000000
13
-0.2453968753
23
0.3571289773
33
0.0000000000
40
0.0000000000
40
0.0000000000
40
0.0000000000
40
0.0000000000
40
1.0000000000
40
1.0000000000
40
1.0000000000
40
1.0000000000
10
10.2598660661
20
42.5397557288
30
0.0000000000
10
10.2021930057
20
42.6721054536
30
0.0000000000
10
10.1313687701
20
42.7986885413
30
0.0000000000
10
10.0495698117
20
42.9177315338
30
0.0000000000
11
10.2598660661
21
42.5397557288
31
0.0000000000
11
10.0495698117
21
42.9177315338
31
0.0000000000
0
SPLINE
5
375
100
AcDbEntity
8
0
100
AcDbSpline
62
0
6
CONTINUOUS
70
0
71
3
72
8
73
4
74
2
42
0.0000001000
43
0.0000001000
44
0.0000000001
12
-0.0889447360
22
0.1294423272
32
0.0000000000
13
-0.0972844540
23
0.1232456524
33
0.0000000000
40
0.0000000000
40
0.0000000000
40
0.0000000000
40
0.0000000000
40
1.0000000000
40
1.0000000000
40
1.0000000000
40
1.0000000000
10
10.0495698117
20
42.9177315338
30
0.0000000000
10
10.0199215663
20
42.9608789762
30
0.0000000000
10
9.9888315509
20
43.0030358620
30
0.0000000000
10
9.9564033996
20
43.0441177461
30
0.0000000000
11
10.0495698117
21
42.9177315338
31
0.0000000000
11
9.9564033996
21
43.0441177461
31
0.0000000000
0
SPLINE
5
376
100
AcDbEntity
8
0
100
AcDbSpline
62
0
6
CONTINUOUS
70
0
71
3
72
20
73
16
74
14
42
0.0000001000
43
0.0000001000
44
0.0000000001
12
-10.7826912953
22
0.0022652177
32
0.0000000000
13
10.7826913354
23
-0.0020655599
33
0.0000000000
40
0.0000000000
40
0.0000000000
40
0.0000000000
40
0.0000000000
40
0.0648246307
40
0.1328393844
40
0.2048881062
40
0.2827969748
40
0.3666243223
40
0.4551315416
40
0.5452170932
40
0.6336018125
40
0.7172714758
40
0.7951607936
40
0.8671567928
40
0.9350043062
40
1.0000000000
40
1.0000000000
40
1.0000000000
40
1.0000000000
10
-7.8132370283
20
40.4132310912
30
0.0000000000
10
-8.0462316887
20
40.4132800385
30
0.0000000000
10
-8.5257860786
20
40.4745421837
30
0.0000000000
10
-9.2160421373
20
40.7522577845
30
0.0000000000
10
-9.8541847424
20
41.2204711749
30
0.0000000000
10
-10.3968431107
20
41.8725991253
30
0.0000000000
10
-10.7978462017
20
42.6868703307
30
0.0000000000
10
-11.0119003254
20
43.6140138578
30
0.0000000000
10
-11.0114790308
20
44.5819184065
30
0.0000000000
10
-10.7969700909
20
45.5078931950
30
0.0000000000
10
-10.3961224202
20
46.3209967343
30
0.0000000000
10
-9.8538729980
20
46.9723718564
30
0.0000000000
10
-9.2163832110
20
47.4400190918
30
0.0000000000
10
-8.5264198303
20
47.7177634712
30
0.0000000000
10
-8.0468465298
20
47.7794172257
30
0.0000000000
10
-7.8132370283
20
47.7793724749
30
0.0000000000
11
-7.8132370283
21
40.4132310912
31
0.0000000000
11
-8.5066430033
21
40.5013604358
31
0.0000000000
11
-9.1878763613
21
40.7729675581
31
0.0000000000
11
-9.8160353497
21
41.2300862391
31
0.0000000000
11
-10.3561318731
21
41.8735214030
31
0.0000000000
11
-10.7582664385
21
42.6830242472
31
0.0000000000
11
-10.9747653522
21
43.6124889277
31
0.0000000000
11
-10.9743383645
21
44.5838535477
31
0.0000000000
11
-10.7574495288
21
45.5118708956
31
0.0000000000
11
-10.3557414279
21
46.3196870120
31
0.0000000000
11
-9.8156565832
21
46.9628567251
31
0.0000000000
11
-9.1879108751
21
47.4195771581
31
0.0000000000
11
-8.5084367627
21
47.6907274533
31
0.0000000000
11
-7.8132370283
21
47.7793724749
31
0.0000000000
0
SPLINE
5
377
100
AcDbEntity
8
0
100
AcDbSpline
62
0
6
CONTINUOUS
70
0
71
3
72
20
73
16
74
14
42
0.0000001000
43
0.0000001000
44
0.0000000001
12
10.7826883026
22
-0.0024216105
32
0.0000000000
13
-10.7826885188
23
0.0010961322
33
0.0000000000
40
0.0000000000
40
0.0000000000
40
0.0000000000
40
0.0000000000
40
0.0640409585
40
0.1319759170
40
0.2039128088
40
0.2818584690
40
0.3656146406
40
0.4541729813
40
0.5443538451
40
0.6328464082
40
0.7166902330
40
0.7946572767
40
0.8668122196
40
0.9348376767
40
1.0000000000
40
1.0000000000
40
1.0000000000
40
1.0000000000
10
-7.8132370283
20
47.7793724749
30
0.0000000000
10
-7.5830591304
20
47.7793207808
30
0.0000000000
10
-7.1066892741
20
47.7191781136
30
0.0000000000
10
-6.4188298566
20
47.4449684262
30
0.0000000000
10
-5.7796750443
20
46.9791049552
30
0.0000000000
10
-5.2354105565
20
46.3289641535
30
0.0000000000
10
-4.8321693307
20
45.5157331982
30
0.0000000000
10
-4.6156776169
20
44.5888536037
30
0.0000000000
10
-4.6138672401
20
43.6200112902
30
0.0000000000
10
-4.8267338540
20
42.6922427931
30
0.0000000000
10
-5.2266493758
20
41.8771991392
30
0.0000000000
10
-5.7687546986
20
41.2237630816
30
0.0000000000
10
-6.4067843071
20
40.7542751143
30
0.0000000000
10
-7.0981925684
20
40.4750974137
30
0.0000000000
10
-7.5790286831
20
40.4132072824
30
0.0000000000
10
-7.8132370283
20
40.4132310912
30
0.0000000000
11
-7.8132370283
21
47.7793724749
31
0.0000000000
11
-7.1280854340
21
47.6933253992
31
0.0000000000
11
-6.4468127650
21
47.4241501789
31
0.0000000000
11
-5.8181901299
21
46.9697248894
31
0.0000000000
11
-5.2759316618
21
46.3275916335
31
0.0000000000
11
-4.8719279687
21
45.5198783076
31
0.0000000000
11
-4.6529060491
21
44.5904388557
31
0.0000000000
11
-4.6510719872
21
43.6180484160
31
0.0000000000
11
-4.8662579434
21
42.6884413669
31
0.0000000000
11
-5.2672886683
21
41.8781931400
31
0.0000000000
11
-5.8068304006
21
41.2334748211
31
0.0000000000
11
-6.4352903568
21
40.7748247782
31
0.0000000000
11
-7.1162798725
21
40.5022966214
31
0.0000000000
11
-7.8132370283
21
40.4132310912
31
0.0000000000
0
SPLINE
5
378
100
AcDbEntity
8
0
100
AcDbSpline
62
0
6
CONTINUOUS
70
0
71
3
72
20
73
16
74
14
42
0.0000001000
43
0.0000001000
44
0.0000000001
12
-10.7826912953
22
0.0022652177
32
0.0000000000
13
10.7826913354
23
-0.0020655599
33
0.0000000000
40
0.0000000000
40
0.0000000000
40
0.0000000000
40
0.0000000000
40
0.0648246307
40
0.1328393844
40
0.2048881062
40
0.2827969748
40
0.3666243223
40
0.4551315416
40
0.5452170932
40
0.6336018125
40
0.7172714758
40
0.7951607936
40
0.8671567928
40
0.9350043062
40
1.0000000000
40
1.0000000000
40
1.0000000000
40
1.0000000000
10
7.6867629717
20
40.4132310912
30
0.0000000000
10
7.4537683113
20
40.4132800385
30
0.0000000000
10
6.9742139214
20
40.4745421837
30
0.0000000000
10
6.2839578627
20
40.7522577845
30
0.0000000000
10
5.6458152576
20
41.2204711749
30
0.0000000000
10
5.1031568893
20
41.8725991253
30
0.0000000000
10
4.7021537983
20
42.6868703307
30
0.0000000000
10
4.4880996746
20
43.6140138578
30
0.0000000000
10
4.4885209692
20
44.5819184065
30
0.0000000000
10
4.7030299091
20
45.5078931950
30
0.0000000000
10
5.1038775798
20
46.3209967343
30
0.0000000000
10
5.6461270020
20
46.9723718564
30
0.0000000000
10
6.2836167890
20
47.4400190918
30
0.0000000000
10
6.9735801697
20
47.7177634712
30
0.0000000000
10
7.4531534702
20
47.7794172257
30
0.0000000000
10
7.6867629717
20
47.7793724749
30
0.0000000000
11
7.6867629717
21
40.4132310912
31
0.0000000000
11
6.9933569967
21
40.5013604358
31
0.0000000000
11
6.3121236387
21
40.7729675581
31
0.0000000000
11
5.6839646503
21
41.2300862391
31
0.0000000000
11
5.1438681269
21
41.8735214030
31
0.0000000000
11
4.7417335615
21
42.6830242472
31
0.0000000000
11
4.5252346478
21
43.6124889277
31
0.0000000000
11
4.5256616355
21
44.5838535477
31
0.0000000000
11
4.7425504712
21
45.5118708956
31
0.0000000000
11
5.1442585721
21
46.3196870120
31
0.0000000000
11
5.6843434168
21
46.9628567251
31
0.0000000000
11
6.3120891249
21
47.4195771581
31
0.0000000000
11
6.9915632373
21
47.6907274533
31
0.0000000000
11
7.6867629717
21
47.7793724749
31
0.0000000000
0
SPLINE
5
379
100
AcDbEntity
8
0
100
AcDbSpline
62
0
6
CONTINUOUS
70
0
71
3
72
8
73
4
74
2
42
0.0000001000
43
0.0000001000
44
0.0000000001
12
0.1708077130
22
0.3871290198
32
0.0000000000
13
0.2397483095
23
0.3489085527
33
0.0000000000
40
0.0000000000
40
0.0000000000
40
0.0000000000
40
0.0000000000
40
1.0000000000
40
1.0000000000
40
1.0000000000
40
1.0000000000
10
5.1176633245
20
42.5488858522
30
0.0000000000
10
5.1745992288
20
42.6779288588
30
0.0000000000
10
5.2440400286
20
42.8014286829
30
0.0000000000
10
5.3239561317
20
42.9177315338
30
0.0000000000
11
5.1176633245
21
42.5488858522
31
0.0000000000
11
5.3239561317
21
42.9177315338
31
0.0000000000
0
SPLINE
5
37A
100
AcDbEntity
8
0
100
AcDbSpline
62
0
6
CONTINUOUS
70
0
71
3
72
8
73
4
74
2
42
0.0000001000
43
0.0000001000
44
0.0000000001
12
0.0889447360
22
0.1294423272
32
0.0000000000
13
0.0972844540
23
0.1232456524
33
0.0000000000
40
0.0000000000
40
0.0000000000
40
0.0000000000
40
0.0000000000
40
1.0000000000
40
1.0000000000
40
1.0000000000
40
1.0000000000
10
5.3239561317
20
42.9177315338
30
0.0000000000
10
5.3536043771
20
42.9608789762
30
0.0000000000
10
5.3846943925
20
43.0030358620
30
0.0000000000
10
5.4171225438
20
43.0441177461
30
0.0000000000
11
5.3239561317
21
42.9177315338
31
0.0000000000
11
5.4171225438
21
43.0441177461
31
0.0000000000
0
SPLINE
5
37B
100
AcDbEntity
8
0
100
AcDbSpline
62
0
6
CONTINUOUS
70
0
71
3
72
20
73
16
74
14
42
0.0000001000
43
0.0000001000
44
0.0000000001
12
10.7826883026
22
-0.0024216105
32
0.0000000000
13
-10.7826885188
23
0.0010961322
33
0.0000000000
40
0.0000000000
40
0.0000000000
40
0.0000000000
40
0.0000000000
40
0.0640409585
40
0.1319759170
40
0.2039128088
40
0.2818584690
40
0.3656146406
40
0.4541729813
40
0.5443538451
40
0.6328464082
40
0.7166902330
40
0.7946572767
40
0.8668122196
40
0.9348376767
40
1.0000000000
40
1.0000000000
40
1.0000000000
40
1.0000000000
10
7.6867629717
20
47.7793724749
30
0.0000000000
10
7.9169408696
20
47.7793207808
30
0.0000000000
10
8.3933107259
20
47.7191781136
30
0.0000000000
10
9.0811701434
20
47.4449684262
30
0.0000000000
10
9.7203249557
20
46.9791049552
30
0.0000000000
10
10.2645894435
20
46.3289641535
30
0.0000000000
10
10.6678306693
20
45.5157331982
30
0.0000000000
10
10.8843223831
20
44.5888536037
30
0.0000000000
10
10.8861327599
20
43.6200112902
30
0.0000000000
10
10.6732661460
20
42.6922427931
30
0.0000000000
10
10.2733506242
20
41.8771991392
30
0.0000000000
10
9.7312453014
20
41.2237630816
30
0.0000000000
10
9.0932156929
20
40.7542751143
30
0.0000000000
10
8.4018074316
20
40.4750974137
30
0.0000000000
10
7.9209713169
20
40.4132072824
30
0.0000000000
10
7.6867629717
20
40.4132310912
30
0.0000000000
11
7.6867629717
21
47.7793724749
31
0.0000000000
11
8.3719145660
21
47.6933253992
31
0.0000000000
11
9.0531872350
21
47.4241501789
31
0.0000000000
11
9.6818098701
21
46.9697248894
31
0.0000000000
11
10.2240683382
21
46.3275916335
31
0.0000000000
11
10.6280720313
21
45.5198783076
31
0.0000000000
11
10.8470939509
21
44.5904388557
31
0.0000000000
11
10.8489280128
21
43.6180484160
31
0.0000000000
11
10.6337420566
21
42.6884413669
31
0.0000000000
11
10.2327113317
21
41.8781931400
31
0.0000000000
11
9.6931695994
21
41.2334748211
31
0.0000000000
11
9.0647096432
21
40.7748247782
31
0.0000000000
11
8.3837201275
21
40.5022966214
31
0.0000000000
11
7.6867629717
21
40.4132310912
31
0.0000000000
0
SPLINE
5
37C
100
AcDbEntity
8
0
100
AcDbSpline
62
0
6
CONTINUOUS
70
0
71
3
72
18
73
14
74
12
42
0.0000001000
43
0.0000001000
44
0.0000000001
12
-0.1499594768
22
7.8408851417
32
0.0000000000
13
-0.1504057959
23
-7.8408765930
33
0.0000000000
40
0.0000000000
40
0.0000000000
40
0.0000000000
40
0.0000000000
40
0.1063971889
40
0.2081200950
40
0.3010118737
40
0.3848975661
40
0.4624701558
40
0.5378750996
40
0.6154920513
40
0.6992945596
40
0.7918908104
40
0.8933759710
40
1.0000000000
40
1.0000000000
40
1.0000000000
40
1.0000000000
10
-47.3075120791
20
26.7179030300
30
0.0000000000
10
-47.3128305014
20
26.9959857424
30
0.0000000000
10
-47.2520540335
20
27.5441094633
30
0.0000000000
10
-46.9604231216
20
28.2849338670
30
0.0000000000
10
-46.5129742359
20
28.8718441209
30
0.0000000000
10
-45.9661598671
20
29.2675068057
30
0.0000000000
10
-45.3683174904
20
29.4641811378
30
0.0000000000
10
-44.7552825435
20
29.4637332056
30
0.0000000000
10
-44.1578275090
20
29.2661950804
30
0.0000000000
10
-43.6122540317
20
28.8703904761
30
0.0000000000
10
-43.1661046848
20
28.2846332665
30
0.0000000000
10
-42.8745686130
20
27.5446974179
30
0.0000000000
10
-42.8136163535
20
26.9965783144
30
0.0000000000
10
-42.8189619775
20
26.7179030300
30
0.0000000000
11
-47.3075120791
21
26.7179030300
31
0.0000000000
11
-47.2138750556
21
27.5470330758
31
0.0000000000
11
-46.9179556894
21
28.2878612550
31
0.0000000000
11
-46.4719893511
21
28.8638884079
31
0.0000000000
11
-45.9362811849
21
29.2457187153
31
0.0000000000
11
-45.3575556960
21
29.4332428721
31
0.0000000000
11
-44.7662062244
21
29.4328161871
31
0.0000000000
11
-44.1874271271
21
29.2443309921
31
0.0000000000
11
-43.6527302613
21
28.8622066736
31
0.0000000000
11
-43.2084737980
21
28.2877868765
31
0.0000000000
11
-42.9130364854
21
27.5487738956
31
0.0000000000
11
-42.8189619775
21
26.7179030300
31
0.0000000000
0
SPLINE
5
37D
100
AcDbEntity
8
0
100
AcDbSpline
62
0
6
CONTINUOUS
70
0
71
3
72
18
73
14
74
12
42
0.0000001000
43
0.0000001000
44
0.0000000001
12
-0.1516239478
22
8.7115057913
32
0.0000000000
13
-0.1526349583
23
-8.7114881360
33
0.0000000000
40
0.0000000000
40
0.0000000000
40
0.0000000000
40
0.0000000000
40
0.1046228466
40
0.2055161763
40
0.2983407834
40
0.3829211842
40
0.4617144918
40
0.5385215907
40
0.6173491053
40
0.7018290068
40
0.7943452925
40
0.8949953884
40
1.0000000000
40
1.0000000000
40
1.0000000000
40
1.0000000000
10
-47.6073293272
20
26.7126681055
30
0.0000000000
10
-47.6126171036
20
27.0164756167
30
0.0000000000
10
-47.5426051471
20
27.6179173654
30
0.0000000000
10
-47.2105127891
20
28.4298358507
30
0.0000000000
10
-46.7022562666
20
29.0726979135
30
0.0000000000
10
-46.0830914164
20
29.5048280540
30
0.0000000000
10
-45.4079355646
20
29.7191761863
30
0.0000000000
10
-44.7163248905
20
29.7188577441
30
0.0000000000
10
-44.0415554198
20
29.5039096609
30
0.0000000000
10
-43.4236632308
20
29.0719466794
30
0.0000000000
10
-42.9166591993
20
28.4306368143
30
0.0000000000
10
-42.5842195697
20
27.6194722670
30
0.0000000000
10
-42.5138022712
20
27.0175835816
30
0.0000000000
10
-42.5191447294
20
26.7126681055
30
0.0000000000
11
-47.6073293272
21
26.7126681055
31
0.0000000000
11
-47.5001924860
21
27.6179108228
31
0.0000000000
11
-47.1640556822
21
28.4301724721
31
0.0000000000
11
-46.6585227268
21
29.0614700005
31
0.0000000000
11
-46.0518402060
21
29.4798100593
31
0.0000000000
11
-45.3967992737
21
29.6852864252
31
0.0000000000
11
-44.7275925167
21
29.6849798033
31
0.0000000000
11
-44.0724652925
21
29.4787838177
31
0.0000000000
11
-43.4668323529
21
29.0604645288
31
0.0000000000
11
-42.9630234353
21
28.4312279439
31
0.0000000000
11
-42.6271286701
21
27.6211599182
31
0.0000000000
11
-42.5191447294
21
26.7126681055
31
0.0000000000
0
SPLINE
5
37E
100
AcDbEntity
8
0
100
AcDbSpline
62
0
6
CONTINUOUS
70
0
71
3
72
18
73
14
74
12
42
0.0000001000
43
0.0000001000
44
0.0000000001
12
-0.1484021722
22
-8.4766234097
32
0.0000000000
13
-0.1474405973
23
8.4766401897
33
0.0000000000
40
0.0000000000
40
0.0000000000
40
0.0000000000
40
0.0000000000
40
0.1047766644
40
0.2053820064
40
0.2979516732
40
0.3825343231
40
0.4615580124
40
0.5386730439
40
0.6177249906
40
0.7022029467
40
0.7944751406
40
0.8948410404
40
1.0000000000
40
1.0000000000
40
1.0000000000
40
1.0000000000
10
-42.5191447294
20
26.7126681055
30
0.0000000000
10
-42.5243277576
20
26.4166173299
30
0.0000000000
10
-42.6107884027
20
25.8345659036
30
0.0000000000
10
-42.9537267822
20
25.0546151064
30
0.0000000000
10
-43.4596117251
20
24.4408121347
30
0.0000000000
10
-44.0674828064
20
24.0291292659
30
0.0000000000
10
-44.7269450403
20
23.8249799637
30
0.0000000000
10
-45.4016110982
20
23.8252838879
30
0.0000000000
10
-46.0606803313
20
24.0299788331
30
0.0000000000
10
-46.6673450395
20
24.4414712676
30
0.0000000000
10
-47.1720303254
20
25.0537975729
30
0.0000000000
10
-47.5152990465
20
25.8330531522
30
0.0000000000
10
-47.6021610940
20
26.4155365510
30
0.0000000000
10
-47.6073293272
20
26.7126681055
30
0.0000000000
11
-42.5191447294
21
26.7126681055
31
0.0000000000
11
-42.6515652656
21
25.8343053496
31
0.0000000000
11
-42.9980978408
21
25.0549498468
31
0.0000000000
11
-43.5008378526
21
24.4523213669
31
0.0000000000
11
-44.0967068859
21
24.0533837872
31
0.0000000000
11
-44.7373358653
21
23.8573315125
31
0.0000000000
11
-45.3911110510
21
23.8576227977
31
0.0000000000
11
-46.0317895377
21
24.0543309886
31
0.0000000000
11
-46.6266364693
21
24.4531994673
31
0.0000000000
11
-47.1277433380
21
25.0539060712
31
0.0000000000
11
-47.4739920434
21
25.8311659724
31
0.0000000000
11
-47.6073293272
21
26.7126681055
31
0.0000000000
0
SPLINE
5
37F
100
AcDbEntity
8
0
100
AcDbSpline
62
0
6
CONTINUOUS
70
0
71
3
72
18
73
14
74
12
42
0.0000001000
43
0.0000001000
44
0.0000000001
12
-0.1499594768
22
7.8408851417
32
0.0000000000
13
-0.1504057959
23
-7.8408765930
33
0.0000000000
40
0.0000000000
40
0.0000000000
40
0.0000000000
40
0.0000000000
40
0.1063971889
40
0.2081200950
40
0.3010118737
40
0.3848975661
40
0.4624701558
40
0.5378750996
40
0.6154920513
40
0.6992945596
40
0.7918908104
40
0.8933759710
40
1.0000000000
40
1.0000000000
40
1.0000000000
40
1.0000000000
10
42.6924879209
20
26.7179030300
30
0.0000000000
10
42.6871694986
20
26.9959857424
30
0.0000000000
10
42.7479459665
20
27.5441094633
30
0.0000000000
10
43.0395768784
20
28.2849338670
30
0.0000000000
10
43.4870257641
20
28.8718441209
30
0.0000000000
10
44.0338401329
20
29.2675068057
30
0.0000000000
10
44.6316825096
20
29.4641811378
30
0.0000000000
10
45.2447174565
20
29.4637332056
30
0.0000000000
10
45.8421724910
20
29.2661950804
30
0.0000000000
10
46.3877459683
20
28.8703904761
30
0.0000000000
10
46.8338953152
20
28.2846332665
30
0.0000000000
10
47.1254313870
20
27.5446974179
30
0.0000000000
10
47.1863836465
20
26.9965783144
30
0.0000000000
10
47.1810380225
20
26.7179030300
30
0.0000000000
11
42.6924879209
21
26.7179030300
31
0.0000000000
11
42.7861249444
21
27.5470330758
31
0.0000000000
11
43.0820443106
21
28.2878612550
31
0.0000000000
11
43.5280106489
21
28.8638884079
31
0.0000000000
11
44.0637188151
21
29.2457187153
31
0.0000000000
11
44.6424443040
21
29.4332428721
31
0.0000000000
11
45.2337937756
21
29.4328161871
31
0.0000000000
11
45.8125728729
21
29.2443309921
31
0.0000000000
11
46.3472697387
21
28.8622066736
31
0.0000000000
11
46.7915262020
21
28.2877868765
31
0.0000000000
11
47.0869635146
21
27.5487738956
31
0.0000000000
11
47.1810380225
21
26.7179030300
31
0.0000000000
0
SPLINE
5
380
100
AcDbEntity
8
0
100
AcDbSpline
62
0
6
CONTINUOUS
70
0
71
3
72
18
73
14
74
12
42
0.0000001000
43
0.0000001000
44
0.0000000001
12
-0.1516239478
22
8.7115057913
32
0.0000000000
13
-0.1526349583
23
-8.7114881360
33
0.0000000000
40
0.0000000000
40
0.0000000000
40
0.0000000000
40
0.0000000000
40
0.1046228466
40
0.2055161763
40
0.2983407834
40
0.3829211842
40
0.4617144918
40
0.5385215907
40
0.6173491053
40
0.7018290068
40
0.7943452925
40
0.8949953884
40
1.0000000000
40
1.0000000000
40
1.0000000000
40
1.0000000000
10
42.3926706728
20
26.7126681055
30
0.0000000000
10
42.3873828964
20
27.0164756167
30
0.0000000000
10
42.4573948529
20
27.6179173654
30
0.0000000000
10
42.7894872109
20
28.4298358507
30
0.0000000000
10
43.2977437334
20
29.0726979135
30
0.0000000000
10
43.9169085836
20
29.5048280540
30
0.0000000000
10
44.5920644354
20
29.7191761863
30
0.0000000000
10
45.2836751095
20
29.7188577441
30
0.0000000000
10
45.9584445802
20
29.5039096609
30
0.0000000000
10
46.5763367692
20
29.0719466794
30
0.0000000000
10
47.0833408007
20
28.4306368143
30
0.0000000000
10
47.4157804303
20
27.6194722670
30
0.0000000000
10
47.4861977288
20
27.0175835816
30
0.0000000000
10
47.4808552706
20
26.7126681055
30
0.0000000000
11
42.3926706728
21
26.7126681055
31
0.0000000000
11
42.4998075140
21
27.6179108228
31
0.0000000000
11
42.8359443178
21
28.4301724721
31
0.0000000000
11
43.3414772732
21
29.0614700005
31
0.0000000000
11
43.9481597940
21
29.4798100593
31
0.0000000000
11
44.6032007263
21
29.6852864252
31
0.0000000000
11
45.2724074833
21
29.6849798033
31
0.0000000000
11
45.9275347075
21
29.4787838177
31
0.0000000000
11
46.5331676471
21
29.0604645288
31
0.0000000000
11
47.0369765647
21
28.4312279439
31
0.0000000000
11
47.3728713299
21
27.6211599182
31
0.0000000000
11
47.4808552706
21
26.7126681055
31
0.0000000000
0
SPLINE
5
381
100
AcDbEntity
8
0
100
AcDbSpline
62
0
6
CONTINUOUS
70
0
71
3
72
18
73
14
74
12
42
0.0000001000
43
0.0000001000
44
0.0000000001
12
-0.1484021722
22
-8.4766234097
32
0.0000000000
13
-0.1474405973
23
8.4766401897
33
0.0000000000
40
0.0000000000
40
0.0000000000
40
0.0000000000
40
0.0000000000
40
0.1047766644
40
0.2053820064
40
0.2979516732
40
0.3825343231
40
0.4615580124
40
0.5386730439
40
0.6177249906
40
0.7022029467
40
0.7944751406
40
0.8948410404
40
1.0000000000
40
1.0000000000
40
1.0000000000
40
1.0000000000
10
47.4808552706
20
26.7126681055
30
0.0000000000
10
47.4756722424
20
26.4166173299
30
0.0000000000
10
47.3892115973
20
25.8345659036
30
0.0000000000
10
47.0462732178
20
25.0546151064
30
0.0000000000
10
46.5403882749
20
24.4408121347
30
0.0000000000
10
45.9325171936
20
24.0291292659
30
0.0000000000
10
45.2730549597
20
23.8249799637
30
0.0000000000
10
44.5983889018
20
23.8252838879
30
0.0000000000
10
43.9393196687
20
24.0299788331
30
0.0000000000
10
43.3326549605
20
24.4414712676
30
0.0000000000
10
42.8279696746
20
25.0537975729
30
0.0000000000
10
42.4847009535
20
25.8330531522
30
0.0000000000
10
42.3978389060
20
26.4155365510
30
0.0000000000
10
42.3926706728
20
26.7126681055
30
0.0000000000
11
47.4808552706
21
26.7126681055
31
0.0000000000
11
47.3484347344
21
25.8343053496
31
0.0000000000
11
47.0019021592
21
25.0549498468
31
0.0000000000
11
46.4991621474
21
24.4523213669
31
0.0000000000
11
45.9032931141
21
24.0533837872
31
0.0000000000
11
45.2626641347
21
23.8573315125
31
0.0000000000
11
44.6088889490
21
23.8576227977
31
0.0000000000
11
43.9682104623
21
24.0543309886
31
0.0000000000
11
43.3733635307
21
24.4531994673
31
0.0000000000
11
42.8722566620
21
25.0539060712
31
0.0000000000
11
42.5260079566
21
25.8311659724
31
0.0000000000
11
42.3926706728
21
26.7126681055
31
0.0000000000
0
SPLINE
5
382
100
AcDbEntity
8
0
100
AcDbSpline
62
0
6
CONTINUOUS
70
0
71
3
72
8
73
4
74
2
42
0.0000001000
43
0.0000001000
44
0.0000000001
12
-0.1730191812
22
0.3970491743
32
0.0000000000
13
-0.2453968753
23
0.3571289773
33
0.0000000000
40
0.0000000000
40
0.0000000000
40
0.0000000000
40
0.0000000000
40
1.0000000000
40
1.0000000000
40
1.0000000000
40
1.0000000000
10
-5.2401339339
20
42.5397557288
30
0.0000000000
10
-5.2978069943
20
42.6721054536
30
0.0000000000
10
-5.3686312299
20
42.7986885413
30
0.0000000000
10
-5.4504301883
20
42.9177315338
30
0.0000000000
11
-5.2401339339
21
42.5397557288
31
0.0000000000
11
-5.4504301883
21
42.9177315338
31
0.0000000000
0
SPLINE
5
383
100
AcDbEntity
8
0
100
AcDbSpline
62
0
6
CONTINUOUS
70
0
71
3
72
8
73
4
74
2
42
0.0000001000
43
0.0000001000
44
0.0000000001
12
-0.0889447360
22
0.1294423272
32
0.0000000000
13
-0.0972844540
23
0.1232456524
33
0.0000000000
40
0.0000000000
40
0.0000000000
40
0.0000000000
40
0.0000000000
40
1.0000000000
40
1.0000000000
40
1.0000000000
40
1.0000000000
10
-5.4504301883
20
42.9177315338
30
0.0000000000
10
-5.4800784337
20
42.9608789762
30
0.0000000000
10
-5.5111684491
20
43.0030358620
30
0.0000000000
10
-5.5435966004
20
43.0441177461
30
0.0000000000
11
-5.4504301883
21
42.9177315338
31
0.0000000000
11
-5.5435966004
21
43.0441177461
31
0.0000000000
0
SPLINE
5
384
100
AcDbEntity
8
0
100
AcDbSpline
62
0
6
CONTINUOUS
70
0
71
3
72
13
73
9
74
7
42
0.0000001000
43
0.0000001000
44
0.0000000001
12
-0.1284962143
22
7.3612880613
32
0.0000000000
13
0.1031281822
23
7.4337390274
33
0.0000000000
40
0.0000000000
40
0.0000000000
40
0.0000000000
40
0.0000000000
40
0.2216225953
40
0.4343953917
40
0.6291832531
40
0.7972755750
40
0.9313840929
40
1.0000000000
40
1.0000000000
40
1.0000000000
40
1.0000000000
10
54.1849284715
20
48.8262785701
30
0.0000000000
10
54.1754359167
20
49.3700878251
30
0.0000000000
10
54.1597117294
20
50.4361505148
30
0.0000000000
10
54.1488153744
20
51.9797913898
30
0.0000000000
10
54.1427763796
20
53.3938823806
30
0.0000000000
10
54.1672003880
20
54.6095414267
30
0.0000000000
10
54.1502057843
20
55.5293211947
30
0.0000000000
10
54.2215836116
20
56.0120891373
30
0.0000000000
10
54.2239423562
20
56.1821133860
30
0.0000000000
11
54.1849284715
21
48.8262785701
31
0.0000000000
11
54.1615260814
21
50.4577870311
31
0.0000000000
11
54.1492623200
21
52.0242594770
31
0.0000000000
11
54.1487316545
21
53.4583673737
31
0.0000000000
11
54.1599906370
21
54.6958806601
31
0.0000000000
11
54.1825067708
21
55.6829857163
31
0.0000000000
11
54.2239423562
21
56.1821133860
31
0.0000000000
0
SPLINE
5
385
100
AcDbEntity
8
0
100
AcDbSpline
62
0
6
CONTINUOUS
70
0
71
3
72
12
73
8
74
6
42
0.0000001000
43
0.0000001000
44
0.0000000001
12
0.0150594422
22
1.0855225127
32
0.0000000000
13
0.0722800258
23
-1.1953444534
33
0.0000000000
40
0.0000000000
40
0.0000000000
40
0.0000000000
40
0.0000000000
40
0.1797395659
40
0.5345008996
40
0.5949808854
40
0.8738372290
40
1.0000000000
40
1.0000000000
40
1.0000000000
40
1.0000000000
10
54.2239423562
20
56.1821133860
30
0.0000000000
10
54.2248446154
20
56.2471505011
30
0.0000000000
10
54.2180419845
20
56.4434362388
30
0.0000000000
10
54.1619669272
20
56.6763861149
30
0.0000000000
10
54.3781671981
20
56.8751541972
30
0.0000000000
10
54.3561830704
20
56.5667401805
30
0.0000000000
10
54.3610908007
20
56.3868592120
30
0.0000000000
10
54.3641304835
20
56.3365898891
30
0.0000000000
11
54.2239423562
21
56.1821133860
31
0.0000000000
11
54.2153422810
21
56.3806310039
31
0.0000000000
11
54.2572048901
21
56.7597328718
31
0.0000000000
11
54.3062797964
21
56.8023892843
31
0.0000000000
11
54.3603655014
21
56.5075080561
31
0.0000000000
11
54.3641304835
21
56.3365898891
31
0.0000000000
0
SPLINE
5
386
100
AcDbEntity
8
0
100
AcDbSpline
62
0
6
CONTINUOUS
70
0
71
3
72
8
73
4
74
2
42
0.0000001000
43
0.0000001000
44
0.0000000001
12
0.0286278304
22
-0.4734381035
32
0.0000000000
13
0.0417442848
23
-0.3944170407
33
0.0000000000
40
0.0000000000
40
0.0000000000
40
0.0000000000
40
0.0000000000
40
1.0000000000
40
1.0000000000
40
1.0000000000
40
1.0000000000
10
54.3641304835
20
56.3365898891
30
0.0000000000
10
54.3736730936
20
56.1787771880
30
0.0000000000
10
54.3981066765
20
56.0777645367
30
0.0000000000
10
54.4120214381
20
55.9462921898
30
0.0000000000
11
54.3641304835
21
56.3365898891
31
0.0000000000
11
54.4120214381
21
55.9462921898
31
0.0000000000
0
SPLINE
5
387
100
AcDbEntity
8
0
100
AcDbSpline
62
0
6
CONTINUOUS
70
0
71
3
72
8
73
4
74
2
42
0.0000001000
43
0.0000001000
44
0.0000000001
12
0.0057640318
22
-0.0544609251
32
0.0000000000
13
0.0043600403
23
-0.0586345502
33
0.0000000000
40
0.0000000000
40
0.0000000000
40
0.0000000000
40
0.0000000000
40
1.0000000000
40
1.0000000000
40
1.0000000000
40
1.0000000000
10
54.4120214381
20
55.9462921898
30
0.0000000000
10
54.4139427820
20
55.9281385481
30
0.0000000000
10
54.4156635745
20
55.9094041630
30
0.0000000000
10
54.4171169213
20
55.8898593130
30
0.0000000000
11
54.4120214381
21
55.9462921898
31
0.0000000000
11
54.4171169213
21
55.8898593130
31
0.0000000000
0
SPLINE
5
388
100
AcDbEntity
8
0
100
AcDbSpline
62
0
6
CONTINUOUS
70
0
71
3
72
15
73
11
74
9
42
0.0000001000
43
0.0000001000
44
0.0000000001
12
-0.1395353848
22
8.9933768220
32
0.0000000000
13
5.9706774051
23
3.7392649036
33
0.0000000000
40
0.0000000000
40
0.0000000000
40
0.0000000000
40
0.0000000000
40
0.2044576887
40
0.4002850598
40
0.5795489393
40
0.7342403051
40
0.8576574100
40
0.9449611892
40
0.9926183885
40
1.0000000000
40
1.0000000000
40
1.0000000000
40
1.0000000000
10
53.1855376445
20
48.8088288217
30
0.0000000000
10
53.1760279504
20
49.4217505013
30
0.0000000000
10
53.1602665502
20
50.6218606832
30
0.0000000000
10
53.1495157638
20
52.3590417973
30
0.0000000000
10
53.1430766647
20
53.9485744415
30
0.0000000000
10
53.1687354986
20
55.3164098976
30
0.0000000000
10
53.1472650463
20
56.4208871893
30
0.0000000000
10
53.2678064393
20
57.1749901884
30
0.0000000000
10
53.1568376222
20
57.6317398942
30
0.0000000000
10
53.2904190002
20
57.7719635374
30
0.0000000000
10
53.3051100740
20
57.7811641377
30
0.0000000000
11
53.1855376445
21
48.8088288217
31
0.0000000000
11
53.1621015619
21
50.6476658255
31
0.0000000000
11
53.1498624209
21
52.4089846068
31
0.0000000000
11
53.1493459615
21
54.0213661789
31
0.0000000000
11
53.1606072778
21
55.4126857881
31
0.0000000000
11
53.1831131313
21
56.5225277372
31
0.0000000000
11
53.2159278667
21
57.3070920745
31
0.0000000000
11
53.2577626214
21
57.7336964656
31
0.0000000000
11
53.3051100740
21
57.7811641377
31
0.0000000000
0
SPLINE
5
389
100
AcDbEntity
8
0
100
AcDbSpline
62
0
6
CONTINUOUS
70
0
71
3
72
15
73
11
74
9
42
0.0000001000
43
0.0000001000
44
0.0000000001
12
-0.1571290826
22
-1.0199738402
32
0.0000000000
13
-1.0320059027
23
0.0000000000
33
0.0000000000
40
0.0000000000
40
0.0000000000
40
0.0000000000
40
0.0000000000
40
0.0394733726
40
0.1045027496
40
0.1987877488
40
0.3209158198
40
0.4674813541
40
0.6335777281
40
0.8133101822
40
1.0000000000
40
1.0000000000
40
1.0000000000
40
1.0000000000
10
55.8272802965
20
-45.2353271125
30
0.0000000000
10
55.8252128249
20
-45.2487477150
30
0.0000000000
10
55.7980086137
20
-45.2778909940
30
0.0000000000
10
55.7364480270
20
-45.3058658521
30
0.0000000000
10
55.6432386690
20
-45.3344344361
30
0.0000000000
10
55.5208280491
20
-45.3588239394
30
0.0000000000
10
55.3725662819
20
-45.3794278264
30
0.0000000000
10
55.2038371301
20
-45.3947197722
30
0.0000000000
10
55.0208525422
20
-45.4042058019
30
0.0000000000
10
54.8947921405
20
-45.4063248129
30
0.0000000000
10
54.8305704758
20
-45.4063248129
30
0.0000000000
11
55.8272802965
21
-45.2353271125
31
0.0000000000
11
55.8039254116
21
-45.2687042370
31
0.0000000000
11
55.7449370962
21
-45.3007077497
31
0.0000000000
11
55.6522111471
21
-45.3301985798
31
0.0000000000
11
55.5288607641
21
-45.3560825648
31
0.0000000000
11
55.3791111805
21
-45.3773802163
31
0.0000000000
11
55.2084340125
21
-45.3932398619
31
0.0000000000
11
55.0232071453
21
-45.4030212553
31
0.0000000000
11
54.8305704758
21
-45.4063248129
31
0.0000000000
0
SPLINE
5
38A
100
AcDbEntity
8
0
100
AcDbSpline
62
0
6
CONTINUOUS
70
0
71
3
72
15
73
11
74
9
42
0.0000001000
43
0.0000001000
44
0.0000000001
12
-1.0320062642
22
0.0000000000
32
0.0000000000
13
-0.1571291376
23
1.0199741975
33
0.0000000000
40
0.0000000000
40
0.0000000000
40
0.0000000000
40
0.0000000000
40
0.1867129330
40
0.3664914023
40
0.5326250794
40
0.6791914442
40
0.8012856358
40
0.8955286870
40
0.9605328168
40
1.0000000000
40
1.0000000000
40
1.0000000000
40
1.0000000000
10
-54.9570445325
20
-45.4063248129
30
0.0000000000
10
-55.0212741713
20
-45.4063248129
30
0.0000000000
10
-55.1473584021
20
-45.4042051406
30
0.0000000000
10
-55.3303795641
20
-45.3947155640
30
0.0000000000
10
-55.4991373218
20
-45.3794173748
30
0.0000000000
10
-55.6473998510
20
-45.3588076870
30
0.0000000000
10
-55.7697839567
20
-45.3344163561
30
0.0000000000
10
-55.8629578231
20
-45.3058517668
30
0.0000000000
10
-55.9244936177
20
-45.2778817196
30
0.0000000000
10
-55.9516872050
20
-45.2487456153
30
0.0000000000
10
-55.9537543532
20
-45.2353271125
30
0.0000000000
11
-54.9570445325
21
-45.4063248129
31
0.0000000000
11
-55.1497051137
21
-45.4030204271
31
0.0000000000
11
-55.3349793724
21
-45.3932347218
31
0.0000000000
11
-55.5056945623
21
-45.3773675301
31
0.0000000000
11
-55.6554441801
21
-45.3560636564
31
0.0000000000
11
-55.7787588853
21
-45.3301796835
31
0.0000000000
11
-55.8714415332
21
-45.3006954265
31
0.0000000000
11
-55.9304046742
21
-45.2687001011
31
0.0000000000
11
-55.9537543532
21
-45.2353271125
31
0.0000000000
0
SPLINE
5
38B
100
AcDbEntity
8
0
100
AcDbSpline
62
0
6
CONTINUOUS
70
0
71
3
72
8
73
4
74
2
42
0.0000001000
43
0.0000001000
44
0.0000000001
12
0.0043600185
22
0.0586342527
32
0.0000000000
13
0.0057639967
23
0.0544606664
33
0.0000000000
40
0.0000000000
40
0.0000000000
40
0.0000000000
40
0.0000000000
40
1.0000000000
40
1.0000000000
40
1.0000000000
40
1.0000000000
10
-54.5435909779
20
55.8898593130
30
0.0000000000
10
-54.5421376384
20
55.9094040639
30
0.0000000000
10
-54.5404168559
20
55.9281383580
30
0.0000000000
10
-54.5384955236
20
55.9462919135
30
0.0000000000
11
-54.5435909779
21
55.8898593130
31
0.0000000000
11
-54.5384955236
21
55.9462919135
31
0.0000000000
0
SPLINE
5
38C
100
AcDbEntity
8
0
100
AcDbSpline
62
0
6
CONTINUOUS
70
0
71
3
72
8
73
4
74
2
42
0.0000001000
43
0.0000001000
44
0.0000000001
12
0.0417442715
22
0.3944174463
32
0.0000000000
13
0.0286278498
23
0.4734384372
33
0.0000000000
40
0.0000000000
40
0.0000000000
40
0.0000000000
40
0.0000000000
40
1.0000000000
40
1.0000000000
40
1.0000000000
40
1.0000000000
10
-54.5384955236
20
55.9462919135
30
0.0000000000
10
-54.5245807665
20
56.0777643955
30
0.0000000000
10
-54.5001471565
20
56.1787770780
30
0.0000000000
10
-54.4906045399
20
56.3365898904
30
0.0000000000
11
-54.5384955236
21
55.9462919135
31
0.0000000000
11
-54.4906045399
21
56.3365898904
31
0.0000000000
0
SPLINE
5
38D
100
AcDbEntity
8
0
100
AcDbSpline
62
0
6
CONTINUOUS
70
0
71
3
72
12
73
8
74
6
42
0.0000001000
43
0.0000001000
44
0.0000000001
12
0.0722800236
22
1.1953444532
32
0.0000000000
13
0.0150594425
23
-1.0855225113
33
0.0000000000
40
0.0000000000
40
0.0000000000
40
0.0000000000
40
0.0000000000
40
0.1261627712
40
0.4050191138
40
0.4654990999
40
0.8202604338
40
1.0000000000
40
1.0000000000
40
1.0000000000
40
1.0000000000
10
-54.4906045399
20
56.3365898904
30
0.0000000000
10
-54.4875648572
20
56.3868592134
30
0.0000000000
10
-54.4826571272
20
56.5667401815
30
0.0000000000
10
-54.5046412540
20
56.8751541974
30
0.0000000000
10
-54.2884409842
20
56.6763861144
30
0.0000000000
10
-54.3445160411
20
56.4434362387
30
0.0000000000
10
-54.3513186720
20
56.2471505011
30
0.0000000000
10
-54.3504164127
20
56.1821133860
30
0.0000000000
11
-54.4906045399
21
56.3365898904
31
0.0000000000
11
-54.4868395580
21
56.5075080576
31
0.0000000000
11
-54.4327538530
21
56.8023892844
31
0.0000000000
11
-54.3836789467
21
56.7597328717
31
0.0000000000
11
-54.3418163376
21
56.3806310039
31
0.0000000000
11
-54.3504164127
21
56.1821133860
31
0.0000000000
0
SPLINE
5
38E
100
AcDbEntity
8
0
100
AcDbSpline
62
0
6
CONTINUOUS
70
0
71
3
72
13
73
9
74
7
42
0.0000001000
43
0.0000001000
44
0.0000000001
12
0.1031281840
22
-7.4337390253
32
0.0000000000
13
-0.1284962252
23
-7.3612880610
33
0.0000000000
40
0.0000000000
40
0.0000000000
40
0.0000000000
40
0.0000000000
40
0.0686159070
40
0.2027244250
40
0.3708167469
40
0.5656046083
40
0.7783774047
40
1.0000000000
40
1.0000000000
40
1.0000000000
40
1.0000000000
10
-54.3504164127
20
56.1821133860
30
0.0000000000
10
-54.3480576681
20
56.0120891374
30
0.0000000000
10
-54.2766798410
20
55.5293211945
30
0.0000000000
10
-54.2936744446
20
54.6095414268
30
0.0000000000
10
-54.2692504363
20
53.3938823806
30
0.0000000000
10
-54.2752894309
20
51.9797913897
30
0.0000000000
10
-54.2861857865
20
50.4361505147
30
0.0000000000
10
-54.3019099725
20
49.3700878250
30
0.0000000000
10
-54.3114025281
20
48.8262785701
30
0.0000000000
11
-54.3504164127
21
56.1821133860
31
0.0000000000
11
-54.3089808274
21
55.6829857163
31
0.0000000000
11
-54.2864646936
21
54.6958806601
31
0.0000000000
11
-54.2752057111
21
53.4583673738
31
0.0000000000
11
-54.2757363766
21
52.0242594770
31
0.0000000000
11
-54.2880001380
21
50.4577870309
31
0.0000000000
11
-54.3114025281
21
48.8262785701
31
0.0000000000
0
SPLINE
5
38F
100
AcDbEntity
8
0
100
AcDbSpline
62
0
6
CONTINUOUS
70
0
71
3
72
8
73
4
74
2
42
0.0000001000
43
0.0000001000
44
0.0000000001
12
0.1708077130
22
0.3871290198
32
0.0000000000
13
0.2397483095
23
0.3489085527
33
0.0000000000
40
0.0000000000
40
0.0000000000
40
0.0000000000
40
0.0000000000
40
1.0000000000
40
1.0000000000
40
1.0000000000
40
1.0000000000
10
-10.3823366755
20
42.5488858522
30
0.0000000000
10
-10.3254007712
20
42.6779288588
30
0.0000000000
10
-10.2559599714
20
42.8014286829
30
0.0000000000
10
-10.1760438683
20
42.9177315338
30
0.0000000000
11
-10.3823366755
21
42.5488858522
31
0.0000000000
11
-10.1760438683
21
42.9177315338
31
0.0000000000
0
SPLINE
5
390
100
AcDbEntity
8
0
100
AcDbSpline
62
0
6
CONTINUOUS
70
0
71
3
72
8
73
4
74
2
42
0.0000001000
43
0.0000001000
44
0.0000000001
12
0.0889447360
22
0.1294423272
32
0.0000000000
13
0.0972844540
23
0.1232456524
33
0.0000000000
40
0.0000000000
40
0.0000000000
40
0.0000000000
40
0.0000000000
40
1.0000000000
40
1.0000000000
40
1.0000000000
40
1.0000000000
10
-10.1760438683
20
42.9177315338
30
0.0000000000
10
-10.1463956229
20
42.9608789762
30
0.0000000000
10
-10.1153056075
20
43.0030358620
30
0.0000000000
10
-10.0828774562
20
43.0441177461
30
0.0000000000
11
-10.1760438683
21
42.9177315338
31
0.0000000000
11
-10.0828774562
21
43.0441177461
31
0.0000000000
0
SPLINE
5
391
100
AcDbEntity
8
0
100
AcDbSpline
62
0
6
CONTINUOUS
70
0
71
3
72
10
73
6
74
4
42
0.0000001000
43
0.0000001000
44
0.0000000001
12
0.0000000000
22
-2.8426520855
32
0.0000000000
13
0.0415187576
23
-2.8423546747
33
0.0000000000
40
0.0000000000
40
0.0000000000
40
0.0000000000
40
0.0000000000
40
0.4015660535
40
0.7722204500
40
1.0000000000
40
1.0000000000
40
1.0000000000
40
1.0000000000
10
-56.5632370283
20
-36.2310566647
30
0.0000000000
10
-56.5632370283
20
-36.6115608578
30
0.0000000000
10
-56.5616944875
20
-37.3432802024
30
0.0000000000
10
-56.5549520406
20
-38.2908119050
30
0.0000000000
10
-56.5480465639
20
-38.8578181086
30
0.0000000000
10
-56.5448941893
20
-39.0736281982
30
0.0000000000
11
-56.5632370283
21
-36.2310566647
31
0.0000000000
11
-56.5606419073
21
-37.3725662942
31
0.0000000000
11
-56.5528874957
21
-38.4261792524
31
0.0000000000
11
-56.5448941893
21
-39.0736281982
31
0.0000000000
0
SPLINE
5
392
100
AcDbEntity
8
0
100
AcDbSpline
62
0
6
CONTINUOUS
70
0
71
3
72
13
73
9
74
7
42
0.0000001000
43
0.0000001000
44
0.0000000001
12
0.0470552159
22
-3.2213780187
32
0.0000000000
13
0.4905254271
23
-3.1841534068
33
0.0000000000
40
0.0000000000
40
0.0000000000
40
0.0000000000
40
0.0000000000
40
0.0949066094
40
0.3561291495
40
0.5796050242
40
0.7627173845
40
0.9033574475
40
1.0000000000
40
1.0000000000
40
1.0000000000
40
1.0000000000
10
-56.5448941893
20
-39.0736281982
30
0.0000000000
10
-56.5434055723
20
-39.1755382200
30
0.0000000000
10
-56.5373812231
20
-39.5579410308
30
0.0000000000
10
-56.5246380810
20
-40.1802624209
30
0.0000000000
10
-56.5029529145
20
-40.8970997270
30
0.0000000000
10
-56.4774026533
20
-41.4842805750
30
0.0000000000
10
-56.4480560986
20
-41.9347455161
30
0.0000000000
10
-56.4231122605
20
-42.1885786731
30
0.0000000000
10
-56.4073103840
20
-42.2911535774
30
0.0000000000
11
-56.5448941893
21
-39.0736281982
31
0.0000000000
11
-56.5400664315
21
-39.3793530971
31
0.0000000000
11
-56.5223319213
21
-40.2207508175
31
0.0000000000
11
-56.4998957886
21
-40.9403767490
31
0.0000000000
11
-56.4730254672
21
-41.5297003422
31
0.0000000000
11
-56.4420408719
21
-41.9817419004
31
0.0000000000
11
-56.4073103840
21
-42.2911535774
31
0.0000000000
0
SPLINE
5
393
100
AcDbEntity
8
0
100
AcDbSpline
62
0
6
CONTINUOUS
70
0
71
3
72
13
73
9
74
7
42
0.0000001000
43
0.0000001000
44
0.0000000001
12
0.4905298499
22
3.1841821164
32
0.0000000000
13
0.0470549376
23
3.2214070739
33
0.0000000000
40
0.0000000000
40
0.0000000000
40
0.0000000000
40
0.0000000000
40
0.0966424594
40
0.2372838648
40
0.4203983888
40
0.6438751928
40
0.9050951006
40
1.0000000000
40
1.0000000000
40
1.0000000000
40
1.0000000000
10
56.2808363274
20
-42.2911535774
30
0.0000000000
10
56.2966383311
20
-42.1885778471
30
0.0000000000
10
56.3215824434
20
-41.9347410552
30
0.0000000000
10
56.3509292930
20
-41.4842683825
30
0.0000000000
10
56.3764796924
20
-40.8970774674
30
0.0000000000
10
56.3981647511
20
-40.1802331943
30
0.0000000000
10
56.4109077372
20
-39.5579098539
30
0.0000000000
10
56.4169319751
20
-39.1755082564
30
0.0000000000
10
56.4184205565
20
-39.0735991516
30
0.0000000000
11
56.2808363274
21
-42.2911535774
31
0.0000000000
11
56.3155670309
21
-41.9817394017
31
0.0000000000
11
56.3465520162
21
-41.5296894404
31
0.0000000000
11
56.3734226057
21
-40.9403535562
31
0.0000000000
11
56.3958587057
21
-40.2207181339
31
0.0000000000
11
56.4135929163
21
-39.3793212997
31
0.0000000000
11
56.4184205565
21
-39.0735991516
31
0.0000000000
0
SPLINE
5
394
100
AcDbEntity
8
0
100
AcDbSpline
62
0
6
CONTINUOUS
70
0
71
3
72
10
73
6
74
4
42
0.0000001000
43
0.0000001000
44
0.0000000001
12
0.0415177134
22
2.8423256371
32
0.0000000000
13
-0.0000000000
23
2.8426230360
33
0.0000000000
40
0.0000000000
40
0.0000000000
40
0.0000000000
40
0.0000000000
40
0.2277790494
40
0.5984323768
40
1.0000000000
40
1.0000000000
40
1.0000000000
40
1.0000000000
10
56.4184205565
20
-39.0735991516
30
0.0000000000
10
56.4215728449
20
-38.8577917411
30
0.0000000000
10
56.4284781415
20
-38.2907928180
30
0.0000000000
10
56.4352204553
20
-37.3432707981
30
0.0000000000
10
56.4367629717
20
-36.6115584568
30
0.0000000000
10
56.4367629717
20
-36.2310566647
30
0.0000000000
11
56.4184205565
21
-39.0735991516
31
0.0000000000
11
56.4264136545
21
-38.4261582437
31
0.0000000000
11
56.4341678847
21
-37.3725590911
31
0.0000000000
11
56.4367629717
21
-36.2310566647
31
0.0000000000
0
ENDSEC
0
SECTION
2
OBJECTS
0
DICTIONARY
5
C
100
AcDbDictionary
280
0
281
1
3
ACAD_GROUP
350
D
3
ACAD_MLINESTYLE
350
17
3
ACAD_LAYOUT
350
1A
3
ACAD_PLOTSETTINGS
350
19
3
ACAD_PLOTSTYLENAME
350
E
0
DICTIONARY
5
D
102
{ACAD_REACTORS
330
C
102
}
100
AcDbDictionary
280
0
281
1
0
ACDBDICTIONARYWDFLT
5
E
102
{ACAD_REACTORS
330
C
102
}
100
AcDbDictionary
281
1
3
Normal
350
F
100
AcDbDictionaryWithDefault
340
F
0
DICTIONARY
5
17
102
{ACAD_REACTORS
330
C
102
}
100
AcDbDictionary
280
0
281
1
3
Standard
350
18
0
DICTIONARY
5
19
102
{ACAD_REACTORS
330
C
102
}
100
AcDbDictionary
281
1
0
DICTIONARY
5
1A
102
{ACAD_REACTORS
330
C
102
}
100
AcDbDictionary
281
1
3
Layout1
350
1E
3
Model
350
22
0
ACDBPLACEHOLDER
5
F
102
{ACAD_REACTORS
330
E
102
}
0
MLINESTYLE
5
18
102
{ACAD_REACTORS
330
17
102
}
100
AcDbMlineStyle
2
STANDARD
70
0
3

62
256
51
90.0
52
90.0
71
2
49
0.5
62
256
6
BYLAYER
49
-0.5
62
256
6
BYLAYER
0
LAYOUT
5
1E
102
{ACAD_REACTORS
330
1A
102
}
100
AcDbPlotSettings
1

2

4

6

40
0.0
41
0.0
42
0.0
43
0.0
44
0.0
45
0.0
46
0.0
47
0.0
48
0.0
49
0.0
140
0.0
141
0.0
142
1.0
143
1.0
70
0
72
0
73
0
74
0
7

75
0
147
1.0
148
0.0
149
0.0
100
AcDbLayout
1
Layout1
70
0
71
0
10
0.0
20
0.0
11
0.0
21
0.0
12
0.0
22
0.0
32
0.0
14
0.0
24
0.0
34
0.0
15
0.0
25
0.0
35
0.0
146
0.0
13
0.0
23
0.0
33
0.0
16
0.0
26
0.0
36
0.0
17
0.0
27
0.0
37
0.0
76
0
330
1B
331
0
345
0
346
0
0
LAYOUT
5
22
102
{ACAD_REACTORS
330
1A
102
}
100
AcDbPlotSettings
1

2

4

6

40
0.0
41
0.0
42
0.0
43
0.0
44
0.0
45
0.0
46
0.0
47
0.0
48
0.0
49
0.0
140
0.0
141
0.0
142
1.0
143
1.0
70
0
72
0
73
0
74
0
7

75
0
147
1.0
148
0.0
149
0.0
100
AcDbLayout
1
Model
70
0
71
0
10
0.0
20
0.0
11
0.0
21
0.0
12
0.0
22
0.0
32
0.0
14
0.0
24
0.0
34
0.0
15
0.0
25
0.0
35
0.0
146
0.0
13
0.0
23
0.0
33
0.0
16
0.0
26
0.0
36
0.0
17
0.0
27
0.0
37
0.0
76
0
330
1F
331
0
345
0
346
0
0
ENDSEC
0
EOF
