  0
SECTION
  2
HEADER
  9
$ACADVER
  1
AC1015
  9
$DWGCODEPAGE
  3
ANSI_1252
  9
$EXTMAX
 10
297.0
 20
210.0
 30
0.0
  9
$EXTMIN
 10
0.0
 20
0.0
 30
0.0
  9
$LIMMIN
 10
0.0
 20
0.0
  9
$LIMMAX
 10
297.0
 20
210.0
  9
$VIEWCTR
 10
148.5
 20
105.0
  9
$VIEWSIZE
 40
210.0
  9
$CLAYER
  8
0
  9
$LTSCALE
 40
16.335
  9
$CELTYPE
  6
BYLAYER
  9
$DIMSCALE
 40
1.0
  9
$DIMASZ
 40
3.0
  9
$DIMEXO
 40
0.5
  9
$DIMDLI
 40
11.286
  9
$DIMEXE
 40
1.5
  9
$DIMCEN
 40
2.673
  9
$DIMLFAC
 40
1.0
  9
$DIMBLK
  1
_FILLED
  9
$DIMTXT
 40
3.0
  9
$DIMTOL
 70
1
  9
$DIMLIM
 70
0
  9
$DIMTFAC
 40
1.0
  9
$DIMTP
 40
0.01
  9
$DIMTM
 40
0.01
  9
$DIMGAP
 40
0.625
  9
$DIMDSEP
 70
44
  9
$PDMODE
 70
3
  9
$PDSIZE
 40
3.0
  9
$HANDSEED
  5
420
  9
$TILEMODE
 70
1
  9
$MEASUREMENT
 70
1
  9
$INSUNITS
 70
4
  0
ENDSEC
  0
SECTION
  2
CLASSES
  0
CLASS
  1
ACDBDICTIONARYWDFLT
  2
AcDbDictionaryWithDefault
  3
AutoCAD 2000
 90
0
280
0
281
0
  0
CLASS
  1
ACDBPLACEHOLDER
  2
AcDbPlaceHolder
  3
AutoCAD 2000
 90
0
280
0
281
0
  0
CLASS
  1
LAYOUT
  2
AcDbLayout
  3
AutoCAD 2000
 90
0
280
0
281
0
  0
ENDSEC
  0
SECTION
  2
TABLES
  0
TABLE
  2
VPORT
  5
8
100
AcDbSymbolTable
 70
2
  0
VPORT
  5
1F4
100
AcDbSymbolTableRecord
100
AcDbViewportTableRecord
  2
*ACTIVE
 70
0
 10
0.0
 20
0.0
 11
1.0
 21
1.0
 12
148.5
 22
105.0
 13
0.0
 23
0.0
 14
1.0
 24
1.0
 15
0.0
 25
0.0
 16
0.0
 26
0.0
 36
1.0
 17
0.0
 27
0.0
 37
0.0
 40
210.0
 41
1.4142857143
 42
50.0
 43
0.0
 44
0.0
 50
0.0
 51
0.0
 71
0
 72
100
 73
1
 74
1
 75
0
 76
0
 77
0
 78
0
  0
ENDTAB
  0
TABLE
  2
LTYPE
  5
5
100
AcDbSymbolTable
 70
6
  0
LTYPE
  5
14
100
AcDbSymbolTableRecord
100
AcDbLinetypeTableRecord
  2
BYBLOCK
 70
0
  3

 72
65
 73
0
 40
0.0
  0
LTYPE
  5
15
100
AcDbSymbolTableRecord
100
AcDbLinetypeTableRecord
  2
BYLAYER
 70
0
  3

 72
65
 73
0
 40
0.0
  0
LTYPE
  5
16
100
AcDbSymbolTableRecord
100
AcDbLinetypeTableRecord
  2
CONTINUOUS
 70
64
  3
Solid line
 72
65
 73
0
 40
0.0
  0
LTYPE
  5
1F5
100
AcDbSymbolTableRecord
100
AcDbLinetypeTableRecord
  2
CENTER
 70
64
  3
____ _ ____ _ ____ _ ____ _ ____ _ ____ _ ____
 72
65
 73
4
 40
0.6
 49
0.375
 74
0
 49
-0.075
 74
0
 49
0.075
 74
0
 49
-0.075
 74
0
  0
LTYPE
  5
1F6
100
AcDbSymbolTableRecord
100
AcDbLinetypeTableRecord
  2
HIDDEN
 70
64
  3
- - - - - - - - - - - - - - - - - - - -
 72
65
 73
2
 40
0.2
 49
0.1
 74
0
 49
-0.1
 74
0
  0
LTYPE
  5
1F7
100
AcDbSymbolTableRecord
100
AcDbLinetypeTableRecord
  2
PHANTOM
 70
64
  3
_____ _ _ _____ _ _ _____ _ _ _____
 72
65
 73
6
 40
0.8
 49
0.45
 74
0
 49
-0.05
 74
0
 49
0.1
 74
0
 49
-0.05
 74
0
 49
0.1
 74
0
 49
-0.05
 74
0
  0
LTYPE
  5
1F8
100
AcDbSymbolTableRecord
100
AcDbLinetypeTableRecord
  2
DOT
 70
64
  3
. . . . . . . . . . . . . . . . . . . .
 72
65
 73
2
 40
0.2
 49
0.1
 74
0
 49
-0.1
 74
0
  0
LTYPE
  5
1F9
100
AcDbSymbolTableRecord
100
AcDbLinetypeTableRecord
  2
DASHED
 70
64
  3
- - - - - - - - - - - - - - - - - - - -
 72
65
 73
2
 40
0.2
 49
0.1
 74
0
 49
-0.1
 74
0
  0
ENDTAB
  0
TABLE
  2
LAYER
  5
2
100
AcDbSymbolTable
 70
36
  0
LAYER
  5
10
100
AcDbSymbolTableRecord
100
AcDbLayerTableRecord
  2
0
 70
0
 62
7
  6
CONTINUOUS
370
-3
390
F
  0
LAYER
  5
1FA
100
AcDbSymbolTableRecord
100
AcDbLayerTableRecord
  2
DEFAULT_1
 70
0
 62
7
  6
CENTER
370
-3
390
F
  0
LAYER
  5
1FB
100
AcDbSymbolTableRecord
100
AcDbLayerTableRecord
  2
DEFAULT_2
 70
0
 62
7
  6
HIDDEN
370
-3
390
F
  0
LAYER
  5
1FC
100
AcDbSymbolTableRecord
100
AcDbLayerTableRecord
  2
DEFAULT_3
 70
0
 62
7
  6
PHANTOM
370
-3
390
F
  0
LAYER
  5
1FD
100
AcDbSymbolTableRecord
100
AcDbLayerTableRecord
  2
ASSI
 70
0
 62
7
  6
CONTINUOUS
370
-3
390
F
  0
LAYER
  5
1FE
100
AcDbSymbolTableRecord
100
AcDbLayerTableRecord
  2
COLOR1
 70
0
 62
7
  6
CONTINUOUS
370
-3
390
F
  0
LAYER
  5
1FF
100
AcDbSymbolTableRecord
100
AcDbLayerTableRecord
  2
COORDINATE
 70
0
 62
7
  6
CONTINUOUS
370
-3
390
F
  0
LAYER
  5
200
100
AcDbSymbolTableRecord
100
AcDbLayerTableRecord
  2
COORD_ORIGINE
 70
0
 62
7
  6
CONTINUOUS
370
-3
390
F
  0
LAYER
  5
201
100
AcDbSymbolTableRecord
100
AcDbLayerTableRecord
  2
COPY_PUBLISH
 70
0
 62
7
  6
CONTINUOUS
370
-3
390
F
  0
LAYER
  5
202
100
AcDbSymbolTableRecord
100
AcDbLayerTableRecord
  2
COSMETICI
 70
0
 62
7
  6
CONTINUOUS
370
-3
390
F
  0
LAYER
  5
203
100
AcDbSymbolTableRecord
100
AcDbLayerTableRecord
  2
CURVE
 70
0
 62
7
  6
CONTINUOUS
370
-3
390
F
  0
LAYER
  5
204
100
AcDbSymbolTableRecord
100
AcDbLayerTableRecord
  2
CURVE_LED_TASTO
 70
0
 62
7
  6
CONTINUOUS
370
-3
390
F
  0
LAYER
  5
205
100
AcDbSymbolTableRecord
100
AcDbLayerTableRecord
  2
DRAFT
 70
0
 62
7
  6
CONTINUOUS
370
-3
390
F
  0
LAYER
  5
206
100
AcDbSymbolTableRecord
100
AcDbLayerTableRecord
  2
IMPORT_IGES
 70
0
 62
7
  6
CONTINUOUS
370
-3
390
F
  0
LAYER
  5
207
100
AcDbSymbolTableRecord
100
AcDbLayerTableRecord
  2
INTF_YELLOW
 70
0
 62
7
  6
CONTINUOUS
370
-3
390
F
  0
LAYER
  5
208
100
AcDbSymbolTableRecord
100
AcDbLayerTableRecord
  2
NOTE
 70
0
 62
7
  6
CONTINUOUS
370
-3
390
F
  0
LAYER
  5
209
100
AcDbSymbolTableRecord
100
AcDbLayerTableRecord
  2
PIANI
 70
0
 62
7
  6
CONTINUOUS
370
-3
390
F
  0
LAYER
  5
20A
100
AcDbSymbolTableRecord
100
AcDbLayerTableRecord
  2
PIANI_ORIGINE
 70
0
 62
7
  6
CONTINUOUS
370
-3
390
F
  0
LAYER
  5
20B
100
AcDbSymbolTableRecord
100
AcDbLayerTableRecord
  2
PIANI_RIFERIMENTO
 70
0
 62
7
  6
CONTINUOUS
370
-3
390
F
  0
LAYER
  5
20C
100
AcDbSymbolTableRecord
100
AcDbLayerTableRecord
  2
PUNTI
 70
0
 62
7
  6
CONTINUOUS
370
-3
390
F
  0
LAYER
  5
20D
100
AcDbSymbolTableRecord
100
AcDbLayerTableRecord
  2
RACCORDO
 70
0
 62
7
  6
CONTINUOUS
370
-3
390
F
  0
LAYER
  5
20E
100
AcDbSymbolTableRecord
100
AcDbLayerTableRecord
  2
SCRITTE
 70
0
 62
7
  6
CONTINUOUS
370
-3
390
F
  0
LAYER
  5
20F
100
AcDbSymbolTableRecord
100
AcDbLayerTableRecord
  2
SIMBOLI
 70
0
 62
7
  6
CONTINUOUS
370
-3
390
F
  0
LAYER
  5
210
100
AcDbSymbolTableRecord
100
AcDbLayerTableRecord
  2
SMUSSO
 70
0
 62
7
  6
CONTINUOUS
370
-3
390
F
  0
LAYER
  5
211
100
AcDbSymbolTableRecord
100
AcDbLayerTableRecord
  2
SNAPLINE
 70
0
 62
7
  6
CONTINUOUS
370
-3
390
F
  0
LAYER
  5
212
100
AcDbSymbolTableRecord
100
AcDbLayerTableRecord
  2
SUPERFICI
 70
0
 62
7
  6
CONTINUOUS
370
-3
390
F
  0
LAYER
  5
213
100
AcDbSymbolTableRecord
100
AcDbLayerTableRecord
  2
TRASH
 70
0
 62
7
  6
CONTINUOUS
370
-3
390
F
  0
ENDTAB
  0
TABLE
  2
STYLE
  5
3
100
AcDbSymbolTable
 70
1
  0
STYLE
  5
11
100
AcDbSymbolTableRecord
100
AcDbTextStyleTableRecord
  2
STANDARD
 70
0
 40
0.0
 41
0.8
 50
0.0
 71
0
 42
0.2
  3
txt
  4

  0
STYLE
  5
214
100
AcDbSymbolTableRecord
100
AcDbTextStyleTableRecord
  2
TEXTSTYLE_1
 70
0
 40
0.0
 41
0.8
 50
0.0
 71
0
 42
0.2
  3
gdt
  4

  0
ENDTAB
  0
TABLE
  2
VIEW
  5
6
100
AcDbSymbolTable
 70
0
  0
ENDTAB
  0
TABLE
  2
UCS
  5
7
100
AcDbSymbolTable
 70
0
  0
ENDTAB
  0
TABLE
  2
APPID
  5
9
100
AcDbSymbolTable
 70
1
  0
APPID
  5
215
100
AcDbSymbolTableRecord
100
AcDbRegAppTableRecord
  2
ACAD
 70
0
  0
ENDTAB
  0
TABLE
  2
BLOCK_RECORD
  5
1
100
AcDbSymbolTable
 70
0
  0
BLOCK_RECORD
  5
216
100
AcDbSymbolTableRecord
100
AcDbBlockTableRecord
  2
*Model_Space
  0
BLOCK_RECORD
  5
217
100
AcDbSymbolTableRecord
100
AcDbBlockTableRecord
  2
*Paper_Space
  0
ENDTAB
  0
TABLE
  2
DIMSTYLE
  5
A
100
AcDbSymbolTable
 70
1
100
AcDbDimStyleTable
 71
0
  0
DIMSTYLE
105
218
100
AcDbSymbolTableRecord
100
AcDbDimStyleTableRecord
  2
STANDARD
 70
0
  3

  4

 40
1.0
 41
3.0
 42
0.5
 43
0.38
 44
1.5
 45
0.0
 46
0.0
 47
0.01
 48
0.01
140
3.0
141
0.09
142
0.0
143
25.4
144
1.0
145
0.0
146
1.0
147
0.625
 71
1.0
 72
0.0
 73
0
 74
0
 75
0
 76
0
 77
1
 78
8
170
0
171
2
172
0
173
0
174
0
175
0
176
0
177
0
178
0
270
2
271
2
272
2
273
2
274
2
275
0
280
0
281
0
282
0
283
1
284
8
285
0
286
0
287
3
288
0
340
11
278
44
  0
ENDTAB
  0
ENDSEC
  0
SECTION
  2
BLOCKS
  0
BLOCK
  5
20
100
AcDbEntity
  8
0
100
AcDbBlockBegin
  2
*Model_Space
 70
0
 10
0.0
 20
0.0
 30
0.0
  3
*Model_Space
  1

  0
ENDBLK
  5
21
100
AcDbEntity
  8
0
100
AcDbBlockEnd
  0
BLOCK
  5
1C
100
AcDbEntity
  8
0
100
AcDbBlockBegin
  2
*Paper_Space
 70
0
 10
0.0
 20
0.0
 30
0.0
  3
*Paper_Space
  1

  0
ENDBLK
  5
1D
100
AcDbEntity
  8
0
100
AcDbBlockEnd
  0
ENDSEC
  0
SECTION
  2
ENTITIES
  0
LINE
  5
219
100
AcDbEntity
  8
RACCORDO
100
AcDbLine
 62
7
  6
CONTINUOUS
 10
-37.0400612859
 20
1.5772905861
 11
-37.0400612859
 21
25.7790178134
  0
LINE
  5
21A
100
AcDbEntity
  8
ASSI
100
AcDbLine
 62
7
  6
CONTINUOUS
 10
-37.0400612859
 20
1.5772905861
 11
-37.0400612859
 21
25.7790178134
  0
LINE
  5
21B
100
AcDbEntity
  8
RACCORDO
100
AcDbLine
 62
7
  6
CONTINUOUS
 10
-35.2906273763
 20
21.2033588272
 11
-35.2913331875
 21
21.2021630799
  0
LWPOLYLINE
  5
21C
100
AcDbEntity
  8
RACCORDO
100
AcDbPolyline
 62
7
  6
CONTINUOUS
 90
17
 70
0
 10
-35.2913331875
 20
21.2021630799
 10
-35.2923186723
 20
21.200930175
 10
-35.2935817686
 20
21.1996619235
 10
-35.2951202011
 20
21.198363758
 10
-35.2969312148
 20
21.1970355888
 10
-35.299011686
 20
21.1956775057
 10
-35.3013584166
 20
21.1942952109
 10
-35.3039676414
 20
21.1928886347
 10
-35.3068352465
 20
21.1914578468
 10
-35.3099571684
 20
21.1900087587
 10
-35.3133286866
 20
21.1885413202
 10
-35.3169447525
 20
21.1870555815
 10
-35.320800496
 20
21.1855576057
 10
-35.3248902996
 20
21.1840473607
 10
-35.3292082398
 20
21.1825248786
 10
-35.3337486965
 20
21.1809963177
 10
-35.3385054364
 20
21.1794637309
  0
LWPOLYLINE
  5
21D
100
AcDbEntity
  8
RACCORDO
100
AcDbPolyline
 62
7
  6
CONTINUOUS
 90
18
 70
0
 10
-35.2906273763
 20
6.1529495722
 10
-35.2913331875
 20
6.1541453195
 10
-35.2923186723
 20
6.1553782244
 10
-35.2935817686
 20
6.156646476
 10
-35.2951202011
 20
6.1579446414
 10
-35.2969312148
 20
6.1592728106
 10
-35.299011686
 20
6.1606308938
 10
-35.3013584166
 20
6.1620131885
 10
-35.3039676414
 20
6.1634197648
 10
-35.3068352465
 20
6.1648505527
 10
-35.3099571684
 20
6.1662996407
 10
-35.3133286866
 20
6.1677670793
 10
-35.3169447525
 20
6.1692528179
 10
-35.320800496
 20
6.1707507938
 10
-35.3248902996
 20
6.1722610387
 10
-35.3292082398
 20
6.1737835209
 10
-35.3337486965
 20
6.1753120818
 10
-35.3385054364
 20
6.1768446685
  0
LINE
  5
21E
100
AcDbEntity
  8
RACCORDO
100
AcDbLine
 62
7
  6
CONTINUOUS
 10
-35.7400612859
 20
2.4781541997
 11
-35.7400612859
 21
6.6781541997
  0
LINE
  5
21F
100
AcDbEntity
  8
DRAFT
100
AcDbLine
 62
7
  6
CONTINUOUS
 10
-35.7400612859
 20
6.6781541997
 11
-35.7400612859
 21
20.6781541997
  0
LINE
  5
220
100
AcDbEntity
  8
RACCORDO
100
AcDbLine
 62
7
  6
CONTINUOUS
 10
-35.7400612859
 20
20.6781541997
 11
-35.7400612859
 21
24.8781541997
  0
LINE
  5
221
100
AcDbEntity
  8
ASSI
100
AcDbLine
 62
7
  6
CONTINUOUS
 10
-35.7400612859
 20
2.4781541997
 11
-35.7400612859
 21
24.8781541997
  0
LINE
  5
222
100
AcDbEntity
  8
RACCORDO
100
AcDbLine
 62
253
  6
CONTINUOUS
 10
-35.3486399297
 20
21.1763803211
 11
-35.3486399297
 21
20.6781541997
  0
LINE
  5
223
100
AcDbEntity
  8
ASSI
100
AcDbLine
 62
253
  6
CONTINUOUS
 10
-35.3486399297
 20
21.1763803211
 11
-35.3486399297
 21
20.6781541997
  0
LINE
  5
224
100
AcDbEntity
  8
RACCORDO
100
AcDbLine
 62
253
  6
CONTINUOUS
 10
-35.3486399297
 20
6.6781541997
 11
-35.3486399297
 21
6.1799280783
  0
LINE
  5
225
100
AcDbEntity
  8
ASSI
100
AcDbLine
 62
253
  6
CONTINUOUS
 10
-35.3486399297
 20
6.6781541997
 11
-35.3486399297
 21
6.1799280783
  0
LINE
  5
226
100
AcDbEntity
  8
RACCORDO
100
AcDbLine
 62
7
  6
CONTINUOUS
 10
-35.2900612859
 20
21.205644282
 11
-35.2900612859
 21
20.6781541997
  0
LINE
  5
227
100
AcDbEntity
  8
RACCORDO
100
AcDbLine
 62
7
  6
CONTINUOUS
 10
-35.2900612859
 20
6.6781541997
 11
-35.2900612859
 21
6.1505343766
  0
LINE
  5
228
100
AcDbEntity
  8
ASSI
100
AcDbLine
 62
7
  6
CONTINUOUS
 10
-35.2900612859
 20
6.6781541997
 11
-35.2900612859
 21
6.150037878
  0
LINE
  5
229
100
AcDbEntity
  8
ASSI
100
AcDbLine
 62
7
  6
CONTINUOUS
 10
-35.2900612859
 20
20.6781541997
 11
-35.2900612859
 21
21.2062705214
  0
LINE
  5
22A
100
AcDbEntity
  8
DRAFT
100
AcDbLine
 62
7
  6
CONTINUOUS
 10
-35.2250505331
 20
2.5209158519
 11
-35.2250505331
 21
24.8353925476
  0
LINE
  5
22B
100
AcDbEntity
  8
ASSI
100
AcDbLine
 62
7
  6
CONTINUOUS
 10
-35.2250505331
 20
2.5209158519
 11
-35.2250505331
 21
24.8353925476
  0
LWPOLYLINE
  5
22C
100
AcDbEntity
  8
RACCORDO
100
AcDbPolyline
 62
7
  6
CONTINUOUS
 90
3
 70
0
 10
-35.2900612859
 20
21.205644282
 10
-35.2902029756
 20
21.2045192279
 10
-35.2906273763
 20
21.2033588272
  0
LWPOLYLINE
  5
22D
100
AcDbEntity
  8
ASSI
100
AcDbPolyline
 62
7
  6
CONTINUOUS
 90
22
 70
0
 10
-35.2900612859
 20
21.205644282
 10
-35.2902029756
 20
21.2045192279
 10
-35.2906273763
 20
21.2033588272
 10
-35.2913331875
 20
21.2021630799
 10
-35.2923186723
 20
21.200930175
 10
-35.2935817686
 20
21.1996619235
 10
-35.2951202011
 20
21.198363758
 10
-35.2969312148
 20
21.1970355888
 10
-35.299011686
 20
21.1956775057
 10
-35.3013584166
 20
21.1942952109
 10
-35.3039676414
 20
21.1928886347
 10
-35.3068352465
 20
21.1914578468
 10
-35.3099571684
 20
21.1900087587
 10
-35.3133286866
 20
21.1885413202
 10
-35.3169447525
 20
21.1870555815
 10
-35.320800496
 20
21.1855576057
 10
-35.3248902996
 20
21.1840473607
 10
-35.3292082398
 20
21.1825248786
 10
-35.3337486965
 20
21.1809963177
 10
-35.3385054364
 20
21.1794637309
 10
-35.3434715225
 20
21.1779250654
 10
-35.3486399297
 20
21.1763803211
  0
LWPOLYLINE
  5
22E
100
AcDbEntity
  8
RACCORDO
100
AcDbPolyline
 62
7
  6
CONTINUOUS
 90
3
 70
0
 10
-35.2900612859
 20
6.1506641175
 10
-35.2902029756
 20
6.1517891715
 10
-35.2906273763
 20
6.1529495722
  0
LWPOLYLINE
  5
22F
100
AcDbEntity
  8
ASSI
100
AcDbPolyline
 62
7
  6
CONTINUOUS
 90
22
 70
0
 10
-35.2900612859
 20
6.1506641175
 10
-35.2902029756
 20
6.1517891715
 10
-35.2906273763
 20
6.1529495722
 10
-35.2913331875
 20
6.1541453195
 10
-35.2923186723
 20
6.1553782244
 10
-35.2935817686
 20
6.156646476
 10
-35.2951202011
 20
6.1579446414
 10
-35.2969312148
 20
6.1592728106
 10
-35.299011686
 20
6.1606308938
 10
-35.3013584166
 20
6.1620131885
 10
-35.3039676414
 20
6.1634197648
 10
-35.3068352465
 20
6.1648505527
 10
-35.3099571684
 20
6.1662996407
 10
-35.3133286866
 20
6.1677670793
 10
-35.3169447525
 20
6.1692528179
 10
-35.320800496
 20
6.1707507938
 10
-35.3248902996
 20
6.1722610387
 10
-35.3292082398
 20
6.1737835209
 10
-35.3337486965
 20
6.1753120818
 10
-35.3385054364
 20
6.1768446685
 10
-35.3434715225
 20
6.1783833341
 10
-35.3486399297
 20
6.1799280783
  0
LINE
  5
230
100
AcDbEntity
  8
RACCORDO
100
AcDbLine
 62
253
  6
CONTINUOUS
 10
-35.7400612859
 20
4.8996465103
 11
-35.3486399297
 21
6.1799280783
  0
LINE
  5
231
100
AcDbEntity
  8
ASSI
100
AcDbLine
 62
253
  6
CONTINUOUS
 10
-35.7400612859
 20
4.8996465103
 11
-35.3486399297
 21
6.1799280783
  0
LINE
  5
232
100
AcDbEntity
  8
RACCORDO
100
AcDbLine
 62
7
  6
CONTINUOUS
 10
-35.7293051383
 20
4.7133359735
 11
-35.2900612859
 21
6.150037878
  0
LINE
  5
233
100
AcDbEntity
  8
ASSI
100
AcDbLine
 62
7
  6
CONTINUOUS
 10
-35.7293051383
 20
4.7133359735
 11
-35.2900612859
 21
6.150037878
  0
LINE
  5
234
100
AcDbEntity
  8
RACCORDO
100
AcDbLine
 62
253
  6
CONTINUOUS
 10
-35.3486399297
 20
21.1763803211
 11
-35.7400612859
 21
22.4566618891
  0
LINE
  5
235
100
AcDbEntity
  8
ASSI
100
AcDbLine
 62
253
  6
CONTINUOUS
 10
-35.3486399297
 20
21.1763803211
 11
-35.7400612859
 21
22.4566618891
  0
LINE
  5
236
100
AcDbEntity
  8
RACCORDO
100
AcDbLine
 62
7
  6
CONTINUOUS
 10
-35.2900612859
 20
21.2062705214
 11
-35.7293051383
 21
22.642972426
  0
LINE
  5
237
100
AcDbEntity
  8
ASSI
100
AcDbLine
 62
7
  6
CONTINUOUS
 10
-35.2900612859
 20
21.2062705214
 11
-35.7293051383
 21
22.642972426
  0
LINE
  5
238
100
AcDbEntity
  8
RACCORDO
100
AcDbLine
 62
7
  6
CONTINUOUS
 10
-35.3385054364
 20
21.1794637309
 11
-35.3434715225
 21
21.1779250654
  0
LINE
  5
239
100
AcDbEntity
  8
RACCORDO
100
AcDbLine
 62
7
  6
CONTINUOUS
 10
-35.3434715225
 20
21.1779250654
 11
-35.3486399297
 21
21.1763803211
  0
LINE
  5
23A
100
AcDbEntity
  8
RACCORDO
100
AcDbLine
 62
7
  6
CONTINUOUS
 10
-36.7363565014
 20
1.2781541997
 11
-0.5437660704
 21
1.2781541997
  0
LINE
  5
23B
100
AcDbEntity
  8
ASSI
100
AcDbLine
 62
7
  6
CONTINUOUS
 10
-36.7363565014
 20
1.2781541997
 11
-0.5437660704
 21
1.2781541997
  0
LINE
  5
23C
100
AcDbEntity
  8
RACCORDO
100
AcDbLine
 62
7
  6
CONTINUOUS
 10
-35.3434715225
 20
6.1783833341
 11
-35.3486399297
 21
6.1799280783
  0
LINE
  5
23D
100
AcDbEntity
  8
RACCORDO
100
AcDbLine
 62
7
  6
CONTINUOUS
 10
-35.3385054364
 20
6.1768446685
 11
-35.3434715225
 21
6.1783833341
  0
LINE
  5
23E
100
AcDbEntity
  8
RACCORDO
100
AcDbLine
 62
7
  6
CONTINUOUS
 10
-22.9544206399
 20
2.5218511948
 11
-22.2864714474
 21
2.5252166297
  0
LINE
  5
23F
100
AcDbEntity
  8
ASSI
100
AcDbLine
 62
7
  6
CONTINUOUS
 10
-22.9544206399
 20
2.5218511948
 11
-22.2864714474
 21
2.5252166297
  0
LINE
  5
240
100
AcDbEntity
  8
DRAFT
100
AcDbLine
 62
7
  6
CONTINUOUS
 10
-35.7400612859
 20
2.4781541997
 11
-1.5400612859
 21
2.4781541997
  0
LINE
  5
241
100
AcDbEntity
  8
ASSI
100
AcDbLine
 62
7
  6
CONTINUOUS
 10
-35.7400612859
 20
2.4781541997
 11
-1.5400612859
 21
2.4781541997
  0
LINE
  5
242
100
AcDbEntity
  8
RACCORDO
100
AcDbLine
 62
7
  6
CONTINUOUS
 10
-35.2250505331
 20
2.5209158519
 11
-23.3544206399
 21
2.5209158519
  0
LINE
  5
243
100
AcDbEntity
  8
ASSI
100
AcDbLine
 62
7
  6
CONTINUOUS
 10
-35.2250505331
 20
2.5209158519
 11
-23.3544206399
 21
2.5209158519
  0
LINE
  5
244
100
AcDbEntity
  8
RACCORDO
100
AcDbLine
 62
7
  6
CONTINUOUS
 10
-13.925701932
 20
2.5209158519
 11
-2.0550720387
 21
2.5209158519
  0
LINE
  5
245
100
AcDbEntity
  8
ASSI
100
AcDbLine
 62
7
  6
CONTINUOUS
 10
-13.925701932
 20
2.5209158519
 11
-2.0550720387
 21
2.5209158519
  0
LINE
  5
246
100
AcDbEntity
  8
RACCORDO
100
AcDbLine
 62
7
  6
CONTINUOUS
 10
-15.3936511244
 20
2.5261519726
 11
-21.8864714474
 21
2.5261519726
  0
LINE
  5
247
100
AcDbEntity
  8
ASSI
100
AcDbLine
 62
7
  6
CONTINUOUS
 10
-15.3936511244
 20
2.5261519726
 11
-21.8864714474
 21
2.5261519726
  0
LINE
  5
248
100
AcDbEntity
  8
RACCORDO
100
AcDbLine
 62
7
  6
CONTINUOUS
 10
-14.9936511244
 20
2.5252166297
 11
-14.325701932
 21
2.5218511948
  0
LINE
  5
249
100
AcDbEntity
  8
ASSI
100
AcDbLine
 62
7
  6
CONTINUOUS
 10
-14.9936511244
 20
2.5252166297
 11
-14.325701932
 21
2.5218511948
  0
LINE
  5
24A
100
AcDbEntity
  8
ASSI
100
AcDbLine
 62
7
  6
CONTINUOUS
 10
-19.4400732859
 20
24.0119231997
 11
-20.1177670522
 21
23.6606418025
  0
LINE
  5
24B
100
AcDbEntity
  8
ASSI
100
AcDbLine
 62
7
  6
CONTINUOUS
 10
-20.0780792859
 20
23.3095011997
 11
-19.4400692859
 21
23.6402151997
  0
LINE
  5
24C
100
AcDbEntity
  8
DRAFT
100
AcDbLine
 62
7
  6
CONTINUOUS
 10
-35.2250505331
 20
2.5209158519
 11
-35.7400612859
 21
2.4781541997
  0
LINE
  5
24D
100
AcDbEntity
  8
ASSI
100
AcDbLine
 62
7
  6
CONTINUOUS
 10
-35.2250505331
 20
2.5209158519
 11
-35.7400612859
 21
2.4781541997
  0
LINE
  5
24E
100
AcDbEntity
  8
DRAFT
100
AcDbLine
 62
7
  6
CONTINUOUS
 10
-1.5400612859
 20
2.4781541997
 11
-2.0550720387
 21
2.5209158519
  0
LINE
  5
24F
100
AcDbEntity
  8
ASSI
100
AcDbLine
 62
7
  6
CONTINUOUS
 10
-1.5400612859
 20
2.4781541997
 11
-2.0550720387
 21
2.5209158519
  0
LINE
  5
250
100
AcDbEntity
  8
ASSI
100
AcDbLine
 62
7
  6
CONTINUOUS
 10
-19.4400652859
 20
22.4714121997
 11
-21.0901442859
 21
21.9416261997
  0
LINE
  5
251
100
AcDbEntity
  8
ASSI
100
AcDbLine
 62
7
  6
CONTINUOUS
 10
-19.7645672859
 20
22.0372151997
 11
-19.4400692859
 21
22.1413961997
  0
LINE
  5
252
100
AcDbEntity
  8
ASSI
100
AcDbLine
 62
7
  6
CONTINUOUS
 10
-20.5762302859
 20
21.7766101997
 11
-20.0780792859
 21
21.9365481997
  0
LINE
  5
253
100
AcDbEntity
  8
0
100
AcDbLine
 62
7
  6
CONTINUOUS
 10
-20.5780442859
 20
6.2523441997
 11
-19.5783172859
 21
6.2523441997
  0
LINE
  5
254
100
AcDbEntity
  8
ASSI
100
AcDbLine
 62
7
  6
CONTINUOUS
 10
-20.5780442859
 20
6.2523441997
 11
-19.5783172859
 21
6.2523441997
  0
LINE
  5
255
100
AcDbEntity
  8
0
100
AcDbLine
 62
7
  6
CONTINUOUS
 10
-19.5783172859
 20
6.3832951997
 11
-20.4162762859
 21
6.3832951997
  0
LINE
  5
256
100
AcDbEntity
  8
ASSI
100
AcDbLine
 62
7
  6
CONTINUOUS
 10
-19.5783172859
 20
6.3832951997
 11
-20.4162762859
 21
6.3832951997
  0
LINE
  5
257
100
AcDbEntity
  8
0
100
AcDbLine
 62
7
  6
CONTINUOUS
 10
-17.7026142859
 20
6.4584371997
 11
-16.7020782859
 21
6.4584371997
  0
LINE
  5
258
100
AcDbEntity
  8
ASSI
100
AcDbLine
 62
7
  6
CONTINUOUS
 10
-17.7026142859
 20
6.4584371997
 11
-16.7020782859
 21
6.4584371997
  0
LINE
  5
259
100
AcDbEntity
  8
ASSI
100
AcDbLine
 62
7
  6
CONTINUOUS
 10
-20.0155522859
 20
20.0547891997
 11
-21.0901392859
 21
19.7466561997
  0
LINE
  5
25A
100
AcDbEntity
  8
ASSI
100
AcDbLine
 62
7
  6
CONTINUOUS
 10
-20.5281782859
 20
19.5777791997
 11
-19.4400652859
 21
19.8897851997
  0
LINE
  5
25B
100
AcDbEntity
  8
0
100
AcDbLine
 62
7
  6
CONTINUOUS
 10
-16.7020782859
 20
6.5935941997
 11
-17.7026142859
 21
6.5935941997
  0
LINE
  5
25C
100
AcDbEntity
  8
ASSI
100
AcDbLine
 62
7
  6
CONTINUOUS
 10
-16.7020782859
 20
6.5935941997
 11
-17.7026142859
 21
6.5935941997
  0
LINE
  5
25D
100
AcDbEntity
  8
RACCORDO
100
AcDbLine
 62
7
  6
CONTINUOUS
 10
-35.7400612859
 20
6.6781541997
 11
-35.2900612859
 21
6.6781541997
  0
LINE
  5
25E
100
AcDbEntity
  8
ASSI
100
AcDbLine
 62
7
  6
CONTINUOUS
 10
-35.7400612859
 20
6.6781541997
 11
-35.2900612859
 21
6.6781541997
  0
LINE
  5
25F
100
AcDbEntity
  8
RACCORDO
100
AcDbLine
 62
7
  6
CONTINUOUS
 10
-1.9900612859
 20
6.6781541997
 11
-1.5400612859
 21
6.6781541997
  0
LINE
  5
260
100
AcDbEntity
  8
ASSI
100
AcDbLine
 62
7
  6
CONTINUOUS
 10
-1.9900612859
 20
6.6781541997
 11
-1.5400612859
 21
6.6781541997
  0
LINE
  5
261
100
AcDbEntity
  8
0
100
AcDbLine
 62
7
  6
CONTINUOUS
 10
-17.7026142859
 20
6.7385381997
 11
-17.5829062859
 21
6.7385381997
  0
LINE
  5
262
100
AcDbEntity
  8
ASSI
100
AcDbLine
 62
7
  6
CONTINUOUS
 10
-17.7026142859
 20
6.7385381997
 11
-17.5829062859
 21
6.7385381997
  0
LINE
  5
263
100
AcDbEntity
  8
0
100
AcDbLine
 62
7
  6
CONTINUOUS
 10
-17.5829062859
 20
7.0770381997
 11
-16.7020782859
 21
7.0770381997
  0
LINE
  5
264
100
AcDbEntity
  8
ASSI
100
AcDbLine
 62
7
  6
CONTINUOUS
 10
-17.5829062859
 20
7.0770381997
 11
-16.7020782859
 21
7.0770381997
  0
LINE
  5
265
100
AcDbEntity
  8
0
100
AcDbLine
 62
7
  6
CONTINUOUS
 10
-20.4178932859
 20
7.0797881997
 11
-19.5783172859
 21
7.0797881997
  0
LINE
  5
266
100
AcDbEntity
  8
ASSI
100
AcDbLine
 62
7
  6
CONTINUOUS
 10
-20.4178932859
 20
7.0797881997
 11
-19.5783172859
 21
7.0797881997
  0
LINE
  5
267
100
AcDbEntity
  8
0
100
AcDbLine
 62
7
  6
CONTINUOUS
 10
-19.5783172859
 20
7.2107401997
 11
-20.5780442859
 21
7.2107401997
  0
LINE
  5
268
100
AcDbEntity
  8
ASSI
100
AcDbLine
 62
7
  6
CONTINUOUS
 10
-19.5783172859
 20
7.2107401997
 11
-20.5780442859
 21
7.2107401997
  0
LINE
  5
269
100
AcDbEntity
  8
0
100
AcDbLine
 62
7
  6
CONTINUOUS
 10
-16.7020782859
 20
7.2121151997
 11
-17.5829062859
 21
7.2121151997
  0
LINE
  5
26A
100
AcDbEntity
  8
ASSI
100
AcDbLine
 62
7
  6
CONTINUOUS
 10
-16.7020782859
 20
7.2121151997
 11
-17.5829062859
 21
7.2121151997
  0
LINE
  5
26B
100
AcDbEntity
  8
0
100
AcDbLine
 62
7
  6
CONTINUOUS
 10
-17.5829062859
 20
7.5506151997
 11
-17.7026142859
 21
7.5506151997
  0
LINE
  5
26C
100
AcDbEntity
  8
ASSI
100
AcDbLine
 62
7
  6
CONTINUOUS
 10
-17.5829062859
 20
7.5506151997
 11
-17.7026142859
 21
7.5506151997
  0
LINE
  5
26D
100
AcDbEntity
  8
0
100
AcDbLine
 62
7
  6
CONTINUOUS
 10
-19.1399252859
 20
7.5930791997
 11
-18.1401972859
 21
7.5930791997
  0
LINE
  5
26E
100
AcDbEntity
  8
ASSI
100
AcDbLine
 62
7
  6
CONTINUOUS
 10
-19.1399252859
 20
7.5930791997
 11
-18.1401972859
 21
7.5930791997
  0
LINE
  5
26F
100
AcDbEntity
  8
0
100
AcDbLine
 62
7
  6
CONTINUOUS
 10
-18.1401972859
 20
7.7282361997
 11
-19.1399252859
 21
7.7282361997
  0
LINE
  5
270
100
AcDbEntity
  8
ASSI
100
AcDbLine
 62
7
  6
CONTINUOUS
 10
-18.1401972859
 20
7.7282361997
 11
-19.1399252859
 21
7.7282361997
  0
LINE
  5
271
100
AcDbEntity
  8
0
100
AcDbLine
 62
7
  6
CONTINUOUS
 10
-19.1399252859
 20
7.9594031997
 11
-18.1401972859
 21
7.9594031997
  0
LINE
  5
272
100
AcDbEntity
  8
ASSI
100
AcDbLine
 62
7
  6
CONTINUOUS
 10
-19.1399252859
 20
7.9594031997
 11
-18.1401972859
 21
7.9594031997
  0
LINE
  5
273
100
AcDbEntity
  8
0
100
AcDbLine
 62
7
  6
CONTINUOUS
 10
-19.5783172859
 20
6.7983931997
 11
-20.4178932859
 21
7.0797881997
  0
LINE
  5
274
100
AcDbEntity
  8
ASSI
100
AcDbLine
 62
7
  6
CONTINUOUS
 10
-19.5783172859
 20
6.7983931997
 11
-20.4178932859
 21
7.0797881997
  0
LINE
  5
275
100
AcDbEntity
  8
0
100
AcDbLine
 62
7
  6
CONTINUOUS
 10
-20.5780442859
 20
7.0184781997
 11
-19.7286052859
 21
6.7329201997
  0
LINE
  5
276
100
AcDbEntity
  8
ASSI
100
AcDbLine
 62
7
  6
CONTINUOUS
 10
-20.5780442859
 20
7.0184781997
 11
-19.7286052859
 21
6.7329201997
  0
LINE
  5
277
100
AcDbEntity
  8
0
100
AcDbLine
 62
7
  6
CONTINUOUS
 10
-19.5783172859
 20
7.4698121997
 11
-19.8694992859
 21
7.5743141997
  0
LINE
  5
278
100
AcDbEntity
  8
ASSI
100
AcDbLine
 62
7
  6
CONTINUOUS
 10
-19.5783172859
 20
7.4698121997
 11
-19.8694992859
 21
7.5743141997
  0
LINE
  5
279
100
AcDbEntity
  8
0
100
AcDbLine
 62
7
  6
CONTINUOUS
 10
-19.9892082859
 20
7.6161311997
 11
-20.4331482859
 21
7.7777121997
  0
LINE
  5
27A
100
AcDbEntity
  8
ASSI
100
AcDbLine
 62
7
  6
CONTINUOUS
 10
-19.9892082859
 20
7.6161311997
 11
-20.4331482859
 21
7.7777121997
  0
LINE
  5
27B
100
AcDbEntity
  8
0
100
AcDbLine
 62
7
  6
CONTINUOUS
 10
-20.5780442859
 20
7.7066401997
 11
-19.5783172859
 21
7.3305291997
  0
LINE
  5
27C
100
AcDbEntity
  8
ASSI
100
AcDbLine
 62
7
  6
CONTINUOUS
 10
-20.5780442859
 20
7.7066401997
 11
-19.5783172859
 21
7.3305291997
  0
LINE
  5
27D
100
AcDbEntity
  8
RACCORDO
100
AcDbLine
 62
253
  6
CONTINUOUS
 10
-23.3544206399
 20
24.8353925476
 11
-23.3544206399
 21
2.5209158519
  0
LINE
  5
27E
100
AcDbEntity
  8
ASSI
100
AcDbLine
 62
253
  6
CONTINUOUS
 10
-23.3544206399
 20
24.8353925476
 11
-23.3544206399
 21
2.5209158519
  0
LINE
  5
27F
100
AcDbEntity
  8
RACCORDO
100
AcDbLine
 62
253
  6
CONTINUOUS
 10
-22.9544206399
 20
24.8344572047
 11
-22.9544206399
 21
2.5218511948
  0
LINE
  5
280
100
AcDbEntity
  8
ASSI
100
AcDbLine
 62
253
  6
CONTINUOUS
 10
-22.9544206399
 20
24.8344572047
 11
-22.9544206399
 21
2.5218511948
  0
LINE
  5
281
100
AcDbEntity
  8
0
100
AcDbLine
 62
7
  6
CONTINUOUS
 10
-18.1401972859
 20
8.0904351997
 11
-18.9526002859
 21
8.0904351997
  0
LINE
  5
282
100
AcDbEntity
  8
ASSI
100
AcDbLine
 62
7
  6
CONTINUOUS
 10
-18.1401972859
 20
8.0904351997
 11
-18.9526002859
 21
8.0904351997
  0
LINE
  5
283
100
AcDbEntity
  8
0
100
AcDbLine
 62
7
  6
CONTINUOUS
 10
-20.5780442859
 20
8.3529851997
 11
-19.5783172859
 21
8.3529851997
  0
LINE
  5
284
100
AcDbEntity
  8
ASSI
100
AcDbLine
 62
7
  6
CONTINUOUS
 10
-20.5780442859
 20
8.3529851997
 11
-19.5783172859
 21
8.3529851997
  0
LINE
  5
285
100
AcDbEntity
  8
0
100
AcDbLine
 62
7
  6
CONTINUOUS
 10
-19.6939812859
 20
8.4880611997
 11
-20.4623802859
 21
8.4880611997
  0
LINE
  5
286
100
AcDbEntity
  8
ASSI
100
AcDbLine
 62
7
  6
CONTINUOUS
 10
-19.6939812859
 20
8.4880611997
 11
-20.4623802859
 21
8.4880611997
  0
LINE
  5
287
100
AcDbEntity
  8
0
100
AcDbLine
 62
7
  6
CONTINUOUS
 10
-17.7026142859
 20
8.6051011997
 11
-16.7020782859
 21
8.6051011997
  0
LINE
  5
288
100
AcDbEntity
  8
ASSI
100
AcDbLine
 62
7
  6
CONTINUOUS
 10
-17.7026142859
 20
8.6051011997
 11
-16.7020782859
 21
8.6051011997
  0
LINE
  5
289
100
AcDbEntity
  8
0
100
AcDbLine
 62
7
  6
CONTINUOUS
 10
-19.1399252859
 20
8.6225721997
 11
-18.3281322859
 21
8.6225721997
  0
LINE
  5
28A
100
AcDbEntity
  8
ASSI
100
AcDbLine
 62
7
  6
CONTINUOUS
 10
-19.1399252859
 20
8.6225721997
 11
-18.3281322859
 21
8.6225721997
  0
LINE
  5
28B
100
AcDbEntity
  8
0
100
AcDbLine
 62
7
  6
CONTINUOUS
 10
-16.8217872859
 20
8.7401771997
 11
-17.7026142859
 21
8.7401771997
  0
LINE
  5
28C
100
AcDbEntity
  8
ASSI
100
AcDbLine
 62
7
  6
CONTINUOUS
 10
-16.8217872859
 20
8.7401771997
 11
-17.7026142859
 21
8.7401771997
  0
LINE
  5
28D
100
AcDbEntity
  8
0
100
AcDbLine
 62
7
  6
CONTINUOUS
 10
-18.1401972859
 20
8.7534421997
 11
-19.1399252859
 21
8.7534421997
  0
LINE
  5
28E
100
AcDbEntity
  8
ASSI
100
AcDbLine
 62
7
  6
CONTINUOUS
 10
-18.1401972859
 20
8.7534421997
 11
-19.1399252859
 21
8.7534421997
  0
LINE
  5
28F
100
AcDbEntity
  8
0
100
AcDbLine
 62
7
  6
CONTINUOUS
 10
-16.7020782859
 20
9.2472401997
 11
-16.8217872859
 21
9.2472401997
  0
LINE
  5
290
100
AcDbEntity
  8
ASSI
100
AcDbLine
 62
7
  6
CONTINUOUS
 10
-16.7020782859
 20
9.2472401997
 11
-16.8217872859
 21
9.2472401997
  0
LINE
  5
291
100
AcDbEntity
  8
0
100
AcDbLine
 62
7
  6
CONTINUOUS
 10
-20.5780442859
 20
9.3656541997
 11
-19.5783172859
 21
9.3656541997
  0
LINE
  5
292
100
AcDbEntity
  8
ASSI
100
AcDbLine
 62
7
  6
CONTINUOUS
 10
-20.5780442859
 20
9.3656541997
 11
-19.5783172859
 21
9.3656541997
  0
LWPOLYLINE
  5
293
100
AcDbEntity
  8
0
100
AcDbPolyline
 62
7
  6
CONTINUOUS
 90
52
 70
0
 10
-20.0781804859
 20
9.178550895
 10
-20.0976187135
 20
9.178621858
 10
-20.1164260892
 20
9.1783016905
 10
-20.1346026129
 20
9.1775903924
 10
-20.1519634121
 20
9.1765312136
 10
-20.1686933594
 20
9.1750809042
 10
-20.1853470723
 20
9.1731097148
 10
-20.2020287977
 20
9.1705866749
 10
-20.2186342888
 20
9.1675427551
 10
-20.2354054231
 20
9.163941117
 10
-20.2526910505
 20
9.1596907231
 10
-20.2701423211
 20
9.154882611
 10
-20.2869545622
 20
9.1497530547
 10
-20.3028583099
 20
9.1443570986
 10
-20.3181230283
 20
9.1386396985
 10
-20.3327524363
 20
9.1326719961
 10
-20.3466938466
 20
9.1264814167
 10
-20.3599999466
 20
9.1200405351
 10
-20.3728325175
 20
9.1133382177
 10
-20.3852318758
 20
9.1063617119
 10
-20.397157705
 20
9.0991237703
 10
-20.4086508369
 20
9.0916515167
 10
-20.4197342682
 20
9.0839307482
 10
-20.430385002
 20
9.0759756677
 10
-20.4405748798
 20
9.0678560085
 10
-20.4502782545
 20
9.0595954364
 10
-20.459520773
 20
9.0511702856
 10
-20.4683512177
 20
9.0425792919
 10
-20.4767524514
 20
9.0338525828
 10
-20.4847416112
 20
9.0249600309
 10
-20.4924188908
 20
9.0158099895
 10
-20.4998150132
 20
9.0063762926
 10
-20.5068992555
 20
8.9966851063
 10
-20.5136796423
 20
8.9867232816
 10
-20.520167457
 20
8.9764799672
 10
-20.5263514163
 20
8.9659660145
 10
-20.5322056956
 20
8.9552008288
 10
-20.5377190614
 20
8.944214071
 10
-20.5429027472
 20
8.9329760803
 10
-20.5477646283
 20
8.9214172791
 10
-20.5523150632
 20
8.9095238948
 10
-20.5565436935
 20
8.8973097
 10
-20.5604273198
 20
8.8847464357
 10
-20.5639749506
 20
8.8718060642
 10
-20.5671775774
 20
8.8585166233
 10
-20.5699849744
 20
8.8449339673
 10
-20.5723946514
 20
8.8310433412
 10
-20.5744090985
 20
8.8168595
 10
-20.5759855611
 20
8.8024825638
 10
-20.5771097873
 20
8.7879459059
 10
-20.577796029
 20
8.773216153
 10
-20.5780442859
 20
8.7582933051
  0
LWPOLYLINE
  5
294
100
AcDbEntity
  8
ASSI
100
AcDbPolyline
 62
7
  6
CONTINUOUS
 90
52
 70
0
 10
-20.0781804859
 20
9.178550895
 10
-20.0976187135
 20
9.178621858
 10
-20.1164260892
 20
9.1783016905
 10
-20.1346026129
 20
9.1775903924
 10
-20.1519634121
 20
9.1765312136
 10
-20.1686933594
 20
9.1750809042
 10
-20.1853470723
 20
9.1731097148
 10
-20.2020287977
 20
9.1705866749
 10
-20.2186342888
 20
9.1675427551
 10
-20.2354054231
 20
9.163941117
 10
-20.2526910505
 20
9.1596907231
 10
-20.2701423211
 20
9.154882611
 10
-20.2869545622
 20
9.1497530547
 10
-20.3028583099
 20
9.1443570986
 10
-20.3181230283
 20
9.1386396985
 10
-20.3327524363
 20
9.1326719961
 10
-20.3466938466
 20
9.1264814167
 10
-20.3599999466
 20
9.1200405351
 10
-20.3728325175
 20
9.1133382177
 10
-20.3852318758
 20
9.1063617119
 10
-20.397157705
 20
9.0991237703
 10
-20.4086508369
 20
9.0916515167
 10
-20.4197342682
 20
9.0839307482
 10
-20.430385002
 20
9.0759756677
 10
-20.4405748798
 20
9.0678560085
 10
-20.4502782545
 20
9.0595954364
 10
-20.459520773
 20
9.0511702856
 10
-20.4683512177
 20
9.0425792919
 10
-20.4767524514
 20
9.0338525828
 10
-20.4847416112
 20
9.0249600309
 10
-20.4924188908
 20
9.0158099895
 10
-20.4998150132
 20
9.0063762926
 10
-20.5068992555
 20
8.9966851063
 10
-20.5136796423
 20
8.9867232816
 10
-20.520167457
 20
8.9764799672
 10
-20.5263514163
 20
8.9659660145
 10
-20.5322056956
 20
8.9552008288
 10
-20.5377190614
 20
8.944214071
 10
-20.5429027472
 20
8.9329760803
 10
-20.5477646283
 20
8.9214172791
 10
-20.5523150632
 20
8.9095238948
 10
-20.5565436935
 20
8.8973097
 10
-20.5604273198
 20
8.8847464357
 10
-20.5639749506
 20
8.8718060642
 10
-20.5671775774
 20
8.8585166233
 10
-20.5699849744
 20
8.8449339673
 10
-20.5723946514
 20
8.8310433412
 10
-20.5744090985
 20
8.8168595
 10
-20.5759855611
 20
8.8024825638
 10
-20.5771097873
 20
8.7879459059
 10
-20.577796029
 20
8.773216153
 10
-20.5780442859
 20
8.7582933051
  0
LWPOLYLINE
  5
295
100
AcDbEntity
  8
0
100
AcDbPolyline
 62
7
  6
CONTINUOUS
 90
49
 70
0
 10
-20.0781804859
 20
9.0399100584
 10
-20.0590002071
 20
9.0395296769
 10
-20.0405442759
 20
9.0388044015
 10
-20.022812692
 20
9.0377342323
 10
-20.0058191307
 20
9.0362871676
 10
-19.9895499169
 20
9.0344952091
 10
-19.9739640252
 20
9.0324543616
 10
-19.959051877
 20
9.0302015654
 10
-19.9448230509
 20
9.0276998802
 10
-19.9312652576
 20
9.0249344911
 10
-19.9184499627
 20
9.021906401
 10
-19.9063057006
 20
9.0186146069
 10
-19.8946057847
 20
9.0150412858
 10
-19.8833214047
 20
9.0111809137
 10
-19.8724813709
 20
9.0070390146
 10
-19.8619454277
 20
9.002614336
 10
-19.8516583933
 20
8.9978919351
 10
-19.8416754494
 20
8.9928867547
 10
-19.832021886
 20
8.9876423709
 10
-19.8226990125
 20
8.9821567611
 10
-19.8137055194
 20
8.9764319478
 10
-19.8050627693
 20
8.9705175751
 10
-19.7967665798
 20
8.9644070066
 10
-19.7888211332
 20
8.9581068786
 10
-19.781260338
 20
8.9516867442
 10
-19.7740958994
 20
8.945153202
 10
-19.7673161122
 20
8.9384996533
 10
-19.7609197695
 20
8.9317758555
 10
-19.7549259215
 20
8.9250100368
 10
-19.7493155179
 20
8.918173969
 10
-19.7440302004
 20
8.9112327237
 10
-19.7390809129
 20
8.9042209772
 10
-19.7344567114
 20
8.8971040533
 10
-19.7300664056
 20
8.8897429952
 10
-19.7258870209
 20
8.8821234653
 10
-19.7219415319
 20
8.8742598012
 10
-19.7182076724
 20
8.8660560589
 10
-19.7146619099
 20
8.8574767261
 10
-19.7113277768
 20
8.8485573152
 10
-19.7082536038
 20
8.8393084189
 10
-19.7054417235
 20
8.8297419893
 10
-19.7028898033
 20
8.8198460742
 10
-19.7006391764
 20
8.8095954102
 10
-19.6986874705
 20
8.7989967118
 10
-19.6970370579
 20
8.7880432645
 10
-19.6957363881
 20
8.776689661
 10
-19.6948016111
 20
8.7649207655
 10
-19.6942165771
 20
8.7527517139
 10
-19.6939812859
 20
8.7401825061
  0
LWPOLYLINE
  5
296
100
AcDbEntity
  8
ASSI
100
AcDbPolyline
 62
7
  6
CONTINUOUS
 90
49
 70
0
 10
-20.0781804859
 20
9.0399100584
 10
-20.0590002071
 20
9.0395296769
 10
-20.0405442759
 20
9.0388044015
 10
-20.022812692
 20
9.0377342323
 10
-20.0058191307
 20
9.0362871676
 10
-19.9895499169
 20
9.0344952091
 10
-19.9739640252
 20
9.0324543616
 10
-19.959051877
 20
9.0302015654
 10
-19.9448230509
 20
9.0276998802
 10
-19.9312652576
 20
9.0249344911
 10
-19.9184499627
 20
9.021906401
 10
-19.9063057006
 20
9.0186146069
 10
-19.8946057847
 20
9.0150412858
 10
-19.8833214047
 20
9.0111809137
 10
-19.8724813709
 20
9.0070390146
 10
-19.8619454277
 20
9.002614336
 10
-19.8516583933
 20
8.9978919351
 10
-19.8416754494
 20
8.9928867547
 10
-19.832021886
 20
8.9876423709
 10
-19.8226990125
 20
8.9821567611
 10
-19.8137055194
 20
8.9764319478
 10
-19.8050627693
 20
8.9705175751
 10
-19.7967665798
 20
8.9644070066
 10
-19.7888211332
 20
8.9581068786
 10
-19.781260338
 20
8.9516867442
 10
-19.7740958994
 20
8.945153202
 10
-19.7673161122
 20
8.9384996533
 10
-19.7609197695
 20
8.9317758555
 10
-19.7549259215
 20
8.9250100368
 10
-19.7493155179
 20
8.918173969
 10
-19.7440302004
 20
8.9112327237
 10
-19.7390809129
 20
8.9042209772
 10
-19.7344567114
 20
8.8971040533
 10
-19.7300664056
 20
8.8897429952
 10
-19.7258870209
 20
8.8821234653
 10
-19.7219415319
 20
8.8742598012
 10
-19.7182076724
 20
8.8660560589
 10
-19.7146619099
 20
8.8574767261
 10
-19.7113277768
 20
8.8485573152
 10
-19.7082536038
 20
8.8393084189
 10
-19.7054417235
 20
8.8297419893
 10
-19.7028898033
 20
8.8198460742
 10
-19.7006391764
 20
8.8095954102
 10
-19.6986874705
 20
8.7989967118
 10
-19.6970370579
 20
8.7880432645
 10
-19.6957363881
 20
8.776689661
 10
-19.6948016111
 20
8.7649207655
 10
-19.6942165771
 20
8.7527517139
 10
-19.6939812859
 20
8.7401825061
  0
LINE
  5
297
100
AcDbEntity
  8
0
100
AcDbLine
 62
7
  6
CONTINUOUS
 10
-16.7020782859
 20
7.7288831997
 11
-16.9932612859
 21
7.8333861997
  0
LINE
  5
298
100
AcDbEntity
  8
ASSI
100
AcDbLine
 62
7
  6
CONTINUOUS
 10
-16.7020782859
 20
7.7288831997
 11
-16.9932612859
 21
7.8333861997
  0
LINE
  5
299
100
AcDbEntity
  8
0
100
AcDbLine
 62
7
  6
CONTINUOUS
 10
-17.1129692859
 20
7.8751221997
 11
-17.5569082859
 21
8.0367841997
  0
LINE
  5
29A
100
AcDbEntity
  8
ASSI
100
AcDbLine
 62
7
  6
CONTINUOUS
 10
-17.1129692859
 20
7.8751221997
 11
-17.5569082859
 21
8.0367841997
  0
LINE
  5
29B
100
AcDbEntity
  8
0
100
AcDbLine
 62
7
  6
CONTINUOUS
 10
-17.7026142859
 20
7.9657121997
 11
-16.7020782859
 21
7.5896011997
  0
LINE
  5
29C
100
AcDbEntity
  8
ASSI
100
AcDbLine
 62
7
  6
CONTINUOUS
 10
-17.7026142859
 20
7.9657121997
 11
-16.7020782859
 21
7.5896011997
  0
LINE
  5
29D
100
AcDbEntity
  8
RACCORDO
100
AcDbLine
 62
253
  6
CONTINUOUS
 10
-22.2864714474
 20
2.5252166297
 11
-22.2864714474
 21
24.8310917697
  0
LINE
  5
29E
100
AcDbEntity
  8
ASSI
100
AcDbLine
 62
253
  6
CONTINUOUS
 10
-22.2864714474
 20
2.5252166297
 11
-22.2864714474
 21
24.8310917697
  0
LINE
  5
29F
100
AcDbEntity
  8
RACCORDO
100
AcDbLine
 62
253
  6
CONTINUOUS
 10
-21.8864714474
 20
2.5261519726
 11
-21.8864714474
 21
24.8301564269
  0
LINE
  5
2A0
100
AcDbEntity
  8
ASSI
100
AcDbLine
 62
253
  6
CONTINUOUS
 10
-21.8864714474
 20
2.5261519726
 11
-21.8864714474
 21
24.8301564269
  0
LINE
  5
2A1
100
AcDbEntity
  8
ASSI
100
AcDbLine
 62
7
  6
CONTINUOUS
 10
-19.9539742859
 20
17.6729531997
 11
-21.0901392859
 21
17.3081711997
  0
LINE
  5
2A2
100
AcDbEntity
  8
ASSI
100
AcDbLine
 62
7
  6
CONTINUOUS
 10
-21.0901392859
 20
16.9781541997
 11
-19.4400612859
 21
17.5079361997
  0
LINE
  5
2A3
100
AcDbEntity
  8
0
100
AcDbLine
 62
7
  6
CONTINUOUS
 10
-17.1048812859
 20
9.4618251997
 11
-16.7020782859
 21
9.4618251997
  0
LINE
  5
2A4
100
AcDbEntity
  8
ASSI
100
AcDbLine
 62
7
  6
CONTINUOUS
 10
-17.1048812859
 20
9.4618251997
 11
-16.7020782859
 21
9.4618251997
  0
LINE
  5
2A5
100
AcDbEntity
  8
0
100
AcDbLine
 62
7
  6
CONTINUOUS
 10
-19.6980252859
 20
9.5008111997
 11
-20.0320762859
 21
9.5008111997
  0
LINE
  5
2A6
100
AcDbEntity
  8
ASSI
100
AcDbLine
 62
7
  6
CONTINUOUS
 10
-19.6980252859
 20
9.5008111997
 11
-20.0320762859
 21
9.5008111997
  0
LINE
  5
2A7
100
AcDbEntity
  8
0
100
AcDbLine
 62
7
  6
CONTINUOUS
 10
-20.1517852859
 20
9.5008111997
 11
-20.4583352859
 21
9.5008111997
  0
LINE
  5
2A8
100
AcDbEntity
  8
ASSI
100
AcDbLine
 62
7
  6
CONTINUOUS
 10
-20.1517852859
 20
9.5008111997
 11
-20.4583352859
 21
9.5008111997
  0
LINE
  5
2A9
100
AcDbEntity
  8
0
100
AcDbLine
 62
7
  6
CONTINUOUS
 10
-16.7020782859
 20
9.5969011997
 11
-17.1048812859
 21
9.5969011997
  0
LINE
  5
2AA
100
AcDbEntity
  8
ASSI
100
AcDbLine
 62
7
  6
CONTINUOUS
 10
-16.7020782859
 20
9.5969011997
 11
-17.1048812859
 21
9.5969011997
  0
LINE
  5
2AB
100
AcDbEntity
  8
0
100
AcDbLine
 62
7
  6
CONTINUOUS
 10
-20.0320762859
 20
10.0482351997
 11
-20.1517852859
 21
10.0482351997
  0
LINE
  5
2AC
100
AcDbEntity
  8
ASSI
100
AcDbLine
 62
7
  6
CONTINUOUS
 10
-20.0320762859
 20
10.0482351997
 11
-20.1517852859
 21
10.0482351997
  0
LINE
  5
2AD
100
AcDbEntity
  8
0
100
AcDbLine
 62
7
  6
CONTINUOUS
 10
-20.4583352859
 20
10.0941771997
 11
-20.5780442859
 21
10.0941771997
  0
LINE
  5
2AE
100
AcDbEntity
  8
ASSI
100
AcDbLine
 62
7
  6
CONTINUOUS
 10
-20.4583352859
 20
10.0941771997
 11
-20.5780442859
 21
10.0941771997
  0
LINE
  5
2AF
100
AcDbEntity
  8
0
100
AcDbLine
 62
7
  6
CONTINUOUS
 10
-19.5783172859
 20
10.1039641997
 11
-19.6980252859
 21
10.1039641997
  0
LINE
  5
2B0
100
AcDbEntity
  8
ASSI
100
AcDbLine
 62
7
  6
CONTINUOUS
 10
-19.5783172859
 20
10.1039641997
 11
-19.6980252859
 21
10.1039641997
  0
LINE
  5
2B1
100
AcDbEntity
  8
0
100
AcDbLine
 62
7
  6
CONTINUOUS
 10
-17.7026142859
 20
9.8156121997
 11
-17.2221632859
 21
9.5286351997
  0
LINE
  5
2B2
100
AcDbEntity
  8
ASSI
100
AcDbLine
 62
7
  6
CONTINUOUS
 10
-17.7026142859
 20
9.8156121997
 11
-17.2221632859
 21
9.5286351997
  0
LINE
  5
2B3
100
AcDbEntity
  8
ASSI
100
AcDbLine
 62
7
  6
CONTINUOUS
 10
-21.0901442859
 20
23.4642380341
 11
-21.0901442859
 21
22.6914191997
  0
LINE
  5
2B4
100
AcDbEntity
  8
ASSI
100
AcDbLine
 62
7
  6
CONTINUOUS
 10
-21.0901442859
 20
21.9416261997
 11
-21.0901442859
 21
21.6115971997
  0
LINE
  5
2B5
100
AcDbEntity
  8
ASSI
100
AcDbLine
 62
7
  6
CONTINUOUS
 10
-21.0901392859
 20
20.8618131997
 11
-21.0901392859
 21
20.3629231997
  0
LINE
  5
2B6
100
AcDbEntity
  8
ASSI
100
AcDbLine
 62
7
  6
CONTINUOUS
 10
-21.0901392859
 20
19.7466561997
 11
-21.0901392859
 21
19.2477661997
  0
LINE
  5
2B7
100
AcDbEntity
  8
ASSI
100
AcDbLine
 62
7
  6
CONTINUOUS
 10
-21.0901392859
 20
18.9177661997
 11
-21.0901392859
 21
18.5877541997
  0
LINE
  5
2B8
100
AcDbEntity
  8
ASSI
100
AcDbLine
 62
7
  6
CONTINUOUS
 10
-21.0901392859
 20
18.3677471997
 11
-21.0901392859
 21
18.0377301997
  0
LINE
  5
2B9
100
AcDbEntity
  8
ASSI
100
AcDbLine
 62
7
  6
CONTINUOUS
 10
-21.0901392859
 20
17.3081711997
 11
-21.0901392859
 21
16.9781541997
  0
LINE
  5
2BA
100
AcDbEntity
  8
ASSI
100
AcDbLine
 62
7
  6
CONTINUOUS
 10
-20.7848812859
 20
23.0168821997
 11
-20.7848812859
 21
23.4184087317
  0
LINE
  5
2BB
100
AcDbEntity
  8
0
100
AcDbLine
 62
7
  6
CONTINUOUS
 10
-20.5780442859
 20
10.0941771997
 11
-20.5780442859
 21
9.3656541997
  0
LINE
  5
2BC
100
AcDbEntity
  8
ASSI
100
AcDbLine
 62
7
  6
CONTINUOUS
 10
-20.5780442859
 20
10.0941771997
 11
-20.5780442859
 21
9.3656541997
  0
LINE
  5
2BD
100
AcDbEntity
  8
0
100
AcDbLine
 62
7
  6
CONTINUOUS
 10
-20.5780442859
 20
8.7582933051
 11
-20.5780442859
 21
8.3529851997
  0
LINE
  5
2BE
100
AcDbEntity
  8
ASSI
100
AcDbLine
 62
7
  6
CONTINUOUS
 10
-20.5780442859
 20
8.7582933051
 11
-20.5780442859
 21
8.3529851997
  0
LINE
  5
2BF
100
AcDbEntity
  8
0
100
AcDbLine
 62
7
  6
CONTINUOUS
 10
-20.5780442859
 20
7.8598351997
 11
-20.5780442859
 21
7.7066401997
  0
LINE
  5
2C0
100
AcDbEntity
  8
ASSI
100
AcDbLine
 62
7
  6
CONTINUOUS
 10
-20.5780442859
 20
7.8598351997
 11
-20.5780442859
 21
7.7066401997
  0
LINE
  5
2C1
100
AcDbEntity
  8
0
100
AcDbLine
 62
7
  6
CONTINUOUS
 10
-20.5780442859
 20
7.2107401997
 11
-20.5780442859
 21
7.0184781997
  0
LINE
  5
2C2
100
AcDbEntity
  8
ASSI
100
AcDbLine
 62
7
  6
CONTINUOUS
 10
-20.5780442859
 20
7.2107401997
 11
-20.5780442859
 21
7.0184781997
  0
LINE
  5
2C3
100
AcDbEntity
  8
0
100
AcDbLine
 62
7
  6
CONTINUOUS
 10
-20.5780442859
 20
6.4459811997
 11
-20.5780442859
 21
6.2523441997
  0
LINE
  5
2C4
100
AcDbEntity
  8
ASSI
100
AcDbLine
 62
7
  6
CONTINUOUS
 10
-20.5780442859
 20
6.4459811997
 11
-20.5780442859
 21
6.2523441997
  0
LINE
  5
2C5
100
AcDbEntity
  8
0
100
AcDbLine
 62
7
  6
CONTINUOUS
 10
-20.4623802859
 20
8.4880611997
 11
-20.4623802859
 21
8.7401700251
  0
LINE
  5
2C6
100
AcDbEntity
  8
ASSI
100
AcDbLine
 62
7
  6
CONTINUOUS
 10
-20.4623802859
 20
8.4880611997
 11
-20.4623802859
 21
8.7401700251
  0
LINE
  5
2C7
100
AcDbEntity
  8
0
100
AcDbLine
 62
7
  6
CONTINUOUS
 10
-20.4583352859
 20
9.5008111997
 11
-20.4583352859
 21
10.0941771997
  0
LINE
  5
2C8
100
AcDbEntity
  8
ASSI
100
AcDbLine
 62
7
  6
CONTINUOUS
 10
-20.4583352859
 20
9.5008111997
 11
-20.4583352859
 21
10.0941771997
  0
LINE
  5
2C9
100
AcDbEntity
  8
ASSI
100
AcDbLine
 62
7
  6
CONTINUOUS
 10
-20.3833452859
 20
23.4184087317
 11
-20.3833452859
 21
23.0168861997
  0
LINE
  5
2CA
100
AcDbEntity
  8
0
100
AcDbLine
 62
7
  6
CONTINUOUS
 10
-20.1517852859
 20
10.0482351997
 11
-20.1517852859
 21
9.5008111997
  0
LINE
  5
2CB
100
AcDbEntity
  8
ASSI
100
AcDbLine
 62
7
  6
CONTINUOUS
 10
-20.1517852859
 20
10.0482351997
 11
-20.1517852859
 21
9.5008111997
  0
LINE
  5
2CC
100
AcDbEntity
  8
ASSI
100
AcDbLine
 62
7
  6
CONTINUOUS
 10
-20.0780832859
 20
23.0214731997
 11
-20.0780792859
 21
23.3095011997
  0
LINE
  5
2CD
100
AcDbEntity
  8
ASSI
100
AcDbLine
 62
7
  6
CONTINUOUS
 10
-20.0780792859
 20
21.9365481997
 11
-20.0780792859
 21
21.6166791997
  0
LINE
  5
2CE
100
AcDbEntity
  8
0
100
AcDbLine
 62
7
  6
CONTINUOUS
 10
-20.0320762859
 20
9.5008111997
 11
-20.0320762859
 21
10.0482351997
  0
LINE
  5
2CF
100
AcDbEntity
  8
ASSI
100
AcDbLine
 62
7
  6
CONTINUOUS
 10
-20.0320762859
 20
9.5008111997
 11
-20.0320762859
 21
10.0482351997
  0
LINE
  5
2D0
100
AcDbEntity
  8
0
100
AcDbLine
 62
7
  6
CONTINUOUS
 10
-19.9892082859
 20
7.9267261997
 11
-19.9892082859
 21
7.6161311997
  0
LINE
  5
2D1
100
AcDbEntity
  8
ASSI
100
AcDbLine
 62
7
  6
CONTINUOUS
 10
-19.9892082859
 20
7.9267261997
 11
-19.9892082859
 21
7.6161311997
  0
LWPOLYLINE
  5
2D2
100
AcDbEntity
  8
0
100
AcDbPolyline
 62
7
  6
CONTINUOUS
 90
49
 70
0
 10
-20.4623802859
 20
8.7401700251
 10
-20.4621447281
 20
8.75274478
 10
-20.461559494
 20
8.764917992
 10
-20.4606245837
 20
8.776689661
 10
-20.4593238695
 20
8.788044189
 10
-20.4576734791
 20
8.798997174
 10
-20.4557217954
 20
8.8095954102
 10
-20.4534711684
 20
8.8198460742
 10
-20.4509192483
 20
8.8297419893
 10
-20.448107368
 20
8.8393084189
 10
-20.445033195
 20
8.8485573152
 10
-20.4416990619
 20
8.8574767261
 10
-20.4381532994
 20
8.8660560589
 10
-20.4344194399
 20
8.8742598012
 10
-20.4304739509
 20
8.8821234653
 10
-20.4262945661
 20
8.8897429952
 10
-20.4219042604
 20
8.8971040533
 10
-20.4172800589
 20
8.9042209772
 10
-20.4123307714
 20
8.9112327237
 10
-20.4070454539
 20
8.918173969
 10
-20.4014350503
 20
8.9250100368
 10
-20.3954412023
 20
8.9317758555
 10
-20.3890448596
 20
8.9384996533
 10
-20.3822650724
 20
8.945153202
 10
-20.3751006338
 20
8.9516867442
 10
-20.3675398386
 20
8.9581068786
 10
-20.359594392
 20
8.9644070066
 10
-20.3512982025
 20
8.9705175751
 10
-20.3426554524
 20
8.9764319478
 10
-20.3336619593
 20
8.9821567611
 10
-20.3243390858
 20
8.9876423709
 10
-20.3146855224
 20
8.9928867547
 10
-20.3047025785
 20
8.9978919351
 10
-20.294415544
 20
9.002614336
 10
-20.2838796008
 20
9.0070390146
 10
-20.2730395671
 20
9.0111809137
 10
-20.2617551871
 20
9.0150412858
 10
-20.2500552712
 20
9.0186146069
 10
-20.2379110091
 20
9.021906401
 10
-20.2250957142
 20
9.0249344911
 10
-20.2115379209
 20
9.0276998802
 10
-20.1973090948
 20
9.0302015654
 10
-20.1823969466
 20
9.0324543616
 10
-20.1668110549
 20
9.0344952091
 10
-20.1505418411
 20
9.0362871676
 10
-20.1335482798
 20
9.0377342323
 10
-20.1158166959
 20
9.0388044015
 10
-20.0973607646
 20
9.0395296769
 10
-20.0781804859
 20
9.0399100584
  0
LWPOLYLINE
  5
2D3
100
AcDbEntity
  8
ASSI
100
AcDbPolyline
 62
7
  6
CONTINUOUS
 90
49
 70
0
 10
-20.4623802859
 20
8.7401700251
 10
-20.4621447281
 20
8.75274478
 10
-20.461559494
 20
8.764917992
 10
-20.4606245837
 20
8.776689661
 10
-20.4593238695
 20
8.788044189
 10
-20.4576734791
 20
8.798997174
 10
-20.4557217954
 20
8.8095954102
 10
-20.4534711684
 20
8.8198460742
 10
-20.4509192483
 20
8.8297419893
 10
-20.448107368
 20
8.8393084189
 10
-20.445033195
 20
8.8485573152
 10
-20.4416990619
 20
8.8574767261
 10
-20.4381532994
 20
8.8660560589
 10
-20.4344194399
 20
8.8742598012
 10
-20.4304739509
 20
8.8821234653
 10
-20.4262945661
 20
8.8897429952
 10
-20.4219042604
 20
8.8971040533
 10
-20.4172800589
 20
8.9042209772
 10
-20.4123307714
 20
8.9112327237
 10
-20.4070454539
 20
8.918173969
 10
-20.4014350503
 20
8.9250100368
 10
-20.3954412023
 20
8.9317758555
 10
-20.3890448596
 20
8.9384996533
 10
-20.3822650724
 20
8.945153202
 10
-20.3751006338
 20
8.9516867442
 10
-20.3675398386
 20
8.9581068786
 10
-20.359594392
 20
8.9644070066
 10
-20.3512982025
 20
8.9705175751
 10
-20.3426554524
 20
8.9764319478
 10
-20.3336619593
 20
8.9821567611
 10
-20.3243390858
 20
8.9876423709
 10
-20.3146855224
 20
8.9928867547
 10
-20.3047025785
 20
8.9978919351
 10
-20.294415544
 20
9.002614336
 10
-20.2838796008
 20
9.0070390146
 10
-20.2730395671
 20
9.0111809137
 10
-20.2617551871
 20
9.0150412858
 10
-20.2500552712
 20
9.0186146069
 10
-20.2379110091
 20
9.021906401
 10
-20.2250957142
 20
9.0249344911
 10
-20.2115379209
 20
9.0276998802
 10
-20.1973090948
 20
9.0302015654
 10
-20.1823969466
 20
9.0324543616
 10
-20.1668110549
 20
9.0344952091
 10
-20.1505418411
 20
9.0362871676
 10
-20.1335482798
 20
9.0377342323
 10
-20.1158166959
 20
9.0388044015
 10
-20.0973607646
 20
9.0395296769
 10
-20.0781804859
 20
9.0399100584
  0
LINE
  5
2D4
100
AcDbEntity
  8
0
100
AcDbLine
 62
7
  6
CONTINUOUS
 10
-17.1048812859
 20
9.5969011997
 11
-17.7026142859
 21
9.9743881997
  0
LINE
  5
2D5
100
AcDbEntity
  8
ASSI
100
AcDbLine
 62
7
  6
CONTINUOUS
 10
-17.1048812859
 20
9.5969011997
 11
-17.7026142859
 21
9.9743881997
  0
LWPOLYLINE
  5
2D6
100
AcDbEntity
  8
0
100
AcDbPolyline
 62
7
  6
CONTINUOUS
 90
52
 70
0
 10
-19.5783172859
 20
8.7583061843
 10
-19.5785652762
 20
8.7732233082
 10
-19.5792513178
 20
8.787948768
 10
-19.5803754107
 20
8.8024825638
 10
-19.5819518288
 20
8.816858546
 10
-19.5839662982
 20
8.8310428641
 10
-19.5863759974
 20
8.8449339673
 10
-19.5891833944
 20
8.8585166233
 10
-19.5923860212
 20
8.8718060642
 10
-19.595933652
 20
8.8847464357
 10
-19.5998172782
 20
8.8973097
 10
-19.6040459086
 20
8.9095238948
 10
-19.6085963434
 20
8.9214172791
 10
-19.6134582246
 20
8.9329760803
 10
-19.6186419104
 20
8.944214071
 10
-19.6241552762
 20
8.9552008288
 10
-19.6300095554
 20
8.9659660145
 10
-19.6361935148
 20
8.9764799672
 10
-19.6426813294
 20
8.9867232816
 10
-19.6494617163
 20
8.9966851063
 10
-19.6565459585
 20
9.0063762926
 10
-19.663942081
 20
9.0158099895
 10
-19.6716193606
 20
9.0249600309
 10
-19.6796085204
 20
9.0338525828
 10
-19.6880097541
 20
9.0425792919
 10
-19.6968401988
 20
9.0511702856
 10
-19.7060827173
 20
9.0595954364
 10
-19.715786092
 20
9.0678560085
 10
-19.7259759698
 20
9.0759756677
 10
-19.7366267036
 20
9.0839307482
 10
-19.7477101349
 20
9.0916515167
 10
-19.7592032667
 20
9.0991237703
 10
-19.771129096
 20
9.1063617119
 10
-19.7835284543
 20
9.1133382177
 10
-19.7963610252
 20
9.1200405351
 10
-19.8096671252
 20
9.1264814167
 10
-19.8236085355
 20
9.1326719961
 10
-19.8382379435
 20
9.1386396985
 10
-19.8535026618
 20
9.1443570986
 10
-19.8694064096
 20
9.1497530547
 10
-19.8862186507
 20
9.154882611
 10
-19.9036699213
 20
9.1596907231
 10
-19.9209555487
 20
9.163941117
 10
-19.9377266829
 20
9.1675427551
 10
-19.9543321741
 20
9.1705866749
 10
-19.9710138995
 20
9.1731097148
 10
-19.9876676124
 20
9.1750809042
 10
-20.0043975597
 20
9.1765312136
 10
-20.0217583589
 20
9.1775903924
 10
-20.0399348826
 20
9.1783016905
 10
-20.0587422583
 20
9.178621858
 10
-20.0781804859
 20
9.178550895
  0
LWPOLYLINE
  5
2D7
100
AcDbEntity
  8
ASSI
100
AcDbPolyline
 62
7
  6
CONTINUOUS
 90
52
 70
0
 10
-19.5783172859
 20
8.7583061843
 10
-19.5785652762
 20
8.7732233082
 10
-19.5792513178
 20
8.787948768
 10
-19.5803754107
 20
8.8024825638
 10
-19.5819518288
 20
8.816858546
 10
-19.5839662982
 20
8.8310428641
 10
-19.5863759974
 20
8.8449339673
 10
-19.5891833944
 20
8.8585166233
 10
-19.5923860212
 20
8.8718060642
 10
-19.595933652
 20
8.8847464357
 10
-19.5998172782
 20
8.8973097
 10
-19.6040459086
 20
8.9095238948
 10
-19.6085963434
 20
8.9214172791
 10
-19.6134582246
 20
8.9329760803
 10
-19.6186419104
 20
8.944214071
 10
-19.6241552762
 20
8.9552008288
 10
-19.6300095554
 20
8.9659660145
 10
-19.6361935148
 20
8.9764799672
 10
-19.6426813294
 20
8.9867232816
 10
-19.6494617163
 20
8.9966851063
 10
-19.6565459585
 20
9.0063762926
 10
-19.663942081
 20
9.0158099895
 10
-19.6716193606
 20
9.0249600309
 10
-19.6796085204
 20
9.0338525828
 10
-19.6880097541
 20
9.0425792919
 10
-19.6968401988
 20
9.0511702856
 10
-19.7060827173
 20
9.0595954364
 10
-19.715786092
 20
9.0678560085
 10
-19.7259759698
 20
9.0759756677
 10
-19.7366267036
 20
9.0839307482
 10
-19.7477101349
 20
9.0916515167
 10
-19.7592032667
 20
9.0991237703
 10
-19.771129096
 20
9.1063617119
 10
-19.7835284543
 20
9.1133382177
 10
-19.7963610252
 20
9.1200405351
 10
-19.8096671252
 20
9.1264814167
 10
-19.8236085355
 20
9.1326719961
 10
-19.8382379435
 20
9.1386396985
 10
-19.8535026618
 20
9.1443570986
 10
-19.8694064096
 20
9.1497530547
 10
-19.8862186507
 20
9.154882611
 10
-19.9036699213
 20
9.1596907231
 10
-19.9209555487
 20
9.163941117
 10
-19.9377266829
 20
9.1675427551
 10
-19.9543321741
 20
9.1705866749
 10
-19.9710138995
 20
9.1731097148
 10
-19.9876676124
 20
9.1750809042
 10
-20.0043975597
 20
9.1765312136
 10
-20.0217583589
 20
9.1775903924
 10
-20.0399348826
 20
9.1783016905
 10
-20.0587422583
 20
9.178621858
 10
-20.0781804859
 20
9.178550895
  0
LINE
  5
2D8
100
AcDbEntity
  8
0
100
AcDbLine
 62
7
  6
CONTINUOUS
 10
-19.8694992859
 20
7.5743141997
 11
-19.8694992859
 21
7.9754991997
  0
LINE
  5
2D9
100
AcDbEntity
  8
ASSI
100
AcDbLine
 62
7
  6
CONTINUOUS
 10
-19.8694992859
 20
7.5743141997
 11
-19.8694992859
 21
7.9754991997
  0
LINE
  5
2DA
100
AcDbEntity
  8
ASSI
100
AcDbLine
 62
7
  6
CONTINUOUS
 10
-19.7645672859
 20
21.5160171997
 11
-19.7645672859
 21
22.0372151997
  0
LINE
  5
2DB
100
AcDbEntity
  8
0
100
AcDbLine
 62
7
  6
CONTINUOUS
 10
-19.6980252859
 20
10.1039641997
 11
-19.6980252859
 21
9.5008111997
  0
LINE
  5
2DC
100
AcDbEntity
  8
ASSI
100
AcDbLine
 62
7
  6
CONTINUOUS
 10
-19.6980252859
 20
10.1039641997
 11
-19.6980252859
 21
9.5008111997
  0
LINE
  5
2DD
100
AcDbEntity
  8
0
100
AcDbLine
 62
7
  6
CONTINUOUS
 10
-19.6939812859
 20
8.7401825061
 11
-19.6939812859
 21
8.4880611997
  0
LINE
  5
2DE
100
AcDbEntity
  8
ASSI
100
AcDbLine
 62
7
  6
CONTINUOUS
 10
-19.6939812859
 20
8.7401825061
 11
-19.6939812859
 21
8.4880611997
  0
LINE
  5
2DF
100
AcDbEntity
  8
0
100
AcDbLine
 62
7
  6
CONTINUOUS
 10
-19.5783172859
 20
6.2523441997
 11
-19.5783172859
 21
6.3832951997
  0
LINE
  5
2E0
100
AcDbEntity
  8
ASSI
100
AcDbLine
 62
7
  6
CONTINUOUS
 10
-19.5783172859
 20
6.2523441997
 11
-19.5783172859
 21
6.3832951997
  0
LINE
  5
2E1
100
AcDbEntity
  8
0
100
AcDbLine
 62
7
  6
CONTINUOUS
 10
-19.5783172859
 20
6.6646911997
 11
-19.5783172859
 21
6.7983931997
  0
LINE
  5
2E2
100
AcDbEntity
  8
ASSI
100
AcDbLine
 62
7
  6
CONTINUOUS
 10
-19.5783172859
 20
6.6646911997
 11
-19.5783172859
 21
6.7983931997
  0
LINE
  5
2E3
100
AcDbEntity
  8
0
100
AcDbLine
 62
7
  6
CONTINUOUS
 10
-19.5783172859
 20
7.0797881997
 11
-19.5783172859
 21
7.2107401997
  0
LINE
  5
2E4
100
AcDbEntity
  8
ASSI
100
AcDbLine
 62
7
  6
CONTINUOUS
 10
-19.5783172859
 20
7.0797881997
 11
-19.5783172859
 21
7.2107401997
  0
LINE
  5
2E5
100
AcDbEntity
  8
0
100
AcDbLine
 62
7
  6
CONTINUOUS
 10
-19.5783172859
 20
7.3305291997
 11
-19.5783172859
 21
7.4698121997
  0
LINE
  5
2E6
100
AcDbEntity
  8
ASSI
100
AcDbLine
 62
7
  6
CONTINUOUS
 10
-19.5783172859
 20
7.3305291997
 11
-19.5783172859
 21
7.4698121997
  0
LINE
  5
2E7
100
AcDbEntity
  8
0
100
AcDbLine
 62
7
  6
CONTINUOUS
 10
-19.5783172859
 20
8.0744201997
 11
-19.5783172859
 21
8.2220341997
  0
LINE
  5
2E8
100
AcDbEntity
  8
ASSI
100
AcDbLine
 62
7
  6
CONTINUOUS
 10
-19.5783172859
 20
8.0744201997
 11
-19.5783172859
 21
8.2220341997
  0
LINE
  5
2E9
100
AcDbEntity
  8
0
100
AcDbLine
 62
7
  6
CONTINUOUS
 10
-19.5783172859
 20
8.3529851997
 11
-19.5783172859
 21
8.7583061843
  0
LINE
  5
2EA
100
AcDbEntity
  8
ASSI
100
AcDbLine
 62
7
  6
CONTINUOUS
 10
-19.5783172859
 20
8.3529851997
 11
-19.5783172859
 21
8.7583061843
  0
LINE
  5
2EB
100
AcDbEntity
  8
0
100
AcDbLine
 62
7
  6
CONTINUOUS
 10
-19.5783172859
 20
9.3656541997
 11
-19.5783172859
 21
10.1039641997
  0
LINE
  5
2EC
100
AcDbEntity
  8
ASSI
100
AcDbLine
 62
7
  6
CONTINUOUS
 10
-19.5783172859
 20
9.3656541997
 11
-19.5783172859
 21
10.1039641997
  0
LINE
  5
2ED
100
AcDbEntity
  8
ASSI
100
AcDbLine
 62
7
  6
CONTINUOUS
 10
-19.4400692859
 20
22.1413961997
 11
-19.4400652859
 21
22.4714121997
  0
LINE
  5
2EE
100
AcDbEntity
  8
ASSI
100
AcDbLine
 62
7
  6
CONTINUOUS
 10
-19.4400692859
 20
22.6914191997
 11
-19.4400692859
 21
23.0214361997
  0
LINE
  5
2EF
100
AcDbEntity
  8
ASSI
100
AcDbLine
 62
7
  6
CONTINUOUS
 10
-19.4400652859
 20
19.2477661997
 11
-19.4400652859
 21
19.5777791997
  0
LINE
  5
2F0
100
AcDbEntity
  8
ASSI
100
AcDbLine
 62
7
  6
CONTINUOUS
 10
-19.4400652859
 20
20.5318001997
 11
-19.4400652859
 21
20.8618131997
  0
LINE
  5
2F1
100
AcDbEntity
  8
ASSI
100
AcDbLine
 62
7
  6
CONTINUOUS
 10
-19.4400612859
 20
17.5079361997
 11
-19.4400652859
 21
17.8379611997
  0
LINE
  5
2F2
100
AcDbEntity
  8
ASSI
100
AcDbLine
 62
7
  6
CONTINUOUS
 10
-19.4400612859
 20
18.5877501997
 11
-19.4400652859
 21
18.9177621997
  0
LINE
  5
2F3
100
AcDbEntity
  8
ASSI
100
AcDbLine
 62
7
  6
CONTINUOUS
 10
-19.4400652859
 20
19.8897851997
 11
-19.4400692859
 21
20.2197891997
  0
LINE
  5
2F4
100
AcDbEntity
  8
ASSI
100
AcDbLine
 62
7
  6
CONTINUOUS
 10
-19.4400652859
 20
21.0818201997
 11
-19.4400692859
 21
21.4118321997
  0
LINE
  5
2F5
100
AcDbEntity
  8
ASSI
100
AcDbLine
 62
7
  6
CONTINUOUS
 10
-19.4400692859
 20
23.6402151997
 11
-19.4400732859
 21
24.0119231997
  0
LINE
  5
2F6
100
AcDbEntity
  8
0
100
AcDbLine
 62
7
  6
CONTINUOUS
 10
-19.1399252859
 20
8.7534421997
 11
-19.1399252859
 21
8.6225721997
  0
LINE
  5
2F7
100
AcDbEntity
  8
ASSI
100
AcDbLine
 62
7
  6
CONTINUOUS
 10
-19.1399252859
 20
8.7534421997
 11
-19.1399252859
 21
8.6225721997
  0
LINE
  5
2F8
100
AcDbEntity
  8
0
100
AcDbLine
 62
7
  6
CONTINUOUS
 10
-19.1399252859
 20
8.1196341997
 11
-19.1399252859
 21
7.9594031997
  0
LINE
  5
2F9
100
AcDbEntity
  8
ASSI
100
AcDbLine
 62
7
  6
CONTINUOUS
 10
-19.1399252859
 20
8.1196341997
 11
-19.1399252859
 21
7.9594031997
  0
LINE
  5
2FA
100
AcDbEntity
  8
0
100
AcDbLine
 62
7
  6
CONTINUOUS
 10
-19.1399252859
 20
7.7282361997
 11
-19.1399252859
 21
7.5930791997
  0
LINE
  5
2FB
100
AcDbEntity
  8
ASSI
100
AcDbLine
 62
7
  6
CONTINUOUS
 10
-19.1399252859
 20
7.7282361997
 11
-19.1399252859
 21
7.5930791997
  0
LINE
  5
2FC
100
AcDbEntity
  8
0
100
AcDbLine
 62
7
  6
CONTINUOUS
 10
-17.4790612823
 20
19.7723131546
 11
-17.4936652838
 21
19.9538151738
  0
LINE
  5
2FD
100
AcDbEntity
  8
ASSI
100
AcDbLine
 62
7
  6
CONTINUOUS
 10
-17.4790612823
 20
19.7723131546
 11
-17.4936652838
 21
19.9538151738
  0
LINE
  5
2FE
100
AcDbEntity
  8
0
100
AcDbLine
 62
7
  6
CONTINUOUS
 10
-18.1401972859
 20
7.5930791997
 11
-18.1401972859
 21
7.7282361997
  0
LINE
  5
2FF
100
AcDbEntity
  8
ASSI
100
AcDbLine
 62
7
  6
CONTINUOUS
 10
-18.1401972859
 20
7.5930791997
 11
-18.1401972859
 21
7.7282361997
  0
LINE
  5
300
100
AcDbEntity
  8
0
100
AcDbLine
 62
7
  6
CONTINUOUS
 10
-18.1401972859
 20
7.9594031997
 11
-18.1401972859
 21
8.0904351997
  0
LINE
  5
301
100
AcDbEntity
  8
ASSI
100
AcDbLine
 62
7
  6
CONTINUOUS
 10
-18.1401972859
 20
7.9594031997
 11
-18.1401972859
 21
8.0904351997
  0
LINE
  5
302
100
AcDbEntity
  8
0
100
AcDbLine
 62
7
  6
CONTINUOUS
 10
-18.1401972859
 20
8.6016231997
 11
-18.1401972859
 21
8.7534421997
  0
LINE
  5
303
100
AcDbEntity
  8
ASSI
100
AcDbLine
 62
7
  6
CONTINUOUS
 10
-18.1401972859
 20
8.6016231997
 11
-18.1401972859
 21
8.7534421997
  0
LINE
  5
304
100
AcDbEntity
  8
0
100
AcDbLine
 62
7
  6
CONTINUOUS
 10
-17.8650142859
 20
23.1686981997
 11
-17.8650142859
 21
23.0503690446
  0
LINE
  5
305
100
AcDbEntity
  8
ASSI
100
AcDbLine
 62
7
  6
CONTINUOUS
 10
-17.8650142859
 20
23.1686981997
 11
-17.8650142859
 21
23.0503690446
  0
LINE
  5
306
100
AcDbEntity
  8
0
100
AcDbLine
 62
7
  6
CONTINUOUS
 10
-17.8650142859
 20
18.5289191997
 11
-17.8650142859
 21
18.4105907693
  0
LINE
  5
307
100
AcDbEntity
  8
ASSI
100
AcDbLine
 62
7
  6
CONTINUOUS
 10
-17.8650142859
 20
18.5289191997
 11
-17.8650142859
 21
18.4105907693
  0
LINE
  5
308
100
AcDbEntity
  8
0
100
AcDbLine
 62
7
  6
CONTINUOUS
 10
-17.8399792859
 20
22.2966531997
 11
-17.8399792859
 21
21.3307281997
  0
LINE
  5
309
100
AcDbEntity
  8
ASSI
100
AcDbLine
 62
7
  6
CONTINUOUS
 10
-17.8399792859
 20
22.2966531997
 11
-17.8399792859
 21
21.3307281997
  0
LINE
  5
30A
100
AcDbEntity
  8
0
100
AcDbLine
 62
7
  6
CONTINUOUS
 10
-17.7026142859
 20
9.9743881997
 11
-17.7026142859
 21
9.8156121997
  0
LINE
  5
30B
100
AcDbEntity
  8
ASSI
100
AcDbLine
 62
7
  6
CONTINUOUS
 10
-17.7026142859
 20
9.9743881997
 11
-17.7026142859
 21
9.8156121997
  0
LINE
  5
30C
100
AcDbEntity
  8
0
100
AcDbLine
 62
7
  6
CONTINUOUS
 10
-17.7026142859
 20
9.2416591997
 11
-17.7026142859
 21
9.0842581997
  0
LINE
  5
30D
100
AcDbEntity
  8
ASSI
100
AcDbLine
 62
7
  6
CONTINUOUS
 10
-17.7026142859
 20
9.2416591997
 11
-17.7026142859
 21
9.0842581997
  0
LINE
  5
30E
100
AcDbEntity
  8
0
100
AcDbLine
 62
7
  6
CONTINUOUS
 10
-17.7026142859
 20
8.7401771997
 11
-17.7026142859
 21
8.6051011997
  0
LINE
  5
30F
100
AcDbEntity
  8
ASSI
100
AcDbLine
 62
7
  6
CONTINUOUS
 10
-17.7026142859
 20
8.7401771997
 11
-17.7026142859
 21
8.6051011997
  0
LINE
  5
310
100
AcDbEntity
  8
0
100
AcDbLine
 62
7
  6
CONTINUOUS
 10
-17.7026142859
 20
8.1189061997
 11
-17.7026142859
 21
7.9657121997
  0
LINE
  5
311
100
AcDbEntity
  8
ASSI
100
AcDbLine
 62
7
  6
CONTINUOUS
 10
-17.7026142859
 20
8.1189061997
 11
-17.7026142859
 21
7.9657121997
  0
LINE
  5
312
100
AcDbEntity
  8
0
100
AcDbLine
 62
7
  6
CONTINUOUS
 10
-17.7026142859
 20
7.5506151997
 11
-17.7026142859
 21
6.7385381997
  0
LINE
  5
313
100
AcDbEntity
  8
ASSI
100
AcDbLine
 62
7
  6
CONTINUOUS
 10
-17.7026142859
 20
7.5506151997
 11
-17.7026142859
 21
6.7385381997
  0
LINE
  5
314
100
AcDbEntity
  8
0
100
AcDbLine
 62
7
  6
CONTINUOUS
 10
-17.7026142859
 20
6.5935941997
 11
-17.7026142859
 21
6.4584371997
  0
LINE
  5
315
100
AcDbEntity
  8
ASSI
100
AcDbLine
 62
7
  6
CONTINUOUS
 10
-17.7026142859
 20
6.5935941997
 11
-17.7026142859
 21
6.4584371997
  0
LINE
  5
316
100
AcDbEntity
  8
0
100
AcDbLine
 62
7
  6
CONTINUOUS
 10
-17.6647362859
 20
21.3307281997
 11
-17.6647362859
 21
22.0609088103
  0
LINE
  5
317
100
AcDbEntity
  8
ASSI
100
AcDbLine
 62
7
  6
CONTINUOUS
 10
-17.6647362859
 20
21.3307281997
 11
-17.6647362859
 21
22.0609088103
  0
LINE
  5
318
100
AcDbEntity
  8
0
100
AcDbLine
 62
7
  6
CONTINUOUS
 10
-17.5829062859
 20
6.7385381997
 11
-17.5829062859
 21
7.0770381997
  0
LINE
  5
319
100
AcDbEntity
  8
ASSI
100
AcDbLine
 62
7
  6
CONTINUOUS
 10
-17.5829062859
 20
6.7385381997
 11
-17.5829062859
 21
7.0770381997
  0
LINE
  5
31A
100
AcDbEntity
  8
0
100
AcDbLine
 62
7
  6
CONTINUOUS
 10
-17.5829062859
 20
7.2121151997
 11
-17.5829062859
 21
7.5506151997
  0
LINE
  5
31B
100
AcDbEntity
  8
ASSI
100
AcDbLine
 62
7
  6
CONTINUOUS
 10
-17.5829062859
 20
7.2121151997
 11
-17.5829062859
 21
7.5506151997
  0
LINE
  5
31C
100
AcDbEntity
  8
0
100
AcDbLine
 62
7
  6
CONTINUOUS
 10
-17.1129692859
 20
8.1857981997
 11
-17.1129692859
 21
7.8751221997
  0
LINE
  5
31D
100
AcDbEntity
  8
ASSI
100
AcDbLine
 62
7
  6
CONTINUOUS
 10
-17.1129692859
 20
8.1857981997
 11
-17.1129692859
 21
7.8751221997
  0
LINE
  5
31E
100
AcDbEntity
  8
0
100
AcDbLine
 62
7
  6
CONTINUOUS
 10
-16.9932612859
 20
7.8333861997
 11
-16.9932612859
 21
8.2345711997
  0
LINE
  5
31F
100
AcDbEntity
  8
ASSI
100
AcDbLine
 62
7
  6
CONTINUOUS
 10
-16.9932612859
 20
7.8333861997
 11
-16.9932612859
 21
8.2345711997
  0
LINE
  5
320
100
AcDbEntity
  8
0
100
AcDbLine
 62
7
  6
CONTINUOUS
 10
-16.7259322264
 20
20.3627164856
 11
-16.7113282795
 21
20.1874731224
  0
LINE
  5
321
100
AcDbEntity
  8
ASSI
100
AcDbLine
 62
7
  6
CONTINUOUS
 10
-16.7259322264
 20
20.3627164856
 11
-16.7113282795
 21
20.1874731224
  0
LINE
  5
322
100
AcDbEntity
  8
0
100
AcDbLine
 62
7
  6
CONTINUOUS
 10
-16.8217872859
 20
9.2472401997
 11
-16.8217872859
 21
8.7401771997
  0
LINE
  5
323
100
AcDbEntity
  8
ASSI
100
AcDbLine
 62
7
  6
CONTINUOUS
 10
-16.8217872859
 20
9.2472401997
 11
-16.8217872859
 21
8.7401771997
  0
LINE
  5
324
100
AcDbEntity
  8
0
100
AcDbLine
 62
7
  6
CONTINUOUS
 10
-16.7020782859
 20
6.4584371997
 11
-16.7020782859
 21
6.5935941997
  0
LINE
  5
325
100
AcDbEntity
  8
ASSI
100
AcDbLine
 62
7
  6
CONTINUOUS
 10
-16.7020782859
 20
6.4584371997
 11
-16.7020782859
 21
6.5935941997
  0
LINE
  5
326
100
AcDbEntity
  8
0
100
AcDbLine
 62
7
  6
CONTINUOUS
 10
-16.7020782859
 20
7.0770381997
 11
-16.7020782859
 21
7.2121151997
  0
LINE
  5
327
100
AcDbEntity
  8
ASSI
100
AcDbLine
 62
7
  6
CONTINUOUS
 10
-16.7020782859
 20
7.0770381997
 11
-16.7020782859
 21
7.2121151997
  0
LINE
  5
328
100
AcDbEntity
  8
0
100
AcDbLine
 62
7
  6
CONTINUOUS
 10
-16.7020782859
 20
7.5896011997
 11
-16.7020782859
 21
7.7288831997
  0
LINE
  5
329
100
AcDbEntity
  8
ASSI
100
AcDbLine
 62
7
  6
CONTINUOUS
 10
-16.7020782859
 20
7.5896011997
 11
-16.7020782859
 21
7.7288831997
  0
LINE
  5
32A
100
AcDbEntity
  8
0
100
AcDbLine
 62
7
  6
CONTINUOUS
 10
-16.7020782859
 20
8.3334921997
 11
-16.7020782859
 21
8.4811051997
  0
LINE
  5
32B
100
AcDbEntity
  8
ASSI
100
AcDbLine
 62
7
  6
CONTINUOUS
 10
-16.7020782859
 20
8.3334921997
 11
-16.7020782859
 21
8.4811051997
  0
LINE
  5
32C
100
AcDbEntity
  8
0
100
AcDbLine
 62
7
  6
CONTINUOUS
 10
-16.7020782859
 20
8.6051011997
 11
-16.7020782859
 21
9.2472401997
  0
LINE
  5
32D
100
AcDbEntity
  8
ASSI
100
AcDbLine
 62
7
  6
CONTINUOUS
 10
-16.7020782859
 20
8.6051011997
 11
-16.7020782859
 21
9.2472401997
  0
LINE
  5
32E
100
AcDbEntity
  8
0
100
AcDbLine
 62
7
  6
CONTINUOUS
 10
-16.7020782859
 20
9.4618251997
 11
-16.7020782859
 21
9.5969011997
  0
LINE
  5
32F
100
AcDbEntity
  8
ASSI
100
AcDbLine
 62
7
  6
CONTINUOUS
 10
-16.7020782859
 20
9.4618251997
 11
-16.7020782859
 21
9.5969011997
  0
LINE
  5
330
100
AcDbEntity
  8
0
100
AcDbLine
 62
7
  6
CONTINUOUS
 10
-16.3650142859
 20
18.3453301997
 11
-16.3650142859
 21
18.5289191997
  0
LINE
  5
331
100
AcDbEntity
  8
ASSI
100
AcDbLine
 62
7
  6
CONTINUOUS
 10
-16.3650142859
 20
18.3453301997
 11
-16.3650142859
 21
18.5289191997
  0
LINE
  5
332
100
AcDbEntity
  8
0
100
AcDbLine
 62
7
  6
CONTINUOUS
 10
-16.3650142859
 20
21.5393509333
 11
-16.3650142859
 21
21.7271117512
  0
LINE
  5
333
100
AcDbEntity
  8
ASSI
100
AcDbLine
 62
7
  6
CONTINUOUS
 10
-16.3650142859
 20
21.5393509333
 11
-16.3650142859
 21
21.7271117512
  0
LINE
  5
334
100
AcDbEntity
  8
0
100
AcDbLine
 62
7
  6
CONTINUOUS
 10
-16.3650142859
 20
22.9851091997
 11
-16.3650142859
 21
23.1686981997
  0
LINE
  5
335
100
AcDbEntity
  8
ASSI
100
AcDbLine
 62
7
  6
CONTINUOUS
 10
-16.3650142859
 20
22.9851091997
 11
-16.3650142859
 21
23.1686981997
  0
LWPOLYLINE
  5
336
100
AcDbEntity
  8
0
100
AcDbPolyline
 62
7
  6
CONTINUOUS
 90
19
 70
0
 10
-17.3127172769
 20
17.9781541997
 10
-17.3194971272
 20
17.9962084731
 10
-17.3275681962
 20
18.015796811
 10
-17.3369304839
 20
18.0369192134
 10
-17.3476429402
 20
18.0597895118
 10
-17.3596466152
 20
18.0841938747
 10
-17.3727646592
 20
18.1094908074
 10
-17.3874132243
 20
18.1363023566
 10
-17.4031761585
 20
18.1640064756
 10
-17.4186281561
 20
18.19009553
 10
-17.4333737006
 20
18.2137728884
 10
-17.4478083086
 20
18.2358351823
 10
-17.4616932233
 20
18.2561646713
 10
-17.4749176394
 20
18.2745808875
 10
-17.4875923622
 20
18.2912642988
 10
-17.4998110514
 20
18.3066385693
 10
-17.5116049268
 20
18.3208449203
 10
-17.5229427686
 20
18.3337421304
 10
-17.5338245767
 20
18.3453301997
  0
LWPOLYLINE
  5
337
100
AcDbEntity
  8
ASSI
100
AcDbPolyline
 62
7
  6
CONTINUOUS
 90
19
 70
0
 10
-17.3127172769
 20
17.9781541997
 10
-17.3194971272
 20
17.9962084731
 10
-17.3275681962
 20
18.015796811
 10
-17.3369304839
 20
18.0369192134
 10
-17.3476429402
 20
18.0597895118
 10
-17.3596466152
 20
18.0841938747
 10
-17.3727646592
 20
18.1094908074
 10
-17.3874132243
 20
18.1363023566
 10
-17.4031761585
 20
18.1640064756
 10
-17.4186281561
 20
18.19009553
 10
-17.4333737006
 20
18.2137728884
 10
-17.4478083086
 20
18.2358351823
 10
-17.4616932233
 20
18.2561646713
 10
-17.4749176394
 20
18.2745808875
 10
-17.4875923622
 20
18.2912642988
 10
-17.4998110514
 20
18.3066385693
 10
-17.5116049268
 20
18.3208449203
 10
-17.5229427686
 20
18.3337421304
 10
-17.5338245767
 20
18.3453301997
  0
LINE
  5
338
100
AcDbEntity
  8
RACCORDO
100
AcDbLine
 62
253
  6
CONTINUOUS
 10
-15.3936511244
 20
24.8301564269
 11
-15.3936511244
 21
2.5261519726
  0
LINE
  5
339
100
AcDbEntity
  8
ASSI
100
AcDbLine
 62
253
  6
CONTINUOUS
 10
-15.3936511244
 20
24.8301564269
 11
-15.3936511244
 21
2.5261519726
  0
LINE
  5
33A
100
AcDbEntity
  8
RACCORDO
100
AcDbLine
 62
253
  6
CONTINUOUS
 10
-14.9936511244
 20
24.8310917697
 11
-14.9936511244
 21
2.5252166297
  0
LINE
  5
33B
100
AcDbEntity
  8
ASSI
100
AcDbLine
 62
253
  6
CONTINUOUS
 10
-14.9936511244
 20
24.8310917697
 11
-14.9936511244
 21
2.5252166297
  0
LINE
  5
33C
100
AcDbEntity
  8
RACCORDO
100
AcDbLine
 62
253
  6
CONTINUOUS
 10
-14.325701932
 20
24.8344572047
 11
-14.325701932
 21
2.5218511948
  0
LINE
  5
33D
100
AcDbEntity
  8
ASSI
100
AcDbLine
 62
253
  6
CONTINUOUS
 10
-14.325701932
 20
24.8344572047
 11
-14.325701932
 21
2.5218511948
  0
LINE
  5
33E
100
AcDbEntity
  8
0
100
AcDbLine
 62
7
  6
CONTINUOUS
 10
-17.7026142859
 20
9.0842581997
 11
-17.1048812859
 21
9.4618251997
  0
LINE
  5
33F
100
AcDbEntity
  8
ASSI
100
AcDbLine
 62
7
  6
CONTINUOUS
 10
-17.7026142859
 20
9.0842581997
 11
-17.1048812859
 21
9.4618251997
  0
LINE
  5
340
100
AcDbEntity
  8
0
100
AcDbLine
 62
7
  6
CONTINUOUS
 10
-18.9526002859
 20
8.0904351997
 11
-18.1401972859
 21
8.6016231997
  0
LINE
  5
341
100
AcDbEntity
  8
ASSI
100
AcDbLine
 62
7
  6
CONTINUOUS
 10
-18.9526002859
 20
8.0904351997
 11
-18.1401972859
 21
8.6016231997
  0
LINE
  5
342
100
AcDbEntity
  8
0
100
AcDbLine
 62
7
  6
CONTINUOUS
 10
-18.3281322859
 20
8.6225721997
 11
-19.1399252859
 21
8.1196341997
  0
LINE
  5
343
100
AcDbEntity
  8
ASSI
100
AcDbLine
 62
7
  6
CONTINUOUS
 10
-18.3281322859
 20
8.6225721997
 11
-19.1399252859
 21
8.1196341997
  0
LINE
  5
344
100
AcDbEntity
  8
0
100
AcDbLine
 62
7
  6
CONTINUOUS
 10
-17.2221632859
 20
9.5286351997
 11
-17.7026142859
 21
9.2416591997
  0
LINE
  5
345
100
AcDbEntity
  8
ASSI
100
AcDbLine
 62
7
  6
CONTINUOUS
 10
-17.2221632859
 20
9.5286351997
 11
-17.7026142859
 21
9.2416591997
  0
LINE
  5
346
100
AcDbEntity
  8
RACCORDO
100
AcDbLine
 62
7
  6
CONTINUOUS
 10
-12.7400612859
 20
17.4781541997
 11
-5.3400612859
 21
17.4781541997
  0
LINE
  5
347
100
AcDbEntity
  8
ASSI
100
AcDbLine
 62
7
  6
CONTINUOUS
 10
-12.7400612859
 20
17.4781541997
 11
-5.3400612859
 21
17.4781541997
  0
LINE
  5
348
100
AcDbEntity
  8
RACCORDO
100
AcDbLine
 62
253
  6
CONTINUOUS
 10
-5.0400612859
 20
17.7781541997
 11
-13.0400612859
 21
17.7781541997
  0
LINE
  5
349
100
AcDbEntity
  8
ASSI
100
AcDbLine
 62
253
  6
CONTINUOUS
 10
-5.0400612859
 20
17.7781541997
 11
-13.0400612859
 21
17.7781541997
  0
LINE
  5
34A
100
AcDbEntity
  8
0
100
AcDbLine
 62
7
  6
CONTINUOUS
 10
-17.4900143343
 20
17.9781541997
 11
-17.3127172769
 21
17.9781541997
  0
LINE
  5
34B
100
AcDbEntity
  8
ASSI
100
AcDbLine
 62
7
  6
CONTINUOUS
 10
-17.4900143343
 20
17.9781541997
 11
-17.3127172769
 21
17.9781541997
  0
LINE
  5
34C
100
AcDbEntity
  8
ASSI
100
AcDbLine
 62
7
  6
CONTINUOUS
 10
-21.0901392859
 20
18.0377301997
 11
-19.9539742859
 21
17.6729531997
  0
LINE
  5
34D
100
AcDbEntity
  8
ASSI
100
AcDbLine
 62
7
  6
CONTINUOUS
 10
-19.4400652859
 20
17.8379611997
 11
-21.0901392859
 21
18.3677471997
  0
LWPOLYLINE
  5
34E
100
AcDbEntity
  8
0
100
AcDbPolyline
 62
7
  6
CONTINUOUS
 90
28
 70
0
 10
-17.8650142859
 20
18.4105907693
 10
-17.8541136469
 20
18.4050489323
 10
-17.8428595164
 20
18.3988305347
 10
-17.8312518943
 20
18.3919355763
 10
-17.8193184604
 20
18.3844245902
 10
-17.8070315349
 20
18.3762370434
 10
-17.7943080791
 20
18.3671913367
 10
-17.7811546423
 20
18.3573097339
 10
-17.7675646751
 20
18.3465699711
 10
-17.7534354907
 20
18.3347236578
 10
-17.7387084685
 20
18.3217256425
 10
-17.7234422291
 20
18.3076210768
 10
-17.7077099471
 20
18.2922970245
 10
-17.6912338301
 20
18.2754318019
 10
-17.6742916705
 20
18.2573470928
 10
-17.6577900208
 20
18.2388950117
 10
-17.6420640575
 20
18.2204095867
 10
-17.626778604
 20
18.2015567897
 10
-17.6118346832
 20
18.1821866516
 10
-17.597229689
 20
18.1623113999
 10
-17.5829662274
 20
18.1419188071
 10
-17.5689531391
 20
18.1208222216
 10
-17.5551576601
 20
18.0989939208
 10
-17.5416125543
 20
18.0764616274
 10
-17.5283249555
 20
18.053121857
 10
-17.5152972415
 20
18.0289401148
 10
-17.5025270345
 20
18.0039508958
 10
-17.4900143343
 20
17.9781541997
  0
LWPOLYLINE
  5
34F
100
AcDbEntity
  8
ASSI
100
AcDbPolyline
 62
7
  6
CONTINUOUS
 90
28
 70
0
 10
-17.8650142859
 20
18.4105907693
 10
-17.8541136469
 20
18.4050489323
 10
-17.8428595164
 20
18.3988305347
 10
-17.8312518943
 20
18.3919355763
 10
-17.8193184604
 20
18.3844245902
 10
-17.8070315349
 20
18.3762370434
 10
-17.7943080791
 20
18.3671913367
 10
-17.7811546423
 20
18.3573097339
 10
-17.7675646751
 20
18.3465699711
 10
-17.7534354907
 20
18.3347236578
 10
-17.7387084685
 20
18.3217256425
 10
-17.7234422291
 20
18.3076210768
 10
-17.7077099471
 20
18.2922970245
 10
-17.6912338301
 20
18.2754318019
 10
-17.6742916705
 20
18.2573470928
 10
-17.6577900208
 20
18.2388950117
 10
-17.6420640575
 20
18.2204095867
 10
-17.626778604
 20
18.2015567897
 10
-17.6118346832
 20
18.1821866516
 10
-17.597229689
 20
18.1623113999
 10
-17.5829662274
 20
18.1419188071
 10
-17.5689531391
 20
18.1208222216
 10
-17.5551576601
 20
18.0989939208
 10
-17.5416125543
 20
18.0764616274
 10
-17.5283249555
 20
18.053121857
 10
-17.5152972415
 20
18.0289401148
 10
-17.5025270345
 20
18.0039508958
 10
-17.4900143343
 20
17.9781541997
  0
LWPOLYLINE
  5
350
100
AcDbEntity
  8
0
100
AcDbPolyline
 62
7
  6
CONTINUOUS
 90
19
 70
0
 10
-17.3127171634
 20
22.6179321997
 10
-17.3194970642
 20
22.6359865955
 10
-17.327568171
 20
22.6555750251
 10
-17.3369304839
 20
22.6766974887
 10
-17.3476429486
 20
22.6995678075
 10
-17.3596466194
 20
22.7239721602
 10
-17.3727646592
 20
22.7492690827
 10
-17.3874132243
 20
22.7760806319
 10
-17.4031761585
 20
22.8037847509
 10
-17.418628156
 20
22.8298738053
 10
-17.4333737006
 20
22.8535511637
 10
-17.4478083085
 20
22.8756134576
 10
-17.4616932233
 20
22.8959429467
 10
-17.4749176157
 20
22.914359136
 10
-17.487592315
 20
22.9310425205
 10
-17.4998110514
 20
22.9464168447
 10
-17.5116050684
 20
22.9606233567
 10
-17.5229431225
 20
22.9735208084
 10
-17.5338252137
 20
22.9851091997
  0
LWPOLYLINE
  5
351
100
AcDbEntity
  8
ASSI
100
AcDbPolyline
 62
7
  6
CONTINUOUS
 90
19
 70
0
 10
-17.3127171634
 20
22.6179321997
 10
-17.3194970642
 20
22.6359865955
 10
-17.327568171
 20
22.6555750251
 10
-17.3369304839
 20
22.6766974887
 10
-17.3476429486
 20
22.6995678075
 10
-17.3596466194
 20
22.7239721602
 10
-17.3727646592
 20
22.7492690827
 10
-17.3874132243
 20
22.7760806319
 10
-17.4031761585
 20
22.8037847509
 10
-17.418628156
 20
22.8298738053
 10
-17.4333737006
 20
22.8535511637
 10
-17.4478083085
 20
22.8756134576
 10
-17.4616932233
 20
22.8959429467
 10
-17.4749176157
 20
22.914359136
 10
-17.487592315
 20
22.9310425205
 10
-17.4998110514
 20
22.9464168447
 10
-17.5116050684
 20
22.9606233567
 10
-17.5229431225
 20
22.9735208084
 10
-17.5338252137
 20
22.9851091997
  0
LINE
  5
352
100
AcDbEntity
  8
RACCORDO
100
AcDbLine
 62
253
  6
CONTINUOUS
 10
-13.925701932
 20
24.8353925476
 11
-13.925701932
 21
2.5209158519
  0
LINE
  5
353
100
AcDbEntity
  8
ASSI
100
AcDbLine
 62
253
  6
CONTINUOUS
 10
-13.925701932
 20
24.8353925476
 11
-13.925701932
 21
2.5209158519
  0
LINE
  5
354
100
AcDbEntity
  8
RACCORDO
100
AcDbLine
 62
7
  6
CONTINUOUS
 10
-13.0400612859
 20
18.5781541997
 11
-13.0400612859
 21
17.7781541997
  0
LINE
  5
355
100
AcDbEntity
  8
ASSI
100
AcDbLine
 62
7
  6
CONTINUOUS
 10
-13.0400612859
 20
18.5781541997
 11
-13.0400612859
 21
17.7781541997
  0
LINE
  5
356
100
AcDbEntity
  8
RACCORDO
100
AcDbLine
 62
253
  6
CONTINUOUS
 10
-12.7400612859
 20
17.4781541997
 11
-12.7400612859
 21
18.8781541997
  0
LINE
  5
357
100
AcDbEntity
  8
ASSI
100
AcDbLine
 62
253
  6
CONTINUOUS
 10
-12.7400612859
 20
17.4781541997
 11
-12.7400612859
 21
18.8781541997
  0
LINE
  5
358
100
AcDbEntity
  8
0
100
AcDbLine
 62
7
  6
CONTINUOUS
 10
-19.5783172859
 20
8.2220341997
 11
-20.5780442859
 21
7.8598351997
  0
LINE
  5
359
100
AcDbEntity
  8
ASSI
100
AcDbLine
 62
7
  6
CONTINUOUS
 10
-19.5783172859
 20
8.2220341997
 11
-20.5780442859
 21
7.8598351997
  0
LINE
  5
35A
100
AcDbEntity
  8
0
100
AcDbLine
 62
7
  6
CONTINUOUS
 10
-16.7020782859
 20
8.4811051997
 11
-17.7026142859
 21
8.1189061997
  0
LINE
  5
35B
100
AcDbEntity
  8
ASSI
100
AcDbLine
 62
7
  6
CONTINUOUS
 10
-16.7020782859
 20
8.4811051997
 11
-17.7026142859
 21
8.1189061997
  0
LINE
  5
35C
100
AcDbEntity
  8
0
100
AcDbLine
 62
7
  6
CONTINUOUS
 10
-19.8694992859
 20
7.9754991997
 11
-19.5783172859
 21
8.0744201997
  0
LINE
  5
35D
100
AcDbEntity
  8
ASSI
100
AcDbLine
 62
7
  6
CONTINUOUS
 10
-19.8694992859
 20
7.9754991997
 11
-19.5783172859
 21
8.0744201997
  0
LINE
  5
35E
100
AcDbEntity
  8
0
100
AcDbLine
 62
7
  6
CONTINUOUS
 10
-16.9932612859
 20
8.2345711997
 11
-16.7020782859
 21
8.3334921997
  0
LINE
  5
35F
100
AcDbEntity
  8
ASSI
100
AcDbLine
 62
7
  6
CONTINUOUS
 10
-16.9932612859
 20
8.2345711997
 11
-16.7020782859
 21
8.3334921997
  0
LINE
  5
360
100
AcDbEntity
  8
0
100
AcDbLine
 62
7
  6
CONTINUOUS
 10
-20.4331482859
 20
7.7777121997
 11
-19.9892082859
 21
7.9267261997
  0
LINE
  5
361
100
AcDbEntity
  8
ASSI
100
AcDbLine
 62
7
  6
CONTINUOUS
 10
-20.4331482859
 20
7.7777121997
 11
-19.9892082859
 21
7.9267261997
  0
LINE
  5
362
100
AcDbEntity
  8
0
100
AcDbLine
 62
7
  6
CONTINUOUS
 10
-17.5569082859
 20
8.0367841997
 11
-17.1129692859
 21
8.1857981997
  0
LINE
  5
363
100
AcDbEntity
  8
ASSI
100
AcDbLine
 62
7
  6
CONTINUOUS
 10
-17.5569082859
 20
8.0367841997
 11
-17.1129692859
 21
8.1857981997
  0
LWPOLYLINE
  5
364
100
AcDbEntity
  8
0
100
AcDbPolyline
 62
7
  6
CONTINUOUS
 90
75
 70
0
 10
-16.9516448065
 20
19.9710045882
 10
-16.9681451908
 20
19.968028066
 10
-16.9841587623
 20
19.964642735
 10
-16.9996922479
 20
19.9608568329
 10
-17.0147389208
 20
19.9566621222
 10
-17.029390069
 20
19.9520856184
 10
-17.0436514093
 20
19.947134436
 10
-17.057517225
 20
19.9418014607
 10
-17.0710616536
 20
19.9360923642
 10
-17.0842902016
 20
19.9300131545
 10
-17.0971973626
 20
19.9235578237
 10
-17.1098407551
 20
19.9167140197
 10
-17.1222235765
 20
19.9094884362
 10
-17.1343426293
 20
19.9018743795
 10
-17.1462459402
 20
19.8938394163
 10
-17.1579263362
 20
19.8853999551
 10
-17.1693909902
 20
19.8765395874
 10
-17.1807094467
 20
19.8671766544
 10
-17.1919706033
 20
19.8572230162
 10
-17.2030855625
 20
19.8467668127
 10
-17.2138571755
 20
19.8359908048
 10
-17.2242943608
 20
19.8248657177
 10
-17.2343881999
 20
19.8134208263
 10
-17.2439147885
 20
19.8019267158
 10
-17.252774545
 20
19.7904842528
 10
-17.2610670509
 20
19.7789925707
 10
-17.2688671467
 20
19.7674196548
 10
-17.2761824062
 20
19.7557686349
 10
-17.2830052555
 20
19.7440363812
 10
-17.2893878132
 20
19.7321814892
 10
-17.2953378576
 20
19.7202051161
 10
-17.3008476103
 20
19.7081061047
 10
-17.3059458552
 20
19.695839578
 10
-17.3106386808
 20
19.6834107243
 10
-17.3149199987
 20
19.6708143553
 10
-17.3188003278
 20
19.6579900303
 10
-17.3222873892
 20
19.6449387971
 10
-17.3253734618
 20
19.6316596077
 10
-17.3280459013
 20
19.6180888777
 10
-17.330311658
 20
19.6041979086
 10
-17.3321637817
 20
19.5900153989
 10
-17.3335687773
 20
19.5755638593
 10
-17.3345211714
 20
19.5606815538
 10
-17.3350264376
 20
19.5455302184
 10
-17.3350675019
 20
19.5306175725
 10
-17.3346344858
 20
19.5161491745
 10
-17.3337372679
 20
19.5019194661
 10
-17.3323884102
 20
19.4878194915
 10
-17.3305937594
 20
19.4738324377
 10
-17.3283474687
 20
19.4599751178
 10
-17.3256445598
 20
19.4461890156
 10
-17.3224923636
 20
19.4324721537
 10
-17.3188835492
 20
19.4188265096
 10
-17.3147911451
 20
19.4051994994
 10
-17.3101611454
 20
19.3914739398
 10
-17.3050475559
 20
19.3777670142
 10
-17.2995854226
 20
19.3643776897
 10
-17.2937818211
 20
19.3513427731
 10
-17.2876296758
 20
19.3386254576
 10
-17.2812428056
 20
19.3264142897
 10
-17.2747149279
 20
19.3148759865
 10
-17.2679523253
 20
19.3038438308
 10
-17.2607876646
 20
19.2930062178
 10
-17.2531844944
 20
19.2822739928
 10
-17.2451792661
 20
19.2717363104
 10
-17.2367140007
 20
19.2613490299
 10
-17.227798707
 20
19.2511086343
 10
-17.2184233762
 20
19.2410186405
 10
-17.2085000032
 20
19.2310454586
 10
-17.1980293092
 20
19.2211789115
 10
-17.1870105731
 20
19.2114291762
 10
-17.175353626
 20
19.2017931933
 10
-17.1630284119
 20
19.192269943
 10
-17.1500649869
 20
19.1828604451
 10
-17.136463351
 20
19.1735646996
  0
LWPOLYLINE
  5
365
100
AcDbEntity
  8
ASSI
100
AcDbPolyline
 62
7
  6
CONTINUOUS
 90
75
 70
0
 10
-16.9516448065
 20
19.9710045882
 10
-16.9681451908
 20
19.968028066
 10
-16.9841587623
 20
19.964642735
 10
-16.9996922479
 20
19.9608568329
 10
-17.0147389208
 20
19.9566621222
 10
-17.029390069
 20
19.9520856184
 10
-17.0436514093
 20
19.947134436
 10
-17.057517225
 20
19.9418014607
 10
-17.0710616536
 20
19.9360923642
 10
-17.0842902016
 20
19.9300131545
 10
-17.0971973626
 20
19.9235578237
 10
-17.1098407551
 20
19.9167140197
 10
-17.1222235765
 20
19.9094884362
 10
-17.1343426293
 20
19.9018743795
 10
-17.1462459402
 20
19.8938394163
 10
-17.1579263362
 20
19.8853999551
 10
-17.1693909902
 20
19.8765395874
 10
-17.1807094467
 20
19.8671766544
 10
-17.1919706033
 20
19.8572230162
 10
-17.2030855625
 20
19.8467668127
 10
-17.2138571755
 20
19.8359908048
 10
-17.2242943608
 20
19.8248657177
 10
-17.2343881999
 20
19.8134208263
 10
-17.2439147885
 20
19.8019267158
 10
-17.252774545
 20
19.7904842528
 10
-17.2610670509
 20
19.7789925707
 10
-17.2688671467
 20
19.7674196548
 10
-17.2761824062
 20
19.7557686349
 10
-17.2830052555
 20
19.7440363812
 10
-17.2893878132
 20
19.7321814892
 10
-17.2953378576
 20
19.7202051161
 10
-17.3008476103
 20
19.7081061047
 10
-17.3059458552
 20
19.695839578
 10
-17.3106386808
 20
19.6834107243
 10
-17.3149199987
 20
19.6708143553
 10
-17.3188003278
 20
19.6579900303
 10
-17.3222873892
 20
19.6449387971
 10
-17.3253734618
 20
19.6316596077
 10
-17.3280459013
 20
19.6180888777
 10
-17.330311658
 20
19.6041979086
 10
-17.3321637817
 20
19.5900153989
 10
-17.3335687773
 20
19.5755638593
 10
-17.3345211714
 20
19.5606815538
 10
-17.3350264376
 20
19.5455302184
 10
-17.3350675019
 20
19.5306175725
 10
-17.3346344858
 20
19.5161491745
 10
-17.3337372679
 20
19.5019194661
 10
-17.3323884102
 20
19.4878194915
 10
-17.3305937594
 20
19.4738324377
 10
-17.3283474687
 20
19.4599751178
 10
-17.3256445598
 20
19.4461890156
 10
-17.3224923636
 20
19.4324721537
 10
-17.3188835492
 20
19.4188265096
 10
-17.3147911451
 20
19.4051994994
 10
-17.3101611454
 20
19.3914739398
 10
-17.3050475559
 20
19.3777670142
 10
-17.2995854226
 20
19.3643776897
 10
-17.2937818211
 20
19.3513427731
 10
-17.2876296758
 20
19.3386254576
 10
-17.2812428056
 20
19.3264142897
 10
-17.2747149279
 20
19.3148759865
 10
-17.2679523253
 20
19.3038438308
 10
-17.2607876646
 20
19.2930062178
 10
-17.2531844944
 20
19.2822739928
 10
-17.2451792661
 20
19.2717363104
 10
-17.2367140007
 20
19.2613490299
 10
-17.227798707
 20
19.2511086343
 10
-17.2184233762
 20
19.2410186405
 10
-17.2085000032
 20
19.2310454586
 10
-17.1980293092
 20
19.2211789115
 10
-17.1870105731
 20
19.2114291762
 10
-17.175353626
 20
19.2017931933
 10
-17.1630284119
 20
19.192269943
 10
-17.1500649869
 20
19.1828604451
 10
-17.136463351
 20
19.1735646996
  0
LWPOLYLINE
  5
366
100
AcDbEntity
  8
0
100
AcDbPolyline
 62
7
  6
CONTINUOUS
 90
103
 70
0
 10
-16.8511049117
 20
19.0051534821
 10
-16.8231658521
 20
19.0093086532
 10
-16.7965995876
 20
19.0138871251
 10
-16.7714041768
 20
19.018888331
 10
-16.7475815612
 20
19.0243128378
 10
-16.7249948926
 20
19.0300523097
 10
-16.703652153
 20
19.0361014393
 10
-16.6835453604
 20
19.0424655341
 10
-16.6645137198
 20
19.0490521814
 10
-16.6465695389
 20
19.0558474221
 10
-16.6297005099
 20
19.0628652153
 10
-16.6137089156
 20
19.0700550261
 10
-16.5985858131
 20
19.0774067947
 10
-16.5843401453
 20
19.0849305808
 10
-16.5708010222
 20
19.0926060287
 10
-16.5579962921
 20
19.1003915395
 10
-16.5458981068
 20
19.1083287121
 10
-16.5342520319
 20
19.1165219873
 10
-16.5231674308
 20
19.1248563603
 10
-16.5125349401
 20
19.1334468358
 10
-16.5017720352
 20
19.1427428686
 10
-16.4905148268
 20
19.1530324098
 10
-16.4791272042
 20
19.1640275082
 10
-16.4681183103
 20
19.1753137642
 10
-16.4576123021
 20
19.1868080687
 10
-16.4474850226
 20
19.1985935307
 10
-16.4378731441
 20
19.2105050776
 10
-16.4288416249
 20
19.2224752493
 10
-16.4203255068
 20
19.2345715058
 10
-16.4122665871
 20
19.2468311546
 10
-16.4046575652
 20
19.2592513518
 10
-16.3975057417
 20
19.2718349413
 10
-16.3907748157
 20
19.2846277624
 10
-16.3844579966
 20
19.2976270592
 10
-16.378562075
 20
19.3108355875
 10
-16.3730711216
 20
19.3243074533
 10
-16.3679788841
 20
19.3380373929
 10
-16.3632916148
 20
19.3520306699
 10
-16.3590121423
 20
19.3663571813
 10
-16.3551329664
 20
19.3810133192
 10
-16.3516615871
 20
19.3960026915
 10
-16.3486233338
 20
19.4114060188
 10
-16.3460102656
 20
19.4272449482
 10
-16.3438303233
 20
19.4434978327
 10
-16.3421326584
 20
19.460180452
 10
-16.3409250098
 20
19.4775629517
 10
-16.3401996386
 20
19.4953751862
 10
-16.3399824786
 20
19.5128224983
 10
-16.3402977044
 20
19.5296600106
 10
-16.3411211415
 20
19.5461326007
 10
-16.3424062003
 20
19.5621802439
 10
-16.3441498769
 20
19.5777530409
 10
-16.3463551752
 20
19.5929008912
 10
-16.3489845183
 20
19.6077134684
 10
-16.3520302234
 20
19.6221968928
 10
-16.3554999733
 20
19.6363450441
 10
-16.3593792387
 20
19.6502292359
 10
-16.3636612259
 20
19.6638536915
 10
-16.3683527286
 20
19.6772141877
 10
-16.3734595989
 20
19.6903693682
 10
-16.3789859461
 20
19.7033395652
 10
-16.3849276609
 20
19.7161044465
 10
-16.3912782679
 20
19.7286616605
 10
-16.3980649109
 20
19.7410559281
 10
-16.4052604462
 20
19.7532425282
 10
-16.4127769667
 20
19.7650849464
 10
-16.4205735431
 20
19.7765171994
 10
-16.4286911049
 20
19.7876052704
 10
-16.4371645326
 20
19.7984105938
 10
-16.4459902899
 20
19.8089411077
 10
-16.4551719132
 20
19.819188874
 10
-16.4647548927
 20
19.8291915135
 10
-16.474732442
 20
19.8389537137
 10
-16.4851113475
 20
19.848470787
 10
-16.4959574584
 20
19.8577662919
 10
-16.5072654919
 20
19.8668460868
 10
-16.5190407308
 20
19.8757043132
 10
-16.5313648731
 20
19.8843469548
 10
-16.5442333531
 20
19.8927798432
 10
-16.5576507365
 20
19.9009971468
 10
-16.5717124179
 20
19.9089873532
 10
-16.5865892413
 20
19.9168271501
 10
-16.6021103627
 20
19.9244398498
 10
-16.6178586447
 20
19.9315838775
 10
-16.6337159549
 20
19.938189199
 10
-16.6498004259
 20
19.9443258485
 10
-16.6660493178
 20
19.9499623524
 10
-16.6824216626
 20
19.9550855011
 10
-16.6989584283
 20
19.9597085043
 10
-16.7157197799
 20
19.9638395177
 10
-16.7327027784
 20
19.9674855816
 10
-16.7499103628
 20
19.9706396557
 10
-16.767411515
 20
19.9732887752
 10
-16.7851985745
 20
19.9754397268
 10
-16.8032792017
 20
19.9770857239
 10
-16.8217453606
 20
19.9781934407
 10
-16.8408601599
 20
19.9787498663
 10
-16.8603604909
 20
19.9787680117
 10
-16.8795489907
 20
19.9782535844
 10
-16.8982886886
 20
19.9771844749
 10
-16.9167165554
 20
19.9755827927
 10
-16.9345461412
 20
19.973520574
 10
-16.9516448065
 20
19.9710045882
  0
LWPOLYLINE
  5
367
100
AcDbEntity
  8
ASSI
100
AcDbPolyline
 62
7
  6
CONTINUOUS
 90
103
 70
0
 10
-16.8511049117
 20
19.0051534821
 10
-16.8231658521
 20
19.0093086532
 10
-16.7965995876
 20
19.0138871251
 10
-16.7714041768
 20
19.018888331
 10
-16.7475815612
 20
19.0243128378
 10
-16.7249948926
 20
19.0300523097
 10
-16.703652153
 20
19.0361014393
 10
-16.6835453604
 20
19.0424655341
 10
-16.6645137198
 20
19.0490521814
 10
-16.6465695389
 20
19.0558474221
 10
-16.6297005099
 20
19.0628652153
 10
-16.6137089156
 20
19.0700550261
 10
-16.5985858131
 20
19.0774067947
 10
-16.5843401453
 20
19.0849305808
 10
-16.5708010222
 20
19.0926060287
 10
-16.5579962921
 20
19.1003915395
 10
-16.5458981068
 20
19.1083287121
 10
-16.5342520319
 20
19.1165219873
 10
-16.5231674308
 20
19.1248563603
 10
-16.5125349401
 20
19.1334468358
 10
-16.5017720352
 20
19.1427428686
 10
-16.4905148268
 20
19.1530324098
 10
-16.4791272042
 20
19.1640275082
 10
-16.4681183103
 20
19.1753137642
 10
-16.4576123021
 20
19.1868080687
 10
-16.4474850226
 20
19.1985935307
 10
-16.4378731441
 20
19.2105050776
 10
-16.4288416249
 20
19.2224752493
 10
-16.4203255068
 20
19.2345715058
 10
-16.4122665871
 20
19.2468311546
 10
-16.4046575652
 20
19.2592513518
 10
-16.3975057417
 20
19.2718349413
 10
-16.3907748157
 20
19.2846277624
 10
-16.3844579966
 20
19.2976270592
 10
-16.378562075
 20
19.3108355875
 10
-16.3730711216
 20
19.3243074533
 10
-16.3679788841
 20
19.3380373929
 10
-16.3632916148
 20
19.3520306699
 10
-16.3590121423
 20
19.3663571813
 10
-16.3551329664
 20
19.3810133192
 10
-16.3516615871
 20
19.3960026915
 10
-16.3486233338
 20
19.4114060188
 10
-16.3460102656
 20
19.4272449482
 10
-16.3438303233
 20
19.4434978327
 10
-16.3421326584
 20
19.460180452
 10
-16.3409250098
 20
19.4775629517
 10
-16.3401996386
 20
19.4953751862
 10
-16.3399824786
 20
19.5128224983
 10
-16.3402977044
 20
19.5296600106
 10
-16.3411211415
 20
19.5461326007
 10
-16.3424062003
 20
19.5621802439
 10
-16.3441498769
 20
19.5777530409
 10
-16.3463551752
 20
19.5929008912
 10
-16.3489845183
 20
19.6077134684
 10
-16.3520302234
 20
19.6221968928
 10
-16.3554999733
 20
19.6363450441
 10
-16.3593792387
 20
19.6502292359
 10
-16.3636612259
 20
19.6638536915
 10
-16.3683527286
 20
19.6772141877
 10
-16.3734595989
 20
19.6903693682
 10
-16.3789859461
 20
19.7033395652
 10
-16.3849276609
 20
19.7161044465
 10
-16.3912782679
 20
19.7286616605
 10
-16.3980649109
 20
19.7410559281
 10
-16.4052604462
 20
19.7532425282
 10
-16.4127769667
 20
19.7650849464
 10
-16.4205735431
 20
19.7765171994
 10
-16.4286911049
 20
19.7876052704
 10
-16.4371645326
 20
19.7984105938
 10
-16.4459902899
 20
19.8089411077
 10
-16.4551719132
 20
19.819188874
 10
-16.4647548927
 20
19.8291915135
 10
-16.474732442
 20
19.8389537137
 10
-16.4851113475
 20
19.848470787
 10
-16.4959574584
 20
19.8577662919
 10
-16.5072654919
 20
19.8668460868
 10
-16.5190407308
 20
19.8757043132
 10
-16.5313648731
 20
19.8843469548
 10
-16.5442333531
 20
19.8927798432
 10
-16.5576507365
 20
19.9009971468
 10
-16.5717124179
 20
19.9089873532
 10
-16.5865892413
 20
19.9168271501
 10
-16.6021103627
 20
19.9244398498
 10
-16.6178586447
 20
19.9315838775
 10
-16.6337159549
 20
19.938189199
 10
-16.6498004259
 20
19.9443258485
 10
-16.6660493178
 20
19.9499623524
 10
-16.6824216626
 20
19.9550855011
 10
-16.6989584283
 20
19.9597085043
 10
-16.7157197799
 20
19.9638395177
 10
-16.7327027784
 20
19.9674855816
 10
-16.7499103628
 20
19.9706396557
 10
-16.767411515
 20
19.9732887752
 10
-16.7851985745
 20
19.9754397268
 10
-16.8032792017
 20
19.9770857239
 10
-16.8217453606
 20
19.9781934407
 10
-16.8408601599
 20
19.9787498663
 10
-16.8603604909
 20
19.9787680117
 10
-16.8795489907
 20
19.9782535844
 10
-16.8982886886
 20
19.9771844749
 10
-16.9167165554
 20
19.9755827927
 10
-16.9345461412
 20
19.973520574
 10
-16.9516448065
 20
19.9710045882
  0
LWPOLYLINE
  5
368
100
AcDbEntity
  8
0
100
AcDbPolyline
 62
7
  6
CONTINUOUS
 90
107
 70
0
 10
-17.4936652838
 20
19.9538151738
 10
-17.5114491555
 20
19.9512001958
 10
-17.5285730918
 20
19.9482074644
 10
-17.5450370927
 20
19.9448369796
 10
-17.5608178591
 20
19.9410673934
 10
-17.5759386901
 20
19.9369200538
 10
-17.5904694827
 20
19.9324590046
 10
-17.6043845432
 20
19.9277028497
 10
-17.6177095652
 20
19.9226329852
 10
-17.630591527
 20
19.9172576433
 10
-17.6430579568
 20
19.9115754275
 10
-17.6550813263
 20
19.9055877344
 10
-17.6667260293
 20
19.8993069856
 10
-17.6779912505
 20
19.8927426925
 10
-17.6888778052
 20
19.8858853438
 10
-17.6994525338
 20
19.8787188271
 10
-17.7097229143
 20
19.8712472789
 10
-17.7196814686
 20
19.8634665628
 10
-17.7293726029
 20
19.8553481567
 10
-17.7388149847
 20
19.8468802388
 10
-17.7479899464
 20
19.838074631
 10
-17.756885891
 20
19.8289382766
 10
-17.7655310151
 20
19.8194363137
 10
-17.773897122
 20
19.8096036042
 10
-17.7818880253
 20
19.7995516783
 10
-17.7894655142
 20
19.7893256159
 10
-17.7966677994
 20
19.7788803369
 10
-17.8035133259
 20
19.7681921314
 10
-17.8100025776
 20
19.7572715178
 10
-17.8161350705
 20
19.7461079777
 10
-17.8219277983
 20
19.7346462447
 10
-17.8273871854
 20
19.7228908419
 10
-17.8325068074
 20
19.7108372463
 10
-17.837284385
 20
19.6984166224
 10
-17.8417266293
 20
19.6856351672
 10
-17.8458268291
 20
19.6724866838
 10
-17.8495625718
 20
19.6588837459
 10
-17.8529419209
 20
19.6448332754
 10
-17.8559568127
 20
19.6303283504
 10
-17.8585606433
 20
19.6152607787
 10
-17.8607628659
 20
19.5996312276
 10
-17.8625540273
 20
19.5834390297
 10
-17.8638591642
 20
19.566573992
 10
-17.8646661066
 20
19.5487149976
 10
-17.8649870245
 20
19.5301831633
 10
-17.8647834643
 20
19.5118316455
 10
-17.8640215869
 20
19.4938207673
 10
-17.8627352314
 20
19.4759902056
 10
-17.8609874619
 20
19.4587121477
 10
-17.8587828937
 20
19.4421459068
 10
-17.8561169115
 20
19.4261321698
 10
-17.8530387326
 20
19.4105651845
 10
-17.8495563667
 20
19.3954379811
 10
-17.8456618041
 20
19.3807575294
 10
-17.8413802325
 20
19.3664389867
 10
-17.8367188302
 20
19.3524776373
 10
-17.831670419
 20
19.338878197
 10
-17.826238652
 20
19.3255699708
 10
-17.8204299449
 20
19.3125481922
 10
-17.814237882
 20
19.2998176277
 10
-17.8076468695
 20
19.2873218812
 10
-17.8006630918
 20
19.2750568429
 10
-17.7932803644
 20
19.2630266226
 10
-17.7854645403
 20
19.2511871542
 10
-17.7772043123
 20
19.2395174668
 10
-17.7685109875
 20
19.2280385313
 10
-17.7593843403
 20
19.2167691945
 10
-17.7496655018
 20
19.2055796857
 10
-17.7395133408
 20
19.1945997756
 10
-17.7294042393
 20
19.1842376225
 10
-17.7195285133
 20
19.1747009652
 10
-17.7096958467
 20
19.165782065
 10
-17.6998116731
 20
19.1572658639
 10
-17.6900571545
 20
19.1492290558
 10
-17.680251129
 20
19.1415949468
 10
-17.6697555442
 20
19.1339183968
 10
-17.6584097248
 20
19.1260371358
 10
-17.6463743461
 20
19.118113434
 10
-17.6334933828
 20
19.1101889611
 10
-17.6197628059
 20
19.1022513405
 10
-17.6051866444
 20
19.094312949
 10
-17.5896209598
 20
19.0864525865
 10
-17.5730686375
 20
19.0786650016
 10
-17.5555267921
 20
19.0709554457
 10
-17.5368428284
 20
19.0634184731
 10
-17.5170178321
 20
19.0560494211
 10
-17.4960507174
 20
19.0488529523
 10
-17.4737856324
 20
19.0419376093
 10
-17.4502241081
 20
19.0353002756
 10
-17.4253646134
 20
19.0289440677
 10
-17.3990467032
 20
19.0229868768
 10
-17.3712722792
 20
19.017426523
 10
-17.3420394397
 20
19.0122651863
 10
-17.3111820335
 20
19.0076272981
 10
-17.2786770896
 20
19.0035108873
 10
-17.244547579
 20
18.9999179249
 10
-17.2086962639
 20
18.9969787551
 10
-17.1703158244
 20
18.9947130434
 10
-17.1302135803
 20
18.9931011244
 10
-17.0907142536
 20
18.9922143464
 10
-17.0522397724
 20
18.9921036288
 10
-17.0143682085
 20
18.9927180524
 10
-16.9781584995
 20
18.993976207
 10
-16.9440124202
 20
18.9958877543
 10
-16.9115281957
 20
18.9984430326
 10
-16.880559439
 20
19.0015316483
 10
-16.8511049117
 20
19.0051534821
  0
LWPOLYLINE
  5
369
100
AcDbEntity
  8
ASSI
100
AcDbPolyline
 62
7
  6
CONTINUOUS
 90
107
 70
0
 10
-17.4936652838
 20
19.9538151738
 10
-17.5114491555
 20
19.9512001958
 10
-17.5285730918
 20
19.9482074644
 10
-17.5450370927
 20
19.9448369796
 10
-17.5608178591
 20
19.9410673934
 10
-17.5759386901
 20
19.9369200538
 10
-17.5904694827
 20
19.9324590046
 10
-17.6043845432
 20
19.9277028497
 10
-17.6177095652
 20
19.9226329852
 10
-17.630591527
 20
19.9172576433
 10
-17.6430579568
 20
19.9115754275
 10
-17.6550813263
 20
19.9055877344
 10
-17.6667260293
 20
19.8993069856
 10
-17.6779912505
 20
19.8927426925
 10
-17.6888778052
 20
19.8858853438
 10
-17.6994525338
 20
19.8787188271
 10
-17.7097229143
 20
19.8712472789
 10
-17.7196814686
 20
19.8634665628
 10
-17.7293726029
 20
19.8553481567
 10
-17.7388149847
 20
19.8468802388
 10
-17.7479899464
 20
19.838074631
 10
-17.756885891
 20
19.8289382766
 10
-17.7655310151
 20
19.8194363137
 10
-17.773897122
 20
19.8096036042
 10
-17.7818880253
 20
19.7995516783
 10
-17.7894655142
 20
19.7893256159
 10
-17.7966677994
 20
19.7788803369
 10
-17.8035133259
 20
19.7681921314
 10
-17.8100025776
 20
19.7572715178
 10
-17.8161350705
 20
19.7461079777
 10
-17.8219277983
 20
19.7346462447
 10
-17.8273871854
 20
19.7228908419
 10
-17.8325068074
 20
19.7108372463
 10
-17.837284385
 20
19.6984166224
 10
-17.8417266293
 20
19.6856351672
 10
-17.8458268291
 20
19.6724866838
 10
-17.8495625718
 20
19.6588837459
 10
-17.8529419209
 20
19.6448332754
 10
-17.8559568127
 20
19.6303283504
 10
-17.8585606433
 20
19.6152607787
 10
-17.8607628659
 20
19.5996312276
 10
-17.8625540273
 20
19.5834390297
 10
-17.8638591642
 20
19.566573992
 10
-17.8646661066
 20
19.5487149976
 10
-17.8649870245
 20
19.5301831633
 10
-17.8647834643
 20
19.5118316455
 10
-17.8640215869
 20
19.4938207673
 10
-17.8627352314
 20
19.4759902056
 10
-17.8609874619
 20
19.4587121477
 10
-17.8587828937
 20
19.4421459068
 10
-17.8561169115
 20
19.4261321698
 10
-17.8530387326
 20
19.4105651845
 10
-17.8495563667
 20
19.3954379811
 10
-17.8456618041
 20
19.3807575294
 10
-17.8413802325
 20
19.3664389867
 10
-17.8367188302
 20
19.3524776373
 10
-17.831670419
 20
19.338878197
 10
-17.826238652
 20
19.3255699708
 10
-17.8204299449
 20
19.3125481922
 10
-17.814237882
 20
19.2998176277
 10
-17.8076468695
 20
19.2873218812
 10
-17.8006630918
 20
19.2750568429
 10
-17.7932803644
 20
19.2630266226
 10
-17.7854645403
 20
19.2511871542
 10
-17.7772043123
 20
19.2395174668
 10
-17.7685109875
 20
19.2280385313
 10
-17.7593843403
 20
19.2167691945
 10
-17.7496655018
 20
19.2055796857
 10
-17.7395133408
 20
19.1945997756
 10
-17.7294042393
 20
19.1842376225
 10
-17.7195285133
 20
19.1747009652
 10
-17.7096958467
 20
19.165782065
 10
-17.6998116731
 20
19.1572658639
 10
-17.6900571545
 20
19.1492290558
 10
-17.680251129
 20
19.1415949468
 10
-17.6697555442
 20
19.1339183968
 10
-17.6584097248
 20
19.1260371358
 10
-17.6463743461
 20
19.118113434
 10
-17.6334933828
 20
19.1101889611
 10
-17.6197628059
 20
19.1022513405
 10
-17.6051866444
 20
19.094312949
 10
-17.5896209598
 20
19.0864525865
 10
-17.5730686375
 20
19.0786650016
 10
-17.5555267921
 20
19.0709554457
 10
-17.5368428284
 20
19.0634184731
 10
-17.5170178321
 20
19.0560494211
 10
-17.4960507174
 20
19.0488529523
 10
-17.4737856324
 20
19.0419376093
 10
-17.4502241081
 20
19.0353002756
 10
-17.4253646134
 20
19.0289440677
 10
-17.3990467032
 20
19.0229868768
 10
-17.3712722792
 20
19.017426523
 10
-17.3420394397
 20
19.0122651863
 10
-17.3111820335
 20
19.0076272981
 10
-17.2786770896
 20
19.0035108873
 10
-17.244547579
 20
18.9999179249
 10
-17.2086962639
 20
18.9969787551
 10
-17.1703158244
 20
18.9947130434
 10
-17.1302135803
 20
18.9931011244
 10
-17.0907142536
 20
18.9922143464
 10
-17.0522397724
 20
18.9921036288
 10
-17.0143682085
 20
18.9927180524
 10
-16.9781584995
 20
18.993976207
 10
-16.9440124202
 20
18.9958877543
 10
-16.9115281957
 20
18.9984430326
 10
-16.880559439
 20
19.0015316483
 10
-16.8511049117
 20
19.0051534821
  0
LWPOLYLINE
  5
36A
100
AcDbEntity
  8
0
100
AcDbPolyline
 62
7
  6
CONTINUOUS
 90
3
 70
0
 10
-16.8339277808
 20
19.2030317494
 10
-16.8380407588
 20
19.2029102019
 10
-16.8400080343
 20
19.2028649553
  0
LWPOLYLINE
  5
36B
100
AcDbEntity
  8
ASSI
100
AcDbPolyline
 62
7
  6
CONTINUOUS
 90
3
 70
0
 10
-16.8339277808
 20
19.2030317494
 10
-16.8380407588
 20
19.2029102019
 10
-16.8400080343
 20
19.2028649553
  0
LWPOLYLINE
  5
36C
100
AcDbEntity
  8
0
100
AcDbPolyline
 62
7
  6
CONTINUOUS
 90
4
 70
0
 10
-16.8400080343
 20
19.2028649553
 10
-16.843783231
 20
19.2028036973
 10
-16.8456066926
 20
19.2027848056
 10
-16.8473848061
 20
19.2027742188
  0
LWPOLYLINE
  5
36D
100
AcDbEntity
  8
ASSI
100
AcDbPolyline
 62
7
  6
CONTINUOUS
 90
4
 70
0
 10
-16.8400080343
 20
19.2028649553
 10
-16.843783231
 20
19.2028036973
 10
-16.8456066926
 20
19.2027848056
 10
-16.8473848061
 20
19.2027742188
  0
LINE
  5
36E
100
AcDbEntity
  8
0
100
AcDbLine
 62
7
  6
CONTINUOUS
 10
-17.5338245767
 20
18.3453301997
 11
-16.3650142859
 21
18.3453301997
  0
LINE
  5
36F
100
AcDbEntity
  8
ASSI
100
AcDbLine
 62
7
  6
CONTINUOUS
 10
-17.5338245767
 20
18.3453301997
 11
-16.3650142859
 21
18.3453301997
  0
LINE
  5
370
100
AcDbEntity
  8
0
100
AcDbLine
 62
7
  6
CONTINUOUS
 10
-16.3650142859
 20
18.5289191997
 11
-17.8650142859
 21
18.5289191997
  0
LINE
  5
371
100
AcDbEntity
  8
ASSI
100
AcDbLine
 62
7
  6
CONTINUOUS
 10
-16.3650142859
 20
18.5289191997
 11
-17.8650142859
 21
18.5289191997
  0
LINE
  5
372
100
AcDbEntity
  8
RACCORDO
100
AcDbLine
 62
253
  6
CONTINUOUS
 10
-5.0400612859
 20
18.5781541997
 11
-13.0400612859
 21
18.5781541997
  0
LINE
  5
373
100
AcDbEntity
  8
ASSI
100
AcDbLine
 62
253
  6
CONTINUOUS
 10
-5.0400612859
 20
18.5781541997
 11
-13.0400612859
 21
18.5781541997
  0
LINE
  5
374
100
AcDbEntity
  8
ASSI
100
AcDbLine
 62
7
  6
CONTINUOUS
 10
-21.0901392859
 20
18.5877541997
 11
-19.4400612859
 21
18.5877501997
  0
LINE
  5
375
100
AcDbEntity
  8
RACCORDO
100
AcDbLine
 62
7
  6
CONTINUOUS
 10
-5.3400612859
 20
18.8781541997
 11
-12.7400612859
 21
18.8781541997
  0
LINE
  5
376
100
AcDbEntity
  8
ASSI
100
AcDbLine
 62
7
  6
CONTINUOUS
 10
-5.3400612859
 20
18.8781541997
 11
-12.7400612859
 21
18.8781541997
  0
LINE
  5
377
100
AcDbEntity
  8
ASSI
100
AcDbLine
 62
7
  6
CONTINUOUS
 10
-19.4400652859
 20
18.9177621997
 11
-21.0901392859
 21
18.9177661997
  0
LINE
  5
378
100
AcDbEntity
  8
ASSI
100
AcDbLine
 62
7
  6
CONTINUOUS
 10
-21.0901392859
 20
19.2477661997
 11
-19.4400652859
 21
19.2477661997
  0
LINE
  5
379
100
AcDbEntity
  8
ASSI
100
AcDbLine
 62
7
  6
CONTINUOUS
 10
-19.4400652859
 20
19.5777791997
 11
-20.5281782859
 21
19.5777791997
  0
LWPOLYLINE
  5
37A
100
AcDbEntity
  8
0
100
AcDbPolyline
 62
7
  6
CONTINUOUS
 90
114
 70
0
 10
-16.8473848061
 20
19.2027742188
 10
-16.8517821043
 20
19.2027769153
 10
-16.8545208386
 20
19.2028004912
 10
-16.8573337745
 20
19.2028426647
 10
-16.8602203532
 20
19.2029016775
 10
-16.8631811335
 20
19.202979288
 10
-16.8662177926
 20
19.2030807705
 10
-16.8693272035
 20
19.2032056746
 10
-16.8725124932
 20
19.2033544507
 10
-16.8757847186
 20
19.2035337253
 10
-16.879145931
 20
19.2037429506
 10
-16.8825940792
 20
19.2039826743
 10
-16.8861340668
 20
19.2042611656
 10
-16.889764666
 20
19.2045776705
 10
-16.8934871047
 20
19.2049329431
 10
-16.8973099703
 20
19.2053375152
 10
-16.9012332865
 20
19.2057904168
 10
-16.9052570296
 20
19.2062926181
 10
-16.9093897165
 20
19.2068575616
 10
-16.9136309914
 20
19.2074839663
 10
-16.9179812099
 20
19.2081731133
 10
-16.9224499559
 20
19.2089422884
 10
-16.9270369184
 20
19.2097897634
 10
-16.9317424084
 20
19.2107172665
 10
-16.936576942
 20
19.2117472677
 10
-16.9415402323
 20
19.2128774164
 10
-16.9466325664
 20
19.2141100632
 10
-16.951865321
 20
19.2154747303
 10
-16.9572382146
 20
19.2169681631
 10
-16.9627515287
 20
19.2185936162
 10
-16.9684174859
 20
19.2203903753
 10
-16.9742358964
 20
19.2223538452
 10
-16.98020695
 20
19.2244886211
 10
-16.986343438
 20
19.2268477752
 10
-16.9926454448
 20
19.2294247275
 10
-16.999112886
 20
19.2322260579
 10
-17.0057583001
 20
19.2353245777
 10
-17.0125825246
 20
19.2387108493
 10
-17.0195847219
 20
19.2423943102
 10
-17.0267749171
 20
19.246476085
 10
-17.034169876
 20
19.2509555295
 10
-17.0417528327
 20
19.2558332879
 10
-17.0494835147
 20
19.2612124167
 10
-17.0574100251
 20
19.2671380828
 10
-17.0654842608
 20
19.2735651195
 10
-17.0735216395
 20
19.280461083
 10
-17.0815589473
 20
19.2879056823
 10
-17.0895593982
 20
19.2958192086
 10
-17.0972280521
 20
19.3039300916
 10
-17.1044979648
 20
19.312193397
 10
-17.1114360804
 20
19.3206540592
 10
-17.1179482922
 20
19.3291753111
 10
-17.1239847515
 20
19.3377002387
 10
-17.1295953068
 20
19.3462857559
 10
-17.1348353976
 20
19.3549658385
 10
-17.1397126357
 20
19.3637382645
 10
-17.1442194093
 20
19.3726052558
 10
-17.1483883222
 20
19.3816074536
 10
-17.1522261895
 20
19.3907421076
 10
-17.1557261961
 20
19.400011968
 10
-17.1589005013
 20
19.4094659273
 10
-17.1617559046
 20
19.4191006406
 10
-17.1642856064
 20
19.4289194527
 10
-17.1664813678
 20
19.4389812902
 10
-17.168350581
 20
19.4492786976
 10
-17.1698858537
 20
19.4598191303
 10
-17.1710567705
 20
19.4706838806
 10
-17.1718619606
 20
19.4820219556
 10
-17.1723027947
 20
19.4936843483
 10
-17.1723529693
 20
19.5053053299
 10
-17.1719897319
 20
19.5168687689
 10
-17.1712358351
 20
19.5283907969
 10
-17.1701332333
 20
19.53955408
 10
-17.1686849016
 20
19.5502258
 10
-17.1668878649
 20
19.5605387752
 10
-17.164775153
 20
19.5705741268
 10
-17.1623542133
 20
19.5803379526
 10
-17.1596175983
 20
19.5898241548
 10
-17.1565759947
 20
19.5990955612
 10
-17.1532360767
 20
19.6081562571
 10
-17.14959117
 20
19.6170021573
 10
-17.1456319388
 20
19.6256838341
 10
-17.1413649413
 20
19.634204623
 10
-17.1367836193
 20
19.6425611885
 10
-17.1318589616
 20
19.6507940963
 10
-17.1265982029
 20
19.6589060816
 10
-17.1209941085
 20
19.6668944092
 10
-17.1149959631
 20
19.6747914386
 10
-17.1085552889
 20
19.6826498731
 10
-17.1017205636
 20
19.6904170094
 10
-17.0945865055
 20
19.6979670976
 10
-17.0871344404
 20
19.7053067907
 10
-17.0793830426
 20
19.7124294356
 10
-17.0714830528
 20
19.7191893226
 10
-17.0635263579
 20
19.7255048346
 10
-17.0554210711
 20
19.7314575886
 10
-17.0470422731
 20
19.7371467264
 10
-17.0383673139
 20
19.7426034941
 10
-17.0294188434
 20
19.7477966456
 10
-17.0201398923
 20
19.7527315839
 10
-17.0105374148
 20
19.7574135317
 10
-17.0006044566
 20
19.7618372663
 10
-16.9902631854
 20
19.7659925232
 10
-16.9795213908
 20
19.7698861072
 10
-16.9683712831
 20
19.7735112135
 10
-16.9567116614
 20
19.7768371634
 10
-16.9445524463
 20
19.7798725033
 10
-16.9318837173
 20
19.7826086867
 10
-16.9185745112
 20
19.7849893956
 10
-16.9046314822
 20
19.7870254106
 10
-16.8900479762
 20
19.7887059509
 10
-16.8746730679
 20
19.7899423558
 10
-16.8581265972
 20
19.7907203316
 10
-16.8407887242
 20
19.791054172
  0
LWPOLYLINE
  5
37B
100
AcDbEntity
  8
ASSI
100
AcDbPolyline
 62
7
  6
CONTINUOUS
 90
114
 70
0
 10
-16.8473848061
 20
19.2027742188
 10
-16.8517821043
 20
19.2027769153
 10
-16.8545208386
 20
19.2028004912
 10
-16.8573337745
 20
19.2028426647
 10
-16.8602203532
 20
19.2029016775
 10
-16.8631811335
 20
19.202979288
 10
-16.8662177926
 20
19.2030807705
 10
-16.8693272035
 20
19.2032056746
 10
-16.8725124932
 20
19.2033544507
 10
-16.8757847186
 20
19.2035337253
 10
-16.879145931
 20
19.2037429506
 10
-16.8825940792
 20
19.2039826743
 10
-16.8861340668
 20
19.2042611656
 10
-16.889764666
 20
19.2045776705
 10
-16.8934871047
 20
19.2049329431
 10
-16.8973099703
 20
19.2053375152
 10
-16.9012332865
 20
19.2057904168
 10
-16.9052570296
 20
19.2062926181
 10
-16.9093897165
 20
19.2068575616
 10
-16.9136309914
 20
19.2074839663
 10
-16.9179812099
 20
19.2081731133
 10
-16.9224499559
 20
19.2089422884
 10
-16.9270369184
 20
19.2097897634
 10
-16.9317424084
 20
19.2107172665
 10
-16.936576942
 20
19.2117472677
 10
-16.9415402323
 20
19.2128774164
 10
-16.9466325664
 20
19.2141100632
 10
-16.951865321
 20
19.2154747303
 10
-16.9572382146
 20
19.2169681631
 10
-16.9627515287
 20
19.2185936162
 10
-16.9684174859
 20
19.2203903753
 10
-16.9742358964
 20
19.2223538452
 10
-16.98020695
 20
19.2244886211
 10
-16.986343438
 20
19.2268477752
 10
-16.9926454448
 20
19.2294247275
 10
-16.999112886
 20
19.2322260579
 10
-17.0057583001
 20
19.2353245777
 10
-17.0125825246
 20
19.2387108493
 10
-17.0195847219
 20
19.2423943102
 10
-17.0267749171
 20
19.246476085
 10
-17.034169876
 20
19.2509555295
 10
-17.0417528327
 20
19.2558332879
 10
-17.0494835147
 20
19.2612124167
 10
-17.0574100251
 20
19.2671380828
 10
-17.0654842608
 20
19.2735651195
 10
-17.0735216395
 20
19.280461083
 10
-17.0815589473
 20
19.2879056823
 10
-17.0895593982
 20
19.2958192086
 10
-17.0972280521
 20
19.3039300916
 10
-17.1044979648
 20
19.312193397
 10
-17.1114360804
 20
19.3206540592
 10
-17.1179482922
 20
19.3291753111
 10
-17.1239847515
 20
19.3377002387
 10
-17.1295953068
 20
19.3462857559
 10
-17.1348353976
 20
19.3549658385
 10
-17.1397126357
 20
19.3637382645
 10
-17.1442194093
 20
19.3726052558
 10
-17.1483883222
 20
19.3816074536
 10
-17.1522261895
 20
19.3907421076
 10
-17.1557261961
 20
19.400011968
 10
-17.1589005013
 20
19.4094659273
 10
-17.1617559046
 20
19.4191006406
 10
-17.1642856064
 20
19.4289194527
 10
-17.1664813678
 20
19.4389812902
 10
-17.168350581
 20
19.4492786976
 10
-17.1698858537
 20
19.4598191303
 10
-17.1710567705
 20
19.4706838806
 10
-17.1718619606
 20
19.4820219556
 10
-17.1723027947
 20
19.4936843483
 10
-17.1723529693
 20
19.5053053299
 10
-17.1719897319
 20
19.5168687689
 10
-17.1712358351
 20
19.5283907969
 10
-17.1701332333
 20
19.53955408
 10
-17.1686849016
 20
19.5502258
 10
-17.1668878649
 20
19.5605387752
 10
-17.164775153
 20
19.5705741268
 10
-17.1623542133
 20
19.5803379526
 10
-17.1596175983
 20
19.5898241548
 10
-17.1565759947
 20
19.5990955612
 10
-17.1532360767
 20
19.6081562571
 10
-17.14959117
 20
19.6170021573
 10
-17.1456319388
 20
19.6256838341
 10
-17.1413649413
 20
19.634204623
 10
-17.1367836193
 20
19.6425611885
 10
-17.1318589616
 20
19.6507940963
 10
-17.1265982029
 20
19.6589060816
 10
-17.1209941085
 20
19.6668944092
 10
-17.1149959631
 20
19.6747914386
 10
-17.1085552889
 20
19.6826498731
 10
-17.1017205636
 20
19.6904170094
 10
-17.0945865055
 20
19.6979670976
 10
-17.0871344404
 20
19.7053067907
 10
-17.0793830426
 20
19.7124294356
 10
-17.0714830528
 20
19.7191893226
 10
-17.0635263579
 20
19.7255048346
 10
-17.0554210711
 20
19.7314575886
 10
-17.0470422731
 20
19.7371467264
 10
-17.0383673139
 20
19.7426034941
 10
-17.0294188434
 20
19.7477966456
 10
-17.0201398923
 20
19.7527315839
 10
-17.0105374148
 20
19.7574135317
 10
-17.0006044566
 20
19.7618372663
 10
-16.9902631854
 20
19.7659925232
 10
-16.9795213908
 20
19.7698861072
 10
-16.9683712831
 20
19.7735112135
 10
-16.9567116614
 20
19.7768371634
 10
-16.9445524463
 20
19.7798725033
 10
-16.9318837173
 20
19.7826086867
 10
-16.9185745112
 20
19.7849893956
 10
-16.9046314822
 20
19.7870254106
 10
-16.8900479762
 20
19.7887059509
 10
-16.8746730679
 20
19.7899423558
 10
-16.8581265972
 20
19.7907203316
 10
-16.8407887242
 20
19.791054172
  0
LWPOLYLINE
  5
37C
100
AcDbEntity
  8
0
100
AcDbPolyline
 62
7
  6
CONTINUOUS
 90
88
 70
0
 10
-17.136463351
 20
19.1735646996
 10
-17.1759397555
 20
19.1744606544
 10
-17.2127545925
 20
19.1759237717
 10
-17.2469078619
 20
19.1779540516
 10
-17.2782769328
 20
19.180629951
 10
-17.3069844361
 20
19.1838730129
 10
-17.3333982649
 20
19.1874478665
 10
-17.357442264
 20
19.1913259007
 10
-17.3791925887
 20
19.1955357266
 10
-17.3992455969
 20
19.1999278061
 10
-17.4176374487
 20
19.2044767024
 10
-17.4343319841
 20
19.2092078522
 10
-17.4498170817
 20
19.2140480284
 10
-17.4638652809
 20
19.2188737526
 10
-17.4767040422
 20
19.2238085031
 10
-17.489503626
 20
19.2291494869
 10
-17.5026732782
 20
19.2349908596
 10
-17.5158037529
 20
19.2412384655
 10
-17.5288375727
 20
19.2479070453
 10
-17.541929606
 20
19.2550980778
 10
-17.5549249844
 20
19.2627100842
 10
-17.5673016254
 20
19.270453368
 10
-17.5788560903
 20
19.2782354011
 10
-17.5897918178
 20
19.2861487117
 10
-17.6001970414
 20
19.2941811881
 10
-17.6100727598
 20
19.3023244868
 10
-17.6194179743
 20
19.3105869513
 10
-17.6283179223
 20
19.3189815006
 10
-17.6368298311
 20
19.3275699926
 10
-17.6448964734
 20
19.3362905693
 10
-17.652431404
 20
19.344970576
 10
-17.6594176511
 20
19.3535950202
 10
-17.6658721867
 20
19.3621788945
 10
-17.6717594814
 20
19.3705945213
 10
-17.6769879731
 20
19.3787096483
 10
-17.6816492239
 20
19.3866565279
 10
-17.6859823917
 20
19.3947042393
 10
-17.6900597681
 20
19.4029289219
 10
-17.6938090614
 20
19.4112544363
 10
-17.6972525539
 20
19.4197214443
 10
-17.7003964899
 20
19.4283271172
 10
-17.7032346251
 20
19.4370742838
 10
-17.7057705093
 20
19.446012092
 10
-17.7080132839
 20
19.4551931485
 10
-17.7099538076
 20
19.4645648467
 10
-17.7115682066
 20
19.4740185145
 10
-17.7128431548
 20
19.4835443356
 10
-17.7137919783
 20
19.4931521265
 10
-17.7144307809
 20
19.5027626646
 10
-17.7147706598
 20
19.5123341645
 10
-17.7148005178
 20
19.5219084117
 10
-17.714503167
 20
19.5315315405
 10
-17.7138663556
 20
19.5413214262
 10
-17.7129023354
 20
19.5511601934
 10
-17.7116306741
 20
19.56074035
 10
-17.7100519956
 20
19.5699392858
 10
-17.708165676
 20
19.578879611
 10
-17.7059894114
 20
19.5876216639
 10
-17.7035296978
 20
19.5961690708
 10
-17.7007800393
 20
19.6045182055
 10
-17.6977386445
 20
19.6127185278
 10
-17.694411706
 20
19.6207730075
 10
-17.6907930313
 20
19.6286786749
 10
-17.6868622509
 20
19.6364760808
 10
-17.6826258286
 20
19.6441677464
 10
-17.6780773006
 20
19.6517511505
 10
-17.6731769058
 20
19.6592592802
 10
-17.6679256439
 20
19.6667008085
 10
-17.6623225151
 20
19.6740670624
 10
-17.656324759
 20
19.6813650102
 10
-17.6496440261
 20
19.6888738064
 10
-17.642568666
 20
19.6963142964
 10
-17.6359209669
 20
19.7028559848
 10
-17.6303091017
 20
19.7079089732
 10
-17.6251248976
 20
19.7120631599
 10
-17.6193661248
 20
19.716257745
 10
-17.6127650002
 20
19.7208076235
 10
-17.6055893068
 20
19.7253979004
 10
-17.5976401638
 20
19.7300230902
 10
-17.5889513759
 20
19.734686446
 10
-17.5794891384
 20
19.7393847148
 10
-17.5689531569
 20
19.7441026519
 10
-17.5573739547
 20
19.7488529413
 10
-17.5447210085
 20
19.7536228991
 10
-17.5306024545
 20
19.7583592289
 10
-17.5148876715
 20
19.7630441654
 10
-17.4977072808
 20
19.7676954739
 10
-17.4790612823
 20
19.7723131546
  0
LWPOLYLINE
  5
37D
100
AcDbEntity
  8
ASSI
100
AcDbPolyline
 62
7
  6
CONTINUOUS
 90
88
 70
0
 10
-17.136463351
 20
19.1735646996
 10
-17.1759397555
 20
19.1744606544
 10
-17.2127545925
 20
19.1759237717
 10
-17.2469078619
 20
19.1779540516
 10
-17.2782769328
 20
19.180629951
 10
-17.3069844361
 20
19.1838730129
 10
-17.3333982649
 20
19.1874478665
 10
-17.357442264
 20
19.1913259007
 10
-17.3791925887
 20
19.1955357266
 10
-17.3992455969
 20
19.1999278061
 10
-17.4176374487
 20
19.2044767024
 10
-17.4343319841
 20
19.2092078522
 10
-17.4498170817
 20
19.2140480284
 10
-17.4638652809
 20
19.2188737526
 10
-17.4767040422
 20
19.2238085031
 10
-17.489503626
 20
19.2291494869
 10
-17.5026732782
 20
19.2349908596
 10
-17.5158037529
 20
19.2412384655
 10
-17.5288375727
 20
19.2479070453
 10
-17.541929606
 20
19.2550980778
 10
-17.5549249844
 20
19.2627100842
 10
-17.5673016254
 20
19.270453368
 10
-17.5788560903
 20
19.2782354011
 10
-17.5897918178
 20
19.2861487117
 10
-17.6001970414
 20
19.2941811881
 10
-17.6100727598
 20
19.3023244868
 10
-17.6194179743
 20
19.3105869513
 10
-17.6283179223
 20
19.3189815006
 10
-17.6368298311
 20
19.3275699926
 10
-17.6448964734
 20
19.3362905693
 10
-17.652431404
 20
19.344970576
 10
-17.6594176511
 20
19.3535950202
 10
-17.6658721867
 20
19.3621788945
 10
-17.6717594814
 20
19.3705945213
 10
-17.6769879731
 20
19.3787096483
 10
-17.6816492239
 20
19.3866565279
 10
-17.6859823917
 20
19.3947042393
 10
-17.6900597681
 20
19.4029289219
 10
-17.6938090614
 20
19.4112544363
 10
-17.6972525539
 20
19.4197214443
 10
-17.7003964899
 20
19.4283271172
 10
-17.7032346251
 20
19.4370742838
 10
-17.7057705093
 20
19.446012092
 10
-17.7080132839
 20
19.4551931485
 10
-17.7099538076
 20
19.4645648467
 10
-17.7115682066
 20
19.4740185145
 10
-17.7128431548
 20
19.4835443356
 10
-17.7137919783
 20
19.4931521265
 10
-17.7144307809
 20
19.5027626646
 10
-17.7147706598
 20
19.5123341645
 10
-17.7148005178
 20
19.5219084117
 10
-17.714503167
 20
19.5315315405
 10
-17.7138663556
 20
19.5413214262
 10
-17.7129023354
 20
19.5511601934
 10
-17.7116306741
 20
19.56074035
 10
-17.7100519956
 20
19.5699392858
 10
-17.708165676
 20
19.578879611
 10
-17.7059894114
 20
19.5876216639
 10
-17.7035296978
 20
19.5961690708
 10
-17.7007800393
 20
19.6045182055
 10
-17.6977386445
 20
19.6127185278
 10
-17.694411706
 20
19.6207730075
 10
-17.6907930313
 20
19.6286786749
 10
-17.6868622509
 20
19.6364760808
 10
-17.6826258286
 20
19.6441677464
 10
-17.6780773006
 20
19.6517511505
 10
-17.6731769058
 20
19.6592592802
 10
-17.6679256439
 20
19.6667008085
 10
-17.6623225151
 20
19.6740670624
 10
-17.656324759
 20
19.6813650102
 10
-17.6496440261
 20
19.6888738064
 10
-17.642568666
 20
19.6963142964
 10
-17.6359209669
 20
19.7028559848
 10
-17.6303091017
 20
19.7079089732
 10
-17.6251248976
 20
19.7120631599
 10
-17.6193661248
 20
19.716257745
 10
-17.6127650002
 20
19.7208076235
 10
-17.6055893068
 20
19.7253979004
 10
-17.5976401638
 20
19.7300230902
 10
-17.5889513759
 20
19.734686446
 10
-17.5794891384
 20
19.7393847148
 10
-17.5689531569
 20
19.7441026519
 10
-17.5573739547
 20
19.7488529413
 10
-17.5447210085
 20
19.7536228991
 10
-17.5306024545
 20
19.7583592289
 10
-17.5148876715
 20
19.7630441654
 10
-17.4977072808
 20
19.7676954739
 10
-17.4790612823
 20
19.7723131546
  0
LINE
  5
37E
100
AcDbEntity
  8
ASSI
100
AcDbLine
 62
7
  6
CONTINUOUS
 10
-21.0901392859
 20
20.3629231997
 11
-20.0155522859
 21
20.0547891997
  0
LINE
  5
37F
100
AcDbEntity
  8
ASSI
100
AcDbLine
 62
7
  6
CONTINUOUS
 10
-19.4400692859
 20
20.2197891997
 11
-20.5281782859
 21
20.5317961997
  0
LINE
  5
380
100
AcDbEntity
  8
0
100
AcDbLine
 62
7
  6
CONTINUOUS
 10
-19.7286052859
 20
6.7329201997
 11
-20.5780442859
 21
6.4459811997
  0
LINE
  5
381
100
AcDbEntity
  8
ASSI
100
AcDbLine
 62
7
  6
CONTINUOUS
 10
-19.7286052859
 20
6.7329201997
 11
-20.5780442859
 21
6.4459811997
  0
LINE
  5
382
100
AcDbEntity
  8
0
100
AcDbLine
 62
7
  6
CONTINUOUS
 10
-20.4162762859
 20
6.3832951997
 11
-19.5783172859
 21
6.6646911997
  0
LINE
  5
383
100
AcDbEntity
  8
ASSI
100
AcDbLine
 62
7
  6
CONTINUOUS
 10
-20.4162762859
 20
6.3832951997
 11
-19.5783172859
 21
6.6646911997
  0
LWPOLYLINE
  5
384
100
AcDbEntity
  8
0
100
AcDbPolyline
 62
7
  6
CONTINUOUS
 90
76
 70
0
 10
-17.2639504104
 20
20.1671624439
 10
-17.2466844122
 20
20.1699608318
 10
-17.230062722
 20
20.1732079566
 10
-17.2139667869
 20
20.1768496458
 10
-17.1983900632
 20
20.1808772804
 10
-17.1833390945
 20
20.1852994794
 10
-17.1687149581
 20
20.1900879277
 10
-17.1545098855
 20
20.1952361307
 10
-17.1407316453
 20
20.200750583
 10
-17.1273046201
 20
20.2066224533
 10
-17.1142245192
 20
20.212845111
 10
-17.1014956333
 20
20.2194251868
 10
-17.0890552177
 20
20.2263737416
 10
-17.0768976824
 20
20.2336855464
 10
-17.0650286175
 20
20.2413658302
 10
-17.0534020481
 20
20.2494413405
 10
-17.0420465822
 20
20.2578754054
 10
-17.0309336119
 20
20.2667046967
 10
-17.0199313388
 20
20.2760659778
 10
-17.0088956001
 20
20.2861015042
 10
-16.9979705586
 20
20.2966690203
 10
-16.9874569041
 20
20.3074785223
 10
-16.9774126687
 20
20.3184924425
 10
-16.9677798203
 20
20.3297483485
 10
-16.9586849534
 20
20.3410689398
 10
-16.9501934605
 20
20.3523830656
 10
-16.9422399491
 20
20.3637618767
 10
-16.9347548364
 20
20.3752415243
 10
-16.9277298428
 20
20.3868201947
 10
-16.9211732479
 20
20.3984997016
 10
-16.9150403067
 20
20.4103216371
 10
-16.9093241136
 20
20.4222832484
 10
-16.9040315744
 20
20.4343872883
 10
-16.8991386608
 20
20.4466836071
 10
-16.8946385263
 20
20.4591690293
 10
-16.8905380176
 20
20.4718467304
 10
-16.8868336465
 20
20.4847760872
 10
-16.8835183897
 20
20.4979536671
 10
-16.8805992706
 20
20.5113829027
 10
-16.8780938708
 20
20.5251334693
 10
-16.8759956163
 20
20.5392780349
 10
-16.8743110811
 20
20.5537439315
 10
-16.8730775692
 20
20.5683828302
 10
-16.8723069077
 20
20.5833189714
 10
-16.8719872694
 20
20.5984281148
 10
-16.8721204772
 20
20.6131892104
 10
-16.8727154698
 20
20.6273837624
 10
-16.8737633085
 20
20.6412302665
 10
-16.8752389993
 20
20.6548631609
 10
-16.8771368865
 20
20.6683079219
 10
-16.8794626257
 20
20.6815390731
 10
-16.8822081903
 20
20.6946146232
 10
-16.8853660028
 20
20.7075350521
 10
-16.8889436407
 20
20.7202998799
 10
-16.8929558094
 20
20.7329656752
 10
-16.8973900185
 20
20.7455259996
 10
-16.9022587583
 20
20.7579872916
 10
-16.9076142055
 20
20.7704254353
 10
-16.9134554145
 20
20.7828499589
 10
-16.919783331
 20
20.7952513341
 10
-16.9266529686
 20
20.8076768603
 10
-16.9341818327
 20
20.8203033602
 10
-16.9422524181
 20
20.8329540109
 10
-16.9505672226
 20
20.8451456432
 10
-16.9590310493
 20
20.8567062453
 10
-16.9677390951
 20
20.8678078288
 10
-16.9766794493
 20
20.8784832596
 10
-16.9858396582
 20
20.8887253327
 10
-16.9952321754
 20
20.898541253
 10
-17.0048824514
 20
20.9079855007
 10
-17.0147860924
 20
20.9170637327
 10
-17.0249474921
 20
20.925770292
 10
-17.0354052819
 20
20.9341426884
 10
-17.0461723391
 20
20.9421934249
 10
-17.0572357865
 20
20.9499099984
 10
-17.0685956241
 20
20.9572924089
  0
LWPOLYLINE
  5
385
100
AcDbEntity
  8
ASSI
100
AcDbPolyline
 62
7
  6
CONTINUOUS
 90
76
 70
0
 10
-17.2639504104
 20
20.1671624439
 10
-17.2466844122
 20
20.1699608318
 10
-17.230062722
 20
20.1732079566
 10
-17.2139667869
 20
20.1768496458
 10
-17.1983900632
 20
20.1808772804
 10
-17.1833390945
 20
20.1852994794
 10
-17.1687149581
 20
20.1900879277
 10
-17.1545098855
 20
20.1952361307
 10
-17.1407316453
 20
20.200750583
 10
-17.1273046201
 20
20.2066224533
 10
-17.1142245192
 20
20.212845111
 10
-17.1014956333
 20
20.2194251868
 10
-17.0890552177
 20
20.2263737416
 10
-17.0768976824
 20
20.2336855464
 10
-17.0650286175
 20
20.2413658302
 10
-17.0534020481
 20
20.2494413405
 10
-17.0420465822
 20
20.2578754054
 10
-17.0309336119
 20
20.2667046967
 10
-17.0199313388
 20
20.2760659778
 10
-17.0088956001
 20
20.2861015042
 10
-16.9979705586
 20
20.2966690203
 10
-16.9874569041
 20
20.3074785223
 10
-16.9774126687
 20
20.3184924425
 10
-16.9677798203
 20
20.3297483485
 10
-16.9586849534
 20
20.3410689398
 10
-16.9501934605
 20
20.3523830656
 10
-16.9422399491
 20
20.3637618767
 10
-16.9347548364
 20
20.3752415243
 10
-16.9277298428
 20
20.3868201947
 10
-16.9211732479
 20
20.3984997016
 10
-16.9150403067
 20
20.4103216371
 10
-16.9093241136
 20
20.4222832484
 10
-16.9040315744
 20
20.4343872883
 10
-16.8991386608
 20
20.4466836071
 10
-16.8946385263
 20
20.4591690293
 10
-16.8905380176
 20
20.4718467304
 10
-16.8868336465
 20
20.4847760872
 10
-16.8835183897
 20
20.4979536671
 10
-16.8805992706
 20
20.5113829027
 10
-16.8780938708
 20
20.5251334693
 10
-16.8759956163
 20
20.5392780349
 10
-16.8743110811
 20
20.5537439315
 10
-16.8730775692
 20
20.5683828302
 10
-16.8723069077
 20
20.5833189714
 10
-16.8719872694
 20
20.5984281148
 10
-16.8721204772
 20
20.6131892104
 10
-16.8727154698
 20
20.6273837624
 10
-16.8737633085
 20
20.6412302665
 10
-16.8752389993
 20
20.6548631609
 10
-16.8771368865
 20
20.6683079219
 10
-16.8794626257
 20
20.6815390731
 10
-16.8822081903
 20
20.6946146232
 10
-16.8853660028
 20
20.7075350521
 10
-16.8889436407
 20
20.7202998799
 10
-16.8929558094
 20
20.7329656752
 10
-16.8973900185
 20
20.7455259996
 10
-16.9022587583
 20
20.7579872916
 10
-16.9076142055
 20
20.7704254353
 10
-16.9134554145
 20
20.7828499589
 10
-16.919783331
 20
20.7952513341
 10
-16.9266529686
 20
20.8076768603
 10
-16.9341818327
 20
20.8203033602
 10
-16.9422524181
 20
20.8329540109
 10
-16.9505672226
 20
20.8451456432
 10
-16.9590310493
 20
20.8567062453
 10
-16.9677390951
 20
20.8678078288
 10
-16.9766794493
 20
20.8784832596
 10
-16.9858396582
 20
20.8887253327
 10
-16.9952321754
 20
20.898541253
 10
-17.0048824514
 20
20.9079855007
 10
-17.0147860924
 20
20.9170637327
 10
-17.0249474921
 20
20.925770292
 10
-17.0354052819
 20
20.9341426884
 10
-17.0461723391
 20
20.9421934249
 10
-17.0572357865
 20
20.9499099984
 10
-17.0685956241
 20
20.9572924089
  0
LWPOLYLINE
  5
386
100
AcDbEntity
  8
0
100
AcDbPolyline
 62
7
  6
CONTINUOUS
 90
103
 70
0
 10
-17.3820649381
 20
21.1257217529
 10
-17.4045993622
 20
21.1222013009
 10
-17.4260492061
 20
21.1183528043
 10
-17.4464899831
 20
21.1142249845
 10
-17.4659223888
 20
21.1098162433
 10
-17.4843457276
 20
21.1051281789
 10
-17.5018334263
 20
21.1002143066
 10
-17.5182620297
 20
21.0951231154
 10
-17.5337549928
 20
21.0898061165
 10
-17.5487561082
 20
21.0841713581
 10
-17.5631921018
 20
21.0782792343
 10
-17.5771362477
 20
21.072069351
 10
-17.5912521597
 20
21.0652685751
 10
-17.6059852389
 20
21.0576830585
 10
-17.6208900843
 20
21.0495066493
 10
-17.6352941066
 20
21.0410477578
 10
-17.6489676555
 20
21.0323986082
 10
-17.6621403813
 20
21.0234669765
 10
-17.6748286453
 20
21.0142846007
 10
-17.6870152501
 20
21.0048682776
 10
-17.6987173932
 20
20.9952012106
 10
-17.7100030284
 20
20.9852647473
 10
-17.7208779996
 20
20.9750639445
 10
-17.731336463
 20
20.9645937454
 10
-17.7414288412
 20
20.9538203278
 10
-17.7511466419
 20
20.9427705706
 10
-17.7604983575
 20
20.9314175947
 10
-17.7695598864
 20
20.9196469405
 10
-17.7783773069
 20
20.9073946154
 10
-17.7869045408
 20
20.8947246119
 10
-17.7950792521
 20
20.8817144474
 10
-17.8029321732
 20
20.8682995397
 10
-17.8104325717
 20
20.8545444711
 10
-17.8174259149
 20
20.8407205055
 10
-17.8238475278
 20
20.8269345452
 10
-17.8297620854
 20
20.8130796879
 10
-17.8352090803
 20
20.7991064918
 10
-17.8401959109
 20
20.7850164941
 10
-17.8447151787
 20
20.7708081575
 10
-17.848784181
 20
20.7564274282
 10
-17.85240984
 20
20.7418771153
 10
-17.8555852334
 20
20.7271544098
 10
-17.8583068921
 20
20.7121968303
 10
-17.8605821686
 20
20.6970200845
 10
-17.8624037103
 20
20.6816084649
 10
-17.8637459912
 20
20.6658523671
 10
-17.8646067033
 20
20.6496004583
 10
-17.8649881545
 20
20.6330040715
 10
-17.8648717416
 20
20.6164076008
 10
-17.8642353752
 20
20.5997757858
 10
-17.8631011448
 20
20.583143887
 10
-17.8615167149
 20
20.56696208
 10
-17.8594850482
 20
20.5514098391
 10
-17.8570031822
 20
20.5363076901
 10
-17.8541098937
 20
20.521567386
 10
-17.8508128494
 20
20.5071842216
 10
-17.8471043826
 20
20.4931629021
 10
-17.8430002713
 20
20.4794292964
 10
-17.8385075666
 20
20.4659793251
 10
-17.8336192172
 20
20.4528170677
 10
-17.8283298475
 20
20.4398806307
 10
-17.8226455399
 20
20.4271655427
 10
-17.8165602118
 20
20.4146762752
 10
-17.81005024
 20
20.4023643491
 10
-17.8031229673
 20
20.3902277523
 10
-17.7957710509
 20
20.3782684969
 10
-17.7879488387
 20
20.3664441397
 10
-17.7796597863
 20
20.354747675
 10
-17.7709004382
 20
20.3431861084
 10
-17.7616147752
 20
20.3317380142
 10
-17.751689666
 20
20.3202926877
 10
-17.7412382418
 20
20.3089608336
 10
-17.7305438776
 20
20.2980531402
 10
-17.7196840084
 20
20.2876627129
 10
-17.7085811992
 20
20.2776964464
 10
-17.6972865201
 20
20.2681857138
 10
-17.685839669
 20
20.2591629873
 10
-17.6742009478
 20
20.2505957947
 10
-17.6623023328
 20
20.2424180929
 10
-17.650138217
 20
20.2346147559
 10
-17.6377142072
 20
20.2272009098
 10
-17.6249791006
 20
20.2201558886
 10
-17.6119379111
 20
20.21347414
 10
-17.5985856247
 20
20.2071612163
 10
-17.5848559965
 20
20.2012131093
 10
-17.5707548125
 20
20.1956235023
 10
-17.5562762868
 20
20.1903987119
 10
-17.5413368171
 20
20.1855536792
 10
-17.5259434531
 20
20.1810811477
 10
-17.5100891451
 20
20.1769883739
 10
-17.4936691421
 20
20.1733120681
 10
-17.4766918341
 20
20.1700433363
 10
-17.4591488309
 20
20.1671910725
 10
-17.4409102116
 20
20.1648186684
 10
-17.4218170359
 20
20.1629203732
 10
-17.402028244
 20
20.1615019377
 10
-17.3818907351
 20
20.1606440056
 10
-17.3611677727
 20
20.1603833036
 10
-17.3400960933
 20
20.1606831051
 10
-17.3197328064
 20
20.1615138735
 10
-17.3004516434
 20
20.1628931734
 10
-17.2818788728
 20
20.1648034402
 10
-17.2639504104
 20
20.1671624439
  0
LWPOLYLINE
  5
387
100
AcDbEntity
  8
ASSI
100
AcDbPolyline
 62
7
  6
CONTINUOUS
 90
103
 70
0
 10
-17.3820649381
 20
21.1257217529
 10
-17.4045993622
 20
21.1222013009
 10
-17.4260492061
 20
21.1183528043
 10
-17.4464899831
 20
21.1142249845
 10
-17.4659223888
 20
21.1098162433
 10
-17.4843457276
 20
21.1051281789
 10
-17.5018334263
 20
21.1002143066
 10
-17.5182620297
 20
21.0951231154
 10
-17.5337549928
 20
21.0898061165
 10
-17.5487561082
 20
21.0841713581
 10
-17.5631921018
 20
21.0782792343
 10
-17.5771362477
 20
21.072069351
 10
-17.5912521597
 20
21.0652685751
 10
-17.6059852389
 20
21.0576830585
 10
-17.6208900843
 20
21.0495066493
 10
-17.6352941066
 20
21.0410477578
 10
-17.6489676555
 20
21.0323986082
 10
-17.6621403813
 20
21.0234669765
 10
-17.6748286453
 20
21.0142846007
 10
-17.6870152501
 20
21.0048682776
 10
-17.6987173932
 20
20.9952012106
 10
-17.7100030284
 20
20.9852647473
 10
-17.7208779996
 20
20.9750639445
 10
-17.731336463
 20
20.9645937454
 10
-17.7414288412
 20
20.9538203278
 10
-17.7511466419
 20
20.9427705706
 10
-17.7604983575
 20
20.9314175947
 10
-17.7695598864
 20
20.9196469405
 10
-17.7783773069
 20
20.9073946154
 10
-17.7869045408
 20
20.8947246119
 10
-17.7950792521
 20
20.8817144474
 10
-17.8029321732
 20
20.8682995397
 10
-17.8104325717
 20
20.8545444711
 10
-17.8174259149
 20
20.8407205055
 10
-17.8238475278
 20
20.8269345452
 10
-17.8297620854
 20
20.8130796879
 10
-17.8352090803
 20
20.7991064918
 10
-17.8401959109
 20
20.7850164941
 10
-17.8447151787
 20
20.7708081575
 10
-17.848784181
 20
20.7564274282
 10
-17.85240984
 20
20.7418771153
 10
-17.8555852334
 20
20.7271544098
 10
-17.8583068921
 20
20.7121968303
 10
-17.8605821686
 20
20.6970200845
 10
-17.8624037103
 20
20.6816084649
 10
-17.8637459912
 20
20.6658523671
 10
-17.8646067033
 20
20.6496004583
 10
-17.8649881545
 20
20.6330040715
 10
-17.8648717416
 20
20.6164076008
 10
-17.8642353752
 20
20.5997757858
 10
-17.8631011448
 20
20.583143887
 10
-17.8615167149
 20
20.56696208
 10
-17.8594850482
 20
20.5514098391
 10
-17.8570031822
 20
20.5363076901
 10
-17.8541098937
 20
20.521567386
 10
-17.8508128494
 20
20.5071842216
 10
-17.8471043826
 20
20.4931629021
 10
-17.8430002713
 20
20.4794292964
 10
-17.8385075666
 20
20.4659793251
 10
-17.8336192172
 20
20.4528170677
 10
-17.8283298475
 20
20.4398806307
 10
-17.8226455399
 20
20.4271655427
 10
-17.8165602118
 20
20.4146762752
 10
-17.81005024
 20
20.4023643491
 10
-17.8031229673
 20
20.3902277523
 10
-17.7957710509
 20
20.3782684969
 10
-17.7879488387
 20
20.3664441397
 10
-17.7796597863
 20
20.354747675
 10
-17.7709004382
 20
20.3431861084
 10
-17.7616147752
 20
20.3317380142
 10
-17.751689666
 20
20.3202926877
 10
-17.7412382418
 20
20.3089608336
 10
-17.7305438776
 20
20.2980531402
 10
-17.7196840084
 20
20.2876627129
 10
-17.7085811992
 20
20.2776964464
 10
-17.6972865201
 20
20.2681857138
 10
-17.685839669
 20
20.2591629873
 10
-17.6742009478
 20
20.2505957947
 10
-17.6623023328
 20
20.2424180929
 10
-17.650138217
 20
20.2346147559
 10
-17.6377142072
 20
20.2272009098
 10
-17.6249791006
 20
20.2201558886
 10
-17.6119379111
 20
20.21347414
 10
-17.5985856247
 20
20.2071612163
 10
-17.5848559965
 20
20.2012131093
 10
-17.5707548125
 20
20.1956235023
 10
-17.5562762868
 20
20.1903987119
 10
-17.5413368171
 20
20.1855536792
 10
-17.5259434531
 20
20.1810811477
 10
-17.5100891451
 20
20.1769883739
 10
-17.4936691421
 20
20.1733120681
 10
-17.4766918341
 20
20.1700433363
 10
-17.4591488309
 20
20.1671910725
 10
-17.4409102116
 20
20.1648186684
 10
-17.4218170359
 20
20.1629203732
 10
-17.402028244
 20
20.1615019377
 10
-17.3818907351
 20
20.1606440056
 10
-17.3611677727
 20
20.1603833036
 10
-17.3400960933
 20
20.1606831051
 10
-17.3197328064
 20
20.1615138735
 10
-17.3004516434
 20
20.1628931734
 10
-17.2818788728
 20
20.1648034402
 10
-17.2639504104
 20
20.1671624439
  0
LWPOLYLINE
  5
388
100
AcDbEntity
  8
0
100
AcDbPolyline
 62
7
  6
CONTINUOUS
 90
109
 70
0
 10
-16.7113282795
 20
20.1874731224
 10
-16.692973434
 20
20.1901296824
 10
-16.675367544
 20
20.193152945
 10
-16.6585106094
 20
20.1965429104
 10
-16.6424474779
 20
20.2003184828
 10
-16.6271333018
 20
20.2044607578
 10
-16.6124335378
 20
20.2089130225
 10
-16.5983479294
 20
20.2136627864
 10
-16.5848767332
 20
20.2187225398
 10
-16.5718861758
 20
20.2240730411
 10
-16.5593526995
 20
20.2297153343
 10
-16.5472998622
 20
20.2356483753
 10
-16.5356645638
 20
20.2418497898
 10
-16.5244526763
 20
20.2483063745
 10
-16.5136583277
 20
20.2550313328
 10
-16.5032008029
 20
20.2620419001
 10
-16.4930696836
 20
20.269335973
 10
-16.483275388
 20
20.276915655
 10
-16.4737684551
 20
20.2848044924
 10
-16.4645405491
 20
20.2930011978
 10
-16.4556000058
 20
20.3015070586
 10
-16.4469223715
 20
20.3103494829
 10
-16.4384700894
 20
20.3195709117
 10
-16.4302807164
 20
20.329128904
 10
-16.422442469
 20
20.3389235455
 10
-16.4149860266
 20
20.3489185068
 10
-16.4078807099
 20
20.3591501173
 10
-16.4011226979
 20
20.3696274504
 10
-16.3947156738
 20
20.3803360377
 10
-16.3886559544
 20
20.3912903477
 10
-16.38292867
 20
20.4025428596
 10
-16.3775283095
 20
20.4140873295
 10
-16.372460384
 20
20.4259300012
 10
-16.3677265567
 20
20.4381420855
 10
-16.3633196435
 20
20.4507186439
 10
-16.3592468285
 20
20.4636646148
 10
-16.3555313275
 20
20.4770660246
 10
-16.3521653581
 20
20.4909154202
 10
-16.3491567027
 20
20.5052202547
 10
-16.3465519241
 20
20.5200889125
 10
-16.3443419117
 20
20.5355489825
 10
-16.3425357761
 20
20.5515728759
 10
-16.3412074119
 20
20.5681862111
 10
-16.3403696416
 20
20.5856762859
 10
-16.3400096428
 20
20.6037558024
 10
-16.3401628425
 20
20.6215884864
 10
-16.3408580746
 20
20.6389629302
 10
-16.3420665054
 20
20.6560905413
 10
-16.3437370601
 20
20.6727692678
 10
-16.3458650606
 20
20.6889016792
 10
-16.3484551851
 20
20.7045852059
 10
-16.3514703939
 20
20.7199100864
 10
-16.3549033728
 20
20.7348826583
 10
-16.358761436
 20
20.7494965839
 10
-16.3630294876
 20
20.7638230893
 10
-16.367700544
 20
20.7778653894
 10
-16.3727815887
 20
20.7916202693
 10
-16.3782784766
 20
20.8051493101
 10
-16.3841840448
 20
20.818455313
 10
-16.3905054562
 20
20.8315354768
 10
-16.3972700547
 20
20.8444429796
 10
-16.4045077467
 20
20.8572291471
 10
-16.4121886257
 20
20.8698426536
 10
-16.4202503163
 20
20.8821826994
 10
-16.4286738653
 20
20.8942213808
 10
-16.4374782257
 20
20.9059866016
 10
-16.4466578817
 20
20.9174612733
 10
-16.4561856098
 20
20.928618368
 10
-16.4660886334
 20
20.9394849136
 10
-16.4764431067
 20
20.9501249061
 10
-16.4872514807
 20
20.960553801
 10
-16.4985113045
 20
20.9707561428
 10
-16.5102913799
 20
20.9807495604
 10
-16.5225810983
 20
20.9905370766
 10
-16.5353910683
 20
21.0001156687
 10
-16.5488219175
 20
21.0094938974
 10
-16.5628673969
 20
21.018678283
 10
-16.5775337556
 20
21.0276623052
 10
-16.5929403687
 20
21.0364349638
 10
-16.609124242
 20
21.0450191975
 10
-16.6260483697
 20
21.0533920676
 10
-16.6437211091
 20
21.0614737575
 10
-16.6622198082
 20
21.0692926609
 10
-16.6814671189
 20
21.0768203841
 10
-16.7012393544
 20
21.0838919299
 10
-16.7212328846
 20
21.0904031562
 10
-16.7417513396
 20
21.0964582052
 10
-16.7634819236
 20
21.1022045054
 10
-16.7866150232
 20
21.1077165285
 10
-16.8109602518
 20
21.1129198029
 10
-16.8366336537
 20
21.1177383421
 10
-16.863632267
 20
21.1221717767
 10
-16.8919590535
 20
21.126220476
 10
-16.9217389434
 20
21.1298095612
 10
-16.9531710681
 20
21.1329403476
 10
-16.9860562962
 20
21.1356115198
 10
-17.0199221637
 20
21.1377442532
 10
-17.055338635
 20
21.1392986554
 10
-17.0917357455
 20
21.1403146188
 10
-17.1269311382
 20
21.1408329962
 10
-17.160220473
 20
21.1408418321
 10
-17.1923080898
 20
21.140353082
 10
-17.2231246517
 20
21.139443464
 10
-17.2526147594
 20
21.1381229663
 10
-17.2808338121
 20
21.1363816007
 10
-17.3078786703
 20
21.1342661212
 10
-17.3337517494
 20
21.1317767559
 10
-17.3584506339
 20
21.1289132767
 10
-17.3820649381
 20
21.1257217529
  0
LWPOLYLINE
  5
389
100
AcDbEntity
  8
ASSI
100
AcDbPolyline
 62
7
  6
CONTINUOUS
 90
109
 70
0
 10
-16.7113282795
 20
20.1874731224
 10
-16.692973434
 20
20.1901296824
 10
-16.675367544
 20
20.193152945
 10
-16.6585106094
 20
20.1965429104
 10
-16.6424474779
 20
20.2003184828
 10
-16.6271333018
 20
20.2044607578
 10
-16.6124335378
 20
20.2089130225
 10
-16.5983479294
 20
20.2136627864
 10
-16.5848767332
 20
20.2187225398
 10
-16.5718861758
 20
20.2240730411
 10
-16.5593526995
 20
20.2297153343
 10
-16.5472998622
 20
20.2356483753
 10
-16.5356645638
 20
20.2418497898
 10
-16.5244526763
 20
20.2483063745
 10
-16.5136583277
 20
20.2550313328
 10
-16.5032008029
 20
20.2620419001
 10
-16.4930696836
 20
20.269335973
 10
-16.483275388
 20
20.276915655
 10
-16.4737684551
 20
20.2848044924
 10
-16.4645405491
 20
20.2930011978
 10
-16.4556000058
 20
20.3015070586
 10
-16.4469223715
 20
20.3103494829
 10
-16.4384700894
 20
20.3195709117
 10
-16.4302807164
 20
20.329128904
 10
-16.422442469
 20
20.3389235455
 10
-16.4149860266
 20
20.3489185068
 10
-16.4078807099
 20
20.3591501173
 10
-16.4011226979
 20
20.3696274504
 10
-16.3947156738
 20
20.3803360377
 10
-16.3886559544
 20
20.3912903477
 10
-16.38292867
 20
20.4025428596
 10
-16.3775283095
 20
20.4140873295
 10
-16.372460384
 20
20.4259300012
 10
-16.3677265567
 20
20.4381420855
 10
-16.3633196435
 20
20.4507186439
 10
-16.3592468285
 20
20.4636646148
 10
-16.3555313275
 20
20.4770660246
 10
-16.3521653581
 20
20.4909154202
 10
-16.3491567027
 20
20.5052202547
 10
-16.3465519241
 20
20.5200889125
 10
-16.3443419117
 20
20.5355489825
 10
-16.3425357761
 20
20.5515728759
 10
-16.3412074119
 20
20.5681862111
 10
-16.3403696416
 20
20.5856762859
 10
-16.3400096428
 20
20.6037558024
 10
-16.3401628425
 20
20.6215884864
 10
-16.3408580746
 20
20.6389629302
 10
-16.3420665054
 20
20.6560905413
 10
-16.3437370601
 20
20.6727692678
 10
-16.3458650606
 20
20.6889016792
 10
-16.3484551851
 20
20.7045852059
 10
-16.3514703939
 20
20.7199100864
 10
-16.3549033728
 20
20.7348826583
 10
-16.358761436
 20
20.7494965839
 10
-16.3630294876
 20
20.7638230893
 10
-16.367700544
 20
20.7778653894
 10
-16.3727815887
 20
20.7916202693
 10
-16.3782784766
 20
20.8051493101
 10
-16.3841840448
 20
20.818455313
 10
-16.3905054562
 20
20.8315354768
 10
-16.3972700547
 20
20.8444429796
 10
-16.4045077467
 20
20.8572291471
 10
-16.4121886257
 20
20.8698426536
 10
-16.4202503163
 20
20.8821826994
 10
-16.4286738653
 20
20.8942213808
 10
-16.4374782257
 20
20.9059866016
 10
-16.4466578817
 20
20.9174612733
 10
-16.4561856098
 20
20.928618368
 10
-16.4660886334
 20
20.9394849136
 10
-16.4764431067
 20
20.9501249061
 10
-16.4872514807
 20
20.960553801
 10
-16.4985113045
 20
20.9707561428
 10
-16.5102913799
 20
20.9807495604
 10
-16.5225810983
 20
20.9905370766
 10
-16.5353910683
 20
21.0001156687
 10
-16.5488219175
 20
21.0094938974
 10
-16.5628673969
 20
21.018678283
 10
-16.5775337556
 20
21.0276623052
 10
-16.5929403687
 20
21.0364349638
 10
-16.609124242
 20
21.0450191975
 10
-16.6260483697
 20
21.0533920676
 10
-16.6437211091
 20
21.0614737575
 10
-16.6622198082
 20
21.0692926609
 10
-16.6814671189
 20
21.0768203841
 10
-16.7012393544
 20
21.0838919299
 10
-16.7212328846
 20
21.0904031562
 10
-16.7417513396
 20
21.0964582052
 10
-16.7634819236
 20
21.1022045054
 10
-16.7866150232
 20
21.1077165285
 10
-16.8109602518
 20
21.1129198029
 10
-16.8366336537
 20
21.1177383421
 10
-16.863632267
 20
21.1221717767
 10
-16.8919590535
 20
21.126220476
 10
-16.9217389434
 20
21.1298095612
 10
-16.9531710681
 20
21.1329403476
 10
-16.9860562962
 20
21.1356115198
 10
-17.0199221637
 20
21.1377442532
 10
-17.055338635
 20
21.1392986554
 10
-17.0917357455
 20
21.1403146188
 10
-17.1269311382
 20
21.1408329962
 10
-17.160220473
 20
21.1408418321
 10
-17.1923080898
 20
21.140353082
 10
-17.2231246517
 20
21.139443464
 10
-17.2526147594
 20
21.1381229663
 10
-17.2808338121
 20
21.1363816007
 10
-17.3078786703
 20
21.1342661212
 10
-17.3337517494
 20
21.1317767559
 10
-17.3584506339
 20
21.1289132767
 10
-17.3820649381
 20
21.1257217529
  0
LWPOLYLINE
  5
38A
100
AcDbEntity
  8
0
100
AcDbPolyline
 62
7
  6
CONTINUOUS
 90
94
 70
0
 10
-17.0685956241
 20
20.9572924089
 10
-17.0529201584
 20
20.9579560635
 10
-17.0368305715
 20
20.9582800598
 10
-17.0203268635
 20
20.9582643978
 10
-17.0035271036
 20
20.9579377878
 10
-16.9863132225
 20
20.9572715196
 10
-16.9683310126
 20
20.9561794622
 10
-16.9494530774
 20
20.9546847768
 10
-16.9298068135
 20
20.9527643022
 10
-16.9094202024
 20
20.9502624242
 10
-16.8878334524
 20
20.947053094
 10
-16.8655063552
 20
20.9432623604
 10
-16.8438462681
 20
20.9391127554
 10
-16.8232440462
 20
20.9346112314
 10
-16.8033088345
 20
20.929750836
 10
-16.7842754251
 20
20.924733245
 10
-16.7662472554
 20
20.9196146376
 10
-16.7491208881
 20
20.9143388346
 10
-16.7328208035
 20
20.9089389745
 10
-16.7173387832
 20
20.9034180989
 10
-16.7026830458
 20
20.8977731662
 10
-16.6888027274
 20
20.8920281897
 10
-16.6757057724
 20
20.8861864044
 10
-16.6633842366
 20
20.8802445753
 10
-16.6517634234
 20
20.8742170114
 10
-16.6409040807
 20
20.868141431
 10
-16.6307454608
 20
20.8619801159
 10
-16.6210306239
 20
20.8556342204
 10
-16.6117116267
 20
20.8490850905
 10
-16.6028364127
 20
20.8423513804
 10
-16.5942918725
 20
20.8353902065
 10
-16.5860521434
 20
20.8281929812
 10
-16.5781430882
 20
20.8207682923
 10
-16.5705291852
 20
20.813099019
 10
-16.5631942003
 20
20.8051678444
 10
-16.5561543675
 20
20.7969920854
 10
-16.5494228683
 20
20.7886065721
 10
-16.5429433438
 20
20.7799128969
 10
-16.5367721528
 20
20.7710094674
 10
-16.5310915528
 20
20.7622263368
 10
-16.5260143863
 20
20.7537555413
 10
-16.5214278108
 20
20.7454050446
 10
-16.5171755557
 20
20.7369287914
 10
-16.5132182092
 20
20.7282800249
 10
-16.5095951832
 20
20.7195055017
 10
-16.5062684432
 20
20.7104994365
 10
-16.5032205186
 20
20.7012459289
 10
-16.5004688801
 20
20.6917608792
 10
-16.4980279048
 20
20.6819862033
 10
-16.4958910227
 20
20.6719307057
 10
-16.4940648038
 20
20.6615855817
 10
-16.492583336
 20
20.6508663332
 10
-16.4914447367
 20
20.6396060655
 10
-16.4906508884
 20
20.6279716732
 10
-16.4902415262
 20
20.6163793418
 10
-16.4902446326
 20
20.6048245587
 10
-16.4906322251
 20
20.5933118365
 10
-16.4913600911
 20
20.582270898
 10
-16.4924314826
 20
20.5718780953
 10
-16.4938431476
 20
20.5619570765
 10
-16.495541117
 20
20.552408508
 10
-16.4975168312
 20
20.5432263738
 10
-16.4997788498
 20
20.53441669
 10
-16.5022988825
 20
20.5258981714
 10
-16.505069887
 20
20.5176646891
 10
-16.5080989057
 20
20.509722372
 10
-16.5113787755
 20
20.5020083222
 10
-16.5149044504
 20
20.4945161294
 10
-16.5186809764
 20
20.4872522039
 10
-16.5227163294
 20
20.4801728792
 10
-16.5270408072
 20
20.4732358775
 10
-16.5316241118
 20
20.4664834765
 10
-16.5363833255
 20
20.4599988426
 10
-16.5412788244
 20
20.4538233169
 10
-16.5463502324
 20
20.4479155583
 10
-16.551633503
 20
20.4422347091
 10
-16.5570781511
 20
20.4368150057
 10
-16.5627346619
 20
20.4316222118
 10
-16.5687904444
 20
20.4265127611
 10
-16.5752738729
 20
20.4214386119
 10
-16.5821565732
 20
20.4164478058
 10
-16.5895408321
 20
20.4115409021
 10
-16.5974245542
 20
20.4067099801
 10
-16.6058098349
 20
20.4019629604
 10
-16.6148052481
 20
20.3973241639
 10
-16.6244237786
 20
20.3927815252
 10
-16.6346524415
 20
20.3883471097
 10
-16.6455608555
 20
20.3840814344
 10
-16.6571534535
 20
20.3799837631
 10
-16.6694258025
 20
20.3760548319
 10
-16.6824342224
 20
20.3723573661
 10
-16.6961974863
 20
20.3689122739
 10
-16.7106968209
 20
20.3656986471
 10
-16.7259322264
 20
20.3627164856
  0
LWPOLYLINE
  5
38B
100
AcDbEntity
  8
ASSI
100
AcDbPolyline
 62
7
  6
CONTINUOUS
 90
94
 70
0
 10
-17.0685956241
 20
20.9572924089
 10
-17.0529201584
 20
20.9579560635
 10
-17.0368305715
 20
20.9582800598
 10
-17.0203268635
 20
20.9582643978
 10
-17.0035271036
 20
20.9579377878
 10
-16.9863132225
 20
20.9572715196
 10
-16.9683310126
 20
20.9561794622
 10
-16.9494530774
 20
20.9546847768
 10
-16.9298068135
 20
20.9527643022
 10
-16.9094202024
 20
20.9502624242
 10
-16.8878334524
 20
20.947053094
 10
-16.8655063552
 20
20.9432623604
 10
-16.8438462681
 20
20.9391127554
 10
-16.8232440462
 20
20.9346112314
 10
-16.8033088345
 20
20.929750836
 10
-16.7842754251
 20
20.924733245
 10
-16.7662472554
 20
20.9196146376
 10
-16.7491208881
 20
20.9143388346
 10
-16.7328208035
 20
20.9089389745
 10
-16.7173387832
 20
20.9034180989
 10
-16.7026830458
 20
20.8977731662
 10
-16.6888027274
 20
20.8920281897
 10
-16.6757057724
 20
20.8861864044
 10
-16.6633842366
 20
20.8802445753
 10
-16.6517634234
 20
20.8742170114
 10
-16.6409040807
 20
20.868141431
 10
-16.6307454608
 20
20.8619801159
 10
-16.6210306239
 20
20.8556342204
 10
-16.6117116267
 20
20.8490850905
 10
-16.6028364127
 20
20.8423513804
 10
-16.5942918725
 20
20.8353902065
 10
-16.5860521434
 20
20.8281929812
 10
-16.5781430882
 20
20.8207682923
 10
-16.5705291852
 20
20.813099019
 10
-16.5631942003
 20
20.8051678444
 10
-16.5561543675
 20
20.7969920854
 10
-16.5494228683
 20
20.7886065721
 10
-16.5429433438
 20
20.7799128969
 10
-16.5367721528
 20
20.7710094674
 10
-16.5310915528
 20
20.7622263368
 10
-16.5260143863
 20
20.7537555413
 10
-16.5214278108
 20
20.7454050446
 10
-16.5171755557
 20
20.7369287914
 10
-16.5132182092
 20
20.7282800249
 10
-16.5095951832
 20
20.7195055017
 10
-16.5062684432
 20
20.7104994365
 10
-16.5032205186
 20
20.7012459289
 10
-16.5004688801
 20
20.6917608792
 10
-16.4980279048
 20
20.6819862033
 10
-16.4958910227
 20
20.6719307057
 10
-16.4940648038
 20
20.6615855817
 10
-16.492583336
 20
20.6508663332
 10
-16.4914447367
 20
20.6396060655
 10
-16.4906508884
 20
20.6279716732
 10
-16.4902415262
 20
20.6163793418
 10
-16.4902446326
 20
20.6048245587
 10
-16.4906322251
 20
20.5933118365
 10
-16.4913600911
 20
20.582270898
 10
-16.4924314826
 20
20.5718780953
 10
-16.4938431476
 20
20.5619570765
 10
-16.495541117
 20
20.552408508
 10
-16.4975168312
 20
20.5432263738
 10
-16.4997788498
 20
20.53441669
 10
-16.5022988825
 20
20.5258981714
 10
-16.505069887
 20
20.5176646891
 10
-16.5080989057
 20
20.509722372
 10
-16.5113787755
 20
20.5020083222
 10
-16.5149044504
 20
20.4945161294
 10
-16.5186809764
 20
20.4872522039
 10
-16.5227163294
 20
20.4801728792
 10
-16.5270408072
 20
20.4732358775
 10
-16.5316241118
 20
20.4664834765
 10
-16.5363833255
 20
20.4599988426
 10
-16.5412788244
 20
20.4538233169
 10
-16.5463502324
 20
20.4479155583
 10
-16.551633503
 20
20.4422347091
 10
-16.5570781511
 20
20.4368150057
 10
-16.5627346619
 20
20.4316222118
 10
-16.5687904444
 20
20.4265127611
 10
-16.5752738729
 20
20.4214386119
 10
-16.5821565732
 20
20.4164478058
 10
-16.5895408321
 20
20.4115409021
 10
-16.5974245542
 20
20.4067099801
 10
-16.6058098349
 20
20.4019629604
 10
-16.6148052481
 20
20.3973241639
 10
-16.6244237786
 20
20.3927815252
 10
-16.6346524415
 20
20.3883471097
 10
-16.6455608555
 20
20.3840814344
 10
-16.6571534535
 20
20.3799837631
 10
-16.6694258025
 20
20.3760548319
 10
-16.6824342224
 20
20.3723573661
 10
-16.6961974863
 20
20.3689122739
 10
-16.7106968209
 20
20.3656986471
 10
-16.7259322264
 20
20.3627164856
  0
LINE
  5
38C
100
AcDbEntity
  8
ASSI
100
AcDbLine
 62
7
  6
CONTINUOUS
 10
-20.5281782859
 20
20.5317961997
 11
-19.4400652859
 21
20.5318001997
  0
LINE
  5
38D
100
AcDbEntity
  8
RACCORDO
100
AcDbLine
 62
7
  6
CONTINUOUS
 10
-1.5400612859
 20
20.6781541997
 11
-1.9899564537
 21
20.6781541997
  0
LINE
  5
38E
100
AcDbEntity
  8
ASSI
100
AcDbLine
 62
7
  6
CONTINUOUS
 10
-1.5400612859
 20
20.6781541997
 11
-1.9899564537
 21
20.6781541997
  0
LINE
  5
38F
100
AcDbEntity
  8
RACCORDO
100
AcDbLine
 62
7
  6
CONTINUOUS
 10
-35.2900612859
 20
20.6781541997
 11
-35.7400612859
 21
20.6781541997
  0
LINE
  5
390
100
AcDbEntity
  8
ASSI
100
AcDbLine
 62
7
  6
CONTINUOUS
 10
-35.2900612859
 20
20.6781541997
 11
-35.7400612859
 21
20.6781541997
  0
LINE
  5
391
100
AcDbEntity
  8
ASSI
100
AcDbLine
 62
7
  6
CONTINUOUS
 10
-19.4400652859
 20
20.8618131997
 11
-21.0901392859
 21
20.8618131997
  0
LWPOLYLINE
  5
392
100
AcDbEntity
  8
0
100
AcDbPolyline
 62
7
  6
CONTINUOUS
 90
3
 70
0
 10
-17.3527571288
 20
20.3481162156
 10
-17.3573026292
 20
20.3481164196
 10
-17.3597706058
 20
20.3481328931
  0
LWPOLYLINE
  5
393
100
AcDbEntity
  8
ASSI
100
AcDbPolyline
 62
7
  6
CONTINUOUS
 90
3
 70
0
 10
-17.3527571288
 20
20.3481162156
 10
-17.3573026292
 20
20.3481164196
 10
-17.3597706058
 20
20.3481328931
  0
LWPOLYLINE
  5
394
100
AcDbEntity
  8
0
100
AcDbPolyline
 62
7
  6
CONTINUOUS
 90
11
 70
0
 10
-16.8407887242
 20
19.791054172
 10
-16.8236490039
 20
19.7908980971
 10
-16.806855058
 20
19.7902077661
 10
-16.7902592649
 20
19.7890275199
 10
-16.7744083148
 20
19.787444601
 10
-16.7595359513
 20
19.7854639781
 10
-16.7454084308
 20
19.7830806825
 10
-16.731871213
 20
19.780367051
 10
-16.7188727846
 20
19.7773471959
 10
-16.7064646589
 20
19.7739970049
 10
-16.6946468359
 20
19.7703164781
  0
LWPOLYLINE
  5
395
100
AcDbEntity
  8
ASSI
100
AcDbPolyline
 62
7
  6
CONTINUOUS
 90
11
 70
0
 10
-16.8407887242
 20
19.791054172
 10
-16.8236490039
 20
19.7908980971
 10
-16.806855058
 20
19.7902077661
 10
-16.7902592649
 20
19.7890275199
 10
-16.7744083148
 20
19.787444601
 10
-16.7595359513
 20
19.7854639781
 10
-16.7454084308
 20
19.7830806825
 10
-16.731871213
 20
19.780367051
 10
-16.7188727846
 20
19.7773471959
 10
-16.7064646589
 20
19.7739970049
 10
-16.6946468359
 20
19.7703164781
  0
LWPOLYLINE
  5
396
100
AcDbEntity
  8
0
100
AcDbPolyline
 62
7
  6
CONTINUOUS
 90
118
 70
0
 10
-17.3597706058
 20
20.3481328931
 10
-17.3648951849
 20
20.3482034903
 10
-17.3675517875
 20
20.3482576141
 10
-17.3702787029
 20
20.3483281959
 10
-17.3730761175
 20
20.3484149483
 10
-17.375943845
 20
20.3485181586
 10
-17.3788880208
 20
20.3486422069
 10
-17.3819087927
 20
20.3487867583
 10
-17.3850060129
 20
20.3489521477
 10
-17.3881853736
 20
20.3491437594
 10
-17.3914464597
 20
20.3493611417
 10
-17.3947896863
 20
20.3496047465
 10
-17.3982219906
 20
20.3498813132
 10
-17.4017431506
 20
20.3501902729
 10
-17.4053533883
 20
20.3505321946
 10
-17.4090603073
 20
20.3509155254
 10
-17.4128636654
 20
20.351339533
 10
-17.4167637048
 20
20.3518049496
 10
-17.420768755
 20
20.3523224194
 10
-17.4248785556
 20
20.3528909914
 10
-17.4290933671
 20
20.3535116166
 10
-17.4334222999
 20
20.3541977924
 10
-17.4378650531
 20
20.3549482649
 10
-17.4424219276
 20
20.355764288
 10
-17.4471029367
 20
20.3566631201
 10
-17.4519077569
 20
20.3576430892
 10
-17.4568367116
 20
20.3587058674
 10
-17.4619007844
 20
20.3598737291
 10
-17.467099638
 20
20.3611444119
 10
-17.4724336097
 20
20.3625201781
 10
-17.4779146949
 20
20.3640300898
 10
-17.4835425735
 20
20.3656710383
 10
-17.4893175657
 20
20.3674461322
 10
-17.4952526273
 20
20.3693937599
 10
-17.5013475213
 20
20.3715095832
 10
-17.5076024848
 20
20.3737979403
 10
-17.5140311849
 20
20.3763102335
 10
-17.5206335871
 20
20.3790402993
 10
-17.5274097259
 20
20.3819943011
 10
-17.5343733729
 20
20.3852421314
 10
-17.5415249668
 20
20.3887749108
 10
-17.5488640688
 20
20.3926015187
 10
-17.556403134
 20
20.396818485
 10
-17.5641444046
 20
20.4014135402
 10
-17.5720856384
 20
20.4063989539
 10
-17.5802325647
 20
20.4119080655
 10
-17.5886267965
 20
20.4179683292
 10
-17.5972267209
 20
20.4245522908
 10
-17.6059132283
 20
20.4317109272
 10
-17.6148254275
 20
20.4396192945
 10
-17.6238242099
 20
20.4481023365
 10
-17.632373139
 20
20.4566858614
 10
-17.640307553
 20
20.4652469855
 10
-17.6477921138
 20
20.4739085923
 10
-17.6547843711
 20
20.4825651408
 10
-17.6612446556
 20
20.4911708475
 10
-17.6672126367
 20
20.4997714957
 10
-17.6727648723
 20
20.5083988947
 10
-17.6779100285
 20
20.5170514565
 10
-17.6826394392
 20
20.5257307689
 10
-17.6870036646
 20
20.5344734054
 10
-17.6910101237
 20
20.5432775381
 10
-17.6946513975
 20
20.5521449949
 10
-17.6979557889
 20
20.561117832
 10
-17.7009301648
 20
20.5701938103
 10
-17.7035676584
 20
20.579375169
 10
-17.7058759729
 20
20.5887106819
 10
-17.7078620363
 20
20.5981963125
 10
-17.7095189206
 20
20.6078360973
 10
-17.7108335442
 20
20.6176909196
 10
-17.7118086843
 20
20.6278471161
 10
-17.7124415637
 20
20.6382183501
 10
-17.7127107689
 20
20.6486064953
 10
-17.7126014197
 20
20.6590329816
 10
-17.7121283963
 20
20.6694763791
 10
-17.7113149257
 20
20.6796742716
 10
-17.7101612818
 20
20.6895227285
 10
-17.7086671908
 20
20.6991256804
 10
-17.7068550582
 20
20.7085325026
 10
-17.7047318656
 20
20.7177422325
 10
-17.7022906313
 20
20.7267558328
 10
-17.6995328166
 20
20.7356255666
 10
-17.6964651444
 20
20.7443541034
 10
-17.6930808916
 20
20.7529387737
 10
-17.6893613506
 20
20.7614238328
 10
-17.6853134602
 20
20.769811631
 10
-17.6809302815
 20
20.778099818
 10
-17.6761722901
 20
20.7863255974
 10
-17.6710473159
 20
20.7944910182
 10
-17.6655475291
 20
20.8025940316
 10
-17.6596099159
 20
20.8106656938
 10
-17.6531960846
 20
20.8187499551
 10
-17.6463444269
 20
20.8268028653
 10
-17.6391071042
 20
20.8347236308
 10
-17.631406976
 20
20.8425715941
 10
-17.6233211827
 20
20.8502874127
 10
-17.6151333072
 20
20.8575922647
 10
-17.6069848886
 20
20.8643528323
 10
-17.5987343877
 20
20.8707024334
 10
-17.5902407697
 20
20.8767621993
 10
-17.5814787782
 20
20.8825650116
 10
-17.5724736696
 20
20.8880779888
 10
-17.5631601782
 20
20.8933236177
 10
-17.5535407188
 20
20.8983106142
 10
-17.5436128768
 20
20.9030302626
 10
-17.5333041426
 20
20.9074789023
 10
-17.5226202262
 20
20.9116635702
 10
-17.5115554178
 20
20.9155772295
 10
-17.5000200785
 20
20.9191951097
 10
-17.4880219716
 20
20.9225243971
 10
-17.4755533338
 20
20.9255579054
 10
-17.4625012369
 20
20.9282493054
 10
-17.448885679
 20
20.9306087346
 10
-17.434686662
 20
20.9326260555
 10
-17.4197312626
 20
20.9342245263
 10
-17.4039618399
 20
20.9353785664
 10
-17.3874360349
 20
20.9361137565
 10
-17.3701538476
 20
20.9364300965
  0
LWPOLYLINE
  5
397
100
AcDbEntity
  8
ASSI
100
AcDbPolyline
 62
7
  6
CONTINUOUS
 90
118
 70
0
 10
-17.3597706058
 20
20.3481328931
 10
-17.3648951849
 20
20.3482034903
 10
-17.3675517875
 20
20.3482576141
 10
-17.3702787029
 20
20.3483281959
 10
-17.3730761175
 20
20.3484149483
 10
-17.375943845
 20
20.3485181586
 10
-17.3788880208
 20
20.3486422069
 10
-17.3819087927
 20
20.3487867583
 10
-17.3850060129
 20
20.3489521477
 10
-17.3881853736
 20
20.3491437594
 10
-17.3914464597
 20
20.3493611417
 10
-17.3947896863
 20
20.3496047465
 10
-17.3982219906
 20
20.3498813132
 10
-17.4017431506
 20
20.3501902729
 10
-17.4053533883
 20
20.3505321946
 10
-17.4090603073
 20
20.3509155254
 10
-17.4128636654
 20
20.351339533
 10
-17.4167637048
 20
20.3518049496
 10
-17.420768755
 20
20.3523224194
 10
-17.4248785556
 20
20.3528909914
 10
-17.4290933671
 20
20.3535116166
 10
-17.4334222999
 20
20.3541977924
 10
-17.4378650531
 20
20.3549482649
 10
-17.4424219276
 20
20.355764288
 10
-17.4471029367
 20
20.3566631201
 10
-17.4519077569
 20
20.3576430892
 10
-17.4568367116
 20
20.3587058674
 10
-17.4619007844
 20
20.3598737291
 10
-17.467099638
 20
20.3611444119
 10
-17.4724336097
 20
20.3625201781
 10
-17.4779146949
 20
20.3640300898
 10
-17.4835425735
 20
20.3656710383
 10
-17.4893175657
 20
20.3674461322
 10
-17.4952526273
 20
20.3693937599
 10
-17.5013475213
 20
20.3715095832
 10
-17.5076024848
 20
20.3737979403
 10
-17.5140311849
 20
20.3763102335
 10
-17.5206335871
 20
20.3790402993
 10
-17.5274097259
 20
20.3819943011
 10
-17.5343733729
 20
20.3852421314
 10
-17.5415249668
 20
20.3887749108
 10
-17.5488640688
 20
20.3926015187
 10
-17.556403134
 20
20.396818485
 10
-17.5641444046
 20
20.4014135402
 10
-17.5720856384
 20
20.4063989539
 10
-17.5802325647
 20
20.4119080655
 10
-17.5886267965
 20
20.4179683292
 10
-17.5972267209
 20
20.4245522908
 10
-17.6059132283
 20
20.4317109272
 10
-17.6148254275
 20
20.4396192945
 10
-17.6238242099
 20
20.4481023365
 10
-17.632373139
 20
20.4566858614
 10
-17.640307553
 20
20.4652469855
 10
-17.6477921138
 20
20.4739085923
 10
-17.6547843711
 20
20.4825651408
 10
-17.6612446556
 20
20.4911708475
 10
-17.6672126367
 20
20.4997714957
 10
-17.6727648723
 20
20.5083988947
 10
-17.6779100285
 20
20.5170514565
 10
-17.6826394392
 20
20.5257307689
 10
-17.6870036646
 20
20.5344734054
 10
-17.6910101237
 20
20.5432775381
 10
-17.6946513975
 20
20.5521449949
 10
-17.6979557889
 20
20.561117832
 10
-17.7009301648
 20
20.5701938103
 10
-17.7035676584
 20
20.579375169
 10
-17.7058759729
 20
20.5887106819
 10
-17.7078620363
 20
20.5981963125
 10
-17.7095189206
 20
20.6078360973
 10
-17.7108335442
 20
20.6176909196
 10
-17.7118086843
 20
20.6278471161
 10
-17.7124415637
 20
20.6382183501
 10
-17.7127107689
 20
20.6486064953
 10
-17.7126014197
 20
20.6590329816
 10
-17.7121283963
 20
20.6694763791
 10
-17.7113149257
 20
20.6796742716
 10
-17.7101612818
 20
20.6895227285
 10
-17.7086671908
 20
20.6991256804
 10
-17.7068550582
 20
20.7085325026
 10
-17.7047318656
 20
20.7177422325
 10
-17.7022906313
 20
20.7267558328
 10
-17.6995328166
 20
20.7356255666
 10
-17.6964651444
 20
20.7443541034
 10
-17.6930808916
 20
20.7529387737
 10
-17.6893613506
 20
20.7614238328
 10
-17.6853134602
 20
20.769811631
 10
-17.6809302815
 20
20.778099818
 10
-17.6761722901
 20
20.7863255974
 10
-17.6710473159
 20
20.7944910182
 10
-17.6655475291
 20
20.8025940316
 10
-17.6596099159
 20
20.8106656938
 10
-17.6531960846
 20
20.8187499551
 10
-17.6463444269
 20
20.8268028653
 10
-17.6391071042
 20
20.8347236308
 10
-17.631406976
 20
20.8425715941
 10
-17.6233211827
 20
20.8502874127
 10
-17.6151333072
 20
20.8575922647
 10
-17.6069848886
 20
20.8643528323
 10
-17.5987343877
 20
20.8707024334
 10
-17.5902407697
 20
20.8767621993
 10
-17.5814787782
 20
20.8825650116
 10
-17.5724736696
 20
20.8880779888
 10
-17.5631601782
 20
20.8933236177
 10
-17.5535407188
 20
20.8983106142
 10
-17.5436128768
 20
20.9030302626
 10
-17.5333041426
 20
20.9074789023
 10
-17.5226202262
 20
20.9116635702
 10
-17.5115554178
 20
20.9155772295
 10
-17.5000200785
 20
20.9191951097
 10
-17.4880219716
 20
20.9225243971
 10
-17.4755533338
 20
20.9255579054
 10
-17.4625012369
 20
20.9282493054
 10
-17.448885679
 20
20.9306087346
 10
-17.434686662
 20
20.9326260555
 10
-17.4197312626
 20
20.9342245263
 10
-17.4039618399
 20
20.9353785664
 10
-17.3874360349
 20
20.9361137565
 10
-17.3701538476
 20
20.9364300965
  0
LWPOLYLINE
  5
398
100
AcDbEntity
  8
0
100
AcDbPolyline
 62
7
  6
CONTINUOUS
 90
120
 70
0
 10
-17.3701538476
 20
20.9364300965
 10
-17.3528593636
 20
20.9361172409
 10
-17.3363474899
 20
20.9353937964
 10
-17.3206182264
 20
20.9342597629
 10
-17.3057260331
 20
20.932688026
 10
-17.2916164501
 20
20.9307057
 10
-17.2781260976
 20
20.9283941288
 10
-17.2652407696
 20
20.9257635503
 10
-17.2529746721
 20
20.9228037264
 10
-17.241207043
 20
20.9195652871
 10
-17.2299301565
 20
20.9160559378
 10
-17.2191517384
 20
20.9122679731
 10
-17.2087742039
 20
20.9082289053
 10
-17.1987905869
 20
20.9039456069
 10
-17.1892078535
 20
20.8994112056
 10
-17.179949318
 20
20.8946325968
 10
-17.1710063824
 20
20.8896134644
 10
-17.1623876447
 20
20.8843501245
 10
-17.1540422139
 20
20.878838421
 10
-17.1460057047
 20
20.8731205965
 10
-17.1382425023
 20
20.8671544082
 10
-17.1305948718
 20
20.8608089724
 10
-17.1229376135
 20
20.8539702018
 10
-17.1153959269
 20
20.8467521836
 10
-17.108187676
 20
20.8393662949
 10
-17.1013728675
 20
20.8318597617
 10
-17.0948914946
 20
20.824185358
 10
-17.0887814003
 20
20.8164127839
 10
-17.0830702577
 20
20.8085766356
 10
-17.0777303937
 20
20.8006423168
 10
-17.0727166319
 20
20.7925757385
 10
-17.068021912
 20
20.7843793867
 10
-17.0636532943
 20
20.7760507754
 10
-17.0595867837
 20
20.7675483573
 10
-17.055816075
 20
20.7588753846
 10
-17.0523474734
 20
20.7500286051
 10
-17.0491759002
 20
20.7409567156
 10
-17.0462948991
 20
20.731663871
 10
-17.0437109265
 20
20.7221459163
 10
-17.0414382717
 20
20.7123390827
 10
-17.0394696028
 20
20.7022486186
 10
-17.0378122519
 20
20.6918692756
 10
-17.0365025044
 20
20.6811215393
 10
-17.0355394243
 20
20.6698671763
 10
-17.0349239475
 20
20.6582444199
 10
-17.0346951677
 20
20.6465884557
 10
-17.0348767305
 20
20.6348862225
 10
-17.0354449903
 20
20.6231507814
 10
-17.0363681034
 20
20.6117565006
 10
-17.0376464794
 20
20.6008525405
 10
-17.0392797088
 20
20.5902897406
 10
-17.0412347185
 20
20.5799949883
 10
-17.0435043116
 20
20.569964189
 10
-17.0460956849
 20
20.5602014373
 10
-17.0489973565
 20
20.5506459043
 10
-17.0522028648
 20
20.5412938574
 10
-17.0557186713
 20
20.5321490292
 10
-17.0595526788
 20
20.523161789
 10
-17.0636985506
 20
20.5143291
 10
-17.0681626234
 20
20.5056539991
 10
-17.0729718106
 20
20.4970959663
 10
-17.0781193572
 20
20.4886523445
 10
-17.0836120182
 20
20.4803257909
 10
-17.0894969728
 20
20.4720837568
 10
-17.0958014904
 20
20.463891469
 10
-17.1024983014
 20
20.4557837008
 10
-17.1095527767
 20
20.4478322228
 10
-17.1170968823
 20
20.4399374507
 10
-17.1249986521
 20
20.4321989688
 10
-17.1328275582
 20
20.4249873017
 10
-17.1404758951
 20
20.4184431202
 10
-17.1480513683
 20
20.4124257534
 10
-17.1554465663
 20
20.4068837134
 10
-17.1626234666
 20
20.4018401003
 10
-17.1696200916
 20
20.397271814
 10
-17.1764430969
 20
20.3930580665
 10
-17.1830912843
 20
20.3891874517
 10
-17.189565852
 20
20.3856713757
 10
-17.1958770501
 20
20.3824232681
 10
-17.2020244417
 20
20.3794352909
 10
-17.2080084638
 20
20.3767152822
 10
-17.2138406776
 20
20.3742001861
 10
-17.2195210664
 20
20.371884519
 10
-17.2250496469
 20
20.3697737646
 10
-17.2304380302
 20
20.3678213177
 10
-17.2356863804
 20
20.3660232934
 10
-17.2407945333
 20
20.3643835765
 10
-17.2457736072
 20
20.3628672164
 10
-17.250623858
 20
20.3614714109
 10
-17.2553450298
 20
20.3601989622
 10
-17.2599474739
 20
20.3590233263
 10
-17.2644314652
 20
20.3579424548
 10
-17.2687967286
 20
20.356958396
 10
-17.2730527902
 20
20.3560507503
 10
-17.2771999013
 20
20.3552180009
 10
-17.2812378105
 20
20.3544616647
 10
-17.2851752899
 20
20.3537658932
 10
-17.2890126313
 20
20.353129537
 10
-17.2927495429
 20
20.3525537454
 10
-17.2963939223
 20
20.352026118
 10
-17.2999459753
 20
20.351545789
 10
-17.3034054961
 20
20.3511136241
 10
-17.3067797649
 20
20.3507198205
 10
-17.3100689076
 20
20.3503637128
 10
-17.3132727981
 20
20.3500459664
 10
-17.3163983395
 20
20.3497587745
 10
-17.3194460159
 20
20.349501595
 10
-17.322415343
 20
20.3492749701
 10
-17.3253117707
 20
20.3490727198
 10
-17.3281353811
 20
20.3488944525
 10
-17.330886092
 20
20.3487405599
 10
-17.3335691069
 20
20.3486060364
 10
-17.3361842338
 20
20.3484905692
 10
-17.3387316647
 20
20.3483944712
 10
-17.3412171784
 20
20.3483136756
 10
-17.3436406009
 20
20.3482479093
 10
-17.3460021062
 20
20.3481974455
 10
-17.3483079958
 20
20.3481590361
 10
-17.3505603701
 20
20.3481315986
 10
-17.3527571288
 20
20.3481162156
  0
LWPOLYLINE
  5
399
100
AcDbEntity
  8
ASSI
100
AcDbPolyline
 62
7
  6
CONTINUOUS
 90
120
 70
0
 10
-17.3701538476
 20
20.9364300965
 10
-17.3528593636
 20
20.9361172409
 10
-17.3363474899
 20
20.9353937964
 10
-17.3206182264
 20
20.9342597629
 10
-17.3057260331
 20
20.932688026
 10
-17.2916164501
 20
20.9307057
 10
-17.2781260976
 20
20.9283941288
 10
-17.2652407696
 20
20.9257635503
 10
-17.2529746721
 20
20.9228037264
 10
-17.241207043
 20
20.9195652871
 10
-17.2299301565
 20
20.9160559378
 10
-17.2191517384
 20
20.9122679731
 10
-17.2087742039
 20
20.9082289053
 10
-17.1987905869
 20
20.9039456069
 10
-17.1892078535
 20
20.8994112056
 10
-17.179949318
 20
20.8946325968
 10
-17.1710063824
 20
20.8896134644
 10
-17.1623876447
 20
20.8843501245
 10
-17.1540422139
 20
20.878838421
 10
-17.1460057047
 20
20.8731205965
 10
-17.1382425023
 20
20.8671544082
 10
-17.1305948718
 20
20.8608089724
 10
-17.1229376135
 20
20.8539702018
 10
-17.1153959269
 20
20.8467521836
 10
-17.108187676
 20
20.8393662949
 10
-17.1013728675
 20
20.8318597617
 10
-17.0948914946
 20
20.824185358
 10
-17.0887814003
 20
20.8164127839
 10
-17.0830702577
 20
20.8085766356
 10
-17.0777303937
 20
20.8006423168
 10
-17.0727166319
 20
20.7925757385
 10
-17.068021912
 20
20.7843793867
 10
-17.0636532943
 20
20.7760507754
 10
-17.0595867837
 20
20.7675483573
 10
-17.055816075
 20
20.7588753846
 10
-17.0523474734
 20
20.7500286051
 10
-17.0491759002
 20
20.7409567156
 10
-17.0462948991
 20
20.731663871
 10
-17.0437109265
 20
20.7221459163
 10
-17.0414382717
 20
20.7123390827
 10
-17.0394696028
 20
20.7022486186
 10
-17.0378122519
 20
20.6918692756
 10
-17.0365025044
 20
20.6811215393
 10
-17.0355394243
 20
20.6698671763
 10
-17.0349239475
 20
20.6582444199
 10
-17.0346951677
 20
20.6465884557
 10
-17.0348767305
 20
20.6348862225
 10
-17.0354449903
 20
20.6231507814
 10
-17.0363681034
 20
20.6117565006
 10
-17.0376464794
 20
20.6008525405
 10
-17.0392797088
 20
20.5902897406
 10
-17.0412347185
 20
20.5799949883
 10
-17.0435043116
 20
20.569964189
 10
-17.0460956849
 20
20.5602014373
 10
-17.0489973565
 20
20.5506459043
 10
-17.0522028648
 20
20.5412938574
 10
-17.0557186713
 20
20.5321490292
 10
-17.0595526788
 20
20.523161789
 10
-17.0636985506
 20
20.5143291
 10
-17.0681626234
 20
20.5056539991
 10
-17.0729718106
 20
20.4970959663
 10
-17.0781193572
 20
20.4886523445
 10
-17.0836120182
 20
20.4803257909
 10
-17.0894969728
 20
20.4720837568
 10
-17.0958014904
 20
20.463891469
 10
-17.1024983014
 20
20.4557837008
 10
-17.1095527767
 20
20.4478322228
 10
-17.1170968823
 20
20.4399374507
 10
-17.1249986521
 20
20.4321989688
 10
-17.1328275582
 20
20.4249873017
 10
-17.1404758951
 20
20.4184431202
 10
-17.1480513683
 20
20.4124257534
 10
-17.1554465663
 20
20.4068837134
 10
-17.1626234666
 20
20.4018401003
 10
-17.1696200916
 20
20.397271814
 10
-17.1764430969
 20
20.3930580665
 10
-17.1830912843
 20
20.3891874517
 10
-17.189565852
 20
20.3856713757
 10
-17.1958770501
 20
20.3824232681
 10
-17.2020244417
 20
20.3794352909
 10
-17.2080084638
 20
20.3767152822
 10
-17.2138406776
 20
20.3742001861
 10
-17.2195210664
 20
20.371884519
 10
-17.2250496469
 20
20.3697737646
 10
-17.2304380302
 20
20.3678213177
 10
-17.2356863804
 20
20.3660232934
 10
-17.2407945333
 20
20.3643835765
 10
-17.2457736072
 20
20.3628672164
 10
-17.250623858
 20
20.3614714109
 10
-17.2553450298
 20
20.3601989622
 10
-17.2599474739
 20
20.3590233263
 10
-17.2644314652
 20
20.3579424548
 10
-17.2687967286
 20
20.356958396
 10
-17.2730527902
 20
20.3560507503
 10
-17.2771999013
 20
20.3552180009
 10
-17.2812378105
 20
20.3544616647
 10
-17.2851752899
 20
20.3537658932
 10
-17.2890126313
 20
20.353129537
 10
-17.2927495429
 20
20.3525537454
 10
-17.2963939223
 20
20.352026118
 10
-17.2999459753
 20
20.351545789
 10
-17.3034054961
 20
20.3511136241
 10
-17.3067797649
 20
20.3507198205
 10
-17.3100689076
 20
20.3503637128
 10
-17.3132727981
 20
20.3500459664
 10
-17.3163983395
 20
20.3497587745
 10
-17.3194460159
 20
20.349501595
 10
-17.322415343
 20
20.3492749701
 10
-17.3253117707
 20
20.3490727198
 10
-17.3281353811
 20
20.3488944525
 10
-17.330886092
 20
20.3487405599
 10
-17.3335691069
 20
20.3486060364
 10
-17.3361842338
 20
20.3484905692
 10
-17.3387316647
 20
20.3483944712
 10
-17.3412171784
 20
20.3483136756
 10
-17.3436406009
 20
20.3482479093
 10
-17.3460021062
 20
20.3481974455
 10
-17.3483079958
 20
20.3481590361
 10
-17.3505603701
 20
20.3481315986
 10
-17.3527571288
 20
20.3481162156
  0
LINE
  5
39A
100
AcDbEntity
  8
ASSI
100
AcDbLine
 62
7
  6
CONTINUOUS
 10
-21.0901442859
 20
21.6115971997
 11
-19.4400652859
 21
21.0818201997
  0
LINE
  5
39B
100
AcDbEntity
  8
ASSI
100
AcDbLine
 62
7
  6
CONTINUOUS
 10
-19.4400692859
 20
21.4118321997
 11
-19.7645672859
 21
21.5160171997
  0
LINE
  5
39C
100
AcDbEntity
  8
ASSI
100
AcDbLine
 62
7
  6
CONTINUOUS
 10
-20.0780792859
 20
21.6166791997
 11
-20.5762302859
 21
21.7766101997
  0
LWPOLYLINE
  5
39D
100
AcDbEntity
  8
0
100
AcDbPolyline
 62
7
  6
CONTINUOUS
 90
113
 70
0
 10
-16.6946468359
 20
19.7703164781
 10
-16.6834520482
 20
19.7664371463
 10
-16.6726277445
 20
19.7622995739
 10
-16.6621739247
 20
19.7579037606
 10
-16.6521130107
 20
19.7532490936
 10
-16.6424225806
 20
19.7483361858
 10
-16.6330353688
 20
19.7431668764
 10
-16.6239548897
 20
19.7377542881
 10
-16.6151776288
 20
19.7320852982
 10
-16.6066257776
 20
19.7261223769
 10
-16.5983110334
 20
19.7198825094
 10
-16.5902216988
 20
19.7133487104
 10
-16.5822448732
 20
19.7064324947
 10
-16.5742372111
 20
19.6990000854
 10
-16.566342058
 20
19.6911852592
 10
-16.5588765497
 20
19.6833008617
 10
-16.5519483302
 20
19.6754354498
 10
-16.5454497557
 20
19.6675004665
 10
-16.5393750303
 20
19.6595430861
 10
-16.533742334
 20
19.6515894393
 10
-16.5285334869
 20
19.6436133952
 10
-16.5236881536
 20
19.6355837363
 10
-16.519198722
 20
19.6275021932
 10
-16.5150728042
 20
19.6193670352
 10
-16.5112729012
 20
19.6111418524
 10
-16.5077923354
 20
19.6028287427
 10
-16.5046377844
 20
19.5944256082
 10
-16.5017917821
 20
19.5858897462
 10
-16.4992478923
 20
19.5772238202
 10
-16.4970125512
 20
19.5684251666
 10
-16.4950876016
 20
19.5594430921
 10
-16.4934675541
 20
19.5502067632
 10
-16.492157898
 20
19.5407870133
 10
-16.4911769448
 20
19.5313456499
 10
-16.4905552496
 20
19.5217439854
 10
-16.4902622572
 20
19.5121207073
 10
-16.4902246137
 20
19.5030536864
 10
-16.4904078265
 20
19.4950280572
 10
-16.4908463881
 20
19.4875586851
 10
-16.4915704228
 20
19.4797680365
 10
-16.4925612692
 20
19.4713356436
 10
-16.4938375887
 20
19.4625819742
 10
-16.4954854898
 20
19.4535908974
 10
-16.4975342034
 20
19.444310299
 10
-16.4999544986
 20
19.4347922931
 10
-16.5027447909
 20
19.4252770921
 10
-16.5058934174
 20
19.4158503283
 10
-16.509412041
 20
19.4064263693
 10
-16.5133340663
 20
19.3969885303
 10
-16.5177232732
 20
19.3874351844
 10
-16.5225158818
 20
19.3778679584
 10
-16.5275539566
 20
19.368575048
 10
-16.5327924982
 20
19.3596422267
 10
-16.538276506
 20
19.3509837211
 10
-16.543983043
 20
19.342630406
 10
-16.5498771477
 20
19.3346298401
 10
-16.5559937816
 20
19.3269344648
 10
-16.5624148919
 20
19.3194324784
 10
-16.569163202
 20
19.3120858769
 10
-16.5762159885
 20
19.3049326644
 10
-16.583587029
 20
19.2979750522
 10
-16.5913888174
 20
19.2911443978
 10
-16.5995088597
 20
19.2845093436
 10
-16.6076234512
 20
19.2782780285
 10
-16.615666118
 20
19.2725312218
 10
-16.623703334
 20
19.2671881541
 10
-16.631610816
 20
19.2622146554
 10
-16.6393523932
 20
19.2576284976
 10
-16.6469642365
 20
19.2534119088
 10
-16.6544305754
 20
19.2494774035
 10
-16.661767838
 20
19.2458116752
 10
-16.6689595962
 20
19.2424280304
 10
-16.6759407949
 20
19.2392789033
 10
-16.6826870807
 20
19.2363641721
 10
-16.6892228071
 20
19.2336839587
 10
-16.6955559796
 20
19.2311910625
 10
-16.7016817388
 20
19.2288828391
 10
-16.7076049441
 20
19.226761933
 10
-16.713348179
 20
19.2247890774
 10
-16.7189124228
 20
19.2229613416
 10
-16.7242966962
 20
19.2212816564
 10
-16.7295206439
 20
19.2197195472
 10
-16.7345851472
 20
19.2182727867
 10
-16.7394893248
 20
19.2169436022
 10
-16.744250178
 20
19.2157082009
 10
-16.7488684336
 20
19.2145648904
 10
-16.7533433647
 20
19.2135153631
 10
-16.7576897922
 20
19.2125409033
 10
-16.7619083436
 20
19.2116402088
 10
-16.7659983913
 20
19.2108145818
 10
-16.7699728731
 20
19.2100492132
 10
-16.773832321
 20
19.2093430953
 10
-16.777576203
 20
19.2086972358
 10
-16.7812158612
 20
19.2080998489
 10
-16.7847517379
 20
19.2075501483
 10
-16.7881833908
 20
19.2070489202
 10
-16.7915208342
 20
19.2065867377
 10
-16.7947644781
 20
19.2061629834
 10
-16.7979139124
 20
19.2057782747
 10
-16.8009779211
 20
19.2054250362
 10
-16.8039568265
 20
19.2051027797
 10
-16.8068503064
 20
19.2048119934
 10
-16.8096661775
 20
19.2045465666
 10
-16.8124046489
 20
19.2043061107
 10
-16.8150655117
 20
19.2040910143
 10
-16.8176559558
 20
19.2038963325
 10
-16.8201764874
 20
19.2037217562
 10
-16.8226266004
 20
19.2035675945
 10
-16.8250119668
 20
19.2034298292
 10
-16.8273320724
 20
19.2033082071
 10
-16.8295874313
 20
19.2032029814
 10
-16.8317852579
 20
19.2031108939
 10
-16.8339277808
 20
19.2030317494
  0
LWPOLYLINE
  5
39E
100
AcDbEntity
  8
ASSI
100
AcDbPolyline
 62
7
  6
CONTINUOUS
 90
113
 70
0
 10
-16.6946468359
 20
19.7703164781
 10
-16.6834520482
 20
19.7664371463
 10
-16.6726277445
 20
19.7622995739
 10
-16.6621739247
 20
19.7579037606
 10
-16.6521130107
 20
19.7532490936
 10
-16.6424225806
 20
19.7483361858
 10
-16.6330353688
 20
19.7431668764
 10
-16.6239548897
 20
19.7377542881
 10
-16.6151776288
 20
19.7320852982
 10
-16.6066257776
 20
19.7261223769
 10
-16.5983110334
 20
19.7198825094
 10
-16.5902216988
 20
19.7133487104
 10
-16.5822448732
 20
19.7064324947
 10
-16.5742372111
 20
19.6990000854
 10
-16.566342058
 20
19.6911852592
 10
-16.5588765497
 20
19.6833008617
 10
-16.5519483302
 20
19.6754354498
 10
-16.5454497557
 20
19.6675004665
 10
-16.5393750303
 20
19.6595430861
 10
-16.533742334
 20
19.6515894393
 10
-16.5285334869
 20
19.6436133952
 10
-16.5236881536
 20
19.6355837363
 10
-16.519198722
 20
19.6275021932
 10
-16.5150728042
 20
19.6193670352
 10
-16.5112729012
 20
19.6111418524
 10
-16.5077923354
 20
19.6028287427
 10
-16.5046377844
 20
19.5944256082
 10
-16.5017917821
 20
19.5858897462
 10
-16.4992478923
 20
19.5772238202
 10
-16.4970125512
 20
19.5684251666
 10
-16.4950876016
 20
19.5594430921
 10
-16.4934675541
 20
19.5502067632
 10
-16.492157898
 20
19.5407870133
 10
-16.4911769448
 20
19.5313456499
 10
-16.4905552496
 20
19.5217439854
 10
-16.4902622572
 20
19.5121207073
 10
-16.4902246137
 20
19.5030536864
 10
-16.4904078265
 20
19.4950280572
 10
-16.4908463881
 20
19.4875586851
 10
-16.4915704228
 20
19.4797680365
 10
-16.4925612692
 20
19.4713356436
 10
-16.4938375887
 20
19.4625819742
 10
-16.4954854898
 20
19.4535908974
 10
-16.4975342034
 20
19.444310299
 10
-16.4999544986
 20
19.4347922931
 10
-16.5027447909
 20
19.4252770921
 10
-16.5058934174
 20
19.4158503283
 10
-16.509412041
 20
19.4064263693
 10
-16.5133340663
 20
19.3969885303
 10
-16.5177232732
 20
19.3874351844
 10
-16.5225158818
 20
19.3778679584
 10
-16.5275539566
 20
19.368575048
 10
-16.5327924982
 20
19.3596422267
 10
-16.538276506
 20
19.3509837211
 10
-16.543983043
 20
19.342630406
 10
-16.5498771477
 20
19.3346298401
 10
-16.5559937816
 20
19.3269344648
 10
-16.5624148919
 20
19.3194324784
 10
-16.569163202
 20
19.3120858769
 10
-16.5762159885
 20
19.3049326644
 10
-16.583587029
 20
19.2979750522
 10
-16.5913888174
 20
19.2911443978
 10
-16.5995088597
 20
19.2845093436
 10
-16.6076234512
 20
19.2782780285
 10
-16.615666118
 20
19.2725312218
 10
-16.623703334
 20
19.2671881541
 10
-16.631610816
 20
19.2622146554
 10
-16.6393523932
 20
19.2576284976
 10
-16.6469642365
 20
19.2534119088
 10
-16.6544305754
 20
19.2494774035
 10
-16.661767838
 20
19.2458116752
 10
-16.6689595962
 20
19.2424280304
 10
-16.6759407949
 20
19.2392789033
 10
-16.6826870807
 20
19.2363641721
 10
-16.6892228071
 20
19.2336839587
 10
-16.6955559796
 20
19.2311910625
 10
-16.7016817388
 20
19.2288828391
 10
-16.7076049441
 20
19.226761933
 10
-16.713348179
 20
19.2247890774
 10
-16.7189124228
 20
19.2229613416
 10
-16.7242966962
 20
19.2212816564
 10
-16.7295206439
 20
19.2197195472
 10
-16.7345851472
 20
19.2182727867
 10
-16.7394893248
 20
19.2169436022
 10
-16.744250178
 20
19.2157082009
 10
-16.7488684336
 20
19.2145648904
 10
-16.7533433647
 20
19.2135153631
 10
-16.7576897922
 20
19.2125409033
 10
-16.7619083436
 20
19.2116402088
 10
-16.7659983913
 20
19.2108145818
 10
-16.7699728731
 20
19.2100492132
 10
-16.773832321
 20
19.2093430953
 10
-16.777576203
 20
19.2086972358
 10
-16.7812158612
 20
19.2080998489
 10
-16.7847517379
 20
19.2075501483
 10
-16.7881833908
 20
19.2070489202
 10
-16.7915208342
 20
19.2065867377
 10
-16.7947644781
 20
19.2061629834
 10
-16.7979139124
 20
19.2057782747
 10
-16.8009779211
 20
19.2054250362
 10
-16.8039568265
 20
19.2051027797
 10
-16.8068503064
 20
19.2048119934
 10
-16.8096661775
 20
19.2045465666
 10
-16.8124046489
 20
19.2043061107
 10
-16.8150655117
 20
19.2040910143
 10
-16.8176559558
 20
19.2038963325
 10
-16.8201764874
 20
19.2037217562
 10
-16.8226266004
 20
19.2035675945
 10
-16.8250119668
 20
19.2034298292
 10
-16.8273320724
 20
19.2033082071
 10
-16.8295874313
 20
19.2032029814
 10
-16.8317852579
 20
19.2031108939
 10
-16.8339277808
 20
19.2030317494
  0
LWPOLYLINE
  5
39F
100
AcDbEntity
  8
0
100
AcDbPolyline
 62
7
  6
CONTINUOUS
 90
34
 70
0
 10
-17.6647362859
 20
22.0609088103
 10
-17.6380610944
 20
22.0379605176
 10
-17.6095138917
 20
22.0146899937
 10
-17.5790946778
 20
21.9910972388
 10
-17.5469381078
 20
21.9671938354
 10
-17.5129095266
 20
21.9429682009
 10
-17.4766049688
 20
21.9183855873
 10
-17.4375198063
 20
21.8931656745
 10
-17.3961586672
 20
21.8675887825
 10
-17.353631471
 20
21.8424611238
 10
-17.3097725669
 20
21.8177505801
 10
-17.2647476057
 20
21.7934892697
 10
-17.2201634593
 20
21.7705797594
 10
-17.176765083
 20
21.7494418459
 10
-17.1338075215
 20
21.7296557326
 10
-17.0906627806
 20
21.7108645976
 10
-17.0471511702
 20
21.6929655092
 10
-17.0034523803
 20
21.676061399
 10
-16.9594774875
 20
21.6601042398
 10
-16.9152812945
 20
21.645120979
 10
-16.8708089986
 20
21.6310846692
 10
-16.8258072681
 20
21.6178664405
 10
-16.7796480325
 20
21.6053298374
 10
-16.7329593624
 20
21.5936113154
 10
-16.6873721373
 20
21.582991372
 10
-16.6430198495
 20
21.5735152376
 10
-16.5997690068
 20
21.5651376817
 10
-16.5588500126
 20
21.5580035106
 10
-16.5206637935
 20
21.5522442609
 10
-16.4848094228
 20
21.5477283959
 10
-16.4513145244
 20
21.5442061111
 10
-16.420188306
 20
21.5415941383
 10
-16.3914215599
 20
21.5399757457
 10
-16.3650142859
 20
21.5393509333
  0
LWPOLYLINE
  5
3A0
100
AcDbEntity
  8
ASSI
100
AcDbPolyline
 62
7
  6
CONTINUOUS
 90
34
 70
0
 10
-17.6647362859
 20
22.0609088103
 10
-17.6380610944
 20
22.0379605176
 10
-17.6095138917
 20
22.0146899937
 10
-17.5790946778
 20
21.9910972388
 10
-17.5469381078
 20
21.9671938354
 10
-17.5129095266
 20
21.9429682009
 10
-17.4766049688
 20
21.9183855873
 10
-17.4375198063
 20
21.8931656745
 10
-17.3961586672
 20
21.8675887825
 10
-17.353631471
 20
21.8424611238
 10
-17.3097725669
 20
21.8177505801
 10
-17.2647476057
 20
21.7934892697
 10
-17.2201634593
 20
21.7705797594
 10
-17.176765083
 20
21.7494418459
 10
-17.1338075215
 20
21.7296557326
 10
-17.0906627806
 20
21.7108645976
 10
-17.0471511702
 20
21.6929655092
 10
-17.0034523803
 20
21.676061399
 10
-16.9594774875
 20
21.6601042398
 10
-16.9152812945
 20
21.645120979
 10
-16.8708089986
 20
21.6310846692
 10
-16.8258072681
 20
21.6178664405
 10
-16.7796480325
 20
21.6053298374
 10
-16.7329593624
 20
21.5936113154
 10
-16.6873721373
 20
21.582991372
 10
-16.6430198495
 20
21.5735152376
 10
-16.5997690068
 20
21.5651376817
 10
-16.5588500126
 20
21.5580035106
 10
-16.5206637935
 20
21.5522442609
 10
-16.4848094228
 20
21.5477283959
 10
-16.4513145244
 20
21.5442061111
 10
-16.420188306
 20
21.5415941383
 10
-16.3914215599
 20
21.5399757457
 10
-16.3650142859
 20
21.5393509333
  0
LINE
  5
3A1
100
AcDbEntity
  8
0
100
AcDbLine
 62
7
  6
CONTINUOUS
 10
-17.8399792859
 20
21.3307281997
 11
-17.6647362859
 21
21.3307281997
  0
LINE
  5
3A2
100
AcDbEntity
  8
ASSI
100
AcDbLine
 62
7
  6
CONTINUOUS
 10
-17.8399792859
 20
21.3307281997
 11
-17.6647362859
 21
21.3307281997
  0
LINE
  5
3A3
100
AcDbEntity
  8
0
100
AcDbLine
 62
7
  6
CONTINUOUS
 10
-17.698148874
 20
22.2966531997
 11
-17.8399792859
 21
22.2966531997
  0
LINE
  5
3A4
100
AcDbEntity
  8
ASSI
100
AcDbLine
 62
7
  6
CONTINUOUS
 10
-17.698148874
 20
22.2966531997
 11
-17.8399792859
 21
22.2966531997
  0
LINE
  5
3A5
100
AcDbEntity
  8
0
100
AcDbLine
 62
7
  6
CONTINUOUS
 10
-17.4900141936
 20
22.6179321997
 11
-17.3127171634
 21
22.6179321997
  0
LINE
  5
3A6
100
AcDbEntity
  8
ASSI
100
AcDbLine
 62
7
  6
CONTINUOUS
 10
-17.4900141936
 20
22.6179321997
 11
-17.3127171634
 21
22.6179321997
  0
LINE
  5
3A7
100
AcDbEntity
  8
ASSI
100
AcDbLine
 62
7
  6
CONTINUOUS
 10
-21.0901442859
 20
22.6914191997
 11
-19.4400692859
 21
22.6914191997
  0
LWPOLYLINE
  5
3A8
100
AcDbEntity
  8
0
100
AcDbPolyline
 62
7
  6
CONTINUOUS
 90
37
 70
0
 10
-16.3650142859
 20
21.7271117512
 10
-16.4116738325
 20
21.7309512128
 10
-16.4558602981
 20
21.7352744478
 10
-16.4975736827
 20
21.7400814561
 10
-16.5366454052
 20
21.7454418363
 10
-16.5732440467
 20
21.7512859899
 10
-16.6078753508
 20
21.7574051212
 10
-16.6405326377
 20
21.7637637677
 10
-16.671222587
 20
21.7703973918
 10
-16.7004709816
 20
21.7772035855
 10
-16.7268266926
 20
21.7837041872
 10
-16.7517408489
 20
21.7903773583
 10
-16.7800926194
 20
21.7985551753
 10
-16.8141335076
 20
21.8087497622
 10
-16.8516120102
 20
21.8204489948
 10
-16.8906527855
 20
21.8334485778
 10
-16.9307339013
 20
21.8476198182
 10
-16.9723772899
 20
21.8630914088
 10
-17.0152734064
 20
21.8800451325
 10
-17.0597106355
 20
21.8986534109
 10
-17.1054005926
 20
21.9187438224
 10
-17.151168578
 20
21.9399808848
 10
-17.1968101366
 20
21.9623653097
 10
-17.2425297236
 20
21.9858963855
 10
-17.2877660058
 20
22.0102364959
 10
-17.3328069097
 20
22.0355781583
 10
-17.3773645087
 20
22.0617288553
 10
-17.4200136895
 20
22.0877734179
 10
-17.460536457
 20
22.1136426614
 10
-17.4991508064
 20
22.1394057706
 10
-17.5350856098
 20
22.16435513
 10
-17.5678887445
 20
22.1882139089
 10
-17.5980123333
 20
22.2112589381
 10
-17.6260416166
 20
22.2336130941
 10
-17.6521716746
 20
22.2553173358
 10
-17.676207427
 20
22.2763307044
 10
-17.698148874
 20
22.2966531997
  0
LWPOLYLINE
  5
3A9
100
AcDbEntity
  8
ASSI
100
AcDbPolyline
 62
7
  6
CONTINUOUS
 90
37
 70
0
 10
-16.3650142859
 20
21.7271117512
 10
-16.4116738325
 20
21.7309512128
 10
-16.4558602981
 20
21.7352744478
 10
-16.4975736827
 20
21.7400814561
 10
-16.5366454052
 20
21.7454418363
 10
-16.5732440467
 20
21.7512859899
 10
-16.6078753508
 20
21.7574051212
 10
-16.6405326377
 20
21.7637637677
 10
-16.671222587
 20
21.7703973918
 10
-16.7004709816
 20
21.7772035855
 10
-16.7268266926
 20
21.7837041872
 10
-16.7517408489
 20
21.7903773583
 10
-16.7800926194
 20
21.7985551753
 10
-16.8141335076
 20
21.8087497622
 10
-16.8516120102
 20
21.8204489948
 10
-16.8906527855
 20
21.8334485778
 10
-16.9307339013
 20
21.8476198182
 10
-16.9723772899
 20
21.8630914088
 10
-17.0152734064
 20
21.8800451325
 10
-17.0597106355
 20
21.8986534109
 10
-17.1054005926
 20
21.9187438224
 10
-17.151168578
 20
21.9399808848
 10
-17.1968101366
 20
21.9623653097
 10
-17.2425297236
 20
21.9858963855
 10
-17.2877660058
 20
22.0102364959
 10
-17.3328069097
 20
22.0355781583
 10
-17.3773645087
 20
22.0617288553
 10
-17.4200136895
 20
22.0877734179
 10
-17.460536457
 20
22.1136426614
 10
-17.4991508064
 20
22.1394057706
 10
-17.5350856098
 20
22.16435513
 10
-17.5678887445
 20
22.1882139089
 10
-17.5980123333
 20
22.2112589381
 10
-17.6260416166
 20
22.2336130941
 10
-17.6521716746
 20
22.2553173358
 10
-17.676207427
 20
22.2763307044
 10
-17.698148874
 20
22.2966531997
  0
LWPOLYLINE
  5
3AA
100
AcDbEntity
  8
0
100
AcDbPolyline
 62
7
  6
CONTINUOUS
 90
28
 70
0
 10
-17.8650142859
 20
23.0503690446
 10
-17.8541136469
 20
23.0448272077
 10
-17.8428595164
 20
23.03860881
 10
-17.8312518943
 20
23.0317138516
 10
-17.8193184604
 20
23.0242028656
 10
-17.807031535
 20
23.0160153188
 10
-17.7943080791
 20
23.0069696121
 10
-17.7811546423
 20
22.9970880092
 10
-17.7675646751
 20
22.9863482464
 10
-17.7534354907
 20
22.9745019331
 10
-17.7387084685
 20
22.9615039179
 10
-17.7234422291
 20
22.9473993522
 10
-17.7077099471
 20
22.9320752999
 10
-17.6912338301
 20
22.9152100773
 10
-17.6742916706
 20
22.8971253682
 10
-17.6577900209
 20
22.8786732871
 10
-17.6420640575
 20
22.860187862
 10
-17.626778604
 20
22.841335065
 10
-17.6118346832
 20
22.8219649269
 10
-17.5972296889
 20
22.8020896752
 10
-17.5829662274
 20
22.7816970824
 10
-17.5689531391
 20
22.7606004969
 10
-17.5551576653
 20
22.7387722064
 10
-17.5416125648
 20
22.7162399231
 10
-17.5283249555
 20
22.6929001323
 10
-17.5152972103
 20
22.668718329
 10
-17.5025269563
 20
22.6437290181
 10
-17.4900141936
 20
22.6179321997
  0
LWPOLYLINE
  5
3AB
100
AcDbEntity
  8
ASSI
100
AcDbPolyline
 62
7
  6
CONTINUOUS
 90
28
 70
0
 10
-17.8650142859
 20
23.0503690446
 10
-17.8541136469
 20
23.0448272077
 10
-17.8428595164
 20
23.03860881
 10
-17.8312518943
 20
23.0317138516
 10
-17.8193184604
 20
23.0242028656
 10
-17.807031535
 20
23.0160153188
 10
-17.7943080791
 20
23.0069696121
 10
-17.7811546423
 20
22.9970880092
 10
-17.7675646751
 20
22.9863482464
 10
-17.7534354907
 20
22.9745019331
 10
-17.7387084685
 20
22.9615039179
 10
-17.7234422291
 20
22.9473993522
 10
-17.7077099471
 20
22.9320752999
 10
-17.6912338301
 20
22.9152100773
 10
-17.6742916706
 20
22.8971253682
 10
-17.6577900209
 20
22.8786732871
 10
-17.6420640575
 20
22.860187862
 10
-17.626778604
 20
22.841335065
 10
-17.6118346832
 20
22.8219649269
 10
-17.5972296889
 20
22.8020896752
 10
-17.5829662274
 20
22.7816970824
 10
-17.5689531391
 20
22.7606004969
 10
-17.5551576653
 20
22.7387722064
 10
-17.5416125648
 20
22.7162399231
 10
-17.5283249555
 20
22.6929001323
 10
-17.5152972103
 20
22.668718329
 10
-17.5025269563
 20
22.6437290181
 10
-17.4900141936
 20
22.6179321997
  0
LINE
  5
3AC
100
AcDbEntity
  8
DRAFT
100
AcDbLine
 62
7
  6
CONTINUOUS
 10
-1.5400612859
 20
24.8781541997
 11
-2.0550720387
 21
24.8353925476
  0
LINE
  5
3AD
100
AcDbEntity
  8
ASSI
100
AcDbLine
 62
7
  6
CONTINUOUS
 10
-1.5400612859
 20
24.8781541997
 11
-2.0550720387
 21
24.8353925476
  0
LINE
  5
3AE
100
AcDbEntity
  8
0
100
AcDbLine
 62
7
  6
CONTINUOUS
 10
-17.5338252137
 20
22.9851091997
 11
-16.3650142859
 21
22.9851091997
  0
LINE
  5
3AF
100
AcDbEntity
  8
ASSI
100
AcDbLine
 62
7
  6
CONTINUOUS
 10
-17.5338252137
 20
22.9851091997
 11
-16.3650142859
 21
22.9851091997
  0
LINE
  5
3B0
100
AcDbEntity
  8
ASSI
100
AcDbLine
 62
7
  6
CONTINUOUS
 10
-20.3833452859
 20
23.0168861997
 11
-20.7848812859
 21
23.0168821997
  0
LINE
  5
3B1
100
AcDbEntity
  8
0
100
AcDbLine
 62
7
  6
CONTINUOUS
 10
-16.3650142859
 20
23.1686981997
 11
-17.8650142859
 21
23.1686981997
  0
LINE
  5
3B2
100
AcDbEntity
  8
ASSI
100
AcDbLine
 62
7
  6
CONTINUOUS
 10
-16.3650142859
 20
23.1686981997
 11
-17.8650142859
 21
23.1686981997
  0
LINE
  5
3B3
100
AcDbEntity
  8
ASSI
100
AcDbLine
 62
7
  6
CONTINUOUS
 10
-19.4400692859
 20
23.0214361997
 11
-20.0780832859
 21
23.0214731997
  0
LINE
  5
3B4
100
AcDbEntity
  8
DRAFT
100
AcDbLine
 62
7
  6
CONTINUOUS
 10
-35.2250505331
 20
24.8353925476
 11
-35.7400612859
 21
24.8781541997
  0
LINE
  5
3B5
100
AcDbEntity
  8
ASSI
100
AcDbLine
 62
7
  6
CONTINUOUS
 10
-35.2250505331
 20
24.8353925476
 11
-35.7400612859
 21
24.8781541997
  0
LINE
  5
3B6
100
AcDbEntity
  8
RACCORDO
100
AcDbLine
 62
7
  6
CONTINUOUS
 10
-1.9366510493
 20
6.1783833341
 11
-1.9314826421
 21
6.1799280783
  0
LINE
  5
3B7
100
AcDbEntity
  8
RACCORDO
100
AcDbLine
 62
7
  6
CONTINUOUS
 10
-14.9936511244
 20
24.8310917697
 11
-14.325701932
 21
24.8344572047
  0
LINE
  5
3B8
100
AcDbEntity
  8
ASSI
100
AcDbLine
 62
7
  6
CONTINUOUS
 10
-14.9936511244
 20
24.8310917697
 11
-14.325701932
 21
24.8344572047
  0
LINE
  5
3B9
100
AcDbEntity
  8
RACCORDO
100
AcDbLine
 62
7
  6
CONTINUOUS
 10
-15.3936511244
 20
24.8301564269
 11
-21.8864714474
 21
24.8301564269
  0
LINE
  5
3BA
100
AcDbEntity
  8
ASSI
100
AcDbLine
 62
7
  6
CONTINUOUS
 10
-15.3936511244
 20
24.8301564269
 11
-21.8864714474
 21
24.8301564269
  0
LINE
  5
3BB
100
AcDbEntity
  8
RACCORDO
100
AcDbLine
 62
7
  6
CONTINUOUS
 10
-35.2250505331
 20
24.8353925476
 11
-23.3544206399
 21
24.8353925476
  0
LINE
  5
3BC
100
AcDbEntity
  8
ASSI
100
AcDbLine
 62
7
  6
CONTINUOUS
 10
-35.2250505331
 20
24.8353925476
 11
-23.3544206399
 21
24.8353925476
  0
LINE
  5
3BD
100
AcDbEntity
  8
RACCORDO
100
AcDbLine
 62
7
  6
CONTINUOUS
 10
-13.925701932
 20
24.8353925476
 11
-2.0550720387
 21
24.8353925476
  0
LINE
  5
3BE
100
AcDbEntity
  8
ASSI
100
AcDbLine
 62
7
  6
CONTINUOUS
 10
-13.925701932
 20
24.8353925476
 11
-2.0550720387
 21
24.8353925476
  0
LINE
  5
3BF
100
AcDbEntity
  8
DRAFT
100
AcDbLine
 62
7
  6
CONTINUOUS
 10
-35.7400612859
 20
24.8781541997
 11
-1.5400612859
 21
24.8781541997
  0
LINE
  5
3C0
100
AcDbEntity
  8
ASSI
100
AcDbLine
 62
7
  6
CONTINUOUS
 10
-35.7400612859
 20
24.8781541997
 11
-1.5400612859
 21
24.8781541997
  0
LINE
  5
3C1
100
AcDbEntity
  8
RACCORDO
100
AcDbLine
 62
7
  6
CONTINUOUS
 10
-22.9544206399
 20
24.8344572047
 11
-22.2864714474
 21
24.8310917697
  0
LINE
  5
3C2
100
AcDbEntity
  8
ASSI
100
AcDbLine
 62
7
  6
CONTINUOUS
 10
-22.9544206399
 20
24.8344572047
 11
-22.2864714474
 21
24.8310917697
  0
LINE
  5
3C3
100
AcDbEntity
  8
RACCORDO
100
AcDbLine
 62
7
  6
CONTINUOUS
 10
-1.9366510493
 20
21.1779250654
 11
-1.9314826421
 21
21.1763803211
  0
LINE
  5
3C4
100
AcDbEntity
  8
RACCORDO
100
AcDbLine
 62
253
  6
CONTINUOUS
 10
-5.3400612859
 20
17.4781541997
 11
-5.3400612859
 21
18.8781541997
  0
LINE
  5
3C5
100
AcDbEntity
  8
ASSI
100
AcDbLine
 62
253
  6
CONTINUOUS
 10
-5.3400612859
 20
17.4781541997
 11
-5.3400612859
 21
18.8781541997
  0
LINE
  5
3C6
100
AcDbEntity
  8
RACCORDO
100
AcDbLine
 62
7
  6
CONTINUOUS
 10
-1.9416171354
 20
6.1768446685
 11
-1.9366510493
 21
6.1783833341
  0
LINE
  5
3C7
100
AcDbEntity
  8
RACCORDO
100
AcDbLine
 62
7
  6
CONTINUOUS
 10
-36.7363565014
 20
26.0781541997
 11
-0.5437660704
 21
26.0781541997
  0
LINE
  5
3C8
100
AcDbEntity
  8
ASSI
100
AcDbLine
 62
7
  6
CONTINUOUS
 10
-36.7363565014
 20
26.0781541997
 11
-0.5437660704
 21
26.0781541997
  0
LINE
  5
3C9
100
AcDbEntity
  8
RACCORDO
100
AcDbLine
 62
7
  6
CONTINUOUS
 10
-1.9416171354
 20
21.1794637309
 11
-1.9366510493
 21
21.1779250654
  0
LINE
  5
3CA
100
AcDbEntity
  8
RACCORDO
100
AcDbLine
 62
7
  6
CONTINUOUS
 10
-5.0400612859
 20
17.7781541997
 11
-5.0400612859
 21
18.5781541997
  0
LINE
  5
3CB
100
AcDbEntity
  8
ASSI
100
AcDbLine
 62
7
  6
CONTINUOUS
 10
-5.0400612859
 20
17.7781541997
 11
-5.0400612859
 21
18.5781541997
  0
LINE
  5
3CC
100
AcDbEntity
  8
RACCORDO
100
AcDbLine
 62
7
  6
CONTINUOUS
 10
-1.5508174336
 20
22.642972426
 11
-1.9900612859
 21
21.2062705214
  0
LINE
  5
3CD
100
AcDbEntity
  8
ASSI
100
AcDbLine
 62
7
  6
CONTINUOUS
 10
-1.5508174336
 20
22.642972426
 11
-1.9900612859
 21
21.2062705214
  0
LINE
  5
3CE
100
AcDbEntity
  8
RACCORDO
100
AcDbLine
 62
253
  6
CONTINUOUS
 10
-1.5400612859
 20
22.4566618891
 11
-1.9314826421
 21
21.1763803211
  0
LINE
  5
3CF
100
AcDbEntity
  8
ASSI
100
AcDbLine
 62
253
  6
CONTINUOUS
 10
-1.5400612859
 20
22.4566618891
 11
-1.9314826421
 21
21.1763803211
  0
LINE
  5
3D0
100
AcDbEntity
  8
RACCORDO
100
AcDbLine
 62
7
  6
CONTINUOUS
 10
-1.9900612859
 20
6.150037878
 11
-1.5508174336
 21
4.7133359735
  0
LINE
  5
3D1
100
AcDbEntity
  8
ASSI
100
AcDbLine
 62
7
  6
CONTINUOUS
 10
-1.9900612859
 20
6.150037878
 11
-1.5508174336
 21
4.7133359735
  0
LINE
  5
3D2
100
AcDbEntity
  8
RACCORDO
100
AcDbLine
 62
253
  6
CONTINUOUS
 10
-1.9314826421
 20
6.1799280783
 11
-1.5400612859
 21
4.8996465103
  0
LINE
  5
3D3
100
AcDbEntity
  8
ASSI
100
AcDbLine
 62
253
  6
CONTINUOUS
 10
-1.9314826421
 20
6.1799280783
 11
-1.5400612859
 21
4.8996465103
  0
LINE
  5
3D4
100
AcDbEntity
  8
DRAFT
100
AcDbLine
 62
7
  6
CONTINUOUS
 10
-2.0550720387
 20
2.5209158519
 11
-2.0550720387
 21
24.8353925476
  0
LINE
  5
3D5
100
AcDbEntity
  8
ASSI
100
AcDbLine
 62
7
  6
CONTINUOUS
 10
-2.0550720387
 20
2.5209158519
 11
-2.0550720387
 21
24.8353925476
  0
LINE
  5
3D6
100
AcDbEntity
  8
RACCORDO
100
AcDbLine
 62
7
  6
CONTINUOUS
 10
-1.9900612859
 20
21.205644282
 11
-1.9900612859
 21
20.6781541997
  0
LINE
  5
3D7
100
AcDbEntity
  8
RACCORDO
100
AcDbLine
 62
7
  6
CONTINUOUS
 10
-1.9900612859
 20
6.6781541997
 11
-1.9900612859
 21
6.1505343766
  0
LINE
  5
3D8
100
AcDbEntity
  8
ASSI
100
AcDbLine
 62
7
  6
CONTINUOUS
 10
-1.9900612859
 20
6.6781541997
 11
-1.9900612859
 21
6.1500562305
  0
LINE
  5
3D9
100
AcDbEntity
  8
ASSI
100
AcDbLine
 62
7
  6
CONTINUOUS
 10
-1.9900612859
 20
20.6781541997
 11
-1.9900612859
 21
21.2062705214
  0
LINE
  5
3DA
100
AcDbEntity
  8
RACCORDO
100
AcDbLine
 62
253
  6
CONTINUOUS
 10
-1.9314826421
 20
21.1763803211
 11
-1.9314826421
 21
20.6781541997
  0
LINE
  5
3DB
100
AcDbEntity
  8
ASSI
100
AcDbLine
 62
253
  6
CONTINUOUS
 10
-1.9314826421
 20
21.1763803211
 11
-1.9314826421
 21
20.6781541997
  0
LINE
  5
3DC
100
AcDbEntity
  8
RACCORDO
100
AcDbLine
 62
253
  6
CONTINUOUS
 10
-1.9314826421
 20
6.6781541997
 11
-1.9314826421
 21
6.1799280783
  0
LINE
  5
3DD
100
AcDbEntity
  8
ASSI
100
AcDbLine
 62
253
  6
CONTINUOUS
 10
-1.9314826421
 20
6.6781541997
 11
-1.9314826421
 21
6.1799280783
  0
LINE
  5
3DE
100
AcDbEntity
  8
RACCORDO
100
AcDbLine
 62
7
  6
CONTINUOUS
 10
-1.5400612859
 20
2.4781541997
 11
-1.5400612859
 21
6.6781541997
  0
LINE
  5
3DF
100
AcDbEntity
  8
DRAFT
100
AcDbLine
 62
7
  6
CONTINUOUS
 10
-1.5400612859
 20
6.6781541997
 11
-1.5400612859
 21
20.6781541997
  0
LINE
  5
3E0
100
AcDbEntity
  8
RACCORDO
100
AcDbLine
 62
7
  6
CONTINUOUS
 10
-1.5400612859
 20
20.6781541997
 11
-1.5400612859
 21
24.8781541997
  0
LINE
  5
3E1
100
AcDbEntity
  8
ASSI
100
AcDbLine
 62
7
  6
CONTINUOUS
 10
-1.5400612859
 20
2.4781541997
 11
-1.5400612859
 21
24.8781541997
  0
LWPOLYLINE
  5
3E2
100
AcDbEntity
  8
RACCORDO
100
AcDbPolyline
 62
7
  6
CONTINUOUS
 90
3
 70
0
 10
-1.9900612859
 20
6.1506641175
 10
-1.9899195962
 20
6.1517891715
 10
-1.9894951955
 20
6.1529495722
  0
LWPOLYLINE
  5
3E3
100
AcDbEntity
  8
ASSI
100
AcDbPolyline
 62
7
  6
CONTINUOUS
 90
22
 70
0
 10
-1.9900612859
 20
6.1506641175
 10
-1.9899195962
 20
6.1517891715
 10
-1.9894951955
 20
6.1529495722
 10
-1.9887893843
 20
6.1541453195
 10
-1.9878038996
 20
6.1553782244
 10
-1.9865408032
 20
6.156646476
 10
-1.9850023707
 20
6.1579446414
 10
-1.983191357
 20
6.1592728106
 10
-1.9811108858
 20
6.1606308938
 10
-1.9787641552
 20
6.1620131885
 10
-1.9761549304
 20
6.1634197648
 10
-1.9732873253
 20
6.1648505527
 10
-1.9701654034
 20
6.1662996407
 10
-1.9667938852
 20
6.1677670793
 10
-1.9631778193
 20
6.1692528179
 10
-1.9593220759
 20
6.1707507938
 10
-1.9552322722
 20
6.1722610387
 10
-1.950914332
 20
6.1737835209
 10
-1.9463738754
 20
6.1753120818
 10
-1.9416171354
 20
6.1768446685
 10
-1.9366510493
 20
6.1783833341
 10
-1.9314826421
 20
6.1799280783
  0
LWPOLYLINE
  5
3E4
100
AcDbEntity
  8
RACCORDO
100
AcDbPolyline
 62
7
  6
CONTINUOUS
 90
17
 70
0
 10
-1.9887893843
 20
6.1541453195
 10
-1.9878038996
 20
6.1553782244
 10
-1.9865408032
 20
6.156646476
 10
-1.9850023707
 20
6.1579446414
 10
-1.983191357
 20
6.1592728106
 10
-1.9811108858
 20
6.1606308938
 10
-1.9787641552
 20
6.1620131885
 10
-1.9761549304
 20
6.1634197648
 10
-1.9732873253
 20
6.1648505527
 10
-1.9701654034
 20
6.1662996407
 10
-1.9667938852
 20
6.1677670793
 10
-1.9631778193
 20
6.1692528179
 10
-1.9593220759
 20
6.1707507938
 10
-1.9552322722
 20
6.1722610387
 10
-1.950914332
 20
6.1737835209
 10
-1.9463738754
 20
6.1753120818
 10
-1.9416171354
 20
6.1768446685
  0
LWPOLYLINE
  5
3E5
100
AcDbEntity
  8
RACCORDO
100
AcDbPolyline
 62
7
  6
CONTINUOUS
 90
17
 70
0
 10
-1.9887893843
 20
21.2021630799
 10
-1.9878038996
 20
21.200930175
 10
-1.9865408032
 20
21.1996619235
 10
-1.9850023707
 20
21.198363758
 10
-1.983191357
 20
21.1970355888
 10
-1.9811108858
 20
21.1956775057
 10
-1.9787641552
 20
21.1942952109
 10
-1.9761549304
 20
21.1928886347
 10
-1.9732873253
 20
21.1914578468
 10
-1.9701654034
 20
21.1900087587
 10
-1.9667938852
 20
21.1885413202
 10
-1.9631778193
 20
21.1870555815
 10
-1.9593220759
 20
21.1855576057
 10
-1.9552322722
 20
21.1840473607
 10
-1.950914332
 20
21.1825248786
 10
-1.9463738754
 20
21.1809963177
 10
-1.9416171354
 20
21.1794637309
  0
LWPOLYLINE
  5
3E6
100
AcDbEntity
  8
RACCORDO
100
AcDbPolyline
 62
7
  6
CONTINUOUS
 90
3
 70
0
 10
-1.9900612859
 20
21.205644282
 10
-1.9899195962
 20
21.2045192279
 10
-1.9894951955
 20
21.2033588272
  0
LWPOLYLINE
  5
3E7
100
AcDbEntity
  8
ASSI
100
AcDbPolyline
 62
7
  6
CONTINUOUS
 90
22
 70
0
 10
-1.9900612859
 20
21.205644282
 10
-1.9899195962
 20
21.2045192279
 10
-1.9894951955
 20
21.2033588272
 10
-1.9887893843
 20
21.2021630799
 10
-1.9878038996
 20
21.200930175
 10
-1.9865408032
 20
21.1996619235
 10
-1.9850023707
 20
21.198363758
 10
-1.983191357
 20
21.1970355888
 10
-1.9811108858
 20
21.1956775057
 10
-1.9787641552
 20
21.1942952109
 10
-1.9761549304
 20
21.1928886347
 10
-1.9732873253
 20
21.1914578468
 10
-1.9701654034
 20
21.1900087587
 10
-1.9667938852
 20
21.1885413202
 10
-1.9631778193
 20
21.1870555815
 10
-1.9593220759
 20
21.1855576057
 10
-1.9552322722
 20
21.1840473607
 10
-1.950914332
 20
21.1825248786
 10
-1.9463738754
 20
21.1809963177
 10
-1.9416171354
 20
21.1794637309
 10
-1.9366510493
 20
21.1779250654
 10
-1.9314826421
 20
21.1763803211
  0
LINE
  5
3E8
100
AcDbEntity
  8
RACCORDO
100
AcDbLine
 62
7
  6
CONTINUOUS
 10
-0.2400612859
 20
1.5772905861
 11
-0.2400612859
 21
25.7790178134
  0
LINE
  5
3E9
100
AcDbEntity
  8
ASSI
100
AcDbLine
 62
7
  6
CONTINUOUS
 10
-0.2400612859
 20
1.5772905861
 11
-0.2400612859
 21
25.7790178134
  0
LINE
  5
3EA
100
AcDbEntity
  8
RACCORDO
100
AcDbLine
 62
7
  6
CONTINUOUS
 10
-1.9894951955
 20
6.1529495722
 11
-1.9887893843
 21
6.1541453195
  0
LINE
  5
3EB
100
AcDbEntity
  8
RACCORDO
100
AcDbLine
 62
7
  6
CONTINUOUS
 10
-1.9894951955
 20
21.2033588272
 11
-1.9887893843
 21
21.2021630799
  0
CIRCLE
  5
3EC
100
AcDbEntity
  8
RACCORDO
100
AcDbCircle
 62
7
  6
CONTINUOUS
 10
-18.6400612859
 20
13.6781541997
 40
2.75
  0
CIRCLE
  5
3ED
100
AcDbEntity
  8
ASSI
100
AcDbCircle
 62
7
  6
CONTINUOUS
 10
-18.6400612859
 20
13.6781541997
 40
2.75
  0
CIRCLE
  5
3EE
100
AcDbEntity
  8
RACCORDO
100
AcDbCircle
 62
253
  6
CONTINUOUS
 10
-18.6400612859
 20
13.6781541997
 40
2.2499999996
  0
CIRCLE
  5
3EF
100
AcDbEntity
  8
ASSI
100
AcDbCircle
 62
253
  6
CONTINUOUS
 10
-18.6400612859
 20
13.6781541997
 40
2.2499999996
  0
CIRCLE
  5
3F0
100
AcDbEntity
  8
0
100
AcDbCircle
 62
7
  6
CONTINUOUS
 10
-18.6400612859
 20
13.6781541997
 40
1.775
  0
CIRCLE
  5
3F1
100
AcDbEntity
  8
ASSI
100
AcDbCircle
 62
7
  6
CONTINUOUS
 10
-18.6400612859
 20
13.6781541997
 40
1.775
  0
CIRCLE
  5
3F2
100
AcDbEntity
  8
0
100
AcDbCircle
 62
7
  6
CONTINUOUS
 10
-18.6400612859
 20
13.6781541997
 40
1.7
  0
CIRCLE
  5
3F3
100
AcDbEntity
  8
ASSI
100
AcDbCircle
 62
7
  6
CONTINUOUS
 10
-18.6400612859
 20
13.6781541997
 40
1.7
  0
CIRCLE
  5
3F4
100
AcDbEntity
  8
DRAFT
100
AcDbCircle
 62
7
  6
CONTINUOUS
 10
-18.6400612859
 20
13.6781541997
 40
1.25
  0
CIRCLE
  5
3F5
100
AcDbEntity
  8
DRAFT
100
AcDbCircle
 62
7
  6
CONTINUOUS
 10
-18.6400612859
 20
13.6781541997
 40
1.2185839459
  0
ARC
  5
3F6
100
AcDbEntity
  8
ASSI
100
AcDbCircle
 62
7
  6
CONTINUOUS
 10
-20.5841132859
 20
23.4641971997
 40
0.5060329798
100
AcDbArc
 50
22.8428678668
 51
179.995376489
  0
ARC
  5
3F7
100
AcDbEntity
  8
RACCORDO
100
AcDbCircle
 62
7
  6
CONTINUOUS
 10
-5.3400612859
 20
18.5781541997
 40
0.3
100
AcDbArc
 50
0.0
 51
90.0
  0
ARC
  5
3F8
100
AcDbEntity
  8
RACCORDO
100
AcDbCircle
 62
7
  6
CONTINUOUS
 10
-5.3400612859
 20
17.7781541997
 40
0.3
100
AcDbArc
 50
270.0
 51
360.0
  0
ARC
  5
3F9
100
AcDbEntity
  8
RACCORDO
100
AcDbCircle
 62
7
  6
CONTINUOUS
 10
-12.7400612859
 20
17.7781541997
 40
0.3
100
AcDbArc
 50
180.0
 51
270.0
  0
ARC
  5
3FA
100
AcDbEntity
  8
RACCORDO
100
AcDbCircle
 62
7
  6
CONTINUOUS
 10
-12.7400612859
 20
18.5781541997
 40
0.3
100
AcDbArc
 50
90.0
 51
180.0
  0
ARC
  5
3FB
100
AcDbEntity
  8
ASSI
100
AcDbCircle
 62
7
  6
CONTINUOUS
 10
-5.3400612859
 20
18.5781541997
 40
0.3
100
AcDbArc
 50
0.0
 51
90.0
  0
ARC
  5
3FC
100
AcDbEntity
  8
ASSI
100
AcDbCircle
 62
7
  6
CONTINUOUS
 10
-5.3400612859
 20
17.7781541997
 40
0.3
100
AcDbArc
 50
270.0
 51
360.0
  0
ARC
  5
3FD
100
AcDbEntity
  8
ASSI
100
AcDbCircle
 62
7
  6
CONTINUOUS
 10
-12.7400612859
 20
17.7781541997
 40
0.3
100
AcDbArc
 50
180.0
 51
270.0
  0
ARC
  5
3FE
100
AcDbEntity
  8
ASSI
100
AcDbCircle
 62
7
  6
CONTINUOUS
 10
-12.7400612859
 20
18.5781541997
 40
0.3
100
AcDbArc
 50
90.0
 51
180.0
  0
ARC
  5
3FF
100
AcDbEntity
  8
ASSI
100
AcDbCircle
 62
7
  6
CONTINUOUS
 10
-20.5841132859
 20
23.4183921997
 40
0.200769
100
AcDbArc
 50
0.0047179438
 51
179.9952820562
  0
ELLIPSE
  5
400
100
AcDbEntity
  8
RACCORDO
100
AcDbEllipse
 62
7
  6
CONTINUOUS
 10
-0.5446892695
 20
1.5781998981
 30
0.0
 11
0.3031910442
 21
-0.0300136675
 31
0.0
 40
0.9846622838
 41
-1.4705984321
 42
0.0971673115
  0
ELLIPSE
  5
401
100
AcDbEntity
  8
RACCORDO
100
AcDbEllipse
 62
7
  6
CONTINUOUS
 10
-36.7354333023
 20
1.5781998981
 30
0.0
 11
0.3031910442
 21
0.0300136675
 31
0.0
 40
0.9846622838
 41
3.0444253421
 42
4.6121910857
  0
ELLIPSE
  5
402
100
AcDbEntity
  8
RACCORDO
100
AcDbEllipse
 62
7
  6
CONTINUOUS
 10
-36.7354333023
 20
25.7781085013
 30
0.0
 11
-0.3031910442
 21
0.0300136675
 31
0.0
 40
0.9846622838
 41
-1.4705984321
 42
0.0971673115
  0
ELLIPSE
  5
403
100
AcDbEntity
  8
RACCORDO
100
AcDbEllipse
 62
7
  6
CONTINUOUS
 10
-0.5446892695
 20
25.7781085013
 30
0.0
 11
-0.3031910442
 21
-0.0300136675
 31
0.0
 40
0.9846622838
 41
3.0444253421
 42
4.6121910857
  0
ELLIPSE
  5
404
100
AcDbEntity
  8
RACCORDO
100
AcDbEllipse
 62
7
  6
CONTINUOUS
 10
-35.7068418115
 20
5.4708709287
 30
0.0
 11
0.0249314015
 21
0.7617521624
 31
0.0
 40
0.0288198169
 41
-3.8635621789
 42
-3.0353711856
  0
ELLIPSE
  5
405
100
AcDbEntity
  8
RACCORDO
100
AcDbEllipse
 62
7
  6
CONTINUOUS
 10
-1.5732807604
 20
21.8854374708
 30
0.0
 11
0.0249314015
 21
0.7617521624
 31
0.0
 40
0.0288198169
 41
-0.7219695253
 42
0.106221468
  0
ELLIPSE
  5
406
100
AcDbEntity
  8
RACCORDO
100
AcDbEllipse
 62
7
  6
CONTINUOUS
 10
-15.3936511244
 20
24.8371379211
 30
0.0
 11
0.8
 21
-0.0
 31
0.0
 40
0.0087268678
 41
-1.5707963268
 42
-1.0471975512
  0
ELLIPSE
  5
407
100
AcDbEntity
  8
RACCORDO
100
AcDbEllipse
 62
7
  6
CONTINUOUS
 10
-15.3936511244
 20
2.5191704783
 30
0.0
 11
0.8
 21
0.0
 31
0.0
 40
0.0087268678
 41
1.0471975512
 42
1.5707963268
  0
ELLIPSE
  5
408
100
AcDbEntity
  8
RACCORDO
100
AcDbEllipse
 62
7
  6
CONTINUOUS
 10
-21.8864714474
 20
2.5191704783
 30
0.0
 11
0.8
 21
0.0
 31
0.0
 40
0.0087268678
 41
1.5707963268
 42
2.0943951024
  0
ELLIPSE
  5
409
100
AcDbEntity
  8
RACCORDO
100
AcDbEllipse
 62
7
  6
CONTINUOUS
 10
-21.8864714474
 20
24.8371379211
 30
0.0
 11
0.8
 21
0.0
 31
0.0
 40
0.0087268678
 41
-2.0943951024
 42
-1.5707963268
  0
ELLIPSE
  5
40A
100
AcDbEntity
  8
RACCORDO
100
AcDbEllipse
 62
7
  6
CONTINUOUS
 10
-13.925701932
 20
24.8284110533
 30
0.0
 11
0.8
 21
0.0
 31
0.0
 40
0.0087268678
 41
1.5707963268
 42
2.0943951024
  0
ELLIPSE
  5
40B
100
AcDbEntity
  8
RACCORDO
100
AcDbEllipse
 62
7
  6
CONTINUOUS
 10
-13.925701932
 20
2.5278973461
 30
0.0
 11
0.8
 21
0.0
 31
0.0
 40
0.0087268678
 41
-2.0943951024
 42
-1.5707963268
  0
ELLIPSE
  5
40C
100
AcDbEntity
  8
RACCORDO
100
AcDbEllipse
 62
7
  6
CONTINUOUS
 10
-23.3544206399
 20
24.8284110533
 30
0.0
 11
0.8
 21
-0.0
 31
0.0
 40
0.0087268678
 41
1.0471975512
 42
1.5707963268
  0
ELLIPSE
  5
40D
100
AcDbEntity
  8
RACCORDO
100
AcDbEllipse
 62
7
  6
CONTINUOUS
 10
-23.3544206399
 20
2.5278973461
 30
0.0
 11
0.8
 21
-0.0
 31
0.0
 40
0.0087268678
 41
-1.5707963268
 42
-1.0471975512
  0
ELLIPSE
  5
40E
100
AcDbEntity
  8
ASSI
100
AcDbEllipse
 62
7
  6
CONTINUOUS
 10
-0.5446892695
 20
1.5781998981
 30
0.0
 11
0.3031910442
 21
-0.0300136675
 31
0.0
 40
0.9846622838
 41
-1.4705984321
 42
0.0971673115
  0
ELLIPSE
  5
40F
100
AcDbEntity
  8
ASSI
100
AcDbEllipse
 62
7
  6
CONTINUOUS
 10
-36.7354333023
 20
1.5781998981
 30
0.0
 11
0.3031910442
 21
0.0300136675
 31
0.0
 40
0.9846622838
 41
3.0444253421
 42
4.6121910857
  0
ELLIPSE
  5
410
100
AcDbEntity
  8
ASSI
100
AcDbEllipse
 62
7
  6
CONTINUOUS
 10
-36.7354333023
 20
25.7781085013
 30
0.0
 11
-0.3031910442
 21
0.0300136675
 31
0.0
 40
0.9846622838
 41
-1.4705984321
 42
0.0971673115
  0
ELLIPSE
  5
411
100
AcDbEntity
  8
ASSI
100
AcDbEllipse
 62
7
  6
CONTINUOUS
 10
-0.5446892695
 20
25.7781085013
 30
0.0
 11
-0.3031910442
 21
-0.0300136675
 31
0.0
 40
0.9846622838
 41
3.0444253421
 42
4.6121910857
  0
ELLIPSE
  5
412
100
AcDbEntity
  8
ASSI
100
AcDbEllipse
 62
7
  6
CONTINUOUS
 10
-35.7068418115
 20
5.4708709287
 30
0.0
 11
0.0249314015
 21
0.7617521624
 31
0.0
 40
0.0288198169
 41
-3.8635621789
 42
-3.0353711856
  0
ELLIPSE
  5
413
100
AcDbEntity
  8
ASSI
100
AcDbEllipse
 62
7
  6
CONTINUOUS
 10
-35.7068418115
 20
21.8854374708
 30
0.0
 11
-0.0249314015
 21
0.7617521624
 31
0.0
 40
0.0288198169
 41
-0.106221468
 42
0.7219695253
  0
ELLIPSE
  5
414
100
AcDbEntity
  8
ASSI
100
AcDbEllipse
 62
7
  6
CONTINUOUS
 10
-15.3936511244
 20
24.8371379211
 30
0.0
 11
0.8
 21
-0.0
 31
0.0
 40
0.0087268678
 41
-1.5707963268
 42
-1.0471975512
  0
ELLIPSE
  5
415
100
AcDbEntity
  8
ASSI
100
AcDbEllipse
 62
7
  6
CONTINUOUS
 10
-15.3936511244
 20
2.5191704783
 30
0.0
 11
0.8
 21
-0.0
 31
0.0
 40
0.0087268678
 41
1.0471975512
 42
1.5707963268
  0
ELLIPSE
  5
416
100
AcDbEntity
  8
ASSI
100
AcDbEllipse
 62
7
  6
CONTINUOUS
 10
-21.8864714474
 20
2.5191704783
 30
0.0
 11
0.8
 21
0.0
 31
0.0
 40
0.0087268678
 41
1.5707963268
 42
2.0943951024
  0
ELLIPSE
  5
417
100
AcDbEntity
  8
ASSI
100
AcDbEllipse
 62
7
  6
CONTINUOUS
 10
-21.8864714474
 20
24.8371379211
 30
0.0
 11
0.8
 21
0.0
 31
0.0
 40
0.0087268678
 41
-2.0943951024
 42
-1.5707963268
  0
ELLIPSE
  5
418
100
AcDbEntity
  8
ASSI
100
AcDbEllipse
 62
7
  6
CONTINUOUS
 10
-13.925701932
 20
24.8284110533
 30
0.0
 11
0.8
 21
0.0
 31
0.0
 40
0.0087268678
 41
1.5707963268
 42
2.0943951024
  0
ELLIPSE
  5
419
100
AcDbEntity
  8
ASSI
100
AcDbEllipse
 62
7
  6
CONTINUOUS
 10
-13.925701932
 20
2.5278973461
 30
0.0
 11
0.8
 21
0.0
 31
0.0
 40
0.0087268678
 41
-2.0943951024
 42
-1.5707963268
  0
ELLIPSE
  5
41A
100
AcDbEntity
  8
ASSI
100
AcDbEllipse
 62
7
  6
CONTINUOUS
 10
-23.3544206399
 20
24.8284110533
 30
0.0
 11
0.8
 21
-0.0
 31
0.0
 40
0.0087268678
 41
1.0471975512
 42
1.5707963268
  0
ELLIPSE
  5
41B
100
AcDbEntity
  8
ASSI
100
AcDbEllipse
 62
7
  6
CONTINUOUS
 10
-23.3544206399
 20
2.5278973461
 30
0.0
 11
0.8
 21
-0.0
 31
0.0
 40
0.0087268678
 41
-1.5707963268
 42
-1.0471975512
  0
ELLIPSE
  5
41C
100
AcDbEntity
  8
ASSI
100
AcDbEllipse
 62
7
  6
CONTINUOUS
 10
-1.5732807604
 20
21.8854374708
 30
0.0
 11
0.0249314015
 21
0.7617521624
 31
0.0
 40
0.0288198169
 41
-0.7219695253
 42
0.106221468
  0
ELLIPSE
  5
41D
100
AcDbEntity
  8
ASSI
100
AcDbEllipse
 62
7
  6
CONTINUOUS
 10
-1.5732807604
 20
5.4708709287
 30
0.0
 11
-0.0249314015
 21
0.7617521624
 31
0.0
 40
0.0288198169
 41
-3.2478141216
 42
-2.4196231283
  0
ENDSEC
  0
SECTION
  2
OBJECTS
  0
DICTIONARY
  5
C
100
AcDbDictionary
280
0
281
1
  3
ACAD_GROUP
350
D
  3
ACAD_MLINESTYLE
350
17
  3
ACAD_LAYOUT
350
1A
  3
ACAD_PLOTSETTINGS
350
19
  3
ACAD_PLOTSTYLENAME
350
E
  0
DICTIONARY
  5
D
102
{ACAD_REACTORS
330
C
102
}
100
AcDbDictionary
280
0
281
1
  0
ACDBDICTIONARYWDFLT
  5
E
102
{ACAD_REACTORS
330
C
102
}
100
AcDbDictionary
281
1
  3
Normal
350
F
100
AcDbDictionaryWithDefault
340
F
  0
DICTIONARY
  5
17
102
{ACAD_REACTORS
330
C
102
}
100
AcDbDictionary
280
0
281
1
  3
Standard
350
18
  0
DICTIONARY
  5
19
102
{ACAD_REACTORS
330
C
102
}
100
AcDbDictionary
281
1
  0
DICTIONARY
  5
1A
102
{ACAD_REACTORS
330
C
102
}
100
AcDbDictionary
281
1
  3
Model
350
41E
  3
Layout1
350
41F
  0
ACDBPLACEHOLDER
  5
F
102
{ACAD_REACTORS
330
E
102
}
  0
MLINESTYLE
  5
18
102
{ACAD_REACTORS
330
17
102
}
100
AcDbMlineStyle
  2
STANDARD
 70
0
  3

 62
256
 51
90.0
 52
90.0
 71
2
 49
0.5
 62
256
  6
BYLAYER
 49
-0.5
 62
256
  6
BYLAYER
  0
LAYOUT
  5
41E
102
{ACAD_REACTORS
330
1A
102
}
100
AcDbPlotSettings
  1

  2
none_device
  4
ISO_A4_(297.00_x_210.00_MM)
  6

 40
0.0
 41
0.0
 42
0.0
 43
0.0
 44
297.0
 45
210.0
 46
0.0
 47
0.0
 48
0.0
 49
0.0
140
0.0
141
0.0
142
1.0
143
1.0
 70
1024
 72
1
 73
0
 74
0
  7

 75
0
147
1.0
148
0.0
149
0.0
100
AcDbLayout
  1
Model
 70
0
 71
0
 10
0.0
 20
0.0
 11
297.0
 21
210.0
 12
0.0
 22
0.0
 32
0.0
 14
0.0
 24
0.0
 34
0.0
 15
0.0
 25
0.0
 35
0.0
146
0.0
 13
0.0
 23
0.0
 33
0.0
 16
1.0
 26
0.0
 36
0.0
 17
0.0
 27
1.0
 37
0.0
 76
0
330
216
345
0
346
0
  0
LAYOUT
  5
41F
102
{ACAD_REACTORS
330
1A
102
}
100
AcDbPlotSettings
  1

  2
none_device
  4
ISO_A4_(297.00_x_210.00_MM)
  6

 40
0.0
 41
0.0
 42
0.0
 43
0.0
 44
297.0
 45
210.0
 46
0.0
 47
0.0
 48
0.0
 49
0.0
140
0.0
141
0.0
142
1.0
143
1.0
 70
0
 72
1
 73
0
 74
0
  7

 75
0
147
1.0
148
0.0
149
0.0
100
AcDbLayout
  1
Layout1
 70
0
 71
1
 10
0.0
 20
0.0
 11
297.0
 21
210.0
 12
0.0
 22
0.0
 32
0.0
 14
0.0
 24
0.0
 34
0.0
 15
0.0
 25
0.0
 35
0.0
146
0.0
 13
0.0
 23
0.0
 33
0.0
 16
1.0
 26
0.0
 36
0.0
 17
0.0
 27
1.0
 37
0.0
 76
0
330
217
345
0
346
0
  0
ENDSEC
  0
EOF
